  0
SECTION
  2
HEADER
  9
$ACADVER
  1
AC1024
  9
$DWGCODEPAGE
  3
ANSI_1252
  9
$EXTMAX
 10
558.8
 20
431.8
 30
0.0
  9
$EXTMIN
 10
0.0
 20
0.0
 30
0.0
  9
$LIMMIN
 10
0.0
 20
0.0
  9
$LIMMAX
 10
558.8
 20
431.8
  9
$VIEWCTR
 10
279.4
 20
215.9
  9
$VIEWSIZE
 40
431.8
  9
$CLAYER
  8
0
  9
$LTSCALE
 40
30.734
  9
$CELTYPE
  6
BYLAYER
  9
$DIMSCALE
 40
1.0
  9
$DIMASZ
 40
3.0
  9
$DIMEXO
 40
0.5
  9
$DIMDLI
 40
21.2344
  9
$DIMEXE
 40
1.5
  9
$DIMCEN
 40
5.0292
  9
$DIMLFAC
 40
1.0
  9
$DIMBLK
  1
_FILLED
  9
$DIMALT
 70
0
  9
$DIMALTF
 40
0.0393700787
  9
$DIMTXT
 40
3.0
  9
$DIMTOL
 70
1
  9
$DIMLIM
 70
0
  9
$DIMTFAC
 40
1.0
  9
$DIMTP
 40
0.01
  9
$DIMTM
 40
0.01
  9
$DIMGAP
 40
0.625
  9
$DIMDSEP
 70
44
  9
$AUNITS
 70
0
  9
$PDMODE
 70
3
  9
$PDSIZE
 40
3.0
  9
$HANDSEED
  5
4AD
  9
$TILEMODE
 70
1
  9
$MEASUREMENT
 70
1
  9
$INSUNITS
 70
4
  0
ENDSEC
  0
SECTION
  2
CLASSES
  0
CLASS
  1
ACDBDICTIONARYWDFLT
  2
AcDbDictionaryWithDefault
  3
AutoCAD 2000
 90
0
 91
1
280
0
281
0
  0
CLASS
  1
ACDBPLACEHOLDER
  2
AcDbPlaceHolder
  3
AutoCAD 2000
 90
0
 91
1
280
0
281
0
  0
CLASS
  1
LAYOUT
  2
AcDbLayout
  3
AutoCAD 2000
 90
0
 91
0
280
0
281
0
  0
ENDSEC
  0
SECTION
  2
TABLES
  0
TABLE
  2
VPORT
  5
8
100
AcDbSymbolTable
 70
2
  0
VPORT
  5
1F4
100
AcDbSymbolTableRecord
100
AcDbViewportTableRecord
  2
*ACTIVE
 70
0
 10
0.0
 20
0.0
 11
1.0
 21
1.0
 12
279.4
 22
215.9
 13
0.0
 23
0.0
 14
1.0
 24
1.0
 15
0.0
 25
0.0
 16
0.0
 26
0.0
 36
1.0
 17
0.0
 27
0.0
 37
0.0
 40
431.8
 41
1.2941176471
 42
50.0
 43
0.0
 44
0.0
 50
0.0
 51
0.0
 71
0
 72
100
 73
1
 74
1
 75
0
 76
0
 77
0
 78
0
  0
ENDTAB
  0
TABLE
  2
LTYPE
  5
5
100
AcDbSymbolTable
 70
6
  0
LTYPE
  5
14
100
AcDbSymbolTableRecord
100
AcDbLinetypeTableRecord
  2
BYBLOCK
 70
0
  3

 72
65
 73
0
 40
0.0
  0
LTYPE
  5
15
100
AcDbSymbolTableRecord
100
AcDbLinetypeTableRecord
  2
BYLAYER
 70
0
  3

 72
65
 73
0
 40
0.0
  0
LTYPE
  5
16
100
AcDbSymbolTableRecord
100
AcDbLinetypeTableRecord
  2
CONTINUOUS
 70
64
  3
Solid line
 72
65
 73
0
 40
0.0
  0
LTYPE
  5
1F5
100
AcDbSymbolTableRecord
100
AcDbLinetypeTableRecord
  2
CENTER
 70
64
  3
____ _ ____ _ ____ _ ____ _ ____ _ ____ _ ____
 72
65
 73
4
 40
0.6
 49
0.375
 74
0
 49
-0.075
 74
0
 49
0.075
 74
0
 49
-0.075
 74
0
  0
LTYPE
  5
1F6
100
AcDbSymbolTableRecord
100
AcDbLinetypeTableRecord
  2
HIDDEN
 70
64
  3
- - - - - - - - - - - - - - - - - - - -
 72
65
 73
2
 40
0.2
 49
0.1
 74
0
 49
-0.1
 74
0
  0
LTYPE
  5
1F7
100
AcDbSymbolTableRecord
100
AcDbLinetypeTableRecord
  2
PHANTOM
 70
64
  3
_____ _ _ _____ _ _ _____ _ _ _____
 72
65
 73
6
 40
0.8
 49
0.45
 74
0
 49
-0.05
 74
0
 49
0.1
 74
0
 49
-0.05
 74
0
 49
0.1
 74
0
 49
-0.05
 74
0
  0
LTYPE
  5
1F8
100
AcDbSymbolTableRecord
100
AcDbLinetypeTableRecord
  2
DOT
 70
64
  3
. . . . . . . . . . . . . . . . . . . .
 72
65
 73
2
 40
0.2
 49
0.1
 74
0
 49
-0.1
 74
0
  0
LTYPE
  5
1F9
100
AcDbSymbolTableRecord
100
AcDbLinetypeTableRecord
  2
DASHED
 70
64
  3
- - - - - - - - - - - - - - - - - - - -
 72
65
 73
2
 40
0.2
 49
0.1
 74
0
 49
-0.1
 74
0
  0
ENDTAB
  0
TABLE
  2
LAYER
  5
2
100
AcDbSymbolTable
 70
36
  0
LAYER
  5
10
100
AcDbSymbolTableRecord
100
AcDbLayerTableRecord
  2
0
 70
0
 62
7
  6
CONTINUOUS
370
-3
390
F
  0
LAYER
  5
1FA
100
AcDbSymbolTableRecord
100
AcDbLayerTableRecord
  2
DEFAULT_1
 70
0
 62
7
  6
CENTER
370
-3
390
F
  0
LAYER
  5
1FB
100
AcDbSymbolTableRecord
100
AcDbLayerTableRecord
  2
DEFAULT_2
 70
0
 62
7
  6
HIDDEN
370
-3
390
F
  0
LAYER
  5
1FC
100
AcDbSymbolTableRecord
100
AcDbLayerTableRecord
  2
DEFAULT_3
 70
0
 62
7
  6
PHANTOM
370
-3
390
F
  0
LAYER
  5
1FD
100
AcDbSymbolTableRecord
100
AcDbLayerTableRecord
  2
ASSI
 70
0
 62
7
  6
CONTINUOUS
370
-3
390
F
  0
LAYER
  5
1FE
100
AcDbSymbolTableRecord
100
AcDbLayerTableRecord
  2
COORDINATE
 70
0
 62
7
  6
CONTINUOUS
370
-3
390
F
  0
LAYER
  5
1FF
100
AcDbSymbolTableRecord
100
AcDbLayerTableRecord
  2
COORD_ORIGINE
 70
0
 62
7
  6
CONTINUOUS
370
-3
390
F
  0
LAYER
  5
200
100
AcDbSymbolTableRecord
100
AcDbLayerTableRecord
  2
COSMETICHE
 70
0
 62
7
  6
CONTINUOUS
370
-3
390
F
  0
LAYER
  5
201
100
AcDbSymbolTableRecord
100
AcDbLayerTableRecord
  2
CURVE
 70
0
 62
7
  6
CONTINUOUS
370
-3
390
F
  0
LAYER
  5
202
100
AcDbSymbolTableRecord
100
AcDbLayerTableRecord
  2
DRAFT
 70
0
 62
7
  6
CONTINUOUS
370
-3
390
F
  0
LAYER
  5
203
100
AcDbSymbolTableRecord
100
AcDbLayerTableRecord
  2
IMPORTED
 70
0
 62
7
  6
CONTINUOUS
370
-3
390
F
  0
LAYER
  5
204
100
AcDbSymbolTableRecord
100
AcDbLayerTableRecord
  2
INTF_1
 70
0
 62
7
  6
CONTINUOUS
370
-3
390
F
  0
LAYER
  5
205
100
AcDbSymbolTableRecord
100
AcDbLayerTableRecord
  2
INTF_11
 70
0
 62
7
  6
CONTINUOUS
370
-3
390
F
  0
LAYER
  5
206
100
AcDbSymbolTableRecord
100
AcDbLayerTableRecord
  2
INTF_12
 70
0
 62
7
  6
CONTINUOUS
370
-3
390
F
  0
LAYER
  5
207
100
AcDbSymbolTableRecord
100
AcDbLayerTableRecord
  2
INTF_2
 70
0
 62
7
  6
CONTINUOUS
370
-3
390
F
  0
LAYER
  5
208
100
AcDbSymbolTableRecord
100
AcDbLayerTableRecord
  2
NOTE
 70
0
 62
7
  6
CONTINUOUS
370
-3
390
F
  0
LAYER
  5
209
100
AcDbSymbolTableRecord
100
AcDbLayerTableRecord
  2
PIANI
 70
0
 62
7
  6
CONTINUOUS
370
-3
390
F
  0
LAYER
  5
20A
100
AcDbSymbolTableRecord
100
AcDbLayerTableRecord
  2
PIANI_ORIGINE
 70
0
 62
7
  6
CONTINUOUS
370
-3
390
F
  0
LAYER
  5
20B
100
AcDbSymbolTableRecord
100
AcDbLayerTableRecord
  2
PIANI_RIFERIMENTO
 70
0
 62
7
  6
CONTINUOUS
370
-3
390
F
  0
LAYER
  5
20C
100
AcDbSymbolTableRecord
100
AcDbLayerTableRecord
  2
PUNTI
 70
0
 62
7
  6
CONTINUOUS
370
-3
390
F
  0
LAYER
  5
20D
100
AcDbSymbolTableRecord
100
AcDbLayerTableRecord
  2
RACCORDO
 70
0
 62
7
  6
CONTINUOUS
370
-3
390
F
  0
LAYER
  5
20E
100
AcDbSymbolTableRecord
100
AcDbLayerTableRecord
  2
RGB__255__255__255__
 70
0
 62
7
  6
CONTINUOUS
370
-3
390
F
  0
LAYER
  5
20F
100
AcDbSymbolTableRecord
100
AcDbLayerTableRecord
  2
SMUSSO
 70
0
 62
7
  6
CONTINUOUS
370
-3
390
F
  0
LAYER
  5
210
100
AcDbSymbolTableRecord
100
AcDbLayerTableRecord
  2
SNAPLINE
 70
0
 62
7
  6
CONTINUOUS
370
-3
390
F
  0
LAYER
  5
211
100
AcDbSymbolTableRecord
100
AcDbLayerTableRecord
  2
SUPERFICI
 70
0
 62
7
  6
CONTINUOUS
370
-3
390
F
  0
LAYER
  5
212
100
AcDbSymbolTableRecord
100
AcDbLayerTableRecord
  2
TRACCIABILITA
 70
0
 62
7
  6
CONTINUOUS
370
-3
390
F
  0
LAYER
  5
213
100
AcDbSymbolTableRecord
100
AcDbLayerTableRecord
  2
TRASH
 70
0
 62
7
  6
CONTINUOUS
370
-3
390
F
  0
ENDTAB
  0
TABLE
  2
STYLE
  5
3
100
AcDbSymbolTable
 70
1
  0
STYLE
  5
11
100
AcDbSymbolTableRecord
100
AcDbTextStyleTableRecord
  2
STANDARD
 70
0
 40
0.0
 41
0.8
 50
0.0
 71
0
 42
0.2
  3
txt
  4

  0
STYLE
  5
214
100
AcDbSymbolTableRecord
100
AcDbTextStyleTableRecord
  2
TEXTSTYLE_1
 70
0
 40
0.0
 41
0.8
 50
0.0
 71
0
 42
0.2
  3
gdt
  4

  0
ENDTAB
  0
TABLE
  2
VIEW
  5
6
100
AcDbSymbolTable
 70
0
  0
ENDTAB
  0
TABLE
  2
UCS
  5
7
100
AcDbSymbolTable
 70
0
  0
ENDTAB
  0
TABLE
  2
APPID
  5
9
100
AcDbSymbolTable
 70
1
  0
APPID
  5
215
100
AcDbSymbolTableRecord
100
AcDbRegAppTableRecord
  2
ACAD
 70
0
  0
ENDTAB
  0
TABLE
  2
BLOCK_RECORD
  5
1
100
AcDbSymbolTable
 70
0
  0
BLOCK_RECORD
  5
216
100
AcDbSymbolTableRecord
100
AcDbBlockTableRecord
  2
*Model_Space
  0
BLOCK_RECORD
  5
217
100
AcDbSymbolTableRecord
100
AcDbBlockTableRecord
  2
*Paper_Space
  0
BLOCK_RECORD
  5
218
100
AcDbSymbolTableRecord
100
AcDbBlockTableRecord
  2
_FILLED
  0
ENDTAB
  0
TABLE
  2
DIMSTYLE
  5
A
100
AcDbSymbolTable
 70
1
100
AcDbDimStyleTable
 71
0
  0
DIMSTYLE
105
219
100
AcDbSymbolTableRecord
100
AcDbDimStyleTableRecord
  2
STANDARD
 70
0
  3

  4

 40
1.0
 41
3.0
 42
0.5
 43
0.38
 44
1.5
 45
0.0
 46
0.0
 47
0.01
 48
0.01
140
3.0
141
0.09
142
0.0
143
25.4
144
1.0
145
0.0
146
1.0
147
0.625
 71
1.0
 72
0.0
 73
0
 74
0
 75
0
 76
0
 77
1
 78
8
 79
2
170
0
171
1
172
0
173
0
174
0
175
0
176
0
177
0
178
0
270
2
179
2
271
2
272
2
273
2
274
2
275
0
280
0
281
0
282
0
283
1
284
8
285
0
286
0
287
3
288
0
340
11
278
44
341
218
342
218
343
218
344
218
  0
ENDTAB
  0
ENDSEC
  0
SECTION
  2
BLOCKS
  0
BLOCK
  5
20
100
AcDbEntity
  8
0
100
AcDbBlockBegin
  2
*Model_Space
 70
0
 10
0.0
 20
0.0
 30
0.0
  3
*Model_Space
  1

  0
ENDBLK
  5
21
100
AcDbEntity
  8
0
100
AcDbBlockEnd
  0
BLOCK
  5
1C
100
AcDbEntity
  8
0
100
AcDbBlockBegin
  2
*Paper_Space
 70
0
 10
0.0
 20
0.0
 30
0.0
  3
*Paper_Space
  1

  0
ENDBLK
  5
1D
100
AcDbEntity
  8
0
100
AcDbBlockEnd
  0
BLOCK
  5
21A
100
AcDbEntity
  8
0
100
AcDbBlockBegin
  2
_FILLED
 70
64
 10
0.0
 20
0.0
  3
_FILLED
  1

  0
SOLID
  5
21B
100
AcDbEntity
  8
0
  6
BYBLOCK
 62
0
100
AcDbTrace
 10
0.0
 20
0.0
 11
-1.0
 21
0.3166666667
 12
-1.0
 22
-0.3166666667
 13
-1.0
 23
-0.3166666667
  0
ENDBLK
  5
21C
100
AcDbEntity
  8
0
  6
BYBLOCK
 62
0
100
AcDbBlockEnd
  0
ENDSEC
  0
SECTION
  2
ENTITIES
  0
LINE
  5
21D
100
AcDbEntity
  8
ASSI
100
AcDbLine
 62
7
  6
CONTINUOUS
 10
-30.4641483908
 20
-12.4937543473
 11
-30.4641483908
 21
-2.5908722158
  0
LINE
  5
21E
100
AcDbEntity
  8
ASSI
100
AcDbLine
 62
7
  6
CONTINUOUS
 10
-29.0499348285
 20
-12.8597797511
 11
-29.0499348285
 21
-2.9568976196
  0
LWPOLYLINE
  5
21F
100
AcDbEntity
  8
RACCORDO
100
AcDbPolyline
 62
7
  6
CONTINUOUS
 90
40
 70
0
 10
-19.0500735522
 20
20.1706901987
 10
-19.0772017688
 20
20.1610404693
 10
-19.1183667233
 20
20.1448456025
 10
-19.1594174585
 20
20.1267883807
 10
-19.2003329075
 20
20.1068363276
 10
-19.2410180548
 20
20.0849958355
 10
-19.2813108631
 20
20.0613243596
 10
-19.3211677608
 20
20.035823672
 10
-19.3605410137
 20
20.0085007791
 10
-19.3992787509
 20
19.9794447847
 10
-19.4373429192
 20
19.9486734299
 10
-19.4746961146
 20
19.9162066025
 10
-19.5112028429
 20
19.882158616
 10
-19.5468313239
 20
19.8465614192
 10
-19.5815554893
 20
19.8094435284
 10
-19.6152616346
 20
19.7709337815
 10
-19.64792425
 20
19.7310748486
 10
-19.679525028
 20
19.6899024982
 10
-19.7099721247
 20
19.6475527454
 10
-19.7392427197
 20
19.6040818223
 10
-19.7673281097
 20
19.5595256877
 10
-19.7941666956
 20
19.5140047921
 10
-19.8197371199
 20
19.4675871838
 10
-19.8440374348
 20
19.4203043446
 10
-19.8670405952
 20
19.372232076
 10
-19.8887346899
 20
19.3234222649
 10
-19.9091075537
 20
19.2739221239
 10
-19.9281359248
 20
19.2238074644
 10
-19.9458085377
 20
19.1731293175
 10
-19.9621125559
 20
19.1219361478
 10
-19.9770280781
 20
19.070304844
 10
-19.9905439436
 20
19.0182858488
 10
-20.0026477729
 20
18.9659280173
 10
-20.0133231748
 20
18.9133084223
 10
-20.0225590045
 20
18.8604775815
 10
-20.0303438562
 20
18.8074840546
 10
-20.0366640964
 20
18.7544001064
 10
-20.0415079825
 20
18.7012808556
 10
-20.0448662073
 20
18.648173157
 10
-20.0463300516
 20
18.6109332527
  0
LINE
  5
220
100
AcDbEntity
  8
RACCORDO
100
AcDbLine
 62
7
  6
CONTINUOUS
 10
-19.0500538065
 20
20.1706971922
 11
-14.5516131654
 21
21.7041127669
  0
LINE
  5
221
100
AcDbEntity
  8
RACCORDO
100
AcDbLine
 62
250
  6
CONTINUOUS
 10
-14.5516131654
 20
21.6596809856
 11
-18.9072339447
 21
20.1749494368
  0
LINE
  5
222
100
AcDbEntity
  8
RACCORDO
100
AcDbLine
 62
7
  6
CONTINUOUS
 10
1.877318728
 20
-27.0205230878
 11
1.3487514626
 21
-27.1631527403
  0
LINE
  5
223
100
AcDbEntity
  8
RACCORDO
100
AcDbLine
 62
250
  6
CONTINUOUS
 10
1.9899899515
 20
-26.8246424447
 11
1.4617227797
 21
-26.9671911194
  0
LINE
  5
224
100
AcDbEntity
  8
RACCORDO
100
AcDbLine
 62
7
  6
CONTINUOUS
 10
1.5734770163
 20
-25.1783823671
 11
2.2946445212
 21
-24.9896850993
  0
LINE
  5
225
100
AcDbEntity
  8
RACCORDO
100
AcDbLine
 62
250
  6
CONTINUOUS
 10
1.8045065286
 20
-24.7850696738
 11
2.5223829515
 21
-24.597233535
  0
LINE
  5
226
100
AcDbEntity
  8
RACCORDO
100
AcDbLine
 62
7
  6
CONTINUOUS
 10
1.346432261
 20
-27.163753074
 11
1.3487514624
 21
-27.1631527404
  0
LINE
  5
227
100
AcDbEntity
  8
RACCORDO
100
AcDbLine
 62
7
  6
CONTINUOUS
 10
1.3464322757
 20
-27.1637530704
 11
-0.2551436934
 21
-27.5608215492
  0
LINE
  5
228
100
AcDbEntity
  8
RACCORDO
100
AcDbLine
 62
250
  6
CONTINUOUS
 10
1.4617227797
 20
-26.9671911194
 11
-0.1395580111
 21
-27.3641864165
  0
LINE
  5
229
100
AcDbEntity
  8
RACCORDO
100
AcDbLine
 62
7
  6
CONTINUOUS
 10
-3.9521373294
 20
-26.1713638209
 11
1.5559978246
 21
-25.1822323804
  0
LINE
  5
22A
100
AcDbEntity
  8
RACCORDO
100
AcDbLine
 62
250
  6
CONTINUOUS
 10
-3.6931827439
 20
-25.7723252799
 11
1.8045065286
 21
-24.7850696738
  0
LWPOLYLINE
  5
22B
100
AcDbEntity
  8
RACCORDO
100
AcDbPolyline
 62
7
  6
CONTINUOUS
 90
12
 70
0
 10
-4.3832162837
 20
-26.1562052345
 10
-4.350491863
 20
-26.1640844437
 10
-4.3104929864
 20
-26.1721274125
 10
-4.2700238345
 20
-26.1785323792
 10
-4.2291487323
 20
-26.1832723665
 10
-4.1879450187
 20
-26.186324232
 10
-4.1464717383
 20
-26.1876729586
 10
-4.1047876678
 20
-26.1873063293
 10
-4.0629677921
 20
-26.1852157484
 10
-4.0210769705
 20
-26.1813988174
 10
-3.9791715309
 20
-26.1758567286
 10
-3.9521575167
 20
-26.171367287
  0
LINE
  5
22C
100
AcDbEntity
  8
RACCORDO
100
AcDbLine
 62
7
  6
CONTINUOUS
 10
-15.0672468215
 20
-23.7583215868
 11
-13.7422621416
 21
-24.1012528564
  0
LINE
  5
22D
100
AcDbEntity
  8
RACCORDO
100
AcDbLine
 62
7
  6
CONTINUOUS
 10
-1.702928657
 20
-27.2172616525
 11
-0.3779439772
 21
-27.5601929221
  0
LINE
  5
22E
100
AcDbEntity
  8
RACCORDO
100
AcDbLine
 62
250
  6
CONTINUOUS
 10
-15.181382815
 20
-23.5620496758
 11
-13.8563981352
 21
-23.9049809454
  0
LINE
  5
22F
100
AcDbEntity
  8
RACCORDO
100
AcDbLine
 62
250
  6
CONTINUOUS
 10
-1.8170646506
 20
-27.0209897415
 11
-0.4920799707
 21
-27.3639210111
  0
LINE
  5
230
100
AcDbEntity
  8
RACCORDO
100
AcDbLine
 62
7
  6
CONTINUOUS
 10
-4.3830766814
 20
-26.1562413882
 11
-19.2238398397
 21
-22.315169239
  0
LINE
  5
231
100
AcDbEntity
  8
RACCORDO
100
AcDbLine
 62
7
  6
CONTINUOUS
 10
-19.2237262664
 20
-22.3151986235
 11
-19.2238397495
 21
-22.3151692623
  0
LINE
  5
232
100
AcDbEntity
  8
RACCORDO
100
AcDbLine
 62
250
  6
CONTINUOUS
 10
-0.4920799707
 20
-26.9847293595
 11
-1.8170646506
 21
-26.6417980899
  0
LINE
  5
233
100
AcDbEntity
  8
RACCORDO
100
AcDbLine
 62
250
  6
CONTINUOUS
 10
-0.4036916231
 20
-26.7527236958
 11
-1.7286763029
 21
-26.4097924262
  0
LINE
  5
234
100
AcDbEntity
  8
RACCORDO
100
AcDbLine
 62
250
  6
CONTINUOUS
 10
-5.0749538771
 20
-25.0359033182
 11
-19.8997999547
 21
-21.1989508126
  0
LINE
  5
235
100
AcDbEntity
  8
RACCORDO
100
AcDbLine
 62
7
  6
CONTINUOUS
 10
0.2191406374
 20
-26.1056844746
 11
-1.1140716963
 21
-25.7606237315
  0
LINE
  5
236
100
AcDbEntity
  8
RACCORDO
100
AcDbLine
 62
250
  6
CONTINUOUS
 10
-11.9025953847
 20
22.5282465312
 11
-11.3743282129
 21
23.0856415948
  0
LINE
  5
237
100
AcDbEntity
  8
RACCORDO
100
AcDbLine
 62
7
  6
CONTINUOUS
 10
-11.9025953847
 20
22.3979073134
 11
-11.3706761074
 21
22.9591558544
  0
LINE
  5
238
100
AcDbEntity
  8
RACCORDO
100
AcDbLine
 62
7
  6
CONTINUOUS
 10
-11.9025953847
 20
21.5521928294
 11
-12.7926555674
 21
21.2611420812
  0
LINE
  5
239
100
AcDbEntity
  8
RACCORDO
100
AcDbLine
 62
250
  6
CONTINUOUS
 10
2.5223829515
 20
-21.6649956573
 11
21.2263729091
 21
-16.4640340473
  0
LINE
  5
23A
100
AcDbEntity
  8
DRAFT
100
AcDbLine
 62
7
  6
CONTINUOUS
 10
2.5223829515
 20
-22.7096025565
 11
7.7571991783
 21
-21.2861489717
  0
LINE
  5
23B
100
AcDbEntity
  8
RACCORDO
100
AcDbLine
 62
7
  6
CONTINUOUS
 10
6.1965602519
 20
-22.6578735656
 11
2.5223829515
 21
-23.6357880264
  0
LINE
  5
23C
100
AcDbEntity
  8
RACCORDO
100
AcDbLine
 62
7
  6
CONTINUOUS
 10
7.0780957105
 20
-21.9817819124
 11
2.5223829515
 21
-23.0922246488
  0
LINE
  5
23D
100
AcDbEntity
  8
RACCORDO
100
AcDbLine
 62
250
  6
CONTINUOUS
 10
1.9899899515
 20
-26.437021405
 11
1.4617227797
 21
-26.1562779558
  0
LINE
  5
23E
100
AcDbEntity
  8
RACCORDO
100
AcDbLine
 62
7
  6
CONTINUOUS
 10
1.9295096987
 20
-26.1707738325
 11
1.4617227797
 21
-25.9221721398
  0
LWPOLYLINE
  5
23F
100
AcDbEntity
  8
RACCORDO
100
AcDbPolyline
 62
7
  6
CONTINUOUS
 90
36
 70
0
 10
-20.0463230708
 20
-21.1025719116
 10
-20.0448042105
 20
-21.1402347642
 10
-20.0414065779
 20
-21.1920748683
 10
-20.0364940248
 20
-21.2435854046
 10
-20.0300492877
 20
-21.2947614444
 10
-20.0220659542
 20
-21.345509631
 10
-20.0125593056
 20
-21.3956474529
 10
-20.0015291347
 20
-21.4451329559
 10
-19.9889751733
 20
-21.4939206001
 10
-19.9749355424
 20
-21.5418338894
 10
-19.9594214562
 20
-21.5888337802
 10
-19.9424430543
 20
-21.6348814686
 10
-19.924061432
 20
-21.6798154083
 10
-19.9042990385
 20
-21.7236038248
 10
-19.8831786177
 20
-21.7662119316
 10
-19.8607882129
 20
-21.807488687
 10
-19.8371737857
 20
-21.8473939378
 10
-19.8123638152
 20
-21.8859180068
 10
-19.7864437938
 20
-21.9229684998
 10
-19.7594862597
 20
-21.9584949491
 10
-19.7315163059
 20
-21.9925135177
 10
-19.7025581052
 20
-22.0250327539
 10
-19.6726623154
 20
-22.0560314763
 10
-19.6418780956
 20
-22.0854935854
 10
-19.6102278101
 20
-22.1134265523
 10
-19.5777625475
 20
-22.1398110757
 10
-19.5445374507
 20
-22.1646297376
 10
-19.5105818142
 20
-22.1878845323
 10
-19.4759548822
 20
-22.2095559947
 10
-19.4407116246
 20
-22.2296329238
 10
-19.4048755436
 20
-22.2481226842
 10
-19.3685060421
 20
-22.2650121121
 10
-19.3316628558
 20
-22.2802914043
 10
-19.2943698764
 20
-22.2939682444
 10
-19.2566752004
 20
-22.3060395204
 10
-19.2237303596
 20
-22.3151975548
  0
LWPOLYLINE
  5
240
100
AcDbEntity
  8
RACCORDO
100
AcDbPolyline
 62
7
  6
CONTINUOUS
 90
6
 70
0
 10
-20.2399966881
 20
-12.8545968738
 10
-20.2273489077
 20
-13.5985160077
 10
-20.1899812962
 20
-15.4808836655
 10
-20.1472771576
 20
-17.3616098081
 10
-20.0992372614
 20
-19.2406620874
 10
-20.04632318
 20
-21.102574355
  0
LWPOLYLINE
  5
241
100
AcDbEntity
  8
RACCORDO
100
AcDbPolyline
 62
7
  6
CONTINUOUS
 90
10
 70
0
 10
-20.0463301262
 20
18.610934409
 10
-20.0992770127
 20
16.7194225127
 10
-20.1473118877
 20
14.8146747125
 10
-20.1900112842
 20
12.9111070974
 10
-20.2273744
 20
11.0087524431
 10
-20.259400718
 20
9.1076392966
 10
-20.286089794
 20
7.2077945015
 10
-20.3074411916
 20
5.3092462854
 10
-20.323454608
 20
3.4120240008
 10
-20.3333792166
 20
1.6494532899
  0
LINE
  5
242
100
AcDbEntity
  8
RACCORDO
100
AcDbLine
 62
7
  6
CONTINUOUS
 10
-2.9576946027
 20
19.2370821505
 11
-3.3153737519
 21
19.1201206393
  0
LINE
  5
243
100
AcDbEntity
  8
RACCORDO
100
AcDbLine
 62
250
  6
CONTINUOUS
 10
2.5223829515
 20
-20.5215298998
 11
21.6405233848
 21
-15.2054067264
  0
LINE
  5
244
100
AcDbEntity
  8
RACCORDO
100
AcDbLine
 62
7
  6
CONTINUOUS
 10
-12.9560235415
 20
-23.9373994681
 11
-13.6194618578
 21
-24.1018814834
  0
LINE
  5
245
100
AcDbEntity
  8
RACCORDO
100
AcDbLine
 62
250
  6
CONTINUOUS
 10
-13.2875107691
 20
-23.8516042604
 11
-13.5038761755
 21
-23.9052463508
  0
LINE
  5
246
100
AcDbEntity
  8
ASSI
100
AcDbLine
 62
7
  6
CONTINUOUS
 10
-23.740141513
 20
-15.1400168037
 11
-28.3520418006
 21
-14.0406618008
  0
LINE
  5
247
100
AcDbEntity
  8
ASSI
100
AcDbLine
 62
7
  6
CONTINUOUS
 10
-28.3520418006
 20
-14.0406618008
 11
-28.3651101494
 21
-14.0373776717
  0
LINE
  5
248
100
AcDbEntity
  8
ASSI
100
AcDbLine
 62
7
  6
CONTINUOUS
 10
-28.3651188673
 20
-14.0374112171
 11
-29.7793324297
 21
-13.6713858133
  0
LINE
  5
249
100
AcDbEntity
  8
ASSI
100
AcDbLine
 62
250
  6
CONTINUOUS
 10
-29.0499348285
 20
-12.8597797511
 11
-30.4641483908
 21
-12.4937543473
  0
LINE
  5
24A
100
AcDbEntity
  8
ASSI
100
AcDbLine
 62
7
  6
CONTINUOUS
 10
-29.766255363
 20
-1.048734152
 11
-25.1543550754
 21
2.437916108
  0
LINE
  5
24B
100
AcDbEntity
  8
RACCORDO
100
AcDbLine
 62
250
  6
CONTINUOUS
 10
-4.0590154839
 20
16.3319477133
 11
0.4600156545
 21
17.7793971285
  0
LINE
  5
24C
100
AcDbEntity
  8
RACCORDO
100
AcDbLine
 62
250
  6
CONTINUOUS
 10
1.8045065286
 20
17.5222607622
 11
-3.6931827439
 21
15.7613463363
  0
LINE
  5
24D
100
AcDbEntity
  8
RACCORDO
100
AcDbLine
 62
7
  6
CONTINUOUS
 10
7.0780957105
 20
19.6804833678
 11
2.2045664887
 21
18.2560354655
  0
LINE
  5
24E
100
AcDbEntity
  8
RACCORDO
100
AcDbLine
 62
7
  6
CONTINUOUS
 10
-15.2546061197
 20
23.305809737
 11
-15.2546061197
 21
22.9266180854
  0
LINE
  5
24F
100
AcDbEntity
  8
RACCORDO
100
AcDbLine
 62
7
  6
CONTINUOUS
 10
-15.2546061197
 20
-23.3424825202
 11
-15.2546061197
 21
-23.5162965003
  0
LINE
  5
250
100
AcDbEntity
  8
RACCORDO
100
AcDbLine
 62
250
  6
CONTINUOUS
 10
-15.181382815
 20
23.2600565616
 11
-15.181382815
 21
22.8808649099
  0
LINE
  5
251
100
AcDbEntity
  8
RACCORDO
100
AcDbLine
 62
250
  6
CONTINUOUS
 10
-15.181382815
 20
-23.361434106
 11
-15.181382815
 21
-23.5620496758
  0
LINE
  5
252
100
AcDbEntity
  8
RACCORDO
100
AcDbLine
 62
7
  6
CONTINUOUS
 10
-14.5516131654
 20
22.4027673791
 11
-14.5516131654
 21
21.6433462368
  0
LINE
  5
253
100
AcDbEntity
  8
RACCORDO
100
AcDbLine
 62
250
  6
CONTINUOUS
 10
-14.4783898607
 20
22.3678454288
 11
-14.4783898607
 21
21.5938863491
  0
LINE
  5
254
100
AcDbEntity
  8
RACCORDO
100
AcDbLine
 62
250
  6
CONTINUOUS
 10
-13.8563981352
 20
-23.9049809454
 11
-13.8563981352
 21
-23.7043653756
  0
LINE
  5
255
100
AcDbEntity
  8
RACCORDO
100
AcDbLine
 62
250
  6
CONTINUOUS
 10
-13.8563981352
 20
22.5379336403
 11
-13.8563981352
 21
22.9171252919
  0
LINE
  5
256
100
AcDbEntity
  8
DRAFT
100
AcDbLine
 62
7
  6
CONTINUOUS
 10
-13.6390796785
 20
3.1553413854
 11
-13.6390796785
 21
3.0571944756
  0
LINE
  5
257
100
AcDbEntity
  8
RACCORDO
100
AcDbLine
 62
250
  6
CONTINUOUS
 10
-13.5038761755
 20
-23.9052463508
 11
-13.5038761755
 21
-23.7956047726
  0
LINE
  5
258
100
AcDbEntity
  8
RACCORDO
100
AcDbLine
 62
250
  6
CONTINUOUS
 10
-13.5038761755
 20
22.5376682349
 11
-13.5038761755
 21
22.9168598866
  0
LINE
  5
259
100
AcDbEntity
  8
RACCORDO
100
AcDbLine
 62
250
  6
CONTINUOUS
 10
-16.9861215047
 20
0.8620597647
 11
-16.9902548708
 21
0.8527450764
  0
LINE
  5
25A
100
AcDbEntity
  8
RACCORDO
100
AcDbLine
 62
250
  6
CONTINUOUS
 10
-16.9858162833
 20
0.8617588471
 11
-16.9899805825
 21
0.8524755181
  0
LINE
  5
25B
100
AcDbEntity
  8
ASSI
100
AcDbLine
 62
7
  6
CONTINUOUS
 10
-28.3520418006
 20
-1.4147595558
 11
-23.740141513
 21
2.0718907042
  0
LINE
  5
25C
100
AcDbEntity
  8
RACCORDO
100
AcDbLine
 62
250
  6
CONTINUOUS
 10
-13.1451775271
 20
22.0227846856
 11
-13.1451775271
 21
21.248825606
  0
LINE
  5
25D
100
AcDbEntity
  8
RACCORDO
100
AcDbLine
 62
250
  6
CONTINUOUS
 10
-12.7926555674
 20
22.1619386642
 11
-12.7926555674
 21
21.2611420812
  0
LINE
  5
25E
100
AcDbEntity
  8
ASSI
100
AcDbLine
 62
7
  6
CONTINUOUS
 10
-12.3622147924
 20
-7.1148681866
 11
-12.3622147924
 21
-0.0636096547
  0
LINE
  5
25F
100
AcDbEntity
  8
RACCORDO
100
AcDbLine
 62
7
  6
CONTINUOUS
 10
-11.9025953847
 20
21.5521928294
 11
-11.9025953847
 21
23.3391596947
  0
LINE
  5
260
100
AcDbEntity
  8
RACCORDO
100
AcDbLine
 62
250
  6
CONTINUOUS
 10
-11.3743282129
 20
23.4732626346
 11
-11.3743282129
 21
23.0856415948
  0
LINE
  5
261
100
AcDbEntity
  8
RACCORDO
100
AcDbLine
 62
7
  6
CONTINUOUS
 10
-11.3021303559
 20
23.5187488561
 11
-11.3021303559
 21
23.1311278163
  0
LINE
  5
262
100
AcDbEntity
  8
RACCORDO
100
AcDbLine
 62
250
  6
CONTINUOUS
 10
1.4617227797
 20
19.0693064654
 11
1.9899899515
 21
19.626701529
  0
LINE
  5
263
100
AcDbEntity
  8
RACCORDO
100
AcDbLine
 62
7
  6
CONTINUOUS
 10
1.4617227797
 20
18.9389672476
 11
2.0610619555
 21
19.5713531233
  0
LINE
  5
264
100
AcDbEntity
  8
RACCORDO
100
AcDbLine
 62
7
  6
CONTINUOUS
 10
-9.6781713803
 20
22.0047901165
 11
-9.6781713803
 21
20.620838705
  0
LINE
  5
265
100
AcDbEntity
  8
RACCORDO
100
AcDbLine
 62
250
  6
CONTINUOUS
 10
-9.5317247709
 20
21.7271530059
 11
-9.5317247709
 21
20.5219189298
  0
LINE
  5
266
100
AcDbEntity
  8
RACCORDO
100
AcDbLine
 62
7
  6
CONTINUOUS
 10
9.9177637083
 20
-5.8608759685
 11
17.2574463569
 21
-3.9350547343
  0
LINE
  5
267
100
AcDbEntity
  8
RACCORDO
100
AcDbLine
 62
250
  6
CONTINUOUS
 10
21.2932999752
 20
-4.3062317711
 11
17.9400852363
 21
-5.1235688481
  0
LINE
  5
268
100
AcDbEntity
  8
RACCORDO
100
AcDbLine
 62
250
  6
CONTINUOUS
 10
20.9398004325
 20
-3.7318500014
 11
17.5865856936
 21
-4.5491870785
  0
LINE
  5
269
100
AcDbEntity
  8
DRAFT
100
AcDbLine
 62
7
  6
CONTINUOUS
 10
-11.1134577875
 20
-9.5382973973
 11
-11.1025959977
 21
-9.5386452769
  0
LINE
  5
26A
100
AcDbEntity
  8
DRAFT
100
AcDbLine
 62
7
  6
CONTINUOUS
 10
-11.1134784461
 20
-9.5381208141
 11
-11.1025967481
 21
-9.5386389538
  0
LINE
  5
26B
100
AcDbEntity
  8
ASSI
100
AcDbLine
 62
250
  6
CONTINUOUS
 10
-29.0499348285
 20
-2.9568976196
 11
-30.4641483908
 21
-2.5908722158
  0
LINE
  5
26C
100
AcDbEntity
  8
ASSI
100
AcDbLine
 62
250
  6
CONTINUOUS
 10
-28.3520418006
 20
-1.4147595558
 11
-29.766255363
 21
-1.048734152
  0
LINE
  5
26D
100
AcDbEntity
  8
RACCORDO
100
AcDbLine
 62
7
  6
CONTINUOUS
 10
17.2574463569
 20
-1.8319497739
 11
9.9177637083
 21
-3.8404181452
  0
LINE
  5
26E
100
AcDbEntity
  8
RACCORDO
100
AcDbLine
 62
7
  6
CONTINUOUS
 10
-10.9529259296
 20
-9.635902183
 11
-10.9523799978
 21
-9.6357567563
  0
LINE
  5
26F
100
AcDbEntity
  8
RACCORDO
100
AcDbLine
 62
250
  6
CONTINUOUS
 10
11.0656125951
 20
-3.6052033598
 11
12.9875633131
 21
-3.1135204441
  0
LINE
  5
270
100
AcDbEntity
  8
DRAFT
100
AcDbLine
 62
7
  6
CONTINUOUS
 10
9.2022626714
 20
-5.1923289606
 11
15.6671877655
 21
-3.5631721621
  0
LINE
  5
271
100
AcDbEntity
  8
RACCORDO
100
AcDbLine
 62
7
  6
CONTINUOUS
 10
9.2270683678
 20
-4.7380998531
 11
10.0960702858
 21
-4.5205559611
  0
LINE
  5
272
100
AcDbEntity
  8
RACCORDO
100
AcDbLine
 62
7
  6
CONTINUOUS
 10
10.8427743005
 20
-3.9858482374
 11
12.7574908317
 21
-3.5065226252
  0
LINE
  5
273
100
AcDbEntity
  8
DRAFT
100
AcDbLine
 62
7
  6
CONTINUOUS
 10
15.6392137425
 20
-3.5456923592
 11
16.6998739143
 21
-3.2838175668
  0
LWPOLYLINE
  5
274
100
AcDbEntity
  8
RACCORDO
100
AcDbPolyline
 62
7
  6
CONTINUOUS
 90
4
 70
0
 10
-10.9202251156
 20
2.1209337817
 10
-10.8274259665
 20
2.0423926413
 10
-10.7261677811
 20
1.9528346654
 10
-10.6260124483
 20
1.8601648379
  0
LWPOLYLINE
  5
275
100
AcDbEntity
  8
RACCORDO
100
AcDbPolyline
 62
7
  6
CONTINUOUS
 90
97
 70
0
 10
-10.6260124483
 20
1.8601648379
 10
-10.5270302223
 20
1.764443377
 10
-10.4292796014
 20
1.6657257074
 10
-10.3328131517
 20
1.5640629851
 10
-10.2376882178
 20
1.4595119813
 10
-10.1439631733
 20
1.3521355388
 10
-10.0516919807
 20
1.2419932719
 10
-9.9609313216
 20
1.1291486351
 10
-9.8717372365
 20
1.0136699659
 10
-9.7841622654
 20
0.8956239385
 10
-9.6982605504
 20
0.7750801521
 10
-9.6140837086
 20
0.652110098
 10
-9.5316799406
 20
0.5267833663
 10
-9.4510999171
 20
0.3991737453
 10
-9.3723924155
 20
0.2693574441
 10
-9.2956021462
 20
0.1374078587
 10
-9.2207755881
 20
0.0034017099
 10
-9.1479587689
 20
-0.1325798432
 10
-9.0771947356
 20
-0.2704561829
 10
-9.0085263941
 20
-0.4101462877
 10
-8.9419957479
 20
-0.5515658082
 10
-8.8776429621
 20
-0.6946281679
 10
-8.8155071937
 20
-0.8392479092
 10
-8.7556259172
 20
-0.9853384157
 10
-8.6980348109
 20
-1.1328102559
 10
-8.6427686384
 20
-1.2815750001
 10
-8.5898606399
 20
-1.4315433699
 10
-8.5393419007
 20
-1.5826235676
 10
-8.4912426145
 20
-1.7347247304
 10
-8.4455916185
 20
-1.8877554319
 10
-8.4024152986
 20
-2.0416220306
 10
-8.361739122
 20
-2.1962317861
 10
-8.3235873702
 20
-2.3514916381
 10
-8.2879816342
 20
-2.5073066438
 10
-8.2549425219
 20
-2.6635827358
 10
-8.2244896137
 20
-2.8202257647
 10
-8.1966396188
 20
-2.9771400949
 10
-8.1714081693
 20
-3.1342309309
 10
-8.1488100262
 20
-3.2914035524
 10
-8.1288569685
 20
-3.448562183
 10
-8.111559555
 20
-3.6056119749
 10
-8.0969276327
 20
-3.7624580967
 10
-8.0849680399
 20
-3.9190049051
 10
-8.0756862122
 20
-4.0751576772
 10
-8.0690869419
 20
-4.2308224377
 10
-8.0651720563
 20
-4.3859051607
 10
-8.0639418268
 20
-4.5403116483
 10
-8.0653959903
 20
-4.6939495169
 10
-8.0695315249
 20
-4.8467283209
 10
-8.0763436458
 20
-4.9985561782
 10
-8.0858271332
 20
-5.1493415321
 10
-8.0979742691
 20
-5.2989956481
 10
-8.1127751651
 20
-5.4474283186
 10
-8.1302196237
 20
-5.5945505828
 10
-8.1502954155
 20
-5.7402771539
 10
-8.1729873939
 20
-5.8845187894
 10
-8.1982806623
 20
-6.027190861
 10
-8.226159695
 20
-6.1682166982
 10
-8.2566050254
 20
-6.3075116411
 10
-8.2895969734
 20
-6.4449922771
 10
-8.3251164221
 20
-6.5805855338
 10
-8.3631393739
 20
-6.7142098963
 10
-8.4036417141
 20
-6.8457854419
 10
-8.4466010635
 20
-6.9752433428
 10
-8.4919879729
 20
-7.1025027175
 10
-8.5397750183
 20
-7.22749052
 10
-8.5899405392
 20
-7.3501511118
 10
-8.6424522188
 20
-7.4704093442
 10
-8.6972783317
 20
-7.5881934393
 10
-8.7543967012
 20
-7.703453556
 10
-8.813772164
 20
-7.8161190903
 10
-8.8753692729
 20
-7.9261209139
 10
-8.9391644202
 20
-8.0334119053
 10
-9.0051187332
 20
-8.1379243078
 10
-9.0731942615
 20
-8.2395939617
 10
-9.1433682602
 20
-8.3383793502
 10
-9.215599338
 20
-8.4342168065
 10
-9.2898468752
 20
-8.5270458377
 10
-9.3660894597
 20
-8.6168293561
 10
-9.4442840329
 20
-8.7035080517
 10
-9.5243875221
 20
-8.7870246912
 10
-9.6063792856
 20
-8.8673445464
 10
-9.6902215854
 20
-8.9444182752
 10
-9.7758631358
 20
-9.0181856663
 10
-9.8632630516
 20
-9.0885970622
 10
-9.9523803722
 20
-9.1556074628
 10
-10.0431624482
 20
-9.2191645706
 10
-10.1355493948
 20
-9.2792134433
 10
-10.2294910695
 20
-9.3357124185
 10
-10.3249388241
 20
-9.3886223205
 10
-10.4218333239
 20
-9.4378991588
 10
-10.5201225964
 20
-9.4835088276
 10
-10.6197560735
 20
-9.5254191822
 10
-10.7206752026
 20
-9.563595509
 10
-10.8228246979
 20
-9.5980099404
 10
-10.9261535704
 20
-9.6286371779
 10
-10.9529175353
 20
-9.6358999119
  0
LINE
  5
276
100
AcDbEntity
  8
RACCORDO
100
AcDbLine
 62
250
  6
CONTINUOUS
 10
-10.5108370373
 20
1.8555028609
 11
-10.51615493
 21
1.8606833335
  0
LINE
  5
277
100
AcDbEntity
  8
RACCORDO
100
AcDbLine
 62
250
  6
CONTINUOUS
 10
-10.5108317657
 20
1.8555147662
 11
-10.5161162295
 21
1.8607713419
  0
LINE
  5
278
100
AcDbEntity
  8
RACCORDO
100
AcDbLine
 62
250
  6
CONTINUOUS
 10
-4.0204176712
 20
19.095487689
 11
-4.0204176712
 21
20.3007217651
  0
LINE
  5
279
100
AcDbEntity
  8
0
100
AcDbLine
 62
7
  6
CONTINUOUS
 10
-3.5233800276
 20
21.0961942805
 11
-3.5233800276
 21
21.9224231793
  0
LINE
  5
27A
100
AcDbEntity
  8
RACCORDO
100
AcDbLine
 62
250
  6
CONTINUOUS
 10
-3.3153737519
 20
19.1201206393
 11
-3.3153737519
 21
20.4950489199
  0
LINE
  5
27B
100
AcDbEntity
  8
ASSI
100
AcDbLine
 62
250
  6
CONTINUOUS
 10
-3.189604405
 20
22.0048316869
 11
-3.189604405
 21
23.3737634
  0
LINE
  5
27C
100
AcDbEntity
  8
0
100
AcDbLine
 62
7
  6
CONTINUOUS
 10
-3.169826637
 20
21.2146182495
 11
-3.169826637
 21
21.8309168284
  0
LINE
  5
27D
100
AcDbEntity
  8
RACCORDO
100
AcDbLine
 62
7
  6
CONTINUOUS
 10
-3.0642548977
 20
22.0806046893
 11
-3.0642548977
 21
23.2939945735
  0
LINE
  5
27E
100
AcDbEntity
  8
DRAFT
100
AcDbLine
 62
7
  6
CONTINUOUS
 10
-2.9576946027
 20
20.5893783073
 11
-2.9576946027
 21
19.2370821505
  0
LINE
  5
27F
100
AcDbEntity
  8
DRAFT
100
AcDbLine
 62
7
  6
CONTINUOUS
 10
22.387289485
 20
11.5856839863
 11
21.9211835844
 21
11.403357161
  0
LINE
  5
280
100
AcDbEntity
  8
ASSI
100
AcDbLine
 62
7
  6
CONTINUOUS
 10
-12.3622147924
 20
-7.1148681866
 11
-14.8370885266
 21
-7.7554126433
  0
LINE
  5
281
100
AcDbEntity
  8
ASSI
100
AcDbLine
 62
7
  6
CONTINUOUS
 10
-23.0146072251
 20
2.2596727958
 11
-15.5349815544
 21
0.4767279384
  0
LINE
  5
282
100
AcDbEntity
  8
ASSI
100
AcDbLine
 62
7
  6
CONTINUOUS
 10
-24.4288207874
 20
2.6256981996
 11
-16.9491951168
 21
0.8427533422
  0
LINE
  5
283
100
AcDbEntity
  8
ASSI
100
AcDbLine
 62
7
  6
CONTINUOUS
 10
-15.5349815544
 20
0.4767279384
 11
-15.5219132057
 21
0.4734438093
  0
LINE
  5
284
100
AcDbEntity
  8
ASSI
100
AcDbLine
 62
7
  6
CONTINUOUS
 10
-16.9491951168
 20
0.8427533422
 11
-16.936126768
 21
0.839469213
  0
LINE
  5
285
100
AcDbEntity
  8
ASSI
100
AcDbLine
 62
250
  6
CONTINUOUS
 10
-23.740141513
 20
2.0718907042
 11
-25.1543550754
 21
2.437916108
  0
LINE
  5
286
100
AcDbEntity
  8
ASSI
100
AcDbLine
 62
250
  6
CONTINUOUS
 10
-23.0146072251
 20
2.2596727958
 11
-24.4288207874
 21
2.6256981996
  0
LINE
  5
287
100
AcDbEntity
  8
ASSI
100
AcDbLine
 62
250
  6
CONTINUOUS
 10
-15.5349815544
 20
0.4767279384
 11
-16.9491951168
 21
0.8427533422
  0
LINE
  5
288
100
AcDbEntity
  8
ASSI
100
AcDbLine
 62
7
  6
CONTINUOUS
 10
-15.5219044878
 20
0.4734773546
 11
-16.9361180501
 21
0.8395027584
  0
LINE
  5
289
100
AcDbEntity
  8
ASSI
100
AcDbLine
 62
7
  6
CONTINUOUS
 10
-12.3622147924
 20
-0.0636096547
 11
-13.7764283548
 21
0.302415749
  0
LINE
  5
28A
100
AcDbEntity
  8
0
100
AcDbLine
 62
7
  6
CONTINUOUS
 10
9.1951703318
 20
-5.066085817
 11
9.4458081601
 21
-5.1309556604
  0
LINE
  5
28B
100
AcDbEntity
  8
RACCORDO
100
AcDbLine
 62
7
  6
CONTINUOUS
 10
-1.8902879553
 20
19.8468696713
 11
-1.8902879553
 21
19.4676780196
  0
LINE
  5
28C
100
AcDbEntity
  8
RACCORDO
100
AcDbLine
 62
7
  6
CONTINUOUS
 10
-1.8902879553
 20
-26.5960449144
 11
-1.8902879553
 21
-26.9752365661
  0
LINE
  5
28D
100
AcDbEntity
  8
RACCORDO
100
AcDbLine
 62
250
  6
CONTINUOUS
 10
-1.8170646506
 20
19.8011164958
 11
-1.8170646506
 21
19.4219248441
  0
LINE
  5
28E
100
AcDbEntity
  8
RACCORDO
100
AcDbLine
 62
250
  6
CONTINUOUS
 10
-1.8170646506
 20
-26.6417980899
 11
-1.8170646506
 21
-27.0209897415
  0
LINE
  5
28F
100
AcDbEntity
  8
RACCORDO
100
AcDbLine
 62
7
  6
CONTINUOUS
 10
-1.187295001
 20
-25.7534553127
 11
-1.187295001
 21
-25.6748632089
  0
LINE
  5
290
100
AcDbEntity
  8
RACCORDO
100
AcDbLine
 62
7
  6
CONTINUOUS
 10
-1.187295001
 20
18.184406171
 11
-1.187295001
 21
18.9438273133
  0
LINE
  5
291
100
AcDbEntity
  8
RACCORDO
100
AcDbLine
 62
250
  6
CONTINUOUS
 10
-1.1140716963
 20
-25.7606237315
 11
-1.1140716963
 21
-25.6617140266
  0
LINE
  5
292
100
AcDbEntity
  8
RACCORDO
100
AcDbLine
 62
250
  6
CONTINUOUS
 10
-1.1140716963
 20
18.1349462834
 11
-1.1140716963
 21
18.908905363
  0
LINE
  5
293
100
AcDbEntity
  8
RACCORDO
100
AcDbLine
 62
250
  6
CONTINUOUS
 10
-0.4920799707
 20
-27.3639210111
 11
-0.4920799707
 21
-26.9847293595
  0
LINE
  5
294
100
AcDbEntity
  8
RACCORDO
100
AcDbLine
 62
250
  6
CONTINUOUS
 10
-0.4920799707
 20
19.0789935745
 11
-0.4920799707
 21
19.4581852262
  0
LINE
  5
295
100
AcDbEntity
  8
RACCORDO
100
AcDbLine
 62
7
  6
CONTINUOUS
 10
-0.4121101904
 20
21.5542581883
 11
-0.4121101904
 21
21.5523587332
  0
LINE
  5
296
100
AcDbEntity
  8
RACCORDO
100
AcDbLine
 62
250
  6
CONTINUOUS
 10
-0.1395580111
 20
-27.3641864165
 11
-0.1395580111
 21
-26.9849947649
  0
LINE
  5
297
100
AcDbEntity
  8
RACCORDO
100
AcDbLine
 62
250
  6
CONTINUOUS
 10
-0.1395580111
 20
19.0787281691
 11
-0.1395580111
 21
19.4579198208
  0
LINE
  5
298
100
AcDbEntity
  8
RACCORDO
100
AcDbLine
 62
250
  6
CONTINUOUS
 10
0.2191406374
 20
-26.1056844746
 11
0.2191406374
 21
-25.4223004685
  0
LINE
  5
299
100
AcDbEntity
  8
RACCORDO
100
AcDbLine
 62
250
  6
CONTINUOUS
 10
0.2191406374
 20
17.7898855403
 11
0.2191406374
 21
18.5638446199
  0
LINE
  5
29A
100
AcDbEntity
  8
ASSI
100
AcDbLine
 62
7
  6
CONTINUOUS
 10
-15.5349815544
 20
-9.2975507071
 11
-23.0146072251
 21
-14.9522347121
  0
LWPOLYLINE
  5
29B
100
AcDbEntity
  8
RACCORDO
100
AcDbPolyline
 62
7
  6
CONTINUOUS
 90
21
 70
0
 10
21.0753505049
 20
7.0744504078
 10
21.0860237324
 20
7.0776448368
 10
21.1595048172
 20
7.1030509088
 10
21.2300415868
 20
7.1336989729
 10
21.2958965741
 20
7.1686198594
 10
21.3567848418
 20
7.2069505823
 10
21.4140307081
 20
7.2487701175
 10
21.4672785034
 20
7.2931371896
 10
21.5159904495
 20
7.3387728682
 10
21.5613717415
 20
7.3860701367
 10
21.603416784
 20
7.434457771
 10
21.6419868697
 20
7.4831343607
 10
21.6779804447
 20
7.5327084562
 10
21.7113233084
 20
7.5827029159
 10
21.7420390565
 20
7.6327852564
 10
21.7709080978
 20
7.6840534122
 10
21.7977412642
 20
7.7361964783
 10
21.8223651369
 20
7.7889339749
 10
21.8451796966
 20
7.8434634951
 10
21.8658974792
 20
7.8998995451
 10
21.8799328688
 20
7.9439745931
  0
LINE
  5
29C
100
AcDbEntity
  8
RACCORDO
100
AcDbLine
 62
250
  6
CONTINUOUS
 10
21.0739024865
 20
7.0740213408
 11
21.0753507138
 21
7.0744496204
  0
LINE
  5
29D
100
AcDbEntity
  8
RACCORDO
100
AcDbLine
 62
250
  6
CONTINUOUS
 10
17.9400852363
 20
6.4839599974
 11
21.2932999752
 21
7.4640463955
  0
LINE
  5
29E
100
AcDbEntity
  8
RACCORDO
100
AcDbLine
 62
7
  6
CONTINUOUS
 10
21.0739024865
 20
7.0740213408
 11
17.7204498887
 21
6.0938655549
  0
LINE
  5
29F
100
AcDbEntity
  8
RACCORDO
100
AcDbLine
 62
7
  6
CONTINUOUS
 10
17.2574463569
 20
4.9295310101
 11
9.9177637083
 21
2.9210626388
  0
LINE
  5
2A0
100
AcDbEntity
  8
RACCORDO
100
AcDbLine
 62
7
  6
CONTINUOUS
 10
9.9177637083
 20
0.9006048155
 11
17.2574463569
 21
2.8264260497
  0
LINE
  5
2A1
100
AcDbEntity
  8
DRAFT
100
AcDbLine
 62
7
  6
CONTINUOUS
 10
9.9026455405
 20
1.7456478379
 11
15.6671877655
 21
3.198308622
  0
LINE
  5
2A2
100
AcDbEntity
  8
DRAFT
100
AcDbLine
 62
7
  6
CONTINUOUS
 10
9.9795428375
 20
1.6975979169
 11
9.9026457562
 21
1.6783535178
  0
LINE
  5
2A3
100
AcDbEntity
  8
DRAFT
100
AcDbLine
 62
7
  6
CONTINUOUS
 10
15.6392137425
 20
3.2157884248
 11
16.6998739143
 21
3.4776632172
  0
LINE
  5
2A4
100
AcDbEntity
  8
RACCORDO
100
AcDbLine
 62
7
  6
CONTINUOUS
 10
10.7174402972
 20
-4.7093855473
 11
10.0410632638
 21
-4.5343262894
  0
LINE
  5
2A5
100
AcDbEntity
  8
RACCORDO
100
AcDbLine
 62
250
  6
CONTINUOUS
 10
17.5865856936
 20
-4.5491870785
 11
17.4527002751
 21
-4.5145349823
  0
LINE
  5
2A6
100
AcDbEntity
  8
DRAFT
100
AcDbLine
 62
250
  6
CONTINUOUS
 10
9.2607047761
 20
-5.4489646963
 11
9.9177637083
 21
-5.8608759685
  0
LINE
  5
2A7
100
AcDbEntity
  8
RACCORDO
100
AcDbLine
 62
250
  6
CONTINUOUS
 10
0.571662597
 20
-26.2453692639
 11
0.571662597
 21
-25.3589958211
  0
LINE
  5
2A8
100
AcDbEntity
  8
RACCORDO
100
AcDbLine
 62
250
  6
CONTINUOUS
 10
0.571662597
 20
17.801233104
 11
0.571662597
 21
18.7029985984
  0
LINE
  5
2A9
100
AcDbEntity
  8
RACCORDO
100
AcDbLine
 62
7
  6
CONTINUOUS
 10
1.4617227797
 20
-25.1991619597
 11
1.4617227797
 21
-26.9671911194
  0
LINE
  5
2AA
100
AcDbEntity
  8
RACCORDO
100
AcDbLine
 62
7
  6
CONTINUOUS
 10
1.4617227797
 20
18.0929532957
 11
1.4617227797
 21
19.8802196289
  0
LINE
  5
2AB
100
AcDbEntity
  8
RACCORDO
100
AcDbLine
 62
250
  6
CONTINUOUS
 10
1.9899899515
 20
20.0143225688
 11
1.9899899515
 21
19.626701529
  0
LINE
  5
2AC
100
AcDbEntity
  8
RACCORDO
100
AcDbLine
 62
250
  6
CONTINUOUS
 10
1.9899899515
 20
-26.437021405
 11
1.9899899515
 21
-26.8246424447
  0
LINE
  5
2AD
100
AcDbEntity
  8
RACCORDO
100
AcDbLine
 62
7
  6
CONTINUOUS
 10
2.0621878085
 20
20.0598087903
 11
2.0621878085
 21
19.5741777353
  0
LINE
  5
2AE
100
AcDbEntity
  8
RACCORDO
100
AcDbLine
 62
7
  6
CONTINUOUS
 10
2.0621878085
 20
-26.3915351835
 11
2.0621878085
 21
-26.7791562232
  0
LINE
  5
2AF
100
AcDbEntity
  8
ASSI
100
AcDbLine
 62
250
  6
CONTINUOUS
 10
2.3671394676
 20
20.5675308914
 11
2.3671394676
 21
21.9361272956
  0
LINE
  5
2B0
100
AcDbEntity
  8
RACCORDO
100
AcDbLine
 62
7
  6
CONTINUOUS
 10
2.4907335314
 20
20.6428678885
 11
2.4907335314
 21
21.8562577727
  0
LINE
  5
2B1
100
AcDbEntity
  8
RACCORDO
100
AcDbLine
 62
7
  6
CONTINUOUS
 10
2.5223829515
 20
-24.597233535
 11
2.5223829515
 21
17.6932747464
  0
LINE
  5
2B2
100
AcDbEntity
  8
ASSI
100
AcDbLine
 62
7
  6
CONTINUOUS
 10
-14.8370885266
 20
-0.7041541114
 11
-12.3622147924
 21
-0.0636096547
  0
LINE
  5
2B3
100
AcDbEntity
  8
RACCORDO
100
AcDbLine
 62
250
  6
CONTINUOUS
 10
16.6998739143
 20
-2.4599734649
 11
20.9335242994
 21
-3.5557228148
  0
LINE
  5
2B4
100
AcDbEntity
  8
RACCORDO
100
AcDbLine
 62
7
  6
CONTINUOUS
 10
16.6998739143
 20
-2.3991894277
 11
21.1717463915
 21
-3.5565951921
  0
LWPOLYLINE
  5
2B5
100
AcDbEntity
  8
RACCORDO
100
AcDbPolyline
 62
7
  6
CONTINUOUS
 90
8
 70
0
 10
17.4771304171
 20
-4.551597833
 10
17.4788511569
 20
-4.5523258276
 10
17.4814767818
 20
-4.553630542
 10
17.481428147
 20
-4.5534690126
 10
17.4778771397
 20
-4.5502064873
 10
17.4710751812
 20
-4.5425670687
 10
17.4621325577
 20
-4.5302847744
 10
17.4519453892
 20
-4.5132744926
  0
LINE
  5
2B6
100
AcDbEntity
  8
SMUSSO
100
AcDbLine
 62
250
  6
CONTINUOUS
 10
4.8742955816
 20
21.7949395746
 11
4.8742955816
 21
22.1256323259
  0
LINE
  5
2B7
100
AcDbEntity
  8
DRAFT
100
AcDbLine
 62
7
  6
CONTINUOUS
 10
5.5570800478
 20
21.8007896362
 11
5.5570800478
 21
21.6873726984
  0
LINE
  5
2B8
100
AcDbEntity
  8
ASSI
100
AcDbLine
 62
7
  6
CONTINUOUS
 10
-14.9829115671
 20
-0.0098450839
 11
-13.7764283548
 21
0.302415749
  0
LINE
  5
2B9
100
AcDbEntity
  8
0
100
AcDbLine
 62
7
  6
CONTINUOUS
 10
-11.0187119082
 20
1.9768477689
 11
-10.8133991688
 21
2.029986616
  0
LINE
  5
2BA
100
AcDbEntity
  8
RACCORDO
100
AcDbLine
 62
7
  6
CONTINUOUS
 10
21.3176113864
 20
-3.6066296382
 11
21.3174803668
 21
-3.6065730773
  0
LINE
  5
2BB
100
AcDbEntity
  8
DRAFT
100
AcDbLine
 62
7
  6
CONTINUOUS
 10
15.6392137425
 20
-3.5456923592
 11
15.6671877655
 21
-3.5631721621
  0
LINE
  5
2BC
100
AcDbEntity
  8
RACCORDO
100
AcDbLine
 62
250
  6
CONTINUOUS
 10
7.0780957105
 20
19.6804833678
 11
7.0780957105
 21
19.125783878
  0
LINE
  5
2BD
100
AcDbEntity
  8
RACCORDO
100
AcDbLine
 62
250
  6
CONTINUOUS
 10
7.0780957105
 20
-21.4708110923
 11
7.0780957105
 21
-21.9817819124
  0
LINE
  5
2BE
100
AcDbEntity
  8
RACCORDO
100
AcDbLine
 62
7
  6
CONTINUOUS
 10
7.2184258103
 20
19.9117617805
 11
7.2184258103
 21
19.2185860093
  0
LINE
  5
2BF
100
AcDbEntity
  8
RACCORDO
100
AcDbLine
 62
7
  6
CONTINUOUS
 10
7.2184258103
 20
-21.4326524684
 11
7.2184258103
 21
-22.0332695089
  0
LINE
  5
2C0
100
AcDbEntity
  8
0
100
AcDbLine
 62
7
  6
CONTINUOUS
 10
-14.3193701484
 20
2.8811223458
 11
-13.2780372791
 21
3.1506391247
  0
LWPOLYLINE
  5
2C1
100
AcDbEntity
  8
RACCORDO
100
AcDbPolyline
 62
7
  6
CONTINUOUS
 90
34
 70
0
 10
-14.240484902
 20
3.0680904933
 10
-14.2198217596
 20
3.073203812
 10
-14.1190757982
 20
3.0959202412
 10
-14.0176056455
 20
3.115140403
 10
-13.9154656557
 20
3.1308614335
 10
-13.8127074469
 20
3.1430829651
 10
-13.7093830556
 20
3.1518045177
 10
-13.6055450134
 20
3.157028469
 10
-13.5012496314
 20
3.1587583762
 10
-13.3965567543
 20
3.1569980671
 10
-13.2915209864
 20
3.1517550145
 10
-13.1861986616
 20
3.1430387095
 10
-13.0806532188
 20
3.130859703
 10
-12.9749407079
 20
3.1152314172
 10
-12.8691182776
 20
3.0961695289
 10
-12.7632521836
 20
3.0736919425
 10
-12.6574066228
 20
3.0478202734
 10
-12.5516319613
 20
3.0185754277
 10
-12.4459743521
 20
2.9859762376
 10
-12.3404952999
 20
2.9500484717
 10
-12.2352481553
 20
2.9108180379
 10
-12.1302672076
 20
2.8683025668
 10
-12.0256090275
 20
2.8225294441
 10
-11.921331263
 20
2.7735296191
 10
-11.8174700461
 20
2.7213233417
 10
-11.7140828744
 20
2.6659423583
 10
-11.6112261444
 20
2.6074214909
 10
-11.5089346559
 20
2.5457826461
 10
-11.4072653173
 20
2.481061057
 10
-11.3062710423
 20
2.4132930159
 10
-11.2059809071
 20
2.3424981387
 10
-11.1064423873
 20
2.2687083686
 10
-11.007724083
 20
2.1919758173
 10
-10.9202253506
 20
2.1209339868
  0
LINE
  5
2C2
100
AcDbEntity
  8
RACCORDO
100
AcDbLine
 62
7
  6
CONTINUOUS
 10
17.2513298473
 20
-3.6283994314
 11
16.6998739143
 21
-3.2838175668
  0
LINE
  5
2C3
100
AcDbEntity
  8
DRAFT
100
AcDbLine
 62
7
  6
CONTINUOUS
 10
9.9795428375
 20
1.6975979169
 11
9.9026455405
 21
1.7456478379
  0
LINE
  5
2C4
100
AcDbEntity
  8
DRAFT
100
AcDbLine
 62
250
  6
CONTINUOUS
 10
9.2607047761
 20
1.3125160878
 11
9.9177637083
 21
0.9006048155
  0
LWPOLYLINE
  5
2C5
100
AcDbEntity
  8
0
100
AcDbPolyline
 62
7
  6
CONTINUOUS
 90
5
 70
0
 10
9.239086567
 20
2.0770626494
 10
9.3427167668
 20
1.9452901064
 10
9.4459737923
 20
1.8038736231
 10
9.5448377083
 20
1.6579956198
 10
9.5824118308
 20
1.5982121841
  0
LWPOLYLINE
  5
2C6
100
AcDbEntity
  8
RACCORDO
100
AcDbPolyline
 62
7
  6
CONTINUOUS
 90
14
 70
0
 10
10.3190589612
 20
-3.7306056558
 10
10.343673726
 20
-3.7751091227
 10
10.374746879
 20
-3.8194192419
 10
10.4101064874
 20
-3.8596926776
 10
10.4492622646
 20
-3.8954860874
 10
10.4922152337
 20
-3.9267012179
 10
10.5378465676
 20
-3.9525213611
 10
10.5849395569
 20
-3.9725484963
 10
10.6332285453
 20
-3.9869444171
 10
10.6825831032
 20
-3.9957702577
 10
10.7320425727
 20
-3.9989736625
 10
10.7810787321
 20
-3.9966774368
 10
10.8301568165
 20
-3.9888086255
 10
10.8430535885
 20
-3.9857781507
  0
LINE
  5
2C7
100
AcDbEntity
  8
RACCORDO
100
AcDbLine
 62
7
  6
CONTINUOUS
 10
9.0967323462
 20
22.95980086
 11
9.0967323462
 21
22.7047095575
  0
LINE
  5
2C8
100
AcDbEntity
  8
RACCORDO
100
AcDbLine
 62
7
  6
CONTINUOUS
 10
9.7159485158
 20
2.8259284072
 11
9.7159485158
 21
2.4358235134
  0
LINE
  5
2C9
100
AcDbEntity
  8
DRAFT
100
AcDbLine
 62
7
  6
CONTINUOUS
 10
9.9026455405
 20
1.6783536522
 11
9.9026455405
 21
1.7456478379
  0
LINE
  5
2CA
100
AcDbEntity
  8
DRAFT
100
AcDbLine
 62
7
  6
CONTINUOUS
 10
10.7174402972
 20
-4.7093855473
 11
10.7174402972
 21
-4.8105052126
  0
LINE
  5
2CB
100
AcDbEntity
  8
RACCORDO
100
AcDbLine
 62
250
  6
CONTINUOUS
 10
11.0656125951
 20
-3.5263148938
 11
11.0656125951
 21
-3.6052033598
  0
LINE
  5
2CC
100
AcDbEntity
  8
DRAFT
100
AcDbLine
 62
7
  6
CONTINUOUS
 10
11.0672676712
 20
3.1768929049
 11
11.0672676712
 21
2.3000837481
  0
LINE
  5
2CD
100
AcDbEntity
  8
DRAFT
100
AcDbLine
 62
7
  6
CONTINUOUS
 10
15.6392137425
 20
3.2157884248
 11
15.6671877655
 21
3.198308622
  0
LWPOLYLINE
  5
2CE
100
AcDbEntity
  8
0
100
AcDbPolyline
 62
7
  6
CONTINUOUS
 90
10
 70
0
 10
11.0226700862
 20
3.223414882
 10
11.0811781594
 20
3.1623821772
 10
11.1824697066
 20
3.0480148421
 10
11.2807381375
 20
2.9281091298
 10
11.3758368632
 20
2.8028269227
 10
11.4675519435
 20
2.6724196291
 10
11.5556304116
 20
2.5372202455
 10
11.6398737774
 20
2.3975111958
 10
11.7200786083
 20
2.253606923
 10
11.7428212277
 20
2.2093708799
  0
LWPOLYLINE
  5
2CF
100
AcDbEntity
  8
0
100
AcDbPolyline
 62
7
  6
CONTINUOUS
 90
8
 70
0
 10
10.153865659
 20
1.8089551397
 10
10.1416336119
 20
1.8298733372
 10
10.0348579691
 20
1.9988509978
 10
9.9226620177
 20
2.1633973885
 10
9.8052267771
 20
2.3231451602
 10
9.6827653308
 20
2.4777041078
 10
9.555550838
 20
2.6266403781
 10
9.5281090642
 20
2.6564207299
  0
LINE
  5
2D0
100
AcDbEntity
  8
SMUSSO
100
AcDbLine
 62
250
  6
CONTINUOUS
 10
12.298916784
 20
19.8733062047
 11
12.298916784
 21
20.203998956
  0
LINE
  5
2D1
100
AcDbEntity
  8
DRAFT
100
AcDbLine
 62
7
  6
CONTINUOUS
 10
12.9817012503
 20
19.8791562663
 11
12.9817012503
 21
19.7657393286
  0
LINE
  5
2D2
100
AcDbEntity
  8
RACCORDO
100
AcDbLine
 62
7
  6
CONTINUOUS
 10
12.9875633131
 20
-3.1135204441
 11
12.9875633131
 21
-3.0003824505
  0
LINE
  5
2D3
100
AcDbEntity
  8
RACCORDO
100
AcDbLine
 62
250
  6
CONTINUOUS
 10
21.6405233848
 20
18.5493434921
 11
2.5223829515
 21
13.6175711113
  0
LINE
  5
2D4
100
AcDbEntity
  8
RACCORDO
100
AcDbLine
 62
250
  6
CONTINUOUS
 10
-5.0749538771
 20
14.6877350962
 11
-19.8997999547
 21
18.5246876018
  0
LINE
  5
2D5
100
AcDbEntity
  8
RACCORDO
100
AcDbLine
 62
250
  6
CONTINUOUS
 10
-13.7680097875
 20
22.3516811521
 11
-13.1456917554
 21
22.0229177777
  0
LINE
  5
2D6
100
AcDbEntity
  8
RACCORDO
100
AcDbLine
 62
250
  6
CONTINUOUS
 10
-13.5038761755
 20
22.5376682349
 11
-12.7926555674
 21
22.1619386642
  0
LINE
  5
2D7
100
AcDbEntity
  8
RACCORDO
100
AcDbLine
 62
7
  6
CONTINUOUS
 10
-14.5054823491
 20
22.3782515182
 11
-15.1219280099
 21
22.7058567344
  0
LINE
  5
2D8
100
AcDbEntity
  8
RACCORDO
100
AcDbLine
 62
250
  6
CONTINUOUS
 10
-14.4778756323
 20
22.3677123367
 11
-15.0929944673
 21
22.6946124217
  0
LINE
  5
2D9
100
AcDbEntity
  8
RACCORDO
100
AcDbLine
 62
7
  6
CONTINUOUS
 10
17.2513298473
 20
3.1330813527
 11
16.6998739143
 21
3.4776632172
  0
LWPOLYLINE
  5
2DA
100
AcDbEntity
  8
0
100
AcDbPolyline
 62
7
  6
CONTINUOUS
 90
8
 70
0
 10
12.338897972
 20
2.3595818207
 10
12.273901265
 20
2.4892922051
 10
12.1814154244
 20
2.6588440003
 10
12.0836719588
 20
2.8238532639
 10
11.9808650078
 20
2.9839432232
 10
11.8732211033
 20
3.1387153013
 10
11.7609252387
 20
3.2878554614
 10
11.6692126172
 20
3.4003380933
  0
LWPOLYLINE
  5
2DB
100
AcDbEntity
  8
RACCORDO
100
AcDbPolyline
 62
7
  6
CONTINUOUS
 90
9
 70
0
 10
17.4519453892
 20
-4.5132744926
 10
17.4412679716
 20
-4.4915501064
 10
17.4307499579
 20
-4.4652134476
 10
17.4209335239
 20
-4.4343718016
 10
17.4123710051
 20
-4.399450356
 10
17.4054559433
 20
-4.3606025141
 10
17.4004935266
 20
-4.3172199547
 10
17.397979082
 20
-4.2692451975
 10
17.3977764723
 20
-4.2508455004
  0
LINE
  5
2DC
100
AcDbEntity
  8
SMUSSO
100
AcDbLine
 62
250
  6
CONTINUOUS
 10
4.5546168714
 20
22.9846972275
 11
4.8742955816
 21
22.1256323259
  0
LINE
  5
2DD
100
AcDbEntity
  8
DRAFT
100
AcDbLine
 62
7
  6
CONTINUOUS
 10
15.6392137425
 20
-3.5456923592
 11
15.6392137425
 21
-2.274771239
  0
LINE
  5
2DE
100
AcDbEntity
  8
DRAFT
100
AcDbLine
 62
7
  6
CONTINUOUS
 10
15.6392137425
 20
3.2157884248
 11
15.6392137425
 21
4.4867095451
  0
LINE
  5
2DF
100
AcDbEntity
  8
RACCORDO
100
AcDbLine
 62
7
  6
CONTINUOUS
 10
16.5213535486
 20
21.0381674901
 11
16.5213535486
 21
20.7830761876
  0
LINE
  5
2E0
100
AcDbEntity
  8
DRAFT
100
AcDbLine
 62
7
  6
CONTINUOUS
 10
16.6998739143
 20
-3.2838175668
 11
16.6998739143
 21
-1.9845267543
  0
LINE
  5
2E1
100
AcDbEntity
  8
DRAFT
100
AcDbLine
 62
7
  6
CONTINUOUS
 10
16.6998739143
 20
3.4776632172
 11
16.6998739143
 21
4.7769540297
  0
LINE
  5
2E2
100
AcDbEntity
  8
RACCORDO
100
AcDbLine
 62
7
  6
CONTINUOUS
 10
7.0780957105
 20
19.125783878
 11
2.5054741181
 21
17.8447736754
  0
LINE
  5
2E3
100
AcDbEntity
  8
DRAFT
100
AcDbLine
 62
7
  6
CONTINUOUS
 10
2.5223829515
 20
17.5695043998
 11
7.7571991783
 21
18.9929579846
  0
LINE
  5
2E4
100
AcDbEntity
  8
RACCORDO
100
AcDbLine
 62
250
  6
CONTINUOUS
 10
21.2263729091
 20
20.0223508742
 11
2.5223829515
 21
15.1974139822
  0
LINE
  5
2E5
100
AcDbEntity
  8
DRAFT
100
AcDbLine
 62
7
  6
CONTINUOUS
 10
16.5213535486
 20
20.7830761876
 11
12.6903858774
 21
19.8048044789
  0
LINE
  5
2E6
100
AcDbEntity
  8
RACCORDO
100
AcDbLine
 62
7
  6
CONTINUOUS
 10
16.5095337701
 20
21.2116930585
 11
12.298916784
 21
20.203998956
  0
LINE
  5
2E7
100
AcDbEntity
  8
RACCORDO
100
AcDbLine
 62
250
  6
CONTINUOUS
 10
8.8403944479
 20
17.2329341638
 11
21.137546381
 21
20.1666801653
  0
LINE
  5
2E8
100
AcDbEntity
  8
RACCORDO
100
AcDbLine
 62
250
  6
CONTINUOUS
 10
8.5551509083
 20
17.6964105456
 11
20.6376225334
 21
20.5789400135
  0
LINE
  5
2E9
100
AcDbEntity
  8
RACCORDO
100
AcDbLine
 62
250
  6
CONTINUOUS
 10
2.5223829515
 20
17.6932747464
 11
1.8045065286
 21
17.5222607622
  0
LINE
  5
2EA
100
AcDbEntity
  8
RACCORDO
100
AcDbLine
 62
7
  6
CONTINUOUS
 10
16.5215794326
 20
19.8874194047
 11
20.1104494563
 21
20.715382446
  0
LINE
  5
2EB
100
AcDbEntity
  8
RACCORDO
100
AcDbLine
 62
250
  6
CONTINUOUS
 10
-4.0590154839
 20
16.3319477133
 11
-18.9072339447
 21
20.1749494368
  0
LINE
  5
2EC
100
AcDbEntity
  8
RACCORDO
100
AcDbLine
 62
250
  6
CONTINUOUS
 10
-0.4036916231
 20
18.8927410863
 11
0.218626409
 21
18.563977712
  0
LINE
  5
2ED
100
AcDbEntity
  8
RACCORDO
100
AcDbLine
 62
7
  6
CONTINUOUS
 10
-1.1411641847
 20
18.9193114524
 11
-1.7576098454
 21
19.2469166686
  0
LINE
  5
2EE
100
AcDbEntity
  8
RACCORDO
100
AcDbLine
 62
250
  6
CONTINUOUS
 10
-1.1135574679
 20
18.9087722709
 11
-1.7286763029
 21
19.2356723559
  0
LINE
  5
2EF
100
AcDbEntity
  8
RACCORDO
100
AcDbLine
 62
7
  6
CONTINUOUS
 10
8.8403944479
 20
17.2329341638
 11
7.7571991783
 21
18.9929579846
  0
LWPOLYLINE
  5
2F0
100
AcDbEntity
  8
RACCORDO
100
AcDbPolyline
 62
7
  6
CONTINUOUS
 90
12
 70
0
 10
21.791553707
 20
-4.032320767
 10
21.7697332647
 20
-3.9955681926
 10
21.7314176567
 20
-3.9385413645
 10
21.6899724863
 20
-3.8850692039
 10
21.6465405471
 20
-3.8360826902
 10
21.6012524097
 20
-3.7912077115
 10
21.5542214085
 20
-3.7502117934
 10
21.5066692286
 20
-3.7136810775
 10
21.458589167
 20
-3.6811092132
 10
21.4096364054
 20
-3.6519532657
 10
21.3606110106
 20
-3.6264133541
 10
21.3177058162
 20
-3.6067654694
  0
LINE
  5
2F1
100
AcDbEntity
  8
RACCORDO
100
AcDbLine
 62
250
  6
CONTINUOUS
 10
17.2574463569
 20
-4.3407475737
 11
17.2574463569
 21
-3.9350547343
  0
LINE
  5
2F2
100
AcDbEntity
  8
RACCORDO
100
AcDbLine
 62
250
  6
CONTINUOUS
 10
17.2574463569
 20
-1.8319497739
 11
17.2574463569
 21
2.8264260497
  0
LINE
  5
2F3
100
AcDbEntity
  8
RACCORDO
100
AcDbLine
 62
250
  6
CONTINUOUS
 10
17.2574463569
 20
4.9295310101
 11
17.2574463569
 21
5.3352238496
  0
LINE
  5
2F4
100
AcDbEntity
  8
RACCORDO
100
AcDbLine
 62
7
  6
CONTINUOUS
 10
17.3977764567
 20
-4.2508521656
 11
17.3977764567
 21
-3.810181145
  0
LINE
  5
2F5
100
AcDbEntity
  8
RACCORDO
100
AcDbLine
 62
7
  6
CONTINUOUS
 10
17.3977764567
 20
-1.7770325471
 11
17.3977764567
 21
2.9512996391
  0
LINE
  5
2F6
100
AcDbEntity
  8
RACCORDO
100
AcDbLine
 62
7
  6
CONTINUOUS
 10
17.3977764567
 20
4.9844482369
 11
17.3977764567
 21
5.4251192576
  0
LWPOLYLINE
  5
2F7
100
AcDbEntity
  8
RACCORDO
100
AcDbPolyline
 62
7
  6
CONTINUOUS
 90
20
 70
0
 10
17.3977764522
 20
5.4251656111
 10
17.3982157491
 20
5.4525166553
 10
17.4016465752
 20
5.5073023926
 10
17.4085411211
 20
5.5632879235
 10
17.418882623
 20
5.6196656191
 10
17.4325632391
 20
5.6756313692
 10
17.4493951125
 20
5.7304324196
 10
17.4690920272
 20
5.7833088797
 10
17.4912649855
 20
5.8334948981
 10
17.5154949966
 20
5.8804021339
 10
17.5412466575
 20
5.9234213609
 10
17.5677851875
 20
5.9618615475
 10
17.5943807173
 20
5.9953185133
 10
17.620426973
 20
6.0237177757
 10
17.6451867207
 20
6.0469701778
 10
17.6678310169
 20
6.0650930091
 10
17.6877339739
 20
6.0784280164
 10
17.7041691422
 20
6.0873794902
 10
17.7162925944
 20
6.0925016426
 10
17.7204501405
 20
6.0938646841
  0
LINE
  5
2F8
100
AcDbEntity
  8
RACCORDO
100
AcDbLine
 62
7
  6
CONTINUOUS
 10
21.8809683599
 20
7.9474805063
 11
21.8811068752
 21
7.9479512469
  0
LINE
  5
2F9
100
AcDbEntity
  8
RACCORDO
100
AcDbLine
 62
7
  6
CONTINUOUS
 10
-1.8217422038
 20
-26.4240729525
 11
-1.186169148
 21
-25.7534553127
  0
LINE
  5
2FA
100
AcDbEntity
  8
RACCORDO
100
AcDbLine
 62
250
  6
CONTINUOUS
 10
-1.7286763029
 20
-26.4097924262
 11
-1.1135574679
 21
-25.7607568235
  0
LINE
  5
2FB
100
AcDbEntity
  8
RACCORDO
100
AcDbLine
 62
250
  6
CONTINUOUS
 10
0.218626409
 20
-26.1055513825
 11
-0.4036916231
 21
-26.7527236958
  0
LINE
  5
2FC
100
AcDbEntity
  8
RACCORDO
100
AcDbLine
 62
250
  6
CONTINUOUS
 10
0.571662597
 20
-26.2453692639
 11
-0.1395580111
 21
-26.9849947649
  0
LINE
  5
2FD
100
AcDbEntity
  8
DRAFT
100
AcDbLine
 62
7
  6
CONTINUOUS
 10
22.387289485
 20
-11.7897210099
 11
21.9211835844
 21
-11.9720478352
  0
LINE
  5
2FE
100
AcDbEntity
  8
RACCORDO
100
AcDbLine
 62
250
  6
CONTINUOUS
 10
1.4617227797
 20
19.8802196289
 11
-0.1395580111
 21
19.4579198208
  0
LINE
  5
2FF
100
AcDbEntity
  8
RACCORDO
100
AcDbLine
 62
250
  6
CONTINUOUS
 10
1.2849490761
 20
20.1674494
 11
-0.3163317148
 21
19.7451495919
  0
LINE
  5
300
100
AcDbEntity
  8
RACCORDO
100
AcDbLine
 62
250
  6
CONTINUOUS
 10
1.9899899515
 20
20.0143225688
 11
1.4617227797
 21
19.8802196289
  0
LINE
  5
301
100
AcDbEntity
  8
RACCORDO
100
AcDbLine
 62
250
  6
CONTINUOUS
 10
1.8132162478
 20
20.3015523399
 11
1.2849490761
 21
20.1674494
  0
LINE
  5
302
100
AcDbEntity
  8
DRAFT
100
AcDbLine
 62
7
  6
CONTINUOUS
 10
-2.9576946027
 20
19.2370821505
 11
-1.8902879553
 21
19.5037815089
  0
LINE
  5
303
100
AcDbEntity
  8
DRAFT
100
AcDbLine
 62
7
  6
CONTINUOUS
 10
1.5943171041
 20
20.3744355711
 11
2.3671394676
 21
20.5675308914
  0
LINE
  5
304
100
AcDbEntity
  8
RACCORDO
100
AcDbLine
 62
7
  6
CONTINUOUS
 10
6.1965602519
 20
20.4468661917
 11
1.904235728
 21
19.4058797233
  0
LINE
  5
305
100
AcDbEntity
  8
RACCORDO
100
AcDbLine
 62
7
  6
CONTINUOUS
 10
15.5060108239
 20
21.907098856
 11
11.9792380739
 21
21.0630638576
  0
LINE
  5
306
100
AcDbEntity
  8
RACCORDO
100
AcDbLine
 62
250
  6
CONTINUOUS
 10
2.1687218508
 20
18.267863836
 11
1.4617227797
 21
18.0994410767
  0
LINE
  5
307
100
AcDbEntity
  8
RACCORDO
100
AcDbLine
 62
7
  6
CONTINUOUS
 10
9.0969582301
 20
21.8090527745
 11
12.6858282539
 21
22.6370158158
  0
LINE
  5
308
100
AcDbEntity
  8
RACCORDO
100
AcDbLine
 62
7
  6
CONTINUOUS
 10
0.2191406374
 20
17.7898855403
 11
-1.1140716963
 21
18.1349462834
  0
LINE
  5
309
100
AcDbEntity
  8
RACCORDO
100
AcDbLine
 62
7
  6
CONTINUOUS
 10
-13.1451775271
 20
21.248825606
 11
-14.4783898607
 21
21.5938863491
  0
LINE
  5
30A
100
AcDbEntity
  8
RACCORDO
100
AcDbLine
 62
7
  6
CONTINUOUS
 10
-9.5317247709
 20
20.5219189298
 11
-4.0204176712
 21
19.095487689
  0
LINE
  5
30B
100
AcDbEntity
  8
DRAFT
100
AcDbLine
 62
7
  6
CONTINUOUS
 10
-11.9025953847
 20
21.5521928294
 11
-9.6781713803
 21
20.9764695327
  0
LINE
  5
30C
100
AcDbEntity
  8
DRAFT
100
AcDbLine
 62
7
  6
CONTINUOUS
 10
-2.9576946027
 20
19.2370821505
 11
-1.187295001
 21
18.7788690161
  0
LINE
  5
30D
100
AcDbEntity
  8
RACCORDO
100
AcDbLine
 62
7
  6
CONTINUOUS
 10
0.218626409
 20
18.563977712
 11
-1.1135574679
 21
18.9087722709
  0
LINE
  5
30E
100
AcDbEntity
  8
RACCORDO
100
AcDbLine
 62
7
  6
CONTINUOUS
 10
-13.1456917554
 20
22.0229177777
 11
-14.4778756323
 21
22.3677123367
  0
LINE
  5
30F
100
AcDbEntity
  8
RACCORDO
100
AcDbLine
 62
250
  6
CONTINUOUS
 10
-15.0929944673
 20
22.6946124217
 11
-13.7680097875
 21
22.3516811521
  0
LINE
  5
310
100
AcDbEntity
  8
RACCORDO
100
AcDbLine
 62
250
  6
CONTINUOUS
 10
-1.7286763029
 20
19.2356723559
 11
-0.4036916231
 21
18.8927410863
  0
LINE
  5
311
100
AcDbEntity
  8
RACCORDO
100
AcDbLine
 62
7
  6
CONTINUOUS
 10
-11.9025953847
 20
21.9097887262
 11
-10.4945526497
 21
21.5453604501
  0
LINE
  5
312
100
AcDbEntity
  8
RACCORDO
100
AcDbLine
 62
7
  6
CONTINUOUS
 10
1.4617227797
 20
18.4508486605
 11
2.1687218508
 21
18.267863836
  0
LINE
  5
313
100
AcDbEntity
  8
RACCORDO
100
AcDbLine
 62
250
  6
CONTINUOUS
 10
-15.181382815
 20
22.8808649099
 11
-13.8563981352
 21
22.5379336403
  0
LINE
  5
314
100
AcDbEntity
  8
RACCORDO
100
AcDbLine
 62
250
  6
CONTINUOUS
 10
-1.8170646506
 20
19.4219248441
 11
-0.4920799707
 21
19.0789935745
  0
LINE
  5
315
100
AcDbEntity
  8
RACCORDO
100
AcDbLine
 62
250
  6
CONTINUOUS
 10
-4.0204176712
 20
20.3007217651
 11
-9.5317247709
 21
21.7271530059
  0
LINE
  5
316
100
AcDbEntity
  8
RACCORDO
100
AcDbLine
 62
250
  6
CONTINUOUS
 10
-0.4920799707
 20
19.4581852262
 11
-1.8170646506
 21
19.8011164958
  0
LINE
  5
317
100
AcDbEntity
  8
RACCORDO
100
AcDbLine
 62
250
  6
CONTINUOUS
 10
-13.8563981352
 20
22.9171252919
 11
-15.181382815
 21
23.2600565616
  0
LINE
  5
318
100
AcDbEntity
  8
RACCORDO
100
AcDbLine
 62
250
  6
CONTINUOUS
 10
-3.5975952914
 20
20.4572483697
 11
-9.6733499412
 21
22.0297693864
  0
LINE
  5
319
100
AcDbEntity
  8
RACCORDO
100
AcDbLine
 62
250
  6
CONTINUOUS
 10
-0.3163317148
 20
19.7451495919
 11
-1.6413163946
 21
20.0880808615
  0
LINE
  5
31A
100
AcDbEntity
  8
RACCORDO
100
AcDbLine
 62
250
  6
CONTINUOUS
 10
-13.6806498792
 20
23.2040896577
 11
-15.005634559
 21
23.5470209273
  0
LINE
  5
31B
100
AcDbEntity
  8
DRAFT
100
AcDbLine
 62
7
  6
CONTINUOUS
 10
-9.1802342771
 20
22.1998900839
 11
-2.9576946027
 21
20.5893783073
  0
LINE
  5
31C
100
AcDbEntity
  8
DRAFT
100
AcDbLine
 62
7
  6
CONTINUOUS
 10
-7.8367313929
 20
22.2125717621
 11
-2.8869839246
 21
20.9314828488
  0
LINE
  5
31D
100
AcDbEntity
  8
RACCORDO
100
AcDbLine
 62
250
  6
CONTINUOUS
 10
-0.1395580111
 20
19.0787281691
 11
0.571662597
 21
18.7029985984
  0
LINE
  5
31E
100
AcDbEntity
  8
RACCORDO
100
AcDbLine
 62
7
  6
CONTINUOUS
 10
21.7914961662
 20
-4.0321957817
 11
21.791414379
 21
-4.032051287
  0
LINE
  5
31F
100
AcDbEntity
  8
SMUSSO
100
AcDbLine
 62
250
  6
CONTINUOUS
 10
11.9792380739
 20
21.0630638576
 11
12.298916784
 21
20.203998956
  0
LWPOLYLINE
  5
320
100
AcDbEntity
  8
RACCORDO
100
AcDbPolyline
 62
7
  6
CONTINUOUS
 90
10
 70
0
 10
21.9211764794
 20
18.7290949797
 10
21.9199735436
 20
18.8037850745
 10
21.9087939066
 20
18.9701827403
 10
21.8860939561
 20
19.1355099266
 10
21.851983762
 20
19.2996530905
 10
21.8066194489
 20
19.4615983476
 10
21.7505242916
 20
19.619420911
 10
21.6840575023
 20
19.7721741614
 10
21.6071569287
 20
19.9196879189
 10
21.5657104494
 20
19.9898144387
  0
LINE
  5
321
100
AcDbEntity
  8
RACCORDO
100
AcDbLine
 62
250
  6
CONTINUOUS
 10
21.6405233848
 20
12.067116065
 11
21.6405233848
 21
8.0484231198
  0
LINE
  5
322
100
AcDbEntity
  8
RACCORDO
100
AcDbLine
 62
250
  6
CONTINUOUS
 10
21.6405233848
 20
-4.7044863541
 11
21.6405233848
 21
-8.7231661652
  0
LINE
  5
323
100
AcDbEntity
  8
RACCORDO
100
AcDbLine
 62
250
  6
CONTINUOUS
 10
21.6405233848
 20
-11.3082889312
 11
21.6405233848
 21
-15.2054067264
  0
LINE
  5
324
100
AcDbEntity
  8
RACCORDO
100
AcDbLine
 62
250
  6
CONTINUOUS
 10
21.6405233848
 20
14.6522394362
 11
21.6405233848
 21
18.5493434921
  0
LINE
  5
325
100
AcDbEntity
  8
RACCORDO
100
AcDbLine
 62
7
  6
CONTINUOUS
 10
21.9211835844
 20
11.7181052874
 11
21.9211835844
 21
8.2282139359
  0
LINE
  5
326
100
AcDbEntity
  8
RACCORDO
100
AcDbLine
 62
7
  6
CONTINUOUS
 10
21.9211835844
 20
-11.6572997087
 11
21.9211835844
 21
-15.0256159131
  0
LINE
  5
327
100
AcDbEntity
  8
RACCORDO
100
AcDbLine
 62
7
  6
CONTINUOUS
 10
21.9211835844
 20
18.7291343083
 11
21.9211835452
 21
15.3604101563
  0
LINE
  5
328
100
AcDbEntity
  8
RACCORDO
100
AcDbLine
 62
7
  6
CONTINUOUS
 10
21.9211835844
 20
-4.524695538
 11
21.9211835671
 21
-8.0148701063
  0
LINE
  5
329
100
AcDbEntity
  8
RACCORDO
100
AcDbLine
 62
7
  6
CONTINUOUS
 10
7.7571991783
 20
-21.2861489717
 11
8.8403944479
 21
-20.0868282815
  0
LINE
  5
32A
100
AcDbEntity
  8
RACCORDO
100
AcDbLine
 62
250
  6
CONTINUOUS
 10
21.137546381
 20
-16.562383344
 11
8.8403944479
 21
-20.0868282815
  0
LINE
  5
32B
100
AcDbEntity
  8
RACCORDO
100
AcDbLine
 62
7
  6
CONTINUOUS
 10
20.9007958963
 20
-16.7145759042
 11
8.7376180243
 21
-20.2006229913
  0
LINE
  5
32C
100
AcDbEntity
  8
RACCORDO
100
AcDbLine
 62
250
  6
CONTINUOUS
 10
-0.0585597914
 20
20.5151750822
 11
-1.6413163946
 21
20.0880808615
  0
LINE
  5
32D
100
AcDbEntity
  8
RACCORDO
100
AcDbLine
 62
7
  6
CONTINUOUS
 10
-0.122362178
 20
20.5154117344
 11
-1.7054188748
 21
20.0882365359
  0
LINE
  5
32E
100
AcDbEntity
  8
RACCORDO
100
AcDbLine
 62
250
  6
CONTINUOUS
 10
-1.7053169861
 20
20.0882639806
 11
-1.7054188748
 21
20.0882365359
  0
LINE
  5
32F
100
AcDbEntity
  8
RACCORDO
100
AcDbLine
 62
7
  6
CONTINUOUS
 10
-3.3153737519
 20
20.4950489199
 11
-2.9576946027
 21
20.5893783073
  0
LINE
  5
330
100
AcDbEntity
  8
RACCORDO
100
AcDbLine
 62
7
  6
CONTINUOUS
 10
-0.1200430057
 20
20.5160120605
 11
-0.1223621783
 21
20.5154117343
  0
LINE
  5
331
100
AcDbEntity
  8
0
100
AcDbLine
 62
7
  6
CONTINUOUS
 10
-1.7720421305
 20
21.5763915008
 11
-3.169826637
 21
21.2146182495
  0
LINE
  5
332
100
AcDbEntity
  8
DRAFT
100
AcDbLine
 62
7
  6
CONTINUOUS
 10
9.0967323462
 20
22.7047095575
 11
5.2657646749
 21
21.7264378487
  0
LINE
  5
333
100
AcDbEntity
  8
ASSI
100
AcDbLine
 62
7
  6
CONTINUOUS
 10
-2.9576946027
 20
20.5893783073
 11
2.3167974665
 21
21.9283312665
  0
LINE
  5
334
100
AcDbEntity
  8
ASSI
100
AcDbLine
 62
7
  6
CONTINUOUS
 10
1.7112670318
 20
22.0850540754
 11
-2.8869839246
 21
20.9314828488
  0
LINE
  5
335
100
AcDbEntity
  8
RACCORDO
100
AcDbLine
 62
250
  6
CONTINUOUS
 10
0.4758900873
 20
20.6476778198
 11
-0.0585597914
 21
20.5151750822
  0
LINE
  5
336
100
AcDbEntity
  8
RACCORDO
100
AcDbLine
 62
7
  6
CONTINUOUS
 10
0.4147020659
 20
20.6485879837
 11
-0.120042991
 21
20.5160120645
  0
LINE
  5
337
100
AcDbEntity
  8
RACCORDO
100
AcDbLine
 62
7
  6
CONTINUOUS
 10
3.129594308
 20
21.2406553887
 11
2.4907335314
 21
21.0829219905
  0
LINE
  5
338
100
AcDbEntity
  8
RACCORDO
100
AcDbLine
 62
7
  6
CONTINUOUS
 10
-1.1130463792
 20
22.3387316
 11
-3.169826637
 21
21.8309168284
  0
LINE
  5
339
100
AcDbEntity
  8
0
100
AcDbLine
 62
7
  6
CONTINUOUS
 10
-3.5233800276
 20
21.9224231793
 11
-3.189604405
 21
22.0048316869
  0
LINE
  5
33A
100
AcDbEntity
  8
RACCORDO
100
AcDbLine
 62
7
  6
CONTINUOUS
 10
9.0849125676
 20
23.1333264284
 11
4.8742955816
 21
22.1256323259
  0
LINE
  5
33B
100
AcDbEntity
  8
RACCORDO
100
AcDbLine
 62
7
  6
CONTINUOUS
 10
8.0813896214
 20
23.8287322259
 11
4.5546168714
 21
22.9846972275
  0
LINE
  5
33C
100
AcDbEntity
  8
RACCORDO
100
AcDbLine
 62
250
  6
CONTINUOUS
 10
7.5542165443
 20
23.9651746583
 11
-0.5490173161
 21
22.0898398567
  0
LINE
  5
33D
100
AcDbEntity
  8
RACCORDO
100
AcDbLine
 62
7
  6
CONTINUOUS
 10
7.3164047751
 20
23.9704518023
 11
-0.5847835331
 21
22.1418764874
  0
LINE
  5
33E
100
AcDbEntity
  8
0
100
AcDbLine
 62
7
  6
CONTINUOUS
 10
-1.7720421305
 20
21.5763915008
 11
-1.0255837081
 21
21.3984555633
  0
LINE
  5
33F
100
AcDbEntity
  8
0
100
AcDbLine
 62
7
  6
CONTINUOUS
 10
-2.4751061246
 20
21.0348113499
 11
-3.169826637
 21
21.2146182495
  0
LINE
  5
340
100
AcDbEntity
  8
RACCORDO
100
AcDbLine
 62
7
  6
CONTINUOUS
 10
-13.4228779558
 20
23.974115148
 11
-12.0793690884
 21
23.6263894658
  0
LINE
  5
341
100
AcDbEntity
  8
RACCORDO
100
AcDbLine
 62
7
  6
CONTINUOUS
 10
-0.0585597914
 20
20.5151750822
 11
1.2849490761
 21
20.1674494
  0
LINE
  5
342
100
AcDbEntity
  8
RACCORDO
100
AcDbLine
 62
250
  6
CONTINUOUS
 10
-12.8884280772
 20
24.1066178856
 11
-11.5511019166
 21
23.7604924057
  0
LINE
  5
343
100
AcDbEntity
  8
RACCORDO
100
AcDbLine
 62
250
  6
CONTINUOUS
 10
0.4758900873
 20
20.6476778198
 11
1.8132162478
 21
20.3015523399
  0
LINE
  5
344
100
AcDbEntity
  8
RACCORDO
100
AcDbLine
 62
7
  6
CONTINUOUS
 10
-12.8268158147
 20
24.1068994224
 11
-11.4894896542
 21
23.7607739425
  0
LINE
  5
345
100
AcDbEntity
  8
RACCORDO
100
AcDbLine
 62
7
  6
CONTINUOUS
 10
0.5375023497
 20
20.6479593566
 11
1.8748285103
 21
20.3018338768
  0
LINE
  5
346
100
AcDbEntity
  8
DRAFT
100
AcDbLine
 62
7
  6
CONTINUOUS
 10
7.1482653746
 20
19.1505616502
 11
7.7571991783
 21
18.9929579846
  0
LINE
  5
347
100
AcDbEntity
  8
0
100
AcDbLine
 62
7
  6
CONTINUOUS
 10
-3.169826637
 20
21.8309168284
 11
-3.5233800276
 21
21.9224231793
  0
LINE
  5
348
100
AcDbEntity
  8
0
100
AcDbLine
 62
7
  6
CONTINUOUS
 10
-1.0555268011
 20
21.3909436874
 11
-1.7720421305
 21
21.5763915008
  0
LINE
  5
349
100
AcDbEntity
  8
RACCORDO
100
AcDbLine
 62
250
  6
CONTINUOUS
 10
-3.0642548977
 20
22.8437415256
 11
-1.1130463792
 21
22.3387316
  0
LINE
  5
34A
100
AcDbEntity
  8
RACCORDO
100
AcDbLine
 62
250
  6
CONTINUOUS
 10
3.129594308
 20
21.2406553887
 11
6.1965602519
 21
20.4468661917
  0
LINE
  5
34B
100
AcDbEntity
  8
RACCORDO
100
AcDbLine
 62
7
  6
CONTINUOUS
 10
-3.0642548977
 20
22.9076091175
 11
-0.8686541645
 21
22.3393458323
  0
LINE
  5
34C
100
AcDbEntity
  8
RACCORDO
100
AcDbLine
 62
7
  6
CONTINUOUS
 10
3.3739865226
 20
21.2412696209
 11
6.4868074903
 21
20.4356122705
  0
LINE
  5
34D
100
AcDbEntity
  8
ASSI
100
AcDbLine
 62
250
  6
CONTINUOUS
 10
-3.8440108712
 20
23.5228657975
 11
-3.2384804365
 21
23.3661429887
  0
LINE
  5
34E
100
AcDbEntity
  8
ASSI
100
AcDbLine
 62
250
  6
CONTINUOUS
 10
1.7112670318
 20
22.0850540754
 11
2.3167974665
 21
21.9283312665
  0
LINE
  5
34F
100
AcDbEntity
  8
ASSI
100
AcDbLine
 62
7
  6
CONTINUOUS
 10
-3.7112216778
 20
23.5209533529
 11
-3.1245311062
 21
23.3691066593
  0
LINE
  5
350
100
AcDbEntity
  8
ASSI
100
AcDbLine
 62
7
  6
CONTINUOUS
 10
1.8437667513
 20
22.0832165521
 11
2.4304573229
 21
21.9313698586
  0
LINE
  5
351
100
AcDbEntity
  8
RACCORDO
100
AcDbLine
 62
7
  6
CONTINUOUS
 10
23.5920970331
 20
-8.8230898907
 11
23.5919677952
 21
-8.821515726
  0
LINE
  5
352
100
AcDbEntity
  8
RACCORDO
100
AcDbLine
 62
7
  6
CONTINUOUS
 10
23.5920970331
 20
14.5523151055
 11
23.5919677952
 21
14.5538892702
  0
LINE
  5
353
100
AcDbEntity
  8
RACCORDO
100
AcDbLine
 62
250
  6
CONTINUOUS
 10
23.5078989732
 20
14.5113530622
 11
23.5078989732
 21
13.2089579131
  0
LINE
  5
354
100
AcDbEntity
  8
RACCORDO
100
AcDbLine
 62
250
  6
CONTINUOUS
 10
23.5078989732
 20
-8.864051934
 11
23.5078989732
 21
-10.1664470831
  0
LINE
  5
355
100
AcDbEntity
  8
RACCORDO
100
AcDbLine
 62
7
  6
CONTINUOUS
 10
23.5920970331
 20
14.5523322808
 11
23.5920970331
 21
13.2758531841
  0
LINE
  5
356
100
AcDbEntity
  8
RACCORDO
100
AcDbLine
 62
7
  6
CONTINUOUS
 10
23.5920970331
 20
-8.8230727154
 11
23.5920970331
 21
-10.0995518121
  0
LINE
  5
357
100
AcDbEntity
  8
RACCORDO
100
AcDbLine
 62
7
  6
CONTINUOUS
 10
23.5915488369
 20
13.2697802818
 11
23.5920970331
 21
13.2758696216
  0
LINE
  5
358
100
AcDbEntity
  8
RACCORDO
100
AcDbLine
 62
7
  6
CONTINUOUS
 10
23.5915488369
 20
-10.1056247144
 11
23.5920970331
 21
-10.0995353746
  0
LINE
  5
359
100
AcDbEntity
  8
RACCORDO
100
AcDbLine
 62
7
  6
CONTINUOUS
 10
-9.5337756663
 20
22.1044897654
 11
-9.1802342771
 21
22.1998900839
  0
LINE
  5
35A
100
AcDbEntity
  8
RACCORDO
100
AcDbLine
 62
7
  6
CONTINUOUS
 10
-9.6781713803
 20
21.7505579644
 11
-10.4945526497
 21
21.5453604501
  0
LINE
  5
35B
100
AcDbEntity
  8
ASSI
100
AcDbLine
 62
7
  6
CONTINUOUS
 10
-3.2384804365
 20
23.3661429887
 11
-7.8367313929
 21
22.2125717621
  0
LINE
  5
35C
100
AcDbEntity
  8
ASSI
100
AcDbLine
 62
7
  6
CONTINUOUS
 10
-9.1802342771
 20
22.1998900839
 11
-3.8440108712
 21
23.5228657975
  0
LINE
  5
35D
100
AcDbEntity
  8
DRAFT
100
AcDbLine
 62
7
  6
CONTINUOUS
 10
9.0967323462
 20
22.7047095575
 11
10.9264945077
 21
22.2311322621
  0
LINE
  5
35E
100
AcDbEntity
  8
DRAFT
100
AcDbLine
 62
7
  6
CONTINUOUS
 10
16.5213535486
 20
20.7830761876
 11
18.3511157102
 21
20.3094988922
  0
LWPOLYLINE
  5
35F
100
AcDbEntity
  8
RACCORDO
100
AcDbPolyline
 62
7
  6
CONTINUOUS
 90
13
 70
0
 10
21.4565376228
 20
-16.3248310188
 10
21.4690059527
 20
-16.3108515694
 10
21.5450536602
 20
-16.2179034318
 10
21.6154546945
 20
-16.1177635665
 10
21.6798452724
 20
-16.0103951378
 10
21.7375370076
 20
-15.89640092
 10
21.7877566685
 20
-15.7770548406
 10
21.8303236923
 20
-15.6526166669
 10
21.865010727
 20
-15.5234705553
 10
21.8914198225
 20
-15.3911341225
 10
21.9094865945
 20
-15.256332608
 10
21.9192735412
 20
-15.1190420058
 10
21.9211765325
 20
-15.0256113704
  0
LINE
  5
360
100
AcDbEntity
  8
RACCORDO
100
AcDbLine
 62
250
  6
CONTINUOUS
 10
21.2263729091
 20
-16.4640340473
 11
21.137546381
 21
-16.562383344
  0
LINE
  5
361
100
AcDbEntity
  8
RACCORDO
100
AcDbLine
 62
7
  6
CONTINUOUS
 10
21.4565489505
 20
-16.3248412556
 11
21.3674035837
 21
-16.4235439535
  0
LINE
  5
362
100
AcDbEntity
  8
RACCORDO
100
AcDbLine
 62
250
  6
CONTINUOUS
 10
21.3674035837
 20
-16.4235439535
 11
21.3672923057
 21
-16.4236671148
  0
LINE
  5
363
100
AcDbEntity
  8
RACCORDO
100
AcDbLine
 62
250
  6
CONTINUOUS
 10
-13.4228779558
 20
23.974115148
 11
-15.005634559
 21
23.5470209273
  0
LINE
  5
364
100
AcDbEntity
  8
RACCORDO
100
AcDbLine
 62
7
  6
CONTINUOUS
 10
-13.4866803424
 20
23.9743518002
 11
-15.0697370392
 21
23.5471766016
  0
LINE
  5
365
100
AcDbEntity
  8
RACCORDO
100
AcDbLine
 62
250
  6
CONTINUOUS
 10
-11.9025953847
 20
23.3391596947
 11
-13.5038761755
 21
22.9168598866
  0
LINE
  5
366
100
AcDbEntity
  8
RACCORDO
100
AcDbLine
 62
250
  6
CONTINUOUS
 10
-12.0793690884
 20
23.6263894658
 11
-13.6806498792
 21
23.2040896577
  0
LINE
  5
367
100
AcDbEntity
  8
RACCORDO
100
AcDbLine
 62
7
  6
CONTINUOUS
 10
-13.4843611701
 20
23.9749521263
 11
-13.4866803427
 21
23.9743518001
  0
LINE
  5
368
100
AcDbEntity
  8
RACCORDO
100
AcDbLine
 62
250
  6
CONTINUOUS
 10
-11.3743282129
 20
23.4732626346
 11
-11.9025953847
 21
23.3391596947
  0
LINE
  5
369
100
AcDbEntity
  8
RACCORDO
100
AcDbLine
 62
250
  6
CONTINUOUS
 10
-11.5511019166
 20
23.7604924057
 11
-12.0793690884
 21
23.6263894658
  0
LINE
  5
36A
100
AcDbEntity
  8
RACCORDO
100
AcDbLine
 62
250
  6
CONTINUOUS
 10
-12.8884280772
 20
24.1066178856
 11
-13.4228779558
 21
23.974115148
  0
LINE
  5
36B
100
AcDbEntity
  8
RACCORDO
100
AcDbLine
 62
7
  6
CONTINUOUS
 10
-12.9496160985
 20
24.1075280495
 11
-13.4843611554
 21
23.9749521302
  0
LINE
  5
36C
100
AcDbEntity
  8
RACCORDO
100
AcDbLine
 62
250
  6
CONTINUOUS
 10
20.6376225334
 20
20.5789400135
 11
20.1104494563
 21
20.715382446
  0
LINE
  5
36D
100
AcDbEntity
  8
RACCORDO
100
AcDbLine
 62
250
  6
CONTINUOUS
 10
7.5542165443
 20
23.9651746583
 11
8.0813896214
 21
23.8287322259
  0
LINE
  5
36E
100
AcDbEntity
  8
RACCORDO
100
AcDbLine
 62
250
  6
CONTINUOUS
 10
15.5060108239
 20
21.907098856
 11
12.6858282539
 21
22.6370158158
  0
LINE
  5
36F
100
AcDbEntity
  8
RACCORDO
100
AcDbLine
 62
7
  6
CONTINUOUS
 10
20.8758446256
 20
20.5780676363
 11
20.3267240635
 21
20.7201904958
  0
LINE
  5
370
100
AcDbEntity
  8
RACCORDO
100
AcDbLine
 62
7
  6
CONTINUOUS
 10
7.7924386364
 20
23.9643022811
 11
8.3415591985
 21
23.8221794215
  0
LINE
  5
371
100
AcDbEntity
  8
RACCORDO
100
AcDbLine
 62
7
  6
CONTINUOUS
 10
15.766180401
 20
21.9005460517
 11
12.902102861
 21
22.6418238657
  0
LINE
  5
372
100
AcDbEntity
  8
RACCORDO
100
AcDbLine
 62
250
  6
CONTINUOUS
 10
21.2263729091
 20
20.0223508742
 11
21.137546381
 21
20.1666801653
  0
LINE
  5
373
100
AcDbEntity
  8
RACCORDO
100
AcDbLine
 62
7
  6
CONTINUOUS
 10
21.5657442679
 20
19.9897718157
 11
21.47691774
 21
20.1341011064
  0
ARC
  5
374
100
AcDbEntity
  8
RACCORDO
100
AcDbCircle
 62
250
  6
CONTINUOUS
 10
-19.0526857831
 20
-21.6538478769
 40
0.6831102209
100
AcDbArc
 50
254.5037838868
 51
255.4898695833
  0
ARC
  5
375
100
AcDbEntity
  8
RACCORDO
100
AcDbCircle
 62
7
  6
CONTINUOUS
 10
-15.0046061197
 20
-23.5162965003
 40
0.25
100
AcDbArc
 50
179.9999823887
 51
255.5139364667
  0
ARC
  5
376
100
AcDbEntity
  8
RACCORDO
100
AcDbCircle
 62
7
  6
CONTINUOUS
 10
-13.6796214399
 20
-23.8592277699
 40
0.25
100
AcDbArc
 50
255.4891963012
 51
283.9242410015
  0
ARC
  5
377
100
AcDbEntity
  8
RACCORDO
100
AcDbCircle
 62
250
  6
CONTINUOUS
 10
-15.037987955
 20
-23.6452986667
 40
0.1167483
100
AcDbArc
 50
254.4501577573
 51
255.4861490444
  0
ARC
  5
378
100
AcDbEntity
  8
0
100
AcDbCircle
 62
250
  6
CONTINUOUS
 10
-15.1331542037
 20
-4.6432083936
 40
6.9321046938
100
AcDbArc
 50
348.1082024337
 51
348.5492356073
  0
ARC
  5
379
100
AcDbEntity
  8
0
100
AcDbCircle
 62
250
  6
CONTINUOUS
 10
-14.9914555341
 20
-4.7013190102
 40
6.0761337773
100
AcDbArc
 50
345.4358434182
 51
346.0823399729
  0
ARC
  5
37A
100
AcDbEntity
  8
RACCORDO
100
AcDbCircle
 62
250
  6
CONTINUOUS
 10
-11.6106031947
 20
-5.7790882178
 40
3.9755819171
100
AcDbArc
 50
251.6831764136
 51
251.9365417291
  0
ARC
  5
37B
100
AcDbEntity
  8
DRAFT
100
AcDbCircle
 62
7
  6
CONTINUOUS
 10
-11.0026054794
 20
-6.2518206254
 40
3.2883457553
100
AcDbArc
 50
266.3431105447
 51
268.0681554047
  0
ARC
  5
37C
100
AcDbEntity
  8
ASSI
100
AcDbCircle
 62
7
  6
CONTINUOUS
 10
-26.8505729909
 20
-5.6530452338
 40
1.5781152347
100
AcDbArc
 50
38.8124473834
 51
40.7351323268
  0
ARC
  5
37D
100
AcDbEntity
  8
RACCORDO
100
AcDbCircle
 62
7
  6
CONTINUOUS
 10
1.8121878085
 20
-26.3915351835
 40
0.25
100
AcDbArc
 50
0.0
 51
62.0097814447
  0
ARC
  5
37E
100
AcDbEntity
  8
RACCORDO
100
AcDbCircle
 62
7
  6
CONTINUOUS
 10
1.8121878085
 20
-26.7791562232
 40
0.25
100
AcDbArc
 50
285.0769541604
 51
0.0000272871
  0
ARC
  5
37F
100
AcDbEntity
  8
RACCORDO
100
AcDbCircle
 62
7
  6
CONTINUOUS
 10
-0.3153032754
 20
-27.3181678357
 40
0.25
100
AcDbArc
 50
255.4883372909
 51
283.9242180597
  0
ARC
  5
380
100
AcDbEntity
  8
RACCORDO
100
AcDbCircle
 62
7
  6
CONTINUOUS
 10
-1.6402879553
 20
-26.5960449144
 40
0.25
100
AcDbArc
 50
136.5368546027
 51
179.9995536551
  0
ARC
  5
381
100
AcDbEntity
  8
RACCORDO
100
AcDbCircle
 62
7
  6
CONTINUOUS
 10
-1.6402879553
 20
-26.9752365661
 40
0.25
100
AcDbArc
 50
179.9993568957
 51
255.4891813009
  0
ARC
  5
382
100
AcDbEntity
  8
RACCORDO
100
AcDbCircle
 62
7
  6
CONTINUOUS
 10
1.5154923549
 20
-24.95674935
 40
0.2290920635
100
AcDbArc
 50
280.1841832715
 51
284.6617850127
  0
ARC
  5
383
100
AcDbEntity
  8
RACCORDO
100
AcDbCircle
 62
250
  6
CONTINUOUS
 10
1.8679370448
 20
-26.2866325342
 40
0.1312038724
100
AcDbArc
 50
58.860972014
 51
62.0076521261
  0
ARC
  5
384
100
AcDbEntity
  8
RACCORDO
100
AcDbCircle
 62
7
  6
CONTINUOUS
 10
1.3182613192
 20
-27.0501828459
 40
0.1170119024
100
AcDbArc
 50
286.0688299236
 51
290.0531255821
  0
ARC
  5
385
100
AcDbEntity
  8
RACCORDO
100
AcDbCircle
 62
250
  6
CONTINUOUS
 10
-1.6736659971
 20
-27.1042247571
 40
0.1167627806
100
AcDbArc
 50
254.1168718077
 51
255.4860656737
  0
ARC
  5
386
100
AcDbEntity
  8
RACCORDO
100
AcDbCircle
 62
7
  6
CONTINUOUS
 10
1.3183354554
 20
-27.0504252123
 40
0.1167584851
100
AcDbArc
 50
285.099899533
 51
286.0667911807
  0
ARC
  5
387
100
AcDbEntity
  8
RACCORDO
100
AcDbCircle
 62
7
  6
CONTINUOUS
 10
20.9211835844
 20
-4.524695538
 40
1.0
100
AcDbArc
 50
66.6449477742
 51
75.489913865
  0
ARC
  5
388
100
AcDbEntity
  8
RACCORDO
100
AcDbCircle
 62
7
  6
CONTINUOUS
 10
20.9211835844
 20
-4.524695538
 40
1.0
100
AcDbArc
 50
0.0
 51
29.5050161423
  0
ARC
  5
389
100
AcDbEntity
  8
RACCORDO
100
AcDbCircle
 62
7
  6
CONTINUOUS
 10
20.6252818185
 20
-15.7532788674
 40
1.0
100
AcDbArc
 50
285.9170902823
 51
317.9029621089
  0
ARC
  5
38A
100
AcDbEntity
  8
RACCORDO
100
AcDbCircle
 62
250
  6
CONTINUOUS
 10
20.9725915013
 20
-4.4043936527
 40
0.8691651801
100
AcDbArc
 50
66.623174299
 51
68.4898703681
  0
ARC
  5
38B
100
AcDbEntity
  8
RACCORDO
100
AcDbCircle
 62
250
  6
CONTINUOUS
 10
20.9920588534
 20
-4.3541718926
 40
0.8153032728
100
AcDbArc
 50
68.4685703906
 51
72.6643457878
  0
ARC
  5
38C
100
AcDbEntity
  8
RACCORDO
100
AcDbCircle
 62
250
  6
CONTINUOUS
 10
21.0041600232
 20
-4.3167252156
 40
0.775951917
100
AcDbArc
 50
72.693404084
 51
73.3719728591
  0
ARC
  5
38D
100
AcDbEntity
  8
RACCORDO
100
AcDbCircle
 62
250
  6
CONTINUOUS
 10
21.4002357101
 20
-11.4361428189
 40
0.6393015857
100
AcDbArc
 50
324.6283737557
 51
329.4445312541
  0
ARC
  5
38E
100
AcDbEntity
  8
RACCORDO
100
AcDbCircle
 62
250
  6
CONTINUOUS
 10
-13.680287357
 20
-0.351822308
 40
3.6790795412
100
AcDbArc
 50
78.1433486439
 51
79.9427606738
  0
ARC
  5
38F
100
AcDbEntity
  8
DRAFT
100
AcDbCircle
 62
7
  6
CONTINUOUS
 10
-12.6392856277
 20
0.0794181911
 40
3.2946017032
100
AcDbArc
 50
121.2761299679
 51
122.7250933957
  0
ARC
  5
390
100
AcDbEntity
  8
DRAFT
100
AcDbCircle
 62
7
  6
CONTINUOUS
 10
-12.6520905045
 20
0.1003412231
 40
3.2700714884
100
AcDbArc
 50
120.9394370847
 51
121.2747012027
  0
ARC
  5
391
100
AcDbEntity
  8
RACCORDO
100
AcDbCircle
 62
250
  6
CONTINUOUS
 10
-13.4862923241
 20
0.0669590046
 40
3.0944449909
100
AcDbArc
 50
104.1065105307
 51
106.960719255
  0
ARC
  5
392
100
AcDbEntity
  8
RACCORDO
100
AcDbCircle
 62
7
  6
CONTINUOUS
 10
-15.0046061197
 20
22.9266180854
 40
0.25
100
AcDbArc
 50
180.0
 51
242.0097814447
  0
ARC
  5
393
100
AcDbEntity
  8
RACCORDO
100
AcDbCircle
 62
7
  6
CONTINUOUS
 10
-11.5521303559
 20
23.5187488561
 40
0.25
100
AcDbArc
 50
359.9993568957
 51
75.4891813009
  0
ARC
  5
394
100
AcDbEntity
  8
RACCORDO
100
AcDbCircle
 62
7
  6
CONTINUOUS
 10
-11.5521303559
 20
23.1311278163
 40
0.25
100
AcDbArc
 50
316.5368546027
 51
359.9995536551
  0
ARC
  5
395
100
AcDbEntity
  8
RACCORDO
100
AcDbCircle
 62
7
  6
CONTINUOUS
 10
-12.8894565165
 20
23.8648743359
 40
0.25
100
AcDbArc
 50
75.4891813009
 51
103.9258696977
  0
ARC
  5
396
100
AcDbEntity
  8
RACCORDO
100
AcDbCircle
 62
7
  6
CONTINUOUS
 10
-15.0046061197
 20
23.305809737
 40
0.25
100
AcDbArc
 50
105.1007973708
 51
180.0
  0
ARC
  5
397
100
AcDbEntity
  8
RACCORDO
100
AcDbCircle
 62
7
  6
CONTINUOUS
 10
1.8121878085
 20
20.0598087903
 40
0.25
100
AcDbArc
 50
0.0
 51
75.4894999827
  0
ARC
  5
398
100
AcDbEntity
  8
RACCORDO
100
AcDbCircle
 62
7
  6
CONTINUOUS
 10
0.4748616479
 20
20.4059342702
 40
0.25
100
AcDbArc
 50
75.4883372909
 51
103.9242180597
  0
ARC
  5
399
100
AcDbEntity
  8
RACCORDO
100
AcDbCircle
 62
7
  6
CONTINUOUS
 10
-1.6402879553
 20
19.8468696713
 40
0.25
100
AcDbArc
 50
105.0769541604
 51
180.0000272871
  0
ARC
  5
39A
100
AcDbEntity
  8
RACCORDO
100
AcDbCircle
 62
7
  6
CONTINUOUS
 10
-1.6402879553
 20
19.4676780196
 40
0.25
100
AcDbArc
 50
180.0
 51
242.0097814447
  0
ARC
  5
39B
100
AcDbEntity
  8
RACCORDO
100
AcDbCircle
 62
250
  6
CONTINUOUS
 10
-1.6951655333
 20
19.3647501
 40
0.1333567985
100
AcDbArc
 50
242.0792218779
 51
255.4463434225
  0
ARC
  5
39C
100
AcDbEntity
  8
RACCORDO
100
AcDbCircle
 62
250
  6
CONTINUOUS
 10
-15.0594836977
 20
22.8236901658
 40
0.1333567985
100
AcDbArc
 50
242.0792218779
 51
255.4463434225
  0
ARC
  5
39D
100
AcDbEntity
  8
RACCORDO
100
AcDbCircle
 62
7
  6
CONTINUOUS
 10
-9.5768503247
 20
22.0047952516
 40
0.1013215816
100
AcDbArc
 50
180.0021186554
 51
180.2636369726
  0
ARC
  5
39E
100
AcDbEntity
  8
RACCORDO
100
AcDbCircle
 62
7
  6
CONTINUOUS
 10
20.9211835844
 20
8.2282139359
 40
1.0
100
AcDbArc
 50
343.6824694364
 51
359.9985671666
  0
ARC
  5
39F
100
AcDbEntity
  8
DRAFT
100
AcDbCircle
 62
7
  6
CONTINUOUS
 10
15.3544814995
 20
13.5894391762
 40
6.4593887743
100
AcDbArc
 50
79.1571197965
 51
80.6901767351
  0
ARC
  5
3A0
100
AcDbEntity
  8
DRAFT
100
AcDbCircle
 62
7
  6
CONTINUOUS
 10
7.9298602971
 20
15.5110725462
 40
6.4593887743
100
AcDbArc
 50
79.1571197965
 51
80.6901767351
  0
ARC
  5
3A1
100
AcDbEntity
  8
DRAFT
100
AcDbCircle
 62
7
  6
CONTINUOUS
 10
15.4870909964
 20
14.2929757581
 40
5.7434669781
100
AcDbArc
 50
78.3107017026
 51
79.1361228083
  0
ARC
  5
3A2
100
AcDbEntity
  8
DRAFT
100
AcDbCircle
 62
7
  6
CONTINUOUS
 10
8.0624697939
 20
16.2146091279
 40
5.7434669782
100
AcDbArc
 50
78.3107017026
 51
79.1361228083
  0
ARC
  5
3A3
100
AcDbEntity
  8
RACCORDO
100
AcDbCircle
 62
7
  6
CONTINUOUS
 10
20.6252818185
 20
19.6099672904
 40
1.0
100
AcDbArc
 50
31.612496939
 51
75.4891813009
  0
ARC
  5
3A4
100
AcDbEntity
  8
RACCORDO
100
AcDbCircle
 62
7
  6
CONTINUOUS
 10
7.5418758294
 20
22.9962019352
 40
1.0
100
AcDbArc
 50
75.4891813009
 51
103.0553316872
  0
ARC
  5
3A5
100
AcDbEntity
  8
RACCORDO
100
AcDbCircle
 62
250
  6
CONTINUOUS
 10
21.4002357101
 20
11.9392621773
 40
0.6393015857
100
AcDbArc
 50
324.6283737557
 51
329.4445312539
  0
ARC
  5
3A6
100
AcDbEntity
  8
RACCORDO
100
AcDbCircle
 62
250
  6
CONTINUOUS
 10
637.6720346325
 20
-1.5793774694
 40
657.8644581527
100
AcDbArc
 50
180.972645971
 51
181.7089925388
  0
SPLINE
  5
3A7
100
AcDbEntity
  8
ASSI
100
AcDbSpline
 62
7
  6
CONTINUOUS
 70
0
 71
3
 72
18
 73
14
 74
0
 42
0.0000001
 43
0.0000001
 44
0.0000000001
 40
0.0
 40
0.0
 40
0.0
 40
0.0
 40
0.1117630416
 40
0.1737317447
 40
0.2393836774
 40
0.3786709481
 40
0.5222821306
 40
0.6611945796
 40
0.7878199858
 40
0.8455089197
 40
0.8994934194
 40
0.9505583714
 40
1.0
 40
1.0
 40
1.0
 40
1.0
 10
-25.5144009225
 20
-4.5784606102
 30
0.0
 10
-25.7314271338
 20
-4.6346311269
 30
0.0
 10
-26.0496038718
 20
-4.8031613841
 30
0.0
 10
-26.4064022638
 20
-5.125449777
 30
0.0
 10
-26.747379785
 20
-5.5407868762
 30
0.0
 10
-27.0754916398
 20
-6.1671728741
 30
0.0
 10
-27.2851510123
 20
-6.9945352309
 30
0.0
 10
-27.2966285484
 20
-7.8229297513
 30
0.0
 10
-27.131329587
 20
-8.4615734977
 30
0.0
 10
-26.8941317547
 20
-8.8794993593
 30
0.0
 10
-26.678668227
 20
-9.1280259979
 30
0.0
 10
-26.4262566141
 20
-9.312552964
 30
0.0
 10
-26.2368151545
 20
-9.3886749239
 30
0.0
 10
-26.1408080728
 20
-9.4135265518
 30
0.0
  0
SPLINE
  5
3A8
100
AcDbEntity
  8
ASSI
100
AcDbSpline
 62
7
  6
CONTINUOUS
 70
0
 71
3
 72
11
 73
7
 74
0
 42
0.0000001
 43
0.0000001
 44
0.0000000001
 40
0.0
 40
0.0
 40
0.0
 40
0.0
 40
0.2584353286
 40
0.5192396938
 40
0.7698150299
 40
1.0
 40
1.0
 40
1.0
 40
1.0
 10
-14.8370885266
 20
-7.7554126433
 30
0.0
 10
-14.8370885266
 20
-7.9057777765
 30
0.0
 10
-14.8712826734
 20
-8.2086562053
 30
0.0
 10
-15.01209342
 20
-8.6370749455
 30
0.0
 10
-15.231043442
 20
-9.012638881
 30
0.0
 10
-15.4281480125
 20
-9.2167833068
 30
0.0
 10
-15.5349815544
 20
-9.2975507071
 30
0.0
  0
SPLINE
  5
3A9
100
AcDbEntity
  8
ASSI
100
AcDbSpline
 62
7
  6
CONTINUOUS
 70
0
 71
3
 72
10
 73
6
 74
0
 42
0.0000001
 43
0.0000001
 44
0.0000000001
 40
0.0
 40
0.0
 40
0.0
 40
0.0
 40
0.5259221417
 40
0.7671265308
 40
1.0
 40
1.0
 40
1.0
 40
1.0
 10
-23.0146072251
 20
-14.9522347121
 30
0.0
 10
-23.1224391911
 20
-15.0337569326
 30
0.0
 10
-23.3027647209
 20
-15.1296281004
 30
0.0
 10
-23.5591371059
 20
-15.1666950379
 30
0.0
 10
-23.6819164769
 20
-15.1538961118
 30
0.0
 10
-23.740141513
 20
-15.1400168037
 30
0.0
  0
SPLINE
  5
3AA
100
AcDbEntity
  8
ASSI
100
AcDbSpline
 62
7
  6
CONTINUOUS
 70
0
 71
3
 72
15
 73
11
 74
0
 42
0.0000001
 43
0.0000001
 44
0.0000000001
 40
0.0
 40
0.0
 40
0.0
 40
0.0
 40
0.1093280383
 40
0.230657994
 40
0.3620516065
 40
0.4992012433
 40
0.6366420755
 40
0.7038045083
 40
0.7690320341
 40
1.0
 40
1.0
 40
1.0
 40
1.0
 10
-26.7880079343
 20
-8.9980063397
 30
0.0
 10
-26.6159326719
 20
-8.9347017194
 30
0.0
 10
-26.2757100671
 20
-8.7360553463
 30
0.0
 10
-25.8481679016
 20
-8.2973969821
 30
0.0
 10
-25.5026287852
 20
-7.7366906628
 30
0.0
 10
-25.2637173612
 20
-7.0948453649
 30
0.0
 10
-25.1663556964
 20
-6.5263889528
 30
0.0
 10
-25.1566241415
 20
-6.0728062122
 30
0.0
 10
-25.2055397452
 20
-5.4670479865
 30
0.0
 10
-25.3780968035
 20
-4.9657267569
 30
0.0
 10
-25.6209027307
 20
-4.6639250464
 30
0.0
  0
SPLINE
  5
3AB
100
AcDbEntity
  8
ASSI
100
AcDbSpline
 62
7
  6
CONTINUOUS
 70
0
 71
3
 72
10
 73
6
 74
0
 42
0.0000001
 43
0.0000001
 44
0.0000000001
 40
0.0
 40
0.0
 40
0.0
 40
0.0
 40
0.5259221417
 40
0.7671265308
 40
1.0
 40
1.0
 40
1.0
 40
1.0
 10
-25.1543550754
 20
2.437916108
 30
0.0
 10
-25.0465231094
 20
2.5194383285
 30
0.0
 10
-24.8661975796
 20
2.6153094963
 30
0.0
 10
-24.6098251945
 20
2.6523764338
 30
0.0
 10
-24.4870458236
 20
2.6395775076
 30
0.0
 10
-24.4288207874
 20
2.6256981996
 30
0.0
  0
SPLINE
  5
3AC
100
AcDbEntity
  8
ASSI
100
AcDbSpline
 62
7
  6
CONTINUOUS
 70
0
 71
3
 72
11
 73
7
 74
0
 42
0.0000001
 43
0.0000001
 44
0.0000000001
 40
0.0
 40
0.0
 40
0.0
 40
0.0
 40
0.2584353286
 40
0.5192396938
 40
0.7698150299
 40
1.0
 40
1.0
 40
1.0
 40
1.0
 10
-30.4641483908
 20
-2.5908722158
 30
0.0
 10
-30.4641483908
 20
-2.4405070826
 30
0.0
 10
-30.4299542441
 20
-2.1376286538
 30
0.0
 10
-30.2891434975
 20
-1.7092099136
 30
0.0
 10
-30.0701934755
 20
-1.3336459781
 30
0.0
 10
-29.8730889049
 20
-1.1295015523
 30
0.0
 10
-29.766255363
 20
-1.048734152
 30
0.0
  0
SPLINE
  5
3AD
100
AcDbEntity
  8
ASSI
100
AcDbSpline
 62
7
  6
CONTINUOUS
 70
0
 71
3
 72
12
 73
8
 74
0
 42
0.0000001
 43
0.0000001
 44
0.0000000001
 40
0.0
 40
0.0
 40
0.0
 40
0.0
 40
0.1063615444
 40
0.2154211809
 40
0.4488745317
 40
0.7110253922
 40
1.0
 40
1.0
 40
1.0
 40
1.0
 10
-15.521904718
 20
0.4734765963
 30
0.0
 10
-15.4718463913
 20
0.4605146769
 30
0.0
 10
-15.3730729612
 20
0.4227569356
 30
0.0
 10
-15.189583933
 20
0.3019282458
 30
0.0
 10
-15.0004649485
 20
0.0673447806
 30
0.0
 10
-14.8655045754
 20
-0.294351968
 30
0.0
 10
-14.8370885266
 20
-0.5636647757
 30
0.0
 10
-14.8370885266
 20
-0.7041541114
 30
0.0
  0
SPLINE
  5
3AE
100
AcDbEntity
  8
ASSI
100
AcDbSpline
 62
7
  6
CONTINUOUS
 70
0
 71
3
 72
12
 73
8
 74
0
 42
0.0000001
 43
0.0000001
 44
0.0000000001
 40
0.0
 40
0.0
 40
0.0
 40
0.0
 40
0.1063615444
 40
0.2154211809
 40
0.4488745317
 40
0.7110253922
 40
1.0
 40
1.0
 40
1.0
 40
1.0
 10
-29.7793321995
 20
-13.6713850549
 30
0.0
 10
-29.8293905261
 20
-13.6584231355
 30
0.0
 10
-29.9281639562
 20
-13.6206653943
 30
0.0
 10
-30.1116529844
 20
-13.4998367045
 30
0.0
 10
-30.3007719689
 20
-13.2652532393
 30
0.0
 10
-30.435732342
 20
-12.9035564906
 30
0.0
 10
-30.4641483908
 20
-12.634243683
 30
0.0
 10
-30.4641483908
 20
-12.4937543473
 30
0.0
  0
SPLINE
  5
3AF
100
AcDbEntity
  8
ASSI
100
AcDbSpline
 62
7
  6
CONTINUOUS
 70
0
 71
3
 72
9
 73
5
 74
0
 42
0.0000001
 43
0.0000001
 44
0.0000000001
 40
0.0
 40
0.0
 40
0.0
 40
0.0
 40
0.4912785945
 40
1.0
 40
1.0
 40
1.0
 40
1.0
 10
-24.8879937723
 20
-4.5730238
 30
0.0
 10
-24.9881174286
 20
-4.5471065885
 30
0.0
 10
-25.1999377928
 20
-4.5217956419
 30
0.0
 10
-25.4107215534
 20
-4.5516264149
 30
0.0
 10
-25.5144009225
 20
-4.5784606102
 30
0.0
  0
SPLINE
  5
3B0
100
AcDbEntity
  8
0
100
AcDbSpline
 62
7
  6
CONTINUOUS
 70
0
 71
3
 72
9
 73
5
 74
0
 42
0.0000001
 43
0.0000001
 44
0.0000000001
 40
0.0
 40
0.0
 40
0.0
 40
0.0
 40
0.4942029804
 40
1.0
 40
1.0
 40
1.0
 40
1.0
 10
-11.1121662177
 20
-9.5105620815
 30
0.0
 10
-11.3901479502
 20
-9.5825090481
 30
0.0
 10
-11.9746617478
 20
-9.6528352062
 30
0.0
 10
-12.5565463817
 20
-9.5713672637
 30
0.0
 10
-12.8410495866
 20
-9.4977324159
 30
0.0
  0
SPLINE
  5
3B1
100
AcDbEntity
  8
0
100
AcDbSpline
 62
7
  6
CONTINUOUS
 70
0
 71
3
 72
9
 73
5
 74
0
 42
0.0000001
 43
0.0000001
 44
0.0000000001
 40
0.0
 40
0.0
 40
0.0
 40
0.0
 40
0.4829046368
 40
1.0
 40
1.0
 40
1.0
 40
1.0
 10
-12.8410495866
 20
-9.4977324159
 30
0.0
 10
-13.2162839791
 20
-9.4006146087
 30
0.0
 10
-13.9650077935
 20
-9.0808511289
 30
0.0
 10
-14.6084900651
 20
-8.5888760326
 30
0.0
 10
-14.9114478473
 20
-8.3051930515
 30
0.0
  0
SPLINE
  5
3B2
100
AcDbEntity
  8
0
100
AcDbSpline
 62
7
  6
CONTINUOUS
 70
0
 71
3
 72
11
 73
7
 74
0
 42
0.0000001
 43
0.0000001
 44
0.0000000001
 40
0.0
 40
0.0
 40
0.0
 40
0.0
 40
0.2646662299
 40
0.5172583675
 40
0.7609677841
 40
1.0
 40
1.0
 40
1.0
 40
1.0
 10
-16.7305347472
 20
0.7866340584
 30
0.0
 10
-16.6005350102
 20
1.0459790023
 30
0.0
 10
-16.3034708188
 20
1.5331399587
 30
0.0
 10
-15.7362308706
 20
2.1525318902
 30
0.0
 10
-15.0710192893
 20
2.619440068
 30
0.0
 10
-14.5730175704
 20
2.8154735623
 30
0.0
 10
-14.3193701484
 20
2.8811223458
 30
0.0
  0
SPLINE
  5
3B3
100
AcDbEntity
  8
0
100
AcDbSpline
 62
7
  6
CONTINUOUS
 70
0
 71
3
 72
11
 73
7
 74
0
 42
0.0000001
 43
0.0000001
 44
0.0000000001
 40
0.0
 40
0.0
 40
0.0
 40
0.0
 40
0.2560345773
 40
0.50683902
 40
0.7542184297
 40
1.0
 40
1.0
 40
1.0
 40
1.0
 10
-8.8000683256
 20
-7.7929117998
 30
0.0
 10
-8.9383537381
 20
-8.0025805815
 30
0.0
 10
-9.2450136249
 20
-8.3972743062
 30
0.0
 10
-9.7956614574
 20
-8.8972897898
 30
0.0
 10
-10.421307588
 20
-9.2814125761
 30
0.0
 10
-10.8787504574
 20
-9.4501496373
 30
0.0
 10
-11.1121662177
 20
-9.5105620815
 30
0.0
  0
SPLINE
  5
3B4
100
AcDbEntity
  8
ASSI
100
AcDbSpline
 62
7
  6
CONTINUOUS
 70
0
 71
3
 72
11
 73
7
 74
0
 42
0.0000001
 43
0.0000001
 44
0.0000000001
 40
0.0
 40
0.0
 40
0.0
 40
0.0
 40
0.2584353286
 40
0.5192396938
 40
0.7698150299
 40
1.0
 40
1.0
 40
1.0
 40
1.0
 10
-29.0499348285
 20
-2.9568976196
 30
0.0
 10
-29.0499348285
 20
-2.8065324864
 30
0.0
 10
-29.0157406817
 20
-2.5036540576
 30
0.0
 10
-28.8749299351
 20
-2.0752353173
 30
0.0
 10
-28.6559799131
 20
-1.6996713819
 30
0.0
 10
-28.4588753425
 20
-1.4955269561
 30
0.0
 10
-28.3520418006
 20
-1.4147595558
 30
0.0
  0
SPLINE
  5
3B5
100
AcDbEntity
  8
ASSI
100
AcDbSpline
 62
7
  6
CONTINUOUS
 70
0
 71
3
 72
12
 73
8
 74
0
 42
0.0000001
 43
0.0000001
 44
0.0000000001
 40
0.0
 40
0.0
 40
0.0
 40
0.0
 40
0.1063615444
 40
0.2154211809
 40
0.4488745317
 40
0.7110253922
 40
1.0
 40
1.0
 40
1.0
 40
1.0
 10
-28.3651186371
 20
-14.0374104587
 30
0.0
 10
-28.4151769638
 20
-14.0244485393
 30
0.0
 10
-28.5139503938
 20
-13.9866907981
 30
0.0
 10
-28.697439422
 20
-13.8658621082
 30
0.0
 10
-28.8865584065
 20
-13.6312786431
 30
0.0
 10
-29.0215187797
 20
-13.2695818944
 30
0.0
 10
-29.0499348285
 20
-13.0002690868
 30
0.0
 10
-29.0499348285
 20
-12.8597797511
 30
0.0
  0
SPLINE
  5
3B6
100
AcDbEntity
  8
ASSI
100
AcDbSpline
 62
7
  6
CONTINUOUS
 70
0
 71
3
 72
9
 73
5
 74
0
 42
0.0000001
 43
0.0000001
 44
0.0000000001
 40
0.0
 40
0.0
 40
0.0
 40
0.0
 40
0.4912785945
 40
1.0
 40
1.0
 40
1.0
 40
1.0
 10
-26.1408080728
 20
-9.4135265518
 30
0.0
 10
-26.0406844164
 20
-9.4394437633
 30
0.0
 10
-25.8288640523
 20
-9.4647547099
 30
0.0
 10
-25.6180802916
 20
-9.4349239369
 30
0.0
 10
-25.5144009225
 20
-9.4080897416
 30
0.0
  0
SPLINE
  5
3B7
100
AcDbEntity
  8
0
100
AcDbSpline
 62
250
  6
CONTINUOUS
 70
0
 71
3
 72
9
 73
5
 74
0
 42
0.0000001
 43
0.0000001
 44
0.0000000001
 40
0.0
 40
0.0
 40
0.0
 40
0.0
 40
0.4912848738
 40
1.0
 40
1.0
 40
1.0
 40
1.0
 10
-14.3193693098
 20
2.8811191056
 30
0.0
 10
-14.0630435576
 20
2.9474457512
 30
0.0
 10
-13.5207931022
 20
3.0122935784
 30
0.0
 10
-12.981184241
 20
2.9359001511
 30
0.0
 10
-12.715768183
 20
2.8672054204
 30
0.0
  0
SPLINE
  5
3B8
100
AcDbEntity
  8
0
100
AcDbSpline
 62
250
  6
CONTINUOUS
 70
0
 71
3
 72
13
 73
9
 74
0
 42
0.0000001
 43
0.0000001
 44
0.0000000001
 40
0.0
 40
0.0
 40
0.0
 40
0.0
 40
0.1111451903
 40
0.2240131142
 40
0.3401582498
 40
0.4608371248
 40
0.7184283766
 40
1.0
 40
1.0
 40
1.0
 40
1.0
 10
-11.1121662421
 20
-9.5105619872
 30
0.0
 10
-10.945788091
 20
-9.467499154
 30
0.0
 10
-10.6173156676
 20
-9.3513099049
 30
0.0
 10
-10.1564700662
 20
-9.0929854413
 30
0.0
 10
-9.7321388235
 20
-8.7541407675
 30
0.0
 10
-9.2121159719
 20
-8.1902878194
 30
0.0
 10
-8.6885178855
 20
-7.3004731287
 30
0.0
 10
-8.4395426894
 20
-6.4977080858
 30
0.0
 10
-8.3498229083
 20
-6.0716663116
 30
0.0
  0
SPLINE
  5
3B9
100
AcDbEntity
  8
0
100
AcDbSpline
 62
250
  6
CONTINUOUS
 70
0
 71
3
 72
11
 73
7
 74
0
 42
0.0000001
 43
0.0000001
 44
0.0000000001
 40
0.0
 40
0.0
 40
0.0
 40
0.0
 40
0.2408628024
 40
0.4938145443
 40
0.7499979146
 40
1.0
 40
1.0
 40
1.0
 40
1.0
 10
-8.3390284486
 20
-6.0194099448
 30
0.0
 10
-8.2340513958
 20
-5.5011663321
 30
0.0
 10
-8.1387621183
 20
-4.4122526666
 30
0.0
 10
-8.3088592422
 20
-2.7658979897
 30
0.0
 10
-8.7738013067
 20
-1.1567101299
 30
0.0
 10
-9.272906287
 20
-0.1550469709
 30
0.0
 10
-9.5660334306
 20
0.3089504881
 30
0.0
  0
SPLINE
  5
3BA
100
AcDbEntity
  8
0
100
AcDbSpline
 62
250
  6
CONTINUOUS
 70
0
 71
3
 72
9
 73
5
 74
0
 42
0.0000001
 43
0.0000001
 44
0.0000000001
 40
0.0
 40
0.0
 40
0.0
 40
0.0
 40
0.2612873717
 40
1.0
 40
1.0
 40
1.0
 40
1.0
 10
-9.5660334306
 20
0.3089504881
 30
0.0
 10
-9.6691672779
 20
0.4722033433
 30
0.0
 10
-10.0859681025
 20
1.0823636348
 30
0.0
 10
-10.5947755322
 20
1.6328642974
 30
0.0
 10
-11.0187119082
 20
1.9768477689
 30
0.0
  0
SPLINE
  5
3BB
100
AcDbEntity
  8
ASSI
100
AcDbSpline
 62
7
  6
CONTINUOUS
 70
0
 71
3
 72
10
 73
6
 74
0
 42
0.0000001
 43
0.0000001
 44
0.0000000001
 40
0.0
 40
0.0
 40
0.0
 40
0.0
 40
0.5259221417
 40
0.7671265308
 40
1.0
 40
1.0
 40
1.0
 40
1.0
 10
-23.740141513
 20
2.0718907042
 30
0.0
 10
-23.632309547
 20
2.1534129247
 30
0.0
 10
-23.4519840172
 20
2.2492840925
 30
0.0
 10
-23.1956116322
 20
2.28635103
 30
0.0
 10
-23.0728322612
 20
2.2735521038
 30
0.0
 10
-23.0146072251
 20
2.2596727958
 30
0.0
  0
SPLINE
  5
3BC
100
AcDbEntity
  8
0
100
AcDbSpline
 62
250
  6
CONTINUOUS
 70
0
 71
3
 72
9
 73
5
 74
0
 42
0.0000001
 43
0.0000001
 44
0.0000000001
 40
0.0
 40
0.0
 40
0.0
 40
0.0
 40
0.4814799141
 40
1.0
 40
1.0
 40
1.0
 40
1.0
 10
-12.715768183
 20
2.8672054204
 30
0.0
 10
-12.4162966754
 20
2.7896964907
 30
0.0
 10
-11.8135610148
 20
2.5488142723
 30
0.0
 10
-11.2774027671
 20
2.1867504446
 30
0.0
 10
-11.0187119082
 20
1.9768477689
 30
0.0
  0
SPLINE
  5
3BD
100
AcDbEntity
  8
ASSI
100
AcDbSpline
 62
7
  6
CONTINUOUS
 70
0
 71
3
 72
18
 73
14
 74
0
 42
0.0000001
 43
0.0000001
 44
0.0000000001
 40
0.0
 40
0.0
 40
0.0
 40
0.0
 40
0.1117630416
 40
0.1737317447
 40
0.2393836774
 40
0.3786709481
 40
0.5222821306
 40
0.6611945796
 40
0.7878199858
 40
0.8455089197
 40
0.8994934194
 40
0.9505583714
 40
1.0
 40
1.0
 40
1.0
 40
1.0
 10
-25.5144009225
 20
-9.4080897416
 30
0.0
 10
-25.2973747112
 20
-9.3519192248
 30
0.0
 10
-24.9791979732
 20
-9.1833889677
 30
0.0
 10
-24.6223995812
 20
-8.8611005748
 30
0.0
 10
-24.28142206
 20
-8.4457634756
 30
0.0
 10
-23.9533102052
 20
-7.8193774777
 30
0.0
 10
-23.7436508327
 20
-6.9920151208
 30
0.0
 10
-23.7321732967
 20
-6.1636206005
 30
0.0
 10
-23.897472258
 20
-5.5249768541
 30
0.0
 10
-24.1346700903
 20
-5.1070509925
 30
0.0
 10
-24.350133618
 20
-4.8585243539
 30
0.0
 10
-24.6025452309
 20
-4.6739973877
 30
0.0
 10
-24.7919866906
 20
-4.5978754279
 30
0.0
 10
-24.8879937723
 20
-4.5730238
 30
0.0
  0
SPLINE
  5
3BE
100
AcDbEntity
  8
0
100
AcDbSpline
 62
7
  6
CONTINUOUS
 70
0
 71
3
 72
9
 73
5
 74
0
 42
0.0000001
 43
0.0000001
 44
0.0000000001
 40
0.0
 40
0.0
 40
0.0
 40
0.0
 40
0.50846152
 40
1.0
 40
1.0
 40
1.0
 40
1.0
 10
-11.0187119082
 20
1.9768477689
 30
0.0
 10
-10.9760896708
 20
1.9878792156
 30
0.0
 10
-10.8896506591
 20
2.0008405516
 30
0.0
 10
-10.8024466426
 20
1.9932262716
 30
0.0
 10
-10.7608107289
 20
1.9843991316
 30
0.0
  0
SPLINE
  5
3BF
100
AcDbEntity
  8
0
100
AcDbSpline
 62
250
  6
CONTINUOUS
 70
0
 71
3
 72
15
 73
11
 74
0
 42
0.0000001
 43
0.0000001
 44
0.0000000001
 40
0.0
 40
0.0
 40
0.0
 40
0.0
 40
0.1197975862
 40
0.2356118337
 40
0.3504167893
 40
0.4673576878
 40
0.589218616
 40
0.7180253124
 40
0.854882456
 40
1.0
 40
1.0
 40
1.0
 40
1.0
 10
-13.0693215736
 20
-9.1051885939
 30
0.0
 10
-12.8574592018
 20
-9.1600226099
 30
0.0
 10
-12.4285674588
 20
-9.2272886711
 30
0.0
 10
-11.7844841193
 20
-9.1855810726
 30
0.0
 10
-11.1715823869
 20
-8.9991550791
 30
0.0
 10
-10.6075663222
 20
-8.6735157561
 30
0.0
 10
-10.1070063871
 20
-8.2189289045
 30
0.0
 10
-9.6813939691
 20
-7.6483645596
 30
0.0
 10
-9.33978986
 20
-6.976751256
 30
0.0
 10
-9.1772336615
 20
-6.4858254902
 30
0.0
 10
-9.110568156
 20
-6.2292474524
 30
0.0
  0
SPLINE
  5
3C0
100
AcDbEntity
  8
0
100
AcDbSpline
 62
250
  6
CONTINUOUS
 70
0
 71
3
 72
15
 73
11
 74
0
 42
0.0000001
 43
0.0000001
 44
0.0000000001
 40
0.0
 40
0.0
 40
0.0
 40
0.0
 40
0.1256306453
 40
0.2580691031
 40
0.393850819
 40
0.5290508389
 40
0.6598223109
 40
0.7829410122
 40
0.896391301
 40
1.0
 40
1.0
 40
1.0
 40
1.0
 10
-9.0937025164
 20
-6.1627946413
 30
0.0
 10
-8.9913355901
 20
-5.7497163479
 30
0.0
 10
-8.8689064332
 20
-4.8779041925
 30
0.0
 10
-8.9165373957
 20
-3.5388257471
 30
0.0
 10
-9.1854778091
 20
-2.1929427315
 30
0.0
 10
-9.6616379822
 20
-0.9117912446
 30
0.0
 10
-10.3201133061
 20
0.2373843817
 30
0.0
 10
-11.1280382098
 20
1.1941980712
 30
0.0
 10
-12.0447197423
 20
1.9075395123
 30
0.0
 10
-12.7295434497
 20
2.2047951054
 30
0.0
 10
-13.0693215736
 20
2.2927361563
 30
0.0
  0
SPLINE
  5
3C1
100
AcDbEntity
  8
0
100
AcDbSpline
 62
250
  6
CONTINUOUS
 70
0
 71
3
 72
9
 73
5
 74
0
 42
0.0000001
 43
0.0000001
 44
0.0000000001
 40
0.0
 40
0.0
 40
0.0
 40
0.0
 40
0.4785207537
 40
1.0
 40
1.0
 40
1.0
 40
1.0
 10
-13.0693215736
 20
-9.1051885939
 30
0.0
 10
-13.3904383021
 20
-9.0220774677
 30
0.0
 10
-14.0372967389
 20
-8.7479609334
 30
0.0
 10
-14.5971791851
 20
-8.3292335058
 30
0.0
 10
-14.8645298595
 20
-8.0859474237
 30
0.0
  0
SPLINE
  5
3C2
100
AcDbEntity
  8
0
100
AcDbSpline
 62
250
  6
CONTINUOUS
 70
0
 71
3
 72
14
 73
10
 74
0
 42
0.0000001
 43
0.0000001
 44
0.0000000001
 40
0.0
 40
0.0
 40
0.0
 40
0.0
 40
0.2663006809
 40
0.3916790882
 40
0.5133718759
 40
0.6331256444
 40
0.752885624
 40
0.8745936022
 40
1.0
 40
1.0
 40
1.0
 40
1.0
 10
-16.4987560368
 20
0.726649703
 30
0.0
 10
-16.3168569813
 20
1.0382621779
 30
0.0
 10
-15.9893207387
 20
1.4679842677
 30
0.0
 10
-15.4477376376
 20
1.9084044378
 30
0.0
 10
-15.0133788437
 20
2.1551380078
 30
0.0
 10
-14.5498666833
 20
2.3199511261
 30
0.0
 10
-14.0644354784
 20
2.4001825039
 30
0.0
 10
-13.5650429399
 20
2.3947197289
 30
0.0
 10
-13.2338178001
 20
2.3353109119
 30
0.0
 10
-13.0693215736
 20
2.2927361563
 30
0.0
  0
SPLINE
  5
3C3
100
AcDbEntity
  8
RACCORDO
100
AcDbSpline
 62
7
  6
CONTINUOUS
 70
0
 71
3
 72
12
 73
8
 74
0
 42
0.0000001
 43
0.0000001
 44
0.0000000001
 40
0.0
 40
0.0
 40
0.0
 40
0.0
 40
0.2660951871
 40
0.3977441573
 40
0.5267556085
 40
0.772667532
 40
1.0
 40
1.0
 40
1.0
 40
1.0
 10
23.5919676926
 20
-8.821508118
 30
0.0
 10
23.546180913
 20
-8.5463691236
 30
0.0
 10
23.4359413843
 20
-8.1404454781
 30
0.0
 10
23.212030496
 20
-7.6349354511
 30
0.0
 10
22.946787389
 20
-7.1739400135
 30
0.0
 10
22.5441408389
 20
-6.6803234386
 30
0.0
 10
22.1350186132
 20
-6.3851489816
 30
0.0
 10
21.9212431862
 20
-6.2798738238
 30
0.0
  0
SPLINE
  5
3C4
100
AcDbEntity
  8
RACCORDO
100
AcDbSpline
 62
7
  6
CONTINUOUS
 70
0
 71
3
 72
11
 73
7
 74
0
 42
0.0000001
 43
0.0000001
 44
0.0000000001
 40
0.0
 40
0.0
 40
0.0
 40
0.0
 40
0.2315743805
 40
0.4725345476
 40
0.7279520979
 40
1.0
 40
1.0
 40
1.0
 40
1.0
 10
22.3872894849
 20
-11.7897210099
 30
0.0
 10
22.5423407419
 20
-11.7290695498
 30
0.0
 10
22.8400919542
 20
-11.5522582212
 30
0.0
 10
23.1960117832
 20
-11.1599581701
 30
0.0
 10
23.455103241
 20
-10.6664613626
 30
0.0
 10
23.5566304686
 20
-10.2980945592
 30
0.0
 10
23.5915489
 20
-10.1056463789
 30
0.0
  0
SPLINE
  5
3C5
100
AcDbEntity
  8
RACCORDO
100
AcDbSpline
 62
7
  6
CONTINUOUS
 70
0
 71
3
 72
11
 73
7
 74
0
 42
0.0000001
 43
0.0000001
 44
0.0000000001
 40
0.0
 40
0.0
 40
0.0
 40
0.0
 40
0.2315743805
 40
0.4725345476
 40
0.7279520979
 40
1.0
 40
1.0
 40
1.0
 40
1.0
 10
22.3872894849
 20
11.5856839863
 30
0.0
 10
22.5423407419
 20
11.6463354464
 30
0.0
 10
22.8400919542
 20
11.823146775
 30
0.0
 10
23.1960117832
 20
12.2154468261
 30
0.0
 10
23.455103241
 20
12.7089436336
 30
0.0
 10
23.5566304686
 20
13.077310437
 30
0.0
 10
23.5915489
 20
13.2697586173
 30
0.0
  0
SPLINE
  5
3C6
100
AcDbEntity
  8
RACCORDO
100
AcDbSpline
 62
7
  6
CONTINUOUS
 70
0
 71
3
 72
12
 73
8
 74
0
 42
0.0000001
 43
0.0000001
 44
0.0000000001
 40
0.0
 40
0.0
 40
0.0
 40
0.0
 40
0.2660951871
 40
0.3977441573
 40
0.5267556085
 40
0.772667532
 40
1.0
 40
1.0
 40
1.0
 40
1.0
 10
23.5919676926
 20
14.5538968782
 30
0.0
 10
23.546180913
 20
14.8290358726
 30
0.0
 10
23.4359413843
 20
15.2349595181
 30
0.0
 10
23.212030496
 20
15.7404695451
 30
0.0
 10
22.946787389
 20
16.2014649827
 30
0.0
 10
22.5441408389
 20
16.6950815576
 30
0.0
 10
22.1350186132
 20
16.9902560146
 30
0.0
 10
21.9212431862
 20
17.0955311724
 30
0.0
  0
SPLINE
  5
3C7
100
AcDbEntity
  8
SMUSSO
100
AcDbSpline
 62
7
  6
CONTINUOUS
 70
0
 71
3
 72
17
 73
13
 74
0
 42
0.0000001
 43
0.0000001
 44
0.0000000001
 40
0.0
 40
0.0
 40
0.0
 40
0.0
 40
0.0257024912
 40
0.0589736789
 40
0.100355068
 40
0.1496587597
 40
0.2698275024
 40
0.4123093453
 40
0.5675697551
 40
0.724524919
 40
0.8717878415
 40
1.0
 40
1.0
 40
1.0
 40
1.0
 10
11.0850474747
 20
20.3969961973
 30
0.0
 10
11.1097014511
 20
20.3558997656
 30
0.0
 10
11.1874610454
 20
20.2748454234
 30
0.0
 10
11.3456873859
 20
20.1738314147
 30
0.0
 10
11.5564660122
 20
20.0775409901
 30
0.0
 10
11.9288228938
 20
19.9501054609
 30
0.0
 10
12.4984329893
 20
19.8247809821
 30
0.0
 10
13.2717835016
 20
19.724561211
 30
0.0
 10
14.1190340705
 20
19.6778741938
 30
0.0
 10
14.9763833216
 20
19.6860604416
 30
0.0
 10
15.7807086192
 20
19.7502711539
 30
0.0
 10
16.2887600432
 20
19.8331470773
 30
0.0
 10
16.5215794326
 20
19.8874194047
 30
0.0
  0
SPLINE
  5
3C8
100
AcDbEntity
  8
SMUSSO
100
AcDbSpline
 62
7
  6
CONTINUOUS
 70
0
 71
3
 72
17
 73
13
 74
0
 42
0.0000001
 43
0.0000001
 44
0.0000000001
 40
0.0
 40
0.0
 40
0.0
 40
0.0
 40
0.0257024912
 40
0.0589736789
 40
0.100355068
 40
0.1496587597
 40
0.2698275024
 40
0.4123093453
 40
0.5675697551
 40
0.724524919
 40
0.8717878415
 40
1.0
 40
1.0
 40
1.0
 40
1.0
 10
3.6604262723
 20
22.3186295672
 30
0.0
 10
3.6850802486
 20
22.2775331355
 30
0.0
 10
3.762839843
 20
22.1964787933
 30
0.0
 10
3.9210661834
 20
22.0954647846
 30
0.0
 10
4.1318448097
 20
21.99917436
 30
0.0
 10
4.5042016913
 20
21.8717388308
 30
0.0
 10
5.0738117868
 20
21.746414352
 30
0.0
 10
5.8471622991
 20
21.6461945808
 30
0.0
 10
6.6944128681
 20
21.5995075637
 30
0.0
 10
7.5517621192
 20
21.6076938115
 30
0.0
 10
8.3560874167
 20
21.6719045238
 30
0.0
 10
8.8641388408
 20
21.7547804471
 30
0.0
 10
9.0969582301
 20
21.8090527745
 30
0.0
  0
SPLINE
  5
3C9
100
AcDbEntity
  8
RACCORDO
100
AcDbSpline
 62
250
  6
CONTINUOUS
 70
0
 71
3
 72
11
 73
7
 74
0
 42
0.0000001
 43
0.0000001
 44
0.0000000001
 40
0.0
 40
0.0
 40
0.0
 40
0.0
 40
0.3507139904
 40
0.4839879996
 40
0.6371452144
 40
1.0
 40
1.0
 40
1.0
 40
1.0
 10
21.9211833525
 20
-4.524695538
 30
0.0
 10
21.9211753252
 20
-4.5651095703
 30
0.0
 10
21.8694883578
 20
-4.6115446306
 30
0.0
 10
21.8067363016
 20
-4.6456914416
 30
0.0
 10
21.7376584207
 20
-4.6760456401
 30
0.0
 10
21.6809110357
 20
-4.6936618592
 30
0.0
 10
21.6405233848
 20
-4.7044863541
 30
0.0
  0
SPLINE
  5
3CA
100
AcDbEntity
  8
RACCORDO
100
AcDbSpline
 62
250
  6
CONTINUOUS
 70
0
 71
3
 72
9
 73
5
 74
0
 42
0.0000001
 43
0.0000001
 44
0.0000000001
 40
0.0
 40
0.0
 40
0.0
 40
0.0
 40
0.4889292991
 40
1.0
 40
1.0
 40
1.0
 40
1.0
 10
21.3672914965
 20
-16.4236663838
 30
0.0
 10
21.3376686002
 20
-16.456441904
 30
0.0
 10
21.2664715446
 20
-16.514505281
 30
0.0
 10
21.1819880343
 20
-16.5498348484
 30
0.0
 10
21.137546381
 20
-16.562383344
 30
0.0
  0
SPLINE
  5
3CB
100
AcDbEntity
  8
RACCORDO
100
AcDbSpline
 62
250
  6
CONTINUOUS
 70
0
 71
3
 72
9
 73
5
 74
0
 42
0.0000001
 43
0.0000001
 44
0.0000000001
 40
0.0
 40
0.0
 40
0.0
 40
0.0
 40
0.4892005377
 40
1.0
 40
1.0
 40
1.0
 40
1.0
 10
21.4562348948
 20
-16.3251989773
 30
0.0
 10
21.4265935281
 20
-16.3580250665
 30
0.0
 10
21.355313544
 20
-16.4160713268
 30
0.0
 10
21.2708164968
 20
-16.4514850057
 30
0.0
 10
21.2263729091
 20
-16.4640340473
 30
0.0
  0
SPLINE
  5
3CC
100
AcDbEntity
  8
RACCORDO
100
AcDbSpline
 62
250
  6
CONTINUOUS
 70
0
 71
3
 72
11
 73
7
 74
0
 42
0.0000001
 43
0.0000001
 44
0.0000000001
 40
0.0
 40
0.0
 40
0.0
 40
0.0
 40
0.3506356941
 40
0.4840419439
 40
0.6373520757
 40
1.0
 40
1.0
 40
1.0
 40
1.0
 10
21.9211393431
 20
-15.0256159137
 30
0.0
 10
21.9211474018
 20
-15.0660179022
 30
0.0
 10
21.8694860741
 20
-15.1124907188
 30
0.0
 10
21.8067037596
 20
-15.1466193801
 30
0.0
 10
21.7376150057
 20
-15.1769557563
 30
0.0
 10
21.6808849926
 20
-15.19458921
 30
0.0
 10
21.6405233848
 20
-15.2054067246
 30
0.0
  0
SPLINE
  5
3CD
100
AcDbEntity
  8
RACCORDO
100
AcDbSpline
 62
250
  6
CONTINUOUS
 70
0
 71
3
 72
15
 73
11
 74
0
 42
0.0000001
 43
0.0000001
 44
0.0000000001
 40
0.0
 40
0.0
 40
0.0
 40
0.0
 40
0.2732035431
 40
0.4080786549
 40
0.5406573556
 40
0.6692035774
 40
0.7903753074
 40
0.8993023141
 40
0.9498499864
 40
1.0
 40
1.0
 40
1.0
 40
1.0
 10
21.9211846866
 20
-8.0148645966
 30
0.0
 10
21.9211719876
 20
-8.0898126887
 30
0.0
 10
21.9153482731
 20
-8.2019341508
 30
0.0
 10
21.8937478039
 20
-8.3487683601
 30
0.0
 10
21.8698336911
 20
-8.4548601029
 30
0.0
 10
21.8363528674
 20
-8.5545837067
 30
0.0
 10
21.7912937812
 20
-8.6424063912
 30
0.0
 10
21.7364269432
 20
-8.7002046733
 30
0.0
 10
21.6822986525
 20
-8.7221966333
 30
0.0
 10
21.6542491489
 20
-8.7240881221
 30
0.0
 10
21.6405233848
 20
-8.7231515025
 30
0.0
  0
SPLINE
  5
3CE
100
AcDbEntity
  8
RACCORDO
100
AcDbSpline
 62
250
  6
CONTINUOUS
 70
0
 71
3
 72
9
 73
5
 74
0
 42
0.0000001
 43
0.0000001
 44
0.0000000001
 40
0.0
 40
0.0
 40
0.0
 40
0.0
 40
0.4893994704
 40
1.0
 40
1.0
 40
1.0
 40
1.0
 10
20.9007989597
 20
-16.7145865929
 30
0.0
 10
20.9453796439
 20
-16.7018098412
 30
0.0
 10
21.0329269794
 20
-16.6616008197
 30
0.0
 10
21.1052513295
 20
-16.5984123063
 30
0.0
 10
21.137546381
 20
-16.562383344
 30
0.0
  0
SPLINE
  5
3CF
100
AcDbEntity
  8
DRAFT
100
AcDbSpline
 62
7
  6
CONTINUOUS
 70
0
 71
3
 72
9
 73
5
 74
0
 42
0.0000001
 43
0.0000001
 44
0.0000000001
 40
0.0
 40
0.0
 40
0.0
 40
0.0
 40
0.2576701963
 40
1.0
 40
1.0
 40
1.0
 40
1.0
 10
11.306503534
 20
2.0996259593
 30
0.0
 10
11.2877494612
 20
2.1188186288
 30
0.0
 10
11.2132224011
 20
2.1915616105
 30
0.0
 10
11.1315245327
 20
2.257101264
 30
0.0
 10
11.0672676712
 20
2.3000837481
 30
0.0
  0
SPLINE
  5
3D0
100
AcDbEntity
  8
DRAFT
100
AcDbSpline
 62
7
  6
CONTINUOUS
 70
0
 71
3
 72
9
 73
5
 74
0
 42
0.0000001
 43
0.0000001
 44
0.0000000001
 40
0.0
 40
0.0
 40
0.0
 40
0.0
 40
0.2387923587
 40
1.0
 40
1.0
 40
1.0
 40
1.0
 10
11.709463768
 20
3.4121859613
 30
0.0
 10
11.7849769455
 20
3.3437238098
 30
0.0
 10
12.086817994
 20
3.041258304
 30
0.0
 10
12.3308496549
 20
2.6834273367
 30
0.0
 10
12.4832756135
 20
2.3964794135
 30
0.0
  0
LINE
  5
3D1
100
AcDbEntity
  8
DRAFT
100
AcDbLine
 62
7
  6
CONTINUOUS
 10
11.0672676712
 20
2.3000837481
 11
10.0169023765
 21
2.0251860338
  0
SPLINE
  5
3D2
100
AcDbEntity
  8
RACCORDO
100
AcDbSpline
 62
250
  6
CONTINUOUS
 70
0
 71
3
 72
15
 73
11
 74
0
 42
0.0000001
 43
0.0000001
 44
0.0000000001
 40
0.0
 40
0.0
 40
0.0
 40
0.0
 40
0.2732106942
 40
0.4080890874
 40
0.5406706963
 40
0.6692178559
 40
0.7903995257
 40
0.8993289509
 40
0.9498642331
 40
1.0
 40
1.0
 40
1.0
 40
1.0
 10
21.921184898
 20
15.3604125807
 30
0.0
 10
21.9211681351
 20
15.2854738276
 30
0.0
 10
21.9153376332
 20
15.1733667569
 30
0.0
 10
21.893731592
 20
15.0265523657
 30
0.0
 10
21.8698138876
 20
14.9204760141
 30
0.0
 10
21.8363294369
 20
14.8207669569
 30
0.0
 10
21.7912666648
 20
14.732956337
 30
0.0
 10
21.7364049762
 20
14.6751772067
 30
0.0
 10
21.6822836413
 20
14.6531869905
 30
0.0
 10
21.6542432916
 20
14.6513504179
 30
0.0
 10
21.6405233848
 20
14.652285006
 30
0.0
  0
SPLINE
  5
3D3
100
AcDbEntity
  8
RACCORDO
100
AcDbSpline
 62
250
  6
CONTINUOUS
 70
0
 71
3
 72
11
 73
7
 74
0
 42
0.0000001
 43
0.0000001
 44
0.0000000001
 40
0.0
 40
0.0
 40
0.0
 40
0.0
 40
0.2235570671
 40
0.4065551753
 40
0.5998403954
 40
1.0
 40
1.0
 40
1.0
 40
1.0
 10
21.9213537799
 20
-6.3097071973
 30
0.0
 10
22.1243176085
 20
-6.4206470121
 30
0.0
 10
22.4614158038
 20
-6.6834063606
 30
0.0
 10
22.8597295787
 20
-7.1625510577
 30
0.0
 10
23.2672721567
 20
-7.8579017266
 30
0.0
 10
23.4550004705
 20
-8.4546691982
 30
0.0
 10
23.521910366
 20
-8.8632548386
 30
0.0
  0
SPLINE
  5
3D4
100
AcDbEntity
  8
DRAFT
100
AcDbSpline
 62
7
  6
CONTINUOUS
 70
0
 71
3
 72
11
 73
7
 74
0
 42
0.0000001
 43
0.0000001
 44
0.0000000001
 40
0.0
 40
0.0
 40
0.0
 40
0.0
 40
0.2226810657
 40
0.4816358829
 40
0.7501139719
 40
1.0
 40
1.0
 40
1.0
 40
1.0
 10
12.9817012503
 20
19.8791562663
 30
0.0
 10
13.2291389474
 20
19.9412313924
 30
0.0
 10
13.7754380648
 20
20.0304785408
 30
0.0
 10
14.633755441
 20
20.0869751528
 30
0.0
 10
15.5250877469
 20
20.0711655886
 30
0.0
 10
16.1169420606
 20
20.0100960072
 30
0.0
 10
16.3994362868
 20
19.9637448507
 30
0.0
  0
SPLINE
  5
3D5
100
AcDbEntity
  8
DRAFT
100
AcDbSpline
 62
7
  6
CONTINUOUS
 70
0
 71
3
 72
11
 73
7
 74
0
 42
0.0000001
 43
0.0000001
 44
0.0000000001
 40
0.0
 40
0.0
 40
0.0
 40
0.0
 40
0.2226810657
 40
0.4816358829
 40
0.7501139719
 40
1.0
 40
1.0
 40
1.0
 40
1.0
 10
5.5570800478
 20
21.8007896362
 30
0.0
 10
5.8045177449
 20
21.8628647622
 30
0.0
 10
6.3508168623
 20
21.9521119107
 30
0.0
 10
7.2091342385
 20
22.0086085226
 30
0.0
 10
8.1004665445
 20
21.9927989585
 30
0.0
 10
8.6923208582
 20
21.9317293771
 30
0.0
 10
8.9748150843
 20
21.8853782205
 30
0.0
  0
SPLINE
  5
3D6
100
AcDbEntity
  8
RACCORDO
100
AcDbSpline
 62
250
  6
CONTINUOUS
 70
0
 71
3
 72
11
 73
7
 74
0
 42
0.0000001
 43
0.0000001
 44
0.0000000001
 40
0.0
 40
0.0
 40
0.0
 40
0.0
 40
0.2235597923
 40
0.4065561139
 40
0.5998448158
 40
1.0
 40
1.0
 40
1.0
 40
1.0
 10
21.9213809193
 20
17.0656878982
 30
0.0
 10
22.1243267945
 20
16.9547141552
 30
0.0
 10
22.4614311687
 20
16.6919814986
 30
0.0
 10
22.8597428434
 20
16.2128307229
 30
0.0
 10
23.2672695652
 20
15.5174855197
 30
0.0
 10
23.4550018742
 20
14.9207272267
 30
0.0
 10
23.521910366
 20
14.5121501576
 30
0.0
  0
SPLINE
  5
3D7
100
AcDbEntity
  8
RACCORDO
100
AcDbSpline
 62
250
  6
CONTINUOUS
 70
0
 71
3
 72
15
 73
11
 74
0
 42
0.0000001
 43
0.0000001
 44
0.0000000001
 40
0.0
 40
0.0
 40
0.0
 40
0.0
 40
0.1809934044
 40
0.3218785623
 40
0.4273486224
 40
0.5082752679
 40
0.5867457622
 40
0.6870038418
 40
0.8226593138
 40
1.0
 40
1.0
 40
1.0
 40
1.0
 10
20.9335242994
 20
-3.5557228148
 30
0.0
 10
20.9525772094
 20
-3.5607517715
 30
0.0
 10
20.986086765
 20
-3.5714605341
 30
0.0
 10
21.0277105502
 20
-3.5928306347
 30
0.0
 10
21.0550707584
 20
-3.6165129029
 30
0.0
 10
21.0670238
 20
-3.6447576418
 30
0.0
 10
21.057754561
 20
-3.6735371909
 30
0.0
 10
21.0316985196
 20
-3.6969923266
 30
0.0
 10
20.9913527371
 20
-3.71741946
 30
0.0
 10
20.9585589646
 20
-3.7272776597
 30
0.0
 10
20.9398004325
 20
-3.7318500014
 30
0.0
  0
SPLINE
  5
3D8
100
AcDbEntity
  8
RACCORDO
100
AcDbSpline
 62
7
  6
CONTINUOUS
 70
0
 71
3
 72
8
 73
4
 74
0
 42
0.0000001
 43
0.0000001
 44
0.0000000001
 40
0.0
 40
0.0
 40
0.0
 40
0.0
 40
1.0
 40
1.0
 40
1.0
 40
1.0
 10
23.521910366
 20
14.5121501576
 30
0.0
 10
23.5174215126
 20
14.510833333
 30
0.0
 10
23.5125175375
 20
14.5106096271
 30
0.0
 10
23.5078989732
 20
14.5113530622
 30
0.0
  0
SPLINE
  5
3D9
100
AcDbEntity
  8
RACCORDO
100
AcDbSpline
 62
7
  6
CONTINUOUS
 70
0
 71
3
 72
10
 73
6
 74
0
 42
0.0000001
 43
0.0000001
 44
0.0000000001
 40
0.0
 40
0.0
 40
0.0
 40
0.0
 40
0.2483497569
 40
0.4979804855
 40
1.0
 40
1.0
 40
1.0
 40
1.0
 10
23.5078989732
 20
14.5113530622
 30
0.0
 10
23.3679901553
 20
14.5338737225
 30
0.0
 10
23.0851918401
 20
14.5649361746
 30
0.0
 10
22.5153502017
 20
14.5961145804
 30
0.0
 10
22.0861811009
 20
14.5977092902
 30
0.0
 10
21.7997509629
 20
14.5939237768
 30
0.0
  0
SPLINE
  5
3DA
100
AcDbEntity
  8
RACCORDO
100
AcDbSpline
 62
7
  6
CONTINUOUS
 70
0
 71
3
 72
8
 73
4
 74
0
 42
0.0000001
 43
0.0000001
 44
0.0000000001
 40
0.0
 40
0.0
 40
0.0
 40
0.0
 40
1.0
 40
1.0
 40
1.0
 40
1.0
 10
23.521910366
 20
13.2162159021
 30
0.0
 10
23.5169058966
 20
13.2145967425
 30
0.0
 10
23.5122141189
 20
13.2119655551
 30
0.0
 10
23.5078989732
 20
13.2089579131
 30
0.0
  0
SPLINE
  5
3DB
100
AcDbEntity
  8
RACCORDO
100
AcDbSpline
 62
7
  6
CONTINUOUS
 70
0
 71
3
 72
10
 73
6
 74
0
 42
0.0000001
 43
0.0000001
 44
0.0000000001
 40
0.0
 40
0.0
 40
0.0
 40
0.0
 40
0.4944919367
 40
0.7451834888
 40
1.0
 40
1.0
 40
1.0
 40
1.0
 10
21.7994457253
 20
12.2106091514
 30
0.0
 10
22.0886474732
 20
12.3618001703
 30
0.0
 10
22.5214709352
 20
12.5956620018
 30
0.0
 10
23.0896509846
 20
12.9314972869
 30
0.0
 10
23.3699384102
 20
13.1127998655
 30
0.0
 10
23.5078989732
 20
13.2089579131
 30
0.0
  0
SPLINE
  5
3DC
100
AcDbEntity
  8
RACCORDO
100
AcDbSpline
 62
7
  6
CONTINUOUS
 70
0
 71
3
 72
8
 73
4
 74
0
 42
0.0000001
 43
0.0000001
 44
0.0000000001
 40
0.0
 40
0.0
 40
0.0
 40
0.0
 40
1.0
 40
1.0
 40
1.0
 40
1.0
 10
23.521910366
 20
-8.8632548386
 30
0.0
 10
23.5174215126
 20
-8.8645716632
 30
0.0
 10
23.5125175375
 20
-8.8647953691
 30
0.0
 10
23.5078989732
 20
-8.864051934
 30
0.0
  0
SPLINE
  5
3DD
100
AcDbEntity
  8
RACCORDO
100
AcDbSpline
 62
7
  6
CONTINUOUS
 70
0
 71
3
 72
10
 73
6
 74
0
 42
0.0000001
 43
0.0000001
 44
0.0000000001
 40
0.0
 40
0.0
 40
0.0
 40
0.0
 40
0.2483497243
 40
0.4979804475
 40
1.0
 40
1.0
 40
1.0
 40
1.0
 10
23.5078989732
 20
-8.864051934
 30
0.0
 10
23.3679862242
 20
-8.8415306409
 30
0.0
 10
23.0851798898
 20
-8.810467768
 30
0.0
 10
22.5153221162
 20
-8.7792891211
 30
0.0
 10
22.0861408849
 20
-8.7776965261
 30
0.0
 10
21.7997026357
 20
-8.7814818579
 30
0.0
  0
SPLINE
  5
3DE
100
AcDbEntity
  8
RACCORDO
100
AcDbSpline
 62
7
  6
CONTINUOUS
 70
0
 71
3
 72
8
 73
4
 74
0
 42
0.0000001
 43
0.0000001
 44
0.0000000001
 40
0.0
 40
0.0
 40
0.0
 40
0.0
 40
1.0
 40
1.0
 40
1.0
 40
1.0
 10
23.521910366
 20
-10.1591890941
 30
0.0
 10
23.5169058966
 20
-10.1608082537
 30
0.0
 10
23.5122141189
 20
-10.1634394411
 30
0.0
 10
23.5078989732
 20
-10.1664470831
 30
0.0
  0
SPLINE
  5
3DF
100
AcDbEntity
  8
RACCORDO
100
AcDbSpline
 62
7
  6
CONTINUOUS
 70
0
 71
3
 72
10
 73
6
 74
0
 42
0.0000001
 43
0.0000001
 44
0.0000000001
 40
0.0
 40
0.0
 40
0.0
 40
0.0
 40
0.4944919367
 40
0.7451834888
 40
1.0
 40
1.0
 40
1.0
 40
1.0
 10
21.7994457253
 20
-11.1647958448
 30
0.0
 10
22.0886474732
 20
-11.0136048259
 30
0.0
 10
22.5214709352
 20
-10.7797429943
 30
0.0
 10
23.0896509846
 20
-10.4439077093
 30
0.0
 10
23.3699384102
 20
-10.2626051307
 30
0.0
 10
23.5078989732
 20
-10.1664470831
 30
0.0
  0
SPLINE
  5
3E0
100
AcDbEntity
  8
RACCORDO
100
AcDbSpline
 62
250
  6
CONTINUOUS
 70
0
 71
3
 72
11
 73
7
 74
0
 42
0.0000001
 43
0.0000001
 44
0.0000000001
 40
0.0
 40
0.0
 40
0.0
 40
0.0
 40
0.2161325873
 40
0.4505537966
 40
0.7122966421
 40
1.0
 40
1.0
 40
1.0
 40
1.0
 10
21.075350483
 20
7.0744504012
 30
0.0
 10
21.1082253198
 20
7.0842850554
 30
0.0
 10
21.1727378952
 20
7.120624082
 30
0.0
 10
21.2432649521
 20
7.2119581147
 30
0.0
 10
21.2857979245
 20
7.3305969181
 30
0.0
 10
21.2938751665
 20
7.4183727004
 30
0.0
 10
21.2932999751
 20
7.4640463955
 30
0.0
  0
SPLINE
  5
3E1
100
AcDbEntity
  8
DRAFT
100
AcDbSpline
 62
7
  6
CONTINUOUS
 70
0
 71
3
 72
9
 73
5
 74
0
 42
0.0000001
 43
0.0000001
 44
0.0000000001
 40
0.0
 40
0.0
 40
0.0
 40
0.0
 40
0.2596719496
 40
1.0
 40
1.0
 40
1.0
 40
1.0
 10
14.5731665432
 20
2.9233270389
 30
0.0
 10
14.5221091895
 20
3.0244940405
 30
0.0
 10
14.3117665618
 20
3.4068215675
 30
0.0
 10
14.0449620733
 20
3.759566528
 30
0.0
 10
13.8167350048
 20
3.9882422253
 30
0.0
  0
SPLINE
  5
3E2
100
AcDbEntity
  8
RACCORDO
100
AcDbSpline
 62
250
  6
CONTINUOUS
 70
0
 71
3
 72
11
 73
7
 74
0
 42
0.0000001
 43
0.0000001
 44
0.0000000001
 40
0.0
 40
0.0
 40
0.0
 40
0.0
 40
0.3507355769
 40
0.4840103037
 40
0.6371652802
 40
1.0
 40
1.0
 40
1.0
 40
1.0
 10
21.9211832454
 20
8.2281889283
 30
0.0
 10
21.9211586079
 20
8.1877749116
 30
0.0
 10
21.8694719375
 20
8.1413543943
 30
0.0
 10
21.8067196904
 20
8.1072098569
 30
0.0
 10
21.7376477365
 20
8.0768608841
 30
0.0
 10
21.6809063077
 20
8.0592463476
 30
0.0
 10
21.6405233848
 20
8.0484231198
 30
0.0
  0
SPLINE
  5
3E3
100
AcDbEntity
  8
RACCORDO
100
AcDbSpline
 62
250
  6
CONTINUOUS
 70
0
 71
3
 72
14
 73
10
 74
0
 42
0.0000001
 43
0.0000001
 44
0.0000000001
 40
0.0
 40
0.0
 40
0.0
 40
0.0
 40
0.2016525762
 40
0.2901294971
 40
0.3851938476
 40
0.499930703
 40
0.6403710114
 40
0.807334338
 40
1.0
 40
1.0
 40
1.0
 40
1.0
 10
21.8810886951
 20
7.9477915379
 30
0.0
 10
21.8872865405
 20
7.9689834935
 30
0.0
 10
21.8906670887
 20
8.0037854319
 30
0.0
 10
21.8674600534
 20
8.0408231388
 30
0.0
 10
21.8384856913
 20
8.0579026097
 30
0.0
 10
21.8005744081
 20
8.0656613783
 30
0.0
 10
21.7542330904
 20
8.0668149275
 30
0.0
 10
21.6996183779
 20
8.0615677021
 30
0.0
 10
21.6609711611
 20
8.0536111569
 30
0.0
 10
21.6405233848
 20
8.0484231198
 30
0.0
  0
SPLINE
  5
3E4
100
AcDbEntity
  8
SMUSSO
100
AcDbSpline
 62
7
  6
CONTINUOUS
 70
0
 71
3
 72
14
 73
10
 74
0
 42
0.0000001
 43
0.0000001
 44
0.0000000001
 40
0.0
 40
0.0
 40
0.0
 40
0.0
 40
0.3827028436
 40
0.5356844026
 40
0.6627436137
 40
0.7653155455
 40
0.8483347995
 40
0.9219138317
 40
1.0
 40
1.0
 40
1.0
 40
1.0
 10
4.5546168714
 20
22.9846972275
 30
0.0
 10
4.3984020307
 20
22.947696956
 30
0.0
 10
4.1811726158
 20
22.8861242134
 30
0.0
 10
3.9263018558
 20
22.7740081475
 30
0.0
 10
3.7879555308
 20
22.6914613443
 30
0.0
 10
3.688782843
 20
22.6040613159
 30
0.0
 10
3.630081147
 20
22.5095133789
 30
0.0
 10
3.6190547741
 20
22.4079437073
 30
0.0
 10
3.643575539
 20
22.3467185457
 30
0.0
 10
3.6604262723
 20
22.3186295672
 30
0.0
  0
SPLINE
  5
3E5
100
AcDbEntity
  8
SMUSSO
100
AcDbSpline
 62
7
  6
CONTINUOUS
 70
0
 71
3
 72
9
 73
5
 74
0
 42
0.0000001
 43
0.0000001
 44
0.0000000001
 40
0.0
 40
0.0
 40
0.0
 40
0.0
 40
0.5553607546
 40
1.0
 40
1.0
 40
1.0
 40
1.0
 10
4.8742955816
 20
22.1256323259
 30
0.0
 10
4.7696301696
 20
22.1006136958
 30
0.0
 10
4.5827987203
 20
22.0484468166
 30
0.0
 10
4.4024565168
 20
21.9750060343
 30
0.0
 10
4.3265781007
 20
21.9341909765
 30
0.0
  0
SPLINE
  5
3E6
100
AcDbEntity
  8
SMUSSO
100
AcDbSpline
 62
7
  6
CONTINUOUS
 70
0
 71
3
 72
14
 73
10
 74
0
 42
0.0000001
 43
0.0000001
 44
0.0000000001
 40
0.0
 40
0.0
 40
0.0
 40
0.0
 40
0.3827028436
 40
0.5356844026
 40
0.6627436137
 40
0.7653155455
 40
0.8483347995
 40
0.9219138317
 40
1.0
 40
1.0
 40
1.0
 40
1.0
 10
11.9792380739
 20
21.0630638576
 30
0.0
 10
11.8230232332
 20
21.0260635861
 30
0.0
 10
11.6057938183
 20
20.9644908436
 30
0.0
 10
11.3509230582
 20
20.8523747777
 30
0.0
 10
11.2125767333
 20
20.7698279744
 30
0.0
 10
11.1134040454
 20
20.682427946
 30
0.0
 10
11.0547023494
 20
20.587880009
 30
0.0
 10
11.0436759765
 20
20.4863103374
 30
0.0
 10
11.0681967414
 20
20.4250851758
 30
0.0
 10
11.0850474747
 20
20.3969961973
 30
0.0
  0
SPLINE
  5
3E7
100
AcDbEntity
  8
SMUSSO
100
AcDbSpline
 62
7
  6
CONTINUOUS
 70
0
 71
3
 72
9
 73
5
 74
0
 42
0.0000001
 43
0.0000001
 44
0.0000000001
 40
0.0
 40
0.0
 40
0.0
 40
0.0
 40
0.5553607546
 40
1.0
 40
1.0
 40
1.0
 40
1.0
 10
12.298916784
 20
20.203998956
 30
0.0
 10
12.194251372
 20
20.178980326
 30
0.0
 10
12.0074199228
 20
20.1268134468
 30
0.0
 10
11.8270777192
 20
20.0533726644
 30
0.0
 10
11.7511993032
 20
20.0125576067
 30
0.0
  0
SPLINE
  5
3E8
100
AcDbEntity
  8
RACCORDO
100
AcDbSpline
 62
250
  6
CONTINUOUS
 70
0
 71
3
 72
11
 73
7
 74
0
 42
0.0000001
 43
0.0000001
 44
0.0000000001
 40
0.0
 40
0.0
 40
0.0
 40
0.0
 40
0.261990579
 40
0.5366246338
 40
0.7916950033
 40
1.0
 40
1.0
 40
1.0
 40
1.0
 10
21.6405233848
 20
8.0484231198
 30
0.0
 10
21.6400652526
 20
7.9863286712
 30
0.0
 10
21.6153860195
 20
7.8593591395
 30
0.0
 10
21.537635353
 20
7.6870245899
 30
0.0
 10
21.4334513445
 20
7.5456993096
 30
0.0
 10
21.3406890108
 20
7.4778973871
 30
0.0
 10
21.2932999752
 20
7.4640463955
 30
0.0
  0
SPLINE
  5
3E9
100
AcDbEntity
  8
RACCORDO
100
AcDbSpline
 62
7
  6
CONTINUOUS
 70
0
 71
3
 72
11
 73
7
 74
0
 42
0.0000001
 43
0.0000001
 44
0.0000000001
 40
0.0
 40
0.0
 40
0.0
 40
0.0
 40
0.2894398846
 40
0.5519938622
 40
0.7856277617
 40
1.0
 40
1.0
 40
1.0
 40
1.0
 10
12.9875633131
 20
-3.1135204441
 30
0.0
 10
12.9875633131
 20
-3.1605427882
 30
0.0
 10
12.9780549039
 20
-3.2506744204
 30
0.0
 10
12.9325096637
 20
-3.3716809526
 30
0.0
 10
12.8583987188
 20
-3.4634247412
 30
0.0
 10
12.7912718705
 20
-3.4980520321
 30
0.0
 10
12.7574900041
 20
-3.5065194024
 30
0.0
  0
SPLINE
  5
3EA
100
AcDbEntity
  8
RACCORDO
100
AcDbSpline
 62
250
  6
CONTINUOUS
 70
0
 71
3
 72
11
 73
7
 74
0
 42
0.0000001
 43
0.0000001
 44
0.0000000001
 40
0.0
 40
0.0
 40
0.0
 40
0.0
 40
0.2894099579
 40
0.5519838266
 40
0.7855871743
 40
1.0
 40
1.0
 40
1.0
 40
1.0
 10
11.0655869235
 20
-3.6051966383
 30
0.0
 10
11.065587205
 20
-3.650706411
 30
0.0
 10
11.0564021857
 20
-3.7379440073
 30
0.0
 10
11.0123600337
 20
-3.8550859498
 30
0.0
 10
10.9406544396
 20
-3.9438958702
 30
0.0
 10
10.8757365659
 20
-3.9775221919
 30
0.0
 10
10.843038674
 20
-3.9857470001
 30
0.0
  0
SPLINE
  5
3EB
100
AcDbEntity
  8
RACCORDO
100
AcDbSpline
 62
250
  6
CONTINUOUS
 70
0
 71
3
 72
9
 73
5
 74
0
 42
0.0000001
 43
0.0000001
 44
0.0000000001
 40
0.0
 40
0.0
 40
0.0
 40
0.0
 40
0.4675638215
 40
1.0
 40
1.0
 40
1.0
 40
1.0
 10
11.0656125951
 20
-3.6052033598
 30
0.0
 10
11.0072417955
 20
-3.6201359881
 30
0.0
 10
10.8785559055
 20
-3.6361596528
 30
0.0
 10
10.7494223567
 20
-3.6363143183
 30
0.0
 10
10.6809759519
 20
-3.6315779082
 30
0.0
  0
SPLINE
  5
3EC
100
AcDbEntity
  8
RACCORDO
100
AcDbSpline
 62
250
  6
CONTINUOUS
 70
0
 71
3
 72
13
 73
9
 74
0
 42
0.0000001
 43
0.0000001
 44
0.0000000001
 40
0.0
 40
0.0
 40
0.0
 40
0.0
 40
0.2859622486
 40
0.5510101318
 40
0.6726345147
 40
0.7860340153
 40
0.8932768278
 40
1.0
 40
1.0
 40
1.0
 40
1.0
 10
21.6405233848
 20
-4.7044863541
 30
0.0
 10
21.6389905216
 20
-4.6479735379
 30
0.0
 10
21.6170990292
 20
-4.5389562888
 30
0.0
 10
21.5499751096
 20
-4.4210238599
 30
0.0
 10
21.4786441002
 20
-4.3516715517
 30
0.0
 10
21.4202975378
 20
-4.3160396604
 30
0.0
 10
21.3570214964
 20
-4.29837623
 30
0.0
 10
21.3137985693
 20
-4.3012352939
 30
0.0
 10
21.2932999752
 20
-4.3062317711
 30
0.0
  0
SPLINE
  5
3ED
100
AcDbEntity
  8
RACCORDO
100
AcDbSpline
 62
250
  6
CONTINUOUS
 70
0
 71
3
 72
9
 73
5
 74
0
 42
0.0000001
 43
0.0000001
 44
0.0000000001
 40
0.0
 40
0.0
 40
0.0
 40
0.0
 40
0.2459726372
 40
1.0
 40
1.0
 40
1.0
 40
1.0
 10
7.7924389264
 20
23.9643034013
 30
0.0
 10
7.7734228568
 20
23.9692269258
 30
0.0
 10
7.6948793246
 20
23.9843981287
 30
0.0
 10
7.6128358363
 20
23.9789487255
 30
0.0
 10
7.5542165443
 20
23.9651746583
 30
0.0
  0
SPLINE
  5
3EE
100
AcDbEntity
  8
RACCORDO
100
AcDbSpline
 62
7
  6
CONTINUOUS
 70
0
 71
3
 72
13
 73
9
 74
0
 42
0.0000001
 43
0.0000001
 44
0.0000000001
 40
0.0
 40
0.0
 40
0.0
 40
0.0
 40
0.2752718873
 40
0.5528064715
 40
0.6807348305
 40
0.7969916965
 40
0.9020189637
 40
1.0
 40
1.0
 40
1.0
 40
1.0
 10
10.1777709309
 20
-3.7692250789
 30
0.0
 10
10.226495434
 20
-3.8317982586
 30
0.0
 10
10.2969994388
 20
-3.9794554912
 30
0.0
 10
10.3170868881
 20
-4.1792680354
 30
0.0
 10
10.2860166262
 20
-4.3275102388
 30
0.0
 10
10.2416594893
 20
-4.419196648
 30
0.0
 10
10.1777571958
 20
-4.4876489115
 30
0.0
 10
10.1234543154
 20
-4.5137033554
 30
0.0
 10
10.0960709181
 20
-4.5205587769
 30
0.0
  0
SPLINE
  5
3EF
100
AcDbEntity
  8
RACCORDO
100
AcDbSpline
 62
250
  6
CONTINUOUS
 70
0
 71
3
 72
9
 73
5
 74
0
 42
0.0000001
 43
0.0000001
 44
0.0000000001
 40
0.0
 40
0.0
 40
0.0
 40
0.0
 40
0.2602899682
 40
1.0
 40
1.0
 40
1.0
 40
1.0
 10
21.2262041828
 20
-3.5732215043
 30
0.0
 10
21.2109498513
 20
-3.5686660914
 30
0.0
 10
21.1518361877
 20
-3.552981999
 30
0.0
 10
21.0905625055
 20
-3.5448956877
 30
0.0
 10
21.0453225944
 20
-3.5444062656
 30
0.0
  0
SPLINE
  5
3F0
100
AcDbEntity
  8
RACCORDO
100
AcDbSpline
 62
250
  6
CONTINUOUS
 70
0
 71
3
 72
9
 73
5
 74
0
 42
0.0000001
 43
0.0000001
 44
0.0000000001
 40
0.0
 40
0.0
 40
0.0
 40
0.0
 40
0.2594407876
 40
1.0
 40
1.0
 40
1.0
 40
1.0
 10
21.0453225944
 20
-3.5444062656
 30
0.0
 10
21.0355931305
 20
-3.5443010087
 30
0.0
 10
20.9980963276
 20
-3.5448757543
 30
0.0
 10
20.9605917308
 20
-3.5494986606
 30
0.0
 10
20.9335242994
 20
-3.5557228148
 30
0.0
  0
SPLINE
  5
3F1
100
AcDbEntity
  8
RACCORDO
100
AcDbSpline
 62
250
  6
CONTINUOUS
 70
0
 71
3
 72
11
 73
7
 74
0
 42
0.0000001
 43
0.0000001
 44
0.0000000001
 40
0.0
 40
0.0
 40
0.0
 40
0.0
 40
0.281140287
 40
0.5399415056
 40
0.7775178263
 40
1.0
 40
1.0
 40
1.0
 40
1.0
 10
23.521910366
 20
-10.1591890941
 30
0.0
 10
23.4877600504
 20
-10.3500506778
 30
0.0
 10
23.3896976671
 20
-10.7121335057
 30
0.0
 10
23.1417195634
 20
-11.192852008
 30
0.0
 10
22.8076406454
 20
-11.5672791136
 30
0.0
 10
22.5301890591
 20
-11.7338361066
 30
0.0
 10
22.3872877188
 20
-11.7897154815
 30
0.0
  0
SPLINE
  5
3F2
100
AcDbEntity
  8
RACCORDO
100
AcDbSpline
 62
250
  6
CONTINUOUS
 70
0
 71
3
 72
10
 73
6
 74
0
 42
0.0000001
 43
0.0000001
 44
0.0000000001
 40
0.0
 40
0.0
 40
0.0
 40
0.0
 40
0.3627626033
 40
0.64925342
 40
1.0
 40
1.0
 40
1.0
 40
1.0
 10
17.2574463569
 20
-4.3407475739
 30
0.0
 10
17.2776271609
 20
-4.3353388164
 30
0.0
 10
17.3138605493
 20
-4.3236682634
 30
0.0
 10
17.3643905149
 20
-4.301002845
 30
0.0
 10
17.3977583651
 20
-4.2710531606
 30
0.0
 10
17.3977543361
 20
-4.2508521659
 30
0.0
  0
SPLINE
  5
3F3
100
AcDbEntity
  8
RACCORDO
100
AcDbSpline
 62
250
  6
CONTINUOUS
 70
0
 71
3
 72
11
 73
7
 74
0
 42
0.0000001
 43
0.0000001
 44
0.0000000001
 40
0.0
 40
0.0
 40
0.0
 40
0.0
 40
0.270107462
 40
0.5380505438
 40
0.7846085127
 40
1.0
 40
1.0
 40
1.0
 40
1.0
 10
21.2932999752
 20
-4.3062317711
 30
0.0
 10
21.2941081913
 20
-4.2416212631
 30
0.0
 10
21.2767491174
 20
-4.1121273239
 30
0.0
 10
21.2026643696
 20
-3.9372037062
 30
0.0
 10
21.0899843174
 20
-3.8002392599
 30
0.0
 10
20.9897841787
 20
-3.7443634444
 30
0.0
 10
20.9398004325
 20
-3.7318500014
 30
0.0
  0
SPLINE
  5
3F4
100
AcDbEntity
  8
RACCORDO
100
AcDbSpline
 62
250
  6
CONTINUOUS
 70
0
 71
3
 72
11
 73
7
 74
0
 42
0.0000001
 43
0.0000001
 44
0.0000000001
 40
0.0
 40
0.0
 40
0.0
 40
0.0
 40
0.2701403291
 40
0.538044031
 40
0.7845822912
 40
1.0
 40
1.0
 40
1.0
 40
1.0
 10
17.9400852363
 20
-5.1235688481
 30
0.0
 10
17.9408935474
 20
-5.0589507493
 30
0.0
 10
17.923546438
 20
-4.9294531007
 30
0.0
 10
17.8494199708
 20
-4.7545595508
 30
0.0
 10
17.7367849631
 20
-4.6175715854
 30
0.0
 10
17.636575315
 20
-4.5617019923
 30
0.0
 10
17.5865856936
 20
-4.5491870785
 30
0.0
  0
SPLINE
  5
3F5
100
AcDbEntity
  8
RACCORDO
100
AcDbSpline
 62
250
  6
CONTINUOUS
 70
0
 71
3
 72
9
 73
5
 74
0
 42
0.0000001
 43
0.0000001
 44
0.0000000001
 40
0.0
 40
0.0
 40
0.0
 40
0.0
 40
0.2572513554
 40
1.0
 40
1.0
 40
1.0
 40
1.0
 10
17.5865856936
 20
-4.5491870785
 30
0.0
 10
17.5776312132
 20
-4.5514562978
 30
0.0
 10
17.5423936883
 20
-4.5584335506
 30
0.0
 10
17.505478386
 20
-4.5574091001
 30
0.0
 10
17.4794270145
 20
-4.5516931811
 30
0.0
  0
SPLINE
  5
3F6
100
AcDbEntity
  8
RACCORDO
100
AcDbSpline
 62
7
  6
CONTINUOUS
 70
0
 71
3
 72
9
 73
5
 74
0
 42
0.0000001
 43
0.0000001
 44
0.0000000001
 40
0.0
 40
0.0
 40
0.0
 40
0.0
 40
0.5995139092
 40
1.0
 40
1.0
 40
1.0
 40
1.0
 10
23.521910366
 20
-10.1591890941
 30
0.0
 10
23.5391444788
 20
-10.1536131223
 30
0.0
 10
23.5674226137
 20
-10.1427204834
 30
0.0
 10
23.5893770897
 20
-10.1175507268
 30
0.0
 10
23.5915429105
 20
-10.1056458566
 30
0.0
  0
SPLINE
  5
3F7
100
AcDbEntity
  8
RACCORDO
100
AcDbSpline
 62
250
  6
CONTINUOUS
 70
0
 71
3
 72
13
 73
9
 74
0
 42
0.0000001
 43
0.0000001
 44
0.0000000001
 40
0.0
 40
0.0
 40
0.0
 40
0.0
 40
0.2962980346
 40
0.5539874551
 40
0.6695546801
 40
0.7793615439
 40
0.8879107157
 40
1.0
 40
1.0
 40
1.0
 40
1.0
 10
17.2574463569
 20
-4.3407475737
 30
0.0
 10
17.2574435288
 20
-4.4592806246
 30
0.0
 10
17.2859151761
 20
-4.6825039967
 30
0.0
 10
17.410178982
 20
-4.9290754183
 30
0.0
 10
17.5545052532
 20
-5.0607035225
 30
0.0
 10
17.6755099517
 20
-5.1215421114
 30
0.0
 10
17.8075689213
 20
-5.1444688831
 30
0.0
 10
17.8965208475
 20
-5.1341921558
 30
0.0
 10
17.9400852363
 20
-5.1235688481
 30
0.0
  0
SPLINE
  5
3F8
100
AcDbEntity
  8
RACCORDO
100
AcDbSpline
 62
7
  6
CONTINUOUS
 70
0
 71
3
 72
10
 73
6
 74
0
 42
0.0000001
 43
0.0000001
 44
0.0000000001
 40
0.0
 40
0.0
 40
0.0
 40
0.0
 40
0.6697009837
 40
0.8720452642
 40
1.0
 40
1.0
 40
1.0
 40
1.0
 10
23.521910366
 20
-8.8632548386
 30
0.0
 10
23.5398072827
 20
-8.8580047005
 30
0.0
 10
23.5632187179
 20
-8.8501258651
 30
0.0
 10
23.5866865802
 20
-8.8352413258
 30
0.0
 10
23.5920906275
 20
-8.8266363573
 30
0.0
 10
23.5920951203
 20
-8.8230728343
 30
0.0
  0
SPLINE
  5
3F9
100
AcDbEntity
  8
RACCORDO
100
AcDbSpline
 62
250
  6
CONTINUOUS
 70
0
 71
3
 72
11
 73
7
 74
0
 42
0.0000001
 43
0.0000001
 44
0.0000000001
 40
0.0
 40
0.0
 40
0.0
 40
0.0
 40
0.281146515
 40
0.5399395876
 40
0.7775176577
 40
1.0
 40
1.0
 40
1.0
 40
1.0
 10
23.521910366
 20
13.2162159021
 30
0.0
 10
23.4877593761
 20
13.0253505497
 30
0.0
 10
23.3897011637
 20
12.6632670517
 30
0.0
 10
23.1417093481
 20
12.1825610129
 30
0.0
 10
22.8076429363
 20
11.8081223864
 30
0.0
 10
22.5301786223
 20
11.6415959082
 30
0.0
 10
22.3872859201
 20
11.5856951425
 30
0.0
  0
SPLINE
  5
3FA
100
AcDbEntity
  8
RACCORDO
100
AcDbSpline
 62
7
  6
CONTINUOUS
 70
0
 71
3
 72
10
 73
6
 74
0
 42
0.0000001
 43
0.0000001
 44
0.0000000001
 40
0.0
 40
0.0
 40
0.0
 40
0.0
 40
0.6697009837
 40
0.8720452642
 40
1.0
 40
1.0
 40
1.0
 40
1.0
 10
23.521910366
 20
14.5121501576
 30
0.0
 10
23.5398072827
 20
14.5174002957
 30
0.0
 10
23.5632187179
 20
14.5252791311
 30
0.0
 10
23.5866865802
 20
14.5401636704
 30
0.0
 10
23.5920906275
 20
14.5487686389
 30
0.0
 10
23.5920951203
 20
14.5523321619
 30
0.0
  0
SPLINE
  5
3FB
100
AcDbEntity
  8
RACCORDO
100
AcDbSpline
 62
7
  6
CONTINUOUS
 70
0
 71
3
 72
9
 73
5
 74
0
 42
0.0000001
 43
0.0000001
 44
0.0000000001
 40
0.0
 40
0.0
 40
0.0
 40
0.0
 40
0.5995139092
 40
1.0
 40
1.0
 40
1.0
 40
1.0
 10
23.521910366
 20
13.2162159021
 30
0.0
 10
23.5391444788
 20
13.2217918739
 30
0.0
 10
23.5674226137
 20
13.2326845128
 30
0.0
 10
23.5893770897
 20
13.2578542694
 30
0.0
 10
23.5915429105
 20
13.2697591396
 30
0.0
  0
SPLINE
  5
3FC
100
AcDbEntity
  8
RACCORDO
100
AcDbSpline
 62
250
  6
CONTINUOUS
 70
0
 71
3
 72
10
 73
6
 74
0
 42
0.0000001
 43
0.0000001
 44
0.0000000001
 40
0.0
 40
0.0
 40
0.0
 40
0.0
 40
0.3627626056
 40
0.6492534189
 40
1.0
 40
1.0
 40
1.0
 40
1.0
 10
17.2574463569
 20
5.3352238496
 30
0.0
 10
17.277627161
 20
5.3406326071
 30
0.0
 10
17.3138605493
 20
5.3523031599
 30
0.0
 10
17.364390515
 20
5.3749685785
 30
0.0
 10
17.3977583646
 20
5.4049182626
 30
0.0
 10
17.3977543361
 20
5.4251192573
 30
0.0
  0
SPLINE
  5
3FD
100
AcDbEntity
  8
RACCORDO
100
AcDbSpline
 62
250
  6
CONTINUOUS
 70
0
 71
3
 72
11
 73
7
 74
0
 42
0.0000001
 43
0.0000001
 44
0.0000000001
 40
0.0
 40
0.0
 40
0.0
 40
0.0
 40
0.287814729
 40
0.5495833927
 40
0.7839050535
 40
1.0
 40
1.0
 40
1.0
 40
1.0
 10
17.9400852362
 20
6.4839599974
 30
0.0
 10
17.9406624406
 20
6.4381264543
 30
0.0
 10
17.9325226689
 20
6.3500532936
 30
0.0
 10
17.8896897304
 20
6.2310796591
 30
0.0
 10
17.8186290386
 20
6.1396928545
 30
0.0
 10
17.7537212684
 20
6.1035883328
 30
0.0
 10
17.7206888339
 20
6.0939312264
 30
0.0
  0
SPLINE
  5
3FE
100
AcDbEntity
  8
RACCORDO
100
AcDbSpline
 62
250
  6
CONTINUOUS
 70
0
 71
3
 72
11
 73
7
 74
0
 42
0.0000001
 43
0.0000001
 44
0.0000000001
 40
0.0
 40
0.0
 40
0.0
 40
0.0
 40
0.4553650427
 40
0.5896283569
 40
0.7271253703
 40
1.0
 40
1.0
 40
1.0
 40
1.0
 10
17.9400852363
 20
6.4839599974
 30
0.0
 10
17.7355561611
 20
6.424198066
 30
0.0
 10
17.5181392297
 20
6.2004393317
 30
0.0
 10
17.3677959086
 20
5.8977910396
 30
0.0
 10
17.2844192077
 20
5.6558231946
 30
0.0
 10
17.2574439948
 20
5.4629114615
 30
0.0
 10
17.2574463569
 20
5.3352238496
 30
0.0
  0
SPLINE
  5
3FF
100
AcDbEntity
  8
RACCORDO
100
AcDbSpline
 62
250
  6
CONTINUOUS
 70
0
 71
3
 72
9
 73
5
 74
0
 42
0.0000001
 43
0.0000001
 44
0.0000000001
 40
0.0
 40
0.0
 40
0.0
 40
0.0
 40
0.267637098
 40
1.0
 40
1.0
 40
1.0
 40
1.0
 10
21.6405233848
 20
-15.2054067264
 30
0.0
 10
21.6407601673
 20
-15.2986134356
 30
0.0
 10
21.6232761601
 20
-15.6460468111
 30
0.0
 10
21.5278819622
 20
-15.9942535542
 30
0.0
 10
21.4029756731
 20
-16.2166268934
 30
0.0
  0
SPLINE
  5
400
100
AcDbEntity
  8
RACCORDO
100
AcDbSpline
 62
250
  6
CONTINUOUS
 70
0
 71
3
 72
9
 73
5
 74
0
 42
0.0000001
 43
0.0000001
 44
0.0000000001
 40
0.0
 40
0.0
 40
0.0
 40
0.0
 40
0.2573043278
 40
1.0
 40
1.0
 40
1.0
 40
1.0
 10
21.4029756731
 20
-16.2166268934
 30
0.0
 10
21.3901931166
 20
-16.2393839521
 30
0.0
 10
21.3382394134
 20
-16.3265155548
 30
0.0
 10
21.2769695162
 20
-16.408211971
 30
0.0
 10
21.2263729091
 20
-16.4640340473
 30
0.0
  0
SPLINE
  5
401
100
AcDbEntity
  8
RACCORDO
100
AcDbSpline
 62
7
  6
CONTINUOUS
 70
0
 71
3
 72
9
 73
5
 74
0
 42
0.0000001
 43
0.0000001
 44
0.0000000001
 40
0.0
 40
0.0
 40
0.0
 40
0.0
 40
0.4947575925
 40
1.0
 40
1.0
 40
1.0
 40
1.0
 10
21.7997026357
 20
-8.7814818579
 30
0.0
 10
21.7712582078
 20
-8.7818497944
 30
0.0
 10
21.7128762478
 20
-8.7728783964
 30
0.0
 10
21.6627152441
 20
-8.7419119216
 30
0.0
 10
21.6405233848
 20
-8.7231661652
 30
0.0
  0
SPLINE
  5
402
100
AcDbEntity
  8
RACCORDO
100
AcDbSpline
 62
250
  6
CONTINUOUS
 70
0
 71
3
 72
12
 73
8
 74
0
 42
0.0000001
 43
0.0000001
 44
0.0000000001
 40
0.0
 40
0.0
 40
0.0
 40
0.0
 40
0.2615044101
 40
0.5189972939
 40
0.7698001516
 40
0.8892011021
 40
1.0
 40
1.0
 40
1.0
 40
1.0
 10
21.9214537634
 20
-7.5006731156
 30
0.0
 10
21.9645576912
 20
-7.6098435423
 30
0.0
 10
22.0235924466
 20
-7.8378635997
 30
0.0
 10
22.0359190701
 20
-8.1850752596
 30
0.0
 10
21.9867116041
 20
-8.4660800954
 30
0.0
 10
21.9019523985
 20
-8.665416152
 30
0.0
 10
21.8379916128
 20
-8.749787878
 30
0.0
 10
21.7996693359
 20
-8.781481633
 30
0.0
  0
SPLINE
  5
403
100
AcDbEntity
  8
RACCORDO
100
AcDbSpline
 62
7
  6
CONTINUOUS
 70
0
 71
3
 72
9
 73
5
 74
0
 42
0.0000001
 43
0.0000001
 44
0.0000000001
 40
0.0
 40
0.0
 40
0.0
 40
0.0
 40
0.2682381422
 40
1.0
 40
1.0
 40
1.0
 40
1.0
 10
21.6405233848
 20
-11.3082889312
 30
0.0
 10
21.6517642095
 20
-11.2926752995
 30
0.0
 10
21.6961965972
 20
-11.2364424308
 30
0.0
 10
21.7528993324
 20
-11.1890462719
 30
0.0
 10
21.7994457253
 20
-11.1647958448
 30
0.0
  0
SPLINE
  5
404
100
AcDbEntity
  8
RACCORDO
100
AcDbSpline
 62
250
  6
CONTINUOUS
 70
0
 71
3
 72
13
 73
9
 74
0
 42
0.0000001
 43
0.0000001
 44
0.0000000001
 40
0.0
 40
0.0
 40
0.0
 40
0.0
 40
0.1527020537
 40
0.2708899534
 40
0.3818984897
 40
0.4976659038
 40
0.7430456995
 40
1.0
 40
1.0
 40
1.0
 40
1.0
 10
21.6405233848
 20
-11.3080325794
 30
0.0
 10
21.6648519666
 20
-11.2933409456
 30
0.0
 10
21.7128192972
 20
-11.2716493772
 30
0.0
 10
21.7872914678
 20
-11.2833354756
 30
0.0
 10
21.8365955589
 20
-11.3278459111
 30
0.0
 10
21.8820199385
 20
-11.4036071812
 30
0.0
 10
21.9136517464
 20
-11.5159501759
 30
0.0
 10
21.9211812118
 20
-11.6094840804
 30
0.0
 10
21.9211839817
 20
-11.6573077067
 30
0.0
  0
SPLINE
  5
405
100
AcDbEntity
  8
RACCORDO
100
AcDbSpline
 62
250
  6
CONTINUOUS
 70
0
 71
3
 72
13
 73
9
 74
0
 42
0.0000001
 43
0.0000001
 44
0.0000000001
 40
0.0
 40
0.0
 40
0.0
 40
0.0
 40
0.1302573087
 40
0.2494720373
 40
0.3679899022
 40
0.4880536643
 40
0.7341741711
 40
1.0
 40
1.0
 40
1.0
 40
1.0
 10
21.7990552261
 20
-11.1650054499
 30
0.0
 10
21.8302786437
 20
-11.1665558236
 30
0.0
 10
21.8909179925
 20
-11.1831976595
 30
0.0
 10
21.9564287192
 20
-11.245756621
 30
0.0
 10
21.9989935196
 20
-11.3212863435
 30
0.0
 10
22.0312896119
 20
-11.4338928227
 30
0.0
 10
22.0292342948
 20
-11.5892386881
 30
0.0
 10
21.9831650086
 20
-11.7061887356
 30
0.0
 10
21.9507622172
 20
-11.7611460228
 30
0.0
  0
SPLINE
  5
406
100
AcDbEntity
  8
RACCORDO
100
AcDbSpline
 62
7
  6
CONTINUOUS
 70
0
 71
3
 72
9
 73
5
 74
0
 42
0.0000001
 43
0.0000001
 44
0.0000000001
 40
0.0
 40
0.0
 40
0.0
 40
0.0
 40
0.4947581838
 40
1.0
 40
1.0
 40
1.0
 40
1.0
 10
21.7997509629
 20
14.5939237768
 30
0.0
 10
21.771298607
 20
14.5935615144
 30
0.0
 10
21.7128984426
 20
14.6025105636
 30
0.0
 10
21.6627227044
 20
14.6334901884
 30
0.0
 10
21.6405233848
 20
14.6522394362
 30
0.0
  0
SPLINE
  5
407
100
AcDbEntity
  8
RACCORDO
100
AcDbSpline
 62
250
  6
CONTINUOUS
 70
0
 71
3
 72
12
 73
8
 74
0
 42
0.0000001
 43
0.0000001
 44
0.0000000001
 40
0.0
 40
0.0
 40
0.0
 40
0.0
 40
0.2615067519
 40
0.518997731
 40
0.7698001098
 40
0.8892001934
 40
1.0
 40
1.0
 40
1.0
 40
1.0
 10
21.9214075911
 20
15.8748500688
 30
0.0
 10
21.9645259
 20
15.7656714351
 30
0.0
 10
22.0235835602
 20
15.5376314207
 30
0.0
 10
22.0359244646
 20
15.1903857735
 30
0.0
 10
21.9867218776
 20
14.9093492365
 30
0.0
 10
21.9019523897
 20
14.7099978956
 30
0.0
 10
21.8379885516
 20
14.6256084755
 30
0.0
 10
21.7996511785
 20
14.593924451
 30
0.0
  0
SPLINE
  5
408
100
AcDbEntity
  8
RACCORDO
100
AcDbSpline
 62
7
  6
CONTINUOUS
 70
0
 71
3
 72
9
 73
5
 74
0
 42
0.0000001
 43
0.0000001
 44
0.0000000001
 40
0.0
 40
0.0
 40
0.0
 40
0.0
 40
0.2682384332
 40
1.0
 40
1.0
 40
1.0
 40
1.0
 10
21.6405233848
 20
12.067116065
 30
0.0
 10
21.6517642208
 20
12.0827297124
 30
0.0
 10
21.6961967673
 20
12.1389624435
 30
0.0
 10
21.7528993547
 20
12.1863587357
 30
0.0
 10
21.7994457253
 20
12.2106091514
 30
0.0
  0
SPLINE
  5
409
100
AcDbEntity
  8
RACCORDO
100
AcDbSpline
 62
250
  6
CONTINUOUS
 70
0
 71
3
 72
13
 73
9
 74
0
 42
0.0000001
 43
0.0000001
 44
0.0000000001
 40
0.0
 40
0.0
 40
0.0
 40
0.0
 40
0.1527020537
 40
0.2708899534
 40
0.3818984897
 40
0.4976659038
 40
0.7430456995
 40
1.0
 40
1.0
 40
1.0
 40
1.0
 10
21.6405233848
 20
12.0673724168
 30
0.0
 10
21.6648519666
 20
12.0820640506
 30
0.0
 10
21.7128192972
 20
12.103755619
 30
0.0
 10
21.7872914678
 20
12.0920695206
 30
0.0
 10
21.8365955589
 20
12.0475590851
 30
0.0
 10
21.8820199385
 20
11.971797815
 30
0.0
 10
21.9136517464
 20
11.8594548203
 30
0.0
 10
21.9211812118
 20
11.7659209158
 30
0.0
 10
21.9211839817
 20
11.7180972895
 30
0.0
  0
SPLINE
  5
40A
100
AcDbEntity
  8
RACCORDO
100
AcDbSpline
 62
250
  6
CONTINUOUS
 70
0
 71
3
 72
13
 73
9
 74
0
 42
0.0000001
 43
0.0000001
 44
0.0000000001
 40
0.0
 40
0.0
 40
0.0
 40
0.0
 40
0.1302573087
 40
0.2494720372
 40
0.3679899021
 40
0.4880536642
 40
0.7341741711
 40
1.0
 40
1.0
 40
1.0
 40
1.0
 10
21.7990552261
 20
12.2103995463
 30
0.0
 10
21.8302786438
 20
12.2088491747
 30
0.0
 10
21.8909179922
 20
12.1922073354
 30
0.0
 10
21.9564287194
 20
12.1296483756
 30
0.0
 10
21.9989935195
 20
12.0541186526
 30
0.0
 10
22.0312896119
 20
11.9415121736
 30
0.0
 10
22.0292342948
 20
11.7861663081
 30
0.0
 10
21.9831650086
 20
11.6692162606
 30
0.0
 10
21.9507622172
 20
11.6142589734
 30
0.0
  0
SPLINE
  5
40B
100
AcDbEntity
  8
RACCORDO
100
AcDbSpline
 62
250
  6
CONTINUOUS
 70
0
 71
3
 72
10
 73
6
 74
0
 42
0.0000001
 43
0.0000001
 44
0.0000000001
 40
0.0
 40
0.0
 40
0.0
 40
0.0
 40
0.5015521237
 40
0.7446000422
 40
1.0
 40
1.0
 40
1.0
 40
1.0
 10
21.6405233848
 20
-4.7044863541
 30
0.0
 10
21.6956089764
 20
-4.6868544949
 30
0.0
 10
21.7747464962
 20
-4.643660234
 30
0.0
 10
21.846030001
 20
-4.5512627767
 30
0.0
 10
21.8668296814
 20
-4.4967219649
 30
0.0
 10
21.873932596
 20
-4.4681387514
 30
0.0
  0
SPLINE
  5
40C
100
AcDbEntity
  8
RACCORDO
100
AcDbSpline
 62
250
  6
CONTINUOUS
 70
0
 71
3
 72
9
 73
5
 74
0
 42
0.0000001
 43
0.0000001
 44
0.0000000001
 40
0.0
 40
0.0
 40
0.0
 40
0.0
 40
0.2287661634
 40
1.0
 40
1.0
 40
1.0
 40
1.0
 10
21.873932596
 20
-4.4681387514
 30
0.0
 10
21.882207194
 20
-4.4348405052
 30
0.0
 10
21.8983414
 20
-4.2843573614
 30
0.0
 10
21.8484020214
 20
-4.1327592465
 30
0.0
 10
21.7914393081
 20
-4.0320855359
 30
0.0
  0
SPLINE
  5
40D
100
AcDbEntity
  8
RACCORDO
100
AcDbSpline
 62
250
  6
CONTINUOUS
 70
0
 71
3
 72
9
 73
5
 74
0
 42
0.0000001
 43
0.0000001
 44
0.0000000001
 40
0.0
 40
0.0
 40
0.0
 40
0.0
 40
0.2459735788
 40
1.0
 40
1.0
 40
1.0
 40
1.0
 10
21.171734321
 20
-3.5565908013
 30
0.0
 10
21.1527190466
 20
-3.5516680368
 30
0.0
 10
21.0741792232
 20
-3.5364999634
 30
0.0
 10
20.9921404281
 20
-3.541949491
 30
0.0
 10
20.9335242994
 20
-3.5557228148
 30
0.0
  0
SPLINE
  5
40E
100
AcDbEntity
  8
RACCORDO
100
AcDbSpline
 62
250
  6
CONTINUOUS
 70
0
 71
3
 72
9
 73
5
 74
0
 42
0.0000001
 43
0.0000001
 44
0.0000000001
 40
0.0
 40
0.0
 40
0.0
 40
0.0
 40
0.5346867141
 40
1.0
 40
1.0
 40
1.0
 40
1.0
 10
21.137546381
 20
20.1666801653
 30
0.0
 10
21.0764246324
 20
20.2671610865
 30
0.0
 10
20.9354750398
 20
20.4411827093
 30
0.0
 10
20.7367934748
 20
20.5536240967
 30
0.0
 10
20.6376225334
 20
20.5789400135
 30
0.0
  0
SPLINE
  5
40F
100
AcDbEntity
  8
RACCORDO
100
AcDbSpline
 62
250
  6
CONTINUOUS
 70
0
 71
3
 72
9
 73
5
 74
0
 42
0.0000001
 43
0.0000001
 44
0.0000000001
 40
0.0
 40
0.0
 40
0.0
 40
0.0
 40
0.2574201187
 40
1.0
 40
1.0
 40
1.0
 40
1.0
 10
7.5542165443
 20
23.9651746583
 30
0.0
 10
7.5343658776
 20
23.9703837538
 30
0.0
 10
7.4562317224
 20
23.9863942828
 30
0.0
 10
7.3740805427
 20
23.9838078393
 30
0.0
 10
7.3164023947
 20
23.970462089
 30
0.0
  0
SPLINE
  5
410
100
AcDbEntity
  8
RACCORDO
100
AcDbSpline
 62
250
  6
CONTINUOUS
 70
0
 71
3
 72
11
 73
7
 74
0
 42
0.0000001
 43
0.0000001
 44
0.0000000001
 40
0.0
 40
0.0
 40
0.0
 40
0.0
 40
0.3461550348
 40
0.6239482592
 40
0.8351493714
 40
1.0
 40
1.0
 40
1.0
 40
1.0
 10
21.137546381
 20
20.1666801653
 30
0.0
 10
21.1776544097
 20
20.1766356553
 30
0.0
 10
21.2509648838
 20
20.1912107052
 30
0.0
 10
21.3510194431
 20
20.1954683064
 30
0.0
 10
21.4289940234
 20
20.1803844213
 30
0.0
 10
21.4665636249
 20
20.1508898573
 30
0.0
 10
21.4768932868
 20
20.1341382438
 30
0.0
  0
SPLINE
  5
411
100
AcDbEntity
  8
RACCORDO
100
AcDbSpline
 62
250
  6
CONTINUOUS
 70
0
 71
3
 72
9
 73
5
 74
0
 42
0.0000001
 43
0.0000001
 44
0.0000000001
 40
0.0
 40
0.0
 40
0.0
 40
0.0
 40
0.2574033199
 40
1.0
 40
1.0
 40
1.0
 40
1.0
 10
20.6376225334
 20
20.5789400135
 30
0.0
 10
20.6576294414
 20
20.5836411364
 30
0.0
 10
20.7362661598
 20
20.597655612
 30
0.0
 10
20.8184465756
 20
20.5929299838
 30
0.0
 10
20.8758449156
 20
20.5780687565
 30
0.0
  0
SPLINE
  5
412
100
AcDbEntity
  8
RACCORDO
100
AcDbSpline
 62
250
  6
CONTINUOUS
 70
0
 71
3
 72
11
 73
7
 74
0
 42
0.0000001
 43
0.0000001
 44
0.0000000001
 40
0.0
 40
0.0
 40
0.0
 40
0.0
 40
0.3459350173
 40
0.6239849588
 40
0.8352106425
 40
1.0
 40
1.0
 40
1.0
 40
1.0
 10
21.2263729091
 20
20.0223508742
 30
0.0
 10
21.2664533696
 20
20.0322995215
 30
0.0
 10
21.3397698954
 20
20.0468449959
 30
0.0
 10
21.439817551
 20
20.0511476149
 30
0.0
 10
21.5178331753
 20
20.0360818697
 30
0.0
 10
21.5553653966
 20
20.006546805
 30
0.0
 10
21.5656792298
 20
19.9897952266
 30
0.0
  0
SPLINE
  5
413
100
AcDbEntity
  8
RACCORDO
100
AcDbSpline
 62
250
  6
CONTINUOUS
 70
0
 71
3
 72
9
 73
5
 74
0
 42
0.0000001
 43
0.0000001
 44
0.0000000001
 40
0.0
 40
0.0
 40
0.0
 40
0.0
 40
0.7525073581
 40
1.0
 40
1.0
 40
1.0
 40
1.0
 10
21.6405233848
 20
18.5493434921
 30
0.0
 10
21.6415051674
 20
18.9358681154
 30
0.0
 10
21.5305045209
 20
19.4578560062
 30
0.0
 10
21.2932777108
 20
19.9142562433
 30
0.0
 10
21.2263729091
 20
20.0223508742
 30
0.0
  0
SPLINE
  5
414
100
AcDbEntity
  8
RACCORDO
100
AcDbSpline
 62
250
  6
CONTINUOUS
 70
0
 71
3
 72
11
 73
7
 74
0
 42
0.0000001
 43
0.0000001
 44
0.0000000001
 40
0.0
 40
0.0
 40
0.0
 40
0.0
 40
0.3626186722
 40
0.5159230665
 40
0.6493296828
 40
1.0
 40
1.0
 40
1.0
 40
1.0
 10
21.6405233848
 20
18.5493434921
 30
0.0
 10
21.6808778249
 20
18.5601590856
 30
0.0
 10
21.7375985561
 20
18.5777895895
 30
0.0
 10
21.8066778818
 20
18.6081181465
 30
0.0
 10
21.8694597599
 20
18.6422431025
 30
0.0
 10
21.9211238163
 20
18.6886929196
 30
0.0
 10
21.9211393395
 20
18.7290949788
 30
0.0
  0
SPLINE
  5
415
100
AcDbEntity
  8
CURVE
100
AcDbSpline
 62
250
  6
CONTINUOUS
 70
0
 71
3
 72
23
 73
19
 74
0
 42
0.0000001
 43
0.0000001
 44
0.0000000001
 40
0.0
 40
0.0
 40
0.0
 40
0.0
 40
0.125
 40
0.25
 40
0.3125
 40
0.375
 40
0.4375
 40
0.46875
 40
0.484375
 40
0.5
 40
0.515625
 40
0.53125
 40
0.5625
 40
0.625
 40
0.6875
 40
0.75
 40
0.875
 40
1.0
 40
1.0
 40
1.0
 40
1.0
 10
-6.3142862922
 20
-3.3166566862
 30
0.0
 10
-6.314466751
 20
-3.4571913215
 30
0.0
 10
-6.3148275905
 20
-3.7382607346
 30
0.0
 10
-6.3152790304
 20
-4.0895967877
 30
0.0
 10
-6.3156393622
 20
-4.3706671281
 30
0.0
 10
-6.3159118372
 20
-4.5814658179
 30
0.0
 10
-6.3161318208
 20
-4.75714432
 30
0.0
 10
-6.3162997011
 20
-4.8800939029
 30
0.0
 10
-6.3163739419
 20
-4.9503904182
 30
0.0
 10
-6.3164907258
 20
-5.0030012206
 30
0.0
 10
-6.3163739419
 20
-5.0560385538
 30
0.0
 10
-6.3162997011
 20
-5.1266062194
 30
0.0
 10
-6.3161318208
 20
-5.250168953
 30
0.0
 10
-6.3159118372
 20
-5.4266509031
 30
0.0
 10
-6.3156393622
 20
-5.6384447559
 30
0.0
 10
-6.3152790305
 20
-5.9208311391
 30
0.0
 10
-6.3148275906
 20
-6.2738159903
 30
0.0
 10
-6.3144667511
 20
-6.5562033007
 30
0.0
 10
-6.3142862923
 20
-6.6973970272
 30
0.0
  0
SPLINE
  5
416
100
AcDbEntity
  8
CURVE
100
AcDbSpline
 62
250
  6
CONTINUOUS
 70
0
 71
3
 72
38
 73
34
 74
0
 42
0.0000001
 43
0.0000001
 44
0.0000000001
 40
0.0
 40
0.0
 40
0.0
 40
0.0
 40
0.0322580645
 40
0.064516129
 40
0.0967741935
 40
0.1290322581
 40
0.1612903226
 40
0.1935483871
 40
0.2258064516
 40
0.2580645161
 40
0.2903225806
 40
0.3225806452
 40
0.3548387097
 40
0.3870967742
 40
0.4193548387
 40
0.4516129032
 40
0.4838709677
 40
0.5161290323
 40
0.5483870968
 40
0.5806451613
 40
0.6129032258
 40
0.6451612903
 40
0.6774193548
 40
0.7096774194
 40
0.7419354839
 40
0.7741935484
 40
0.8064516129
 40
0.8387096774
 40
0.8709677419
 40
0.9032258065
 40
0.935483871
 40
0.9677419355
 40
1.0
 40
1.0
 40
1.0
 40
1.0
 10
-12.6678753928
 20
9.2064151488
 30
0.0
 10
-12.6223884426
 20
9.1946422598
 30
0.0
 10
-12.5320524128
 20
9.1649360073
 30
0.0
 10
-12.3976014203
 20
9.1016306392
 30
0.0
 10
-12.2667732449
 20
9.0207494267
 30
0.0
 10
-12.1398877587
 20
8.9224831147
 30
0.0
 10
-12.0193207684
 20
8.8087005754
 30
0.0
 10
-11.9051765716
 20
8.6794909892
 30
0.0
 10
-11.7997069441
 20
8.5374013458
 30
0.0
 10
-11.7030242383
 20
8.3826324158
 30
0.0
 10
-11.6168802113
 20
8.2179193064
 30
0.0
 10
-11.5416289897
 20
8.0440767096
 30
0.0
 10
-11.4783059921
 20
7.8633330935
 30
0.0
 10
-11.4275191948
 20
7.6776652173
 30
0.0
 10
-11.3896658776
 20
7.4882965203
 30
0.0
 10
-11.3653126594
 20
7.2983595345
 30
0.0
 10
-11.3545430267
 20
7.1082417894
 30
0.0
 10
-11.3575473509
 20
6.9216793882
 30
0.0
 10
-11.3743246331
 20
6.7387462097
 30
0.0
 10
-11.4045637244
 20
6.5630543681
 30
0.0
 10
-11.4481726325
 20
6.3949245734
 30
0.0
 10
-11.5044832635
 20
6.2371830282
 30
0.0
 10
-11.5730700549
 20
6.0908086738
 30
0.0
 10
-11.6532604417
 20
5.9574552312
 30
0.0
 10
-11.7439612949
 20
5.8387771848
 30
0.0
 10
-11.844798738
 20
5.7353913252
 30
0.0
 10
-11.9539391018
 20
5.6491017219
 30
0.0
 10
-12.0712843644
 20
5.5800301762
 30
0.0
 10
-12.194493374
 20
5.5295453177
 30
0.0
 10
-12.3234937056
 20
5.4976638635
 30
0.0
 10
-12.4558322439
 20
5.4850171475
 30
0.0
 10
-12.5912157378
 20
5.4916201432
 30
0.0
 10
-12.6817742708
 20
5.5087477583
 30
0.0
 10
-12.7272731564
 20
5.5205237365
 30
0.0
  0
SPLINE
  5
417
100
AcDbEntity
  8
CURVE
100
AcDbSpline
 62
250
  6
CONTINUOUS
 70
0
 71
3
 72
38
 73
34
 74
0
 42
0.0000001
 43
0.0000001
 44
0.0000000001
 40
0.0
 40
0.0
 40
0.0
 40
0.0
 40
0.0322580645
 40
0.064516129
 40
0.0967741935
 40
0.1290322581
 40
0.1612903226
 40
0.1935483871
 40
0.2258064516
 40
0.2580645161
 40
0.2903225806
 40
0.3225806452
 40
0.3548387097
 40
0.3870967742
 40
0.4193548387
 40
0.4516129032
 40
0.4838709677
 40
0.5161290323
 40
0.5483870968
 40
0.5806451613
 40
0.6129032258
 40
0.6451612903
 40
0.6774193548
 40
0.7096774194
 40
0.7419354839
 40
0.7741935484
 40
0.8064516129
 40
0.8387096774
 40
0.8709677419
 40
0.9032258065
 40
0.935483871
 40
0.9677419355
 40
1.0
 40
1.0
 40
1.0
 40
1.0
 10
-12.7272731564
 20
5.5205237365
 30
0.0
 10
-12.7727658276
 20
5.5322981062
 30
0.0
 10
-12.8631476067
 20
5.561999679
 30
0.0
 10
-12.9977690033
 20
5.6252749342
 30
0.0
 10
-13.1288611273
 20
5.7061039652
 30
0.0
 10
-13.2560941578
 20
5.8042962236
 30
0.0
 10
-13.3770754377
 20
5.9179856014
 30
0.0
 10
-13.4916873753
 20
6.047084458
 30
0.0
 10
-13.5976553803
 20
6.1890504484
 30
0.0
 10
-13.694852195
 20
6.3436871173
 30
0.0
 10
-13.7815013795
 20
6.5082645497
 30
0.0
 10
-13.8572326283
 20
6.681975199
 30
0.0
 10
-13.9209891935
 20
6.8625954131
 30
0.0
 10
-13.9721464816
 20
7.0481564935
 30
0.0
 10
-14.0102925455
 20
7.2374388332
 30
0.0
 10
-14.0348472807
 20
7.4273159296
 30
0.0
 10
-14.0457195516
 20
7.6174024836
 30
0.0
 10
-14.0427132226
 20
7.8039643601
 30
0.0
 10
-14.0258284404
 20
7.9869274635
 30
0.0
 10
-13.9953808585
 20
8.1626773818
 30
0.0
 10
-13.9514688454
 20
8.33089085
 30
0.0
 10
-13.8947744411
 20
8.4887357469
 30
0.0
 10
-13.8257374554
 20
8.6352292054
 30
0.0
 10
-13.745049995
 20
8.7687101773
 30
0.0
 10
-13.6538268169
 20
8.8875194654
 30
0.0
 10
-13.552462089
 20
8.9910341781
 30
0.0
 10
-13.4428150739
 20
9.0774452938
 30
0.0
 10
-13.3250013015
 20
9.146627383
 30
0.0
 10
-13.2013860415
 20
9.1972074728
 30
0.0
 10
-13.072054329
 20
9.2291671823
 30
0.0
 10
-12.9394760698
 20
9.2418723438
 30
0.0
 10
-12.8039511976
 20
9.2353069823
 30
0.0
 10
-12.7133685377
 20
9.2181896412
 30
0.0
 10
-12.6678753928
 20
9.2064151488
 30
0.0
  0
SPLINE
  5
418
100
AcDbEntity
  8
RACCORDO
100
AcDbSpline
 62
7
  6
CONTINUOUS
 70
0
 71
3
 72
8
 73
4
 74
0
 42
0.0000001
 43
0.0000001
 44
0.0000000001
 40
0.0
 40
0.0
 40
0.0
 40
0.0
 40
1.0
 40
1.0
 40
1.0
 40
1.0
 10
2.0610617092
 20
19.5713531312
 30
0.0
 10
2.0617589608
 20
19.5720888236
 30
0.0
 10
2.0621878604
 20
19.5731641623
 30
0.0
 10
2.0621877806
 20
19.5741777712
 30
0.0
  0
SPLINE
  5
419
100
AcDbEntity
  8
ASSI
100
AcDbSpline
 62
7
  6
CONTINUOUS
 70
0
 71
3
 72
9
 73
5
 74
0
 42
0.0000001
 43
0.0000001
 44
0.0000000001
 40
0.0
 40
0.0
 40
0.0
 40
0.0
 40
0.2465457269
 40
1.0
 40
1.0
 40
1.0
 40
1.0
 10
1.7601430633
 20
22.0926744868
 30
0.0
 10
1.7560817707
 20
22.0924309919
 30
0.0
 10
1.7396344253
 20
22.0910453465
 30
0.0
 10
1.7233270836
 20
22.0880796016
 30
0.0
 10
1.7112670318
 20
22.0850540754
 30
0.0
  0
SPLINE
  5
41A
100
AcDbEntity
  8
ASSI
100
AcDbSpline
 62
7
  6
CONTINUOUS
 70
0
 71
3
 72
9
 73
5
 74
0
 42
0.0000001
 43
0.0000001
 44
0.0000000001
 40
0.0
 40
0.0
 40
0.0
 40
0.0
 40
0.2337768011
 40
1.0
 40
1.0
 40
1.0
 40
1.0
 10
1.7601430633
 20
22.0926744868
 30
0.0
 10
1.7667050042
 20
22.0930679081
 30
0.0
 10
1.794858525
 20
22.0933557237
 30
0.0
 10
1.8229082213
 20
22.0886155108
 30
0.0
 10
1.843766753
 20
22.0832165301
 30
0.0
  0
SPLINE
  5
41B
100
AcDbEntity
  8
ASSI
100
AcDbSpline
 62
7
  6
CONTINUOUS
 70
0
 71
3
 72
9
 73
5
 74
0
 42
0.0000001
 43
0.0000001
 44
0.0000000001
 40
0.0
 40
0.0
 40
0.0
 40
0.0
 40
0.2341956701
 40
1.0
 40
1.0
 40
1.0
 40
1.0
 10
-3.7930796799
 20
23.5305093329
 30
0.0
 10
-3.7866398471
 20
23.5308385651
 30
0.0
 10
-3.7590742247
 20
23.5309226972
 30
0.0
 10
-3.7316343699
 20
23.526236634
 30
0.0
 10
-3.711221678
 20
23.5209533519
 30
0.0
  0
SPLINE
  5
41C
100
AcDbEntity
  8
ASSI
100
AcDbSpline
 62
7
  6
CONTINUOUS
 70
0
 71
3
 72
11
 73
7
 74
0
 42
0.0000001
 43
0.0000001
 44
0.0000000001
 40
0.0
 40
0.0
 40
0.0
 40
0.0
 40
0.243858378
 40
0.4730888631
 40
0.7143030318
 40
1.0
 40
1.0
 40
1.0
 40
1.0
 10
-3.0642547449
 20
23.2939946318
 30
0.0
 10
-3.0642552589
 20
23.3024965348
 30
0.0
 10
-3.0660921721
 20
23.3191414941
 30
0.0
 10
-3.0770955549
 20
23.3421378332
 30
0.0
 10
-3.0974102242
 20
23.3599591142
 30
0.0
 10
-3.1148883666
 20
23.3666106172
 30
0.0
 10
-3.1245311236
 20
23.3691066437
 30
0.0
  0
SPLINE
  5
41D
100
AcDbEntity
  8
ASSI
100
AcDbSpline
 62
7
  6
CONTINUOUS
 70
0
 71
3
 72
11
 73
7
 74
0
 42
0.0000001
 43
0.0000001
 44
0.0000000001
 40
0.0
 40
0.0
 40
0.0
 40
0.0
 40
0.2438587369
 40
0.4730896027
 40
0.7143039909
 40
1.0
 40
1.0
 40
1.0
 40
1.0
 10
2.4907336456
 20
21.8562578179
 30
0.0
 10
2.4907331747
 20
21.8647597323
 30
0.0
 10
2.4888961829
 20
21.8814047047
 30
0.0
 10
2.4778928471
 20
21.9044011147
 30
0.0
 10
2.4575781288
 20
21.922222254
 30
0.0
 10
2.4401001032
 20
21.9288740634
 30
0.0
 10
2.4304573221
 20
21.9313698581
 30
0.0
  0
SPLINE
  5
41E
100
AcDbEntity
  8
RACCORDO
100
AcDbSpline
 62
7
  6
CONTINUOUS
 70
0
 71
3
 72
9
 73
5
 74
0
 42
0.0000001
 43
0.0000001
 44
0.0000000001
 40
0.0
 40
0.0
 40
0.0
 40
0.0
 40
0.4492765554
 40
1.0
 40
1.0
 40
1.0
 40
1.0
 10
-9.6733499412
 20
22.0297693864
 30
0.0
 10
-9.6751494389
 20
22.0263816842
 30
0.0
 10
-9.6776034623
 20
22.0180441357
 30
0.0
 10
-9.6781720511
 20
22.0094936475
 30
0.0
 10
-9.6781719062
 20
22.004791505
 30
0.0
  0
SPLINE
  5
41F
100
AcDbEntity
  8
RACCORDO
100
AcDbSpline
 62
7
  6
CONTINUOUS
 70
0
 71
3
 72
13
 73
9
 74
0
 42
0.0000001
 43
0.0000001
 44
0.0000000001
 40
0.0
 40
0.0
 40
0.0
 40
0.0
 40
0.2886868273
 40
0.5506031765
 40
0.6709499638
 40
0.7848059381
 40
0.893737896
 40
1.0
 40
1.0
 40
1.0
 40
1.0
 10
-0.4121101904
 20
21.5542581883
 30
0.0
 10
-0.4121101904
 20
21.6479146311
 30
0.0
 10
-0.4308944855
 20
21.8273084003
 30
0.0
 10
-0.5084596642
 20
22.0342327132
 30
0.0
 10
-0.6003938756
 20
22.1672541248
 30
0.0
 10
-0.6796809452
 20
22.2463866903
 30
0.0
 10
-0.7694353465
 20
22.3055518373
 30
0.0
 10
-0.8352799419
 20
22.3307084804
 30
0.0
 10
-0.868654178
 20
22.3393457801
 30
0.0
  0
SPLINE
  5
420
100
AcDbEntity
  8
RACCORDO
100
AcDbSpline
 62
7
  6
CONTINUOUS
 70
0
 71
3
 72
9
 73
5
 74
0
 42
0.0000001
 43
0.0000001
 44
0.0000000001
 40
0.0
 40
0.0
 40
0.0
 40
0.0
 40
0.508347765
 40
1.0
 40
1.0
 40
1.0
 40
1.0
 10
3.129594308
 20
21.2406553887
 30
0.0
 10
3.1701136708
 20
21.2506595352
 30
0.0
 10
3.2523856776
 20
21.2615261587
 30
0.0
 10
3.3349086148
 20
21.2513829832
 30
0.0
 10
3.3739865091
 20
21.2412695687
 30
0.0
  0
SPLINE
  5
421
100
AcDbEntity
  8
RACCORDO
100
AcDbSpline
 62
250
  6
CONTINUOUS
 70
0
 71
3
 72
11
 73
7
 74
0
 42
0.0000001
 43
0.0000001
 44
0.0000000001
 40
0.0
 40
0.0
 40
0.0
 40
0.0
 40
0.3494761229
 40
0.4829325248
 40
0.6362261135
 40
1.0
 40
1.0
 40
1.0
 40
1.0
 10
-11.3021303586
 20
23.51874605
 30
0.0
 10
-11.3021323311
 20
23.5084383353
 30
0.0
 10
-11.3155130833
 20
23.4966823903
 30
0.0
 10
-11.3316002946
 20
23.4880783915
 30
0.0
 10
-11.3493680303
 20
23.4804063286
 30
0.0
 10
-11.3639487223
 20
23.4759804855
 30
0.0
 10
-11.3743282129
 20
23.4732626346
 30
0.0
  0
SPLINE
  5
422
100
AcDbEntity
  8
RACCORDO
100
AcDbSpline
 62
250
  6
CONTINUOUS
 70
0
 71
3
 72
9
 73
5
 74
0
 42
0.0000001
 43
0.0000001
 44
0.0000000001
 40
0.0
 40
0.0
 40
0.0
 40
0.0
 40
0.491517238
 40
1.0
 40
1.0
 40
1.0
 40
1.0
 10
-11.4894897572
 20
23.7607735444
 30
0.0
 10
-11.4993398186
 20
23.7633234768
 30
0.0
 10
-11.5201541173
 20
23.7658582531
 30
0.0
 10
-11.5408923284
 20
23.7630537029
 30
0.0
 10
-11.5511019166
 20
23.7604924057
 30
0.0
  0
SPLINE
  5
423
100
AcDbEntity
  8
RACCORDO
100
AcDbSpline
 62
250
  6
CONTINUOUS
 70
0
 71
3
 72
11
 73
7
 74
0
 42
0.0000001
 43
0.0000001
 44
0.0000000001
 40
0.0
 40
0.0
 40
0.0
 40
0.0
 40
0.2138435513
 40
0.4474091465
 40
0.7101649628
 40
1.0
 40
1.0
 40
1.0
 40
1.0
 10
-0.2551437883
 20
-27.5608211665
 30
0.0
 10
-0.2382614693
 20
-27.5566346444
 30
0.0
 10
-0.2046770082
 20
-27.5393417039
 30
0.0
 10
-0.1675615235
 20
-27.4934712746
 30
0.0
 10
-0.1445949884
 20
-27.4329131012
 30
0.0
 10
-0.1396588837
 20
-27.387760885
 30
0.0
 10
-0.1395580111
 20
-27.3641864165
 30
0.0
  0
SPLINE
  5
424
100
AcDbEntity
  8
ASSI
100
AcDbSpline
 62
7
  6
CONTINUOUS
 70
0
 71
3
 72
9
 73
5
 74
0
 42
0.0000001
 43
0.0000001
 44
0.0000000001
 40
0.0
 40
0.0
 40
0.0
 40
0.0
 40
0.2465457269
 40
1.0
 40
1.0
 40
1.0
 40
1.0
 10
-3.189604405
 20
23.3737634
 30
0.0
 10
-3.1936656976
 20
23.3735199051
 30
0.0
 10
-3.210113043
 20
23.3721342598
 30
0.0
 10
-3.2264203848
 20
23.3691685148
 30
0.0
 10
-3.2384804365
 20
23.3661429887
 30
0.0
  0
SPLINE
  5
425
100
AcDbEntity
  8
RACCORDO
100
AcDbSpline
 62
250
  6
CONTINUOUS
 70
0
 71
3
 72
11
 73
7
 74
0
 42
0.0000001
 43
0.0000001
 44
0.0000000001
 40
0.0
 40
0.0
 40
0.0
 40
0.0
 40
0.3494732485
 40
0.4829297823
 40
0.636223966
 40
1.0
 40
1.0
 40
1.0
 40
1.0
 10
-11.3021303581
 20
23.1311258688
 30
0.0
 10
-11.3021317814
 20
23.120818154
 30
0.0
 10
-11.3155125196
 20
23.1090616921
 30
0.0
 10
-11.3315997459
 20
23.100457617
 30
0.0
 10
-11.349367689
 20
23.0927853885
 30
0.0
 10
-11.3639485757
 20
23.0883594841
 30
0.0
 10
-11.3743282129
 20
23.0856415948
 30
0.0
  0
SPLINE
  5
426
100
AcDbEntity
  8
RACCORDO
100
AcDbSpline
 62
250
  6
CONTINUOUS
 70
0
 71
3
 72
11
 73
7
 74
0
 42
0.0000001
 43
0.0000001
 44
0.0000000001
 40
0.0
 40
0.0
 40
0.0
 40
0.0
 40
0.2076380915
 40
0.4356872297
 40
0.6978398599
 40
1.0
 40
1.0
 40
1.0
 40
1.0
 10
-1.8217419184
 20
-26.4240732229
 30
0.0
 10
-1.8170598902
 20
-26.4191327824
 30
0.0
 10
-1.8051103718
 20
-26.4106394395
 30
0.0
 10
-1.782758916
 20
-26.4043949212
 30
0.0
 10
-1.7565778318
 20
-26.4040440628
 30
0.0
 10
-1.7382785017
 20
-26.4073616884
 30
0.0
 10
-1.7286763029
 20
-26.4097924262
 30
0.0
  0
SPLINE
  5
427
100
AcDbEntity
  8
RACCORDO
100
AcDbSpline
 62
250
  6
CONTINUOUS
 70
0
 71
3
 72
9
 73
5
 74
0
 42
0.0000001
 43
0.0000001
 44
0.0000000001
 40
0.0
 40
0.0
 40
0.0
 40
0.0
 40
0.491517238
 40
1.0
 40
1.0
 40
1.0
 40
1.0
 10
-12.8268159178
 20
24.1068990242
 30
0.0
 10
-12.8366659792
 20
24.1094489566
 30
0.0
 10
-12.8574802778
 20
24.111983733
 30
0.0
 10
-12.8782184889
 20
24.1091791828
 30
0.0
 10
-12.8884280772
 20
24.1066178856
 30
0.0
  0
SPLINE
  5
428
100
AcDbEntity
  8
RACCORDO
100
AcDbSpline
 62
7
  6
CONTINUOUS
 70
0
 71
3
 72
9
 73
5
 74
0
 42
0.0000001
 43
0.0000001
 44
0.0000000001
 40
0.0
 40
0.0
 40
0.0
 40
0.0
 40
0.491652235
 40
1.0
 40
1.0
 40
1.0
 40
1.0
 10
-0.868654178
 20
22.3393457801
 30
0.0
 10
-0.9077320723
 20
22.3494591945
 30
0.0
 10
-0.9902550095
 20
22.3596023701
 30
0.0
 10
-1.0725270164
 20
22.3487357465
 30
0.0
 10
-1.1130463792
 20
22.3387316
 30
0.0
  0
SPLINE
  5
429
100
AcDbEntity
  8
RACCORDO
100
AcDbSpline
 62
7
  6
CONTINUOUS
 70
0
 71
3
 72
9
 73
5
 74
0
 42
0.0000001
 43
0.0000001
 44
0.0000000001
 40
0.0
 40
0.0
 40
0.0
 40
0.0
 40
0.1990097995
 40
1.0
 40
1.0
 40
1.0
 40
1.0
 10
2.0621877806
 20
19.5741777712
 30
0.0
 10
2.0621877437
 20
19.5746469601
 30
0.0
 10
2.0618254639
 20
19.5770048034
 30
0.0
 10
2.0604462646
 20
19.5790537146
 30
0.0
 10
2.0592887387
 20
19.5805457917
 30
0.0
  0
LINE
  5
42A
100
AcDbEntity
  8
RACCORDO
100
AcDbLine
 62
7
  6
CONTINUOUS
 10
2.0592887387
 20
19.5805457917
 11
2.0572681266
 21
19.5829075831
  0
SPLINE
  5
42B
100
AcDbEntity
  8
RACCORDO
100
AcDbSpline
 62
7
  6
CONTINUOUS
 70
0
 71
3
 72
10
 73
6
 74
0
 42
0.0000001
 43
0.0000001
 44
0.0000000001
 40
0.0
 40
0.0
 40
0.0
 40
0.0
 40
0.1647996228
 40
0.3894141171
 40
1.0
 40
1.0
 40
1.0
 40
1.0
 10
2.0572681266
 20
19.5829075831
 30
0.0
 10
2.0542583839
 20
19.5861473052
 30
0.0
 10
2.0461930361
 20
19.5928804479
 30
0.0
 10
2.0240769529
 20
19.6080696718
 30
0.0
 10
2.0044573903
 20
19.6190126307
 30
0.0
 10
1.9899899515
 20
19.626701529
 30
0.0
  0
SPLINE
  5
42C
100
AcDbEntity
  8
RACCORDO
100
AcDbSpline
 62
250
  6
CONTINUOUS
 70
0
 71
3
 72
9
 73
5
 74
0
 42
0.0000001
 43
0.0000001
 44
0.0000000001
 40
0.0
 40
0.0
 40
0.0
 40
0.0
 40
0.4915172668
 40
1.0
 40
1.0
 40
1.0
 40
1.0
 10
1.8748270611
 20
20.3018338274
 30
0.0
 10
1.8649771878
 20
20.3043835872
 30
0.0
 10
1.8441633411
 20
20.3069181175
 30
0.0
 10
1.8234256088
 20
20.3041135801
 30
0.0
 10
1.8132162478
 20
20.3015523399
 30
0.0
  0
SPLINE
  5
42D
100
AcDbEntity
  8
RACCORDO
100
AcDbSpline
 62
250
  6
CONTINUOUS
 70
0
 71
3
 72
11
 73
7
 74
0
 42
0.0000001
 43
0.0000001
 44
0.0000000001
 40
0.0
 40
0.0
 40
0.0
 40
0.0
 40
0.3494661594
 40
0.4829225497
 40
0.6362177819
 40
1.0
 40
1.0
 40
1.0
 40
1.0
 10
2.0621878064
 20
20.0598087903
 30
0.0
 10
2.0621875775
 20
20.0495010921
 30
0.0
 10
2.0488069691
 20
20.0377434776
 30
0.0
 10
2.0327197395
 20
20.0291392289
 30
0.0
 10
2.014951319
 20
20.0214666047
 30
0.0
 10
2.0003699589
 20
20.0170405551
 30
0.0
 10
1.9899899515
 20
20.0143225688
 30
0.0
  0
SPLINE
  5
42E
100
AcDbEntity
  8
RACCORDO
100
AcDbSpline
 62
250
  6
CONTINUOUS
 70
0
 71
3
 72
9
 73
5
 74
0
 42
0.0000001
 43
0.0000001
 44
0.0000000001
 40
0.0
 40
0.0
 40
0.0
 40
0.0
 40
0.4915181127
 40
1.0
 40
1.0
 40
1.0
 40
1.0
 10
0.5375022465
 20
20.647958958
 30
0.0
 10
0.5276521667
 20
20.6505088911
 30
0.0
 10
0.5068378679
 20
20.6530436648
 30
0.0
 10
0.4860996578
 20
20.6502391126
 30
0.0
 10
0.4758900873
 20
20.6476778198
 30
0.0
  0
SPLINE
  5
42F
100
AcDbEntity
  8
RACCORDO
100
AcDbSpline
 62
7
  6
CONTINUOUS
 70
0
 71
3
 72
9
 73
5
 74
0
 42
0.0000001
 43
0.0000001
 44
0.0000000001
 40
0.0
 40
0.0
 40
0.0
 40
0.0
 40
0.239711949
 40
1.0
 40
1.0
 40
1.0
 40
1.0
 10
-1.141165912
 20
18.9193122062
 30
0.0
 10
-1.1390779759
 20
18.9182026642
 30
0.0
 10
-1.130214908
 20
18.9138635411
 30
0.0
 10
-1.1208174663
 20
18.9106512968
 30
0.0
 10
-1.1135574679
 20
18.9087722709
 30
0.0
  0
SPLINE
  5
430
100
AcDbEntity
  8
RACCORDO
100
AcDbSpline
 62
250
  6
CONTINUOUS
 70
0
 71
3
 72
13
 73
9
 74
0
 42
0.0000001
 43
0.0000001
 44
0.0000000001
 40
0.0
 40
0.0
 40
0.0
 40
0.0
 40
0.076505203
 40
0.1604196739
 40
0.2572397878
 40
0.3702118934
 40
0.6494166721
 40
1.0
 40
1.0
 40
1.0
 40
1.0
 10
-20.0463226779
 20
-21.1025743401
 30
0.0
 10
-20.0461822061
 20
-21.1072812817
 30
0.0
 10
-20.0441164721
 20
-21.1171582475
 30
0.0
 10
-20.0361407748
 20
-21.1310555511
 30
0.0
 10
-20.023636223
 20
-21.1442813141
 30
0.0
 10
-19.9994034549
 20
-21.1623121028
 30
0.0
 10
-19.9577781918
 20
-21.1820511568
 30
0.0
 10
-19.9206857502
 20
-21.1935250276
 30
0.0
 10
-19.8997999545
 20
-21.1989508125
 30
0.0
  0
SPLINE
  5
431
100
AcDbEntity
  8
RACCORDO
100
AcDbSpline
 62
250
  6
CONTINUOUS
 70
0
 71
3
 72
14
 73
10
 74
0
 42
0.0000001
 43
0.0000001
 44
0.0000000001
 40
0.0
 40
0.0
 40
0.0
 40
0.0
 40
0.065307177
 40
0.1407347174
 40
0.2328305324
 40
0.3447814665
 40
0.4777653392
 40
0.6318175542
 40
1.0
 40
1.0
 40
1.0
 40
1.0
 10
-20.0463296
 20
18.6109332394
 30
0.0
 10
-20.0464431031
 20
18.6070558966
 30
0.0
 10
-20.044717108
 20
18.5985863547
 30
0.0
 10
-20.0370326411
 20
18.5868407362
 30
0.0
 10
-20.024776988
 20
18.5754922212
 30
0.0
 10
-20.0080210849
 20
18.5644303108
 30
0.0
 10
-19.9868635583
 20
18.5536748878
 30
0.0
 10
-19.9507941102
 20
18.5389798669
 30
0.0
 10
-19.9209760072
 20
18.5301473508
 30
0.0
 10
-19.8997998382
 20
18.5246876254
 30
0.0
  0
SPLINE
  5
432
100
AcDbEntity
  8
RACCORDO
100
AcDbSpline
 62
250
  6
CONTINUOUS
 70
0
 71
3
 72
9
 73
5
 74
0
 42
0.0000001
 43
0.0000001
 44
0.0000000001
 40
0.0
 40
0.0
 40
0.0
 40
0.0
 40
0.4887162718
 40
1.0
 40
1.0
 40
1.0
 40
1.0
 10
-19.0500537632
 20
20.1706970651
 30
0.0
 10
-19.0277905695
 20
20.1782851216
 30
0.0
 10
-18.9795628526
 20
20.186768016
 30
0.0
 10
-18.9311132473
 20
20.1808891192
 30
0.0
 10
-18.9072339447
 20
20.1749494368
 30
0.0
  0
SPLINE
  5
433
100
AcDbEntity
  8
RACCORDO
100
AcDbSpline
 62
250
  6
CONTINUOUS
 70
0
 71
3
 72
13
 73
9
 74
0
 42
0.0000001
 43
0.0000001
 44
0.0000000001
 40
0.0
 40
0.0
 40
0.0
 40
0.0
 40
0.1062029583
 40
0.2152132054
 40
0.3291534108
 40
0.4495088293
 40
0.7112595435
 40
1.0
 40
1.0
 40
1.0
 40
1.0
 10
-19.2351955761
 20
-22.3121257433
 30
0.0
 10
-19.2823605308
 20
-22.2990491068
 30
0.0
 10
-19.3753468995
 20
-22.2620630739
 30
0.0
 10
-19.5023531218
 20
-22.1773306885
 30
0.0
 10
-19.6152263179
 20
-22.065154167
 30
0.0
 10
-19.7474194948
 20
-21.8774397528
 30
0.0
 10
-19.862568677
 20
-21.5857945272
 30
0.0
 10
-19.8958065663
 20
-21.3319583649
 30
0.0
 10
-19.8997999547
 20
-21.1989508126
 30
0.0
  0
SPLINE
  5
434
100
AcDbEntity
  8
RACCORDO
100
AcDbSpline
 62
250
  6
CONTINUOUS
 70
0
 71
3
 72
11
 73
7
 74
0
 42
0.0000001
 43
0.0000001
 44
0.0000000001
 40
0.0
 40
0.0
 40
0.0
 40
0.0
 40
0.2138436824
 40
0.4474094457
 40
0.7101654518
 40
1.0
 40
1.0
 40
1.0
 40
1.0
 10
-13.6194618555
 20
-24.101881077
 30
0.0
 10
-13.602579537
 20
-24.0976945374
 30
0.0
 10
-13.5689950819
 20
-24.0804015659
 30
0.0
 10
-13.5318796222
 20
-24.0345310946
 30
0.0
 10
-13.5089131402
 20
-23.9739729417
 30
0.0
 10
-13.5039770479
 20
-23.92882077
 30
0.0
 10
-13.5038761755
 20
-23.9052463508
 30
0.0
  0
SPLINE
  5
435
100
AcDbEntity
  8
ASSI
100
AcDbSpline
 62
7
  6
CONTINUOUS
 70
0
 71
3
 72
9
 73
5
 74
0
 42
0.0000001
 43
0.0000001
 44
0.0000000001
 40
0.0
 40
0.0
 40
0.0
 40
0.0
 40
0.2187822009
 40
1.0
 40
1.0
 40
1.0
 40
1.0
 10
2.4304573221
 20
21.9313698581
 30
0.0
 10
2.4259640238
 20
21.9325328369
 30
0.0
 10
2.4051370331
 20
21.9367402878
 30
0.0
 10
2.383687855
 20
21.9370333502
 30
0.0
 10
2.3671394676
 20
21.9361272956
 30
0.0
  0
SPLINE
  5
436
100
AcDbEntity
  8
RACCORDO
100
AcDbSpline
 62
250
  6
CONTINUOUS
 70
0
 71
3
 72
11
 73
7
 74
0
 42
0.0000001
 43
0.0000001
 44
0.0000000001
 40
0.0
 40
0.0
 40
0.0
 40
0.0
 40
0.265319999
 40
0.5199661214
 40
0.7644919684
 40
1.0
 40
1.0
 40
1.0
 40
1.0
 10
-10.9340401628
 20
2.2407609337
 30
0.0
 10
-11.0873656487
 20
2.367822497
 30
0.0
 10
-11.4006489688
 20
2.6019680459
 30
0.0
 10
-11.8966448996
 20
2.8929278654
 30
0.0
 10
-12.4037017437
 20
3.1130762462
 30
0.0
 10
-12.751383247
 20
3.2124505037
 30
0.0
 10
-12.9243696591
 20
3.24876302
 30
0.0
  0
SPLINE
  5
437
100
AcDbEntity
  8
RACCORDO
100
AcDbSpline
 62
250
  6
CONTINUOUS
 70
0
 71
3
 72
11
 73
7
 74
0
 42
0.0000001
 43
0.0000001
 44
0.0000000001
 40
0.0
 40
0.0
 40
0.0
 40
0.0
 40
0.2550697549
 40
0.5056009737
 40
0.7532964917
 40
1.0
 40
1.0
 40
1.0
 40
1.0
 10
-13.0378026025
 20
3.2707237042
 30
0.0
 10
-13.1685605057
 20
3.2939039182
 30
0.0
 10
-13.4305346299
 20
3.3256593684
 30
0.0
 10
-13.8235980096
 20
3.3275392367
 30
0.0
 10
-14.2097896848
 20
3.2831358219
 30
0.0
 10
-14.4607916015
 20
3.222840328
 30
0.0
 10
-14.5836381834
 20
3.1853464084
 30
0.0
  0
SPLINE
  5
438
100
AcDbEntity
  8
RACCORDO
100
AcDbSpline
 62
7
  6
CONTINUOUS
 70
0
 71
3
 72
9
 73
5
 74
0
 42
0.0000001
 43
0.0000001
 44
0.0000000001
 40
0.0
 40
0.0
 40
0.0
 40
0.0
 40
0.4061913715
 40
1.0
 40
1.0
 40
1.0
 40
1.0
 10
-1.1861688378
 20
-25.7534553506
 30
0.0
 10
-1.1853280814
 20
-25.7525682934
 30
0.0
 10
-1.1824948968
 20
-25.7511932809
 30
0.0
 10
-1.1795186366
 20
-25.7507560439
 30
0.0
 10
-1.17773945
 20
-25.7505922752
 30
0.0
  0
SPLINE
  5
439
100
AcDbEntity
  8
RACCORDO
100
AcDbSpline
 62
7
  6
CONTINUOUS
 70
0
 71
3
 72
10
 73
6
 74
0
 42
0.0000001
 43
0.0000001
 44
0.0000000001
 40
0.0
 40
0.0
 40
0.0
 40
0.0
 40
0.1605932937
 40
0.3816161245
 40
1.0
 40
1.0
 40
1.0
 40
1.0
 10
-1.17773945
 20
-25.7505922752
 30
0.0
 10
-1.1742651934
 20
-25.7502724806
 30
0.0
 10
-1.1659342048
 20
-25.750509179
 30
0.0
 10
-1.1443878385
 20
-25.7533099651
 30
0.0
 10
-1.1265635075
 20
-25.7573906128
 30
0.0
 10
-1.1135574679
 20
-25.7607568235
 30
0.0
  0
SPLINE
  5
43A
100
AcDbEntity
  8
ASSI
100
AcDbSpline
 62
7
  6
CONTINUOUS
 70
0
 71
3
 72
9
 73
5
 74
0
 42
0.0000001
 43
0.0000001
 44
0.0000000001
 40
0.0
 40
0.0
 40
0.0
 40
0.0
 40
0.2181396819
 40
1.0
 40
1.0
 40
1.0
 40
1.0
 10
-3.1245311236
 20
23.3691066437
 30
0.0
 10
-3.1291345696
 20
23.3702982452
 30
0.0
 10
-3.1505425903
 20
23.3745931022
 30
0.0
 10
-3.1725913907
 20
23.3747834158
 30
0.0
 10
-3.189604405
 20
23.3737634
 30
0.0
  0
SPLINE
  5
43B
100
AcDbEntity
  8
RACCORDO
100
AcDbSpline
 62
250
  6
CONTINUOUS
 70
0
 71
3
 72
13
 73
9
 74
0
 42
0.0000001
 43
0.0000001
 44
0.0000000001
 40
0.0
 40
0.0
 40
0.0
 40
0.0
 40
0.1156222126
 40
0.2325759951
 40
0.3517008378
 40
0.4737250995
 40
0.7283910051
 40
1.0
 40
1.0
 40
1.0
 40
1.0
 10
-14.5836381834
 20
3.1853464084
 30
0.0
 10
-14.7105860378
 20
3.1465991944
 30
0.0
 10
-14.96133563
 20
3.0525751474
 30
0.0
 10
-15.3199557416
 20
2.8650854961
 30
0.0
 10
-15.6598211079
 20
2.632104917
 30
0.0
 10
-16.0903910716
 20
2.2582210199
 30
0.0
 10
-16.5683066101
 20
1.6804377911
 30
0.0
 10
-16.8594023372
 20
1.1469436314
 30
0.0
 10
-16.9861215047
 20
0.8620597647
 30
0.0
  0
SPLINE
  5
43C
100
AcDbEntity
  8
RACCORDO
100
AcDbSpline
 62
250
  6
CONTINUOUS
 70
0
 71
3
 72
14
 73
10
 74
0
 42
0.0000001
 43
0.0000001
 44
0.0000000001
 40
0.0
 40
0.0
 40
0.0
 40
0.0
 40
0.2791579832
 40
0.4102422012
 40
0.5358146118
 40
0.6564873216
 40
0.7732049105
 40
0.8872161778
 40
1.0
 40
1.0
 40
1.0
 40
1.0
 10
-14.9860321574
 20
-8.5335946714
 30
0.0
 10
-14.6864254854
 20
-8.8240713434
 30
0.0
 10
-14.2037140442
 20
-9.212219734
 30
0.0
 10
-13.5004338158
 20
-9.5987640034
 30
0.0
 10
-12.9745792935
 20
-9.8073730073
 30
0.0
 10
-12.446026622
 20
-9.9376241838
 30
0.0
 10
-11.9210582929
 20
-9.9875665525
 30
0.0
 10
-11.4064457468
 20
-9.956220251
 30
0.0
 10
-11.0740553092
 20
-9.8810359069
 30
0.0
 10
-10.9131732467
 20
-9.8306221151
 30
0.0
  0
SPLINE
  5
43D
100
AcDbEntity
  8
RACCORDO
100
AcDbSpline
 62
250
  6
CONTINUOUS
 70
0
 71
3
 72
13
 73
9
 74
0
 42
0.0000001
 43
0.0000001
 44
0.0000000001
 40
0.0
 40
0.0
 40
0.0
 40
0.0
 40
0.1167528241
 40
0.2346713332
 40
0.3544758087
 40
0.4768052462
 40
0.7308052032
 40
1.0
 40
1.0
 40
1.0
 40
1.0
 10
-14.3889914831
 20
3.026811033
 30
0.0
 10
-14.5018909118
 20
2.9923783495
 30
0.0
 10
-14.7250541895
 20
2.9100922318
 30
0.0
 10
-15.0458205478
 20
2.7487325917
 30
0.0
 10
-15.3517166344
 20
2.5500907438
 30
0.0
 10
-15.741813101
 20
2.2335212272
 30
0.0
 10
-16.1826037276
 20
1.7464216232
 30
0.0
 10
-16.4623908041
 20
1.2941603951
 30
0.0
 10
-16.5871562164
 20
1.0522971373
 30
0.0
  0
SPLINE
  5
43E
100
AcDbEntity
  8
RACCORDO
100
AcDbSpline
 62
250
  6
CONTINUOUS
 70
0
 71
3
 72
9
 73
5
 74
0
 42
0.0000001
 43
0.0000001
 44
0.0000000001
 40
0.0
 40
0.0
 40
0.0
 40
0.0
 40
0.2574027994
 40
1.0
 40
1.0
 40
1.0
 40
1.0
 10
-13.7546724582
 20
-9.1375648132
 30
0.0
 10
-13.6820693186
 20
-9.1812632282
 30
0.0
 10
-13.3957817132
 20
-9.3438211086
 30
0.0
 10
-13.0920977242
 20
-9.4764107463
 30
0.0
 10
-12.8600141715
 20
-9.5532402802
 30
0.0
  0
SPLINE
  5
43F
100
AcDbEntity
  8
RACCORDO
100
AcDbSpline
 62
250
  6
CONTINUOUS
 70
0
 71
3
 72
11
 73
7
 74
0
 42
0.0000001
 43
0.0000001
 44
0.0000000001
 40
0.0
 40
0.0
 40
0.0
 40
0.0
 40
0.2599836694
 40
0.5116843949
 40
0.7574308569
 40
1.0
 40
1.0
 40
1.0
 40
1.0
 10
-12.8433124871
 20
-9.5587283303
 30
0.0
 10
-12.6853686677
 20
-9.6102406057
 30
0.0
 10
-12.3676760168
 20
-9.6921979916
 30
0.0
 10
-11.8852706383
 20
-9.7477602565
 30
0.0
 10
-11.4109381045
 20
-9.7329118042
 30
0.0
 10
-11.1027100723
 20
-9.6757866487
 30
0.0
 10
-10.9529256281
 20
-9.6359020734
 30
0.0
  0
SPLINE
  5
440
100
AcDbEntity
  8
DRAFT
100
AcDbSpline
 62
7
  6
CONTINUOUS
 70
0
 71
3
 72
9
 73
5
 74
0
 42
0.0000001
 43
0.0000001
 44
0.0000000001
 40
0.0
 40
0.0
 40
0.0
 40
0.0
 40
0.2485451728
 40
1.0
 40
1.0
 40
1.0
 40
1.0
 10
-13.8614660327
 20
3.1375001822
 30
0.0
 10
-13.9020619796
 20
3.1215805902
 30
0.0
 10
-14.0640298977
 20
3.0540887058
 30
0.0
 10
-14.2202587649
 20
2.9729003662
 30
0.0
 10
-14.3333380567
 20
2.9051182566
 30
0.0
  0
SPLINE
  5
441
100
AcDbEntity
  8
DRAFT
100
AcDbSpline
 62
7
  6
CONTINUOUS
 70
0
 71
3
 72
9
 73
5
 74
0
 42
0.0000001
 43
0.0000001
 44
0.0000000001
 40
0.0
 40
0.0
 40
0.0
 40
0.0
 40
0.2518517368
 40
1.0
 40
1.0
 40
1.0
 40
1.0
 10
-11.1025959977
 20
-9.5386452769
 30
0.0
 10
-11.0593678237
 20
-9.5399577166
 30
0.0
 10
-10.8876422085
 20
-9.5417612197
 30
0.0
 10
-10.715753001
 20
-9.5297059547
 30
0.0
 10
-10.5884060249
 20
-9.5127385335
 30
0.0
  0
SPLINE
  5
442
100
AcDbEntity
  8
RACCORDO
100
AcDbSpline
 62
7
  6
CONTINUOUS
 70
0
 71
3
 72
12
 73
8
 74
0
 42
0.0000001
 43
0.0000001
 44
0.0000000001
 40
0.0
 40
0.0
 40
0.0
 40
0.0
 40
0.0852479252
 40
0.1866078907
 40
0.4258604423
 40
0.7005192312
 40
1.0
 40
1.0
 40
1.0
 40
1.0
 10
-9.6781708337
 20
22.0043290389
 30
0.0
 10
-9.6781292711
 20
21.995284364
 30
0.0
 10
-9.6755844411
 20
21.9755110853
 30
0.0
 10
-9.6636559724
 20
21.9318586515
 30
0.0
 10
-9.6366837169
 20
21.8720016849
 30
0.0
 10
-9.5909603537
 20
21.7986222073
 30
0.0
 10
-9.5528581891
 20
21.7508809604
 30
0.0
 10
-9.5317247709
 20
21.7271530059
 30
0.0
  0
SPLINE
  5
443
100
AcDbEntity
  8
RACCORDO
100
AcDbSpline
 62
250
  6
CONTINUOUS
 70
0
 71
3
 72
14
 73
10
 74
0
 42
0.0000001
 43
0.0000001
 44
0.0000000001
 40
0.0
 40
0.0
 40
0.0
 40
0.0
 40
0.2698648259
 40
0.4052541069
 40
0.5374861078
 40
0.6643796492
 40
0.7842416803
 40
0.8961078698
 40
1.0
 40
1.0
 40
1.0
 40
1.0
 10
-19.8997999547
 20
18.5246876018
 30
0.0
 10
-19.8944016816
 20
18.7073529256
 30
0.0
 10
-19.8498138288
 20
18.9820398175
 30
0.0
 10
-19.7266332056
 20
19.3251659234
 30
0.0
 10
-19.6047746192
 20
19.5638489466
 30
0.0
 10
-19.4576798988
 20
19.7751793555
 30
0.0
 10
-19.2899699987
 20
19.9522769651
 30
0.0
 10
-19.1070470557
 20
20.0891269601
 30
0.0
 10
-18.9738956302
 20
20.1524605245
 30
0.0
 10
-18.9072339447
 20
20.1749494368
 30
0.0
  0
SPLINE
  5
444
100
AcDbEntity
  8
RACCORDO
100
AcDbSpline
 62
250
  6
CONTINUOUS
 70
0
 71
3
 72
9
 73
5
 74
0
 42
0.0000001
 43
0.0000001
 44
0.0000000001
 40
0.0
 40
0.0
 40
0.0
 40
0.0
 40
0.2494081385
 40
1.0
 40
1.0
 40
1.0
 40
1.0
 10
-20.1868564671
 20
1.6144061354
 30
0.0
 10
-20.1805221452
 20
3.0204687443
 30
0.0
 10
-20.1374800255
 20
8.6579733554
 30
0.0
 10
-20.0240386396
 20
14.2949343393
 30
0.0
 10
-19.8997999547
 20
18.5246876018
 30
0.0
  0
SPLINE
  5
445
100
AcDbEntity
  8
RACCORDO
100
AcDbSpline
 62
7
  6
CONTINUOUS
 70
0
 71
3
 72
12
 73
8
 74
0
 42
0.0000001
 43
0.0000001
 44
0.0000000001
 40
0.0
 40
0.0
 40
0.0
 40
0.0
 40
0.289588622
 40
0.5525950539
 40
0.7861824549
 40
0.894677783
 40
1.0
 40
1.0
 40
1.0
 40
1.0
 10
1.8045065286
 20
-24.7850696738
 30
0.0
 10
1.8037402956
 20
-24.8320822995
 30
0.0
 10
1.7929502862
 20
-24.9220807601
 30
0.0
 10
1.746825504
 20
-25.0426678337
 30
0.0
 10
1.6836524036
 20
-25.1209831864
 30
0.0
 10
1.6227190941
 20
-25.161412654
 30
0.0
 10
1.5900221441
 20
-25.1740528556
 30
0.0
 10
1.5734784753
 20
-25.1783814401
 30
0.0
  0
SPLINE
  5
446
100
AcDbEntity
  8
RACCORDO
100
AcDbSpline
 62
7
  6
CONTINUOUS
 70
0
 71
3
 72
12
 73
8
 74
0
 42
0.0000001
 43
0.0000001
 44
0.0000000001
 40
0.0
 40
0.0
 40
0.0
 40
0.0
 40
0.214007446
 40
0.3344583794
 40
0.4622561805
 40
0.7308797106
 40
1.0
 40
1.0
 40
1.0
 40
1.0
 10
1.4616175384
 20
18.0929275611
 30
0.0
 10
1.5093701797
 20
18.0777259943
 30
0.0
 10
1.5781569357
 20
18.0346234837
 30
0.0
 10
1.6527956759
 20
17.9560776771
 30
0.0
 10
1.7222826023
 20
17.8563849205
 30
0.0
 10
1.7838620154
 20
17.7112834346
 30
0.0
 10
1.8034711094
 20
17.5852718651
 30
0.0
 10
1.8045065286
 20
17.5222607622
 30
0.0
  0
LINE
  5
447
100
AcDbEntity
  8
RACCORDO
100
AcDbLine
 62
7
  6
CONTINUOUS
 10
0.571662597
 20
17.801233104
 11
1.4617227797
 21
18.0929707878
  0
SPLINE
  5
448
100
AcDbEntity
  8
RACCORDO
100
AcDbSpline
 62
250
  6
CONTINUOUS
 70
0
 71
3
 72
13
 73
9
 74
0
 42
0.0000001
 43
0.0000001
 44
0.0000000001
 40
0.0
 40
0.0
 40
0.0
 40
0.0
 40
0.1054937232
 40
0.2184396581
 40
0.3388425932
 40
0.4657844562
 40
0.7318166779
 40
1.0
 40
1.0
 40
1.0
 40
1.0
 10
-3.6931827439
 20
15.7613463363
 30
0.0
 10
-3.7388033978
 20
15.74673276
 30
0.0
 10
-3.82993299
 20
15.7053678821
 30
0.0
 10
-3.9555322128
 20
15.6151192784
 30
0.0
 10
-4.0707253502
 20
15.4979065404
 30
0.0
 10
-4.2074330582
 20
15.3081673048
 30
0.0
 10
-4.3301562256
 20
15.0302167714
 30
0.0
 10
-4.3706654588
 20
14.7879368892
 30
0.0
 10
-4.3743704032
 20
14.6662127946
 30
0.0
  0
SPLINE
  5
449
100
AcDbEntity
  8
RACCORDO
100
AcDbSpline
 62
250
  6
CONTINUOUS
 70
0
 71
3
 72
14
 73
10
 74
0
 42
0.0000001
 43
0.0000001
 44
0.0000000001
 40
0.0
 40
0.0
 40
0.0
 40
0.0
 40
0.1051287306
 40
0.2178093033
 40
0.3380499326
 40
0.4649236738
 40
0.5968074231
 40
0.7316110892
 40
1.0
 40
1.0
 40
1.0
 40
1.0
 10
-4.0590154839
 20
16.3319477133
 30
0.0
 10
-4.1270949776
 20
16.3099141673
 30
0.0
 10
-4.2630846276
 20
16.2476076698
 30
0.0
 10
-4.4503969926
 20
16.1119324111
 30
0.0
 10
-4.622157825
 20
15.9358557744
 30
0.0
 10
-4.77281316
 20
15.7253800512
 30
0.0
 10
-4.8976182896
 20
15.4873673702
 30
0.0
 10
-5.0237268939
 20
15.1450321905
 30
0.0
 10
-5.0694295432
 20
14.8703313877
 30
0.0
 10
-5.0749538771
 20
14.6877350962
 30
0.0
  0
SPLINE
  5
44A
100
AcDbEntity
  8
RACCORDO
100
AcDbSpline
 62
250
  6
CONTINUOUS
 70
0
 71
3
 72
12
 73
8
 74
0
 42
0.0000001
 43
0.0000001
 44
0.0000000001
 40
0.0
 40
0.0
 40
0.0
 40
0.0
 40
0.269097264
 40
0.5386320854
 40
0.6667512995
 40
0.787203992
 40
1.0
 40
1.0
 40
1.0
 40
1.0
 10
-3.6931827439
 20
15.7613463363
 30
0.0
 10
-3.6957120222
 20
15.8255293458
 30
0.0
 10
-3.7191424902
 20
15.9536664304
 30
0.0
 10
-3.7861677692
 20
16.10002861
 30
0.0
 10
-3.8601434797
 20
16.199773331
 30
0.0
 10
-3.9384979859
 20
16.2772802308
 30
0.0
 10
-4.0099684617
 20
16.3187414297
 30
0.0
 10
-4.0590154839
 20
16.3319477133
 30
0.0
  0
SPLINE
  5
44B
100
AcDbEntity
  8
RACCORDO
100
AcDbSpline
 62
250
  6
CONTINUOUS
 70
0
 71
3
 72
9
 73
5
 74
0
 42
0.0000001
 43
0.0000001
 44
0.0000000001
 40
0.0
 40
0.0
 40
0.0
 40
0.0
 40
0.2514267467
 40
1.0
 40
1.0
 40
1.0
 40
1.0
 10
-4.3743704032
 20
14.6662127946
 30
0.0
 10
-4.4755181077
 20
11.3415935533
 30
0.0
 10
-4.778160199
 20
-1.8842366268
 30
0.0
 10
-4.6801638543
 20
-15.1194502668
 30
0.0
 10
-4.3743704032
 20
-25.0177019814
 30
0.0
  0
SPLINE
  5
44C
100
AcDbEntity
  8
RACCORDO
100
AcDbSpline
 62
250
  6
CONTINUOUS
 70
0
 71
3
 72
9
 73
5
 74
0
 42
0.0000001
 43
0.0000001
 44
0.0000000001
 40
0.0
 40
0.0
 40
0.0
 40
0.0
 40
0.2514267707
 40
1.0
 40
1.0
 40
1.0
 40
1.0
 10
-5.0749538771
 20
14.6877350962
 30
0.0
 10
-5.1762011038
 20
11.3597875469
 30
0.0
 10
-5.4791408773
 20
-1.8792817768
 30
0.0
 10
-5.3810482533
 20
-15.1277436322
 30
0.0
 10
-5.0749538771
 20
-25.0359033182
 30
0.0
  0
SPLINE
  5
44D
100
AcDbEntity
  8
RACCORDO
100
AcDbSpline
 62
250
  6
CONTINUOUS
 70
0
 71
3
 72
13
 73
9
 74
0
 42
0.0000001
 43
0.0000001
 44
0.0000000001
 40
0.0
 40
0.0
 40
0.0
 40
0.0
 40
0.1088714712
 40
0.2314235204
 40
0.5002445476
 40
0.7689374477
 40
0.8913348402
 40
1.0
 40
1.0
 40
1.0
 40
1.0
 10
-4.3743704032
 20
14.6662127946
 30
0.0
 10
-4.3994901173
 20
14.661322963
 30
0.0
 10
-4.4533444182
 20
14.653257125
 30
0.0
 10
-4.5705267241
 20
14.6429523856
 30
0.0
 10
-4.7259040017
 20
14.6412336201
 30
0.0
 10
-4.8808475034
 20
14.6524802429
 30
0.0
 10
-4.9970604665
 20
14.6699566983
 30
0.0
 10
-5.0502319354
 20
14.6813119869
 30
0.0
 10
-5.074953877
 20
14.6877350962
 30
0.0
  0
SPLINE
  5
44E
100
AcDbEntity
  8
RACCORDO
100
AcDbSpline
 62
250
  6
CONTINUOUS
 70
0
 71
3
 72
14
 73
10
 74
0
 42
0.0000001
 43
0.0000001
 44
0.0000000001
 40
0.0
 40
0.0
 40
0.0
 40
0.0
 40
0.290204942
 40
0.4231356332
 40
0.547291645
 40
0.6639700015
 40
0.7758213372
 40
0.8865183457
 40
1.0
 40
1.0
 40
1.0
 40
1.0
 10
-4.3743704032
 20
-25.0177019814
 30
0.0
 10
-4.3709082476
 20
-25.1297130908
 30
0.0
 10
-4.3441967689
 20
-25.2944631274
 30
0.0
 10
-4.2572476903
 20
-25.4881719385
 30
0.0
 10
-4.1729831483
 20
-25.6067023893
 30
0.0
 10
-4.0702682467
 20
-25.6981006546
 30
0.0
 10
-3.9523434026
 20
-25.7585722314
 30
0.0
 10
-3.8238182844
 20
-25.7853006606
 30
0.0
 10
-3.7363147041
 20
-25.7800697085
 30
0.0
 10
-3.6931827439
 20
-25.7723252799
 30
0.0
  0
SPLINE
  5
44F
100
AcDbEntity
  8
RACCORDO
100
AcDbSpline
 62
250
  6
CONTINUOUS
 70
0
 71
3
 72
13
 73
9
 74
0
 42
0.0000001
 43
0.0000001
 44
0.0000000001
 40
0.0
 40
0.0
 40
0.0
 40
0.0
 40
0.2867312584
 40
0.5474651673
 40
0.6678861942
 40
0.7823469215
 40
0.8923553147
 40
1.0
 40
1.0
 40
1.0
 40
1.0
 10
-5.0749538771
 20
-25.0359033182
 30
0.0
 10
-5.070823192
 20
-25.1703419247
 30
0.0
 10
-5.0360924769
 20
-25.4273198751
 30
0.0
 10
-4.9158233508
 20
-25.7216657728
 30
0.0
 10
-4.7782073335
 20
-25.9103300604
 30
0.0
 10
-4.6606245716
 20
-26.0228439848
 30
0.0
 10
-4.5284905687
 20
-26.1072679129
 30
0.0
 10
-4.43209414
 20
-26.143545075
 30
0.0
 10
-4.3832124558
 20
-26.1562061735
 30
0.0
  0
SPLINE
  5
450
100
AcDbEntity
  8
RACCORDO
100
AcDbSpline
 62
250
  6
CONTINUOUS
 70
0
 71
3
 72
13
 73
9
 74
0
 42
0.0000001
 43
0.0000001
 44
0.0000000001
 40
0.0
 40
0.0
 40
0.0
 40
0.0
 40
0.1107156152
 40
0.2342718012
 40
0.5031443429
 40
0.7703618649
 40
0.8919270385
 40
1.0
 40
1.0
 40
1.0
 40
1.0
 10
-4.3743704032
 20
-25.0177019814
 30
0.0
 10
-4.3993380442
 20
-25.0253225032
 30
0.0
 10
-4.4530040656
 20
-25.038742925
 30
0.0
 10
-4.5699659116
 20
-25.0590033927
 30
0.0
 10
-4.7253736568
 20
-25.0711624168
 30
0.0
 10
-4.880749206
 20
-25.0671630095
 30
0.0
 10
-4.997106593
 20
-25.0529362371
 30
0.0
 10
-5.0502791619
 20
-25.0422656944
 30
0.0
 10
-5.0749536826
 20
-25.0359032569
 30
0.0
  0
SPLINE
  5
451
100
AcDbEntity
  8
RACCORDO
100
AcDbSpline
 62
250
  6
CONTINUOUS
 70
0
 71
3
 72
13
 73
9
 74
0
 42
0.0000001
 43
0.0000001
 44
0.0000000001
 40
0.0
 40
0.0
 40
0.0
 40
0.0
 40
0.289513931
 40
0.4250387157
 40
0.5530642371
 40
0.7861193095
 40
0.8944900053
 40
1.0
 40
1.0
 40
1.0
 40
1.0
 10
-3.6931827439
 20
-25.7723252799
 30
0.0
 10
-3.6950886415
 20
-25.8216420856
 30
0.0
 10
-3.7057625165
 20
-25.8942568813
 30
0.0
 10
-3.7377889238
 20
-25.9832399222
 30
0.0
 10
-3.7777087767
 20
-26.0580752828
 30
0.0
 10
-3.8325972678
 20
-26.1193573912
 30
0.0
 10
-3.8991716148
 20
-26.157498676
 30
0.0
 10
-3.9344343653
 20
-26.1681835691
 30
0.0
 10
-3.95213739
 20
-26.1713634835
 30
0.0
  0
SPLINE
  5
452
100
AcDbEntity
  8
RACCORDO
100
AcDbSpline
 62
250
  6
CONTINUOUS
 70
0
 71
3
 72
11
 73
7
 74
0
 42
0.0000001
 43
0.0000001
 44
0.0000000001
 40
0.0
 40
0.0
 40
0.0
 40
0.0
 40
0.3494661616
 40
0.4829225351
 40
0.6362177777
 40
1.0
 40
1.0
 40
1.0
 40
1.0
 10
2.0621878061
 20
-26.7791562232
 30
0.0
 10
2.062187564
 20
-26.7894639214
 30
0.0
 10
2.0488069711
 20
-26.8012215352
 30
0.0
 10
2.0327197394
 20
-26.8098257846
 30
0.0
 10
2.0149513197
 20
-26.8174984087
 30
0.0
 10
2.000369959
 20
-26.8219244585
 30
0.0
 10
1.9899899515
 20
-26.8246424447
 30
0.0
  0
SPLINE
  5
453
100
AcDbEntity
  8
RACCORDO
100
AcDbSpline
 62
250
  6
CONTINUOUS
 70
0
 71
3
 72
11
 73
7
 74
0
 42
0.0000001
 43
0.0000001
 44
0.0000000001
 40
0.0
 40
0.0
 40
0.0
 40
0.0
 40
0.3494661594
 40
0.4829225497
 40
0.6362177819
 40
1.0
 40
1.0
 40
1.0
 40
1.0
 10
2.0621878064
 20
-26.3915351835
 30
0.0
 10
2.0621875775
 20
-26.4018428816
 30
0.0
 10
2.0488069691
 20
-26.4136004962
 30
0.0
 10
2.0327197395
 20
-26.4222047449
 30
0.0
 10
2.014951319
 20
-26.4298773691
 30
0.0
 10
2.0003699589
 20
-26.4343034187
 30
0.0
 10
1.9899899515
 20
-26.437021405
 30
0.0
  0
SPLINE
  5
454
100
AcDbEntity
  8
RACCORDO
100
AcDbSpline
 62
7
  6
CONTINUOUS
 70
0
 71
3
 72
11
 73
7
 74
0
 42
0.0000001
 43
0.0000001
 44
0.0000000001
 40
0.0
 40
0.0
 40
0.0
 40
0.0
 40
0.1398252313
 40
0.2789761584
 40
0.545370623
 40
1.0
 40
1.0
 40
1.0
 40
1.0
 10
-3.5975952914
 20
20.4572483697
 30
0.0
 10
-3.6187728425
 20
20.4563857041
 30
0.0
 10
-3.6609066502
 20
20.4512397897
 30
0.0
 10
-3.741452641
 20
20.4321938429
 30
0.0
 10
-3.8643025388
 20
20.3874475468
 30
0.0
 10
-3.9614582608
 20
20.3363999485
 30
0.0
 10
-4.0204176712
 20
20.3007217651
 30
0.0
  0
SPLINE
  5
455
100
AcDbEntity
  8
RACCORDO
100
AcDbSpline
 62
7
  6
CONTINUOUS
 70
0
 71
3
 72
11
 73
7
 74
0
 42
0.0000001
 43
0.0000001
 44
0.0000000001
 40
0.0
 40
0.0
 40
0.0
 40
0.0
 40
0.2148879974
 40
0.4501545128
 40
0.7126681463
 40
1.0
 40
1.0
 40
1.0
 40
1.0
 10
1.3583836819
 20
-27.1601009123
 30
0.0
 10
1.3739718692
 20
-27.1544111628
 30
0.0
 10
1.404233797
 20
-27.1351536755
 30
0.0
 10
1.4371905362
 20
-27.0898799607
 30
0.0
 10
1.4574723428
 20
-27.0320269008
 30
0.0
 10
1.4617227797
 20
-26.9893795125
 30
0.0
 10
1.4617227797
 20
-26.9671911194
 30
0.0
  0
SPLINE
  5
456
100
AcDbEntity
  8
RACCORDO
100
AcDbSpline
 62
250
  6
CONTINUOUS
 70
0
 71
3
 72
11
 73
7
 74
0
 42
0.0000001
 43
0.0000001
 44
0.0000000001
 40
0.0
 40
0.0
 40
0.0
 40
0.0
 40
0.2149960616
 40
0.4489424325
 40
0.7111775113
 40
1.0
 40
1.0
 40
1.0
 40
1.0
 10
1.877318596
 20
-27.0205225988
 30
0.0
 10
1.8940289089
 20
-27.0160127991
 30
0.0
 10
1.9270668233
 20
-26.9983368855
 30
0.0
 10
1.9633974097
 20
-26.9525361057
 30
0.0
 10
1.9855937596
 20
-26.8924991956
 30
0.0
 10
1.9900885075
 20
-26.847893776
 30
0.0
 10
1.9899899515
 20
-26.8246424447
 30
0.0
  0
SPLINE
  5
457
100
AcDbEntity
  8
RACCORDO
100
AcDbSpline
 62
7
  6
CONTINUOUS
 70
0
 71
3
 72
9
 73
5
 74
0
 42
0.0000001
 43
0.0000001
 44
0.0000000001
 40
0.0
 40
0.0
 40
0.0
 40
0.0
 40
0.2606885589
 40
1.0
 40
1.0
 40
1.0
 40
1.0
 10
-14.4783898607
 20
22.3678454288
 30
0.0
 10
-14.4808345437
 20
22.3684781593
 30
0.0
 10
-14.4901423389
 20
22.3711629007
 30
0.0
 10
-14.4991612166
 20
22.374887503
 30
0.0
 10
-14.5054823043
 20
22.3782537754
 30
0.0
  0
SPLINE
  5
458
100
AcDbEntity
  8
RACCORDO
100
AcDbSpline
 62
250
  6
CONTINUOUS
 70
0
 71
3
 72
11
 73
7
 74
0
 42
0.0000001
 43
0.0000001
 44
0.0000000001
 40
0.0
 40
0.0
 40
0.0
 40
0.0
 40
0.3641549386
 40
0.5176067416
 40
0.65116228
 40
1.0
 40
1.0
 40
1.0
 40
1.0
 10
-1.8170646506
 20
-27.0209897415
 30
0.0
 10
-1.8275850418
 20
-27.0182668639
 30
0.0
 10
-1.8423645844
 20
-27.0138280713
 30
0.0
 10
-1.8603865878
 20
-27.0061169434
 30
0.0
 10
-1.8766764265
 20
-26.9974773292
 30
0.0
 10
-1.8902881974
 20
-26.9856465187
 30
0.0
 10
-1.8902879529
 20
-26.9752365661
 30
0.0
  0
SPLINE
  5
459
100
AcDbEntity
  8
RACCORDO
100
AcDbSpline
 62
250
  6
CONTINUOUS
 70
0
 71
3
 72
11
 73
7
 74
0
 42
0.0000001
 43
0.0000001
 44
0.0000000001
 40
0.0
 40
0.0
 40
0.0
 40
0.0
 40
0.3641557901
 40
0.517607357
 40
0.6511626167
 40
1.0
 40
1.0
 40
1.0
 40
1.0
 10
-1.8170646506
 20
-26.6417980899
 30
0.0
 10
-1.8275850666
 20
-26.6390752058
 30
0.0
 10
-1.8423646285
 20
-26.6346364096
 30
0.0
 10
-1.8603866366
 20
-26.6269252688
 30
0.0
 10
-1.8766764531
 20
-26.6182856553
 30
0.0
 10
-1.8902881778
 20
-26.6064548572
 30
0.0
 10
-1.8902879533
 20
-26.5960449144
 30
0.0
  0
SPLINE
  5
45A
100
AcDbEntity
  8
RACCORDO
100
AcDbSpline
 62
250
  6
CONTINUOUS
 70
0
 71
3
 72
9
 73
5
 74
0
 42
0.0000001
 43
0.0000001
 44
0.0000000001
 40
0.0
 40
0.0
 40
0.0
 40
0.0
 40
0.5111110721
 40
1.0
 40
1.0
 40
1.0
 40
1.0
 10
-1.8170646506
 20
-26.6417980899
 30
0.0
 10
-1.8170646506
 20
-26.5987773737
 30
0.0
 10
-1.8010234426
 20
-26.5142238118
 30
0.0
 10
-1.7570913292
 20
-26.4395570009
 30
0.0
 10
-1.7286763029
 20
-26.4097924262
 30
0.0
  0
SPLINE
  5
45B
100
AcDbEntity
  8
RACCORDO
100
AcDbSpline
 62
250
  6
CONTINUOUS
 70
0
 71
3
 72
9
 73
5
 74
0
 42
0.0000001
 43
0.0000001
 44
0.0000000001
 40
0.0
 40
0.0
 40
0.0
 40
0.0
 40
0.5111110721
 40
1.0
 40
1.0
 40
1.0
 40
1.0
 10
-0.4920799707
 20
-26.9847293595
 30
0.0
 10
-0.4920799707
 20
-26.9417086433
 30
0.0
 10
-0.4760387628
 20
-26.8571550814
 30
0.0
 10
-0.4321066494
 20
-26.7824882705
 30
0.0
 10
-0.4036916231
 20
-26.7527236958
 30
0.0
  0
SPLINE
  5
45C
100
AcDbEntity
  8
RACCORDO
100
AcDbSpline
 62
250
  6
CONTINUOUS
 70
0
 71
3
 72
11
 73
7
 74
0
 42
0.0000001
 43
0.0000001
 44
0.0000000001
 40
0.0
 40
0.0
 40
0.0
 40
0.0
 40
0.230809145
 40
0.4994506323
 40
0.7683804451
 40
1.0
 40
1.0
 40
1.0
 40
1.0
 10
-0.4920799707
 20
-26.9847293595
 30
0.0
 10
-0.4656274391
 20
-26.9915757785
 30
0.0
 10
-0.4069671671
 20
-27.0007555629
 30
0.0
 10
-0.315997614
 20
-27.0052187788
 30
0.0
 10
-0.2249246852
 20
-27.0008835644
 30
0.0
 10
-0.1661226108
 20
-26.9917906518
 30
0.0
 10
-0.1395580111
 20
-26.9849947649
 30
0.0
  0
SPLINE
  5
45D
100
AcDbEntity
  8
RACCORDO
100
AcDbSpline
 62
250
  6
CONTINUOUS
 70
0
 71
3
 72
11
 73
7
 74
0
 42
0.0000001
 43
0.0000001
 44
0.0000000001
 40
0.0
 40
0.0
 40
0.0
 40
0.0
 40
0.2308092096
 40
0.4994507629
 40
0.7683806105
 40
1.0
 40
1.0
 40
1.0
 40
1.0
 10
-0.4920799707
 20
-27.3639210111
 30
0.0
 10
-0.4656274316
 20
-27.3707674321
 30
0.0
 10
-0.4069671439
 20
-27.3799472174
 30
0.0
 10
-0.3159975712
 20
-27.3844104309
 30
0.0
 10
-0.22492465
 20
-27.3800752128
 30
0.0
 10
-0.1661225918
 20
-27.3709822987
 30
0.0
 10
-0.1395580111
 20
-27.3641864165
 30
0.0
  0
SPLINE
  5
45E
100
AcDbEntity
  8
RACCORDO
100
AcDbSpline
 62
250
  6
CONTINUOUS
 70
0
 71
3
 72
11
 73
7
 74
0
 42
0.0000001
 43
0.0000001
 44
0.0000000001
 40
0.0
 40
0.0
 40
0.0
 40
0.0
 40
0.2893261818
 40
0.5518199342
 40
0.7855767884
 40
1.0
 40
1.0
 40
1.0
 40
1.0
 10
-0.4920799707
 20
-27.3639210111
 30
0.0
 10
-0.4920799707
 20
-27.3873348461
 30
0.0
 10
-0.4873662362
 20
-27.4322158358
 30
0.0
 10
-0.4647851236
 20
-27.4925170164
 30
0.0
 10
-0.4280597898
 20
-27.5383559092
 30
0.0
 10
-0.3947458273
 20
-27.5558423629
 30
0.0
 10
-0.3779474392
 20
-27.5601916005
 30
0.0
  0
SPLINE
  5
45F
100
AcDbEntity
  8
RACCORDO
100
AcDbSpline
 62
250
  6
CONTINUOUS
 70
0
 71
3
 72
11
 73
7
 74
0
 42
0.0000001
 43
0.0000001
 44
0.0000000001
 40
0.0
 40
0.0
 40
0.0
 40
0.0
 40
0.2888552173
 40
0.551375829
 40
0.7855109983
 40
1.0
 40
1.0
 40
1.0
 40
1.0
 10
-1.8170646506
 20
-27.0209897415
 30
0.0
 10
-1.8170646506
 20
-27.0441021374
 30
0.0
 10
-1.8124669673
 20
-27.0884348674
 30
0.0
 10
-1.7904629755
 20
-27.1481419064
 30
0.0
 10
-1.7546882527
 20
-27.1938669792
 30
0.0
 10
-1.7221280341
 20
-27.2118329348
 30
0.0
 10
-1.7056211684
 20
-27.2165297613
 30
0.0
  0
SPLINE
  5
460
100
AcDbEntity
  8
RACCORDO
100
AcDbSpline
 62
250
  6
CONTINUOUS
 70
0
 71
3
 72
11
 73
7
 74
0
 42
0.0000001
 43
0.0000001
 44
0.0000000001
 40
0.0
 40
0.0
 40
0.0
 40
0.0
 40
0.364155794
 40
0.5176073593
 40
0.6511626265
 40
1.0
 40
1.0
 40
1.0
 40
1.0
 10
-15.181382815
 20
23.2600565616
 30
0.0
 10
-15.1919032312
 20
23.2627794456
 30
0.0
 10
-15.206682793
 20
23.2672182419
 30
0.0
 10
-15.2247048017
 20
23.2749293829
 30
0.0
 10
-15.240994617
 20
23.2835689959
 30
0.0
 10
-15.2546063487
 20
23.2953997946
 30
0.0
 10
-15.2546061176
 20
23.305809737
 30
0.0
  0
SPLINE
  5
461
100
AcDbEntity
  8
RACCORDO
100
AcDbSpline
 62
250
  6
CONTINUOUS
 70
0
 71
3
 72
11
 73
7
 74
0
 42
0.0000001
 43
0.0000001
 44
0.0000000001
 40
0.0
 40
0.0
 40
0.0
 40
0.0
 40
0.364155794
 40
0.5176073593
 40
0.6511626265
 40
1.0
 40
1.0
 40
1.0
 40
1.0
 10
-15.181382815
 20
22.8808649099
 30
0.0
 10
-15.1919032312
 20
22.883587794
 30
0.0
 10
-15.206682793
 20
22.8880265903
 30
0.0
 10
-15.2247048017
 20
22.8957377313
 30
0.0
 10
-15.240994617
 20
22.9043773443
 30
0.0
 10
-15.2546063487
 20
22.9162081429
 30
0.0
 10
-15.2546061176
 20
22.9266180854
 30
0.0
  0
SPLINE
  5
462
100
AcDbEntity
  8
RACCORDO
100
AcDbSpline
 62
250
  6
CONTINUOUS
 70
0
 71
3
 72
11
 73
7
 74
0
 42
0.0000001
 43
0.0000001
 44
0.0000000001
 40
0.0
 40
0.0
 40
0.0
 40
0.0
 40
0.3147731441
 40
0.5823768933
 40
0.8055903298
 40
1.0
 40
1.0
 40
1.0
 40
1.0
 10
-11.3743282129
 20
23.0856415948
 30
0.0
 10
-11.3683524148
 20
23.0729842363
 30
0.0
 10
-11.3588581719
 20
23.0487402552
 30
0.0
 10
-11.3524131347
 20
23.0132072079
 30
0.0
 10
-11.3553325798
 20
22.9823141803
 30
0.0
 10
-11.3647298533
 20
22.9654308681
 30
0.0
 10
-11.3706763928
 20
22.9591561248
 30
0.0
  0
SPLINE
  5
463
100
AcDbEntity
  8
RACCORDO
100
AcDbSpline
 62
7
  6
CONTINUOUS
 70
0
 71
3
 72
13
 73
9
 74
0
 42
0.0000001
 43
0.0000001
 44
0.0000000001
 40
0.0
 40
0.0
 40
0.0
 40
0.0
 40
0.270107401
 40
0.4062113593
 40
0.5391463814
 40
0.6664850832
 40
0.7863854384
 40
1.0
 40
1.0
 40
1.0
 40
1.0
 10
-11.9025953847
 20
23.3391596947
 30
0.0
 10
-11.9025953847
 20
23.3714368767
 30
0.0
 10
-11.9096610435
 20
23.4202656506
 30
0.0
 10
-11.9312247305
 20
23.4811060033
 30
0.0
 10
-11.9530384478
 20
23.5233293121
 30
0.0
 10
-11.9796971709
 20
23.5603849897
 30
0.0
 10
-12.018617623
 20
23.5994363287
 30
0.0
 10
-12.0546569483
 20
23.6199934933
 30
0.0
 10
-12.0793690884
 20
23.6263894658
 30
0.0
  0
SPLINE
  5
464
100
AcDbEntity
  8
RACCORDO
100
AcDbSpline
 62
250
  6
CONTINUOUS
 70
0
 71
3
 72
13
 73
9
 74
0
 42
0.0000001
 43
0.0000001
 44
0.0000000001
 40
0.0
 40
0.0
 40
0.0
 40
0.0
 40
0.2702416892
 40
0.4064878043
 40
0.5395584919
 40
0.66698037
 40
0.7868659974
 40
1.0
 40
1.0
 40
1.0
 40
1.0
 10
-13.5038761755
 20
22.9168598866
 30
0.0
 10
-13.5040145332
 20
22.9491240429
 30
0.0
 10
-13.5112472604
 20
22.9979061192
 30
0.0
 10
-13.5329145245
 20
23.0586982555
 30
0.0
 10
-13.5547525764
 20
23.1009067088
 30
0.0
 10
-13.5813781436
 20
23.1379635161
 30
0.0
 10
-13.6201576067
 20
23.1770089469
 30
0.0
 10
-13.6560337708
 20
23.1976428318
 30
0.0
 10
-13.6806498792
 20
23.2040896577
 30
0.0
  0
SPLINE
  5
465
100
AcDbEntity
  8
RACCORDO
100
AcDbSpline
 62
250
  6
CONTINUOUS
 70
0
 71
3
 72
12
 73
8
 74
0
 42
0.0000001
 43
0.0000001
 44
0.0000000001
 40
0.0
 40
0.0
 40
0.0
 40
0.0
 40
0.2839988893
 40
0.5469064378
 40
0.7830327566
 40
0.8931343332
 40
1.0
 40
1.0
 40
1.0
 40
1.0
 10
1.9899899515
 20
-26.437021405
 30
0.0
 10
1.9996779174
 20
-26.4114277381
 30
0.0
 10
2.0124573994
 20
-26.3595954026
 30
0.0
 10
2.0102989287
 20
-26.2831638573
 30
0.0
 10
1.9889818106
 20
-26.2267900465
 30
0.0
 10
1.9612660496
 20
-26.1926468416
 30
0.0
 10
1.9445985674
 20
-26.1796580602
 30
0.0
 10
1.9357847281
 20
-26.1743331664
 30
0.0
  0
SPLINE
  5
466
100
AcDbEntity
  8
RACCORDO
100
AcDbSpline
 62
250
  6
CONTINUOUS
 70
0
 71
3
 72
12
 73
8
 74
0
 42
0.0000001
 43
0.0000001
 44
0.0000000001
 40
0.0
 40
0.0
 40
0.0
 40
0.0
 40
0.2701457858
 40
0.5384316381
 40
0.6657695856
 40
0.7857650981
 40
1.0
 40
1.0
 40
1.0
 40
1.0
 10
-11.3743282129
 20
23.4732626346
 30
0.0
 10
-11.3741916524
 20
23.5055515111
 30
0.0
 10
-11.3833136773
 20
23.5701766404
 30
0.0
 10
-11.414859217
 20
23.6443606006
 30
0.0
 10
-11.4510309009
 20
23.6946029024
 30
0.0
 10
-11.4900968805
 20
23.733662011
 30
0.0
 10
-11.5262946885
 20
23.7541449554
 30
0.0
 10
-11.5511019166
 20
23.7604924057
 30
0.0
  0
SPLINE
  5
467
100
AcDbEntity
  8
RACCORDO
100
AcDbSpline
 62
250
  6
CONTINUOUS
 70
0
 71
3
 72
9
 73
5
 74
0
 42
0.0000001
 43
0.0000001
 44
0.0000000001
 40
0.0
 40
0.0
 40
0.0
 40
0.0
 40
0.5085401332
 40
1.0
 40
1.0
 40
1.0
 40
1.0
 10
-12.8884280772
 20
24.1066178856
 30
0.0
 10
-12.8985429121
 20
24.1092659654
 30
0.0
 10
-12.9191104125
 20
24.1122642548
 30
0.0
 10
-12.9398085103
 20
24.1099597503
 30
0.0
 10
-12.9496160035
 20
24.1075276661
 30
0.0
  0
SPLINE
  5
468
100
AcDbEntity
  8
RACCORDO
100
AcDbSpline
 62
7
  6
CONTINUOUS
 70
0
 71
3
 72
9
 73
5
 74
0
 42
0.0000001
 43
0.0000001
 44
0.0000000001
 40
0.0
 40
0.0
 40
0.0
 40
0.0
 40
0.5087244151
 40
1.0
 40
1.0
 40
1.0
 40
1.0
 10
-13.4228779558
 20
23.974115148
 30
0.0
 10
-13.4330515436
 20
23.9767482662
 30
0.0
 10
-13.4537190551
 20
23.9797185752
 30
0.0
 10
-13.474510896
 20
23.977393826
 30
0.0
 10
-13.4843610587
 20
23.9749517491
 30
0.0
  0
SPLINE
  5
469
100
AcDbEntity
  8
RACCORDO
100
AcDbSpline
 62
250
  6
CONTINUOUS
 70
0
 71
3
 72
9
 73
5
 74
0
 42
0.0000001
 43
0.0000001
 44
0.0000000001
 40
0.0
 40
0.0
 40
0.0
 40
0.0
 40
0.5089459253
 40
1.0
 40
1.0
 40
1.0
 40
1.0
 10
-15.005634559
 20
23.5470209273
 30
0.0
 10
-15.0162588931
 20
23.5497384096
 30
0.0
 10
-15.0378525778
 20
23.5527024989
 30
0.0
 10
-15.0595200784
 20
23.5499333108
 30
0.0
 10
-15.0697354739
 20
23.5471764992
 30
0.0
  0
SPLINE
  5
46A
100
AcDbEntity
  8
RACCORDO
100
AcDbSpline
 62
250
  6
CONTINUOUS
 70
0
 71
3
 72
13
 73
9
 74
0
 42
0.0000001
 43
0.0000001
 44
0.0000000001
 40
0.0
 40
0.0
 40
0.0
 40
0.0
 40
0.2698899441
 40
0.4059064784
 40
0.5387962977
 40
0.6661465937
 40
0.7861195845
 40
1.0
 40
1.0
 40
1.0
 40
1.0
 10
-13.8563981352
 20
22.9171252919
 30
0.0
 10
-13.8563981352
 20
22.9492827582
 30
0.0
 10
-13.8493835795
 20
22.9979309592
 30
0.0
 10
-13.827971779
 20
23.058580617
 30
0.0
 10
-13.8063046848
 20
23.1007063259
 30
0.0
 10
-13.779815378
 20
23.1377230459
 30
0.0
 10
-13.7411123896
 20
23.1768226791
 30
0.0
 10
-13.7052727166
 20
23.1975211133
 30
0.0
 10
-13.6806498792
 20
23.2040896577
 30
0.0
  0
SPLINE
  5
46B
100
AcDbEntity
  8
RACCORDO
100
AcDbSpline
 62
250
  6
CONTINUOUS
 70
0
 71
3
 72
13
 73
9
 74
0
 42
0.0000001
 43
0.0000001
 44
0.0000000001
 40
0.0
 40
0.0
 40
0.0
 40
0.0
 40
0.2698899441
 40
0.4059064784
 40
0.5387962977
 40
0.6661465937
 40
0.7861195845
 40
1.0
 40
1.0
 40
1.0
 40
1.0
 10
-15.181382815
 20
23.2600565616
 30
0.0
 10
-15.181382815
 20
23.2922140278
 30
0.0
 10
-15.1743682593
 20
23.3408622289
 30
0.0
 10
-15.1529564588
 20
23.4015118866
 30
0.0
 10
-15.1312893646
 20
23.4436375955
 30
0.0
 10
-15.1048000579
 20
23.4806543155
 30
0.0
 10
-15.0660970694
 20
23.5197539487
 30
0.0
 10
-15.0302573964
 20
23.5404523829
 30
0.0
 10
-15.005634559
 20
23.5470209273
 30
0.0
  0
SPLINE
  5
46C
100
AcDbEntity
  8
RACCORDO
100
AcDbSpline
 62
250
  6
CONTINUOUS
 70
0
 71
3
 72
11
 73
7
 74
0
 42
0.0000001
 43
0.0000001
 44
0.0000000001
 40
0.0
 40
0.0
 40
0.0
 40
0.0
 40
0.230809093
 40
0.4994505127
 40
0.768380291
 40
1.0
 40
1.0
 40
1.0
 40
1.0
 10
-13.8563981352
 20
22.5379336403
 30
0.0
 10
-13.8299456094
 20
22.5310872228
 30
0.0
 10
-13.7712853518
 20
22.5219074394
 30
0.0
 10
-13.680315817
 20
22.5174442214
 30
0.0
 10
-13.5892428821
 20
22.5217794324
 30
0.0
 10
-13.5304407929
 20
22.5308723434
 30
0.0
 10
-13.5038761755
 20
22.5376682349
 30
0.0
  0
SPLINE
  5
46D
100
AcDbEntity
  8
RACCORDO
100
AcDbSpline
 62
250
  6
CONTINUOUS
 70
0
 71
3
 72
11
 73
7
 74
0
 42
0.0000001
 43
0.0000001
 44
0.0000000001
 40
0.0
 40
0.0
 40
0.0
 40
0.0
 40
0.230809093
 40
0.4994505127
 40
0.768380291
 40
1.0
 40
1.0
 40
1.0
 40
1.0
 10
-13.8563981352
 20
22.9171252919
 30
0.0
 10
-13.8299456094
 20
22.9102788745
 30
0.0
 10
-13.7712853518
 20
22.9010990911
 30
0.0
 10
-13.680315817
 20
22.8966358731
 30
0.0
 10
-13.5892428821
 20
22.9009710841
 30
0.0
 10
-13.5304407929
 20
22.9100639951
 30
0.0
 10
-13.5038761755
 20
22.9168598866
 30
0.0
  0
SPLINE
  5
46E
100
AcDbEntity
  8
RACCORDO
100
AcDbSpline
 62
250
  6
CONTINUOUS
 70
0
 71
3
 72
12
 73
8
 74
0
 42
0.0000001
 43
0.0000001
 44
0.0000000001
 40
0.0
 40
0.0
 40
0.0
 40
0.0
 40
0.2454226472
 40
0.5146817495
 40
0.7759448522
 40
0.8941696431
 40
1.0
 40
1.0
 40
1.0
 40
1.0
 10
-0.1395580111
 20
-26.9849947649
 30
0.0
 10
-0.1522439971
 20
-26.9583973953
 30
0.0
 10
-0.1864801693
 20
-26.9062278875
 30
0.0
 10
-0.2510458887
 20
-26.838575581
 30
0.0
 10
-0.3140996067
 20
-26.7918936908
 30
0.0
 10
-0.3659941643
 20
-26.7651613276
 30
0.0
 10
-0.3914071774
 20
-26.7559734717
 30
0.0
 10
-0.4036916231
 20
-26.7527236958
 30
0.0
  0
SPLINE
  5
46F
100
AcDbEntity
  8
RACCORDO
100
AcDbSpline
 62
7
  6
CONTINUOUS
 70
0
 71
3
 72
12
 73
8
 74
0
 42
0.0000001
 43
0.0000001
 44
0.0000000001
 40
0.0
 40
0.0
 40
0.0
 40
0.0
 40
0.2215897455
 40
0.4849771165
 40
0.7603015214
 40
0.888208378
 40
1.0
 40
1.0
 40
1.0
 40
1.0
 10
0.571662597
 20
-26.2453692639
 30
0.0
 10
0.546825727
 20
-26.2322477401
 30
0.0
 10
0.4913472016
 20
-26.205656841
 30
0.0
 10
0.4026290649
 20
-26.1679549636
 30
0.0
 10
0.3235113774
 20
-26.1381470297
 30
0.0
 10
0.2614995779
 20
-26.1177152101
 30
0.0
 10
0.2323456701
 20
-26.1091021885
 30
0.0
 10
0.218626409
 20
-26.1055513825
 30
0.0
  0
SPLINE
  5
470
100
AcDbEntity
  8
RACCORDO
100
AcDbSpline
 62
250
  6
CONTINUOUS
 70
0
 71
3
 72
13
 73
9
 74
0
 42
0.0000001
 43
0.0000001
 44
0.0000000001
 40
0.0
 40
0.0
 40
0.0
 40
0.0
 40
0.2785201964
 40
0.5455451664
 40
0.6700369221
 40
0.7868714942
 40
0.8963297399
 40
1.0
 40
1.0
 40
1.0
 40
1.0
 10
-13.5038761755
 20
22.5376682349
 30
0.0
 10
-13.5154924202
 20
22.5073702293
 30
0.0
 10
-13.5467317979
 20
22.4509688763
 30
0.0
 10
-13.6028922921
 20
22.3948935153
 30
0.0
 10
-13.6541577555
 20
22.3646716496
 30
0.0
 10
-13.6928910969
 20
22.3507753113
 30
0.0
 10
-13.7313256921
 20
22.3457584374
 30
0.0
 10
-13.7563137807
 20
22.3486678955
 30
0.0
 10
-13.7680097875
 20
22.3516811521
 30
0.0
  0
SPLINE
  5
471
100
AcDbEntity
  8
RACCORDO
100
AcDbSpline
 62
7
  6
CONTINUOUS
 70
0
 71
3
 72
12
 73
8
 74
0
 42
0.0000001
 43
0.0000001
 44
0.0000000001
 40
0.0
 40
0.0
 40
0.0
 40
0.0
 40
0.2513649187
 40
0.5180150028
 40
0.7774205688
 40
0.8951967543
 40
1.0
 40
1.0
 40
1.0
 40
1.0
 10
-12.7926555674
 20
22.1619386642
 30
0.0
 10
-12.8154902434
 20
22.1381915571
 30
0.0
 10
-12.8683202303
 20
22.0946264308
 30
0.0
 10
-12.9581889655
 20
22.0455831896
 30
0.0
 10
-13.0398884741
 20
22.020730022
 30
0.0
 10
-13.1031195217
 20
22.0160648671
 30
0.0
 10
-13.1323941068
 20
22.019476093
 30
0.0
 10
-13.1456917554
 20
22.0229177777
 30
0.0
  0
SPLINE
  5
472
100
AcDbEntity
  8
RACCORDO
100
AcDbSpline
 62
250
  6
CONTINUOUS
 70
0
 71
3
 72
11
 73
7
 74
0
 42
0.0000001
 43
0.0000001
 44
0.0000000001
 40
0.0
 40
0.0
 40
0.0
 40
0.0
 40
0.2841305059
 40
0.5462756446
 40
0.7835833315
 40
1.0
 40
1.0
 40
1.0
 40
1.0
 10
-15.181382815
 20
22.8808649099
 30
0.0
 10
-15.181382815
 20
22.8604520518
 30
0.0
 10
-15.1777642653
 20
22.8210649466
 30
0.0
 10
-15.1605936058
 20
22.7669194029
 30
0.0
 10
-15.1326787776
 20
22.7229211045
 30
0.0
 10
-15.1067331441
 20
22.7018919432
 30
0.0
 10
-15.0929944673
 20
22.6946124217
 30
0.0
  0
SPLINE
  5
473
100
AcDbEntity
  8
RACCORDO
100
AcDbSpline
 62
250
  6
CONTINUOUS
 70
0
 71
3
 72
11
 73
7
 74
0
 42
0.0000001
 43
0.0000001
 44
0.0000000001
 40
0.0
 40
0.0
 40
0.0
 40
0.0
 40
0.2841305059
 40
0.5462756446
 40
0.7835833315
 40
1.0
 40
1.0
 40
1.0
 40
1.0
 10
-13.8563981352
 20
22.5379336403
 30
0.0
 10
-13.8563981352
 20
22.5175207822
 30
0.0
 10
-13.8527795855
 20
22.4781336769
 30
0.0
 10
-13.835608926
 20
22.4239881333
 30
0.0
 10
-13.8076940978
 20
22.3799898349
 30
0.0
 10
-13.7817484642
 20
22.3589606736
 30
0.0
 10
-13.7680097875
 20
22.3516811521
 30
0.0
  0
SPLINE
  5
474
100
AcDbEntity
  8
RACCORDO
100
AcDbSpline
 62
250
  6
CONTINUOUS
 70
0
 71
3
 72
11
 73
7
 74
0
 42
0.0000001
 43
0.0000001
 44
0.0000000001
 40
0.0
 40
0.0
 40
0.0
 40
0.0
 40
0.230809093
 40
0.4994505127
 40
0.768380291
 40
1.0
 40
1.0
 40
1.0
 40
1.0
 10
-13.8563981352
 20
-23.9049809454
 30
0.0
 10
-13.8299456094
 20
-23.9118273628
 30
0.0
 10
-13.7712853518
 20
-23.9210071462
 30
0.0
 10
-13.680315817
 20
-23.9254703642
 30
0.0
 10
-13.5892428821
 20
-23.9211351533
 30
0.0
 10
-13.5304407929
 20
-23.9120422423
 30
0.0
 10
-13.5038761755
 20
-23.9052463508
 30
0.0
  0
SPLINE
  5
475
100
AcDbEntity
  8
RACCORDO
100
AcDbSpline
 62
250
  6
CONTINUOUS
 70
0
 71
3
 72
13
 73
9
 74
0
 42
0.0000001
 43
0.0000001
 44
0.0000000001
 40
0.0
 40
0.0
 40
0.0
 40
0.0
 40
0.2698903918
 40
0.4059069512
 40
0.5387967579
 40
0.6661470317
 40
0.7861199692
 40
1.0
 40
1.0
 40
1.0
 40
1.0
 10
-0.4920799707
 20
19.4581852262
 30
0.0
 10
-0.4920799707
 20
19.490342746
 30
0.0
 10
-0.485065393
 20
19.5389910045
 30
0.0
 10
-0.4636535475
 20
19.5996407047
 30
0.0
 10
-0.4419864337
 20
19.6417664027
 30
0.0
 10
-0.4154971139
 20
19.6787831005
 30
0.0
 10
-0.3767941408
 20
19.7178826734
 30
0.0
 10
-0.340954508
 20
19.7385810593
 30
0.0
 10
-0.3163317148
 20
19.7451495919
 30
0.0
  0
SPLINE
  5
476
100
AcDbEntity
  8
RACCORDO
100
AcDbSpline
 62
250
  6
CONTINUOUS
 70
0
 71
3
 72
13
 73
9
 74
0
 42
0.0000001
 43
0.0000001
 44
0.0000000001
 40
0.0
 40
0.0
 40
0.0
 40
0.0
 40
0.26989027
 40
0.4059067685
 40
0.5387965248
 40
0.6661467578
 40
0.786119685
 40
1.0
 40
1.0
 40
1.0
 40
1.0
 10
-1.8170646506
 20
19.8011164958
 30
0.0
 10
-1.8170646506
 20
19.8332740009
 30
0.0
 10
-1.8100500793
 20
19.881922237
 30
0.0
 10
-1.7886382532
 20
19.9425719141
 30
0.0
 10
-1.7669711563
 20
19.9846975998
 30
0.0
 10
-1.7404818549
 20
20.0217142956
 30
0.0
 10
-1.7017788772
 20
20.0608139014
 30
0.0
 10
-1.6659392204
 20
20.0815123202
 30
0.0
 10
-1.6413163946
 20
20.0880808615
 30
0.0
  0
SPLINE
  5
477
100
AcDbEntity
  8
RACCORDO
100
AcDbSpline
 62
250
  6
CONTINUOUS
 70
0
 71
3
 72
11
 73
7
 74
0
 42
0.0000001
 43
0.0000001
 44
0.0000000001
 40
0.0
 40
0.0
 40
0.0
 40
0.0
 40
0.230809093
 40
0.4994505127
 40
0.768380291
 40
1.0
 40
1.0
 40
1.0
 40
1.0
 10
-0.4920799707
 20
19.0789935745
 30
0.0
 10
-0.465627445
 20
19.0721471571
 30
0.0
 10
-0.4069671874
 20
19.0629673737
 30
0.0
 10
-0.3159976526
 20
19.0585041557
 30
0.0
 10
-0.2249247177
 20
19.0628393666
 30
0.0
 10
-0.1661226284
 20
19.0719322776
 30
0.0
 10
-0.1395580111
 20
19.0787281691
 30
0.0
  0
SPLINE
  5
478
100
AcDbEntity
  8
RACCORDO
100
AcDbSpline
 62
250
  6
CONTINUOUS
 70
0
 71
3
 72
11
 73
7
 74
0
 42
0.0000001
 43
0.0000001
 44
0.0000000001
 40
0.0
 40
0.0
 40
0.0
 40
0.0
 40
0.2308092096
 40
0.4994507629
 40
0.7683806105
 40
1.0
 40
1.0
 40
1.0
 40
1.0
 10
-0.4920799707
 20
19.4581852262
 30
0.0
 10
-0.4656274316
 20
19.4513388053
 30
0.0
 10
-0.4069671439
 20
19.4421590199
 30
0.0
 10
-0.3159975712
 20
19.4376958064
 30
0.0
 10
-0.22492465
 20
19.4420310246
 30
0.0
 10
-0.1661225918
 20
19.4511239387
 30
0.0
 10
-0.1395580111
 20
19.4579198208
 30
0.0
  0
SPLINE
  5
479
100
AcDbEntity
  8
RACCORDO
100
AcDbSpline
 62
7
  6
CONTINUOUS
 70
0
 71
3
 72
13
 73
9
 74
0
 42
0.0000001
 43
0.0000001
 44
0.0000000001
 40
0.0
 40
0.0
 40
0.0
 40
0.0
 40
0.270107401
 40
0.4062113593
 40
0.5391463814
 40
0.6664850832
 40
0.7863854384
 40
1.0
 40
1.0
 40
1.0
 40
1.0
 10
1.4617227797
 20
19.8802196289
 30
0.0
 10
1.4617227797
 20
19.9124968109
 30
0.0
 10
1.4546571209
 20
19.9613255848
 30
0.0
 10
1.433093434
 20
20.0221659376
 30
0.0
 10
1.4112797166
 20
20.0643892463
 30
0.0
 10
1.3846209936
 20
20.1014449239
 30
0.0
 10
1.3457005414
 20
20.1404962629
 30
0.0
 10
1.3096612161
 20
20.1610534276
 30
0.0
 10
1.2849490761
 20
20.1674494
 30
0.0
  0
SPLINE
  5
47A
100
AcDbEntity
  8
RACCORDO
100
AcDbSpline
 62
250
  6
CONTINUOUS
 70
0
 71
3
 72
13
 73
9
 74
0
 42
0.0000001
 43
0.0000001
 44
0.0000000001
 40
0.0
 40
0.0
 40
0.0
 40
0.0
 40
0.270242026
 40
0.4064881044
 40
0.5395587266
 40
0.6669805394
 40
0.7868661009
 40
1.0
 40
1.0
 40
1.0
 40
1.0
 10
-0.1395580111
 20
19.4579198208
 30
0.0
 10
-0.139696369
 20
19.4901840173
 30
0.0
 10
-0.1469291124
 20
19.53896613
 30
0.0
 10
-0.1685964031
 20
19.5997582862
 30
0.0
 10
-0.1904344576
 20
19.6419667155
 30
0.0
 10
-0.217060019
 20
19.6790234977
 30
0.0
 10
-0.255839471
 20
19.7180689001
 30
0.0
 10
-0.2917156184
 20
19.7387027692
 30
0.0
 10
-0.3163317148
 20
19.7451495919
 30
0.0
  0
SPLINE
  5
47B
100
AcDbEntity
  8
RACCORDO
100
AcDbSpline
 62
250
  6
CONTINUOUS
 70
0
 71
3
 72
12
 73
8
 74
0
 42
0.0000001
 43
0.0000001
 44
0.0000000001
 40
0.0
 40
0.0
 40
0.0
 40
0.0
 40
0.2701453275
 40
0.5384311706
 40
0.6657691424
 40
0.7857647101
 40
1.0
 40
1.0
 40
1.0
 40
1.0
 10
1.9899899515
 20
20.0143225688
 30
0.0
 10
1.9901265118
 20
20.0466113904
 30
0.0
 10
1.9810045136
 20
20.1112364627
 30
0.0
 10
1.9494590274
 20
20.1854203872
 30
0.0
 10
1.9132873654
 20
20.2356627147
 30
0.0
 10
1.8742213701
 20
20.2747218849
 30
0.0
 10
1.8380235207
 20
20.2952048782
 30
0.0
 10
1.8132162478
 20
20.3015523399
 30
0.0
  0
SPLINE
  5
47C
100
AcDbEntity
  8
RACCORDO
100
AcDbSpline
 62
250
  6
CONTINUOUS
 70
0
 71
3
 72
9
 73
5
 74
0
 42
0.0000001
 43
0.0000001
 44
0.0000000001
 40
0.0
 40
0.0
 40
0.0
 40
0.0
 40
0.5085410024
 40
1.0
 40
1.0
 40
1.0
 40
1.0
 10
0.4758900873
 20
20.6476778198
 30
0.0
 10
0.4657752349
 20
20.6503259042
 30
0.0
 10
0.4452077335
 20
20.6533241913
 30
0.0
 10
0.4245096359
 20
20.6510196846
 30
0.0
 10
0.4147021608
 20
20.648587601
 30
0.0
  0
SPLINE
  5
47D
100
AcDbEntity
  8
RACCORDO
100
AcDbSpline
 62
7
  6
CONTINUOUS
 70
0
 71
3
 72
9
 73
5
 74
0
 42
0.0000001
 43
0.0000001
 44
0.0000000001
 40
0.0
 40
0.0
 40
0.0
 40
0.0
 40
0.5087244151
 40
1.0
 40
1.0
 40
1.0
 40
1.0
 10
-0.0585597914
 20
20.5151750822
 30
0.0
 10
-0.0687333791
 20
20.5178082005
 30
0.0
 10
-0.0894008907
 20
20.5207785095
 30
0.0
 10
-0.1101927316
 20
20.5184537602
 30
0.0
 10
-0.1200428943
 20
20.5160116833
 30
0.0
  0
SPLINE
  5
47E
100
AcDbEntity
  8
RACCORDO
100
AcDbSpline
 62
250
  6
CONTINUOUS
 70
0
 71
3
 72
9
 73
5
 74
0
 42
0.0000001
 43
0.0000001
 44
0.0000000001
 40
0.0
 40
0.0
 40
0.0
 40
0.0
 40
0.5089436419
 40
1.0
 40
1.0
 40
1.0
 40
1.0
 10
-1.6413163946
 20
20.0880808615
 30
0.0
 10
-1.6519237303
 20
20.090793996
 30
0.0
 10
-1.6734815465
 20
20.0937571735
 30
0.0
 10
-1.695115278
 20
20.0910068905
 30
0.0
 10
-1.7053168554
 20
20.0882634953
 30
0.0
  0
SPLINE
  5
47F
100
AcDbEntity
  8
RACCORDO
100
AcDbSpline
 62
250
  6
CONTINUOUS
 70
0
 71
3
 72
11
 73
7
 74
0
 42
0.0000001
 43
0.0000001
 44
0.0000000001
 40
0.0
 40
0.0
 40
0.0
 40
0.0
 40
0.3641545845
 40
0.5176063167
 40
0.6511618558
 40
1.0
 40
1.0
 40
1.0
 40
1.0
 10
-1.8170646506
 20
19.8011164958
 30
0.0
 10
-1.8275850198
 20
19.8038393677
 30
0.0
 10
-1.8423645338
 20
19.8082781516
 30
0.0
 10
-1.8603865079
 20
19.8159892557
 30
0.0
 10
-1.876676346
 20
19.8246288595
 30
0.0
 10
-1.8902881232
 20
19.8364595987
 30
0.0
 10
-1.8902879529
 20
19.8468695522
 30
0.0
  0
SPLINE
  5
480
100
AcDbEntity
  8
RACCORDO
100
AcDbSpline
 62
250
  6
CONTINUOUS
 70
0
 71
3
 72
11
 73
7
 74
0
 42
0.0000001
 43
0.0000001
 44
0.0000000001
 40
0.0
 40
0.0
 40
0.0
 40
0.0
 40
0.364155794
 40
0.5176073593
 40
0.6511626265
 40
1.0
 40
1.0
 40
1.0
 40
1.0
 10
-1.8170646506
 20
19.4219248441
 30
0.0
 10
-1.8275850667
 20
19.4246477282
 30
0.0
 10
-1.8423646285
 20
19.4290865245
 30
0.0
 10
-1.8603866373
 20
19.4367976655
 30
0.0
 10
-1.8766764526
 20
19.4454372785
 30
0.0
 10
-1.8902881843
 20
19.4572680771
 30
0.0
 10
-1.8902879531
 20
19.4676780196
 30
0.0
  0
SPLINE
  5
481
100
AcDbEntity
  8
RACCORDO
100
AcDbSpline
 62
250
  6
CONTINUOUS
 70
0
 71
3
 72
11
 73
7
 74
0
 42
0.0000001
 43
0.0000001
 44
0.0000000001
 40
0.0
 40
0.0
 40
0.0
 40
0.0
 40
0.2841305059
 40
0.5462756446
 40
0.7835833315
 40
1.0
 40
1.0
 40
1.0
 40
1.0
 10
-1.8170646506
 20
19.4219248441
 30
0.0
 10
-1.8170646506
 20
19.401511986
 30
0.0
 10
-1.8134461009
 20
19.3621248808
 30
0.0
 10
-1.7962754414
 20
19.3079793372
 30
0.0
 10
-1.7683606132
 20
19.2639810387
 30
0.0
 10
-1.7424149796
 20
19.2429518775
 30
0.0
 10
-1.7286763029
 20
19.2356723559
 30
0.0
  0
SPLINE
  5
482
100
AcDbEntity
  8
RACCORDO
100
AcDbSpline
 62
250
  6
CONTINUOUS
 70
0
 71
3
 72
11
 73
7
 74
0
 42
0.0000001
 43
0.0000001
 44
0.0000000001
 40
0.0
 40
0.0
 40
0.0
 40
0.0
 40
0.2841305059
 40
0.5462756446
 40
0.7835833315
 40
1.0
 40
1.0
 40
1.0
 40
1.0
 10
-0.4920799707
 20
19.0789935745
 30
0.0
 10
-0.4920799707
 20
19.0585807164
 30
0.0
 10
-0.4884614211
 20
19.0191936112
 30
0.0
 10
-0.4712907615
 20
18.9650480676
 30
0.0
 10
-0.4433759334
 20
18.9210497691
 30
0.0
 10
-0.4174302998
 20
18.9000206079
 30
0.0
 10
-0.4036916231
 20
18.8927410863
 30
0.0
  0
SPLINE
  5
483
100
AcDbEntity
  8
RACCORDO
100
AcDbSpline
 62
250
  6
CONTINUOUS
 70
0
 71
3
 72
11
 73
7
 74
0
 42
0.0000001
 43
0.0000001
 44
0.0000000001
 40
0.0
 40
0.0
 40
0.0
 40
0.0
 40
0.3641557975
 40
0.5176073724
 40
0.6511626212
 40
1.0
 40
1.0
 40
1.0
 40
1.0
 10
-15.181382815
 20
-23.5620496758
 30
0.0
 10
-15.1919032313
 20
-23.5593267917
 30
0.0
 10
-15.2066827938
 20
-23.5548879953
 30
0.0
 10
-15.2247048016
 20
-23.5471768544
 30
0.0
 10
-15.2409946191
 20
-23.5385372405
 30
0.0
 10
-15.2546063352
 20
-23.5267064429
 30
0.0
 10
-15.2546061178
 20
-23.5162965003
 30
0.0
  0
SPLINE
  5
484
100
AcDbEntity
  8
RACCORDO
100
AcDbSpline
 62
7
  6
CONTINUOUS
 70
0
 71
3
 72
9
 73
5
 74
0
 42
0.0000001
 43
0.0000001
 44
0.0000000001
 40
0.0
 40
0.0
 40
0.0
 40
0.0
 40
0.4674941588
 40
1.0
 40
1.0
 40
1.0
 40
1.0
 10
0.571662597
 20
17.801233104
 30
0.0
 10
0.5547968412
 20
17.7957010614
 30
0.0
 10
0.5177385687
 20
17.7868734661
 30
0.0
 10
0.4801038878
 20
17.7816860748
 30
0.0
 10
0.4600156545
 20
17.7793971285
 30
0.0
  0
SPLINE
  5
485
100
AcDbEntity
  8
RACCORDO
100
AcDbSpline
 62
7
  6
CONTINUOUS
 70
0
 71
3
 72
12
 73
8
 74
0
 42
0.0000001
 43
0.0000001
 44
0.0000000001
 40
0.0
 40
0.0
 40
0.0
 40
0.0
 40
0.1049470442
 40
0.222797223
 40
0.482206724
 40
0.7487459351
 40
1.0
 40
1.0
 40
1.0
 40
1.0
 10
0.2191406374
 20
18.5638446199
 30
0.0
 10
0.2324387075
 20
18.5604028261
 30
0.0
 10
0.2617281959
 20
18.557155434
 30
0.0
 10
0.3248827528
 20
18.5618745812
 30
0.0
 10
0.4064448776
 20
18.5867976036
 30
0.0
 10
0.4961414564
 20
18.6357942912
 30
0.0
 10
0.548868543
 20
18.6792937365
 30
0.0
 10
0.571662597
 20
18.7029985984
 30
0.0
  0
SPLINE
  5
486
100
AcDbEntity
  8
RACCORDO
100
AcDbSpline
 62
250
  6
CONTINUOUS
 70
0
 71
3
 72
13
 73
9
 74
0
 42
0.0000001
 43
0.0000001
 44
0.0000000001
 40
0.0
 40
0.0
 40
0.0
 40
0.0
 40
0.2785201964
 40
0.5455451664
 40
0.6700369221
 40
0.7868714942
 40
0.8963297399
 40
1.0
 40
1.0
 40
1.0
 40
1.0
 10
-0.1395580111
 20
19.0787281691
 30
0.0
 10
-0.1511742557
 20
19.0484301635
 30
0.0
 10
-0.1824136335
 20
18.9920288105
 30
0.0
 10
-0.2385741277
 20
18.9359534495
 30
0.0
 10
-0.2898395911
 20
18.9057315838
 30
0.0
 10
-0.3285729325
 20
18.8918352456
 30
0.0
 10
-0.3670075277
 20
18.8868183716
 30
0.0
 10
-0.3919956163
 20
18.8897278298
 30
0.0
 10
-0.4036916231
 20
18.8927410863
 30
0.0
  0
SPLINE
  5
487
100
AcDbEntity
  8
RACCORDO
100
AcDbSpline
 62
250
  6
CONTINUOUS
 70
0
 71
3
 72
11
 73
7
 74
0
 42
0.0000001
 43
0.0000001
 44
0.0000000001
 40
0.0
 40
0.0
 40
0.0
 40
0.0
 40
0.2893263163
 40
0.5518202031
 40
0.7855767065
 40
1.0
 40
1.0
 40
1.0
 40
1.0
 10
-13.8563981352
 20
-23.9049809454
 30
0.0
 10
-13.8563981352
 20
-23.9283951397
 30
0.0
 10
-13.8516842544
 20
-23.9732768274
 30
0.0
 10
-13.8291024082
 20
-24.0335787876
 30
0.0
 10
-13.7923758019
 20
-24.0794178713
 30
0.0
 10
-13.7590608183
 20
-24.0969036761
 30
0.0
 10
-13.7422620387
 20
-24.1012524585
 30
0.0
  0
SPLINE
  5
488
100
AcDbEntity
  8
RACCORDO
100
AcDbSpline
 62
250
  6
CONTINUOUS
 70
0
 71
3
 72
11
 73
7
 74
0
 42
0.0000001
 43
0.0000001
 44
0.0000000001
 40
0.0
 40
0.0
 40
0.0
 40
0.0
 40
0.2889713164
 40
0.5514867859
 40
0.7855300842
 40
1.0
 40
1.0
 40
1.0
 40
1.0
 10
-15.181382815
 20
-23.5620496758
 30
0.0
 10
-15.181382815
 20
-23.585235593
 30
0.0
 10
-15.1767569514
 20
-23.6297021197
 30
0.0
 10
-15.1546128955
 20
-23.6895545534
 30
0.0
 10
-15.1186077618
 20
-23.7353089484
 30
0.0
 10
-15.0858637967
 20
-23.7531605923
 30
0.0
 10
-15.0692854362
 20
-23.7577737005
 30
0.0
  0
SPLINE
  5
489
100
AcDbEntity
  8
RACCORDO
100
AcDbSpline
 62
250
  6
CONTINUOUS
 70
0
 71
3
 72
25
 73
21
 74
0
 42
0.0000001
 43
0.0000001
 44
0.0000000001
 40
0.0
 40
0.0
 40
0.0
 40
0.0
 40
0.0240828242
 40
0.0483542422
 40
0.0729462532
 40
0.0979796322
 40
0.1497257745
 40
0.2042858411
 40
0.2619940211
 40
0.322899462
 40
0.3868049683
 40
0.4533133938
 40
0.5218739577
 40
0.5918261708
 40
0.6624410763
 40
0.7329602799
 40
0.8026338356
 40
0.8707577486
 40
0.9367121035
 40
1.0
 40
1.0
 40
1.0
 40
1.0
 10
-10.9131732467
 20
-9.8306221151
 30
0.0
 10
-10.8099263126
 20
-9.7982687914
 30
0.0
 10
-10.6058491059
 20
-9.7224642231
 30
0.0
 10
-10.3114953328
 20
-9.5771647597
 30
0.0
 10
-10.0295856831
 20
-9.4007390397
 30
0.0
 10
-9.6683661147
 20
-9.1223562844
 30
0.0
 10
-9.2542730554
 20
-8.6970973644
 30
0.0
 10
-8.8349926548
 20
-8.0874639426
 30
0.0
 10
-8.4943121676
 20
-7.3850421658
 30
0.0
 10
-8.2380779673
 20
-6.6037680431
 30
0.0
 10
-8.0705415298
 20
-5.7587557295
 30
0.0
 10
-7.9945585296
 20
-4.8663535598
 30
0.0
 10
-8.0113897731
 20
-3.9438569161
 30
0.0
 10
-8.1206493227
 20
-3.009209945
 30
0.0
 10
-8.3202658598
 20
-2.0806495166
 30
0.0
 10
-8.6065050094
 20
-1.1763319977
 30
0.0
 10
-8.9740092203
 20
-0.3139797785
 30
0.0
 10
-9.4159596507
 20
0.489540387
 30
0.0
 10
-9.9239818591
 20
1.2183242869
 30
0.0
 10
-10.3093586515
 20
1.6548787512
 30
0.0
 10
-10.5108317657
 20
1.8555147662
 30
0.0
  0
SPLINE
  5
48A
100
AcDbEntity
  8
RACCORDO
100
AcDbSpline
 62
250
  6
CONTINUOUS
 70
0
 71
3
 72
9
 73
5
 74
0
 42
0.0000001
 43
0.0000001
 44
0.0000000001
 40
0.0
 40
0.0
 40
0.0
 40
0.0
 40
0.2533025547
 40
1.0
 40
1.0
 40
1.0
 40
1.0
 10
-10.5161162295
 20
1.8607713419
 30
0.0
 10
-10.5499543266
 20
1.8943929057
 30
0.0
 10
-10.6849750109
 20
2.0256729158
 30
0.0
 10
-10.8257701238
 20
2.1510357009
 30
0.0
 10
-10.9340401628
 20
2.2407609337
 30
0.0
  0
ELLIPSE
  5
48B
100
AcDbEntity
  8
RACCORDO
100
AcDbEllipse
 62
7
  6
CONTINUOUS
 10
16.8977764567
 20
4.8899581208
 30
0.0
 11
0.4999436713
 21
0.0950930821
 31
0.0
 40
0.0789230108
 41
-0.7829554993
 42
-0.0150106021
  0
ELLIPSE
  5
48C
100
AcDbEntity
  8
RACCORDO
100
AcDbEllipse
 62
7
  6
CONTINUOUS
 10
16.8977764567
 20
-1.8715226633
 30
0.0
 11
0.4999436713
 21
0.0950930821
 31
0.0
 40
0.0789230108
 41
-0.7829554993
 42
-0.0150106021
  0
ELLIPSE
  5
48D
100
AcDbEntity
  8
DRAFT
100
AcDbEllipse
 62
7
  6
CONTINUOUS
 10
-278.0558790167
 20
-64.8078257219
 30
0.0
 11
1039.060593838
 21
258.4973301161
 31
0.0
 40
0.0048580813
 41
-1.2918878845
 42
-1.2911956375
  0
ELLIPSE
  5
48E
100
AcDbEntity
  8
RACCORDO
100
AcDbEllipse
 62
7
  6
CONTINUOUS
 10
8.3957963924
 20
22.7751910304
 30
0.0
 11
0.2465245101
 21
0.9691414166
 31
0.0
 40
0.6770457629
 41
-1.2114016898
 42
-1.0274970521
  0
ELLIPSE
  5
48F
100
AcDbEntity
  8
RACCORDO
100
AcDbEllipse
 62
7
  6
CONTINUOUS
 10
12.2650801007
 20
21.7737467158
 30
0.0
 11
0.7425223313
 21
0.8124890043
 31
0.0
 40
0.4510449604
 41
0.2345492089
 42
0.5793133745
  0
ELLIPSE
  5
490
100
AcDbEntity
  8
RACCORDO
100
AcDbEllipse
 62
7
  6
CONTINUOUS
 10
15.8204175948
 20
20.8535576606
 30
0.0
 11
0.2465245101
 21
0.9691414166
 31
0.0
 40
0.6770457629
 41
-1.2114016898
 42
-1.0274970521
  0
ELLIPSE
  5
491
100
AcDbEntity
  8
RACCORDO
100
AcDbEllipse
 62
7
  6
CONTINUOUS
 10
19.6897013032
 20
19.852113346
 30
0.0
 11
0.7425223313
 21
0.8124890043
 31
0.0
 40
0.4510449604
 41
0.2345492089
 42
0.5793133745
  0
ELLIPSE
  5
492
100
AcDbEntity
  8
RACCORDO
100
AcDbEllipse
 62
7
  6
CONTINUOUS
 10
15.9020775471
 20
20.8324225097
 30
0.0
 11
-0.4773913563
 21
1.0467440053
 31
0.0
 40
0.6192275679
 41
4.7933225795
 42
6.162760976
  0
ELLIPSE
  5
493
100
AcDbEntity
  8
DRAFT
100
AcDbEllipse
 62
7
  6
CONTINUOUS
 10
9.9207063482
 20
-4.8498583853
 30
0.0
 11
0.2537405875
 21
1.0146490669
 31
0.0
 40
0.6710713029
 41
0.3607616781
 42
3.4942550491
  0
ELLIPSE
  5
494
100
AcDbEntity
  8
DRAFT
100
AcDbEllipse
 62
7
  6
CONTINUOUS
 10
9.9207063482
 20
1.9116223987
 30
0.0
 11
0.2537405875
 21
1.0146490669
 31
0.0
 40
0.6710713029
 41
0.3607616781
 42
3.4942550491
  0
ELLIPSE
  5
495
100
AcDbEntity
  8
RACCORDO
100
AcDbEllipse
 62
7
  6
CONTINUOUS
 10
8.4774563447
 20
22.7540558796
 30
0.0
 11
-0.4773913563
 21
1.0467440053
 31
0.0
 40
0.6192275679
 41
4.7933225795
 42
6.162760976
  0
ELLIPSE
  5
496
100
AcDbEntity
  8
RACCORDO
100
AcDbEllipse
 62
7
  6
CONTINUOUS
 10
16.8977764567
 20
3.0457897552
 30
0.0
 11
0.4976884619
 21
-0.114985396
 31
0.0
 40
0.4176431104
 41
-0.6717508709
 42
0.8815921634
  0
ELLIPSE
  5
497
100
AcDbEntity
  8
RACCORDO
100
AcDbEllipse
 62
7
  6
CONTINUOUS
 10
16.8977764567
 20
-3.7156910288
 30
0.0
 11
0.4976884619
 21
-0.114985396
 31
0.0
 40
0.4176431104
 41
-0.6717508709
 42
0.8815921634
  0
ELLIPSE
  5
498
100
AcDbEntity
  8
ASSI
100
AcDbEllipse
 62
7
  6
CONTINUOUS
 10
-3.8460797164
 20
23.0393817954
 30
0.0
 11
0.126661453
 21
0.4836919989
 31
0.0
 40
0.6869834038
 41
0.2145801011
 42
0.3583593449
  0
ELLIPSE
  5
499
100
AcDbEntity
  8
RACCORDO
100
AcDbEllipse
 62
7
  6
CONTINUOUS
 10
6.7184258103
 20
19.2156057285
 30
0.0
 11
0.4999992799
 21
0.0032049622
 31
0.0
 40
0.2647694907
 41
-0.7696420241
 42
-0.0016971557
  0
ELLIPSE
  5
49A
100
AcDbEntity
  8
RACCORDO
100
AcDbEllipse
 62
7
  6
CONTINUOUS
 10
2.1687757048
 20
-24.5057868026
 30
0.0
 11
-0.1252578728
 21
0.4840572706
 31
0.0
 40
0.6831400813
 41
-3.1397444625
 42
-1.9328855987
  0
ELLIPSE
  5
49B
100
AcDbEntity
  8
RACCORDO
100
AcDbEllipse
 62
7
  6
CONTINUOUS
 10
2.1687757048
 20
17.784868594
 30
0.0
 11
-0.1254118965
 21
0.4840695348
 31
0.0
 40
0.6830021633
 41
-1.9333514203
 42
-0.3624027944
  0
ELLIPSE
  5
49C
100
AcDbEntity
  8
RACCORDO
100
AcDbEllipse
 62
7
  6
CONTINUOUS
 10
-9.1781713803
 20
22.013533669
 30
0.0
 11
0.4999996855
 21
0.0021342107
 31
0.0
 40
0.2627882395
 41
2.3608905632
 42
3.0014859576
  0
ELLIPSE
  5
49D
100
AcDbEntity
  8
RACCORDO
100
AcDbEllipse
 62
7
  6
CONTINUOUS
 10
6.8974695162
 20
-21.876587319
 30
0.0
 11
0.9776982254
 21
0.756867216
 31
0.0
 40
0.2774789412
 41
-2.559057853
 42
-1.4597523798
  0
ELLIPSE
  5
49E
100
AcDbEntity
  8
ASSI
100
AcDbEllipse
 62
7
  6
CONTINUOUS
 10
2.3147525544
 20
21.4448410701
 30
0.0
 11
0.1239286936
 21
0.4843993505
 31
0.0
 40
0.6790361933
 41
0.2107238413
 42
0.354503085
  0
ELLIPSE
  5
49F
100
AcDbEntity
  8
RACCORDO
100
AcDbEllipse
 62
7
  6
CONTINUOUS
 10
6.8974695162
 20
19.2963743448
 30
0.0
 11
-0.8398398734
 21
1.0848797999
 31
0.0
 40
0.500363466
 41
4.9635631786
 42
6.0628686518
  0
ELLIPSE
  5
4A0
100
AcDbEntity
  8
RACCORDO
100
AcDbEllipse
 62
7
  6
CONTINUOUS
 10
6.7184258103
 20
-22.3747758599
 30
0.0
 11
0.4888491127
 21
0.378433608
 31
0.0
 40
0.2774789412
 41
5.9467651858
 42
6.839540169
  0
ELLIPSE
  5
4A1
100
AcDbEntity
  8
DRAFT
100
AcDbEllipse
 62
7
  6
CONTINUOUS
 10
-3.4922248854
 20
22.0831556307
 30
0.0
 11
0.427969433
 21
-0.002725172
 31
0.0
 40
0.2528488867
 41
-0.7837881042
 42
0.0016100537
  0
ELLIPSE
  5
4A2
100
AcDbEntity
  8
DRAFT
100
AcDbEllipse
 62
7
  6
CONTINUOUS
 10
2.0627635438
 20
20.6454188299
 30
0.0
 11
0.427969433
 21
-0.002725172
 31
0.0
 40
0.2528488867
 41
-0.7779703401
 42
0.0016100543
  0
ELLIPSE
  5
4A3
100
AcDbEntity
  8
RACCORDO
100
AcDbEllipse
 62
7
  6
CONTINUOUS
 10
6.7184258103
 20
20.2532681314
 30
0.0
 11
-0.4199199367
 21
0.5424399
 31
0.0
 40
0.500363466
 41
-3.3357293702
 42
-2.442954387
  0
ELLIPSE
  5
4A4
100
AcDbEntity
  8
RACCORDO
100
AcDbEllipse
 62
7
  6
CONTINUOUS
 10
-9.1781713803
 20
20.6387362945
 30
0.0
 11
0.4999667658
 21
0.0195947974
 31
0.0
 40
0.2942014912
 41
3.1300627597
 42
3.9154609243
  0
ELLIPSE
  5
4A5
100
AcDbEntity
  8
RACCORDO
100
AcDbEllipse
 62
7
  6
CONTINUOUS
 10
-3.6668642806
 20
19.2123050537
 30
0.0
 11
0.4999667658
 21
0.0195947974
 31
0.0
 40
0.2942014912
 41
-2.3677243829
 42
-0.8027458203
  0
ELLIPSE
  5
4A6
100
AcDbEntity
  8
RACCORDO
100
AcDbEllipse
 62
7
  6
CONTINUOUS
 10
-3.6668642806
 20
20.5871024282
 30
0.0
 11
0.4999996855
 21
0.0021342107
 31
0.0
 40
0.2627882395
 41
-1.4329330132
 42
-0.7923376187
  0
ELLIPSE
  5
4A7
100
AcDbEntity
  8
RACCORDO
100
AcDbEllipse
 62
7
  6
CONTINUOUS
 10
-14.3016131654
 20
21.6522950315
 30
0.0
 11
0.2499833829
 21
0.0097973987
 31
0.0
 40
0.2942014912
 41
3.130062767
 42
3.9154609243
  0
ELLIPSE
  5
4A8
100
AcDbEntity
  8
RACCORDO
100
AcDbEllipse
 62
7
  6
CONTINUOUS
 10
-12.9684008318
 20
21.3072342884
 30
0.0
 11
0.2499833829
 21
0.0097973987
 31
0.0
 40
0.2942014912
 41
-2.3677243829
 42
-0.8027458203
  0
ELLIPSE
  5
4A9
100
AcDbEntity
  8
RACCORDO
100
AcDbEllipse
 62
7
  6
CONTINUOUS
 10
-0.937295001
 20
18.1933549657
 30
0.0
 11
0.2499833829
 21
0.0097973987
 31
0.0
 40
0.2942014912
 41
3.1300627609
 42
3.9154609243
  0
ELLIPSE
  5
4AA
100
AcDbEntity
  8
RACCORDO
100
AcDbEllipse
 62
7
  6
CONTINUOUS
 10
0.3959173327
 20
17.8482942226
 30
0.0
 11
0.2499833829
 21
0.0097973987
 31
0.0
 40
0.2942014912
 41
-2.3677243829
 42
-1.3230373191
  0
ENDSEC
  0
SECTION
  2
OBJECTS
  0
DICTIONARY
  5
C
100
AcDbDictionary
280
0
281
1
  3
ACAD_GROUP
350
D
  3
ACAD_MLINESTYLE
350
17
  3
ACAD_LAYOUT
350
1A
  3
ACAD_PLOTSETTINGS
350
19
  3
ACAD_PLOTSTYLENAME
350
E
  0
DICTIONARY
  5
D
102
{ACAD_REACTORS
330
C
102
}
100
AcDbDictionary
280
0
281
1
  0
ACDBDICTIONARYWDFLT
  5
E
102
{ACAD_REACTORS
330
C
102
}
100
AcDbDictionary
281
1
  3
Normal
350
F
100
AcDbDictionaryWithDefault
340
F
  0
DICTIONARY
  5
17
102
{ACAD_REACTORS
330
C
102
}
100
AcDbDictionary
280
0
281
1
  3
Standard
350
18
  0
DICTIONARY
  5
19
102
{ACAD_REACTORS
330
C
102
}
100
AcDbDictionary
281
1
  0
DICTIONARY
  5
1A
102
{ACAD_REACTORS
330
C
102
}
100
AcDbDictionary
281
1
  3
Model
350
4AB
  3
Layout1
350
4AC
  0
ACDBPLACEHOLDER
  5
F
102
{ACAD_REACTORS
330
E
102
}
  0
MLINESTYLE
  5
18
102
{ACAD_REACTORS
330
17
102
}
100
AcDbMlineStyle
  2
STANDARD
 70
0
  3

 62
256
 51
90.0
 52
90.0
 71
2
 49
0.5
 62
256
  6
BYLAYER
 49
-0.5
 62
256
  6
BYLAYER
  0
LAYOUT
  5
4AB
102
{ACAD_REACTORS
330
1A
102
}
100
AcDbPlotSettings
  1

  2
none_device
  4
ANSI_C_(22.00_x_17.00_Inches)
  6

 40
0.0
 41
0.0
 42
0.0
 43
0.0
 44
558.8
 45
431.8
 46
0.0
 47
0.0
 48
0.0
 49
0.0
140
0.0
141
0.0
142
1.0
143
1.0
 70
1024
 72
1
 73
0
 74
0
  7

 75
0
147
1.0
148
0.0
149
0.0
100
AcDbLayout
  1
Model
 70
0
 71
0
 10
0.0
 20
0.0
 11
558.8
 21
431.8
 12
0.0
 22
0.0
 32
0.0
 14
0.0
 24
0.0
 34
0.0
 15
0.0
 25
0.0
 35
0.0
146
0.0
 13
0.0
 23
0.0
 33
0.0
 16
1.0
 26
0.0
 36
0.0
 17
0.0
 27
1.0
 37
0.0
 76
0
330
216
345
0
346
0
  0
LAYOUT
  5
4AC
102
{ACAD_REACTORS
330
1A
102
}
100
AcDbPlotSettings
  1

  2
none_device
  4
ANSI_C_(22.00_x_17.00_Inches)
  6

 40
0.0
 41
0.0
 42
0.0
 43
0.0
 44
558.8
 45
431.8
 46
0.0
 47
0.0
 48
0.0
 49
0.0
140
0.0
141
0.0
142
1.0
143
1.0
 70
0
 72
1
 73
0
 74
0
  7

 75
0
147
1.0
148
0.0
149
0.0
100
AcDbLayout
  1
Layout1
 70
0
 71
1
 10
0.0
 20
0.0
 11
558.8
 21
431.8
 12
0.0
 22
0.0
 32
0.0
 14
0.0
 24
0.0
 34
0.0
 15
0.0
 25
0.0
 35
0.0
146
0.0
 13
0.0
 23
0.0
 33
0.0
 16
1.0
 26
0.0
 36
0.0
 17
0.0
 27
1.0
 37
0.0
 76
0
330
217
345
0
346
0
  0
ENDSEC
  0
EOF
