  0
SECTION
  2
HEADER
  9
$ACADVER
  1
AC1021
  9
$DWGCODEPAGE
  3
ANSI_1252
  9
$EXTMAX
 10
297.0
 20
210.0
 30
0.0
  9
$EXTMIN
 10
0.0
 20
0.0
 30
0.0
  9
$LIMMIN
 10
0.0
 20
0.0
  9
$LIMMAX
 10
297.0
 20
210.0
  9
$VIEWCTR
 10
148.5
 20
105.0
  9
$VIEWSIZE
 40
210.0
  9
$CLAYER
  8
0
  9
$LTSCALE
 40
16.335
  9
$CELTYPE
  6
BYLAYER
  9
$DIMSCALE
 40
1.0
  9
$DIMASZ
 40
3.0
  9
$DIMEXO
 40
0.5
  9
$DIMDLI
 40
11.286
  9
$DIMEXE
 40
1.5
  9
$DIMCEN
 40
2.673
  9
$DIMLFAC
 40
1.0
  9
$DIMBLK
  1
_FILLED
  9
$DIMALT
 70
0
  9
$DIMALTF
 40
25.4
  9
$DIMTXT
 40
3.0
  9
$DIMTOL
 70
1
  9
$DIMLIM
 70
0
  9
$DIMTFAC
 40
1.0
  9
$DIMTP
 40
0.01
  9
$DIMTM
 40
0.01
  9
$DIMGAP
 40
0.625
  9
$DIMDSEP
 70
44
  9
$AUNITS
 70
0
  9
$PDMODE
 70
3
  9
$PDSIZE
 40
3.0
  9
$HANDSEED
  5
4B9
  9
$TILEMODE
 70
1
  9
$MEASUREMENT
 70
1
  9
$INSUNITS
 70
4
  0
ENDSEC
  0
SECTION
  2
CLASSES
  0
CLASS
  1
ACDBDICTIONARYWDFLT
  2
AcDbDictionaryWithDefault
  3
AutoCAD 2000
 90
0
 91
1
280
0
281
0
  0
CLASS
  1
ACDBPLACEHOLDER
  2
AcDbPlaceHolder
  3
AutoCAD 2000
 90
0
 91
1
280
0
281
0
  0
CLASS
  1
LAYOUT
  2
AcDbLayout
  3
AutoCAD 2000
 90
0
 91
0
280
0
281
0
  0
ENDSEC
  0
SECTION
  2
TABLES
  0
TABLE
  2
VPORT
  5
8
100
AcDbSymbolTable
 70
2
  0
VPORT
  5
1F4
100
AcDbSymbolTableRecord
100
AcDbViewportTableRecord
  2
*ACTIVE
 70
0
 10
0.0
 20
0.0
 11
1.0
 21
1.0
 12
148.5
 22
105.0
 13
0.0
 23
0.0
 14
1.0
 24
1.0
 15
0.0
 25
0.0
 16
0.0
 26
0.0
 36
1.0
 17
0.0
 27
0.0
 37
0.0
 40
210.0
 41
1.4142857143
 42
50.0
 43
0.0
 44
0.0
 50
0.0
 51
0.0
 71
0
 72
100
 73
1
 74
1
 75
0
 76
0
 77
0
 78
0
  0
ENDTAB
  0
TABLE
  2
LTYPE
  5
5
100
AcDbSymbolTable
 70
6
  0
LTYPE
  5
14
100
AcDbSymbolTableRecord
100
AcDbLinetypeTableRecord
  2
BYBLOCK
 70
0
  3

 72
65
 73
0
 40
0.0
  0
LTYPE
  5
15
100
AcDbSymbolTableRecord
100
AcDbLinetypeTableRecord
  2
BYLAYER
 70
0
  3

 72
65
 73
0
 40
0.0
  0
LTYPE
  5
16
100
AcDbSymbolTableRecord
100
AcDbLinetypeTableRecord
  2
CONTINUOUS
 70
64
  3
Solid line
 72
65
 73
0
 40
0.0
  0
LTYPE
  5
1F5
100
AcDbSymbolTableRecord
100
AcDbLinetypeTableRecord
  2
CENTER
 70
64
  3
____ _ ____ _ ____ _ ____ _ ____ _ ____ _ ____
 72
65
 73
4
 40
0.6
 49
0.375
 74
0
 49
-0.075
 74
0
 49
0.075
 74
0
 49
-0.075
 74
0
  0
LTYPE
  5
1F6
100
AcDbSymbolTableRecord
100
AcDbLinetypeTableRecord
  2
HIDDEN
 70
64
  3
- - - - - - - - - - - - - - - - - - - -
 72
65
 73
2
 40
0.2
 49
0.1
 74
0
 49
-0.1
 74
0
  0
LTYPE
  5
1F7
100
AcDbSymbolTableRecord
100
AcDbLinetypeTableRecord
  2
PHANTOM
 70
64
  3
_____ _ _ _____ _ _ _____ _ _ _____
 72
65
 73
6
 40
0.8
 49
0.45
 74
0
 49
-0.05
 74
0
 49
0.1
 74
0
 49
-0.05
 74
0
 49
0.1
 74
0
 49
-0.05
 74
0
  0
LTYPE
  5
1F8
100
AcDbSymbolTableRecord
100
AcDbLinetypeTableRecord
  2
DOT
 70
64
  3
. . . . . . . . . . . . . . . . . . . .
 72
65
 73
2
 40
0.2
 49
0.1
 74
0
 49
-0.1
 74
0
  0
LTYPE
  5
1F9
100
AcDbSymbolTableRecord
100
AcDbLinetypeTableRecord
  2
DASHED
 70
64
  3
- - - - - - - - - - - - - - - - - - - -
 72
65
 73
2
 40
0.2
 49
0.1
 74
0
 49
-0.1
 74
0
  0
ENDTAB
  0
TABLE
  2
LAYER
  5
2
100
AcDbSymbolTable
 70
36
  0
LAYER
  5
10
100
AcDbSymbolTableRecord
100
AcDbLayerTableRecord
  2
0
 70
0
 62
7
  6
CONTINUOUS
370
-3
390
F
  0
LAYER
  5
1FA
100
AcDbSymbolTableRecord
100
AcDbLayerTableRecord
  2
DEFAULT_1
 70
0
 62
7
  6
CENTER
370
-3
390
F
  0
LAYER
  5
1FB
100
AcDbSymbolTableRecord
100
AcDbLayerTableRecord
  2
DEFAULT_2
 70
0
 62
7
  6
HIDDEN
370
-3
390
F
  0
LAYER
  5
1FC
100
AcDbSymbolTableRecord
100
AcDbLayerTableRecord
  2
DEFAULT_3
 70
0
 62
7
  6
PHANTOM
370
-3
390
F
  0
LAYER
  5
1FD
100
AcDbSymbolTableRecord
100
AcDbLayerTableRecord
  2
ASSI
 70
0
 62
7
  6
CONTINUOUS
370
-3
390
F
  0
LAYER
  5
1FE
100
AcDbSymbolTableRecord
100
AcDbLayerTableRecord
  2
COORDINATE
 70
0
 62
7
  6
CONTINUOUS
370
-3
390
F
  0
LAYER
  5
1FF
100
AcDbSymbolTableRecord
100
AcDbLayerTableRecord
  2
COORD_ORIGINE
 70
0
 62
7
  6
CONTINUOUS
370
-3
390
F
  0
LAYER
  5
200
100
AcDbSymbolTableRecord
100
AcDbLayerTableRecord
  2
COPY_PUBLISH
 70
0
 62
7
  6
CONTINUOUS
370
-3
390
F
  0
LAYER
  5
201
100
AcDbSymbolTableRecord
100
AcDbLayerTableRecord
  2
COSMETICI
 70
0
 62
7
  6
CONTINUOUS
370
-3
390
F
  0
LAYER
  5
202
100
AcDbSymbolTableRecord
100
AcDbLayerTableRecord
  2
CURVE
 70
0
 62
7
  6
CONTINUOUS
370
-3
390
F
  0
LAYER
  5
203
100
AcDbSymbolTableRecord
100
AcDbLayerTableRecord
  2
DRAFT
 70
0
 62
7
  6
CONTINUOUS
370
-3
390
F
  0
LAYER
  5
204
100
AcDbSymbolTableRecord
100
AcDbLayerTableRecord
  2
IMPORT_AI
 70
0
 62
7
  6
CONTINUOUS
370
-3
390
F
  0
LAYER
  5
205
100
AcDbSymbolTableRecord
100
AcDbLayerTableRecord
  2
IMPORT_IGES
 70
0
 62
7
  6
CONTINUOUS
370
-3
390
F
  0
LAYER
  5
206
100
AcDbSymbolTableRecord
100
AcDbLayerTableRecord
  2
INTF_1
 70
0
 62
7
  6
CONTINUOUS
370
-3
390
F
  0
LAYER
  5
207
100
AcDbSymbolTableRecord
100
AcDbLayerTableRecord
  2
INTF_10
 70
0
 62
7
  6
CONTINUOUS
370
-3
390
F
  0
LAYER
  5
208
100
AcDbSymbolTableRecord
100
AcDbLayerTableRecord
  2
INTF_11
 70
0
 62
7
  6
CONTINUOUS
370
-3
390
F
  0
LAYER
  5
209
100
AcDbSymbolTableRecord
100
AcDbLayerTableRecord
  2
INTF_2
 70
0
 62
7
  6
CONTINUOUS
370
-3
390
F
  0
LAYER
  5
20A
100
AcDbSymbolTableRecord
100
AcDbLayerTableRecord
  2
INTF_3
 70
0
 62
7
  6
CONTINUOUS
370
-3
390
F
  0
LAYER
  5
20B
100
AcDbSymbolTableRecord
100
AcDbLayerTableRecord
  2
INTF_7
 70
0
 62
7
  6
CONTINUOUS
370
-3
390
F
  0
LAYER
  5
20C
100
AcDbSymbolTableRecord
100
AcDbLayerTableRecord
  2
INTF_BLANK
 70
0
 62
7
  6
CONTINUOUS
370
-3
390
F
  0
LAYER
  5
20D
100
AcDbSymbolTableRecord
100
AcDbLayerTableRecord
  2
INTF_CYAN
 70
0
 62
7
  6
CONTINUOUS
370
-3
390
F
  0
LAYER
  5
20E
100
AcDbSymbolTableRecord
100
AcDbLayerTableRecord
  2
INTF_YELLOW
 70
0
 62
7
  6
CONTINUOUS
370
-3
390
F
  0
LAYER
  5
20F
100
AcDbSymbolTableRecord
100
AcDbLayerTableRecord
  2
NOTE
 70
0
 62
7
  6
CONTINUOUS
370
-3
390
F
  0
LAYER
  5
210
100
AcDbSymbolTableRecord
100
AcDbLayerTableRecord
  2
PIANI
 70
0
 62
7
  6
CONTINUOUS
370
-3
390
F
  0
LAYER
  5
211
100
AcDbSymbolTableRecord
100
AcDbLayerTableRecord
  2
PIANI_ORIGINE
 70
0
 62
7
  6
CONTINUOUS
370
-3
390
F
  0
LAYER
  5
212
100
AcDbSymbolTableRecord
100
AcDbLayerTableRecord
  2
PIANI_RIFERIMENTO
 70
0
 62
7
  6
CONTINUOUS
370
-3
390
F
  0
LAYER
  5
213
100
AcDbSymbolTableRecord
100
AcDbLayerTableRecord
  2
PUNTI
 70
0
 62
7
  6
CONTINUOUS
370
-3
390
F
  0
LAYER
  5
214
100
AcDbSymbolTableRecord
100
AcDbLayerTableRecord
  2
RACCORDO
 70
0
 62
7
  6
CONTINUOUS
370
-3
390
F
  0
LAYER
  5
215
100
AcDbSymbolTableRecord
100
AcDbLayerTableRecord
  2
RGB__255__255__255__
 70
0
 62
7
  6
CONTINUOUS
370
-3
390
F
  0
LAYER
  5
216
100
AcDbSymbolTableRecord
100
AcDbLayerTableRecord
  2
RGB____0____0____0__
 70
0
 62
7
  6
CONTINUOUS
370
-3
390
F
  0
LAYER
  5
217
100
AcDbSymbolTableRecord
100
AcDbLayerTableRecord
  2
SIMBOLI
 70
0
 62
7
  6
CONTINUOUS
370
-3
390
F
  0
LAYER
  5
218
100
AcDbSymbolTableRecord
100
AcDbLayerTableRecord
  2
SMUSSO
 70
0
 62
7
  6
CONTINUOUS
370
-3
390
F
  0
LAYER
  5
219
100
AcDbSymbolTableRecord
100
AcDbLayerTableRecord
  2
SNAPLINE
 70
0
 62
7
  6
CONTINUOUS
370
-3
390
F
  0
LAYER
  5
21A
100
AcDbSymbolTableRecord
100
AcDbLayerTableRecord
  2
SUPERFICI
 70
0
 62
7
  6
CONTINUOUS
370
-3
390
F
  0
LAYER
  5
21B
100
AcDbSymbolTableRecord
100
AcDbLayerTableRecord
  2
TRASH
 70
0
 62
7
  6
CONTINUOUS
370
-3
390
F
  0
LAYER
  5
21C
100
AcDbSymbolTableRecord
100
AcDbLayerTableRecord
  2
XSEC_DATUMS
 70
0
 62
7
  6
CONTINUOUS
370
-3
390
F
  0
LAYER
  5
21D
100
AcDbSymbolTableRecord
100
AcDbLayerTableRecord
  2
_BLACK_HOLE
 70
0
 62
7
  6
CONTINUOUS
370
-3
390
F
  0
ENDTAB
  0
TABLE
  2
STYLE
  5
3
100
AcDbSymbolTable
 70
1
  0
STYLE
  5
11
100
AcDbSymbolTableRecord
100
AcDbTextStyleTableRecord
  2
STANDARD
 70
0
 40
0.0
 41
0.8
 50
0.0
 71
0
 42
0.2
  3
txt
  4

  0
STYLE
  5
21E
100
AcDbSymbolTableRecord
100
AcDbTextStyleTableRecord
  2
TEXTSTYLE_1
 70
0
 40
0.0
 41
0.8
 50
0.0
 71
0
 42
0.2
  3
gdt
  4

  0
ENDTAB
  0
TABLE
  2
VIEW
  5
6
100
AcDbSymbolTable
 70
0
  0
ENDTAB
  0
TABLE
  2
UCS
  5
7
100
AcDbSymbolTable
 70
0
  0
ENDTAB
  0
TABLE
  2
APPID
  5
9
100
AcDbSymbolTable
 70
1
  0
APPID
  5
21F
100
AcDbSymbolTableRecord
100
AcDbRegAppTableRecord
  2
ACAD
 70
0
  0
ENDTAB
  0
TABLE
  2
BLOCK_RECORD
  5
1
100
AcDbSymbolTable
 70
0
  0
BLOCK_RECORD
  5
220
100
AcDbSymbolTableRecord
100
AcDbBlockTableRecord
  2
*Model_Space
  0
BLOCK_RECORD
  5
221
100
AcDbSymbolTableRecord
100
AcDbBlockTableRecord
  2
*Paper_Space
  0
BLOCK_RECORD
  5
222
100
AcDbSymbolTableRecord
100
AcDbBlockTableRecord
  2
_FILLED
  0
ENDTAB
  0
TABLE
  2
DIMSTYLE
  5
A
100
AcDbSymbolTable
 70
1
100
AcDbDimStyleTable
 71
0
  0
DIMSTYLE
105
223
100
AcDbSymbolTableRecord
100
AcDbDimStyleTableRecord
  2
STANDARD
 70
0
  3

  4

 40
1.0
 41
3.0
 42
0.5
 43
0.38
 44
1.5
 45
0.0
 46
0.0
 47
0.01
 48
0.01
140
3.0
141
0.09
142
0.0
143
25.4
144
1.0
145
0.0
146
1.0
147
0.625
 71
1.0
 72
0.0
 73
0
 74
0
 75
0
 76
0
 77
1
 78
8
 79
2
170
0
171
1
172
0
173
0
174
0
175
0
176
0
177
0
178
0
270
2
179
2
271
2
272
2
273
2
274
2
275
0
280
0
281
0
282
0
283
1
284
8
285
0
286
0
287
3
288
0
340
11
278
44
341
222
342
222
343
222
344
222
  0
ENDTAB
  0
ENDSEC
  0
SECTION
  2
BLOCKS
  0
BLOCK
  5
20
100
AcDbEntity
  8
0
100
AcDbBlockBegin
  2
*Model_Space
 70
0
 10
0.0
 20
0.0
 30
0.0
  3
*Model_Space
  1

  0
ENDBLK
  5
21
100
AcDbEntity
  8
0
100
AcDbBlockEnd
  0
BLOCK
  5
1C
100
AcDbEntity
  8
0
100
AcDbBlockBegin
  2
*Paper_Space
 70
0
 10
0.0
 20
0.0
 30
0.0
  3
*Paper_Space
  1

  0
ENDBLK
  5
1D
100
AcDbEntity
  8
0
100
AcDbBlockEnd
  0
BLOCK
  5
224
100
AcDbEntity
  8
0
100
AcDbBlockBegin
  2
_FILLED
 70
64
 10
0.0
 20
0.0
  3
_FILLED
  1

  0
SOLID
  5
225
100
AcDbEntity
  8
0
  6
BYBLOCK
 62
0
100
AcDbTrace
 10
0.0
 20
0.0
 11
-1.0
 21
0.3166666667
 12
-1.0
 22
-0.3166666667
 13
-1.0
 23
-0.3166666667
  0
ENDBLK
  5
226
100
AcDbEntity
  8
0
  6
BYBLOCK
 62
0
100
AcDbBlockEnd
  0
ENDSEC
  0
SECTION
  2
ENTITIES
  0
LINE
  5
227
100
AcDbEntity
  8
0
100
AcDbLine
 62
7
  6
CONTINUOUS
 10
-20.762675347
 20
27.7174064562
 11
-18.4753091251
 21
29.0659081547
  0
LINE
  5
228
100
AcDbEntity
  8
0
100
AcDbLine
 62
250
  6
CONTINUOUS
 10
-20.6366366748
 20
27.7056264632
 11
-18.3496518039
 21
29.0539033388
  0
LWPOLYLINE
  5
229
100
AcDbEntity
  8
ASSI
100
AcDbPolyline
 62
7
  6
CONTINUOUS
 90
21
 70
0
 10
-14.6617257169
 20
27.7611591285
 10
-14.6867750445
 20
27.7440493959
 10
-14.7092740396
 20
27.7232455434
 10
-14.729081694
 20
27.6987117847
 10
-14.7462577864
 20
27.6705309669
 10
-14.7604150751
 20
27.6393384379
 10
-14.7714849844
 20
27.6050657831
 10
-14.77953609
 20
27.5677814171
 10
-14.7843868763
 20
27.5283259308
 10
-14.7859646446
 20
27.4866500048
 10
-14.7843420937
 20
27.4428029585
 10
-14.7795558046
 20
27.3977733412
 10
-14.7715339096
 20
27.3515342893
 10
-14.7603482764
 20
27.3041126665
 10
-14.7462510897
 20
27.2565776121
 10
-14.7291762102
 20
27.2089265494
 10
-14.7091897771
 20
27.1611620552
 10
-14.6867423927
 20
27.1143609992
 10
-14.6619842576
 20
27.0688823378
 10
-14.634765171
 20
27.0243671147
 10
-14.605085133
 20
26.9808153296
  0
LWPOLYLINE
  5
22A
100
AcDbEntity
  8
0
100
AcDbPolyline
 62
7
  6
CONTINUOUS
 90
40
 70
0
 10
-24.8293259613
 20
23.5138573944
 10
-24.8572129584
 20
23.4950215619
 10
-24.895787402
 20
23.4674797763
 10
-24.9336892853
 20
23.4386923294
 10
-24.9709151612
 20
23.4087002753
 10
-25.0074543716
 20
23.37754774
 10
-25.0432796489
 20
23.3452919066
 10
-25.0783805951
 20
23.3119750297
 10
-25.1127459908
 20
23.2776368698
 10
-25.1463403219
 20
23.2423426533
 10
-25.1791501431
 20
23.2061344642
 10
-25.2111646632
 20
23.1690507695
 10
-25.2423478
 20
23.1311585905
 10
-25.2726776323
 20
23.0925105075
 10
-25.3021505121
 20
23.0531351856
 10
-25.3307543517
 20
23.0130686993
 10
-25.3584692902
 20
22.9723581622
 10
-25.3852854879
 20
22.9310336313
 10
-25.4112027579
 20
22.8891078674
 10
-25.436202939
 20
22.8466172972
 10
-25.4602682035
 20
22.8035974663
 10
-25.4833935155
 20
22.7600577579
 10
-25.5055580882
 20
22.7160320192
 10
-25.5267406809
 20
22.6715549696
 10
-25.5469306566
 20
22.6266337403
 10
-25.5661076905
 20
22.5812928902
 10
-25.5842425132
 20
22.5355738068
 10
-25.6013111827
 20
22.4895050557
 10
-25.6172913814
 20
22.4431053646
 10
-25.6321501281
 20
22.3964205362
 10
-25.6458501751
 20
22.3495143423
 10
-25.6583644346
 20
22.3024162871
 10
-25.669664285
 20
22.2551599042
 10
-25.6797133321
 20
22.2078074643
 10
-25.6884835161
 20
22.1603893322
 10
-25.6959443508
 20
22.1129367687
 10
-25.7020614611
 20
22.0655015148
 10
-25.7068028663
 20
22.0181152483
 10
-25.7101350937
 20
21.9708025604
 10
-25.7115889097
 20
21.9383707581
  0
LINE
  5
22B
100
AcDbEntity
  8
0
100
AcDbLine
 62
7
  6
CONTINUOUS
 10
-24.8293359779
 20
23.5138508669
 11
-20.1823067335
 21
26.5785229499
  0
LINE
  5
22C
100
AcDbEntity
  8
0
100
AcDbLine
 62
250
  6
CONTINUOUS
 10
-24.5725615835
 20
23.4934436623
 11
-20.1823067335
 21
26.388775447
  0
LWPOLYLINE
  5
22D
100
AcDbEntity
  8
0
100
AcDbPolyline
 62
250
  6
CONTINUOUS
 90
22
 70
0
 10
-24.8293259971
 20
23.5138574487
 10
-24.826153118
 20
23.515894559
 10
-24.816438562
 20
23.5214883383
 10
-24.8062989266
 20
23.5263935028
 10
-24.7957506391
 20
23.5306021055
 10
-24.7848107892
 20
23.5341073279
 10
-24.7734971006
 20
23.5369034913
 10
-24.7618279028
 20
23.5389860654
 10
-24.7498221013
 20
23.5403516763
 10
-24.737499147
 20
23.5409981115
 10
-24.7248790044
 20
23.5409243237
 10
-24.7119821198
 20
23.5401304325
 10
-24.6988293875
 20
23.5386177241
 10
-24.6854421166
 20
23.5363886491
 10
-24.6718419959
 20
23.5334468191
 10
-24.6580510594
 20
23.529797
 10
-24.64409165
 20
23.5254451051
 10
-24.6299863835
 20
23.5203981849
 10
-24.6157581121
 20
23.514664416
 10
-24.6014298874
 20
23.5082530879
 10
-24.5870249228
 20
23.5011745875
 10
-24.5725665559
 20
23.493440383
  0
LINE
  5
22E
100
AcDbEntity
  8
0
100
AcDbLine
 62
7
  6
CONTINUOUS
 10
-17.6285673663
 20
26.06559794
 11
-18.5180093309
 21
25.5038524908
  0
LWPOLYLINE
  5
22F
100
AcDbEntity
  8
0
100
AcDbPolyline
 62
250
  6
CONTINUOUS
 90
34
 70
0
 10
-19.4055928205
 20
26.9948371704
 10
-19.4139750212
 20
26.9897170545
 10
-19.422336277
 20
26.984150354
 10
-19.4306577731
 20
26.9781495953
 10
-19.438920784
 20
26.9717282816
 10
-19.4471067159
 20
26.9649008625
 10
-19.4551971485
 20
26.9576827013
 10
-19.4631738762
 20
26.9500900408
 10
-19.4710189495
 20
26.9421399662
 10
-19.478714715
 20
26.9338503672
 10
-19.4862438553
 20
26.9252398974
 10
-19.4935894279
 20
26.9163279326
 10
-19.5007349037
 20
26.9071345268
 10
-19.5076642033
 20
26.8976803675
 10
-19.5143617343
 20
26.8879867289
 10
-19.5208124255
 20
26.8780754241
 10
-19.5270017612
 20
26.867968756
 10
-19.532915814
 20
26.857689467
 10
-19.5385412757
 20
26.8472606882
 10
-19.5438654876
 20
26.8367058868
 10
-19.548876469
 20
26.8260488138
 10
-19.5535629439
 20
26.8153134502
 10
-19.5579143666
 20
26.8045239532
 10
-19.5619209452
 20
26.7937046019
 10
-19.5655736641
 20
26.7828797426
 10
-19.5688643037
 20
26.7720737337
 10
-19.5717854592
 20
26.7613108915
 10
-19.5743305573
 20
26.7506154351
 10
-19.576493871
 20
26.7400114319
 10
-19.5782705321
 20
26.7295227436
 10
-19.5796565429
 20
26.7191729722
 10
-19.5806487843
 20
26.7089854073
 10
-19.5812450238
 20
26.6989829734
 10
-19.5814439194
 20
26.6891881786
  0
LINE
  5
230
100
AcDbEntity
  8
0
100
AcDbLine
 62
250
  6
CONTINUOUS
 10
-19.4055928205
 20
26.9948371704
 11
-17.0945324209
 21
28.3292131373
  0
LINE
  5
231
100
AcDbEntity
  8
0
100
AcDbLine
 62
250
  6
CONTINUOUS
 10
-19.2288185484
 20
26.6886551499
 11
-16.9177581488
 21
28.0230311169
  0
LINE
  5
232
100
AcDbEntity
  8
RACCORDO
100
AcDbLine
 62
7
  6
CONTINUOUS
 10
-14.779252798
 20
28.7739007962
 11
-15.1328061886
 21
28.5697634996
  0
LWPOLYLINE
  5
233
100
AcDbEntity
  8
0
100
AcDbPolyline
 62
250
  6
CONTINUOUS
 90
34
 70
0
 10
-19.2288185484
 20
26.4529876261
 10
-19.237443537
 20
26.4482880312
 10
-19.2464448202
 20
26.4438298907
 10
-19.255802143
 20
26.4396232365
 10
-19.2654944491
 20
26.4356775347
 10
-19.2754999283
 20
26.432001664
 10
-19.285796066
 20
26.4286038961
 10
-19.2963596932
 20
26.4254918768
 10
-19.3071670391
 20
26.4226726089
 10
-19.3181937845
 20
26.4201524365
 10
-19.3294151167
 20
26.4179370305
 10
-19.3408057846
 20
26.4160313762
 10
-19.3523401566
 20
26.4144397618
 10
-19.3639922775
 20
26.4131657688
 10
-19.3757359271
 20
26.412212264
 10
-19.3875446792
 20
26.411581393
 10
-19.3993919613
 20
26.4112745754
 10
-19.4112511141
 20
26.4112925017
 10
-19.4230954515
 20
26.4116351315
 10
-19.4348983208
 20
26.4123016939
 10
-19.4466331626
 20
26.4132906888
 10
-19.4582735707
 20
26.4145998908
 10
-19.4697933513
 20
26.4162263539
 10
-19.4811665819
 20
26.4181664181
 10
-19.4923676701
 20
26.4204157178
 10
-19.5033714105
 20
26.4229691915
 10
-19.5141530422
 20
26.4258210933
 10
-19.5246883036
 20
26.4289650057
 10
-19.5349534879
 20
26.4323938541
 10
-19.5449254958
 20
26.4360999227
 10
-19.554581888
 20
26.4400748721
 10
-19.563900935
 20
26.4443097574
 10
-19.5728616668
 20
26.4487950493
 10
-19.5814439194
 20
26.4535206547
  0
LWPOLYLINE
  5
234
100
AcDbEntity
  8
RACCORDO
100
AcDbPolyline
 62
7
  6
CONTINUOUS
 90
21
 70
0
 10
-15.132779551
 20
28.5697173337
 10
-15.0785001497
 20
28.5968174202
 10
-15.0210783025
 20
28.6174019951
 10
-14.9605114885
 20
28.6313511438
 10
-14.8968448802
 20
28.6387602015
 10
-14.8310017717
 20
28.6395219426
 10
-14.7629504595
 20
28.6335394752
 10
-14.6927226471
 20
28.620909691
 10
-14.6213367382
 20
28.6018160396
 10
-14.5487758855
 20
28.5761643157
 10
-14.4750569362
 20
28.5440487244
 10
-14.401248836
 20
28.5059353307
 10
-14.3273503287
 20
28.4617367404
 10
-14.2533626705
 20
28.4115403477
 10
-14.1803585757
 20
28.3560743995
 10
-14.1083524306
 20
28.2952621377
 10
-14.037329849
 20
28.2291803206
 10
-13.9683203862
 20
28.1587874694
 10
-13.9016672275
 20
28.0844030913
 10
-13.8370271877
 20
28.0057076791
 10
-13.7744002669
 20
27.9227012329
  0
LWPOLYLINE
  5
235
100
AcDbEntity
  8
0
100
AcDbPolyline
 62
7
  6
CONTINUOUS
 90
16
 70
0
 10
-29.5418005065
 20
-9.8999168043
 10
-29.3445942624
 20
-10.4589892491
 10
-29.1315653451
 20
-11.0140237315
 10
-28.9031628736
 20
-11.5643733756
 10
-28.6598541291
 20
-12.1093403421
 10
-28.4020359137
 20
-12.6483738987
 10
-28.1300307523
 20
-13.1810344789
 10
-27.8442709555
 20
-13.7066326567
 10
-27.545130334
 20
-14.2245822751
 10
-27.2328065841
 20
-14.7345592671
 10
-26.9076582782
 20
-15.235923492
 10
-26.5700591971
 20
-15.7280040781
 10
-26.2201695095
 20
-16.2104131641
 10
-25.8582484994
 20
-16.6825719722
 10
-25.4846948281
 20
-17.1437040817
 10
-25.0998481789
 20
-17.5931082591
  0
LINE
  5
236
100
AcDbEntity
  8
RACCORDO
100
AcDbLine
 62
250
  6
CONTINUOUS
 10
-29.7895204136
 20
-9.1137444831
 11
-29.6011407002
 21
-9.721293435
  0
LWPOLYLINE
  5
237
100
AcDbEntity
  8
RACCORDO
100
AcDbPolyline
 62
250
  6
CONTINUOUS
 90
8
 70
0
 10
-30.4862238992
 20
-5.0073228543
 10
-30.4552249355
 20
-5.5681890669
 10
-30.4010699819
 20
-6.1399989455
 10
-30.3238908659
 20
-6.7213605554
 10
-30.2238754616
 20
-7.3108587117
 10
-30.1012672322
 20
-7.907058422
 10
-29.9563646389
 20
-8.5085083763
 10
-29.7895204136
 20
-9.1137444831
  0
LINE
  5
238
100
AcDbEntity
  8
0
100
AcDbLine
 62
7
  6
CONTINUOUS
 10
-17.6285673663
 20
26.7780905073
 11
-16.9177581488
 21
27.6556166944
  0
LINE
  5
239
100
AcDbEntity
  8
0
100
AcDbLine
 62
7
  6
CONTINUOUS
 10
-15.2169897194
 20
25.4402290347
 11
-14.1600417022
 21
26.0633457804
  0
LINE
  5
23A
100
AcDbEntity
  8
0
100
AcDbLine
 62
7
  6
CONTINUOUS
 10
-13.5236455991
 20
25.6958986464
 11
-8.9638918745
 21
28.3471887474
  0
LINE
  5
23B
100
AcDbEntity
  8
RACCORDO
100
AcDbLine
 62
250
  6
CONTINUOUS
 10
-13.7744002669
 20
27.9227012329
 11
-13.4208468763
 21
28.1268385296
  0
LINE
  5
23C
100
AcDbEntity
  8
ASSI
100
AcDbLine
 62
250
  6
CONTINUOUS
 10
-14.605085133
 20
26.9808153296
 11
-14.2515317425
 21
27.1849526263
  0
LINE
  5
23D
100
AcDbEntity
  8
0
100
AcDbLine
 62
7
  6
CONTINUOUS
 10
-14.1600417022
 20
26.0633457804
 11
-9.5360600683
 21
28.6775514916
  0
LINE
  5
23E
100
AcDbEntity
  8
0
100
AcDbLine
 62
7
  6
CONTINUOUS
 10
-9.0934263791
 20
30.0720274505
 11
-16.2147651945
 21
26.0610853867
  0
LINE
  5
23F
100
AcDbEntity
  8
0
100
AcDbLine
 62
7
  6
CONTINUOUS
 10
-8.8796439841
 20
28.3842037476
 11
-8.8977588214
 21
28.3778887573
  0
LWPOLYLINE
  5
240
100
AcDbEntity
  8
0
100
AcDbPolyline
 62
7
  6
CONTINUOUS
 90
21
 70
0
 10
-9.4699977029
 20
28.7073732489
 10
-9.4603238241
 20
28.7103828318
 10
-9.450312249
 20
28.7128904039
 10
-9.4399708879
 20
28.7148881887
 10
-9.4293213584
 20
28.7163726131
 10
-9.4183601828
 20
28.7173324976
 10
-9.407055525
 20
28.7177464855
 10
-9.395419562
 20
28.7176088732
 10
-9.3834559321
 20
28.7169060176
 10
-9.3711148464
 20
28.7155989496
 10
-9.3583873249
 20
28.7136741924
 10
-9.3452966949
 20
28.7111179467
 10
-9.3318394602
 20
28.7078864235
 10
-9.3180275062
 20
28.7039650377
 10
-9.303870862
 20
28.6993397496
 10
-9.2893641819
 20
28.6939655884
 10
-9.2745166232
 20
28.6878230111
 10
-9.259349108
 20
28.680900308
 10
-9.2438758081
 20
28.6731629309
 10
-9.2281242406
 20
28.6645972991
 10
-9.2238460645
 20
28.6621528756
  0
LWPOLYLINE
  5
241
100
AcDbEntity
  8
RACCORDO
100
AcDbPolyline
 62
250
  6
CONTINUOUS
 90
44
 70
0
 10
-21.8837913737
 20
-20.4957230903
 10
-21.4138219179
 20
-20.8073157411
 10
-20.9427056399
 20
-21.0927559937
 10
-20.4715893608
 20
-21.3513490112
 10
-20.001619903
 20
-21.5824653092
 10
-19.5339412954
 20
-21.78554229
 10
-19.0696919906
 20
-21.9600856104
 10
-18.6100020953
 20
-22.105670385
 10
-18.1559906185
 20
-22.2219422212
 10
-17.7087627446
 20
-22.3086180826
 10
-17.2694071443
 20
-22.3654869773
 10
-16.8389933262
 20
-22.3924104716
 10
-16.4185690325
 20
-22.3893230268
 10
-16.0091576859
 20
-22.3562321589
 10
-15.6117558994
 20
-22.2932184196
 10
-15.2273310528
 20
-22.2004352002
 10
-14.8568189397
 20
-22.0781083595
 10
-14.5011214872
 20
-21.9265356743
 10
-14.1611045585
 20
-21.7460861138
 10
-13.837595843
 20
-21.5371989395
 10
-13.5313828445
 20
-21.300382637
 10
-13.2432109657
 20
-21.0362136785
 10
-12.9737816945
 20
-20.7453351218
 10
-12.7237508947
 20
-20.4284550439
 10
-12.493727208
 20
-20.0863448164
 10
-12.2842705719
 20
-19.7198372251
 10
-12.0958908581
 20
-19.3298244446
 10
-11.9290466324
 20
-18.9172558676
 10
-11.7841440386
 20
-18.4831357964
 10
-11.6615358088
 20
-18.0285209964
 10
-11.5615204041
 20
-17.5545181225
 10
-11.4843412877
 20
-17.0622810215
 10
-11.4301863336
 20
-16.5530079262
 10
-11.3991873694
 20
-16.0279385401
 10
-11.3914198553
 20
-15.4883510229
 10
-11.4069026995
 20
-14.9355588762
 10
-11.4455982122
 20
-14.3709077446
 10
-11.5074121982
 20
-13.7957721366
 10
-11.5921941862
 20
-13.2115520814
 10
-11.6997377949
 20
-12.6196697233
 10
-11.8297812348
 20
-12.0215658624
 10
-11.9820079449
 20
-11.4186964451
 10
-12.1560473643
 20
-10.8125290172
 10
-12.3514758354
 20
-10.2045391486
  0
LWPOLYLINE
  5
242
100
AcDbEntity
  8
RACCORDO
100
AcDbPolyline
 62
250
  6
CONTINUOUS
 90
8
 70
0
 10
-25.0464179503
 20
-17.6535463523
 10
-24.6160041325
 20
-18.1236539467
 10
-24.1766485326
 20
-18.5741418865
 10
-23.7294206588
 20
-19.0039135642
 10
-23.2754091813
 20
-19.4119228024
 10
-22.8157192851
 20
-19.7971763976
 10
-22.35146998
 20
-20.1587365382
 10
-21.8837913737
 20
-20.4957230903
  0
LWPOLYLINE
  5
243
100
AcDbEntity
  8
RACCORDO
100
AcDbPolyline
 62
7
  6
CONTINUOUS
 90
25
 70
0
 10
-25.1009294521
 20
-17.5918802995
 10
-24.9014101414
 20
-17.8152287142
 10
-24.4531401421
 20
-18.2940815558
 10
-23.9952246931
 20
-18.7521241078
 10
-23.5287565135
 20
-19.1881839855
 10
-23.0548423895
 20
-19.6011396901
 10
-22.5745771123
 20
-19.9899398222
 10
-22.0889942458
 20
-20.3536303918
 10
-21.5993269937
 20
-20.6911611042
 10
-21.1069509186
 20
-21.001476029
 10
-20.6127843922
 20
-21.2838777537
 10
-20.1181973235
 20
-21.5374524463
 10
-19.6251963056
 20
-21.7611239167
 10
-19.1350924562
 20
-21.9543304592
 10
-18.648792348
 20
-22.1167340008
 10
-18.16762101
 20
-22.247901727
 10
-17.6923457991
 20
-22.3476136408
 10
-17.2243377286
 20
-22.4155571715
 10
-16.7657431712
 20
-22.4515211662
 10
-16.3177640059
 20
-22.4556346158
 10
-15.8811974955
 20
-22.4281095518
 10
-15.4575227235
 20
-22.3692912342
 10
-15.0478784099
 20
-22.2796709086
 10
-14.6530607073
 20
-22.1597702542
 10
-14.2740021479
 20
-22.0102165527
  0
LINE
  5
244
100
AcDbEntity
  8
RACCORDO
100
AcDbLine
 62
250
  6
CONTINUOUS
 10
-25.0998481789
 20
-17.5931082591
 11
-25.0464179503
 21
-17.6535463523
  0
LWPOLYLINE
  5
245
100
AcDbEntity
  8
0
100
AcDbPolyline
 62
250
  6
CONTINUOUS
 90
13
 70
0
 10
-25.8542697013
 20
3.2175908019
 10
-25.8569244946
 20
4.0142712095
 10
-25.8569244946
 20
5.6097282986
 10
-25.8516185343
 20
7.2083455417
 10
-25.8410067003
 20
8.8100985275
 10
-25.8250891531
 20
10.4149627876
 10
-25.8038661273
 20
12.0229138099
 10
-25.7773379525
 20
13.6339272862
 10
-25.7455050394
 20
15.247978367
 10
-25.7083678748
 20
16.8650416548
 10
-25.6659270414
 20
18.4850922023
 10
-25.6181832097
 20
20.1081055173
 10
-25.5651371292
 20
21.7340568138
  0
LWPOLYLINE
  5
246
100
AcDbEntity
  8
0
100
AcDbPolyline
 62
250
  6
CONTINUOUS
 90
22
 70
0
 10
-25.7115889097
 20
21.9383707581
 10
-25.7116489723
 20
21.9361294461
 10
-25.711466738
 20
21.9251128467
 10
-25.710492064
 20
21.9140901698
 10
-25.7087264965
 20
21.9030788997
 10
-25.7061728359
 20
21.8920965024
 10
-25.7028351328
 20
21.881160398
 10
-25.6987186815
 20
21.8702879334
 10
-25.6938300116
 20
21.8594963544
 10
-25.6881768772
 20
21.8488027784
 10
-25.6817682455
 20
21.8382241676
 10
-25.6746142817
 20
21.8277773018
 10
-25.6667263335
 20
21.8174787516
 10
-25.6581169126
 20
21.8073448526
 10
-25.6487996752
 20
21.7973916791
 10
-25.6387894004
 20
21.7876350187
 10
-25.6281019662
 20
21.7780903474
 10
-25.6167543251
 20
21.7687728049
 10
-25.6047644766
 20
21.7596971706
 10
-25.592151439
 20
21.7508778403
 10
-25.5789352189
 20
21.742328803
 10
-25.5651367798
 20
21.7340636193
  0
LWPOLYLINE
  5
247
100
AcDbEntity
  8
0
100
AcDbPolyline
 62
7
  6
CONTINUOUS
 90
13
 70
0
 10
-25.7115885905
 20
21.9383832034
 10
-25.7642897161
 20
20.3235157535
 10
-25.812102696
 20
18.6992629404
 10
-25.8546049621
 20
17.0779698585
 10
-25.891795684
 20
15.459664311
 10
-25.923674314
 20
13.8443704114
 10
-25.9502403767
 20
12.2321107801
 10
-25.971493403
 20
10.6229092523
 10
-25.9874330555
 20
9.0167905567
 10
-25.9980590364
 20
7.4137786633
 10
-26.0033710778
 20
5.8138977389
 10
-26.0033690741
 20
4.2171726836
 10
-25.9996803287
 20
3.1114422716
  0
LWPOLYLINE
  5
248
100
AcDbEntity
  8
0
100
AcDbPolyline
 62
250
  6
CONTINUOUS
 90
52
 70
0
 10
-25.565137127
 20
21.7340568126
 10
-25.5634520815
 20
21.770477132
 10
-25.5608894336
 20
21.8073430682
 10
-25.5574514395
 20
21.8446236603
 10
-25.5531412104
 20
21.8822871496
 10
-25.5479623954
 20
21.9203023756
 10
-25.5419190644
 20
21.9586388452
 10
-25.535016233
 20
21.9972650681
 10
-25.5272598032
 20
22.0361480572
 10
-25.5186561906
 20
22.0752547481
 10
-25.5092127562
 20
22.1145522669
 10
-25.4989374676
 20
22.1540078019
 10
-25.4878387417
 20
22.1935881426
 10
-25.475926047
 20
22.2332600843
 10
-25.4632094541
 20
22.2729904645
 10
-25.4496993032
 20
22.3127460287
 10
-25.4354070255
 20
22.3524936392
 10
-25.4203447616
 20
22.392199882
 10
-25.404524907
 20
22.4318311046
 10
-25.3879609386
 20
22.4713540914
 10
-25.3706668686
 20
22.5107358236
 10
-25.3526568508
 20
22.5499430873
 10
-25.333946175
 20
22.5889431304
 10
-25.3145507162
 20
22.6277032868
 10
-25.2944864008
 20
22.6661907375
 10
-25.2737703247
 20
22.7043732355
 10
-25.2524200156
 20
22.7422189263
 10
-25.2304528735
 20
22.7796959667
 10
-25.2078875099
 20
22.8167731166
 10
-25.1847431025
 20
22.853419297
 10
-25.1610386585
 20
22.8896034123
 10
-25.1367943362
 20
22.92529521
 10
-25.1120306798
 20
22.9604648953
 10
-25.0867679666
 20
22.9950826844
 10
-25.0610276118
 20
23.0291197312
 10
-25.0348314938
 20
23.0625475484
 10
-25.0082011976
 20
23.0953376325
 10
-24.9811594384
 20
23.1274625242
 10
-24.9537290778
 20
23.158895526
 10
-24.925932444
 20
23.1896101145
 10
-24.8977930872
 20
23.2195807295
 10
-24.8693349402
 20
23.2487823061
 10
-24.8405813376
 20
23.2771899912
 10
-24.811556613
 20
23.3047801891
 10
-24.7822854836
 20
23.3315298124
 10
-24.7527922117
 20
23.3574158274
 10
-24.7231023037
 20
23.3824163207
 10
-24.6932405162
 20
23.4065109024
 10
-24.663230226
 20
23.4296798638
 10
-24.6330962401
 20
23.4519039439
 10
-24.6028647946
 20
23.4731644576
 10
-24.5725615539
 20
23.4934436451
  0
LWPOLYLINE
  5
249
100
AcDbEntity
  8
0
100
AcDbPolyline
 62
250
  6
CONTINUOUS
 90
27
 70
0
 10
-18.6957116353
 20
26.4040482653
 10
-18.7001307209
 20
26.3933554383
 10
-18.7049368576
 20
26.3829184058
 10
-18.7101191941
 20
26.3727607325
 10
-18.7156660297
 20
26.3629053521
 10
-18.721564841
 20
26.3533745159
 10
-18.7278023097
 20
26.3441897426
 10
-18.734364353
 20
26.3353717692
 10
-18.7412361552
 20
26.326940505
 10
-18.748402201
 20
26.3189149862
 10
-18.755846311
 20
26.3113133326
 10
-18.763551678
 20
26.3041527071
 10
-18.7715009039
 20
26.2974492775
 10
-18.779676041
 20
26.2912181786
 10
-18.7880586316
 20
26.2854734785
 10
-18.7966297491
 20
26.2802281476
 10
-18.8053700414
 20
26.2754940285
 10
-18.8142597749
 20
26.2712818094
 10
-18.8232788787
 20
26.2676010002
 10
-18.8324069894
 20
26.264459911
 10
-18.8416234978
 20
26.2618656335
 10
-18.8509075953
 20
26.2598240244
 10
-18.8602383204
 20
26.2583396931
 10
-18.8695946064
 20
26.2574159906
 10
-18.8789553293
 20
26.2570550021
 10
-18.8882993546
 20
26.2572575423
 10
-18.8944142831
 20
26.2576967419
  0
LINE
  5
24A
100
AcDbEntity
  8
0
100
AcDbLine
 62
7
  6
CONTINUOUS
 10
-12.4973388521
 20
25.1033219933
 11
-8.8977588214
 21
27.1938752138
  0
LINE
  5
24B
100
AcDbEntity
  8
0
100
AcDbLine
 62
7
  6
CONTINUOUS
 10
-6.1566548135
 20
28.3763723549
 11
-12.1437854615
 21
24.8991846967
  0
LINE
  5
24C
100
AcDbEntity
  8
0
100
AcDbLine
 62
7
  6
CONTINUOUS
 10
-11.6853127317
 20
24.6344682885
 11
-7.046189827
 21
27.3130442695
  0
LWPOLYLINE
  5
24D
100
AcDbEntity
  8
0
100
AcDbPolyline
 62
7
  6
CONTINUOUS
 90
20
 70
0
 10
-3.8665615468
 20
25.4729385066
 10
-3.8568829312
 20
25.4758882589
 10
-3.8468682687
 20
25.478337993
 10
-3.8365253438
 20
25.4802799405
 10
-3.8258758963
 20
25.4817106372
 10
-3.8149160848
 20
25.4826188063
 10
-3.803613193
 20
25.4829827459
 10
-3.7919786678
 20
25.482796696
 10
-3.7800165686
 20
25.4820469428
 10
-3.7676780224
 20
25.4806941702
 10
-3.7549540741
 20
25.4787247478
 10
-3.7418679487
 20
25.476125036
 10
-3.7284170106
 20
25.4728514879
 10
-3.7146131073
 20
25.4688894702
 10
-3.7004662975
 20
25.4642251009
 10
-3.6859722796
 20
25.4588140857
 10
-3.6711403971
 20
25.4526369965
 10
-3.6559914073
 20
25.4456822783
 10
-3.6405400343
 20
25.4379162295
 10
-3.6248139624
 20
25.429325567
  0
LINE
  5
24E
100
AcDbEntity
  8
0
100
AcDbLine
 62
7
  6
CONTINUOUS
 10
11.6279757053
 20
-28.0354772988
 11
12.3387849228
 21
-28.1007297799
  0
LWPOLYLINE
  5
24F
100
AcDbEntity
  8
RACCORDO
100
AcDbPolyline
 62
250
  6
CONTINUOUS
 90
60
 70
0
 10
-21.1502641637
 20
-19.5572388376
 10
-20.7512207618
 20
-19.7518396891
 10
-20.3553619525
 20
-19.9210831552
 10
-19.9627132388
 20
-20.0647663182
 10
-19.5732491177
 20
-20.1830920957
 10
-19.190077673
 20
-20.2751162298
 10
-18.8132492683
 20
-20.3406282644
 10
-18.44271354
 20
-20.3798386556
 10
-18.0814274808
 20
-20.3924345139
 10
-17.729465104
 20
-20.3782028882
 10
-17.3867523963
 20
-20.3373567297
 10
-17.0560243112
 20
-20.270222002
 10
-16.7373767368
 20
-20.1765883602
 10
-16.430713785
 20
-20.0566661493
 10
-16.1384827448
 20
-19.9114123674
 10
-15.8607990831
 20
-19.7406243134
 10
-15.597547333
 20
-19.5445046885
 10
-15.3508283829
 20
-19.324618594
 10
-15.12077452
 20
-19.0807758376
 10
-14.9072534572
 20
-18.8131666116
 10
-14.7119692207
 20
-18.5239265949
 10
-14.5350677526
 20
-18.212882711
 10
-14.376403111
 20
-17.8802080364
 10
-14.2372414965
 20
-17.52855748
 10
-14.1177389681
 20
-17.1577791668
 10
-14.0177394668
 20
-16.7680249718
 10
-13.9380410159
 20
-16.362405428
 10
-13.8788060571
 20
-15.940793778
 10
-13.8398721486
 20
-15.5033167793
 10
-13.8215499886
 20
-15.0534652373
 10
-13.8240045371
 20
-14.5911396753
 10
-13.8470708341
 20
-14.11643957
 10
-13.8905646977
 20
-13.6331541567
 10
-13.9546494614
 20
-13.141215522
 10
-14.0391617918
 20
-12.6406915793
 10
-14.1434275073
 20
-12.1355753041
 10
-14.2676045048
 20
-11.625829853
 10
-14.4115348875
 20
-11.1114920694
 10
-14.5740707828
 20
-10.59666546
 10
-14.7553638725
 20
-10.0813407447
 10
-14.9552624747
 20
-9.5655272036
 10
-15.1721636719
 20
-9.0533561828
 10
-15.4061902132
 20
-8.5448799993
 10
-15.6572193493
 20
-8.0400463362
 10
-15.9232799157
 20
-7.5428295885
 10
-16.2045317062
 20
-7.0532305633
 10
-16.5008149269
 20
-6.5712484536
 10
-16.8096790311
 20
-6.1008552335
 10
-17.1311568715
 20
-5.6422386292
 10
-17.4652155953
 20
-5.1952109146
 10
-17.8093060977
 20
-4.7631808858
 10
-18.1635698617
 20
-4.3461856591
 10
-18.5278654042
 20
-3.9441881182
 10
-18.899219172
 20
-3.5604857104
 10
-19.2779932247
 20
-3.1950522855
 10
-19.6638255026
 20
-2.8479139936
 10
-20.0526562723
 20
-2.5224467323
 10
-20.4431322895
 20
-2.2197758008
 10
-20.8366067986
 20
-1.9387758998
 10
-21.2330797996
 20
-1.6794470293
  0
LINE
  5
250
100
AcDbEntity
  8
0
100
AcDbLine
 62
7
  6
CONTINUOUS
 10
-9.0055767396
 20
21.8538370275
 11
-3.3616908366
 21
25.1125480803
  0
LINE
  5
251
100
AcDbEntity
  8
0
100
AcDbLine
 62
7
  6
CONTINUOUS
 10
-8.5738981308
 20
22.8379764931
 11
-3.9338590305
 21
25.4429108244
  0
LINE
  5
252
100
AcDbEntity
  8
0
100
AcDbLine
 62
7
  6
CONTINUOUS
 10
-1.7905257781
 20
25.8554241703
 11
-3.1794971725
 21
25.076575732
  0
LINE
  5
253
100
AcDbEntity
  8
RACCORDO
100
AcDbLine
 62
250
  6
CONTINUOUS
 10
5.3233031639
 20
28.7735398877
 11
5.6262456563
 21
28.9384079464
  0
LWPOLYLINE
  5
254
100
AcDbEntity
  8
RACCORDO
100
AcDbPolyline
 62
7
  6
CONTINUOUS
 90
28
 70
0
 10
5.3233031639
 20
28.7735398877
 10
5.7423446312
 20
28.9988136202
 10
6.1772339552
 20
29.1995940282
 10
6.6273645349
 20
29.3751465507
 10
7.0919633716
 20
29.5247521865
 10
7.570478752
 20
29.6478379307
 10
8.0626561852
 20
29.7439100347
 10
8.568437668
 20
29.8124529323
 10
9.0865947923
 20
29.8528085739
 10
9.6151364505
 20
29.8645015233
 10
10.1526390738
 20
29.847350915
 10
10.6991302321
 20
29.8012038866
 10
11.254831635
 20
29.7257599138
 10
11.8203340487
 20
29.6204918512
 10
12.3938017278
 20
29.4852869756
 10
12.971787937
 20
29.3207887602
 10
13.5528922096
 20
29.1274661425
 10
14.1370902708
 20
28.9053818563
 10
14.7229019455
 20
28.6551423107
 10
15.3097223056
 20
28.3770789905
 10
15.8966918047
 20
28.071656675
 10
16.4818844418
 20
27.7400106242
 10
17.0642374128
 20
27.3829654257
 10
17.6433239042
 20
27.0009904187
 10
18.2181263543
 20
26.5949476189
 10
18.7878053203
 20
26.1656339431
 10
19.351717113
 20
25.7137265551
 10
19.9091029048
 20
25.2400092012
  0
LWPOLYLINE
  5
255
100
AcDbEntity
  8
RACCORDO
100
AcDbPolyline
 62
250
  6
CONTINUOUS
 90
35
 70
0
 10
5.6262456563
 20
28.9384079464
 10
6.0425659411
 20
29.1342512871
 10
6.4732223052
 20
29.302849533
 10
6.9175669833
 20
29.4439490549
 10
7.3749316184
 20
29.5573375921
 10
7.8446283288
 20
29.6428445806
 10
8.3259507171
 20
29.7003413883
 10
8.8181751277
 20
29.7297415054
 10
9.3205609414
 20
29.7310006321
 10
9.8323516979
 20
29.7041169026
 10
10.3527772017
 20
29.6491309007
 10
10.8810550176
 20
29.5661254195
 10
11.4163908351
 20
29.4552253362
 10
11.9579793615
 20
29.3165975302
 10
12.505006071
 20
29.1504505459
 10
13.0566487415
 20
28.9570341229
 10
13.6120778699
 20
28.736639055
 10
14.170457834
 20
28.489596873
 10
14.7309487107
 20
28.2162791551
 10
15.2927075503
 20
27.9170969308
 10
15.8548893344
 20
27.5925002147
 10
16.4166481761
 20
27.242977411
 10
16.9771390586
 20
26.8690543099
 10
17.5355190304
 20
26.4712933002
 10
18.0909481633
 20
26.050292729
 10
18.6425908338
 20
25.606686023
 10
19.1896175403
 20
25.141140277
 10
19.7312060598
 20
24.6543552341
 10
20.2665418646
 20
24.1470629463
 10
20.7948196644
 20
23.6200264644
 10
21.3152451542
 20
23.074038156
 10
21.8270358993
 20
22.5099187634
 10
22.3294217037
 20
21.9285171059
 10
22.8216461106
 20
21.3307085857
 10
23.3029685027
 20
20.7173927477
  0
LINE
  5
256
100
AcDbEntity
  8
0
100
AcDbLine
 62
7
  6
CONTINUOUS
 10
-3.278084863
 20
25.1491280364
 11
-3.2963166776
 21
25.1427671992
  0
LWPOLYLINE
  5
257
100
AcDbEntity
  8
0
100
AcDbPolyline
 62
7
  6
CONTINUOUS
 90
27
 70
0
 10
5.4367834722
 20
-30.1193185605
 10
5.4594701037
 20
-30.131960501
 10
5.4902709047
 20
-30.1477064617
 10
5.5218442552
 20
-30.162250207
 10
5.5541594227
 20
-30.1755595233
 10
5.5872015689
 20
-30.1876088446
 10
5.6209308661
 20
-30.1983632655
 10
5.6553061237
 20
-30.2077910813
 10
5.6903133919
 20
-30.21586947
 10
5.7259129395
 20
-30.2225688465
 10
5.7620614079
 20
-30.2278615648
 10
5.7987443281
 20
-30.2317261602
 10
5.8359249165
 20
-30.2341378894
 10
5.8735596333
 20
-30.2350732907
 10
5.9116305821
 20
-30.2345116931
 10
5.950098787
 20
-30.2324325769
 10
5.9889296296
 20
-30.228816348
 10
6.028119735
 20
-30.2236408695
 10
6.0676380573
 20
-30.2168857871
 10
6.1074509798
 20
-30.2085314579
 10
6.1475588046
 20
-30.1985513724
 10
6.187931949
 20
-30.1869237879
 10
6.2285416343
 20
-30.1736264364
 10
6.2693961104
 20
-30.1586238205
 10
6.3104814598
 20
-30.1418831969
 10
6.3517543555
 20
-30.1233835689
 10
6.3809020347
 20
-30.1092932471
  0
LINE
  5
258
100
AcDbEntity
  8
0
100
AcDbLine
 62
7
  6
CONTINUOUS
 10
5.4368705886
 20
-30.1193691317
 11
-11.0664471809
 21
-20.5905602867
  0
LINE
  5
259
100
AcDbEntity
  8
0
100
AcDbLine
 62
250
  6
CONTINUOUS
 10
5.1235350784
 20
-29.4804035775
 11
-10.6173724313
 21
-20.3918008613
  0
LWPOLYLINE
  5
25A
100
AcDbEntity
  8
0
100
AcDbPolyline
 62
250
  6
CONTINUOUS
 90
18
 70
0
 10
-20.8857110784
 20
27.5020461198
 10
-20.8856250688
 20
27.4982600517
 10
-20.8850328015
 20
27.4914203329
 10
-20.8838793471
 20
27.4846045221
 10
-20.8821672987
 20
27.4778279574
 10
-20.8799005077
 20
27.4711058942
 10
-20.8770840731
 20
27.4644534624
 10
-20.8737243325
 20
27.4578856371
 10
-20.8698288488
 20
27.4514172072
 10
-20.86540639
 20
27.4450627335
 10
-20.8604669088
 20
27.4388365185
 10
-20.855021524
 20
27.4327525788
 10
-20.8490824886
 20
27.426824606
 10
-20.842663173
 20
27.4210659466
 10
-20.8357780394
 20
27.4154895736
 10
-20.8284425922
 20
27.4101080413
 10
-20.8206733405
 20
27.4049334585
 10
-20.8124877737
 20
27.3999774714
  0
LINE
  5
25B
100
AcDbEntity
  8
0
100
AcDbLine
 62
7
  6
CONTINUOUS
 10
-20.8857110784
 20
27.5020461198
 11
-20.8857110784
 21
27.2663785959
  0
LINE
  5
25C
100
AcDbEntity
  8
0
100
AcDbLine
 62
250
  6
CONTINUOUS
 10
-20.8124877737
 20
27.3999774714
 11
-20.8124877737
 21
27.1643099476
  0
LINE
  5
25D
100
AcDbEntity
  8
0
100
AcDbLine
 62
7
  6
CONTINUOUS
 10
-20.1823067335
 20
26.7159088252
 11
-20.1823067335
 21
26.3140107845
  0
LINE
  5
25E
100
AcDbEntity
  8
0
100
AcDbLine
 62
250
  6
CONTINUOUS
 10
-20.1090834288
 20
26.6736306068
 11
-20.1090834288
 21
26.2088089553
  0
LINE
  5
25F
100
AcDbEntity
  8
RACCORDO
100
AcDbLine
 62
250
  6
CONTINUOUS
 10
-21.8655357719
 20
-2.6796289904
 11
-21.8655281225
 21
-1.3066208255
  0
LINE
  5
260
100
AcDbEntity
  8
RACCORDO
100
AcDbLine
 62
250
  6
CONTINUOUS
 10
-21.2330725958
 20
-1.6717927201
 11
-21.2330801226
 21
-3.0447721914
  0
LINE
  5
261
100
AcDbEntity
  8
RACCORDO
100
AcDbLine
 62
250
  6
CONTINUOUS
 10
-21.789261068
 20
-2.6964510943
 11
-21.7892493657
 21
-1.3236240787
  0
LINE
  5
262
100
AcDbEntity
  8
RACCORDO
100
AcDbLine
 62
7
  6
CONTINUOUS
 10
-21.2622391336
 20
-1.5994196683
 11
-21.2623691214
 21
-3.0039426637
  0
LINE
  5
263
100
AcDbEntity
  8
RACCORDO
100
AcDbLine
 62
7
  6
CONTINUOUS
 10
-21.2623696808
 20
-3.0039607206
 11
-21.2624114648
 21
-3.0079979557
  0
LWPOLYLINE
  5
264
100
AcDbEntity
  8
RACCORDO
100
AcDbPolyline
 62
250
  6
CONTINUOUS
 90
37
 70
0
 10
-21.7892493657
 20
-1.3236240787
 10
-21.787922078
 20
-1.2306474085
 10
-21.7845999955
 20
-1.13906735
 10
-21.7794518339
 20
-1.0490326711
 10
-21.772650641
 20
-0.960769389
 10
-21.7643524997
 20
-0.8743161634
 10
-21.7546789825
 20
-0.7895172247
 10
-21.7437630141
 20
-0.7064433802
 10
-21.7317410216
 20
-0.6252139363
 10
-21.7187089336
 20
-0.5457228708
 10
-21.704788584
 20
-0.4680726679
 10
-21.6900881001
 20
-0.3922996098
 10
-21.6746549759
 20
-0.3181813068
 10
-21.6585871457
 20
-0.2457889761
 10
-21.641971117
 20
-0.1751484173
 10
-21.6248057796
 20
-0.1059551464
 10
-21.607160162
 20
-0.0382358027
 10
-21.5891055358
 20
0.0279698658
 10
-21.5706147178
 20
0.0929564908
 10
-21.5517143976
 20
0.1567890422
 10
-21.5324817351
 20
0.2193565395
 10
-21.5129491159
 20
0.2806950205
 10
-21.4931473427
 20
0.3408371167
 10
-21.4731385172
 20
0.3997167266
 10
-21.4530010614
 20
0.4572247315
 10
-21.4328496361
 20
0.5131622593
 10
-21.4126646929
 20
0.5677056557
 10
-21.3923107456
 20
0.6213105139
 10
-21.3719390819
 20
0.6736584961
 10
-21.3514617494
 20
0.7250527972
 10
-21.3303328607
 20
0.7768779639
 10
-21.3084371994
 20
0.829374216
 10
-21.2858673847
 20
0.8822780976
 10
-21.2623353973
 20
0.9362106597
 10
-21.2377204189
 20
0.9913659664
 10
-21.2120878365
 20
1.0475143804
 10
-21.1854119827
 20
1.1046362024
  0
LWPOLYLINE
  5
265
100
AcDbEntity
  8
RACCORDO
100
AcDbPolyline
 62
250
  6
CONTINUOUS
 90
34
 70
0
 10
-21.8655281225
 20
-1.3066208255
 10
-21.8640074
 20
-1.2046845525
 10
-21.8601091711
 20
-1.1044203771
 10
-21.8540568808
 20
-1.0060150555
 10
-21.8460861886
 20
-0.9097502987
 10
-21.8363974282
 20
-0.8156718669
 10
-21.8251298346
 20
-0.723580871
 10
-21.8124552236
 20
-0.6335624006
 10
-21.7985522828
 20
-0.5457584391
 10
-21.7835254978
 20
-0.4600255293
 10
-21.767532272
 20
-0.3764981574
 10
-21.7507096526
 20
-0.2952013859
 10
-21.7330894884
 20
-0.2158058294
 10
-21.7147888483
 20
-0.1383828437
 10
-21.6959172672
 20
-0.0629672172
 10
-21.6764490142
 20
0.0108420492
 10
-21.6564565794
 20
0.0830463476
 10
-21.6360333321
 20
0.1535743148
 10
-21.6151470699
 20
0.2227280826
 10
-21.5938063725
 20
0.2906545607
 10
-21.572125214
 20
0.3571590867
 10
-21.5502197429
 20
0.4220365073
 10
-21.5282058476
 20
0.4851260741
 10
-21.5060993832
 20
0.546556311
 10
-21.4838613819
 20
0.6065592574
 10
-21.4617239722
 20
0.6646499432
 10
-21.4395645693
 20
0.7212946717
 10
-21.4167506292
 20
0.7781489758
 10
-21.393273238
 20
0.8352058684
 10
-21.3691351098
 20
0.8924459625
 10
-21.3436214834
 20
0.9514910663
 10
-21.3164367414
 20
1.0128596097
 10
-21.287759354
 20
1.0759762913
 10
-21.2575355781
 20
1.140808757
  0
LINE
  5
266
100
AcDbEntity
  8
RACCORDO
100
AcDbLine
 62
250
  6
CONTINUOUS
 10
-21.2312865839
 20
-1.5550814268
 11
-21.2330725958
 21
-1.6717927201
  0
LWPOLYLINE
  5
267
100
AcDbEntity
  8
0
100
AcDbPolyline
 62
250
  6
CONTINUOUS
 90
34
 70
0
 10
-20.8124877737
 20
27.3999774714
 10
-20.8122888229
 20
27.4097736381
 10
-20.8116924173
 20
27.4197775132
 10
-20.8106998975
 20
27.4299665799
 10
-20.8093134947
 20
27.4403179112
 10
-20.8075363285
 20
27.4508082018
 10
-20.8053724018
 20
27.4614138191
 10
-20.8028265874
 20
27.4721108852
 10
-20.799904615
 20
27.4828753277
 10
-20.7966130633
 20
27.4936829136
 10
-20.7929593414
 20
27.5045093178
 10
-20.7889516746
 20
27.5153301696
 10
-20.7845990881
 20
27.5261211043
 10
-20.7799113812
 20
27.5368578313
 10
-20.7748991063
 20
27.5475161857
 10
-20.7695735484
 20
27.5580721739
 10
-20.7639466935
 20
27.5685020418
 10
-20.758031211
 20
27.5787823089
 10
-20.7518404286
 20
27.5888898185
 10
-20.7453883019
 20
27.5988017954
 10
-20.7386893394
 20
27.6084959602
 10
-20.7317585759
 20
27.6179505564
 10
-20.724611542
 20
27.6271443857
 10
-20.717264386
 20
27.6360566629
 10
-20.7097338067
 20
27.6446671445
 10
-20.7020368659
 20
27.6529563604
 10
-20.6941907974
 20
27.6609057888
 10
-20.6862131206
 20
27.6684976933
 10
-20.6781205661
 20
27.675716044
 10
-20.6699325416
 20
27.682543423
 10
-20.66167107
 20
27.6889617729
 10
-20.6533560251
 20
27.6949563596
 10
-20.645004965
 20
27.7005152253
 10
-20.6366366748
 20
27.7056264632
  0
LINE
  5
268
100
AcDbEntity
  8
RACCORDO
100
AcDbLine
 62
250
  6
CONTINUOUS
 10
-21.2330801226
 20
-3.0447721914
 11
-21.2334086413
 21
-3.0571402128
  0
LINE
  5
269
100
AcDbEntity
  8
RACCORDO
100
AcDbLine
 62
7
  6
CONTINUOUS
 10
-21.2624114648
 20
-3.0079979557
 11
-21.2628813331
 21
-3.0178328058
  0
LWPOLYLINE
  5
26A
100
AcDbEntity
  8
RACCORDO
100
AcDbPolyline
 62
250
  6
CONTINUOUS
 90
51
 70
0
 10
-21.2334086413
 20
-3.0571402128
 10
-21.2341462935
 20
-3.0688445187
 10
-21.2352930791
 20
-3.079885109
 10
-21.2368854587
 20
-3.0902430459
 10
-21.2388869717
 20
-3.0999372672
 10
-21.2411882366
 20
-3.1090245868
 10
-21.2437816925
 20
-3.1174993712
 10
-21.2466749002
 20
-3.1253672539
 10
-21.2497811607
 20
-3.1327019493
 10
-21.2530884355
 20
-3.1394985754
 10
-21.256608763
 20
-3.1457620142
 10
-21.2602915598
 20
-3.151580626
 10
-21.264125716
 20
-3.1569590787
 10
-21.2681223415
 20
-3.1618927045
 10
-21.2722641821
 20
-3.1664558608
 10
-21.2765452859
 20
-3.1706584313
 10
-21.2809716048
 20
-3.1744905322
 10
-21.2855437406
 20
-3.1779968708
 10
-21.2902576413
 20
-3.1811856333
 10
-21.2951173588
 20
-3.1840486333
 10
-21.3001356506
 20
-3.1866060186
 10
-21.3053049737
 20
-3.1888640722
 10
-21.310632871
 20
-3.190816511
 10
-21.3161547288
 20
-3.1924646339
 10
-21.3218563622
 20
-3.1938168886
 10
-21.3277519561
 20
-3.1948648274
 10
-21.3339194506
 20
-3.195584406
 10
-21.340355552
 20
-3.1959857517
 10
-21.347063554
 20
-3.1960587372
 10
-21.3541312782
 20
-3.1957489368
 10
-21.3616079908
 20
-3.1950429331
 10
-21.3694444256
 20
-3.1939541434
 10
-21.3775806054
 20
-3.1924683939
 10
-21.3860619905
 20
-3.1905481963
 10
-21.3948431206
 20
-3.1882310389
 10
-21.4037276376
 20
-3.1856152127
 10
-21.4126728803
 20
-3.1827040622
 10
-21.4217215099
 20
-3.179494243
 10
-21.4308051522
 20
-3.1760740125
 10
-21.4398816196
 20
-3.172468642
 10
-21.4489930996
 20
-3.1686528602
 10
-21.4581977814
 20
-3.1646391099
 10
-21.4674819926
 20
-3.1604447789
 10
-21.4768594055
 20
-3.1560524795
 10
-21.4864292256
 20
-3.151422491
 10
-21.4961792648
 20
-3.1465709434
 10
-21.5061217112
 20
-3.1414817068
 10
-21.5163923354
 20
-3.1360666715
 10
-21.5270363944
 20
-3.1302964676
 10
-21.5380086313
 20
-3.1242004649
 10
-21.549309046
 20
-3.1177786636
  0
LINE
  5
26B
100
AcDbEntity
  8
RACCORDO
100
AcDbLine
 62
7
  6
CONTINUOUS
 10
-21.2628802041
 20
-3.0178230748
 11
-21.2629093769
 21
-3.018200186
  0
LWPOLYLINE
  5
26C
100
AcDbEntity
  8
RACCORDO
100
AcDbPolyline
 62
250
  6
CONTINUOUS
 90
3
 70
0
 10
-21.2629093769
 20
-3.018200186
 10
-21.2630475413
 20
-3.0198824154
 10
-21.2639928042
 20
-3.0286887326
  0
LWPOLYLINE
  5
26D
100
AcDbEntity
  8
RACCORDO
100
AcDbPolyline
 62
7
  6
CONTINUOUS
 90
5
 70
0
 10
-21.2426231387
 20
-1.2203100435
 10
-21.2506459451
 20
-1.3165335505
 10
-21.2565928282
 20
-1.4118394249
 10
-21.2604589449
 20
-1.5061599489
 10
-21.2622391336
 20
-1.5994196683
  0
LWPOLYLINE
  5
26E
100
AcDbEntity
  8
RACCORDO
100
AcDbPolyline
 62
250
  6
CONTINUOUS
 90
4
 70
0
 10
-21.2086448967
 20
-1.2172098198
 10
-21.218791342
 20
-1.3274901548
 10
-21.2264307617
 20
-1.4402228253
 10
-21.2312865839
 20
-1.5550814268
  0
LINE
  5
26F
100
AcDbEntity
  8
RACCORDO
100
AcDbLine
 62
7
  6
CONTINUOUS
 10
-21.2403764632
 20
-1.1969566137
 11
-21.2426231387
 21
-1.2203100435
  0
LINE
  5
270
100
AcDbEntity
  8
RACCORDO
100
AcDbLine
 62
250
  6
CONTINUOUS
 10
-21.1962666799
 20
-1.1095315992
 11
-21.2086448967
 21
-1.2172098198
  0
LWPOLYLINE
  5
271
100
AcDbEntity
  8
RACCORDO
100
AcDbPolyline
 62
250
  6
CONTINUOUS
 90
4
 70
0
 10
-21.2639928042
 20
-3.0286887326
 10
-21.2652468128
 20
-3.0369727813
 10
-21.266779856
 20
-3.0447463917
 10
-21.2685650262
 20
-3.0520337475
  0
LWPOLYLINE
  5
272
100
AcDbEntity
  8
RACCORDO
100
AcDbPolyline
 62
250
  6
CONTINUOUS
 90
3
 70
0
 10
-21.1658311334
 20
-0.902061141
 10
-21.1819148765
 20
-1.0044219384
 10
-21.1962666799
 20
-1.1095315992
  0
LWPOLYLINE
  5
273
100
AcDbEntity
  8
RACCORDO
100
AcDbPolyline
 62
7
  6
CONTINUOUS
 90
5
 70
0
 10
-21.1901305444
 20
-0.8289554291
 10
-21.2060226004
 20
-0.9259727397
 10
-21.2196548259
 20
-1.0200914505
 10
-21.2317480483
 20
-1.1164372978
 10
-21.2403764632
 20
-1.1969566137
  0
LINE
  5
274
100
AcDbEntity
  8
RACCORDO
100
AcDbLine
 62
250
  6
CONTINUOUS
 10
-21.1482437628
 20
-0.8026043098
 11
-21.1658311334
 21
-0.902061141
  0
LWPOLYLINE
  5
275
100
AcDbEntity
  8
0
100
AcDbPolyline
 62
7
  6
CONTINUOUS
 90
6
 70
0
 10
-15.3567483311
 20
25.2759659711
 10
-15.3585577365
 20
25.2672512864
 10
-15.3599365244
 20
25.2581526689
 10
-15.3608942925
 20
25.2486776076
 10
-15.3614409476
 20
25.2388008499
 10
-15.3615899824
 20
25.229924029
  0
LINE
  5
276
100
AcDbEntity
  8
RACCORDO
100
AcDbLine
 62
250
  6
CONTINUOUS
 10
-21.2575355629
 20
1.1408087488
 11
-21.2544061148
 21
1.1473658881
  0
LWPOLYLINE
  5
277
100
AcDbEntity
  8
0
100
AcDbPolyline
 62
7
  6
CONTINUOUS
 90
16
 70
0
 10
-19.8900819149
 20
7.5713975276
 10
-19.8465895399
 20
7.6342530425
 10
-19.7371382164
 20
7.7828968386
 10
-19.6241034418
 20
7.9271941043
 10
-19.507606458
 20
8.066988519
 10
-19.38763469
 20
8.2022847277
 10
-19.2642073058
 20
8.333074307
 10
-19.1374937226
 20
8.459181027
 10
-19.0075166505
 20
8.5805770662
 10
-18.8742604078
 20
8.697286248
 10
-18.737837272
 20
8.8092095664
 10
-18.5982157875
 20
8.9163636676
 10
-18.4554344348
 20
9.0187279322
 10
-18.3097108128
 20
9.1161472288
 10
-18.1610824622
 20
9.2085901448
 10
-18.0860471627
 20
9.2527366168
  0
LWPOLYLINE
  5
278
100
AcDbEntity
  8
0
100
AcDbPolyline
 62
7
  6
CONTINUOUS
 90
11
 70
0
 10
-19.3341529131
 20
7.9772210049
 10
-19.2840462662
 20
8.0462522105
 10
-19.171745056
 20
8.1913849625
 10
-19.0558692587
 20
8.3318481435
 10
-18.9364230547
 20
8.4676472146
 10
-18.8135462425
 20
8.5986232382
 10
-18.6872348054
 20
8.724770567
 10
-18.5574927601
 20
8.8460948483
 10
-18.4244719552
 20
8.9624540853
 10
-18.2881685518
 20
9.0738424649
 10
-18.1485863888
 20
9.1802658004
  0
LINE
  5
279
100
AcDbEntity
  8
0
100
AcDbLine
 62
7
  6
CONTINUOUS
 10
-7.9375020277
 20
22.4705293591
 11
-8.3691974511
 21
21.9293473959
  0
LINE
  5
27A
100
AcDbEntity
  8
0
100
AcDbLine
 62
7
  6
CONTINUOUS
 10
-7.9375020277
 20
22.4705293591
 11
-8.6483112452
 21
21.593003172
  0
LWPOLYLINE
  5
27B
100
AcDbEntity
  8
0
100
AcDbPolyline
 62
7
  6
CONTINUOUS
 90
22
 70
0
 10
-8.6409063726
 20
21.2902764766
 10
-8.6334767957
 20
21.2983317035
 10
-8.6264620703
 20
21.3068979898
 10
-8.6198621962
 20
21.3159753353
 10
-8.6136693876
 20
21.325577356
 10
-8.6078914303
 20
21.335690436
 10
-8.6025516827
 20
21.346273728
 10
-8.5976519167
 20
21.3573291346
 10
-8.5931903604
 20
21.3688547531
 10
-8.5891850558
 20
21.3808040286
 10
-8.5856378481
 20
21.3931786755
 10
-8.5825468921
 20
21.4059769793
 10
-8.5799246948
 20
21.4191472414
 10
-8.5777731523
 20
21.4326909823
 10
-8.5760903685
 20
21.4466066813
 10
-8.5748831612
 20
21.460838078
 10
-8.5741534524
 20
21.475386391
 10
-8.5738993202
 20
21.4902504015
 10
-8.5741218173
 20
21.5053701928
 10
-8.5748212946
 20
21.5207257924
 10
-8.5759974013
 20
21.5363371728
 10
-8.5776501373
 20
21.5522043339
  0
LINE
  5
27C
100
AcDbEntity
  8
0
100
AcDbLine
 62
7
  6
CONTINUOUS
 10
-8.6483112452
 20
20.8805106048
 11
-9.0055767396
 21
20.6548722004
  0
LINE
  5
27D
100
AcDbEntity
  8
0
100
AcDbLine
 62
7
  6
CONTINUOUS
 10
-7.4160348521
 20
20.0112235071
 11
-5.1286686302
 21
21.3597252057
  0
LINE
  5
27E
100
AcDbEntity
  8
0
100
AcDbLine
 62
250
  6
CONTINUOUS
 10
-7.2899961799
 20
19.9994435141
 11
-5.003011309
 21
21.3477203897
  0
LINE
  5
27F
100
AcDbEntity
  8
0
100
AcDbLine
 62
7
  6
CONTINUOUS
 10
1.1462457876
 20
24.1597690747
 11
-4.3596157126
 21
20.976231836
  0
LINE
  5
280
100
AcDbEntity
  8
0
100
AcDbLine
 62
7
  6
CONTINUOUS
 10
-0.4717993961
 20
25.4275202993
 11
5.3233031639
 21
28.7735398877
  0
LINE
  5
281
100
AcDbEntity
  8
0
100
AcDbLine
 62
250
  6
CONTINUOUS
 10
-6.0589523256
 20
19.2886542213
 11
-3.747891926
 21
20.6230301883
  0
LINE
  5
282
100
AcDbEntity
  8
0
100
AcDbLine
 62
7
  6
CONTINUOUS
 10
-8.6409063726
 20
20.8762351241
 11
-3.2963166776
 21
23.9585281023
  0
LWPOLYLINE
  5
283
100
AcDbEntity
  8
0
100
AcDbPolyline
 62
250
  6
CONTINUOUS
 90
34
 70
0
 10
9.6750991522
 20
-29.5385204866
 10
9.6836820356
 20
-29.5432464232
 10
9.6926434511
 20
-29.5477320109
 10
9.7019632305
 20
-29.5519671548
 10
9.7116203873
 20
-29.5559423188
 10
9.7215931982
 20
-29.5596485615
 10
9.7318592554
 20
-29.5630775535
 10
9.7423954821
 20
-29.5662215816
 10
9.7531781445
 20
-29.5690735584
 10
9.7641829382
 20
-29.5716270536
 10
9.7753850826
 20
-29.5738763178
 10
9.7867593785
 20
-29.575816292
 10
9.7982802264
 20
-29.5774426099
 10
9.8099216968
 20
-29.5787516113
 10
9.8216575896
 20
-29.5797403503
 10
9.8334614922
 20
-29.5804066016
 10
9.845306847
 20
-29.5807488658
 10
9.8571669862
 20
-29.5807663721
 10
9.8690151914
 20
-29.5804590821
 10
9.8808247803
 20
-29.5798276906
 10
9.8925691916
 20
-29.5788736205
 10
9.9042220188
 20
-29.577599018
 10
9.9157571211
 20
-29.5760067388
 10
9.9271484509
 20
-29.5741003748
 10
9.9383701473
 20
-29.571884264
 10
9.9493968212
 20
-29.569363448
 10
9.9602038214
 20
-29.5665435901
 10
9.9707670512
 20
-29.5634309888
 10
9.9810635644
 20
-29.5600323613
 10
9.9910693197
 20
-29.5563555975
 10
10.0007596688
 20
-29.5524098841
 10
10.0101123449
 20
-29.5482045984
 10
10.019107286
 20
-29.5437490827
 10
10.0277245232
 20
-29.5390535152
  0
LINE
  5
284
100
AcDbEntity
  8
0
100
AcDbLine
 62
7
  6
CONTINUOUS
 10
8.4958259532
 20
-29.1778329328
 11
9.7268698074
 21
-29.8886222257
  0
LINE
  5
285
100
AcDbEntity
  8
0
100
AcDbLine
 62
250
  6
CONTINUOUS
 10
8.4610104565
 20
-29.0731884136
 11
9.6750991522
 21
-29.7741880104
  0
LINE
  5
286
100
AcDbEntity
  8
0
100
AcDbLine
 62
250
  6
CONTINUOUS
 10
9.6750991522
 20
-29.5385204866
 11
8.6801364108
 21
-28.9640414695
  0
LINE
  5
287
100
AcDbEntity
  8
0
100
AcDbLine
 62
250
  6
CONTINUOUS
 10
9.7634874998
 20
-29.3107151621
 11
8.9394042263
 21
-28.8348998082
  0
LINE
  5
288
100
AcDbEntity
  8
0
100
AcDbLine
 62
250
  6
CONTINUOUS
 10
10.2965944129
 20
-28.6525705218
 11
9.8375575427
 21
-28.387528386
  0
LINE
  5
289
100
AcDbEntity
  8
0
100
AcDbLine
 62
250
  6
CONTINUOUS
 10
8.4958259532
 20
-29.1778329328
 11
8.4924450041
 21
-29.1757642144
  0
LWPOLYLINE
  5
28A
100
AcDbEntity
  8
RACCORDO
100
AcDbPolyline
 62
250
  6
CONTINUOUS
 90
11
 70
0
 10
-21.2735434055
 20
-2.904906014
 10
-21.2804288302
 20
-2.8870210075
 10
-21.2888413829
 20
-2.8696533539
 10
-21.2987705259
 20
-2.8528507405
 10
-21.3101878431
 20
-2.8366115301
 10
-21.3230652542
 20
-2.8209788195
 10
-21.3373701724
 20
-2.8060076872
 10
-21.3530538889
 20
-2.7917117532
 10
-21.3700672048
 20
-2.7781251694
 10
-21.3883636202
 20
-2.7653035023
 10
-21.407888802
 20
-2.7532894723
  0
LWPOLYLINE
  5
28B
100
AcDbEntity
  8
RACCORDO
100
AcDbPolyline
 62
250
  6
CONTINUOUS
 90
3
 70
0
 10
-21.2740091642
 20
-1.5475457878
 10
-21.2657401241
 20
-1.5740882942
 10
-21.2622142438
 20
-1.5981157503
  0
LWPOLYLINE
  5
28C
100
AcDbEntity
  8
0
100
AcDbPolyline
 62
250
  6
CONTINUOUS
 90
34
 70
0
 10
-19.2288185484
 20
26.6886551499
 10
-19.2290620498
 20
26.6984594369
 10
-19.2297034506
 20
26.7084740038
 10
-19.2307412991
 20
26.7186761597
 10
-19.232173246
 20
26.7290427945
 10
-19.2339960478
 20
26.7395504132
 10
-19.2362055716
 20
26.7501751886
 10
-19.238796809
 20
26.7608930409
 10
-19.241763889
 20
26.7716796894
 10
-19.245100087
 20
26.7825106894
 10
-19.2487978432
 20
26.7933615006
 10
-19.2528487778
 20
26.8042075348
 10
-19.2572437075
 20
26.815024208
 10
-19.2619726718
 20
26.8257870096
 10
-19.2670249545
 20
26.8364715545
 10
-19.2723891048
 20
26.84705363
 10
-19.2780529695
 20
26.8575092644
 10
-19.2840037109
 20
26.8678147626
 10
-19.2902278326
 20
26.8779467567
 10
-19.2967112109
 20
26.8878822645
 10
-19.3034391699
 20
26.8975988046
 10
-19.3103965083
 20
26.9070744242
 10
-19.3175675314
 20
26.9162877353
 10
-19.3249359292
 20
26.9252177711
 10
-19.3324848457
 20
26.9338441151
 10
-19.3401970652
 20
26.9421471328
 10
-19.3480552038
 20
26.9501081461
 10
-19.3560415962
 20
26.9577092723
 10
-19.3641393654
 20
26.964934341
 10
-19.3723289764
 20
26.9717658165
 10
-19.3805883042
 20
26.9781855467
 10
-19.3888973702
 20
26.984178704
 10
-19.3972385031
 20
26.9897332386
 10
-19.4055928205
 20
26.9948371704
  0
LWPOLYLINE
  5
28D
100
AcDbEntity
  8
0
100
AcDbPolyline
 62
250
  6
CONTINUOUS
 90
19
 70
0
 10
-19.5814439194
 20
26.4535206547
 10
-19.5812762923
 20
26.4447305047
 10
-19.58077342
 20
26.436146692
 10
-19.5799357945
 20
26.427785813
 10
-19.5787643832
 20
26.4196631037
 10
-19.5772610374
 20
26.4117953944
 10
-19.5754288927
 20
26.404200754
 10
-19.5732715354
 20
26.3968943132
 10
-19.570792845
 20
26.3898894345
 10
-19.5679978019
 20
26.383200322
 10
-19.5648919389
 20
26.3768400488
 10
-19.5614810412
 20
26.3708203097
 10
-19.5577714181
 20
26.3651522483
 10
-19.5537699696
 20
26.3598465206
 10
-19.5494844094
 20
26.3549134593
 10
-19.5449230908
 20
26.3503626946
 10
-19.540094812
 20
26.3462029535
 10
-19.5350086941
 20
26.3424420461
 10
-19.5296732847
 20
26.3390864513
  0
LWPOLYLINE
  5
28E
100
AcDbEntity
  8
0
100
AcDbPolyline
 62
250
  6
CONTINUOUS
 90
28
 70
0
 10
-18.5180093309
 20
26.152040478
 10
-18.5182662775
 20
26.1675888606
 10
-18.5190544707
 20
26.182809383
 10
-18.5203739106
 20
26.1977020451
 10
-18.5222260211
 20
26.212298116
 10
-18.5246093783
 20
26.2265663266
 10
-18.5275197108
 20
26.2404128698
 10
-18.5309643741
 20
26.2538365213
 10
-18.5349360127
 20
26.2668385054
 10
-18.5394082888
 20
26.2793286887
 10
-18.5443815996
 20
26.2912920928
 10
-18.5498555479
 20
26.3027436961
 10
-18.5558026043
 20
26.3136382999
 10
-18.5622201573
 20
26.3239702889
 10
-18.5691108185
 20
26.3337452784
 10
-18.5764548923
 20
26.3429349157
 10
-18.5842570879
 20
26.351543382
 10
-18.5925126961
 20
26.3595664961
 10
-18.6011878943
 20
26.3669633609
 10
-18.6102914662
 20
26.3737331944
 10
-18.6198146282
 20
26.3798767787
 10
-18.629697207
 20
26.3853555629
 10
-18.6399453837
 20
26.3901619598
 10
-18.6505529773
 20
26.3943035566
 10
-18.6614412709
 20
26.3977645645
 10
-18.6725840257
 20
26.4005397204
 10
-18.6840074805
 20
26.4026342874
 10
-18.6957116353
 20
26.4040482653
  0
LINE
  5
28F
100
AcDbEntity
  8
0
100
AcDbLine
 62
250
  6
CONTINUOUS
 10
-19.5814439194
 20
26.4535206547
 11
-19.5814439194
 21
26.6891881786
  0
LINE
  5
290
100
AcDbEntity
  8
0
100
AcDbLine
 62
250
  6
CONTINUOUS
 10
-19.2288185484
 20
26.4529876261
 11
-19.2288185484
 21
26.6886551499
  0
LINE
  5
291
100
AcDbEntity
  8
0
100
AcDbLine
 62
250
  6
CONTINUOUS
 10
-18.8706347019
 20
25.4937441818
 11
-18.8706347019
 21
26.1525735066
  0
LINE
  5
292
100
AcDbEntity
  8
0
100
AcDbLine
 62
250
  6
CONTINUOUS
 10
-18.5180093309
 20
25.5038524908
 11
-18.5180093309
 21
26.152040478
  0
LINE
  5
293
100
AcDbEntity
  8
0
100
AcDbLine
 62
7
  6
CONTINUOUS
 10
-17.6285673663
 20
26.06559794
 11
-17.6285673663
 21
26.7780905073
  0
LINE
  5
294
100
AcDbEntity
  8
0
100
AcDbLine
 62
7
  6
CONTINUOUS
 10
-16.9177581488
 20
28.0230311169
 11
-16.9177581488
 21
27.6556166944
  0
LWPOLYLINE
  5
295
100
AcDbEntity
  8
ASSI
100
AcDbPolyline
 62
7
  6
CONTINUOUS
 90
14
 70
0
 10
-14.4270765741
 20
27.7630213189
 10
-14.4308334857
 20
27.7324632275
 10
-14.432411254
 20
27.6907873015
 10
-14.4307887031
 20
27.6469402552
 10
-14.426002414
 20
27.6019106378
 10
-14.417980519
 20
27.555671586
 10
-14.4067948858
 20
27.5082499631
 10
-14.3926976991
 20
27.4607149087
 10
-14.3756228196
 20
27.4130638461
 10
-14.3556363866
 20
27.3652993519
 10
-14.3331890021
 20
27.3184982958
 10
-14.308430867
 20
27.2730196345
 10
-14.2812117804
 20
27.2285044113
 10
-14.2515317425
 20
27.1849526263
  0
LWPOLYLINE
  5
296
100
AcDbEntity
  8
RACCORDO
100
AcDbPolyline
 62
250
  6
CONTINUOUS
 90
3
 70
0
 10
-21.2685650262
 20
-3.0520337475
 10
-21.2705745685
 20
-3.05884524
 10
-21.2727833684
 20
-3.0651933019
  0
LWPOLYLINE
  5
297
100
AcDbEntity
  8
RACCORDO
100
AcDbPolyline
 62
250
  6
CONTINUOUS
 90
31
 70
0
 10
-21.2727833684
 20
-3.0651933019
 10
-21.2751722453
 20
-3.0711057756
 10
-21.2777167261
 20
-3.0765940531
 10
-21.2803984799
 20
-3.0816764495
 10
-21.2832142681
 20
-3.0863891373
 10
-21.2861481216
 20
-3.0907496799
 10
-21.2891864014
 20
-3.0947698715
 10
-21.2923383479
 20
-3.0984740632
 10
-21.2955976026
 20
-3.1018858196
 10
-21.2989532899
 20
-3.1050095181
 10
-21.3024164481
 20
-3.1078410531
 10
-21.3059864437
 20
-3.1104100891
 10
-21.3096562091
 20
-3.112718304
 10
-21.31343497
 20
-3.1147273367
 10
-21.3173257854
 20
-3.1164797026
 10
-21.3213269358
 20
-3.1179748887
 10
-21.3254504594
 20
-3.1191288357
 10
-21.3297075035
 20
-3.1200097696
 10
-21.3341023195
 20
-3.1206121897
 10
-21.338654581
 20
-3.1207776675
 10
-21.3434057737
 20
-3.1205940814
 10
-21.3483611473
 20
-3.1200731891
 10
-21.3535161266
 20
-3.1189925987
 10
-21.3589654736
 20
-3.1173696488
 10
-21.3647225766
 20
-3.1153174778
 10
-21.3706767897
 20
-3.1127676806
 10
-21.3768913891
 20
-3.1096247164
 10
-21.3834358937
 20
-3.1060250233
 10
-21.3901500348
 20
-3.102193022
 10
-21.3969687761
 20
-3.0980724208
 10
-21.4184259921
 20
-3.0845572679
  0
LWPOLYLINE
  5
298
100
AcDbEntity
  8
RACCORDO
100
AcDbPolyline
 62
250
  6
CONTINUOUS
 90
23
 70
0
 10
-20.6278756902
 20
0.7772510292
 10
-20.6512510847
 20
0.7271496449
 10
-20.6750486813
 20
0.6750821268
 10
-20.6992187902
 20
0.6210471512
 10
-20.7236641205
 20
0.5651571964
 10
-20.7483771069
 20
0.5073028353
 10
-20.7734297028
 20
0.447151322
 10
-20.7988528691
 20
0.3844575738
 10
-20.8244672108
 20
0.3194804216
 10
-20.8500282092
 20
0.2526472202
 10
-20.8754108808
 20
0.1841349711
 10
-20.9006088385
 20
0.1138021299
 10
-20.9255630802
 20
0.0416041842
 10
-20.9501514359
 20
-0.0322880906
 10
-20.9743449731
 20
-0.1079894773
 10
-20.9981991778
 20
-0.1859652623
 10
-21.0215928759
 20
-0.2661088964
 10
-21.0444354701
 20
-0.3484386585
 10
-21.0667729189
 20
-0.4335912675
 10
-21.0884781997
 20
-0.52158256
 10
-21.1093698458
 20
-0.612250689
 10
-21.1293513265
 20
-0.7059403149
 10
-21.1482437628
 20
-0.8026043098
  0
LWPOLYLINE
  5
299
100
AcDbEntity
  8
RACCORDO
100
AcDbPolyline
 62
250
  6
CONTINUOUS
 90
26
 70
0
 10
-20.6605801514
 20
0.8082036592
 10
-20.681673858
 20
0.7630738054
 10
-20.7031163501
 20
0.7163452173
 10
-20.7248695239
 20
0.6680157521
 10
-20.7468503846
 20
0.6181833523
 10
-20.7690622887
 20
0.5667495783
 10
-20.7915863559
 20
0.5134180589
 10
-20.8144464893
 20
0.4580009861
 10
-20.8375059234
 20
0.4006910244
 10
-20.8606013122
 20
0.3417648366
 10
-20.8836571857
 20
0.2812921528
 10
-20.9066433136
 20
0.2192228353
 10
-20.929472108
 20
0.1556580058
 10
-20.9520499752
 20
0.0907250226
 10
-20.9743607518
 20
0.0243296425
 10
-20.9964243557
 20
-0.0437555665
 10
-21.0181482038
 20
-0.1134331174
 10
-21.03948454
 20
-0.1847505213
 10
-21.0604896785
 20
-0.2581459453
 10
-21.0810674345
 20
-0.3335846594
 10
-21.1011169453
 20
-0.411023142
 10
-21.1206432076
 20
-0.4908736398
 10
-21.1395306837
 20
-0.5731409824
 10
-21.1576288997
 20
-0.65769684
 10
-21.1748489342
 20
-0.7447354904
 10
-21.1901305444
 20
-0.8289554291
  0
LINE
  5
29A
100
AcDbEntity
  8
RACCORDO
100
AcDbLine
 62
250
  6
CONTINUOUS
 10
-21.1854119827
 20
1.1046362024
 11
-21.1829232184
 21
1.1098031234
  0
LWPOLYLINE
  5
29B
100
AcDbEntity
  8
RACCORDO
100
AcDbPolyline
 62
250
  6
CONTINUOUS
 90
22
 70
0
 10
-21.1829232184
 20
1.1098031234
 10
-21.1767781404
 20
1.1221190229
 10
-21.1702338725
 20
1.1346896122
 10
-21.1632774864
 20
1.1474956289
 10
-21.155902419
 20
1.160504772
 10
-21.1480921749
 20
1.1737047666
 10
-21.1398183666
 20
1.1871021831
 10
-21.1310762301
 20
1.2006579665
 10
-21.1218502452
 20
1.2143503485
 10
-21.1120925342
 20
1.2282039948
 10
-21.1017942468
 20
1.2421762077
 10
-21.090946764
 20
1.2562243224
 10
-21.0794986089
 20
1.270360734
 10
-21.0674421475
 20
1.2845299801
 10
-21.0547759259
 20
1.2986690557
 10
-21.0414560006
 20
1.3127630083
 10
-21.0274826497
 20
1.3267359794
 10
-21.0128643392
 20
1.3405042777
 10
-20.9975713066
 20
1.3540220949
 10
-20.9816053882
 20
1.3672023864
 10
-20.9650031935
 20
1.3799233025
 10
-20.9477950656
 20
1.3920716314
  0
LWPOLYLINE
  5
29C
100
AcDbEntity
  8
RACCORDO
100
AcDbPolyline
 62
250
  6
CONTINUOUS
 90
19
 70
0
 10
-21.2544061148
 20
1.1473658881
 10
-21.2467291803
 20
1.1627220047
 10
-21.2384717506
 20
1.1784451902
 10
-21.2296112445
 20
1.1945016367
 10
-21.2201368258
 20
1.2108317778
 10
-21.2100196924
 20
1.2274156727
 10
-21.1992087425
 20
1.2442697666
 10
-21.1876961378
 20
1.261321622
 10
-21.1754551081
 20
1.2785294011
 10
-21.1623988035
 20
1.2959368281
 10
-21.1485071774
 20
1.3134655521
 10
-21.133772292
 20
1.331023489
 10
-21.118119131
 20
1.348605154
 10
-21.1015405467
 20
1.366094199
 10
-21.0840411568
 20
1.3833633582
 10
-21.0655645277
 20
1.4003541953
 10
-21.0461052832
 20
1.416929852
 10
-21.0257157577
 20
1.43288858
 10
-21.0044396691
 20
1.4480446464
  0
LWPOLYLINE
  5
29D
100
AcDbEntity
  8
RACCORDO
100
AcDbPolyline
 62
7
  6
CONTINUOUS
 90
25
 70
0
 10
-27.9548518274
 20
1.684183586
 10
-28.2740329046
 20
1.43053999
 10
-28.575616352
 20
1.1481706107
 10
-28.8585450226
 20
0.8375094073
 10
-29.1219507973
 20
0.4988828416
 10
-29.3647459992
 20
0.1330188089
 10
-29.5857546755
 20
-0.2588648949
 10
-29.7843606757
 20
-0.6761926707
 10
-29.959824251
 20
-1.1180071632
 10
-30.1111789965
 20
-1.582193651
 10
-30.2380031281
 20
-2.0673850216
 10
-30.3401015497
 20
-2.5728008602
 10
-30.4171651875
 20
-3.0969122432
 10
-30.4690479215
 20
-3.6386869503
 10
-30.4956080091
 20
-4.1967233523
 10
-30.4967969906
 20
-4.7687030254
 10
-30.4727450066
 20
-5.3529559715
 10
-30.4236199418
 20
-5.9483112903
 10
-30.3496761342
 20
-6.5530065645
 10
-30.2512371925
 20
-7.1654074163
 10
-30.1286373927
 20
-7.7841403203
 10
-29.9822574724
 20
-8.4077512983
 10
-29.8125339419
 20
-9.0347213107
 10
-29.6199612335
 20
-9.6634926107
 10
-29.5412990592
 20
-9.9014035839
  0
LINE
  5
29E
100
AcDbEntity
  8
0
100
AcDbLine
 62
7
  6
CONTINUOUS
 10
-18.1855305214
 20
8.8157056525
 11
-27.9548518274
 21
1.684183586
  0
LWPOLYLINE
  5
29F
100
AcDbEntity
  8
0
100
AcDbPolyline
 62
7
  6
CONTINUOUS
 90
3
 70
0
 10
-18.1485863888
 20
9.1802658004
 10
-18.0058888317
 20
9.2815995349
 10
-17.8752826438
 20
9.3677989196
  0
LINE
  5
2A0
100
AcDbEntity
  8
0
100
AcDbLine
 62
7
  6
CONTINUOUS
 10
-4.9366079307
 20
17.9459376418
 11
-5.171368836
 21
17.7976695417
  0
LWPOLYLINE
  5
2A1
100
AcDbEntity
  8
0
100
AcDbPolyline
 62
250
  6
CONTINUOUS
 90
34
 70
0
 10
-6.0589523256
 20
19.2886542213
 10
-6.0673345263
 20
19.2835341054
 10
-6.0756957821
 20
19.2779674049
 10
-6.0840172782
 20
19.2719666462
 10
-6.0922802891
 20
19.2655453325
 10
-6.100466221
 20
19.2587179134
 10
-6.1085566536
 20
19.2514997523
 10
-6.1165333813
 20
19.2439070917
 10
-6.1243784546
 20
19.2359570171
 10
-6.1320742201
 20
19.2276674181
 10
-6.1396033604
 20
19.2190569483
 10
-6.1469489331
 20
19.2101449835
 10
-6.1540944088
 20
19.2009515777
 10
-6.1610237084
 20
19.1914974184
 10
-6.1677212394
 20
19.1818037799
 10
-6.1741719306
 20
19.1718924751
 10
-6.1803612663
 20
19.1617858069
 10
-6.1862753191
 20
19.151506518
 10
-6.1919007808
 20
19.1410777391
 10
-6.1972249927
 20
19.1305229377
 10
-6.2022359741
 20
19.1198658647
 10
-6.206922449
 20
19.1091305011
 10
-6.2112738717
 20
19.0983410041
 10
-6.2152804503
 20
19.0875216529
 10
-6.2189331692
 20
19.0766967935
 10
-6.2222238088
 20
19.0658907846
 10
-6.2251449643
 20
19.0551279425
 10
-6.2276900624
 20
19.0444324861
 10
-6.2298533761
 20
19.0338284829
 10
-6.2316300372
 20
19.0233397945
 10
-6.233016048
 20
19.0129900231
 10
-6.2340082895
 20
19.0028024582
 10
-6.2346045289
 20
18.9928000243
 10
-6.2348034245
 20
18.9830052295
  0
LWPOLYLINE
  5
2A2
100
AcDbEntity
  8
0
100
AcDbPolyline
 62
250
  6
CONTINUOUS
 90
34
 70
0
 10
-3.4956902438
 20
17.8086588205
 10
-3.5040724445
 20
17.8035387046
 10
-3.5124337003
 20
17.7979720041
 10
-3.5207551964
 20
17.7919712454
 10
-3.5290182073
 20
17.7855499317
 10
-3.5372041392
 20
17.7787225126
 10
-3.5452945718
 20
17.7715043515
 10
-3.5532712995
 20
17.7639116909
 10
-3.5611163728
 20
17.7559616163
 10
-3.5688121383
 20
17.7476720173
 10
-3.5763412786
 20
17.7390615475
 10
-3.5836868513
 20
17.7301495827
 10
-3.590832327
 20
17.7209561769
 10
-3.5977616266
 20
17.7115020176
 10
-3.6044591576
 20
17.701808379
 10
-3.6109098488
 20
17.6918970742
 10
-3.6170991845
 20
17.6817904061
 10
-3.6230132373
 20
17.6715111171
 10
-3.628638699
 20
17.6610823383
 10
-3.6339629109
 20
17.6505275369
 10
-3.6389738923
 20
17.6398704639
 10
-3.6436603672
 20
17.6291351003
 10
-3.6480117899
 20
17.6183456033
 10
-3.6520183685
 20
17.6075262521
 10
-3.6556710874
 20
17.5967013927
 10
-3.658961727
 20
17.5858953838
 10
-3.6618828825
 20
17.5751325417
 10
-3.6644279806
 20
17.5644370853
 10
-3.6665912943
 20
17.5538330821
 10
-3.6683679554
 20
17.5433443937
 10
-3.6697539662
 20
17.5329946223
 10
-3.6707462076
 20
17.5228070574
 10
-3.6713424471
 20
17.5128046235
 10
-3.6715413427
 20
17.5030098287
  0
LINE
  5
2A3
100
AcDbEntity
  8
0
100
AcDbLine
 62
7
  6
CONTINUOUS
 10
-3.5358032178
 20
19.5522107476
 11
2.0859456906
 21
22.9711213731
  0
LINE
  5
2A4
100
AcDbEntity
  8
0
100
AcDbLine
 62
7
  6
CONTINUOUS
 10
2.0859456906
 20
23.3483528186
 11
-3.5987816767
 21
19.9152812557
  0
LINE
  5
2A5
100
AcDbEntity
  8
0
100
AcDbLine
 62
7
  6
CONTINUOUS
 10
-4.8527727703
 20
18.5312281063
 11
-2.5654065484
 21
19.8797298049
  0
LINE
  5
2A6
100
AcDbEntity
  8
0
100
AcDbLine
 62
250
  6
CONTINUOUS
 10
-4.7267340981
 20
18.5194481133
 11
-2.4397492272
 21
19.8677249889
  0
LINE
  5
2A7
100
AcDbEntity
  8
0
100
AcDbLine
 62
250
  6
CONTINUOUS
 10
-5.8821780535
 20
18.9824722009
 11
-3.5711176539
 21
20.3168481679
  0
LINE
  5
2A8
100
AcDbEntity
  8
RACCORDO
100
AcDbLine
 62
250
  6
CONTINUOUS
 10
0.1126777116
 20
20.7828385518
 11
6.4766387422
 21
24.4573098918
  0
LINE
  5
2A9
100
AcDbEntity
  8
RACCORDO
100
AcDbLine
 62
250
  6
CONTINUOUS
 10
0.5124240075
 20
20.1472942534
 11
6.8763850381
 21
23.8217655933
  0
LINE
  5
2AA
100
AcDbEntity
  8
0
100
AcDbLine
 62
250
  6
CONTINUOUS
 10
-3.4956902438
 20
17.8086588205
 11
-1.1846298442
 21
19.1430347875
  0
LINE
  5
2AB
100
AcDbEntity
  8
0
100
AcDbLine
 62
250
  6
CONTINUOUS
 10
-3.3189159717
 20
17.5024768001
 11
-1.0078555721
 21
18.8368527671
  0
LWPOLYLINE
  5
2AC
100
AcDbEntity
  8
0
100
AcDbPolyline
 62
7
  6
CONTINUOUS
 90
42
 70
0
 10
-18.0860471627
 20
9.2527366168
 10
-18.009519185
 20
9.2960839656
 10
-17.8551373222
 20
9.3785614199
 10
-17.6978983546
 20
9.4560350287
 10
-17.5378479379
 20
9.5284882787
 10
-17.375228954
 20
9.595810198
 10
-17.2100786417
 20
9.6579777536
 10
-17.0423669773
 20
9.7150099625
 10
-16.8722361889
 20
9.7668588005
 10
-16.6996582828
 20
9.813525872
 10
-16.5246681443
 20
9.8550057525
 10
-16.3475024693
 20
9.8912397968
 10
-16.1681779691
 20
9.9222156194
 10
-15.9866846131
 20
9.9479419174
 10
-15.8032191103
 20
9.9683916045
 10
-15.6177832691
 20
9.9835583811
 10
-15.4303815572
 20
9.9934450938
 10
-15.2412147121
 20
9.9980383567
 10
-15.05026553
 20
9.9973292679
 10
-14.8575570144
 20
9.9913235483
 10
-14.6633502241
 20
9.9800297437
 10
-14.4676802369
 20
9.9634438677
 10
-14.2705172679
 20
9.9415670117
 10
-14.0720250332
 20
9.914415367
 10
-13.8721595069
 20
9.8819743814
 10
-13.6709693507
 20
9.8442560774
 10
-13.4687572243
 20
9.8013165576
 10
-13.2655751089
 20
9.7531605079
 10
-13.0613750207
 20
9.6997810655
 10
-12.8563095506
 20
9.6412170769
 10
-12.6503279951
 20
9.5774467298
 10
-12.4434842967
 20
9.5084900756
 10
-12.2360878571
 20
9.434448843
 10
-12.0281857908
 20
9.3553331771
 10
-11.819733466
 20
9.2711315847
 10
-11.6109024893
 20
9.1819134332
 10
-11.4016569411
 20
9.0876575141
 10
-11.1920344085
 20
8.9883841314
 10
-10.9823165619
 20
8.8842250278
 10
-10.7725975729
 20
8.7752239649
 10
-10.5627841111
 20
8.6613367253
 10
-10.3528763864
 20
8.5425631949
  0
LWPOLYLINE
  5
2AD
100
AcDbEntity
  8
0
100
AcDbPolyline
 62
250
  6
CONTINUOUS
 90
34
 70
0
 10
-5.8821780535
 20
18.7468046771
 10
-5.8908030421
 20
18.7421050821
 10
-5.8998043253
 20
18.7376469416
 10
-5.9091616481
 20
18.7334402874
 10
-5.9188539542
 20
18.7294945856
 10
-5.9288594334
 20
18.725818715
 10
-5.9391555711
 20
18.7224209471
 10
-5.9497191983
 20
18.7193089278
 10
-5.9605265442
 20
18.7164896599
 10
-5.9715532897
 20
18.7139694874
 10
-5.9827746218
 20
18.7117540814
 10
-5.9941652897
 20
18.7098484272
 10
-6.0056996618
 20
18.7082568127
 10
-6.0173517826
 20
18.7069828197
 10
-6.0290954322
 20
18.7060293149
 10
-6.0409041843
 20
18.7053984439
 10
-6.0527514664
 20
18.7050916264
 10
-6.0646106192
 20
18.7051095527
 10
-6.0764549566
 20
18.7054521825
 10
-6.0882578259
 20
18.7061187448
 10
-6.0999926677
 20
18.7071077397
 10
-6.1116330758
 20
18.7084169417
 10
-6.1231528564
 20
18.7100434048
 10
-6.134526087
 20
18.711983469
 10
-6.1457271752
 20
18.7142327687
 10
-6.1567309157
 20
18.7167862424
 10
-6.1675125473
 20
18.7196381442
 10
-6.1780478087
 20
18.7227820566
 10
-6.188312993
 20
18.726210905
 10
-6.1982850009
 20
18.7299169737
 10
-6.2079413931
 20
18.733891923
 10
-6.2172604401
 20
18.7381268084
 10
-6.2262211719
 20
18.7426121003
 10
-6.2348034245
 20
18.7473377057
  0
LINE
  5
2AE
100
AcDbEntity
  8
0
100
AcDbLine
 62
250
  6
CONTINUOUS
 10
10.3859083697
 20
-28.4252996324
 11
10.0968253582
 21
-28.2583867247
  0
LINE
  5
2AF
100
AcDbEntity
  8
0
100
AcDbLine
 62
7
  6
CONTINUOUS
 10
12.3387849228
 20
-28.1007297799
 11
11.6279757053
 21
-27.6903174462
  0
LWPOLYLINE
  5
2B0
100
AcDbEntity
  8
0
100
AcDbPolyline
 62
250
  6
CONTINUOUS
 90
34
 70
0
 10
10.2965944124
 20
-28.6525705215
 10
10.3050584806
 20
-28.6576019624
 10
10.3137029997
 20
-28.6629059282
 10
10.3225084526
 20
-28.6684704438
 10
10.3314549583
 20
-28.6742829457
 10
10.340522318
 20
-28.6803303109
 10
10.3496900601
 20
-28.686598886
 10
10.3589374859
 20
-28.6930745182
 10
10.3682437169
 20
-28.699742587
 10
10.3775877422
 20
-28.7065880377
 10
10.386948465
 20
-28.713595415
 10
10.396304751
 20
-28.7207488978
 10
10.4056354761
 20
-28.7280323355
 10
10.4149195736
 20
-28.7354292839
 10
10.424136082
 20
-28.7429230422
 10
10.4332641928
 20
-28.7504966915
 10
10.4422832965
 20
-28.7581331322
 10
10.4511730301
 20
-28.7658151229
 10
10.4599133224
 20
-28.7735253195
 10
10.4684844399
 20
-28.7812463143
 10
10.4768670305
 20
-28.7889606748
 10
10.4850421676
 20
-28.7966509831
 10
10.4929913936
 20
-28.8042998763
 10
10.5006967606
 20
-28.8118900848
 10
10.5081408706
 20
-28.8194044706
 10
10.5153069163
 20
-28.8268260678
 10
10.5221787185
 20
-28.8341381202
 10
10.5287407619
 20
-28.8413241183
 10
10.5349782306
 20
-28.8483678378
 10
10.5408770419
 20
-28.8552533755
 10
10.5464238775
 20
-28.8619651853
 10
10.551606214
 20
-28.8684881134
 10
10.5564123506
 20
-28.8748074325
 10
10.5608314363
 20
-28.8809088749
  0
LWPOLYLINE
  5
2B1
100
AcDbEntity
  8
0
100
AcDbPolyline
 62
250
  6
CONTINUOUS
 90
16
 70
0
 10
8.4924450041
 20
-29.1757642144
 10
8.4869579417
 20
-29.1719283295
 10
8.4816337297
 20
-29.1675217946
 10
8.4766227483
 20
-29.1626512773
 10
8.4719362734
 20
-29.1573277374
 10
8.4675848508
 20
-29.1515631543
 10
8.4635782721
 20
-29.1453704997
 10
8.4599255532
 20
-29.1387637085
 10
8.4566349136
 20
-29.1317576478
 10
8.4537137581
 20
-29.1243680828
 10
8.45116866
 20
-29.1166116419
 10
8.4490053463
 20
-29.1085057791
 10
8.4472286852
 20
-29.1000687344
 10
8.4458426744
 20
-29.0913194935
 10
8.444850433
 20
-29.0822777442
 10
8.4447859136
 20
-29.0812698811
  0
LWPOLYLINE
  5
2B2
100
AcDbEntity
  8
0
100
AcDbPolyline
 62
7
  6
CONTINUOUS
 90
32
 70
0
 10
-15.3615866056
 20
25.2285615963
 10
-15.3613417171
 20
25.2180635031
 10
-15.3607172588
 20
25.2073228717
 10
-15.3597241393
 20
25.1963352932
 10
-15.3583722925
 20
25.1851728851
 10
-15.3566723595
 20
25.1738476823
 10
-15.3546347145
 20
25.1623576736
 10
-15.352267049
 20
25.1507535957
 10
-15.3495788618
 20
25.1390437017
 10
-15.3465798085
 20
25.127228301
 10
-15.343275631
 20
25.1153460892
 10
-15.3396748614
 20
25.103403303
 10
-15.3357863704
 20
25.0914011524
 10
-15.3316144304
 20
25.0793707993
 10
-15.3271667398
 20
25.0673171026
 10
-15.3224514841
 20
25.0552418016
 10
-15.3174719967
 20
25.0431714667
 10
-15.3122352796
 20
25.0311099224
 10
-15.3067489911
 20
25.0190592837
 10
-15.3010161223
 20
25.007043681
 10
-15.2950431247
 20
24.9950661123
 10
-15.2888373139
 20
24.9831289733
 10
-15.2824020167
 20
24.9712556012
 10
-15.2757434966
 20
24.9594486707
 10
-15.2688687281
 20
24.9477103835
 10
-15.2617814595
 20
24.9360634374
 10
-15.2544874159
 20
24.924509523
 10
-15.246993774
 20
24.9130513326
 10
-15.2393061505
 20
24.9017130429
 10
-15.231430717
 20
24.8905039743
 10
-15.2233742805
 20
24.8794185518
 10
-15.215143373
 20
24.8684584732
  0
LINE
  5
2B3
100
AcDbEntity
  8
0
100
AcDbLine
 62
7
  6
CONTINUOUS
 10
-15.3615899824
 20
25.229924029
 11
-15.3615899824
 21
24.0231822513
  0
LINE
  5
2B4
100
AcDbEntity
  8
0
100
AcDbLine
 62
250
  6
CONTINUOUS
 10
-15.215143373
 20
24.8684584732
 11
-15.215143373
 21
23.8127785929
  0
LINE
  5
2B5
100
AcDbEntity
  8
0
100
AcDbLine
 62
7
  6
CONTINUOUS
 10
-3.5711176539
 20
19.9494337453
 11
-4.2819268714
 21
19.0719075582
  0
LWPOLYLINE
  5
2B6
100
AcDbEntity
  8
RACCORDO
100
AcDbPolyline
 62
250
  6
CONTINUOUS
 90
19
 70
0
 10
-20.4265207073
 20
1.047348642
 10
-20.4418865517
 20
1.033848015
 10
-20.4565887274
 20
1.0201055372
 10
-20.4706892991
 20
1.006143025
 10
-20.4841902354
 20
0.9920204278
 10
-20.4970739924
 20
0.9778154801
 10
-20.5093753808
 20
0.9635582091
 10
-20.5210787912
 20
0.9493238724
 10
-20.5322024956
 20
0.9351450698
 10
-20.5428300473
 20
0.9209720471
 10
-20.5529003129
 20
0.9069354711
 10
-20.5624838316
 20
0.8929818418
 10
-20.5718402199
 20
0.8787557076
 10
-20.5808134421
 20
0.8645079285
 10
-20.5895414881
 20
0.8500230999
 10
-20.5986443034
 20
0.8341869365
 10
-20.6082405483
 20
0.8165982777
 10
-20.6180151362
 20
0.7976170829
 10
-20.6278597306
 20
0.7772412066
  0
LINE
  5
2B7
100
AcDbEntity
  8
0
100
AcDbLine
 62
7
  6
CONTINUOUS
 10
-1.7186647896
 20
16.8794195901
 11
-2.6081067542
 21
16.3176741409
  0
LINE
  5
2B8
100
AcDbEntity
  8
RACCORDO
100
AcDbLine
 62
7
  6
CONTINUOUS
 10
-0.1946827737
 20
18.7352350525
 11
-0.2218214897
 21
18.7193733941
  0
LWPOLYLINE
  5
2B9
100
AcDbEntity
  8
RACCORDO
100
AcDbPolyline
 62
7
  6
CONTINUOUS
 90
3
 70
0
 10
-0.7797455175
 20
18.3974548013
 10
-0.8626658803
 20
18.3491007417
 10
-0.9017895549
 20
18.3269999141
  0
LINE
  5
2BA
100
AcDbEntity
  8
RACCORDO
100
AcDbLine
 62
7
  6
CONTINUOUS
 10
-0.1946827737
 20
18.7352350525
 11
6.8763850381
 21
22.8179809857
  0
LINE
  5
2BB
100
AcDbEntity
  8
RACCORDO
100
AcDbLine
 62
7
  6
CONTINUOUS
 10
9.9497748296
 20
22.3358807319
 11
7.416253629
 21
20.8730573431
  0
LINE
  5
2BC
100
AcDbEntity
  8
RACCORDO
100
AcDbLine
 62
250
  6
CONTINUOUS
 10
10.245979815
 20
22.2809395973
 11
7.6119334746
 21
20.7600742527
  0
LINE
  5
2BD
100
AcDbEntity
  8
RACCORDO
100
AcDbLine
 62
7
  6
CONTINUOUS
 10
-0.693178334
 20
18.4474011576
 11
-0.7797455175
 21
18.3974548013
  0
LINE
  5
2BE
100
AcDbEntity
  8
RACCORDO
100
AcDbLine
 62
7
  6
CONTINUOUS
 10
-0.2218214897
 20
18.7193733941
 11
-0.693178334
 21
18.4474011576
  0
LINE
  5
2BF
100
AcDbEntity
  8
0
100
AcDbLine
 62
7
  6
CONTINUOUS
 10
6.8164761976
 20
20.8858491006
 11
0.4068572042
 21
17.275768033
  0
LWPOLYLINE
  5
2C0
100
AcDbEntity
  8
0
100
AcDbPolyline
 62
250
  6
CONTINUOUS
 90
34
 70
0
 10
-3.3189159717
 20
17.2668092763
 10
-3.3275409603
 20
17.2621096813
 10
-3.3365422435
 20
17.2576515408
 10
-3.3458995663
 20
17.2534448866
 10
-3.3555918724
 20
17.2494991848
 10
-3.3655973516
 20
17.2458233141
 10
-3.3758934893
 20
17.2424255462
 10
-3.3864571165
 20
17.2393135269
 10
-3.3972644624
 20
17.236494259
 10
-3.4082912079
 20
17.2339740866
 10
-3.41951254
 20
17.2317586806
 10
-3.4309032079
 20
17.2298530263
 10
-3.44243758
 20
17.2282614119
 10
-3.4540897008
 20
17.2269874189
 10
-3.4658333504
 20
17.2260339141
 10
-3.4776421025
 20
17.2254030431
 10
-3.4894893846
 20
17.2250962256
 10
-3.5013485374
 20
17.2251141519
 10
-3.5131928748
 20
17.2254567817
 10
-3.5249957441
 20
17.226123344
 10
-3.5367305859
 20
17.2271123389
 10
-3.548370994
 20
17.2284215409
 10
-3.5598907746
 20
17.230048004
 10
-3.5712640052
 20
17.2319880682
 10
-3.5824650934
 20
17.2342373679
 10
-3.5934688339
 20
17.2367908416
 10
-3.6042504655
 20
17.2396427434
 10
-3.6147857269
 20
17.2427866558
 10
-3.6250509112
 20
17.2462155042
 10
-3.6350229191
 20
17.2499215729
 10
-3.6446793113
 20
17.2538965222
 10
-3.6539983583
 20
17.2581314076
 10
-3.6629590901
 20
17.2626166995
 10
-3.6715413427
 20
17.2673423049
  0
LWPOLYLINE
  5
2C1
100
AcDbEntity
  8
RACCORDO
100
AcDbPolyline
 62
7
  6
CONTINUOUS
 90
11
 70
0
 10
9.9497940088
 20
22.3358475866
 10
9.9666899967
 20
22.344406918
 10
9.9927701012
 20
22.3532795429
 10
10.0209199054
 20
22.3582317447
 10
10.0503961708
 20
22.3591327707
 10
10.0812342307
 20
22.3558747078
 10
10.1133987516
 20
22.3485654691
 10
10.1460404945
 20
22.3373980401
 10
10.1788763795
 20
22.3224367494
 10
10.2121894863
 20
22.3036172685
 10
10.245979815
 20
22.2809395973
  0
LINE
  5
2C2
100
AcDbEntity
  8
0
100
AcDbLine
 62
7
  6
CONTINUOUS
 10
7.0302585926
 20
19.1980253977
 11
7.0121437553
 21
19.1917104074
  0
LWPOLYLINE
  5
2C3
100
AcDbEntity
  8
0
100
AcDbPolyline
 62
7
  6
CONTINUOUS
 90
21
 70
0
 10
6.4399048738
 20
19.521194899
 10
6.4495787526
 20
19.524204482
 10
6.4595903277
 20
19.5267120541
 10
6.4699316888
 20
19.5287098388
 10
6.4805812183
 20
19.5301942632
 10
6.4915423939
 20
19.5311541478
 10
6.5028470517
 20
19.5315681356
 10
6.5144830147
 20
19.5314305233
 10
6.5264466446
 20
19.5307276677
 10
6.5387877303
 20
19.5294205997
 10
6.5515152518
 20
19.5274958426
 10
6.5646058818
 20
19.5249395969
 10
6.5780631165
 20
19.5217080736
 10
6.5918750705
 20
19.5177866879
 10
6.6060317147
 20
19.5131613997
 10
6.6205383948
 20
19.5077872385
 10
6.6353859535
 20
19.5016446612
 10
6.6505534687
 20
19.4947219582
 10
6.6660267686
 20
19.4869845811
 10
6.6817783361
 20
19.4784189492
 10
6.6860565122
 20
19.4759745257
  0
LWPOLYLINE
  5
2C4
100
AcDbEntity
  8
RACCORDO
100
AcDbPolyline
 62
250
  6
CONTINUOUS
 90
10
 70
0
 10
-21.2330801225
 20
-3.0447721914
 10
-21.2393715989
 20
-3.0407825686
 10
-21.2449907138
 20
-3.0364713014
 10
-21.2498884049
 20
-3.0318760309
 10
-21.2540221064
 20
-3.0270365412
 10
-21.2573554443
 20
-3.0219954
 10
-21.2598589824
 20
-3.0167976842
 10
-21.2615112014
 20
-3.0114891881
 10
-21.2622982478
 20
-3.0061159308
 10
-21.262369109
 20
-3.0039714519
  0
LWPOLYLINE
  5
2C5
100
AcDbEntity
  8
RACCORDO
100
AcDbPolyline
 62
250
  6
CONTINUOUS
 90
3
 70
0
 10
-21.4184259921
 20
-3.0845572679
 10
-21.4258236241
 20
-3.0798395398
 10
-21.4334289436
 20
-3.0750520191
  0
LWPOLYLINE
  5
2C6
100
AcDbEntity
  8
RACCORDO
100
AcDbPolyline
 62
250
  6
CONTINUOUS
 90
9
 70
0
 10
-16.9807899168
 20
-2.3160541616
 10
-17.4142887716
 20
-1.8523336909
 10
-17.8563767335
 20
-1.4086022592
 10
-18.3059783985
 20
-0.9859393409
 10
-18.7619985839
 20
-0.5853745703
 10
-19.2233248999
 20
-0.207884856
 10
-19.6888335161
 20
0.1456106818
 10
-20.1573919924
 20
0.4742525696
 10
-20.6278597306
 20
0.7772412066
  0
LWPOLYLINE
  5
2C7
100
AcDbEntity
  8
RACCORDO
100
AcDbPolyline
 62
250
  6
CONTINUOUS
 90
3
 70
0
 10
-16.1437570378
 20
-3.2989010518
 10
-16.5569354144
 20
-2.798634858
 10
-16.9807899168
 20
-2.3160541616
  0
LINE
  5
2C8
100
AcDbEntity
  8
RACCORDO
100
AcDbLine
 62
250
  6
CONTINUOUS
 10
-15.7422605733
 20
-3.8156349616
 11
-16.1437570378
 21
-3.2989010518
  0
LINE
  5
2C9
100
AcDbEntity
  8
RACCORDO
100
AcDbLine
 62
250
  6
CONTINUOUS
 10
-15.3534233672
 20
-4.3475787232
 11
-15.7422605733
 21
-3.8156349616
  0
LWPOLYLINE
  5
2CA
100
AcDbEntity
  8
RACCORDO
100
AcDbPolyline
 62
250
  6
CONTINUOUS
 90
19
 70
0
 10
-20.9477953817
 20
1.3920721422
 10
-20.9227596955
 20
1.3537191275
 10
-20.895928816
 20
1.3166448844
 10
-20.8675280715
 20
1.2811607547
 10
-20.8377959832
 20
1.247564736
 10
-20.8069822314
 20
1.2161389448
 10
-20.7753455553
 20
1.1871472548
 10
-20.7431516237
 20
1.1608331254
 10
-20.7106708076
 20
1.1374175496
 10
-20.678175877
 20
1.1170971688
 10
-20.6459397198
 20
1.1000426308
 10
-20.6142330507
 20
1.086397157
 10
-20.5833221384
 20
1.0762753404
 10
-20.5534665786
 20
1.0697621841
 10
-20.5249170829
 20
1.0669123801
 10
-20.4979133785
 20
1.0677498631
 10
-20.4726822358
 20
1.0722676134
 10
-20.4494355583
 20
1.0804277027
 10
-20.4283685757
 20
1.0921616143
  0
LWPOLYLINE
  5
2CB
100
AcDbEntity
  8
RACCORDO
100
AcDbPolyline
 62
250
  6
CONTINUOUS
 90
8
 70
0
 10
-13.0610850598
 20
-8.3844355223
 10
-13.3368099405
 20
-7.7839462815
 10
-13.631049583
 20
-7.1890069745
 10
-13.9430877309
 20
-6.6010658387
 10
-14.2721648026
 20
-6.0215540751
 10
-14.617479739
 20
-5.4518823664
 10
-14.978191951
 20
-4.893437447
 10
-15.3534233672
 20
-4.3475787232
  0
LINE
  5
2CC
100
AcDbEntity
  8
RACCORDO
100
AcDbLine
 62
250
  6
CONTINUOUS
 10
-12.8045461294
 20
-8.9890129449
 11
-13.0610850598
 21
-8.3844355223
  0
LWPOLYLINE
  5
2CD
100
AcDbEntity
  8
RACCORDO
100
AcDbPolyline
 62
250
  6
CONTINUOUS
 90
3
 70
0
 10
-12.3514758354
 20
-10.2045391486
 10
-12.5678176345
 20
-9.5962068446
 10
-12.8045461294
 20
-8.9890129449
  0
LWPOLYLINE
  5
2CE
100
AcDbEntity
  8
0
100
AcDbPolyline
 62
250
  6
CONTINUOUS
 90
27
 70
0
 10
-5.3490711404
 20
18.6978653163
 10
-5.353490226
 20
18.6871724893
 10
-5.3582963627
 20
18.6767354568
 10
-5.3634786992
 20
18.6665777834
 10
-5.3690255348
 20
18.656722403
 10
-5.3749243461
 20
18.6471915668
 10
-5.3811618148
 20
18.6380067935
 10
-5.3877238581
 20
18.6291888201
 10
-5.3945956603
 20
18.6207575559
 10
-5.4017617061
 20
18.6127320372
 10
-5.4092058161
 20
18.6051303835
 10
-5.4169111831
 20
18.5979697581
 10
-5.424860409
 20
18.5912663285
 10
-5.4330355461
 20
18.5850352295
 10
-5.4414181368
 20
18.5792905294
 10
-5.4499892542
 20
18.5740451985
 10
-5.4587295465
 20
18.5693110795
 10
-5.46761928
 20
18.5650988604
 10
-5.4766383838
 20
18.5614180512
 10
-5.4857664945
 20
18.558276962
 10
-5.4949830029
 20
18.5556826844
 10
-5.5042671004
 20
18.5536410754
 10
-5.5135978255
 20
18.5521567441
 10
-5.5229541115
 20
18.5512330416
 10
-5.5323148344
 20
18.550872053
 10
-5.5416588597
 20
18.5510745932
 10
-5.5477737882
 20
18.5515137929
  0
LINE
  5
2CF
100
AcDbEntity
  8
0
100
AcDbLine
 62
7
  6
CONTINUOUS
 10
-1.7186647896
 20
17.5919121574
 11
-1.0078555721
 21
18.4694383445
  0
LWPOLYLINE
  5
2D0
100
AcDbEntity
  8
RACCORDO
100
AcDbPolyline
 62
250
  6
CONTINUOUS
 90
39
 70
0
 10
-13.4979568203
 20
6.4467202374
 10
-13.4895346776
 20
6.4528871502
 10
-13.4810071586
 20
6.4586476373
 10
-13.4724123196
 20
6.4640026538
 10
-13.4637865792
 20
6.4689503627
 10
-13.4551635871
 20
6.4735052233
 10
-13.4465729623
 20
6.477695765
 10
-13.4380481543
 20
6.4815349983
 10
-13.4296101201
 20
6.4850334266
 10
-13.4212644799
 20
6.4882156954
 10
-13.4130442283
 20
6.4910952281
 10
-13.4049565171
 20
6.4936873761
 10
-13.396963139
 20
6.4960179904
 10
-13.3890824548
 20
6.4981076111
 10
-13.3813235683
 20
6.4999634571
 10
-13.3736307978
 20
6.5015904993
 10
-13.3660111471
 20
6.5030145251
 10
-13.3584770854
 20
6.504238531
 10
-13.3509800634
 20
6.5052379397
 10
-13.3435251476
 20
6.5060469454
 10
-13.3361223277
 20
6.5066673109
 10
-13.3287308732
 20
6.507039323
 10
-13.3213608254
 20
6.5072153631
 10
-13.3140131
 20
6.5071943331
 10
-13.3066327342
 20
6.5068632377
 10
-13.2992245923
 20
6.5063062753
 10
-13.291786129
 20
6.5055183192
 10
-13.2842429582
 20
6.5042996586
 10
-13.2765553735
 20
6.5027549584
 10
-13.2687368549
 20
6.5009045533
 10
-13.2607583461
 20
6.4984780862
 10
-13.2524565689
 20
6.4954372466
 10
-13.2438786252
 20
6.4919685159
 10
-13.2352719958
 20
6.488112781
 10
-13.2265630982
 20
6.4837201313
 10
-13.2176612948
 20
6.4789141756
 10
-13.2088379399
 20
6.4740617471
 10
-13.2001956604
 20
6.4691454084
 10
-13.1744810353
 20
6.4539322246
  0
LWPOLYLINE
  5
2D1
100
AcDbEntity
  8
RACCORDO
100
AcDbPolyline
 62
250
  6
CONTINUOUS
 90
4
 70
0
 10
-20.3765634515
 20
1.0855167875
 10
-20.3938204146
 20
1.0732907809
 10
-20.4104826255
 20
1.0605344366
 10
-20.4265207073
 20
1.047348642
  0
LWPOLYLINE
  5
2D2
100
AcDbEntity
  8
RACCORDO
100
AcDbPolyline
 62
250
  6
CONTINUOUS
 90
25
 70
0
 10
-20.4283688382
 20
1.0921614365
 10
-20.4426008899
 20
1.0821408264
 10
-20.4563955604
 20
1.071722821
 10
-20.4697350201
 20
1.0609744793
 10
-20.4825904001
 20
1.0499726801
 10
-20.4949661639
 20
1.0387663644
 10
-20.5068980774
 20
1.0273709897
 10
-20.5183864559
 20
1.0158295573
 10
-20.5294206207
 20
1.0041955305
 10
-20.5400208712
 20
0.9924889988
 10
-20.5501842227
 20
0.980752629
 10
-20.5599141883
 20
0.9690213816
 10
-20.5692408631
 20
0.9572958113
 10
-20.5781431784
 20
0.9456385087
 10
-20.5866497327
 20
0.9340478518
 10
-20.5948593147
 20
0.922415735
 10
-20.6027440416
 20
0.9108026318
 10
-20.6103333036
 20
0.8991862151
 10
-20.6177940573
 20
0.8873147822
 10
-20.625118687
 20
0.8751883322
 10
-20.6322909953
 20
0.8628208477
 10
-20.6394388071
 20
0.8499631289
 10
-20.6465801994
 20
0.8365301176
 10
-20.6536382417
 20
0.8226104666
 10
-20.6605826186
 20
0.8082102076
  0
LINE
  5
2D3
100
AcDbEntity
  8
RACCORDO
100
AcDbLine
 62
250
  6
CONTINUOUS
 10
-21.00443935
 20
1.4480444742
 11
-13.5540653688
 21
6.5029663393
  0
LINE
  5
2D4
100
AcDbEntity
  8
RACCORDO
100
AcDbLine
 62
250
  6
CONTINUOUS
 10
-20.9477953817
 20
1.3920721422
 11
-13.4979600058
 21
6.4466958893
  0
LINE
  5
2D5
100
AcDbEntity
  8
RACCORDO
100
AcDbLine
 62
7
  6
CONTINUOUS
 10
-12.9780679778
 20
6.1465008918
 11
-20.4283685757
 21
1.0921616143
  0
LINE
  5
2D6
100
AcDbEntity
  8
RACCORDO
100
AcDbLine
 62
250
  6
CONTINUOUS
 10
-12.9259284315
 20
6.140268407
 11
-20.3765637703
 21
1.0855169836
  0
LWPOLYLINE
  5
2D7
100
AcDbEntity
  8
RACCORDO
100
AcDbPolyline
 62
250
  6
CONTINUOUS
 90
55
 70
0
 10
-13.5540653688
 20
6.5029663393
 10
-13.5432618372
 20
6.5099210981
 10
-13.5324244785
 20
6.5164312322
 10
-13.5215531982
 20
6.5224965984
 10
-13.5106135222
 20
6.5280999681
 10
-13.499639747
 20
6.5332581291
 10
-13.4887349672
 20
6.5380219701
 10
-13.4779119532
 20
6.5423898415
 10
-13.4671578433
 20
6.5463629065
 10
-13.4565373335
 20
6.5499963961
 10
-13.4460710276
 20
6.5532890861
 10
-13.4357382889
 20
6.556241779
 10
-13.4255419798
 20
6.55891287
 10
-13.4154941088
 20
6.5613064066
 10
-13.4055826624
 20
6.5634179828
 10
-13.3957744773
 20
6.5652933857
 10
-13.386071113
 20
6.5669386847
 10
-13.3764710121
 20
6.5683474608
 10
-13.3669363331
 20
6.5695467835
 10
-13.3574651593
 20
6.5705417632
 10
-13.3480594098
 20
6.5713269064
 10
-13.338686991
 20
6.5719133524
 10
-13.3293517974
 20
6.5723052671
 10
-13.3200499372
 20
6.5724980413
 10
-13.3107376285
 20
6.5724895811
 10
-13.3014261362
 20
6.5722859719
 10
-13.2921041947
 20
6.5718805575
 10
-13.2826942124
 20
6.5712519574
 10
-13.2732036526
 20
6.5704080362
 10
-13.2636250392
 20
6.5693400551
 10
-13.2538583504
 20
6.5680013905
 10
-13.2438566628
 20
6.5663833529
 10
-13.2336668691
 20
6.5644931493
 10
-13.22332967
 20
6.5623077684
 10
-13.2127809374
 20
6.5597917809
 10
-13.202084799
 20
6.5569789002
 10
-13.1914743791
 20
6.553950338
 10
-13.1809817305
 20
6.5506970749
 10
-13.1705748797
 20
6.5472275228
 10
-13.1603909497
 20
6.5436500413
 10
-13.1505030353
 20
6.5399944974
 10
-13.1408381405
 20
6.536231434
 10
-13.1313142462
 20
6.5323805994
 10
-13.1219315616
 20
6.5284520751
 10
-13.1126899426
 20
6.5244359025
 10
-13.1035068188
 20
6.5203215288
 10
-13.0943921794
 20
6.5161212911
 10
-13.0853360841
 20
6.5118226828
 10
-13.0762260539
 20
6.5073774496
 10
-13.0670602055
 20
6.5027918538
 10
-13.0578404629
 20
6.4980588607
 10
-13.0484600519
 20
6.4931096468
 10
-13.0388833974
 20
6.4879206152
 10
-13.0291461243
 20
6.4825137638
 10
-13.019248261
 20
6.4768883
  0
LINE
  5
2D8
100
AcDbEntity
  8
0
100
AcDbLine
 62
7
  6
CONTINUOUS
 10
0.6929128573
 20
16.2540506848
 11
1.7498608745
 21
16.8771674305
  0
LINE
  5
2D9
100
AcDbEntity
  8
0
100
AcDbLine
 62
7
  6
CONTINUOUS
 10
6.9460107022
 20
19.1610103976
 11
2.3862569776
 21
16.5097202965
  0
LINE
  5
2DA
100
AcDbEntity
  8
0
100
AcDbLine
 62
7
  6
CONTINUOUS
 10
3.4125637246
 20
15.9171436435
 11
7.0121437553
 21
18.0076968639
  0
LINE
  5
2DB
100
AcDbEntity
  8
0
100
AcDbLine
 62
7
  6
CONTINUOUS
 10
9.7532477632
 20
19.190194005
 11
3.7661171152
 21
15.7130063468
  0
LINE
  5
2DC
100
AcDbEntity
  8
0
100
AcDbLine
 62
7
  6
CONTINUOUS
 10
4.224589845
 20
15.4482899386
 11
8.8637127497
 21
18.1268659196
  0
LINE
  5
2DD
100
AcDbEntity
  8
0
100
AcDbLine
 62
7
  6
CONTINUOUS
 10
1.7498608745
 20
16.8771674305
 11
6.3738425084
 21
19.4913731417
  0
LWPOLYLINE
  5
2DE
100
AcDbEntity
  8
0
100
AcDbPolyline
 62
7
  6
CONTINUOUS
 90
20
 70
0
 10
12.0433410299
 20
16.2867601567
 10
12.0530196455
 20
16.2897099091
 10
12.063034308
 20
16.2921596432
 10
12.0733772329
 20
16.2941015907
 10
12.0840266804
 20
16.2955322873
 10
12.0949864918
 20
16.2964404564
 10
12.1062893837
 20
16.296804396
 10
12.1179239089
 20
16.2966183461
 10
12.1298860081
 20
16.2958685929
 10
12.1422245543
 20
16.2945158204
 10
12.1549485026
 20
16.2925463979
 10
12.168034628
 20
16.2899466861
 10
12.1814855661
 20
16.286673138
 10
12.1952894694
 20
16.2827111203
 10
12.2094362792
 20
16.2780467511
 10
12.2239302971
 20
16.2726357358
 10
12.2387621796
 20
16.2664586467
 10
12.2539111694
 20
16.2595039285
 10
12.2693625424
 20
16.2517378796
 10
12.2850886143
 20
16.2431472172
  0
LWPOLYLINE
  5
2DF
100
AcDbEntity
  8
RACCORDO
100
AcDbPolyline
 62
250
  6
CONTINUOUS
 90
10
 70
0
 10
-21.8655357719
 20
-2.6796289904
 10
-21.8586288192
 20
-2.6832607324
 10
-21.8511650511
 20
-2.6865044838
 10
-21.8432096036
 20
-2.6893319367
 10
-21.8348319035
 20
-2.6917184161
 10
-21.8261050623
 20
-2.6936430954
 10
-21.8171052388
 20
-2.6950891778
 10
-21.807910974
 20
-2.6960440436
 10
-21.7986025055
 20
-2.6964993598
 10
-21.789261068
 20
-2.6964511528
  0
LWPOLYLINE
  5
2E0
100
AcDbEntity
  8
RACCORDO
100
AcDbPolyline
 62
250
  6
CONTINUOUS
 90
10
 70
0
 10
-21.8655353316
 20
-1.3142751316
 10
-21.8586283426
 20
-1.3179068419
 10
-21.8511645429
 20
-1.3211505599
 10
-21.8432090685
 20
-1.3239779778
 10
-21.8348313463
 20
-1.326364421
 10
-21.8261044882
 20
-1.3282890632
 10
-21.817104653
 20
-1.329735108
 10
-21.8079103815
 20
-1.330689936
 10
-21.7986019117
 20
-1.3311452144
 10
-21.7892604779
 20
-1.33109697
  0
LWPOLYLINE
  5
2E1
100
AcDbEntity
  8
RACCORDO
100
AcDbPolyline
 62
250
  6
CONTINUOUS
 90
10
 70
0
 10
-21.8655281225
 20
-1.3066208255
 10
-21.8586211358
 20
-1.3102687852
 10
-21.8511571943
 20
-1.3135301282
 10
-21.8432014467
 20
-1.3163763886
 10
-21.8348233335
 20
-1.3187827238
 10
-21.8260959828
 20
-1.3207281303
 10
-21.8170955725
 20
-1.3221956282
 10
-21.8079006627
 20
-1.3231724092
 10
-21.7985915092
 20
-1.3236499485
 10
-21.7425434245
 20
-1.3233834299
  0
LWPOLYLINE
  5
2E2
100
AcDbEntity
  8
RACCORDO
100
AcDbPolyline
 62
250
  6
CONTINUOUS
 90
16
 70
0
 10
-21.407888802
 20
-2.7532894723
 10
-21.4285971825
 20
-2.7420762367
 10
-21.4503556447
 20
-2.7317792365
 10
-21.4730895109
 20
-2.7224298117
 10
-21.4967187143
 20
-2.7140425377
 10
-21.5211660828
 20
-2.7066573885
 10
-21.5463585417
 20
-2.7003405869
 10
-21.5722325909
 20
-2.6951033454
 10
-21.5986849845
 20
-2.6909755616
 10
-21.6255781285
 20
-2.6880432178
 10
-21.6528715561
 20
-2.6863057825
 10
-21.680427796
 20
-2.6857795276
 10
-21.7079542654
 20
-2.6865467789
 10
-21.7352915554
 20
-2.6886115792
 10
-21.7624208584
 20
-2.6919216016
 10
-21.789261068
 20
-2.6964510943
  0
LWPOLYLINE
  5
2E3
100
AcDbEntity
  8
RACCORDO
100
AcDbPolyline
 62
250
  6
CONTINUOUS
 90
25
 70
0
 10
-21.6250419578
 20
-2.9654788297
 10
-21.6495825993
 20
-2.9522038989
 10
-21.6611239589
 20
-2.9458690765
 10
-21.6720767413
 20
-2.9393409071
 10
-21.6825925579
 20
-2.9325256526
 10
-21.6928281154
 20
-2.9253719374
 10
-21.7027640534
 20
-2.9174770931
 10
-21.712406203
 20
-2.9084480721
 10
-21.7218074065
 20
-2.8983505016
 10
-21.7309469808
 20
-2.8874548107
 10
-21.7396125839
 20
-2.8754351729
 10
-21.7476002212
 20
-2.8623031091
 10
-21.7549615091
 20
-2.8489774875
 10
-21.7615564443
 20
-2.8356700402
 10
-21.7672228842
 20
-2.8221077792
 10
-21.7722255776
 20
-2.8086323459
 10
-21.7765927016
 20
-2.7954152728
 10
-21.7802074709
 20
-2.7823254981
 10
-21.7832421131
 20
-2.7692992196
 10
-21.7857378903
 20
-2.7562452357
 10
-21.787601511
 20
-2.7433190818
 10
-21.7888581021
 20
-2.7308302178
 10
-21.7895442739
 20
-2.7188913808
 10
-21.7896709209
 20
-2.7074269805
 10
-21.7892616174
 20
-2.6964506752
  0
LWPOLYLINE
  5
2E4
100
AcDbEntity
  8
RACCORDO
100
AcDbPolyline
 62
250
  6
CONTINUOUS
 90
4
 70
0
 10
-21.5703317341
 20
-2.9948977936
 10
-21.5983443548
 20
-2.9796761682
 10
-21.6118527417
 20
-2.9724318145
 10
-21.6250419578
 20
-2.9654788297
  0
LINE
  5
2E5
100
AcDbEntity
  8
RACCORDO
100
AcDbLine
 62
250
  6
CONTINUOUS
 10
-21.556121416
 20
-3.0027556776
 11
-21.5703317341
 21
-2.9948977936
  0
LWPOLYLINE
  5
2E6
100
AcDbEntity
  8
RACCORDO
100
AcDbPolyline
 62
250
  6
CONTINUOUS
 90
3
 70
0
 10
-21.5139535825
 20
-3.0266566025
 10
-21.5279697422
 20
-3.0186736922
 10
-21.556121416
 20
-3.0027556776
  0
LWPOLYLINE
  5
2E7
100
AcDbEntity
  8
RACCORDO
100
AcDbPolyline
 62
250
  6
CONTINUOUS
 90
34
 70
0
 10
-21.549309046
 20
-3.1177786636
 10
-21.5642756794
 20
-3.1089914868
 10
-21.5790745733
 20
-3.1000094119
 10
-21.5937057275
 20
-3.0908324389
 10
-21.608255812
 20
-3.0814056466
 10
-21.6226381568
 20
-3.0717839561
 10
-21.6365927528
 20
-3.0621321316
 10
-21.6500473404
 20
-3.0525031083
 10
-21.663074179
 20
-3.0428439509
 10
-21.6756300378
 20
-3.0331606176
 10
-21.687594613
 20
-3.0235850818
 10
-21.6990882082
 20
-3.01398537
 10
-21.7104285036
 20
-3.0039715203
 10
-21.7216317201
 20
-2.9936126115
 10
-21.7326816368
 20
-2.9828395647
 10
-21.7438472703
 20
-2.9710551809
 10
-21.7553362111
 20
-2.9580597362
 10
-21.7669408687
 20
-2.9440529544
 10
-21.7783074879
 20
-2.9290368085
 10
-21.7895173108
 20
-2.9127325976
 10
-21.8004890953
 20
-2.8954190225
 10
-21.8106253596
 20
-2.8779341585
 10
-21.8197379928
 20
-2.8604425911
 10
-21.8280151058
 20
-2.8427797347
 10
-21.8354235501
 20
-2.8252899083
 10
-21.8419193224
 20
-2.8081026681
 10
-21.847546426
 20
-2.7910884579
 10
-21.8524037219
 20
-2.7742029279
 10
-21.8565257745
 20
-2.7572784929
 10
-21.8598780193
 20
-2.7404827382
 10
-21.8624556247
 20
-2.7242740699
 10
-21.8642569799
 20
-2.7088052902
 10
-21.8652836957
 20
-2.6939235971
 10
-21.8655357719
 20
-2.6796289904
  0
LWPOLYLINE
  5
2E8
100
AcDbEntity
  8
RACCORDO
100
AcDbPolyline
 62
250
  6
CONTINUOUS
 90
3
 70
0
 10
-21.4838488471
 20
-3.0442827655
 10
-21.4934817657
 20
-3.0385901584
 10
-21.5139535829
 20
-3.0266566031
  0
LWPOLYLINE
  5
2E9
100
AcDbEntity
  8
RACCORDO
100
AcDbPolyline
 62
250
  6
CONTINUOUS
 90
5
 70
0
 10
-21.4334289436
 20
-3.0750520191
 10
-21.4491673031
 20
-3.0652677596
 10
-21.4574028859
 20
-3.0602092778
 10
-21.4659053255
 20
-3.0550524955
 10
-21.4838488471
 20
-3.0442827655
  0
LWPOLYLINE
  5
2EA
100
AcDbEntity
  8
RACCORDO
100
AcDbPolyline
 62
250
  6
CONTINUOUS
 90
10
 70
0
 10
-21.2330725958
 20
-1.6717927201
 10
-21.239363616
 20
-1.667820317
 10
-21.2449825939
 20
-1.6635277489
 10
-21.2498804851
 20
-1.6589524828
 10
-21.2540145389
 20
-1.6541344534
 10
-21.2573486717
 20
-1.6491157142
 10
-21.2598537819
 20
-1.6439400705
 10
-21.261508004
 20
-1.6386526972
 10
-21.2622968994
 20
-1.6332997445
 10
-21.2623683769
 20
-1.6311220317
  0
LWPOLYLINE
  5
2EB
100
AcDbEntity
  8
RACCORDO
100
AcDbPolyline
 62
250
  6
CONTINUOUS
 90
10
 70
0
 10
-21.2330797996
 20
-1.6794470293
 10
-21.2393697012
 20
-1.6754590203
 10
-21.2449876236
 20
-1.6711495158
 10
-21.2498845397
 20
-1.6665561245
 10
-21.2540177143
 20
-1.6617189326
 10
-21.2573510775
 20
-1.6566801542
 10
-21.2598555392
 20
-1.6514837621
 10
-21.2615092431
 20
-1.6461751051
 10
-21.2622977576
 20
-1.6408005114
 10
-21.2623691214
 20
-1.6386195703
  0
LWPOLYLINE
  5
2EC
100
AcDbEntity
  8
RACCORDO
100
AcDbPolyline
 62
250
  6
CONTINUOUS
 90
10
 70
0
 10
-20.6278755081
 20
0.7772509775
 10
-20.6341396951
 20
0.7816407821
 10
-20.639848306
 20
0.7858658696
 10
-20.6449481328
 20
0.7898934275
 10
-20.6493888004
 20
0.7936974116
 10
-20.6531310329
 20
0.7972440467
 10
-20.6561466799
 20
0.8004920037
 10
-20.6584087021
 20
0.8034123752
 10
-20.6598917824
 20
0.8059889757
 10
-20.6605801341
 20
0.8082036975
  0
LINE
  5
2ED
100
AcDbEntity
  8
0
100
AcDbLine
 62
250
  6
CONTINUOUS
 10
-9.7108274816
 20
20.6346555825
 11
-9.7108274816
 21
21.6903354627
  0
LINE
  5
2EE
100
AcDbEntity
  8
0
100
AcDbLine
 62
250
  6
CONTINUOUS
 10
-9.0055767396
 20
20.6548722004
 11
-9.0055767396
 21
21.8538370275
  0
LINE
  5
2EF
100
AcDbEntity
  8
0
100
AcDbLine
 62
250
  6
CONTINUOUS
 10
-8.8977588214
 20
27.1938752138
 11
-8.8977588214
 21
28.3778887573
  0
LINE
  5
2F0
100
AcDbEntity
  8
0
100
AcDbLine
 62
7
  6
CONTINUOUS
 10
-8.7819293619
 20
27.3560079745
 11
-8.7819293619
 21
28.4050059346
  0
LINE
  5
2F1
100
AcDbEntity
  8
0
100
AcDbLine
 62
7
  6
CONTINUOUS
 10
-8.6483112452
 20
20.8805106048
 11
-8.6483112452
 21
21.593003172
  0
LINE
  5
2F2
100
AcDbEntity
  8
0
100
AcDbLine
 62
7
  6
CONTINUOUS
 10
-8.6409063726
 20
20.8762351241
 11
-8.6409063726
 21
21.2902764766
  0
LWPOLYLINE
  5
2F3
100
AcDbEntity
  8
0
100
AcDbPolyline
 62
250
  6
CONTINUOUS
 90
27
 70
0
 10
-2.7858090586
 20
17.2178699155
 10
-2.7902281442
 20
17.2071770884
 10
-2.7950342809
 20
17.196740056
 10
-2.8002166174
 20
17.1865823826
 10
-2.805763453
 20
17.1767270022
 10
-2.8116622643
 20
17.167196166
 10
-2.817899733
 20
17.1580113927
 10
-2.8244617763
 20
17.1491934193
 10
-2.8313335785
 20
17.1407621551
 10
-2.8384996243
 20
17.1327366364
 10
-2.8459437343
 20
17.1251349827
 10
-2.8536491013
 20
17.1179743572
 10
-2.8615983272
 20
17.1112709276
 10
-2.8697734643
 20
17.1050398287
 10
-2.878156055
 20
17.0992951286
 10
-2.8867271724
 20
17.0940497977
 10
-2.8954674647
 20
17.0893156786
 10
-2.9043571982
 20
17.0851034596
 10
-2.913376302
 20
17.0814226503
 10
-2.9225044127
 20
17.0782815612
 10
-2.9317209211
 20
17.0756872836
 10
-2.9410050186
 20
17.0736456746
 10
-2.9503357437
 20
17.0721613433
 10
-2.9596920297
 20
17.0712376407
 10
-2.9690527526
 20
17.0708766522
 10
-2.9783967779
 20
17.0710791924
 10
-2.9845117064
 20
17.0715183921
  0
LINE
  5
2F4
100
AcDbEntity
  8
0
100
AcDbLine
 62
7
  6
CONTINUOUS
 10
11.9760435462
 20
16.2567324746
 11
7.3360044459
 21
13.6517981432
  0
LINE
  5
2F5
100
AcDbEntity
  8
0
100
AcDbLine
 62
7
  6
CONTINUOUS
 10
12.6318177137
 20
15.9629496866
 11
12.6135858991
 21
15.9565888494
  0
LWPOLYLINE
  5
2F6
100
AcDbEntity
  8
RACCORDO
100
AcDbPolyline
 62
250
  6
CONTINUOUS
 90
62
 70
0
 10
-21.8655353316
 20
-1.3142751316
 10
-22.2620083326
 20
-1.1157669185
 10
-22.6554828416
 20
-0.9423923192
 10
-23.0459588588
 20
-0.7941513338
 10
-23.4347896286
 20
-0.6706065685
 10
-23.8206219064
 20
-0.5721954171
 10
-24.1993959592
 20
-0.5002300602
 10
-24.5707497269
 20
-0.4551024454
 10
-24.9350452695
 20
-0.4364206251
 10
-25.2893090334
 20
-0.4443209371
 10
-25.6333995359
 20
-0.4790038787
 10
-25.9674582597
 20
-0.5402689525
 10
-26.2889361
 20
-0.6276510049
 10
-26.5978002042
 20
-0.7413756994
 10
-26.8940834249
 20
-0.8812173725
 10
-27.1753352154
 20
-1.0460338798
 10
-27.4413957818
 20
-1.2360105545
 10
-27.692424918
 20
-1.4509620634
 10
-27.9264514592
 20
-1.6891902632
 10
-28.1433526564
 20
-1.9508892183
 10
-28.3432512587
 20
-2.2358648641
 10
-28.5245443483
 20
-2.5418368638
 10
-28.6870802436
 20
-2.8689710954
 10
-28.8310106263
 20
-3.2171016808
 10
-28.9551876239
 20
-3.5834506478
 10
-29.0594533394
 20
-3.9681634881
 10
-29.1439656697
 20
-4.3710947101
 10
-29.2080504334
 20
-4.7890298661
 10
-29.2515442971
 20
-5.2220896558
 10
-29.2746105941
 20
-5.6701533796
 10
-29.2770651426
 20
-6.1296444905
 10
-29.2587429826
 20
-6.6006540036
 10
-29.2198090741
 20
-7.0830909039
 10
-29.1605741152
 20
-7.5731055996
 10
-29.0808756643
 20
-8.0707589168
 10
-28.980876163
 20
-8.5759900294
 10
-28.8613736347
 20
-9.0847668668
 10
-28.7222120201
 20
-9.5971177675
 10
-28.5635473785
 20
-10.1130143932
 10
-28.3866459104
 20
-10.6283396582
 10
-28.191361674
 20
-11.1430890161
 10
-27.9778406111
 20
-11.6572670135
 10
-27.7477867482
 20
-12.1667702043
 10
-27.5010677981
 20
-12.6715611581
 10
-27.2378160481
 20
-13.1716773054
 10
-26.9601323864
 20
-13.6631274915
 10
-26.6679013461
 20
-14.1458423536
 10
-26.3612383943
 20
-14.6198912545
 10
-26.0425908199
 20
-15.081491128
 10
-25.7118627348
 20
-15.5305423584
 10
-25.3691500272
 20
-15.9671445613
 10
-25.0171876504
 20
-16.3878135175
 10
-24.6559015912
 20
-16.7924217444
 10
-24.2853658628
 20
-17.1810967245
 10
-23.9085374581
 20
-17.5507366861
 10
-23.5253660134
 20
-17.9011893318
 10
-23.1359018923
 20
-18.232606959
 10
-22.7432531787
 20
-18.5423446885
 10
-22.3473943694
 20
-18.8302290529
 10
-21.9483509675
 20
-19.0964335194
 10
-21.5493075656
 20
-19.3388336107
 10
-21.1502641637
 20
-19.5572388376
  0
LWPOLYLINE
  5
2F7
100
AcDbEntity
  8
RACCORDO
100
AcDbPolyline
 62
250
  6
CONTINUOUS
 90
33
 70
0
 10
-21.2575355629
 20
1.1408087488
 10
-21.7280104226
 20
1.3811088101
 10
-22.1965742247
 20
1.5935492769
 10
-22.6620863601
 20
1.7776129151
 10
-23.1234138281
 20
1.9328516207
 10
-23.5794334299
 20
2.0588873165
 10
-24.0290345261
 20
2.1554129921
 10
-24.4711224881
 20
2.222193658
 10
-24.9046213432
 20
2.2590667995
 10
-25.3284758458
 20
2.2659426587
 10
-25.7416542227
 20
2.2428044981
 10
-26.1431506877
 20
2.1897086422
 10
-26.531987894
 20
2.1067843402
 10
-26.9072193104
 20
1.9942334508
 10
-27.2679315225
 20
1.8523299528
 10
-27.6132464592
 20
1.6814192777
 10
-27.9423235312
 20
1.4819174684
 10
-28.2543616796
 20
1.2543101648
 10
-28.5486013225
 20
0.999151422
 10
-28.8243262035
 20
0.7170623628
 10
-29.0808651342
 20
0.4087296671
 10
-29.3175936295
 20
0.0749039
 10
-29.533935429
 20
-0.2836023168
 10
-29.7293639005
 20
-0.6659162851
 10
-29.9034033204
 20
-1.0711073535
 10
-30.0556300309
 20
-1.4981891813
 10
-30.1856734711
 20
-1.946122137
 10
-30.2932170803
 20
-2.4138158311
 10
-30.3779990687
 20
-2.9001317714
 10
-30.4398130551
 20
-3.4038861375
 10
-30.4785085683
 20
-3.9238526606
 10
-30.4939914129
 20
-4.4587656067
 10
-30.4862238992
 20
-5.0073228543
  0
LWPOLYLINE
  5
2F8
100
AcDbEntity
  8
RACCORDO
100
AcDbPolyline
 62
250
  6
CONTINUOUS
 90
18
 70
0
 10
-21.00443935
 20
1.4480444742
 10
-21.481929912
 20
1.6922403742
 10
-21.9574933215
 20
1.9081630359
 10
-22.4299715085
 20
2.0952866381
 10
-22.8982138425
 20
2.2531554668
 10
-23.3610801529
 20
2.3813851012
 10
-23.8174434956
 20
2.4796633032
 10
-24.2661928455
 20
2.5477507265
 10
-24.7062350934
 20
2.5854814294
 10
-25.1364979674
 20
2.5927634836
 10
-25.5559332663
 20
2.5695792847
 10
-25.9635201284
 20
2.5159854005
 10
-26.3582667591
 20
2.4321122447
 10
-26.7392123121
 20
2.3181638236
 10
-27.105428595
 20
2.1744176243
 10
-27.4560231362
 20
2.0012239617
 10
-27.7901418042
 20
1.7990049566
 10
-27.9548518274
 20
1.684183586
  0
LWPOLYLINE
  5
2F9
100
AcDbEntity
  8
RACCORDO
100
AcDbPolyline
 62
250
  6
CONTINUOUS
 90
10
 70
0
 10
-20.37656345
 20
1.085516754
 10
-20.3832360207
 20
1.0893248293
 10
-20.3898121984
 20
1.0924059392
 10
-20.3962321375
 20
1.0947322964
 10
-20.4024371587
 20
1.0962831243
 10
-20.4083710258
 20
1.0970443503
 10
-20.4139804368
 20
1.0970087406
 10
-20.4192145132
 20
1.0961766276
 10
-20.4240252814
 20
1.0945559
 10
-20.4283688403
 20
1.0921614402
  0
LWPOLYLINE
  5
2FA
100
AcDbEntity
  8
RACCORDO
100
AcDbPolyline
 62
250
  6
CONTINUOUS
 90
10
 70
0
 10
-21.2575355629
 20
1.1408087488
 10
-21.2507113257
 20
1.136900373
 10
-21.243429876
 20
1.1328747505
 10
-21.2357562664
 20
1.1287678465
 10
-21.2277590529
 20
1.1246163522
 10
-21.2195096831
 20
1.1204573573
 10
-21.2110818571
 20
1.1163280185
 10
-21.2025508697
 20
1.1122652276
 10
-21.1939929372
 20
1.1083052819
 10
-21.1854845166
 20
1.10448356
  0
LINE
  5
2FB
100
AcDbEntity
  8
DRAFT
100
AcDbLine
 62
7
  6
CONTINUOUS
 10
17.9897317577
 20
-20.0920883132
 11
17.8011848075
 21
-19.9832236672
  0
LWPOLYLINE
  5
2FC
100
AcDbEntity
  8
RACCORDO
100
AcDbPolyline
 62
250
  6
CONTINUOUS
 90
10
 70
0
 10
-21.00443935
 20
1.4480444742
 10
-20.9976502803
 20
1.4440758539
 10
-20.9908450987
 20
1.4394271807
 10
-20.984085074
 20
1.4341409022
 10
-20.9774306112
 20
1.4282655604
 10
-20.9709420434
 20
1.4218544275
 10
-20.9646790896
 20
1.4149650175
 10
-20.9586985342
 20
1.4076597939
 10
-20.9530537156
 20
1.400005603
 10
-20.9477953818
 20
1.3920721422
  0
LWPOLYLINE
  5
2FD
100
AcDbEntity
  8
RACCORDO
100
AcDbPolyline
 62
250
  6
CONTINUOUS
 90
10
 70
0
 10
-21.2544061148
 20
1.1473658881
 10
-21.2476313188
 20
1.1433530662
 10
-21.2404038312
 20
1.1392119755
 10
-21.2327882784
 20
1.1349796445
 10
-21.2248527567
 20
1.1306939177
 10
-21.2166682233
 20
1.1263931169
 10
-21.2083078624
 20
1.1221156988
 10
-21.1998464302
 20
1.1178999108
 10
-21.1913595864
 20
1.1137834496
 10
-21.1829232184
 20
1.1098031234
  0
LWPOLYLINE
  5
2FE
100
AcDbEntity
  8
0
100
AcDbPolyline
 62
250
  6
CONTINUOUS
 90
34
 70
0
 10
10.0277245232
 20
-29.5390535152
 10
10.0233054436
 20
-29.5329520809
 10
10.0184993139
 20
-29.5266327705
 10
10.0133169855
 20
-29.5201098516
 10
10.0077701587
 20
-29.5133980513
 10
10.0018713571
 20
-29.5065125236
 10
9.9956338989
 20
-29.4994688144
 10
9.9890718669
 20
-29.4922828269
 10
9.9822000768
 20
-29.4849707853
 10
9.9750340434
 20
-29.4775491987
 10
9.9675899461
 20
-29.4700348234
 10
9.959884592
 20
-29.4624446252
 10
9.9519353781
 20
-29.454795741
 10
9.943760252
 20
-29.4471054403
 10
9.9353776712
 20
-29.4393910862
 10
9.9268065619
 20
-29.4316700959
 10
9.9180662756
 20
-29.4239599017
 10
9.909176546
 20
-29.4162779116
 10
9.9001574442
 20
-29.4086414696
 10
9.8910293331
 20
-29.4010678174
 10
9.8818128222
 20
-29.3935740544
 10
9.8725287203
 20
-29.3861770999
 10
9.8631979887
 20
-29.3788936547
 10
9.8538416943
 20
-29.3717401631
 10
9.8444809614
 20
-29.364732776
 10
9.8351369245
 20
-29.3578873148
 10
9.8258306804
 20
-29.3512192348
 10
9.8165832405
 20
-29.3447435911
 10
9.8074154835
 20
-29.3384750043
 10
9.7983481082
 20
-29.3324276275
 10
9.7894015866
 20
-29.3266151143
 10
9.780596118
 20
-29.3210505881
 10
9.7719515833
 20
-29.3157466123
 10
9.7634874998
 20
-29.3107151621
  0
LWPOLYLINE
  5
2FF
100
AcDbEntity
  8
RACCORDO
100
AcDbPolyline
 62
250
  6
CONTINUOUS
 90
13
 70
0
 10
-13.4979600058
 20
6.4466958893
 10
-13.4840586802
 20
6.4156366604
 10
-13.4685597292
 20
6.3853740108
 10
-13.4515330902
 20
6.3560473376
 10
-13.4329933256
 20
6.3277967394
 10
-13.4130865212
 20
6.3007659525
 10
-13.3920975517
 20
6.2750897923
 10
-13.3701580597
 20
6.2509027386
 10
-13.3473491078
 20
6.228317662
 10
-13.3238943482
 20
6.2074152366
 10
-13.2999471912
 20
6.1882889311
 10
-13.2755888858
 20
6.1710497262
 10
-13.2509394476
 20
6.1557894679
  0
LWPOLYLINE
  5
300
100
AcDbEntity
  8
0
100
AcDbPolyline
 62
250
  6
CONTINUOUS
 90
34
 70
0
 10
-5.8821780535
 20
18.9824722009
 10
-5.8824215549
 20
18.9922764878
 10
-5.8830629557
 20
19.0022910547
 10
-5.8841008042
 20
19.0124932106
 10
-5.8855327511
 20
19.0228598454
 10
-5.8873555529
 20
19.0333674641
 10
-5.8895650767
 20
19.0439922396
 10
-5.8921563141
 20
19.0547100918
 10
-5.8951233941
 20
19.0654967403
 10
-5.8984595921
 20
19.0763277403
 10
-5.9021573483
 20
19.0871785515
 10
-5.9062082829
 20
19.0980245858
 10
-5.9106032126
 20
19.1088412589
 10
-5.9153321769
 20
19.1196040605
 10
-5.9203844596
 20
19.1302886054
 10
-5.9257486099
 20
19.1408706809
 10
-5.9314124746
 20
19.1513263154
 10
-5.937363216
 20
19.1616318136
 10
-5.9435873377
 20
19.1717638077
 10
-5.950070716
 20
19.1816993155
 10
-5.956798675
 20
19.1914158555
 10
-5.9637560134
 20
19.2008914752
 10
-5.9709270365
 20
19.2101047863
 10
-5.9782954343
 20
19.219034822
 10
-5.9858443508
 20
19.2276611661
 10
-5.9935565703
 20
19.2359641838
 10
-6.0014147089
 20
19.2439251971
 10
-6.0094011013
 20
19.2515263232
 10
-6.0174988705
 20
19.2587513919
 10
-6.0256884815
 20
19.2655828674
 10
-6.0339478093
 20
19.2720025977
 10
-6.0422568753
 20
19.2779957549
 10
-6.0505980082
 20
19.2835502896
 10
-6.0589523256
 20
19.2886542213
  0
LWPOLYLINE
  5
301
100
AcDbEntity
  8
0
100
AcDbPolyline
 62
250
  6
CONTINUOUS
 90
18
 70
0
 10
-7.5390705835
 20
19.7958631707
 10
-7.5389845739
 20
19.7920771026
 10
-7.5383923066
 20
19.7852373839
 10
-7.5372388522
 20
19.7784215731
 10
-7.5355268038
 20
19.7716450083
 10
-7.5332600128
 20
19.7649229452
 10
-7.5304435783
 20
19.7582705134
 10
-7.5270838376
 20
19.7517026881
 10
-7.5231883539
 20
19.7452342581
 10
-7.5187658951
 20
19.7388797844
 10
-7.5138264139
 20
19.7326535694
 10
-7.5083810291
 20
19.7265696298
 10
-7.5024419937
 20
19.7206416569
 10
-7.4960226781
 20
19.7148829975
 10
-7.4891375445
 20
19.7093066246
 10
-7.4818020973
 20
19.7039250923
 10
-7.4740328456
 20
19.6987505094
 10
-7.4658472788
 20
19.6937945224
  0
LWPOLYLINE
  5
302
100
AcDbEntity
  8
0
100
AcDbPolyline
 62
250
  6
CONTINUOUS
 90
19
 70
0
 10
-6.2348034245
 20
18.7473377057
 10
-6.2346357974
 20
18.7385475556
 10
-6.2341329251
 20
18.7299637429
 10
-6.2332952996
 20
18.7216028639
 10
-6.2321238883
 20
18.7134801546
 10
-6.2306205425
 20
18.7056124454
 10
-6.2287883978
 20
18.6980178049
 10
-6.2266310405
 20
18.6907113642
 10
-6.2241523501
 20
18.6837064855
 10
-6.221357307
 20
18.677017373
 10
-6.218251444
 20
18.6706570997
 10
-6.2148405463
 20
18.6646373606
 10
-6.2111309232
 20
18.6589692993
 10
-6.2071294747
 20
18.6536635716
 10
-6.2028439145
 20
18.6487305102
 10
-6.1982825959
 20
18.6441797455
 10
-6.1934543171
 20
18.6400200044
 10
-6.1883681992
 20
18.6362590971
 10
-6.1830327898
 20
18.6329035023
  0
LINE
  5
303
100
AcDbEntity
  8
0
100
AcDbLine
 62
7
  6
CONTINUOUS
 10
-7.5390705835
 20
19.7958631707
 11
-7.5390705835
 21
19.5601956469
  0
LINE
  5
304
100
AcDbEntity
  8
0
100
AcDbLine
 62
250
  6
CONTINUOUS
 10
-7.4658472788
 20
19.6937945224
 11
-7.4658472788
 21
19.4581269985
  0
LINE
  5
305
100
AcDbEntity
  8
0
100
AcDbLine
 62
7
  6
CONTINUOUS
 10
-6.8356662386
 20
19.0097258762
 11
-6.8356662386
 21
18.6078278354
  0
LINE
  5
306
100
AcDbEntity
  8
0
100
AcDbLine
 62
250
  6
CONTINUOUS
 10
-6.7624429339
 20
18.9674476577
 11
-6.7624429339
 21
18.5026260062
  0
LINE
  5
307
100
AcDbEntity
  8
0
100
AcDbLine
 62
250
  6
CONTINUOUS
 10
-6.2348034245
 20
18.7473377057
 11
-6.2348034245
 21
18.9830052295
  0
LINE
  5
308
100
AcDbEntity
  8
0
100
AcDbLine
 62
250
  6
CONTINUOUS
 10
-5.8821780535
 20
18.7468046771
 11
-5.8821780535
 21
18.9824722009
  0
LINE
  5
309
100
AcDbEntity
  8
0
100
AcDbLine
 62
250
  6
CONTINUOUS
 10
-5.523994207
 20
17.7875612327
 11
-5.523994207
 21
18.4463905576
  0
LINE
  5
30A
100
AcDbEntity
  8
0
100
AcDbLine
 62
7
  6
CONTINUOUS
 10
-5.4597967168
 20
27.9693574868
 11
-5.4597967168
 21
27.5725635884
  0
LWPOLYLINE
  5
30B
100
AcDbEntity
  8
0
100
AcDbPolyline
 62
250
  6
CONTINUOUS
 90
34
 70
0
 10
-7.4658472788
 20
19.6937945224
 10
-7.465648328
 20
19.7035906891
 10
-7.4650519224
 20
19.7135945641
 10
-7.4640594026
 20
19.7237836308
 10
-7.4626729998
 20
19.7341349622
 10
-7.4608958336
 20
19.7446252527
 10
-7.4587319069
 20
19.75523087
 10
-7.4561860925
 20
19.7659279362
 10
-7.4532641201
 20
19.7766923787
 10
-7.4499725684
 20
19.7874999645
 10
-7.4463188465
 20
19.7983263687
 10
-7.4423111797
 20
19.8091472206
 10
-7.4379585932
 20
19.8199381552
 10
-7.4332708863
 20
19.8306748823
 10
-7.4282586114
 20
19.8413332366
 10
-7.4229330535
 20
19.8518892248
 10
-7.4173061986
 20
19.8623190928
 10
-7.4113907161
 20
19.8725993598
 10
-7.4051999337
 20
19.8827068694
 10
-7.398747807
 20
19.8926188463
 10
-7.3920488445
 20
19.9023130112
 10
-7.385118081
 20
19.9117676074
 10
-7.3779710471
 20
19.9209614366
 10
-7.3706238911
 20
19.9298737138
 10
-7.3630933118
 20
19.9384841954
 10
-7.355396371
 20
19.9467734114
 10
-7.3475503025
 20
19.9547228398
 10
-7.3395726257
 20
19.9623147442
 10
-7.3314800712
 20
19.9695330949
 10
-7.3232920467
 20
19.9763604739
 10
-7.3150305751
 20
19.9827788239
 10
-7.3067155302
 20
19.9887734105
 10
-7.2983644701
 20
19.9943322762
 10
-7.2899961799
 20
19.9994435141
  0
LINE
  5
30C
100
AcDbEntity
  8
0
100
AcDbLine
 62
7
  6
CONTINUOUS
 10
7.2615913315
 20
11.6943322549
 11
6.9043258371
 21
11.4686938505
  0
LINE
  5
30D
100
AcDbEntity
  8
0
100
AcDbLine
 62
7
  6
CONTINUOUS
 10
6.9043258371
 20
12.6676586776
 11
12.5482117401
 21
15.9263697304
  0
LINE
  5
30E
100
AcDbEntity
  8
0
100
AcDbLine
 62
7
  6
CONTINUOUS
 10
7.2689962041
 20
11.6900567743
 11
12.6135858991
 21
14.7723497524
  0
LINE
  5
30F
100
AcDbEntity
  8
0
100
AcDbLine
 62
7
  6
CONTINUOUS
 10
14.1193767986
 20
16.6692458204
 11
12.7304054042
 21
15.8903973821
  0
LWPOLYLINE
  5
310
100
AcDbEntity
  8
RACCORDO
100
AcDbPolyline
 62
250
  6
CONTINUOUS
 90
19
 70
0
 10
-21.1829232184
 20
1.1098031234
 10
-21.1413690081
 20
1.0911704046
 10
-21.0995680362
 20
1.071877758
 10
-21.057876527
 20
1.0520895593
 10
-21.016649495
 20
1.031974269
 10
-20.9762386766
 20
1.0117034628
 10
-20.9369894575
 20
0.991450376
 10
-20.8992366666
 20
0.9713877948
 10
-20.8633017322
 20
0.9516865434
 10
-20.8294908586
 20
0.9325144994
 10
-20.7980922161
 20
0.9140350662
 10
-20.7693734158
 20
0.8964057444
 10
-20.7435791846
 20
0.8797767598
 10
-20.7209288538
 20
0.8642894723
 10
-20.70161619
 20
0.8500763274
 10
-20.6858068592
 20
0.8372593714
 10
-20.6736350766
 20
0.8259477806
 10
-20.6652033237
 20
0.8162372682
 10
-20.6605826186
 20
0.8082102076
  0
LINE
  5
311
100
AcDbEntity
  8
0
100
AcDbLine
 62
7
  6
CONTINUOUS
 10
13.4418079537
 20
-16.6529733488
 11
16.9779856103
 21
-18.694718009
  0
LINE
  5
312
100
AcDbEntity
  8
DRAFT
100
AcDbLine
 62
7
  6
CONTINUOUS
 10
17.2354993825
 20
-18.5984621506
 11
17.8011848075
 21
-18.9250818253
  0
LWPOLYLINE
  5
313
100
AcDbEntity
  8
0
100
AcDbPolyline
 62
7
  6
CONTINUOUS
 90
4
 70
0
 10
-8.7819293619
 20
28.4050048366
 10
-8.782033108
 20
28.4059101568
 10
-8.7827292643
 20
28.4072408501
 10
-8.7837185848
 20
28.4080287095
  0
LWPOLYLINE
  5
314
100
AcDbEntity
  8
0
100
AcDbPolyline
 62
250
  6
CONTINUOUS
 90
34
 70
0
 10
-3.3189159717
 20
17.5024768001
 10
-3.3191594731
 20
17.512281087
 10
-3.3198008739
 20
17.5222956539
 10
-3.3208387224
 20
17.5324978098
 10
-3.3222706693
 20
17.5428644446
 10
-3.3240934711
 20
17.5533720633
 10
-3.3263029949
 20
17.5639968388
 10
-3.3288942323
 20
17.574714691
 10
-3.3318613123
 20
17.5855013395
 10
-3.3351975103
 20
17.5963323395
 10
-3.3388952665
 20
17.6071831507
 10
-3.3429462011
 20
17.6180291849
 10
-3.3473411308
 20
17.6288458581
 10
-3.3520700951
 20
17.6396086597
 10
-3.3571223778
 20
17.6502932046
 10
-3.3624865281
 20
17.6608752801
 10
-3.3681503928
 20
17.6713309146
 10
-3.3741011342
 20
17.6816364127
 10
-3.3803252559
 20
17.6917684068
 10
-3.3868086342
 20
17.7017039146
 10
-3.3935365932
 20
17.7114204547
 10
-3.4004939316
 20
17.7208960744
 10
-3.4076649547
 20
17.7301093854
 10
-3.4150333525
 20
17.7390394212
 10
-3.422582269
 20
17.7476657652
 10
-3.4302944885
 20
17.755968783
 10
-3.4381526271
 20
17.7639297963
 10
-3.4461390195
 20
17.7715309224
 10
-3.4542367887
 20
17.7787559911
 10
-3.4624263997
 20
17.7855874666
 10
-3.4706857275
 20
17.7920071969
 10
-3.4789947935
 20
17.7980003541
 10
-3.4873359264
 20
17.8035548887
 10
-3.4956902438
 20
17.8086588205
  0
LWPOLYLINE
  5
315
100
AcDbEntity
  8
0
100
AcDbPolyline
 62
250
  6
CONTINUOUS
 90
18
 70
0
 10
-4.9758085017
 20
18.3158677699
 10
-4.9757224921
 20
18.3120817018
 10
-4.9751302248
 20
18.3052419831
 10
-4.9739767704
 20
18.2984261723
 10
-4.972264722
 20
18.2916496075
 10
-4.969997931
 20
18.2849275444
 10
-4.9671814965
 20
18.2782751126
 10
-4.9638217558
 20
18.2717072873
 10
-4.9599262721
 20
18.2652388573
 10
-4.9555038133
 20
18.2588843836
 10
-4.9505643321
 20
18.2526581686
 10
-4.9451189473
 20
18.246574229
 10
-4.9391799119
 20
18.2406462561
 10
-4.9327605963
 20
18.2348875967
 10
-4.9258754627
 20
18.2293112237
 10
-4.9185400155
 20
18.2239296914
 10
-4.9107707638
 20
18.2187551086
 10
-4.902585197
 20
18.2137991216
  0
LWPOLYLINE
  5
316
100
AcDbEntity
  8
0
100
AcDbPolyline
 62
250
  6
CONTINUOUS
 90
19
 70
0
 10
-3.6715413427
 20
17.2673423049
 10
-3.6713737156
 20
17.2585521548
 10
-3.6708708433
 20
17.2499683421
 10
-3.6700332178
 20
17.2416074631
 10
-3.6688618065
 20
17.2334847538
 10
-3.6673584607
 20
17.2256170445
 10
-3.665526316
 20
17.2180224041
 10
-3.6633689587
 20
17.2107159633
 10
-3.6608902683
 20
17.2037110846
 10
-3.6580952252
 20
17.1970219721
 10
-3.6549893622
 20
17.1906616989
 10
-3.6515784645
 20
17.1846419598
 10
-3.6478688414
 20
17.1789738985
 10
-3.6438673929
 20
17.1736681708
 10
-3.6395818327
 20
17.1687351094
 10
-3.6350205141
 20
17.1641843447
 10
-3.6301922353
 20
17.1600246036
 10
-3.6251061174
 20
17.1562636963
 10
-3.619770708
 20
17.1529081015
  0
LWPOLYLINE
  5
317
100
AcDbEntity
  8
0
100
AcDbPolyline
 62
250
  6
CONTINUOUS
 90
28
 70
0
 10
-5.171368836
 20
18.445857529
 10
-5.1716257826
 20
18.4614059116
 10
-5.1724139758
 20
18.476626434
 10
-5.1737334157
 20
18.4915190961
 10
-5.1755855262
 20
18.5061151669
 10
-5.1779688834
 20
18.5203833775
 10
-5.1808792159
 20
18.5342299208
 10
-5.1843238792
 20
18.5476535722
 10
-5.1882955178
 20
18.5606555564
 10
-5.192767794
 20
18.5731457397
 10
-5.1977411047
 20
18.5851091438
 10
-5.203215053
 20
18.596560747
 10
-5.2091621094
 20
18.6074553508
 10
-5.2155796624
 20
18.6177873398
 10
-5.2224703236
 20
18.6275623294
 10
-5.2298143974
 20
18.6367519666
 10
-5.237616593
 20
18.645360433
 10
-5.2458722012
 20
18.653383547
 10
-5.2545473994
 20
18.6607804118
 10
-5.2636509713
 20
18.6675502453
 10
-5.2731741333
 20
18.6736938296
 10
-5.2830567121
 20
18.6791726138
 10
-5.2933048888
 20
18.6839790107
 10
-5.3039124824
 20
18.6881206076
 10
-5.314800776
 20
18.6915816155
 10
-5.3259435308
 20
18.6943567714
 10
-5.3373669856
 20
18.6964513383
 10
-5.3490711404
 20
18.6978653163
  0
LINE
  5
318
100
AcDbEntity
  8
0
100
AcDbLine
 62
250
  6
CONTINUOUS
 10
-5.171368836
 20
17.7976695417
 11
-5.171368836
 21
18.445857529
  0
LINE
  5
319
100
AcDbEntity
  8
0
100
AcDbLine
 62
7
  6
CONTINUOUS
 10
-4.9758085017
 20
18.3158677699
 11
-4.9758085017
 21
18.0802002461
  0
LINE
  5
31A
100
AcDbEntity
  8
0
100
AcDbLine
 62
250
  6
CONTINUOUS
 10
-4.902585197
 20
18.2137991216
 11
-4.902585197
 21
17.9781315977
  0
LINE
  5
31B
100
AcDbEntity
  8
0
100
AcDbLine
 62
7
  6
CONTINUOUS
 10
-4.2819268714
 20
18.8677665482
 11
-4.2819268714
 21
19.0719075582
  0
LINE
  5
31C
100
AcDbEntity
  8
0
100
AcDbLine
 62
7
  6
CONTINUOUS
 10
-4.2724041568
 20
17.5297304754
 11
-4.2724041568
 21
17.1278324346
  0
LINE
  5
31D
100
AcDbEntity
  8
0
100
AcDbLine
 62
250
  6
CONTINUOUS
 10
-4.1991808521
 20
17.4874522569
 11
-4.1991808521
 21
17.0226306054
  0
LINE
  5
31E
100
AcDbEntity
  8
0
100
AcDbLine
 62
250
  6
CONTINUOUS
 10
-3.6715413427
 20
17.2673423049
 11
-3.6715413427
 21
17.5030098287
  0
LINE
  5
31F
100
AcDbEntity
  8
0
100
AcDbLine
 62
7
  6
CONTINUOUS
 10
-3.5711176539
 20
20.3168481679
 11
-3.5711176539
 21
19.9494337453
  0
LINE
  5
320
100
AcDbEntity
  8
0
100
AcDbLine
 62
250
  6
CONTINUOUS
 10
-3.3189159717
 20
17.2668092763
 11
-3.3189159717
 21
17.5024768001
  0
LINE
  5
321
100
AcDbEntity
  8
0
100
AcDbLine
 62
250
  6
CONTINUOUS
 10
-3.2963166776
 20
23.9585281023
 11
-3.2963166776
 21
24.4149775308
  0
LINE
  5
322
100
AcDbEntity
  8
0
100
AcDbLine
 62
250
  6
CONTINUOUS
 10
-3.2963166776
 20
24.7202847473
 11
-3.2963166776
 21
25.1427671992
  0
LINE
  5
323
100
AcDbEntity
  8
0
100
AcDbLine
 62
7
  6
CONTINUOUS
 10
-3.2956438273
 20
19.4492232242
 11
-3.2956438273
 21
19.6982655617
  0
LINE
  5
324
100
AcDbEntity
  8
0
100
AcDbLine
 62
7
  6
CONTINUOUS
 10
-3.1794971725
 20
24.1212338432
 11
-3.1794971725
 21
25.1702318034
  0
LINE
  5
325
100
AcDbEntity
  8
0
100
AcDbLine
 62
250
  6
CONTINUOUS
 10
-2.9607321252
 20
16.3075658319
 11
-2.9607321252
 21
16.9663951568
  0
LINE
  5
326
100
AcDbEntity
  8
0
100
AcDbLine
 62
250
  6
CONTINUOUS
 10
-2.6081067542
 20
16.3176741409
 11
-2.6081067542
 21
16.9658621281
  0
LWPOLYLINE
  5
327
100
AcDbEntity
  8
0
100
AcDbPolyline
 62
250
  6
CONTINUOUS
 90
34
 70
0
 10
-4.902585197
 20
18.2137991216
 10
-4.9023862462
 20
18.2235952883
 10
-4.9017898406
 20
18.2335991633
 10
-4.9007973208
 20
18.24378823
 10
-4.899410918
 20
18.2541395614
 10
-4.8976337518
 20
18.2646298519
 10
-4.8954698251
 20
18.2752354692
 10
-4.8929240107
 20
18.2859325354
 10
-4.8900020383
 20
18.2966969778
 10
-4.8867104866
 20
18.3075045637
 10
-4.8830567647
 20
18.3183309679
 10
-4.8790490979
 20
18.3291518198
 10
-4.8746965114
 20
18.3399427544
 10
-4.8700088045
 20
18.3506794815
 10
-4.8649965296
 20
18.3613378358
 10
-4.8596709717
 20
18.371893824
 10
-4.8540441168
 20
18.382323692
 10
-4.8481286343
 20
18.392603959
 10
-4.8419378519
 20
18.4027114686
 10
-4.8354857252
 20
18.4126234455
 10
-4.8287867627
 20
18.4223176104
 10
-4.8218559992
 20
18.4317722066
 10
-4.8147089653
 20
18.4409660358
 10
-4.8073618093
 20
18.449878313
 10
-4.79983123
 20
18.4584887946
 10
-4.7921342892
 20
18.4667780106
 10
-4.7842882207
 20
18.4747274389
 10
-4.7763105439
 20
18.4823193434
 10
-4.7682179894
 20
18.4895376941
 10
-4.7600299649
 20
18.4963650731
 10
-4.7517684933
 20
18.5027834231
 10
-4.7434534484
 20
18.5087780097
 10
-4.7351023883
 20
18.5143368754
 10
-4.7267340981
 20
18.5194481133
  0
LWPOLYLINE
  5
328
100
AcDbEntity
  8
0
100
AcDbPolyline
 62
7
  6
CONTINUOUS
 90
6
 70
0
 10
0.5531542456
 20
16.0897876212
 10
0.5513448402
 20
16.0810729365
 10
0.5499660523
 20
16.0719743191
 10
0.5490082842
 20
16.0624992578
 10
0.5484616291
 20
16.0526225
 10
0.5483125943
 20
16.0437456791
  0
LWPOLYLINE
  5
329
100
AcDbEntity
  8
0
100
AcDbPolyline
 62
7
  6
CONTINUOUS
 90
22
 70
0
 10
7.2689962041
 20
12.1040981267
 10
7.276425781
 20
12.1121533536
 10
7.2834405064
 20
12.1207196399
 10
7.2900403804
 20
12.1297969855
 10
7.2962331891
 20
12.1393990061
 10
7.3020111464
 20
12.1495120861
 10
7.307350894
 20
12.1600953781
 10
7.31225066
 20
12.1711507847
 10
7.3167122163
 20
12.1826764033
 10
7.3207175209
 20
12.1946256787
 10
7.3242647286
 20
12.2070003257
 10
7.3273556846
 20
12.2197986295
 10
7.3299778819
 20
12.2329688915
 10
7.3321294244
 20
12.2465126324
 10
7.3338122082
 20
12.2604283315
 10
7.3350194155
 20
12.2746597281
 10
7.3357491243
 20
12.2892080411
 10
7.3360032565
 20
12.3040720516
 10
7.3357807594
 20
12.3191918429
 10
7.3350812821
 20
12.3345474426
 10
7.3339051754
 20
12.3501588229
 10
7.3322524394
 20
12.366025984
  0
LWPOLYLINE
  5
32A
100
AcDbEntity
  8
0
100
AcDbPolyline
 62
250
  6
CONTINUOUS
 90
34
 70
0
 10
9.8509502511
 20
10.1024758714
 10
9.8425680504
 20
10.0973557555
 10
9.8342067946
 20
10.091789055
 10
9.8258852985
 20
10.0857882963
 10
9.8176222876
 20
10.0793669827
 10
9.8094363557
 20
10.0725395636
 10
9.8013459231
 20
10.0653214024
 10
9.7933691954
 20
10.0577287418
 10
9.7855241221
 20
10.0497786672
 10
9.7778283566
 20
10.0414890682
 10
9.7702992163
 20
10.0328785985
 10
9.7629536436
 20
10.0239666336
 10
9.7558081679
 20
10.0147732278
 10
9.7488788683
 20
10.0053190686
 10
9.7421813373
 20
9.99562543
 10
9.7357306461
 20
9.9857141252
 10
9.7295413104
 20
9.975607457
 10
9.7236272576
 20
9.9653281681
 10
9.7180017959
 20
9.9548993892
 10
9.712677584
 20
9.9443445879
 10
9.7076666026
 20
9.9336875148
 10
9.7029801277
 20
9.9229521512
 10
9.698628705
 20
9.9121626543
 10
9.6946221264
 20
9.901343303
 10
9.6909694075
 20
9.8905184436
 10
9.6876787679
 20
9.8797124348
 10
9.6847576124
 20
9.8689495926
 10
9.6822125143
 20
9.8582541362
 10
9.6800492006
 20
9.847650133
 10
9.6782725395
 20
9.8371614446
 10
9.6768865287
 20
9.8268116732
 10
9.6758942872
 20
9.8166241083
 10
9.6752980478
 20
9.8066216745
 10
9.6750991522
 20
9.7968268796
  0
LINE
  5
32B
100
AcDbEntity
  8
0
100
AcDbLine
 62
7
  6
CONTINUOUS
 10
17.9958482673
 20
14.1621744688
 11
12.3111209
 21
10.7291029058
  0
LINE
  5
32C
100
AcDbEntity
  8
0
100
AcDbLine
 62
7
  6
CONTINUOUS
 10
8.4938677246
 20
10.8250451572
 11
10.7812339465
 21
12.1735468558
  0
LINE
  5
32D
100
AcDbEntity
  8
0
100
AcDbLine
 62
250
  6
CONTINUOUS
 10
8.6199063968
 20
10.8132651643
 11
10.9068912677
 21
12.1615420398
  0
LINE
  5
32E
100
AcDbEntity
  8
0
100
AcDbLine
 62
7
  6
CONTINUOUS
 10
17.0561483643
 20
14.9735907248
 11
11.5502868641
 21
11.7900534861
  0
LINE
  5
32F
100
AcDbEntity
  8
0
100
AcDbLine
 62
250
  6
CONTINUOUS
 10
9.8509502511
 20
10.1024758714
 11
12.1620106507
 21
11.4368518384
  0
LINE
  5
330
100
AcDbEntity
  8
0
100
AcDbLine
 62
250
  6
CONTINUOUS
 10
10.0277245232
 20
9.796293851
 11
12.3387849228
 21
11.130669818
  0
LWPOLYLINE
  5
331
100
AcDbEntity
  8
0
100
AcDbPolyline
 62
250
  6
CONTINUOUS
 90
34
 70
0
 10
10.0277245232
 20
9.5606263272
 10
10.0190995346
 20
9.5559267323
 10
10.0100982514
 20
9.5514685918
 10
10.0007409286
 20
9.5472619376
 10
9.9910486225
 20
9.5433162357
 10
9.9810431433
 20
9.5396403651
 10
9.9707470056
 20
9.5362425972
 10
9.9601833784
 20
9.5331305779
 10
9.9493760325
 20
9.53031131
 10
9.938349287
 20
9.5277911375
 10
9.9271279549
 20
9.5255757316
 10
9.915737287
 20
9.5236700773
 10
9.9042029149
 20
9.5220784629
 10
9.8925507941
 20
9.5208044699
 10
9.8808071445
 20
9.519850965
 10
9.8689983924
 20
9.519220094
 10
9.8571511103
 20
9.5189132765
 10
9.8452919575
 20
9.5189312028
 10
9.8334476201
 20
9.5192738326
 10
9.8216447508
 20
9.5199403949
 10
9.809909909
 20
9.5209293898
 10
9.7982695009
 20
9.5222385919
 10
9.7867497203
 20
9.5238650549
 10
9.7753764897
 20
9.5258051191
 10
9.7641754015
 20
9.5280544188
 10
9.753171661
 20
9.5306078926
 10
9.7423900294
 20
9.5334597944
 10
9.731854768
 20
9.5366037068
 10
9.7215895837
 20
9.5400325552
 10
9.7116175758
 20
9.5437386238
 10
9.7019611836
 20
9.5477135731
 10
9.6926421366
 20
9.5519484585
 10
9.6836814048
 20
9.5564337504
 10
9.6750991522
 20
9.5611593558
  0
LWPOLYLINE
  5
332
100
AcDbEntity
  8
0
100
AcDbPolyline
 62
250
  6
CONTINUOUS
 90
28
 70
0
 10
-2.6081067542
 20
16.9658621281
 10
-2.6083637008
 20
16.9814105108
 10
-2.609151894
 20
16.9966310331
 10
-2.6104713339
 20
17.0115236952
 10
-2.6123234444
 20
17.0261197661
 10
-2.6147068016
 20
17.0403879767
 10
-2.6176171341
 20
17.05423452
 10
-2.6210617974
 20
17.0676581714
 10
-2.625033436
 20
17.0806601556
 10
-2.6295057121
 20
17.0931503389
 10
-2.6344790229
 20
17.105113743
 10
-2.6399529712
 20
17.1165653462
 10
-2.6459000276
 20
17.12745995
 10
-2.6523175806
 20
17.137791939
 10
-2.6592082418
 20
17.1475669286
 10
-2.6665523156
 20
17.1567565658
 10
-2.6743545112
 20
17.1653650322
 10
-2.6826101194
 20
17.1733881462
 10
-2.6912853176
 20
17.180785011
 10
-2.7003888895
 20
17.1875548445
 10
-2.7099120515
 20
17.1936984288
 10
-2.7197946303
 20
17.199177213
 10
-2.730042807
 20
17.2039836099
 10
-2.7406504006
 20
17.2081252068
 10
-2.7515386942
 20
17.2115862146
 10
-2.762681449
 20
17.2143613706
 10
-2.7741049038
 20
17.2164559375
 10
-2.7858090586
 20
17.2178699155
  0
LWPOLYLINE
  5
333
100
AcDbEntity
  8
RACCORDO
100
AcDbPolyline
 62
250
  6
CONTINUOUS
 90
25
 70
0
 10
-0.9017895549
 20
18.9151114775
 10
-0.9026266856
 20
19.0001317033
 10
-0.8988354562
 20
19.0866067268
 10
-0.8905512107
 20
19.1740871555
 10
-0.8779622473
 20
19.2618073805
 10
-0.8612375901
 20
19.3496788055
 10
-0.8403644333
 20
19.438322514
 10
-0.8152921594
 20
19.5277303989
 10
-0.7861725392
 20
19.6171718719
 10
-0.7531916045
 20
19.7062100448
 10
-0.7164835695
 20
19.7944632333
 10
-0.6761798216
 20
19.8815762051
 10
-0.6325055723
 20
19.9671618698
 10
-0.5858107015
 20
20.0505698615
 10
-0.5361343199
 20
20.1317782439
 10
-0.4831616736
 20
20.211284477
 10
-0.4268283942
 20
20.2889148618
 10
-0.3674498855
 20
20.3639949078
 10
-0.3052103353
 20
20.436177677
 10
-0.2401983492
 20
20.5051371265
 10
-0.17272627
 20
20.5703092239
 10
-0.1033719503
 20
20.6310392577
 10
-0.0325361992
 20
20.6868956071
 10
0.039586778
 20
20.7376065747
 10
0.1126777116
 20
20.7828385518
  0
LINE
  5
334
100
AcDbEntity
  8
0
100
AcDbLine
 62
7
  6
CONTINUOUS
 10
-1.7186647896
 20
16.8794195901
 11
-1.7186647896
 21
17.5919121574
  0
LINE
  5
335
100
AcDbEntity
  8
0
100
AcDbLine
 62
7
  6
CONTINUOUS
 10
-1.0078555721
 20
18.8368527671
 11
-1.0078555721
 21
18.4694383445
  0
LINE
  5
336
100
AcDbEntity
  8
RACCORDO
100
AcDbLine
 62
250
  6
CONTINUOUS
 10
-0.9017895549
 20
18.3269999141
 11
-0.9017895549
 21
18.9151114849
  0
LINE
  5
337
100
AcDbEntity
  8
RACCORDO
100
AcDbLine
 62
250
  6
CONTINUOUS
 10
-0.1946827737
 20
18.7352350525
 11
-0.1946827737
 21
18.9151114775
  0
LWPOLYLINE
  5
338
100
AcDbEntity
  8
RACCORDO
100
AcDbPolyline
 62
250
  6
CONTINUOUS
 90
25
 70
0
 10
-0.1946827737
 20
18.9151114775
 10
-0.1929076749
 20
18.971369379
 10
-0.1883074593
 20
19.02804088
 10
-0.180882127
 20
19.0851259805
 10
-0.1705836415
 20
19.1426644395
 10
-0.1574600393
 20
19.200616498
 10
-0.1416554302
 20
19.2588628792
 10
-0.1231255717
 20
19.3176224199
 10
-0.1019147063
 20
19.3766762833
 10
-0.0782996717
 20
19.4352486827
 10
-0.052247808
 20
19.4933230674
 10
-0.0237917751
 20
19.5509159881
 10
0.0066936102
 20
19.6073013095
 10
0.0390856187
 20
19.6622957479
 10
0.0735069795
 20
19.7160825869
 10
0.1099510642
 20
19.7684855422
 10
0.1485381677
 20
19.8197099731
 10
0.189147995
 20
19.8695505203
 10
0.2314130316
 20
19.9172148217
 10
0.275455351
 20
19.962758034
 10
0.3211528797
 20
20.0061250004
 10
0.3677718832
 20
20.0463578888
 10
0.4150677832
 20
20.0831374217
 10
0.463285158
 20
20.1167828766
 10
0.5124240075
 20
20.1472942534
  0
LINE
  5
339
100
AcDbEntity
  8
0
100
AcDbLine
 62
7
  6
CONTINUOUS
 10
7.972400549
 20
13.2843510093
 11
7.5407051256
 21
12.743169046
  0
LINE
  5
33A
100
AcDbEntity
  8
0
100
AcDbLine
 62
7
  6
CONTINUOUS
 10
7.972400549
 20
13.2843510093
 11
7.2615913315
 21
12.4068248221
  0
LWPOLYLINE
  5
33B
100
AcDbEntity
  8
0
100
AcDbPolyline
 62
250
  6
CONTINUOUS
 90
52
 70
0
 10
6.1394832633
 20
5.7606938801
 10
6.1084654505
 20
5.7408272775
 10
6.0775223322
 20
5.7199776747
 10
6.0466795728
 20
5.6981628316
 10
6.0159628302
 20
5.6754017669
 10
5.9853974895
 20
5.6517134081
 10
5.9550086616
 20
5.6271164623
 10
5.9248210986
 20
5.6016313223
 10
5.8948603113
 20
5.5752798988
 10
5.8651523099
 20
5.5480842164
 10
5.8357218331
 20
5.5200673499
 10
5.8065931929
 20
5.4912529077
 10
5.7777914066
 20
5.4616647712
 10
5.7493404272
 20
5.4313279936
 10
5.7212637848
 20
5.4002681468
 10
5.6935854299
 20
5.3685108175
 10
5.6663282468
 20
5.3360826901
 10
5.639514928
 20
5.3030112369
 10
5.6131686125
 20
5.2693240642
 10
5.5873112078
 20
5.2350496425
 10
5.5619641001
 20
5.2002168346
 10
5.5371490329
 20
5.1648545779
 10
5.5128865822
 20
5.1289926487
 10
5.4891968745
 20
5.0926613179
 10
5.4661002885
 20
5.0558908891
 10
5.4436160386
 20
5.0187124202
 10
5.4217626998
 20
4.9811571726
 10
5.4005589339
 20
4.9432562605
 10
5.3800223066
 20
4.9050415167
 10
5.360169876
 20
4.8665452102
 10
5.3410187179
 20
4.827799496
 10
5.3225847492
 20
4.7888370163
 10
5.3048832179
 20
4.7496905471
 10
5.2879293015
 20
4.7103927115
 10
5.2717370557
 20
4.6709765029
 10
5.2563199139
 20
4.6314751621
 10
5.2416911645
 20
4.5919218262
 10
5.2278629951
 20
4.5523498818
 10
5.2148467899
 20
4.512792494
 10
5.2026536402
 20
4.4732824835
 10
5.1912936643
 20
4.4338529852
 10
5.1807762832
 20
4.3945372315
 10
5.1711105216
 20
4.3553680816
 10
5.1623043965
 20
4.3163783188
 10
5.1543652198
 20
4.2776008455
 10
5.1472998675
 20
4.2390684602
 10
5.141114294
 20
4.2008141196
 10
5.1358134625
 20
4.1628693444
 10
5.1314017462
 20
4.1252644526
 10
5.1278828953
 20
4.0880305462
 10
5.12525992
 20
4.0511994423
 10
5.1235350763
 20
4.0148021018
  0
LWPOLYLINE
  5
33C
100
AcDbEntity
  8
0
100
AcDbPolyline
 62
250
  6
CONTINUOUS
 90
52
 70
0
 10
6.5053108838
 20
5.1560298474
 10
6.4844953702
 20
5.1428408138
 10
6.4637613583
 20
5.1290188819
 10
6.443108848
 20
5.1145640515
 10
6.4225199494
 20
5.0994627105
 10
6.4020125525
 20
5.083728471
 10
6.3816403272
 20
5.0674021699
 10
6.3614042523
 20
5.0504826959
 10
6.3413033491
 20
5.0329711603
 10
6.3213883515
 20
5.0149117338
 10
6.3016597912
 20
4.9963030764
 10
6.2821171366
 20
4.9771465281
 10
6.2628095273
 20
4.9574902802
 10
6.2437375899
 20
4.937333121
 10
6.2249006978
 20
4.9166762622
 10
6.20634611
 20
4.8955715296
 10
6.1880744759
 20
4.8740177263
 10
6.1700851461
 20
4.8520160492
 10
6.1524234314
 20
4.8296219148
 10
6.1350901846
 20
4.8068343645
 10
6.1180845528
 20
4.7836543568
 10
6.1014492888
 20
4.7601401841
 10
6.0851853132
 20
4.736290984
 10
6.0692917053
 20
4.7121076187
 10
6.0538084554
 20
4.6876509672
 10
6.038736631
 20
4.6629204011
 10
6.0240751646
 20
4.6379165487
 10
6.0098608431
 20
4.6127021741
 10
5.9960947618
 20
4.5872766982
 10
5.9827758253
 20
4.5616407001
 10
5.9699375353
 20
4.5358586809
 10
5.9575811134
 20
4.5099302959
 10
5.945705338
 20
4.4838558898
 10
5.9343400453
 20
4.4577009977
 10
5.9234865056
 20
4.4314653754
 10
5.9131434487
 20
4.4051492672
 10
5.9033369001
 20
4.37881894
 10
5.8940682402
 20
4.3524744452
 10
5.8853360886
 20
4.3261157315
 10
5.8771623299
 20
4.2998089124
 10
5.8695483457
 20
4.2735540709
 10
5.8624927544
 20
4.2473511239
 10
5.8560132953
 20
4.2212659359
 10
5.8501114161
 20
4.195298727
 10
5.8447856692
 20
4.169449277
 10
5.8400494502
 20
4.1437827896
 10
5.8359042159
 20
4.1182987293
 10
5.8323485097
 20
4.0929976315
 10
5.8293913575
 20
4.0679463066
 10
5.8270357681
 20
4.0431670248
 10
5.8252787328
 20
4.0186375159
 10
5.8241202516
 20
3.9943577799
  0
LINE
  5
33D
100
AcDbEntity
  8
0
100
AcDbLine
 62
7
  6
CONTINUOUS
 10
11.6279757053
 20
9.1732366411
 11
10.7385337407
 21
8.6114911918
  0
LINE
  5
33E
100
AcDbEntity
  8
0
100
AcDbLine
 62
250
  6
CONTINUOUS
 10
11.6496249358
 20
9.1607366467
 11
6.1394832929
 21
5.760693863
  0
LINE
  5
33F
100
AcDbEntity
  8
0
100
AcDbLine
 62
250
  6
CONTINUOUS
 10
12.0029092017
 20
8.54833275
 11
6.5053108838
 21
5.1560298474
  0
LINE
  5
340
100
AcDbEntity
  8
0
100
AcDbLine
 62
7
  6
CONTINUOUS
 10
17.9958482673
 20
13.7849430232
 11
11.6893519245
 21
9.9495978829
  0
LINE
  5
341
100
AcDbEntity
  8
0
100
AcDbLine
 62
250
  6
CONTINUOUS
 10
12.3502962523
 20
9.5679769116
 11
11.6493602985
 21
9.160889445
  0
LINE
  5
342
100
AcDbEntity
  8
0
100
AcDbLine
 62
250
  6
CONTINUOUS
 10
12.7038451555
 20
8.9556208846
 11
12.0029092017
 21
8.548533418
  0
LINE
  5
343
100
AcDbEntity
  8
0
100
AcDbLine
 62
7
  6
CONTINUOUS
 10
12.7038451555
 20
7.8102478127
 11
12.745371322
 21
7.8342245007
  0
LWPOLYLINE
  5
344
100
AcDbEntity
  8
0
100
AcDbPolyline
 62
250
  6
CONTINUOUS
 90
40
 70
0
 10
5.8241202516
 20
3.9943577799
 10
5.8095350948
 20
3.9872107097
 10
5.7944221414
 20
3.9804043794
 10
5.7788053634
 20
3.973949585
 10
5.7627095321
 20
3.9678565652
 10
5.7461601786
 20
3.9621349846
 10
5.7291835534
 20
3.9567939188
 10
5.7118065848
 20
3.9518418398
 10
5.6940568359
 20
3.9472866025
 10
5.6759624613
 20
3.9431354323
 10
5.6575521623
 20
3.939394914
 10
5.638855141
 20
3.9360709806
 10
5.6199010547
 20
3.9331689045
 10
5.6007199681
 20
3.9306932891
 10
5.5813423062
 20
3.928648061
 10
5.5617988058
 20
3.9270364646
 10
5.5421204666
 20
3.9258610559
 10
5.5223385023
 20
3.9251236996
 10
5.5024842909
 20
3.9248255651
 10
5.4825893251
 20
3.9249671254
 10
5.4626851621
 20
3.9255481559
 10
5.4428033738
 20
3.926567735
 10
5.4229754966
 20
3.9280242455
 10
5.4032329814
 20
3.929915377
 10
5.3836071435
 20
3.9322381298
 10
5.3641291134
 20
3.9349888197
 10
5.3448297871
 20
3.9381630834
 10
5.3257397769
 20
3.941755886
 10
5.3068893635
 20
3.9457615285
 10
5.2883084471
 20
3.9501736574
 10
5.2700265007
 20
3.954985274
 10
5.2520725231
 20
3.9601887462
 10
5.2344749927
 20
3.9657758204
 10
5.2172618226
 20
3.9717376342
 10
5.2004603163
 20
3.9780647312
 10
5.1840971242
 20
3.9847470752
 10
5.1681982016
 20
3.9917740669
 10
5.1527887671
 20
3.9991345601
 10
5.1378932631
 20
4.0068168795
 10
5.1235353169
 20
4.0148088395
  0
LINE
  5
345
100
AcDbEntity
  8
0
100
AcDbLine
 62
7
  6
CONTINUOUS
 10
13.4047811093
 20
6.3490877996
 11
12.0029092017
 21
5.8133441736
  0
LINE
  5
346
100
AcDbEntity
  8
0
100
AcDbLine
 62
7
  6
CONTINUOUS
 10
13.4418079537
 20
6.3277089637
 11
12.0029092017
 21
5.8133441736
  0
LWPOLYLINE
  5
347
100
AcDbEntity
  8
RACCORDO
100
AcDbPolyline
 62
250
  6
CONTINUOUS
 90
15
 70
0
 10
-21.7425434245
 20
-1.3233834299
 10
-21.6960023803
 20
-1.3256602599
 10
-21.6500323723
 20
-1.3304347
 10
-21.6050345567
 20
-1.3376650862
 10
-21.5614016056
 20
-1.3472883227
 10
-21.519514281
 20
-1.3592204326
 10
-21.4797381116
 20
-1.3733572906
 10
-21.4424202031
 20
-1.3895755317
 10
-21.4078862093
 20
-1.407733628
 10
-21.3764374902
 20
-1.4276731232
 10
-21.3483484822
 20
-1.4492200159
 10
-21.3238643034
 20
-1.4721862776
 10
-21.3031986143
 20
-1.4963714939
 10
-21.2865317536
 20
-1.521564613
 10
-21.2740091642
 20
-1.5475457878
  0
LWPOLYLINE
  5
348
100
AcDbEntity
  8
RACCORDO
100
AcDbPolyline
 62
250
  6
CONTINUOUS
 90
16
 70
0
 10
-13.2509394476
 20
6.1557894679
 10
-13.2311530115
 20
6.1450309397
 10
-13.2113777175
 20
6.1356497553
 10
-13.1916738294
 20
6.1276710107
 10
-13.172110128
 20
6.1211067134
 10
-13.152734888
 20
6.1159828221
 10
-13.1335752543
 20
6.1123375831
 10
-13.1146871295
 20
6.110173964
 10
-13.0961213015
 20
6.109498807
 10
-13.0778924906
 20
6.1103445829
 10
-13.0600216279
 20
6.1127025446
 10
-13.0425802944
 20
6.1165632033
 10
-13.0256408265
 20
6.1219222972
 10
-13.0092359044
 20
6.1287350069
 10
-12.9933731434
 20
6.136945007
 10
-12.9780679778
 20
6.1465008918
  0
LINE
  5
349
100
AcDbEntity
  8
RACCORDO
100
AcDbLine
 62
250
  6
CONTINUOUS
 10
-13.0074840768
 20
6.3570242853
 11
-12.981377085
 21
6.3425229274
  0
LWPOLYLINE
  5
34A
100
AcDbEntity
  8
RACCORDO
100
AcDbPolyline
 62
250
  6
CONTINUOUS
 90
10
 70
0
 10
-12.9259284142
 20
6.1402680773
 10
-12.9326414971
 20
6.1440223822
 10
-12.9392574709
 20
6.1470508137
 10
-12.9457164997
 20
6.1493259809
 10
-12.951960167
 20
6.1508273056
 10
-12.9579320034
 20
6.1515412082
 10
-12.9635779976
 20
6.1514612308
 10
-12.9688470857
 20
6.1505880959
 10
-12.9736916122
 20
6.1489296991
 10
-12.9780677617
 20
6.1465010384
  0
LINE
  5
34B
100
AcDbEntity
  8
RACCORDO
100
AcDbLine
 62
250
  6
CONTINUOUS
 10
-13.0341094449
 20
6.3719879781
 11
-13.0074840768
 21
6.3570242853
  0
LWPOLYLINE
  5
34C
100
AcDbEntity
  8
RACCORDO
100
AcDbPolyline
 62
250
  6
CONTINUOUS
 90
39
 70
0
 10
-12.981377085
 20
6.3425229274
 10
-12.9627587616
 20
6.3320262156
 10
-12.9569215913
 20
6.328603606
 10
-12.9513005264
 20
6.3251994751
 10
-12.9458773086
 20
6.3218189233
 10
-12.9407567443
 20
6.318380037
 10
-12.9359261409
 20
6.3148313605
 10
-12.931360397
 20
6.3112011702
 10
-12.9271455063
 20
6.3074911197
 10
-12.9233242287
 20
6.3036299213
 10
-12.9198670962
 20
6.2996095255
 10
-12.9167625478
 20
6.2955059065
 10
-12.9140634084
 20
6.291278884
 10
-12.9117749703
 20
6.2868827028
 10
-12.9098084642
 20
6.2823994054
 10
-12.9081852479
 20
6.2778207009
 10
-12.9069456347
 20
6.2730975486
 10
-12.9060105446
 20
6.2682790699
 10
-12.9053901844
 20
6.2633687314
 10
-12.905127681
 20
6.2583319938
 10
-12.9051794547
 20
6.2531833783
 10
-12.9055570723
 20
6.2479335631
 10
-12.9062988035
 20
6.2425589489
 10
-12.9073987937
 20
6.2370378729
 10
-12.9088760345
 20
6.2313814331
 10
-12.9107691734
 20
6.2255809509
 10
-12.9131107464
 20
6.21959661
 10
-12.9159446524
 20
6.2134166904
 10
-12.919303837
 20
6.2070730257
 10
-12.9232083069
 20
6.2005984029
 10
-12.9277412927
 20
6.193940495
 10
-12.9328954498
 20
6.1871884195
 10
-12.9385100178
 20
6.1805772552
 10
-12.9445855194
 20
6.1741062736
 10
-12.9511027167
 20
6.1677934371
 10
-12.9577871705
 20
6.161869556
 10
-12.9644967743
 20
6.156394589
 10
-12.9712684809
 20
6.1512789446
 10
-12.9780591474
 20
6.1465079832
  0
LINE
  5
34D
100
AcDbEntity
  8
RACCORDO
100
AcDbLine
 62
250
  6
CONTINUOUS
 10
-13.062173353
 20
6.3879826754
 11
-13.0341094449
 21
6.3719879781
  0
LINE
  5
34E
100
AcDbEntity
  8
RACCORDO
100
AcDbLine
 62
250
  6
CONTINUOUS
 10
-13.0868041651
 20
6.4021873937
 11
-13.062173353
 21
6.3879826754
  0
LWPOLYLINE
  5
34F
100
AcDbEntity
  8
RACCORDO
100
AcDbPolyline
 62
250
  6
CONTINUOUS
 90
55
 70
0
 10
-13.0192482614
 20
6.4768882997
 10
-13.0110696176
 20
6.4721073854
 10
-13.0030928088
 20
6.4673483303
 10
-12.9953178534
 20
6.4626115027
 10
-12.9877731331
 20
6.4579139439
 10
-12.9804303
 20
6.4532393788
 10
-12.9732042789
 20
6.4485379724
 10
-12.9660836224
 20
6.4438076717
 10
-12.9590798107
 20
6.4390507726
 10
-12.9521421652
 20
6.4342235899
 10
-12.9452549288
 20
6.4293202271
 10
-12.9384338987
 20
6.424346505
 10
-12.9316757363
 20
6.4192761056
 10
-12.9249475199
 20
6.4140868088
 10
-12.9182822231
 20
6.4088006116
 10
-12.9117753546
 20
6.4034576794
 10
-12.9054390432
 20
6.3980689427
 10
-12.8992612064
 20
6.3926237548
 10
-12.8933010352
 20
6.3871302235
 10
-12.8875682839
 20
6.3816033937
 10
-12.8820532435
 20
6.3760286887
 10
-12.8767859202
 20
6.3703698511
 10
-12.8717526223
 20
6.3646113075
 10
-12.8669671033
 20
6.3587689758
 10
-12.8625005454
 20
6.3528539174
 10
-12.8583625381
 20
6.3468633819
 10
-12.854543546
 20
6.3408006984
 10
-12.8510860585
 20
6.3346862349
 10
-12.848002643
 20
6.3285307424
 10
-12.8452807672
 20
6.3223241896
 10
-12.8429252668
 20
6.3160558308
 10
-12.840934828
 20
6.3097307625
 10
-12.8393107944
 20
6.3033445147
 10
-12.8380619938
 20
6.29687194
 10
-12.8371802492
 20
6.2903152722
 10
-12.8366737688
 20
6.2836727977
 10
-12.8365759676
 20
6.2769134036
 10
-12.8368730058
 20
6.270042637
 10
-12.8375787568
 20
6.2630554135
 10
-12.8387682177
 20
6.2559046641
 10
-12.8404213513
 20
6.2485895391
 10
-12.8425582348
 20
6.241111323
 10
-12.8453140463
 20
6.2334262082
 10
-12.848691471
 20
6.2254959884
 10
-12.8526878594
 20
6.2173593596
 10
-12.8574303572
 20
6.209088066
 10
-12.8630145588
 20
6.2005973803
 10
-12.8693448199
 20
6.1919727212
 10
-12.8762613145
 20
6.183541306
 10
-12.8838519984
 20
6.1753166659
 10
-12.8920286736
 20
6.1672859745
 10
-12.9003671856
 20
6.1597369387
 10
-12.9087260568
 20
6.1527655338
 10
-12.9172465095
 20
6.1462760167
 10
-12.9259284315
 20
6.140268407
  0
LINE
  5
350
100
AcDbEntity
  8
RACCORDO
100
AcDbLine
 62
250
  6
CONTINUOUS
 10
-13.1145188317
 20
6.418350876
 11
-13.0868041651
 21
6.4021873937
  0
LINE
  5
351
100
AcDbEntity
  8
RACCORDO
100
AcDbLine
 62
250
  6
CONTINUOUS
 10
-13.1405628024
 20
6.4337026277
 11
-13.1145188317
 21
6.418350876
  0
LWPOLYLINE
  5
352
100
AcDbEntity
  8
RACCORDO
100
AcDbPolyline
 62
250
  6
CONTINUOUS
 90
10
 70
0
 10
-13.5540662977
 20
6.5029751799
 10
-13.5473320017
 20
6.4989654717
 10
-13.5405836145
 20
6.4942779211
 10
-13.5338821523
 20
6.4889549379
 10
-13.5272879982
 20
6.4830444797
 10
-13.5208609806
 20
6.4766001676
 10
-13.5146597726
 20
6.4696809606
 10
-13.5087405294
 20
6.4623497845
 10
-13.5031564456
 20
6.4546728038
 10
-13.4979578577
 20
6.4467194811
  0
LWPOLYLINE
  5
353
100
AcDbEntity
  8
RACCORDO
100
AcDbPolyline
 62
250
  6
CONTINUOUS
 90
3
 70
0
 10
-13.1744810353
 20
6.4539322246
 10
-13.1660045122
 20
6.4488395634
 10
-13.1405628024
 20
6.4337026277
  0
LWPOLYLINE
  5
354
100
AcDbEntity
  8
0
100
AcDbPolyline
 62
7
  6
CONTINUOUS
 90
26
 70
0
 10
-6.0943395058
 20
5.0323868384
 10
-5.9048884036
 20
4.8221612886
 10
-5.7171017816
 20
4.6084738157
 10
-5.5312285111
 20
4.3916102211
 10
-5.3472855983
 20
4.171587816
 10
-5.165250237
 20
3.9483924703
 10
-4.9853115906
 20
3.722262821
 10
-4.8074682594
 20
3.4931978892
 10
-4.6317153671
 20
3.2612021066
 10
-4.4582369017
 20
3.0265222081
 10
-4.2870168973
 20
2.7891343762
 10
-4.1180646389
 20
2.5490661169
 10
-3.9516021161
 20
2.3066410852
 10
-3.7876566317
 20
2.0619007178
 10
-3.6261939916
 20
1.8148073978
 10
-3.4673440897
 20
1.5655661225
 10
-3.3110712856
 20
1.3141198751
 10
-3.1574040045
 20
1.0605296883
 10
-3.0065684778
 20
0.8051775056
 10
-2.8586018856
 20
0.5481277259
 10
-2.7134599115
 20
0.2893199426
 10
-2.5712468201
 20
0.0289487423
 10
-2.4319268613
 20
-0.2330512568
 10
-2.2955284427
 20
-0.4966105455
 10
-2.1622524147
 20
-0.7613323888
 10
-2.0321289754
 20
-1.027156541
  0
LWPOLYLINE
  5
355
100
AcDbEntity
  8
0
100
AcDbPolyline
 62
7
  6
CONTINUOUS
 90
77
 70
0
 10
-2.0321289754
 20
-1.027156541
 10
-1.9051209019
 20
-1.2941392744
 10
-1.7813283307
 20
-1.562058857
 10
-1.660729796
 20
-1.8309604787
 10
-1.5433397354
 20
-2.1007949516
 10
-1.4293125884
 20
-2.3711992215
 10
-1.3186604525
 20
-2.6421469429
 10
-1.211364637
 20
-2.9136606826
 10
-1.1075339593
 20
-3.1854510613
 10
-1.0071682901
 20
-3.4575166698
 10
-0.9102614958
 20
-3.729855301
 10
-0.81691393
 20
-4.0021766764
 10
-0.7271194287
 20
-4.2745040841
 10
-0.6408782951
 20
-4.5468108233
 10
-0.5583012579
 20
-4.818732005
 10
-0.4794031335
 20
-5.090219068
 10
-0.4041639732
 20
-5.3613175499
 10
-0.3326430011
 20
-5.6318040681
 10
-0.2648269304
 20
-5.9017371704
 10
-0.2007242426
 20
-6.1710554508
 10
-0.1404275553
 20
-6.4393560108
 10
-0.083953917
 20
-6.7065692272
 10
-0.0312825041
 20
-6.9727624316
 10
0.0175501307
 20
-7.2377385756
 10
0.0625532286
 20
-7.5015617118
 10
0.1037209826
 20
-7.7641656754
 10
0.1409934893
 20
-8.0251585324
 10
0.174359005
 20
-8.2844790665
 10
0.2038315616
 20
-8.542187024
 10
0.2293890928
 20
-8.7980723835
 10
0.2510328879
 20
-9.0521771907
 10
0.2687634643
 20
-9.3044581971
 10
0.2825568096
 20
-9.5545778902
 10
0.2924065422
 20
-9.8025092167
 10
0.298319802
 20
-10.048278624
 10
0.3002919731
 20
-10.2916293592
 10
0.2983197204
 20
-10.5325598047
 10
0.2924063806
 20
-10.7710714068
 10
0.2825565629
 20
-11.0069124609
 10
0.2687631266
 20
-11.2401014361
 10
0.2510324522
 20
-11.4706201342
 10
0.2293885448
 20
-11.6981623637
 10
0.2038308872
 20
-11.9226868044
 10
0.17435819
 20
-12.14423566
 10
0.1409925112
 20
-12.3626284861
 10
0.1037198023
 20
-12.5779109675
 10
0.0625518238
 20
-12.7900385917
 10
0.0175485218
 20
-12.9986961025
 10
-0.0312842814
 20
-13.2038287793
 10
-0.0839558431
 20
-13.405493197
 10
-0.140429615
 20
-13.6035415018
 10
-0.2007264106
 20
-13.7980203446
 10
-0.2648291919
 20
-13.9888851427
 10
-0.3326453769
 20
-14.1758516332
 10
-0.4041665164
 20
-14.3588749652
 10
-0.4794058649
 20
-14.5380026805
 10
-0.5583041368
 20
-14.7130895468
 10
-0.6408812294
 20
-14.8841630264
 10
-0.7271223784
 20
-15.0511985603
 10
-0.8169169482
 20
-15.2139732701
 10
-0.9102647037
 20
-15.3724683504
 10
-1.0071717401
 20
-15.5267059612
 10
-1.1075375922
 20
-15.6765250781
 10
-1.2113683181
 20
-15.8219236373
 10
-1.3186641229
 20
-15.9629073187
 10
-1.4293163028
 20
-16.0993270412
 10
-1.5433436172
 20
-16.2311910205
 10
-1.6607338997
 20
-16.3584948761
 10
-1.7813326178
 20
-16.4810709719
 10
-1.9051252876
 20
-16.5988962362
 10
-2.0321334213
 20
-16.7119978589
 10
-2.1622569306
 20
-16.8202838719
 10
-2.2955330535
 20
-16.9237742602
 10
-2.4319315767
 20
-17.0224531774
 10
-2.5712516506
 20
-17.1161751634
 10
-2.7134648866
 20
-17.2049140895
 10
-2.7853063586
 20
-17.2472164936
  0
LWPOLYLINE
  5
356
100
AcDbEntity
  8
0
100
AcDbPolyline
 62
7
  6
CONTINUOUS
 90
4
 70
0
 10
-3.1794971725
 20
25.1702305639
 10
-3.1796202466
 20
25.1712112183
 10
-3.1803514348
 20
25.1725265962
 10
-3.1812863922
 20
25.1732546327
  0
LWPOLYLINE
  5
357
100
AcDbEntity
  8
0
100
AcDbPolyline
 62
7
  6
CONTINUOUS
 90
32
 70
0
 10
0.5483159711
 20
16.0423832464
 10
0.5485608596
 20
16.0318851532
 10
0.5491853179
 20
16.0211445218
 10
0.5501784374
 20
16.0101569434
 10
0.5515302842
 20
15.9989945353
 10
0.5532302172
 20
15.9876693324
 10
0.5552678622
 20
15.9761793238
 10
0.5576355277
 20
15.9645752458
 10
0.5603237149
 20
15.9528653518
 10
0.5633227682
 20
15.9410499511
 10
0.5666269457
 20
15.9291677394
 10
0.5702277153
 20
15.9172249531
 10
0.5741162063
 20
15.9052228025
 10
0.5782881463
 20
15.8931924494
 10
0.5827358369
 20
15.8811387527
 10
0.5874510926
 20
15.8690634517
 10
0.59243058
 20
15.8569931169
 10
0.5976672971
 20
15.8449315725
 10
0.6031535856
 20
15.8328809338
 10
0.6088864544
 20
15.8208653311
 10
0.614859452
 20
15.8088877624
 10
0.6210652628
 20
15.7969506234
 10
0.62750056
 20
15.7850772513
 10
0.6341590801
 20
15.7732703208
 10
0.6410338486
 20
15.7615320336
 10
0.6481211172
 20
15.7498850876
 10
0.6554151608
 20
15.7383311731
 10
0.6629088027
 20
15.7268729827
 10
0.6705964262
 20
15.715534693
 10
0.6784718597
 20
15.7043256244
 10
0.6865282962
 20
15.6932402019
 10
0.6947592037
 20
15.6822801233
  0
LINE
  5
358
100
AcDbEntity
  8
0
100
AcDbLine
 62
7
  6
CONTINUOUS
 10
0.5483125943
 20
16.0437456791
 11
0.5483125943
 21
14.8370039014
  0
LINE
  5
359
100
AcDbEntity
  8
0
100
AcDbLine
 62
250
  6
CONTINUOUS
 10
0.6947592037
 20
15.6822801233
 11
0.6947592037
 21
14.626600243
  0
LINE
  5
35A
100
AcDbEntity
  8
0
100
AcDbLine
 62
250
  6
CONTINUOUS
 10
2.0859456906
 20
23.3483528186
 11
2.0859456906
 21
22.9711213731
  0
LINE
  5
35B
100
AcDbEntity
  8
0
100
AcDbLine
 62
7
  6
CONTINUOUS
 10
2.2262757905
 20
23.664928781
 11
2.2262757905
 21
23.1741218639
  0
LWPOLYLINE
  5
35C
100
AcDbEntity
  8
0
100
AcDbPolyline
 62
7
  6
CONTINUOUS
 90
14
 70
0
 10
0.1101957823
 20
-12.5405065211
 10
0.0093445831
 20
-12.9673220552
 10
-0.1481213871
 20
-13.4906486357
 10
-0.3334124556
 20
-13.9874701315
 10
-0.5463020995
 20
-14.4580023193
 10
-0.7850477366
 20
-14.8983937149
 10
-1.0498615869
 20
-15.3083969298
 10
-1.3405314303
 20
-15.6882593525
 10
-1.6546780243
 20
-16.0348716656
 10
-1.9924940606
 20
-16.3479609595
 10
-2.3537868474
 20
-16.6278001438
 10
-2.7355990666
 20
-16.8720986287
 10
-3.1380991369
 20
-17.0805647044
 10
-3.2136265172
 20
-17.1147081614
  0
LINE
  5
35D
100
AcDbEntity
  8
0
100
AcDbLine
 62
7
  6
CONTINUOUS
 10
12.3387849228
 20
10.7632553955
 11
11.6279757053
 21
9.8857292083
  0
LINE
  5
35E
100
AcDbEntity
  8
DRAFT
100
AcDbLine
 62
7
  6
CONTINUOUS
 10
17.8011848075
 20
13.2438470804
 11
12.6630274032
 21
9.1695735653
  0
LINE
  5
35F
100
AcDbEntity
  8
0
100
AcDbLine
 62
7
  6
CONTINUOUS
 10
12.7038451555
 20
6.2731304674
 11
13.4047811093
 21
6.6920932472
  0
LWPOLYLINE
  5
360
100
AcDbEntity
  8
0
100
AcDbPolyline
 62
7
  6
CONTINUOUS
 90
18
 70
0
 10
-10.2355990666
 20
8.3653365664
 10
-10.7932179716
 20
8.6701327
 10
-11.3462973268
 20
8.9392132682
 10
-11.8948371322
 20
9.172578271
 10
-12.4403133115
 20
9.3706707471
 10
-12.9812499411
 20
9.5330476579
 10
-13.5132192499
 20
9.6583798868
 10
-14.0361476363
 20
9.7463633795
 10
-14.5501087019
 20
9.7973021903
 10
-15.050895481
 20
9.8107793658
 10
-15.538399842
 20
9.7864874294
 10
-16.0127299164
 20
9.7247338578
 10
-16.4700031332
 20
9.6260241271
 10
-16.9100794936
 20
9.4900549098
 10
-17.3330989963
 20
9.3171295335
 10
-17.7355990666
 20
9.1086634578
 10
-18.1174112857
 20
8.8643649729
 10
-18.1854271536
 20
8.8155405873
  0
LWPOLYLINE
  5
361
100
AcDbEntity
  8
0
100
AcDbPolyline
 62
7
  6
CONTINUOUS
 90
22
 70
0
 10
-10.3528763864
 20
8.5425631949
 10
-10.143090528
 20
8.4190107683
 10
-9.9336480419
 20
8.2908247246
 10
-9.724548718
 20
8.1580051779
 10
-9.5156992154
 20
8.0204885542
 10
-9.3071920337
 20
7.8783388835
 10
-9.0993055177
 20
7.7317477968
 10
-8.8920756045
 20
7.580737465
 10
-8.6854646896
 20
7.4252866219
 10
-8.4796406073
 20
7.2655218497
 10
-8.274557027
 20
7.101402093
 10
-8.0702577967
 20
6.9329697552
 10
-7.8670458437
 20
6.7604767027
 10
-7.6649716375
 20
6.5839631961
 10
-7.4639814695
 20
6.4033907358
 10
-7.2642218418
 20
6.2188931335
 10
-7.0656419848
 20
6.0304202179
 10
-6.8682886705
 20
5.8380243372
 10
-6.6724545911
 20
5.6419931497
 10
-6.4781832389
 20
5.4423678367
 10
-6.2854264858
 20
5.2391097466
 10
-6.0943395058
 20
5.0323868384
  0
LWPOLYLINE
  5
362
100
AcDbEntity
  8
0
100
AcDbPolyline
 62
7
  6
CONTINUOUS
 90
11
 70
0
 10
-10.2355990666
 20
8.3653365664
 10
-9.6779801616
 20
8.0262083658
 10
-9.1249008064
 20
7.656606758
 10
-8.576361001
 20
7.2565317431
 10
-8.0308848216
 20
6.8247220002
 10
-7.489948192
 20
6.3624388501
 10
-6.9579788832
 20
5.8734662555
 10
-6.4350504969
 20
5.3575851553
 10
-5.9210894313
 20
4.8150146104
 10
-5.4203026522
 20
4.2501957661
 10
-5.0609530922
 20
3.8173218124
  0
LWPOLYLINE
  5
363
100
AcDbEntity
  8
0
100
AcDbPolyline
 62
250
  6
CONTINUOUS
 90
16
 70
0
 10
-18.9000080446
 20
26.2481068612
 10
-18.8963161523
 20
26.2434989837
 10
-18.8928569862
 20
26.2386069317
 10
-18.8896301218
 20
26.2334300835
 10
-18.8866395416
 20
26.2279728594
 10
-18.8838918699
 20
26.2222452257
 10
-18.8813914344
 20
26.2162539755
 10
-18.879140916
 20
26.2100019115
 10
-18.8771466899
 20
26.2035028069
 10
-18.8754164128
 20
26.1967820816
 10
-18.8739521107
 20
26.1898533441
 10
-18.8727542079
 20
26.1827256068
 10
-18.8718244712
 20
26.1754202662
 10
-18.8711623846
 20
26.1679531839
 10
-18.8707663143
 20
26.1603337621
 10
-18.8706347025
 20
26.1525746625
  0
LWPOLYLINE
  5
364
100
AcDbEntity
  8
RACCORDO
100
AcDbPolyline
 62
7
  6
CONTINUOUS
 90
25
 70
0
 10
-15.0561067493
 20
26.7136750213
 10
-15.1064626399
 20
26.7932929084
 10
-15.1584753801
 20
26.8833665838
 10
-15.2069384159
 20
26.975777863
 10
-15.2516356085
 20
27.0700710906
 10
-15.2919185412
 20
27.1648793006
 10
-15.3277229068
 20
27.2602100663
 10
-15.3591130124
 20
27.3560558145
 10
-15.3856333628
 20
27.4510268597
 10
-15.4072129954
 20
27.5451105083
 10
-15.4239228728
 20
27.638319454
 10
-15.4355203882
 20
27.7293020921
 10
-15.4419310293
 20
27.8180260136
 10
-15.4432293084
 20
27.9045236274
 10
-15.4393961548
 20
27.9875405562
 10
-15.4303567696
 20
28.0670260913
 10
-15.4161859518
 20
28.1430309414
 10
-15.3970890272
 20
28.214452855
 10
-15.372994186
 20
28.2812250423
 10
-15.3439732381
 20
28.3434142932
 10
-15.3104469386
 20
28.4001187255
 10
-15.2723496121
 20
28.4512583922
 10
-15.2297469339
 20
28.4969132403
 10
-15.1832566857
 20
28.5364212288
 10
-15.132779551
 20
28.5697173337
  0
LWPOLYLINE
  5
365
100
AcDbEntity
  8
0
100
AcDbPolyline
 62
250
  6
CONTINUOUS
 90
52
 70
0
 10
5.8241202516
 20
-29.4673658901
 10
5.8252787328
 20
-29.4903537421
 10
5.8270357681
 20
-29.5129238875
 10
5.8293913575
 20
-29.5350763263
 10
5.8323485097
 20
-29.5568299735
 10
5.8359042159
 20
-29.5781659141
 10
5.8400494502
 20
-29.5990274032
 10
5.8447856692
 20
-29.6194122809
 10
5.8501114161
 20
-29.6393227071
 10
5.8560132953
 20
-29.6587084167
 10
5.8624927544
 20
-29.6775680152
 10
5.8695483457
 20
-29.695902897
 10
5.8771623299
 20
-29.7136669798
 10
5.8853360886
 20
-29.7308588058
 10
5.8940682402
 20
-29.7474798328
 10
5.9033369001
 20
-29.7634883519
 10
5.9131434487
 20
-29.7788828751
 10
5.9234865056
 20
-29.7936648903
 10
5.9343400453
 20
-29.8077971531
 10
5.945705338
 20
-29.8212780029
 10
5.9575811134
 20
-29.8341091001
 10
5.9699375353
 20
-29.8462581819
 10
5.9827758253
 20
-29.857723541
 10
5.9960947618
 20
-29.8685068846
 10
6.0098608431
 20
-29.8785810709
 10
6.0240751646
 20
-29.8879442995
 10
6.038736631
 20
-29.8965983709
 10
6.0538084554
 20
-29.904521544
 10
6.0692917053
 20
-29.9117119999
 10
6.0851853132
 20
-29.9181715575
 10
6.1014492888
 20
-29.9238839334
 10
6.1180845528
 20
-29.9288472384
 10
6.1350901846
 20
-29.9330633615
 10
6.1524234314
 20
-29.9365216863
 10
6.1700851461
 20
-29.9392203032
 10
6.1880744759
 20
-29.9411611218
 10
6.20634611
 20
-29.942339254
 10
6.2249006978
 20
-29.9427527788
 10
6.2437375899
 20
-29.9424036173
 10
6.2628095273
 20
-29.9412926446
 10
6.2821171366
 20
-29.9394179503
 10
6.3016597912
 20
-29.936781445
 10
6.3213883515
 20
-29.9333897354
 10
6.3413033491
 20
-29.9292408888
 10
6.3614042523
 20
-29.924336838
 10
6.3816403272
 20
-29.9186899885
 10
6.4020125525
 20
-29.9122981376
 10
6.4225199494
 20
-29.905163488
 10
6.443108848
 20
-29.8973050531
 10
6.4637613583
 20
-29.8887291707
 10
6.4844953702
 20
-29.8794295031
 10
6.5053108838
 20
-29.8694060501
  0
LWPOLYLINE
  5
366
100
AcDbEntity
  8
0
100
AcDbPolyline
 62
250
  6
CONTINUOUS
 90
27
 70
0
 10
5.1235350763
 20
-29.4804035763
 10
5.12525992
 20
-29.5148550684
 10
5.1278828953
 20
-29.5487268909
 10
5.1314017462
 20
-29.5819906878
 10
5.1358134625
 20
-29.6146182352
 10
5.141114294
 20
-29.6465826446
 10
5.1472998675
 20
-29.677858298
 10
5.1543652198
 20
-29.7084194667
 10
5.1623043965
 20
-29.7382400094
 10
5.1711105216
 20
-29.7672945359
 10
5.1807762832
 20
-29.7955586444
 10
5.1912936643
 20
-29.8230087526
 10
5.2026536402
 20
-29.8496217202
 10
5.2148467899
 20
-29.8753752496
 10
5.2278629951
 20
-29.9002478347
 10
5.2416911645
 20
-29.9242185954
 10
5.2563199139
 20
-29.9472675673
 10
5.2717370557
 20
-29.9693753832
 10
5.2879293015
 20
-29.9905232203
 10
5.3048832179
 20
-30.0106934004
 10
5.3225847492
 20
-30.0298691111
 10
5.3410187179
 20
-30.0480340737
 10
5.360169876
 20
-30.0651731684
 10
5.3800223066
 20
-30.0812720853
 10
5.4005589339
 20
-30.0963170606
 10
5.4217626998
 20
-30.1102955672
 10
5.4367815564
 20
-30.1193177137
  0
LWPOLYLINE
  5
367
100
AcDbEntity
  8
0
100
AcDbPolyline
 62
250
  6
CONTINUOUS
 90
22
 70
0
 10
5.1235350784
 20
4.0148021006
 10
5.0686061321
 20
2.3899379472
 10
5.019167682
 20
0.7679030836
 10
4.9752204776
 20
-0.8512777042
 10
4.9367651717
 20
-2.4675799137
 10
4.9038023645
 20
-4.0809786078
 10
4.8763325954
 20
-5.6914484194
 10
4.8543562841
 20
-7.2989645041
 10
4.8378737513
 20
-8.9035025486
 10
4.8268852573
 20
-10.5050380556
 10
4.8213909712
 20
-12.1035465618
 10
4.8213909712
 20
-13.6990036509
 10
4.8268852573
 20
-15.291384967
 10
4.8378737513
 20
-16.8806661941
 10
4.8543562841
 20
-18.4668230542
 10
4.8763325954
 20
-20.0498313206
 10
4.9038023645
 20
-21.6296670609
 10
4.9367651717
 20
-23.2063059049
 10
4.9752204776
 20
-24.7797230476
 10
5.019167682
 20
-26.3498942248
 10
5.0686061321
 20
-27.9167957083
 10
5.1235350784
 20
-29.4804035775
  0
LWPOLYLINE
  5
368
100
AcDbEntity
  8
0
100
AcDbPolyline
 62
250
  6
CONTINUOUS
 90
22
 70
0
 10
5.8241202516
 20
3.9943577799
 10
5.769244084
 20
2.3710751346
 10
5.7198544001
 20
0.750668995
 10
5.6759511997
 20
-0.8668606391
 10
5.6375339792
 20
-2.4815384142
 10
5.6046032422
 20
-4.0933396837
 10
5.5771605004
 20
-5.7021905075
 10
5.5552060063
 20
-7.3080907197
 10
5.5387395073
 20
-8.9110404863
 10
5.5277617578
 20
-10.5109663645
 10
5.522273009
 20
-12.107868213
 10
5.5222730096
 20
-13.7017461731
 10
5.5277617596
 20
-15.2925272252
 10
5.5387395104
 20
-16.88021123
 10
5.5552060106
 20
-18.4647983268
 10
5.577160506
 20
-20.0462159139
 10
5.6046032495
 20
-21.6244638888
 10
5.6375339881
 20
-23.1995423539
 10
5.6759512089
 20
-24.771379016
 10
5.7198544076
 20
-26.3399497771
 10
5.7692440885
 20
-27.9052787352
 10
5.8241202516
 20
-29.4673658901
  0
LINE
  5
369
100
AcDbEntity
  8
0
100
AcDbLine
 62
250
  6
CONTINUOUS
 10
-25.5651371292
 20
21.7340568138
 11
5.1235350784
 21
4.0148021006
  0
LWPOLYLINE
  5
36A
100
AcDbEntity
  8
ASSI
100
AcDbPolyline
 62
7
  6
CONTINUOUS
 90
17
 70
0
 10
-14.1183893878
 20
27.5023792617
 10
-14.1500376381
 20
27.5438218264
 10
-14.1827846431
 20
27.5824130962
 10
-14.2166304029
 20
27.6181530712
 10
-14.2518478383
 20
27.6512691956
 10
-14.2881640286
 20
27.681534025
 10
-14.3247602104
 20
27.7082652269
 10
-14.3616427443
 20
27.7313825309
 10
-14.3988052697
 20
27.7509662074
 10
-14.4354099428
 20
27.7665747343
 10
-14.4714440913
 20
27.7781178119
 10
-14.5069203873
 20
27.7856857401
 10
-14.5410390037
 20
27.7891078969
 10
-14.5737690991
 20
27.7882901064
 10
-14.6051415148
 20
27.7833265445
 10
-14.634448947
 20
27.7743291167
 10
-14.6617257169
 20
27.7611591285
  0
LINE
  5
36B
100
AcDbEntity
  8
ASSI
100
AcDbLine
 62
7
  6
CONTINUOUS
 10
-14.605085133
 20
26.9808153296
 11
-14.5983579892
 21
26.9714922386
  0
LINE
  5
36C
100
AcDbEntity
  8
ASSI
100
AcDbLine
 62
7
  6
CONTINUOUS
 10
-14.2515317425
 20
27.1849526263
 11
-14.2422363131
 21
27.1720701703
  0
LINE
  5
36D
100
AcDbEntity
  8
ASSI
100
AcDbLine
 62
7
  6
CONTINUOUS
 10
-13.9847111422
 20
27.3171157252
 11
-14.1183893878
 21
27.5023792617
  0
LINE
  5
36E
100
AcDbEntity
  8
RACCORDO
100
AcDbLine
 62
7
  6
CONTINUOUS
 10
-13.7744002669
 20
27.9227012329
 11
-13.524476007
 21
27.5763333402
  0
LINE
  5
36F
100
AcDbEntity
  8
RACCORDO
100
AcDbLine
 62
7
  6
CONTINUOUS
 10
-13.4208468763
 20
28.1268385296
 11
-13.1683543308
 21
27.7769112719
  0
LWPOLYLINE
  5
370
100
AcDbEntity
  8
0
100
AcDbPolyline
 62
250
  6
CONTINUOUS
 90
40
 70
0
 10
6.5053108838
 20
5.1560298474
 10
6.5042721297
 20
5.172181673
 10
6.5026723443
 20
5.1886437789
 10
6.5005141195
 20
5.2053894946
 10
6.4978009518
 20
5.22239169
 10
6.4945372369
 20
5.2396228196
 10
6.4907282623
 20
5.2570549669
 10
6.4863801991
 20
5.2746598899
 10
6.4815000915
 20
5.2924090664
 10
6.476095846
 20
5.3102737408
 10
6.470176218
 20
5.3282249701
 10
6.463750798
 20
5.3462336712
 10
6.456829996
 20
5.3642706679
 10
6.4494250244
 20
5.3823067382
 10
6.4415478802
 20
5.4003126615
 10
6.4332113252
 20
5.4182592661
 10
6.4244288657
 20
5.4361174763
 10
6.4152147302
 20
5.4538583598
 10
6.4055838467
 20
5.4714531742
 10
6.3955518185
 20
5.4888734137
 10
6.3851348985
 20
5.5060908557
 10
6.3743499634
 20
5.5230776057
 10
6.363214486
 20
5.5398061433
 10
6.3517465072
 20
5.5562493661
 10
6.3399646065
 20
5.5723806343
 10
6.3278878718
 20
5.5881738132
 10
6.3155358689
 20
5.6036033161
 10
6.3029286096
 20
5.6186441452
 10
6.290086519
 20
5.6332719327
 10
6.277030403
 20
5.6474629798
 10
6.2637814139
 20
5.6611942953
 10
6.2503610167
 20
5.6744436329
 10
6.236790954
 20
5.687189527
 10
6.2230932109
 20
5.6994113277
 10
6.2092899794
 20
5.7110892343
 10
6.1954036224
 20
5.7222043273
 10
6.1814566375
 20
5.7327385987
 10
6.1674716203
 20
5.7426749819
 10
6.1534712283
 20
5.7519973787
 10
6.1394781438
 20
5.7606906857
  0
LWPOLYLINE
  5
371
100
AcDbEntity
  8
0
100
AcDbPolyline
 62
250
  6
CONTINUOUS
 90
18
 70
0
 10
8.3708319932
 20
10.6096848208
 10
8.3709180028
 20
10.6058987527
 10
8.3715102701
 20
10.599059034
 10
8.3726637245
 20
10.5922432232
 10
8.3743757729
 20
10.5854666585
 10
8.3766425639
 20
10.5787445953
 10
8.3794589984
 20
10.5720921635
 10
8.3828187391
 20
10.5655243382
 10
8.3867142228
 20
10.5590559082
 10
8.3911366816
 20
10.5527014345
 10
8.3960761628
 20
10.5464752195
 10
8.4015215476
 20
10.5403912799
 10
8.407460583
 20
10.534463307
 10
8.4138798986
 20
10.5287046477
 10
8.4207650322
 20
10.5231282747
 10
8.4281004794
 20
10.5177467424
 10
8.4358697311
 20
10.5125721595
 10
8.4440552979
 20
10.5076161725
  0
LINE
  5
372
100
AcDbEntity
  8
0
100
AcDbLine
 62
250
  6
CONTINUOUS
 10
6.1990750951
 20
11.4484772326
 11
6.1990750951
 21
12.5041571128
  0
LINE
  5
373
100
AcDbEntity
  8
RACCORDO
100
AcDbLine
 62
7
  6
CONTINUOUS
 10
6.8763850381
 20
23.8217655933
 11
6.8763850381
 21
22.8179809857
  0
LINE
  5
374
100
AcDbEntity
  8
0
100
AcDbLine
 62
250
  6
CONTINUOUS
 10
6.9043258371
 20
11.4686938505
 11
6.9043258371
 21
12.6676586776
  0
LINE
  5
375
100
AcDbEntity
  8
0
100
AcDbLine
 62
250
  6
CONTINUOUS
 10
7.0121437553
 20
18.0076968639
 11
7.0121437553
 21
19.1917104074
  0
LINE
  5
376
100
AcDbEntity
  8
0
100
AcDbLine
 62
7
  6
CONTINUOUS
 10
7.1279732148
 20
18.1698296246
 11
7.1279732148
 21
19.2188275847
  0
LINE
  5
377
100
AcDbEntity
  8
0
100
AcDbLine
 62
7
  6
CONTINUOUS
 10
7.2615913315
 20
11.6943322549
 11
7.2615913315
 21
12.4068248221
  0
LINE
  5
378
100
AcDbEntity
  8
0
100
AcDbLine
 62
7
  6
CONTINUOUS
 10
7.2689962041
 20
11.6900567743
 11
7.2689962041
 21
12.1040981267
  0
LINE
  5
379
100
AcDbEntity
  8
0
100
AcDbLine
 62
7
  6
CONTINUOUS
 10
8.3708319932
 20
10.6096848208
 11
8.3708319932
 21
10.374017297
  0
LINE
  5
37A
100
AcDbEntity
  8
0
100
AcDbLine
 62
250
  6
CONTINUOUS
 10
8.4440552979
 20
10.5076161725
 11
8.4440552979
 21
10.2719486487
  0
LWPOLYLINE
  5
37B
100
AcDbEntity
  8
0
100
AcDbPolyline
 62
250
  6
CONTINUOUS
 90
34
 70
0
 10
8.4440552979
 20
10.5076161725
 10
8.4442542487
 20
10.5174123392
 10
8.4448506543
 20
10.5274162142
 10
8.4458431741
 20
10.5376052809
 10
8.4472295769
 20
10.5479566123
 10
8.4490067431
 20
10.5584469028
 10
8.4511706698
 20
10.5690525202
 10
8.4537164842
 20
10.5797495863
 10
8.4566384566
 20
10.5905140288
 10
8.4599300083
 20
10.6013216146
 10
8.4635837302
 20
10.6121480189
 10
8.467591397
 20
10.6229688707
 10
8.4719439835
 20
10.6337598054
 10
8.4766316904
 20
10.6444965324
 10
8.4816439653
 20
10.6551548867
 10
8.4869695232
 20
10.665710875
 10
8.4925963781
 20
10.6761407429
 10
8.4985118606
 20
10.6864210099
 10
8.504702643
 20
10.6965285196
 10
8.5111547697
 20
10.7064404965
 10
8.5178537322
 20
10.7161346613
 10
8.5247844957
 20
10.7255892575
 10
8.5319315296
 20
10.7347830868
 10
8.5392786856
 20
10.743695364
 10
8.5468092649
 20
10.7523058456
 10
8.5545062057
 20
10.7605950615
 10
8.5623522742
 20
10.7685444899
 10
8.570329951
 20
10.7761363943
 10
8.5784225055
 20
10.783354745
 10
8.58661053
 20
10.7901821241
 10
8.5948720016
 20
10.796600474
 10
8.6031870465
 20
10.8025950606
 10
8.6115381066
 20
10.8081539264
 10
8.6199063968
 20
10.8132651643
  0
LWPOLYLINE
  5
37C
100
AcDbEntity
  8
0
100
AcDbPolyline
 62
250
  6
CONTINUOUS
 90
22
 70
0
 10
6.5053108838
 20
-29.8694060501
 10
6.5042721295
 20
-29.8860660437
 10
6.5026723438
 20
-29.9023625979
 10
6.5005141186
 20
-29.9182693105
 10
6.4978009503
 20
-29.9337604108
 10
6.4945372348
 20
-29.9488108012
 10
6.4907282594
 20
-29.9633960984
 10
6.4863801954
 20
-29.9774926724
 10
6.481500087
 20
-29.9910776853
 10
6.4760958406
 20
-30.0041291276
 10
6.4701762117
 20
-30.0166258544
 10
6.4637507908
 20
-30.0285476197
 10
6.4568299879
 20
-30.0398751086
 10
6.4494250154
 20
-30.0505899694
 10
6.4415478703
 20
-30.0606748427
 10
6.4332113146
 20
-30.0701133899
 10
6.4244288543
 20
-30.0788903192
 10
6.4152147182
 20
-30.0869914112
 10
6.4055838342
 20
-30.0944035411
 10
6.3955518055
 20
-30.1011147003
 10
6.3851348851
 20
-30.107114016
 10
6.380908458
 20
-30.1092901264
  0
LWPOLYLINE
  5
37D
100
AcDbEntity
  8
0
100
AcDbPolyline
 62
250
  6
CONTINUOUS
 90
27
 70
0
 10
10.5608314363
 20
9.5116869664
 10
10.5564123506
 20
9.5009941394
 10
10.551606214
 20
9.4905571069
 10
10.5464238775
 20
9.4803994335
 10
10.5408770419
 20
9.4705440531
 10
10.5349782306
 20
9.461013217
 10
10.5287407619
 20
9.4518284436
 10
10.5221787186
 20
9.4430104703
 10
10.5153069164
 20
9.4345792061
 10
10.5081408706
 20
9.4265536873
 10
10.5006967606
 20
9.4189520337
 10
10.4929913936
 20
9.4117914082
 10
10.4850421677
 20
9.4050879786
 10
10.4768670306
 20
9.3988568796
 10
10.4684844399
 20
9.3931121795
 10
10.4599133225
 20
9.3878668487
 10
10.4511730302
 20
9.3831327296
 10
10.4422832967
 20
9.3789205105
 10
10.4332641929
 20
9.3752397013
 10
10.4241360822
 20
9.3720986121
 10
10.4149195738
 20
9.3695043345
 10
10.4056354763
 20
9.3674627255
 10
10.3963047512
 20
9.3659783942
 10
10.3869484652
 20
9.3650546917
 10
10.3775877423
 20
9.3646937031
 10
10.368243717
 20
9.3648962433
 10
10.3621287885
 20
9.365335443
  0
LINE
  5
37E
100
AcDbEntity
  8
0
100
AcDbLine
 62
250
  6
CONTINUOUS
 10
-24.5725615835
 20
23.4934436623
 11
6.1394832929
 21
5.760693863
  0
LWPOLYLINE
  5
37F
100
AcDbEntity
  8
0
100
AcDbPolyline
 62
250
  6
CONTINUOUS
 90
4
 70
0
 10
-18.9113754973
 20
26.2592537861
 10
-18.9080746079
 20
26.256444089
 10
-18.9039299398
 20
26.2524251739
 10
-18.9000080446
 20
26.2481068612
  0
LWPOLYLINE
  5
380
100
AcDbEntity
  8
0
100
AcDbPolyline
 62
250
  6
CONTINUOUS
 90
16
 70
0
 10
-5.5533675497
 20
18.5419239122
 10
-5.5496756574
 20
18.5373160346
 10
-5.5462164913
 20
18.5324239826
 10
-5.5429896269
 20
18.5272471345
 10
-5.5399990467
 20
18.5217899103
 10
-5.537251375
 20
18.5160622767
 10
-5.5347509395
 20
18.5100710265
 10
-5.5325004211
 20
18.5038189624
 10
-5.530506195
 20
18.4973198579
 10
-5.5287759179
 20
18.4905991325
 10
-5.5273116158
 20
18.483670395
 10
-5.526113713
 20
18.4765426578
 10
-5.5251839763
 20
18.4692373171
 10
-5.5245218897
 20
18.4617702348
 10
-5.5241258194
 20
18.4541508131
 10
-5.5239942077
 20
18.4463917134
  0
LWPOLYLINE
  5
381
100
AcDbEntity
  8
0
100
AcDbPolyline
 62
250
  6
CONTINUOUS
 90
16
 70
0
 10
-2.9901054679
 20
17.0619285114
 10
-2.9864135756
 20
17.0573206338
 10
-2.9829544095
 20
17.0524285818
 10
-2.9797275451
 20
17.0472517337
 10
-2.9767369649
 20
17.0417945095
 10
-2.9739892932
 20
17.0360668758
 10
-2.9714888577
 20
17.0300756256
 10
-2.9692383393
 20
17.0238235616
 10
-2.9672441132
 20
17.0173244571
 10
-2.9655138361
 20
17.0106037317
 10
-2.964049534
 20
17.0036749942
 10
-2.9628516312
 20
16.9965472569
 10
-2.9619218945
 20
16.9892419163
 10
-2.9612598079
 20
16.981774834
 10
-2.9608637376
 20
16.9741554122
 10
-2.9607321259
 20
16.9663963126
  0
LWPOLYLINE
  5
382
100
AcDbEntity
  8
RACCORDO
100
AcDbPolyline
 62
7
  6
CONTINUOUS
 90
21
 70
0
 10
-13.4208468763
 20
28.1268385296
 10
-13.4834737972
 20
28.2098449758
 10
-13.5481138369
 20
28.2885403879
 10
-13.6147669956
 20
28.362924766
 10
-13.6837764584
 20
28.4333176172
 10
-13.75479904
 20
28.4993994344
 10
-13.8268051851
 20
28.5602116961
 10
-13.8998092799
 20
28.6156776443
 10
-13.9737969381
 20
28.6658740371
 10
-14.0476954454
 20
28.7100726274
 10
-14.1215035456
 20
28.7481860211
 10
-14.1952224949
 20
28.7803016123
 10
-14.2677833476
 20
28.8059533363
 10
-14.3391692565
 20
28.8250469877
 10
-14.4093970689
 20
28.8376767718
 10
-14.4774483811
 20
28.8436592392
 10
-14.5432914896
 20
28.8428974982
 10
-14.6069580979
 20
28.8354884405
 10
-14.667524912
 20
28.8215392917
 10
-14.7249467591
 20
28.8009547168
 10
-14.7792261604
 20
28.7738546303
  0
LWPOLYLINE
  5
383
100
AcDbEntity
  8
0
100
AcDbPolyline
 62
7
  6
CONTINUOUS
 90
40
 70
0
 10
-3.3653737859
 20
24.8856663637
 10
-3.3562854835
 20
24.8686982225
 10
-3.34761765
 20
24.8516157567
 10
-3.3393702854
 20
24.8344189661
 10
-3.3315324641
 20
24.8170821302
 10
-3.3241151117
 20
24.7996309695
 10
-3.3171510046
 20
24.7821426462
 10
-3.3106421489
 20
24.7646169975
 10
-3.3045865383
 20
24.7470541861
 10
-3.2990109306
 20
24.7295318625
 10
-3.29391745
 20
24.7120502071
 10
-3.2893039721
 20
24.6946090394
 10
-3.2851908814
 20
24.6772854684
 10
-3.2815803923
 20
24.6600800153
 10
-3.2784702904
 20
24.642992159
 10
-3.2758743171
 20
24.6260974446
 10
-3.2737947475
 20
24.6093967272
 10
-3.2722293065
 20
24.5928891517
 10
-3.2711849107
 20
24.5766476979
 10
-3.2706638655
 20
24.5606735433
 10
-3.2706638655
 20
24.5449655104
 10
-3.2711849107
 20
24.5295930457
 10
-3.2722293065
 20
24.5145576339
 10
-3.2737947475
 20
24.4998577904
 10
-3.2758743171
 20
24.485558508
 10
-3.2784702904
 20
24.4716615584
 10
-3.2815803923
 20
24.4581651698
 10
-3.2851908814
 20
24.4451290191
 10
-3.2893039721
 20
24.4325551422
 10
-3.29391745
 20
24.4204415031
 10
-3.2990109306
 20
24.4088416714
 10
-3.3045865383
 20
24.3977579198
 10
-3.3106421489
 20
24.3871879757
 10
-3.3171510046
 20
24.3771785904
 10
-3.3241151117
 20
24.3677322435
 10
-3.3315324641
 20
24.3588464554
 10
-3.3393702854
 20
24.350560539
 10
-3.34761765
 20
24.3428875984
 10
-3.3562854835
 20
24.3358145294
 10
-3.3653737859
 20
24.329341332
  0
LWPOLYLINE
  5
384
100
AcDbEntity
  8
0
100
AcDbPolyline
 62
250
  6
CONTINUOUS
 90
34
 70
0
 10
10.0277245232
 20
9.796293851
 10
10.0274810218
 20
9.8060981379
 10
10.026839621
 20
9.8161127048
 10
10.0258017725
 20
9.8263148607
 10
10.0243698256
 20
9.8366814955
 10
10.0225470238
 20
9.8471891143
 10
10.0203375
 20
9.8578138897
 10
10.0177462626
 20
9.8685317419
 10
10.0147791826
 20
9.8793183904
 10
10.0114429846
 20
9.8901493904
 10
10.0077452284
 20
9.9010002017
 10
10.0036942938
 20
9.9118462359
 10
9.9992993641
 20
9.9226629091
 10
9.9945703998
 20
9.9334257107
 10
9.9895181171
 20
9.9441102555
 10
9.9841539668
 20
9.954692331
 10
9.9784901021
 20
9.9651479655
 10
9.9725393607
 20
9.9754534637
 10
9.966315239
 20
9.9855854578
 10
9.9598318607
 20
9.9955209656
 10
9.9531039017
 20
10.0052375057
 10
9.9461465633
 20
10.0147131253
 10
9.9389755402
 20
10.0239264364
 10
9.9316071423
 20
10.0328564722
 10
9.9240582259
 20
10.0414828162
 10
9.9163460064
 20
10.0497858339
 10
9.9084878678
 20
10.0577468472
 10
9.9005014754
 20
10.0653479734
 10
9.8924037062
 20
10.072573042
 10
9.8842140952
 20
10.0794045176
 10
9.8759547674
 20
10.0858242478
 10
9.8676457014
 20
10.0918174051
 10
9.8593045685
 20
10.0973719397
 10
9.8509502511
 20
10.1024758714
  0
LWPOLYLINE
  5
385
100
AcDbEntity
  8
0
100
AcDbPolyline
 62
250
  6
CONTINUOUS
 90
18
 70
0
 10
9.6750991522
 20
-29.7741880104
 10
9.6752981029
 20
-29.7837544338
 10
9.6758945086
 20
-29.7930695945
 10
9.6768870284
 20
-29.8021125242
 10
9.6782734311
 20
-29.8108628724
 10
9.6800505974
 20
-29.819300936
 10
9.682214524
 20
-29.827407705
 10
9.6847603385
 20
-29.8351649284
 10
9.6876823108
 20
-29.8425551505
 10
9.6909738626
 20
-29.8495617349
 10
9.6946275845
 20
-29.8561689126
 10
9.6986352513
 20
-29.8623618113
 10
9.7029878378
 20
-29.8681264882
 10
9.7076755447
 20
-29.8734499688
 10
9.7126878196
 20
-29.8783202737
 10
9.7180133775
 20
-29.8827264412
 10
9.7236402324
 20
-29.8866585581
 10
9.7268698074
 20
-29.8886222257
  0
LWPOLYLINE
  5
386
100
AcDbEntity
  8
0
100
AcDbPolyline
 62
250
  6
CONTINUOUS
 90
19
 70
0
 10
9.6750991522
 20
9.5611593558
 10
9.6752667793
 20
9.5523692057
 10
9.6757696516
 20
9.5437853931
 10
9.6766072771
 20
9.535424514
 10
9.6777786884
 20
9.5273018047
 10
9.6792820342
 20
9.5194340955
 10
9.6811141789
 20
9.511839455
 10
9.6832715362
 20
9.5045330143
 10
9.6857502266
 20
9.4975281356
 10
9.6885452697
 20
9.4908390231
 10
9.6916511327
 20
9.4844787498
 10
9.6950620304
 20
9.4784590107
 10
9.6987716535
 20
9.4727909494
 10
9.702773102
 20
9.4674852217
 10
9.7070586622
 20
9.4625521603
 10
9.7116199808
 20
9.4580013956
 10
9.7164482596
 20
9.4538416545
 10
9.7215343775
 20
9.4500807472
 10
9.7268697869
 20
9.4467251524
  0
LWPOLYLINE
  5
387
100
AcDbEntity
  8
0
100
AcDbPolyline
 62
250
  6
CONTINUOUS
 90
28
 70
0
 10
10.7385337407
 20
9.2596791791
 10
10.7382767941
 20
9.2752275617
 10
10.7374886009
 20
9.2904480841
 10
10.736169161
 20
9.3053407462
 10
10.7343170505
 20
9.319936817
 10
10.7319336933
 20
9.3342050276
 10
10.7290233608
 20
9.3480515709
 10
10.7255786975
 20
9.3614752224
 10
10.7216070589
 20
9.3744772065
 10
10.7171347827
 20
9.3869673898
 10
10.712161472
 20
9.3989307939
 10
10.7066875237
 20
9.4103823972
 10
10.7007404673
 20
9.4212770009
 10
10.6943229143
 20
9.43160899
 10
10.6874322531
 20
9.4413839795
 10
10.6800881793
 20
9.4505736167
 10
10.6722859837
 20
9.4591820831
 10
10.6640303755
 20
9.4672051971
 10
10.6553551773
 20
9.474602062
 10
10.6462516054
 20
9.4813718955
 10
10.6367284434
 20
9.4875154797
 10
10.6268458646
 20
9.4929942639
 10
10.6165976879
 20
9.4978006608
 10
10.6059900943
 20
9.5019422577
 10
10.5951018007
 20
9.5054032656
 10
10.5839590459
 20
9.5081784215
 10
10.5725355911
 20
9.5102729884
 10
10.5608314363
 20
9.5116869664
  0
LINE
  5
388
100
AcDbEntity
  8
0
100
AcDbLine
 62
7
  6
CONTINUOUS
 10
9.0742363381
 20
9.8235475263
 11
9.0742363381
 21
9.4216494855
  0
LINE
  5
389
100
AcDbEntity
  8
0
100
AcDbLine
 62
250
  6
CONTINUOUS
 10
9.1474596428
 20
9.7812693079
 11
9.1474596428
 21
9.3164476563
  0
LINE
  5
38A
100
AcDbEntity
  8
0
100
AcDbLine
 62
250
  6
CONTINUOUS
 10
9.6750991522
 20
-29.7741880104
 11
9.6750991522
 21
-29.5385204866
  0
LINE
  5
38B
100
AcDbEntity
  8
0
100
AcDbLine
 62
250
  6
CONTINUOUS
 10
9.6750991522
 20
9.5611593558
 11
9.6750991522
 21
9.7968268796
  0
LINE
  5
38C
100
AcDbEntity
  8
0
100
AcDbLine
 62
250
  6
CONTINUOUS
 10
10.0277245232
 20
-29.774721039
 11
10.0277245232
 21
-29.5390535152
  0
LINE
  5
38D
100
AcDbEntity
  8
0
100
AcDbLine
 62
250
  6
CONTINUOUS
 10
10.0277245232
 20
9.5606263272
 11
10.0277245232
 21
9.796293851
  0
LINE
  5
38E
100
AcDbEntity
  8
0
100
AcDbLine
 62
250
  6
CONTINUOUS
 10
10.3859083697
 20
-28.4252996324
 11
10.3859083697
 21
-28.1143940726
  0
LINE
  5
38F
100
AcDbEntity
  8
0
100
AcDbLine
 62
250
  6
CONTINUOUS
 10
10.3859083697
 20
8.6013828829
 11
10.3859083697
 21
9.2602122077
  0
LINE
  5
390
100
AcDbEntity
  8
0
100
AcDbLine
 62
7
  6
CONTINUOUS
 10
10.4501058599
 20
18.783179137
 11
10.4501058599
 21
18.3863852385
  0
LINE
  5
391
100
AcDbEntity
  8
0
100
AcDbLine
 62
250
  6
CONTINUOUS
 10
10.7385337407
 20
-28.425832661
 11
10.7385337407
 21
-27.9387508825
  0
LINE
  5
392
100
AcDbEntity
  8
0
100
AcDbLine
 62
250
  6
CONTINUOUS
 10
10.7385337407
 20
8.6114911918
 11
10.7385337407
 21
9.2596791791
  0
LINE
  5
393
100
AcDbEntity
  8
0
100
AcDbLine
 62
7
  6
CONTINUOUS
 10
11.6279757053
 20
-28.0354772988
 11
11.6279757053
 21
-27.4957185967
  0
LINE
  5
394
100
AcDbEntity
  8
0
100
AcDbLine
 62
7
  6
CONTINUOUS
 10
11.6279757053
 20
9.1732366411
 11
11.6279757053
 21
9.8857292083
  0
LWPOLYLINE
  5
395
100
AcDbEntity
  8
0
100
AcDbPolyline
 62
250
  6
CONTINUOUS
 90
28
 70
0
 10
10.385908369
 20
-28.4253007889
 10
10.3857767573
 20
-28.433208767
 10
10.385380687
 20
-28.4412760683
 10
10.3847186004
 20
-28.4494918301
 10
10.3837888637
 20
-28.4578485196
 10
10.3825909609
 20
-28.4663308883
 10
10.3811266588
 20
-28.4749155514
 10
10.3793963817
 20
-28.4835929186
 10
10.3774021556
 20
-28.4923471297
 10
10.3751516372
 20
-28.5011442397
 10
10.3726512017
 20
-28.5099631086
 10
10.36990353
 20
-28.5187978425
 10
10.3669129498
 20
-28.5276369826
 10
10.3636860854
 20
-28.5364629445
 10
10.3602269193
 20
-28.5452666774
 10
10.356535027
 20
-28.5540495294
 10
10.3526131318
 20
-28.5628029082
 10
10.3484684637
 20
-28.5715086891
 10
10.3441067535
 20
-28.5801538049
 10
10.3395311319
 20
-28.5887301055
 10
10.3347505387
 20
-28.5972190524
 10
10.329780975
 20
-28.6055926109
 10
10.3246299271
 20
-28.613839067
 10
10.3193060715
 20
-28.6219454886
 10
10.3138296667
 20
-28.6298837805
 10
10.3082143661
 20
-28.6376380241
 10
10.3024660155
 20
-28.6452035381
 10
10.2965943533
 20
-28.6525705948
  0
LINE
  5
396
100
AcDbEntity
  8
0
100
AcDbLine
 62
7
  6
CONTINUOUS
 10
6.4185429308
 20
12.5503447913
 11
6.3140814931
 21
12.5267572186
  0
LINE
  5
397
100
AcDbEntity
  8
0
100
AcDbLine
 62
7
  6
CONTINUOUS
 10
6.4436949259
 20
12.5558697931
 11
6.4185429308
 21
12.5503447913
  0
LINE
  5
398
100
AcDbEntity
  8
0
100
AcDbLine
 62
7
  6
CONTINUOUS
 10
6.3140814931
 20
12.5267572186
 11
6.2928968874
 21
12.5221092634
  0
LINE
  5
399
100
AcDbEntity
  8
0
100
AcDbLine
 62
7
  6
CONTINUOUS
 10
6.2928968874
 20
12.5221092634
 11
6.2724930207
 21
12.5177629818
  0
LWPOLYLINE
  5
39A
100
AcDbEntity
  8
0
100
AcDbPolyline
 62
7
  6
CONTINUOUS
 90
8
 70
0
 10
6.2724930207
 20
12.5177629818
 10
6.2528839583
 20
12.5137652673
 10
6.2433866032
 20
12.5119029587
 10
6.2340930041
 20
12.5101438331
 10
6.2250151521
 20
12.5084829339
 10
6.2161562555
 20
12.5069240713
 10
6.2075102126
 20
12.5054796118
 10
6.1990750951
 20
12.5041571128
  0
LWPOLYLINE
  5
39B
100
AcDbEntity
  8
0
100
AcDbPolyline
 62
250
  6
CONTINUOUS
 90
27
 70
0
 10
9.8290218754
 20
9.4142748038
 10
9.8351424604
 20
9.4138353106
 10
9.8444872942
 20
9.4136331188
 10
9.8538488016
 20
9.4139945502
 10
9.8632058537
 20
9.4149187881
 10
9.8725373207
 20
9.4164037454
 10
9.8818221305
 20
9.4184460686
 10
9.8910393169
 20
9.4210411459
 10
9.9001680662
 20
9.4241831173
 10
9.909187771
 20
9.4278648906
 10
9.9180780568
 20
9.4320781497
 10
9.9268188292
 20
9.4368133697
 10
9.9353903392
 20
9.4420598465
 10
9.9437732451
 20
9.4478057361
 10
9.9519486358
 20
9.4540380743
 10
9.9598981081
 20
9.4607428389
 10
9.9676036498
 20
9.4679048452
 10
9.9750477144
 20
9.4755077639
 10
9.9822134154
 20
9.4835342916
 10
9.9890846915
 20
9.4919663784
 10
9.9956461742
 20
9.5007851419
 10
10.0018835404
 20
9.5099714287
 10
10.0077821611
 20
9.5195037958
 10
10.0133275193
 20
9.5293584842
 10
10.0185069667
 20
9.5395122747
 10
10.0233094925
 20
9.5499427883
 10
10.0277245232
 20
9.5606263272
  0
LINE
  5
39C
100
AcDbEntity
  8
0
100
AcDbLine
 62
7
  6
CONTINUOUS
 10
10.3621287885
 20
9.365335443
 11
9.8290218754
 21
9.4142748038
  0
LINE
  5
39D
100
AcDbEntity
  8
0
100
AcDbLine
 62
7
  6
CONTINUOUS
 10
10.3621287885
 20
9.365335443
 11
10.3620914676
 21
9.3653388736
  0
LINE
  5
39E
100
AcDbEntity
  8
0
100
AcDbLine
 62
250
  6
CONTINUOUS
 10
10.5608314363
 20
9.5116869664
 11
10.0277245232
 21
9.5606263272
  0
LWPOLYLINE
  5
39F
100
AcDbEntity
  8
0
100
AcDbPolyline
 62
250
  6
CONTINUOUS
 90
4
 70
0
 10
-5.5647350024
 20
18.553070837
 10
-5.561434113
 20
18.5502611399
 10
-5.5572894449
 20
18.5462422249
 10
-5.5533675497
 20
18.5419239122
  0
LWPOLYLINE
  5
3A0
100
AcDbEntity
  8
0
100
AcDbPolyline
 62
250
  6
CONTINUOUS
 90
4
 70
0
 10
-3.0014729206
 20
17.0730754362
 10
-2.9981720312
 20
17.0702657391
 10
-2.9940273631
 20
17.066246824
 10
-2.9901054679
 20
17.0619285114
  0
LWPOLYLINE
  5
3A1
100
AcDbEntity
  8
0
100
AcDbPolyline
 62
7
  6
CONTINUOUS
 90
4
 70
0
 10
7.1279732148
 20
19.2188264867
 10
7.1278694687
 20
19.2197318069
 10
7.1271733124
 20
19.2210625003
 10
7.1261839919
 20
19.2218503596
  0
LWPOLYLINE
  5
3A2
100
AcDbEntity
  8
0
100
AcDbPolyline
 62
7
  6
CONTINUOUS
 90
40
 70
0
 10
12.0029092017
 20
8.54833275
 10
12.0028242995
 20
8.5650439688
 10
12.0021172141
 20
8.5820250505
 10
12.0007905683
 20
8.5992494392
 10
11.9988406223
 20
8.6166824106
 10
11.9962792362
 20
8.6343041919
 10
11.9931329294
 20
8.6521103729
 10
11.9894111417
 20
8.6700770345
 10
11.985115946
 20
8.688172071
 10
11.9802628149
 20
8.7063787002
 10
11.9748577633
 20
8.7246796079
 10
11.9689101256
 20
8.7430344215
 10
11.9624432805
 20
8.7613912925
 10
11.9554766162
 20
8.7797048617
 10
11.948016634
 20
8.7979618515
 10
11.9400687746
 20
8.8161583414
 10
11.9316379439
 20
8.8342820696
 10
11.9227443637
 20
8.8522865259
 10
11.9134177055
 20
8.8701168655
 10
11.903684897
 20
8.8877270508
 10
11.8935536919
 20
8.905107382
 10
11.8830260015
 20
8.92225772
 10
11.8721076362
 20
8.9391664897
 10
11.8608260965
 20
8.9557887562
 10
11.8492163921
 20
8.972075012
 10
11.8373090656
 20
8.9879854363
 10
11.8251140134
 20
9.0035097823
 10
11.812636206
 20
9.0186436541
 10
11.7998833585
 20
9.0333755252
 10
11.7868877722
 20
9.0476661722
 10
11.7736919084
 20
9.0614711369
 10
11.7603274499
 20
9.074759717
 10
11.7468072411
 20
9.0875219583
 10
11.7331464205
 20
9.0997469898
 10
11.7193590147
 20
9.1114218848
 10
11.7054755334
 20
9.1225210681
 10
11.6915360228
 20
9.1330169792
 10
11.6775690068
 20
9.1428919138
 10
11.6635911879
 20
9.1521359326
 10
11.6496249358
 20
9.1607366467
  0
LINE
  5
3A3
100
AcDbEntity
  8
0
100
AcDbLine
 62
7
  6
CONTINUOUS
 10
12.0029092017
 20
8.548533418
 11
12.0029092017
 21
5.8133441736
  0
LINE
  5
3A4
100
AcDbEntity
  8
0
100
AcDbLine
 62
7
  6
CONTINUOUS
 10
12.0029092017
 20
-27.1312453121
 11
12.0029092017
 21
-24.3960560677
  0
LINE
  5
3A5
100
AcDbEntity
  8
0
100
AcDbLine
 62
7
  6
CONTINUOUS
 10
12.3387849228
 20
11.130669818
 11
12.3387849228
 21
10.7632553955
  0
LINE
  5
3A6
100
AcDbEntity
  8
0
100
AcDbLine
 62
7
  6
CONTINUOUS
 10
12.3387849228
 20
-28.1007297799
 11
12.3387849228
 21
-28.4681442024
  0
LINE
  5
3A7
100
AcDbEntity
  8
0
100
AcDbLine
 62
250
  6
CONTINUOUS
 10
12.6135858991
 20
14.7723497524
 11
12.6135858991
 21
15.2287991809
  0
LINE
  5
3A8
100
AcDbEntity
  8
0
100
AcDbLine
 62
250
  6
CONTINUOUS
 10
12.6135858991
 20
15.5341063974
 11
12.6135858991
 21
15.9565888494
  0
LINE
  5
3A9
100
AcDbEntity
  8
0
100
AcDbLine
 62
7
  6
CONTINUOUS
 10
12.7038451555
 20
-26.7146576753
 11
12.7038451555
 21
-24.032167258
  0
LINE
  5
3AA
100
AcDbEntity
  8
0
100
AcDbLine
 62
7
  6
CONTINUOUS
 10
12.7038451555
 20
6.2731304674
 11
12.7038451555
 21
8.9556208846
  0
LINE
  5
3AB
100
AcDbEntity
  8
0
100
AcDbLine
 62
7
  6
CONTINUOUS
 10
12.7304054042
 20
14.9350554934
 11
12.7304054042
 21
15.9840534535
  0
LINE
  5
3AC
100
AcDbEntity
  8
0
100
AcDbLine
 62
7
  6
CONTINUOUS
 10
13.4047811093
 20
6.6920932472
 11
13.4047811093
 21
6.3490877996
  0
LINE
  5
3AD
100
AcDbEntity
  8
0
100
AcDbLine
 62
7
  6
CONTINUOUS
 10
13.4047811093
 20
-23.3338828977
 11
13.4047811093
 21
-23.6274549344
  0
LINE
  5
3AE
100
AcDbEntity
  8
0
100
AcDbLine
 62
7
  6
CONTINUOUS
 10
13.4418079537
 20
6.3277089637
 11
13.4418079537
 21
-23.3058283226
  0
LWPOLYLINE
  5
3AF
100
AcDbEntity
  8
0
100
AcDbPolyline
 62
7
  6
CONTINUOUS
 90
21
 70
0
 10
12.0029092017
 20
-27.1312453121
 10
12.002818776
 20
-27.1473186121
 10
12.0021122973
 20
-27.1630825305
 10
12.00078928
 20
-27.1785105424
 10
11.9988409328
 20
-27.1935854079
 10
11.9962775922
 20
-27.2082725063
 10
11.9931301287
 20
-27.2225209688
 10
11.989409118
 20
-27.2362989385
 10
11.9851144074
 20
-27.2495927093
 10
11.9802624623
 20
-27.262379842
 10
11.9748574884
 20
-27.2746455713
 10
11.9689080853
 20
-27.2863606983
 10
11.9624401389
 20
-27.2974840054
 10
11.9554726634
 20
-27.3079886267
 10
11.948011124
 20
-27.317869994
 10
11.9400627422
 20
-27.3271220683
 10
11.931632023
 20
-27.3357359223
 10
11.9227381128
 20
-27.3436880401
 10
11.9134114713
 20
-27.350952434
 10
11.9036784471
 20
-27.3575126034
 10
11.900453079
 20
-27.3594785524
  0
LWPOLYLINE
  5
3B0
100
AcDbEntity
  8
0
100
AcDbPolyline
 62
7
  6
CONTINUOUS
 90
3
 70
0
 10
-2.7853063586
 20
-17.2472164936
 10
-2.858607016
 20
-17.2887004362
 10
-3.0065737195
 20
-17.3674738732
  0
LINE
  5
3B1
100
AcDbEntity
  8
0
100
AcDbLine
 62
7
  6
CONTINUOUS
 10
-2.5793572698
 20
-17.1212329483
 11
-2.6424845125
 21
-17.1541589212
  0
LINE
  5
3B2
100
AcDbEntity
  8
0
100
AcDbLine
 62
7
  6
CONTINUOUS
 10
-3.0065737195
 20
-17.3674738732
 11
-3.1574092595
 21
-17.4412502378
  0
LINE
  5
3B3
100
AcDbEntity
  8
0
100
AcDbLine
 62
7
  6
CONTINUOUS
 10
-2.6424845125
 20
-17.1541589212
 11
-2.8002432068
 21
-17.2297125706
  0
LWPOLYLINE
  5
3B4
100
AcDbEntity
  8
RACCORDO
100
AcDbPolyline
 62
250
  6
CONTINUOUS
 90
50
 70
0
 10
-14.2740021479
 20
-22.0102165527
 10
-14.1533229137
 20
-21.9547124733
 10
-13.8082949101
 20
-21.7714963625
 10
-13.4800264623
 20
-21.5594160715
 10
-13.1693161903
 20
-21.3189875481
 10
-12.8769203262
 20
-21.0507957111
 10
-12.6035514895
 20
-20.7554939186
 10
-12.3498760698
 20
-20.4338020331
 10
-12.1165121193
 20
-20.0865041595
 10
-11.9040273711
 20
-19.7144455789
 10
-11.7129386836
 20
-19.3185312988
 10
-11.5437111847
 20
-18.899724539
 10
-11.3967574354
 20
-18.4590457779
 10
-11.2724357057
 20
-17.9975693855
 10
-11.1710488121
 20
-17.5164201513
 10
-11.09284329
 20
-17.0167689699
 10
-11.038009357
 20
-16.4998311289
 10
-11.0066806059
 20
-15.9668643413
 10
-10.9989335566
 20
-15.419167376
 10
-11.0147870974
 20
-14.858075536
 10
-11.0542024247
 20
-14.2849563212
 10
-11.1170834634
 20
-13.7012043612
 10
-11.2032772637
 20
-13.1082395424
 10
-11.3125742478
 20
-12.5075046814
 10
-11.4447082181
 20
-11.9004637139
 10
-11.5993570548
 20
-11.2885965127
 10
-11.7761437498
 20
-10.6733941585
 10
-11.9746379639
 20
-10.0563537149
 10
-12.1943568294
 20
-9.4389762178
 10
-12.4347657757
 20
-8.8227640887
 10
-12.6952791064
 20
-8.2092189009
 10
-12.9752618345
 20
-7.5998361464
 10
-13.2740316467
 20
-6.9961006271
 10
-13.5908613258
 20
-6.3994816211
 10
-13.924979993
 20
-5.8114307555
 10
-14.2755745369
 20
-5.2333793012
 10
-14.6417908244
 20
-4.6667357123
 10
-15.0227363801
 20
-4.1128809129
 10
-15.4174830085
 20
-3.5731642473
 10
-15.8250698657
 20
-3.0488992787
 10
-16.2445051609
 20
-2.5413617154
 10
-16.6747680336
 20
-2.0517869896
 10
-17.1148102815
 20
-1.581367935
 10
-17.5635596337
 20
-1.1312508557
 10
-18.0199229834
 20
-0.7025321028
 10
-18.4827893031
 20
-0.2962553171
 10
-18.9510316412
 20
0.0865903663
 10
-19.4235098241
 20
0.4450727266
 10
-19.8990732239
 20
0.7783187618
 10
-20.3765637703
 20
1.0855169836
  0
LINE
  5
3B5
100
AcDbEntity
  8
0
100
AcDbLine
 62
7
  6
CONTINUOUS
 10
-3.1574092595
 20
-17.4412502378
 11
-3.3110765101
 21
-17.5100179414
  0
LINE
  5
3B6
100
AcDbEntity
  8
0
100
AcDbLine
 62
7
  6
CONTINUOUS
 10
-3.2135353402
 20
-17.1148800208
 11
-14.2740021479
 21
-22.0102165527
  0
LWPOLYLINE
  5
3B7
100
AcDbEntity
  8
0
100
AcDbPolyline
 62
7
  6
CONTINUOUS
 90
11
 70
0
 10
-2.8002432068
 20
-17.2297125706
 10
-2.960758348
 20
-17.2999815127
 10
-3.1240331635
 20
-17.36495956
 10
-3.2900644258
 20
-17.4246529
 10
-3.4586578138
 20
-17.4789916684
 10
-3.6298163275
 20
-17.5279695957
 10
-3.803536967
 20
-17.5715929514
 10
-3.9796164115
 20
-17.6098106791
 10
-4.1580574229
 20
-17.6426164497
 10
-4.3388572394
 20
-17.6700165924
 10
-4.5157967443
 20
-17.691257848
  0
LWPOLYLINE
  5
3B8
100
AcDbEntity
  8
0
100
AcDbPolyline
 62
7
  6
CONTINUOUS
 90
13
 70
0
 10
6.6220418114
 20
12.5856880018
 10
6.6076205633
 20
12.5843538089
 10
6.5932644676
 20
12.5827272509
 10
6.5789952443
 20
12.5808603605
 10
6.5648322663
 20
12.578820025
 10
6.5507888338
 20
12.5766387646
 10
6.5368740023
 20
12.5743081958
 10
6.5230990281
 20
12.5718626609
 10
6.5094715943
 20
12.5693422392
 10
6.4959951347
 20
12.5667350323
 10
6.4826762895
 20
12.5640672562
 10
6.4695191191
 20
12.5613700901
 10
6.4436949259
 20
12.5558697931
  0
LWPOLYLINE
  5
3B9
100
AcDbEntity
  8
0
100
AcDbPolyline
 62
250
  6
CONTINUOUS
 90
18
 70
0
 10
8.6199063968
 20
10.8132651643
 10
8.6114522937
 20
10.8178653612
 10
8.6030194378
 20
10.8219939787
 10
8.5946269317
 20
10.8256416644
 10
8.5862937864
 20
10.8288001556
 10
8.5780388785
 20
10.8314622973
 10
8.5698809074
 20
10.8336220592
 10
8.5618383529
 20
10.835274549
 10
8.5539294333
 20
10.8364160233
 10
8.5461720642
 20
10.8370438965
 10
8.5385838179
 20
10.8371567462
 10
8.5311818838
 20
10.8367543168
 10
8.5239830288
 20
10.8358375199
 10
8.5170035603
 20
10.8344084323
 10
8.5102592884
 20
10.8324702912
 10
8.5037654904
 20
10.830027487
 10
8.4975368765
 20
10.8270855531
 10
8.4938677246
 20
10.8250451572
  0
LWPOLYLINE
  5
3BA
100
AcDbEntity
  8
0
100
AcDbPolyline
 62
250
  6
CONTINUOUS
 90
18
 70
0
 10
-4.7267340981
 20
18.5194481133
 10
-4.7351882012
 20
18.5240483103
 10
-4.7436210571
 20
18.5281769278
 10
-4.7520135632
 20
18.5318246135
 10
-4.7603467085
 20
18.5349831046
 10
-4.7686016164
 20
18.5376452464
 10
-4.7767595875
 20
18.5398050083
 10
-4.784802142
 20
18.5414574981
 10
-4.7927110616
 20
18.5425989724
 10
-4.8004684307
 20
18.5432268456
 10
-4.808056677
 20
18.5433396953
 10
-4.8154586111
 20
18.5429372659
 10
-4.8226574661
 20
18.542020469
 10
-4.8296369346
 20
18.5405913814
 10
-4.8363812065
 20
18.5386532403
 10
-4.8428750045
 20
18.536210436
 10
-4.8491036184
 20
18.5332685022
 10
-4.8527727703
 20
18.5312281063
  0
LWPOLYLINE
  5
3BB
100
AcDbEntity
  8
0
100
AcDbPolyline
 62
250
  6
CONTINUOUS
 90
18
 70
0
 10
-7.2899961799
 20
19.9994435141
 10
-7.298450283
 20
20.0040437111
 10
-7.3068831389
 20
20.0081723286
 10
-7.315275645
 20
20.0118200143
 10
-7.3236087903
 20
20.0149785054
 10
-7.3318636982
 20
20.0176406472
 10
-7.3400216693
 20
20.0198004091
 10
-7.3480642238
 20
20.0214528989
 10
-7.3559731434
 20
20.0225943732
 10
-7.3637305125
 20
20.0232222464
 10
-7.3713187588
 20
20.0233350961
 10
-7.3787206929
 20
20.0229326667
 10
-7.3859195479
 20
20.0220158698
 10
-7.3928990164
 20
20.0205867822
 10
-7.3996432883
 20
20.0186486411
 10
-7.4061370863
 20
20.0162058368
 10
-7.4123657002
 20
20.013263903
 10
-7.4160348521
 20
20.0112235071
  0
LWPOLYLINE
  5
3BC
100
AcDbEntity
  8
0
100
AcDbPolyline
 62
250
  6
CONTINUOUS
 90
18
 70
0
 10
-20.6366366748
 20
27.7056264632
 10
-20.6450907779
 20
27.7102266601
 10
-20.6535236338
 20
27.7143552776
 10
-20.6619161399
 20
27.7180029634
 10
-20.6702492852
 20
27.7211614545
 10
-20.6785041931
 20
27.7238235962
 10
-20.6866621642
 20
27.7259833582
 10
-20.6947047187
 20
27.727635848
 10
-20.7026136383
 20
27.7287773223
 10
-20.7103710074
 20
27.7294051954
 10
-20.7179592537
 20
27.7295180451
 10
-20.7253611878
 20
27.7291156157
 10
-20.7325600428
 20
27.7281988188
 10
-20.7395395113
 20
27.7267697312
 10
-20.7462837832
 20
27.7248315901
 10
-20.7527775812
 20
27.7223887859
 10
-20.7590061951
 20
27.7194468521
 10
-20.762675347
 20
27.7174064562
  0
LWPOLYLINE
  5
3BD
100
AcDbEntity
  8
0
100
AcDbPolyline
 62
250
  6
CONTINUOUS
 90
34
 70
0
 10
10.3859083677
 20
9.2602122088
 10
10.394490605
 20
9.2554866114
 10
10.4034513204
 20
9.2510013265
 10
10.4127703501
 20
9.2467664471
 10
10.4224267239
 20
9.2427915028
 10
10.4323987129
 20
9.2390854382
 10
10.4426638784
 20
9.2356565925
 10
10.4531991217
 20
9.2325126815
 10
10.4639807357
 20
9.2296607799
 10
10.4749844599
 20
9.2271073051
 10
10.4861855333
 20
9.2248580033
 10
10.4975587508
 20
9.222917936
 10
10.5090785203
 20
9.2212914688
 10
10.5207189196
 20
9.2199822621
 10
10.5324537551
 20
9.2189932618
 10
10.5442566208
 20
9.2183266937
 10
10.5561009573
 20
9.217984058
 10
10.5679601121
 20
9.2179661257
 10
10.579807399
 20
9.2182729376
 10
10.5916161592
 20
9.2189038033
 10
10.6033598195
 20
9.2198573035
 10
10.6150119531
 20
9.2211312926
 10
10.6265463397
 20
9.222722904
 10
10.6379370239
 20
9.2246285564
 10
10.6491583726
 20
9.2268439614
 10
10.6601851347
 20
9.2293641337
 10
10.6709924972
 20
9.2321834024
 10
10.6815561406
 20
9.2352954233
 10
10.6918522939
 20
9.2386931937
 10
10.7018577881
 20
9.2423690676
 10
10.7115501084
 20
9.2463147733
 10
10.7209074447
 20
9.2505214322
 10
10.7299087405
 20
9.2549795781
 10
10.7385337407
 20
9.2596791791
  0
LWPOLYLINE
  5
3BE
100
AcDbEntity
  8
0
100
AcDbPolyline
 62
250
  6
CONTINUOUS
 90
34
 70
0
 10
9.6750991522
 20
9.7968268796
 10
9.6836672545
 20
9.7921087044
 10
9.6926164964
 20
9.7876282154
 10
9.7019272525
 20
9.7833957801
 10
9.7115804185
 20
9.7794206909
 10
9.7215534121
 20
9.7757128343
 10
9.731819791
 20
9.7722822851
 10
9.7423548888
 20
9.7691372042
 10
9.7531364724
 20
9.7662841492
 10
9.7641404662
 20
9.7637295007
 10
9.7753422552
 20
9.7614789978
 10
9.7867165016
 20
9.7595377554
 10
9.7982373779
 20
9.7579101887
 10
9.8098788479
 20
9.7565999687
 10
9.8216148099
 20
9.7556100257
 10
9.833418924
 20
9.7549425821
 10
9.8452646542
 20
9.7545991428
 10
9.8571253067
 20
9.7545804866
 10
9.8689741656
 20
9.7548866582
 10
9.8807845556
 20
9.7555169699
 10
9.8925298987
 20
9.7564700048
 10
9.9041837536
 20
9.757743619
 10
9.9157198904
 20
9.7593349476
 10
9.9271123408
 20
9.76124041
 10
9.9383354527
 20
9.7634557169
 10
9.9493639622
 20
9.7659758823
 10
9.9601730469
 20
9.7687952345
 10
9.9707383733
 20
9.7719074272
 10
9.981036165
 20
9.7753054576
 10
9.991043237
 20
9.7789816758
 10
10.0007370466
 20
9.7829278001
 10
10.01009577
 20
9.7871349444
 10
10.0190983496
 20
9.7915936404
 10
10.0277245232
 20
9.796293851
  0
LWPOLYLINE
  5
3BF
100
AcDbEntity
  8
0
100
AcDbPolyline
 62
250
  6
CONTINUOUS
 90
34
 70
0
 10
-2.9607321272
 20
16.9663951579
 10
-2.9521498899
 20
16.9616695605
 10
-2.9431891745
 20
16.9571842755
 10
-2.9338701448
 20
16.9529493961
 10
-2.924213771
 20
16.9489744519
 10
-2.914241782
 20
16.9452683872
 10
-2.9039766165
 20
16.9418395415
 10
-2.8934413732
 20
16.9386956305
 10
-2.8826597592
 20
16.9358437289
 10
-2.871656035
 20
16.9332902542
 10
-2.8604549616
 20
16.9310409523
 10
-2.8490817441
 20
16.929100885
 10
-2.8375619746
 20
16.9274744179
 10
-2.8259215753
 20
16.9261652111
 10
-2.8141867398
 20
16.9251762109
 10
-2.8023838741
 20
16.9245096428
 10
-2.7905395376
 20
16.924167007
 10
-2.7786803828
 20
16.9241490748
 10
-2.7668330959
 20
16.9244558866
 10
-2.7550243357
 20
16.9250867523
 10
-2.7432806754
 20
16.9260402525
 10
-2.7316285418
 20
16.9273142416
 10
-2.7200941552
 20
16.9289058531
 10
-2.708703471
 20
16.9308115055
 10
-2.6974821223
 20
16.9330269104
 10
-2.6864553602
 20
16.9355470827
 10
-2.6756479977
 20
16.9383663514
 10
-2.6650843543
 20
16.9414783724
 10
-2.654788201
 20
16.9448761427
 10
-2.6447827068
 20
16.9485520166
 10
-2.6350903865
 20
16.9524977224
 10
-2.6257330502
 20
16.9567043813
 10
-2.6167317544
 20
16.9611625272
 10
-2.6081067542
 20
16.9658621281
  0
LWPOLYLINE
  5
3C0
100
AcDbEntity
  8
0
100
AcDbPolyline
 62
250
  6
CONTINUOUS
 90
34
 70
0
 10
-5.523994209
 20
18.4463905587
 10
-5.5154119717
 20
18.4416649613
 10
-5.5064512563
 20
18.4371796764
 10
-5.4971322266
 20
18.432944797
 10
-5.4874758528
 20
18.4289698527
 10
-5.4775038638
 20
18.4252637881
 10
-5.4672386983
 20
18.4218349424
 10
-5.456703455
 20
18.4186910314
 10
-5.445921841
 20
18.4158391298
 10
-5.4349181168
 20
18.413285655
 10
-5.4237170434
 20
18.4110363532
 10
-5.4123438259
 20
18.4090962858
 10
-5.4008240564
 20
18.4074698187
 10
-5.3891836571
 20
18.4061606119
 10
-5.3774488216
 20
18.4051716117
 10
-5.3656459559
 20
18.4045050436
 10
-5.3538016194
 20
18.4041624079
 10
-5.3419424646
 20
18.4041444756
 10
-5.3300951777
 20
18.4044512874
 10
-5.3182864175
 20
18.4050821532
 10
-5.3065427572
 20
18.4060356533
 10
-5.2948906236
 20
18.4073096425
 10
-5.283356237
 20
18.4089012539
 10
-5.2719655528
 20
18.4108069063
 10
-5.2607442041
 20
18.4130223112
 10
-5.249717442
 20
18.4155424835
 10
-5.2389100795
 20
18.4183617523
 10
-5.2283464361
 20
18.4214737732
 10
-5.2180502828
 20
18.4248715435
 10
-5.2080447886
 20
18.4285474174
 10
-5.1983524683
 20
18.4324931232
 10
-5.188995132
 20
18.4366997821
 10
-5.1799938362
 20
18.441157928
 10
-5.171368836
 20
18.445857529
  0
LWPOLYLINE
  5
3C1
100
AcDbEntity
  8
0
100
AcDbPolyline
 62
250
  6
CONTINUOUS
 90
34
 70
0
 10
-3.6715413427
 20
17.5030098287
 10
-3.6629732404
 20
17.4982916535
 10
-3.6540239985
 20
17.4938111644
 10
-3.6447132424
 20
17.4895787291
 10
-3.6350600764
 20
17.4856036399
 10
-3.6250870828
 20
17.4818957833
 10
-3.6148207039
 20
17.4784652342
 10
-3.6042856061
 20
17.4753201532
 10
-3.5935040225
 20
17.4724670983
 10
-3.5825000287
 20
17.4699124497
 10
-3.5712982397
 20
17.4676619468
 10
-3.5599239933
 20
17.4657207044
 10
-3.548403117
 20
17.4640931378
 10
-3.536761647
 20
17.4627829177
 10
-3.525025685
 20
17.4617929748
 10
-3.5132215709
 20
17.4611255311
 10
-3.5013758407
 20
17.4607820919
 10
-3.4895151882
 20
17.4607634357
 10
-3.4776663293
 20
17.4610696073
 10
-3.4658559393
 20
17.461699919
 10
-3.4541105962
 20
17.4626529538
 10
-3.4424567413
 20
17.4639265681
 10
-3.4309206045
 20
17.4655178967
 10
-3.4195281541
 20
17.4674233591
 10
-3.4083050422
 20
17.469638666
 10
-3.3972765327
 20
17.4721588313
 10
-3.3864674479
 20
17.4749781835
 10
-3.3759021216
 20
17.4780903763
 10
-3.3656043299
 20
17.4814884066
 10
-3.3555972579
 20
17.4851646249
 10
-3.3459034483
 20
17.4891107492
 10
-3.3365447249
 20
17.4933178935
 10
-3.3275421453
 20
17.4977765895
 10
-3.3189159717
 20
17.5024768001
  0
LWPOLYLINE
  5
3C2
100
AcDbEntity
  8
0
100
AcDbPolyline
 62
250
  6
CONTINUOUS
 90
34
 70
0
 10
-6.2348034245
 20
18.9830052295
 10
-6.2262353222
 20
18.9782870543
 10
-6.2172860803
 20
18.9738065653
 10
-6.2079753242
 20
18.9695741299
 10
-6.1983221582
 20
18.9655990407
 10
-6.1883491646
 20
18.9618911841
 10
-6.1780827857
 20
18.958460635
 10
-6.1675476879
 20
18.9553155541
 10
-6.1567661043
 20
18.9524624991
 10
-6.1457621105
 20
18.9499078506
 10
-6.1345603215
 20
18.9476573477
 10
-6.1231860751
 20
18.9457161052
 10
-6.1116651988
 20
18.9440885386
 10
-6.1000237288
 20
18.9427783186
 10
-6.0882877668
 20
18.9417883756
 10
-6.0764836527
 20
18.9411209319
 10
-6.0646379225
 20
18.9407774927
 10
-6.05277727
 20
18.9407588365
 10
-6.0409284111
 20
18.9410650081
 10
-6.0291180211
 20
18.9416953198
 10
-6.017372678
 20
18.9426483546
 10
-6.0057188231
 20
18.9439219689
 10
-5.9941826863
 20
18.9455132975
 10
-5.9827902359
 20
18.9474187599
 10
-5.971567124
 20
18.9496340668
 10
-5.9605386145
 20
18.9521542321
 10
-5.9497295298
 20
18.9549735843
 10
-5.9391642034
 20
18.9580857771
 10
-5.9288664117
 20
18.9614838074
 10
-5.9188593397
 20
18.9651600257
 10
-5.9091655301
 20
18.96910615
 10
-5.8998068067
 20
18.9733132943
 10
-5.8908042271
 20
18.9777719903
 10
-5.8821780535
 20
18.9824722009
  0
LWPOLYLINE
  5
3C3
100
AcDbEntity
  8
0
100
AcDbPolyline
 62
250
  6
CONTINUOUS
 90
34
 70
0
 10
-18.8706347039
 20
26.1525735078
 10
-18.8620524666
 20
26.1478479103
 10
-18.8530917512
 20
26.1433626254
 10
-18.8437727215
 20
26.139127746
 10
-18.8341163477
 20
26.1351528018
 10
-18.8241443587
 20
26.1314467371
 10
-18.8138791932
 20
26.1280178914
 10
-18.8033439499
 20
26.1248739804
 10
-18.7925623359
 20
26.1220220788
 10
-18.7815586117
 20
26.1194686041
 10
-18.7703575383
 20
26.1172193022
 10
-18.7589843208
 20
26.1152792349
 10
-18.7474645513
 20
26.1136527678
 10
-18.735824152
 20
26.112343561
 10
-18.7240893165
 20
26.1113545607
 10
-18.7122864508
 20
26.1106879927
 10
-18.7004421142
 20
26.1103453569
 10
-18.6885829595
 20
26.1103274247
 10
-18.6767356726
 20
26.1106342365
 10
-18.6649269124
 20
26.1112651022
 10
-18.6531832521
 20
26.1122186024
 10
-18.6415311185
 20
26.1134925915
 10
-18.6299967319
 20
26.115084203
 10
-18.6186060477
 20
26.1169898553
 10
-18.607384699
 20
26.1192052603
 10
-18.5963579369
 20
26.1217254326
 10
-18.5855505744
 20
26.1245447013
 10
-18.574986931
 20
26.1276567223
 10
-18.5646907777
 20
26.1310544926
 10
-18.5546852835
 20
26.1347303665
 10
-18.5449929632
 20
26.1386760723
 10
-18.5356356269
 20
26.1428827312
 10
-18.5266343311
 20
26.1473408771
 10
-18.5180093309
 20
26.152040478
  0
LWPOLYLINE
  5
3C4
100
AcDbEntity
  8
0
100
AcDbPolyline
 62
250
  6
CONTINUOUS
 90
34
 70
0
 10
-19.5814439194
 20
26.6891881786
 10
-19.5728758171
 20
26.6844700034
 10
-19.5639265752
 20
26.6799895143
 10
-19.5546158191
 20
26.675757079
 10
-19.5449626531
 20
26.6717819898
 10
-19.5349896595
 20
26.6680741332
 10
-19.5247232806
 20
26.6646435841
 10
-19.5141881828
 20
26.6614985031
 10
-19.5034065992
 20
26.6586454482
 10
-19.4924026054
 20
26.6560907996
 10
-19.4812008164
 20
26.6538402967
 10
-19.46982657
 20
26.6518990543
 10
-19.4583056937
 20
26.6502714876
 10
-19.4466642237
 20
26.6489612676
 10
-19.4349282617
 20
26.6479713247
 10
-19.4231241476
 20
26.647303881
 10
-19.4112784174
 20
26.6469604417
 10
-19.3994177649
 20
26.6469417856
 10
-19.387568906
 20
26.6472479572
 10
-19.375758516
 20
26.6478782688
 10
-19.3640131729
 20
26.6488313037
 10
-19.352359318
 20
26.6501049179
 10
-19.3408231812
 20
26.6516962465
 10
-19.3294307308
 20
26.653601709
 10
-19.3182076189
 20
26.6558170159
 10
-19.3071791094
 20
26.6583371812
 10
-19.2963700246
 20
26.6611565334
 10
-19.2858046983
 20
26.6642687262
 10
-19.2755069066
 20
26.6676667565
 10
-19.2654998346
 20
26.6713429748
 10
-19.255806025
 20
26.675289099
 10
-19.2464473016
 20
26.6794962434
 10
-19.237444722
 20
26.6839549393
 10
-19.2288185484
 20
26.6886551499
  0
LINE
  5
3C5
100
AcDbEntity
  8
0
100
AcDbLine
 62
7
  6
CONTINUOUS
 10
13.4418079537
 20
6.3277089637
 11
13.4047811093
 21
6.3490877996
  0
LINE
  5
3C6
100
AcDbEntity
  8
0
100
AcDbLine
 62
7
  6
CONTINUOUS
 10
-20.1090834288
 20
26.2088089553
 11
-18.8706347019
 21
25.4937441818
  0
LINE
  5
3C7
100
AcDbEntity
  8
0
100
AcDbLine
 62
7
  6
CONTINUOUS
 10
-6.7624429339
 20
18.5026260062
 11
-5.523994207
 21
17.7875612327
  0
LINE
  5
3C8
100
AcDbEntity
  8
0
100
AcDbLine
 62
7
  6
CONTINUOUS
 10
10.3859083697
 20
8.6013828829
 11
9.1474596428
 21
9.3164476563
  0
LINE
  5
3C9
100
AcDbEntity
  8
0
100
AcDbLine
 62
7
  6
CONTINUOUS
 10
-2.9607321252
 20
16.3075658319
 11
-4.1991808521
 21
17.0226306054
  0
LINE
  5
3CA
100
AcDbEntity
  8
0
100
AcDbLine
 62
7
  6
CONTINUOUS
 10
-15.215143373
 20
23.8127785929
 11
-9.7108274816
 21
20.6346555825
  0
LINE
  5
3CB
100
AcDbEntity
  8
0
100
AcDbLine
 62
7
  6
CONTINUOUS
 10
0.6947592037
 20
14.626600243
 11
6.1990750951
 21
11.4484772326
  0
LINE
  5
3CC
100
AcDbEntity
  8
0
100
AcDbLine
 62
7
  6
CONTINUOUS
 10
-20.7607171184
 20
27.0498757323
 11
-19.5296732641
 21
26.3390864395
  0
LINE
  5
3CD
100
AcDbEntity
  8
0
100
AcDbLine
 62
7
  6
CONTINUOUS
 10
-7.4140766235
 20
19.3436927833
 11
-6.1830327693
 21
18.6329034904
  0
LINE
  5
3CE
100
AcDbEntity
  8
0
100
AcDbLine
 62
7
  6
CONTINUOUS
 10
-4.8508145417
 20
17.8636973824
 11
-3.6197706875
 21
17.1529080896
  0
LINE
  5
3CF
100
AcDbEntity
  8
0
100
AcDbLine
 62
7
  6
CONTINUOUS
 10
8.4958259532
 20
10.1575144334
 11
9.7268698074
 21
9.4467251405
  0
LINE
  5
3D0
100
AcDbEntity
  8
0
100
AcDbLine
 62
250
  6
CONTINUOUS
 10
-20.8124877737
 20
27.1643099476
 11
-19.5814439194
 21
26.4535206547
  0
LINE
  5
3D1
100
AcDbEntity
  8
0
100
AcDbLine
 62
250
  6
CONTINUOUS
 10
-7.4658472788
 20
19.4581269985
 11
-6.2348034245
 21
18.7473377057
  0
LINE
  5
3D2
100
AcDbEntity
  8
0
100
AcDbLine
 62
250
  6
CONTINUOUS
 10
-4.902585197
 20
17.9781315977
 11
-3.6715413427
 21
17.2673423049
  0
LINE
  5
3D3
100
AcDbEntity
  8
0
100
AcDbLine
 62
250
  6
CONTINUOUS
 10
8.4440552979
 20
10.2719486487
 11
9.6750991522
 21
9.5611593558
  0
LINE
  5
3D4
100
AcDbEntity
  8
0
100
AcDbLine
 62
7
  6
CONTINUOUS
 10
12.7038451555
 20
7.8582011888
 11
12.745371322
 21
7.8342245007
  0
LINE
  5
3D5
100
AcDbEntity
  8
0
100
AcDbLine
 62
250
  6
CONTINUOUS
 10
-19.082626008
 20
26.2749746299
 11
-18.8706347019
 21
26.1525735066
  0
LINE
  5
3D6
100
AcDbEntity
  8
0
100
AcDbLine
 62
250
  6
CONTINUOUS
 10
-5.7359855131
 20
18.5687916808
 11
-5.523994207
 21
18.4463905576
  0
LINE
  5
3D7
100
AcDbEntity
  8
0
100
AcDbLine
 62
250
  6
CONTINUOUS
 10
-3.1727234313
 20
17.08879628
 11
-2.9607321252
 21
16.9663951568
  0
LINE
  5
3D8
100
AcDbEntity
  8
0
100
AcDbLine
 62
250
  6
CONTINUOUS
 10
10.1739170636
 20
9.382613331
 11
10.3859083697
 21
9.2602122077
  0
LINE
  5
3D9
100
AcDbEntity
  8
0
100
AcDbLine
 62
250
  6
CONTINUOUS
 10
9.6750991522
 20
9.7968268796
 11
8.4440552979
 21
10.5076161725
  0
LINE
  5
3DA
100
AcDbEntity
  8
0
100
AcDbLine
 62
250
  6
CONTINUOUS
 10
-3.6715413427
 20
17.5030098287
 11
-4.902585197
 21
18.2137991216
  0
LINE
  5
3DB
100
AcDbEntity
  8
0
100
AcDbLine
 62
250
  6
CONTINUOUS
 10
-6.2348034245
 20
18.9830052295
 11
-7.4658472788
 21
19.6937945224
  0
LINE
  5
3DC
100
AcDbEntity
  8
0
100
AcDbLine
 62
250
  6
CONTINUOUS
 10
-19.5814439194
 20
26.6891881786
 11
-20.8124877737
 21
27.3999774714
  0
LINE
  5
3DD
100
AcDbEntity
  8
0
100
AcDbLine
 62
250
  6
CONTINUOUS
 10
9.8509502511
 20
10.1024758714
 11
8.6199063968
 21
10.8132651643
  0
LINE
  5
3DE
100
AcDbEntity
  8
0
100
AcDbLine
 62
250
  6
CONTINUOUS
 10
-3.4956902438
 20
17.8086588205
 11
-4.7267340981
 21
18.5194481133
  0
LINE
  5
3DF
100
AcDbEntity
  8
0
100
AcDbLine
 62
250
  6
CONTINUOUS
 10
-6.0589523256
 20
19.2886542213
 11
-7.2899961799
 21
19.9994435141
  0
LINE
  5
3E0
100
AcDbEntity
  8
0
100
AcDbLine
 62
250
  6
CONTINUOUS
 10
-19.4055928205
 20
26.9948371704
 11
-20.6366366748
 21
27.7056264632
  0
LINE
  5
3E1
100
AcDbEntity
  8
0
100
AcDbLine
 62
7
  6
CONTINUOUS
 10
-17.6285673663
 20
26.06559794
 11
-15.3615899824
 21
24.7566736105
  0
LINE
  5
3E2
100
AcDbEntity
  8
0
100
AcDbLine
 62
7
  6
CONTINUOUS
 10
-8.6483112452
 20
20.8805106048
 11
-7.280820201
 21
20.0909384145
  0
LINE
  5
3E3
100
AcDbEntity
  8
0
100
AcDbLine
 62
7
  6
CONTINUOUS
 10
-1.7186647896
 20
16.8794195901
 11
0.5483125943
 21
15.5704952606
  0
LINE
  5
3E4
100
AcDbEntity
  8
0
100
AcDbLine
 62
7
  6
CONTINUOUS
 10
7.2615913315
 20
11.6943322549
 11
8.6290823757
 21
10.9047600647
  0
LINE
  5
3E5
100
AcDbEntity
  8
0
100
AcDbLine
 62
7
  6
CONTINUOUS
 10
11.6279757053
 20
9.1732366411
 11
11.6496249358
 21
9.1607366467
  0
LINE
  5
3E6
100
AcDbEntity
  8
0
100
AcDbLine
 62
250
  6
CONTINUOUS
 10
6.1990750951
 20
12.5041571128
 11
0.6947592037
 21
15.6822801233
  0
LINE
  5
3E7
100
AcDbEntity
  8
0
100
AcDbLine
 62
250
  6
CONTINUOUS
 10
-9.7108274816
 20
21.6903354627
 11
-15.215143373
 21
24.8684584732
  0
LINE
  5
3E8
100
AcDbEntity
  8
0
100
AcDbLine
 62
250
  6
CONTINUOUS
 10
6.6220418114
 20
12.5856880018
 11
0.5531542456
 21
16.0897876212
  0
LINE
  5
3E9
100
AcDbEntity
  8
0
100
AcDbLine
 62
250
  6
CONTINUOUS
 10
-9.2878607653
 20
21.7718663516
 11
-15.3567483311
 21
25.2759659711
  0
LINE
  5
3EA
100
AcDbEntity
  8
0
100
AcDbLine
 62
7
  6
CONTINUOUS
 10
7.3322524394
 20
12.366025984
 11
7.2615913315
 21
12.4068248221
  0
LINE
  5
3EB
100
AcDbEntity
  8
0
100
AcDbLine
 62
7
  6
CONTINUOUS
 10
-8.5776501373
 20
21.5522043339
 11
-8.6483112452
 21
21.593003172
  0
LINE
  5
3EC
100
AcDbEntity
  8
0
100
AcDbLine
 62
7
  6
CONTINUOUS
 10
-17.5737604024
 20
26.8457521875
 11
-16.2147651945
 21
26.0610853867
  0
LINE
  5
3ED
100
AcDbEntity
  8
0
100
AcDbLine
 62
7
  6
CONTINUOUS
 10
11.6827826692
 20
9.9533908886
 11
12.3502962523
 21
9.5679769116
  0
LWPOLYLINE
  5
3EE
100
AcDbEntity
  8
0
100
AcDbPolyline
 62
250
  6
CONTINUOUS
 90
18
 70
0
 10
-20.8124877737
 20
27.1643099476
 10
-20.8206728086
 20
27.1692655969
 10
-20.828441574
 20
27.1744398059
 10
-20.8357765858
 20
27.1798209297
 10
-20.8426613282
 20
27.185396851
 10
-20.8490803154
 20
27.1911550271
 10
-20.8550191211
 20
27.1970825198
 10
-20.8604643867
 20
27.2031660051
 10
-20.8654038371
 20
27.2093917792
 10
-20.8698263356
 20
27.2157458092
 10
-20.8737219246
 20
27.222213787
 10
-20.8770818419
 20
27.2287811629
 10
-20.8798985256
 20
27.235433156
 10
-20.8821656366
 20
27.2421547951
 10
-20.8838780724
 20
27.2489309526
 10
-20.8850319791
 20
27.255746378
 10
-20.88562476
 20
27.2625857374
 10
-20.8857110784
 20
27.2663785959
  0
LWPOLYLINE
  5
3EF
100
AcDbEntity
  8
0
100
AcDbPolyline
 62
250
  6
CONTINUOUS
 90
18
 70
0
 10
-7.4658472788
 20
19.4581269985
 10
-7.4740323137
 20
19.4630826479
 10
-7.4818010791
 20
19.4682568569
 10
-7.4891360909
 20
19.4736379807
 10
-7.4960208333
 20
19.479213902
 10
-7.5024398205
 20
19.484972078
 10
-7.5083786262
 20
19.4908995707
 10
-7.5138238918
 20
19.496983056
 10
-7.5187633422
 20
19.5032088301
 10
-7.5231858407
 20
19.5095628601
 10
-7.5270814297
 20
19.5160308379
 10
-7.530441347
 20
19.5225982138
 10
-7.5332580307
 20
19.529250207
 10
-7.5355251417
 20
19.5359718461
 10
-7.5372375775
 20
19.5427480035
 10
-7.5383914842
 20
19.5495634289
 10
-7.5389842651
 20
19.5564027883
 10
-7.5390705835
 20
19.5601956469
  0
LWPOLYLINE
  5
3F0
100
AcDbEntity
  8
0
100
AcDbPolyline
 62
250
  6
CONTINUOUS
 90
18
 70
0
 10
-4.902585197
 20
17.9781315977
 10
-4.9107702319
 20
17.983087247
 10
-4.9185389973
 20
17.9882614561
 10
-4.9258740091
 20
17.9936425798
 10
-4.9327587515
 20
17.9992185012
 10
-4.9391777387
 20
18.0049766772
 10
-4.9451165444
 20
18.0109041699
 10
-4.95056181
 20
18.0169876552
 10
-4.9555012604
 20
18.0232134293
 10
-4.9599237589
 20
18.0295674593
 10
-4.9638193479
 20
18.0360354371
 10
-4.9671792652
 20
18.042602813
 10
-4.9699959489
 20
18.0492548061
 10
-4.9722630599
 20
18.0559764453
 10
-4.9739754957
 20
18.0627526027
 10
-4.9751294024
 20
18.0695680281
 10
-4.9757221833
 20
18.0764073875
 10
-4.9758085017
 20
18.0802002461
  0
LWPOLYLINE
  5
3F1
100
AcDbEntity
  8
0
100
AcDbPolyline
 62
250
  6
CONTINUOUS
 90
18
 70
0
 10
8.4440552979
 20
10.2719486487
 10
8.435870263
 20
10.276904298
 10
8.4281014976
 20
10.282078507
 10
8.4207664858
 20
10.2874596308
 10
8.4138817434
 20
10.2930355521
 10
8.4074627562
 20
10.2987937281
 10
8.4015239505
 20
10.3047212209
 10
8.3960786849
 20
10.3108047061
 10
8.3911392345
 20
10.3170304803
 10
8.386716736
 20
10.3233845103
 10
8.382821147
 20
10.329852488
 10
8.3794612297
 20
10.3364198639
 10
8.3766445459
 20
10.3430718571
 10
8.374377435
 20
10.3497934962
 10
8.3726649992
 20
10.3565696536
 10
8.3715110925
 20
10.363385079
 10
8.3709183116
 20
10.3702244385
 10
8.3708319932
 20
10.374017297
  0
LWPOLYLINE
  5
3F2
100
AcDbEntity
  8
0
100
AcDbPolyline
 62
250
  6
CONTINUOUS
 90
19
 70
0
 10
-20.7607171184
 20
27.0498757323
 10
-20.766023009
 20
27.0532111765
 10
-20.7711109428
 20
27.0569701074
 10
-20.7759408632
 20
27.0611278018
 10
-20.7805033301
 20
27.0656760342
 10
-20.7847899655
 20
27.0706063478
 10
-20.7887928381
 20
27.0759096275
 10
-20.7925044192
 20
27.081576006
 10
-20.7959174719
 20
27.0875945508
 10
-20.7990253292
 20
27.0939535249
 10
-20.8018220335
 20
27.1006406633
 10
-20.804302339
 20
27.107643339
 10
-20.8064615638
 20
27.1149483004
 10
-20.8082956079
 20
27.1225416777
 10
-20.8098009678
 20
27.1304089664
 10
-20.8109747752
 20
27.1385351502
 10
-20.8118148002
 20
27.1469047377
 10
-20.8123194513
 20
27.1555017956
 10
-20.8124877737
 20
27.1643099476
  0
LWPOLYLINE
  5
3F3
100
AcDbEntity
  8
0
100
AcDbPolyline
 62
250
  6
CONTINUOUS
 90
19
 70
0
 10
-7.4140766235
 20
19.3436927833
 10
-7.4193825141
 20
19.3470282274
 10
-7.424470448
 20
19.3507871584
 10
-7.4293003683
 20
19.3549448527
 10
-7.4338628352
 20
19.3594930852
 10
-7.4381494706
 20
19.3644233987
 10
-7.4421523432
 20
19.3697266785
 10
-7.4458639243
 20
19.375393057
 10
-7.449276977
 20
19.3814116018
 10
-7.4523848343
 20
19.3877705759
 10
-7.4551815386
 20
19.3944577142
 10
-7.4576618441
 20
19.4014603899
 10
-7.4598210689
 20
19.4087653513
 10
-7.461655113
 20
19.4163587286
 10
-7.4631604729
 20
19.4242260173
 10
-7.4643342803
 20
19.4323522011
 10
-7.4651743053
 20
19.4407217886
 10
-7.4656789564
 20
19.4493188465
 10
-7.4658472788
 20
19.4581269985
  0
LWPOLYLINE
  5
3F4
100
AcDbEntity
  8
0
100
AcDbPolyline
 62
250
  6
CONTINUOUS
 90
19
 70
0
 10
-4.8508145417
 20
17.8636973824
 10
-4.8561204323
 20
17.8670328266
 10
-4.8612083662
 20
17.8707917576
 10
-4.8660382865
 20
17.8749494519
 10
-4.8706007534
 20
17.8794976843
 10
-4.8748873888
 20
17.8844279979
 10
-4.8788902614
 20
17.8897312777
 10
-4.8826018425
 20
17.8953976562
 10
-4.8860148952
 20
17.9014162009
 10
-4.8891227525
 20
17.907775175
 10
-4.8919194568
 20
17.9144623134
 10
-4.8943997623
 20
17.9214649891
 10
-4.8965589871
 20
17.9287699505
 10
-4.8983930312
 20
17.9363633278
 10
-4.8998983911
 20
17.9442306165
 10
-4.9010721985
 20
17.9523568003
 10
-4.9019122235
 20
17.9607263878
 10
-4.9024168746
 20
17.9693234457
 10
-4.902585197
 20
17.9781315977
  0
LWPOLYLINE
  5
3F5
100
AcDbEntity
  8
0
100
AcDbPolyline
 62
250
  6
CONTINUOUS
 90
19
 70
0
 10
8.4958259532
 20
10.1575144334
 10
8.4905200626
 20
10.1608498775
 10
8.4854321287
 20
10.1646088085
 10
8.4806022084
 20
10.1687665028
 10
8.4760397415
 20
10.1733147353
 10
8.4717531061
 20
10.1782450488
 10
8.4677502335
 20
10.1835483286
 10
8.4640386524
 20
10.1892147071
 10
8.4606255997
 20
10.1952332519
 10
8.4575177424
 20
10.201592226
 10
8.4547210381
 20
10.2082793644
 10
8.4522407326
 20
10.21528204
 10
8.4500815078
 20
10.2225870015
 10
8.4482474637
 20
10.2301803788
 10
8.4467421038
 20
10.2380476675
 10
8.4455682964
 20
10.2461738512
 10
8.4447282714
 20
10.2545434388
 10
8.4442236203
 20
10.2631404967
 10
8.4440552979
 20
10.2719486487
  0
LWPOLYLINE
  5
3F6
100
AcDbEntity
  8
0
100
AcDbPolyline
 62
250
  6
CONTINUOUS
 90
4
 70
0
 10
10.3451675743
 20
9.3668924871
 10
10.3484684637
 20
9.3640827901
 10
10.3526131318
 20
9.360063875
 10
10.356535027
 20
9.3557455623
  0
LWPOLYLINE
  5
3F7
100
AcDbEntity
  8
0
100
AcDbPolyline
 62
250
  6
CONTINUOUS
 90
16
 70
0
 10
10.356535027
 20
9.3557455623
 10
10.3602269193
 20
9.3511376848
 10
10.3636860854
 20
9.3462456327
 10
10.3669129498
 20
9.3410687846
 10
10.36990353
 20
9.3356115605
 10
10.3726512017
 20
9.3298839268
 10
10.3751516372
 20
9.3238926766
 10
10.3774021556
 20
9.3176406126
 10
10.3793963817
 20
9.311141508
 10
10.3811266588
 20
9.3044207827
 10
10.3825909609
 20
9.2974920451
 10
10.3837888637
 20
9.2903643079
 10
10.3847186004
 20
9.2830589673
 10
10.385380687
 20
9.2755918849
 10
10.3857767573
 20
9.2679724632
 10
10.385908369
 20
9.2602133636
  0
LWPOLYLINE
  5
3F8
100
AcDbEntity
  8
0
100
AcDbPolyline
 62
7
  6
CONTINUOUS
 90
4
 70
0
 10
12.7304054042
 20
15.984052214
 10
12.7302823301
 20
15.9850328684
 10
12.7295511419
 20
15.9863482464
 10
12.7286161845
 20
15.9870762828
  0
LWPOLYLINE
  5
3F9
100
AcDbEntity
  8
RACCORDO
100
AcDbPolyline
 62
250
  6
CONTINUOUS
 90
20
 70
0
 10
13.4418079537
 20
-10.092856089
 10
13.6025141652
 20
-9.6674198856
 10
13.7560871379
 20
-9.1942510892
 10
13.8908923061
 20
-8.7038589958
 10
14.0070109522
 20
-8.1963192193
 10
14.103935841
 20
-7.6738478362
 10
14.1815831177
 20
-7.1363810443
 10
14.2400366371
 20
-6.5839826459
 10
14.2790407281
 20
-6.0190601242
 10
14.2985106334
 20
-5.4415568924
 10
14.2985311104
 20
-4.8515295374
 10
14.2791007602
 20
-4.2515553033
 10
14.2401340095
 20
-3.6415890707
 10
14.1817164316
 20
-3.021675959
 10
14.1041033476
 20
-2.3945285704
 10
14.0072111574
 20
-1.7601184535
 10
13.8911234612
 20
-1.1184740597
 10
13.7563463809
 20
-0.4723933456
 10
13.6027994343
 20
0.1781409819
 10
13.4418079537
 20
0.790350345
  0
LWPOLYLINE
  5
3FA
100
AcDbEntity
  8
0
100
AcDbPolyline
 62
7
  6
CONTINUOUS
 90
12
 70
0
 10
-3.3110765101
 20
-17.5100179414
 10
-3.4673493472
 20
-17.5736756879
 10
-3.6261994342
 20
-17.6322055844
 10
-3.7876623226
 20
-17.6856298396
 10
-3.9516079597
 20
-17.7339074592
 10
-4.1180704185
 20
-17.7770435578
 10
-4.2870225176
 20
-17.8150371587
 10
-4.4582424715
 20
-17.8478382262
 10
-4.6317211352
 20
-17.8754387432
 10
-4.8074743346
 20
-17.8978507529
 10
-4.9853178662
 20
-17.9150543897
 10
-5.0278438993
 20
-17.9178887115
  0
LINE
  5
3FB
100
AcDbEntity
  8
0
100
AcDbLine
 62
7
  6
CONTINUOUS
 10
8.8637127497
 20
18.1268659196
 11
10.4501058599
 21
18.3863852385
  0
LWPOLYLINE
  5
3FC
100
AcDbEntity
  8
0
100
AcDbPolyline
 62
250
  6
CONTINUOUS
 90
27
 70
0
 10
-3.5176186195
 20
17.1204577529
 10
-3.5114980345
 20
17.1200182597
 10
-3.5021532007
 20
17.1198160679
 10
-3.4927916933
 20
17.1201774993
 10
-3.4834346412
 20
17.1211017372
 10
-3.4741031742
 20
17.1225866944
 10
-3.4648183644
 20
17.1246290177
 10
-3.455601178
 20
17.127224095
 10
-3.4464724287
 20
17.1303660664
 10
-3.4374527238
 20
17.1340478397
 10
-3.4285624381
 20
17.1382610988
 10
-3.4198216657
 20
17.1429963187
 10
-3.4112501557
 20
17.1482427956
 10
-3.4028672498
 20
17.1539886852
 10
-3.3946918591
 20
17.1602210234
 10
-3.3867423868
 20
17.1669257879
 10
-3.3790368451
 20
17.1740877942
 10
-3.3715927805
 20
17.1816907129
 10
-3.3644270795
 20
17.1897172406
 10
-3.3575558033
 20
17.1981493275
 10
-3.3509943207
 20
17.2069680909
 10
-3.3447569545
 20
17.2161543778
 10
-3.3388583338
 20
17.2256867449
 10
-3.3333129755
 20
17.2355414333
 10
-3.3281335282
 20
17.2456952237
 10
-3.3233310024
 20
17.2561257374
 10
-3.3189159717
 20
17.2668092763
  0
LINE
  5
3FD
100
AcDbEntity
  8
0
100
AcDbLine
 62
7
  6
CONTINUOUS
 10
-2.9845117064
 20
17.0715183921
 11
-3.5176186195
 21
17.1204577529
  0
LINE
  5
3FE
100
AcDbEntity
  8
0
100
AcDbLine
 62
250
  6
CONTINUOUS
 10
-2.7858090586
 20
17.2178699155
 11
-3.3189159717
 21
17.2668092763
  0
LINE
  5
3FF
100
AcDbEntity
  8
RACCORDO
100
AcDbLine
 62
250
  6
CONTINUOUS
 10
-0.9017895549
 20
18.9151114849
 11
-1.0390404191
 21
18.9705375166
  0
LWPOLYLINE
  5
400
100
AcDbEntity
  8
RACCORDO
100
AcDbPolyline
 62
250
  6
CONTINUOUS
 90
16
 70
0
 10
-0.9017895549
 20
18.9151114775
 10
-0.8628960788
 20
18.8948914785
 10
-0.820555105
 20
18.8771296295
 10
-0.7752305424
 20
18.8620205303
 10
-0.7274189804
 20
18.8497297143
 10
-0.6776442686
 20
18.8403918399
 10
-0.6264517789
 20
18.8341092116
 10
-0.574402396
 20
18.8309506534
 10
-0.5220663865
 20
18.8309507608
 10
-0.4700171719
 20
18.8341095207
 10
-0.4188250136
 20
18.8403923117
 10
-0.3690507746
 20
18.8497302853
 10
-0.3212397891
 20
18.8620211185
 10
-0.2759158713
 20
18.8771301371
 10
-0.2335755773
 20
18.8948917932
 10
-0.1946827737
 20
18.9151114775
  0
LINE
  5
401
100
AcDbEntity
  8
0
100
AcDbLine
 62
7
  6
CONTINUOUS
 10
0.4068572042
 20
17.275768033
 11
-1.2158284557
 21
18.2126863961
  0
LINE
  5
402
100
AcDbEntity
  8
0
100
AcDbLine
 62
7
  6
CONTINUOUS
 10
-3.3262176164
 20
19.4311986481
 11
-3.7790905375
 21
19.6926817969
  0
LINE
  5
403
100
AcDbEntity
  8
RACCORDO
100
AcDbLine
 62
250
  6
CONTINUOUS
 10
0.6660466357
 20
17.4217509472
 11
-0.9017895549
 21
18.3269999141
  0
LINE
  5
404
100
AcDbEntity
  8
0
100
AcDbLine
 62
7
  6
CONTINUOUS
 10
-14.1600417022
 20
26.0633457804
 11
-7.9375020277
 21
22.4705293591
  0
LINE
  5
405
100
AcDbEntity
  8
0
100
AcDbLine
 62
7
  6
CONTINUOUS
 10
1.7498608745
 20
16.8771674305
 11
7.972400549
 21
13.2843510093
  0
LINE
  5
406
100
AcDbEntity
  8
0
100
AcDbLine
 62
7
  6
CONTINUOUS
 10
-18.3496518039
 20
29.0539033388
 11
-17.0945324209
 21
28.3292131373
  0
LINE
  5
407
100
AcDbEntity
  8
0
100
AcDbLine
 62
7
  6
CONTINUOUS
 10
-2.4397492272
 20
19.8677249889
 11
-1.1846298442
 21
19.1430347875
  0
LINE
  5
408
100
AcDbEntity
  8
0
100
AcDbLine
 62
7
  6
CONTINUOUS
 10
12.1620106507
 20
11.4368518384
 11
10.9068912677
 21
12.1615420398
  0
LINE
  5
409
100
AcDbEntity
  8
0
100
AcDbLine
 62
7
  6
CONTINUOUS
 10
-3.747891926
 20
20.6230301883
 11
-5.003011309
 21
21.3477203897
  0
LINE
  5
40A
100
AcDbEntity
  8
RACCORDO
100
AcDbLine
 62
250
  6
CONTINUOUS
 10
1.3818963575
 20
17.8249380213
 11
-0.1946827737
 21
18.7352350525
  0
LINE
  5
40B
100
AcDbEntity
  8
0
100
AcDbLine
 62
7
  6
CONTINUOUS
 10
12.745371322
 20
7.8342245007
 11
13.4047811093
 21
6.6920932472
  0
LWPOLYLINE
  5
40C
100
AcDbEntity
  8
RACCORDO
100
AcDbPolyline
 62
250
  6
CONTINUOUS
 90
3
 70
0
 10
12.7038451555
 20
8.1601334689
 10
13.016915497
 20
7.5671164211
 10
13.3529741276
 20
6.8961342019
  0
LWPOLYLINE
  5
40D
100
AcDbEntity
  8
RACCORDO
100
AcDbPolyline
 62
250
  6
CONTINUOUS
 90
37
 70
0
 10
13.3529741276
 20
6.8961342019
 10
13.6735583555
 20
6.2200896094
 10
13.9782312813
 20
5.5399039284
 10
14.2665776879
 20
4.8565040956
 10
14.5382046021
 20
4.1708214492
 10
14.7927418805
 20
3.4837903268
 10
15.0298426869
 20
2.7963468285
 10
15.249183985
 20
2.109427446
 10
15.450466736
 20
1.4239685703
 10
15.6334164208
 20
0.7409050758
 10
15.7977836699
 20
0.061168197
 10
15.9433446483
 20
-0.6143161944
 10
16.0699011124
 20
-1.2846280625
 10
16.1772806919
 20
-1.9488545916
 10
16.2653369252
 20
-2.6060899771
 10
16.3339496839
 20
-3.2554371685
 10
16.3830254917
 20
-3.8960096843
 10
16.4124978035
 20
-4.5269363749
 10
16.4223265841
 20
-5.1473609978
 10
16.4124981618
 20
-5.7564402501
 10
16.3830256517
 20
-6.3533416444
 10
16.3339493468
 20
-6.9372483577
 10
16.2653364731
 20
-7.507363198
 10
16.1772805498
 20
-8.062911001
 10
16.0699013831
 20
-8.6031362542
 10
15.9433451467
 20
-9.1273032326
 10
15.7977843616
 20
-9.6346971181
 10
15.6334173636
 20
-10.1246264326
 10
15.4504681308
 20
-10.5964234706
 10
15.2491859317
 20
-11.0494453243
 10
15.0298449762
 20
-11.4830747276
 10
14.7927440225
 20
-11.8967208925
 10
14.5382062269
 20
-12.2898198985
 10
14.2665787082
 20
-12.6618356392
 10
13.9782316939
 20
-13.0122611133
 10
13.6735580884
 20
-13.3406188796
 10
13.4418079537
 20
-13.5617117914
  0
LINE
  5
40E
100
AcDbEntity
  8
DRAFT
100
AcDbLine
 62
7
  6
CONTINUOUS
 10
17.8011848075
 20
13.6665569156
 11
17.8011848075
 21
13.2438470804
  0
LINE
  5
40F
100
AcDbEntity
  8
DRAFT
100
AcDbLine
 62
7
  6
CONTINUOUS
 10
17.8011848075
 20
-18.9250818253
 11
17.8011848075
 21
-19.9832236672
  0
LINE
  5
410
100
AcDbEntity
  8
0
100
AcDbLine
 62
250
  6
CONTINUOUS
 10
17.9958482673
 20
-20.8705001361
 11
17.9958482673
 21
-20.4932686905
  0
LINE
  5
411
100
AcDbEntity
  8
0
100
AcDbLine
 62
250
  6
CONTINUOUS
 10
17.9958482673
 20
13.7849430232
 11
17.9958482673
 21
14.1621744688
  0
LINE
  5
412
100
AcDbEntity
  8
0
100
AcDbLine
 62
7
  6
CONTINUOUS
 10
18.1361783672
 20
-20.7859890615
 11
18.1361783672
 21
-20.2951821444
  0
LINE
  5
413
100
AcDbEntity
  8
0
100
AcDbLine
 62
7
  6
CONTINUOUS
 10
18.1361783672
 20
13.9879435141
 11
18.1361783672
 21
14.4787504311
  0
LWPOLYLINE
  5
414
100
AcDbEntity
  8
RACCORDO
100
AcDbPolyline
 62
7
  6
CONTINUOUS
 90
41
 70
0
 10
18.5617730254
 20
-10.8106790274
 10
18.6954178961
 20
-10.7314245087
 10
19.106798571
 20
-10.4603583074
 10
19.4988044495
 20
-10.1596903603
 10
19.8713344365
 20
-9.8292661727
 10
20.2244896272
 20
-9.4692402392
 10
20.556429843
 20
-9.0814878286
 10
20.8670443829
 20
-8.6658642271
 10
21.1564439479
 20
-8.2225141484
 10
21.4231204635
 20
-7.7537470031
 10
21.6669553547
 20
-7.2594301238
 10
21.8880671964
 20
-6.7396961778
 10
22.0853036391
 20
-6.1972525779
 10
22.2585400899
 20
-5.6319807804
 10
22.4079011416
 20
-5.043999329
 10
22.5326082235
 20
-4.4363712671
 10
22.6325326686
 20
-3.8089939135
 10
22.7078031439
 20
-3.1619699494
 10
22.7580270797
 20
-2.4986704622
 10
22.7830736193
 20
-1.8190098378
 10
22.7830736193
 20
-1.1230736903
 10
22.7580270797
 20
-0.4144899498
 10
22.7078031439
 20
0.3068068795
 10
22.6325326686
 20
1.0407513017
 10
22.5326082235
 20
1.7835188999
 10
22.4079011416
 20
2.5351555741
 10
22.2585400899
 20
3.2956154241
 10
22.0853036391
 20
4.0609363326
 10
21.8880671964
 20
4.8311436327
 10
21.6669553547
 20
5.6062119912
 10
21.4231204635
 20
6.3821032909
 10
21.1564439479
 20
7.1588217919
 10
20.8670443829
 20
7.9363632342
 10
20.556429843
 20
8.7106767205
 10
20.2244896272
 20
9.481745372
 10
19.8713344365
 20
10.2495860675
 10
19.4988044495
 20
11.0101985464
 10
19.106798571
 20
11.763545056
 10
18.6954178961
 20
12.509663349
 10
18.2668058882
 20
13.2446664225
 10
17.9509834796
 20
13.757302962
  0
LINE
  5
415
100
AcDbEntity
  8
0
100
AcDbLine
 62
7
  6
CONTINUOUS
 10
18.5618021455
 20
-10.8107294522
 11
13.4418079537
 21
-13.7669499299
  0
LINE
  5
416
100
AcDbEntity
  8
0
100
AcDbLine
 62
7
  6
CONTINUOUS
 10
18.6118045615
 20
-10.8973305976
 11
25.8242937296
 21
-6.7329297457
  0
LWPOLYLINE
  5
417
100
AcDbEntity
  8
0
100
AcDbPolyline
 62
7
  6
CONTINUOUS
 90
4
 70
0
 10
18.6118045613
 20
-10.8973305973
 10
18.1546980239
 20
-11.1385782863
 10
17.6786000646
 20
-11.34578807
 10
17.5684010497
 20
-11.3843067946
  0
LWPOLYLINE
  5
418
100
AcDbEntity
  8
0
100
AcDbPolyline
 62
250
  6
CONTINUOUS
 90
27
 70
0
 10
-6.0808807013
 20
18.6004531537
 10
-6.0747601163
 20
18.6000136605
 10
-6.0654152825
 20
18.5998114687
 10
-6.0560537751
 20
18.6001729001
 10
-6.046696723
 20
18.601097138
 10
-6.037365256
 20
18.6025820952
 10
-6.0280804462
 20
18.6046244185
 10
-6.0188632598
 20
18.6072194958
 10
-6.0097345105
 20
18.6103614672
 10
-6.0007148057
 20
18.6140432405
 10
-5.9918245199
 20
18.6182564996
 10
-5.9830837475
 20
18.6229917196
 10
-5.9745122375
 20
18.6282381964
 10
-5.9661293316
 20
18.633984086
 10
-5.9579539409
 20
18.6402164242
 10
-5.9500044686
 20
18.6469211887
 10
-5.9422989269
 20
18.654083195
 10
-5.9348548623
 20
18.6616861137
 10
-5.9276891613
 20
18.6697126414
 10
-5.9208178851
 20
18.6781447283
 10
-5.9142564025
 20
18.6869634917
 10
-5.9080190363
 20
18.6961497786
 10
-5.9021204156
 20
18.7056821457
 10
-5.8965750573
 20
18.7155368341
 10
-5.89139561
 20
18.7256906245
 10
-5.8865930842
 20
18.7361211382
 10
-5.8821780535
 20
18.7468046771
  0
LINE
  5
419
100
AcDbEntity
  8
0
100
AcDbLine
 62
7
  6
CONTINUOUS
 10
-5.5477737882
 20
18.5515137929
 11
-6.0808807013
 21
18.6004531537
  0
LINE
  5
41A
100
AcDbEntity
  8
0
100
AcDbLine
 62
250
  6
CONTINUOUS
 10
-5.3490711404
 20
18.6978653163
 11
-5.8821780535
 21
18.7468046771
  0
LWPOLYLINE
  5
41B
100
AcDbEntity
  8
RACCORDO
100
AcDbPolyline
 62
250
  6
CONTINUOUS
 90
3
 70
0
 10
-3.0439948657
 20
19.5975812129
 10
-3.1835922202
 20
19.6276139404
 10
-3.2956438273
 20
19.6490377569
  0
LWPOLYLINE
  5
41C
100
AcDbEntity
  8
RACCORDO
100
AcDbPolyline
 62
250
  6
CONTINUOUS
 90
5
 70
0
 10
0.1126777116
 20
20.7828385518
 10
-0.158657091
 20
20.8951846901
 10
-0.4264022804
 20
21.0000682887
 10
-0.6904887459
 20
21.0976503726
 10
-0.8840540096
 20
21.1648927958
  0
LWPOLYLINE
  5
41D
100
AcDbEntity
  8
RACCORDO
100
AcDbPolyline
 62
250
  6
CONTINUOUS
 90
19
 70
0
 10
0.1126777116
 20
20.7828385518
 10
0.1459751161
 20
20.7668407509
 10
0.1793877064
 20
20.7471324112
 10
0.2126170329
 20
20.7238895727
 10
0.2453662828
 20
20.6973198462
 10
0.2773429318
 20
20.6676605591
 10
0.3082613565
 20
20.6351766356
 10
0.3378453858
 20
20.6001582303
 10
0.3658307679
 20
20.5629181362
 10
0.3919675303
 20
20.5237889911
 10
0.4160222129
 20
20.4831203064
 10
0.4377799534
 20
20.4412753449
 10
0.4570464061
 20
20.3986278763
 10
0.4736494782
 20
20.3555588382
 10
0.4874408671
 20
20.3124529342
 10
0.4982973846
 20
20.269695197
 10
0.5061220575
 20
20.2276675492
 10
0.5108449939
 20
20.1867453924
 10
0.5124240075
 20
20.1472942534
  0
LWPOLYLINE
  5
41E
100
AcDbEntity
  8
0
100
AcDbPolyline
 62
7
  6
CONTINUOUS
 90
18
 70
0
 10
12.7286161845
 20
15.9870762828
 10
12.7281873838
 20
15.9872979091
 10
12.7262164205
 20
15.9879061481
 10
12.7236633864
 20
15.9881831652
 10
12.720556009
 20
15.988142421
 10
12.7169203163
 20
15.987811663
 10
12.7127846197
 20
15.9871983546
 10
12.7081747345
 20
15.9863123806
 10
12.7031105082
 20
15.9851840599
 10
12.6976161821
 20
15.9838193491
 10
12.6917170436
 20
15.9822249379
 10
12.6854309088
 20
15.9804317398
 10
12.6787890151
 20
15.9784486261
 10
12.6718070733
 20
15.9762750918
 10
12.6644721158
 20
15.9739292343
 10
12.6567981958
 20
15.9714189867
 10
12.6488047986
 20
15.9687455405
 10
12.6318177137
 20
15.9629496866
  0
LWPOLYLINE
  5
41F
100
AcDbEntity
  8
0
100
AcDbPolyline
 62
7
  6
CONTINUOUS
 90
18
 70
0
 10
7.1261839919
 20
19.2218503596
 10
7.1258465219
 20
19.2220287371
 10
7.1239142018
 20
19.2226543717
 10
7.1214011607
 20
19.2229495885
 10
7.1183348212
 20
19.2229278232
 10
7.1147410605
 20
19.2226163822
 10
7.1106478922
 20
19.2220226509
 10
7.1060809589
 20
19.2211566048
 10
7.1010603323
 20
19.2200483551
 10
7.095610165
 20
19.2187037572
 10
7.0897556378
 20
19.2171295983
 10
7.0835149859
 20
19.215356834
 10
7.0769193845
 20
19.2133941748
 10
7.0699846073
 20
19.2112412275
 10
7.0626984974
 20
19.2089164623
 10
7.055075582
 20
19.206427824
 10
7.0471350845
 20
19.2037763168
 10
7.0302585926
 20
19.1980253977
  0
LINE
  5
420
100
AcDbEntity
  8
0
100
AcDbLine
 62
7
  6
CONTINUOUS
 10
-9.5360600683
 20
28.6775514916
 11
-8.9638918745
 21
28.3471887474
  0
LINE
  5
421
100
AcDbEntity
  8
0
100
AcDbLine
 62
7
  6
CONTINUOUS
 10
-3.9338590305
 20
25.4429108244
 11
-3.3616908366
 21
25.1125480803
  0
LINE
  5
422
100
AcDbEntity
  8
0
100
AcDbLine
 62
7
  6
CONTINUOUS
 10
6.3738425084
 20
19.4913731417
 11
6.9460107022
 21
19.1610103976
  0
LINE
  5
423
100
AcDbEntity
  8
0
100
AcDbLine
 62
7
  6
CONTINUOUS
 10
11.9760435462
 20
16.2567324746
 11
12.5482117401
 21
15.9263697304
  0
LINE
  5
424
100
AcDbEntity
  8
0
100
AcDbLine
 62
7
  6
CONTINUOUS
 10
12.7338221289
 20
15.8923132679
 11
12.7304054042
 21
15.8942860419
  0
LINE
  5
425
100
AcDbEntity
  8
0
100
AcDbLine
 62
7
  6
CONTINUOUS
 10
12.0481341012
 20
16.2882209414
 11
8.8637127497
 21
18.1268659196
  0
LINE
  5
426
100
AcDbEntity
  8
0
100
AcDbLine
 62
7
  6
CONTINUOUS
 10
-3.1760804478
 20
25.0784916178
 11
-3.1794971725
 21
25.0804643918
  0
LINE
  5
427
100
AcDbEntity
  8
0
100
AcDbLine
 62
7
  6
CONTINUOUS
 10
-3.8617684755
 20
25.4743992913
 11
-7.046189827
 21
27.3130442695
  0
LINE
  5
428
100
AcDbEntity
  8
0
100
AcDbLine
 62
7
  6
CONTINUOUS
 10
-9.223845113
 20
28.6621539403
 11
-8.7837184908
 21
28.4080303447
  0
LINE
  5
429
100
AcDbEntity
  8
0
100
AcDbLine
 62
7
  6
CONTINUOUS
 10
-3.6248139624
 20
25.429325567
 11
-3.1812863013
 21
25.1732562135
  0
LINE
  5
42A
100
AcDbEntity
  8
0
100
AcDbLine
 62
7
  6
CONTINUOUS
 10
6.6860574637
 20
19.4759755904
 11
7.1261840859
 21
19.2218519948
  0
LINE
  5
42B
100
AcDbEntity
  8
0
100
AcDbLine
 62
7
  6
CONTINUOUS
 10
12.2850886143
 20
16.2431472172
 11
12.7286162754
 21
15.9870778636
  0
LWPOLYLINE
  5
42C
100
AcDbEntity
  8
0
100
AcDbPolyline
 62
7
  6
CONTINUOUS
 90
40
 70
0
 10
12.5445287908
 20
15.6994880138
 10
12.5536170932
 20
15.6825198727
 10
12.5622849267
 20
15.6654374068
 10
12.5705322913
 20
15.6482406162
 10
12.5783701126
 20
15.6309037803
 10
12.585787465
 20
15.6134526196
 10
12.5927515721
 20
15.5959642963
 10
12.5992604278
 20
15.5784386476
 10
12.6053160384
 20
15.5608758362
 10
12.6108916461
 20
15.5433535126
 10
12.6159851267
 20
15.5258718572
 10
12.6205986046
 20
15.5084306895
 10
12.6247116953
 20
15.4911071185
 10
12.6283221844
 20
15.4739016655
 10
12.6314322863
 20
15.4568138092
 10
12.6340282596
 20
15.4399190947
 10
12.6361078292
 20
15.4232183774
 10
12.6376732702
 20
15.4067108019
 10
12.638717666
 20
15.390469348
 10
12.6392387112
 20
15.3744951934
 10
12.6392387112
 20
15.3587871605
 10
12.638717666
 20
15.3434146958
 10
12.6376732702
 20
15.3283792841
 10
12.6361078292
 20
15.3136794406
 10
12.6340282596
 20
15.2993801581
 10
12.6314322863
 20
15.2854832085
 10
12.6283221844
 20
15.2719868199
 10
12.6247116953
 20
15.2589506693
 10
12.6205986046
 20
15.2463767923
 10
12.6159851267
 20
15.2342631532
 10
12.6108916461
 20
15.2226633215
 10
12.6053160384
 20
15.21157957
 10
12.5992604278
 20
15.2010096258
 10
12.5927515721
 20
15.1910002405
 10
12.585787465
 20
15.1815538936
 10
12.5783701126
 20
15.1726681056
 10
12.5705322913
 20
15.1643821891
 10
12.5622849267
 20
15.1567092485
 10
12.5536170932
 20
15.1496361795
 10
12.5445287908
 20
15.1431629821
  0
LWPOLYLINE
  5
42D
100
AcDbEntity
  8
0
100
AcDbPolyline
 62
7
  6
CONTINUOUS
 90
19
 70
0
 10
22.8569982929
 20
-1.5137249441
 10
22.8429833463
 20
-2.2380198166
 10
22.8016458033
 20
-2.9423855387
 10
22.7329856639
 20
-3.6268221104
 10
22.6367685072
 20
-4.2925549663
 10
22.5132287541
 20
-4.9383586719
 10
22.3630696674
 20
-5.5605569227
 10
22.1861394257
 20
-6.1590150868
 10
21.9825898505
 20
-6.7338677962
 10
21.7535796686
 20
-7.2818426425
 10
21.4989636675
 20
-7.8027863296
 10
21.2188870597
 20
-8.2968521536
 10
20.9149442104
 20
-8.7612275937
 10
20.5869990001
 20
-9.1957433129
 10
20.2351875483
 20
-9.6005686483
 10
19.861512578
 20
-9.9733990897
 10
19.4658493921
 20
-10.3140521566
 10
19.0483226877
 20
-10.6227103296
 10
18.6118045613
 20
-10.8973305973
  0
LINE
  5
42E
100
AcDbEntity
  8
0
100
AcDbLine
 62
7
  6
CONTINUOUS
 10
-9.4788687302
 20
21.7392900668
 11
-9.503678768
 21
21.7337639503
  0
LINE
  5
42F
100
AcDbEntity
  8
0
100
AcDbLine
 62
7
  6
CONTINUOUS
 10
-9.5738797687
 20
21.7178499136
 11
-9.6065078679
 21
21.7105725556
  0
LWPOLYLINE
  5
430
100
AcDbEntity
  8
0
100
AcDbPolyline
 62
7
  6
CONTINUOUS
 90
3
 70
0
 10
-9.6065078679
 20
21.7105725556
 10
-9.627306
 20
21.7060740361
 10
-9.637409556
 20
21.7039413316
  0
LWPOLYLINE
  5
431
100
AcDbEntity
  8
0
100
AcDbPolyline
 62
7
  6
CONTINUOUS
 90
8
 70
0
 10
-9.637409556
 20
21.7039413316
 10
-9.6570186184
 20
21.6999436172
 10
-9.6665159735
 20
21.6980813085
 10
-9.6758095726
 20
21.696322183
 10
-9.6848874246
 20
21.6946612837
 10
-9.6937463212
 20
21.6931024212
 10
-9.7023923641
 20
21.6916579617
 10
-9.7108274816
 20
21.6903354627
  0
LWPOLYLINE
  5
432
100
AcDbEntity
  8
0
100
AcDbPolyline
 62
7
  6
CONTINUOUS
 90
14
 70
0
 10
-9.2878607653
 20
21.7718663516
 10
-9.3022820134
 20
21.7705321588
 10
-9.3166381091
 20
21.7689056008
 10
-9.3309073324
 20
21.7670387104
 10
-9.3450703104
 20
21.7649983748
 10
-9.3591137429
 20
21.7628171145
 10
-9.3730285744
 20
21.7604865457
 10
-9.3868035486
 20
21.7580410108
 10
-9.4004309824
 20
21.7555205891
 10
-9.413907442
 20
21.7529133821
 10
-9.4272262872
 20
21.7502456061
 10
-9.4403834576
 20
21.74754844
 10
-9.4533782863
 20
21.7448091546
 10
-9.4788687302
 20
21.7392900668
  0
LWPOLYLINE
  5
433
100
AcDbEntity
  8
0
100
AcDbPolyline
 62
7
  6
CONTINUOUS
 90
18
 70
0
 10
-3.1812863922
 20
25.1732546327
 10
-3.1817151929
 20
25.173476259
 10
-3.1836861562
 20
25.174084498
 10
-3.1862391902
 20
25.1743615151
 10
-3.1893465677
 20
25.1743207708
 10
-3.1929822604
 20
25.1739900129
 10
-3.197117957
 20
25.1733767045
 10
-3.2017278422
 20
25.1724907305
 10
-3.2067920685
 20
25.1713624098
 10
-3.2122863946
 20
25.169997699
 10
-3.2181855331
 20
25.1684032878
 10
-3.2244716679
 20
25.1666100897
 10
-3.2311135616
 20
25.164626976
 10
-3.2380955034
 20
25.1624534416
 10
-3.2454304609
 20
25.1601075842
 10
-3.2531043809
 20
25.1575973366
 10
-3.2610977781
 20
25.1549238904
 10
-3.278084863
 20
25.1491280364
  0
LWPOLYLINE
  5
434
100
AcDbEntity
  8
0
100
AcDbPolyline
 62
7
  6
CONTINUOUS
 90
18
 70
0
 10
-8.7837185848
 20
28.4080287095
 10
-8.7840560548
 20
28.408207087
 10
-8.7859883749
 20
28.4088327215
 10
-8.788501416
 20
28.4091279384
 10
-8.7915677555
 20
28.409106173
 10
-8.7951615162
 20
28.4087947321
 10
-8.7992546845
 20
28.4082010008
 10
-8.8038216178
 20
28.4073349547
 10
-8.8088422444
 20
28.4062267049
 10
-8.8142924117
 20
28.404882107
 10
-8.8201469389
 20
28.4033079482
 10
-8.8263875908
 20
28.4015351839
 10
-8.8329831922
 20
28.3995725247
 10
-8.8399179694
 20
28.3974195774
 10
-8.8472040793
 20
28.3950948122
 10
-8.8548269947
 20
28.3926061739
 10
-8.8627674922
 20
28.3899546667
 10
-8.8796439841
 20
28.3842037476
  0
LINE
  5
435
100
AcDbEntity
  8
0
100
AcDbLine
 62
7
  6
CONTINUOUS
 10
-5.4597967168
 20
27.5725635884
 11
-2.1432564743
 21
25.6576348184
  0
LINE
  5
436
100
AcDbEntity
  8
0
100
AcDbLine
 62
7
  6
CONTINUOUS
 10
10.4501058599
 20
18.3863852385
 11
13.7666461024
 21
16.4714564685
  0
LINE
  5
437
100
AcDbEntity
  8
0
100
AcDbLine
 62
250
  6
CONTINUOUS
 10
-9.0934263791
 20
30.0720274505
 11
-6.1566548135
 21
28.3763723549
  0
LINE
  5
438
100
AcDbEntity
  8
0
100
AcDbLine
 62
250
  6
CONTINUOUS
 10
-1.7905257781
 20
25.8554241703
 11
1.1462457876
 21
24.1597690747
  0
LINE
  5
439
100
AcDbEntity
  8
0
100
AcDbLine
 62
250
  6
CONTINUOUS
 10
6.8164761976
 20
20.8858491006
 11
9.7532477632
 21
19.190194005
  0
LINE
  5
43A
100
AcDbEntity
  8
0
100
AcDbLine
 62
250
  6
CONTINUOUS
 10
14.1193767986
 20
16.6692458204
 11
17.0561483643
 21
14.9735907248
  0
LINE
  5
43B
100
AcDbEntity
  8
0
100
AcDbLine
 62
7
  6
CONTINUOUS
 10
-8.7985145973
 20
30.2352612982
 11
-5.6650721552
 21
28.4260509034
  0
LINE
  5
43C
100
AcDbEntity
  8
0
100
AcDbLine
 62
7
  6
CONTINUOUS
 10
-1.2902876307
 20
25.9001051479
 11
1.8431548114
 21
24.090894753
  0
LINE
  5
43D
100
AcDbEntity
  8
0
100
AcDbLine
 62
7
  6
CONTINUOUS
 10
7.1113879794
 20
21.0490829483
 11
10.2448304215
 21
19.2398725535
  0
LINE
  5
43E
100
AcDbEntity
  8
0
100
AcDbLine
 62
7
  6
CONTINUOUS
 10
14.619614946
 20
16.713926798
 11
17.7530573881
 21
14.9047164032
  0
LINE
  5
43F
100
AcDbEntity
  8
0
100
AcDbLine
 62
7
  6
CONTINUOUS
 10
6.8763850381
 20
22.8179809857
 11
8.8305641029
 21
21.6896624853
  0
LWPOLYLINE
  5
440
100
AcDbEntity
  8
RACCORDO
100
AcDbPolyline
 62
7
  6
CONTINUOUS
 90
13
 70
0
 10
16.8427716882
 20
15.4303039578
 10
16.3868471394
 20
16.0620782775
 10
15.8791507994
 20
16.7302311133
 10
15.3592814289
 20
17.3800751522
 10
14.8271755209
 20
18.0115148268
 10
14.2828965825
 20
18.6246457045
 10
13.729280253
 20
19.2162738097
 10
13.1662046538
 20
19.7863402866
 10
12.5937916636
 20
20.334903991
 10
12.0152425572
 20
20.8589475151
 10
11.431624426
 20
21.3574650562
 10
10.8418701787
 20
21.8314624169
 10
10.245979815
 20
22.2809395973
  0
LWPOLYLINE
  5
441
100
AcDbEntity
  8
0
100
AcDbPolyline
 62
7
  6
CONTINUOUS
 90
21
 70
0
 10
17.9998389177
 20
13.7874528661
 10
18.1546980239
 20
13.5412268813
 10
18.6113092786
 20
12.7729819036
 10
19.0483226877
 20
11.9934235624
 10
19.4658493921
 20
11.2026160169
 10
19.861512578
 20
10.4050610205
 10
20.2351875483
 20
9.6007200898
 10
20.5869990001
 20
8.7896317084
 10
20.9149442104
 20
7.9764130806
 10
21.2188870597
 20
7.1610520567
 10
21.4989636675
 20
6.3435607865
 10
21.7535796686
 20
5.5285929234
 10
21.9825898505
 20
4.7161628595
 10
22.1861394257
 20
3.9062562027
 10
22.3630696674
 20
3.1034834304
 10
22.5132287541
 20
2.3078852302
 10
22.6367685072
 20
1.5194209143
 10
22.7329856639
 20
0.7425788976
 10
22.8016458033
 20
-0.021144682
 10
22.8429833463
 20
-0.7732459626
 10
22.8569982929
 20
-1.5137249441
  0
LWPOLYLINE
  5
442
100
AcDbEntity
  8
0
100
AcDbPolyline
 62
250
  6
CONTINUOUS
 90
25
 70
0
 10
9.7634874998
 20
-29.3107151621
 10
9.7569061108
 20
-29.3191261059
 10
9.7505018638
 20
-29.3277636355
 10
9.7442871766
 20
-29.3366116572
 10
9.7382734055
 20
-29.3456547665
 10
9.732473065
 20
-29.3548749352
 10
9.7268995305
 20
-29.3642513392
 10
9.7215639169
 20
-29.3737653699
 10
9.716475983
 20
-29.3833997193
 10
9.7116460627
 20
-29.3931348846
 10
9.7070835958
 20
-29.4029517395
 10
9.7027969604
 20
-29.4128321521
 10
9.6987940878
 20
-29.4227578488
 10
9.6950825067
 20
-29.4327102681
 10
9.691669454
 20
-29.4426701206
 10
9.6885615967
 20
-29.4526179704
 10
9.6857648923
 20
-29.4625346729
 10
9.6832845869
 20
-29.4724015431
 10
9.6811253621
 20
-29.4821999232
 10
9.6792913179
 20
-29.4919112087
 10
9.6777859581
 20
-29.5015168493
 10
9.6766121507
 20
-29.5109985164
 10
9.6757721257
 20
-29.5203381438
 10
9.6752674746
 20
-29.52951796
 10
9.6750991522
 20
-29.5385204866
  0
LINE
  5
443
100
AcDbEntity
  8
0
100
AcDbLine
 62
250
  6
CONTINUOUS
 10
9.7634874998
 20
-29.3107151621
 11
10.2965944129
 21
-28.6525705218
  0
LINE
  5
444
100
AcDbEntity
  8
DRAFT
100
AcDbLine
 62
7
  6
CONTINUOUS
 10
17.8011848075
 20
-18.9250818253
 11
13.4418079537
 21
-20.591074524
  0
LINE
  5
445
100
AcDbEntity
  8
DRAFT
100
AcDbLine
 62
7
  6
CONTINUOUS
 10
17.2354993825
 20
-18.5984621506
 11
13.4418079537
 21
-20.0165029089
  0
LWPOLYLINE
  5
446
100
AcDbEntity
  8
0
100
AcDbPolyline
 62
7
  6
CONTINUOUS
 90
31
 70
0
 10
-0.2355337235
 20
25.291103461
 10
0.0466394981
 20
25.3670222694
 10
0.5731625443
 20
25.469238247
 10
1.1134647715
 20
25.535940824
 10
1.6676247682
 20
25.5669274523
 10
2.2355639459
 20
25.5624006801
 10
2.8140492521
 20
25.5223862763
 10
3.403140836
 20
25.4466818401
 10
4.0027785485
 20
25.3354897723
 10
4.6095488898
 20
25.1894430454
 10
5.2234925406
 20
25.0083428683
 10
5.8445688202
 20
24.7923880322
 10
6.469242188
 20
24.5428078821
 10
7.0975331595
 20
24.2594106385
 10
7.7294212191
 20
23.9423880811
 10
8.3613092786
 20
23.5935448933
 10
8.9931973382
 20
23.2126995887
 10
9.6250853978
 20
22.8000336538
 10
10.2533763693
 20
22.3578962321
 10
10.878049737
 20
21.8861192352
 10
11.4991260167
 20
21.3848707514
 10
12.1130696674
 20
20.8570041896
 10
12.7198400088
 20
20.3023677355
 10
13.3194777212
 20
19.7211132034
 10
13.9085693051
 20
19.1165494447
 10
14.4870546114
 20
18.4885435171
 10
15.0549937891
 20
17.8372283628
 10
15.6091537858
 20
17.1663116608
 10
16.149456013
 20
16.475681615
 10
16.6759790591
 20
15.7654500215
 10
16.9581522808
 20
15.3636846497
  0
LINE
  5
447
100
AcDbEntity
  8
0
100
AcDbLine
 62
7
  6
CONTINUOUS
 10
-9.503678768
 20
21.7337639503
 11
-9.5738797687
 21
21.7178499136
  0
LWPOLYLINE
  5
448
100
AcDbEntity
  8
0
100
AcDbPolyline
 62
250
  6
CONTINUOUS
 90
27
 70
0
 10
-19.4275211962
 20
26.3066361027
 10
-19.4214006112
 20
26.3061966096
 10
-19.4120557774
 20
26.3059944178
 10
-19.40269427
 20
26.3063558492
 10
-19.3933372179
 20
26.3072800871
 10
-19.3840057509
 20
26.3087650443
 10
-19.3747209411
 20
26.3108073675
 10
-19.3655037547
 20
26.3134024449
 10
-19.3563750054
 20
26.3165444163
 10
-19.3473553005
 20
26.3202261895
 10
-19.3384650148
 20
26.3244394487
 10
-19.3297242424
 20
26.3291746686
 10
-19.3211527324
 20
26.3344211455
 10
-19.3127698265
 20
26.3401670351
 10
-19.3045944358
 20
26.3463993732
 10
-19.2966449635
 20
26.3531041378
 10
-19.2889394218
 20
26.3602661441
 10
-19.2814953572
 20
26.3678690628
 10
-19.2743296562
 20
26.3758955905
 10
-19.26745838
 20
26.3843276774
 10
-19.2608968974
 20
26.3931464408
 10
-19.2546595312
 20
26.4023327277
 10
-19.2487609105
 20
26.4118650948
 10
-19.2432155522
 20
26.4217197832
 10
-19.2380361049
 20
26.4318735736
 10
-19.2332335791
 20
26.4423040872
 10
-19.2288185484
 20
26.4529876261
  0
LINE
  5
449
100
AcDbEntity
  8
0
100
AcDbLine
 62
7
  6
CONTINUOUS
 10
-18.8944142831
 20
26.2576967419
 11
-18.894451604
 21
26.2577001726
  0
LINE
  5
44A
100
AcDbEntity
  8
0
100
AcDbLine
 62
7
  6
CONTINUOUS
 10
-18.8944142831
 20
26.2576967419
 11
-19.4275211962
 21
26.3066361027
  0
LINE
  5
44B
100
AcDbEntity
  8
0
100
AcDbLine
 62
250
  6
CONTINUOUS
 10
-18.6957116353
 20
26.4040482653
 11
-19.2288185484
 21
26.4529876261
  0
LWPOLYLINE
  5
44C
100
AcDbEntity
  8
RACCORDO
100
AcDbPolyline
 62
7
  6
CONTINUOUS
 90
13
 70
0
 10
6.4766387422
 20
24.4573098918
 10
5.8807483786
 20
24.6959519668
 10
5.2909941312
 20
24.9029880282
 10
4.7073760001
 20
25.078418076
 10
4.1288268936
 20
25.2224685583
 10
3.5564139034
 20
25.3349130269
 10
2.9933383043
 20
25.4150721379
 10
2.4397219747
 20
25.4627462931
 10
1.8954430363
 20
25.4781350908
 10
1.3633371284
 20
25.4611579809
 10
0.8434677579
 20
25.4116460601
 10
0.3357714179
 20
25.3297682318
 10
-0.1201531309
 20
25.2244841529
  0
LWPOLYLINE
  5
44D
100
AcDbEntity
  8
RACCORDO
100
AcDbPolyline
 62
7
  6
CONTINUOUS
 90
19
 70
0
 10
6.4766387422
 20
24.4573098918
 10
6.5104290709
 20
24.4409673383
 10
6.5437421778
 20
24.4213176785
 10
6.5765780628
 20
24.3983609123
 10
6.6092198056
 20
24.3718344748
 10
6.6413843266
 20
24.342000931
 10
6.6722223865
 20
24.3096479753
 10
6.7016986518
 20
24.274708497
 10
6.7298484561
 20
24.2372496067
 10
6.7559285605
 20
24.1982603309
 10
6.7798838338
 20
24.157699904
 10
6.8017694072
 20
24.1156090914
 10
6.8210074365
 20
24.0730992162
 10
6.8375273979
 20
24.0301591154
 10
6.8513998152
 20
23.986799952
 10
6.8622584152
 20
23.9441665369
 10
6.8699811068
 20
23.902640474
 10
6.8746899811
 20
23.8618401595
 10
6.8763850381
 20
23.8217655933
  0
LWPOLYLINE
  5
44E
100
AcDbEntity
  8
0
100
AcDbPolyline
 62
250
  6
CONTINUOUS
 90
28
 70
0
 10
10.5608314363
 20
-28.8809088749
 10
10.5725355912
 20
-28.8661200321
 10
10.5839590461
 20
-28.850971369
 10
10.5951018008
 20
-28.8354628854
 10
10.6059900944
 20
-28.8195593339
 10
10.6165976878
 20
-28.803295962
 10
10.6268458645
 20
-28.7867785119
 10
10.6367284433
 20
-28.7700064599
 10
10.6462516054
 20
-28.7529803296
 10
10.6553551773
 20
-28.7358074345
 10
10.6640303756
 20
-28.7184970299
 10
10.6722859837
 20
-28.7010398605
 10
10.6800881793
 20
-28.6835154739
 10
10.6874322531
 20
-28.6659334328
 10
10.6943229143
 20
-28.6482841744
 10
10.7007404674
 20
-28.6306185584
 10
10.7066875237
 20
-28.6129279855
 10
10.7121614719
 20
-28.5952210551
 10
10.7171347827
 20
-28.5775744247
 10
10.7216070589
 20
-28.5599735701
 10
10.7255786975
 20
-28.5424330156
 10
10.7290233609
 20
-28.5250729922
 10
10.7319336933
 20
-28.507900681
 10
10.7343170504
 20
-28.4909089008
 10
10.7361691608
 20
-28.4741963399
 10
10.7374886007
 20
-28.4577958944
 10
10.738276794
 20
-28.4416746681
 10
10.7385337407
 20
-28.425832661
  0
LINE
  5
44F
100
AcDbEntity
  8
0
100
AcDbLine
 62
250
  6
CONTINUOUS
 10
10.0277245232
 20
-29.5390535152
 11
10.5608314363
 21
-28.8809088749
  0
LINE
  5
450
100
AcDbEntity
  8
0
100
AcDbLine
 62
7
  6
CONTINUOUS
 10
12.0029092017
 20
-24.3960560677
 11
13.4418079537
 21
-23.3058283226
  0
LINE
  5
451
100
AcDbEntity
  8
0
100
AcDbLine
 62
7
  6
CONTINUOUS
 10
17.9958482673
 20
-20.8705001361
 11
13.4047811093
 21
-23.5879209593
  0
LINE
  5
452
100
AcDbEntity
  8
0
100
AcDbLine
 62
7
  6
CONTINUOUS
 10
17.9958482673
 20
-20.4932686905
 11
13.4418079537
 21
-23.1694350807
  0
LWPOLYLINE
  5
453
100
AcDbEntity
  8
0
100
AcDbPolyline
 62
250
  6
CONTINUOUS
 90
40
 70
0
 10
5.8241202516
 20
-29.4673658901
 10
5.8095350947
 20
-29.4758469102
 10
5.7944221414
 20
-29.4839850746
 10
5.7788053639
 20
-29.4917674746
 10
5.7627095335
 20
-29.4991817658
 10
5.7461601811
 20
-29.5062161877
 10
5.7291835574
 20
-29.5128595823
 10
5.7118065904
 20
-29.519101412
 10
5.6940568435
 20
-29.524931776
 10
5.6759624711
 20
-29.5303414261
 10
5.6575521745
 20
-29.5353217818
 10
5.6388551559
 20
-29.539864943
 10
5.6199010725
 20
-29.5439637036
 10
5.600719989
 20
-29.5476115621
 10
5.5813423304
 20
-29.5508027322
 10
5.5617988334
 20
-29.5535321522
 10
5.5421204979
 20
-29.5557954926
 10
5.5223385373
 20
-29.5575891634
 10
5.5024843298
 20
-29.5589103195
 10
5.4825893679
 20
-29.5597568653
 10
5.4626852089
 20
-29.5601274579
 10
5.4428034248
 20
-29.5600215095
 10
5.4229755517
 20
-29.5594391882
 10
5.4032330407
 20
-29.5583814177
 10
5.383607207
 20
-29.5568498758
 10
5.3641291812
 20
-29.5548469918
 10
5.344829859
 20
-29.5523759427
 10
5.3257398531
 20
-29.5494406481
 10
5.3068894437
 20
-29.5460457638
 10
5.2883085314
 20
-29.5421966748
 10
5.270026589
 20
-29.5378994866
 10
5.2520726152
 20
-29.5331610153
 10
5.2344750886
 20
-29.527988777
 10
5.2172619222
 20
-29.5223909759
 10
5.2004604194
 20
-29.5163764912
 10
5.1840972306
 20
-29.5099548631
 10
5.1681983111
 20
-29.5031362774
 10
5.1527888796
 20
-29.4959315498
 10
5.1378933784
 20
-29.4883521084
 10
5.1235354347
 20
-29.4804099757
  0
LINE
  5
454
100
AcDbEntity
  8
DRAFT
100
AcDbLine
 62
7
  6
CONTINUOUS
 10
17.8011848075
 20
-19.9832236672
 11
13.4418079537
 21
-22.5002775096
  0
LINE
  5
455
100
AcDbEntity
  8
0
100
AcDbLine
 62
7
  6
CONTINUOUS
 10
12.7038451555
 20
-24.032167258
 11
13.4047811093
 21
-23.6274549344
  0
LINE
  5
456
100
AcDbEntity
  8
0
100
AcDbLine
 62
7
  6
CONTINUOUS
 10
-7.046189827
 20
27.3130442695
 11
-5.4597967168
 21
27.5725635884
  0
LINE
  5
457
100
AcDbEntity
  8
RACCORDO
100
AcDbLine
 62
7
  6
CONTINUOUS
 10
30.2816194954
 20
7.6722166761
 11
30.2816194954
 21
6.3252898832
  0
LWPOLYLINE
  5
458
100
AcDbEntity
  8
RACCORDO
100
AcDbPolyline
 62
250
  6
CONTINUOUS
 90
22
 70
0
 10
30.069487461
 20
2.6506759078
 10
30.0585860333
 20
2.0079625849
 10
30.0258981454
 20
1.3788046404
 10
29.9714729613
 20
0.764148387
 10
29.8953923387
 20
0.1649183195
 10
29.7977707085
 20
-0.4179842563
 10
29.6787549051
 20
-0.9836825816
 10
29.5385239595
 20
-1.5313257227
 10
29.3772887779
 20
-2.0600900498
 10
29.1952918032
 20
-2.5691804346
 10
28.9928066507
 20
-3.0578313672
 10
28.7701379387
 20
-3.5253075961
 10
28.5276208354
 20
-3.9709054956
 10
28.2656203004
 20
-4.393954669
 10
27.984530322
 20
-4.7938191101
 10
27.6847735575
 20
-5.1698976365
 10
27.3668009373
 20
-5.5216245448
 10
27.0310906772
 20
-5.8484708909
 10
26.6781473307
 20
-6.1499453979
 10
26.3085015083
 20
-6.4255946922
 10
25.9227093314
 20
-6.6750039328
 10
25.8242937296
 20
-6.7329297457
  0
LWPOLYLINE
  5
459
100
AcDbEntity
  8
RACCORDO
100
AcDbPolyline
 62
7
  6
CONTINUOUS
 90
22
 70
0
 10
30.5088272893
 20
3.2630877978
 10
30.4973262808
 20
2.601113695
 10
30.4628094716
 20
1.951917445
 10
30.4052660182
 20
1.3163129285
 10
30.3246356707
 20
0.6946849085
 10
30.2209705903
 20
0.0882901544
 10
30.094590082
 20
-0.5008802684
 10
29.9456350001
 20
-1.07232783
 10
29.7743458657
 20
-1.6252098237
 10
29.5815519476
 20
-2.1573191209
 10
29.3677810368
 20
-2.6679821405
 10
29.1334218018
 20
-3.1569459422
 10
28.8794493683
 20
-3.6229084168
 10
28.6066527622
 20
-4.0652903974
 10
28.3155600094
 20
-4.4840296902
 10
28.0069609529
 20
-4.8787049102
 10
27.6819279156
 20
-5.248699323
 10
27.3409789359
 20
-5.594138862
 10
26.9840576494
 20
-5.9155607863
 10
26.6116214186
 20
-6.2128348994
 10
26.2247547141
 20
-6.4853786632
 10
25.8242937296
 20
-6.7329297457
  0
LWPOLYLINE
  5
45A
100
AcDbEntity
  8
0
100
AcDbPolyline
 62
250
  6
CONTINUOUS
 90
18
 70
0
 10
9.9749133774
 20
-29.8897469482
 10
9.9785030801
 20
-29.8875968363
 10
9.9841655593
 20
-29.8836743284
 10
9.9895283702
 20
-29.8792725971
 10
9.9945793647
 20
-29.8744016135
 10
9.9993071011
 20
-29.8690724115
 10
10.00370087
 20
-29.8632970631
 10
10.0077507184
 20
-29.8570886508
 10
10.0114474724
 20
-29.8504612382
 10
10.014782758
 20
-29.843429838
 10
10.0177490199
 20
-29.836010378
 10
10.0203395388
 20
-29.8282196651
 10
10.0225484466
 20
-29.8200753472
 10
10.0243707395
 20
-29.811595873
 10
10.0258022897
 20
-29.8028004508
 10
10.0268398543
 20
-29.7937090041
 10
10.027481083
 20
-29.7843421275
 10
10.0277245232
 20
-29.774721039
  0
LINE
  5
45B
100
AcDbEntity
  8
0
100
AcDbLine
 62
250
  6
CONTINUOUS
 10
12.0029092017
 20
-27.1312453121
 11
12.7038451555
 21
-26.7146576753
  0
LINE
  5
45C
100
AcDbEntity
  8
0
100
AcDbLine
 62
7
  6
CONTINUOUS
 10
11.9004528669
 20
-27.3594786784
 11
12.6021227014
 21
-26.9424548739
  0
LINE
  5
45D
100
AcDbEntity
  8
0
100
AcDbLine
 62
250
  6
CONTINUOUS
 10
10.0277245232
 20
-29.774721039
 11
12.3387849228
 21
-28.4681442024
  0
LINE
  5
45E
100
AcDbEntity
  8
0
100
AcDbLine
 62
7
  6
CONTINUOUS
 10
9.9749133774
 20
-29.8897469482
 11
12.2863591433
 21
-28.5829522416
  0
LWPOLYLINE
  5
45F
100
AcDbEntity
  8
0
100
AcDbPolyline
 62
7
  6
CONTINUOUS
 90
3
 70
0
 10
11.900453079
 20
-27.3594785524
 10
11.8935464013
 20
-27.3633673588
 10
11.8894484726
 20
-27.365478673
  0
LWPOLYLINE
  5
460
100
AcDbEntity
  8
0
100
AcDbPolyline
 62
250
  6
CONTINUOUS
 90
34
 70
0
 10
10.7385337407
 20
-28.425832661
 10
10.7299087405
 20
-28.430532262
 10
10.7209074447
 20
-28.4349904079
 10
10.7115501084
 20
-28.4391970668
 10
10.7018577881
 20
-28.4431427725
 10
10.6918522939
 20
-28.4468186464
 10
10.6815561407
 20
-28.4502164168
 10
10.6709924973
 20
-28.4533284377
 10
10.6601851347
 20
-28.4561477064
 10
10.6491583727
 20
-28.4586678787
 10
10.637937024
 20
-28.4608832837
 10
10.6265463398
 20
-28.4627889361
 10
10.6150119532
 20
-28.4643805475
 10
10.6033598196
 20
-28.4656545366
 10
10.5916161593
 20
-28.4666080368
 10
10.5798073992
 20
-28.4672389025
 10
10.5679601122
 20
-28.4675457144
 10
10.5561009575
 20
-28.4675277821
 10
10.544256621
 20
-28.4671851464
 10
10.5324537553
 20
-28.4665185783
 10
10.5207189198
 20
-28.4655295781
 10
10.5090785204
 20
-28.4642203713
 10
10.4975587509
 20
-28.4625939042
 10
10.4861855334
 20
-28.4606538369
 10
10.47498446
 20
-28.458404535
 10
10.4639807358
 20
-28.4558510603
 10
10.4531991218
 20
-28.4529991587
 10
10.4426638785
 20
-28.4498552477
 10
10.4323987129
 20
-28.446426402
 10
10.422426724
 20
-28.4427203373
 10
10.4127703501
 20
-28.438745393
 10
10.4034513204
 20
-28.4345105136
 10
10.394490605
 20
-28.4300252287
 10
10.3859083677
 20
-28.4252996313
  0
LWPOLYLINE
  5
461
100
AcDbEntity
  8
0
100
AcDbPolyline
 62
250
  6
CONTINUOUS
 90
34
 70
0
 10
10.0277245232
 20
-29.774721039
 10
10.019114178
 20
-29.7794130254
 10
10.0101247774
 20
-29.7838662531
 10
10.0007760252
 20
-29.7880704062
 10
9.9910870555
 20
-29.7920162568
 10
9.9810805648
 20
-29.7956939599
 10
9.9707832021
 20
-29.7990934708
 10
9.9602197553
 20
-29.8022066902
 10
9.9494124714
 20
-29.8050271433
 10
9.9383854702
 20
-29.8075485251
 10
9.9271634084
 20
-29.8097651715
 10
9.9157716783
 20
-29.8116720409
 10
9.9042361605
 20
-29.8132647932
 10
9.8925829294
 20
-29.8145398355
 10
9.8808381083
 20
-29.8154943171
 10
9.8690280564
 20
-29.8161260953
 10
9.8571793223
 20
-29.816433745
 10
9.8453186077
 20
-29.816416568
 10
9.8334726305
 20
-29.8160746002
 10
9.8216680605
 20
-29.8154086101
 10
9.8099314622
 20
-29.8144200949
 10
9.7982892574
 20
-29.8131112781
 10
9.7867676498
 20
-29.8114851041
 10
9.7753925756
 20
-29.809545232
 10
9.7641896481
 20
-29.8072960285
 10
9.7531840858
 20
-29.8047425562
 10
9.7424006598
 20
-29.8018905617
 10
9.7318636462
 20
-29.7987464647
 10
9.7215967575
 20
-29.7953173402
 10
9.7116231095
 20
-29.7916109078
 10
9.7019651704
 20
-29.7876355179
 10
9.6926446835
 20
-29.7834001227
 10
9.6836826205
 20
-29.7789142541
 10
9.6750991522
 20
-29.7741880104
  0
LINE
  5
462
100
AcDbEntity
  8
0
100
AcDbLine
 62
250
  6
CONTINUOUS
 10
6.5053108838
 20
-29.8694060501
 11
12.0029092017
 21
-27.1310446441
  0
LINE
  5
463
100
AcDbEntity
  8
0
100
AcDbLine
 62
7
  6
CONTINUOUS
 10
6.380908458
 20
-30.1092901264
 11
11.8894487539
 21
-27.3654785058
  0
LWPOLYLINE
  5
464
100
AcDbEntity
  8
RACCORDO
100
AcDbPolyline
 62
250
  6
CONTINUOUS
 90
11
 70
0
 10
23.3029685027
 20
20.7173927477
 10
23.7726652218
 20
20.0894917635
 10
24.2300298658
 20
19.4479500008
 10
24.6743745511
 20
18.7937323748
 10
25.1050309227
 20
18.1278229455
 10
25.5213512167
 20
17.4512233623
 10
25.9227093242
 20
16.7649512025
 10
26.3085015153
 20
16.0700388007
 10
26.6781473481
 20
15.3675317552
 10
27.0310907001
 20
14.658487105
 10
27.3668009628
 20
13.9439709569
  0
LINE
  5
465
100
AcDbEntity
  8
RACCORDO
100
AcDbLine
 62
7
  6
CONTINUOUS
 10
25.1572508246
 20
20.0168513147
 11
28.1572508246
 21
14.8206988974
  0
LWPOLYLINE
  5
466
100
AcDbEntity
  8
RACCORDO
100
AcDbPolyline
 62
250
  6
CONTINUOUS
 90
17
 70
0
 10
27.3668009628
 20
13.9439709569
 10
27.6847735817
 20
13.2250572366
 10
27.9845303396
 20
12.5028271246
 10
28.2656203093
 20
11.7783670425
 10
28.5276208381
 20
11.0527662346
 10
28.7701379389
 20
10.32711567
 10
28.9928066502
 20
9.6025071962
 10
29.1952918028
 20
8.880031485
 10
29.3772887782
 20
8.160775553
 10
29.5385239608
 20
7.4458208744
 10
29.678754907
 20
6.7362425483
 10
29.7977707103
 20
6.0331077549
 10
29.8953923402
 20
5.3374741671
 10
29.9714729624
 20
4.6503881047
 10
30.025898146
 20
3.9728830154
 10
30.0585860334
 20
3.3059779212
 10
30.069487461
 20
2.6506759078
  0
LWPOLYLINE
  5
467
100
AcDbEntity
  8
RACCORDO
100
AcDbPolyline
 62
7
  6
CONTINUOUS
 90
8
 70
0
 10
29.9518595961
 20
8.1686744402
 10
30.0981629767
 20
7.4487866153
 10
30.2225655271
 20
6.7342420084
 10
30.3248868405
 20
6.0256610313
 10
30.4049546849
 20
5.3233264123
 10
30.4624952467
 20
4.6279958774
 10
30.4972043099
 20
3.9409131717
 10
30.5088272893
 20
3.2630877978
  0
LINE
  5
468
100
AcDbEntity
  8
RACCORDO
100
AcDbLine
 62
7
  6
CONTINUOUS
 10
18.8691206886
 20
26.1004694685
 11
20.0285711682
 21
25.4310172929
  0
LWPOLYLINE
  5
469
100
AcDbEntity
  8
RACCORDO
100
AcDbPolyline
 62
7
  6
CONTINUOUS
 90
27
 70
0
 10
19.9091029048
 20
25.2400092012
 10
20.4592678059
 20
24.7452364369
 10
21.0014437513
 20
24.2302533666
 10
21.5347468004
 20
23.6960606358
 10
22.0583116592
 20
23.1437035356
 10
22.5716110555
 20
22.5739093801
 10
23.0742531496
 20
21.9872387905
 10
23.5656761249
 20
21.3844291289
 10
24.0450731505
 20
20.7665440765
 10
24.5116808024
 20
20.1346558847
 10
24.9647682719
 20
19.4898554391
 10
25.4038113294
 20
18.8329834543
 10
25.8283662718
 20
18.1647625858
 10
26.237873337
 20
17.4860997828
 10
26.6316999923
 20
16.7980603386
 10
27.0092995169
 20
16.1016098973
 10
27.3701024205
 20
15.397799202
 10
27.713600375
 20
14.6876090383
 10
28.0393559472
 20
13.971902815
 10
28.3468867764
 20
13.2516652893
 10
28.6356940919
 20
12.5279712631
 10
28.9053369655
 20
11.8018108556
 10
29.1553576044
 20
11.0742786208
 10
29.3853617946
 20
10.3463537781
 10
29.595020653
 20
9.6188345135
 10
29.7840010516
 20
8.8925164165
 10
29.9518595961
 20
8.1686744402
  0
ARC
  5
46A
100
AcDbEntity
  8
0
100
AcDbCircle
 62
7
  6
CONTINUOUS
 10
-20.6357110784
 20
27.5020461198
 40
0.25
100
AcDbArc
 50
120.5211956794
 51
179.9997926627
  0
ARC
  5
46B
100
AcDbEntity
  8
0
100
AcDbCircle
 62
7
  6
CONTINUOUS
 10
-7.2890705835
 20
19.7958631707
 40
0.25
100
AcDbArc
 50
120.5211956794
 51
179.9997926627
  0
ARC
  5
46C
100
AcDbEntity
  8
0
100
AcDbCircle
 62
7
  6
CONTINUOUS
 10
-19.4046672241
 20
26.5555893031
 40
0.25
100
AcDbArc
 50
239.9983961188
 51
264.7549292379
  0
ARC
  5
46D
100
AcDbEntity
  8
0
100
AcDbCircle
 62
7
  6
CONTINUOUS
 10
-20.6357110784
 20
27.2663785959
 40
0.25
100
AcDbArc
 50
179.997755166
 51
240.0116140506
  0
ARC
  5
46E
100
AcDbEntity
  8
0
100
AcDbCircle
 62
7
  6
CONTINUOUS
 10
-6.0580267292
 20
18.849406354
 40
0.25
100
AcDbArc
 50
239.9983961188
 51
264.7549292379
  0
ARC
  5
46F
100
AcDbEntity
  8
0
100
AcDbCircle
 62
7
  6
CONTINUOUS
 10
-7.2890705835
 20
19.5601956469
 40
0.25
100
AcDbArc
 50
179.997755166
 51
240.0116140506
  0
ARC
  5
470
100
AcDbEntity
  8
0
100
AcDbCircle
 62
7
  6
CONTINUOUS
 10
-4.7258085017
 20
18.3158677699
 40
0.25
100
AcDbArc
 50
120.5211956794
 51
179.9997926627
  0
ARC
  5
471
100
AcDbEntity
  8
0
100
AcDbCircle
 62
7
  6
CONTINUOUS
 10
9.8518758475
 20
-29.6721193621
 40
0.25
100
AcDbArc
 50
239.9986111413
 51
299.4820009274
  0
ARC
  5
472
100
AcDbEntity
  8
0
100
AcDbCircle
 62
7
  6
CONTINUOUS
 10
8.6208319932
 20
10.6096848208
 40
0.25
100
AcDbArc
 50
120.5211956794
 51
179.9997926627
  0
ARC
  5
473
100
AcDbEntity
  8
0
100
AcDbCircle
 62
7
  6
CONTINUOUS
 10
8.6208319932
 20
-28.9613300692
 40
0.25
100
AcDbArc
 50
213.111011935
 51
239.9984015652
  0
ARC
  5
474
100
AcDbEntity
  8
0
100
AcDbCircle
 62
7
  6
CONTINUOUS
 10
-3.4947646474
 20
17.3694109532
 40
0.25
100
AcDbArc
 50
239.9983961188
 51
264.7549292379
  0
ARC
  5
475
100
AcDbEntity
  8
0
100
AcDbCircle
 62
7
  6
CONTINUOUS
 10
-4.7258085017
 20
18.0802002461
 40
0.25
100
AcDbArc
 50
179.997755166
 51
240.0116140506
  0
ARC
  5
476
100
AcDbEntity
  8
0
100
AcDbCircle
 62
7
  6
CONTINUOUS
 10
9.8518758475
 20
9.6632280041
 40
0.25
100
AcDbArc
 50
239.9983961188
 51
264.7549292379
  0
ARC
  5
477
100
AcDbEntity
  8
0
100
AcDbCircle
 62
7
  6
CONTINUOUS
 10
8.6208319932
 20
10.374017297
 40
0.25
100
AcDbArc
 50
179.997755166
 51
240.0116140506
  0
ELLIPSE
  5
478
100
AcDbEntity
  8
RACCORDO
100
AcDbEllipse
 62
7
  6
CONTINUOUS
 10
24.4190096716
 20
19.5906001253
 30
0.0
 11
-0.4999357615
 21
0.866062489
 31
0.0
 40
0.8524611862
 41
-1.5707093137
 42
-0.3525024364
  0
ELLIPSE
  5
479
100
AcDbEntity
  8
RACCORDO
100
AcDbEllipse
 62
7
  6
CONTINUOUS
 10
27.4190096716
 20
14.3944477079
 30
0.0
 11
-0.4999357615
 21
0.866062489
 31
0.0
 40
0.8524611862
 41
-2.788859948
 42
-1.5707093137
  0
ELLIPSE
  5
47A
100
AcDbEntity
  8
RACCORDO
100
AcDbEllipse
 62
7
  6
CONTINUOUS
 10
29.5433783424
 20
7.2459654867
 30
0.0
 11
0.5439934163
 21
0.8660502101
 31
0.0
 40
0.5762602363
 41
5.5408289753
 42
6.5220581902
  0
ELLIPSE
  5
47B
100
AcDbEntity
  8
RACCORDO
100
AcDbEllipse
 62
7
  6
CONTINUOUS
 10
19.2903300152
 20
25.0047661035
 30
0.0
 11
1.0220169846
 21
0.038066069
 31
0.0
 40
0.5763181679
 41
-0.2425188217
 42
0.7423981387
  0
ELLIPSE
  5
47C
100
AcDbEntity
  8
0
100
AcDbEllipse
 62
7
  6
CONTINUOUS
 10
12.3502783022
 20
9.1597452286
 30
0.0
 11
-0.2500205442
 21
0.4330020622
 31
0.0
 40
0.577360979
 41
-2.3562385877
 42
-0.7854930296
  0
ELLIPSE
  5
47D
100
AcDbEntity
  8
0
100
AcDbEllipse
 62
7
  6
CONTINUOUS
 10
12.3502783022
 20
-26.5104918795
 30
0.0
 11
-0.2500332324
 21
0.4330240487
 31
0.0
 40
0.5773023583
 41
-3.1343210677
 42
-2.3562893423
  0
ELLIPSE
  5
47E
100
AcDbEntity
  8
0
100
AcDbEllipse
 62
7
  6
CONTINUOUS
 10
12.1620058043
 20
-28.3660685589
 30
0.0
 11
-0.1250094667
 21
0.2165087995
 31
0.0
 40
0.5773158418
 41
-3.1468282452
 42
-2.3562565166
  0
ELLIPSE
  5
47F
100
AcDbEntity
  8
0
100
AcDbEllipse
 62
7
  6
CONTINUOUS
 10
12.1620058043
 20
11.2327342695
 30
0.0
 11
-0.1250060405
 21
0.2165028633
 31
0.0
 40
0.5773474973
 41
-2.3562291066
 42
-0.7854601952
  0
ELLIPSE
  5
480
100
AcDbEntity
  8
0
100
AcDbEllipse
 62
7
  6
CONTINUOUS
 10
-1.1846346906
 20
18.9389172185
 30
0.0
 11
-0.1250060405
 21
0.2165028633
 31
0.0
 40
0.5773474973
 41
-2.3562291066
 42
-0.7854601952
  0
ELLIPSE
  5
481
100
AcDbEntity
  8
0
100
AcDbEllipse
 62
7
  6
CONTINUOUS
 10
6.105216855
 20
20.4753144075
 30
0.0
 11
1.0061852078
 21
0.5737549327
 31
0.0
 40
0.0052693892
 41
0.0030798314
 42
0.7827085602
  0
ELLIPSE
  5
482
100
AcDbEntity
  8
0
100
AcDbEllipse
 62
7
  6
CONTINUOUS
 10
-17.0945372673
 20
28.1250955684
 30
0.0
 11
-0.1250060405
 21
0.2165028633
 31
0.0
 40
0.5773474973
 41
-2.3562291066
 42
-0.7854601952
  0
ELLIPSE
  5
483
100
AcDbEntity
  8
0
100
AcDbEllipse
 62
7
  6
CONTINUOUS
 10
-3.7478967724
 20
20.4189126193
 30
0.0
 11
-0.1250060405
 21
0.2165028633
 31
0.0
 40
0.5773474973
 41
-2.3562291066
 42
-0.7854601952
  0
ELLIPSE
  5
484
100
AcDbEntity
  8
0
100
AcDbEllipse
 62
7
  6
CONTINUOUS
 10
17.6361783672
 20
-21.0782175102
 30
0.0
 11
0.4999975532
 21
0.2922382515
 31
0.0
 40
0.0053525714
 41
-0.7710733282
 42
-0.0031284726
  0
ELLIPSE
  5
485
100
AcDbEntity
  8
0
100
AcDbEllipse
 62
7
  6
CONTINUOUS
 10
17.6361783672
 20
13.9854243655
 30
0.0
 11
0.4999950703
 21
0.0038122721
 31
0.0
 40
0.5824033911
 41
-0.7723854459
 42
-0.0044405753
  0
ELLIPSE
  5
486
100
AcDbEntity
  8
0
100
AcDbEllipse
 62
7
  6
CONTINUOUS
 10
1.0483125943
 20
16.050996234
 30
0.0
 11
0.4999982499
 21
0.002279286
 31
0.0
 40
0.5804023981
 41
2.3587846688
 42
2.99967035
  0
ELLIPSE
  5
487
100
AcDbEntity
  8
0
100
AcDbEllipse
 62
7
  6
CONTINUOUS
 10
-14.8615899824
 20
25.2371745838
 30
0.0
 11
0.4999982499
 21
0.002279286
 31
0.0
 40
0.5804023981
 41
2.3587846688
 42
2.99967035
  0
ELLIPSE
  5
488
100
AcDbEntity
  8
0
100
AcDbEllipse
 62
7
  6
CONTINUOUS
 10
6.3701207881
 20
19.0810338984
 30
0.0
 11
0.2519850909
 21
0.4318645151
 31
0.0
 40
0.5803466004
 41
0.5904568538
 42
0.7776200615
  0
ELLIPSE
  5
489
100
AcDbEntity
  8
0
100
AcDbEllipse
 62
7
  6
CONTINUOUS
 10
-9.5397817886
 20
28.2672122483
 30
0.0
 11
0.2519850909
 21
0.4318645151
 31
0.0
 40
0.5803466004
 41
0.5904568538
 42
0.7776200615
  0
ELLIPSE
  5
48A
100
AcDbEntity
  8
0
100
AcDbEllipse
 62
7
  6
CONTINUOUS
 10
-9.8046857217
 20
29.6614927574
 30
0.0
 11
1.0061852078
 21
0.5737549327
 31
0.0
 40
0.0052693892
 41
0.0030798314
 42
0.7827085602
  0
ELLIPSE
  5
48B
100
AcDbEntity
  8
0
100
AcDbEllipse
 62
7
  6
CONTINUOUS
 10
11.9723089017
 20
15.8464006935
 30
0.0
 11
0.2533110813
 21
0.431095234
 31
0.0
 40
0.5823475934
 41
0.5893746678
 42
0.7794146514
  0
ELLIPSE
  5
48C
100
AcDbEntity
  8
0
100
AcDbEllipse
 62
7
  6
CONTINUOUS
 10
-3.937593675
 20
25.0325790434
 30
0.0
 11
0.2533110813
 21
0.431095234
 31
0.0
 40
0.5823475934
 41
0.5893746678
 42
0.7794146514
  0
ELLIPSE
  5
48D
100
AcDbEntity
  8
0
100
AcDbEllipse
 62
7
  6
CONTINUOUS
 10
-18.3496469575
 20
28.8497801733
 30
0.0
 11
-0.1250094667
 21
0.2165087995
 31
0.0
 40
0.5773158418
 41
-0.7854327745
 42
0.0052355916
  0
ELLIPSE
  5
48E
100
AcDbEntity
  8
0
100
AcDbEllipse
 62
7
  6
CONTINUOUS
 10
-5.0030064626
 20
21.1435972242
 30
0.0
 11
-0.1250094667
 21
0.2165087995
 31
0.0
 40
0.5773158418
 41
-0.7854327745
 42
0.0052355916
  0
ELLIPSE
  5
48F
100
AcDbEntity
  8
0
100
AcDbEllipse
 62
7
  6
CONTINUOUS
 10
-2.4397443808
 20
19.6636018234
 30
0.0
 11
-0.1250094667
 21
0.2165087995
 31
0.0
 40
0.5773158418
 41
-0.7854327745
 42
0.0052355916
  0
ELLIPSE
  5
490
100
AcDbEntity
  8
0
100
AcDbEllipse
 62
7
  6
CONTINUOUS
 10
10.9068961141
 20
11.9574188743
 30
0.0
 11
-0.1250094667
 21
0.2165087995
 31
0.0
 40
0.5773158418
 41
-0.7854327745
 42
0.0052355916
  0
ELLIPSE
  5
491
100
AcDbEntity
  8
0
100
AcDbEllipse
 62
7
  6
CONTINUOUS
 10
-1.7946754356
 20
25.0366132072
 30
0.0
 11
0.5066221626
 21
0.862190468
 31
0.0
 40
0.5823475934
 41
0.004440142
 42
0.7840688627
  0
ELLIPSE
  5
492
100
AcDbEntity
  8
0
100
AcDbEllipse
 62
7
  6
CONTINUOUS
 10
1.7262757905
 20
23.1716027154
 30
0.0
 11
0.4999950703
 21
0.0038122721
 31
0.0
 40
0.5824033911
 41
-0.7723854459
 42
-0.0044405753
  0
ELLIPSE
  5
493
100
AcDbEntity
  8
0
100
AcDbEllipse
 62
7
  6
CONTINUOUS
 10
14.1152271411
 20
15.8504348573
 30
0.0
 11
0.5066221626
 21
0.862190468
 31
0.0
 40
0.5823475934
 41
0.004440142
 42
0.7840688627
  0
ELLIPSE
  5
494
100
AcDbEntity
  8
0
100
AcDbEllipse
 62
7
  6
CONTINUOUS
 10
-3.5834366352
 20
24.1225906021
 30
0.0
 11
0.4039377927
 21
-0.0020235049
 31
0.0
 40
0.5740189913
 41
-0.7772866659
 42
0.0028755093
  0
ELLIPSE
  5
495
100
AcDbEntity
  8
0
100
AcDbEllipse
 62
7
  6
CONTINUOUS
 10
6.8934736701
 20
12.4573061463
 30
0.0
 11
0.6376710281
 21
0.7439227357
 31
0.0
 40
0.4107608182
 41
-1.3482544923
 42
-0.8613584239
  0
ELLIPSE
  5
496
100
AcDbEntity
  8
0
100
AcDbEllipse
 62
7
  6
CONTINUOUS
 10
-9.1858688246
 20
27.3573647334
 30
0.0
 11
0.4039377927
 21
-0.0020235049
 31
0.0
 40
0.5740189913
 41
-0.7737960074
 42
0.0028755094
  0
ELLIPSE
  5
497
100
AcDbEntity
  8
0
100
AcDbEllipse
 62
7
  6
CONTINUOUS
 10
6.7240337521
 20
18.1711863835
 30
0.0
 11
0.4039377927
 21
-0.0020235049
 31
0.0
 40
0.5740189913
 41
-0.7737960074
 42
0.0028755094
  0
ELLIPSE
  5
498
100
AcDbEntity
  8
0
100
AcDbEllipse
 62
7
  6
CONTINUOUS
 10
12.3264659415
 20
14.9364122523
 30
0.0
 11
0.4039377927
 21
-0.0020235049
 31
0.0
 40
0.5740189913
 41
-0.7772866659
 42
0.0028755093
  0
ELLIPSE
  5
499
100
AcDbEntity
  8
0
100
AcDbEllipse
 62
7
  6
CONTINUOUS
 10
-9.0164289066
 20
21.6434844961
 30
0.0
 11
0.6376710281
 21
0.7439227357
 31
0.0
 40
0.4107608182
 41
-1.3482544923
 42
-0.8613584239
  0
ELLIPSE
  5
49A
100
AcDbEntity
  8
0
100
AcDbEllipse
 62
7
  6
CONTINUOUS
 10
17.6361783672
 20
14.7709788799
 30
0.0
 11
-0.3567823072
 21
0.610519958
 31
0.0
 40
0.573764555
 41
-3.1333143349
 42
-2.152900686
  0
ELLIPSE
  5
49B
100
AcDbEntity
  8
0
100
AcDbEllipse
 62
7
  6
CONTINUOUS
 10
1.0483125943
 20
14.8521322367
 30
0.0
 11
0.4997887139
 21
0.0239535316
 31
0.0
 40
0.6067642562
 41
3.1125202648
 42
3.8979184282
  0
ELLIPSE
  5
49C
100
AcDbEntity
  8
0
100
AcDbEllipse
 62
7
  6
CONTINUOUS
 10
6.5526284857
 20
11.6740092263
 30
0.0
 11
0.4997887139
 21
0.0239535316
 31
0.0
 40
0.6067642562
 41
-2.385266879
 42
-0.8197065399
  0
ELLIPSE
  5
49D
100
AcDbEntity
  8
0
100
AcDbEllipse
 62
7
  6
CONTINUOUS
 10
6.9423406773
 20
18.750641306
 30
0.0
 11
0.2467654307
 21
0.4348749944
 31
0.0
 40
0.5722717666
 41
0.5806466928
 42
0.7706866764
  0
ELLIPSE
  5
49E
100
AcDbEntity
  8
0
100
AcDbEllipse
 62
7
  6
CONTINUOUS
 10
17.6361783672
 20
-20.2926629958
 30
0.0
 11
0.4999954027
 21
-0.0037463081
 31
0.0
 40
0.5723275643
 41
-0.763656627
 42
0.7896864073
  0
ELLIPSE
  5
49F
100
AcDbEntity
  8
0
100
AcDbEllipse
 62
7
  6
CONTINUOUS
 10
6.5526284857
 20
12.8728732235
 30
0.0
 11
0.4999982499
 21
0.002279286
 31
0.0
 40
0.5804023981
 41
-1.4341656415
 42
-0.7932799603
  0
ELLIPSE
  5
4A0
100
AcDbEntity
  8
0
100
AcDbEllipse
 62
7
  6
CONTINUOUS
 10
-8.9675618994
 20
27.9368196559
 30
0.0
 11
0.2467654307
 21
0.4348749944
 31
0.0
 40
0.5722717666
 41
0.5806466928
 42
0.7706866764
  0
ELLIPSE
  5
4A1
100
AcDbEntity
  8
0
100
AcDbEllipse
 62
7
  6
CONTINUOUS
 10
-9.357274091
 20
22.0590515734
 30
0.0
 11
0.4999982499
 21
0.002279286
 31
0.0
 40
0.5804023981
 41
-1.4341656415
 42
-0.7932799603
  0
ELLIPSE
  5
4A2
100
AcDbEntity
  8
0
100
AcDbEllipse
 62
7
  6
CONTINUOUS
 10
-5.3472175117
 20
17.9003272296
 30
0.0
 11
0.249894357
 21
0.0119767658
 31
0.0
 40
0.6067642562
 41
-2.385266879
 42
-0.8197065399
  0
ELLIPSE
  5
4A3
100
AcDbEntity
  8
0
100
AcDbEllipse
 62
7
  6
CONTINUOUS
 10
-6.5856662386
 20
18.6153920031
 30
0.0
 11
0.249894357
 21
0.0119767658
 31
0.0
 40
0.6067642562
 41
3.1125202645
 42
3.8979184282
  0
ELLIPSE
  5
4A4
100
AcDbEntity
  8
0
100
AcDbEllipse
 62
7
  6
CONTINUOUS
 10
1.8492776156
 20
22.9326403849
 30
0.0
 11
-0.7006352283
 21
1.22850495
 31
0.0
 40
0.5737642108
 41
5.1239243361
 42
6.2865911274
  0
ELLIPSE
  5
4A5
100
AcDbEntity
  8
0
100
AcDbEllipse
 62
7
  6
CONTINUOUS
 10
-6.1607326706
 20
27.5575199351
 30
0.0
 11
0.4935308613
 21
0.8697499888
 31
0.0
 40
0.5722717666
 41
5.4935476323
 42
7.0585261949
  0
ELLIPSE
  5
4A6
100
AcDbEntity
  8
0
100
AcDbEllipse
 62
7
  6
CONTINUOUS
 10
-18.6938580066
 20
25.6065101787
 30
0.0
 11
0.249894357
 21
0.0119767658
 31
0.0
 40
0.6067642562
 41
-2.385266879
 42
-0.8197065399
  0
ELLIPSE
  5
4A7
100
AcDbEntity
  8
0
100
AcDbEllipse
 62
7
  6
CONTINUOUS
 10
61.7080431514
 20
44.1065515768
 30
0.0
 11
67.1693181951
 21
39.1920756672
 31
0.0
 40
0.0045340887
 41
-2.5183994339
 42
-2.3945942809
  0
ELLIPSE
  5
4A8
100
AcDbEntity
  8
0
100
AcDbEllipse
 62
7
  6
CONTINUOUS
 10
61.7080431514
 20
44.1065515768
 30
0.0
 11
67.1693181951
 21
39.1920756672
 31
0.0
 40
0.0045340887
 41
2.3893031766
 42
2.5062353936
  0
ELLIPSE
  5
4A9
100
AcDbEntity
  8
0
100
AcDbEllipse
 62
7
  6
CONTINUOUS
 10
12.5445287908
 20
15.5160081011
 30
0.0
 11
0.2480579158
 21
0.4341320996
 31
0.0
 40
0.5743009078
 41
0.5852205791
 42
0.7723837867
  0
ELLIPSE
  5
4AA
100
AcDbEntity
  8
0
100
AcDbEllipse
 62
7
  6
CONTINUOUS
 10
-19.9323067335
 20
26.3215749521
 30
0.0
 11
0.249894357
 21
0.0119767658
 31
0.0
 40
0.6067642562
 41
3.1125202645
 42
3.8979184282
  0
ELLIPSE
  5
4AB
100
AcDbEntity
  8
0
100
AcDbEllipse
 62
7
  6
CONTINUOUS
 10
1.7262757905
 20
23.9571572298
 30
0.0
 11
-0.3567823072
 21
0.610519958
 31
0.0
 40
0.573764555
 41
-3.1333143349
 42
-2.152900686
  0
ELLIPSE
  5
4AC
100
AcDbEntity
  8
0
100
AcDbEllipse
 62
7
  6
CONTINUOUS
 10
9.7491699061
 20
18.3713415852
 30
0.0
 11
0.4935308613
 21
0.8697499888
 31
0.0
 40
0.5722717666
 41
5.4935476323
 42
7.0585261949
  0
ELLIPSE
  5
4AD
100
AcDbEntity
  8
0
100
AcDbEllipse
 62
7
  6
CONTINUOUS
 10
17.7591801922
 20
13.746462035
 30
0.0
 11
-0.7006352283
 21
1.22850495
 31
0.0
 40
0.5737642108
 41
5.1239243361
 42
6.2865911274
  0
ELLIPSE
  5
4AE
100
AcDbEntity
  8
0
100
AcDbEllipse
 62
7
  6
CONTINUOUS
 10
45.7981405747
 20
53.2927299267
 30
0.0
 11
67.1693181951
 21
39.1920756672
 31
0.0
 40
0.0045340887
 41
-2.5183994339
 42
-2.3945942809
  0
ELLIPSE
  5
4AF
100
AcDbEntity
  8
0
100
AcDbEllipse
 62
7
  6
CONTINUOUS
 10
45.7981405747
 20
53.2927299267
 30
0.0
 11
67.1693181951
 21
39.1920756672
 31
0.0
 40
0.0045340887
 41
2.3893031766
 42
2.5062353936
  0
ELLIPSE
  5
4B0
100
AcDbEntity
  8
0
100
AcDbEllipse
 62
7
  6
CONTINUOUS
 10
-3.3653737859
 20
24.702186451
 30
0.0
 11
0.2480579158
 21
0.4341320996
 31
0.0
 40
0.5743009078
 41
0.5852205791
 42
0.7723837867
  0
ELLIPSE
  5
4B1
100
AcDbEntity
  8
0
100
AcDbEllipse
 62
7
  6
CONTINUOUS
 10
-14.8615899824
 20
24.0383105866
 30
0.0
 11
0.4997887139
 21
0.0239535316
 31
0.0
 40
0.6067642562
 41
3.1125202648
 42
3.8979184282
  0
ELLIPSE
  5
4B2
100
AcDbEntity
  8
0
100
AcDbEllipse
 62
7
  6
CONTINUOUS
 10
-9.357274091
 20
20.8601875762
 30
0.0
 11
0.4997887139
 21
0.0239535316
 31
0.0
 40
0.6067642562
 41
-2.385266879
 42
-0.8197065399
  0
ELLIPSE
  5
4B3
100
AcDbEntity
  8
0
100
AcDbEllipse
 62
7
  6
CONTINUOUS
 10
9.3242363381
 20
9.4292136532
 30
0.0
 11
0.249894357
 21
0.0119767658
 31
0.0
 40
0.6067642562
 41
3.1125202645
 42
3.8979184282
  0
ELLIPSE
  5
4B4
100
AcDbEntity
  8
0
100
AcDbEllipse
 62
7
  6
CONTINUOUS
 10
10.5626850649
 20
8.7141488797
 30
0.0
 11
0.249894357
 21
0.0119767658
 31
0.0
 40
0.6067642562
 41
-2.385266879
 42
-0.8197065399
  0
ELLIPSE
  5
4B5
100
AcDbEntity
  8
0
100
AcDbEllipse
 62
7
  6
CONTINUOUS
 10
-4.0224041568
 20
17.1353966023
 30
0.0
 11
0.249894357
 21
0.0119767658
 31
0.0
 40
0.6067642562
 41
3.1125202645
 42
3.8979184282
  0
ELLIPSE
  5
4B6
100
AcDbEntity
  8
0
100
AcDbEllipse
 62
7
  6
CONTINUOUS
 10
-2.7839554299
 20
16.4203318288
 30
0.0
 11
0.249894357
 21
0.0119767658
 31
0.0
 40
0.6067642562
 41
-2.385266879
 42
-0.8197065399
  0
ENDSEC
  0
SECTION
  2
OBJECTS
  0
DICTIONARY
  5
C
100
AcDbDictionary
280
0
281
1
  3
ACAD_GROUP
350
D
  3
ACAD_MLINESTYLE
350
17
  3
ACAD_LAYOUT
350
1A
  3
ACAD_PLOTSETTINGS
350
19
  3
ACAD_PLOTSTYLENAME
350
E
  0
DICTIONARY
  5
D
102
{ACAD_REACTORS
330
C
102
}
100
AcDbDictionary
280
0
281
1
  0
ACDBDICTIONARYWDFLT
  5
E
102
{ACAD_REACTORS
330
C
102
}
100
AcDbDictionary
281
1
  3
Normal
350
F
100
AcDbDictionaryWithDefault
340
F
  0
DICTIONARY
  5
17
102
{ACAD_REACTORS
330
C
102
}
100
AcDbDictionary
280
0
281
1
  3
Standard
350
18
  0
DICTIONARY
  5
19
102
{ACAD_REACTORS
330
C
102
}
100
AcDbDictionary
281
1
  0
DICTIONARY
  5
1A
102
{ACAD_REACTORS
330
C
102
}
100
AcDbDictionary
281
1
  3
Model
350
4B7
  3
Layout1
350
4B8
  0
ACDBPLACEHOLDER
  5
F
102
{ACAD_REACTORS
330
E
102
}
  0
MLINESTYLE
  5
18
102
{ACAD_REACTORS
330
17
102
}
100
AcDbMlineStyle
  2
STANDARD
 70
0
  3

 62
256
 51
90.0
 52
90.0
 71
2
 49
0.5
 62
256
  6
BYLAYER
 49
-0.5
 62
256
  6
BYLAYER
  0
LAYOUT
  5
4B7
102
{ACAD_REACTORS
330
1A
102
}
100
AcDbPlotSettings
  1

  2
none_device
  4
ISO_A4_(297.00_x_210.00_MM)
  6

 40
0.0
 41
0.0
 42
0.0
 43
0.0
 44
297.0
 45
210.0
 46
0.0
 47
0.0
 48
0.0
 49
0.0
140
0.0
141
0.0
142
1.0
143
1.0
 70
1024
 72
1
 73
0
 74
0
  7

 75
0
147
1.0
148
0.0
149
0.0
100
AcDbLayout
  1
Model
 70
0
 71
0
 10
0.0
 20
0.0
 11
297.0
 21
210.0
 12
0.0
 22
0.0
 32
0.0
 14
0.0
 24
0.0
 34
0.0
 15
0.0
 25
0.0
 35
0.0
146
0.0
 13
0.0
 23
0.0
 33
0.0
 16
1.0
 26
0.0
 36
0.0
 17
0.0
 27
1.0
 37
0.0
 76
0
330
220
345
0
346
0
  0
LAYOUT
  5
4B8
102
{ACAD_REACTORS
330
1A
102
}
100
AcDbPlotSettings
  1

  2
none_device
  4
ISO_A4_(297.00_x_210.00_MM)
  6

 40
0.0
 41
0.0
 42
0.0
 43
0.0
 44
297.0
 45
210.0
 46
0.0
 47
0.0
 48
0.0
 49
0.0
140
0.0
141
0.0
142
1.0
143
1.0
 70
0
 72
1
 73
0
 74
0
  7

 75
0
147
1.0
148
0.0
149
0.0
100
AcDbLayout
  1
Layout1
 70
0
 71
1
 10
0.0
 20
0.0
 11
297.0
 21
210.0
 12
0.0
 22
0.0
 32
0.0
 14
0.0
 24
0.0
 34
0.0
 15
0.0
 25
0.0
 35
0.0
146
0.0
 13
0.0
 23
0.0
 33
0.0
 16
1.0
 26
0.0
 36
0.0
 17
0.0
 27
1.0
 37
0.0
 76
0
330
221
345
0
346
0
  0
ENDSEC
  0
EOF
