  0
SECTION
  2
HEADER
  9
$ACADVER
  1
AC1024
  9
$DWGCODEPAGE
  3
ANSI_1252
  9
$EXTMAX
 10
558.8
 20
431.8
 30
0.0
  9
$EXTMIN
 10
0.0
 20
0.0
 30
0.0
  9
$LIMMIN
 10
0.0
 20
0.0
  9
$LIMMAX
 10
558.8
 20
431.8
  9
$VIEWCTR
 10
279.4
 20
215.9
  9
$VIEWSIZE
 40
431.8
  9
$CLAYER
  8
0
  9
$LTSCALE
 40
30.734
  9
$CELTYPE
  6
BYLAYER
  9
$DIMSCALE
 40
1.0
  9
$DIMASZ
 40
3.0
  9
$DIMEXO
 40
0.5
  9
$DIMDLI
 40
21.2344
  9
$DIMEXE
 40
1.5
  9
$DIMCEN
 40
5.0292
  9
$DIMLFAC
 40
1.0
  9
$DIMBLK
  1
_FILLED
  9
$DIMALT
 70
0
  9
$DIMALTF
 40
0.0393700787
  9
$DIMTXT
 40
3.0
  9
$DIMTOL
 70
1
  9
$DIMLIM
 70
0
  9
$DIMTFAC
 40
1.0
  9
$DIMTP
 40
0.01
  9
$DIMTM
 40
0.01
  9
$DIMGAP
 40
0.625
  9
$DIMDSEP
 70
44
  9
$AUNITS
 70
0
  9
$PDMODE
 70
3
  9
$PDSIZE
 40
3.0
  9
$HANDSEED
  5
697
  9
$TILEMODE
 70
1
  9
$MEASUREMENT
 70
1
  9
$INSUNITS
 70
4
  0
ENDSEC
  0
SECTION
  2
CLASSES
  0
CLASS
  1
ACDBDICTIONARYWDFLT
  2
AcDbDictionaryWithDefault
  3
AutoCAD 2000
 90
0
 91
1
280
0
281
0
  0
CLASS
  1
ACDBPLACEHOLDER
  2
AcDbPlaceHolder
  3
AutoCAD 2000
 90
0
 91
1
280
0
281
0
  0
CLASS
  1
LAYOUT
  2
AcDbLayout
  3
AutoCAD 2000
 90
0
 91
0
280
0
281
0
  0
ENDSEC
  0
SECTION
  2
TABLES
  0
TABLE
  2
VPORT
  5
8
100
AcDbSymbolTable
 70
2
  0
VPORT
  5
1F4
100
AcDbSymbolTableRecord
100
AcDbViewportTableRecord
  2
*ACTIVE
 70
0
 10
0.0
 20
0.0
 11
1.0
 21
1.0
 12
279.4
 22
215.9
 13
0.0
 23
0.0
 14
1.0
 24
1.0
 15
0.0
 25
0.0
 16
0.0
 26
0.0
 36
1.0
 17
0.0
 27
0.0
 37
0.0
 40
431.8
 41
1.2941176471
 42
50.0
 43
0.0
 44
0.0
 50
0.0
 51
0.0
 71
0
 72
100
 73
1
 74
1
 75
0
 76
0
 77
0
 78
0
  0
ENDTAB
  0
TABLE
  2
LTYPE
  5
5
100
AcDbSymbolTable
 70
6
  0
LTYPE
  5
14
100
AcDbSymbolTableRecord
100
AcDbLinetypeTableRecord
  2
BYBLOCK
 70
0
  3

 72
65
 73
0
 40
0.0
  0
LTYPE
  5
15
100
AcDbSymbolTableRecord
100
AcDbLinetypeTableRecord
  2
BYLAYER
 70
0
  3

 72
65
 73
0
 40
0.0
  0
LTYPE
  5
16
100
AcDbSymbolTableRecord
100
AcDbLinetypeTableRecord
  2
CONTINUOUS
 70
64
  3
Solid line
 72
65
 73
0
 40
0.0
  0
LTYPE
  5
1F5
100
AcDbSymbolTableRecord
100
AcDbLinetypeTableRecord
  2
CENTER
 70
64
  3
____ _ ____ _ ____ _ ____ _ ____ _ ____ _ ____
 72
65
 73
4
 40
0.6
 49
0.375
 74
0
 49
-0.075
 74
0
 49
0.075
 74
0
 49
-0.075
 74
0
  0
LTYPE
  5
1F6
100
AcDbSymbolTableRecord
100
AcDbLinetypeTableRecord
  2
HIDDEN
 70
64
  3
- - - - - - - - - - - - - - - - - - - -
 72
65
 73
2
 40
0.2
 49
0.1
 74
0
 49
-0.1
 74
0
  0
LTYPE
  5
1F7
100
AcDbSymbolTableRecord
100
AcDbLinetypeTableRecord
  2
PHANTOM
 70
64
  3
_____ _ _ _____ _ _ _____ _ _ _____
 72
65
 73
6
 40
0.8
 49
0.45
 74
0
 49
-0.05
 74
0
 49
0.1
 74
0
 49
-0.05
 74
0
 49
0.1
 74
0
 49
-0.05
 74
0
  0
LTYPE
  5
1F8
100
AcDbSymbolTableRecord
100
AcDbLinetypeTableRecord
  2
DOT
 70
64
  3
. . . . . . . . . . . . . . . . . . . .
 72
65
 73
2
 40
0.2
 49
0.1
 74
0
 49
-0.1
 74
0
  0
LTYPE
  5
1F9
100
AcDbSymbolTableRecord
100
AcDbLinetypeTableRecord
  2
DASHED
 70
64
  3
- - - - - - - - - - - - - - - - - - - -
 72
65
 73
2
 40
0.2
 49
0.1
 74
0
 49
-0.1
 74
0
  0
ENDTAB
  0
TABLE
  2
LAYER
  5
2
100
AcDbSymbolTable
 70
36
  0
LAYER
  5
10
100
AcDbSymbolTableRecord
100
AcDbLayerTableRecord
  2
0
 70
0
 62
7
  6
CONTINUOUS
370
-3
390
F
  0
LAYER
  5
1FA
100
AcDbSymbolTableRecord
100
AcDbLayerTableRecord
  2
DEFAULT_1
 70
0
 62
7
  6
CENTER
370
-3
390
F
  0
LAYER
  5
1FB
100
AcDbSymbolTableRecord
100
AcDbLayerTableRecord
  2
DEFAULT_2
 70
0
 62
7
  6
HIDDEN
370
-3
390
F
  0
LAYER
  5
1FC
100
AcDbSymbolTableRecord
100
AcDbLayerTableRecord
  2
DEFAULT_3
 70
0
 62
7
  6
PHANTOM
370
-3
390
F
  0
LAYER
  5
1FD
100
AcDbSymbolTableRecord
100
AcDbLayerTableRecord
  2
ASSI
 70
0
 62
7
  6
CONTINUOUS
370
-3
390
F
  0
LAYER
  5
1FE
100
AcDbSymbolTableRecord
100
AcDbLayerTableRecord
  2
COLORE_TOP
 70
0
 62
7
  6
CONTINUOUS
370
-3
390
F
  0
LAYER
  5
1FF
100
AcDbSymbolTableRecord
100
AcDbLayerTableRecord
  2
COORDINATE
 70
0
 62
7
  6
CONTINUOUS
370
-3
390
F
  0
LAYER
  5
200
100
AcDbSymbolTableRecord
100
AcDbLayerTableRecord
  2
COORD_ORIGINE
 70
0
 62
7
  6
CONTINUOUS
370
-3
390
F
  0
LAYER
  5
201
100
AcDbSymbolTableRecord
100
AcDbLayerTableRecord
  2
COPY_PUBLISH
 70
0
 62
7
  6
CONTINUOUS
370
-3
390
F
  0
LAYER
  5
202
100
AcDbSymbolTableRecord
100
AcDbLayerTableRecord
  2
COSMETIC
 70
0
 62
7
  6
CONTINUOUS
370
-3
390
F
  0
LAYER
  5
203
100
AcDbSymbolTableRecord
100
AcDbLayerTableRecord
  2
COSMETICHE
 70
0
 62
7
  6
CONTINUOUS
370
-3
390
F
  0
LAYER
  5
204
100
AcDbSymbolTableRecord
100
AcDbLayerTableRecord
  2
COSMETICI
 70
0
 62
7
  6
CONTINUOUS
370
-3
390
F
  0
LAYER
  5
205
100
AcDbSymbolTableRecord
100
AcDbLayerTableRecord
  2
CURVE
 70
0
 62
7
  6
CONTINUOUS
370
-3
390
F
  0
LAYER
  5
206
100
AcDbSymbolTableRecord
100
AcDbLayerTableRecord
  2
DRAFT
 70
0
 62
7
  6
CONTINUOUS
370
-3
390
F
  0
LAYER
  5
207
100
AcDbSymbolTableRecord
100
AcDbLayerTableRecord
  2
IMPIANTO
 70
0
 62
7
  6
CONTINUOUS
370
-3
390
F
  0
LAYER
  5
208
100
AcDbSymbolTableRecord
100
AcDbLayerTableRecord
  2
IMPORTED
 70
0
 62
7
  6
CONTINUOUS
370
-3
390
F
  0
LAYER
  5
209
100
AcDbSymbolTableRecord
100
AcDbLayerTableRecord
  2
IMPORT_IGES
 70
0
 62
7
  6
CONTINUOUS
370
-3
390
F
  0
LAYER
  5
20A
100
AcDbSymbolTableRecord
100
AcDbLayerTableRecord
  2
INCISIONI_LASER
 70
0
 62
7
  6
CONTINUOUS
370
-3
390
F
  0
LAYER
  5
20B
100
AcDbSymbolTableRecord
100
AcDbLayerTableRecord
  2
INTFCLR_11
 70
0
 62
7
  6
CONTINUOUS
370
-3
390
F
  0
LAYER
  5
20C
100
AcDbSymbolTableRecord
100
AcDbLayerTableRecord
  2
INTFCLR_3
 70
0
 62
7
  6
CONTINUOUS
370
-3
390
F
  0
LAYER
  5
20D
100
AcDbSymbolTableRecord
100
AcDbLayerTableRecord
  2
INTF_1
 70
0
 62
7
  6
CONTINUOUS
370
-3
390
F
  0
LAYER
  5
20E
100
AcDbSymbolTableRecord
100
AcDbLayerTableRecord
  2
INTF_11
 70
0
 62
7
  6
CONTINUOUS
370
-3
390
F
  0
LAYER
  5
20F
100
AcDbSymbolTableRecord
100
AcDbLayerTableRecord
  2
INTF_12
 70
0
 62
7
  6
CONTINUOUS
370
-3
390
F
  0
LAYER
  5
210
100
AcDbSymbolTableRecord
100
AcDbLayerTableRecord
  2
INTF_2
 70
0
 62
7
  6
CONTINUOUS
370
-3
390
F
  0
LAYER
  5
211
100
AcDbSymbolTableRecord
100
AcDbLayerTableRecord
  2
INTF_3
 70
0
 62
7
  6
CONTINUOUS
370
-3
390
F
  0
LAYER
  5
212
100
AcDbSymbolTableRecord
100
AcDbLayerTableRecord
  2
NOTE
 70
0
 62
7
  6
CONTINUOUS
370
-3
390
F
  0
LAYER
  5
213
100
AcDbSymbolTableRecord
100
AcDbLayerTableRecord
  2
PIANI
 70
0
 62
7
  6
CONTINUOUS
370
-3
390
F
  0
LAYER
  5
214
100
AcDbSymbolTableRecord
100
AcDbLayerTableRecord
  2
PIANI_DI_RIFERIMENTO
 70
0
 62
7
  6
CONTINUOUS
370
-3
390
F
  0
LAYER
  5
215
100
AcDbSymbolTableRecord
100
AcDbLayerTableRecord
  2
PIANI_ORIGINE
 70
0
 62
7
  6
CONTINUOUS
370
-3
390
F
  0
LAYER
  5
216
100
AcDbSymbolTableRecord
100
AcDbLayerTableRecord
  2
PIANI_SFORMO
 70
0
 62
7
  6
CONTINUOUS
370
-3
390
F
  0
LAYER
  5
217
100
AcDbSymbolTableRecord
100
AcDbLayerTableRecord
  2
PUNTI
 70
0
 62
7
  6
CONTINUOUS
370
-3
390
F
  0
LAYER
  5
218
100
AcDbSymbolTableRecord
100
AcDbLayerTableRecord
  2
RACCORDO
 70
0
 62
7
  6
CONTINUOUS
370
-3
390
F
  0
LAYER
  5
219
100
AcDbSymbolTableRecord
100
AcDbLayerTableRecord
  2
RGB__255__255__255__
 70
0
 62
7
  6
CONTINUOUS
370
-3
390
F
  0
LAYER
  5
21A
100
AcDbSymbolTableRecord
100
AcDbLayerTableRecord
  2
RGB____0____0____0__
 70
0
 62
7
  6
CONTINUOUS
370
-3
390
F
  0
LAYER
  5
21B
100
AcDbSymbolTableRecord
100
AcDbLayerTableRecord
  2
RINTRACCIABILITA
 70
0
 62
7
  6
CONTINUOUS
370
-3
390
F
  0
LAYER
  5
21C
100
AcDbSymbolTableRecord
100
AcDbLayerTableRecord
  2
SIMBOLI
 70
0
 62
7
  6
CONTINUOUS
370
-3
390
F
  0
LAYER
  5
21D
100
AcDbSymbolTableRecord
100
AcDbLayerTableRecord
  2
SMUSSO
 70
0
 62
7
  6
CONTINUOUS
370
-3
390
F
  0
LAYER
  5
21E
100
AcDbSymbolTableRecord
100
AcDbLayerTableRecord
  2
SNAPLINE
 70
0
 62
7
  6
CONTINUOUS
370
-3
390
F
  0
LAYER
  5
21F
100
AcDbSymbolTableRecord
100
AcDbLayerTableRecord
  2
SUPERFICI
 70
0
 62
7
  6
CONTINUOUS
370
-3
390
F
  0
LAYER
  5
220
100
AcDbSymbolTableRecord
100
AcDbLayerTableRecord
  2
SUP_COLORE
 70
0
 62
7
  6
CONTINUOUS
370
-3
390
F
  0
LAYER
  5
221
100
AcDbSymbolTableRecord
100
AcDbLayerTableRecord
  2
TRASH
 70
0
 62
7
  6
CONTINUOUS
370
-3
390
F
  0
LAYER
  5
222
100
AcDbSymbolTableRecord
100
AcDbLayerTableRecord
  2
XSEC_DATUMS
 70
0
 62
7
  6
CONTINUOUS
370
-3
390
F
  0
LAYER
  5
223
100
AcDbSymbolTableRecord
100
AcDbLayerTableRecord
  2
___SHELL
 70
0
 62
7
  6
CONTINUOUS
370
-3
390
F
  0
ENDTAB
  0
TABLE
  2
STYLE
  5
3
100
AcDbSymbolTable
 70
1
  0
STYLE
  5
11
100
AcDbSymbolTableRecord
100
AcDbTextStyleTableRecord
  2
STANDARD
 70
0
 40
0.0
 41
0.8
 50
0.0
 71
0
 42
0.2
  3
txt
  4

  0
STYLE
  5
224
100
AcDbSymbolTableRecord
100
AcDbTextStyleTableRecord
  2
TEXTSTYLE_1
 70
0
 40
0.0
 41
0.8
 50
0.0
 71
0
 42
0.2
  3
gdt
  4

  0
ENDTAB
  0
TABLE
  2
VIEW
  5
6
100
AcDbSymbolTable
 70
0
  0
ENDTAB
  0
TABLE
  2
UCS
  5
7
100
AcDbSymbolTable
 70
0
  0
ENDTAB
  0
TABLE
  2
APPID
  5
9
100
AcDbSymbolTable
 70
1
  0
APPID
  5
225
100
AcDbSymbolTableRecord
100
AcDbRegAppTableRecord
  2
ACAD
 70
0
  0
ENDTAB
  0
TABLE
  2
BLOCK_RECORD
  5
1
100
AcDbSymbolTable
 70
0
  0
BLOCK_RECORD
  5
226
100
AcDbSymbolTableRecord
100
AcDbBlockTableRecord
  2
*Model_Space
  0
BLOCK_RECORD
  5
227
100
AcDbSymbolTableRecord
100
AcDbBlockTableRecord
  2
*Paper_Space
  0
BLOCK_RECORD
  5
228
100
AcDbSymbolTableRecord
100
AcDbBlockTableRecord
  2
_FILLED
  0
ENDTAB
  0
TABLE
  2
DIMSTYLE
  5
A
100
AcDbSymbolTable
 70
1
100
AcDbDimStyleTable
 71
0
  0
DIMSTYLE
105
229
100
AcDbSymbolTableRecord
100
AcDbDimStyleTableRecord
  2
STANDARD
 70
0
  3

  4

 40
1.0
 41
3.0
 42
0.5
 43
0.38
 44
1.5
 45
0.0
 46
0.0
 47
0.01
 48
0.01
140
3.0
141
0.09
142
0.0
143
25.4
144
1.0
145
0.0
146
1.0
147
0.625
 71
1
 72
0
 73
0
 74
0
 75
0
 76
0
 77
1
 78
8
 79
2
170
0
171
1
172
0
173
0
174
0
175
0
176
0
177
0
178
0
270
2
179
2
271
2
272
2
273
2
274
2
275
0
280
0
281
0
282
0
283
1
284
8
285
0
286
0
287
3
288
0
340
11
278
44
341
228
342
228
343
228
344
228
  0
ENDTAB
  0
ENDSEC
  0
SECTION
  2
BLOCKS
  0
BLOCK
  5
20
100
AcDbEntity
  8
0
100
AcDbBlockBegin
  2
*Model_Space
 70
0
 10
0.0
 20
0.0
 30
0.0
  3
*Model_Space
  1

  0
ENDBLK
  5
21
100
AcDbEntity
  8
0
100
AcDbBlockEnd
  0
BLOCK
  5
1C
100
AcDbEntity
  8
0
100
AcDbBlockBegin
  2
*Paper_Space
 70
0
 10
0.0
 20
0.0
 30
0.0
  3
*Paper_Space
  1

  0
ENDBLK
  5
1D
100
AcDbEntity
  8
0
100
AcDbBlockEnd
  0
BLOCK
  5
22A
100
AcDbEntity
  8
0
100
AcDbBlockBegin
  2
_FILLED
 70
64
 10
0.0
 20
0.0
  3
_FILLED
  1

  0
SOLID
  5
22B
100
AcDbEntity
  8
0
  6
BYBLOCK
 62
0
100
AcDbTrace
 10
0.0
 20
0.0
 11
-1.0
 21
0.3166666667
 12
-1.0
 22
-0.3166666667
 13
-1.0
 23
-0.3166666667
  0
ENDBLK
  5
22C
100
AcDbEntity
  8
0
  6
BYBLOCK
 62
0
100
AcDbBlockEnd
  0
ENDSEC
  0
SECTION
  2
ENTITIES
  0
LWPOLYLINE
  5
22D
100
AcDbEntity
  8
0
100
AcDbPolyline
 62
250
  6
CONTINUOUS
 90
11
 70
0
 10
256.2945610282
 20
245.5452273707
 10
256.3032482557
 20
245.5565269349
 10
256.312249135
 20
245.5673435831
 10
256.3215318165
 20
245.5776399453
 10
256.3310653606
 20
245.5873819628
 10
256.3408165653
 20
245.5965363612
 10
256.3507516257
 20
245.6050720424
 10
256.3608377804
 20
245.6129608536
 10
256.3710406924
 20
245.6201760337
 10
256.3813244937
 20
245.6266925884
 10
256.3916536088
 20
245.6324882494
  0
LWPOLYLINE
  5
22E
100
AcDbEntity
  8
0
100
AcDbPolyline
 62
7
  6
CONTINUOUS
 90
12
 70
0
 10
256.2992946383
 20
245.6366337954
 10
256.2811790378
 20
245.6258344005
 10
256.2599115797
 20
245.6102116987
 10
256.240023591
 20
245.5921264399
 10
256.2217812189
 20
245.5717496427
 10
256.2058634163
 20
245.5499403645
 10
256.1919974854
 20
245.526449983
 10
256.1802337867
 20
245.501173431
 10
256.1711646582
 20
245.475332213
 10
256.1647877017
 20
245.4492464794
 10
256.1609923921
 20
245.4222307221
 10
256.1599900057
 20
245.3995504854
  0
LINE
  5
22F
100
AcDbEntity
  8
0
100
AcDbLine
 62
7
  6
CONTINUOUS
 10
256.2991569877
 20
245.6365597943
 11
257.8664002963
 21
246.4821235145
  0
LINE
  5
230
100
AcDbEntity
  8
0
100
AcDbLine
 62
250
  6
CONTINUOUS
 10
256.3916536088
 20
245.6324882494
 11
257.9579043549
 21
246.4775164594
  0
LWPOLYLINE
  5
231
100
AcDbEntity
  8
0
100
AcDbPolyline
 62
7
  6
CONTINUOUS
 90
15
 70
0
 10
258.5050547213
 20
244.2760165351
 10
258.4906857626
 20
244.2600067488
 10
258.4750263015
 20
244.2448501925
 10
258.4581914311
 20
244.2306206776
 10
258.4403316911
 20
244.2172982126
 10
258.4215812878
 20
244.2050342882
 10
258.4020512942
 20
244.1941596046
 10
258.3819265697
 20
244.184725876
 10
258.3614005109
 20
244.1767882893
 10
258.3406174219
 20
244.1706888229
 10
258.3197786075
 20
244.1664680831
 10
258.2991682122
 20
244.1641551108
 10
258.2790771377
 20
244.1640621729
 10
258.2597866827
 20
244.1662813281
 10
258.254232202
 20
244.1673673323
  0
LWPOLYLINE
  5
232
100
AcDbEntity
  8
0
100
AcDbPolyline
 62
7
  6
CONTINUOUS
 90
3
 70
0
 10
259.3116231226
 20
244.6192965241
 10
259.3041581032
 20
244.6113402231
 10
259.2964490348
 20
244.6018835638
  0
LWPOLYLINE
  5
233
100
AcDbEntity
  8
0
100
AcDbPolyline
 62
7
  6
CONTINUOUS
 90
10
 70
0
 10
259.3554238365
 20
244.6481916316
 10
259.353681898
 20
244.6463867936
 10
259.3506254978
 20
244.6440714217
 10
259.3469093546
 20
244.6419116521
 10
259.3425523298
 20
244.6397233452
 10
259.3374737112
 20
244.6371267344
 10
259.3317786639
 20
244.6341534885
 10
259.3255545612
 20
244.6306246101
 10
259.3187982467
 20
244.6257811116
 10
259.3116231226
 20
244.6192965241
  0
LINE
  5
234
100
AcDbEntity
  8
0
100
AcDbLine
 62
7
  6
CONTINUOUS
 10
258.2247016909
 20
243.3189616253
 11
258.257065211
 21
243.3414865813
  0
LWPOLYLINE
  5
235
100
AcDbEntity
  8
0
100
AcDbPolyline
 62
7
  6
CONTINUOUS
 90
6
 70
0
 10
258.257065211
 20
243.3414865813
 10
258.2748170704
 20
243.3537547728
 10
258.2938174715
 20
243.3664534898
 10
258.3137871937
 20
243.3793365152
 10
258.333863561
 20
243.392097686
 10
258.3535071939
 20
243.4043652391
  0
LWPOLYLINE
  5
236
100
AcDbEntity
  8
0
100
AcDbPolyline
 62
7
  6
CONTINUOUS
 90
11
 70
0
 10
256.6784959763
 20
244.2890554486
 10
256.6584818057
 20
244.2761788238
 10
256.6287016154
 20
244.2525979014
 10
256.6013359575
 20
244.2249774251
 10
256.5770223581
 20
244.1937630831
 10
256.5560788172
 20
244.1592409387
 10
256.538783728
 20
244.1217181666
 10
256.5253941113
 20
244.0817213218
 10
256.5159882841
 20
244.0395620746
 10
256.5106214612
 20
243.9953712309
 10
256.5092714901
 20
243.9583139078
  0
LWPOLYLINE
  5
237
100
AcDbEntity
  8
0
100
AcDbPolyline
 62
7
  6
CONTINUOUS
 90
19
 70
0
 10
252.2404497399
 20
241.7348652138
 10
252.2089475841
 20
241.7159313937
 10
252.1198468864
 20
241.6560298238
 10
252.0340659336
 20
241.5889943401
 10
251.9517961585
 20
241.5152311595
 10
251.8732628519
 20
241.4351703454
 10
251.7988321722
 20
241.349396746
 10
251.7286967775
 20
241.2582754109
 10
251.6631194303
 20
241.1622509898
 10
251.6026429115
 20
241.0621650547
 10
251.5475003013
 20
240.9584871472
 10
251.4979532529
 20
240.8516734872
 10
251.4544602638
 20
240.7426906897
 10
251.4172419193
 20
240.6320628529
 10
251.3865234465
 20
240.5202334861
 10
251.3626084242
 20
240.4080028834
 10
251.3457164967
 20
240.2958904001
 10
251.336035404
 20
240.1842958805
 10
251.3345127959
 20
240.1490198123
  0
LINE
  5
238
100
AcDbEntity
  8
0
100
AcDbLine
 62
7
  6
CONTINUOUS
 10
256.6781505046
 20
244.288859168
 11
256.8547539942
 21
244.3935501036
  0
LINE
  5
239
100
AcDbEntity
  8
0
100
AcDbLine
 62
7
  6
CONTINUOUS
 10
252.2402128618
 20
241.734727337
 11
253.1823055194
 21
242.2840536455
  0
LINE
  5
23A
100
AcDbEntity
  8
0
100
AcDbLine
 62
250
  6
CONTINUOUS
 10
252.4735669137
 20
241.7259599464
 11
253.4162082945
 21
242.2756062108
  0
LINE
  5
23B
100
AcDbEntity
  8
0
100
AcDbLine
 62
250
  6
CONTINUOUS
 10
257.6795501909
 20
244.9885399584
 11
259.3014503175
 21
245.8057434781
  0
LINE
  5
23C
100
AcDbEntity
  8
0
100
AcDbLine
 62
250
  6
CONTINUOUS
 10
257.8209500079
 20
244.744661349
 11
259.4428501346
 21
245.5618648688
  0
LINE
  5
23D
100
AcDbEntity
  8
0
100
AcDbLine
 62
7
  6
CONTINUOUS
 10
257.8705652035
 20
246.4842062393
 11
257.8663997546
 21
246.4821232223
  0
LINE
  5
23E
100
AcDbEntity
  8
0
100
AcDbLine
 62
250
  6
CONTINUOUS
 10
259.3014503175
 20
245.8057434781
 11
259.8257106494
 21
246.0657804677
  0
LINE
  5
23F
100
AcDbEntity
  8
0
100
AcDbLine
 62
250
  6
CONTINUOUS
 10
259.4428501346
 20
245.5618648688
 11
259.9669546011
 21
245.8218245479
  0
LWPOLYLINE
  5
240
100
AcDbEntity
  8
0
100
AcDbPolyline
 62
250
  6
CONTINUOUS
 90
7
 70
0
 10
256.2992946047
 20
245.6366338579
 10
256.3045971263
 20
245.6392190021
 10
256.3200631946
 20
245.6441613957
 10
256.3367959347
 20
245.6459632548
 10
256.3545091556
 20
245.644593761
 10
256.3728998966
 20
245.6400763378
 10
256.3916536088
 20
245.6324882494
  0
LWPOLYLINE
  5
241
100
AcDbEntity
  8
0
100
AcDbPolyline
 62
250
  6
CONTINUOUS
 90
8
 70
0
 10
252.2404497399
 20
241.7348652138
 10
252.2658043031
 20
241.7470321119
 10
252.2963113618
 20
241.7559240324
 10
252.3289607071
 20
241.7598571152
 10
252.3633950422
 20
241.7587883191
 10
252.3992375359
 20
241.7527293408
 10
252.4360959462
 20
241.7417464863
 10
252.4735669137
 20
241.7259599464
  0
LWPOLYLINE
  5
242
100
AcDbEntity
  8
0
100
AcDbPolyline
 62
250
  6
CONTINUOUS
 90
28
 70
0
 10
259.9669546011
 20
245.8218245479
 10
259.9686209047
 20
245.8226158872
 10
259.9703202892
 20
245.8233020076
 10
259.9720527546
 20
245.8238829092
 10
259.9738290519
 20
245.824369532
 10
259.9756384302
 20
245.8247509359
 10
259.977448637
 20
245.8249943012
 10
259.9792604813
 20
245.8250953123
 10
259.9810731542
 20
245.8250582849
 10
259.9828519758
 20
245.8248633462
 10
259.9845962629
 20
245.8245051791
 10
259.9863066987
 20
245.8239891008
 10
259.9879506527
 20
245.8233111902
 10
259.9895254694
 20
245.8224668935
 10
259.9910338044
 20
245.8214607645
 10
259.992450994
 20
245.8203025432
 10
259.9937739039
 20
245.8189902263
 10
259.9950056684
 20
245.8175258171
 10
259.9961310273
 20
245.8159250661
 10
259.9971483818
 20
245.8141864545
 10
259.9980593307
 20
245.812311501
 10
259.99885341
 20
245.810320513
 10
259.9995292113
 20
245.808211973
 10
260.000088143
 20
245.8059873985
 10
260.0005239661
 20
245.8036716485
 10
260.000834601
 20
245.8012730092
 10
260.0010221273
 20
245.7987831944
 10
260.0010865451
 20
245.7962022041
  0
LINE
  5
243
100
AcDbEntity
  8
0
100
AcDbLine
 62
250
  6
CONTINUOUS
 10
257.9579043549
 20
246.4775164594
 11
258.5005058899
 21
246.7281078294
  0
LINE
  5
244
100
AcDbEntity
  8
0
100
AcDbLine
 62
7
  6
CONTINUOUS
 10
257.8705662052
 20
246.4842067796
 11
258.4145253359
 21
246.7354247034
  0
LWPOLYLINE
  5
245
100
AcDbEntity
  8
0
100
AcDbPolyline
 62
250
  6
CONTINUOUS
 90
14
 70
0
 10
259.8257128667
 20
246.0657792711
 10
259.8340456182
 20
246.0695443434
 10
259.8426187664
 20
246.0729086141
 10
259.8514081948
 20
246.0758142753
 10
259.8604121605
 20
246.0782081289
 10
259.869571389
 20
246.0800195009
 10
259.8787724088
 20
246.0811797055
 10
259.8879734416
 20
246.0816448731
 10
259.8971404558
 20
246.0813731812
 10
259.9061748322
 20
246.0803323523
 10
259.9150367798
 20
246.0784981737
 10
259.9236860351
 20
246.0758489057
 10
259.9320317887
 20
246.0723888663
 10
259.9338935578
 20
246.0714837129
  0
LWPOLYLINE
  5
246
100
AcDbEntity
  8
0
100
AcDbPolyline
 62
250
  6
CONTINUOUS
 90
13
 70
0
 10
258.5005076009
 20
246.7281069216
 10
258.5096278925
 20
246.7321618935
 10
258.5188896071
 20
246.735689739
 10
258.5282647628
 20
246.7386460061
 10
258.5377380923
 20
246.7409895512
 10
258.5472600304
 20
246.7426709344
 10
258.5567489297
 20
246.7436442246
 10
258.5661728264
 20
246.7438779901
 10
258.5754887559
 20
246.7433420832
 10
258.5846023274
 20
246.7420197396
 10
258.5934746384
 20
246.7399012944
 10
258.6020728791
 20
246.736978664
 10
258.609728143
 20
246.7335664203
  0
LWPOLYLINE
  5
247
100
AcDbEntity
  8
0
100
AcDbPolyline
 62
250
  6
CONTINUOUS
 90
6
 70
0
 10
258.4145253359
 20
246.7354247034
 10
258.4308457919
 20
246.7407414054
 10
258.4472851751
 20
246.7423965976
 10
258.4645947481
 20
246.7408252815
 10
258.4824784547
 20
246.7360543296
 10
258.5006304176
 20
246.7281653405
  0
LWPOLYLINE
  5
248
100
AcDbEntity
  8
0
100
AcDbPolyline
 62
7
  6
CONTINUOUS
 90
12
 70
0
 10
266.6983239319
 20
196.1863905768
 10
266.7552639482
 20
196.1603032714
 10
266.8303896412
 20
196.132916446
 10
266.9087131562
 20
196.1120693012
 10
266.9897652186
 20
196.0980868171
 10
267.0731117046
 20
196.0912330913
 10
267.1582859362
 20
196.091707846
 10
267.2448417451
 20
196.0996669588
 10
267.3324920429
 20
196.1152592254
 10
267.4208781838
 20
196.1385814801
 10
267.5095101538
 20
196.1696814966
 10
267.5337235398
 20
196.1795446993
  0
LINE
  5
249
100
AcDbEntity
  8
0
100
AcDbLine
 62
7
  6
CONTINUOUS
 10
266.6993155781
 20
196.1858933283
 11
251.8654172983
 21
203.6028424682
  0
LINE
  5
24A
100
AcDbEntity
  8
0
100
AcDbLine
 62
250
  6
CONTINUOUS
 10
251.8654167007
 20
203.602842767
 11
251.8257570659
 21
203.6247582054
  0
LWPOLYLINE
  5
24B
100
AcDbEntity
  8
0
100
AcDbPolyline
 62
250
  6
CONTINUOUS
 90
12
 70
0
 10
251.8257570659
 20
203.6247582054
 10
251.7754086772
 20
203.6592462745
 10
251.7277456003
 20
203.7001203989
 10
251.6829769398
 20
203.7476456497
 10
251.6416885816
 20
203.8016888625
 10
251.6041279823
 20
203.862456971
 10
251.5706338336
 20
203.9301517481
 10
251.541768397
 20
204.0045131619
 10
251.518065664
 20
204.0849383408
 10
251.4998677537
 20
204.170977866
 10
251.4874235572
 20
204.262436115
 10
251.4810009036
 20
204.3589159229
  0
LWPOLYLINE
  5
24C
100
AcDbEntity
  8
0
100
AcDbPolyline
 62
250
  6
CONTINUOUS
 90
9
 70
0
 10
251.3345371025
 20
204.5365628733
 10
251.3353869481
 20
204.5252196626
 10
251.3412058052
 20
204.4983406525
 10
251.3523074451
 20
204.4720510479
 10
251.3685729192
 20
204.4466325292
 10
251.3898279511
 20
204.4223574433
 10
251.4158448032
 20
204.3994858859
 10
251.446344718
 20
204.3782629145
 10
251.4810009036
 20
204.3589159229
  0
LWPOLYLINE
  5
24D
100
AcDbEntity
  8
0
100
AcDbPolyline
 62
7
  6
CONTINUOUS
 90
14
 70
0
 10
251.3345360869
 20
204.5365932026
 10
251.3362888754
 20
204.4986942845
 10
251.3460843629
 20
204.3955620821
 10
251.362918978
 20
204.2966246871
 10
251.3865879043
 20
204.2022717904
 10
251.4169124603
 20
204.1126832251
 10
251.4537528917
 20
204.0279439162
 10
251.4969257103
 20
203.9483733525
 10
251.5461858436
 20
203.8743368578
 10
251.6012383531
 20
203.8061834022
 10
251.6616966792
 20
203.7443354057
 10
251.7270915953
 20
203.6891994575
 10
251.7968188435
 20
203.6411443555
 10
251.8664169324
 20
203.60234367
  0
LWPOLYLINE
  5
24E
100
AcDbEntity
  8
0
100
AcDbPolyline
 62
250
  6
CONTINUOUS
 90
16
 70
0
 10
251.4810009036
 20
204.3589159229
 10
251.4030357369
 20
206.8604598029
 10
251.338865365
 20
209.2944527165
 10
251.2874421503
 20
211.6602488647
 10
251.2480577143
 20
213.9362726868
 10
251.2192412786
 20
216.1428077183
 10
251.1996492175
 20
218.3424578929
 10
251.1891473665
 20
220.5369848055
 10
251.1875917694
 20
222.7243705433
 10
251.1951425191
 20
224.962328432
 10
251.2124429011
 20
227.2560331206
 10
251.2400633017
 20
229.6007834403
 10
251.2793560626
 20
232.0401087648
 10
251.3318522205
 20
234.5889772081
 10
251.3986312318
 20
237.233490337
 10
251.4810009036
 20
239.9741557905
  0
LWPOLYLINE
  5
24F
100
AcDbEntity
  8
0
100
AcDbPolyline
 62
7
  6
CONTINUOUS
 90
10
 70
0
 10
251.3345184809
 20
240.1491993476
 10
251.2197044701
 20
236.1836292053
 10
251.1320017441
 20
232.1668872466
 10
251.0735362895
 20
228.1644291115
 10
251.0443129873
 20
224.1765849372
 10
251.04433447
 20
220.2036765324
 10
251.0736012175
 20
216.2460372043
 10
251.1321117679
 20
212.3039900171
 10
251.2198623882
 20
208.3778567879
 10
251.3345371025
 20
204.5365628733
  0
LWPOLYLINE
  5
250
100
AcDbEntity
  8
0
100
AcDbPolyline
 62
250
  6
CONTINUOUS
 90
22
 70
0
 10
251.4810009036
 20
239.9741557905
 10
251.4867519113
 20
240.0697013855
 10
251.4976297582
 20
240.1657540143
 10
251.5133436491
 20
240.2617624254
 10
251.5334604203
 20
240.3566846153
 10
251.5577390964
 20
240.4505703759
 10
251.5863861082
 20
240.5445741177
 10
251.6195102575
 20
240.6388746116
 10
251.6568005637
 20
240.7324375365
 10
251.6980007277
 20
240.8246153198
 10
251.742618133
 20
240.9144472793
 10
251.7906755967
 20
241.0021111337
 10
251.8428050211
 20
241.0885810788
 10
251.8991406658
 20
241.1736768243
 10
251.9593404618
 20
241.2564979478
 10
252.0234679858
 20
241.3367550205
 10
252.0915500687
 20
241.414051782
 10
252.1631546144
 20
241.4874726448
 10
252.2375805507
 20
241.5559698294
 10
252.3143261594
 20
241.6188552651
 10
252.3931318282
 20
241.6757017702
 10
252.4735669137
 20
241.7259599464
  0
LWPOLYLINE
  5
251
100
AcDbEntity
  8
0
100
AcDbPolyline
 62
250
  6
CONTINUOUS
 90
7
 70
0
 10
259.9954048837
 20
245.4401258088
 10
259.9963879481
 20
245.4414740726
 10
259.9992053355
 20
245.4488400221
 10
259.999326268
 20
245.4581856205
 10
259.9967486991
 20
245.4693527313
 10
259.9915162439
 20
245.4821523962
 10
259.9837174404
 20
245.4963680324
  0
LWPOLYLINE
  5
252
100
AcDbEntity
  8
0
100
AcDbPolyline
 62
7
  6
CONTINUOUS
 90
9
 70
0
 10
259.9953794231
 20
245.4400945113
 10
260.0048558073
 20
245.4525259494
 10
260.0184691966
 20
245.4733819501
 10
260.0303223831
 20
245.4956496403
 10
260.0402650492
 20
245.5192110411
 10
260.047918337
 20
245.5431879462
 10
260.0532820312
 20
245.5673438469
 10
260.0564245008
 20
245.5921712206
 10
260.0572184075
 20
245.6123426748
  0
LINE
  5
253
100
AcDbEntity
  8
0
100
AcDbLine
 62
250
  6
CONTINUOUS
 10
259.9837174404
 20
245.4963680324
 11
259.4428501346
 21
244.8270805463
  0
LINE
  5
254
100
AcDbEntity
  8
0
100
AcDbLine
 62
7
  6
CONTINUOUS
 10
259.9954048837
 20
245.4401258088
 11
259.3553918266
 21
244.6481520189
  0
LWPOLYLINE
  5
255
100
AcDbEntity
  8
0
100
AcDbPolyline
 62
7
  6
CONTINUOUS
 90
3
 70
0
 10
256.6577966901
 20
241.227699654
 10
256.6448160592
 20
241.2186455212
 10
256.6329086567
 20
241.209934003
  0
LWPOLYLINE
  5
256
100
AcDbEntity
  8
0
100
AcDbPolyline
 62
7
  6
CONTINUOUS
 90
4
 70
0
 10
256.7193105165
 20
241.2685595973
 10
256.7025870679
 20
241.2577536264
 10
256.6867510211
 20
241.2471942736
 10
256.6577966901
 20
241.227699654
  0
LWPOLYLINE
  5
257
100
AcDbEntity
  8
0
100
AcDbPolyline
 62
7
  6
CONTINUOUS
 90
3
 70
0
 10
256.7738039774
 20
241.3027969609
 10
256.754914995
 20
241.2912256228
 10
256.7193105165
 20
241.2685595973
  0
LWPOLYLINE
  5
258
100
AcDbEntity
  8
0
100
AcDbPolyline
 62
7
  6
CONTINUOUS
 90
8
 70
0
 10
258.3535071939
 20
243.4043652391
 10
258.3922836718
 20
243.4279737434
 10
258.4118413505
 20
243.4396226295
 10
258.4312316879
 20
243.4508098478
 10
258.449916756
 20
243.4613921122
 10
258.467618815
 20
243.4712523266
 10
258.484342867
 20
243.4802643607
 10
258.4999491684
 20
243.4883255301
  0
LWPOLYLINE
  5
259
100
AcDbEntity
  8
0
100
AcDbPolyline
 62
250
  6
CONTINUOUS
 90
16
 70
0
 10
261.88734383
 20
243.4838438016
 10
261.8838884347
 20
243.4817621025
 10
261.8809147632
 20
243.4795669319
 10
261.8784228153
 20
243.4772582899
 10
261.8763973764
 20
243.4748091744
 10
261.8748536612
 20
243.4722465874
 10
261.8738373141
 20
243.4696515354
 10
261.8733646939
 20
243.4670232811
 10
261.8734194418
 20
243.4643625616
 10
261.8739981253
 20
243.4617525955
 10
261.875118509
 20
243.4591940115
 10
261.8767628283
 20
243.4566861808
 10
261.8788743577
 20
243.4543104348
 10
261.8814341887
 20
243.4520938842
 10
261.8844612298
 20
243.4500094183
 10
261.8879554809
 20
243.4480570373
  0
LWPOLYLINE
  5
25A
100
AcDbEntity
  8
0
100
AcDbPolyline
 62
250
  6
CONTINUOUS
 90
13
 70
0
 10
261.8879554809
 20
243.4480570373
 10
261.8651657151
 20
243.4343633121
 10
261.8428089067
 20
243.4173023496
 10
261.8212591453
 20
243.3971596257
 10
261.8008770162
 20
243.3742721822
 10
261.7820035674
 20
243.3490229878
 10
261.7649546024
 20
243.3218345292
 10
261.7500153962
 20
243.2931617425
 10
261.7374359219
 20
243.2634844007
 10
261.727426668
 20
243.2332990853
 10
261.7201551162
 20
243.2031108779
 10
261.7157429392
 20
243.1734249085
 10
261.7142639644
 20
243.144737903
  0
LWPOLYLINE
  5
25B
100
AcDbEntity
  8
0
100
AcDbPolyline
 62
7
  6
CONTINUOUS
 90
11
 70
0
 10
261.7716617802
 20
243.488900244
 10
261.7604036008
 20
243.4825024109
 10
261.7343319185
 20
243.4649327605
 10
261.7095946334
 20
243.4438796231
 10
261.6874007186
 20
243.4199865083
 10
261.6682846192
 20
243.3937048194
 10
261.6524710904
 20
243.3653076725
 10
261.6404360881
 20
243.3358280553
 10
261.6322233787
 20
243.3060736279
 10
261.6276244789
 20
243.2764074565
 10
261.626398975
 20
243.2510461905
  0
LINE
  5
25C
100
AcDbEntity
  8
0
100
AcDbLine
 62
7
  6
CONTINUOUS
 10
256.8946930175
 20
241.372300591
 11
256.8746950409
 21
241.3609728527
  0
LWPOLYLINE
  5
25D
100
AcDbEntity
  8
0
100
AcDbPolyline
 62
7
  6
CONTINUOUS
 90
6
 70
0
 10
257.0653279552
 20
240.7727981988
 10
257.0472659616
 20
240.7625863462
 10
256.9988055464
 20
240.7302430591
 10
256.9536082359
 20
240.6924119335
 10
256.9121320096
 20
240.6493434331
 10
256.8966117579
 20
240.6294117725
  0
LWPOLYLINE
  5
25E
100
AcDbEntity
  8
0
100
AcDbPolyline
 62
7
  6
CONTINUOUS
 90
4
 70
0
 10
256.8746950409
 20
241.3609728527
 10
256.8334294175
 20
241.3383063863
 10
256.8130685402
 20
241.3265899152
 10
256.7738039774
 20
241.3027969609
  0
LINE
  5
25F
100
AcDbEntity
  8
0
100
AcDbLine
 62
7
  6
CONTINUOUS
 10
259.2964490348
 20
243.9230680984
 11
258.5050547213
 21
243.4910226808
  0
LINE
  5
260
100
AcDbEntity
  8
0
100
AcDbLine
 62
7
  6
CONTINUOUS
 10
262.2629362793
 20
243.7539540372
 11
261.7716618217
 21
243.4889001675
  0
LINE
  5
261
100
AcDbEntity
  8
0
100
AcDbLine
 62
250
  6
CONTINUOUS
 10
262.3773163526
 20
243.7481952183
 11
261.88734383
 21
243.4838438016
  0
LINE
  5
262
100
AcDbEntity
  8
0
100
AcDbLine
 62
7
  6
CONTINUOUS
 10
257.065267656
 20
240.7727701687
 11
258.7023794332
 21
241.6560295709
  0
LINE
  5
263
100
AcDbEntity
  8
0
100
AcDbLine
 62
250
  6
CONTINUOUS
 10
257.5241725615
 20
240.7504819634
 11
259.1598997263
 21
241.6329942952
  0
LINE
  5
264
100
AcDbEntity
  8
0
100
AcDbLine
 62
7
  6
CONTINUOUS
 10
262.2629369783
 20
243.75395436
 11
262.2681449558
 21
243.7565587145
  0
LINE
  5
265
100
AcDbEntity
  8
0
100
AcDbLine
 62
7
  6
CONTINUOUS
 10
267.1726345234
 20
247.3153660324
 11
260.5935984567
 21
244.1196088525
  0
LINE
  5
266
100
AcDbEntity
  8
0
100
AcDbLine
 62
250
  6
CONTINUOUS
 10
267.394304185
 20
247.3002151204
 11
260.7182008494
 21
244.0573076561
  0
LINE
  5
267
100
AcDbEntity
  8
0
100
AcDbLine
 62
250
  6
CONTINUOUS
 10
268.0489517212
 20
246.1859422257
 11
263.3672927702
 21
243.945197261
  0
LINE
  5
268
100
AcDbEntity
  8
0
100
AcDbLine
 62
7
  6
CONTINUOUS
 10
260.8574512815
 20
243.9876824401
 11
261.6541911221
 21
244.3640141884
  0
LINE
  5
269
100
AcDbEntity
  8
DRAFT
100
AcDbLine
 62
7
  6
CONTINUOUS
 10
274.343217241
 20
250.2621003319
 11
267.7187214697
 21
247.1380064781
  0
LINE
  5
26A
100
AcDbEntity
  8
0
100
AcDbLine
 62
7
  6
CONTINUOUS
 10
275.6644896592
 20
250.3835059911
 11
261.4406445001
 21
243.6960858308
  0
LINE
  5
26B
100
AcDbEntity
  8
0
100
AcDbLine
 62
250
  6
CONTINUOUS
 10
275.7739439522
 20
250.375279583
 11
261.5021675752
 21
243.6653242932
  0
LINE
  5
26C
100
AcDbEntity
  8
0
100
AcDbLine
 62
7
  6
CONTINUOUS
 10
262.2681436654
 20
243.7565581186
 11
267.7539146438
 21
246.2900689486
  0
LINE
  5
26D
100
AcDbEntity
  8
0
100
AcDbLine
 62
250
  6
CONTINUOUS
 10
262.3773163526
 20
243.7481952183
 11
267.8618195518
 21
246.2811205459
  0
LWPOLYLINE
  5
26E
100
AcDbEntity
  8
0
100
AcDbPolyline
 62
250
  6
CONTINUOUS
 90
31
 70
0
 10
267.8618195518
 20
246.2811205459
 10
267.8724511777
 20
246.2855090055
 10
267.8837342911
 20
246.2892665706
 10
267.8956688918
 20
246.2923932411
 10
267.9084033417
 20
246.2949115699
 10
267.921789279
 20
246.2967990041
 10
267.9353816184
 20
246.2979878856
 10
267.9491812715
 20
246.2984532896
 10
267.9631873267
 20
246.2982201407
 10
267.976951964
 20
246.2972955547
 10
267.990467396
 20
246.2956570177
 10
268.0037414101
 20
246.2933270436
 10
268.0163495482
 20
246.2903802891
 10
268.0282703272
 20
246.2867968782
 10
268.0395252302
 20
246.2825966868
 10
268.0497542482
 20
246.2779139995
 10
268.0589241769
 20
246.2727331985
 10
268.0670682206
 20
246.2670699016
 10
268.0739259832
 20
246.2611052459
 10
268.079456008
 20
246.2548295013
 10
268.0836997517
 20
246.248252398
 10
268.0865211891
 20
246.2415842636
 10
268.0878740391
 20
246.2348221709
 10
268.0878045829
 20
246.2279690471
 10
268.0863156387
 20
246.2212440016
 10
268.0833572809
 20
246.2146489362
 10
268.0789794352
 20
246.2081819491
 10
268.0733346969
 20
246.2020564441
 10
268.066473931
 20
246.1963435558
 10
268.0583462724
 20
246.1909721497
 10
268.0489517212
 20
246.1859422257
  0
LWPOLYLINE
  5
26F
100
AcDbEntity
  8
0
100
AcDbPolyline
 62
250
  6
CONTINUOUS
 90
6
 70
0
 10
267.7539146438
 20
246.2900689486
 10
267.7745929486
 20
246.2968414719
 10
267.7951417156
 20
246.2989096077
 10
267.8167778252
 20
246.296944937
 10
267.8391312037
 20
246.2909812045
 10
267.8618195518
 20
246.2811205459
  0
LWPOLYLINE
  5
270
100
AcDbEntity
  8
0
100
AcDbPolyline
 62
7
  6
CONTINUOUS
 90
16
 70
0
 10
271.8693728857
 20
197.3442533135
 10
271.8550110319
 20
197.3473316762
 10
271.8394711558
 20
197.3512410407
 10
271.8227909604
 20
197.3558899003
 10
271.8049577939
 20
197.3610839553
 10
271.7861105733
 20
197.3667978477
 10
271.766536078
 20
197.3731764886
 10
271.7463359195
 20
197.3800763152
 10
271.725633924
 20
197.3873552342
 10
271.7047712779
 20
197.3951443315
 10
271.6839316824
 20
197.4032620907
 10
271.6632635011
 20
197.4115500317
 10
271.6430784008
 20
197.4201491569
 10
271.6236302499
 20
197.4289642452
 10
271.6051146817
 20
197.4376813432
 10
271.5877855959
 20
197.4460937451
  0
LWPOLYLINE
  5
271
100
AcDbEntity
  8
0
100
AcDbPolyline
 62
250
  6
CONTINUOUS
 90
8
 70
0
 10
269.6709663988
 20
197.3482849101
 10
269.6529691981
 20
197.356202477
 10
269.6364730289
 20
197.362046165
 10
269.6217570216
 20
197.3657170948
 10
269.6090701842
 20
197.3671531521
 10
269.5986271895
 20
197.3663300388
 10
269.5906047421
 20
197.363261685
 10
269.5861449823
 20
197.3593770878
  0
LWPOLYLINE
  5
272
100
AcDbEntity
  8
0
100
AcDbPolyline
 62
7
  6
CONTINUOUS
 90
11
 70
0
 10
270.9345175947
 20
196.1072235591
 10
270.9482685211
 20
196.1009093966
 10
270.9692064756
 20
196.0933781393
 10
270.99094332
 20
196.0879706057
 10
271.0132604529
 20
196.0847790818
 10
271.0360135807
 20
196.0838669701
 10
271.0589797849
 20
196.0852939661
 10
271.0818312674
 20
196.0890753468
 10
271.1043212226
 20
196.0951797897
 10
271.1262468625
 20
196.1035605913
 10
271.129965146
 20
196.1052349435
  0
LINE
  5
273
100
AcDbEntity
  8
0
100
AcDbLine
 62
250
  6
CONTINUOUS
 10
266.3058469813
 20
196.9464928841
 11
251.4810009036
 21
204.3589159229
  0
LINE
  5
274
100
AcDbEntity
  8
0
100
AcDbLine
 62
250
  6
CONTINUOUS
 10
269.582886616
 20
196.8857701939
 11
270.8695704794
 21
196.2424282622
  0
LINE
  5
275
100
AcDbEntity
  8
0
100
AcDbLine
 62
250
  6
CONTINUOUS
 10
269.582886616
 20
197.1164364539
 11
270.8695704794
 21
196.4730771716
  0
LINE
  5
276
100
AcDbEntity
  8
0
100
AcDbLine
 62
250
  6
CONTINUOUS
 10
269.6709663988
 20
197.3482849101
 11
270.958214723
 21
196.704572379
  0
LINE
  5
277
100
AcDbEntity
  8
0
100
AcDbLine
 62
7
  6
CONTINUOUS
 10
269.6475415853
 20
196.7507109702
 11
270.9347706766
 21
196.1070963617
  0
LWPOLYLINE
  5
278
100
AcDbEntity
  8
0
100
AcDbPolyline
 62
250
  6
CONTINUOUS
 90
7
 70
0
 10
269.582886616
 20
196.8857701939
 10
269.5658145445
 20
196.8954894108
 10
269.5513944986
 20
196.9062291789
 10
269.5398677638
 20
196.9178097927
 10
269.5314272127
 20
196.9300374769
 10
269.5262140775
 20
196.9427076293
 10
269.5243082697
 20
196.9563083978
  0
LWPOLYLINE
  5
279
100
AcDbEntity
  8
0
100
AcDbPolyline
 62
250
  6
CONTINUOUS
 90
7
 70
0
 10
269.582886616
 20
197.1164364539
 10
269.5658145534
 20
197.126155665
 10
269.5513945121
 20
197.1368954273
 10
269.5398677779
 20
197.1484760358
 10
269.5314272242
 20
197.1607037158
 10
269.5262140842
 20
197.1733738652
 10
269.5243079752
 20
197.1871298371
  0
LWPOLYLINE
  5
27A
100
AcDbEntity
  8
0
100
AcDbPolyline
 62
250
  6
CONTINUOUS
 90
9
 70
0
 10
251.3345127959
 20
240.1490198123
 10
251.3353868092
 20
240.1310938611
 10
251.3412054545
 20
240.1065633641
 10
251.3523069357
 20
240.0823158229
 10
251.3685723275
 20
240.0586110438
 10
251.3898273619
 20
240.0357030322
 10
251.4158443074
 20
240.0138372468
 10
251.4463444173
 20
239.9932479704
 10
251.4810009045
 20
239.9741558149
  0
LINE
  5
27B
100
AcDbEntity
  8
0
100
AcDbLine
 62
7
  6
CONTINUOUS
 10
270.9686906679
 20
245.678980156
 11
265.4342088241
 21
242.9117392341
  0
LINE
  5
27C
100
AcDbEntity
  8
0
100
AcDbLine
 62
7
  6
CONTINUOUS
 10
276.6255449174
 20
248.2404564305
 11
275.5408610783
 21
247.6981145109
  0
LINE
  5
27D
100
AcDbEntity
  8
0
100
AcDbLine
 62
250
  6
CONTINUOUS
 10
268.2226432378
 20
245.8795379127
 11
263.7653390989
 21
243.7461740967
  0
LINE
  5
27E
100
AcDbEntity
  8
0
100
AcDbLine
 62
7
  6
CONTINUOUS
 10
274.574935252
 20
247.9239883788
 11
268.2226432378
 21
244.8836416783
  0
LINE
  5
27F
100
AcDbEntity
  8
0
100
AcDbLine
 62
250
  6
CONTINUOUS
 10
275.2920425333
 20
248.0596146236
 11
277.904507481
 21
249.3099978186
  0
LINE
  5
280
100
AcDbEntity
  8
0
100
AcDbLine
 62
250
  6
CONTINUOUS
 10
275.5408610783
 20
247.8670751379
 11
278.0434606943
 21
249.0648743682
  0
LINE
  5
281
100
AcDbEntity
  8
RACCORDO
100
AcDbLine
 62
7
  6
CONTINUOUS
 10
274.6984391747
 20
247.1184099717
 11
274.5602456332
 21
247.0531356946
  0
LINE
  5
282
100
AcDbEntity
  8
RACCORDO
100
AcDbLine
 62
250
  6
CONTINUOUS
 10
274.78192222
 20
247.109886814
 11
274.6456459309
 21
247.0455181311
  0
LWPOLYLINE
  5
283
100
AcDbEntity
  8
RACCORDO
100
AcDbPolyline
 62
250
  6
CONTINUOUS
 90
11
 70
0
 10
275.615388343
 20
247.1637067871
 10
275.6244808034
 20
247.1677972382
 10
275.6335394777
 20
247.1711540234
 10
275.6425265993
 20
247.1737609955
 10
275.651407787
 20
247.1756055997
 10
275.6601422514
 20
247.1766767453
 10
275.6686835997
 20
247.1769677594
 10
275.6770004251
 20
247.1764772653
 10
275.6850536491
 20
247.1752072529
 10
275.6927896294
 20
247.1731697367
 10
275.7001632722
 20
247.1703863678
  0
LINE
  5
284
100
AcDbEntity
  8
RACCORDO
100
AcDbLine
 62
7
  6
CONTINUOUS
 10
274.6984405699
 20
247.1184106307
 11
274.7016497691
 21
247.1198268078
  0
LWPOLYLINE
  5
285
100
AcDbEntity
  8
RACCORDO
100
AcDbPolyline
 62
7
  6
CONTINUOUS
 90
5
 70
0
 10
274.5602436127
 20
247.0531338607
 10
274.5649981074
 20
247.0551495373
 10
274.5724244673
 20
247.0574673998
 10
274.5805708854
 20
247.0589997645
 10
274.5894892204
 20
247.0596506781
  0
LWPOLYLINE
  5
286
100
AcDbEntity
  8
0
100
AcDbPolyline
 62
250
  6
CONTINUOUS
 90
8
 70
0
 10
277.904507481
 20
249.3099978186
 10
277.9410161016
 20
249.3251515787
 10
277.9770674467
 20
249.3354711972
 10
278.0122752512
 20
249.3408461062
 10
278.046262288
 20
249.3412187173
 10
278.0786644093
 20
249.3365850382
 10
278.1091344488
 20
249.3269947153
 10
278.1219439213
 20
249.3211794834
  0
LWPOLYLINE
  5
287
100
AcDbEntity
  8
0
100
AcDbPolyline
 62
250
  6
CONTINUOUS
 90
16
 70
0
 10
278.0434606943
 20
249.0648743682
 10
278.0655154895
 20
249.0740008516
 10
278.0869285148
 20
249.080158635
 10
278.1076997701
 20
249.0833477182
 10
278.1280720016
 20
249.0835483205
 10
278.1478024631
 20
249.0807802226
 10
278.1661629162
 20
249.0751027674
 10
278.1830671642
 20
249.0664190283
 10
278.1986014038
 20
249.0548259318
 10
278.2122959871
 20
249.0406736007
 10
278.2241055088
 20
249.0238341023
 10
278.2340753742
 20
249.0044353692
 10
278.2418721507
 20
248.983211323
 10
278.2473846941
 20
248.9604066042
 10
278.2507241486
 20
248.9357765721
 10
278.2518905141
 20
248.9093212269
  0
LINE
  5
288
100
AcDbEntity
  8
0
100
AcDbLine
 62
7
  6
CONTINUOUS
 10
257.9655706037
 20
241.7971461546
 11
256.9143261799
 21
241.3813571554
  0
LWPOLYLINE
  5
289
100
AcDbEntity
  8
0
100
AcDbPolyline
 62
7
  6
CONTINUOUS
 90
3
 70
0
 10
262.2681449558
 20
243.7565587145
 10
262.288941933
 20
243.7633866205
 10
262.3096755551
 20
243.7655401097
  0
LWPOLYLINE
  5
28A
100
AcDbEntity
  8
RACCORDO
100
AcDbPolyline
 62
7
  6
CONTINUOUS
 90
6
 70
0
 10
274.7016497691
 20
247.1198268078
 10
274.7148780437
 20
247.1237688327
 10
274.7306616638
 20
247.1251074681
 10
274.7472989964
 20
247.123213643
 10
274.7644875974
 20
247.1181124341
 10
274.78192222
 20
247.109886814
  0
LWPOLYLINE
  5
28B
100
AcDbEntity
  8
0
100
AcDbPolyline
 62
7
  6
CONTINUOUS
 90
14
 70
0
 10
272.6607671992
 20
197.7826268898
 10
272.6685488577
 20
197.7812419576
 10
272.6760589269
 20
197.7818328352
 10
272.6832512075
 20
197.7844039194
 10
272.6899851695
 20
197.7892899684
 10
272.6961612688
 20
197.7961636465
 10
272.7018193308
 20
197.8040266073
 10
272.7068862386
 20
197.8126150652
 10
272.7112409516
 20
197.8221375245
 10
272.7149543053
 20
197.8322890857
 10
272.7180043401
 20
197.8429069362
 10
272.7202320807
 20
197.8540255079
 10
272.7215185993
 20
197.8656141806
 10
272.7218336561
 20
197.8746020373
  0
LINE
  5
28C
100
AcDbEntity
  8
0
100
AcDbLine
 62
250
  6
CONTINUOUS
 10
273.3480356049
 20
197.5896048108
 11
272.807168299
 21
197.698807806
  0
LINE
  5
28D
100
AcDbEntity
  8
0
100
AcDbLine
 62
250
  6
CONTINUOUS
 10
273.2748665185
 20
197.8444283703
 11
272.7218355251
 21
197.9560872564
  0
LWPOLYLINE
  5
28E
100
AcDbEntity
  8
0
100
AcDbPolyline
 62
250
  6
CONTINUOUS
 90
13
 70
0
 10
271.9345205679
 20
198.3908122141
 10
271.9538437622
 20
198.3823205582
 10
271.9751871278
 20
198.3751393421
 10
271.9981975287
 20
198.3693873823
 10
272.0224942468
 20
198.3651598478
 10
272.0476752818
 20
198.362526685
 10
272.0733240019
 20
198.3615314609
 10
272.0990160369
 20
198.3621906419
 10
272.1243263002
 20
198.3644933217
 10
272.1488360215
 20
198.3684014009
 10
272.172139676
 20
198.3738502183
 10
272.1938516938
 20
198.380749621
 10
272.2136128393
 20
198.3889854551
  0
LWPOLYLINE
  5
28F
100
AcDbEntity
  8
0
100
AcDbPolyline
 62
250
  6
CONTINUOUS
 90
3
 70
0
 10
273.2979902107
 20
197.8364898269
 10
273.2919868579
 20
197.8392113082
 10
273.2748663452
 20
197.8444284561
  0
LINE
  5
290
100
AcDbEntity
  8
0
100
AcDbLine
 62
7
  6
CONTINUOUS
 10
270.2788850619
 20
198.1005440121
 11
271.5877855959
 21
197.4460937451
  0
LINE
  5
291
100
AcDbEntity
  8
0
100
AcDbLine
 62
7
  6
CONTINUOUS
 10
270.220084928
 20
198.9060368492
 11
268.7800500225
 21
199.6260543019
  0
LINE
  5
292
100
AcDbEntity
  8
0
100
AcDbLine
 62
250
  6
CONTINUOUS
 10
270.2776508024
 20
198.9594393535
 11
268.7800500225
 21
199.7082397434
  0
LINE
  5
293
100
AcDbEntity
  8
0
100
AcDbLine
 62
250
  6
CONTINUOUS
 10
272.7218355251
 20
198.1209453364
 11
273.2748665185
 21
197.8444283703
  0
LINE
  5
294
100
AcDbEntity
  8
0
100
AcDbLine
 62
7
  6
CONTINUOUS
 10
272.7218355251
 20
198.1245675353
 11
273.2982114051
 21
197.8363795954
  0
LINE
  5
295
100
AcDbEntity
  8
0
100
AcDbLine
 62
250
  6
CONTINUOUS
 10
268.7800500225
 20
200.4953471687
 11
271.8694438367
 21
198.9506502617
  0
LINE
  5
296
100
AcDbEntity
  8
0
100
AcDbLine
 62
250
  6
CONTINUOUS
 10
268.7800500225
 20
200.8074790827
 11
271.8108651929
 21
199.2920714976
  0
LWPOLYLINE
  5
297
100
AcDbEntity
  8
0
100
AcDbPolyline
 62
7
  6
CONTINUOUS
 90
9
 70
0
 10
271.7405705429
 20
198.1476678715
 10
271.7750866406
 20
198.12853694
 10
271.8187403621
 20
198.1097285831
 10
271.8625795509
 20
198.0965632094
 10
271.905881636
 20
198.089021735
 10
271.9485118733
 20
198.0869137428
 10
271.9902280641
 20
198.0901020106
 10
272.0303689976
 20
198.0984049027
 10
272.0664505471
 20
198.1107294571
  0
LINE
  5
298
100
AcDbEntity
  8
0
100
AcDbLine
 62
250
  6
CONTINUOUS
 10
273.2928754974
 20
197.8336304608
 11
273.2748783229
 21
197.8444259869
  0
LWPOLYLINE
  5
299
100
AcDbEntity
  8
0
100
AcDbPolyline
 62
7
  6
CONTINUOUS
 90
15
 70
0
 10
271.7405346303
 20
198.1476249019
 10
271.7339936972
 20
198.1518112059
 10
271.7189134636
 20
198.1625623227
 10
271.7042506592
 20
198.1745819065
 10
271.6901491136
 20
198.1878474175
 10
271.6765672362
 20
198.202299658
 10
271.6634374584
 20
198.2180402906
 10
271.6509243278
 20
198.2348929163
 10
271.6393033181
 20
198.252366196
 10
271.6286023665
 20
198.2703979516
 10
271.6187777358
 20
198.2889259693
 10
271.6099441866
 20
198.3074268545
 10
271.6020990993
 20
198.3256828763
 10
271.5951427933
 20
198.343795831
 10
271.5890198553
 20
198.3617189489
  0
LWPOLYLINE
  5
29A
100
AcDbEntity
  8
0
100
AcDbPolyline
 62
7
  6
CONTINUOUS
 90
12
 70
0
 10
256.1599894158
 20
245.1688420446
 10
256.1601230354
 20
245.1607152995
 10
256.1623058087
 20
245.1349474786
 10
256.1671534409
 20
245.1097700283
 10
256.1746161923
 20
245.0855011337
 10
256.1845205152
 20
245.0625344716
 10
256.1967312967
 20
245.0410200947
 10
256.2111484013
 20
245.0210856989
 10
256.2275307422
 20
245.0030313515
 10
256.2456293062
 20
244.9870466243
 10
256.2653380893
 20
244.9731744693
 10
256.2835691846
 20
244.962968541
  0
LINE
  5
29B
100
AcDbEntity
  8
0
100
AcDbLine
 62
7
  6
CONTINUOUS
 10
256.1599898545
 20
245.1688420448
 11
256.1599898078
 21
245.3995766137
  0
LINE
  5
29C
100
AcDbEntity
  8
0
100
AcDbLine
 62
250
  6
CONTINUOUS
 10
256.2185684516
 20
245.098217026
 11
256.2185684516
 21
245.3287134656
  0
LINE
  5
29D
100
AcDbEntity
  8
0
100
AcDbLine
 62
7
  6
CONTINUOUS
 10
256.5092532817
 20
243.9582994414
 11
256.5092532817
 21
240.8506983191
  0
LINE
  5
29E
100
AcDbEntity
  8
0
100
AcDbLine
 62
250
  6
CONTINUOUS
 10
256.5678319254
 20
243.8875887648
 11
256.5678319254
 21
240.7938016887
  0
LINE
  5
29F
100
AcDbEntity
  8
0
100
AcDbLine
 62
250
  6
CONTINUOUS
 10
256.6329086567
 20
241.209934003
 11
256.6329086567
 21
243.3277507172
  0
LWPOLYLINE
  5
2A0
100
AcDbEntity
  8
0
100
AcDbPolyline
 62
250
  6
CONTINUOUS
 90
18
 70
0
 10
256.2185685294
 20
245.3287134704
 10
256.2187955487
 20
245.3399664187
 10
256.2195061563
 20
245.3516460102
 10
256.220725675
 20
245.3637311676
 10
256.222481586
 20
245.376217167
 10
256.2247949476
 20
245.3890546324
 10
256.2276716643
 20
245.4021476845
 10
256.2311248502
 20
245.415464143
 10
256.2351623929
 20
245.4289553508
 10
256.2397616206
 20
245.4424944957
 10
256.2449151859
 20
245.4560301892
 10
256.2506168997
 20
245.4695189203
 10
256.2568250049
 20
245.4828461346
 10
256.2635129635
 20
245.4959519544
 10
256.2706654249
 20
245.5088034015
 10
256.2782446022
 20
245.5213309015
 10
256.2862174734
 20
245.5334829615
 10
256.2945610282
 20
245.5452273707
  0
LWPOLYLINE
  5
2A1
100
AcDbEntity
  8
0
100
AcDbPolyline
 62
250
  6
CONTINUOUS
 90
13
 70
0
 10
257.350481045
 20
240.4471628291
 10
257.3519598815
 20
240.4758484614
 10
257.3563717043
 20
240.5055332763
 10
257.3636427806
 20
240.5357206257
 10
257.3736515398
 20
240.5659054466
 10
257.3862305874
 20
240.5955826584
 10
257.4011694885
 20
240.6242556191
 10
257.4182183351
 20
240.6514445337
 10
257.4370918903
 20
240.6766943988
 10
257.4574743166
 20
240.6995825891
 10
257.4790245453
 20
240.7197260509
 10
257.5013819986
 20
240.736787693
 10
257.524172563
 20
240.7504819626
  0
LINE
  5
2A2
100
AcDbEntity
  8
RACCORDO
100
AcDbLine
 62
7
  6
CONTINUOUS
 10
274.5456119629
 20
247.0435334291
 11
272.2528344897
 21
245.0369082451
  0
LWPOLYLINE
  5
2A3
100
AcDbEntity
  8
RACCORDO
100
AcDbPolyline
 62
7
  6
CONTINUOUS
 90
5
 70
0
 10
274.5456107032
 20
247.0435323266
 10
274.5465257773
 20
247.0443183062
 10
274.5520741419
 20
247.0485010426
 10
274.5582286019
 20
247.0521386912
 10
274.5602436127
 20
247.0531338607
  0
LINE
  5
2A4
100
AcDbEntity
  8
RACCORDO
100
AcDbLine
 62
250
  6
CONTINUOUS
 10
272.7168743312
 20
244.8048883243
 11
274.6707142782
 21
246.336510129
  0
LWPOLYLINE
  5
2A5
100
AcDbEntity
  8
RACCORDO
100
AcDbPolyline
 62
250
  6
CONTINUOUS
 90
16
 70
0
 10
274.6707142782
 20
246.336510129
 10
274.7118931975
 20
246.3660562589
 10
274.7550885698
 20
246.3926663951
 10
274.8003003952
 20
246.4163405374
 10
274.8480773632
 20
246.4372355055
 10
274.8978707843
 20
246.4551944797
 10
274.9480345895
 20
246.4697470019
 10
274.9985403805
 20
246.4807655
 10
275.0494165556
 20
246.488377546
 10
275.0991022409
 20
246.4924953979
 10
275.1474571953
 20
246.4930335934
 10
275.1946216599
 20
246.4900775947
 10
275.2394554849
 20
246.4837960465
 10
275.2815786202
 20
246.4742451638
 10
275.3213711159
 20
246.4613687316
 10
275.358832972
 20
246.4451667499
  0
LWPOLYLINE
  5
2A6
100
AcDbEntity
  8
0
100
AcDbPolyline
 62
250
  6
CONTINUOUS
 90
13
 70
0
 10
267.6688868267
 20
240.5575913644
 10
267.6460970534
 20
240.5438976332
 10
267.6237402393
 20
240.5268366637
 10
267.6021904741
 20
240.5066939326
 10
267.5818083434
 20
240.4838064828
 10
267.5629348949
 20
240.4585572834
 10
267.5458859317
 20
240.431368822
 10
267.5309467287
 20
240.4026960352
 10
267.5183672583
 20
240.373018696
 10
267.5083580082
 20
240.3428333857
 10
267.5010864596
 20
240.3126451856
 10
267.4966742846
 20
240.2829592252
 10
267.4951953101
 20
240.2542722302
  0
LWPOLYLINE
  5
2A7
100
AcDbEntity
  8
0
100
AcDbPolyline
 62
250
  6
CONTINUOUS
 90
31
 70
0
 10
273.5426796592
 20
243.4406904922
 10
273.5518746272
 20
243.4457902784
 10
273.5597963509
 20
243.4512225573
 10
273.5664448303
 20
243.4569873289
 10
273.5718695115
 20
243.463156645
 10
273.5760209485
 20
243.4696584538
 10
273.5787508025
 20
243.4762765999
 10
273.5800081576
 20
243.4830119675
 10
273.5798439298
 20
243.4898636724
 10
273.5782625291
 20
243.4966129075
 10
273.5752178492
 20
243.503256383
 10
273.5707559962
 20
243.5097973886
 10
273.5650196985
 20
243.5160269866
 10
273.5579679552
 20
243.5219351657
 10
273.5496417672
 20
243.5275319371
 10
273.5403068649
 20
243.5326383961
 10
273.5299306201
 20
243.5372387151
 10
273.5185456612
 20
243.5413487217
 10
273.5065156038
 20
243.5448369935
 10
273.4938195809
 20
243.5476835228
 10
273.4804784595
 20
243.5499083173
 10
273.4669184568
 20
243.5514399773
 10
273.453132453
 20
243.5522560362
 10
273.4391275679
 20
243.5523789607
 10
273.4253513779
 20
243.5518047513
 10
273.4118100902
 20
243.5505105896
 10
273.3984974976
 20
243.548519294
 10
273.3858425549
 20
243.5458953212
 10
273.3739882468
 20
243.5426601568
 10
273.3627915886
 20
243.5387923151
 10
273.3522525801
 20
243.5342917962
  0
LINE
  5
2A8
100
AcDbEntity
  8
0
100
AcDbLine
 62
7
  6
CONTINUOUS
 10
262.8126301088
 20
240.1557045496
 11
261.5270999882
 21
239.5079829532
  0
LINE
  5
2A9
100
AcDbEntity
  8
0
100
AcDbLine
 62
250
  6
CONTINUOUS
 10
267.7389750843
 20
240.5580281745
 11
268.2463564843
 21
240.8136751524
  0
LINE
  5
2AA
100
AcDbEntity
  8
0
100
AcDbLine
 62
250
  6
CONTINUOUS
 10
267.9157248556
 20
240.2531799128
 11
268.4231062557
 21
240.5088268908
  0
LINE
  5
2AB
100
AcDbEntity
  8
0
100
AcDbLine
 62
250
  6
CONTINUOUS
 10
268.2463564843
 20
240.8136751524
 11
273.5426796592
 21
243.4406904922
  0
LINE
  5
2AC
100
AcDbEntity
  8
0
100
AcDbLine
 62
250
  6
CONTINUOUS
 10
268.4231062557
 20
240.5088268908
 11
273.7194294306
 21
243.1358422306
  0
LINE
  5
2AD
100
AcDbEntity
  8
0
100
AcDbLine
 62
7
  6
CONTINUOUS
 10
273.2412372573
 20
243.5417776801
 11
268.6086491197
 21
241.3245190863
  0
LINE
  5
2AE
100
AcDbEntity
  8
0
100
AcDbLine
 62
250
  6
CONTINUOUS
 10
273.3522525801
 20
243.5342917962
 11
268.6705936291
 21
241.2935468316
  0
LINE
  5
2AF
100
AcDbEntity
  8
RACCORDO
100
AcDbLine
 62
7
  6
CONTINUOUS
 10
288.1643548397
 20
249.7520228301
 11
282.247291384
 21
247.0193268415
  0
LINE
  5
2B0
100
AcDbEntity
  8
RACCORDO
100
AcDbLine
 62
7
  6
CONTINUOUS
 10
274.8435214082
 20
245.2502722133
 11
273.2557459749
 21
244.5354525025
  0
LINE
  5
2B1
100
AcDbEntity
  8
RACCORDO
100
AcDbLine
 62
7
  6
CONTINUOUS
 10
276.8234203955
 20
244.2603227196
 11
275.2356449622
 21
243.5455030088
  0
LWPOLYLINE
  5
2B2
100
AcDbEntity
  8
RACCORDO
100
AcDbPolyline
 62
7
  6
CONTINUOUS
 90
14
 70
0
 10
282.2473412172
 20
247.0193479767
 10
282.2225682548
 20
247.0086045267
 10
282.1922928287
 20
246.9970102687
 10
282.1556369883
 20
246.9847187126
 10
282.1131534716
 20
246.9723877142
 10
282.0649301959
 20
246.9604420972
 10
282.0112515449
 20
246.9493409243
 10
281.9533715412
 20
246.9396481678
 10
281.8919428529
 20
246.9316693171
 10
281.8274113153
 20
246.9256317783
 10
281.7609137101
 20
246.9217878219
 10
281.6931375536
 20
246.9202523851
 10
281.6247637656
 20
246.9210762139
 10
281.5835326736
 20
246.9230117227
  0
LWPOLYLINE
  5
2B3
100
AcDbEntity
  8
RACCORDO
100
AcDbPolyline
 62
250
  6
CONTINUOUS
 90
9
 70
0
 10
288.5528123222
 20
249.7198084944
 10
288.6068187237
 20
249.7428400104
 10
288.6605387969
 20
249.760081647
 10
288.7135746413
 20
249.7713464185
 10
288.7655605666
 20
249.7764903351
 10
288.8160618164
 20
249.7754021961
 10
288.8645899526
 20
249.7680468009
 10
288.9107722453
 20
249.7544526514
 10
288.9441979147
 20
249.7399354911
  0
LWPOLYLINE
  5
2B4
100
AcDbEntity
  8
RACCORDO
100
AcDbPolyline
 62
250
  6
CONTINUOUS
 90
9
 70
0
 10
288.1643548397
 20
249.7520228301
 10
288.1922674652
 20
249.7634218096
 10
288.2387818782
 20
249.7764008626
 10
288.2876008308
 20
249.7829784559
 10
288.3383529253
 20
249.7831045495
 10
288.3906520573
 20
249.776778184
 10
288.4441003531
 20
249.7640474884
 10
288.4982911965
 20
249.7450093132
 10
288.5528123222
 20
249.7198084944
  0
LINE
  5
2B5
100
AcDbEntity
  8
RACCORDO
100
AcDbLine
 62
250
  6
CONTINUOUS
 10
282.2752027244
 20
247.0307253623
 11
282.2473412172
 21
247.0193479767
  0
LWPOLYLINE
  5
2B6
100
AcDbEntity
  8
0
100
AcDbPolyline
 62
250
  6
CONTINUOUS
 90
3
 70
0
 10
273.2634508977
 20
243.5492773695
 10
273.2440002059
 20
243.5430469427
 10
273.2412372573
 20
243.5417776801
  0
LWPOLYLINE
  5
2B7
100
AcDbEntity
  8
0
100
AcDbPolyline
 62
250
  6
CONTINUOUS
 90
13
 70
0
 10
270.1264858438
 20
201.4377161613
 10
270.1507838714
 20
201.4270461224
 10
270.1776332771
 20
201.4180335967
 10
270.2065847982
 20
201.4108293882
 10
270.237153998
 20
201.4055540426
 10
270.2688293714
 20
201.4022958306
 10
270.3010809044
 20
201.4011092708
 10
270.3333689421
 20
201.4020142177
 10
270.3651532187
 20
201.4049955289
 10
270.3959018978
 20
201.4100033186
 10
270.4251004714
 20
201.4169537927
 10
270.4522603688
 20
201.4257306513
 10
270.4769271317
 20
201.4361870339
  0
LWPOLYLINE
  5
2B8
100
AcDbEntity
  8
0
100
AcDbPolyline
 62
250
  6
CONTINUOUS
 90
22
 70
0
 10
269.5962365297
 20
201.0534206904
 10
269.6360006264
 20
201.0353857188
 10
269.6751753487
 20
201.0211810159
 10
269.7137606965
 20
201.0108065816
 10
269.7519863106
 20
201.004235898
 10
269.7896225502
 20
201.0014954831
 10
269.8259804936
 20
201.0026648906
 10
269.8610184264
 20
201.0078184321
 10
269.8947780629
 20
201.016881796
 10
269.9266956252
 20
201.0297116017
 10
269.956741929
 20
201.0463732888
 10
269.9849461585
 20
201.0668014177
 10
270.0108320883
 20
201.0906562896
 10
270.0343599252
 20
201.1179991239
 10
270.0555694625
 20
201.148768701
 10
270.0741038547
 20
201.1824416639
 10
270.0899157322
 20
201.2190912513
 10
270.1030524646
 20
201.2586442244
 10
270.1132993157
 20
201.3003575093
 10
270.1205847065
 20
201.3439834148
 10
270.1249802158
 20
201.3897696321
 10
270.1264858438
 20
201.4377161613
  0
LWPOLYLINE
  5
2B9
100
AcDbEntity
  8
0
100
AcDbPolyline
 62
7
  6
CONTINUOUS
 90
11
 70
0
 10
269.6612477262
 20
200.9182012135
 10
269.71330524
 20
200.8943665308
 10
269.7717005818
 20
200.8727666898
 10
269.8300328769
 20
200.8565706256
 10
269.8880392512
 20
200.8457895584
 10
269.9453169945
 20
200.8404271924
 10
270.0015948106
 20
200.8404410958
 10
270.0565328834
 20
200.845750041
 10
270.1095359869
 20
200.8561506457
 10
270.1601813225
 20
200.8713604244
 10
270.2061427582
 20
200.8901233532
  0
LINE
  5
2BA
100
AcDbEntity
  8
0
100
AcDbLine
 62
7
  6
CONTINUOUS
 10
268.7800500225
 20
201.3587821421
 11
269.6612098242
 21
200.9182022413
  0
LINE
  5
2BB
100
AcDbEntity
  8
0
100
AcDbLine
 62
250
  6
CONTINUOUS
 10
268.7800500225
 20
201.461513944
 11
269.5962365297
 21
201.0534206904
  0
LINE
  5
2BC
100
AcDbEntity
  8
0
100
AcDbLine
 62
7
  6
CONTINUOUS
 10
270.6275337282
 20
200.825148441
 11
271.8108651929
 21
200.2334827086
  0
LINE
  5
2BD
100
AcDbEntity
  8
0
100
AcDbLine
 62
250
  6
CONTINUOUS
 10
269.2995448434
 20
201.9127516777
 11
268.7800500225
 21
202.1724990884
  0
LINE
  5
2BE
100
AcDbEntity
  8
0
100
AcDbLine
 62
7
  6
CONTINUOUS
 10
270.1264858438
 20
201.5720294478
 11
270.0516342014
 21
201.609455269
  0
LINE
  5
2BF
100
AcDbEntity
  8
0
100
AcDbLine
 62
250
  6
CONTINUOUS
 10
269.4047281226
 20
202.0951993307
 11
268.7800500225
 21
202.407538381
  0
LINE
  5
2C0
100
AcDbEntity
  8
0
100
AcDbLine
 62
7
  6
CONTINUOUS
 10
271.8118779623
 20
201.0150644715
 11
271.0663465278
 21
201.3878301887
  0
LINE
  5
2C1
100
AcDbEntity
  8
0
100
AcDbLine
 62
250
  6
CONTINUOUS
 10
271.8694438367
 20
201.0684669758
 11
271.058290189
 21
201.4740437997
  0
LINE
  5
2C2
100
AcDbEntity
  8
0
100
AcDbLine
 62
7
  6
CONTINUOUS
 10
271.091598132
 20
201.917215878
 11
271.9345205679
 21
201.4957546601
  0
LINE
  5
2C3
100
AcDbEntity
  8
0
100
AcDbLine
 62
250
  6
CONTINUOUS
 10
269.5823767861
 20
203.1339395895
 11
269.2966878489
 21
203.2767840581
  0
LINE
  5
2C4
100
AcDbEntity
  8
0
100
AcDbLine
 62
250
  6
CONTINUOUS
 10
269.2966878489
 20
203.6484269942
 11
269.5090669265
 21
203.5422374554
  0
LINE
  5
2C5
100
AcDbEntity
  8
0
100
AcDbLine
 62
7
  6
CONTINUOUS
 10
269.5339585162
 20
203.0554169226
 11
269.3615258772
 21
203.1416333787
  0
LWPOLYLINE
  5
2C6
100
AcDbEntity
  8
0
100
AcDbPolyline
 62
250
  6
CONTINUOUS
 90
16
 70
0
 10
269.2966878489
 20
203.2767840581
 10
269.2854535536
 20
203.2831588924
 10
269.274558
 20
203.2907144749
 10
269.2640011883
 20
203.2994508054
 10
269.2536691184
 20
203.3094923524
 10
269.2436757903
 20
203.3207146475
 10
269.2343632036
 20
203.3327442856
 10
269.2257598423
 20
203.3456043577
 10
269.2178372225
 20
203.3592717727
 10
269.2108518916
 20
203.3733038529
 10
269.2048343136
 20
203.3877215271
 10
269.1997540247
 20
203.4025038664
 10
269.195776181
 20
203.4171454061
 10
269.1929558347
 20
203.4314776579
 10
269.1912379336
 20
203.4456691102
 10
269.1906224779
 20
203.4597197628
  0
LWPOLYLINE
  5
2C7
100
AcDbEntity
  8
0
100
AcDbPolyline
 62
250
  6
CONTINUOUS
 90
7
 70
0
 10
269.5823767861
 20
202.1177326777
 10
269.5695061544
 20
202.1250653755
 10
269.5586480857
 20
202.133171367
 10
269.5499863032
 20
202.1419134867
 10
269.5436673651
 20
202.1511438071
 10
269.5397981866
 20
202.1607061388
 10
269.5384428095
 20
202.1707440234
  0
LINE
  5
2C8
100
AcDbEntity
  8
0
100
AcDbLine
 62
250
  6
CONTINUOUS
 10
269.16910602
 20
203.5838203745
 11
269.1906224779
 21
203.5715566606
  0
LWPOLYLINE
  5
2C9
100
AcDbEntity
  8
0
100
AcDbPolyline
 62
250
  6
CONTINUOUS
 90
8
 70
0
 10
269.3615258772
 20
203.1416333787
 10
269.3482424892
 20
203.149740728
 10
269.3330583861
 20
203.1634240622
 10
269.3202661702
 20
203.180543715
 10
269.3100835955
 20
203.200807976
 10
269.30268399
 20
203.2238715825
 10
269.298193285
 20
203.2493415767
 10
269.2966878489
 20
203.2767840581
  0
LWPOLYLINE
  5
2CA
100
AcDbEntity
  8
0
100
AcDbPolyline
 62
7
  6
CONTINUOUS
 90
8
 70
0
 10
271.0664713164
 20
201.3877677997
 10
271.0607281527
 20
201.3916094373
 10
271.0547583067
 20
201.3991542952
 10
271.0512008443
 20
201.4092113996
 10
271.0496533759
 20
201.4219389736
 10
271.0501121576
 20
201.4372344765
 10
271.0529486003
 20
201.4547116316
 10
271.058290189
 20
201.4740437997
  0
LWPOLYLINE
  5
2CB
100
AcDbEntity
  8
0
100
AcDbPolyline
 62
7
  6
CONTINUOUS
 90
11
 70
0
 10
256.8547539946
 20
244.1655984818
 10
256.8554778379
 20
244.1448149464
 10
256.8576728525
 20
244.1225030021
 10
256.8612323766
 20
244.0993069317
 10
256.866042407
 20
244.0752907864
 10
256.8720108921
 20
244.0504586316
 10
256.8790020454
 20
244.0248816555
 10
256.8867924141
 20
243.9987028371
 10
256.8951902417
 20
243.9719662109
 10
256.9040817899
 20
243.9446290652
 10
256.913332638
 20
243.9166820299
  0
LINE
  5
2CC
100
AcDbEntity
  8
0
100
AcDbLine
 62
7
  6
CONTINUOUS
 10
256.8547539942
 20
244.1656056739
 11
256.8547539942
 21
244.6773751023
  0
LINE
  5
2CD
100
AcDbEntity
  8
0
100
AcDbLine
 62
250
  6
CONTINUOUS
 10
256.8946930175
 20
241.372300591
 11
256.8946930175
 21
243.1146730952
  0
LINE
  5
2CE
100
AcDbEntity
  8
0
100
AcDbLine
 62
250
  6
CONTINUOUS
 10
256.913332638
 20
244.6480857804
 11
256.913332638
 21
243.9166820299
  0
LINE
  5
2CF
100
AcDbEntity
  8
0
100
AcDbLine
 62
250
  6
CONTINUOUS
 10
257.505252315
 20
244.4548577438
 11
257.505252315
 21
244.6857161059
  0
LINE
  5
2D0
100
AcDbEntity
  8
0
100
AcDbLine
 62
250
  6
CONTINUOUS
 10
257.7856053453
 20
244.4536344419
 11
257.7856053453
 21
244.6843007019
  0
LINE
  5
2D1
100
AcDbEntity
  8
0
100
AcDbLine
 62
7
  6
CONTINUOUS
 10
257.9655706037
 20
241.7971461546
 11
257.9655706037
 21
242.5792343021
  0
LINE
  5
2D2
100
AcDbEntity
  8
0
100
AcDbLine
 62
250
  6
CONTINUOUS
 10
258.2247016909
 20
243.3189616253
 11
258.2247016909
 21
244.1672325365
  0
LINE
  5
2D3
100
AcDbEntity
  8
0
100
AcDbLine
 62
250
  6
CONTINUOUS
 10
258.5050547213
 20
243.4910226808
 11
258.5050547213
 21
244.2760165351
  0
LWPOLYLINE
  5
2D4
100
AcDbEntity
  8
0
100
AcDbPolyline
 62
250
  6
CONTINUOUS
 90
28
 70
0
 10
257.7856053453
 20
244.6843007019
 10
257.7856345493
 20
244.6863927868
 10
257.7857647804
 20
244.6885770182
 10
257.7859960384
 20
244.6908533958
 10
257.7863236657
 20
244.6932329764
 10
257.78675232
 20
244.6957047033
 10
257.7872959746
 20
244.6982354071
 10
257.7879585479
 20
244.7008280709
 10
257.7887361216
 20
244.7034797115
 10
257.7896309139
 20
244.70614821
 10
257.7906470603
 20
244.7088347981
 10
257.7917804253
 20
244.711538244
 10
257.7930208213
 20
244.7142127336
 10
257.7943709365
 20
244.7168563101
 10
257.7958280826
 20
244.7194709302
 10
257.797374007
 20
244.7220166496
 10
257.7990090822
 20
244.7244897482
 10
257.8007329357
 20
244.7268939462
 10
257.8025261973
 20
244.7292004599
 10
257.8043894696
 20
244.7314075999
 10
257.80632215
 20
244.7335170557
 10
257.8083030596
 20
244.7355051121
 10
257.8103328785
 20
244.7373703558
 10
257.8124109266
 20
244.7391142001
 10
257.8145139855
 20
244.7407171692
 10
257.8166343156
 20
244.7421727711
 10
257.8187796564
 20
244.7434874977
 10
257.8209500079
 20
244.744661349
  0
LWPOLYLINE
  5
2D5
100
AcDbEntity
  8
0
100
AcDbPolyline
 62
250
  6
CONTINUOUS
 90
28
 70
0
 10
257.5052524249
 20
244.6857161206
 10
257.5054585008
 20
244.6960670677
 10
257.5060880245
 20
244.7069320428
 10
257.5071787397
 20
244.7183011812
 10
257.5087734448
 20
244.7301949234
 10
257.5109065621
 20
244.7425583554
 10
257.5135895861
 20
244.7552576967
 10
257.5168420921
 20
244.7682519804
 10
257.5206848482
 20
244.7815103418
 10
257.5251052148
 20
244.7949045887
 10
257.5301074713
 20
244.808388123
 10
257.5356935716
 20
244.8219127307
 10
257.5418238669
 20
244.8353459679
 10
257.5484812579
 20
244.8486292853
 10
257.5556541407
 20
244.8617201957
 10
257.5632923294
 20
244.8745152673
 10
257.571361884
 20
244.8869542371
 10
257.5798435607
 20
244.8990043392
 10
257.5886997304
 20
244.9106095282
 10
257.5978972086
 20
244.9217248825
 10
257.6074053153
 20
244.9323120033
 10
257.6171868299
 20
244.9423288471
 10
257.6272070998
 20
244.9517391408
 10
257.6374298755
 20
244.9605080804
 10
257.647813697
 20
244.9686004066
 10
257.6583195065
 20
244.9759863334
 10
257.66891104
 20
244.9826407194
 10
257.6795501909
 20
244.9885399584
  0
LWPOLYLINE
  5
2D6
100
AcDbEntity
  8
0
100
AcDbPolyline
 62
7
  6
CONTINUOUS
 90
12
 70
0
 10
260.8330657299
 20
241.1466190596
 10
260.8330979148
 20
241.1469260629
 10
260.8340144184
 20
241.1493861359
 10
260.8362365461
 20
241.1526275368
 10
260.8397971839
 20
241.1564987181
 10
260.8444335861
 20
241.1610493266
 10
260.8501283985
 20
241.166196108
 10
260.8568793564
 20
241.1718167351
 10
260.8644539553
 20
241.1779274224
 10
260.8727577839
 20
241.1844719073
 10
260.8818324002
 20
241.1913195211
 10
260.8916445048
 20
241.1983827931
  0
LWPOLYLINE
  5
2D7
100
AcDbEntity
  8
0
100
AcDbPolyline
 62
250
  6
CONTINUOUS
 90
7
 70
0
 10
260.057218585
 20
245.8656680411
 10
260.0557630557
 20
245.8536254796
 10
260.0509929589
 20
245.840911769
 10
260.0429804956
 20
245.8286122974
 10
260.031859736
 20
245.816932868
 10
260.0178167602
 20
245.8060689092
 10
260.0010865451
 20
245.7962022041
  0
LWPOLYLINE
  5
2D8
100
AcDbEntity
  8
0
100
AcDbPolyline
 62
250
  6
CONTINUOUS
 90
7
 70
0
 10
260.057218585
 20
245.6123269869
 10
260.0557630477
 20
245.6002843924
 10
260.0509929438
 20
245.5875706852
 10
260.0429804765
 20
245.5752712192
 10
260.0318597174
 20
245.563591797
 10
260.0178167477
 20
245.5527278463
 10
260.0010865451
 20
245.5428611496
  0
LWPOLYLINE
  5
2D9
100
AcDbEntity
  8
RACCORDO
100
AcDbPolyline
 62
250
  6
CONTINUOUS
 90
10
 70
0
 10
275.615388343
 20
247.1637067871
 10
275.6206454704
 20
247.1692342926
 10
275.6258799384
 20
247.1739972503
 10
275.6310691448
 20
247.1779728787
 10
275.6361925828
 20
247.1811427798
 10
275.6412258194
 20
247.183489108
 10
275.6461410145
 20
247.1849979591
 10
275.650919136
 20
247.1856634213
 10
275.6555373397
 20
247.1854822415
 10
275.6575766546
 20
247.1851205746
  0
LWPOLYLINE
  5
2DA
100
AcDbEntity
  8
RACCORDO
100
AcDbPolyline
 62
250
  6
CONTINUOUS
 90
10
 70
0
 10
275.358832972
 20
246.4451667499
 10
275.3397920835
 20
246.4271071847
 10
275.321944028
 20
246.4063967194
 10
275.3056557316
 20
246.3834611264
 10
275.2912620544
 20
246.3587719231
 10
275.2790589063
 20
246.3328366781
 10
275.2692971635
 20
246.3061885767
 10
275.2621775112
 20
246.279375459
 10
275.2578463175
 20
246.252948558
 10
275.2563926244
 20
246.2274511664
  0
LWPOLYLINE
  5
2DB
100
AcDbEntity
  8
RACCORDO
100
AcDbPolyline
 62
250
  6
CONTINUOUS
 90
4
 70
0
 10
276.1172385706
 20
246.0659639505
 10
276.0981971181
 20
246.0479037562
 10
276.0803487263
 20
246.0271926958
 10
276.0640603105
 20
246.0042566358
  0
LWPOLYLINE
  5
2DC
100
AcDbEntity
  8
RACCORDO
100
AcDbPolyline
 62
250
  6
CONTINUOUS
 90
16
 70
0
 10
274.8435214082
 20
246.1151907411
 10
274.8677507436
 20
246.1380537436
 10
274.8937920718
 20
246.1590730555
 10
274.9213473092
 20
246.1781720081
 10
274.9501162365
 20
246.195402792
 10
274.9797739188
 20
246.2106088627
 10
275.0099717555
 20
246.2234296318
 10
275.0403864886
 20
246.2338236415
 10
275.0707032638
 20
246.2418380521
 10
275.1005911661
 20
246.2472772686
 10
275.1297029099
 20
246.2501541615
 10
275.1578130674
 20
246.2505650258
 10
275.1847825369
 20
246.2484440856
 10
275.21038691
 20
246.2438088979
 10
275.2343342497
 20
246.2367812825
 10
275.2563926244
 20
246.2274511664
  0
LINE
  5
2DD
100
AcDbEntity
  8
RACCORDO
100
AcDbLine
 62
250
  6
CONTINUOUS
 10
276.1352575928
 20
245.6042384717
 11
274.3760122025
 21
243.9753193886
  0
LINE
  5
2DE
100
AcDbEntity
  8
RACCORDO
100
AcDbLine
 62
7
  6
CONTINUOUS
 10
276.0384572218
 20
245.6040782319
 11
274.3132671653
 21
244.0066919073
  0
LINE
  5
2DF
100
AcDbEntity
  8
RACCORDO
100
AcDbLine
 62
250
  6
CONTINUOUS
 10
274.6449870565
 20
247.0458475683
 11
272.3143955116
 21
245.0061277341
  0
LINE
  5
2E0
100
AcDbEntity
  8
RACCORDO
100
AcDbLine
 62
250
  6
CONTINUOUS
 10
272.9947639941
 20
244.6659434928
 11
274.8435214082
 21
246.1151907411
  0
LINE
  5
2E1
100
AcDbEntity
  8
RACCORDO
100
AcDbLine
 62
250
  6
CONTINUOUS
 10
274.6967733185
 20
243.8149388307
 11
276.6506132655
 21
245.3465606353
  0
LINE
  5
2E2
100
AcDbEntity
  8
RACCORDO
100
AcDbLine
 62
250
  6
CONTINUOUS
 10
274.9746629815
 20
243.6759939992
 11
276.8234203955
 21
245.1252412475
  0
LWPOLYLINE
  5
2E3
100
AcDbEntity
  8
RACCORDO
100
AcDbPolyline
 62
250
  6
CONTINUOUS
 90
16
 70
0
 10
276.6506132655
 20
245.3465606353
 10
276.6917921848
 20
245.3761067653
 10
276.7349875571
 20
245.4027169014
 10
276.7801993825
 20
245.4263910438
 10
276.8279763506
 20
245.4472860118
 10
276.8777697716
 20
245.4652449861
 10
276.9279335768
 20
245.4797975083
 10
276.9784393678
 20
245.4908160063
 10
277.0293155429
 20
245.4984280524
 10
277.0790012283
 20
245.5025459042
 10
277.1273561826
 20
245.5030840997
 10
277.1745206472
 20
245.500128101
 10
277.2193544722
 20
245.4938465529
 10
277.2614776076
 20
245.4842956701
 10
277.3012701033
 20
245.4714192379
 10
277.3387319593
 20
245.4552172562
  0
LWPOLYLINE
  5
2E4
100
AcDbEntity
  8
0
100
AcDbPolyline
 62
7
  6
CONTINUOUS
 90
12
 70
0
 10
269.6635719849
 20
238.9544526932
 10
269.6521535419
 20
238.9478921335
 10
269.6298838238
 20
238.9325476193
 10
269.6090118216
 20
238.9145595508
 10
269.5898456306
 20
238.8941264539
 10
269.5730911618
 20
238.8721157972
 10
269.5584437388
 20
238.848253654
 10
269.5459786168
 20
238.8224568347
 10
269.5363442545
 20
238.7960195783
 10
269.5295359643
 20
238.7692687597
 10
269.5254368831
 20
238.7414586155
 10
269.5243080895
 20
238.7173875333
  0
LWPOLYLINE
  5
2E5
100
AcDbEntity
  8
0
100
AcDbPolyline
 62
250
  6
CONTINUOUS
 90
9
 70
0
 10
273.7194294306
 20
243.1358422306
 10
273.7456269587
 20
243.1506885689
 10
273.7685518055
 20
243.1668220472
 10
273.787955541
 20
243.1840656434
 10
273.8036279059
 20
243.2022284269
 10
273.8153990034
 20
243.2211134668
 10
273.8231412117
 20
243.2405199753
 10
273.8267706554
 20
243.2602362002
 10
273.8270619207
 20
243.2676510515
  0
LWPOLYLINE
  5
2E6
100
AcDbEntity
  8
0
100
AcDbPolyline
 62
250
  6
CONTINUOUS
 90
12
 70
0
 10
269.7559717732
 20
238.9503291672
 10
269.7474402192
 20
238.9455958819
 10
269.7387007763
 20
238.940217119
 10
269.7297784478
 20
238.9341645815
 10
269.7206814408
 20
238.9273965204
 10
269.7114629863
 20
238.9199037901
 10
269.702218679
 20
238.9117224633
 10
269.6929847941
 20
238.9028476476
 10
269.6838007769
 20
238.8932788945
 10
269.674764052
 20
238.8830857773
 10
269.6659138949
 20
238.872286417
 10
269.6572893232
 20
238.8609010611
  0
LINE
  5
2E7
100
AcDbEntity
  8
0
100
AcDbLine
 62
7
  6
CONTINUOUS
 10
268.4231062557
 20
239.5128647015
 11
267.9157248556
 21
239.2358702815
  0
LINE
  5
2E8
100
AcDbEntity
  8
0
100
AcDbLine
 62
7
  6
CONTINUOUS
 10
271.2307184607
 20
239.7999644323
 11
269.6634751523
 21
238.9544007122
  0
LINE
  5
2E9
100
AcDbEntity
  8
0
100
AcDbLine
 62
250
  6
CONTINUOUS
 10
271.3222225194
 20
239.7953573772
 11
269.7559717732
 21
238.9503291672
  0
LINE
  5
2EA
100
AcDbEntity
  8
0
100
AcDbLine
 62
7
  6
CONTINUOUS
 10
271.23071902
 20
239.7999646905
 11
271.234885402
 21
239.8020481742
  0
LINE
  5
2EB
100
AcDbEntity
  8
0
100
AcDbLine
 62
7
  6
CONTINUOUS
 10
268.4231062557
 20
239.5128647015
 11
273.7194294306
 21
242.1398800412
  0
LINE
  5
2EC
100
AcDbEntity
  8
0
100
AcDbLine
 62
250
  6
CONTINUOUS
 10
272.1787099257
 20
239.9490755289
 11
284.5605544095
 21
245.9819743543
  0
LINE
  5
2ED
100
AcDbEntity
  8
0
100
AcDbLine
 62
250
  6
CONTINUOUS
 10
272.3679495992
 20
239.8544556922
 11
284.6857365081
 21
245.8561432655
  0
LINE
  5
2EE
100
AcDbEntity
  8
0
100
AcDbLine
 62
7
  6
CONTINUOUS
 10
282.3411786213
 20
247.0532448253
 11
279.8027185953
 21
245.838282014
  0
LINE
  5
2EF
100
AcDbEntity
  8
0
100
AcDbLine
 62
250
  6
CONTINUOUS
 10
282.4299908806
 20
247.0472561188
 11
279.8175259328
 21
245.7968729238
  0
LINE
  5
2F0
100
AcDbEntity
  8
0
100
AcDbLine
 62
7
  6
CONTINUOUS
 10
273.8270619207
 20
242.7221079894
 11
279.5246827203
 21
245.4491146446
  0
LINE
  5
2F1
100
AcDbEntity
  8
RACCORDO
100
AcDbLine
 62
7
  6
CONTINUOUS
 10
289.5239711559
 20
249.2342290776
 11
286.0935672554
 21
247.5968922646
  0
LINE
  5
2F2
100
AcDbEntity
  8
RACCORDO
100
AcDbLine
 62
250
  6
CONTINUOUS
 10
288.5528123222
 20
249.7198084944
 11
282.7159753651
 21
247.0241637615
  0
LINE
  5
2F3
100
AcDbEntity
  8
0
100
AcDbLine
 62
250
  6
CONTINUOUS
 10
271.8649485821
 20
240.0460062583
 11
271.3222225194
 21
239.7953573772
  0
LINE
  5
2F4
100
AcDbEntity
  8
0
100
AcDbLine
 62
7
  6
CONTINUOUS
 10
271.7788673089
 20
240.0532765185
 11
271.2348843696
 21
239.8020476974
  0
LWPOLYLINE
  5
2F5
100
AcDbEntity
  8
0
100
AcDbPolyline
 62
250
  6
CONTINUOUS
 90
10
 70
0
 10
284.5605544095
 20
245.9819743543
 10
284.5882395776
 20
245.9935304284
 10
284.6169723579
 20
246.0019270422
 10
284.6465824441
 20
246.0070560614
 10
284.6768715556
 20
246.0088230591
 10
284.7076873104
 20
246.0071567482
 10
284.7389176595
 20
246.0019855376
 10
284.7704112176
 20
245.9932291863
 10
284.8019400098
 20
245.9808580281
 10
284.8146645276
 20
245.9748189819
  0
LWPOLYLINE
  5
2F6
100
AcDbEntity
  8
0
100
AcDbPolyline
 62
250
  6
CONTINUOUS
 90
13
 70
0
 10
284.6857365081
 20
245.8561432655
 10
284.6998069953
 20
245.8618808003
 10
284.7147962987
 20
245.8656853328
 10
284.7307044183
 20
245.8675568629
 10
284.7476193795
 20
245.867535404
 10
284.7654531569
 20
245.8655809428
 10
284.783941674
 20
245.8615734396
 10
284.8031114094
 20
245.855479142
 10
284.8229358845
 20
245.8473318023
 10
284.8430715874
 20
245.8371126376
 10
284.8634040141
 20
245.8248153869
 10
284.8840476686
 20
245.8104463111
 10
284.9050025508
 20
245.7940054103
  0
LWPOLYLINE
  5
2F7
100
AcDbEntity
  8
0
100
AcDbPolyline
 62
7
  6
CONTINUOUS
 90
3
 70
0
 10
271.234885402
 20
239.8020481742
 10
271.2515229837
 20
239.807510499
 10
271.2681098814
 20
239.8092332903
  0
LINE
  5
2F8
100
AcDbEntity
  8
0
100
AcDbLine
 62
7
  6
CONTINUOUS
 10
272.9132343162
 20
202.8876309094
 11
273.8863447135
 21
202.4010757108
  0
LINE
  5
2F9
100
AcDbEntity
  8
0
100
AcDbLine
 62
7
  6
CONTINUOUS
 10
273.3021430458
 20
202.7930267747
 11
273.0193003334
 21
202.9344481309
  0
LINE
  5
2FA
100
AcDbEntity
  8
0
100
AcDbLine
 62
7
  6
CONTINUOUS
 10
271.9345205679
 20
204.5204636727
 11
271.0167464897
 21
204.9793507118
  0
LINE
  5
2FB
100
AcDbEntity
  8
0
100
AcDbLine
 62
7
  6
CONTINUOUS
 10
269.7925285889
 20
205.635996315
 11
269.5090669265
 21
205.7777271463
  0
LINE
  5
2FC
100
AcDbEntity
  8
0
100
AcDbLine
 62
7
  6
CONTINUOUS
 10
269.6789041609
 20
205.9752183442
 11
269.6605431227
 21
205.9843988633
  0
LINE
  5
2FD
100
AcDbEntity
  8
0
100
AcDbLine
 62
250
  6
CONTINUOUS
 10
271.8694438367
 20
205.0128280881
 11
271.091598132
 21
205.4017509405
  0
LINE
  5
2FE
100
AcDbEntity
  8
0
100
AcDbLine
 62
250
  6
CONTINUOUS
 10
269.1509669216
 20
203.5973808384
 11
269.16910602
 21
203.5838203745
  0
LWPOLYLINE
  5
2FF
100
AcDbEntity
  8
0
100
AcDbPolyline
 62
250
  6
CONTINUOUS
 90
28
 70
0
 10
271.5890198553
 20
198.3617189489
 10
271.6044774085
 20
198.3402484738
 10
271.6203142319
 20
198.3204605023
 10
271.6365303255
 20
198.3023550346
 10
271.6532261404
 20
198.2859151447
 10
271.6703012256
 20
198.2711577586
 10
271.6874542273
 20
198.2581336537
 10
271.7046548704
 20
198.2468488264
 10
271.7219334301
 20
198.2372972803
 10
271.7390793784
 20
198.2295118047
 10
271.7561210274
 20
198.2234799551
 10
271.7730300651
 20
198.219214176
 10
271.7895110272
 20
198.2167845891
 10
271.8055731421
 20
198.2162222396
 10
271.8212071815
 20
198.2174960825
 10
271.8360899963
 20
198.2205831038
 10
271.850200548
 20
198.2255224099
 10
271.8635598751
 20
198.2322748945
 10
271.8759079437
 20
198.2407002247
 10
271.8872051374
 20
198.2507624266
 10
271.8974910726
 20
198.2624974741
 10
271.9066245641
 20
198.2758729558
 10
271.9146482261
 20
198.2908668801
 10
271.9215194445
 20
198.3075012387
 10
271.9269691906
 20
198.3258095951
 10
271.9309077885
 20
198.345803137
 10
271.9334249143
 20
198.3674706767
 10
271.9345205679
 20
198.3908122141
  0
LWPOLYLINE
  5
300
100
AcDbEntity
  8
0
100
AcDbPolyline
 62
250
  6
CONTINUOUS
 90
13
 70
0
 10
271.1679097441
 20
196.5180557726
 10
271.1573983957
 20
196.533627342
 10
271.1447141195
 20
196.5501526489
 10
271.130071497
 20
196.5673520998
 10
271.1137182619
 20
196.5849346755
 10
271.095931081
 20
196.6026028871
 10
271.0770108656
 20
196.6200578089
 10
271.0572777109
 20
196.6370041037
 10
271.0370655351
 20
196.6531549817
 10
271.0167163973
 20
196.6682370931
 10
270.9965746535
 20
196.6819951956
 10
270.9769811268
 20
196.6941964665
 10
270.9582673887
 20
196.7046344098
  0
LWPOLYLINE
  5
301
100
AcDbEntity
  8
0
100
AcDbPolyline
 62
7
  6
CONTINUOUS
 90
10
 70
0
 10
260.0572180693
 20
245.8658843189
 10
260.0563088309
 20
245.887041603
 10
260.0519148092
 20
245.9167371422
 10
260.0439012409
 20
245.9454458655
 10
260.0323795428
 20
245.9726906221
 10
260.0176772845
 20
245.9978230163
 10
260.000055782
 20
246.0205826464
 10
259.9796661165
 20
246.0408258737
 10
259.9569367904
 20
246.0581453153
 10
259.9339673808
 20
246.0714459255
  0
LINE
  5
302
100
AcDbEntity
  8
0
100
AcDbLine
 62
250
  6
CONTINUOUS
 10
259.2964490348
 20
243.9230680984
 11
259.2964490348
 21
244.6018835638
  0
LINE
  5
303
100
AcDbEntity
  8
0
100
AcDbLine
 62
7
  6
CONTINUOUS
 10
259.3575173607
 20
244.6481520189
 11
259.3575173607
 21
244.001579115
  0
LINE
  5
304
100
AcDbEntity
  8
0
100
AcDbLine
 62
7
  6
CONTINUOUS
 10
259.4428501346
 20
245.5618648688
 11
259.4428501346
 21
244.8270805463
  0
LINE
  5
305
100
AcDbEntity
  8
0
100
AcDbLine
 62
250
  6
CONTINUOUS
 10
259.9961391087
 20
241.5639500497
 11
259.9961391087
 21
241.214874604
  0
LINE
  5
306
100
AcDbEntity
  8
0
100
AcDbLine
 62
250
  6
CONTINUOUS
 10
260.0010865451
 20
245.7962022041
 11
260.0010865451
 21
245.5428611496
  0
LINE
  5
307
100
AcDbEntity
  8
0
100
AcDbLine
 62
7
  6
CONTINUOUS
 10
260.0572181173
 20
245.8658843189
 11
260.057218585
 21
245.6123269869
  0
LINE
  5
308
100
AcDbEntity
  8
0
100
AcDbLine
 62
7
  6
CONTINUOUS
 10
260.833065861
 20
241.1466189841
 11
260.833065861
 21
239.7553831236
  0
LINE
  5
309
100
AcDbEntity
  8
0
100
AcDbLine
 62
250
  6
CONTINUOUS
 10
260.8916445048
 20
241.1983827931
 11
260.8916445048
 21
239.6837869397
  0
LINE
  5
30A
100
AcDbEntity
  8
0
100
AcDbLine
 62
250
  6
CONTINUOUS
 10
261.2467469579
 20
239.5062357131
 11
261.2467469579
 21
241.0208315666
  0
LINE
  5
30B
100
AcDbEntity
  8
0
100
AcDbLine
 62
250
  6
CONTINUOUS
 10
261.5270999882
 20
239.5079829532
 11
261.5270999882
 21
240.7984696099
  0
LINE
  5
30C
100
AcDbEntity
  8
0
100
AcDbLine
 62
7
  6
CONTINUOUS
 10
261.6263959987
 20
243.2510263564
 11
261.6263959987
 21
242.2248466315
  0
LINE
  5
30D
100
AcDbEntity
  8
0
100
AcDbLine
 62
7
  6
CONTINUOUS
 10
261.6541911221
 20
244.140484972
 11
261.6541911221
 21
244.3640141884
  0
LINE
  5
30E
100
AcDbEntity
  8
0
100
AcDbLine
 62
250
  6
CONTINUOUS
 10
261.7142639644
 20
243.144737903
 11
261.7142639644
 21
242.1147925977
  0
LWPOLYLINE
  5
30F
100
AcDbEntity
  8
0
100
AcDbPolyline
 62
250
  6
CONTINUOUS
 90
19
 70
0
 10
260.0010865451
 20
245.5428611496
 10
260.0010572944
 20
245.5407174862
 10
260.0009252176
 20
245.5384754447
 10
260.0006903147
 20
245.5361350249
 10
260.0003576268
 20
245.5336850768
 10
259.9999221128
 20
245.5311367505
 10
259.9993686491
 20
245.5285234964
 10
259.9986933752
 20
245.5258418656
 10
259.9979001517
 20
245.5230953069
 10
259.9969854371
 20
245.5203276172
 10
259.995944953
 20
245.5175369386
 10
259.9947829779
 20
245.5147251289
 10
259.9935088052
 20
245.5119415584
 10
259.9921184504
 20
245.5091865308
 10
259.990615898
 20
245.5064597423
 10
259.989022396
 20
245.5038096523
 10
259.9873450271
 20
245.5012524139
 10
259.9855767086
 20
245.4987718739
 10
259.9837174404
 20
245.4963680324
  0
LWPOLYLINE
  5
310
100
AcDbEntity
  8
0
100
AcDbPolyline
 62
250
  6
CONTINUOUS
 90
17
 70
0
 10
269.6572893232
 20
238.8609010611
 10
269.6489785909
 20
238.8490261943
 10
269.6410224571
 20
238.8367079666
 10
269.6334473598
 20
238.8239744678
 10
269.6263089164
 20
238.8109103325
 10
269.6196397886
 20
238.7975723728
 10
269.6134593482
 20
238.7839960289
 10
269.6077955277
 20
238.7702396666
 10
269.6026700622
 20
238.7563541404
 10
269.5981013118
 20
238.7423869279
 10
269.5941075805
 20
238.728392722
 10
269.5907033634
 20
238.7144212556
 10
269.587901273
 20
238.7005228346
 10
269.5857123101
 20
238.6867528785
 10
269.5841439849
 20
238.6731623771
 10
269.583201125
 20
238.6597978508
 10
269.582886616
 20
238.6467068533
  0
LINE
  5
311
100
AcDbEntity
  8
RACCORDO
100
AcDbLine
 62
250
  6
CONTINUOUS
 10
276.1683575176
 20
245.6379648534
 11
276.1352575928
 21
245.6042384717
  0
LWPOLYLINE
  5
312
100
AcDbEntity
  8
RACCORDO
100
AcDbPolyline
 62
250
  6
CONTINUOUS
 90
10
 70
0
 10
277.3387319593
 20
245.4552172562
 10
277.3196910708
 20
245.4371576911
 10
277.3018430153
 20
245.4164472258
 10
277.2855547189
 20
245.3935116328
 10
277.2711610417
 20
245.3688224295
 10
277.2589578936
 20
245.3428871845
 10
277.2491961508
 20
245.316239083
 10
277.2420764986
 20
245.2894259654
 10
277.2377453048
 20
245.2629990644
 10
277.2362916118
 20
245.2375016727
  0
LWPOLYLINE
  5
313
100
AcDbEntity
  8
RACCORDO
100
AcDbPolyline
 62
250
  6
CONTINUOUS
 90
10
 70
0
 10
278.097137558
 20
245.0760144569
 10
278.0780961054
 20
245.0579542625
 10
278.0602477136
 20
245.0372432022
 10
278.0439592978
 20
245.0143071422
 10
278.029565697
 20
244.9896176936
 10
278.0173627576
 20
244.9636824567
 10
278.0076012715
 20
244.9370345757
 10
278.0004818632
 20
244.9102218635
 10
277.9961508496
 20
244.8837955471
 10
277.9946972126
 20
244.8582988724
  0
LWPOLYLINE
  5
314
100
AcDbEntity
  8
RACCORDO
100
AcDbPolyline
 62
250
  6
CONTINUOUS
 90
16
 70
0
 10
276.8234203955
 20
245.1252412475
 10
276.8476497309
 20
245.14810425
 10
276.8736910591
 20
245.1691235618
 10
276.9012462965
 20
245.1882225144
 10
276.9300152238
 20
245.2054532983
 10
276.9596729061
 20
245.220659369
 10
276.9898707428
 20
245.2334801381
 10
277.0202854759
 20
245.2438741479
 10
277.0506022511
 20
245.2518885585
 10
277.0804901534
 20
245.2573277749
 10
277.1096018972
 20
245.2602046679
 10
277.1377120548
 20
245.2606155322
 10
277.1646815242
 20
245.2584945919
 10
277.1902858973
 20
245.2538594042
 10
277.214233237
 20
245.2468317888
 10
277.2362916118
 20
245.2375016727
  0
LWPOLYLINE
  5
315
100
AcDbEntity
  8
0
100
AcDbPolyline
 62
7
  6
CONTINUOUS
 90
7
 70
0
 10
279.8027205671
 20
245.8382613839
 10
279.7990483193
 20
245.835143041
 10
279.7948936328
 20
245.827863184
 10
279.7910412279
 20
245.8168885679
 10
279.7878257378
 20
245.8030896212
 10
279.7854605599
 20
245.786768771
 10
279.7839978892
 20
245.7676544117
  0
LWPOLYLINE
  5
316
100
AcDbEntity
  8
0
100
AcDbPolyline
 62
250
  6
CONTINUOUS
 90
22
 70
0
 10
267.3217853744
 20
234.301850716
 10
267.2424944941
 20
234.2545139487
 10
267.1649419129
 20
234.2011680862
 10
267.0895036731
 20
234.1423474388
 10
267.016889078
 20
234.0789388828
 10
266.9470116124
 20
234.0111916927
 10
266.8790908685
 20
233.9384505312
 10
266.813042408
 20
233.860507286
 10
266.7496789363
 20
233.7781985101
 10
266.6896067734
 20
233.692293577
 10
266.6328740747
 20
233.6028591157
 10
266.5800033552
 20
233.5107269017
 10
266.532045146
 20
233.4180179106
 10
266.4895046086
 20
233.3264525619
 10
266.4517353138
 20
233.2354354023
 10
266.4180360864
 20
233.1436181836
 10
266.3887401165
 20
233.0520966382
 10
266.3636981451
 20
232.9605771864
 10
266.3422313566
 20
232.8655820345
 10
266.3248113052
 20
232.7663471771
 10
266.3124493168
 20
232.6648111154
 10
266.3058469813
 20
232.5617327517
  0
LWPOLYLINE
  5
317
100
AcDbEntity
  8
0
100
AcDbPolyline
 62
250
  6
CONTINUOUS
 90
7
 70
0
 10
273.3654047095
 20
239.1140431219
 10
273.3821349159
 20
239.123909821
 10
273.3961778874
 20
239.134773774
 10
273.4072986467
 20
239.1464531983
 10
273.4153111127
 20
239.158752666
 10
273.4200812146
 20
239.1714663742
 10
273.4215367495
 20
239.1835089588
  0
LWPOLYLINE
  5
318
100
AcDbEntity
  8
0
100
AcDbPolyline
 62
250
  6
CONTINUOUS
 90
7
 70
0
 10
273.3654047095
 20
238.8607020674
 10
273.3821349247
 20
238.8705687725
 10
273.3961779004
 20
238.8814327313
 10
273.40729866
 20
238.8931121607
 10
273.4153111233
 20
238.9054116323
 10
273.4200812202
 20
238.9181253429
 10
273.4215367495
 20
238.9301679044
  0
LWPOLYLINE
  5
319
100
AcDbEntity
  8
0
100
AcDbPolyline
 62
250
  6
CONTINUOUS
 90
28
 70
0
 10
271.0438683553
 20
238.3063808761
 10
271.0353621758
 20
238.3017269891
 10
271.0266344388
 20
238.296430553
 10
271.0177097181
 20
238.2904611899
 10
271.0085954387
 20
238.283775137
 10
270.9993451935
 20
238.2763608896
 10
270.9900561215
 20
238.268251876
 10
270.9807647979
 20
238.2594411088
 10
270.9715111415
 20
238.2499260076
 10
270.9623947328
 20
238.2397736405
 10
270.9534548374
 20
238.2289991224
 10
270.9447327181
 20
238.2176223542
 10
270.9363221518
 20
238.2057421968
 10
270.9282627877
 20
238.1934003434
 10
270.9205849616
 20
238.1806282935
 10
270.9133554573
 20
238.1675270378
 10
270.9066084991
 20
238.1541582422
 10
270.9003608031
 20
238.140554801
 10
270.8946426129
 20
238.1267817296
 10
270.8894759179
 20
238.1128952809
 10
270.8848755001
 20
238.0989389479
 10
270.8808562962
 20
238.0849597496
 10
270.877432051
 20
238.0710072422
 10
270.8746145756
 20
238.0571317609
 10
270.8724132697
 20
238.043381237
 10
270.8708356347
 20
238.029804203
 10
270.8698870217
 20
238.0164495811
 10
270.8695704794
 20
238.0033649216
  0
LINE
  5
31A
100
AcDbEntity
  8
0
100
AcDbLine
 62
250
  6
CONTINUOUS
 10
268.2979190994
 20
234.8347508084
 11
267.3217853744
 21
234.301850716
  0
LWPOLYLINE
  5
31B
100
AcDbEntity
  8
0
100
AcDbPolyline
 62
7
  6
CONTINUOUS
 90
13
 70
0
 10
286.5081447671
 20
246.5213137244
 10
286.379159949
 20
246.450960006
 10
286.2602466647
 20
246.3763019574
 10
286.1519778313
 20
246.2976992765
 10
286.0548750813
 20
246.2155306663
 10
285.9694062499
 20
246.1301920102
 10
285.8959831208
 20
246.0420944645
 10
285.8349594422
 20
245.9516624781
 10
285.7866292224
 20
245.8593317465
 10
285.7512253136
 20
245.7655471139
 10
285.7289182895
 20
245.6707604287
 10
285.7198156241
 20
245.5754283675
 10
285.7195835023
 20
245.557563486
  0
LINE
  5
31C
100
AcDbEntity
  8
0
100
AcDbLine
 62
250
  6
CONTINUOUS
 10
272.8075316362
 20
237.3206520112
 11
272.6749553202
 21
237.2494544783
  0
LINE
  5
31D
100
AcDbEntity
  8
0
100
AcDbLine
 62
7
  6
CONTINUOUS
 10
271.8693728857
 20
236.8087612474
 11
271.8641852083
 21
236.8060233365
  0
LINE
  5
31E
100
AcDbEntity
  8
0
100
AcDbLine
 62
7
  6
CONTINUOUS
 10
286.177313907
 20
245.2494116441
 11
286.8280875618
 21
245.5925774602
  0
LWPOLYLINE
  5
31F
100
AcDbEntity
  8
0
100
AcDbPolyline
 62
250
  6
CONTINUOUS
 90
28
 70
0
 10
271.1852681724
 20
238.0625022668
 10
271.1835336022
 20
238.0615925539
 10
271.1817653641
 20
238.0605433118
 10
271.179963458
 20
238.0593545405
 10
271.1781167139
 20
238.0580261608
 10
271.1762363019
 20
238.056558252
 10
271.1743557317
 20
238.0549510518
 10
271.1724741841
 20
238.0531994185
 10
271.1705924783
 20
238.0513084939
 10
271.1687465823
 20
238.0492939415
 10
271.1669370975
 20
238.0471509216
 10
271.1651634225
 20
238.0448842741
 10
271.1634597211
 20
238.0425241811
 10
271.1618287636
 20
238.0400685245
 10
271.1602677796
 20
238.0375194224
 10
271.1588026216
 20
238.0349134126
 10
271.1574368504
 20
238.0322519407
 10
271.1561669052
 20
238.0295335609
 10
271.1550079555
 20
238.0267904731
 10
271.1539619257
 20
238.0240236471
 10
271.1530268914
 20
238.0212321131
 10
271.1522122498
 20
238.0184451611
 10
271.1515192047
 20
238.0156628003
 10
271.1509465523
 20
238.0128850216
 10
271.1505000781
 20
238.0101410879
 10
271.1501817105
 20
238.0074407535
 10
271.149989521
 20
238.0047742641
 10
271.1499235097
 20
238.0021416196
  0
LINE
  5
320
100
AcDbEntity
  8
0
100
AcDbLine
 62
7
  6
CONTINUOUS
 10
290.5203007456
 20
248.5627135171
 11
286.5081447671
 21
246.5213137244
  0
LINE
  5
321
100
AcDbEntity
  8
0
100
AcDbLine
 62
7
  6
CONTINUOUS
 10
273.6556964364
 20
239.2726753508
 11
273.4215367495
 21
239.1539828278
  0
LINE
  5
322
100
AcDbEntity
  8
0
100
AcDbLine
 62
7
  6
CONTINUOUS
 10
273.4949651144
 20
238.4436271923
 11
272.8356059889
 21
238.1094065619
  0
LINE
  5
323
100
AcDbEntity
  8
0
100
AcDbLine
 62
250
  6
CONTINUOUS
 10
272.6657684819
 20
239.1235843959
 11
271.0438683553
 21
238.3063808761
  0
LINE
  5
324
100
AcDbEntity
  8
0
100
AcDbLine
 62
250
  6
CONTINUOUS
 10
272.807168299
 20
238.8797057866
 11
271.1852681724
 21
238.0625022668
  0
LINE
  5
325
100
AcDbEntity
  8
0
100
AcDbLine
 62
7
  6
CONTINUOUS
 10
269.1765911394
 20
236.9737240343
 11
267.8910610189
 21
236.3260024378
  0
LINE
  5
326
100
AcDbEntity
  8
0
100
AcDbLine
 62
7
  6
CONTINUOUS
 10
286.9563749906
 20
245.3694857289
 11
287.4513497374
 21
245.6169731023
  0
LINE
  5
327
100
AcDbEntity
  8
RACCORDO
100
AcDbLine
 62
7
  6
CONTINUOUS
 10
289.9195276499
 20
245.7974729546
 11
288.6080633389
 21
245.1417407991
  0
LINE
  5
328
100
AcDbEntity
  8
0
100
AcDbLine
 62
250
  6
CONTINUOUS
 10
273.1898729485
 20
239.3835440751
 11
272.6657684819
 21
239.1235843959
  0
LINE
  5
329
100
AcDbEntity
  8
0
100
AcDbLine
 62
250
  6
CONTINUOUS
 10
273.3312727656
 20
239.1396654657
 11
272.807168299
 21
238.8797057866
  0
LINE
  5
32A
100
AcDbEntity
  8
DRAFT
100
AcDbLine
 62
7
  6
CONTINUOUS
 10
282.1409778107
 20
242.8340697643
 11
279.2221324907
 21
241.3863009676
  0
LINE
  5
32B
100
AcDbEntity
  8
0
100
AcDbLine
 62
250
  6
CONTINUOUS
 10
273.5019863333
 20
237.6654149142
 11
272.8072221469
 21
237.3208067558
  0
LINE
  5
32C
100
AcDbEntity
  8
0
100
AcDbLine
 62
250
  6
CONTINUOUS
 10
272.864812826
 20
237.9840016679
 11
279.4928246192
 21
241.2509549033
  0
LINE
  5
32D
100
AcDbEntity
  8
0
100
AcDbLine
 62
250
  6
CONTINUOUS
 10
273.2425317134
 20
237.7951422241
 11
279.7428150999
 21
240.9991380081
  0
LINE
  5
32E
100
AcDbEntity
  8
DRAFT
100
AcDbLine
 62
7
  6
CONTINUOUS
 10
290.5203007456
 20
248.1548622499
 11
286.5081447671
 21
246.1999894422
  0
LINE
  5
32F
100
AcDbEntity
  8
0
100
AcDbLine
 62
250
  6
CONTINUOUS
 10
284.9379382237
 20
244.9565481176
 11
273.3761254907
 21
239.323199504
  0
LINE
  5
330
100
AcDbEntity
  8
0
100
AcDbLine
 62
250
  6
CONTINUOUS
 10
284.9879835586
 20
244.776749583
 11
276.3452932925
 21
240.5657068726
  0
LINE
  5
331
100
AcDbEntity
  8
DRAFT
100
AcDbLine
 62
7
  6
CONTINUOUS
 10
286.6860471869
 20
244.090685359
 11
279.8699908828
 21
240.7797922289
  0
LINE
  5
332
100
AcDbEntity
  8
0
100
AcDbLine
 62
7
  6
CONTINUOUS
 10
278.6486396965
 20
241.6730473647
 11
273.6556964364
 21
239.2726753508
  0
LINE
  5
333
100
AcDbEntity
  8
DRAFT
100
AcDbLine
 62
7
  6
CONTINUOUS
 10
285.8101696281
 20
244.5286241384
 11
282.1409778107
 21
242.8340697643
  0
LWPOLYLINE
  5
334
100
AcDbEntity
  8
RACCORDO
100
AcDbPolyline
 62
7
  6
CONTINUOUS
 90
10
 70
0
 10
290.7680294617
 20
245.3731957231
 10
290.779425926
 20
245.3783643783
 10
290.7906463285
 20
245.3824162747
 10
290.8016906692
 20
245.3853514122
 10
290.8126539281
 20
245.3871699436
 10
290.8234411253
 20
245.387871716
 10
290.8337673207
 20
245.3874562717
 10
290.8435375345
 20
245.3859234578
 10
290.8528467465
 20
245.383273427
 10
290.8616949568
 20
245.3795061795
  0
LWPOLYLINE
  5
335
100
AcDbEntity
  8
0
100
AcDbPolyline
 62
250
  6
CONTINUOUS
 90
13
 70
0
 10
271.1499235097
 20
238.0021416196
 10
271.1301900995
 20
237.9937765121
 10
271.1084621818
 20
237.9867550242
 10
271.0851033231
 20
237.9811946444
 10
271.0605043799
 20
237.9771884128
 10
271.0350769587
 20
237.9748033643
 10
271.0092465285
 20
237.9740794074
 10
270.9834453021
 20
237.9750286556
 10
270.9581050032
 20
237.9776352257
 10
270.9336496433
 20
237.9818555025
 10
270.9104884263
 20
237.9876188696
 10
270.8890089015
 20
237.9948288903
 10
270.8695704794
 20
238.0033649216
  0
LWPOLYLINE
  5
336
100
AcDbEntity
  8
0
100
AcDbPolyline
 62
250
  6
CONTINUOUS
 90
13
 70
0
 10
271.1499235097
 20
237.7714753596
 10
271.1301900594
 20
237.7631102164
 10
271.108462103
 20
237.7560887043
 10
271.0851032109
 20
237.7505283107
 10
271.0605042429
 20
237.7465220742
 10
271.0350768075
 20
237.744137028
 10
271.0092463743
 20
237.7434130787
 10
270.9834451567
 20
237.7443623385
 10
270.9581048773
 20
237.7469689218
 10
270.9336495442
 20
237.7511892119
 10
270.9104883585
 20
237.7569525913
 10
270.8890088678
 20
237.7641626224
 10
270.8695704794
 20
237.7726986615
  0
LINE
  5
337
100
AcDbEntity
  8
0
100
AcDbLine
 62
250
  6
CONTINUOUS
 10
271.8108651929
 20
205.3542493241
 11
271.2329767826
 21
205.6431935292
  0
LINE
  5
338
100
AcDbEntity
  8
0
100
AcDbLine
 62
7
  6
CONTINUOUS
 10
269.5090669265
 20
208.0365131396
 11
269.7925285889
 21
207.8947823083
  0
LWPOLYLINE
  5
339
100
AcDbEntity
  8
0
100
AcDbPolyline
 62
250
  6
CONTINUOUS
 90
7
 70
0
 10
256.1599898545
 20
245.1688420448
 10
256.1618959197
 20
245.1551370868
 10
256.1671090598
 20
245.1424669374
 10
256.1755496135
 20
245.1302392574
 10
256.1870763476
 20
245.1186586489
 10
256.201496389
 20
245.1079188866
 10
256.2185684516
 20
245.0981996755
  0
LWPOLYLINE
  5
33A
100
AcDbEntity
  8
0
100
AcDbPolyline
 62
250
  6
CONTINUOUS
 90
7
 70
0
 10
256.1599898146
 20
245.3995504854
 10
256.1618959098
 20
245.3858033824
 10
256.1671090427
 20
245.3731332287
 10
256.1755495926
 20
245.3609055424
 10
256.1870763277
 20
245.3493249261
 10
256.2014963758
 20
245.3385851552
 10
256.2185684516
 20
245.3288659355
  0
LWPOLYLINE
  5
33B
100
AcDbEntity
  8
0
100
AcDbPolyline
 62
250
  6
CONTINUOUS
 90
9
 70
0
 10
261.6263960052
 20
243.2509937183
 10
261.6269449809
 20
243.2419232671
 10
261.6304244032
 20
243.2264462455
 10
261.6370749483
 20
243.2112382052
 10
261.6468253597
 20
243.1964615757
 10
261.6595711664
 20
243.1822755043
 10
261.675175804
 20
243.1688320883
 10
261.6934720807
 20
243.1562747503
 10
261.7142639644
 20
243.144737903
  0
LINE
  5
33C
100
AcDbEntity
  8
0
100
AcDbLine
 62
7
  6
CONTINUOUS
 10
261.9723891736
 20
244.2049151626
 11
261.9723891736
 21
243.9813859463
  0
LWPOLYLINE
  5
33D
100
AcDbEntity
  8
RACCORDO
100
AcDbPolyline
 62
250
  6
CONTINUOUS
 90
7
 70
0
 10
276.0640603105
 20
246.0042566358
 10
276.0496667097
 20
245.9795671872
 10
276.0374637703
 20
245.9536319504
 10
276.0277022842
 20
245.9269840694
 10
276.0205828759
 20
245.9001713572
 10
276.0162518623
 20
245.8737450407
 10
276.0147982253
 20
245.8482483661
  0
LWPOLYLINE
  5
33E
100
AcDbEntity
  8
0
100
AcDbPolyline
 62
250
  6
CONTINUOUS
 90
10
 70
0
 10
273.3480356049
 20
238.8142089502
 10
273.3514700715
 20
238.8188321409
 10
273.3545488654
 20
238.8236455964
 10
273.3572719866
 20
238.8286493165
 10
273.3596667268
 20
238.8339160839
 10
273.3617057943
 20
238.839373116
 10
273.3633073138
 20
238.8448020651
 10
273.3644439937
 20
238.8501301488
 10
273.3651431256
 20
238.8554301496
 10
273.3654047095
 20
238.8607020674
  0
LWPOLYLINE
  5
33F
100
AcDbEntity
  8
0
100
AcDbPolyline
 62
7
  6
CONTINUOUS
 90
9
 70
0
 10
273.3596981648
 20
238.7579412495
 10
273.3676425342
 20
238.7682548306
 10
273.3816208098
 20
238.7892693219
 10
273.3937966981
 20
238.8117334477
 10
273.4040134281
 20
238.835538395
 10
273.4118881326
 20
238.8597694478
 10
273.4174216194
 20
238.8841714643
 10
273.4206813799
 20
238.909262624
 10
273.4215371861
 20
238.9301805433
  0
LINE
  5
340
100
AcDbEntity
  8
0
100
AcDbLine
 62
250
  6
CONTINUOUS
 10
272.807168299
 20
238.1449214641
 11
273.3480356049
 21
238.8142089502
  0
LINE
  5
341
100
AcDbEntity
  8
0
100
AcDbLine
 62
7
  6
CONTINUOUS
 10
272.719709991
 20
237.9659929367
 11
273.359723015
 21
238.7579666857
  0
LWPOLYLINE
  5
342
100
AcDbEntity
  8
0
100
AcDbPolyline
 62
7
  6
CONTINUOUS
 90
3
 70
0
 10
272.6733929357
 20
237.9347825811
 10
272.6671302838
 20
237.9278016021
 10
272.6607671992
 20
237.9197244816
  0
LWPOLYLINE
  5
343
100
AcDbEntity
  8
0
100
AcDbPolyline
 62
7
  6
CONTINUOUS
 90
15
 70
0
 10
271.8693728857
 20
237.5938574529
 10
271.855003927
 20
237.5778476666
 10
271.8393444659
 20
237.5626911103
 10
271.8225095955
 20
237.5484615954
 10
271.8046498555
 20
237.5351391304
 10
271.7858994522
 20
237.522875206
 10
271.7663694586
 20
237.5120005224
 10
271.7462447341
 20
237.5025667938
 10
271.7257186754
 20
237.4946292071
 10
271.7049355863
 20
237.4885297407
 10
271.6840967719
 20
237.4843090009
 10
271.6634863766
 20
237.4819960286
 10
271.6433953021
 20
237.4819030907
 10
271.6241048471
 20
237.4841222459
 10
271.6185503664
 20
237.4852082501
  0
LWPOLYLINE
  5
344
100
AcDbEntity
  8
0
100
AcDbPolyline
 62
7
  6
CONTINUOUS
 90
12
 70
0
 10
272.7197103754
 20
237.9659934124
 10
272.7187642047
 20
237.9649411182
 10
272.7163739783
 20
237.962915496
 10
272.7134058159
 20
237.9609750229
 10
272.7098829389
 20
237.9590018025
 10
272.705905242
 20
237.9570163689
 10
272.7014952202
 20
237.9548943597
 10
272.6965865306
 20
237.952286418
 10
272.6912217126
 20
237.9491447248
 10
272.685507078
 20
237.9454104997
 10
272.6795333568
 20
237.9406809639
 10
272.6733929357
 20
237.9347825811
  0
LWPOLYLINE
  5
345
100
AcDbEntity
  8
0
100
AcDbPolyline
 62
250
  6
CONTINUOUS
 90
34
 70
0
 10
270.4723455479
 20
233.5050336861
 10
270.4596517283
 20
233.4952195846
 10
270.4465947095
 20
233.4861201429
 10
270.4332957198
 20
233.4777224549
 10
270.4198879176
 20
233.4700218763
 10
270.4064635023
 20
233.4630007277
 10
270.3930569692
 20
233.4566248117
 10
270.3797536009
 20
233.4508886871
 10
270.36662577
 20
233.4457684418
 10
270.3536627519
 20
233.4412086254
 10
270.3409056238
 20
233.4371823402
 10
270.3284140462
 20
233.4336725912
 10
270.3161896408
 20
233.4306467865
 10
270.304250885
 20
233.4280793019
 10
270.2926485163
 20
233.4259472982
 10
270.2814235251
 20
233.4242237414
 10
270.2706226618
 20
233.4228817004
 10
270.2602405712
 20
233.4218874368
 10
270.2502339877
 20
233.421207526
 10
270.240655385
 20
233.4208180092
 10
270.2314725809
 20
233.420689973
 10
270.2225160528
 20
233.4208023519
 10
270.2137922249
 20
233.4211441236
 10
270.20531232
 20
233.4217037553
 10
270.1969232563
 20
233.422486383
 10
270.1886061246
 20
233.4234971192
 10
270.1804084284
 20
233.4247333653
 10
270.1722866701
 20
233.4262057162
 10
270.1642489007
 20
233.4279203637
 10
270.1563243212
 20
233.4298787688
 10
270.1485073302
 20
233.4320905182
 10
270.1408121127
 20
233.4345623315
 10
270.1332701751
 20
233.4372951688
 10
270.1259049966
 20
233.4402907906
  0
LINE
  5
346
100
AcDbEntity
  8
0
100
AcDbLine
 62
7
  6
CONTINUOUS
 10
271.8483229379
 20
235.6936010435
 11
271.8694438367
 21
235.7094831272
  0
LWPOLYLINE
  5
347
100
AcDbEntity
  8
0
100
AcDbPolyline
 62
7
  6
CONTINUOUS
 90
7
 70
0
 10
272.6749553203
 20
237.2494544783
 10
272.6727084013
 20
237.2479839465
 10
272.6704136532
 20
237.2465312295
 10
272.6680716039
 20
237.2450967861
 10
272.6656827994
 20
237.2436810715
 10
272.6632478038
 20
237.242284538
 10
272.6607671992
 20
237.2409076342
  0
LWPOLYLINE
  5
348
100
AcDbEntity
  8
0
100
AcDbPolyline
 62
250
  6
CONTINUOUS
 90
22
 70
0
 10
267.6876181145
 20
233.6988482703
 10
267.6340739353
 20
233.6668445659
 10
267.5821589506
 20
233.6315478068
 10
267.5318731604
 20
233.5929579932
 10
267.4832398876
 20
233.5510223902
 10
267.4362358093
 20
233.5057937325
 10
267.3907909567
 20
233.4574302251
 10
267.346609011
 20
233.4056362063
 10
267.303986291
 20
233.3507073377
 10
267.2637417841
 20
233.2936888088
 10
267.225859664
 20
233.2342386198
 10
267.1903557569
 20
233.1726987706
 10
267.1580965298
 20
233.1111404496
 10
267.1295036281
 20
233.0503403942
 10
267.1041554064
 20
232.9895218671
 10
267.0816533956
 20
232.9284258451
 10
267.0618345645
 20
232.8675136521
 10
267.0448619443
 20
232.8063239642
 10
267.0308261607
 20
232.7432137871
 10
267.0197574223
 20
232.677635456
 10
267.0116255204
 20
232.6101366356
 10
267.0064304551
 20
232.540717326
  0
LINE
  5
349
100
AcDbEntity
  8
0
100
AcDbLine
 62
250
  6
CONTINUOUS
 10
268.6512033653
 20
234.2248977818
 11
267.6876181145
 21
233.6988482703
  0
LINE
  5
34A
100
AcDbEntity
  8
0
100
AcDbLine
 62
250
  6
CONTINUOUS
 10
273.1607216896
 20
236.711044079
 11
272.2136128393
 21
236.2022292784
  0
LINE
  5
34B
100
AcDbEntity
  8
0
100
AcDbLine
 62
7
  6
CONTINUOUS
 10
268.7800500225
 20
233.1680753925
 11
269.4829973247
 21
233.5250271535
  0
LINE
  5
34C
100
AcDbEntity
  8
0
100
AcDbLine
 62
250
  6
CONTINUOUS
 10
268.7800500225
 20
233.0658748132
 11
269.5189423578
 21
233.4410792125
  0
LINE
  5
34D
100
AcDbEntity
  8
0
100
AcDbLine
 62
250
  6
CONTINUOUS
 10
280.8841688734
 20
239.0305939409
 11
273.8863447135
 21
235.5013285958
  0
LINE
  5
34E
100
AcDbEntity
  8
0
100
AcDbLine
 62
250
  6
CONTINUOUS
 10
271.4637731105
 20
235.4810576031
 11
269.7699280463
 21
234.627604221
  0
LINE
  5
34F
100
AcDbEntity
  8
0
100
AcDbLine
 62
7
  6
CONTINUOUS
 10
271.8108651929
 20
234.6082413892
 11
271.1383046014
 21
234.2693679447
  0
LINE
  5
350
100
AcDbEntity
  8
RACCORDO
100
AcDbLine
 62
7
  6
CONTINUOUS
 10
290.7680583576
 20
245.373210171
 11
289.8891657064
 21
244.9337638454
  0
LINE
  5
351
100
AcDbEntity
  8
RACCORDO
100
AcDbLine
 62
250
  6
CONTINUOUS
 10
295.450849382
 20
245.7569565686
 11
281.0863930019
 21
238.6150723949
  0
LINE
  5
352
100
AcDbEntity
  8
0
100
AcDbLine
 62
250
  6
CONTINUOUS
 10
273.855485876
 20
237.0557183909
 11
273.1607216896
 21
236.7111102325
  0
LINE
  5
353
100
AcDbEntity
  8
0
100
AcDbLine
 62
7
  6
CONTINUOUS
 10
269.1019144731
 20
233.7988218897
 11
268.7800500225
 21
233.6423065978
  0
LINE
  5
354
100
AcDbEntity
  8
RACCORDO
100
AcDbLine
 62
7
  6
CONTINUOUS
 10
295.031306171
 20
246.48056157
 11
287.4387412708
 21
242.7924800979
  0
LINE
  5
355
100
AcDbEntity
  8
RACCORDO
100
AcDbLine
 62
7
  6
CONTINUOUS
 10
294.225634235
 20
246.883397538
 11
290.8044881652
 21
245.2414318097
  0
LWPOLYLINE
  5
356
100
AcDbEntity
  8
RACCORDO
100
AcDbPolyline
 62
7
  6
CONTINUOUS
 90
9
 70
0
 10
295.031306171
 20
246.48056157
 10
295.0874520487
 20
246.5058246083
 10
295.1406847597
 20
246.5252771008
 10
295.1905552201
 20
246.5389067118
 10
295.2365259899
 20
246.5468143993
 10
295.2783179514
 20
246.5490473772
 10
295.3159108615
 20
246.5455903629
 10
295.34894515
 20
246.5366537587
 10
295.3633022415
 20
246.5303833277
  0
LWPOLYLINE
  5
357
100
AcDbEntity
  8
0
100
AcDbPolyline
 62
250
  6
CONTINUOUS
 90
20
 70
0
 10
270.3663546565
 20
233.3277678628
 10
270.3727354368
 20
233.3306153339
 10
270.3792950384
 20
233.3340069829
 10
270.3859176898
 20
233.3379382401
 10
270.3926073684
 20
233.3424650772
 10
270.3993441937
 20
233.3476374226
 10
270.4060809132
 20
233.3534840514
 10
270.4127733097
 20
233.3600316452
 10
270.4193675209
 20
233.3672997384
 10
270.4258279993
 20
233.3753254421
 10
270.4321304834
 20
233.3841573437
 10
270.4382100602
 20
233.3938116692
 10
270.4440172929
 20
233.4043213088
 10
270.4495380805
 20
233.4157612008
 10
270.4546978481
 20
233.4281522315
 10
270.4594091883
 20
233.4414945078
 10
270.4636220584
 20
233.4558328985
 10
270.4672623875
 20
233.471207251
 10
270.4702306993
 20
233.4876459771
 10
270.4723455479
 20
233.5050336861
  0
LWPOLYLINE
  5
358
100
AcDbEntity
  8
0
100
AcDbPolyline
 62
7
  6
CONTINUOUS
 90
6
 70
0
 10
270.5192141758
 20
233.3909349606
 10
270.6275506831
 20
233.4358184871
 10
270.7359363894
 20
233.4808176562
 10
270.8443712142
 20
233.5259324623
 10
270.952855007
 20
233.5711629716
 10
271.1082134641
 20
233.6361035201
  0
LINE
  5
359
100
AcDbEntity
  8
0
100
AcDbLine
 62
7
  6
CONTINUOUS
 10
270.3663482648
 20
233.3277651421
 11
270.5192141758
 21
233.3909349606
  0
LWPOLYLINE
  5
35A
100
AcDbEntity
  8
0
100
AcDbPolyline
 62
250
  6
CONTINUOUS
 90
16
 70
0
 10
267.0064304551
 20
232.540717326
 10
266.9674213211
 20
232.5255849425
 10
266.9251086886
 20
232.5125415386
 10
266.8799459169
 20
232.5017268678
 10
266.8324169028
 20
232.4932568042
 10
266.7830308965
 20
232.4872221002
 10
266.7323170449
 20
232.4836874149
 10
266.6808187221
 20
232.4826906206
 10
266.6290877074
 20
232.4842423975
 10
266.5776782733
 20
232.4883261192
 10
266.5271412467
 20
232.4948980304
 10
266.4780181072
 20
232.5038877164
 10
266.4308351851
 20
232.5151988571
 10
266.3860980224
 20
232.5287102592
 10
266.3442859558
 20
232.5442771546
 10
266.3058469813
 20
232.5617327517
  0
LWPOLYLINE
  5
35B
100
AcDbEntity
  8
0
100
AcDbPolyline
 62
250
  6
CONTINUOUS
 90
7
 70
0
 10
270.4723471599
 20
233.5050347298
 10
270.5741245024
 20
233.5440578661
 10
270.6765157924
 20
233.5834219235
 10
270.7795186178
 20
233.6231298555
 10
270.883130568
 20
233.6631846891
 10
270.9873492346
 20
233.7035895247
 10
271.0921722132
 20
233.7443475366
  0
LINE
  5
35C
100
AcDbEntity
  8
0
100
AcDbLine
 62
250
  6
CONTINUOUS
 10
268.3307305454
 20
234.8160984624
 11
268.4197108465
 21
234.8491447647
  0
LINE
  5
35D
100
AcDbEntity
  8
0
100
AcDbLine
 62
250
  6
CONTINUOUS
 10
268.6505941887
 20
234.2384905755
 11
268.7519423587
 21
234.276130168
  0
LINE
  5
35E
100
AcDbEntity
  8
0
100
AcDbLine
 62
7
  6
CONTINUOUS
 10
269.4606486566
 20
210.2493978209
 11
268.7800500225
 21
210.5896971379
  0
LINE
  5
35F
100
AcDbEntity
  8
0
100
AcDbLine
 62
250
  6
CONTINUOUS
 10
269.5090669265
 20
210.3279204879
 11
268.7800500225
 21
210.6924289398
  0
LINE
  5
360
100
AcDbEntity
  8
0
100
AcDbLine
 62
250
  6
CONTINUOUS
 10
268.7800500225
 20
211.2679618396
 11
269.5823767861
 21
210.8667984578
  0
LINE
  5
361
100
AcDbEntity
  8
0
100
AcDbLine
 62
250
  6
CONTINUOUS
 10
269.157254674
 20
211.4720241752
 11
269.5384428033
 21
211.2814301106
  0
LWPOLYLINE
  5
362
100
AcDbEntity
  8
0
100
AcDbPolyline
 62
7
  6
CONTINUOUS
 90
40
 70
0
 10
258.5950291047
 20
217.4451015146
 10
258.5634139527
 20
217.4617536941
 10
258.5318880926
 20
217.4801052631
 10
258.50045155
 20
217.5001562346
 10
258.4690066486
 20
217.5219724785
 10
258.4376511682
 20
217.5454881768
 10
258.4066783423
 20
217.5705058221
 10
258.3760936406
 20
217.5970553306
 10
258.3458917945
 20
217.6251068869
 10
258.3163499403
 20
217.6543733919
 10
258.2875411892
 20
217.6847892557
 10
258.2593926958
 20
217.7164202016
 10
258.2319626657
 20
217.749176101
 10
258.2053427783
 20
217.7828765619
 10
258.179441676
 20
217.817702138
 10
258.1540430635
 20
217.8541041466
 10
258.1290568412
 20
217.8920803363
 10
258.1045736139
 20
217.931633212
 10
258.0806482885
 20
217.9732212993
 10
258.0571798203
 20
218.0168764544
 10
258.0342700588
 20
218.0625672246
 10
258.0122784801
 20
218.1106572857
 10
257.9910965952
 20
218.1611403254
 10
257.9708341304
 20
218.2140232758
 10
257.9521782362
 20
218.2696898553
 10
257.934919378
 20
218.3286314418
 10
257.9192691228
 20
218.3903576746
 10
257.9065464276
 20
218.453779741
 10
257.8967616246
 20
218.5190817899
 10
257.8899065209
 20
218.5860807412
 10
257.8872718821
 20
218.6531367367
 10
257.8889801342
 20
218.7205262393
 10
257.8949105731
 20
218.7879736438
 10
257.9059881574
 20
218.8530104329
 10
257.9225613888
 20
218.9157206604
 10
257.9442819573
 20
218.9760203644
 10
257.9710276971
 20
219.0311880524
 10
258.0029916353
 20
219.0808177927
 10
258.039978675
 20
219.1253144812
 10
258.081282753
 20
219.1631720134
  0
LWPOLYLINE
  5
363
100
AcDbEntity
  8
0
100
AcDbPolyline
 62
7
  6
CONTINUOUS
 90
27
 70
0
 10
258.5950291047
 20
217.4451015146
 10
258.526423282
 20
217.4837376672
 10
258.4597254461
 20
217.5288628618
 10
258.3949360944
 20
217.5804773485
 10
258.3315458561
 20
217.6391466779
 10
258.2700660803
 20
217.704306293
 10
258.2120286351
 20
217.7742614277
 10
258.1574952539
 20
217.8491580621
 10
258.1064075055
 20
217.928851873
 10
258.0601167463
 20
218.0112125064
 10
258.0187507373
 20
218.0963270588
 10
257.982185299
 20
218.1841102277
 10
257.9513929024
 20
218.2721725703
 10
257.926539755
 20
218.3604549697
 10
257.9074623112
 20
218.4490178721
 10
257.8946368713
 20
218.5356504074
 10
257.8882004645
 20
218.6203504736
 10
257.888017165
 20
218.7031207192
 10
257.8941519614
 20
218.7817564584
 10
257.9067890764
 20
218.8561855331
 10
257.9257433858
 20
218.9264796453
 10
257.9505238518
 20
218.9906488972
 10
257.9813139201
 20
219.0485004291
 10
258.0179273887
 20
219.1002257208
 10
258.0593170722
 20
219.1444105471
 10
258.105559293
 20
219.1808211675
 10
258.1256321657
 20
219.1934119976
  0
LWPOLYLINE
  5
364
100
AcDbEntity
  8
0
100
AcDbPolyline
 62
7
  6
CONTINUOUS
 90
25
 70
0
 10
258.6636192388
 20
219.1385099501
 10
258.7302774426
 20
219.0933670557
 10
258.7950042134
 20
219.0417238862
 10
258.8583094315
 20
218.9830154611
 10
258.9196851945
 20
218.9178077455
 10
258.9776056167
 20
218.8477975512
 10
259.0320116458
 20
218.7728404029
 10
259.082965636
 20
218.693082421
 10
259.1291235466
 20
218.6106561801
 10
259.1703609965
 20
218.5254763769
 10
259.2068059491
 20
218.4376301026
 10
259.2374919068
 20
218.3495080405
 10
259.2622555962
 20
218.2611673909
 10
259.2812629569
 20
218.172552288
 10
259.2940397681
 20
218.0858830464
 10
259.30044893
 20
218.0011656161
 10
259.3006286423
 20
217.9183946021
 10
259.2945157511
 20
217.8397723617
 10
259.2819255742
 20
217.7653702948
 10
259.2630418907
 20
217.6951165553
 10
259.2383522347
 20
217.6309976279
 10
259.2076703489
 20
217.5732046313
 10
259.1711797341
 20
217.5215450703
 10
259.1299208846
 20
217.4774291671
 10
259.0838135594
 20
217.4410883557
  0
LWPOLYLINE
  5
365
100
AcDbEntity
  8
0
100
AcDbPolyline
 62
250
  6
CONTINUOUS
 90
4
 70
0
 10
269.119586278
 20
203.6434466855
 10
269.1259942593
 20
203.6274500666
 10
269.1365142421
 20
203.6120071052
 10
269.1509669216
 20
203.5973808384
  0
LWPOLYLINE
  5
366
100
AcDbEntity
  8
0
100
AcDbPolyline
 62
250
  6
CONTINUOUS
 90
22
 70
0
 10
267.0064304551
 20
196.9610926983
 10
267.0109377112
 20
196.8987569241
 10
267.0188518802
 20
196.8399806126
 10
267.0301729622
 20
196.7847637638
 10
267.0449542389
 20
196.7331595148
 10
267.0631424286
 20
196.6851147285
 10
267.0845776854
 20
196.6404699939
 10
267.1093834692
 20
196.5989263989
 10
267.1374363202
 20
196.5607828557
 10
267.1682060131
 20
196.5267766888
 10
267.2019701148
 20
196.4970191068
 10
267.2384510585
 20
196.4713989012
 10
267.2762859177
 20
196.4503197709
 10
267.3150035374
 20
196.434068074
 10
267.3550750727
 20
196.4223574524
 10
267.3965510626
 20
196.4147325311
 10
267.4389810763
 20
196.410785775
 10
267.4828155446
 20
196.4109247192
 10
267.5294562994
 20
196.4159165938
 10
267.5793706179
 20
196.4260171422
 10
267.6320912229
 20
196.440970621
 10
267.6876181145
 20
196.4607770302
  0
LWPOLYLINE
  5
367
100
AcDbEntity
  8
0
100
AcDbPolyline
 62
250
  6
CONTINUOUS
 90
13
 70
0
 10
266.3058469813
 20
196.9464928841
 10
266.312073581
 20
196.8534609552
 10
266.3239697429
 20
196.7652220343
 10
266.3412571434
 20
196.6821012817
 10
266.3635099149
 20
196.6047590003
 10
266.3904879006
 20
196.532973753
 10
266.4223974408
 20
196.4658940202
 10
266.4593796777
 20
196.4034891209
 10
266.5010862604
 20
196.3465811076
 10
266.5471226676
 20
196.2957126952
 10
266.5974597223
 20
196.2509244824
 10
266.6516327546
 20
196.2126349721
 10
266.6983028862
 20
196.186400923
  0
LWPOLYLINE
  5
368
100
AcDbEntity
  8
0
100
AcDbPolyline
 62
250
  6
CONTINUOUS
 90
5
 70
0
 10
266.7564263366
 20
207.0766221916
 10
266.7978627155
 20
204.6806841543
 10
266.8538920634
 20
202.1892725126
 10
266.9234146433
 20
199.6160753607
 10
267.0064304551
 20
196.9610926983
  0
LWPOLYLINE
  5
369
100
AcDbEntity
  8
0
100
AcDbPolyline
 62
250
  6
CONTINUOUS
 90
6
 70
0
 10
266.0277776081
 20
209.3886881115
 10
266.0563603703
 20
207.0725875164
 10
266.0970740468
 20
204.673809868
 10
266.151487922
 20
202.1789072952
 10
266.2206430304
 20
199.6028682976
 10
266.3058469813
 20
196.9464928841
  0
LINE
  5
36A
100
AcDbEntity
  8
0
100
AcDbLine
 62
250
  6
CONTINUOUS
 10
266.7284831897
 20
209.3907747186
 11
266.7564263366
 21
207.0766221916
  0
LWPOLYLINE
  5
36B
100
AcDbEntity
  8
0
100
AcDbPolyline
 62
250
  6
CONTINUOUS
 90
3
 70
0
 10
266.7022857704
 20
213.8915271858
 10
266.7107340633
 20
211.6642060169
 10
266.7284831897
 20
209.3907747186
  0
LWPOLYLINE
  5
36C
100
AcDbEntity
  8
0
100
AcDbPolyline
 62
250
  6
CONTINUOUS
 90
4
 70
0
 10
266.0036075419
 20
216.0828718461
 10
266.0020068262
 20
213.8941997309
 10
266.009859675
 20
211.6643214949
 10
266.0277776081
 20
209.3886881115
  0
LWPOLYLINE
  5
36D
100
AcDbEntity
  8
0
100
AcDbPolyline
 62
250
  6
CONTINUOUS
 90
4
 70
0
 10
266.7351752277
 20
220.4984645407
 10
266.7153515966
 20
218.2812368205
 10
266.7040314982
 20
216.0781271259
 10
266.7022857704
 20
213.8915271858
  0
LINE
  5
36E
100
AcDbEntity
  8
0
100
AcDbLine
 62
250
  6
CONTINUOUS
 10
266.7645732294
 20
222.7322020155
 11
266.7351752277
 21
220.4984645407
  0
LWPOLYLINE
  5
36F
100
AcDbEntity
  8
0
100
AcDbPolyline
 62
250
  6
CONTINUOUS
 90
5
 70
0
 10
266.1053579398
 20
225.060367757
 10
266.0645526353
 20
222.7437459186
 10
266.034739081
 20
220.5076329075
 10
266.0144817512
 20
218.2879759926
 10
266.0036075419
 20
216.0828718461
  0
LINE
  5
370
100
AcDbEntity
  8
0
100
AcDbLine
 62
250
  6
CONTINUOUS
 10
266.1586591006
 20
227.4792890382
 11
266.1053579398
 21
225.060367757
  0
LINE
  5
371
100
AcDbEntity
  8
0
100
AcDbLine
 62
250
  6
CONTINUOUS
 10
266.2251383085
 20
229.9796095414
 11
266.1586591006
 21
227.4792890382
  0
LWPOLYLINE
  5
372
100
AcDbEntity
  8
0
100
AcDbPolyline
 62
250
  6
CONTINUOUS
 90
4
 70
0
 10
266.9274992235
 20
229.9618474313
 10
266.8607352274
 20
227.4638934608
 10
266.8061384666
 20
225.0468554144
 10
266.7645732294
 20
222.7322020155
  0
LINE
  5
373
100
AcDbEntity
  8
0
100
AcDbLine
 62
250
  6
CONTINUOUS
 10
267.0064304551
 20
232.540717326
 11
266.9274992235
 21
229.9618474313
  0
LINE
  5
374
100
AcDbEntity
  8
0
100
AcDbLine
 62
250
  6
CONTINUOUS
 10
266.3058469813
 20
232.5617327517
 11
266.2251383085
 21
229.9796095414
  0
LWPOLYLINE
  5
375
100
AcDbEntity
  8
0
100
AcDbPolyline
 62
7
  6
CONTINUOUS
 90
12
 70
0
 10
267.1970267606
 20
237.9646385442
 10
267.1970589454
 20
237.9649455475
 10
267.1979754491
 20
237.9674056206
 10
267.2001975768
 20
237.9706470214
 10
267.2037582146
 20
237.9745182028
 10
267.2083946168
 20
237.9790688113
 10
267.2140894291
 20
237.9842155926
 10
267.2208403871
 20
237.9898362198
 10
267.228414986
 20
237.995946907
 10
267.2367188146
 20
238.002491392
 10
267.2457934309
 20
238.0093390058
 10
267.2556055355
 20
238.0164022778
  0
LWPOLYLINE
  5
376
100
AcDbEntity
  8
0
100
AcDbPolyline
 62
250
  6
CONTINUOUS
 90
12
 70
0
 10
271.1679097441
 20
237.742659912
 10
271.157397978
 20
237.719288991
 10
271.1447132229
 20
237.6975307211
 10
271.1300701171
 20
237.6777532731
 10
271.113716436
 20
237.6602913006
 10
271.0959288998
 20
237.6454402771
 10
271.0770084908
 20
237.6334514962
 10
271.0572753603
 20
237.6245278197
 10
271.0370634123
 20
237.6188202448
 10
271.016714653
 20
237.6164253489
 10
270.9965734033
 20
237.6173836562
 10
270.9874752914
 20
237.6189474779
  0
LWPOLYLINE
  5
377
100
AcDbEntity
  8
0
100
AcDbPolyline
 62
7
  6
CONTINUOUS
 90
19
 70
0
 10
271.5890198553
 20
236.5788396495
 10
271.5989525783
 20
236.5972762461
 10
271.6099499719
 20
236.6147668002
 10
271.6220334241
 20
236.6313809955
 10
271.6352812703
 20
236.6472053625
 10
271.649617187
 20
236.6623135347
 10
271.6647791447
 20
236.6767363726
 10
271.6806197852
 20
236.6905079566
 10
271.6971260266
 20
236.7037007115
 10
271.7141888979
 20
236.7163736606
 10
271.7317363906
 20
236.728628604
 10
271.7495929743
 20
236.7404609586
 10
271.7674733191
 20
236.7517437731
 10
271.7852738247
 20
236.7624769704
 10
271.8027835093
 20
236.772685253
 10
271.8195744575
 20
236.7822108475
 10
271.8354345407
 20
236.7909522847
 10
271.8503394259
 20
236.7989077548
 10
271.8641852083
 20
236.8060233365
  0
LWPOLYLINE
  5
378
100
AcDbEntity
  8
0
100
AcDbPolyline
 62
250
  6
CONTINUOUS
 90
7
 70
0
 10
270.2664306558
 20
231.3942980025
 10
270.283419146
 20
231.4041487352
 10
270.2977068789
 20
231.4150188022
 10
270.3090520146
 20
231.4267243225
 10
270.3172624907
 20
231.4390672741
 10
270.3221992639
 20
231.4518388265
 10
270.3237804943
 20
231.4643043042
  0
LINE
  5
379
100
AcDbEntity
  8
0
100
AcDbLine
 62
7
  6
CONTINUOUS
 10
273.0193003334
 20
231.5132864558
 11
273.3021430458
 21
231.6632977178
  0
LINE
  5
37A
100
AcDbEntity
  8
RACCORDO
100
AcDbLine
 62
250
  6
CONTINUOUS
 10
295.7898128659
 20
244.5852290621
 11
281.3278050123
 21
237.0973052968
  0
LINE
  5
37B
100
AcDbEntity
  8
0
100
AcDbLine
 62
250
  6
CONTINUOUS
 10
281.2983666637
 20
237.5987968089
 11
273.9385391489
 21
233.8869595862
  0
LWPOLYLINE
  5
37C
100
AcDbEntity
  8
0
100
AcDbPolyline
 62
250
  6
CONTINUOUS
 90
26
 70
0
 10
272.149945177
 20
233.1916330113
 10
272.1506387219
 20
233.1919245615
 10
272.1556372433
 20
233.1943830202
 10
272.1603427373
 20
233.197306893
 10
272.164771813
 20
233.2006532039
 10
272.1689292004
 20
233.2043727298
 10
272.1728282234
 20
233.2084233527
 10
272.1764936454
 20
233.2127890113
 10
272.1799314076
 20
233.2174344627
 10
272.1831522699
 20
233.2223284544
 10
272.1861802848
 20
233.2274781492
 10
272.1890186177
 20
233.2328588532
 10
272.1916756002
 20
233.2384495161
 10
272.1941736118
 20
233.2442783022
 10
272.196511928
 20
233.2503289336
 10
272.1986950943
 20
233.2565885633
 10
272.2007428548
 20
233.2631042572
 10
272.2026492445
 20
233.2698660728
 10
272.204414434
 20
233.2768677135
 10
272.2060556737
 20
233.2841738801
 10
272.2075612584
 20
233.2917794724
 10
272.2089254454
 20
233.2996827902
 10
272.2101613135
 20
233.3079643025
 10
272.2112595337
 20
233.3166529585
 10
272.2121961199
 20
233.3257198374
 10
272.2129550147
 20
233.3351623774
  0
LINE
  5
37D
100
AcDbEntity
  8
0
100
AcDbLine
 62
250
  6
CONTINUOUS
 10
272.2136128393
 20
233.3484433041
 11
273.8863447135
 21
234.0374984505
  0
LINE
  5
37E
100
AcDbEntity
  8
0
100
AcDbLine
 62
7
  6
CONTINUOUS
 10
272.1499449391
 20
233.1916329133
 11
273.8009390718
 21
233.8717335447
  0
LINE
  5
37F
100
AcDbEntity
  8
0
100
AcDbLine
 62
250
  6
CONTINUOUS
 10
270.0081371772
 20
231.7505325999
 11
268.7800500225
 21
231.2584269296
  0
LINE
  5
380
100
AcDbEntity
  8
0
100
AcDbLine
 62
250
  6
CONTINUOUS
 10
270.1384615837
 20
231.5017328487
 11
268.7762419232
 21
230.9558790657
  0
LINE
  5
381
100
AcDbEntity
  8
0
100
AcDbLine
 62
7
  6
CONTINUOUS
 10
269.2987946698
 20
231.99854406
 11
268.7800500225
 21
231.7987628675
  0
LINE
  5
382
100
AcDbEntity
  8
0
100
AcDbLine
 62
250
  6
CONTINUOUS
 10
269.3829989542
 20
231.9906156251
 11
268.7800500225
 21
231.7584053127
  0
LINE
  5
383
100
AcDbEntity
  8
0
100
AcDbLine
 62
250
  6
CONTINUOUS
 10
269.3926047911
 20
231.9941302014
 11
269.3829989542
 21
231.9906156251
  0
LINE
  5
384
100
AcDbEntity
  8
0
100
AcDbLine
 62
250
  6
CONTINUOUS
 10
269.4025433004
 20
231.9974193171
 11
269.3926047911
 21
231.9941302014
  0
LWPOLYLINE
  5
385
100
AcDbEntity
  8
RACCORDO
100
AcDbPolyline
 62
250
  6
CONTINUOUS
 90
32
 70
0
 10
295.8974721561
 20
239.0389319402
 10
295.917563261
 20
239.0448786256
 10
295.9368830607
 20
239.0487297319
 10
295.9554086799
 20
239.0505122719
 10
295.9731036798
 20
239.0501283685
 10
295.9899424122
 20
239.047745516
 10
296.0059196045
 20
239.0437861304
 10
296.0209593487
 20
239.0383249364
 10
296.0350729917
 20
239.0313575097
 10
296.048395522
 20
239.0231778063
 10
296.0609106395
 20
239.0138829167
 10
296.0725664176
 20
239.0034535659
 10
296.083446563
 20
238.9920088109
 10
296.0935502219
 20
238.979624729
 10
296.1027990083
 20
238.9663218205
 10
296.1111572428
 20
238.952141605
 10
296.1186057608
 20
238.9371615771
 10
296.1250738905
 20
238.9214217585
 10
296.130444054
 20
238.9049152602
 10
296.1346915661
 20
238.887759044
 10
296.1377413075
 20
238.869977284
 10
296.1393876016
 20
238.8514421771
 10
296.1396210526
 20
238.8323147654
 10
296.138326804
 20
238.8126229831
 10
296.135110573
 20
238.7920829661
 10
296.1299690447
 20
238.7708900931
 10
296.1227316886
 20
238.7491314828
 10
296.1127069109
 20
238.7264300138
 10
296.099900167
 20
238.7030631012
 10
296.0840728586
 20
238.679164152
 10
296.0641115348
 20
238.6542275702
 10
296.0424070456
 20
238.6311878395
  0
LINE
  5
386
100
AcDbEntity
  8
0
100
AcDbLine
 62
7
  6
CONTINUOUS
 10
270.731873444
 20
212.8123918386
 11
271.2868887195
 21
212.5348842009
  0
LINE
  5
387
100
AcDbEntity
  8
0
100
AcDbLine
 62
7
  6
CONTINUOUS
 10
271.8694438367
 20
212.5896017681
 11
271.7465081272
 21
212.6510696228
  0
LINE
  5
388
100
AcDbEntity
  8
0
100
AcDbLine
 62
7
  6
CONTINUOUS
 10
271.2868887195
 20
213.3404434861
 11
270.731873444
 21
213.6179511238
  0
LINE
  5
389
100
AcDbEntity
  8
0
100
AcDbLine
 62
7
  6
CONTINUOUS
 10
271.8694438367
 20
213.4102775829
 11
271.7465081272
 21
213.4717454376
  0
LWPOLYLINE
  5
38A
100
AcDbEntity
  8
0
100
AcDbPolyline
 62
7
  6
CONTINUOUS
 90
42
 70
0
 10
258.5950291047
 20
219.1771523222
 10
258.6266466286
 20
219.1604959568
 10
258.658169202
 20
219.1421367331
 10
258.6895968504
 20
219.1220746637
 10
258.7210273518
 20
219.1002438456
 10
258.7523630318
 20
219.0767102334
 10
258.7833107612
 20
219.0516716384
 10
258.8138651319
 20
219.0250981758
 10
258.8440317532
 20
218.9970198304
 10
258.8735340333
 20
218.9677242237
 10
258.9022992231
 20
218.9372770647
 10
258.9304003376
 20
218.9056127766
 10
258.9577794335
 20
218.8728220546
 10
258.9843454656
 20
218.83908569
 10
259.0101898012
 20
218.8042230517
 10
259.0355281712
 20
218.7677827289
 10
259.0604513071
 20
218.7297672245
 10
259.0848689829
 20
218.6901742875
 10
259.1087256394
 20
218.6485454491
 10
259.1321229998
 20
218.6048496373
 10
259.1549601459
 20
218.5591183256
 10
259.1768777841
 20
218.5109869764
 10
259.197985992
 20
218.4604618055
 10
259.21817593
 20
218.4075372149
 10
259.2367602794
 20
218.3518311219
 10
259.2539497628
 20
218.2928533735
 10
259.2695356899
 20
218.231095138
 10
259.2822017769
 20
218.1676463917
 10
259.2919395588
 20
218.1023235031
 10
259.2987596399
 20
218.0353111743
 10
259.301373936
 20
217.9682516815
 10
259.2996615978
 20
217.900870124
 10
259.2937451949
 20
217.8334422658
 10
259.2827006586
 20
217.7684358242
 10
259.266179391
 20
217.7057664375
 10
259.2445301807
 20
217.6455185667
 10
259.2178731326
 20
217.5904122086
 10
259.1860134717
 20
217.5408533229
 10
259.1491439005
 20
217.4964349145
 10
259.1079640306
 20
217.4586566917
 10
259.0622909706
 20
217.4277261775
 10
259.0193409692
 20
217.4063288452
  0
LINE
  5
38B
100
AcDbEntity
  8
0
100
AcDbLine
 62
7
  6
CONTINUOUS
 10
258.5950291047
 20
219.1771523222
 11
258.6636192388
 21
219.1385099501
  0
LWPOLYLINE
  5
38C
100
AcDbEntity
  8
0
100
AcDbPolyline
 62
250
  6
CONTINUOUS
 90
6
 70
0
 10
273.3552399429
 20
197.7406616838
 10
273.3472174841
 20
197.7634631548
 10
273.3367744838
 20
197.7844982036
 10
273.3240876477
 20
197.803410897
 10
273.3093716492
 20
197.819881214
 10
273.2928754974
 20
197.8336304608
  0
LWPOLYLINE
  5
38D
100
AcDbEntity
  8
0
100
AcDbPolyline
 62
250
  6
CONTINUOUS
 90
19
 70
0
 10
270.0201211821
 20
203.5269172625
 10
270.0235170744
 20
203.509604962
 10
270.0267194856
 20
203.492348844
 10
270.0297284156
 20
203.4751489084
 10
270.0325437246
 20
203.4580039648
 10
270.0351655525
 20
203.4409152036
 10
270.0375943183
 20
203.4238861962
 10
270.0398304212
 20
203.406914255
 10
270.0418734621
 20
203.3900020675
 10
270.0437226631
 20
203.3731612681
 10
270.0453777617
 20
203.3563947126
 10
270.0468390204
 20
203.339699545
 10
270.0481064484
 20
203.3230788317
 10
270.0491802856
 20
203.3065418617
 10
270.050060292
 20
203.2900793459
 10
270.0507457578
 20
203.2736664837
 10
270.0512364464
 20
203.2572950083
 10
270.0515325943
 20
203.2409731865
 10
270.0516342015
 20
203.2247010183
  0
LINE
  5
38E
100
AcDbEntity
  8
0
100
AcDbLine
 62
250
  6
CONTINUOUS
 10
269.117399562
 20
203.6597244739
 11
269.119586278
 21
203.6434466855
  0
LWPOLYLINE
  5
38F
100
AcDbEntity
  8
0
100
AcDbPolyline
 62
250
  6
CONTINUOUS
 90
7
 70
0
 10
269.1173991732
 20
203.5481081104
 10
269.1195856806
 20
203.531612104
 10
269.1259931675
 20
203.5156152635
 10
269.1365128666
 20
203.50017192
 10
269.1509655809
 20
203.4855451419
 10
269.1691051169
 20
203.4719840879
 10
269.1906224779
 20
203.4597197628
  0
LWPOLYLINE
  5
390
100
AcDbEntity
  8
0
100
AcDbPolyline
 62
250
  6
CONTINUOUS
 90
16
 70
0
 10
267.6876181145
 20
233.6988482703
 10
267.683751559
 20
233.7440560084
 10
267.6761264386
 20
233.7907371267
 10
267.6648261616
 20
233.8383807988
 10
267.6499743537
 20
233.8864656615
 10
267.6317335117
 20
233.934465506
 10
267.6103032287
 20
233.9818550362
 10
267.5859179973
 20
234.0281156464
 10
267.5588446545
 20
234.0727410694
 10
267.5293794748
 20
234.1152429061
 10
267.4978448956
 20
234.1551560218
 10
267.464586009
 20
234.1920436009
 10
267.4299668072
 20
234.2255019115
 10
267.3943661571
 20
234.2551647735
 10
267.35817365
 20
234.2807075574
 10
267.3217853663
 20
234.3018507116
  0
LWPOLYLINE
  5
391
100
AcDbEntity
  8
0
100
AcDbPolyline
 62
7
  6
CONTINUOUS
 90
9
 70
0
 10
270.2190721589
 20
198.1413698301
 10
270.2191279223
 20
198.1407006595
 10
270.2207051677
 20
198.1371972041
 10
270.2245157583
 20
198.1329038319
 10
270.2306124811
 20
198.127959968
 10
270.2390082543
 20
198.1222052553
 10
270.2496833232
 20
198.115678407
 10
270.2625922406
 20
198.1086167841
 10
270.2776508024
 20
198.1011611419
  0
LWPOLYLINE
  5
392
100
AcDbEntity
  8
0
100
AcDbPolyline
 62
250
  6
CONTINUOUS
 90
5
 70
0
 10
268.751944707
 20
197.1412333335
 10
268.7539139143
 20
197.106840295
 10
268.7524012984
 20
197.0743523077
 10
268.7474954398
 20
197.0439742322
 10
268.739264783
 20
197.0157474674
  0
LWPOLYLINE
  5
393
100
AcDbEntity
  8
0
100
AcDbPolyline
 62
250
  6
CONTINUOUS
 90
8
 70
0
 10
269.5962365297
 20
201.0534206904
 10
269.5977153656
 20
201.0262138944
 10
269.6021271878
 20
201.0009409019
 10
269.6093982635
 20
200.9780246285
 10
269.6194070221
 20
200.9578485666
 10
269.6319860691
 20
200.940750402
 10
269.6469249698
 20
200.9270163422
 10
269.6612098242
 20
200.9182022413
  0
LWPOLYLINE
  5
394
100
AcDbEntity
  8
0
100
AcDbPolyline
 62
7
  6
CONTINUOUS
 90
13
 70
0
 10
268.4231062557
 20
240.5088268908
 10
268.4216017346
 20
240.5378426857
 10
268.417090197
 20
240.5678691914
 10
268.4096540602
 20
240.5983957083
 10
268.399426395
 20
240.6289035424
 10
268.3865832267
 20
240.6588712203
 10
268.3713407114
 20
240.6877834541
 10
268.3539564361
 20
240.71514411
 10
268.3347309038
 20
240.7404867589
 10
268.3139972818
 20
240.7633792464
 10
268.2921092561
 20
240.7834294283
 10
268.2694348761
 20
240.8002916944
 10
268.2463564843
 20
240.8136751524
  0
LWPOLYLINE
  5
395
100
AcDbEntity
  8
0
100
AcDbPolyline
 62
250
  6
CONTINUOUS
 90
13
 70
0
 10
268.2226432378
 20
245.8795379127
 10
268.2215335877
 20
245.9087508826
 10
268.2174182249
 20
245.9389763593
 10
268.2103675645
 20
245.9696971763
 10
268.200502245
 20
246.0003876918
 10
268.1879910651
 20
246.0305227828
 10
268.1730480953
 20
246.0595868299
 10
268.1559290143
 20
246.0870825394
 10
268.136926734
 20
246.1125394519
 10
268.1163663888
 20
246.1355219927
 10
268.0945997719
 20
246.1556369243
 10
268.071999316
 20
246.1725400745
 10
268.0489517212
 20
246.1859422257
  0
LWPOLYLINE
  5
396
100
AcDbEntity
  8
0
100
AcDbPolyline
 62
7
  6
CONTINUOUS
 90
10
 70
0
 10
269.5243083989
 20
196.9563083979
 10
269.5248695513
 20
196.9396633281
 10
269.5287862935
 20
196.9094744925
 10
269.5364308231
 20
196.8802141723
 10
269.5476924804
 20
196.852412478
 10
269.5622285361
 20
196.8267584745
 10
269.5797785819
 20
196.8035040633
 10
269.600192902
 20
196.782789367
 10
269.6230340774
 20
196.7650458
 10
269.6475483557
 20
196.7507079668
  0
LWPOLYLINE
  5
397
100
AcDbEntity
  8
0
100
AcDbPolyline
 62
7
  6
CONTINUOUS
 90
8
 70
0
 10
268.7800194408
 20
227.7544563115
 10
268.7799935262
 20
227.7554429356
 10
268.7797225523
 20
227.7615205108
 10
268.7791555234
 20
227.768738039
 10
268.77828138
 20
227.7769592567
 10
268.7774827736
 20
227.7863140893
 10
268.7769086622
 20
227.7967807325
 10
268.7764807113
 20
227.8081800368
  0
LWPOLYLINE
  5
398
100
AcDbEntity
  8
0
100
AcDbPolyline
 62
7
  6
CONTINUOUS
 90
13
 70
0
 10
268.7800500223
 20
234.3395285075
 10
268.7795405821
 20
234.3626677865
 10
268.7746807141
 20
234.4150447662
 10
268.7645486121
 20
234.4681189714
 10
268.7490741637
 20
234.5211456063
 10
268.7287332345
 20
234.5723541779
 10
268.7036608104
 20
234.6215347345
 10
268.6739239055
 20
234.6683721844
 10
268.6406035289
 20
234.71121916
 10
268.6041174962
 20
234.7498268401
 10
268.5645370114
 20
234.7842105475
 10
268.5229699496
 20
234.8135444293
 10
268.4813918976
 20
234.8370216718
  0
LWPOLYLINE
  5
399
100
AcDbEntity
  8
0
100
AcDbPolyline
 62
250
  6
CONTINUOUS
 90
17
 70
0
 10
269.582886616
 20
196.8857701939
 10
269.5830937679
 20
196.8753824356
 10
269.5837371872
 20
196.8649499028
 10
269.5848506185
 20
196.8545193741
 10
269.5864715537
 20
196.8441185424
 10
269.5886302031
 20
196.8338273776
 10
269.5913380625
 20
196.8237693952
 10
269.5946144887
 20
196.8139983449
 10
269.5984767157
 20
196.8045707446
 10
269.6029099024
 20
196.7955995982
 10
269.6079159146
 20
196.7871339956
 10
269.6134948864
 20
196.7792217083
 10
269.6196062712
 20
196.7719519414
 10
269.6262297467
 20
196.7653649954
 10
269.6333536262
 20
196.7594875592
 10
269.6409331259
 20
196.754366526
 10
269.6475415853
 20
196.7507109702
  0
LINE
  5
39A
100
AcDbEntity
  8
0
100
AcDbLine
 62
7
  6
CONTINUOUS
 10
268.7764807113
 20
227.8081800368
 11
268.7762419232
 21
227.8204176955
  0
LWPOLYLINE
  5
39B
100
AcDbEntity
  8
0
100
AcDbPolyline
 62
7
  6
CONTINUOUS
 90
9
 70
0
 10
269.5384509992
 20
211.0424200323
 10
269.5386249551
 20
211.0327996219
 10
269.5400756074
 20
211.0107935463
 10
269.5431037857
 20
210.9880433189
 10
269.5477741369
 20
210.9646414618
 10
269.5539641662
 20
210.9406798376
 10
269.5617023295
 20
210.9162818842
 10
269.5711453497
 20
210.891601885
 10
269.5823767861
 20
210.8667984578
  0
LWPOLYLINE
  5
39C
100
AcDbEntity
  8
0
100
AcDbPolyline
 62
7
  6
CONTINUOUS
 90
9
 70
0
 10
269.4651422619
 20
203.7178592304
 10
269.4652993934
 20
203.7087429974
 10
269.4667205172
 20
203.6866843136
 10
269.46972888
 20
203.663874943
 10
269.4743898605
 20
203.6404076209
 10
269.4805805837
 20
203.6163729143
 10
269.4883303913
 20
203.5918946961
 10
269.4977976061
 20
203.5671294448
 10
269.5090669265
 20
203.5422374554
  0
LWPOLYLINE
  5
39D
100
AcDbEntity
  8
0
100
AcDbPolyline
 62
7
  6
CONTINUOUS
 90
13
 70
0
 10
269.1174129887
 20
203.5481655201
 10
269.1175283627
 20
203.5382938092
 10
269.1209432642
 20
203.493676596
 10
269.1291402638
 20
203.4485273141
 10
269.1420711788
 20
203.4034461151
 10
269.1592240183
 20
203.3600418571
 10
269.1805074995
 20
203.318245335
 10
269.2059745086
 20
203.278259052
 10
269.2345511898
 20
203.2417717974
 10
269.2660387946
 20
203.2089156178
 10
269.3005764349
 20
203.1796667041
 10
269.3369543849
 20
203.1551057698
 10
269.3615325656
 20
203.1416467603
  0
LINE
  5
39E
100
AcDbEntity
  8
0
100
AcDbLine
 62
7
  6
CONTINUOUS
 10
267.1970268917
 20
237.9646384688
 11
267.1970268917
 21
236.5734026083
  0
LINE
  5
39F
100
AcDbEntity
  8
0
100
AcDbLine
 62
250
  6
CONTINUOUS
 10
267.2556055355
 20
238.0164022778
 11
267.2556055355
 21
236.5018064243
  0
LINE
  5
3A0
100
AcDbEntity
  8
0
100
AcDbLine
 62
250
  6
CONTINUOUS
 10
267.4950859169
 20
240.2543269268
 11
267.4951953101
 21
239.2243269248
  0
LINE
  5
3A1
100
AcDbEntity
  8
0
100
AcDbLine
 62
250
  6
CONTINUOUS
 10
267.6107079885
 20
236.3242551978
 11
267.6107079885
 21
237.8388510513
  0
LINE
  5
3A2
100
AcDbEntity
  8
0
100
AcDbLine
 62
250
  6
CONTINUOUS
 10
267.8910610189
 20
236.3260024378
 11
267.8910610189
 21
237.6164890946
  0
LINE
  5
3A3
100
AcDbEntity
  8
0
100
AcDbLine
 62
250
  6
CONTINUOUS
 10
267.9157248556
 20
240.2531799128
 11
267.9157248556
 21
239.2358702815
  0
LINE
  5
3A4
100
AcDbEntity
  8
0
100
AcDbLine
 62
250
  6
CONTINUOUS
 10
268.2226432378
 20
244.8836416783
 11
268.2226432378
 21
245.8795379127
  0
LINE
  5
3A5
100
AcDbEntity
  8
0
100
AcDbLine
 62
7
  6
CONTINUOUS
 10
268.3349670604
 20
245.0151293211
 11
268.3349670604
 21
246.0136982895
  0
LINE
  5
3A6
100
AcDbEntity
  8
0
100
AcDbLine
 62
7
  6
CONTINUOUS
 10
268.4231062557
 20
239.5128647015
 11
268.4231062557
 21
240.5088268908
  0
LINE
  5
3A7
100
AcDbEntity
  8
0
100
AcDbLine
 62
7
  6
CONTINUOUS
 10
268.6512033653
 20
196.865250979
 11
268.6512033653
 21
234.2248977818
  0
LINE
  5
3A8
100
AcDbEntity
  8
0
100
AcDbLine
 62
250
  6
CONTINUOUS
 10
268.7519423587
 20
234.276130168
 11
268.7519423587
 21
197.1412291696
  0
LINE
  5
3A9
100
AcDbEntity
  8
0
100
AcDbLine
 62
7
  6
CONTINUOUS
 10
268.7762419232
 20
230.9558790657
 11
268.7762419232
 21
227.8204176955
  0
LINE
  5
3AA
100
AcDbEntity
  8
0
100
AcDbLine
 62
7
  6
CONTINUOUS
 10
268.7800500225
 20
234.3395229072
 11
268.7800500225
 21
231.0694644652
  0
LINE
  5
3AB
100
AcDbEntity
  8
0
100
AcDbLine
 62
7
  6
CONTINUOUS
 10
268.7800500225
 20
227.75448057
 11
268.7800500225
 21
197.2046219088
  0
LINE
  5
3AC
100
AcDbEntity
  8
0
100
AcDbLine
 62
7
  6
CONTINUOUS
 10
269.1173991732
 20
203.5481081104
 11
269.1173991732
 21
203.6599449337
  0
LINE
  5
3AD
100
AcDbEntity
  8
0
100
AcDbLine
 62
250
  6
CONTINUOUS
 10
269.1906224779
 20
203.4597197628
 11
269.1906224779
 21
203.5715566606
  0
LINE
  5
3AE
100
AcDbEntity
  8
0
100
AcDbLine
 62
7
  6
CONTINUOUS
 10
269.2716343931
 20
204.1477819294
 11
269.2716343931
 21
203.951691173
  0
LWPOLYLINE
  5
3AF
100
AcDbEntity
  8
0
100
AcDbPolyline
 62
7
  6
CONTINUOUS
 90
4
 70
0
 10
268.7762419232
 20
230.9558790657
 10
268.776481099
 20
230.9691404399
 10
268.7769092462
 20
230.9833622382
 10
268.7774834201
 20
230.9984811672
  0
LWPOLYLINE
  5
3B0
100
AcDbEntity
  8
0
100
AcDbPolyline
 62
250
  6
CONTINUOUS
 90
5
 70
0
 10
268.7800500225
 20
234.3395229072
 10
268.7799231076
 20
234.3351601994
 10
268.7759835743
 20
234.3149092274
 10
268.7665991024
 20
234.2951111272
 10
268.7519423587
 20
234.276130168
  0
LWPOLYLINE
  5
3B1
100
AcDbEntity
  8
0
100
AcDbPolyline
 62
250
  6
CONTINUOUS
 90
13
 70
0
 10
269.5962365297
 20
234.3242850868
 10
269.5977155045
 20
234.352972092
 10
269.6021276815
 20
234.3826580613
 10
269.6093992332
 20
234.4128462686
 10
269.6194084871
 20
234.4430315838
 10
269.6319879612
 20
234.4727089256
 10
269.6469271673
 20
234.5013817122
 10
269.6639761323
 20
234.5285701708
 10
269.6828495811
 20
234.5538193654
 10
269.7032317102
 20
234.5767068089
 10
269.7247814717
 20
234.596849533
 10
269.7471382803
 20
234.6139104956
 10
269.7699280463
 20
234.627604221
  0
LWPOLYLINE
  5
3B2
100
AcDbEntity
  8
0
100
AcDbPolyline
 62
7
  6
CONTINUOUS
 90
5
 70
0
 10
268.7774834201
 20
230.9984811672
 10
268.7791565651
 20
231.0311739622
 10
268.7797232693
 20
231.0484357603
 10
268.7799935084
 20
231.0661611692
 10
268.7800191387
 20
231.0694706557
  0
LWPOLYLINE
  5
3B3
100
AcDbEntity
  8
0
100
AcDbPolyline
 62
250
  6
CONTINUOUS
 90
9
 70
0
 10
268.3349670604
 20
246.013697995
 10
268.3343566653
 20
246.0029669258
 10
268.3300340604
 20
245.9832877472
 10
268.3216096434
 20
245.9639538012
 10
268.3091746663
 20
245.9451760949
 10
268.2928639474
 20
245.9271542031
 10
268.2728543017
 20
245.9100835227
 10
268.2493625426
 20
245.8941531487
 10
268.2226432378
 20
245.8795379127
  0
LINE
  5
3B4
100
AcDbEntity
  8
0
100
AcDbLine
 62
250
  6
CONTINUOUS
 10
268.7530581187
 20
234.2916365394
 11
268.7519423587
 21
234.276130168
  0
LWPOLYLINE
  5
3B5
100
AcDbEntity
  8
0
100
AcDbPolyline
 62
7
  6
CONTINUOUS
 90
4
 70
0
 10
270.9757920071
 20
229.2510986285
 10
270.9937170818
 20
229.3041125823
 10
271.0029828468
 20
229.3312717372
 10
271.0216535547
 20
229.3866119982
  0
LWPOLYLINE
  5
3B6
100
AcDbEntity
  8
0
100
AcDbPolyline
 62
7
  6
CONTINUOUS
 90
5
 70
0
 10
271.0216535547
 20
229.3866119982
 10
271.0312180074
 20
229.4143151023
 10
271.0408464902
 20
229.4418492001
 10
271.0501710357
 20
229.4693917485
 10
271.0588940876
 20
229.4970804398
  0
LWPOLYLINE
  5
3B7
100
AcDbEntity
  8
0
100
AcDbPolyline
 62
7
  6
CONTINUOUS
 90
8
 70
0
 10
271.8108651929
 20
235.6577272845
 10
271.8118097808
 20
235.6603776487
 10
271.814422044
 20
235.6641363383
 10
271.8185819252
 20
235.6686275072
 10
271.8241757453
 20
235.6738686637
 10
271.8310599644
 20
235.6799521028
 10
271.8391431129
 20
235.686557004
 10
271.8483229379
 20
235.6936010435
  0
LWPOLYLINE
  5
3B8
100
AcDbEntity
  8
0
100
AcDbPolyline
 62
250
  6
CONTINUOUS
 90
40
 70
0
 10
272.0666423137
 20
228.9234272451
 10
272.0592072555
 20
228.9150238524
 10
272.0520173389
 20
228.9062241469
 10
272.0450939294
 20
228.8971015799
 10
272.0384677883
 20
228.8877400238
 10
272.0321368031
 20
228.8781939063
 10
272.026068396
 20
228.8684801872
 10
272.0202635162
 20
228.8586460319
 10
272.0147325175
 20
228.8487464025
 10
272.009455934
 20
228.8387948982
 10
272.0044341616
 20
228.8288334992
 10
271.9996663096
 20
228.8188992903
 10
271.9951313992
 20
228.808988119
 10
271.9908330451
 20
228.799146654
 10
271.9867604158
 20
228.7893880437
 10
271.9828753063
 20
228.7796466085
 10
271.979180757
 20
228.7699503877
 10
271.9756694609
 20
228.7603108981
 10
271.9722973139
 20
228.7506257015
 10
271.9690633805
 20
228.7408898782
 10
271.9659742351
 20
228.7311329142
 10
271.9630067319
 20
228.7212961867
 10
271.960163122
 20
228.7113728946
 10
271.9574531734
 20
228.7013897828
 10
271.9548701977
 20
228.691335976
 10
271.952421583
 20
228.6812217089
 10
271.9501132723
 20
228.6710573564
 10
271.9479392671
 20
228.6608318474
 10
271.9459126227
 20
228.6505753924
 10
271.9440352354
 20
228.6402799783
 10
271.9422916814
 20
228.6298773386
 10
271.9407031132
 20
228.6194018526
 10
271.9392747018
 20
228.6088450118
 10
271.937984787
 20
228.5980769236
 10
271.9368639848
 20
228.5871039336
 10
271.9359355091
 20
228.5759586827
 10
271.9351900546
 20
228.5645586093
 10
271.9346562288
 20
228.5528991004
 10
271.9343884787
 20
228.5410506341
 10
271.9344286335
 20
228.5290526198
  0
LINE
  5
3B9
100
AcDbEntity
  8
0
100
AcDbLine
 62
7
  6
CONTINUOUS
 10
271.8483229379
 20
228.3323851114
 11
271.8694438367
 21
228.348267195
  0
LWPOLYLINE
  5
3BA
100
AcDbEntity
  8
0
100
AcDbPolyline
 62
250
  6
CONTINUOUS
 90
19
 70
0
 10
270.1384615837
 20
228.66076871
 10
270.1523196422
 20
228.670375705
 10
270.165483761
 20
228.6809253135
 10
270.1779539401
 20
228.6924175356
 10
270.1898279577
 20
228.7051070357
 10
270.2010080357
 20
228.7187391495
 10
270.2112008392
 20
228.7325498827
 10
270.2202749865
 20
228.7464052507
 10
270.2283618594
 20
228.7604392382
 10
270.2355622684
 20
228.7742898057
 10
270.2418359475
 20
228.7877614964
 10
270.2472231627
 20
228.8010497669
 10
270.2519455219
 20
228.8143789476
 10
270.2560891265
 20
228.8277214439
 10
270.2595678752
 20
228.8411048503
 10
270.262345072
 20
228.8548362807
 10
270.2644084851
 20
228.8690181065
 10
270.2657703463
 20
228.8835479562
 10
270.2664306558
 20
228.89842583
  0
LINE
  5
3BB
100
AcDbEntity
  8
0
100
AcDbLine
 62
7
  6
CONTINUOUS
 10
258.081282753
 20
219.1631720134
 11
258.1256621682
 21
219.1933552167
  0
LWPOLYLINE
  5
3BC
100
AcDbEntity
  8
0
100
AcDbPolyline
 62
7
  6
CONTINUOUS
 90
14
 70
0
 10
270.1007524123
 20
228.5606027965
 10
270.115932845
 20
228.5704658792
 10
270.1444314894
 20
228.5918314441
 10
270.1716318868
 20
228.616077551
 10
270.1972539636
 20
228.6429755276
 10
270.2212543918
 20
228.6725054968
 10
270.243448455
 20
228.7045564432
 10
270.2634071438
 20
228.7386194586
 10
270.2810063982
 20
228.7746268616
 10
270.296017895
 20
228.8124278943
 10
270.3080248785
 20
228.8513318115
 10
270.3168157452
 20
228.891085051
 10
270.3221774776
 20
228.9317560447
 10
270.3237805506
 20
228.9685559003
  0
LINE
  5
3BD
100
AcDbEntity
  8
0
100
AcDbLine
 62
250
  6
CONTINUOUS
 10
268.7762419232
 20
227.8204176955
 11
270.1384615837
 21
228.66076871
  0
LINE
  5
3BE
100
AcDbEntity
  8
0
100
AcDbLine
 62
7
  6
CONTINUOUS
 10
268.7839004466
 20
227.7482389837
 11
270.1008177664
 21
228.5606430604
  0
LWPOLYLINE
  5
3BF
100
AcDbEntity
  8
0
100
AcDbPolyline
 62
250
  6
CONTINUOUS
 90
7
 70
0
 10
270.2664306558
 20
228.89842583
 10
270.2834200953
 20
228.9082771916
 10
270.2977082808
 20
228.9191478644
 10
270.3090534427
 20
228.9308539063
 10
270.3172636098
 20
228.9431972396
 10
270.3221998583
 20
228.9559690035
 10
270.3237805659
 20
228.9685167564
  0
LINE
  5
3C0
100
AcDbEntity
  8
0
100
AcDbLine
 62
7
  6
CONTINUOUS
 10
273.0193003334
 20
230.2282658158
 11
272.9132343162
 21
230.1674311286
  0
LINE
  5
3C1
100
AcDbEntity
  8
0
100
AcDbLine
 62
250
  6
CONTINUOUS
 10
270.3237805659
 20
229.0867167402
 11
271.0588930784
 21
229.4970792298
  0
LINE
  5
3C2
100
AcDbEntity
  8
0
100
AcDbLine
 62
250
  6
CONTINUOUS
 10
270.9757920071
 20
229.2510986285
 11
270.3147487175
 21
228.8825682376
  0
LINE
  5
3C3
100
AcDbEntity
  8
0
100
AcDbLine
 62
250
  6
CONTINUOUS
 10
270.3237805659
 20
229.4873552645
 11
272.5243255865
 21
230.7086126229
  0
LINE
  5
3C4
100
AcDbEntity
  8
0
100
AcDbLine
 62
250
  6
CONTINUOUS
 10
271.2266401282
 20
229.3434283378
 11
272.8070498867
 21
230.2205233434
  0
LINE
  5
3C5
100
AcDbEntity
  8
0
100
AcDbLine
 62
7
  6
CONTINUOUS
 10
272.8153699296
 20
230.216363322
 11
273.0193003334
 21
230.3276949236
  0
LINE
  5
3C6
100
AcDbEntity
  8
0
100
AcDbLine
 62
7
  6
CONTINUOUS
 10
269.7925285889
 20
227.7776325467
 11
268.7800500225
 21
227.2248907371
  0
LINE
  5
3C7
100
AcDbEntity
  8
0
100
AcDbLine
 62
7
  6
CONTINUOUS
 10
269.6605431227
 20
227.6350339579
 11
268.7800500225
 21
227.1543468938
  0
LINE
  5
3C8
100
AcDbEntity
  8
0
100
AcDbLine
 62
250
  6
CONTINUOUS
 10
273.6744306815
 20
229.786832946
 11
272.0666671764
 21
228.9234148137
  0
LINE
  5
3C9
100
AcDbEntity
  8
0
100
AcDbLine
 62
250
  6
CONTINUOUS
 10
273.8863447135
 20
229.4210681867
 11
272.2136128393
 21
228.5227600548
  0
LINE
  5
3CA
100
AcDbEntity
  8
0
100
AcDbLine
 62
7
  6
CONTINUOUS
 10
269.5086973331
 20
227.5365023797
 11
269.7925285889
 21
227.6855012398
  0
LINE
  5
3CB
100
AcDbEntity
  8
0
100
AcDbLine
 62
250
  6
CONTINUOUS
 10
271.0387388095
 20
228.639459051
 11
270.42417278
 21
228.3401604196
  0
LINE
  5
3CC
100
AcDbEntity
  8
0
100
AcDbLine
 62
250
  6
CONTINUOUS
 10
271.091598132
 20
228.2080842638
 11
270.4769271317
 21
227.9092300578
  0
LWPOLYLINE
  5
3CD
100
AcDbEntity
  8
0
100
AcDbPolyline
 62
250
  6
CONTINUOUS
 90
13
 70
0
 10
270.4241727091
 20
228.34016072
 10
270.3995993175
 20
228.3289416232
 10
270.3726783498
 20
228.318213042
 10
270.3438602661
 20
228.3081544944
 10
270.3136272704
 20
228.2989342869
 10
270.2824852421
 20
228.2907066984
 10
270.250955271
 20
228.2836093986
 10
270.2195649382
 20
228.2777611443
 10
270.1888394887
 20
228.2732597927
 10
270.1592930416
 20
228.2701806633
 10
270.1314199886
 20
228.2685752785
 10
270.1056867207
 20
228.2684705005
 10
270.0825238249
 20
228.2698680826
  0
LWPOLYLINE
  5
3CE
100
AcDbEntity
  8
0
100
AcDbPolyline
 62
250
  6
CONTINUOUS
 90
13
 70
0
 10
270.4769271317
 20
227.9092301315
 10
270.452260369
 20
227.8987737471
 10
270.4251004719
 20
227.8899968872
 10
270.3959018985
 20
227.8830464125
 10
270.3651532194
 20
227.8780386229
 10
270.3333689429
 20
227.8750573124
 10
270.3010809052
 20
227.8741523662
 10
270.2688293722
 20
227.8753389265
 10
270.2371539986
 20
227.878597139
 10
270.2065847987
 20
227.8838724851
 10
270.1776332774
 20
227.891076694
 10
270.1507838715
 20
227.9000892198
 10
270.1264858438
 20
227.9107592589
  0
LWPOLYLINE
  5
3CF
100
AcDbEntity
  8
0
100
AcDbPolyline
 62
250
  6
CONTINUOUS
 90
13
 70
0
 10
272.2129551251
 20
228.5359523933
 10
272.1931882023
 20
228.5276490853
 10
272.1714864655
 20
228.5205349131
 10
272.1482077712
 20
228.51472718
 10
272.123735974
 20
228.5103216454
 10
272.0984746042
 20
228.5073909485
 10
272.0728402154
 20
228.5059834089
 10
272.0472555019
 20
228.5061222267
 10
272.0221423313
 20
228.507805105
 10
271.9979147962
 20
228.511004288
 10
271.9749723805
 20
228.5156670151
 10
271.9536933729
 20
228.5217163928
 10
271.9344286317
 20
228.5290526645
  0
LWPOLYLINE
  5
3D0
100
AcDbEntity
  8
0
100
AcDbPolyline
 62
250
  6
CONTINUOUS
 90
13
 70
0
 10
272.2136128393
 20
228.5227600617
 10
272.1938516892
 20
228.5145242066
 10
272.1721396658
 20
228.5076247866
 10
272.1488360048
 20
228.5021759557
 10
272.1243262756
 20
228.4982678667
 10
272.0990160042
 20
228.4959651813
 10
272.0733239635
 20
228.4953059993
 10
272.0476752409
 20
228.4963012269
 10
272.0224942062
 20
228.4989343969
 10
271.9981974931
 20
228.5031619416
 10
271.9751871018
 20
228.5089139136
 10
271.9538437486
 20
228.5160951434
 10
271.9345205679
 20
228.5245868138
  0
LWPOLYLINE
  5
3D1
100
AcDbEntity
  8
0
100
AcDbPolyline
 62
7
  6
CONTINUOUS
 90
4
 70
0
 10
258.7828892798
 20
217.3822682557
 10
258.7215480913
 20
217.3957441748
 10
258.6589281668
 20
217.4166886617
 10
258.5950291047
 20
217.4451015146
  0
LWPOLYLINE
  5
3D2
100
AcDbEntity
  8
0
100
AcDbPolyline
 62
7
  6
CONTINUOUS
 90
3
 70
0
 10
258.4592076152
 20
219.2287601489
 10
258.5261392218
 20
219.2071930639
 10
258.5950291047
 20
219.1771523222
  0
LWPOLYLINE
  5
3D3
100
AcDbEntity
  8
0
100
AcDbPolyline
 62
250
  6
CONTINUOUS
 90
19
 70
0
 10
270.3642601213
 20
203.5858301133
 10
270.3683285971
 20
203.5650609128
 10
270.372166212
 20
203.5443502027
 10
270.375772646
 20
203.5237024807
 10
270.3791471608
 20
203.50312517
 10
270.3822900795
 20
203.4826197281
 10
270.3852024613
 20
203.4621817322
 10
270.3878843166
 20
203.4418123751
 10
270.3903348097
 20
203.4215193643
 10
270.3925535477
 20
203.4013080805
 10
270.3945399957
 20
203.3811863166
 10
270.3962943867
 20
203.361154953
 10
270.3978172718
 20
203.3412090687
 10
270.3991076004
 20
203.3213646237
 10
270.4001659799
 20
203.3016143395
 10
270.4009936869
 20
203.2819191887
 10
270.4015893167
 20
203.2622698477
 10
270.4019504718
 20
203.2426859633
 10
270.402075489
 20
203.2231726786
  0
LWPOLYLINE
  5
3D4
100
AcDbEntity
  8
0
100
AcDbPolyline
 62
7
  6
CONTINUOUS
 90
10
 70
0
 10
270.9788556709
 20
203.8847357652
 10
270.986763008
 20
203.843388327
 10
270.9937521726
 20
203.8022347872
 10
270.9998231646
 20
203.7612751457
 10
271.0049841693
 20
203.720431102
 10
271.0092270014
 20
203.6797809567
 10
271.0125271051
 20
203.6395596119
 10
271.014876295
 20
203.5998453683
 10
271.0162827566
 20
203.5605599253
 10
271.0167464897
 20
203.5217032828
  0
LWPOLYLINE
  5
3D5
100
AcDbEntity
  8
0
100
AcDbPolyline
 62
250
  6
CONTINUOUS
 90
22
 70
0
 10
270.1259297794
 20
233.4400705319
 10
270.1227109672
 20
233.4885802838
 10
270.1168737929
 20
233.5375070305
 10
270.1084182562
 20
233.586850772
 10
270.0972764972
 20
233.636855036
 10
270.0835163759
 20
233.6872762948
 10
270.0673414729
 20
233.7373839654
 10
270.0487045731
 20
233.7871999204
 10
270.0276528916
 20
233.8367022872
 10
270.0045316542
 20
233.885094865
 10
269.9793323454
 20
233.9323225432
 10
269.9520634807
 20
233.9784404325
 10
269.9230958328
 20
234.022817663
 10
269.8924824399
 20
234.0653862896
 10
269.8601702637
 20
234.1062142575
 10
269.8263709628
 20
234.1448745326
 10
269.7910266573
 20
234.181453492
 10
269.7541952269
 20
234.2158647587
 10
269.7162619693
 20
234.2474221679
 10
269.6773553167
 20
234.2758969983
 10
269.6373468369
 20
234.3015179712
 10
269.5962365297
 20
234.3242850868
  0
LWPOLYLINE
  5
3D6
100
AcDbEntity
  8
0
100
AcDbPolyline
 62
250
  6
CONTINUOUS
 90
8
 70
0
 10
269.2995448434
 20
233.7616457857
 10
269.3004422489
 20
233.745231969
 10
269.3031192644
 20
233.7299933655
 10
269.3075305692
 20
233.7161878194
 10
269.3136014958
 20
233.704048923
 10
269.3212292977
 20
233.6937820557
 10
269.3302848935
 20
233.6855609149
 10
269.3385288222
 20
233.6805147152
  0
LWPOLYLINE
  5
3D7
100
AcDbEntity
  8
0
100
AcDbPolyline
 62
250
  6
CONTINUOUS
 90
9
 70
0
 10
270.8695704715
 20
237.7727160101
 10
270.8707693745
 20
237.7481685577
 10
270.8743515904
 20
237.7251466794
 10
270.8802683207
 20
237.7039614047
 10
270.8884405939
 20
237.6848969778
 10
270.8987568791
 20
237.6682127709
 10
270.9110728193
 20
237.6541376755
 10
270.9252188606
 20
237.642860087
 10
270.9347512647
 20
237.6373764694
  0
LINE
  5
3D8
100
AcDbEntity
  8
0
100
AcDbLine
 62
250
  6
CONTINUOUS
 10
269.5806520438
 20
233.3116591616
 11
269.5823767861
 21
233.2738328431
  0
LWPOLYLINE
  5
3D9
100
AcDbEntity
  8
0
100
AcDbPolyline
 62
250
  6
CONTINUOUS
 90
16
 70
0
 10
270.2664306558
 20
231.3942980025
 10
270.2656713091
 20
231.411019813
 10
270.263710545
 20
231.4265710735
 10
270.2605483637
 20
231.4409517837
 10
270.2561545084
 20
231.4542206875
 10
270.2505592358
 20
231.4663190411
 10
270.2438533159
 20
231.4770706138
 10
270.2360407681
 20
231.4865156097
 10
270.2271175731
 20
231.4946138246
 10
270.2171624431
 20
231.5010684151
 10
270.2061074254
 20
231.5058898152
 10
270.1940204726
 20
231.5090675909
 10
270.181184155
 20
231.5102735967
 10
270.1676926627
 20
231.5093984506
 10
270.1534518056
 20
231.5065515346
 10
270.1384615837
 20
231.5017328487
  0
LWPOLYLINE
  5
3DA
100
AcDbEntity
  8
0
100
AcDbPolyline
 62
7
  6
CONTINUOUS
 90
21
 70
0
 10
268.3349660404
 20
246.0137115122
 10
268.3338433973
 20
246.0387945537
 10
268.328811005
 20
246.0722874879
 10
268.3196889876
 20
246.1053612192
 10
268.3064743456
 20
246.1375484735
 10
268.2893075756
 20
246.1682446758
 10
268.2682574328
 20
246.1971546262
 10
268.2433450746
 20
246.2240438403
 10
268.2149720154
 20
246.2483380177
 10
268.1836657838
 20
246.2696046173
 10
268.1492164301
 20
246.288006797
 10
268.1119840631
 20
246.3033001065
 10
268.0732846044
 20
246.3150691344
 10
268.032832727
 20
246.3235728413
 10
267.9906354215
 20
246.3287607269
 10
267.9487004864
 20
246.3304617376
 10
267.9069785881
 20
246.3287938743
 10
267.8653066572
 20
246.3236930411
 10
267.8255359891
 20
246.3153407495
 10
267.7880661603
 20
246.3039509441
 10
267.7537951717
 20
246.2900030847
  0
LWPOLYLINE
  5
3DB
100
AcDbEntity
  8
0
100
AcDbPolyline
 62
7
  6
CONTINUOUS
 90
10
 70
0
 10
271.8108721136
 20
199.1438370121
 10
271.8117266436
 20
199.1217018252
 10
271.8144377107
 20
199.0998786063
 10
271.8185819252
 20
199.0779077415
 10
271.8241238167
 20
199.0559055014
 10
271.831080049
 20
199.0340382068
 10
271.8391431129
 20
199.0124720017
 10
271.8481992399
 20
198.9913307292
 10
271.8583121589
 20
198.9706954024
 10
271.8694438367
 20
198.9506502617
  0
LWPOLYLINE
  5
3DC
100
AcDbEntity
  8
0
100
AcDbPolyline
 62
7
  6
CONTINUOUS
 90
10
 70
0
 10
271.8108721136
 20
205.2060148386
 10
271.8117266436
 20
205.1838796517
 10
271.8144377107
 20
205.1620564328
 10
271.8185819252
 20
205.140085568
 10
271.8241238167
 20
205.1180833279
 10
271.831080049
 20
205.0962160333
 10
271.8391431129
 20
205.0746498282
 10
271.8481992399
 20
205.0535085557
 10
271.8583121589
 20
205.0328732289
 10
271.8694438367
 20
205.0128280881
  0
LWPOLYLINE
  5
3DD
100
AcDbEntity
  8
0
100
AcDbPolyline
 62
7
  6
CONTINUOUS
 90
9
 70
0
 10
270.2190151849
 20
237.4856582989
 10
270.2194605933
 20
237.4713967461
 10
270.2216899353
 20
237.4481917993
 10
270.2260541987
 20
237.423207562
 10
270.2326552593
 20
237.3970354924
 10
270.2411311906
 20
237.3705962358
 10
270.2513526958
 20
237.3443408646
 10
270.2635190748
 20
237.3182371657
 10
270.2776508024
 20
237.2924870696
  0
LWPOLYLINE
  5
3DE
100
AcDbEntity
  8
0
100
AcDbPolyline
 62
250
  6
CONTINUOUS
 90
15
 70
0
 10
269.582886616
 20
238.4160405933
 10
269.5830973598
 20
238.405564733
 10
269.5837543098
 20
238.395016909
 10
269.5848956034
 20
238.3844474623
 10
269.5865630895
 20
238.3738895693
 10
269.5887916126
 20
238.3634269411
 10
269.5915978864
 20
238.3531853673
 10
269.5950060639
 20
238.3432252729
 10
269.5990379116
 20
238.3336107744
 10
269.6036836652
 20
238.3244600086
 10
269.6089497354
 20
238.3158303228
 10
269.6148394268
 20
238.3077799049
 10
269.6213144454
 20
238.3004068033
 10
269.6283621014
 20
238.2937560399
 10
269.6359671418
 20
238.2878705892
  0
LWPOLYLINE
  5
3DF
100
AcDbEntity
  8
0
100
AcDbPolyline
 62
250
  6
CONTINUOUS
 90
17
 70
0
 10
270.8695704794
 20
196.2424282622
 10
270.8697745637
 20
196.2321424058
 10
270.870411131
 20
196.2217911394
 10
270.8715154416
 20
196.2114214408
 10
270.8731264638
 20
196.2010613663
 10
270.8752763221
 20
196.1907916301
 10
270.8779788329
 20
196.180736905
 10
270.8812553488
 20
196.170952165
 10
270.8851248879
 20
196.1614954598
 10
270.8895746012
 20
196.1524818359
 10
270.8946089268
 20
196.1439614313
 10
270.9002291155
 20
196.1359854732
 10
270.906393697
 20
196.1286484516
 10
270.9130855181
 20
196.1219906174
 10
270.9202917649
 20
196.1160431018
 10
270.9279577096
 20
196.1108613018
 10
270.9345117218
 20
196.1072263359
  0
LWPOLYLINE
  5
3E0
100
AcDbEntity
  8
0
100
AcDbPolyline
 62
7
  6
CONTINUOUS
 90
9
 70
0
 10
269.5384509992
 20
232.4332475057
 10
269.5386249551
 20
232.4236270954
 10
269.5400756074
 20
232.4016210198
 10
269.5431037857
 20
232.3788707924
 10
269.5477741369
 20
232.3554689353
 10
269.5539641662
 20
232.3315073111
 10
269.5617023295
 20
232.3071093576
 10
269.5711453497
 20
232.2824293585
 10
269.5823767861
 20
232.2576259313
  0
LWPOLYLINE
  5
3E1
100
AcDbEntity
  8
0
100
AcDbPolyline
 62
250
  6
CONTINUOUS
 90
8
 70
0
 10
270.1384615837
 20
228.66076871
 10
270.1388362912
 20
228.6396683257
 10
270.1367662739
 20
228.6201265692
 10
270.1322868786
 20
228.6024774944
 10
270.1254746346
 20
228.5870228074
 10
270.1164459542
 20
228.5740267204
 10
270.1053551486
 20
228.5637114283
 10
270.1008177664
 20
228.5606430604
  0
LWPOLYLINE
  5
3E2
100
AcDbEntity
  8
0
100
AcDbPolyline
 62
7
  6
CONTINUOUS
 90
9
 70
0
 10
269.465142386
 20
224.4465512859
 10
269.4652994188
 20
224.437437064
 10
269.4667206555
 20
224.415374956
 10
269.4697297967
 20
224.3925616127
 10
269.4743920689
 20
224.369090259
 10
269.4805837865
 20
224.3450538974
 10
269.4883336676
 20
224.3205771713
 10
269.4977999353
 20
224.2958156633
 10
269.5090669265
 20
224.2709294888
  0
LWPOLYLINE
  5
3E3
100
AcDbEntity
  8
0
100
AcDbPolyline
 62
250
  6
CONTINUOUS
 90
28
 70
0
 10
271.1499235097
 20
196.2412049603
 10
271.1499531959
 20
196.2391303888
 10
271.1500846884
 20
196.2370623
 10
271.1503179872
 20
196.2350006938
 10
271.1506484832
 20
196.2329299936
 10
271.1510807855
 20
196.2308657761
 10
271.1516287211
 20
196.2288547713
 10
271.1522962185
 20
196.2268978068
 10
271.1530793492
 20
196.2249940551
 10
271.1539801554
 20
196.2231877632
 10
271.1550029089
 20
196.2214816282
 10
271.1561433378
 20
196.219872953
 10
271.1573906688
 20
196.2183978935
 10
271.1587478208
 20
196.2170611334
 10
271.1602118748
 20
196.2158579889
 10
271.1617633005
 20
196.2148105639
 10
271.163402387
 20
196.2139232792
 10
271.1651288453
 20
196.213191714
 10
271.1669222779
 20
196.2126247097
 10
271.1687826843
 20
196.2122245827
 10
271.170710065
 20
196.2119890167
 10
271.1726840241
 20
196.2119199043
 10
271.1747050577
 20
196.2120189238
 10
271.1767726698
 20
196.212284397
 10
271.1788649758
 20
196.2127131811
 10
271.1809746808
 20
196.2133042287
 10
271.1831090796
 20
196.2140585874
 10
271.1852681724
 20
196.2149762571
  0
LWPOLYLINE
  5
3E4
100
AcDbEntity
  8
0
100
AcDbPolyline
 62
7
  6
CONTINUOUS
 90
12
 70
0
 10
269.5243081542
 20
238.4867250409
 10
269.5243373568
 20
238.4829032849
 10
269.5261459293
 20
238.4564520006
 10
269.5307738749
 20
238.4304922799
 10
269.5381723748
 20
238.4054235324
 10
269.5481750118
 20
238.3816903351
 10
269.5606616827
 20
238.3594493454
 10
269.5755163095
 20
238.3388631512
 10
269.5924740084
 20
238.3202596902
 10
269.6112642002
 20
238.3038535811
 10
269.6317515111
 20
238.2897209934
 10
269.6478345125
 20
238.2808364021
  0
LWPOLYLINE
  5
3E5
100
AcDbEntity
  8
0
100
AcDbPolyline
 62
7
  6
CONTINUOUS
 90
12
 70
0
 10
270.3237804943
 20
231.4643043042
 10
270.3237579628
 20
231.4686680005
 10
270.3213769514
 20
231.5082141104
 10
270.3150384791
 20
231.5467040925
 10
270.3046627716
 20
231.5837680359
 10
270.2902749999
 20
231.6188732767
 10
270.2719308792
 20
231.6516580457
 10
270.2497543642
 20
231.6816719732
 10
270.2242350421
 20
231.7082183603
 10
270.1958983315
 20
231.730883964
 10
270.1652312606
 20
231.7494242938
 10
270.1618130477
 20
231.7511656646
  0
LINE
  5
3E6
100
AcDbEntity
  8
0
100
AcDbLine
 62
7
  6
CONTINUOUS
 10
269.4651329436
 20
227.4820593788
 11
269.4651329436
 21
224.4465495988
  0
LINE
  5
3E7
100
AcDbEntity
  8
0
100
AcDbLine
 62
7
  6
CONTINUOUS
 10
269.4651329436
 20
210.2583663951
 11
269.4651329436
 21
208.0888820188
  0
LINE
  5
3E8
100
AcDbEntity
  8
0
100
AcDbLine
 62
7
  6
CONTINUOUS
 10
269.4651329436
 20
205.8314242842
 11
269.4651329436
 21
203.7178575654
  0
LINE
  5
3E9
100
AcDbEntity
  8
0
100
AcDbLine
 62
250
  6
CONTINUOUS
 10
269.5090669265
 20
227.4283622409
 11
269.5090669265
 21
224.2709294888
  0
LINE
  5
3EA
100
AcDbEntity
  8
0
100
AcDbLine
 62
250
  6
CONTINUOUS
 10
269.5090669265
 20
210.3279204879
 11
269.5090669265
 21
208.0365131396
  0
LINE
  5
3EB
100
AcDbEntity
  8
0
100
AcDbLine
 62
250
  6
CONTINUOUS
 10
269.5090669265
 20
205.7777271463
 11
269.5090669265
 21
203.5422374554
  0
LINE
  5
3EC
100
AcDbEntity
  8
0
100
AcDbLine
 62
7
  6
CONTINUOUS
 10
269.5243079722
 20
238.7174175314
 11
269.5243079722
 21
238.4867512717
  0
LINE
  5
3ED
100
AcDbEntity
  8
0
100
AcDbLine
 62
7
  6
CONTINUOUS
 10
269.5243079722
 20
197.187147132
 11
269.5243082697
 21
196.9563083978
  0
LINE
  5
3EE
100
AcDbEntity
  8
0
100
AcDbLine
 62
7
  6
CONTINUOUS
 10
269.5384428033
 20
233.3268658517
 11
269.5384428033
 21
232.4332460412
  0
LINE
  5
3EF
100
AcDbEntity
  8
0
100
AcDbLine
 62
7
  6
CONTINUOUS
 10
269.5384428033
 20
223.5891875664
 11
269.5384428033
 21
211.0424185677
  0
LINE
  5
3F0
100
AcDbEntity
  8
0
100
AcDbLine
 62
7
  6
CONTINUOUS
 10
269.5384428033
 20
203.0643854967
 11
269.5384428033
 21
202.1707656858
  0
LINE
  5
3F1
100
AcDbEntity
  8
0
100
AcDbLine
 62
250
  6
CONTINUOUS
 10
269.5823767861
 20
233.2738328431
 11
269.5823767861
 21
232.2576259313
  0
LINE
  5
3F2
100
AcDbEntity
  8
0
100
AcDbLine
 62
250
  6
CONTINUOUS
 10
269.5823767861
 20
223.6587416592
 11
269.5823767861
 21
210.8667984578
  0
LINE
  5
3F3
100
AcDbEntity
  8
0
100
AcDbLine
 62
250
  6
CONTINUOUS
 10
269.5823767861
 20
203.1339395895
 11
269.5823767861
 21
202.1177326777
  0
LINE
  5
3F4
100
AcDbEntity
  8
0
100
AcDbLine
 62
250
  6
CONTINUOUS
 10
269.582886616
 20
238.6467068533
 11
269.582886616
 21
238.4160405933
  0
LINE
  5
3F5
100
AcDbEntity
  8
0
100
AcDbLine
 62
250
  6
CONTINUOUS
 10
269.582886616
 20
197.1164364539
 11
269.582886616
 21
196.8857701939
  0
LINE
  5
3F6
100
AcDbEntity
  8
0
100
AcDbLine
 62
7
  6
CONTINUOUS
 10
269.6605431227
 20
205.9655796109
 11
269.6605431227
 21
205.9843988633
  0
LINE
  5
3F7
100
AcDbEntity
  8
0
100
AcDbLine
 62
7
  6
CONTINUOUS
 10
269.6605431227
 20
227.6162147056
 11
269.6605431227
 21
227.6350339579
  0
LINE
  5
3F8
100
AcDbEntity
  8
0
100
AcDbLine
 62
7
  6
CONTINUOUS
 10
269.7925285889
 20
228.3704599861
 11
269.7925285889
 21
227.2866314096
  0
LINE
  5
3F9
100
AcDbEntity
  8
0
100
AcDbLine
 62
7
  6
CONTINUOUS
 10
269.7925285889
 20
207.8947823083
 11
269.7925285889
 21
205.635996315
  0
LINE
  5
3FA
100
AcDbEntity
  8
0
100
AcDbLine
 62
250
  6
CONTINUOUS
 10
269.8163336198
 20
231.9239046412
 11
269.8163336198
 21
233.5948686117
  0
LINE
  5
3FB
100
AcDbEntity
  8
0
100
AcDbLine
 62
250
  6
CONTINUOUS
 10
270.0516342015
 20
203.2247010183
 11
270.0516342014
 21
201.609455269
  0
LINE
  5
3FC
100
AcDbEntity
  8
0
100
AcDbLine
 62
250
  6
CONTINUOUS
 10
270.0979368289
 20
231.7831030367
 11
270.0979368289
 21
233.3718815657
  0
LINE
  5
3FD
100
AcDbEntity
  8
0
100
AcDbLine
 62
250
  6
CONTINUOUS
 10
270.1264858438
 20
227.9107592589
 11
270.1264858438
 21
206.9366972041
  0
LINE
  5
3FE
100
AcDbEntity
  8
0
100
AcDbLine
 62
250
  6
CONTINUOUS
 10
270.1264858438
 20
201.4377161613
 11
270.1264858438
 21
201.5720294478
  0
LINE
  5
3FF
100
AcDbEntity
  8
0
100
AcDbLine
 62
7
  6
CONTINUOUS
 10
270.2190721586
 20
237.99521602
 11
270.2190721586
 21
237.4856722348
  0
LINE
  5
400
100
AcDbEntity
  8
0
100
AcDbLine
 62
7
  6
CONTINUOUS
 10
270.2190721586
 20
198.9076755445
 11
270.2190721586
 21
198.1413429473
  0
LINE
  5
401
100
AcDbEntity
  8
0
100
AcDbLine
 62
250
  6
CONTINUOUS
 10
270.2664306558
 20
228.89842583
 11
270.2664306558
 21
231.3942980025
  0
LINE
  5
402
100
AcDbEntity
  8
0
100
AcDbLine
 62
250
  6
CONTINUOUS
 10
270.2776508024
 20
237.9659266982
 11
270.2776508024
 21
237.2924870696
  0
LINE
  5
403
100
AcDbEntity
  8
0
100
AcDbLine
 62
250
  6
CONTINUOUS
 10
270.2776508024
 20
198.9594393535
 11
270.2776508024
 21
198.1011611419
  0
LINE
  5
404
100
AcDbEntity
  8
0
100
AcDbLine
 62
7
  6
CONTINUOUS
 10
270.3237805659
 20
228.9685167564
 11
270.3237805659
 21
231.4643889289
  0
LINE
  5
405
100
AcDbEntity
  8
0
100
AcDbLine
 62
250
  6
CONTINUOUS
 10
270.4020754893
 20
203.2231726789
 11
270.4020754894
 21
201.6190747328
  0
LINE
  5
406
100
AcDbEntity
  8
0
100
AcDbLine
 62
250
  6
CONTINUOUS
 10
270.4769271317
 20
227.9092300578
 11
270.4769271317
 21
206.9351681507
  0
LINE
  5
407
100
AcDbEntity
  8
0
100
AcDbLine
 62
250
  6
CONTINUOUS
 10
270.4769271317
 20
201.4361870339
 11
270.4769271317
 21
201.5816489117
  0
LINE
  5
408
100
AcDbEntity
  8
0
100
AcDbLine
 62
7
  6
CONTINUOUS
 10
270.4810871188
 20
201.0041389008
 11
270.4810871188
 21
201.0171000392
  0
LINE
  5
409
100
AcDbEntity
  8
0
100
AcDbLine
 62
7
  6
CONTINUOUS
 10
270.4810871188
 20
236.078167754
 11
270.4810871188
 21
236.3214760446
  0
LINE
  5
40A
100
AcDbEntity
  8
0
100
AcDbLine
 62
250
  6
CONTINUOUS
 10
270.6275337282
 20
200.825148441
 11
270.6275337282
 21
201.0847339365
  0
LINE
  5
40B
100
AcDbEntity
  8
0
100
AcDbLine
 62
250
  6
CONTINUOUS
 10
270.6275337282
 20
235.8991772942
 11
270.6275337282
 21
236.2482527399
  0
LINE
  5
40C
100
AcDbEntity
  8
0
100
AcDbLine
 62
7
  6
CONTINUOUS
 10
270.731873444
 20
212.8123918386
 11
270.731873444
 21
213.6179511238
  0
LINE
  5
40D
100
AcDbEntity
  8
0
100
AcDbLine
 62
7
  6
CONTINUOUS
 10
270.731873444
 20
221.4726458765
 11
270.731873444
 21
222.2782051617
  0
LINE
  5
40E
100
AcDbEntity
  8
0
100
AcDbLine
 62
250
  6
CONTINUOUS
 10
270.8695704794
 20
238.0033649216
 11
270.8695704794
 21
237.7727160056
  0
LINE
  5
40F
100
AcDbEntity
  8
0
100
AcDbLine
 62
250
  6
CONTINUOUS
 10
270.8695704794
 20
196.4730771716
 11
270.8695704794
 21
196.2424282622
  0
LINE
  5
410
100
AcDbEntity
  8
0
100
AcDbLine
 62
7
  6
CONTINUOUS
 10
271.0167464897
 20
204.9793507118
 11
271.0167464897
 21
203.5217032828
  0
LINE
  5
411
100
AcDbEntity
  8
0
100
AcDbLine
 62
7
  6
CONTINUOUS
 10
271.091598132
 20
228.7371900474
 11
271.091598132
 21
228.2080842638
  0
LINE
  5
412
100
AcDbEntity
  8
0
100
AcDbLine
 62
7
  6
CONTINUOUS
 10
271.091598132
 20
207.2298948299
 11
271.091598132
 21
205.4017509405
  0
LINE
  5
413
100
AcDbEntity
  8
0
100
AcDbLine
 62
7
  6
CONTINUOUS
 10
271.091598132
 20
201.7200624714
 11
271.091598132
 21
201.917215878
  0
LINE
  5
414
100
AcDbEntity
  8
0
100
AcDbLine
 62
250
  6
CONTINUOUS
 10
271.1499235097
 20
238.0021416196
 11
271.1499235097
 21
237.7714753596
  0
LINE
  5
415
100
AcDbEntity
  8
0
100
AcDbLine
 62
250
  6
CONTINUOUS
 10
271.1499235097
 20
196.4718712203
 11
271.1499235097
 21
196.2412049603
  0
LINE
  5
416
100
AcDbEntity
  8
0
100
AcDbLine
 62
250
  6
CONTINUOUS
 10
271.2868887195
 20
212.5348842009
 11
271.2868887195
 21
213.3404434861
  0
LINE
  5
417
100
AcDbEntity
  8
0
100
AcDbLine
 62
250
  6
CONTINUOUS
 10
271.2868887195
 20
221.1951382388
 11
271.2868887195
 21
222.0006975239
  0
LINE
  5
418
100
AcDbEntity
  8
0
100
AcDbLine
 62
250
  6
CONTINUOUS
 10
271.4990207538
 20
212.5326167215
 11
271.4990207538
 21
213.3427109655
  0
LINE
  5
419
100
AcDbEntity
  8
0
100
AcDbLine
 62
250
  6
CONTINUOUS
 10
271.4990207538
 20
221.1928707593
 11
271.4990207538
 21
222.0029650034
  0
LINE
  5
41A
100
AcDbEntity
  8
0
100
AcDbLine
 62
250
  6
CONTINUOUS
 10
271.5890198553
 20
197.4454766154
 11
271.5890198553
 21
198.3617189489
  0
LINE
  5
41B
100
AcDbEntity
  8
0
100
AcDbLine
 62
250
  6
CONTINUOUS
 10
271.5890198553
 20
236.5788396495
 11
271.5890198553
 21
237.4850734543
  0
LINE
  5
41C
100
AcDbEntity
  8
0
100
AcDbLine
 62
7
  6
CONTINUOUS
 10
271.7465081272
 20
212.6510696228
 11
271.7465081272
 21
213.4717454376
  0
LINE
  5
41D
100
AcDbEntity
  8
0
100
AcDbLine
 62
7
  6
CONTINUOUS
 10
271.7465081272
 20
221.3113236606
 11
271.7465081272
 21
222.1319994755
  0
LINE
  5
41E
100
AcDbEntity
  8
0
100
AcDbLine
 62
7
  6
CONTINUOUS
 10
271.8108651929
 20
235.6577193182
 11
271.8108651929
 21
233.7848515783
  0
LINE
  5
41F
100
AcDbEntity
  8
0
100
AcDbLine
 62
7
  6
CONTINUOUS
 10
271.8108651929
 20
228.296503386
 11
271.8108651929
 21
222.1421278047
  0
LINE
  5
420
100
AcDbEntity
  8
0
100
AcDbLine
 62
7
  6
CONTINUOUS
 10
271.8108651929
 20
221.2791451278
 11
271.8108651929
 21
213.4818737668
  0
LINE
  5
421
100
AcDbEntity
  8
0
100
AcDbLine
 62
7
  6
CONTINUOUS
 10
271.8108651929
 20
212.61889109
 11
271.8108651929
 21
205.2060132534
  0
LINE
  5
422
100
AcDbEntity
  8
0
100
AcDbLine
 62
7
  6
CONTINUOUS
 10
271.8108651929
 20
201.0167031668
 11
271.8108651929
 21
199.1438354269
  0
LINE
  5
423
100
AcDbEntity
  8
0
100
AcDbLine
 62
250
  6
CONTINUOUS
 10
271.8693728857
 20
237.5938574529
 11
271.8693728857
 21
236.8087612474
  0
LINE
  5
424
100
AcDbEntity
  8
0
100
AcDbLine
 62
250
  6
CONTINUOUS
 10
271.8693728857
 20
198.0953800849
 11
271.8693728857
 21
197.3442533135
  0
LINE
  5
425
100
AcDbEntity
  8
0
100
AcDbLine
 62
250
  6
CONTINUOUS
 10
271.8694438367
 20
235.7094831272
 11
271.8694438367
 21
233.591666413
  0
LINE
  5
426
100
AcDbEntity
  8
0
100
AcDbLine
 62
250
  6
CONTINUOUS
 10
271.8694438367
 20
228.348267195
 11
271.8694438367
 21
222.0705316208
  0
LINE
  5
427
100
AcDbEntity
  8
0
100
AcDbLine
 62
250
  6
CONTINUOUS
 10
271.8694438367
 20
221.2498558059
 11
271.8694438367
 21
213.4102775829
  0
LINE
  5
428
100
AcDbEntity
  8
0
100
AcDbLine
 62
250
  6
CONTINUOUS
 10
271.8694438367
 20
212.5896017681
 11
271.8694438367
 21
205.0128280881
  0
LINE
  5
429
100
AcDbEntity
  8
0
100
AcDbLine
 62
250
  6
CONTINUOUS
 10
271.8694438367
 20
201.0684669758
 11
271.8694438367
 21
198.9506502617
  0
LWPOLYLINE
  5
42A
100
AcDbEntity
  8
0
100
AcDbPolyline
 62
250
  6
CONTINUOUS
 90
26
 70
0
 10
271.9344286335
 20
233.3458961913
 10
271.9343847424
 20
233.3364249683
 10
271.934544217
 20
233.327315039
 10
271.9348914776
 20
233.3185701735
 10
271.9354052045
 20
233.3102211321
 10
271.9360739487
 20
233.3022396442
 10
271.9369042935
 20
233.2945441625
 10
271.9378909471
 20
233.2871366867
 10
271.9390226353
 20
233.2800233325
 10
271.9403107551
 20
233.2731383718
 10
271.941755995
 20
233.2664881077
 10
271.943353322
 20
233.260082865
 10
271.9451180492
 20
233.2538741812
 10
271.9470558045
 20
233.2478744898
 10
271.9491671322
 20
233.2421000979
 10
271.9514712143
 20
233.2365212599
 10
271.9539780092
 20
233.2311583319
 10
271.9566926483
 20
233.2260356767
 10
271.959637617
 20
233.2211443263
 10
271.962826121
 20
233.2165145999
 10
271.9662668796
 20
233.2121811859
 10
271.9699848772
 20
233.2081582463
 10
271.9739966222
 20
233.2044867683
 10
271.9783109211
 20
233.2012154317
 10
271.9829472078
 20
233.198385782
 10
271.984315983
 20
233.1976743545
  0
LWPOLYLINE
  5
42B
100
AcDbEntity
  8
0
100
AcDbPolyline
 62
250
  6
CONTINUOUS
 90
22
 70
0
 10
270.1264858438
 20
206.9366972041
 10
270.1263806804
 20
206.9202848273
 10
270.1260758629
 20
206.9040286071
 10
270.1255713914
 20
206.8879285437
 10
270.1248672836
 20
206.871997988
 10
270.1239635218
 20
206.8562235889
 10
270.1228600519
 20
206.8405652936
 10
270.1215562699
 20
206.8250032404
 10
270.1200527799
 20
206.8095572909
 10
270.1183513404
 20
206.7942469767
 10
270.1164523716
 20
206.7790775976
 10
270.1143554534
 20
206.764043854
 10
270.1120610845
 20
206.7491493779
 10
270.1095694293
 20
206.7343938283
 10
270.1068803235
 20
206.7197775463
 10
270.1039937729
 20
206.705305188
 10
270.1009099392
 20
206.6909765406
 10
270.0976286607
 20
206.6767918169
 10
270.094149458
 20
206.6627563114
 10
270.0904721712
 20
206.6488717891
 10
270.0865969602
 20
206.6351364851
 10
270.0825238249
 20
206.6215503993
  0
LWPOLYLINE
  5
42C
100
AcDbEntity
  8
0
100
AcDbPolyline
 62
250
  6
CONTINUOUS
 90
22
 70
0
 10
270.4769271317
 20
206.9351681507
 10
270.4767972175
 20
206.9154752845
 10
270.4764242312
 20
206.8959635065
 10
270.4758102439
 20
206.8766362261
 10
270.4749583834
 20
206.857516663
 10
270.4738702959
 20
206.8385878164
 10
270.4725436847
 20
206.8197939488
 10
270.4709765258
 20
206.8011164113
 10
270.4691704081
 20
206.7825830243
 10
270.46712673
 20
206.7642087829
 10
270.4648469183
 20
206.7460039076
 10
270.4623309892
 20
206.7279661463
 10
270.4595784064
 20
206.7100916727
 10
270.4565896019
 20
206.6923844293
 10
270.4533651256
 20
206.6748487645
 10
270.4499041136
 20
206.657481846
 10
270.4462069081
 20
206.6402879032
 10
270.4422739221
 20
206.6232712428
 10
270.4381039335
 20
206.6064295474
 10
270.4336966005
 20
206.5897650922
 10
270.4290527611
 20
206.5732844941
 10
270.4241727798
 20
206.5569921406
  0
LWPOLYLINE
  5
42D
100
AcDbEntity
  8
0
100
AcDbPolyline
 62
7
  6
CONTINUOUS
 90
10
 70
0
 10
271.091598132
 20
207.2298948299
 10
271.0909521275
 20
207.1845625295
 10
271.0889878294
 20
207.1399666682
 10
271.0857052377
 20
207.0961072459
 10
271.0810890455
 20
207.0528745059
 10
271.0751545597
 20
207.0103782049
 10
271.0679477011
 20
206.9689476133
 10
271.0594837767
 20
206.9286924878
 10
271.0497474795
 20
206.8895030716
 10
271.0387388094
 20
206.8513793647
  0
LWPOLYLINE
  5
42E
100
AcDbEntity
  8
0
100
AcDbPolyline
 62
250
  6
CONTINUOUS
 90
13
 70
0
 10
270.1384615837
 20
231.5017328487
 10
270.1388362699
 20
231.5256538215
 10
270.1367661255
 20
231.5503640101
 10
270.1322865373
 20
231.5754410252
 10
270.1254740766
 20
231.6004562062
 10
270.116445195
 20
231.6249819509
 10
270.1053542335
 20
231.6485990241
 10
270.092390777
 20
231.6709037213
 10
270.0777764201
 20
231.6915147723
 10
270.0617609831
 20
231.7100798597
 10
270.0446182321
 20
231.7262816379
 10
270.0266411985
 20
231.7398431569
 10
270.0081371772
 20
231.7505325999
  0
LWPOLYLINE
  5
42F
100
AcDbEntity
  8
0
100
AcDbPolyline
 62
250
  6
CONTINUOUS
 90
5
 70
0
 10
268.7800500225
 20
197.2046195015
 10
268.7799231273
 20
197.2002595403
 10
268.7759836588
 20
197.1800084829
 10
268.7665991879
 20
197.1602102666
 10
268.7519423587
 20
197.1412291696
  0
LWPOLYLINE
  5
430
100
AcDbEntity
  8
0
100
AcDbPolyline
 62
7
  6
CONTINUOUS
 90
10
 70
0
 10
269.5384430702
 20
202.1707440234
 10
269.5377370298
 20
202.1516576368
 10
269.5355905349
 20
202.1337081169
 10
269.5322866759
 20
202.1184319466
 10
269.5282182715
 20
202.1061182978
 10
269.5239634969
 20
202.0970931748
 10
269.5202813816
 20
202.091506572
 10
269.5182797862
 20
202.0892950796
 10
269.5179470342
 20
202.0889183598
 10
269.5179075926
 20
202.0888474938
  0
LWPOLYLINE
  5
431
100
AcDbEntity
  8
0
100
AcDbPolyline
 62
250
  6
CONTINUOUS
 90
16
 70
0
 10
269.1906224779
 20
203.5715566606
 10
269.1912411264
 20
203.5850064818
 10
269.1929621425
 20
203.5974902471
 10
269.1957855262
 20
203.6090079563
 10
269.1997663651
 20
203.6196716865
 10
269.2048495716
 20
203.6293693606
 10
269.2108698824
 20
203.637764748
 10
269.2178577797
 20
203.6448077219
 10
269.2257827814
 20
203.6505484091
 10
269.2343881775
 20
203.6548009592
 10
269.2437034932
 20
203.6575132991
 10
269.2536992034
 20
203.6587375018
 10
269.2640300227
 20
203.6584439359
 10
269.2745808557
 20
203.656622724
 10
269.2854667978
 20
203.6532837435
 10
269.2966878489
 20
203.6484269942
  0
LWPOLYLINE
  5
432
100
AcDbEntity
  8
0
100
AcDbPolyline
 62
250
  6
CONTINUOUS
 90
3
 70
0
 10
269.5823767861
 20
202.1177326777
 10
269.5806736053
 20
202.0817065075
 10
269.5760523152
 20
202.0483197493
  0
LWPOLYLINE
  5
433
100
AcDbEntity
  8
0
100
AcDbPolyline
 62
250
  6
CONTINUOUS
 90
13
 70
0
 10
271.0256102267
 20
228.9834618233
 10
271.027306442
 20
229.0170994175
 10
271.032367881
 20
229.0518948467
 10
271.0407134767
 20
229.08729164
 10
271.052209641
 20
229.1227237199
 10
271.0666724289
 20
229.157624532
 10
271.0838705044
 20
229.1914360987
 10
271.1035287753
 20
229.223617797
 10
271.1253328465
 20
229.2536551259
 10
271.1489341101
 20
229.2810679752
 10
271.1739551988
 20
229.3054181216
 10
271.1999959969
 20
229.326316263
 10
271.2266401267
 20
229.3434283385
  0
LWPOLYLINE
  5
434
100
AcDbEntity
  8
0
100
AcDbPolyline
 62
250
  6
CONTINUOUS
 90
13
 70
0
 10
269.2995448434
 20
201.9127516777
 10
269.3004422128
 20
201.9300625472
 10
269.3031191365
 20
201.9479778695
 10
269.3075303185
 20
201.9661945002
 10
269.3136011173
 20
201.9844041964
 10
269.3212288092
 20
202.0022988327
 10
269.3302843263
 20
202.0195756146
 10
269.3406144407
 20
202.0359422024
 10
269.3520443567
 20
202.0511216578
 10
269.3643806694
 20
202.0648571298
 10
269.3774146365
 20
202.076916201
 10
269.3909257107
 20
202.0870948205
 10
269.4046852717
 20
202.0952207561
  0
LWPOLYLINE
  5
435
100
AcDbEntity
  8
0
100
AcDbPolyline
 62
250
  6
CONTINUOUS
 90
7
 70
0
 10
272.2129550147
 20
233.3351623774
 10
272.213108097
 20
233.3374466039
 10
272.2132427927
 20
233.3397033219
 10
272.2133598529
 20
233.3419319186
 10
272.2134600185
 20
233.3441318044
 10
272.2135440201
 20
233.3463024121
 10
272.2136125777
 20
233.3484431963
  0
LWPOLYLINE
  5
436
100
AcDbEntity
  8
0
100
AcDbPolyline
 62
250
  6
CONTINUOUS
 90
10
 70
0
 10
267.6876181145
 20
196.4607770302
 10
267.6837514513
 20
196.4156377333
 10
267.6761261103
 20
196.3729604377
 10
267.6648255395
 20
196.3332121816
 10
267.6499734057
 20
196.296827949
 10
267.6317322437
 20
196.2642059105
 10
267.6103016769
 20
196.2357030655
 10
267.5859162309
 20
196.2116313346
 10
267.5588427669
 20
196.1922541461
 10
267.5338108556
 20
196.1795813261
  0
LWPOLYLINE
  5
437
100
AcDbEntity
  8
0
100
AcDbPolyline
 62
7
  6
CONTINUOUS
 90
8
 70
0
 10
271.8108651929
 20
228.2965113524
 10
271.8118097808
 20
228.2991617166
 10
271.814422044
 20
228.3029204061
 10
271.8185819252
 20
228.307411575
 10
271.8241757453
 20
228.3126527316
 10
271.8310599644
 20
228.3187361706
 10
271.8391431129
 20
228.3253410718
 10
271.8483229379
 20
228.3323851114
  0
LWPOLYLINE
  5
438
100
AcDbEntity
  8
RACCORDO
100
AcDbPolyline
 62
250
  6
CONTINUOUS
 90
47
 70
0
 10
286.3933063104
 20
245.1563189646
 10
286.4322390847
 20
245.2083609594
 10
286.481522303
 20
245.2651416368
 10
286.5366559777
 20
245.3207322512
 10
286.597159456
 20
245.3746747735
 10
286.6630318076
 20
245.426927673
 10
286.7342739629
 20
245.4775324804
 10
286.8104080606
 20
245.5261557589
 10
286.8914246896
 20
245.5727835015
 10
286.977333261
 20
245.6174297151
 10
287.0676841467
 20
245.6598029842
 10
287.1627344269
 20
245.6999621822
 10
287.2622270214
 20
245.7378484356
 10
287.3649410618
 20
245.7729937088
 10
287.4712819305
 20
245.8053714287
 10
287.5808442451
 20
245.8350081683
 10
287.6911909895
 20
245.8615156105
 10
287.8022955064
 20
245.8847150039
 10
287.9141844532
 20
245.9047850999
 10
288.0245007853
 20
245.9218738357
 10
288.1328912752
 20
245.9358477316
 10
288.2397091504
 20
245.9468402672
 10
288.3436570496
 20
245.9553998184
 10
288.444492884
 20
245.9615023879
 10
288.5424587423
 20
245.9651719731
 10
288.6369835286
 20
245.9670289419
 10
288.7279052687
 20
245.9670948108
 10
288.8153859369
 20
245.9653480633
 10
288.8993403603
 20
245.9623445179
 10
288.9796444336
 20
245.9581257173
 10
289.0564222622
 20
245.9526501188
 10
289.1299609887
 20
245.9463489132
 10
289.2002275224
 20
245.9392628794
 10
289.2672549539
 20
245.9313512385
 10
289.3314296981
 20
245.9229228443
 10
289.3927374449
 20
245.9140122038
 10
289.4511925043
 20
245.90458481
 10
289.5072242208
 20
245.8948459962
 10
289.5608288044
 20
245.8848244744
 10
289.612010045
 20
245.8744915327
 10
289.6612086573
 20
245.863966368
 10
289.7084278022
 20
245.8532718288
 10
289.7536643188
 20
245.8423850667
 10
289.7973494387
 20
245.831356733
 10
289.8396269058
 20
245.8202037117
 10
289.8803529762
 20
245.8089091189
 10
289.9195276499
 20
245.7974729546
  0
LWPOLYLINE
  5
439
100
AcDbEntity
  8
RACCORDO
100
AcDbPolyline
 62
250
  6
CONTINUOUS
 90
10
 70
0
 10
286.3116524409
 20
245.1899766067
 10
286.313947129
 20
245.1930366174
 10
286.3668097801
 20
245.2537537154
 10
286.4258886506
 20
245.3130129326
 10
286.49098143
 20
245.3706208658
 10
286.5618572618
 20
245.4263943334
 10
286.6383503996
 20
245.480222269
 10
286.7203418034
 20
245.5320234527
 10
286.8075904003
 20
245.581641092
 10
286.8280875618
 20
245.5925774602
  0
LWPOLYLINE
  5
43A
100
AcDbEntity
  8
0
100
AcDbPolyline
 62
7
  6
CONTINUOUS
 90
9
 70
0
 10
269.5823767861
 20
223.6587416592
 10
269.5711555537
 20
223.6464802662
 10
269.5617174507
 20
223.63504109
 10
269.5539800863
 20
223.6244996804
 10
269.5477871995
 20
223.6149708882
 10
269.5431121989
 20
223.6064341312
 10
269.5400799577
 20
223.5987544544
 10
269.5386262017
 20
223.5919488983
 10
269.5384509667
 20
223.589181926
  0
LINE
  5
43B
100
AcDbEntity
  8
0
100
AcDbLine
 62
7
  6
CONTINUOUS
 10
258.1256321657
 20
219.1934119976
 11
258.1565740585
 21
219.2096894907
  0
LWPOLYLINE
  5
43C
100
AcDbEntity
  8
0
100
AcDbPolyline
 62
7
  6
CONTINUOUS
 90
9
 70
0
 10
258.1256621682
 20
219.1933552167
 10
258.1771979234
 20
219.2185482682
 10
258.230377323
 20
219.2353966675
 10
258.2868045391
 20
219.2444186371
 10
258.3462937276
 20
219.2459197988
 10
258.4070417973
 20
219.2399401061
 10
258.4684471179
 20
219.2264925783
 10
258.5311096877
 20
219.2055633836
 10
258.5950291047
 20
219.1771523222
  0
LINE
  5
43D
100
AcDbEntity
  8
0
100
AcDbLine
 62
250
  6
CONTINUOUS
 10
269.4651329436
 20
225.1079773677
 11
268.7800500225
 21
224.7915833719
  0
LINE
  5
43E
100
AcDbEntity
  8
0
100
AcDbLine
 62
7
  6
CONTINUOUS
 10
269.4651329436
 20
224.9816749034
 11
268.7800500225
 21
224.6652809075
  0
LINE
  5
43F
100
AcDbEntity
  8
0
100
AcDbLine
 62
7
  6
CONTINUOUS
 10
258.8435513459
 20
217.3762472547
 11
258.7828892798
 21
217.3822682557
  0
LINE
  5
440
100
AcDbEntity
  8
0
100
AcDbLine
 62
7
  6
CONTINUOUS
 10
258.3942347879
 20
219.2418538275
 11
258.4592076152
 21
219.2287601489
  0
LWPOLYLINE
  5
441
100
AcDbEntity
  8
0
100
AcDbPolyline
 62
250
  6
CONTINUOUS
 90
21
 70
0
 10
270.0865969602
 20
228.2522088616
 10
270.0904721713
 20
228.2345983465
 10
270.094149458
 20
228.2170365374
 10
270.0976286608
 20
228.1995218292
 10
270.1009099392
 20
228.182055827
 10
270.1039937729
 20
228.1646433459
 10
270.1068803235
 20
228.147284437
 10
270.1095694294
 20
228.1299790492
 10
270.1120610845
 20
228.1127318444
 10
270.1143554534
 20
228.0955429995
 10
270.1164523716
 20
228.0784123376
 10
270.1183513405
 20
228.0613439897
 10
270.1200527799
 20
228.0443322361
 10
270.1215562699
 20
228.0273827965
 10
270.122860052
 20
228.0105169613
 10
270.1239635218
 20
227.9937551961
 10
270.1248672836
 20
227.9770770352
 10
270.1255713914
 20
227.9604423718
 10
270.126075863
 20
227.9438378367
 10
270.1263806804
 20
227.9272767991
 10
270.1264858438
 20
227.9107592589
  0
LWPOLYLINE
  5
442
100
AcDbEntity
  8
0
100
AcDbPolyline
 62
250
  6
CONTINUOUS
 90
21
 70
0
 10
270.4290527611
 20
228.3189738572
 10
270.4336966005
 20
228.2978366392
 10
270.4381039335
 20
228.2767535095
 10
270.4422739221
 20
228.2557319064
 10
270.4462069081
 20
228.2347737551
 10
270.4499041137
 20
228.2138755264
 10
270.4533651257
 20
228.1930419401
 10
270.4565896019
 20
228.1722775534
 10
270.4595784064
 20
228.1515786759
 10
270.4623309892
 20
228.1309502109
 10
270.4648469183
 20
228.110396522
 10
270.46712673
 20
228.0899132467
 10
270.4691704081
 20
228.0694981497
 10
270.4709765258
 20
228.0491628885
 10
270.4725436847
 20
228.028923866
 10
270.4738702959
 20
228.0088104872
 10
270.4749583834
 20
227.9888020264
 10
270.475810244
 20
227.9688404477
 10
270.4764242313
 20
227.9489104687
 10
270.4767972175
 20
227.9290384944
 10
270.4769271318
 20
227.9092300578
  0
LWPOLYLINE
  5
443
100
AcDbEntity
  8
0
100
AcDbPolyline
 62
250
  6
CONTINUOUS
 90
4
 70
0
 10
270.0324431979
 20
228.4949930776
 10
270.0481528086
 20
228.4215924661
 10
270.0648463509
 20
228.3465508011
 10
270.0865969602
 20
228.2522088616
  0
LINE
  5
444
100
AcDbEntity
  8
0
100
AcDbLine
 62
250
  6
CONTINUOUS
 10
270.0281765731
 20
228.5158308306
 11
270.0324431979
 21
228.4949930776
  0
LWPOLYLINE
  5
445
100
AcDbEntity
  8
0
100
AcDbPolyline
 62
250
  6
CONTINUOUS
 90
3
 70
0
 10
269.5684698292
 20
233.3880407419
 10
269.5760163915
 20
233.3497284612
 10
269.5806520438
 20
233.3116591616
  0
LWPOLYLINE
  5
446
100
AcDbEntity
  8
0
100
AcDbPolyline
 62
250
  6
CONTINUOUS
 90
7
 70
0
 10
270.3147487175
 20
228.8825682376
 10
270.3291787714
 20
228.79888955
 10
270.345020279
 20
228.7125133273
 10
270.3623557236
 20
228.6234433757
 10
270.3812691243
 20
228.5316868042
 10
270.4018459096
 20
228.4372543016
 10
270.4290527611
 20
228.3189738572
  0
LWPOLYLINE
  5
447
100
AcDbEntity
  8
0
100
AcDbPolyline
 62
250
  6
CONTINUOUS
 90
10
 70
0
 10
268.7443367232
 20
234.4259012354
 10
268.746872579
 20
234.4111122451
 10
268.7490127941
 20
234.3963735299
 10
268.7507629226
 20
234.3816999973
 10
268.7521377288
 20
234.3669531439
 10
268.7531281544
 20
234.3521458008
 10
268.7537278511
 20
234.3372932717
 10
268.753930304
 20
234.3222622085
 10
268.7537142384
 20
234.3070205723
 10
268.7530581187
 20
234.2916365394
  0
LINE
  5
448
100
AcDbEntity
  8
0
100
AcDbLine
 62
250
  6
CONTINUOUS
 10
270.12877654
 20
233.4182605609
 11
270.1259048555
 21
233.4402907201
  0
LWPOLYLINE
  5
449
100
AcDbEntity
  8
0
100
AcDbPolyline
 62
250
  6
CONTINUOUS
 90
19
 70
0
 10
270.4723471599
 20
233.5050347298
 10
270.4636936327
 20
233.5777161074
 10
270.4506060572
 20
233.6515830488
 10
270.4331718182
 20
233.7261639816
 10
270.4115088505
 20
233.800980094
 10
270.3857557171
 20
233.8755556232
 10
270.3560688897
 20
233.9494207163
 10
270.3226183294
 20
234.0221393165
 10
270.2856347105
 20
234.0932063056
 10
270.2454136165
 20
234.1620664865
 10
270.2023828993
 20
234.2280563793
 10
270.1566882988
 20
234.2910169387
 10
270.1081719634
 20
234.3510998756
 10
270.0570422655
 20
234.4078865579
 10
270.0036306067
 20
234.4608506237
 10
269.9479061122
 20
234.5098219242
 10
269.890075069
 20
234.5543457694
 10
269.8306145745
 20
234.5937809194
 10
269.7699280463
 20
234.627604221
  0
LINE
  5
44A
100
AcDbEntity
  8
0
100
AcDbLine
 62
7
  6
CONTINUOUS
 10
271.0985958744
 20
233.6817393146
 11
271.0921722699
 21
233.7443475885
  0
LWPOLYLINE
  5
44B
100
AcDbEntity
  8
0
100
AcDbPolyline
 62
7
  6
CONTINUOUS
 90
7
 70
0
 10
271.0921722132
 20
233.7443475366
 10
271.0917978465
 20
233.748187563
 10
271.0914582469
 20
233.7520609668
 10
271.0911533979
 20
233.755967676
 10
271.0908832834
 20
233.7599076182
 10
271.0906478877
 20
233.7638807208
 10
271.0904471951
 20
233.7678869106
  0
LWPOLYLINE
  5
44C
100
AcDbEntity
  8
0
100
AcDbPolyline
 62
250
  6
CONTINUOUS
 90
40
 70
0
 10
272.2129551263
 20
228.5359523753
 10
272.2120159254
 20
228.5479276139
 10
272.2108179347
 20
228.5597394446
 10
272.2094032687
 20
228.5713505359
 10
272.2078297019
 20
228.5826932706
 10
272.2061220364
 20
228.5937735016
 10
272.2042606605
 20
228.604672829
 10
272.2022687695
 20
228.6153596474
 10
272.2001763687
 20
228.6258292276
 10
272.1979516419
 20
228.6362102352
 10
272.1955985319
 20
228.6465114514
 10
272.1931396906
 20
228.656699535
 10
272.1905546907
 20
228.6668418209
 10
272.187844676
 20
228.6769463781
 10
272.1850242375
 20
228.6869837002
 10
272.1820863252
 20
228.6969645503
 10
272.1790372771
 20
228.7068788644
 10
272.175884855
 20
228.7167167766
 10
272.1726215285
 20
228.7264888054
 10
272.1692581204
 20
228.7361687135
 10
272.165796634
 20
228.7457634096
 10
272.1622117212
 20
228.7553303179
 10
272.1585113208
 20
228.764840311
 10
272.1546947934
 20
228.7742982702
 10
272.1507155915
 20
228.7838043929
 10
272.1465679577
 20
228.7933468424
 10
272.142257027
 20
228.8028977788
 10
272.1377446769
 20
228.8125209852
 10
272.1330224839
 20
228.8222028305
 10
272.1280972193
 20
228.8318969077
 10
272.1229503801
 20
228.8416064009
 10
272.1175844433
 20
228.8512942733
 10
272.1120031372
 20
228.8609186408
 10
272.1061903262
 20
228.8704650105
 10
272.1001602483
 20
228.8798790214
 10
272.0939177534
 20
228.8891136574
 10
272.087434815
 20
228.8981504649
 10
272.0807143129
 20
228.9069350382
 10
272.07379159
 20
228.9153851404
 10
272.0666926497
 20
228.9234284936
  0
LWPOLYLINE
  5
44D
100
AcDbEntity
  8
0
100
AcDbPolyline
 62
250
  6
CONTINUOUS
 90
13
 70
0
 10
271.1852681724
 20
238.0625022668
 10
271.1837524384
 20
238.0855592182
 10
271.1798863943
 20
238.1094521481
 10
271.1737361623
 20
238.1337724011
 10
271.1654069323
 20
238.1581040123
 10
271.1550411633
 20
238.1820308234
 10
271.1428161457
 20
238.2051435996
 10
271.1289409699
 20
238.2270470285
 10
271.1136529515
 20
238.2473664793
 10
271.097213572
 20
238.265754412
 10
271.0799040051
 20
238.2818963242
 10
271.0620203072
 20
238.295516129
 10
271.0438683553
 20
238.3063808761
  0
LWPOLYLINE
  5
44E
100
AcDbEntity
  8
0
100
AcDbPolyline
 62
250
  6
CONTINUOUS
 90
10
 70
0
 10
271.1499235097
 20
237.7714753596
 10
271.1501943845
 20
237.7664696815
 10
271.1509183549
 20
237.7618812378
 10
271.152095421
 20
237.7577100288
 10
271.1537538449
 20
237.7539110464
 10
271.1558653645
 20
237.7505292986
 10
271.1583451929
 20
237.7476998089
 10
271.1611650679
 20
237.7454675852
 10
271.1643532516
 20
237.7437876195
 10
271.1679097441
 20
237.742659912
  0
LWPOLYLINE
  5
44F
100
AcDbEntity
  8
0
100
AcDbPolyline
 62
7
  6
CONTINUOUS
 90
11
 70
0
 10
273.4215328307
 20
197.6305377494
 10
273.420067359
 20
197.6576898194
 10
273.4158353395
 20
197.6834623714
 10
273.4088582271
 20
197.7084885093
 10
273.3992442631
 20
197.7323365709
 10
273.3870693399
 20
197.7548380798
 10
273.3724998566
 20
197.7757111921
 10
273.3558092778
 20
197.7946195047
 10
273.3372571038
 20
197.8113462602
 10
273.317067912
 20
197.8257511163
 10
273.2980079043
 20
197.8364788117
  0
LWPOLYLINE
  5
450
100
AcDbEntity
  8
0
100
AcDbPolyline
 62
250
  6
CONTINUOUS
 90
19
 70
0
 10
272.2136164866
 20
236.2022312724
 10
272.2115773531
 20
236.2411201935
 10
272.2068399317
 20
236.2806788354
 10
272.1995326951
 20
236.320573462
 10
272.1898493147
 20
236.3603205031
 10
272.1779156847
 20
236.3997790047
 10
272.1636931882
 20
236.4391542768
 10
272.1471984901
 20
236.4783441301
 10
272.1286090953
 20
236.5168778751
 10
272.1080752521
 20
236.5544136496
 10
272.0857520562
 20
236.5906700031
 10
272.061803896
 20
236.6253905637
 10
272.0364254167
 20
236.6582919424
 10
272.0098482289
 20
236.6890900412
 10
271.9822305045
 20
236.7176206342
 10
271.9536614674
 20
236.7437802395
 10
271.9243043504
 20
236.7673826681
 10
271.8944065347
 20
236.7881913056
 10
271.8641852208
 20
236.8060233321
  0
LWPOLYLINE
  5
451
100
AcDbEntity
  8
0
100
AcDbPolyline
 62
250
  6
CONTINUOUS
 90
10
 70
0
 10
273.3654047095
 20
197.561097928
 10
273.3651453822
 20
197.5660936258
 10
273.3644480851
 20
197.5706658238
 10
273.3633128182
 20
197.5748145221
 10
273.3617124793
 20
197.5785844765
 10
273.3596741707
 20
197.5819309311
 10
273.3572791983
 20
197.5847196186
 10
273.3545546642
 20
197.5869057832
 10
273.3514734664
 20
197.5885341806
 10
273.3480356049
 20
197.5896048108
  0
LWPOLYLINE
  5
452
100
AcDbEntity
  8
0
100
AcDbPolyline
 62
7
  6
CONTINUOUS
 90
16
 70
0
 10
273.1607216896
 20
236.711044079
 10
273.1588078101
 20
236.756918554
 10
273.1529936598
 20
236.8043550872
 10
273.1433148873
 20
236.8528640706
 10
273.1297823889
 20
236.9021081675
 10
273.1125582481
 20
236.9513775738
 10
273.0920779594
 20
236.99960821
 10
273.0688592311
 20
237.0459026129
 10
273.0430488727
 20
237.0902033487
 10
273.0145608498
 20
237.1326876924
 10
272.9833737401
 20
237.1731906099
 10
272.9500412283
 20
237.2108170389
 10
272.9153434948
 20
237.244699478
 10
272.8798322532
 20
237.2744022526
 10
272.8437638749
 20
237.2997926325
 10
272.8075316362
 20
237.3206520112
  0
LWPOLYLINE
  5
453
100
AcDbEntity
  8
0
100
AcDbPolyline
 62
250
  6
CONTINUOUS
 90
13
 70
0
 10
273.3312727656
 20
239.1396654657
 10
273.3303588084
 20
239.1630233336
 10
273.3269998158
 20
239.1871698162
 10
273.3212532388
 20
239.2116919204
 10
273.3132173647
 20
239.2361702287
 10
273.3030296364
 20
239.2601860726
 10
273.2908643013
 20
239.2833286934
 10
273.276929431
 20
239.305202268
 10
273.2614633627
 20
239.3254326782
 10
273.2447306226
 20
239.3436739102
 10
273.2270174016
 20
239.3596139723
 10
273.2086266607
 20
239.3729802312
 10
273.1898729485
 20
239.3835440751
  0
LWPOLYLINE
  5
454
100
AcDbEntity
  8
0
100
AcDbPolyline
 62
7
  6
CONTINUOUS
 90
10
 70
0
 10
271.8108721136
 20
233.7848531635
 10
271.8117266436
 20
233.7627179766
 10
271.8144377107
 20
233.7408947577
 10
271.8185819252
 20
233.7189238929
 10
271.8241238167
 20
233.6969216528
 10
271.831080049
 20
233.6750543582
 10
271.8391431129
 20
233.6534881531
 10
271.8481992399
 20
233.6323468806
 10
271.8583121589
 20
233.6117115538
 10
271.8694438367
 20
233.591666413
  0
LWPOLYLINE
  5
455
100
AcDbEntity
  8
0
100
AcDbPolyline
 62
250
  6
CONTINUOUS
 90
28
 70
0
 10
271.9345205679
 20
236.2042444435
 10
271.933674932
 20
236.2266575143
 10
271.9314909536
 20
236.2491302942
 10
271.9279686329
 20
236.2716627832
 10
271.9230705913
 20
236.2943331659
 10
271.9168342072
 20
236.3170632577
 10
271.9093716161
 20
236.3396185046
 10
271.9006557663
 20
236.3620704006
 10
271.8907137094
 20
236.3843474518
 10
271.8797387353
 20
236.4060006216
 10
271.8677052064
 20
236.4270186812
 10
271.8546387602
 20
236.4474128595
 10
271.8408095999
 20
236.4667678075
 10
271.8262200485
 20
236.4850455346
 10
271.8108677829
 20
236.5022840314
 10
271.795016037
 20
236.5181819202
 10
271.7786981243
 20
236.5327141399
 10
271.7618807313
 20
236.5459057517
 10
271.7447271519
 20
236.5575305607
 10
271.727192079
 20
236.5676311537
 10
271.7093208195
 20
236.576164944
 10
271.6914125882
 20
236.5827779767
 10
271.6733732476
 20
236.5874475522
 10
271.655296935
 20
236.59019637
 10
271.6377652769
 20
236.5907385743
 10
271.6209721486
 20
236.5889788796
 10
271.6047236748
 20
236.5850125714
 10
271.5890198553
 20
236.5788396495
  0
LWPOLYLINE
  5
456
100
AcDbEntity
  8
0
100
AcDbPolyline
 62
250
  6
CONTINUOUS
 90
7
 70
0
 10
272.2136125394
 20
228.5227598937
 10
272.2135407168
 20
228.5249397474
 10
272.2134537878
 20
228.5271273656
 10
272.2133517576
 20
228.5293225932
 10
272.2132346322
 20
228.531525275
 10
272.213102419
 20
228.5337352546
 10
272.2129551263
 20
228.5359523753
  0
LWPOLYLINE
  5
457
100
AcDbEntity
  8
0
100
AcDbPolyline
 62
7
  6
CONTINUOUS
 90
11
 70
0
 10
273.4215364273
 20
239.183650179
 10
273.4211089227
 20
239.198197017
 10
273.4175716386
 20
239.2277884567
 10
273.4104586801
 20
239.2565431636
 10
273.3998659687
 20
239.2839517202
 10
273.3860962811
 20
239.3093692469
 10
273.3693815986
 20
239.3325538038
 10
273.3498752315
 20
239.3533475954
 10
273.3279876254
 20
239.3713354262
 10
273.3041599621
 20
239.3862349458
 10
273.2983199154
 20
239.3892702894
  0
LINE
  5
458
100
AcDbEntity
  8
0
100
AcDbLine
 62
250
  6
CONTINUOUS
 10
271.9344286333
 20
228.52905262
 11
271.934520377
 21
228.5245869092
  0
LWPOLYLINE
  5
459
100
AcDbEntity
  8
0
100
AcDbPolyline
 62
250
  6
CONTINUOUS
 90
28
 70
0
 10
273.3654047095
 20
239.1140431219
 10
273.3653760419
 20
239.116117184
 10
273.3652490611
 20
239.118183017
 10
273.3650237671
 20
239.1202406208
 10
273.3647046108
 20
239.1223056511
 10
273.3642871413
 20
239.1243624523
 10
273.363758006
 20
239.1263640569
 10
273.3631134113
 20
239.12830957
 10
273.3623571508
 20
239.1301998867
 10
273.3614872524
 20
239.1319907247
 10
273.3604995908
 20
239.1336793137
 10
273.3593982913
 20
239.1352684241
 10
273.3581937578
 20
239.136722085
 10
273.3568831714
 20
239.1380355623
 10
273.3554693509
 20
239.13921359
 10
273.3539711565
 20
239.1402343994
 10
273.352388309
 20
239.1410935645
 10
273.3507210877
 20
239.1417955113
 10
273.3489891899
 20
239.1423317481
 10
273.3471926164
 20
239.1426999587
 10
273.3453313665
 20
239.1429024593
 10
273.3434251363
 20
239.1429377073
 10
273.3414734468
 20
239.1428040156
 10
273.339476777
 20
239.1425030714
 10
273.3374562606
 20
239.1420383925
 10
273.3354189422
 20
239.1414111515
 10
273.3333577772
 20
239.140620176
 10
273.3312727656
 20
239.1396654657
  0
LINE
  5
45A
100
AcDbEntity
  8
0
100
AcDbLine
 62
250
  6
CONTINUOUS
 10
271.9345205679
 20
198.3908122141
 11
271.9345205679
 21
201.4957546601
  0
LINE
  5
45B
100
AcDbEntity
  8
0
100
AcDbLine
 62
250
  6
CONTINUOUS
 10
271.9345205679
 20
204.5204636727
 11
271.934520377
 21
228.5245869092
  0
LINE
  5
45C
100
AcDbEntity
  8
0
100
AcDbLine
 62
250
  6
CONTINUOUS
 10
271.9345205679
 20
233.3458502242
 11
271.9345205679
 21
236.2042444435
  0
LINE
  5
45D
100
AcDbEntity
  8
0
100
AcDbLine
 62
250
  6
CONTINUOUS
 10
272.2136128393
 20
198.3889854551
 11
272.2136128393
 21
201.5027675789
  0
LINE
  5
45E
100
AcDbEntity
  8
0
100
AcDbLine
 62
250
  6
CONTINUOUS
 10
272.2136128393
 20
204.5097972359
 11
272.2136128393
 21
228.5227600548
  0
LINE
  5
45F
100
AcDbEntity
  8
0
100
AcDbLine
 62
250
  6
CONTINUOUS
 10
272.2136128393
 20
233.3484433041
 11
272.2136128393
 21
236.2022292784
  0
LINE
  5
460
100
AcDbEntity
  8
0
100
AcDbLine
 62
7
  6
CONTINUOUS
 10
272.5243255865
 20
230.7086126229
 11
272.5243255865
 21
233.3458530342
  0
LINE
  5
461
100
AcDbEntity
  8
0
100
AcDbLine
 62
250
  6
CONTINUOUS
 10
272.6607671992
 20
197.7826268898
 11
272.6607671992
 21
198.355544514
  0
LINE
  5
462
100
AcDbEntity
  8
0
100
AcDbLine
 62
250
  6
CONTINUOUS
 10
272.6607671992
 20
237.2409076342
 11
272.6607671992
 21
237.9197244816
  0
LINE
  5
463
100
AcDbEntity
  8
0
100
AcDbLine
 62
7
  6
CONTINUOUS
 10
272.7218355251
 20
197.8746006494
 11
272.7218355251
 21
198.3807006343
  0
LINE
  5
464
100
AcDbEntity
  8
0
100
AcDbLine
 62
7
  6
CONTINUOUS
 10
272.7218355251
 20
237.3194200327
 11
272.7218355251
 21
237.9659929367
  0
LINE
  5
465
100
AcDbEntity
  8
0
100
AcDbLine
 62
7
  6
CONTINUOUS
 10
272.807168299
 20
238.8797057866
 11
272.807168299
 21
238.1449214641
  0
LINE
  5
466
100
AcDbEntity
  8
0
100
AcDbLine
 62
7
  6
CONTINUOUS
 10
272.807168299
 20
197.698807806
 11
272.807168299
 21
196.9640234835
  0
LINE
  5
467
100
AcDbEntity
  8
0
100
AcDbLine
 62
7
  6
CONTINUOUS
 10
272.8153699296
 20
233.4657440971
 11
272.8153699296
 21
230.216363322
  0
LINE
  5
468
100
AcDbEntity
  8
0
100
AcDbLine
 62
7
  6
CONTINUOUS
 10
273.0193003334
 20
231.5132864558
 11
273.0193003334
 21
230.11439812
  0
LINE
  5
469
100
AcDbEntity
  8
0
100
AcDbLine
 62
7
  6
CONTINUOUS
 10
273.0193003334
 20
202.9344481309
 11
273.0193003334
 21
202.8345979008
  0
LINE
  5
46A
100
AcDbEntity
  8
0
100
AcDbLine
 62
7
  6
CONTINUOUS
 10
273.1607216896
 20
236.711044079
 11
273.1607216896
 21
236.3646341211
  0
LINE
  5
46B
100
AcDbEntity
  8
0
100
AcDbLine
 62
7
  6
CONTINUOUS
 10
273.1607216896
 20
198.7791318005
 11
273.1607216896
 21
199.1255417584
  0
LINE
  5
46C
100
AcDbEntity
  8
0
100
AcDbLine
 62
7
  6
CONTINUOUS
 10
273.1767670628
 20
238.2821518996
 11
273.1767670628
 21
238.5315708063
  0
LINE
  5
46D
100
AcDbEntity
  8
0
100
AcDbLine
 62
7
  6
CONTINUOUS
 10
273.3021430458
 20
204.9581998474
 11
273.3021430458
 21
202.7930267747
  0
LINE
  5
46E
100
AcDbEntity
  8
0
100
AcDbLine
 62
7
  6
CONTINUOUS
 10
273.3021430458
 20
231.3718650996
 11
273.3021430458
 21
233.6662624982
  0
LINE
  5
46F
100
AcDbEntity
  8
0
100
AcDbLine
 62
250
  6
CONTINUOUS
 10
273.3654047095
 20
197.3077568735
 11
273.3654047095
 21
197.561097928
  0
LINE
  5
470
100
AcDbEntity
  8
0
100
AcDbLine
 62
250
  6
CONTINUOUS
 10
273.3654047095
 20
238.8607020674
 11
273.3654047095
 21
239.1140431219
  0
LINE
  5
471
100
AcDbEntity
  8
0
100
AcDbLine
 62
7
  6
CONTINUOUS
 10
273.4215367495
 20
197.3772227106
 11
273.4215367495
 21
197.6305637204
  0
LINE
  5
472
100
AcDbEntity
  8
0
100
AcDbLine
 62
7
  6
CONTINUOUS
 10
273.4215367495
 20
238.9301679044
 11
273.42153655
 21
239.1836501791
  0
LINE
  5
473
100
AcDbEntity
  8
0
100
AcDbLine
 62
250
  6
CONTINUOUS
 10
273.7194294306
 20
242.1398800412
 11
273.7194294306
 21
243.1358422306
  0
LINE
  5
474
100
AcDbEntity
  8
0
100
AcDbLine
 62
7
  6
CONTINUOUS
 10
273.8270619207
 20
242.2690818909
 11
273.8270618927
 21
243.2677237619
  0
LINE
  5
475
100
AcDbEntity
  8
0
100
AcDbLine
 62
7
  6
CONTINUOUS
 10
273.855485876
 20
199.1539068645
 11
273.855485876
 21
199.9339313718
  0
LINE
  5
476
100
AcDbEntity
  8
0
100
AcDbLine
 62
7
  6
CONTINUOUS
 10
273.855485876
 20
236.2243588091
 11
273.855485876
 21
237.0557183909
  0
LINE
  5
477
100
AcDbEntity
  8
0
100
AcDbLine
 62
7
  6
CONTINUOUS
 10
273.8863447135
 20
199.9698370276
 11
273.8863447135
 21
202.4010757108
  0
LINE
  5
478
100
AcDbEntity
  8
0
100
AcDbLine
 62
7
  6
CONTINUOUS
 10
273.8863447135
 20
205.1988523823
 11
273.8863447135
 21
229.4210681867
  0
LINE
  5
479
100
AcDbEntity
  8
0
100
AcDbLine
 62
7
  6
CONTINUOUS
 10
273.8863447135
 20
234.0374984505
 11
273.8863447135
 21
236.2089293903
  0
LINE
  5
47A
100
AcDbEntity
  8
RACCORDO
100
AcDbLine
 62
7
  6
CONTINUOUS
 10
273.9385391489
 20
233.8869595862
 11
273.9385391489
 21
202.2396123963
  0
LWPOLYLINE
  5
47B
100
AcDbEntity
  8
0
100
AcDbPolyline
 62
250
  6
CONTINUOUS
 90
8
 70
0
 10
273.3312727656
 20
197.246789867
 10
273.3303588108
 20
197.22494776
 10
273.3269998252
 20
197.204667345
 10
273.3212532581
 20
197.1862954916
 10
273.3132173955
 20
197.1701464266
 10
273.3030296786
 20
197.1564963585
 10
273.2908643523
 20
197.1455787542
 10
273.2823695694
 20
197.1402395298
  0
LWPOLYLINE
  5
47C
100
AcDbEntity
  8
0
100
AcDbPolyline
 62
7
  6
CONTINUOUS
 90
10
 70
0
 10
273.1607216896
 20
198.7790656469
 10
273.1587627796
 20
198.7350704044
 10
273.1529508592
 20
198.6932739599
 10
273.1432938245
 20
198.6541601354
 10
273.1297611025
 20
198.6180508592
 10
273.1125043542
 20
198.5855561278
 10
273.0919933646
 20
198.5574211918
 10
273.0687505552
 20
198.5340551885
 10
273.0429162031
 20
198.5153506997
 10
273.0348635962
 20
198.5107474656
  0
LWPOLYLINE
  5
47D
100
AcDbEntity
  8
0
100
AcDbPolyline
 62
7
  6
CONTINUOUS
 90
8
 70
0
 10
272.807168299
 20
196.9640234835
 10
272.8059532371
 20
196.942020187
 10
272.8023469001
 20
196.9216067659
 10
272.7964065427
 20
196.9031301858
 10
272.7882287114
 20
196.8869039003
 10
272.7779521956
 20
196.8732052832
 10
272.7657558636
 20
196.8622706682
 10
272.7572730823
 20
196.8569379284
  0
LWPOLYLINE
  5
47E
100
AcDbEntity
  8
0
100
AcDbPolyline
 62
250
  6
CONTINUOUS
 90
8
 70
0
 10
271.1852681724
 20
196.2149762571
 10
271.1837524353
 20
196.1928332362
 10
271.1798863839
 20
196.1722992757
 10
271.1737361417
 20
196.1537255811
 10
271.1654069004
 20
196.1374298305
 10
271.1550411204
 20
196.1236907408
 10
271.1428160944
 20
196.1127433004
 10
271.1301922403
 20
196.1053387236
  0
LINE
  5
47F
100
AcDbEntity
  8
DRAFT
100
AcDbLine
 62
7
  6
CONTINUOUS
 10
296.0424070456
 20
238.6162676219
 11
297.1131301395
 21
239.3088022791
  0
LWPOLYLINE
  5
480
100
AcDbEntity
  8
0
100
AcDbPolyline
 62
7
  6
CONTINUOUS
 90
3
 70
0
 10
259.0838135594
 20
217.4410883557
 10
259.0329343297
 20
217.412289364
 10
259.0193781568
 20
217.4062500608
  0
LINE
  5
481
100
AcDbEntity
  8
0
100
AcDbLine
 62
250
  6
CONTINUOUS
 10
268.7800500225
 20
221.3631988723
 11
269.5384428033
 21
221.7453193491
  0
LINE
  5
482
100
AcDbEntity
  8
0
100
AcDbLine
 62
7
  6
CONTINUOUS
 10
271.8108651929
 20
222.8218612355
 11
270.731873444
 21
222.2782051617
  0
LINE
  5
483
100
AcDbEntity
  8
0
100
AcDbLine
 62
7
  6
CONTINUOUS
 10
268.7800500225
 20
221.2401730252
 11
269.5384428033
 21
221.6222935021
  0
LINE
  5
484
100
AcDbEntity
  8
0
100
AcDbLine
 62
250
  6
CONTINUOUS
 10
269.4241130978
 20
223.6351417015
 11
268.7800500225
 21
223.3128042865
  0
LINE
  5
485
100
AcDbEntity
  8
0
100
AcDbLine
 62
250
  6
CONTINUOUS
 10
269.5384428033
 20
223.2611870275
 11
268.7800500225
 21
222.8816304625
  0
LINE
  5
486
100
AcDbEntity
  8
0
100
AcDbLine
 62
7
  6
CONTINUOUS
 10
258.1565740585
 20
219.2096894907
 11
258.2110787599
 21
219.2302992922
  0
LINE
  5
487
100
AcDbEntity
  8
0
100
AcDbLine
 62
7
  6
CONTINUOUS
 10
258.9029363069
 20
217.3776956406
 11
258.8435513459
 21
217.3762472547
  0
LINE
  5
488
100
AcDbEntity
  8
0
100
AcDbLine
 62
7
  6
CONTINUOUS
 10
258.330713381
 20
219.2464039786
 11
258.3942347879
 21
219.2418538275
  0
LINE
  5
489
100
AcDbEntity
  8
0
100
AcDbLine
 62
7
  6
CONTINUOUS
 10
276.6940143096
 20
218.7647521807
 11
275.6919191671
 21
218.9354547625
  0
LINE
  5
48A
100
AcDbEntity
  8
0
100
AcDbLine
 62
7
  6
CONTINUOUS
 10
270.731873444
 20
221.4726458765
 11
271.2868887195
 21
221.1951382388
  0
LINE
  5
48B
100
AcDbEntity
  8
0
100
AcDbLine
 62
7
  6
CONTINUOUS
 10
276.1203281132
 20
218.8624771478
 11
276.4346137499
 21
218.7053343295
  0
LINE
  5
48C
100
AcDbEntity
  8
0
100
AcDbLine
 62
7
  6
CONTINUOUS
 10
276.5548342393
 20
218.7295906099
 11
276.5239801023
 21
218.7450176784
  0
LINE
  5
48D
100
AcDbEntity
  8
0
100
AcDbLine
 62
7
  6
CONTINUOUS
 10
271.8694438367
 20
221.2498558059
 11
271.7465081272
 21
221.3113236606
  0
LINE
  5
48E
100
AcDbEntity
  8
0
100
AcDbLine
 62
7
  6
CONTINUOUS
 10
271.2868887195
 20
222.0006975239
 11
270.731873444
 21
222.2782051617
  0
LINE
  5
48F
100
AcDbEntity
  8
0
100
AcDbLine
 62
7
  6
CONTINUOUS
 10
271.8694438367
 20
222.0705316208
 11
271.7465081272
 21
222.1319994755
  0
LINE
  5
490
100
AcDbEntity
  8
0
100
AcDbLine
 62
7
  6
CONTINUOUS
 10
276.7399537841
 20
217.9731116564
 11
275.7461245615
 21
218.8074686462
  0
LWPOLYLINE
  5
491
100
AcDbEntity
  8
0
100
AcDbPolyline
 62
250
  6
CONTINUOUS
 90
28
 70
0
 10
256.913332638
 20
243.9166820299
 10
256.8978750848
 20
243.9381525051
 10
256.8820382614
 20
243.9579404765
 10
256.8658221678
 20
243.9760459443
 10
256.8491263529
 20
243.9924858341
 10
256.8320512677
 20
244.0072432203
 10
256.814898266
 20
244.0202673251
 10
256.7976976229
 20
244.0315521525
 10
256.7804190632
 20
244.0411036985
 10
256.763273115
 20
244.0488891742
 10
256.7462314659
 20
244.0549210237
 10
256.7293224283
 20
244.0591868029
 10
256.7128414661
 20
244.0616163898
 10
256.6967793512
 20
244.0621787392
 10
256.6811453118
 20
244.0609048964
 10
256.666262497
 20
244.0578178751
 10
256.6521519453
 20
244.0528785689
 10
256.6387926182
 20
244.0461260843
 10
256.6264445496
 20
244.0377007541
 10
256.6151473559
 20
244.0276385522
 10
256.6048614207
 20
244.0159035048
 10
256.5957279293
 20
244.002528023
 10
256.5877042672
 20
243.9875340987
 10
256.5808330489
 20
243.9708997401
 10
256.5753833027
 20
243.9525913838
 10
256.5714447048
 20
243.9325978419
 10
256.568927579
 20
243.9109303022
 10
256.5678319254
 20
243.8875887648
  0
LWPOLYLINE
  5
492
100
AcDbEntity
  8
0
100
AcDbPolyline
 62
7
  6
CONTINUOUS
 90
10
 70
0
 10
271.0387388095
 20
228.639459051
 10
271.0497474795
 20
228.5903266743
 10
271.0594837767
 20
228.541400961
 10
271.0679477011
 20
228.4926819112
 10
271.0751545596
 20
228.444044461
 10
271.0810890454
 20
228.3956136743
 10
271.0857052376
 20
228.3477647421
 10
271.0889878293
 20
228.3006227281
 10
271.0909521274
 20
228.2540625687
 10
271.091598132
 20
228.2080842638
  0
LWPOLYLINE
  5
493
100
AcDbEntity
  8
0
100
AcDbPolyline
 62
7
  6
CONTINUOUS
 90
13
 70
0
 10
271.058290189
 20
233.9972432369
 10
271.0529486003
 20
234.0244849964
 10
271.0501121576
 20
234.052374544
 10
271.0496533759
 20
234.0804577555
 10
271.0512008443
 20
234.1083716256
 10
271.0547583067
 20
234.1356226751
 10
271.0607281527
 20
234.1615874699
 10
271.0689324588
 20
234.1859219016
 10
271.0790645866
 20
234.2082643046
 10
271.0913095152
 20
234.2280219871
 10
271.1055314702
 20
234.2448604929
 10
271.121290602
 20
234.2586898869
 10
271.1383046014
 20
234.2693679447
  0
LWPOLYLINE
  5
494
100
AcDbEntity
  8
0
100
AcDbPolyline
 62
7
  6
CONTINUOUS
 90
7
 70
0
 10
270.9573426433
 20
229.0233969983
 10
270.9695694387
 20
228.9596012246
 10
270.9823319271
 20
228.8957278973
 10
270.9956301083
 20
228.8317770162
 10
271.0094639825
 20
228.7677485815
 10
271.0238335495
 20
228.7036425931
 10
271.0387388095
 20
228.639459051
  0
LWPOLYLINE
  5
495
100
AcDbEntity
  8
0
100
AcDbPolyline
 62
7
  6
CONTINUOUS
 90
10
 70
0
 10
270.9573427594
 20
229.0233969202
 10
270.9535642939
 20
229.0477100246
 10
270.9512556264
 20
229.0724137694
 10
270.9504145066
 20
229.0975078155
 10
270.9510461456
 20
229.1231833878
 10
270.9531419516
 20
229.149248431
 10
270.9566741639
 20
229.1751288337
 10
270.9616269268
 20
229.2006343306
 10
270.9680016572
 20
229.2259572705
 10
270.9757920071
 20
229.2510986285
  0
LINE
  5
496
100
AcDbEntity
  8
0
100
AcDbLine
 62
7
  6
CONTINUOUS
 10
276.5160838078
 20
220.5884415665
 11
276.6940143096
 21
218.7647521807
  0
LWPOLYLINE
  5
497
100
AcDbEntity
  8
0
100
AcDbPolyline
 62
7
  6
CONTINUOUS
 90
21
 70
0
 10
273.8270611738
 20
243.2677583586
 10
273.8252274965
 20
243.2997544252
 10
273.8194103303
 20
243.3329092976
 10
273.8095526214
 20
243.3655981812
 10
273.7956486953
 20
243.3973699768
 10
273.7778452825
 20
243.4276204313
 10
273.7562464131
 20
243.4560005434
 10
273.7308894511
 20
243.4822823603
 10
273.7021744639
 20
243.5059491513
 10
273.6706302216
 20
243.5266004008
 10
273.6359997825
 20
243.544407239
 10
273.5986474459
 20
243.5591411621
 10
273.5599126571
 20
243.5703858746
 10
273.5195121973
 20
243.5783932201
 10
273.4774530287
 20
243.583113602
 10
273.43574774
 20
243.5843911067
 10
273.3943710535
 20
243.5823465618
 10
273.3531346702
 20
243.5769166398
 10
273.3138597535
 20
243.5683102566
 10
273.2769466337
 20
243.5567489515
 10
273.2411128467
 20
243.5417140555
  0
LINE
  5
498
100
AcDbEntity
  8
0
100
AcDbLine
 62
250
  6
CONTINUOUS
 10
274.574935252
 20
247.0600741828
 11
274.574935252
 21
247.9239883788
  0
LINE
  5
499
100
AcDbEntity
  8
RACCORDO
100
AcDbLine
 62
250
  6
CONTINUOUS
 10
274.8435214082
 20
246.1151907411
 11
274.8435214082
 21
245.2502722133
  0
LINE
  5
49A
100
AcDbEntity
  8
RACCORDO
100
AcDbLine
 62
250
  6
CONTINUOUS
 10
275.2563926244
 20
246.2274511664
 11
275.2563926244
 21
245.2448665066
  0
LINE
  5
49B
100
AcDbEntity
  8
0
100
AcDbLine
 62
7
  6
CONTINUOUS
 10
275.5408610783
 20
247.6981145109
 11
275.5408610783
 21
247.8670751379
  0
LINE
  5
49C
100
AcDbEntity
  8
0
100
AcDbLine
 62
250
  6
CONTINUOUS
 10
275.9891488144
 20
247.0260007451
 11
275.9891488144
 21
247.5687049884
  0
LINE
  5
49D
100
AcDbEntity
  8
RACCORDO
100
AcDbLine
 62
250
  6
CONTINUOUS
 10
276.0147982231
 20
245.8482483671
 11
276.0147982231
 21
245.5821721818
  0
LINE
  5
49E
100
AcDbEntity
  8
0
100
AcDbLine
 62
7
  6
CONTINUOUS
 10
276.5548342393
 20
218.7884609049
 11
276.5548342393
 21
218.7295906099
  0
LINE
  5
49F
100
AcDbEntity
  8
RACCORDO
100
AcDbLine
 62
250
  6
CONTINUOUS
 10
276.8234203955
 20
245.1252412475
 11
276.8234203955
 21
244.2603227196
  0
LWPOLYLINE
  5
4A0
100
AcDbEntity
  8
RACCORDO
100
AcDbPolyline
 62
7
  6
CONTINUOUS
 90
10
 70
0
 10
276.1026612237
 20
245.7058303179
 10
276.1023186377
 20
245.7009599653
 10
276.1007356436
 20
245.6931428877
 10
276.0973132832
 20
245.6828712804
 10
276.0915495444
 20
245.670314931
 10
276.0832307885
 20
245.656073511
 10
276.072552174
 20
245.6410142572
 10
276.0597376197
 20
245.6256448842
 10
276.0448943362
 20
245.6101943815
 10
276.0384573999
 20
245.6040780387
  0
LWPOLYLINE
  5
4A1
100
AcDbEntity
  8
0
100
AcDbPolyline
 62
250
  6
CONTINUOUS
 90
7
 70
0
 10
278.3104691579
 20
248.980031905
 10
278.3087581302
 20
248.9669792858
 10
278.3036543232
 20
248.9541500005
 10
278.2952450644
 20
248.9417635618
 10
278.2836742387
 20
248.930031905
 10
278.269139826
 20
248.9191557621
 10
278.2518905141
 20
248.9093212269
  0
LWPOLYLINE
  5
4A2
100
AcDbEntity
  8
0
100
AcDbPolyline
 62
250
  6
CONTINUOUS
 90
14
 70
0
 10
269.5760523152
 20
202.0483197493
 10
269.5685129155
 20
202.0175724032
 10
269.5579116954
 20
201.9891938577
 10
269.5443923658
 20
201.9634547242
 10
269.5283860602
 20
201.9411668371
 10
269.5098077705
 20
201.9224362408
 10
269.4887425047
 20
201.9071568908
 10
269.4658764199
 20
201.8958224881
 10
269.4411675011
 20
201.888556699
 10
269.4146577634
 20
201.8852358571
 10
269.3871594085
 20
201.8859826639
 10
269.3589431706
 20
201.8908380198
 10
269.3297383155
 20
201.8997610245
 10
269.2995448434
 20
201.9127516777
  0
LWPOLYLINE
  5
4A3
100
AcDbEntity
  8
0
100
AcDbPolyline
 62
250
  6
CONTINUOUS
 90
13
 70
0
 10
270.0825238249
 20
206.6215503993
 10
270.0202816722
 20
206.3994374497
 10
269.9683334984
 20
206.1696517282
 10
269.9266793037
 20
205.9321932346
 10
269.8952393896
 20
205.6863650505
 10
269.8740934545
 20
205.4328640944
 10
269.8634805935
 20
205.1737811222
 10
269.86353069
 20
204.9090473194
 10
269.8741138607
 20
204.6387315005
 10
269.8950795508
 20
204.3651308654
 10
269.9263775752
 20
204.0890111473
 10
269.968058119
 20
203.809606613
 10
270.0201211821
 20
203.5269172625
  0
LWPOLYLINE
  5
4A4
100
AcDbEntity
  8
0
100
AcDbPolyline
 62
250
  6
CONTINUOUS
 90
13
 70
0
 10
270.42417278
 20
206.5569921407
 10
270.3644563794
 20
206.3438783239
 10
270.3144716147
 20
206.1226254085
 10
270.2743370869
 20
205.8937583856
 10
270.2441480253
 20
205.6578203202
 10
270.2239760581
 20
205.4153710409
 10
270.2138690462
 20
205.1669858096
 10
270.2138509706
 20
204.9132540288
 10
270.2239218721
 20
204.6547777199
 10
270.2440578669
 20
204.3921700643
 10
270.2742111968
 20
204.1260541281
 10
270.3143103261
 20
203.85706139
 10
270.364260122
 20
203.5858301137
  0
LWPOLYLINE
  5
4A5
100
AcDbEntity
  8
0
100
AcDbPolyline
 62
7
  6
CONTINUOUS
 90
25
 70
0
 10
271.0387388094
 20
206.8513793647
 10
271.0076748133
 20
206.7459992697
 10
270.9790529216
 20
206.6386326337
 10
270.9528731343
 20
206.5292794565
 10
270.9291210541
 20
206.4178667605
 10
270.9078110783
 20
206.3044675235
 10
270.8889863987
 20
206.1893006786
 10
270.872653189
 20
206.0723689247
 10
270.8588052754
 20
205.9536695629
 10
270.8474673294
 20
205.8334134304
 10
270.8386437886
 20
205.7115972879
 10
270.8323302153
 20
205.5882243745
 10
270.8285379668
 20
205.4635152446
 10
270.8272716943
 20
205.3374664677
 10
270.8285267465
 20
205.2100814742
 10
270.8323005279
 20
205.0815911095
 10
270.8385975644
 20
204.9519950089
 10
270.84741333
 20
204.8212935371
 10
270.8587316512
 20
204.6897186333
 10
270.8725585156
 20
204.557260768
 10
270.8888879355
 20
204.4239294707
 10
270.9076857747
 20
204.2899852689
 10
270.9289406542
 20
204.1555150054
 10
270.952663953
 20
204.0204318375
 10
270.9788556709
 20
203.8847357652
  0
LWPOLYLINE
  5
4A6
100
AcDbEntity
  8
RACCORDO
100
AcDbPolyline
 62
250
  6
CONTINUOUS
 90
28
 70
0
 10
295.7898128659
 20
238.9098740687
 10
295.8060913419
 20
238.9243399576
 10
295.8221439684
 20
238.9364943013
 10
295.8379375429
 20
238.94634029
 10
295.8534686466
 20
238.9539278099
 10
295.868669066
 20
238.9592123282
 10
295.8834170653
 20
238.9620506146
 10
295.8977106229
 20
238.9622686717
 10
295.9114966223
 20
238.9600343587
 10
295.9246073022
 20
238.9557060696
 10
295.9369905174
 20
238.9492088566
 10
295.9486935935
 20
238.9405947305
 10
295.9597187377
 20
238.9304062903
 10
295.9700353203
 20
238.9187018969
 10
295.9796695783
 20
238.9054017029
 10
295.988691992
 20
238.8908447625
 10
295.9970814094
 20
238.8750786589
 10
296.0048202135
 20
238.8580408181
 10
296.0119486946
 20
238.8399108355
 10
296.0184337938
 20
238.8206927914
 10
296.0242298794
 20
238.8003695467
 10
296.0293249073
 20
238.7790918972
 10
296.0336648905
 20
238.7568577678
 10
296.0371951879
 20
238.7336515832
 10
296.0398725773
 20
238.709604074
 10
296.0416238007
 20
238.6847311824
 10
296.0423810738
 20
238.6589898554
 10
296.0424070074
 20
238.6534701654
  0
LWPOLYLINE
  5
4A7
100
AcDbEntity
  8
RACCORDO
100
AcDbPolyline
 62
7
  6
CONTINUOUS
 90
76
 70
0
 10
295.8974721561
 20
239.0389319402
 10
295.9594855844
 20
239.0905501459
 10
296.0197954773
 20
239.1411807864
 10
296.078401835
 20
239.1908238618
 10
296.1352654241
 20
239.2394484209
 10
296.1904254779
 20
239.2870854148
 10
296.2439996962
 20
239.3338276976
 10
296.2959949199
 20
239.3796782132
 10
296.3464043082
 20
239.4246340177
 10
296.3953250388
 20
239.4687791337
 10
296.4427619753
 20
239.5121140923
 10
296.4887102541
 20
239.5546383623
 10
296.5332524618
 20
239.5964343731
 10
296.5763943512
 20
239.6375021704
 10
296.6181301694
 20
239.6778417085
 10
296.6585252451
 20
239.7175352787
 10
296.6975870661
 20
239.7565824021
 10
296.7353081446
 20
239.7949835577
 10
296.7717313455
 20
239.8328224738
 10
296.8068673703
 20
239.8700980675
 10
296.8407055176
 20
239.9068114218
 10
296.8732565479
 20
239.9430495139
 10
296.9045386263
 20
239.9788125441
 10
296.9345335877
 20
240.0141003121
 10
296.9631976977
 20
240.0489991937
 10
296.9905617084
 20
240.0835117747
 10
297.0165948677
 20
240.1176354693
 10
297.0411611848
 20
240.151448897
 10
297.0643296376
 20
240.1849972626
 10
297.0860312483
 20
240.2182353612
 10
297.1059230929
 20
240.2511061976
 10
297.1240813167
 20
240.283726838
 10
297.1404297743
 20
240.3159802162
 10
297.1543971059
 20
240.3474581378
 10
297.1659365524
 20
240.3781739954
 10
297.1750948729
 20
240.4081143965
 10
297.181440985
 20
240.436830969
 10
297.1848656406
 20
240.4642833454
 10
297.1854780878
 20
240.4905118933
 10
297.1831749881
 20
240.5151893438
 10
297.1777908617
 20
240.538277962
 10
297.1694911885
 20
240.5598154828
 10
297.1586690698
 20
240.5795878422
 10
297.1452482931
 20
240.5974660483
 10
297.129305071
 20
240.613579093
 10
297.1114611428
 20
240.6280998876
 10
297.0917966696
 20
240.6409779488
 10
297.0702314904
 20
240.65226376
 10
297.0471468607
 20
240.6622816825
 10
297.0226170826
 20
240.6710601429
 10
296.9965678541
 20
240.6785707146
 10
296.9691575254
 20
240.6850524783
 10
296.9404214203
 20
240.690537051
 10
296.9103242151
 20
240.6949928158
 10
296.8789182884
 20
240.698564003
 10
296.8462230215
 20
240.7012709944
 10
296.8122190331
 20
240.7030934083
 10
296.7769005585
 20
240.7041143304
 10
296.7402798173
 20
240.7043469231
 10
296.7023445899
 20
240.7037780239
 10
296.6630524523
 20
240.7024512317
 10
296.6224089564
 20
240.7003751344
 10
296.5804085504
 20
240.697541144
 10
296.5369921548
 20
240.6939670949
 10
296.4921639072
 20
240.689658706
 10
296.44591967
 20
240.6846102585
 10
296.3981879503
 20
240.6788224308
 10
296.3489793577
 20
240.6723006368
 10
296.2982832826
 20
240.6650394625
 10
296.2459964037
 20
240.657023344
 10
296.1921256147
 20
240.6482573247
 10
296.1366640218
 20
240.6387363611
 10
296.0794876224
 20
240.6284297597
 10
296.0205550824
 20
240.617327289
 10
295.9599077358
 20
240.6054391805
 10
295.8975455827
 20
240.5927654339
  0
LINE
  5
4A8
100
AcDbEntity
  8
0
100
AcDbLine
 62
7
  6
CONTINUOUS
 10
271.7465081272
 20
222.1319994755
 11
271.4990207538
 21
222.0029650034
  0
LINE
  5
4A9
100
AcDbEntity
  8
0
100
AcDbLine
 62
7
  6
CONTINUOUS
 10
271.7465081272
 20
221.3113236606
 11
271.4990207538
 21
221.1928707593
  0
LINE
  5
4AA
100
AcDbEntity
  8
0
100
AcDbLine
 62
7
  6
CONTINUOUS
 10
259.0193409692
 20
217.4063288452
 11
259.0123047404
 21
217.40343441
  0
LWPOLYLINE
  5
4AB
100
AcDbEntity
  8
0
100
AcDbPolyline
 62
7
  6
CONTINUOUS
 90
8
 70
0
 10
259.0193781568
 20
217.4062500608
 10
258.9785579586
 20
217.3917448779
 10
258.9206006613
 20
217.3796216666
 10
258.8591429257
 20
217.3757513067
 10
258.7957056799
 20
217.3803435715
 10
258.7307951638
 20
217.3934680155
 10
258.6639031397
 20
217.4150540808
 10
258.5950291047
 20
217.4451015146
  0
LINE
  5
4AC
100
AcDbEntity
  8
0
100
AcDbLine
 62
7
  6
CONTINUOUS
 10
259.0123047404
 20
217.40343441
 11
258.9592484158
 21
217.3866559174
  0
LINE
  5
4AD
100
AcDbEntity
  8
0
100
AcDbLine
 62
7
  6
CONTINUOUS
 10
258.9592484158
 20
217.3866559174
 11
258.9029363069
 21
217.3776956406
  0
LINE
  5
4AE
100
AcDbEntity
  8
0
100
AcDbLine
 62
7
  6
CONTINUOUS
 10
258.2691527512
 20
219.2424817178
 11
258.330713381
 21
219.2464039786
  0
LINE
  5
4AF
100
AcDbEntity
  8
0
100
AcDbLine
 62
7
  6
CONTINUOUS
 10
269.5339585162
 20
223.5802189923
 11
268.7800500225
 21
223.9571732391
  0
LINE
  5
4B0
100
AcDbEntity
  8
0
100
AcDbLine
 62
250
  6
CONTINUOUS
 10
269.5823767861
 20
223.6587416592
 11
268.7800500225
 21
224.059905041
  0
LINE
  5
4B1
100
AcDbEntity
  8
0
100
AcDbLine
 62
250
  6
CONTINUOUS
 10
268.7800500225
 20
224.6354379407
 11
269.5090669265
 21
224.2709294888
  0
LINE
  5
4B2
100
AcDbEntity
  8
0
100
AcDbLine
 62
250
  6
CONTINUOUS
 10
269.157911904
 20
224.8397900463
 11
269.4651329436
 21
224.6861795264
  0
LINE
  5
4B3
100
AcDbEntity
  8
0
100
AcDbLine
 62
7
  6
CONTINUOUS
 10
280.4099819852
 20
220.4414784583
 11
281.2983666637
 21
219.997286119
  0
LWPOLYLINE
  5
4B4
100
AcDbEntity
  8
0
100
AcDbPolyline
 62
250
  6
CONTINUOUS
 90
3
 70
0
 10
270.1410656669
 20
233.3789636322
 10
270.1338571441
 20
233.3977089792
 10
270.12877654
 20
233.4182605609
  0
LWPOLYLINE
  5
4B5
100
AcDbEntity
  8
0
100
AcDbPolyline
 62
7
  6
CONTINUOUS
 90
13
 70
0
 10
275.5408610783
 20
247.8670751379
 10
275.5390024174
 20
247.8901520744
 10
275.533436941
 20
247.9127804637
 10
275.5241481468
 20
247.934928286
 10
275.5108768439
 20
247.9569706605
 10
275.49382058
 20
247.9783996711
 10
275.4736457033
 20
247.9978443494
 10
275.4503859156
 20
248.014966666
 10
275.4239517339
 20
248.0299011709
 10
275.3948449941
 20
248.042002314
 10
275.3632363383
 20
248.0509847123
 10
275.3289609511
 20
248.0569002507
 10
275.2920425333
 20
248.0596146236
  0
LWPOLYLINE
  5
4B6
100
AcDbEntity
  8
0
100
AcDbPolyline
 62
7
  6
CONTINUOUS
 90
13
 70
0
 10
278.3104691579
 20
248.980031905
 10
278.3088394972
 20
249.0205938064
 10
278.3040630149
 20
249.0592841978
 10
278.2963071681
 20
249.0959796911
 10
278.2857385081
 20
249.1305764259
 10
278.2725212888
 20
249.1629885629
 10
278.2568486529
 20
249.1930861334
 10
278.2390214915
 20
249.2206308056
 10
278.2192093061
 20
249.2456613194
 10
278.1974002725
 20
249.2683478899
 10
278.1737170261
 20
249.2886153223
 10
278.1484787971
 20
249.3062546363
 10
278.1219439213
 20
249.3211794834
  0
LINE
  5
4B7
100
AcDbEntity
  8
RACCORDO
100
AcDbLine
 62
250
  6
CONTINUOUS
 10
277.2362916118
 20
245.2375016727
 11
277.2362916118
 21
244.3538403183
  0
LINE
  5
4B8
100
AcDbEntity
  8
RACCORDO
100
AcDbLine
 62
250
  6
CONTINUOUS
 10
277.9946972104
 20
244.8582988734
 11
277.9946972104
 21
244.7168299218
  0
LINE
  5
4B9
100
AcDbEntity
  8
0
100
AcDbLine
 62
250
  6
CONTINUOUS
 10
278.2518905141
 20
248.9093212269
 11
278.2518905141
 21
248.4959088688
  0
LINE
  5
4BA
100
AcDbEntity
  8
0
100
AcDbLine
 62
7
  6
CONTINUOUS
 10
278.3104691579
 20
248.980031905
 11
278.3104691579
 21
248.5323266905
  0
LINE
  5
4BB
100
AcDbEntity
  8
0
100
AcDbLine
 62
250
  6
CONTINUOUS
 10
279.5246827203
 20
245.4491146446
 11
279.5246827203
 21
245.8009380354
  0
LINE
  5
4BC
100
AcDbEntity
  8
0
100
AcDbLine
 62
7
  6
CONTINUOUS
 10
279.7839978892
 20
245.7676544117
 11
279.7835017654
 21
245.7457547943
  0
LINE
  5
4BD
100
AcDbEntity
  8
0
100
AcDbLine
 62
7
  6
CONTINUOUS
 10
276.7331175478
 20
218.9106139418
 11
276.6940143096
 21
218.7647521807
  0
LWPOLYLINE
  5
4BE
100
AcDbEntity
  8
0
100
AcDbPolyline
 62
7
  6
CONTINUOUS
 90
8
 70
0
 10
271.8108651929
 20
201.0167111331
 10
271.8118097808
 20
201.0193614974
 10
271.814422044
 20
201.0231201869
 10
271.8185819252
 20
201.0276113558
 10
271.8241757453
 20
201.0328525124
 10
271.8310599644
 20
201.0389359514
 10
271.8391431129
 20
201.0455408526
 10
271.8483229379
 20
201.0525848922
  0
LINE
  5
4BF
100
AcDbEntity
  8
0
100
AcDbLine
 62
7
  6
CONTINUOUS
 10
275.7461245615
 20
219.1585156156
 11
276.7399537841
 21
221.0042005697
  0
LWPOLYLINE
  5
4C0
100
AcDbEntity
  8
0
100
AcDbPolyline
 62
7
  6
CONTINUOUS
 90
9
 70
0
 10
269.5090669265
 20
210.3279204879
 10
269.4978094127
 20
210.315619577
 10
269.4883477022
 20
210.30414626
 10
269.4805985483
 20
210.2935767739
 10
269.4744041621
 20
210.2840269131
 10
269.4697375603
 20
210.275475779
 10
269.4667246392
 20
210.2677871455
 10
269.4653005113
 20
210.2609780404
 10
269.4651423458
 20
210.2583598988
  0
LINE
  5
4C1
100
AcDbEntity
  8
0
100
AcDbLine
 62
250
  6
CONTINUOUS
 10
280.4099819852
 20
222.8655504519
 11
280.9208585478
 21
223.2003011888
  0
LINE
  5
4C2
100
AcDbEntity
  8
0
100
AcDbLine
 62
7
  6
CONTINUOUS
 10
280.4099819852
 20
222.6762477765
 11
280.9208585478
 21
223.0109995163
  0
LINE
  5
4C3
100
AcDbEntity
  8
0
100
AcDbLine
 62
7
  6
CONTINUOUS
 10
276.7399537841
 20
221.0042005697
 11
281.2983666637
 21
223.6187007536
  0
LINE
  5
4C4
100
AcDbEntity
  8
0
100
AcDbLine
 62
7
  6
CONTINUOUS
 10
280.4099819852
 20
221.5398425293
 11
280.9208585478
 21
221.736809575
  0
LINE
  5
4C5
100
AcDbEntity
  8
0
100
AcDbLine
 62
250
  6
CONTINUOUS
 10
280.4099819852
 20
221.488731675
 11
280.9208585478
 21
221.6856987206
  0
LINE
  5
4C6
100
AcDbEntity
  8
0
100
AcDbLine
 62
7
  6
CONTINUOUS
 10
258.2110787599
 20
219.2302992922
 11
258.2691527512
 21
219.2424817178
  0
LINE
  5
4C7
100
AcDbEntity
  8
0
100
AcDbLine
 62
7
  6
CONTINUOUS
 10
269.7925285889
 20
227.2866314096
 11
269.5090669265
 21
227.4283622409
  0
LINE
  5
4C8
100
AcDbEntity
  8
0
100
AcDbLine
 62
7
  6
CONTINUOUS
 10
269.6789041609
 20
227.6258534388
 11
269.6605431227
 21
227.6350339579
  0
LWPOLYLINE
  5
4C9
100
AcDbEntity
  8
0
100
AcDbPolyline
 62
250
  6
CONTINUOUS
 90
5
 70
0
 10
269.4811031506
 20
232.014049601
 10
269.471393159
 20
232.0236585912
 10
269.461640336
 20
232.0301836817
 10
269.452004394
 20
232.0335180203
 10
269.4437729347
 20
232.0337714596
  0
LWPOLYLINE
  5
4CA
100
AcDbEntity
  8
0
100
AcDbPolyline
 62
250
  6
CONTINUOUS
 90
9
 70
0
 10
269.414558017
 20
233.6741436177
 10
269.4411012801
 20
233.6442899904
 10
269.4658374909
 20
233.6122967593
 10
269.4887150356
 20
233.5780854522
 10
269.509785528
 20
233.5417345413
 10
269.5283646821
 20
233.5044354704
 10
269.54436426
 20
233.4661883405
 10
269.5578724996
 20
233.4269930507
 10
269.5684698292
 20
233.3880407419
  0
LWPOLYLINE
  5
4CB
100
AcDbEntity
  8
0
100
AcDbPolyline
 62
250
  6
CONTINUOUS
 90
6
 70
0
 10
270.1498189057
 20
233.3530818856
 10
270.1401777304
 20
233.3667078266
 10
270.1325144666
 20
233.3826651527
 10
270.1269515824
 20
233.4006986018
 10
270.1235779337
 20
233.4205197868
 10
270.1224473826
 20
233.4418117303
  0
LWPOLYLINE
  5
4CC
100
AcDbEntity
  8
0
100
AcDbPolyline
 62
7
  6
CONTINUOUS
 90
7
 70
0
 10
279.8175259328
 20
245.7968729238
 10
279.8164746271
 20
245.813143464
 10
279.8142741946
 20
245.8254658579
 10
279.8111932594
 20
245.8338282555
 10
279.8074554903
 20
245.8381493392
 10
279.8033042379
 20
245.8385075146
 10
279.8027205671
 20
245.8382613839
  0
LWPOLYLINE
  5
4CD
100
AcDbEntity
  8
DRAFT
100
AcDbPolyline
 62
7
  6
CONTINUOUS
 90
5
 70
0
 10
281.3278050123
 20
237.0973052968
 10
281.3246589173
 20
237.2130228917
 10
281.3155945537
 20
237.3302302784
 10
281.3006119217
 20
237.448927457
 10
281.2983666637
 20
237.4618226229
  0
LINE
  5
4CE
100
AcDbEntity
  8
0
100
AcDbLine
 62
7
  6
CONTINUOUS
 10
279.817554972
 20
245.7919792792
 11
279.8175259328
 21
245.7968729238
  0
LINE
  5
4CF
100
AcDbEntity
  8
0
100
AcDbLine
 62
7
  6
CONTINUOUS
 10
279.7835017654
 20
245.6660839458
 11
279.7835017654
 21
245.7457547943
  0
LINE
  5
4D0
100
AcDbEntity
  8
0
100
AcDbLine
 62
7
  6
CONTINUOUS
 10
280.4099819852
 20
220.5201349668
 11
280.4099819852
 21
223.1091633407
  0
LINE
  5
4D1
100
AcDbEntity
  8
RACCORDO
100
AcDbLine
 62
7
  6
CONTINUOUS
 10
280.9208585478
 20
223.4021791123
 11
280.9208585478
 21
220.186040177
  0
LINE
  5
4D2
100
AcDbEntity
  8
SMUSSO
100
AcDbLine
 62
7
  6
CONTINUOUS
 10
280.9258379121
 20
223.4050350512
 11
280.9258379121
 21
220.1835504948
  0
LINE
  5
4D3
100
AcDbEntity
  8
0
100
AcDbLine
 62
7
  6
CONTINUOUS
 10
281.2983666637
 20
206.0171900637
 11
281.2983666637
 21
219.997286119
  0
LINE
  5
4D4
100
AcDbEntity
  8
0
100
AcDbLine
 62
7
  6
CONTINUOUS
 10
281.2983666637
 20
223.6187007536
 11
281.2983666637
 21
237.5987968089
  0
LINE
  5
4D5
100
AcDbEntity
  8
DRAFT
100
AcDbLine
 62
7
  6
CONTINUOUS
 10
281.3278050123
 20
206.4892432272
 11
281.3278050123
 21
237.0973052968
  0
LWPOLYLINE
  5
4D6
100
AcDbEntity
  8
0
100
AcDbPolyline
 62
250
  6
CONTINUOUS
 90
7
 70
0
 10
273.3480356049
 20
197.5896048108
 10
273.3558344083
 20
197.6143322131
 10
273.3610668635
 20
197.639816633
 10
273.3636444324
 20
197.6656268494
 10
273.3635235
 20
197.6913261285
 10
273.3607061125
 20
197.7164796138
 10
273.3552399429
 20
197.7406616838
  0
LWPOLYLINE
  5
4D7
100
AcDbEntity
  8
0
100
AcDbPolyline
 62
250
  6
CONTINUOUS
 90
3
 70
0
 10
268.739264783
 20
197.0157474674
 10
268.7278617297
 20
196.9899947879
 10
268.7253037214
 20
196.9853112162
  0
LWPOLYLINE
  5
4D8
100
AcDbEntity
  8
0
100
AcDbPolyline
 62
7
  6
CONTINUOUS
 90
7
 70
0
 10
268.7249448947
 20
196.9846893194
 10
268.7340098472
 20
197.0016524665
 10
268.7525607488
 20
197.0443926578
 10
268.7664251338
 20
197.089617383
 10
268.7754760043
 20
197.136907185
 10
268.7797082939
 20
197.1859069751
 10
268.7800500225
 20
197.2046194914
  0
LINE
  5
4D9
100
AcDbEntity
  8
0
100
AcDbLine
 62
7
  6
CONTINUOUS
 10
271.8108651929
 20
214.1616071976
 11
270.731873444
 21
213.6179511238
  0
LINE
  5
4DA
100
AcDbEntity
  8
0
100
AcDbLine
 62
250
  6
CONTINUOUS
 10
280.4099819852
 20
220.911141965
 11
280.9208585478
 21
221.160060179
  0
LINE
  5
4DB
100
AcDbEntity
  8
0
100
AcDbLine
 62
250
  6
CONTINUOUS
 10
280.4099819852
 20
220.5201349668
 11
280.9208585478
 21
220.7690531807
  0
LINE
  5
4DC
100
AcDbEntity
  8
0
100
AcDbLine
 62
7
  6
CONTINUOUS
 10
269.5384428033
 20
214.6562871349
 11
268.7800500225
 21
214.2997245378
  0
LINE
  5
4DD
100
AcDbEntity
  8
0
100
AcDbLine
 62
250
  6
CONTINUOUS
 10
269.5384428033
 20
214.6213309082
 11
268.7800500225
 21
214.2710799898
  0
LINE
  5
4DE
100
AcDbEntity
  8
0
100
AcDbLine
 62
250
  6
CONTINUOUS
 10
269.5384428033
 20
214.1572757083
 11
268.7800500225
 21
213.8070247899
  0
LINE
  5
4DF
100
AcDbEntity
  8
0
100
AcDbLine
 62
7
  6
CONTINUOUS
 10
276.5239801023
 20
218.7450176784
 11
276.0638737023
 21
218.5407062986
  0
LINE
  5
4E0
100
AcDbEntity
  8
0
100
AcDbLine
 62
7
  6
CONTINUOUS
 10
280.4099819852
 20
220.4414784583
 11
276.7021216504
 21
218.7949939474
  0
LINE
  5
4E1
100
AcDbEntity
  8
0
100
AcDbLine
 62
7
  6
CONTINUOUS
 10
276.6506520659
 20
218.7721387517
 11
276.5548342393
 21
218.7295906099
  0
LINE
  5
4E2
100
AcDbEntity
  8
0
100
AcDbLine
 62
7
  6
CONTINUOUS
 10
281.2983666637
 20
219.997286119
 11
276.7399537841
 21
217.9731116564
  0
LINE
  5
4E3
100
AcDbEntity
  8
0
100
AcDbLine
 62
7
  6
CONTINUOUS
 10
271.1444840596
 20
228.628561642
 11
271.8118779623
 21
228.2948646907
  0
LINE
  5
4E4
100
AcDbEntity
  8
0
100
AcDbLine
 62
250
  6
CONTINUOUS
 10
271.091598132
 20
228.7371900474
 11
271.8694438367
 21
228.348267195
  0
LINE
  5
4E5
100
AcDbEntity
  8
0
100
AcDbLine
 62
250
  6
CONTINUOUS
 10
271.9344286333
 20
228.52905262
 11
271.0256102267
 21
228.9834618233
  0
LINE
  5
4E6
100
AcDbEntity
  8
0
100
AcDbLine
 62
250
  6
CONTINUOUS
 10
272.0666671764
 20
228.9234148137
 11
271.2266401282
 21
229.3434283378
  0
LINE
  5
4E7
100
AcDbEntity
  8
0
100
AcDbLine
 62
250
  6
CONTINUOUS
 10
266.3058469813
 20
232.5617327517
 11
251.4810009036
 21
239.9741557905
  0
LINE
  5
4E8
100
AcDbEntity
  8
0
100
AcDbLine
 62
7
  6
CONTINUOUS
 10
269.2157534464
 20
231.9665628632
 11
268.7800500225
 21
232.1844145751
  0
LINE
  5
4E9
100
AcDbEntity
  8
0
100
AcDbLine
 62
7
  6
CONTINUOUS
 10
273.6744306815
 20
229.786832946
 11
272.9132343162
 21
230.1674311286
  0
LINE
  5
4EA
100
AcDbEntity
  8
0
100
AcDbLine
 62
7
  6
CONTINUOUS
 10
272.8070498867
 20
230.2205233434
 11
272.8153699296
 21
230.216363322
  0
LWPOLYLINE
  5
4EB
100
AcDbEntity
  8
0
100
AcDbPolyline
 62
250
  6
CONTINUOUS
 90
7
 70
0
 10
271.0256102267
 20
228.9834618233
 10
271.0140661833
 20
228.9894103714
 10
271.002588585
 20
228.9956418453
 10
270.9911774319
 20
229.0021562449
 10
270.9798327239
 20
229.0089535703
 10
270.968554461
 20
229.0160338214
 10
270.9573426433
 20
229.0233969983
  0
LWPOLYLINE
  5
4EC
100
AcDbEntity
  8
0
100
AcDbPolyline
 62
250
  6
CONTINUOUS
 90
10
 70
0
 10
271.2266401282
 20
229.3434283378
 10
271.2065098878
 20
229.3542539832
 10
271.1865187858
 20
229.3668107881
 10
271.1667670284
 20
229.3810400549
 10
271.1473515963
 20
229.3968791021
 10
271.1283754453
 20
229.4142490087
 10
271.1099461503
 20
229.4330517848
 10
271.0921624538
 20
229.453189307
 10
271.075114621
 20
229.4745669304
 10
271.0588930784
 20
229.4970792298
  0
LWPOLYLINE
  5
4ED
100
AcDbEntity
  8
0
100
AcDbPolyline
 62
250
  6
CONTINUOUS
 90
4
 70
0
 10
268.5172375032
 20
234.7941723442
 10
268.5382780677
 20
234.7780396499
 10
268.5580289972
 20
234.7612532391
 10
268.5765056131
 20
234.7439692799
  0
LINE
  5
4EE
100
AcDbEntity
  8
0
100
AcDbLine
 62
250
  6
CONTINUOUS
 10
269.387046829
 20
233.7009016136
 11
269.414558017
 21
233.6741436177
  0
LWPOLYLINE
  5
4EF
100
AcDbEntity
  8
0
100
AcDbPolyline
 62
250
  6
CONTINUOUS
 90
20
 70
0
 10
268.5765056131
 20
234.7439692799
 10
268.5937274611
 20
234.726341221
 10
268.6097576482
 20
234.7084347001
 10
268.6246386395
 20
234.6903580054
 10
268.638398368
 20
234.6722368313
 10
268.6510769714
 20
234.6541373183
 10
268.6627140896
 20
234.6361612481
 10
268.6733664075
 20
234.6183860116
 10
268.6830956463
 20
234.6008221351
 10
268.6919375218
 20
234.5835588034
 10
268.6999570453
 20
234.5666348235
 10
268.7072430764
 20
234.5499650819
 10
268.7138314445
 20
234.5335965151
 10
268.7197665515
 20
234.5175650114
 10
268.7251243505
 20
234.5017514636
 10
268.7299306303
 20
234.4861831401
 10
268.734215453
 20
234.4708861505
 10
268.7380347571
 20
234.45572814
 10
268.741402636
 20
234.4407270758
 10
268.7443367232
 20
234.4259012354
  0
LWPOLYLINE
  5
4F0
100
AcDbEntity
  8
0
100
AcDbPolyline
 62
250
  6
CONTINUOUS
 90
7
 70
0
 10
273.3480356049
 20
238.8142089502
 10
273.3558341689
 20
238.799993773
 10
273.3610665931
 20
238.7871943921
 10
273.3636442985
 20
238.7760273998
 10
273.3635236233
 20
238.7666817792
 10
273.3607065638
 20
238.7593156878
 10
273.359723015
 20
238.7579666857
  0
LWPOLYLINE
  5
4F1
100
AcDbEntity
  8
0
100
AcDbPolyline
 62
250
  6
CONTINUOUS
 90
12
 70
0
 10
285.2173830657
 20
245.1876302767
 10
285.2159726748
 20
245.1453662375
 10
285.2100116332
 20
245.0924874601
 10
285.1996061138
 20
245.0430173718
 10
285.1849448867
 20
244.996761673
 10
285.1663515442
 20
244.9540969234
 10
285.1441959009
 20
244.9153192119
 10
285.1187293135
 20
244.8803436926
 10
285.0901254758
 20
244.8489535093
 10
285.0586008288
 20
244.8211309042
 10
285.0244634654
 20
244.7970446017
 10
284.9879835586
 20
244.776749583
  0
LWPOLYLINE
  5
4F2
100
AcDbEntity
  8
DRAFT
100
AcDbPolyline
 62
7
  6
CONTINUOUS
 90
5
 70
0
 10
281.2983666637
 20
206.1541642497
 10
281.3006119217
 20
206.1648141576
 10
281.3155945537
 20
206.2685287042
 10
281.3246589173
 20
206.3766717274
 10
281.3278050123
 20
206.4892432272
  0
LINE
  5
4F3
100
AcDbEntity
  8
0
100
AcDbLine
 62
250
  6
CONTINUOUS
 10
268.7519423587
 20
197.1412291696
 11
268.6512033653
 21
196.9626070521
  0
LINE
  5
4F4
100
AcDbEntity
  8
0
100
AcDbLine
 62
7
  6
CONTINUOUS
 10
268.7252847534
 20
196.9852775838
 11
268.6560505916
 21
196.8625172487
  0
LWPOLYLINE
  5
4F5
100
AcDbEntity
  8
RACCORDO
100
AcDbPolyline
 62
7
  6
CONTINUOUS
 90
7
 70
0
 10
295.7898128659
 20
238.9098740687
 10
295.8048109814
 20
238.934158189
 10
295.8209871367
 20
238.9573325193
 10
295.8383413318
 20
238.9793970596
 10
295.8568735668
 20
239.0003518098
 10
295.8765838415
 20
239.02019677
 10
295.8974721561
 20
239.0389319402
  0
LWPOLYLINE
  5
4F6
100
AcDbEntity
  8
0
100
AcDbPolyline
 62
7
  6
CONTINUOUS
 90
9
 70
0
 10
269.5823767861
 20
203.1339395895
 10
269.5710620644
 20
203.1215659291
 10
269.5615807224
 20
203.1100615404
 10
269.5538386547
 20
203.0994967378
 10
269.5476754388
 20
203.0899864264
 10
269.5430453279
 20
203.0814920201
 10
269.5400487636
 20
203.0738522885
 10
269.5386158951
 20
203.0670831123
 10
269.5384471711
 20
203.0643824787
  0
LINE
  5
4F7
100
AcDbEntity
  8
0
100
AcDbLine
 62
7
  6
CONTINUOUS
 10
271.7465081272
 20
213.4717454376
 11
271.4990207538
 21
213.3427109655
  0
LINE
  5
4F8
100
AcDbEntity
  8
0
100
AcDbLine
 62
250
  6
CONTINUOUS
 10
269.3821253346
 20
210.2886594819
 11
268.7800500225
 21
209.9853004426
  0
LINE
  5
4F9
100
AcDbEntity
  8
0
100
AcDbLine
 62
250
  6
CONTINUOUS
 10
269.4651329436
 20
209.8577977774
 11
268.7800500225
 21
209.5126148865
  0
LINE
  5
4FA
100
AcDbEntity
  8
0
100
AcDbLine
 62
7
  6
CONTINUOUS
 10
271.7465081272
 20
212.6510696228
 11
271.4990207538
 21
212.5326167215
  0
LINE
  5
4FB
100
AcDbEntity
  8
0
100
AcDbLine
 62
250
  6
CONTINUOUS
 10
268.7800500225
 20
211.4225677959
 11
269.5384428033
 21
211.7753826262
  0
LINE
  5
4FC
100
AcDbEntity
  8
0
100
AcDbLine
 62
7
  6
CONTINUOUS
 10
268.7800500225
 20
211.2965433446
 11
269.5384428033
 21
211.6493581749
  0
LWPOLYLINE
  5
4FD
100
AcDbEntity
  8
0
100
AcDbPolyline
 62
250
  6
CONTINUOUS
 90
7
 70
0
 10
269.6782987969
 20
231.9926030714
 10
269.6528785867
 20
232.0029088084
 10
269.6271187424
 20
232.0110348886
 10
269.6010040179
 20
232.016951099
 10
269.5734345841
 20
232.0206302514
 10
269.5440194878
 20
232.0216575812
 10
269.5132046679
 20
232.0195925879
  0
LWPOLYLINE
  5
4FE
100
AcDbEntity
  8
0
100
AcDbPolyline
 62
250
  6
CONTINUOUS
 90
6
 70
0
 10
269.3829989542
 20
231.9906156251
 10
269.3646037943
 20
231.9983758023
 10
269.346312376
 20
232.0029485246
 10
269.3284373679
 20
232.004255627
 10
269.3112843168
 20
232.0022747647
 10
269.2987946698
 20
231.99854406
  0
LWPOLYLINE
  5
4FF
100
AcDbEntity
  8
0
100
AcDbPolyline
 62
250
  6
CONTINUOUS
 90
7
 70
0
 10
270.161698192
 20
231.7512223551
 10
270.1440252634
 20
231.7586787778
 10
270.1198663917
 20
231.7649445712
 10
270.0939582624
 20
231.7674261242
 10
270.066528758
 20
231.7659400713
 10
270.0378255715
 20
231.7603422191
 10
270.0081372093
 20
231.7505325839
  0
LWPOLYLINE
  5
500
100
AcDbEntity
  8
0
100
AcDbPolyline
 62
250
  6
CONTINUOUS
 90
6
 70
0
 10
270.1963528614
 20
233.3240169506
 10
270.1884135484
 20
233.32749359
 10
270.1741513577
 20
233.3363815615
 10
270.1613746686
 20
233.3480535208
 10
270.1502871818
 20
233.3623233799
 10
270.1410656669
 20
233.3789636322
  0
LWPOLYLINE
  5
501
100
AcDbEntity
  8
0
100
AcDbPolyline
 62
7
  6
CONTINUOUS
 90
7
 70
0
 10
269.6915469271
 20
231.986296691
 10
269.6651292825
 20
231.998628093
 10
269.6206391308
 20
232.0154728907
 10
269.5760710988
 20
232.0274587524
 10
269.5317200468
 20
232.0345117137
 10
269.4869840757
 20
232.0366572808
 10
269.443772877
 20
232.0337714525
  0
LINE
  5
502
100
AcDbEntity
  8
0
100
AcDbLine
 62
250
  6
CONTINUOUS
 10
269.6914170503
 20
231.9863629254
 11
269.6782987969
 21
231.9926030714
  0
LWPOLYLINE
  5
503
100
AcDbEntity
  8
0
100
AcDbPolyline
 62
7
  6
CONTINUOUS
 90
5
 70
0
 10
270.1745269783
 20
233.3335950759
 10
270.1762857931
 20
233.3327245573
 10
270.1834723185
 20
233.3293509072
 10
270.1907109793
 20
233.3262430738
 10
270.1963528614
 20
233.3240169506
  0
LINE
  5
504
100
AcDbEntity
  8
0
100
AcDbLine
 62
250
  6
CONTINUOUS
 10
269.3336016505
 20
232.010370563
 11
268.7800500225
 21
232.287146377
  0
LINE
  5
505
100
AcDbEntity
  8
0
100
AcDbLine
 62
250
  6
CONTINUOUS
 10
269.4811031702
 20
232.0140496035
 11
270.0081371772
 21
231.7505325999
  0
LINE
  5
506
100
AcDbEntity
  8
0
100
AcDbLine
 62
250
  6
CONTINUOUS
 10
268.7800500225
 20
232.658789313
 11
269.5823767861
 21
232.2576259313
  0
LINE
  5
507
100
AcDbEntity
  8
0
100
AcDbLine
 62
250
  6
CONTINUOUS
 10
268.7800500225
 20
233.0514539744
 11
269.5384428033
 21
232.6722575841
  0
LINE
  5
508
100
AcDbEntity
  8
0
100
AcDbLine
 62
250
  6
CONTINUOUS
 10
267.3217853744
 20
234.301850716
 11
252.4735669137
 21
241.7259599464
  0
LINE
  5
509
100
AcDbEntity
  8
0
100
AcDbLine
 62
7
  6
CONTINUOUS
 10
273.3021430458
 20
231.3718650996
 11
273.0193003334
 21
231.5132864558
  0
LINE
  5
50A
100
AcDbEntity
  8
0
100
AcDbLine
 62
7
  6
CONTINUOUS
 10
268.7800500225
 20
233.959754115
 11
269.3385288222
 21
233.6805147152
  0
LINE
  5
50B
100
AcDbEntity
  8
0
100
AcDbLine
 62
250
  6
CONTINUOUS
 10
268.7800500225
 20
234.0213931957
 11
269.2995448434
 21
233.7616457857
  0
LINE
  5
50C
100
AcDbEntity
  8
0
100
AcDbLine
 62
7
  6
CONTINUOUS
 10
269.9778567684
 20
233.4319215959
 11
270.1744260261
 21
233.3336369671
  0
LINE
  5
50D
100
AcDbEntity
  8
0
100
AcDbLine
 62
250
  6
CONTINUOUS
 10
269.8163336198
 20
233.5948686117
 11
270.1259297794
 21
233.4400705319
  0
LINE
  5
50E
100
AcDbEntity
  8
0
100
AcDbLine
 62
7
  6
CONTINUOUS
 10
253.4162082945
 20
242.2756062108
 11
268.2979190994
 21
234.8347508084
  0
LINE
  5
50F
100
AcDbEntity
  8
0
100
AcDbLine
 62
250
  6
CONTINUOUS
 10
253.7223661175
 20
242.1978171292
 11
268.4197108465
 21
234.8491447647
  0
LINE
  5
510
100
AcDbEntity
  8
0
100
AcDbLine
 62
7
  6
CONTINUOUS
 10
253.783825308
 20
242.185804855
 11
268.4813214963
 21
234.8370569032
  0
LINE
  5
511
100
AcDbEntity
  8
0
100
AcDbLine
 62
250
  6
CONTINUOUS
 10
269.5962365297
 20
234.3242850868
 11
257.350481045
 21
240.4471628291
  0
LINE
  5
512
100
AcDbEntity
  8
0
100
AcDbLine
 62
7
  6
CONTINUOUS
 10
271.1073948743
 20
233.6361349087
 11
271.9843221988
 21
233.1976712465
  0
LINE
  5
513
100
AcDbEntity
  8
0
100
AcDbLine
 62
250
  6
CONTINUOUS
 10
271.0904471951
 20
233.7678869106
 11
271.9345205679
 21
233.3458502242
  0
LINE
  5
514
100
AcDbEntity
  8
0
100
AcDbLine
 62
7
  6
CONTINUOUS
 10
270.1618207088
 20
231.7511610262
 11
269.691437865
 21
231.9863525186
  0
LINE
  5
515
100
AcDbEntity
  8
0
100
AcDbLine
 62
7
  6
CONTINUOUS
 10
268.4813918975
 20
234.8370216718
 11
268.4813214963
 21
234.8370569032
  0
LWPOLYLINE
  5
516
100
AcDbEntity
  8
0
100
AcDbPolyline
 62
7
  6
CONTINUOUS
 90
18
 70
0
 10
269.3385613429
 20
233.6804971278
 10
269.3416592182
 20
233.6789100783
 10
269.3578862304
 20
233.6693852947
 10
269.3755432635
 20
233.6568323953
 10
269.3939089746
 20
233.6414112097
 10
269.4125053409
 20
233.6232650158
 10
269.4309616264
 20
233.6025374208
 10
269.4488515472
 20
233.5795188143
 10
269.4658327351
 20
233.5544937674
 10
269.4815688381
 20
233.5278326751
 10
269.4957454222
 20
233.4999901233
 10
269.5081411471
 20
233.471364724
 10
269.5185435427
 20
233.4424617766
 10
269.5267682107
 20
233.4139494879
 10
269.5327825688
 20
233.3862799051
 10
269.5365984261
 20
233.3599679525
 10
269.5383014372
 20
233.3357732257
 10
269.5384428991
 20
233.3268967634
  0
LWPOLYLINE
  5
517
100
AcDbEntity
  8
0
100
AcDbPolyline
 62
7
  6
CONTINUOUS
 90
10
 70
0
 10
269.9778660483
 20
233.4319169567
 10
269.9673438215
 20
233.4374894176
 10
269.9472320867
 20
233.4498491511
 10
269.9271989924
 20
233.4644282425
 10
269.9074030065
 20
233.4811163691
 10
269.8878947404
 20
233.4998730987
 10
269.8688817707
 20
233.5207000633
 10
269.8505476642
 20
233.5435647776
 10
269.8329919866
 20
233.5683340497
 10
269.8163336198
 20
233.5948686117
  0
LWPOLYLINE
  5
518
100
AcDbEntity
  8
0
100
AcDbPolyline
 62
250
  6
CONTINUOUS
 90
13
 70
0
 10
271.9344987003
 20
233.3481248697
 10
271.953752022
 20
233.3379102157
 10
271.9750079439
 20
233.3288957348
 10
271.9979245989
 20
233.3214024629
 10
272.022141038
 20
233.3158788502
 10
272.047262098
 20
233.3124602109
 10
272.0728559508
 20
233.3107915115
 10
272.0984922104
 20
233.3106980406
 10
272.1237552834
 20
233.3123528585
 10
272.148228528
 20
233.3157286989
 10
272.1715083368
 20
233.3207699097
 10
272.193210791
 20
233.3273933755
 10
272.2129779688
 20
233.3354898853
  0
LWPOLYLINE
  5
519
100
AcDbEntity
  8
0
100
AcDbPolyline
 62
250
  6
CONTINUOUS
 90
4
 70
0
 10
269.2995448434
 20
233.7616457857
 10
269.3296800968
 20
233.7444933597
 10
269.3588474253
 20
233.7242453024
 10
269.387046829
 20
233.7009016136
  0
LWPOLYLINE
  5
51A
100
AcDbEntity
  8
0
100
AcDbPolyline
 62
250
  6
CONTINUOUS
 90
7
 70
0
 10
269.5823767861
 20
233.2738328431
 10
269.5695062393
 20
233.2811654859
 10
269.5586482131
 20
233.2892714226
 10
269.549986436
 20
233.2980134932
 10
269.5436674733
 20
233.3072437734
 10
269.539798248
 20
233.316806078
 10
269.5384428033
 20
233.3268658517
  0
LWPOLYLINE
  5
51B
100
AcDbEntity
  8
0
100
AcDbPolyline
 62
250
  6
CONTINUOUS
 90
3
 70
0
 10
270.1744196959
 20
233.3336401325
 10
270.1612838378
 20
233.3420053438
 10
270.1498189057
 20
233.3530818856
  0
LWPOLYLINE
  5
51C
100
AcDbEntity
  8
0
100
AcDbPolyline
 62
7
  6
CONTINUOUS
 90
8
 70
0
 10
271.1074039814
 20
233.6361303552
 10
271.1069170132
 20
233.6365181831
 10
271.1055386692
 20
233.6390497485
 10
271.1041657699
 20
233.6436680549
 10
271.1028601141
 20
233.6502700904
 10
271.1014890129
 20
233.6588547736
 10
271.1000366259
 20
233.6694027659
 10
271.0985958744
 20
233.6817393146
  0
LINE
  5
51D
100
AcDbEntity
  8
0
100
AcDbLine
 62
7
  6
CONTINUOUS
 10
285.7195835023
 20
245.557563486
 11
285.7222934987
 21
245.5095541617
  0
LWPOLYLINE
  5
51E
100
AcDbEntity
  8
0
100
AcDbPolyline
 62
7
  6
CONTINUOUS
 90
8
 70
0
 10
285.2173839582
 20
245.1874886378
 10
285.2160041288
 20
245.2387801472
 10
285.2105953911
 20
245.3021896239
 10
285.2010819027
 20
245.3670844656
 10
285.1874942962
 20
245.4332797154
 10
285.1698460128
 20
245.5005314686
 10
285.14810444
 20
245.5686759101
 10
285.1231370332
 20
245.6353526262
  0
LWPOLYLINE
  5
51F
100
AcDbEntity
  8
0
100
AcDbPolyline
 62
250
  6
CONTINUOUS
 90
10
 70
0
 10
284.9879835586
 20
244.776749583
 10
284.987571759
 20
244.7960816835
 10
284.9858065519
 20
244.8159332459
 10
284.9827013665
 20
244.8361532462
 10
284.9782798267
 20
244.8565878572
 10
284.9725755697
 20
244.8770816198
 10
284.9656319906
 20
244.8974786255
 10
284.9575019132
 20
244.9176237013
 10
284.9482471887
 20
244.9373635901
 10
284.9379382237
 20
244.9565481176
  0
LINE
  5
520
100
AcDbEntity
  8
0
100
AcDbLine
 62
250
  6
CONTINUOUS
 10
284.9879835586
 20
244.776749583
 11
284.9879835586
 21
244.1489113652
  0
LINE
  5
521
100
AcDbEntity
  8
0
100
AcDbLine
 62
250
  6
CONTINUOUS
 10
286.5081447671
 20
246.5213137244
 11
286.5081447671
 21
246.1999894422
  0
LINE
  5
522
100
AcDbEntity
  8
0
100
AcDbLine
 62
7
  6
CONTINUOUS
 10
285.2173831968
 20
245.1879940514
 11
285.2173831993
 21
244.435576444
  0
LWPOLYLINE
  5
523
100
AcDbEntity
  8
0
100
AcDbPolyline
 62
7
  6
CONTINUOUS
 90
9
 70
0
 10
269.5861450937
 20
197.3593769976
 10
269.5783108846
 20
197.349207378
 10
269.564346826
 20
197.3282516631
 10
269.5521622971
 20
197.3058160422
 10
269.5419186724
 20
197.2820234365
 10
269.534016647
 20
197.2577818455
 10
269.5284571653
 20
197.2333308908
 10
269.5251706038
 20
197.2081556131
 10
269.5243081409
 20
197.1871298371
  0
LWPOLYLINE
  5
524
100
AcDbEntity
  8
0
100
AcDbPolyline
 62
250
  6
CONTINUOUS
 90
19
 70
0
 10
269.6709663988
 20
197.3482849101
 10
269.6635252194
 20
197.3389513799
 10
269.6561152257
 20
197.329009144
 10
269.648777245
 20
197.3184560785
 10
269.6415407991
 20
197.3072712001
 10
269.6344688528
 20
197.2954844157
 10
269.627650259
 20
197.2831829267
 10
269.6211300211
 20
197.2703899159
 10
269.6149551916
 20
197.2571345867
 10
269.6092048483
 20
197.2435297168
 10
269.6039186522
 20
197.2296169718
 10
269.5991362592
 20
197.2154422832
 10
269.5949182151
 20
197.2011354948
 10
269.5912923824
 20
197.1867503437
 10
269.5882848211
 20
197.1723416093
 10
269.5859305042
 20
197.1580432987
 10
269.5842430443
 20
197.1439361333
 10
269.5832263701
 20
197.1300490832
 10
269.582886616
 20
197.1164364539
  0
LINE
  5
525
100
AcDbEntity
  8
0
100
AcDbLine
 62
7
  6
CONTINUOUS
 10
270.2198513519
 20
198.1435468345
 11
269.5861216737
 21
197.3593483099
  0
LINE
  5
526
100
AcDbEntity
  8
0
100
AcDbLine
 62
250
  6
CONTINUOUS
 10
270.2788850619
 20
198.1005440121
 11
269.6709663988
 21
197.3482849101
  0
LINE
  5
527
100
AcDbEntity
  8
0
100
AcDbLine
 62
7
  6
CONTINUOUS
 10
269.4651329436
 20
208.3034467516
 11
268.7800500225
 21
208.0158767684
  0
LWPOLYLINE
  5
528
100
AcDbEntity
  8
0
100
AcDbPolyline
 62
7
  6
CONTINUOUS
 90
6
 70
0
 10
270.2439994857
 20
233.3117678769
 10
270.2687577123
 20
233.3096354265
 10
270.2937090993
 20
233.3102288309
 10
270.3184545793
 20
233.3135098818
 10
270.3426425294
 20
233.3193639737
 10
270.3663359789
 20
233.3277601571
  0
LINE
  5
529
100
AcDbEntity
  8
0
100
AcDbLine
 62
7
  6
CONTINUOUS
 10
270.2189381679
 20
233.316804814
 11
270.2439994857
 21
233.3117678769
  0
LINE
  5
52A
100
AcDbEntity
  8
0
100
AcDbLine
 62
7
  6
CONTINUOUS
 10
270.196643057
 20
233.3239097456
 11
270.2189381679
 21
233.316804814
  0
LINE
  5
52B
100
AcDbEntity
  8
0
100
AcDbLine
 62
7
  6
CONTINUOUS
 10
270.1966422808
 20
233.3239076737
 11
270.1963528614
 21
233.3240169506
  0
LWPOLYLINE
  5
52C
100
AcDbEntity
  8
0
100
AcDbPolyline
 62
7
  6
CONTINUOUS
 90
8
 70
0
 10
271.984316669
 20
233.1976740671
 10
272.00652266
 20
233.188199653
 10
272.0315567644
 20
233.1810616282
 10
272.0573021813
 20
233.1772357846
 10
272.0833236536
 20
233.176785531
 10
272.109179601
 20
233.1797172422
 10
272.1344305085
 20
233.1859791997
 10
272.1499435549
 20
233.1916323479
  0
LWPOLYLINE
  5
52D
100
AcDbEntity
  8
0
100
AcDbPolyline
 62
250
  6
CONTINUOUS
 90
4
 70
0
 10
253.783825308
 20
242.185804855
 10
253.7731657848
 20
242.1904446865
 10
253.7486754487
 20
242.1967003482
 10
253.7223661175
 20
242.1978171292
  0
LWPOLYLINE
  5
52E
100
AcDbEntity
  8
0
100
AcDbPolyline
 62
250
  6
CONTINUOUS
 90
4
 70
0
 10
268.4813214963
 20
234.8370569032
 10
268.4705112659
 20
234.8417720396
 10
268.4460206421
 20
234.8480279163
 10
268.4197108465
 20
234.8491447647
  0
LWPOLYLINE
  5
52F
100
AcDbEntity
  8
0
100
AcDbPolyline
 62
250
  6
CONTINUOUS
 90
13
 70
0
 10
271.9345205679
 20
233.3502700631
 10
271.9538437505
 20
233.3417784358
 10
271.9751871054
 20
233.334597241
 10
271.9981974979
 20
233.3288452956
 10
272.0224942116
 20
233.3246177689
 10
272.047675246
 20
233.3219846084
 10
272.0733239682
 20
233.3209893818
 10
272.0990160081
 20
233.3216485557
 10
272.1243262786
 20
233.3239512246
 10
272.1488360069
 20
233.3278592908
 10
272.1721396671
 20
233.3333080935
 10
272.1938516898
 20
233.3402074791
 10
272.2136128393
 20
233.3484432936
  0
LWPOLYLINE
  5
530
100
AcDbEntity
  8
0
100
AcDbPolyline
 62
250
  6
CONTINUOUS
 90
11
 70
0
 10
257.5241725615
 20
240.7504819634
 10
257.4711179148
 20
240.7743667175
 10
257.4183724957
 20
240.793280528
 10
257.3662345099
 20
240.8071196291
 10
257.3150008217
 20
240.8158096743
 10
257.2649580714
 20
240.8193024987
 10
257.2163810905
 20
240.8175762655
 10
257.1695421159
 20
240.8106411343
 10
257.1247058013
 20
240.7985373843
 10
257.0821205007
 20
240.7813315229
 10
257.0654112144
 20
240.772847662
  0
LWPOLYLINE
  5
531
100
AcDbEntity
  8
0
100
AcDbPolyline
 62
250
  6
CONTINUOUS
 90
5
 70
0
 10
268.4197108465
 20
234.8491447647
 10
268.4460447359
 20
234.8372488946
 10
268.4711058664
 20
234.8239776521
 10
268.4948509276
 20
234.8095434457
 10
268.5172375032
 20
234.7941723442
  0
LWPOLYLINE
  5
532
100
AcDbEntity
  8
0
100
AcDbPolyline
 62
250
  6
CONTINUOUS
 90
6
 70
0
 10
257.350481045
 20
240.4471628291
 10
257.3107169483
 20
240.4651978007
 10
257.271542226
 20
240.4794025037
 10
257.2329568782
 20
240.489776938
 10
257.1947312641
 20
240.4963476215
 10
257.1572872184
 20
240.4990740422
  0
LWPOLYLINE
  5
533
100
AcDbEntity
  8
0
100
AcDbPolyline
 62
7
  6
CONTINUOUS
 90
6
 70
0
 10
253.783825308
 20
242.185804855
 10
253.7720656008
 20
242.1914736663
 10
253.7294465308
 20
242.2087011166
 10
253.6861073183
 20
242.2211431132
 10
253.6424363513
 20
242.2287001823
 10
253.6337292763
 20
242.2296190508
  0
LINE
  5
534
100
AcDbEntity
  8
0
100
AcDbLine
 62
250
  6
CONTINUOUS
 10
269.7699280463
 20
234.627604221
 11
257.5241725615
 21
240.7504819634
  0
LINE
  5
535
100
AcDbEntity
  8
0
100
AcDbLine
 62
250
  6
CONTINUOUS
 10
256.6329086567
 20
241.209934003
 11
257.2778500681
 21
240.8874632973
  0
LINE
  5
536
100
AcDbEntity
  8
0
100
AcDbLine
 62
250
  6
CONTINUOUS
 10
271.058290189
 20
233.9972432369
 11
271.8694438367
 21
233.591666413
  0
LINE
  5
537
100
AcDbEntity
  8
0
100
AcDbLine
 62
250
  6
CONTINUOUS
 10
256.9143261799
 20
241.3813571554
 11
257.5781146429
 21
241.049462924
  0
LINE
  5
538
100
AcDbEntity
  8
0
100
AcDbLine
 62
250
  6
CONTINUOUS
 10
271.1383046014
 20
234.2693679447
 11
271.8108651929
 21
233.9330876489
  0
LINE
  5
539
100
AcDbEntity
  8
0
100
AcDbLine
 62
7
  6
CONTINUOUS
 10
260.8916445048
 20
239.6837869397
 11
261.2467469579
 21
239.5062357131
  0
LINE
  5
53A
100
AcDbEntity
  8
0
100
AcDbLine
 62
7
  6
CONTINUOUS
 10
267.2556055355
 20
236.5018064243
 11
267.6107079885
 21
236.3242551978
  0
LINE
  5
53B
100
AcDbEntity
  8
0
100
AcDbLine
 62
7
  6
CONTINUOUS
 10
257.9655706037
 20
241.7971461546
 11
258.4837331466
 21
241.5380648831
  0
LINE
  5
53C
100
AcDbEntity
  8
0
100
AcDbLine
 62
7
  6
CONTINUOUS
 10
259.1598997263
 20
241.6329942952
 11
259.9961391087
 21
241.214874604
  0
LINE
  5
53D
100
AcDbEntity
  8
0
100
AcDbLine
 62
7
  6
CONTINUOUS
 10
270.6275337282
 20
235.8991772942
 11
271.4637731105
 21
235.4810576031
  0
LINE
  5
53E
100
AcDbEntity
  8
0
100
AcDbLine
 62
7
  6
CONTINUOUS
 10
271.8118779623
 20
235.6560806229
 11
267.7722311372
 21
237.6759040354
  0
LINE
  5
53F
100
AcDbEntity
  8
0
100
AcDbLine
 62
7
  6
CONTINUOUS
 10
267.1980396611
 20
237.9629997735
 11
261.4082701065
 21
240.8578845508
  0
LINE
  5
540
100
AcDbEntity
  8
0
100
AcDbLine
 62
7
  6
CONTINUOUS
 10
260.8340786304
 20
241.1449802888
 11
256.7944318053
 21
243.1648037014
  0
LINE
  5
541
100
AcDbEntity
  8
0
100
AcDbLine
 62
250
  6
CONTINUOUS
 10
271.8694438367
 20
235.7094831272
 11
267.6107079885
 21
237.8388510513
  0
LINE
  5
542
100
AcDbEntity
  8
0
100
AcDbLine
 62
250
  6
CONTINUOUS
 10
267.2556055355
 20
238.0164022778
 11
261.2467469579
 21
241.0208315666
  0
LINE
  5
543
100
AcDbEntity
  8
0
100
AcDbLine
 62
250
  6
CONTINUOUS
 10
260.8916445048
 20
241.1983827931
 11
256.6329086567
 21
243.3277507172
  0
LWPOLYLINE
  5
544
100
AcDbEntity
  8
0
100
AcDbPolyline
 62
7
  6
CONTINUOUS
 90
13
 70
0
 10
261.4082213045
 20
240.8578147991
 10
261.4026336493
 20
240.8607045728
 10
261.3854728192
 20
240.8707556208
 10
261.3687126411
 20
240.8820370246
 10
261.3524389135
 20
240.8944691961
 10
261.3367760404
 20
240.908028467
 10
261.3217012932
 20
240.9224154731
 10
261.307261121
 20
240.9375892755
 10
261.2935493032
 20
240.9535010802
 10
261.2806042622
 20
240.969852269
 10
261.2684653437
 20
240.9865131238
 10
261.2571714004
 20
241.0035214104
 10
261.2467469579
 20
241.0208315666
  0
LWPOLYLINE
  5
545
100
AcDbEntity
  8
0
100
AcDbPolyline
 62
7
  6
CONTINUOUS
 90
13
 70
0
 10
267.7721823351
 20
237.6758342837
 10
267.76659468
 20
237.6787240574
 10
267.7494338499
 20
237.6887751054
 10
267.7326736718
 20
237.7000565092
 10
267.7163999442
 20
237.7124886808
 10
267.7007370711
 20
237.7260479516
 10
267.6856623239
 20
237.7404349577
 10
267.6712221517
 20
237.7556087602
 10
267.6575103338
 20
237.7715205648
 10
267.6445652929
 20
237.7878717536
 10
267.6324263743
 20
237.8045326085
 10
267.6211324311
 20
237.8215408951
 10
267.6107079885
 20
237.8388510513
  0
LWPOLYLINE
  5
546
100
AcDbEntity
  8
0
100
AcDbPolyline
 62
250
  6
CONTINUOUS
 90
16
 70
0
 10
257.5704156955
 20
244.3195442616
 10
257.5643175505
 20
244.3228827069
 10
257.5571958502
 20
244.327572668
 10
257.5503295909
 20
244.3330317305
 10
257.5437638127
 20
244.3392817331
 10
257.5375455315
 20
244.346340507
 10
257.531754972
 20
244.3541749256
 10
257.5264318805
 20
244.3627830267
 10
257.5216158278
 20
244.3721584925
 10
257.5173682508
 20
244.3822324704
 10
257.5137171458
 20
244.3929791526
 10
257.5106884392
 20
244.404369753
 10
257.5083175941
 20
244.4163054827
 10
257.5066183868
 20
244.4287193144
 10
257.5055945822
 20
244.4415861251
 10
257.505252315
 20
244.4548577438
  0
LWPOLYLINE
  5
547
100
AcDbEntity
  8
0
100
AcDbPolyline
 62
7
  6
CONTINUOUS
 90
11
 70
0
 10
256.7944322599
 20
243.164803474
 10
256.7738039774
 20
243.1763098073
 10
256.7549981323
 20
243.1888852949
 10
256.7367631912
 20
243.2029465768
 10
256.7193105165
 20
243.2182632115
 10
256.7026389966
 20
243.2347006374
 10
256.6867309365
 20
243.2520920181
 10
256.6718042735
 20
243.2702264237
 10
256.6579203881
 20
243.2889538169
 10
256.6449678602
 20
243.3081693394
 10
256.6329086567
 20
243.3277507172
  0
LWPOLYLINE
  5
548
100
AcDbEntity
  8
0
100
AcDbPolyline
 62
250
  6
CONTINUOUS
 90
8
 70
0
 10
256.5678319254
 20
243.8875887648
 10
256.5508486136
 20
243.8972503619
 10
256.5364861811
 20
243.9079220446
 10
256.5249822612
 20
243.9194272448
 10
256.5165271916
 20
243.9315756036
 10
256.5112608653
 20
243.9441661207
 10
256.5092704162
 20
243.9569904804
 10
256.5092532817
 20
243.9582994414
  0
LWPOLYLINE
  5
549
100
AcDbEntity
  8
0
100
AcDbPolyline
 62
250
  6
CONTINUOUS
 90
9
 70
0
 10
256.2833161451
 20
244.9630940268
 10
256.2738315718
 20
244.9685537359
 10
256.2597823342
 20
244.9797829279
 10
256.2475515275
 20
244.9938154465
 10
256.2373077135
 20
245.0104633863
 10
256.2291922967
 20
245.0294993549
 10
256.2233158335
 20
245.0506644902
 10
256.2197582861
 20
245.0736740544
 10
256.2185684606
 20
245.098217022
  0
LWPOLYLINE
  5
54A
100
AcDbEntity
  8
0
100
AcDbPolyline
 62
250
  6
CONTINUOUS
 90
13
 70
0
 10
257.6795501909
 20
244.9885399584
 10
257.6977021231
 20
244.9776752245
 10
257.7155858053
 20
244.9640554362
 10
257.7328953611
 20
244.9479135416
 10
257.749334734
 20
244.929525626
 10
257.7646227506
 20
244.9092061899
 10
257.77849793
 20
244.8873027699
 10
257.790722956
 20
244.8641899945
 10
257.801088736
 20
244.8402631764
 10
257.8094179773
 20
244.8159315518
 10
257.8155682195
 20
244.7916112801
 10
257.8194342709
 20
244.767718327
 10
257.8209500079
 20
244.744661349
  0
LWPOLYLINE
  5
54B
100
AcDbEntity
  8
0
100
AcDbPolyline
 62
250
  6
CONTINUOUS
 90
3
 70
0
 10
269.6359671418
 20
238.2878705892
 10
269.6440653354
 20
238.2828170905
 10
269.6476332298
 20
238.2809354844
  0
LINE
  5
54C
100
AcDbEntity
  8
0
100
AcDbLine
 62
7
  6
CONTINUOUS
 10
261.9430123329
 20
243.9322768702
 11
261.6541911221
 21
244.140484972
  0
LINE
  5
54D
100
AcDbEntity
  8
DRAFT
100
AcDbLine
 62
7
  6
CONTINUOUS
 10
287.1908549651
 20
246.0996187434
 11
287.1908549651
 21
246.5326314453
  0
LINE
  5
54E
100
AcDbEntity
  8
0
100
AcDbLine
 62
7
  6
CONTINUOUS
 10
288.1583186775
 20
245.2634886322
 11
288.1583186775
 21
244.7976138658
  0
LINE
  5
54F
100
AcDbEntity
  8
RACCORDO
100
AcDbLine
 62
250
  6
CONTINUOUS
 10
288.5756518584
 20
245.992603856
 11
288.5756518584
 21
246.4513354222
  0
LINE
  5
550
100
AcDbEntity
  8
0
100
AcDbLine
 62
7
  6
CONTINUOUS
 10
288.6080633389
 20
245.1417407991
 11
288.6080633389
 21
244.7885552453
  0
LINE
  5
551
100
AcDbEntity
  8
RACCORDO
100
AcDbLine
 62
250
  6
CONTINUOUS
 10
288.7166647798
 20
245.9935341341
 11
288.7166647798
 21
246.4623313193
  0
LWPOLYLINE
  5
552
100
AcDbEntity
  8
0
100
AcDbPolyline
 62
250
  6
CONTINUOUS
 90
10
 70
0
 10
270.9582154724
 20
196.7045719986
 10
270.9410043303
 20
196.6822047307
 10
270.9252188316
 20
196.658196198
 10
270.911072798
 20
196.6328693704
 10
270.8987568795
 20
196.6065634892
 10
270.888440616
 20
196.5796355107
 10
270.8802683469
 20
196.5524556991
 10
270.8743516068
 20
196.5253939621
 10
270.8707693796
 20
196.4988145107
 10
270.8695704715
 20
196.4730771762
  0
LWPOLYLINE
  5
553
100
AcDbEntity
  8
0
100
AcDbPolyline
 62
250
  6
CONTINUOUS
 90
10
 70
0
 10
271.1679097441
 20
196.5180557726
 10
271.1643532498
 20
196.5134935957
 10
271.1611650654
 20
196.5087348355
 10
271.1583451909
 20
196.5037794921
 10
271.1558653648
 20
196.4985552676
 10
271.1537538486
 20
196.4931344599
 10
271.1520954265
 20
196.487733962
 10
271.1509183601
 20
196.4824260716
 10
271.1501943878
 20
196.477138491
 10
271.1499235097
 20
196.4718712203
  0
LINE
  5
554
100
AcDbEntity
  8
0
100
AcDbLine
 62
250
  6
CONTINUOUS
 10
271.5877855959
 20
197.4460937451
 11
270.958214723
 21
196.704572379
  0
LINE
  5
555
100
AcDbEntity
  8
0
100
AcDbLine
 62
250
  6
CONTINUOUS
 10
271.8693728857
 20
197.3442533135
 11
271.1679097441
 21
196.5180557726
  0
LINE
  5
556
100
AcDbEntity
  8
DRAFT
100
AcDbLine
 62
7
  6
CONTINUOUS
 10
273.1607216896
 20
199.1255417584
 11
273.8863447135
 21
199.9698370276
  0
LWPOLYLINE
  5
557
100
AcDbEntity
  8
0
100
AcDbPolyline
 62
250
  6
CONTINUOUS
 90
13
 70
0
 10
269.4651329436
 20
203.9485035476
 10
269.449829867
 20
203.9395605901
 10
269.4272148593
 20
203.9226556905
 10
269.4053876888
 20
203.9025851074
 10
269.384720169
 20
203.8796907317
 10
269.3655643589
 20
203.8543625559
 10
269.3482465664
 20
203.8270320312
 10
269.3330617899
 20
203.7981647174
 10
269.3202686935
 20
203.7682523524
 10
269.3100851999
 20
203.7378044761
 10
269.3026847793
 20
203.7073397504
 10
269.2981934934
 20
203.6773771244
 10
269.2966878489
 20
203.6484269942
  0
LWPOLYLINE
  5
558
100
AcDbEntity
  8
0
100
AcDbPolyline
 62
7
  6
CONTINUOUS
 90
12
 70
0
 10
269.2927139702
 20
203.9637299698
 10
269.2668295437
 20
203.9489470664
 10
269.2410550205
 20
203.9305759669
 10
269.2171318829
 20
203.9094867718
 10
269.1953551112
 20
203.8859049309
 10
269.175772948
 20
203.8597908595
 10
269.1586387339
 20
203.8312877194
 10
269.1442578325
 20
203.8006967399
 10
269.1327641318
 20
203.7680890341
 10
269.1243265802
 20
203.7335834321
 10
269.1191548416
 20
203.6974477836
 10
269.1174122405
 20
203.6599225926
  0
LINE
  5
559
100
AcDbEntity
  8
0
100
AcDbLine
 62
7
  6
CONTINUOUS
 10
269.7925285889
 20
206.1269974521
 11
268.7800500225
 21
205.5742556424
  0
LINE
  5
55A
100
AcDbEntity
  8
0
100
AcDbLine
 62
7
  6
CONTINUOUS
 10
269.6605431227
 20
205.9843988633
 11
268.7800500225
 21
205.5037117992
  0
LINE
  5
55B
100
AcDbEntity
  8
0
100
AcDbLine
 62
7
  6
CONTINUOUS
 10
269.5086973331
 20
205.8858672851
 11
269.7925285889
 21
206.0348661452
  0
LINE
  5
55C
100
AcDbEntity
  8
0
100
AcDbLine
 62
7
  6
CONTINUOUS
 10
269.2927695266
 20
203.9637700293
 11
269.4651329436
 21
204.0512950329
  0
LINE
  5
55D
100
AcDbEntity
  8
0
100
AcDbLine
 62
7
  6
CONTINUOUS
 10
271.8108651929
 20
205.9343658617
 11
271.2329767826
 21
205.6431935292
  0
LINE
  5
55E
100
AcDbEntity
  8
0
100
AcDbLine
 62
250
  6
CONTINUOUS
 10
270.4769271317
 20
206.9351681507
 11
271.091598132
 21
207.2298948299
  0
LINE
  5
55F
100
AcDbEntity
  8
0
100
AcDbLine
 62
250
  6
CONTINUOUS
 10
270.42417278
 20
206.5569921407
 11
271.0387388095
 21
206.851379365
  0
LWPOLYLINE
  5
560
100
AcDbEntity
  8
0
100
AcDbPolyline
 62
250
  6
CONTINUOUS
 90
13
 70
0
 10
270.4769271317
 20
206.9351680767
 10
270.4522603691
 20
206.9247116923
 10
270.4251004722
 20
206.9159348325
 10
270.3959018989
 20
206.9089843577
 10
270.36515322
 20
206.9039765682
 10
270.3333689436
 20
206.9009952576
 10
270.301080906
 20
206.9000903114
 10
270.2688293729
 20
206.9012768717
 10
270.2371539993
 20
206.9045350842
 10
270.2065847993
 20
206.9098104302
 10
270.1776332778
 20
206.917014639
 10
270.1507838717
 20
206.926027165
 10
270.1264858438
 20
206.9366972041
  0
LWPOLYLINE
  5
561
100
AcDbEntity
  8
0
100
AcDbPolyline
 62
250
  6
CONTINUOUS
 90
13
 70
0
 10
270.4241727091
 20
206.5569919111
 10
270.3995994722
 20
206.5472049185
 10
270.3726786627
 20
206.5401408635
 10
270.3438607286
 20
206.5359179521
 10
270.3136278695
 20
206.5346068508
 10
270.2824859501
 20
206.5362295036
 10
270.2509560342
 20
206.5407587697
 10
270.2195656976
 20
206.5481188754
 10
270.1888401887
 20
206.5581866777
 10
270.159293622
 20
206.5707937311
 10
270.1314203979
 20
206.5857290996
 10
270.1056869294
 20
206.6027428823
 10
270.0825238249
 20
206.6215503993
  0
LINE
  5
562
100
AcDbEntity
  8
0
100
AcDbLine
 62
250
  6
CONTINUOUS
 10
269.5132046679
 20
232.0195925879
 11
269.4811046613
 21
232.0140488579
  0
LWPOLYLINE
  5
563
100
AcDbEntity
  8
0
100
AcDbPolyline
 62
7
  6
CONTINUOUS
 90
6
 70
0
 10
269.4437476401
 20
232.0337683234
 10
269.4173652641
 20
232.0299484493
 10
269.386050049
 20
232.024078804
 10
269.3553116636
 20
232.0167595256
 10
269.3252391979
 20
232.0079096066
 10
269.2986005723
 20
231.9984690322
  0
LWPOLYLINE
  5
564
100
AcDbEntity
  8
0
100
AcDbPolyline
 62
250
  6
CONTINUOUS
 90
8
 70
0
 10
269.4811031702
 20
232.0140496035
 10
269.4689801861
 20
232.0123745457
 10
269.4571538164
 20
232.010465069
 10
269.4456240612
 20
232.0083211732
 10
269.4343789011
 20
232.0059398724
 10
269.4234303553
 20
232.0033241526
 10
269.412814482
 20
232.0004829721
 10
269.4025433004
 20
231.9974193171
  0
LWPOLYLINE
  5
565
100
AcDbEntity
  8
0
100
AcDbPolyline
 62
250
  6
CONTINUOUS
 90
7
 70
0
 10
269.7559717732
 20
238.9503291672
 10
269.7372180398
 20
238.9579172625
 10
269.7188272821
 20
238.9624346851
 10
269.7011140495
 20
238.963804172
 10
269.6843813027
 20
238.9620023017
 10
269.6689152328
 20
238.9570598944
 10
269.6635719134
 20
238.9544528261
  0
LWPOLYLINE
  5
566
100
AcDbEntity
  8
0
100
AcDbPolyline
 62
250
  6
CONTINUOUS
 90
13
 70
0
 10
257.505252315
 20
244.4548577438
 10
257.5246907371
 20
244.4463217125
 10
257.5461702618
 20
244.4391116918
 10
257.5693314789
 20
244.4333483247
 10
257.5937868388
 20
244.4291280479
 10
257.6191271376
 20
244.4265214779
 10
257.6449283641
 20
244.4255722296
 10
257.6707587942
 20
244.4262961865
 10
257.6961862155
 20
244.428681235
 10
257.7207851587
 20
244.4326874666
 10
257.7441440174
 20
244.4382478464
 10
257.7658719351
 20
244.4452693343
 10
257.7856053453
 20
244.4536344419
  0
LWPOLYLINE
  5
567
100
AcDbEntity
  8
0
100
AcDbPolyline
 62
250
  6
CONTINUOUS
 90
13
 70
0
 10
257.505252315
 20
244.6855240038
 10
257.5246907519
 20
244.6769879668
 10
257.5461702913
 20
244.6697779431
 10
257.5693315216
 20
244.6640145756
 10
257.5937868924
 20
244.6597943003
 10
257.6191271987
 20
244.6571877334
 10
257.6449284281
 20
244.6562384891
 10
257.6707588562
 20
244.6569624501
 10
257.696186271
 20
244.6593475019
 10
257.7207852037
 20
244.6633537354
 10
257.7441440488
 20
244.668914115
 10
257.765871951
 20
244.6759356001
 10
257.7856053453
 20
244.6843007019
  0
LWPOLYLINE
  5
568
100
AcDbEntity
  8
0
100
AcDbPolyline
 62
250
  6
CONTINUOUS
 90
13
 70
0
 10
271.9345205679
 20
236.2042444435
 10
271.9538425718
 20
236.1957532469
 10
271.9751847735
 20
236.1885722589
 10
271.9981941498
 20
236.1828203256
 10
272.0224900708
 20
236.1785926574
 10
272.0476706097
 20
236.1759592489
 10
272.0733191931
 20
236.1749637225
 10
272.0990115033
 20
236.1756226083
 10
272.1243223969
 20
236.1779250641
 10
272.1488329618
 20
236.1818330308
 10
272.172137584
 20
236.1872818733
 10
272.193850651
 20
236.1941814698
 10
272.2136128392
 20
236.2024176853
  0
LWPOLYLINE
  5
569
100
AcDbEntity
  8
0
100
AcDbPolyline
 62
250
  6
CONTINUOUS
 90
16
 70
0
 10
267.6688868267
 20
240.5575913644
 10
267.6728298259
 20
240.5558334682
 10
267.6770134741
 20
240.5543220454
 10
267.6814377712
 20
240.5530570961
 10
267.6861549983
 20
240.5520309413
 10
267.6911128744
 20
240.55125126
 10
267.6961545566
 20
240.5507410887
 10
267.7012821177
 20
240.5505087864
 10
267.706493485
 20
240.550545994
 10
267.711625598
 20
240.550850671
 10
267.7166779083
 20
240.5514318902
 10
267.7216509644
 20
240.5522805786
 10
267.7263833515
 20
240.5533674772
 10
267.7308212647
 20
240.5546828328
 10
267.735018509
 20
240.5562363986
 10
267.7389750843
 20
240.5580281745
  0
LWPOLYLINE
  5
56A
100
AcDbEntity
  8
0
100
AcDbPolyline
 62
250
  6
CONTINUOUS
 90
16
 70
0
 10
267.4950859451
 20
240.2543268806
 10
267.5181930445
 20
240.2439078247
 10
267.5433212449
 20
240.2347541613
 10
267.5701973145
 20
240.2269622878
 10
267.5985247481
 20
240.2206152737
 10
267.6280023721
 20
240.2157770835
 10
267.658329515
 20
240.2124947027
 10
267.6891869418
 20
240.210803653
 10
267.7202386318
 20
240.2107232009
 10
267.751152017
 20
240.2122531641
 10
267.7815959311
 20
240.2153779582
 10
267.8112441371
 20
240.220064644
 10
267.8397789532
 20
240.2262616533
 10
267.866894641
 20
240.2339026631
 10
267.8923006788
 20
240.2429073011
 10
267.9157248556
 20
240.2531799128
  0
LWPOLYLINE
  5
56B
100
AcDbEntity
  8
0
100
AcDbPolyline
 62
7
  6
CONTINUOUS
 90
4
 70
0
 10
270.9347777413
 20
237.6373639665
 10
270.9437660122
 20
237.6331205336
 10
270.9655198693
 20
237.6248010573
 10
270.9874185026
 20
237.6189667546
  0
LWPOLYLINE
  5
56C
100
AcDbEntity
  8
0
100
AcDbPolyline
 62
7
  6
CONTINUOUS
 90
4
 70
0
 10
257.5704131047
 20
244.3195460113
 10
257.5765014315
 20
244.3166166971
 10
257.5996050196
 20
244.3074834268
 10
257.6230739645
 20
244.3011245506
  0
LINE
  5
56D
100
AcDbEntity
  8
0
100
AcDbLine
 62
250
  6
CONTINUOUS
 10
256.2185684516
 20
245.3287134656
 11
257.505252315
 21
244.6857161059
  0
LINE
  5
56E
100
AcDbEntity
  8
0
100
AcDbLine
 62
250
  6
CONTINUOUS
 10
258.2247016909
 20
243.3189616253
 11
270.2776508024
 21
237.2924870696
  0
LINE
  5
56F
100
AcDbEntity
  8
0
100
AcDbLine
 62
250
  6
CONTINUOUS
 10
258.4999491684
 20
243.4883255301
 11
270.2190721586
 21
237.628764035
  0
LINE
  5
570
100
AcDbEntity
  8
0
100
AcDbLine
 62
7
  6
CONTINUOUS
 10
261.7142639644
 20
242.1147925977
 11
267.4951953101
 21
239.2243269248
  0
LINE
  5
571
100
AcDbEntity
  8
0
100
AcDbLine
 62
7
  6
CONTINUOUS
 10
270.9347709577
 20
237.6373666205
 11
269.6476331187
 21
238.28093554
  0
LINE
  5
572
100
AcDbEntity
  8
0
100
AcDbLine
 62
7
  6
CONTINUOUS
 10
257.5704524017
 20
244.3195258985
 11
256.2833145662
 21
244.9630948163
  0
LINE
  5
573
100
AcDbEntity
  8
DRAFT
100
AcDbLine
 62
7
  6
CONTINUOUS
 10
273.8863447135
 20
236.2089293903
 11
273.855485876
 21
236.2243588091
  0
LINE
  5
574
100
AcDbEntity
  8
0
100
AcDbLine
 62
250
  6
CONTINUOUS
 10
257.505252315
 20
244.4548577438
 11
256.2185684516
 21
245.098217026
  0
LINE
  5
575
100
AcDbEntity
  8
0
100
AcDbLine
 62
250
  6
CONTINUOUS
 10
270.8695704794
 20
237.7727160056
 11
269.582886616
 21
238.4160405933
  0
LINE
  5
576
100
AcDbEntity
  8
0
100
AcDbLine
 62
250
  6
CONTINUOUS
 10
269.582886616
 20
238.6467068533
 11
270.8695704794
 21
238.0033649216
  0
LINE
  5
577
100
AcDbEntity
  8
0
100
AcDbLine
 62
7
  6
CONTINUOUS
 10
259.3575173607
 20
244.0456591489
 11
261.6263959987
 21
242.9112198299
  0
LINE
  5
578
100
AcDbEntity
  8
0
100
AcDbLine
 62
7
  6
CONTINUOUS
 10
268.4231062557
 20
239.5128647015
 11
269.6129421044
 21
238.9179467771
  0
LINE
  5
579
100
AcDbEntity
  8
0
100
AcDbLine
 62
7
  6
CONTINUOUS
 10
272.7218355251
 20
237.3635000667
 11
272.8075316362
 21
237.3206520112
  0
LINE
  5
57A
100
AcDbEntity
  8
0
100
AcDbLine
 62
250
  6
CONTINUOUS
 10
256.3916536088
 20
245.6324882494
 11
257.6795501909
 21
244.9885399584
  0
LINE
  5
57B
100
AcDbEntity
  8
0
100
AcDbLine
 62
250
  6
CONTINUOUS
 10
269.7559717732
 20
238.9503291672
 11
271.0438683553
 21
238.3063808761
  0
LINE
  5
57C
100
AcDbEntity
  8
0
100
AcDbLine
 62
250
  6
CONTINUOUS
 10
261.7142639644
 20
243.144737903
 11
267.4950859169
 21
240.2543269268
  0
LINE
  5
57D
100
AcDbEntity
  8
0
100
AcDbLine
 62
250
  6
CONTINUOUS
 10
261.8879554809
 20
243.4480570373
 11
267.6688868267
 21
240.5575913644
  0
LINE
  5
57E
100
AcDbEntity
  8
0
100
AcDbLine
 62
7
  6
CONTINUOUS
 10
273.5019863333
 20
237.6654149142
 11
272.7718329258
 21
238.030491618
  0
LINE
  5
57F
100
AcDbEntity
  8
0
100
AcDbLine
 62
7
  6
CONTINUOUS
 10
261.5021675752
 20
243.6653242932
 11
259.4075147613
 21
244.7126507002
  0
LINE
  5
580
100
AcDbEntity
  8
0
100
AcDbLine
 62
7
  6
CONTINUOUS
 10
268.2463564843
 20
240.8136751524
 11
262.3773163526
 21
243.7481952183
  0
LINE
  5
581
100
AcDbEntity
  8
0
100
AcDbLine
 62
7
  6
CONTINUOUS
 10
261.6541911221
 20
244.140484972
 11
261.9723891736
 21
243.9813859463
  0
LINE
  5
582
100
AcDbEntity
  8
0
100
AcDbLine
 62
7
  6
CONTINUOUS
 10
273.1767670628
 20
238.3791970017
 11
273.2729648346
 21
238.3310981158
  0
LWPOLYLINE
  5
583
100
AcDbEntity
  8
0
100
AcDbPolyline
 62
250
  6
CONTINUOUS
 90
13
 70
0
 10
259.8255547841
 20
246.0657031573
 10
259.8443085234
 20
246.0551392959
 10
259.8626992857
 20
246.041773015
 10
259.8804125215
 20
246.0258329294
 10
259.8971452702
 20
246.0075916742
 10
259.9126113404
 20
245.9873612441
 10
259.9265462053
 20
245.9654876573
 10
259.9387115285
 20
245.942345035
 10
259.9488992416
 20
245.9183292003
 10
259.9569351002
 20
245.8938509099
 10
259.9626816639
 20
245.8693288308
 10
259.9660406472
 20
245.8451823798
 10
259.9669546011
 20
245.8218245479
  0
LWPOLYLINE
  5
584
100
AcDbEntity
  8
0
100
AcDbPolyline
 62
250
  6
CONTINUOUS
 90
7
 70
0
 10
269.582886616
 20
238.4160405933
 10
269.5658145413
 20
238.4257598123
 10
269.5513944938
 20
238.4364995825
 10
269.5398677588
 20
238.4480801982
 10
269.5314272085
 20
238.460307884
 10
269.5262140751
 20
238.4729780374
 10
269.5243079791
 20
238.4867250408
  0
LWPOLYLINE
  5
585
100
AcDbEntity
  8
0
100
AcDbPolyline
 62
250
  6
CONTINUOUS
 90
7
 70
0
 10
269.582886616
 20
238.6467068533
 10
269.5658145534
 20
238.6564260643
 10
269.5513945121
 20
238.6671658267
 10
269.5398677779
 20
238.6787464352
 10
269.5314272242
 20
238.6909741152
 10
269.5262140842
 20
238.7036442646
 10
269.5243079812
 20
238.7173875332
  0
LWPOLYLINE
  5
586
100
AcDbEntity
  8
0
100
AcDbPolyline
 62
7
  6
CONTINUOUS
 90
13
 70
0
 10
259.3014503175
 20
245.8057434781
 10
259.3199015859
 20
245.7950309892
 10
259.3380439829
 20
245.7815426228
 10
259.3555629555
 20
245.7655067532
 10
259.3721541541
 20
245.7471949138
 10
259.3875325987
 20
245.726919804
 10
259.4014376992
 20
245.7050301194
 10
259.4136340312
 20
245.6819014923
 10
259.423910547
 20
245.6579283406
 10
259.4320883783
 20
245.6335199228
 10
259.4380287357
 20
245.6090944333
 10
259.4416350726
 20
245.5850717822
 10
259.4428501346
 20
245.5618648688
  0
LWPOLYLINE
  5
587
100
AcDbEntity
  8
0
100
AcDbPolyline
 62
7
  6
CONTINUOUS
 90
13
 70
0
 10
272.6657684819
 20
239.1235843959
 10
272.6842197503
 20
239.1128719069
 10
272.7023621474
 20
239.0993835406
 10
272.7198811199
 20
239.083347671
 10
272.7364723186
 20
239.0650358315
 10
272.7518507631
 20
239.0447607218
 10
272.7657558636
 20
239.0228710372
 10
272.7779521956
 20
238.9997424101
 10
272.7882287114
 20
238.9757692583
 10
272.7964065427
 20
238.9513608406
 10
272.8023469001
 20
238.9269353511
 10
272.8059532371
 20
238.9029127
 10
272.807168299
 20
238.8797057866
  0
LWPOLYLINE
  5
588
100
AcDbEntity
  8
0
100
AcDbPolyline
 62
250
  6
CONTINUOUS
 90
13
 70
0
 10
267.7389750843
 20
240.5580281745
 10
267.7616649995
 20
240.5444472572
 10
267.7840196019
 20
240.5274225217
 10
267.8056565459
 20
240.5072451533
 10
267.8262057609
 20
240.4842602585
 10
267.8453157802
 20
240.4588609631
 10
267.862659753
 20
240.4314816876
 10
267.8779410334
 20
240.4025907174
 10
267.8908982562
 20
240.3726821938
 10
267.9013098074
 20
240.3422676626
 10
267.9089976118
 20
240.3118673236
 10
267.9138301794
 20
240.2820011333
 10
267.9157248556
 20
240.2531799128
  0
LINE
  5
589
100
AcDbEntity
  8
0
100
AcDbLine
 62
7
  6
CONTINUOUS
 10
262.0049956189
 20
243.961418658
 11
261.9723891736
 21
243.9813859463
  0
LINE
  5
58A
100
AcDbEntity
  8
0
100
AcDbLine
 62
7
  6
CONTINUOUS
 10
280.8841688734
 20
239.0305939409
 11
279.7428150999
 21
240.9991380081
  0
LINE
  5
58B
100
AcDbEntity
  8
0
100
AcDbLine
 62
7
  6
CONTINUOUS
 10
290.5203007456
 20
248.5627135171
 11
290.5203007456
 21
248.1548622499
  0
LINE
  5
58C
100
AcDbEntity
  8
0
100
AcDbLine
 62
7
  6
CONTINUOUS
 10
271.8483229379
 20
201.0525848922
 11
271.8694438367
 21
201.0684669758
  0
LWPOLYLINE
  5
58D
100
AcDbEntity
  8
0
100
AcDbPolyline
 62
7
  6
CONTINUOUS
 90
9
 70
0
 10
270.2776508024
 20
198.9594393535
 10
270.2635182378
 20
198.9493389154
 10
270.2513517191
 20
198.9399466159
 10
270.2411305429
 20
198.931443766
 10
270.2326554252
 20
198.9240076907
 10
270.2260551392
 20
198.9178093835
 10
270.2216909904
 20
198.9129043219
 10
270.2194610882
 20
198.9093436342
 10
270.2190151508
 20
198.9077083406
  0
LINE
  5
58E
100
AcDbEntity
  8
0
100
AcDbLine
 62
7
  6
CONTINUOUS
 10
273.3021430458
 20
203.110691429
 11
272.9132343162
 21
202.8876309094
  0
LINE
  5
58F
100
AcDbEntity
  8
0
100
AcDbLine
 62
7
  6
CONTINUOUS
 10
273.3021430458
 20
203.2023068548
 11
270.4020754894
 21
201.6190747328
  0
LINE
  5
590
100
AcDbEntity
  8
0
100
AcDbLine
 62
7
  6
CONTINUOUS
 10
271.091598132
 20
201.917215878
 11
270.4769271317
 21
201.5816489117
  0
LINE
  5
591
100
AcDbEntity
  8
0
100
AcDbLine
 62
7
  6
CONTINUOUS
 10
273.0193003334
 20
202.9344481309
 11
273.3021430458
 21
203.0844593929
  0
LINE
  5
592
100
AcDbEntity
  8
0
100
AcDbLine
 62
250
  6
CONTINUOUS
 10
269.5409337102
 20
202.1659717954
 11
269.4047281226
 21
202.0951993307
  0
LINE
  5
593
100
AcDbEntity
  8
0
100
AcDbLine
 62
250
  6
CONTINUOUS
 10
270.9788556715
 20
203.8847357615
 11
270.364260122
 21
203.5858301137
  0
LINE
  5
594
100
AcDbEntity
  8
0
100
AcDbLine
 62
250
  6
CONTINUOUS
 10
271.0167464897
 20
203.5217032828
 11
270.4020754893
 21
203.2231726789
  0
LINE
  5
595
100
AcDbEntity
  8
0
100
AcDbLine
 62
250
  6
CONTINUOUS
 10
268.7800500225
 20
204.0410340102
 11
269.4651329436
 21
204.3646257779
  0
LINE
  5
596
100
AcDbEntity
  8
0
100
AcDbLine
 62
7
  6
CONTINUOUS
 10
268.7800500225
 20
203.9155871825
 11
269.4651329436
 21
204.2391789502
  0
LINE
  5
597
100
AcDbEntity
  8
0
100
AcDbLine
 62
250
  6
CONTINUOUS
 10
269.2057865516
 20
203.2785541672
 11
268.7800500225
 21
203.0819349297
  0
LINE
  5
598
100
AcDbEntity
  8
0
100
AcDbLine
 62
7
  6
CONTINUOUS
 10
269.0553877237
 20
202.8722884327
 11
268.7800500225
 21
202.745128358
  0
LWPOLYLINE
  5
599
100
AcDbEntity
  8
0
100
AcDbPolyline
 62
250
  6
CONTINUOUS
 90
8
 70
0
 10
269.5174100757
 20
202.0885869865
 10
269.5082586515
 20
202.0844395797
 10
269.4927981182
 20
202.0798709736
 10
269.4763903202
 20
202.0778398729
 10
269.4591907684
 20
202.0783675299
 10
269.4413783043
 20
202.0814577449
 10
269.4231568553
 20
202.0870860785
 10
269.4047280025
 20
202.0951992747
  0
LWPOLYLINE
  5
59A
100
AcDbEntity
  8
0
100
AcDbPolyline
 62
250
  6
CONTINUOUS
 90
13
 70
0
 10
270.3642598661
 20
203.5858313837
 10
270.3396600335
 20
203.5747331211
 10
270.3126714061
 20
203.5643137453
 10
270.2837455762
 20
203.5547476007
 10
270.2533665507
 20
203.5461947544
 10
270.2220426526
 20
203.5387983187
 10
270.1902980148
 20
203.5326820558
 10
270.1586638106
 20
203.5279483071
 10
270.1276693654
 20
203.5246762811
 10
270.0978332994
 20
203.5229207275
 10
270.0696548504
 20
203.5227110214
 10
270.0436055195
 20
203.5240506717
 10
270.0201211821
 20
203.5269172625
  0
LWPOLYLINE
  5
59B
100
AcDbEntity
  8
0
100
AcDbPolyline
 62
250
  6
CONTINUOUS
 90
8
 70
0
 10
269.2928794925
 20
203.963825926
 10
269.3063534873
 20
203.9698550828
 10
269.3312016697
 20
203.9771981661
 10
269.3576084117
 20
203.9804843119
 10
269.3852847514
 20
203.9796777036
 10
269.4139274025
 20
203.974787154
 10
269.4432220795
 20
203.9658660101
 10
269.4651329436
 20
203.9563591016
  0
LWPOLYLINE
  5
59C
100
AcDbEntity
  8
0
100
AcDbPolyline
 62
250
  6
CONTINUOUS
 90
13
 70
0
 10
270.4020754893
 20
203.223171891
 10
270.3774087266
 20
203.2127155065
 10
270.3502488295
 20
203.2039386467
 10
270.3210502561
 20
203.1969881719
 10
270.2903015771
 20
203.1919803824
 10
270.2585173006
 20
203.1889990718
 10
270.2262292629
 20
203.1880941256
 10
270.1939777299
 20
203.189280686
 10
270.1623023563
 20
203.1925388985
 10
270.1317331564
 20
203.1978142445
 10
270.1027816351
 20
203.2050184534
 10
270.0759322292
 20
203.2140309792
 10
270.0516342015
 20
203.2247010183
  0
LINE
  5
59D
100
AcDbEntity
  8
0
100
AcDbLine
 62
7
  6
CONTINUOUS
 10
273.8863447135
 20
205.1988523823
 11
272.2136128393
 21
204.5097972359
  0
LWPOLYLINE
  5
59E
100
AcDbEntity
  8
RACCORDO
100
AcDbPolyline
 62
7
  6
CONTINUOUS
 90
7
 70
0
 10
295.8975455827
 20
240.5927654339
 10
295.8765736366
 20
240.5898757019
 10
295.8568082878
 20
240.5893132842
 10
295.8382495363
 20
240.5910781809
 10
295.8208973822
 20
240.5951703921
 10
295.8047518254
 20
240.6015899176
 10
295.7898128659
 20
240.6103367576
  0
LINE
  5
59F
100
AcDbEntity
  8
DRAFT
100
AcDbLine
 62
7
  6
CONTINUOUS
 10
273.855485876
 20
236.2243588091
 11
273.1607216896
 21
236.3646341211
  0
LINE
  5
5A0
100
AcDbEntity
  8
0
100
AcDbLine
 62
7
  6
CONTINUOUS
 10
270.9874752914
 20
237.6189474779
 11
271.6185649501
 21
237.4850734543
  0
LINE
  5
5A1
100
AcDbEntity
  8
0
100
AcDbLine
 62
250
  6
CONTINUOUS
 10
271.1679097441
 20
237.742659912
 11
271.8693728857
 21
237.5938574529
  0
LINE
  5
5A2
100
AcDbEntity
  8
DRAFT
100
AcDbLine
 62
7
  6
CONTINUOUS
 10
273.8863447135
 20
236.2089293903
 11
273.1607216896
 21
236.3646341211
  0
LWPOLYLINE
  5
5A3
100
AcDbEntity
  8
0
100
AcDbPolyline
 62
250
  6
CONTINUOUS
 90
9
 70
0
 10
256.8547539942
 20
244.3040993776
 10
256.8465401287
 20
244.3066550064
 10
256.8174374428
 20
244.3126565299
 10
256.7890443974
 20
244.3153990523
 10
256.7615713812
 20
244.3148544659
 10
256.7352316453
 20
244.311022148
 10
256.7102015725
 20
244.3039238585
 10
256.6866706748
 20
244.2936107577
 10
256.6785053308
 20
244.289068972
  0
LWPOLYLINE
  5
5A4
100
AcDbEntity
  8
0
100
AcDbPolyline
 62
250
  6
CONTINUOUS
 90
7
 70
0
 10
261.88734383
 20
243.4838438016
 10
261.863901672
 20
243.493328917
 10
261.8409132319
 20
243.4989756951
 10
261.8187716962
 20
243.5006875567
 10
261.7978557658
 20
243.4984352239
 10
261.7785231795
 20
243.4922572213
 10
261.7717230508
 20
243.4889332312
  0
LWPOLYLINE
  5
5A5
100
AcDbEntity
  8
0
100
AcDbPolyline
 62
7
  6
CONTINUOUS
 90
6
 70
0
 10
257.9579043549
 20
246.4775164594
 10
257.9394530866
 20
246.4852666839
 10
257.9213106895
 20
246.4899178215
 10
257.903791717
 20
246.4913923725
 10
257.8872005183
 20
246.4896674307
 10
257.8705652035
 20
246.4842062393
  0
LWPOLYLINE
  5
5A6
100
AcDbEntity
  8
0
100
AcDbPolyline
 62
250
  6
CONTINUOUS
 90
6
 70
0
 10
271.8649485821
 20
240.0460062583
 10
271.8467966498
 20
240.0538952366
 10
271.8289129676
 20
240.0586661893
 10
271.8116034118
 20
240.0602375156
 10
271.7951640389
 20
240.0585823401
 10
271.7788673089
 20
240.0532765185
  0
LWPOLYLINE
  5
5A7
100
AcDbEntity
  8
0
100
AcDbPolyline
 62
7
  6
CONTINUOUS
 90
10
 70
0
 10
258.6100006777
 20
246.7334288519
 10
258.5957284055
 20
246.7399623652
 10
258.5744985792
 20
246.7475243178
 10
258.5524561948
 20
246.7529037132
 10
258.529830326
 20
246.7560082427
 10
258.5067710692
 20
246.7567707069
 10
258.483508335
 20
246.7551312523
 10
258.460384788
 20
246.7510778747
 10
258.4376596557
 20
246.7446460633
 10
258.4145254345
 20
246.7354244883
  0
LWPOLYLINE
  5
5A8
100
AcDbEntity
  8
0
100
AcDbPolyline
 62
7
  6
CONTINUOUS
 90
11
 70
0
 10
271.9743047565
 20
240.0512771912
 10
271.9623912877
 20
240.0568141125
 10
271.9413488704
 20
240.0645901684
 10
271.9194726912
 20
240.0702140942
 10
271.8969897671
 20
240.0735891452
 10
271.8740571425
 20
240.074646904
 10
271.8509183207
 20
240.073329805
 10
271.8278930609
 20
240.0696241784
 10
271.8052005941
 20
240.063552112
 10
271.7830434858
 20
240.0551513909
 10
271.7788673646
 20
240.0532763968
  0
LWPOLYLINE
  5
5A9
100
AcDbEntity
  8
0
100
AcDbPolyline
 62
250
  6
CONTINUOUS
 90
13
 70
0
 10
271.974046356
 20
240.0514073138
 10
271.9727345232
 20
240.0520505906
 10
271.9642703834
 20
240.0556254946
 10
271.9554366595
 20
240.0583895279
 10
271.9462655837
 20
240.0603314776
 10
271.9367881349
 20
240.0614437014
 10
271.92704138
 20
240.0617209415
 10
271.9170597211
 20
240.0611618829
 10
271.9068788871
 20
240.0597682058
 10
271.896539733
 20
240.057545493
 10
271.8860807867
 20
240.0545028206
 10
271.8755378722
 20
240.0506515892
 10
271.8649485821
 20
240.0460062583
  0
LWPOLYLINE
  5
5AA
100
AcDbEntity
  8
0
100
AcDbPolyline
 62
250
  6
CONTINUOUS
 90
13
 70
0
 10
273.2982116471
 20
239.3893246682
 10
273.2969436323
 20
239.3899466975
 10
273.2885088694
 20
239.3935069278
 10
273.2797129926
 20
239.3962469169
 10
273.2705925943
 20
239.3981572851
 10
273.2611768617
 20
239.3992338566
 10
273.251497604
 20
239.3994741018
 10
273.2415894541
 20
239.3988777775
 10
273.2314884501
 20
239.39744765
 10
273.2212294208
 20
239.3951893689
 10
273.2108486939
 20
239.392111298
 10
273.2003840296
 20
239.3882247919
 10
273.1898729485
 20
239.3835440751
  0
LINE
  5
5AB
100
AcDbEntity
  8
0
100
AcDbLine
 62
250
  6
CONTINUOUS
 10
258.5005058899
 20
246.7281078294
 11
259.8257106494
 21
246.0657804677
  0
LINE
  5
5AC
100
AcDbEntity
  8
0
100
AcDbLine
 62
7
  6
CONTINUOUS
 10
273.4949651144
 20
238.4436271923
 11
273.2177213781
 21
238.5822490604
  0
LINE
  5
5AD
100
AcDbEntity
  8
0
100
AcDbLine
 62
7
  6
CONTINUOUS
 10
261.9723891736
 20
244.2049151626
 11
261.6541911221
 21
244.3640141884
  0
LINE
  5
5AE
100
AcDbEntity
  8
0
100
AcDbLine
 62
7
  6
CONTINUOUS
 10
272.6657684819
 20
239.1235843959
 11
271.3222225194
 21
239.7953573772
  0
LINE
  5
5AF
100
AcDbEntity
  8
0
100
AcDbLine
 62
7
  6
CONTINUOUS
 10
259.3014503175
 20
245.8057434781
 11
257.9579043549
 21
246.4775164594
  0
LINE
  5
5B0
100
AcDbEntity
  8
0
100
AcDbLine
 62
7
  6
CONTINUOUS
 10
268.6705936291
 20
241.2935468316
 11
263.3672927702
 21
243.945197261
  0
LINE
  5
5B1
100
AcDbEntity
  8
0
100
AcDbLine
 62
250
  6
CONTINUOUS
 10
271.8649485821
 20
240.0460062583
 11
273.1898729485
 21
239.3835440751
  0
LINE
  5
5B2
100
AcDbEntity
  8
0
100
AcDbLine
 62
7
  6
CONTINUOUS
 10
258.6097281147
 20
246.7335664344
 11
259.9339693137
 21
246.0714457918
  0
LINE
  5
5B3
100
AcDbEntity
  8
0
100
AcDbLine
 62
7
  6
CONTINUOUS
 10
273.2983254438
 20
239.3892676726
 11
271.9740462384
 21
240.0514073726
  0
LWPOLYLINE
  5
5B4
100
AcDbEntity
  8
RACCORDO
100
AcDbPolyline
 62
250
  6
CONTINUOUS
 90
10
 70
0
 10
296.0424070456
 20
244.8978253289
 10
296.0397006926
 20
244.8629537396
 10
296.0303504801
 20
244.8244147419
 10
296.0143917279
 20
244.7864221042
 10
295.9919432094
 20
244.7492585877
 10
295.9631719983
 20
244.7132007825
 10
295.9282922249
 20
244.6785170498
 10
295.8875634828
 20
244.6454655242
 10
295.8412888966
 20
244.6142921922
 10
295.7898128659
 20
244.5852290621
  0
LINE
  5
5B5
100
AcDbEntity
  8
0
100
AcDbLine
 62
7
  6
CONTINUOUS
 10
279.7428150999
 20
204.1724004283
 11
280.8841688734
 21
204.9995907221
  0
LINE
  5
5B6
100
AcDbEntity
  8
DRAFT
100
AcDbLine
 62
7
  6
CONTINUOUS
 10
287.4387412708
 20
208.8252677913
 11
286.6860471869
 21
208.2797566142
  0
LINE
  5
5B7
100
AcDbEntity
  8
0
100
AcDbLine
 62
7
  6
CONTINUOUS
 10
279.7428150999
 20
204.1724004283
 11
279.7183001399
 21
204.1574048737
  0
LWPOLYLINE
  5
5B8
100
AcDbEntity
  8
RACCORDO
100
AcDbPolyline
 62
7
  6
CONTINUOUS
 90
3
 70
0
 10
295.031306171
 20
212.8403411795
 10
295.0876980164
 20
212.8745331914
 10
295.1000374844
 20
212.8832415328
  0
LWPOLYLINE
  5
5B9
100
AcDbEntity
  8
0
100
AcDbPolyline
 62
250
  6
CONTINUOUS
 90
13
 70
0
 10
270.2061777145
 20
200.890138987
 10
270.2495267745
 20
200.9138803374
 10
270.2869090074
 20
200.9409728534
 10
270.3214187244
 20
200.9728201842
 10
270.3528614785
 20
201.0092438784
 10
270.3810616374
 20
201.0500404492
 10
270.4058639474
 20
201.0949830311
 10
270.4271268615
 20
201.1438190342
 10
270.4447306395
 20
201.1962752471
 10
270.4585816324
 20
201.2520611234
 10
270.4686018849
 20
201.3108649095
 10
270.4747296793
 20
201.3723553023
 10
270.4769271317
 20
201.4361870339
  0
LINE
  5
5BA
100
AcDbEntity
  8
0
100
AcDbLine
 62
7
  6
CONTINUOUS
 10
273.8863447135
 20
202.4010757108
 11
272.2136128393
 21
201.5027675789
  0
LINE
  5
5BB
100
AcDbEntity
  8
RACCORDO
100
AcDbLine
 62
7
  6
CONTINUOUS
 10
295.031306171
 20
212.8403411795
 11
287.4387412708
 21
208.8252677913
  0
LINE
  5
5BC
100
AcDbEntity
  8
DRAFT
100
AcDbLine
 62
7
  6
CONTINUOUS
 10
286.6860471869
 20
208.2797566142
 11
281.1700970265
 21
205.3628313076
  0
LINE
  5
5BD
100
AcDbEntity
  8
RACCORDO
100
AcDbLine
 62
250
  6
CONTINUOUS
 10
295.450849382
 20
213.14440297
 11
281.2634774407
 21
205.6562757595
  0
LINE
  5
5BE
100
AcDbEntity
  8
RACCORDO
100
AcDbLine
 62
250
  6
CONTINUOUS
 10
295.7898128659
 20
213.9771669926
 11
281.3278050123
 21
206.4892432272
  0
LINE
  5
5BF
100
AcDbEntity
  8
0
100
AcDbLine
 62
250
  6
CONTINUOUS
 10
279.7428150999
 20
204.1724004283
 11
273.8863447135
 21
201.1600964031
  0
LINE
  5
5C0
100
AcDbEntity
  8
0
100
AcDbLine
 62
7
  6
CONTINUOUS
 10
279.7183320117
 20
204.1573418518
 11
273.8863447135
 21
201.157630822
  0
LINE
  5
5C1
100
AcDbEntity
  8
0
100
AcDbLine
 62
250
  6
CONTINUOUS
 10
273.9385391489
 20
202.2396123963
 11
281.2983666637
 21
206.0171900637
  0
LINE
  5
5C2
100
AcDbEntity
  8
0
100
AcDbLine
 62
250
  6
CONTINUOUS
 10
273.8863447135
 20
201.4078184674
 11
280.8841688734
 21
204.9995907221
  0
LINE
  5
5C3
100
AcDbEntity
  8
0
100
AcDbLine
 62
250
  6
CONTINUOUS
 10
273.0193003334
 20
202.8682428404
 11
272.9859490088
 21
202.8512735631
  0
LINE
  5
5C4
100
AcDbEntity
  8
0
100
AcDbLine
 62
250
  6
CONTINUOUS
 10
270.4769271317
 20
201.4361870339
 11
271.091598132
 21
201.7200624714
  0
LINE
  5
5C5
100
AcDbEntity
  8
0
100
AcDbLine
 62
7
  6
CONTINUOUS
 10
270.2053510066
 20
200.889755965
 11
271.1707700037
 21
201.3356184508
  0
LWPOLYLINE
  5
5C6
100
AcDbEntity
  8
0
100
AcDbPolyline
 62
7
  6
CONTINUOUS
 90
4
 70
0
 10
271.2681098814
 20
239.8092332903
 10
271.285620302
 20
239.8077544633
 10
271.3037598059
 20
239.8031018791
 10
271.3222225194
 20
239.7953573772
  0
LINE
  5
5C7
100
AcDbEntity
  8
0
100
AcDbLine
 62
250
  6
CONTINUOUS
 10
253.7223661175
 20
242.1978171292
 11
253.5370762334
 21
242.2151722414
  0
LINE
  5
5C8
100
AcDbEntity
  8
0
100
AcDbLine
 62
7
  6
CONTINUOUS
 10
253.479236586
 20
242.2440920651
 11
253.6336710771
 21
242.2296267789
  0
LWPOLYLINE
  5
5C9
100
AcDbEntity
  8
0
100
AcDbPolyline
 62
250
  6
CONTINUOUS
 90
5
 70
0
 10
253.6336710771
 20
242.2296267789
 10
253.6532034264
 20
242.2266285804
 10
253.6756592808
 20
242.2203992193
 10
253.6987725503
 20
242.2108736723
 10
253.7223661175
 20
242.1978171292
  0
LINE
  5
5CA
100
AcDbEntity
  8
0
100
AcDbLine
 62
250
  6
CONTINUOUS
 10
258.5050547213
 20
244.2760165351
 11
257.8035915797
 21
244.4248189942
  0
LINE
  5
5CB
100
AcDbEntity
  8
0
100
AcDbLine
 62
7
  6
CONTINUOUS
 10
257.6230739021
 20
244.3011242458
 11
258.2542467857
 21
244.1672325365
  0
LWPOLYLINE
  5
5CC
100
AcDbEntity
  8
0
100
AcDbPolyline
 62
250
  6
CONTINUOUS
 90
19
 70
0
 10
257.8035915797
 20
244.4248189942
 10
257.8020569712
 20
244.4251890662
 10
257.8005464913
 20
244.4257036442
 10
257.79906014
 20
244.4263627283
 10
257.7975856712
 20
244.4271622526
 10
257.7961353309
 20
244.4281062831
 10
257.7947458575
 20
244.429207017
 10
257.7934183309
 20
244.4304697616
 10
257.7921516712
 20
244.4318892097
 10
257.7909793768
 20
244.4334616366
 10
257.7899039924
 20
244.4351925138
 10
257.7889229733
 20
244.4370763698
 10
257.7880621832
 20
244.4390930656
 10
257.7873253781
 20
244.4412473014
 10
257.7867088019
 20
244.4435343769
 10
257.786227051
 20
244.4459200526
 10
257.7858849906
 20
244.4483929155
 10
257.7856777553
 20
244.4509643785
 10
257.7856053453
 20
244.4536344419
  0
LWPOLYLINE
  5
5CD
100
AcDbEntity
  8
0
100
AcDbPolyline
 62
250
  6
CONTINUOUS
 90
13
 70
0
 10
273.5426796592
 20
243.4406904922
 10
273.5661200101
 20
243.4274868189
 10
273.5891070527
 20
243.4107803953
 10
273.6112476475
 20
243.3908567919
 10
273.632163086
 20
243.3680566424
 10
273.6514956292
 20
243.342769759
 10
273.6689146119
 20
243.3154284482
 10
273.6841220483
 20
243.2865001712
 10
273.6968576658
 20
243.2564797252
 10
273.7069034547
 20
243.2258807189
 10
273.7140874808
 20
243.195226591
 10
273.7182867841
 20
243.1650416429
 10
273.719429434
 20
243.1358422322
  0
LWPOLYLINE
  5
5CE
100
AcDbEntity
  8
0
100
AcDbPolyline
 62
7
  6
CONTINUOUS
 90
6
 70
0
 10
279.7541838944
 20
245.6219926745
 10
279.7234590615
 20
245.6590808286
 10
279.6836013429
 20
245.6973846448
 10
279.6371860465
 20
245.7337954513
 10
279.5842131723
 20
245.7683132482
 10
279.5246827203
 20
245.8009380354
  0
LWPOLYLINE
  5
5CF
100
AcDbEntity
  8
0
100
AcDbPolyline
 62
7
  6
CONTINUOUS
 90
8
 70
0
 10
285.1231386092
 20
245.6353345959
 10
285.1098488158
 20
245.6661534705
 10
285.0846474554
 20
245.7153185027
 10
285.0556339719
 20
245.7620141736
 10
285.0230866704
 20
245.8058726058
 10
284.9874893711
 20
245.8463570689
 10
284.9491723478
 20
245.8832058751
 10
284.9375514775
 20
245.893218068
  0
LINE
  5
5D0
100
AcDbEntity
  8
0
100
AcDbLine
 62
250
  6
CONTINUOUS
 10
286.0935672554
 20
247.5968922646
 11
286.5081447671
 21
246.5213137244
  0
LWPOLYLINE
  5
5D1
100
AcDbEntity
  8
0
100
AcDbPolyline
 62
250
  6
CONTINUOUS
 90
19
 70
0
 10
285.0194387341
 20
245.6343033521
 10
285.037968817
 20
245.585941166
 10
285.0540039449
 20
245.5372120728
 10
285.0675441178
 20
245.4881160724
 10
285.0788049018
 20
245.4380725705
 10
285.0875707308
 20
245.3876621616
 10
285.0931949064
 20
245.3386266288
 10
285.0954313887
 20
245.2910536507
 10
285.0945262176
 20
245.2448555488
 10
285.0905708139
 20
245.201511071
 10
285.0834087889
 20
245.1613544758
 10
285.0731965314
 20
245.1240515048
 10
285.0604946282
 20
245.0900781299
 10
285.0453115564
 20
245.0596138688
 10
285.0276388389
 20
245.0324792039
 10
285.0080116314
 20
245.0086115544
 10
284.9866083189
 20
244.98799006
 10
284.9632505163
 20
244.9706355811
 10
284.9379382237
 20
244.9565481176
  0
LINE
  5
5D2
100
AcDbEntity
  8
0
100
AcDbLine
 62
7
  6
CONTINUOUS
 10
287.6528490953
 20
245.0212486765
 11
287.4513497374
 21
245.6169731023
  0
LWPOLYLINE
  5
5D3
100
AcDbEntity
  8
RACCORDO
100
AcDbPolyline
 62
7
  6
CONTINUOUS
 90
10
 70
0
 10
296.0424070456
 20
244.8978253289
 10
296.0386021495
 20
245.0117630252
 10
296.0274560605
 20
245.1250272222
 10
296.0093177353
 20
245.2374144956
 10
295.9843626342
 20
245.3491512724
 10
295.9528156347
 20
245.4597834399
 10
295.9151943685
 20
245.568089829
 10
295.8718931331
 20
245.6735738
 10
295.8229403514
 20
245.7765006806
 10
295.7684083059
 20
245.8767450903
  0
LINE
  5
5D4
100
AcDbEntity
  8
RACCORDO
100
AcDbLine
 62
250
  6
CONTINUOUS
 10
295.7898128659
 20
244.5852290621
 11
295.7898128659
 21
240.6103367576
  0
LINE
  5
5D5
100
AcDbEntity
  8
RACCORDO
100
AcDbLine
 62
250
  6
CONTINUOUS
 10
295.7898128659
 20
238.9098740687
 11
295.7898128659
 21
213.9771669926
  0
LINE
  5
5D6
100
AcDbEntity
  8
RACCORDO
100
AcDbLine
 62
7
  6
CONTINUOUS
 10
296.0424070074
 20
238.6534701654
 11
296.0424070456
 21
214.2897632593
  0
LINE
  5
5D7
100
AcDbEntity
  8
RACCORDO
100
AcDbLine
 62
7
  6
CONTINUOUS
 10
296.0424070456
 20
244.8978253289
 11
296.0424068918
 21
241.4911100291
  0
LWPOLYLINE
  5
5D8
100
AcDbEntity
  8
RACCORDO
100
AcDbPolyline
 62
250
  6
CONTINUOUS
 90
29
 70
0
 10
296.0424068918
 20
241.4911100291
 10
296.0420784368
 20
241.447419492
 10
296.0408721208
 20
241.3956935426
 10
296.0388411622
 20
241.3453764321
 10
296.0360348081
 20
241.2964769186
 10
296.0325056044
 20
241.2490113642
 10
296.0283046647
 20
241.2029810143
 10
296.0234554036
 20
241.1583711456
 10
296.0179993473
 20
241.115196935
 10
296.0119729543
 20
241.0734554517
 10
296.0053666987
 20
241.0331059659
 10
295.9982036837
 20
240.9941210988
 10
295.9905097304
 20
240.9565393771
 10
295.9822544573
 20
240.9204217186
 10
295.9734458428
 20
240.8857222339
 10
295.9641018866
 20
240.852499512
 10
295.9541879885
 20
240.8209744859
 10
295.9437067577
 20
240.7911161904
 10
295.9326676204
 20
240.762970743
 10
295.9210324921
 20
240.7368779844
 10
295.9087891808
 20
240.712820887
 10
295.8959515357
 20
240.6908352475
 10
295.8825142414
 20
240.6713421986
 10
295.8684647821
 20
240.6544051446
 10
295.8538192282
 20
240.6399806058
 10
295.838619092
 20
240.6283283276
 10
295.8228852485
 20
240.6195397951
 10
295.8066135954
 20
240.6135398597
 10
295.7898128659
 20
240.6103367576
  0
LWPOLYLINE
  5
5D9
100
AcDbEntity
  8
RACCORDO
100
AcDbPolyline
 62
250
  6
CONTINUOUS
 90
11
 70
0
 10
296.0424070456
 20
214.2897632593
 10
296.0416044059
 20
214.2707625541
 10
296.0356218526
 20
214.2346104975
 10
296.0238348634
 20
214.1988168437
 10
296.0063200344
 20
214.163614193
 10
295.9831911835
 20
214.1292313048
 10
295.9545986102
 20
214.0958916119
 10
295.9207281196
 20
214.0638117679
 10
295.8817998145
 20
214.0332002395
 10
295.8380666653
 20
214.0042559515
 10
295.7898128659
 20
213.9771669943
  0
LWPOLYLINE
  5
5DA
100
AcDbEntity
  8
RACCORDO
100
AcDbPolyline
 62
250
  6
CONTINUOUS
 90
11
 70
0
 10
295.5506634027
 20
213.2338918995
 10
295.5947753142
 20
213.2872292721
 10
295.6347664094
 20
213.3459986324
 10
295.6704655379
 20
213.4099482704
 10
295.7017199603
 20
213.4788044113
 10
295.7283958324
 20
213.5522719929
 10
295.7503790463
 20
213.6300365272
 10
295.7675756438
 20
213.7117657097
 10
295.7799119382
 20
213.7971098839
 10
295.7873349679
 20
213.8857034195
 10
295.7898128659
 20
213.9771669926
  0
LWPOLYLINE
  5
5DB
100
AcDbEntity
  8
RACCORDO
100
AcDbPolyline
 62
250
  6
CONTINUOUS
 90
3
 70
0
 10
295.450849382
 20
213.14440297
 10
295.5026195334
 20
213.1862150467
 10
295.5506634027
 20
213.2338918995
  0
LWPOLYLINE
  5
5DC
100
AcDbEntity
  8
RACCORDO
100
AcDbPolyline
 62
7
  6
CONTINUOUS
 90
13
 70
0
 10
295.5179602167
 20
213.1861288896
 10
295.5925149409
 20
213.2448524681
 10
295.6633077897
 20
213.3104668638
 10
295.7296832311
 20
213.3827884316
 10
295.7909438614
 20
213.4614627282
 10
295.8465721367
 20
213.5462231804
 10
295.8962152484
 20
213.6370338317
 10
295.9394164184
 20
213.7337309861
 10
295.97559574
 20
213.8357587609
 10
296.0043250944
 20
213.942682269
 10
296.0252609285
 20
214.0542087804
 10
296.0380657443
 20
214.1700218494
 10
296.0424070456
 20
214.2897632592
  0
LINE
  5
5DD
100
AcDbEntity
  8
RACCORDO
100
AcDbLine
 62
250
  6
CONTINUOUS
 10
295.450849382
 20
213.14440297
 11
295.031306171
 21
212.8403411795
  0
LINE
  5
5DE
100
AcDbEntity
  8
RACCORDO
100
AcDbLine
 62
7
  6
CONTINUOUS
 10
295.5179602167
 20
213.1861288895
 11
295.0999382286
 21
212.8831695976
  0
LWPOLYLINE
  5
5DF
100
AcDbEntity
  8
RACCORDO
100
AcDbPolyline
 62
250
  6
CONTINUOUS
 90
3
 70
0
 10
295.5179602167
 20
213.1861288895
 10
295.4996717562
 20
213.1734242595
 10
295.450849382
 20
213.14440297
  0
LWPOLYLINE
  5
5E0
100
AcDbEntity
  8
0
100
AcDbPolyline
 62
250
  6
CONTINUOUS
 90
7
 70
0
 10
273.3654047095
 20
197.561097928
 10
273.3821346458
 20
197.5709644312
 10
273.3961774867
 20
197.5818281959
 10
273.4072982364
 20
197.5935074563
 10
273.415310789
 20
197.6058067983
 10
273.420081043
 20
197.6185204294
 10
273.4215367427
 20
197.6305377482
  0
LWPOLYLINE
  5
5E1
100
AcDbEntity
  8
0
100
AcDbPolyline
 62
250
  6
CONTINUOUS
 90
7
 70
0
 10
273.3654047095
 20
197.3077568735
 10
273.3821349247
 20
197.3176235786
 10
273.3961779004
 20
197.3284875375
 10
273.40729866
 20
197.3401669668
 10
273.4153111233
 20
197.3524664384
 10
273.4200812202
 20
197.3651801491
 10
273.4215367495
 20
197.3772227106
  0
LWPOLYLINE
  5
5E2
100
AcDbEntity
  8
0
100
AcDbPolyline
 62
7
  6
CONTINUOUS
 90
12
 70
0
 10
273.2822773998
 20
197.1401900476
 10
273.2935343064
 20
197.146652305
 10
273.3158239738
 20
197.1619869787
 10
273.3367385068
 20
197.1799901567
 10
273.3559530088
 20
197.2004591646
 10
273.3727404543
 20
197.2225053064
 10
273.3874058182
 20
197.2463955363
 10
273.399880817
 20
197.2722184502
 10
273.4095157548
 20
197.2986706104
 10
273.4163183427
 20
197.3254190616
 10
273.420410917
 20
197.353211145
 10
273.4215362742
 20
197.3772498809
  0
LWPOLYLINE
  5
5E3
100
AcDbEntity
  8
0
100
AcDbPolyline
 62
250
  6
CONTINUOUS
 90
28
 70
0
 10
273.3312727656
 20
197.246789867
 10
273.3329478205
 20
197.2477293376
 10
273.3346553882
 20
197.2488089149
 10
273.3363954687
 20
197.250028599
 10
273.3381788487
 20
197.2513886607
 10
273.3399947415
 20
197.2528888291
 10
273.341810787
 20
197.2545282916
 10
273.3436277764
 20
197.256312204
 10
273.3454449186
 20
197.2582354105
 10
273.3472274796
 20
197.2602816304
 10
273.3489748788
 20
197.262455693
 10
273.3506876968
 20
197.2647527691
 10
273.3523329422
 20
197.2671420901
 10
273.3539079395
 20
197.2696257268
 10
273.3554153642
 20
197.2722016084
 10
273.3568302509
 20
197.274832754
 10
273.3581491608
 20
197.2775176565
 10
273.3593755326
 20
197.280257823
 10
273.3604947173
 20
197.2830207933
 10
273.3615048566
 20
197.2858055646
 10
273.3624078087
 20
197.2886131397
 10
273.3631944989
 20
197.2914140673
 10
273.3638637648
 20
197.2942083177
 10
273.3644167688
 20
197.2969959206
 10
273.3648479239
 20
197.2997475139
 10
273.365155368
 20
197.3024533101
 10
273.3653409632
 20
197.3051230966
 10
273.3654047095
 20
197.3077568735
  0
LINE
  5
5E4
100
AcDbEntity
  8
0
100
AcDbLine
 62
250
  6
CONTINUOUS
 10
273.1607216896
 20
198.7790656469
 11
273.855485876
 21
199.1539068645
  0
LINE
  5
5E5
100
AcDbEntity
  8
0
100
AcDbLine
 62
7
  6
CONTINUOUS
 10
273.0348676232
 20
198.5107496383
 11
273.7307464799
 21
198.8861922461
  0
LINE
  5
5E6
100
AcDbEntity
  8
0
100
AcDbLine
 62
250
  6
CONTINUOUS
 10
272.807168299
 20
196.9640234835
 11
273.3312727656
 21
197.246789867
  0
LINE
  5
5E7
100
AcDbEntity
  8
0
100
AcDbLine
 62
7
  6
CONTINUOUS
 10
272.7572725406
 20
196.8569376361
 11
273.2823695694
 21
197.1402395298
  0
LWPOLYLINE
  5
5E8
100
AcDbEntity
  8
0
100
AcDbPolyline
 62
250
  6
CONTINUOUS
 90
16
 70
0
 10
267.0064304549
 20
196.9610927057
 10
266.9674220896
 20
196.9422784694
 10
266.9251102083
 20
196.9255925345
 10
266.8799481194
 20
196.9112136975
 10
266.8324196718
 20
196.8992960379
 10
266.7830340847
 20
196.8899672696
 10
266.732320494
 20
196.8833273691
 10
266.6808222537
 20
196.8794475013
 10
266.6290911414
 20
196.8783692609
 10
266.5776814615
 20
196.8801042223
 10
266.5271440485
 20
196.8846338154
 10
266.4780204041
 20
196.8919095251
 10
266.4308369195
 20
196.9018534027
 10
266.3860991733
 20
196.9143589094
 10
266.3442865183
 20
196.9292920653
 10
266.3058469816
 20
196.9464928748
  0
LINE
  5
5E9
100
AcDbEntity
  8
0
100
AcDbLine
 62
7
  6
CONTINUOUS
 10
273.0348635962
 20
198.5107474656
 11
273.0171791981
 21
198.5023625875
  0
LWPOLYLINE
  5
5EA
100
AcDbEntity
  8
0
100
AcDbPolyline
 62
250
  6
CONTINUOUS
 90
12
 70
0
 10
272.0667113967
 20
198.1108327259
 10
272.0824236755
 20
198.1181611497
 10
272.1046294883
 20
198.131779493
 10
272.1250061424
 20
198.1483755528
 10
272.1435219175
 20
198.1678722132
 10
272.1602496973
 20
198.1904071671
 10
272.1749930396
 20
198.2158783267
 10
272.187591756
 20
198.2442022073
 10
272.198016763
 20
198.2757173523
 10
272.2060330246
 20
198.3105209872
 10
272.211316821
 20
198.3483390396
 10
272.2136128393
 20
198.3889854551
  0
LINE
  5
5EB
100
AcDbEntity
  8
0
100
AcDbLine
 62
250
  6
CONTINUOUS
 10
267.6876181145
 20
196.4607770302
 11
268.6512033653
 21
196.865250979
  0
LINE
  5
5EC
100
AcDbEntity
  8
0
100
AcDbLine
 62
7
  6
CONTINUOUS
 10
268.5099376116
 20
196.5893196894
 11
267.5337235398
 21
196.1795446993
  0
LINE
  5
5ED
100
AcDbEntity
  8
0
100
AcDbLine
 62
250
  6
CONTINUOUS
 10
272.2136128393
 20
198.3889854551
 11
273.1607216896
 21
198.7791318005
  0
LINE
  5
5EE
100
AcDbEntity
  8
0
100
AcDbLine
 62
7
  6
CONTINUOUS
 10
272.0664955974
 20
198.1107439857
 11
273.0171803758
 21
198.5023632226
  0
LWPOLYLINE
  5
5EF
100
AcDbEntity
  8
0
100
AcDbPolyline
 62
7
  6
CONTINUOUS
 90
4
 70
0
 10
262.3096755551
 20
243.7655401097
 10
262.3315635808
 20
243.763691576
 10
262.3542379608
 20
243.7578758457
 10
262.3773163526
 20
243.7481952183
  0
LWPOLYLINE
  5
5F0
100
AcDbEntity
  8
0
100
AcDbPolyline
 62
250
  6
CONTINUOUS
 90
12
 70
0
 10
257.6231571296
 20
244.3011065595
 10
257.6322552976
 20
244.2995427304
 10
257.6523965697
 20
244.2985844331
 10
257.6727453455
 20
244.300979345
 10
257.6929573028
 20
244.3066869395
 10
257.7126904334
 20
244.3156106349
 10
257.7316108331
 20
244.3275994295
 10
257.7493983529
 20
244.3424504588
 10
257.7657520137
 20
244.359912428
 10
257.7803950979
 20
244.3796898629
 10
257.7930798318
 20
244.4014481086
 10
257.8035915797
 20
244.4248189942
  0
LWPOLYLINE
  5
5F1
100
AcDbEntity
  8
0
100
AcDbPolyline
 62
250
  6
CONTINUOUS
 90
5
 70
0
 10
273.3522525801
 20
243.5342917962
 10
273.3291521971
 20
243.5439636339
 10
273.3063942799
 20
243.5497396702
 10
273.2843682228
 20
243.5515210755
 10
273.2634508977
 20
243.5492773695
  0
LWPOLYLINE
  5
5F2
100
AcDbEntity
  8
RACCORDO
100
AcDbPolyline
 62
7
  6
CONTINUOUS
 90
16
 70
0
 10
275.2563926244
 20
245.2448665066
 10
275.2334249014
 20
245.2551730927
 10
275.2090438268
 20
245.2641279326
 10
275.1832494006
 20
245.2717310263
 10
275.1557505798
 20
245.2780321971
 10
275.1268384073
 20
245.2829816216
 10
275.0973860122
 20
245.2864298306
 10
275.0673769141
 20
245.2883310273
 10
275.0368275935
 20
245.2887310083
 10
275.00666062
 20
245.2876176946
 10
274.9768876577
 20
245.2849449209
 10
274.9474970427
 20
245.2807588524
 10
274.9193763524
 20
245.2751859058
 10
274.8928214462
 20
245.2682682198
 10
274.8675364648
 20
245.2599636556
 10
274.8435214082
 20
245.2502722133
  0
LINE
  5
5F3
100
AcDbEntity
  8
0
100
AcDbLine
 62
7
  6
CONTINUOUS
 10
267.394304185
 20
247.3002151204
 11
268.2240504534
 21
246.8853419862
  0
LINE
  5
5F4
100
AcDbEntity
  8
0
100
AcDbLine
 62
7
  6
CONTINUOUS
 10
278.6486396965
 20
241.6730473647
 11
279.4928246192
 21
241.2509549033
  0
LINE
  5
5F5
100
AcDbEntity
  8
0
100
AcDbLine
 62
7
  6
CONTINUOUS
 10
275.3881207791
 20
243.4692651004
 11
270.9686906679
 21
245.678980156
  0
LINE
  5
5F6
100
AcDbEntity
  8
RACCORDO
100
AcDbLine
 62
7
  6
CONTINUOUS
 10
275.51230939
 20
245.1169081238
 11
275.2563926244
 21
245.2448665066
  0
LWPOLYLINE
  5
5F7
100
AcDbEntity
  8
RACCORDO
100
AcDbPolyline
 62
250
  6
CONTINUOUS
 90
15
 70
0
 10
276.1172385706
 20
246.0659639505
 10
276.1508205471
 20
246.0467208246
 10
276.1801371351
 20
246.0250974217
 10
276.2051883348
 20
246.001093742
 10
276.2261775269
 20
245.9744613933
 10
276.2429013306
 20
245.9454487677
 10
276.2547496037
 20
245.9148010413
 10
276.2616063973
 20
245.8824410936
 10
276.2635876604
 20
245.8484460451
 10
276.2604310975
 20
245.8137924329
 10
276.2519683583
 20
245.7784263443
 10
276.2383677931
 20
245.7424016919
 10
276.2198721584
 20
245.7068567509
 10
276.1965623728
 20
245.6721709464
 10
276.1683575176
 20
245.6379648534
  0
LWPOLYLINE
  5
5F8
100
AcDbEntity
  8
RACCORDO
100
AcDbPolyline
 62
250
  6
CONTINUOUS
 90
10
 70
0
 10
278.097137558
 20
245.0760144569
 10
278.1307195344
 20
245.0567713309
 10
278.1600361224
 20
245.035147928
 10
278.1850873221
 20
245.0111442483
 10
278.2060765142
 20
244.9845118996
 10
278.2228003179
 20
244.955499274
 10
278.234648591
 20
244.9248515476
 10
278.2415053846
 20
244.8924916
 10
278.2434866477
 20
244.8584965515
 10
278.2413350972
 20
244.8348762402
  0
LWPOLYLINE
  5
5F9
100
AcDbEntity
  8
RACCORDO
100
AcDbPolyline
 62
250
  6
CONTINUOUS
 90
9
 70
0
 10
276.0147982231
 20
245.8482483671
 10
276.0346793995
 20
245.8366343763
 10
276.0523411313
 20
245.8228898942
 10
276.0675927062
 20
245.8071252089
 10
276.08025729
 20
245.7894314464
 10
276.0902009858
 20
245.7699671614
 10
276.0973155989
 20
245.7489538093
 10
276.1014920156
 20
245.7264891962
 10
276.1026661878
 20
245.7057884689
  0
LWPOLYLINE
  5
5FA
100
AcDbEntity
  8
RACCORDO
100
AcDbPolyline
 62
250
  6
CONTINUOUS
 90
8
 70
0
 10
277.9946972104
 20
244.8582988734
 10
278.0145783868
 20
244.8466848826
 10
278.0322401186
 20
244.8329404006
 10
278.0474916935
 20
244.8171757152
 10
278.0601562773
 20
244.7994819528
 10
278.0700999731
 20
244.7800176677
 10
278.0772145862
 20
244.7590043157
 10
278.0776720754
 20
244.7565435176
  0
LWPOLYLINE
  5
5FB
100
AcDbEntity
  8
RACCORDO
100
AcDbPolyline
 62
250
  6
CONTINUOUS
 90
13
 70
0
 10
274.6707142782
 20
246.336510129
 10
274.6884252139
 20
246.325388253
 10
274.7064933273
 20
246.311983765
 10
274.7246150886
 20
246.2965218969
 10
274.7424860739
 20
246.2792624375
 10
274.7598060936
 20
246.2604953533
 10
274.7762842321
 20
246.2405359126
 10
274.7916437022
 20
246.2197194285
 10
274.8056265391
 20
246.1983955697
 10
274.8179979318
 20
246.1769224679
 10
274.8285501056
 20
246.155660792
 10
274.8371058263
 20
246.1349676927
 10
274.8435214098
 20
246.1151907424
  0
LWPOLYLINE
  5
5FC
100
AcDbEntity
  8
RACCORDO
100
AcDbPolyline
 62
250
  6
CONTINUOUS
 90
13
 70
0
 10
276.6506132655
 20
245.3465606353
 10
276.6683242012
 20
245.3354387594
 10
276.6863923146
 20
245.3220342713
 10
276.7045140759
 20
245.3065724033
 10
276.7223850613
 20
245.2893129439
 10
276.7397050809
 20
245.2705458596
 10
276.7561832194
 20
245.2505864189
 10
276.7715426895
 20
245.2297699348
 10
276.7855255264
 20
245.2084460761
 10
276.7978969191
 20
245.1869729743
 10
276.808449093
 20
245.1657112984
 10
276.8170048136
 20
245.145018199
 10
276.8234203971
 20
245.1252412488
  0
LINE
  5
5FD
100
AcDbEntity
  8
DRAFT
100
AcDbLine
 62
7
  6
CONTINUOUS
 10
287.4387412708
 20
242.7924800979
 11
286.6860471869
 21
244.090685359
  0
LINE
  5
5FE
100
AcDbEntity
  8
0
100
AcDbLine
 62
7
  6
CONTINUOUS
 10
272.7572730823
 20
196.8569379284
 11
272.7531076334
 21
196.8548549113
  0
LINE
  5
5FF
100
AcDbEntity
  8
0
100
AcDbLine
 62
250
  6
CONTINUOUS
 10
271.1852681724
 20
196.2149762571
 11
272.807168299
 21
196.9640234835
  0
LINE
  5
600
100
AcDbEntity
  8
0
100
AcDbLine
 62
7
  6
CONTINUOUS
 10
272.7531066317
 20
196.854854371
 11
271.1299653876
 21
196.1052344165
  0
LWPOLYLINE
  5
601
100
AcDbEntity
  8
0
100
AcDbPolyline
 62
250
  6
CONTINUOUS
 90
13
 70
0
 10
271.1499235097
 20
196.4718712203
 10
271.1301900995
 20
196.4635061127
 10
271.1084621818
 20
196.4564846248
 10
271.0851033231
 20
196.450924245
 10
271.0605043799
 20
196.4469180134
 10
271.0350769587
 20
196.4445329649
 10
271.0092465285
 20
196.443809008
 10
270.9834453021
 20
196.4447582563
 10
270.9581050032
 20
196.4473648263
 10
270.9336496433
 20
196.4515851031
 10
270.9104884263
 20
196.4573484702
 10
270.8890089015
 20
196.4645584909
 10
270.8695704794
 20
196.4730945222
  0
LWPOLYLINE
  5
602
100
AcDbEntity
  8
0
100
AcDbPolyline
 62
250
  6
CONTINUOUS
 90
13
 70
0
 10
271.1499235097
 20
196.2412049603
 10
271.1301901114
 20
196.2328398571
 10
271.1084622052
 20
196.2258183714
 10
271.0851033566
 20
196.2202579918
 10
271.0605044212
 20
196.2162517588
 10
271.0350770049
 20
196.2138667079
 10
271.0092465762
 20
196.2131427479
 10
270.9834453476
 20
196.2140919932
 10
270.9581050432
 20
196.2166985609
 10
270.9336496751
 20
196.2209188366
 10
270.9104884482
 20
196.2266822039
 10
270.8890089125
 20
196.2338922267
 10
270.8695704794
 20
196.2424282622
  0
LINE
  5
603
100
AcDbEntity
  8
RACCORDO
100
AcDbLine
 62
250
  6
CONTINUOUS
 10
282.3205871847
 20
247.0433893108
 11
282.2752027244
 21
247.0307253623
  0
LINE
  5
604
100
AcDbEntity
  8
0
100
AcDbLine
 62
7
  6
CONTINUOUS
 10
261.9723891736
 20
244.2049151626
 11
262.5167146942
 21
244.2020062363
  0
LWPOLYLINE
  5
605
100
AcDbEntity
  8
RACCORDO
100
AcDbPolyline
 62
7
  6
CONTINUOUS
 90
12
 70
0
 10
277.1085830226
 20
244.2927161781
 10
277.1067373946
 20
244.293032128
 10
277.0772849995
 20
244.296480337
 10
277.0472759015
 20
244.2983815336
 10
277.0167265808
 20
244.2987815147
 10
276.9865596073
 20
244.297668201
 10
276.9567866451
 20
244.2949954273
 10
276.92739603
 20
244.2908093588
 10
276.8992753397
 20
244.2852364121
 10
276.8727204335
 20
244.2783187261
 10
276.8474354521
 20
244.270014162
 10
276.8234203955
 20
244.2603227196
  0
LWPOLYLINE
  5
606
100
AcDbEntity
  8
RACCORDO
100
AcDbPolyline
 62
250
  6
CONTINUOUS
 90
8
 70
0
 10
276.1352575928
 20
245.6042384717
 10
276.1164329197
 20
245.6113845323
 10
276.0985792594
 20
245.615941184
 10
276.0819965153
 20
245.6178318848
 10
276.0669632425
 20
245.6170248749
 10
276.0537319679
 20
245.6135337103
 10
276.0425249488
 20
245.6074170353
 10
276.0384572218
 20
245.6040782319
  0
LWPOLYLINE
  5
607
100
AcDbEntity
  8
0
100
AcDbPolyline
 62
7
  6
CONTINUOUS
 90
7
 70
0
 10
275.9891488144
 20
247.5687049884
 10
275.9238992399
 20
247.5984702144
 10
275.8548636462
 20
247.6249566515
 10
275.7820420332
 20
247.6481642997
 10
275.7054344008
 20
247.668093159
 10
275.6250407492
 20
247.6847432294
 10
275.5408610783
 20
247.6981145109
  0
LINE
  5
608
100
AcDbEntity
  8
RACCORDO
100
AcDbLine
 62
250
  6
CONTINUOUS
 10
275.7001632722
 20
247.1703863678
 11
275.7035969436
 21
247.1687766804
  0
LINE
  5
609
100
AcDbEntity
  8
RACCORDO
100
AcDbLine
 62
250
  6
CONTINUOUS
 10
275.2563926244
 20
246.2274511664
 11
276.0147982231
 21
245.8482483671
  0
LINE
  5
60A
100
AcDbEntity
  8
RACCORDO
100
AcDbLine
 62
250
  6
CONTINUOUS
 10
277.2362916118
 20
245.2375016727
 11
277.9946972104
 21
244.8582988734
  0
LINE
  5
60B
100
AcDbEntity
  8
RACCORDO
100
AcDbLine
 62
250
  6
CONTINUOUS
 10
275.358832972
 20
246.4451667499
 11
276.1172385706
 21
246.0659639505
  0
LINE
  5
60C
100
AcDbEntity
  8
RACCORDO
100
AcDbLine
 62
250
  6
CONTINUOUS
 10
277.3387319593
 20
245.4552172562
 11
278.097137558
 21
245.0760144569
  0
LINE
  5
60D
100
AcDbEntity
  8
RACCORDO
100
AcDbLine
 62
7
  6
CONTINUOUS
 10
274.6456459309
 20
247.0455181311
 11
278.6631499638
 21
245.0367661147
  0
LINE
  5
60E
100
AcDbEntity
  8
RACCORDO
100
AcDbLine
 62
250
  6
CONTINUOUS
 10
279.2793836707
 20
245.3317091232
 11
275.615388343
 21
247.1637067871
  0
LINE
  5
60F
100
AcDbEntity
  8
RACCORDO
100
AcDbLine
 62
7
  6
CONTINUOUS
 10
279.3296320748
 20
245.3557591148
 11
275.7035969436
 21
247.1687766804
  0
LINE
  5
610
100
AcDbEntity
  8
0
100
AcDbLine
 62
7
  6
CONTINUOUS
 10
279.5246827203
 20
245.8009380354
 11
275.9891488144
 21
247.5687049884
  0
LWPOLYLINE
  5
611
100
AcDbEntity
  8
0
100
AcDbPolyline
 62
250
  6
CONTINUOUS
 90
10
 70
0
 10
284.9050025508
 20
245.7940054103
 10
284.9206520695
 20
245.7801240484
 10
284.9356342435
 20
245.7652206062
 10
284.9499490729
 20
245.7492950836
 10
284.9636848939
 20
245.7322724771
 10
284.9767533703
 20
245.7142277903
 10
284.9888894934
 20
245.6953860334
 10
285.0000049269
 20
245.6758222097
 10
285.0101880072
 20
245.655461316
 10
285.0194387341
 20
245.6343033521
  0
LWPOLYLINE
  5
612
100
AcDbEntity
  8
0
100
AcDbPolyline
 62
250
  6
CONTINUOUS
 90
9
 70
0
 10
284.9375864502
 20
245.8931886315
 10
284.9381354118
 20
245.8926870175
 10
284.9412997518
 20
245.886701689
 10
284.9417716291
 20
245.8776916341
 10
284.9395433236
 20
245.8658042583
 10
284.934651292
 20
245.8512340392
 10
284.9271755702
 20
245.8342193454
 10
284.9172384644
 20
245.8150385368
 10
284.9050025507
 20
245.7940054102
  0
LWPOLYLINE
  5
613
100
AcDbEntity
  8
0
100
AcDbPolyline
 62
250
  6
CONTINUOUS
 90
9
 70
0
 10
285.1231370332
 20
245.6353526262
 10
285.1198620605
 20
245.6395774692
 10
285.1134738223
 20
245.6428233023
 10
285.1041708374
 20
245.6447486829
 10
285.092075083
 20
245.6453283688
 10
285.077345154
 20
245.6445547628
 10
285.060174184
 20
245.6424380114
 10
285.0407873127
 20
245.6390058728
 10
285.019438734
 20
245.6343033521
  0
LINE
  5
614
100
AcDbEntity
  8
RACCORDO
100
AcDbLine
 62
7
  6
CONTINUOUS
 10
290.5111852869
 20
248.5866073182
 11
290.5203007456
 21
248.5627135171
  0
LINE
  5
615
100
AcDbEntity
  8
0
100
AcDbLine
 62
7
  6
CONTINUOUS
 10
278.2518905141
 20
248.4959088688
 11
276.6255449174
 21
248.2404564305
  0
LINE
  5
616
100
AcDbEntity
  8
RACCORDO
100
AcDbLine
 62
250
  6
CONTINUOUS
 10
281.8302714065
 20
246.808713393
 11
281.8140097146
 21
246.8077732022
  0
LWPOLYLINE
  5
617
100
AcDbEntity
  8
RACCORDO
100
AcDbPolyline
 62
7
  6
CONTINUOUS
 90
6
 70
0
 10
274.5894892204
 20
247.0596506781
 10
274.5991692307
 20
247.0593132642
 10
274.6095804272
 20
247.0578583936
 10
274.6207014669
 20
247.0551811671
 10
274.6325179078
 20
247.0512039906
 10
274.6449870565
 20
247.0458475683
  0
LWPOLYLINE
  5
618
100
AcDbEntity
  8
RACCORDO
100
AcDbPolyline
 62
250
  6
CONTINUOUS
 90
13
 70
0
 10
275.615388343
 20
247.1637067871
 10
275.545666113
 20
247.1772815319
 10
275.4749243141
 20
247.187545033
 10
275.4031629462
 20
247.1944972905
 10
275.3297235699
 20
247.1981476651
 10
275.2552646247
 20
247.1984867962
 10
275.1817614289
 20
247.1954866016
 10
275.1092369187
 20
247.1890420398
 10
275.037668158
 20
247.1792581525
 10
274.9689616568
 20
247.166421982
 10
274.9037529183
 20
247.1506292092
 10
274.8414064394
 20
247.1317841532
 10
274.78192222
 20
247.109886814
  0
LWPOLYLINE
  5
619
100
AcDbEntity
  8
RACCORDO
100
AcDbPolyline
 62
7
  6
CONTINUOUS
 90
13
 70
0
 10
275.6575835122
 20
247.1851190501
 10
275.5781598201
 20
247.2006534373
 10
275.4970373618
 20
247.212373792
 10
275.4147637426
 20
247.2202770433
 10
275.3319706811
 20
247.2243660068
 10
275.2490915104
 20
247.2246643039
 10
275.1663616804
 20
247.2211723086
 10
275.0843109341
 20
247.2138767109
 10
275.0034785025
 20
247.2027724119
 10
274.9240802993
 20
247.1877923591
 10
274.846529469
 20
247.16885551
 10
274.7714903589
 20
247.145927945
 10
274.7016494078
 20
247.1198266375
  0
LINE
  5
61A
100
AcDbEntity
  8
0
100
AcDbLine
 62
7
  6
CONTINUOUS
 10
288.6080633389
 20
245.1417407991
 11
288.1583186775
 21
245.2634886322
  0
LWPOLYLINE
  5
61B
100
AcDbEntity
  8
0
100
AcDbPolyline
 62
250
  6
CONTINUOUS
 90
7
 70
0
 10
282.6346178484
 20
247.0642530155
 10
282.6041478089
 20
247.0738433384
 10
282.5717456876
 20
247.0784770175
 10
282.5377586508
 20
247.0781044064
 10
282.5025508463
 20
247.0727294974
 10
282.4664995012
 20
247.0624098789
 10
282.4299908806
 20
247.0472561188
  0
LWPOLYLINE
  5
61C
100
AcDbEntity
  8
0
100
AcDbPolyline
 62
250
  6
CONTINUOUS
 90
7
 70
0
 10
282.4299908806
 20
247.0472561188
 10
282.4115105742
 20
247.0549935889
 10
282.3933042403
 20
247.0596144179
 10
282.3756833944
 20
247.061039542
 10
282.358949534
 20
247.0592445771
 10
282.3433889802
 20
247.0542602354
 10
282.3411786213
 20
247.0532448253
  0
LWPOLYLINE
  5
61D
100
AcDbEntity
  8
0
100
AcDbPolyline
 62
7
  6
CONTINUOUS
 90
10
 70
0
 10
282.6474273209
 20
247.0584377836
 10
282.6180378269
 20
247.0712924586
 10
282.5869392883
 20
247.0812255697
 10
282.5543808757
 20
247.0880043449
 10
282.5207402802
 20
247.0914305916
 10
282.4862188932
 20
247.091382688
 10
282.4507741821
 20
247.0877089766
 10
282.414544217
 20
247.0802104051
 10
282.3779156378
 20
247.0687553218
 10
282.3411786213
 20
247.0532448253
  0
LWPOLYLINE
  5
61E
100
AcDbEntity
  8
0
100
AcDbPolyline
 62
250
  6
CONTINUOUS
 90
10
 70
0
 10
275.9543540299
 20
250.4049744192
 10
275.9484908855
 20
250.4075764439
 10
275.9328964002
 20
250.4119721892
 10
275.9151471968
 20
250.4138422753
 10
275.8953512559
 20
250.4132277803
 10
275.873766398
 20
250.4101523757
 10
275.8506444521
 20
250.4047003169
 10
275.8261935984
 20
250.3969880385
 10
275.8005699751
 20
250.3871357547
 10
275.7739439522
 20
250.375279583
  0
LWPOLYLINE
  5
61F
100
AcDbEntity
  8
0
100
AcDbPolyline
 62
7
  6
CONTINUOUS
 90
16
 70
0
 10
275.9543766705
 20
250.4049643972
 10
275.9363850342
 20
250.4131007181
 10
275.911446021
 20
250.4217600618
 10
275.8864190474
 20
250.4276853448
 10
275.8617757624
 20
250.4310219544
 10
275.8382320834
 20
250.4320142088
 10
275.8157463843
 20
250.4310256156
 10
275.794421129
 20
250.4283858291
 10
275.7749480594
 20
250.4245735215
 10
275.7574900866
 20
250.4200777225
 10
275.741192985
 20
250.4150403329
 10
275.7252679901
 20
250.409432512
 10
275.7094937913
 20
250.403309916
 10
275.6935526205
 20
250.3966419346
 10
275.6769319456
 20
250.3892617767
 10
275.6643277737
 20
250.3834250952
  0
LINE
  5
620
100
AcDbEntity
  8
0
100
AcDbLine
 62
250
  6
CONTINUOUS
 10
282.6474273209
 20
247.0584377836
 11
282.6346178484
 21
247.0642530155
  0
LWPOLYLINE
  5
621
100
AcDbEntity
  8
0
100
AcDbPolyline
 62
250
  6
CONTINUOUS
 90
9
 70
0
 10
275.7739439522
 20
250.375279583
 10
275.7586600973
 20
250.3822175618
 10
275.7434690843
 20
250.3874435017
 10
275.728486526
 20
250.3909176312
 10
275.7138264495
 20
250.392613511
 10
275.6996004256
 20
250.3925182364
 10
275.6859167197
 20
250.3906325335
 10
275.6728794725
 20
250.386970753
 10
275.6644896592
 20
250.3835059911
  0
LINE
  5
622
100
AcDbEntity
  8
0
100
AcDbLine
 62
7
  6
CONTINUOUS
 10
280.6340789966
 20
246.2361893909
 11
276.6255449174
 21
248.2404564305
  0
LINE
  5
623
100
AcDbEntity
  8
DRAFT
100
AcDbLine
 62
7
  6
CONTINUOUS
 10
286.6860471869
 20
244.090685359
 11
285.8101696281
 21
244.5286241384
  0
LINE
  5
624
100
AcDbEntity
  8
DRAFT
100
AcDbLine
 62
7
  6
CONTINUOUS
 10
274.8583902201
 20
250.0045138424
 11
274.343217241
 21
250.2621003319
  0
LINE
  5
625
100
AcDbEntity
  8
RACCORDO
100
AcDbLine
 62
7
  6
CONTINUOUS
 10
274.9977689798
 20
250.0700435438
 11
274.9071358453
 21
250.1153601111
  0
LINE
  5
626
100
AcDbEntity
  8
0
100
AcDbLine
 62
7
  6
CONTINUOUS
 10
278.3104691579
 20
248.5595434806
 11
281.8210022129
 21
246.8042769531
  0
LINE
  5
627
100
AcDbEntity
  8
0
100
AcDbLine
 62
250
  6
CONTINUOUS
 10
275.7739439522
 20
250.375279583
 11
277.904507481
 21
249.3099978186
  0
LINE
  5
628
100
AcDbEntity
  8
0
100
AcDbLine
 62
250
  6
CONTINUOUS
 10
282.4299908806
 20
247.0472561188
 11
284.5605544095
 21
245.9819743543
  0
LINE
  5
629
100
AcDbEntity
  8
0
100
AcDbLine
 62
7
  6
CONTINUOUS
 10
275.9544505963
 20
250.4049261459
 11
278.1219439213
 21
249.3211794834
  0
LINE
  5
62A
100
AcDbEntity
  8
0
100
AcDbLine
 62
7
  6
CONTINUOUS
 10
282.6474273209
 20
247.0584377836
 11
284.8149069309
 21
245.9746979786
  0
LINE
  5
62B
100
AcDbEntity
  8
0
100
AcDbLine
 62
7
  6
CONTINUOUS
 10
287.6633439307
 20
245.0160012588
 11
286.9563749906
 21
245.3694857289
  0
LINE
  5
62C
100
AcDbEntity
  8
0
100
AcDbLine
 62
7
  6
CONTINUOUS
 10
288.1583186775
 20
245.2634886322
 11
287.4513497374
 21
245.6169731023
  0
LWPOLYLINE
  5
62D
100
AcDbEntity
  8
0
100
AcDbPolyline
 62
250
  6
CONTINUOUS
 90
10
 70
0
 10
284.5605544095
 20
245.9819743543
 10
284.5760891118
 20
245.9735037124
 10
284.591480559
 20
245.9634381149
 10
284.606611618
 20
245.9518545673
 10
284.6213670418
 20
245.9388417299
 10
284.6356347736
 20
245.9244988668
 10
284.6493067468
 20
245.9089349606
 10
284.6622791421
 20
245.8922684467
 10
284.6744532294
 20
245.8746264316
 10
284.6857365081
 20
245.8561432655
  0
LWPOLYLINE
  5
62E
100
AcDbEntity
  8
0
100
AcDbPolyline
 62
250
  6
CONTINUOUS
 90
13
 70
0
 10
277.904507481
 20
249.3099978186
 10
277.9229455572
 20
249.2992760973
 10
277.9410259221
 20
249.2857535767
 10
277.9584392158
 20
249.2696616309
 10
277.9748874919
 20
249.2512755973
 10
277.9900893159
 20
249.2309100662
 10
278.0037845801
 20
249.2089134978
 10
278.0157389547
 20
249.1856622598
 10
278.0257478974
 20
249.161554187
 10
278.0336401523
 20
249.1370017751
 10
278.039280681
 20
249.1124251224
 10
278.0425729723
 20
249.0882447424
 10
278.0434606943
 20
249.0648743682
  0
LWPOLYLINE
  5
62F
100
AcDbEntity
  8
0
100
AcDbPolyline
 62
7
  6
CONTINUOUS
 90
5
 70
0
 10
284.9376002771
 20
245.8932058596
 10
284.920491412
 20
245.9071480867
 10
284.8830285663
 20
245.9346331375
 10
284.8445978224
 20
245.9587322643
 10
284.8145034124
 20
245.9749025973
  0
LINE
  5
630
100
AcDbEntity
  8
0
100
AcDbLine
 62
7
  6
CONTINUOUS
 10
287.6633439307
 20
245.0160012588
 11
287.8772363846
 21
244.8184679911
  0
LWPOLYLINE
  5
631
100
AcDbEntity
  8
RACCORDO
100
AcDbPolyline
 62
250
  6
CONTINUOUS
 90
35
 70
0
 10
296.0424070456
 20
242.1831448838
 10
296.0540045719
 20
242.1462699633
 10
296.0739420794
 20
242.0733560918
 10
296.0902560764
 20
242.0023843414
 10
296.1038518367
 20
241.9333180065
 10
296.1149095936
 20
241.8663391372
 10
296.1234369686
 20
241.8014156357
 10
296.13003665
 20
241.7381640726
 10
296.1348490639
 20
241.6766053842
 10
296.1378686034
 20
241.6168105785
 10
296.1394407415
 20
241.5584518736
 10
296.1396569204
 20
241.5014811443
 10
296.1385259733
 20
241.4460047509
 10
296.1362481453
 20
241.3919166491
 10
296.1328869997
 20
241.3392021355
 10
296.1284644236
 20
241.2879160112
 10
296.1231095066
 20
241.2380520746
 10
296.1168807671
 20
241.189635831
 10
296.1097969989
 20
241.1426698762
 10
296.1019229153
 20
241.0971108311
 10
296.0933162311
 20
241.0529742051
 10
296.0839871955
 20
241.0102630949
 10
296.073925277
 20
240.9689130667
 10
296.0631756853
 20
240.9288855099
 10
296.0517521305
 20
240.8902304739
 10
296.0395961612
 20
240.8530147977
 10
296.0267437177
 20
240.8171877474
 10
296.01321383
 20
240.7828070616
 10
295.9989266375
 20
240.7501014987
 10
295.9839151796
 20
240.7190338539
 10
295.9681990813
 20
240.6896462092
 10
295.951683997
 20
240.6622863389
 10
295.934355719
 20
240.6370720756
 10
295.916274884
 20
240.6138910998
 10
295.8974590551
 20
240.5927465667
  0
LWPOLYLINE
  5
632
100
AcDbEntity
  8
RACCORDO
100
AcDbPolyline
 62
7
  6
CONTINUOUS
 90
8
 70
0
 10
274.5515474922
 20
250.1579352063
 10
274.5761037777
 20
250.1643571141
 10
274.6373714664
 20
250.1723921739
 10
274.6987286212
 20
250.1726226163
 10
274.7596923523
 20
250.1652060213
 10
274.8199575792
 20
250.1504605893
 10
274.8789617843
 20
250.1285692088
 10
274.9071251829
 20
250.1153558527
  0
LWPOLYLINE
  5
633
100
AcDbEntity
  8
RACCORDO
100
AcDbPolyline
 62
7
  6
CONTINUOUS
 90
9
 70
0
 10
290.0011261376
 20
245.8085880288
 10
289.995009397
 20
245.8101875265
 10
289.9852391833
 20
245.8117203404
 10
289.9749129879
 20
245.8121357847
 10
289.9641257907
 20
245.8114340123
 10
289.9531625318
 20
245.8096154809
 10
289.9421181911
 20
245.8066803434
 10
289.9308977886
 20
245.802628447
 10
289.9195013243
 20
245.7974597918
  0
LWPOLYLINE
  5
634
100
AcDbEntity
  8
RACCORDO
100
AcDbPolyline
 62
7
  6
CONTINUOUS
 90
28
 70
0
 10
290.0011160014
 20
245.8085640764
 10
289.8924006548
 20
245.8398499221
 10
289.7775456118
 20
245.8692035992
 10
289.6602841879
 20
245.8955306693
 10
289.5409110231
 20
245.9187927611
 10
289.4196906514
 20
245.9389633139
 10
289.296861282
 20
245.9560225892
 10
289.1727124846
 20
245.9699464307
 10
289.0475290215
 20
245.9807170997
 10
288.921548504
 20
245.9883244994
 10
288.7950621178
 20
245.9927578781
 10
288.6683593949
 20
245.9940124328
 10
288.5416776495
 20
245.9920876597
 10
288.4153063797
 20
245.9869863247
 10
288.2895367891
 20
245.9787171126
 10
288.1646071897
 20
245.9672892371
 10
288.0408083151
 20
245.9527194049
 10
287.9184235628
 20
245.9350293833
 10
287.7976751266
 20
245.9142352079
 10
287.6788402055
 20
245.8903636079
 10
287.562204382
 20
245.8634485561
 10
287.447992809
 20
245.8335137888
 10
287.3364776308
 20
245.8005966849
 10
287.2279314344
 20
245.7647400501
 10
287.1225645428
 20
245.7259684325
 10
287.0206177604
 20
245.6843156242
 10
286.922371623
 20
245.6398348497
 10
286.8280875618
 20
245.5925774602
  0
LWPOLYLINE
  5
635
100
AcDbEntity
  8
RACCORDO
100
AcDbPolyline
 62
7
  6
CONTINUOUS
 90
3
 70
0
 10
290.0131668194
 20
245.8037702482
 10
290.0043186091
 20
245.8075374958
 10
290.0011261376
 20
245.8085880288
  0
LINE
  5
636
100
AcDbEntity
  8
DRAFT
100
AcDbLine
 62
7
  6
CONTINUOUS
 10
287.1908549651
 20
246.0996187434
 11
286.7522444925
 21
246.3189239797
  0
LINE
  5
637
100
AcDbEntity
  8
RACCORDO
100
AcDbLine
 62
7
  6
CONTINUOUS
 10
291.420767945
 20
245.8598823689
 11
290.6942705563
 21
246.2231310632
  0
LINE
  5
638
100
AcDbEntity
  8
DRAFT
100
AcDbLine
 62
7
  6
CONTINUOUS
 10
291.2379382847
 20
245.9669570516
 11
290.9338189007
 21
246.1190167436
  0
LINE
  5
639
100
AcDbEntity
  8
RACCORDO
100
AcDbLine
 62
7
  6
CONTINUOUS
 10
290.8616949568
 20
245.3795061795
 11
290.974469842
 21
245.3230138533
  0
LWPOLYLINE
  5
63A
100
AcDbEntity
  8
RACCORDO
100
AcDbPolyline
 62
7
  6
CONTINUOUS
 90
10
 70
0
 10
290.8237508895
 20
245.3921738344
 10
290.7262738358
 20
245.4422292661
 10
290.630660634
 20
245.4912051417
 10
290.536911284
 20
245.5391014613
 10
290.4450402027
 20
245.5859196491
 10
290.3550329733
 20
245.6316582809
 10
290.2668463453
 20
245.6763130839
 10
290.1804659019
 20
245.719882634
 10
290.0959060599
 20
245.7623683554
 10
290.0131668194
 20
245.8037702482
  0
LWPOLYLINE
  5
63B
100
AcDbEntity
  8
DRAFT
100
AcDbPolyline
 62
7
  6
CONTINUOUS
 90
10
 70
0
 10
291.2379382847
 20
245.9669570516
 10
291.2065228302
 20
245.9850098639
 10
291.1745058529
 20
246.0027771663
 10
291.1418873528
 20
246.0202589589
 10
291.1086571621
 20
246.0374603255
 10
291.0748254485
 20
246.0543761823
 10
291.0404227152
 20
246.0709912777
 10
291.00545913
 20
246.0873005278
 10
290.9699245252
 20
246.1033090164
 10
290.9338189007
 20
246.1190167436
  0
LINE
  5
63C
100
AcDbEntity
  8
RACCORDO
100
AcDbLine
 62
7
  6
CONTINUOUS
 10
290.8315093182
 20
245.3875873623
 11
290.8237508895
 21
245.3921738344
  0
LWPOLYLINE
  5
63D
100
AcDbEntity
  8
RACCORDO
100
AcDbPolyline
 62
250
  6
CONTINUOUS
 90
5
 70
0
 10
290.8616949568
 20
245.3795061795
 10
290.8862179471
 20
245.3590018011
 10
290.9105837088
 20
245.3377235366
 10
290.934720459
 20
245.3156612594
 10
290.9428692864
 20
245.3078472897
  0
LWPOLYLINE
  5
63E
100
AcDbEntity
  8
RACCORDO
100
AcDbPolyline
 62
250
  6
CONTINUOUS
 90
4
 70
0
 10
290.7680583576
 20
245.373210171
 10
290.790918787
 20
245.3536314376
 10
290.8134963253
 20
245.333278391
 10
290.8357909725
 20
245.3121510314
  0
LINE
  5
63F
100
AcDbEntity
  8
RACCORDO
100
AcDbLine
 62
250
  6
CONTINUOUS
 10
290.8357909725
 20
245.3121510314
 11
290.8578364709
 21
245.2903211445
  0
LINE
  5
640
100
AcDbEntity
  8
RACCORDO
100
AcDbLine
 62
250
  6
CONTINUOUS
 10
290.8578364709
 20
245.2903211445
 11
290.87316951
 21
245.2743951536
  0
LINE
  5
641
100
AcDbEntity
  8
RACCORDO
100
AcDbLine
 62
250
  6
CONTINUOUS
 10
295.031306171
 20
246.48056157
 11
295.450849382
 21
245.7569565686
  0
LWPOLYLINE
  5
642
100
AcDbEntity
  8
RACCORDO
100
AcDbPolyline
 62
250
  6
CONTINUOUS
 90
13
 70
0
 10
295.450849382
 20
245.7569565686
 10
295.5026186314
 20
245.6633760511
 10
295.5506619819
 20
245.5676565965
 10
295.5947737043
 20
245.4702080901
 10
295.6347649055
 20
245.371447821
 10
295.6704643368
 20
245.271798696
 10
295.7017191271
 20
245.1716874292
 10
295.7283954387
 20
245.0715427125
 10
295.7503790396
 20
244.9717933809
 10
295.7675757924
 20
244.8728665775
 10
295.7799120582
 20
244.7751859223
 10
295.7873350114
 20
244.6791696985
 10
295.7898128659
 20
244.5852290621
  0
LINE
  5
643
100
AcDbEntity
  8
DRAFT
100
AcDbLine
 62
7
  6
CONTINUOUS
 10
293.6325383184
 20
246.5987434634
 11
290.5203007456
 21
248.1548622499
  0
LINE
  5
644
100
AcDbEntity
  8
RACCORDO
100
AcDbLine
 62
250
  6
CONTINUOUS
 10
295.031306171
 20
246.48056157
 11
294.225634235
 21
246.883397538
  0
LINE
  5
645
100
AcDbEntity
  8
RACCORDO
100
AcDbLine
 62
250
  6
CONTINUOUS
 10
289.5239711559
 20
249.2342290776
 11
288.5528123222
 21
249.7198084944
  0
LINE
  5
646
100
AcDbEntity
  8
RACCORDO
100
AcDbLine
 62
7
  6
CONTINUOUS
 10
295.3633147153
 20
246.5303770908
 11
294.5376697347
 21
246.9431995811
  0
LINE
  5
647
100
AcDbEntity
  8
RACCORDO
100
AcDbLine
 62
7
  6
CONTINUOUS
 10
289.9947068412
 20
249.2146810279
 11
288.9441979147
 21
249.7399354911
  0
LWPOLYLINE
  5
648
100
AcDbEntity
  8
RACCORDO
100
AcDbPolyline
 62
7
  6
CONTINUOUS
 90
4
 70
0
 10
295.3633022415
 20
246.5303833277
 10
295.3771505766
 20
246.522465959
 10
295.4006862731
 20
246.5030936805
 10
295.4207687117
 20
246.4763818614
  0
LWPOLYLINE
  5
649
100
AcDbEntity
  8
RACCORDO
100
AcDbPolyline
 62
7
  6
CONTINUOUS
 90
35
 70
0
 10
296.0424070456
 20
244.2652329556
 10
296.1591805743
 20
244.1881308494
 10
296.2989772478
 20
244.0836172031
 10
296.4357151036
 20
243.9690886061
 10
296.5685805471
 20
243.8453721016
 10
296.6969660003
 20
243.7132253265
 10
296.8205476005
 20
243.5731579205
 10
296.9389277618
 20
243.4257524168
 10
297.0516821449
 20
243.2716415273
 10
297.1583577109
 20
243.1115347432
 10
297.258514723
 20
242.9461789861
 10
297.3517306668
 20
242.7763612244
 10
297.4376837894
 20
242.6027431938
 10
297.5160991711
 20
242.4259052351
 10
297.5866658461
 20
242.2465146713
 10
297.6490404284
 20
242.0653801112
 10
297.7029251645
 20
241.8832848162
 10
297.7480618876
 20
241.7009802332
 10
297.7842207903
 20
241.5192033962
 10
297.8111965343
 20
241.3386799363
 10
297.8288163396
 20
241.1599774841
 10
297.8368892407
 20
240.9839809683
 10
297.835289179
 20
240.8118007275
 10
297.8239418068
 20
240.6438847521
 10
297.8028072046
 20
240.4811078158
 10
297.7720778506
 20
240.3250141755
 10
297.7319733582
 20
240.1762722107
 10
297.68264701
 20
240.0351792803
 10
297.6244518903
 20
239.9025131903
 10
297.5576435066
 20
239.7786158396
 10
297.482574793
 20
239.6639567414
 10
297.3999850875
 20
239.5593591033
 10
297.3105459165
 20
239.4652317639
 10
297.2147216081
 20
239.381651204
 10
297.1131301387
 20
239.3088022785
  0
LWPOLYLINE
  5
64A
100
AcDbEntity
  8
RACCORDO
100
AcDbPolyline
 62
250
  6
CONTINUOUS
 90
34
 70
0
 10
296.0424070456
 20
244.1866224347
 10
296.1205021364
 20
244.1311106312
 10
296.2576430063
 20
244.0216550219
 10
296.3921854979
 20
243.9021295484
 10
296.5235020767
 20
243.7730916997
 10
296.6509802353
 20
243.6351433513
 10
296.7740253721
 20
243.4889279408
 10
296.8920635675
 20
243.335127462
 10
297.004544262
 20
243.1744592799
 10
297.1109428167
 20
243.0076727926
 10
297.2107629597
 20
242.835545937
 10
297.303539101
 20
242.6588815622
 10
297.3888385063
 20
242.4785036813
 10
297.4662633151
 20
242.2952536275
 10
297.5354523969
 20
242.1099861296
 10
297.5960830346
 20
241.9235653265
 10
297.6478724301
 20
241.7368607367
 10
297.6905790231
 20
241.5507432026
 10
297.7240036181
 20
241.3660808282
 10
297.7479903136
 20
241.1837349305
 10
297.7624272289
 20
241.0045560214
 10
297.7672470262
 20
240.8293798414
 10
297.7624272246
 20
240.659023461
 10
297.7479903051
 20
240.4942814698
 10
297.7240036053
 20
240.3359222704
 10
297.6905790059
 20
240.1846844942
 10
297.6478724087
 20
240.0412735565
 10
297.596083009
 20
239.9063583659
 10
297.5354523673
 20
239.7805682045
 10
297.4662632815
 20
239.6644897928
 10
297.3888384688
 20
239.5586645523
 10
297.3035390597
 20
239.4635860814
 10
297.2107629147
 20
239.379697853
 10
297.1131301387
 20
239.3088022785
  0
LWPOLYLINE
  5
64B
100
AcDbEntity
  8
RACCORDO
100
AcDbPolyline
 62
250
  6
CONTINUOUS
 90
12
 70
0
 10
295.7684083059
 20
245.8767450903
 10
295.7670491692
 20
245.8783422043
 10
295.7591302511
 20
245.8808638074
 10
295.7454856587
 20
245.8799949983
 10
295.726216942
 20
245.8757422429
 10
295.701467509
 20
245.8681371926
 10
295.671421558
 20
245.8572364481
 10
295.6363027066
 20
245.8431211384
 10
295.5963723276
 20
245.8258963173
 10
295.5519276036
 20
245.805690181
 10
295.5032993157
 20
245.782653114
 10
295.450849381
 20
245.7569565703
  0
LINE
  5
64C
100
AcDbEntity
  8
RACCORDO
100
AcDbLine
 62
7
  6
CONTINUOUS
 10
295.4207269183
 20
246.4764067804
 11
295.7684083059
 21
245.8767450903
  0
ARC
  5
64D
100
AcDbEntity
  8
RACCORDO
100
AcDbCircle
 62
7
  6
CONTINUOUS
 10
288.5417056788
 20
248.9349510192
 40
0.9
100
AcDbArc
 50
63.4336836047
 51
114.7890578208
  0
ARC
  5
64E
100
AcDbEntity
  8
RACCORDO
100
AcDbCircle
 62
7
  6
CONTINUOUS
 10
275.6141542245
 20
246.9898912422
 40
0.2
100
AcDbArc
 50
63.4291405642
 51
77.4605278432
  0
ELLIPSE
  5
64F
100
AcDbEntity
  8
0
100
AcDbEllipse
 62
7
  6
CONTINUOUS
 10
276.2553983266
 20
218.6726233554
 30
0.0
 11
0.1625931071
 21
2.5938840684
 31
0.0
 40
0.1836713524
 41
-1.4110416324
 42
-0.5721038134
  0
ELLIPSE
  5
650
100
AcDbEntity
  8
0
100
AcDbEllipse
 62
7
  6
CONTINUOUS
 10
276.7206048207
 20
219.0318183775
 30
0.0
 11
0.0101620692
 21
0.1621177543
 31
0.0
 40
0.1836713524
 41
-2.4036984828
 42
-1.4110416324
  0
ELLIPSE
  5
651
100
AcDbEntity
  8
0
100
AcDbEllipse
 62
7
  6
CONTINUOUS
 10
268.7058627984
 20
203.5920617357
 30
0.0
 11
-0.3579214571
 21
0.7157361817
 31
0.0
 40
0.6121897086
 41
-3.1606089638
 42
-2.4039657685
  0
ELLIPSE
  5
652
100
AcDbEntity
  8
0
100
AcDbEllipse
 62
7
  6
CONTINUOUS
 10
253.4165312753
 20
241.8418377753
 30
0.0
 11
-0.2234618187
 21
0.4480306886
 31
0.0
 40
0.6116748051
 41
5.6000329829
 42
6.3231232417
  0
ELLIPSE
  5
653
100
AcDbEntity
  8
0
100
AcDbEllipse
 62
7
  6
CONTINUOUS
 10
268.2975961186
 20
234.4013053536
 30
0.0
 11
-0.2230998035
 21
0.4477110033
 31
0.0
 40
0.6127700112
 41
-2.2535417632
 42
-0.6836588249
  0
ELLIPSE
  5
654
100
AcDbEntity
  8
0
100
AcDbEllipse
 62
7
  6
CONTINUOUS
 10
268.2975961186
 20
197.0424506539
 30
0.0
 11
-0.2234618187
 21
0.4480306886
 31
0.0
 40
0.6116748051
 41
3.1016543938
 42
4.0283232676
  0
ELLIPSE
  5
655
100
AcDbEntity
  8
DRAFT
100
AcDbEllipse
 62
7
  6
CONTINUOUS
 10
289.1413349444
 20
245.1243787538
 30
0.0
 11
2.7583300471
 21
-0.038763314
 31
0.0
 40
0.4892375088
 41
0.4291477653
 42
0.6564870977
  0
ELLIPSE
  5
656
100
AcDbEntity
  8
DRAFT
100
AcDbEllipse
 62
7
  6
CONTINUOUS
 10
288.4695835023
 20
245.2358764378
 30
0.0
 11
2.7499350056
 21
-0.0386453369
 31
0.0
 40
0.4892375088
 41
8.654981679
 42
9.2672200839
  0
ELLIPSE
  5
657
100
AcDbEntity
  8
DRAFT
100
AcDbEllipse
 62
7
  6
CONTINUOUS
 10
289.1413349444
 20
245.1243787538
 30
0.0
 11
2.7583300471
 21
-0.038763314
 31
0.0
 40
0.4892375088
 41
0.9280596999
 42
2.3630697256
  0
ELLIPSE
  5
658
100
AcDbEntity
  8
RACCORDO
100
AcDbEllipse
 62
7
  6
CONTINUOUS
 10
293.8470491755
 20
246.2822792708
 30
0.0
 11
0.716172246
 21
0.6416715914
 31
0.0
 40
0.2882345029
 41
0.1134876298
 42
0.7807533904
  0
ELLIPSE
  5
659
100
AcDbEntity
  8
DRAFT
100
AcDbEllipse
 62
7
  6
CONTINUOUS
 10
289.1413349444
 20
247.069089465
 30
0.0
 11
2.7583515655
 21
-1.4175703156
 31
0.0
 40
0.0109499087
 41
-0.9155571536
 42
-0.85781018
  0
ELLIPSE
  5
65A
100
AcDbEntity
  8
DRAFT
100
AcDbEllipse
 62
7
  6
CONTINUOUS
 10
289.1413349444
 20
247.069089465
 30
0.0
 11
2.7583515655
 21
-1.4175703156
 31
0.0
 40
0.0109499087
 41
-0.7017315251
 42
-0.6439845515
  0
ELLIPSE
  5
65B
100
AcDbEntity
  8
0
100
AcDbEllipse
 62
7
  6
CONTINUOUS
 10
288.4458446833
 20
246.4176385704
 30
0.0
 11
3.3311333813
 21
-0.0467042088
 31
0.0
 40
0.4892378494
 41
2.3616770883
 42
5.5059722822
  0
ELLIPSE
  5
65C
100
AcDbEntity
  8
DRAFT
100
AcDbEllipse
 62
7
  6
CONTINUOUS
 10
289.1413349444
 20
245.5573914557
 30
0.0
 11
2.7583300471
 21
-0.038763314
 31
0.0
 40
0.4892375088
 41
0.1708839954
 42
2.3630697256
  0
ELLIPSE
  5
65D
100
AcDbEntity
  8
RACCORDO
100
AcDbEllipse
 62
7
  6
CONTINUOUS
 10
289.8803429285
 20
248.2656323943
 30
0.0
 11
-0.2796057293
 21
0.9974617846
 31
0.0
 40
0.6760995073
 41
4.8467711056
 42
6.4001141399
  0
ELLIPSE
  5
65E
100
AcDbEntity
  8
0
100
AcDbEllipse
 62
7
  6
CONTINUOUS
 10
267.3943153377
 20
246.8671803538
 30
0.0
 11
-0.2236051685
 21
0.4472372818
 31
0.0
 40
0.6123496457
 41
-0.6846763751
 42
-0.0070067563
  0
ELLIPSE
  5
65F
100
AcDbEntity
  8
0
100
AcDbEllipse
 62
7
  6
CONTINUOUS
 10
275.9011598195
 20
219.0618746433
 30
0.0
 11
0.132308947
 21
0.2692527733
 31
0.0
 40
0.607010042
 41
1.509556589
 42
2.9930864532
  0
ELLIPSE
  5
660
100
AcDbEntity
  8
0
100
AcDbEllipse
 62
7
  6
CONTINUOUS
 10
279.4928134665
 20
240.8179312894
 30
0.0
 11
-0.223592727
 21
0.4472262246
 31
0.0
 40
0.6123874982
 41
-1.470060655
 42
-0.6846940354
  0
ELLIPSE
  5
661
100
AcDbEntity
  8
0
100
AcDbEllipse
 62
7
  6
CONTINUOUS
 10
279.8840992504
 20
206.7243784072
 30
0.0
 11
-0.8945233702
 21
1.7888836716
 31
0.0
 40
0.6123573717
 41
-3.0409388568
 42
-2.2555722372
  0
ELLIPSE
  5
662
100
AcDbEntity
  8
0
100
AcDbEllipse
 62
7
  6
CONTINUOUS
 10
279.8840992504
 20
238.3058758788
 30
0.0
 11
-0.8944736152
 21
1.7888394374
 31
0.0
 40
0.6123952257
 41
-2.2555268178
 42
-1.4701601983
  0
ELLIPSE
  5
663
100
AcDbEntity
  8
RACCORDO
100
AcDbEllipse
 62
7
  6
CONTINUOUS
 10
272.5242717356
 20
234.5940386561
 30
0.0
 11
-0.8944736152
 21
1.7888394374
 31
0.0
 40
0.6123952257
 41
4.0276584893
 42
4.2997656388
  0
ELLIPSE
  5
664
100
AcDbEntity
  8
RACCORDO
100
AcDbEllipse
 62
7
  6
CONTINUOUS
 10
272.5242717356
 20
202.9468007398
 30
0.0
 11
-0.8945233702
 21
1.7888836716
 31
0.0
 40
0.6123573717
 41
-2.5276793866
 42
-2.2555722372
  0
ELLIPSE
  5
665
100
AcDbEntity
  8
0
100
AcDbEllipse
 62
7
  6
CONTINUOUS
 10
273.5018786293
 20
199.3308423978
 30
0.0
 11
-0.2237009107
 21
0.4473351135
 31
0.0
 40
0.6121897086
 41
-3.1225765766
 42
-2.2557347926
  0
ELLIPSE
  5
666
100
AcDbEntity
  8
0
100
AcDbEllipse
 62
7
  6
CONTINUOUS
 10
273.6741399619
 20
229.5268141387
 30
0.0
 11
-0.1338648216
 21
0.2685745395
 31
0.0
 40
0.6130677323
 41
-2.2534169372
 42
-0.6839906064
  0
ELLIPSE
  5
667
100
AcDbEntity
  8
0
100
AcDbEllipse
 62
7
  6
CONTINUOUS
 10
273.6741399619
 20
234.1439572501
 30
0.0
 11
-0.1341904305
 21
0.268862369
 31
0.0
 40
0.6114248242
 41
-3.1857728421
 42
-2.25539606
  0
ELLIPSE
  5
668
100
AcDbEntity
  8
0
100
AcDbEllipse
 62
7
  6
CONTINUOUS
 10
273.5018786293
 20
237.2323901043
 30
0.0
 11
-0.2235807756
 21
0.4472283268
 31
0.0
 40
0.6125552124
 41
-2.255296188
 42
-0.6848044477
  0
ELLIPSE
  5
669
100
AcDbEntity
  8
0
100
AcDbEllipse
 62
7
  6
CONTINUOUS
 10
278.8175759391
 20
245.8026680352
 30
0.0
 11
0.9999763657
 21
-0.0140528498
 31
0.0
 40
0.4892375088
 41
-0.778522928
 42
0.0068752741
  0
ELLIPSE
  5
66A
100
AcDbEntity
  8
0
100
AcDbEllipse
 62
7
  6
CONTINUOUS
 10
284.4173831993
 20
244.1527337315
 30
0.0
 11
0.7040475903
 21
0.5731754601
 31
0.0
 40
0.6627826692
 41
-0.768023625
 42
-0.494808636
  0
ELLIPSE
  5
66B
100
AcDbEntity
  8
0
100
AcDbEllipse
 62
7
  6
CONTINUOUS
 10
271.3929547366
 20
221.2459037679
 30
0.0
 11
0.1499964548
 21
-0.0021079275
 31
0.0
 40
0.4892375088
 41
-2.3493192548
 42
-0.778522928
  0
ELLIPSE
  5
66C
100
AcDbEntity
  8
0
100
AcDbEllipse
 62
7
  6
CONTINUOUS
 10
271.3929547366
 20
212.5856497301
 30
0.0
 11
0.1499964548
 21
-0.0021079275
 31
0.0
 40
0.4892375088
 41
-2.3493192548
 42
-0.778522928
  0
ELLIPSE
  5
66D
100
AcDbEntity
  8
0
100
AcDbEllipse
 62
7
  6
CONTINUOUS
 10
272.0759419241
 20
204.5820970571
 30
0.0
 11
0.1999631714
 21
-0.0082132501
 31
0.0
 40
0.4672909446
 41
-2.3370034251
 42
-0.7923870371
  0
ELLIPSE
  5
66E
100
AcDbEntity
  8
0
100
AcDbEllipse
 62
7
  6
CONTINUOUS
 10
256.7092532817
 20
240.8442797032
 30
0.0
 11
0.1999631714
 21
-0.0082132501
 31
0.0
 40
0.4672909446
 41
-3.1224015724
 42
-2.7474456654
  0
ELLIPSE
  5
66F
100
AcDbEntity
  8
0
100
AcDbEllipse
 62
7
  6
CONTINUOUS
 10
269.6151329436
 20
208.0872786687
 30
0.0
 11
0.1499964548
 21
-0.0021079275
 31
0.0
 40
0.4892375088
 41
-3.1347174182
 42
-2.3493192548
  0
ELLIPSE
  5
670
100
AcDbEntity
  8
0
100
AcDbEllipse
 62
7
  6
CONTINUOUS
 10
268.6848177306
 20
198.5715431554
 30
0.0
 11
4.1221505421
 21
-0.8746631292
 31
0.0
 40
0.0464285219
 41
0.0098511692
 42
0.2771570121
  0
ELLIPSE
  5
671
100
AcDbEntity
  8
0
100
AcDbEllipse
 62
7
  6
CONTINUOUS
 10
259.1601151343
 20
240.7667292674
 30
0.0
 11
-0.4474018214
 21
0.8946702271
 31
0.0
 40
0.6121897086
 41
-0.6846338794
 42
0.0190163283
  0
ELLIPSE
  5
672
100
AcDbEntity
  8
0
100
AcDbEllipse
 62
7
  6
CONTINUOUS
 10
268.6848177306
 20
233.2912784449
 30
0.0
 11
4.12116907
 21
4.8570397865
 31
0.0
 40
0.0203189492
 41
5.9919369653
 42
6.2592428082
  0
ELLIPSE
  5
673
100
AcDbEntity
  8
0
100
AcDbEllipse
 62
7
  6
CONTINUOUS
 10
278.1104691579
 20
248.5666195469
 30
0.0
 11
0.1996300686
 21
-0.0382240167
 31
0.0
 40
0.3180924274
 41
-0.7245668018
 42
0.0608315045
  0
ELLIPSE
  5
674
100
AcDbEntity
  8
0
100
AcDbEllipse
 62
7
  6
CONTINUOUS
 10
271.2354880072
 20
228.806666466
 30
0.0
 11
0.0919907694
 21
0.1776025845
 31
0.0
 40
0.6229838795
 41
-4.0187835583
 42
-3.132707757
  0
ELLIPSE
  5
675
100
AcDbEntity
  8
0
100
AcDbEllipse
 62
7
  6
CONTINUOUS
 10
255.3204995662
 20
239.9734375271
 30
0.0
 11
4.12116907
 21
4.8570397865
 31
0.0
 40
0.0203189492
 41
5.9919369653
 42
6.2592428082
  0
ELLIPSE
  5
676
100
AcDbEntity
  8
0
100
AcDbEllipse
 62
7
  6
CONTINUOUS
 10
267.9514695418
 20
245.0192285263
 30
0.0
 11
0.3834884549
 21
-0.005389233
 31
0.0
 40
0.4892375088
 41
-0.778522928
 42
0.0068752687
  0
ELLIPSE
  5
677
100
AcDbEntity
  8
0
100
AcDbEllipse
 62
7
  6
CONTINUOUS
 10
273.4435644021
 20
242.2731810962
 30
0.0
 11
0.3834884549
 21
-0.005389233
 31
0.0
 40
0.4892375088
 41
-0.7610696355
 42
0.0068751324
  0
ELLIPSE
  5
678
100
AcDbEntity
  8
0
100
AcDbEllipse
 62
7
  6
CONTINUOUS
 10
259.1575173607
 20
243.9951604991
 30
0.0
 11
0.199943508
 21
0.008945986
 31
0.0
 40
0.5313301283
 41
-0.8266200532
 42
-0.0237685999
  0
ELLIPSE
  5
679
100
AcDbEntity
  8
0
100
AcDbEllipse
 62
7
  6
CONTINUOUS
 10
272.5218355251
 20
237.3130014168
 30
0.0
 11
0.199943508
 21
0.008945986
 31
0.0
 40
0.5313301283
 41
-0.7225930368
 42
-0.0237682717
  0
ELLIPSE
  5
67A
100
AcDbEntity
  8
0
100
AcDbEllipse
 62
7
  6
CONTINUOUS
 10
275.2820420332
 20
247.5704349882
 30
0.0
 11
0.9999763657
 21
-0.0140528498
 31
0.0
 40
0.4892375088
 41
1.5676708954
 42
2.3630697256
  0
ELLIPSE
  5
67B
100
AcDbEntity
  8
0
100
AcDbEllipse
 62
7
  6
CONTINUOUS
 10
271.3929547366
 20
222.055998012
 30
0.0
 11
0.1499959118
 21
0.0021688664
 31
0.0
 40
0.5106100819
 41
-2.3635775243
 42
-0.7927811975
  0
ELLIPSE
  5
67C
100
AcDbEntity
  8
0
100
AcDbEllipse
 62
7
  6
CONTINUOUS
 10
271.3929547366
 20
213.3957439741
 30
0.0
 11
0.1499959118
 21
0.0021688664
 31
0.0
 40
0.5106100819
 41
-2.3635775243
 42
-0.7927811975
  0
ELLIPSE
  5
67D
100
AcDbEntity
  8
0
100
AcDbEllipse
 62
7
  6
CONTINUOUS
 10
270.2284108967
 20
201.7091902337
 30
0.0
 11
0.249929385
 21
0.0111824824
 31
0.0
 40
0.5313301283
 41
-2.3799630874
 42
-0.8266200532
  0
ELLIPSE
  5
67E
100
AcDbEntity
  8
0
100
AcDbEllipse
 62
7
  6
CONTINUOUS
 10
270.3032625391
 20
201.6717644125
 30
0.0
 11
0.249929385
 21
0.0111824824
 31
0.0
 40
0.5313301283
 41
-2.3799630874
 42
-0.8266200532
  0
ELLIPSE
  5
67F
100
AcDbEntity
  8
0
100
AcDbEllipse
 62
7
  6
CONTINUOUS
 10
272.0759419241
 20
201.5755426318
 30
0.0
 11
0.199943508
 21
0.008945986
 31
0.0
 40
0.5313301283
 41
-2.3799630874
 42
-0.8353466994
  0
ELLIPSE
  5
680
100
AcDbEntity
  8
0
100
AcDbEllipse
 62
7
  6
CONTINUOUS
 10
272.8071790692
 20
230.5673443082
 30
0.0
 11
-0.178504923
 21
0.3582359938
 31
0.0
 40
0.6124818573
 41
0.8878436805
 42
2.4581832957
  0
ELLIPSE
  5
681
100
AcDbEntity
  8
0
100
AcDbEllipse
 62
7
  6
CONTINUOUS
 10
270.9810871188
 20
201.0094834011
 30
0.0
 11
0.4999863728
 21
0.0072295547
 31
0.0
 40
0.5106100819
 41
3.1342095519
 42
3.9196077829
  0
ELLIPSE
  5
682
100
AcDbEntity
  8
0
100
AcDbEllipse
 62
7
  6
CONTINUOUS
 10
260.3496924993
 20
241.3992095641
 30
0.0
 11
0.4999863728
 21
0.0072295547
 31
0.0
 40
0.5106100819
 41
-2.3635775243
 42
-0.8261435483
  0
ELLIPSE
  5
683
100
AcDbEntity
  8
0
100
AcDbEllipse
 62
7
  6
CONTINUOUS
 10
270.9810871188
 20
236.0835122543
 30
0.0
 11
0.4999863728
 21
0.0072295547
 31
0.0
 40
0.5106100819
 41
3.1342095519
 42
3.9196077829
  0
ELLIPSE
  5
684
100
AcDbEntity
  8
0
100
AcDbEllipse
 62
7
  6
CONTINUOUS
 10
256.9171411978
 20
241.2092390887
 30
0.0
 11
0.1132659266
 21
0.1659910225
 31
0.0
 40
0.6918255544
 41
0.7959647361
 42
0.9181377837
  0
ELLIPSE
  5
685
100
AcDbEntity
  8
0
100
AcDbEllipse
 62
7
  6
CONTINUOUS
 10
261.033065861
 20
239.7575209237
 30
0.0
 11
0.1999945491
 21
0.0028918219
 31
0.0
 40
0.5106100819
 41
3.1342096237
 42
3.9196077829
  0
ELLIPSE
  5
686
100
AcDbEntity
  8
0
100
AcDbEllipse
 62
7
  6
CONTINUOUS
 10
261.3881683141
 20
239.5799696972
 30
0.0
 11
0.1999945491
 21
0.0028918219
 31
0.0
 40
0.5106100819
 41
-2.3635775243
 42
-0.81023449
  0
ELLIPSE
  5
687
100
AcDbEntity
  8
0
100
AcDbEllipse
 62
7
  6
CONTINUOUS
 10
267.3970268917
 20
236.5755404084
 30
0.0
 11
0.1999945491
 21
0.0028918219
 31
0.0
 40
0.5106100819
 41
3.1342096237
 42
3.9196077829
  0
ELLIPSE
  5
688
100
AcDbEntity
  8
0
100
AcDbEllipse
 62
7
  6
CONTINUOUS
 10
267.7521293448
 20
236.3979891818
 30
0.0
 11
0.1999945491
 21
0.0028918219
 31
0.0
 40
0.5106100819
 41
-2.3635775243
 42
-0.81023449
  0
ELLIPSE
  5
689
100
AcDbEntity
  8
0
100
AcDbEllipse
 62
7
  6
CONTINUOUS
 10
272.0108651929
 20
213.484011567
 30
0.0
 11
0.1999945491
 21
0.0028918219
 31
0.0
 40
0.5106100819
 41
3.1342101164
 42
3.9196077829
  0
ELLIPSE
  5
68A
100
AcDbEntity
  8
0
100
AcDbEllipse
 62
7
  6
CONTINUOUS
 10
271.2354880072
 20
205.4712273591
 30
0.0
 11
0.0919907694
 21
0.1776025845
 31
0.0
 40
0.6229838795
 41
0.7110587146
 42
2.2644017489
  0
ELLIPSE
  5
68B
100
AcDbEntity
  8
0
100
AcDbEllipse
 62
7
  6
CONTINUOUS
 10
272.0108651929
 20
222.1442656048
 30
0.0
 11
0.1999945491
 21
0.0028918219
 31
0.0
 40
0.5106100819
 41
3.1342101164
 42
3.9196077829
  0
ELLIPSE
  5
68C
100
AcDbEntity
  8
0
100
AcDbEllipse
 62
7
  6
CONTINUOUS
 10
269.6151329436
 20
205.8330276343
 30
0.0
 11
0.1499959118
 21
0.0021688664
 31
0.0
 40
0.5106100819
 41
8.6354874218
 42
10.2027930901
  0
ELLIPSE
  5
68D
100
AcDbEntity
  8
0
100
AcDbEllipse
 62
7
  6
CONTINUOUS
 10
269.6151329436
 20
227.4836627289
 30
0.0
 11
0.1499959118
 21
0.0021688664
 31
0.0
 40
0.5106100819
 41
8.6354874218
 42
10.2027930901
  0
ELLIPSE
  5
68E
100
AcDbEntity
  8
0
100
AcDbEllipse
 62
7
  6
CONTINUOUS
 10
272.8212918755
 20
236.8949372102
 30
0.0
 11
41.2152542262
 21
22.501943358
 31
0.0
 40
0.0081048063
 41
1.5702662029
 42
1.5894695494
  0
ELLIPSE
  5
68F
100
AcDbEntity
  8
0
100
AcDbEllipse
 62
7
  6
CONTINUOUS
 10
270.3843836386
 20
202.0739335379
 30
0.0
 11
-0.4474018214
 21
0.8946702271
 31
0.0
 40
0.6121897086
 41
-2.5638639176
 42
-2.2557347926
  0
ELLIPSE
  5
690
100
AcDbEntity
  8
0
100
AcDbEllipse
 62
7
  6
CONTINUOUS
 10
270.3843836386
 20
234.071260049
 30
0.0
 11
-0.4471615512
 21
0.8944566536
 31
0.0
 40
0.6125552124
 41
-2.198237195
 42
-1.9471670631
  0
ELLIPSE
  5
691
100
AcDbEntity
  8
0
100
AcDbEllipse
 62
7
  6
CONTINUOUS
 10
271.4635577026
 20
234.6150079833
 30
0.0
 11
-0.4471615512
 21
0.8944566536
 31
0.0
 40
0.6125552124
 41
-1.1981783835
 42
-0.6848044477
  0
ELLIPSE
  5
692
100
AcDbEntity
  8
0
100
AcDbEllipse
 62
7
  6
CONTINUOUS
 10
261.9263959987
 20
242.2344745553
 30
0.0
 11
0.2999152621
 21
0.0134189789
 31
0.0
 40
0.5313301283
 41
3.1178239796
 42
3.9032222197
  0
ELLIPSE
  5
693
100
AcDbEntity
  8
0
100
AcDbEllipse
 62
7
  6
CONTINUOUS
 10
267.7073273445
 20
239.3440088825
 30
0.0
 11
0.2999152621
 21
0.0134189789
 31
0.0
 40
0.5313301283
 41
-2.3799630874
 42
-0.8266200532
  0
ELLIPSE
  5
694
100
AcDbEntity
  8
0
100
AcDbEllipse
 62
7
  6
CONTINUOUS
 10
258.3661230472
 20
243.5631150815
 30
0.0
 11
0.199943508
 21
0.008945986
 31
0.0
 40
0.5313301283
 41
-0.8615266382
 42
-0.8266200532
  0
ENDSEC
  0
SECTION
  2
OBJECTS
  0
DICTIONARY
  5
C
100
AcDbDictionary
280
0
281
1
  3
ACAD_GROUP
350
D
  3
ACAD_MLINESTYLE
350
17
  3
ACAD_LAYOUT
350
1A
  3
ACAD_PLOTSETTINGS
350
19
  3
ACAD_PLOTSTYLENAME
350
E
  0
DICTIONARY
  5
D
102
{ACAD_REACTORS
330
C
102
}
100
AcDbDictionary
280
0
281
1
  0
ACDBDICTIONARYWDFLT
  5
E
102
{ACAD_REACTORS
330
C
102
}
100
AcDbDictionary
281
1
  3
Normal
350
F
100
AcDbDictionaryWithDefault
340
F
  0
DICTIONARY
  5
17
102
{ACAD_REACTORS
330
C
102
}
100
AcDbDictionary
280
0
281
1
  3
Standard
350
18
  0
DICTIONARY
  5
19
102
{ACAD_REACTORS
330
C
102
}
100
AcDbDictionary
281
1
  0
DICTIONARY
  5
1A
102
{ACAD_REACTORS
330
C
102
}
100
AcDbDictionary
281
1
  3
Model
350
695
  3
Layout1
350
696
  0
ACDBPLACEHOLDER
  5
F
102
{ACAD_REACTORS
330
E
102
}
  0
MLINESTYLE
  5
18
102
{ACAD_REACTORS
330
17
102
}
100
AcDbMlineStyle
  2
STANDARD
 70
0
  3

 62
256
 51
90.0
 52
90.0
 71
2
 49
0.5
 62
256
  6
BYLAYER
 49
-0.5
 62
256
  6
BYLAYER
  0
LAYOUT
  5
695
102
{ACAD_REACTORS
330
1A
102
}
100
AcDbPlotSettings
  1

  2
none_device
  4
ANSI_C_(22.00_x_17.00_Inches)
  6

 40
0.0
 41
0.0
 42
0.0
 43
0.0
 44
558.8
 45
431.8
 46
0.0
 47
0.0
 48
0.0
 49
0.0
140
0.0
141
0.0
142
1.0
143
1.0
 70
1024
 72
1
 73
0
 74
0
  7

 75
0
147
1.0
148
0.0
149
0.0
100
AcDbLayout
  1
Model
 70
0
 71
0
 10
0.0
 20
0.0
 11
558.8
 21
431.8
 12
0.0
 22
0.0
 32
0.0
 14
0.0
 24
0.0
 34
0.0
 15
0.0
 25
0.0
 35
0.0
146
0.0
 13
0.0
 23
0.0
 33
0.0
 16
1.0
 26
0.0
 36
0.0
 17
0.0
 27
1.0
 37
0.0
 76
0
330
226
345
0
346
0
  0
LAYOUT
  5
696
102
{ACAD_REACTORS
330
1A
102
}
100
AcDbPlotSettings
  1

  2
none_device
  4
ANSI_C_(22.00_x_17.00_Inches)
  6

 40
0.0
 41
0.0
 42
0.0
 43
0.0
 44
558.8
 45
431.8
 46
0.0
 47
0.0
 48
0.0
 49
0.0
140
0.0
141
0.0
142
1.0
143
1.0
 70
0
 72
1
 73
0
 74
0
  7

 75
0
147
1.0
148
0.0
149
0.0
100
AcDbLayout
  1
Layout1
 70
0
 71
1
 10
0.0
 20
0.0
 11
558.8
 21
431.8
 12
0.0
 22
0.0
 32
0.0
 14
0.0
 24
0.0
 34
0.0
 15
0.0
 25
0.0
 35
0.0
146
0.0
 13
0.0
 23
0.0
 33
0.0
 16
1.0
 26
0.0
 36
0.0
 17
0.0
 27
1.0
 37
0.0
 76
0
330
227
345
0
346
0
  0
ENDSEC
  0
EOF
