  0
SECTION
  2
HEADER
  9
$ACADVER
  1
AC1024
  9
$DWGCODEPAGE
  3
ANSI_1252
  9
$EXTMAX
 10
558.8
 20
431.8
 30
0.0
  9
$EXTMIN
 10
0.0
 20
0.0
 30
0.0
  9
$LIMMIN
 10
0.0
 20
0.0
  9
$LIMMAX
 10
558.8
 20
431.8
  9
$VIEWCTR
 10
279.4
 20
215.9
  9
$VIEWSIZE
 40
431.8
  9
$CLAYER
  8
0
  9
$LTSCALE
 40
30.734
  9
$CELTYPE
  6
BYLAYER
  9
$DIMSCALE
 40
1.0
  9
$DIMASZ
 40
3.0
  9
$DIMEXO
 40
0.5
  9
$DIMDLI
 40
21.2344
  9
$DIMEXE
 40
1.5
  9
$DIMCEN
 40
5.0292
  9
$DIMLFAC
 40
1.0
  9
$DIMBLK
  1
_FILLED
  9
$DIMALT
 70
0
  9
$DIMALTF
 40
0.0393700787
  9
$DIMTXT
 40
3.0
  9
$DIMTOL
 70
1
  9
$DIMLIM
 70
0
  9
$DIMTFAC
 40
1.0
  9
$DIMTP
 40
0.01
  9
$DIMTM
 40
0.01
  9
$DIMGAP
 40
0.625
  9
$DIMDSEP
 70
44
  9
$AUNITS
 70
0
  9
$PDMODE
 70
3
  9
$PDSIZE
 40
3.0
  9
$HANDSEED
  5
698
  9
$TILEMODE
 70
1
  9
$MEASUREMENT
 70
1
  9
$INSUNITS
 70
4
  0
ENDSEC
  0
SECTION
  2
CLASSES
  0
CLASS
  1
ACDBDICTIONARYWDFLT
  2
AcDbDictionaryWithDefault
  3
AutoCAD 2000
 90
0
 91
1
280
0
281
0
  0
CLASS
  1
ACDBPLACEHOLDER
  2
AcDbPlaceHolder
  3
AutoCAD 2000
 90
0
 91
1
280
0
281
0
  0
CLASS
  1
LAYOUT
  2
AcDbLayout
  3
AutoCAD 2000
 90
0
 91
0
280
0
281
0
  0
ENDSEC
  0
SECTION
  2
TABLES
  0
TABLE
  2
VPORT
  5
8
100
AcDbSymbolTable
 70
2
  0
VPORT
  5
1F4
100
AcDbSymbolTableRecord
100
AcDbViewportTableRecord
  2
*ACTIVE
 70
0
 10
0.0
 20
0.0
 11
1.0
 21
1.0
 12
279.4
 22
215.9
 13
0.0
 23
0.0
 14
1.0
 24
1.0
 15
0.0
 25
0.0
 16
0.0
 26
0.0
 36
1.0
 17
0.0
 27
0.0
 37
0.0
 40
431.8
 41
1.2941176471
 42
50.0
 43
0.0
 44
0.0
 50
0.0
 51
0.0
 71
0
 72
100
 73
1
 74
1
 75
0
 76
0
 77
0
 78
0
  0
ENDTAB
  0
TABLE
  2
LTYPE
  5
5
100
AcDbSymbolTable
 70
6
  0
LTYPE
  5
14
100
AcDbSymbolTableRecord
100
AcDbLinetypeTableRecord
  2
BYBLOCK
 70
0
  3

 72
65
 73
0
 40
0.0
  0
LTYPE
  5
15
100
AcDbSymbolTableRecord
100
AcDbLinetypeTableRecord
  2
BYLAYER
 70
0
  3

 72
65
 73
0
 40
0.0
  0
LTYPE
  5
16
100
AcDbSymbolTableRecord
100
AcDbLinetypeTableRecord
  2
CONTINUOUS
 70
64
  3
Solid line
 72
65
 73
0
 40
0.0
  0
LTYPE
  5
1F5
100
AcDbSymbolTableRecord
100
AcDbLinetypeTableRecord
  2
CENTER
 70
64
  3
____ _ ____ _ ____ _ ____ _ ____ _ ____ _ ____
 72
65
 73
4
 40
0.6
 49
0.375
 74
0
 49
-0.075
 74
0
 49
0.075
 74
0
 49
-0.075
 74
0
  0
LTYPE
  5
1F6
100
AcDbSymbolTableRecord
100
AcDbLinetypeTableRecord
  2
HIDDEN
 70
64
  3
- - - - - - - - - - - - - - - - - - - -
 72
65
 73
2
 40
0.2
 49
0.1
 74
0
 49
-0.1
 74
0
  0
LTYPE
  5
1F7
100
AcDbSymbolTableRecord
100
AcDbLinetypeTableRecord
  2
PHANTOM
 70
64
  3
_____ _ _ _____ _ _ _____ _ _ _____
 72
65
 73
6
 40
0.8
 49
0.45
 74
0
 49
-0.05
 74
0
 49
0.1
 74
0
 49
-0.05
 74
0
 49
0.1
 74
0
 49
-0.05
 74
0
  0
LTYPE
  5
1F8
100
AcDbSymbolTableRecord
100
AcDbLinetypeTableRecord
  2
DOT
 70
64
  3
. . . . . . . . . . . . . . . . . . . .
 72
65
 73
2
 40
0.2
 49
0.1
 74
0
 49
-0.1
 74
0
  0
LTYPE
  5
1F9
100
AcDbSymbolTableRecord
100
AcDbLinetypeTableRecord
  2
DASHED
 70
64
  3
- - - - - - - - - - - - - - - - - - - -
 72
65
 73
2
 40
0.2
 49
0.1
 74
0
 49
-0.1
 74
0
  0
ENDTAB
  0
TABLE
  2
LAYER
  5
2
100
AcDbSymbolTable
 70
36
  0
LAYER
  5
10
100
AcDbSymbolTableRecord
100
AcDbLayerTableRecord
  2
0
 70
0
 62
7
  6
CONTINUOUS
370
-3
390
F
  0
LAYER
  5
1FA
100
AcDbSymbolTableRecord
100
AcDbLayerTableRecord
  2
DEFAULT_1
 70
0
 62
7
  6
CENTER
370
-3
390
F
  0
LAYER
  5
1FB
100
AcDbSymbolTableRecord
100
AcDbLayerTableRecord
  2
DEFAULT_2
 70
0
 62
7
  6
HIDDEN
370
-3
390
F
  0
LAYER
  5
1FC
100
AcDbSymbolTableRecord
100
AcDbLayerTableRecord
  2
DEFAULT_3
 70
0
 62
7
  6
PHANTOM
370
-3
390
F
  0
LAYER
  5
1FD
100
AcDbSymbolTableRecord
100
AcDbLayerTableRecord
  2
ASSI
 70
0
 62
7
  6
CONTINUOUS
370
-3
390
F
  0
LAYER
  5
1FE
100
AcDbSymbolTableRecord
100
AcDbLayerTableRecord
  2
COLORE_TOP
 70
0
 62
7
  6
CONTINUOUS
370
-3
390
F
  0
LAYER
  5
1FF
100
AcDbSymbolTableRecord
100
AcDbLayerTableRecord
  2
COORDINATE
 70
0
 62
7
  6
CONTINUOUS
370
-3
390
F
  0
LAYER
  5
200
100
AcDbSymbolTableRecord
100
AcDbLayerTableRecord
  2
COORD_ORIGINE
 70
0
 62
7
  6
CONTINUOUS
370
-3
390
F
  0
LAYER
  5
201
100
AcDbSymbolTableRecord
100
AcDbLayerTableRecord
  2
COPY_PUBLISH
 70
0
 62
7
  6
CONTINUOUS
370
-3
390
F
  0
LAYER
  5
202
100
AcDbSymbolTableRecord
100
AcDbLayerTableRecord
  2
COSMETIC
 70
0
 62
7
  6
CONTINUOUS
370
-3
390
F
  0
LAYER
  5
203
100
AcDbSymbolTableRecord
100
AcDbLayerTableRecord
  2
COSMETICHE
 70
0
 62
7
  6
CONTINUOUS
370
-3
390
F
  0
LAYER
  5
204
100
AcDbSymbolTableRecord
100
AcDbLayerTableRecord
  2
COSMETICI
 70
0
 62
7
  6
CONTINUOUS
370
-3
390
F
  0
LAYER
  5
205
100
AcDbSymbolTableRecord
100
AcDbLayerTableRecord
  2
CURVE
 70
0
 62
7
  6
CONTINUOUS
370
-3
390
F
  0
LAYER
  5
206
100
AcDbSymbolTableRecord
100
AcDbLayerTableRecord
  2
DRAFT
 70
0
 62
7
  6
CONTINUOUS
370
-3
390
F
  0
LAYER
  5
207
100
AcDbSymbolTableRecord
100
AcDbLayerTableRecord
  2
IMPIANTO
 70
0
 62
7
  6
CONTINUOUS
370
-3
390
F
  0
LAYER
  5
208
100
AcDbSymbolTableRecord
100
AcDbLayerTableRecord
  2
IMPORTED
 70
0
 62
7
  6
CONTINUOUS
370
-3
390
F
  0
LAYER
  5
209
100
AcDbSymbolTableRecord
100
AcDbLayerTableRecord
  2
IMPORT_IGES
 70
0
 62
7
  6
CONTINUOUS
370
-3
390
F
  0
LAYER
  5
20A
100
AcDbSymbolTableRecord
100
AcDbLayerTableRecord
  2
INCISIONI_LASER
 70
0
 62
7
  6
CONTINUOUS
370
-3
390
F
  0
LAYER
  5
20B
100
AcDbSymbolTableRecord
100
AcDbLayerTableRecord
  2
INTFCLR_11
 70
0
 62
7
  6
CONTINUOUS
370
-3
390
F
  0
LAYER
  5
20C
100
AcDbSymbolTableRecord
100
AcDbLayerTableRecord
  2
INTFCLR_3
 70
0
 62
7
  6
CONTINUOUS
370
-3
390
F
  0
LAYER
  5
20D
100
AcDbSymbolTableRecord
100
AcDbLayerTableRecord
  2
INTF_1
 70
0
 62
7
  6
CONTINUOUS
370
-3
390
F
  0
LAYER
  5
20E
100
AcDbSymbolTableRecord
100
AcDbLayerTableRecord
  2
INTF_11
 70
0
 62
7
  6
CONTINUOUS
370
-3
390
F
  0
LAYER
  5
20F
100
AcDbSymbolTableRecord
100
AcDbLayerTableRecord
  2
INTF_12
 70
0
 62
7
  6
CONTINUOUS
370
-3
390
F
  0
LAYER
  5
210
100
AcDbSymbolTableRecord
100
AcDbLayerTableRecord
  2
INTF_2
 70
0
 62
7
  6
CONTINUOUS
370
-3
390
F
  0
LAYER
  5
211
100
AcDbSymbolTableRecord
100
AcDbLayerTableRecord
  2
INTF_3
 70
0
 62
7
  6
CONTINUOUS
370
-3
390
F
  0
LAYER
  5
212
100
AcDbSymbolTableRecord
100
AcDbLayerTableRecord
  2
INTF_CYAN
 70
0
 62
7
  6
CONTINUOUS
370
-3
390
F
  0
LAYER
  5
213
100
AcDbSymbolTableRecord
100
AcDbLayerTableRecord
  2
NOTE
 70
0
 62
7
  6
CONTINUOUS
370
-3
390
F
  0
LAYER
  5
214
100
AcDbSymbolTableRecord
100
AcDbLayerTableRecord
  2
PIANI
 70
0
 62
7
  6
CONTINUOUS
370
-3
390
F
  0
LAYER
  5
215
100
AcDbSymbolTableRecord
100
AcDbLayerTableRecord
  2
PIANI_DI_RIFERIMENTO
 70
0
 62
7
  6
CONTINUOUS
370
-3
390
F
  0
LAYER
  5
216
100
AcDbSymbolTableRecord
100
AcDbLayerTableRecord
  2
PIANI_ORIGINE
 70
0
 62
7
  6
CONTINUOUS
370
-3
390
F
  0
LAYER
  5
217
100
AcDbSymbolTableRecord
100
AcDbLayerTableRecord
  2
PIANI_SFORMO
 70
0
 62
7
  6
CONTINUOUS
370
-3
390
F
  0
LAYER
  5
218
100
AcDbSymbolTableRecord
100
AcDbLayerTableRecord
  2
PUNTI
 70
0
 62
7
  6
CONTINUOUS
370
-3
390
F
  0
LAYER
  5
219
100
AcDbSymbolTableRecord
100
AcDbLayerTableRecord
  2
RACCORDO
 70
0
 62
7
  6
CONTINUOUS
370
-3
390
F
  0
LAYER
  5
21A
100
AcDbSymbolTableRecord
100
AcDbLayerTableRecord
  2
RGB__255__255__255__
 70
0
 62
7
  6
CONTINUOUS
370
-3
390
F
  0
LAYER
  5
21B
100
AcDbSymbolTableRecord
100
AcDbLayerTableRecord
  2
RGB____0____0____0__
 70
0
 62
7
  6
CONTINUOUS
370
-3
390
F
  0
LAYER
  5
21C
100
AcDbSymbolTableRecord
100
AcDbLayerTableRecord
  2
RINTRACCIABILITA
 70
0
 62
7
  6
CONTINUOUS
370
-3
390
F
  0
LAYER
  5
21D
100
AcDbSymbolTableRecord
100
AcDbLayerTableRecord
  2
SIMBOLI
 70
0
 62
7
  6
CONTINUOUS
370
-3
390
F
  0
LAYER
  5
21E
100
AcDbSymbolTableRecord
100
AcDbLayerTableRecord
  2
SMUSSO
 70
0
 62
7
  6
CONTINUOUS
370
-3
390
F
  0
LAYER
  5
21F
100
AcDbSymbolTableRecord
100
AcDbLayerTableRecord
  2
SNAPLINE
 70
0
 62
7
  6
CONTINUOUS
370
-3
390
F
  0
LAYER
  5
220
100
AcDbSymbolTableRecord
100
AcDbLayerTableRecord
  2
SUPERFICI
 70
0
 62
7
  6
CONTINUOUS
370
-3
390
F
  0
LAYER
  5
221
100
AcDbSymbolTableRecord
100
AcDbLayerTableRecord
  2
SUP_COLORE
 70
0
 62
7
  6
CONTINUOUS
370
-3
390
F
  0
LAYER
  5
222
100
AcDbSymbolTableRecord
100
AcDbLayerTableRecord
  2
TRASH
 70
0
 62
7
  6
CONTINUOUS
370
-3
390
F
  0
LAYER
  5
223
100
AcDbSymbolTableRecord
100
AcDbLayerTableRecord
  2
XSEC_DATUMS
 70
0
 62
7
  6
CONTINUOUS
370
-3
390
F
  0
LAYER
  5
224
100
AcDbSymbolTableRecord
100
AcDbLayerTableRecord
  2
___SHELL
 70
0
 62
7
  6
CONTINUOUS
370
-3
390
F
  0
ENDTAB
  0
TABLE
  2
STYLE
  5
3
100
AcDbSymbolTable
 70
1
  0
STYLE
  5
11
100
AcDbSymbolTableRecord
100
AcDbTextStyleTableRecord
  2
STANDARD
 70
0
 40
0.0
 41
0.8
 50
0.0
 71
0
 42
0.2
  3
txt
  4

  0
STYLE
  5
225
100
AcDbSymbolTableRecord
100
AcDbTextStyleTableRecord
  2
TEXTSTYLE_1
 70
0
 40
0.0
 41
0.8
 50
0.0
 71
0
 42
0.2
  3
gdt
  4

  0
ENDTAB
  0
TABLE
  2
VIEW
  5
6
100
AcDbSymbolTable
 70
0
  0
ENDTAB
  0
TABLE
  2
UCS
  5
7
100
AcDbSymbolTable
 70
0
  0
ENDTAB
  0
TABLE
  2
APPID
  5
9
100
AcDbSymbolTable
 70
1
  0
APPID
  5
226
100
AcDbSymbolTableRecord
100
AcDbRegAppTableRecord
  2
ACAD
 70
0
  0
ENDTAB
  0
TABLE
  2
BLOCK_RECORD
  5
1
100
AcDbSymbolTable
 70
0
  0
BLOCK_RECORD
  5
227
100
AcDbSymbolTableRecord
100
AcDbBlockTableRecord
  2
*Model_Space
  0
BLOCK_RECORD
  5
228
100
AcDbSymbolTableRecord
100
AcDbBlockTableRecord
  2
*Paper_Space
  0
BLOCK_RECORD
  5
229
100
AcDbSymbolTableRecord
100
AcDbBlockTableRecord
  2
_FILLED
  0
ENDTAB
  0
TABLE
  2
DIMSTYLE
  5
A
100
AcDbSymbolTable
 70
1
100
AcDbDimStyleTable
 71
0
  0
DIMSTYLE
105
22A
100
AcDbSymbolTableRecord
100
AcDbDimStyleTableRecord
  2
STANDARD
 70
0
  3

  4

 40
1.0
 41
3.0
 42
0.5
 43
0.38
 44
1.5
 45
0.0
 46
0.0
 47
0.01
 48
0.01
140
3.0
141
0.09
142
0.0
143
25.4
144
1.0
145
0.0
146
1.0
147
0.625
 71
1
 72
0
 73
0
 74
0
 75
0
 76
0
 77
1
 78
8
 79
2
170
0
171
1
172
0
173
0
174
0
175
0
176
0
177
0
178
0
270
2
179
2
271
2
272
2
273
2
274
2
275
0
280
0
281
0
282
0
283
1
284
8
285
0
286
0
287
3
288
0
340
11
278
44
341
229
342
229
343
229
344
229
  0
ENDTAB
  0
ENDSEC
  0
SECTION
  2
BLOCKS
  0
BLOCK
  5
20
100
AcDbEntity
  8
0
100
AcDbBlockBegin
  2
*Model_Space
 70
0
 10
0.0
 20
0.0
 30
0.0
  3
*Model_Space
  1

  0
ENDBLK
  5
21
100
AcDbEntity
  8
0
100
AcDbBlockEnd
  0
BLOCK
  5
1C
100
AcDbEntity
  8
0
100
AcDbBlockBegin
  2
*Paper_Space
 70
0
 10
0.0
 20
0.0
 30
0.0
  3
*Paper_Space
  1

  0
ENDBLK
  5
1D
100
AcDbEntity
  8
0
100
AcDbBlockEnd
  0
BLOCK
  5
22B
100
AcDbEntity
  8
0
100
AcDbBlockBegin
  2
_FILLED
 70
64
 10
0.0
 20
0.0
  3
_FILLED
  1

  0
SOLID
  5
22C
100
AcDbEntity
  8
0
  6
BYBLOCK
 62
0
100
AcDbTrace
 10
0.0
 20
0.0
 11
-1.0
 21
0.3166666667
 12
-1.0
 22
-0.3166666667
 13
-1.0
 23
-0.3166666667
  0
ENDBLK
  5
22D
100
AcDbEntity
  8
0
  6
BYBLOCK
 62
0
100
AcDbBlockEnd
  0
ENDSEC
  0
SECTION
  2
ENTITIES
  0
LWPOLYLINE
  5
22E
100
AcDbEntity
  8
0
100
AcDbPolyline
 62
250
  6
CONTINUOUS
 90
11
 70
0
 10
268.9553499471
 20
223.6915065499
 10
268.9640371747
 20
223.7028061141
 10
268.9730380539
 20
223.7136227622
 10
268.9823207354
 20
223.7239191244
 10
268.9918542795
 20
223.7336611419
 10
269.0016054842
 20
223.7428155404
 10
269.0115405446
 20
223.7513512216
 10
269.0216266994
 20
223.7592400328
 10
269.0318296113
 20
223.7664552129
 10
269.0421134126
 20
223.7729717675
 10
269.0524425277
 20
223.7787674286
  0
LWPOLYLINE
  5
22F
100
AcDbEntity
  8
0
100
AcDbPolyline
 62
7
  6
CONTINUOUS
 90
12
 70
0
 10
268.9600835572
 20
223.7829129746
 10
268.9419679568
 20
223.7721135796
 10
268.9207004987
 20
223.7564908779
 10
268.9008125099
 20
223.7384056191
 10
268.8825701379
 20
223.7180288218
 10
268.8666523352
 20
223.6962195437
 10
268.8527864043
 20
223.6727291621
 10
268.8410227057
 20
223.6474526102
 10
268.8319535772
 20
223.6216113922
 10
268.8255766207
 20
223.5955256586
 10
268.8217813111
 20
223.5685099013
 10
268.8207789247
 20
223.5458296646
  0
LINE
  5
230
100
AcDbEntity
  8
0
100
AcDbLine
 62
7
  6
CONTINUOUS
 10
268.9599459066
 20
223.7828389735
 11
270.5271892152
 21
224.6284026937
  0
LINE
  5
231
100
AcDbEntity
  8
0
100
AcDbLine
 62
250
  6
CONTINUOUS
 10
269.0524425277
 20
223.7787674286
 11
270.6186932739
 21
224.6237956386
  0
LWPOLYLINE
  5
232
100
AcDbEntity
  8
0
100
AcDbPolyline
 62
7
  6
CONTINUOUS
 90
15
 70
0
 10
271.1658436402
 20
222.4222957142
 10
271.1514746815
 20
222.406285928
 10
271.1358152204
 20
222.3911293717
 10
271.11898035
 20
222.3768998568
 10
271.10112061
 20
222.3635773918
 10
271.0823702067
 20
222.3513134674
 10
271.0628402131
 20
222.3404387837
 10
271.0427154886
 20
222.3310050552
 10
271.0221894299
 20
222.3230674685
 10
271.0014063408
 20
222.3169680021
 10
270.9805675264
 20
222.3127472623
 10
270.9599571311
 20
222.31043429
 10
270.9398660566
 20
222.3103413521
 10
270.9205756016
 20
222.3125605073
 10
270.9150211209
 20
222.3136465115
  0
LWPOLYLINE
  5
233
100
AcDbEntity
  8
0
100
AcDbPolyline
 62
7
  6
CONTINUOUS
 90
3
 70
0
 10
271.9724120415
 20
222.7655757033
 10
271.9649470222
 20
222.7576194023
 10
271.9572379537
 20
222.748162743
  0
LWPOLYLINE
  5
234
100
AcDbEntity
  8
0
100
AcDbPolyline
 62
7
  6
CONTINUOUS
 90
10
 70
0
 10
272.0162127554
 20
222.7944708108
 10
272.0144708169
 20
222.7926659728
 10
272.0114144167
 20
222.7903506009
 10
272.0076982736
 20
222.7881908313
 10
272.0033412487
 20
222.7860025244
 10
271.9982626301
 20
222.7834059136
 10
271.9925675828
 20
222.7804326676
 10
271.9863434801
 20
222.7769037892
 10
271.9795871657
 20
222.7720602908
 10
271.9724120415
 20
222.7655757033
  0
LINE
  5
235
100
AcDbEntity
  8
0
100
AcDbLine
 62
7
  6
CONTINUOUS
 10
270.8854906099
 20
221.4652408045
 11
270.9178541299
 21
221.4877657605
  0
LWPOLYLINE
  5
236
100
AcDbEntity
  8
0
100
AcDbPolyline
 62
7
  6
CONTINUOUS
 90
6
 70
0
 10
270.9178541299
 20
221.4877657605
 10
270.9356059893
 20
221.500033952
 10
270.9546063904
 20
221.512732669
 10
270.9745761126
 20
221.5256156944
 10
270.99465248
 20
221.5383768652
 10
271.0142961128
 20
221.5506444182
  0
LWPOLYLINE
  5
237
100
AcDbEntity
  8
0
100
AcDbPolyline
 62
7
  6
CONTINUOUS
 90
11
 70
0
 10
269.3392848952
 20
222.4353346277
 10
269.3192707246
 20
222.4224580029
 10
269.2894905343
 20
222.3988770806
 10
269.2621248764
 20
222.3712566043
 10
269.237811277
 20
222.3400422623
 10
269.2168677361
 20
222.3055201179
 10
269.1995726469
 20
222.2679973458
 10
269.1861830302
 20
222.228000501
 10
269.176777203
 20
222.1858412538
 10
269.1714103801
 20
222.1416504101
 10
269.170060409
 20
222.104593087
  0
LWPOLYLINE
  5
238
100
AcDbEntity
  8
0
100
AcDbPolyline
 62
7
  6
CONTINUOUS
 90
19
 70
0
 10
264.9012386589
 20
219.881144393
 10
264.869736503
 20
219.8622105729
 10
264.7806358054
 20
219.8023090029
 10
264.6948548526
 20
219.7352735193
 10
264.6125850774
 20
219.6615103387
 10
264.5340517709
 20
219.5814495245
 10
264.4596210911
 20
219.4956759251
 10
264.3894856965
 20
219.40455459
 10
264.3239083492
 20
219.308530169
 10
264.2634318305
 20
219.2084442339
 10
264.2082892202
 20
219.1047663264
 10
264.1587421718
 20
218.9979526664
 10
264.1152491827
 20
218.8889698689
 10
264.0780308383
 20
218.7783420321
 10
264.0473123654
 20
218.6665126653
 10
264.0233973431
 20
218.5542820626
 10
264.0065054156
 20
218.4421695792
 10
263.996824323
 20
218.3305750597
 10
263.9953017148
 20
218.2952989915
  0
LINE
  5
239
100
AcDbEntity
  8
0
100
AcDbLine
 62
7
  6
CONTINUOUS
 10
269.3389394236
 20
222.4351383472
 11
269.5155429131
 21
222.5398292828
  0
LINE
  5
23A
100
AcDbEntity
  8
0
100
AcDbLine
 62
7
  6
CONTINUOUS
 10
264.9010017807
 20
219.8810065162
 11
265.8430944383
 21
220.4303328247
  0
LINE
  5
23B
100
AcDbEntity
  8
0
100
AcDbLine
 62
250
  6
CONTINUOUS
 10
265.1343558326
 20
219.8722391256
 11
266.0769972135
 21
220.42188539
  0
LINE
  5
23C
100
AcDbEntity
  8
0
100
AcDbLine
 62
250
  6
CONTINUOUS
 10
270.3403391098
 20
223.1348191375
 11
271.9622392364
 21
223.9520226573
  0
LINE
  5
23D
100
AcDbEntity
  8
0
100
AcDbLine
 62
250
  6
CONTINUOUS
 10
270.4817389269
 20
222.8909405282
 11
272.1036390535
 21
223.708144048
  0
LINE
  5
23E
100
AcDbEntity
  8
0
100
AcDbLine
 62
7
  6
CONTINUOUS
 10
270.5313541224
 20
224.6304854185
 11
270.5271886735
 21
224.6284024014
  0
LINE
  5
23F
100
AcDbEntity
  8
0
100
AcDbLine
 62
250
  6
CONTINUOUS
 10
271.9622392364
 20
223.9520226573
 11
272.4864995684
 21
224.2120596468
  0
LINE
  5
240
100
AcDbEntity
  8
0
100
AcDbLine
 62
250
  6
CONTINUOUS
 10
272.1036390535
 20
223.708144048
 11
272.6277435201
 21
223.9681037271
  0
LWPOLYLINE
  5
241
100
AcDbEntity
  8
0
100
AcDbPolyline
 62
250
  6
CONTINUOUS
 90
7
 70
0
 10
268.9600835236
 20
223.7829130371
 10
268.9653860452
 20
223.7854981813
 10
268.9808521135
 20
223.7904405749
 10
268.9975848536
 20
223.792242434
 10
269.0152980745
 20
223.7908729402
 10
269.0336888155
 20
223.786355517
 10
269.0524425277
 20
223.7787674286
  0
LWPOLYLINE
  5
242
100
AcDbEntity
  8
0
100
AcDbPolyline
 62
250
  6
CONTINUOUS
 90
8
 70
0
 10
264.9012386589
 20
219.881144393
 10
264.926593222
 20
219.8933112911
 10
264.9571002807
 20
219.9022032116
 10
264.989749626
 20
219.9061362943
 10
265.0241839611
 20
219.9050674983
 10
265.0600264548
 20
219.89900852
 10
265.0968848651
 20
219.8880256655
 10
265.1343558326
 20
219.8722391256
  0
LWPOLYLINE
  5
243
100
AcDbEntity
  8
0
100
AcDbPolyline
 62
250
  6
CONTINUOUS
 90
28
 70
0
 10
272.6277435201
 20
223.9681037271
 10
272.6294098236
 20
223.9688950664
 10
272.6311092081
 20
223.9695811868
 10
272.6328416736
 20
223.9701620884
 10
272.6346179709
 20
223.9706487111
 10
272.6364273491
 20
223.9710301151
 10
272.6382375559
 20
223.9712734804
 10
272.6400494003
 20
223.9713744915
 10
272.6418620731
 20
223.9713374641
 10
272.6436408947
 20
223.9711425254
 10
272.6453851818
 20
223.9707843583
 10
272.6470956176
 20
223.97026828
 10
272.6487395717
 20
223.9695903694
 10
272.6503143884
 20
223.9687460727
 10
272.6518227233
 20
223.9677399437
 10
272.6532399129
 20
223.9665817224
 10
272.6545628228
 20
223.9652694055
 10
272.6557945873
 20
223.9638049963
 10
272.6569199462
 20
223.9622042453
 10
272.6579373008
 20
223.9604656336
 10
272.6588482496
 20
223.9585906802
 10
272.6596423289
 20
223.9565996921
 10
272.6603181302
 20
223.9544911522
 10
272.6608770619
 20
223.9522665777
 10
272.661312885
 20
223.9499508276
 10
272.6616235199
 20
223.9475521884
 10
272.6618110463
 20
223.9450623736
 10
272.661875464
 20
223.9424813833
  0
LINE
  5
244
100
AcDbEntity
  8
0
100
AcDbLine
 62
250
  6
CONTINUOUS
 10
270.6186932739
 20
224.6237956386
 11
271.1612948088
 21
224.8743870086
  0
LINE
  5
245
100
AcDbEntity
  8
0
100
AcDbLine
 62
7
  6
CONTINUOUS
 10
270.5313551241
 20
224.6304859588
 11
271.0753142548
 21
224.8817038826
  0
LWPOLYLINE
  5
246
100
AcDbEntity
  8
0
100
AcDbPolyline
 62
250
  6
CONTINUOUS
 90
14
 70
0
 10
272.4865017857
 20
224.2120584503
 10
272.4948345371
 20
224.2158235226
 10
272.5034076853
 20
224.2191877932
 10
272.5121971137
 20
224.2220934544
 10
272.5212010795
 20
224.224487308
 10
272.5303603079
 20
224.2262986801
 10
272.5395613278
 20
224.2274588847
 10
272.5487623606
 20
224.2279240523
 10
272.5579293748
 20
224.2276523604
 10
272.5669637512
 20
224.2266115314
 10
272.5758256987
 20
224.2247773529
 10
272.5844749541
 20
224.2221280849
 10
272.5928207077
 20
224.2186680455
 10
272.5946824767
 20
224.2177628921
  0
LWPOLYLINE
  5
247
100
AcDbEntity
  8
0
100
AcDbPolyline
 62
250
  6
CONTINUOUS
 90
13
 70
0
 10
271.1612965199
 20
224.8743861008
 10
271.1704168114
 20
224.8784410727
 10
271.179678526
 20
224.8819689182
 10
271.1890536817
 20
224.8849251853
 10
271.1985270112
 20
224.8872687304
 10
271.2080489494
 20
224.8889501136
 10
271.2175378486
 20
224.8899234038
 10
271.2269617453
 20
224.8901571693
 10
271.2362776748
 20
224.8896212624
 10
271.2453912463
 20
224.8882989188
 10
271.2542635574
 20
224.8861804736
 10
271.2628617981
 20
224.8832578431
 10
271.2705170619
 20
224.8798455995
  0
LWPOLYLINE
  5
248
100
AcDbEntity
  8
0
100
AcDbPolyline
 62
250
  6
CONTINUOUS
 90
6
 70
0
 10
271.0753142548
 20
224.8817038826
 10
271.0916347108
 20
224.8870205845
 10
271.108074094
 20
224.8886757768
 10
271.1253836671
 20
224.8871044606
 10
271.1432673737
 20
224.8823335088
 10
271.1614193366
 20
224.8744445197
  0
LWPOLYLINE
  5
249
100
AcDbEntity
  8
0
100
AcDbPolyline
 62
7
  6
CONTINUOUS
 90
12
 70
0
 10
279.3591128508
 20
174.332669756
 10
279.4160528672
 20
174.3065824506
 10
279.4911785601
 20
174.2791956251
 10
279.5695020751
 20
174.2583484804
 10
279.6505541375
 20
174.2443659962
 10
279.7339006235
 20
174.2375122705
 10
279.8190748551
 20
174.2379870252
 10
279.905630664
 20
174.245946138
 10
279.9932809618
 20
174.2615384046
 10
280.0816671028
 20
174.2848606593
 10
280.1702990728
 20
174.3159606757
 10
280.1945124588
 20
174.3258238785
  0
LINE
  5
24A
100
AcDbEntity
  8
0
100
AcDbLine
 62
7
  6
CONTINUOUS
 10
279.360104497
 20
174.3321725075
 11
264.5262062172
 21
181.7491216474
  0
LINE
  5
24B
100
AcDbEntity
  8
0
100
AcDbLine
 62
250
  6
CONTINUOUS
 10
264.5262056197
 20
181.7491219462
 11
264.4865459849
 21
181.7710373846
  0
LWPOLYLINE
  5
24C
100
AcDbEntity
  8
0
100
AcDbPolyline
 62
250
  6
CONTINUOUS
 90
12
 70
0
 10
264.4865459849
 20
181.7710373846
 10
264.4361975961
 20
181.8055254537
 10
264.3885345193
 20
181.8463995781
 10
264.3437658588
 20
181.8939248289
 10
264.3024775005
 20
181.9479680417
 10
264.2649169012
 20
182.0087361502
 10
264.2314227526
 20
182.0764309273
 10
264.2025573159
 20
182.1507923411
 10
264.1788545829
 20
182.23121752
 10
264.1606566727
 20
182.3172570451
 10
264.1482124761
 20
182.4087152941
 10
264.1417898226
 20
182.5051951021
  0
LWPOLYLINE
  5
24D
100
AcDbEntity
  8
0
100
AcDbPolyline
 62
250
  6
CONTINUOUS
 90
9
 70
0
 10
263.9953260214
 20
182.6828420525
 10
263.996175867
 20
182.6714988418
 10
264.0019947241
 20
182.6446198317
 10
264.013096364
 20
182.6183302271
 10
264.0293618382
 20
182.5929117084
 10
264.05061687
 20
182.5686366225
 10
264.0766337222
 20
182.5457650651
 10
264.1071336369
 20
182.5245420937
 10
264.1417898226
 20
182.5051951021
  0
LWPOLYLINE
  5
24E
100
AcDbEntity
  8
0
100
AcDbPolyline
 62
7
  6
CONTINUOUS
 90
14
 70
0
 10
263.9953250058
 20
182.6828723818
 10
263.9970777943
 20
182.6449734637
 10
264.0068732818
 20
182.5418412613
 10
264.0237078969
 20
182.4429038663
 10
264.0473768232
 20
182.3485509696
 10
264.0777013792
 20
182.2589624043
 10
264.1145418106
 20
182.1742230954
 10
264.1577146292
 20
182.0946525317
 10
264.2069747625
 20
182.0206160369
 10
264.262027272
 20
181.9524625814
 10
264.3224855981
 20
181.8906145848
 10
264.3878805142
 20
181.8354786367
 10
264.4576077625
 20
181.7874235347
 10
264.5272058513
 20
181.7486228492
  0
LWPOLYLINE
  5
24F
100
AcDbEntity
  8
0
100
AcDbPolyline
 62
250
  6
CONTINUOUS
 90
16
 70
0
 10
264.1417898226
 20
182.5051951021
 10
264.0638246558
 20
185.0067389821
 10
263.9996542839
 20
187.4407318957
 10
263.9482310693
 20
189.8065280439
 10
263.9088466333
 20
192.082551866
 10
263.8800301975
 20
194.2890868975
 10
263.8604381365
 20
196.4887370721
 10
263.8499362855
 20
198.6832639847
 10
263.8483806883
 20
200.8706497224
 10
263.8559314381
 20
203.1086076112
 10
263.8732318201
 20
205.4023122998
 10
263.9008522207
 20
207.7470626195
 10
263.9401449815
 20
210.186387944
 10
263.9926411394
 20
212.7352563873
 10
264.0594201507
 20
215.3797695162
 10
264.1417898226
 20
218.1204349697
  0
LWPOLYLINE
  5
250
100
AcDbEntity
  8
0
100
AcDbPolyline
 62
7
  6
CONTINUOUS
 90
10
 70
0
 10
263.9953073998
 20
218.2954785267
 10
263.880493389
 20
214.3299083844
 10
263.792790663
 20
210.3131664258
 10
263.7343252084
 20
206.3107082906
 10
263.7051019062
 20
202.3228641164
 10
263.7051233889
 20
198.3499557116
 10
263.7343901365
 20
194.3923163835
 10
263.7929006869
 20
190.4502691963
 10
263.8806513071
 20
186.524135967
 10
263.9953260214
 20
182.6828420525
  0
LWPOLYLINE
  5
251
100
AcDbEntity
  8
0
100
AcDbPolyline
 62
250
  6
CONTINUOUS
 90
22
 70
0
 10
264.1417898226
 20
218.1204349697
 10
264.1475408303
 20
218.2159805647
 10
264.1584186771
 20
218.3120331935
 10
264.1741325681
 20
218.4080416046
 10
264.1942493393
 20
218.5029637945
 10
264.2185280153
 20
218.5968495551
 10
264.2471750272
 20
218.6908532969
 10
264.2802991764
 20
218.7851537907
 10
264.3175894826
 20
218.8787167157
 10
264.3587896467
 20
218.970894499
 10
264.4034070519
 20
219.0607264585
 10
264.4514645156
 20
219.1483903129
 10
264.50359394
 20
219.234860258
 10
264.5599295847
 20
219.3199560035
 10
264.6201293808
 20
219.402777127
 10
264.6842569047
 20
219.4830341997
 10
264.7523389876
 20
219.5603309612
 10
264.8239435333
 20
219.6337518239
 10
264.8983694696
 20
219.7022490086
 10
264.9751150783
 20
219.7651344443
 10
265.0539207471
 20
219.8219809494
 10
265.1343558326
 20
219.8722391256
  0
LWPOLYLINE
  5
252
100
AcDbEntity
  8
0
100
AcDbPolyline
 62
250
  6
CONTINUOUS
 90
7
 70
0
 10
272.6561938026
 20
223.586404988
 10
272.657176867
 20
223.5877532518
 10
272.6599942545
 20
223.5951192013
 10
272.6601151869
 20
223.6044647997
 10
272.657537618
 20
223.6156319105
 10
272.6523051628
 20
223.6284315753
 10
272.6445063594
 20
223.6426472116
  0
LWPOLYLINE
  5
253
100
AcDbEntity
  8
0
100
AcDbPolyline
 62
7
  6
CONTINUOUS
 90
9
 70
0
 10
272.6561683421
 20
223.5863736905
 10
272.6656447263
 20
223.5988051285
 10
272.6792581156
 20
223.6196611292
 10
272.691111302
 20
223.6419288195
 10
272.7010539682
 20
223.6654902203
 10
272.708707256
 20
223.6894671254
 10
272.7140709502
 20
223.7136230261
 10
272.7172134197
 20
223.7384503998
 10
272.7180073264
 20
223.758621854
  0
LINE
  5
254
100
AcDbEntity
  8
0
100
AcDbLine
 62
250
  6
CONTINUOUS
 10
272.6445063594
 20
223.6426472116
 11
272.1036390535
 21
222.9733597255
  0
LINE
  5
255
100
AcDbEntity
  8
0
100
AcDbLine
 62
7
  6
CONTINUOUS
 10
272.6561938026
 20
223.586404988
 11
272.0161807455
 21
222.7944311981
  0
LWPOLYLINE
  5
256
100
AcDbEntity
  8
0
100
AcDbPolyline
 62
7
  6
CONTINUOUS
 90
3
 70
0
 10
269.318585609
 20
219.3739788332
 10
269.3056049781
 20
219.3649247003
 10
269.2936975756
 20
219.3562131822
  0
LWPOLYLINE
  5
257
100
AcDbEntity
  8
0
100
AcDbPolyline
 62
7
  6
CONTINUOUS
 90
4
 70
0
 10
269.3800994354
 20
219.4148387764
 10
269.3633759869
 20
219.4040328056
 10
269.3475399401
 20
219.3934734527
 10
269.318585609
 20
219.3739788332
  0
LWPOLYLINE
  5
258
100
AcDbEntity
  8
0
100
AcDbPolyline
 62
7
  6
CONTINUOUS
 90
3
 70
0
 10
269.4345928963
 20
219.4490761401
 10
269.415703914
 20
219.4375048019
 10
269.3800994354
 20
219.4148387764
  0
LWPOLYLINE
  5
259
100
AcDbEntity
  8
0
100
AcDbPolyline
 62
7
  6
CONTINUOUS
 90
8
 70
0
 10
271.0142961128
 20
221.5506444182
 10
271.0530725907
 20
221.5742529226
 10
271.0726302695
 20
221.5859018087
 10
271.0920206068
 20
221.597089027
 10
271.110705675
 20
221.6076712914
 10
271.1284077339
 20
221.6175315058
 10
271.145131786
 20
221.6265435399
 10
271.1607380874
 20
221.6346047093
  0
LWPOLYLINE
  5
25A
100
AcDbEntity
  8
0
100
AcDbPolyline
 62
250
  6
CONTINUOUS
 90
16
 70
0
 10
274.5481327489
 20
221.6301229808
 10
274.5446773537
 20
221.6280412816
 10
274.5417036821
 20
221.6258461111
 10
274.5392117343
 20
221.6235374691
 10
274.5371862954
 20
221.6210883536
 10
274.5356425802
 20
221.6185257666
 10
274.534626233
 20
221.6159307146
 10
274.5341536129
 20
221.6133024602
 10
274.5342083607
 20
221.6106417408
 10
274.5347870443
 20
221.6080317747
 10
274.5359074279
 20
221.6054731907
 10
274.5375517473
 20
221.6029653599
 10
274.5396632767
 20
221.600589614
 10
274.5422231077
 20
221.5983730634
 10
274.5452501487
 20
221.5962885975
 10
274.5487443999
 20
221.5943362165
  0
LWPOLYLINE
  5
25B
100
AcDbEntity
  8
0
100
AcDbPolyline
 62
250
  6
CONTINUOUS
 90
13
 70
0
 10
274.5487443999
 20
221.5943362165
 10
274.5259546341
 20
221.5806424913
 10
274.5035978257
 20
221.5635815288
 10
274.4820480642
 20
221.5434388049
 10
274.4616659351
 20
221.5205513614
 10
274.4427924863
 20
221.4953021669
 10
274.4257435213
 20
221.4681137084
 10
274.4108043151
 20
221.4394409217
 10
274.3982248408
 20
221.4097635798
 10
274.388215587
 20
221.3795782645
 10
274.3809440352
 20
221.3493900571
 10
274.3765318581
 20
221.3197040877
 10
274.3750528833
 20
221.2910170822
  0
LWPOLYLINE
  5
25C
100
AcDbEntity
  8
0
100
AcDbPolyline
 62
7
  6
CONTINUOUS
 90
11
 70
0
 10
274.4324506992
 20
221.6351794232
 10
274.4211925197
 20
221.6287815901
 10
274.3951208375
 20
221.6112119397
 10
274.3703835523
 20
221.5901588023
 10
274.3481896376
 20
221.5662656875
 10
274.3290735382
 20
221.5399839986
 10
274.3132600094
 20
221.5115868517
 10
274.3012250071
 20
221.4821072345
 10
274.2930122976
 20
221.4523528071
 10
274.2884133979
 20
221.4226866357
 10
274.287187894
 20
221.3973253697
  0
LINE
  5
25D
100
AcDbEntity
  8
0
100
AcDbLine
 62
7
  6
CONTINUOUS
 10
269.5554819365
 20
219.5185797701
 11
269.5354839598
 21
219.5072520319
  0
LWPOLYLINE
  5
25E
100
AcDbEntity
  8
0
100
AcDbPolyline
 62
7
  6
CONTINUOUS
 90
6
 70
0
 10
269.7261168742
 20
218.919077378
 10
269.7080548805
 20
218.9088655254
 10
269.6595944653
 20
218.8765222383
 10
269.6143971548
 20
218.8386911127
 10
269.5729209285
 20
218.7956226122
 10
269.5574006768
 20
218.7756909516
  0
LWPOLYLINE
  5
25F
100
AcDbEntity
  8
0
100
AcDbPolyline
 62
7
  6
CONTINUOUS
 90
4
 70
0
 10
269.5354839598
 20
219.5072520319
 10
269.4942183365
 20
219.4845855655
 10
269.4738574591
 20
219.4728690944
 10
269.4345928963
 20
219.4490761401
  0
LINE
  5
260
100
AcDbEntity
  8
0
100
AcDbLine
 62
7
  6
CONTINUOUS
 10
271.9572379537
 20
222.0693472776
 11
271.1658436402
 21
221.63730186
  0
LINE
  5
261
100
AcDbEntity
  8
0
100
AcDbLine
 62
7
  6
CONTINUOUS
 10
274.9237251982
 20
221.9002332164
 11
274.4324507406
 21
221.6351793467
  0
LINE
  5
262
100
AcDbEntity
  8
0
100
AcDbLine
 62
250
  6
CONTINUOUS
 10
275.0381052715
 20
221.8944743975
 11
274.5481327489
 21
221.6301229808
  0
LINE
  5
263
100
AcDbEntity
  8
0
100
AcDbLine
 62
7
  6
CONTINUOUS
 10
269.726056575
 20
218.9190493479
 11
271.3631683521
 21
219.80230875
  0
LINE
  5
264
100
AcDbEntity
  8
0
100
AcDbLine
 62
250
  6
CONTINUOUS
 10
270.1849614805
 20
218.8967611426
 11
271.8206886453
 21
219.7792734743
  0
LINE
  5
265
100
AcDbEntity
  8
0
100
AcDbLine
 62
7
  6
CONTINUOUS
 10
274.9237258972
 20
221.9002335392
 11
274.9289338748
 21
221.9028378937
  0
LINE
  5
266
100
AcDbEntity
  8
0
100
AcDbLine
 62
7
  6
CONTINUOUS
 10
279.8334234423
 20
225.4616452116
 11
273.2543873756
 21
222.2658880317
  0
LINE
  5
267
100
AcDbEntity
  8
0
100
AcDbLine
 62
250
  6
CONTINUOUS
 10
280.0550931039
 20
225.4464942996
 11
273.3789897683
 21
222.2035868353
  0
LINE
  5
268
100
AcDbEntity
  8
0
100
AcDbLine
 62
250
  6
CONTINUOUS
 10
280.7097406402
 20
224.3322214048
 11
276.0280816891
 21
222.0914764402
  0
LINE
  5
269
100
AcDbEntity
  8
0
100
AcDbLine
 62
7
  6
CONTINUOUS
 10
273.5182402004
 20
222.1339616193
 11
274.314980041
 21
222.5102933676
  0
LINE
  5
26A
100
AcDbEntity
  8
DRAFT
100
AcDbLine
 62
7
  6
CONTINUOUS
 10
287.00400616
 20
228.4083795111
 11
280.3795103887
 21
225.2842856572
  0
LINE
  5
26B
100
AcDbEntity
  8
0
100
AcDbLine
 62
7
  6
CONTINUOUS
 10
288.3252785782
 20
228.5297851703
 11
274.101433419
 21
221.84236501
  0
LINE
  5
26C
100
AcDbEntity
  8
0
100
AcDbLine
 62
250
  6
CONTINUOUS
 10
288.4347328711
 20
228.5215587622
 11
274.1629564941
 21
221.8116034724
  0
LINE
  5
26D
100
AcDbEntity
  8
0
100
AcDbLine
 62
7
  6
CONTINUOUS
 10
274.9289325843
 20
221.9028372978
 11
280.4147035628
 21
224.4363481278
  0
LINE
  5
26E
100
AcDbEntity
  8
0
100
AcDbLine
 62
250
  6
CONTINUOUS
 10
275.0381052715
 20
221.8944743975
 11
280.5226084707
 21
224.4273997251
  0
LWPOLYLINE
  5
26F
100
AcDbEntity
  8
0
100
AcDbPolyline
 62
250
  6
CONTINUOUS
 90
31
 70
0
 10
280.5226084707
 20
224.4273997251
 10
280.5332400967
 20
224.4317881847
 10
280.54452321
 20
224.4355457497
 10
280.5564578107
 20
224.4386724203
 10
280.5691922606
 20
224.4411907491
 10
280.5825781979
 20
224.4430781833
 10
280.5961705373
 20
224.4442670648
 10
280.6099701904
 20
224.4447324687
 10
280.6239762456
 20
224.4444993199
 10
280.6377408829
 20
224.4435747338
 10
280.651256315
 20
224.4419361969
 10
280.664530329
 20
224.4396062228
 10
280.6771384671
 20
224.4366594683
 10
280.6890592461
 20
224.4330760574
 10
280.7003141491
 20
224.428875866
 10
280.7105431671
 20
224.4241931787
 10
280.7197130958
 20
224.4190123777
 10
280.7278571395
 20
224.4133490808
 10
280.7347149022
 20
224.4073844251
 10
280.7402449269
 20
224.4011086805
 10
280.7444886706
 20
224.3945315772
 10
280.747310108
 20
224.3878634428
 10
280.7486629581
 20
224.3811013501
 10
280.7485935018
 20
224.3742482263
 10
280.7471045576
 20
224.3675231807
 10
280.7441461999
 20
224.3609281154
 10
280.7397683542
 20
224.3544611283
 10
280.7341236158
 20
224.3483356233
 10
280.7272628499
 20
224.342622735
 10
280.7191351914
 20
224.3372513289
 10
280.7097406402
 20
224.3322214048
  0
LWPOLYLINE
  5
270
100
AcDbEntity
  8
0
100
AcDbPolyline
 62
250
  6
CONTINUOUS
 90
6
 70
0
 10
280.4147035628
 20
224.4363481278
 10
280.4353818675
 20
224.4431206511
 10
280.4559306346
 20
224.4451887869
 10
280.4775667441
 20
224.4432241162
 10
280.4999201226
 20
224.4372603837
 10
280.5226084707
 20
224.4273997251
  0
LWPOLYLINE
  5
271
100
AcDbEntity
  8
0
100
AcDbPolyline
 62
7
  6
CONTINUOUS
 90
16
 70
0
 10
284.5301618046
 20
175.4905324926
 10
284.5157999509
 20
175.4936108554
 10
284.5002600747
 20
175.4975202199
 10
284.4835798794
 20
175.5021690795
 10
284.4657467128
 20
175.5073631345
 10
284.4468994923
 20
175.5130770268
 10
284.427324997
 20
175.5194556677
 10
284.4071248384
 20
175.5263554944
 10
284.3864228429
 20
175.5336344134
 10
284.3655601968
 20
175.5414235107
 10
284.3447206014
 20
175.5495412699
 10
284.32405242
 20
175.5578292109
 10
284.3038673197
 20
175.5664283361
 10
284.2844191689
 20
175.5752434244
 10
284.2659036006
 20
175.5839605224
 10
284.2485745148
 20
175.5923729243
  0
LWPOLYLINE
  5
272
100
AcDbEntity
  8
0
100
AcDbPolyline
 62
250
  6
CONTINUOUS
 90
8
 70
0
 10
282.3317553177
 20
175.4945640893
 10
282.313758117
 20
175.5024816561
 10
282.2972619478
 20
175.5083253442
 10
282.2825459406
 20
175.511996274
 10
282.2698591031
 20
175.5134323313
 10
282.2594161084
 20
175.512609218
 10
282.2513936611
 20
175.5095408642
 10
282.2469339013
 20
175.505656267
  0
LWPOLYLINE
  5
273
100
AcDbEntity
  8
0
100
AcDbPolyline
 62
7
  6
CONTINUOUS
 90
11
 70
0
 10
283.5953065136
 20
174.2535027383
 10
283.60905744
 20
174.2471885758
 10
283.6299953946
 20
174.2396573185
 10
283.6517322389
 20
174.2342497849
 10
283.6740493719
 20
174.2310582609
 10
283.6968024996
 20
174.2301461493
 10
283.7197687038
 20
174.2315731453
 10
283.7426201864
 20
174.235354526
 10
283.7651101415
 20
174.2414589689
 10
283.7870357814
 20
174.2498397705
 10
283.790754065
 20
174.2515141226
  0
LINE
  5
274
100
AcDbEntity
  8
0
100
AcDbLine
 62
250
  6
CONTINUOUS
 10
278.9666359002
 20
175.0927720633
 11
264.1417898226
 21
182.5051951021
  0
LINE
  5
275
100
AcDbEntity
  8
0
100
AcDbLine
 62
250
  6
CONTINUOUS
 10
282.2436755349
 20
175.0320493731
 11
283.5303593983
 21
174.3887074414
  0
LINE
  5
276
100
AcDbEntity
  8
0
100
AcDbLine
 62
250
  6
CONTINUOUS
 10
282.2436755349
 20
175.2627156331
 11
283.5303593983
 21
174.6193563508
  0
LINE
  5
277
100
AcDbEntity
  8
0
100
AcDbLine
 62
250
  6
CONTINUOUS
 10
282.3317553177
 20
175.4945640893
 11
283.6190036419
 21
174.8508515582
  0
LINE
  5
278
100
AcDbEntity
  8
0
100
AcDbLine
 62
7
  6
CONTINUOUS
 10
282.3083305042
 20
174.8969901494
 11
283.5955595955
 21
174.2533755409
  0
LWPOLYLINE
  5
279
100
AcDbEntity
  8
0
100
AcDbPolyline
 62
250
  6
CONTINUOUS
 90
7
 70
0
 10
282.2436755349
 20
175.0320493731
 10
282.2266034635
 20
175.04176859
 10
282.2121834176
 20
175.0525083581
 10
282.2006566828
 20
175.0640889719
 10
282.1922161316
 20
175.0763166561
 10
282.1870029964
 20
175.0889868085
 10
282.1850971886
 20
175.1025875769
  0
LWPOLYLINE
  5
27A
100
AcDbEntity
  8
0
100
AcDbPolyline
 62
250
  6
CONTINUOUS
 90
7
 70
0
 10
282.2436755349
 20
175.2627156331
 10
282.2266034724
 20
175.2724348441
 10
282.212183431
 20
175.2831746065
 10
282.2006566968
 20
175.294755215
 10
282.1922161431
 20
175.306982895
 10
282.1870030031
 20
175.3196530444
 10
282.1850968941
 20
175.3334090163
  0
LWPOLYLINE
  5
27B
100
AcDbEntity
  8
0
100
AcDbPolyline
 62
250
  6
CONTINUOUS
 90
9
 70
0
 10
263.9953017148
 20
218.2952989915
 10
263.9961757281
 20
218.2773730403
 10
264.0019943735
 20
218.2528425433
 10
264.0130958547
 20
218.228595002
 10
264.0293612464
 20
218.204890223
 10
264.0506162808
 20
218.1819822114
 10
264.0766332264
 20
218.1601164259
 10
264.1071333362
 20
218.1395271496
 10
264.1417898234
 20
218.120434994
  0
LINE
  5
27C
100
AcDbEntity
  8
0
100
AcDbLine
 62
7
  6
CONTINUOUS
 10
283.6294795869
 20
223.8252593351
 11
278.0949977431
 21
221.0580184132
  0
LINE
  5
27D
100
AcDbEntity
  8
0
100
AcDbLine
 62
7
  6
CONTINUOUS
 10
289.2863338364
 20
226.3867356097
 11
288.2016499972
 21
225.8443936901
  0
LINE
  5
27E
100
AcDbEntity
  8
0
100
AcDbLine
 62
250
  6
CONTINUOUS
 10
280.8834321567
 20
224.0258170918
 11
276.4261280178
 21
221.8924532759
  0
LINE
  5
27F
100
AcDbEntity
  8
0
100
AcDbLine
 62
7
  6
CONTINUOUS
 10
287.2357241709
 20
226.070267558
 11
280.8834321567
 21
223.0299208575
  0
LINE
  5
280
100
AcDbEntity
  8
0
100
AcDbLine
 62
250
  6
CONTINUOUS
 10
287.9528314522
 20
226.2058938028
 11
290.5652964
 21
227.4562769977
  0
LINE
  5
281
100
AcDbEntity
  8
0
100
AcDbLine
 62
250
  6
CONTINUOUS
 10
288.2016499972
 20
226.0133543171
 11
290.7042496132
 21
227.2111535473
  0
LINE
  5
282
100
AcDbEntity
  8
RACCORDO
100
AcDbLine
 62
7
  6
CONTINUOUS
 10
287.3592280937
 20
225.2646891509
 11
287.2210345521
 21
225.1994148738
  0
LINE
  5
283
100
AcDbEntity
  8
RACCORDO
100
AcDbLine
 62
250
  6
CONTINUOUS
 10
287.4427111389
 20
225.2561659932
 11
287.3064348498
 21
225.1917973103
  0
LWPOLYLINE
  5
284
100
AcDbEntity
  8
RACCORDO
100
AcDbPolyline
 62
250
  6
CONTINUOUS
 90
11
 70
0
 10
288.2761772619
 20
225.3099859663
 10
288.2852697224
 20
225.3140764174
 10
288.2943283966
 20
225.3174332026
 10
288.3033155182
 20
225.3200401747
 10
288.3121967059
 20
225.3218847789
 10
288.3209311703
 20
225.3229559245
 10
288.3294725187
 20
225.3232469386
 10
288.337789344
 20
225.3227564445
 10
288.345842568
 20
225.3214864321
 10
288.3535785484
 20
225.3194489159
 10
288.3609521911
 20
225.316665547
  0
LINE
  5
285
100
AcDbEntity
  8
RACCORDO
100
AcDbLine
 62
7
  6
CONTINUOUS
 10
287.3592294889
 20
225.2646898099
 11
287.362438688
 21
225.2661059869
  0
LWPOLYLINE
  5
286
100
AcDbEntity
  8
RACCORDO
100
AcDbPolyline
 62
7
  6
CONTINUOUS
 90
5
 70
0
 10
287.2210325316
 20
225.1994130398
 10
287.2257870263
 20
225.2014287165
 10
287.2332133862
 20
225.203746579
 10
287.2413598044
 20
225.2052789436
 10
287.2502781393
 20
225.2059298573
  0
LWPOLYLINE
  5
287
100
AcDbEntity
  8
0
100
AcDbPolyline
 62
250
  6
CONTINUOUS
 90
8
 70
0
 10
290.5652964
 20
227.4562769977
 10
290.6018050205
 20
227.4714307579
 10
290.6378563656
 20
227.4817503763
 10
290.6730641702
 20
227.4871252854
 10
290.7070512069
 20
227.4874978965
 10
290.7394533283
 20
227.4828642174
 10
290.7699233677
 20
227.4732738945
 10
290.7827328402
 20
227.4674586625
  0
LWPOLYLINE
  5
288
100
AcDbEntity
  8
0
100
AcDbPolyline
 62
250
  6
CONTINUOUS
 90
16
 70
0
 10
290.7042496132
 20
227.2111535473
 10
290.7263044085
 20
227.2202800308
 10
290.7477174338
 20
227.2264378142
 10
290.7684886891
 20
227.2296268974
 10
290.7888609205
 20
227.2298274996
 10
290.808591382
 20
227.2270594018
 10
290.8269518352
 20
227.2213819466
 10
290.8438560831
 20
227.2126982074
 10
290.8593903228
 20
227.201105111
 10
290.873084906
 20
227.1869527799
 10
290.8848944278
 20
227.1701132814
 10
290.8948642932
 20
227.1507145484
 10
290.9026610696
 20
227.1294905022
 10
290.908173613
 20
227.1066857833
 10
290.9115130675
 20
227.0820557513
 10
290.9126794331
 20
227.0556004061
  0
LINE
  5
289
100
AcDbEntity
  8
0
100
AcDbLine
 62
7
  6
CONTINUOUS
 10
270.6263595227
 20
219.9434253337
 11
269.5751150988
 21
219.5276363346
  0
LWPOLYLINE
  5
28A
100
AcDbEntity
  8
0
100
AcDbPolyline
 62
7
  6
CONTINUOUS
 90
3
 70
0
 10
274.9289338748
 20
221.9028378937
 10
274.949730852
 20
221.9096657997
 10
274.970464474
 20
221.9118192889
  0
LWPOLYLINE
  5
28B
100
AcDbEntity
  8
RACCORDO
100
AcDbPolyline
 62
7
  6
CONTINUOUS
 90
6
 70
0
 10
287.362438688
 20
225.2661059869
 10
287.3756669626
 20
225.2700480119
 10
287.3914505827
 20
225.2713866473
 10
287.4080879153
 20
225.2694928222
 10
287.4252765164
 20
225.2643916133
 10
287.4427111389
 20
225.2561659932
  0
LWPOLYLINE
  5
28C
100
AcDbEntity
  8
0
100
AcDbPolyline
 62
7
  6
CONTINUOUS
 90
14
 70
0
 10
285.3215561182
 20
175.928906069
 10
285.3293377766
 20
175.9275211368
 10
285.3368478459
 20
175.9281120144
 10
285.3440401265
 20
175.9306830986
 10
285.3507740884
 20
175.9355691476
 10
285.3569501877
 20
175.9424428257
 10
285.3626082497
 20
175.9503057865
 10
285.3676751575
 20
175.9588942444
 10
285.3720298706
 20
175.9684167036
 10
285.3757432242
 20
175.9785682649
 10
285.378793259
 20
175.9891861154
 10
285.3810209996
 20
176.0003046871
 10
285.3823075183
 20
176.0118933598
 10
285.382622575
 20
176.0208812164
  0
LINE
  5
28D
100
AcDbEntity
  8
0
100
AcDbLine
 62
250
  6
CONTINUOUS
 10
286.0088245238
 20
175.73588399
 11
285.4679572179
 21
175.8450869852
  0
LINE
  5
28E
100
AcDbEntity
  8
0
100
AcDbLine
 62
250
  6
CONTINUOUS
 10
285.9356554374
 20
175.9907075495
 11
285.3826244441
 21
176.1023664355
  0
LWPOLYLINE
  5
28F
100
AcDbEntity
  8
0
100
AcDbPolyline
 62
250
  6
CONTINUOUS
 90
13
 70
0
 10
284.5953094868
 20
176.5370913933
 10
284.6146326812
 20
176.5285997374
 10
284.6359760468
 20
176.5214185213
 10
284.6589864476
 20
176.5156665615
 10
284.6832831658
 20
176.511439027
 10
284.7084642008
 20
176.5088058642
 10
284.7341129208
 20
176.50781064
 10
284.7598049558
 20
176.5084698211
 10
284.7851152191
 20
176.5107725009
 10
284.8096249404
 20
176.5146805801
 10
284.8329285949
 20
176.5201293975
 10
284.8546406127
 20
176.5270288002
 10
284.8744017582
 20
176.5352646343
  0
LWPOLYLINE
  5
290
100
AcDbEntity
  8
0
100
AcDbPolyline
 62
250
  6
CONTINUOUS
 90
3
 70
0
 10
285.9587791296
 20
175.9827690061
 10
285.9527757768
 20
175.9854904874
 10
285.9356552642
 20
175.9907076352
  0
LINE
  5
291
100
AcDbEntity
  8
0
100
AcDbLine
 62
7
  6
CONTINUOUS
 10
282.9396739808
 20
176.2468231913
 11
284.2485745148
 21
175.5923729243
  0
LINE
  5
292
100
AcDbEntity
  8
0
100
AcDbLine
 62
7
  6
CONTINUOUS
 10
282.880873847
 20
177.0523160284
 11
281.4408389415
 21
177.7723334811
  0
LINE
  5
293
100
AcDbEntity
  8
0
100
AcDbLine
 62
250
  6
CONTINUOUS
 10
282.9384397213
 20
177.1057185327
 11
281.4408389415
 21
177.8545189226
  0
LINE
  5
294
100
AcDbEntity
  8
0
100
AcDbLine
 62
250
  6
CONTINUOUS
 10
285.3826244441
 20
176.2672245156
 11
285.9356554374
 21
175.9907075495
  0
LINE
  5
295
100
AcDbEntity
  8
0
100
AcDbLine
 62
7
  6
CONTINUOUS
 10
285.3826244441
 20
176.2708467145
 11
285.959000324
 21
175.9826587745
  0
LINE
  5
296
100
AcDbEntity
  8
0
100
AcDbLine
 62
250
  6
CONTINUOUS
 10
281.4408389415
 20
178.6416263479
 11
284.5302327556
 21
177.0969294408
  0
LINE
  5
297
100
AcDbEntity
  8
0
100
AcDbLine
 62
250
  6
CONTINUOUS
 10
281.4408389415
 20
178.9537582619
 11
284.4716541118
 21
177.4383506767
  0
LWPOLYLINE
  5
298
100
AcDbEntity
  8
0
100
AcDbPolyline
 62
7
  6
CONTINUOUS
 90
9
 70
0
 10
284.4013594618
 20
176.2939470507
 10
284.4358755595
 20
176.2748161191
 10
284.4795292811
 20
176.2560077622
 10
284.5233684698
 20
176.2428423886
 10
284.5666705549
 20
176.2353009142
 10
284.6093007923
 20
176.233192922
 10
284.651016983
 20
176.2363811898
 10
284.6911579165
 20
176.2446840818
 10
284.7272394661
 20
176.2570086363
  0
LINE
  5
299
100
AcDbEntity
  8
0
100
AcDbLine
 62
250
  6
CONTINUOUS
 10
285.9536644163
 20
175.97990964
 11
285.9356672419
 21
175.9907051661
  0
LWPOLYLINE
  5
29A
100
AcDbEntity
  8
0
100
AcDbPolyline
 62
7
  6
CONTINUOUS
 90
15
 70
0
 10
284.4013235492
 20
176.2939040811
 10
284.3947826161
 20
176.298090385
 10
284.3797023826
 20
176.3088415018
 10
284.3650395781
 20
176.3208610857
 10
284.3509380326
 20
176.3341265966
 10
284.3373561552
 20
176.3485788372
 10
284.3242263773
 20
176.3643194697
 10
284.3117132467
 20
176.3811720955
 10
284.300092237
 20
176.3986453752
 10
284.2893912855
 20
176.4166771308
 10
284.2795666547
 20
176.4352051485
 10
284.2707331055
 20
176.4537060337
 10
284.2628880182
 20
176.4719620555
 10
284.2559317123
 20
176.4900750101
 10
284.2498087743
 20
176.5079981281
  0
LWPOLYLINE
  5
29B
100
AcDbEntity
  8
0
100
AcDbPolyline
 62
7
  6
CONTINUOUS
 90
12
 70
0
 10
268.8207783347
 20
223.3151212238
 10
268.8209119543
 20
223.3069944787
 10
268.8230947276
 20
223.2812266578
 10
268.8279423598
 20
223.2560492075
 10
268.8354051112
 20
223.2317803129
 10
268.8453094341
 20
223.2088136508
 10
268.8575202156
 20
223.1872992739
 10
268.8719373203
 20
223.1673648781
 10
268.8883196612
 20
223.1493105307
 10
268.9064182251
 20
223.1333258035
 10
268.9261270082
 20
223.1194536485
 10
268.9443581035
 20
223.1092477202
  0
LINE
  5
29C
100
AcDbEntity
  8
0
100
AcDbLine
 62
7
  6
CONTINUOUS
 10
268.8207787734
 20
223.315121224
 11
268.8207787267
 21
223.5458557929
  0
LINE
  5
29D
100
AcDbEntity
  8
0
100
AcDbLine
 62
250
  6
CONTINUOUS
 10
268.8793573705
 20
223.2444962052
 11
268.8793573705
 21
223.4749926447
  0
LINE
  5
29E
100
AcDbEntity
  8
0
100
AcDbLine
 62
7
  6
CONTINUOUS
 10
269.1700422006
 20
222.1045786206
 11
269.1700422006
 21
218.9969774983
  0
LINE
  5
29F
100
AcDbEntity
  8
0
100
AcDbLine
 62
250
  6
CONTINUOUS
 10
269.2286208444
 20
222.0338679439
 11
269.2286208444
 21
218.9400808679
  0
LINE
  5
2A0
100
AcDbEntity
  8
0
100
AcDbLine
 62
250
  6
CONTINUOUS
 10
269.2936975756
 20
219.3562131822
 11
269.2936975756
 21
221.4740298964
  0
LWPOLYLINE
  5
2A1
100
AcDbEntity
  8
0
100
AcDbPolyline
 62
250
  6
CONTINUOUS
 90
18
 70
0
 10
268.8793574483
 20
223.4749926496
 10
268.8795844676
 20
223.4862455979
 10
268.8802950752
 20
223.4979251894
 10
268.881514594
 20
223.5100103467
 10
268.8832705049
 20
223.5224963462
 10
268.8855838666
 20
223.5353338116
 10
268.8884605832
 20
223.5484268637
 10
268.8919137691
 20
223.5617433222
 10
268.8959513119
 20
223.57523453
 10
268.9005505396
 20
223.5887736749
 10
268.9057041049
 20
223.6023093683
 10
268.9114058186
 20
223.6157980995
 10
268.9176139238
 20
223.6291253138
 10
268.9243018824
 20
223.6422311336
 10
268.9314543438
 20
223.6550825806
 10
268.9390335212
 20
223.6676100807
 10
268.9470063923
 20
223.6797621407
 10
268.9553499471
 20
223.6915065499
  0
LWPOLYLINE
  5
2A2
100
AcDbEntity
  8
0
100
AcDbPolyline
 62
250
  6
CONTINUOUS
 90
13
 70
0
 10
270.0112699639
 20
218.5934420083
 10
270.0127488004
 20
218.6221276405
 10
270.0171606232
 20
218.6518124555
 10
270.0244316995
 20
218.6819998049
 10
270.0344404587
 20
218.7121846257
 10
270.0470195063
 20
218.7418618376
 10
270.0619584074
 20
218.7705347983
 10
270.079007254
 20
218.7977237129
 10
270.0978808092
 20
218.822973578
 10
270.1182632355
 20
218.8458617683
 10
270.1398134642
 20
218.8660052301
 10
270.1621709176
 20
218.8830668721
 10
270.1849614819
 20
218.8967611418
  0
LINE
  5
2A3
100
AcDbEntity
  8
RACCORDO
100
AcDbLine
 62
7
  6
CONTINUOUS
 10
287.2064008818
 20
225.1898126082
 11
284.9136234086
 21
223.1831874243
  0
LWPOLYLINE
  5
2A4
100
AcDbEntity
  8
RACCORDO
100
AcDbPolyline
 62
7
  6
CONTINUOUS
 90
5
 70
0
 10
287.2063996221
 20
225.1898115058
 10
287.2073146962
 20
225.1905974854
 10
287.2128630609
 20
225.1947802218
 10
287.2190175208
 20
225.1984178704
 10
287.2210325316
 20
225.1994130398
  0
LINE
  5
2A5
100
AcDbEntity
  8
RACCORDO
100
AcDbLine
 62
250
  6
CONTINUOUS
 10
285.3776632501
 20
222.9511675035
 11
287.3315031971
 21
224.4827893082
  0
LWPOLYLINE
  5
2A6
100
AcDbEntity
  8
RACCORDO
100
AcDbPolyline
 62
250
  6
CONTINUOUS
 90
16
 70
0
 10
287.3315031971
 20
224.4827893082
 10
287.3726821164
 20
224.5123354381
 10
287.4158774888
 20
224.5389455742
 10
287.4610893141
 20
224.5626197166
 10
287.5088662822
 20
224.5835146846
 10
287.5586597033
 20
224.6014736589
 10
287.6088235085
 20
224.6160261811
 10
287.6593292994
 20
224.6270446792
 10
287.7102054745
 20
224.6346567252
 10
287.7598911599
 20
224.6387745771
 10
287.8082461142
 20
224.6393127725
 10
287.8554105788
 20
224.6363567739
 10
287.9002444038
 20
224.6300752257
 10
287.9423675392
 20
224.620524343
 10
287.9821600349
 20
224.6076479107
 10
288.0196218909
 20
224.591445929
  0
LWPOLYLINE
  5
2A7
100
AcDbEntity
  8
0
100
AcDbPolyline
 62
250
  6
CONTINUOUS
 90
13
 70
0
 10
280.3296757456
 20
218.7038705436
 10
280.3068859723
 20
218.6901768124
 10
280.2845291582
 20
218.6731158429
 10
280.2629793931
 20
218.6529731118
 10
280.2425972624
 20
218.6300856619
 10
280.2237238138
 20
218.6048364626
 10
280.2066748507
 20
218.5776480012
 10
280.1917356477
 20
218.5489752144
 10
280.1791561772
 20
218.5192978751
 10
280.1691469272
 20
218.4891125649
 10
280.1618753786
 20
218.4589243647
 10
280.1574632035
 20
218.4292384044
 10
280.155984229
 20
218.4005514094
  0
LWPOLYLINE
  5
2A8
100
AcDbEntity
  8
0
100
AcDbPolyline
 62
250
  6
CONTINUOUS
 90
31
 70
0
 10
286.2034685781
 20
221.5869696714
 10
286.2126635462
 20
221.5920694576
 10
286.2205852699
 20
221.5975017365
 10
286.2272337492
 20
221.6032665081
 10
286.2326584305
 20
221.6094358241
 10
286.2368098674
 20
221.6159376329
 10
286.2395397214
 20
221.6225557791
 10
286.2407970765
 20
221.6292911466
 10
286.2406328488
 20
221.6361428516
 10
286.239051448
 20
221.6428920867
 10
286.2360067681
 20
221.6495355621
 10
286.2315449152
 20
221.6560765678
 10
286.2258086175
 20
221.6623061657
 10
286.2187568742
 20
221.6682143449
 10
286.2104306861
 20
221.6738111163
 10
286.2010957838
 20
221.6789175752
 10
286.1907195391
 20
221.6835178943
 10
286.1793345801
 20
221.6876279009
 10
286.1673045228
 20
221.6911161727
 10
286.1546084998
 20
221.693962702
 10
286.1412673784
 20
221.6961874964
 10
286.1277073757
 20
221.6977191565
 10
286.113921372
 20
221.6985352154
 10
286.0999164869
 20
221.6986581398
 10
286.0861402969
 20
221.6980839305
 10
286.0725990092
 20
221.6967897687
 10
286.0592864166
 20
221.6947984732
 10
286.0466314738
 20
221.6921745004
 10
286.0347771657
 20
221.6889393359
 10
286.0235805075
 20
221.6850714943
 10
286.0130414991
 20
221.6805709754
  0
LINE
  5
2A9
100
AcDbEntity
  8
0
100
AcDbLine
 62
7
  6
CONTINUOUS
 10
275.4734190277
 20
218.3019837288
 11
274.1878889071
 21
217.6542621324
  0
LINE
  5
2AA
100
AcDbEntity
  8
0
100
AcDbLine
 62
250
  6
CONTINUOUS
 10
280.3997640032
 20
218.7043073536
 11
280.9071454032
 21
218.9599543316
  0
LINE
  5
2AB
100
AcDbEntity
  8
0
100
AcDbLine
 62
250
  6
CONTINUOUS
 10
280.5765137745
 20
218.399459092
 11
281.0838951746
 21
218.65510607
  0
LINE
  5
2AC
100
AcDbEntity
  8
0
100
AcDbLine
 62
250
  6
CONTINUOUS
 10
280.9071454032
 20
218.9599543316
 11
286.2034685781
 21
221.5869696714
  0
LINE
  5
2AD
100
AcDbEntity
  8
0
100
AcDbLine
 62
250
  6
CONTINUOUS
 10
281.0838951746
 20
218.65510607
 11
286.3802183495
 21
221.2821214097
  0
LINE
  5
2AE
100
AcDbEntity
  8
0
100
AcDbLine
 62
7
  6
CONTINUOUS
 10
285.9020261762
 20
221.6880568592
 11
281.2694380386
 21
219.4707982655
  0
LINE
  5
2AF
100
AcDbEntity
  8
0
100
AcDbLine
 62
250
  6
CONTINUOUS
 10
286.0130414991
 20
221.6805709754
 11
281.331382548
 21
219.4398260108
  0
LINE
  5
2B0
100
AcDbEntity
  8
RACCORDO
100
AcDbLine
 62
7
  6
CONTINUOUS
 10
300.8251437586
 20
227.8983020093
 11
294.9080803029
 21
225.1656060207
  0
LINE
  5
2B1
100
AcDbEntity
  8
RACCORDO
100
AcDbLine
 62
7
  6
CONTINUOUS
 10
287.5043103271
 20
223.3965513924
 11
285.9165348938
 21
222.6817316817
  0
LINE
  5
2B2
100
AcDbEntity
  8
RACCORDO
100
AcDbLine
 62
7
  6
CONTINUOUS
 10
289.4842093144
 20
222.4066018988
 11
287.8964338811
 21
221.691782188
  0
LWPOLYLINE
  5
2B3
100
AcDbEntity
  8
RACCORDO
100
AcDbPolyline
 62
7
  6
CONTINUOUS
 90
14
 70
0
 10
294.9081301362
 20
225.1656271558
 10
294.8833571738
 20
225.1548837059
 10
294.8530817476
 20
225.1432894478
 10
294.8164259072
 20
225.1309978918
 10
294.7739423905
 20
225.1186668934
 10
294.7257191149
 20
225.1067212764
 10
294.6720404638
 20
225.0956201034
 10
294.6141604601
 20
225.085927347
 10
294.5527317718
 20
225.0779484962
 10
294.4882002342
 20
225.0719109575
 10
294.421702629
 20
225.0680670011
 10
294.3539264725
 20
225.0665315642
 10
294.2855526846
 20
225.0673553931
 10
294.2443215926
 20
225.0692909019
  0
LWPOLYLINE
  5
2B4
100
AcDbEntity
  8
RACCORDO
100
AcDbPolyline
 62
250
  6
CONTINUOUS
 90
9
 70
0
 10
301.2136012411
 20
227.8660876736
 10
301.2676076427
 20
227.8891191896
 10
301.3213277158
 20
227.9063608262
 10
301.3743635602
 20
227.9176255977
 10
301.4263494855
 20
227.9227695143
 10
301.4768507354
 20
227.9216813753
 10
301.5253788716
 20
227.9143259801
 10
301.5715611643
 20
227.9007318306
 10
301.6049868336
 20
227.8862146703
  0
LWPOLYLINE
  5
2B5
100
AcDbEntity
  8
RACCORDO
100
AcDbPolyline
 62
250
  6
CONTINUOUS
 90
9
 70
0
 10
300.8251437586
 20
227.8983020093
 10
300.8530563841
 20
227.9097009888
 10
300.8995707971
 20
227.9226800418
 10
300.9483897497
 20
227.9292576351
 10
300.9991418443
 20
227.9293837287
 10
301.0514409763
 20
227.9230573632
 10
301.104889272
 20
227.9103266675
 10
301.1590801154
 20
227.8912884924
 10
301.2136012411
 20
227.8660876736
  0
LINE
  5
2B6
100
AcDbEntity
  8
RACCORDO
100
AcDbLine
 62
250
  6
CONTINUOUS
 10
294.9359916433
 20
225.1770045415
 11
294.9081301362
 21
225.1656271558
  0
LWPOLYLINE
  5
2B7
100
AcDbEntity
  8
0
100
AcDbPolyline
 62
250
  6
CONTINUOUS
 90
3
 70
0
 10
285.9242398167
 20
221.6955565487
 10
285.9047891249
 20
221.6893261219
 10
285.9020261762
 20
221.6880568592
  0
LWPOLYLINE
  5
2B8
100
AcDbEntity
  8
0
100
AcDbPolyline
 62
250
  6
CONTINUOUS
 90
13
 70
0
 10
282.7872747627
 20
179.5839953405
 10
282.8115727903
 20
179.5733253016
 10
282.838422196
 20
179.5643127759
 10
282.8673737172
 20
179.5571085674
 10
282.8979429169
 20
179.5518332218
 10
282.9296182903
 20
179.5485750098
 10
282.9618698233
 20
179.5473884499
 10
282.994157861
 20
179.5482933968
 10
283.0259421376
 20
179.5512747081
 10
283.0566908168
 20
179.5562824978
 10
283.0858893904
 20
179.5632329719
 10
283.1130492877
 20
179.5720098305
 10
283.1377160506
 20
179.5824662131
  0
LWPOLYLINE
  5
2B9
100
AcDbEntity
  8
0
100
AcDbPolyline
 62
250
  6
CONTINUOUS
 90
22
 70
0
 10
282.2570254487
 20
179.1996998696
 10
282.2967895453
 20
179.181664898
 10
282.3359642676
 20
179.1674601951
 10
282.3745496155
 20
179.1570857608
 10
282.4127752295
 20
179.1505150772
 10
282.4504114691
 20
179.1477746623
 10
282.4867694125
 20
179.1489440698
 10
282.5218073453
 20
179.1540976113
 10
282.5555669819
 20
179.1631609751
 10
282.5874845442
 20
179.1759907809
 10
282.6175308479
 20
179.192652468
 10
282.6457350774
 20
179.2130805969
 10
282.6716210073
 20
179.2369354688
 10
282.6951488442
 20
179.264278303
 10
282.7163583814
 20
179.2950478802
 10
282.7348927736
 20
179.328720843
 10
282.7507046511
 20
179.3653704305
 10
282.7638413836
 20
179.4049234036
 10
282.7740882346
 20
179.4466366885
 10
282.7813736254
 20
179.490262594
 10
282.7857691348
 20
179.5360488113
 10
282.7872747627
 20
179.5839953405
  0
LWPOLYLINE
  5
2BA
100
AcDbEntity
  8
0
100
AcDbPolyline
 62
7
  6
CONTINUOUS
 90
11
 70
0
 10
282.3220366451
 20
179.0644803926
 10
282.3740941589
 20
179.04064571
 10
282.4324895007
 20
179.019045869
 10
282.4908217958
 20
179.0028498048
 10
282.5488281701
 20
178.9920687376
 10
282.6061059135
 20
178.9867063716
 10
282.6623837295
 20
178.986720275
 10
282.7173218023
 20
178.9920292202
 10
282.7703249059
 20
179.0024298249
 10
282.8209702414
 20
179.0176396035
 10
282.8669316771
 20
179.0364025324
  0
LINE
  5
2BB
100
AcDbEntity
  8
0
100
AcDbLine
 62
7
  6
CONTINUOUS
 10
281.4408389415
 20
179.5050613213
 11
282.3219987431
 21
179.0644814205
  0
LINE
  5
2BC
100
AcDbEntity
  8
0
100
AcDbLine
 62
250
  6
CONTINUOUS
 10
281.4408389415
 20
179.6077931232
 11
282.2570254487
 21
179.1996998696
  0
LINE
  5
2BD
100
AcDbEntity
  8
0
100
AcDbLine
 62
7
  6
CONTINUOUS
 10
283.2883226471
 20
178.9714276201
 11
284.4716541118
 21
178.3797618878
  0
LINE
  5
2BE
100
AcDbEntity
  8
0
100
AcDbLine
 62
250
  6
CONTINUOUS
 10
281.9603337623
 20
180.0590308569
 11
281.4408389415
 21
180.3187782676
  0
LINE
  5
2BF
100
AcDbEntity
  8
0
100
AcDbLine
 62
7
  6
CONTINUOUS
 10
282.7872747627
 20
179.718308627
 11
282.7124231204
 21
179.7557344481
  0
LINE
  5
2C0
100
AcDbEntity
  8
0
100
AcDbLine
 62
250
  6
CONTINUOUS
 10
282.0655170415
 20
180.2414785099
 11
281.4408389415
 21
180.5538175601
  0
LINE
  5
2C1
100
AcDbEntity
  8
0
100
AcDbLine
 62
7
  6
CONTINUOUS
 10
284.4726668812
 20
179.1613436507
 11
283.7271354467
 21
179.5341093679
  0
LINE
  5
2C2
100
AcDbEntity
  8
0
100
AcDbLine
 62
250
  6
CONTINUOUS
 10
284.5302327556
 20
179.214746155
 11
283.7190791079
 21
179.6203229788
  0
LINE
  5
2C3
100
AcDbEntity
  8
0
100
AcDbLine
 62
7
  6
CONTINUOUS
 10
283.7523870509
 20
180.0634950572
 11
284.5953094868
 21
179.6420338393
  0
LINE
  5
2C4
100
AcDbEntity
  8
0
100
AcDbLine
 62
250
  6
CONTINUOUS
 10
282.243165705
 20
181.2802187687
 11
281.9574767678
 21
181.4230632373
  0
LINE
  5
2C5
100
AcDbEntity
  8
0
100
AcDbLine
 62
250
  6
CONTINUOUS
 10
281.9574767678
 20
181.7947061734
 11
282.1698558454
 21
181.6885166346
  0
LINE
  5
2C6
100
AcDbEntity
  8
0
100
AcDbLine
 62
7
  6
CONTINUOUS
 10
282.1947474351
 20
181.2016961018
 11
282.0223147961
 21
181.2879125579
  0
LWPOLYLINE
  5
2C7
100
AcDbEntity
  8
0
100
AcDbPolyline
 62
250
  6
CONTINUOUS
 90
16
 70
0
 10
281.9574767678
 20
181.4230632373
 10
281.9462424725
 20
181.4294380716
 10
281.935346919
 20
181.436993654
 10
281.9247901072
 20
181.4457299846
 10
281.9144580373
 20
181.4557715316
 10
281.9044647092
 20
181.4669938267
 10
281.8951521225
 20
181.4790234648
 10
281.8865487612
 20
181.4918835369
 10
281.8786261414
 20
181.5055509519
 10
281.8716408106
 20
181.5195830321
 10
281.8656232326
 20
181.5340007063
 10
281.8605429436
 20
181.5487830456
 10
281.8565650999
 20
181.5634245852
 10
281.8537447536
 20
181.5777568371
 10
281.8520268526
 20
181.5919482893
 10
281.8514113968
 20
181.605998942
  0
LWPOLYLINE
  5
2C8
100
AcDbEntity
  8
0
100
AcDbPolyline
 62
250
  6
CONTINUOUS
 90
7
 70
0
 10
282.243165705
 20
180.2640118568
 10
282.2302950733
 20
180.2713445547
 10
282.2194370046
 20
180.2794505462
 10
282.2107752221
 20
180.2881926659
 10
282.204456284
 20
180.2974229863
 10
282.2005871055
 20
180.306985318
 10
282.1992317285
 20
180.3170232026
  0
LINE
  5
2C9
100
AcDbEntity
  8
0
100
AcDbLine
 62
250
  6
CONTINUOUS
 10
281.8298949389
 20
181.7300995537
 11
281.8514113968
 21
181.7178358398
  0
LWPOLYLINE
  5
2CA
100
AcDbEntity
  8
0
100
AcDbPolyline
 62
250
  6
CONTINUOUS
 90
8
 70
0
 10
282.0223147961
 20
181.2879125579
 10
282.0090314082
 20
181.2960199071
 10
281.993847305
 20
181.3097032413
 10
281.9810550891
 20
181.3268228942
 10
281.9708725144
 20
181.3470871552
 10
281.9634729089
 20
181.3701507617
 10
281.9589822039
 20
181.3956207559
 10
281.9574767678
 20
181.4230632373
  0
LWPOLYLINE
  5
2CB
100
AcDbEntity
  8
0
100
AcDbPolyline
 62
7
  6
CONTINUOUS
 90
8
 70
0
 10
283.7272602354
 20
179.5340469788
 10
283.7215170717
 20
179.5378886165
 10
283.7155472256
 20
179.5454334744
 10
283.7119897632
 20
179.5554905788
 10
283.7104422948
 20
179.5682181527
 10
283.7109010765
 20
179.5835136557
 10
283.7137375193
 20
179.6009908108
 10
283.7190791079
 20
179.6203229788
  0
LWPOLYLINE
  5
2CC
100
AcDbEntity
  8
0
100
AcDbPolyline
 62
7
  6
CONTINUOUS
 90
11
 70
0
 10
269.5155429135
 20
222.3118776609
 10
269.5162667568
 20
222.2910941256
 10
269.5184617714
 20
222.2687821813
 10
269.5220212955
 20
222.2455861109
 10
269.5268313259
 20
222.2215699656
 10
269.532799811
 20
222.1967378108
 10
269.5397909643
 20
222.1711608347
 10
269.547581333
 20
222.1449820163
 10
269.5559791606
 20
222.1182453901
 10
269.5648707088
 20
222.0909082444
 10
269.5741215569
 20
222.0629612091
  0
LINE
  5
2CD
100
AcDbEntity
  8
0
100
AcDbLine
 62
7
  6
CONTINUOUS
 10
269.5155429131
 20
222.3118848531
 11
269.5155429131
 21
222.8236542814
  0
LINE
  5
2CE
100
AcDbEntity
  8
0
100
AcDbLine
 62
250
  6
CONTINUOUS
 10
269.5554819365
 20
219.5185797701
 11
269.5554819365
 21
221.2609522744
  0
LINE
  5
2CF
100
AcDbEntity
  8
0
100
AcDbLine
 62
250
  6
CONTINUOUS
 10
269.5741215569
 20
222.7943649596
 11
269.5741215569
 21
222.0629612091
  0
LINE
  5
2D0
100
AcDbEntity
  8
0
100
AcDbLine
 62
250
  6
CONTINUOUS
 10
270.1660412339
 20
222.601136923
 11
270.1660412339
 21
222.831995285
  0
LINE
  5
2D1
100
AcDbEntity
  8
0
100
AcDbLine
 62
250
  6
CONTINUOUS
 10
270.4463942642
 20
222.599913621
 11
270.4463942642
 21
222.830579881
  0
LINE
  5
2D2
100
AcDbEntity
  8
0
100
AcDbLine
 62
7
  6
CONTINUOUS
 10
270.6263595227
 20
219.9434253337
 11
270.6263595227
 21
220.7255134813
  0
LINE
  5
2D3
100
AcDbEntity
  8
0
100
AcDbLine
 62
250
  6
CONTINUOUS
 10
270.8854906099
 20
221.4652408045
 11
270.8854906099
 21
222.3135117157
  0
LINE
  5
2D4
100
AcDbEntity
  8
0
100
AcDbLine
 62
250
  6
CONTINUOUS
 10
271.1658436402
 20
221.63730186
 11
271.1658436402
 21
222.4222957142
  0
LWPOLYLINE
  5
2D5
100
AcDbEntity
  8
0
100
AcDbPolyline
 62
250
  6
CONTINUOUS
 90
28
 70
0
 10
270.4463942642
 20
222.830579881
 10
270.4464234683
 20
222.832671966
 10
270.4465536993
 20
222.8348561973
 10
270.4467849574
 20
222.837132575
 10
270.4471125846
 20
222.8395121556
 10
270.4475412389
 20
222.8419838825
 10
270.4480848936
 20
222.8445145863
 10
270.4487474669
 20
222.8471072501
 10
270.4495250405
 20
222.8497588907
 10
270.4504198328
 20
222.8524273891
 10
270.4514359792
 20
222.8551139773
 10
270.4525693443
 20
222.8578174232
 10
270.4538097402
 20
222.8604919128
 10
270.4551598554
 20
222.8631354893
 10
270.4566170015
 20
222.8657501094
 10
270.4581629259
 20
222.8682958288
 10
270.4597980011
 20
222.8707689274
 10
270.4615218547
 20
222.8731731254
 10
270.4633151162
 20
222.8754796391
 10
270.4651783885
 20
222.8776867791
 10
270.4671110689
 20
222.8797962349
 10
270.4690919785
 20
222.8817842912
 10
270.4711217974
 20
222.883649535
 10
270.4731998456
 20
222.8853933793
 10
270.4753029045
 20
222.8869963484
 10
270.4774232345
 20
222.8884519502
 10
270.4795685753
 20
222.8897666769
 10
270.4817389269
 20
222.8909405282
  0
LWPOLYLINE
  5
2D6
100
AcDbEntity
  8
0
100
AcDbPolyline
 62
250
  6
CONTINUOUS
 90
28
 70
0
 10
270.1660413438
 20
222.8319952997
 10
270.1662474198
 20
222.8423462469
 10
270.1668769434
 20
222.853211222
 10
270.1679676586
 20
222.8645803604
 10
270.1695623637
 20
222.8764741026
 10
270.171695481
 20
222.8888375346
 10
270.174378505
 20
222.9015368759
 10
270.177631011
 20
222.9145311595
 10
270.1814737672
 20
222.927789521
 10
270.1858941337
 20
222.9411837679
 10
270.1908963902
 20
222.9546673021
 10
270.1964824905
 20
222.9681919098
 10
270.2026127859
 20
222.981625147
 10
270.2092701768
 20
222.9949084644
 10
270.2164430596
 20
223.0079993749
 10
270.2240812483
 20
223.0207944465
 10
270.2321508029
 20
223.0332334163
 10
270.2406324797
 20
223.0452835184
 10
270.2494886494
 20
223.0568887074
 10
270.2586861276
 20
223.0680040617
 10
270.2681942342
 20
223.0785911825
 10
270.2779757488
 20
223.0886080263
 10
270.2879960187
 20
223.09801832
 10
270.2982187944
 20
223.1067872596
 10
270.3086026159
 20
223.1148795858
 10
270.3191084255
 20
223.1222655126
 10
270.329699959
 20
223.1289198986
 10
270.3403391098
 20
223.1348191375
  0
LWPOLYLINE
  5
2D7
100
AcDbEntity
  8
0
100
AcDbPolyline
 62
7
  6
CONTINUOUS
 90
12
 70
0
 10
273.4938546488
 20
219.2928982387
 10
273.4938868337
 20
219.293205242
 10
273.4948033374
 20
219.2956653151
 10
273.497025465
 20
219.298906716
 10
273.5005861029
 20
219.3027778973
 10
273.505222505
 20
219.3073285058
 10
273.5109173174
 20
219.3124752872
 10
273.5176682754
 20
219.3180959143
 10
273.5252428743
 20
219.3242066016
 10
273.5335467028
 20
219.3307510865
 10
273.5426213192
 20
219.3375987003
 10
273.5524334237
 20
219.3446619723
  0
LWPOLYLINE
  5
2D8
100
AcDbEntity
  8
0
100
AcDbPolyline
 62
250
  6
CONTINUOUS
 90
7
 70
0
 10
272.718007504
 20
224.0119472203
 10
272.7165519747
 20
223.9999046588
 10
272.7117818778
 20
223.9871909482
 10
272.7037694145
 20
223.9748914766
 10
272.6926486549
 20
223.9632120472
 10
272.6786056792
 20
223.9523480883
 10
272.661875464
 20
223.9424813833
  0
LWPOLYLINE
  5
2D9
100
AcDbEntity
  8
0
100
AcDbPolyline
 62
250
  6
CONTINUOUS
 90
7
 70
0
 10
272.718007504
 20
223.7586061661
 10
272.7165519667
 20
223.7465635716
 10
272.7117818627
 20
223.7338498644
 10
272.7037693954
 20
223.7215503984
 10
272.6926486363
 20
223.7098709762
 10
272.6786056666
 20
223.6990070255
 10
272.661875464
 20
223.6891403288
  0
LWPOLYLINE
  5
2DA
100
AcDbEntity
  8
RACCORDO
100
AcDbPolyline
 62
250
  6
CONTINUOUS
 90
10
 70
0
 10
288.2761772619
 20
225.3099859663
 10
288.2814343893
 20
225.3155134718
 10
288.2866688574
 20
225.3202764294
 10
288.2918580638
 20
225.3242520579
 10
288.2969815017
 20
225.327421959
 10
288.3020147384
 20
225.3297682872
 10
288.3069299335
 20
225.3312771383
 10
288.311708055
 20
225.3319426005
 10
288.3163262586
 20
225.3317614207
 10
288.3183655735
 20
225.3313997538
  0
LWPOLYLINE
  5
2DB
100
AcDbEntity
  8
RACCORDO
100
AcDbPolyline
 62
250
  6
CONTINUOUS
 90
10
 70
0
 10
288.0196218909
 20
224.591445929
 10
288.0005810024
 20
224.5733863639
 10
287.9827329469
 20
224.5526758986
 10
287.9664446505
 20
224.5297403056
 10
287.9520509733
 20
224.5050511023
 10
287.9398478252
 20
224.4791158573
 10
287.9300860825
 20
224.4524677558
 10
287.9229664302
 20
224.4256546382
 10
287.9186352364
 20
224.3992277372
 10
287.9171815434
 20
224.3737303456
  0
LWPOLYLINE
  5
2DC
100
AcDbEntity
  8
RACCORDO
100
AcDbPolyline
 62
250
  6
CONTINUOUS
 90
4
 70
0
 10
288.7780274896
 20
224.2122431297
 10
288.758986037
 20
224.1941829354
 10
288.7411376452
 20
224.173471875
 10
288.7248492295
 20
224.150535815
  0
LWPOLYLINE
  5
2DD
100
AcDbEntity
  8
RACCORDO
100
AcDbPolyline
 62
250
  6
CONTINUOUS
 90
16
 70
0
 10
287.5043103271
 20
224.2614699203
 10
287.5285396626
 20
224.2843329228
 10
287.5545809907
 20
224.3053522347
 10
287.5821362282
 20
224.3244511872
 10
287.6109051554
 20
224.3416819712
 10
287.6405628378
 20
224.3568880419
 10
287.6707606744
 20
224.369708811
 10
287.7011754075
 20
224.3801028207
 10
287.7314921827
 20
224.3881172313
 10
287.761380085
 20
224.3935564478
 10
287.7904918289
 20
224.3964333407
 10
287.8186019864
 20
224.396844205
 10
287.8455714558
 20
224.3947232648
 10
287.871175829
 20
224.390088077
 10
287.8951231686
 20
224.3830604616
 10
287.9171815434
 20
224.3737303456
  0
LINE
  5
2DE
100
AcDbEntity
  8
RACCORDO
100
AcDbLine
 62
250
  6
CONTINUOUS
 10
288.7960465117
 20
223.7505176509
 11
287.0368011215
 21
222.1215985678
  0
LINE
  5
2DF
100
AcDbEntity
  8
RACCORDO
100
AcDbLine
 62
7
  6
CONTINUOUS
 10
288.6992461407
 20
223.7503574111
 11
286.9740560843
 21
222.1529710864
  0
LINE
  5
2E0
100
AcDbEntity
  8
RACCORDO
100
AcDbLine
 62
250
  6
CONTINUOUS
 10
287.3057759754
 20
225.1921267475
 11
284.9751844305
 21
223.1524069133
  0
LINE
  5
2E1
100
AcDbEntity
  8
RACCORDO
100
AcDbLine
 62
250
  6
CONTINUOUS
 10
285.6555529131
 20
222.812222672
 11
287.5043103271
 21
224.2614699203
  0
LINE
  5
2E2
100
AcDbEntity
  8
RACCORDO
100
AcDbLine
 62
250
  6
CONTINUOUS
 10
287.3575622374
 20
221.9612180099
 11
289.3114021845
 21
223.4928398145
  0
LINE
  5
2E3
100
AcDbEntity
  8
RACCORDO
100
AcDbLine
 62
250
  6
CONTINUOUS
 10
287.6354519004
 20
221.8222731784
 11
289.4842093144
 21
223.2715204266
  0
LWPOLYLINE
  5
2E4
100
AcDbEntity
  8
RACCORDO
100
AcDbPolyline
 62
250
  6
CONTINUOUS
 90
16
 70
0
 10
289.3114021845
 20
223.4928398145
 10
289.3525811038
 20
223.5223859444
 10
289.3957764761
 20
223.5489960806
 10
289.4409883014
 20
223.572670223
 10
289.4887652695
 20
223.593565191
 10
289.5385586906
 20
223.6115241652
 10
289.5887224958
 20
223.6260766874
 10
289.6392282867
 20
223.6370951855
 10
289.6901044618
 20
223.6447072315
 10
289.7397901472
 20
223.6488250834
 10
289.7881451015
 20
223.6493632789
 10
289.8353095662
 20
223.6464072802
 10
289.8801433911
 20
223.640125732
 10
289.9222665265
 20
223.6305748493
 10
289.9620590222
 20
223.6176984171
 10
289.9995208782
 20
223.6014964354
  0
LWPOLYLINE
  5
2E5
100
AcDbEntity
  8
0
100
AcDbPolyline
 62
7
  6
CONTINUOUS
 90
12
 70
0
 10
282.3243609039
 20
217.1007318723
 10
282.3129424608
 20
217.0941713127
 10
282.2906727428
 20
217.0788267985
 10
282.2698007405
 20
217.0608387299
 10
282.2506345495
 20
217.0404056331
 10
282.2338800807
 20
217.0183949763
 10
282.2192326577
 20
216.9945328332
 10
282.2067675357
 20
216.9687360139
 10
282.1971331734
 20
216.9422987575
 10
282.1903248833
 20
216.9155479389
 10
282.1862258021
 20
216.8877377947
 10
282.1850970084
 20
216.8636667124
  0
LWPOLYLINE
  5
2E6
100
AcDbEntity
  8
0
100
AcDbPolyline
 62
250
  6
CONTINUOUS
 90
9
 70
0
 10
286.3802183495
 20
221.2821214097
 10
286.4064158777
 20
221.296967748
 10
286.4293407244
 20
221.3131012264
 10
286.44874446
 20
221.3303448225
 10
286.4644168248
 20
221.3485076061
 10
286.4761879224
 20
221.367392646
 10
286.4839301306
 20
221.3867991545
 10
286.4875595743
 20
221.4065153794
 10
286.4878508396
 20
221.4139302306
  0
LWPOLYLINE
  5
2E7
100
AcDbEntity
  8
0
100
AcDbPolyline
 62
250
  6
CONTINUOUS
 90
12
 70
0
 10
282.4167606921
 20
217.0966083464
 10
282.4082291382
 20
217.0918750611
 10
282.3994896953
 20
217.0864962981
 10
282.3905673667
 20
217.0804437606
 10
282.3814703597
 20
217.0736756996
 10
282.3722519053
 20
217.0661829692
 10
282.3630075979
 20
217.0580016425
 10
282.3537737131
 20
217.0491268268
 10
282.3445896958
 20
217.0395580736
 10
282.335552971
 20
217.0293649565
 10
282.3267028138
 20
217.0185655962
 10
282.3180782421
 20
217.0071802403
  0
LINE
  5
2E8
100
AcDbEntity
  8
0
100
AcDbLine
 62
7
  6
CONTINUOUS
 10
281.0838951746
 20
217.6591438807
 11
280.5765137745
 21
217.3821494607
  0
LINE
  5
2E9
100
AcDbEntity
  8
0
100
AcDbLine
 62
7
  6
CONTINUOUS
 10
283.8915073797
 20
217.9462436115
 11
282.3242640712
 21
217.1006798914
  0
LINE
  5
2EA
100
AcDbEntity
  8
0
100
AcDbLine
 62
250
  6
CONTINUOUS
 10
283.9830114383
 20
217.9416365564
 11
282.4167606921
 21
217.0966083464
  0
LINE
  5
2EB
100
AcDbEntity
  8
0
100
AcDbLine
 62
7
  6
CONTINUOUS
 10
283.8915079389
 20
217.9462438697
 11
283.8956743209
 21
217.9483273533
  0
LINE
  5
2EC
100
AcDbEntity
  8
0
100
AcDbLine
 62
7
  6
CONTINUOUS
 10
281.0838951746
 20
217.6591438807
 11
286.3802183495
 21
220.2861592204
  0
LINE
  5
2ED
100
AcDbEntity
  8
0
100
AcDbLine
 62
250
  6
CONTINUOUS
 10
284.8394988446
 20
218.0953547081
 11
297.2213433284
 21
224.1282535335
  0
LINE
  5
2EE
100
AcDbEntity
  8
0
100
AcDbLine
 62
250
  6
CONTINUOUS
 10
285.0287385181
 20
218.0007348713
 11
297.346525427
 21
224.0024224447
  0
LINE
  5
2EF
100
AcDbEntity
  8
0
100
AcDbLine
 62
7
  6
CONTINUOUS
 10
295.0019675402
 20
225.1995240045
 11
292.4635075142
 21
223.9845611931
  0
LINE
  5
2F0
100
AcDbEntity
  8
0
100
AcDbLine
 62
250
  6
CONTINUOUS
 10
295.0907797996
 20
225.1935352979
 11
292.4783148518
 21
223.943152103
  0
LINE
  5
2F1
100
AcDbEntity
  8
0
100
AcDbLine
 62
7
  6
CONTINUOUS
 10
286.4878508396
 20
220.8683871686
 11
292.1854716392
 21
223.5953938238
  0
LINE
  5
2F2
100
AcDbEntity
  8
RACCORDO
100
AcDbLine
 62
7
  6
CONTINUOUS
 10
302.1847600748
 20
227.3805082568
 11
298.7543561744
 21
225.7431714438
  0
LINE
  5
2F3
100
AcDbEntity
  8
RACCORDO
100
AcDbLine
 62
250
  6
CONTINUOUS
 10
301.2136012411
 20
227.8660876736
 11
295.376764284
 21
225.1704429407
  0
LINE
  5
2F4
100
AcDbEntity
  8
0
100
AcDbLine
 62
250
  6
CONTINUOUS
 10
284.525737501
 20
218.1922854374
 11
283.9830114383
 21
217.9416365564
  0
LINE
  5
2F5
100
AcDbEntity
  8
0
100
AcDbLine
 62
7
  6
CONTINUOUS
 10
284.4396562278
 20
218.1995556976
 11
283.8956732886
 21
217.9483268766
  0
LWPOLYLINE
  5
2F6
100
AcDbEntity
  8
0
100
AcDbPolyline
 62
250
  6
CONTINUOUS
 90
10
 70
0
 10
297.2213433284
 20
224.1282535335
 10
297.2490284965
 20
224.1398096076
 10
297.2777612768
 20
224.1482062214
 10
297.307371363
 20
224.1533352406
 10
297.3376604745
 20
224.1551022383
 10
297.3684762293
 20
224.1534359274
 10
297.3997065784
 20
224.1482647168
 10
297.4312001365
 20
224.1395083654
 10
297.4627289287
 20
224.1271372072
 10
297.4754534466
 20
224.121098161
  0
LWPOLYLINE
  5
2F7
100
AcDbEntity
  8
0
100
AcDbPolyline
 62
250
  6
CONTINUOUS
 90
13
 70
0
 10
297.346525427
 20
224.0024224447
 10
297.3605959142
 20
224.0081599795
 10
297.3755852176
 20
224.011964512
 10
297.3914933372
 20
224.0138360421
 10
297.4084082984
 20
224.0138145832
 10
297.4262420758
 20
224.011860122
 10
297.4447305929
 20
224.0078526188
 10
297.4639003283
 20
224.0017583212
 10
297.4837248034
 20
223.9936109815
 10
297.5038605063
 20
223.9833918168
 10
297.524192933
 20
223.9710945661
 10
297.5448365875
 20
223.9567254903
 10
297.5657914698
 20
223.9402845895
  0
LWPOLYLINE
  5
2F8
100
AcDbEntity
  8
0
100
AcDbPolyline
 62
7
  6
CONTINUOUS
 90
3
 70
0
 10
283.8956743209
 20
217.9483273533
 10
283.9123119027
 20
217.9537896781
 10
283.9288988003
 20
217.9555124695
  0
LINE
  5
2F9
100
AcDbEntity
  8
0
100
AcDbLine
 62
7
  6
CONTINUOUS
 10
285.5740232351
 20
181.0339100886
 11
286.5471336324
 21
180.54735489
  0
LINE
  5
2FA
100
AcDbEntity
  8
0
100
AcDbLine
 62
7
  6
CONTINUOUS
 10
285.9629319648
 20
180.9393059539
 11
285.6800892523
 21
181.0807273101
  0
LINE
  5
2FB
100
AcDbEntity
  8
0
100
AcDbLine
 62
7
  6
CONTINUOUS
 10
284.5953094868
 20
182.6667428518
 11
283.6775354086
 21
183.1256298909
  0
LINE
  5
2FC
100
AcDbEntity
  8
0
100
AcDbLine
 62
7
  6
CONTINUOUS
 10
282.4533175079
 20
183.7822754942
 11
282.1698558454
 21
183.9240063254
  0
LINE
  5
2FD
100
AcDbEntity
  8
0
100
AcDbLine
 62
7
  6
CONTINUOUS
 10
282.3396930798
 20
184.1214975234
 11
282.3213320417
 21
184.1306780425
  0
LINE
  5
2FE
100
AcDbEntity
  8
0
100
AcDbLine
 62
250
  6
CONTINUOUS
 10
284.5302327556
 20
183.1591072673
 11
283.7523870509
 21
183.5480301197
  0
LINE
  5
2FF
100
AcDbEntity
  8
0
100
AcDbLine
 62
250
  6
CONTINUOUS
 10
281.8117558405
 20
181.7436600176
 11
281.8298949389
 21
181.7300995537
  0
LWPOLYLINE
  5
300
100
AcDbEntity
  8
0
100
AcDbPolyline
 62
250
  6
CONTINUOUS
 90
28
 70
0
 10
284.2498087743
 20
176.5079981281
 10
284.2652663275
 20
176.4865276529
 10
284.2811031508
 20
176.4667396815
 10
284.2973192444
 20
176.4486342138
 10
284.3140150594
 20
176.4321943239
 10
284.3310901445
 20
176.4174369377
 10
284.3482431463
 20
176.4044128329
 10
284.3654437894
 20
176.3931280056
 10
284.382722349
 20
176.3835764595
 10
284.3998682973
 20
176.3757909839
 10
284.4169099463
 20
176.3697591343
 10
284.433818984
 20
176.3654933552
 10
284.4502999461
 20
176.3630637682
 10
284.466362061
 20
176.3625014188
 10
284.4819961004
 20
176.3637752617
 10
284.4968789152
 20
176.366862283
 10
284.5109894669
 20
176.3718015891
 10
284.524348794
 20
176.3785540737
 10
284.5366968626
 20
176.3869794039
 10
284.5479940563
 20
176.3970416058
 10
284.5582799915
 20
176.4087766533
 10
284.567413483
 20
176.422152135
 10
284.5754371451
 20
176.4371460593
 10
284.5823083634
 20
176.4537804179
 10
284.5877581096
 20
176.4720887742
 10
284.5916967075
 20
176.4920823162
 10
284.5942138332
 20
176.5137498558
 10
284.5953094868
 20
176.5370913933
  0
LWPOLYLINE
  5
301
100
AcDbEntity
  8
0
100
AcDbPolyline
 62
250
  6
CONTINUOUS
 90
13
 70
0
 10
283.828698663
 20
174.6643349518
 10
283.8181873146
 20
174.6799065212
 10
283.8055030385
 20
174.696431828
 10
283.7908604159
 20
174.713631279
 10
283.7745071808
 20
174.7312138547
 10
283.7567199999
 20
174.7488820662
 10
283.7377997845
 20
174.7663369881
 10
283.7180666299
 20
174.7832832829
 10
283.697854454
 20
174.7994341609
 10
283.6775053162
 20
174.8145162723
 10
283.6573635724
 20
174.8282743748
 10
283.6377700457
 20
174.8404756457
 10
283.6190563077
 20
174.850913589
  0
LWPOLYLINE
  5
302
100
AcDbEntity
  8
0
100
AcDbPolyline
 62
7
  6
CONTINUOUS
 90
10
 70
0
 10
272.7180069882
 20
224.012163498
 10
272.7170977499
 20
224.0333207822
 10
272.7127037281
 20
224.0630163213
 10
272.7046901598
 20
224.0917250447
 10
272.6931684617
 20
224.1189698013
 10
272.6784662034
 20
224.1441021955
 10
272.660844701
 20
224.1668618256
 10
272.6404550355
 20
224.1871050529
 10
272.6177257093
 20
224.2044244944
 10
272.5947562998
 20
224.2177251047
  0
LINE
  5
303
100
AcDbEntity
  8
0
100
AcDbLine
 62
250
  6
CONTINUOUS
 10
271.9572379537
 20
222.0693472776
 11
271.9572379537
 21
222.748162743
  0
LINE
  5
304
100
AcDbEntity
  8
0
100
AcDbLine
 62
7
  6
CONTINUOUS
 10
272.0183062797
 20
222.7944311981
 11
272.0183062797
 21
222.1478582941
  0
LINE
  5
305
100
AcDbEntity
  8
0
100
AcDbLine
 62
7
  6
CONTINUOUS
 10
272.1036390535
 20
223.708144048
 11
272.1036390535
 21
222.9733597255
  0
LINE
  5
306
100
AcDbEntity
  8
0
100
AcDbLine
 62
250
  6
CONTINUOUS
 10
272.6569280276
 20
219.7102292289
 11
272.6569280276
 21
219.3611537832
  0
LINE
  5
307
100
AcDbEntity
  8
0
100
AcDbLine
 62
250
  6
CONTINUOUS
 10
272.661875464
 20
223.9424813833
 11
272.661875464
 21
223.6891403288
  0
LINE
  5
308
100
AcDbEntity
  8
0
100
AcDbLine
 62
7
  6
CONTINUOUS
 10
272.7180070362
 20
224.0121634981
 11
272.718007504
 21
223.7586061661
  0
LINE
  5
309
100
AcDbEntity
  8
0
100
AcDbLine
 62
7
  6
CONTINUOUS
 10
273.4938547799
 20
219.2928981633
 11
273.4938547799
 21
217.9016623028
  0
LINE
  5
30A
100
AcDbEntity
  8
0
100
AcDbLine
 62
250
  6
CONTINUOUS
 10
273.5524334237
 20
219.3446619723
 11
273.5524334237
 21
217.8300661189
  0
LINE
  5
30B
100
AcDbEntity
  8
0
100
AcDbLine
 62
250
  6
CONTINUOUS
 10
273.9075358768
 20
217.6525148923
 11
273.9075358768
 21
219.1671107458
  0
LINE
  5
30C
100
AcDbEntity
  8
0
100
AcDbLine
 62
250
  6
CONTINUOUS
 10
274.1878889071
 20
217.6542621324
 11
274.1878889071
 21
218.9447487891
  0
LINE
  5
30D
100
AcDbEntity
  8
0
100
AcDbLine
 62
7
  6
CONTINUOUS
 10
274.2871849177
 20
221.3973055356
 11
274.2871849177
 21
220.3711258107
  0
LINE
  5
30E
100
AcDbEntity
  8
0
100
AcDbLine
 62
7
  6
CONTINUOUS
 10
274.314980041
 20
222.2867641512
 11
274.314980041
 21
222.5102933676
  0
LINE
  5
30F
100
AcDbEntity
  8
0
100
AcDbLine
 62
250
  6
CONTINUOUS
 10
274.3750528833
 20
221.2910170822
 11
274.3750528833
 21
220.2610717769
  0
LWPOLYLINE
  5
310
100
AcDbEntity
  8
0
100
AcDbPolyline
 62
250
  6
CONTINUOUS
 90
19
 70
0
 10
272.661875464
 20
223.6891403288
 10
272.6618462134
 20
223.6869966654
 10
272.6617141366
 20
223.6847546239
 10
272.6614792337
 20
223.6824142041
 10
272.6611465457
 20
223.679964256
 10
272.6607110317
 20
223.6774159297
 10
272.6601575681
 20
223.6748026756
 10
272.6594822941
 20
223.6721210448
 10
272.6586890706
 20
223.6693744861
 10
272.657774356
 20
223.6666067963
 10
272.656733872
 20
223.6638161177
 10
272.6555718968
 20
223.6610043081
 10
272.6542977242
 20
223.6582207376
 10
272.6529073693
 20
223.6554657099
 10
272.6514048169
 20
223.6527389215
 10
272.6498113149
 20
223.6500888315
 10
272.648133946
 20
223.6475315931
 10
272.6463656275
 20
223.6450510531
 10
272.6445063594
 20
223.6426472116
  0
LWPOLYLINE
  5
311
100
AcDbEntity
  8
0
100
AcDbPolyline
 62
250
  6
CONTINUOUS
 90
17
 70
0
 10
282.3180782421
 20
217.0071802403
 10
282.3097675099
 20
216.9953053735
 10
282.301811376
 20
216.9829871458
 10
282.2942362788
 20
216.970253647
 10
282.2870978353
 20
216.9571895117
 10
282.2804287076
 20
216.9438515519
 10
282.2742482672
 20
216.9302752081
 10
282.2685844466
 20
216.9165188458
 10
282.2634589811
 20
216.9026333195
 10
282.2588902307
 20
216.8886661071
 10
282.2548964995
 20
216.8746719012
 10
282.2514922823
 20
216.8607004348
 10
282.2486901919
 20
216.8468020137
 10
282.2465012291
 20
216.8330320576
 10
282.2449329039
 20
216.8194415563
 10
282.2439900439
 20
216.80607703
 10
282.2436755349
 20
216.7929860324
  0
LINE
  5
312
100
AcDbEntity
  8
RACCORDO
100
AcDbLine
 62
250
  6
CONTINUOUS
 10
288.8291464365
 20
223.7842440325
 11
288.7960465117
 21
223.7505176509
  0
LWPOLYLINE
  5
313
100
AcDbEntity
  8
RACCORDO
100
AcDbPolyline
 62
250
  6
CONTINUOUS
 90
10
 70
0
 10
289.9995208782
 20
223.6014964354
 10
289.9804799897
 20
223.5834368702
 10
289.9626319342
 20
223.5627264049
 10
289.9463436378
 20
223.539790812
 10
289.9319499606
 20
223.5151016086
 10
289.9197468125
 20
223.4891663637
 10
289.9099850698
 20
223.4625182622
 10
289.9028654175
 20
223.4357051446
 10
289.8985342238
 20
223.4092782435
 10
289.8970805307
 20
223.3837808519
  0
LWPOLYLINE
  5
314
100
AcDbEntity
  8
RACCORDO
100
AcDbPolyline
 62
250
  6
CONTINUOUS
 90
10
 70
0
 10
290.7579264769
 20
223.222293636
 10
290.7388850244
 20
223.2042334417
 10
290.7210366325
 20
223.1835223813
 10
290.7047482168
 20
223.1605863213
 10
290.690354616
 20
223.1358968728
 10
290.6781516765
 20
223.1099616359
 10
290.6683901904
 20
223.0833137549
 10
290.6612707821
 20
223.0565010427
 10
290.6569397685
 20
223.0300747262
 10
290.6554861315
 20
223.0045780516
  0
LWPOLYLINE
  5
315
100
AcDbEntity
  8
RACCORDO
100
AcDbPolyline
 62
250
  6
CONTINUOUS
 90
16
 70
0
 10
289.4842093144
 20
223.2715204266
 10
289.5084386499
 20
223.2943834291
 10
289.534479978
 20
223.315402741
 10
289.5620352155
 20
223.3345016936
 10
289.5908041428
 20
223.3517324775
 10
289.6204618251
 20
223.3669385482
 10
289.6506596617
 20
223.3797593173
 10
289.6810743949
 20
223.3901533271
 10
289.7113911701
 20
223.3981677377
 10
289.7412790723
 20
223.4036069541
 10
289.7703908162
 20
223.4064838471
 10
289.7985009737
 20
223.4068947114
 10
289.8254704432
 20
223.4047737711
 10
289.8510748163
 20
223.4001385834
 10
289.8750221559
 20
223.393110968
 10
289.8970805307
 20
223.3837808519
  0
LWPOLYLINE
  5
316
100
AcDbEntity
  8
0
100
AcDbPolyline
 62
7
  6
CONTINUOUS
 90
7
 70
0
 10
292.4635094861
 20
223.9845405631
 10
292.4598372382
 20
223.9814222201
 10
292.4556825517
 20
223.9741423632
 10
292.4518301468
 20
223.9631677471
 10
292.4486146567
 20
223.9493688004
 10
292.4462494788
 20
223.9330479502
 10
292.4447868082
 20
223.9139335908
  0
LWPOLYLINE
  5
317
100
AcDbEntity
  8
0
100
AcDbPolyline
 62
250
  6
CONTINUOUS
 90
22
 70
0
 10
279.9825742934
 20
212.4481298952
 10
279.903283413
 20
212.4007931279
 10
279.8257308318
 20
212.3474472654
 10
279.750292592
 20
212.288626618
 10
279.6776779969
 20
212.225218062
 10
279.6078005313
 20
212.1574708719
 10
279.5398797874
 20
212.0847297104
 10
279.4738313269
 20
212.0067864652
 10
279.4104678553
 20
211.9244776893
 10
279.3503956923
 20
211.8385727562
 10
279.2936629936
 20
211.7491382948
 10
279.2407922741
 20
211.6570060809
 10
279.192834065
 20
211.5642970898
 10
279.1502935276
 20
211.4727317411
 10
279.1125242328
 20
211.3817145815
 10
279.0788250053
 20
211.2898973628
 10
279.0495290355
 20
211.1983758174
 10
279.024487064
 20
211.1068563655
 10
279.0030202756
 20
211.0118612137
 10
278.9856002241
 20
210.9126263563
 10
278.9732382357
 20
210.8110902945
 10
278.9666359002
 20
210.7080119309
  0
LWPOLYLINE
  5
318
100
AcDbEntity
  8
0
100
AcDbPolyline
 62
250
  6
CONTINUOUS
 90
7
 70
0
 10
286.0261936285
 20
217.260322301
 10
286.0429238348
 20
217.2701890002
 10
286.0569668063
 20
217.2810529532
 10
286.0680875656
 20
217.2927323775
 10
286.0761000317
 20
217.3050318452
 10
286.0808701335
 20
217.3177455533
 10
286.0823256684
 20
217.329788138
  0
LWPOLYLINE
  5
319
100
AcDbEntity
  8
0
100
AcDbPolyline
 62
250
  6
CONTINUOUS
 90
7
 70
0
 10
286.0261936285
 20
217.0069812466
 10
286.0429238436
 20
217.0168479517
 10
286.0569668194
 20
217.0277119105
 10
286.068087579
 20
217.0393913399
 10
286.0761000422
 20
217.0516908115
 10
286.0808701391
 20
217.0644045221
 10
286.0823256684
 20
217.0764470836
  0
LWPOLYLINE
  5
31A
100
AcDbEntity
  8
0
100
AcDbPolyline
 62
250
  6
CONTINUOUS
 90
28
 70
0
 10
283.7046572742
 20
216.4526600553
 10
283.6961510947
 20
216.4480061682
 10
283.6874233578
 20
216.4427097322
 10
283.6784986371
 20
216.4367403691
 10
283.6693843576
 20
216.4300543162
 10
283.6601341124
 20
216.4226400688
 10
283.6508450404
 20
216.4145310551
 10
283.6415537168
 20
216.4057202879
 10
283.6323000604
 20
216.3962051867
 10
283.6231836517
 20
216.3860528197
 10
283.6142437563
 20
216.3752783016
 10
283.605521637
 20
216.3639015334
 10
283.5971110707
 20
216.352021376
 10
283.5890517066
 20
216.3396795225
 10
283.5813738805
 20
216.3269074727
 10
283.5741443762
 20
216.313806217
 10
283.5673974181
 20
216.3004374214
 10
283.5611497221
 20
216.2868339801
 10
283.5554315318
 20
216.2730609087
 10
283.5502648369
 20
216.2591744601
 10
283.545664419
 20
216.2452181271
 10
283.5416452151
 20
216.2312389288
 10
283.53822097
 20
216.2172864214
 10
283.5354034945
 20
216.2034109401
 10
283.5332021887
 20
216.1896604162
 10
283.5316245537
 20
216.1760833822
 10
283.5306759406
 20
216.1627287603
 10
283.5303593983
 20
216.1496441007
  0
LINE
  5
31B
100
AcDbEntity
  8
0
100
AcDbLine
 62
250
  6
CONTINUOUS
 10
280.9587080183
 20
212.9810299876
 11
279.9825742934
 21
212.4481298952
  0
LWPOLYLINE
  5
31C
100
AcDbEntity
  8
0
100
AcDbPolyline
 62
7
  6
CONTINUOUS
 90
13
 70
0
 10
299.1689336861
 20
224.6675929036
 10
299.0399488679
 20
224.5972391852
 10
298.9210355837
 20
224.5225811366
 10
298.8127667502
 20
224.4439784557
 10
298.7156640002
 20
224.3618098455
 10
298.6301951688
 20
224.2764711894
 10
298.5567720398
 20
224.1883736437
 10
298.4957483612
 20
224.0979416572
 10
298.4474181414
 20
224.0056109257
 10
298.4120142325
 20
223.911826293
 10
298.3897072084
 20
223.8170396079
 10
298.380604543
 20
223.7217075467
 10
298.3803724212
 20
223.7038426652
  0
LINE
  5
31D
100
AcDbEntity
  8
0
100
AcDbLine
 62
250
  6
CONTINUOUS
 10
285.4683205551
 20
215.4669311904
 11
285.3357442392
 21
215.3957336574
  0
LINE
  5
31E
100
AcDbEntity
  8
0
100
AcDbLine
 62
7
  6
CONTINUOUS
 10
284.5301618046
 20
214.9550404266
 11
284.5249741272
 21
214.9523025157
  0
LINE
  5
31F
100
AcDbEntity
  8
0
100
AcDbLine
 62
7
  6
CONTINUOUS
 10
298.8381028259
 20
223.3956908233
 11
299.4888764807
 21
223.7388566394
  0
LWPOLYLINE
  5
320
100
AcDbEntity
  8
0
100
AcDbPolyline
 62
250
  6
CONTINUOUS
 90
28
 70
0
 10
283.8460570913
 20
216.208781446
 10
283.8443225211
 20
216.207871733
 10
283.842554283
 20
216.2068224909
 10
283.8407523769
 20
216.2056337197
 10
283.8389056328
 20
216.20430534
 10
283.8370252208
 20
216.2028374312
 10
283.8351446507
 20
216.201230231
 10
283.833263103
 20
216.1994785977
 10
283.8313813972
 20
216.197587673
 10
283.8295355012
 20
216.1955731206
 10
283.8277260165
 20
216.1934301008
 10
283.8259523415
 20
216.1911634532
 10
283.82424864
 20
216.1888033603
 10
283.8226176825
 20
216.1863477036
 10
283.8210566985
 20
216.1837986016
 10
283.8195915405
 20
216.1811925917
 10
283.8182257693
 20
216.1785311199
 10
283.8169558241
 20
216.1758127401
 10
283.8157968745
 20
216.1730696523
 10
283.8147508446
 20
216.1703028263
 10
283.8138158103
 20
216.1675112923
 10
283.8130011687
 20
216.1647243403
 10
283.8123081236
 20
216.1619419795
 10
283.8117354712
 20
216.1591642008
 10
283.811288997
 20
216.1564202671
 10
283.8109706294
 20
216.1537199327
 10
283.8107784399
 20
216.1510534433
 10
283.8107124286
 20
216.1484207988
  0
LINE
  5
321
100
AcDbEntity
  8
0
100
AcDbLine
 62
7
  6
CONTINUOUS
 10
303.1810896645
 20
226.7089926963
 11
299.1689336861
 21
224.6675929036
  0
LINE
  5
322
100
AcDbEntity
  8
0
100
AcDbLine
 62
7
  6
CONTINUOUS
 10
286.3164853554
 20
217.41895453
 11
286.0823256684
 21
217.300262007
  0
LINE
  5
323
100
AcDbEntity
  8
0
100
AcDbLine
 62
7
  6
CONTINUOUS
 10
286.1557540333
 20
216.5899063715
 11
285.4963949079
 21
216.2556857411
  0
LINE
  5
324
100
AcDbEntity
  8
0
100
AcDbLine
 62
250
  6
CONTINUOUS
 10
285.3265574009
 20
217.2698635751
 11
283.7046572742
 21
216.4526600553
  0
LINE
  5
325
100
AcDbEntity
  8
0
100
AcDbLine
 62
250
  6
CONTINUOUS
 10
285.4679572179
 20
217.0259849658
 11
283.8460570913
 21
216.208781446
  0
LINE
  5
326
100
AcDbEntity
  8
0
100
AcDbLine
 62
7
  6
CONTINUOUS
 10
281.8373800584
 20
215.1200032135
 11
280.5518499378
 21
214.472281617
  0
LINE
  5
327
100
AcDbEntity
  8
0
100
AcDbLine
 62
7
  6
CONTINUOUS
 10
299.6171639095
 20
223.515764908
 11
300.1121386563
 21
223.7632522815
  0
LINE
  5
328
100
AcDbEntity
  8
RACCORDO
100
AcDbLine
 62
7
  6
CONTINUOUS
 10
302.5803165688
 20
223.9437521338
 11
301.2688522578
 21
223.2880199782
  0
LINE
  5
329
100
AcDbEntity
  8
0
100
AcDbLine
 62
250
  6
CONTINUOUS
 10
285.8506618674
 20
217.5298232542
 11
285.3265574009
 21
217.2698635751
  0
LINE
  5
32A
100
AcDbEntity
  8
0
100
AcDbLine
 62
250
  6
CONTINUOUS
 10
285.9920616845
 20
217.2859446449
 11
285.4679572179
 21
217.0259849658
  0
LINE
  5
32B
100
AcDbEntity
  8
DRAFT
100
AcDbLine
 62
7
  6
CONTINUOUS
 10
294.8017667296
 20
220.9803489434
 11
291.8829214097
 21
219.5325801467
  0
LINE
  5
32C
100
AcDbEntity
  8
0
100
AcDbLine
 62
250
  6
CONTINUOUS
 10
286.1627752522
 20
215.8116940934
 11
285.4680110658
 21
215.467085935
  0
LINE
  5
32D
100
AcDbEntity
  8
0
100
AcDbLine
 62
250
  6
CONTINUOUS
 10
285.5256017449
 20
216.130280847
 11
292.1536135381
 21
219.3972340825
  0
LINE
  5
32E
100
AcDbEntity
  8
0
100
AcDbLine
 62
250
  6
CONTINUOUS
 10
285.9033206323
 20
215.9414214033
 11
292.4036040189
 21
219.1454171872
  0
LINE
  5
32F
100
AcDbEntity
  8
DRAFT
100
AcDbLine
 62
7
  6
CONTINUOUS
 10
303.1810896645
 20
226.301141429
 11
299.1689336861
 21
224.3462686214
  0
LINE
  5
330
100
AcDbEntity
  8
0
100
AcDbLine
 62
250
  6
CONTINUOUS
 10
297.5987271426
 20
223.1028272968
 11
286.0369144096
 21
217.4694786832
  0
LINE
  5
331
100
AcDbEntity
  8
0
100
AcDbLine
 62
250
  6
CONTINUOUS
 10
297.6487724775
 20
222.9230287622
 11
289.0060822114
 21
218.7119860518
  0
LINE
  5
332
100
AcDbEntity
  8
DRAFT
100
AcDbLine
 62
7
  6
CONTINUOUS
 10
299.3468361058
 20
222.2369645382
 11
292.5307798017
 21
218.9260714081
  0
LINE
  5
333
100
AcDbEntity
  8
0
100
AcDbLine
 62
7
  6
CONTINUOUS
 10
291.3094286154
 20
219.8193265438
 11
286.3164853554
 21
217.41895453
  0
LINE
  5
334
100
AcDbEntity
  8
DRAFT
100
AcDbLine
 62
7
  6
CONTINUOUS
 10
298.470958547
 20
222.6749033176
 11
294.8017667296
 21
220.9803489434
  0
LWPOLYLINE
  5
335
100
AcDbEntity
  8
RACCORDO
100
AcDbPolyline
 62
7
  6
CONTINUOUS
 90
10
 70
0
 10
303.4288183807
 20
223.5194749022
 10
303.4402148449
 20
223.5246435575
 10
303.4514352474
 20
223.5286954539
 10
303.4624795881
 20
223.5316305914
 10
303.4734428471
 20
223.5334491227
 10
303.4842300442
 20
223.5341508952
 10
303.4945562397
 20
223.5337354508
 10
303.5043264534
 20
223.532202637
 10
303.5136356654
 20
223.5295526062
 10
303.5224838757
 20
223.5257853586
  0
LWPOLYLINE
  5
336
100
AcDbEntity
  8
0
100
AcDbPolyline
 62
250
  6
CONTINUOUS
 90
13
 70
0
 10
283.8107124286
 20
216.1484207988
 10
283.7909790185
 20
216.1400556913
 10
283.7692511008
 20
216.1330342034
 10
283.7458922421
 20
216.1274738236
 10
283.7212932988
 20
216.1234675919
 10
283.6958658776
 20
216.1210825435
 10
283.6700354475
 20
216.1203585866
 10
283.644234221
 20
216.1213078348
 10
283.6188939221
 20
216.1239144048
 10
283.5944385622
 20
216.1281346817
 10
283.5712773452
 20
216.1338980488
 10
283.5497978205
 20
216.1411080695
 10
283.5303593983
 20
216.1496441007
  0
LWPOLYLINE
  5
337
100
AcDbEntity
  8
0
100
AcDbPolyline
 62
250
  6
CONTINUOUS
 90
13
 70
0
 10
283.8107124286
 20
215.9177545388
 10
283.7909789783
 20
215.9093893956
 10
283.769251022
 20
215.9023678835
 10
283.7458921298
 20
215.8968074899
 10
283.7212931618
 20
215.8928012534
 10
283.6958657265
 20
215.8904162072
 10
283.6700352933
 20
215.8896922579
 10
283.6442340756
 20
215.8906415177
 10
283.6188937963
 20
215.893248101
 10
283.5944384631
 20
215.8974683911
 10
283.5712772774
 20
215.9032317705
 10
283.5497977867
 20
215.9104418016
 10
283.5303593983
 20
215.9189778406
  0
LINE
  5
338
100
AcDbEntity
  8
0
100
AcDbLine
 62
250
  6
CONTINUOUS
 10
284.4716541118
 20
183.5005285032
 11
283.8937657015
 21
183.7894727084
  0
LINE
  5
339
100
AcDbEntity
  8
0
100
AcDbLine
 62
7
  6
CONTINUOUS
 10
282.1698558454
 20
186.1827923187
 11
282.4533175079
 21
186.0410614875
  0
LWPOLYLINE
  5
33A
100
AcDbEntity
  8
0
100
AcDbPolyline
 62
250
  6
CONTINUOUS
 90
7
 70
0
 10
268.8207787734
 20
223.315121224
 10
268.8226848387
 20
223.301416266
 10
268.8278979787
 20
223.2887461166
 10
268.8363385324
 20
223.2765184366
 10
268.8478652666
 20
223.2649378281
 10
268.8622853079
 20
223.2541980657
 10
268.8793573705
 20
223.2444788547
  0
LWPOLYLINE
  5
33B
100
AcDbEntity
  8
0
100
AcDbPolyline
 62
250
  6
CONTINUOUS
 90
7
 70
0
 10
268.8207787335
 20
223.5458296646
 10
268.8226848288
 20
223.5320825616
 10
268.8278979616
 20
223.5194124078
 10
268.8363385115
 20
223.5071847216
 10
268.8478652466
 20
223.4956041053
 10
268.8622852947
 20
223.4848643344
 10
268.8793573705
 20
223.4751451147
  0
LWPOLYLINE
  5
33C
100
AcDbEntity
  8
0
100
AcDbPolyline
 62
250
  6
CONTINUOUS
 90
9
 70
0
 10
274.2871849241
 20
221.3972728975
 10
274.2877338998
 20
221.3882024462
 10
274.2912133221
 20
221.3727254246
 10
274.2978638672
 20
221.3575173844
 10
274.3076142786
 20
221.3427407549
 10
274.3203600853
 20
221.3285546835
 10
274.335964723
 20
221.3151112674
 10
274.3542609996
 20
221.3025539295
 10
274.3750528833
 20
221.2910170822
  0
LINE
  5
33D
100
AcDbEntity
  8
0
100
AcDbLine
 62
7
  6
CONTINUOUS
 10
274.6331780926
 20
222.3511943418
 11
274.6331780926
 21
222.1276651255
  0
LWPOLYLINE
  5
33E
100
AcDbEntity
  8
RACCORDO
100
AcDbPolyline
 62
250
  6
CONTINUOUS
 90
7
 70
0
 10
288.7248492295
 20
224.150535815
 10
288.7104556286
 20
224.1258463664
 10
288.6982526892
 20
224.0999111296
 10
288.6884912031
 20
224.0732632485
 10
288.6813717948
 20
224.0464505364
 10
288.6770407812
 20
224.0200242199
 10
288.6755871442
 20
223.9945275452
  0
LWPOLYLINE
  5
33F
100
AcDbEntity
  8
0
100
AcDbPolyline
 62
250
  6
CONTINUOUS
 90
10
 70
0
 10
286.0088245238
 20
216.9604881294
 10
286.0122589904
 20
216.9651113201
 10
286.0153377843
 20
216.9699247755
 10
286.0180609055
 20
216.9749284957
 10
286.0204556457
 20
216.9801952631
 10
286.0224947132
 20
216.9856522952
 10
286.0240962328
 20
216.9910812443
 10
286.0252329126
 20
216.996409328
 10
286.0259320445
 20
217.0017093287
 10
286.0261936285
 20
217.0069812466
  0
LWPOLYLINE
  5
340
100
AcDbEntity
  8
0
100
AcDbPolyline
 62
7
  6
CONTINUOUS
 90
9
 70
0
 10
286.0204870838
 20
216.9042204287
 10
286.0284314532
 20
216.9145340098
 10
286.0424097287
 20
216.9355485011
 10
286.054585617
 20
216.9580126269
 10
286.064802347
 20
216.9818175742
 10
286.0726770515
 20
217.006048627
 10
286.0782105383
 20
217.0304506435
 10
286.0814702988
 20
217.0555418032
 10
286.0823261051
 20
217.0764597225
  0
LINE
  5
341
100
AcDbEntity
  8
0
100
AcDbLine
 62
250
  6
CONTINUOUS
 10
285.4679572179
 20
216.2912006433
 11
286.0088245238
 21
216.9604881294
  0
LINE
  5
342
100
AcDbEntity
  8
0
100
AcDbLine
 62
7
  6
CONTINUOUS
 10
285.38049891
 20
216.1122721159
 11
286.0205119339
 21
216.9042458649
  0
LWPOLYLINE
  5
343
100
AcDbEntity
  8
0
100
AcDbPolyline
 62
7
  6
CONTINUOUS
 90
3
 70
0
 10
285.3341818546
 20
216.0810617602
 10
285.3279192028
 20
216.0740807812
 10
285.3215561182
 20
216.0660036607
  0
LWPOLYLINE
  5
344
100
AcDbEntity
  8
0
100
AcDbPolyline
 62
7
  6
CONTINUOUS
 90
15
 70
0
 10
284.5301618046
 20
215.740136632
 10
284.5157928459
 20
215.7241268457
 10
284.5001333849
 20
215.7089702895
 10
284.4832985144
 20
215.6947407746
 10
284.4654387745
 20
215.6814183096
 10
284.4466883711
 20
215.6691543852
 10
284.4271583775
 20
215.6582797015
 10
284.4070336531
 20
215.648845973
 10
284.3865075943
 20
215.6409083863
 10
284.3657245053
 20
215.6348089199
 10
284.3448856908
 20
215.6305881801
 10
284.3242752955
 20
215.6282752077
 10
284.304184221
 20
215.6281822699
 10
284.284893766
 20
215.6304014251
 10
284.2793392853
 20
215.6314874293
  0
LWPOLYLINE
  5
345
100
AcDbEntity
  8
0
100
AcDbPolyline
 62
7
  6
CONTINUOUS
 90
12
 70
0
 10
285.3804992944
 20
216.1122725916
 10
285.3795531236
 20
216.1112202974
 10
285.3771628972
 20
216.1091946752
 10
285.3741947348
 20
216.107254202
 10
285.3706718578
 20
216.1052809817
 10
285.366694161
 20
216.1032955481
 10
285.3622841391
 20
216.1011735389
 10
285.3573754496
 20
216.0985655971
 10
285.3520106315
 20
216.095423904
 10
285.346295997
 20
216.0916896789
 10
285.3403222757
 20
216.0869601431
 10
285.3341818546
 20
216.0810617602
  0
LWPOLYLINE
  5
346
100
AcDbEntity
  8
0
100
AcDbPolyline
 62
250
  6
CONTINUOUS
 90
34
 70
0
 10
283.1331344668
 20
211.6513128653
 10
283.1204406472
 20
211.6414987638
 10
283.1073836284
 20
211.6323993221
 10
283.0940846387
 20
211.6240016341
 10
283.0806768366
 20
211.6163010554
 10
283.0672524213
 20
211.6092799069
 10
283.0538458882
 20
211.6029039909
 10
283.0405425198
 20
211.5971678663
 10
283.0274146889
 20
211.592047621
 10
283.0144516709
 20
211.5874878045
 10
283.0016945428
 20
211.5834615194
 10
282.9892029652
 20
211.5799517704
 10
282.9769785597
 20
211.5769259657
 10
282.9650398039
 20
211.5743584811
 10
282.9534374352
 20
211.5722264774
 10
282.942212444
 20
211.5705029206
 10
282.9314115807
 20
211.5691608796
 10
282.9210294901
 20
211.568166616
 10
282.9110229067
 20
211.5674867052
 10
282.9014443039
 20
211.5670971883
 10
282.8922614998
 20
211.5669691521
 10
282.8833049717
 20
211.567081531
 10
282.8745811439
 20
211.5674233028
 10
282.8661012389
 20
211.5679829345
 10
282.8577121752
 20
211.5687655622
 10
282.8493950435
 20
211.5697762984
 10
282.8411973473
 20
211.5710125445
 10
282.833075589
 20
211.5724848954
 10
282.8250378197
 20
211.5741995429
 10
282.8171132401
 20
211.576157948
 10
282.8092962492
 20
211.5783696974
 10
282.8016010316
 20
211.5808415106
 10
282.7940590941
 20
211.583574348
 10
282.7866939155
 20
211.5865699698
  0
LINE
  5
347
100
AcDbEntity
  8
0
100
AcDbLine
 62
7
  6
CONTINUOUS
 10
284.5091118568
 20
213.8398802227
 11
284.5302327556
 21
213.8557623064
  0
LWPOLYLINE
  5
348
100
AcDbEntity
  8
0
100
AcDbPolyline
 62
7
  6
CONTINUOUS
 90
7
 70
0
 10
285.3357442392
 20
215.3957336574
 10
285.3334973203
 20
215.3942631257
 10
285.3312025722
 20
215.3928104087
 10
285.3288605228
 20
215.3913759652
 10
285.3264717183
 20
215.3899602507
 10
285.3240367227
 20
215.3885637172
 10
285.3215561182
 20
215.3871868134
  0
LWPOLYLINE
  5
349
100
AcDbEntity
  8
0
100
AcDbPolyline
 62
250
  6
CONTINUOUS
 90
22
 70
0
 10
280.3484070334
 20
211.8451274495
 10
280.2948628542
 20
211.813123745
 10
280.2429478696
 20
211.777826986
 10
280.1926620794
 20
211.7392371724
 10
280.1440288066
 20
211.6973015693
 10
280.0970247283
 20
211.6520729117
 10
280.0515798756
 20
211.6037094042
 10
280.0073979299
 20
211.5519153854
 10
279.9647752099
 20
211.4969865169
 10
279.9245307031
 20
211.439967988
 10
279.8866485829
 20
211.380517799
 10
279.8511446758
 20
211.3189779498
 10
279.8188854488
 20
211.2574196288
 10
279.790292547
 20
211.1966195734
 10
279.7649443253
 20
211.1358010462
 10
279.7424423146
 20
211.0747050243
 10
279.7226234834
 20
211.0137928312
 10
279.7056508632
 20
210.9526031434
 10
279.6916150797
 20
210.8894929663
 10
279.6805463412
 20
210.8239146352
 10
279.6724144393
 20
210.7564158148
 10
279.6672193741
 20
210.6869965052
  0
LINE
  5
34A
100
AcDbEntity
  8
0
100
AcDbLine
 62
250
  6
CONTINUOUS
 10
281.3119922843
 20
212.371176961
 11
280.3484070334
 21
211.8451274495
  0
LINE
  5
34B
100
AcDbEntity
  8
0
100
AcDbLine
 62
250
  6
CONTINUOUS
 10
285.8215106085
 20
214.8573232582
 11
284.8744017582
 21
214.3485084575
  0
LINE
  5
34C
100
AcDbEntity
  8
0
100
AcDbLine
 62
7
  6
CONTINUOUS
 10
281.4408389415
 20
211.3143545717
 11
282.1437862436
 21
211.6713063326
  0
LINE
  5
34D
100
AcDbEntity
  8
0
100
AcDbLine
 62
250
  6
CONTINUOUS
 10
281.4408389415
 20
211.2121539924
 11
282.1797312767
 21
211.5873583917
  0
LINE
  5
34E
100
AcDbEntity
  8
0
100
AcDbLine
 62
250
  6
CONTINUOUS
 10
293.5449577923
 20
217.1768731201
 11
286.5471336324
 21
213.647607775
  0
LINE
  5
34F
100
AcDbEntity
  8
0
100
AcDbLine
 62
250
  6
CONTINUOUS
 10
284.1245620295
 20
213.6273367822
 11
282.4307169652
 21
212.7738834002
  0
LINE
  5
350
100
AcDbEntity
  8
0
100
AcDbLine
 62
7
  6
CONTINUOUS
 10
284.4716541118
 20
212.7545205684
 11
283.7990935203
 21
212.4156471239
  0
LINE
  5
351
100
AcDbEntity
  8
RACCORDO
100
AcDbLine
 62
7
  6
CONTINUOUS
 10
303.4288472766
 20
223.5194893502
 11
302.5499546254
 21
223.0800430246
  0
LINE
  5
352
100
AcDbEntity
  8
RACCORDO
100
AcDbLine
 62
250
  6
CONTINUOUS
 10
308.1116383009
 20
223.9032357478
 11
293.7471819208
 21
216.7613515741
  0
LINE
  5
353
100
AcDbEntity
  8
0
100
AcDbLine
 62
250
  6
CONTINUOUS
 10
286.5162747949
 20
215.20199757
 11
285.8215106085
 21
214.8573894117
  0
LINE
  5
354
100
AcDbEntity
  8
0
100
AcDbLine
 62
7
  6
CONTINUOUS
 10
281.7627033921
 20
211.9451010689
 11
281.4408389415
 21
211.788585777
  0
LINE
  5
355
100
AcDbEntity
  8
RACCORDO
100
AcDbLine
 62
7
  6
CONTINUOUS
 10
307.69209509
 20
224.6268407492
 11
300.0995301898
 21
220.9387592771
  0
LINE
  5
356
100
AcDbEntity
  8
RACCORDO
100
AcDbLine
 62
7
  6
CONTINUOUS
 10
306.8864231539
 20
225.0296767172
 11
303.4652770841
 21
223.3877109889
  0
LWPOLYLINE
  5
357
100
AcDbEntity
  8
RACCORDO
100
AcDbPolyline
 62
7
  6
CONTINUOUS
 90
9
 70
0
 10
307.69209509
 20
224.6268407492
 10
307.7482409677
 20
224.6521037875
 10
307.8014736786
 20
224.67155628
 10
307.8513441391
 20
224.685185891
 10
307.8973149088
 20
224.6930935784
 10
307.9391068703
 20
224.6953265564
 10
307.9766997804
 20
224.6918695421
 10
308.009734069
 20
224.6829329379
 10
308.0240911604
 20
224.6766625069
  0
LWPOLYLINE
  5
358
100
AcDbEntity
  8
0
100
AcDbPolyline
 62
250
  6
CONTINUOUS
 90
20
 70
0
 10
283.0271435754
 20
211.474047042
 10
283.0335243557
 20
211.4768945131
 10
283.0400839574
 20
211.4802861621
 10
283.0467066088
 20
211.4842174193
 10
283.0533962873
 20
211.4887442564
 10
283.0601331127
 20
211.4939166018
 10
283.0668698322
 20
211.4997632305
 10
283.0735622286
 20
211.5063108244
 10
283.0801564398
 20
211.5135789176
 10
283.0866169182
 20
211.5216046213
 10
283.0929194023
 20
211.5304365229
 10
283.0989989791
 20
211.5400908484
 10
283.1048062118
 20
211.550600488
 10
283.1103269995
 20
211.56204038
 10
283.1154867671
 20
211.5744314107
 10
283.1201981073
 20
211.587773687
 10
283.1244109773
 20
211.6021120777
 10
283.1280513064
 20
211.6174864301
 10
283.1310196182
 20
211.6339251563
 10
283.1331344668
 20
211.6513128653
  0
LWPOLYLINE
  5
359
100
AcDbEntity
  8
0
100
AcDbPolyline
 62
7
  6
CONTINUOUS
 90
6
 70
0
 10
283.1800030948
 20
211.5372141397
 10
283.288339602
 20
211.5820976663
 10
283.3967253083
 20
211.6270968354
 10
283.5051601332
 20
211.6722116415
 10
283.613643926
 20
211.7174421508
 10
283.7690023831
 20
211.7823826993
  0
LINE
  5
35A
100
AcDbEntity
  8
0
100
AcDbLine
 62
7
  6
CONTINUOUS
 10
283.0271371838
 20
211.4740443213
 11
283.1800030948
 21
211.5372141397
  0
LWPOLYLINE
  5
35B
100
AcDbEntity
  8
0
100
AcDbPolyline
 62
250
  6
CONTINUOUS
 90
16
 70
0
 10
279.6672193741
 20
210.6869965052
 10
279.62821024
 20
210.6718641217
 10
279.5858976076
 20
210.6588207177
 10
279.5407348358
 20
210.648006047
 10
279.4932058217
 20
210.6395359833
 10
279.4438198155
 20
210.6335012794
 10
279.3931059639
 20
210.6299665941
 10
279.3416076411
 20
210.6289697998
 10
279.2898766263
 20
210.6305215767
 10
279.2384671922
 20
210.6346052983
 10
279.1879301657
 20
210.6411772095
 10
279.1388070261
 20
210.6501668956
 10
279.091624104
 20
210.6614780363
 10
279.0468869413
 20
210.6749894384
 10
279.0050748747
 20
210.6905563338
 10
278.9666359002
 20
210.7080119309
  0
LWPOLYLINE
  5
35C
100
AcDbEntity
  8
0
100
AcDbPolyline
 62
250
  6
CONTINUOUS
 90
7
 70
0
 10
283.1331360788
 20
211.651313909
 10
283.2349134213
 20
211.6903370452
 10
283.3373047113
 20
211.7297011026
 10
283.4403075368
 20
211.7694090347
 10
283.5439194869
 20
211.8094638683
 10
283.6481381535
 20
211.8498687039
 10
283.7529611322
 20
211.8906267158
  0
LINE
  5
35D
100
AcDbEntity
  8
0
100
AcDbLine
 62
250
  6
CONTINUOUS
 10
280.9915194643
 20
212.9623776416
 11
281.0804997654
 21
212.9954239439
  0
LINE
  5
35E
100
AcDbEntity
  8
0
100
AcDbLine
 62
250
  6
CONTINUOUS
 10
281.3113831076
 20
212.3847697547
 11
281.4127312776
 21
212.4224093471
  0
LINE
  5
35F
100
AcDbEntity
  8
0
100
AcDbLine
 62
7
  6
CONTINUOUS
 10
282.1214375755
 20
188.3956770001
 11
281.4408389415
 21
188.7359763171
  0
LINE
  5
360
100
AcDbEntity
  8
0
100
AcDbLine
 62
250
  6
CONTINUOUS
 10
282.1698558454
 20
188.474199667
 11
281.4408389415
 21
188.838708119
  0
LINE
  5
361
100
AcDbEntity
  8
0
100
AcDbLine
 62
250
  6
CONTINUOUS
 10
281.4408389415
 20
189.4142410187
 11
282.243165705
 21
189.013077637
  0
LINE
  5
362
100
AcDbEntity
  8
0
100
AcDbLine
 62
250
  6
CONTINUOUS
 10
281.8180435929
 20
189.6183033544
 11
282.1992317222
 21
189.4277092898
  0
LWPOLYLINE
  5
363
100
AcDbEntity
  8
0
100
AcDbPolyline
 62
7
  6
CONTINUOUS
 90
40
 70
0
 10
271.2558180236
 20
195.5913806938
 10
271.2242028716
 20
195.6080328733
 10
271.1926770115
 20
195.6263844423
 10
271.1612404689
 20
195.6464354137
 10
271.1297955675
 20
195.6682516577
 10
271.0984400871
 20
195.691767356
 10
271.0674672612
 20
195.7167850013
 10
271.0368825596
 20
195.7433345097
 10
271.0066807134
 20
195.7713860661
 10
270.9771388593
 20
195.8006525711
 10
270.9483301081
 20
195.8310684349
 10
270.9201816147
 20
195.8626993807
 10
270.8927515846
 20
195.8954552801
 10
270.8661316972
 20
195.9291557411
 10
270.8402305949
 20
195.9639813172
 10
270.8148319824
 20
196.0003833258
 10
270.7898457601
 20
196.0383595155
 10
270.7653625328
 20
196.0779123912
 10
270.7414372075
 20
196.1195004785
 10
270.7179687392
 20
196.1631556336
 10
270.6950589777
 20
196.2088464038
 10
270.6730673991
 20
196.2569364649
 10
270.6518855142
 20
196.3074195046
 10
270.6316230493
 20
196.360302455
 10
270.6129671551
 20
196.4159690345
 10
270.5957082969
 20
196.474910621
 10
270.5800580417
 20
196.5366368537
 10
270.5673353465
 20
196.6000589202
 10
270.5575505435
 20
196.6653609691
 10
270.5506954398
 20
196.7323599204
 10
270.5480608011
 20
196.7994159159
 10
270.5497690531
 20
196.8668054184
 10
270.555699492
 20
196.934252823
 10
270.5667770763
 20
196.9992896121
 10
270.5833503077
 20
197.0619998395
 10
270.6050708762
 20
197.1222995436
 10
270.631816616
 20
197.1774672315
 10
270.6637805543
 20
197.2270969719
 10
270.7007675939
 20
197.2715936604
 10
270.7420716719
 20
197.3094511926
  0
LWPOLYLINE
  5
364
100
AcDbEntity
  8
0
100
AcDbPolyline
 62
7
  6
CONTINUOUS
 90
27
 70
0
 10
271.2558180236
 20
195.5913806938
 10
271.1872122009
 20
195.6300168463
 10
271.120514365
 20
195.675142041
 10
271.0557250133
 20
195.7267565277
 10
270.9923347751
 20
195.7854258571
 10
270.9308549992
 20
195.8505854721
 10
270.872817554
 20
195.9205406069
 10
270.8182841729
 20
195.9954372412
 10
270.7671964245
 20
196.0751310522
 10
270.7209056652
 20
196.1574916856
 10
270.6795396563
 20
196.242606238
 10
270.642974218
 20
196.3303894069
 10
270.6121818214
 20
196.4184517495
 10
270.5873286739
 20
196.5067341489
 10
270.5682512302
 20
196.5952970513
 10
270.5554257903
 20
196.6819295866
 10
270.5489893834
 20
196.7666296528
 10
270.5488060839
 20
196.8493998984
 10
270.5549408803
 20
196.9280356375
 10
270.5675779953
 20
197.0024647123
 10
270.5865323047
 20
197.0727588245
 10
270.6113127708
 20
197.1369280763
 10
270.642102839
 20
197.1947796083
 10
270.6787163077
 20
197.2465049
 10
270.7201059912
 20
197.2906897263
 10
270.766348212
 20
197.3271003467
 10
270.7864210846
 20
197.3396911768
  0
LWPOLYLINE
  5
365
100
AcDbEntity
  8
0
100
AcDbPolyline
 62
7
  6
CONTINUOUS
 90
25
 70
0
 10
271.3244081578
 20
197.2847891293
 10
271.3910663615
 20
197.2396462348
 10
271.4557931323
 20
197.1880030654
 10
271.5190983504
 20
197.1292946403
 10
271.5804741134
 20
197.0640869247
 10
271.6383945356
 20
196.9940767304
 10
271.6928005648
 20
196.9191195821
 10
271.7437545549
 20
196.8393616002
 10
271.7899124655
 20
196.7569353593
 10
271.8311499155
 20
196.6717555561
 10
271.867594868
 20
196.5839092818
 10
271.8982808258
 20
196.4957872197
 10
271.9230445151
 20
196.40744657
 10
271.9420518758
 20
196.3188314672
 10
271.954828687
 20
196.2321622256
 10
271.961237849
 20
196.1474447953
 10
271.9614175612
 20
196.0646737813
 10
271.95530467
 20
195.9860515409
 10
271.9427144931
 20
195.911649474
 10
271.9238308096
 20
195.8413957345
 10
271.8991411536
 20
195.777276807
 10
271.8684592679
 20
195.7194838105
 10
271.831968653
 20
195.6678242495
 10
271.7907098036
 20
195.6237083463
 10
271.7446024783
 20
195.5873675349
  0
LWPOLYLINE
  5
366
100
AcDbEntity
  8
0
100
AcDbPolyline
 62
250
  6
CONTINUOUS
 90
4
 70
0
 10
281.7803751969
 20
181.7897258647
 10
281.7867831783
 20
181.7737292458
 10
281.797303161
 20
181.7582862843
 10
281.8117558405
 20
181.7436600176
  0
LWPOLYLINE
  5
367
100
AcDbEntity
  8
0
100
AcDbPolyline
 62
250
  6
CONTINUOUS
 90
22
 70
0
 10
279.6672193741
 20
175.1073718775
 10
279.6717266302
 20
175.0450361032
 10
279.6796407992
 20
174.9862597917
 10
279.6909618811
 20
174.931042943
 10
279.7057431579
 20
174.879438694
 10
279.7239313475
 20
174.8313939077
 10
279.7453666044
 20
174.786749173
 10
279.7701723882
 20
174.7452055781
 10
279.7982252391
 20
174.7070620348
 10
279.828994932
 20
174.6730558679
 10
279.8627590338
 20
174.643298286
 10
279.8992399774
 20
174.6176780803
 10
279.9370748367
 20
174.5965989501
 10
279.9757924564
 20
174.5803472531
 10
280.0158639916
 20
174.5686366315
 10
280.0573399816
 20
174.5610117102
 10
280.0997699952
 20
174.5570649542
 10
280.1436044635
 20
174.5572038984
 10
280.1902452183
 20
174.562195773
 10
280.2401595368
 20
174.5722963214
 10
280.2928801419
 20
174.5872498001
 10
280.3484070334
 20
174.6070562093
  0
LWPOLYLINE
  5
368
100
AcDbEntity
  8
0
100
AcDbPolyline
 62
250
  6
CONTINUOUS
 90
13
 70
0
 10
278.9666359002
 20
175.0927720633
 10
278.9728625
 20
174.9997401344
 10
278.9847586618
 20
174.9115012134
 10
279.0020460624
 20
174.8283804609
 10
279.0242988338
 20
174.7510381794
 10
279.0512768195
 20
174.6792529322
 10
279.0831863597
 20
174.6121731994
 10
279.1201685966
 20
174.5497683001
 10
279.1618751793
 20
174.4928602868
 10
279.2079115865
 20
174.4419918743
 10
279.2582486413
 20
174.3972036616
 10
279.3124216736
 20
174.3589141512
 10
279.3590918051
 20
174.3326801022
  0
LWPOLYLINE
  5
369
100
AcDbEntity
  8
0
100
AcDbPolyline
 62
250
  6
CONTINUOUS
 90
5
 70
0
 10
279.4172152555
 20
185.2229013708
 10
279.4586516344
 20
182.8269633334
 10
279.5146809824
 20
180.3355516918
 10
279.5842035622
 20
177.7623545398
 10
279.6672193741
 20
175.1073718775
  0
LWPOLYLINE
  5
36A
100
AcDbEntity
  8
0
100
AcDbPolyline
 62
250
  6
CONTINUOUS
 90
6
 70
0
 10
278.6885665271
 20
187.5349672907
 10
278.7171492892
 20
185.2188666956
 10
278.7578629657
 20
182.8200890472
 10
278.8122768409
 20
180.3251864744
 10
278.8814319494
 20
177.7491474768
 10
278.9666359002
 20
175.0927720633
  0
LINE
  5
36B
100
AcDbEntity
  8
0
100
AcDbLine
 62
250
  6
CONTINUOUS
 10
279.3892721086
 20
187.5370538978
 11
279.4172152555
 21
185.2229013708
  0
LWPOLYLINE
  5
36C
100
AcDbEntity
  8
0
100
AcDbPolyline
 62
250
  6
CONTINUOUS
 90
3
 70
0
 10
279.3630746894
 20
192.0378063649
 10
279.3715229823
 20
189.810485196
 10
279.3892721086
 20
187.5370538978
  0
LWPOLYLINE
  5
36D
100
AcDbEntity
  8
0
100
AcDbPolyline
 62
250
  6
CONTINUOUS
 90
4
 70
0
 10
278.6643964608
 20
194.2291510253
 10
278.6627957452
 20
192.0404789101
 10
278.6706485939
 20
189.8106006741
 10
278.6885665271
 20
187.5349672907
  0
LWPOLYLINE
  5
36E
100
AcDbEntity
  8
0
100
AcDbPolyline
 62
250
  6
CONTINUOUS
 90
4
 70
0
 10
279.3959641466
 20
198.6447437199
 10
279.3761405156
 20
196.4275159997
 10
279.3648204171
 20
194.2244063051
 10
279.3630746894
 20
192.0378063649
  0
LINE
  5
36F
100
AcDbEntity
  8
0
100
AcDbLine
 62
250
  6
CONTINUOUS
 10
279.4253621483
 20
200.8784811947
 11
279.3959641466
 21
198.6447437199
  0
LWPOLYLINE
  5
370
100
AcDbEntity
  8
0
100
AcDbPolyline
 62
250
  6
CONTINUOUS
 90
5
 70
0
 10
278.7661468587
 20
203.2066469362
 10
278.7253415542
 20
200.8900250978
 10
278.6955279999
 20
198.6539120867
 10
278.6752706701
 20
196.4342551718
 10
278.6643964608
 20
194.2291510253
  0
LINE
  5
371
100
AcDbEntity
  8
0
100
AcDbLine
 62
250
  6
CONTINUOUS
 10
278.8194480196
 20
205.6255682174
 11
278.7661468587
 21
203.2066469362
  0
LINE
  5
372
100
AcDbEntity
  8
0
100
AcDbLine
 62
250
  6
CONTINUOUS
 10
278.8859272275
 20
208.1258887206
 11
278.8194480196
 21
205.6255682174
  0
LWPOLYLINE
  5
373
100
AcDbEntity
  8
0
100
AcDbPolyline
 62
250
  6
CONTINUOUS
 90
4
 70
0
 10
279.5882881425
 20
208.1081266105
 10
279.5215241463
 20
205.6101726399
 10
279.4669273855
 20
203.1931345936
 10
279.4253621483
 20
200.8784811947
  0
LINE
  5
374
100
AcDbEntity
  8
0
100
AcDbLine
 62
250
  6
CONTINUOUS
 10
279.6672193741
 20
210.6869965052
 11
279.5882881425
 21
208.1081266105
  0
LINE
  5
375
100
AcDbEntity
  8
0
100
AcDbLine
 62
250
  6
CONTINUOUS
 10
278.9666359002
 20
210.7080119309
 11
278.8859272275
 21
208.1258887206
  0
LWPOLYLINE
  5
376
100
AcDbEntity
  8
0
100
AcDbPolyline
 62
7
  6
CONTINUOUS
 90
12
 70
0
 10
279.8578156795
 20
216.1109177234
 10
279.8578478644
 20
216.1112247267
 10
279.8587643681
 20
216.1136847997
 10
279.8609864957
 20
216.1169262006
 10
279.8645471335
 20
216.120797382
 10
279.8691835357
 20
216.1253479905
 10
279.8748783481
 20
216.1304947718
 10
279.881629306
 20
216.136115399
 10
279.8892039049
 20
216.1422260862
 10
279.8975077335
 20
216.1487705712
 10
279.9065823498
 20
216.1556181849
 10
279.9163944544
 20
216.162681457
  0
LWPOLYLINE
  5
377
100
AcDbEntity
  8
0
100
AcDbPolyline
 62
250
  6
CONTINUOUS
 90
12
 70
0
 10
283.828698663
 20
215.8889390912
 10
283.818186897
 20
215.8655681702
 10
283.8055021418
 20
215.8438099002
 10
283.790859036
 20
215.8240324523
 10
283.7745053549
 20
215.8065704798
 10
283.7567178187
 20
215.7917194563
 10
283.7377974097
 20
215.7797306754
 10
283.7180642793
 20
215.7708069989
 10
283.6978523312
 20
215.7650994239
 10
283.6775035719
 20
215.7627045281
 10
283.6573623223
 20
215.7636628354
 10
283.6482642103
 20
215.7652266571
  0
LWPOLYLINE
  5
378
100
AcDbEntity
  8
0
100
AcDbPolyline
 62
7
  6
CONTINUOUS
 90
19
 70
0
 10
284.2498087743
 20
214.7251188287
 10
284.2597414972
 20
214.7435554253
 10
284.2707388908
 20
214.7610459793
 10
284.282822343
 20
214.7776601747
 10
284.2960701892
 20
214.7934845417
 10
284.3104061059
 20
214.8085927139
 10
284.3255680636
 20
214.8230155518
 10
284.3414087041
 20
214.8367871358
 10
284.3579149455
 20
214.8499798907
 10
284.3749778168
 20
214.8626528398
 10
284.3925253095
 20
214.8749077832
 10
284.4103818933
 20
214.8867401378
 10
284.4282622381
 20
214.8980229523
 10
284.4460627437
 20
214.9087561496
 10
284.4635724282
 20
214.9189644321
 10
284.4803633765
 20
214.9284900267
 10
284.4962234596
 20
214.9372314639
 10
284.5111283448
 20
214.945186934
 10
284.5249741272
 20
214.9523025157
  0
LWPOLYLINE
  5
379
100
AcDbEntity
  8
0
100
AcDbPolyline
 62
250
  6
CONTINUOUS
 90
7
 70
0
 10
282.9272195747
 20
209.5405771816
 10
282.944208065
 20
209.5504279144
 10
282.9584957979
 20
209.5612979814
 10
282.9698409335
 20
209.5730035016
 10
282.9780514096
 20
209.5853464533
 10
282.9829881829
 20
209.5981180057
 10
282.9845694132
 20
209.6105834834
  0
LINE
  5
37A
100
AcDbEntity
  8
0
100
AcDbLine
 62
7
  6
CONTINUOUS
 10
285.6800892523
 20
209.659565635
 11
285.9629319648
 21
209.809576897
  0
LINE
  5
37B
100
AcDbEntity
  8
RACCORDO
100
AcDbLine
 62
250
  6
CONTINUOUS
 10
308.4506017848
 20
222.7315082413
 11
293.9885939312
 21
215.243584476
  0
LINE
  5
37C
100
AcDbEntity
  8
0
100
AcDbLine
 62
250
  6
CONTINUOUS
 10
293.9591555827
 20
215.7450759881
 11
286.5993280678
 21
212.0332387654
  0
LWPOLYLINE
  5
37D
100
AcDbEntity
  8
0
100
AcDbPolyline
 62
250
  6
CONTINUOUS
 90
26
 70
0
 10
284.810734096
 20
211.3379121905
 10
284.8114276409
 20
211.3382037407
 10
284.8164261622
 20
211.3406621994
 10
284.8211316563
 20
211.3435860722
 10
284.8255607319
 20
211.3469323831
 10
284.8297181194
 20
211.350651909
 10
284.8336171423
 20
211.3547025319
 10
284.8372825643
 20
211.3590681905
 10
284.8407203266
 20
211.3637136419
 10
284.8439411888
 20
211.3686076336
 10
284.8469692037
 20
211.3737573283
 10
284.8498075366
 20
211.3791380324
 10
284.8524645191
 20
211.3847286953
 10
284.8549625307
 20
211.3905574814
 10
284.8573008469
 20
211.3966081127
 10
284.8594840132
 20
211.4028677425
 10
284.8615317738
 20
211.4093834364
 10
284.8634381635
 20
211.4161452519
 10
284.8652033529
 20
211.4231468927
 10
284.8668445927
 20
211.4304530593
 10
284.8683501774
 20
211.4380586515
 10
284.8697143643
 20
211.4459619693
 10
284.8709502324
 20
211.4542434817
 10
284.8720484527
 20
211.4629321377
 10
284.8729850388
 20
211.4719990165
 10
284.8737439336
 20
211.4814415566
  0
LINE
  5
37E
100
AcDbEntity
  8
0
100
AcDbLine
 62
250
  6
CONTINUOUS
 10
284.8744017582
 20
211.4947224833
 11
286.5471336324
 21
212.1837776297
  0
LINE
  5
37F
100
AcDbEntity
  8
0
100
AcDbLine
 62
7
  6
CONTINUOUS
 10
284.810733858
 20
211.3379120925
 11
286.4617279907
 21
212.0180127238
  0
LINE
  5
380
100
AcDbEntity
  8
0
100
AcDbLine
 62
250
  6
CONTINUOUS
 10
282.6689260962
 20
209.8968117791
 11
281.4408389415
 21
209.4047061088
  0
LINE
  5
381
100
AcDbEntity
  8
0
100
AcDbLine
 62
250
  6
CONTINUOUS
 10
282.7992505027
 20
209.6480120279
 11
281.4370308421
 21
209.1021582449
  0
LINE
  5
382
100
AcDbEntity
  8
0
100
AcDbLine
 62
7
  6
CONTINUOUS
 10
281.9595835888
 20
210.1448232391
 11
281.4408389415
 21
209.9450420467
  0
LINE
  5
383
100
AcDbEntity
  8
0
100
AcDbLine
 62
250
  6
CONTINUOUS
 10
282.0437878732
 20
210.1368948042
 11
281.4408389415
 21
209.9046844919
  0
LINE
  5
384
100
AcDbEntity
  8
0
100
AcDbLine
 62
250
  6
CONTINUOUS
 10
282.05339371
 20
210.1404093806
 11
282.0437878732
 21
210.1368948042
  0
LINE
  5
385
100
AcDbEntity
  8
0
100
AcDbLine
 62
250
  6
CONTINUOUS
 10
282.0633322193
 20
210.1436984963
 11
282.05339371
 21
210.1404093806
  0
LWPOLYLINE
  5
386
100
AcDbEntity
  8
RACCORDO
100
AcDbPolyline
 62
250
  6
CONTINUOUS
 90
32
 70
0
 10
308.558261075
 20
217.1852111194
 10
308.57835218
 20
217.1911578048
 10
308.5976719797
 20
217.1950089111
 10
308.6161975989
 20
217.1967914511
 10
308.6338925988
 20
217.1964075476
 10
308.6507313311
 20
217.1940246952
 10
308.6667085234
 20
217.1900653096
 10
308.6817482676
 20
217.1846041156
 10
308.6958619106
 20
217.1776366889
 10
308.7091844409
 20
217.1694569855
 10
308.7216995584
 20
217.1601620959
 10
308.7333553366
 20
217.1497327451
 10
308.7442354819
 20
217.1382879901
 10
308.7543391408
 20
217.1259039082
 10
308.7635879272
 20
217.1126009997
 10
308.7719461617
 20
217.0984207842
 10
308.7793946797
 20
217.0834407563
 10
308.7858628095
 20
217.0677009377
 10
308.7912329729
 20
217.0511944394
 10
308.795480485
 20
217.0340382232
 10
308.7985302265
 20
217.0162564632
 10
308.8001765205
 20
216.9977213563
 10
308.8004099715
 20
216.9785939446
 10
308.7991157229
 20
216.9589021623
 10
308.7958994919
 20
216.9383621453
 10
308.7907579636
 20
216.9171692723
 10
308.7835206075
 20
216.895410662
 10
308.7734958298
 20
216.8727091929
 10
308.760689086
 20
216.8493422803
 10
308.7448617775
 20
216.8254433312
 10
308.7249004538
 20
216.8005067494
 10
308.7031959645
 20
216.7774670187
  0
LINE
  5
387
100
AcDbEntity
  8
0
100
AcDbLine
 62
7
  6
CONTINUOUS
 10
283.3926623629
 20
190.9586710178
 11
283.9476776384
 21
190.6811633801
  0
LINE
  5
388
100
AcDbEntity
  8
0
100
AcDbLine
 62
7
  6
CONTINUOUS
 10
284.5302327556
 20
190.7358809473
 11
284.4072970462
 21
190.797348802
  0
LINE
  5
389
100
AcDbEntity
  8
0
100
AcDbLine
 62
7
  6
CONTINUOUS
 10
283.9476776384
 20
191.4867226653
 11
283.3926623629
 21
191.764230303
  0
LINE
  5
38A
100
AcDbEntity
  8
0
100
AcDbLine
 62
7
  6
CONTINUOUS
 10
284.5302327556
 20
191.5565567621
 11
284.4072970462
 21
191.6180246168
  0
LWPOLYLINE
  5
38B
100
AcDbEntity
  8
0
100
AcDbPolyline
 62
7
  6
CONTINUOUS
 90
42
 70
0
 10
271.2558180236
 20
197.3234315014
 10
271.2874355476
 20
197.306775136
 10
271.3189581209
 20
197.2884159123
 10
271.3503857693
 20
197.2683538429
 10
271.3818162707
 20
197.2465230248
 10
271.4131519507
 20
197.2229894126
 10
271.4440996801
 20
197.1979508176
 10
271.4746540509
 20
197.1713773549
 10
271.5048206722
 20
197.1432990096
 10
271.5343229522
 20
197.1140034029
 10
271.5630881421
 20
197.0835562438
 10
271.5911892565
 20
197.0518919558
 10
271.6185683524
 20
197.0191012338
 10
271.6451343845
 20
196.9853648691
 10
271.6709787201
 20
196.9505022309
 10
271.6963170901
 20
196.9140619081
 10
271.7212402261
 20
196.8760464037
 10
271.7456579018
 20
196.8364534667
 10
271.7695145584
 20
196.7948246283
 10
271.7929119187
 20
196.7511288165
 10
271.8157490648
 20
196.7053975048
 10
271.837666703
 20
196.6572661556
 10
271.858774911
 20
196.6067409847
 10
271.8789648489
 20
196.5538163941
 10
271.8975491983
 20
196.4981103011
 10
271.9147386817
 20
196.4391325527
 10
271.9303246088
 20
196.3773743171
 10
271.9429906958
 20
196.3139255709
 10
271.9527284778
 20
196.2486026822
 10
271.9595485588
 20
196.1815903535
 10
271.9621628549
 20
196.1145308607
 10
271.9604505167
 20
196.0471493032
 10
271.9545341138
 20
195.9797214449
 10
271.9434895775
 20
195.9147150033
 10
271.9269683099
 20
195.8520456166
 10
271.9053190996
 20
195.7917977458
 10
271.8786620515
 20
195.7366913878
 10
271.8468023906
 20
195.687132502
 10
271.8099328194
 20
195.6427140937
 10
271.7687529495
 20
195.6049358709
 10
271.7230798896
 20
195.5740053566
 10
271.6801298881
 20
195.5526080244
  0
LINE
  5
38C
100
AcDbEntity
  8
0
100
AcDbLine
 62
7
  6
CONTINUOUS
 10
271.2558180236
 20
197.3234315014
 11
271.3244081578
 21
197.2847891293
  0
LWPOLYLINE
  5
38D
100
AcDbEntity
  8
0
100
AcDbPolyline
 62
250
  6
CONTINUOUS
 90
6
 70
0
 10
286.0160288619
 20
175.886940863
 10
286.008006403
 20
175.9097423339
 10
285.9975634027
 20
175.9307773828
 10
285.9848765666
 20
175.9496900762
 10
285.9701605682
 20
175.9661603932
 10
285.9536644163
 20
175.97990964
  0
LWPOLYLINE
  5
38E
100
AcDbEntity
  8
0
100
AcDbPolyline
 62
250
  6
CONTINUOUS
 90
19
 70
0
 10
282.680910101
 20
181.6731964417
 10
282.6843059934
 20
181.6558841412
 10
282.6875084045
 20
181.6386280232
 10
282.6905173345
 20
181.6214280876
 10
282.6933326435
 20
181.604283144
 10
282.6959544714
 20
181.5871943828
 10
282.6983832372
 20
181.5701653754
 10
282.7006193401
 20
181.5531934342
 10
282.702662381
 20
181.5362812467
 10
282.704511582
 20
181.5194404473
 10
282.7061666806
 20
181.5026738917
 10
282.7076279393
 20
181.4859787242
 10
282.7088953674
 20
181.4693580109
 10
282.7099692045
 20
181.4528210409
 10
282.7108492109
 20
181.4363585251
 10
282.7115346767
 20
181.4199456629
 10
282.7120253653
 20
181.4035741875
 10
282.7123215132
 20
181.3872523657
 10
282.7124231205
 20
181.3709801975
  0
LINE
  5
38F
100
AcDbEntity
  8
0
100
AcDbLine
 62
250
  6
CONTINUOUS
 10
281.7781884809
 20
181.8060036531
 11
281.7803751969
 21
181.7897258647
  0
LWPOLYLINE
  5
390
100
AcDbEntity
  8
0
100
AcDbPolyline
 62
250
  6
CONTINUOUS
 90
7
 70
0
 10
281.7781880921
 20
181.6943872896
 10
281.7803745996
 20
181.6778912832
 10
281.7867820864
 20
181.6618944427
 10
281.7973017855
 20
181.6464510992
 10
281.8117544999
 20
181.6318243211
 10
281.8298940358
 20
181.6182632671
 10
281.8514113968
 20
181.605998942
  0
LWPOLYLINE
  5
391
100
AcDbEntity
  8
0
100
AcDbPolyline
 62
250
  6
CONTINUOUS
 90
16
 70
0
 10
280.3484070334
 20
211.8451274495
 10
280.344540478
 20
211.8903351875
 10
280.3369153575
 20
211.9370163059
 10
280.3256150805
 20
211.9846599779
 10
280.3107632727
 20
212.0327448407
 10
280.2925224306
 20
212.0807446852
 10
280.2710921476
 20
212.1281342154
 10
280.2467069162
 20
212.1743948256
 10
280.2196335734
 20
212.2190202486
 10
280.1901683938
 20
212.2615220853
 10
280.1586338146
 20
212.301435201
 10
280.125374928
 20
212.3383227801
 10
280.0907557262
 20
212.3717810907
 10
280.055155076
 20
212.4014439527
 10
280.0189625689
 20
212.4269867366
 10
279.9825742852
 20
212.4481298907
  0
LWPOLYLINE
  5
392
100
AcDbEntity
  8
0
100
AcDbPolyline
 62
7
  6
CONTINUOUS
 90
9
 70
0
 10
282.8798610778
 20
176.2876490093
 10
282.8799168412
 20
176.2869798386
 10
282.8814940867
 20
176.2834763833
 10
282.8853046772
 20
176.2791830111
 10
282.8914014
 20
176.2742391472
 10
282.8997971732
 20
176.2684844344
 10
282.9104722421
 20
176.2619575862
 10
282.9233811596
 20
176.2548959633
 10
282.9384397213
 20
176.247440321
  0
LWPOLYLINE
  5
393
100
AcDbEntity
  8
0
100
AcDbPolyline
 62
250
  6
CONTINUOUS
 90
5
 70
0
 10
281.4127336259
 20
175.2875125126
 10
281.4147028333
 20
175.2531194742
 10
281.4131902173
 20
175.2206314869
 10
281.4082843587
 20
175.1902534113
 10
281.4000537019
 20
175.1620266465
  0
LWPOLYLINE
  5
394
100
AcDbEntity
  8
0
100
AcDbPolyline
 62
250
  6
CONTINUOUS
 90
8
 70
0
 10
282.2570254487
 20
179.1996998696
 10
282.2585042845
 20
179.1724930735
 10
282.2629161067
 20
179.1472200811
 10
282.2701871824
 20
179.1243038077
 10
282.2801959411
 20
179.1041277458
 10
282.2927749881
 20
179.0870295812
 10
282.3077138887
 20
179.0732955214
 10
282.3219987431
 20
179.0644814205
  0
LWPOLYLINE
  5
395
100
AcDbEntity
  8
0
100
AcDbPolyline
 62
7
  6
CONTINUOUS
 90
13
 70
0
 10
281.0838951746
 20
218.65510607
 10
281.0823906535
 20
218.6841218649
 10
281.0778791159
 20
218.7141483706
 10
281.0704429792
 20
218.7446748875
 10
281.0602153139
 20
218.7751827215
 10
281.0473721456
 20
218.8051503995
 10
281.0321296304
 20
218.8340626333
 10
281.0147453551
 20
218.8614232891
 10
280.9955198228
 20
218.8867659381
 10
280.9747862007
 20
218.9096584255
 10
280.952898175
 20
218.9297086075
 10
280.930223795
 20
218.9465708736
 10
280.9071454032
 20
218.9599543316
  0
LWPOLYLINE
  5
396
100
AcDbEntity
  8
0
100
AcDbPolyline
 62
250
  6
CONTINUOUS
 90
13
 70
0
 10
280.8834321567
 20
224.0258170918
 10
280.8823225066
 20
224.0550300618
 10
280.8782071438
 20
224.0852555384
 10
280.8711564834
 20
224.1159763554
 10
280.8612911639
 20
224.146666871
 10
280.848779984
 20
224.176801962
 10
280.8338370142
 20
224.2058660091
 10
280.8167179332
 20
224.2333617186
 10
280.797715653
 20
224.2588186311
 10
280.7771553078
 20
224.2818011719
 10
280.7553886908
 20
224.3019161035
 10
280.7327882349
 20
224.3188192537
 10
280.7097406402
 20
224.3322214048
  0
LWPOLYLINE
  5
397
100
AcDbEntity
  8
0
100
AcDbPolyline
 62
7
  6
CONTINUOUS
 90
10
 70
0
 10
282.1850973178
 20
175.102587577
 10
282.1856584702
 20
175.0859425073
 10
282.1895752124
 20
175.0557536717
 10
282.197219742
 20
175.0264933515
 10
282.2084813993
 20
174.9986916572
 10
282.223017455
 20
174.9730376537
 10
282.2405675008
 20
174.9497832425
 10
282.2609818209
 20
174.9290685461
 10
282.2838229963
 20
174.9113249792
 10
282.3083372746
 20
174.896987146
  0
LWPOLYLINE
  5
398
100
AcDbEntity
  8
0
100
AcDbPolyline
 62
7
  6
CONTINUOUS
 90
8
 70
0
 10
281.4408083597
 20
205.9007354907
 10
281.4407824451
 20
205.9017221148
 10
281.4405114712
 20
205.9077996899
 10
281.4399444423
 20
205.9150172181
 10
281.439070299
 20
205.9232384358
 10
281.4382716925
 20
205.9325932685
 10
281.4376975811
 20
205.9430599117
 10
281.4372696302
 20
205.954459216
  0
LWPOLYLINE
  5
399
100
AcDbEntity
  8
0
100
AcDbPolyline
 62
7
  6
CONTINUOUS
 90
13
 70
0
 10
281.4408389413
 20
212.4858076866
 10
281.440329501
 20
212.5089469657
 10
281.4354696331
 20
212.5613239454
 10
281.425337531
 20
212.6143981506
 10
281.4098630827
 20
212.6674247855
 10
281.3895221535
 20
212.7186333571
 10
281.3644497293
 20
212.7678139136
 10
281.3347128244
 20
212.8146513636
 10
281.3013924478
 20
212.8574983392
 10
281.2649064151
 20
212.8961060193
 10
281.2253259303
 20
212.9304897266
 10
281.1837588685
 20
212.9598236085
 10
281.1421808166
 20
212.983300851
  0
LWPOLYLINE
  5
39A
100
AcDbEntity
  8
0
100
AcDbPolyline
 62
250
  6
CONTINUOUS
 90
17
 70
0
 10
282.2436755349
 20
175.0320493731
 10
282.2438826868
 20
175.0216616148
 10
282.2445261062
 20
175.011229082
 10
282.2456395374
 20
175.0007985533
 10
282.2472604726
 20
174.9903977216
 10
282.249419122
 20
174.9801065567
 10
282.2521269814
 20
174.9700485744
 10
282.2554034076
 20
174.9602775241
 10
282.2592656347
 20
174.9508499237
 10
282.2636988213
 20
174.9418787774
 10
282.2687048336
 20
174.9334131748
 10
282.2742838053
 20
174.9255008875
 10
282.2803951901
 20
174.9182311206
 10
282.2870186656
 20
174.9116441746
 10
282.2941425451
 20
174.9057667384
 10
282.3017220448
 20
174.9006457051
 10
282.3083305042
 20
174.8969901494
  0
LINE
  5
39B
100
AcDbEntity
  8
0
100
AcDbLine
 62
7
  6
CONTINUOUS
 10
281.4372696302
 20
205.954459216
 11
281.4370308421
 21
205.9666968747
  0
LWPOLYLINE
  5
39C
100
AcDbEntity
  8
0
100
AcDbPolyline
 62
7
  6
CONTINUOUS
 90
9
 70
0
 10
282.1992399181
 20
189.1886992114
 10
282.199413874
 20
189.1790788011
 10
282.2008645263
 20
189.1570727255
 10
282.2038927046
 20
189.1343224981
 10
282.2085630559
 20
189.110920641
 10
282.2147530851
 20
189.0869590168
 10
282.2224912484
 20
189.0625610633
 10
282.2319342686
 20
189.0378810642
 10
282.243165705
 20
189.013077637
  0
LWPOLYLINE
  5
39D
100
AcDbEntity
  8
0
100
AcDbPolyline
 62
7
  6
CONTINUOUS
 90
9
 70
0
 10
282.1259311808
 20
181.8641384096
 10
282.1260883123
 20
181.8550221766
 10
282.1275094361
 20
181.8329634928
 10
282.1305177989
 20
181.8101541222
 10
282.1351787794
 20
181.7866868001
 10
282.1413695026
 20
181.7626520935
 10
282.1491193102
 20
181.7381738752
 10
282.1585865251
 20
181.7134086239
 10
282.1698558454
 20
181.6885166346
  0
LWPOLYLINE
  5
39E
100
AcDbEntity
  8
0
100
AcDbPolyline
 62
7
  6
CONTINUOUS
 90
13
 70
0
 10
281.7782019077
 20
181.6944446993
 10
281.7783172816
 20
181.6845729884
 10
281.7817321831
 20
181.6399557751
 10
281.7899291827
 20
181.5948064932
 10
281.8028600977
 20
181.5497252943
 10
281.8200129372
 20
181.5063210363
 10
281.8412964184
 20
181.4645245142
 10
281.8667634276
 20
181.4245382311
 10
281.8953401087
 20
181.3880509766
 10
281.9268277136
 20
181.355194797
 10
281.9613653538
 20
181.3259458833
 10
281.9977433039
 20
181.301384949
 10
282.0223214846
 20
181.2879259395
  0
LINE
  5
39F
100
AcDbEntity
  8
0
100
AcDbLine
 62
7
  6
CONTINUOUS
 10
279.8578158106
 20
216.110917648
 11
279.8578158106
 21
214.7196817874
  0
LINE
  5
3A0
100
AcDbEntity
  8
0
100
AcDbLine
 62
250
  6
CONTINUOUS
 10
279.9163944544
 20
216.162681457
 11
279.9163944544
 21
214.6480856035
  0
LINE
  5
3A1
100
AcDbEntity
  8
0
100
AcDbLine
 62
250
  6
CONTINUOUS
 10
280.1558748359
 20
218.4006061059
 11
280.155984229
 21
217.370606104
  0
LINE
  5
3A2
100
AcDbEntity
  8
0
100
AcDbLine
 62
250
  6
CONTINUOUS
 10
280.2714969075
 20
214.470534377
 11
280.2714969075
 21
215.9851302304
  0
LINE
  5
3A3
100
AcDbEntity
  8
0
100
AcDbLine
 62
250
  6
CONTINUOUS
 10
280.5518499378
 20
214.472281617
 11
280.5518499378
 21
215.7627682738
  0
LINE
  5
3A4
100
AcDbEntity
  8
0
100
AcDbLine
 62
250
  6
CONTINUOUS
 10
280.5765137745
 20
218.399459092
 11
280.5765137745
 21
217.3821494607
  0
LINE
  5
3A5
100
AcDbEntity
  8
0
100
AcDbLine
 62
250
  6
CONTINUOUS
 10
280.8834321567
 20
223.0299208575
 11
280.8834321567
 21
224.0258170918
  0
LINE
  5
3A6
100
AcDbEntity
  8
0
100
AcDbLine
 62
7
  6
CONTINUOUS
 10
280.9957559794
 20
223.1614085003
 11
280.9957559794
 21
224.1599774687
  0
LINE
  5
3A7
100
AcDbEntity
  8
0
100
AcDbLine
 62
7
  6
CONTINUOUS
 10
281.0838951746
 20
217.6591438807
 11
281.0838951746
 21
218.65510607
  0
LINE
  5
3A8
100
AcDbEntity
  8
0
100
AcDbLine
 62
7
  6
CONTINUOUS
 10
281.3119922843
 20
175.0115301582
 11
281.3119922843
 21
212.371176961
  0
LINE
  5
3A9
100
AcDbEntity
  8
0
100
AcDbLine
 62
250
  6
CONTINUOUS
 10
281.4127312776
 20
212.4224093471
 11
281.4127312776
 21
175.2875083487
  0
LINE
  5
3AA
100
AcDbEntity
  8
0
100
AcDbLine
 62
7
  6
CONTINUOUS
 10
281.4370308421
 20
209.1021582449
 11
281.4370308421
 21
205.9666968747
  0
LINE
  5
3AB
100
AcDbEntity
  8
0
100
AcDbLine
 62
7
  6
CONTINUOUS
 10
281.4408389415
 20
212.4858020864
 11
281.4408389415
 21
209.2157436444
  0
LINE
  5
3AC
100
AcDbEntity
  8
0
100
AcDbLine
 62
7
  6
CONTINUOUS
 10
281.4408389415
 20
205.9007597492
 11
281.4408389415
 21
175.350901088
  0
LINE
  5
3AD
100
AcDbEntity
  8
0
100
AcDbLine
 62
7
  6
CONTINUOUS
 10
281.7781880921
 20
181.6943872896
 11
281.7781880921
 21
181.8062241129
  0
LINE
  5
3AE
100
AcDbEntity
  8
0
100
AcDbLine
 62
250
  6
CONTINUOUS
 10
281.8514113968
 20
181.605998942
 11
281.8514113968
 21
181.7178358398
  0
LINE
  5
3AF
100
AcDbEntity
  8
0
100
AcDbLine
 62
7
  6
CONTINUOUS
 10
281.932423312
 20
182.2940611086
 11
281.932423312
 21
182.0979703521
  0
LWPOLYLINE
  5
3B0
100
AcDbEntity
  8
0
100
AcDbPolyline
 62
7
  6
CONTINUOUS
 90
4
 70
0
 10
281.4370308421
 20
209.1021582449
 10
281.4372700179
 20
209.1154196191
 10
281.4376981652
 20
209.1296414174
 10
281.4382723391
 20
209.1447603464
  0
LWPOLYLINE
  5
3B1
100
AcDbEntity
  8
0
100
AcDbPolyline
 62
250
  6
CONTINUOUS
 90
5
 70
0
 10
281.4408389415
 20
212.4858020864
 10
281.4407120265
 20
212.4814393786
 10
281.4367724932
 20
212.4611884066
 10
281.4273880214
 20
212.4413903064
 10
281.4127312776
 20
212.4224093471
  0
LWPOLYLINE
  5
3B2
100
AcDbEntity
  8
0
100
AcDbPolyline
 62
250
  6
CONTINUOUS
 90
13
 70
0
 10
282.2570254487
 20
212.4705642659
 10
282.2585044234
 20
212.4992512712
 10
282.2629166005
 20
212.5289372405
 10
282.2701881522
 20
212.5591254477
 10
282.280197406
 20
212.589310763
 10
282.2927768801
 20
212.6189881048
 10
282.3077160862
 20
212.6476608914
 10
282.3247650512
 20
212.67484935
 10
282.3436385
 20
212.7000985445
 10
282.3640206291
 20
212.7229859881
 10
282.3855703907
 20
212.7431287122
 10
282.4079271992
 20
212.7601896748
 10
282.4307169652
 20
212.7738834002
  0
LWPOLYLINE
  5
3B3
100
AcDbEntity
  8
0
100
AcDbPolyline
 62
7
  6
CONTINUOUS
 90
5
 70
0
 10
281.4382723391
 20
209.1447603464
 10
281.439945484
 20
209.1774531414
 10
281.4405121882
 20
209.1947149395
 10
281.4407824274
 20
209.2124403484
 10
281.4408080577
 20
209.2157498349
  0
LWPOLYLINE
  5
3B4
100
AcDbEntity
  8
0
100
AcDbPolyline
 62
250
  6
CONTINUOUS
 90
9
 70
0
 10
280.9957559794
 20
224.1599771742
 10
280.9951455842
 20
224.149246105
 10
280.9908229794
 20
224.1295669264
 10
280.9823985623
 20
224.1102329804
 10
280.9699635852
 20
224.0914552741
 10
280.9536528663
 20
224.0734333822
 10
280.9336432206
 20
224.0563627019
 10
280.9101514615
 20
224.0404323278
 10
280.8834321567
 20
224.0258170918
  0
LINE
  5
3B5
100
AcDbEntity
  8
0
100
AcDbLine
 62
250
  6
CONTINUOUS
 10
281.4138470377
 20
212.4379157185
 11
281.4127312776
 21
212.4224093471
  0
LWPOLYLINE
  5
3B6
100
AcDbEntity
  8
0
100
AcDbPolyline
 62
7
  6
CONTINUOUS
 90
4
 70
0
 10
283.6365809261
 20
207.3973778077
 10
283.6545060008
 20
207.4503917615
 10
283.6637717657
 20
207.4775509164
 10
283.6824424736
 20
207.5328911774
  0
LWPOLYLINE
  5
3B7
100
AcDbEntity
  8
0
100
AcDbPolyline
 62
7
  6
CONTINUOUS
 90
5
 70
0
 10
283.6824424736
 20
207.5328911774
 10
283.6920069263
 20
207.5605942815
 10
283.7016354091
 20
207.5881283792
 10
283.7109599547
 20
207.6156709277
 10
283.7196830065
 20
207.643359619
  0
LWPOLYLINE
  5
3B8
100
AcDbEntity
  8
0
100
AcDbPolyline
 62
7
  6
CONTINUOUS
 90
8
 70
0
 10
284.4716541119
 20
213.8040064637
 10
284.4725986997
 20
213.8066568279
 10
284.4752109629
 20
213.8104155174
 10
284.4793708442
 20
213.8149066864
 10
284.4849646642
 20
213.8201478429
 10
284.4918488833
 20
213.8262312819
 10
284.4999320318
 20
213.8328361832
 10
284.5091118568
 20
213.8398802227
  0
LWPOLYLINE
  5
3B9
100
AcDbEntity
  8
0
100
AcDbPolyline
 62
250
  6
CONTINUOUS
 90
40
 70
0
 10
284.7274312326
 20
207.0697064243
 10
284.7199961744
 20
207.0613030316
 10
284.7128062579
 20
207.052503326
 10
284.7058828484
 20
207.0433807591
 10
284.6992567072
 20
207.034019203
 10
284.692925722
 20
207.0244730855
 10
284.6868573149
 20
207.0147593664
 10
284.6810524352
 20
207.0049252111
 10
284.6755214364
 20
206.9950255817
 10
284.6702448529
 20
206.9850740774
 10
284.6652230805
 20
206.9751126784
 10
284.6604552285
 20
206.9651784695
 10
284.6559203181
 20
206.9552672982
 10
284.651621964
 20
206.9454258332
 10
284.6475493348
 20
206.9356672229
 10
284.6436642253
 20
206.9259257877
 10
284.6399696759
 20
206.9162295669
 10
284.6364583799
 20
206.9065900773
 10
284.6330862329
 20
206.8969048807
 10
284.6298522994
 20
206.8871690574
 10
284.626763154
 20
206.8774120934
 10
284.6237956509
 20
206.8675753659
 10
284.6209520409
 20
206.8576520737
 10
284.6182420923
 20
206.847668962
 10
284.6156591166
 20
206.8376151552
 10
284.613210502
 20
206.8275008881
 10
284.6109021912
 20
206.8173365356
 10
284.6087281861
 20
206.8071110265
 10
284.6067015416
 20
206.7968545716
 10
284.6048241544
 20
206.7865591575
 10
284.6030806003
 20
206.7761565178
 10
284.6014920321
 20
206.7656810318
 10
284.6000636208
 20
206.755124191
 10
284.598773706
 20
206.7443561028
 10
284.5976529038
 20
206.7333831128
 10
284.596724428
 20
206.7222378619
 10
284.5959789735
 20
206.7108377885
 10
284.5954451478
 20
206.6991782796
 10
284.5951773976
 20
206.6873298133
 10
284.5952175525
 20
206.675331799
  0
LINE
  5
3BA
100
AcDbEntity
  8
0
100
AcDbLine
 62
7
  6
CONTINUOUS
 10
284.5091118568
 20
206.4786642906
 11
284.5302327556
 21
206.4945463742
  0
LWPOLYLINE
  5
3BB
100
AcDbEntity
  8
0
100
AcDbPolyline
 62
250
  6
CONTINUOUS
 90
19
 70
0
 10
282.7992505027
 20
206.8070478892
 10
282.8131085611
 20
206.8166548842
 10
282.8262726799
 20
206.8272044927
 10
282.838742859
 20
206.8386967147
 10
282.8506168767
 20
206.8513862149
 10
282.8617969546
 20
206.8650183286
 10
282.8719897581
 20
206.8788290619
 10
282.8810639055
 20
206.8926844299
 10
282.8891507784
 20
206.9067184174
 10
282.8963511873
 20
206.9205689849
 10
282.9026248664
 20
206.9340406755
 10
282.9080120816
 20
206.9473289461
 10
282.9127344408
 20
206.9606581268
 10
282.9168780454
 20
206.9740006231
 10
282.9203567941
 20
206.9873840295
 10
282.923133991
 20
207.0011154599
 10
282.925197404
 20
207.0152972856
 10
282.9265592653
 20
207.0298271354
 10
282.9272195747
 20
207.0447050092
  0
LINE
  5
3BC
100
AcDbEntity
  8
0
100
AcDbLine
 62
7
  6
CONTINUOUS
 10
270.7420716719
 20
197.3094511926
 11
270.7864510872
 21
197.3396343959
  0
LWPOLYLINE
  5
3BD
100
AcDbEntity
  8
0
100
AcDbPolyline
 62
7
  6
CONTINUOUS
 90
14
 70
0
 10
282.7615413312
 20
206.7068819757
 10
282.7767217639
 20
206.7167450584
 10
282.8052204083
 20
206.7381106233
 10
282.8324208057
 20
206.7623567302
 10
282.8580428825
 20
206.7892547068
 10
282.8820433108
 20
206.818784676
 10
282.904237374
 20
206.8508356223
 10
282.9241960627
 20
206.8848986377
 10
282.9417953171
 20
206.9209060407
 10
282.9568068139
 20
206.9587070735
 10
282.9688137974
 20
206.9976109907
 10
282.9776046641
 20
207.0373642302
 10
282.9829663965
 20
207.0780352239
 10
282.9845694695
 20
207.1148350795
  0
LINE
  5
3BE
100
AcDbEntity
  8
0
100
AcDbLine
 62
250
  6
CONTINUOUS
 10
281.4370308421
 20
205.9666968747
 11
282.7992505027
 21
206.8070478892
  0
LINE
  5
3BF
100
AcDbEntity
  8
0
100
AcDbLine
 62
7
  6
CONTINUOUS
 10
281.4446893656
 20
205.8945181629
 11
282.7616066853
 21
206.7069222396
  0
LWPOLYLINE
  5
3C0
100
AcDbEntity
  8
0
100
AcDbPolyline
 62
250
  6
CONTINUOUS
 90
7
 70
0
 10
282.9272195747
 20
207.0447050092
 10
282.9442090142
 20
207.0545563708
 10
282.9584971998
 20
207.0654270436
 10
282.9698423616
 20
207.0771330854
 10
282.9780525288
 20
207.0894764188
 10
282.9829887772
 20
207.1022481827
 10
282.9845694849
 20
207.1147959356
  0
LINE
  5
3C1
100
AcDbEntity
  8
0
100
AcDbLine
 62
7
  6
CONTINUOUS
 10
285.6800892523
 20
208.374544995
 11
285.5740232351
 21
208.3137103078
  0
LINE
  5
3C2
100
AcDbEntity
  8
0
100
AcDbLine
 62
250
  6
CONTINUOUS
 10
282.9845694849
 20
207.2329959193
 11
283.7196819973
 21
207.643358409
  0
LINE
  5
3C3
100
AcDbEntity
  8
0
100
AcDbLine
 62
250
  6
CONTINUOUS
 10
283.6365809261
 20
207.3973778077
 11
282.9755376364
 21
207.0288474168
  0
LINE
  5
3C4
100
AcDbEntity
  8
0
100
AcDbLine
 62
250
  6
CONTINUOUS
 10
282.9845694849
 20
207.6336344437
 11
285.1851145055
 21
208.8548918021
  0
LINE
  5
3C5
100
AcDbEntity
  8
0
100
AcDbLine
 62
250
  6
CONTINUOUS
 10
283.8874290471
 20
207.489707517
 11
285.4678388057
 21
208.3668025225
  0
LINE
  5
3C6
100
AcDbEntity
  8
0
100
AcDbLine
 62
7
  6
CONTINUOUS
 10
285.4761588485
 20
208.3626425011
 11
285.6800892523
 21
208.4739741028
  0
LINE
  5
3C7
100
AcDbEntity
  8
0
100
AcDbLine
 62
7
  6
CONTINUOUS
 10
282.4533175079
 20
205.9239117258
 11
281.4408389415
 21
205.3711699162
  0
LINE
  5
3C8
100
AcDbEntity
  8
0
100
AcDbLine
 62
7
  6
CONTINUOUS
 10
282.3213320417
 20
205.7813131371
 11
281.4408389415
 21
205.300626073
  0
LINE
  5
3C9
100
AcDbEntity
  8
0
100
AcDbLine
 62
250
  6
CONTINUOUS
 10
286.3352196004
 20
207.9331121252
 11
284.7274560954
 21
207.0696939929
  0
LINE
  5
3CA
100
AcDbEntity
  8
0
100
AcDbLine
 62
250
  6
CONTINUOUS
 10
286.5471336324
 20
207.5673473658
 11
284.8744017582
 21
206.669039234
  0
LINE
  5
3CB
100
AcDbEntity
  8
0
100
AcDbLine
 62
7
  6
CONTINUOUS
 10
282.1694862521
 20
205.6827815589
 11
282.4533175079
 21
205.8317804189
  0
LINE
  5
3CC
100
AcDbEntity
  8
0
100
AcDbLine
 62
250
  6
CONTINUOUS
 10
283.6995277284
 20
206.7857382302
 11
283.0849616989
 21
206.4864395988
  0
LINE
  5
3CD
100
AcDbEntity
  8
0
100
AcDbLine
 62
250
  6
CONTINUOUS
 10
283.7523870509
 20
206.354363443
 11
283.1377160506
 21
206.055509237
  0
LWPOLYLINE
  5
3CE
100
AcDbEntity
  8
0
100
AcDbPolyline
 62
250
  6
CONTINUOUS
 90
13
 70
0
 10
283.084961628
 20
206.4864398991
 10
283.0603882365
 20
206.4752208024
 10
283.0334672688
 20
206.4644922212
 10
283.004649185
 20
206.4544336736
 10
282.9744161893
 20
206.4452134661
 10
282.943274161
 20
206.4369858776
 10
282.9117441899
 20
206.4298885777
 10
282.8803538572
 20
206.4240403235
 10
282.8496284076
 20
206.4195389718
 10
282.8200819605
 20
206.4164598425
 10
282.7922089075
 20
206.4148544577
 10
282.7664756397
 20
206.4147496797
 10
282.7433127438
 20
206.4161472618
  0
LWPOLYLINE
  5
3CF
100
AcDbEntity
  8
0
100
AcDbPolyline
 62
250
  6
CONTINUOUS
 90
13
 70
0
 10
283.1377160506
 20
206.0555093107
 10
283.1130492879
 20
206.0450529262
 10
283.0858893908
 20
206.0362760664
 10
283.0566908174
 20
206.0293255916
 10
283.0259421384
 20
206.0243178021
 10
282.9941578618
 20
206.0213364916
 10
282.9618698242
 20
206.0204315454
 10
282.9296182911
 20
206.0216181057
 10
282.8979429175
 20
206.0248763182
 10
282.8673737176
 20
206.0301516643
 10
282.8384221963
 20
206.0373558731
 10
282.8115727904
 20
206.046368399
 10
282.7872747627
 20
206.0570384381
  0
LWPOLYLINE
  5
3D0
100
AcDbEntity
  8
0
100
AcDbPolyline
 62
250
  6
CONTINUOUS
 90
13
 70
0
 10
284.873744044
 20
206.6822315725
 10
284.8539771213
 20
206.6739282645
 10
284.8322753844
 20
206.6668140923
 10
284.8089966902
 20
206.6610063592
 10
284.7845248929
 20
206.6566008246
 10
284.7592635232
 20
206.6536701277
 10
284.7336291343
 20
206.6522625881
 10
284.7080444209
 20
206.6524014058
 10
284.6829312502
 20
206.6540842841
 10
284.6587037151
 20
206.6572834671
 10
284.6357612994
 20
206.6619461943
 10
284.6144822919
 20
206.6679955719
 10
284.5952175507
 20
206.6753318437
  0
LWPOLYLINE
  5
3D1
100
AcDbEntity
  8
0
100
AcDbPolyline
 62
250
  6
CONTINUOUS
 90
13
 70
0
 10
284.8744017582
 20
206.6690392409
 10
284.8546406081
 20
206.6608033858
 10
284.8329285847
 20
206.6539039658
 10
284.8096249237
 20
206.6484551349
 10
284.7851151945
 20
206.6445470459
 10
284.7598049231
 20
206.6422443605
 10
284.7341128824
 20
206.6415851785
 10
284.7084641598
 20
206.6425804061
 10
284.6832831251
 20
206.6452135761
 10
284.658986412
 20
206.6494411208
 10
284.6359760208
 20
206.6551930928
 10
284.6146326675
 20
206.6623743226
 10
284.5953094868
 20
206.6708659929
  0
LWPOLYLINE
  5
3D2
100
AcDbEntity
  8
0
100
AcDbPolyline
 62
7
  6
CONTINUOUS
 90
4
 70
0
 10
271.4436781987
 20
195.5285474349
 10
271.3823370102
 20
195.5420233539
 10
271.3197170858
 20
195.5629678409
 10
271.2558180236
 20
195.5913806938
  0
LWPOLYLINE
  5
3D3
100
AcDbEntity
  8
0
100
AcDbPolyline
 62
7
  6
CONTINUOUS
 90
3
 70
0
 10
271.1199965342
 20
197.3750393281
 10
271.1869281407
 20
197.3534722431
 10
271.2558180236
 20
197.3234315014
  0
LWPOLYLINE
  5
3D4
100
AcDbEntity
  8
0
100
AcDbPolyline
 62
250
  6
CONTINUOUS
 90
19
 70
0
 10
283.0250490402
 20
181.7321092925
 10
283.029117516
 20
181.711340092
 10
283.0329551309
 20
181.6906293819
 10
283.036561565
 20
181.6699816599
 10
283.0399360798
 20
181.6494043491
 10
283.0430789985
 20
181.6288989073
 10
283.0459913802
 20
181.6084609114
 10
283.0486732355
 20
181.5880915542
 10
283.0511237287
 20
181.5677985435
 10
283.0533424666
 20
181.5475872597
 10
283.0553289146
 20
181.5274654958
 10
283.0570833056
 20
181.5074341322
 10
283.0586061907
 20
181.4874882479
 10
283.0598965193
 20
181.4676438029
 10
283.0609548988
 20
181.4478935187
 10
283.0617826059
 20
181.4281983679
 10
283.0623782357
 20
181.4085490269
 10
283.0627393907
 20
181.3889651425
 10
283.062864408
 20
181.3694518578
  0
LWPOLYLINE
  5
3D5
100
AcDbEntity
  8
0
100
AcDbPolyline
 62
7
  6
CONTINUOUS
 90
10
 70
0
 10
283.6396445898
 20
182.0310149444
 10
283.647551927
 20
181.9896675062
 10
283.6545410915
 20
181.9485139663
 10
283.6606120835
 20
181.9075543249
 10
283.6657730882
 20
181.8667102812
 10
283.6700159203
 20
181.8260601358
 10
283.673316024
 20
181.785838791
 10
283.675665214
 20
181.7461245475
 10
283.6770716755
 20
181.7068391045
 10
283.6775354086
 20
181.667982462
  0
LWPOLYLINE
  5
3D6
100
AcDbEntity
  8
0
100
AcDbPolyline
 62
250
  6
CONTINUOUS
 90
22
 70
0
 10
282.7867186983
 20
211.5863497111
 10
282.7834998862
 20
211.634859463
 10
282.7776627118
 20
211.6837862097
 10
282.7692071752
 20
211.7331299512
 10
282.7580654161
 20
211.7831342152
 10
282.7443052948
 20
211.833555474
 10
282.7281303918
 20
211.8836631445
 10
282.709493492
 20
211.9334790996
 10
282.6884418105
 20
211.9829814664
 10
282.6653205731
 20
212.0313740441
 10
282.6401212643
 20
212.0786017224
 10
282.6128523996
 20
212.1247196117
 10
282.5838847518
 20
212.1690968422
 10
282.5532713588
 20
212.2116654688
 10
282.5209591827
 20
212.2524934366
 10
282.4871598817
 20
212.2911537118
 10
282.4518155762
 20
212.3277326712
 10
282.4149841459
 20
212.3621439378
 10
282.3770508882
 20
212.3937013471
 10
282.3381442357
 20
212.4221761774
 10
282.2981357558
 20
212.4477971504
 10
282.2570254487
 20
212.4705642659
  0
LWPOLYLINE
  5
3D7
100
AcDbEntity
  8
0
100
AcDbPolyline
 62
250
  6
CONTINUOUS
 90
8
 70
0
 10
281.9603337623
 20
211.9079249649
 10
281.9612311678
 20
211.8915111481
 10
281.9639081833
 20
211.8762725447
 10
281.9683194882
 20
211.8624669986
 10
281.9743904147
 20
211.8503281021
 10
281.9820182166
 20
211.8400612349
 10
281.9910738124
 20
211.831840094
 10
281.9993177412
 20
211.8267938944
  0
LWPOLYLINE
  5
3D8
100
AcDbEntity
  8
0
100
AcDbPolyline
 62
250
  6
CONTINUOUS
 90
9
 70
0
 10
283.5303593904
 20
215.9189951893
 10
283.5315582935
 20
215.8944477368
 10
283.5351405094
 20
215.8714258586
 10
283.5410572396
 20
215.8502405838
 10
283.5492295128
 20
215.831176157
 10
283.5595457981
 20
215.8144919501
 10
283.5718617382
 20
215.8004168547
 10
283.5860077795
 20
215.7891392662
 10
283.5955401836
 20
215.7836556486
  0
LINE
  5
3D9
100
AcDbEntity
  8
0
100
AcDbLine
 62
250
  6
CONTINUOUS
 10
282.2414409628
 20
211.4579383408
 11
282.243165705
 21
211.4201120223
  0
LWPOLYLINE
  5
3DA
100
AcDbEntity
  8
0
100
AcDbPolyline
 62
250
  6
CONTINUOUS
 90
16
 70
0
 10
282.9272195747
 20
209.5405771816
 10
282.926460228
 20
209.5572989922
 10
282.924499464
 20
209.5728502526
 10
282.9213372827
 20
209.5872309629
 10
282.9169434273
 20
209.6004998667
 10
282.9113481547
 20
209.6125982203
 10
282.9046422349
 20
209.623349793
 10
282.8968296871
 20
209.6327947889
 10
282.8879064921
 20
209.6408930038
 10
282.877951362
 20
209.6473475943
 10
282.8668963443
 20
209.6521689944
 10
282.8548093915
 20
209.6553467701
 10
282.8419730739
 20
209.6565527759
 10
282.8284815816
 20
209.6556776298
 10
282.8142407245
 20
209.6528307138
 10
282.7992505027
 20
209.6480120279
  0
LWPOLYLINE
  5
3DB
100
AcDbEntity
  8
0
100
AcDbPolyline
 62
7
  6
CONTINUOUS
 90
21
 70
0
 10
280.9957549594
 20
224.1599906914
 10
280.9946323162
 20
224.1850737329
 10
280.9895999239
 20
224.2185666671
 10
280.9804779066
 20
224.2516403984
 10
280.9672632645
 20
224.2838276527
 10
280.9500964946
 20
224.314523855
 10
280.9290463517
 20
224.3434338053
 10
280.9041339935
 20
224.3703230195
 10
280.8757609344
 20
224.3946171969
 10
280.8444547027
 20
224.4158837965
 10
280.810005349
 20
224.4342859761
 10
280.772772982
 20
224.4495792857
 10
280.7340735233
 20
224.4613483136
 10
280.6936216459
 20
224.4698520204
 10
280.6514243405
 20
224.4750399061
 10
280.6094894054
 20
224.4767409168
 10
280.5677675071
 20
224.4750730535
 10
280.5260955762
 20
224.4699722203
 10
280.486324908
 20
224.4616199287
 10
280.4488550792
 20
224.4502301233
 10
280.4145840906
 20
224.4362822639
  0
LWPOLYLINE
  5
3DC
100
AcDbEntity
  8
0
100
AcDbPolyline
 62
7
  6
CONTINUOUS
 90
10
 70
0
 10
284.4716610325
 20
177.2901161913
 10
284.4725155625
 20
177.2679810044
 10
284.4752266297
 20
177.2461577855
 10
284.4793708442
 20
177.2241869207
 10
284.4849127356
 20
177.2021846806
 10
284.491868968
 20
177.180317386
 10
284.4999320318
 20
177.1587511809
 10
284.5089881588
 20
177.1376099084
 10
284.5191010779
 20
177.1169745816
 10
284.5302327556
 20
177.0969294408
  0
LWPOLYLINE
  5
3DD
100
AcDbEntity
  8
0
100
AcDbPolyline
 62
7
  6
CONTINUOUS
 90
10
 70
0
 10
284.4716610325
 20
183.3522940177
 10
284.4725155625
 20
183.3301588309
 10
284.4752266297
 20
183.308335612
 10
284.4793708442
 20
183.2863647472
 10
284.4849127356
 20
183.2643625071
 10
284.491868968
 20
183.2424952125
 10
284.4999320318
 20
183.2209290074
 10
284.5089881588
 20
183.1997877349
 10
284.5191010779
 20
183.179152408
 10
284.5302327556
 20
183.1591072673
  0
LWPOLYLINE
  5
3DE
100
AcDbEntity
  8
0
100
AcDbPolyline
 62
7
  6
CONTINUOUS
 90
9
 70
0
 10
282.8798041038
 20
215.631937478
 10
282.8802495122
 20
215.6176759253
 10
282.8824788543
 20
215.5944709785
 10
282.8868431176
 20
215.5694867412
 10
282.8934441783
 20
215.5433146715
 10
282.9019201095
 20
215.516875415
 10
282.9121416147
 20
215.4906200438
 10
282.9243079938
 20
215.4645163448
 10
282.9384397213
 20
215.4387662488
  0
LWPOLYLINE
  5
3DF
100
AcDbEntity
  8
0
100
AcDbPolyline
 62
250
  6
CONTINUOUS
 90
15
 70
0
 10
282.2436755349
 20
216.5623197724
 10
282.2438862788
 20
216.5518439122
 10
282.2445432287
 20
216.5412960882
 10
282.2456845223
 20
216.5307266415
 10
282.2473520085
 20
216.5201687485
 10
282.2495805315
 20
216.5097061203
 10
282.2523868053
 20
216.4994645465
 10
282.2557949828
 20
216.4895044521
 10
282.2598268305
 20
216.4798899535
 10
282.2644725841
 20
216.4707391878
 10
282.2697386543
 20
216.462109502
 10
282.2756283457
 20
216.4540590841
 10
282.2821033644
 20
216.4466859825
 10
282.2891510204
 20
216.4400352191
 10
282.2967560608
 20
216.4341497684
  0
LWPOLYLINE
  5
3E0
100
AcDbEntity
  8
0
100
AcDbPolyline
 62
250
  6
CONTINUOUS
 90
17
 70
0
 10
283.5303593983
 20
174.3887074414
 10
283.5305634826
 20
174.378421585
 10
283.53120005
 20
174.3680703186
 10
283.5323043606
 20
174.3577006199
 10
283.5339153828
 20
174.3473405455
 10
283.536065241
 20
174.3370708093
 10
283.5387677518
 20
174.3270160842
 10
283.5420442677
 20
174.3172313442
 10
283.5459138068
 20
174.307774639
 10
283.5503635201
 20
174.2987610151
 10
283.5553978457
 20
174.2902406105
 10
283.5610180344
 20
174.2822646524
 10
283.5671826159
 20
174.2749276308
 10
283.5738744371
 20
174.2682697966
 10
283.5810806838
 20
174.262322281
 10
283.5887466285
 20
174.257140481
 10
283.5953006408
 20
174.2535055151
  0
LWPOLYLINE
  5
3E1
100
AcDbEntity
  8
0
100
AcDbPolyline
 62
7
  6
CONTINUOUS
 90
9
 70
0
 10
282.1992399181
 20
210.5795266849
 10
282.199413874
 20
210.5699062746
 10
282.2008645263
 20
210.5479001989
 10
282.2038927046
 20
210.5251499715
 10
282.2085630559
 20
210.5017481145
 10
282.2147530851
 20
210.4777864903
 10
282.2224912484
 20
210.4533885368
 10
282.2319342686
 20
210.4287085377
 10
282.243165705
 20
210.4039051104
  0
LWPOLYLINE
  5
3E2
100
AcDbEntity
  8
0
100
AcDbPolyline
 62
250
  6
CONTINUOUS
 90
8
 70
0
 10
282.7992505027
 20
206.8070478892
 10
282.7996252101
 20
206.7859475049
 10
282.7975551928
 20
206.7664057484
 10
282.7930757975
 20
206.7487566735
 10
282.7862635535
 20
206.7333019866
 10
282.7772348731
 20
206.7203058995
 10
282.7661440676
 20
206.7099906075
 10
282.7616066853
 20
206.7069222396
  0
LWPOLYLINE
  5
3E3
100
AcDbEntity
  8
0
100
AcDbPolyline
 62
7
  6
CONTINUOUS
 90
9
 70
0
 10
282.1259313049
 20
202.5928304651
 10
282.1260883377
 20
202.5837162432
 10
282.1275095744
 20
202.5616541352
 10
282.1305187157
 20
202.5388407919
 10
282.1351809878
 20
202.5153694381
 10
282.1413727055
 20
202.4913330766
 10
282.1491225865
 20
202.4668563504
 10
282.1585888543
 20
202.4420948425
 10
282.1698558454
 20
202.417208668
  0
LWPOLYLINE
  5
3E4
100
AcDbEntity
  8
0
100
AcDbPolyline
 62
250
  6
CONTINUOUS
 90
28
 70
0
 10
283.8107124286
 20
174.3874841394
 10
283.8107421148
 20
174.385409568
 10
283.8108736073
 20
174.3833414792
 10
283.8111069061
 20
174.381279873
 10
283.8114374021
 20
174.3792091728
 10
283.8118697044
 20
174.3771449553
 10
283.8124176401
 20
174.3751339505
 10
283.8130851374
 20
174.373176986
 10
283.8138682681
 20
174.3712732343
 10
283.8147690743
 20
174.3694669423
 10
283.8157918278
 20
174.3677608074
 10
283.8169322568
 20
174.3661521322
 10
283.8181795877
 20
174.3646770727
 10
283.8195367397
 20
174.3633403126
 10
283.8210007937
 20
174.3621371681
 10
283.8225522194
 20
174.3610897431
 10
283.824191306
 20
174.3602024584
 10
283.8259177642
 20
174.3594708931
 10
283.8277111968
 20
174.3589038889
 10
283.8295716032
 20
174.3585037619
 10
283.8314989839
 20
174.3582681959
 10
283.833472943
 20
174.3581990835
 10
283.8354939767
 20
174.358298103
 10
283.8375615888
 20
174.3585635761
 10
283.8396538947
 20
174.3589923603
 10
283.8417635997
 20
174.3595834079
 10
283.8438979986
 20
174.3603377666
 10
283.8460570913
 20
174.3612554362
  0
LWPOLYLINE
  5
3E5
100
AcDbEntity
  8
0
100
AcDbPolyline
 62
7
  6
CONTINUOUS
 90
12
 70
0
 10
282.1850970731
 20
216.63300422
 10
282.1851262757
 20
216.629182464
 10
282.1869348482
 20
216.6027311798
 10
282.1915627938
 20
216.5767714591
 10
282.1989612938
 20
216.5517027116
 10
282.2089639308
 20
216.5279695143
 10
282.2214506016
 20
216.5057285246
 10
282.2363052284
 20
216.4851423303
 10
282.2532629273
 20
216.4665388694
 10
282.2720531192
 20
216.4501327603
 10
282.2925404301
 20
216.4360001726
 10
282.3086234314
 20
216.4271155813
  0
LWPOLYLINE
  5
3E6
100
AcDbEntity
  8
0
100
AcDbPolyline
 62
7
  6
CONTINUOUS
 90
12
 70
0
 10
282.9845694132
 20
209.6105834834
 10
282.9845468818
 20
209.6149471797
 10
282.9821658703
 20
209.6544932896
 10
282.975827398
 20
209.6929832717
 10
282.9654516906
 20
209.7300472151
 10
282.9510639188
 20
209.7651524559
 10
282.9327197981
 20
209.7979372249
 10
282.9105432831
 20
209.8279511524
 10
282.885023961
 20
209.8544975395
 10
282.8566872505
 20
209.8771631432
 10
282.8260201795
 20
209.8957034729
 10
282.8226019666
 20
209.8974448438
  0
LINE
  5
3E7
100
AcDbEntity
  8
0
100
AcDbLine
 62
7
  6
CONTINUOUS
 10
282.1259218626
 20
205.628338558
 11
282.1259218626
 21
202.5928287779
  0
LINE
  5
3E8
100
AcDbEntity
  8
0
100
AcDbLine
 62
7
  6
CONTINUOUS
 10
282.1259218626
 20
188.4046455743
 11
282.1259218626
 21
186.235161198
  0
LINE
  5
3E9
100
AcDbEntity
  8
0
100
AcDbLine
 62
7
  6
CONTINUOUS
 10
282.1259218626
 20
183.9777034634
 11
282.1259218626
 21
181.8641367446
  0
LINE
  5
3EA
100
AcDbEntity
  8
0
100
AcDbLine
 62
250
  6
CONTINUOUS
 10
282.1698558454
 20
205.5746414201
 11
282.1698558454
 21
202.417208668
  0
LINE
  5
3EB
100
AcDbEntity
  8
0
100
AcDbLine
 62
250
  6
CONTINUOUS
 10
282.1698558454
 20
188.474199667
 11
282.1698558454
 21
186.1827923187
  0
LINE
  5
3EC
100
AcDbEntity
  8
0
100
AcDbLine
 62
250
  6
CONTINUOUS
 10
282.1698558454
 20
183.9240063254
 11
282.1698558454
 21
181.6885166346
  0
LINE
  5
3ED
100
AcDbEntity
  8
0
100
AcDbLine
 62
7
  6
CONTINUOUS
 10
282.1850968911
 20
216.8636967106
 11
282.1850968911
 21
216.6330304508
  0
LINE
  5
3EE
100
AcDbEntity
  8
0
100
AcDbLine
 62
7
  6
CONTINUOUS
 10
282.1850968911
 20
175.3334263112
 11
282.1850971886
 21
175.1025875769
  0
LINE
  5
3EF
100
AcDbEntity
  8
0
100
AcDbLine
 62
7
  6
CONTINUOUS
 10
282.1992317222
 20
211.4731450309
 11
282.1992317222
 21
210.5795252204
  0
LINE
  5
3F0
100
AcDbEntity
  8
0
100
AcDbLine
 62
7
  6
CONTINUOUS
 10
282.1992317222
 20
201.7354667456
 11
282.1992317222
 21
189.1886977469
  0
LINE
  5
3F1
100
AcDbEntity
  8
0
100
AcDbLine
 62
7
  6
CONTINUOUS
 10
282.1992317222
 20
181.2106646759
 11
282.1992317222
 21
180.3170448649
  0
LINE
  5
3F2
100
AcDbEntity
  8
0
100
AcDbLine
 62
250
  6
CONTINUOUS
 10
282.243165705
 20
211.4201120223
 11
282.243165705
 21
210.4039051104
  0
LINE
  5
3F3
100
AcDbEntity
  8
0
100
AcDbLine
 62
250
  6
CONTINUOUS
 10
282.243165705
 20
201.8050208384
 11
282.243165705
 21
189.013077637
  0
LINE
  5
3F4
100
AcDbEntity
  8
0
100
AcDbLine
 62
250
  6
CONTINUOUS
 10
282.243165705
 20
181.2802187687
 11
282.243165705
 21
180.2640118568
  0
LINE
  5
3F5
100
AcDbEntity
  8
0
100
AcDbLine
 62
250
  6
CONTINUOUS
 10
282.2436755349
 20
216.7929860324
 11
282.2436755349
 21
216.5623197724
  0
LINE
  5
3F6
100
AcDbEntity
  8
0
100
AcDbLine
 62
250
  6
CONTINUOUS
 10
282.2436755349
 20
175.2627156331
 11
282.2436755349
 21
175.0320493731
  0
LINE
  5
3F7
100
AcDbEntity
  8
0
100
AcDbLine
 62
7
  6
CONTINUOUS
 10
282.3213320417
 20
184.1118587901
 11
282.3213320417
 21
184.1306780425
  0
LINE
  5
3F8
100
AcDbEntity
  8
0
100
AcDbLine
 62
7
  6
CONTINUOUS
 10
282.3213320417
 20
205.7624938847
 11
282.3213320417
 21
205.7813131371
  0
LINE
  5
3F9
100
AcDbEntity
  8
0
100
AcDbLine
 62
7
  6
CONTINUOUS
 10
282.4533175079
 20
206.5167391652
 11
282.4533175079
 21
205.4329105888
  0
LINE
  5
3FA
100
AcDbEntity
  8
0
100
AcDbLine
 62
7
  6
CONTINUOUS
 10
282.4533175079
 20
186.0410614875
 11
282.4533175079
 21
183.7822754942
  0
LINE
  5
3FB
100
AcDbEntity
  8
0
100
AcDbLine
 62
250
  6
CONTINUOUS
 10
282.4771225387
 20
210.0701838204
 11
282.4771225387
 21
211.7411477909
  0
LINE
  5
3FC
100
AcDbEntity
  8
0
100
AcDbLine
 62
250
  6
CONTINUOUS
 10
282.7124231205
 20
181.3709801975
 11
282.7124231204
 21
179.7557344481
  0
LINE
  5
3FD
100
AcDbEntity
  8
0
100
AcDbLine
 62
250
  6
CONTINUOUS
 10
282.7587257478
 20
209.9293822159
 11
282.7587257478
 21
211.5181607448
  0
LINE
  5
3FE
100
AcDbEntity
  8
0
100
AcDbLine
 62
250
  6
CONTINUOUS
 10
282.7872747627
 20
206.0570384381
 11
282.7872747627
 21
185.0829763833
  0
LINE
  5
3FF
100
AcDbEntity
  8
0
100
AcDbLine
 62
250
  6
CONTINUOUS
 10
282.7872747627
 20
179.5839953405
 11
282.7872747627
 21
179.718308627
  0
LINE
  5
400
100
AcDbEntity
  8
0
100
AcDbLine
 62
7
  6
CONTINUOUS
 10
282.8798610776
 20
216.1414951992
 11
282.8798610776
 21
215.631951414
  0
LINE
  5
401
100
AcDbEntity
  8
0
100
AcDbLine
 62
7
  6
CONTINUOUS
 10
282.8798610776
 20
177.0539547237
 11
282.8798610776
 21
176.2876221265
  0
LINE
  5
402
100
AcDbEntity
  8
0
100
AcDbLine
 62
250
  6
CONTINUOUS
 10
282.9272195747
 20
207.0447050092
 11
282.9272195747
 21
209.5405771816
  0
LINE
  5
403
100
AcDbEntity
  8
0
100
AcDbLine
 62
250
  6
CONTINUOUS
 10
282.9384397213
 20
216.1122058773
 11
282.9384397213
 21
215.4387662488
  0
LINE
  5
404
100
AcDbEntity
  8
0
100
AcDbLine
 62
250
  6
CONTINUOUS
 10
282.9384397213
 20
177.1057185327
 11
282.9384397213
 21
176.247440321
  0
LINE
  5
405
100
AcDbEntity
  8
0
100
AcDbLine
 62
7
  6
CONTINUOUS
 10
282.9845694849
 20
207.1147959356
 11
282.9845694849
 21
209.6106681081
  0
LINE
  5
406
100
AcDbEntity
  8
0
100
AcDbLine
 62
250
  6
CONTINUOUS
 10
283.0628644083
 20
181.3694518581
 11
283.0628644083
 21
179.765353912
  0
LINE
  5
407
100
AcDbEntity
  8
0
100
AcDbLine
 62
250
  6
CONTINUOUS
 10
283.1377160506
 20
206.055509237
 11
283.1377160506
 21
185.0814473298
  0
LINE
  5
408
100
AcDbEntity
  8
0
100
AcDbLine
 62
250
  6
CONTINUOUS
 10
283.1377160506
 20
179.5824662131
 11
283.1377160506
 21
179.7279280908
  0
LINE
  5
409
100
AcDbEntity
  8
0
100
AcDbLine
 62
7
  6
CONTINUOUS
 10
283.1418760377
 20
179.1504180799
 11
283.1418760377
 21
179.1633792184
  0
LINE
  5
40A
100
AcDbEntity
  8
0
100
AcDbLine
 62
7
  6
CONTINUOUS
 10
283.1418760377
 20
214.2244469332
 11
283.1418760377
 21
214.4677552238
  0
LINE
  5
40B
100
AcDbEntity
  8
0
100
AcDbLine
 62
250
  6
CONTINUOUS
 10
283.2883226471
 20
178.9714276201
 11
283.2883226471
 21
179.2310131157
  0
LINE
  5
40C
100
AcDbEntity
  8
0
100
AcDbLine
 62
250
  6
CONTINUOUS
 10
283.2883226471
 20
214.0454564734
 11
283.2883226471
 21
214.3945319191
  0
LINE
  5
40D
100
AcDbEntity
  8
0
100
AcDbLine
 62
7
  6
CONTINUOUS
 10
283.3926623629
 20
190.9586710178
 11
283.3926623629
 21
191.764230303
  0
LINE
  5
40E
100
AcDbEntity
  8
0
100
AcDbLine
 62
7
  6
CONTINUOUS
 10
283.3926623629
 20
199.6189250557
 11
283.3926623629
 21
200.4244843408
  0
LINE
  5
40F
100
AcDbEntity
  8
0
100
AcDbLine
 62
250
  6
CONTINUOUS
 10
283.5303593983
 20
216.1496441007
 11
283.5303593983
 21
215.9189951848
  0
LINE
  5
410
100
AcDbEntity
  8
0
100
AcDbLine
 62
250
  6
CONTINUOUS
 10
283.5303593983
 20
174.6193563508
 11
283.5303593983
 21
174.3887074414
  0
LINE
  5
411
100
AcDbEntity
  8
0
100
AcDbLine
 62
7
  6
CONTINUOUS
 10
283.6775354086
 20
183.1256298909
 11
283.6775354086
 21
181.667982462
  0
LINE
  5
412
100
AcDbEntity
  8
0
100
AcDbLine
 62
7
  6
CONTINUOUS
 10
283.7523870509
 20
206.8834692265
 11
283.7523870509
 21
206.354363443
  0
LINE
  5
413
100
AcDbEntity
  8
0
100
AcDbLine
 62
7
  6
CONTINUOUS
 10
283.7523870509
 20
185.376174009
 11
283.7523870509
 21
183.5480301197
  0
LINE
  5
414
100
AcDbEntity
  8
0
100
AcDbLine
 62
7
  6
CONTINUOUS
 10
283.7523870509
 20
179.8663416505
 11
283.7523870509
 21
180.0634950572
  0
LINE
  5
415
100
AcDbEntity
  8
0
100
AcDbLine
 62
250
  6
CONTINUOUS
 10
283.8107124286
 20
216.1484207988
 11
283.8107124286
 21
215.9177545388
  0
LINE
  5
416
100
AcDbEntity
  8
0
100
AcDbLine
 62
250
  6
CONTINUOUS
 10
283.8107124286
 20
174.6181503994
 11
283.8107124286
 21
174.3874841394
  0
LINE
  5
417
100
AcDbEntity
  8
0
100
AcDbLine
 62
250
  6
CONTINUOUS
 10
283.9476776384
 20
190.6811633801
 11
283.9476776384
 21
191.4867226653
  0
LINE
  5
418
100
AcDbEntity
  8
0
100
AcDbLine
 62
250
  6
CONTINUOUS
 10
283.9476776384
 20
199.3414174179
 11
283.9476776384
 21
200.1469767031
  0
LINE
  5
419
100
AcDbEntity
  8
0
100
AcDbLine
 62
250
  6
CONTINUOUS
 10
284.1598096727
 20
190.6788959006
 11
284.1598096727
 21
191.4889901447
  0
LINE
  5
41A
100
AcDbEntity
  8
0
100
AcDbLine
 62
250
  6
CONTINUOUS
 10
284.1598096727
 20
199.3391499385
 11
284.1598096727
 21
200.1492441826
  0
LINE
  5
41B
100
AcDbEntity
  8
0
100
AcDbLine
 62
250
  6
CONTINUOUS
 10
284.2498087743
 20
175.5917557946
 11
284.2498087743
 21
176.5079981281
  0
LINE
  5
41C
100
AcDbEntity
  8
0
100
AcDbLine
 62
250
  6
CONTINUOUS
 10
284.2498087743
 20
214.7251188287
 11
284.2498087743
 21
215.6313526335
  0
LINE
  5
41D
100
AcDbEntity
  8
0
100
AcDbLine
 62
7
  6
CONTINUOUS
 10
284.4072970462
 20
190.797348802
 11
284.4072970462
 21
191.6180246168
  0
LINE
  5
41E
100
AcDbEntity
  8
0
100
AcDbLine
 62
7
  6
CONTINUOUS
 10
284.4072970462
 20
199.4576028398
 11
284.4072970462
 21
200.2782786546
  0
LINE
  5
41F
100
AcDbEntity
  8
0
100
AcDbLine
 62
7
  6
CONTINUOUS
 10
284.4716541118
 20
213.8039984974
 11
284.4716541118
 21
211.9311307575
  0
LINE
  5
420
100
AcDbEntity
  8
0
100
AcDbLine
 62
7
  6
CONTINUOUS
 10
284.4716541118
 20
206.4427825652
 11
284.4716541118
 21
200.2884069839
  0
LINE
  5
421
100
AcDbEntity
  8
0
100
AcDbLine
 62
7
  6
CONTINUOUS
 10
284.4716541118
 20
199.425424307
 11
284.4716541118
 21
191.628152946
  0
LINE
  5
422
100
AcDbEntity
  8
0
100
AcDbLine
 62
7
  6
CONTINUOUS
 10
284.4716541118
 20
190.7651702691
 11
284.4716541118
 21
183.3522924326
  0
LINE
  5
423
100
AcDbEntity
  8
0
100
AcDbLine
 62
7
  6
CONTINUOUS
 10
284.4716541118
 20
179.162982346
 11
284.4716541118
 21
177.2901146061
  0
LINE
  5
424
100
AcDbEntity
  8
0
100
AcDbLine
 62
250
  6
CONTINUOUS
 10
284.5301618046
 20
215.740136632
 11
284.5301618046
 21
214.9550404266
  0
LINE
  5
425
100
AcDbEntity
  8
0
100
AcDbLine
 62
250
  6
CONTINUOUS
 10
284.5301618046
 20
176.241659264
 11
284.5301618046
 21
175.4905324926
  0
LINE
  5
426
100
AcDbEntity
  8
0
100
AcDbLine
 62
250
  6
CONTINUOUS
 10
284.5302327556
 20
213.8557623064
 11
284.5302327556
 21
211.7379455922
  0
LINE
  5
427
100
AcDbEntity
  8
0
100
AcDbLine
 62
250
  6
CONTINUOUS
 10
284.5302327556
 20
206.4945463742
 11
284.5302327556
 21
200.2168107999
  0
LINE
  5
428
100
AcDbEntity
  8
0
100
AcDbLine
 62
250
  6
CONTINUOUS
 10
284.5302327556
 20
199.3961349851
 11
284.5302327556
 21
191.5565567621
  0
LINE
  5
429
100
AcDbEntity
  8
0
100
AcDbLine
 62
250
  6
CONTINUOUS
 10
284.5302327556
 20
190.7358809473
 11
284.5302327556
 21
183.1591072673
  0
LINE
  5
42A
100
AcDbEntity
  8
0
100
AcDbLine
 62
250
  6
CONTINUOUS
 10
284.5302327556
 20
179.214746155
 11
284.5302327556
 21
177.0969294408
  0
LWPOLYLINE
  5
42B
100
AcDbEntity
  8
0
100
AcDbPolyline
 62
250
  6
CONTINUOUS
 90
26
 70
0
 10
284.5952175525
 20
211.4921753705
 10
284.5951736613
 20
211.4827041475
 10
284.5953331359
 20
211.4735942181
 10
284.5956803965
 20
211.4648493527
 10
284.5961941235
 20
211.4565003112
 10
284.5968628676
 20
211.4485188234
 10
284.5976932125
 20
211.4408233417
 10
284.598679866
 20
211.4334158659
 10
284.5998115543
 20
211.4263025117
 10
284.6010996741
 20
211.419417551
 10
284.6025449139
 20
211.4127672869
 10
284.6041422409
 20
211.4063620442
 10
284.6059069681
 20
211.4001533604
 10
284.6078447235
 20
211.394153669
 10
284.6099560511
 20
211.3883792771
 10
284.6122601332
 20
211.3828004391
 10
284.6147669282
 20
211.377437511
 10
284.6174815672
 20
211.3723148558
 10
284.620426536
 20
211.3674235055
 10
284.6236150399
 20
211.3627937791
 10
284.6270557985
 20
211.3584603651
 10
284.6307737961
 20
211.3544374255
 10
284.6347855411
 20
211.3507659475
 10
284.63909984
 20
211.3474946109
 10
284.6437361267
 20
211.3446649612
 10
284.6451049019
 20
211.3439535337
  0
LWPOLYLINE
  5
42C
100
AcDbEntity
  8
0
100
AcDbPolyline
 62
250
  6
CONTINUOUS
 90
22
 70
0
 10
282.7872747627
 20
185.0829763833
 10
282.7871695994
 20
185.0665640065
 10
282.7868647819
 20
185.0503077863
 10
282.7863603103
 20
185.0342077229
 10
282.7856562026
 20
185.0182771671
 10
282.7847524407
 20
185.0025027681
 10
282.7836489709
 20
184.9868444728
 10
282.7823451888
 20
184.9712824196
 10
282.7808416988
 20
184.95583647
 10
282.7791402594
 20
184.9405261559
 10
282.7772412905
 20
184.9253567768
 10
282.7751443723
 20
184.9103230331
 10
282.7728500035
 20
184.8954285571
 10
282.7703583483
 20
184.8806730075
 10
282.7676692424
 20
184.8660567255
 10
282.7647826918
 20
184.8515843672
 10
282.7616988581
 20
184.8372557198
 10
282.7584175797
 20
184.823070996
 10
282.754938377
 20
184.8090354906
 10
282.7512610902
 20
184.7951509683
 10
282.7473858791
 20
184.7814156642
 10
282.7433127438
 20
184.7678295785
  0
LWPOLYLINE
  5
42D
100
AcDbEntity
  8
0
100
AcDbPolyline
 62
250
  6
CONTINUOUS
 90
22
 70
0
 10
283.1377160507
 20
185.0814473299
 10
283.1375861364
 20
185.0617544637
 10
283.1372131502
 20
185.0422426857
 10
283.1365991628
 20
185.0229154053
 10
283.1357473023
 20
185.0037958422
 10
283.1346592148
 20
184.9848669956
 10
283.1333326036
 20
184.966073128
 10
283.1317654447
 20
184.9473955905
 10
283.129959327
 20
184.9288622034
 10
283.1279156489
 20
184.9104879621
 10
283.1256358372
 20
184.8922830868
 10
283.1231199081
 20
184.8742453254
 10
283.1203673253
 20
184.8563708519
 10
283.1173785209
 20
184.8386636085
 10
283.1141540446
 20
184.8211279437
 10
283.1106930326
 20
184.8037610251
 10
283.106995827
 20
184.7865670824
 10
283.103062841
 20
184.769550422
 10
283.0988928524
 20
184.7527087266
 10
283.0944855194
 20
184.7360442714
 10
283.0898416801
 20
184.7195636733
 10
283.0849616988
 20
184.7032713198
  0
LWPOLYLINE
  5
42E
100
AcDbEntity
  8
0
100
AcDbPolyline
 62
7
  6
CONTINUOUS
 90
10
 70
0
 10
283.7523870509
 20
185.376174009
 10
283.7517410464
 20
185.3308417087
 10
283.7497767483
 20
185.2862458474
 10
283.7464941566
 20
185.2423864251
 10
283.7418779644
 20
185.1991536851
 10
283.7359434786
 20
185.1566573841
 10
283.7287366201
 20
185.1152267925
 10
283.7202726956
 20
185.0749716669
 10
283.7105363984
 20
185.0357822507
 10
283.6995277284
 20
184.9976585439
  0
LWPOLYLINE
  5
42F
100
AcDbEntity
  8
0
100
AcDbPolyline
 62
250
  6
CONTINUOUS
 90
13
 70
0
 10
282.7992505027
 20
209.6480120279
 10
282.7996251888
 20
209.6719330007
 10
282.7975550445
 20
209.6966431893
 10
282.7930754562
 20
209.7217202043
 10
282.7862629955
 20
209.7467353854
 10
282.7772341139
 20
209.7712611301
 10
282.7661431525
 20
209.7948782033
 10
282.7531796959
 20
209.8171829005
 10
282.738565339
 20
209.8377939515
 10
282.7225499021
 20
209.8563590389
 10
282.705407151
 20
209.872560817
 10
282.6874301174
 20
209.8861223361
 10
282.6689260962
 20
209.8968117791
  0
LWPOLYLINE
  5
430
100
AcDbEntity
  8
0
100
AcDbPolyline
 62
250
  6
CONTINUOUS
 90
5
 70
0
 10
281.4408389414
 20
175.3508986807
 10
281.4407120462
 20
175.3465387195
 10
281.4367725777
 20
175.3262876621
 10
281.4273881068
 20
175.3064894458
 10
281.4127312776
 20
175.2875083487
  0
LWPOLYLINE
  5
431
100
AcDbEntity
  8
0
100
AcDbPolyline
 62
7
  6
CONTINUOUS
 90
10
 70
0
 10
282.1992319891
 20
180.3170232026
 10
282.1985259487
 20
180.297936816
 10
282.1963794538
 20
180.2799872961
 10
282.1930755948
 20
180.2647111258
 10
282.1890071904
 20
180.252397477
 10
282.1847524158
 20
180.2433723539
 10
282.1810703005
 20
180.2377857512
 10
282.1790687052
 20
180.2355742587
 10
282.1787359531
 20
180.2351975389
 10
282.1786965115
 20
180.235126673
  0
LWPOLYLINE
  5
432
100
AcDbEntity
  8
0
100
AcDbPolyline
 62
250
  6
CONTINUOUS
 90
16
 70
0
 10
281.8514113968
 20
181.7178358398
 10
281.8520300454
 20
181.731285661
 10
281.8537510615
 20
181.7437694263
 10
281.8565744451
 20
181.7552871355
 10
281.860555284
 20
181.7659508657
 10
281.8656384905
 20
181.7756485398
 10
281.8716588013
 20
181.7840439272
 10
281.8786466987
 20
181.7910869011
 10
281.8865717003
 20
181.7968275883
 10
281.8951770964
 20
181.8010801383
 10
281.9044924122
 20
181.8037924783
 10
281.9144881224
 20
181.805016681
 10
281.9248189416
 20
181.8047231151
 10
281.9353697746
 20
181.8029019032
 10
281.9462557167
 20
181.7995629227
 10
281.9574767678
 20
181.7947061734
  0
LWPOLYLINE
  5
433
100
AcDbEntity
  8
0
100
AcDbPolyline
 62
250
  6
CONTINUOUS
 90
3
 70
0
 10
282.243165705
 20
180.2640118568
 10
282.2414625243
 20
180.2279856867
 10
282.2368412341
 20
180.1945989285
  0
LWPOLYLINE
  5
434
100
AcDbEntity
  8
0
100
AcDbPolyline
 62
250
  6
CONTINUOUS
 90
13
 70
0
 10
283.6863991456
 20
207.1297410025
 10
283.6880953609
 20
207.1633785967
 10
283.6931568
 20
207.1981740259
 10
283.7015023956
 20
207.2335708192
 10
283.7129985599
 20
207.2690028991
 10
283.7274613479
 20
207.3039037112
 10
283.7446594233
 20
207.3377152779
 10
283.7643176942
 20
207.3698969762
 10
283.7861217654
 20
207.3999343051
 10
283.8097230291
 20
207.4273471543
 10
283.8347441177
 20
207.4516973007
 10
283.8607849158
 20
207.4725954422
 10
283.8874290457
 20
207.4897075177
  0
LWPOLYLINE
  5
435
100
AcDbEntity
  8
0
100
AcDbPolyline
 62
250
  6
CONTINUOUS
 90
13
 70
0
 10
281.9603337623
 20
180.0590308569
 10
281.9612311317
 20
180.0763417264
 10
281.9639080554
 20
180.0942570486
 10
281.9683192374
 20
180.1124736793
 10
281.9743900362
 20
180.1306833756
 10
281.9820177281
 20
180.1485780119
 10
281.9910732453
 20
180.1658547938
 10
282.0014033596
 20
180.1822213816
 10
282.0128332757
 20
180.197400837
 10
282.0251695883
 20
180.211136309
 10
282.0382035554
 20
180.2231953802
 10
282.0517146296
 20
180.2333739997
 10
282.0654741907
 20
180.2414999353
  0
LWPOLYLINE
  5
436
100
AcDbEntity
  8
0
100
AcDbPolyline
 62
250
  6
CONTINUOUS
 90
7
 70
0
 10
284.8737439336
 20
211.4814415566
 10
284.8738970159
 20
211.4837257831
 10
284.8740317117
 20
211.485982501
 10
284.8741487718
 20
211.4882110978
 10
284.8742489375
 20
211.4904109836
 10
284.8743329391
 20
211.4925815913
 10
284.8744014967
 20
211.4947223755
  0
LWPOLYLINE
  5
437
100
AcDbEntity
  8
0
100
AcDbPolyline
 62
250
  6
CONTINUOUS
 90
10
 70
0
 10
280.3484070334
 20
174.6070562093
 10
280.3445403702
 20
174.5619169125
 10
280.3369150293
 20
174.5192396169
 10
280.3256144584
 20
174.4794913608
 10
280.3107623247
 20
174.4431071282
 10
280.2925211626
 20
174.4104850897
 10
280.2710905958
 20
174.3819822447
 10
280.2467051499
 20
174.3579105137
 10
280.2196316859
 20
174.3385333252
 10
280.1945997745
 20
174.3258605053
  0
LWPOLYLINE
  5
438
100
AcDbEntity
  8
0
100
AcDbPolyline
 62
7
  6
CONTINUOUS
 90
8
 70
0
 10
284.4716541119
 20
206.4427905315
 10
284.4725986997
 20
206.4454408957
 10
284.4752109629
 20
206.4491995853
 10
284.4793708442
 20
206.4536907542
 10
284.4849646642
 20
206.4589319107
 10
284.4918488833
 20
206.4650153498
 10
284.4999320318
 20
206.471620251
 10
284.5091118568
 20
206.4786642906
  0
LWPOLYLINE
  5
439
100
AcDbEntity
  8
RACCORDO
100
AcDbPolyline
 62
250
  6
CONTINUOUS
 90
47
 70
0
 10
299.0540952294
 20
223.3025981438
 10
299.0930280036
 20
223.3546401386
 10
299.142311222
 20
223.411420816
 10
299.1974448966
 20
223.4670114304
 10
299.257948375
 20
223.5209539527
 10
299.3238207266
 20
223.5732068522
 10
299.3950628819
 20
223.6238116596
 10
299.4711969796
 20
223.6724349381
 10
299.5522136086
 20
223.7190626806
 10
299.6381221799
 20
223.7637088943
 10
299.7284730656
 20
223.8060821634
 10
299.8235233458
 20
223.8462413613
 10
299.9230159403
 20
223.8841276148
 10
300.0257299807
 20
223.919272888
 10
300.1320708495
 20
223.9516506079
 10
300.2416331641
 20
223.9812873474
 10
300.3519799084
 20
224.0077947896
 10
300.4630844254
 20
224.0309941831
 10
300.5749733721
 20
224.0510642791
 10
300.6852897042
 20
224.0681530149
 10
300.7936801941
 20
224.0821269108
 10
300.9004980694
 20
224.0931194463
 10
301.0044459685
 20
224.1016789976
 10
301.1052818029
 20
224.1077815671
 10
301.2032476612
 20
224.1114511523
 10
301.2977724475
 20
224.1133081211
 10
301.3886941876
 20
224.11337399
 10
301.4761748558
 20
224.1116272425
 10
301.5601292792
 20
224.1086236971
 10
301.6404333526
 20
224.1044048964
 10
301.7172111812
 20
224.098929298
 10
301.7907499076
 20
224.0926280923
 10
301.8610164413
 20
224.0855420586
 10
301.9280438729
 20
224.0776304177
 10
301.992218617
 20
224.0692020235
 10
302.0535263638
 20
224.0602913829
 10
302.1119814233
 20
224.0508639891
 10
302.1680131398
 20
224.0411251753
 10
302.2216177233
 20
224.0311036536
 10
302.272798964
 20
224.0207707118
 10
302.3219975763
 20
224.0102455471
 10
302.3692167212
 20
223.999551008
 10
302.4144532377
 20
223.9886642458
 10
302.4581383576
 20
223.9776359122
 10
302.5004158247
 20
223.9664828909
 10
302.5411418951
 20
223.9551882981
 10
302.5803165688
 20
223.9437521338
  0
LWPOLYLINE
  5
43A
100
AcDbEntity
  8
RACCORDO
100
AcDbPolyline
 62
250
  6
CONTINUOUS
 90
10
 70
0
 10
298.9724413598
 20
223.3362557858
 10
298.9747360479
 20
223.3393157966
 10
299.027598699
 20
223.4000328946
 10
299.0866775695
 20
223.4592921118
 10
299.1517703489
 20
223.516900045
 10
299.2226461808
 20
223.5726735126
 10
299.2991393186
 20
223.6265014482
 10
299.3811307223
 20
223.6783026318
 10
299.4683793193
 20
223.7279202712
 10
299.4888764807
 20
223.7388566394
  0
LWPOLYLINE
  5
43B
100
AcDbEntity
  8
0
100
AcDbPolyline
 62
7
  6
CONTINUOUS
 90
9
 70
0
 10
282.243165705
 20
201.8050208384
 10
282.2319444727
 20
201.7927594454
 10
282.2225063696
 20
201.7813202692
 10
282.2147690052
 20
201.7707788596
 10
282.2085761184
 20
201.7612500674
 10
282.2039011179
 20
201.7527133104
 10
282.2008688766
 20
201.7450336335
 10
282.1994151206
 20
201.7382280775
 10
282.1992398857
 20
201.7354611052
  0
LINE
  5
43C
100
AcDbEntity
  8
0
100
AcDbLine
 62
7
  6
CONTINUOUS
 10
270.7864210846
 20
197.3396911768
 11
270.8173629774
 21
197.3559686699
  0
LWPOLYLINE
  5
43D
100
AcDbEntity
  8
0
100
AcDbPolyline
 62
7
  6
CONTINUOUS
 90
9
 70
0
 10
270.7864510872
 20
197.3396343959
 10
270.8379868424
 20
197.3648274474
 10
270.8911662419
 20
197.3816758467
 10
270.947593458
 20
197.3906978162
 10
271.0070826465
 20
197.392198978
 10
271.0678307162
 20
197.3862192853
 10
271.1292360368
 20
197.3727717574
 10
271.1918986066
 20
197.3518425628
 10
271.2558180236
 20
197.3234315014
  0
LINE
  5
43E
100
AcDbEntity
  8
0
100
AcDbLine
 62
250
  6
CONTINUOUS
 10
282.1259218626
 20
203.2542565469
 11
281.4408389415
 21
202.9378625511
  0
LINE
  5
43F
100
AcDbEntity
  8
0
100
AcDbLine
 62
7
  6
CONTINUOUS
 10
282.1259218626
 20
203.1279540825
 11
281.4408389415
 21
202.8115600867
  0
LINE
  5
440
100
AcDbEntity
  8
0
100
AcDbLine
 62
7
  6
CONTINUOUS
 10
271.5043402648
 20
195.5225264338
 11
271.4436781987
 21
195.5285474349
  0
LINE
  5
441
100
AcDbEntity
  8
0
100
AcDbLine
 62
7
  6
CONTINUOUS
 10
271.0550237068
 20
197.3881330067
 11
271.1199965342
 21
197.3750393281
  0
LWPOLYLINE
  5
442
100
AcDbEntity
  8
0
100
AcDbPolyline
 62
250
  6
CONTINUOUS
 90
21
 70
0
 10
282.7473858791
 20
206.3984880408
 10
282.7512610902
 20
206.3808775257
 10
282.754938377
 20
206.3633157166
 10
282.7584175797
 20
206.3458010084
 10
282.7616988581
 20
206.3283350062
 10
282.7647826918
 20
206.3109225251
 10
282.7676692424
 20
206.2935636162
 10
282.7703583483
 20
206.2762582284
 10
282.7728500035
 20
206.2590110235
 10
282.7751443723
 20
206.2418221787
 10
282.7772412905
 20
206.2246915168
 10
282.7791402594
 20
206.2076231689
 10
282.7808416988
 20
206.1906114153
 10
282.7823451889
 20
206.1736619757
 10
282.7836489709
 20
206.1567961405
 10
282.7847524407
 20
206.1400343753
 10
282.7856562026
 20
206.1233562144
 10
282.7863603103
 20
206.1067215509
 10
282.7868647819
 20
206.0901170159
 10
282.7871695994
 20
206.0735559783
 10
282.7872747627
 20
206.0570384381
  0
LWPOLYLINE
  5
443
100
AcDbEntity
  8
0
100
AcDbPolyline
 62
250
  6
CONTINUOUS
 90
21
 70
0
 10
283.08984168
 20
206.4652530364
 10
283.0944855195
 20
206.4441158184
 10
283.0988928525
 20
206.4230326886
 10
283.1030628411
 20
206.4020110856
 10
283.106995827
 20
206.3810529343
 10
283.1106930326
 20
206.3601547056
 10
283.1141540446
 20
206.3393211193
 10
283.1173785209
 20
206.3185567326
 10
283.1203673253
 20
206.2978578551
 10
283.1231199082
 20
206.2772293901
 10
283.1256358372
 20
206.2566757011
 10
283.1279156489
 20
206.2361924259
 10
283.129959327
 20
206.2157773288
 10
283.1317654447
 20
206.1954420677
 10
283.1333326036
 20
206.1752030452
 10
283.1346592148
 20
206.1550896663
 10
283.1357473024
 20
206.1350812055
 10
283.1365991629
 20
206.1151196269
 10
283.1372131502
 20
206.0951896479
 10
283.1375861364
 20
206.0753176736
 10
283.1377160507
 20
206.055509237
  0
LWPOLYLINE
  5
444
100
AcDbEntity
  8
0
100
AcDbPolyline
 62
250
  6
CONTINUOUS
 90
4
 70
0
 10
282.6932321169
 20
206.6412722568
 10
282.7089417275
 20
206.5678716453
 10
282.7256352698
 20
206.4928299802
 10
282.7473858791
 20
206.3984880408
  0
LINE
  5
445
100
AcDbEntity
  8
0
100
AcDbLine
 62
250
  6
CONTINUOUS
 10
282.688965492
 20
206.6621100098
 11
282.6932321169
 21
206.6412722568
  0
LWPOLYLINE
  5
446
100
AcDbEntity
  8
0
100
AcDbPolyline
 62
250
  6
CONTINUOUS
 90
3
 70
0
 10
282.2292587482
 20
211.5343199211
 10
282.2368053105
 20
211.4960076404
 10
282.2414409628
 20
211.4579383408
  0
LWPOLYLINE
  5
447
100
AcDbEntity
  8
0
100
AcDbPolyline
 62
250
  6
CONTINUOUS
 90
7
 70
0
 10
282.9755376364
 20
207.0288474168
 10
282.9899676903
 20
206.9451687292
 10
283.005809198
 20
206.8587925065
 10
283.0231446426
 20
206.7697225549
 10
283.0420580432
 20
206.6779659834
 10
283.0626348285
 20
206.5835334807
 10
283.08984168
 20
206.4652530364
  0
LWPOLYLINE
  5
448
100
AcDbEntity
  8
0
100
AcDbPolyline
 62
250
  6
CONTINUOUS
 90
10
 70
0
 10
281.4051256421
 20
212.5721804146
 10
281.407661498
 20
212.5573914243
 10
281.4098017131
 20
212.5426527091
 10
281.4115518416
 20
212.5279791765
 10
281.4129266477
 20
212.5132323231
 10
281.4139170733
 20
212.49842498
 10
281.41451677
 20
212.4835724508
 10
281.4147192229
 20
212.4685413877
 10
281.4145031574
 20
212.4532997514
 10
281.4138470377
 20
212.4379157185
  0
LINE
  5
449
100
AcDbEntity
  8
0
100
AcDbLine
 62
250
  6
CONTINUOUS
 10
282.7895654589
 20
211.5645397401
 11
282.7866937744
 21
211.5865698992
  0
LWPOLYLINE
  5
44A
100
AcDbEntity
  8
0
100
AcDbPolyline
 62
250
  6
CONTINUOUS
 90
19
 70
0
 10
283.1331360788
 20
211.651313909
 10
283.1244825517
 20
211.7239952866
 10
283.1113949761
 20
211.797862228
 10
283.0939607371
 20
211.8724431608
 10
283.0722977694
 20
211.9472592732
 10
283.0465446361
 20
212.0218348024
 10
283.0168578087
 20
212.0956998955
 10
282.9834072483
 20
212.1684184957
 10
282.9464236294
 20
212.2394854848
 10
282.9062025354
 20
212.3083456657
 10
282.8631718183
 20
212.3743355585
 10
282.8174772177
 20
212.4372961179
 10
282.7689608824
 20
212.4973790548
 10
282.7178311844
 20
212.5541657371
 10
282.6644195257
 20
212.6071298028
 10
282.6086950312
 20
212.6561011034
 10
282.5508639879
 20
212.7006249485
 10
282.4914034934
 20
212.7400600986
 10
282.4307169652
 20
212.7738834002
  0
LINE
  5
44B
100
AcDbEntity
  8
0
100
AcDbLine
 62
7
  6
CONTINUOUS
 10
283.7593847933
 20
211.8280184938
 11
283.7529611888
 21
211.8906267676
  0
LWPOLYLINE
  5
44C
100
AcDbEntity
  8
0
100
AcDbPolyline
 62
7
  6
CONTINUOUS
 90
7
 70
0
 10
283.7529611322
 20
211.8906267158
 10
283.7525867654
 20
211.8944667422
 10
283.7522471658
 20
211.898340146
 10
283.7519423168
 20
211.9022468552
 10
283.7516722023
 20
211.9061867974
 10
283.7514368066
 20
211.9101599
 10
283.751236114
 20
211.9141660898
  0
LWPOLYLINE
  5
44D
100
AcDbEntity
  8
0
100
AcDbPolyline
 62
250
  6
CONTINUOUS
 90
40
 70
0
 10
284.8737440452
 20
206.6822315545
 10
284.8728048444
 20
206.6942067931
 10
284.8716068537
 20
206.7060186238
 10
284.8701921876
 20
206.7176297151
 10
284.8686186208
 20
206.7289724497
 10
284.8669109553
 20
206.7400526808
 10
284.8650495795
 20
206.7509520082
 10
284.8630576884
 20
206.7616388266
 10
284.8609652876
 20
206.7721084068
 10
284.8587405608
 20
206.7824894144
 10
284.8563874509
 20
206.7927906305
 10
284.8539286095
 20
206.8029787142
 10
284.8513436096
 20
206.813121
 10
284.8486335949
 20
206.8232255572
 10
284.8458131564
 20
206.8332628794
 10
284.8428752442
 20
206.8432437295
 10
284.8398261961
 20
206.8531580436
 10
284.836673774
 20
206.8629959558
 10
284.8334104475
 20
206.8727679846
 10
284.8300470393
 20
206.8824478926
 10
284.8265855529
 20
206.8920425888
 10
284.8230006401
 20
206.9016094971
 10
284.8193002398
 20
206.9111194902
 10
284.8154837123
 20
206.9205774494
 10
284.8115045104
 20
206.930083572
 10
284.8073568767
 20
206.9396260216
 10
284.803045946
 20
206.949176958
 10
284.7985335958
 20
206.9588001644
 10
284.7938114028
 20
206.9684820097
 10
284.7888861382
 20
206.9781760868
 10
284.783739299
 20
206.9878855801
 10
284.7783733623
 20
206.9975734525
 10
284.7727920561
 20
207.00719782
 10
284.7669792452
 20
207.0167441896
 10
284.7609491672
 20
207.0261582006
 10
284.7547066724
 20
207.0353928366
 10
284.748223734
 20
207.044429644
 10
284.7415032319
 20
207.0532142174
 10
284.734580509
 20
207.0616643196
 10
284.7274815686
 20
207.0697076728
  0
LWPOLYLINE
  5
44E
100
AcDbEntity
  8
0
100
AcDbPolyline
 62
250
  6
CONTINUOUS
 90
13
 70
0
 10
283.8460570913
 20
216.208781446
 10
283.8445413573
 20
216.2318383974
 10
283.8406753133
 20
216.2557313272
 10
283.8345250812
 20
216.2800515802
 10
283.8261958513
 20
216.3043831915
 10
283.8158300822
 20
216.3283100025
 10
283.8036050646
 20
216.3514227788
 10
283.7897298888
 20
216.3733262077
 10
283.7744418704
 20
216.3936456585
 10
283.7580024909
 20
216.4120335912
 10
283.740692924
 20
216.4281755034
 10
283.7228092261
 20
216.4417953082
 10
283.7046572742
 20
216.4526600553
  0
LWPOLYLINE
  5
44F
100
AcDbEntity
  8
0
100
AcDbPolyline
 62
250
  6
CONTINUOUS
 90
10
 70
0
 10
283.8107124286
 20
215.9177545388
 10
283.8109833034
 20
215.9127488606
 10
283.8117072739
 20
215.908160417
 10
283.8128843399
 20
215.903989208
 10
283.8145427639
 20
215.9001902256
 10
283.8166542835
 20
215.8968084778
 10
283.8191341119
 20
215.8939789881
 10
283.8219539868
 20
215.8917467643
 10
283.8251421705
 20
215.8900667987
 10
283.828698663
 20
215.8889390912
  0
LWPOLYLINE
  5
450
100
AcDbEntity
  8
0
100
AcDbPolyline
 62
7
  6
CONTINUOUS
 90
11
 70
0
 10
286.0823217496
 20
175.7768169286
 10
286.0808562779
 20
175.8039689985
 10
286.0766242585
 20
175.8297415506
 10
286.069647146
 20
175.8547676885
 10
286.060033182
 20
175.8786157501
 10
286.0478582588
 20
175.901117259
 10
286.0332887755
 20
175.9219903713
 10
286.0165981968
 20
175.9408986838
 10
285.9980460228
 20
175.9576254394
 10
285.9778568309
 20
175.9720302955
 10
285.9587968233
 20
175.9827579908
  0
LWPOLYLINE
  5
451
100
AcDbEntity
  8
0
100
AcDbPolyline
 62
250
  6
CONTINUOUS
 90
19
 70
0
 10
284.8744054056
 20
214.3485104516
 10
284.872366272
 20
214.3873993727
 10
284.8676288506
 20
214.4269580146
 10
284.860321614
 20
214.4668526412
 10
284.8506382336
 20
214.5065996823
 10
284.8387046036
 20
214.5460581839
 10
284.8244821071
 20
214.585433456
 10
284.8079874091
 20
214.6246233092
 10
284.7893980142
 20
214.6631570542
 10
284.768864171
 20
214.7006928288
 10
284.7465409752
 20
214.7369491823
 10
284.7225928149
 20
214.7716697429
 10
284.6972143357
 20
214.8045711216
 10
284.6706371478
 20
214.8353692204
 10
284.6430194234
 20
214.8638998134
 10
284.6144503863
 20
214.8900594186
 10
284.5850932693
 20
214.9136618473
 10
284.5551954536
 20
214.9344704848
 10
284.5249741397
 20
214.9523025113
  0
LWPOLYLINE
  5
452
100
AcDbEntity
  8
0
100
AcDbPolyline
 62
250
  6
CONTINUOUS
 90
10
 70
0
 10
286.0261936285
 20
175.7073771072
 10
286.0259343012
 20
175.712372805
 10
286.025237004
 20
175.716945003
 10
286.0241017371
 20
175.7210937013
 10
286.0225013983
 20
175.7248636557
 10
286.0204630896
 20
175.7282101103
 10
286.0180681172
 20
175.7309987978
 10
286.0153435832
 20
175.7331849623
 10
286.0122623854
 20
175.7348133597
 10
286.0088245238
 20
175.73588399
  0
LWPOLYLINE
  5
453
100
AcDbEntity
  8
0
100
AcDbPolyline
 62
7
  6
CONTINUOUS
 90
16
 70
0
 10
285.8215106085
 20
214.8573232582
 10
285.8195967291
 20
214.9031977331
 10
285.8137825787
 20
214.9506342664
 10
285.8041038062
 20
214.9991432498
 10
285.7905713078
 20
215.0483873467
 10
285.773347167
 20
215.097656753
 10
285.7528668784
 20
215.1458873892
 10
285.72964815
 20
215.1921817921
 10
285.7038377917
 20
215.2364825278
 10
285.6753497687
 20
215.2789668716
 10
285.6441626591
 20
215.3194697891
 10
285.6108301472
 20
215.3570962181
 10
285.5761324138
 20
215.3909786572
 10
285.5406211722
 20
215.4206814318
 10
285.5045527939
 20
215.4460718117
 10
285.4683205551
 20
215.4669311904
  0
LWPOLYLINE
  5
454
100
AcDbEntity
  8
0
100
AcDbPolyline
 62
250
  6
CONTINUOUS
 90
13
 70
0
 10
285.9920616845
 20
217.2859446449
 10
285.9911477274
 20
217.3093025128
 10
285.9877887348
 20
217.3334489954
 10
285.9820421577
 20
217.3579710996
 10
285.9740062836
 20
217.3824494078
 10
285.9638185554
 20
217.4064652517
 10
285.9516532202
 20
217.4296078726
 10
285.9377183499
 20
217.4514814472
 10
285.9222522816
 20
217.4717118574
 10
285.9055195415
 20
217.4899530894
 10
285.8878063206
 20
217.5058931515
 10
285.8694155796
 20
217.5192594104
 10
285.8506618674
 20
217.5298232542
  0
LWPOLYLINE
  5
455
100
AcDbEntity
  8
0
100
AcDbPolyline
 62
7
  6
CONTINUOUS
 90
10
 70
0
 10
284.4716610325
 20
211.9311323426
 10
284.4725155625
 20
211.9089971558
 10
284.4752266297
 20
211.8871739369
 10
284.4793708442
 20
211.8652030721
 10
284.4849127356
 20
211.843200832
 10
284.491868968
 20
211.8213335374
 10
284.4999320318
 20
211.7997673323
 10
284.5089881588
 20
211.7786260598
 10
284.5191010779
 20
211.7579907329
 10
284.5302327556
 20
211.7379455922
  0
LWPOLYLINE
  5
456
100
AcDbEntity
  8
0
100
AcDbPolyline
 62
250
  6
CONTINUOUS
 90
28
 70
0
 10
284.5953094868
 20
214.3505236227
 10
284.5944638509
 20
214.3729366935
 10
284.5922798726
 20
214.3954094734
 10
284.5887575518
 20
214.4179419623
 10
284.5838595102
 20
214.4406123451
 10
284.5776231262
 20
214.4633424369
 10
284.570160535
 20
214.4858976838
 10
284.5614446852
 20
214.5083495798
 10
284.5515026283
 20
214.5306266309
 10
284.5405276542
 20
214.5522798008
 10
284.5284941253
 20
214.5732978604
 10
284.5154276792
 20
214.5936920387
 10
284.5015985189
 20
214.6130469866
 10
284.4870089674
 20
214.6313247138
 10
284.4716567018
 20
214.6485632106
 10
284.4558049559
 20
214.6644610994
 10
284.4394870432
 20
214.6789933191
 10
284.4226696503
 20
214.6921849308
 10
284.4055160708
 20
214.7038097399
 10
284.3879809979
 20
214.7139103329
 10
284.3701097385
 20
214.7224441232
 10
284.3522015071
 20
214.7290571559
 10
284.3341621665
 20
214.7337267314
 10
284.3160858539
 20
214.7364755492
 10
284.2985541958
 20
214.7370177535
 10
284.2817610675
 20
214.7352580588
 10
284.2655125937
 20
214.7312917506
 10
284.2498087743
 20
214.7251188287
  0
LWPOLYLINE
  5
457
100
AcDbEntity
  8
0
100
AcDbPolyline
 62
250
  6
CONTINUOUS
 90
7
 70
0
 10
284.8744014583
 20
206.6690390729
 10
284.8743296357
 20
206.6712189266
 10
284.8742427067
 20
206.6734065447
 10
284.8741406765
 20
206.6756017724
 10
284.8740235511
 20
206.6778044541
 10
284.8738913379
 20
206.6800144337
 10
284.8737440452
 20
206.6822315545
  0
LWPOLYLINE
  5
458
100
AcDbEntity
  8
0
100
AcDbPolyline
 62
7
  6
CONTINUOUS
 90
11
 70
0
 10
286.0823253462
 20
217.3299293582
 10
286.0818978416
 20
217.3444761962
 10
286.0783605575
 20
217.3740676358
 10
286.0712475991
 20
217.4028223428
 10
286.0606548876
 20
217.4302308994
 10
286.0468852
 20
217.4556484261
 10
286.0301705175
 20
217.478832983
 10
286.0106641504
 20
217.4996267746
 10
285.9887765444
 20
217.5176146054
 10
285.9649488811
 20
217.532514125
 10
285.9591088344
 20
217.5355494686
  0
LINE
  5
459
100
AcDbEntity
  8
0
100
AcDbLine
 62
250
  6
CONTINUOUS
 10
284.5952175522
 20
206.6753317991
 11
284.5953092959
 21
206.6708660884
  0
LWPOLYLINE
  5
45A
100
AcDbEntity
  8
0
100
AcDbPolyline
 62
250
  6
CONTINUOUS
 90
28
 70
0
 10
286.0261936285
 20
217.260322301
 10
286.0261649608
 20
217.2623963632
 10
286.02603798
 20
217.2644621962
 10
286.025812686
 20
217.2665198
 10
286.0254935297
 20
217.2685848303
 10
286.0250760603
 20
217.2706416314
 10
286.0245469249
 20
217.2726432361
 10
286.0239023302
 20
217.2745887492
 10
286.0231460697
 20
217.2764790659
 10
286.0222761713
 20
217.2782699039
 10
286.0212885097
 20
217.2799584929
 10
286.0201872103
 20
217.2815476033
 10
286.0189826767
 20
217.2830012642
 10
286.0176720903
 20
217.2843147414
 10
286.0162582698
 20
217.2854927692
 10
286.0147600754
 20
217.2865135786
 10
286.0131772279
 20
217.2873727437
 10
286.0115100066
 20
217.2880746905
 10
286.0097781089
 20
217.2886109273
 10
286.0079815353
 20
217.2889791379
 10
286.0061202854
 20
217.2891816385
 10
286.0042140553
 20
217.2892168864
 10
286.0022623657
 20
217.2890831948
 10
286.0002656959
 20
217.2887822506
 10
285.9982451796
 20
217.2883175716
 10
285.9962078611
 20
217.2876903307
 10
285.9941466961
 20
217.2868993551
 10
285.9920616845
 20
217.2859446449
  0
LINE
  5
45B
100
AcDbEntity
  8
0
100
AcDbLine
 62
250
  6
CONTINUOUS
 10
284.5953094868
 20
176.5370913933
 11
284.5953094868
 21
179.6420338393
  0
LINE
  5
45C
100
AcDbEntity
  8
0
100
AcDbLine
 62
250
  6
CONTINUOUS
 10
284.5953094868
 20
182.6667428518
 11
284.5953092959
 21
206.6708660884
  0
LINE
  5
45D
100
AcDbEntity
  8
0
100
AcDbLine
 62
250
  6
CONTINUOUS
 10
284.5953094868
 20
211.4921294033
 11
284.5953094868
 21
214.3505236227
  0
LINE
  5
45E
100
AcDbEntity
  8
0
100
AcDbLine
 62
250
  6
CONTINUOUS
 10
284.8744017582
 20
176.5352646343
 11
284.8744017582
 21
179.6490467581
  0
LINE
  5
45F
100
AcDbEntity
  8
0
100
AcDbLine
 62
250
  6
CONTINUOUS
 10
284.8744017582
 20
182.6560764151
 11
284.8744017582
 21
206.669039234
  0
LINE
  5
460
100
AcDbEntity
  8
0
100
AcDbLine
 62
250
  6
CONTINUOUS
 10
284.8744017582
 20
211.4947224833
 11
284.8744017582
 21
214.3485084575
  0
LINE
  5
461
100
AcDbEntity
  8
0
100
AcDbLine
 62
7
  6
CONTINUOUS
 10
285.1851145055
 20
208.8548918021
 11
285.1851145055
 21
211.4921322134
  0
LINE
  5
462
100
AcDbEntity
  8
0
100
AcDbLine
 62
250
  6
CONTINUOUS
 10
285.3215561182
 20
175.928906069
 11
285.3215561182
 21
176.5018236932
  0
LINE
  5
463
100
AcDbEntity
  8
0
100
AcDbLine
 62
250
  6
CONTINUOUS
 10
285.3215561182
 20
215.3871868134
 11
285.3215561182
 21
216.0660036607
  0
LINE
  5
464
100
AcDbEntity
  8
0
100
AcDbLine
 62
7
  6
CONTINUOUS
 10
285.3826244441
 20
176.0208798286
 11
285.3826244441
 21
176.5269798135
  0
LINE
  5
465
100
AcDbEntity
  8
0
100
AcDbLine
 62
7
  6
CONTINUOUS
 10
285.3826244441
 20
215.4656992119
 11
285.3826244441
 21
216.1122721159
  0
LINE
  5
466
100
AcDbEntity
  8
0
100
AcDbLine
 62
7
  6
CONTINUOUS
 10
285.4679572179
 20
217.0259849658
 11
285.4679572179
 21
216.2912006433
  0
LINE
  5
467
100
AcDbEntity
  8
0
100
AcDbLine
 62
7
  6
CONTINUOUS
 10
285.4679572179
 20
175.8450869852
 11
285.4679572179
 21
175.1103026626
  0
LINE
  5
468
100
AcDbEntity
  8
0
100
AcDbLine
 62
7
  6
CONTINUOUS
 10
285.4761588485
 20
211.6120232763
 11
285.4761588485
 21
208.3626425011
  0
LINE
  5
469
100
AcDbEntity
  8
0
100
AcDbLine
 62
7
  6
CONTINUOUS
 10
285.6800892523
 20
209.659565635
 11
285.6800892523
 21
208.2606772992
  0
LINE
  5
46A
100
AcDbEntity
  8
0
100
AcDbLine
 62
7
  6
CONTINUOUS
 10
285.6800892523
 20
181.0807273101
 11
285.6800892523
 21
180.98087708
  0
LINE
  5
46B
100
AcDbEntity
  8
0
100
AcDbLine
 62
7
  6
CONTINUOUS
 10
285.8215106085
 20
214.8573232582
 11
285.8215106085
 21
214.5109133003
  0
LINE
  5
46C
100
AcDbEntity
  8
0
100
AcDbLine
 62
7
  6
CONTINUOUS
 10
285.8215106085
 20
176.9254109797
 11
285.8215106085
 21
177.2718209375
  0
LINE
  5
46D
100
AcDbEntity
  8
0
100
AcDbLine
 62
7
  6
CONTINUOUS
 10
285.8375559817
 20
216.4284310788
 11
285.8375559817
 21
216.6778499855
  0
LINE
  5
46E
100
AcDbEntity
  8
0
100
AcDbLine
 62
7
  6
CONTINUOUS
 10
285.9629319648
 20
183.1044790266
 11
285.9629319648
 21
180.9393059539
  0
LINE
  5
46F
100
AcDbEntity
  8
0
100
AcDbLine
 62
7
  6
CONTINUOUS
 10
285.9629319648
 20
209.5181442787
 11
285.9629319648
 21
211.8125416774
  0
LINE
  5
470
100
AcDbEntity
  8
0
100
AcDbLine
 62
250
  6
CONTINUOUS
 10
286.0261936285
 20
175.4540360527
 11
286.0261936285
 21
175.7073771072
  0
LINE
  5
471
100
AcDbEntity
  8
0
100
AcDbLine
 62
250
  6
CONTINUOUS
 10
286.0261936285
 20
217.0069812466
 11
286.0261936285
 21
217.260322301
  0
LINE
  5
472
100
AcDbEntity
  8
0
100
AcDbLine
 62
7
  6
CONTINUOUS
 10
286.0823256684
 20
175.5235018898
 11
286.0823256684
 21
175.7768428995
  0
LINE
  5
473
100
AcDbEntity
  8
0
100
AcDbLine
 62
7
  6
CONTINUOUS
 10
286.0823256684
 20
217.0764470836
 11
286.082325469
 21
217.3299293583
  0
LINE
  5
474
100
AcDbEntity
  8
0
100
AcDbLine
 62
250
  6
CONTINUOUS
 10
286.3802183495
 20
220.2861592204
 11
286.3802183495
 21
221.2821214097
  0
LINE
  5
475
100
AcDbEntity
  8
0
100
AcDbLine
 62
7
  6
CONTINUOUS
 10
286.4878508396
 20
220.4153610701
 11
286.4878508116
 21
221.4140029411
  0
LINE
  5
476
100
AcDbEntity
  8
0
100
AcDbLine
 62
7
  6
CONTINUOUS
 10
286.5162747949
 20
177.3001860437
 11
286.5162747949
 21
178.080210551
  0
LINE
  5
477
100
AcDbEntity
  8
0
100
AcDbLine
 62
7
  6
CONTINUOUS
 10
286.5162747949
 20
214.3706379883
 11
286.5162747949
 21
215.20199757
  0
LINE
  5
478
100
AcDbEntity
  8
0
100
AcDbLine
 62
7
  6
CONTINUOUS
 10
286.5471336324
 20
178.1161162068
 11
286.5471336324
 21
180.54735489
  0
LINE
  5
479
100
AcDbEntity
  8
0
100
AcDbLine
 62
7
  6
CONTINUOUS
 10
286.5471336324
 20
183.3451315614
 11
286.5471336324
 21
207.5673473658
  0
LINE
  5
47A
100
AcDbEntity
  8
0
100
AcDbLine
 62
7
  6
CONTINUOUS
 10
286.5471336324
 20
212.1837776297
 11
286.5471336324
 21
214.3552085695
  0
LINE
  5
47B
100
AcDbEntity
  8
RACCORDO
100
AcDbLine
 62
7
  6
CONTINUOUS
 10
286.5993280678
 20
212.0332387654
 11
286.5993280678
 21
180.3858915755
  0
LWPOLYLINE
  5
47C
100
AcDbEntity
  8
0
100
AcDbPolyline
 62
250
  6
CONTINUOUS
 90
8
 70
0
 10
285.9920616845
 20
175.3930690462
 10
285.9911477297
 20
175.3712269391
 10
285.9877887441
 20
175.3509465242
 10
285.982042177
 20
175.3325746708
 10
285.9740063144
 20
175.3164256057
 10
285.9638185975
 20
175.3027755377
 10
285.9516532712
 20
175.2918579334
 10
285.9431584884
 20
175.286518709
  0
LWPOLYLINE
  5
47D
100
AcDbEntity
  8
0
100
AcDbPolyline
 62
7
  6
CONTINUOUS
 90
10
 70
0
 10
285.8215106085
 20
176.9253448261
 10
285.8195516985
 20
176.8813495836
 10
285.8137397782
 20
176.8395531391
 10
285.8040827435
 20
176.8004393146
 10
285.7905500215
 20
176.7643300384
 10
285.7732932731
 20
176.731835307
 10
285.7527822835
 20
176.703700371
 10
285.7295394741
 20
176.6803343677
 10
285.7037051221
 20
176.6616298788
 10
285.6956525152
 20
176.6570266448
  0
LWPOLYLINE
  5
47E
100
AcDbEntity
  8
0
100
AcDbPolyline
 62
7
  6
CONTINUOUS
 90
8
 70
0
 10
285.4679572179
 20
175.1103026626
 10
285.466742156
 20
175.0882993661
 10
285.463135819
 20
175.067885945
 10
285.4571954616
 20
175.049409365
 10
285.4490176304
 20
175.0331830794
 10
285.4387411145
 20
175.0194844623
 10
285.4265447826
 20
175.0085498474
 10
285.4180620012
 20
175.0032171076
  0
LWPOLYLINE
  5
47F
100
AcDbEntity
  8
0
100
AcDbPolyline
 62
250
  6
CONTINUOUS
 90
8
 70
0
 10
283.8460570913
 20
174.3612554362
 10
283.8445413542
 20
174.3391124154
 10
283.8406753028
 20
174.3185784549
 10
283.8345250607
 20
174.3000047603
 10
283.8261958194
 20
174.2837090097
 10
283.8158300394
 20
174.26996992
 10
283.8036050134
 20
174.2590224796
 10
283.7909811592
 20
174.2516179027
  0
LINE
  5
480
100
AcDbEntity
  8
DRAFT
100
AcDbLine
 62
7
  6
CONTINUOUS
 10
308.7031959645
 20
216.7625468011
 11
309.7739190585
 21
217.4550814582
  0
LWPOLYLINE
  5
481
100
AcDbEntity
  8
0
100
AcDbPolyline
 62
7
  6
CONTINUOUS
 90
3
 70
0
 10
271.7446024783
 20
195.5873675349
 10
271.6937232486
 20
195.5585685432
 10
271.6801670757
 20
195.55252924
  0
LINE
  5
482
100
AcDbEntity
  8
0
100
AcDbLine
 62
250
  6
CONTINUOUS
 10
281.4408389415
 20
199.5094780514
 11
282.1992317222
 21
199.8915985283
  0
LINE
  5
483
100
AcDbEntity
  8
0
100
AcDbLine
 62
7
  6
CONTINUOUS
 10
284.4716541118
 20
200.9681404146
 11
283.3926623629
 21
200.4244843408
  0
LINE
  5
484
100
AcDbEntity
  8
0
100
AcDbLine
 62
7
  6
CONTINUOUS
 10
281.4408389415
 20
199.3864522044
 11
282.1992317222
 21
199.7685726812
  0
LINE
  5
485
100
AcDbEntity
  8
0
100
AcDbLine
 62
250
  6
CONTINUOUS
 10
282.0849020167
 20
201.7814208807
 11
281.4408389415
 21
201.4590834657
  0
LINE
  5
486
100
AcDbEntity
  8
0
100
AcDbLine
 62
250
  6
CONTINUOUS
 10
282.1992317222
 20
201.4074662067
 11
281.4408389415
 21
201.0279096417
  0
LINE
  5
487
100
AcDbEntity
  8
0
100
AcDbLine
 62
7
  6
CONTINUOUS
 10
270.8173629774
 20
197.3559686699
 11
270.8718676788
 21
197.3765784714
  0
LINE
  5
488
100
AcDbEntity
  8
0
100
AcDbLine
 62
7
  6
CONTINUOUS
 10
271.5637252258
 20
195.5239748198
 11
271.5043402648
 21
195.5225264338
  0
LINE
  5
489
100
AcDbEntity
  8
0
100
AcDbLine
 62
7
  6
CONTINUOUS
 10
270.9915022999
 20
197.3926831578
 11
271.0550237068
 21
197.3881330067
  0
LINE
  5
48A
100
AcDbEntity
  8
0
100
AcDbLine
 62
7
  6
CONTINUOUS
 10
289.3548032285
 20
196.9110313599
 11
288.352708086
 21
197.0817339417
  0
LINE
  5
48B
100
AcDbEntity
  8
0
100
AcDbLine
 62
7
  6
CONTINUOUS
 10
283.3926623629
 20
199.6189250557
 11
283.9476776384
 21
199.3414174179
  0
LINE
  5
48C
100
AcDbEntity
  8
0
100
AcDbLine
 62
7
  6
CONTINUOUS
 10
288.7811170322
 20
197.008756327
 11
289.0954026688
 21
196.8516135087
  0
LINE
  5
48D
100
AcDbEntity
  8
0
100
AcDbLine
 62
7
  6
CONTINUOUS
 10
289.2156231582
 20
196.8758697891
 11
289.1847690213
 21
196.8912968575
  0
LINE
  5
48E
100
AcDbEntity
  8
0
100
AcDbLine
 62
7
  6
CONTINUOUS
 10
284.5302327556
 20
199.3961349851
 11
284.4072970462
 21
199.4576028398
  0
LINE
  5
48F
100
AcDbEntity
  8
0
100
AcDbLine
 62
7
  6
CONTINUOUS
 10
283.9476776384
 20
200.1469767031
 11
283.3926623629
 21
200.4244843408
  0
LINE
  5
490
100
AcDbEntity
  8
0
100
AcDbLine
 62
7
  6
CONTINUOUS
 10
284.5302327556
 20
200.2168107999
 11
284.4072970462
 21
200.2782786546
  0
LINE
  5
491
100
AcDbEntity
  8
0
100
AcDbLine
 62
7
  6
CONTINUOUS
 10
289.400742703
 20
196.1193908356
 11
288.4069134805
 21
196.9537478254
  0
LWPOLYLINE
  5
492
100
AcDbEntity
  8
0
100
AcDbPolyline
 62
250
  6
CONTINUOUS
 90
28
 70
0
 10
269.5741215569
 20
222.0629612091
 10
269.5586640037
 20
222.0844316843
 10
269.5428271803
 20
222.1042196557
 10
269.5266110868
 20
222.1223251234
 10
269.5099152718
 20
222.1387650133
 10
269.4928401866
 20
222.1535223995
 10
269.4756871849
 20
222.1665465043
 10
269.4584865418
 20
222.1778313317
 10
269.4412079822
 20
222.1873828777
 10
269.4240620339
 20
222.1951683533
 10
269.4070203849
 20
222.2012002029
 10
269.3901113472
 20
222.205465982
 10
269.3736303851
 20
222.207895569
 10
269.3575682701
 20
222.2084579184
 10
269.3419342307
 20
222.2071840755
 10
269.327051416
 20
222.2040970542
 10
269.3129408642
 20
222.1991577481
 10
269.2995815371
 20
222.1924052635
 10
269.2872334686
 20
222.1839799333
 10
269.2759362748
 20
222.1739177314
 10
269.2656503396
 20
222.1621826839
 10
269.2565168482
 20
222.1488072022
 10
269.2484931861
 20
222.1338132779
 10
269.2416219678
 20
222.1171789193
 10
269.2361722216
 20
222.098870563
 10
269.2322336237
 20
222.078877021
 10
269.229716498
 20
222.0572094814
 10
269.2286208444
 20
222.0338679439
  0
LWPOLYLINE
  5
493
100
AcDbEntity
  8
0
100
AcDbPolyline
 62
7
  6
CONTINUOUS
 90
10
 70
0
 10
283.6995277284
 20
206.7857382302
 10
283.7105363984
 20
206.7366058535
 10
283.7202726956
 20
206.6876801402
 10
283.72873662
 20
206.6389610903
 10
283.7359434786
 20
206.5903236402
 10
283.7418779643
 20
206.5418928535
 10
283.7464941565
 20
206.4940439213
 10
283.7497767482
 20
206.4469019073
 10
283.7517410464
 20
206.4003417479
 10
283.7523870509
 20
206.354363443
  0
LWPOLYLINE
  5
494
100
AcDbEntity
  8
0
100
AcDbPolyline
 62
7
  6
CONTINUOUS
 90
13
 70
0
 10
283.7190791079
 20
212.1435224161
 10
283.7137375193
 20
212.1707641756
 10
283.7109010765
 20
212.1986537231
 10
283.7104422948
 20
212.2267369347
 10
283.7119897632
 20
212.2546508048
 10
283.7155472256
 20
212.2819018543
 10
283.7215170717
 20
212.307866649
 10
283.7297213778
 20
212.3322010808
 10
283.7398535056
 20
212.3545434838
 10
283.7520984341
 20
212.3743011663
 10
283.7663203891
 20
212.391139672
 10
283.7820795209
 20
212.404969066
 10
283.7990935203
 20
212.4156471239
  0
LWPOLYLINE
  5
495
100
AcDbEntity
  8
0
100
AcDbPolyline
 62
7
  6
CONTINUOUS
 90
7
 70
0
 10
283.6181315622
 20
207.1696761774
 10
283.6303583577
 20
207.1058804038
 10
283.643120846
 20
207.0420070764
 10
283.6564190272
 20
206.9780561954
 10
283.6702529014
 20
206.9140277607
 10
283.6846224685
 20
206.8499217723
 10
283.6995277284
 20
206.7857382302
  0
LWPOLYLINE
  5
496
100
AcDbEntity
  8
0
100
AcDbPolyline
 62
7
  6
CONTINUOUS
 90
10
 70
0
 10
283.6181316783
 20
207.1696760994
 10
283.6143532128
 20
207.1939892038
 10
283.6120445453
 20
207.2186929486
 10
283.6112034255
 20
207.2437869947
 10
283.6118350646
 20
207.269462567
 10
283.6139308706
 20
207.2955276102
 10
283.6174630829
 20
207.3214080129
 10
283.6224158457
 20
207.3469135098
 10
283.6287905761
 20
207.3722364497
 10
283.6365809261
 20
207.3973778077
  0
LINE
  5
497
100
AcDbEntity
  8
0
100
AcDbLine
 62
7
  6
CONTINUOUS
 10
289.1768727267
 20
198.7347207456
 11
289.3548032285
 21
196.9110313599
  0
LWPOLYLINE
  5
498
100
AcDbEntity
  8
0
100
AcDbPolyline
 62
7
  6
CONTINUOUS
 90
21
 70
0
 10
286.4878500928
 20
221.4140375377
 10
286.4860164155
 20
221.4460336043
 10
286.4801992492
 20
221.4791884767
 10
286.4703415403
 20
221.5118773604
 10
286.4564376142
 20
221.5436491559
 10
286.4386342014
 20
221.5738996105
 10
286.4170353321
 20
221.6022797226
 10
286.3916783701
 20
221.6285615395
 10
286.3629633829
 20
221.6522283305
 10
286.3314191405
 20
221.67287958
 10
286.2967887015
 20
221.6906864181
 10
286.2594363648
 20
221.7054203413
 10
286.220701576
 20
221.7166650538
 10
286.1803011162
 20
221.7246723992
 10
286.1382419477
 20
221.7293927812
 10
286.0965366589
 20
221.7306702859
 10
286.0551599724
 20
221.728625741
 10
286.0139235891
 20
221.7231958189
 10
285.9746486725
 20
221.7145894358
 10
285.9377355526
 20
221.7030281307
 10
285.9019017656
 20
221.6879932346
  0
LINE
  5
499
100
AcDbEntity
  8
0
100
AcDbLine
 62
250
  6
CONTINUOUS
 10
287.2357241709
 20
225.2063533619
 11
287.2357241709
 21
226.070267558
  0
LINE
  5
49A
100
AcDbEntity
  8
RACCORDO
100
AcDbLine
 62
250
  6
CONTINUOUS
 10
287.5043103271
 20
224.2614699203
 11
287.5043103271
 21
223.3965513924
  0
LINE
  5
49B
100
AcDbEntity
  8
RACCORDO
100
AcDbLine
 62
250
  6
CONTINUOUS
 10
287.9171815434
 20
224.3737303456
 11
287.9171815434
 21
223.3911456858
  0
LINE
  5
49C
100
AcDbEntity
  8
0
100
AcDbLine
 62
7
  6
CONTINUOUS
 10
288.2016499972
 20
225.8443936901
 11
288.2016499972
 21
226.0133543171
  0
LINE
  5
49D
100
AcDbEntity
  8
0
100
AcDbLine
 62
250
  6
CONTINUOUS
 10
288.6499377333
 20
225.1722799242
 11
288.6499377333
 21
225.7149841675
  0
LINE
  5
49E
100
AcDbEntity
  8
RACCORDO
100
AcDbLine
 62
250
  6
CONTINUOUS
 10
288.675587142
 20
223.9945275463
 11
288.675587142
 21
223.728451361
  0
LINE
  5
49F
100
AcDbEntity
  8
0
100
AcDbLine
 62
7
  6
CONTINUOUS
 10
289.2156231582
 20
196.934740084
 11
289.2156231582
 21
196.8758697891
  0
LINE
  5
4A0
100
AcDbEntity
  8
RACCORDO
100
AcDbLine
 62
250
  6
CONTINUOUS
 10
289.4842093144
 20
223.2715204266
 11
289.4842093144
 21
222.4066018988
  0
LWPOLYLINE
  5
4A1
100
AcDbEntity
  8
RACCORDO
100
AcDbPolyline
 62
7
  6
CONTINUOUS
 90
10
 70
0
 10
288.7634501426
 20
223.8521094971
 10
288.7631075566
 20
223.8472391445
 10
288.7615245625
 20
223.8394220669
 10
288.7581022022
 20
223.8291504596
 10
288.7523384633
 20
223.8165941102
 10
288.7440197075
 20
223.8023526902
 10
288.733341093
 20
223.7872934364
 10
288.7205265386
 20
223.7719240633
 10
288.7056832551
 20
223.7564735606
 10
288.6992463188
 20
223.7503572179
  0
LWPOLYLINE
  5
4A2
100
AcDbEntity
  8
0
100
AcDbPolyline
 62
250
  6
CONTINUOUS
 90
7
 70
0
 10
290.9712580768
 20
227.1263110842
 10
290.9695470491
 20
227.113258465
 10
290.9644432421
 20
227.1004291797
 10
290.9560339833
 20
227.088042741
 10
290.9444631576
 20
227.0763110842
 10
290.9299287449
 20
227.0654349413
 10
290.9126794331
 20
227.0556004061
  0
LWPOLYLINE
  5
4A3
100
AcDbEntity
  8
0
100
AcDbPolyline
 62
250
  6
CONTINUOUS
 90
14
 70
0
 10
282.2368412341
 20
180.1945989285
 10
282.2293018345
 20
180.1638515824
 10
282.2187006143
 20
180.1354730369
 10
282.2051812848
 20
180.1097339034
 10
282.1891749791
 20
180.0874460163
 10
282.1705966894
 20
180.06871542
 10
282.1495314236
 20
180.05343607
 10
282.1266653388
 20
180.0421016673
 10
282.1019564201
 20
180.0348358782
 10
282.0754466823
 20
180.0315150363
 10
282.0479483275
 20
180.0322618431
 10
282.0197320895
 20
180.037117199
 10
281.9905272345
 20
180.0460402036
 10
281.9603337623
 20
180.0590308569
  0
LWPOLYLINE
  5
4A4
100
AcDbEntity
  8
0
100
AcDbPolyline
 62
250
  6
CONTINUOUS
 90
13
 70
0
 10
282.7433127438
 20
184.7678295785
 10
282.6810705911
 20
184.5457166289
 10
282.6291224174
 20
184.3159309074
 10
282.5874682226
 20
184.0784724138
 10
282.5560283085
 20
183.8326442297
 10
282.5348823734
 20
183.5791432736
 10
282.5242695124
 20
183.3200603014
 10
282.524319609
 20
183.0553264986
 10
282.5349027797
 20
182.7850106797
 10
282.5558684697
 20
182.5114100446
 10
282.5871664941
 20
182.2352903265
 10
282.6288470379
 20
181.9558857922
 10
282.680910101
 20
181.6731964417
  0
LWPOLYLINE
  5
4A5
100
AcDbEntity
  8
0
100
AcDbPolyline
 62
250
  6
CONTINUOUS
 90
13
 70
0
 10
283.084961699
 20
184.7032713199
 10
283.0252452984
 20
184.4901575031
 10
282.9752605336
 20
184.2689045877
 10
282.9351260059
 20
184.0400375648
 10
282.9049369442
 20
183.8040994994
 10
282.8847649771
 20
183.5616502201
 10
282.8746579651
 20
183.3132649888
 10
282.8746398895
 20
183.059533208
 10
282.8847107911
 20
182.801056899
 10
282.9048467859
 20
182.5384492435
 10
282.9350001158
 20
182.2723333072
 10
282.9750992451
 20
182.0033405691
 10
283.0250490409
 20
181.7321092929
  0
LWPOLYLINE
  5
4A6
100
AcDbEntity
  8
0
100
AcDbPolyline
 62
7
  6
CONTINUOUS
 90
25
 70
0
 10
283.6995277284
 20
184.9976585439
 10
283.6684637322
 20
184.8922784489
 10
283.6398418405
 20
184.7849118128
 10
283.6136620532
 20
184.6755586357
 10
283.589909973
 20
184.5641459397
 10
283.5685999972
 20
184.4507467026
 10
283.5497753176
 20
184.3355798578
 10
283.5334421079
 20
184.2186481038
 10
283.5195941944
 20
184.0999487421
 10
283.5082562483
 20
183.9796926095
 10
283.4994327076
 20
183.857876467
 10
283.4931191342
 20
183.7345035537
 10
283.4893268858
 20
183.6097944238
 10
283.4880606132
 20
183.4837456469
 10
283.4893156655
 20
183.3563606534
 10
283.4930894469
 20
183.2278702887
 10
283.4993864834
 20
183.0982741881
 10
283.508202249
 20
182.9675727163
 10
283.5195205701
 20
182.8359978125
 10
283.5333474345
 20
182.7035399472
 10
283.5496768545
 20
182.5702086498
 10
283.5684746936
 20
182.4362644481
 10
283.5897295732
 20
182.3017941846
 10
283.6134528719
 20
182.1667110167
 10
283.6396445898
 20
182.0310149444
  0
LWPOLYLINE
  5
4A7
100
AcDbEntity
  8
RACCORDO
100
AcDbPolyline
 62
250
  6
CONTINUOUS
 90
28
 70
0
 10
308.4506017848
 20
217.0561532479
 10
308.4668802608
 20
217.0706191367
 10
308.4829328873
 20
217.0827734804
 10
308.4987264618
 20
217.0926194691
 10
308.5142575656
 20
217.1002069891
 10
308.5294579849
 20
217.1054915074
 10
308.5442059843
 20
217.1083297938
 10
308.5584995419
 20
217.1085478509
 10
308.5722855412
 20
217.1063135379
 10
308.5853962211
 20
217.1019852487
 10
308.5977794363
 20
217.0954880358
 10
308.6094825125
 20
217.0868739097
 10
308.6205076567
 20
217.0766854695
 10
308.6308242392
 20
217.064981076
 10
308.6404584972
 20
217.0516808821
 10
308.6494809109
 20
217.0371239417
 10
308.6578703284
 20
217.0213578381
 10
308.6656091324
 20
217.0043199973
 10
308.6727376135
 20
216.9861900146
 10
308.6792227128
 20
216.9669719706
 10
308.6850187984
 20
216.9466487258
 10
308.6901138262
 20
216.9253710764
 10
308.6944538094
 20
216.903136947
 10
308.6979841068
 20
216.8799307623
 10
308.7006614962
 20
216.8558832532
 10
308.7024127196
 20
216.8310103616
 10
308.7031699927
 20
216.8052690346
 10
308.7031959263
 20
216.7997493445
  0
LWPOLYLINE
  5
4A8
100
AcDbEntity
  8
RACCORDO
100
AcDbPolyline
 62
7
  6
CONTINUOUS
 90
76
 70
0
 10
308.558261075
 20
217.1852111194
 10
308.6202745033
 20
217.236829325
 10
308.6805843963
 20
217.2874599656
 10
308.739190754
 20
217.337103041
 10
308.796054343
 20
217.3857276
 10
308.8512143968
 20
217.433364594
 10
308.9047886151
 20
217.4801068768
 10
308.9567838389
 20
217.5259573924
 10
309.0071932272
 20
217.5709131969
 10
309.0561139577
 20
217.6150583129
 10
309.1035508943
 20
217.6583932714
 10
309.149499173
 20
217.7009175415
 10
309.1940413808
 20
217.7427135522
 10
309.2371832701
 20
217.7837813496
 10
309.2789190883
 20
217.8241208876
 10
309.319314164
 20
217.8638144578
 10
309.358375985
 20
217.9028615813
 10
309.3960970635
 20
217.9412627368
 10
309.4325202644
 20
217.979101653
 10
309.4676562893
 20
218.0163772467
 10
309.5014944365
 20
218.053090601
 10
309.5340454669
 20
218.089328693
 10
309.5653275452
 20
218.1250917233
 10
309.5953225066
 20
218.1603794912
 10
309.6239866166
 20
218.1952783729
 10
309.6513506273
 20
218.2297909538
 10
309.6773837866
 20
218.2639146485
 10
309.7019501038
 20
218.2977280762
 10
309.7251185566
 20
218.3312764417
 10
309.7468201673
 20
218.3645145404
 10
309.7667120118
 20
218.3973853767
 10
309.7848702356
 20
218.4300060172
 10
309.8012186932
 20
218.4622593954
 10
309.8151860249
 20
218.493737317
 10
309.8267254714
 20
218.5244531746
 10
309.8358837918
 20
218.5543935757
 10
309.8422299039
 20
218.5831101482
 10
309.8456545595
 20
218.6105625246
 10
309.8462670067
 20
218.6367910724
 10
309.8439639071
 20
218.6614685229
 10
309.8385797807
 20
218.6845571411
 10
309.8302801074
 20
218.706094662
 10
309.8194579887
 20
218.7258670214
 10
309.806037212
 20
218.7437452275
 10
309.7900939899
 20
218.7598582722
 10
309.7722500617
 20
218.7743790668
 10
309.7525855886
 20
218.787257128
 10
309.7310204093
 20
218.7985429392
 10
309.7079357797
 20
218.8085608617
 10
309.6834060015
 20
218.8173393221
 10
309.657356773
 20
218.8248498938
 10
309.6299464443
 20
218.8313316575
 10
309.6012103392
 20
218.8368162302
 10
309.571113134
 20
218.8412719949
 10
309.5397072073
 20
218.8448431822
 10
309.5070119404
 20
218.8475501736
 10
309.4730079521
 20
218.8493725875
 10
309.4376894775
 20
218.8503935096
 10
309.4010687363
 20
218.8506261022
 10
309.3631335088
 20
218.8500572031
 10
309.3238413712
 20
218.8487304109
 10
309.2831978754
 20
218.8466543136
 10
309.2411974694
 20
218.8438203231
 10
309.1977810737
 20
218.8402462741
 10
309.1529528262
 20
218.8359378852
 10
309.1067085889
 20
218.8308894377
 10
309.0589768693
 20
218.8251016099
 10
309.0097682766
 20
218.8185798159
 10
308.9590722015
 20
218.8113186417
 10
308.9067853226
 20
218.8033025232
 10
308.8529145336
 20
218.7945365039
 10
308.7974529407
 20
218.7850155403
 10
308.7402765414
 20
218.7747089389
 10
308.6813440013
 20
218.7636064682
 10
308.6206966547
 20
218.7517183596
 10
308.5583345016
 20
218.7390446131
  0
LINE
  5
4A9
100
AcDbEntity
  8
0
100
AcDbLine
 62
7
  6
CONTINUOUS
 10
284.4072970462
 20
200.2782786546
 11
284.1598096727
 21
200.1492441826
  0
LINE
  5
4AA
100
AcDbEntity
  8
0
100
AcDbLine
 62
7
  6
CONTINUOUS
 10
284.4072970462
 20
199.4576028398
 11
284.1598096727
 21
199.3391499385
  0
LINE
  5
4AB
100
AcDbEntity
  8
0
100
AcDbLine
 62
7
  6
CONTINUOUS
 10
271.6801298881
 20
195.5526080244
 11
271.6730936593
 21
195.5497135892
  0
LWPOLYLINE
  5
4AC
100
AcDbEntity
  8
0
100
AcDbPolyline
 62
7
  6
CONTINUOUS
 90
8
 70
0
 10
271.6801670757
 20
195.55252924
 10
271.6393468776
 20
195.5380240571
 10
271.5813895802
 20
195.5259008458
 10
271.5199318446
 20
195.5220304859
 10
271.4564945989
 20
195.5266227507
 10
271.3915840828
 20
195.5397471947
 10
271.3246920586
 20
195.56133326
 10
271.2558180236
 20
195.5913806938
  0
LINE
  5
4AD
100
AcDbEntity
  8
0
100
AcDbLine
 62
7
  6
CONTINUOUS
 10
271.6730936593
 20
195.5497135892
 11
271.6200373348
 21
195.5329350966
  0
LINE
  5
4AE
100
AcDbEntity
  8
0
100
AcDbLine
 62
7
  6
CONTINUOUS
 10
271.6200373348
 20
195.5329350966
 11
271.5637252258
 21
195.5239748198
  0
LINE
  5
4AF
100
AcDbEntity
  8
0
100
AcDbLine
 62
7
  6
CONTINUOUS
 10
270.9299416701
 20
197.3887608969
 11
270.9915022999
 21
197.3926831578
  0
LINE
  5
4B0
100
AcDbEntity
  8
0
100
AcDbLine
 62
7
  6
CONTINUOUS
 10
282.1947474351
 20
201.7264981715
 11
281.4408389415
 21
202.1034524183
  0
LINE
  5
4B1
100
AcDbEntity
  8
0
100
AcDbLine
 62
250
  6
CONTINUOUS
 10
282.243165705
 20
201.8050208384
 11
281.4408389415
 21
202.2061842202
  0
LINE
  5
4B2
100
AcDbEntity
  8
0
100
AcDbLine
 62
250
  6
CONTINUOUS
 10
281.4408389415
 20
202.7817171199
 11
282.1698558454
 21
202.417208668
  0
LINE
  5
4B3
100
AcDbEntity
  8
0
100
AcDbLine
 62
250
  6
CONTINUOUS
 10
281.8187008229
 20
202.9860692255
 11
282.1259218626
 21
202.8324587056
  0
LINE
  5
4B4
100
AcDbEntity
  8
0
100
AcDbLine
 62
7
  6
CONTINUOUS
 10
293.0707709041
 20
198.5877576375
 11
293.9591555827
 21
198.1435652982
  0
LWPOLYLINE
  5
4B5
100
AcDbEntity
  8
0
100
AcDbPolyline
 62
250
  6
CONTINUOUS
 90
3
 70
0
 10
282.8018545859
 20
211.5252428114
 10
282.7946460631
 20
211.5439881584
 10
282.7895654589
 20
211.5645397401
  0
LWPOLYLINE
  5
4B6
100
AcDbEntity
  8
0
100
AcDbPolyline
 62
7
  6
CONTINUOUS
 90
13
 70
0
 10
288.2016499972
 20
226.0133543171
 10
288.1997913364
 20
226.0364312536
 10
288.19422586
 20
226.0590596429
 10
288.1849370658
 20
226.0812074651
 10
288.1716657629
 20
226.1032498396
 10
288.1546094989
 20
226.1246788503
 10
288.1344346223
 20
226.1441235286
 10
288.1111748346
 20
226.1612458452
 10
288.0847406529
 20
226.1761803501
 10
288.055633913
 20
226.1882814932
 10
288.0240252572
 20
226.1972638915
 10
287.98974987
 20
226.2031794299
 10
287.9528314522
 20
226.2058938028
  0
LWPOLYLINE
  5
4B7
100
AcDbEntity
  8
0
100
AcDbPolyline
 62
7
  6
CONTINUOUS
 90
13
 70
0
 10
290.9712580768
 20
227.1263110842
 10
290.9696284161
 20
227.1668729856
 10
290.9648519338
 20
227.205563377
 10
290.9570960871
 20
227.2422588703
 10
290.946527427
 20
227.276855605
 10
290.9333102077
 20
227.3092677421
 10
290.9176375718
 20
227.3393653125
 10
290.8998104105
 20
227.3669099848
 10
290.879998225
 20
227.3919404986
 10
290.8581891914
 20
227.414627069
 10
290.834505945
 20
227.4348945015
 10
290.809267716
 20
227.4525338155
 10
290.7827328402
 20
227.4674586625
  0
LINE
  5
4B8
100
AcDbEntity
  8
RACCORDO
100
AcDbLine
 62
250
  6
CONTINUOUS
 10
289.8970805307
 20
223.3837808519
 11
289.8970805307
 21
222.5001194975
  0
LINE
  5
4B9
100
AcDbEntity
  8
RACCORDO
100
AcDbLine
 62
250
  6
CONTINUOUS
 10
290.6554861293
 20
223.0045780526
 11
290.6554861293
 21
222.863109101
  0
LINE
  5
4BA
100
AcDbEntity
  8
0
100
AcDbLine
 62
250
  6
CONTINUOUS
 10
290.9126794331
 20
227.0556004061
 11
290.9126794331
 21
226.642188048
  0
LINE
  5
4BB
100
AcDbEntity
  8
0
100
AcDbLine
 62
7
  6
CONTINUOUS
 10
290.9712580768
 20
227.1263110842
 11
290.9712580768
 21
226.6786058697
  0
LINE
  5
4BC
100
AcDbEntity
  8
0
100
AcDbLine
 62
250
  6
CONTINUOUS
 10
292.1854716392
 20
223.5953938238
 11
292.1854716392
 21
223.9472172146
  0
LINE
  5
4BD
100
AcDbEntity
  8
0
100
AcDbLine
 62
7
  6
CONTINUOUS
 10
292.4447868082
 20
223.9139335908
 11
292.4442906843
 21
223.8920339735
  0
LINE
  5
4BE
100
AcDbEntity
  8
0
100
AcDbLine
 62
7
  6
CONTINUOUS
 10
289.3939064667
 20
197.056893121
 11
289.3548032285
 21
196.9110313599
  0
LWPOLYLINE
  5
4BF
100
AcDbEntity
  8
0
100
AcDbPolyline
 62
7
  6
CONTINUOUS
 90
8
 70
0
 10
284.4716541119
 20
179.1629903123
 10
284.4725986997
 20
179.1656406765
 10
284.4752109629
 20
179.1693993661
 10
284.4793708442
 20
179.173890535
 10
284.4849646642
 20
179.1791316915
 10
284.4918488833
 20
179.1852151306
 10
284.4999320318
 20
179.1918200318
 10
284.5091118568
 20
179.1988640713
  0
LINE
  5
4C0
100
AcDbEntity
  8
0
100
AcDbLine
 62
7
  6
CONTINUOUS
 10
288.4069134805
 20
197.3047947948
 11
289.400742703
 21
199.1504797488
  0
LWPOLYLINE
  5
4C1
100
AcDbEntity
  8
0
100
AcDbPolyline
 62
7
  6
CONTINUOUS
 90
9
 70
0
 10
282.1698558454
 20
188.474199667
 10
282.1585983317
 20
188.4618987562
 10
282.1491366211
 20
188.4504254392
 10
282.1413874673
 20
188.4398559531
 10
282.135193081
 20
188.4303060923
 10
282.1305264792
 20
188.4217549582
 10
282.1275135581
 20
188.4140663247
 10
282.1260894303
 20
188.4072572196
 10
282.1259312647
 20
188.404639078
  0
LINE
  5
4C2
100
AcDbEntity
  8
0
100
AcDbLine
 62
250
  6
CONTINUOUS
 10
293.0707709041
 20
201.0385432026
 11
293.5816474667
 21
201.3803047605
  0
LINE
  5
4C3
100
AcDbEntity
  8
0
100
AcDbLine
 62
7
  6
CONTINUOUS
 10
293.0707709041
 20
200.925624715
 11
293.5816474667
 21
201.2673873102
  0
LINE
  5
4C4
100
AcDbEntity
  8
0
100
AcDbLine
 62
7
  6
CONTINUOUS
 10
289.400742703
 20
199.1504797488
 11
293.9591555827
 21
201.7649799328
  0
LINE
  5
4C5
100
AcDbEntity
  8
0
100
AcDbLine
 62
7
  6
CONTINUOUS
 10
293.0707709041
 20
199.6861217085
 11
293.5816474667
 21
199.8830887541
  0
LINE
  5
4C6
100
AcDbEntity
  8
0
100
AcDbLine
 62
250
  6
CONTINUOUS
 10
293.0707709041
 20
199.6350108542
 11
293.5816474667
 21
199.8319778998
  0
LINE
  5
4C7
100
AcDbEntity
  8
0
100
AcDbLine
 62
7
  6
CONTINUOUS
 10
270.8718676788
 20
197.3765784714
 11
270.9299416701
 21
197.3887608969
  0
LINE
  5
4C8
100
AcDbEntity
  8
0
100
AcDbLine
 62
7
  6
CONTINUOUS
 10
282.4533175079
 20
205.4329105888
 11
282.1698558454
 21
205.5746414201
  0
LINE
  5
4C9
100
AcDbEntity
  8
0
100
AcDbLine
 62
7
  6
CONTINUOUS
 10
282.3396930798
 20
205.772132618
 11
282.3213320417
 21
205.7813131371
  0
LWPOLYLINE
  5
4CA
100
AcDbEntity
  8
0
100
AcDbPolyline
 62
250
  6
CONTINUOUS
 90
5
 70
0
 10
282.1418920695
 20
210.1603287802
 10
282.1321820779
 20
210.1699377704
 10
282.122429255
 20
210.1764628609
 10
282.112793313
 20
210.1797971995
 10
282.1045618536
 20
210.1800506388
  0
LWPOLYLINE
  5
4CB
100
AcDbEntity
  8
0
100
AcDbPolyline
 62
250
  6
CONTINUOUS
 90
9
 70
0
 10
282.0753469359
 20
211.8204227969
 10
282.101890199
 20
211.7905691696
 10
282.1266264098
 20
211.7585759385
 10
282.1495039545
 20
211.7243646314
 10
282.1705744469
 20
211.6880137205
 10
282.1891536011
 20
211.6507146496
 10
282.2051531789
 20
211.6124675197
 10
282.2186614186
 20
211.5732722299
 10
282.2292587482
 20
211.5343199211
  0
LWPOLYLINE
  5
4CC
100
AcDbEntity
  8
0
100
AcDbPolyline
 62
250
  6
CONTINUOUS
 90
6
 70
0
 10
282.8106078246
 20
211.4993610648
 10
282.8009666493
 20
211.5129870058
 10
282.7933033856
 20
211.5289443319
 10
282.7877405013
 20
211.546977781
 10
282.7843668526
 20
211.5667989659
 10
282.7832363015
 20
211.5880909095
  0
LWPOLYLINE
  5
4CD
100
AcDbEntity
  8
0
100
AcDbPolyline
 62
7
  6
CONTINUOUS
 90
7
 70
0
 10
292.4783148518
 20
223.943152103
 10
292.4772635461
 20
223.9594226431
 10
292.4750631135
 20
223.9717450371
 10
292.4719821784
 20
223.9801074347
 10
292.4682444092
 20
223.9844285184
 10
292.4640931568
 20
223.9847866938
 10
292.4635094861
 20
223.9845405631
  0
LWPOLYLINE
  5
4CE
100
AcDbEntity
  8
DRAFT
100
AcDbPolyline
 62
7
  6
CONTINUOUS
 90
5
 70
0
 10
293.9885939312
 20
215.243584476
 10
293.9854478362
 20
215.3593020709
 10
293.9763834727
 20
215.4765094576
 10
293.9614008406
 20
215.5952066362
 10
293.9591555827
 20
215.6081018021
  0
LINE
  5
4CF
100
AcDbEntity
  8
0
100
AcDbLine
 62
7
  6
CONTINUOUS
 10
292.478343891
 20
223.9382584584
 11
292.4783148518
 21
223.943152103
  0
LINE
  5
4D0
100
AcDbEntity
  8
0
100
AcDbLine
 62
7
  6
CONTINUOUS
 10
292.4442906843
 20
223.812363125
 11
292.4442906843
 21
223.8920339735
  0
LINE
  5
4D1
100
AcDbEntity
  8
0
100
AcDbLine
 62
7
  6
CONTINUOUS
 10
293.0707709041
 20
198.6664141459
 11
293.0707709041
 21
201.2554425199
  0
LINE
  5
4D2
100
AcDbEntity
  8
RACCORDO
100
AcDbLine
 62
7
  6
CONTINUOUS
 10
293.5816474667
 20
201.5484582915
 11
293.5816474667
 21
198.3323193562
  0
LINE
  5
4D3
100
AcDbEntity
  8
SMUSSO
100
AcDbLine
 62
7
  6
CONTINUOUS
 10
293.586626831
 20
201.5513142304
 11
293.586626831
 21
198.329829674
  0
LINE
  5
4D4
100
AcDbEntity
  8
0
100
AcDbLine
 62
7
  6
CONTINUOUS
 10
293.9591555827
 20
184.1634692429
 11
293.9591555827
 21
198.1435652982
  0
LINE
  5
4D5
100
AcDbEntity
  8
0
100
AcDbLine
 62
7
  6
CONTINUOUS
 10
293.9591555827
 20
201.7649799328
 11
293.9591555827
 21
215.7450759881
  0
LINE
  5
4D6
100
AcDbEntity
  8
DRAFT
100
AcDbLine
 62
7
  6
CONTINUOUS
 10
293.9885939312
 20
184.6355224064
 11
293.9885939312
 21
215.243584476
  0
LWPOLYLINE
  5
4D7
100
AcDbEntity
  8
0
100
AcDbPolyline
 62
250
  6
CONTINUOUS
 90
7
 70
0
 10
286.0088245238
 20
175.73588399
 10
286.0166233272
 20
175.7606113923
 10
286.0218557825
 20
175.7860958122
 10
286.0244333513
 20
175.8119060286
 10
286.0243124189
 20
175.8376053077
 10
286.0214950314
 20
175.862758793
 10
286.0160288619
 20
175.886940863
  0
LWPOLYLINE
  5
4D8
100
AcDbEntity
  8
0
100
AcDbPolyline
 62
250
  6
CONTINUOUS
 90
3
 70
0
 10
281.4000537019
 20
175.1620266465
 10
281.3886506487
 20
175.136273967
 10
281.3860926403
 20
175.1315903954
  0
LWPOLYLINE
  5
4D9
100
AcDbEntity
  8
0
100
AcDbPolyline
 62
7
  6
CONTINUOUS
 90
7
 70
0
 10
281.3857338136
 20
175.1309684986
 10
281.3947987662
 20
175.1479316457
 10
281.4133496677
 20
175.190671837
 10
281.4272140528
 20
175.2358965622
 10
281.4362649233
 20
175.2831863642
 10
281.4404972129
 20
175.3321861543
 10
281.4408389414
 20
175.3508986706
  0
LINE
  5
4DA
100
AcDbEntity
  8
0
100
AcDbLine
 62
7
  6
CONTINUOUS
 10
284.4716541118
 20
192.3078863768
 11
283.3926623629
 21
191.764230303
  0
LINE
  5
4DB
100
AcDbEntity
  8
0
100
AcDbLine
 62
250
  6
CONTINUOUS
 10
293.0707709041
 20
199.0574211442
 11
293.5816474667
 21
199.3063393582
  0
LINE
  5
4DC
100
AcDbEntity
  8
0
100
AcDbLine
 62
250
  6
CONTINUOUS
 10
293.0707709041
 20
198.6664141459
 11
293.5816474667
 21
198.9153323599
  0
LINE
  5
4DD
100
AcDbEntity
  8
0
100
AcDbLine
 62
7
  6
CONTINUOUS
 10
282.1992317222
 20
192.8025663141
 11
281.4408389415
 21
192.4460037169
  0
LINE
  5
4DE
100
AcDbEntity
  8
0
100
AcDbLine
 62
250
  6
CONTINUOUS
 10
282.1992317222
 20
192.7676100874
 11
281.4408389415
 21
192.4173591689
  0
LINE
  5
4DF
100
AcDbEntity
  8
0
100
AcDbLine
 62
250
  6
CONTINUOUS
 10
282.1992317222
 20
192.3035548875
 11
281.4408389415
 21
191.9533039691
  0
LINE
  5
4E0
100
AcDbEntity
  8
0
100
AcDbLine
 62
7
  6
CONTINUOUS
 10
289.1847690213
 20
196.8912968575
 11
288.7246626212
 21
196.6869854778
  0
LINE
  5
4E1
100
AcDbEntity
  8
0
100
AcDbLine
 62
7
  6
CONTINUOUS
 10
293.0707709041
 20
198.5877576375
 11
289.3629105693
 21
196.9412731266
  0
LINE
  5
4E2
100
AcDbEntity
  8
0
100
AcDbLine
 62
7
  6
CONTINUOUS
 10
289.3114409848
 20
196.9184179309
 11
289.2156231582
 21
196.8758697891
  0
LINE
  5
4E3
100
AcDbEntity
  8
0
100
AcDbLine
 62
7
  6
CONTINUOUS
 10
293.9591555827
 20
198.1435652982
 11
289.400742703
 21
196.1193908356
  0
LINE
  5
4E4
100
AcDbEntity
  8
0
100
AcDbLine
 62
7
  6
CONTINUOUS
 10
283.8052729786
 20
206.7748408212
 11
284.4726668812
 21
206.4411438699
  0
LINE
  5
4E5
100
AcDbEntity
  8
0
100
AcDbLine
 62
250
  6
CONTINUOUS
 10
283.7523870509
 20
206.8834692265
 11
284.5302327556
 21
206.4945463742
  0
LINE
  5
4E6
100
AcDbEntity
  8
0
100
AcDbLine
 62
250
  6
CONTINUOUS
 10
284.5952175522
 20
206.6753317991
 11
283.6863991456
 21
207.1297410025
  0
LINE
  5
4E7
100
AcDbEntity
  8
0
100
AcDbLine
 62
250
  6
CONTINUOUS
 10
284.7274560954
 20
207.0696939929
 11
283.8874290471
 21
207.489707517
  0
LINE
  5
4E8
100
AcDbEntity
  8
0
100
AcDbLine
 62
250
  6
CONTINUOUS
 10
278.9666359002
 20
210.7080119309
 11
264.1417898226
 21
218.1204349697
  0
LINE
  5
4E9
100
AcDbEntity
  8
0
100
AcDbLine
 62
7
  6
CONTINUOUS
 10
281.8765423653
 20
210.1128420423
 11
281.4408389415
 21
210.3306937542
  0
LINE
  5
4EA
100
AcDbEntity
  8
0
100
AcDbLine
 62
7
  6
CONTINUOUS
 10
286.3352196004
 20
207.9331121252
 11
285.5740232351
 21
208.3137103078
  0
LINE
  5
4EB
100
AcDbEntity
  8
0
100
AcDbLine
 62
7
  6
CONTINUOUS
 10
285.4678388057
 20
208.3668025225
 11
285.4761588485
 21
208.3626425011
  0
LWPOLYLINE
  5
4EC
100
AcDbEntity
  8
0
100
AcDbPolyline
 62
250
  6
CONTINUOUS
 90
7
 70
0
 10
283.6863991456
 20
207.1297410025
 10
283.6748551022
 20
207.1356895506
 10
283.6633775039
 20
207.1419210244
 10
283.6519663508
 20
207.1484354241
 10
283.6406216428
 20
207.1552327494
 10
283.6293433799
 20
207.1623130006
 10
283.6181315622
 20
207.1696761774
  0
LWPOLYLINE
  5
4ED
100
AcDbEntity
  8
0
100
AcDbPolyline
 62
250
  6
CONTINUOUS
 90
10
 70
0
 10
283.8874290471
 20
207.489707517
 10
283.8672988067
 20
207.5005331623
 10
283.8473077048
 20
207.5130899673
 10
283.8275559473
 20
207.5273192341
 10
283.8081405152
 20
207.5431582813
 10
283.7891643643
 20
207.5605281879
 10
283.7707350692
 20
207.579330964
 10
283.7529513728
 20
207.5994684862
 10
283.7359035399
 20
207.6208461096
 10
283.7196819973
 20
207.643358409
  0
LWPOLYLINE
  5
4EE
100
AcDbEntity
  8
0
100
AcDbPolyline
 62
250
  6
CONTINUOUS
 90
4
 70
0
 10
281.1780264221
 20
212.9404515234
 10
281.1990669866
 20
212.9243188291
 10
281.2188179162
 20
212.9075324182
 10
281.2372945321
 20
212.8902484591
  0
LINE
  5
4EF
100
AcDbEntity
  8
0
100
AcDbLine
 62
250
  6
CONTINUOUS
 10
282.047835748
 20
211.8471807928
 11
282.0753469359
 21
211.8204227969
  0
LWPOLYLINE
  5
4F0
100
AcDbEntity
  8
0
100
AcDbPolyline
 62
250
  6
CONTINUOUS
 90
20
 70
0
 10
281.2372945321
 20
212.8902484591
 10
281.25451638
 20
212.8726204002
 10
281.2705465671
 20
212.8547138793
 10
281.2854275584
 20
212.8366371846
 10
281.2991872869
 20
212.8185160105
 10
281.3118658903
 20
212.8004164975
 10
281.3235030085
 20
212.7824404273
 10
281.3341553264
 20
212.7646651907
 10
281.3438845652
 20
212.7471013143
 10
281.3527264408
 20
212.7298379826
 10
281.3607459642
 20
212.7129140027
 10
281.3680319953
 20
212.696244261
 10
281.3746203634
 20
212.6798756943
 10
281.3805554705
 20
212.6638441906
 10
281.3859132694
 20
212.6480306428
 10
281.3907195492
 20
212.6324623193
 10
281.395004372
 20
212.6171653297
 10
281.398823676
 20
212.6020073191
 10
281.4021915549
 20
212.587006255
 10
281.4051256421
 20
212.5721804146
  0
LWPOLYLINE
  5
4F1
100
AcDbEntity
  8
0
100
AcDbPolyline
 62
250
  6
CONTINUOUS
 90
7
 70
0
 10
286.0088245238
 20
216.9604881294
 10
286.0166230879
 20
216.9462729521
 10
286.021855512
 20
216.9334735713
 10
286.0244332174
 20
216.922306579
 10
286.0243125422
 20
216.9129609584
 10
286.0214954827
 20
216.905594867
 10
286.0205119339
 20
216.9042458649
  0
LWPOLYLINE
  5
4F2
100
AcDbEntity
  8
0
100
AcDbPolyline
 62
250
  6
CONTINUOUS
 90
12
 70
0
 10
297.8781719846
 20
223.3339094559
 10
297.8767615937
 20
223.2916454167
 10
297.8708005521
 20
223.2387666393
 10
297.8603950327
 20
223.189296551
 10
297.8457338057
 20
223.1430408522
 10
297.8271404631
 20
223.1003761026
 10
297.8049848198
 20
223.0615983911
 10
297.7795182324
 20
223.0266228718
 10
297.7509143947
 20
222.9952326885
 10
297.7193897477
 20
222.9674100834
 10
297.6852523844
 20
222.9433237809
 10
297.6487724775
 20
222.9230287622
  0
LWPOLYLINE
  5
4F3
100
AcDbEntity
  8
DRAFT
100
AcDbPolyline
 62
7
  6
CONTINUOUS
 90
5
 70
0
 10
293.9591555827
 20
184.3004434289
 10
293.9614008406
 20
184.3110933368
 10
293.9763834727
 20
184.4148078834
 10
293.9854478362
 20
184.5229509066
 10
293.9885939312
 20
184.6355224064
  0
LINE
  5
4F4
100
AcDbEntity
  8
0
100
AcDbLine
 62
250
  6
CONTINUOUS
 10
281.4127312776
 20
175.2875083487
 11
281.3119922843
 21
175.1088862313
  0
LINE
  5
4F5
100
AcDbEntity
  8
0
100
AcDbLine
 62
7
  6
CONTINUOUS
 10
281.3860736724
 20
175.1315567629
 11
281.3168395106
 21
175.0087964278
  0
LWPOLYLINE
  5
4F6
100
AcDbEntity
  8
RACCORDO
100
AcDbPolyline
 62
7
  6
CONTINUOUS
 90
7
 70
0
 10
308.4506017848
 20
217.0561532479
 10
308.4655999003
 20
217.0804373682
 10
308.4817760556
 20
217.1036116985
 10
308.4991302508
 20
217.1256762388
 10
308.5176624857
 20
217.146630989
 10
308.5373727604
 20
217.1664759492
 10
308.558261075
 20
217.1852111194
  0
LWPOLYLINE
  5
4F7
100
AcDbEntity
  8
0
100
AcDbPolyline
 62
7
  6
CONTINUOUS
 90
9
 70
0
 10
282.243165705
 20
181.2802187687
 10
282.2318509834
 20
181.2678451083
 10
282.2223696413
 20
181.2563407196
 10
282.2146275737
 20
181.245775917
 10
282.2084643577
 20
181.2362656055
 10
282.2038342469
 20
181.2277711993
 10
282.2008376826
 20
181.2201314676
 10
282.199404814
 20
181.2133622914
 10
282.19923609
 20
181.2106616579
  0
LINE
  5
4F8
100
AcDbEntity
  8
0
100
AcDbLine
 62
7
  6
CONTINUOUS
 10
284.4072970462
 20
191.6180246168
 11
284.1598096727
 21
191.4889901447
  0
LINE
  5
4F9
100
AcDbEntity
  8
0
100
AcDbLine
 62
250
  6
CONTINUOUS
 10
282.0429142536
 20
188.4349386611
 11
281.4408389415
 21
188.1315796218
  0
LINE
  5
4FA
100
AcDbEntity
  8
0
100
AcDbLine
 62
250
  6
CONTINUOUS
 10
282.1259218626
 20
188.0040769566
 11
281.4408389415
 21
187.6588940657
  0
LINE
  5
4FB
100
AcDbEntity
  8
0
100
AcDbLine
 62
7
  6
CONTINUOUS
 10
284.4072970462
 20
190.797348802
 11
284.1598096727
 21
190.6788959006
  0
LINE
  5
4FC
100
AcDbEntity
  8
0
100
AcDbLine
 62
250
  6
CONTINUOUS
 10
281.4408389415
 20
189.5688469751
 11
282.1992317222
 21
189.9216618053
  0
LINE
  5
4FD
100
AcDbEntity
  8
0
100
AcDbLine
 62
7
  6
CONTINUOUS
 10
281.4408389415
 20
189.4428225238
 11
282.1992317222
 21
189.7956373541
  0
LWPOLYLINE
  5
4FE
100
AcDbEntity
  8
0
100
AcDbPolyline
 62
250
  6
CONTINUOUS
 90
7
 70
0
 10
282.3390877158
 20
210.1388822505
 10
282.3136675056
 20
210.1491879876
 10
282.2879076614
 20
210.1573140678
 10
282.2617929368
 20
210.1632302782
 10
282.234223503
 20
210.1669094305
 10
282.2048084067
 20
210.1679367604
 10
282.1739935868
 20
210.165871767
  0
LWPOLYLINE
  5
4FF
100
AcDbEntity
  8
0
100
AcDbPolyline
 62
250
  6
CONTINUOUS
 90
6
 70
0
 10
282.0437878732
 20
210.1368948042
 10
282.0253927132
 20
210.1446549815
 10
282.0071012949
 20
210.1492277038
 10
281.9892262868
 20
210.1505348062
 10
281.9720732357
 20
210.1485539439
 10
281.9595835888
 20
210.1448232391
  0
LWPOLYLINE
  5
500
100
AcDbEntity
  8
0
100
AcDbPolyline
 62
250
  6
CONTINUOUS
 90
7
 70
0
 10
282.8224871109
 20
209.8975015343
 10
282.8048141824
 20
209.904957957
 10
282.7806553106
 20
209.9112237504
 10
282.7547471813
 20
209.9137053034
 10
282.727317677
 20
209.9122192505
 10
282.6986144905
 20
209.9066213983
 10
282.6689261282
 20
209.8968117631
  0
LWPOLYLINE
  5
501
100
AcDbEntity
  8
0
100
AcDbPolyline
 62
250
  6
CONTINUOUS
 90
6
 70
0
 10
282.8571417804
 20
211.4702961298
 10
282.8492024673
 20
211.4737727692
 10
282.8349402766
 20
211.4826607407
 10
282.8221635875
 20
211.4943327
 10
282.8110761007
 20
211.5086025591
 10
282.8018545859
 20
211.5252428114
  0
LWPOLYLINE
  5
502
100
AcDbEntity
  8
0
100
AcDbPolyline
 62
7
  6
CONTINUOUS
 90
7
 70
0
 10
282.352335846
 20
210.1325758702
 10
282.3259182014
 20
210.1449072722
 10
282.2814280498
 20
210.1617520699
 10
282.2368600177
 20
210.1737379316
 10
282.1925089658
 20
210.1807908928
 10
282.1477729946
 20
210.18293646
 10
282.1045617959
 20
210.1800506317
  0
LINE
  5
503
100
AcDbEntity
  8
0
100
AcDbLine
 62
250
  6
CONTINUOUS
 10
282.3522059693
 20
210.1326421046
 11
282.3390877158
 21
210.1388822505
  0
LWPOLYLINE
  5
504
100
AcDbEntity
  8
0
100
AcDbPolyline
 62
7
  6
CONTINUOUS
 90
5
 70
0
 10
282.8353158972
 20
211.479874255
 10
282.8370747121
 20
211.4790037365
 10
282.8442612375
 20
211.4756300864
 10
282.8514998983
 20
211.472522253
 10
282.8571417804
 20
211.4702961298
  0
LINE
  5
505
100
AcDbEntity
  8
0
100
AcDbLine
 62
250
  6
CONTINUOUS
 10
281.9943905694
 20
210.1566497422
 11
281.4408389415
 21
210.4334255561
  0
LINE
  5
506
100
AcDbEntity
  8
0
100
AcDbLine
 62
250
  6
CONTINUOUS
 10
282.1418920891
 20
210.1603287827
 11
282.6689260962
 21
209.8968117791
  0
LINE
  5
507
100
AcDbEntity
  8
0
100
AcDbLine
 62
250
  6
CONTINUOUS
 10
281.4408389415
 20
210.8050684922
 11
282.243165705
 21
210.4039051104
  0
LINE
  5
508
100
AcDbEntity
  8
0
100
AcDbLine
 62
250
  6
CONTINUOUS
 10
281.4408389415
 20
211.1977331536
 11
282.1992317222
 21
210.8185367632
  0
LINE
  5
509
100
AcDbEntity
  8
0
100
AcDbLine
 62
250
  6
CONTINUOUS
 10
279.9825742934
 20
212.4481298952
 11
265.1343558326
 21
219.8722391256
  0
LINE
  5
50A
100
AcDbEntity
  8
0
100
AcDbLine
 62
7
  6
CONTINUOUS
 10
285.9629319648
 20
209.5181442787
 11
285.6800892523
 21
209.659565635
  0
LINE
  5
50B
100
AcDbEntity
  8
0
100
AcDbLine
 62
7
  6
CONTINUOUS
 10
281.4408389415
 20
212.1060332942
 11
281.9993177412
 21
211.8267938944
  0
LINE
  5
50C
100
AcDbEntity
  8
0
100
AcDbLine
 62
250
  6
CONTINUOUS
 10
281.4408389415
 20
212.1676723749
 11
281.9603337623
 21
211.9079249649
  0
LINE
  5
50D
100
AcDbEntity
  8
0
100
AcDbLine
 62
7
  6
CONTINUOUS
 10
282.6386456874
 20
211.5782007751
 11
282.835214945
 21
211.4799161463
  0
LINE
  5
50E
100
AcDbEntity
  8
0
100
AcDbLine
 62
250
  6
CONTINUOUS
 10
282.4771225387
 20
211.7411477909
 11
282.7867186983
 21
211.5863497111
  0
LINE
  5
50F
100
AcDbEntity
  8
0
100
AcDbLine
 62
7
  6
CONTINUOUS
 10
266.0769972135
 20
220.42188539
 11
280.9587080183
 21
212.9810299876
  0
LINE
  5
510
100
AcDbEntity
  8
0
100
AcDbLine
 62
250
  6
CONTINUOUS
 10
266.3831550365
 20
220.3440963084
 11
281.0804997654
 21
212.9954239439
  0
LINE
  5
511
100
AcDbEntity
  8
0
100
AcDbLine
 62
7
  6
CONTINUOUS
 10
266.444614227
 20
220.3320840342
 11
281.1421104152
 21
212.9833360824
  0
LINE
  5
512
100
AcDbEntity
  8
0
100
AcDbLine
 62
250
  6
CONTINUOUS
 10
282.2570254487
 20
212.4705642659
 11
270.0112699639
 21
218.5934420083
  0
LINE
  5
513
100
AcDbEntity
  8
0
100
AcDbLine
 62
7
  6
CONTINUOUS
 10
283.7681837932
 20
211.7824140879
 11
284.6451111177
 21
211.3439504256
  0
LINE
  5
514
100
AcDbEntity
  8
0
100
AcDbLine
 62
250
  6
CONTINUOUS
 10
283.751236114
 20
211.9141660898
 11
284.5953094868
 21
211.4921294033
  0
LINE
  5
515
100
AcDbEntity
  8
0
100
AcDbLine
 62
7
  6
CONTINUOUS
 10
282.8226096277
 20
209.8974402053
 11
282.3522267839
 21
210.1326316978
  0
LINE
  5
516
100
AcDbEntity
  8
0
100
AcDbLine
 62
7
  6
CONTINUOUS
 10
281.1421808165
 20
212.983300851
 11
281.1421104152
 21
212.9833360824
  0
LWPOLYLINE
  5
517
100
AcDbEntity
  8
0
100
AcDbPolyline
 62
7
  6
CONTINUOUS
 90
18
 70
0
 10
281.9993502618
 20
211.826776307
 10
282.0024481372
 20
211.8251892575
 10
282.0186751493
 20
211.8156644738
 10
282.0363321824
 20
211.8031115745
 10
282.0546978936
 20
211.7876903889
 10
282.0732942598
 20
211.769544195
 10
282.0917505453
 20
211.7488166
 10
282.1096404661
 20
211.7257979935
 10
282.126621654
 20
211.7007729466
 10
282.142357757
 20
211.6741118542
 10
282.1565343412
 20
211.6462693025
 10
282.168930066
 20
211.6176439032
 10
282.1793324616
 20
211.5887409558
 10
282.1875571296
 20
211.560228667
 10
282.1935714877
 20
211.5325590843
 10
282.197387345
 20
211.5062471317
 10
282.1990903561
 20
211.4820524049
 10
282.199231818
 20
211.4731759426
  0
LWPOLYLINE
  5
518
100
AcDbEntity
  8
0
100
AcDbPolyline
 62
7
  6
CONTINUOUS
 90
10
 70
0
 10
282.6386549672
 20
211.5781961359
 10
282.6281327404
 20
211.5837685968
 10
282.6080210057
 20
211.5961283303
 10
282.5879879114
 20
211.6107074217
 10
282.5681919254
 20
211.6273955483
 10
282.5486836594
 20
211.6461522779
 10
282.5296706896
 20
211.6669792425
 10
282.5113365831
 20
211.6898439568
 10
282.4937809055
 20
211.7146132288
 10
282.4771225387
 20
211.7411477909
  0
LWPOLYLINE
  5
519
100
AcDbEntity
  8
0
100
AcDbPolyline
 62
250
  6
CONTINUOUS
 90
13
 70
0
 10
284.5952876192
 20
211.4944040489
 10
284.6145409409
 20
211.4841893949
 10
284.6357968629
 20
211.4751749139
 10
284.6587135178
 20
211.4676816421
 10
284.682929957
 20
211.4621580294
 10
284.7080510169
 20
211.4587393901
 10
284.7336448697
 20
211.4570706907
 10
284.7592811293
 20
211.4569772198
 10
284.7845442023
 20
211.4586320377
 10
284.8090174469
 20
211.4620078781
 10
284.8322972557
 20
211.4670490889
 10
284.8539997099
 20
211.4736725546
 10
284.8737668878
 20
211.4817690645
  0
LWPOLYLINE
  5
51A
100
AcDbEntity
  8
0
100
AcDbPolyline
 62
250
  6
CONTINUOUS
 90
4
 70
0
 10
281.9603337623
 20
211.9079249649
 10
281.9904690157
 20
211.8907725389
 10
282.0196363443
 20
211.8705244816
 10
282.047835748
 20
211.8471807928
  0
LWPOLYLINE
  5
51B
100
AcDbEntity
  8
0
100
AcDbPolyline
 62
250
  6
CONTINUOUS
 90
7
 70
0
 10
282.243165705
 20
211.4201120223
 10
282.2302951582
 20
211.427444665
 10
282.2194371321
 20
211.4355506018
 10
282.2107753549
 20
211.4442926724
 10
282.2044563922
 20
211.4535229526
 10
282.2005871669
 20
211.4630852571
 10
282.1992317222
 20
211.4731450309
  0
LWPOLYLINE
  5
51C
100
AcDbEntity
  8
0
100
AcDbPolyline
 62
250
  6
CONTINUOUS
 90
3
 70
0
 10
282.8352086148
 20
211.4799193117
 10
282.8220727567
 20
211.488284523
 10
282.8106078246
 20
211.4993610648
  0
LWPOLYLINE
  5
51D
100
AcDbEntity
  8
0
100
AcDbPolyline
 62
7
  6
CONTINUOUS
 90
8
 70
0
 10
283.7681929003
 20
211.7824095344
 10
283.7677059321
 20
211.7827973623
 10
283.7663275882
 20
211.7853289277
 10
283.7649546888
 20
211.789947234
 10
283.7636490331
 20
211.7965492696
 10
283.7622779318
 20
211.8051339528
 10
283.7608255448
 20
211.815681945
 10
283.7593847933
 20
211.8280184938
  0
LINE
  5
51E
100
AcDbEntity
  8
0
100
AcDbLine
 62
7
  6
CONTINUOUS
 10
298.3803724212
 20
223.7038426652
 11
298.3830824176
 21
223.6558333409
  0
LWPOLYLINE
  5
51F
100
AcDbEntity
  8
0
100
AcDbPolyline
 62
7
  6
CONTINUOUS
 90
8
 70
0
 10
297.8781728771
 20
223.333767817
 10
297.8767930478
 20
223.3850593264
 10
297.87138431
 20
223.4484688031
 10
297.8618708217
 20
223.5133636448
 10
297.8482832151
 20
223.5795588946
 10
297.8306349318
 20
223.6468106478
 10
297.8088933589
 20
223.7149550893
 10
297.7839259521
 20
223.7816318054
  0
LWPOLYLINE
  5
520
100
AcDbEntity
  8
0
100
AcDbPolyline
 62
250
  6
CONTINUOUS
 90
10
 70
0
 10
297.6487724775
 20
222.9230287622
 10
297.648360678
 20
222.9423608627
 10
297.6465954708
 20
222.9622124251
 10
297.6434902855
 20
222.9824324254
 10
297.6390687456
 20
223.0028670364
 10
297.6333644887
 20
223.023360799
 10
297.6264209096
 20
223.0437578047
 10
297.6182908322
 20
223.0639028805
 10
297.6090361076
 20
223.0836427693
 10
297.5987271426
 20
223.1028272968
  0
LINE
  5
521
100
AcDbEntity
  8
0
100
AcDbLine
 62
250
  6
CONTINUOUS
 10
297.6487724775
 20
222.9230287622
 11
297.6487724775
 21
222.2951905444
  0
LINE
  5
522
100
AcDbEntity
  8
0
100
AcDbLine
 62
250
  6
CONTINUOUS
 10
299.1689336861
 20
224.6675929036
 11
299.1689336861
 21
224.3462686214
  0
LINE
  5
523
100
AcDbEntity
  8
0
100
AcDbLine
 62
7
  6
CONTINUOUS
 10
297.8781721157
 20
223.3342732306
 11
297.8781721182
 21
222.5818556232
  0
LWPOLYLINE
  5
524
100
AcDbEntity
  8
0
100
AcDbPolyline
 62
7
  6
CONTINUOUS
 90
9
 70
0
 10
282.2469340126
 20
175.5056561768
 10
282.2390998035
 20
175.4954865572
 10
282.2251357449
 20
175.4745308422
 10
282.212951216
 20
175.4520952214
 10
282.2027075914
 20
175.4283026157
 10
282.194805566
 20
175.4040610247
 10
282.1892460842
 20
175.37961007
 10
282.1859595227
 20
175.3544347923
 10
282.1850970599
 20
175.3334090163
  0
LWPOLYLINE
  5
525
100
AcDbEntity
  8
0
100
AcDbPolyline
 62
250
  6
CONTINUOUS
 90
19
 70
0
 10
282.3317553177
 20
175.4945640893
 10
282.3243141383
 20
175.4852305591
 10
282.3169041446
 20
175.4752883232
 10
282.309566164
 20
175.4647352577
 10
282.302329718
 20
175.4535503793
 10
282.2952577717
 20
175.4417635948
 10
282.2884391779
 20
175.4294621059
 10
282.28191894
 20
175.4166690951
 10
282.2757441105
 20
175.4034137659
 10
282.2699937673
 20
175.389808896
 10
282.2647075711
 20
175.375896151
 10
282.2599251782
 20
175.3617214623
 10
282.255707134
 20
175.347414674
 10
282.2520813013
 20
175.3330295229
 10
282.24907374
 20
175.3186207885
 10
282.2467194232
 20
175.3043224778
 10
282.2450319633
 20
175.2902153125
 10
282.2440152891
 20
175.2763282624
 10
282.2436755349
 20
175.2627156331
  0
LINE
  5
526
100
AcDbEntity
  8
0
100
AcDbLine
 62
7
  6
CONTINUOUS
 10
282.8806402708
 20
176.2898260136
 11
282.2469105926
 21
175.5056274891
  0
LINE
  5
527
100
AcDbEntity
  8
0
100
AcDbLine
 62
250
  6
CONTINUOUS
 10
282.9396739808
 20
176.2468231913
 11
282.3317553177
 21
175.4945640893
  0
LINE
  5
528
100
AcDbEntity
  8
0
100
AcDbLine
 62
7
  6
CONTINUOUS
 10
282.1259218626
 20
186.4497259307
 11
281.4408389415
 21
186.1621559476
  0
LWPOLYLINE
  5
529
100
AcDbEntity
  8
0
100
AcDbPolyline
 62
7
  6
CONTINUOUS
 90
6
 70
0
 10
282.9047884046
 20
211.4580470561
 10
282.9295466312
 20
211.4559146057
 10
282.9544980182
 20
211.4565080101
 10
282.9792434983
 20
211.459789061
 10
283.0034314483
 20
211.4656431529
 10
283.0271248979
 20
211.4740393363
  0
LINE
  5
52A
100
AcDbEntity
  8
0
100
AcDbLine
 62
7
  6
CONTINUOUS
 10
282.8797270869
 20
211.4630839932
 11
282.9047884046
 21
211.4580470561
  0
LINE
  5
52B
100
AcDbEntity
  8
0
100
AcDbLine
 62
7
  6
CONTINUOUS
 10
282.8574319759
 20
211.4701889248
 11
282.8797270869
 21
211.4630839932
  0
LINE
  5
52C
100
AcDbEntity
  8
0
100
AcDbLine
 62
7
  6
CONTINUOUS
 10
282.8574311998
 20
211.4701868529
 11
282.8571417804
 21
211.4702961298
  0
LWPOLYLINE
  5
52D
100
AcDbEntity
  8
0
100
AcDbPolyline
 62
7
  6
CONTINUOUS
 90
8
 70
0
 10
284.6451055879
 20
211.3439532463
 10
284.667311579
 20
211.3344788322
 10
284.6923456833
 20
211.3273408073
 10
284.7180911002
 20
211.3235149638
 10
284.7441125726
 20
211.3230647101
 10
284.7699685199
 20
211.3259964214
 10
284.7952194274
 20
211.3322583788
 10
284.8107324738
 20
211.3379115271
  0
LWPOLYLINE
  5
52E
100
AcDbEntity
  8
0
100
AcDbPolyline
 62
250
  6
CONTINUOUS
 90
4
 70
0
 10
266.444614227
 20
220.3320840342
 10
266.4339547037
 20
220.3367238657
 10
266.4094643676
 20
220.3429795273
 10
266.3831550365
 20
220.3440963084
  0
LWPOLYLINE
  5
52F
100
AcDbEntity
  8
0
100
AcDbPolyline
 62
250
  6
CONTINUOUS
 90
4
 70
0
 10
281.1421104152
 20
212.9833360824
 10
281.1313001849
 20
212.9880512188
 10
281.1068095611
 20
212.9943070955
 10
281.0804997654
 20
212.9954239439
  0
LWPOLYLINE
  5
530
100
AcDbEntity
  8
0
100
AcDbPolyline
 62
250
  6
CONTINUOUS
 90
13
 70
0
 10
284.5953094868
 20
211.4965492422
 10
284.6146326695
 20
211.488057615
 10
284.6359760244
 20
211.4808764202
 10
284.6589864169
 20
211.4751244748
 10
284.6832831305
 20
211.4708969481
 10
284.708464165
 20
211.4682637875
 10
284.7341128871
 20
211.467268561
 10
284.7598049271
 20
211.4679277349
 10
284.7851151976
 20
211.4702304038
 10
284.8096249258
 20
211.47413847
 10
284.832928586
 20
211.4795872727
 10
284.8546406087
 20
211.4864866583
 10
284.8744017582
 20
211.4947224728
  0
LWPOLYLINE
  5
531
100
AcDbEntity
  8
0
100
AcDbPolyline
 62
250
  6
CONTINUOUS
 90
11
 70
0
 10
270.1849614805
 20
218.8967611426
 10
270.1319068338
 20
218.9206458966
 10
270.0791614146
 20
218.9395597072
 10
270.0270234288
 20
218.9533988082
 10
269.9757897407
 20
218.9620888535
 10
269.9257469903
 20
218.9655816779
 10
269.8771700094
 20
218.9638554447
 10
269.8303310348
 20
218.9569203135
 10
269.7854947202
 20
218.9448165635
 10
269.7429094197
 20
218.9276107021
 10
269.7262001333
 20
218.9191268412
  0
LWPOLYLINE
  5
532
100
AcDbEntity
  8
0
100
AcDbPolyline
 62
250
  6
CONTINUOUS
 90
5
 70
0
 10
281.0804997654
 20
212.9954239439
 10
281.1068336548
 20
212.9835280738
 10
281.1318947853
 20
212.9702568312
 10
281.1556398466
 20
212.9558226249
 10
281.1780264221
 20
212.9404515234
  0
LWPOLYLINE
  5
533
100
AcDbEntity
  8
0
100
AcDbPolyline
 62
250
  6
CONTINUOUS
 90
6
 70
0
 10
270.0112699639
 20
218.5934420083
 10
269.9715058672
 20
218.6114769799
 10
269.932331145
 20
218.6256816828
 10
269.8937457971
 20
218.6360561171
 10
269.8555201831
 20
218.6426268007
 10
269.8180761374
 20
218.6453532214
  0
LWPOLYLINE
  5
534
100
AcDbEntity
  8
0
100
AcDbPolyline
 62
7
  6
CONTINUOUS
 90
6
 70
0
 10
266.4446142269
 20
220.3320840342
 10
266.4328545197
 20
220.3377528455
 10
266.3902354497
 20
220.3549802958
 10
266.3468962373
 20
220.3674222924
 10
266.3032252702
 20
220.3749793615
 10
266.2945181952
 20
220.3758982299
  0
LINE
  5
535
100
AcDbEntity
  8
0
100
AcDbLine
 62
250
  6
CONTINUOUS
 10
282.4307169652
 20
212.7738834002
 11
270.1849614805
 21
218.8967611426
  0
LINE
  5
536
100
AcDbEntity
  8
0
100
AcDbLine
 62
250
  6
CONTINUOUS
 10
269.2936975756
 20
219.3562131822
 11
269.9386389871
 21
219.0337424765
  0
LINE
  5
537
100
AcDbEntity
  8
0
100
AcDbLine
 62
250
  6
CONTINUOUS
 10
283.7190791079
 20
212.1435224161
 11
284.5302327556
 21
211.7379455922
  0
LINE
  5
538
100
AcDbEntity
  8
0
100
AcDbLine
 62
250
  6
CONTINUOUS
 10
269.5751150988
 20
219.5276363346
 11
270.2389035618
 21
219.1957421031
  0
LINE
  5
539
100
AcDbEntity
  8
0
100
AcDbLine
 62
250
  6
CONTINUOUS
 10
283.7990935203
 20
212.4156471239
 11
284.4716541118
 21
212.0793668281
  0
LINE
  5
53A
100
AcDbEntity
  8
0
100
AcDbLine
 62
7
  6
CONTINUOUS
 10
273.5524334237
 20
217.8300661189
 11
273.9075358768
 21
217.6525148923
  0
LINE
  5
53B
100
AcDbEntity
  8
0
100
AcDbLine
 62
7
  6
CONTINUOUS
 10
279.9163944544
 20
214.6480856035
 11
280.2714969075
 21
214.470534377
  0
LINE
  5
53C
100
AcDbEntity
  8
0
100
AcDbLine
 62
7
  6
CONTINUOUS
 10
270.6263595227
 20
219.9434253337
 11
271.1445220655
 21
219.6843440623
  0
LINE
  5
53D
100
AcDbEntity
  8
0
100
AcDbLine
 62
7
  6
CONTINUOUS
 10
271.8206886453
 20
219.7792734743
 11
272.6569280276
 21
219.3611537832
  0
LINE
  5
53E
100
AcDbEntity
  8
0
100
AcDbLine
 62
7
  6
CONTINUOUS
 10
283.2883226471
 20
214.0454564734
 11
284.1245620295
 21
213.6273367822
  0
LINE
  5
53F
100
AcDbEntity
  8
0
100
AcDbLine
 62
7
  6
CONTINUOUS
 10
284.4726668812
 20
213.802359802
 11
280.4330200561
 21
215.8221832146
  0
LINE
  5
540
100
AcDbEntity
  8
0
100
AcDbLine
 62
7
  6
CONTINUOUS
 10
279.85882858
 20
216.1092789526
 11
274.0690590254
 21
219.0041637299
  0
LINE
  5
541
100
AcDbEntity
  8
0
100
AcDbLine
 62
7
  6
CONTINUOUS
 10
273.4948675493
 20
219.291259468
 11
269.4552207242
 21
221.3110828805
  0
LINE
  5
542
100
AcDbEntity
  8
0
100
AcDbLine
 62
250
  6
CONTINUOUS
 10
284.5302327556
 20
213.8557623064
 11
280.2714969075
 21
215.9851302304
  0
LINE
  5
543
100
AcDbEntity
  8
0
100
AcDbLine
 62
250
  6
CONTINUOUS
 10
279.9163944544
 20
216.162681457
 11
273.9075358768
 21
219.1671107458
  0
LINE
  5
544
100
AcDbEntity
  8
0
100
AcDbLine
 62
250
  6
CONTINUOUS
 10
273.5524334237
 20
219.3446619723
 11
269.2936975756
 21
221.4740298964
  0
LWPOLYLINE
  5
545
100
AcDbEntity
  8
0
100
AcDbPolyline
 62
7
  6
CONTINUOUS
 90
13
 70
0
 10
274.0690102234
 20
219.0040939783
 10
274.0634225682
 20
219.006983752
 10
274.0462617381
 20
219.0170347999
 10
274.0295015601
 20
219.0283162037
 10
274.0132278324
 20
219.0407483753
 10
273.9975649593
 20
219.0543076462
 10
273.9824902122
 20
219.0686946523
 10
273.9680500399
 20
219.0838684547
 10
273.9543382221
 20
219.0997802593
 10
273.9413931811
 20
219.1161314481
 10
273.9292542626
 20
219.132792303
 10
273.9179603194
 20
219.1498005896
 10
273.9075358768
 20
219.1671107458
  0
LWPOLYLINE
  5
546
100
AcDbEntity
  8
0
100
AcDbPolyline
 62
7
  6
CONTINUOUS
 90
13
 70
0
 10
280.4329712541
 20
215.8221134629
 10
280.4273835989
 20
215.8250032366
 10
280.4102227688
 20
215.8350542846
 10
280.3934625907
 20
215.8463356884
 10
280.3771888631
 20
215.8587678599
 10
280.36152599
 20
215.8723271308
 10
280.3464512428
 20
215.8867141369
 10
280.3320110706
 20
215.9018879393
 10
280.3182992528
 20
215.917799744
 10
280.3053542118
 20
215.9341509328
 10
280.2932152933
 20
215.9508117877
 10
280.28192135
 20
215.9678200743
 10
280.2714969075
 20
215.9851302304
  0
LWPOLYLINE
  5
547
100
AcDbEntity
  8
0
100
AcDbPolyline
 62
250
  6
CONTINUOUS
 90
16
 70
0
 10
270.2312046145
 20
222.4658234408
 10
270.2251064695
 20
222.4691618861
 10
270.2179847691
 20
222.4738518472
 10
270.2111185099
 20
222.4793109097
 10
270.2045527316
 20
222.4855609123
 10
270.1983344504
 20
222.4926196862
 10
270.1925438909
 20
222.5004541048
 10
270.1872207994
 20
222.5090622059
 10
270.1824047467
 20
222.5184376717
 10
270.1781571697
 20
222.5285116495
 10
270.1745060648
 20
222.5392583317
 10
270.1714773581
 20
222.5506489322
 10
270.1691065131
 20
222.5625846619
 10
270.1674073057
 20
222.5749984936
 10
270.1663835012
 20
222.5878653043
 10
270.1660412339
 20
222.601136923
  0
LWPOLYLINE
  5
548
100
AcDbEntity
  8
0
100
AcDbPolyline
 62
7
  6
CONTINUOUS
 90
11
 70
0
 10
269.4552211789
 20
221.3110826532
 10
269.4345928963
 20
221.3225889865
 10
269.4157870512
 20
221.3351644741
 10
269.3975521101
 20
221.349225756
 10
269.3800994354
 20
221.3645423907
 10
269.3634279155
 20
221.3809798166
 10
269.3475198554
 20
221.3983711973
 10
269.3325931924
 20
221.4165056028
 10
269.318709307
 20
221.4352329961
 10
269.3057567792
 20
221.4544485186
 10
269.2936975756
 20
221.4740298964
  0
LWPOLYLINE
  5
549
100
AcDbEntity
  8
0
100
AcDbPolyline
 62
250
  6
CONTINUOUS
 90
8
 70
0
 10
269.2286208444
 20
222.0338679439
 10
269.2116375325
 20
222.0435295411
 10
269.1972751001
 20
222.0542012238
 10
269.1857711802
 20
222.065706424
 10
269.1773161105
 20
222.0778547828
 10
269.1720497842
 20
222.0904452999
 10
269.1700593351
 20
222.1032696595
 10
269.1700422006
 20
222.1045786206
  0
LWPOLYLINE
  5
54A
100
AcDbEntity
  8
0
100
AcDbPolyline
 62
250
  6
CONTINUOUS
 90
9
 70
0
 10
268.944105064
 20
223.109373206
 10
268.9346204907
 20
223.1148329151
 10
268.9205712531
 20
223.126062107
 10
268.9083404464
 20
223.1400946256
 10
268.8980966324
 20
223.1567425655
 10
268.8899812156
 20
223.175778534
 10
268.8841047524
 20
223.1969436694
 10
268.8805472051
 20
223.2199532336
 10
268.8793573796
 20
223.2444962012
  0
LWPOLYLINE
  5
54B
100
AcDbEntity
  8
0
100
AcDbPolyline
 62
250
  6
CONTINUOUS
 90
13
 70
0
 10
270.3403391098
 20
223.1348191375
 10
270.358491042
 20
223.1239544037
 10
270.3763747242
 20
223.1103346154
 10
270.39368428
 20
223.0941927208
 10
270.4101236529
 20
223.0758048052
 10
270.4254116695
 20
223.0554853691
 10
270.4392868489
 20
223.0335819491
 10
270.4515118749
 20
223.0104691736
 10
270.4618776549
 20
222.9865423556
 10
270.4702068962
 20
222.962210731
 10
270.4763571384
 20
222.9378904593
 10
270.4802231898
 20
222.9139975062
 10
270.4817389269
 20
222.8909405282
  0
LWPOLYLINE
  5
54C
100
AcDbEntity
  8
0
100
AcDbPolyline
 62
250
  6
CONTINUOUS
 90
3
 70
0
 10
282.2967560608
 20
216.4341497684
 10
282.3048542543
 20
216.4290962697
 10
282.3084221488
 20
216.4272146636
  0
LINE
  5
54D
100
AcDbEntity
  8
0
100
AcDbLine
 62
7
  6
CONTINUOUS
 10
274.6038012518
 20
222.0785560494
 11
274.314980041
 21
222.2867641512
  0
LINE
  5
54E
100
AcDbEntity
  8
DRAFT
100
AcDbLine
 62
7
  6
CONTINUOUS
 10
299.851643884
 20
224.2458979226
 11
299.851643884
 21
224.6789106245
  0
LINE
  5
54F
100
AcDbEntity
  8
0
100
AcDbLine
 62
7
  6
CONTINUOUS
 10
300.8191075964
 20
223.4097678114
 11
300.8191075964
 21
222.943893045
  0
LINE
  5
550
100
AcDbEntity
  8
RACCORDO
100
AcDbLine
 62
250
  6
CONTINUOUS
 10
301.2364407773
 20
224.1388830352
 11
301.2364407773
 21
224.5976146013
  0
LINE
  5
551
100
AcDbEntity
  8
0
100
AcDbLine
 62
7
  6
CONTINUOUS
 10
301.2688522578
 20
223.2880199782
 11
301.2688522578
 21
222.9348344244
  0
LINE
  5
552
100
AcDbEntity
  8
RACCORDO
100
AcDbLine
 62
250
  6
CONTINUOUS
 10
301.3774536987
 20
224.1398133133
 11
301.3774536987
 21
224.6086104985
  0
LWPOLYLINE
  5
553
100
AcDbEntity
  8
0
100
AcDbPolyline
 62
250
  6
CONTINUOUS
 90
10
 70
0
 10
283.6190043913
 20
174.8508511778
 10
283.6017932492
 20
174.8284839098
 10
283.5860077506
 20
174.8044753772
 10
283.5718617169
 20
174.7791485496
 10
283.5595457984
 20
174.7528426684
 10
283.549229535
 20
174.7259146898
 10
283.5410572658
 20
174.6987348783
 10
283.5351405257
 20
174.6716731413
 10
283.5315582986
 20
174.6450936899
 10
283.5303593904
 20
174.6193563554
  0
LWPOLYLINE
  5
554
100
AcDbEntity
  8
0
100
AcDbPolyline
 62
250
  6
CONTINUOUS
 90
10
 70
0
 10
283.828698663
 20
174.6643349518
 10
283.8251421687
 20
174.6597727749
 10
283.8219539843
 20
174.6550140147
 10
283.8191341098
 20
174.6500586712
 10
283.8166542837
 20
174.6448344468
 10
283.8145427675
 20
174.6394136391
 10
283.8128843455
 20
174.6340131411
 10
283.811707279
 20
174.6287052508
 10
283.8109833068
 20
174.6234176702
 10
283.8107124286
 20
174.6181503994
  0
LINE
  5
555
100
AcDbEntity
  8
0
100
AcDbLine
 62
250
  6
CONTINUOUS
 10
284.2485745148
 20
175.5923729243
 11
283.6190036419
 21
174.8508515582
  0
LINE
  5
556
100
AcDbEntity
  8
0
100
AcDbLine
 62
250
  6
CONTINUOUS
 10
284.5301618046
 20
175.4905324926
 11
283.828698663
 21
174.6643349518
  0
LINE
  5
557
100
AcDbEntity
  8
DRAFT
100
AcDbLine
 62
7
  6
CONTINUOUS
 10
285.8215106085
 20
177.2718209375
 11
286.5471336324
 21
178.1161162068
  0
LWPOLYLINE
  5
558
100
AcDbEntity
  8
0
100
AcDbPolyline
 62
250
  6
CONTINUOUS
 90
13
 70
0
 10
282.1259218626
 20
182.0947827268
 10
282.1106187859
 20
182.0858397692
 10
282.0880037782
 20
182.0689348696
 10
282.0661766078
 20
182.0488642866
 10
282.0455090879
 20
182.0259699108
 10
282.0263532779
 20
182.0006417351
 10
282.0090354854
 20
181.9733112104
 10
281.9938507089
 20
181.9444438966
 10
281.9810576124
 20
181.9145315316
 10
281.9708741189
 20
181.8840836553
 10
281.9634736982
 20
181.8536189296
 10
281.9589824123
 20
181.8236563036
 10
281.9574767678
 20
181.7947061734
  0
LWPOLYLINE
  5
559
100
AcDbEntity
  8
0
100
AcDbPolyline
 62
7
  6
CONTINUOUS
 90
12
 70
0
 10
281.9535028891
 20
182.110009149
 10
281.9276184626
 20
182.0952262456
 10
281.9018439394
 20
182.0768551461
 10
281.8779208018
 20
182.055765951
 10
281.8561440301
 20
182.0321841101
 10
281.8365618669
 20
182.0060700387
 10
281.8194276528
 20
181.9775668986
 10
281.8050467515
 20
181.946975919
 10
281.7935530507
 20
181.9143682133
 10
281.7851154991
 20
181.8798626112
 10
281.7799437605
 20
181.8437269628
 10
281.7782011594
 20
181.8062017717
  0
LINE
  5
55A
100
AcDbEntity
  8
0
100
AcDbLine
 62
7
  6
CONTINUOUS
 10
282.4533175079
 20
184.2732766312
 11
281.4408389415
 21
183.7205348216
  0
LINE
  5
55B
100
AcDbEntity
  8
0
100
AcDbLine
 62
7
  6
CONTINUOUS
 10
282.3213320417
 20
184.1306780425
 11
281.4408389415
 21
183.6499909784
  0
LINE
  5
55C
100
AcDbEntity
  8
0
100
AcDbLine
 62
7
  6
CONTINUOUS
 10
282.1694862521
 20
184.0321464642
 11
282.4533175079
 21
184.1811453243
  0
LINE
  5
55D
100
AcDbEntity
  8
0
100
AcDbLine
 62
7
  6
CONTINUOUS
 10
281.9535584455
 20
182.1100492084
 11
282.1259218626
 21
182.1975742121
  0
LINE
  5
55E
100
AcDbEntity
  8
0
100
AcDbLine
 62
7
  6
CONTINUOUS
 10
284.4716541118
 20
184.0806450408
 11
283.8937657015
 21
183.7894727084
  0
LINE
  5
55F
100
AcDbEntity
  8
0
100
AcDbLine
 62
250
  6
CONTINUOUS
 10
283.1377160506
 20
185.0814473298
 11
283.7523870509
 21
185.376174009
  0
LINE
  5
560
100
AcDbEntity
  8
0
100
AcDbLine
 62
250
  6
CONTINUOUS
 10
283.084961699
 20
184.7032713199
 11
283.6995277284
 21
184.9976585442
  0
LWPOLYLINE
  5
561
100
AcDbEntity
  8
0
100
AcDbPolyline
 62
250
  6
CONTINUOUS
 90
13
 70
0
 10
283.1377160506
 20
185.0814472559
 10
283.1130492881
 20
185.0709908715
 10
283.0858893911
 20
185.0622140117
 10
283.0566908179
 20
185.0552635369
 10
283.025942139
 20
185.0502557474
 10
282.9941578625
 20
185.0472744368
 10
282.9618698249
 20
185.0463694906
 10
282.9296182918
 20
185.0475560508
 10
282.8979429182
 20
185.0508142633
 10
282.8673737182
 20
185.0560896094
 10
282.8384221967
 20
185.0632938182
 10
282.8115727906
 20
185.0723063441
 10
282.7872747627
 20
185.0829763833
  0
LWPOLYLINE
  5
562
100
AcDbEntity
  8
0
100
AcDbPolyline
 62
250
  6
CONTINUOUS
 90
13
 70
0
 10
283.084961628
 20
184.7032710903
 10
283.0603883911
 20
184.6934840977
 10
283.0334675816
 20
184.6864200427
 10
283.0046496475
 20
184.6821971312
 10
282.9744167884
 20
184.68088603
 10
282.943274869
 20
184.6825086828
 10
282.9117449532
 20
184.6870379489
 10
282.8803546165
 20
184.6943980546
 10
282.8496291077
 20
184.7044658568
 10
282.8200825409
 20
184.7170729103
 10
282.7922093169
 20
184.7320082788
 10
282.7664758483
 20
184.7490220615
 10
282.7433127438
 20
184.7678295785
  0
LINE
  5
563
100
AcDbEntity
  8
0
100
AcDbLine
 62
250
  6
CONTINUOUS
 10
282.1739935868
 20
210.165871767
 11
282.1418935803
 21
210.1603280371
  0
LWPOLYLINE
  5
564
100
AcDbEntity
  8
0
100
AcDbPolyline
 62
7
  6
CONTINUOUS
 90
6
 70
0
 10
282.1045365591
 20
210.1800475026
 10
282.0781541831
 20
210.1762276285
 10
282.0468389679
 20
210.1703579832
 10
282.0161005826
 20
210.1630387048
 10
281.9860281168
 20
210.1541887857
 10
281.9593894912
 20
210.1447482114
  0
LWPOLYLINE
  5
565
100
AcDbEntity
  8
0
100
AcDbPolyline
 62
250
  6
CONTINUOUS
 90
8
 70
0
 10
282.1418920891
 20
210.1603287827
 10
282.129769105
 20
210.1586537249
 10
282.1179427354
 20
210.1567442481
 10
282.1064129801
 20
210.1546003524
 10
282.09516782
 20
210.1522190516
 10
282.0842192743
 20
210.1496033318
 10
282.0736034009
 20
210.1467621513
 10
282.0633322193
 20
210.1436984963
  0
LWPOLYLINE
  5
566
100
AcDbEntity
  8
0
100
AcDbPolyline
 62
250
  6
CONTINUOUS
 90
7
 70
0
 10
282.4167606921
 20
217.0966083464
 10
282.3980069587
 20
217.1041964417
 10
282.379616201
 20
217.1087138643
 10
282.3619029684
 20
217.1100833512
 10
282.3451702216
 20
217.1082814809
 10
282.3297041517
 20
217.1033390736
 10
282.3243608324
 20
217.1007320053
  0
LWPOLYLINE
  5
567
100
AcDbEntity
  8
0
100
AcDbPolyline
 62
250
  6
CONTINUOUS
 90
13
 70
0
 10
270.1660412339
 20
222.601136923
 10
270.1854796561
 20
222.5926008917
 10
270.2069591808
 20
222.585390871
 10
270.2301203978
 20
222.5796275039
 10
270.2545757577
 20
222.5754072271
 10
270.2799160566
 20
222.572800657
 10
270.305717283
 20
222.5718514088
 10
270.3315477132
 20
222.5725753657
 10
270.3569751344
 20
222.5749604142
 10
270.3815740776
 20
222.5789666458
 10
270.4049329364
 20
222.5845270256
 10
270.426660854
 20
222.5915485135
 10
270.4463942642
 20
222.599913621
  0
LWPOLYLINE
  5
568
100
AcDbEntity
  8
0
100
AcDbPolyline
 62
250
  6
CONTINUOUS
 90
13
 70
0
 10
270.1660412339
 20
222.831803183
 10
270.1854796708
 20
222.8232671459
 10
270.2069592102
 20
222.8160571223
 10
270.2301204405
 20
222.8102937548
 10
270.2545758113
 20
222.8060734795
 10
270.2799161176
 20
222.8034669126
 10
270.305717347
 20
222.8025176683
 10
270.3315477752
 20
222.8032416293
 10
270.3569751899
 20
222.805626681
 10
270.3815741226
 20
222.8096329146
 10
270.4049329677
 20
222.8151932942
 10
270.4266608699
 20
222.8222147793
 10
270.4463942642
 20
222.830579881
  0
LWPOLYLINE
  5
569
100
AcDbEntity
  8
0
100
AcDbPolyline
 62
250
  6
CONTINUOUS
 90
13
 70
0
 10
284.5953094868
 20
214.3505236227
 10
284.6146314908
 20
214.3420324261
 10
284.6359736924
 20
214.3348514381
 10
284.6589830688
 20
214.3290995048
 10
284.6832789897
 20
214.3248718366
 10
284.7084595286
 20
214.3222384281
 10
284.734108112
 20
214.3212429016
 10
284.7598004223
 20
214.3219017874
 10
284.7851113158
 20
214.3242042433
 10
284.8096218808
 20
214.32811221
 10
284.8329265029
 20
214.3335610525
 10
284.8546395699
 20
214.340460649
 10
284.8744017582
 20
214.3486968645
  0
LWPOLYLINE
  5
56A
100
AcDbEntity
  8
0
100
AcDbPolyline
 62
250
  6
CONTINUOUS
 90
16
 70
0
 10
280.3296757456
 20
218.7038705436
 10
280.3336187448
 20
218.7021126474
 10
280.337802393
 20
218.7006012246
 10
280.3422266902
 20
218.6993362753
 10
280.3469439172
 20
218.6983101205
 10
280.3519017933
 20
218.6975304392
 10
280.3569434756
 20
218.6970202679
 10
280.3620710366
 20
218.6967879656
 10
280.3672824039
 20
218.6968251732
 10
280.3724145169
 20
218.6971298502
 10
280.3774668272
 20
218.6977110693
 10
280.3824398833
 20
218.6985597578
 10
280.3871722704
 20
218.6996466564
 10
280.3916101836
 20
218.700962012
 10
280.3958074279
 20
218.7025155778
 10
280.3997640032
 20
218.7043073536
  0
LWPOLYLINE
  5
56B
100
AcDbEntity
  8
0
100
AcDbPolyline
 62
250
  6
CONTINUOUS
 90
16
 70
0
 10
280.1558748641
 20
218.4006060598
 10
280.1789819634
 20
218.3901870039
 10
280.2041101638
 20
218.3810333404
 10
280.2309862335
 20
218.373241467
 10
280.259313667
 20
218.3668944529
 10
280.2887912911
 20
218.3620562627
 10
280.3191184339
 20
218.3587738819
 10
280.3499758607
 20
218.3570828322
 10
280.3810275507
 20
218.3570023801
 10
280.411940936
 20
218.3585323433
 10
280.4423848501
 20
218.3616571374
 10
280.472033056
 20
218.3663438231
 10
280.5005678721
 20
218.3725408325
 10
280.52768356
 20
218.3801818422
 10
280.5530895977
 20
218.3891864803
 10
280.5765137745
 20
218.399459092
  0
LWPOLYLINE
  5
56C
100
AcDbEntity
  8
0
100
AcDbPolyline
 62
7
  6
CONTINUOUS
 90
4
 70
0
 10
283.5955666602
 20
215.7836431457
 10
283.6045549311
 20
215.7793997128
 10
283.6263087882
 20
215.7710802364
 10
283.6482074215
 20
215.7652459338
  0
LWPOLYLINE
  5
56D
100
AcDbEntity
  8
0
100
AcDbPolyline
 62
7
  6
CONTINUOUS
 90
4
 70
0
 10
270.2312020236
 20
222.4658251904
 10
270.2372903505
 20
222.4628958763
 10
270.2603939385
 20
222.453762606
 10
270.2838628834
 20
222.4474037297
  0
LINE
  5
56E
100
AcDbEntity
  8
0
100
AcDbLine
 62
250
  6
CONTINUOUS
 10
268.8793573705
 20
223.4749926447
 11
270.1660412339
 21
222.831995285
  0
LINE
  5
56F
100
AcDbEntity
  8
0
100
AcDbLine
 62
250
  6
CONTINUOUS
 10
270.8854906099
 20
221.4652408045
 11
282.9384397213
 21
215.4387662488
  0
LINE
  5
570
100
AcDbEntity
  8
0
100
AcDbLine
 62
250
  6
CONTINUOUS
 10
271.1607380874
 20
221.6346047093
 11
282.8798610776
 21
215.7750432142
  0
LINE
  5
571
100
AcDbEntity
  8
0
100
AcDbLine
 62
7
  6
CONTINUOUS
 10
274.3750528833
 20
220.2610717769
 11
280.155984229
 21
217.370606104
  0
LINE
  5
572
100
AcDbEntity
  8
0
100
AcDbLine
 62
7
  6
CONTINUOUS
 10
283.5955598766
 20
215.7836457997
 11
282.3084220376
 21
216.4272147192
  0
LINE
  5
573
100
AcDbEntity
  8
0
100
AcDbLine
 62
7
  6
CONTINUOUS
 10
270.2312413206
 20
222.4658050777
 11
268.9441034851
 21
223.1093739955
  0
LINE
  5
574
100
AcDbEntity
  8
DRAFT
100
AcDbLine
 62
7
  6
CONTINUOUS
 10
286.5471336324
 20
214.3552085695
 11
286.5162747949
 21
214.3706379883
  0
LINE
  5
575
100
AcDbEntity
  8
0
100
AcDbLine
 62
250
  6
CONTINUOUS
 10
270.1660412339
 20
222.601136923
 11
268.8793573705
 21
223.2444962052
  0
LINE
  5
576
100
AcDbEntity
  8
0
100
AcDbLine
 62
250
  6
CONTINUOUS
 10
283.5303593983
 20
215.9189951848
 11
282.2436755349
 21
216.5623197724
  0
LINE
  5
577
100
AcDbEntity
  8
0
100
AcDbLine
 62
250
  6
CONTINUOUS
 10
282.2436755349
 20
216.7929860324
 11
283.5303593983
 21
216.1496441007
  0
LINE
  5
578
100
AcDbEntity
  8
0
100
AcDbLine
 62
7
  6
CONTINUOUS
 10
272.0183062797
 20
222.1919383281
 11
274.2871849177
 21
221.0574990091
  0
LINE
  5
579
100
AcDbEntity
  8
0
100
AcDbLine
 62
7
  6
CONTINUOUS
 10
281.0838951746
 20
217.6591438807
 11
282.2737310233
 21
217.0642259563
  0
LINE
  5
57A
100
AcDbEntity
  8
0
100
AcDbLine
 62
7
  6
CONTINUOUS
 10
285.3826244441
 20
215.5097792459
 11
285.4683205551
 21
215.4669311904
  0
LINE
  5
57B
100
AcDbEntity
  8
0
100
AcDbLine
 62
250
  6
CONTINUOUS
 10
269.0524425277
 20
223.7787674286
 11
270.3403391098
 21
223.1348191375
  0
LINE
  5
57C
100
AcDbEntity
  8
0
100
AcDbLine
 62
250
  6
CONTINUOUS
 10
282.4167606921
 20
217.0966083464
 11
283.7046572742
 21
216.4526600553
  0
LINE
  5
57D
100
AcDbEntity
  8
0
100
AcDbLine
 62
250
  6
CONTINUOUS
 10
274.3750528833
 20
221.2910170822
 11
280.1558748359
 21
218.4006061059
  0
LINE
  5
57E
100
AcDbEntity
  8
0
100
AcDbLine
 62
250
  6
CONTINUOUS
 10
274.5487443999
 20
221.5943362165
 11
280.3296757456
 21
218.7038705436
  0
LINE
  5
57F
100
AcDbEntity
  8
0
100
AcDbLine
 62
7
  6
CONTINUOUS
 10
286.1627752522
 20
215.8116940934
 11
285.4326218447
 21
216.1767707971
  0
LINE
  5
580
100
AcDbEntity
  8
0
100
AcDbLine
 62
7
  6
CONTINUOUS
 10
274.1629564941
 20
221.8116034724
 11
272.0683036803
 21
222.8589298794
  0
LINE
  5
581
100
AcDbEntity
  8
0
100
AcDbLine
 62
7
  6
CONTINUOUS
 10
280.9071454032
 20
218.9599543316
 11
275.0381052715
 21
221.8944743975
  0
LINE
  5
582
100
AcDbEntity
  8
0
100
AcDbLine
 62
7
  6
CONTINUOUS
 10
274.314980041
 20
222.2867641512
 11
274.6331780926
 21
222.1276651255
  0
LINE
  5
583
100
AcDbEntity
  8
0
100
AcDbLine
 62
7
  6
CONTINUOUS
 10
285.8375559817
 20
216.5254761809
 11
285.9337537535
 21
216.477377295
  0
LWPOLYLINE
  5
584
100
AcDbEntity
  8
0
100
AcDbPolyline
 62
250
  6
CONTINUOUS
 90
13
 70
0
 10
272.486343703
 20
224.2119823365
 10
272.5050974423
 20
224.2014184751
 10
272.5234882046
 20
224.1880521942
 10
272.5412014404
 20
224.1721121086
 10
272.5579341891
 20
224.1538708534
 10
272.5734002594
 20
224.1336404233
 10
272.5873351242
 20
224.1117668364
 10
272.5995004475
 20
224.0886242142
 10
272.6096881606
 20
224.0646083795
 10
272.6177240192
 20
224.040130089
 10
272.6234705829
 20
224.0156080099
 10
272.6268295661
 20
223.991461559
 10
272.6277435201
 20
223.9681037271
  0
LWPOLYLINE
  5
585
100
AcDbEntity
  8
0
100
AcDbPolyline
 62
250
  6
CONTINUOUS
 90
7
 70
0
 10
282.2436755349
 20
216.5623197724
 10
282.2266034603
 20
216.5720389915
 10
282.2121834128
 20
216.5827787617
 10
282.2006566777
 20
216.5943593774
 10
282.1922161275
 20
216.6065870631
 10
282.187002994
 20
216.6192572166
 10
282.185096898
 20
216.63300422
  0
LWPOLYLINE
  5
586
100
AcDbEntity
  8
0
100
AcDbPolyline
 62
250
  6
CONTINUOUS
 90
7
 70
0
 10
282.2436755349
 20
216.7929860324
 10
282.2266034724
 20
216.8027052435
 10
282.212183431
 20
216.8134450059
 10
282.2006566968
 20
216.8250256144
 10
282.1922161431
 20
216.8372532944
 10
282.1870030031
 20
216.8499234438
 10
282.1850969001
 20
216.8636667124
  0
LWPOLYLINE
  5
587
100
AcDbEntity
  8
0
100
AcDbPolyline
 62
7
  6
CONTINUOUS
 90
13
 70
0
 10
271.9622392364
 20
223.9520226573
 10
271.9806905048
 20
223.9413101683
 10
271.9988329019
 20
223.927821802
 10
272.0163518744
 20
223.9117859324
 10
272.0329430731
 20
223.8934740929
 10
272.0483215177
 20
223.8731989832
 10
272.0622266181
 20
223.8513092986
 10
272.0744229501
 20
223.8281806715
 10
272.084699466
 20
223.8042075197
 10
272.0928772972
 20
223.779799102
 10
272.0988176546
 20
223.7553736125
 10
272.1024239916
 20
223.7313509614
 10
272.1036390535
 20
223.708144048
  0
LWPOLYLINE
  5
588
100
AcDbEntity
  8
0
100
AcDbPolyline
 62
7
  6
CONTINUOUS
 90
13
 70
0
 10
285.3265574009
 20
217.2698635751
 10
285.3450086692
 20
217.2591510861
 10
285.3631510663
 20
217.2456627198
 10
285.3806700388
 20
217.2296268502
 10
285.3972612375
 20
217.2113150107
 10
285.4126396821
 20
217.191039901
 10
285.4265447826
 20
217.1691502164
 10
285.4387411145
 20
217.1460215892
 10
285.4490176304
 20
217.1220484375
 10
285.4571954616
 20
217.0976400198
 10
285.463135819
 20
217.0732145303
 10
285.466742156
 20
217.0491918791
 10
285.4679572179
 20
217.0259849658
  0
LWPOLYLINE
  5
589
100
AcDbEntity
  8
0
100
AcDbPolyline
 62
250
  6
CONTINUOUS
 90
13
 70
0
 10
280.3997640032
 20
218.7043073536
 10
280.4224539185
 20
218.6907264364
 10
280.4448085208
 20
218.6737017009
 10
280.4664454649
 20
218.6535243324
 10
280.4869946798
 20
218.6305394377
 10
280.5061046991
 20
218.6051401422
 10
280.5234486719
 20
218.5777608668
 10
280.5387299523
 20
218.5488698966
 10
280.5516871752
 20
218.518961373
 10
280.5620987263
 20
218.4885468418
 10
280.5697865307
 20
218.4581465028
 10
280.5746190983
 20
218.4282803125
 10
280.5765137745
 20
218.399459092
  0
LINE
  5
58A
100
AcDbEntity
  8
0
100
AcDbLine
 62
7
  6
CONTINUOUS
 10
274.6657845378
 20
222.1076978372
 11
274.6331780926
 21
222.1276651255
  0
LINE
  5
58B
100
AcDbEntity
  8
0
100
AcDbLine
 62
7
  6
CONTINUOUS
 10
293.5449577923
 20
217.1768731201
 11
292.4036040189
 21
219.1454171872
  0
LINE
  5
58C
100
AcDbEntity
  8
0
100
AcDbLine
 62
7
  6
CONTINUOUS
 10
303.1810896645
 20
226.7089926963
 11
303.1810896645
 21
226.301141429
  0
LINE
  5
58D
100
AcDbEntity
  8
0
100
AcDbLine
 62
7
  6
CONTINUOUS
 10
284.5091118568
 20
179.1988640713
 11
284.5302327556
 21
179.214746155
  0
LWPOLYLINE
  5
58E
100
AcDbEntity
  8
0
100
AcDbPolyline
 62
7
  6
CONTINUOUS
 90
9
 70
0
 10
282.9384397213
 20
177.1057185327
 10
282.9243071568
 20
177.0956180946
 10
282.912140638
 20
177.0862257951
 10
282.9019194618
 20
177.0777229452
 10
282.8934443441
 20
177.0702868699
 10
282.8868440582
 20
177.0640885626
 10
282.8824799094
 20
177.0591835011
 10
282.8802500071
 20
177.0556228134
 10
282.8798040697
 20
177.0539875197
  0
LINE
  5
58F
100
AcDbEntity
  8
0
100
AcDbLine
 62
7
  6
CONTINUOUS
 10
285.9629319648
 20
181.2569706081
 11
285.5740232351
 21
181.0339100886
  0
LINE
  5
590
100
AcDbEntity
  8
0
100
AcDbLine
 62
7
  6
CONTINUOUS
 10
285.9629319648
 20
181.348586034
 11
283.0628644083
 21
179.765353912
  0
LINE
  5
591
100
AcDbEntity
  8
0
100
AcDbLine
 62
7
  6
CONTINUOUS
 10
283.7523870509
 20
180.0634950572
 11
283.1377160506
 21
179.7279280908
  0
LINE
  5
592
100
AcDbEntity
  8
0
100
AcDbLine
 62
7
  6
CONTINUOUS
 10
285.6800892523
 20
181.0807273101
 11
285.9629319648
 21
181.2307385721
  0
LINE
  5
593
100
AcDbEntity
  8
0
100
AcDbLine
 62
250
  6
CONTINUOUS
 10
282.2017226291
 20
180.3122509746
 11
282.0655170415
 21
180.2414785099
  0
LINE
  5
594
100
AcDbEntity
  8
0
100
AcDbLine
 62
250
  6
CONTINUOUS
 10
283.6396445905
 20
182.0310149407
 11
283.0250490409
 21
181.7321092929
  0
LINE
  5
595
100
AcDbEntity
  8
0
100
AcDbLine
 62
250
  6
CONTINUOUS
 10
283.6775354086
 20
181.667982462
 11
283.0628644083
 21
181.3694518581
  0
LINE
  5
596
100
AcDbEntity
  8
0
100
AcDbLine
 62
250
  6
CONTINUOUS
 10
281.4408389415
 20
182.1873131894
 11
282.1259218626
 21
182.5109049571
  0
LINE
  5
597
100
AcDbEntity
  8
0
100
AcDbLine
 62
7
  6
CONTINUOUS
 10
281.4408389415
 20
182.0618663617
 11
282.1259218626
 21
182.3854581294
  0
LINE
  5
598
100
AcDbEntity
  8
0
100
AcDbLine
 62
250
  6
CONTINUOUS
 10
281.8665754706
 20
181.4248333464
 11
281.4408389415
 21
181.2282141088
  0
LINE
  5
599
100
AcDbEntity
  8
0
100
AcDbLine
 62
7
  6
CONTINUOUS
 10
281.7161766426
 20
181.0185676119
 11
281.4408389415
 21
180.8914075371
  0
LWPOLYLINE
  5
59A
100
AcDbEntity
  8
0
100
AcDbPolyline
 62
250
  6
CONTINUOUS
 90
8
 70
0
 10
282.1781989947
 20
180.2348661657
 10
282.1690475704
 20
180.2307187588
 10
282.1535870371
 20
180.2261501528
 10
282.1371792391
 20
180.224119052
 10
282.1199796873
 20
180.2246467091
 10
282.1021672232
 20
180.2277369241
 10
282.0839457743
 20
180.2333652577
 10
282.0655169214
 20
180.2414784538
  0
LWPOLYLINE
  5
59B
100
AcDbEntity
  8
0
100
AcDbPolyline
 62
250
  6
CONTINUOUS
 90
13
 70
0
 10
283.025048785
 20
181.7321105629
 10
283.0004489524
 20
181.7210123003
 10
282.973460325
 20
181.7105929245
 10
282.9445344951
 20
181.7010267799
 10
282.9141554696
 20
181.6924739336
 10
282.8828315715
 20
181.6850774979
 10
282.8510869337
 20
181.6789612349
 10
282.8194527296
 20
181.6742274863
 10
282.7884582843
 20
181.6709554603
 10
282.7586222184
 20
181.6691999067
 10
282.7304437694
 20
181.6689902005
 10
282.7043944385
 20
181.6703298509
 10
282.680910101
 20
181.6731964417
  0
LWPOLYLINE
  5
59C
100
AcDbEntity
  8
0
100
AcDbPolyline
 62
250
  6
CONTINUOUS
 90
8
 70
0
 10
281.9536684114
 20
182.1101051052
 10
281.9671424062
 20
182.116134262
 10
281.9919905887
 20
182.1234773452
 10
282.0183973307
 20
182.1267634911
 10
282.0460736703
 20
182.1259568828
 10
282.0747163215
 20
182.1210663332
 10
282.1040109984
 20
182.1121451892
 10
282.1259218626
 20
182.1026382808
  0
LWPOLYLINE
  5
59D
100
AcDbEntity
  8
0
100
AcDbPolyline
 62
250
  6
CONTINUOUS
 90
13
 70
0
 10
283.0628644083
 20
181.3694510702
 10
283.0381976456
 20
181.3589946857
 10
283.0110377485
 20
181.3502178259
 10
282.9818391751
 20
181.3432673511
 10
282.9510904961
 20
181.3382595615
 10
282.9193062195
 20
181.335278251
 10
282.8870181819
 20
181.3343733048
 10
282.8547666488
 20
181.3355598652
 10
282.8230912752
 20
181.3388180777
 10
282.7925220753
 20
181.3440934237
 10
282.7635705541
 20
181.3512976326
 10
282.7367211482
 20
181.3603101584
 10
282.7124231205
 20
181.3709801975
  0
LINE
  5
59E
100
AcDbEntity
  8
0
100
AcDbLine
 62
7
  6
CONTINUOUS
 10
286.5471336324
 20
183.3451315614
 11
284.8744017582
 21
182.6560764151
  0
LWPOLYLINE
  5
59F
100
AcDbEntity
  8
RACCORDO
100
AcDbPolyline
 62
7
  6
CONTINUOUS
 90
7
 70
0
 10
308.5583345016
 20
218.7390446131
 10
308.5373625555
 20
218.736154881
 10
308.5175972067
 20
218.7355924634
 10
308.4990384553
 20
218.7373573601
 10
308.4816863011
 20
218.7414495712
 10
308.4655407443
 20
218.7478690968
 10
308.4506017848
 20
218.7566159368
  0
LINE
  5
5A0
100
AcDbEntity
  8
DRAFT
100
AcDbLine
 62
7
  6
CONTINUOUS
 10
286.5162747949
 20
214.3706379883
 11
285.8215106085
 21
214.5109133003
  0
LINE
  5
5A1
100
AcDbEntity
  8
0
100
AcDbLine
 62
7
  6
CONTINUOUS
 10
283.6482642103
 20
215.7652266571
 11
284.2793538691
 21
215.6313526335
  0
LINE
  5
5A2
100
AcDbEntity
  8
0
100
AcDbLine
 62
250
  6
CONTINUOUS
 10
283.828698663
 20
215.8889390912
 11
284.5301618046
 21
215.740136632
  0
LINE
  5
5A3
100
AcDbEntity
  8
DRAFT
100
AcDbLine
 62
7
  6
CONTINUOUS
 10
286.5471336324
 20
214.3552085695
 11
285.8215106085
 21
214.5109133003
  0
LWPOLYLINE
  5
5A4
100
AcDbEntity
  8
0
100
AcDbPolyline
 62
250
  6
CONTINUOUS
 90
9
 70
0
 10
269.5155429131
 20
222.4503785568
 10
269.5073290476
 20
222.4529341856
 10
269.4782263618
 20
222.4589357091
 10
269.4498333164
 20
222.4616782315
 10
269.4223603002
 20
222.4611336451
 10
269.3960205643
 20
222.4573013272
 10
269.3709904915
 20
222.4502030377
 10
269.3474595937
 20
222.4398899369
 10
269.3392942498
 20
222.4353481512
  0
LWPOLYLINE
  5
5A5
100
AcDbEntity
  8
0
100
AcDbPolyline
 62
250
  6
CONTINUOUS
 90
7
 70
0
 10
274.5481327489
 20
221.6301229808
 10
274.5246905909
 20
221.6396080962
 10
274.5017021508
 20
221.6452548743
 10
274.4795606152
 20
221.6469667358
 10
274.4586446848
 20
221.644714403
 10
274.4393120984
 20
221.6385364005
 10
274.4325119698
 20
221.6352124104
  0
LWPOLYLINE
  5
5A6
100
AcDbEntity
  8
0
100
AcDbPolyline
 62
7
  6
CONTINUOUS
 90
6
 70
0
 10
270.6186932739
 20
224.6237956386
 10
270.6002420055
 20
224.6315458631
 10
270.5820996084
 20
224.6361970007
 10
270.5645806359
 20
224.6376715517
 10
270.5479894372
 20
224.6359466099
 10
270.5313541224
 20
224.6304854185
  0
LWPOLYLINE
  5
5A7
100
AcDbEntity
  8
0
100
AcDbPolyline
 62
250
  6
CONTINUOUS
 90
6
 70
0
 10
284.525737501
 20
218.1922854374
 10
284.5075855688
 20
218.2001744158
 10
284.4897018866
 20
218.2049453685
 10
284.4723923308
 20
218.2065166948
 10
284.4559529579
 20
218.2048615193
 10
284.4396562278
 20
218.1995556976
  0
LWPOLYLINE
  5
5A8
100
AcDbEntity
  8
0
100
AcDbPolyline
 62
7
  6
CONTINUOUS
 90
10
 70
0
 10
271.2707895966
 20
224.8797080311
 10
271.2565173244
 20
224.8862415444
 10
271.2352874981
 20
224.893803497
 10
271.2132451137
 20
224.8991828924
 10
271.1906192449
 20
224.9022874218
 10
271.1675599881
 20
224.903049886
 10
271.1442972539
 20
224.9014104315
 10
271.1211737069
 20
224.8973570539
 10
271.0984485747
 20
224.8909252425
 10
271.0753143534
 20
224.8817036675
  0
LWPOLYLINE
  5
5A9
100
AcDbEntity
  8
0
100
AcDbPolyline
 62
7
  6
CONTINUOUS
 90
11
 70
0
 10
284.6350936754
 20
218.1975563703
 10
284.6231802067
 20
218.2030932917
 10
284.6021377893
 20
218.2108693476
 10
284.5802616102
 20
218.2164932734
 10
284.557778686
 20
218.2198683244
 10
284.5348460614
 20
218.2209260832
 10
284.5117072396
 20
218.2196089842
 10
284.4886819798
 20
218.2159033576
 10
284.465989513
 20
218.2098312912
 10
284.4438324048
 20
218.2014305701
 10
284.4396562835
 20
218.199555576
  0
LWPOLYLINE
  5
5AA
100
AcDbEntity
  8
0
100
AcDbPolyline
 62
250
  6
CONTINUOUS
 90
13
 70
0
 10
284.634835275
 20
218.1976864929
 10
284.6335234421
 20
218.1983297698
 10
284.6250593024
 20
218.2019046737
 10
284.6162255785
 20
218.2046687071
 10
284.6070545026
 20
218.2066106567
 10
284.5975770538
 20
218.2077228806
 10
284.5878302989
 20
218.2080001207
 10
284.5778486401
 20
218.2074410621
 10
284.5676678061
 20
218.206047385
 10
284.557328652
 20
218.2038246722
 10
284.5468697056
 20
218.2007819998
 10
284.5363267911
 20
218.1969307684
 10
284.525737501
 20
218.1922854374
  0
LWPOLYLINE
  5
5AB
100
AcDbEntity
  8
0
100
AcDbPolyline
 62
250
  6
CONTINUOUS
 90
13
 70
0
 10
285.959000566
 20
217.5356038474
 10
285.9577325512
 20
217.5362258767
 10
285.9492977883
 20
217.539786107
 10
285.9405019116
 20
217.5425260961
 10
285.9313815133
 20
217.5444364642
 10
285.9219657806
 20
217.5455130358
 10
285.9122865229
 20
217.545753281
 10
285.9023783731
 20
217.5451569567
 10
285.892277369
 20
217.5437268291
 10
285.8820183397
 20
217.5414685481
 10
285.8716376128
 20
217.5383904771
 10
285.8611729485
 20
217.534503971
 10
285.8506618674
 20
217.5298232542
  0
LINE
  5
5AC
100
AcDbEntity
  8
0
100
AcDbLine
 62
250
  6
CONTINUOUS
 10
271.1612948088
 20
224.8743870086
 11
272.4864995684
 21
224.2120596468
  0
LINE
  5
5AD
100
AcDbEntity
  8
0
100
AcDbLine
 62
7
  6
CONTINUOUS
 10
286.1557540333
 20
216.5899063715
 11
285.8785102971
 21
216.7285282396
  0
LINE
  5
5AE
100
AcDbEntity
  8
0
100
AcDbLine
 62
7
  6
CONTINUOUS
 10
274.6331780926
 20
222.3511943418
 11
274.314980041
 21
222.5102933676
  0
LINE
  5
5AF
100
AcDbEntity
  8
0
100
AcDbLine
 62
7
  6
CONTINUOUS
 10
285.3265574009
 20
217.2698635751
 11
283.9830114383
 21
217.9416365564
  0
LINE
  5
5B0
100
AcDbEntity
  8
0
100
AcDbLine
 62
7
  6
CONTINUOUS
 10
271.9622392364
 20
223.9520226573
 11
270.6186932739
 21
224.6237956386
  0
LINE
  5
5B1
100
AcDbEntity
  8
0
100
AcDbLine
 62
7
  6
CONTINUOUS
 10
281.331382548
 20
219.4398260108
 11
276.0280816891
 21
222.0914764402
  0
LINE
  5
5B2
100
AcDbEntity
  8
0
100
AcDbLine
 62
250
  6
CONTINUOUS
 10
284.525737501
 20
218.1922854374
 11
285.8506618674
 21
217.5298232542
  0
LINE
  5
5B3
100
AcDbEntity
  8
0
100
AcDbLine
 62
7
  6
CONTINUOUS
 10
271.2705170336
 20
224.8798456136
 11
272.5947582327
 21
224.217724971
  0
LINE
  5
5B4
100
AcDbEntity
  8
0
100
AcDbLine
 62
7
  6
CONTINUOUS
 10
285.9591143627
 20
217.5355468518
 11
284.6348351573
 21
218.1976865518
  0
LWPOLYLINE
  5
5B5
100
AcDbEntity
  8
RACCORDO
100
AcDbPolyline
 62
250
  6
CONTINUOUS
 90
10
 70
0
 10
308.7031959645
 20
223.044104508
 10
308.7004896116
 20
223.0092329187
 10
308.691139399
 20
222.9706939211
 10
308.6751806468
 20
222.9327012834
 10
308.6527321283
 20
222.8955377668
 10
308.6239609172
 20
222.8594799617
 10
308.5890811438
 20
222.824796229
 10
308.5483524017
 20
222.7917447033
 10
308.5020778155
 20
222.7605713713
 10
308.4506017848
 20
222.7315082413
  0
LINE
  5
5B6
100
AcDbEntity
  8
0
100
AcDbLine
 62
7
  6
CONTINUOUS
 10
292.4036040189
 20
182.3186796075
 11
293.5449577923
 21
183.1458699012
  0
LINE
  5
5B7
100
AcDbEntity
  8
DRAFT
100
AcDbLine
 62
7
  6
CONTINUOUS
 10
300.0995301898
 20
186.9715469705
 11
299.3468361058
 21
186.4260357934
  0
LINE
  5
5B8
100
AcDbEntity
  8
0
100
AcDbLine
 62
7
  6
CONTINUOUS
 10
292.4036040189
 20
182.3186796075
 11
292.3790890589
 21
182.3036840529
  0
LWPOLYLINE
  5
5B9
100
AcDbEntity
  8
RACCORDO
100
AcDbPolyline
 62
7
  6
CONTINUOUS
 90
3
 70
0
 10
307.69209509
 20
190.9866203587
 10
307.7484869354
 20
191.0208123706
 10
307.7608264033
 20
191.029520712
  0
LWPOLYLINE
  5
5BA
100
AcDbEntity
  8
0
100
AcDbPolyline
 62
250
  6
CONTINUOUS
 90
13
 70
0
 10
282.8669666335
 20
179.0364181662
 10
282.9103156934
 20
179.0601595166
 10
282.9476979264
 20
179.0872520326
 10
282.9822076434
 20
179.1190993633
 10
283.0136503974
 20
179.1555230576
 10
283.0418505564
 20
179.1963196284
 10
283.0666528663
 20
179.2412622102
 10
283.0879157804
 20
179.2900982134
 10
283.1055195584
 20
179.3425544262
 10
283.1193705514
 20
179.3983403026
 10
283.1293908039
 20
179.4571440887
 10
283.1355185983
 20
179.5186344814
 10
283.1377160506
 20
179.5824662131
  0
LINE
  5
5BB
100
AcDbEntity
  8
0
100
AcDbLine
 62
7
  6
CONTINUOUS
 10
286.5471336324
 20
180.54735489
 11
284.8744017582
 21
179.6490467581
  0
LINE
  5
5BC
100
AcDbEntity
  8
RACCORDO
100
AcDbLine
 62
7
  6
CONTINUOUS
 10
307.69209509
 20
190.9866203587
 11
300.0995301898
 21
186.9715469705
  0
LINE
  5
5BD
100
AcDbEntity
  8
DRAFT
100
AcDbLine
 62
7
  6
CONTINUOUS
 10
299.3468361058
 20
186.4260357934
 11
293.8308859454
 21
183.5091104868
  0
LINE
  5
5BE
100
AcDbEntity
  8
RACCORDO
100
AcDbLine
 62
250
  6
CONTINUOUS
 10
308.1116383009
 20
191.2906821492
 11
293.9242663596
 21
183.8025549387
  0
LINE
  5
5BF
100
AcDbEntity
  8
RACCORDO
100
AcDbLine
 62
250
  6
CONTINUOUS
 10
308.4506017848
 20
192.1234461717
 11
293.9885939312
 21
184.6355224064
  0
LINE
  5
5C0
100
AcDbEntity
  8
0
100
AcDbLine
 62
250
  6
CONTINUOUS
 10
292.4036040189
 20
182.3186796075
 11
286.5471336324
 21
179.3063755823
  0
LINE
  5
5C1
100
AcDbEntity
  8
0
100
AcDbLine
 62
7
  6
CONTINUOUS
 10
292.3791209307
 20
182.3036210309
 11
286.5471336324
 21
179.3039100012
  0
LINE
  5
5C2
100
AcDbEntity
  8
0
100
AcDbLine
 62
250
  6
CONTINUOUS
 10
286.5993280678
 20
180.3858915755
 11
293.9591555827
 21
184.1634692429
  0
LINE
  5
5C3
100
AcDbEntity
  8
0
100
AcDbLine
 62
250
  6
CONTINUOUS
 10
286.5471336324
 20
179.5540976466
 11
293.5449577923
 21
183.1458699012
  0
LINE
  5
5C4
100
AcDbEntity
  8
0
100
AcDbLine
 62
250
  6
CONTINUOUS
 10
285.6800892523
 20
181.0145220195
 11
285.6467379277
 21
180.9975527423
  0
LINE
  5
5C5
100
AcDbEntity
  8
0
100
AcDbLine
 62
250
  6
CONTINUOUS
 10
283.1377160506
 20
179.5824662131
 11
283.7523870509
 21
179.8663416505
  0
LINE
  5
5C6
100
AcDbEntity
  8
0
100
AcDbLine
 62
7
  6
CONTINUOUS
 10
282.8661399255
 20
179.0360351442
 11
283.8315589227
 21
179.4818976299
  0
LWPOLYLINE
  5
5C7
100
AcDbEntity
  8
0
100
AcDbPolyline
 62
7
  6
CONTINUOUS
 90
4
 70
0
 10
283.9288988003
 20
217.9555124695
 10
283.9464092209
 20
217.9540336425
 10
283.9645487249
 20
217.9493810583
 10
283.9830114383
 20
217.9416365564
  0
LINE
  5
5C8
100
AcDbEntity
  8
0
100
AcDbLine
 62
250
  6
CONTINUOUS
 10
266.3831550365
 20
220.3440963084
 11
266.1978651523
 21
220.3614514206
  0
LINE
  5
5C9
100
AcDbEntity
  8
0
100
AcDbLine
 62
7
  6
CONTINUOUS
 10
266.1400255049
 20
220.3903712443
 11
266.294459996
 21
220.3759059581
  0
LWPOLYLINE
  5
5CA
100
AcDbEntity
  8
0
100
AcDbPolyline
 62
250
  6
CONTINUOUS
 90
5
 70
0
 10
266.294459996
 20
220.3759059581
 10
266.3139923453
 20
220.3729077595
 10
266.3364481997
 20
220.3666783985
 10
266.3595614692
 20
220.3571528515
 10
266.3831550365
 20
220.3440963084
  0
LINE
  5
5CB
100
AcDbEntity
  8
0
100
AcDbLine
 62
250
  6
CONTINUOUS
 10
271.1658436402
 20
222.4222957142
 11
270.4643804986
 21
222.5710981734
  0
LINE
  5
5CC
100
AcDbEntity
  8
0
100
AcDbLine
 62
7
  6
CONTINUOUS
 10
270.2838628211
 20
222.447403425
 11
270.9150357047
 21
222.3135117157
  0
LWPOLYLINE
  5
5CD
100
AcDbEntity
  8
0
100
AcDbPolyline
 62
250
  6
CONTINUOUS
 90
19
 70
0
 10
270.4643804986
 20
222.5710981734
 10
270.4628458901
 20
222.5714682453
 10
270.4613354102
 20
222.5719828234
 10
270.4598490589
 20
222.5726419075
 10
270.4583745901
 20
222.5734414318
 10
270.4569242498
 20
222.5743854623
 10
270.4555347764
 20
222.5754861961
 10
270.4542072499
 20
222.5767489408
 10
270.4529405902
 20
222.5781683889
 10
270.4517682957
 20
222.5797408158
 10
270.4506929113
 20
222.581471693
 10
270.4497118922
 20
222.583355549
 10
270.4488511021
 20
222.5853722448
 10
270.448114297
 20
222.5875264806
 10
270.4474977208
 20
222.5898135561
 10
270.4470159699
 20
222.5921992318
 10
270.4466739095
 20
222.5946720946
 10
270.4464666743
 20
222.5972435577
 10
270.4463942642
 20
222.599913621
  0
LWPOLYLINE
  5
5CE
100
AcDbEntity
  8
0
100
AcDbPolyline
 62
250
  6
CONTINUOUS
 90
13
 70
0
 10
286.2034685781
 20
221.5869696714
 10
286.226908929
 20
221.573765998
 10
286.2498959716
 20
221.5570595745
 10
286.2720365664
 20
221.5371359711
 10
286.2929520049
 20
221.5143358216
 10
286.3122845481
 20
221.4890489382
 10
286.3297035308
 20
221.4617076274
 10
286.3449109673
 20
221.4327793504
 10
286.3576465848
 20
221.4027589044
 10
286.3676923737
 20
221.3721598981
 10
286.3748763998
 20
221.3415057702
 10
286.379075703
 20
221.3113208221
 10
286.3802183529
 20
221.2821214114
  0
LWPOLYLINE
  5
5CF
100
AcDbEntity
  8
0
100
AcDbPolyline
 62
7
  6
CONTINUOUS
 90
6
 70
0
 10
292.4149728133
 20
223.7682718537
 10
292.3842479804
 20
223.8053600078
 10
292.3443902618
 20
223.843663824
 10
292.2979749654
 20
223.8800746305
 10
292.2450020912
 20
223.9145924274
 10
292.1854716392
 20
223.9472172146
  0
LWPOLYLINE
  5
5D0
100
AcDbEntity
  8
0
100
AcDbPolyline
 62
7
  6
CONTINUOUS
 90
8
 70
0
 10
297.7839275281
 20
223.7816137751
 10
297.7706377347
 20
223.8124326497
 10
297.7454363744
 20
223.8615976819
 10
297.7164228908
 20
223.9082933528
 10
297.6838755893
 20
223.952151785
 10
297.64827829
 20
223.9926362481
 10
297.6099612668
 20
224.0294850543
 10
297.5983403965
 20
224.0394972472
  0
LINE
  5
5D1
100
AcDbEntity
  8
0
100
AcDbLine
 62
250
  6
CONTINUOUS
 10
298.7543561744
 20
225.7431714438
 11
299.1689336861
 21
224.6675929036
  0
LWPOLYLINE
  5
5D2
100
AcDbEntity
  8
0
100
AcDbPolyline
 62
250
  6
CONTINUOUS
 90
19
 70
0
 10
297.680227653
 20
223.7805825313
 10
297.6987577359
 20
223.7322203452
 10
297.7147928639
 20
223.6834912519
 10
297.7283330368
 20
223.6343952516
 10
297.7395938208
 20
223.5843517497
 10
297.7483596498
 20
223.5339413407
 10
297.7539838253
 20
223.4849058079
 10
297.7562203076
 20
223.4373328299
 10
297.7553151365
 20
223.391134728
 10
297.7513597328
 20
223.3477902502
 10
297.7441977079
 20
223.307633655
 10
297.7339854504
 20
223.2703306839
 10
297.7212835471
 20
223.236357309
 10
297.7061004754
 20
223.2058930479
 10
297.6884277579
 20
223.178758383
 10
297.6688005503
 20
223.1548907335
 10
297.6473972378
 20
223.1342692392
 10
297.6240394353
 20
223.1169147603
 10
297.5987271426
 20
223.1028272968
  0
LINE
  5
5D3
100
AcDbEntity
  8
0
100
AcDbLine
 62
7
  6
CONTINUOUS
 10
300.3136380143
 20
223.1675278557
 11
300.1121386563
 21
223.7632522815
  0
LWPOLYLINE
  5
5D4
100
AcDbEntity
  8
RACCORDO
100
AcDbPolyline
 62
7
  6
CONTINUOUS
 90
10
 70
0
 10
308.7031959645
 20
223.044104508
 10
308.6993910684
 20
223.1580422044
 10
308.6882449794
 20
223.2713064014
 10
308.6701066543
 20
223.3836936748
 10
308.6451515531
 20
223.4954304516
 10
308.6136045536
 20
223.6060626191
 10
308.5759832875
 20
223.7143690082
 10
308.532682052
 20
223.8198529792
 10
308.4837292704
 20
223.9227798598
 10
308.4291972248
 20
224.0230242695
  0
LINE
  5
5D5
100
AcDbEntity
  8
RACCORDO
100
AcDbLine
 62
250
  6
CONTINUOUS
 10
308.4506017848
 20
222.7315082413
 11
308.4506017848
 21
218.7566159368
  0
LINE
  5
5D6
100
AcDbEntity
  8
RACCORDO
100
AcDbLine
 62
250
  6
CONTINUOUS
 10
308.4506017848
 20
217.0561532479
 11
308.4506017848
 21
192.1234461717
  0
LINE
  5
5D7
100
AcDbEntity
  8
RACCORDO
100
AcDbLine
 62
7
  6
CONTINUOUS
 10
308.7031959263
 20
216.7997493445
 11
308.7031959645
 21
192.4360424384
  0
LINE
  5
5D8
100
AcDbEntity
  8
RACCORDO
100
AcDbLine
 62
7
  6
CONTINUOUS
 10
308.7031959645
 20
223.044104508
 11
308.7031958108
 21
219.6373892083
  0
LWPOLYLINE
  5
5D9
100
AcDbEntity
  8
RACCORDO
100
AcDbPolyline
 62
250
  6
CONTINUOUS
 90
29
 70
0
 10
308.7031958108
 20
219.6373892083
 10
308.7028673558
 20
219.5936986712
 10
308.7016610398
 20
219.5419727218
 10
308.6996300811
 20
219.4916556113
 10
308.6968237271
 20
219.4427560978
 10
308.6932945233
 20
219.3952905434
 10
308.6890935836
 20
219.3492601935
 10
308.6842443225
 20
219.3046503247
 10
308.6787882662
 20
219.2614761142
 10
308.6727618732
 20
219.2197346309
 10
308.6661556176
 20
219.1793851451
 10
308.6589926026
 20
219.140400278
 10
308.6512986494
 20
219.1028185563
 10
308.6430433762
 20
219.0667008978
 10
308.6342347617
 20
219.0320014131
 10
308.6248908056
 20
218.9987786912
 10
308.6149769074
 20
218.9672536651
 10
308.6044956767
 20
218.9373953696
 10
308.5934565393
 20
218.9092499222
 10
308.5818214111
 20
218.8831571636
 10
308.5695780998
 20
218.8591000662
 10
308.5567404546
 20
218.8371144266
 10
308.5433031603
 20
218.8176213778
 10
308.529253701
 20
218.8006843238
 10
308.5146081471
 20
218.7862597849
 10
308.499408011
 20
218.7746075068
 10
308.4836741674
 20
218.7658189742
 10
308.4674025144
 20
218.7598190389
 10
308.4506017848
 20
218.7566159368
  0
LWPOLYLINE
  5
5DA
100
AcDbEntity
  8
RACCORDO
100
AcDbPolyline
 62
250
  6
CONTINUOUS
 90
11
 70
0
 10
308.7031959645
 20
192.4360424384
 10
308.7023933248
 20
192.4170417332
 10
308.6964107715
 20
192.3808896767
 10
308.6846237823
 20
192.3450960229
 10
308.6671089534
 20
192.3098933721
 10
308.6439801024
 20
192.275510484
 10
308.6153875291
 20
192.2421707911
 10
308.5815170385
 20
192.2100909471
 10
308.5425887335
 20
192.1794794187
 10
308.4988555842
 20
192.1505351306
 10
308.4506017848
 20
192.1234461735
  0
LWPOLYLINE
  5
5DB
100
AcDbEntity
  8
RACCORDO
100
AcDbPolyline
 62
250
  6
CONTINUOUS
 90
11
 70
0
 10
308.2114523216
 20
191.3801710787
 10
308.2555642332
 20
191.4335084513
 10
308.2955553284
 20
191.4922778116
 10
308.3312544569
 20
191.5562274496
 10
308.3625088792
 20
191.6250835905
 10
308.3891847514
 20
191.6985511721
 10
308.4111679652
 20
191.7763157064
 10
308.4283645627
 20
191.8580448889
 10
308.4407008571
 20
191.9433890631
 10
308.4481238868
 20
192.0319825987
 10
308.4506017848
 20
192.1234461717
  0
LWPOLYLINE
  5
5DC
100
AcDbEntity
  8
RACCORDO
100
AcDbPolyline
 62
250
  6
CONTINUOUS
 90
3
 70
0
 10
308.1116383009
 20
191.2906821492
 10
308.1634084523
 20
191.3324942259
 10
308.2114523216
 20
191.3801710787
  0
LWPOLYLINE
  5
5DD
100
AcDbEntity
  8
RACCORDO
100
AcDbPolyline
 62
7
  6
CONTINUOUS
 90
13
 70
0
 10
308.1787491356
 20
191.3324080688
 10
308.2533038598
 20
191.3911316473
 10
308.3240967087
 20
191.456746043
 10
308.39047215
 20
191.5290676108
 10
308.4517327803
 20
191.6077419074
 10
308.5073610556
 20
191.6925023596
 10
308.5570041673
 20
191.7833130109
 10
308.6002053373
 20
191.8800101653
 10
308.636384659
 20
191.9820379401
 10
308.6651140133
 20
192.0889614482
 10
308.6860498474
 20
192.2004879596
 10
308.6988546632
 20
192.3163010285
 10
308.7031959645
 20
192.4360424384
  0
LINE
  5
5DE
100
AcDbEntity
  8
RACCORDO
100
AcDbLine
 62
250
  6
CONTINUOUS
 10
308.1116383009
 20
191.2906821492
 11
307.69209509
 21
190.9866203587
  0
LINE
  5
5DF
100
AcDbEntity
  8
RACCORDO
100
AcDbLine
 62
7
  6
CONTINUOUS
 10
308.1787491356
 20
191.3324080687
 11
307.7607271475
 21
191.0294487767
  0
LWPOLYLINE
  5
5E0
100
AcDbEntity
  8
RACCORDO
100
AcDbPolyline
 62
250
  6
CONTINUOUS
 90
3
 70
0
 10
308.1787491356
 20
191.3324080687
 10
308.1604606751
 20
191.3197034387
 10
308.1116383009
 20
191.2906821492
  0
LWPOLYLINE
  5
5E1
100
AcDbEntity
  8
0
100
AcDbPolyline
 62
250
  6
CONTINUOUS
 90
7
 70
0
 10
286.0261936285
 20
175.7073771072
 10
286.0429235647
 20
175.7172436104
 10
286.0569664056
 20
175.7281073751
 10
286.0680871554
 20
175.7397866355
 10
286.0760997079
 20
175.7520859775
 10
286.0808699619
 20
175.7647996086
 10
286.0823256617
 20
175.7768169274
  0
LWPOLYLINE
  5
5E2
100
AcDbEntity
  8
0
100
AcDbPolyline
 62
250
  6
CONTINUOUS
 90
7
 70
0
 10
286.0261936285
 20
175.4540360527
 10
286.0429238436
 20
175.4639027578
 10
286.0569668194
 20
175.4747667166
 10
286.068087579
 20
175.486446146
 10
286.0761000422
 20
175.4987456176
 10
286.0808701391
 20
175.5114593282
 10
286.0823256684
 20
175.5235018898
  0
LWPOLYLINE
  5
5E3
100
AcDbEntity
  8
0
100
AcDbPolyline
 62
7
  6
CONTINUOUS
 90
12
 70
0
 10
285.9430663187
 20
175.2864692268
 10
285.9543232253
 20
175.2929314842
 10
285.9766128927
 20
175.3082661579
 10
285.9975274258
 20
175.3262693359
 10
286.0167419277
 20
175.3467383438
 10
286.0335293733
 20
175.3687844855
 10
286.0481947371
 20
175.3926747155
 10
286.0606697359
 20
175.4184976293
 10
286.0703046737
 20
175.4449497896
 10
286.0771072616
 20
175.4716982408
 10
286.0811998359
 20
175.4994903242
 10
286.0823251932
 20
175.5235290601
  0
LWPOLYLINE
  5
5E4
100
AcDbEntity
  8
0
100
AcDbPolyline
 62
250
  6
CONTINUOUS
 90
28
 70
0
 10
285.9920616845
 20
175.3930690462
 10
285.9937367394
 20
175.3940085168
 10
285.9954443071
 20
175.3950880941
 10
285.9971843876
 20
175.3963077781
 10
285.9989677676
 20
175.3976678399
 10
286.0007836604
 20
175.3991680083
 10
286.0025997059
 20
175.4008074708
 10
286.0044166954
 20
175.4025913832
 10
286.0062338375
 20
175.4045145897
 10
286.0080163986
 20
175.4065608096
 10
286.0097637977
 20
175.4087348722
 10
286.0114766157
 20
175.4110319482
 10
286.0131218611
 20
175.4134212692
 10
286.0146968585
 20
175.415904906
 10
286.0162042832
 20
175.4184807876
 10
286.0176191698
 20
175.4211119332
 10
286.0189380797
 20
175.4237968357
 10
286.0201644516
 20
175.4265370022
 10
286.0212836362
 20
175.4292999725
 10
286.0222937755
 20
175.4320847437
 10
286.0231967276
 20
175.4348923189
 10
286.0239834179
 20
175.4376932465
 10
286.0246526837
 20
175.4404874969
 10
286.0252056877
 20
175.4432750998
 10
286.0256368429
 20
175.4460266931
 10
286.0259442869
 20
175.4487324893
 10
286.0261298821
 20
175.4514022758
 10
286.0261936285
 20
175.4540360527
  0
LINE
  5
5E5
100
AcDbEntity
  8
0
100
AcDbLine
 62
250
  6
CONTINUOUS
 10
285.8215106085
 20
176.9253448261
 11
286.5162747949
 21
177.3001860437
  0
LINE
  5
5E6
100
AcDbEntity
  8
0
100
AcDbLine
 62
7
  6
CONTINUOUS
 10
285.6956565421
 20
176.6570288174
 11
286.3915353988
 21
177.0324714253
  0
LINE
  5
5E7
100
AcDbEntity
  8
0
100
AcDbLine
 62
250
  6
CONTINUOUS
 10
285.4679572179
 20
175.1103026626
 11
285.9920616845
 21
175.3930690462
  0
LINE
  5
5E8
100
AcDbEntity
  8
0
100
AcDbLine
 62
7
  6
CONTINUOUS
 10
285.4180614595
 20
175.0032168153
 11
285.9431584884
 21
175.286518709
  0
LWPOLYLINE
  5
5E9
100
AcDbEntity
  8
0
100
AcDbPolyline
 62
250
  6
CONTINUOUS
 90
16
 70
0
 10
279.6672193738
 20
175.1073718849
 10
279.6282110085
 20
175.0885576486
 10
279.5858991272
 20
175.0718717137
 10
279.5407370384
 20
175.0574928767
 10
279.4932085908
 20
175.0455752171
 10
279.4438230036
 20
175.0362464487
 10
279.393109413
 20
175.0296065483
 10
279.3416111726
 20
175.0257266804
 10
279.2898800603
 20
175.0246484401
 10
279.2384703804
 20
175.0263834015
 10
279.1879329674
 20
175.0309129946
 10
279.138809323
 20
175.0381887043
 10
279.0916258384
 20
175.0481325818
 10
279.0468880922
 20
175.0606380886
 10
279.0050754373
 20
175.0755712445
 10
278.9666359005
 20
175.092772054
  0
LINE
  5
5EA
100
AcDbEntity
  8
0
100
AcDbLine
 62
7
  6
CONTINUOUS
 10
285.6956525152
 20
176.6570266448
 11
285.677968117
 21
176.6486417667
  0
LWPOLYLINE
  5
5EB
100
AcDbEntity
  8
0
100
AcDbPolyline
 62
250
  6
CONTINUOUS
 90
12
 70
0
 10
284.7275003157
 20
176.2571119051
 10
284.7432125945
 20
176.2644403289
 10
284.7654184073
 20
176.2780586722
 10
284.7857950613
 20
176.2946547319
 10
284.8043108364
 20
176.3141513924
 10
284.8210386162
 20
176.3366863463
 10
284.8357819585
 20
176.3621575059
 10
284.8483806749
 20
176.3904813865
 10
284.8588056819
 20
176.4219965314
 10
284.8668219435
 20
176.4568001664
 10
284.8721057399
 20
176.4946182188
 10
284.8744017582
 20
176.5352646343
  0
LINE
  5
5EC
100
AcDbEntity
  8
0
100
AcDbLine
 62
250
  6
CONTINUOUS
 10
280.3484070334
 20
174.6070562093
 11
281.3119922843
 21
175.0115301582
  0
LINE
  5
5ED
100
AcDbEntity
  8
0
100
AcDbLine
 62
7
  6
CONTINUOUS
 10
281.1707265305
 20
174.7355988686
 11
280.1945124588
 21
174.3258238785
  0
LINE
  5
5EE
100
AcDbEntity
  8
0
100
AcDbLine
 62
250
  6
CONTINUOUS
 10
284.8744017582
 20
176.5352646343
 11
285.8215106085
 21
176.9254109797
  0
LINE
  5
5EF
100
AcDbEntity
  8
0
100
AcDbLine
 62
7
  6
CONTINUOUS
 10
284.7272845164
 20
176.2570231649
 11
285.6779692948
 21
176.6486424018
  0
LWPOLYLINE
  5
5F0
100
AcDbEntity
  8
0
100
AcDbPolyline
 62
7
  6
CONTINUOUS
 90
4
 70
0
 10
274.970464474
 20
221.9118192889
 10
274.9923524997
 20
221.9099707552
 10
275.0150268797
 20
221.9041550249
 10
275.0381052715
 20
221.8944743975
  0
LWPOLYLINE
  5
5F1
100
AcDbEntity
  8
0
100
AcDbPolyline
 62
250
  6
CONTINUOUS
 90
12
 70
0
 10
270.2839460486
 20
222.4473857387
 10
270.2930442165
 20
222.4458219096
 10
270.3131854887
 20
222.4448636123
 10
270.3335342645
 20
222.4472585242
 10
270.3537462217
 20
222.4529661186
 10
270.3734793523
 20
222.4618898141
 10
270.392399752
 20
222.4738786087
 10
270.4101872718
 20
222.488729638
 10
270.4265409326
 20
222.5061916072
 10
270.4411840168
 20
222.525969042
 10
270.4538687507
 20
222.5477272878
 10
270.4643804986
 20
222.5710981734
  0
LWPOLYLINE
  5
5F2
100
AcDbEntity
  8
0
100
AcDbPolyline
 62
250
  6
CONTINUOUS
 90
5
 70
0
 10
286.0130414991
 20
221.6805709754
 10
285.9899411161
 20
221.6902428131
 10
285.9671831989
 20
221.6960188493
 10
285.9451571417
 20
221.6978002546
 10
285.9242398167
 20
221.6955565487
  0
LWPOLYLINE
  5
5F3
100
AcDbEntity
  8
RACCORDO
100
AcDbPolyline
 62
7
  6
CONTINUOUS
 90
16
 70
0
 10
287.9171815434
 20
223.3911456858
 10
287.8942138204
 20
223.4014522718
 10
287.8698327458
 20
223.4104071117
 10
287.8440383195
 20
223.4180102055
 10
287.8165394987
 20
223.4243113762
 10
287.7876273262
 20
223.4292608008
 10
287.7581749311
 20
223.4327090098
 10
287.7281658331
 20
223.4346102065
 10
287.6976165124
 20
223.4350101875
 10
287.6674495389
 20
223.4338968738
 10
287.6376765767
 20
223.4312241001
 10
287.6082859616
 20
223.4270380316
 10
287.5801652713
 20
223.421465085
 10
287.5536103651
 20
223.414547399
 10
287.5283253837
 20
223.4062428348
 10
287.5043103271
 20
223.3965513924
  0
LINE
  5
5F4
100
AcDbEntity
  8
0
100
AcDbLine
 62
7
  6
CONTINUOUS
 10
280.0550931039
 20
225.4464942996
 11
280.8848393723
 21
225.0316211654
  0
LINE
  5
5F5
100
AcDbEntity
  8
0
100
AcDbLine
 62
7
  6
CONTINUOUS
 10
291.3094286154
 20
219.8193265438
 11
292.1536135381
 21
219.3972340825
  0
LINE
  5
5F6
100
AcDbEntity
  8
0
100
AcDbLine
 62
7
  6
CONTINUOUS
 10
288.048909698
 20
221.6155442796
 11
283.6294795869
 21
223.8252593351
  0
LINE
  5
5F7
100
AcDbEntity
  8
RACCORDO
100
AcDbLine
 62
7
  6
CONTINUOUS
 10
288.1730983089
 20
223.263187303
 11
287.9171815434
 21
223.3911456858
  0
LWPOLYLINE
  5
5F8
100
AcDbEntity
  8
RACCORDO
100
AcDbPolyline
 62
250
  6
CONTINUOUS
 90
15
 70
0
 10
288.7780274896
 20
224.2122431297
 10
288.811609466
 20
224.1930000038
 10
288.840926054
 20
224.1713766009
 10
288.8659772537
 20
224.1473729211
 10
288.8869664458
 20
224.1207405725
 10
288.9036902495
 20
224.0917279469
 10
288.9155385226
 20
224.0610802205
 10
288.9223953162
 20
224.0287202728
 10
288.9243765793
 20
223.9947252243
 10
288.9212200165
 20
223.9600716121
 10
288.9127572772
 20
223.9247055234
 10
288.8991567121
 20
223.8886808711
 10
288.8806610773
 20
223.8531359301
 10
288.8573512917
 20
223.8184501256
 10
288.8291464365
 20
223.7842440325
  0
LWPOLYLINE
  5
5F9
100
AcDbEntity
  8
RACCORDO
100
AcDbPolyline
 62
250
  6
CONTINUOUS
 90
10
 70
0
 10
290.7579264769
 20
223.222293636
 10
290.7915084533
 20
223.2030505101
 10
290.8208250414
 20
223.1814271072
 10
290.8458762411
 20
223.1574234275
 10
290.8668654331
 20
223.1307910788
 10
290.8835892368
 20
223.1017784532
 10
290.89543751
 20
223.0711307268
 10
290.9022943036
 20
223.0387707791
 10
290.9042755666
 20
223.0047757306
 10
290.9021240161
 20
222.9811554193
  0
LWPOLYLINE
  5
5FA
100
AcDbEntity
  8
RACCORDO
100
AcDbPolyline
 62
250
  6
CONTINUOUS
 90
9
 70
0
 10
288.675587142
 20
223.9945275463
 10
288.6954683184
 20
223.9829135555
 10
288.7131300502
 20
223.9691690734
 10
288.7283816251
 20
223.953404388
 10
288.7410462089
 20
223.9357106256
 10
288.7509899047
 20
223.9162463405
 10
288.7581045178
 20
223.8952329885
 10
288.7622809345
 20
223.8727683753
 10
288.7634551068
 20
223.8520676481
  0
LWPOLYLINE
  5
5FB
100
AcDbEntity
  8
RACCORDO
100
AcDbPolyline
 62
250
  6
CONTINUOUS
 90
8
 70
0
 10
290.6554861293
 20
223.0045780526
 10
290.6753673058
 20
222.9929640618
 10
290.6930290375
 20
222.9792195798
 10
290.7082806125
 20
222.9634548944
 10
290.7209451962
 20
222.945761132
 10
290.730888892
 20
222.9262968469
 10
290.7380035052
 20
222.9052834949
 10
290.7384609944
 20
222.9028226968
  0
LWPOLYLINE
  5
5FC
100
AcDbEntity
  8
RACCORDO
100
AcDbPolyline
 62
250
  6
CONTINUOUS
 90
13
 70
0
 10
287.3315031971
 20
224.4827893082
 10
287.3492141328
 20
224.4716674322
 10
287.3672822462
 20
224.4582629442
 10
287.3854040075
 20
224.4428010761
 10
287.4032749929
 20
224.4255416167
 10
287.4205950125
 20
224.4067745325
 10
287.437073151
 20
224.3868150917
 10
287.4524326211
 20
224.3659986077
 10
287.466415458
 20
224.3446747489
 10
287.4787868507
 20
224.3232016471
 10
287.4893390246
 20
224.3019399712
 10
287.4978947453
 20
224.2812468719
 10
287.5043103288
 20
224.2614699216
  0
LWPOLYLINE
  5
5FD
100
AcDbEntity
  8
RACCORDO
100
AcDbPolyline
 62
250
  6
CONTINUOUS
 90
13
 70
0
 10
289.3114021845
 20
223.4928398145
 10
289.3291131201
 20
223.4817179385
 10
289.3471812336
 20
223.4683134505
 10
289.3653029948
 20
223.4528515825
 10
289.3831739802
 20
223.4355921231
 10
289.4004939998
 20
223.4168250388
 10
289.4169721383
 20
223.3968655981
 10
289.4323316084
 20
223.376049114
 10
289.4463144454
 20
223.3547252552
 10
289.458685838
 20
223.3332521535
 10
289.4692380119
 20
223.3119904776
 10
289.4777937326
 20
223.2912973782
 10
289.4842093161
 20
223.2715204279
  0
LINE
  5
5FE
100
AcDbEntity
  8
DRAFT
100
AcDbLine
 62
7
  6
CONTINUOUS
 10
300.0995301898
 20
220.9387592771
 11
299.3468361058
 21
222.2369645382
  0
LINE
  5
5FF
100
AcDbEntity
  8
0
100
AcDbLine
 62
7
  6
CONTINUOUS
 10
285.4180620012
 20
175.0032171076
 11
285.4138965523
 21
175.0011340905
  0
LINE
  5
600
100
AcDbEntity
  8
0
100
AcDbLine
 62
250
  6
CONTINUOUS
 10
283.8460570913
 20
174.3612554362
 11
285.4679572179
 21
175.1103026626
  0
LINE
  5
601
100
AcDbEntity
  8
0
100
AcDbLine
 62
7
  6
CONTINUOUS
 10
285.4138955506
 20
175.0011335502
 11
283.7907543066
 21
174.2515135957
  0
LWPOLYLINE
  5
602
100
AcDbEntity
  8
0
100
AcDbPolyline
 62
250
  6
CONTINUOUS
 90
13
 70
0
 10
283.8107124286
 20
174.6181503994
 10
283.7909790185
 20
174.6097852919
 10
283.7692511008
 20
174.602763804
 10
283.7458922421
 20
174.5972034242
 10
283.7212932988
 20
174.5931971926
 10
283.6958658776
 20
174.5908121441
 10
283.6700354475
 20
174.5900881872
 10
283.644234221
 20
174.5910374354
 10
283.6188939221
 20
174.5936440055
 10
283.5944385622
 20
174.5978642823
 10
283.5712773452
 20
174.6036276494
 10
283.5497978205
 20
174.6108376701
 10
283.5303593983
 20
174.6193737014
  0
LWPOLYLINE
  5
603
100
AcDbEntity
  8
0
100
AcDbPolyline
 62
250
  6
CONTINUOUS
 90
13
 70
0
 10
283.8107124286
 20
174.3874841394
 10
283.7909790303
 20
174.3791190363
 10
283.7692511241
 20
174.3720975506
 10
283.7458922756
 20
174.366537171
 10
283.7212933402
 20
174.362530938
 10
283.6958659238
 20
174.3601458871
 10
283.6700354951
 20
174.3594219271
 10
283.6442342665
 20
174.3603711724
 10
283.6188939621
 20
174.3629777401
 10
283.5944385941
 20
174.3671980157
 10
283.5712773671
 20
174.3729613831
 10
283.5497978315
 20
174.3801714059
 10
283.5303593983
 20
174.3887074414
  0
LINE
  5
604
100
AcDbEntity
  8
RACCORDO
100
AcDbLine
 62
250
  6
CONTINUOUS
 10
294.9813761036
 20
225.18966849
 11
294.9359916433
 21
225.1770045415
  0
LINE
  5
605
100
AcDbEntity
  8
0
100
AcDbLine
 62
7
  6
CONTINUOUS
 10
274.6331780926
 20
222.3511943418
 11
275.1775036131
 21
222.3482854154
  0
LWPOLYLINE
  5
606
100
AcDbEntity
  8
RACCORDO
100
AcDbPolyline
 62
7
  6
CONTINUOUS
 90
12
 70
0
 10
289.7693719415
 20
222.4389953573
 10
289.7675263135
 20
222.4393113072
 10
289.7380739184
 20
222.4427595161
 10
289.7080648204
 20
222.4446607128
 10
289.6775154997
 20
222.4450606938
 10
289.6473485263
 20
222.4439473801
 10
289.617575564
 20
222.4412746064
 10
289.5881849489
 20
222.437088538
 10
289.5600642587
 20
222.4315155913
 10
289.5335093524
 20
222.4245979053
 10
289.508224371
 20
222.4162933411
 10
289.4842093144
 20
222.4066018988
  0
LWPOLYLINE
  5
607
100
AcDbEntity
  8
RACCORDO
100
AcDbPolyline
 62
250
  6
CONTINUOUS
 90
8
 70
0
 10
288.7960465117
 20
223.7505176509
 10
288.7772218386
 20
223.7576637115
 10
288.7593681783
 20
223.7622203632
 10
288.7427854343
 20
223.764111064
 10
288.7277521614
 20
223.7633040541
 10
288.7145208868
 20
223.7598128895
 10
288.7033138677
 20
223.7536962145
 10
288.6992461407
 20
223.7503574111
  0
LWPOLYLINE
  5
608
100
AcDbEntity
  8
0
100
AcDbPolyline
 62
7
  6
CONTINUOUS
 90
7
 70
0
 10
288.6499377333
 20
225.7149841675
 10
288.5846881589
 20
225.7447493935
 10
288.5156525651
 20
225.7712358306
 10
288.4428309521
 20
225.7944434788
 10
288.3662233198
 20
225.8143723381
 10
288.2858296681
 20
225.8310224086
 10
288.2016499972
 20
225.8443936901
  0
LINE
  5
609
100
AcDbEntity
  8
RACCORDO
100
AcDbLine
 62
250
  6
CONTINUOUS
 10
288.3609521911
 20
225.316665547
 11
288.3643858625
 21
225.3150558596
  0
LINE
  5
60A
100
AcDbEntity
  8
RACCORDO
100
AcDbLine
 62
250
  6
CONTINUOUS
 10
287.9171815434
 20
224.3737303456
 11
288.675587142
 21
223.9945275463
  0
LINE
  5
60B
100
AcDbEntity
  8
RACCORDO
100
AcDbLine
 62
250
  6
CONTINUOUS
 10
289.8970805307
 20
223.3837808519
 11
290.6554861293
 21
223.0045780526
  0
LINE
  5
60C
100
AcDbEntity
  8
RACCORDO
100
AcDbLine
 62
250
  6
CONTINUOUS
 10
288.0196218909
 20
224.591445929
 11
288.7780274896
 21
224.2122431297
  0
LINE
  5
60D
100
AcDbEntity
  8
RACCORDO
100
AcDbLine
 62
250
  6
CONTINUOUS
 10
289.9995208782
 20
223.6014964354
 11
290.7579264769
 21
223.222293636
  0
LINE
  5
60E
100
AcDbEntity
  8
RACCORDO
100
AcDbLine
 62
7
  6
CONTINUOUS
 10
287.3064348498
 20
225.1917973103
 11
291.3239388827
 21
223.1830452939
  0
LINE
  5
60F
100
AcDbEntity
  8
RACCORDO
100
AcDbLine
 62
250
  6
CONTINUOUS
 10
291.9401725897
 20
223.4779883024
 11
288.2761772619
 21
225.3099859663
  0
LINE
  5
610
100
AcDbEntity
  8
RACCORDO
100
AcDbLine
 62
7
  6
CONTINUOUS
 10
291.9904209937
 20
223.502038294
 11
288.3643858625
 21
225.3150558596
  0
LINE
  5
611
100
AcDbEntity
  8
0
100
AcDbLine
 62
7
  6
CONTINUOUS
 10
292.1854716392
 20
223.9472172146
 11
288.6499377333
 21
225.7149841675
  0
LWPOLYLINE
  5
612
100
AcDbEntity
  8
0
100
AcDbPolyline
 62
250
  6
CONTINUOUS
 90
10
 70
0
 10
297.5657914698
 20
223.9402845895
 10
297.5814409884
 20
223.9264032276
 10
297.5964231624
 20
223.9114997854
 10
297.6107379918
 20
223.8955742627
 10
297.6244738128
 20
223.8785516563
 10
297.6375422893
 20
223.8605069695
 10
297.6496784123
 20
223.8416652126
 10
297.6607938459
 20
223.8221013889
 10
297.6709769261
 20
223.8017404952
 10
297.680227653
 20
223.7805825313
  0
LWPOLYLINE
  5
613
100
AcDbEntity
  8
0
100
AcDbPolyline
 62
250
  6
CONTINUOUS
 90
9
 70
0
 10
297.5983753691
 20
224.0394678106
 10
297.5989243308
 20
224.0389661967
 10
297.6020886707
 20
224.0329808682
 10
297.602560548
 20
224.0239708133
 10
297.6003322425
 20
224.0120834375
 10
297.5954402109
 20
223.9975132184
 10
297.5879644892
 20
223.9804985245
 10
297.5780273834
 20
223.961317716
 10
297.5657914696
 20
223.9402845894
  0
LWPOLYLINE
  5
614
100
AcDbEntity
  8
0
100
AcDbPolyline
 62
250
  6
CONTINUOUS
 90
9
 70
0
 10
297.7839259521
 20
223.7816318054
 10
297.7806509794
 20
223.7858566484
 10
297.7742627412
 20
223.7891024815
 10
297.7649597564
 20
223.7910278621
 10
297.752864002
 20
223.791607548
 10
297.738134073
 20
223.7908339419
 10
297.720963103
 20
223.7887171906
 10
297.7015762317
 20
223.785285052
 10
297.680227653
 20
223.7805825313
  0
LINE
  5
615
100
AcDbEntity
  8
RACCORDO
100
AcDbLine
 62
7
  6
CONTINUOUS
 10
303.1719742058
 20
226.7328864974
 11
303.1810896645
 21
226.7089926963
  0
LINE
  5
616
100
AcDbEntity
  8
0
100
AcDbLine
 62
7
  6
CONTINUOUS
 10
290.9126794331
 20
226.642188048
 11
289.2863338364
 21
226.3867356097
  0
LINE
  5
617
100
AcDbEntity
  8
RACCORDO
100
AcDbLine
 62
250
  6
CONTINUOUS
 10
294.4910603254
 20
224.9549925722
 11
294.4747986335
 21
224.9540523814
  0
LWPOLYLINE
  5
618
100
AcDbEntity
  8
RACCORDO
100
AcDbPolyline
 62
7
  6
CONTINUOUS
 90
6
 70
0
 10
287.2502781393
 20
225.2059298573
 10
287.2599581497
 20
225.2055924433
 10
287.2703693461
 20
225.2041375727
 10
287.2814903858
 20
225.2014603463
 10
287.2933068268
 20
225.1974831698
 10
287.3057759754
 20
225.1921267475
  0
LWPOLYLINE
  5
619
100
AcDbEntity
  8
RACCORDO
100
AcDbPolyline
 62
250
  6
CONTINUOUS
 90
13
 70
0
 10
288.2761772619
 20
225.3099859663
 10
288.2064550319
 20
225.323560711
 10
288.135713233
 20
225.3338242122
 10
288.0639518652
 20
225.3407764697
 10
287.9905124889
 20
225.3444268443
 10
287.9160535436
 20
225.3447659753
 10
287.8425503478
 20
225.3417657807
 10
287.7700258376
 20
225.335321219
 10
287.6984570769
 20
225.3255373317
 10
287.6297505757
 20
225.3127011612
 10
287.5645418373
 20
225.2969083884
 10
287.5021953583
 20
225.2780633323
 10
287.4427111389
 20
225.2561659932
  0
LWPOLYLINE
  5
61A
100
AcDbEntity
  8
RACCORDO
100
AcDbPolyline
 62
7
  6
CONTINUOUS
 90
13
 70
0
 10
288.3183724311
 20
225.3313982293
 10
288.2389487391
 20
225.3469326165
 10
288.1578262807
 20
225.3586529712
 10
288.0755526616
 20
225.3665562225
 10
287.9927596001
 20
225.3706451859
 10
287.9098804293
 20
225.3709434831
 10
287.8271505993
 20
225.3674514877
 10
287.745099853
 20
225.3601558901
 10
287.6642674214
 20
225.3490515911
 10
287.5848692182
 20
225.3340715383
 10
287.507318388
 20
225.3151346892
 10
287.4322792778
 20
225.2922071242
 10
287.3624383267
 20
225.2661058167
  0
LINE
  5
61B
100
AcDbEntity
  8
0
100
AcDbLine
 62
7
  6
CONTINUOUS
 10
301.2688522578
 20
223.2880199782
 11
300.8191075964
 21
223.4097678114
  0
LWPOLYLINE
  5
61C
100
AcDbEntity
  8
0
100
AcDbPolyline
 62
250
  6
CONTINUOUS
 90
7
 70
0
 10
295.2954067673
 20
225.2105321947
 10
295.2649367278
 20
225.2201225176
 10
295.2325346065
 20
225.2247561967
 10
295.1985475697
 20
225.2243835856
 10
295.1633397652
 20
225.2190086766
 10
295.1272884201
 20
225.2086890581
 10
295.0907797996
 20
225.1935352979
  0
LWPOLYLINE
  5
61D
100
AcDbEntity
  8
0
100
AcDbPolyline
 62
250
  6
CONTINUOUS
 90
7
 70
0
 10
295.0907797996
 20
225.1935352979
 10
295.0722994931
 20
225.2012727681
 10
295.0540931592
 20
225.205893597
 10
295.0364723133
 20
225.2073187212
 10
295.019738453
 20
225.2055237563
 10
295.0041778991
 20
225.2005394146
 10
295.0019675402
 20
225.1995240045
  0
LWPOLYLINE
  5
61E
100
AcDbEntity
  8
0
100
AcDbPolyline
 62
7
  6
CONTINUOUS
 90
10
 70
0
 10
295.3082162398
 20
225.2047169627
 10
295.2788267458
 20
225.2175716378
 10
295.2477282072
 20
225.2275047489
 10
295.2151697946
 20
225.234283524
 10
295.1815291991
 20
225.2377097708
 10
295.1470078121
 20
225.2376618672
 10
295.1115631011
 20
225.2339881558
 10
295.0753331359
 20
225.2264895843
 10
295.0387045567
 20
225.2150345009
 10
295.0019675402
 20
225.1995240045
  0
LWPOLYLINE
  5
61F
100
AcDbEntity
  8
0
100
AcDbPolyline
 62
250
  6
CONTINUOUS
 90
10
 70
0
 10
288.6151429489
 20
228.5512535983
 10
288.6092798045
 20
228.5538556231
 10
288.5936853191
 20
228.5582513684
 10
288.5759361157
 20
228.5601214545
 10
288.5561401748
 20
228.5595069595
 10
288.5345553169
 20
228.5564315549
 10
288.511433371
 20
228.5509794961
 10
288.4869825173
 20
228.5432672177
 10
288.4613588941
 20
228.5334149339
 10
288.4347328711
 20
228.5215587622
  0
LWPOLYLINE
  5
620
100
AcDbEntity
  8
0
100
AcDbPolyline
 62
7
  6
CONTINUOUS
 90
16
 70
0
 10
288.6151655895
 20
228.5512435764
 10
288.5971739532
 20
228.5593798972
 10
288.5722349399
 20
228.568039241
 10
288.5472079664
 20
228.5739645239
 10
288.5225646813
 20
228.5773011336
 10
288.4990210023
 20
228.5782933879
 10
288.4765353032
 20
228.5773047948
 10
288.455210048
 20
228.5746650083
 10
288.4357369783
 20
228.5708527007
 10
288.4182790055
 20
228.5663569017
 10
288.4019819039
 20
228.5613195121
 10
288.386056909
 20
228.5557116912
 10
288.3702827102
 20
228.5495890952
 10
288.3543415394
 20
228.5429211138
 10
288.3377208646
 20
228.5355409559
 10
288.3251166926
 20
228.5297042744
  0
LINE
  5
621
100
AcDbEntity
  8
0
100
AcDbLine
 62
250
  6
CONTINUOUS
 10
295.3082162398
 20
225.2047169627
 11
295.2954067673
 21
225.2105321947
  0
LWPOLYLINE
  5
622
100
AcDbEntity
  8
0
100
AcDbPolyline
 62
250
  6
CONTINUOUS
 90
9
 70
0
 10
288.4347328711
 20
228.5215587622
 10
288.4194490162
 20
228.528496741
 10
288.4042580032
 20
228.5337226809
 10
288.3892754449
 20
228.5371968104
 10
288.3746153685
 20
228.5388926902
 10
288.3603893445
 20
228.5387974155
 10
288.3467056387
 20
228.5369117127
 10
288.3336683914
 20
228.5332499322
 10
288.3252785782
 20
228.5297851703
  0
LINE
  5
623
100
AcDbEntity
  8
0
100
AcDbLine
 62
7
  6
CONTINUOUS
 10
293.2948679155
 20
224.3824685701
 11
289.2863338364
 21
226.3867356097
  0
LINE
  5
624
100
AcDbEntity
  8
DRAFT
100
AcDbLine
 62
7
  6
CONTINUOUS
 10
299.3468361058
 20
222.2369645382
 11
298.470958547
 21
222.6749033176
  0
LINE
  5
625
100
AcDbEntity
  8
DRAFT
100
AcDbLine
 62
7
  6
CONTINUOUS
 10
287.5191791391
 20
228.1507930215
 11
287.00400616
 21
228.4083795111
  0
LINE
  5
626
100
AcDbEntity
  8
RACCORDO
100
AcDbLine
 62
7
  6
CONTINUOUS
 10
287.6585578987
 20
228.216322723
 11
287.5679247642
 21
228.2616392903
  0
LINE
  5
627
100
AcDbEntity
  8
0
100
AcDbLine
 62
7
  6
CONTINUOUS
 10
290.9712580768
 20
226.7058226597
 11
294.4817911318
 21
224.9505561322
  0
LINE
  5
628
100
AcDbEntity
  8
0
100
AcDbLine
 62
250
  6
CONTINUOUS
 10
288.4347328711
 20
228.5215587622
 11
290.5652964
 21
227.4562769977
  0
LINE
  5
629
100
AcDbEntity
  8
0
100
AcDbLine
 62
250
  6
CONTINUOUS
 10
295.0907797996
 20
225.1935352979
 11
297.2213433284
 21
224.1282535335
  0
LINE
  5
62A
100
AcDbEntity
  8
0
100
AcDbLine
 62
7
  6
CONTINUOUS
 10
288.6152395152
 20
228.5512053251
 11
290.7827328402
 21
227.4674586625
  0
LINE
  5
62B
100
AcDbEntity
  8
0
100
AcDbLine
 62
7
  6
CONTINUOUS
 10
295.3082162398
 20
225.2047169627
 11
297.4756958499
 21
224.1209771577
  0
LINE
  5
62C
100
AcDbEntity
  8
0
100
AcDbLine
 62
7
  6
CONTINUOUS
 10
300.3241328496
 20
223.162280438
 11
299.6171639095
 21
223.515764908
  0
LINE
  5
62D
100
AcDbEntity
  8
0
100
AcDbLine
 62
7
  6
CONTINUOUS
 10
300.8191075964
 20
223.4097678114
 11
300.1121386563
 21
223.7632522815
  0
LWPOLYLINE
  5
62E
100
AcDbEntity
  8
0
100
AcDbPolyline
 62
250
  6
CONTINUOUS
 90
10
 70
0
 10
297.2213433284
 20
224.1282535335
 10
297.2368780307
 20
224.1197828916
 10
297.2522694779
 20
224.1097172941
 10
297.2674005369
 20
224.0981337464
 10
297.2821559607
 20
224.0851209091
 10
297.2964236926
 20
224.070778046
 10
297.3100956657
 20
224.0552141397
 10
297.323068061
 20
224.0385476259
 10
297.3352421483
 20
224.0209056108
 10
297.346525427
 20
224.0024224447
  0
LWPOLYLINE
  5
62F
100
AcDbEntity
  8
0
100
AcDbPolyline
 62
250
  6
CONTINUOUS
 90
13
 70
0
 10
290.5652964
 20
227.4562769977
 10
290.5837344761
 20
227.4455552765
 10
290.601814841
 20
227.4320327559
 10
290.6192281347
 20
227.41594081
 10
290.6356764108
 20
227.3975547765
 10
290.6508782348
 20
227.3771892454
 10
290.664573499
 20
227.355192677
 10
290.6765278737
 20
227.331941439
 10
290.6865368163
 20
227.3078333662
 10
290.6944290713
 20
227.2832809542
 10
290.7000695999
 20
227.2587043016
 10
290.7033618912
 20
227.2345239216
 10
290.7042496132
 20
227.2111535473
  0
LWPOLYLINE
  5
630
100
AcDbEntity
  8
0
100
AcDbPolyline
 62
7
  6
CONTINUOUS
 90
5
 70
0
 10
297.598389196
 20
224.0394850388
 10
297.581280331
 20
224.0534272659
 10
297.5438174853
 20
224.0809123167
 10
297.5053867413
 20
224.1050114435
 10
297.4752923313
 20
224.1211817765
  0
LINE
  5
631
100
AcDbEntity
  8
0
100
AcDbLine
 62
7
  6
CONTINUOUS
 10
300.3241328496
 20
223.162280438
 11
300.5380253036
 21
222.9647471703
  0
LWPOLYLINE
  5
632
100
AcDbEntity
  8
RACCORDO
100
AcDbPolyline
 62
250
  6
CONTINUOUS
 90
35
 70
0
 10
308.7031959645
 20
220.329424063
 10
308.7147934909
 20
220.2925491425
 10
308.7347309983
 20
220.219635271
 10
308.7510449954
 20
220.1486635206
 10
308.7646407557
 20
220.0795971856
 10
308.7756985125
 20
220.0126183164
 10
308.7842258875
 20
219.9476948149
 10
308.7908255689
 20
219.8844432518
 10
308.7956379829
 20
219.8228845634
 10
308.7986575223
 20
219.7630897577
 10
308.8002296604
 20
219.7047310528
 10
308.8004458393
 20
219.6477603234
 10
308.7993148923
 20
219.5922839301
 10
308.7970370642
 20
219.5381958282
 10
308.7936759187
 20
219.4854813147
 10
308.7892533426
 20
219.4341951903
 10
308.7838984255
 20
219.3843312538
 10
308.777669686
 20
219.3359150102
 10
308.7705859179
 20
219.2889490554
 10
308.7627118342
 20
219.2433900103
 10
308.75410515
 20
219.1992533843
 10
308.7447761144
 20
219.1565422741
 10
308.7347141959
 20
219.1151922459
 10
308.7239646042
 20
219.0751646891
 10
308.7125410495
 20
219.036509653
 10
308.7003850802
 20
218.9992939769
 10
308.6875326366
 20
218.9634669266
 10
308.6740027489
 20
218.9290862407
 10
308.6597155564
 20
218.8963806779
 10
308.6447040985
 20
218.8653130331
 10
308.6289880002
 20
218.8359253884
 10
308.6124729159
 20
218.8085655181
 10
308.5951446379
 20
218.7833512548
 10
308.5770638029
 20
218.760170279
 10
308.558247974
 20
218.7390257458
  0
LWPOLYLINE
  5
633
100
AcDbEntity
  8
RACCORDO
100
AcDbPolyline
 62
7
  6
CONTINUOUS
 90
8
 70
0
 10
287.2123364111
 20
228.3042143855
 10
287.2368926966
 20
228.3106362933
 10
287.2981603853
 20
228.3186713531
 10
287.3595175401
 20
228.3189017955
 10
287.4204812712
 20
228.3114852004
 10
287.4807464981
 20
228.2967397685
 10
287.5397507032
 20
228.274848388
 10
287.5679141019
 20
228.2616350319
  0
LWPOLYLINE
  5
634
100
AcDbEntity
  8
RACCORDO
100
AcDbPolyline
 62
7
  6
CONTINUOUS
 90
9
 70
0
 10
302.6619150565
 20
223.954867208
 10
302.655798316
 20
223.9564667057
 10
302.6460281022
 20
223.9579995196
 10
302.6357019068
 20
223.9584149639
 10
302.6249147096
 20
223.9577131914
 10
302.6139514507
 20
223.9558946601
 10
302.60290711
 20
223.9529595226
 10
302.5916867075
 20
223.9489076262
 10
302.5802902432
 20
223.943738971
  0
LWPOLYLINE
  5
635
100
AcDbEntity
  8
RACCORDO
100
AcDbPolyline
 62
7
  6
CONTINUOUS
 90
28
 70
0
 10
302.6619049203
 20
223.9548432555
 10
302.5531895737
 20
223.9861291013
 10
302.4383345308
 20
224.0154827783
 10
302.3210731068
 20
224.0418098485
 10
302.201699942
 20
224.0650719402
 10
302.0804795703
 20
224.0852424931
 10
301.9576502009
 20
224.1023017684
 10
301.8335014035
 20
224.1162256099
 10
301.7083179404
 20
224.1269962789
 10
301.5823374229
 20
224.1346036786
 10
301.4558510368
 20
224.1390370573
 10
301.3291483138
 20
224.140291612
 10
301.2024665684
 20
224.1383668389
 10
301.0760952986
 20
224.1332655039
 10
300.950325708
 20
224.1249962918
 10
300.8253961087
 20
224.1135684163
 10
300.7015972341
 20
224.0989985841
 10
300.5792124817
 20
224.0813085625
 10
300.4584640455
 20
224.0605143871
 10
300.3396291244
 20
224.0366427871
 10
300.222993301
 20
224.0097277353
 10
300.1087817279
 20
223.979792968
 10
299.9972665497
 20
223.9468758641
 10
299.8887203533
 20
223.9110192293
 10
299.7833534618
 20
223.8722476117
 10
299.6814066793
 20
223.8305948034
 10
299.5831605419
 20
223.7861140288
 10
299.4888764807
 20
223.7388566394
  0
LWPOLYLINE
  5
636
100
AcDbEntity
  8
RACCORDO
100
AcDbPolyline
 62
7
  6
CONTINUOUS
 90
3
 70
0
 10
302.6739557383
 20
223.9500494274
 10
302.665107528
 20
223.9538166749
 10
302.6619150565
 20
223.954867208
  0
LINE
  5
637
100
AcDbEntity
  8
DRAFT
100
AcDbLine
 62
7
  6
CONTINUOUS
 10
299.851643884
 20
224.2458979226
 11
299.4130334115
 21
224.4652031589
  0
LINE
  5
638
100
AcDbEntity
  8
RACCORDO
100
AcDbLine
 62
7
  6
CONTINUOUS
 10
304.081556864
 20
224.0061615481
 11
303.3550594752
 21
224.3694102424
  0
LINE
  5
639
100
AcDbEntity
  8
DRAFT
100
AcDbLine
 62
7
  6
CONTINUOUS
 10
303.8987272036
 20
224.1132362308
 11
303.5946078196
 21
224.2652959228
  0
LINE
  5
63A
100
AcDbEntity
  8
RACCORDO
100
AcDbLine
 62
7
  6
CONTINUOUS
 10
303.5224838757
 20
223.5257853586
 11
303.6352587609
 21
223.4692930325
  0
LWPOLYLINE
  5
63B
100
AcDbEntity
  8
RACCORDO
100
AcDbPolyline
 62
7
  6
CONTINUOUS
 90
10
 70
0
 10
303.4845398084
 20
223.5384530136
 10
303.3870627547
 20
223.5885084453
 10
303.2914495529
 20
223.6374843209
 10
303.197700203
 20
223.6853806405
 10
303.1058291217
 20
223.7321988283
 10
303.0158218923
 20
223.77793746
 10
302.9276352643
 20
223.8225922631
 10
302.8412548208
 20
223.8661618132
 10
302.7566949789
 20
223.9086475346
 10
302.6739557383
 20
223.9500494274
  0
LWPOLYLINE
  5
63C
100
AcDbEntity
  8
DRAFT
100
AcDbPolyline
 62
7
  6
CONTINUOUS
 90
10
 70
0
 10
303.8987272036
 20
224.1132362308
 10
303.8673117492
 20
224.1312890431
 10
303.8352947719
 20
224.1490563455
 10
303.8026762717
 20
224.1665381381
 10
303.769446081
 20
224.1837395047
 10
303.7356143674
 20
224.2006553615
 10
303.7012116341
 20
224.2172704569
 10
303.666248049
 20
224.2335797069
 10
303.6307134441
 20
224.2495881956
 10
303.5946078196
 20
224.2652959228
  0
LINE
  5
63D
100
AcDbEntity
  8
RACCORDO
100
AcDbLine
 62
7
  6
CONTINUOUS
 10
303.4922982371
 20
223.5338665415
 11
303.4845398084
 21
223.5384530136
  0
LWPOLYLINE
  5
63E
100
AcDbEntity
  8
RACCORDO
100
AcDbPolyline
 62
250
  6
CONTINUOUS
 90
5
 70
0
 10
303.5224838757
 20
223.5257853586
 10
303.547006866
 20
223.5052809802
 10
303.5713726277
 20
223.4840027158
 10
303.5955093779
 20
223.4619404386
 10
303.6036582053
 20
223.4541264689
  0
LWPOLYLINE
  5
63F
100
AcDbEntity
  8
RACCORDO
100
AcDbPolyline
 62
250
  6
CONTINUOUS
 90
4
 70
0
 10
303.4288472766
 20
223.5194893502
 10
303.451707706
 20
223.4999106167
 10
303.4742852443
 20
223.4795575702
 10
303.4965798915
 20
223.4584302106
  0
LINE
  5
640
100
AcDbEntity
  8
RACCORDO
100
AcDbLine
 62
250
  6
CONTINUOUS
 10
303.4965798915
 20
223.4584302106
 11
303.5186253898
 21
223.4366003236
  0
LINE
  5
641
100
AcDbEntity
  8
RACCORDO
100
AcDbLine
 62
250
  6
CONTINUOUS
 10
303.5186253898
 20
223.4366003236
 11
303.5339584289
 21
223.4206743328
  0
LINE
  5
642
100
AcDbEntity
  8
RACCORDO
100
AcDbLine
 62
250
  6
CONTINUOUS
 10
307.69209509
 20
224.6268407492
 11
308.1116383009
 21
223.9032357478
  0
LWPOLYLINE
  5
643
100
AcDbEntity
  8
RACCORDO
100
AcDbPolyline
 62
250
  6
CONTINUOUS
 90
13
 70
0
 10
308.1116383009
 20
223.9032357478
 10
308.1634075504
 20
223.8096552303
 10
308.2114509008
 20
223.7139357757
 10
308.2555626232
 20
223.6164872693
 10
308.2955538245
 20
223.5177270001
 10
308.3312532557
 20
223.4180778752
 10
308.362508046
 20
223.3179666084
 10
308.3891843577
 20
223.2178218917
 10
308.4111679585
 20
223.1180725601
 10
308.4283647114
 20
223.0191457567
 10
308.4407009771
 20
222.9214651015
 10
308.4481239303
 20
222.8254488777
 10
308.4506017848
 20
222.7315082413
  0
LINE
  5
644
100
AcDbEntity
  8
DRAFT
100
AcDbLine
 62
7
  6
CONTINUOUS
 10
306.2933272374
 20
224.7450226426
 11
303.1810896645
 21
226.301141429
  0
LINE
  5
645
100
AcDbEntity
  8
RACCORDO
100
AcDbLine
 62
250
  6
CONTINUOUS
 10
307.69209509
 20
224.6268407492
 11
306.8864231539
 21
225.0296767172
  0
LINE
  5
646
100
AcDbEntity
  8
RACCORDO
100
AcDbLine
 62
250
  6
CONTINUOUS
 10
302.1847600748
 20
227.3805082568
 11
301.2136012411
 21
227.8660876736
  0
LINE
  5
647
100
AcDbEntity
  8
RACCORDO
100
AcDbLine
 62
7
  6
CONTINUOUS
 10
308.0241036343
 20
224.67665627
 11
307.1984586537
 21
225.0894787603
  0
LINE
  5
648
100
AcDbEntity
  8
RACCORDO
100
AcDbLine
 62
7
  6
CONTINUOUS
 10
302.6554957601
 20
227.360960207
 11
301.6049868336
 21
227.8862146703
  0
LWPOLYLINE
  5
649
100
AcDbEntity
  8
RACCORDO
100
AcDbPolyline
 62
7
  6
CONTINUOUS
 90
4
 70
0
 10
308.0240911604
 20
224.6766625069
 10
308.0379394955
 20
224.6687451382
 10
308.061475192
 20
224.6493728597
 10
308.0815576307
 20
224.6226610406
  0
LWPOLYLINE
  5
64A
100
AcDbEntity
  8
RACCORDO
100
AcDbPolyline
 62
7
  6
CONTINUOUS
 90
35
 70
0
 10
308.7031959645
 20
222.4115121348
 10
308.8199694932
 20
222.3344100285
 10
308.9597661667
 20
222.2298963823
 10
309.0965040225
 20
222.1153677852
 10
309.229369466
 20
221.9916512808
 10
309.3577549193
 20
221.8595045057
 10
309.4813365194
 20
221.7194370997
 10
309.5997166807
 20
221.572031596
 10
309.7124710638
 20
221.4179207065
 10
309.8191466299
 20
221.2578139224
 10
309.919303642
 20
221.0924581653
 10
310.0125195857
 20
220.9226404035
 10
310.0984727084
 20
220.749022373
 10
310.17688809
 20
220.5721844142
 10
310.247454765
 20
220.3927938505
 10
310.3098293474
 20
220.2116592904
 10
310.3637140834
 20
220.0295639954
 10
310.4088508065
 20
219.8472594124
 10
310.4450097092
 20
219.6654825753
 10
310.4719854532
 20
219.4849591155
 10
310.4896052585
 20
219.3062566632
 10
310.4976781597
 20
219.1302601475
 10
310.4960780979
 20
218.9580799067
 10
310.4847307258
 20
218.7901639313
 10
310.4635961235
 20
218.627386995
 10
310.4328667695
 20
218.4712933547
 10
310.3927622771
 20
218.3225513899
 10
310.3434359289
 20
218.1814584595
 10
310.2852408092
 20
218.0487923695
 10
310.2184324256
 20
217.9248950187
 10
310.1433637119
 20
217.8102359205
 10
310.0607740065
 20
217.7056382825
 10
309.9713348355
 20
217.6115109431
 10
309.8755105271
 20
217.5279303832
 10
309.7739190576
 20
217.4550814577
  0
LWPOLYLINE
  5
64B
100
AcDbEntity
  8
RACCORDO
100
AcDbPolyline
 62
250
  6
CONTINUOUS
 90
34
 70
0
 10
308.7031959645
 20
222.3329016138
 10
308.7812910553
 20
222.2773898104
 10
308.9184319252
 20
222.1679342011
 10
309.0529744168
 20
222.0484087276
 10
309.1842909957
 20
221.9193708789
 10
309.3117691542
 20
221.7814225305
 10
309.434814291
 20
221.6352071199
 10
309.5528524865
 20
221.4814066412
 10
309.665333181
 20
221.3207384591
 10
309.7717317356
 20
221.1539519717
 10
309.8715518786
 20
220.9818251162
 10
309.96432802
 20
220.8051607414
 10
310.0496274252
 20
220.6247828605
 10
310.1270522341
 20
220.4415328067
 10
310.1962413158
 20
220.2562653088
 10
310.2568719535
 20
220.0698445057
 10
310.308661349
 20
219.8831399159
 10
310.351367942
 20
219.6970223817
 10
310.3847925371
 20
219.5123600074
 10
310.4087792326
 20
219.3300141097
 10
310.4232161479
 20
219.1508352006
 10
310.4280359452
 20
218.9756590206
 10
310.4232161436
 20
218.8053026402
 10
310.408779224
 20
218.640560649
 10
310.3847925242
 20
218.4822014496
 10
310.3513679249
 20
218.3309636734
 10
310.3086613276
 20
218.1875527357
 10
310.256871928
 20
218.052637545
 10
310.1962412862
 20
217.9268473837
 10
310.1270522005
 20
217.8107689719
 10
310.0496273878
 20
217.7049437315
 10
309.9643279787
 20
217.6098652606
 10
309.8715518336
 20
217.5259770322
 10
309.7739190576
 20
217.4550814577
  0
LWPOLYLINE
  5
64C
100
AcDbEntity
  8
RACCORDO
100
AcDbPolyline
 62
250
  6
CONTINUOUS
 90
12
 70
0
 10
308.4291972248
 20
224.0230242695
 10
308.4278380882
 20
224.0246213835
 10
308.4199191701
 20
224.0271429866
 10
308.4062745776
 20
224.0262741774
 10
308.3870058609
 20
224.0220214221
 10
308.362256428
 20
224.0144163718
 10
308.3322104769
 20
224.0035156273
 10
308.2970916255
 20
223.9894003176
 10
308.2571612465
 20
223.9721754965
 10
308.2127165225
 20
223.9519693602
 10
308.1640882346
 20
223.9289322932
 10
308.1116382999
 20
223.9032357495
  0
LINE
  5
64D
100
AcDbEntity
  8
RACCORDO
100
AcDbLine
 62
7
  6
CONTINUOUS
 10
308.0815158373
 20
224.6226859596
 11
308.4291972248
 21
224.0230242695
  0
ARC
  5
64E
100
AcDbEntity
  8
RACCORDO
100
AcDbCircle
 62
7
  6
CONTINUOUS
 10
301.2024945977
 20
227.0812301984
 40
0.9
100
AcDbArc
 50
63.4336836047
 51
114.7890578208
  0
ARC
  5
64F
100
AcDbEntity
  8
RACCORDO
100
AcDbCircle
 62
7
  6
CONTINUOUS
 10
288.2749431434
 20
225.1361704214
 40
0.2
100
AcDbArc
 50
63.4291405642
 51
77.4605278432
  0
ELLIPSE
  5
650
100
AcDbEntity
  8
0
100
AcDbEllipse
 62
7
  6
CONTINUOUS
 10
288.9161872455
 20
196.8189025346
 30
0.0
 11
0.1625931071
 21
2.5938840684
 31
0.0
 40
0.1836713524
 41
-1.4110416324
 42
-0.5721038123
  0
ELLIPSE
  5
651
100
AcDbEntity
  8
0
100
AcDbEllipse
 62
7
  6
CONTINUOUS
 10
289.3813937396
 20
197.1780975566
 30
0.0
 11
0.0101620692
 21
0.1621177543
 31
0.0
 40
0.1836713524
 41
-2.4036984828
 42
-1.4110416324
  0
ELLIPSE
  5
652
100
AcDbEntity
  8
0
100
AcDbEllipse
 62
7
  6
CONTINUOUS
 10
281.3666517173
 20
181.7383409149
 30
0.0
 11
-0.3579214571
 21
0.7157361817
 31
0.0
 40
0.6121897086
 41
-3.1606089638
 42
-2.4039657685
  0
ELLIPSE
  5
653
100
AcDbEntity
  8
0
100
AcDbEllipse
 62
7
  6
CONTINUOUS
 10
266.0773201942
 20
219.9881169545
 30
0.0
 11
-0.2234618187
 21
0.4480306886
 31
0.0
 40
0.6116748051
 41
5.6000329829
 42
6.3231232417
  0
ELLIPSE
  5
654
100
AcDbEntity
  8
0
100
AcDbEllipse
 62
7
  6
CONTINUOUS
 10
280.9583850376
 20
212.5475845328
 30
0.0
 11
-0.2230998035
 21
0.4477110033
 31
0.0
 40
0.6127700112
 41
-2.2535417632
 42
-0.6836588249
  0
ELLIPSE
  5
655
100
AcDbEntity
  8
0
100
AcDbEllipse
 62
7
  6
CONTINUOUS
 10
280.9583850376
 20
175.188729833
 30
0.0
 11
-0.2234618187
 21
0.4480306886
 31
0.0
 40
0.6116748051
 41
3.1016543938
 42
4.0283232676
  0
ELLIPSE
  5
656
100
AcDbEntity
  8
DRAFT
100
AcDbEllipse
 62
7
  6
CONTINUOUS
 10
301.8021238634
 20
223.2706579329
 30
0.0
 11
2.7583300471
 21
-0.038763314
 31
0.0
 40
0.4892375088
 41
0.4291477653
 42
0.6564870977
  0
ELLIPSE
  5
657
100
AcDbEntity
  8
DRAFT
100
AcDbEllipse
 62
7
  6
CONTINUOUS
 10
301.1303724212
 20
223.3821556169
 30
0.0
 11
2.7499350056
 21
-0.0386453369
 31
0.0
 40
0.4892375088
 41
8.654981679
 42
9.2672200839
  0
ELLIPSE
  5
658
100
AcDbEntity
  8
DRAFT
100
AcDbEllipse
 62
7
  6
CONTINUOUS
 10
301.8021238634
 20
223.2706579329
 30
0.0
 11
2.7583300471
 21
-0.038763314
 31
0.0
 40
0.4892375088
 41
0.9280596999
 42
2.3630697256
  0
ELLIPSE
  5
659
100
AcDbEntity
  8
RACCORDO
100
AcDbEllipse
 62
7
  6
CONTINUOUS
 10
306.5078380945
 20
224.42855845
 30
0.0
 11
0.716172246
 21
0.6416715914
 31
0.0
 40
0.2882345029
 41
0.1134876298
 42
0.7807533904
  0
ELLIPSE
  5
65A
100
AcDbEntity
  8
DRAFT
100
AcDbEllipse
 62
7
  6
CONTINUOUS
 10
301.8021238634
 20
225.2153686442
 30
0.0
 11
2.7583515655
 21
-1.4175703156
 31
0.0
 40
0.0109499087
 41
-0.9155571536
 42
-0.85781018
  0
ELLIPSE
  5
65B
100
AcDbEntity
  8
DRAFT
100
AcDbEllipse
 62
7
  6
CONTINUOUS
 10
301.8021238634
 20
225.2153686442
 30
0.0
 11
2.7583515655
 21
-1.4175703156
 31
0.0
 40
0.0109499087
 41
-0.7017315251
 42
-0.6439845515
  0
ELLIPSE
  5
65C
100
AcDbEntity
  8
0
100
AcDbEllipse
 62
7
  6
CONTINUOUS
 10
301.1066336022
 20
224.5639177496
 30
0.0
 11
3.3311333813
 21
-0.0467042088
 31
0.0
 40
0.4892378494
 41
2.3616770883
 42
5.5059722822
  0
ELLIPSE
  5
65D
100
AcDbEntity
  8
DRAFT
100
AcDbEllipse
 62
7
  6
CONTINUOUS
 10
301.8021238634
 20
223.7036706348
 30
0.0
 11
2.7583300471
 21
-0.038763314
 31
0.0
 40
0.4892375088
 41
0.1708839954
 42
2.3630697256
  0
ELLIPSE
  5
65E
100
AcDbEntity
  8
RACCORDO
100
AcDbEllipse
 62
7
  6
CONTINUOUS
 10
302.5411318474
 20
226.4119115735
 30
0.0
 11
-0.2796057293
 21
0.9974617846
 31
0.0
 40
0.6760995073
 41
4.8467711056
 42
6.4001141399
  0
ELLIPSE
  5
65F
100
AcDbEntity
  8
0
100
AcDbEllipse
 62
7
  6
CONTINUOUS
 10
280.0551042566
 20
225.0134595329
 30
0.0
 11
-0.2236051685
 21
0.4472372818
 31
0.0
 40
0.6123496457
 41
-0.6846763751
 42
-0.0070067563
  0
ELLIPSE
  5
660
100
AcDbEntity
  8
0
100
AcDbEllipse
 62
7
  6
CONTINUOUS
 10
288.5619487385
 20
197.2081538225
 30
0.0
 11
0.132308947
 21
0.2692527733
 31
0.0
 40
0.607010042
 41
1.509556589
 42
2.9930864532
  0
ELLIPSE
  5
661
100
AcDbEntity
  8
0
100
AcDbEllipse
 62
7
  6
CONTINUOUS
 10
292.1536023854
 20
218.9642104685
 30
0.0
 11
-0.223592727
 21
0.4472262246
 31
0.0
 40
0.6123874982
 41
-1.470060655
 42
-0.6846940354
  0
ELLIPSE
  5
662
100
AcDbEntity
  8
0
100
AcDbEllipse
 62
7
  6
CONTINUOUS
 10
292.5448881693
 20
184.8706575864
 30
0.0
 11
-0.8945233702
 21
1.7888836716
 31
0.0
 40
0.6123573717
 41
-3.0409388568
 42
-2.2555722372
  0
ELLIPSE
  5
663
100
AcDbEntity
  8
0
100
AcDbEllipse
 62
7
  6
CONTINUOUS
 10
292.5448881693
 20
216.4521550579
 30
0.0
 11
-0.8944736152
 21
1.7888394374
 31
0.0
 40
0.6123952257
 41
-2.2555268178
 42
-1.4701601983
  0
ELLIPSE
  5
664
100
AcDbEntity
  8
RACCORDO
100
AcDbEllipse
 62
7
  6
CONTINUOUS
 10
285.1850606545
 20
212.7403178353
 30
0.0
 11
-0.8944736152
 21
1.7888394374
 31
0.0
 40
0.6123952257
 41
4.0276584893
 42
4.2997656388
  0
ELLIPSE
  5
665
100
AcDbEntity
  8
RACCORDO
100
AcDbEllipse
 62
7
  6
CONTINUOUS
 10
285.1850606545
 20
181.093079919
 30
0.0
 11
-0.8945233702
 21
1.7888836716
 31
0.0
 40
0.6123573717
 41
-2.5276793866
 42
-2.2555722372
  0
ELLIPSE
  5
666
100
AcDbEntity
  8
0
100
AcDbEllipse
 62
7
  6
CONTINUOUS
 10
286.1626675483
 20
177.477121577
 30
0.0
 11
-0.2237009107
 21
0.4473351135
 31
0.0
 40
0.6121897086
 41
-3.1225765766
 42
-2.2557347926
  0
ELLIPSE
  5
667
100
AcDbEntity
  8
0
100
AcDbEllipse
 62
7
  6
CONTINUOUS
 10
286.3349288808
 20
207.6730933179
 30
0.0
 11
-0.1338648216
 21
0.2685745395
 31
0.0
 40
0.6130677323
 41
-2.2534169372
 42
-0.6839906064
  0
ELLIPSE
  5
668
100
AcDbEntity
  8
0
100
AcDbEllipse
 62
7
  6
CONTINUOUS
 10
286.3349288808
 20
212.2902364292
 30
0.0
 11
-0.1341904305
 21
0.268862369
 31
0.0
 40
0.6114248242
 41
-3.1857728421
 42
-2.25539606
  0
ELLIPSE
  5
669
100
AcDbEntity
  8
0
100
AcDbEllipse
 62
7
  6
CONTINUOUS
 10
286.1626675483
 20
215.3786692835
 30
0.0
 11
-0.2235807756
 21
0.4472283268
 31
0.0
 40
0.6125552124
 41
-2.255296188
 42
-0.6848044477
  0
ELLIPSE
  5
66A
100
AcDbEntity
  8
0
100
AcDbEllipse
 62
7
  6
CONTINUOUS
 10
291.478364858
 20
223.9489472144
 30
0.0
 11
0.9999763657
 21
-0.0140528498
 31
0.0
 40
0.4892375088
 41
-0.778522928
 42
0.0068752741
  0
ELLIPSE
  5
66B
100
AcDbEntity
  8
0
100
AcDbEllipse
 62
7
  6
CONTINUOUS
 10
297.0781721182
 20
222.2990129107
 30
0.0
 11
0.7040475903
 21
0.5731754601
 31
0.0
 40
0.6627826692
 41
-0.768023625
 42
-0.494808636
  0
ELLIPSE
  5
66C
100
AcDbEntity
  8
0
100
AcDbEllipse
 62
7
  6
CONTINUOUS
 10
284.0537436556
 20
199.3921829471
 30
0.0
 11
0.1499964548
 21
-0.0021079275
 31
0.0
 40
0.4892375088
 41
-2.3493192548
 42
-0.778522928
  0
ELLIPSE
  5
66D
100
AcDbEntity
  8
0
100
AcDbEllipse
 62
7
  6
CONTINUOUS
 10
284.0537436556
 20
190.7319289092
 30
0.0
 11
0.1499964548
 21
-0.0021079275
 31
0.0
 40
0.4892375088
 41
-2.3493192548
 42
-0.778522928
  0
ELLIPSE
  5
66E
100
AcDbEntity
  8
0
100
AcDbEllipse
 62
7
  6
CONTINUOUS
 10
284.7367308431
 20
182.7283762363
 30
0.0
 11
0.1999631714
 21
-0.0082132501
 31
0.0
 40
0.4672909446
 41
-2.3370034251
 42
-0.7923870371
  0
ELLIPSE
  5
66F
100
AcDbEntity
  8
0
100
AcDbEllipse
 62
7
  6
CONTINUOUS
 10
269.3700422006
 20
218.9905588824
 30
0.0
 11
0.1999631714
 21
-0.0082132501
 31
0.0
 40
0.4672909446
 41
-3.1224015724
 42
-2.7474456654
  0
ELLIPSE
  5
670
100
AcDbEntity
  8
0
100
AcDbEllipse
 62
7
  6
CONTINUOUS
 10
282.2759218626
 20
186.2335578479
 30
0.0
 11
0.1499964548
 21
-0.0021079275
 31
0.0
 40
0.4892375088
 41
-3.1347174182
 42
-2.3493192548
  0
ELLIPSE
  5
671
100
AcDbEntity
  8
0
100
AcDbEllipse
 62
7
  6
CONTINUOUS
 10
281.3456066496
 20
176.7178223346
 30
0.0
 11
4.1221505421
 21
-0.8746631292
 31
0.0
 40
0.0464285219
 41
0.0098511692
 42
0.2771570121
  0
ELLIPSE
  5
672
100
AcDbEntity
  8
0
100
AcDbEllipse
 62
7
  6
CONTINUOUS
 10
271.8209040532
 20
218.9130084466
 30
0.0
 11
-0.4474018214
 21
0.8946702271
 31
0.0
 40
0.6121897086
 41
-0.6846338794
 42
0.0190163283
  0
ELLIPSE
  5
673
100
AcDbEntity
  8
0
100
AcDbEllipse
 62
7
  6
CONTINUOUS
 10
281.3456066496
 20
211.4375576241
 30
0.0
 11
4.12116907
 21
4.8570397865
 31
0.0
 40
0.0203189492
 41
5.9919369653
 42
6.2592428082
  0
ELLIPSE
  5
674
100
AcDbEntity
  8
0
100
AcDbEllipse
 62
7
  6
CONTINUOUS
 10
290.7712580768
 20
226.7128987261
 30
0.0
 11
0.1996300686
 21
-0.0382240167
 31
0.0
 40
0.3180924274
 41
-0.7245668018
 42
0.0608315045
  0
ELLIPSE
  5
675
100
AcDbEntity
  8
0
100
AcDbEllipse
 62
7
  6
CONTINUOUS
 10
283.8962769261
 20
206.9529456452
 30
0.0
 11
0.0919907694
 21
0.1776025845
 31
0.0
 40
0.6229838795
 41
-4.0187835583
 42
-3.132707757
  0
ELLIPSE
  5
676
100
AcDbEntity
  8
0
100
AcDbEllipse
 62
7
  6
CONTINUOUS
 10
267.9812884851
 20
218.1197167063
 30
0.0
 11
4.12116907
 21
4.8570397865
 31
0.0
 40
0.0203189492
 41
5.9919369653
 42
6.2592428082
  0
ELLIPSE
  5
677
100
AcDbEntity
  8
0
100
AcDbEllipse
 62
7
  6
CONTINUOUS
 10
280.6122584607
 20
223.1655077055
 30
0.0
 11
0.3834884549
 21
-0.005389233
 31
0.0
 40
0.4892375088
 41
-0.778522928
 42
0.0068752687
  0
ELLIPSE
  5
678
100
AcDbEntity
  8
0
100
AcDbEllipse
 62
7
  6
CONTINUOUS
 10
286.104353321
 20
220.4194602753
 30
0.0
 11
0.3834884549
 21
-0.005389233
 31
0.0
 40
0.4892375088
 41
-0.7610696355
 42
0.0068751324
  0
ELLIPSE
  5
679
100
AcDbEntity
  8
0
100
AcDbEllipse
 62
7
  6
CONTINUOUS
 10
271.8183062797
 20
222.1414396782
 30
0.0
 11
0.199943508
 21
0.008945986
 31
0.0
 40
0.5313301283
 41
-0.8266200532
 42
-0.0237685999
  0
ELLIPSE
  5
67A
100
AcDbEntity
  8
0
100
AcDbEllipse
 62
7
  6
CONTINUOUS
 10
285.1826244441
 20
215.459280596
 30
0.0
 11
0.199943508
 21
0.008945986
 31
0.0
 40
0.5313301283
 41
-0.7225930368
 42
-0.0237682717
  0
ELLIPSE
  5
67B
100
AcDbEntity
  8
0
100
AcDbEllipse
 62
7
  6
CONTINUOUS
 10
287.9428309521
 20
225.7167141674
 30
0.0
 11
0.9999763657
 21
-0.0140528498
 31
0.0
 40
0.4892375088
 41
1.5676708954
 42
2.3630697256
  0
ELLIPSE
  5
67C
100
AcDbEntity
  8
0
100
AcDbEllipse
 62
7
  6
CONTINUOUS
 10
284.0537436556
 20
200.2022771912
 30
0.0
 11
0.1499959118
 21
0.0021688664
 31
0.0
 40
0.5106100819
 41
-2.3635775243
 42
-0.7927811975
  0
ELLIPSE
  5
67D
100
AcDbEntity
  8
0
100
AcDbEllipse
 62
7
  6
CONTINUOUS
 10
284.0537436556
 20
191.5420231533
 30
0.0
 11
0.1499959118
 21
0.0021688664
 31
0.0
 40
0.5106100819
 41
-2.3635775243
 42
-0.7927811975
  0
ELLIPSE
  5
67E
100
AcDbEntity
  8
0
100
AcDbEllipse
 62
7
  6
CONTINUOUS
 10
282.8891998157
 20
179.8554694128
 30
0.0
 11
0.249929385
 21
0.0111824824
 31
0.0
 40
0.5313301283
 41
-2.3799630874
 42
-0.8266200532
  0
ELLIPSE
  5
67F
100
AcDbEntity
  8
0
100
AcDbEllipse
 62
7
  6
CONTINUOUS
 10
282.964051458
 20
179.8180435917
 30
0.0
 11
0.249929385
 21
0.0111824824
 31
0.0
 40
0.5313301283
 41
-2.3799630874
 42
-0.8266200532
  0
ELLIPSE
  5
680
100
AcDbEntity
  8
0
100
AcDbEllipse
 62
7
  6
CONTINUOUS
 10
284.7367308431
 20
179.721821811
 30
0.0
 11
0.199943508
 21
0.008945986
 31
0.0
 40
0.5313301283
 41
-2.3799630874
 42
-0.8353466994
  0
ELLIPSE
  5
681
100
AcDbEntity
  8
0
100
AcDbEllipse
 62
7
  6
CONTINUOUS
 10
285.4679679881
 20
208.7136234874
 30
0.0
 11
-0.178504923
 21
0.3582359938
 31
0.0
 40
0.6124818573
 41
0.8878436805
 42
2.4581832957
  0
ELLIPSE
  5
682
100
AcDbEntity
  8
0
100
AcDbEllipse
 62
7
  6
CONTINUOUS
 10
283.6418760377
 20
179.1557625803
 30
0.0
 11
0.4999863728
 21
0.0072295547
 31
0.0
 40
0.5106100819
 41
3.1342095519
 42
3.9196077829
  0
ELLIPSE
  5
683
100
AcDbEntity
  8
0
100
AcDbEllipse
 62
7
  6
CONTINUOUS
 10
273.0104814182
 20
219.5454887433
 30
0.0
 11
0.4999863728
 21
0.0072295547
 31
0.0
 40
0.5106100819
 41
-2.3635775243
 42
-0.8261435483
  0
ELLIPSE
  5
684
100
AcDbEntity
  8
0
100
AcDbEllipse
 62
7
  6
CONTINUOUS
 10
283.6418760377
 20
214.2297914335
 30
0.0
 11
0.4999863728
 21
0.0072295547
 31
0.0
 40
0.5106100819
 41
3.1342095519
 42
3.9196077829
  0
ELLIPSE
  5
685
100
AcDbEntity
  8
0
100
AcDbEllipse
 62
7
  6
CONTINUOUS
 10
269.5779301167
 20
219.3555182679
 30
0.0
 11
0.1132659266
 21
0.1659910225
 31
0.0
 40
0.6918255544
 41
0.7959647361
 42
0.9181377837
  0
ELLIPSE
  5
686
100
AcDbEntity
  8
0
100
AcDbEllipse
 62
7
  6
CONTINUOUS
 10
273.6938547799
 20
217.9038001029
 30
0.0
 11
0.1999945491
 21
0.0028918219
 31
0.0
 40
0.5106100819
 41
3.1342096237
 42
3.9196077829
  0
ELLIPSE
  5
687
100
AcDbEntity
  8
0
100
AcDbEllipse
 62
7
  6
CONTINUOUS
 10
274.048957233
 20
217.7262488764
 30
0.0
 11
0.1999945491
 21
0.0028918219
 31
0.0
 40
0.5106100819
 41
-2.3635775243
 42
-0.81023449
  0
ELLIPSE
  5
688
100
AcDbEntity
  8
0
100
AcDbEllipse
 62
7
  6
CONTINUOUS
 10
280.0578158106
 20
214.7218195876
 30
0.0
 11
0.1999945491
 21
0.0028918219
 31
0.0
 40
0.5106100819
 41
3.1342096237
 42
3.9196077829
  0
ELLIPSE
  5
689
100
AcDbEntity
  8
0
100
AcDbEllipse
 62
7
  6
CONTINUOUS
 10
280.4129182637
 20
214.544268361
 30
0.0
 11
0.1999945491
 21
0.0028918219
 31
0.0
 40
0.5106100819
 41
-2.3635775243
 42
-0.81023449
  0
ELLIPSE
  5
68A
100
AcDbEntity
  8
0
100
AcDbEllipse
 62
7
  6
CONTINUOUS
 10
284.6716541118
 20
191.6302907461
 30
0.0
 11
0.1999945491
 21
0.0028918219
 31
0.0
 40
0.5106100819
 41
3.1342101164
 42
3.9196077829
  0
ELLIPSE
  5
68B
100
AcDbEntity
  8
0
100
AcDbEllipse
 62
7
  6
CONTINUOUS
 10
283.8962769261
 20
183.6175065383
 30
0.0
 11
0.0919907694
 21
0.1776025845
 31
0.0
 40
0.6229838795
 41
0.7110587146
 42
2.2644017489
  0
ELLIPSE
  5
68C
100
AcDbEntity
  8
0
100
AcDbEllipse
 62
7
  6
CONTINUOUS
 10
284.6716541118
 20
200.290544784
 30
0.0
 11
0.1999945491
 21
0.0028918219
 31
0.0
 40
0.5106100819
 41
3.1342101164
 42
3.9196077829
  0
ELLIPSE
  5
68D
100
AcDbEntity
  8
0
100
AcDbEllipse
 62
7
  6
CONTINUOUS
 10
282.2759218626
 20
183.9793068135
 30
0.0
 11
0.1499959118
 21
0.0021688664
 31
0.0
 40
0.5106100819
 41
8.6354874218
 42
10.2027930901
  0
ELLIPSE
  5
68E
100
AcDbEntity
  8
0
100
AcDbEllipse
 62
7
  6
CONTINUOUS
 10
282.2759218626
 20
205.6299419081
 30
0.0
 11
0.1499959118
 21
0.0021688664
 31
0.0
 40
0.5106100819
 41
8.6354874218
 42
10.2027930901
  0
ELLIPSE
  5
68F
100
AcDbEntity
  8
0
100
AcDbEllipse
 62
7
  6
CONTINUOUS
 10
285.4820807945
 20
215.0412163894
 30
0.0
 11
41.2152542262
 21
22.501943358
 31
0.0
 40
0.0081048063
 41
1.5702662029
 42
1.5894695494
  0
ELLIPSE
  5
690
100
AcDbEntity
  8
0
100
AcDbEllipse
 62
7
  6
CONTINUOUS
 10
283.0451725576
 20
180.220212717
 30
0.0
 11
-0.4474018214
 21
0.8946702271
 31
0.0
 40
0.6121897086
 41
-2.5638639176
 42
-2.2557347926
  0
ELLIPSE
  5
691
100
AcDbEntity
  8
0
100
AcDbEllipse
 62
7
  6
CONTINUOUS
 10
283.0451725576
 20
212.2175392282
 30
0.0
 11
-0.4471615512
 21
0.8944566536
 31
0.0
 40
0.6125552124
 41
-2.198237195
 42
-1.9471670631
  0
ELLIPSE
  5
692
100
AcDbEntity
  8
0
100
AcDbEllipse
 62
7
  6
CONTINUOUS
 10
284.1243466215
 20
212.7612871625
 30
0.0
 11
-0.4471615512
 21
0.8944566536
 31
0.0
 40
0.6125552124
 41
-1.1981783835
 42
-0.6848044477
  0
ELLIPSE
  5
693
100
AcDbEntity
  8
0
100
AcDbEllipse
 62
7
  6
CONTINUOUS
 10
274.5871849177
 20
220.3807537345
 30
0.0
 11
0.2999152621
 21
0.0134189789
 31
0.0
 40
0.5313301283
 41
3.1178239796
 42
3.9032222197
  0
ELLIPSE
  5
694
100
AcDbEntity
  8
0
100
AcDbEllipse
 62
7
  6
CONTINUOUS
 10
280.3681162634
 20
217.4902880617
 30
0.0
 11
0.2999152621
 21
0.0134189789
 31
0.0
 40
0.5313301283
 41
-2.3799630874
 42
-0.8266200532
  0
ELLIPSE
  5
695
100
AcDbEntity
  8
0
100
AcDbEllipse
 62
7
  6
CONTINUOUS
 10
271.0269119661
 20
221.7093942607
 30
0.0
 11
0.199943508
 21
0.008945986
 31
0.0
 40
0.5313301283
 41
-0.8615266382
 42
-0.8266200532
  0
ENDSEC
  0
SECTION
  2
OBJECTS
  0
DICTIONARY
  5
C
100
AcDbDictionary
280
0
281
1
  3
ACAD_GROUP
350
D
  3
ACAD_MLINESTYLE
350
17
  3
ACAD_LAYOUT
350
1A
  3
ACAD_PLOTSETTINGS
350
19
  3
ACAD_PLOTSTYLENAME
350
E
  0
DICTIONARY
  5
D
102
{ACAD_REACTORS
330
C
102
}
100
AcDbDictionary
280
0
281
1
  0
ACDBDICTIONARYWDFLT
  5
E
102
{ACAD_REACTORS
330
C
102
}
100
AcDbDictionary
281
1
  3
Normal
350
F
100
AcDbDictionaryWithDefault
340
F
  0
DICTIONARY
  5
17
102
{ACAD_REACTORS
330
C
102
}
100
AcDbDictionary
280
0
281
1
  3
Standard
350
18
  0
DICTIONARY
  5
19
102
{ACAD_REACTORS
330
C
102
}
100
AcDbDictionary
281
1
  0
DICTIONARY
  5
1A
102
{ACAD_REACTORS
330
C
102
}
100
AcDbDictionary
281
1
  3
Model
350
696
  3
Layout1
350
697
  0
ACDBPLACEHOLDER
  5
F
102
{ACAD_REACTORS
330
E
102
}
  0
MLINESTYLE
  5
18
102
{ACAD_REACTORS
330
17
102
}
100
AcDbMlineStyle
  2
STANDARD
 70
0
  3

 62
256
 51
90.0
 52
90.0
 71
2
 49
0.5
 62
256
  6
BYLAYER
 49
-0.5
 62
256
  6
BYLAYER
  0
LAYOUT
  5
696
102
{ACAD_REACTORS
330
1A
102
}
100
AcDbPlotSettings
  1

  2
none_device
  4
ANSI_C_(22.00_x_17.00_Inches)
  6

 40
0.0
 41
0.0
 42
0.0
 43
0.0
 44
558.8
 45
431.8
 46
0.0
 47
0.0
 48
0.0
 49
0.0
140
0.0
141
0.0
142
1.0
143
1.0
 70
1024
 72
1
 73
0
 74
0
  7

 75
0
147
1.0
148
0.0
149
0.0
100
AcDbLayout
  1
Model
 70
0
 71
0
 10
0.0
 20
0.0
 11
558.8
 21
431.8
 12
0.0
 22
0.0
 32
0.0
 14
0.0
 24
0.0
 34
0.0
 15
0.0
 25
0.0
 35
0.0
146
0.0
 13
0.0
 23
0.0
 33
0.0
 16
1.0
 26
0.0
 36
0.0
 17
0.0
 27
1.0
 37
0.0
 76
0
330
227
345
0
346
0
  0
LAYOUT
  5
697
102
{ACAD_REACTORS
330
1A
102
}
100
AcDbPlotSettings
  1

  2
none_device
  4
ANSI_C_(22.00_x_17.00_Inches)
  6

 40
0.0
 41
0.0
 42
0.0
 43
0.0
 44
558.8
 45
431.8
 46
0.0
 47
0.0
 48
0.0
 49
0.0
140
0.0
141
0.0
142
1.0
143
1.0
 70
0
 72
1
 73
0
 74
0
  7

 75
0
147
1.0
148
0.0
149
0.0
100
AcDbLayout
  1
Layout1
 70
0
 71
1
 10
0.0
 20
0.0
 11
558.8
 21
431.8
 12
0.0
 22
0.0
 32
0.0
 14
0.0
 24
0.0
 34
0.0
 15
0.0
 25
0.0
 35
0.0
146
0.0
 13
0.0
 23
0.0
 33
0.0
 16
1.0
 26
0.0
 36
0.0
 17
0.0
 27
1.0
 37
0.0
 76
0
330
228
345
0
346
0
  0
ENDSEC
  0
EOF
