  0
SECTION
  2
HEADER
  9
$ACADVER
  1
AC1024
  9
$DWGCODEPAGE
  3
ANSI_1252
  9
$EXTMAX
 10
558.8
 20
431.8
 30
0.0
  9
$EXTMIN
 10
0.0
 20
0.0
 30
0.0
  9
$LIMMIN
 10
0.0
 20
0.0
  9
$LIMMAX
 10
558.8
 20
431.8
  9
$VIEWCTR
 10
279.4
 20
215.9
  9
$VIEWSIZE
 40
431.8
  9
$CLAYER
  8
0
  9
$LTSCALE
 40
30.734
  9
$CELTYPE
  6
BYLAYER
  9
$DIMSCALE
 40
1.0
  9
$DIMASZ
 40
3.0
  9
$DIMEXO
 40
0.5
  9
$DIMDLI
 40
21.2344
  9
$DIMEXE
 40
1.5
  9
$DIMCEN
 40
5.0292
  9
$DIMLFAC
 40
1.0
  9
$DIMBLK
  1
_FILLED
  9
$DIMALT
 70
0
  9
$DIMALTF
 40
0.0393700787
  9
$DIMTXT
 40
3.0
  9
$DIMTOL
 70
1
  9
$DIMLIM
 70
0
  9
$DIMTFAC
 40
1.0
  9
$DIMTP
 40
0.01
  9
$DIMTM
 40
0.01
  9
$DIMGAP
 40
0.625
  9
$DIMDSEP
 70
44
  9
$AUNITS
 70
0
  9
$PDMODE
 70
3
  9
$PDSIZE
 40
3.0
  9
$HANDSEED
  5
279
  9
$TILEMODE
 70
1
  9
$MEASUREMENT
 70
1
  9
$INSUNITS
 70
4
  0
ENDSEC
  0
SECTION
  2
CLASSES
  0
CLASS
  1
ACDBDICTIONARYWDFLT
  2
AcDbDictionaryWithDefault
  3
AutoCAD 2000
 90
0
 91
1
280
0
281
0
  0
CLASS
  1
ACDBPLACEHOLDER
  2
AcDbPlaceHolder
  3
AutoCAD 2000
 90
0
 91
1
280
0
281
0
  0
CLASS
  1
LAYOUT
  2
AcDbLayout
  3
AutoCAD 2000
 90
0
 91
0
280
0
281
0
  0
ENDSEC
  0
SECTION
  2
TABLES
  0
TABLE
  2
VPORT
  5
8
100
AcDbSymbolTable
 70
2
  0
VPORT
  5
1F4
100
AcDbSymbolTableRecord
100
AcDbViewportTableRecord
  2
*ACTIVE
 70
0
 10
0.0
 20
0.0
 11
1.0
 21
1.0
 12
279.4
 22
215.9
 13
0.0
 23
0.0
 14
1.0
 24
1.0
 15
0.0
 25
0.0
 16
0.0
 26
0.0
 36
1.0
 17
0.0
 27
0.0
 37
0.0
 40
431.8
 41
1.2941176471
 42
50.0
 43
0.0
 44
0.0
 50
0.0
 51
0.0
 71
0
 72
100
 73
1
 74
1
 75
0
 76
0
 77
0
 78
0
  0
ENDTAB
  0
TABLE
  2
LTYPE
  5
5
100
AcDbSymbolTable
 70
6
  0
LTYPE
  5
14
100
AcDbSymbolTableRecord
100
AcDbLinetypeTableRecord
  2
BYBLOCK
 70
0
  3

 72
65
 73
0
 40
0.0
  0
LTYPE
  5
15
100
AcDbSymbolTableRecord
100
AcDbLinetypeTableRecord
  2
BYLAYER
 70
0
  3

 72
65
 73
0
 40
0.0
  0
LTYPE
  5
16
100
AcDbSymbolTableRecord
100
AcDbLinetypeTableRecord
  2
CONTINUOUS
 70
64
  3
Solid line
 72
65
 73
0
 40
0.0
  0
LTYPE
  5
1F5
100
AcDbSymbolTableRecord
100
AcDbLinetypeTableRecord
  2
CENTER
 70
64
  3
____ _ ____ _ ____ _ ____ _ ____ _ ____ _ ____
 72
65
 73
4
 40
0.6
 49
0.375
 74
0
 49
-0.075
 74
0
 49
0.075
 74
0
 49
-0.075
 74
0
  0
LTYPE
  5
1F6
100
AcDbSymbolTableRecord
100
AcDbLinetypeTableRecord
  2
HIDDEN
 70
64
  3
- - - - - - - - - - - - - - - - - - - -
 72
65
 73
2
 40
0.2
 49
0.1
 74
0
 49
-0.1
 74
0
  0
LTYPE
  5
1F7
100
AcDbSymbolTableRecord
100
AcDbLinetypeTableRecord
  2
PHANTOM
 70
64
  3
_____ _ _ _____ _ _ _____ _ _ _____
 72
65
 73
6
 40
0.8
 49
0.45
 74
0
 49
-0.05
 74
0
 49
0.1
 74
0
 49
-0.05
 74
0
 49
0.1
 74
0
 49
-0.05
 74
0
  0
LTYPE
  5
1F8
100
AcDbSymbolTableRecord
100
AcDbLinetypeTableRecord
  2
DOT
 70
64
  3
. . . . . . . . . . . . . . . . . . . .
 72
65
 73
2
 40
0.2
 49
0.1
 74
0
 49
-0.1
 74
0
  0
LTYPE
  5
1F9
100
AcDbSymbolTableRecord
100
AcDbLinetypeTableRecord
  2
DASHED
 70
64
  3
- - - - - - - - - - - - - - - - - - - -
 72
65
 73
2
 40
0.2
 49
0.1
 74
0
 49
-0.1
 74
0
  0
ENDTAB
  0
TABLE
  2
LAYER
  5
2
100
AcDbSymbolTable
 70
36
  0
LAYER
  5
10
100
AcDbSymbolTableRecord
100
AcDbLayerTableRecord
  2
0
 70
0
 62
7
  6
CONTINUOUS
370
-3
390
F
  0
LAYER
  5
1FA
100
AcDbSymbolTableRecord
100
AcDbLayerTableRecord
  2
DEFAULT_1
 70
0
 62
7
  6
CENTER
370
-3
390
F
  0
LAYER
  5
1FB
100
AcDbSymbolTableRecord
100
AcDbLayerTableRecord
  2
DEFAULT_2
 70
0
 62
7
  6
HIDDEN
370
-3
390
F
  0
LAYER
  5
1FC
100
AcDbSymbolTableRecord
100
AcDbLayerTableRecord
  2
DEFAULT_3
 70
0
 62
7
  6
PHANTOM
370
-3
390
F
  0
LAYER
  5
1FD
100
AcDbSymbolTableRecord
100
AcDbLayerTableRecord
  2
ASSI
 70
0
 62
7
  6
CONTINUOUS
370
-3
390
F
  0
LAYER
  5
1FE
100
AcDbSymbolTableRecord
100
AcDbLayerTableRecord
  2
COORDINATE
 70
0
 62
7
  6
CONTINUOUS
370
-3
390
F
  0
LAYER
  5
1FF
100
AcDbSymbolTableRecord
100
AcDbLayerTableRecord
  2
COPY_PUBLISH
 70
0
 62
7
  6
CONTINUOUS
370
-3
390
F
  0
LAYER
  5
200
100
AcDbSymbolTableRecord
100
AcDbLayerTableRecord
  2
COSMETIC
 70
0
 62
7
  6
CONTINUOUS
370
-3
390
F
  0
LAYER
  5
201
100
AcDbSymbolTableRecord
100
AcDbLayerTableRecord
  2
COSMETICI
 70
0
 62
7
  6
CONTINUOUS
370
-3
390
F
  0
LAYER
  5
202
100
AcDbSymbolTableRecord
100
AcDbLayerTableRecord
  2
CURVE
 70
0
 62
7
  6
CONTINUOUS
370
-3
390
F
  0
LAYER
  5
203
100
AcDbSymbolTableRecord
100
AcDbLayerTableRecord
  2
DRAFT
 70
0
 62
7
  6
CONTINUOUS
370
-3
390
F
  0
LAYER
  5
204
100
AcDbSymbolTableRecord
100
AcDbLayerTableRecord
  2
IMPORT_IGES
 70
0
 62
7
  6
CONTINUOUS
370
-3
390
F
  0
LAYER
  5
205
100
AcDbSymbolTableRecord
100
AcDbLayerTableRecord
  2
INTFCLR_11
 70
0
 62
7
  6
CONTINUOUS
370
-3
390
F
  0
LAYER
  5
206
100
AcDbSymbolTableRecord
100
AcDbLayerTableRecord
  2
INTF_1
 70
0
 62
7
  6
CONTINUOUS
370
-3
390
F
  0
LAYER
  5
207
100
AcDbSymbolTableRecord
100
AcDbLayerTableRecord
  2
INTF_3
 70
0
 62
7
  6
CONTINUOUS
370
-3
390
F
  0
LAYER
  5
208
100
AcDbSymbolTableRecord
100
AcDbLayerTableRecord
  2
NOTE
 70
0
 62
7
  6
CONTINUOUS
370
-3
390
F
  0
LAYER
  5
209
100
AcDbSymbolTableRecord
100
AcDbLayerTableRecord
  2
PIANI
 70
0
 62
7
  6
CONTINUOUS
370
-3
390
F
  0
LAYER
  5
20A
100
AcDbSymbolTableRecord
100
AcDbLayerTableRecord
  2
PUNTI
 70
0
 62
7
  6
CONTINUOUS
370
-3
390
F
  0
LAYER
  5
20B
100
AcDbSymbolTableRecord
100
AcDbLayerTableRecord
  2
RACCORDO
 70
0
 62
7
  6
CONTINUOUS
370
-3
390
F
  0
LAYER
  5
20C
100
AcDbSymbolTableRecord
100
AcDbLayerTableRecord
  2
SIMBOLI
 70
0
 62
7
  6
CONTINUOUS
370
-3
390
F
  0
LAYER
  5
20D
100
AcDbSymbolTableRecord
100
AcDbLayerTableRecord
  2
SMUSSO
 70
0
 62
7
  6
CONTINUOUS
370
-3
390
F
  0
LAYER
  5
20E
100
AcDbSymbolTableRecord
100
AcDbLayerTableRecord
  2
SNAPLINE
 70
0
 62
7
  6
CONTINUOUS
370
-3
390
F
  0
LAYER
  5
20F
100
AcDbSymbolTableRecord
100
AcDbLayerTableRecord
  2
SUPERFICI
 70
0
 62
7
  6
CONTINUOUS
370
-3
390
F
  0
LAYER
  5
210
100
AcDbSymbolTableRecord
100
AcDbLayerTableRecord
  2
TRASH
 70
0
 62
7
  6
CONTINUOUS
370
-3
390
F
  0
LAYER
  5
211
100
AcDbSymbolTableRecord
100
AcDbLayerTableRecord
  2
___SHELL
 70
0
 62
7
  6
CONTINUOUS
370
-3
390
F
  0
ENDTAB
  0
TABLE
  2
STYLE
  5
3
100
AcDbSymbolTable
 70
1
  0
STYLE
  5
11
100
AcDbSymbolTableRecord
100
AcDbTextStyleTableRecord
  2
STANDARD
 70
0
 40
0.0
 41
0.8
 50
0.0
 71
0
 42
0.2
  3
txt
  4

  0
STYLE
  5
212
100
AcDbSymbolTableRecord
100
AcDbTextStyleTableRecord
  2
TEXTSTYLE_1
 70
0
 40
0.0
 41
0.8
 50
0.0
 71
0
 42
0.2
  3
gdt
  4

  0
ENDTAB
  0
TABLE
  2
VIEW
  5
6
100
AcDbSymbolTable
 70
0
  0
ENDTAB
  0
TABLE
  2
UCS
  5
7
100
AcDbSymbolTable
 70
0
  0
ENDTAB
  0
TABLE
  2
APPID
  5
9
100
AcDbSymbolTable
 70
1
  0
APPID
  5
213
100
AcDbSymbolTableRecord
100
AcDbRegAppTableRecord
  2
ACAD
 70
0
  0
ENDTAB
  0
TABLE
  2
BLOCK_RECORD
  5
1
100
AcDbSymbolTable
 70
0
  0
BLOCK_RECORD
  5
214
100
AcDbSymbolTableRecord
100
AcDbBlockTableRecord
  2
*Model_Space
  0
BLOCK_RECORD
  5
215
100
AcDbSymbolTableRecord
100
AcDbBlockTableRecord
  2
*Paper_Space
  0
BLOCK_RECORD
  5
216
100
AcDbSymbolTableRecord
100
AcDbBlockTableRecord
  2
_FILLED
  0
ENDTAB
  0
TABLE
  2
DIMSTYLE
  5
A
100
AcDbSymbolTable
 70
1
100
AcDbDimStyleTable
 71
0
  0
DIMSTYLE
105
217
100
AcDbSymbolTableRecord
100
AcDbDimStyleTableRecord
  2
STANDARD
 70
0
  3

  4

 40
1.0
 41
3.0
 42
0.5
 43
0.38
 44
1.5
 45
0.0
 46
0.0
 47
0.01
 48
0.01
140
3.0
141
0.09
142
0.0
143
25.4
144
1.0
145
0.0
146
1.0
147
0.625
 71
1
 72
0
 73
0
 74
0
 75
0
 76
0
 77
1
 78
8
 79
2
170
0
171
1
172
0
173
0
174
0
175
0
176
0
177
0
178
0
270
2
179
2
271
2
272
2
273
2
274
2
275
0
280
0
281
0
282
0
283
1
284
8
285
0
286
0
287
3
288
0
340
11
278
44
341
216
342
216
343
216
344
216
  0
ENDTAB
  0
ENDSEC
  0
SECTION
  2
BLOCKS
  0
BLOCK
  5
20
100
AcDbEntity
  8
0
100
AcDbBlockBegin
  2
*Model_Space
 70
0
 10
0.0
 20
0.0
 30
0.0
  3
*Model_Space
  1

  0
ENDBLK
  5
21
100
AcDbEntity
  8
0
100
AcDbBlockEnd
  0
BLOCK
  5
1C
100
AcDbEntity
  8
0
100
AcDbBlockBegin
  2
*Paper_Space
 70
0
 10
0.0
 20
0.0
 30
0.0
  3
*Paper_Space
  1

  0
ENDBLK
  5
1D
100
AcDbEntity
  8
0
100
AcDbBlockEnd
  0
BLOCK
  5
218
100
AcDbEntity
  8
0
100
AcDbBlockBegin
  2
_FILLED
 70
64
 10
0.0
 20
0.0
  3
_FILLED
  1

  0
SOLID
  5
219
100
AcDbEntity
  8
0
  6
BYBLOCK
 62
0
100
AcDbTrace
 10
0.0
 20
0.0
 11
-1.0
 21
0.3166666667
 12
-1.0
 22
-0.3166666667
 13
-1.0
 23
-0.3166666667
  0
ENDBLK
  5
21A
100
AcDbEntity
  8
0
  6
BYBLOCK
 62
0
100
AcDbBlockEnd
  0
ENDSEC
  0
SECTION
  2
ENTITIES
  0
LWPOLYLINE
  5
21B
100
AcDbEntity
  8
0
100
AcDbPolyline
 62
7
  6
CONTINUOUS
 90
19
 70
0
 10
281.6354921796
 20
222.7175692195
 10
281.6028569597
 20
222.6954412758
 10
281.5161586236
 20
222.6305655285
 10
281.4328405958
 20
222.5594203278
 10
281.3530972317
 20
222.4824825455
 10
281.2770831985
 20
222.4001869797
 10
281.2050577126
 20
222.3130460636
 10
281.1372197671
 20
222.2214614133
 10
281.0738147982
 20
222.1258839943
 10
281.0152694634
 20
222.0269998439
 10
280.961816615
 20
221.9252589711
 10
280.9137171933
 20
221.8210936786
 10
280.8713394999
 20
221.7152179165
 10
280.834929501
 20
221.6080820894
 10
280.804745376
 20
221.5000802554
 10
280.7810818122
 20
221.3917025497
 10
280.7642316728
 20
221.2832952424
 10
280.7545075288
 20
221.1752707352
 10
280.7529955288
 20
221.1417716042
  0
LINE
  5
21C
100
AcDbEntity
  8
0
100
AcDbLine
 62
7
  6
CONTINUOUS
 10
281.6352537891
 20
222.7174123185
 11
282.5765505289
 21
223.3381886659
  0
LWPOLYLINE
  5
21D
100
AcDbEntity
  8
0
100
AcDbPolyline
 62
250
  6
CONTINUOUS
 90
9
 70
0
 10
281.6354921796
 20
222.7175692195
 10
281.6562296848
 20
222.7290294077
 10
281.6842606038
 20
222.7388726102
 10
281.7147676626
 20
222.743913126
 10
281.7474170078
 20
222.7440957943
 10
281.7818513429
 20
222.7394186167
 10
281.8176938366
 20
222.729932778
 10
281.8545522469
 20
222.7157420862
 10
281.8920232144
 20
222.6970018368
  0
LINE
  5
21E
100
AcDbEntity
  8
0
100
AcDbLine
 62
250
  6
CONTINUOUS
 10
281.8920232144
 20
222.6970018368
 11
282.8346645953
 21
223.3186649623
  0
LWPOLYLINE
  5
21F
100
AcDbEntity
  8
0
100
AcDbPolyline
 62
7
  6
CONTINUOUS
 90
14
 70
0
 10
296.0371170503
 20
178.162250007
 10
296.0869239631
 20
178.1356223819
 10
296.1558212968
 20
178.1054054216
 10
296.2276994736
 20
178.0811955258
 10
296.3023058857
 20
178.0631759843
 10
296.3792275605
 20
178.0515444563
 10
296.458020678
 20
178.0464605029
 10
296.538491134
 20
178.0480451033
 10
296.6202898956
 20
178.0564031444
 10
296.7031131098
 20
178.0716225282
 10
296.7869898741
 20
178.0938786359
 10
296.8717529532
 20
178.1233238661
 10
296.9569787608
 20
178.1600322773
 10
296.9816475716
 20
178.1720103052
  0
LINE
  5
220
100
AcDbEntity
  8
0
100
AcDbLine
 62
7
  6
CONTINUOUS
 10
296.037634129
 20
178.1619434548
 11
281.2055796878
 21
186.7257857999
  0
LWPOLYLINE
  5
221
100
AcDbEntity
  8
0
100
AcDbPolyline
 62
250
  6
CONTINUOUS
 90
12
 70
0
 10
281.2055817259
 20
186.7257846231
 10
281.1938649779
 20
186.7327696342
 10
281.1462019011
 20
186.766134257
 10
281.1014332406
 20
186.8060831603
 10
281.0601448823
 20
186.8525537133
 10
281.022584283
 20
186.9057699101
 10
280.9890901344
 20
186.9659577142
 10
280.9602246977
 20
187.0329317361
 10
280.9365219647
 20
187.1061833677
 10
280.9183240545
 20
187.1853262254
 10
280.9058798579
 20
187.2702012077
 10
280.8994572044
 20
187.3604622655
  0
LINE
  5
222
100
AcDbEntity
  8
0
100
AcDbLine
 62
250
  6
CONTINUOUS
 10
295.724303282
 20
178.8007819392
 11
280.8994572044
 21
187.3604622655
  0
LWPOLYLINE
  5
223
100
AcDbEntity
  8
0
100
AcDbPolyline
 62
7
  6
CONTINUOUS
 90
12
 70
0
 10
280.7530321121
 20
187.5633125778
 10
280.7615405656
 20
187.4527172237
 10
280.7793956736
 20
187.3442472747
 10
280.8059178768
 20
187.2425561834
 10
280.8404566328
 20
187.1481663671
 10
280.8825023385
 20
187.0609390203
 10
280.9318522489
 20
186.9805263213
 10
280.9879167796
 20
186.9074092451
 10
281.0500605334
 20
186.841935944
 10
281.1181150717
 20
186.7840324187
 10
281.1915617047
 20
186.7340701034
 10
281.2069041154
 20
186.7250278016
  0
LWPOLYLINE
  5
224
100
AcDbEntity
  8
0
100
AcDbPolyline
 62
250
  6
CONTINUOUS
 90
9
 70
0
 10
280.7530321121
 20
187.5633125778
 10
280.7538432489
 20
187.5515127972
 10
280.7596621059
 20
187.5207225358
 10
280.7707637458
 20
187.490580427
 10
280.78702922
 20
187.4614094287
 10
280.8082842518
 20
187.4335220939
 10
280.834301104
 20
187.4072172217
 10
280.8648010188
 20
187.382776656
 10
280.8994572044
 20
187.3604622655
  0
LWPOLYLINE
  5
225
100
AcDbEntity
  8
0
100
AcDbPolyline
 62
250
  6
CONTINUOUS
 90
22
 70
0
 10
280.8994572044
 20
220.9377506749
 10
280.9052082121
 20
221.028454249
 10
280.9160860589
 20
221.1201905628
 10
280.9317999499
 20
221.2124090842
 10
280.9519167211
 20
221.304081714
 10
280.9761953971
 20
221.395229658
 10
281.004842409
 20
221.4869625696
 10
281.0379665582
 20
221.5794608296
 10
281.0752568644
 20
221.6717160321
 10
281.1164570285
 20
221.7630889904
 10
281.1610744338
 20
221.8526210266
 10
281.2091318975
 20
221.9404828593
 10
281.2612613219
 20
222.0276606704
 10
281.3175969666
 20
222.1139991955
 10
281.3777967626
 20
222.1986127987
 10
281.4419242866
 20
222.2812346672
 10
281.5100063694
 20
222.3614948932
 10
281.5816109151
 20
222.4384836451
 10
281.6560368515
 20
222.5111355995
 10
281.7327824601
 20
222.5787478147
 10
281.8115881289
 20
222.6408910966
 10
281.8920232144
 20
222.6970018368
  0
LWPOLYLINE
  5
226
100
AcDbEntity
  8
0
100
AcDbPolyline
 62
250
  6
CONTINUOUS
 90
16
 70
0
 10
280.8994572044
 20
187.3604622655
 10
280.8214920377
 20
189.7103133542
 10
280.7573216657
 20
191.9979852692
 10
280.7058984511
 20
194.2227581171
 10
280.6665140151
 20
196.3642189652
 10
280.6376975794
 20
198.441331666
 10
280.6181055183
 20
200.5129660536
 10
280.6076036673
 20
202.5807648114
 10
280.6060480702
 20
204.6428141245
 10
280.6135988199
 20
206.7535441268
 10
280.6308992019
 20
208.9178983102
 10
280.6585196025
 20
211.1315082166
 10
280.6978123633
 20
213.4355677588
 10
280.7503085212
 20
215.8443548432
 10
280.8170875325
 20
218.3448767431
 10
280.8994572044
 20
220.9377506749
  0
LWPOLYLINE
  5
227
100
AcDbEntity
  8
0
100
AcDbPolyline
 62
7
  6
CONTINUOUS
 90
10
 70
0
 10
280.7530054582
 20
221.1420695209
 10
280.6381796825
 20
217.3904264808
 10
280.5504677597
 20
213.5934990688
 10
280.4919960556
 20
209.8132368101
 10
280.4627696262
 20
206.049951518
 10
280.46279128
 20
202.3039466711
 10
280.4920616839
 20
198.5755361052
 10
280.5505795731
 20
194.8650240275
 10
280.6383414137
 20
191.1727134737
 10
280.7530311221
 20
187.5633401924
  0
LINE
  5
228
100
AcDbEntity
  8
0
100
AcDbLine
 62
250
  6
CONTINUOUS
 10
297.736308566
 20
214.7133557549
 11
297.8381671472
 21
214.7721741278
  0
LWPOLYLINE
  5
229
100
AcDbEntity
  8
0
100
AcDbPolyline
 62
250
  6
CONTINUOUS
 90
9
 70
0
 10
280.7529955288
 20
221.1417716042
 10
280.7538431099
 20
221.119971695
 10
280.7596617553
 20
221.0913955442
 10
280.7707632365
 20
221.0631786217
 10
280.7870286282
 20
221.035623265
 10
280.8082836626
 20
221.0090247391
 10
280.8343006082
 20
220.9836680464
 10
280.8648007181
 20
220.9598248738
 10
280.8994572052
 20
220.9377506979
  0
LWPOLYLINE
  5
22A
100
AcDbEntity
  8
0
100
AcDbPolyline
 62
250
  6
CONTINUOUS
 90
22
 70
0
 10
296.7402416752
 20
214.1238265894
 10
296.6609507949
 20
214.0709885746
 10
296.5833982136
 20
214.0126636313
 10
296.5079599738
 20
213.9493953556
 10
296.4353453788
 20
213.8820949675
 10
296.3654679131
 20
213.8109884
 10
296.2975471692
 20
213.735375372
 10
296.2314987088
 20
213.6550518201
 10
296.1681352371
 20
213.5708914831
 10
296.1080630742
 20
213.4836809845
 10
296.0513303755
 20
213.3934882949
 10
295.9984596559
 20
213.3011529305
 10
295.9505014468
 20
213.208782712
 10
295.9079609094
 20
213.1180516321
 10
295.8701916146
 20
213.0283313182
 10
295.8364923871
 20
212.9382777889
 10
295.8071964173
 20
212.8489599817
 10
295.7821544458
 20
212.7600847077
 10
295.7606876574
 20
212.6683009046
 10
295.7432676059
 20
212.5729381617
 10
295.7309056175
 20
212.4759313616
 10
295.724303282
 20
212.3780703486
  0
LWPOLYLINE
  5
22B
100
AcDbEntity
  8
0
100
AcDbPolyline
 62
250
  6
CONTINUOUS
 90
22
 70
0
 10
297.1060744152
 20
213.5191657511
 10
297.0525302361
 20
213.4835124944
 10
297.0006152514
 20
213.4449213825
 10
296.9503294612
 20
213.4033924152
 10
296.9016961884
 20
213.3588782627
 10
296.8546921101
 20
213.3114262548
 10
296.8092472575
 20
213.2611783817
 10
296.7650653118
 20
213.2078255684
 10
296.7224425918
 20
213.1516768897
 10
296.6821980849
 20
213.0938015607
 10
296.6443159647
 20
213.0338755312
 10
296.6088120577
 20
212.9722228513
 10
296.5765528306
 20
212.910884886
 10
296.5479599289
 20
212.8506370868
 10
296.5226117071
 20
212.7907040022
 10
296.5001096964
 20
212.730800643
 10
296.4802908652
 20
212.6713452473
 10
296.4633182451
 20
212.611919577
 10
296.4492824615
 20
212.5509839285
 10
296.438213723
 20
212.4880250674
 10
296.4300818212
 20
212.4235562281
 10
296.4248867559
 20
212.3575774108
  0
LINE
  5
22C
100
AcDbEntity
  8
0
100
AcDbLine
 62
250
  6
CONTINUOUS
 10
297.7163754001
 20
214.7261516552
 11
296.7402416752
 21
214.1238265894
  0
LINE
  5
22D
100
AcDbEntity
  8
0
100
AcDbLine
 62
250
  6
CONTINUOUS
 10
298.0696596661
 20
214.1137477584
 11
297.1060744152
 21
213.5191657511
  0
LINE
  5
22E
100
AcDbEntity
  8
0
100
AcDbLine
 62
250
  6
CONTINUOUS
 10
298.0685172809
 20
214.1379007321
 11
298.1703986594
 21
214.1967322694
  0
LWPOLYLINE
  5
22F
100
AcDbEntity
  8
0
100
AcDbPolyline
 62
250
  6
CONTINUOUS
 90
16
 70
0
 10
296.4248867559
 20
212.3575774108
 10
296.3858776219
 20
212.3397126088
 10
296.3435649894
 20
212.32426429
 10
296.2984022176
 20
212.3113979755
 10
296.2508732036
 20
212.3012515216
 10
296.2014871973
 20
212.2939336424
 10
296.1507733457
 20
212.2895227457
 10
296.0992750229
 20
212.2880660918
 10
296.0475440082
 20
212.2895792883
 10
295.9961345741
 20
212.2940461219
 10
295.9455975475
 20
212.3014187327
 10
295.896474408
 20
212.3116181268
 10
295.8492914859
 20
212.3245350227
 10
295.8045543231
 20
212.3400310222
 10
295.7627422566
 20
212.3579400931
 10
295.724303282
 20
212.3780703486
  0
LINE
  5
230
100
AcDbEntity
  8
0
100
AcDbLine
 62
7
  6
CONTINUOUS
 10
298.0696596661
 20
210.9951561432
 11
298.4293843541
 21
211.1957302101
  0
LWPOLYLINE
  5
231
100
AcDbEntity
  8
0
100
AcDbPolyline
 62
7
  6
CONTINUOUS
 90
5
 70
0
 10
287.3152179253
 20
199.9669013743
 10
287.3083628216
 20
200.0307904218
 10
287.3057281829
 20
200.0942874934
 10
287.3074364349
 20
200.1576404336
 10
287.3133668739
 20
200.2206023893
  0
LWPOLYLINE
  5
232
100
AcDbEntity
  8
0
100
AcDbPolyline
 62
7
  6
CONTINUOUS
 90
7
 70
0
 10
287.3244444581
 20
200.2807480738
 10
287.3410176896
 20
200.3381198313
 10
287.3627382581
 20
200.3926754247
 10
287.3894839978
 20
200.4418615955
 10
287.4214479361
 20
200.4852749052
 10
287.4584349757
 20
200.5233175965
 10
287.4948887786
 20
200.5514905019
  0
LINE
  5
233
100
AcDbEntity
  8
0
100
AcDbLine
 62
7
  6
CONTINUOUS
 10
298.0696596661
 20
207.729275036
 11
298.4293843541
 21
207.9298491029
  0
LWPOLYLINE
  5
234
100
AcDbEntity
  8
0
100
AcDbPolyline
 62
7
  6
CONTINUOUS
 90
8
 70
0
 10
288.0134854054
 20
198.8805065907
 10
287.9818702535
 20
198.8995567646
 10
287.9503443934
 20
198.9201990193
 10
287.9189078508
 20
198.9424333697
 10
287.8874629493
 20
198.9663322733
 10
287.856107469
 20
198.9918233326
 10
287.825134643
 20
199.0186892929
 10
287.7945499414
 20
199.0469577876
  0
LWPOLYLINE
  5
235
100
AcDbEntity
  8
0
100
AcDbPolyline
 62
7
  6
CONTINUOUS
 90
26
 70
0
 10
288.0134854054
 20
198.8805065907
 10
287.9448795827
 20
198.9242025214
 10
287.8781817468
 20
198.9738114033
 10
287.8133923952
 20
199.0293335246
 10
287.7500021569
 20
199.0913561392
 10
287.6885223811
 20
199.1592931397
 10
287.6304849359
 20
199.2313849409
 10
287.5759515547
 20
199.3077628989
 10
287.5248638063
 20
199.3882975696
 10
287.4785730471
 20
199.4708380138
 10
287.4372070381
 20
199.5554531317
 10
287.4006415998
 20
199.6420760939
 10
287.3698492032
 20
199.7283518011
 10
287.3449960558
 20
199.8142071741
 10
287.325918612
 20
199.8997168275
 10
287.3130931721
 20
199.9827463103
 10
287.3066567652
 20
200.063279229
 10
287.3064734657
 20
200.1413326094
 10
287.3126082621
 20
200.2148210436
 10
287.3252453772
 20
200.2836568801
 10
287.3441996865
 20
200.3479272449
 10
287.3689801526
 20
200.4058077387
 10
287.3997702209
 20
200.4570967801
 10
287.4363836895
 20
200.5019943575
 10
287.477773373
 20
200.5392774606
 10
287.4949054875
 20
200.5514628602
  0
LINE
  5
236
100
AcDbEntity
  8
0
100
AcDbLine
 62
7
  6
CONTINUOUS
 10
287.7643480952
 20
199.0766012998
 11
287.7348062411
 21
199.1073198563
  0
LINE
  5
237
100
AcDbEntity
  8
0
100
AcDbLine
 62
7
  6
CONTINUOUS
 10
287.70599749
 20
199.1390439069
 11
287.6778489966
 21
199.1718431556
  0
LWPOLYLINE
  5
238
100
AcDbEntity
  8
0
100
AcDbPolyline
 62
7
  6
CONTINUOUS
 90
10
 70
0
 10
287.6504189664
 20
199.2056265124
 10
287.6237990791
 20
199.2402142628
 10
287.5978979768
 20
199.2757863078
 10
287.5724993642
 20
199.3127910127
 10
287.547513142
 20
199.3512358698
 10
287.5230299146
 20
199.3911136792
 10
287.4991045893
 20
199.4328508536
 10
287.475636121
 20
199.4764882235
 10
287.4527263596
 20
199.5219854239
 10
287.4307347809
 20
199.5696472053
  0
LWPOLYLINE
  5
239
100
AcDbEntity
  8
0
100
AcDbPolyline
 62
7
  6
CONTINUOUS
 90
6
 70
0
 10
287.409552896
 20
199.6194792545
 10
287.3892904311
 20
199.6714766002
 10
287.3706345369
 20
199.7259282084
 10
287.3533756788
 20
199.7833197014
 10
287.3377254235
 20
199.8431666313
 10
287.3250027283
 20
199.9043029483
  0
LWPOLYLINE
  5
23A
100
AcDbEntity
  8
0
100
AcDbPolyline
 62
7
  6
CONTINUOUS
 90
5
 70
0
 10
288.7103958596
 20
199.4261042871
 10
288.7172159407
 20
199.362200818
 10
288.7198302368
 20
199.298700295
 10
288.7181178985
 20
199.2353565352
 10
288.7122014956
 20
199.1724167177
  0
LWPOLYLINE
  5
23B
100
AcDbEntity
  8
0
100
AcDbPolyline
 62
7
  6
CONTINUOUS
 90
8
 70
0
 10
288.7011569594
 20
199.1123053259
 10
288.6846356917
 20
199.0549798167
 10
288.6629864815
 20
199.0004828471
 10
288.6363294333
 20
198.9513655978
 10
288.6044697724
 20
198.90803117
 10
288.5676002013
 20
198.8700752669
 10
288.5264203314
 20
198.8388369835
 10
288.4942862853
 20
198.8208181235
  0
LINE
  5
23C
100
AcDbEntity
  8
0
100
AcDbLine
 62
7
  6
CONTINUOUS
 10
298.1703986594
 20
211.1840834293
 11
298.0696596661
 21
211.0593472574
  0
LWPOLYLINE
  5
23D
100
AcDbEntity
  8
0
100
AcDbPolyline
 62
7
  6
CONTINUOUS
 90
11
 70
0
 10
287.4948887786
 20
200.5514905019
 10
287.4997390538
 20
200.5546439467
 10
287.5455395562
 20
200.5790366562
 10
287.5956542242
 20
200.5967113687
 10
287.6488336238
 20
200.606971256
 10
287.7052608398
 20
200.6095071038
 10
287.7647500283
 20
200.604626538
 10
287.8254980981
 20
200.5925578394
 10
287.8869034187
 20
200.5733767564
 10
287.9495659884
 20
200.5470066018
 10
288.0134854054
 20
200.5134471443
  0
LWPOLYLINE
  5
23E
100
AcDbEntity
  8
0
100
AcDbPolyline
 62
7
  6
CONTINUOUS
 90
8
 70
0
 10
287.4949054875
 20
200.5514628602
 10
287.5240155938
 20
200.5687171849
 10
287.5750303593
 20
200.5905403188
 10
287.6295350607
 20
200.6042068455
 10
287.687609052
 20
200.6095487492
 10
287.7491696817
 20
200.6067321471
 10
287.8126910886
 20
200.5957180821
 10
287.877663916
 20
200.5764931449
  0
LWPOLYLINE
  5
23F
100
AcDbEntity
  8
0
100
AcDbPolyline
 62
7
  6
CONTINUOUS
 90
3
 70
0
 10
287.877663916
 20
200.5764931449
 10
287.9445955225
 20
200.5490695953
 10
288.0134854054
 20
200.5134471443
  0
LWPOLYLINE
  5
240
100
AcDbEntity
  8
0
100
AcDbPolyline
 62
7
  6
CONTINUOUS
 90
8
 70
0
 10
288.0134854054
 20
200.5134471443
 10
288.0451029294
 20
200.494392187
 10
288.0766255027
 20
200.4737412729
 10
288.1080531511
 20
200.4514944167
 10
288.1394836525
 20
200.4275791253
 10
288.1708193325
 20
200.4020679514
 10
288.201767062
 20
200.3751784918
 10
288.2323214327
 20
200.3468831538
  0
LWPOLYLINE
  5
241
100
AcDbEntity
  8
0
100
AcDbPolyline
 62
7
  6
CONTINUOUS
 90
3
 70
0
 10
288.0134854054
 20
200.5134471443
 10
288.0820755396
 20
200.4697440153
 10
288.1477826474
 20
200.4208227025
  0
LWPOLYLINE
  5
242
100
AcDbEntity
  8
0
100
AcDbPolyline
 62
7
  6
CONTINUOUS
 90
23
 70
0
 10
288.1487337434
 20
200.4201145772
 10
288.2134605141
 20
200.3645591162
 10
288.2767657322
 20
200.3024910064
 10
288.3381414953
 20
200.2344980114
 10
288.3960619175
 20
200.1623421692
 10
288.4504679466
 20
200.0858938039
 10
288.5014219368
 20
200.0052844924
 10
288.5475798473
 20
199.9226680004
 10
288.5888172973
 20
199.8379774198
 10
288.6252622498
 20
199.7512817239
 10
288.6559482076
 20
199.6649379408
 10
288.680711897
 20
199.5790175773
 10
288.6997192577
 20
199.4934506676
 10
288.7124960688
 20
199.4103811411
 10
288.7189052308
 20
199.3298292525
 10
288.7190849431
 20
199.2517753872
 10
288.7129720519
 20
199.1783025859
 10
288.7003818749
 20
199.1094976438
 10
288.6814981915
 20
199.0452732494
 10
288.6568085354
 20
198.9874501253
 10
288.6261266497
 20
198.9362278847
 10
288.5896360348
 20
198.8914053244
 10
288.5483771854
 20
198.8542009732
  0
LINE
  5
243
100
AcDbEntity
  8
0
100
AcDbLine
 62
7
  6
CONTINUOUS
 10
288.262488054
 20
200.3172096458
 11
288.291990334
 21
200.2864585233
  0
LINE
  5
244
100
AcDbEntity
  8
0
100
AcDbLine
 62
7
  6
CONTINUOUS
 10
288.3207555239
 20
200.2546994823
 11
288.3488566383
 21
200.2218629798
  0
LWPOLYLINE
  5
245
100
AcDbEntity
  8
0
100
AcDbPolyline
 62
7
  6
CONTINUOUS
 90
10
 70
0
 10
288.3762357342
 20
200.1880407136
 10
288.4028017664
 20
200.1534128537
 10
288.4286461019
 20
200.1177994155
 10
288.4539844719
 20
200.0807518975
 10
288.4789076079
 20
200.0422631064
 10
288.5033252836
 20
200.0023405266
 10
288.5271819402
 20
199.9605577569
 10
288.5505793005
 20
199.9168748078
 10
288.5734164466
 20
199.8713321327
 10
288.5953340848
 20
199.8236241261
  0
LWPOLYLINE
  5
246
100
AcDbEntity
  8
0
100
AcDbPolyline
 62
7
  6
CONTINUOUS
 90
6
 70
0
 10
288.6164422928
 20
199.7737451184
 10
288.6366322307
 20
199.7217014928
 10
288.6552165801
 20
199.6672059259
 10
288.6724060635
 20
199.6097741272
 10
288.6879919906
 20
199.5498915597
 10
288.7006580777
 20
199.4887256201
  0
LWPOLYLINE
  5
247
100
AcDbEntity
  8
0
100
AcDbPolyline
 62
7
  6
CONTINUOUS
 90
3
 70
0
 10
288.5483771854
 20
198.8542009732
 10
288.5022698601
 20
198.8248410783
 10
288.4943061684
 20
198.8207817765
  0
LWPOLYLINE
  5
248
100
AcDbEntity
  8
0
100
AcDbPolyline
 62
7
  6
CONTINUOUS
 90
10
 70
0
 10
288.4942862853
 20
198.8208181235
 10
288.4807472714
 20
198.8145310097
 10
288.4307610411
 20
198.7969409949
 10
288.3777047166
 20
198.7867589511
 10
288.3213926076
 20
198.7842916754
 10
288.2620076467
 20
198.7892307735
 10
288.2013455805
 20
198.801345318
 10
288.1400043921
 20
198.8205579853
 10
288.0773844676
 20
198.8469451539
 10
288.0134854054
 20
198.8805065907
  0
LWPOLYLINE
  5
249
100
AcDbEntity
  8
0
100
AcDbPolyline
 62
7
  6
CONTINUOUS
 90
9
 70
0
 10
288.4943061684
 20
198.8207817765
 10
288.4513906304
 20
198.8030972704
 10
288.3970142594
 20
198.7895056024
 10
288.339056962
 20
198.7842317697
 10
288.2775992264
 20
198.7871081679
 10
288.2141619807
 20
198.7981707576
 10
288.1492514646
 20
198.8174310988
 10
288.0823594404
 20
198.8448764737
 10
288.0134854054
 20
198.8805065907
  0
LWPOLYLINE
  5
24A
100
AcDbEntity
  8
0
100
AcDbPolyline
 62
250
  6
CONTINUOUS
 90
12
 70
0
 10
295.724303282
 20
178.8007819392
 10
295.7305298818
 20
178.7137170282
 10
295.7424260436
 20
178.6317594393
 10
295.7597134442
 20
178.555186225
 10
295.7819662157
 20
178.4845745726
 10
295.8089442013
 20
178.4196904509
 10
295.8408537416
 20
178.3597535093
 10
295.8778359785
 20
178.3047493289
 10
295.9195425612
 20
178.2554164533
 10
295.9655789684
 20
178.2122266598
 10
296.0159160231
 20
178.1752141273
 10
296.0371257712
 20
178.1622373656
  0
LWPOLYLINE
  5
24B
100
AcDbEntity
  8
0
100
AcDbPolyline
 62
250
  6
CONTINUOUS
 90
22
 70
0
 10
296.4248867559
 20
178.8138662898
 10
296.429394012
 20
178.7555588197
 10
296.437308181
 20
178.7009558709
 10
296.4486292629
 20
178.6500574434
 10
296.4634105397
 20
178.6029190876
 10
296.4815987294
 20
178.559485253
 10
296.5030339862
 20
178.5195892883
 10
296.52783977
 20
178.4829620232
 10
296.555892621
 20
178.449872628
 10
296.5866623138
 20
178.4209619621
 10
296.6204264156
 20
178.3963632828
 10
296.6569073593
 20
178.3759433329
 10
296.6947422185
 20
178.3599432004
 10
296.7334598382
 20
178.3485846295
 10
296.7735313735
 20
178.341645876
 10
296.8150073634
 20
178.3387027953
 10
296.857437377
 20
178.3393250652
 10
296.9012718453
 20
178.343943008
 10
296.9479126001
 20
178.3534234448
 10
296.9978269187
 20
178.3680553163
 10
297.0505475237
 20
178.3875496819
 10
297.1060744152
 20
178.4119065416
  0
LWPOLYLINE
  5
24C
100
AcDbEntity
  8
0
100
AcDbPolyline
 62
250
  6
CONTINUOUS
 90
6
 70
0
 10
296.1469394904
 20
190.5038543332
 10
296.1748826374
 20
188.3249809901
 10
296.2163190163
 20
186.0703831959
 10
296.2723483642
 20
183.7272686782
 10
296.3418709441
 20
181.3084297095
 10
296.4248867559
 20
178.8138662898
  0
LINE
  5
24D
100
AcDbEntity
  8
0
100
AcDbLine
 62
250
  6
CONTINUOUS
 10
296.1291903641
 20
192.6453800428
 11
296.1469394904
 21
190.5038543332
  0
LWPOLYLINE
  5
24E
100
AcDbEntity
  8
0
100
AcDbPolyline
 62
250
  6
CONTINUOUS
 90
10
 70
0
 10
296.4248867559
 20
212.3575774108
 10
296.3459555243
 20
209.9181943898
 10
296.2791915281
 20
207.5563426291
 10
296.2245947673
 20
205.2720221284
 10
296.1830295302
 20
203.0855616118
 10
296.1536315284
 20
200.9766323554
 10
296.1338078974
 20
198.8842481874
 10
296.1224877989
 20
196.8060446247
 10
296.1207420712
 20
194.7443861505
 10
296.1291903641
 20
192.6453800428
  0
LWPOLYLINE
  5
24F
100
AcDbEntity
  8
0
100
AcDbPolyline
 62
250
  6
CONTINUOUS
 90
16
 70
0
 10
295.724303282
 20
212.3780703486
 10
295.6435946093
 20
209.9354317658
 10
295.5771154014
 20
207.5713790755
 10
295.5238142406
 20
205.2854204324
 10
295.483008936
 20
203.0971846645
 10
295.4531953817
 20
200.9859717552
 10
295.4329380519
 20
198.8912514231
 10
295.4220638427
 20
196.8112147972
 10
295.420463127
 20
194.7476180915
 10
295.4283159758
 20
192.6461381194
 10
295.4462339089
 20
190.5025542242
 10
295.4748166711
 20
188.3219120821
 10
295.5155303476
 20
186.0645605581
 10
295.5699442227
 20
183.7179836278
 10
295.6390993312
 20
181.2964264764
 10
295.724303282
 20
178.8007819392
  0
LWPOLYLINE
  5
250
100
AcDbEntity
  8
0
100
AcDbPolyline
 62
250
  6
CONTINUOUS
 90
6
 70
0
 10
298.1704010078
 20
179.1867442225
 10
298.1723702151
 20
179.1552875103
 10
298.1708575991
 20
179.1258553626
 10
298.1659517405
 20
179.0986232211
 10
298.1577210837
 20
179.07362332
 10
298.1512694163
 20
179.059856963
  0
LWPOLYLINE
  5
251
100
AcDbEntity
  8
0
100
AcDbPolyline
 62
250
  6
CONTINUOUS
 90
16
 70
0
 10
297.1060744152
 20
213.5191657511
 10
297.1022078598
 20
213.5617939851
 10
297.0945827394
 20
213.6062284095
 10
297.0832824623
 20
213.6519827866
 10
297.0684306545
 20
213.6985564316
 10
297.0501898125
 20
213.745439677
 10
297.0287595295
 20
213.7921194501
 10
297.0043742981
 20
213.8380849158
 10
296.9773009553
 20
213.8828330402
 10
296.9478357756
 20
213.9258740845
 10
296.9163011964
 20
213.9667370159
 10
296.8830423098
 20
214.0049746271
 10
296.848423108
 20
214.0401684129
 10
296.8128224579
 20
214.0719332016
 10
296.7766299508
 20
214.0999213627
 10
296.740241667
 20
214.1238265844
  0
LWPOLYLINE
  5
252
100
AcDbEntity
  8
0
100
AcDbPolyline
 62
7
  6
CONTINUOUS
 90
13
 70
0
 10
298.1985063214
 20
214.2699561777
 10
298.1982623129
 20
214.2855620743
 10
298.1942972746
 20
214.3352874496
 10
298.1853710637
 20
214.385886101
 10
298.1714196252
 20
214.4367367622
 10
298.1528511023
 20
214.4862794668
 10
298.1297414045
 20
214.5344315131
 10
298.1021418221
 20
214.5808879682
 10
298.0710759659
 20
214.6239801005
 10
298.036863968
 20
214.663517901
 10
297.9995541338
 20
214.6994877371
 10
297.9602468339
 20
214.7309256833
 10
297.9155935756
 20
214.7599326048
  0
LINE
  5
253
100
AcDbEntity
  8
0
100
AcDbLine
 62
7
  6
CONTINUOUS
 10
298.0696596661
 20
178.8918697018
 11
298.0696596661
 21
207.729275036
  0
LINE
  5
254
100
AcDbEntity
  8
0
100
AcDbLine
 62
7
  6
CONTINUOUS
 10
298.0696596661
 20
210.9951561432
 11
298.0696596661
 21
214.1137477584
  0
LINE
  5
255
100
AcDbEntity
  8
0
100
AcDbLine
 62
250
  6
CONTINUOUS
 10
298.1703986594
 20
214.1967322694
 11
298.1703986594
 21
211.1840834293
  0
LINE
  5
256
100
AcDbEntity
  8
0
100
AcDbLine
 62
250
  6
CONTINUOUS
 10
298.1703986594
 20
207.785444741
 11
298.1703986594
 21
179.186739763
  0
LINE
  5
257
100
AcDbEntity
  8
0
100
AcDbLine
 62
7
  6
CONTINUOUS
 10
298.1985063233
 20
214.2699366157
 11
298.1985063233
 21
211.2572877756
  0
LINE
  5
258
100
AcDbEntity
  8
0
100
AcDbLine
 62
7
  6
CONTINUOUS
 10
298.1985063233
 20
207.8011169165
 11
298.1985063233
 21
179.2599441093
  0
LINE
  5
259
100
AcDbEntity
  8
0
100
AcDbLine
 62
7
  6
CONTINUOUS
 10
298.4293843541
 20
207.9298491029
 11
298.4293843541
 21
211.1957302101
  0
LWPOLYLINE
  5
25A
100
AcDbEntity
  8
0
100
AcDbPolyline
 62
250
  6
CONTINUOUS
 90
5
 70
0
 10
298.1985063233
 20
214.2699366157
 10
298.1983794083
 20
214.2648986701
 10
298.1944398751
 20
214.2415133552
 10
298.1850554032
 20
214.2186510054
 10
298.1703986594
 20
214.1967322694
  0
LINE
  5
25B
100
AcDbEntity
  8
0
100
AcDbLine
 62
250
  6
CONTINUOUS
 10
298.1985063233
 20
179.2599441093
 11
298.1983794281
 21
179.2549065555
  0
LWPOLYLINE
  5
25C
100
AcDbEntity
  8
0
100
AcDbPolyline
 62
7
  6
CONTINUOUS
 90
6
 70
0
 10
298.1985063192
 20
211.2573165801
 10
298.198328384
 20
211.2521892613
 10
298.1959397817
 20
211.2346785193
 10
298.1904852137
 20
211.2175809504
 10
298.1819715063
 20
211.2007159204
 10
298.1703986594
 20
211.1840834293
  0
LWPOLYLINE
  5
25D
100
AcDbEntity
  8
0
100
AcDbPolyline
 62
250
  6
CONTINUOUS
 90
9
 70
0
 10
297.1060744152
 20
178.4119065416
 10
297.102207752
 20
178.3693575227
 10
297.0945824111
 20
178.3295467585
 10
297.0832818403
 20
178.2929099174
 10
297.0684297065
 20
178.2598479338
 10
297.0501885445
 20
178.2307226212
 10
297.0287579777
 20
178.2058527128
 10
297.0043725317
 20
178.1855103724
 10
296.9816719783
 20
178.1720224598
  0
LWPOLYLINE
  5
25E
100
AcDbEntity
  8
0
100
AcDbPolyline
 62
250
  6
CONTINUOUS
 90
12
 70
0
 10
298.1598589367
 20
214.3567108171
 10
298.1627930239
 20
214.342176952
 10
298.1653288798
 20
214.3277034875
 10
298.1674690949
 20
214.3133031466
 10
298.1692192234
 20
214.2989906615
 10
298.1705940295
 20
214.2846307461
 10
298.1715844551
 20
214.2702360447
 10
298.1721841518
 20
214.2558221301
 10
298.1723866048
 20
214.2412605562
 10
298.1721705392
 20
214.2265214537
 10
298.1715144195
 20
214.2116718694
 10
298.1703986594
 20
214.1967322694
  0
LWPOLYLINE
  5
25F
100
AcDbEntity
  8
0
100
AcDbPolyline
 62
250
  6
CONTINUOUS
 90
4
 70
0
 10
298.1983794281
 20
179.2549065555
 10
298.1944399596
 20
179.2315211421
 10
298.1850554886
 20
179.2086586581
 10
298.1703986594
 20
179.186739763
  0
LINE
  5
260
100
AcDbEntity
  8
0
100
AcDbLine
 62
250
  6
CONTINUOUS
 10
295.724303282
 20
212.3780703486
 11
280.8994572044
 21
220.9377506749
  0
LINE
  5
261
100
AcDbEntity
  8
0
100
AcDbLine
 62
7
  6
CONTINUOUS
 10
298.4293843541
 20
211.1957302101
 11
298.1985063233
 21
211.3290362915
  0
LWPOLYLINE
  5
262
100
AcDbEntity
  8
0
100
AcDbPolyline
 62
250
  6
CONTINUOUS
 90
8
 70
0
 10
297.8381671472
 20
214.7721741278
 10
297.8645010366
 20
214.7590142372
 10
297.8895621671
 20
214.7445988141
 10
297.9133072284
 20
214.7291379266
 10
297.9356938039
 20
214.7128574183
 10
297.9567343684
 20
214.6959262872
 10
297.976485298
 20
214.6784407937
 10
297.9949619139
 20
214.6605533249
  0
LWPOLYLINE
  5
263
100
AcDbEntity
  8
0
100
AcDbPolyline
 62
250
  6
CONTINUOUS
 90
5
 70
0
 10
297.9155935756
 20
214.7599326048
 10
297.9111884251
 20
214.7623291079
 10
297.8889675667
 20
214.7706080295
 10
297.8644769429
 20
214.7739099761
 10
297.8381671472
 20
214.7721741278
  0
LINE
  5
264
100
AcDbEntity
  8
0
100
AcDbLine
 62
250
  6
CONTINUOUS
 10
296.7402416752
 20
214.1238265894
 11
281.8920232144
 21
222.6970018368
  0
LINE
  5
265
100
AcDbEntity
  8
0
100
AcDbLine
 62
7
  6
CONTINUOUS
 10
282.8346645953
 20
223.3186649623
 11
297.7163754001
 21
214.7261516552
  0
LINE
  5
266
100
AcDbEntity
  8
0
100
AcDbLine
 62
250
  6
CONTINUOUS
 10
283.1408224183
 20
223.2582367733
 11
297.8381671472
 21
214.7721741278
  0
LINE
  5
267
100
AcDbEntity
  8
0
100
AcDbLine
 62
7
  6
CONTINUOUS
 10
283.2182762375
 20
223.2459794409
 11
297.9156209665
 21
214.7599167954
  0
LWPOLYLINE
  5
268
100
AcDbEntity
  8
0
100
AcDbPolyline
 62
250
  6
CONTINUOUS
 90
19
 70
0
 10
297.9949619139
 20
214.6605533249
 10
298.0121837618
 20
214.6424137212
 10
298.028213949
 20
214.6240769838
 10
298.0430949402
 20
214.6056473933
 10
298.0568546688
 20
214.5872472798
 10
298.0695332722
 20
214.5689336541
 10
298.0811703903
 20
214.5508045145
 10
298.0918227082
 20
214.5329336688
 10
298.101551947
 20
214.5153233436
 10
298.1103938226
 20
214.4980590862
 10
298.1184133461
 20
214.4811767835
 10
298.1256993771
 20
214.4645851663
 10
298.1322877453
 20
214.4483282565
 10
298.1382228523
 20
214.4324400027
 10
298.1435806512
 20
214.4167979868
 10
298.148386931
 20
214.401427425
 10
298.1526717538
 20
214.3863531825
 10
298.1564910579
 20
214.3714420991
 10
298.1598589367
 20
214.3567108171
  0
LWPOLYLINE
  5
269
100
AcDbEntity
  8
0
100
AcDbPolyline
 62
7
  6
CONTINUOUS
 90
7
 70
0
 10
298.1512129046
 20
179.0597768491
 10
298.1590719588
 20
179.0755596163
 10
298.1733037214
 20
179.1099711402
 10
298.1844264118
 20
179.1460584117
 10
298.1923386267
 20
179.183521111
 10
298.1970298134
 20
179.2221269197
 10
298.1985063215
 20
179.2599630749
  0
LINE
  5
26A
100
AcDbEntity
  8
0
100
AcDbLine
 62
250
  6
CONTINUOUS
 10
298.1703986594
 20
179.186739763
 11
298.0696596661
 21
178.9954392847
  0
LINE
  5
26B
100
AcDbEntity
  8
0
100
AcDbLine
 62
7
  6
CONTINUOUS
 10
298.1512526416
 20
179.0598251083
 11
298.0696596661
 21
178.9048823724
  0
LWPOLYLINE
  5
26C
100
AcDbEntity
  8
0
100
AcDbPolyline
 62
250
  6
CONTINUOUS
 90
5
 70
0
 10
283.2182762375
 20
223.2459794409
 10
283.2138428242
 20
223.2483921998
 10
283.1916220855
 20
223.2566708615
 10
283.1671317494
 20
223.259972636
 10
283.1408224183
 20
223.2582367733
  0
LWPOLYLINE
  5
26D
100
AcDbEntity
  8
0
100
AcDbPolyline
 62
7
  6
CONTINUOUS
 90
8
 70
0
 10
283.2182789059
 20
223.2459779002
 10
283.2148132839
 20
223.2479601631
 10
283.1800332585
 20
223.2658475343
 10
283.1445328097
 20
223.2805102506
 10
283.1084802967
 20
223.2918551331
 10
283.0720933609
 20
223.2997976325
 10
283.0356750055
 20
223.3042963168
 10
283.0212631048
 20
223.3051266235
  0
LWPOLYLINE
  5
26E
100
AcDbEntity
  8
0
100
AcDbPolyline
 62
250
  6
CONTINUOUS
 90
16
 70
0
 10
296.4248867556
 20
178.8138662967
 10
296.3858783904
 20
178.7925303863
 10
296.343566509
 20
178.7736480044
 10
296.2984044202
 20
178.7574214837
 10
296.2508759726
 20
178.7440247033
 10
296.2014903855
 20
178.7336012284
 10
296.1507767948
 20
178.7262627687
 10
296.0992785545
 20
178.7220879767
 10
296.0475474421
 20
178.7211216108
 10
295.9961377623
 20
178.7233740496
 10
295.9456003493
 20
178.728821181
 10
295.8964767048
 20
178.7374046615
 10
295.8492932202
 20
178.7490325311
 10
295.804555474
 20
178.7635802087
 10
295.7627428191
 20
178.7808918348
 10
295.7243032823
 20
178.8007819305
  0
LINE
  5
26F
100
AcDbEntity
  8
0
100
AcDbLine
 62
250
  6
CONTINUOUS
 10
297.1060744152
 20
178.4119065416
 11
298.0696596661
 21
178.8918697018
  0
LINE
  5
270
100
AcDbEntity
  8
0
100
AcDbLine
 62
7
  6
CONTINUOUS
 10
296.9816719783
 20
178.1720224598
 11
297.9570312306
 21
178.6578502667
  0
LINE
  5
271
100
AcDbEntity
  8
0
100
AcDbLine
 62
250
  6
CONTINUOUS
 10
283.1408224183
 20
223.2582367733
 11
282.9247754305
 21
223.2666360954
  0
LINE
  5
272
100
AcDbEntity
  8
0
100
AcDbLine
 62
7
  6
CONTINUOUS
 10
283.0213012222
 20
223.3051254028
 11
282.8463331449
 21
223.311927688
  0
LWPOLYLINE
  5
273
100
AcDbEntity
  8
0
100
AcDbPolyline
 62
250
  6
CONTINUOUS
 90
7
 70
0
 10
283.0212897658
 20
223.3051258482
 10
283.0298849546
 20
223.3045627731
 10
283.0502956321
 20
223.3014314464
 10
283.0716597271
 20
223.2955297796
 10
283.0941155815
 20
223.2864847038
 10
283.117228851
 20
223.2741236305
 10
283.1408224183
 20
223.2582367733
  0
ELLIPSE
  5
274
100
AcDbEntity
  8
0
100
AcDbEllipse
 62
7
  6
CONTINUOUS
 10
297.7160524194
 20
214.317542762
 30
0.0
 11
-0.2496303025
 21
0.4334023309
 31
0.0
 40
0.5778584463
 41
-2.3545649475
 42
-0.7846820092
  0
ELLIPSE
  5
275
100
AcDbEntity
  8
0
100
AcDbEllipse
 62
7
  6
CONTINUOUS
 10
282.834987576
 20
222.909683099
 30
0.0
 11
-0.2498600223
 21
0.43379745
 31
0.0
 40
0.5768037941
 41
5.4994124095
 42
6.3180789651
  0
ELLIPSE
  5
276
100
AcDbEntity
  8
0
100
AcDbEllipse
 62
7
  6
CONTINUOUS
 10
297.7160524194
 20
179.0964114833
 30
0.0
 11
-0.2498600223
 21
0.43379745
 31
0.0
 40
0.5768037941
 41
3.1066989922
 42
3.9277026942
  0
ENDSEC
  0
SECTION
  2
OBJECTS
  0
DICTIONARY
  5
C
100
AcDbDictionary
280
0
281
1
  3
ACAD_GROUP
350
D
  3
ACAD_MLINESTYLE
350
17
  3
ACAD_LAYOUT
350
1A
  3
ACAD_PLOTSETTINGS
350
19
  3
ACAD_PLOTSTYLENAME
350
E
  0
DICTIONARY
  5
D
102
{ACAD_REACTORS
330
C
102
}
100
AcDbDictionary
280
0
281
1
  0
ACDBDICTIONARYWDFLT
  5
E
102
{ACAD_REACTORS
330
C
102
}
100
AcDbDictionary
281
1
  3
Normal
350
F
100
AcDbDictionaryWithDefault
340
F
  0
DICTIONARY
  5
17
102
{ACAD_REACTORS
330
C
102
}
100
AcDbDictionary
280
0
281
1
  3
Standard
350
18
  0
DICTIONARY
  5
19
102
{ACAD_REACTORS
330
C
102
}
100
AcDbDictionary
281
1
  0
DICTIONARY
  5
1A
102
{ACAD_REACTORS
330
C
102
}
100
AcDbDictionary
281
1
  3
Model
350
277
  3
Layout1
350
278
  0
ACDBPLACEHOLDER
  5
F
102
{ACAD_REACTORS
330
E
102
}
  0
MLINESTYLE
  5
18
102
{ACAD_REACTORS
330
17
102
}
100
AcDbMlineStyle
  2
STANDARD
 70
0
  3

 62
256
 51
90.0
 52
90.0
 71
2
 49
0.5
 62
256
  6
BYLAYER
 49
-0.5
 62
256
  6
BYLAYER
  0
LAYOUT
  5
277
102
{ACAD_REACTORS
330
1A
102
}
100
AcDbPlotSettings
  1

  2
none_device
  4
ANSI_C_(22.00_x_17.00_Inches)
  6

 40
0.0
 41
0.0
 42
0.0
 43
0.0
 44
558.8
 45
431.8
 46
0.0
 47
0.0
 48
0.0
 49
0.0
140
0.0
141
0.0
142
1.0
143
1.0
 70
1024
 72
1
 73
0
 74
0
  7

 75
0
147
1.0
148
0.0
149
0.0
100
AcDbLayout
  1
Model
 70
0
 71
0
 10
0.0
 20
0.0
 11
558.8
 21
431.8
 12
0.0
 22
0.0
 32
0.0
 14
0.0
 24
0.0
 34
0.0
 15
0.0
 25
0.0
 35
0.0
146
0.0
 13
0.0
 23
0.0
 33
0.0
 16
1.0
 26
0.0
 36
0.0
 17
0.0
 27
1.0
 37
0.0
 76
0
330
214
345
0
346
0
  0
LAYOUT
  5
278
102
{ACAD_REACTORS
330
1A
102
}
100
AcDbPlotSettings
  1

  2
none_device
  4
ANSI_C_(22.00_x_17.00_Inches)
  6

 40
0.0
 41
0.0
 42
0.0
 43
0.0
 44
558.8
 45
431.8
 46
0.0
 47
0.0
 48
0.0
 49
0.0
140
0.0
141
0.0
142
1.0
143
1.0
 70
0
 72
1
 73
0
 74
0
  7

 75
0
147
1.0
148
0.0
149
0.0
100
AcDbLayout
  1
Layout1
 70
0
 71
1
 10
0.0
 20
0.0
 11
558.8
 21
431.8
 12
0.0
 22
0.0
 32
0.0
 14
0.0
 24
0.0
 34
0.0
 15
0.0
 25
0.0
 35
0.0
146
0.0
 13
0.0
 23
0.0
 33
0.0
 16
1.0
 26
0.0
 36
0.0
 17
0.0
 27
1.0
 37
0.0
 76
0
330
215
345
0
346
0
  0
ENDSEC
  0
EOF
