  0
SECTION
  2
HEADER
  9
$ACADVER
  1
AC1024
  9
$DWGCODEPAGE
  3
ANSI_1252
  9
$EXTMAX
 10
558.8
 20
431.8
 30
0.0
  9
$EXTMIN
 10
0.0
 20
0.0
 30
0.0
  9
$LIMMIN
 10
0.0
 20
0.0
  9
$LIMMAX
 10
558.8
 20
431.8
  9
$VIEWCTR
 10
279.4
 20
215.9
  9
$VIEWSIZE
 40
431.8
  9
$CLAYER
  8
0
  9
$LTSCALE
 40
30.734
  9
$CELTYPE
  6
BYLAYER
  9
$DIMSCALE
 40
1.0
  9
$DIMASZ
 40
3.0
  9
$DIMEXO
 40
0.5
  9
$DIMDLI
 40
21.2344
  9
$DIMEXE
 40
1.5
  9
$DIMCEN
 40
5.0292
  9
$DIMLFAC
 40
1.0
  9
$DIMBLK
  1
_FILLED
  9
$DIMALT
 70
0
  9
$DIMALTF
 40
0.0393700787
  9
$DIMTXT
 40
3.0
  9
$DIMTOL
 70
1
  9
$DIMLIM
 70
0
  9
$DIMTFAC
 40
1.0
  9
$DIMTP
 40
0.01
  9
$DIMTM
 40
0.01
  9
$DIMGAP
 40
0.625
  9
$DIMDSEP
 70
44
  9
$AUNITS
 70
0
  9
$PDMODE
 70
3
  9
$PDSIZE
 40
3.0
  9
$HANDSEED
  5
2C7
  9
$TILEMODE
 70
1
  9
$MEASUREMENT
 70
1
  9
$INSUNITS
 70
4
  0
ENDSEC
  0
SECTION
  2
CLASSES
  0
CLASS
  1
ACDBDICTIONARYWDFLT
  2
AcDbDictionaryWithDefault
  3
AutoCAD 2000
 90
0
 91
1
280
0
281
0
  0
CLASS
  1
ACDBPLACEHOLDER
  2
AcDbPlaceHolder
  3
AutoCAD 2000
 90
0
 91
1
280
0
281
0
  0
CLASS
  1
LAYOUT
  2
AcDbLayout
  3
AutoCAD 2000
 90
0
 91
0
280
0
281
0
  0
ENDSEC
  0
SECTION
  2
TABLES
  0
TABLE
  2
VPORT
  5
8
100
AcDbSymbolTable
 70
2
  0
VPORT
  5
1F4
100
AcDbSymbolTableRecord
100
AcDbViewportTableRecord
  2
*ACTIVE
 70
0
 10
0.0
 20
0.0
 11
1.0
 21
1.0
 12
279.4
 22
215.9
 13
0.0
 23
0.0
 14
1.0
 24
1.0
 15
0.0
 25
0.0
 16
0.0
 26
0.0
 36
1.0
 17
0.0
 27
0.0
 37
0.0
 40
431.8
 41
1.2941176471
 42
50.0
 43
0.0
 44
0.0
 50
0.0
 51
0.0
 71
0
 72
100
 73
1
 74
1
 75
0
 76
0
 77
0
 78
0
  0
ENDTAB
  0
TABLE
  2
LTYPE
  5
5
100
AcDbSymbolTable
 70
6
  0
LTYPE
  5
14
100
AcDbSymbolTableRecord
100
AcDbLinetypeTableRecord
  2
BYBLOCK
 70
0
  3

 72
65
 73
0
 40
0.0
  0
LTYPE
  5
15
100
AcDbSymbolTableRecord
100
AcDbLinetypeTableRecord
  2
BYLAYER
 70
0
  3

 72
65
 73
0
 40
0.0
  0
LTYPE
  5
16
100
AcDbSymbolTableRecord
100
AcDbLinetypeTableRecord
  2
CONTINUOUS
 70
64
  3
Solid line
 72
65
 73
0
 40
0.0
  0
LTYPE
  5
1F5
100
AcDbSymbolTableRecord
100
AcDbLinetypeTableRecord
  2
CENTER
 70
64
  3
____ _ ____ _ ____ _ ____ _ ____ _ ____ _ ____
 72
65
 73
4
 40
0.6
 49
0.375
 74
0
 49
-0.075
 74
0
 49
0.075
 74
0
 49
-0.075
 74
0
  0
LTYPE
  5
1F6
100
AcDbSymbolTableRecord
100
AcDbLinetypeTableRecord
  2
HIDDEN
 70
64
  3
- - - - - - - - - - - - - - - - - - - -
 72
65
 73
2
 40
0.2
 49
0.1
 74
0
 49
-0.1
 74
0
  0
LTYPE
  5
1F7
100
AcDbSymbolTableRecord
100
AcDbLinetypeTableRecord
  2
PHANTOM
 70
64
  3
_____ _ _ _____ _ _ _____ _ _ _____
 72
65
 73
6
 40
0.8
 49
0.45
 74
0
 49
-0.05
 74
0
 49
0.1
 74
0
 49
-0.05
 74
0
 49
0.1
 74
0
 49
-0.05
 74
0
  0
LTYPE
  5
1F8
100
AcDbSymbolTableRecord
100
AcDbLinetypeTableRecord
  2
DOT
 70
64
  3
. . . . . . . . . . . . . . . . . . . .
 72
65
 73
2
 40
0.2
 49
0.1
 74
0
 49
-0.1
 74
0
  0
LTYPE
  5
1F9
100
AcDbSymbolTableRecord
100
AcDbLinetypeTableRecord
  2
DASHED
 70
64
  3
- - - - - - - - - - - - - - - - - - - -
 72
65
 73
2
 40
0.2
 49
0.1
 74
0
 49
-0.1
 74
0
  0
ENDTAB
  0
TABLE
  2
LAYER
  5
2
100
AcDbSymbolTable
 70
36
  0
LAYER
  5
10
100
AcDbSymbolTableRecord
100
AcDbLayerTableRecord
  2
0
 70
0
 62
7
  6
CONTINUOUS
370
-3
390
F
  0
LAYER
  5
1FA
100
AcDbSymbolTableRecord
100
AcDbLayerTableRecord
  2
DEFAULT_1
 70
0
 62
7
  6
CENTER
370
-3
390
F
  0
LAYER
  5
1FB
100
AcDbSymbolTableRecord
100
AcDbLayerTableRecord
  2
DEFAULT_2
 70
0
 62
7
  6
HIDDEN
370
-3
390
F
  0
LAYER
  5
1FC
100
AcDbSymbolTableRecord
100
AcDbLayerTableRecord
  2
DEFAULT_3
 70
0
 62
7
  6
PHANTOM
370
-3
390
F
  0
LAYER
  5
1FD
100
AcDbSymbolTableRecord
100
AcDbLayerTableRecord
  2
ASSI
 70
0
 62
7
  6
CONTINUOUS
370
-3
390
F
  0
LAYER
  5
1FE
100
AcDbSymbolTableRecord
100
AcDbLayerTableRecord
  2
COORDINATE
 70
0
 62
7
  6
CONTINUOUS
370
-3
390
F
  0
LAYER
  5
1FF
100
AcDbSymbolTableRecord
100
AcDbLayerTableRecord
  2
COPY_PUBLISH
 70
0
 62
7
  6
CONTINUOUS
370
-3
390
F
  0
LAYER
  5
200
100
AcDbSymbolTableRecord
100
AcDbLayerTableRecord
  2
COSMETIC
 70
0
 62
7
  6
CONTINUOUS
370
-3
390
F
  0
LAYER
  5
201
100
AcDbSymbolTableRecord
100
AcDbLayerTableRecord
  2
COSMETICI
 70
0
 62
7
  6
CONTINUOUS
370
-3
390
F
  0
LAYER
  5
202
100
AcDbSymbolTableRecord
100
AcDbLayerTableRecord
  2
CURVE
 70
0
 62
7
  6
CONTINUOUS
370
-3
390
F
  0
LAYER
  5
203
100
AcDbSymbolTableRecord
100
AcDbLayerTableRecord
  2
DRAFT
 70
0
 62
7
  6
CONTINUOUS
370
-3
390
F
  0
LAYER
  5
204
100
AcDbSymbolTableRecord
100
AcDbLayerTableRecord
  2
IMPORT_IGES
 70
0
 62
7
  6
CONTINUOUS
370
-3
390
F
  0
LAYER
  5
205
100
AcDbSymbolTableRecord
100
AcDbLayerTableRecord
  2
INTFCLR_11
 70
0
 62
7
  6
CONTINUOUS
370
-3
390
F
  0
LAYER
  5
206
100
AcDbSymbolTableRecord
100
AcDbLayerTableRecord
  2
INTF_1
 70
0
 62
7
  6
CONTINUOUS
370
-3
390
F
  0
LAYER
  5
207
100
AcDbSymbolTableRecord
100
AcDbLayerTableRecord
  2
INTF_3
 70
0
 62
7
  6
CONTINUOUS
370
-3
390
F
  0
LAYER
  5
208
100
AcDbSymbolTableRecord
100
AcDbLayerTableRecord
  2
NOTE
 70
0
 62
7
  6
CONTINUOUS
370
-3
390
F
  0
LAYER
  5
209
100
AcDbSymbolTableRecord
100
AcDbLayerTableRecord
  2
PIANI
 70
0
 62
7
  6
CONTINUOUS
370
-3
390
F
  0
LAYER
  5
20A
100
AcDbSymbolTableRecord
100
AcDbLayerTableRecord
  2
PUNTI
 70
0
 62
7
  6
CONTINUOUS
370
-3
390
F
  0
LAYER
  5
20B
100
AcDbSymbolTableRecord
100
AcDbLayerTableRecord
  2
RACCORDO
 70
0
 62
7
  6
CONTINUOUS
370
-3
390
F
  0
LAYER
  5
20C
100
AcDbSymbolTableRecord
100
AcDbLayerTableRecord
  2
SIMBOLI
 70
0
 62
7
  6
CONTINUOUS
370
-3
390
F
  0
LAYER
  5
20D
100
AcDbSymbolTableRecord
100
AcDbLayerTableRecord
  2
SMUSSO
 70
0
 62
7
  6
CONTINUOUS
370
-3
390
F
  0
LAYER
  5
20E
100
AcDbSymbolTableRecord
100
AcDbLayerTableRecord
  2
SNAPLINE
 70
0
 62
7
  6
CONTINUOUS
370
-3
390
F
  0
LAYER
  5
20F
100
AcDbSymbolTableRecord
100
AcDbLayerTableRecord
  2
SUPERFICI
 70
0
 62
7
  6
CONTINUOUS
370
-3
390
F
  0
LAYER
  5
210
100
AcDbSymbolTableRecord
100
AcDbLayerTableRecord
  2
TRASH
 70
0
 62
7
  6
CONTINUOUS
370
-3
390
F
  0
LAYER
  5
211
100
AcDbSymbolTableRecord
100
AcDbLayerTableRecord
  2
___SHELL
 70
0
 62
7
  6
CONTINUOUS
370
-3
390
F
  0
ENDTAB
  0
TABLE
  2
STYLE
  5
3
100
AcDbSymbolTable
 70
1
  0
STYLE
  5
11
100
AcDbSymbolTableRecord
100
AcDbTextStyleTableRecord
  2
STANDARD
 70
0
 40
0.0
 41
0.8
 50
0.0
 71
0
 42
0.2
  3
txt
  4

  0
STYLE
  5
212
100
AcDbSymbolTableRecord
100
AcDbTextStyleTableRecord
  2
TEXTSTYLE_1
 70
0
 40
0.0
 41
0.8
 50
0.0
 71
0
 42
0.2
  3
gdt
  4

  0
ENDTAB
  0
TABLE
  2
VIEW
  5
6
100
AcDbSymbolTable
 70
0
  0
ENDTAB
  0
TABLE
  2
UCS
  5
7
100
AcDbSymbolTable
 70
0
  0
ENDTAB
  0
TABLE
  2
APPID
  5
9
100
AcDbSymbolTable
 70
1
  0
APPID
  5
213
100
AcDbSymbolTableRecord
100
AcDbRegAppTableRecord
  2
ACAD
 70
0
  0
ENDTAB
  0
TABLE
  2
BLOCK_RECORD
  5
1
100
AcDbSymbolTable
 70
0
  0
BLOCK_RECORD
  5
214
100
AcDbSymbolTableRecord
100
AcDbBlockTableRecord
  2
*Model_Space
  0
BLOCK_RECORD
  5
215
100
AcDbSymbolTableRecord
100
AcDbBlockTableRecord
  2
*Paper_Space
  0
BLOCK_RECORD
  5
216
100
AcDbSymbolTableRecord
100
AcDbBlockTableRecord
  2
_FILLED
  0
ENDTAB
  0
TABLE
  2
DIMSTYLE
  5
A
100
AcDbSymbolTable
 70
1
100
AcDbDimStyleTable
 71
0
  0
DIMSTYLE
105
217
100
AcDbSymbolTableRecord
100
AcDbDimStyleTableRecord
  2
STANDARD
 70
0
  3

  4

 40
1.0
 41
3.0
 42
0.5
 43
0.38
 44
1.5
 45
0.0
 46
0.0
 47
0.01
 48
0.01
140
3.0
141
0.09
142
0.0
143
25.4
144
1.0
145
0.0
146
1.0
147
0.625
 71
1
 72
0
 73
0
 74
0
 75
0
 76
0
 77
1
 78
8
 79
2
170
0
171
1
172
0
173
0
174
0
175
0
176
0
177
0
178
0
270
2
179
2
271
2
272
2
273
2
274
2
275
0
280
0
281
0
282
0
283
1
284
8
285
0
286
0
287
3
288
0
340
11
278
44
341
216
342
216
343
216
344
216
  0
ENDTAB
  0
ENDSEC
  0
SECTION
  2
BLOCKS
  0
BLOCK
  5
20
100
AcDbEntity
  8
0
100
AcDbBlockBegin
  2
*Model_Space
 70
0
 10
0.0
 20
0.0
 30
0.0
  3
*Model_Space
  1

  0
ENDBLK
  5
21
100
AcDbEntity
  8
0
100
AcDbBlockEnd
  0
BLOCK
  5
1C
100
AcDbEntity
  8
0
100
AcDbBlockBegin
  2
*Paper_Space
 70
0
 10
0.0
 20
0.0
 30
0.0
  3
*Paper_Space
  1

  0
ENDBLK
  5
1D
100
AcDbEntity
  8
0
100
AcDbBlockEnd
  0
BLOCK
  5
218
100
AcDbEntity
  8
0
100
AcDbBlockBegin
  2
_FILLED
 70
64
 10
0.0
 20
0.0
  3
_FILLED
  1

  0
SOLID
  5
219
100
AcDbEntity
  8
0
  6
BYBLOCK
 62
0
100
AcDbTrace
 10
0.0
 20
0.0
 11
-1.0
 21
0.3166666667
 12
-1.0
 22
-0.3166666667
 13
-1.0
 23
-0.3166666667
  0
ENDBLK
  5
21A
100
AcDbEntity
  8
0
  6
BYBLOCK
 62
0
100
AcDbBlockEnd
  0
ENDSEC
  0
SECTION
  2
ENTITIES
  0
LWPOLYLINE
  5
21B
100
AcDbEntity
  8
0
100
AcDbPolyline
 62
7
  6
CONTINUOUS
 90
19
 70
0
 10
266.8503707404
 20
225.2615497029
 10
266.8176600932
 20
225.2393697187
 10
266.7308982394
 20
225.1744357261
 10
266.6475274409
 20
225.1032288161
 10
266.5677489681
 20
225.0262354302
 10
266.491709536
 20
224.9438837946
 10
266.4196654564
 20
224.8566807514
 10
266.3518099758
 20
224.7650393752
 10
266.2883967152
 20
224.6693962039
 10
266.2298485744
 20
224.570447329
 10
266.176403812
 20
224.4686572308
 10
266.1283308797
 20
224.3644644424
 10
266.0859885834
 20
224.2585933648
 10
266.0496258852
 20
224.1514886943
 10
266.0194884784
 20
224.0435372759
 10
265.995872944
 20
223.9352368429
 10
265.9790656948
 20
223.8269445332
 10
265.9693706146
 20
223.719072073
 10
265.96786813
 20
223.6857474153
  0
LINE
  5
21C
100
AcDbEntity
  8
0
100
AcDbLine
 62
7
  6
CONTINUOUS
 10
266.8501264096
 20
225.2613889002
 11
267.7914231552
 21
225.8821652513
  0
LWPOLYLINE
  5
21D
100
AcDbEntity
  8
0
100
AcDbPolyline
 62
250
  6
CONTINUOUS
 90
9
 70
0
 10
266.8503707405
 20
225.261549703
 10
266.8711023042
 20
225.2730059886
 10
266.899133222
 20
225.2828491903
 10
266.9296402792
 20
225.287889705
 10
266.9622896231
 20
225.2880723724
 10
266.9967239583
 20
225.2833951949
 10
267.0325664541
 20
225.2739093576
 10
267.069424868
 20
225.2597186682
 10
267.1068958407
 20
225.2409784223
  0
LINE
  5
21E
100
AcDbEntity
  8
0
100
AcDbLine
 62
250
  6
CONTINUOUS
 10
267.1068958407
 20
225.2409784223
 11
268.0495372215
 21
225.8626415477
  0
LWPOLYLINE
  5
21F
100
AcDbEntity
  8
0
100
AcDbPolyline
 62
7
  6
CONTINUOUS
 90
14
 70
0
 10
281.2520616141
 20
180.7061807277
 10
281.3015866445
 20
180.6796968643
 10
281.3703865742
 20
180.6495022162
 10
281.4421489464
 20
180.6253008869
 10
281.5166476747
 20
180.6072584895
 10
281.5934785202
 20
180.5955845865
 10
281.6721997381
 20
180.5904525519
 10
281.7526400414
 20
180.5919810949
 10
281.8344460956
 20
180.6002802017
 10
281.917308741
 20
180.6154483116
 10
282.0012742095
 20
180.6376756759
 10
282.0861825541
 20
180.6671284711
 10
282.1716069638
 20
180.7038935218
 10
282.1965094565
 20
180.7159815429
  0
LINE
  5
220
100
AcDbEntity
  8
0
100
AcDbLine
 62
7
  6
CONTINUOUS
 10
266.4204494777
 20
189.269764023
 11
281.2525069116
 21
180.70591995
  0
LINE
  5
221
100
AcDbEntity
  8
0
100
AcDbLine
 62
7
  6
CONTINUOUS
 10
281.2520344732
 20
180.7061930651
 11
281.2525063072
 21
180.7059202989
  0
LINE
  5
222
100
AcDbEntity
  8
0
100
AcDbLine
 62
250
  6
CONTINUOUS
 10
266.4204494777
 20
189.269764023
 11
266.3821755013
 21
189.2943014568
  0
LINE
  5
223
100
AcDbEntity
  8
0
100
AcDbLine
 62
250
  6
CONTINUOUS
 10
266.1143298306
 20
189.904438851
 11
280.9391759082
 21
181.3447585247
  0
LWPOLYLINE
  5
224
100
AcDbEntity
  8
0
100
AcDbPolyline
 62
250
  6
CONTINUOUS
 90
11
 70
0
 10
266.3821755013
 20
189.2943014568
 10
266.3353241166
 20
189.331929804
 10
266.2937646827
 20
189.3741026144
 10
266.2568651897
 20
189.4207101061
 10
266.2239380605
 20
189.4722944121
 10
266.195322023
 20
189.5281745521
 10
266.1708622804
 20
189.5884681568
 10
266.1498770022
 20
189.6557406686
 10
266.1328367373
 20
189.7312064568
 10
266.1207538168
 20
189.8140990729
 10
266.1143298306
 20
189.904438851
  0
LWPOLYLINE
  5
225
100
AcDbEntity
  8
0
100
AcDbPolyline
 62
7
  6
CONTINUOUS
 90
12
 70
0
 10
265.9679046147
 20
190.1072926068
 10
265.9763915557
 20
189.9968737401
 10
265.9942028956
 20
189.8885304544
 10
266.0206650386
 20
189.7869301836
 10
266.0551386905
 20
189.6925856129
 10
266.0971314881
 20
189.605360197
 10
266.1464442286
 20
189.5249175254
 10
266.2024876641
 20
189.4517348434
 10
266.2646420473
 20
189.3861804021
 10
266.3327345643
 20
189.3282065022
 10
266.4062298341
 20
189.2781745268
 10
266.4218243248
 20
189.2689801456
  0
LWPOLYLINE
  5
226
100
AcDbEntity
  8
0
100
AcDbPolyline
 62
250
  6
CONTINUOUS
 90
22
 70
0
 10
266.1143298306
 20
223.4817272604
 10
266.1204017019
 20
223.5758931544
 10
266.1320262787
 20
223.6714313231
 10
266.1489252377
 20
223.7677433129
 10
266.1706709106
 20
223.8637591156
 10
266.1970249411
 20
223.9594364751
 10
266.2281990714
 20
224.0557971374
 10
266.2643301556
 20
224.1530160331
 10
266.3050741308
 20
224.2499548275
 10
266.3500547414
 20
224.3456967063
 10
266.3992333345
 20
224.4401683266
 10
266.4521547161
 20
224.532492265
 10
266.5075392042
 20
224.6206897439
 10
266.5641964861
 20
224.7034736153
 10
266.6223393491
 20
224.7817166241
 10
266.6827787303
 20
224.8566997147
 10
266.744769785
 20
224.9275859814
 10
266.8084795441
 20
224.9946586612
 10
266.8764368102
 20
225.0602242738
 10
266.9494544711
 20
225.1242281299
 10
267.0263826093
 20
225.1848135951
 10
267.1068958407
 20
225.2409784223
  0
LWPOLYLINE
  5
227
100
AcDbEntity
  8
0
100
AcDbPolyline
 62
250
  6
CONTINUOUS
 90
9
 70
0
 10
265.9679046147
 20
190.1072926068
 10
265.9687158751
 20
190.0954893825
 10
265.9745347322
 20
190.0646991211
 10
265.9856363722
 20
190.0345570123
 10
266.0019018463
 20
190.005386014
 10
266.0231568781
 20
189.9774986792
 10
266.0491737303
 20
189.9511938071
 10
266.079673645
 20
189.9267532414
 10
266.1143298306
 20
189.904438851
  0
LWPOLYLINE
  5
228
100
AcDbEntity
  8
0
100
AcDbPolyline
 62
250
  6
CONTINUOUS
 90
16
 70
0
 10
266.1143298306
 20
189.904438851
 10
266.0363293852
 20
192.2554407781
 10
265.9721409318
 20
194.5440475984
 10
265.9207130527
 20
196.7695370063
 10
265.8813339024
 20
198.911475275
 10
265.8525290296
 20
200.9888426391
 10
265.8329518728
 20
203.0605630379
 10
265.82246607
 20
205.1282666606
 10
265.8209252524
 20
207.1900494843
 10
265.8284882299
 20
209.3004303613
 10
265.8457971687
 20
211.4643538109
 10
265.8734211673
 20
213.6774490323
 10
265.9127131109
 20
215.9809947986
 10
265.9652045504
 20
218.3892975177
 10
266.031974254
 20
220.889335952
 10
266.1143298306
 20
223.4817272604
  0
LWPOLYLINE
  5
229
100
AcDbEntity
  8
0
100
AcDbPolyline
 62
7
  6
CONTINUOUS
 90
10
 70
0
 10
265.9678780844
 20
223.6860461064
 10
265.853052307
 20
219.9344030055
 10
265.7653403841
 20
216.1374755652
 10
265.7068686807
 20
212.3572132986
 10
265.6776422521
 20
208.5939279993
 10
265.6776639065
 20
204.8479231564
 10
265.706934311
 20
201.1195126115
 10
265.7654522007
 20
197.4090005468
 10
265.8532140418
 20
193.716690005
 10
265.9679037484
 20
190.1073167778
  0
LINE
  5
22A
100
AcDbEntity
  8
0
100
AcDbLine
 62
250
  6
CONTINUOUS
 10
282.9511811923
 20
217.2573323403
 11
283.0530397735
 21
217.3161507133
  0
LWPOLYLINE
  5
22B
100
AcDbEntity
  8
0
100
AcDbPolyline
 62
250
  6
CONTINUOUS
 90
9
 70
0
 10
265.96786813
 20
223.6857474153
 10
265.9687156656
 20
223.6639489217
 10
265.9745342031
 20
223.6353727287
 10
265.9856356028
 20
223.6071557375
 10
266.0019009515
 20
223.5796002888
 10
266.0231559862
 20
223.5530016573
 10
266.0491729789
 20
223.5276448512
 10
266.0796731886
 20
223.503801561
 10
266.114329831
 20
223.4817272694
  0
LWPOLYLINE
  5
22C
100
AcDbEntity
  8
0
100
AcDbPolyline
 62
250
  6
CONTINUOUS
 90
22
 70
0
 10
281.9551143014
 20
216.6678031749
 10
281.8786892258
 20
216.6169922993
 10
281.8040730101
 20
216.561234483
 10
281.7315938043
 20
216.5010593983
 10
281.661922494
 20
216.4373610321
 10
281.5949155713
 20
216.3703354879
 10
281.5297117034
 20
216.2992433435
 10
281.466206975
 20
216.2239018561
 10
281.4051189143
 20
216.1450898801
 10
281.3468739165
 20
216.0633504584
 10
281.2920500889
 20
215.9795941816
 10
281.2405112908
 20
215.8937141973
 10
281.1917309059
 20
215.8046643284
 10
281.1459103881
 20
215.7124103689
 10
281.1036432739
 20
215.6176959333
 10
281.0652022229
 20
215.5205973362
 10
281.0309243768
 20
215.4212788317
 10
281.001373547
 20
215.3205759897
 10
280.9771135782
 20
215.2196312952
 10
280.9584965407
 20
215.119231948
 10
280.9457613743
 20
215.0198187171
 10
280.9391759082
 20
214.9220469341
  0
LWPOLYLINE
  5
22D
100
AcDbEntity
  8
0
100
AcDbPolyline
 62
250
  6
CONTINUOUS
 90
22
 70
0
 10
282.3209470414
 20
216.0631423366
 10
282.2693781597
 20
216.0288563323
 10
282.2194213029
 20
215.9919670812
 10
282.1710764712
 20
215.9524745832
 10
282.1244080603
 20
215.9103540609
 10
282.0793516744
 20
215.8656302918
 10
282.0357141261
 20
215.8183776082
 10
281.9932162173
 20
215.7683428791
 10
281.9521371462
 20
215.7157792354
 10
281.9131213198
 20
215.661520402
 10
281.876360694
 20
215.6059082608
 10
281.8416633129
 20
215.5486009297
 10
281.8090977166
 20
215.4894064877
 10
281.7784427559
 20
215.4280523334
 10
281.74991958
 20
215.364811068
 10
281.724260176
 20
215.3003085744
 10
281.7014177084
 20
215.2342536869
 10
281.6814390128
 20
215.1669375711
 10
281.665196583
 20
215.0998596062
 10
281.6529812503
 20
215.0335195853
 10
281.6445021833
 20
214.9674177153
 10
281.6397593821
 20
214.9015539962
  0
LINE
  5
22E
100
AcDbEntity
  8
0
100
AcDbLine
 62
250
  6
CONTINUOUS
 10
282.9312480264
 20
217.2701282407
 11
281.9551143014
 21
216.6678031749
  0
LINE
  5
22F
100
AcDbEntity
  8
0
100
AcDbLine
 62
250
  6
CONTINUOUS
 10
283.2845322923
 20
216.6577243439
 11
282.3209470414
 21
216.0631423366
  0
LINE
  5
230
100
AcDbEntity
  8
0
100
AcDbLine
 62
250
  6
CONTINUOUS
 10
283.2833899071
 20
216.6818773176
 11
283.3852712857
 21
216.7407088549
  0
LWPOLYLINE
  5
231
100
AcDbEntity
  8
0
100
AcDbPolyline
 62
250
  6
CONTINUOUS
 90
16
 70
0
 10
281.6397593821
 20
214.9015539962
 10
281.6007502482
 20
214.8836891943
 10
281.5584376158
 20
214.8682408756
 10
281.5132748441
 20
214.8553745611
 10
281.4657458301
 20
214.8452281071
 10
281.4163598239
 20
214.837910228
 10
281.3656459723
 20
214.8334993312
 10
281.3141476495
 20
214.8320426773
 10
281.2624166348
 20
214.8335558738
 10
281.2110072007
 20
214.8380227074
 10
281.160470174
 20
214.8453953182
 10
281.1113470344
 20
214.8555947122
 10
281.0641641123
 20
214.8685116081
 10
281.0194269495
 20
214.8840076076
 10
280.9776148829
 20
214.9019166785
 10
280.9391759082
 20
214.9220469341
  0
LWPOLYLINE
  5
232
100
AcDbEntity
  8
0
100
AcDbPolyline
 62
7
  6
CONTINUOUS
 90
3
 70
0
 10
271.4996588232
 20
202.1293012073
 10
271.4996068698
 20
202.1142690791
 10
271.5012863146
 20
202.0980213229
  0
LINE
  5
233
100
AcDbEntity
  8
0
100
AcDbLine
 62
7
  6
CONTINUOUS
 10
272.025315448
 20
205.2017510907
 11
272.060074888
 21
205.2872698708
  0
LWPOLYLINE
  5
234
100
AcDbEntity
  8
0
100
AcDbPolyline
 62
7
  6
CONTINUOUS
 90
5
 70
0
 10
272.0601539905
 20
205.287349546
 10
272.1011958992
 20
205.3649899243
 10
272.1484383676
 20
205.4346706183
 10
272.2022197882
 20
205.4966970938
 10
272.2621967084
 20
205.5507609899
  0
LINE
  5
235
100
AcDbEntity
  8
0
100
AcDbLine
 62
7
  6
CONTINUOUS
 10
272.262431125
 20
205.5508701341
 11
272.3029411112
 21
205.5804441199
  0
LWPOLYLINE
  5
236
100
AcDbEntity
  8
0
100
AcDbPolyline
 62
7
  6
CONTINUOUS
 90
4
 70
0
 10
272.3029411112
 20
205.5804441199
 10
272.3276442683
 20
205.5961202643
 10
272.397837368
 20
205.6322103858
 10
272.4730763065
 20
205.6593530042
  0
LWPOLYLINE
  5
237
100
AcDbEntity
  8
0
100
AcDbPolyline
 62
7
  6
CONTINUOUS
 90
4
 70
0
 10
274.5812774722
 20
198.7669095989
 10
274.6141621071
 20
198.776016053
 10
274.644038264
 20
198.7904605714
 10
274.6504562883
 20
198.7945397969
  0
LINE
  5
238
100
AcDbEntity
  8
0
100
AcDbLine
 62
7
  6
CONTINUOUS
 10
275.2744727437
 20
199.3869952397
 11
275.2555936015
 21
199.3820815513
  0
LINE
  5
239
100
AcDbEntity
  8
0
100
AcDbLine
 62
7
  6
CONTINUOUS
 10
274.54571066
 20
198.7633922615
 11
274.5809810505
 21
198.7669760162
  0
LINE
  5
23A
100
AcDbEntity
  8
0
100
AcDbLine
 62
7
  6
CONTINUOUS
 10
275.2547898624
 20
199.3818723615
 11
275.2339555326
 21
199.3803317432
  0
LWPOLYLINE
  5
23B
100
AcDbEntity
  8
0
100
AcDbPolyline
 62
7
  6
CONTINUOUS
 90
23
 70
0
 10
274.7991913359
 20
198.9207627554
 10
274.8218945135
 20
198.9209408001
 10
274.8454547689
 20
198.9170105023
 10
274.8699977002
 20
198.909239999
 10
274.8945913692
 20
198.8981349625
 10
274.919224709
 20
198.8836193996
 10
274.9439087263
 20
198.8657692684
 10
274.9677446926
 20
198.8453182269
 10
274.9907057074
 20
198.822193909
 10
275.0128190039
 20
198.796468875
 10
275.0332671008
 20
198.7690942001
 10
275.0520215745
 20
198.7399270973
 10
275.0691114306
 20
198.7091106936
 10
275.0838052308
 20
198.6780248756
 10
275.0959572794
 20
198.6467724289
 10
275.1057137694
 20
198.6152508587
 10
275.1127808439
 20
198.584531984
 10
275.117072976
 20
198.5545662436
 10
275.1186759663
 20
198.5254033591
 10
275.1175525887
 20
198.4982638622
 10
275.1136902858
 20
198.47355451
 10
275.10710141
 20
198.4508684258
 10
275.097785885
 20
198.430205565
  0
LINE
  5
23C
100
AcDbEntity
  8
0
100
AcDbLine
 62
7
  6
CONTINUOUS
 10
275.2333431165
 20
199.3802864574
 11
275.211634563
 21
199.3821775248
  0
LWPOLYLINE
  5
23D
100
AcDbEntity
  8
0
100
AcDbPolyline
 62
7
  6
CONTINUOUS
 90
3
 70
0
 10
274.4689415215
 20
198.7734023053
 10
274.5083406019
 20
198.7655972357
 10
274.54571066
 20
198.7633922615
  0
LINE
  5
23E
100
AcDbEntity
  8
0
100
AcDbLine
 62
7
  6
CONTINUOUS
 10
275.2110170117
 20
199.3822313207
 11
275.1888946128
 21
199.3875164562
  0
LWPOLYLINE
  5
23F
100
AcDbEntity
  8
0
100
AcDbPolyline
 62
7
  6
CONTINUOUS
 90
4
 70
0
 10
274.3468973165
 20
198.8287597217
 10
274.3878706177
 20
198.8051273012
 10
274.4283719936
 20
198.7867256544
 10
274.4686936328
 20
198.7735976789
  0
LWPOLYLINE
  5
240
100
AcDbEntity
  8
0
100
AcDbPolyline
 62
7
  6
CONTINUOUS
 90
7
 70
0
 10
271.5573532553
 20
201.4776139695
 10
271.5131327138
 20
201.5054539436
 10
271.4692134025
 20
201.5376003985
 10
271.4259669539
 20
201.5738133944
 10
271.3838178463
 20
201.613784268
 10
271.3430571302
 20
201.6572343433
 10
271.3038590675
 20
201.7039540076
  0
LWPOLYLINE
  5
241
100
AcDbEntity
  8
0
100
AcDbPolyline
 62
7
  6
CONTINUOUS
 90
19
 70
0
 10
271.5573532553
 20
201.4776139695
 10
271.504406573
 20
201.5116200517
 10
271.4531552132
 20
201.5505605658
 10
271.4035995306
 20
201.5944357184
 10
271.3552405849
 20
201.6438331727
 10
271.3085787342
 20
201.6981660908
 10
271.2651134613
 20
201.7556730323
 10
271.2249504302
 20
201.8164524188
 10
271.1879862539
 20
201.8804071535
 10
271.1554065506
 20
201.9454823512
 10
271.1273511846
 20
202.011715367
 10
271.1036825677
 20
202.0790701683
 10
271.0851693052
 20
202.1453813027
 10
271.0719762866
 20
202.2106205344
 10
271.0639400356
 20
202.2748169183
 10
271.0613353262
 20
202.3358901922
 10
271.0642534268
 20
202.3931467472
 10
271.0726029101
 20
202.4472800976
 10
271.0863837778
 20
202.498290243
  0
LINE
  5
242
100
AcDbEntity
  8
0
100
AcDbLine
 62
7
  6
CONTINUOUS
 10
274.3054979235
 20
198.8577542803
 11
274.3464077255
 21
198.829208225
  0
LINE
  5
243
100
AcDbEntity
  8
0
100
AcDbLine
 62
7
  6
CONTINUOUS
 10
274.2652641293
 20
198.8910018927
 11
274.3054979235
 21
198.8577542803
  0
LWPOLYLINE
  5
244
100
AcDbEntity
  8
0
100
AcDbPolyline
 62
7
  6
CONTINUOUS
 90
9
 70
0
 10
274.074628635
 20
198.5616193807
 10
274.0046694021
 20
198.637645537
 10
273.9385900218
 20
198.7180205499
 10
273.8762697586
 20
198.8031998868
 10
273.8176155272
 20
198.8930647016
 10
273.7641276828
 20
198.9853174947
 10
273.7163075819
 20
199.0791931571
 10
273.6736581572
 20
199.1754593069
 10
273.636181889
 20
199.274117394
  0
LWPOLYLINE
  5
245
100
AcDbEntity
  8
0
100
AcDbPolyline
 62
7
  6
CONTINUOUS
 90
8
 70
0
 10
274.0128264216
 20
198.6283792404
 10
273.9527766332
 20
198.7001259871
 10
273.8960602642
 20
198.7750004422
 10
273.8429393566
 20
198.8528329964
 10
273.7931547776
 20
198.9337949631
 10
273.7475054817
 20
199.0165383843
 10
273.7062586966
 20
199.1006144724
 10
273.6691502553
 20
199.186473805
  0
LWPOLYLINE
  5
246
100
AcDbEntity
  8
0
100
AcDbPolyline
 62
7
  6
CONTINUOUS
 90
15
 70
0
 10
271.2664490186
 20
201.7537653876
 10
271.2313060464
 20
201.8061597073
 10
271.198929248
 20
201.8603710261
 10
271.1696896917
 20
201.9156583405
 10
271.1436305158
 20
201.9718347874
 10
271.1207501561
 20
202.0289375517
 10
271.1011822968
 20
202.0868492412
 10
271.0853038987
 20
202.1447603199
 10
271.0734175064
 20
202.2016788367
 10
271.0655760207
 20
202.2569074959
 10
271.0617370843
 20
202.3102389389
 10
271.0619319156
 20
202.3614378045
 10
271.0661591692
 20
202.4101424471
 10
271.0743413927
 20
202.4558860767
 10
271.0863837778
 20
202.498290243
  0
LWPOLYLINE
  5
247
100
AcDbEntity
  8
0
100
AcDbPolyline
 62
7
  6
CONTINUOUS
 90
10
 70
0
 10
271.5094924299
 20
202.0637001576
 10
271.51590625
 20
202.0465979834
 10
271.5238199653
 20
202.0294942247
 10
271.5328776503
 20
202.0131173258
 10
271.5431394419
 20
201.9974761212
 10
271.5545450159
 20
201.9825616676
 10
271.5665577118
 20
201.9690757177
 10
271.5789985914
 20
201.9572521592
 10
271.5920464622
 20
201.9468570286
 10
271.6057012917
 20
201.9378903068
  0
LWPOLYLINE
  5
248
100
AcDbEntity
  8
0
100
AcDbPolyline
 62
7
  6
CONTINUOUS
 90
3
 70
0
 10
271.5012761469
 20
202.097906367
 10
271.5045978531
 20
202.0809318544
 10
271.5094258912
 20
202.0639019341
  0
LWPOLYLINE
  5
249
100
AcDbEntity
  8
0
100
AcDbPolyline
 62
7
  6
CONTINUOUS
 90
3
 70
0
 10
271.504783471
 20
202.1566292129
 10
271.5013979895
 20
202.1432725225
 10
271.4996762108
 20
202.1290766986
  0
LINE
  5
24A
100
AcDbEntity
  8
0
100
AcDbLine
 62
7
  6
CONTINUOUS
 10
272.4533269776
 20
204.8762881412
 11
272.4274616055
 21
204.8137887447
  0
LWPOLYLINE
  5
24B
100
AcDbEntity
  8
0
100
AcDbPolyline
 62
7
  6
CONTINUOUS
 90
3
 70
0
 10
272.5198069947
 20
204.9817876865
 10
272.4841094599
 20
204.9322887436
 10
272.4533269274
 20
204.8762885389
  0
LWPOLYLINE
  5
24C
100
AcDbEntity
  8
0
100
AcDbPolyline
 62
7
  6
CONTINUOUS
 90
3
 70
0
 10
272.6065668501
 20
205.0617833441
 10
272.5607306136
 20
205.025036388
 10
272.5198064315
 20
204.9817870913
  0
LINE
  5
24D
100
AcDbEntity
  8
0
100
AcDbLine
 62
7
  6
CONTINUOUS
 10
272.6571513872
 20
205.0916580988
 11
272.6065716492
 21
205.0617860062
  0
LINE
  5
24E
100
AcDbEntity
  8
0
100
AcDbLine
 62
7
  6
CONTINUOUS
 10
275.139645429
 20
199.4092433651
 11
271.5573532553
 21
201.4776139695
  0
LINE
  5
24F
100
AcDbEntity
  8
0
100
AcDbLine
 62
7
  6
CONTINUOUS
 10
275.1381818181
 20
199.8982803232
 11
271.6057012917
 21
201.9378903068
  0
LWPOLYLINE
  5
250
100
AcDbEntity
  8
0
100
AcDbPolyline
 62
7
  6
CONTINUOUS
 90
3
 70
0
 10
275.1381818181
 20
199.8982803232
 10
275.1631158317
 20
199.8823052546
 10
275.1873452284
 20
199.8634076883
  0
LINE
  5
251
100
AcDbEntity
  8
0
100
AcDbLine
 62
7
  6
CONTINUOUS
 10
275.1381818181
 20
199.8982803232
 11
275.1633980386
 21
199.8818855919
  0
LINE
  5
252
100
AcDbEntity
  8
0
100
AcDbLine
 62
7
  6
CONTINUOUS
 10
275.1876478045
 20
199.8629677531
 11
275.2108975789
 21
199.8415578353
  0
LINE
  5
253
100
AcDbEntity
  8
0
100
AcDbLine
 62
7
  6
CONTINUOUS
 10
275.2109312127
 20
199.8415268631
 11
275.2335371605
 21
199.8172034484
  0
LINE
  5
254
100
AcDbEntity
  8
0
100
AcDbLine
 62
7
  6
CONTINUOUS
 10
275.2108701128
 20
199.8415876852
 11
275.2341667918
 21
199.8162691759
  0
LINE
  5
255
100
AcDbEntity
  8
0
100
AcDbLine
 62
7
  6
CONTINUOUS
 10
273.9086086784
 20
199.4481744213
 11
273.9333149286
 21
199.4195367406
  0
LINE
  5
256
100
AcDbEntity
  8
0
100
AcDbLine
 62
7
  6
CONTINUOUS
 10
275.2335371605
 20
199.8172034484
 11
275.2567594001
 21
199.7880284863
  0
LWPOLYLINE
  5
257
100
AcDbEntity
  8
0
100
AcDbPolyline
 62
7
  6
CONTINUOUS
 90
4
 70
0
 10
273.9314290285
 20
199.4216888947
 10
273.9533041253
 20
199.3924800461
 10
273.9729044926
 20
199.3623867186
 10
273.9897871057
 20
199.3320219383
  0
LWPOLYLINE
  5
258
100
AcDbEntity
  8
0
100
AcDbPolyline
 62
7
  6
CONTINUOUS
 90
5
 70
0
 10
274.1193310011
 20
199.0614134532
 10
274.1524962608
 20
199.014264666
 10
274.1878525228
 20
198.9701550951
 10
274.2257496523
 20
198.9288750039
 10
274.2658365888
 20
198.8906334296
  0
LINE
  5
259
100
AcDbEntity
  8
0
100
AcDbLine
 62
7
  6
CONTINUOUS
 10
273.954096462
 20
199.391563336
 11
273.9729115864
 21
199.3623748278
  0
LINE
  5
25A
100
AcDbEntity
  8
0
100
AcDbLine
 62
7
  6
CONTINUOUS
 10
274.0884992507
 20
199.1115725255
 11
274.1189762781
 21
199.0621062666
  0
LINE
  5
25B
100
AcDbEntity
  8
0
100
AcDbLine
 62
7
  6
CONTINUOUS
 10
274.0614836792
 20
199.1622199759
 11
274.0884992507
 21
199.1115725255
  0
LINE
  5
25C
100
AcDbEntity
  8
0
100
AcDbLine
 62
7
  6
CONTINUOUS
 10
273.989483465
 20
199.3323446069
 11
274.0040895043
 21
199.3010996155
  0
LWPOLYLINE
  5
25D
100
AcDbEntity
  8
0
100
AcDbPolyline
 62
7
  6
CONTINUOUS
 90
3
 70
0
 10
274.0040895043
 20
199.3010996155
 10
274.037918936
 20
199.2139663969
 10
274.0620415661
 20
199.161263867
  0
LINE
  5
25E
100
AcDbEntity
  8
0
100
AcDbLine
 62
7
  6
CONTINUOUS
 10
274.004395517
 20
199.3007729875
 11
274.0167300497
 21
199.2686400553
  0
LWPOLYLINE
  5
25F
100
AcDbEntity
  8
0
100
AcDbPolyline
 62
7
  6
CONTINUOUS
 90
3
 70
0
 10
273.636181889
 20
199.274117394
 10
273.6265738382
 20
199.3056078398
 10
273.6196857503
 20
199.3360154023
  0
LWPOLYLINE
  5
260
100
AcDbEntity
  8
0
100
AcDbPolyline
 62
7
  6
CONTINUOUS
 90
10
 70
0
 10
273.6196857503
 20
199.3360154023
 10
273.6153124796
 20
199.3674723983
 10
273.6140340607
 20
199.396386492
 10
273.615584755
 20
199.4240156668
 10
273.6199041207
 20
199.4492625666
 10
273.6271035696
 20
199.4720309954
 10
273.6370714092
 20
199.492416985
 10
273.6494121665
 20
199.5096113025
 10
273.6642209972
 20
199.5234851879
 10
273.6702833471
 20
199.5277962038
  0
LWPOLYLINE
  5
261
100
AcDbEntity
  8
0
100
AcDbPolyline
 62
7
  6
CONTINUOUS
 90
8
 70
0
 10
273.6155177082
 20
199.36534013
 10
273.6140608492
 20
199.3939797662
 10
273.6153242537
 20
199.4215366946
 10
273.6193347079
 20
199.4468178006
 10
273.6262247849
 20
199.4697131395
 10
273.6358616649
 20
199.4903325116
 10
273.6478736556
 20
199.5078121913
 10
273.6623665388
 20
199.5220080392
  0
LINE
  5
262
100
AcDbEntity
  8
0
100
AcDbLine
 62
7
  6
CONTINUOUS
 10
274.8533369646
 20
200.7527832174
 11
274.8307587979
 21
200.7837819952
  0
LWPOLYLINE
  5
263
100
AcDbEntity
  8
0
100
AcDbPolyline
 62
7
  6
CONTINUOUS
 90
17
 70
0
 10
275.2551771388
 20
199.790357208
 10
275.2772198027
 20
199.7585942809
 10
275.2952137632
 20
199.7281439122
 10
275.3110761046
 20
199.6965003686
 10
275.3243821145
 20
199.6648606719
 10
275.3350630494
 20
199.6332484145
 10
275.3431881209
 20
199.6016402761
 10
275.3485392629
 20
199.5711627426
 10
275.3510401343
 20
199.5418468614
 10
275.3507672453
 20
199.5136616837
 10
275.3477314501
 20
199.4876404932
 10
275.3418264307
 20
199.4638321963
 10
275.3331583068
 20
199.4421877714
 10
275.3220562217
 20
199.4235933968
 10
275.3084058069
 20
199.4081817395
 10
275.2923209151
 20
199.3958198323
 10
275.2880529572
 20
199.3932937602
  0
LWPOLYLINE
  5
264
100
AcDbEntity
  8
0
100
AcDbPolyline
 62
7
  6
CONTINUOUS
 90
4
 70
0
 10
274.832382822
 20
200.7816029217
 10
274.8127538143
 20
200.8127551969
 10
274.7956394199
 20
200.844281737
 10
274.781436233
 20
200.8755298318
  0
LWPOLYLINE
  5
265
100
AcDbEntity
  8
0
100
AcDbPolyline
 62
7
  6
CONTINUOUS
 90
15
 70
0
 10
275.2749851736
 20
199.7620669796
 10
275.292882952
 20
199.7322799508
 10
275.3089493764
 20
199.7010492766
 10
275.3225541814
 20
199.66961268
 10
275.3335993419
 20
199.6379636953
 10
275.3421833994
 20
199.6061090885
 10
275.3479706597
 20
199.5753062679
 10
275.3508504721
 20
199.5455972284
 10
275.3509336909
 20
199.5169400939
 10
275.3482164951
 20
199.4904662425
 10
275.3425872778
 20
199.4662612141
 10
275.3341574426
 20
199.444239351
 10
275.3232572985
 20
199.425275011
 10
275.3097867607
 20
199.409489621
 10
275.2938453972
 20
199.3967614535
  0
LINE
  5
266
100
AcDbEntity
  8
0
100
AcDbLine
 62
7
  6
CONTINUOUS
 10
274.8121130709
 20
200.8135998901
 11
274.7956969906
 21
200.8441648734
  0
LWPOLYLINE
  5
267
100
AcDbEntity
  8
0
100
AcDbPolyline
 62
7
  6
CONTINUOUS
 90
4
 70
0
 10
274.2679929936
 20
204.3039510009
 10
274.3208801729
 20
204.1801737919
 10
274.3671180547
 20
204.0564972116
 10
274.4071000972
 20
203.9321266896
  0
LWPOLYLINE
  5
268
100
AcDbEntity
  8
0
100
AcDbPolyline
 62
7
  6
CONTINUOUS
 90
3
 70
0
 10
274.7817595028
 20
200.8750790544
 10
274.7700522081
 20
200.9067406398
 10
274.7605754295
 20
200.9391498167
  0
LWPOLYLINE
  5
269
100
AcDbEntity
  8
0
100
AcDbPolyline
 62
7
  6
CONTINUOUS
 90
10
 70
0
 10
274.012083061
 20
203.9762818204
 10
273.9819919567
 20
204.0674289083
 10
273.9469725948
 20
204.1577587649
 10
273.9067143801
 20
204.2478813853
 10
273.8615248635
 20
204.3371850329
 10
273.8123291713
 20
204.4238359129
 10
273.7590412551
 20
204.5077798454
 10
273.7017436543
 20
204.5890690072
 10
273.6416137967
 20
204.666028808
 10
273.5785918322
 20
204.7385676266
  0
LINE
  5
26A
100
AcDbEntity
  8
0
100
AcDbLine
 62
7
  6
CONTINUOUS
 10
274.7697481397
 20
200.9071524692
 11
274.7605754295
 21
200.9391498167
  0
LINE
  5
26B
100
AcDbEntity
  8
0
100
AcDbLine
 62
7
  6
CONTINUOUS
 10
274.0372476147
 20
203.8843184783
 11
274.0120831249
 21
203.9762822455
  0
LINE
  5
26C
100
AcDbEntity
  8
0
100
AcDbLine
 62
7
  6
CONTINUOUS
 10
274.4070222759
 20
203.9322972096
 11
274.4408290583
 21
203.8070638056
  0
LWPOLYLINE
  5
26D
100
AcDbEntity
  8
0
100
AcDbPolyline
 62
7
  6
CONTINUOUS
 90
3
 70
0
 10
275.1628372172
 20
200.8615110982
 10
275.169224914
 20
200.8306390311
 10
275.1728530481
 20
200.801239894
  0
LWPOLYLINE
  5
26E
100
AcDbEntity
  8
0
100
AcDbPolyline
 62
7
  6
CONTINUOUS
 90
9
 70
0
 10
275.1728530481
 20
200.801239894
 10
275.173680889
 20
200.7712218618
 10
275.1715537266
 20
200.7442462484
 10
275.1665883714
 20
200.7189984454
 10
275.1589805676
 20
200.6964827686
 10
275.148623178
 20
200.676809589
 10
275.1356229306
 20
200.6598682991
 10
275.120496032
 20
200.6463315528
 10
275.1061319816
 20
200.6377322343
  0
LWPOLYLINE
  5
26F
100
AcDbEntity
  8
0
100
AcDbPolyline
 62
7
  6
CONTINUOUS
 90
8
 70
0
 10
275.1737216406
 20
200.7733136994
 10
275.1717957507
 20
200.7464641922
 10
275.1671104115
 20
200.7210876811
 10
275.1597703829
 20
200.6983728954
 10
275.1496263762
 20
200.6784715738
 10
275.1368272938
 20
200.6612317543
 10
275.1219248083
 20
200.6473863994
 10
275.1061356274
 20
200.6377255662
  0
LWPOLYLINE
  5
270
100
AcDbEntity
  8
0
100
AcDbPolyline
 62
7
  6
CONTINUOUS
 90
3
 70
0
 10
272.9050309719
 20
205.6545021551
 10
272.9994450871
 20
205.6253444583
 10
273.0943236084
 20
205.5874611524
  0
LINE
  5
271
100
AcDbEntity
  8
0
100
AcDbLine
 62
7
  6
CONTINUOUS
 10
273.0946280295
 20
205.5873396024
 11
273.1905941988
 21
205.5403347242
  0
LWPOLYLINE
  5
272
100
AcDbEntity
  8
0
100
AcDbPolyline
 62
7
  6
CONTINUOUS
 90
7
 70
0
 10
273.2358234571
 20
205.0208664789
 10
273.1654049474
 20
205.0580535805
 10
273.0949469467
 20
205.0884606531
 10
273.0258971978
 20
205.1114631162
 10
272.9582850905
 20
205.1269083135
 10
272.8920829212
 20
205.1349498621
 10
272.8286530712
 20
205.1354227502
  0
LWPOLYLINE
  5
273
100
AcDbEntity
  8
0
100
AcDbPolyline
 62
7
  6
CONTINUOUS
 90
4
 70
0
 10
273.1903047384
 20
205.5403857011
 10
273.2876188935
 20
205.4841975907
 10
273.3837838634
 20
205.420304035
 10
273.4784369729
 20
205.348814458
  0
LWPOLYLINE
  5
274
100
AcDbEntity
  8
0
100
AcDbPolyline
 62
7
  6
CONTINUOUS
 90
3
 70
0
 10
273.3765411594
 20
204.9258709108
 10
273.3062018117
 20
204.9767589175
 10
273.2358228479
 20
205.0208668306
  0
LINE
  5
275
100
AcDbEntity
  8
0
100
AcDbLine
 62
7
  6
CONTINUOUS
 10
273.445394707
 20
204.8692498131
 11
273.376540419
 21
204.925871587
  0
LWPOLYLINE
  5
276
100
AcDbEntity
  8
0
100
AcDbPolyline
 62
7
  6
CONTINUOUS
 90
3
 70
0
 10
273.47812976
 20
205.3489579224
 10
273.5721993564
 20
205.2692874839
 10
273.6634908854
 20
205.1833587319
  0
LWPOLYLINE
  5
277
100
AcDbEntity
  8
0
100
AcDbPolyline
 62
7
  6
CONTINUOUS
 90
3
 70
0
 10
273.5785914478
 20
204.7385679735
 10
273.5127351343
 20
204.8067749584
 10
273.4453956141
 20
204.8692490199
  0
LWPOLYLINE
  5
278
100
AcDbEntity
  8
0
100
AcDbPolyline
 62
7
  6
CONTINUOUS
 90
3
 70
0
 10
273.6637901409
 20
205.1830770556
 10
273.7528634366
 20
205.0902136404
 10
273.839461677
 20
204.9908123713
  0
LWPOLYLINE
  5
279
100
AcDbEntity
  8
0
100
AcDbPolyline
 62
7
  6
CONTINUOUS
 90
4
 70
0
 10
273.8395547548
 20
204.9906009153
 10
273.922480157
 20
204.8860793117
 10
274.0009710891
 20
204.7771627899
 10
274.0753371413
 20
204.6636390807
  0
LINE
  5
27A
100
AcDbEntity
  8
0
100
AcDbLine
 62
7
  6
CONTINUOUS
 10
274.0754261809
 20
204.6634046638
 11
274.1447456722
 21
204.5467636221
  0
LWPOLYLINE
  5
27B
100
AcDbEntity
  8
0
100
AcDbPolyline
 62
7
  6
CONTINUOUS
 90
3
 70
0
 10
274.1448991618
 20
204.5465053515
 10
274.2090737406
 20
204.4266585678
 10
274.2680414289
 20
204.3039175537
  0
LWPOLYLINE
  5
27C
100
AcDbEntity
  8
0
100
AcDbPolyline
 62
7
  6
CONTINUOUS
 90
3
 70
0
 10
275.1139039346
 20
198.4747565519
 10
275.1072598241
 20
198.4514902224
 10
275.097785885
 20
198.430205565
  0
LWPOLYLINE
  5
27D
100
AcDbEntity
  8
0
100
AcDbPolyline
 62
7
  6
CONTINUOUS
 90
6
 70
0
 10
275.097785885
 20
198.430205565
 10
275.0656297522
 20
198.3801627823
 10
275.0293029547
 20
198.3367032461
 10
274.988803761
 20
198.2998259443
 10
274.9438687348
 20
198.269385165
 10
274.9237668039
 20
198.2585678967
  0
LINE
  5
27E
100
AcDbEntity
  8
0
100
AcDbLine
 62
7
  6
CONTINUOUS
 10
275.097785885
 20
198.430205565
 11
275.0612238415
 21
198.3742962637
  0
LINE
  5
27F
100
AcDbEntity
  8
0
100
AcDbLine
 62
7
  6
CONTINUOUS
 10
274.6942388887
 20
198.8351916204
 11
274.714829653
 21
198.8655660936
  0
LWPOLYLINE
  5
280
100
AcDbEntity
  8
0
100
AcDbPolyline
 62
7
  6
CONTINUOUS
 90
4
 70
0
 10
274.714829653
 20
198.8655660936
 10
274.7272011226
 20
198.8835849728
 10
274.7415655234
 20
198.8981034441
 10
274.7500352018
 20
198.9044112297
  0
LWPOLYLINE
  5
281
100
AcDbEntity
  8
0
100
AcDbPolyline
 62
7
  6
CONTINUOUS
 90
3
 70
0
 10
274.6709613816
 20
198.8103188809
 10
274.6944579347
 20
198.8352934351
 10
274.7269410283
 20
198.8836463975
  0
LINE
  5
282
100
AcDbEntity
  8
0
100
AcDbLine
 62
7
  6
CONTINUOUS
 10
273.6623665388
 20
199.5220080392
 11
273.6702893804
 21
199.5277863451
  0
LWPOLYLINE
  5
283
100
AcDbEntity
  8
0
100
AcDbPolyline
 62
7
  6
CONTINUOUS
 90
12
 70
0
 10
273.6702893804
 20
199.5277863451
 10
273.6792339887
 20
199.5330638766
 10
273.6977858907
 20
199.5405477677
 10
273.7180613493
 20
199.5443199395
 10
273.7400206875
 20
199.5445198306
 10
273.7628555339
 20
199.5411342727
 10
273.7865932978
 20
199.5340596252
 10
273.811206241
 20
199.5233993367
 10
273.8358033176
 20
199.5094509007
 10
273.8603975595
 20
199.4921253536
 10
273.8849759963
 20
199.471511695
 10
273.9086086784
 20
199.4481744213
  0
LWPOLYLINE
  5
284
100
AcDbEntity
  8
0
100
AcDbPolyline
 62
7
  6
CONTINUOUS
 90
12
 70
0
 10
273.6702833471
 20
199.5277962038
 10
273.681402189
 20
199.5341670759
 10
273.7002737177
 20
199.5412333793
 10
273.7209027546
 20
199.54453866
 10
273.7432215565
 20
199.5442280219
 10
273.7663456469
 20
199.5403136446
 10
273.7903070622
 20
199.5326511722
 10
273.8150734462
 20
199.5213847737
 10
273.8396637869
 20
199.5069594467
 10
273.8640711128
 20
199.4892490202
 10
273.8883024771
 20
199.4683797131
 10
273.9113979936
 20
199.4451751591
  0
LWPOLYLINE
  5
285
100
AcDbEntity
  8
0
100
AcDbPolyline
 62
7
  6
CONTINUOUS
 90
13
 70
0
 10
275.1061319816
 20
200.6377322343
 10
275.1031568517
 20
200.6363365337
 10
275.0836904255
 20
200.6297457142
 10
275.0628687747
 20
200.6268195748
 10
275.040637428
 20
200.6277049129
 10
275.0170503554
 20
200.632254641
 10
274.9930422193
 20
200.6402884002
 10
274.9685960238
 20
200.6519456182
 10
274.9437285911
 20
200.6670867668
 10
274.9194253904
 20
200.6851131002
 10
274.895708969
 20
200.7061399895
 10
274.8725570147
 20
200.7300521999
 10
274.8508877782
 20
200.755905118
  0
LWPOLYLINE
  5
286
100
AcDbEntity
  8
0
100
AcDbPolyline
 62
7
  6
CONTINUOUS
 90
12
 70
0
 10
275.1061356274
 20
200.6377255662
 10
275.085669867
 20
200.6302222832
 10
275.0651456951
 20
200.6269483997
 10
275.0432449672
 20
200.6274056229
 10
275.0199990417
 20
200.6314736737
 10
274.996262034
 20
200.6390091408
 10
274.972018449
 20
200.6501110854
 10
274.947283596
 20
200.6646803386
 10
274.9229578733
 20
200.6822761873
 10
274.8990364976
 20
200.7029833108
 10
274.8755244716
 20
200.7267171569
 10
274.8533369646
 20
200.7527832174
  0
LINE
  5
287
100
AcDbEntity
  8
0
100
AcDbLine
 62
7
  6
CONTINUOUS
 10
272.4733053246
 20
205.6593282005
 11
272.5525596229
 21
205.6771836583
  0
LWPOLYLINE
  5
288
100
AcDbEntity
  8
0
100
AcDbPolyline
 62
7
  6
CONTINUOUS
 90
4
 70
0
 10
272.8286537144
 20
205.1354227854
 10
272.7680566869
 20
205.1281714527
 10
272.7102350764
 20
205.1133535605
 10
272.6571513872
 20
205.0916580988
  0
LWPOLYLINE
  5
289
100
AcDbEntity
  8
0
100
AcDbPolyline
 62
7
  6
CONTINUOUS
 90
3
 70
0
 10
272.5527429703
 20
205.6772249653
 10
272.6361200984
 20
205.6856067288
 10
272.7233665992
 20
205.6846322224
  0
LWPOLYLINE
  5
28A
100
AcDbEntity
  8
0
100
AcDbPolyline
 62
7
  6
CONTINUOUS
 90
3
 70
0
 10
272.7237353503
 20
205.6845093382
 10
272.8135816703
 20
205.6742194973
 10
272.9052941468
 20
205.6545355992
  0
LWPOLYLINE
  5
28B
100
AcDbEntity
  8
0
100
AcDbPolyline
 62
250
  6
CONTINUOUS
 90
12
 70
0
 10
280.9391759082
 20
181.3447585247
 10
280.9450743645
 20
181.260781205
 10
280.9562061103
 20
181.1817529542
 10
280.9722803508
 20
181.1078885015
 10
280.9928657511
 20
181.0397167954
 10
281.0177195067
 20
180.9769373017
 10
281.0470425617
 20
180.9186755802
 10
281.0809466117
 20
180.8648785623
 10
281.1191177822
 20
180.8161938707
 10
281.1612856051
 20
180.7729565432
 10
281.2069503811
 20
180.735552307
 10
281.2520344732
 20
180.7061930651
  0
LINE
  5
28C
100
AcDbEntity
  8
0
100
AcDbLine
 62
7
  6
CONTINUOUS
 10
275.0612238415
 20
198.3742962637
 11
275.0194478657
 21
198.3267762776
  0
LINE
  5
28D
100
AcDbEntity
  8
0
100
AcDbLine
 62
7
  6
CONTINUOUS
 10
275.0194478657
 20
198.3267762776
 11
274.9724554769
 21
198.2876441566
  0
LINE
  5
28E
100
AcDbEntity
  8
0
100
AcDbLine
 62
7
  6
CONTINUOUS
 10
274.6504562883
 20
198.7945397969
 11
274.670642058
 21
198.8101566211
  0
LINE
  5
28F
100
AcDbEntity
  8
0
100
AcDbLine
 62
7
  6
CONTINUOUS
 10
274.7413459145
 20
198.8981864629
 11
274.7499799554
 21
198.9045024566
  0
LINE
  5
290
100
AcDbEntity
  8
0
100
AcDbLine
 62
7
  6
CONTINUOUS
 10
275.2938453972
 20
199.3967614535
 11
275.2880655961
 21
199.3932717765
  0
LINE
  5
291
100
AcDbEntity
  8
0
100
AcDbLine
 62
7
  6
CONTINUOUS
 10
274.7500352018
 20
198.9044112297
 11
274.7575705226
 21
198.9089111087
  0
LINE
  5
292
100
AcDbEntity
  8
0
100
AcDbLine
 62
7
  6
CONTINUOUS
 10
274.9724554769
 20
198.2876441566
 11
274.9237205664
 21
198.2586510905
  0
LINE
  5
293
100
AcDbEntity
  8
0
100
AcDbLine
 62
7
  6
CONTINUOUS
 10
274.7499799554
 20
198.9045024566
 11
274.7580439852
 21
198.909186099
  0
LWPOLYLINE
  5
294
100
AcDbEntity
  8
0
100
AcDbPolyline
 62
7
  6
CONTINUOUS
 90
8
 70
0
 10
275.2880655961
 20
199.3932717765
 10
275.2760627176
 20
199.3875999729
 10
275.2563630419
 20
199.3821488726
 10
275.2348214603
 20
199.3802641159
 10
275.2122935235
 20
199.3820235057
 10
275.1890642667
 20
199.3874528899
 10
275.1648482675
 20
199.3965261952
 10
275.139645429
 20
199.4092433651
  0
LINE
  5
295
100
AcDbEntity
  8
0
100
AcDbLine
 62
7
  6
CONTINUOUS
 10
275.2880529572
 20
199.3932937602
 11
275.2753534444
 21
199.3874037098
  0
LINE
  5
296
100
AcDbEntity
  8
0
100
AcDbLine
 62
7
  6
CONTINUOUS
 10
274.9237668039
 20
198.2585678967
 11
274.8947582513
 21
198.2455248299
  0
LWPOLYLINE
  5
297
100
AcDbEntity
  8
0
100
AcDbPolyline
 62
7
  6
CONTINUOUS
 90
23
 70
0
 10
274.75792251
 20
198.9091213056
 10
274.7765465933
 20
198.9166928563
 10
274.7971626926
 20
198.9207634642
 10
274.8189460624
 20
198.921169523
 10
274.8419407136
 20
198.9177619268
 10
274.8661021891
 20
198.9106895208
 10
274.8904730501
 20
198.9002356314
 10
274.9150615403
 20
198.8862651939
 10
274.9398593343
 20
198.8689132253
 10
274.963884228
 20
198.8488682257
 10
274.9871054025
 20
198.8260224935
 10
275.0095539966
 20
198.8004839171
 10
275.0303407961
 20
198.7732644137
 10
275.0493998241
 20
198.7442955032
 10
275.0667976295
 20
198.7136459999
 10
275.0818437063
 20
198.6825337152
 10
275.09444308
 20
198.6509416896
 10
275.1046912811
 20
198.6188872076
 10
275.112183312
 20
198.5876393012
 10
275.1168087594
 20
198.5572293016
 10
275.1186783177
 20
198.5276260421
 10
275.117718277
 20
198.5000045885
 10
275.1139039346
 20
198.4747565519
  0
LWPOLYLINE
  5
298
100
AcDbEntity
  8
0
100
AcDbPolyline
 62
7
  6
CONTINUOUS
 90
13
 70
0
 10
274.9237205664
 20
198.2586510905
 10
274.8618261895
 20
198.2341519491
 10
274.8001578128
 20
198.2205621028
 10
274.7346462759
 20
198.2161660373
 10
274.6653873081
 20
198.2207311789
 10
274.5941512152
 20
198.2341414265
 10
274.5208857521
 20
198.2566245358
 10
274.4456407763
 20
198.2879513507
 10
274.3703400907
 20
198.3273206046
 10
274.2949820391
 20
198.3749398181
 10
274.2195682777
 20
198.4306014705
 10
274.1460281519
 20
198.492882069
 10
274.0744107653
 20
198.5619536299
  0
LWPOLYLINE
  5
299
100
AcDbEntity
  8
0
100
AcDbPolyline
 62
7
  6
CONTINUOUS
 90
3
 70
0
 10
274.7580439852
 20
198.909186099
 10
274.777471335
 20
198.9167447977
 10
274.7991913359
 20
198.9207627554
  0
LWPOLYLINE
  5
29A
100
AcDbEntity
  8
0
100
AcDbPolyline
 62
7
  6
CONTINUOUS
 90
13
 70
0
 10
274.8947582513
 20
198.2455248299
 10
274.8422561656
 20
198.2286782996
 10
274.7861002192
 20
198.2189749673
 10
274.7265497614
 20
198.2162837359
 10
274.6651707808
 20
198.2206470675
 10
274.6022111844
 20
198.2321495405
 10
274.5374208698
 20
198.2507052892
 10
274.4716189017
 20
198.2761011627
 10
274.4044322037
 20
198.3086388387
 10
274.3362330862
 20
198.3480161902
 10
274.2689590417
 20
198.3931145629
 10
274.2029816034
 20
198.4438066551
 10
274.1379300044
 20
198.500220218
  0
LWPOLYLINE
  5
29B
100
AcDbEntity
  8
0
100
AcDbPolyline
 62
250
  6
CONTINUOUS
 90
22
 70
0
 10
281.6397593821
 20
181.3578428752
 10
281.6440547037
 20
181.3016607678
 10
281.6514535452
 20
181.2489985621
 10
281.6619559065
 20
181.1998562582
 10
281.6756158571
 20
181.154336468
 10
281.6923793276
 20
181.1123365795
 10
281.7120841097
 20
181.0735487569
 10
281.7348129566
 20
181.0377010904
 10
281.7604831151
 20
181.0050654898
 10
281.7886841176
 20
180.9761498486
 10
281.8192112898
 20
180.9510604278
 10
281.8522693059
 20
180.9296909665
 10
281.8880617212
 20
180.9122305745
 10
281.9267176392
 20
180.8984986422
 10
281.9681079564
 20
180.8886757793
 10
282.0120489178
 20
180.8834929257
 10
282.0587734818
 20
180.8830239039
 10
282.1080486899
 20
180.8871948913
 10
282.158991913
 20
180.8965153601
 10
282.211308941
 20
180.9111551344
 10
282.2652939838
 20
180.93094439
 10
282.3209470414
 20
180.9558831271
  0
LWPOLYLINE
  5
29C
100
AcDbEntity
  8
0
100
AcDbPolyline
 62
250
  6
CONTINUOUS
 90
6
 70
0
 10
281.3617869025
 20
193.0502781908
 10
281.3897258434
 20
190.8708861463
 10
281.4311625517
 20
188.6157757685
 10
281.4871970611
 20
186.2721831374
 10
281.5567293379
 20
183.8528721729
 10
281.6397593821
 20
181.3578428752
  0
LWPOLYLINE
  5
29D
100
AcDbEntity
  8
0
100
AcDbPolyline
 62
250
  6
CONTINUOUS
 90
16
 70
0
 10
280.9391759082
 20
214.9220469341
 10
280.8585035548
 20
212.4806005294
 10
280.7920431149
 20
210.1175040209
 10
280.7387469509
 20
207.8322675162
 10
280.697936236
 20
205.644502993
 10
280.6681106399
 20
203.533531118
 10
280.6478378824
 20
201.4388792838
 10
280.6369471035
 20
199.3587286896
 10
280.6353310424
 20
197.2948481008
 10
280.6431712225
 20
195.1930046285
 10
280.6610803294
 20
193.0489799627
 10
280.6896593493
 20
190.8678188973
 10
280.7303738544
 20
188.6099545478
 10
280.7847926249
 20
186.262898803
 10
280.8539573738
 20
183.8408691265
 10
280.9391759082
 20
181.3447585247
  0
LWPOLYLINE
  5
29E
100
AcDbEntity
  8
0
100
AcDbPolyline
 62
250
  6
CONTINUOUS
 90
6
 70
0
 10
283.385273634
 20
181.730720808
 10
283.3872428413
 20
181.6992640958
 10
283.3857302253
 20
181.6698319481
 10
283.3808243668
 20
181.6425998066
 10
283.37259371
 20
181.6175999055
 10
283.3661420425
 20
181.6038335484
  0
LINE
  5
29F
100
AcDbEntity
  8
0
100
AcDbLine
 62
250
  6
CONTINUOUS
 10
281.3440456279
 20
195.1922436621
 11
281.3617869025
 21
193.0502781908
  0
LWPOLYLINE
  5
2A0
100
AcDbEntity
  8
0
100
AcDbPolyline
 62
250
  6
CONTINUOUS
 90
10
 70
0
 10
281.6397593821
 20
214.9015539962
 10
281.5608584781
 20
212.46335881
 10
281.4941144903
 20
210.102462925
 10
281.4395274187
 20
207.8188663411
 10
281.3979585448
 20
205.6328775214
 10
281.3685465872
 20
203.5241880028
 10
281.3487077011
 20
201.4318723965
 10
281.3373724069
 20
199.3535557346
 10
281.3356101842
 20
197.2916129849
 10
281.3440456279
 20
195.1922436621
  0
LWPOLYLINE
  5
2A1
100
AcDbEntity
  8
0
100
AcDbPolyline
 62
250
  6
CONTINUOUS
 90
16
 70
0
 10
282.3209470414
 20
216.0631423366
 10
282.317080451
 20
216.1057708471
 10
282.3094552574
 20
216.1502055211
 10
282.2981548819
 20
216.1959601085
 10
282.2833029639
 20
216.2425339128
 10
282.2650620127
 20
216.2894172615
 10
282.2436316325
 20
216.3360970831
 10
282.2192463271
 20
216.3820625406
 10
282.1921729415
 20
216.426810604
 10
282.1627077516
 20
216.4698515475
 10
282.1311731999
 20
216.510714344
 10
282.0979143802
 20
216.5489517959
 10
282.0632952764
 20
216.5841454171
 10
282.0276947504
 20
216.6159100476
 10
281.9915023932
 20
216.6438980633
 10
281.9551142809
 20
216.6678031622
  0
LWPOLYLINE
  5
2A2
100
AcDbEntity
  8
0
100
AcDbPolyline
 62
7
  6
CONTINUOUS
 90
13
 70
0
 10
283.4133789476
 20
216.8139327631
 10
283.4131349392
 20
216.8295386597
 10
283.4091699009
 20
216.879264035
 10
283.4002436899
 20
216.9298626864
 10
283.3862922514
 20
216.9807133477
 10
283.3677237285
 20
217.0302560523
 10
283.3446140307
 20
217.0784080986
 10
283.3170144483
 20
217.1248645536
 10
283.2859485921
 20
217.167956686
 10
283.2517365943
 20
217.2074944865
 10
283.21442676
 20
217.2434643225
 10
283.1751194601
 20
217.2749022687
 10
283.1304662018
 20
217.3039091903
  0
LINE
  5
2A3
100
AcDbEntity
  8
0
100
AcDbLine
 62
7
  6
CONTINUOUS
 10
283.2845322923
 20
181.4358462873
 11
283.2845322923
 21
216.6577243439
  0
LINE
  5
2A4
100
AcDbEntity
  8
0
100
AcDbLine
 62
250
  6
CONTINUOUS
 10
283.3852712857
 20
216.7407088549
 11
283.3852712857
 21
181.7307163485
  0
LINE
  5
2A5
100
AcDbEntity
  8
0
100
AcDbLine
 62
7
  6
CONTINUOUS
 10
283.4133789495
 20
216.8139132012
 11
283.4133789495
 21
181.8039206948
  0
LWPOLYLINE
  5
2A6
100
AcDbEntity
  8
0
100
AcDbPolyline
 62
250
  6
CONTINUOUS
 90
5
 70
0
 10
283.4133789495
 20
216.8139132012
 10
283.4132520346
 20
216.8088752556
 10
283.4093125013
 20
216.7854899407
 10
283.3999280294
 20
216.7626275909
 10
283.3852712857
 20
216.7407088549
  0
LINE
  5
2A7
100
AcDbEntity
  8
0
100
AcDbLine
 62
250
  6
CONTINUOUS
 10
283.4133789495
 20
181.8039206948
 11
283.4132520543
 21
181.798883141
  0
LWPOLYLINE
  5
2A8
100
AcDbEntity
  8
0
100
AcDbPolyline
 62
250
  6
CONTINUOUS
 90
9
 70
0
 10
282.3209470414
 20
180.9558831271
 10
282.3170803769
 20
180.9133341075
 10
282.3094550354
 20
180.873523343
 10
282.2981544648
 20
180.8368865021
 10
282.2833023325
 20
180.8038245192
 10
282.2650611726
 20
180.7746992077
 10
282.2436306079
 20
180.7498293003
 10
282.2192451636
 20
180.7294869607
 10
282.1965446114
 20
180.7159990487
  0
LWPOLYLINE
  5
2A9
100
AcDbEntity
  8
0
100
AcDbPolyline
 62
250
  6
CONTINUOUS
 90
12
 70
0
 10
283.374731563
 20
216.9006874026
 10
283.3776656502
 20
216.8861535374
 10
283.380201506
 20
216.8716800729
 10
283.3823417211
 20
216.857279732
 10
283.3840918496
 20
216.842967247
 10
283.3854666558
 20
216.8286073316
 10
283.3864570814
 20
216.8142126301
 10
283.3870567781
 20
216.7997987156
 10
283.387259231
 20
216.7852371417
 10
283.3870431654
 20
216.7704980391
 10
283.3863870457
 20
216.7556484549
 10
283.3852712857
 20
216.7407088549
  0
LWPOLYLINE
  5
2AA
100
AcDbEntity
  8
0
100
AcDbPolyline
 62
250
  6
CONTINUOUS
 90
4
 70
0
 10
283.4132520543
 20
181.798883141
 10
283.4093125858
 20
181.7754977275
 10
283.3999281149
 20
181.7526352436
 10
283.3852712857
 20
181.7307163485
  0
LINE
  5
2AB
100
AcDbEntity
  8
0
100
AcDbLine
 62
250
  6
CONTINUOUS
 10
266.1143298306
 20
223.4817272604
 11
280.9391759082
 21
214.9220469341
  0
LWPOLYLINE
  5
2AC
100
AcDbEntity
  8
0
100
AcDbPolyline
 62
250
  6
CONTINUOUS
 90
8
 70
0
 10
283.0530397735
 20
217.3161507133
 10
283.0793736629
 20
217.3029908226
 10
283.1044347934
 20
217.2885753996
 10
283.1281798546
 20
217.2731145121
 10
283.1505664302
 20
217.2568340037
 10
283.1716069947
 20
217.2399028727
 10
283.1913579242
 20
217.2224173791
 10
283.2098345401
 20
217.2045299103
  0
LINE
  5
2AD
100
AcDbEntity
  8
0
100
AcDbLine
 62
250
  6
CONTINUOUS
 10
267.1068958407
 20
225.2409784223
 11
281.9551143014
 21
216.6678031749
  0
LINE
  5
2AE
100
AcDbEntity
  8
0
100
AcDbLine
 62
7
  6
CONTINUOUS
 10
282.9312480264
 20
217.2701282407
 11
268.0495372215
 21
225.8626415477
  0
LINE
  5
2AF
100
AcDbEntity
  8
0
100
AcDbLine
 62
250
  6
CONTINUOUS
 10
268.3556950445
 20
225.8022133588
 11
283.0530397735
 21
217.3161507133
  0
LWPOLYLINE
  5
2B0
100
AcDbEntity
  8
0
100
AcDbPolyline
 62
250
  6
CONTINUOUS
 90
19
 70
0
 10
283.2098345401
 20
217.2045299103
 10
283.2270563881
 20
217.1863903067
 10
283.2430865752
 20
217.1680535693
 10
283.2579675665
 20
217.1496239788
 10
283.271727295
 20
217.1312238653
 10
283.2844058984
 20
217.1129102396
 10
283.2960430165
 20
217.0947811
 10
283.3066953345
 20
217.0769102543
 10
283.3164245733
 20
217.059299929
 10
283.3252664488
 20
217.0420356717
 10
283.3332859723
 20
217.025153369
 10
283.3405720034
 20
217.0085617518
 10
283.3471603715
 20
216.992304842
 10
283.3530954785
 20
216.9764165882
 10
283.3584532775
 20
216.9607745723
 10
283.3632595573
 20
216.9454040105
 10
283.36754438
 20
216.9303297679
 10
283.3713636841
 20
216.9154186845
 10
283.374731563
 20
216.9006874026
  0
LWPOLYLINE
  5
2B1
100
AcDbEntity
  8
0
100
AcDbPolyline
 62
7
  6
CONTINUOUS
 90
7
 70
0
 10
283.3660855308
 20
181.6037534345
 10
283.3739445851
 20
181.6195362018
 10
283.3881763477
 20
181.6539477257
 10
283.399299038
 20
181.6900349972
 10
283.4072112529
 20
181.7274976965
 10
283.4119024397
 20
181.7661035051
 10
283.4133789478
 20
181.8039396603
  0
LINE
  5
2B2
100
AcDbEntity
  8
0
100
AcDbLine
 62
250
  6
CONTINUOUS
 10
283.3852712857
 20
181.7307163485
 11
283.2845322923
 21
181.5394158702
  0
LINE
  5
2B3
100
AcDbEntity
  8
0
100
AcDbLine
 62
7
  6
CONTINUOUS
 10
283.3661252678
 20
181.6038016938
 11
283.2845322923
 21
181.4488589578
  0
LWPOLYLINE
  5
2B4
100
AcDbEntity
  8
0
100
AcDbPolyline
 62
7
  6
CONTINUOUS
 90
7
 70
0
 10
268.4296859101
 20
225.7919367486
 10
268.3949058848
 20
225.8098241197
 10
268.359405436
 20
225.8244868361
 10
268.3233529229
 20
225.8358317186
 10
268.2869659871
 20
225.843774218
 10
268.2505476317
 20
225.8482729022
 10
268.236135731
 20
225.849103209
  0
LWPOLYLINE
  5
2B5
100
AcDbEntity
  8
0
100
AcDbPolyline
 62
250
  6
CONTINUOUS
 90
5
 70
0
 10
283.1304662018
 20
217.3039091903
 10
283.1260610513
 20
217.3063056934
 10
283.1038401929
 20
217.3145846149
 10
283.0793495691
 20
217.3178865616
 10
283.0530397735
 20
217.3161507133
  0
LWPOLYLINE
  5
2B6
100
AcDbEntity
  8
0
100
AcDbPolyline
 62
250
  6
CONTINUOUS
 90
5
 70
0
 10
268.4331488638
 20
225.7899560264
 10
268.4287154504
 20
225.7923687853
 10
268.4064947118
 20
225.8006474469
 10
268.3820043757
 20
225.8039492214
 10
268.3556950445
 20
225.8022133588
  0
LINE
  5
2B7
100
AcDbEntity
  8
0
100
AcDbLine
 62
7
  6
CONTINUOUS
 10
268.4296859101
 20
225.7919367486
 11
283.1304935927
 21
217.3038933809
  0
LWPOLYLINE
  5
2B8
100
AcDbEntity
  8
0
100
AcDbPolyline
 62
250
  6
CONTINUOUS
 90
16
 70
0
 10
281.6397593815
 20
181.357842891
 10
281.6007507601
 20
181.3365068501
 10
281.558438628
 20
181.3176243885
 10
281.5132763107
 20
181.301397834
 10
281.4657476726
 20
181.2880010603
 10
281.4163619435
 20
181.2775776239
 10
281.3656482637
 20
181.2702392238
 10
281.3141499938
 20
181.2660645031
 10
281.2624189122
 20
181.2650982107
 10
281.2110093132
 20
181.2673507163
 10
281.1604720288
 20
181.2727979002
 10
281.1113485532
 20
181.2813814111
 10
281.0641652579
 20
181.2930092841
 10
281.0194277092
 20
181.3075569352
 10
280.9776152542
 20
181.3248685016
 10
280.939175909
 20
181.3447585026
  0
LINE
  5
2B9
100
AcDbEntity
  8
0
100
AcDbLine
 62
250
  6
CONTINUOUS
 10
282.3209470414
 20
180.9558831271
 11
283.2845322923
 21
181.4358462873
  0
LINE
  5
2BA
100
AcDbEntity
  8
0
100
AcDbLine
 62
7
  6
CONTINUOUS
 10
282.1965446114
 20
180.7159990487
 11
283.1719038568
 21
181.2018268521
  0
LINE
  5
2BB
100
AcDbEntity
  8
0
100
AcDbLine
 62
250
  6
CONTINUOUS
 10
268.3556950445
 20
225.8022133588
 11
268.1396480567
 21
225.8106126808
  0
LINE
  5
2BC
100
AcDbEntity
  8
0
100
AcDbLine
 62
7
  6
CONTINUOUS
 10
268.2361738484
 20
225.8491019883
 11
268.0612057711
 21
225.8559042735
  0
LWPOLYLINE
  5
2BD
100
AcDbEntity
  8
0
100
AcDbPolyline
 62
250
  6
CONTINUOUS
 90
7
 70
0
 10
268.2361623921
 20
225.8491024336
 10
268.2447575809
 20
225.8485393586
 10
268.2651682584
 20
225.8454080318
 10
268.2865323534
 20
225.8395063651
 10
268.3089882078
 20
225.8304612893
 10
268.3321014773
 20
225.8181002159
 10
268.3556950445
 20
225.8022133588
  0
ELLIPSE
  5
2BE
100
AcDbEntity
  8
0
100
AcDbEllipse
 62
7
  6
CONTINUOUS
 10
648.1703827855
 20
394.027904265
 30
0.0
 11
71.6686272482
 21
510.9593346635
 31
0.0
 40
0.7527151408
 41
-4.2279504296
 42
-4.2217713698
  0
ELLIPSE
  5
2BF
100
AcDbEntity
  8
0
100
AcDbEllipse
 62
7
  6
CONTINUOUS
 10
644.89818319
 20
395.9172313012
 30
0.0
 11
364.1065991985
 21
363.9450841102
 31
0.0
 40
0.3932639372
 41
-3.8270326365
 42
-3.8192285306
  0
ELLIPSE
  5
2C0
100
AcDbEntity
  8
0
100
AcDbEllipse
 62
7
  6
CONTINUOUS
 10
282.9309250456
 20
216.8615193474
 30
0.0
 11
-0.2496303025
 21
0.4334023309
 31
0.0
 40
0.5778584463
 41
-2.3545649475
 42
-0.7846820092
  0
ELLIPSE
  5
2C1
100
AcDbEntity
  8
0
100
AcDbEllipse
 62
7
  6
CONTINUOUS
 10
268.0498602023
 20
225.4536596844
 30
0.0
 11
-0.2498600223
 21
0.43379745
 31
0.0
 40
0.5768037941
 41
5.4994124095
 42
6.3180789651
  0
ELLIPSE
  5
2C2
100
AcDbEntity
  8
0
100
AcDbEllipse
 62
7
  6
CONTINUOUS
 10
282.9309250456
 20
181.6403880688
 30
0.0
 11
-0.2498600223
 21
0.43379745
 31
0.0
 40
0.5768037941
 41
3.1066989922
 42
3.9277026942
  0
ELLIPSE
  5
2C3
100
AcDbEntity
  8
0
100
AcDbEllipse
 62
7
  6
CONTINUOUS
 10
608.6638998448
 20
416.8384523825
 30
0.0
 11
55.3714683346
 21
521.3606073637
 31
0.0
 40
0.6709738832
 41
-4.2216150662
 42
-4.215436474
  0
ELLIPSE
  5
2C4
100
AcDbEntity
  8
0
100
AcDbEllipse
 62
7
  6
CONTINUOUS
 10
605.3917002493
 20
418.7277794186
 30
0.0
 11
328.3990929896
 21
386.6174679374
 31
0.0
 40
0.343080516
 41
-3.8699445226
 42
-3.8620066558
  0
ENDSEC
  0
SECTION
  2
OBJECTS
  0
DICTIONARY
  5
C
100
AcDbDictionary
280
0
281
1
  3
ACAD_GROUP
350
D
  3
ACAD_MLINESTYLE
350
17
  3
ACAD_LAYOUT
350
1A
  3
ACAD_PLOTSETTINGS
350
19
  3
ACAD_PLOTSTYLENAME
350
E
  0
DICTIONARY
  5
D
102
{ACAD_REACTORS
330
C
102
}
100
AcDbDictionary
280
0
281
1
  0
ACDBDICTIONARYWDFLT
  5
E
102
{ACAD_REACTORS
330
C
102
}
100
AcDbDictionary
281
1
  3
Normal
350
F
100
AcDbDictionaryWithDefault
340
F
  0
DICTIONARY
  5
17
102
{ACAD_REACTORS
330
C
102
}
100
AcDbDictionary
280
0
281
1
  3
Standard
350
18
  0
DICTIONARY
  5
19
102
{ACAD_REACTORS
330
C
102
}
100
AcDbDictionary
281
1
  0
DICTIONARY
  5
1A
102
{ACAD_REACTORS
330
C
102
}
100
AcDbDictionary
281
1
  3
Model
350
2C5
  3
Layout1
350
2C6
  0
ACDBPLACEHOLDER
  5
F
102
{ACAD_REACTORS
330
E
102
}
  0
MLINESTYLE
  5
18
102
{ACAD_REACTORS
330
17
102
}
100
AcDbMlineStyle
  2
STANDARD
 70
0
  3

 62
256
 51
90.0
 52
90.0
 71
2
 49
0.5
 62
256
  6
BYLAYER
 49
-0.5
 62
256
  6
BYLAYER
  0
LAYOUT
  5
2C5
102
{ACAD_REACTORS
330
1A
102
}
100
AcDbPlotSettings
  1

  2
none_device
  4
ANSI_C_(22.00_x_17.00_Inches)
  6

 40
0.0
 41
0.0
 42
0.0
 43
0.0
 44
558.8
 45
431.8
 46
0.0
 47
0.0
 48
0.0
 49
0.0
140
0.0
141
0.0
142
1.0
143
1.0
 70
1024
 72
1
 73
0
 74
0
  7

 75
0
147
1.0
148
0.0
149
0.0
100
AcDbLayout
  1
Model
 70
0
 71
0
 10
0.0
 20
0.0
 11
558.8
 21
431.8
 12
0.0
 22
0.0
 32
0.0
 14
0.0
 24
0.0
 34
0.0
 15
0.0
 25
0.0
 35
0.0
146
0.0
 13
0.0
 23
0.0
 33
0.0
 16
1.0
 26
0.0
 36
0.0
 17
0.0
 27
1.0
 37
0.0
 76
0
330
214
345
0
346
0
  0
LAYOUT
  5
2C6
102
{ACAD_REACTORS
330
1A
102
}
100
AcDbPlotSettings
  1

  2
none_device
  4
ANSI_C_(22.00_x_17.00_Inches)
  6

 40
0.0
 41
0.0
 42
0.0
 43
0.0
 44
558.8
 45
431.8
 46
0.0
 47
0.0
 48
0.0
 49
0.0
140
0.0
141
0.0
142
1.0
143
1.0
 70
0
 72
1
 73
0
 74
0
  7

 75
0
147
1.0
148
0.0
149
0.0
100
AcDbLayout
  1
Layout1
 70
0
 71
1
 10
0.0
 20
0.0
 11
558.8
 21
431.8
 12
0.0
 22
0.0
 32
0.0
 14
0.0
 24
0.0
 34
0.0
 15
0.0
 25
0.0
 35
0.0
146
0.0
 13
0.0
 23
0.0
 33
0.0
 16
1.0
 26
0.0
 36
0.0
 17
0.0
 27
1.0
 37
0.0
 76
0
330
215
345
0
346
0
  0
ENDSEC
  0
EOF
