  0
SECTION
  2
HEADER
  9
$ACADVER
  1
AC1024
  9
$DWGCODEPAGE
  3
ANSI_1252
  9
$EXTMAX
 10
558.8
 20
431.8
 30
0.0
  9
$EXTMIN
 10
0.0
 20
0.0
 30
0.0
  9
$LIMMIN
 10
0.0
 20
0.0
  9
$LIMMAX
 10
558.8
 20
431.8
  9
$VIEWCTR
 10
279.4
 20
215.9
  9
$VIEWSIZE
 40
431.8
  9
$CLAYER
  8
0
  9
$LTSCALE
 40
30.734
  9
$CELTYPE
  6
BYLAYER
  9
$DIMSCALE
 40
1.0
  9
$DIMASZ
 40
3.0
  9
$DIMEXO
 40
0.5
  9
$DIMDLI
 40
21.2344
  9
$DIMEXE
 40
1.5
  9
$DIMCEN
 40
5.0292
  9
$DIMLFAC
 40
1.0
  9
$DIMBLK
  1
_FILLED
  9
$DIMALT
 70
0
  9
$DIMALTF
 40
0.0393700787
  9
$DIMTXT
 40
3.0
  9
$DIMTOL
 70
1
  9
$DIMLIM
 70
0
  9
$DIMTFAC
 40
1.0
  9
$DIMTP
 40
0.01
  9
$DIMTM
 40
0.01
  9
$DIMGAP
 40
0.625
  9
$DIMDSEP
 70
44
  9
$AUNITS
 70
0
  9
$PDMODE
 70
3
  9
$PDSIZE
 40
3.0
  9
$HANDSEED
  5
329
  9
$TILEMODE
 70
1
  9
$MEASUREMENT
 70
1
  9
$INSUNITS
 70
4
  0
ENDSEC
  0
SECTION
  2
CLASSES
  0
CLASS
  1
ACDBDICTIONARYWDFLT
  2
AcDbDictionaryWithDefault
  3
AutoCAD 2000
 90
0
 91
1
280
0
281
0
  0
CLASS
  1
ACDBPLACEHOLDER
  2
AcDbPlaceHolder
  3
AutoCAD 2000
 90
0
 91
1
280
0
281
0
  0
CLASS
  1
LAYOUT
  2
AcDbLayout
  3
AutoCAD 2000
 90
0
 91
0
280
0
281
0
  0
ENDSEC
  0
SECTION
  2
TABLES
  0
TABLE
  2
VPORT
  5
8
100
AcDbSymbolTable
 70
2
  0
VPORT
  5
1F4
100
AcDbSymbolTableRecord
100
AcDbViewportTableRecord
  2
*ACTIVE
 70
0
 10
0.0
 20
0.0
 11
1.0
 21
1.0
 12
279.4
 22
215.9
 13
0.0
 23
0.0
 14
1.0
 24
1.0
 15
0.0
 25
0.0
 16
0.0
 26
0.0
 36
1.0
 17
0.0
 27
0.0
 37
0.0
 40
431.8
 41
1.2941176471
 42
50.0
 43
0.0
 44
0.0
 50
0.0
 51
0.0
 71
0
 72
100
 73
1
 74
1
 75
0
 76
0
 77
0
 78
0
  0
ENDTAB
  0
TABLE
  2
LTYPE
  5
5
100
AcDbSymbolTable
 70
6
  0
LTYPE
  5
14
100
AcDbSymbolTableRecord
100
AcDbLinetypeTableRecord
  2
BYBLOCK
 70
0
  3

 72
65
 73
0
 40
0.0
  0
LTYPE
  5
15
100
AcDbSymbolTableRecord
100
AcDbLinetypeTableRecord
  2
BYLAYER
 70
0
  3

 72
65
 73
0
 40
0.0
  0
LTYPE
  5
16
100
AcDbSymbolTableRecord
100
AcDbLinetypeTableRecord
  2
CONTINUOUS
 70
64
  3
Solid line
 72
65
 73
0
 40
0.0
  0
LTYPE
  5
1F5
100
AcDbSymbolTableRecord
100
AcDbLinetypeTableRecord
  2
CENTER
 70
64
  3
____ _ ____ _ ____ _ ____ _ ____ _ ____ _ ____
 72
65
 73
4
 40
0.6
 49
0.375
 74
0
 49
-0.075
 74
0
 49
0.075
 74
0
 49
-0.075
 74
0
  0
LTYPE
  5
1F6
100
AcDbSymbolTableRecord
100
AcDbLinetypeTableRecord
  2
HIDDEN
 70
64
  3
- - - - - - - - - - - - - - - - - - - -
 72
65
 73
2
 40
0.2
 49
0.1
 74
0
 49
-0.1
 74
0
  0
LTYPE
  5
1F7
100
AcDbSymbolTableRecord
100
AcDbLinetypeTableRecord
  2
PHANTOM
 70
64
  3
_____ _ _ _____ _ _ _____ _ _ _____
 72
65
 73
6
 40
0.8
 49
0.45
 74
0
 49
-0.05
 74
0
 49
0.1
 74
0
 49
-0.05
 74
0
 49
0.1
 74
0
 49
-0.05
 74
0
  0
LTYPE
  5
1F8
100
AcDbSymbolTableRecord
100
AcDbLinetypeTableRecord
  2
DOT
 70
64
  3
. . . . . . . . . . . . . . . . . . . .
 72
65
 73
2
 40
0.2
 49
0.1
 74
0
 49
-0.1
 74
0
  0
LTYPE
  5
1F9
100
AcDbSymbolTableRecord
100
AcDbLinetypeTableRecord
  2
DASHED
 70
64
  3
- - - - - - - - - - - - - - - - - - - -
 72
65
 73
2
 40
0.2
 49
0.1
 74
0
 49
-0.1
 74
0
  0
ENDTAB
  0
TABLE
  2
LAYER
  5
2
100
AcDbSymbolTable
 70
36
  0
LAYER
  5
10
100
AcDbSymbolTableRecord
100
AcDbLayerTableRecord
  2
0
 70
0
 62
7
  6
CONTINUOUS
370
-3
390
F
  0
LAYER
  5
1FA
100
AcDbSymbolTableRecord
100
AcDbLayerTableRecord
  2
DEFAULT_1
 70
0
 62
7
  6
CENTER
370
-3
390
F
  0
LAYER
  5
1FB
100
AcDbSymbolTableRecord
100
AcDbLayerTableRecord
  2
DEFAULT_2
 70
0
 62
7
  6
HIDDEN
370
-3
390
F
  0
LAYER
  5
1FC
100
AcDbSymbolTableRecord
100
AcDbLayerTableRecord
  2
DEFAULT_3
 70
0
 62
7
  6
PHANTOM
370
-3
390
F
  0
LAYER
  5
1FD
100
AcDbSymbolTableRecord
100
AcDbLayerTableRecord
  2
ASSI
 70
0
 62
7
  6
CONTINUOUS
370
-3
390
F
  0
LAYER
  5
1FE
100
AcDbSymbolTableRecord
100
AcDbLayerTableRecord
  2
COORDINATE
 70
0
 62
7
  6
CONTINUOUS
370
-3
390
F
  0
LAYER
  5
1FF
100
AcDbSymbolTableRecord
100
AcDbLayerTableRecord
  2
COPY_PUBLISH
 70
0
 62
7
  6
CONTINUOUS
370
-3
390
F
  0
LAYER
  5
200
100
AcDbSymbolTableRecord
100
AcDbLayerTableRecord
  2
COSMETIC
 70
0
 62
7
  6
CONTINUOUS
370
-3
390
F
  0
LAYER
  5
201
100
AcDbSymbolTableRecord
100
AcDbLayerTableRecord
  2
COSMETICI
 70
0
 62
7
  6
CONTINUOUS
370
-3
390
F
  0
LAYER
  5
202
100
AcDbSymbolTableRecord
100
AcDbLayerTableRecord
  2
CURVE
 70
0
 62
7
  6
CONTINUOUS
370
-3
390
F
  0
LAYER
  5
203
100
AcDbSymbolTableRecord
100
AcDbLayerTableRecord
  2
DRAFT
 70
0
 62
7
  6
CONTINUOUS
370
-3
390
F
  0
LAYER
  5
204
100
AcDbSymbolTableRecord
100
AcDbLayerTableRecord
  2
IMPORT_IGES
 70
0
 62
7
  6
CONTINUOUS
370
-3
390
F
  0
LAYER
  5
205
100
AcDbSymbolTableRecord
100
AcDbLayerTableRecord
  2
INTFCLR_11
 70
0
 62
7
  6
CONTINUOUS
370
-3
390
F
  0
LAYER
  5
206
100
AcDbSymbolTableRecord
100
AcDbLayerTableRecord
  2
INTF_1
 70
0
 62
7
  6
CONTINUOUS
370
-3
390
F
  0
LAYER
  5
207
100
AcDbSymbolTableRecord
100
AcDbLayerTableRecord
  2
INTF_3
 70
0
 62
7
  6
CONTINUOUS
370
-3
390
F
  0
LAYER
  5
208
100
AcDbSymbolTableRecord
100
AcDbLayerTableRecord
  2
NOTE
 70
0
 62
7
  6
CONTINUOUS
370
-3
390
F
  0
LAYER
  5
209
100
AcDbSymbolTableRecord
100
AcDbLayerTableRecord
  2
PIANI
 70
0
 62
7
  6
CONTINUOUS
370
-3
390
F
  0
LAYER
  5
20A
100
AcDbSymbolTableRecord
100
AcDbLayerTableRecord
  2
PUNTI
 70
0
 62
7
  6
CONTINUOUS
370
-3
390
F
  0
LAYER
  5
20B
100
AcDbSymbolTableRecord
100
AcDbLayerTableRecord
  2
RACCORDO
 70
0
 62
7
  6
CONTINUOUS
370
-3
390
F
  0
LAYER
  5
20C
100
AcDbSymbolTableRecord
100
AcDbLayerTableRecord
  2
SIMBOLI
 70
0
 62
7
  6
CONTINUOUS
370
-3
390
F
  0
LAYER
  5
20D
100
AcDbSymbolTableRecord
100
AcDbLayerTableRecord
  2
SMUSSO
 70
0
 62
7
  6
CONTINUOUS
370
-3
390
F
  0
LAYER
  5
20E
100
AcDbSymbolTableRecord
100
AcDbLayerTableRecord
  2
SNAPLINE
 70
0
 62
7
  6
CONTINUOUS
370
-3
390
F
  0
LAYER
  5
20F
100
AcDbSymbolTableRecord
100
AcDbLayerTableRecord
  2
SUPERFICI
 70
0
 62
7
  6
CONTINUOUS
370
-3
390
F
  0
LAYER
  5
210
100
AcDbSymbolTableRecord
100
AcDbLayerTableRecord
  2
TRASH
 70
0
 62
7
  6
CONTINUOUS
370
-3
390
F
  0
LAYER
  5
211
100
AcDbSymbolTableRecord
100
AcDbLayerTableRecord
  2
___SHELL
 70
0
 62
7
  6
CONTINUOUS
370
-3
390
F
  0
ENDTAB
  0
TABLE
  2
STYLE
  5
3
100
AcDbSymbolTable
 70
1
  0
STYLE
  5
11
100
AcDbSymbolTableRecord
100
AcDbTextStyleTableRecord
  2
STANDARD
 70
0
 40
0.0
 41
0.8
 50
0.0
 71
0
 42
0.2
  3
txt
  4

  0
STYLE
  5
212
100
AcDbSymbolTableRecord
100
AcDbTextStyleTableRecord
  2
TEXTSTYLE_1
 70
0
 40
0.0
 41
0.8
 50
0.0
 71
0
 42
0.2
  3
gdt
  4

  0
ENDTAB
  0
TABLE
  2
VIEW
  5
6
100
AcDbSymbolTable
 70
0
  0
ENDTAB
  0
TABLE
  2
UCS
  5
7
100
AcDbSymbolTable
 70
0
  0
ENDTAB
  0
TABLE
  2
APPID
  5
9
100
AcDbSymbolTable
 70
1
  0
APPID
  5
213
100
AcDbSymbolTableRecord
100
AcDbRegAppTableRecord
  2
ACAD
 70
0
  0
ENDTAB
  0
TABLE
  2
BLOCK_RECORD
  5
1
100
AcDbSymbolTable
 70
0
  0
BLOCK_RECORD
  5
214
100
AcDbSymbolTableRecord
100
AcDbBlockTableRecord
  2
*Model_Space
  0
BLOCK_RECORD
  5
215
100
AcDbSymbolTableRecord
100
AcDbBlockTableRecord
  2
*Paper_Space
  0
BLOCK_RECORD
  5
216
100
AcDbSymbolTableRecord
100
AcDbBlockTableRecord
  2
_FILLED
  0
ENDTAB
  0
TABLE
  2
DIMSTYLE
  5
A
100
AcDbSymbolTable
 70
1
100
AcDbDimStyleTable
 71
0
  0
DIMSTYLE
105
217
100
AcDbSymbolTableRecord
100
AcDbDimStyleTableRecord
  2
STANDARD
 70
0
  3

  4

 40
1.0
 41
3.0
 42
0.5
 43
0.38
 44
1.5
 45
0.0
 46
0.0
 47
0.01
 48
0.01
140
3.0
141
0.09
142
0.0
143
25.4
144
1.0
145
0.0
146
1.0
147
0.625
 71
1
 72
0
 73
0
 74
0
 75
0
 76
0
 77
1
 78
8
 79
2
170
0
171
1
172
0
173
0
174
0
175
0
176
0
177
0
178
0
270
2
179
2
271
2
272
2
273
2
274
2
275
0
280
0
281
0
282
0
283
1
284
8
285
0
286
0
287
3
288
0
340
11
278
44
341
216
342
216
343
216
344
216
  0
ENDTAB
  0
ENDSEC
  0
SECTION
  2
BLOCKS
  0
BLOCK
  5
20
100
AcDbEntity
  8
0
100
AcDbBlockBegin
  2
*Model_Space
 70
0
 10
0.0
 20
0.0
 30
0.0
  3
*Model_Space
  1

  0
ENDBLK
  5
21
100
AcDbEntity
  8
0
100
AcDbBlockEnd
  0
BLOCK
  5
1C
100
AcDbEntity
  8
0
100
AcDbBlockBegin
  2
*Paper_Space
 70
0
 10
0.0
 20
0.0
 30
0.0
  3
*Paper_Space
  1

  0
ENDBLK
  5
1D
100
AcDbEntity
  8
0
100
AcDbBlockEnd
  0
BLOCK
  5
218
100
AcDbEntity
  8
0
100
AcDbBlockBegin
  2
_FILLED
 70
64
 10
0.0
 20
0.0
  3
_FILLED
  1

  0
SOLID
  5
219
100
AcDbEntity
  8
0
  6
BYBLOCK
 62
0
100
AcDbTrace
 10
0.0
 20
0.0
 11
-1.0
 21
0.3166666667
 12
-1.0
 22
-0.3166666667
 13
-1.0
 23
-0.3166666667
  0
ENDBLK
  5
21A
100
AcDbEntity
  8
0
  6
BYBLOCK
 62
0
100
AcDbBlockEnd
  0
ENDSEC
  0
SECTION
  2
ENTITIES
  0
LWPOLYLINE
  5
21B
100
AcDbEntity
  8
0
100
AcDbPolyline
 62
7
  6
CONTINUOUS
 90
19
 70
0
 10
299.6034105455
 20
247.7712706107
 10
299.5706998983
 20
247.7490906265
 10
299.4839380445
 20
247.6841566339
 10
299.400567246
 20
247.6129497238
 10
299.3207887732
 20
247.535956338
 10
299.2447493411
 20
247.4536047023
 10
299.1727052615
 20
247.3664016591
 10
299.1048497809
 20
247.2747602829
 10
299.0414365203
 20
247.1791171116
 10
298.9828883795
 20
247.0801682367
 10
298.9294436171
 20
246.9783781385
 10
298.8813706848
 20
246.8741853502
 10
298.8390283885
 20
246.7683142725
 10
298.8026656903
 20
246.661209602
 10
298.7725282835
 20
246.5532581836
 10
298.7489127491
 20
246.4449577506
 10
298.7321054999
 20
246.336665441
 10
298.7224104197
 20
246.2287929808
 10
298.7209079351
 20
246.195468323
  0
LINE
  5
21C
100
AcDbEntity
  8
0
100
AcDbLine
 62
7
  6
CONTINUOUS
 10
299.6031662147
 20
247.771109808
 11
300.5444629603
 21
248.3918861591
  0
LWPOLYLINE
  5
21D
100
AcDbEntity
  8
0
100
AcDbPolyline
 62
250
  6
CONTINUOUS
 90
9
 70
0
 10
299.6034105455
 20
247.7712706107
 10
299.6241421093
 20
247.7827268964
 10
299.6521730271
 20
247.7925700981
 10
299.6826800843
 20
247.7976106128
 10
299.7153294281
 20
247.7977932801
 10
299.7497637634
 20
247.7931161026
 10
299.7856062592
 20
247.7836302654
 10
299.8224646731
 20
247.769439576
 10
299.8599356457
 20
247.75069933
  0
LINE
  5
21E
100
AcDbEntity
  8
0
100
AcDbLine
 62
250
  6
CONTINUOUS
 10
299.8599356457
 20
247.75069933
 11
300.8025770266
 21
248.3723624555
  0
LWPOLYLINE
  5
21F
100
AcDbEntity
  8
0
100
AcDbPolyline
 62
7
  6
CONTINUOUS
 90
14
 70
0
 10
314.0051014192
 20
203.2159016354
 10
314.0546264496
 20
203.189417772
 10
314.1234263793
 20
203.1592231239
 10
314.1951887515
 20
203.1350217946
 10
314.2696874798
 20
203.1169793972
 10
314.3465183253
 20
203.1053054942
 10
314.4252395432
 20
203.1001734596
 10
314.5056798465
 20
203.1017020027
 10
314.5874859007
 20
203.1100011094
 10
314.6703485461
 20
203.1251692194
 10
314.7543140145
 20
203.1473965836
 10
314.8392223592
 20
203.1768493788
 10
314.9246467689
 20
203.2136144296
 10
314.9495492616
 20
203.2257024506
  0
LINE
  5
220
100
AcDbEntity
  8
0
100
AcDbLine
 62
7
  6
CONTINUOUS
 10
299.1734892828
 20
211.7794849307
 11
314.0055467167
 21
203.2156408577
  0
LINE
  5
221
100
AcDbEntity
  8
0
100
AcDbLine
 62
7
  6
CONTINUOUS
 10
314.0050742783
 20
203.2159139729
 11
314.0055461123
 21
203.2156412067
  0
LINE
  5
222
100
AcDbEntity
  8
0
100
AcDbLine
 62
250
  6
CONTINUOUS
 10
299.1734892828
 20
211.7794849307
 11
299.1352153064
 21
211.8040223645
  0
LINE
  5
223
100
AcDbEntity
  8
0
100
AcDbLine
 62
250
  6
CONTINUOUS
 10
298.8673696357
 20
212.4141597587
 11
313.6922157133
 21
203.8544794324
  0
LWPOLYLINE
  5
224
100
AcDbEntity
  8
0
100
AcDbPolyline
 62
250
  6
CONTINUOUS
 90
11
 70
0
 10
299.1352153064
 20
211.8040223645
 10
299.0883639217
 20
211.8416507118
 10
299.0468044878
 20
211.8838235222
 10
299.0099049948
 20
211.9304310138
 10
298.9769778656
 20
211.9820153199
 10
298.9483618281
 20
212.0378954599
 10
298.9239020855
 20
212.0981890646
 10
298.9029168073
 20
212.1654615764
 10
298.8858765424
 20
212.2409273645
 10
298.8737936219
 20
212.3238199807
 10
298.8673696357
 20
212.4141597587
  0
LWPOLYLINE
  5
225
100
AcDbEntity
  8
0
100
AcDbPolyline
 62
7
  6
CONTINUOUS
 90
12
 70
0
 10
298.7209444198
 20
212.6170135145
 10
298.7294313608
 20
212.5065946478
 10
298.7472427007
 20
212.3982513621
 10
298.7737048437
 20
212.2966510913
 10
298.8081784956
 20
212.2023065207
 10
298.8501712932
 20
212.1150811047
 10
298.8994840337
 20
212.0346384332
 10
298.9555274692
 20
211.9614557512
 10
299.0176818524
 20
211.8959013098
 10
299.0857743694
 20
211.8379274099
 10
299.1592696392
 20
211.7878954345
 10
299.1748641299
 20
211.7787010534
  0
LWPOLYLINE
  5
226
100
AcDbEntity
  8
0
100
AcDbPolyline
 62
250
  6
CONTINUOUS
 90
22
 70
0
 10
298.8673696357
 20
245.9914481681
 10
298.873441507
 20
246.0856140622
 10
298.8850660838
 20
246.1811522308
 10
298.9019650428
 20
246.2774642206
 10
298.9237107157
 20
246.3734800234
 10
298.9500647462
 20
246.4691573829
 10
298.9812388765
 20
246.5655180451
 10
299.0173699607
 20
246.6627369408
 10
299.0581139359
 20
246.7596757353
 10
299.1030945465
 20
246.855417614
 10
299.1522731396
 20
246.9498892344
 10
299.2051945212
 20
247.0422131727
 10
299.2605790093
 20
247.1304106517
 10
299.3172362912
 20
247.213194523
 10
299.3753791542
 20
247.2914375319
 10
299.4358185354
 20
247.3664206224
 10
299.49780959
 20
247.4373068891
 10
299.5615193492
 20
247.504379569
 10
299.6294766153
 20
247.5699451815
 10
299.7024942762
 20
247.6339490377
 10
299.7794224144
 20
247.6945345029
 10
299.8599356457
 20
247.75069933
  0
LWPOLYLINE
  5
227
100
AcDbEntity
  8
0
100
AcDbPolyline
 62
250
  6
CONTINUOUS
 90
9
 70
0
 10
298.7209444198
 20
212.6170135145
 10
298.7217556802
 20
212.6052102902
 10
298.7275745373
 20
212.5744200288
 10
298.7386761773
 20
212.54427792
 10
298.7549416514
 20
212.5151069217
 10
298.7761966832
 20
212.487219587
 10
298.8022135354
 20
212.4609147148
 10
298.8327134501
 20
212.4364741492
 10
298.8673696357
 20
212.4141597587
  0
LWPOLYLINE
  5
228
100
AcDbEntity
  8
0
100
AcDbPolyline
 62
250
  6
CONTINUOUS
 90
16
 70
0
 10
298.8673696357
 20
212.4141597587
 10
298.7893691903
 20
214.7651616858
 10
298.7251807369
 20
217.0537685061
 10
298.6737528578
 20
219.2792579141
 10
298.6343737075
 20
221.4211961828
 10
298.6055688346
 20
223.4985635469
 10
298.5859916779
 20
225.5702839457
 10
298.5755058751
 20
227.6379875683
 10
298.5739650575
 20
229.699770392
 10
298.581528035
 20
231.810151269
 10
298.5988369738
 20
233.9740747187
 10
298.6264609724
 20
236.18716994
 10
298.665752916
 20
238.4907157063
 10
298.7182443555
 20
240.8990184255
 10
298.7850140591
 20
243.3990568598
 10
298.8673696357
 20
245.9914481681
  0
LWPOLYLINE
  5
229
100
AcDbEntity
  8
0
100
AcDbPolyline
 62
7
  6
CONTINUOUS
 90
10
 70
0
 10
298.7209178895
 20
246.1957670141
 10
298.606092112
 20
242.4441239132
 10
298.5183801892
 20
238.6471964729
 10
298.4599084858
 20
234.8669342064
 10
298.4306820572
 20
231.1036489071
 10
298.4307037116
 20
227.3576440641
 10
298.459974116
 20
223.6292335193
 10
298.5184920058
 20
219.9187214545
 10
298.6062538469
 20
216.2264109127
 10
298.7209435535
 20
212.6170376856
  0
LINE
  5
22A
100
AcDbEntity
  8
0
100
AcDbLine
 62
250
  6
CONTINUOUS
 10
315.7042209974
 20
239.7670532481
 11
315.8060795785
 21
239.825871621
  0
LWPOLYLINE
  5
22B
100
AcDbEntity
  8
0
100
AcDbPolyline
 62
250
  6
CONTINUOUS
 90
9
 70
0
 10
298.7209079351
 20
246.195468323
 10
298.7217554707
 20
246.1736698294
 10
298.7275740082
 20
246.1450936365
 10
298.7386754079
 20
246.1168766453
 10
298.7549407566
 20
246.0893211966
 10
298.7761957913
 20
246.062722565
 10
298.802212784
 20
246.0373657589
 10
298.8327129937
 20
246.0135224687
 10
298.8673696361
 20
245.9914481772
  0
LWPOLYLINE
  5
22C
100
AcDbEntity
  8
0
100
AcDbPolyline
 62
250
  6
CONTINUOUS
 90
22
 70
0
 10
314.7081541065
 20
239.1775240826
 10
314.6317290309
 20
239.1267132071
 10
314.5571128152
 20
239.0709553908
 10
314.4846336094
 20
239.0107803061
 10
314.4149622991
 20
238.9470819399
 10
314.3479553764
 20
238.8800563956
 10
314.2827515085
 20
238.8089642512
 10
314.2192467801
 20
238.7336227639
 10
314.1581587194
 20
238.6548107878
 10
314.0999137216
 20
238.5730713662
 10
314.045089894
 20
238.4893150894
 10
313.9935510959
 20
238.4034351051
 10
313.944770711
 20
238.3143852362
 10
313.8989501932
 20
238.2221312767
 10
313.856683079
 20
238.127416841
 10
313.818242028
 20
238.0303182439
 10
313.7839641819
 20
237.9309997395
 10
313.7544133521
 20
237.8302968974
 10
313.7301533833
 20
237.7293522029
 10
313.7115363458
 20
237.6289528557
 10
313.6988011793
 20
237.5295396248
 10
313.6922157133
 20
237.4317678419
  0
LWPOLYLINE
  5
22D
100
AcDbEntity
  8
0
100
AcDbPolyline
 62
250
  6
CONTINUOUS
 90
22
 70
0
 10
315.0739868465
 20
238.5728632443
 10
315.0224179648
 20
238.53857724
 10
314.972461108
 20
238.5016879889
 10
314.9241162763
 20
238.4621954909
 10
314.8774478654
 20
238.4200749687
 10
314.8323914795
 20
238.3753511996
 10
314.7887539312
 20
238.3280985159
 10
314.7462560224
 20
238.2780637868
 10
314.7051769513
 20
238.2255001432
 10
314.6661611249
 20
238.1712413097
 10
314.629400499
 20
238.1156291685
 10
314.594703118
 20
238.0583218375
 10
314.5621375217
 20
237.9991273955
 10
314.531482561
 20
237.9377732411
 10
314.5029593851
 20
237.8745319758
 10
314.4772999811
 20
237.8100294821
 10
314.4544575135
 20
237.7439745946
 10
314.4344788179
 20
237.6766584788
 10
314.4182363881
 20
237.609580514
 10
314.4060210554
 20
237.5432404931
 10
314.3975419884
 20
237.4771386231
 10
314.3927991872
 20
237.411274904
  0
LINE
  5
22E
100
AcDbEntity
  8
0
100
AcDbLine
 62
250
  6
CONTINUOUS
 10
315.6842878315
 20
239.7798491484
 11
314.7081541065
 21
239.1775240826
  0
LINE
  5
22F
100
AcDbEntity
  8
0
100
AcDbLine
 62
250
  6
CONTINUOUS
 10
316.0375720974
 20
239.1674452516
 11
315.0739868465
 21
238.5728632443
  0
LINE
  5
230
100
AcDbEntity
  8
0
100
AcDbLine
 62
250
  6
CONTINUOUS
 10
316.0364297122
 20
239.1915982253
 11
316.1383110907
 21
239.2504297626
  0
LWPOLYLINE
  5
231
100
AcDbEntity
  8
0
100
AcDbPolyline
 62
250
  6
CONTINUOUS
 90
16
 70
0
 10
314.3927991872
 20
237.411274904
 10
314.3537900533
 20
237.3934101021
 10
314.3114774209
 20
237.3779617833
 10
314.2663146492
 20
237.3650954688
 10
314.2187856352
 20
237.3549490148
 10
314.169399629
 20
237.3476311357
 10
314.1186857774
 20
237.3432202389
 10
314.0671874546
 20
237.3417635851
 10
314.0154564399
 20
237.3432767815
 10
313.9640470058
 20
237.3477436151
 10
313.9135099791
 20
237.3551162259
 10
313.8643868395
 20
237.36531562
 10
313.8172039174
 20
237.3782325159
 10
313.7724667546
 20
237.3937285153
 10
313.730654688
 20
237.4116375863
 10
313.6922157133
 20
237.4317678419
  0
LWPOLYLINE
  5
232
100
AcDbEntity
  8
0
100
AcDbPolyline
 62
7
  6
CONTINUOUS
 90
4
 70
0
 10
303.6735152164
 20
223.8775433092
 10
303.6741653439
 20
223.9050706596
 10
303.6778149
 20
223.931075124
 10
303.6843060883
 20
223.9553922032
  0
LWPOLYLINE
  5
233
100
AcDbEntity
  8
0
100
AcDbPolyline
 62
7
  6
CONTINUOUS
 90
7
 70
0
 10
305.1792039122
 20
228.602706807
 10
305.1820699482
 20
228.6045669527
 10
305.2001625744
 20
228.6135620048
 10
305.2200652
 20
228.6188198851
 10
305.2417066821
 20
228.6205086068
 10
305.2641852026
 20
228.6186415484
 10
305.2872000148
 20
228.6132230897
  0
LWPOLYLINE
  5
234
100
AcDbEntity
  8
0
100
AcDbPolyline
 62
7
  6
CONTINUOUS
 90
7
 70
0
 10
302.8555010171
 20
226.9418293078
 10
302.858367374
 20
226.9436885002
 10
302.8762720652
 20
226.9525630792
 10
302.8959941904
 20
226.9577327383
 10
302.9174637556
 20
226.9593617292
 10
302.9397950517
 20
226.9574577016
 10
302.9626927031
 20
226.9520231252
  0
LINE
  5
235
100
AcDbEntity
  8
0
100
AcDbLine
 62
7
  6
CONTINUOUS
 10
305.1791911427
 20
228.6027280505
 11
305.198617504
 21
228.6129696972
  0
LINE
  5
236
100
AcDbEntity
  8
0
100
AcDbLine
 62
7
  6
CONTINUOUS
 10
302.8554888499
 20
226.9418493762
 11
302.8746858522
 21
226.9519573726
  0
LINE
  5
237
100
AcDbEntity
  8
0
100
AcDbLine
 62
7
  6
CONTINUOUS
 10
309.0852882091
 20
222.988980428
 11
309.0663778864
 21
222.9840277835
  0
LWPOLYLINE
  5
238
100
AcDbEntity
  8
0
100
AcDbPolyline
 62
7
  6
CONTINUOUS
 90
4
 70
0
 10
306.0057989744
 20
221.2964038852
 10
305.9812505476
 20
221.3105531168
 10
305.9571224573
 20
221.3275959556
 10
305.9334293667
 20
221.3476115786
  0
LWPOLYLINE
  5
239
100
AcDbEntity
  8
0
100
AcDbPolyline
 62
7
  6
CONTINUOUS
 90
4
 70
0
 10
305.9749076778
 20
222.2546779601
 10
305.9994270915
 20
222.2405467093
 10
306.0235206859
 20
222.2235228861
 10
306.047173554
 20
222.203527613
  0
LINE
  5
23A
100
AcDbEntity
  8
0
100
AcDbLine
 62
7
  6
CONTINUOUS
 10
308.0707639482
 20
221.1018737522
 11
308.0441929081
 21
221.1215766154
  0
LINE
  5
23B
100
AcDbEntity
  8
0
100
AcDbLine
 62
7
  6
CONTINUOUS
 10
305.9334293667
 20
221.3476115786
 11
305.9088692338
 21
221.3719334066
  0
LINE
  5
23C
100
AcDbEntity
  8
0
100
AcDbLine
 62
7
  6
CONTINUOUS
 10
306.047173554
 20
222.203527613
 11
306.0716927612
 21
222.179220982
  0
LWPOLYLINE
  5
23D
100
AcDbEntity
  8
0
100
AcDbPolyline
 62
7
  6
CONTINUOUS
 90
4
 70
0
 10
305.9101568063
 20
221.3705209224
 10
305.8867497949
 20
221.3973062708
 10
305.8660902881
 20
221.4247788751
 10
305.8468351462
 20
221.4542702584
  0
LWPOLYLINE
  5
23E
100
AcDbEntity
  8
0
100
AcDbPolyline
 62
7
  6
CONTINUOUS
 90
4
 70
0
 10
306.0704007957
 20
222.1806398801
 10
306.0937638035
 20
222.1538691161
 10
306.114373351
 20
222.12641771
 10
306.1335776057
 20
222.0969479791
  0
LWPOLYLINE
  5
23F
100
AcDbEntity
  8
0
100
AcDbPolyline
 62
7
  6
CONTINUOUS
 90
3
 70
0
 10
305.8881592548
 20
221.3955732619
 10
305.8674477884
 20
221.4228533891
 10
305.848011852
 20
221.4522768179
  0
LWPOLYLINE
  5
240
100
AcDbEntity
  8
0
100
AcDbPolyline
 62
7
  6
CONTINUOUS
 90
3
 70
0
 10
306.0923508402
 20
222.1556090028
 10
306.1130130817
 20
222.128350369
 10
306.1323986453
 20
222.0989488946
  0
LWPOLYLINE
  5
241
100
AcDbEntity
  8
0
100
AcDbPolyline
 62
7
  6
CONTINUOUS
 90
16
 70
0
 10
302.894186657
 20
226.5483261136
 10
302.8722122431
 20
226.5801115925
 10
302.8542941217
 20
226.6105803929
 10
302.8385099228
 20
226.6422546553
 10
302.8252854195
 20
226.673934712
 10
302.8146902301
 20
226.7055981355
 10
302.8066552058
 20
226.7372676241
 10
302.801397681
 20
226.767811034
 10
302.7989951473
 20
226.7971974919
 10
302.7993702827
 20
226.8254579686
 10
302.8025078433
 20
226.8515528793
 10
302.8085149196
 20
226.8754318341
 10
302.8172842214
 20
226.8971451076
 10
302.8284785658
 20
226.9158038992
 10
302.8422107074
 20
226.9312735899
 10
302.8555010171
 20
226.9418293078
  0
LWPOLYLINE
  5
242
100
AcDbEntity
  8
0
100
AcDbPolyline
 62
7
  6
CONTINUOUS
 90
15
 70
0
 10
302.8744521092
 20
226.576616128
 10
302.8566279582
 20
226.6064173315
 10
302.8406370451
 20
226.637674887
 10
302.8271109433
 20
226.6691500359
 10
302.8161483757
 20
226.7008514759
 10
302.8076511375
 20
226.7327708082
 10
302.8019551312
 20
226.763643469
 10
302.7991725563
 20
226.7934275919
 10
302.7991914176
 20
226.8221651609
 10
302.8020109388
 20
226.8487171645
 10
302.807743498
 20
226.8729961259
 10
302.816276512
 20
226.8950894036
 10
302.8272713763
 20
226.914120016
 10
302.8408269621
 20
226.929964463
 10
302.8554888499
 20
226.9418493762
  0
LINE
  5
243
100
AcDbEntity
  8
0
100
AcDbLine
 62
7
  6
CONTINUOUS
 10
305.848011852
 20
221.4522768179
 11
305.8297497196
 21
221.4846126509
  0
LWPOLYLINE
  5
244
100
AcDbEntity
  8
0
100
AcDbPolyline
 62
7
  6
CONTINUOUS
 90
5
 70
0
 10
305.8306734797
 20
221.4828389068
 10
305.8154643835
 20
221.514851574
 10
305.802353548
 20
221.54800331
 10
305.792068659
 20
221.5803541811
 10
305.7848522618
 20
221.6112575331
  0
LINE
  5
245
100
AcDbEntity
  8
0
100
AcDbLine
 62
7
  6
CONTINUOUS
 10
303.6888783737
 20
223.7851896306
 11
303.6806099188
 21
223.8182719431
  0
LINE
  5
246
100
AcDbEntity
  8
0
100
AcDbLine
 62
7
  6
CONTINUOUS
 10
304.3614142274
 20
223.8984060794
 11
304.3696740037
 21
223.8652161151
  0
LWPOLYLINE
  5
247
100
AcDbEntity
  8
0
100
AcDbPolyline
 62
7
  6
CONTINUOUS
 90
10
 70
0
 10
303.6809692028
 20
223.8165358141
 10
303.6759177065
 20
223.8471099126
 10
303.6736137315
 20
223.8769439229
 10
303.6741494021
 20
223.904858508
 10
303.6776394642
 20
223.930779831
 10
303.6839690691
 20
223.9547816685
 10
303.6928855496
 20
223.9759058707
 10
303.704304447
 20
223.9938329163
 10
303.7183097273
 20
224.0088820391
 10
303.729415871
 20
224.0175433735
  0
LWPOLYLINE
  5
248
100
AcDbEntity
  8
0
100
AcDbPolyline
 62
7
  6
CONTINUOUS
 90
7
 70
0
 10
304.3692937838
 20
223.8670623908
 10
304.3743205429
 20
223.836490894
 10
304.3766048486
 20
223.8066599348
 10
304.3760555308
 20
223.7787483938
 10
304.3725579304
 20
223.7528300718
 10
304.366226604
 20
223.7288311087
 10
304.3573138068
 20
223.7077086615
  0
LINE
  5
249
100
AcDbEntity
  8
0
100
AcDbLine
 62
7
  6
CONTINUOUS
 10
305.780462038
 20
221.6413601531
 11
305.7788981355
 21
221.6706621278
  0
LWPOLYLINE
  5
24A
100
AcDbEntity
  8
0
100
AcDbPolyline
 62
7
  6
CONTINUOUS
 90
3
 70
0
 10
304.3767025278
 20
223.805951091
 10
304.3760318222
 20
223.7784354243
 10
304.3723735296
 20
223.7524619301
  0
LWPOLYLINE
  5
24B
100
AcDbEntity
  8
0
100
AcDbPolyline
 62
7
  6
CONTINUOUS
 90
3
 70
0
 10
304.9164382494
 20
226.5963410908
 10
304.9051059005
 20
226.5776163814
 10
304.8910591568
 20
226.5614340579
  0
LWPOLYLINE
  5
24C
100
AcDbEntity
  8
0
100
AcDbPolyline
 62
7
  6
CONTINUOUS
 90
19
 70
0
 10
304.8315465386
 20
226.4981825461
 10
304.77893484
 20
226.4272509534
 10
304.733226447
 20
226.3486406565
 10
304.6942326764
 20
226.26181791
 10
304.6621475535
 20
226.1673195454
 10
304.6375462746
 20
226.0667520867
 10
304.6205686594
 20
225.9600275856
 10
304.6110775046
 20
225.8472355156
 10
304.6092296481
 20
225.7302469091
 10
304.6151528676
 20
225.6089896829
 10
304.6287191108
 20
225.4835357815
 10
304.6496985444
 20
225.3559705904
 10
304.6782092205
 20
225.2262675817
 10
304.7141299556
 20
225.0944514919
 10
304.7568693613
 20
224.9626830407
 10
304.8065435816
 20
224.8309460818
 10
304.8630311465
 20
224.6992536929
 10
304.9253820641
 20
224.5698091647
 10
304.993680748
 20
224.4426654558
  0
LWPOLYLINE
  5
24D
100
AcDbEntity
  8
0
100
AcDbPolyline
 62
7
  6
CONTINUOUS
 90
20
 70
0
 10
304.8910591568
 20
226.5614340579
 10
304.8286428078
 20
226.4945807023
 10
304.773897002
 20
226.4194066006
 10
304.7268243889
 20
226.3359132824
 10
304.6872339603
 20
226.2434913104
 10
304.6553226781
 20
226.1427535622
 10
304.6316736588
 20
226.0355341857
 10
304.6164389412
 20
225.9217151716
 10
304.6094692013
 20
225.8014161144
 10
304.610892126
 20
225.6768256185
 10
304.6208602381
 20
225.54786451
 10
304.6392201983
 20
225.4146115143
 10
304.6656373838
 20
225.2794900553
 10
304.7002565625
 20
225.1424642123
 10
304.742928795
 20
225.0035675149
 10
304.7928757224
 20
224.8653257246
 10
304.8502267506
 20
224.7277482592
 10
304.9148458502
 20
224.5908218807
 10
304.98555407
 20
224.4570369528
 10
305.0678362517
 20
224.3177658301
  0
LINE
  5
24E
100
AcDbEntity
  8
0
100
AcDbLine
 62
7
  6
CONTINUOUS
 10
304.554259878
 20
227.0538916685
 11
304.5674576534
 21
227.0645047079
  0
LINE
  5
24F
100
AcDbEntity
  8
0
100
AcDbLine
 62
7
  6
CONTINUOUS
 10
304.554259878
 20
227.0538916685
 11
304.5675770834
 21
227.0643073376
  0
LINE
  5
250
100
AcDbEntity
  8
0
100
AcDbLine
 62
7
  6
CONTINUOUS
 10
304.5675770834
 20
227.0643073376
 11
304.5708430674
 21
227.0664007519
  0
LINE
  5
251
100
AcDbEntity
  8
0
100
AcDbLine
 62
7
  6
CONTINUOUS
 10
304.5674576534
 20
227.0645047079
 11
304.5708376969
 21
227.0666440446
  0
LWPOLYLINE
  5
252
100
AcDbEntity
  8
0
100
AcDbPolyline
 62
7
  6
CONTINUOUS
 90
3
 70
0
 10
304.5708376969
 20
227.0666440446
 10
304.588506578
 20
227.075300909
 10
304.6083841069
 20
227.0804097954
  0
LWPOLYLINE
  5
253
100
AcDbEntity
  8
0
100
AcDbPolyline
 62
7
  6
CONTINUOUS
 90
8
 70
0
 10
303.5510614858
 20
226.193973835
 10
303.5431571642
 20
226.1904586794
 10
303.5234311307
 20
226.1849692776
 10
303.5018794629
 20
226.18304966
 10
303.4793574274
 20
226.1847747153
 10
303.4561499652
 20
226.1901693208
 10
303.4319717489
 20
226.1992083761
 10
303.4068226821
 20
226.2118918254
  0
LINE
  5
254
100
AcDbEntity
  8
0
100
AcDbLine
 62
7
  6
CONTINUOUS
 10
303.5510511997
 20
226.1939924718
 11
303.5426288706
 21
226.1903116647
  0
LINE
  5
255
100
AcDbEntity
  8
0
100
AcDbLine
 62
7
  6
CONTINUOUS
 10
308.4184021356
 20
223.7510842161
 11
308.438142213
 21
223.7565817217
  0
LINE
  5
256
100
AcDbEntity
  8
0
100
AcDbLine
 62
7
  6
CONTINUOUS
 10
308.438142213
 20
223.7565817217
 11
308.4597067821
 21
223.7585087839
  0
LINE
  5
257
100
AcDbEntity
  8
0
100
AcDbLine
 62
7
  6
CONTINUOUS
 10
309.0655800337
 20
222.9838188246
 11
309.0447311535
 21
222.9822430948
  0
LINE
  5
258
100
AcDbEntity
  8
0
100
AcDbLine
 62
7
  6
CONTINUOUS
 10
304.0526010583
 20
224.1947641611
 11
304.0737915825
 21
224.1957077118
  0
LWPOLYLINE
  5
259
100
AcDbEntity
  8
0
100
AcDbPolyline
 62
7
  6
CONTINUOUS
 90
16
 70
0
 10
303.9980208386
 20
223.4888012516
 10
303.976739404
 20
223.4878551215
 10
303.9539136351
 20
223.4906629324
 10
303.9298641026
 20
223.4971384325
 10
303.905552948
 20
223.5070231172
 10
303.8809728468
 20
223.5204541532
 10
303.8561310189
 20
223.5372943127
 10
303.8320115089
 20
223.5568735496
 10
303.8086433985
 20
223.5793013124
 10
303.7859979064
 20
223.6044683283
 10
303.7649723407
 20
223.6313765028
 10
303.7456318079
 20
223.6600956989
 10
303.727911766
 20
223.6905563834
 10
303.7125149781
 20
223.7215513259
 10
303.6995347665
 20
223.7531031844
 10
303.6888783737
 20
223.7851896306
  0
LINE
  5
25A
100
AcDbEntity
  8
0
100
AcDbLine
 62
7
  6
CONTINUOUS
 10
303.9984496851
 20
223.4886617215
 11
303.9768293316
 21
223.4878591195
  0
LINE
  5
25B
100
AcDbEntity
  8
0
100
AcDbLine
 62
7
  6
CONTINUOUS
 10
308.4597067821
 20
223.7585087839
 11
308.4822395601
 21
223.7567899296
  0
LINE
  5
25C
100
AcDbEntity
  8
0
100
AcDbLine
 62
7
  6
CONTINUOUS
 10
309.0441232168
 20
222.9821971478
 11
309.0224174331
 21
222.9840546131
  0
LWPOLYLINE
  5
25D
100
AcDbEntity
  8
0
100
AcDbPolyline
 62
7
  6
CONTINUOUS
 90
15
 70
0
 10
304.0738951497
 20
224.1957123234
 10
304.0967278886
 20
224.1929071047
 10
304.1207783071
 20
224.186434468
 10
304.14508393
 20
224.1765525514
 10
304.1696514689
 20
224.1631241079
 10
304.1944741081
 20
224.1462863239
 10
304.2185691681
 20
224.1267090387
 10
304.2419075821
 20
224.1042830339
 10
304.2645187171
 20
224.0791177026
 10
304.2855076011
 20
224.0522108338
 10
304.3048095834
 20
224.0234928658
 10
304.3224898783
 20
223.9930336885
 10
304.3378482407
 20
223.962040226
 10
304.3507919184
 20
223.930490131
 10
304.3614142274
 20
223.8984060794
  0
LWPOLYLINE
  5
25E
100
AcDbEntity
  8
0
100
AcDbPolyline
 62
7
  6
CONTINUOUS
 90
15
 70
0
 10
303.9768293316
 20
223.4878591195
 10
303.9533299437
 20
223.4909596662
 10
303.9282105111
 20
223.4978737178
 10
303.9030702933
 20
223.5082241424
 10
303.8781181827
 20
223.5221636226
 10
303.8531451819
 20
223.5395394146
 10
303.8290416108
 20
223.5595271387
 10
303.805845462
 20
223.582176713
 10
303.7835190526
 20
223.6074384005
 10
303.7628392355
 20
223.6343383666
 10
303.7438538987
 20
223.6629199017
 10
303.7265157022
 20
223.6931400355
 10
303.7114585839
 20
223.7238955002
 10
303.6987507741
 20
223.755277881
 10
303.688324605
 20
223.7871959209
  0
LINE
  5
25F
100
AcDbEntity
  8
0
100
AcDbLine
 62
7
  6
CONTINUOUS
 10
308.4822395601
 20
223.7567899296
 11
308.5010374477
 21
223.7524255498
  0
LINE
  5
260
100
AcDbEntity
  8
0
100
AcDbLine
 62
7
  6
CONTINUOUS
 10
309.0218024792
 20
222.9841072376
 11
308.9996981517
 21
222.9893596293
  0
LWPOLYLINE
  5
261
100
AcDbEntity
  8
0
100
AcDbPolyline
 62
7
  6
CONTINUOUS
 90
3
 70
0
 10
308.5056159273
 20
223.7513397742
 10
308.5296382056
 20
223.7423637631
 10
308.5547891658
 20
223.7296814155
  0
LINE
  5
262
100
AcDbEntity
  8
0
100
AcDbLine
 62
7
  6
CONTINUOUS
 10
303.0108428847
 20
226.4405255977
 11
303.4068226821
 21
226.2118918254
  0
LINE
  5
263
100
AcDbEntity
  8
0
100
AcDbLine
 62
7
  6
CONTINUOUS
 10
308.5545600492
 20
223.239652786
 11
308.9505398466
 21
223.0110190137
  0
LINE
  5
264
100
AcDbEntity
  8
0
100
AcDbLine
 62
7
  6
CONTINUOUS
 10
303.0108428847
 20
226.4405255977
 11
302.9859680682
 21
226.4564664397
  0
LWPOLYLINE
  5
265
100
AcDbEntity
  8
0
100
AcDbPolyline
 62
7
  6
CONTINUOUS
 90
3
 70
0
 10
308.5545600492
 20
223.239652786
 10
308.5296621091
 20
223.2556234229
 10
308.5054881033
 20
223.2745003849
  0
LWPOLYLINE
  5
266
100
AcDbEntity
  8
0
100
AcDbPolyline
 62
7
  6
CONTINUOUS
 90
5
 70
0
 10
303.0108428847
 20
226.4405255977
 10
302.9856903244
 20
226.4568835743
 10
302.9615058801
 20
226.4757709527
 10
302.9382896486
 20
226.4971877888
 10
302.9157538527
 20
226.5214921105
  0
LINE
  5
267
100
AcDbEntity
  8
0
100
AcDbLine
 62
7
  6
CONTINUOUS
 10
308.5545600492
 20
223.239652786
 11
308.5294071226
 21
223.2560112255
  0
LINE
  5
268
100
AcDbEntity
  8
0
100
AcDbLine
 62
7
  6
CONTINUOUS
 10
307.8197780867
 20
222.0550378625
 11
307.8463194713
 21
222.0353535072
  0
LWPOLYLINE
  5
269
100
AcDbEntity
  8
0
100
AcDbPolyline
 62
7
  6
CONTINUOUS
 90
4
 70
0
 10
308.0457063719
 20
221.1204860617
 10
308.0206741698
 20
221.1424839749
 10
307.9970910686
 20
221.1665779004
 10
307.9754317824
 20
221.1923380554
  0
LWPOLYLINE
  5
26A
100
AcDbEntity
  8
0
100
AcDbPolyline
 62
7
  6
CONTINUOUS
 90
4
 70
0
 10
307.8448107425
 20
222.0364412409
 10
307.8698121128
 20
222.0144594499
 10
307.8933634589
 20
221.990378267
 10
307.9149920061
 20
221.964626365
  0
LINE
  5
26B
100
AcDbEntity
  8
0
100
AcDbLine
 62
7
  6
CONTINUOUS
 10
303.4795904615
 20
226.6452493519
 11
303.5021149358
 21
226.6209396007
  0
LINE
  5
26C
100
AcDbEntity
  8
0
100
AcDbLine
 62
7
  6
CONTINUOUS
 10
302.9383415606
 20
226.4971360085
 11
302.9151151971
 21
226.5224397691
  0
LINE
  5
26D
100
AcDbEntity
  8
0
100
AcDbLine
 62
7
  6
CONTINUOUS
 10
303.4795590093
 20
226.6452807468
 11
303.5027376535
 21
226.6200215107
  0
LWPOLYLINE
  5
26E
100
AcDbEntity
  8
0
100
AcDbPolyline
 62
7
  6
CONTINUOUS
 90
17
 70
0
 10
305.3252000623
 20
223.9605572626
 10
305.421962159
 20
223.8495654491
 10
305.521520464
 20
223.7460447223
 10
305.6239235146
 20
223.6501303393
 10
305.7291179288
 20
223.5616842292
 10
305.8351866992
 20
223.4823162782
 10
305.9421447626
 20
223.4121922486
 10
306.049975546
 20
223.3511454271
 10
306.1567155694
 20
223.3002874469
 10
306.2623453866
 20
223.2598055368
 10
306.3668863713
 20
223.229513588
 10
306.4684370465
 20
223.2099636766
 10
306.5669448348
 20
223.2013540041
 10
306.6624673863
 20
223.2034893147
 10
306.7532688591
 20
223.2163316684
 10
306.8392657792
 20
223.2400791008
 10
306.920548738
 20
223.2745377035
  0
LWPOLYLINE
  5
26F
100
AcDbEntity
  8
0
100
AcDbPolyline
 62
7
  6
CONTINUOUS
 90
19
 70
0
 10
305.3183229749
 20
223.9688574586
 10
305.4096377886
 20
223.8630080928
 10
305.5041420487
 20
223.7634315461
 10
305.6017936739
 20
223.6700089361
 10
305.7009904939
 20
223.5842666136
 10
305.8017787437
 20
223.5063190218
 10
305.9041095266
 20
223.4360501709
 10
306.0062385258
 20
223.3746410816
 10
306.1081396924
 20
223.3222585304
 10
306.2098393013
 20
223.2787358722
 10
306.3096722159
 20
223.2447543992
 10
306.4075895923
 20
223.220464123
 10
306.5036433194
 20
223.2057168013
 10
306.5963198542
 20
223.2007466321
 10
306.6856106348
 20
223.205718676
 10
306.7715295203
 20
223.220470947
 10
306.8525965617
 20
223.244747051
 10
306.9286914785
 20
223.278689234
 10
306.9872977278
 20
223.3135110798
  0
LINE
  5
270
100
AcDbEntity
  8
0
100
AcDbLine
 62
7
  6
CONTINUOUS
 10
302.9157538527
 20
226.5214921105
 11
302.8925970524
 21
226.5506731193
  0
LINE
  5
271
100
AcDbEntity
  8
0
100
AcDbLine
 62
7
  6
CONTINUOUS
 10
303.5021149358
 20
226.6209396007
 11
303.5251894561
 21
226.5918544071
  0
LINE
  5
272
100
AcDbEntity
  8
0
100
AcDbLine
 62
7
  6
CONTINUOUS
 10
305.2301605619
 20
224.0808636843
 11
305.3252000623
 21
223.9605572626
  0
LINE
  5
273
100
AcDbEntity
  8
0
100
AcDbLine
 62
7
  6
CONTINUOUS
 10
305.1068457903
 20
223.6681765556
 11
304.9874312673
 21
223.8209107141
  0
LWPOLYLINE
  5
274
100
AcDbEntity
  8
0
100
AcDbPolyline
 62
7
  6
CONTINUOUS
 90
3
 70
0
 10
307.9757190758
 20
221.1921271396
 10
307.9554940294
 20
221.2200005706
 10
307.9364621393
 20
221.2501473526
  0
LWPOLYLINE
  5
275
100
AcDbEntity
  8
0
100
AcDbPolyline
 62
7
  6
CONTINUOUS
 90
3
 70
0
 10
307.9147095513
 20
221.9648323691
 10
307.9349023719
 20
221.9369659107
 10
307.9539006516
 20
221.9068253306
  0
LINE
  5
276
100
AcDbEntity
  8
0
100
AcDbLine
 62
7
  6
CONTINUOUS
 10
305.1454448393
 20
224.1989966514
 11
305.2329986525
 21
224.0770004868
  0
LINE
  5
277
100
AcDbEntity
  8
0
100
AcDbLine
 62
7
  6
CONTINUOUS
 10
304.9920395075
 20
223.8147485497
 11
304.8832837857
 21
223.9668584521
  0
LWPOLYLINE
  5
278
100
AcDbEntity
  8
0
100
AcDbPolyline
 62
7
  6
CONTINUOUS
 90
17
 70
0
 10
303.5236683995
 20
226.594099272
 10
303.5455226947
 20
226.5624691071
 10
303.5634186171
 20
226.5320291599
 10
303.5791965627
 20
226.5003713547
 10
303.5924217845
 20
226.4686951295
 10
303.6030241476
 20
226.4370186048
 10
303.6110742599
 20
226.4053239329
 10
303.616348201
 20
226.3747564333
 10
303.6187662621
 20
226.3453513397
 10
303.618408322
 20
226.3170735167
 10
303.6152894812
 20
226.2909625226
 10
303.6093030537
 20
226.2670684311
 10
303.6005555264
 20
226.2453410539
 10
303.5893813915
 20
226.2266693437
 10
303.5756660133
 20
226.2111866791
 10
303.5595235103
 20
226.1987593832
 10
303.5510511997
 20
226.1939924718
  0
LINE
  5
279
100
AcDbEntity
  8
0
100
AcDbLine
 62
7
  6
CONTINUOUS
 10
305.062458715
 20
224.3264482877
 11
305.1466340964
 21
224.197148195
  0
LINE
  5
27A
100
AcDbEntity
  8
0
100
AcDbLine
 62
7
  6
CONTINUOUS
 10
304.8831876454
 20
223.9671072892
 11
304.7806835847
 21
224.1246009951
  0
LWPOLYLINE
  5
27B
100
AcDbEntity
  8
0
100
AcDbPolyline
 62
7
  6
CONTINUOUS
 90
16
 70
0
 10
303.5433883254
 20
226.5658020694
 10
303.5611976568
 20
226.5359928915
 10
303.5771740404
 20
226.5047271796
 10
303.5906868895
 20
226.4732443858
 10
303.6016379238
 20
226.4415360324
 10
303.6101259419
 20
226.4096108959
 10
303.6158156958
 20
226.3787341481
 10
303.6185951518
 20
226.3489478283
 10
303.618576548
 20
226.3202100153
 10
303.615760658
 20
226.2936597174
 10
303.6100349012
 20
226.2693842859
 10
303.6015116532
 20
226.2472962515
 10
303.5905287348
 20
226.228272169
 10
303.5769866856
 20
226.2124351958
 10
303.560984447
 20
226.1996618752
 10
303.5510614858
 20
226.193973835
  0
LWPOLYLINE
  5
27C
100
AcDbEntity
  8
0
100
AcDbPolyline
 62
7
  6
CONTINUOUS
 90
21
 70
0
 10
304.7849731644
 20
224.1175778559
 10
304.6841448565
 20
224.2878877801
 10
304.5952626012
 20
224.4540348006
 10
304.5141684369
 20
224.6230925051
 10
304.4407418075
 20
224.795016846
 10
304.3761969806
 20
224.9669806317
 10
304.3206849015
 20
225.1389867954
 10
304.2740636665
 20
225.3110376112
 10
304.2371045544
 20
225.4803027421
 10
304.209969489
 20
225.6467370787
 10
304.1925017936
 20
225.8103887239
 10
304.1849902477
 20
225.9685644966
 10
304.1875991955
 20
226.1211733021
 10
304.2001647158
 20
226.2683064355
 10
304.2224782407
 20
226.4075414451
 10
304.2546982233
 20
226.5387455745
 10
304.2966617264
 20
226.6620489582
 10
304.3476733979
 20
226.7754207788
 10
304.4074976416
 20
226.8781818965
 10
304.4763611329
 20
226.9710062949
 10
304.554259878
 20
227.0538916685
  0
LINE
  5
27D
100
AcDbEntity
  8
0
100
AcDbLine
 62
7
  6
CONTINUOUS
 10
306.1323986453
 20
222.0989488946
 11
306.1506145859
 21
222.0666260544
  0
LWPOLYLINE
  5
27E
100
AcDbEntity
  8
0
100
AcDbPolyline
 62
7
  6
CONTINUOUS
 90
20
 70
0
 10
304.692900991
 20
224.2723635763
 10
304.6068676844
 20
224.4314289288
 10
304.5281501607
 20
224.5924225737
 10
304.4568530062
 20
224.7553943507
 10
304.392880982
 20
224.9202998231
 10
304.3372089156
 20
225.0846448695
 10
304.2899693838
 20
225.2484128734
 10
304.2510370311
 20
225.4116246039
 10
304.2209964907
 20
225.5718401044
 10
304.1999808887
 20
225.7290141348
 10
304.1878609486
 20
225.8831941242
 10
304.1848238049
 20
226.0320768668
 10
304.1910082744
 20
226.1755960597
 10
304.2062753507
 20
226.3138178583
 10
304.2303912947
 20
226.4446353583
 10
304.2634992879
 20
226.5679321469
 10
304.3054518532
 20
226.6838221296
 10
304.3555753256
 20
226.7905416162
 10
304.4136417837
 20
226.887500767
 10
304.479871164
 20
226.9752848081
  0
LWPOLYLINE
  5
27F
100
AcDbEntity
  8
0
100
AcDbPolyline
 62
7
  6
CONTINUOUS
 90
15
 70
0
 10
307.6549990956
 20
221.7342768288
 10
307.6384513944
 20
221.7650785752
 10
307.624391099
 20
221.7960078511
 10
307.6128184384
 20
221.8270647902
 10
307.6036179086
 20
221.8588116775
 10
307.5969055778
 20
221.8906865566
 10
307.5930287929
 20
221.9210030576
 10
307.5921400344
 20
221.9494440702
 10
307.594086822
 20
221.9763267045
 10
307.598758653
 20
222.0009156838
 10
307.6062595859
 20
222.0232644123
 10
307.6164853251
 20
222.0433193473
 10
307.6290125104
 20
222.0601846014
 10
307.6439120734
 20
222.0736858741
 10
307.6481714344
 20
222.0766773663
  0
LWPOLYLINE
  5
280
100
AcDbEntity
  8
0
100
AcDbPolyline
 62
7
  6
CONTINUOUS
 90
5
 70
0
 10
306.149688559
 20
222.068408188
 10
306.1648513132
 20
222.0364179819
 10
306.1779191118
 20
222.0032889499
 10
306.1881682964
 20
221.9709559626
 10
306.1953576315
 20
221.9400639679
  0
LWPOLYLINE
  5
281
100
AcDbEntity
  8
0
100
AcDbPolyline
 62
7
  6
CONTINUOUS
 90
3
 70
0
 10
305.7851423067
 20
221.6103718688
 10
305.7806817649
 20
221.6407326828
 10
305.7788981355
 20
221.6706621278
  0
LWPOLYLINE
  5
282
100
AcDbEntity
  8
0
100
AcDbPolyline
 62
7
  6
CONTINUOUS
 90
3
 70
0
 10
306.1950716305
 20
221.9409363741
 10
306.1995112046
 20
221.9105876371
 10
306.201281291
 20
221.8806686
  0
LWPOLYLINE
  5
283
100
AcDbEntity
  8
0
100
AcDbPolyline
 62
7
  6
CONTINUOUS
 90
3
 70
0
 10
306.6464051844
 20
227.2167406209
 10
306.6454560333
 20
227.233806771
 10
306.642863369
 20
227.251007804
  0
LINE
  5
284
100
AcDbEntity
  8
0
100
AcDbLine
 62
7
  6
CONTINUOUS
 10
306.1997285804
 20
221.9099681514
 11
306.201281291
 21
221.8806686
  0
LINE
  5
285
100
AcDbEntity
  8
0
100
AcDbLine
 62
7
  6
CONTINUOUS
 10
306.6464051844
 20
227.2167406209
 11
306.6455808887
 21
227.233293842
  0
LWPOLYLINE
  5
286
100
AcDbEntity
  8
0
100
AcDbPolyline
 62
7
  6
CONTINUOUS
 90
3
 70
0
 10
307.06675076
 20
226.0635665498
 10
307.06726535
 20
226.0508527744
 10
307.0687779343
 20
226.0379207291
  0
LINE
  5
287
100
AcDbEntity
  8
0
100
AcDbLine
 62
7
  6
CONTINUOUS
 10
307.0695772062
 20
227.0754968093
 11
307.071853603
 21
227.0139192035
  0
LWPOLYLINE
  5
288
100
AcDbEntity
  8
0
100
AcDbPolyline
 62
7
  6
CONTINUOUS
 90
3
 70
0
 10
306.2043260475
 20
221.4250253833
 10
306.2031270746
 20
221.3972559074
 10
306.1991117448
 20
221.3719790459
  0
LWPOLYLINE
  5
289
100
AcDbEntity
  8
0
100
AcDbPolyline
 62
7
  6
CONTINUOUS
 90
3
 70
0
 10
305.7761614319
 20
222.1261274786
 10
305.7774087173
 20
222.1538713306
 10
305.7814685382
 20
222.1791249177
  0
LINE
  5
28A
100
AcDbEntity
  8
0
100
AcDbLine
 62
7
  6
CONTINUOUS
 10
306.2043260475
 20
221.4250253833
 11
306.2029404062
 21
221.3969248906
  0
LINE
  5
28B
100
AcDbEntity
  8
0
100
AcDbLine
 62
7
  6
CONTINUOUS
 10
305.7761614319
 20
222.1261274786
 11
305.777594081
 21
222.1541982152
  0
LINE
  5
28C
100
AcDbEntity
  8
0
100
AcDbLine
 62
7
  6
CONTINUOUS
 10
306.1988661947
 20
221.3714915316
 11
306.1921817329
 21
221.3489895125
  0
LWPOLYLINE
  5
28D
100
AcDbEntity
  8
0
100
AcDbPolyline
 62
7
  6
CONTINUOUS
 90
6
 70
0
 10
305.7817123335
 20
222.1796061469
 10
305.7885159895
 20
222.2023511566
 10
305.7981689059
 20
222.2226681866
 10
305.8105068854
 20
222.2403220952
 10
305.8250375026
 20
222.2546075557
 10
305.8319610234
 20
222.2596445737
  0
LINE
  5
28E
100
AcDbEntity
  8
0
100
AcDbLine
 62
7
  6
CONTINUOUS
 10
305.7883407401
 20
222.2018881491
 11
305.7982543125
 21
222.2225136376
  0
LWPOLYLINE
  5
28F
100
AcDbEntity
  8
0
100
AcDbPolyline
 62
7
  6
CONTINUOUS
 90
4
 70
0
 10
304.3573138068
 20
223.7077086615
 10
304.3459033878
 20
223.6897816452
 10
304.3319110062
 20
223.6747308583
 10
304.3153364562
 20
223.662556181
  0
LINE
  5
290
100
AcDbEntity
  8
0
100
AcDbLine
 62
7
  6
CONTINUOUS
 10
303.7185354715
 20
224.0092900313
 11
303.7293763915
 21
224.0176075357
  0
LINE
  5
291
100
AcDbEntity
  8
0
100
AcDbLine
 62
7
  6
CONTINUOUS
 10
304.3316841163
 20
223.6743299085
 11
304.3153364562
 21
223.662556181
  0
LINE
  5
292
100
AcDbEntity
  8
0
100
AcDbLine
 62
7
  6
CONTINUOUS
 10
303.7347826281
 20
224.0212306319
 11
303.7293710082
 21
224.0176163568
  0
LINE
  5
293
100
AcDbEntity
  8
0
100
AcDbLine
 62
7
  6
CONTINUOUS
 10
303.729415871
 20
224.0175433735
 11
303.7349011844
 21
224.0210531186
  0
LINE
  5
294
100
AcDbEntity
  8
0
100
AcDbLine
 62
7
  6
CONTINUOUS
 10
303.7293763915
 20
224.0176075357
 11
303.7349011844
 21
224.0210531186
  0
LWPOLYLINE
  5
295
100
AcDbEntity
  8
0
100
AcDbPolyline
 62
7
  6
CONTINUOUS
 90
18
 70
0
 10
304.0136675554
 20
224.1818665376
 10
304.0321271125
 20
224.1902927234
 10
304.0521372141
 20
224.1949106488
 10
304.0736975576
 20
224.195720138
 10
304.0973235086
 20
224.1925977712
 10
304.122499266
 20
224.1856667144
 10
304.1476778341
 20
224.175296703
 10
304.1726388142
 20
224.161333014
 10
304.1976025005
 20
224.1439303094
 10
304.2216830195
 20
224.1239224506
 10
304.2448405528
 20
224.1012645214
 10
304.2671152287
 20
224.0760016183
 10
304.2877411386
 20
224.0491026479
 10
304.3066735504
 20
224.02052332
 10
304.3239577434
 20
223.9903082433
 10
304.3389627539
 20
223.9595596306
 10
304.3516209247
 20
223.9281871765
 10
304.3620004741
 20
223.8962815131
  0
LINE
  5
296
100
AcDbEntity
  8
0
100
AcDbLine
 62
7
  6
CONTINUOUS
 10
304.0136675554
 20
224.1818665376
 11
304.0325250908
 21
224.1901488393
  0
LINE
  5
297
100
AcDbEntity
  8
0
100
AcDbLine
 62
7
  6
CONTINUOUS
 10
303.5004588916
 20
226.1830686045
 11
303.4787238309
 21
226.1849219957
  0
LINE
  5
298
100
AcDbEntity
  8
0
100
AcDbLine
 62
7
  6
CONTINUOUS
 10
302.938523064
 20
226.9576626364
 11
302.9572948715
 21
226.9533042578
  0
LINE
  5
299
100
AcDbEntity
  8
0
100
AcDbLine
 62
7
  6
CONTINUOUS
 10
303.4781303087
 20
226.1849726065
 11
303.4559890451
 21
226.190229481
  0
LWPOLYLINE
  5
29A
100
AcDbEntity
  8
0
100
AcDbPolyline
 62
7
  6
CONTINUOUS
 90
3
 70
0
 10
302.9619066762
 20
226.9522096825
 10
302.9859213145
 20
226.9432364782
 10
303.0110720013
 20
226.9305542272
  0
LINE
  5
29B
100
AcDbEntity
  8
0
100
AcDbLine
 62
7
  6
CONTINUOUS
 10
303.0110720013
 20
226.9305542272
 11
303.4070517988
 21
226.701920455
  0
LINE
  5
29C
100
AcDbEntity
  8
0
100
AcDbLine
 62
7
  6
CONTINUOUS
 10
308.5547891658
 20
223.7296814155
 11
308.9507689633
 21
223.5010476433
  0
LWPOLYLINE
  5
29D
100
AcDbEntity
  8
0
100
AcDbPolyline
 62
7
  6
CONTINUOUS
 90
3
 70
0
 10
308.9507689633
 20
223.5010476433
 10
308.975642131
 20
223.4851059319
 10
308.9998043042
 20
223.4662328576
  0
LINE
  5
29E
100
AcDbEntity
  8
0
100
AcDbLine
 62
7
  6
CONTINUOUS
 10
303.4070517988
 20
226.701920455
 11
303.431948218
 21
226.6859487121
  0
LWPOLYLINE
  5
29F
100
AcDbEntity
  8
0
100
AcDbPolyline
 62
7
  6
CONTINUOUS
 90
4
 70
0
 10
303.4070517988
 20
226.701920455
 10
303.4322028153
 20
226.6855609251
 10
303.4563823373
 20
226.6666705388
 10
303.4795731878
 20
226.6452652956
  0
LINE
  5
2A0
100
AcDbEntity
  8
0
100
AcDbLine
 62
7
  6
CONTINUOUS
 10
308.9507689633
 20
223.5010476433
 11
308.9759196114
 21
223.48468858
  0
LWPOLYLINE
  5
2A1
100
AcDbEntity
  8
0
100
AcDbPolyline
 62
7
  6
CONTINUOUS
 90
3
 70
0
 10
308.505222565
 20
223.2748987169
 10
308.4820064733
 20
223.2963153161
 10
308.4594712358
 20
223.3206188671
  0
LINE
  5
2A2
100
AcDbEntity
  8
0
100
AcDbLine
 62
7
  6
CONTINUOUS
 10
309.0000990201
 20
223.4657983069
 11
309.0232788018
 21
223.4444031708
  0
LINE
  5
2A3
100
AcDbEntity
  8
0
100
AcDbLine
 62
7
  6
CONTINUOUS
 10
309.023307286
 20
223.4443768796
 11
309.0458323243
 21
223.4200663486
  0
LINE
  5
2A4
100
AcDbEntity
  8
0
100
AcDbLine
 62
7
  6
CONTINUOUS
 10
308.4820381356
 20
223.296283732
 11
308.4588480587
 21
223.3215366564
  0
LINE
  5
2A5
100
AcDbEntity
  8
0
100
AcDbLine
 62
7
  6
CONTINUOUS
 10
309.0232555874
 20
223.4444284805
 11
309.0464708851
 21
223.4191178055
  0
LINE
  5
2A6
100
AcDbEntity
  8
0
100
AcDbLine
 62
7
  6
CONTINUOUS
 10
305.2596404148
 20
228.1555221906
 11
305.2365580341
 21
228.1807594864
  0
LINE
  5
2A7
100
AcDbEntity
  8
0
100
AcDbLine
 62
7
  6
CONTINUOUS
 10
308.4594712358
 20
223.3206188671
 11
308.436382458
 21
223.3496962188
  0
LINE
  5
2A8
100
AcDbEntity
  8
0
100
AcDbLine
 62
7
  6
CONTINUOUS
 10
309.0458323243
 20
223.4200663486
 11
309.0689757336
 21
223.3908760819
  0
LINE
  5
2A9
100
AcDbEntity
  8
0
100
AcDbLine
 62
7
  6
CONTINUOUS
 10
305.2372132147
 20
228.1798348719
 11
305.2142762195
 21
228.2088562588
  0
LWPOLYLINE
  5
2AA
100
AcDbEntity
  8
0
100
AcDbPolyline
 62
7
  6
CONTINUOUS
 90
16
 70
0
 10
308.4379048514
 20
223.3474517494
 10
308.4160345579
 20
223.3790732944
 10
308.3981237425
 20
223.4095044894
 10
308.3823312149
 20
223.4411535364
 10
308.3690927651
 20
223.4728219059
 10
308.3584789135
 20
223.504491866
 10
308.3504196128
 20
223.5361814213
 10
308.3451395147
 20
223.5667454809
 10
308.3427185278
 20
223.596148836
 10
308.3430769134
 20
223.6244267929
 10
308.3461994922
 20
223.6505398259
 10
308.3521927164
 20
223.6744377344
 10
308.3609499346
 20
223.6961706036
 10
308.3721359432
 20
223.7148491239
 10
308.3858648343
 20
223.7303396427
 10
308.3992187582
 20
223.740955552
  0
LWPOLYLINE
  5
2AB
100
AcDbEntity
  8
0
100
AcDbPolyline
 62
7
  6
CONTINUOUS
 90
17
 70
0
 10
309.0673866071
 20
223.3932248867
 10
309.0893462051
 20
223.3614287474
 10
309.1072494177
 20
223.3309509224
 10
309.1230188405
 20
223.299267825
 10
309.1362299067
 20
223.267579945
 10
309.1468134164
 20
223.2359100941
 10
309.154839039
 20
223.2042357314
 10
309.1600902238
 20
223.173689152
 10
309.1624896942
 20
223.1443012466
 10
309.1621148965
 20
223.1160412226
 10
309.1589810068
 20
223.0899486443
 10
309.1529807104
 20
223.0660737651
 10
309.1442211223
 20
223.0443662166
 10
309.1330386936
 20
223.0257144171
 10
309.1193201231
 20
223.010252699
 10
309.1031781945
 20
222.9978464314
 10
309.094768448
 20
222.99311951
  0
LWPOLYLINE
  5
2AC
100
AcDbEntity
  8
0
100
AcDbPolyline
 62
7
  6
CONTINUOUS
 90
16
 70
0
 10
305.2156817459
 20
228.2067904431
 10
305.1940885814
 20
228.2382252616
 10
305.1762704892
 20
228.2687458829
 10
305.1605471668
 20
228.3005390721
 10
305.1473868495
 20
228.3323798358
 10
305.1368684101
 20
228.3642493932
 10
305.1289134573
 20
228.3961667987
 10
305.1237540417
 20
228.4269636469
 10
305.1214740287
 20
228.4566028705
 10
305.1219897271
 20
228.4851216355
 10
305.1252814872
 20
228.5114626785
 10
305.1314581069
 20
228.5355733117
 10
305.1404105874
 20
228.5575061085
 10
305.1517922097
 20
228.5763614843
 10
305.1657167695
 20
228.5920030775
 10
305.1792039122
 20
228.602706807
  0
LINE
  5
2AD
100
AcDbEntity
  8
0
100
AcDbLine
 62
7
  6
CONTINUOUS
 10
306.9119383427
 20
225.6002201683
 11
306.8012854008
 21
225.7735154934
  0
LINE
  5
2AE
100
AcDbEntity
  8
0
100
AcDbLine
 62
7
  6
CONTINUOUS
 10
307.1061145318
 20
225.9448724633
 11
307.2077053914
 21
225.7838919806
  0
LWPOLYLINE
  5
2AF
100
AcDbEntity
  8
0
100
AcDbPolyline
 62
7
  6
CONTINUOUS
 90
10
 70
0
 10
306.8296402833
 20
225.7292588644
 10
306.7917255014
 20
225.7897063223
 10
306.7579125703
 20
225.8510573444
 10
306.7282023535
 20
225.9133124251
 10
306.702379555
 20
225.9771170727
 10
306.680661514
 20
226.0418269482
 10
306.6636976363
 20
226.1055075397
 10
306.6517045533
 20
226.1675141025
 10
306.6444666896
 20
226.2284919839
 10
306.6419846578
 20
226.2884415333
  0
LWPOLYLINE
  5
2B0
100
AcDbEntity
  8
0
100
AcDbPolyline
 62
7
  6
CONTINUOUS
 90
15
 70
0
 10
308.4181708715
 20
223.3757408448
 10
308.4003468239
 20
223.4055415214
 10
308.3843557708
 20
223.4367987516
 10
308.3708294516
 20
223.4682737574
 10
308.3598666115
 20
223.4999752872
 10
308.3513690236
 20
223.5318948917
 10
308.3456726902
 20
223.562767835
 10
308.3428898432
 20
223.5925521926
 10
308.3429084551
 20
223.6212900069
 10
308.3457277528
 20
223.647842269
 10
308.3514601055
 20
223.6721215067
 10
308.3599929391
 20
223.6942150738
 10
308.3709876778
 20
223.7132459783
 10
308.3845432123
 20
223.7290907333
 10
308.3992060219
 20
223.7409765522
  0
LWPOLYLINE
  5
2B1
100
AcDbEntity
  8
0
100
AcDbPolyline
 62
7
  6
CONTINUOUS
 90
15
 70
0
 10
305.1960028782
 20
228.2352162117
 10
305.1782542525
 20
228.2651687815
 10
305.1623588211
 20
228.2965918862
 10
305.1489451608
 20
228.3282398164
 10
305.1381128371
 20
228.360121573
 10
305.1297628057
 20
228.3922284513
 10
305.1242254481
 20
228.4232880237
 10
305.1216135209
 20
228.4532583257
 10
305.121814473
 20
228.4821814384
 10
305.1248203357
 20
228.5089107814
 10
305.1307437045
 20
228.5333585017
 10
305.1394717779
 20
228.555612335
 10
305.1506581027
 20
228.5747888624
 10
305.1644014217
 20
228.5907639421
 10
305.1791911427
 20
228.6027280505
  0
LWPOLYLINE
  5
2B2
100
AcDbEntity
  8
0
100
AcDbPolyline
 62
7
  6
CONTINUOUS
 90
12
 70
0
 10
306.8012854008
 20
225.7735154934
 10
306.7750178398
 20
225.8187604888
 10
306.7508380164
 20
225.8649940895
 10
306.7285862798
 20
225.9125663967
 10
306.7084232447
 20
225.961127861
 10
306.6908295925
 20
226.0096291679
 10
306.6758996346
 20
226.0580481129
 10
306.6635397653
 20
226.1064073039
 10
306.6539484047
 20
226.1537244242
 10
306.6471916898
 20
226.1996720327
 10
306.6432037247
 20
226.2445777077
 10
306.6419846578
 20
226.2884415335
  0
LWPOLYLINE
  5
2B3
100
AcDbEntity
  8
0
100
AcDbPolyline
 62
7
  6
CONTINUOUS
 90
21
 70
0
 10
307.2029536713
 20
225.7918581909
 10
307.3015489274
 20
225.6202491255
 10
307.3876500882
 20
225.4539467392
 10
307.4664042754
 20
225.2840408597
 10
307.5374273545
 20
225.1114819274
 10
307.599553659
 20
224.9391136403
 10
307.6526394865
 20
224.7669412908
 10
307.6968373661
 20
224.5949646869
 10
307.7314221884
 20
224.4260171292
 10
307.756236401
 20
224.2601496583
 10
307.7714424895
 20
224.0973141128
 10
307.7767907591
 20
223.9401923213
 10
307.7721170816
 20
223.7888784891
 10
307.7575856562
 20
223.6432784955
 10
307.7334343275
 20
223.5057888244
 10
307.6995004742
 20
223.3765419922
 10
307.6559419123
 20
223.2554027454
 10
307.6034724835
 20
223.1443632167
 10
307.5419393824
 20
223.0435877375
 10
307.4714866759
 20
222.9529069468
 10
307.3932696934
 20
222.8738102202
  0
LWPOLYLINE
  5
2B4
100
AcDbEntity
  8
0
100
AcDbPolyline
 62
7
  6
CONTINUOUS
 90
15
 70
0
 10
308.2352308782
 20
221.4226191558
 10
308.2517940357
 20
221.3918050267
 10
308.2658706884
 20
221.3608621254
 10
308.2774610659
 20
221.3297905861
 10
308.2866817515
 20
221.2980271464
 10
308.2934167276
 20
221.2661353988
 10
308.2973170802
 20
221.235805618
 10
308.2982296905
 20
221.2073563348
 10
308.2963076773
 20
221.1804690187
 10
308.2916610737
 20
221.1558781143
 10
308.284185607
 20
221.1335295817
 10
308.2739853126
 20
221.1134773227
 10
308.2614823582
 20
221.0966175035
 10
308.2466050641
 20
221.0831243586
 10
308.2311575801
 20
221.0736640805
  0
LWPOLYLINE
  5
2B5
100
AcDbEntity
  8
0
100
AcDbPolyline
 62
7
  6
CONTINUOUS
 90
20
 70
0
 10
307.29285837
 20
225.6361833315
 10
307.3758330084
 20
225.4778503999
 10
307.4522552378
 20
225.3160010272
 10
307.5217573524
 20
225.1514992996
 10
307.5832246013
 20
224.9869307905
 10
307.6365141301
 20
224.8223338075
 10
307.6817767125
 20
224.6576746165
 10
307.7183349133
 20
224.4954289379
 10
307.7460583485
 20
224.3356301894
 10
307.7650822333
 20
224.1782477669
 10
307.7751237259
 20
224.0256591721
 10
307.7760452399
 20
223.877943001
 10
307.7679851935
 20
223.735021175
 10
307.7510706302
 20
223.599033808
 10
307.7251711833
 20
223.4700906678
 10
307.6904139346
 20
223.3480801253
 10
307.6473081572
 20
223.2348079183
 10
307.5957123232
 20
223.1303851296
 10
307.535761217
 20
223.0346968029
 10
307.4683751624
 20
222.9492076344
  0
LWPOLYLINE
  5
2B6
100
AcDbEntity
  8
0
100
AcDbPolyline
 62
7
  6
CONTINUOUS
 90
3
 70
0
 10
306.6325810045
 20
227.2863106621
 10
306.624969849
 20
227.3040845143
 10
306.6159127454
 20
227.3214107102
  0
LINE
  5
2B7
100
AcDbEntity
  8
0
100
AcDbLine
 62
7
  6
CONTINUOUS
 10
306.6386271113
 20
227.2683436742
 11
306.6326355527
 21
227.2860860672
  0
LINE
  5
2B8
100
AcDbEntity
  8
0
100
AcDbLine
 62
7
  6
CONTINUOUS
 10
306.6429716255
 20
227.2506082567
 11
306.6386154405
 21
227.2683837381
  0
LWPOLYLINE
  5
2B9
100
AcDbEntity
  8
0
100
AcDbPolyline
 62
7
  6
CONTINUOUS
 90
8
 70
0
 10
307.0687751076
 20
226.0379200981
 10
307.0712922746
 20
226.0247537103
 10
307.0748626888
 20
226.0112132526
 10
307.0794363774
 20
225.9974439892
 10
307.08486344
 20
225.9838817235
 10
307.0910938697
 20
225.9706717
 10
307.09817758
 20
225.9576686208
 10
307.1061145318
 20
225.9448724633
  0
LWPOLYLINE
  5
2BA
100
AcDbEntity
  8
0
100
AcDbPolyline
 62
7
  6
CONTINUOUS
 90
6
 70
0
 10
307.5990971878
 20
222.0022165284
 10
307.6067712274
 20
222.0245804224
 10
307.6171975987
 20
222.0445119038
 10
307.6299622074
 20
222.0612188402
 10
307.6451583757
 20
222.0745707348
 10
307.648183527
 20
222.0766574546
  0
LWPOLYLINE
  5
2BB
100
AcDbEntity
  8
0
100
AcDbPolyline
 62
7
  6
CONTINUOUS
 90
4
 70
0
 10
306.1921032128
 20
221.348725189
 10
306.1824874639
 20
221.3283902488
 10
306.1701826038
 20
221.3107221252
 10
306.1556797659
 20
221.2964271586
  0
LINE
  5
2BC
100
AcDbEntity
  8
0
100
AcDbLine
 62
7
  6
CONTINUOUS
 10
306.1922799037
 20
221.3491947086
 11
306.1824022557
 21
221.3285485131
  0
LWPOLYLINE
  5
2BD
100
AcDbEntity
  8
0
100
AcDbPolyline
 62
7
  6
CONTINUOUS
 90
19
 70
0
 10
307.124510197
 20
223.4358156313
 10
307.1778363803
 20
223.5060062854
 10
307.2242996896
 20
223.5838714425
 10
307.2637739946
 20
223.6695492618
 10
307.2963904665
 20
223.7629044867
 10
307.3216190653
 20
223.8623468607
 10
307.3393387709
 20
223.9679151511
 10
307.3496732078
 20
224.079572077
 10
307.3524566333
 20
224.1956117675
 10
307.3475704408
 20
224.3161757815
 10
307.335133257
 20
224.4411225521
 10
307.315332334
 20
224.5683198735
 10
307.2880434372
 20
224.6977712256
 10
307.2533878055
 20
224.8294713859
 10
307.2119181432
 20
224.9612735072
 10
307.1634946577
 20
225.0932230231
 10
307.1082519424
 20
225.2252714974
 10
307.0471520387
 20
225.3551299931
 10
306.980512988
 20
225.4820340132
  0
LWPOLYLINE
  5
2BE
100
AcDbEntity
  8
0
100
AcDbPolyline
 62
7
  6
CONTINUOUS
 90
21
 70
0
 10
306.9956424509
 20
223.3190813043
 10
307.0644368866
 20
223.3738965304
 10
307.1270496954
 20
223.4388011626
 10
307.1823455664
 20
223.5126148587
 10
307.2301932032
 20
223.5955022306
 10
307.2707303712
 20
223.687302396
 10
307.3032228408
 20
223.7863453143
 10
307.3275247737
 20
223.8927639231
 10
307.3437859253
 20
224.0064275283
 10
307.3517122365
 20
224.1252687787
 10
307.3511509514
 20
224.2493823471
 10
307.342255345
 20
224.3786738374
 10
307.3251868799
 20
224.5107902619
 10
307.2997939283
 20
224.6457819913
 10
307.2662251254
 20
224.7835969102
 10
307.225088974
 20
224.9217263714
 10
307.176243286
 20
225.0601744589
 10
307.1198243941
 20
225.1989337055
 10
307.0568558316
 20
225.3354765594
 10
306.9876757468
 20
225.4689587608
 10
306.9080100469
 20
225.6067441988
  0
LINE
  5
2BF
100
AcDbEntity
  8
0
100
AcDbLine
 62
7
  6
CONTINUOUS
 10
304.0369140615
 20
223.50169754
 11
304.0312051854
 21
223.4986056853
  0
LINE
  5
2C0
100
AcDbEntity
  8
0
100
AcDbLine
 62
7
  6
CONTINUOUS
 10
304.0369140615
 20
223.50169754
 11
304.0311478373
 21
223.4987097034
  0
LINE
  5
2C1
100
AcDbEntity
  8
0
100
AcDbLine
 62
7
  6
CONTINUOUS
 10
304.0311887206
 20
223.4986352944
 11
304.0370080801
 21
223.5015070175
  0
LWPOLYLINE
  5
2C2
100
AcDbEntity
  8
0
100
AcDbPolyline
 62
7
  6
CONTINUOUS
 90
3
 70
0
 10
304.0312051854
 20
223.4986056853
 10
304.0184504313
 20
223.493278084
 10
303.9984496851
 20
223.4886617215
  0
LINE
  5
2C3
100
AcDbEntity
  8
0
100
AcDbLine
 62
7
  6
CONTINUOUS
 10
304.0311478373
 20
223.4987097034
 11
304.0180789549
 21
223.493415331
  0
LINE
  5
2C4
100
AcDbEntity
  8
0
100
AcDbLine
 62
7
  6
CONTINUOUS
 10
303.5416312279
 20
226.1898756653
 11
303.5226937388
 21
226.1849035977
  0
LINE
  5
2C5
100
AcDbEntity
  8
0
100
AcDbLine
 62
7
  6
CONTINUOUS
 10
302.8944258927
 20
226.9574546758
 11
302.9159903992
 21
226.9593815835
  0
LINE
  5
2C6
100
AcDbEntity
  8
0
100
AcDbLine
 62
7
  6
CONTINUOUS
 10
303.5219202424
 20
226.184700515
 11
303.5010476409
 21
226.1831133727
  0
LWPOLYLINE
  5
2C7
100
AcDbEntity
  8
0
100
AcDbPolyline
 62
7
  6
CONTINUOUS
 90
3
 70
0
 10
304.6086102571
 20
227.0804473494
 10
304.6301005893
 20
227.0819561288
 10
304.6531237756
 20
227.079807289
  0
LINE
  5
2C8
100
AcDbEntity
  8
0
100
AcDbLine
 62
7
  6
CONTINUOUS
 10
304.6083841069
 20
227.0804097954
 11
304.6305743526
 21
227.0817611228
  0
LINE
  5
2C9
100
AcDbEntity
  8
0
100
AcDbLine
 62
7
  6
CONTINUOUS
 10
302.9159903992
 20
226.9593815835
 11
302.938523064
 21
226.9576626364
  0
LWPOLYLINE
  5
2CA
100
AcDbEntity
  8
0
100
AcDbPolyline
 62
7
  6
CONTINUOUS
 90
24
 70
0
 10
304.6305743526
 20
227.0817611228
 10
304.6546001065
 20
227.0793816106
 10
304.6790301866
 20
227.0733516719
 10
304.7036639832
 20
227.0635038846
 10
304.7287018298
 20
227.0500055125
 10
304.7533140171
 20
227.0334390301
 10
304.7775296051
 20
227.0137145175
 10
304.8013197045
 20
226.9909219923
 10
304.8237677683
 20
226.9659138852
 10
304.8448839919
 20
226.938450866
 10
304.8646587095
 20
226.9087725683
 10
304.8821455306
 20
226.878449839
 10
304.8971173867
 20
226.8476922657
 10
304.9098018653
 20
226.8162905584
 10
304.919934361
 20
226.7851871321
 10
304.9275011595
 20
226.7543443843
 10
304.9325163647
 20
226.7238001413
 10
304.9347568305
 20
226.6946098077
 10
304.9340897071
 20
226.6667020292
 10
304.9306479508
 20
226.6401482215
 10
304.9246067182
 20
226.6162177118
 10
304.9160241611
 20
226.5953334751
 10
304.904841699
 20
226.5770722907
 10
304.8910591568
 20
226.5614340579
  0
LWPOLYLINE
  5
2CB
100
AcDbEntity
  8
0
100
AcDbPolyline
 62
7
  6
CONTINUOUS
 90
21
 70
0
 10
304.6531237756
 20
227.079807289
 10
304.6767587229
 20
227.0740858317
 10
304.7010264909
 20
227.0646477103
 10
304.7259057623
 20
227.051636824
 10
304.7504119444
 20
227.0355701318
 10
304.7745308184
 20
227.0163252857
 10
304.7982767547
 20
226.9940247207
 10
304.8207081264
 20
226.9695526177
 10
304.8417732098
 20
226.9428197219
 10
304.8615242182
 20
226.9139155687
 10
304.8791754167
 20
226.8839925174
 10
304.8946407605
 20
226.8530128637
 10
304.9080068913
 20
226.821014654
 10
304.9187469283
 20
226.789263773
 10
304.9267566181
 20
226.7577696707
 10
304.9321406407
 20
226.7265231418
 10
304.9346851868
 20
226.6967618998
 10
304.9342757335
 20
226.6685438593
 10
304.9310268607
 20
226.6418111386
 10
304.9250680119
 20
226.6176275279
 10
304.9164421332
 20
226.596347508
  0
LINE
  5
2CC
100
AcDbEntity
  8
0
100
AcDbLine
 62
7
  6
CONTINUOUS
 10
306.5412019818
 20
227.4006035542
 11
305.3323954182
 21
228.0985533142
  0
LINE
  5
2CD
100
AcDbEntity
  8
0
100
AcDbLine
 62
7
  6
CONTINUOUS
 10
306.5816230833
 20
227.8723606069
 11
305.3357395469
 21
228.5917181463
  0
LWPOLYLINE
  5
2CE
100
AcDbEntity
  8
0
100
AcDbPolyline
 62
7
  6
CONTINUOUS
 90
12
 70
0
 10
306.5816230833
 20
227.8723606069
 10
306.6243290185
 20
227.845588104
 10
306.6668279214
 20
227.8145808123
 10
306.7088126444
 20
227.7795290427
 10
306.7501268238
 20
227.7405122292
 10
306.790291226
 20
227.6979124105
 10
306.8285498669
 20
227.652525703
 10
306.8643903253
 20
227.6050940832
 10
306.8978614453
 20
227.5557171711
 10
306.9290639721
 20
227.5042783383
 10
306.9578149008
 20
227.4510082766
 10
306.9837908425
 20
227.3964204078
  0
LWPOLYLINE
  5
2CF
100
AcDbEntity
  8
0
100
AcDbPolyline
 62
7
  6
CONTINUOUS
 90
15
 70
0
 10
306.5816230833
 20
227.8723606069
 10
306.6333560155
 20
227.8393760194
 10
306.6844115947
 20
227.8004638727
 10
306.7342579378
 20
227.7560660735
 10
306.7823807923
 20
227.7066892266
 10
306.8282634
 20
227.652875958
 10
306.8713912897
 20
227.595197464
 10
306.9112849306
 20
227.5342808218
 10
306.9475274025
 20
227.4707980705
 10
306.9797403408
 20
227.4054333864
 10
307.0075498063
 20
227.3388823941
 10
307.0306488377
 20
227.2718754461
 10
307.0488206773
 20
227.205163431
 10
307.0618602556
 20
227.13947262
 10
307.0695772062
 20
227.0754968093
  0
LINE
  5
2D0
100
AcDbEntity
  8
0
100
AcDbLine
 62
7
  6
CONTINUOUS
 10
305.3323954182
 20
228.0985533142
 11
305.3073436866
 21
228.1146837488
  0
LWPOLYLINE
  5
2D1
100
AcDbEntity
  8
0
100
AcDbPolyline
 62
7
  6
CONTINUOUS
 90
5
 70
0
 10
305.3323954182
 20
228.0985533142
 10
305.3071843764
 20
228.1149645439
 10
305.2829647245
 20
228.133922033
 10
305.25973656
 20
228.155425837
 10
305.2372132147
 20
228.1798348719
  0
LINE
  5
2D2
100
AcDbEntity
  8
0
100
AcDbLine
 62
7
  6
CONTINUOUS
 10
306.5550298905
 20
227.3915500548
 11
306.5412019818
 21
227.4006035542
  0
LINE
  5
2D3
100
AcDbEntity
  8
0
100
AcDbLine
 62
7
  6
CONTINUOUS
 10
306.5687989918
 20
227.3803880759
 11
306.5553858259
 21
227.391234918
  0
LWPOLYLINE
  5
2D4
100
AcDbEntity
  8
0
100
AcDbPolyline
 62
7
  6
CONTINUOUS
 90
4
 70
0
 10
306.605568584
 20
227.3379985519
 10
306.594110032
 20
227.3535616598
 10
306.5817222154
 20
227.367831359
 10
306.5686170193
 20
227.3805648876
  0
LINE
  5
2D5
100
AcDbEntity
  8
0
100
AcDbLine
 62
7
  6
CONTINUOUS
 10
306.6159822306
 20
227.3212777853
 11
306.6057056797
 21
227.3376936238
  0
LWPOLYLINE
  5
2D6
100
AcDbEntity
  8
0
100
AcDbPolyline
 62
7
  6
CONTINUOUS
 90
16
 70
0
 10
309.0871071057
 20
223.3649267555
 10
309.1049165404
 20
223.3351170469
 10
309.1208927809
 20
223.3038510091
 10
309.1344054094
 20
223.2723680728
 10
309.1453561685
 20
223.2406598112
 10
309.1538438337
 20
223.20873495
 10
309.1595332579
 20
223.1778584884
 10
309.1623124397
 20
223.1480724074
 10
309.1622935848
 20
223.1193348442
 10
309.1594774701
 20
223.0927848091
 10
309.1537515066
 20
223.0685096575
 10
309.1452280783
 20
223.0464219161
 10
309.1342450348
 20
223.0273981284
 10
309.1207029352
 20
223.0115614651
 10
309.1047007014
 20
222.9987884562
 10
309.0947786513
 20
222.9931010215
  0
LWPOLYLINE
  5
2D7
100
AcDbEntity
  8
0
100
AcDbPolyline
 62
7
  6
CONTINUOUS
 90
7
 70
0
 10
307.0068236322
 20
227.3407857748
 10
307.0267518413
 20
227.2842606686
 10
307.0432610271
 20
227.2275352639
 10
307.0560675801
 20
227.1716821538
 10
307.0650960075
 20
227.117315804
 10
307.070358298
 20
227.0646082492
 10
307.071853603
 20
227.0139192035
  0
LWPOLYLINE
  5
2D8
100
AcDbEntity
  8
0
100
AcDbPolyline
 62
7
  6
CONTINUOUS
 90
6
 70
0
 10
308.2961088859
 20
221.1794695903
 10
308.2913232715
 20
221.1545745922
 10
308.2836744634
 20
221.1322107526
 10
308.2732730105
 20
221.1122822034
 10
308.2605317846
 20
221.0955810966
 10
308.2453566514
 20
221.0822377128
  0
LINE
  5
2D9
100
AcDbEntity
  8
0
100
AcDbLine
 62
7
  6
CONTINUOUS
 10
307.3934577482
 20
222.874088437
 11
307.3071537408
 21
222.8064858854
  0
LINE
  5
2DA
100
AcDbEntity
  8
0
100
AcDbLine
 62
7
  6
CONTINUOUS
 10
305.8256314304
 20
222.2550396516
 11
305.8319387691
 21
222.2596810584
  0
LINE
  5
2DB
100
AcDbEntity
  8
0
100
AcDbLine
 62
7
  6
CONTINUOUS
 10
306.9872977278
 20
223.3135110798
 11
306.9999409682
 21
223.322158968
  0
LWPOLYLINE
  5
2DC
100
AcDbEntity
  8
0
100
AcDbPolyline
 62
7
  6
CONTINUOUS
 90
7
 70
0
 10
308.3992187582
 20
223.740955552
 10
308.4020219988
 20
223.7427755142
 10
308.4199289031
 20
223.7516677789
 10
308.4396537179
 20
223.7568510077
 10
308.4611276867
 20
223.758490292
 10
308.4834667806
 20
223.7565923921
 10
308.5063761838
 20
223.7511594811
  0
LINE
  5
2DD
100
AcDbEntity
  8
0
100
AcDbLine
 62
7
  6
CONTINUOUS
 10
306.1556797659
 20
221.2964271586
 11
306.1375219081
 21
221.2849615141
  0
LWPOLYLINE
  5
2DE
100
AcDbEntity
  8
0
100
AcDbPolyline
 62
7
  6
CONTINUOUS
 90
3
 70
0
 10
307.3110962199
 20
222.8091631031
 10
307.22248388
 20
222.7553744893
 10
307.203858582
 20
222.7459070589
  0
LINE
  5
2DF
100
AcDbEntity
  8
0
100
AcDbLine
 62
7
  6
CONTINUOUS
 10
307.3071537408
 20
222.8064858854
 11
307.203813332
 21
222.7459890448
  0
LINE
  5
2E0
100
AcDbEntity
  8
0
100
AcDbLine
 62
7
  6
CONTINUOUS
 10
306.920548738
 20
223.2745377035
 11
306.9873379057
 21
223.3134450008
  0
LWPOLYLINE
  5
2E1
100
AcDbEntity
  8
0
100
AcDbPolyline
 62
7
  6
CONTINUOUS
 90
8
 70
0
 10
305.8319610234
 20
222.2596445737
 10
305.8418477805
 20
222.2653861561
 10
305.8608501025
 20
222.2727959612
 10
305.8812898837
 20
222.2765462426
 10
305.903223945
 20
222.2764904733
 10
305.926594945
 20
222.2727748762
 10
305.9504770225
 20
222.2655478288
 10
305.9748905186
 20
222.2546687912
  0
LWPOLYLINE
  5
2E2
100
AcDbEntity
  8
0
100
AcDbPolyline
 62
7
  6
CONTINUOUS
 90
6
 70
0
 10
305.8319387691
 20
222.2596810584
 10
305.8428452076
 20
222.2659451543
 10
305.8619839968
 20
222.273106289
 10
305.882436061
 20
222.2766406542
 10
305.9042115594
 20
222.2764481836
 10
305.9272998146
 20
222.2726286404
  0
LWPOLYLINE
  5
2E3
100
AcDbEntity
  8
0
100
AcDbPolyline
 62
7
  6
CONTINUOUS
 90
9
 70
0
 10
307.6481714344
 20
222.0766773663
 10
307.6611125171
 20
222.0839971363
 10
307.6799765879
 20
222.090744762
 10
307.7005520583
 20
222.0938263467
 10
307.722790606
 20
222.0933439745
 10
307.7459107634
 20
222.0892307115
 10
307.7699561333
 20
222.0813822187
 10
307.7948828045
 20
222.0699026554
 10
307.8197780867
 20
222.0550378625
  0
LINE
  5
2E4
100
AcDbEntity
  8
0
100
AcDbLine
 62
7
  6
CONTINUOUS
 10
307.648183527
 20
222.0766574546
 11
307.6620022272
 21
222.0843153831
  0
LINE
  5
2E5
100
AcDbEntity
  8
0
100
AcDbLine
 62
7
  6
CONTINUOUS
 10
308.3992060219
 20
223.7409765522
 11
308.4184021356
 21
223.7510842161
  0
LWPOLYLINE
  5
2E6
100
AcDbEntity
  8
0
100
AcDbPolyline
 62
7
  6
CONTINUOUS
 90
8
 70
0
 10
309.0947786513
 20
222.9931010215
 10
309.0868734492
 20
222.9895855236
 10
309.0671474544
 20
222.984096324
 10
309.0455958511
 20
222.9821768602
 10
309.0230739296
 20
222.9839020078
 10
308.9998666386
 20
222.9892966399
 10
308.9756886432
 20
222.9983356605
 10
308.9505398466
 20
223.0110190137
  0
LINE
  5
2E7
100
AcDbEntity
  8
0
100
AcDbLine
 62
7
  6
CONTINUOUS
 10
309.094768448
 20
222.99311951
 11
309.0863238213
 21
222.9894325773
  0
LINE
  5
2E8
100
AcDbEntity
  8
0
100
AcDbLine
 62
7
  6
CONTINUOUS
 10
307.203858582
 20
222.7459070589
 11
307.1274889523
 21
222.7128733685
  0
LWPOLYLINE
  5
2E9
100
AcDbEntity
  8
0
100
AcDbPolyline
 62
7
  6
CONTINUOUS
 90
18
 70
0
 10
307.203813332
 20
222.7459890448
 10
307.1131365093
 20
222.7074837634
 10
307.0066663521
 20
222.6769225263
 10
306.8939503091
 20
222.6588459862
 10
306.7768387256
 20
222.6535476448
 10
306.6552540766
 20
222.6612359123
 10
306.529264955
 20
222.6816971839
 10
306.4009408735
 20
222.7145919314
 10
306.2702403191
 20
222.7601238731
 10
306.1371997173
 20
222.818086328
 10
306.0040063454
 20
222.8875246674
 10
305.870657132
 20
222.9686282248
 10
305.7371549017
 20
223.0612075228
 10
305.605696963
 20
223.1637404079
 10
305.4763189178
 20
223.2763926038
 10
305.3489898064
 20
223.3990010902
 10
305.22580801
 20
223.5295511298
 10
305.1068457903
 20
223.6681765556
  0
LWPOLYLINE
  5
2EA
100
AcDbEntity
  8
0
100
AcDbPolyline
 62
7
  6
CONTINUOUS
 90
18
 70
0
 10
307.1274889523
 20
222.7128733685
 10
307.0262334656
 20
222.6815033174
 10
306.9202899928
 20
222.6617455596
 10
306.8096278346
 20
222.6537755118
 10
306.6942689305
 20
222.6574126669
 10
306.5758644054
 20
222.6726041247
 10
306.4543121661
 20
222.6995312826
 10
306.3297082224
 20
222.7380092024
 10
306.2040012979
 20
222.7874357374
 10
306.077226658
 20
222.8479525981
 10
305.9493466521
 20
222.9194166847
 10
305.8222015414
 20
223.0007991655
 10
305.6957541905
 20
223.0922812593
 10
305.5700435003
 20
223.1936827758
 10
305.447024734
 20
223.3034333222
 10
305.3267792592
 20
223.4216270421
 10
305.2092312951
 20
223.5481730441
 10
305.0961009225
 20
223.6812236967
  0
LINE
  5
2EB
100
AcDbEntity
  8
0
100
AcDbLine
 62
7
  6
CONTINUOUS
 10
305.198617504
 20
228.6129696972
 11
305.2185190791
 21
228.6185438928
  0
LINE
  5
2EC
100
AcDbEntity
  8
0
100
AcDbLine
 62
7
  6
CONTINUOUS
 10
302.8746858522
 20
226.9519573726
 11
302.8944258927
 21
226.9574546758
  0
LINE
  5
2ED
100
AcDbEntity
  8
0
100
AcDbLine
 62
7
  6
CONTINUOUS
 10
304.5889599732
 20
227.0752527101
 11
304.6084933674
 21
227.0804164491
  0
LINE
  5
2EE
100
AcDbEntity
  8
0
100
AcDbLine
 62
7
  6
CONTINUOUS
 10
305.2185190791
 20
228.6185438928
 11
305.2402340461
 21
228.620528552
  0
LINE
  5
2EF
100
AcDbEntity
  8
0
100
AcDbLine
 62
7
  6
CONTINUOUS
 10
305.2402340461
 20
228.620528552
 11
305.2628999888
 21
228.6188461559
  0
LINE
  5
2F0
100
AcDbEntity
  8
0
100
AcDbLine
 62
7
  6
CONTINUOUS
 10
305.2628999888
 20
228.6188461559
 11
305.2824151672
 21
228.6143496033
  0
LWPOLYLINE
  5
2F1
100
AcDbEntity
  8
0
100
AcDbPolyline
 62
7
  6
CONTINUOUS
 90
3
 70
0
 10
305.286369057
 20
228.613418725
 10
305.3105091716
 20
228.6044281288
 10
305.3357395469
 20
228.5917181463
  0
LWPOLYLINE
  5
2F2
100
AcDbEntity
  8
0
100
AcDbPolyline
 62
250
  6
CONTINUOUS
 90
12
 70
0
 10
313.6922157133
 20
203.8544794324
 10
313.6981141695
 20
203.7705021128
 10
313.7092459154
 20
203.691473862
 10
313.7253201559
 20
203.6176094093
 10
313.7459055562
 20
203.5494377032
 10
313.7707593118
 20
203.4866582094
 10
313.8000823668
 20
203.4283964879
 10
313.8339864168
 20
203.3745994701
 10
313.8721575873
 20
203.3259147784
 10
313.9143254102
 20
203.282677451
 10
313.9599901862
 20
203.2452732147
 10
314.0050742783
 20
203.2159139729
  0
LINE
  5
2F3
100
AcDbEntity
  8
0
100
AcDbLine
 62
7
  6
CONTINUOUS
 10
308.2453566514
 20
221.0822377128
 11
308.2311431816
 21
221.0736900365
  0
LWPOLYLINE
  5
2F4
100
AcDbEntity
  8
0
100
AcDbPolyline
 62
7
  6
CONTINUOUS
 90
9
 70
0
 10
308.2311431816
 20
221.0736900365
 10
308.2278411805
 20
221.0721214417
 10
308.2086795593
 20
221.0656329583
 10
308.1878055425
 20
221.0629173593
 10
308.1652848108
 20
221.0638292183
 10
308.1420093691
 20
221.0683333839
 10
308.1179486474
 20
221.0765735019
 10
308.0931329152
 20
221.0884057508
 10
308.0685454935
 20
221.1033638123
  0
LWPOLYLINE
  5
2F5
100
AcDbEntity
  8
0
100
AcDbPolyline
 62
7
  6
CONTINUOUS
 90
7
 70
0
 10
306.1375219081
 20
221.2849615141
 10
306.1199034634
 20
221.2782330544
 10
306.0994716406
 20
221.2744858514
 10
306.0775376644
 20
221.2745485429
 10
306.0541587808
 20
221.2782743731
 10
306.0302616672
 20
221.2855141531
 10
306.0058254032
 20
221.2964084642
  0
LWPOLYLINE
  5
2F6
100
AcDbEntity
  8
0
100
AcDbPolyline
 62
7
  6
CONTINUOUS
 90
5
 70
0
 10
306.1375481165
 20
221.2849142327
 10
306.1187633395
 20
221.2779206742
 10
306.098317934
 20
221.2743911201
 10
306.0765413747
 20
221.2745919606
 10
306.0534442905
 20
221.2784232499
  0
LWPOLYLINE
  5
2F7
100
AcDbEntity
  8
0
100
AcDbPolyline
 62
7
  6
CONTINUOUS
 90
8
 70
0
 10
308.2311575801
 20
221.0736640805
 10
308.2105769024
 20
221.0660872176
 10
308.1900138169
 20
221.0630178948
 10
308.1677830601
 20
221.0635131804
 10
308.1446648111
 20
221.0676398134
 10
308.1206146342
 20
221.0755018341
 10
308.0956766561
 20
221.0869950217
 10
308.0707639482
 20
221.1018737522
  0
LWPOLYLINE
  5
2F8
100
AcDbEntity
  8
0
100
AcDbPolyline
 62
7
  6
CONTINUOUS
 90
8
 70
0
 10
307.6626922173
 20
222.084697756
 10
307.6818685849
 20
222.0911986287
 10
307.7027528796
 20
222.0939279933
 10
307.7252791366
 20
222.0930308813
 10
307.7485550872
 20
222.088541563
 10
307.7726107036
 20
222.0803162221
 10
307.7974157135
 20
222.0684985002
 10
307.8219875386
 20
222.0535538883
  0
LWPOLYLINE
  5
2F9
100
AcDbEntity
  8
0
100
AcDbPolyline
 62
250
  6
CONTINUOUS
 90
22
 70
0
 10
314.3927991872
 20
203.867563783
 10
314.3970945088
 20
203.8113816756
 10
314.4044933502
 20
203.7587194699
 10
314.4149957116
 20
203.709577166
 10
314.4286556622
 20
203.6640573757
 10
314.4454191327
 20
203.6220574872
 10
314.4651239148
 20
203.5832696646
 10
314.4878527617
 20
203.5474219981
 10
314.5135229202
 20
203.5147863975
 10
314.5417239227
 20
203.4858707563
 10
314.5722510948
 20
203.4607813356
 10
314.6053091109
 20
203.4394118742
 10
314.6411015263
 20
203.4219514823
 10
314.6797574442
 20
203.4082195499
 10
314.7211477614
 20
203.3983966871
 10
314.7650887229
 20
203.3932138334
 10
314.8118132868
 20
203.3927448116
 10
314.861088495
 20
203.3969157991
 10
314.9120317181
 20
203.4062362679
 10
314.9643487461
 20
203.4208760421
 10
315.0183337889
 20
203.4406652978
 10
315.0739868465
 20
203.4656040348
  0
LWPOLYLINE
  5
2FA
100
AcDbEntity
  8
0
100
AcDbPolyline
 62
250
  6
CONTINUOUS
 90
6
 70
0
 10
314.1148267076
 20
215.5599990985
 10
314.1427656485
 20
213.380607054
 10
314.1842023568
 20
211.1254966762
 10
314.2402368662
 20
208.7819040451
 10
314.309769143
 20
206.3625930807
 10
314.3927991872
 20
203.867563783
  0
LWPOLYLINE
  5
2FB
100
AcDbEntity
  8
0
100
AcDbPolyline
 62
250
  6
CONTINUOUS
 90
16
 70
0
 10
313.6922157133
 20
237.4317678419
 10
313.6115433599
 20
234.9903214371
 10
313.54508292
 20
232.6272249286
 10
313.491786756
 20
230.341988424
 10
313.4509760411
 20
228.1542239008
 10
313.421150445
 20
226.0432520258
 10
313.4008776875
 20
223.9486001915
 10
313.3899869086
 20
221.8684495974
 10
313.3883708475
 20
219.8045690085
 10
313.3962110276
 20
217.7027255362
 10
313.4141201345
 20
215.5587008704
 10
313.4426991544
 20
213.3775398051
 10
313.4834136594
 20
211.1196754555
 10
313.53783243
 20
208.7726197108
 10
313.6069971789
 20
206.3505900343
 10
313.6922157133
 20
203.8544794324
  0
LWPOLYLINE
  5
2FC
100
AcDbEntity
  8
0
100
AcDbPolyline
 62
250
  6
CONTINUOUS
 90
6
 70
0
 10
316.1383134391
 20
204.2404417157
 10
316.1402826464
 20
204.2089850035
 10
316.1387700304
 20
204.1795528558
 10
316.1338641719
 20
204.1523207143
 10
316.1256335151
 20
204.1273208132
 10
316.1191818476
 20
204.1135544562
  0
LINE
  5
2FD
100
AcDbEntity
  8
0
100
AcDbLine
 62
250
  6
CONTINUOUS
 10
314.097085433
 20
217.7019645698
 11
314.1148267076
 21
215.5599990985
  0
LWPOLYLINE
  5
2FE
100
AcDbEntity
  8
0
100
AcDbPolyline
 62
250
  6
CONTINUOUS
 90
10
 70
0
 10
314.3927991872
 20
237.411274904
 10
314.3138982832
 20
234.9730797178
 10
314.2471542954
 20
232.6121838327
 10
314.1925672238
 20
230.3285872489
 10
314.1509983499
 20
228.1425984292
 10
314.1215863922
 20
226.0339089106
 10
314.1017475062
 20
223.9415933043
 10
314.090412212
 20
221.8632766424
 10
314.0886499893
 20
219.8013338927
 10
314.097085433
 20
217.7019645698
  0
LWPOLYLINE
  5
2FF
100
AcDbEntity
  8
0
100
AcDbPolyline
 62
250
  6
CONTINUOUS
 90
16
 70
0
 10
315.0739868465
 20
238.5728632443
 10
315.0701202561
 20
238.6154917548
 10
315.0624950625
 20
238.6599264289
 10
315.051194687
 20
238.7056810162
 10
315.036342769
 20
238.7522548206
 10
315.0181018178
 20
238.7991381693
 10
314.9966714376
 20
238.8458179908
 10
314.9722861322
 20
238.8917834484
 10
314.9452127465
 20
238.9365315118
 10
314.9157475567
 20
238.9795724552
 10
314.884213005
 20
239.0204352517
 10
314.8509541853
 20
239.0586727036
 10
314.8163350815
 20
239.0938663249
 10
314.7807345555
 20
239.1256309553
 10
314.7445421983
 20
239.1536189711
 10
314.708154086
 20
239.17752407
  0
LWPOLYLINE
  5
300
100
AcDbEntity
  8
0
100
AcDbPolyline
 62
7
  6
CONTINUOUS
 90
13
 70
0
 10
316.1664187527
 20
239.3236536709
 10
316.1661747443
 20
239.3392595675
 10
316.1622097059
 20
239.3889849428
 10
316.153283495
 20
239.4395835942
 10
316.1393320565
 20
239.4904342555
 10
316.1207635336
 20
239.53997696
 10
316.0976538358
 20
239.5881290063
 10
316.0700542534
 20
239.6345854614
 10
316.0389883972
 20
239.6776775937
 10
316.0047763994
 20
239.7172153942
 10
315.9674665651
 20
239.7531852303
 10
315.9281592652
 20
239.7846231765
 10
315.8835060069
 20
239.813630098
  0
LINE
  5
301
100
AcDbEntity
  8
0
100
AcDbLine
 62
7
  6
CONTINUOUS
 10
316.0375720974
 20
203.9455671951
 11
316.0375720974
 21
239.1674452516
  0
LINE
  5
302
100
AcDbEntity
  8
0
100
AcDbLine
 62
250
  6
CONTINUOUS
 10
316.1383110907
 20
239.2504297626
 11
316.1383110907
 21
204.2404372562
  0
LINE
  5
303
100
AcDbEntity
  8
0
100
AcDbLine
 62
7
  6
CONTINUOUS
 10
316.1664187546
 20
239.3236341089
 11
316.1664187546
 21
204.3136416025
  0
LWPOLYLINE
  5
304
100
AcDbEntity
  8
0
100
AcDbPolyline
 62
250
  6
CONTINUOUS
 90
5
 70
0
 10
316.1664187546
 20
239.3236341089
 10
316.1662918397
 20
239.3185961633
 10
316.1623523064
 20
239.2952108484
 10
316.1529678345
 20
239.2723484986
 10
316.1383110907
 20
239.2504297626
  0
LINE
  5
305
100
AcDbEntity
  8
0
100
AcDbLine
 62
250
  6
CONTINUOUS
 10
316.1664187546
 20
204.3136416025
 11
316.1662918594
 21
204.3086040487
  0
LWPOLYLINE
  5
306
100
AcDbEntity
  8
0
100
AcDbPolyline
 62
250
  6
CONTINUOUS
 90
9
 70
0
 10
315.0739868465
 20
203.4656040348
 10
315.070120182
 20
203.4230550152
 10
315.0624948405
 20
203.3832442507
 10
315.0511942699
 20
203.3466074098
 10
315.0363421375
 20
203.3135454269
 10
315.0181009777
 20
203.2844201154
 10
314.996670413
 20
203.2595502081
 10
314.9722849687
 20
203.2392078684
 10
314.9495844165
 20
203.2257199565
  0
LWPOLYLINE
  5
307
100
AcDbEntity
  8
0
100
AcDbPolyline
 62
250
  6
CONTINUOUS
 90
12
 70
0
 10
316.1277713681
 20
239.4104083103
 10
316.1307054553
 20
239.3958744452
 10
316.1332413111
 20
239.3814009807
 10
316.1353815262
 20
239.3670006398
 10
316.1371316547
 20
239.3526881548
 10
316.1385064609
 20
239.3383282393
 10
316.1394968865
 20
239.3239335379
 10
316.1400965832
 20
239.3095196233
 10
316.1402990361
 20
239.2949580494
 10
316.1400829705
 20
239.2802189469
 10
316.1394268508
 20
239.2653693626
 10
316.1383110907
 20
239.2504297626
  0
LWPOLYLINE
  5
308
100
AcDbEntity
  8
0
100
AcDbPolyline
 62
250
  6
CONTINUOUS
 90
4
 70
0
 10
316.1662918594
 20
204.3086040487
 10
316.1623523909
 20
204.2852186353
 10
316.15296792
 20
204.2623561513
 10
316.1383110907
 20
204.2404372562
  0
LINE
  5
309
100
AcDbEntity
  8
0
100
AcDbLine
 62
250
  6
CONTINUOUS
 10
298.8673696357
 20
245.9914481681
 11
313.6922157133
 21
237.4317678419
  0
LWPOLYLINE
  5
30A
100
AcDbEntity
  8
0
100
AcDbPolyline
 62
250
  6
CONTINUOUS
 90
8
 70
0
 10
315.8060795785
 20
239.825871621
 10
315.832413468
 20
239.8127117304
 10
315.8574745985
 20
239.7982963073
 10
315.8812196597
 20
239.7828354198
 10
315.9036062353
 20
239.7665549115
 10
315.9246467998
 20
239.7496237804
 10
315.9443977293
 20
239.7321382869
 10
315.9628743452
 20
239.7142508181
  0
LINE
  5
30B
100
AcDbEntity
  8
0
100
AcDbLine
 62
250
  6
CONTINUOUS
 10
299.8599356457
 20
247.75069933
 11
314.7081541065
 21
239.1775240826
  0
LINE
  5
30C
100
AcDbEntity
  8
0
100
AcDbLine
 62
7
  6
CONTINUOUS
 10
315.6842878315
 20
239.7798491484
 11
300.8025770266
 21
248.3723624555
  0
LINE
  5
30D
100
AcDbEntity
  8
0
100
AcDbLine
 62
250
  6
CONTINUOUS
 10
301.1087348496
 20
248.3119342665
 11
315.8060795785
 21
239.825871621
  0
LWPOLYLINE
  5
30E
100
AcDbEntity
  8
0
100
AcDbPolyline
 62
250
  6
CONTINUOUS
 90
19
 70
0
 10
315.9628743452
 20
239.7142508181
 10
315.9800961931
 20
239.6961112145
 10
315.9961263803
 20
239.6777744771
 10
316.0110073715
 20
239.6593448865
 10
316.0247671001
 20
239.640944773
 10
316.0374457035
 20
239.6226311474
 10
316.0490828216
 20
239.6045020077
 10
316.0597351396
 20
239.586631162
 10
316.0694643784
 20
239.5690208368
 10
316.0783062539
 20
239.5517565794
 10
316.0863257774
 20
239.5348742767
 10
316.0936118085
 20
239.5182826595
 10
316.1002001766
 20
239.5020257497
 10
316.1061352836
 20
239.4861374959
 10
316.1114930826
 20
239.47049548
 10
316.1162993623
 20
239.4551249182
 10
316.1205841851
 20
239.4400506757
 10
316.1244034892
 20
239.4251395923
 10
316.1277713681
 20
239.4104083103
  0
LWPOLYLINE
  5
30F
100
AcDbEntity
  8
0
100
AcDbPolyline
 62
7
  6
CONTINUOUS
 90
7
 70
0
 10
316.1191253359
 20
204.1134743423
 10
316.1269843902
 20
204.1292571095
 10
316.1412161528
 20
204.1636686334
 10
316.1523388431
 20
204.1997559049
 10
316.160251058
 20
204.2372186042
 10
316.1649422447
 20
204.2758244129
 10
316.1664187529
 20
204.3136605681
  0
LINE
  5
310
100
AcDbEntity
  8
0
100
AcDbLine
 62
250
  6
CONTINUOUS
 10
316.1383110907
 20
204.2404372562
 11
316.0375720974
 21
204.0491367779
  0
LINE
  5
311
100
AcDbEntity
  8
0
100
AcDbLine
 62
7
  6
CONTINUOUS
 10
316.1191650729
 20
204.1135226015
 11
316.0375720974
 21
203.9585798656
  0
LWPOLYLINE
  5
312
100
AcDbEntity
  8
0
100
AcDbPolyline
 62
7
  6
CONTINUOUS
 90
7
 70
0
 10
301.1827257152
 20
248.3016576563
 10
301.1479456899
 20
248.3195450275
 10
301.112445241
 20
248.3342077438
 10
301.076392728
 20
248.3455526263
 10
301.0400057922
 20
248.3534951257
 10
301.0035874368
 20
248.35799381
 10
300.9891755361
 20
248.3588241167
  0
LWPOLYLINE
  5
313
100
AcDbEntity
  8
0
100
AcDbPolyline
 62
250
  6
CONTINUOUS
 90
5
 70
0
 10
315.8835060069
 20
239.813630098
 10
315.8791008564
 20
239.8160266011
 10
315.856879998
 20
239.8243055227
 10
315.8323893742
 20
239.8276074694
 10
315.8060795785
 20
239.825871621
  0
LWPOLYLINE
  5
314
100
AcDbEntity
  8
0
100
AcDbPolyline
 62
250
  6
CONTINUOUS
 90
5
 70
0
 10
301.1861886689
 20
248.2996769341
 10
301.1817552555
 20
248.302089693
 10
301.1595345169
 20
248.3103683547
 10
301.1350441807
 20
248.3136701292
 10
301.1087348496
 20
248.3119342665
  0
LINE
  5
315
100
AcDbEntity
  8
0
100
AcDbLine
 62
7
  6
CONTINUOUS
 10
301.1827257152
 20
248.3016576563
 11
315.8835333978
 21
239.8136142886
  0
LWPOLYLINE
  5
316
100
AcDbEntity
  8
0
100
AcDbPolyline
 62
250
  6
CONTINUOUS
 90
16
 70
0
 10
314.3927991866
 20
203.8675637987
 10
314.3537905652
 20
203.8462277579
 10
314.3114784331
 20
203.8273452962
 10
314.2663161158
 20
203.8111187418
 10
314.2187874777
 20
203.797721968
 10
314.1694017486
 20
203.7872985317
 10
314.1186880688
 20
203.7799601315
 10
314.0671897989
 20
203.7757854108
 10
314.0154587172
 20
203.7748191185
 10
313.9640491183
 20
203.777071624
 10
313.9135118339
 20
203.7825188079
 10
313.8643883583
 20
203.7911023189
 10
313.817205063
 20
203.8027301919
 10
313.7724675143
 20
203.817277843
 10
313.7306550593
 20
203.8345894093
 10
313.6922157141
 20
203.8544794103
  0
LINE
  5
317
100
AcDbEntity
  8
0
100
AcDbLine
 62
250
  6
CONTINUOUS
 10
315.0739868465
 20
203.4656040348
 11
316.0375720974
 21
203.9455671951
  0
LINE
  5
318
100
AcDbEntity
  8
0
100
AcDbLine
 62
7
  6
CONTINUOUS
 10
314.9495844165
 20
203.2257199565
 11
315.9249436619
 21
203.7115477599
  0
LINE
  5
319
100
AcDbEntity
  8
0
100
AcDbLine
 62
250
  6
CONTINUOUS
 10
301.1087348496
 20
248.3119342665
 11
300.8926878618
 21
248.3203335886
  0
LINE
  5
31A
100
AcDbEntity
  8
0
100
AcDbLine
 62
7
  6
CONTINUOUS
 10
300.9892136535
 20
248.358822896
 11
300.8142455762
 21
248.3656251812
  0
LWPOLYLINE
  5
31B
100
AcDbEntity
  8
0
100
AcDbPolyline
 62
250
  6
CONTINUOUS
 90
7
 70
0
 10
300.9892021972
 20
248.3588233414
 10
300.997797386
 20
248.3582602663
 10
301.0182080635
 20
248.3551289396
 10
301.0395721585
 20
248.3492272728
 10
301.0620280129
 20
248.3401821971
 10
301.0851412824
 20
248.3278211237
 10
301.1087348496
 20
248.3119342665
  0
ELLIPSE
  5
31C
100
AcDbEntity
  8
0
100
AcDbEllipse
 62
7
  6
CONTINUOUS
 10
686.6664406497
 20
413.2216785224
 30
0.0
 11
-375.2164586278
 21
600.2645550077
 31
0.0
 40
0.597790483
 41
1.5163703691
 42
1.5171622004
  0
ELLIPSE
  5
31D
100
AcDbEntity
  8
0
100
AcDbEllipse
 62
7
  6
CONTINUOUS
 10
678.5845565924
 20
417.8880570873
 30
0.0
 11
271.0122686045
 21
420.6274767681
 31
0.0
 40
0.6071824892
 41
-3.8905969679
 42
-3.889476938
  0
ELLIPSE
  5
31E
100
AcDbEntity
  8
0
100
AcDbEllipse
 62
7
  6
CONTINUOUS
 10
686.2846029879
 20
413.4421468028
 30
0.0
 11
519.1073299804
 21
277.5238873003
 31
0.0
 40
0.0313485592
 41
8.6639471284
 42
8.6647392617
  0
ELLIPSE
  5
31F
100
AcDbEntity
  8
0
100
AcDbEllipse
 62
7
  6
CONTINUOUS
 10
632.4017219953
 20
444.5534469768
 30
0.0
 11
481.423461474
 21
299.2969656673
 31
0.0
 40
0.0338883326
 41
-2.3431026458
 42
-2.3423108145
  0
ELLIPSE
  5
320
100
AcDbEntity
  8
0
100
AcDbEllipse
 62
7
  6
CONTINUOUS
 10
679.4542979332
 20
417.3858793375
 30
0.0
 11
271.0122686045
 21
420.6274767681
 31
0.0
 40
0.6071824892
 41
-3.90440039
 42
-3.902078882
  0
ELLIPSE
  5
321
100
AcDbEntity
  8
0
100
AcDbEllipse
 62
7
  6
CONTINUOUS
 10
315.6839648507
 20
239.3712402552
 30
0.0
 11
-0.2496303025
 21
0.4334023309
 31
0.0
 40
0.5778584463
 41
-2.3545649475
 42
-0.7846820092
  0
ELLIPSE
  5
322
100
AcDbEntity
  8
0
100
AcDbEllipse
 62
7
  6
CONTINUOUS
 10
300.8029000074
 20
247.9633805922
 30
0.0
 11
-0.2498600223
 21
0.43379745
 31
0.0
 40
0.5768037941
 41
5.4994124095
 42
6.3180789651
  0
ELLIPSE
  5
323
100
AcDbEntity
  8
0
100
AcDbEllipse
 62
7
  6
CONTINUOUS
 10
315.6839648507
 20
204.1501089765
 30
0.0
 11
-0.2498600223
 21
0.43379745
 31
0.0
 40
0.5768037941
 41
3.1066989922
 42
3.9277026942
  0
ELLIPSE
  5
324
100
AcDbEntity
  8
0
100
AcDbEllipse
 62
7
  6
CONTINUOUS
 10
640.4836060527
 20
439.8870684118
 30
0.0
 11
230.9605557507
 21
443.8405655497
 31
0.0
 40
0.5458334979
 41
2.3390550388
 42
2.3401750687
  0
ELLIPSE
  5
325
100
AcDbEntity
  8
0
100
AcDbEllipse
 62
7
  6
CONTINUOUS
 10
641.3533473935
 20
439.3848906621
 30
0.0
 11
230.9605557507
 21
443.8405655497
 31
0.0
 40
0.5458334979
 41
-3.9578295103
 42
-3.955562495
  0
ELLIPSE
  5
326
100
AcDbEntity
  8
0
100
AcDbEllipse
 62
7
  6
CONTINUOUS
 10
632.7835596572
 20
444.3329786964
 30
0.0
 11
-335.2473193077
 21
623.4067300355
 31
0.0
 40
0.5544690592
 41
1.6302514345
 42
1.6310435678
  0
ENDSEC
  0
SECTION
  2
OBJECTS
  0
DICTIONARY
  5
C
100
AcDbDictionary
280
0
281
1
  3
ACAD_GROUP
350
D
  3
ACAD_MLINESTYLE
350
17
  3
ACAD_LAYOUT
350
1A
  3
ACAD_PLOTSETTINGS
350
19
  3
ACAD_PLOTSTYLENAME
350
E
  0
DICTIONARY
  5
D
102
{ACAD_REACTORS
330
C
102
}
100
AcDbDictionary
280
0
281
1
  0
ACDBDICTIONARYWDFLT
  5
E
102
{ACAD_REACTORS
330
C
102
}
100
AcDbDictionary
281
1
  3
Normal
350
F
100
AcDbDictionaryWithDefault
340
F
  0
DICTIONARY
  5
17
102
{ACAD_REACTORS
330
C
102
}
100
AcDbDictionary
280
0
281
1
  3
Standard
350
18
  0
DICTIONARY
  5
19
102
{ACAD_REACTORS
330
C
102
}
100
AcDbDictionary
281
1
  0
DICTIONARY
  5
1A
102
{ACAD_REACTORS
330
C
102
}
100
AcDbDictionary
281
1
  3
Model
350
327
  3
Layout1
350
328
  0
ACDBPLACEHOLDER
  5
F
102
{ACAD_REACTORS
330
E
102
}
  0
MLINESTYLE
  5
18
102
{ACAD_REACTORS
330
17
102
}
100
AcDbMlineStyle
  2
STANDARD
 70
0
  3

 62
256
 51
90.0
 52
90.0
 71
2
 49
0.5
 62
256
  6
BYLAYER
 49
-0.5
 62
256
  6
BYLAYER
  0
LAYOUT
  5
327
102
{ACAD_REACTORS
330
1A
102
}
100
AcDbPlotSettings
  1

  2
none_device
  4
ANSI_C_(22.00_x_17.00_Inches)
  6

 40
0.0
 41
0.0
 42
0.0
 43
0.0
 44
558.8
 45
431.8
 46
0.0
 47
0.0
 48
0.0
 49
0.0
140
0.0
141
0.0
142
1.0
143
1.0
 70
1024
 72
1
 73
0
 74
0
  7

 75
0
147
1.0
148
0.0
149
0.0
100
AcDbLayout
  1
Model
 70
0
 71
0
 10
0.0
 20
0.0
 11
558.8
 21
431.8
 12
0.0
 22
0.0
 32
0.0
 14
0.0
 24
0.0
 34
0.0
 15
0.0
 25
0.0
 35
0.0
146
0.0
 13
0.0
 23
0.0
 33
0.0
 16
1.0
 26
0.0
 36
0.0
 17
0.0
 27
1.0
 37
0.0
 76
0
330
214
345
0
346
0
  0
LAYOUT
  5
328
102
{ACAD_REACTORS
330
1A
102
}
100
AcDbPlotSettings
  1

  2
none_device
  4
ANSI_C_(22.00_x_17.00_Inches)
  6

 40
0.0
 41
0.0
 42
0.0
 43
0.0
 44
558.8
 45
431.8
 46
0.0
 47
0.0
 48
0.0
 49
0.0
140
0.0
141
0.0
142
1.0
143
1.0
 70
0
 72
1
 73
0
 74
0
  7

 75
0
147
1.0
148
0.0
149
0.0
100
AcDbLayout
  1
Layout1
 70
0
 71
1
 10
0.0
 20
0.0
 11
558.8
 21
431.8
 12
0.0
 22
0.0
 32
0.0
 14
0.0
 24
0.0
 34
0.0
 15
0.0
 25
0.0
 35
0.0
146
0.0
 13
0.0
 23
0.0
 33
0.0
 16
1.0
 26
0.0
 36
0.0
 17
0.0
 27
1.0
 37
0.0
 76
0
330
215
345
0
346
0
  0
ENDSEC
  0
EOF
