  0
SECTION
  2
HEADER
  9
$ACADVER
  1
AC1024
  9
$DWGCODEPAGE
  3
ANSI_1252
  9
$EXTMAX
 10
558.8
 20
431.8
 30
0.0
  9
$EXTMIN
 10
0.0
 20
0.0
 30
0.0
  9
$LIMMIN
 10
0.0
 20
0.0
  9
$LIMMAX
 10
558.8
 20
431.8
  9
$VIEWCTR
 10
279.4
 20
215.9
  9
$VIEWSIZE
 40
431.8
  9
$CLAYER
  8
0
  9
$LTSCALE
 40
30.734
  9
$CELTYPE
  6
BYLAYER
  9
$DIMSCALE
 40
1.0
  9
$DIMASZ
 40
3.0
  9
$DIMEXO
 40
0.5
  9
$DIMDLI
 40
21.2344
  9
$DIMEXE
 40
1.5
  9
$DIMCEN
 40
5.0292
  9
$DIMLFAC
 40
1.0
  9
$DIMBLK
  1
_FILLED
  9
$DIMALT
 70
0
  9
$DIMALTF
 40
0.0393700787
  9
$DIMTXT
 40
3.0
  9
$DIMTOL
 70
1
  9
$DIMLIM
 70
0
  9
$DIMTFAC
 40
1.0
  9
$DIMTP
 40
0.01
  9
$DIMTM
 40
0.01
  9
$DIMGAP
 40
0.625
  9
$DIMDSEP
 70
44
  9
$AUNITS
 70
0
  9
$PDMODE
 70
3
  9
$PDSIZE
 40
3.0
  9
$HANDSEED
  5
2FB
  9
$TILEMODE
 70
1
  9
$MEASUREMENT
 70
1
  9
$INSUNITS
 70
4
  0
ENDSEC
  0
SECTION
  2
CLASSES
  0
CLASS
  1
ACDBDICTIONARYWDFLT
  2
AcDbDictionaryWithDefault
  3
AutoCAD 2000
 90
0
 91
1
280
0
281
0
  0
CLASS
  1
ACDBPLACEHOLDER
  2
AcDbPlaceHolder
  3
AutoCAD 2000
 90
0
 91
1
280
0
281
0
  0
CLASS
  1
LAYOUT
  2
AcDbLayout
  3
AutoCAD 2000
 90
0
 91
0
280
0
281
0
  0
ENDSEC
  0
SECTION
  2
TABLES
  0
TABLE
  2
VPORT
  5
8
100
AcDbSymbolTable
 70
2
  0
VPORT
  5
1F4
100
AcDbSymbolTableRecord
100
AcDbViewportTableRecord
  2
*ACTIVE
 70
0
 10
0.0
 20
0.0
 11
1.0
 21
1.0
 12
279.4
 22
215.9
 13
0.0
 23
0.0
 14
1.0
 24
1.0
 15
0.0
 25
0.0
 16
0.0
 26
0.0
 36
1.0
 17
0.0
 27
0.0
 37
0.0
 40
431.8
 41
1.2941176471
 42
50.0
 43
0.0
 44
0.0
 50
0.0
 51
0.0
 71
0
 72
100
 73
1
 74
1
 75
0
 76
0
 77
0
 78
0
  0
ENDTAB
  0
TABLE
  2
LTYPE
  5
5
100
AcDbSymbolTable
 70
6
  0
LTYPE
  5
14
100
AcDbSymbolTableRecord
100
AcDbLinetypeTableRecord
  2
BYBLOCK
 70
0
  3

 72
65
 73
0
 40
0.0
  0
LTYPE
  5
15
100
AcDbSymbolTableRecord
100
AcDbLinetypeTableRecord
  2
BYLAYER
 70
0
  3

 72
65
 73
0
 40
0.0
  0
LTYPE
  5
16
100
AcDbSymbolTableRecord
100
AcDbLinetypeTableRecord
  2
CONTINUOUS
 70
64
  3
Solid line
 72
65
 73
0
 40
0.0
  0
LTYPE
  5
1F5
100
AcDbSymbolTableRecord
100
AcDbLinetypeTableRecord
  2
CENTER
 70
64
  3
____ _ ____ _ ____ _ ____ _ ____ _ ____ _ ____
 72
65
 73
4
 40
0.6
 49
0.375
 74
0
 49
-0.075
 74
0
 49
0.075
 74
0
 49
-0.075
 74
0
  0
LTYPE
  5
1F6
100
AcDbSymbolTableRecord
100
AcDbLinetypeTableRecord
  2
HIDDEN
 70
64
  3
- - - - - - - - - - - - - - - - - - - -
 72
65
 73
2
 40
0.2
 49
0.1
 74
0
 49
-0.1
 74
0
  0
LTYPE
  5
1F7
100
AcDbSymbolTableRecord
100
AcDbLinetypeTableRecord
  2
PHANTOM
 70
64
  3
_____ _ _ _____ _ _ _____ _ _ _____
 72
65
 73
6
 40
0.8
 49
0.45
 74
0
 49
-0.05
 74
0
 49
0.1
 74
0
 49
-0.05
 74
0
 49
0.1
 74
0
 49
-0.05
 74
0
  0
LTYPE
  5
1F8
100
AcDbSymbolTableRecord
100
AcDbLinetypeTableRecord
  2
DOT
 70
64
  3
. . . . . . . . . . . . . . . . . . . .
 72
65
 73
2
 40
0.2
 49
0.1
 74
0
 49
-0.1
 74
0
  0
LTYPE
  5
1F9
100
AcDbSymbolTableRecord
100
AcDbLinetypeTableRecord
  2
DASHED
 70
64
  3
- - - - - - - - - - - - - - - - - - - -
 72
65
 73
2
 40
0.2
 49
0.1
 74
0
 49
-0.1
 74
0
  0
ENDTAB
  0
TABLE
  2
LAYER
  5
2
100
AcDbSymbolTable
 70
36
  0
LAYER
  5
10
100
AcDbSymbolTableRecord
100
AcDbLayerTableRecord
  2
0
 70
0
 62
7
  6
CONTINUOUS
370
-3
390
F
  0
LAYER
  5
1FA
100
AcDbSymbolTableRecord
100
AcDbLayerTableRecord
  2
DEFAULT_1
 70
0
 62
7
  6
CENTER
370
-3
390
F
  0
LAYER
  5
1FB
100
AcDbSymbolTableRecord
100
AcDbLayerTableRecord
  2
DEFAULT_2
 70
0
 62
7
  6
HIDDEN
370
-3
390
F
  0
LAYER
  5
1FC
100
AcDbSymbolTableRecord
100
AcDbLayerTableRecord
  2
DEFAULT_3
 70
0
 62
7
  6
PHANTOM
370
-3
390
F
  0
LAYER
  5
1FD
100
AcDbSymbolTableRecord
100
AcDbLayerTableRecord
  2
ASSI
 70
0
 62
7
  6
CONTINUOUS
370
-3
390
F
  0
LAYER
  5
1FE
100
AcDbSymbolTableRecord
100
AcDbLayerTableRecord
  2
COORDINATE
 70
0
 62
7
  6
CONTINUOUS
370
-3
390
F
  0
LAYER
  5
1FF
100
AcDbSymbolTableRecord
100
AcDbLayerTableRecord
  2
COPY_PUBLISH
 70
0
 62
7
  6
CONTINUOUS
370
-3
390
F
  0
LAYER
  5
200
100
AcDbSymbolTableRecord
100
AcDbLayerTableRecord
  2
COSMETIC
 70
0
 62
7
  6
CONTINUOUS
370
-3
390
F
  0
LAYER
  5
201
100
AcDbSymbolTableRecord
100
AcDbLayerTableRecord
  2
COSMETICI
 70
0
 62
7
  6
CONTINUOUS
370
-3
390
F
  0
LAYER
  5
202
100
AcDbSymbolTableRecord
100
AcDbLayerTableRecord
  2
CURVE
 70
0
 62
7
  6
CONTINUOUS
370
-3
390
F
  0
LAYER
  5
203
100
AcDbSymbolTableRecord
100
AcDbLayerTableRecord
  2
DRAFT
 70
0
 62
7
  6
CONTINUOUS
370
-3
390
F
  0
LAYER
  5
204
100
AcDbSymbolTableRecord
100
AcDbLayerTableRecord
  2
IMPORT_IGES
 70
0
 62
7
  6
CONTINUOUS
370
-3
390
F
  0
LAYER
  5
205
100
AcDbSymbolTableRecord
100
AcDbLayerTableRecord
  2
INTFCLR_11
 70
0
 62
7
  6
CONTINUOUS
370
-3
390
F
  0
LAYER
  5
206
100
AcDbSymbolTableRecord
100
AcDbLayerTableRecord
  2
INTF_1
 70
0
 62
7
  6
CONTINUOUS
370
-3
390
F
  0
LAYER
  5
207
100
AcDbSymbolTableRecord
100
AcDbLayerTableRecord
  2
INTF_3
 70
0
 62
7
  6
CONTINUOUS
370
-3
390
F
  0
LAYER
  5
208
100
AcDbSymbolTableRecord
100
AcDbLayerTableRecord
  2
NOTE
 70
0
 62
7
  6
CONTINUOUS
370
-3
390
F
  0
LAYER
  5
209
100
AcDbSymbolTableRecord
100
AcDbLayerTableRecord
  2
PIANI
 70
0
 62
7
  6
CONTINUOUS
370
-3
390
F
  0
LAYER
  5
20A
100
AcDbSymbolTableRecord
100
AcDbLayerTableRecord
  2
PUNTI
 70
0
 62
7
  6
CONTINUOUS
370
-3
390
F
  0
LAYER
  5
20B
100
AcDbSymbolTableRecord
100
AcDbLayerTableRecord
  2
RACCORDO
 70
0
 62
7
  6
CONTINUOUS
370
-3
390
F
  0
LAYER
  5
20C
100
AcDbSymbolTableRecord
100
AcDbLayerTableRecord
  2
SIMBOLI
 70
0
 62
7
  6
CONTINUOUS
370
-3
390
F
  0
LAYER
  5
20D
100
AcDbSymbolTableRecord
100
AcDbLayerTableRecord
  2
SMUSSO
 70
0
 62
7
  6
CONTINUOUS
370
-3
390
F
  0
LAYER
  5
20E
100
AcDbSymbolTableRecord
100
AcDbLayerTableRecord
  2
SNAPLINE
 70
0
 62
7
  6
CONTINUOUS
370
-3
390
F
  0
LAYER
  5
20F
100
AcDbSymbolTableRecord
100
AcDbLayerTableRecord
  2
SUPERFICI
 70
0
 62
7
  6
CONTINUOUS
370
-3
390
F
  0
LAYER
  5
210
100
AcDbSymbolTableRecord
100
AcDbLayerTableRecord
  2
TRASH
 70
0
 62
7
  6
CONTINUOUS
370
-3
390
F
  0
LAYER
  5
211
100
AcDbSymbolTableRecord
100
AcDbLayerTableRecord
  2
___SHELL
 70
0
 62
7
  6
CONTINUOUS
370
-3
390
F
  0
ENDTAB
  0
TABLE
  2
STYLE
  5
3
100
AcDbSymbolTable
 70
1
  0
STYLE
  5
11
100
AcDbSymbolTableRecord
100
AcDbTextStyleTableRecord
  2
STANDARD
 70
0
 40
0.0
 41
0.8
 50
0.0
 71
0
 42
0.2
  3
txt
  4

  0
STYLE
  5
212
100
AcDbSymbolTableRecord
100
AcDbTextStyleTableRecord
  2
TEXTSTYLE_1
 70
0
 40
0.0
 41
0.8
 50
0.0
 71
0
 42
0.2
  3
gdt
  4

  0
ENDTAB
  0
TABLE
  2
VIEW
  5
6
100
AcDbSymbolTable
 70
0
  0
ENDTAB
  0
TABLE
  2
UCS
  5
7
100
AcDbSymbolTable
 70
0
  0
ENDTAB
  0
TABLE
  2
APPID
  5
9
100
AcDbSymbolTable
 70
1
  0
APPID
  5
213
100
AcDbSymbolTableRecord
100
AcDbRegAppTableRecord
  2
ACAD
 70
0
  0
ENDTAB
  0
TABLE
  2
BLOCK_RECORD
  5
1
100
AcDbSymbolTable
 70
0
  0
BLOCK_RECORD
  5
214
100
AcDbSymbolTableRecord
100
AcDbBlockTableRecord
  2
*Model_Space
  0
BLOCK_RECORD
  5
215
100
AcDbSymbolTableRecord
100
AcDbBlockTableRecord
  2
*Paper_Space
  0
BLOCK_RECORD
  5
216
100
AcDbSymbolTableRecord
100
AcDbBlockTableRecord
  2
_FILLED
  0
ENDTAB
  0
TABLE
  2
DIMSTYLE
  5
A
100
AcDbSymbolTable
 70
1
100
AcDbDimStyleTable
 71
0
  0
DIMSTYLE
105
217
100
AcDbSymbolTableRecord
100
AcDbDimStyleTableRecord
  2
STANDARD
 70
0
  3

  4

 40
1.0
 41
3.0
 42
0.5
 43
0.38
 44
1.5
 45
0.0
 46
0.0
 47
0.01
 48
0.01
140
3.0
141
0.09
142
0.0
143
25.4
144
1.0
145
0.0
146
1.0
147
0.625
 71
1
 72
0
 73
0
 74
0
 75
0
 76
0
 77
1
 78
8
 79
2
170
0
171
1
172
0
173
0
174
0
175
0
176
0
177
0
178
0
270
2
179
2
271
2
272
2
273
2
274
2
275
0
280
0
281
0
282
0
283
1
284
8
285
0
286
0
287
3
288
0
340
11
278
44
341
216
342
216
343
216
344
216
  0
ENDTAB
  0
ENDSEC
  0
SECTION
  2
BLOCKS
  0
BLOCK
  5
20
100
AcDbEntity
  8
0
100
AcDbBlockBegin
  2
*Model_Space
 70
0
 10
0.0
 20
0.0
 30
0.0
  3
*Model_Space
  1

  0
ENDBLK
  5
21
100
AcDbEntity
  8
0
100
AcDbBlockEnd
  0
BLOCK
  5
1C
100
AcDbEntity
  8
0
100
AcDbBlockBegin
  2
*Paper_Space
 70
0
 10
0.0
 20
0.0
 30
0.0
  3
*Paper_Space
  1

  0
ENDBLK
  5
1D
100
AcDbEntity
  8
0
100
AcDbBlockEnd
  0
BLOCK
  5
218
100
AcDbEntity
  8
0
100
AcDbBlockBegin
  2
_FILLED
 70
64
 10
0.0
 20
0.0
  3
_FILLED
  1

  0
SOLID
  5
219
100
AcDbEntity
  8
0
  6
BYBLOCK
 62
0
100
AcDbTrace
 10
0.0
 20
0.0
 11
-1.0
 21
0.3166666667
 12
-1.0
 22
-0.3166666667
 13
-1.0
 23
-0.3166666667
  0
ENDBLK
  5
21A
100
AcDbEntity
  8
0
  6
BYBLOCK
 62
0
100
AcDbBlockEnd
  0
ENDSEC
  0
SECTION
  2
ENTITIES
  0
LWPOLYLINE
  5
21B
100
AcDbEntity
  8
0
100
AcDbPolyline
 62
7
  6
CONTINUOUS
 90
19
 70
0
 10
265.243797453
 20
234.8360056624
 10
265.2110868057
 20
234.8138256782
 10
265.1243249519
 20
234.7488916856
 10
265.0409541534
 20
234.6776847755
 10
264.9611756806
 20
234.6006913897
 10
264.8851362486
 20
234.518339754
 10
264.8130921689
 20
234.4311367108
 10
264.7452366883
 20
234.3394953346
 10
264.6818234277
 20
234.2438521633
 10
264.6232752869
 20
234.1449032884
 10
264.5698305246
 20
234.0431131902
 10
264.5217575923
 20
233.9389204019
 10
264.4794152959
 20
233.8330493242
 10
264.4430525977
 20
233.7259446537
 10
264.4129151909
 20
233.6179932353
 10
264.3892996565
 20
233.5096928023
 10
264.3724924073
 20
233.4014004927
 10
264.3627973271
 20
233.2935280325
 10
264.3612948426
 20
233.2602033747
  0
LINE
  5
21C
100
AcDbEntity
  8
0
100
AcDbLine
 62
7
  6
CONTINUOUS
 10
265.2435531222
 20
234.8358448597
 11
266.1848498677
 21
235.4566212108
  0
LWPOLYLINE
  5
21D
100
AcDbEntity
  8
0
100
AcDbPolyline
 62
250
  6
CONTINUOUS
 90
9
 70
0
 10
265.243797453
 20
234.8360056624
 10
265.2645290168
 20
234.8474619481
 10
265.2925599345
 20
234.8573051498
 10
265.3230669917
 20
234.8623456645
 10
265.3557163356
 20
234.8625283319
 10
265.3901506708
 20
234.8578511544
 10
265.4259931666
 20
234.8483653171
 10
265.4628515805
 20
234.8341746277
 10
265.5003225532
 20
234.8154343817
  0
LINE
  5
21E
100
AcDbEntity
  8
0
100
AcDbLine
 62
250
  6
CONTINUOUS
 10
265.5003225532
 20
234.8154343817
 11
266.4429639341
 21
235.4370975072
  0
LWPOLYLINE
  5
21F
100
AcDbEntity
  8
0
100
AcDbPolyline
 62
7
  6
CONTINUOUS
 90
14
 70
0
 10
279.6454883266
 20
190.2806366871
 10
279.695013357
 20
190.2541528237
 10
279.7638132867
 20
190.2239581756
 10
279.8355756589
 20
190.1997568463
 10
279.9100743872
 20
190.1817144489
 10
279.9869052327
 20
190.170040546
 10
280.0656264507
 20
190.1649085113
 10
280.146066754
 20
190.1664370544
 10
280.2278728081
 20
190.1747361611
 10
280.3107354535
 20
190.1899042711
 10
280.394700922
 20
190.2121316353
 10
280.4796092667
 20
190.2415844305
 10
280.5650336763
 20
190.2783494813
 10
280.5899361691
 20
190.2904375023
  0
LINE
  5
220
100
AcDbEntity
  8
0
100
AcDbLine
 62
7
  6
CONTINUOUS
 10
264.8138761902
 20
198.8442199824
 11
279.6459336241
 21
190.2803759094
  0
LINE
  5
221
100
AcDbEntity
  8
0
100
AcDbLine
 62
7
  6
CONTINUOUS
 10
279.6454611857
 20
190.2806490246
 11
279.6459330198
 21
190.2803762584
  0
LINE
  5
222
100
AcDbEntity
  8
0
100
AcDbLine
 62
250
  6
CONTINUOUS
 10
264.8138761902
 20
198.8442199824
 11
264.7756022138
 21
198.8687574162
  0
LINE
  5
223
100
AcDbEntity
  8
0
100
AcDbLine
 62
250
  6
CONTINUOUS
 10
264.5077565432
 20
199.4788948104
 11
279.3326026208
 21
190.9192144842
  0
LWPOLYLINE
  5
224
100
AcDbEntity
  8
0
100
AcDbPolyline
 62
250
  6
CONTINUOUS
 90
11
 70
0
 10
264.7756022138
 20
198.8687574162
 10
264.7287508291
 20
198.9063857635
 10
264.6871913952
 20
198.9485585739
 10
264.6502919022
 20
198.9951660656
 10
264.617364773
 20
199.0467503716
 10
264.5887487355
 20
199.1026305116
 10
264.5642889929
 20
199.1629241163
 10
264.5433037147
 20
199.2301966281
 10
264.5262634498
 20
199.3056624162
 10
264.5141805294
 20
199.3885550324
 10
264.5077565432
 20
199.4788948104
  0
LWPOLYLINE
  5
225
100
AcDbEntity
  8
0
100
AcDbPolyline
 62
7
  6
CONTINUOUS
 90
12
 70
0
 10
264.3613313272
 20
199.6817485662
 10
264.3698182682
 20
199.5713296995
 10
264.3876296081
 20
199.4629864138
 10
264.4140917511
 20
199.361386143
 10
264.4485654031
 20
199.2670415724
 10
264.4905582006
 20
199.1798161564
 10
264.5398709411
 20
199.0993734849
 10
264.5959143766
 20
199.0261908029
 10
264.6580687599
 20
198.9606363616
 10
264.7261612769
 20
198.9026624616
 10
264.7996565466
 20
198.8526304862
 10
264.8152510373
 20
198.8434361051
  0
LWPOLYLINE
  5
226
100
AcDbEntity
  8
0
100
AcDbPolyline
 62
250
  6
CONTINUOUS
 90
22
 70
0
 10
264.5077565432
 20
233.0561832198
 10
264.5138284144
 20
233.1503491139
 10
264.5254529912
 20
233.2458872825
 10
264.5423519503
 20
233.3421992723
 10
264.5640976231
 20
233.4382150751
 10
264.5904516537
 20
233.5338924346
 10
264.621625784
 20
233.6302530968
 10
264.6577568681
 20
233.7274719925
 10
264.6985008433
 20
233.824410787
 10
264.7434814539
 20
233.9201526658
 10
264.792660047
 20
234.0146242861
 10
264.8455814286
 20
234.1069482244
 10
264.9009659167
 20
234.1951457034
 10
264.9576231986
 20
234.2779295747
 10
265.0157660616
 20
234.3561725836
 10
265.0762054428
 20
234.4311556741
 10
265.1381964975
 20
234.5020419408
 10
265.2019062567
 20
234.5691146207
 10
265.2698635227
 20
234.6346802333
 10
265.3428811836
 20
234.6986840894
 10
265.4198093218
 20
234.7592695546
 10
265.5003225532
 20
234.8154343817
  0
LWPOLYLINE
  5
227
100
AcDbEntity
  8
0
100
AcDbPolyline
 62
250
  6
CONTINUOUS
 90
9
 70
0
 10
264.3613313272
 20
199.6817485662
 10
264.3621425876
 20
199.6699453419
 10
264.3679614447
 20
199.6391550805
 10
264.3790630847
 20
199.6090129717
 10
264.3953285589
 20
199.5798419734
 10
264.4165835907
 20
199.5519546387
 10
264.4426004429
 20
199.5256497665
 10
264.4731003576
 20
199.5012092009
 10
264.5077565432
 20
199.4788948104
  0
LWPOLYLINE
  5
228
100
AcDbEntity
  8
0
100
AcDbPolyline
 62
250
  6
CONTINUOUS
 90
16
 70
0
 10
264.5077565432
 20
199.4788948104
 10
264.4297560977
 20
201.8298967375
 10
264.3655676443
 20
204.1185035578
 10
264.3141397652
 20
206.3439929658
 10
264.2747606149
 20
208.4859312345
 10
264.2459557421
 20
210.5632985986
 10
264.2263785853
 20
212.6350189974
 10
264.2158927825
 20
214.70272262
 10
264.2143519649
 20
216.7645054438
 10
264.2219149424
 20
218.8748863207
 10
264.2392238813
 20
221.0388097704
 10
264.2668478798
 20
223.2519049917
 10
264.3061398234
 20
225.555450758
 10
264.358631263
 20
227.9637534772
 10
264.4254009666
 20
230.4637919115
 10
264.5077565432
 20
233.0561832198
  0
LWPOLYLINE
  5
229
100
AcDbEntity
  8
0
100
AcDbPolyline
 62
7
  6
CONTINUOUS
 90
10
 70
0
 10
264.361304797
 20
233.2605020659
 10
264.2464790195
 20
229.5088589649
 10
264.1587670966
 20
225.7119315246
 10
264.1002953932
 20
221.9316692581
 10
264.0710689647
 20
218.1683839588
 10
264.0710906191
 20
214.4223791158
 10
264.1003610235
 20
210.693968571
 10
264.1588789133
 20
206.9834565062
 10
264.2466407544
 20
203.2911459644
 10
264.3613304609
 20
199.6817727373
  0
LINE
  5
22A
100
AcDbEntity
  8
0
100
AcDbLine
 62
250
  6
CONTINUOUS
 10
281.3446079048
 20
226.8317882998
 11
281.446466486
 21
226.8906066727
  0
LWPOLYLINE
  5
22B
100
AcDbEntity
  8
0
100
AcDbPolyline
 62
250
  6
CONTINUOUS
 90
9
 70
0
 10
264.3612948426
 20
233.2602033747
 10
264.3621423781
 20
233.2384048812
 10
264.3679609156
 20
233.2098286882
 10
264.3790623153
 20
233.181611697
 10
264.395327664
 20
233.1540562483
 10
264.4165826987
 20
233.1274576167
 10
264.4425996914
 20
233.1021008106
 10
264.4730999012
 20
233.0782575205
 10
264.5077565435
 20
233.0561832289
  0
LWPOLYLINE
  5
22C
100
AcDbEntity
  8
0
100
AcDbPolyline
 62
250
  6
CONTINUOUS
 90
22
 70
0
 10
280.348541014
 20
226.2422591343
 10
280.2721159383
 20
226.1914482588
 10
280.1974997226
 20
226.1356904425
 10
280.1250205169
 20
226.0755153578
 10
280.0553492065
 20
226.0118169916
 10
279.9883422838
 20
225.9447914473
 10
279.9231384159
 20
225.8736993029
 10
279.8596336875
 20
225.7983578156
 10
279.7985456268
 20
225.7195458395
 10
279.740300629
 20
225.6378064179
 10
279.6854768014
 20
225.5540501411
 10
279.6339380033
 20
225.4681701568
 10
279.5851576184
 20
225.3791202879
 10
279.5393371006
 20
225.2868663284
 10
279.4970699864
 20
225.1921518928
 10
279.4586289354
 20
225.0950532956
 10
279.4243510893
 20
224.9957347912
 10
279.3948002595
 20
224.8950319491
 10
279.3705402908
 20
224.7940872546
 10
279.3519232532
 20
224.6936879075
 10
279.3391880868
 20
224.5942746765
 10
279.3326026208
 20
224.4965028936
  0
LWPOLYLINE
  5
22D
100
AcDbEntity
  8
0
100
AcDbPolyline
 62
250
  6
CONTINUOUS
 90
22
 70
0
 10
280.714373754
 20
225.637598296
 10
280.6628048722
 20
225.6033122917
 10
280.6128480154
 20
225.5664230406
 10
280.5645031837
 20
225.5269305426
 10
280.5178347728
 20
225.4848100204
 10
280.4727783869
 20
225.4400862513
 10
280.4291408386
 20
225.3928335676
 10
280.3866429298
 20
225.3427988385
 10
280.3455638587
 20
225.2902351949
 10
280.3065480323
 20
225.2359763614
 10
280.2697874065
 20
225.1803642202
 10
280.2350900254
 20
225.1230568892
 10
280.2025244291
 20
225.0638624472
 10
280.1718694684
 20
225.0025082928
 10
280.1433462925
 20
224.9392670275
 10
280.1176868885
 20
224.8747645338
 10
280.094844421
 20
224.8087096464
 10
280.0748657254
 20
224.7413935306
 10
280.0586232955
 20
224.6743155657
 10
280.0464079628
 20
224.6079755448
 10
280.0379288958
 20
224.5418736748
 10
280.0331860946
 20
224.4760099557
  0
LINE
  5
22E
100
AcDbEntity
  8
0
100
AcDbLine
 62
250
  6
CONTINUOUS
 10
281.3246747389
 20
226.8445842001
 11
280.348541014
 21
226.2422591343
  0
LINE
  5
22F
100
AcDbEntity
  8
0
100
AcDbLine
 62
250
  6
CONTINUOUS
 10
281.6779590048
 20
226.2321803033
 11
280.714373754
 21
225.637598296
  0
LINE
  5
230
100
AcDbEntity
  8
0
100
AcDbLine
 62
250
  6
CONTINUOUS
 10
281.6768166197
 20
226.256333277
 11
281.7786979982
 21
226.3151648143
  0
LWPOLYLINE
  5
231
100
AcDbEntity
  8
0
100
AcDbPolyline
 62
250
  6
CONTINUOUS
 90
16
 70
0
 10
280.0331860946
 20
224.4760099557
 10
279.9941769607
 20
224.4581451538
 10
279.9518643283
 20
224.442696835
 10
279.9067015567
 20
224.4298305205
 10
279.8591725427
 20
224.4196840665
 10
279.8097865364
 20
224.4123661874
 10
279.7590726849
 20
224.4079552906
 10
279.7075743621
 20
224.4064986368
 10
279.6558433473
 20
224.4080118332
 10
279.6044339132
 20
224.4124786668
 10
279.5538968866
 20
224.4198512776
 10
279.504773747
 20
224.4300506717
 10
279.4575908248
 20
224.4429675676
 10
279.412853662
 20
224.458463567
 10
279.3710415954
 20
224.476372638
 10
279.3326026208
 20
224.4965028936
  0
LWPOLYLINE
  5
232
100
AcDbEntity
  8
0
100
AcDbPolyline
 62
7
  6
CONTINUOUS
 90
10
 70
0
 10
268.6769514751
 20
213.585058659
 10
268.6693880245
 20
213.5746513966
 10
268.6637190024
 20
213.5627288344
 10
268.6599444496
 20
213.5492909961
 10
268.6580692439
 20
213.5340447581
 10
268.658088613
 20
213.517283305
 10
268.659988032
 20
213.4998860698
 10
268.6637625882
 20
213.4821461559
 10
268.6694170837
 20
213.4637703961
 10
268.6769514751
 20
213.4447587655
  0
LINE
  5
233
100
AcDbEntity
  8
0
100
AcDbLine
 62
7
  6
CONTINUOUS
 10
268.5236403165
 20
214.2746086092
 11
268.5331248035
 21
214.2847638586
  0
LINE
  5
234
100
AcDbEntity
  8
0
100
AcDbLine
 62
7
  6
CONTINUOUS
 10
268.5710608407
 20
214.3253808068
 11
268.595017887
 21
214.3478624545
  0
LINE
  5
235
100
AcDbEntity
  8
0
100
AcDbLine
 62
7
  6
CONTINUOUS
 10
268.5953841711
 20
214.3480706903
 11
268.6130962738
 21
214.3612454949
  0
LINE
  5
236
100
AcDbEntity
  8
0
100
AcDbLine
 62
7
  6
CONTINUOUS
 10
268.6130962738
 20
214.3612454949
 11
268.6217772433
 21
214.3668257512
  0
LINE
  5
237
100
AcDbEntity
  8
0
100
AcDbLine
 62
7
  6
CONTINUOUS
 10
268.621418244
 20
214.3666415365
 11
268.6501087333
 21
214.3815886474
  0
LWPOLYLINE
  5
238
100
AcDbEntity
  8
0
100
AcDbPolyline
 62
7
  6
CONTINUOUS
 90
20
 70
0
 10
274.6904306285
 20
209.6770204194
 10
274.7119318677
 20
209.6782761905
 10
274.7349526149
 20
209.6758784058
 10
274.758579901
 20
209.6699253825
 10
274.7828377567
 20
209.6602750066
 10
274.807701902
 20
209.6470692479
 10
274.8321869708
 20
209.6308325889
 10
274.8562778124
 20
209.6114437084
 10
274.8799897368
 20
209.5890240196
 10
274.90238315
 20
209.5644621547
 10
274.9234057944
 20
209.5376714071
 10
274.9431104209
 20
209.5087387687
 10
274.9607149326
 20
209.4788134098
 10
274.9761346587
 20
209.4478560885
 10
274.9894548661
 20
209.4159063918
 10
275.0001481857
 20
209.3842316297
 10
275.0081091132
 20
209.3528429258
 10
275.0134435733
 20
209.3217294
 10
275.0159410097
 20
209.2921251645
 10
275.0155311646
 20
209.2644415485
  0
LWPOLYLINE
  5
239
100
AcDbEntity
  8
0
100
AcDbPolyline
 62
7
  6
CONTINUOUS
 90
21
 70
0
 10
274.6932017321
 20
209.6774081657
 10
274.7152936239
 20
209.6782209793
 10
274.7387564522
 20
209.6751517704
 10
274.7626737734
 20
209.6685426731
 10
274.7870450035
 20
209.6583105964
 10
274.8118704938
 20
209.6445384968
 10
274.8362352954
 20
209.627817633
 10
274.8601237071
 20
209.6080645312
 10
274.8835516081
 20
209.5853627683
 10
274.9056514985
 20
209.5605542247
 10
274.9264079273
 20
209.5335020538
 10
274.9458368506
 20
209.5043433945
 10
274.9631178498
 20
209.4743310891
 10
274.9781279532
 20
209.4434715521
 10
274.9909907023
 20
209.4117586988
 10
275.0012552518
 20
209.3804265092
 10
275.0088152481
 20
209.3494899247
 10
275.0137774216
 20
209.3189342222
 10
275.0160102201
 20
209.2899486919
 10
275.0154697069
 20
209.2629297143
 10
275.0121997779
 20
209.2374808854
  0
LWPOLYLINE
  5
23A
100
AcDbEntity
  8
0
100
AcDbPolyline
 62
7
  6
CONTINUOUS
 90
12
 70
0
 10
274.1208059388
 20
208.4961991579
 10
274.0041032658
 20
208.4977435923
 10
273.8845105825
 20
208.5110673076
 10
273.7611905526
 20
208.5360504302
 10
273.635946753
 20
208.5723249738
 10
273.508748635
 20
208.6200556256
 10
273.3796226872
 20
208.6790753308
 10
273.2504588174
 20
208.7485189425
 10
273.1212561081
 20
208.8285396013
 10
272.9920154961
 20
208.9189841778
 10
272.8646306682
 20
209.0185287017
 10
272.7391305461
 20
209.1273081549
  0
LWPOLYLINE
  5
23B
100
AcDbEntity
  8
0
100
AcDbPolyline
 62
7
  6
CONTINUOUS
 90
11
 70
0
 10
274.0148011202
 20
208.4971893632
 10
273.9051580387
 20
208.5079715321
 10
273.7932830368
 20
208.5284081706
 10
273.6791688169
 20
208.5586207108
 10
273.5628183662
 20
208.598485208
 10
273.4456538451
 20
208.6474963298
 10
273.3276901877
 20
208.70574033
 10
273.2089108638
 20
208.7731300238
 10
273.0906915071
 20
208.8489003106
 10
272.9729997647
 20
208.9331731821
 10
272.8558693287
 20
209.025827428
  0
LWPOLYLINE
  5
23C
100
AcDbEntity
  8
0
100
AcDbPolyline
 62
7
  6
CONTINUOUS
 90
3
 70
0
 10
268.8589732959
 20
212.4352440753
 10
268.8210603096
 20
212.4696580158
 10
268.7839960089
 20
212.5070968777
  0
LINE
  5
23D
100
AcDbEntity
  8
0
100
AcDbLine
 62
7
  6
CONTINUOUS
 10
268.7837639324
 20
212.5073835377
 11
268.7480358258
 21
212.5473353823
  0
LWPOLYLINE
  5
23E
100
AcDbEntity
  8
0
100
AcDbPolyline
 62
7
  6
CONTINUOUS
 90
3
 70
0
 10
268.7481412883
 20
212.5472113286
 10
268.7137085604
 20
212.5897665304
 10
268.6809414291
 20
212.6344778735
  0
LINE
  5
23F
100
AcDbEntity
  8
0
100
AcDbLine
 62
7
  6
CONTINUOUS
 10
268.9310654791
 20
212.890516903
 11
268.9404427364
 21
212.8779456961
  0
LWPOLYLINE
  5
240
100
AcDbEntity
  8
0
100
AcDbPolyline
 62
7
  6
CONTINUOUS
 90
5
 70
0
 10
268.6809768163
 20
212.6344765318
 10
268.6502394778
 20
212.6807778533
 10
268.6217772555
 20
212.7283376341
 10
268.5953841795
 20
212.7774373952
 10
268.5710608407
 20
212.8280774791
  0
LWPOLYLINE
  5
241
100
AcDbEntity
  8
0
100
AcDbPolyline
 62
7
  6
CONTINUOUS
 90
3
 70
0
 10
268.9146461888
 20
212.9175150496
 10
268.922494252
 20
212.9036760438
 10
268.9310537761
 20
212.8905325934
  0
LINE
  5
242
100
AcDbEntity
  8
0
100
AcDbLine
 62
7
  6
CONTINUOUS
 10
268.9075096521
 20
212.932049649
 11
268.9146564537
 21
212.9174992053
  0
LWPOLYLINE
  5
243
100
AcDbEntity
  8
0
100
AcDbPolyline
 62
7
  6
CONTINUOUS
 90
16
 70
0
 10
268.3151362072
 20
213.3965751387
 10
268.2935987806
 20
213.4477246084
 10
268.2747615323
 20
213.4993076874
 10
268.2587849173
 20
213.5509949476
 10
268.2457846943
 20
213.6025857973
 10
268.2359291535
 20
213.6535988711
 10
268.2293491345
 20
213.7032951944
 10
268.2260518245
 20
213.7510593959
 10
268.2259626165
 20
213.7969212078
 10
268.2290902498
 20
213.8410952284
 10
268.2355327445
 20
213.8835182779
 10
268.2453070978
 20
213.9235635238
 10
268.2582944462
 20
213.9606127262
 10
268.2743369783
 20
213.9943389354
 10
268.2933342166
 20
214.0246338935
 10
268.3151362072
 20
214.0513079752
  0
LWPOLYLINE
  5
244
100
AcDbEntity
  8
0
100
AcDbPolyline
 62
7
  6
CONTINUOUS
 90
13
 70
0
 10
268.3151362072
 20
213.3965751387
 10
268.2880755231
 20
213.4623236105
 10
268.2658695262
 20
213.5270338957
 10
268.2485187979
 20
213.5907063297
 10
268.2359455477
 20
213.6539728248
 10
268.2282289313
 20
213.7162022555
 10
268.2256043348
 20
213.775500045
 10
268.2282281031
 20
213.8317758912
 10
268.2359438915
 20
213.8851200939
 10
268.2485167651
 20
213.933908236
 10
268.2658677191
 20
213.9775984443
 10
268.2880743935
 20
214.0167318028
 10
268.3151362072
 20
214.0513079752
  0
LWPOLYLINE
  5
245
100
AcDbEntity
  8
0
100
AcDbPolyline
 62
7
  6
CONTINUOUS
 90
3
 70
0
 10
268.9224876196
 20
213.8431212525
 10
268.9146391023
 20
213.838322263
 10
268.9075096521
 20
213.8320089573
  0
LWPOLYLINE
  5
246
100
AcDbEntity
  8
0
100
AcDbPolyline
 62
7
  6
CONTINUOUS
 90
3
 70
0
 10
268.6501764738
 20
214.3816128502
 10
268.680939875
 20
214.392604187
 10
268.7137076821
 20
214.3995943626
  0
LWPOLYLINE
  5
247
100
AcDbEntity
  8
0
100
AcDbPolyline
 62
7
  6
CONTINUOUS
 90
3
 70
0
 10
273.997846461
 20
210.0606906084
 10
273.9617795314
 20
210.054472343
 10
273.9229377055
 20
210.053925176
  0
LINE
  5
248
100
AcDbEntity
  8
0
100
AcDbLine
 62
7
  6
CONTINUOUS
 10
273.9229377055
 20
210.053925176
 11
273.8824692699
 21
210.0591772859
  0
LWPOLYLINE
  5
249
100
AcDbEntity
  8
0
100
AcDbPolyline
 62
7
  6
CONTINUOUS
 90
3
 70
0
 10
273.6288590537
 20
211.1062896993
 10
273.6697381974
 20
211.0953937522
 10
273.7120907339
 20
211.0787126503
  0
LWPOLYLINE
  5
24A
100
AcDbEntity
  8
0
100
AcDbPolyline
 62
7
  6
CONTINUOUS
 90
3
 70
0
 10
273.882614752
 20
210.0591580253
 10
273.8417601824
 20
210.0700684723
 10
273.799423491
 20
210.0867583605
  0
LINE
  5
24B
100
AcDbEntity
  8
0
100
AcDbLine
 62
7
  6
CONTINUOUS
 10
273.7993787031
 20
210.086824514
 11
273.7557600225
 21
210.1091859961
  0
LINE
  5
24C
100
AcDbEntity
  8
0
100
AcDbLine
 62
7
  6
CONTINUOUS
 10
271.5523006182
 20
210.8638592771
 11
268.9764019191
 21
212.3511509023
  0
LINE
  5
24D
100
AcDbEntity
  8
0
100
AcDbLine
 62
7
  6
CONTINUOUS
 10
271.5725491206
 20
211.3412005136
 11
268.9943288794
 21
212.8298325682
  0
LWPOLYLINE
  5
24E
100
AcDbEntity
  8
0
100
AcDbPolyline
 62
7
  6
CONTINUOUS
 90
11
 70
0
 10
271.5725491206
 20
211.3412005136
 10
271.6075159283
 20
211.3196133214
 10
271.6421149122
 20
211.2954038818
 10
271.6763461487
 20
211.2685722392
 10
271.7104598619
 20
211.2388863949
 10
271.7442061395
 20
211.2065785279
 10
271.7768349086
 20
211.1723449816
 10
271.8081912449
 20
211.136298925
 10
271.8384306182
 20
211.0983275048
 10
271.867268564
 20
211.05878804
 10
271.8947992083
 20
211.0174805056
  0
LWPOLYLINE
  5
24F
100
AcDbEntity
  8
0
100
AcDbPolyline
 62
7
  6
CONTINUOUS
 90
3
 70
0
 10
268.9764019191
 20
212.3511509023
 10
268.9370074024
 20
212.3757150524
 10
268.8978163533
 20
212.4037679473
  0
LWPOLYLINE
  5
250
100
AcDbEntity
  8
0
100
AcDbPolyline
 62
7
  6
CONTINUOUS
 90
9
 70
0
 10
271.5725491206
 20
211.3412005136
 10
271.6169041405
 20
211.3132060885
 10
271.660244583
 20
211.2814970454
 10
271.7025706315
 20
211.2460734906
 10
271.7441969541
 20
211.2066013672
 10
271.7848096164
 20
211.1634151566
 10
271.823466017
 20
211.1175178418
 10
271.8601209096
 20
211.0688461462
 10
271.8948208028
 20
211.0174640775
  0
LINE
  5
251
100
AcDbEntity
  8
0
100
AcDbLine
 62
7
  6
CONTINUOUS
 10
273.7557600225
 20
210.1091859961
 11
273.7121372434
 21
210.1371972803
  0
LINE
  5
252
100
AcDbEntity
  8
0
100
AcDbLine
 62
7
  6
CONTINUOUS
 10
273.7122173224
 20
210.137163262
 11
273.6700711584
 21
210.1691755841
  0
LWPOLYLINE
  5
253
100
AcDbEntity
  8
0
100
AcDbPolyline
 62
7
  6
CONTINUOUS
 90
3
 70
0
 10
268.9717343271
 20
212.8457038732
 10
268.982843768
 20
212.8372229783
 10
268.9943288794
 20
212.8298325682
  0
LWPOLYLINE
  5
254
100
AcDbEntity
  8
0
100
AcDbPolyline
 62
7
  6
CONTINUOUS
 90
18
 70
0
 10
272.9343289235
 20
209.4599790072
 10
273.0246050769
 20
209.3877118054
 10
273.1155160441
 20
209.321841343
 10
273.2071599652
 20
209.2623868775
 10
273.2994378327
 20
209.2093286467
 10
273.3910602473
 20
209.1634254995
 10
273.4819761068
 20
209.1248111312
 10
273.5722374256
 20
209.0933523776
 10
273.6607098814
 20
209.0694080333
 10
273.7473169987
 20
209.0530618987
 10
273.832137785
 20
209.0442316462
 10
273.9142714015
 20
209.043027028
 10
273.9937891417
 20
209.0495497858
 10
274.0706235803
 20
209.0637004256
 10
274.1436657361
 20
209.0852868087
 10
274.2127958341
 20
209.1143982398
 10
274.2781381085
 20
209.1509480013
 10
274.2902852813
 20
209.1588431465
  0
LINE
  5
255
100
AcDbEntity
  8
0
100
AcDbLine
 62
7
  6
CONTINUOUS
 10
268.8978163533
 20
212.4037679473
 11
268.8588610043
 21
212.43533509
  0
LWPOLYLINE
  5
256
100
AcDbEntity
  8
0
100
AcDbPolyline
 62
7
  6
CONTINUOUS
 90
8
 70
0
 10
273.6700711584
 20
210.1691755841
 10
273.6293217676
 20
210.2052230995
 10
273.5895905235
 20
210.2457391545
 10
273.5512569956
 20
210.2902909485
 10
273.5154588483
 20
210.3375794757
 10
273.482209681
 20
210.3878091996
 10
273.4514974638
 20
210.4407765644
 10
273.4244212085
 20
210.4945704148
  0
LINE
  5
257
100
AcDbEntity
  8
0
100
AcDbLine
 62
7
  6
CONTINUOUS
 10
268.9610216446
 20
212.8552550514
 11
268.9717505354
 21
212.8456895256
  0
LWPOLYLINE
  5
258
100
AcDbEntity
  8
0
100
AcDbPolyline
 62
7
  6
CONTINUOUS
 90
4
 70
0
 10
271.5886577245
 20
210.8354635972
 10
271.5770144884
 20
210.8462113759
 10
271.5648954612
 20
210.8556766072
 10
271.5523006182
 20
210.8638592771
  0
LWPOLYLINE
  5
259
100
AcDbEntity
  8
0
100
AcDbPolyline
 62
7
  6
CONTINUOUS
 90
12
 70
0
 10
272.7407755866
 20
209.1257335448
 10
272.6154903032
 20
209.2451899435
 10
272.4955237751
 20
209.3704491835
 10
272.3792883522
 20
209.5031965262
 10
272.2667340996
 20
209.6433256631
 10
272.159514001
 20
209.7887863473
 10
272.0577108307
 20
209.9396599615
 10
271.9612513278
 20
210.0958706538
 10
271.8715536249
 20
210.2551318575
 10
271.789093282
 20
210.416683035
 10
271.7134043398
 20
210.5812902891
 10
271.6444921655
 20
210.7489567271
  0
LINE
  5
25A
100
AcDbEntity
  8
0
100
AcDbLine
 62
7
  6
CONTINUOUS
 10
268.9505417521
 20
212.8660574429
 11
268.9610114049
 21
212.8552656044
  0
LWPOLYLINE
  5
25B
100
AcDbEntity
  8
0
100
AcDbPolyline
 62
7
  6
CONTINUOUS
 90
11
 70
0
 10
272.6277483409
 20
209.2329859946
 10
272.5167618936
 20
209.3474927083
 10
272.4092088244
 20
209.4678446438
 10
272.3051385111
 20
209.5941131974
 10
272.2045078536
 20
209.726230628
 10
272.1085706825
 20
209.862579166
 10
272.0173667425
 20
210.0032670995
 10
271.9308638467
 20
210.1481905326
 10
271.850207187
 20
210.2954129858
 10
271.7757806372
 20
210.4442902072
 10
271.7072076167
 20
210.5954706749
  0
LINE
  5
25C
100
AcDbEntity
  8
0
100
AcDbLine
 62
7
  6
CONTINUOUS
 10
271.5999819245
 20
210.823242402
 11
271.5887049865
 21
210.8354125966
  0
LINE
  5
25D
100
AcDbEntity
  8
0
100
AcDbLine
 62
7
  6
CONTINUOUS
 10
268.9404612262
 20
212.8779209128
 11
268.9505546377
 21
212.8660422782
  0
LINE
  5
25E
100
AcDbEntity
  8
0
100
AcDbLine
 62
7
  6
CONTINUOUS
 10
271.6108322253
 20
210.8097333962
 11
271.5999819245
 21
210.823242402
  0
LWPOLYLINE
  5
25F
100
AcDbEntity
  8
0
100
AcDbPolyline
 62
7
  6
CONTINUOUS
 90
5
 70
0
 10
272.4328805263
 20
210.005414136
 10
272.5103719182
 20
209.9024407853
 10
272.590518984
 20
209.8040333919
 10
272.6732615337
 20
209.7103947015
 10
272.7586558955
 20
209.6213197244
  0
LINE
  5
260
100
AcDbEntity
  8
0
100
AcDbLine
 62
7
  6
CONTINUOUS
 10
271.6207805572
 20
210.7954518126
 11
271.6108855962
 21
210.809666878
  0
LWPOLYLINE
  5
261
100
AcDbEntity
  8
0
100
AcDbPolyline
 62
7
  6
CONTINUOUS
 90
4
 70
0
 10
271.8947992083
 20
211.0174805056
 10
271.9267606667
 20
210.9645655094
 10
271.9556725673
 20
210.9105486374
 10
271.9818258281
 20
210.8550160716
  0
LINE
  5
262
100
AcDbEntity
  8
0
100
AcDbLine
 62
7
  6
CONTINUOUS
 10
271.6295843339
 20
210.7807242329
 11
271.6207559313
 21
210.7954871902
  0
LWPOLYLINE
  5
263
100
AcDbEntity
  8
0
100
AcDbPolyline
 62
7
  6
CONTINUOUS
 90
4
 70
0
 10
271.9209291734
 20
210.9746053602
 10
271.9450926569
 20
210.9311206005
 10
271.9671012329
 20
210.8873456602
 10
271.9871439762
 20
210.8429614819
  0
LWPOLYLINE
  5
264
100
AcDbEntity
  8
0
100
AcDbPolyline
 62
7
  6
CONTINUOUS
 90
3
 70
0
 10
271.6444921655
 20
210.7489567271
 10
271.6374964162
 20
210.7652161812
 10
271.6295843339
 20
210.7807242329
  0
LWPOLYLINE
  5
265
100
AcDbEntity
  8
0
100
AcDbPolyline
 62
7
  6
CONTINUOUS
 90
26
 70
0
 10
271.9818258281
 20
210.8550160716
 10
272.0632608012
 20
210.6549618952
 10
272.1276044442
 20
210.5149392072
 10
272.1982478438
 20
210.3778977041
 10
272.2756852314
 20
210.2430482435
 10
272.3594147111
 20
210.1111755284
 10
272.4479373724
 20
209.9846375928
 10
272.5413366695
 20
209.8635276255
 10
272.6395217168
 20
209.7477481231
 10
272.7407315238
 20
209.6393707473
 10
272.845017394
 20
209.5385284896
 10
272.9523226837
 20
209.4450852533
 10
273.060724773
 20
209.3607092365
 10
273.170238346
 20
209.2855648785
 10
273.2808466096
 20
209.2194865125
 10
273.3905805203
 20
209.1636476382
 10
273.4994247376
 20
209.1182302786
 10
273.6073961693
 20
209.0830533227
 10
273.7125749728
 20
209.0587460512
 10
273.814916997
 20
209.0455038577
 10
273.9144713056
 20
209.0431342056
 10
274.0094582715
 20
209.0516847088
 10
274.0997985644
 20
209.0713553537
 10
274.1855787289
 20
209.1019503436
 10
274.2652675283
 20
209.1429233707
 10
274.2902920391
 20
209.1588320059
  0
LWPOLYLINE
  5
266
100
AcDbEntity
  8
0
100
AcDbPolyline
 62
7
  6
CONTINUOUS
 90
6
 70
0
 10
271.9871439762
 20
210.8429614819
 10
272.053334714
 20
210.6781989885
 10
272.1058073428
 20
210.5605630742
 10
272.1626365537
 20
210.4450590394
 10
272.2239847256
 20
210.331414918
 10
272.289684775
 20
210.2198999521
  0
LWPOLYLINE
  5
267
100
AcDbEntity
  8
0
100
AcDbPolyline
 62
7
  6
CONTINUOUS
 90
6
 70
0
 10
272.0533356408
 20
212.4545771289
 10
271.9871581659
 20
212.3657421628
 10
271.9671172985
 20
212.3443842573
 10
271.945098287
 20
212.3259129259
 10
271.9209043289
 20
212.310222192
 10
271.907195049
 20
212.3030335005
  0
LINE
  5
268
100
AcDbEntity
  8
0
100
AcDbLine
 62
7
  6
CONTINUOUS
 10
272.0632608047
 20
212.466428054
 11
272.0052212528
 21
212.3899868512
  0
LINE
  5
269
100
AcDbEntity
  8
0
100
AcDbLine
 62
7
  6
CONTINUOUS
 10
271.6444921655
 20
212.8567279787
 11
271.7072062984
 21
212.9384287703
  0
LINE
  5
26A
100
AcDbEntity
  8
0
100
AcDbLine
 62
7
  6
CONTINUOUS
 10
272.0052212528
 20
212.3899868512
 11
271.9818258547
 21
212.3597900349
  0
LWPOLYLINE
  5
26B
100
AcDbEntity
  8
0
100
AcDbPolyline
 62
7
  6
CONTINUOUS
 90
5
 70
0
 10
271.6444921655
 20
212.8567279787
 10
271.7134043291
 20
212.9455187555
 10
271.7890932505
 20
213.023460746
 10
271.8715535625
 20
213.0905508591
 10
271.8970630881
 20
213.1081861096
  0
LINE
  5
26C
100
AcDbEntity
  8
0
100
AcDbLine
 62
7
  6
CONTINUOUS
 10
271.7072062984
 20
212.9384287703
 11
271.7757741927
 21
213.0110920246
  0
LINE
  5
26D
100
AcDbEntity
  8
0
100
AcDbLine
 62
7
  6
CONTINUOUS
 10
272.1276044503
 20
212.5326319561
 11
272.0632608047
 21
212.466428054
  0
LINE
  5
26E
100
AcDbEntity
  8
0
100
AcDbLine
 62
7
  6
CONTINUOUS
 10
271.9818258547
 20
212.3597900349
 11
271.9556725889
 21
212.3343132987
  0
LINE
  5
26F
100
AcDbEntity
  8
0
100
AcDbLine
 62
7
  6
CONTINUOUS
 10
271.7757741927
 20
213.0110920246
 11
271.8501918071
 21
213.0747154139
  0
LWPOLYLINE
  5
270
100
AcDbEntity
  8
0
100
AcDbPolyline
 62
7
  6
CONTINUOUS
 90
3
 70
0
 10
271.6302715919
 20
212.8425010907
 10
271.6375506201
 20
212.8485156518
 10
271.6444921655
 20
212.8567279787
  0
LINE
  5
271
100
AcDbEntity
  8
0
100
AcDbLine
 62
7
  6
CONTINUOUS
 10
272.1982478516
 20
212.588596058
 11
272.1276044503
 21
212.5326319561
  0
LINE
  5
272
100
AcDbEntity
  8
0
100
AcDbLine
 62
7
  6
CONTINUOUS
 10
271.9556725889
 20
212.3343132987
 11
271.9267606519
 21
212.3135561805
  0
LINE
  5
273
100
AcDbEntity
  8
0
100
AcDbLine
 62
7
  6
CONTINUOUS
 10
271.8501918071
 20
213.0747154139
 11
271.897081704
 21
213.1081552449
  0
LWPOLYLINE
  5
274
100
AcDbEntity
  8
0
100
AcDbPolyline
 62
7
  6
CONTINUOUS
 90
9
 70
0
 10
271.897081704
 20
213.1081552449
 10
271.9308317816
 20
213.1295057462
 10
272.0173141798
 20
213.1752520157
 10
272.1085056324
 20
213.2113249118
 10
272.2044475324
 20
213.2375753966
 10
272.3050909403
 20
213.2541481788
 10
272.4091662459
 20
213.2608541459
 10
272.5167056128
 20
213.2575668464
 10
272.6276705941
 20
213.2444091343
  0
LWPOLYLINE
  5
275
100
AcDbEntity
  8
0
100
AcDbPolyline
 62
7
  6
CONTINUOUS
 90
9
 70
0
 10
271.8970630881
 20
213.1081861096
 10
271.9612512124
 20
213.1470091175
 10
272.0577106521
 20
213.1926099771
 10
272.159513785
 20
213.2266817232
 10
272.266733898
 20
213.2490513472
 10
272.3792881908
 20
213.2598864024
 10
272.4955236374
 20
213.2590255628
 10
272.6154901464
 20
213.2462942327
 10
272.7391303537
 20
213.2218627411
  0
LINE
  5
276
100
AcDbEntity
  8
0
100
AcDbLine
 62
7
  6
CONTINUOUS
 10
272.2819400453
 20
212.6376588588
 11
272.1982478516
 21
212.588596058
  0
LWPOLYLINE
  5
277
100
AcDbEntity
  8
0
100
AcDbPolyline
 62
7
  6
CONTINUOUS
 90
5
 70
0
 10
272.2818642095
 20
212.6377976337
 10
272.2239874053
 20
212.6055344716
 10
272.1626388233
 20
212.5623118362
 10
272.1058090262
 20
212.5120192872
 10
272.0533356408
 20
212.4545771289
  0
LINE
  5
278
100
AcDbEntity
  8
0
100
AcDbLine
 62
7
  6
CONTINUOUS
 10
271.9267606519
 20
212.3135561805
 11
271.9072298168
 21
212.3029696932
  0
LINE
  5
279
100
AcDbEntity
  8
0
100
AcDbLine
 62
7
  6
CONTINUOUS
 10
271.6208195387
 20
212.8374678371
 11
271.6302655513
 21
212.8425109863
  0
LINE
  5
27A
100
AcDbEntity
  8
0
100
AcDbLine
 62
7
  6
CONTINUOUS
 10
271.907195049
 20
212.3030335005
 11
271.8947315828
 21
212.2974176619
  0
LWPOLYLINE
  5
27B
100
AcDbEntity
  8
0
100
AcDbPolyline
 62
7
  6
CONTINUOUS
 90
11
 70
0
 10
271.8947315828
 20
212.2974176619
 10
271.8671690388
 20
212.2878164508
 10
271.8383164965
 20
212.2815186002
 10
271.8080734023
 20
212.2784236347
 10
271.7767281323
 20
212.2785478449
 10
271.7441368172
 20
212.2819506938
 10
271.7104427809
 20
212.2885724044
 10
271.6763652085
 20
212.2982504187
 10
271.6421437176
 20
212.3109304868
 10
271.6075383804
 20
212.3266666799
 10
271.5725491206
 20
212.3454589541
  0
LWPOLYLINE
  5
27C
100
AcDbEntity
  8
0
100
AcDbPolyline
 62
7
  6
CONTINUOUS
 90
9
 70
0
 10
271.8948206864
 20
212.2974298203
 10
271.86012066
 20
212.2860222792
 10
271.8234657039
 20
212.2795984462
 10
271.7848093787
 20
212.2782747299
 10
271.7441968614
 20
212.2819339951
 10
271.7025706457
 20
212.2904907796
 10
271.6602446304
 20
212.3039164428
 10
271.6169041832
 20
212.3222392028
 10
271.5725491206
 20
212.345458954
  0
LWPOLYLINE
  5
27D
100
AcDbEntity
  8
0
100
AcDbPolyline
 62
7
  6
CONTINUOUS
 90
5
 70
0
 10
272.5103744451
 20
212.7054390509
 10
272.432883369
 20
212.6915583166
 10
272.3592428854
 20
212.6702781244
 10
272.289687694
 20
212.6416047887
 10
272.2818642095
 20
212.6377976337
  0
LWPOLYLINE
  5
27E
100
AcDbEntity
  8
0
100
AcDbPolyline
 62
7
  6
CONTINUOUS
 90
4
 70
0
 10
271.5888164489
 20
212.834399204
 10
271.6001412606
 20
212.8335935048
 10
271.6109694756
 20
212.8346386989
 10
271.6208624721
 20
212.8374801685
  0
LINE
  5
27F
100
AcDbEntity
  8
0
100
AcDbLine
 62
7
  6
CONTINUOUS
 10
271.5771295043
 20
212.8370783323
 11
271.5887864696
 21
212.8344060722
  0
LINE
  5
280
100
AcDbEntity
  8
0
100
AcDbLine
 62
7
  6
CONTINUOUS
 10
268.9717120443
 20
213.8443096822
 11
268.960986947
 21
213.8471215473
  0
LWPOLYLINE
  5
281
100
AcDbEntity
  8
0
100
AcDbPolyline
 62
7
  6
CONTINUOUS
 90
4
 70
0
 10
268.858989968
 20
214.3866936759
 10
268.8972956181
 20
214.3735498035
 10
268.9364758858
 20
214.3563930955
 10
268.9764019191
 20
214.3352676526
  0
LINE
  5
282
100
AcDbEntity
  8
0
100
AcDbLine
 62
7
  6
CONTINUOUS
 10
268.9828434804
 20
213.8399615327
 11
268.9717338317
 21
213.8443045103
  0
LWPOLYLINE
  5
283
100
AcDbEntity
  8
0
100
AcDbPolyline
 62
7
  6
CONTINUOUS
 90
3
 70
0
 10
271.5523006182
 20
212.8479760273
 10
271.5649692742
 20
212.8415995928
 10
271.5771412095
 20
212.8370739803
  0
LINE
  5
284
100
AcDbEntity
  8
0
100
AcDbLine
 62
7
  6
CONTINUOUS
 10
268.9943288794
 20
213.8340910086
 11
268.9828306007
 21
213.8399649737
  0
LINE
  5
285
100
AcDbEntity
  8
0
100
AcDbLine
 62
7
  6
CONTINUOUS
 10
273.7121356766
 20
211.0786461539
 11
273.7557600225
 21
211.0562879376
  0
LINE
  5
286
100
AcDbEntity
  8
0
100
AcDbLine
 62
7
  6
CONTINUOUS
 10
271.5725491206
 20
212.3454589541
 11
268.9943288794
 21
213.8340910086
  0
LINE
  5
287
100
AcDbEntity
  8
0
100
AcDbLine
 62
7
  6
CONTINUOUS
 10
271.5523006182
 20
212.8479760273
 11
268.9764019191
 21
214.3352676526
  0
LINE
  5
288
100
AcDbEntity
  8
0
100
AcDbLine
 62
7
  6
CONTINUOUS
 10
273.7557600225
 20
211.0562879376
 11
273.7993771354
 21
211.0282733845
  0
LWPOLYLINE
  5
289
100
AcDbEntity
  8
0
100
AcDbPolyline
 62
7
  6
CONTINUOUS
 90
10
 70
0
 10
273.7992968285
 20
211.0283074953
 10
273.8414275285
 20
210.9962866087
 10
273.8821523594
 20
210.9602254143
 10
273.9218502388
 20
210.9196909288
 10
273.9601431923
 20
210.8751166788
 10
273.9958962518
 20
210.8278026434
 10
274.029097122
 20
210.7775447091
 10
274.059759668
 20
210.7245478942
 10
274.0867879543
 20
210.6707257552
 10
274.1099967975
 20
210.6162275581
  0
LWPOLYLINE
  5
28A
100
AcDbEntity
  8
0
100
AcDbPolyline
 62
7
  6
CONTINUOUS
 90
16
 70
0
 10
273.8321438334
 20
212.0379763551
 10
273.7473235722
 20
212.1273945387
 10
273.6607166197
 20
212.2113177191
 10
273.572243688
 20
212.2897515326
 10
273.481981533
 20
212.3626888919
 10
273.3910648948
 20
212.4291739044
 10
273.299441864
 20
212.4891310883
 10
273.2071634375
 20
212.5426354029
 10
273.1155191176
 20
212.5889568472
 10
273.0246080164
 20
212.6279613419
 10
272.9343318893
 20
212.6597834634
 10
272.8456846123
 20
212.6840964288
 10
272.7586586272
 20
212.7008434299
 10
272.673264005
 20
212.7100827152
 10
272.5905213336
 20
212.7116602406
 10
272.5103744451
 20
212.7054390509
  0
LINE
  5
28B
100
AcDbEntity
  8
0
100
AcDbLine
 62
7
  6
CONTINUOUS
 10
274.6928268999
 20
210.4057884979
 11
274.6705036534
 21
210.4369996776
  0
LINE
  5
28C
100
AcDbEntity
  8
0
100
AcDbLine
 62
7
  6
CONTINUOUS
 10
273.4244212085
 20
210.4945704148
 11
273.4005694393
 21
210.5507027854
  0
LINE
  5
28D
100
AcDbEntity
  8
0
100
AcDbLine
 62
7
  6
CONTINUOUS
 10
273.401167422
 20
210.5490426134
 11
273.3809206571
 21
210.6065010702
  0
LINE
  5
28E
100
AcDbEntity
  8
0
100
AcDbLine
 62
7
  6
CONTINUOUS
 10
273.3815510658
 20
210.6043421458
 11
273.3655170106
 21
210.6614464322
  0
LINE
  5
28F
100
AcDbEntity
  8
0
100
AcDbLine
 62
7
  6
CONTINUOUS
 10
273.3661133082
 20
210.6590032367
 11
273.3544968134
 21
210.7155139051
  0
LINE
  5
290
100
AcDbEntity
  8
0
100
AcDbLine
 62
7
  6
CONTINUOUS
 10
273.3549434322
 20
210.7132268731
 11
273.3477227141
 21
210.7687290099
  0
LINE
  5
291
100
AcDbEntity
  8
0
100
AcDbLine
 62
7
  6
CONTINUOUS
 10
275.0122848033
 20
210.476594677
 11
275.0155316642
 21
210.4465875276
  0
LWPOLYLINE
  5
292
100
AcDbEntity
  8
0
100
AcDbPolyline
 62
7
  6
CONTINUOUS
 90
4
 70
0
 10
273.3479532589
 20
210.7668127046
 10
273.3454142371
 20
210.8193700076
 10
273.3477167503
 20
210.8673500395
 10
273.3544848842
 20
210.9127559619
  0
LWPOLYLINE
  5
293
100
AcDbEntity
  8
0
100
AcDbPolyline
 62
7
  6
CONTINUOUS
 90
4
 70
0
 10
274.1630965319
 20
210.3983894718
 10
274.16563007
 20
210.3458292276
 10
274.1633327093
 20
210.2978521682
 10
274.1565800413
 20
210.2524551766
  0
LWPOLYLINE
  5
294
100
AcDbEntity
  8
0
100
AcDbPolyline
 62
7
  6
CONTINUOUS
 90
3
 70
0
 10
273.3454168725
 20
210.8176924358
 10
273.3474629147
 20
210.8655474472
 10
273.3539626049
 20
210.9106962764
  0
LWPOLYLINE
  5
295
100
AcDbEntity
  8
0
100
AcDbPolyline
 62
7
  6
CONTINUOUS
 90
3
 70
0
 10
274.1656274439
 20
210.3475057787
 10
274.1635860985
 20
210.299653249
 10
274.1571011587
 20
210.2545129974
  0
LINE
  5
296
100
AcDbEntity
  8
0
100
AcDbLine
 62
7
  6
CONTINUOUS
 10
274.1571011587
 20
210.2545129974
 11
274.1455886499
 21
210.2110994167
  0
LINE
  5
297
100
AcDbEntity
  8
0
100
AcDbLine
 62
7
  6
CONTINUOUS
 10
273.3539626049
 20
210.9106962764
 11
273.3655010629
 21
210.954126035
  0
LWPOLYLINE
  5
298
100
AcDbEntity
  8
0
100
AcDbPolyline
 62
7
  6
CONTINUOUS
 90
5
 70
0
 10
273.3648029307
 20
210.952025807
 10
273.3809043526
 20
210.9913309
 10
273.4005547292
 20
211.0244993618
 10
273.4238151052
 20
211.0525564204
 10
273.4508007239
 20
211.0753327365
  0
LWPOLYLINE
  5
299
100
AcDbEntity
  8
0
100
AcDbPolyline
 62
7
  6
CONTINUOUS
 90
3
 70
0
 10
273.380213922
 20
210.9896413444
 10
273.3999648071
 20
211.023437154
 10
273.4232504826
 20
211.0519830466
  0
LWPOLYLINE
  5
29A
100
AcDbEntity
  8
0
100
AcDbPolyline
 62
7
  6
CONTINUOUS
 90
3
 70
0
 10
273.4232504826
 20
211.0519830466
 10
273.4500549788
 20
211.0749422712
 10
273.4550748509
 20
211.0783951923
  0
LWPOLYLINE
  5
29B
100
AcDbEntity
  8
0
100
AcDbPolyline
 62
7
  6
CONTINUOUS
 90
6
 70
0
 10
273.4550748509
 20
211.0783951923
 10
273.4803925638
 20
211.0926505967
 10
273.5135028565
 20
211.1046862485
 10
273.5496159919
 20
211.1109312873
 10
273.5885003292
 20
211.1115027842
 10
273.6287026589
 20
211.1063313849
  0
LINE
  5
29C
100
AcDbEntity
  8
0
100
AcDbLine
 62
7
  6
CONTINUOUS
 10
268.7481436777
 20
214.4024939914
 11
268.7840082489
 21
214.4012884339
  0
LWPOLYLINE
  5
29D
100
AcDbEntity
  8
0
100
AcDbPolyline
 62
7
  6
CONTINUOUS
 90
5
 70
0
 10
268.9609999507
 20
213.8471199511
 10
268.9505300252
 20
213.8484051538
 10
268.9404359362
 20
213.8481628595
 10
268.9310532496
 20
213.846401247
 10
268.9224881633
 20
213.8431202605
  0
LINE
  5
29E
100
AcDbEntity
  8
0
100
AcDbLine
 62
7
  6
CONTINUOUS
 10
268.7837640242
 20
214.4012742176
 11
268.8209394424
 21
214.3959902239
  0
LINE
  5
29F
100
AcDbEntity
  8
0
100
AcDbLine
 62
7
  6
CONTINUOUS
 10
268.8209394424
 20
214.3959902239
 11
268.858989968
 21
214.3866936759
  0
LWPOLYLINE
  5
2A0
100
AcDbEntity
  8
0
100
AcDbPolyline
 62
7
  6
CONTINUOUS
 90
12
 70
0
 10
272.7406856279
 20
213.2215658361
 10
272.8646304602
 20
213.1860872286
 10
272.9920153116
 20
213.1387993881
 10
273.1212559671
 20
213.080165186
 10
273.2504587182
 20
213.0110426141
 10
273.3796226205
 20
212.9312771863
 10
273.508748599
 20
212.8410233778
 10
273.6359467471
 20
212.7416031931
 10
273.761190578
 20
212.6328825381
 10
273.8845106385
 20
212.5149978278
 10
274.0041033474
 20
212.3896772734
 10
274.1199172258
 20
212.2568132441
  0
LWPOLYLINE
  5
2A1
100
AcDbEntity
  8
0
100
AcDbPolyline
 62
7
  6
CONTINUOUS
 90
11
 70
0
 10
272.8557853543
 20
213.1889078768
 10
272.9729310306
 20
213.1465619856
 10
273.0906374656
 20
213.0950969498
 10
273.2088673608
 20
213.0344276448
 10
273.3276566743
 20
212.9646384292
 10
273.4456307849
 20
212.8865527074
 10
273.5628070324
 20
212.8000639365
 10
273.6791696734
 20
212.7052795715
 10
273.7932951322
 20
212.6033443968
 10
273.905180422
 20
212.4941407308
 10
274.0148328413
 20
212.3777887207
  0
LWPOLYLINE
  5
2A2
100
AcDbEntity
  8
0
100
AcDbPolyline
 62
7
  6
CONTINUOUS
 90
11
 70
0
 10
274.1208446317
 20
212.2557901172
 10
274.2320111833
 20
212.1165176233
 10
274.3387473643
 20
211.9708479774
 10
274.4400512592
 20
211.8197275557
 10
274.5360068806
 20
211.6632385582
 10
274.6252133688
 20
211.5036765295
 10
274.707575845
 20
211.3409984499
 10
274.7831991029
 20
211.1752530409
 10
274.8509799329
 20
211.0088723983
 10
274.9105528219
 20
210.8426685067
 10
274.9622914854
 20
210.675834119
  0
LWPOLYLINE
  5
2A3
100
AcDbEntity
  8
0
100
AcDbPolyline
 62
7
  6
CONTINUOUS
 90
11
 70
0
 10
274.223135026
 20
212.1281222926
 10
274.3217911395
 20
211.9948115095
 10
274.4156569443
 20
211.8574328029
 10
274.5046930003
 20
211.7159313228
 10
274.5889462685
 20
211.5703662342
 10
274.6673896295
 20
211.4224832011
 10
274.7399784217
 20
211.2721890108
 10
274.8067649579
 20
211.1195812781
 10
274.8668660947
 20
210.9666910592
 10
274.9199890756
 20
210.8141963131
 10
274.9664327452
 20
210.661422599
  0
LWPOLYLINE
  5
2A4
100
AcDbEntity
  8
0
100
AcDbPolyline
 62
7
  6
CONTINUOUS
 90
4
 70
0
 10
274.6720917235
 20
210.4348327181
 10
274.6527220224
 20
210.4661727483
 10
274.6358903911
 20
210.4978395785
 10
274.6219877918
 20
210.5291769281
  0
LWPOLYLINE
  5
2A5
100
AcDbEntity
  8
0
100
AcDbPolyline
 62
7
  6
CONTINUOUS
 90
5
 70
0
 10
274.2781433608
 20
211.4138741291
 10
274.2128009252
 20
211.5263071541
 10
274.1436707418
 20
211.6356700579
 10
274.0706287081
 20
211.7420138118
 10
273.9937944673
 20
211.8452848821
  0
LINE
  5
2A6
100
AcDbEntity
  8
0
100
AcDbLine
 62
7
  6
CONTINUOUS
 10
274.652101896
 20
210.4669990791
 11
274.635956613
 21
210.4977020775
  0
LINE
  5
2A7
100
AcDbEntity
  8
0
100
AcDbLine
 62
7
  6
CONTINUOUS
 10
274.0873792215
 20
210.6694456345
 11
274.1105939326
 21
210.6145652294
  0
LWPOLYLINE
  5
2A8
100
AcDbEntity
  8
0
100
AcDbPolyline
 62
7
  6
CONTINUOUS
 90
3
 70
0
 10
274.6223134545
 20
210.5287084176
 10
274.6109273131
 20
210.5604186671
 10
274.6017985089
 20
210.5928330102
  0
LINE
  5
2A9
100
AcDbEntity
  8
0
100
AcDbLine
 62
7
  6
CONTINUOUS
 10
274.1099967975
 20
210.6162275581
 11
274.1302022046
 21
210.5587435559
  0
LWPOLYLINE
  5
2AA
100
AcDbEntity
  8
0
100
AcDbPolyline
 62
7
  6
CONTINUOUS
 90
5
 70
0
 10
274.5708192931
 20
210.7116274709
 10
274.5347115265
 20
210.8300299888
 10
274.4934731185
 20
210.9480393554
 10
274.4468988286
 20
211.0661026523
 10
274.3951900563
 20
211.183770579
  0
LINE
  5
2AB
100
AcDbEntity
  8
0
100
AcDbLine
 62
7
  6
CONTINUOUS
 10
274.1295728495
 20
210.5609048842
 11
274.1455727388
 21
210.5037790733
  0
LINE
  5
2AC
100
AcDbEntity
  8
0
100
AcDbLine
 62
7
  6
CONTINUOUS
 10
274.6106237358
 20
210.5608413505
 11
274.6017985089
 21
210.5928330102
  0
LWPOLYLINE
  5
2AD
100
AcDbEntity
  8
0
100
AcDbPolyline
 62
7
  6
CONTINUOUS
 90
27
 70
0
 10
274.6017985089
 20
210.5928330102
 10
274.5639018233
 20
210.7355810507
 10
274.5187332109
 20
210.8775009436
 10
274.4662889521
 20
211.0185905392
 10
274.4061645048
 20
211.1596844046
 10
274.338757718
 20
211.2999441088
 10
274.2652675412
 20
211.4368574808
 10
274.1855787419
 20
211.5703620395
 10
274.099798577
 20
211.7005156776
 10
274.0094582847
 20
211.8249859578
 10
273.9144713212
 20
211.9436671537
 10
273.8149170159
 20
212.0566608504
 10
273.7125749941
 20
212.1619453377
 10
273.6073961918
 20
212.259377145
 10
273.4994247604
 20
212.3490969269
 10
273.3905805421
 20
212.4295093879
 10
273.280846628
 20
212.5004490353
 10
273.1702383597
 20
212.5620804641
 10
273.0607247829
 20
212.6133039838
 10
272.9523226917
 20
212.6539348695
 10
272.8450174012
 20
212.6841590544
 10
272.7407315306
 20
212.7034332899
 10
272.6395217234
 20
212.7115603586
 10
272.5413366764
 20
212.7087405394
 10
272.4479373795
 20
212.6950269958
 10
272.3594147187
 20
212.6702243921
 10
272.2819400453
 20
212.6376588588
  0
LINE
  5
2AE
100
AcDbEntity
  8
0
100
AcDbLine
 62
7
  6
CONTINUOUS
 10
274.9622914854
 20
210.675834119
 11
275.0062004345
 21
210.5083718442
  0
LINE
  5
2AF
100
AcDbEntity
  8
0
100
AcDbLine
 62
7
  6
CONTINUOUS
 10
274.6017985089
 20
210.5928330102
 11
274.5708192931
 21
210.7116274709
  0
LINE
  5
2B0
100
AcDbEntity
  8
0
100
AcDbLine
 62
7
  6
CONTINUOUS
 10
274.1449774031
 20
210.5062244607
 11
274.1565681347
 21
210.4496972708
  0
LWPOLYLINE
  5
2B1
100
AcDbEntity
  8
0
100
AcDbPolyline
 62
7
  6
CONTINUOUS
 90
3
 70
0
 10
275.0062004345
 20
210.5083718442
 10
275.0122348525
 20
210.4775484439
 10
275.0155045236
 20
210.4482335678
  0
LINE
  5
2B2
100
AcDbEntity
  8
0
100
AcDbLine
 62
7
  6
CONTINUOUS
 10
274.1561221646
 20
210.4519855219
 11
274.1633267552
 21
210.3964732155
  0
LWPOLYLINE
  5
2B3
100
AcDbEntity
  8
0
100
AcDbPolyline
 62
7
  6
CONTINUOUS
 90
9
 70
0
 10
275.0155045236
 20
210.4482335678
 10
275.015940994
 20
210.4183503828
 10
275.0134425622
 20
210.3915512986
 10
275.0081065974
 20
210.3665222181
 10
275.0001435675
 20
210.3442588448
 10
274.9894469573
 20
210.3248729869
 10
274.9761228613
 20
210.3082525941
 10
274.9607003306
 20
210.2950573916
 10
274.9481209149
 20
210.2877148648
  0
LWPOLYLINE
  5
2B4
100
AcDbEntity
  8
0
100
AcDbPolyline
 62
7
  6
CONTINUOUS
 90
8
 70
0
 10
275.0160094635
 20
210.420427225
 10
275.0137085461
 20
210.3937306509
 10
275.0086429786
 20
210.3685426571
 10
275.0009360519
 20
210.3460594882
 10
274.990438457
 20
210.3264420402
 10
274.9772991011
 20
210.3095291859
 10
274.9620882268
 20
210.29603392
 10
274.9481251887
 20
210.2877070247
  0
LWPOLYLINE
  5
2B5
100
AcDbEntity
  8
0
100
AcDbPolyline
 62
7
  6
CONTINUOUS
 90
3
 70
0
 10
275.0155311646
 20
209.2644415485
 10
275.0122842984
 20
209.2382672245
 10
275.0062004345
 20
209.2136022063
  0
LWPOLYLINE
  5
2B6
100
AcDbEntity
  8
0
100
AcDbPolyline
 62
7
  6
CONTINUOUS
 90
9
 70
0
 10
275.0062004345
 20
209.2136022063
 10
274.9622914197
 20
209.0973440461
 10
274.9105527033
 20
208.9908303742
 10
274.8509797744
 20
208.8940585902
 10
274.7831989173
 20
208.8066464418
 10
274.7075756451
 20
208.7289714469
 10
274.6252131678
 20
208.6621700039
 10
274.5360066976
 20
208.6063993133
 10
274.505847465
 20
208.5907569353
  0
LINE
  5
2B7
100
AcDbEntity
  8
0
100
AcDbLine
 62
7
  6
CONTINUOUS
 10
274.6017985089
 20
209.5957164406
 11
274.6106823365
 21
209.617539653
  0
LWPOLYLINE
  5
2B8
100
AcDbEntity
  8
0
100
AcDbPolyline
 62
7
  6
CONTINUOUS
 90
4
 70
0
 10
274.1462847967
 20
210.213197398
 10
274.1302184645
 20
210.1739136653
 10
274.1106085977
 20
210.1407685934
 10
274.087393531
 20
210.1127376988
  0
LWPOLYLINE
  5
2B9
100
AcDbEntity
  8
0
100
AcDbPolyline
 62
7
  6
CONTINUOUS
 90
5
 70
0
 10
274.6017985089
 20
209.5957164406
 10
274.6109282322
 20
209.6175259346
 10
274.6223152756
 20
209.6360321287
 10
274.6359593188
 20
209.6512348373
 10
274.6483903256
 20
209.660915327
  0
LWPOLYLINE
  5
2BA
100
AcDbEntity
  8
0
100
AcDbPolyline
 62
7
  6
CONTINUOUS
 90
3
 70
0
 10
274.9664174087
 20
209.1068990616
 10
274.919960531
 20
209.0082544724
 10
274.8668264622
 20
208.9176665149
  0
LWPOLYLINE
  5
2BB
100
AcDbEntity
  8
0
100
AcDbPolyline
 62
7
  6
CONTINUOUS
 90
3
 70
0
 10
274.5347099167
 20
209.4365672549
 10
274.5708184996
 20
209.5129654203
 10
274.6017985089
 20
209.5957164406
  0
LWPOLYLINE
  5
2BC
100
AcDbEntity
  8
0
100
AcDbPolyline
 62
7
  6
CONTINUOUS
 90
5
 70
0
 10
274.1309063743
 20
210.17560064
 10
274.1111957882
 20
210.1418281069
 10
274.0879551243
 20
210.1133084511
 10
274.0611978862
 20
210.090377251
 10
274.0347155203
 20
210.0745335078
  0
LINE
  5
2BD
100
AcDbEntity
  8
0
100
AcDbLine
 62
7
  6
CONTINUOUS
 10
274.4934706695
 20
209.3665207389
 11
274.5347099167
 21
209.4365672549
  0
LINE
  5
2BE
100
AcDbEntity
  8
0
100
AcDbLine
 62
7
  6
CONTINUOUS
 10
274.4468954069
 20
209.3026125878
 11
274.4934706695
 21
209.3665207389
  0
LINE
  5
2BF
100
AcDbEntity
  8
0
100
AcDbLine
 62
7
  6
CONTINUOUS
 10
274.6221065489
 20
209.6360799083
 11
274.6350514679
 21
209.6502232756
  0
LINE
  5
2C0
100
AcDbEntity
  8
0
100
AcDbLine
 62
7
  6
CONTINUOUS
 10
274.087393531
 20
210.1127376988
 11
274.0604562819
 21
210.0899893199
  0
LWPOLYLINE
  5
2C1
100
AcDbEntity
  8
0
100
AcDbPolyline
 62
7
  6
CONTINUOUS
 90
3
 70
0
 10
274.0347155203
 20
210.0745335078
 10
274.0309088688
 20
210.0726979451
 10
273.997846461
 20
210.0606906084
  0
LWPOLYLINE
  5
2C2
100
AcDbEntity
  8
0
100
AcDbPolyline
 62
7
  6
CONTINUOUS
 90
13
 70
0
 10
274.9481209149
 20
210.2877148648
 10
274.943094921
 20
210.2854253566
 10
274.9233904801
 20
210.2792181683
 10
274.9023683176
 20
210.2766810018
 10
274.8799754695
 20
210.2779608268
 10
274.856264407
 20
210.2829103896
 10
274.8321745772
 20
210.2913335205
 10
274.807690688
 20
210.3033692123
 10
274.7828278725
 20
210.3188783806
 10
274.7585712975
 20
210.3372477876
 10
274.7349451896
 20
210.3585917996
 10
274.7119255715
 20
210.3827961941
 10
274.6904253728
 20
210.4089048896
  0
LWPOLYLINE
  5
2C3
100
AcDbEntity
  8
0
100
AcDbPolyline
 62
7
  6
CONTINUOUS
 90
12
 70
0
 10
274.9443528057
 20
210.2859983651
 10
274.9253202062
 20
210.2796389828
 10
274.9045938181
 20
210.2767649668
 10
274.8825300297
 20
210.277624246
 10
274.859159435
 20
210.2820980753
 10
274.8353403509
 20
210.2900282312
 10
274.8110586577
 20
210.3015132737
 10
274.7863283037
 20
210.316454544
 10
274.7620497868
 20
210.3343980363
 10
274.7382191604
 20
210.3554281357
 10
274.7148406051
 20
210.379460592
 10
274.6928268999
 20
210.4057884979
  0
LINE
  5
2C4
100
AcDbEntity
  8
0
100
AcDbLine
 62
7
  6
CONTINUOUS
 10
268.7137822712
 20
214.3995656083
 11
268.7480905221
 21
214.4024895155
  0
LWPOLYLINE
  5
2C5
100
AcDbEntity
  8
0
100
AcDbPolyline
 62
250
  6
CONTINUOUS
 90
12
 70
0
 10
279.3326026208
 20
190.9192144842
 10
279.338501077
 20
190.8352371645
 10
279.3496328228
 20
190.7562089137
 10
279.3657070634
 20
190.682344461
 10
279.3862924636
 20
190.6141727549
 10
279.4111462192
 20
190.5513932611
 10
279.4404692742
 20
190.4931315396
 10
279.4743733242
 20
190.4393345218
 10
279.5125444947
 20
190.3906498301
 10
279.5547123176
 20
190.3474125027
 10
279.6003770936
 20
190.3100082665
 10
279.6454611857
 20
190.2806490246
  0
LWPOLYLINE
  5
2C6
100
AcDbEntity
  8
0
100
AcDbPolyline
 62
7
  6
CONTINUOUS
 90
6
 70
0
 10
274.8668264622
 20
208.9176665149
 10
274.8067156839
 20
208.8348031447
 10
274.7399216107
 20
208.7599928849
 10
274.6673293801
 20
208.6942241234
 10
274.5888891142
 20
208.637644521
 10
274.5058731787
 20
208.5907103238
  0
LINE
  5
2C7
100
AcDbEntity
  8
0
100
AcDbLine
 62
7
  6
CONTINUOUS
 10
274.3951856384
 20
209.245053869
 11
274.4468954069
 21
209.3026125878
  0
LINE
  5
2C8
100
AcDbEntity
  8
0
100
AcDbLine
 62
7
  6
CONTINUOUS
 10
274.3389491213
 20
209.194479647
 11
274.3951856384
 21
209.245053869
  0
LINE
  5
2C9
100
AcDbEntity
  8
0
100
AcDbLine
 62
7
  6
CONTINUOUS
 10
274.6360708545
 20
209.6513370376
 11
274.6484797811
 21
209.6607660046
  0
LWPOLYLINE
  5
2CA
100
AcDbEntity
  8
0
100
AcDbPolyline
 62
7
  6
CONTINUOUS
 90
7
 70
0
 10
274.2902920391
 20
209.1588320059
 10
274.338757706
 20
209.1944643483
 10
274.4061644942
 20
209.2563879848
 10
274.4662889434
 20
209.3275843223
 10
274.5187332046
 20
209.4076844137
 10
274.5639018199
 20
209.4970610714
 10
274.6017985089
 20
209.5957164406
  0
LWPOLYLINE
  5
2CB
100
AcDbEntity
  8
0
100
AcDbPolyline
 62
7
  6
CONTINUOUS
 90
4
 70
0
 10
274.6483903256
 20
209.660915327
 10
274.6521054338
 20
209.6632503117
 10
274.6705080059
 20
209.6719619865
 10
274.6904306285
 20
209.6770204194
  0
LWPOLYLINE
  5
2CC
100
AcDbEntity
  8
0
100
AcDbPolyline
 62
7
  6
CONTINUOUS
 90
4
 70
0
 10
274.6484797811
 20
209.6607660046
 10
274.6529642199
 20
209.6635102377
 10
274.6723971946
 20
209.6724000318
 10
274.6932017321
 20
209.6774081657
  0
LWPOLYLINE
  5
2CD
100
AcDbEntity
  8
0
100
AcDbPolyline
 62
7
  6
CONTINUOUS
 90
5
 70
0
 10
274.505847465
 20
208.5907569353
 10
274.4400511072
 20
208.5614964267
 10
274.3387472398
 20
208.5281164346
 10
274.2320110738
 20
208.5064259955
 10
274.1199171278
 20
208.4962529261
  0
LWPOLYLINE
  5
2CE
100
AcDbEntity
  8
0
100
AcDbPolyline
 62
7
  6
CONTINUOUS
 90
4
 70
0
 10
274.5058731787
 20
208.5907103238
 10
274.4156129461
 20
208.5521343901
 10
274.3217489304
 20
208.5238437037
 10
274.223093392
 20
208.5051236012
  0
LWPOLYLINE
  5
2CF
100
AcDbEntity
  8
0
100
AcDbPolyline
 62
250
  6
CONTINUOUS
 90
22
 70
0
 10
280.0331860946
 20
190.9322988347
 10
280.0374814162
 20
190.8761167273
 10
280.0448802577
 20
190.8234545216
 10
280.055382619
 20
190.7743122177
 10
280.0690425696
 20
190.7287924274
 10
280.0858060401
 20
190.6867925389
 10
280.1055108223
 20
190.6480047163
 10
280.1282396692
 20
190.6121570498
 10
280.1539098277
 20
190.5795214492
 10
280.1821108301
 20
190.550605808
 10
280.2126380023
 20
190.5255163873
 10
280.2456960184
 20
190.5041469259
 10
280.2814884337
 20
190.486686534
 10
280.3201443517
 20
190.4729546016
 10
280.3615346689
 20
190.4631317388
 10
280.4054756304
 20
190.4579488851
 10
280.4522001943
 20
190.4574798633
 10
280.5014754025
 20
190.4616508508
 10
280.5524186255
 20
190.4709713196
 10
280.6047356535
 20
190.4856110939
 10
280.6587206963
 20
190.5054003495
 10
280.714373754
 20
190.5303390865
  0
LWPOLYLINE
  5
2D0
100
AcDbEntity
  8
0
100
AcDbPolyline
 62
250
  6
CONTINUOUS
 90
6
 70
0
 10
279.755213615
 20
202.6247341502
 10
279.7831525559
 20
200.4453421057
 10
279.8245892642
 20
198.1902317279
 10
279.8806237736
 20
195.8466390968
 10
279.9501560504
 20
193.4273281324
 10
280.0331860946
 20
190.9322988347
  0
LWPOLYLINE
  5
2D1
100
AcDbEntity
  8
0
100
AcDbPolyline
 62
250
  6
CONTINUOUS
 90
16
 70
0
 10
279.3326026208
 20
224.4965028936
 10
279.2519302673
 20
222.0550564889
 10
279.1854698274
 20
219.6919599803
 10
279.1321736635
 20
217.4067234757
 10
279.0913629485
 20
215.2189589525
 10
279.0615373524
 20
213.1079870775
 10
279.0412645949
 20
211.0133352432
 10
279.0303738161
 20
208.9331846491
 10
279.0287577549
 20
206.8693040602
 10
279.036597935
 20
204.7674605879
 10
279.0545070419
 20
202.6234359221
 10
279.0830860618
 20
200.4422748568
 10
279.1238005669
 20
198.1844105072
 10
279.1782193374
 20
195.8373547625
 10
279.2473840864
 20
193.415325086
 10
279.3326026208
 20
190.9192144842
  0
LWPOLYLINE
  5
2D2
100
AcDbEntity
  8
0
100
AcDbPolyline
 62
250
  6
CONTINUOUS
 90
6
 70
0
 10
281.7787003465
 20
191.3051767674
 10
281.7806695538
 20
191.2737200552
 10
281.7791569379
 20
191.2442879076
 10
281.7742510793
 20
191.2170557661
 10
281.7660204225
 20
191.1920558649
 10
281.759568755
 20
191.1782895079
  0
LINE
  5
2D3
100
AcDbEntity
  8
0
100
AcDbLine
 62
250
  6
CONTINUOUS
 10
279.7374723405
 20
204.7666996215
 11
279.755213615
 21
202.6247341502
  0
LWPOLYLINE
  5
2D4
100
AcDbEntity
  8
0
100
AcDbPolyline
 62
250
  6
CONTINUOUS
 90
10
 70
0
 10
280.0331860946
 20
224.4760099557
 10
279.9542851906
 20
222.0378147695
 10
279.8875412028
 20
219.6769188845
 10
279.8329541312
 20
217.3933223006
 10
279.7913852573
 20
215.2073334809
 10
279.7619732997
 20
213.0986439623
 10
279.7421344136
 20
211.006328356
 10
279.7307991194
 20
208.9280116941
 10
279.7290368968
 20
206.8660689444
 10
279.7374723405
 20
204.7666996215
  0
LWPOLYLINE
  5
2D5
100
AcDbEntity
  8
0
100
AcDbPolyline
 62
250
  6
CONTINUOUS
 90
16
 70
0
 10
280.714373754
 20
225.637598296
 10
280.7105071635
 20
225.6802268066
 10
280.7028819699
 20
225.7246614806
 10
280.6915815945
 20
225.7704160679
 10
280.6767296764
 20
225.8169898723
 10
280.6584887252
 20
225.863873221
 10
280.637058345
 20
225.9105530425
 10
280.6126730397
 20
225.9565185001
 10
280.585599654
 20
226.0012665635
 10
280.5561344641
 20
226.0443075069
 10
280.5245999124
 20
226.0851703034
 10
280.4913410927
 20
226.1234077554
 10
280.4567219889
 20
226.1586013766
 10
280.4211214629
 20
226.190366007
 10
280.3849291058
 20
226.2183540228
 10
280.3485409935
 20
226.2422591217
  0
LWPOLYLINE
  5
2D6
100
AcDbEntity
  8
0
100
AcDbPolyline
 62
7
  6
CONTINUOUS
 90
13
 70
0
 10
281.8068056601
 20
226.3883887226
 10
281.8065616517
 20
226.4039946192
 10
281.8025966134
 20
226.4537199945
 10
281.7936704024
 20
226.5043186459
 10
281.7797189639
 20
226.5551693072
 10
281.761150441
 20
226.6047120117
 10
281.7380407432
 20
226.6528640581
 10
281.7104411609
 20
226.6993205131
 10
281.6793753046
 20
226.7424126454
 10
281.6451633068
 20
226.7819504459
 10
281.6078534725
 20
226.817920282
 10
281.5685461727
 20
226.8493582282
 10
281.5238929143
 20
226.8783651497
  0
LINE
  5
2D7
100
AcDbEntity
  8
0
100
AcDbLine
 62
7
  6
CONTINUOUS
 10
281.6779590048
 20
191.0103022468
 11
281.6779590048
 21
226.2321803033
  0
LINE
  5
2D8
100
AcDbEntity
  8
0
100
AcDbLine
 62
250
  6
CONTINUOUS
 10
281.7786979982
 20
226.3151648143
 11
281.7786979982
 21
191.3051723079
  0
LINE
  5
2D9
100
AcDbEntity
  8
0
100
AcDbLine
 62
7
  6
CONTINUOUS
 10
281.8068056621
 20
226.3883691606
 11
281.8068056621
 21
191.3783766542
  0
LWPOLYLINE
  5
2DA
100
AcDbEntity
  8
0
100
AcDbPolyline
 62
250
  6
CONTINUOUS
 90
5
 70
0
 10
281.8068056621
 20
226.3883691606
 10
281.8066787471
 20
226.383331215
 10
281.8027392138
 20
226.3599459001
 10
281.793354742
 20
226.3370835503
 10
281.7786979982
 20
226.3151648143
  0
LINE
  5
2DB
100
AcDbEntity
  8
0
100
AcDbLine
 62
250
  6
CONTINUOUS
 10
281.8068056621
 20
191.3783766542
 11
281.8066787668
 21
191.3733391005
  0
LWPOLYLINE
  5
2DC
100
AcDbEntity
  8
0
100
AcDbPolyline
 62
250
  6
CONTINUOUS
 90
9
 70
0
 10
280.714373754
 20
190.5303390865
 10
280.7105070894
 20
190.4877900669
 10
280.7028817479
 20
190.4479793025
 10
280.6915811773
 20
190.4113424615
 10
280.676729045
 20
190.3782804786
 10
280.6584878852
 20
190.3491551671
 10
280.6370573205
 20
190.3242852598
 10
280.6126718762
 20
190.3039429201
 10
280.5899713239
 20
190.2904550082
  0
LWPOLYLINE
  5
2DD
100
AcDbEntity
  8
0
100
AcDbPolyline
 62
250
  6
CONTINUOUS
 90
12
 70
0
 10
281.7681582755
 20
226.475143362
 10
281.7710923627
 20
226.4606094969
 10
281.7736282186
 20
226.4461360324
 10
281.7757684336
 20
226.4317356915
 10
281.7775185622
 20
226.4174232065
 10
281.7788933683
 20
226.403063291
 10
281.7798837939
 20
226.3886685896
 10
281.7804834906
 20
226.374254675
 10
281.7806859435
 20
226.3596931011
 10
281.780469878
 20
226.3449539986
 10
281.7798137583
 20
226.3301044143
 10
281.7786979982
 20
226.3151648143
  0
LWPOLYLINE
  5
2DE
100
AcDbEntity
  8
0
100
AcDbPolyline
 62
250
  6
CONTINUOUS
 90
4
 70
0
 10
281.8066787668
 20
191.3733391005
 10
281.8027392983
 20
191.349953687
 10
281.7933548274
 20
191.3270912031
 10
281.7786979982
 20
191.3051723079
  0
LINE
  5
2DF
100
AcDbEntity
  8
0
100
AcDbLine
 62
250
  6
CONTINUOUS
 10
264.5077565432
 20
233.0561832198
 11
279.3326026208
 21
224.4965028936
  0
LWPOLYLINE
  5
2E0
100
AcDbEntity
  8
0
100
AcDbPolyline
 62
250
  6
CONTINUOUS
 90
8
 70
0
 10
281.446466486
 20
226.8906066727
 10
281.4728003754
 20
226.8774467821
 10
281.4978615059
 20
226.863031359
 10
281.5216065672
 20
226.8475704715
 10
281.5439931427
 20
226.8312899632
 10
281.5650337072
 20
226.8143588322
 10
281.5847846367
 20
226.7968733386
 10
281.6032612527
 20
226.7789858698
  0
LINE
  5
2E1
100
AcDbEntity
  8
0
100
AcDbLine
 62
250
  6
CONTINUOUS
 10
265.5003225532
 20
234.8154343817
 11
280.348541014
 21
226.2422591343
  0
LINE
  5
2E2
100
AcDbEntity
  8
0
100
AcDbLine
 62
7
  6
CONTINUOUS
 10
281.3246747389
 20
226.8445842001
 11
266.4429639341
 21
235.4370975072
  0
LINE
  5
2E3
100
AcDbEntity
  8
0
100
AcDbLine
 62
250
  6
CONTINUOUS
 10
266.749121757
 20
235.3766693182
 11
281.446466486
 21
226.8906066727
  0
LWPOLYLINE
  5
2E4
100
AcDbEntity
  8
0
100
AcDbPolyline
 62
250
  6
CONTINUOUS
 90
19
 70
0
 10
281.6032612527
 20
226.7789858698
 10
281.6204831006
 20
226.7608462662
 10
281.6365132877
 20
226.7425095288
 10
281.651394279
 20
226.7240799382
 10
281.6651540075
 20
226.7056798247
 10
281.6778326109
 20
226.6873661991
 10
281.6894697291
 20
226.6692370594
 10
281.700122047
 20
226.6513662137
 10
281.7098512858
 20
226.6337558885
 10
281.7186931613
 20
226.6164916312
 10
281.7267126848
 20
226.5996093284
 10
281.7339987159
 20
226.5830177112
 10
281.740587084
 20
226.5667608014
 10
281.7465221911
 20
226.5508725476
 10
281.75187999
 20
226.5352305317
 10
281.7566862698
 20
226.5198599699
 10
281.7609710926
 20
226.5047857274
 10
281.7647903966
 20
226.489874644
 10
281.7681582755
 20
226.475143362
  0
LWPOLYLINE
  5
2E5
100
AcDbEntity
  8
0
100
AcDbPolyline
 62
7
  6
CONTINUOUS
 90
7
 70
0
 10
281.7595122433
 20
191.178209394
 10
281.7673712976
 20
191.1939921612
 10
281.7816030602
 20
191.2284036851
 10
281.7927257506
 20
191.2644909566
 10
281.8006379654
 20
191.3019536559
 10
281.8053291522
 20
191.3405594646
 10
281.8068056603
 20
191.3783956198
  0
LINE
  5
2E6
100
AcDbEntity
  8
0
100
AcDbLine
 62
250
  6
CONTINUOUS
 10
281.7786979982
 20
191.3051723079
 11
281.6779590048
 21
191.1138718297
  0
LINE
  5
2E7
100
AcDbEntity
  8
0
100
AcDbLine
 62
7
  6
CONTINUOUS
 10
281.7595519804
 20
191.1782576532
 11
281.6779590048
 21
191.0233149173
  0
LWPOLYLINE
  5
2E8
100
AcDbEntity
  8
0
100
AcDbPolyline
 62
7
  6
CONTINUOUS
 90
7
 70
0
 10
266.8231126226
 20
235.366392708
 10
266.7883325973
 20
235.3842800792
 10
266.7528321485
 20
235.3989427955
 10
266.7167796355
 20
235.410287678
 10
266.6803926996
 20
235.4182301774
 10
266.6439743442
 20
235.4227288617
 10
266.6295624435
 20
235.4235591684
  0
LWPOLYLINE
  5
2E9
100
AcDbEntity
  8
0
100
AcDbPolyline
 62
250
  6
CONTINUOUS
 90
5
 70
0
 10
281.5238929144
 20
226.8783651497
 10
281.5194877638
 20
226.8807616528
 10
281.4972669055
 20
226.8890405744
 10
281.4727762816
 20
226.8923425211
 10
281.446466486
 20
226.8906066727
  0
LWPOLYLINE
  5
2EA
100
AcDbEntity
  8
0
100
AcDbPolyline
 62
250
  6
CONTINUOUS
 90
5
 70
0
 10
266.8265755763
 20
235.3644119858
 10
266.8221421629
 20
235.3668247447
 10
266.7999214243
 20
235.3751034064
 10
266.7754310882
 20
235.3784051809
 10
266.749121757
 20
235.3766693182
  0
LINE
  5
2EB
100
AcDbEntity
  8
0
100
AcDbLine
 62
7
  6
CONTINUOUS
 10
266.8231126226
 20
235.366392708
 11
281.5239203052
 21
226.8783493403
  0
LWPOLYLINE
  5
2EC
100
AcDbEntity
  8
0
100
AcDbPolyline
 62
250
  6
CONTINUOUS
 90
16
 70
0
 10
280.0331860941
 20
190.9322988504
 10
279.9941774726
 20
190.9109628096
 10
279.9518653405
 20
190.892080348
 10
279.9067030232
 20
190.8758537935
 10
279.8591743851
 20
190.8624570197
 10
279.809788656
 20
190.8520335834
 10
279.7590749762
 20
190.8446951832
 10
279.7075767063
 20
190.8405204625
 10
279.6558456247
 20
190.8395541702
 10
279.6044360257
 20
190.8418066757
 10
279.5538987413
 20
190.8472538596
 10
279.5047752657
 20
190.8558373706
 10
279.4575919705
 20
190.8674652436
 10
279.4128544218
 20
190.8820128947
 10
279.3710419667
 20
190.899324461
 10
279.3326026216
 20
190.9192144621
  0
LINE
  5
2ED
100
AcDbEntity
  8
0
100
AcDbLine
 62
250
  6
CONTINUOUS
 10
280.714373754
 20
190.5303390865
 11
281.6779590048
 21
191.0103022468
  0
LINE
  5
2EE
100
AcDbEntity
  8
0
100
AcDbLine
 62
7
  6
CONTINUOUS
 10
280.5899713239
 20
190.2904550082
 11
281.5653305694
 21
190.7762828116
  0
LINE
  5
2EF
100
AcDbEntity
  8
0
100
AcDbLine
 62
250
  6
CONTINUOUS
 10
266.749121757
 20
235.3766693182
 11
266.5330747693
 21
235.3850686403
  0
LINE
  5
2F0
100
AcDbEntity
  8
0
100
AcDbLine
 62
7
  6
CONTINUOUS
 10
266.6296005609
 20
235.4235579477
 11
266.4546324836
 21
235.4303602329
  0
LWPOLYLINE
  5
2F1
100
AcDbEntity
  8
0
100
AcDbPolyline
 62
250
  6
CONTINUOUS
 90
7
 70
0
 10
266.6295891046
 20
235.4235583931
 10
266.6381842934
 20
235.4229953181
 10
266.6585949709
 20
235.4198639913
 10
266.6799590659
 20
235.4139623245
 10
266.7024149203
 20
235.4049172488
 10
266.7255281898
 20
235.3925561754
 10
266.749121757
 20
235.3766693182
  0
ELLIPSE
  5
2F2
100
AcDbEntity
  8
0
100
AcDbEllipse
 62
7
  6
CONTINUOUS
 10
644.8074653375
 20
404.6164513306
 30
0.0
 11
-222.6802417435
 21
562.3907231254
 31
0.0
 40
0.695984786
 41
-4.6474121049
 42
-4.6464816858
  0
ELLIPSE
  5
2F3
100
AcDbEntity
  8
0
100
AcDbEllipse
 62
7
  6
CONTINUOUS
 10
644.8074653375
 20
404.6164513306
 30
0.0
 11
446.8968390529
 21
317.4881042992
 31
0.0
 40
0.1746808404
 41
2.4349727398
 42
2.435903159
  0
ELLIPSE
  5
2F4
100
AcDbEntity
  8
0
100
AcDbEllipse
 62
7
  6
CONTINUOUS
 10
281.3243517581
 20
226.4359753069
 30
0.0
 11
-0.2496303025
 21
0.4334023309
 31
0.0
 40
0.5778584463
 41
-2.3545649475
 42
-0.7846820092
  0
ELLIPSE
  5
2F5
100
AcDbEntity
  8
0
100
AcDbEllipse
 62
7
  6
CONTINUOUS
 10
266.4432869148
 20
235.0281156439
 30
0.0
 11
-0.2498600223
 21
0.43379745
 31
0.0
 40
0.5768037941
 41
5.4994124095
 42
6.3180789651
  0
ELLIPSE
  5
2F6
100
AcDbEntity
  8
0
100
AcDbEllipse
 62
7
  6
CONTINUOUS
 10
281.3243517581
 20
191.2148440282
 30
0.0
 11
-0.2498600223
 21
0.43379745
 31
0.0
 40
0.5768037941
 41
3.1066989922
 42
3.9277026942
  0
ELLIPSE
  5
2F7
100
AcDbEntity
  8
0
100
AcDbEllipse
 62
7
  6
CONTINUOUS
 10
599.0502308711
 20
431.0361050387
 30
0.0
 11
411.2835037081
 21
339.3139141644
 31
0.0
 40
0.1196884959
 41
2.3990702416
 42
2.4001022096
  0
ELLIPSE
  5
2F8
100
AcDbEntity
  8
0
100
AcDbEllipse
 62
7
  6
CONTINUOUS
 10
599.0502308711
 20
431.0361050387
 30
0.0
 11
-186.5461915041
 21
580.4478333504
 31
0.0
 40
0.6353493651
 41
-4.5376302344
 42
-4.5365982663
  0
ENDSEC
  0
SECTION
  2
OBJECTS
  0
DICTIONARY
  5
C
100
AcDbDictionary
280
0
281
1
  3
ACAD_GROUP
350
D
  3
ACAD_MLINESTYLE
350
17
  3
ACAD_LAYOUT
350
1A
  3
ACAD_PLOTSETTINGS
350
19
  3
ACAD_PLOTSTYLENAME
350
E
  0
DICTIONARY
  5
D
102
{ACAD_REACTORS
330
C
102
}
100
AcDbDictionary
280
0
281
1
  0
ACDBDICTIONARYWDFLT
  5
E
102
{ACAD_REACTORS
330
C
102
}
100
AcDbDictionary
281
1
  3
Normal
350
F
100
AcDbDictionaryWithDefault
340
F
  0
DICTIONARY
  5
17
102
{ACAD_REACTORS
330
C
102
}
100
AcDbDictionary
280
0
281
1
  3
Standard
350
18
  0
DICTIONARY
  5
19
102
{ACAD_REACTORS
330
C
102
}
100
AcDbDictionary
281
1
  0
DICTIONARY
  5
1A
102
{ACAD_REACTORS
330
C
102
}
100
AcDbDictionary
281
1
  3
Model
350
2F9
  3
Layout1
350
2FA
  0
ACDBPLACEHOLDER
  5
F
102
{ACAD_REACTORS
330
E
102
}
  0
MLINESTYLE
  5
18
102
{ACAD_REACTORS
330
17
102
}
100
AcDbMlineStyle
  2
STANDARD
 70
0
  3

 62
256
 51
90.0
 52
90.0
 71
2
 49
0.5
 62
256
  6
BYLAYER
 49
-0.5
 62
256
  6
BYLAYER
  0
LAYOUT
  5
2F9
102
{ACAD_REACTORS
330
1A
102
}
100
AcDbPlotSettings
  1

  2
none_device
  4
ANSI_C_(22.00_x_17.00_Inches)
  6

 40
0.0
 41
0.0
 42
0.0
 43
0.0
 44
558.8
 45
431.8
 46
0.0
 47
0.0
 48
0.0
 49
0.0
140
0.0
141
0.0
142
1.0
143
1.0
 70
1024
 72
1
 73
0
 74
0
  7

 75
0
147
1.0
148
0.0
149
0.0
100
AcDbLayout
  1
Model
 70
0
 71
0
 10
0.0
 20
0.0
 11
558.8
 21
431.8
 12
0.0
 22
0.0
 32
0.0
 14
0.0
 24
0.0
 34
0.0
 15
0.0
 25
0.0
 35
0.0
146
0.0
 13
0.0
 23
0.0
 33
0.0
 16
1.0
 26
0.0
 36
0.0
 17
0.0
 27
1.0
 37
0.0
 76
0
330
214
345
0
346
0
  0
LAYOUT
  5
2FA
102
{ACAD_REACTORS
330
1A
102
}
100
AcDbPlotSettings
  1

  2
none_device
  4
ANSI_C_(22.00_x_17.00_Inches)
  6

 40
0.0
 41
0.0
 42
0.0
 43
0.0
 44
558.8
 45
431.8
 46
0.0
 47
0.0
 48
0.0
 49
0.0
140
0.0
141
0.0
142
1.0
143
1.0
 70
0
 72
1
 73
0
 74
0
  7

 75
0
147
1.0
148
0.0
149
0.0
100
AcDbLayout
  1
Layout1
 70
0
 71
1
 10
0.0
 20
0.0
 11
558.8
 21
431.8
 12
0.0
 22
0.0
 32
0.0
 14
0.0
 24
0.0
 34
0.0
 15
0.0
 25
0.0
 35
0.0
146
0.0
 13
0.0
 23
0.0
 33
0.0
 16
1.0
 26
0.0
 36
0.0
 17
0.0
 27
1.0
 37
0.0
 76
0
330
215
345
0
346
0
  0
ENDSEC
  0
EOF
