  0
SECTION
  2
HEADER
  9
$ACADVER
  1
AC1024
  9
$DWGCODEPAGE
  3
ANSI_1252
  9
$EXTMAX
 10
558.8
 20
431.8
 30
0.0
  9
$EXTMIN
 10
0.0
 20
0.0
 30
0.0
  9
$LIMMIN
 10
0.0
 20
0.0
  9
$LIMMAX
 10
558.8
 20
431.8
  9
$VIEWCTR
 10
279.4
 20
215.9
  9
$VIEWSIZE
 40
431.8
  9
$CLAYER
  8
0
  9
$LTSCALE
 40
30.734
  9
$CELTYPE
  6
BYLAYER
  9
$DIMSCALE
 40
1.0
  9
$DIMASZ
 40
3.0
  9
$DIMEXO
 40
0.5
  9
$DIMDLI
 40
21.2344
  9
$DIMEXE
 40
1.5
  9
$DIMCEN
 40
5.0292
  9
$DIMLFAC
 40
1.0
  9
$DIMBLK
  1
_FILLED
  9
$DIMALT
 70
0
  9
$DIMALTF
 40
0.0393700787
  9
$DIMTXT
 40
3.0
  9
$DIMTOL
 70
1
  9
$DIMLIM
 70
0
  9
$DIMTFAC
 40
1.0
  9
$DIMTP
 40
0.01
  9
$DIMTM
 40
0.01
  9
$DIMGAP
 40
0.625
  9
$DIMDSEP
 70
44
  9
$AUNITS
 70
0
  9
$PDMODE
 70
3
  9
$PDSIZE
 40
3.0
  9
$HANDSEED
  5
269
  9
$TILEMODE
 70
1
  9
$MEASUREMENT
 70
1
  9
$INSUNITS
 70
4
  0
ENDSEC
  0
SECTION
  2
CLASSES
  0
CLASS
  1
ACDBDICTIONARYWDFLT
  2
AcDbDictionaryWithDefault
  3
AutoCAD 2000
 90
0
 91
1
280
0
281
0
  0
CLASS
  1
ACDBPLACEHOLDER
  2
AcDbPlaceHolder
  3
AutoCAD 2000
 90
0
 91
1
280
0
281
0
  0
CLASS
  1
LAYOUT
  2
AcDbLayout
  3
AutoCAD 2000
 90
0
 91
0
280
0
281
0
  0
ENDSEC
  0
SECTION
  2
TABLES
  0
TABLE
  2
VPORT
  5
8
100
AcDbSymbolTable
 70
2
  0
VPORT
  5
1F4
100
AcDbSymbolTableRecord
100
AcDbViewportTableRecord
  2
*ACTIVE
 70
0
 10
0.0
 20
0.0
 11
1.0
 21
1.0
 12
279.4
 22
215.9
 13
0.0
 23
0.0
 14
1.0
 24
1.0
 15
0.0
 25
0.0
 16
0.0
 26
0.0
 36
1.0
 17
0.0
 27
0.0
 37
0.0
 40
431.8
 41
1.2941176471
 42
50.0
 43
0.0
 44
0.0
 50
0.0
 51
0.0
 71
0
 72
100
 73
1
 74
1
 75
0
 76
0
 77
0
 78
0
  0
ENDTAB
  0
TABLE
  2
LTYPE
  5
5
100
AcDbSymbolTable
 70
6
  0
LTYPE
  5
14
100
AcDbSymbolTableRecord
100
AcDbLinetypeTableRecord
  2
BYBLOCK
 70
0
  3

 72
65
 73
0
 40
0.0
  0
LTYPE
  5
15
100
AcDbSymbolTableRecord
100
AcDbLinetypeTableRecord
  2
BYLAYER
 70
0
  3

 72
65
 73
0
 40
0.0
  0
LTYPE
  5
16
100
AcDbSymbolTableRecord
100
AcDbLinetypeTableRecord
  2
CONTINUOUS
 70
64
  3
Solid line
 72
65
 73
0
 40
0.0
  0
LTYPE
  5
1F5
100
AcDbSymbolTableRecord
100
AcDbLinetypeTableRecord
  2
CENTER
 70
64
  3
____ _ ____ _ ____ _ ____ _ ____ _ ____ _ ____
 72
65
 73
4
 40
0.6
 49
0.375
 74
0
 49
-0.075
 74
0
 49
0.075
 74
0
 49
-0.075
 74
0
  0
LTYPE
  5
1F6
100
AcDbSymbolTableRecord
100
AcDbLinetypeTableRecord
  2
HIDDEN
 70
64
  3
- - - - - - - - - - - - - - - - - - - -
 72
65
 73
2
 40
0.2
 49
0.1
 74
0
 49
-0.1
 74
0
  0
LTYPE
  5
1F7
100
AcDbSymbolTableRecord
100
AcDbLinetypeTableRecord
  2
PHANTOM
 70
64
  3
_____ _ _ _____ _ _ _____ _ _ _____
 72
65
 73
6
 40
0.8
 49
0.45
 74
0
 49
-0.05
 74
0
 49
0.1
 74
0
 49
-0.05
 74
0
 49
0.1
 74
0
 49
-0.05
 74
0
  0
LTYPE
  5
1F8
100
AcDbSymbolTableRecord
100
AcDbLinetypeTableRecord
  2
DOT
 70
64
  3
. . . . . . . . . . . . . . . . . . . .
 72
65
 73
2
 40
0.2
 49
0.1
 74
0
 49
-0.1
 74
0
  0
LTYPE
  5
1F9
100
AcDbSymbolTableRecord
100
AcDbLinetypeTableRecord
  2
DASHED
 70
64
  3
- - - - - - - - - - - - - - - - - - - -
 72
65
 73
2
 40
0.2
 49
0.1
 74
0
 49
-0.1
 74
0
  0
ENDTAB
  0
TABLE
  2
LAYER
  5
2
100
AcDbSymbolTable
 70
36
  0
LAYER
  5
10
100
AcDbSymbolTableRecord
100
AcDbLayerTableRecord
  2
0
 70
0
 62
7
  6
CONTINUOUS
370
-3
390
F
  0
LAYER
  5
1FA
100
AcDbSymbolTableRecord
100
AcDbLayerTableRecord
  2
DEFAULT_1
 70
0
 62
7
  6
CENTER
370
-3
390
F
  0
LAYER
  5
1FB
100
AcDbSymbolTableRecord
100
AcDbLayerTableRecord
  2
DEFAULT_2
 70
0
 62
7
  6
HIDDEN
370
-3
390
F
  0
LAYER
  5
1FC
100
AcDbSymbolTableRecord
100
AcDbLayerTableRecord
  2
DEFAULT_3
 70
0
 62
7
  6
PHANTOM
370
-3
390
F
  0
LAYER
  5
1FD
100
AcDbSymbolTableRecord
100
AcDbLayerTableRecord
  2
ASSI
 70
0
 62
7
  6
CONTINUOUS
370
-3
390
F
  0
LAYER
  5
1FE
100
AcDbSymbolTableRecord
100
AcDbLayerTableRecord
  2
COORDINATE
 70
0
 62
7
  6
CONTINUOUS
370
-3
390
F
  0
LAYER
  5
1FF
100
AcDbSymbolTableRecord
100
AcDbLayerTableRecord
  2
COPY_PUBLISH
 70
0
 62
7
  6
CONTINUOUS
370
-3
390
F
  0
LAYER
  5
200
100
AcDbSymbolTableRecord
100
AcDbLayerTableRecord
  2
COSMETIC
 70
0
 62
7
  6
CONTINUOUS
370
-3
390
F
  0
LAYER
  5
201
100
AcDbSymbolTableRecord
100
AcDbLayerTableRecord
  2
COSMETICI
 70
0
 62
7
  6
CONTINUOUS
370
-3
390
F
  0
LAYER
  5
202
100
AcDbSymbolTableRecord
100
AcDbLayerTableRecord
  2
CURVE
 70
0
 62
7
  6
CONTINUOUS
370
-3
390
F
  0
LAYER
  5
203
100
AcDbSymbolTableRecord
100
AcDbLayerTableRecord
  2
DRAFT
 70
0
 62
7
  6
CONTINUOUS
370
-3
390
F
  0
LAYER
  5
204
100
AcDbSymbolTableRecord
100
AcDbLayerTableRecord
  2
IMPORT_IGES
 70
0
 62
7
  6
CONTINUOUS
370
-3
390
F
  0
LAYER
  5
205
100
AcDbSymbolTableRecord
100
AcDbLayerTableRecord
  2
INTFCLR_11
 70
0
 62
7
  6
CONTINUOUS
370
-3
390
F
  0
LAYER
  5
206
100
AcDbSymbolTableRecord
100
AcDbLayerTableRecord
  2
INTF_1
 70
0
 62
7
  6
CONTINUOUS
370
-3
390
F
  0
LAYER
  5
207
100
AcDbSymbolTableRecord
100
AcDbLayerTableRecord
  2
INTF_3
 70
0
 62
7
  6
CONTINUOUS
370
-3
390
F
  0
LAYER
  5
208
100
AcDbSymbolTableRecord
100
AcDbLayerTableRecord
  2
NOTE
 70
0
 62
7
  6
CONTINUOUS
370
-3
390
F
  0
LAYER
  5
209
100
AcDbSymbolTableRecord
100
AcDbLayerTableRecord
  2
PIANI
 70
0
 62
7
  6
CONTINUOUS
370
-3
390
F
  0
LAYER
  5
20A
100
AcDbSymbolTableRecord
100
AcDbLayerTableRecord
  2
PUNTI
 70
0
 62
7
  6
CONTINUOUS
370
-3
390
F
  0
LAYER
  5
20B
100
AcDbSymbolTableRecord
100
AcDbLayerTableRecord
  2
RACCORDO
 70
0
 62
7
  6
CONTINUOUS
370
-3
390
F
  0
LAYER
  5
20C
100
AcDbSymbolTableRecord
100
AcDbLayerTableRecord
  2
SIMBOLI
 70
0
 62
7
  6
CONTINUOUS
370
-3
390
F
  0
LAYER
  5
20D
100
AcDbSymbolTableRecord
100
AcDbLayerTableRecord
  2
SMUSSO
 70
0
 62
7
  6
CONTINUOUS
370
-3
390
F
  0
LAYER
  5
20E
100
AcDbSymbolTableRecord
100
AcDbLayerTableRecord
  2
SNAPLINE
 70
0
 62
7
  6
CONTINUOUS
370
-3
390
F
  0
LAYER
  5
20F
100
AcDbSymbolTableRecord
100
AcDbLayerTableRecord
  2
SUPERFICI
 70
0
 62
7
  6
CONTINUOUS
370
-3
390
F
  0
LAYER
  5
210
100
AcDbSymbolTableRecord
100
AcDbLayerTableRecord
  2
TRASH
 70
0
 62
7
  6
CONTINUOUS
370
-3
390
F
  0
LAYER
  5
211
100
AcDbSymbolTableRecord
100
AcDbLayerTableRecord
  2
___SHELL
 70
0
 62
7
  6
CONTINUOUS
370
-3
390
F
  0
ENDTAB
  0
TABLE
  2
STYLE
  5
3
100
AcDbSymbolTable
 70
1
  0
STYLE
  5
11
100
AcDbSymbolTableRecord
100
AcDbTextStyleTableRecord
  2
STANDARD
 70
0
 40
0.0
 41
0.8
 50
0.0
 71
0
 42
0.2
  3
txt
  4

  0
STYLE
  5
212
100
AcDbSymbolTableRecord
100
AcDbTextStyleTableRecord
  2
TEXTSTYLE_1
 70
0
 40
0.0
 41
0.8
 50
0.0
 71
0
 42
0.2
  3
gdt
  4

  0
ENDTAB
  0
TABLE
  2
VIEW
  5
6
100
AcDbSymbolTable
 70
0
  0
ENDTAB
  0
TABLE
  2
UCS
  5
7
100
AcDbSymbolTable
 70
0
  0
ENDTAB
  0
TABLE
  2
APPID
  5
9
100
AcDbSymbolTable
 70
1
  0
APPID
  5
213
100
AcDbSymbolTableRecord
100
AcDbRegAppTableRecord
  2
ACAD
 70
0
  0
ENDTAB
  0
TABLE
  2
BLOCK_RECORD
  5
1
100
AcDbSymbolTable
 70
0
  0
BLOCK_RECORD
  5
214
100
AcDbSymbolTableRecord
100
AcDbBlockTableRecord
  2
*Model_Space
  0
BLOCK_RECORD
  5
215
100
AcDbSymbolTableRecord
100
AcDbBlockTableRecord
  2
*Paper_Space
  0
BLOCK_RECORD
  5
216
100
AcDbSymbolTableRecord
100
AcDbBlockTableRecord
  2
_FILLED
  0
ENDTAB
  0
TABLE
  2
DIMSTYLE
  5
A
100
AcDbSymbolTable
 70
1
100
AcDbDimStyleTable
 71
0
  0
DIMSTYLE
105
217
100
AcDbSymbolTableRecord
100
AcDbDimStyleTableRecord
  2
STANDARD
 70
0
  3

  4

 40
1.0
 41
3.0
 42
0.5
 43
0.38
 44
1.5
 45
0.0
 46
0.0
 47
0.01
 48
0.01
140
3.0
141
0.09
142
0.0
143
25.4
144
1.0
145
0.0
146
1.0
147
0.625
 71
1
 72
0
 73
0
 74
0
 75
0
 76
0
 77
1
 78
8
 79
2
170
0
171
1
172
0
173
0
174
0
175
0
176
0
177
0
178
0
270
2
179
2
271
2
272
2
273
2
274
2
275
0
280
0
281
0
282
0
283
1
284
8
285
0
286
0
287
3
288
0
340
11
278
44
341
216
342
216
343
216
344
216
  0
ENDTAB
  0
ENDSEC
  0
SECTION
  2
BLOCKS
  0
BLOCK
  5
20
100
AcDbEntity
  8
0
100
AcDbBlockBegin
  2
*Model_Space
 70
0
 10
0.0
 20
0.0
 30
0.0
  3
*Model_Space
  1

  0
ENDBLK
  5
21
100
AcDbEntity
  8
0
100
AcDbBlockEnd
  0
BLOCK
  5
1C
100
AcDbEntity
  8
0
100
AcDbBlockBegin
  2
*Paper_Space
 70
0
 10
0.0
 20
0.0
 30
0.0
  3
*Paper_Space
  1

  0
ENDBLK
  5
1D
100
AcDbEntity
  8
0
100
AcDbBlockEnd
  0
BLOCK
  5
218
100
AcDbEntity
  8
0
100
AcDbBlockBegin
  2
_FILLED
 70
64
 10
0.0
 20
0.0
  3
_FILLED
  1

  0
SOLID
  5
219
100
AcDbEntity
  8
0
  6
BYBLOCK
 62
0
100
AcDbTrace
 10
0.0
 20
0.0
 11
-1.0
 21
0.3166666667
 12
-1.0
 22
-0.3166666667
 13
-1.0
 23
-0.3166666667
  0
ENDBLK
  5
21A
100
AcDbEntity
  8
0
  6
BYBLOCK
 62
0
100
AcDbBlockEnd
  0
ENDSEC
  0
SECTION
  2
ENTITIES
  0
LWPOLYLINE
  5
21B
100
AcDbEntity
  8
0
100
AcDbPolyline
 62
7
  6
CONTINUOUS
 90
19
 70
0
 10
243.4124616769
 20
188.8879807396
 10
243.3797047595
 20
188.8657685626
 10
243.2929168399
 20
188.8008100418
 10
243.2095337849
 20
188.7295832464
 10
243.1297501913
 20
188.6525723549
 10
243.0537089857
 20
188.5702078483
 10
242.9816696006
 20
188.4829988135
 10
242.9138274138
 20
188.3913633919
 10
242.8504327172
 20
188.2957360144
 10
242.7919016997
 20
188.1968062536
 10
242.738472653
 20
188.0950387147
 10
242.6904141761
 20
187.9908722605
 10
242.6480818116
 20
187.8850237904
 10
242.6117248589
 20
187.7779360125
 10
242.5815900368
 20
187.6699976713
 10
242.557973387
 20
187.5617047364
 10
242.5411637325
 20
187.4534125416
 10
242.5314663435
 20
187.3455308112
 10
242.5299625542
 20
187.31218259
  0
LINE
  5
21C
100
AcDbEntity
  8
0
100
AcDbLine
 62
7
  6
CONTINUOUS
 10
243.4122207727
 20
188.8878221875
 11
244.3535175182
 21
189.5085985386
  0
LINE
  5
21D
100
AcDbEntity
  8
0
100
AcDbLine
 62
250
  6
CONTINUOUS
 10
243.6689902037
 20
188.8674117095
 11
244.6116315846
 21
189.489074835
  0
LWPOLYLINE
  5
21E
100
AcDbEntity
  8
0
100
AcDbPolyline
 62
250
  6
CONTINUOUS
 90
9
 70
0
 10
243.412461677
 20
188.8879807396
 10
243.4331966673
 20
188.8994392759
 10
243.4612275851
 20
188.9092824776
 10
243.4917346423
 20
188.9143229923
 10
243.5243839861
 20
188.9145056597
 10
243.5588183214
 20
188.9098284822
 10
243.5946608172
 20
188.9003426449
 10
243.6315192311
 20
188.8861519555
 10
243.6689902037
 20
188.8674117095
  0
LWPOLYLINE
  5
21F
100
AcDbEntity
  8
0
100
AcDbPolyline
 62
7
  6
CONTINUOUS
 90
14
 70
0
 10
242.5299986184
 20
153.7337359093
 10
242.5360356308
 20
153.6454617147
 10
242.548172052
 20
153.5571207513
 10
242.5659596365
 20
153.4731414576
 10
242.5890680901
 20
153.3938097388
 10
242.6172275252
 20
153.3190348129
 10
242.6503085738
 20
153.2485525758
 10
242.6880458028
 20
153.182561543
 10
242.7301519465
 20
153.1212247255
 10
242.7765295799
 20
153.0644517591
 10
242.8268458189
 20
153.0125096037
 10
242.8807568481
 20
152.9656135115
 10
242.9381695486
 20
152.9237420328
 10
242.9830590727
 20
152.8959078527
  0
LWPOLYLINE
  5
220
100
AcDbEntity
  8
0
100
AcDbPolyline
 62
7
  6
CONTINUOUS
 90
10
 70
0
 10
242.5299724475
 20
187.3124793937
 10
242.41514667
 20
183.5608362928
 10
242.3274347472
 20
179.7639088525
 10
242.2689630437
 20
175.9836465859
 10
242.2397366152
 20
172.2203612866
 10
242.2397582696
 20
168.4743564436
 10
242.269028674
 20
164.7459458988
 10
242.3275465638
 20
161.035433834
 10
242.4153084049
 20
157.3431232922
 10
242.5299981115
 20
153.7337500651
  0
LWPOLYLINE
  5
221
100
AcDbEntity
  8
0
100
AcDbPolyline
 62
250
  6
CONTINUOUS
 90
22
 70
0
 10
242.6764241937
 20
187.1081605476
 10
242.6823797711
 20
187.2010616517
 10
242.6938090607
 20
187.2957556308
 10
242.7105207488
 20
187.3916909533
 10
242.7322181659
 20
187.4880140407
 10
242.7587132243
 20
187.5845149303
 10
242.7900924832
 20
187.6816518802
 10
242.82639783
 20
187.7793816147
 10
242.8673363854
 20
187.8767652519
 10
242.9125497807
 20
187.972939157
 10
242.9620094343
 20
188.0678479116
 10
243.0152446
 20
188.160582127
 10
243.0709599265
 20
188.2491424366
 10
243.1279251551
 20
188.332194512
 10
243.1863770867
 20
188.4106573647
 10
243.2472165783
 20
188.4859198749
 10
243.3099710026
 20
188.5574225109
 10
243.3745555187
 20
188.6251000801
 10
243.4427543954
 20
188.690537861
 10
243.5150822302
 20
188.7535952816
 10
243.5906040869
 20
188.812824414
 10
243.6689902037
 20
188.8674117095
  0
LWPOLYLINE
  5
222
100
AcDbEntity
  8
0
100
AcDbPolyline
 62
7
  6
CONTINUOUS
 90
14
 70
0
 10
273.724073139
 20
135.1464290578
 10
273.7706523549
 20
135.1214050979
 10
273.8398332389
 20
135.0907476917
 10
273.9127300689
 20
135.0659642736
 10
273.98860807
 20
135.0475210615
 10
274.0670403596
 20
135.03567356
 10
274.1475727951
 20
135.0306360643
 10
274.2294632666
 20
135.0325389216
 10
274.3123159984
 20
135.0413885301
 10
274.3958295739
 20
135.0571827974
 10
274.4795471651
 20
135.0798638919
 10
274.5631608144
 20
135.109327203
 10
274.6464629707
 20
135.1455042473
 10
274.6685693893
 20
135.1562678553
  0
LWPOLYLINE
  5
223
100
AcDbEntity
  8
0
100
AcDbPolyline
 62
250
  6
CONTINUOUS
 90
8
 70
0
 10
242.5308102382
 20
153.7219226697
 10
242.5366290953
 20
153.6911324083
 10
242.5477307352
 20
153.6609902995
 10
242.5639962094
 20
153.6318193013
 10
242.5852512412
 20
153.6039319665
 10
242.6112680934
 20
153.5776270943
 10
242.6417680081
 20
153.5531865287
 10
242.6764241937
 20
153.5308721382
  0
LWPOLYLINE
  5
224
100
AcDbEntity
  8
0
100
AcDbPolyline
 62
250
  6
CONTINUOUS
 90
9
 70
0
 10
242.5299625542
 20
187.31218259
 10
242.5308100287
 20
187.290382209
 10
242.5366285661
 20
187.261806016
 10
242.5477299659
 20
187.2335890248
 10
242.5639953145
 20
187.2060335761
 10
242.5852503493
 20
187.1794349445
 10
242.611267342
 20
187.1540781384
 10
242.6417675517
 20
187.1302348483
 10
242.676424194
 20
187.1081605567
  0
LWPOLYLINE
  5
225
100
AcDbEntity
  8
0
100
AcDbPolyline
 62
250
  6
CONTINUOUS
 90
16
 70
0
 10
242.6764241937
 20
153.5308721382
 10
242.5984237483
 20
155.8818740654
 10
242.5342352949
 20
158.1704808856
 10
242.4828074158
 20
160.3959702936
 10
242.4434282655
 20
162.5379085623
 10
242.4146233926
 20
164.6152759264
 10
242.3950462359
 20
166.6869963252
 10
242.3845604331
 20
168.7546999479
 10
242.3830196155
 20
170.8164827716
 10
242.3905825929
 20
172.9268636485
 10
242.4078915318
 20
175.0907870982
 10
242.4355155304
 20
177.3038823195
 10
242.4748074739
 20
179.6074280858
 10
242.5272989135
 20
182.015730805
 10
242.5940686171
 20
184.5157692393
 10
242.6764241937
 20
187.1081605476
  0
LINE
  5
226
100
AcDbEntity
  8
0
100
AcDbLine
 62
7
  6
CONTINUOUS
 10
242.9825437917
 20
152.8961973386
 11
273.7245038275
 21
135.1461749012
  0
LINE
  5
227
100
AcDbEntity
  8
0
100
AcDbLine
 62
250
  6
CONTINUOUS
 10
242.6764241937
 20
153.5308721382
 11
273.411172848
 21
135.7850134621
  0
LINE
  5
228
100
AcDbEntity
  8
0
100
AcDbLine
 62
7
  6
CONTINUOUS
 10
273.7240533772
 20
135.1464352909
 11
273.7245037524
 21
135.1461749445
  0
LWPOLYLINE
  5
229
100
AcDbEntity
  8
0
100
AcDbPolyline
 62
250
  6
CONTINUOUS
 90
12
 70
0
 10
242.9825437917
 20
152.8961973386
 10
242.9433658191
 20
152.9213767623
 10
242.8963751495
 20
152.9593109564
 10
242.8547455969
 20
153.0018026271
 10
242.8178179725
 20
153.0487547133
 10
242.7848585659
 20
153.1007879607
 10
242.75610902
 20
153.1574842512
 10
242.7315835593
 20
153.2187624571
 10
242.7108338405
 20
153.2864509443
 10
242.6942488123
 20
153.3613705451
 10
242.6826002791
 20
153.4428703461
 10
242.6764241937
 20
153.5308721382
  0
LWPOLYLINE
  5
22A
100
AcDbEntity
  8
0
100
AcDbPolyline
 62
7
  6
CONTINUOUS
 90
11
 70
0
 10
257.0403541218
 20
161.6094393227
 10
257.0375897944
 20
161.6821027732
 10
257.0403464149
 20
161.7515945596
 10
257.048479097
 20
161.8179953909
 10
257.0617678204
 20
161.8797486522
 10
257.080301179
 20
161.9366870153
 10
257.1039890789
 20
161.9889769391
 10
257.1323421778
 20
162.0355617456
 10
257.1654991591
 20
162.0763750288
 10
257.203318984
 20
162.1114818345
 10
257.2267572069
 20
162.1287058161
  0
LWPOLYLINE
  5
22B
100
AcDbEntity
  8
0
100
AcDbPolyline
 62
7
  6
CONTINUOUS
 90
12
 70
0
 10
257.7454036831
 20
160.4578272885
 10
257.6832017317
 20
160.4969809168
 10
257.6222998436
 20
160.541365354
 10
257.562698371
 20
160.5909808044
 10
257.5039184392
 20
160.6463343362
 10
257.4464403402
 20
160.7069197026
 10
257.3917034001
 20
160.7712172644
 10
257.339844968
 20
160.8392407127
 10
257.290730101
 20
160.91097775
 10
257.2453895683
 20
160.9848696854
 10
257.2039027872
 20
161.0609249283
 10
257.1661931099
 20
161.1391366712
  0
LINE
  5
22C
100
AcDbEntity
  8
0
100
AcDbLine
 62
7
  6
CONTINUOUS
 10
257.1661931099
 20
161.1391366712
 11
257.1324309731
 21
161.2195298022
  0
LWPOLYLINE
  5
22D
100
AcDbEntity
  8
0
100
AcDbPolyline
 62
7
  6
CONTINUOUS
 90
6
 70
0
 10
257.1330567181
 20
161.2179231135
 10
257.1045499236
 20
161.2973965876
 10
257.0806189611
 20
161.3774462315
 10
257.0618939386
 20
161.4561548979
 10
257.0485184325
 20
161.5334759133
 10
257.0403503257
 20
161.6094567907
  0
LWPOLYLINE
  5
22E
100
AcDbEntity
  8
0
100
AcDbPolyline
 62
7
  6
CONTINUOUS
 90
11
 70
0
 10
258.449050729
 20
160.9383368516
 10
258.451803361
 20
160.8656712507
 10
258.4490571263
 20
160.7961876935
 10
258.4409566203
 20
160.7298065252
 10
258.4277199957
 20
160.6680840033
 10
258.4092568832
 20
160.6111865151
 10
258.3856561526
 20
160.5589468103
 10
258.357403525
 20
160.5124199436
 10
258.3243580417
 20
160.4716712035
 10
258.2866583057
 20
160.4366339414
 10
258.2452084103
 20
160.408164744
  0
LINE
  5
22F
100
AcDbEntity
  8
0
100
AcDbLine
 62
7
  6
CONTINUOUS
 10
257.2267572069
 20
162.1287058161
 11
257.2450867834
 21
162.1401157533
  0
LINE
  5
230
100
AcDbEntity
  8
0
100
AcDbLine
 62
250
  6
CONTINUOUS
 10
275.423178132
 20
171.6975872777
 11
275.5250367132
 21
171.7564056507
  0
LINE
  5
231
100
AcDbEntity
  8
0
100
AcDbLine
 62
7
  6
CONTINUOUS
 10
257.2450867834
 20
162.1401157533
 11
257.2905414786
 21
162.161896446
  0
LWPOLYLINE
  5
232
100
AcDbEntity
  8
0
100
AcDbPolyline
 62
250
  6
CONTINUOUS
 90
16
 70
0
 10
274.1117563219
 20
169.3418089336
 10
274.072747188
 20
169.3239441317
 10
274.0304345556
 20
169.308495813
 10
273.9852717839
 20
169.2956294984
 10
273.9377427699
 20
169.2854830445
 10
273.8883567637
 20
169.2781651653
 10
273.8376429121
 20
169.2737542686
 10
273.7861445893
 20
169.2722976147
 10
273.7344135746
 20
169.2738108112
 10
273.6830041404
 20
169.2782776447
 10
273.6324671138
 20
169.2856502555
 10
273.5833439742
 20
169.2958496496
 10
273.5361610521
 20
169.3087665455
 10
273.4914238893
 20
169.324262545
 10
273.4496118226
 20
169.3421716159
 10
273.411172848
 20
169.3623018715
  0
LINE
  5
233
100
AcDbEntity
  8
0
100
AcDbLine
 62
7
  6
CONTINUOUS
 10
257.2905414786
 20
162.161896446
 11
257.3395363521
 21
162.1770569345
  0
LINE
  5
234
100
AcDbEntity
  8
0
100
AcDbLine
 62
7
  6
CONTINUOUS
 10
257.3395363521
 20
162.1770569345
 11
257.3914667615
 21
162.1853823543
  0
LWPOLYLINE
  5
235
100
AcDbEntity
  8
0
100
AcDbPolyline
 62
7
  6
CONTINUOUS
 90
4
 70
0
 10
257.3914667615
 20
162.1853823543
 10
257.4457151185
 20
162.1867110145
 10
257.502897764
 20
162.1811631616
 10
257.561576179
 20
162.1687895515
  0
LWPOLYLINE
  5
236
100
AcDbEntity
  8
0
100
AcDbPolyline
 62
7
  6
CONTINUOUS
 90
4
 70
0
 10
257.561576179
 20
162.1687895515
 10
257.6213577715
 20
162.1496089508
 10
257.6826337244
 20
162.1236017823
 10
257.7454036831
 20
162.0907678421
  0
LWPOLYLINE
  5
237
100
AcDbEntity
  8
0
100
AcDbPolyline
 62
7
  6
CONTINUOUS
 90
12
 70
0
 10
257.7454036831
 20
162.0907678421
 10
257.8075914992
 20
162.0516100785
 10
257.8684595566
 20
162.0072092311
 10
257.9280082079
 20
161.9575655027
 10
257.9867168369
 20
161.9021721953
 10
258.0441074769
 20
161.8415368221
 10
258.0987446769
 20
161.7771810303
 10
258.150493192
 20
161.7090918501
 10
258.1994906735
 20
161.6372836367
 10
258.244710897
 20
161.5633189577
 10
258.2860766778
 20
161.4871912608
 10
258.32366797
 20
161.4089086944
  0
LINE
  5
238
100
AcDbEntity
  8
0
100
AcDbLine
 62
7
  6
CONTINUOUS
 10
258.32366797
 20
161.4089086944
 11
258.357320764
 21
161.3284388337
  0
LWPOLYLINE
  5
239
100
AcDbEntity
  8
0
100
AcDbPolyline
 62
7
  6
CONTINUOUS
 90
6
 70
0
 10
258.3566937665
 20
161.3300555954
 10
258.3851001266
 20
161.2505207399
 10
258.4089435381
 20
161.1704168224
 10
258.4275976785
 20
161.0916635051
 10
258.4409201907
 20
161.0143074313
 10
258.449054892
 20
160.9383028038
  0
LWPOLYLINE
  5
23A
100
AcDbEntity
  8
0
100
AcDbPolyline
 62
250
  6
CONTINUOUS
 90
22
 70
0
 10
274.4271112412
 20
171.1080581123
 10
274.3511307306
 20
171.0575618908
 10
274.276425682
 20
171.0017706721
 10
274.2033430898
 20
170.9410982592
 10
274.1324077605
 20
170.8761671426
 10
274.0637105338
 20
170.8072383386
 10
273.9969601952
 20
170.7340809358
 10
273.9322647354
 20
170.6567792456
 10
273.8701516954
 20
170.5759285798
 10
273.8109835697
 20
170.4919884953
 10
273.7551949132
 20
170.4056252031
 10
273.7028602012
 20
170.3170057587
 10
273.6538543351
 20
170.2258184781
 10
273.608389873
 20
170.1322406114
 10
273.5668981611
 20
170.0369180704
 10
273.529662983
 20
169.94023057
 10
273.4969397865
 20
169.8425251606
 10
273.4690626702
 20
169.7444385921
 10
273.4463693199
 20
169.6468121102
 10
273.4290674926
 20
169.5502775506
 10
273.4172898887
 20
169.4552619889
 10
273.411172848
 20
169.3623018715
  0
LWPOLYLINE
  5
23B
100
AcDbEntity
  8
0
100
AcDbPolyline
 62
250
  6
CONTINUOUS
 90
22
 70
0
 10
274.7929439812
 20
170.5033972739
 10
274.7416366015
 20
170.4694316665
 10
274.6916243905
 20
170.4324945832
 10
274.6429073483
 20
170.3925860239
 10
274.5954104309
 20
170.3495832284
 10
274.5492086823
 20
170.3036089568
 10
274.5045272338
 20
170.2550314905
 10
274.4612315235
 20
170.2037027284
 10
274.4194561132
 20
170.1497707715
 10
274.3798298204
 20
170.094048204
 10
274.3424606609
 20
170.0366911741
 10
274.3072406188
 20
169.9775435336
 10
274.2744744645
 20
169.9169494215
 10
274.2440661276
 20
169.8547380914
 10
274.2161116784
 20
169.7910802897
 10
274.1912040985
 20
169.7268323945
 10
274.1693622523
 20
169.6618671571
 10
274.1505672753
 20
169.5963118262
 10
274.135355555
 20
169.5314045259
 10
274.1239058873
 20
169.4675579645
 10
274.1160394762
 20
169.4043594337
 10
274.1117563219
 20
169.3418089336
  0
LINE
  5
23C
100
AcDbEntity
  8
0
100
AcDbLine
 62
250
  6
CONTINUOUS
 10
275.4032449661
 20
171.7103831781
 11
274.4271112412
 21
171.1080581123
  0
LINE
  5
23D
100
AcDbEntity
  8
0
100
AcDbLine
 62
250
  6
CONTINUOUS
 10
275.7565292321
 20
171.0979792813
 11
274.7929439812
 21
170.5033972739
  0
LINE
  5
23E
100
AcDbEntity
  8
0
100
AcDbLine
 62
250
  6
CONTINUOUS
 10
275.7553868469
 20
171.122132255
 11
275.8572682254
 21
171.1809637923
  0
LINE
  5
23F
100
AcDbEntity
  8
0
100
AcDbLine
 62
7
  6
CONTINUOUS
 10
258.2452084103
 20
160.408164744
 11
258.226203199
 21
160.3980042417
  0
LWPOLYLINE
  5
240
100
AcDbEntity
  8
0
100
AcDbPolyline
 62
7
  6
CONTINUOUS
 90
10
 70
0
 10
258.226203199
 20
160.3980042417
 10
258.1999512508
 20
160.3864446902
 10
258.1509410877
 20
160.371291056
 10
258.0992484912
 20
160.3630143933
 10
258.0448383103
 20
160.361737341
 10
257.9877432725
 20
160.3673358568
 10
257.9291356725
 20
160.3797504161
 10
257.8694057656
 20
160.3989608819
 10
257.8081618872
 20
160.4249865745
 10
257.7454036831
 20
160.4578272885
  0
LWPOLYLINE
  5
241
100
AcDbEntity
  8
0
100
AcDbPolyline
 62
250
  6
CONTINUOUS
 90
22
 70
0
 10
274.1117563219
 20
135.7980978126
 10
274.1159005133
 20
135.7421313911
 10
274.123313486
 20
135.6894149263
 10
274.1339952402
 20
135.6399484185
 10
274.148016111
 20
135.5936849634
 10
274.1653057633
 20
135.5506714652
 10
274.1856531912
 20
135.5110486359
 10
274.209121281
 20
135.4746980144
 10
274.2356471466
 20
135.4417380618
 10
274.2648311236
 20
135.4126648736
 10
274.2965900299
 20
135.3875556221
 10
274.3310070476
 20
135.3663331349
 10
274.3679320589
 20
135.3492619908
 10
274.4074672483
 20
135.3362889041
 10
274.4495104313
 20
135.3274671603
 10
274.4936049361
 20
135.3232211947
 10
274.5398723317
 20
135.323638691
 10
274.5881910491
 20
135.3286319654
 10
274.6377397106
 20
135.3383624016
 10
274.6882445234
 20
135.3528837941
 10
274.7399792803
 20
135.3721423484
 10
274.7929439812
 20
135.3961380645
  0
LWPOLYLINE
  5
242
100
AcDbEntity
  8
0
100
AcDbPolyline
 62
250
  6
CONTINUOUS
 90
12
 70
0
 10
273.411172848
 20
135.7850134621
 10
273.4170187699
 20
135.7015195001
 10
273.4281348987
 20
135.6223819696
 10
273.4443405137
 20
135.5478994856
 10
273.4653675604
 20
135.4785267581
 10
273.4910341913
 20
135.4142660295
 10
273.5213842329
 20
135.3548057138
 10
273.5564035159
 20
135.3002640888
 10
273.5958429048
 20
135.2511082458
 10
273.6394720394
 20
135.2076221698
 10
273.686933036
 20
135.1701051304
 10
273.7240533772
 20
135.1464352909
  0
LWPOLYLINE
  5
243
100
AcDbEntity
  8
0
100
AcDbPolyline
 62
250
  6
CONTINUOUS
 90
6
 70
0
 10
275.8572705581
 20
136.1709757156
 10
275.8592401264
 20
136.1395245281
 10
275.8577293139
 20
136.1101036845
 10
275.8528295125
 20
136.0828873814
 10
275.8446132454
 20
136.0579095824
 10
275.8381386626
 20
136.0440878787
  0
LWPOLYLINE
  5
244
100
AcDbEntity
  8
0
100
AcDbPolyline
 62
250
  6
CONTINUOUS
 90
6
 70
0
 10
273.8337838423
 20
147.4905331282
 10
273.8617227832
 20
145.3111410837
 10
273.9031594915
 20
143.0560307059
 10
273.9591940009
 20
140.7124380748
 10
274.0287262777
 20
138.2931271103
 10
274.1117563219
 20
135.7980978126
  0
LWPOLYLINE
  5
245
100
AcDbEntity
  8
0
100
AcDbPolyline
 62
250
  6
CONTINUOUS
 90
11
 70
0
 10
274.1117563219
 20
169.3418089336
 10
274.0328554179
 20
166.9036137474
 10
273.9661114301
 20
164.5427178624
 10
273.9115243584
 20
162.2591212785
 10
273.8699554846
 20
160.0731324588
 10
273.8405435269
 20
157.9644429402
 10
273.8207046409
 20
155.8721273339
 10
273.8093693467
 20
153.793810672
 10
273.807607124
 20
151.7318679223
 10
273.8160425677
 20
149.6324985994
 10
273.8337838423
 20
147.4905331282
  0
LWPOLYLINE
  5
246
100
AcDbEntity
  8
0
100
AcDbPolyline
 62
250
  6
CONTINUOUS
 90
16
 70
0
 10
273.411172848
 20
169.3623018715
 10
273.3305004946
 20
166.9208554668
 10
273.2640400546
 20
164.5577589583
 10
273.2107438907
 20
162.2725224536
 10
273.1699331757
 20
160.0847579304
 10
273.1401075797
 20
157.9737860554
 10
273.1198348221
 20
155.8791342212
 10
273.1089440433
 20
153.798983627
 10
273.1073279822
 20
151.7351030382
 10
273.1151681623
 20
149.6332595659
 10
273.1330772692
 20
147.4892349001
 10
273.161656289
 20
145.3080738347
 10
273.2023707941
 20
143.0502094851
 10
273.2567895647
 20
140.7031537404
 10
273.3259543136
 20
138.2811240639
 10
273.411172848
 20
135.7850134621
  0
LINE
  5
247
100
AcDbEntity
  8
0
100
AcDbLine
 62
250
  6
CONTINUOUS
 10
242.6764241937
 20
187.1081605476
 11
273.411172848
 21
169.3623018715
  0
LWPOLYLINE
  5
248
100
AcDbEntity
  8
0
100
AcDbPolyline
 62
250
  6
CONTINUOUS
 90
16
 70
0
 10
274.7929439812
 20
170.5033972739
 10
274.7890773908
 20
170.5460257845
 10
274.7814521971
 20
170.5904604585
 10
274.7701518217
 20
170.6362150459
 10
274.7552999037
 20
170.6827888502
 10
274.7370589525
 20
170.7296721989
 10
274.7156285723
 20
170.7763520204
 10
274.6912432669
 20
170.822317478
 10
274.6641698812
 20
170.8670655414
 10
274.6347046914
 20
170.9101064849
 10
274.6031701397
 20
170.9509692814
 10
274.56991132
 20
170.9892067333
 10
274.5352922162
 20
171.0244003545
 10
274.4996916901
 20
171.056164985
 10
274.463499333
 20
171.0841530007
 10
274.4271112207
 20
171.1080580996
  0
LWPOLYLINE
  5
249
100
AcDbEntity
  8
0
100
AcDbPolyline
 62
7
  6
CONTINUOUS
 90
15
 70
0
 10
275.8853758867
 20
171.2541452638
 10
275.8840180606
 20
171.2911029405
 10
275.8792706493
 20
171.3329757482
 10
275.8709791743
 20
171.3755933413
 10
275.8592565367
 20
171.4179588527
 10
275.8440370405
 20
171.4601124378
 10
275.8252974121
 20
171.5018130247
 10
275.8035572663
 20
171.5417971426
 10
275.7789576932
 20
171.5799595241
 10
275.7515424305
 20
171.6161613827
 10
275.7221461212
 20
171.6494131538
 10
275.6910291342
 20
171.6796247617
 10
275.6582158355
 20
171.7068680276
 10
275.6244800138
 20
171.7306805979
 10
275.6024628954
 20
171.7441642697
  0
LINE
  5
24A
100
AcDbEntity
  8
0
100
AcDbLine
 62
7
  6
CONTINUOUS
 10
275.7565292321
 20
135.8761012247
 11
275.7565292321
 21
171.0979792813
  0
LINE
  5
24B
100
AcDbEntity
  8
0
100
AcDbLine
 62
250
  6
CONTINUOUS
 10
275.8572682254
 20
171.1809637923
 11
275.8572682254
 21
136.1709712859
  0
LINE
  5
24C
100
AcDbEntity
  8
0
100
AcDbLine
 62
7
  6
CONTINUOUS
 10
275.8853758893
 20
171.2541681386
 11
275.8853758893
 21
136.2441756322
  0
LWPOLYLINE
  5
24D
100
AcDbEntity
  8
0
100
AcDbPolyline
 62
250
  6
CONTINUOUS
 90
5
 70
0
 10
275.8853758867
 20
171.2541453639
 10
275.8852489743
 20
171.249130193
 10
275.8813094411
 20
171.2257448781
 10
275.8719249692
 20
171.2028825283
 10
275.8572682254
 20
171.1809637923
  0
LWPOLYLINE
  5
24E
100
AcDbEntity
  8
0
100
AcDbPolyline
 62
250
  6
CONTINUOUS
 90
5
 70
0
 10
275.5250393116
 20
171.7564071511
 10
275.5669166822
 20
171.7345403688
 10
275.6062819753
 20
171.7091268047
 10
275.642882544
 20
171.6807629898
 10
275.6766365305
 20
171.649979508
  0
LWPOLYLINE
  5
24F
100
AcDbEntity
  8
0
100
AcDbPolyline
 62
250
  6
CONTINUOUS
 90
5
 70
0
 10
275.6024629958
 20
171.7441642118
 10
275.5980579884
 20
171.7465606321
 10
275.5758371304
 20
171.7548395529
 10
275.5513465074
 20
171.7581414991
 10
275.5250367132
 20
171.7564056507
  0
LWPOLYLINE
  5
250
100
AcDbEntity
  8
0
100
AcDbPolyline
 62
250
  6
CONTINUOUS
 90
5
 70
0
 10
244.9952432268
 20
189.4163893137
 10
244.9908098135
 20
189.4188020726
 10
244.9685890748
 20
189.4270807342
 10
244.9440987387
 20
189.4303825087
 10
244.9177894076
 20
189.4286466461
  0
LINE
  5
251
100
AcDbEntity
  8
0
100
AcDbLine
 62
250
  6
CONTINUOUS
 10
243.6689902037
 20
188.8674117095
 11
274.4271112412
 21
171.1080581123
  0
LINE
  5
252
100
AcDbEntity
  8
0
100
AcDbLine
 62
7
  6
CONTINUOUS
 10
275.4032449661
 20
171.7103831781
 11
244.6116315846
 21
189.489074835
  0
LINE
  5
253
100
AcDbEntity
  8
0
100
AcDbLine
 62
250
  6
CONTINUOUS
 10
244.9177894076
 20
189.4286466461
 11
275.5250367132
 21
171.7564056507
  0
LINE
  5
254
100
AcDbEntity
  8
0
100
AcDbLine
 62
7
  6
CONTINUOUS
 10
244.9917954393
 20
189.4183614413
 11
275.6024905325
 21
171.7441483183
  0
LINE
  5
255
100
AcDbEntity
  8
0
100
AcDbLine
 62
250
  6
CONTINUOUS
 10
275.8853758893
 20
136.2441756322
 11
275.8852489939
 21
136.2391380746
  0
LWPOLYLINE
  5
256
100
AcDbEntity
  8
0
100
AcDbPolyline
 62
250
  6
CONTINUOUS
 90
9
 70
0
 10
274.7929439812
 20
135.3961380645
 10
274.7890773167
 20
135.3535890449
 10
274.7814519752
 20
135.3137782804
 10
274.7701514046
 20
135.2771414395
 10
274.7552992722
 20
135.2440794566
 10
274.7370581124
 20
135.2149541451
 10
274.7156275477
 20
135.1900842377
 10
274.6912421034
 20
135.1697418981
 10
274.6685693893
 20
135.1562678553
  0
LWPOLYLINE
  5
257
100
AcDbEntity
  8
0
100
AcDbPolyline
 62
7
  6
CONTINUOUS
 90
7
 70
0
 10
244.9917954393
 20
189.4183614413
 10
244.9570205634
 20
189.436247912
 10
244.9215244278
 20
189.4509110485
 10
244.8854753962
 20
189.4622575396
 10
244.8490903053
 20
189.4702024239
 10
244.8126716472
 20
189.474703897
 10
244.7982305585
 20
189.4755364496
  0
LWPOLYLINE
  5
258
100
AcDbEntity
  8
0
100
AcDbPolyline
 62
250
  6
CONTINUOUS
 90
10
 70
0
 10
275.6766365305
 20
171.649979508
 10
275.7073466902
 20
171.6173718974
 10
275.7347432434
 20
171.5836506515
 10
275.7588473047
 20
171.5494484453
 10
275.7798590072
 20
171.5151434293
 10
275.7978884287
 20
171.4810286804
 10
275.8129714726
 20
171.4477972327
 10
275.8255255615
 20
171.4154328963
 10
275.8360421401
 20
171.3830140684
 10
275.8444975759
 20
171.3508185781
  0
LWPOLYLINE
  5
259
100
AcDbEntity
  8
0
100
AcDbPolyline
 62
250
  6
CONTINUOUS
 90
6
 70
0
 10
275.8444975759
 20
171.3508185781
 10
275.8510069303
 20
171.3189096504
 10
275.8557855088
 20
171.2859376688
 10
275.8586195381
 20
171.2515652454
 10
275.8591894249
 20
171.216494882
 10
275.8572682254
 20
171.1809637923
  0
LWPOLYLINE
  5
25A
100
AcDbEntity
  8
0
100
AcDbPolyline
 62
250
  6
CONTINUOUS
 90
4
 70
0
 10
275.8852489939
 20
136.2391380746
 10
275.8813095247
 20
136.215752662
 10
275.8719250538
 20
136.1928901794
 10
275.8572682254
 20
136.1709712859
  0
LWPOLYLINE
  5
25B
100
AcDbEntity
  8
0
100
AcDbPolyline
 62
7
  6
CONTINUOUS
 90
7
 70
0
 10
275.838082542
 20
136.0440082359
 10
275.8459444118
 20
136.059797045
 10
275.8601756477
 20
136.0942091497
 10
275.8712976556
 20
136.1302964434
 10
275.8792091947
 20
136.1677587157
 10
275.8838998021
 20
136.2063637638
 10
275.8853758875
 20
136.2441947154
  0
LINE
  5
25C
100
AcDbEntity
  8
0
100
AcDbLine
 62
250
  6
CONTINUOUS
 10
275.8572682254
 20
136.1709712859
 11
275.7565292321
 21
135.9796708076
  0
LINE
  5
25D
100
AcDbEntity
  8
0
100
AcDbLine
 62
7
  6
CONTINUOUS
 10
275.838122145
 20
136.0440565122
 11
275.7565292321
 21
135.8891138952
  0
LINE
  5
25E
100
AcDbEntity
  8
0
100
AcDbLine
 62
250
  6
CONTINUOUS
 10
244.9177894076
 20
189.4286466461
 11
244.7017424198
 21
189.4370459681
  0
LINE
  5
25F
100
AcDbEntity
  8
0
100
AcDbLine
 62
7
  6
CONTINUOUS
 10
244.7982681947
 20
189.4755352762
 11
244.6233001342
 21
189.4823375607
  0
LWPOLYLINE
  5
260
100
AcDbEntity
  8
0
100
AcDbPolyline
 62
250
  6
CONTINUOUS
 90
7
 70
0
 10
244.7982563503
 20
189.4755357366
 10
244.8066311527
 20
189.4749927661
 10
244.8270395502
 20
189.4718887842
 10
244.8484245008
 20
189.46600799
 10
244.8709287366
 20
189.4569671935
 10
244.8941103288
 20
189.4445861174
 10
244.9177894076
 20
189.4286466461
  0
LWPOLYLINE
  5
261
100
AcDbEntity
  8
0
100
AcDbPolyline
 62
250
  6
CONTINUOUS
 90
16
 70
0
 10
274.1117563213
 20
135.7980978283
 10
274.0727476999
 20
135.7767617875
 10
274.0304355678
 20
135.7578793259
 10
273.9852732505
 20
135.7416527714
 10
273.9377446124
 20
135.7282559977
 10
273.8883588833
 20
135.7178325613
 10
273.8376452034
 20
135.7104941612
 10
273.7861469336
 20
135.7063194405
 10
273.7344158519
 20
135.7053531481
 10
273.6830062529
 20
135.7076056537
 10
273.6324689685
 20
135.7130528376
 10
273.583345493
 20
135.7216363485
 10
273.5361621977
 20
135.7332642215
 10
273.491424649
 20
135.7478118726
 10
273.449612194
 20
135.765123439
 10
273.4111728488
 20
135.78501344
  0
LINE
  5
262
100
AcDbEntity
  8
0
100
AcDbLine
 62
250
  6
CONTINUOUS
 10
274.7929439812
 20
135.3961380645
 11
275.7565292321
 21
135.8761012247
  0
LINE
  5
263
100
AcDbEntity
  8
0
100
AcDbLine
 62
7
  6
CONTINUOUS
 10
274.6685415512
 20
135.1562539861
 11
275.6439007966
 21
135.6420817895
  0
ELLIPSE
  5
264
100
AcDbEntity
  8
0
100
AcDbEllipse
 62
7
  6
CONTINUOUS
 10
275.4029219854
 20
171.3017742848
 30
0.0
 11
-0.2496303025
 21
0.4334023309
 31
0.0
 40
0.5778584463
 41
-2.3545649475
 42
-0.7846820092
  0
ELLIPSE
  5
265
100
AcDbEntity
  8
0
100
AcDbEllipse
 62
7
  6
CONTINUOUS
 10
244.6119545654
 20
189.0800929717
 30
0.0
 11
-0.2498600223
 21
0.43379745
 31
0.0
 40
0.5768037941
 41
5.4994124095
 42
6.3180789651
  0
ELLIPSE
  5
266
100
AcDbEntity
  8
0
100
AcDbEllipse
 62
7
  6
CONTINUOUS
 10
275.4029219854
 20
136.0806430062
 30
0.0
 11
-0.2498600223
 21
0.43379745
 31
0.0
 40
0.5768037941
 41
3.1066989922
 42
3.9277026942
  0
ENDSEC
  0
SECTION
  2
OBJECTS
  0
DICTIONARY
  5
C
100
AcDbDictionary
280
0
281
1
  3
ACAD_GROUP
350
D
  3
ACAD_MLINESTYLE
350
17
  3
ACAD_LAYOUT
350
1A
  3
ACAD_PLOTSETTINGS
350
19
  3
ACAD_PLOTSTYLENAME
350
E
  0
DICTIONARY
  5
D
102
{ACAD_REACTORS
330
C
102
}
100
AcDbDictionary
280
0
281
1
  0
ACDBDICTIONARYWDFLT
  5
E
102
{ACAD_REACTORS
330
C
102
}
100
AcDbDictionary
281
1
  3
Normal
350
F
100
AcDbDictionaryWithDefault
340
F
  0
DICTIONARY
  5
17
102
{ACAD_REACTORS
330
C
102
}
100
AcDbDictionary
280
0
281
1
  3
Standard
350
18
  0
DICTIONARY
  5
19
102
{ACAD_REACTORS
330
C
102
}
100
AcDbDictionary
281
1
  0
DICTIONARY
  5
1A
102
{ACAD_REACTORS
330
C
102
}
100
AcDbDictionary
281
1
  3
Model
350
267
  3
Layout1
350
268
  0
ACDBPLACEHOLDER
  5
F
102
{ACAD_REACTORS
330
E
102
}
  0
MLINESTYLE
  5
18
102
{ACAD_REACTORS
330
17
102
}
100
AcDbMlineStyle
  2
STANDARD
 70
0
  3

 62
256
 51
90.0
 52
90.0
 71
2
 49
0.5
 62
256
  6
BYLAYER
 49
-0.5
 62
256
  6
BYLAYER
  0
LAYOUT
  5
267
102
{ACAD_REACTORS
330
1A
102
}
100
AcDbPlotSettings
  1

  2
none_device
  4
ANSI_C_(22.00_x_17.00_Inches)
  6

 40
0.0
 41
0.0
 42
0.0
 43
0.0
 44
558.8
 45
431.8
 46
0.0
 47
0.0
 48
0.0
 49
0.0
140
0.0
141
0.0
142
1.0
143
1.0
 70
1024
 72
1
 73
0
 74
0
  7

 75
0
147
1.0
148
0.0
149
0.0
100
AcDbLayout
  1
Model
 70
0
 71
0
 10
0.0
 20
0.0
 11
558.8
 21
431.8
 12
0.0
 22
0.0
 32
0.0
 14
0.0
 24
0.0
 34
0.0
 15
0.0
 25
0.0
 35
0.0
146
0.0
 13
0.0
 23
0.0
 33
0.0
 16
1.0
 26
0.0
 36
0.0
 17
0.0
 27
1.0
 37
0.0
 76
0
330
214
345
0
346
0
  0
LAYOUT
  5
268
102
{ACAD_REACTORS
330
1A
102
}
100
AcDbPlotSettings
  1

  2
none_device
  4
ANSI_C_(22.00_x_17.00_Inches)
  6

 40
0.0
 41
0.0
 42
0.0
 43
0.0
 44
558.8
 45
431.8
 46
0.0
 47
0.0
 48
0.0
 49
0.0
140
0.0
141
0.0
142
1.0
143
1.0
 70
0
 72
1
 73
0
 74
0
  7

 75
0
147
1.0
148
0.0
149
0.0
100
AcDbLayout
  1
Layout1
 70
0
 71
1
 10
0.0
 20
0.0
 11
558.8
 21
431.8
 12
0.0
 22
0.0
 32
0.0
 14
0.0
 24
0.0
 34
0.0
 15
0.0
 25
0.0
 35
0.0
146
0.0
 13
0.0
 23
0.0
 33
0.0
 16
1.0
 26
0.0
 36
0.0
 17
0.0
 27
1.0
 37
0.0
 76
0
330
215
345
0
346
0
  0
ENDSEC
  0
EOF
