  0
SECTION
  2
HEADER
  9
$ACADVER
  1
AC1024
  9
$DWGCODEPAGE
  3
ANSI_1252
  9
$EXTMAX
 10
558.8
 20
431.8
 30
0.0
  9
$EXTMIN
 10
0.0
 20
0.0
 30
0.0
  9
$LIMMIN
 10
0.0
 20
0.0
  9
$LIMMAX
 10
558.8
 20
431.8
  9
$VIEWCTR
 10
279.4
 20
215.9
  9
$VIEWSIZE
 40
431.8
  9
$CLAYER
  8
0
  9
$LTSCALE
 40
30.734
  9
$CELTYPE
  6
BYLAYER
  9
$DIMSCALE
 40
1.0
  9
$DIMASZ
 40
3.0
  9
$DIMEXO
 40
0.5
  9
$DIMDLI
 40
21.2344
  9
$DIMEXE
 40
1.5
  9
$DIMCEN
 40
5.0292
  9
$DIMLFAC
 40
1.0
  9
$DIMBLK
  1
_FILLED
  9
$DIMALT
 70
0
  9
$DIMALTF
 40
0.0393700787
  9
$DIMTXT
 40
3.0
  9
$DIMTOL
 70
1
  9
$DIMLIM
 70
0
  9
$DIMTFAC
 40
1.0
  9
$DIMTP
 40
0.01
  9
$DIMTM
 40
0.01
  9
$DIMGAP
 40
0.625
  9
$DIMDSEP
 70
44
  9
$AUNITS
 70
0
  9
$PDMODE
 70
3
  9
$PDSIZE
 40
3.0
  9
$HANDSEED
  5
2BA
  9
$TILEMODE
 70
1
  9
$MEASUREMENT
 70
1
  9
$INSUNITS
 70
4
  0
ENDSEC
  0
SECTION
  2
CLASSES
  0
CLASS
  1
ACDBDICTIONARYWDFLT
  2
AcDbDictionaryWithDefault
  3
AutoCAD 2000
 90
0
 91
1
280
0
281
0
  0
CLASS
  1
ACDBPLACEHOLDER
  2
AcDbPlaceHolder
  3
AutoCAD 2000
 90
0
 91
1
280
0
281
0
  0
CLASS
  1
LAYOUT
  2
AcDbLayout
  3
AutoCAD 2000
 90
0
 91
0
280
0
281
0
  0
ENDSEC
  0
SECTION
  2
TABLES
  0
TABLE
  2
VPORT
  5
8
100
AcDbSymbolTable
 70
2
  0
VPORT
  5
1F4
100
AcDbSymbolTableRecord
100
AcDbViewportTableRecord
  2
*ACTIVE
 70
0
 10
0.0
 20
0.0
 11
1.0
 21
1.0
 12
279.4
 22
215.9
 13
0.0
 23
0.0
 14
1.0
 24
1.0
 15
0.0
 25
0.0
 16
0.0
 26
0.0
 36
1.0
 17
0.0
 27
0.0
 37
0.0
 40
431.8
 41
1.2941176471
 42
50.0
 43
0.0
 44
0.0
 50
0.0
 51
0.0
 71
0
 72
100
 73
1
 74
1
 75
0
 76
0
 77
0
 78
0
  0
ENDTAB
  0
TABLE
  2
LTYPE
  5
5
100
AcDbSymbolTable
 70
6
  0
LTYPE
  5
14
100
AcDbSymbolTableRecord
100
AcDbLinetypeTableRecord
  2
BYBLOCK
 70
0
  3

 72
65
 73
0
 40
0.0
  0
LTYPE
  5
15
100
AcDbSymbolTableRecord
100
AcDbLinetypeTableRecord
  2
BYLAYER
 70
0
  3

 72
65
 73
0
 40
0.0
  0
LTYPE
  5
16
100
AcDbSymbolTableRecord
100
AcDbLinetypeTableRecord
  2
CONTINUOUS
 70
64
  3
Solid line
 72
65
 73
0
 40
0.0
  0
LTYPE
  5
1F5
100
AcDbSymbolTableRecord
100
AcDbLinetypeTableRecord
  2
CENTER
 70
64
  3
____ _ ____ _ ____ _ ____ _ ____ _ ____ _ ____
 72
65
 73
4
 40
0.6
 49
0.375
 74
0
 49
-0.075
 74
0
 49
0.075
 74
0
 49
-0.075
 74
0
  0
LTYPE
  5
1F6
100
AcDbSymbolTableRecord
100
AcDbLinetypeTableRecord
  2
HIDDEN
 70
64
  3
- - - - - - - - - - - - - - - - - - - -
 72
65
 73
2
 40
0.2
 49
0.1
 74
0
 49
-0.1
 74
0
  0
LTYPE
  5
1F7
100
AcDbSymbolTableRecord
100
AcDbLinetypeTableRecord
  2
PHANTOM
 70
64
  3
_____ _ _ _____ _ _ _____ _ _ _____
 72
65
 73
6
 40
0.8
 49
0.45
 74
0
 49
-0.05
 74
0
 49
0.1
 74
0
 49
-0.05
 74
0
 49
0.1
 74
0
 49
-0.05
 74
0
  0
LTYPE
  5
1F8
100
AcDbSymbolTableRecord
100
AcDbLinetypeTableRecord
  2
DOT
 70
64
  3
. . . . . . . . . . . . . . . . . . . .
 72
65
 73
2
 40
0.2
 49
0.1
 74
0
 49
-0.1
 74
0
  0
LTYPE
  5
1F9
100
AcDbSymbolTableRecord
100
AcDbLinetypeTableRecord
  2
DASHED
 70
64
  3
- - - - - - - - - - - - - - - - - - - -
 72
65
 73
2
 40
0.2
 49
0.1
 74
0
 49
-0.1
 74
0
  0
ENDTAB
  0
TABLE
  2
LAYER
  5
2
100
AcDbSymbolTable
 70
36
  0
LAYER
  5
10
100
AcDbSymbolTableRecord
100
AcDbLayerTableRecord
  2
0
 70
0
 62
7
  6
CONTINUOUS
370
-3
390
F
  0
LAYER
  5
1FA
100
AcDbSymbolTableRecord
100
AcDbLayerTableRecord
  2
DEFAULT_1
 70
0
 62
7
  6
CENTER
370
-3
390
F
  0
LAYER
  5
1FB
100
AcDbSymbolTableRecord
100
AcDbLayerTableRecord
  2
DEFAULT_2
 70
0
 62
7
  6
HIDDEN
370
-3
390
F
  0
LAYER
  5
1FC
100
AcDbSymbolTableRecord
100
AcDbLayerTableRecord
  2
DEFAULT_3
 70
0
 62
7
  6
PHANTOM
370
-3
390
F
  0
LAYER
  5
1FD
100
AcDbSymbolTableRecord
100
AcDbLayerTableRecord
  2
ASSI
 70
0
 62
7
  6
CONTINUOUS
370
-3
390
F
  0
LAYER
  5
1FE
100
AcDbSymbolTableRecord
100
AcDbLayerTableRecord
  2
COORDINATE
 70
0
 62
7
  6
CONTINUOUS
370
-3
390
F
  0
LAYER
  5
1FF
100
AcDbSymbolTableRecord
100
AcDbLayerTableRecord
  2
COPY_PUBLISH
 70
0
 62
7
  6
CONTINUOUS
370
-3
390
F
  0
LAYER
  5
200
100
AcDbSymbolTableRecord
100
AcDbLayerTableRecord
  2
COSMETIC
 70
0
 62
7
  6
CONTINUOUS
370
-3
390
F
  0
LAYER
  5
201
100
AcDbSymbolTableRecord
100
AcDbLayerTableRecord
  2
COSMETICI
 70
0
 62
7
  6
CONTINUOUS
370
-3
390
F
  0
LAYER
  5
202
100
AcDbSymbolTableRecord
100
AcDbLayerTableRecord
  2
CURVE
 70
0
 62
7
  6
CONTINUOUS
370
-3
390
F
  0
LAYER
  5
203
100
AcDbSymbolTableRecord
100
AcDbLayerTableRecord
  2
DRAFT
 70
0
 62
7
  6
CONTINUOUS
370
-3
390
F
  0
LAYER
  5
204
100
AcDbSymbolTableRecord
100
AcDbLayerTableRecord
  2
IMPORT_IGES
 70
0
 62
7
  6
CONTINUOUS
370
-3
390
F
  0
LAYER
  5
205
100
AcDbSymbolTableRecord
100
AcDbLayerTableRecord
  2
INTFCLR_11
 70
0
 62
7
  6
CONTINUOUS
370
-3
390
F
  0
LAYER
  5
206
100
AcDbSymbolTableRecord
100
AcDbLayerTableRecord
  2
INTF_1
 70
0
 62
7
  6
CONTINUOUS
370
-3
390
F
  0
LAYER
  5
207
100
AcDbSymbolTableRecord
100
AcDbLayerTableRecord
  2
INTF_3
 70
0
 62
7
  6
CONTINUOUS
370
-3
390
F
  0
LAYER
  5
208
100
AcDbSymbolTableRecord
100
AcDbLayerTableRecord
  2
NOTE
 70
0
 62
7
  6
CONTINUOUS
370
-3
390
F
  0
LAYER
  5
209
100
AcDbSymbolTableRecord
100
AcDbLayerTableRecord
  2
PIANI
 70
0
 62
7
  6
CONTINUOUS
370
-3
390
F
  0
LAYER
  5
20A
100
AcDbSymbolTableRecord
100
AcDbLayerTableRecord
  2
PUNTI
 70
0
 62
7
  6
CONTINUOUS
370
-3
390
F
  0
LAYER
  5
20B
100
AcDbSymbolTableRecord
100
AcDbLayerTableRecord
  2
RACCORDO
 70
0
 62
7
  6
CONTINUOUS
370
-3
390
F
  0
LAYER
  5
20C
100
AcDbSymbolTableRecord
100
AcDbLayerTableRecord
  2
SIMBOLI
 70
0
 62
7
  6
CONTINUOUS
370
-3
390
F
  0
LAYER
  5
20D
100
AcDbSymbolTableRecord
100
AcDbLayerTableRecord
  2
SMUSSO
 70
0
 62
7
  6
CONTINUOUS
370
-3
390
F
  0
LAYER
  5
20E
100
AcDbSymbolTableRecord
100
AcDbLayerTableRecord
  2
SNAPLINE
 70
0
 62
7
  6
CONTINUOUS
370
-3
390
F
  0
LAYER
  5
20F
100
AcDbSymbolTableRecord
100
AcDbLayerTableRecord
  2
SUPERFICI
 70
0
 62
7
  6
CONTINUOUS
370
-3
390
F
  0
LAYER
  5
210
100
AcDbSymbolTableRecord
100
AcDbLayerTableRecord
  2
TRASH
 70
0
 62
7
  6
CONTINUOUS
370
-3
390
F
  0
LAYER
  5
211
100
AcDbSymbolTableRecord
100
AcDbLayerTableRecord
  2
___SHELL
 70
0
 62
7
  6
CONTINUOUS
370
-3
390
F
  0
ENDTAB
  0
TABLE
  2
STYLE
  5
3
100
AcDbSymbolTable
 70
1
  0
STYLE
  5
11
100
AcDbSymbolTableRecord
100
AcDbTextStyleTableRecord
  2
STANDARD
 70
0
 40
0.0
 41
0.8
 50
0.0
 71
0
 42
0.2
  3
txt
  4

  0
STYLE
  5
212
100
AcDbSymbolTableRecord
100
AcDbTextStyleTableRecord
  2
TEXTSTYLE_1
 70
0
 40
0.0
 41
0.8
 50
0.0
 71
0
 42
0.2
  3
gdt
  4

  0
ENDTAB
  0
TABLE
  2
VIEW
  5
6
100
AcDbSymbolTable
 70
0
  0
ENDTAB
  0
TABLE
  2
UCS
  5
7
100
AcDbSymbolTable
 70
0
  0
ENDTAB
  0
TABLE
  2
APPID
  5
9
100
AcDbSymbolTable
 70
1
  0
APPID
  5
213
100
AcDbSymbolTableRecord
100
AcDbRegAppTableRecord
  2
ACAD
 70
0
  0
ENDTAB
  0
TABLE
  2
BLOCK_RECORD
  5
1
100
AcDbSymbolTable
 70
0
  0
BLOCK_RECORD
  5
214
100
AcDbSymbolTableRecord
100
AcDbBlockTableRecord
  2
*Model_Space
  0
BLOCK_RECORD
  5
215
100
AcDbSymbolTableRecord
100
AcDbBlockTableRecord
  2
*Paper_Space
  0
BLOCK_RECORD
  5
216
100
AcDbSymbolTableRecord
100
AcDbBlockTableRecord
  2
_FILLED
  0
ENDTAB
  0
TABLE
  2
DIMSTYLE
  5
A
100
AcDbSymbolTable
 70
1
100
AcDbDimStyleTable
 71
0
  0
DIMSTYLE
105
217
100
AcDbSymbolTableRecord
100
AcDbDimStyleTableRecord
  2
STANDARD
 70
0
  3

  4

 40
1.0
 41
3.0
 42
0.5
 43
0.38
 44
1.5
 45
0.0
 46
0.0
 47
0.01
 48
0.01
140
3.0
141
0.09
142
0.0
143
25.4
144
1.0
145
0.0
146
1.0
147
0.625
 71
1
 72
0
 73
0
 74
0
 75
0
 76
0
 77
1
 78
8
 79
2
170
0
171
1
172
0
173
0
174
0
175
0
176
0
177
0
178
0
270
2
179
2
271
2
272
2
273
2
274
2
275
0
280
0
281
0
282
0
283
1
284
8
285
0
286
0
287
3
288
0
340
11
278
44
341
216
342
216
343
216
344
216
  0
ENDTAB
  0
ENDSEC
  0
SECTION
  2
BLOCKS
  0
BLOCK
  5
20
100
AcDbEntity
  8
0
100
AcDbBlockBegin
  2
*Model_Space
 70
0
 10
0.0
 20
0.0
 30
0.0
  3
*Model_Space
  1

  0
ENDBLK
  5
21
100
AcDbEntity
  8
0
100
AcDbBlockEnd
  0
BLOCK
  5
1C
100
AcDbEntity
  8
0
100
AcDbBlockBegin
  2
*Paper_Space
 70
0
 10
0.0
 20
0.0
 30
0.0
  3
*Paper_Space
  1

  0
ENDBLK
  5
1D
100
AcDbEntity
  8
0
100
AcDbBlockEnd
  0
BLOCK
  5
218
100
AcDbEntity
  8
0
100
AcDbBlockBegin
  2
_FILLED
 70
64
 10
0.0
 20
0.0
  3
_FILLED
  1

  0
SOLID
  5
219
100
AcDbEntity
  8
0
  6
BYBLOCK
 62
0
100
AcDbTrace
 10
0.0
 20
0.0
 11
-1.0
 21
0.3166666667
 12
-1.0
 22
-0.3166666667
 13
-1.0
 23
-0.3166666667
  0
ENDBLK
  5
21A
100
AcDbEntity
  8
0
  6
BYBLOCK
 62
0
100
AcDbBlockEnd
  0
ENDSEC
  0
SECTION
  2
ENTITIES
  0
LWPOLYLINE
  5
21B
100
AcDbEntity
  8
0
100
AcDbPolyline
 62
7
  6
CONTINUOUS
 90
19
 70
0
 10
332.888985243
 20
262.1765439236
 10
332.8562283256
 20
262.1543317466
 10
332.769440406
 20
262.0893732258
 10
332.686057351
 20
262.0181464304
 10
332.6062737574
 20
261.9411355389
 10
332.5302325518
 20
261.8587710323
 10
332.4581931667
 20
261.7715619975
 10
332.3903509799
 20
261.6799265758
 10
332.3269562833
 20
261.5842991984
 10
332.2684252658
 20
261.4853694376
 10
332.2149962191
 20
261.3836018987
 10
332.1669377422
 20
261.2794354445
 10
332.1246053777
 20
261.1735869743
 10
332.088248425
 20
261.0664991965
 10
332.0581136029
 20
260.9585608552
 10
332.0344969531
 20
260.8502679204
 10
332.0176872986
 20
260.7419757256
 10
332.0079899096
 20
260.6340939952
 10
332.0064861203
 20
260.600745774
  0
LINE
  5
21C
100
AcDbEntity
  8
0
100
AcDbLine
 62
7
  6
CONTINUOUS
 10
332.8887443388
 20
262.1763853715
 11
333.8300410843
 21
262.7971617226
  0
LINE
  5
21D
100
AcDbEntity
  8
0
100
AcDbLine
 62
250
  6
CONTINUOUS
 10
333.1455137698
 20
262.1559748935
 11
334.0881551507
 21
262.777638019
  0
LWPOLYLINE
  5
21E
100
AcDbEntity
  8
0
100
AcDbPolyline
 62
250
  6
CONTINUOUS
 90
9
 70
0
 10
332.8889852431
 20
262.1765439236
 10
332.9097202334
 20
262.1880024599
 10
332.9377511512
 20
262.1978456616
 10
332.9682582084
 20
262.2028861763
 10
333.0009075522
 20
262.2030688436
 10
333.0353418875
 20
262.1983916661
 10
333.0711843833
 20
262.1889058289
 10
333.1080427972
 20
262.1747151395
 10
333.1455137698
 20
262.1559748935
  0
LWPOLYLINE
  5
21F
100
AcDbEntity
  8
0
100
AcDbPolyline
 62
7
  6
CONTINUOUS
 90
14
 70
0
 10
332.0065221845
 20
227.0222990933
 10
332.0125591969
 20
226.9340248987
 10
332.0246956181
 20
226.8456839353
 10
332.0424832026
 20
226.7617046415
 10
332.0655916562
 20
226.6823729228
 10
332.0937510913
 20
226.6075979968
 10
332.1268321399
 20
226.5371157598
 10
332.1645693689
 20
226.471124727
 10
332.2066755126
 20
226.4097879095
 10
332.253053146
 20
226.353014943
 10
332.303369385
 20
226.3010727876
 10
332.3572804142
 20
226.2541766955
 10
332.4146931147
 20
226.2123052168
 10
332.4595826388
 20
226.1844710367
  0
LWPOLYLINE
  5
220
100
AcDbEntity
  8
0
100
AcDbPolyline
 62
7
  6
CONTINUOUS
 90
10
 70
0
 10
332.0064960136
 20
260.6010425777
 10
331.8916702361
 20
256.8493994767
 10
331.8039583133
 20
253.0524720364
 10
331.7454866098
 20
249.2722097699
 10
331.7162601813
 20
245.5089244706
 10
331.7162818357
 20
241.7629196276
 10
331.7455522401
 20
238.0345090828
 10
331.8040701299
 20
234.323997018
 10
331.891831971
 20
230.6316864762
 10
332.0065216776
 20
227.0223132491
  0
LWPOLYLINE
  5
221
100
AcDbEntity
  8
0
100
AcDbPolyline
 62
250
  6
CONTINUOUS
 90
22
 70
0
 10
332.1529477598
 20
260.3967237316
 10
332.1589033372
 20
260.4896248357
 10
332.1703326268
 20
260.5843188148
 10
332.1870443149
 20
260.6802541373
 10
332.208741732
 20
260.7765772246
 10
332.2352367904
 20
260.8730781143
 10
332.2666160493
 20
260.9702150642
 10
332.3029213961
 20
261.0679447987
 10
332.3438599515
 20
261.1653284359
 10
332.3890733468
 20
261.261502341
 10
332.4385330004
 20
261.3564110956
 10
332.4917681661
 20
261.449145311
 10
332.5474834926
 20
261.5377056206
 10
332.6044487212
 20
261.620757696
 10
332.6629006528
 20
261.6992205487
 10
332.7237401444
 20
261.7744830589
 10
332.7864945687
 20
261.8459856949
 10
332.8510790848
 20
261.9136632641
 10
332.9192779615
 20
261.979101045
 10
332.9916057963
 20
262.0421584656
 10
333.067127653
 20
262.1013875979
 10
333.1455137698
 20
262.1559748935
  0
LWPOLYLINE
  5
222
100
AcDbEntity
  8
0
100
AcDbPolyline
 62
7
  6
CONTINUOUS
 90
14
 70
0
 10
363.2005967051
 20
208.4349922418
 10
363.247175921
 20
208.4099682819
 10
363.316356805
 20
208.3793108757
 10
363.389253635
 20
208.3545274576
 10
363.4651316361
 20
208.3360842455
 10
363.5435639257
 20
208.324236744
 10
363.6240963612
 20
208.3191992482
 10
363.7059868327
 20
208.3211021056
 10
363.7888395645
 20
208.3299517141
 10
363.87235314
 20
208.3457459814
 10
363.9560707312
 20
208.3684270759
 10
364.0396843805
 20
208.397890387
 10
364.1229865368
 20
208.4340674313
 10
364.1450929554
 20
208.4448310393
  0
LWPOLYLINE
  5
223
100
AcDbEntity
  8
0
100
AcDbPolyline
 62
250
  6
CONTINUOUS
 90
8
 70
0
 10
332.0073338043
 20
227.0104858537
 10
332.0131526614
 20
226.9796955923
 10
332.0242543013
 20
226.9495534835
 10
332.0405197755
 20
226.9203824852
 10
332.0617748073
 20
226.8924951505
 10
332.0877916595
 20
226.8661902783
 10
332.1182915742
 20
226.8417497127
 10
332.1529477598
 20
226.8194353222
  0
LWPOLYLINE
  5
224
100
AcDbEntity
  8
0
100
AcDbPolyline
 62
250
  6
CONTINUOUS
 90
9
 70
0
 10
332.0064861203
 20
260.600745774
 10
332.0073335948
 20
260.578945393
 10
332.0131521322
 20
260.5503692
 10
332.024253532
 20
260.5221522088
 10
332.0405188806
 20
260.4945967601
 10
332.0617739154
 20
260.4679981285
 10
332.0877909081
 20
260.4426413224
 10
332.1182911178
 20
260.4187980323
 10
332.1529477601
 20
260.3967237407
  0
LWPOLYLINE
  5
225
100
AcDbEntity
  8
0
100
AcDbPolyline
 62
250
  6
CONTINUOUS
 90
16
 70
0
 10
332.1529477598
 20
226.8194353222
 10
332.0749473144
 20
229.1704372493
 10
332.010758861
 20
231.4590440696
 10
331.9593309819
 20
233.6845334776
 10
331.9199518316
 20
235.8264717463
 10
331.8911469587
 20
237.9038391104
 10
331.871569802
 20
239.9755595092
 10
331.8610839992
 20
242.0432631318
 10
331.8595431816
 20
244.1050459556
 10
331.867106159
 20
246.2154268325
 10
331.8844150979
 20
248.3793502822
 10
331.9120390965
 20
250.5924455035
 10
331.95133104
 20
252.8959912698
 10
332.0038224796
 20
255.304293989
 10
332.0705921832
 20
257.8043324233
 10
332.1529477598
 20
260.3967237316
  0
LINE
  5
226
100
AcDbEntity
  8
0
100
AcDbLine
 62
7
  6
CONTINUOUS
 10
332.4590673578
 20
226.1847605225
 11
363.2010273936
 21
208.4347380851
  0
LINE
  5
227
100
AcDbEntity
  8
0
100
AcDbLine
 62
250
  6
CONTINUOUS
 10
332.1529477598
 20
226.8194353222
 11
362.8876964141
 21
209.0735766461
  0
LINE
  5
228
100
AcDbEntity
  8
0
100
AcDbLine
 62
7
  6
CONTINUOUS
 10
363.2005769433
 20
208.4349984749
 11
363.2010273185
 21
208.4347381285
  0
LWPOLYLINE
  5
229
100
AcDbEntity
  8
0
100
AcDbPolyline
 62
250
  6
CONTINUOUS
 90
12
 70
0
 10
332.4590673578
 20
226.1847605225
 10
332.4198893852
 20
226.2099399463
 10
332.3728987156
 20
226.2478741404
 10
332.331269163
 20
226.290365811
 10
332.2943415386
 20
226.3373178973
 10
332.261382132
 20
226.3893511447
 10
332.2326325861
 20
226.4460474352
 10
332.2081071254
 20
226.5073256411
 10
332.1873574066
 20
226.5750141283
 10
332.1707723784
 20
226.6499337291
 10
332.1591238452
 20
226.7314335301
 10
332.1529477598
 20
226.8194353222
  0
LWPOLYLINE
  5
22A
100
AcDbEntity
  8
0
100
AcDbPolyline
 62
7
  6
CONTINUOUS
 90
7
 70
0
 10
348.7820113249
 20
231.241363883
 10
348.8017215524
 20
231.2433752959
 10
348.822459318
 20
231.2420104695
 10
348.8442263756
 20
231.2374934833
 10
348.8661657088
 20
231.2301837902
 10
348.8881531126
 20
231.2200772714
 10
348.910312653
 20
231.2071779644
  0
LINE
  5
22B
100
AcDbEntity
  8
0
100
AcDbLine
 62
7
  6
CONTINUOUS
 10
345.4931760874
 20
234.4361763754
 11
345.4948555321
 21
234.4199286192
  0
LINE
  5
22C
100
AcDbEntity
  8
0
100
AcDbLine
 62
7
  6
CONTINUOUS
 10
345.4932210198
 20
234.4513051898
 11
345.4931875952
 21
234.436065043
  0
LINE
  5
22D
100
AcDbEntity
  8
0
100
AcDbLine
 62
7
  6
CONTINUOUS
 10
345.4983526885
 20
234.4785365092
 11
345.4949535727
 21
234.4653285472
  0
LWPOLYLINE
  5
22E
100
AcDbEntity
  8
0
100
AcDbPolyline
 62
7
  6
CONTINUOUS
 90
3
 70
0
 10
345.4983526885
 20
234.4785365092
 10
345.4949469284
 20
234.465574464
 10
345.4932210198
 20
234.4513051898
  0
LINE
  5
22F
100
AcDbEntity
  8
0
100
AcDbLine
 62
7
  6
CONTINUOUS
 10
346.0188846655
 20
237.523658387
 11
346.0536441055
 21
237.6091771673
  0
LINE
  5
230
100
AcDbEntity
  8
0
100
AcDbLine
 62
7
  6
CONTINUOUS
 10
346.446896218
 20
237.1981951944
 11
346.421030823
 21
237.135696041
  0
LWPOLYLINE
  5
231
100
AcDbEntity
  8
0
100
AcDbPolyline
 62
7
  6
CONTINUOUS
 90
5
 70
0
 10
346.0537232081
 20
237.6092568423
 10
346.0947651167
 20
237.6868972206
 10
346.1420075852
 20
237.7565779146
 10
346.1957890057
 20
237.8186043901
 10
346.255765926
 20
237.8726682862
  0
LWPOLYLINE
  5
232
100
AcDbEntity
  8
0
100
AcDbPolyline
 62
7
  6
CONTINUOUS
 90
3
 70
0
 10
346.5133759077
 20
237.3036945615
 10
346.4776786759
 20
237.254196036
 10
346.4468961451
 20
237.1981958333
  0
LWPOLYLINE
  5
233
100
AcDbEntity
  8
0
100
AcDbPolyline
 62
7
  6
CONTINUOUS
 90
3
 70
0
 10
346.6001333546
 20
237.3836890699
 10
346.5542982725
 20
237.3469425186
 10
346.513375008
 20
237.3036936107
  0
LINE
  5
234
100
AcDbEntity
  8
0
100
AcDbLine
 62
7
  6
CONTINUOUS
 10
346.2560003447
 20
237.872777432
 11
346.2965103288
 21
237.9023514161
  0
LWPOLYLINE
  5
235
100
AcDbEntity
  8
0
100
AcDbPolyline
 62
7
  6
CONTINUOUS
 90
4
 70
0
 10
346.2965103288
 20
237.9023514161
 10
346.3212134888
 20
237.9180275623
 10
346.3914065884
 20
237.9541176835
 10
346.4666455265
 20
237.9812603014
  0
LINE
  5
236
100
AcDbEntity
  8
0
100
AcDbLine
 62
7
  6
CONTINUOUS
 10
346.6507206047
 20
237.4135653951
 11
346.6001408456
 21
237.3836932903
  0
LWPOLYLINE
  5
237
100
AcDbEntity
  8
0
100
AcDbPolyline
 62
7
  6
CONTINUOUS
 90
10
 70
0
 10
347.7853944297
 20
231.8540326638
 10
347.8086887772
 20
231.8432678805
 10
347.8332811306
 20
231.828835173
 10
347.8576893722
 20
231.811117125
 10
347.8819201089
 20
231.7902407907
 10
347.905011937
 20
231.7670339211
 10
347.9269199605
 20
231.7414009282
 10
347.9476895212
 20
231.7134376604
 10
347.9664945809
 20
231.6842590287
 10
347.9830599594
 20
231.6542367669
  0
LWPOLYLINE
  5
238
100
AcDbEntity
  8
0
100
AcDbPolyline
 62
7
  6
CONTINUOUS
 90
11
 70
0
 10
347.8071760354
 20
231.8441322158
 10
347.8292929324
 20
231.8314449419
 10
347.8512788524
 20
231.8161402146
 10
347.8732703609
 20
231.7980611561
 10
347.8951310323
 20
231.777364726
 10
347.9159851741
 20
231.7546910896
 10
347.9358348324
 20
231.7298043476
 10
347.9546783696
 20
231.7029406381
 10
347.9716345385
 20
231.6754481652
 10
347.9864096869
 20
231.6477763868
 10
347.9992978528
 20
231.6194760706
  0
LINE
  5
239
100
AcDbEntity
  8
0
100
AcDbLine
 62
7
  6
CONTINUOUS
 10
349.1332146465
 20
231.7311506614
 11
345.5509224728
 21
233.7995212658
  0
LINE
  5
23A
100
AcDbEntity
  8
0
100
AcDbLine
 62
7
  6
CONTINUOUS
 10
349.1317510356
 20
232.2201876196
 11
345.5992705092
 21
234.2597976031
  0
LWPOLYLINE
  5
23B
100
AcDbEntity
  8
0
100
AcDbPolyline
 62
7
  6
CONTINUOUS
 90
8
 70
0
 10
345.5509224728
 20
233.7995212658
 10
345.5122289001
 20
233.8236253273
 10
345.473732611
 20
233.8510499374
 10
345.4356830997
 20
233.8816394929
 10
345.3983688591
 20
233.9151954808
 10
345.3619860546
 20
233.9515406263
 10
345.3266476776
 20
233.9905436267
 10
345.2925128966
 20
234.0320858149
  0
LWPOLYLINE
  5
23C
100
AcDbEntity
  8
0
100
AcDbPolyline
 62
7
  6
CONTINUOUS
 90
22
 70
0
 10
345.5509224728
 20
233.7995212658
 10
345.506325446
 20
233.8276172092
 10
345.4620668844
 20
233.8600696634
 10
345.4185256942
 20
233.8966240826
 10
345.3760874625
 20
233.9369987413
 10
345.3350952886
 20
233.9808662554
 10
345.2958475764
 20
234.0278574803
 10
345.2586651888
 20
234.0775921699
 10
345.2238626371
 20
234.1296783827
 10
345.1917015898
 20
234.1836971011
 10
345.1624378881
 20
234.2392095037
 10
345.1363158688
 20
234.2957739446
 10
345.1135447138
 20
234.3529488658
 10
345.0942982417
 20
234.4102681011
 10
345.0787353015
 20
234.4672684128
 10
345.0670003809
 20
234.5235084842
 10
345.0591734612
 20
234.5785237363
 10
345.0553147784
 20
234.631862769
 10
345.0554910786
 20
234.6831151093
 10
345.0597032207
 20
234.7318633005
 10
345.0678852871
 20
234.7776867849
 10
345.0799529954
 20
234.8201975393
  0
LWPOLYLINE
  5
23D
100
AcDbEntity
  8
0
100
AcDbPolyline
 62
7
  6
CONTINUOUS
 90
10
 70
0
 10
349.1317510356
 20
232.2201876196
 10
349.1538240529
 20
232.2061223889
 10
349.1753252845
 20
232.1898685246
 10
349.1962547926
 20
232.1714260628
 10
349.2168786492
 20
232.1504999293
 10
349.2369310348
 20
232.127385345
 10
349.2556142036
 20
232.1029678055
 10
349.2727891066
 20
232.0773607258
 10
349.2885951838
 20
232.0504509181
 10
349.3026523972
 20
232.0227839592
  0
LINE
  5
23E
100
AcDbEntity
  8
0
100
AcDbLine
 62
7
  6
CONTINUOUS
 10
345.5858773632
 20
234.2684785892
 11
345.5992705092
 21
234.2597976031
  0
LINE
  5
23F
100
AcDbEntity
  8
0
100
AcDbLine
 62
7
  6
CONTINUOUS
 10
349.1317510356
 20
232.2201876196
 11
349.1565318587
 21
232.204075422
  0
LWPOLYLINE
  5
240
100
AcDbEntity
  8
0
100
AcDbPolyline
 62
7
  6
CONTINUOUS
 90
12
 70
0
 10
348.9384812736
 20
232.9881167842
 10
348.9166189664
 20
233.0040730403
 10
348.8952079431
 20
233.0224176157
 10
348.8741213254
 20
233.0433225527
 10
348.8534862434
 20
233.0666159549
 10
348.8341531447
 20
233.0915392993
 10
348.8161487682
 20
233.1183117061
 10
348.799446848
 20
233.1467143289
 10
348.7848182444
 20
233.1753316488
 10
348.7725199829
 20
233.2036918679
 10
348.7622953825
 20
233.2322669833
 10
348.754144647
 20
233.261057113
  0
LWPOLYLINE
  5
241
100
AcDbEntity
  8
0
100
AcDbPolyline
 62
7
  6
CONTINUOUS
 90
20
 70
0
 10
349.1569578607
 20
232.2037984406
 10
349.1811978027
 20
232.184890382
 10
349.2044709586
 20
232.1634635001
 10
349.2270641477
 20
232.1391616468
 10
349.2486909376
 20
232.112341195
 10
349.2684915862
 20
232.0840710049
 10
349.2863912816
 20
232.0542948587
 10
349.3024654253
 20
232.023069317
 10
349.3160794815
 20
231.9916323409
 10
349.3271350564
 20
231.9599758269
 10
349.3357310616
 20
231.9281081798
 10
349.3415286404
 20
231.897291961
 10
349.3444161604
 20
231.8675704806
 10
349.3445054579
 20
231.8389005474
 10
349.3417924936
 20
231.8124147463
 10
349.3361650924
 20
231.7881985483
 10
349.3277352261
 20
231.7661663645
 10
349.3168346901
 20
231.7471939656
 10
349.3033639557
 20
231.7314037506
 10
349.2874220337
 20
231.7186730193
  0
LWPOLYLINE
  5
242
100
AcDbEntity
  8
0
100
AcDbPolyline
 62
7
  6
CONTINUOUS
 90
9
 70
0
 10
348.9321597839
 20
231.191857594
 10
348.9537693592
 20
231.1740257589
 10
348.9750666607
 20
231.1537729397
 10
348.9953428375
 20
231.1317422151
 10
349.0145742876
 20
231.1078379272
 10
349.0327849709
 20
231.0821559431
 10
349.0493373671
 20
231.0556266208
 10
349.0641406178
 20
231.0282666719
 10
349.0772860004
 20
231.0000596297
  0
LWPOLYLINE
  5
243
100
AcDbEntity
  8
0
100
AcDbPolyline
 62
7
  6
CONTINUOUS
 90
4
 70
0
 10
345.5601269294
 20
234.290983014
 10
345.5725678089
 20
234.2791594556
 10
345.5856156798
 20
234.2687643249
 10
345.5992705092
 20
234.2597976031
  0
LWPOLYLINE
  5
244
100
AcDbEntity
  8
0
100
AcDbPolyline
 62
7
  6
CONTINUOUS
 90
10
 70
0
 10
348.0675215242
 20
230.8842649363
 10
348.0061328212
 20
230.9504872899
 10
347.9464879792
 20
231.0217591805
 10
347.890027302
 20
231.0963540621
 10
347.8368172677
 20
231.1743405685
 10
347.7867943935
 20
231.2556518205
 10
347.7409735252
 20
231.3386398749
 10
347.6996938118
 20
231.4227559245
 10
347.6626191048
 20
231.5085505312
 10
347.6297511066
 20
231.5960246903
  0
LINE
  5
245
100
AcDbEntity
  8
0
100
AcDbLine
 62
7
  6
CONTINUOUS
 10
345.5479266635
 20
234.304650643
 11
345.5600171213
 21
234.2910964852
  0
LWPOLYLINE
  5
246
100
AcDbEntity
  8
0
100
AcDbPolyline
 62
7
  6
CONTINUOUS
 90
9
 70
0
 10
348.0119059819
 20
230.9438938959
 10
347.9582391677
 20
231.0071057655
 10
347.906488841
 20
231.073845461
 10
347.8575011084
 20
231.1430183644
 10
347.8113212636
 20
231.2146664433
 10
347.7679062585
 20
231.288749045
 10
347.7279694441
 20
231.3640474779
 10
347.691749233
 20
231.4401558789
 10
347.6590093826
 20
231.51748138
  0
LWPOLYLINE
  5
247
100
AcDbEntity
  8
0
100
AcDbPolyline
 62
7
  6
CONTINUOUS
 90
8
 70
0
 10
345.2599027145
 20
234.0758525648
 10
345.2291483625
 20
234.1213842079
 10
345.2004994804
 20
234.1682714717
 10
345.1740522696
 20
234.2163338408
 10
345.1498838487
 20
234.2654279317
 10
345.1281401057
 20
234.3152916534
 10
345.1089910779
 20
234.3655839106
 10
345.0925595567
 20
234.4160435321
  0
LWPOLYLINE
  5
248
100
AcDbEntity
  8
0
100
AcDbPolyline
 62
7
  6
CONTINUOUS
 90
3
 70
0
 10
345.5264468678
 20
234.3350246221
 10
345.5367086594
 20
234.3193834175
 10
345.5481142335
 20
234.3044689639
  0
LWPOLYLINE
  5
249
100
AcDbEntity
  8
0
100
AcDbPolyline
 62
7
  6
CONTINUOUS
 90
17
 70
0
 10
348.0969922322
 20
231.4084073911
 10
348.1249452485
 20
231.3655683959
 10
348.1546734156
 20
231.3249358719
 10
348.1862548709
 20
231.2865238303
 10
348.2196105622
 20
231.2503177249
 10
348.2538352662
 20
231.2173004404
 10
348.2889157369
 20
231.1875869928
 10
348.3248646742
 20
231.1610620467
 10
348.36081585
 20
231.138363004
 10
348.3968029147
 20
231.1195679985
 10
348.4327922189
 20
231.1045988971
 10
348.4678167152
 20
231.0938587774
 10
348.5018238438
 20
231.0874663553
 10
348.5348667071
 20
231.0853032326
 10
348.5661368302
 20
231.0874168624
 10
348.5956072015
 20
231.0939175485
 10
348.6233057578
 20
231.1046955283
  0
LINE
  5
24A
100
AcDbEntity
  8
0
100
AcDbLine
 62
7
  6
CONTINUOUS
 10
348.0713897767
 20
231.4525999362
 11
348.0969217898
 21
231.4085406529
  0
LINE
  5
24B
100
AcDbEntity
  8
0
100
AcDbLine
 62
7
  6
CONTINUOUS
 10
345.5172360362
 20
234.3516631722
 11
345.5263590997
 21
234.3351703171
  0
LWPOLYLINE
  5
24C
100
AcDbEntity
  8
0
100
AcDbPolyline
 62
7
  6
CONTINUOUS
 90
3
 70
0
 10
347.9830599594
 20
231.6542367669
 10
347.9976614064
 20
231.6229994739
 10
348.0102992672
 20
231.5905473516
  0
LWPOLYLINE
  5
24D
100
AcDbEntity
  8
0
100
AcDbPolyline
 62
7
  6
CONTINUOUS
 90
4
 70
0
 10
347.9992978528
 20
231.6194760706
 10
348.0282481913
 20
231.5433257511
 10
348.0486432085
 20
231.4972857794
 10
348.0714837469
 20
231.4524271021
  0
LWPOLYLINE
  5
24E
100
AcDbEntity
  8
0
100
AcDbPolyline
 62
7
  6
CONTINUOUS
 90
3
 70
0
 10
345.5030616475
 20
234.3856074539
 10
345.5094754676
 20
234.3685052797
 10
345.5173891828
 20
234.351401521
  0
LWPOLYLINE
  5
24F
100
AcDbEntity
  8
0
100
AcDbPolyline
 62
7
  6
CONTINUOUS
 90
12
 70
0
 10
347.6297511066
 20
231.5960246903
 10
347.6209897388
 20
231.6243346117
 10
347.6144266561
 20
231.6518555833
 10
347.6100619317
 20
231.678587648
 10
347.6078780939
 20
231.7048328442
 10
347.6078927972
 20
231.7302892402
 10
347.6101586634
 20
231.754050842
 10
347.6147696938
 20
231.7760445417
 10
347.621631758
 20
231.7963433714
 10
347.630515011
 20
231.8142603902
 10
347.6414634356
 20
231.8296968964
 10
347.654432691
 20
231.842751382
  0
LWPOLYLINE
  5
250
100
AcDbEntity
  8
0
100
AcDbPolyline
 62
7
  6
CONTINUOUS
 90
12
 70
0
 10
347.6297511066
 20
231.5960246903
 10
347.6199664902
 20
231.6284225465
 10
347.6130103488
 20
231.6595371192
 10
347.6088827433
 20
231.6893684438
 10
347.6076035044
 20
231.7182827761
 10
347.6091529713
 20
231.7459139596
 10
347.6134717617
 20
231.771163291
 10
347.6206714906
 20
231.7939345069
 10
347.6306402626
 20
231.8143237066
 10
347.642983056
 20
231.831520512
 10
347.657795189
 20
231.8453961015
 10
347.6638526273
 20
231.8497033976
  0
LWPOLYLINE
  5
251
100
AcDbEntity
  8
0
100
AcDbPolyline
 62
7
  6
CONTINUOUS
 90
9
 70
0
 10
345.078933036
 20
234.46646935
 10
345.0682683752
 20
234.5164184887
 10
345.0607121537
 20
234.5652734742
 10
345.0562703884
 20
234.612581505
 10
345.0549012405
 20
234.658210556
 10
345.0566160762
 20
234.7020421459
 10
345.0614057374
 20
234.7438502498
 10
345.0692076371
 20
234.7833183084
 10
345.0799529954
 20
234.8201975393
  0
LWPOLYLINE
  5
252
100
AcDbEntity
  8
0
100
AcDbPolyline
 62
7
  6
CONTINUOUS
 90
3
 70
0
 10
345.4948268976
 20
234.4197415312
 10
345.4981094856
 20
234.4029380069
 10
345.5029951088
 20
234.3858092304
  0
LINE
  5
253
100
AcDbEntity
  8
0
100
AcDbLine
 62
250
  6
CONTINUOUS
 10
364.8997016981
 20
244.9861504617
 11
365.0015602793
 21
245.0449688347
  0
LWPOLYLINE
  5
254
100
AcDbEntity
  8
0
100
AcDbPolyline
 62
250
  6
CONTINUOUS
 90
16
 70
0
 10
363.588279888
 20
242.6303721176
 10
363.5492707541
 20
242.6125073157
 10
363.5069581217
 20
242.5970589969
 10
363.46179535
 20
242.5841926824
 10
363.414266336
 20
242.5740462285
 10
363.3648803298
 20
242.5667283493
 10
363.3141664782
 20
242.5623174525
 10
363.2626681554
 20
242.5608607987
 10
363.2109371407
 20
242.5623739951
 10
363.1595277065
 20
242.5668408287
 10
363.1089906799
 20
242.5742134395
 10
363.0598675403
 20
242.5844128336
 10
363.0126846182
 20
242.5973297295
 10
362.9679474554
 20
242.6128257289
 10
362.9261353887
 20
242.6307347999
 10
362.8876964141
 20
242.6508650555
  0
LWPOLYLINE
  5
255
100
AcDbEntity
  8
0
100
AcDbPolyline
 62
7
  6
CONTINUOUS
 90
3
 70
0
 10
348.1384683793
 20
236.8684126478
 10
348.2026429581
 20
236.7485658641
 10
348.2616106464
 20
236.6258248501
  0
LWPOLYLINE
  5
256
100
AcDbEntity
  8
0
100
AcDbPolyline
 62
7
  6
CONTINUOUS
 90
4
 70
0
 10
348.2615622097
 20
236.6258583
 10
348.3144493898
 20
236.5020810896
 10
348.3606872721
 20
236.3784045085
 10
348.4006693147
 20
236.2540339861
  0
LWPOLYLINE
  5
257
100
AcDbEntity
  8
0
100
AcDbPolyline
 62
7
  6
CONTINUOUS
 90
14
 70
0
 10
349.3150061349
 20
231.9940969977
 10
349.325611495
 20
231.9646531676
 10
349.3339528434
 20
231.93578693
 10
349.3398741728
 20
231.9076884361
 10
349.3435317083
 20
231.8801676614
 10
349.3448778968
 20
231.8539886476
 10
349.3438840679
 20
231.829185194
 10
349.3405788881
 20
231.8057234994
 10
349.3350005793
 20
231.7842660707
 10
349.3269978365
 20
231.7647783918
 10
349.3167217614
 20
231.7472948608
 10
349.3046639232
 20
231.7325812039
 10
349.2908783961
 20
231.7208474987
 10
349.2816800333
 20
231.7151001718
  0
LWPOLYLINE
  5
258
100
AcDbEntity
  8
0
100
AcDbPolyline
 62
7
  6
CONTINUOUS
 90
16
 70
0
 10
348.0056522525
 20
236.2981888902
 10
347.9755613685
 20
236.3893354495
 10
347.9405424734
 20
236.4796644755
 10
347.9002852163
 20
236.5697855761
 10
347.8550969035
 20
236.6590874017
 10
347.8059019275
 20
236.7457373187
 10
347.7526136965
 20
236.8296819925
 10
347.6953152938
 20
236.9109727547
 10
347.6351850437
 20
236.9879336406
 10
347.5721637712
 20
237.0604722155
 10
347.5063076904
 20
237.1286792259
 10
347.4389681287
 20
237.191153433
 10
347.3701128933
 20
237.2477761776
 10
347.2997724906
 20
237.2986651582
 10
347.2293925759
 20
237.3427738321
 10
347.1589723229
 20
237.3799616283
  0
LWPOLYLINE
  5
259
100
AcDbEntity
  8
0
100
AcDbPolyline
 62
7
  6
CONTINUOUS
 90
8
 70
0
 10
349.088409087
 20
230.9718860191
 10
349.0982609457
 20
230.9407910801
 10
349.1057543648
 20
230.9095372592
 10
349.1103794429
 20
230.8791246331
 10
349.112247525
 20
230.8495208689
 10
349.1112864456
 20
230.8219004208
 10
349.1074720162
 20
230.7966546958
 10
349.1008282555
 20
230.7733921877
  0
LINE
  5
25A
100
AcDbEntity
  8
0
100
AcDbLine
 62
7
  6
CONTINUOUS
 10
348.0308168322
 20
236.2062257746
 11
348.0056523423
 21
236.2981895401
  0
LINE
  5
25B
100
AcDbEntity
  8
0
100
AcDbLine
 62
7
  6
CONTINUOUS
 10
348.4005914935
 20
236.2542045059
 11
348.4343982758
 21
236.1289711019
  0
LWPOLYLINE
  5
25C
100
AcDbEntity
  8
0
100
AcDbPolyline
 62
7
  6
CONTINUOUS
 90
9
 70
0
 10
349.0974521946
 20
230.9437722156
 10
349.1044733334
 20
230.915692035
 10
349.1092814329
 20
230.8884470565
 10
349.1118098385
 20
230.8620084478
 10
349.1121253534
 20
230.8364051282
 10
349.1102368433
 20
230.8125251579
 10
349.1061471516
 20
230.7906644914
 10
349.099853261
 20
230.7705270726
 10
349.0913551025
 20
230.7521128613
  0
LWPOLYLINE
  5
25D
100
AcDbEntity
  8
0
100
AcDbPolyline
 62
7
  6
CONTINUOUS
 90
10
 70
0
 10
349.1564064347
 20
233.1834183945
 10
349.162267908
 20
233.1556708736
 10
349.1658983774
 20
233.129032048
 10
349.1672978711
 20
233.1035019342
 10
349.166459785
 20
233.0787889482
 10
349.1633908123
 20
233.0551847256
 10
349.1581107849
 20
233.0335640294
 10
349.1504972101
 20
233.0139966498
 10
349.1406723621
 20
232.9964126702
 10
349.1290229544
 20
232.981477138
  0
LINE
  5
25E
100
AcDbEntity
  8
0
100
AcDbLine
 62
7
  6
CONTINUOUS
 10
349.1564064347
 20
233.1834183945
 11
349.1627488267
 21
233.1521420983
  0
LINE
  5
25F
100
AcDbEntity
  8
0
100
AcDbLine
 62
7
  6
CONTINUOUS
 10
349.1290229544
 20
232.981477138
 11
349.114066963
 21
232.968240091
  0
LWPOLYLINE
  5
260
100
AcDbEntity
  8
0
100
AcDbPolyline
 62
250
  6
CONTINUOUS
 90
22
 70
0
 10
363.9036348073
 20
244.3966212963
 10
363.8276542967
 20
244.3461250748
 10
363.7529492481
 20
244.2903338561
 10
363.6798666559
 20
244.2296614432
 10
363.6089313266
 20
244.1647303266
 10
363.5402340999
 20
244.0958015226
 10
363.4734837613
 20
244.0226441198
 10
363.4087883015
 20
243.9453424296
 10
363.3466752615
 20
243.8644917638
 10
363.2875071358
 20
243.7805516793
 10
363.2317184793
 20
243.6941883871
 10
363.1793837673
 20
243.6055689427
 10
363.1303779012
 20
243.514381662
 10
363.0849134391
 20
243.4208037954
 10
363.0434217272
 20
243.3254812544
 10
363.0061865491
 20
243.228793754
 10
362.9734633526
 20
243.1310883446
 10
362.9455862363
 20
243.0330017761
 10
362.922892886
 20
242.9353752942
 10
362.9055910587
 20
242.8388407346
 10
362.8938134548
 20
242.7438251729
 10
362.8876964141
 20
242.6508650555
  0
LWPOLYLINE
  5
261
100
AcDbEntity
  8
0
100
AcDbPolyline
 62
250
  6
CONTINUOUS
 90
22
 70
0
 10
364.2694675473
 20
243.7919604579
 10
364.2181601676
 20
243.7579948505
 10
364.1681479566
 20
243.7210577672
 10
364.1194309144
 20
243.6811492079
 10
364.071933997
 20
243.6381464123
 10
364.0257322484
 20
243.5921721408
 10
363.9810507999
 20
243.5435946745
 10
363.9377550896
 20
243.4922659124
 10
363.8959796793
 20
243.4383339555
 10
363.8563533865
 20
243.382611388
 10
363.818984227
 20
243.3252543581
 10
363.7837641849
 20
243.2661067176
 10
363.7509980306
 20
243.2055126055
 10
363.7205896937
 20
243.1433012754
 10
363.6926352445
 20
243.0796434737
 10
363.6677276646
 20
243.0153955785
 10
363.6458858184
 20
242.9504303411
 10
363.6270908414
 20
242.8848750102
 10
363.6118791211
 20
242.8199677099
 10
363.6004294534
 20
242.7561211484
 10
363.5925630423
 20
242.6929226177
 10
363.588279888
 20
242.6303721176
  0
LINE
  5
262
100
AcDbEntity
  8
0
100
AcDbLine
 62
250
  6
CONTINUOUS
 10
364.8797685322
 20
244.998946362
 11
363.9036348073
 21
244.3966212963
  0
LINE
  5
263
100
AcDbEntity
  8
0
100
AcDbLine
 62
250
  6
CONTINUOUS
 10
365.2330527982
 20
244.3865424653
 11
364.2694675473
 21
243.7919604579
  0
LINE
  5
264
100
AcDbEntity
  8
0
100
AcDbLine
 62
250
  6
CONTINUOUS
 10
365.231910413
 20
244.410695439
 11
365.3337917915
 21
244.4695269763
  0
LWPOLYLINE
  5
265
100
AcDbEntity
  8
0
100
AcDbPolyline
 62
7
  6
CONTINUOUS
 90
3
 70
0
 10
346.717304571
 20
238.0064166342
 10
346.8071508912
 20
237.996126793
 10
346.8988633676
 20
237.9764428946
  0
LWPOLYLINE
  5
266
100
AcDbEntity
  8
0
100
AcDbPolyline
 62
7
  6
CONTINUOUS
 90
3
 70
0
 10
346.8986001894
 20
237.9764094514
 10
346.9930143047
 20
237.9472517546
 10
347.0878928272
 20
237.9093684482
  0
LWPOLYLINE
  5
267
100
AcDbEntity
  8
0
100
AcDbPolyline
 62
7
  6
CONTINUOUS
 90
9
 70
0
 10
347.1589725016
 20
237.3799615186
 10
347.0885133224
 20
237.4103688141
 10
347.0194631274
 20
237.4333713375
 10
346.9518517919
 20
237.4488162087
 10
346.8856511271
 20
237.4568572684
 10
346.8222229158
 20
237.4573300808
 10
346.7616258858
 20
237.4500787434
 10
346.7038042696
 20
237.4352608464
 10
346.6507206047
 20
237.4135653951
  0
LINE
  5
268
100
AcDbEntity
  8
0
100
AcDbLine
 62
7
  6
CONTINUOUS
 10
347.0881972471
 20
237.9092468987
 11
347.1841634163
 21
237.8622420205
  0
LWPOLYLINE
  5
269
100
AcDbEntity
  8
0
100
AcDbPolyline
 62
7
  6
CONTINUOUS
 90
4
 70
0
 10
347.1838739569
 20
237.862292997
 10
347.2811881101
 20
237.8061048877
 10
347.3773530786
 20
237.7422113329
 10
347.4720061874
 20
237.6707217567
  0
LWPOLYLINE
  5
26A
100
AcDbEntity
  8
0
100
AcDbPolyline
 62
7
  6
CONTINUOUS
 90
3
 70
0
 10
347.4716989775
 20
237.6708652187
 10
347.5657685739
 20
237.5911947802
 10
347.6570601012
 20
237.5052660298
  0
LWPOLYLINE
  5
26B
100
AcDbEntity
  8
0
100
AcDbPolyline
 62
7
  6
CONTINUOUS
 90
3
 70
0
 10
347.6573593584
 20
237.504984352
 10
347.7464326541
 20
237.4121209367
 10
347.8330308945
 20
237.3127196676
  0
LWPOLYLINE
  5
26C
100
AcDbEntity
  8
0
100
AcDbPolyline
 62
7
  6
CONTINUOUS
 90
4
 70
0
 10
347.8331239696
 20
237.3125082147
 10
347.9160493722
 20
237.2079866111
 10
347.994540304
 20
237.0990700902
 10
348.0689063559
 20
236.985546382
  0
LINE
  5
26D
100
AcDbEntity
  8
0
100
AcDbLine
 62
7
  6
CONTINUOUS
 10
348.0689953984
 20
236.9853119601
 11
348.1383148881
 21
236.8686709211
  0
LWPOLYLINE
  5
26E
100
AcDbEntity
  8
0
100
AcDbPolyline
 62
7
  6
CONTINUOUS
 90
8
 70
0
 10
349.1628589053
 20
233.1515992669
 10
349.1664735528
 20
233.1215065117
 10
349.167250362
 20
233.0931401201
 10
349.165124353
 20
233.0661650163
 10
349.1601605194
 20
233.0409162843
 10
349.1525536066
 20
233.0183990399
 10
349.1421963723
 20
232.9987234892
 10
349.12919565
 20
232.9817791897
  0
LINE
  5
26F
100
AcDbEntity
  8
0
100
AcDbLine
 62
7
  6
CONTINUOUS
 10
349.1008282555
 20
230.7733921877
 11
349.0913551025
 21
230.7521128613
  0
LWPOLYLINE
  5
270
100
AcDbEntity
  8
0
100
AcDbPolyline
 62
7
  6
CONTINUOUS
 90
6
 70
0
 10
349.0913551025
 20
230.7521128613
 10
349.0628263137
 20
230.706934675
 10
349.0307929846
 20
230.6670081085
 10
348.9952539016
 20
230.6323324528
 10
348.9559740269
 20
230.6027727603
 10
348.917319941
 20
230.5805040277
  0
LINE
  5
271
100
AcDbEntity
  8
0
100
AcDbLine
 62
7
  6
CONTINUOUS
 10
349.0913551025
 20
230.7521128613
 11
349.0592988983
 21
230.702125121
  0
LWPOLYLINE
  5
272
100
AcDbEntity
  8
0
100
AcDbPolyline
 62
7
  6
CONTINUOUS
 90
3
 70
0
 10
348.6909312925
 20
231.1608095688
 10
348.7192204119
 20
231.2038868726
 10
348.7319351431
 20
231.2174619279
  0
LWPOLYLINE
  5
273
100
AcDbEntity
  8
0
100
AcDbPolyline
 62
7
  6
CONTINUOUS
 90
4
 70
0
 10
348.7083988705
 20
231.1874733899
 10
348.7207676875
 20
231.2054878113
 10
348.7351274632
 20
231.220003811
 10
348.7436046065
 20
231.2263182194
  0
LINE
  5
274
100
AcDbEntity
  8
0
100
AcDbLine
 62
7
  6
CONTINUOUS
 10
349.0592988983
 20
230.702125121
 11
349.0230058262
 21
230.6586921489
  0
LINE
  5
275
100
AcDbEntity
  8
0
100
AcDbLine
 62
7
  6
CONTINUOUS
 10
348.6709673174
 20
231.1381412545
 11
348.6909312925
 21
231.1608095688
  0
LINE
  5
276
100
AcDbEntity
  8
0
100
AcDbLine
 62
7
  6
CONTINUOUS
 10
349.0230058262
 20
230.6586921489
 11
348.9824741839
 21
230.6218129501
  0
LINE
  5
277
100
AcDbEntity
  8
0
100
AcDbLine
 62
7
  6
CONTINUOUS
 10
348.7319351431
 20
231.2174619279
 11
348.7435838884
 21
231.2263523678
  0
LINE
  5
278
100
AcDbEntity
  8
0
100
AcDbLine
 62
7
  6
CONTINUOUS
 10
347.654432691
 20
231.842751382
 11
347.6637995791
 21
231.8497906139
  0
LWPOLYLINE
  5
279
100
AcDbEntity
  8
0
100
AcDbPolyline
 62
7
  6
CONTINUOUS
 90
3
 70
0
 10
348.6440379768
 20
231.1164266959
 10
348.6484391801
 20
231.1194208473
 10
348.6709149063
 20
231.1381002689
  0
LWPOLYLINE
  5
27A
100
AcDbEntity
  8
0
100
AcDbPolyline
 62
7
  6
CONTINUOUS
 90
3
 70
0
 10
348.9824741839
 20
230.6218129501
 10
348.9373691678
 20
230.5913243617
 10
348.9172984181
 20
230.5805427208
  0
LINE
  5
27B
100
AcDbEntity
  8
0
100
AcDbLine
 62
7
  6
CONTINUOUS
 10
348.7435838884
 20
231.2263523678
 11
348.7465428286
 21
231.2281984183
  0
LINE
  5
27C
100
AcDbEntity
  8
0
100
AcDbLine
 62
7
  6
CONTINUOUS
 10
349.1155403583
 20
232.9693360793
 11
349.0997278368
 21
232.9595908854
  0
LWPOLYLINE
  5
27D
100
AcDbEntity
  8
0
100
AcDbPolyline
 62
7
  6
CONTINUOUS
 90
8
 70
0
 10
347.6637995791
 20
231.8497906139
 10
347.6690602542
 20
231.8530325837
 10
347.6854295344
 20
231.8604714273
 10
347.7034567041
 20
231.8651367425
 10
347.7225282864
 20
231.8668440638
 10
347.7426758197
 20
231.8654746466
 10
347.7638674119
 20
231.8611470289
 10
347.7853944297
 20
231.8540326638
  0
LINE
  5
27E
100
AcDbEntity
  8
0
100
AcDbLine
 62
7
  6
CONTINUOUS
 10
349.2874220337
 20
231.7186730193
 11
349.2816349549
 21
231.7151788277
  0
LINE
  5
27F
100
AcDbEntity
  8
0
100
AcDbLine
 62
7
  6
CONTINUOUS
 10
349.114066963
 20
232.968240091
 11
349.0997010487
 21
232.9596398051
  0
LINE
  5
280
100
AcDbEntity
  8
0
100
AcDbLine
 62
7
  6
CONTINUOUS
 10
348.7436046065
 20
231.2263182194
 11
348.7514778521
 21
231.2310211871
  0
LWPOLYLINE
  5
281
100
AcDbEntity
  8
0
100
AcDbPolyline
 62
7
  6
CONTINUOUS
 90
7
 70
0
 10
347.6638526273
 20
231.8497033976
 10
347.6749807866
 20
231.8560789712
 10
347.6938577881
 20
231.8631445741
 10
347.7144941632
 20
231.8664469302
 10
347.73682137
 20
231.8661316851
 10
347.7599524997
 20
231.8622116834
 10
347.783918837
 20
231.8545422537
  0
LINE
  5
282
100
AcDbEntity
  8
0
100
AcDbLine
 62
7
  6
CONTINUOUS
 10
348.6232377609
 20
231.104654105
 11
348.6440379768
 21
231.1164266959
  0
LINE
  5
283
100
AcDbEntity
  8
0
100
AcDbLine
 62
7
  6
CONTINUOUS
 10
349.2816800333
 20
231.7151001718
 11
349.2753106227
 21
231.7118833865
  0
LWPOLYLINE
  5
284
100
AcDbEntity
  8
0
100
AcDbPolyline
 62
7
  6
CONTINUOUS
 90
3
 70
0
 10
348.7465428286
 20
231.2281984183
 10
348.7633307963
 20
231.2362005481
 10
348.7820113249
 20
231.241363883
  0
LWPOLYLINE
  5
285
100
AcDbEntity
  8
0
100
AcDbPolyline
 62
7
  6
CONTINUOUS
 90
8
 70
0
 10
349.2816349549
 20
231.7151788277
 10
349.269638249
 20
231.7095097314
 10
349.2499364094
 20
231.7040572451
 10
349.2283921169
 20
231.7021718587
 10
349.2058622746
 20
231.703930876
 10
349.1826323682
 20
231.7093599785
 10
349.1584165244
 20
231.7184332591
 10
349.1332146465
 20
231.7311506614
  0
LWPOLYLINE
  5
286
100
AcDbEntity
  8
0
100
AcDbPolyline
 62
7
  6
CONTINUOUS
 90
19
 70
0
 10
349.0997010487
 20
232.9596398051
 10
349.0967243614
 20
232.9582434038
 10
349.0772532004
 20
232.9516515731
 10
349.0564257754
 20
232.9487262927
 10
349.0341868606
 20
232.9496151128
 10
349.0105911802
 20
232.9541701927
 10
348.9865759337
 20
232.9622101278
 10
348.9621249343
 20
232.9738745317
 10
348.9372541951
 20
232.9890236902
 10
348.9129492948
 20
233.0070572539
 10
348.8892324419
 20
233.028091449
 10
348.8660816634
 20
233.0520101857
 10
348.8444163369
 20
233.0778646812
 10
348.8242959487
 20
233.1057349252
 10
348.8056615472
 20
233.1355412377
 10
348.7892548081
 20
233.1660953048
 10
348.7753231048
 20
233.1970011079
 10
348.7636196101
 20
233.2286549816
 10
348.754144647
 20
233.261057113
  0
LWPOLYLINE
  5
287
100
AcDbEntity
  8
0
100
AcDbPolyline
 62
7
  6
CONTINUOUS
 90
17
 70
0
 10
348.7514778521
 20
231.2310211871
 10
348.7700917223
 20
231.2385944685
 10
348.7906956363
 20
231.2426687934
 10
348.8124697786
 20
231.2430798669
 10
348.8354602518
 20
231.2396791609
 10
348.8596205075
 20
231.232614943
 10
348.8839917621
 20
231.2221681169
 10
348.9085818715
 20
231.2082032873
 10
348.9333828976
 20
231.1908558016
 10
348.9574124542
 20
231.1708127297
 10
348.9806404729
 20
231.1479651656
 10
349.0030973418
 20
231.122422202
 10
349.0238914128
 20
231.0951979378
 10
349.042955796
 20
231.0662247503
 10
349.0603579536
 20
231.0355705965
 10
349.0754076839
 20
231.0044528966
 10
349.0880102502
 20
230.9728535987
  0
LWPOLYLINE
  5
288
100
AcDbEntity
  8
0
100
AcDbPolyline
 62
7
  6
CONTINUOUS
 90
8
 70
0
 10
349.0997278368
 20
232.9595908854
 10
349.0835119679
 20
232.953225046
 10
349.0652927608
 20
232.9495399494
 10
349.0456599444
 20
232.9487293141
 10
349.0252802536
 20
232.9508441213
 10
349.0041327851
 20
232.9559993952
 10
348.9822381727
 20
232.9640799557
 10
348.960325479
 20
232.974791491
  0
LWPOLYLINE
  5
289
100
AcDbEntity
  8
0
100
AcDbPolyline
 62
7
  6
CONTINUOUS
 90
8
 70
0
 10
349.2753106227
 20
231.7118833865
 10
349.2582890595
 20
231.7058238433
 10
349.2396660999
 20
231.7026980746
 10
349.2195889598
 20
231.7024766474
 10
349.1988282953
 20
231.7052065604
 10
349.1776408898
 20
231.7109034206
 10
349.1557696953
 20
231.7195514669
 10
349.1332146465
 20
231.7311506614
  0
LINE
  5
28A
100
AcDbEntity
  8
0
100
AcDbLine
 62
7
  6
CONTINUOUS
 10
346.4668745421
 20
237.9812354969
 11
346.5461288415
 21
237.9990909549
  0
LWPOLYLINE
  5
28B
100
AcDbEntity
  8
0
100
AcDbPolyline
 62
7
  6
CONTINUOUS
 90
3
 70
0
 10
346.5463121878
 20
237.9991322616
 10
346.629689316
 20
238.0075140251
 10
346.7169358168
 20
238.0065395187
  0
LWPOLYLINE
  5
28C
100
AcDbEntity
  8
0
100
AcDbPolyline
 62
7
  6
CONTINUOUS
 90
15
 70
0
 10
348.9172984181
 20
230.5805427208
 10
348.8880225809
 20
230.5673877918
 10
348.8354324335
 20
230.5504889849
 10
348.7795306791
 20
230.5407707632
 10
348.7203823687
 20
230.53808855
 10
348.6591848802
 20
230.5424968273
 10
348.5958950763
 20
230.5541397323
 10
348.5305539488
 20
230.5728718699
 10
348.4644851827
 20
230.5983134904
 10
348.3976733702
 20
230.630601344
 10
348.3301331413
 20
230.6695982243
 10
348.2632335746
 20
230.7145136438
 10
348.196988026
 20
230.7654686514
 10
348.1313839173
 20
230.8223426543
 10
348.0677517624
 20
230.8839828995
  0
LWPOLYLINE
  5
28D
100
AcDbEntity
  8
0
100
AcDbPolyline
 62
7
  6
CONTINUOUS
 90
15
 70
0
 10
348.917319941
 20
230.5805040277
 10
348.8675909949
 20
230.5598044391
 10
348.8191416112
 20
230.546890207
 10
348.7678825475
 20
230.5396264403
 10
348.7146508286
 20
230.5381363877
 10
348.6594118845
 20
230.5425140954
 10
348.602198487
 20
230.5526644632
 10
348.5439486816
 20
230.5684270246
 10
348.4846411127
 20
230.5898966339
 10
348.4242961371
 20
230.616977851
 10
348.36391455
 20
230.6492248744
 10
348.3034951032
 20
230.6867264278
 10
348.2430390448
 20
230.7293937873
 10
348.1835511575
 20
230.7765151227
 10
348.1250517558
 20
230.8281627487
  0
LWPOLYLINE
  5
28E
100
AcDbEntity
  8
0
100
AcDbPolyline
 62
250
  6
CONTINUOUS
 90
22
 70
0
 10
363.588279888
 20
209.0866609966
 10
363.5924240794
 20
209.030694575
 10
363.5998370521
 20
208.9779781103
 10
363.6105188063
 20
208.9285116024
 10
363.6245396771
 20
208.8822481474
 10
363.6418293294
 20
208.8392346492
 10
363.6621767573
 20
208.7996118199
 10
363.6856448471
 20
208.7632611983
 10
363.7121707127
 20
208.7303012457
 10
363.7413546897
 20
208.7012280575
 10
363.773113596
 20
208.676118806
 10
363.8075306137
 20
208.6548963189
 10
363.844455625
 20
208.6378251748
 10
363.8839908144
 20
208.6248520881
 10
363.9260339974
 20
208.6160303443
 10
363.9701285022
 20
208.6117843787
 10
364.0163958978
 20
208.612201875
 10
364.0647146152
 20
208.6171951494
 10
364.1142632767
 20
208.6269255855
 10
364.1647680895
 20
208.641446978
 10
364.2165028464
 20
208.6607055323
 10
364.2694675473
 20
208.6847012484
  0
LWPOLYLINE
  5
28F
100
AcDbEntity
  8
0
100
AcDbPolyline
 62
250
  6
CONTINUOUS
 90
12
 70
0
 10
362.8876964141
 20
209.0735766461
 10
362.893542336
 20
208.9900826841
 10
362.9046584648
 20
208.9109451536
 10
362.9208640798
 20
208.8364626696
 10
362.9418911265
 20
208.7670899421
 10
362.9675577574
 20
208.7028292135
 10
362.997907799
 20
208.6433688978
 10
363.032927082
 20
208.5888272728
 10
363.0723664709
 20
208.5396714298
 10
363.1159956055
 20
208.4961853537
 10
363.1634566021
 20
208.4586683144
 10
363.2005769433
 20
208.4349984749
  0
LWPOLYLINE
  5
290
100
AcDbEntity
  8
0
100
AcDbPolyline
 62
250
  6
CONTINUOUS
 90
6
 70
0
 10
365.3337941242
 20
209.4595388996
 10
365.3357636925
 20
209.4280877121
 10
365.33425288
 20
209.3986668685
 10
365.3293530786
 20
209.3714505654
 10
365.3211368115
 20
209.3464727664
 10
365.3146622287
 20
209.3326510627
  0
LWPOLYLINE
  5
291
100
AcDbEntity
  8
0
100
AcDbPolyline
 62
250
  6
CONTINUOUS
 90
6
 70
0
 10
363.3103074084
 20
220.7790963122
 10
363.3382463493
 20
218.5997042677
 10
363.3796830576
 20
216.3445938899
 10
363.435717567
 20
214.0010012587
 10
363.5052498438
 20
211.5816902943
 10
363.588279888
 20
209.0866609966
  0
LWPOLYLINE
  5
292
100
AcDbEntity
  8
0
100
AcDbPolyline
 62
250
  6
CONTINUOUS
 90
11
 70
0
 10
363.588279888
 20
242.6303721176
 10
363.509378984
 20
240.1921769314
 10
363.4426349961
 20
237.8312810464
 10
363.3880479245
 20
235.5476844625
 10
363.3464790507
 20
233.3616956428
 10
363.317067093
 20
231.2530061242
 10
363.297228207
 20
229.1606905179
 10
363.2858929127
 20
227.082373856
 10
363.2841306901
 20
225.0204311063
 10
363.2925661338
 20
222.9210617834
 10
363.3103074084
 20
220.7790963122
  0
LWPOLYLINE
  5
293
100
AcDbEntity
  8
0
100
AcDbPolyline
 62
250
  6
CONTINUOUS
 90
16
 70
0
 10
362.8876964141
 20
242.6508650555
 10
362.8070240607
 20
240.2094186508
 10
362.7405636207
 20
237.8463221423
 10
362.6872674568
 20
235.5610856376
 10
362.6464567418
 20
233.3733211144
 10
362.6166311458
 20
231.2623492394
 10
362.5963583882
 20
229.1676974051
 10
362.5854676094
 20
227.087546811
 10
362.5838515483
 20
225.0236662221
 10
362.5916917284
 20
222.9218227498
 10
362.6096008353
 20
220.7777980841
 10
362.6381798551
 20
218.5966370187
 10
362.6788943602
 20
216.3387726691
 10
362.7333131308
 20
213.9917169244
 10
362.8024778797
 20
211.5696872479
 10
362.8876964141
 20
209.0735766461
  0
LINE
  5
294
100
AcDbEntity
  8
0
100
AcDbLine
 62
250
  6
CONTINUOUS
 10
332.1529477598
 20
260.3967237316
 11
362.8876964141
 21
242.6508650555
  0
LWPOLYLINE
  5
295
100
AcDbEntity
  8
0
100
AcDbPolyline
 62
250
  6
CONTINUOUS
 90
16
 70
0
 10
364.2694675473
 20
243.7919604579
 10
364.2656009569
 20
243.8345889685
 10
364.2579757632
 20
243.8790236425
 10
364.2466753878
 20
243.9247782299
 10
364.2318234698
 20
243.9713520342
 10
364.2135825186
 20
244.0182353829
 10
364.1921521384
 20
244.0649152044
 10
364.167766833
 20
244.110880662
 10
364.1406934473
 20
244.1556287254
 10
364.1112282575
 20
244.1986696689
 10
364.0796937058
 20
244.2395324654
 10
364.0464348861
 20
244.2777699173
 10
364.0118157823
 20
244.3129635385
 10
363.9762152562
 20
244.3447281689
 10
363.9400228991
 20
244.3727161847
 10
363.9036347868
 20
244.3966212836
  0
LWPOLYLINE
  5
296
100
AcDbEntity
  8
0
100
AcDbPolyline
 62
7
  6
CONTINUOUS
 90
15
 70
0
 10
365.3618994528
 20
244.5427084478
 10
365.3605416267
 20
244.5796661245
 10
365.3557942154
 20
244.6215389322
 10
365.3475027404
 20
244.6641565252
 10
365.3357801028
 20
244.7065220367
 10
365.3205606066
 20
244.7486756218
 10
365.3018209782
 20
244.7903762087
 10
365.2800808324
 20
244.8303603266
 10
365.2554812593
 20
244.8685227081
 10
365.2280659966
 20
244.9047245666
 10
365.1986696873
 20
244.9379763377
 10
365.1675527003
 20
244.9681879457
 10
365.1347394016
 20
244.9954312116
 10
365.1010035799
 20
245.0192437819
 10
365.0789864615
 20
245.0327274537
  0
LINE
  5
297
100
AcDbEntity
  8
0
100
AcDbLine
 62
7
  6
CONTINUOUS
 10
365.2330527982
 20
209.1646644087
 11
365.2330527982
 21
244.3865424653
  0
LINE
  5
298
100
AcDbEntity
  8
0
100
AcDbLine
 62
250
  6
CONTINUOUS
 10
365.3337917915
 20
244.4695269763
 11
365.3337917915
 21
209.4595344699
  0
LINE
  5
299
100
AcDbEntity
  8
0
100
AcDbLine
 62
7
  6
CONTINUOUS
 10
365.3618994554
 20
244.5427313226
 11
365.3618994554
 21
209.5327388162
  0
LWPOLYLINE
  5
29A
100
AcDbEntity
  8
0
100
AcDbPolyline
 62
250
  6
CONTINUOUS
 90
5
 70
0
 10
365.3618994528
 20
244.5427085478
 10
365.3617725404
 20
244.5376933769
 10
365.3578330072
 20
244.5143080621
 10
365.3484485353
 20
244.4914457122
 10
365.3337917915
 20
244.4695269763
  0
LWPOLYLINE
  5
29B
100
AcDbEntity
  8
0
100
AcDbPolyline
 62
250
  6
CONTINUOUS
 90
5
 70
0
 10
365.0015628777
 20
245.0449703351
 10
365.0434402483
 20
245.0231035528
 10
365.0828055414
 20
244.9976899887
 10
365.1194061101
 20
244.9693261738
 10
365.1531600966
 20
244.938542692
  0
LWPOLYLINE
  5
29C
100
AcDbEntity
  8
0
100
AcDbPolyline
 62
250
  6
CONTINUOUS
 90
5
 70
0
 10
365.0789865619
 20
245.0327273958
 10
365.0745815545
 20
245.0351238161
 10
365.0523606965
 20
245.0434027369
 10
365.0278700735
 20
245.046704683
 10
365.0015602793
 20
245.0449688347
  0
LWPOLYLINE
  5
29D
100
AcDbEntity
  8
0
100
AcDbPolyline
 62
250
  6
CONTINUOUS
 90
5
 70
0
 10
334.4717667929
 20
262.7049524976
 10
334.4673333796
 20
262.7073652565
 10
334.4451126409
 20
262.7156439182
 10
334.4206223048
 20
262.7189456927
 10
334.3943129737
 20
262.71720983
  0
LINE
  5
29E
100
AcDbEntity
  8
0
100
AcDbLine
 62
250
  6
CONTINUOUS
 10
333.1455137698
 20
262.1559748935
 11
363.9036348073
 21
244.3966212963
  0
LINE
  5
29F
100
AcDbEntity
  8
0
100
AcDbLine
 62
7
  6
CONTINUOUS
 10
364.8797685322
 20
244.998946362
 11
334.0881551507
 21
262.777638019
  0
LINE
  5
2A0
100
AcDbEntity
  8
0
100
AcDbLine
 62
250
  6
CONTINUOUS
 10
334.3943129737
 20
262.71720983
 11
365.0015602793
 21
245.0449688347
  0
LINE
  5
2A1
100
AcDbEntity
  8
0
100
AcDbLine
 62
7
  6
CONTINUOUS
 10
334.4683190054
 20
262.7069246253
 11
365.0790140986
 21
245.0327115023
  0
LINE
  5
2A2
100
AcDbEntity
  8
0
100
AcDbLine
 62
250
  6
CONTINUOUS
 10
365.3618994554
 20
209.5327388162
 11
365.36177256
 21
209.5277012586
  0
LWPOLYLINE
  5
2A3
100
AcDbEntity
  8
0
100
AcDbPolyline
 62
250
  6
CONTINUOUS
 90
9
 70
0
 10
364.2694675473
 20
208.6847012484
 10
364.2656008828
 20
208.6421522288
 10
364.2579755413
 20
208.6023414644
 10
364.2466749707
 20
208.5657046234
 10
364.2318228383
 20
208.5326426405
 10
364.2135816785
 20
208.5035173291
 10
364.1921511138
 20
208.4786474217
 10
364.1677656695
 20
208.4583050821
 10
364.1450929554
 20
208.4448310393
  0
LWPOLYLINE
  5
2A4
100
AcDbEntity
  8
0
100
AcDbPolyline
 62
7
  6
CONTINUOUS
 90
7
 70
0
 10
334.4683190054
 20
262.7069246253
 10
334.4335441294
 20
262.7248110959
 10
334.3980479939
 20
262.7394742325
 10
334.3619989623
 20
262.7508207236
 10
334.3256138714
 20
262.7587656078
 10
334.2891952133
 20
262.763267081
 10
334.2747541246
 20
262.7640996336
  0
LWPOLYLINE
  5
2A5
100
AcDbEntity
  8
0
100
AcDbPolyline
 62
250
  6
CONTINUOUS
 90
10
 70
0
 10
365.1531600966
 20
244.938542692
 10
365.1838702563
 20
244.9059350814
 10
365.2112668095
 20
244.8722138355
 10
365.2353708708
 20
244.8380116293
 10
365.2563825733
 20
244.8037066133
 10
365.2744119948
 20
244.7695918644
 10
365.2894950387
 20
244.7363604167
 10
365.3020491276
 20
244.7039960803
 10
365.3125657062
 20
244.6715772524
 10
365.321021142
 20
244.6393817621
  0
LWPOLYLINE
  5
2A6
100
AcDbEntity
  8
0
100
AcDbPolyline
 62
250
  6
CONTINUOUS
 90
6
 70
0
 10
365.321021142
 20
244.6393817621
 10
365.3275304964
 20
244.6074728343
 10
365.3323090749
 20
244.5745008528
 10
365.3351431042
 20
244.5401284294
 10
365.335712991
 20
244.505058066
 10
365.3337917915
 20
244.4695269763
  0
LWPOLYLINE
  5
2A7
100
AcDbEntity
  8
0
100
AcDbPolyline
 62
250
  6
CONTINUOUS
 90
4
 70
0
 10
365.36177256
 20
209.5277012586
 10
365.3578330908
 20
209.504315846
 10
365.3484486199
 20
209.4814533634
 10
365.3337917915
 20
209.4595344699
  0
LWPOLYLINE
  5
2A8
100
AcDbEntity
  8
0
100
AcDbPolyline
 62
7
  6
CONTINUOUS
 90
7
 70
0
 10
365.3146061081
 20
209.3325714199
 10
365.3224679779
 20
209.3483602289
 10
365.3366992138
 20
209.3827723336
 10
365.3478212217
 20
209.4188596274
 10
365.3557327608
 20
209.4563218997
 10
365.3604233682
 20
209.4949269478
 10
365.3618994536
 20
209.5327578994
  0
LINE
  5
2A9
100
AcDbEntity
  8
0
100
AcDbLine
 62
250
  6
CONTINUOUS
 10
365.3337917915
 20
209.4595344699
 11
365.2330527982
 21
209.2682339916
  0
LINE
  5
2AA
100
AcDbEntity
  8
0
100
AcDbLine
 62
7
  6
CONTINUOUS
 10
365.314645711
 20
209.3326196962
 11
365.2330527982
 21
209.1776770792
  0
LINE
  5
2AB
100
AcDbEntity
  8
0
100
AcDbLine
 62
250
  6
CONTINUOUS
 10
334.3943129737
 20
262.71720983
 11
334.1782659859
 21
262.7256091521
  0
LINE
  5
2AC
100
AcDbEntity
  8
0
100
AcDbLine
 62
7
  6
CONTINUOUS
 10
334.2747917608
 20
262.7640984601
 11
334.0998237003
 21
262.7709007447
  0
LWPOLYLINE
  5
2AD
100
AcDbEntity
  8
0
100
AcDbPolyline
 62
250
  6
CONTINUOUS
 90
7
 70
0
 10
334.2747799164
 20
262.7640989206
 10
334.2831547188
 20
262.7635559501
 10
334.3035631163
 20
262.7604519681
 10
334.3249480669
 20
262.754571174
 10
334.3474523027
 20
262.7455303775
 10
334.3706338949
 20
262.7331493013
 10
334.3943129737
 20
262.71720983
  0
LWPOLYLINE
  5
2AE
100
AcDbEntity
  8
0
100
AcDbPolyline
 62
250
  6
CONTINUOUS
 90
16
 70
0
 10
363.5882798874
 20
209.0866610123
 10
363.549271266
 20
209.0653249715
 10
363.5069591339
 20
209.0464425099
 10
363.4617968166
 20
209.0302159554
 10
363.4142681785
 20
209.0168191817
 10
363.3648824494
 20
209.0063957453
 10
363.3141687695
 20
208.9990573452
 10
363.2626704997
 20
208.9948826245
 10
363.210939418
 20
208.9939163321
 10
363.159529819
 20
208.9961688376
 10
363.1089925346
 20
209.0016160216
 10
363.0598690591
 20
209.0101995325
 10
363.0126857638
 20
209.0218274055
 10
362.9679482151
 20
209.0363750566
 10
362.9261357601
 20
209.0536866229
 10
362.8876964149
 20
209.073576624
  0
LINE
  5
2AF
100
AcDbEntity
  8
0
100
AcDbLine
 62
250
  6
CONTINUOUS
 10
364.2694675473
 20
208.6847012484
 11
365.2330527982
 21
209.1646644087
  0
LINE
  5
2B0
100
AcDbEntity
  8
0
100
AcDbLine
 62
7
  6
CONTINUOUS
 10
364.1450651173
 20
208.4448171701
 11
365.1204243627
 21
208.9306449735
  0
ELLIPSE
  5
2B1
100
AcDbEntity
  8
0
100
AcDbEllipse
 62
7
  6
CONTINUOUS
 10
722.1639520031
 20
426.3498115613
 30
0.0
 11
71.6686272482
 21
510.9593346635
 31
0.0
 40
0.7527151408
 41
-4.2279504296
 42
-4.2217713698
  0
ELLIPSE
  5
2B2
100
AcDbEntity
  8
0
100
AcDbEllipse
 62
7
  6
CONTINUOUS
 10
718.8917524076
 20
428.2391385975
 30
0.0
 11
364.1065991985
 21
363.9450841102
 31
0.0
 40
0.3932639372
 41
-3.8270326365
 42
-3.8192285306
  0
ELLIPSE
  5
2B3
100
AcDbEntity
  8
0
100
AcDbEllipse
 62
7
  6
CONTINUOUS
 10
364.8794455515
 20
244.5903374688
 30
0.0
 11
-0.2496303025
 21
0.4334023309
 31
0.0
 40
0.5778584463
 41
-2.3545649475
 42
-0.7846820092
  0
ELLIPSE
  5
2B4
100
AcDbEntity
  8
0
100
AcDbEllipse
 62
7
  6
CONTINUOUS
 10
334.0884781315
 20
262.3686561557
 30
0.0
 11
-0.2498600223
 21
0.43379745
 31
0.0
 40
0.5768037941
 41
5.4994124095
 42
6.3180789651
  0
ELLIPSE
  5
2B5
100
AcDbEntity
  8
0
100
AcDbEllipse
 62
7
  6
CONTINUOUS
 10
364.8794455515
 20
209.3692061901
 30
0.0
 11
-0.2498600223
 21
0.43379745
 31
0.0
 40
0.5768037941
 41
3.1066989922
 42
3.9277026942
  0
ELLIPSE
  5
2B6
100
AcDbEntity
  8
0
100
AcDbEllipse
 62
7
  6
CONTINUOUS
 10
682.6574690623
 20
449.1603596788
 30
0.0
 11
55.3714683346
 21
521.3606073637
 31
0.0
 40
0.6709738832
 41
-4.2216150662
 42
-4.215436474
  0
ELLIPSE
  5
2B7
100
AcDbEntity
  8
0
100
AcDbEllipse
 62
7
  6
CONTINUOUS
 10
679.3852694668
 20
451.0496867149
 30
0.0
 11
328.3990929896
 21
386.6174679374
 31
0.0
 40
0.343080516
 41
-3.8699445226
 42
-3.8620066558
  0
ENDSEC
  0
SECTION
  2
OBJECTS
  0
DICTIONARY
  5
C
100
AcDbDictionary
280
0
281
1
  3
ACAD_GROUP
350
D
  3
ACAD_MLINESTYLE
350
17
  3
ACAD_LAYOUT
350
1A
  3
ACAD_PLOTSETTINGS
350
19
  3
ACAD_PLOTSTYLENAME
350
E
  0
DICTIONARY
  5
D
102
{ACAD_REACTORS
330
C
102
}
100
AcDbDictionary
280
0
281
1
  0
ACDBDICTIONARYWDFLT
  5
E
102
{ACAD_REACTORS
330
C
102
}
100
AcDbDictionary
281
1
  3
Normal
350
F
100
AcDbDictionaryWithDefault
340
F
  0
DICTIONARY
  5
17
102
{ACAD_REACTORS
330
C
102
}
100
AcDbDictionary
280
0
281
1
  3
Standard
350
18
  0
DICTIONARY
  5
19
102
{ACAD_REACTORS
330
C
102
}
100
AcDbDictionary
281
1
  0
DICTIONARY
  5
1A
102
{ACAD_REACTORS
330
C
102
}
100
AcDbDictionary
281
1
  3
Model
350
2B8
  3
Layout1
350
2B9
  0
ACDBPLACEHOLDER
  5
F
102
{ACAD_REACTORS
330
E
102
}
  0
MLINESTYLE
  5
18
102
{ACAD_REACTORS
330
17
102
}
100
AcDbMlineStyle
  2
STANDARD
 70
0
  3

 62
256
 51
90.0
 52
90.0
 71
2
 49
0.5
 62
256
  6
BYLAYER
 49
-0.5
 62
256
  6
BYLAYER
  0
LAYOUT
  5
2B8
102
{ACAD_REACTORS
330
1A
102
}
100
AcDbPlotSettings
  1

  2
none_device
  4
ANSI_C_(22.00_x_17.00_Inches)
  6

 40
0.0
 41
0.0
 42
0.0
 43
0.0
 44
558.8
 45
431.8
 46
0.0
 47
0.0
 48
0.0
 49
0.0
140
0.0
141
0.0
142
1.0
143
1.0
 70
1024
 72
1
 73
0
 74
0
  7

 75
0
147
1.0
148
0.0
149
0.0
100
AcDbLayout
  1
Model
 70
0
 71
0
 10
0.0
 20
0.0
 11
558.8
 21
431.8
 12
0.0
 22
0.0
 32
0.0
 14
0.0
 24
0.0
 34
0.0
 15
0.0
 25
0.0
 35
0.0
146
0.0
 13
0.0
 23
0.0
 33
0.0
 16
1.0
 26
0.0
 36
0.0
 17
0.0
 27
1.0
 37
0.0
 76
0
330
214
345
0
346
0
  0
LAYOUT
  5
2B9
102
{ACAD_REACTORS
330
1A
102
}
100
AcDbPlotSettings
  1

  2
none_device
  4
ANSI_C_(22.00_x_17.00_Inches)
  6

 40
0.0
 41
0.0
 42
0.0
 43
0.0
 44
558.8
 45
431.8
 46
0.0
 47
0.0
 48
0.0
 49
0.0
140
0.0
141
0.0
142
1.0
143
1.0
 70
0
 72
1
 73
0
 74
0
  7

 75
0
147
1.0
148
0.0
149
0.0
100
AcDbLayout
  1
Layout1
 70
0
 71
1
 10
0.0
 20
0.0
 11
558.8
 21
431.8
 12
0.0
 22
0.0
 32
0.0
 14
0.0
 24
0.0
 34
0.0
 15
0.0
 25
0.0
 35
0.0
146
0.0
 13
0.0
 23
0.0
 33
0.0
 16
1.0
 26
0.0
 36
0.0
 17
0.0
 27
1.0
 37
0.0
 76
0
330
215
345
0
346
0
  0
ENDSEC
  0
EOF
