  0
SECTION
  2
HEADER
  9
$ACADVER
  1
AC1024
  9
$DWGCODEPAGE
  3
ANSI_1252
  9
$EXTMAX
 10
558.8
 20
431.8
 30
0.0
  9
$EXTMIN
 10
0.0
 20
0.0
 30
0.0
  9
$LIMMIN
 10
0.0
 20
0.0
  9
$LIMMAX
 10
558.8
 20
431.8
  9
$VIEWCTR
 10
279.4
 20
215.9
  9
$VIEWSIZE
 40
431.8
  9
$CLAYER
  8
0
  9
$LTSCALE
 40
30.734
  9
$CELTYPE
  6
BYLAYER
  9
$DIMSCALE
 40
1.0
  9
$DIMASZ
 40
3.0
  9
$DIMEXO
 40
0.5
  9
$DIMDLI
 40
21.2344
  9
$DIMEXE
 40
1.5
  9
$DIMCEN
 40
5.0292
  9
$DIMLFAC
 40
1.0
  9
$DIMBLK
  1
_FILLED
  9
$DIMALT
 70
0
  9
$DIMALTF
 40
0.0393700787
  9
$DIMTXT
 40
3.0
  9
$DIMTOL
 70
1
  9
$DIMLIM
 70
0
  9
$DIMTFAC
 40
1.0
  9
$DIMTP
 40
0.01
  9
$DIMTM
 40
0.01
  9
$DIMGAP
 40
0.625
  9
$DIMDSEP
 70
44
  9
$AUNITS
 70
0
  9
$PDMODE
 70
3
  9
$PDSIZE
 40
3.0
  9
$HANDSEED
  5
311
  9
$TILEMODE
 70
1
  9
$MEASUREMENT
 70
1
  9
$INSUNITS
 70
4
  0
ENDSEC
  0
SECTION
  2
CLASSES
  0
CLASS
  1
ACDBDICTIONARYWDFLT
  2
AcDbDictionaryWithDefault
  3
AutoCAD 2000
 90
0
 91
1
280
0
281
0
  0
CLASS
  1
ACDBPLACEHOLDER
  2
AcDbPlaceHolder
  3
AutoCAD 2000
 90
0
 91
1
280
0
281
0
  0
CLASS
  1
LAYOUT
  2
AcDbLayout
  3
AutoCAD 2000
 90
0
 91
0
280
0
281
0
  0
ENDSEC
  0
SECTION
  2
TABLES
  0
TABLE
  2
VPORT
  5
8
100
AcDbSymbolTable
 70
2
  0
VPORT
  5
1F4
100
AcDbSymbolTableRecord
100
AcDbViewportTableRecord
  2
*ACTIVE
 70
0
 10
0.0
 20
0.0
 11
1.0
 21
1.0
 12
279.4
 22
215.9
 13
0.0
 23
0.0
 14
1.0
 24
1.0
 15
0.0
 25
0.0
 16
0.0
 26
0.0
 36
1.0
 17
0.0
 27
0.0
 37
0.0
 40
431.8
 41
1.2941176471
 42
50.0
 43
0.0
 44
0.0
 50
0.0
 51
0.0
 71
0
 72
100
 73
1
 74
1
 75
0
 76
0
 77
0
 78
0
  0
ENDTAB
  0
TABLE
  2
LTYPE
  5
5
100
AcDbSymbolTable
 70
6
  0
LTYPE
  5
14
100
AcDbSymbolTableRecord
100
AcDbLinetypeTableRecord
  2
BYBLOCK
 70
0
  3

 72
65
 73
0
 40
0.0
  0
LTYPE
  5
15
100
AcDbSymbolTableRecord
100
AcDbLinetypeTableRecord
  2
BYLAYER
 70
0
  3

 72
65
 73
0
 40
0.0
  0
LTYPE
  5
16
100
AcDbSymbolTableRecord
100
AcDbLinetypeTableRecord
  2
CONTINUOUS
 70
64
  3
Solid line
 72
65
 73
0
 40
0.0
  0
LTYPE
  5
1F5
100
AcDbSymbolTableRecord
100
AcDbLinetypeTableRecord
  2
CENTER
 70
64
  3
____ _ ____ _ ____ _ ____ _ ____ _ ____ _ ____
 72
65
 73
4
 40
0.6
 49
0.375
 74
0
 49
-0.075
 74
0
 49
0.075
 74
0
 49
-0.075
 74
0
  0
LTYPE
  5
1F6
100
AcDbSymbolTableRecord
100
AcDbLinetypeTableRecord
  2
HIDDEN
 70
64
  3
- - - - - - - - - - - - - - - - - - - -
 72
65
 73
2
 40
0.2
 49
0.1
 74
0
 49
-0.1
 74
0
  0
LTYPE
  5
1F7
100
AcDbSymbolTableRecord
100
AcDbLinetypeTableRecord
  2
PHANTOM
 70
64
  3
_____ _ _ _____ _ _ _____ _ _ _____
 72
65
 73
6
 40
0.8
 49
0.45
 74
0
 49
-0.05
 74
0
 49
0.1
 74
0
 49
-0.05
 74
0
 49
0.1
 74
0
 49
-0.05
 74
0
  0
LTYPE
  5
1F8
100
AcDbSymbolTableRecord
100
AcDbLinetypeTableRecord
  2
DOT
 70
64
  3
. . . . . . . . . . . . . . . . . . . .
 72
65
 73
2
 40
0.2
 49
0.1
 74
0
 49
-0.1
 74
0
  0
LTYPE
  5
1F9
100
AcDbSymbolTableRecord
100
AcDbLinetypeTableRecord
  2
DASHED
 70
64
  3
- - - - - - - - - - - - - - - - - - - -
 72
65
 73
2
 40
0.2
 49
0.1
 74
0
 49
-0.1
 74
0
  0
ENDTAB
  0
TABLE
  2
LAYER
  5
2
100
AcDbSymbolTable
 70
36
  0
LAYER
  5
10
100
AcDbSymbolTableRecord
100
AcDbLayerTableRecord
  2
0
 70
0
 62
7
  6
CONTINUOUS
370
-3
390
F
  0
LAYER
  5
1FA
100
AcDbSymbolTableRecord
100
AcDbLayerTableRecord
  2
DEFAULT_1
 70
0
 62
7
  6
CENTER
370
-3
390
F
  0
LAYER
  5
1FB
100
AcDbSymbolTableRecord
100
AcDbLayerTableRecord
  2
DEFAULT_2
 70
0
 62
7
  6
HIDDEN
370
-3
390
F
  0
LAYER
  5
1FC
100
AcDbSymbolTableRecord
100
AcDbLayerTableRecord
  2
DEFAULT_3
 70
0
 62
7
  6
PHANTOM
370
-3
390
F
  0
LAYER
  5
1FD
100
AcDbSymbolTableRecord
100
AcDbLayerTableRecord
  2
ASSI
 70
0
 62
7
  6
CONTINUOUS
370
-3
390
F
  0
LAYER
  5
1FE
100
AcDbSymbolTableRecord
100
AcDbLayerTableRecord
  2
COORDINATE
 70
0
 62
7
  6
CONTINUOUS
370
-3
390
F
  0
LAYER
  5
1FF
100
AcDbSymbolTableRecord
100
AcDbLayerTableRecord
  2
COPY_PUBLISH
 70
0
 62
7
  6
CONTINUOUS
370
-3
390
F
  0
LAYER
  5
200
100
AcDbSymbolTableRecord
100
AcDbLayerTableRecord
  2
COSMETIC
 70
0
 62
7
  6
CONTINUOUS
370
-3
390
F
  0
LAYER
  5
201
100
AcDbSymbolTableRecord
100
AcDbLayerTableRecord
  2
COSMETICI
 70
0
 62
7
  6
CONTINUOUS
370
-3
390
F
  0
LAYER
  5
202
100
AcDbSymbolTableRecord
100
AcDbLayerTableRecord
  2
CURVE
 70
0
 62
7
  6
CONTINUOUS
370
-3
390
F
  0
LAYER
  5
203
100
AcDbSymbolTableRecord
100
AcDbLayerTableRecord
  2
DRAFT
 70
0
 62
7
  6
CONTINUOUS
370
-3
390
F
  0
LAYER
  5
204
100
AcDbSymbolTableRecord
100
AcDbLayerTableRecord
  2
IMPORT_IGES
 70
0
 62
7
  6
CONTINUOUS
370
-3
390
F
  0
LAYER
  5
205
100
AcDbSymbolTableRecord
100
AcDbLayerTableRecord
  2
INTFCLR_11
 70
0
 62
7
  6
CONTINUOUS
370
-3
390
F
  0
LAYER
  5
206
100
AcDbSymbolTableRecord
100
AcDbLayerTableRecord
  2
INTF_1
 70
0
 62
7
  6
CONTINUOUS
370
-3
390
F
  0
LAYER
  5
207
100
AcDbSymbolTableRecord
100
AcDbLayerTableRecord
  2
INTF_3
 70
0
 62
7
  6
CONTINUOUS
370
-3
390
F
  0
LAYER
  5
208
100
AcDbSymbolTableRecord
100
AcDbLayerTableRecord
  2
NOTE
 70
0
 62
7
  6
CONTINUOUS
370
-3
390
F
  0
LAYER
  5
209
100
AcDbSymbolTableRecord
100
AcDbLayerTableRecord
  2
PIANI
 70
0
 62
7
  6
CONTINUOUS
370
-3
390
F
  0
LAYER
  5
20A
100
AcDbSymbolTableRecord
100
AcDbLayerTableRecord
  2
PUNTI
 70
0
 62
7
  6
CONTINUOUS
370
-3
390
F
  0
LAYER
  5
20B
100
AcDbSymbolTableRecord
100
AcDbLayerTableRecord
  2
RACCORDO
 70
0
 62
7
  6
CONTINUOUS
370
-3
390
F
  0
LAYER
  5
20C
100
AcDbSymbolTableRecord
100
AcDbLayerTableRecord
  2
SIMBOLI
 70
0
 62
7
  6
CONTINUOUS
370
-3
390
F
  0
LAYER
  5
20D
100
AcDbSymbolTableRecord
100
AcDbLayerTableRecord
  2
SMUSSO
 70
0
 62
7
  6
CONTINUOUS
370
-3
390
F
  0
LAYER
  5
20E
100
AcDbSymbolTableRecord
100
AcDbLayerTableRecord
  2
SNAPLINE
 70
0
 62
7
  6
CONTINUOUS
370
-3
390
F
  0
LAYER
  5
20F
100
AcDbSymbolTableRecord
100
AcDbLayerTableRecord
  2
SUPERFICI
 70
0
 62
7
  6
CONTINUOUS
370
-3
390
F
  0
LAYER
  5
210
100
AcDbSymbolTableRecord
100
AcDbLayerTableRecord
  2
TRASH
 70
0
 62
7
  6
CONTINUOUS
370
-3
390
F
  0
LAYER
  5
211
100
AcDbSymbolTableRecord
100
AcDbLayerTableRecord
  2
___SHELL
 70
0
 62
7
  6
CONTINUOUS
370
-3
390
F
  0
ENDTAB
  0
TABLE
  2
STYLE
  5
3
100
AcDbSymbolTable
 70
1
  0
STYLE
  5
11
100
AcDbSymbolTableRecord
100
AcDbTextStyleTableRecord
  2
STANDARD
 70
0
 40
0.0
 41
0.8
 50
0.0
 71
0
 42
0.2
  3
txt
  4

  0
STYLE
  5
212
100
AcDbSymbolTableRecord
100
AcDbTextStyleTableRecord
  2
TEXTSTYLE_1
 70
0
 40
0.0
 41
0.8
 50
0.0
 71
0
 42
0.2
  3
gdt
  4

  0
ENDTAB
  0
TABLE
  2
VIEW
  5
6
100
AcDbSymbolTable
 70
0
  0
ENDTAB
  0
TABLE
  2
UCS
  5
7
100
AcDbSymbolTable
 70
0
  0
ENDTAB
  0
TABLE
  2
APPID
  5
9
100
AcDbSymbolTable
 70
1
  0
APPID
  5
213
100
AcDbSymbolTableRecord
100
AcDbRegAppTableRecord
  2
ACAD
 70
0
  0
ENDTAB
  0
TABLE
  2
BLOCK_RECORD
  5
1
100
AcDbSymbolTable
 70
0
  0
BLOCK_RECORD
  5
214
100
AcDbSymbolTableRecord
100
AcDbBlockTableRecord
  2
*Model_Space
  0
BLOCK_RECORD
  5
215
100
AcDbSymbolTableRecord
100
AcDbBlockTableRecord
  2
*Paper_Space
  0
BLOCK_RECORD
  5
216
100
AcDbSymbolTableRecord
100
AcDbBlockTableRecord
  2
_FILLED
  0
ENDTAB
  0
TABLE
  2
DIMSTYLE
  5
A
100
AcDbSymbolTable
 70
1
100
AcDbDimStyleTable
 71
0
  0
DIMSTYLE
105
217
100
AcDbSymbolTableRecord
100
AcDbDimStyleTableRecord
  2
STANDARD
 70
0
  3

  4

 40
1.0
 41
3.0
 42
0.5
 43
0.38
 44
1.5
 45
0.0
 46
0.0
 47
0.01
 48
0.01
140
3.0
141
0.09
142
0.0
143
25.4
144
1.0
145
0.0
146
1.0
147
0.625
 71
1
 72
0
 73
0
 74
0
 75
0
 76
0
 77
1
 78
8
 79
2
170
0
171
1
172
0
173
0
174
0
175
0
176
0
177
0
178
0
270
2
179
2
271
2
272
2
273
2
274
2
275
0
280
0
281
0
282
0
283
1
284
8
285
0
286
0
287
3
288
0
340
11
278
44
341
216
342
216
343
216
344
216
  0
ENDTAB
  0
ENDSEC
  0
SECTION
  2
BLOCKS
  0
BLOCK
  5
20
100
AcDbEntity
  8
0
100
AcDbBlockBegin
  2
*Model_Space
 70
0
 10
0.0
 20
0.0
 30
0.0
  3
*Model_Space
  1

  0
ENDBLK
  5
21
100
AcDbEntity
  8
0
100
AcDbBlockEnd
  0
BLOCK
  5
1C
100
AcDbEntity
  8
0
100
AcDbBlockBegin
  2
*Paper_Space
 70
0
 10
0.0
 20
0.0
 30
0.0
  3
*Paper_Space
  1

  0
ENDBLK
  5
1D
100
AcDbEntity
  8
0
100
AcDbBlockEnd
  0
BLOCK
  5
218
100
AcDbEntity
  8
0
100
AcDbBlockBegin
  2
_FILLED
 70
64
 10
0.0
 20
0.0
  3
_FILLED
  1

  0
SOLID
  5
219
100
AcDbEntity
  8
0
  6
BYBLOCK
 62
0
100
AcDbTrace
 10
0.0
 20
0.0
 11
-1.0
 21
0.3166666667
 12
-1.0
 22
-0.3166666667
 13
-1.0
 23
-0.3166666667
  0
ENDBLK
  5
21A
100
AcDbEntity
  8
0
  6
BYBLOCK
 62
0
100
AcDbBlockEnd
  0
ENDSEC
  0
SECTION
  2
ENTITIES
  0
LWPOLYLINE
  5
21B
100
AcDbEntity
  8
0
100
AcDbPolyline
 62
7
  6
CONTINUOUS
 90
19
 70
0
 10
242.51638843
 20
232.6583845899
 10
242.4836315126
 20
232.6361724129
 10
242.396843593
 20
232.5712138921
 10
242.313460538
 20
232.4999870967
 10
242.2336769444
 20
232.4229762052
 10
242.1576357388
 20
232.3406116986
 10
242.0855963537
 20
232.2534026638
 10
242.0177541669
 20
232.1617672422
 10
241.9543594703
 20
232.0661398647
 10
241.8958284528
 20
231.9672101039
 10
241.8423994061
 20
231.865442565
 10
241.7943409292
 20
231.7612761108
 10
241.7520085647
 20
231.6554276407
 10
241.715651612
 20
231.5483398628
 10
241.6855167899
 20
231.4404015216
 10
241.6619001401
 20
231.3321085867
 10
241.6450904856
 20
231.2238163919
 10
241.6353930966
 20
231.1159346615
 10
241.6338893073
 20
231.0825864403
  0
LINE
  5
21C
100
AcDbEntity
  8
0
100
AcDbLine
 62
7
  6
CONTINUOUS
 10
242.5161475258
 20
232.6582260378
 11
243.4574442713
 21
233.2790023889
  0
LINE
  5
21D
100
AcDbEntity
  8
0
100
AcDbLine
 62
250
  6
CONTINUOUS
 10
242.7729169568
 20
232.6378155598
 11
243.7155583377
 21
233.2594786853
  0
LWPOLYLINE
  5
21E
100
AcDbEntity
  8
0
100
AcDbPolyline
 62
250
  6
CONTINUOUS
 90
9
 70
0
 10
242.5163884301
 20
232.6583845899
 10
242.5371234204
 20
232.6698431262
 10
242.5651543382
 20
232.6796863279
 10
242.5956613954
 20
232.6847268426
 10
242.6283107392
 20
232.68490951
 10
242.6627450745
 20
232.6802323325
 10
242.6985875703
 20
232.6707464952
 10
242.7354459842
 20
232.6565558058
 10
242.7729169568
 20
232.6378155598
  0
LWPOLYLINE
  5
21F
100
AcDbEntity
  8
0
100
AcDbPolyline
 62
7
  6
CONTINUOUS
 90
14
 70
0
 10
241.6339253715
 20
197.5041397596
 10
241.6399623839
 20
197.415865565
 10
241.6520988051
 20
197.3275246016
 10
241.6698863896
 20
197.2435453079
 10
241.6929948432
 20
197.1642135891
 10
241.7211542783
 20
197.0894386632
 10
241.7542353269
 20
197.0189564261
 10
241.7919725559
 20
196.9529653933
 10
241.8340786996
 20
196.8916285758
 10
241.880456333
 20
196.8348556093
 10
241.930772572
 20
196.782913454
 10
241.9846836012
 20
196.7360173618
 10
242.0420963017
 20
196.6941458831
 10
242.0869858258
 20
196.666311703
  0
LWPOLYLINE
  5
220
100
AcDbEntity
  8
0
100
AcDbPolyline
 62
7
  6
CONTINUOUS
 90
10
 70
0
 10
241.6338992006
 20
231.082883244
 10
241.5190734231
 20
227.331240143
 10
241.4313615003
 20
223.5343127027
 10
241.3728897968
 20
219.7540504362
 10
241.3436633683
 20
215.9907651369
 10
241.3436850227
 20
212.2447602939
 10
241.3729554271
 20
208.5163497491
 10
241.4314733169
 20
204.8058376843
 10
241.519235158
 20
201.1135271425
 10
241.6339248646
 20
197.5041539154
  0
LWPOLYLINE
  5
221
100
AcDbEntity
  8
0
100
AcDbPolyline
 62
250
  6
CONTINUOUS
 90
22
 70
0
 10
241.7803509468
 20
230.8785643979
 10
241.7863065242
 20
230.971465502
 10
241.7977358138
 20
231.0661594811
 10
241.8144475019
 20
231.1620948036
 10
241.836144919
 20
231.258417891
 10
241.8626399774
 20
231.3549187806
 10
241.8940192363
 20
231.4520557305
 10
241.9303245831
 20
231.549785465
 10
241.9712631385
 20
231.6471691022
 10
242.0164765338
 20
231.7433430073
 10
242.0659361874
 20
231.8382517619
 10
242.1191713531
 20
231.9309859773
 10
242.1748866796
 20
232.0195462869
 10
242.2318519082
 20
232.1025983623
 10
242.2903038398
 20
232.181061215
 10
242.3511433314
 20
232.2563237252
 10
242.4138977557
 20
232.3278263612
 10
242.4784822718
 20
232.3955039304
 10
242.5466811485
 20
232.4609417113
 10
242.6190089833
 20
232.5239991319
 10
242.69453084
 20
232.5832282643
 10
242.7729169568
 20
232.6378155598
  0
LWPOLYLINE
  5
222
100
AcDbEntity
  8
0
100
AcDbPolyline
 62
7
  6
CONTINUOUS
 90
14
 70
0
 10
272.8279998921
 20
178.9168329081
 10
272.874579108
 20
178.8918089482
 10
272.943759992
 20
178.861151542
 10
273.016656822
 20
178.8363681239
 10
273.0925348231
 20
178.8179249118
 10
273.1709671127
 20
178.8060774103
 10
273.2514995482
 20
178.8010399145
 10
273.3333900197
 20
178.8029427719
 10
273.4162427515
 20
178.8117923804
 10
273.499756327
 20
178.8275866477
 10
273.5834739182
 20
178.8502677422
 10
273.6670875675
 20
178.8797310533
 10
273.7503897238
 20
178.9159080976
 10
273.7724961424
 20
178.9266717056
  0
LWPOLYLINE
  5
223
100
AcDbEntity
  8
0
100
AcDbPolyline
 62
250
  6
CONTINUOUS
 90
8
 70
0
 10
241.6347369913
 20
197.49232652
 10
241.6405558484
 20
197.4615362586
 10
241.6516574883
 20
197.4313941498
 10
241.6679229625
 20
197.4022231515
 10
241.6891779943
 20
197.3743358168
 10
241.7151948465
 20
197.3480309446
 10
241.7456947612
 20
197.323590379
 10
241.7803509468
 20
197.3012759885
  0
LWPOLYLINE
  5
224
100
AcDbEntity
  8
0
100
AcDbPolyline
 62
250
  6
CONTINUOUS
 90
9
 70
0
 10
241.6338893073
 20
231.0825864403
 10
241.6347367818
 20
231.0607860593
 10
241.6405553192
 20
231.0322098663
 10
241.651656719
 20
231.0039928751
 10
241.6679220676
 20
230.9764374264
 10
241.6891771024
 20
230.9498387948
 10
241.7151940951
 20
230.9244819887
 10
241.7456943048
 20
230.9006386986
 10
241.7803509471
 20
230.878564407
  0
LWPOLYLINE
  5
225
100
AcDbEntity
  8
0
100
AcDbPolyline
 62
250
  6
CONTINUOUS
 90
16
 70
0
 10
241.7803509468
 20
197.3012759885
 10
241.7023505014
 20
199.6522779156
 10
241.638162048
 20
201.9408847359
 10
241.5867341689
 20
204.1663741439
 10
241.5473550186
 20
206.3083124126
 10
241.5185501457
 20
208.3856797767
 10
241.498972989
 20
210.4574001755
 10
241.4884871862
 20
212.5251037982
 10
241.4869463686
 20
214.5868866219
 10
241.494509346
 20
216.6972674988
 10
241.5118182849
 20
218.8611909485
 10
241.5394422835
 20
221.0742861698
 10
241.578734227
 20
223.3778319361
 10
241.6312256666
 20
225.7861346553
 10
241.6979953702
 20
228.2861730896
 10
241.7803509468
 20
230.8785643979
  0
LINE
  5
226
100
AcDbEntity
  8
0
100
AcDbLine
 62
7
  6
CONTINUOUS
 10
242.0864705448
 20
196.6666011889
 11
272.8284305806
 21
178.9165787515
  0
LINE
  5
227
100
AcDbEntity
  8
0
100
AcDbLine
 62
250
  6
CONTINUOUS
 10
241.7803509468
 20
197.3012759885
 11
272.5150996011
 21
179.5554173124
  0
LINE
  5
228
100
AcDbEntity
  8
0
100
AcDbLine
 62
7
  6
CONTINUOUS
 10
272.8279801303
 20
178.9168391412
 11
272.8284305055
 21
178.9165787948
  0
LWPOLYLINE
  5
229
100
AcDbEntity
  8
0
100
AcDbPolyline
 62
250
  6
CONTINUOUS
 90
12
 70
0
 10
242.0864705448
 20
196.6666011889
 10
242.0472925722
 20
196.6917806126
 10
242.0003019026
 20
196.7297148067
 10
241.95867235
 20
196.7722064774
 10
241.9217447256
 20
196.8191585636
 10
241.888785319
 20
196.871191811
 10
241.8600357731
 20
196.9278881015
 10
241.8355103124
 20
196.9891663074
 10
241.8147605936
 20
197.0568547946
 10
241.7981755654
 20
197.1317743954
 10
241.7865270322
 20
197.2132741964
 10
241.7803509468
 20
197.3012759885
  0
LWPOLYLINE
  5
22A
100
AcDbEntity
  8
0
100
AcDbPolyline
 62
7
  6
CONTINUOUS
 90
8
 70
0
 10
256.9454919539
 20
201.5685741421
 10
256.9221084679
 20
201.5722974064
 10
256.898205407
 20
201.5795370286
 10
256.8737610512
 20
201.5904346207
 10
256.8487969142
 20
201.6048484498
 10
256.8243050194
 20
201.6222057372
 10
256.8003051406
 20
201.6426243355
 10
256.7767777102
 20
201.6659865134
  0
LWPOLYLINE
  5
22B
100
AcDbEntity
  8
0
100
AcDbPolyline
 62
7
  6
CONTINUOUS
 90
9
 70
0
 10
254.6761181709
 20
203.8737168145
 10
254.6539628742
 20
203.8984565451
 10
254.632931024
 20
203.9253676156
 10
254.6135832738
 20
203.9540936252
 10
254.595855478
 20
203.9845637305
 10
254.5804525412
 20
204.0155674407
 10
254.5674686489
 20
204.0471261229
 10
254.5568101803
 20
204.0792187398
 10
254.5489000894
 20
204.1105710534
  0
LWPOLYLINE
  5
22C
100
AcDbEntity
  8
0
100
AcDbPolyline
 62
7
  6
CONTINUOUS
 90
9
 70
0
 10
254.6562163193
 20
203.8957091643
 10
254.6372523546
 20
203.9195701827
 10
254.6192922081
 20
203.9451824349
 10
254.6029529437
 20
203.9716962476
 10
254.5882982644
 20
203.9991538917
 10
254.5752649001
 20
204.0275133489
 10
254.5642793423
 20
204.0557984464
 10
254.555424794
 20
204.0839480872
 10
254.5486183715
 20
204.1120235545
  0
LWPOLYLINE
  5
22D
100
AcDbEntity
  8
0
100
AcDbPolyline
 62
7
  6
CONTINUOUS
 90
9
 70
0
 10
255.7996368233
 20
207.0241092482
 10
255.802299465
 20
206.9973864934
 10
255.80270446
 20
206.9719229057
 10
255.8007570048
 20
206.9476477234
 10
255.7965519311
 20
206.9246317245
 10
255.7902563256
 20
206.9038114995
 10
255.781925712
 20
206.8854991467
 10
255.771504235
 20
206.8693823775
 10
255.7589917562
 20
206.8554611128
  0
LWPOLYLINE
  5
22E
100
AcDbEntity
  8
0
100
AcDbPolyline
 62
7
  6
CONTINUOUS
 90
8
 70
0
 10
254.5440372444
 20
204.1392321332
 10
254.5417146371
 20
204.1655488114
 10
254.5416174574
 20
204.1909986778
 10
254.5438231863
 20
204.2148640431
 10
254.5484588549
 20
204.2372116729
 10
254.5553973643
 20
204.2579747618
 10
254.5643347192
 20
204.2762350986
 10
254.5751693813
 20
204.2916864926
  0
LWPOLYLINE
  5
22F
100
AcDbEntity
  8
0
100
AcDbPolyline
 62
7
  6
CONTINUOUS
 90
10
 70
0
 10
255.2422099479
 20
204.1312977357
 10
255.2444617532
 20
204.1048763457
 10
255.2444151894
 20
204.079558092
 10
255.2421071992
 20
204.0558867215
 10
255.2374599714
 20
204.0337821094
 10
255.2305512221
 20
204.0133243252
 10
255.2216509483
 20
203.9952972677
 10
255.2108489621
 20
203.9799621279
 10
255.1980550535
 20
203.967057483
 10
255.1832690557
 20
203.9565832359
  0
LWPOLYLINE
  5
230
100
AcDbEntity
  8
0
100
AcDbPolyline
 62
7
  6
CONTINUOUS
 90
20
 70
0
 10
255.7020485103
 20
206.7952740948
 10
255.6513777534
 20
206.728061999
 10
255.6069815776
 20
206.6538260327
 10
255.5686958552
 20
206.5721246673
 10
255.5366893644
 20
206.4834021175
 10
255.5114625712
 20
206.3889876406
 10
255.4931226329
 20
206.2887773834
 10
255.4815649307
 20
206.1828766765
 10
255.4769699565
 20
206.0729272243
 10
255.4794450883
 20
205.9588923171
 10
255.4888830212
 20
205.8408087238
 10
255.5051397859
 20
205.7204269613
 10
255.5283158408
 20
205.5976999907
 10
255.5583084658
 20
205.4726735604
 10
255.5946666399
 20
205.3472360484
 10
255.6374908871
 20
205.2213701947
 10
255.6866764218
 20
205.0950908066
 10
255.7414623092
 20
204.970333233
 10
255.8019114948
 20
204.8471510462
 10
255.8679555148
 20
204.7254874856
  0
LINE
  5
231
100
AcDbEntity
  8
0
100
AcDbLine
 62
7
  6
CONTINUOUS
 10
255.7730367675
 20
206.8716397584
 11
255.7589917562
 21
206.8554611128
  0
LWPOLYLINE
  5
232
100
AcDbEntity
  8
0
100
AcDbPolyline
 62
7
  6
CONTINUOUS
 90
21
 70
0
 10
255.7589917562
 20
206.8554611128
 10
255.6994240485
 20
206.792089818
 10
255.6467818243
 20
206.7210986729
 10
255.6010674238
 20
206.6424890282
 10
255.5621067942
 20
206.5557426866
 10
255.5300792164
 20
206.4613808657
 10
255.5055158261
 20
206.3609633472
 10
255.4885414139
 20
206.2543900579
 10
255.479033809
 20
206.141762598
 10
255.4771509446
 20
206.0249416713
 10
255.4830187641
 20
205.9038573753
 10
255.4965110607
 20
205.77857948
 10
255.5174046351
 20
205.6511765212
 10
255.545820341
 20
205.5216118323
 10
255.5816342304
 20
205.3899203097
 10
255.6242532031
 20
205.2582762723
 10
255.6737872303
 20
205.1266784689
 10
255.7301210236
 20
204.9951250873
 10
255.7923214159
 20
204.8657883423
 10
255.8604822825
 20
204.7387027696
 10
255.9386349521
 20
204.6071116058
  0
LWPOLYLINE
  5
233
100
AcDbEntity
  8
0
100
AcDbPolyline
 62
7
  6
CONTINUOUS
 90
3
 70
0
 10
253.707403599
 20
207.2227599202
 10
253.7212534657
 20
207.2345522588
 10
253.7233514948
 20
207.2359916601
  0
LWPOLYLINE
  5
234
100
AcDbEntity
  8
0
100
AcDbPolyline
 62
7
  6
CONTINUOUS
 90
3
 70
0
 10
254.4452447
 20
206.5066686413
 10
254.4311775125
 20
206.4951919278
 10
254.4189603159
 20
206.488062365
  0
LINE
  5
235
100
AcDbEntity
  8
0
100
AcDbLine
 62
7
  6
CONTINUOUS
 10
255.4221924775
 20
207.3479187234
 11
255.4354046842
 21
207.3585080715
  0
LINE
  5
236
100
AcDbEntity
  8
0
100
AcDbLine
 62
7
  6
CONTINUOUS
 10
255.4221924775
 20
207.3479187234
 11
255.4355100469
 21
207.3583337876
  0
LWPOLYLINE
  5
237
100
AcDbEntity
  8
0
100
AcDbPolyline
 62
7
  6
CONTINUOUS
 90
6
 70
0
 10
255.4355100469
 20
207.3583337876
 10
255.4387725415
 20
207.3604249744
 10
255.4568846855
 20
207.3692761465
 10
255.4765285713
 20
207.3744720459
 10
255.4980092056
 20
207.3759847837
 10
255.5210210581
 20
207.3738419486
  0
LINE
  5
238
100
AcDbEntity
  8
0
100
AcDbLine
 62
7
  6
CONTINUOUS
 10
254.4289114439
 20
206.4936856377
 11
254.4189939679
 21
206.4880011026
  0
LWPOLYLINE
  5
239
100
AcDbEntity
  8
0
100
AcDbPolyline
 62
7
  6
CONTINUOUS
 90
9
 70
0
 10
253.7233514948
 20
207.2359916601
 10
253.7368774487
 20
207.2435720541
 10
253.7539446834
 20
207.2496833054
 10
253.7726032593
 20
207.2528558691
 10
253.792704696
 20
207.2531196635
 10
253.8134732402
 20
207.2504287618
 10
253.8346502057
 20
207.2447677963
 10
253.8564940143
 20
207.2361519823
 10
253.8790046007
 20
207.2245812821
  0
LWPOLYLINE
  5
23A
100
AcDbEntity
  8
0
100
AcDbPolyline
 62
7
  6
CONTINUOUS
 90
9
 70
0
 10
256.0471233009
 20
208.8967554326
 10
256.0623578168
 20
208.9051538482
 10
256.0797366362
 20
208.9111981339
 10
256.0984248712
 20
208.914178797
 10
256.118391438
 20
208.9142253097
 10
256.1389665368
 20
208.9113991227
 10
256.1599268096
 20
208.9057206676
 10
256.1814953666
 20
208.8971693721
 10
256.2036721463
 20
208.8857452012
  0
LWPOLYLINE
  5
23B
100
AcDbEntity
  8
0
100
AcDbPolyline
 62
7
  6
CONTINUOUS
 90
3
 70
0
 10
255.4354046842
 20
207.3585080715
 10
255.4527620272
 20
207.3678252855
 10
255.470342729
 20
207.3732722921
  0
LINE
  5
23C
100
AcDbEntity
  8
0
100
AcDbLine
 62
7
  6
CONTINUOUS
 10
256.0471238902
 20
208.8967548591
 11
256.0665584643
 21
208.9070000332
  0
LINE
  5
23D
100
AcDbEntity
  8
0
100
AcDbLine
 62
7
  6
CONTINUOUS
 10
253.723421194
 20
207.2358768497
 11
253.7426128397
 21
207.2459822311
  0
LINE
  5
23E
100
AcDbEntity
  8
0
100
AcDbLine
 62
7
  6
CONTINUOUS
 10
254.4189603159
 20
206.488062365
 11
254.4162017077
 21
206.486759408
  0
LWPOLYLINE
  5
23F
100
AcDbEntity
  8
0
100
AcDbPolyline
 62
7
  6
CONTINUOUS
 90
8
 70
0
 10
254.4189939679
 20
206.4880011026
 10
254.4110816304
 20
206.4844825527
 10
254.3913533979
 20
206.4789945144
 10
254.3697999723
 20
206.4770771428
 10
254.3472779574
 20
206.4788036686
 10
254.3240727399
 20
206.4841984167
 10
254.2998985468
 20
206.4932368391
 10
254.2747552816
 20
206.5059188803
  0
LINE
  5
240
100
AcDbEntity
  8
0
100
AcDbLine
 62
7
  6
CONTINUOUS
 10
259.2863428777
 20
204.0451144575
 11
259.3060851553
 21
204.050610599
  0
LINE
  5
241
100
AcDbEntity
  8
0
100
AcDbLine
 62
7
  6
CONTINUOUS
 10
259.3060851553
 20
204.050610599
 11
259.3276514822
 21
204.0525354142
  0
LWPOLYLINE
  5
242
100
AcDbEntity
  8
0
100
AcDbPolyline
 62
7
  6
CONTINUOUS
 90
10
 70
0
 10
254.8704147897
 20
203.7833534369
 10
254.8512628496
 20
203.7817775872
 10
254.8304764514
 20
203.7833255025
 10
254.80839897
 20
203.787946329
 10
254.786060844
 20
203.7954876887
 10
254.7635240677
 20
203.8061229092
 10
254.7407265052
 20
203.8196785802
 10
254.7185124503
 20
203.8354822461
 10
254.6970234853
 20
203.853475491
 10
254.6761181709
 20
203.8737168145
  0
LWPOLYLINE
  5
243
100
AcDbEntity
  8
0
100
AcDbPolyline
 62
7
  6
CONTINUOUS
 90
9
 70
0
 10
254.8659622751
 20
203.7828301454
 10
254.8446876029
 20
203.781881547
 10
254.821871886
 20
203.784683691
 10
254.7978339685
 20
203.7911512659
 10
254.7735308117
 20
203.8010285876
 10
254.7489526551
 20
203.814453305
 10
254.7241091545
 20
203.831287708
 10
254.6999864829
 20
203.8508631254
 10
254.6766141139
 20
203.8732892403
  0
LINE
  5
244
100
AcDbEntity
  8
0
100
AcDbLine
 62
7
  6
CONTINUOUS
 10
259.3276514822
 20
204.0525354142
 11
259.3501842385
 21
204.0508150883
  0
LWPOLYLINE
  5
245
100
AcDbEntity
  8
0
100
AcDbPolyline
 62
7
  6
CONTINUOUS
 90
8
 70
0
 10
256.7711349571
 20
202.5705189654
 10
256.7945105781
 20
202.5668059152
 10
256.8183986097
 20
202.5595790119
 10
256.8428201847
 20
202.5486966877
 10
256.8677539647
 20
202.5343003902
 10
256.8922100274
 20
202.5169616851
 10
256.9161685249
 20
202.4965629476
 10
256.9396495107
 20
202.4732219227
  0
LWPOLYLINE
  5
246
100
AcDbEntity
  8
0
100
AcDbPolyline
 62
7
  6
CONTINUOUS
 90
9
 70
0
 10
254.3243036759
 20
206.9607066205
 10
254.3475058649
 20
206.9392935723
 10
254.3700229494
 20
206.9149964719
 10
254.3915688197
 20
206.8881712106
 10
254.4112847017
 20
206.8598852061
 10
254.4290958228
 20
206.8300806829
 10
254.445077546
 20
206.7988157569
 10
254.4585961878
 20
206.7673316176
 10
254.469552888
 20
206.7356201977
  0
LWPOLYLINE
  5
247
100
AcDbEntity
  8
0
100
AcDbPolyline
 62
7
  6
CONTINUOUS
 90
17
 70
0
 10
256.27567302
 20
204.1591345881
 10
256.370054772
 20
204.0594946592
 10
256.4676021207
 20
203.9659730718
 10
256.5667007588
 20
203.8801150205
 10
256.6673749782
 20
203.8020469623
 10
256.7695978097
 20
203.7316408845
 10
256.8716785983
 20
203.6700605931
 10
256.9736147664
 20
203.6174528719
 10
257.0754090949
 20
203.5736710553
 10
257.1753796638
 20
203.5394391801
 10
257.2734973981
 20
203.5149168459
 10
257.3697944167
 20
203.4999462217
 10
257.4626810858
 20
203.4947754863
 10
257.5521029951
 20
203.4995690166
 10
257.6381198395
 20
203.5141655028
 10
257.7193131209
 20
203.5383245805
 10
257.7956054824
 20
203.5722069127
  0
LWPOLYLINE
  5
248
100
AcDbEntity
  8
0
100
AcDbPolyline
 62
7
  6
CONTINUOUS
 90
19
 70
0
 10
256.2642313266
 20
204.1719263139
 10
256.3543031158
 20
204.0754510274
 10
256.4464513987
 20
203.9853891069
 10
256.5407806068
 20
203.9017709211
 10
256.6371830792
 20
203.8245642255
 10
256.7340770358
 20
203.7550264157
 10
256.8313902138
 20
203.6933300479
 10
256.9291938976
 20
203.6393019972
 10
257.026122187
 20
203.5936814632
 10
257.1222189547
 20
203.5565645384
 10
257.2174417891
 20
203.5278559792
 10
257.3102958939
 20
203.5080082885
 10
257.4007091765
 20
203.4971643662
 10
257.4887573496
 20
203.4951834149
 10
257.5731675732
 20
203.5020925362
 10
257.6539146976
 20
203.5180279411
 10
257.7310290341
 20
203.5428564126
 10
257.8033206813
 20
203.5762007618
 10
257.8552451247
 20
203.6075137386
  0
LWPOLYLINE
  5
249
100
AcDbEntity
  8
0
100
AcDbPolyline
 62
7
  6
CONTINUOUS
 90
11
 70
0
 10
256.7760058548
 20
201.666724289
 10
256.7546558159
 20
201.6913661607
 10
256.7339956349
 20
201.7188450212
 10
256.7147415124
 20
201.7483416578
 10
256.697658755
 20
201.7786851701
 10
256.6828350074
 20
201.8099115597
 10
256.6701832192
 20
201.8419851735
 10
256.6602064529
 20
201.8736275115
 10
256.6530724512
 20
201.9044124392
 10
256.648613812
 20
201.9347662906
 10
256.6468307349
 20
201.9646891827
  0
LWPOLYLINE
  5
24A
100
AcDbEntity
  8
0
100
AcDbPolyline
 62
7
  6
CONTINUOUS
 90
9
 70
0
 10
256.940417581
 20
202.4724872851
 10
256.9617229908
 20
202.4478632748
 10
256.9823331927
 20
202.420405622
 10
257.0015364097
 20
202.3909306507
 10
257.0185707138
 20
202.3606076089
 10
257.0333491467
 20
202.3294008073
 10
257.0459592593
 20
202.2973462818
 10
257.0559006878
 20
202.2657207508
 10
257.0630066995
 20
202.2349498195
  0
LINE
  5
24B
100
AcDbEntity
  8
0
100
AcDbLine
 62
7
  6
CONTINUOUS
 10
256.1775000036
 20
204.2734638425
 11
256.27567302
 21
204.1591345881
  0
LINE
  5
24C
100
AcDbEntity
  8
0
100
AcDbLine
 62
7
  6
CONTINUOUS
 10
256.0941047969
 20
204.3802082241
 11
256.1845118012
 21
204.2649959151
  0
LINE
  5
24D
100
AcDbEntity
  8
0
100
AcDbLine
 62
7
  6
CONTINUOUS
 10
255.9639136347
 20
203.9753981639
 11
255.8487474083
 21
204.1237372011
  0
LWPOLYLINE
  5
24E
100
AcDbEntity
  8
0
100
AcDbPolyline
 62
7
  6
CONTINUOUS
 90
11
 70
0
 10
256.7563000074
 20
201.689299954
 10
256.7377297214
 20
201.7135168997
 10
256.7201954683
 20
201.7395749225
 10
256.7037972232
 20
201.7672744881
 10
256.6892645565
 20
201.7956327129
 10
256.6766883456
 20
201.8248022226
 10
256.6659782017
 20
201.8546306783
 10
256.6575915801
 20
201.8836776227
 10
256.6516809449
 20
201.9114628909
 10
256.6480939664
 20
201.9384667267
 10
256.6468307349
 20
201.9646891827
  0
LWPOLYLINE
  5
24F
100
AcDbEntity
  8
0
100
AcDbPolyline
 62
7
  6
CONTINUOUS
 90
11
 70
0
 10
256.9600804382
 20
202.4499305
 10
256.9786064667
 20
202.4257326171
 10
256.9960951472
 20
202.3996944738
 10
257.0124474439
 20
202.3720154929
 10
257.0269368433
 20
202.3436769096
 10
257.0394729851
 20
202.3145268552
 10
257.0501467166
 20
202.2847174833
 10
257.0585031212
 20
202.2556859376
 10
257.0643905394
 20
202.2279112537
 10
257.0679607657
 20
202.2009144752
 10
257.0692138905
 20
202.1746956548
  0
LINE
  5
250
100
AcDbEntity
  8
0
100
AcDbLine
 62
7
  6
CONTINUOUS
 10
255.8552782683
 20
204.1150436509
 11
255.7498865097
 21
204.2628980272
  0
LINE
  5
251
100
AcDbEntity
  8
0
100
AcDbLine
 62
7
  6
CONTINUOUS
 10
255.751088532
 20
204.2611719908
 11
255.652912956
 21
204.4115933724
  0
LWPOLYLINE
  5
252
100
AcDbEntity
  8
0
100
AcDbPolyline
 62
7
  6
CONTINUOUS
 90
3
 70
0
 10
255.9345032543
 20
204.6138300788
 10
256.0131583525
 20
204.4932324062
 10
256.0965212094
 20
204.3769785038
  0
LINE
  5
253
100
AcDbEntity
  8
0
100
AcDbLine
 62
7
  6
CONTINUOUS
 10
255.6556683966
 20
204.4072453828
 11
255.5608465322
 21
204.5663754243
  0
LWPOLYLINE
  5
254
100
AcDbEntity
  8
0
100
AcDbPolyline
 62
7
  6
CONTINUOUS
 90
21
 70
0
 10
255.5673157328
 20
204.5549094676
 10
255.4748040131
 20
204.7254561691
 10
255.3960822916
 20
204.8864506403
 10
255.3247959814
 20
205.0493902701
 10
255.2608397911
 20
205.2142490148
 10
255.2051784014
 20
205.3785543234
 10
255.1579400911
 20
205.5422995128
 10
255.1190038125
 20
205.7054954245
 10
255.0889569686
 20
205.8656938869
 10
255.0679350406
 20
206.0228505326
 10
255.0558063931
 20
206.1770119158
 10
255.0527538413
 20
206.3258639839
 10
255.0589136268
 20
206.4693258504
 10
255.0741492786
 20
206.6074782315
 10
255.0982304262
 20
206.7382471047
 10
255.1312878965
 20
206.8615194881
 10
255.1731866011
 20
206.977405876
 10
255.2232934317
 20
207.0841652391
 10
255.281394039
 20
207.1812153217
 10
255.3476949016
 20
207.2691338311
 10
255.4221924775
 20
207.3479187234
  0
LWPOLYLINE
  5
255
100
AcDbEntity
  8
0
100
AcDbPolyline
 62
7
  6
CONTINUOUS
 90
20
 70
0
 10
255.4848746839
 20
204.7059970307
 10
255.4083077037
 20
204.8604063173
 10
255.3387105521
 20
205.015953991
 10
255.2761982055
 20
205.1726403762
 10
255.2206634607
 20
205.3304696365
 10
255.172866569
 20
205.4872628921
 10
255.1329190003
 20
205.6429745746
 10
255.1007149619
 20
205.7976535117
 10
255.0766859723
 20
205.949260772
 10
255.0609380536
 20
206.0978081005
 10
255.0533680552
 20
206.2432853792
 10
255.0540904117
 20
206.383618959
 10
255.0632164793
 20
206.5186904577
 10
255.0806341472
 20
206.6486177893
 10
255.1061192122
 20
206.7716797683
 10
255.1398048008
 20
206.8878362506
 10
255.1815538991
 20
206.9971251132
 10
255.2307338421
 20
207.0979403339
 10
255.2871307487
 20
207.1897448451
 10
255.350951365
 20
207.2730715929
  0
LWPOLYLINE
  5
256
100
AcDbEntity
  8
0
100
AcDbPolyline
 62
7
  6
CONTINUOUS
 90
12
 70
0
 10
253.6961465254
 20
206.9606173059
 10
253.6856202498
 20
206.990101699
 10
253.6773603086
 20
207.0190138191
 10
253.6715229165
 20
207.0471637052
 10
253.667952077
 20
207.0747414441
 10
253.6666930243
 20
207.1009792194
 10
253.6677745127
 20
207.1258421613
 10
253.6711677836
 20
207.1493651371
 10
253.6768315721
 20
207.1708848032
 10
253.6849171718
 20
207.1904362152
 10
253.6952730856
 20
207.2079842001
 10
253.707403599
 20
207.2227599202
  0
LWPOLYLINE
  5
257
100
AcDbEntity
  8
0
100
AcDbPolyline
 62
7
  6
CONTINUOUS
 90
11
 70
0
 10
254.4700285519
 20
206.734262027
 10
254.4780470256
 20
206.7036898638
 10
254.4837419969
 20
206.6728062964
 10
254.4865254495
 20
206.6430106471
 10
254.4865099412
 20
206.614261883
 10
254.4836958468
 20
206.5877021842
 10
254.4779702075
 20
206.563419999
 10
254.4694457768
 20
206.541326761
 10
254.4584611098
 20
206.5222989048
 10
254.4449166547
 20
206.5064597301
 10
254.4297685067
 20
206.4943696774
  0
LWPOLYLINE
  5
258
100
AcDbEntity
  8
0
100
AcDbPolyline
 62
7
  6
CONTINUOUS
 90
9
 70
0
 10
254.4775276365
 20
206.7061981135
 10
254.482862039
 20
206.6784548194
 10
254.486035614
 20
206.6511383866
 10
254.4869208448
 20
206.625176485
 10
254.4854260571
 20
206.6006203437
 10
254.4816429152
 20
206.577418728
 10
254.4757186348
 20
206.5563454536
 10
254.4676081399
 20
206.5375027107
 10
254.4573562268
 20
206.5207881479
  0
LWPOLYLINE
  5
259
100
AcDbEntity
  8
0
100
AcDbPolyline
 62
7
  6
CONTINUOUS
 90
8
 70
0
 10
255.7948336323
 20
207.051366735
 10
255.8000738927
 20
207.0205413205
 10
255.8026182907
 20
206.9907752594
 10
255.8022078863
 20
206.9625565802
 10
255.7989573644
 20
206.9358260677
 10
255.7929975933
 20
206.9116452233
 10
255.7843719941
 20
206.8903677652
 10
255.7730367675
 20
206.8716397584
  0
LWPOLYLINE
  5
25A
100
AcDbEntity
  8
0
100
AcDbPolyline
 62
7
  6
CONTINUOUS
 90
10
 70
0
 10
254.5486183715
 20
204.1120235545
 10
254.5438490775
 20
204.1411527433
 10
254.5415467432
 20
204.1709943047
 10
254.542084016
 20
204.1989125076
 10
254.5455755536
 20
204.2248306702
 10
254.5519065938
 20
204.2488254129
 10
254.5608235361
 20
204.2699432252
 10
254.572241611
 20
204.2878661326
 10
254.5862450956
 20
204.3029118221
 10
254.5973484196
 20
204.3115705104
  0
LWPOLYLINE
  5
25B
100
AcDbEntity
  8
0
100
AcDbPolyline
 62
7
  6
CONTINUOUS
 90
3
 70
0
 10
257.5143377839
 20
207.5107676758
 10
257.5133886328
 20
207.5278338258
 10
257.5107959685
 20
207.5450348589
  0
LINE
  5
25C
100
AcDbEntity
  8
0
100
AcDbLine
 62
7
  6
CONTINUOUS
 10
257.5143377839
 20
207.5107676758
 11
257.5135134881
 21
207.5273208969
  0
LWPOLYLINE
  5
25D
100
AcDbEntity
  8
0
100
AcDbPolyline
 62
7
  6
CONTINUOUS
 90
3
 70
0
 10
257.9346833594
 20
206.3575936047
 10
257.9351979495
 20
206.3448798293
 10
257.9367105338
 20
206.331947784
  0
LINE
  5
25E
100
AcDbEntity
  8
0
100
AcDbLine
 62
7
  6
CONTINUOUS
 10
257.9382542694
 20
207.3590763574
 11
257.9397862024
 21
207.3079462584
  0
LWPOLYLINE
  5
25F
100
AcDbEntity
  8
0
100
AcDbPolyline
 62
7
  6
CONTINUOUS
 90
9
 70
0
 10
257.0722586469
 20
201.7190524382
 10
257.0713285179
 20
201.6940448463
 10
257.0680811348
 20
201.6709627983
 10
257.0625164029
 20
201.6498062386
 10
257.0544880471
 20
201.6302794672
 10
257.0441421985
 20
201.6126780999
 10
257.0319172029
 20
201.5978889555
 10
257.0177252629
 20
201.5861583031
 10
257.0054400134
 20
201.5790144701
  0
LWPOLYLINE
  5
260
100
AcDbEntity
  8
0
100
AcDbPolyline
 62
7
  6
CONTINUOUS
 90
3
 70
0
 10
256.6440940313
 20
202.4201545335
 10
256.6450671511
 20
202.4451388151
 10
256.6483548675
 20
202.4681993906
  0
LWPOLYLINE
  5
261
100
AcDbEntity
  8
0
100
AcDbPolyline
 62
7
  6
CONTINUOUS
 90
3
 70
0
 10
257.0722586469
 20
201.7190524382
 10
257.0708736852
 20
201.6909582588
 10
257.0670336433
 20
201.6669803395
  0
LWPOLYLINE
  5
262
100
AcDbEntity
  8
0
100
AcDbPolyline
 62
7
  6
CONTINUOUS
 90
8
 70
0
 10
256.6440940313
 20
202.4201545335
 10
256.6455259753
 20
202.4482189389
 10
256.6496423369
 20
202.4736218979
 10
256.6564429164
 20
202.4963632937
 10
256.6660906608
 20
202.5166778489
 10
256.6784222829
 20
202.5343306416
 10
256.6929480878
 20
202.548617004
 10
256.6998940126
 20
202.5536709879
  0
LINE
  5
263
100
AcDbEntity
  8
0
100
AcDbLine
 62
7
  6
CONTINUOUS
 10
256.6483548675
 20
202.4681993906
 11
256.6539570856
 21
202.4893362047
  0
LINE
  5
264
100
AcDbEntity
  8
0
100
AcDbLine
 62
7
  6
CONTINUOUS
 10
257.0668013513
 20
201.6655298658
 11
257.0600414452
 21
201.6427671422
  0
LINE
  5
265
100
AcDbEntity
  8
0
100
AcDbLine
 62
7
  6
CONTINUOUS
 10
256.6539570856
 20
202.4893362047
 11
256.6620201932
 21
202.5088437219
  0
LWPOLYLINE
  5
266
100
AcDbEntity
  8
0
100
AcDbPolyline
 62
7
  6
CONTINUOUS
 90
3
 70
0
 10
254.5751693813
 20
204.2916864926
 10
254.5880024618
 20
204.3046348852
 10
254.597307487
 20
204.3116370546
  0
LINE
  5
267
100
AcDbEntity
  8
0
100
AcDbLine
 62
7
  6
CONTINUOUS
 10
255.1998405246
 20
203.9687551502
 11
255.1832690557
 21
203.9565832359
  0
LINE
  5
268
100
AcDbEntity
  8
0
100
AcDbLine
 62
7
  6
CONTINUOUS
 10
254.6027152275
 20
204.3152576868
 11
254.5973036076
 21
204.3116434116
  0
LINE
  5
269
100
AcDbEntity
  8
0
100
AcDbLine
 62
7
  6
CONTINUOUS
 10
254.5973484196
 20
204.3115705104
 11
254.6028337839
 21
204.3150801735
  0
LINE
  5
26A
100
AcDbEntity
  8
0
100
AcDbLine
 62
7
  6
CONTINUOUS
 10
254.597307487
 20
204.3116370546
 11
254.6028337839
 21
204.3150801735
  0
LINE
  5
26B
100
AcDbEntity
  8
0
100
AcDbLine
 62
250
  6
CONTINUOUS
 10
274.5271048851
 20
215.467991128
 11
274.6289634663
 21
215.526809501
  0
LWPOLYLINE
  5
26C
100
AcDbEntity
  8
0
100
AcDbPolyline
 62
7
  6
CONTINUOUS
 90
21
 70
0
 10
254.8816001549
 20
204.4758935925
 10
254.8980300956
 20
204.4834806604
 10
254.915617435
 20
204.4881269281
 10
254.9343619572
 20
204.4898322699
 10
254.9545400258
 20
204.4885542279
 10
254.9758749489
 20
204.484335069
 10
254.9975369588
 20
204.4773017731
 10
255.0194099294
 20
204.4674311835
 10
255.0416098466
 20
204.4547463753
 10
255.0636551576
 20
204.4394437054
 10
255.0857274332
 20
204.4212788559
 10
255.107645244
 20
204.4004962268
 10
255.12838259
 20
204.3780252823
 10
255.1477586225
 20
204.3539156523
 10
255.1659545491
 20
204.3281179158
 10
255.1824874426
 20
204.3014129535
 10
255.1973296419
 20
204.2737797153
 10
255.2105092451
 20
204.2452395059
 10
255.221626867
 20
204.2166366808
 10
255.2306284353
 20
204.1878642599
 10
255.2375684043
 20
204.1590294461
  0
LWPOLYLINE
  5
26D
100
AcDbEntity
  8
0
100
AcDbPolyline
 62
250
  6
CONTINUOUS
 90
16
 70
0
 10
273.215683075
 20
213.1122127839
 10
273.1766739411
 20
213.094347982
 10
273.1343613087
 20
213.0788996633
 10
273.089198537
 20
213.0660333487
 10
273.041669523
 20
213.0558868948
 10
272.9922835168
 20
213.0485690156
 10
272.9415696652
 20
213.0441581188
 10
272.8900713424
 20
213.042701465
 10
272.8383403277
 20
213.0442146615
 10
272.7869308935
 20
213.048681495
 10
272.7363938669
 20
213.0560541058
 10
272.6872707273
 20
213.0662534999
 10
272.6400878052
 20
213.0791703958
 10
272.5953506424
 20
213.0946663953
 10
272.5535385757
 20
213.1125754662
 10
272.5150996011
 20
213.1327057218
  0
LINE
  5
26E
100
AcDbEntity
  8
0
100
AcDbLine
 62
7
  6
CONTINUOUS
 10
254.8816001549
 20
204.4758935925
 11
254.9001552623
 21
204.4840420923
  0
LWPOLYLINE
  5
26F
100
AcDbEntity
  8
0
100
AcDbPolyline
 62
7
  6
CONTINUOUS
 90
8
 70
0
 10
254.4152503182
 20
206.4863100438
 10
254.3980323296
 20
206.4803462315
 10
254.3794905486
 20
206.477429052
 10
254.3596575583
 20
206.4774297047
 10
254.3392008906
 20
206.480285359
 10
254.3183429653
 20
206.4859750187
 10
254.296861116
 20
206.4945195376
 10
254.2747552816
 20
206.5059188803
  0
LWPOLYLINE
  5
270
100
AcDbEntity
  8
0
100
AcDbPolyline
 62
7
  6
CONTINUOUS
 90
26
 70
0
 10
254.9004524325
 20
204.4841725949
 10
254.920520421
 20
204.4887882372
 10
254.9418038126
 20
204.4897403401
 10
254.9646204067
 20
204.4869440578
 10
254.9886519598
 20
204.4804839776
 10
255.0129441696
 20
204.4706141111
 10
255.0375070205
 20
204.4571972098
 10
255.0623304238
 20
204.4403704615
 10
255.0864300543
 20
204.4207995827
 10
255.1097778331
 20
204.3983731037
 10
255.1324021393
 20
204.3732026688
 10
255.1534033921
 20
204.3462886994
 10
255.1727157396
 20
204.3175618658
 10
255.1904055979
 20
204.2870918262
 10
255.2057717165
 20
204.2560874411
 10
255.2187210061
 20
204.2245266437
 10
255.2293471204
 20
204.1924318297
 10
255.2372286824
 20
204.1610784136
 10
255.2422550049
 20
204.1304973326
 10
255.2445370746
 20
204.1006578242
 10
255.2439856561
 20
204.0727425384
 10
255.2404864226
 20
204.0468284958
 10
255.2341535962
 20
204.0228386152
 10
255.225240366
 20
204.0017241613
 10
255.2138308928
 20
203.9838020855
 10
255.1998405246
 20
203.9687551502
  0
LINE
  5
271
100
AcDbEntity
  8
0
100
AcDbLine
 62
7
  6
CONTINUOUS
 10
259.3501842385
 20
204.0508150883
 11
259.3733974031
 21
204.0454249312
  0
LINE
  5
272
100
AcDbEntity
  8
0
100
AcDbLine
 62
7
  6
CONTINUOUS
 10
253.8064567126
 20
207.2516895266
 11
253.829672459
 21
207.2462997486
  0
LINE
  5
273
100
AcDbEntity
  8
0
100
AcDbLine
 62
7
  6
CONTINUOUS
 10
259.3733974031
 20
204.0454249312
 11
259.3975766108
 21
204.0363894104
  0
LINE
  5
274
100
AcDbEntity
  8
0
100
AcDbLine
 62
7
  6
CONTINUOUS
 10
253.829672459
 20
207.2462997486
 11
253.8538551205
 21
207.2372636857
  0
LINE
  5
275
100
AcDbEntity
  8
0
100
AcDbLine
 62
7
  6
CONTINUOUS
 10
259.3975766108
 20
204.0363894104
 11
259.4227217652
 21
204.0237084704
  0
LINE
  5
276
100
AcDbEntity
  8
0
100
AcDbLine
 62
7
  6
CONTINUOUS
 10
253.8538551205
 20
207.2372636857
 11
253.8790046007
 21
207.2245812821
  0
LINE
  5
277
100
AcDbEntity
  8
0
100
AcDbLine
 62
7
  6
CONTINUOUS
 10
253.8787754841
 20
206.7345526525
 11
254.2747552816
 21
206.5059188803
  0
LINE
  5
278
100
AcDbEntity
  8
0
100
AcDbLine
 62
7
  6
CONTINUOUS
 10
259.4224926486
 20
203.5336798409
 11
259.8184724461
 21
203.3050460686
  0
LINE
  5
279
100
AcDbEntity
  8
0
100
AcDbLine
 62
7
  6
CONTINUOUS
 10
253.8790046007
 20
207.2245812821
 11
254.2749843982
 21
206.9959475099
  0
LINE
  5
27A
100
AcDbEntity
  8
0
100
AcDbLine
 62
7
  6
CONTINUOUS
 10
259.4227217652
 20
204.0237084704
 11
259.8187015627
 21
203.7950746982
  0
LWPOLYLINE
  5
27B
100
AcDbEntity
  8
0
100
AcDbPolyline
 62
7
  6
CONTINUOUS
 90
12
 70
0
 10
259.4224926486
 20
203.5336798409
 10
259.4000515005
 20
203.5479475204
 10
259.3781400712
 20
203.5646175091
 10
259.3567584297
 20
203.583689847
 10
259.3355695349
 20
203.6055372505
 10
259.3149107159
 20
203.6297871693
 10
259.2957936261
 20
203.6553217603
 10
259.2783951732
 20
203.6821357449
 10
259.2625388884
 20
203.7102346551
 10
259.2487062654
 20
203.7385168081
 10
259.237011571
 20
203.7668180572
 10
259.2273408893
 20
203.7953027515
  0
LWPOLYLINE
  5
27C
100
AcDbEntity
  8
0
100
AcDbPolyline
 62
7
  6
CONTINUOUS
 90
12
 70
0
 10
254.2749843982
 20
206.9959475099
 10
254.2974243914
 20
206.9816788653
 10
254.3193318398
 20
206.9650063649
 10
254.3407068126
 20
206.9459300487
 10
254.3618863875
 20
206.9240772594
 10
254.3825337748
 20
206.89982082
 10
254.4016382705
 20
206.8742790072
 10
254.4190233321
 20
206.8474572432
 10
254.4348659413
 20
206.8193503588
 10
254.4486855855
 20
206.7910606882
 10
254.4603683757
 20
206.7627526495
 10
254.4700285519
 20
206.734262027
  0
LWPOLYLINE
  5
27D
100
AcDbEntity
  8
0
100
AcDbPolyline
 62
7
  6
CONTINUOUS
 90
10
 70
0
 10
253.8787754841
 20
206.7345526525
 10
253.8567552183
 20
206.7485875591
 10
253.8353086105
 20
206.7648163021
 10
253.8144357224
 20
206.7832389173
 10
253.7938710684
 20
206.8041499868
 10
253.7738803863
 20
206.8272550741
 10
253.7552606038
 20
206.8516707038
 10
253.738150638
 20
206.877284355
 10
253.7224119629
 20
206.9042087743
 10
253.7084253157
 20
206.9318983722
  0
LWPOLYLINE
  5
27E
100
AcDbEntity
  8
0
100
AcDbPolyline
 62
7
  6
CONTINUOUS
 90
10
 70
0
 10
259.8187015627
 20
203.7950746982
 10
259.8407158873
 20
203.7810460984
 10
259.8621594207
 20
203.7648142557
 10
259.883032225
 20
203.7463792058
 10
259.9036043064
 20
203.725440954
 10
259.9236059118
 20
203.7022996408
 10
259.9422274926
 20
203.6778555216
 10
259.9593234632
 20
203.6522291157
 10
259.9750397998
 20
203.6253001289
 10
259.9890042705
 20
203.5976075813
  0
LWPOLYLINE
  5
27F
100
AcDbEntity
  8
0
100
AcDbPolyline
 62
7
  6
CONTINUOUS
 90
21
 70
0
 10
253.8787754841
 20
206.7345526525
 10
253.8536326573
 20
206.7509048119
 10
253.8294583091
 20
206.7697821193
 10
253.806252536
 20
206.7911846305
 10
253.7837296472
 20
206.815466992
 10
253.7621757199
 20
206.8422747805
 10
253.7424485415
 20
206.870544469
 10
253.7246223138
 20
206.9003347137
 10
253.7086234252
 20
206.9315871993
 10
253.6950878308
 20
206.9630628763
 10
253.6841146474
 20
206.9947720871
 10
253.675605278
 20
207.0267047892
 10
253.669898828
 20
207.0575911957
 10
253.6671084953
 20
207.0873881336
 10
253.6671212868
 20
207.1161388938
 10
253.669936635
 20
207.1427031617
 10
253.6756675025
 20
207.1669934947
 10
253.6842007219
 20
207.189097217
 10
253.6951961422
 20
207.2081359416
 10
253.7087520709
 20
207.2239851772
 10
253.723421194
 20
207.2358768497
  0
LWPOLYLINE
  5
280
100
AcDbEntity
  8
0
100
AcDbPolyline
 62
7
  6
CONTINUOUS
 90
11
 70
0
 10
259.4224926486
 20
203.5336798409
 10
259.3973452508
 20
203.5500349762
 10
259.3731664279
 20
203.5689167469
 10
259.3499562767
 20
203.5903252087
 10
259.3274284383
 20
203.6146161102
 10
259.3058696582
 20
203.641433926
 10
259.2861397286
 20
203.6697118239
 10
259.2683138914
 20
203.6995078477
 10
259.2523174951
 20
203.7307642942
 10
259.2387853779
 20
203.7622406452
 10
259.2278168666
 20
203.7939452381
  0
LWPOLYLINE
  5
281
100
AcDbEntity
  8
0
100
AcDbPolyline
 62
7
  6
CONTINUOUS
 90
3
 70
0
 10
254.2749843982
 20
206.9959475099
 10
254.3001298859
 20
206.9795912849
 10
254.3230684892
 20
206.9616715534
  0
LINE
  5
282
100
AcDbEntity
  8
0
100
AcDbLine
 62
7
  6
CONTINUOUS
 10
259.8187015627
 20
203.7950746982
 11
259.8434473312
 21
203.7789785115
  0
LWPOLYLINE
  5
283
100
AcDbEntity
  8
0
100
AcDbPolyline
 62
7
  6
CONTINUOUS
 90
20
 70
0
 10
259.8438424537
 20
203.7787214993
 10
259.8680117815
 20
203.7598412888
 10
259.8912096427
 20
203.7384341222
 10
259.9137218998
 20
203.7141453861
 10
259.9352630766
 20
203.6873299164
 10
259.954976301
 20
203.6590519656
 10
259.9727877824
 20
203.6292532202
 10
259.9887719016
 20
203.5979923338
 10
260.0022939311
 20
203.5665089446
 10
260.013255246
 20
203.5347929547
 10
260.021754991
 20
203.502854762
 10
260.0274548137
 20
203.471964588
 10
260.0302417143
 20
203.4421657177
 10
260.0302288974
 20
203.4134149846
 10
260.0274169299
 20
203.3868527092
 10
260.0216926364
 20
203.3625662162
 10
260.0131689875
 20
203.340468063
 10
260.0021853811
 20
203.3214361961
 10
259.9886429578
 20
203.3055947748
 10
259.9726400572
 20
203.29281934
  0
LWPOLYLINE
  5
284
100
AcDbEntity
  8
0
100
AcDbPolyline
 62
7
  6
CONTINUOUS
 90
10
 70
0
 10
255.6429804439
 20
207.3100253513
 10
255.6661721394
 20
207.2880895865
 10
255.6886068399
 20
207.2636195582
 10
255.7096755705
 20
207.2368882841
 10
255.7294307152
 20
207.2079846302
 10
255.7470867583
 20
207.1780586658
 10
255.7625585668
 20
207.1470704077
 10
255.7759318716
 20
207.1150601818
 10
255.7866772769
 20
207.0832984196
 10
255.7946893213
 20
207.0517955158
  0
LWPOLYLINE
  5
285
100
AcDbEntity
  8
0
100
AcDbPolyline
 62
7
  6
CONTINUOUS
 90
9
 70
0
 10
255.6640770054
 20
207.2902730162
 10
255.6847379398
 20
207.2679450988
 10
255.7047648226
 20
207.2433493571
 10
255.7231724849
 20
207.2176979141
 10
255.7397371301
 20
207.1911238693
 10
255.7546829574
 20
207.1634943539
 10
255.7676967004
 20
207.1356224863
 10
255.7787437472
 20
207.1075204627
 10
255.7878590717
 20
207.0791762944
  0
LINE
  5
286
100
AcDbEntity
  8
0
100
AcDbLine
 62
7
  6
CONTINUOUS
 10
257.7760216819
 20
205.9006090934
 11
257.6692180005
 21
206.0675425479
  0
LINE
  5
287
100
AcDbEntity
  8
0
100
AcDbLine
 62
7
  6
CONTINUOUS
 10
257.9740471312
 20
206.2388995182
 11
258.0711039165
 21
206.0854717648
  0
LINE
  5
288
100
AcDbEntity
  8
0
100
AcDbLine
 62
7
  6
CONTINUOUS
 10
258.8028422814
 20
202.230981588
 11
258.821833251
 21
202.2008523855
  0
LINE
  5
289
100
AcDbEntity
  8
0
100
AcDbLine
 62
7
  6
CONTINUOUS
 10
257.4839148301
 20
207.6153048402
 11
257.4736382791
 21
207.6317206787
  0
LWPOLYLINE
  5
28A
100
AcDbEntity
  8
0
100
AcDbPolyline
 62
7
  6
CONTINUOUS
 90
3
 70
0
 10
257.6692180005
 20
206.0675425479
 10
257.6429504393
 20
206.1127875435
 10
257.6187706159
 20
206.1590211443
  0
LWPOLYLINE
  5
28B
100
AcDbEntity
  8
0
100
AcDbPolyline
 62
7
  6
CONTINUOUS
 90
21
 70
0
 10
258.0668404006
 20
206.092594827
 10
258.1611557916
 20
205.9295014276
 10
258.2442070953
 20
205.7709909973
 10
258.3206101644
 20
205.6091202094
 10
258.3900224923
 20
205.4447149796
 10
258.4514051029
 20
205.280246472
 10
258.5046400102
 20
205.115716019
 10
258.5498531186
 20
204.9511268612
 10
258.5863682193
 20
204.788951267
 10
258.614055836
 20
204.6292262058
 10
258.6330502651
 20
204.4719175157
 10
258.6430671694
 20
204.3193885916
 10
258.6439706978
 20
204.1717118441
 10
258.6358975571
 20
204.028815394
 10
258.6189681382
 20
203.8928438343
 10
258.59304633
 20
203.7639000974
 10
258.5582649845
 20
203.6418794045
 10
258.5151439654
 20
203.5286124845
 10
258.4635533378
 20
203.4242294028
 10
258.4036162435
 20
203.3285961916
 10
258.336228755
 20
203.2431455549
  0
LWPOLYLINE
  5
28C
100
AcDbEntity
  8
0
100
AcDbPolyline
 62
7
  6
CONTINUOUS
 90
17
 70
0
 10
259.1031634776
 20
201.7166462107
 10
259.1181018512
 20
201.689078977
 10
259.1310708708
 20
201.6613276716
 10
259.1420707088
 20
201.6333923951
 10
259.1512029717
 20
201.6048766354
 10
259.1583664665
 20
201.5761771459
 10
259.163257024
 20
201.5484838423
 10
259.1657855839
 20
201.5220152689
 10
259.1660412874
 20
201.4965529289
 10
259.1639870258
 20
201.4726310351
 10
259.1595306724
 20
201.4501164284
 10
259.1527643077
 20
201.4291422413
 10
259.1439268813
 20
201.4106419767
 10
259.1329634885
 20
201.394804477
 10
259.1199286423
 20
201.3814406714
 10
259.1052251839
 20
201.3709170563
 10
259.0991162731
 20
201.3676441218
  0
LWPOLYLINE
  5
28D
100
AcDbEntity
  8
0
100
AcDbPolyline
 62
7
  6
CONTINUOUS
 90
16
 70
0
 10
258.5229316951
 20
202.0283038836
 10
258.508007364
 20
202.0558594589
 10
258.4950530971
 20
202.0835978916
 10
258.4840690662
 20
202.1115192818
 10
258.4749545058
 20
202.140019236
 10
258.4678105939
 20
202.1687023881
 10
258.4629402757
 20
202.1963822965
 10
258.4604321514
 20
202.2228418113
 10
258.4601977019
 20
202.2482981294
 10
258.4622739519
 20
202.272216188
 10
258.4667530754
 20
202.2947285439
 10
258.4735428522
 20
202.3157026131
 10
258.4824034635
 20
202.3342054749
 10
258.4933895523
 20
202.3500484497
 10
258.5064460846
 20
202.3634199893
 10
258.516070485
 20
202.3707595223
  0
LINE
  5
28E
100
AcDbEntity
  8
0
100
AcDbLine
 62
7
  6
CONTINUOUS
 10
259.1031634776
 20
201.7166462107
 11
259.1196788372
 21
201.6857045182
  0
LWPOLYLINE
  5
28F
100
AcDbEntity
  8
0
100
AcDbPolyline
 62
7
  6
CONTINUOUS
 90
15
 70
0
 10
258.5229316951
 20
202.0283038836
 10
258.5061709945
 20
202.0597207302
 10
258.4919814689
 20
202.0910380859
 10
258.480363324
 20
202.1222560705
 10
258.4712292253
 20
202.1537914265
 10
258.4646669987
 20
202.1852276978
 10
258.4609394146
 20
202.2153151039
 10
258.4601607893
 20
202.2439984577
 10
258.462216911
 20
202.271333007
 10
258.4670273594
 20
202.2962343915
 10
258.4747030942
 20
202.3186054081
 10
258.4851328564
 20
202.3385430851
 10
258.4979025276
 20
202.3552541939
 10
258.5131057096
 20
202.3686081021
 10
258.5161162469
 20
202.3706843111
  0
LWPOLYLINE
  5
290
100
AcDbEntity
  8
0
100
AcDbPolyline
 62
7
  6
CONTINUOUS
 90
21
 70
0
 10
258.1533310128
 20
205.9437287959
 10
258.2335228527
 20
205.792303655
 10
258.3077660457
 20
205.6375320167
 10
258.3757192625
 20
205.4802063243
 10
258.4363482547
 20
205.3226980133
 10
258.4895067729
 20
205.1651242142
 10
258.535348066
 20
205.0073718374
 10
258.5732846075
 20
204.8514655425
 10
258.6032292192
 20
204.697320306
 10
258.6252738974
 20
204.545023952
 10
258.6390967042
 20
204.3968585879
 10
258.644576258
 20
204.2530029659
 10
258.6418350603
 20
204.1132790125
 10
258.6309135656
 20
203.9794316196
 10
258.6116874773
 20
203.8514364001
 10
258.5842791851
 20
203.7293166724
 10
258.5490957995
 20
203.6148869378
 10
258.5060491901
 20
203.5083296386
 10
258.4552220566
 20
203.4094592184
 10
258.3972747075
 20
203.3195364128
 10
258.332081788
 20
203.2386361791
  0
LWPOLYLINE
  5
291
100
AcDbEntity
  8
0
100
AcDbPolyline
 62
7
  6
CONTINUOUS
 90
4
 70
0
 10
257.6187706159
 20
206.1590211443
 10
257.5965188792
 20
206.2065934516
 10
257.5763558442
 20
206.2551549159
 10
257.5587885699
 20
206.3035835053
  0
LWPOLYLINE
  5
292
100
AcDbEntity
  8
0
100
AcDbPolyline
 62
7
  6
CONTINUOUS
 90
13
 70
0
 10
259.1199409535
 20
201.6852134407
 10
259.1341477081
 20
201.6538804215
 10
259.1457839476
 20
201.6226472733
 10
259.1549377536
 20
201.5910971134
 10
259.1615215368
 20
201.559647112
 10
259.1652718212
 20
201.5295483659
 10
259.1660742503
 20
201.5008561669
 10
259.1640432855
 20
201.4735152848
 10
259.1592582787
 20
201.4486108009
 10
259.1516077769
 20
201.4262398345
 10
259.1412029333
 20
201.4063050916
 10
259.1284566396
 20
201.389599818
 10
259.1132744791
 20
201.3762544272
  0
LWPOLYLINE
  5
293
100
AcDbEntity
  8
0
100
AcDbPolyline
 62
7
  6
CONTINUOUS
 90
3
 70
0
 10
257.500513604
 20
207.580337717
 10
257.4929024485
 20
207.5981115691
 10
257.4838453448
 20
207.6154377651
  0
LWPOLYLINE
  5
294
100
AcDbEntity
  8
0
100
AcDbPolyline
 62
7
  6
CONTINUOUS
 90
8
 70
0
 10
257.8747319467
 20
207.6348568461
 10
257.8920291622
 20
207.5864431723
 10
257.9067989571
 20
207.5379428174
 10
257.9189367756
 20
207.4896553311
 10
257.9283146887
 20
207.4422342065
 10
257.9349071953
 20
207.396052597
 10
257.9387274374
 20
207.3512168535
 10
257.9397862024
 20
207.3079462584
  0
LINE
  5
295
100
AcDbEntity
  8
0
100
AcDbLine
 62
7
  6
CONTINUOUS
 10
257.5065597107
 20
207.5623707291
 11
257.5005681521
 21
207.5801131221
  0
LWPOLYLINE
  5
296
100
AcDbEntity
  8
0
100
AcDbPolyline
 62
7
  6
CONTINUOUS
 90
7
 70
0
 10
257.5588116023
 20
206.3035089683
 10
257.5439598032
 20
206.3515720207
 10
257.5316367488
 20
206.3995996404
 10
257.5220500655
 20
206.4467838279
 10
257.5152690121
 20
206.4928552783
 10
257.5112246766
 20
206.5380834941
 10
257.5099172572
 20
206.5824685882
  0
LWPOLYLINE
  5
297
100
AcDbEntity
  8
0
100
AcDbPolyline
 62
7
  6
CONTINUOUS
 90
11
 70
0
 10
256.0055669782
 20
208.6555408257
 10
255.9977053052
 20
208.6862094645
 10
255.9921633829
 20
208.717275139
 10
255.9895479918
 20
208.7472540063
 10
255.9897463142
 20
208.7761872201
 10
255.9927507264
 20
208.8029251747
 10
255.9986741671
 20
208.8273789488
 10
256.0074034912
 20
208.8496373462
 10
256.0185915599
 20
208.8688171268
 10
256.032337213
 20
208.8847940354
 10
256.0471238902
 20
208.8967548591
  0
LINE
  5
298
100
AcDbEntity
  8
0
100
AcDbLine
 62
7
  6
CONTINUOUS
 10
257.5109042249
 20
207.5446353116
 11
257.50654804
 21
207.562410793
  0
LWPOLYLINE
  5
299
100
AcDbEntity
  8
0
100
AcDbPolyline
 62
7
  6
CONTINUOUS
 90
8
 70
0
 10
257.9367077071
 20
206.3319471529
 10
257.939224874
 20
206.3187807652
 10
257.9427952883
 20
206.3052403075
 10
257.9473689768
 20
206.2914710441
 10
257.9527960394
 20
206.2779087783
 10
257.9590264691
 20
206.2646987549
 10
257.9661101795
 20
206.2516956757
 10
257.9740471312
 20
206.2388995182
  0
LWPOLYLINE
  5
29A
100
AcDbEntity
  8
0
100
AcDbPolyline
 62
7
  6
CONTINUOUS
 90
9
 70
0
 10
255.9981964754
 20
208.6837589727
 10
255.9930038862
 20
208.7116573527
 10
255.9899858161
 20
208.739129293
 10
255.9892637662
 20
208.7652450103
 10
255.9909290701
 20
208.7899540391
 10
255.9948903839
 20
208.8133068392
 10
256.0009949162
 20
208.8345248578
 10
256.0092870796
 20
208.8535056079
 10
256.0192351579
 20
208.8695651965
  0
LWPOLYLINE
  5
29B
100
AcDbEntity
  8
0
100
AcDbPolyline
 62
7
  6
CONTINUOUS
 90
3
 70
0
 10
257.0630066995
 20
202.2349498195
 10
257.0674443672
 20
202.2046080819
 10
257.0692138905
 20
202.1746956548
  0
LINE
  5
29C
100
AcDbEntity
  8
0
100
AcDbLine
 62
7
  6
CONTINUOUS
 10
257.0600414452
 20
201.6427671422
 11
257.0504308864
 21
201.6224347035
  0
LINE
  5
29D
100
AcDbEntity
  8
0
100
AcDbLine
 62
7
  6
CONTINUOUS
 10
256.6620201932
 20
202.5088437219
 11
256.6723976578
 21
202.5264273928
  0
LINE
  5
29E
100
AcDbEntity
  8
0
100
AcDbLine
 62
7
  6
CONTINUOUS
 10
257.0504308864
 20
201.6224347035
 11
257.0381324148
 21
201.6047677345
  0
LWPOLYLINE
  5
29F
100
AcDbEntity
  8
0
100
AcDbPolyline
 62
7
  6
CONTINUOUS
 90
20
 70
0
 10
257.9900944916
 20
203.7269663036
 10
258.0410824095
 20
203.793093877
 10
258.086328035
 20
203.8669794951
 10
258.1251624081
 20
203.9475396583
 10
258.1574975562
 20
204.0348955633
 10
258.1834254109
 20
204.1289282893
 10
258.2025448519
 20
204.2281929928
 10
258.2147501265
 20
204.3327442152
 10
258.2201487801
 20
204.4425284339
 10
258.2186573068
 20
204.5559373602
 10
258.2101641134
 20
204.673070721
 10
258.1947802603
 20
204.7938284654
 10
258.1727537862
 20
204.9163012345
 10
258.1439981011
 20
205.0404464772
 10
258.1085967879
 20
205.1663049986
 10
258.0670509426
 20
205.2920912074
 10
258.0192304857
 20
205.4178885021
 10
257.9652608808
 20
205.5436108195
 10
257.9060247571
 20
205.6672173545
 10
257.8418140336
 20
205.7880265212
  0
LINE
  5
2A0
100
AcDbEntity
  8
0
100
AcDbLine
 62
7
  6
CONTINUOUS
 10
256.6723976578
 20
202.5264273928
 11
256.6846498357
 21
202.5412035418
  0
LINE
  5
2A1
100
AcDbEntity
  8
0
100
AcDbLine
 62
7
  6
CONTINUOUS
 10
258.336228755
 20
203.2431455549
 11
258.2597612346
 21
203.1666792809
  0
LINE
  5
2A2
100
AcDbEntity
  8
0
100
AcDbLine
 62
7
  6
CONTINUOUS
 10
257.0381324148
 20
201.6047677345
 11
257.0236344163
 21
201.5904718873
  0
LINE
  5
2A3
100
AcDbEntity
  8
0
100
AcDbLine
 62
7
  6
CONTINUOUS
 10
256.6846498357
 20
202.5412035418
 11
256.6999179577
 21
202.5536316353
  0
LINE
  5
2A4
100
AcDbEntity
  8
0
100
AcDbLine
 62
7
  6
CONTINUOUS
 10
258.2612731973
 20
203.1680281558
 11
258.1788581368
 21
203.1030880694
  0
LWPOLYLINE
  5
2A5
100
AcDbEntity
  8
0
100
AcDbPolyline
 62
7
  6
CONTINUOUS
 90
3
 70
0
 10
257.8552451247
 20
203.6075137386
 10
257.8707057842
 20
203.6181914816
 10
257.9332739276
 20
203.6687013965
  0
LWPOLYLINE
  5
2A6
100
AcDbEntity
  8
0
100
AcDbPolyline
 62
7
  6
CONTINUOUS
 90
23
 70
0
 10
257.8552186448
 20
203.607557357
 10
257.8670807646
 20
203.6156555932
 10
257.932561513
 20
203.6679534645
 10
257.9919508489
 20
203.7292490974
 10
258.0453520565
 20
203.7993976234
 10
258.091886373
 20
203.8772408235
 10
258.1314418393
 20
203.9629076399
 10
258.1641354808
 20
204.0562720474
 10
258.1894297459
 20
204.155792064
 10
258.2072026718
 20
204.261570211
 10
258.2175789513
 20
204.373505526
 10
258.2203882691
 20
204.4897492122
 10
258.2155044362
 20
204.6103725865
 10
258.203053499
 20
204.7353042302
 10
258.1832405878
 20
204.8624795665
 10
258.155941543
 20
204.9919344511
 10
258.1212775363
 20
205.12363129
 10
258.0798189809
 20
205.2553937697
 10
258.0314497208
 20
205.3872216992
 10
257.9762806681
 20
205.5191122411
 10
257.9152206356
 20
205.6488838486
 10
257.848569964
 20
205.7758078457
 10
257.7723309332
 20
205.9067165356
  0
LWPOLYLINE
  5
2A7
100
AcDbEntity
  8
0
100
AcDbPolyline
 62
250
  6
CONTINUOUS
 90
22
 70
0
 10
273.5310379943
 20
214.8784619626
 10
273.4550574837
 20
214.8279657411
 10
273.3803524351
 20
214.7721745224
 10
273.3072698429
 20
214.7115021095
 10
273.2363345136
 20
214.6465709929
 10
273.1676372869
 20
214.5776421889
 10
273.1008869483
 20
214.5044847861
 10
273.0361914885
 20
214.4271830959
 10
272.9740784485
 20
214.3463324301
 10
272.9149103228
 20
214.2623923456
 10
272.8591216663
 20
214.1760290534
 10
272.8067869543
 20
214.087409609
 10
272.7577810882
 20
213.9962223284
 10
272.7123166261
 20
213.9026444617
 10
272.6708249142
 20
213.8073219207
 10
272.6335897361
 20
213.7106344203
 10
272.6008665396
 20
213.6129290109
 10
272.5729894233
 20
213.5148424424
 10
272.550296073
 20
213.4172159605
 10
272.5329942457
 20
213.3206814009
 10
272.5212166418
 20
213.2256658392
 10
272.5150996011
 20
213.1327057218
  0
LWPOLYLINE
  5
2A8
100
AcDbEntity
  8
0
100
AcDbPolyline
 62
250
  6
CONTINUOUS
 90
22
 70
0
 10
273.8968707343
 20
214.2738011242
 10
273.8455633546
 20
214.2398355168
 10
273.7955511436
 20
214.2028984335
 10
273.7468341014
 20
214.1629898742
 10
273.699337184
 20
214.1199870786
 10
273.6531354354
 20
214.0740128071
 10
273.6084539869
 20
214.0254353408
 10
273.5651582766
 20
213.9741065787
 10
273.5233828663
 20
213.9201746218
 10
273.4837565735
 20
213.8644520543
 10
273.446387414
 20
213.8070950244
 10
273.4111673719
 20
213.7479473839
 10
273.3784012176
 20
213.6873532718
 10
273.3479928807
 20
213.6251419417
 10
273.3200384315
 20
213.56148414
 10
273.2951308516
 20
213.4972362448
 10
273.2732890054
 20
213.4322710074
 10
273.2544940284
 20
213.3667156765
 10
273.2392823081
 20
213.3018083762
 10
273.2278326404
 20
213.2379618148
 10
273.2199662293
 20
213.174763284
 10
273.215683075
 20
213.1122127839
  0
LINE
  5
2A9
100
AcDbEntity
  8
0
100
AcDbLine
 62
250
  6
CONTINUOUS
 10
274.5071717192
 20
215.4807870284
 11
273.5310379943
 21
214.8784619626
  0
LINE
  5
2AA
100
AcDbEntity
  8
0
100
AcDbLine
 62
250
  6
CONTINUOUS
 10
274.8604559852
 20
214.8683831316
 11
273.8968707343
 21
214.2738011242
  0
LINE
  5
2AB
100
AcDbEntity
  8
0
100
AcDbLine
 62
7
  6
CONTINUOUS
 10
257.7956054824
 20
203.5722069127
 11
257.8552186448
 21
203.607557357
  0
LINE
  5
2AC
100
AcDbEntity
  8
0
100
AcDbLine
 62
7
  6
CONTINUOUS
 10
256.6998940126
 20
202.5536709879
 11
256.7097559368
 21
202.5593997577
  0
LINE
  5
2AD
100
AcDbEntity
  8
0
100
AcDbLine
 62
250
  6
CONTINUOUS
 10
274.8593136
 20
214.8925361053
 11
274.9611949785
 21
214.9513676426
  0
LWPOLYLINE
  5
2AE
100
AcDbEntity
  8
0
100
AcDbPolyline
 62
7
  6
CONTINUOUS
 90
9
 70
0
 10
259.2671381379
 20
204.0350040065
 10
259.2821706078
 20
204.0432849258
 10
259.2994015267
 20
204.049256249
 10
259.3179552406
 20
204.052180345
 10
259.337798879
 20
204.052185854
 10
259.3582642747
 20
204.0493352367
 10
259.3791286145
 20
204.0436492613
 10
259.4006144651
 20
204.0351070176
 10
259.4227217652
 20
204.0237084704
  0
LWPOLYLINE
  5
2AF
100
AcDbEntity
  8
0
100
AcDbPolyline
 62
7
  6
CONTINUOUS
 90
13
 70
0
 10
256.6999179577
 20
202.5536316353
 10
256.7149510703
 20
202.5618421302
 10
256.7322126265
 20
202.5678017908
 10
256.7505591131
 20
202.5707230363
 10
256.7700789822
 20
202.5706882925
 10
256.7903378198
 20
202.5677972815
 10
256.8114310719
 20
202.5619960359
 10
256.8332630547
 20
202.5533383841
 10
256.8551127012
 20
202.5420857675
 10
256.876981679
 20
202.5281352247
 10
256.8988683198
 20
202.5115897167
 10
256.9200466094
 20
202.4930196012
 10
256.940417581
 20
202.4724872851
  0
LINE
  5
2B0
100
AcDbEntity
  8
0
100
AcDbLine
 62
7
  6
CONTINUOUS
 10
254.9048466609
 20
203.7957245949
 11
254.8991327341
 21
203.792641795
  0
LINE
  5
2B1
100
AcDbEntity
  8
0
100
AcDbLine
 62
7
  6
CONTINUOUS
 10
259.2671387686
 20
204.0350033642
 11
259.2863428777
 21
204.0451144575
  0
LINE
  5
2B2
100
AcDbEntity
  8
0
100
AcDbLine
 62
7
  6
CONTINUOUS
 10
254.9048466609
 20
203.7957245949
 11
254.899080257
 21
203.7927370882
  0
LINE
  5
2B3
100
AcDbEntity
  8
0
100
AcDbLine
 62
7
  6
CONTINUOUS
 10
254.89912132
 20
203.7926623493
 11
254.9049406795
 21
203.7955340724
  0
LWPOLYLINE
  5
2B4
100
AcDbEntity
  8
0
100
AcDbPolyline
 62
7
  6
CONTINUOUS
 90
3
 70
0
 10
254.8991327341
 20
203.792641795
 10
254.8882759853
 20
203.7880023958
 10
254.8704147897
 20
203.7833534369
  0
LWPOLYLINE
  5
2B5
100
AcDbEntity
  8
0
100
AcDbPolyline
 62
7
  6
CONTINUOUS
 90
3
 70
0
 10
254.899080257
 20
203.7927370882
 10
254.8860151915
 20
203.7874444346
 10
254.8659622751
 20
203.7828301454
  0
LINE
  5
2B6
100
AcDbEntity
  8
0
100
AcDbLine
 62
7
  6
CONTINUOUS
 10
253.7426128397
 20
207.2459822311
 11
253.7623550574
 21
207.2514807918
  0
LWPOLYLINE
  5
2B7
100
AcDbEntity
  8
0
100
AcDbPolyline
 62
7
  6
CONTINUOUS
 90
3
 70
0
 10
255.470342729
 20
207.3732722921
 10
255.4897754079
 20
207.3757306109
 10
255.5107382457
 20
207.3751844837
  0
LINE
  5
2B8
100
AcDbEntity
  8
0
100
AcDbLine
 62
7
  6
CONTINUOUS
 10
253.7623550574
 20
207.2514807918
 11
253.7839222342
 21
207.2534081904
  0
LINE
  5
2B9
100
AcDbEntity
  8
0
100
AcDbLine
 62
7
  6
CONTINUOUS
 10
253.7839222342
 20
207.2534081904
 11
253.8064567126
 21
207.2516895266
  0
LWPOLYLINE
  5
2BA
100
AcDbEntity
  8
0
100
AcDbPolyline
 62
7
  6
CONTINUOUS
 90
6
 70
0
 10
255.5107382457
 20
207.3751844837
 10
255.5322661198
 20
207.3715868246
 10
255.5543071075
 20
207.3647570167
 10
255.5769128715
 20
207.3548755279
 10
255.5992736947
 20
207.3424369161
 10
255.6212495246
 20
207.3275096866
  0
LINE
  5
2BB
100
AcDbEntity
  8
0
100
AcDbLine
 62
7
  6
CONTINUOUS
 10
256.130844087
 20
208.9128714279
 11
256.154171178
 21
208.9074958858
  0
LWPOLYLINE
  5
2BC
100
AcDbEntity
  8
0
100
AcDbPolyline
 62
7
  6
CONTINUOUS
 90
6
 70
0
 10
255.5210210581
 20
207.3738419486
 10
255.5446480265
 20
207.368126587
 10
255.5689136918
 20
207.3586943105
 10
255.5937942153
 20
207.3456893599
 10
255.6183024321
 20
207.3296277628
 10
255.6424233635
 20
207.3103869545
  0
LINE
  5
2BD
100
AcDbEntity
  8
0
100
AcDbLine
 62
7
  6
CONTINUOUS
 10
256.154171178
 20
208.9074958858
 11
256.1784472302
 21
208.8984538286
  0
LINE
  5
2BE
100
AcDbEntity
  8
0
100
AcDbLine
 62
7
  6
CONTINUOUS
 10
256.1784472302
 20
208.8984538286
 11
256.2036721463
 21
208.8857452012
  0
LINE
  5
2BF
100
AcDbEntity
  8
0
100
AcDbLine
 62
7
  6
CONTINUOUS
 10
257.4091345812
 20
207.6946306091
 11
256.2003280176
 21
208.3925803691
  0
LINE
  5
2C0
100
AcDbEntity
  8
0
100
AcDbLine
 62
7
  6
CONTINUOUS
 10
257.4495556828
 20
208.1663876618
 11
256.2036721463
 21
208.8857452012
  0
LWPOLYLINE
  5
2C1
100
AcDbEntity
  8
0
100
AcDbPolyline
 62
7
  6
CONTINUOUS
 90
7
 70
0
 10
257.4495556828
 20
208.1663876618
 10
257.4861328731
 20
208.1437164446
 10
257.522626725
 20
208.1178973085
 10
257.5588441465
 20
208.0890377474
 10
257.5946855009
 20
208.0571832405
 10
257.6298492809
 20
208.0225497419
 10
257.6638520497
 20
207.9855852372
  0
LWPOLYLINE
  5
2C2
100
AcDbEntity
  8
0
100
AcDbPolyline
 62
7
  6
CONTINUOUS
 90
7
 70
0
 10
257.4495556828
 20
208.1663876618
 10
257.4926962337
 20
208.1393121333
 10
257.5354316339
 20
208.1080758733
 10
257.5774531092
 20
208.0729267617
 10
257.6184624956
 20
208.0341465361
 10
257.658153282
 20
207.9920318105
 10
257.6962125858
 20
207.9468910154
  0
LWPOLYLINE
  5
2C3
100
AcDbEntity
  8
0
100
AcDbPolyline
 62
7
  6
CONTINUOUS
 90
12
 70
0
 10
256.2003280176
 20
208.3925803691
 10
256.1778603617
 20
208.4068656979
 10
256.1559295196
 20
208.4235817163
 10
256.1345355609
 20
208.4427284639
 10
256.1133362639
 20
208.4646847173
 10
256.0926741405
 20
208.489071865
 10
256.0735763891
 20
208.5147538803
 10
256.0562266648
 20
208.5417230246
 10
256.0404417547
 20
208.569987288
 10
256.0266984584
 20
208.5984341825
 10
256.0151117355
 20
208.6268960886
 10
256.0055669782
 20
208.6555408257
  0
LWPOLYLINE
  5
2C4
100
AcDbEntity
  8
0
100
AcDbPolyline
 62
7
  6
CONTINUOUS
 90
11
 70
0
 10
256.2003280176
 20
208.3925803691
 10
256.1751242835
 20
208.4089862988
 10
256.1509111904
 20
208.4279372177
 10
256.1276888353
 20
208.4494331809
 10
256.1051712319
 20
208.4738316216
 10
256.0836447555
 20
208.5007753278
 10
256.0639680847
 20
208.5291924097
 10
256.0462173521
 20
208.5591414213
 10
256.0303170188
 20
208.5905641461
 10
256.0168981426
 20
208.6222134738
 10
256.0060607344
 20
208.6540980195
  0
LINE
  5
2C5
100
AcDbEntity
  8
0
100
AcDbLine
 62
7
  6
CONTINUOUS
 10
257.4229624899
 20
207.6855771096
 11
257.4091345812
 21
207.6946306091
  0
LINE
  5
2C6
100
AcDbEntity
  8
0
100
AcDbLine
 62
7
  6
CONTINUOUS
 10
257.4367315913
 20
207.6744151307
 11
257.4233184253
 21
207.6852619729
  0
LWPOLYLINE
  5
2C7
100
AcDbEntity
  8
0
100
AcDbPolyline
 62
7
  6
CONTINUOUS
 90
12
 70
0
 10
257.6964518535
 20
207.9465850918
 10
257.7323507342
 20
207.8990681397
 10
257.7663068379
 20
207.8489312255
 10
257.7978282475
 20
207.7968511356
 10
257.8266684027
 20
207.7432170655
 10
257.8526118066
 20
207.6884378059
 10
257.8754768911
 20
207.6329279833
 10
257.8950750594
 20
207.5770977572
 10
257.9112513303
 20
207.5213705504
 10
257.9239065598
 20
207.4661828378
 10
257.932940771
 20
207.4119526398
 10
257.9382542694
 20
207.3590763574
  0
LWPOLYLINE
  5
2C8
100
AcDbEntity
  8
0
100
AcDbPolyline
 62
7
  6
CONTINUOUS
 90
4
 70
0
 10
257.4735011835
 20
207.6320256067
 10
257.4620426315
 20
207.6475887147
 10
257.4496548149
 20
207.6618584139
 10
257.4365496187
 20
207.6745919425
  0
LWPOLYLINE
  5
2C9
100
AcDbEntity
  8
0
100
AcDbPolyline
 62
7
  6
CONTINUOUS
 90
6
 70
0
 10
257.7275470376
 20
207.9057320388
 10
257.7569048294
 20
207.8633857552
 10
257.7842367212
 20
207.8200598133
 10
257.8095919678
 20
207.7757693941
 10
257.8332007715
 20
207.7300961909
 10
257.8550311084
 20
207.6829351542
  0
LWPOLYLINE
  5
2CA
100
AcDbEntity
  8
0
100
AcDbPolyline
 62
7
  6
CONTINUOUS
 90
14
 70
0
 10
260.0012637186
 20
203.5688856213
 10
260.0117717874
 20
203.539400381
 10
260.0200162846
 20
203.5104887637
 10
260.025841587
 20
203.4823407214
 10
260.0294035359
 20
203.4547664281
 10
260.0306568674
 20
203.4285329648
 10
260.0295726407
 20
203.4036744327
 10
260.0261797927
 20
203.3801567286
 10
260.0205196454
 20
203.358644494
 10
260.0124406532
 20
203.3391034286
 10
260.0020941579
 20
203.3215677152
 10
259.9899755493
 20
203.3068045678
 10
259.9761417701
 20
203.2950242282
 10
259.9627431634
 20
203.2870699698
  0
LWPOLYLINE
  5
2CB
100
AcDbEntity
  8
0
100
AcDbPolyline
 62
7
  6
CONTINUOUS
 90
11
 70
0
 10
259.2273408893
 20
203.7953027515
 10
259.2193131534
 20
203.8258700347
 10
259.2136115965
 20
203.8567497932
 10
259.2108247468
 20
203.8865434779
 10
259.2108402589
 20
203.9152922427
 10
259.2136577592
 20
203.9418539067
 10
259.219389995
 20
203.9661399003
 10
259.2279240137
 20
203.9882386744
 10
259.238920504
 20
204.0072733554
 10
259.2524784472
 20
204.0231203132
 10
259.2671387686
 20
204.0350033642
  0
LWPOLYLINE
  5
2CC
100
AcDbEntity
  8
0
100
AcDbPolyline
 62
7
  6
CONTINUOUS
 90
9
 70
0
 10
259.2198332808
 20
203.8233618613
 10
259.2144925764
 20
203.8511015906
 10
259.2113152093
 20
203.8784158876
 10
259.2104289357
 20
203.9043772186
 10
259.2119254162
 20
203.9289343333
 10
259.2157129802
 20
203.9521384761
 10
259.2216441115
 20
203.9732156968
 10
259.2297635679
 20
203.9920636391
 10
259.2395514696
 20
204.0080108481
  0
LINE
  5
2CD
100
AcDbEntity
  8
0
100
AcDbLine
 62
7
  6
CONTINUOUS
 10
257.0236344163
 20
201.5904718873
 11
257.0054540592
 21
201.578989377
  0
LWPOLYLINE
  5
2CE
100
AcDbEntity
  8
0
100
AcDbPolyline
 62
7
  6
CONTINUOUS
 90
17
 70
0
 10
258.516070485
 20
202.3707595223
 10
258.5211684919
 20
202.3739527332
 10
258.537580322
 20
202.381594992
 10
258.5556575883
 20
202.3863981997
 10
258.5749243271
 20
202.3881496264
 10
258.5955564108
 20
202.3866965368
 10
258.6173776101
 20
202.3821914585
 10
258.6393837981
 20
202.3748795496
 10
258.6614082042
 20
202.3647187717
 10
258.6836174589
 20
202.3517510816
 10
258.7055075894
 20
202.3363476611
 10
258.7271814204
 20
202.3183607758
 10
258.7485362672
 20
202.2979382417
 10
258.7687599415
 20
202.2758945941
 10
258.7875818167
 20
202.2525014049
 10
258.8052728479
 20
202.2274872934
 10
258.821833251
 20
202.2008523855
  0
LWPOLYLINE
  5
2CF
100
AcDbEntity
  8
0
100
AcDbPolyline
 62
7
  6
CONTINUOUS
 90
3
 70
0
 10
258.1813359906
 20
203.1046938259
 10
258.0967350471
 20
203.0528339938
 10
258.0717529967
 20
203.0400033943
  0
LINE
  5
2D0
100
AcDbEntity
  8
0
100
AcDbLine
 62
7
  6
CONTINUOUS
 10
258.1788581368
 20
203.1030880694
 11
258.0902164998
 21
203.0492966584
  0
LINE
  5
2D1
100
AcDbEntity
  8
0
100
AcDbLine
 62
7
  6
CONTINUOUS
 10
259.1132744791
 20
201.3762544272
 11
259.0990756354
 21
201.3677173538
  0
LINE
  5
2D2
100
AcDbEntity
  8
0
100
AcDbLine
 62
7
  6
CONTINUOUS
 10
259.9726400572
 20
203.29281934
 11
259.9627113275
 21
203.2871279375
  0
LWPOLYLINE
  5
2D3
100
AcDbEntity
  8
0
100
AcDbPolyline
 62
7
  6
CONTINUOUS
 90
14
 70
0
 10
258.5161162469
 20
202.3706843111
 10
258.5306482362
 20
202.3787351132
 10
258.5498340967
 20
202.3852332615
 10
258.5707298085
 20
202.3879561568
 10
258.5932682901
 20
202.3870498608
 10
258.6165530611
 20
202.3825510444
 10
258.6406131266
 20
202.3743149592
 10
258.6654191814
 20
202.3624861789
 10
258.6899873372
 20
202.3475353907
 10
258.7143083597
 20
202.3293365706
 10
258.7383915875
 20
202.3080158033
 10
258.7612810779
 20
202.2844219906
 10
258.7826583263
 20
202.2588381828
 10
258.8028422814
 20
202.230981588
  0
LINE
  5
2D4
100
AcDbEntity
  8
0
100
AcDbLine
 62
7
  6
CONTINUOUS
 10
259.9627431634
 20
203.2870699698
 11
259.9605353942
 21
203.2860161758
  0
LWPOLYLINE
  5
2D5
100
AcDbEntity
  8
0
100
AcDbPolyline
 62
7
  6
CONTINUOUS
 90
13
 70
0
 10
257.0054400134
 20
201.5790144701
 10
257.0016536918
 20
201.5772395896
 10
256.9844032929
 20
201.5712802789
 10
256.9660625485
 20
201.5683629114
 10
256.9465425339
 20
201.5684046872
 10
256.9262779174
 20
201.5713050447
 10
256.9051728104
 20
201.5771178119
 10
256.883322863
 20
201.5857890208
 10
256.8614500934
 20
201.5970564418
 10
256.8395525908
 20
201.6110230747
 10
256.8176322653
 20
201.6275859191
 10
256.7964169236
 20
201.6461737782
 10
256.7760058548
 20
201.666724289
  0
LWPOLYLINE
  5
2D6
100
AcDbEntity
  8
0
100
AcDbPolyline
 62
7
  6
CONTINUOUS
 90
8
 70
0
 10
259.9627113275
 20
203.2871279375
 10
259.9548115969
 20
203.2836147492
 10
259.9350832882
 20
203.2781243313
 10
259.9135288297
 20
203.2762044169
 10
259.8910050076
 20
203.2779293019
 10
259.8677972693
 20
203.2833236663
 10
259.843619781
 20
203.2923626072
 10
259.8184724461
 20
203.3050460686
  0
LWPOLYLINE
  5
2D7
100
AcDbEntity
  8
0
100
AcDbPolyline
 62
7
  6
CONTINUOUS
 90
20
 70
0
 10
258.0717529967
 20
203.0400033943
 10
258.0060208208
 20
203.0109406293
 10
257.9104148474
 20
202.9795709358
 10
257.8098313812
 20
202.9588618204
 10
257.7043479978
 20
202.9486716324
 10
257.595430568
 20
202.94913936
 10
257.4830258864
 20
202.9604179769
 10
257.3671806767
 20
202.9823507391
 10
257.2495108003
 20
203.0146121119
 10
257.1300244529
 20
203.0573230588
 10
257.0087097338
 20
203.1103604588
 10
256.8871529874
 20
203.1730330159
 10
256.7652899478
 20
203.2455106314
 10
256.6431845502
 20
203.3276232113
 10
256.5226162713
 20
203.418169951
 10
256.4036756664
 20
203.5172137613
 10
256.2862752634
 20
203.6246935271
 10
256.1719281913
 20
203.7392228085
 10
256.0606167254
 20
203.8609649416
 10
255.9523646155
 20
203.989760096
  0
LWPOLYLINE
  5
2D8
100
AcDbEntity
  8
0
100
AcDbPolyline
 62
7
  6
CONTINUOUS
 90
19
 70
0
 10
258.0717927874
 20
203.0399311979
 10
257.9952490057
 20
203.0068190587
 10
257.8940451408
 20
202.9754844567
 10
257.7881195386
 20
202.9557594486
 10
257.6773962475
 20
202.9478162838
 10
257.5619424926
 20
202.9514776417
 10
257.4434872745
 20
202.9666855293
 10
257.3219820704
 20
202.9936118881
 10
257.1974693051
 20
203.0320812273
 10
257.0718148387
 20
203.0815146591
 10
256.9449999292
 20
203.1420764188
 10
256.8170409396
 20
203.2136008852
 10
256.6898573024
 20
203.2950149177
 10
256.5634612305
 20
203.3864678022
 10
256.437842276
 20
203.4878112809
 10
256.3148868296
 20
203.5975264505
 10
256.1946372942
 20
203.7157410712
 10
256.0770568605
 20
203.8423306389
 10
255.9639136347
 20
203.9753981639
  0
LWPOLYLINE
  5
2D9
100
AcDbEntity
  8
0
100
AcDbPolyline
 62
7
  6
CONTINUOUS
 90
3
 70
0
 10
256.7097559368
 20
202.5593997577
 10
256.728757376
 20
202.5668157344
 10
256.7491980374
 20
202.5705711641
  0
LWPOLYLINE
  5
2DA
100
AcDbEntity
  8
0
100
AcDbPolyline
 62
7
  6
CONTINUOUS
 90
3
 70
0
 10
257.0054540592
 20
201.578989377
 10
256.9878614575
 20
201.5722674189
 10
256.9674287695
 20
201.5685150415
  0
LWPOLYLINE
  5
2DB
100
AcDbEntity
  8
0
100
AcDbPolyline
 62
7
  6
CONTINUOUS
 90
8
 70
0
 10
259.9605353942
 20
203.2860161758
 10
259.9434800947
 20
203.2799163855
 10
259.9248201318
 20
203.2767557029
 10
259.9047108552
 20
203.2765030573
 10
259.8839425376
 20
203.2792015303
 10
259.8627785013
 20
203.2848654233
 10
259.8409551592
 20
203.293480282
 10
259.8184724461
 20
203.3050460686
  0
LINE
  5
2DC
100
AcDbEntity
  8
0
100
AcDbLine
 62
7
  6
CONTINUOUS
 10
256.0665584643
 20
208.9070000332
 11
256.0864619509
 21
208.9125728159
  0
LINE
  5
2DD
100
AcDbEntity
  8
0
100
AcDbLine
 62
7
  6
CONTINUOUS
 10
256.0864619509
 20
208.9125728159
 11
256.1081783443
 21
208.9145552692
  0
LINE
  5
2DE
100
AcDbEntity
  8
0
100
AcDbLine
 62
7
  6
CONTINUOUS
 10
256.1081783443
 20
208.9145552692
 11
256.130844087
 21
208.9128714279
  0
LWPOLYLINE
  5
2DF
100
AcDbEntity
  8
0
100
AcDbPolyline
 62
7
  6
CONTINUOUS
 90
15
 70
0
 10
259.0990756354
 20
201.3677173538
 10
259.0957503033
 20
201.3661381757
 10
259.0765791643
 20
201.3596524332
 10
259.0556936938
 20
201.3569433329
 10
259.0331606952
 20
201.3578644115
 10
259.0098764067
 20
201.3623781021
 10
258.9858112337
 20
201.3706289803
 10
258.9609944702
 20
201.3824722949
 10
258.9364107447
 20
201.3974365224
 10
258.9120691197
 20
201.4156477215
 10
258.8879606373
 20
201.4369798947
 10
258.8650429824
 20
201.4605834846
 10
258.8436355261
 20
201.4861753889
 10
258.8234193421
 20
201.5140389698
 10
258.8043947388
 20
201.5441744075
  0
LWPOLYLINE
  5
2E0
100
AcDbEntity
  8
0
100
AcDbPolyline
 62
7
  6
CONTINUOUS
 90
16
 70
0
 10
259.0991162731
 20
201.3676441218
 10
259.0888284191
 20
201.3632847121
 10
259.070762603
 20
201.3584923021
 10
259.0515039066
 20
201.3567526416
 10
259.0308761236
 20
201.358218668
 10
259.009055103
 20
201.3627372352
 10
258.9870450875
 20
201.3700620265
 10
258.9650129946
 20
201.3802343382
 10
258.9427917667
 20
201.393212792
 10
258.9208847376
 20
201.4086270899
 10
258.8991878016
 20
201.4266261835
 10
258.8778052048
 20
201.4470612033
 10
258.8575528578
 20
201.4691151474
 10
258.8387028339
 20
201.4925157421
 10
258.8209833888
 20
201.5175354534
 10
258.8043947388
 20
201.5441744075
  0
LWPOLYLINE
  5
2E1
100
AcDbEntity
  8
0
100
AcDbPolyline
 62
250
  6
CONTINUOUS
 90
22
 70
0
 10
273.215683075
 20
179.5685016629
 10
273.2198272664
 20
179.5125352414
 10
273.2272402391
 20
179.4598187766
 10
273.2379219933
 20
179.4103522688
 10
273.2519428641
 20
179.3640888137
 10
273.2692325164
 20
179.3210753155
 10
273.2895799443
 20
179.2814524862
 10
273.3130480341
 20
179.2451018647
 10
273.3395738997
 20
179.2121419121
 10
273.3687578767
 20
179.1830687239
 10
273.400516783
 20
179.1579594723
 10
273.4349338007
 20
179.1367369852
 10
273.471858812
 20
179.1196658411
 10
273.5113940014
 20
179.1066927544
 10
273.5534371844
 20
179.0978710106
 10
273.5975316892
 20
179.093625045
 10
273.6437990848
 20
179.0940425413
 10
273.6921178022
 20
179.0990358157
 10
273.7416664637
 20
179.1087662518
 10
273.7921712765
 20
179.1232876444
 10
273.8439060334
 20
179.1425461987
 10
273.8968707343
 20
179.1665419148
  0
LWPOLYLINE
  5
2E2
100
AcDbEntity
  8
0
100
AcDbPolyline
 62
250
  6
CONTINUOUS
 90
12
 70
0
 10
272.5150996011
 20
179.5554173124
 10
272.520945523
 20
179.4719233504
 10
272.5320616518
 20
179.3927858199
 10
272.5482672668
 20
179.3183033359
 10
272.5692943135
 20
179.2489306084
 10
272.5949609444
 20
179.1846698798
 10
272.625310986
 20
179.1252095641
 10
272.660330269
 20
179.0706679391
 10
272.6997696579
 20
179.0215120961
 10
272.7433987925
 20
178.97802602
 10
272.7908597891
 20
178.9405089807
 10
272.8279801303
 20
178.9168391412
  0
LWPOLYLINE
  5
2E3
100
AcDbEntity
  8
0
100
AcDbPolyline
 62
250
  6
CONTINUOUS
 90
6
 70
0
 10
274.9611973112
 20
179.9413795659
 10
274.9631668795
 20
179.9099283784
 10
274.961656067
 20
179.8805075348
 10
274.9567562656
 20
179.8532912317
 10
274.9485399985
 20
179.8283134327
 10
274.9420654157
 20
179.814491729
  0
LWPOLYLINE
  5
2E4
100
AcDbEntity
  8
0
100
AcDbPolyline
 62
250
  6
CONTINUOUS
 90
6
 70
0
 10
272.9377105954
 20
191.2609369785
 10
272.9656495363
 20
189.081544934
 10
273.0070862446
 20
186.8264345562
 10
273.063120754
 20
184.4828419251
 10
273.1326530308
 20
182.0635309606
 10
273.215683075
 20
179.5685016629
  0
LWPOLYLINE
  5
2E5
100
AcDbEntity
  8
0
100
AcDbPolyline
 62
250
  6
CONTINUOUS
 90
11
 70
0
 10
273.215683075
 20
213.1122127839
 10
273.136782171
 20
210.6740175977
 10
273.0700381831
 20
208.3131217127
 10
273.0154511115
 20
206.0295251288
 10
272.9738822377
 20
203.8435363091
 10
272.94447028
 20
201.7348467905
 10
272.924631394
 20
199.6425311842
 10
272.9132960997
 20
197.5642145223
 10
272.9115338771
 20
195.5022717726
 10
272.9199693208
 20
193.4029024497
 10
272.9377105954
 20
191.2609369785
  0
LWPOLYLINE
  5
2E6
100
AcDbEntity
  8
0
100
AcDbPolyline
 62
250
  6
CONTINUOUS
 90
16
 70
0
 10
272.5150996011
 20
213.1327057218
 10
272.4344272477
 20
210.6912593171
 10
272.3679668077
 20
208.3281628086
 10
272.3146706438
 20
206.0429263039
 10
272.2738599288
 20
203.8551617807
 10
272.2440343328
 20
201.7441899057
 10
272.2237615752
 20
199.6495380715
 10
272.2128707964
 20
197.5693874773
 10
272.2112547353
 20
195.5055068885
 10
272.2190949154
 20
193.4036634161
 10
272.2370040223
 20
191.2596387504
 10
272.2655830421
 20
189.078477685
 10
272.3062975472
 20
186.8206133354
 10
272.3607163178
 20
184.4735575907
 10
272.4298810667
 20
182.0515279142
 10
272.5150996011
 20
179.5554173124
  0
LINE
  5
2E7
100
AcDbEntity
  8
0
100
AcDbLine
 62
250
  6
CONTINUOUS
 10
241.7803509468
 20
230.8785643979
 11
272.5150996011
 21
213.1327057218
  0
LWPOLYLINE
  5
2E8
100
AcDbEntity
  8
0
100
AcDbPolyline
 62
250
  6
CONTINUOUS
 90
16
 70
0
 10
273.8968707343
 20
214.2738011242
 10
273.8930041439
 20
214.3164296348
 10
273.8853789502
 20
214.3608643088
 10
273.8740785748
 20
214.4066188962
 10
273.8592266568
 20
214.4531927005
 10
273.8409857056
 20
214.5000760492
 10
273.8195553254
 20
214.5467558707
 10
273.79517002
 20
214.5927213283
 10
273.7680966343
 20
214.6374693917
 10
273.7386314445
 20
214.6805103352
 10
273.7070968928
 20
214.7213731317
 10
273.6738380731
 20
214.7596105836
 10
273.6392189693
 20
214.7948042048
 10
273.6036184432
 20
214.8265688353
 10
273.5674260861
 20
214.854556851
 10
273.5310379738
 20
214.8784619499
  0
LWPOLYLINE
  5
2E9
100
AcDbEntity
  8
0
100
AcDbPolyline
 62
7
  6
CONTINUOUS
 90
15
 70
0
 10
274.9893026398
 20
215.0245491141
 10
274.9879448137
 20
215.0615067908
 10
274.9831974024
 20
215.1033795985
 10
274.9749059274
 20
215.1459971915
 10
274.9631832898
 20
215.188362703
 10
274.9479637936
 20
215.2305162881
 10
274.9292241652
 20
215.272216875
 10
274.9074840194
 20
215.3122009929
 10
274.8828844463
 20
215.3503633744
 10
274.8554691836
 20
215.386565233
 10
274.8260728743
 20
215.419817004
 10
274.7949558873
 20
215.450028612
 10
274.7621425886
 20
215.4772718779
 10
274.7284067669
 20
215.5010844482
 10
274.7063896485
 20
215.51456812
  0
LINE
  5
2EA
100
AcDbEntity
  8
0
100
AcDbLine
 62
7
  6
CONTINUOUS
 10
274.8604559852
 20
179.646505075
 11
274.8604559852
 21
214.8683831316
  0
LINE
  5
2EB
100
AcDbEntity
  8
0
100
AcDbLine
 62
250
  6
CONTINUOUS
 10
274.9611949785
 20
214.9513676426
 11
274.9611949785
 21
179.9413751362
  0
LINE
  5
2EC
100
AcDbEntity
  8
0
100
AcDbLine
 62
7
  6
CONTINUOUS
 10
274.9893026424
 20
215.0245719889
 11
274.9893026424
 21
180.0145794825
  0
LWPOLYLINE
  5
2ED
100
AcDbEntity
  8
0
100
AcDbPolyline
 62
250
  6
CONTINUOUS
 90
5
 70
0
 10
274.9893026398
 20
215.0245492141
 10
274.9891757274
 20
215.0195340433
 10
274.9852361942
 20
214.9961487284
 10
274.9758517223
 20
214.9732863785
 10
274.9611949785
 20
214.9513676426
  0
LWPOLYLINE
  5
2EE
100
AcDbEntity
  8
0
100
AcDbPolyline
 62
250
  6
CONTINUOUS
 90
5
 70
0
 10
274.6289660647
 20
215.5268110014
 10
274.6708434353
 20
215.5049442191
 10
274.7102087284
 20
215.479530655
 10
274.7468092971
 20
215.4511668401
 10
274.7805632836
 20
215.4203833583
  0
LWPOLYLINE
  5
2EF
100
AcDbEntity
  8
0
100
AcDbPolyline
 62
250
  6
CONTINUOUS
 90
5
 70
0
 10
274.7063897489
 20
215.5145680621
 10
274.7019847415
 20
215.5169644824
 10
274.6797638835
 20
215.5252434032
 10
274.6552732605
 20
215.5285453493
 10
274.6289634663
 20
215.526809501
  0
LWPOLYLINE
  5
2F0
100
AcDbEntity
  8
0
100
AcDbPolyline
 62
250
  6
CONTINUOUS
 90
5
 70
0
 10
244.0991699799
 20
233.186793164
 10
244.0947365666
 20
233.1892059228
 10
244.0725158279
 20
233.1974845845
 10
244.0480254918
 20
233.200786359
 10
244.0217161607
 20
233.1990504964
  0
LINE
  5
2F1
100
AcDbEntity
  8
0
100
AcDbLine
 62
250
  6
CONTINUOUS
 10
242.7729169568
 20
232.6378155598
 11
273.5310379943
 21
214.8784619626
  0
LINE
  5
2F2
100
AcDbEntity
  8
0
100
AcDbLine
 62
7
  6
CONTINUOUS
 10
274.5071717192
 20
215.4807870284
 11
243.7155583377
 21
233.2594786853
  0
LINE
  5
2F3
100
AcDbEntity
  8
0
100
AcDbLine
 62
250
  6
CONTINUOUS
 10
244.0217161607
 20
233.1990504964
 11
274.6289634663
 21
215.526809501
  0
LINE
  5
2F4
100
AcDbEntity
  8
0
100
AcDbLine
 62
7
  6
CONTINUOUS
 10
244.0957221924
 20
233.1887652916
 11
274.7064172856
 21
215.5145521686
  0
LINE
  5
2F5
100
AcDbEntity
  8
0
100
AcDbLine
 62
250
  6
CONTINUOUS
 10
274.9893026424
 20
180.0145794825
 11
274.989175747
 21
180.0095419249
  0
LWPOLYLINE
  5
2F6
100
AcDbEntity
  8
0
100
AcDbPolyline
 62
250
  6
CONTINUOUS
 90
9
 70
0
 10
273.8968707343
 20
179.1665419148
 10
273.8930040698
 20
179.1239928952
 10
273.8853787283
 20
179.0841821307
 10
273.8740781577
 20
179.0475452897
 10
273.8592260253
 20
179.0144833069
 10
273.8409848655
 20
178.9853579954
 10
273.8195543008
 20
178.960488088
 10
273.7951688565
 20
178.9401457484
 10
273.7724961424
 20
178.9266717056
  0
LWPOLYLINE
  5
2F7
100
AcDbEntity
  8
0
100
AcDbPolyline
 62
7
  6
CONTINUOUS
 90
7
 70
0
 10
244.0957221924
 20
233.1887652916
 10
244.0609473164
 20
233.2066517622
 10
244.0254511809
 20
233.2213148988
 10
243.9894021493
 20
233.2326613899
 10
243.9530170584
 20
233.2406062742
 10
243.9165984003
 20
233.2451077473
 10
243.9021573116
 20
233.2459402999
  0
LWPOLYLINE
  5
2F8
100
AcDbEntity
  8
0
100
AcDbPolyline
 62
250
  6
CONTINUOUS
 90
10
 70
0
 10
274.7805632836
 20
215.4203833583
 10
274.8112734433
 20
215.3877757477
 10
274.8386699965
 20
215.3540545018
 10
274.8627740578
 20
215.3198522956
 10
274.8837857603
 20
215.2855472796
 10
274.9018151818
 20
215.2514325307
 10
274.9168982257
 20
215.218201083
 10
274.9294523146
 20
215.1858367466
 10
274.9399688932
 20
215.1534179187
 10
274.948424329
 20
215.1212224284
  0
LWPOLYLINE
  5
2F9
100
AcDbEntity
  8
0
100
AcDbPolyline
 62
250
  6
CONTINUOUS
 90
6
 70
0
 10
274.948424329
 20
215.1212224284
 10
274.9549336834
 20
215.0893135006
 10
274.9597122619
 20
215.0563415191
 10
274.9625462912
 20
215.0219690957
 10
274.963116178
 20
214.9868987323
 10
274.9611949785
 20
214.9513676426
  0
LWPOLYLINE
  5
2FA
100
AcDbEntity
  8
0
100
AcDbPolyline
 62
250
  6
CONTINUOUS
 90
4
 70
0
 10
274.989175747
 20
180.0095419249
 10
274.9852362778
 20
179.9861565123
 10
274.9758518069
 20
179.9632940297
 10
274.9611949785
 20
179.9413751362
  0
LWPOLYLINE
  5
2FB
100
AcDbEntity
  8
0
100
AcDbPolyline
 62
7
  6
CONTINUOUS
 90
7
 70
0
 10
274.9420092951
 20
179.8144120862
 10
274.9498711649
 20
179.8302008953
 10
274.9641024008
 20
179.864613
 10
274.9752244087
 20
179.9007002937
 10
274.9831359478
 20
179.938162566
 10
274.9878265552
 20
179.9767676141
 10
274.9893026406
 20
180.0145985657
  0
LINE
  5
2FC
100
AcDbEntity
  8
0
100
AcDbLine
 62
250
  6
CONTINUOUS
 10
274.9611949785
 20
179.9413751362
 11
274.8604559852
 21
179.7500746579
  0
LINE
  5
2FD
100
AcDbEntity
  8
0
100
AcDbLine
 62
7
  6
CONTINUOUS
 10
274.942048898
 20
179.8144603625
 11
274.8604559852
 21
179.6595177455
  0
LINE
  5
2FE
100
AcDbEntity
  8
0
100
AcDbLine
 62
250
  6
CONTINUOUS
 10
244.0217161607
 20
233.1990504964
 11
243.8056691729
 21
233.2074498184
  0
LINE
  5
2FF
100
AcDbEntity
  8
0
100
AcDbLine
 62
7
  6
CONTINUOUS
 10
243.9021949478
 20
233.2459391265
 11
243.7272268873
 21
233.252741411
  0
LWPOLYLINE
  5
300
100
AcDbEntity
  8
0
100
AcDbPolyline
 62
250
  6
CONTINUOUS
 90
7
 70
0
 10
243.9021831034
 20
233.2459395869
 10
243.9105579058
 20
233.2453966164
 10
243.9309663033
 20
233.2422926345
 10
243.9523512539
 20
233.2364118403
 10
243.9748554897
 20
233.2273710438
 10
243.9980370819
 20
233.2149899676
 10
244.0217161607
 20
233.1990504964
  0
LWPOLYLINE
  5
301
100
AcDbEntity
  8
0
100
AcDbPolyline
 62
250
  6
CONTINUOUS
 90
16
 70
0
 10
273.2156830744
 20
179.5685016786
 10
273.176674453
 20
179.5471656378
 10
273.1343623209
 20
179.5282831762
 10
273.0892000036
 20
179.5120566217
 10
273.0416713655
 20
179.498659848
 10
272.9922856364
 20
179.4882364116
 10
272.9415719565
 20
179.4808980115
 10
272.8900736867
 20
179.4767232908
 10
272.838342605
 20
179.4757569984
 10
272.786933006
 20
179.478009504
 10
272.7363957216
 20
179.4834566879
 10
272.6872722461
 20
179.4920401988
 10
272.6400889508
 20
179.5036680718
 10
272.5953514021
 20
179.5182157229
 10
272.5535389471
 20
179.5355272893
 10
272.5150996019
 20
179.5554172903
  0
LINE
  5
302
100
AcDbEntity
  8
0
100
AcDbLine
 62
250
  6
CONTINUOUS
 10
273.8968707343
 20
179.1665419148
 11
274.8604559852
 21
179.646505075
  0
LINE
  5
303
100
AcDbEntity
  8
0
100
AcDbLine
 62
7
  6
CONTINUOUS
 10
273.7724683043
 20
178.9266578364
 11
274.7478275497
 21
179.4124856398
  0
ELLIPSE
  5
304
100
AcDbEntity
  8
0
100
AcDbEllipse
 62
7
  6
CONTINUOUS
 10
637.5343732492
 20
393.5157055772
 30
0.0
 11
-375.2164586278
 21
600.2645550077
 31
0.0
 40
0.597790483
 41
1.5163703691
 42
1.5171622004
  0
ELLIPSE
  5
305
100
AcDbEntity
  8
0
100
AcDbEllipse
 62
7
  6
CONTINUOUS
 10
629.4524891918
 20
398.1820841422
 30
0.0
 11
271.0122686045
 21
420.6274767681
 31
0.0
 40
0.6071824892
 41
-3.8905969679
 42
-3.889476938
  0
ELLIPSE
  5
306
100
AcDbEntity
  8
0
100
AcDbEllipse
 62
7
  6
CONTINUOUS
 10
637.1525355873
 20
393.7361738576
 30
0.0
 11
519.1073299804
 21
277.5238873003
 31
0.0
 40
0.0313485592
 41
8.6639471284
 42
8.6647392617
  0
ELLIPSE
  5
307
100
AcDbEntity
  8
0
100
AcDbEllipse
 62
7
  6
CONTINUOUS
 10
583.2696545947
 20
424.8474740316
 30
0.0
 11
481.423461474
 21
299.2969656673
 31
0.0
 40
0.0338883326
 41
-2.3431026458
 42
-2.3423108145
  0
ELLIPSE
  5
308
100
AcDbEntity
  8
0
100
AcDbEllipse
 62
7
  6
CONTINUOUS
 10
630.3222305327
 20
397.6799063924
 30
0.0
 11
271.0122686045
 21
420.6274767681
 31
0.0
 40
0.6071824892
 41
-3.90440039
 42
-3.902078882
  0
ELLIPSE
  5
309
100
AcDbEntity
  8
0
100
AcDbEllipse
 62
7
  6
CONTINUOUS
 10
274.5068487385
 20
215.0721781351
 30
0.0
 11
-0.2496303025
 21
0.4334023309
 31
0.0
 40
0.5778584463
 41
-2.3545649475
 42
-0.7846820092
  0
ELLIPSE
  5
30A
100
AcDbEntity
  8
0
100
AcDbEllipse
 62
7
  6
CONTINUOUS
 10
243.7158813185
 20
232.850496822
 30
0.0
 11
-0.2498600223
 21
0.43379745
 31
0.0
 40
0.5768037941
 41
5.4994124095
 42
6.3180789651
  0
ELLIPSE
  5
30B
100
AcDbEntity
  8
0
100
AcDbEllipse
 62
7
  6
CONTINUOUS
 10
274.5068487385
 20
179.8510468564
 30
0.0
 11
-0.2498600223
 21
0.43379745
 31
0.0
 40
0.5768037941
 41
3.1066989922
 42
3.9277026942
  0
ELLIPSE
  5
30C
100
AcDbEntity
  8
0
100
AcDbEllipse
 62
7
  6
CONTINUOUS
 10
583.6514922566
 20
424.6270057512
 30
0.0
 11
-335.2473193077
 21
623.4067300355
 31
0.0
 40
0.5544690592
 41
1.6302514345
 42
1.6310435678
  0
ELLIPSE
  5
30D
100
AcDbEntity
  8
0
100
AcDbEllipse
 62
7
  6
CONTINUOUS
 10
591.3515386521
 20
420.1810954667
 30
0.0
 11
230.9605557507
 21
443.8405655497
 31
0.0
 40
0.5458334979
 41
2.3390550388
 42
2.3401750687
  0
ELLIPSE
  5
30E
100
AcDbEntity
  8
0
100
AcDbEllipse
 62
7
  6
CONTINUOUS
 10
592.221279993
 20
419.6789177169
 30
0.0
 11
230.9605557507
 21
443.8405655497
 31
0.0
 40
0.5458334979
 41
-3.9578295103
 42
-3.955562495
  0
ENDSEC
  0
SECTION
  2
OBJECTS
  0
DICTIONARY
  5
C
100
AcDbDictionary
280
0
281
1
  3
ACAD_GROUP
350
D
  3
ACAD_MLINESTYLE
350
17
  3
ACAD_LAYOUT
350
1A
  3
ACAD_PLOTSETTINGS
350
19
  3
ACAD_PLOTSTYLENAME
350
E
  0
DICTIONARY
  5
D
102
{ACAD_REACTORS
330
C
102
}
100
AcDbDictionary
280
0
281
1
  0
ACDBDICTIONARYWDFLT
  5
E
102
{ACAD_REACTORS
330
C
102
}
100
AcDbDictionary
281
1
  3
Normal
350
F
100
AcDbDictionaryWithDefault
340
F
  0
DICTIONARY
  5
17
102
{ACAD_REACTORS
330
C
102
}
100
AcDbDictionary
280
0
281
1
  3
Standard
350
18
  0
DICTIONARY
  5
19
102
{ACAD_REACTORS
330
C
102
}
100
AcDbDictionary
281
1
  0
DICTIONARY
  5
1A
102
{ACAD_REACTORS
330
C
102
}
100
AcDbDictionary
281
1
  3
Model
350
30F
  3
Layout1
350
310
  0
ACDBPLACEHOLDER
  5
F
102
{ACAD_REACTORS
330
E
102
}
  0
MLINESTYLE
  5
18
102
{ACAD_REACTORS
330
17
102
}
100
AcDbMlineStyle
  2
STANDARD
 70
0
  3

 62
256
 51
90.0
 52
90.0
 71
2
 49
0.5
 62
256
  6
BYLAYER
 49
-0.5
 62
256
  6
BYLAYER
  0
LAYOUT
  5
30F
102
{ACAD_REACTORS
330
1A
102
}
100
AcDbPlotSettings
  1

  2
none_device
  4
ANSI_C_(22.00_x_17.00_Inches)
  6

 40
0.0
 41
0.0
 42
0.0
 43
0.0
 44
558.8
 45
431.8
 46
0.0
 47
0.0
 48
0.0
 49
0.0
140
0.0
141
0.0
142
1.0
143
1.0
 70
1024
 72
1
 73
0
 74
0
  7

 75
0
147
1.0
148
0.0
149
0.0
100
AcDbLayout
  1
Model
 70
0
 71
0
 10
0.0
 20
0.0
 11
558.8
 21
431.8
 12
0.0
 22
0.0
 32
0.0
 14
0.0
 24
0.0
 34
0.0
 15
0.0
 25
0.0
 35
0.0
146
0.0
 13
0.0
 23
0.0
 33
0.0
 16
1.0
 26
0.0
 36
0.0
 17
0.0
 27
1.0
 37
0.0
 76
0
330
214
345
0
346
0
  0
LAYOUT
  5
310
102
{ACAD_REACTORS
330
1A
102
}
100
AcDbPlotSettings
  1

  2
none_device
  4
ANSI_C_(22.00_x_17.00_Inches)
  6

 40
0.0
 41
0.0
 42
0.0
 43
0.0
 44
558.8
 45
431.8
 46
0.0
 47
0.0
 48
0.0
 49
0.0
140
0.0
141
0.0
142
1.0
143
1.0
 70
0
 72
1
 73
0
 74
0
  7

 75
0
147
1.0
148
0.0
149
0.0
100
AcDbLayout
  1
Layout1
 70
0
 71
1
 10
0.0
 20
0.0
 11
558.8
 21
431.8
 12
0.0
 22
0.0
 32
0.0
 14
0.0
 24
0.0
 34
0.0
 15
0.0
 25
0.0
 35
0.0
146
0.0
 13
0.0
 23
0.0
 33
0.0
 16
1.0
 26
0.0
 36
0.0
 17
0.0
 27
1.0
 37
0.0
 76
0
330
215
345
0
346
0
  0
ENDSEC
  0
EOF
