  0
SECTION
  2
HEADER
  9
$ACADVER
  1
AC1024
  9
$DWGCODEPAGE
  3
ANSI_1252
  9
$EXTMAX
 10
558.8
 20
431.8
 30
0.0
  9
$EXTMIN
 10
0.0
 20
0.0
 30
0.0
  9
$LIMMIN
 10
0.0
 20
0.0
  9
$LIMMAX
 10
558.8
 20
431.8
  9
$VIEWCTR
 10
279.4
 20
215.9
  9
$VIEWSIZE
 40
431.8
  9
$CLAYER
  8
0
  9
$LTSCALE
 40
30.734
  9
$CELTYPE
  6
BYLAYER
  9
$DIMSCALE
 40
1.0
  9
$DIMASZ
 40
3.0
  9
$DIMEXO
 40
0.5
  9
$DIMDLI
 40
21.2344
  9
$DIMEXE
 40
1.5
  9
$DIMCEN
 40
5.0292
  9
$DIMLFAC
 40
1.0
  9
$DIMBLK
  1
_FILLED
  9
$DIMALT
 70
0
  9
$DIMALTF
 40
0.0393700787
  9
$DIMTXT
 40
3.0
  9
$DIMTOL
 70
1
  9
$DIMLIM
 70
0
  9
$DIMTFAC
 40
1.0
  9
$DIMTP
 40
0.01
  9
$DIMTM
 40
0.01
  9
$DIMGAP
 40
0.625
  9
$DIMDSEP
 70
44
  9
$AUNITS
 70
0
  9
$PDMODE
 70
3
  9
$PDSIZE
 40
3.0
  9
$HANDSEED
  5
2EB
  9
$TILEMODE
 70
1
  9
$MEASUREMENT
 70
1
  9
$INSUNITS
 70
4
  0
ENDSEC
  0
SECTION
  2
CLASSES
  0
CLASS
  1
ACDBDICTIONARYWDFLT
  2
AcDbDictionaryWithDefault
  3
AutoCAD 2000
 90
0
 91
1
280
0
281
0
  0
CLASS
  1
ACDBPLACEHOLDER
  2
AcDbPlaceHolder
  3
AutoCAD 2000
 90
0
 91
1
280
0
281
0
  0
CLASS
  1
LAYOUT
  2
AcDbLayout
  3
AutoCAD 2000
 90
0
 91
0
280
0
281
0
  0
ENDSEC
  0
SECTION
  2
TABLES
  0
TABLE
  2
VPORT
  5
8
100
AcDbSymbolTable
 70
2
  0
VPORT
  5
1F4
100
AcDbSymbolTableRecord
100
AcDbViewportTableRecord
  2
*ACTIVE
 70
0
 10
0.0
 20
0.0
 11
1.0
 21
1.0
 12
279.4
 22
215.9
 13
0.0
 23
0.0
 14
1.0
 24
1.0
 15
0.0
 25
0.0
 16
0.0
 26
0.0
 36
1.0
 17
0.0
 27
0.0
 37
0.0
 40
431.8
 41
1.2941176471
 42
50.0
 43
0.0
 44
0.0
 50
0.0
 51
0.0
 71
0
 72
100
 73
1
 74
1
 75
0
 76
0
 77
0
 78
0
  0
ENDTAB
  0
TABLE
  2
LTYPE
  5
5
100
AcDbSymbolTable
 70
6
  0
LTYPE
  5
14
100
AcDbSymbolTableRecord
100
AcDbLinetypeTableRecord
  2
BYBLOCK
 70
0
  3

 72
65
 73
0
 40
0.0
  0
LTYPE
  5
15
100
AcDbSymbolTableRecord
100
AcDbLinetypeTableRecord
  2
BYLAYER
 70
0
  3

 72
65
 73
0
 40
0.0
  0
LTYPE
  5
16
100
AcDbSymbolTableRecord
100
AcDbLinetypeTableRecord
  2
CONTINUOUS
 70
64
  3
Solid line
 72
65
 73
0
 40
0.0
  0
LTYPE
  5
1F5
100
AcDbSymbolTableRecord
100
AcDbLinetypeTableRecord
  2
CENTER
 70
64
  3
____ _ ____ _ ____ _ ____ _ ____ _ ____ _ ____
 72
65
 73
4
 40
0.6
 49
0.375
 74
0
 49
-0.075
 74
0
 49
0.075
 74
0
 49
-0.075
 74
0
  0
LTYPE
  5
1F6
100
AcDbSymbolTableRecord
100
AcDbLinetypeTableRecord
  2
HIDDEN
 70
64
  3
- - - - - - - - - - - - - - - - - - - -
 72
65
 73
2
 40
0.2
 49
0.1
 74
0
 49
-0.1
 74
0
  0
LTYPE
  5
1F7
100
AcDbSymbolTableRecord
100
AcDbLinetypeTableRecord
  2
PHANTOM
 70
64
  3
_____ _ _ _____ _ _ _____ _ _ _____
 72
65
 73
6
 40
0.8
 49
0.45
 74
0
 49
-0.05
 74
0
 49
0.1
 74
0
 49
-0.05
 74
0
 49
0.1
 74
0
 49
-0.05
 74
0
  0
LTYPE
  5
1F8
100
AcDbSymbolTableRecord
100
AcDbLinetypeTableRecord
  2
DOT
 70
64
  3
. . . . . . . . . . . . . . . . . . . .
 72
65
 73
2
 40
0.2
 49
0.1
 74
0
 49
-0.1
 74
0
  0
LTYPE
  5
1F9
100
AcDbSymbolTableRecord
100
AcDbLinetypeTableRecord
  2
DASHED
 70
64
  3
- - - - - - - - - - - - - - - - - - - -
 72
65
 73
2
 40
0.2
 49
0.1
 74
0
 49
-0.1
 74
0
  0
ENDTAB
  0
TABLE
  2
LAYER
  5
2
100
AcDbSymbolTable
 70
36
  0
LAYER
  5
10
100
AcDbSymbolTableRecord
100
AcDbLayerTableRecord
  2
0
 70
0
 62
7
  6
CONTINUOUS
370
-3
390
F
  0
LAYER
  5
1FA
100
AcDbSymbolTableRecord
100
AcDbLayerTableRecord
  2
DEFAULT_1
 70
0
 62
7
  6
CENTER
370
-3
390
F
  0
LAYER
  5
1FB
100
AcDbSymbolTableRecord
100
AcDbLayerTableRecord
  2
DEFAULT_2
 70
0
 62
7
  6
HIDDEN
370
-3
390
F
  0
LAYER
  5
1FC
100
AcDbSymbolTableRecord
100
AcDbLayerTableRecord
  2
DEFAULT_3
 70
0
 62
7
  6
PHANTOM
370
-3
390
F
  0
LAYER
  5
1FD
100
AcDbSymbolTableRecord
100
AcDbLayerTableRecord
  2
ASSI
 70
0
 62
7
  6
CONTINUOUS
370
-3
390
F
  0
LAYER
  5
1FE
100
AcDbSymbolTableRecord
100
AcDbLayerTableRecord
  2
COORDINATE
 70
0
 62
7
  6
CONTINUOUS
370
-3
390
F
  0
LAYER
  5
1FF
100
AcDbSymbolTableRecord
100
AcDbLayerTableRecord
  2
COPY_PUBLISH
 70
0
 62
7
  6
CONTINUOUS
370
-3
390
F
  0
LAYER
  5
200
100
AcDbSymbolTableRecord
100
AcDbLayerTableRecord
  2
COSMETIC
 70
0
 62
7
  6
CONTINUOUS
370
-3
390
F
  0
LAYER
  5
201
100
AcDbSymbolTableRecord
100
AcDbLayerTableRecord
  2
COSMETICI
 70
0
 62
7
  6
CONTINUOUS
370
-3
390
F
  0
LAYER
  5
202
100
AcDbSymbolTableRecord
100
AcDbLayerTableRecord
  2
CURVE
 70
0
 62
7
  6
CONTINUOUS
370
-3
390
F
  0
LAYER
  5
203
100
AcDbSymbolTableRecord
100
AcDbLayerTableRecord
  2
DRAFT
 70
0
 62
7
  6
CONTINUOUS
370
-3
390
F
  0
LAYER
  5
204
100
AcDbSymbolTableRecord
100
AcDbLayerTableRecord
  2
IMPORT_IGES
 70
0
 62
7
  6
CONTINUOUS
370
-3
390
F
  0
LAYER
  5
205
100
AcDbSymbolTableRecord
100
AcDbLayerTableRecord
  2
INTFCLR_11
 70
0
 62
7
  6
CONTINUOUS
370
-3
390
F
  0
LAYER
  5
206
100
AcDbSymbolTableRecord
100
AcDbLayerTableRecord
  2
INTF_1
 70
0
 62
7
  6
CONTINUOUS
370
-3
390
F
  0
LAYER
  5
207
100
AcDbSymbolTableRecord
100
AcDbLayerTableRecord
  2
INTF_3
 70
0
 62
7
  6
CONTINUOUS
370
-3
390
F
  0
LAYER
  5
208
100
AcDbSymbolTableRecord
100
AcDbLayerTableRecord
  2
NOTE
 70
0
 62
7
  6
CONTINUOUS
370
-3
390
F
  0
LAYER
  5
209
100
AcDbSymbolTableRecord
100
AcDbLayerTableRecord
  2
PIANI
 70
0
 62
7
  6
CONTINUOUS
370
-3
390
F
  0
LAYER
  5
20A
100
AcDbSymbolTableRecord
100
AcDbLayerTableRecord
  2
PUNTI
 70
0
 62
7
  6
CONTINUOUS
370
-3
390
F
  0
LAYER
  5
20B
100
AcDbSymbolTableRecord
100
AcDbLayerTableRecord
  2
RACCORDO
 70
0
 62
7
  6
CONTINUOUS
370
-3
390
F
  0
LAYER
  5
20C
100
AcDbSymbolTableRecord
100
AcDbLayerTableRecord
  2
SIMBOLI
 70
0
 62
7
  6
CONTINUOUS
370
-3
390
F
  0
LAYER
  5
20D
100
AcDbSymbolTableRecord
100
AcDbLayerTableRecord
  2
SMUSSO
 70
0
 62
7
  6
CONTINUOUS
370
-3
390
F
  0
LAYER
  5
20E
100
AcDbSymbolTableRecord
100
AcDbLayerTableRecord
  2
SNAPLINE
 70
0
 62
7
  6
CONTINUOUS
370
-3
390
F
  0
LAYER
  5
20F
100
AcDbSymbolTableRecord
100
AcDbLayerTableRecord
  2
SUPERFICI
 70
0
 62
7
  6
CONTINUOUS
370
-3
390
F
  0
LAYER
  5
210
100
AcDbSymbolTableRecord
100
AcDbLayerTableRecord
  2
TRASH
 70
0
 62
7
  6
CONTINUOUS
370
-3
390
F
  0
LAYER
  5
211
100
AcDbSymbolTableRecord
100
AcDbLayerTableRecord
  2
___SHELL
 70
0
 62
7
  6
CONTINUOUS
370
-3
390
F
  0
ENDTAB
  0
TABLE
  2
STYLE
  5
3
100
AcDbSymbolTable
 70
1
  0
STYLE
  5
11
100
AcDbSymbolTableRecord
100
AcDbTextStyleTableRecord
  2
STANDARD
 70
0
 40
0.0
 41
0.8
 50
0.0
 71
0
 42
0.2
  3
txt
  4

  0
STYLE
  5
212
100
AcDbSymbolTableRecord
100
AcDbTextStyleTableRecord
  2
TEXTSTYLE_1
 70
0
 40
0.0
 41
0.8
 50
0.0
 71
0
 42
0.2
  3
gdt
  4

  0
ENDTAB
  0
TABLE
  2
VIEW
  5
6
100
AcDbSymbolTable
 70
0
  0
ENDTAB
  0
TABLE
  2
UCS
  5
7
100
AcDbSymbolTable
 70
0
  0
ENDTAB
  0
TABLE
  2
APPID
  5
9
100
AcDbSymbolTable
 70
1
  0
APPID
  5
213
100
AcDbSymbolTableRecord
100
AcDbRegAppTableRecord
  2
ACAD
 70
0
  0
ENDTAB
  0
TABLE
  2
BLOCK_RECORD
  5
1
100
AcDbSymbolTable
 70
0
  0
BLOCK_RECORD
  5
214
100
AcDbSymbolTableRecord
100
AcDbBlockTableRecord
  2
*Model_Space
  0
BLOCK_RECORD
  5
215
100
AcDbSymbolTableRecord
100
AcDbBlockTableRecord
  2
*Paper_Space
  0
BLOCK_RECORD
  5
216
100
AcDbSymbolTableRecord
100
AcDbBlockTableRecord
  2
_FILLED
  0
ENDTAB
  0
TABLE
  2
DIMSTYLE
  5
A
100
AcDbSymbolTable
 70
1
100
AcDbDimStyleTable
 71
0
  0
DIMSTYLE
105
217
100
AcDbSymbolTableRecord
100
AcDbDimStyleTableRecord
  2
STANDARD
 70
0
  3

  4

 40
1.0
 41
3.0
 42
0.5
 43
0.38
 44
1.5
 45
0.0
 46
0.0
 47
0.01
 48
0.01
140
3.0
141
0.09
142
0.0
143
25.4
144
1.0
145
0.0
146
1.0
147
0.625
 71
1
 72
0
 73
0
 74
0
 75
0
 76
0
 77
1
 78
8
 79
2
170
0
171
1
172
0
173
0
174
0
175
0
176
0
177
0
178
0
270
2
179
2
271
2
272
2
273
2
274
2
275
0
280
0
281
0
282
0
283
1
284
8
285
0
286
0
287
3
288
0
340
11
278
44
341
216
342
216
343
216
344
216
  0
ENDTAB
  0
ENDSEC
  0
SECTION
  2
BLOCKS
  0
BLOCK
  5
20
100
AcDbEntity
  8
0
100
AcDbBlockBegin
  2
*Model_Space
 70
0
 10
0.0
 20
0.0
 30
0.0
  3
*Model_Space
  1

  0
ENDBLK
  5
21
100
AcDbEntity
  8
0
100
AcDbBlockEnd
  0
BLOCK
  5
1C
100
AcDbEntity
  8
0
100
AcDbBlockBegin
  2
*Paper_Space
 70
0
 10
0.0
 20
0.0
 30
0.0
  3
*Paper_Space
  1

  0
ENDBLK
  5
1D
100
AcDbEntity
  8
0
100
AcDbBlockEnd
  0
BLOCK
  5
218
100
AcDbEntity
  8
0
100
AcDbBlockBegin
  2
_FILLED
 70
64
 10
0.0
 20
0.0
  3
_FILLED
  1

  0
SOLID
  5
219
100
AcDbEntity
  8
0
  6
BYBLOCK
 62
0
100
AcDbTrace
 10
0.0
 20
0.0
 11
-1.0
 21
0.3166666667
 12
-1.0
 22
-0.3166666667
 13
-1.0
 23
-0.3166666667
  0
ENDBLK
  5
21A
100
AcDbEntity
  8
0
  6
BYBLOCK
 62
0
100
AcDbBlockEnd
  0
ENDSEC
  0
SECTION
  2
ENTITIES
  0
LWPOLYLINE
  5
21B
100
AcDbEntity
  8
0
100
AcDbPolyline
 62
7
  6
CONTINUOUS
 90
19
 70
0
 10
276.3699295527
 20
219.1169681408
 10
276.3371726353
 20
219.0947559638
 10
276.2503847158
 20
219.029797443
 10
276.1670016608
 20
218.9585706476
 10
276.0872180671
 20
218.8815597561
 10
276.0111768615
 20
218.7991952495
 10
275.9391374764
 20
218.7119862147
 10
275.8712952896
 20
218.6203507931
 10
275.807900593
 20
218.5247234156
 10
275.7493695755
 20
218.4257936549
 10
275.6959405288
 20
218.324026116
 10
275.6478820519
 20
218.2198596618
 10
275.6055496874
 20
218.1140111916
 10
275.5691927348
 20
218.0069234137
 10
275.5390579126
 20
217.8989850725
 10
275.5154412628
 20
217.7906921376
 10
275.4986316083
 20
217.6823999428
 10
275.4889342193
 20
217.5745182124
 10
275.48743043
 20
217.5411699913
  0
LINE
  5
21C
100
AcDbEntity
  8
0
100
AcDbLine
 62
7
  6
CONTINUOUS
 10
276.3696886485
 20
219.1168095887
 11
277.3109853941
 21
219.7375859398
  0
LINE
  5
21D
100
AcDbEntity
  8
0
100
AcDbLine
 62
250
  6
CONTINUOUS
 10
276.6264580795
 20
219.0963991107
 11
277.5690994604
 21
219.7180622362
  0
LWPOLYLINE
  5
21E
100
AcDbEntity
  8
0
100
AcDbPolyline
 62
250
  6
CONTINUOUS
 90
9
 70
0
 10
276.3699295528
 20
219.1169681408
 10
276.3906645431
 20
219.1284266771
 10
276.4186954609
 20
219.1382698788
 10
276.4492025181
 20
219.1433103935
 10
276.481851862
 20
219.1434930609
 10
276.5162861972
 20
219.1388158834
 10
276.552128693
 20
219.1293300461
 10
276.5889871069
 20
219.1151393567
 10
276.6264580795
 20
219.0963991107
  0
LWPOLYLINE
  5
21F
100
AcDbEntity
  8
0
100
AcDbPolyline
 62
7
  6
CONTINUOUS
 90
14
 70
0
 10
275.4874664942
 20
183.9627233105
 10
275.4935035066
 20
183.8744491159
 10
275.5056399278
 20
183.7861081525
 10
275.5234275123
 20
183.7021288588
 10
275.5465359659
 20
183.62279714
 10
275.574695401
 20
183.5480222141
 10
275.6077764496
 20
183.477539977
 10
275.6455136786
 20
183.4115489442
 10
275.6876198223
 20
183.3502121267
 10
275.7339974557
 20
183.2934391603
 10
275.7843136947
 20
183.2414970049
 10
275.8382247239
 20
183.1946009127
 10
275.8956374244
 20
183.1527294341
 10
275.9405269485
 20
183.1248952539
  0
LWPOLYLINE
  5
220
100
AcDbEntity
  8
0
100
AcDbPolyline
 62
7
  6
CONTINUOUS
 90
10
 70
0
 10
275.4874403233
 20
217.5414667949
 10
275.3726145458
 20
213.789823694
 10
275.284902623
 20
209.9928962537
 10
275.2264309196
 20
206.2126339871
 10
275.197204491
 20
202.4493486878
 10
275.1972261454
 20
198.7033438449
 10
275.2264965498
 20
194.9749333
 10
275.2850144396
 20
191.2644212352
 10
275.3727762807
 20
187.5721106935
 10
275.4874659873
 20
183.9627374663
  0
LWPOLYLINE
  5
221
100
AcDbEntity
  8
0
100
AcDbPolyline
 62
250
  6
CONTINUOUS
 90
22
 70
0
 10
275.6338920695
 20
217.3371479488
 10
275.639847647
 20
217.4300490529
 10
275.6512769365
 20
217.524743032
 10
275.6679886246
 20
217.6206783545
 10
275.6896860417
 20
217.7170014419
 10
275.7161811001
 20
217.8135023315
 10
275.7475603591
 20
217.9106392814
 10
275.7838657058
 20
218.008369016
 10
275.8248042612
 20
218.1057526531
 10
275.8700176565
 20
218.2019265582
 10
275.9194773102
 20
218.2968353128
 10
275.9727124759
 20
218.3895695283
 10
276.0284278023
 20
218.4781298378
 10
276.0853930309
 20
218.5611819132
 10
276.1438449626
 20
218.6396447659
 10
276.2046844541
 20
218.7149072761
 10
276.2674388784
 20
218.7864099121
 10
276.3320233945
 20
218.8540874813
 10
276.4002222712
 20
218.9195252622
 10
276.472550106
 20
218.9825826828
 10
276.5480719627
 20
219.0418118152
 10
276.6264580795
 20
219.0963991107
  0
LWPOLYLINE
  5
222
100
AcDbEntity
  8
0
100
AcDbPolyline
 62
7
  6
CONTINUOUS
 90
14
 70
0
 10
306.6815410148
 20
165.375416459
 10
306.7281202307
 20
165.3503924991
 10
306.7973011147
 20
165.319735093
 10
306.8701979447
 20
165.2949516748
 10
306.9460759458
 20
165.2765084627
 10
307.0245082354
 20
165.2646609612
 10
307.1050406709
 20
165.2596234655
 10
307.1869311424
 20
165.2615263228
 10
307.2697838742
 20
165.2703759314
 10
307.3532974497
 20
165.2861701986
 10
307.4370150409
 20
165.3088512931
 10
307.5206286902
 20
165.3383146042
 10
307.6039308466
 20
165.3744916485
 10
307.6260372651
 20
165.3852552566
  0
LWPOLYLINE
  5
223
100
AcDbEntity
  8
0
100
AcDbPolyline
 62
250
  6
CONTINUOUS
 90
8
 70
0
 10
275.488278114
 20
183.9509100709
 10
275.4940969711
 20
183.9201198095
 10
275.5051986111
 20
183.8899777007
 10
275.5214640852
 20
183.8608067025
 10
275.542719117
 20
183.8329193677
 10
275.5687359692
 20
183.8066144956
 10
275.5992358839
 20
183.7821739299
 10
275.6338920695
 20
183.7598595394
  0
LWPOLYLINE
  5
224
100
AcDbEntity
  8
0
100
AcDbPolyline
 62
250
  6
CONTINUOUS
 90
9
 70
0
 10
275.48743043
 20
217.5411699913
 10
275.4882779045
 20
217.5193696102
 10
275.494096442
 20
217.4907934172
 10
275.5051978417
 20
217.462576426
 10
275.5214631904
 20
217.4350209773
 10
275.5427182251
 20
217.4084223457
 10
275.5687352178
 20
217.3830655396
 10
275.5992354275
 20
217.3592222495
 10
275.6338920699
 20
217.3371479579
  0
LWPOLYLINE
  5
225
100
AcDbEntity
  8
0
100
AcDbPolyline
 62
250
  6
CONTINUOUS
 90
16
 70
0
 10
275.6338920695
 20
183.7598595394
 10
275.5558916241
 20
186.1108614666
 10
275.4917031707
 20
188.3994682869
 10
275.4402752916
 20
190.6249576948
 10
275.4008961413
 20
192.7668959635
 10
275.3720912684
 20
194.8442633276
 10
275.3525141117
 20
196.9159837264
 10
275.3420283089
 20
198.9836873491
 10
275.3404874913
 20
201.0454701728
 10
275.3480504688
 20
203.1558510497
 10
275.3653594076
 20
205.3197744994
 10
275.3929834062
 20
207.5328697207
 10
275.4322753498
 20
209.836415487
 10
275.4847667893
 20
212.2447182062
 10
275.5515364929
 20
214.7447566405
 10
275.6338920695
 20
217.3371479488
  0
LINE
  5
226
100
AcDbEntity
  8
0
100
AcDbLine
 62
7
  6
CONTINUOUS
 10
275.9400116676
 20
183.1251847398
 11
306.6819717033
 21
165.3751623024
  0
LINE
  5
227
100
AcDbEntity
  8
0
100
AcDbLine
 62
250
  6
CONTINUOUS
 10
275.6338920695
 20
183.7598595394
 11
306.3686407238
 21
166.0140008633
  0
LINE
  5
228
100
AcDbEntity
  8
0
100
AcDbLine
 62
7
  6
CONTINUOUS
 10
306.681521253
 20
165.3754226921
 11
306.6819716282
 21
165.3751623457
  0
LWPOLYLINE
  5
229
100
AcDbEntity
  8
0
100
AcDbPolyline
 62
250
  6
CONTINUOUS
 90
12
 70
0
 10
275.9400116676
 20
183.1251847398
 10
275.9008336949
 20
183.1503641635
 10
275.8538430253
 20
183.1882983576
 10
275.8122134727
 20
183.2307900283
 10
275.7752858484
 20
183.2777421145
 10
275.7423264417
 20
183.3297753619
 10
275.7135768958
 20
183.3864716524
 10
275.6890514351
 20
183.4477498583
 10
275.6683017163
 20
183.5154383455
 10
275.6517166882
 20
183.5903579464
 10
275.6400681549
 20
183.6718577473
 10
275.6338920695
 20
183.7598595394
  0
LINE
  5
22A
100
AcDbEntity
  8
0
100
AcDbLine
 62
7
  6
CONTINUOUS
 10
287.3744365954
 20
193.7125265157
 11
287.3962230219
 21
193.7391835293
  0
LINE
  5
22B
100
AcDbEntity
  8
0
100
AcDbLine
 62
7
  6
CONTINUOUS
 10
287.6047271321
 20
193.9624841643
 11
287.6142116172
 21
193.9726394116
  0
LINE
  5
22C
100
AcDbEntity
  8
0
100
AcDbLine
 62
7
  6
CONTINUOUS
 10
287.6521476554
 20
194.0132563609
 11
287.6711032277
 21
194.0315252269
  0
LWPOLYLINE
  5
22D
100
AcDbEntity
  8
0
100
AcDbPolyline
 62
7
  6
CONTINUOUS
 90
3
 70
0
 10
287.6521476554
 20
194.0132563609
 10
287.676169456
 20
194.0357912181
 10
287.694166287
 20
194.0491655361
  0
LWPOLYLINE
  5
22E
100
AcDbEntity
  8
0
100
AcDbPolyline
 62
7
  6
CONTINUOUS
 90
12
 70
0
 10
293.2017011747
 20
188.1840674034
 10
293.0851895522
 20
188.1856191796
 10
292.9655968365
 20
188.1989429466
 10
292.8422767857
 20
188.2239261254
 10
292.717032964
 20
188.2602007288
 10
292.5898348245
 20
188.3079314375
 10
292.460708854
 20
188.366951203
 10
292.3315449416
 20
188.4363948961
 10
292.2023421342
 20
188.5164156892
 10
292.0731014043
 20
188.6068604211
 10
291.945716527
 20
188.7064050433
 10
291.8202164948
 20
188.8151844724
  0
LWPOLYLINE
  5
22F
100
AcDbEntity
  8
0
100
AcDbPolyline
 62
7
  6
CONTINUOUS
 90
11
 70
0
 10
293.0956690991
 20
188.18507764
 10
292.9859999009
 20
188.1958834928
 10
292.8741084424
 20
188.2163423595
 10
292.7599969981
 20
188.2465714792
 10
292.6436589822
 20
188.2864510997
 10
292.5264963575
 20
188.3354833593
 10
292.408513535
 20
188.3937578703
 10
292.28970451
 20
188.4611840908
 10
292.1714562924
 20
188.5369943194
 10
292.0537304396
 20
188.6213210017
 10
291.9365667375
 20
188.7140324757
  0
LWPOLYLINE
  5
230
100
AcDbEntity
  8
0
100
AcDbPolyline
 62
7
  6
CONTINUOUS
 90
15
 70
0
 10
287.3962230219
 20
193.0844506928
 10
287.3746592025
 20
193.1356672351
 10
287.3558039997
 20
193.1873147828
 10
287.3398178499
 20
193.2390626249
 10
287.3268141866
 20
193.2907179026
 10
287.3169643961
 20
193.3417889669
 10
287.3104017304
 20
193.3915100457
 10
287.307127381
 20
193.4392547557
 10
287.3070586257
 20
193.4850687438
 10
287.3102003389
 20
193.5291818735
 10
287.3166456912
 20
193.5715252136
 10
287.3264079823
 20
193.6114856274
 10
287.3393784564
 20
193.6484814448
 10
287.355410917
 20
193.6821914665
 10
287.3744072984
 20
193.712490669
  0
LWPOLYLINE
  5
231
100
AcDbEntity
  8
0
100
AcDbPolyline
 62
7
  6
CONTINUOUS
 90
10
 70
0
 10
287.7580382899
 20
193.2729342131
 10
287.7506026611
 20
193.2630115879
 10
287.7449108421
 20
193.251066674
 10
287.7410606483
 20
193.2373143242
 10
287.7391184561
 20
193.2220028144
 10
287.73911838
 20
193.2054122521
 10
287.7410604467
 20
193.1878502494
 10
287.7449105878
 20
193.1696416777
 10
287.750602463
 20
193.1511219452
 10
287.7580382899
 20
193.1326343196
  0
LWPOLYLINE
  5
232
100
AcDbEntity
  8
0
100
AcDbPolyline
 62
7
  6
CONTINUOUS
 90
13
 70
0
 10
287.7580382899
 20
193.2729342131
 10
287.7522525335
 20
193.2655305301
 10
287.7475031781
 20
193.2571632109
 10
287.7437902495
 20
193.2478322705
 10
287.7410958986
 20
193.2374380355
 10
287.7394380343
 20
193.226080214
 10
287.7388702954
 20
193.2140578788
 10
287.7394262922
 20
193.2013200722
 10
287.7410724216
 20
193.1879177563
 10
287.7437614428
 20
193.17430285
 10
287.7474775748
 20
193.1606259733
 10
287.752236533
 20
193.1467364685
 10
287.7580382899
 20
193.1326343196
  0
LINE
  5
233
100
AcDbEntity
  8
0
100
AcDbLine
 62
7
  6
CONTINUOUS
 10
287.9955667048
 20
193.5261379315
 11
287.9885964668
 21
193.5198845114
  0
LWPOLYLINE
  5
234
100
AcDbEntity
  8
0
100
AcDbPolyline
 62
7
  6
CONTINUOUS
 90
3
 70
0
 10
287.6711032277
 20
194.0315252269
 10
287.6916607229
 20
194.0474583477
 10
287.6941629482
 20
194.0491632925
  0
LINE
  5
235
100
AcDbEntity
  8
0
100
AcDbLine
 62
7
  6
CONTINUOUS
 10
287.694166287
 20
194.0491655361
 11
287.7026136558
 21
194.0545834924
  0
LWPOLYLINE
  5
236
100
AcDbEntity
  8
0
100
AcDbPolyline
 62
7
  6
CONTINUOUS
 90
3
 70
0
 10
288.0035744343
 20
193.5309968066
 10
287.995725917
 20
193.5261978171
 10
287.9885964668
 20
193.5198845114
  0
LWPOLYLINE
  5
237
100
AcDbEntity
  8
0
100
AcDbPolyline
 62
7
  6
CONTINUOUS
 90
3
 70
0
 10
287.6941629482
 20
194.0491632925
 10
287.7137487253
 20
194.0609795159
 10
287.7373302199
 20
194.072038788
  0
LWPOLYLINE
  5
238
100
AcDbEntity
  8
0
100
AcDbPolyline
 62
7
  6
CONTINUOUS
 90
10
 70
0
 10
287.7026136558
 20
194.0545834924
 10
287.7313169441
 20
194.0695171356
 10
287.7621029487
 20
194.0805016124
 10
287.7947759676
 20
194.087467502
 10
287.8291222059
 20
194.0903669214
 10
287.8649196887
 20
194.0891796509
 10
287.9019434907
 20
194.0839156533
 10
287.9399598189
 20
194.074609938
 10
287.9787248526
 20
194.0613208595
 10
288.0179862744
 20
194.0441298459
  0
LINE
  5
239
100
AcDbEntity
  8
0
100
AcDbLine
 62
7
  6
CONTINUOUS
 10
288.0121313785
 20
193.5342734946
 11
288.0035744343
 21
193.5309968066
  0
LWPOLYLINE
  5
23A
100
AcDbEntity
  8
0
100
AcDbPolyline
 62
7
  6
CONTINUOUS
 90
12
 70
0
 10
287.7373302199
 20
194.072038788
 10
287.7622817816
 20
194.0805526249
 10
287.7883707745
 20
194.0864459518
 10
287.8153791504
 20
194.0897105841
 10
287.8432787166
 20
194.0903833129
 10
287.8721142463
 20
194.0884669319
 10
287.9018726342
 20
194.0839301865
 10
287.9323462113
 20
194.0767747621
 10
287.9632891707
 20
194.0670561884
 10
287.9945281072
 20
194.0548430236
 10
288.0259719728
 20
194.0401825183
 10
288.0574887338
 20
194.0231432067
  0
LWPOLYLINE
  5
23B
100
AcDbEntity
  8
0
100
AcDbPolyline
 62
7
  6
CONTINUOUS
 90
6
 70
0
 10
293.0751339742
 20
188.7374224498
 10
293.1517978832
 20
188.7515606881
 10
293.2247332146
 20
188.7731554582
 10
293.293896889
 20
188.8023012926
 10
293.3593365079
 20
188.8389062824
 10
293.3713684437
 20
188.8467247131
  0
LWPOLYLINE
  5
23C
100
AcDbEntity
  8
0
100
AcDbPolyline
 62
7
  6
CONTINUOUS
 90
6
 70
0
 10
293.7616389151
 20
189.3629349221
 10
293.7808470911
 20
189.3658784256
 10
293.8013857608
 20
189.3656763424
 10
293.8224191159
 20
189.3625357488
 10
293.8438311118
 20
189.3564267424
 10
293.8657375319
 20
189.3473790745
  0
LWPOLYLINE
  5
23D
100
AcDbEntity
  8
0
100
AcDbPolyline
 62
7
  6
CONTINUOUS
 90
3
 70
0
 10
293.0594403167
 20
189.7443339651
 10
293.0255436717
 20
189.7413373308
 10
292.9894794059
 20
189.7430632416
  0
LINE
  5
23E
100
AcDbEntity
  8
0
100
AcDbLine
 62
7
  6
CONTINUOUS
 10
292.9894794059
 20
189.7430632416
 11
292.9524569481
 21
189.7494999665
  0
LWPOLYLINE
  5
23F
100
AcDbEntity
  8
0
100
AcDbPolyline
 62
7
  6
CONTINUOUS
 90
3
 70
0
 10
292.9524569481
 20
189.7494999665
 10
292.9148791812
 20
189.7606434446
 10
292.8763425341
 20
189.7764973385
  0
LINE
  5
240
100
AcDbEntity
  8
0
100
AcDbLine
 62
7
  6
CONTINUOUS
 10
292.8763968306
 20
189.7765264809
 11
292.8368468373
 21
189.7970615501
  0
LINE
  5
241
100
AcDbEntity
  8
0
100
AcDbLine
 62
7
  6
CONTINUOUS
 10
290.6333874329
 20
190.5517348312
 11
288.0574887338
 21
192.0390264564
  0
LINE
  5
242
100
AcDbEntity
  8
0
100
AcDbLine
 62
7
  6
CONTINUOUS
 10
290.6536359353
 20
191.0290760677
 11
288.0754156941
 21
192.5177081223
  0
LWPOLYLINE
  5
243
100
AcDbEntity
  8
0
100
AcDbPolyline
 62
7
  6
CONTINUOUS
 90
16
 70
0
 10
288.0574887338
 20
192.0390264564
 10
288.0259767862
 20
192.0583839734
 10
287.9945326795
 20
192.0800144448
 10
287.9632885915
 20
192.1038426991
 10
287.9323320255
 20
192.1298239602
 10
287.9018407562
 20
192.1578288945
 10
287.8720720053
 20
192.1876145788
 10
287.843237089
 20
192.2189335526
 10
287.8153442143
 20
192.2517431425
 10
287.7883463918
 20
192.2861007831
 10
287.7622747328
 20
192.3220042599
 10
287.7373425892
 20
192.3592024981
 10
287.7137709791
 20
192.3973787865
 10
287.6916812775
 20
192.4363112751
 10
287.6711158137
 20
192.47589142
 10
287.6521476554
 20
192.5159530332
  0
LWPOLYLINE
  5
244
100
AcDbEntity
  8
0
100
AcDbPolyline
 62
7
  6
CONTINUOUS
 90
11
 70
0
 10
290.6536359353
 20
191.0290760677
 10
290.688602743
 20
191.0074888755
 10
290.7232017269
 20
190.9832794359
 10
290.7574329634
 20
190.9564477933
 10
290.7915466766
 20
190.926761949
 10
290.8252929542
 20
190.894454082
 10
290.8579217233
 20
190.8602205357
 10
290.8892780596
 20
190.8241744791
 10
290.9195174329
 20
190.7862030589
 10
290.9483553787
 20
190.7466635941
 10
290.975886023
 20
190.7053560597
  0
LWPOLYLINE
  5
245
100
AcDbEntity
  8
0
100
AcDbPolyline
 62
7
  6
CONTINUOUS
 90
13
 70
0
 10
288.0574887338
 20
192.0390264564
 10
288.017986276
 20
192.063661923
 10
287.978724849
 20
192.0917787134
 10
287.9399598037
 20
192.1232003483
 10
287.9019434474
 20
192.1577292109
 10
287.8649196132
 20
192.1951460716
 10
287.8291221249
 20
192.2352115431
 10
287.7947759292
 20
192.2776684926
 10
287.76210297
 20
192.3222477495
 10
287.7313169981
 20
192.3686681507
 10
287.7026137069
 20
192.4166333934
 10
287.6761694873
 20
192.4658339196
 10
287.6521476554
 20
192.5159530332
  0
LWPOLYLINE
  5
246
100
AcDbEntity
  8
0
100
AcDbPolyline
 62
7
  6
CONTINUOUS
 90
9
 70
0
 10
290.6536359355
 20
191.0290760676
 10
290.6979909553
 20
191.0010816425
 10
290.7413313977
 20
190.9693725995
 10
290.7836574462
 20
190.9339490447
 10
290.8252837688
 20
190.8944769213
 10
290.8658964311
 20
190.8512907107
 10
290.9045528317
 20
190.8053933959
 10
290.9412077243
 20
190.7567217003
 10
290.9759076175
 20
190.7053396316
  0
LWPOLYLINE
  5
247
100
AcDbEntity
  8
0
100
AcDbPolyline
 62
7
  6
CONTINUOUS
 90
15
 70
0
 10
292.8368468373
 20
189.7970615501
 10
292.7974087473
 20
189.8221114189
 10
292.7589853662
 20
189.8506506694
 10
292.7215768594
 20
189.8826793971
 10
292.6848534931
 20
189.9185645079
 10
292.6491456631
 20
189.9579394792
 10
292.6154438245
 20
189.9997043195
 10
292.5838326321
 20
190.0438768847
 10
292.5542285288
 20
190.0904399539
 10
292.527369573
 20
190.1382408746
 10
292.503297787
 20
190.1873786913
 10
292.4819723802
 20
190.2377550713
 10
292.4640068672
 20
190.2879211095
 10
292.4495128538
 20
190.3377823301
 10
292.4383796227
 20
190.3874337216
  0
LWPOLYLINE
  5
248
100
AcDbEntity
  8
0
100
AcDbPolyline
 62
7
  6
CONTINUOUS
 90
3
 70
0
 10
288.052981796
 20
192.5334273211
 10
288.0641325304
 20
192.5249136856
 10
288.0754156941
 20
192.5177081223
  0
LWPOLYLINE
  5
249
100
AcDbEntity
  8
0
100
AcDbPolyline
 62
7
  6
CONTINUOUS
 90
11
 70
0
 10
292.0154373974
 20
189.1478544438
 10
292.1059024827
 20
189.0754502654
 10
292.1969031429
 20
189.0095106838
 10
292.2884455508
 20
188.9501150149
 10
292.3805226637
 20
188.8971834365
 10
292.4719924336
 20
188.851372634
 10
292.5628492379
 20
188.8127707686
 10
292.6530996091
 20
188.7812902085
 10
292.7416201392
 20
188.7573241869
 10
292.8283895789
 20
188.7409675855
 10
292.9134317322
 20
188.7321270084
  0
LINE
  5
24A
100
AcDbEntity
  8
0
100
AcDbLine
 62
7
  6
CONTINUOUS
 10
288.0421084594
 20
192.5431306055
 11
288.0528373501
 21
192.5335650797
  0
LWPOLYLINE
  5
24B
100
AcDbEntity
  8
0
100
AcDbPolyline
 62
7
  6
CONTINUOUS
 90
4
 70
0
 10
290.6697445392
 20
190.5233391513
 10
290.6581013031
 20
190.53408693
 10
290.6459822759
 20
190.5435521613
 10
290.6333874329
 20
190.5517348312
  0
LWPOLYLINE
  5
24C
100
AcDbEntity
  8
0
100
AcDbPolyline
 62
7
  6
CONTINUOUS
 90
12
 70
0
 10
291.8214702232
 20
188.8139652776
 10
291.6965764102
 20
188.9330661799
 10
291.5766099843
 20
189.058325399
 10
291.4603745218
 20
189.1910728797
 10
291.3478201736
 20
189.3312022149
 10
291.2406000553
 20
189.4766629794
 10
291.1387970214
 20
189.6275364494
 10
291.0423377309
 20
189.7837468794
 10
290.9526402074
 20
189.9430078446
 10
290.8701799748
 20
190.1045588541
 10
290.79449111
 20
190.2691659639
 10
290.7255789803
 20
190.4368322811
  0
LINE
  5
24D
100
AcDbEntity
  8
0
100
AcDbLine
 62
7
  6
CONTINUOUS
 10
288.0315713765
 20
192.5539722059
 11
288.0420873885
 21
192.5431508167
  0
LWPOLYLINE
  5
24E
100
AcDbEntity
  8
0
100
AcDbPolyline
 62
7
  6
CONTINUOUS
 90
11
 70
0
 10
291.7084997863
 20
188.9211829091
 10
291.5976006343
 20
189.035624257
 10
291.490107728
 20
189.1559391951
 10
291.3860344139
 20
189.2822410205
 10
291.2853736404
 20
189.4144201012
 10
291.1894297291
 20
189.5507918915
 10
291.0982712024
 20
189.6914252407
 10
291.0118370602
 20
189.8362556707
 10
290.9312365963
 20
189.9833982093
 10
290.8568417288
 20
190.1322257796
 10
290.7882878424
 20
190.2833696902
  0
LINE
  5
24F
100
AcDbEntity
  8
0
100
AcDbLine
 62
7
  6
CONTINUOUS
 10
290.6810687392
 20
190.5111179561
 11
290.6697918012
 21
190.5232881507
  0
LINE
  5
250
100
AcDbEntity
  8
0
100
AcDbLine
 62
7
  6
CONTINUOUS
 10
290.69191904
 20
190.4976089503
 11
290.6810687392
 21
190.5111179561
  0
LWPOLYLINE
  5
251
100
AcDbEntity
  8
0
100
AcDbPolyline
 62
7
  6
CONTINUOUS
 90
3
 70
0
 10
288.0121632824
 20
192.5783755857
 10
288.0215480409
 20
192.5657964669
 10
288.0316414524
 20
192.5539178323
  0
LINE
  5
252
100
AcDbEntity
  8
0
100
AcDbLine
 62
7
  6
CONTINUOUS
 10
290.7018673719
 20
190.4833273667
 11
290.6919724109
 21
190.4975424321
  0
LINE
  5
253
100
AcDbEntity
  8
0
100
AcDbLine
 62
7
  6
CONTINUOUS
 10
290.7106711487
 20
190.4685997869
 11
290.701842746
 21
190.4833627443
  0
LWPOLYLINE
  5
254
100
AcDbEntity
  8
0
100
AcDbPolyline
 62
7
  6
CONTINUOUS
 90
3
 70
0
 10
287.9955668989
 20
192.6056397685
 10
288.0034455257
 20
192.5917487695
 10
288.0121405908
 20
192.5784081474
  0
LINE
  5
255
100
AcDbEntity
  8
0
100
AcDbLine
 62
7
  6
CONTINUOUS
 10
287.9885964668
 20
192.6199252031
 11
287.9957432684
 21
192.6053747593
  0
LWPOLYLINE
  5
256
100
AcDbEntity
  8
0
100
AcDbPolyline
 62
7
  6
CONTINUOUS
 90
3
 70
0
 10
290.7255789802
 20
190.4368322812
 10
290.7185832309
 20
190.4530917353
 10
290.7106711487
 20
190.4685997869
  0
LWPOLYLINE
  5
257
100
AcDbEntity
  8
0
100
AcDbPolyline
 62
7
  6
CONTINUOUS
 90
10
 70
0
 10
292.4308866924
 20
190.4357102796
 10
292.4271277591
 20
190.4827011071
 10
292.4270095619
 20
190.5283173516
 10
292.4305304989
 20
190.5711266801
 10
292.4377472593
 20
190.6109020808
 10
292.448602716
 20
190.6478703118
 10
292.4629239014
 20
190.6812793247
 10
292.4809172388
 20
190.7111989305
 10
292.5023755233
 20
190.7375588665
 10
292.5265047867
 20
190.7593966523
  0
LWPOLYLINE
  5
258
100
AcDbEntity
  8
0
100
AcDbPolyline
 62
7
  6
CONTINUOUS
 90
6
 70
0
 10
291.1340099481
 20
192.1421357345
 10
291.0682449807
 20
192.0536177169
 10
291.0482041132
 20
192.0322598115
 10
291.0261851017
 20
192.01378848
 10
291.0019911436
 20
191.9980977461
 10
290.9882818636
 20
191.9909090545
  0
LINE
  5
259
100
AcDbEntity
  8
0
100
AcDbLine
 62
7
  6
CONTINUOUS
 10
291.1386518107
 20
192.1476724949
 11
291.0863080675
 21
192.0778624053
  0
LINE
  5
25A
100
AcDbEntity
  8
0
100
AcDbLine
 62
7
  6
CONTINUOUS
 10
290.7255789802
 20
192.5446035328
 11
290.7882863577
 21
192.6262885654
  0
LINE
  5
25B
100
AcDbEntity
  8
0
100
AcDbLine
 62
7
  6
CONTINUOUS
 10
291.0863080675
 20
192.0778624053
 11
291.0629126694
 21
192.047665589
  0
LWPOLYLINE
  5
25C
100
AcDbEntity
  8
0
100
AcDbPolyline
 62
7
  6
CONTINUOUS
 90
5
 70
0
 10
290.7255789803
 20
192.5446035328
 10
290.7944910993
 20
192.6333942409
 10
290.8701799448
 20
192.7113361768
 10
290.9526401495
 20
192.7784262496
 10
290.9781499004
 20
192.7960616677
  0
LINE
  5
25D
100
AcDbEntity
  8
0
100
AcDbLine
 62
7
  6
CONTINUOUS
 10
291.196306663
 20
192.2090859402
 11
291.1386518107
 21
192.1476724949
  0
LINE
  5
25E
100
AcDbEntity
  8
0
100
AcDbLine
 62
7
  6
CONTINUOUS
 10
290.7882863577
 20
192.6262885654
 11
290.8568354803
 21
192.698937463
  0
LINE
  5
25F
100
AcDbEntity
  8
0
100
AcDbLine
 62
7
  6
CONTINUOUS
 10
291.0629126694
 20
192.047665589
 11
291.0367594037
 21
192.0221888527
  0
LINE
  5
260
100
AcDbEntity
  8
0
100
AcDbLine
 62
7
  6
CONTINUOUS
 10
290.8568354803
 20
192.698937463
 11
290.931222304
 21
192.7625478961
  0
LINE
  5
261
100
AcDbEntity
  8
0
100
AcDbLine
 62
7
  6
CONTINUOUS
 10
291.2592694127
 20
192.2621008901
 11
291.196306663
 21
192.2090859402
  0
LWPOLYLINE
  5
262
100
AcDbEntity
  8
0
100
AcDbPolyline
 62
7
  6
CONTINUOUS
 90
3
 70
0
 10
290.7113584066
 20
192.5303766448
 10
290.7186374348
 20
192.5363912059
 10
290.7255789802
 20
192.5446035328
  0
LINE
  5
263
100
AcDbEntity
  8
0
100
AcDbLine
 62
7
  6
CONTINUOUS
 10
291.0367594037
 20
192.0221888527
 11
291.0078474666
 21
192.0014317346
  0
LINE
  5
264
100
AcDbEntity
  8
0
100
AcDbLine
 62
7
  6
CONTINUOUS
 10
290.931222304
 20
192.7625478961
 11
290.9781663589
 21
192.7960343822
  0
LINE
  5
265
100
AcDbEntity
  8
0
100
AcDbLine
 62
7
  6
CONTINUOUS
 10
291.3279009963
 20
192.306895596
 11
291.2592694127
 21
192.2621008901
  0
LWPOLYLINE
  5
266
100
AcDbEntity
  8
0
100
AcDbPolyline
 62
7
  6
CONTINUOUS
 90
9
 70
0
 10
290.9781663589
 20
192.7960343822
 10
291.0118081675
 20
192.8173234013
 10
291.0982244268
 20
192.8630562392
 10
291.189371618
 20
192.8991269146
 10
291.2853184359
 20
192.9253923965
 10
291.3859886732
 20
192.9419914063
 10
291.4900647685
 20
192.9487266531
 10
291.5975442955
 20
192.945471398
 10
291.7084233809
 20
192.9323487733
  0
LWPOLYLINE
  5
267
100
AcDbEntity
  8
0
100
AcDbPolyline
 62
7
  6
CONTINUOUS
 90
9
 70
0
 10
290.9781499004
 20
192.7960616677
 10
291.0423376266
 20
192.8348844767
 10
291.1387968622
 20
192.8804853192
 10
291.2405998622
 20
192.9145570781
 10
291.3478199893
 20
192.9369267585
 10
291.4603743675
 20
192.9477619001
 10
291.5766098464
 20
192.9469011517
 10
291.6965762528
 20
192.9341699181
 10
291.8202163044
 20
192.9097385279
  0
LINE
  5
268
100
AcDbEntity
  8
0
100
AcDbLine
 62
250
  6
CONTINUOUS
 10
308.3806460079
 20
201.9265746789
 11
308.482504589
 21
201.9853930519
  0
LWPOLYLINE
  5
269
100
AcDbEntity
  8
0
100
AcDbPolyline
 62
7
  6
CONTINUOUS
 90
5
 70
0
 10
291.3629986965
 20
192.3255860261
 10
291.304599287
 20
192.292998392
 10
291.2430201601
 20
192.2496297662
 10
291.1862481279
 20
192.1993919915
 10
291.1340099481
 20
192.1421357345
  0
LINE
  5
26A
100
AcDbEntity
  8
0
100
AcDbLine
 62
7
  6
CONTINUOUS
 10
291.0078474666
 20
192.0014317346
 11
290.9883166315
 21
191.9908452473
  0
LINE
  5
26B
100
AcDbEntity
  8
0
100
AcDbLine
 62
7
  6
CONTINUOUS
 10
290.7019063534
 20
192.5253433912
 11
290.711352366
 21
192.5303865404
  0
LINE
  5
26C
100
AcDbEntity
  8
0
100
AcDbLine
 62
7
  6
CONTINUOUS
 10
291.3630154937
 20
192.3255552832
 11
291.3279009963
 21
192.306895596
  0
LWPOLYLINE
  5
26D
100
AcDbEntity
  8
0
100
AcDbPolyline
 62
250
  6
CONTINUOUS
 90
16
 70
0
 10
307.0692241977
 20
199.5707963348
 10
307.0302150638
 20
199.5529315329
 10
306.9879024314
 20
199.5374832142
 10
306.9427396597
 20
199.5246168997
 10
306.8952106457
 20
199.5144704457
 10
306.8458246395
 20
199.5071525666
 10
306.7951107879
 20
199.5027416698
 10
306.7436124651
 20
199.5012850159
 10
306.6918814504
 20
199.5027982124
 10
306.6404720163
 20
199.507265046
 10
306.5899349896
 20
199.5146376568
 10
306.54081185
 20
199.5248370508
 10
306.4936289279
 20
199.5377539467
 10
306.4488917651
 20
199.5532499462
 10
306.4070796985
 20
199.5711590171
 10
306.3686407238
 20
199.5912892727
  0
LINE
  5
26E
100
AcDbEntity
  8
0
100
AcDbLine
 62
7
  6
CONTINUOUS
 10
290.9882818636
 20
191.9909090545
 11
290.9758183975
 21
191.985293216
  0
LWPOLYLINE
  5
26F
100
AcDbEntity
  8
0
100
AcDbPolyline
 62
7
  6
CONTINUOUS
 90
3
 70
0
 10
291.4405167593
 20
192.358219176
 10
291.3707078409
 20
192.3293459872
 10
291.3629986965
 20
192.3255860261
  0
LWPOLYLINE
  5
270
100
AcDbEntity
  8
0
100
AcDbPolyline
 62
7
  6
CONTINUOUS
 90
11
 70
0
 10
290.9758183975
 20
191.985293216
 10
290.9482558536
 20
191.9756920049
 10
290.9194033112
 20
191.9693941543
 10
290.889160217
 20
191.9662991887
 10
290.857814947
 20
191.966423399
 10
290.8252236319
 20
191.9698262478
 10
290.7915295956
 20
191.9764479584
 10
290.7574520233
 20
191.9861259728
 10
290.7232305324
 20
191.9988060409
 10
290.6886251952
 20
192.014542234
 10
290.6536359353
 20
192.0333345081
  0
LWPOLYLINE
  5
271
100
AcDbEntity
  8
0
100
AcDbPolyline
 62
7
  6
CONTINUOUS
 90
9
 70
0
 10
290.9759075011
 20
191.9853053744
 10
290.9412074747
 20
191.9738978333
 10
290.9045525186
 20
191.9674740003
 10
290.8658961934
 20
191.966150284
 10
290.8252836761
 20
191.9698095492
 10
290.7836574604
 20
191.9783663336
 10
290.7413314452
 20
191.9917919969
 10
290.697990998
 20
192.0101147569
 10
290.6536359355
 20
192.033334508
  0
LWPOLYLINE
  5
272
100
AcDbEntity
  8
0
100
AcDbPolyline
 62
7
  6
CONTINUOUS
 90
4
 70
0
 10
290.6699032636
 20
192.5222747581
 10
290.6812280753
 20
192.5214690589
 10
290.6920562904
 20
192.522514253
 10
290.7019492869
 20
192.5253557226
  0
LWPOLYLINE
  5
273
100
AcDbEntity
  8
0
100
AcDbPolyline
 62
7
  6
CONTINUOUS
 90
6
 70
0
 10
291.8395042994
 20
192.3887491343
 10
291.7540367404
 20
192.3979625153
 10
291.6712958694
 20
192.3995269974
 10
291.5913172243
 20
192.3933478697
 10
291.5140690691
 20
192.3795220243
 10
291.4405167593
 20
192.358219176
  0
LINE
  5
274
100
AcDbEntity
  8
0
100
AcDbLine
 62
7
  6
CONTINUOUS
 10
290.658216319
 20
192.5249538864
 11
290.6698732844
 21
192.5222816263
  0
LINE
  5
275
100
AcDbEntity
  8
0
100
AcDbLine
 62
7
  6
CONTINUOUS
 10
288.0529812989
 20
193.532142348
 11
288.0420867655
 21
193.5349955052
  0
LWPOLYLINE
  5
276
100
AcDbEntity
  8
0
100
AcDbPolyline
 62
7
  6
CONTINUOUS
 90
3
 70
0
 10
290.6333874329
 20
192.5358515814
 10
290.6460560889
 20
192.5294751469
 10
290.6582280242
 20
192.5249495343
  0
LWPOLYLINE
  5
277
100
AcDbEntity
  8
0
100
AcDbPolyline
 62
7
  6
CONTINUOUS
 90
3
 70
0
 10
288.0754156941
 20
193.5219665627
 10
288.0639174154
 20
193.5278405277
 10
288.052798859
 20
193.5321852363
  0
LINE
  5
278
100
AcDbEntity
  8
0
100
AcDbLine
 62
7
  6
CONTINUOUS
 10
292.7972922297
 20
190.7646958926
 11
292.8368468373
 21
190.7441634917
  0
LINE
  5
279
100
AcDbEntity
  8
0
100
AcDbLine
 62
7
  6
CONTINUOUS
 10
288.0179862744
 20
194.0441298459
 11
288.0574887338
 21
194.0231432067
  0
LINE
  5
27A
100
AcDbEntity
  8
0
100
AcDbLine
 62
7
  6
CONTINUOUS
 10
290.6536359353
 20
192.0333345081
 11
288.0754156941
 21
193.5219665627
  0
LINE
  5
27B
100
AcDbEntity
  8
0
100
AcDbLine
 62
7
  6
CONTINUOUS
 10
290.6333874329
 20
192.5358515814
 11
288.0574887338
 21
194.0231432067
  0
LWPOLYLINE
  5
27C
100
AcDbEntity
  8
0
100
AcDbPolyline
 62
7
  6
CONTINUOUS
 90
15
 70
0
 10
292.8368468373
 20
190.7441634917
 10
292.8762805517
 20
190.7191109746
 10
292.9146916745
 20
190.6905640851
 10
292.9520803708
 20
190.6585229184
 10
292.9887768054
 20
190.6226204037
 10
293.0244514757
 20
190.5832239934
 10
293.0581151418
 20
190.5414356222
 10
293.0896835729
 20
190.49723869
 10
293.1192420974
 20
190.4506504297
 10
293.1460557356
 20
190.4028234797
 10
293.1700840127
 20
190.3536581326
 10
293.1913686357
 20
190.3032548068
 10
293.2092975734
 20
190.2530661429
 10
293.2237595693
 20
190.2031885738
 10
293.2348667674
 20
190.1535261793
  0
LWPOLYLINE
  5
27D
100
AcDbEntity
  8
0
100
AcDbPolyline
 62
7
  6
CONTINUOUS
 90
9
 70
0
 10
293.8876503579
 20
189.3356893294
 10
293.9096493574
 20
189.321278119
 10
293.9316547754
 20
189.3042248388
 10
293.9529393734
 20
189.2850642852
 10
293.9734910734
 20
189.2636950014
 10
293.9933222205
 20
189.2402185987
 10
294.0117422357
 20
189.2154744893
 10
294.0286715671
 20
189.1894563287
 10
294.0441901731
 20
189.1621706965
  0
LWPOLYLINE
  5
27E
100
AcDbEntity
  8
0
100
AcDbPolyline
 62
7
  6
CONTINUOUS
 90
12
 70
0
 10
293.8650523023
 20
190.0058897505
 10
293.8432339701
 20
190.0221568504
 10
293.8219012375
 20
190.0407912962
 10
293.8009282357
 20
190.061966691
 10
293.7804410957
 20
190.0855095827
 10
293.7612868986
 20
190.1106504308
 10
293.7434953343
 20
190.137607311
 10
293.727037191
 20
190.166162423
 10
293.7126711115
 20
190.1948923627
 10
293.700650046
 20
190.2233227019
 10
293.6907213831
 20
190.2519280639
 10
293.6828853236
 20
190.2807085643
  0
LWPOLYLINE
  5
27F
100
AcDbEntity
  8
0
100
AcDbPolyline
 62
7
  6
CONTINUOUS
 90
11
 70
0
 10
292.9134364316
 20
191.7255931349
 10
292.8283925379
 20
191.8152596942
 10
292.7416213404
 20
191.8993621675
 10
292.653099025
 20
191.9778305441
 10
292.562846851
 20
192.0507333704
 10
292.4719889129
 20
192.1171622401
 10
292.3805190326
 20
192.1770347089
 10
292.2884424784
 20
192.2304326999
 10
292.1969009223
 20
192.2766945911
 10
292.1059014964
 20
192.3157325279
 10
292.0154379384
 20
192.3476348633
  0
LWPOLYLINE
  5
280
100
AcDbEntity
  8
0
100
AcDbPolyline
 62
7
  6
CONTINUOUS
 90
4
 70
0
 10
290.975886023
 20
190.7053560597
 10
291.0078474814
 20
190.6524410635
 10
291.036759382
 20
190.5984241915
 10
291.0629126428
 20
190.5428916257
  0
LWPOLYLINE
  5
281
100
AcDbEntity
  8
0
100
AcDbPolyline
 62
7
  6
CONTINUOUS
 90
5
 70
0
 10
291.0020159881
 20
190.6624809143
 10
291.0261794716
 20
190.6189961546
 10
291.0481880476
 20
190.5752212142
 10
291.068230791
 20
190.5308370359
 10
291.1386518071
 20
190.356002255
  0
LWPOLYLINE
  5
282
100
AcDbEntity
  8
0
100
AcDbPolyline
 62
7
  6
CONTINUOUS
 90
27
 70
0
 10
291.1386518071
 20
190.356002255
 10
291.1963066571
 20
190.228447022
 10
291.2592694055
 20
190.1031762751
 10
291.3279009895
 20
189.9795901799
 10
291.4018347224
 20
189.8582852417
 10
291.4799756444
 20
189.7410539281
 10
291.5623833005
 20
189.6279547454
 10
291.6489923979
 20
189.5189258513
 10
291.7385202094
 20
189.4155788942
 10
291.8310077413
 20
189.3179968048
 10
291.9264094436
 20
189.2260940111
 10
292.023312818
 20
189.1412294428
 10
292.1217387771
 20
189.0635069218
 10
292.2216638711
 20
188.99282115
 10
292.3216095142
 20
188.9302176413
 10
292.4215757756
 20
188.8758165479
 10
292.5215625039
 20
188.8294976696
 10
292.6200913842
 20
188.7919463428
 10
292.7171416619
 20
188.7632936683
 10
292.8127364787
 20
188.7434099341
 10
292.9054638379
 20
188.7325895333
 10
292.995282963
 20
188.7309685263
 10
293.0822390655
 20
188.7384134308
 10
293.1650492255
 20
188.7548143796
 10
293.2436542297
 20
188.7803060967
 10
293.3181189913
 20
188.8147571669
 10
293.3713854968
 20
188.84669666
  0
LWPOLYLINE
  5
283
100
AcDbEntity
  8
0
100
AcDbPolyline
 62
7
  6
CONTINUOUS
 90
11
 70
0
 10
291.1340090859
 20
190.3668652271
 10
291.1862466637
 20
190.2496847549
 10
291.2430183548
 20
190.1343010004
 10
291.304597554
 20
190.0202451641
 10
291.3707064415
 20
189.9079834837
 10
291.4405154964
 20
189.7989169515
 10
291.5140674529
 20
189.6930864333
 10
291.5913150577
 20
189.5904484411
 10
291.6712933754
 20
189.492277184
 10
291.7540342395
 20
189.3986274905
 10
291.8395020148
 20
189.3094423228
  0
LINE
  5
284
100
AcDbEntity
  8
0
100
AcDbLine
 62
7
  6
CONTINUOUS
 10
291.0629126428
 20
190.5428916257
 11
291.0863080675
 21
190.4858438322
  0
LINE
  5
285
100
AcDbEntity
  8
0
100
AcDbLine
 62
7
  6
CONTINUOUS
 10
292.4383796227
 20
190.3874337216
 11
292.4306823898
 21
190.4374465804
  0
LWPOLYLINE
  5
286
100
AcDbEntity
  8
0
100
AcDbPolyline
 62
7
  6
CONTINUOUS
 90
8
 70
0
 10
294.093371371
 20
190.164475232
 10
294.0966183656
 20
190.1344717127
 10
294.0970282099
 20
190.1062368273
 10
294.0945310143
 20
190.0794384127
 10
294.0891966669
 20
190.0544086312
 10
294.0812346135
 20
190.0321438443
 10
294.0705382312
 20
190.0127556217
 10
294.0572137225
 20
189.9961321518
  0
LWPOLYLINE
  5
287
100
AcDbEntity
  8
0
100
AcDbPolyline
 62
7
  6
CONTINUOUS
 90
11
 70
0
 10
293.2423417256
 20
190.1052427754
 10
293.246091504
 20
190.0582489531
 10
293.2462094779
 20
190.0126343735
 10
293.2426969952
 20
189.9698310638
 10
293.2354967438
 20
189.9300654015
 10
293.2246655982
 20
189.8931107572
 10
293.2103755441
 20
189.8597192769
 10
293.1924196381
 20
189.8298211469
 10
293.1710040418
 20
189.8034857299
 10
293.1469198408
 20
189.781673613
 10
293.1202621461
 20
189.7646376584
  0
LINE
  5
288
100
AcDbEntity
  8
0
100
AcDbLine
 62
7
  6
CONTINUOUS
 10
293.2425487937
 20
189.9687140854
 11
293.2351521726
 21
189.9288918504
  0
LINE
  5
289
100
AcDbEntity
  8
0
100
AcDbLine
 62
7
  6
CONTINUOUS
 10
292.4306787777
 20
190.5722418531
 11
292.4380921347
 21
190.6120737532
  0
LWPOLYLINE
  5
28A
100
AcDbEntity
  8
0
100
AcDbPolyline
 62
7
  6
CONTINUOUS
 90
3
 70
0
 10
292.502733071
 20
190.7381035438
 10
292.5267717162
 20
190.7595985553
 10
292.5361726673
 20
190.7662525561
  0
LINE
  5
28B
100
AcDbEntity
  8
0
100
AcDbLine
 62
7
  6
CONTINUOUS
 10
292.5265047867
 20
190.7593966523
 11
292.536147325
 21
190.7662943817
  0
LWPOLYLINE
  5
28C
100
AcDbEntity
  8
0
100
AcDbPolyline
 62
250
  6
CONTINUOUS
 90
22
 70
0
 10
307.384579117
 20
201.3370455135
 10
307.3085986064
 20
201.286549292
 10
307.2338935579
 20
201.2307580733
 10
307.1608109656
 20
201.1700856604
 10
307.0898756363
 20
201.1051545438
 10
307.0211784096
 20
201.0362257398
 10
306.954428071
 20
200.963068337
 10
306.8897326112
 20
200.8857666468
 10
306.8276195713
 20
200.804915981
 10
306.7684514455
 20
200.7209758965
 10
306.712662789
 20
200.6346126043
 10
306.660328077
 20
200.5459931599
 10
306.611322211
 20
200.4548058793
 10
306.5658577488
 20
200.3612280126
 10
306.5243660369
 20
200.2659054716
 10
306.4871308588
 20
200.1692179713
 10
306.4544076623
 20
200.0715125618
 10
306.426530546
 20
199.9734259933
 10
306.4038371957
 20
199.8757995114
 10
306.3865353684
 20
199.7792649518
 10
306.3747577645
 20
199.6842493901
 10
306.3686407238
 20
199.5912892727
  0
LWPOLYLINE
  5
28D
100
AcDbEntity
  8
0
100
AcDbPolyline
 62
250
  6
CONTINUOUS
 90
22
 70
0
 10
307.750411857
 20
200.7323846752
 10
307.6991044773
 20
200.6984190677
 10
307.6490922663
 20
200.6614819844
 10
307.6003752241
 20
200.6215734251
 10
307.5528783068
 20
200.5785706296
 10
307.5066765581
 20
200.5325963581
 10
307.4619951097
 20
200.4840188918
 10
307.4186993993
 20
200.4326901297
 10
307.376923989
 20
200.3787581727
 10
307.3372976963
 20
200.3230356052
 10
307.2999285367
 20
200.2656785754
 10
307.2647084946
 20
200.2065309349
 10
307.2319423403
 20
200.1459368227
 10
307.2015340034
 20
200.0837254927
 10
307.1735795542
 20
200.0200676909
 10
307.1486719743
 20
199.9558197957
 10
307.1268301281
 20
199.8908545583
 10
307.1080351511
 20
199.8252992274
 10
307.0928234308
 20
199.7603919271
 10
307.0813737631
 20
199.6965453657
 10
307.0735073521
 20
199.6333468349
 10
307.0692241977
 20
199.5707963348
  0
LINE
  5
28E
100
AcDbEntity
  8
0
100
AcDbLine
 62
250
  6
CONTINUOUS
 10
308.360712842
 20
201.9393705793
 11
307.384579117
 21
201.3370455135
  0
LINE
  5
28F
100
AcDbEntity
  8
0
100
AcDbLine
 62
250
  6
CONTINUOUS
 10
308.7139971079
 20
201.3269666825
 11
307.750411857
 21
200.7323846752
  0
LWPOLYLINE
  5
290
100
AcDbEntity
  8
0
100
AcDbPolyline
 62
7
  6
CONTINUOUS
 90
9
 70
0
 10
292.536147325
 20
190.7662943817
 10
292.553208215
 20
190.7764581639
 10
292.5825812835
 20
190.7889967531
 10
292.6141181042
 20
190.7968109489
 10
292.6480530812
 20
190.79982974
 10
292.6841507429
 20
190.7981235224
 10
292.7212003271
 20
190.7917029018
 10
292.7587979861
 20
190.7805712638
 10
292.7973468794
 20
190.7647248263
  0
LINE
  5
291
100
AcDbEntity
  8
0
100
AcDbLine
 62
7
  6
CONTINUOUS
 10
292.5361726673
 20
190.7662525561
 11
292.553673147
 21
190.7765699799
  0
LINE
  5
292
100
AcDbEntity
  8
0
100
AcDbLine
 62
250
  6
CONTINUOUS
 10
308.7128547227
 20
201.3511196562
 11
308.8147361012
 21
201.4099511935
  0
LINE
  5
293
100
AcDbEntity
  8
0
100
AcDbLine
 62
7
  6
CONTINUOUS
 10
288.0215509825
 20
193.5360686726
 11
288.0121400643
 21
193.5342768011
  0
LWPOLYLINE
  5
294
100
AcDbEntity
  8
0
100
AcDbPolyline
 62
7
  6
CONTINUOUS
 90
3
 70
0
 10
288.0420600423
 20
193.5350006983
 10
288.0315901555
 20
193.5362830795
 10
288.0215000773
 20
193.5360362538
  0
LWPOLYLINE
  5
295
100
AcDbEntity
  8
0
100
AcDbPolyline
 62
7
  6
CONTINUOUS
 90
12
 70
0
 10
291.8213822503
 20
192.9095362731
 10
291.9457163222
 20
192.8739630956
 10
292.0731012213
 20
192.8266752978
 10
292.2023419917
 20
192.7680411171
 10
292.3315448383
 20
192.6989185685
 10
292.4607087819
 20
192.6191531745
 10
292.5898347825
 20
192.5288994016
 10
292.7170329519
 20
192.4294792501
 10
292.8422768052
 20
192.3207586299
 10
292.9655968874
 20
192.202873952
 10
293.08518963
 20
192.0775534111
 10
293.2010035669
 20
191.94468936
  0
LWPOLYLINE
  5
296
100
AcDbEntity
  8
0
100
AcDbPolyline
 62
7
  6
CONTINUOUS
 90
11
 70
0
 10
291.9364835673
 20
192.8769024981
 10
292.0536605727
 20
192.8345765058
 10
292.1713998049
 20
192.7831267319
 10
292.2896586799
 20
192.7224642247
 10
292.4084784372
 20
192.6526771678
 10
292.5264720331
 20
192.5746000899
 10
292.6436455884
 20
192.4881357586
 10
292.7599945762
 20
192.3933823171
 10
292.8741166523
 20
192.2914677418
 10
292.9860189993
 20
192.1822669693
 10
293.0956987473
 20
192.0659075289
  0
LWPOLYLINE
  5
297
100
AcDbEntity
  8
0
100
AcDbPolyline
 62
7
  6
CONTINUOUS
 90
11
 70
0
 10
293.2017388643
 20
191.9438965109
 10
293.3130975947
 20
191.8043936984
 10
293.4198338327
 20
191.6587240256
 10
293.5211377558
 20
191.5076036122
 10
293.6170933921
 20
191.3511146367
 10
293.706299902
 20
191.1915526122
 10
293.7886624151
 20
191.0288745126
 10
293.8642857169
 20
190.8631290656
 10
293.9320665937
 20
190.6967483545
 10
293.9916395311
 20
190.5305443595
 10
294.0433782459
 20
190.3637098377
  0
LWPOLYLINE
  5
298
100
AcDbEntity
  8
0
100
AcDbPolyline
 62
7
  6
CONTINUOUS
 90
11
 70
0
 10
293.3040577843
 20
191.8162093818
 10
293.4027434257
 20
191.6828743124
 10
293.4966328868
 20
191.5454773951
 10
293.5856819233
 20
191.4039714002
 10
293.6699422956
 20
191.2584078699
 10
293.748394417
 20
191.1105206621
 10
293.8209969038
 20
190.9602123709
 10
293.8877987983
 20
190.8075848088
 10
293.9479146718
 20
190.6546698138
 10
294.0010510094
 20
190.5021456079
 10
294.0475074232
 20
190.3493374926
  0
LWPOLYLINE
  5
299
100
AcDbEntity
  8
0
100
AcDbPolyline
 62
7
  6
CONTINUOUS
 90
8
 70
0
 10
294.0578466777
 20
189.134476356
 10
294.0705416094
 20
189.1037814967
 10
294.0812365406
 20
189.0721019767
 10
294.0891976994
 20
189.0407099496
 10
294.0945314258
 20
189.0095942644
 10
294.0970282136
 20
188.9799897326
 10
294.0966181546
 20
188.952307916
 10
294.0933711588
 20
188.9261372541
  0
LWPOLYLINE
  5
29A
100
AcDbEntity
  8
0
100
AcDbPolyline
 62
7
  6
CONTINUOUS
 90
9
 70
0
 10
294.069586104
 20
189.1063609481
 10
294.0794638225
 20
189.0778370596
 10
294.0871938243
 20
189.0498007836
 10
294.0927036227
 20
189.0222597061
 10
294.0960659383
 20
188.9952063768
 10
294.0972123398
 20
188.9695141992
 10
294.0961199493
 20
188.9454742686
 10
294.09281159
 20
188.9227954581
 10
294.0872872492
 20
188.9014777604
  0
LWPOLYLINE
  5
29B
100
AcDbEntity
  8
0
100
AcDbPolyline
 62
7
  6
CONTINUOUS
 90
11
 70
0
 10
293.6520855122
 20
190.3990048915
 10
293.6160986149
 20
190.5170822263
 10
293.5749226329
 20
190.6349394127
 10
293.5283351204
 20
190.7530871303
 10
293.4765548675
 20
190.8710125874
 10
293.4202411866
 20
190.987179111
 10
293.359339949
 20
191.1015407046
 10
293.2939007257
 20
191.2141407401
 10
293.2247374801
 20
191.3235760825
 10
293.1518028515
 20
191.4298037107
 10
293.0751396783
 20
191.5328640473
  0
LWPOLYLINE
  5
29C
100
AcDbEntity
  8
0
100
AcDbPolyline
 62
7
  6
CONTINUOUS
 90
30
 70
0
 10
293.6828853236
 20
190.2807085643
 10
293.6488557621
 20
190.4102151662
 10
293.6087389394
 20
190.5392245056
 10
293.5625321421
 20
190.6677350137
 10
293.5099439669
 20
190.7963767755
 10
293.4512608858
 20
190.9245168582
 10
293.3873463231
 20
191.0502587805
 10
293.3181190028
 20
191.1735651364
 10
293.243654242
 20
191.2944699022
 10
293.1650492384
 20
191.4111830309
 10
293.0822390787
 20
191.5236405285
 10
292.9952829764
 20
191.6319031155
 10
292.90546385
 20
191.7343675491
 10
292.8127364868
 20
191.8309462128
 10
292.7171416646
 20
191.9217241799
 10
292.6200913825
 20
192.0053572974
 10
292.5215624995
 20
192.0817384169
 10
292.4215757694
 20
192.1509733192
 10
292.3216095076
 20
192.2120375167
 10
292.2216638665
 20
192.2648092664
 10
292.121738776
 20
192.3094103585
 10
292.02331282
 20
192.3451819498
 10
291.9264094478
 20
192.3719931993
 10
291.8310077472
 20
192.3899764016
 10
291.7385202164
 20
192.3988676788
 10
291.6489924044
 20
192.3985328983
 10
291.5623833057
 20
192.3891087984
 10
291.4799756488
 20
192.3707378445
 10
291.4018347278
 20
192.3432884966
 10
291.3630154937
 20
192.3255552832
  0
LINE
  5
29D
100
AcDbEntity
  8
0
100
AcDbLine
 62
7
  6
CONTINUOUS
 10
294.0433782459
 20
190.3637098377
 11
294.0872872492
 21
190.1962473982
  0
LWPOLYLINE
  5
29E
100
AcDbEntity
  8
0
100
AcDbPolyline
 62
7
  6
CONTINUOUS
 90
10
 70
0
 10
294.0872872492
 20
190.1962473982
 10
294.0928310181
 20
190.1685386777
 10
294.0961393714
 20
190.1419692654
 10
294.0972123332
 20
190.1165391751
 10
294.0960397829
 20
190.0919560584
 10
294.0926319213
 20
190.0685123101
 10
294.0870191103
 20
190.0470849769
 10
294.0790763727
 20
190.0277473336
 10
294.0689284569
 20
190.0104259737
 10
294.0569800445
 20
189.9957777673
  0
LINE
  5
29F
100
AcDbEntity
  8
0
100
AcDbLine
 62
7
  6
CONTINUOUS
 10
294.0872872492
 20
190.1962473982
 11
294.0932730631
 21
190.1649886104
  0
LINE
  5
2A0
100
AcDbEntity
  8
0
100
AcDbLine
 62
7
  6
CONTINUOUS
 10
293.2348667674
 20
190.1535261793
 11
293.2425451908
 21
190.1035093112
  0
LINE
  5
2A1
100
AcDbEntity
  8
0
100
AcDbLine
 62
7
  6
CONTINUOUS
 10
294.0933711588
 20
188.9261372541
 11
294.0872872492
 21
188.9014777604
  0
LWPOLYLINE
  5
2A2
100
AcDbEntity
  8
0
100
AcDbPolyline
 62
7
  6
CONTINUOUS
 90
9
 70
0
 10
294.0872872492
 20
188.9014777604
 10
294.0433781777
 20
188.785219495
 10
293.9916394084
 20
188.6787057464
 10
293.9320664302
 20
188.5819339142
 10
293.8642855263
 20
188.4945217525
 10
293.788662211
 20
188.4168467728
 10
293.7062996976
 20
188.3500453544
 10
293.6170932061
 20
188.2942746942
 10
293.586934283
 20
188.2786324835
  0
LWPOLYLINE
  5
2A3
100
AcDbEntity
  8
0
100
AcDbPolyline
 62
7
  6
CONTINUOUS
 90
3
 70
0
 10
293.6828853236
 20
189.2835919947
 10
293.690773443
 20
189.3033498293
 10
293.7007568153
 20
189.3204942098
  0
LWPOLYLINE
  5
2A4
100
AcDbEntity
  8
0
100
AcDbPolyline
 62
7
  6
CONTINUOUS
 90
5
 70
0
 10
293.6828853236
 20
189.2835919947
 10
293.6920129733
 20
189.3053960054
 10
293.7033959654
 20
189.3238984813
 10
293.7170339799
 20
189.3390992371
 10
293.7294766167
 20
189.3487917502
  0
LWPOLYLINE
  5
2A5
100
AcDbEntity
  8
0
100
AcDbPolyline
 62
7
  6
CONTINUOUS
 90
3
 70
0
 10
294.0474915113
 20
188.7947484598
 10
294.0010214814
 20
188.6960837026
 10
293.9478738149
 20
188.6054815618
  0
LINE
  5
2A6
100
AcDbEntity
  8
0
100
AcDbLine
 62
7
  6
CONTINUOUS
 10
293.6160971612
 20
189.1249175604
 11
293.652084731
 21
189.2011309595
  0
LINE
  5
2A7
100
AcDbEntity
  8
0
100
AcDbLine
 62
7
  6
CONTINUOUS
 10
293.574920615
 20
189.0549506447
 11
293.6160971612
 21
189.1249175604
  0
LWPOLYLINE
  5
2A8
100
AcDbEntity
  8
0
100
AcDbPolyline
 62
7
  6
CONTINUOUS
 90
6
 70
0
 10
293.9478738149
 20
188.6054815618
 10
293.8877482781
 20
188.5226107418
 10
293.820938991
 20
188.4477990111
 10
293.7483332187
 20
188.3820325005
 10
293.6698842581
 20
188.3254591251
 10
293.5869610006
 20
188.2785840554
  0
LINE
  5
2A9
100
AcDbEntity
  8
0
100
AcDbLine
 62
7
  6
CONTINUOUS
 10
293.5283326882
 20
188.9909737251
 11
293.574920615
 21
189.0549506447
  0
LINE
  5
2AA
100
AcDbEntity
  8
0
100
AcDbLine
 62
7
  6
CONTINUOUS
 10
293.7007568153
 20
189.3204942098
 11
293.7128352351
 21
189.3350250172
  0
LINE
  5
2AB
100
AcDbEntity
  8
0
100
AcDbLine
 62
7
  6
CONTINUOUS
 10
293.4765521287
 20
188.9332411794
 11
293.5283326882
 21
188.9909737251
  0
LINE
  5
2AC
100
AcDbEntity
  8
0
100
AcDbLine
 62
7
  6
CONTINUOUS
 10
293.4202381236
 20
188.8825178366
 11
293.4765521287
 21
188.9332411794
  0
LINE
  5
2AD
100
AcDbEntity
  8
0
100
AcDbLine
 62
7
  6
CONTINUOUS
 10
293.1706450451
 20
189.8029393078
 11
293.1466502687
 21
189.7814696221
  0
LINE
  5
2AE
100
AcDbEntity
  8
0
100
AcDbLine
 62
7
  6
CONTINUOUS
 10
294.0569800445
 20
189.9957777673
 11
294.0417894401
 21
189.9829345317
  0
LINE
  5
2AF
100
AcDbEntity
  8
0
100
AcDbLine
 62
7
  6
CONTINUOUS
 10
293.7128352351
 20
189.3350250172
 11
293.7263880631
 21
189.3463858416
  0
LINE
  5
2B0
100
AcDbEntity
  8
0
100
AcDbLine
 62
7
  6
CONTINUOUS
 10
293.3713684437
 20
188.8467247131
 11
293.4202381236
 21
188.8825178366
  0
LWPOLYLINE
  5
2B1
100
AcDbEntity
  8
0
100
AcDbPolyline
 62
7
  6
CONTINUOUS
 90
8
 70
0
 10
293.3713854968
 20
188.84669666
 10
293.3873463125
 20
188.8576582394
 10
293.4512608758
 20
188.9091364944
 10
293.5099439575
 20
188.9690682032
 10
293.562532134
 20
189.0365670024
 10
293.6087389334
 20
189.1113382079
 10
293.6488557588
 20
189.1936793505
 10
293.6828853236
 20
189.2835919947
  0
LINE
  5
2B2
100
AcDbEntity
  8
0
100
AcDbLine
 62
7
  6
CONTINUOUS
 10
293.7272630034
 20
189.347119271
 11
293.7295499768
 21
189.3486705118
  0
LINE
  5
2B3
100
AcDbEntity
  8
0
100
AcDbLine
 62
7
  6
CONTINUOUS
 10
293.1466502687
 20
189.7814696221
 11
293.1197938177
 21
189.7645241596
  0
LINE
  5
2B4
100
AcDbEntity
  8
0
100
AcDbLine
 62
7
  6
CONTINUOUS
 10
293.7294766167
 20
189.3487917502
 11
293.7331705813
 21
189.3511144574
  0
LINE
  5
2B5
100
AcDbEntity
  8
0
100
AcDbLine
 62
7
  6
CONTINUOUS
 10
294.0432270928
 20
189.9839511064
 11
294.0292286286
 21
189.975552106
  0
LINE
  5
2B6
100
AcDbEntity
  8
0
100
AcDbLine
 62
7
  6
CONTINUOUS
 10
294.0417894401
 20
189.9829345317
 11
294.0292075779
 21
189.9755906968
  0
LWPOLYLINE
  5
2B7
100
AcDbEntity
  8
0
100
AcDbPolyline
 62
7
  6
CONTINUOUS
 90
3
 70
0
 10
293.7295499768
 20
189.3486705118
 10
293.7437854723
 20
189.356599751
 10
293.7616389151
 20
189.3629349221
  0
LINE
  5
2B8
100
AcDbEntity
  8
0
100
AcDbLine
 62
7
  6
CONTINUOUS
 10
293.1202621461
 20
189.7646376584
 11
293.1158239118
 21
189.7623698204
  0
LWPOLYLINE
  5
2B9
100
AcDbEntity
  8
0
100
AcDbPolyline
 62
7
  6
CONTINUOUS
 90
16
 70
0
 10
293.7331705813
 20
189.3511144574
 10
293.7515616627
 20
189.3598276435
 10
293.7714753403
 20
189.3648895531
 10
293.7929720164
 20
189.3661517682
 10
293.815990747
 20
189.3637623935
 10
293.8396175791
 20
189.3578169412
 10
293.8638761934
 20
189.3481728818
 10
293.8887426593
 20
189.3349726004
 10
293.9132316758
 20
189.3187390215
 10
293.9373289231
 20
189.2993497431
 10
293.9610488798
 20
189.2769272592
 10
293.9834495233
 20
189.252361885
 10
294.004477775
 20
189.2255673529
 10
294.0241872067
 20
189.1966302159
 10
294.041795755
 20
189.1667000111
 10
294.0572188257
 20
189.1357371152
  0
LWPOLYLINE
  5
2BA
100
AcDbEntity
  8
0
100
AcDbPolyline
 62
7
  6
CONTINUOUS
 90
19
 70
0
 10
294.0292075779
 20
189.9755906968
 10
294.0241806069
 20
189.9733007851
 10
294.0044714032
 20
189.9670925447
 10
293.9834434382
 20
189.9645562178
 10
293.9610429982
 20
189.9658395444
 10
293.9373233037
 20
189.9707945003
 10
293.9132263493
 20
189.9792238376
 10
293.8887376574
 20
189.9912667242
 10
293.8638715466
 20
190.0067839004
 10
293.8396132876
 20
190.0251605241
 10
293.8159867812
 20
190.046511816
 10
293.7929683763
 20
190.0707226993
 10
293.771472084
 20
190.0968329238
 10
293.7515588813
 20
190.1249210082
 10
293.733168333
 20
190.1549087462
 10
293.7170322804
 20
190.1856007701
 10
293.7033948166
 20
190.2165987083
 10
293.692012391
 20
190.2483012449
 10
293.6828853236
 20
190.2807085643
  0
LWPOLYLINE
  5
2BB
100
AcDbEntity
  8
0
100
AcDbPolyline
 62
7
  6
CONTINUOUS
 90
5
 70
0
 10
293.586934283
 20
188.2786324835
 10
293.5211376014
 20
188.2493718473
 10
293.4198337066
 20
188.2159918966
 10
293.3130974854
 20
188.1943014966
 10
293.201003471
 20
188.1841284681
  0
LWPOLYLINE
  5
2BC
100
AcDbEntity
  8
0
100
AcDbPolyline
 62
7
  6
CONTINUOUS
 90
4
 70
0
 10
293.5869610006
 20
188.2785840554
 10
293.4965882923
 20
188.2399695762
 10
293.4027010137
 20
188.2116882274
 10
293.3040164793
 20
188.1929781583
  0
LWPOLYLINE
  5
2BD
100
AcDbEntity
  8
0
100
AcDbPolyline
 62
7
  6
CONTINUOUS
 90
3
 70
0
 10
293.1158239118
 20
189.7623698204
 10
293.0909345082
 20
189.7521242305
 10
293.0594403167
 20
189.7443339651
  0
LWPOLYLINE
  5
2BE
100
AcDbEntity
  8
0
100
AcDbPolyline
 62
7
  6
CONTINUOUS
 90
8
 70
0
 10
294.0292286286
 20
189.975552106
 10
294.0107343681
 20
189.9685277056
 10
293.9923251069
 20
189.9651996982
 10
293.9725305018
 20
189.9647555838
 10
293.952022344
 20
189.9672336883
 10
293.9307809797
 20
189.972748628
 10
293.9088258023
 20
189.9811856365
 10
293.8868871987
 20
189.9922389798
  0
LWPOLYLINE
  5
2BF
100
AcDbEntity
  8
0
100
AcDbPolyline
 62
250
  6
CONTINUOUS
 90
22
 70
0
 10
307.0692241977
 20
166.0270852138
 10
307.0733683891
 20
165.9711187923
 10
307.0807813619
 20
165.9184023276
 10
307.091463116
 20
165.8689358197
 10
307.1054839869
 20
165.8226723646
 10
307.1227736391
 20
165.7796588664
 10
307.143121067
 20
165.7400360371
 10
307.1665891569
 20
165.7036854156
 10
307.1931150224
 20
165.670725463
 10
307.2222989994
 20
165.6416522748
 10
307.2540579057
 20
165.6165430233
 10
307.2884749235
 20
165.5953205361
 10
307.3253999347
 20
165.578249392
 10
307.3649351241
 20
165.5652763053
 10
307.4069783071
 20
165.5564545615
 10
307.4510728119
 20
165.5522085959
 10
307.4973402075
 20
165.5526260922
 10
307.5456589249
 20
165.5576193666
 10
307.5952075864
 20
165.5673498028
 10
307.6457123992
 20
165.5818711953
 10
307.6974471561
 20
165.6011297496
 10
307.750411857
 20
165.6251254657
  0
LWPOLYLINE
  5
2C0
100
AcDbEntity
  8
0
100
AcDbPolyline
 62
250
  6
CONTINUOUS
 90
12
 70
0
 10
306.3686407238
 20
166.0140008633
 10
306.3744866458
 20
165.9305069013
 10
306.3856027746
 20
165.8513693708
 10
306.4018083895
 20
165.7768868868
 10
306.4228354362
 20
165.7075141594
 10
306.4485020671
 20
165.6432534307
 10
306.4788521088
 20
165.583793115
 10
306.5138713918
 20
165.52925149
 10
306.5533107806
 20
165.480095647
 10
306.5969399153
 20
165.436609571
 10
306.6444009118
 20
165.3990925316
 10
306.681521253
 20
165.3754226921
  0
LWPOLYLINE
  5
2C1
100
AcDbEntity
  8
0
100
AcDbPolyline
 62
250
  6
CONTINUOUS
 90
6
 70
0
 10
308.814738434
 20
166.3999631169
 10
308.8167080022
 20
166.3685119293
 10
308.8151971897
 20
166.3390910857
 10
308.8102973883
 20
166.3118747827
 10
308.8020811212
 20
166.2868969836
 10
308.7956065384
 20
166.2730752799
  0
LWPOLYLINE
  5
2C2
100
AcDbEntity
  8
0
100
AcDbPolyline
 62
250
  6
CONTINUOUS
 90
6
 70
0
 10
306.7912517181
 20
177.7195205294
 10
306.819190659
 20
175.5401284849
 10
306.8606273673
 20
173.2850181071
 10
306.9166618767
 20
170.941425476
 10
306.9861941535
 20
168.5221145115
 10
307.0692241977
 20
166.0270852138
  0
LWPOLYLINE
  5
2C3
100
AcDbEntity
  8
0
100
AcDbPolyline
 62
250
  6
CONTINUOUS
 90
11
 70
0
 10
307.0692241977
 20
199.5707963348
 10
306.9903232937
 20
197.1326011486
 10
306.9235793059
 20
194.7717052636
 10
306.8689922343
 20
192.4881086797
 10
306.8274233604
 20
190.30211986
 10
306.7980114027
 20
188.1934303414
 10
306.7781725167
 20
186.1011147351
 10
306.7668372225
 20
184.0227980732
 10
306.7650749998
 20
181.9608553236
 10
306.7735104435
 20
179.8614860007
 10
306.7912517181
 20
177.7195205294
  0
LWPOLYLINE
  5
2C4
100
AcDbEntity
  8
0
100
AcDbPolyline
 62
250
  6
CONTINUOUS
 90
16
 70
0
 10
306.3686407238
 20
199.5912892727
 10
306.2879683704
 20
197.149842868
 10
306.2215079305
 20
194.7867463595
 10
306.1682117665
 20
192.5015098548
 10
306.1274010516
 20
190.3137453316
 10
306.0975754555
 20
188.2027734566
 10
306.077302698
 20
186.1081216224
 10
306.0664119191
 20
184.0279710282
 10
306.064795858
 20
181.9640904394
 10
306.0726360381
 20
179.8622469671
 10
306.090545145
 20
177.7182223013
 10
306.1191241649
 20
175.5370612359
 10
306.1598386699
 20
173.2791968864
 10
306.2142574405
 20
170.9321411416
 10
306.2834221894
 20
168.5101114651
 10
306.3686407238
 20
166.0140008633
  0
LINE
  5
2C5
100
AcDbEntity
  8
0
100
AcDbLine
 62
250
  6
CONTINUOUS
 10
275.6338920695
 20
217.3371479488
 11
306.3686407238
 21
199.5912892727
  0
LWPOLYLINE
  5
2C6
100
AcDbEntity
  8
0
100
AcDbPolyline
 62
250
  6
CONTINUOUS
 90
16
 70
0
 10
307.750411857
 20
200.7323846752
 10
307.7465452666
 20
200.7750131857
 10
307.738920073
 20
200.8194478597
 10
307.7276196975
 20
200.8652024471
 10
307.7127677795
 20
200.9117762514
 10
307.6945268283
 20
200.9586596001
 10
307.6730964481
 20
201.0053394217
 10
307.6487111427
 20
201.0513048792
 10
307.621637757
 20
201.0960529426
 10
307.5921725672
 20
201.1390938861
 10
307.5606380155
 20
201.1799566826
 10
307.5273791958
 20
201.2181941345
 10
307.492760092
 20
201.2533877557
 10
307.457159566
 20
201.2851523862
 10
307.4209672088
 20
201.3131404019
 10
307.3845790965
 20
201.3370455008
  0
LWPOLYLINE
  5
2C7
100
AcDbEntity
  8
0
100
AcDbPolyline
 62
7
  6
CONTINUOUS
 90
15
 70
0
 10
308.8428437625
 20
201.483132665
 10
308.8414859364
 20
201.5200903417
 10
308.8367385251
 20
201.5619631494
 10
308.8284470502
 20
201.6045807425
 10
308.8167244125
 20
201.6469462539
 10
308.8015049163
 20
201.689099839
 10
308.782765288
 20
201.7308004259
 10
308.7610251421
 20
201.7707845438
 10
308.736425569
 20
201.8089469253
 10
308.7090103063
 20
201.8451487839
 10
308.679613997
 20
201.878400555
 10
308.64849701
 20
201.9086121629
 10
308.6156837113
 20
201.9358554288
 10
308.5819478896
 20
201.9596679991
 10
308.5599307712
 20
201.9731516709
  0
LINE
  5
2C8
100
AcDbEntity
  8
0
100
AcDbLine
 62
7
  6
CONTINUOUS
 10
308.7139971079
 20
166.1050886259
 11
308.7139971079
 21
201.3269666825
  0
LINE
  5
2C9
100
AcDbEntity
  8
0
100
AcDbLine
 62
250
  6
CONTINUOUS
 10
308.8147361012
 20
201.4099511935
 11
308.8147361012
 21
166.3999586871
  0
LINE
  5
2CA
100
AcDbEntity
  8
0
100
AcDbLine
 62
7
  6
CONTINUOUS
 10
308.8428437651
 20
201.4831555398
 11
308.8428437651
 21
166.4731630334
  0
LWPOLYLINE
  5
2CB
100
AcDbEntity
  8
0
100
AcDbPolyline
 62
250
  6
CONTINUOUS
 90
5
 70
0
 10
308.8428437625
 20
201.4831327651
 10
308.8427168502
 20
201.4781175942
 10
308.8387773169
 20
201.4547322793
 10
308.829392845
 20
201.4318699295
 10
308.8147361012
 20
201.4099511935
  0
LWPOLYLINE
  5
2CC
100
AcDbEntity
  8
0
100
AcDbPolyline
 62
250
  6
CONTINUOUS
 90
5
 70
0
 10
308.4825071874
 20
201.9853945523
 10
308.524384558
 20
201.96352777
 10
308.5637498511
 20
201.9381142059
 10
308.6003504198
 20
201.909750391
 10
308.6341044063
 20
201.8789669093
  0
LWPOLYLINE
  5
2CD
100
AcDbEntity
  8
0
100
AcDbPolyline
 62
250
  6
CONTINUOUS
 90
5
 70
0
 10
308.5599308716
 20
201.973151613
 10
308.5555258642
 20
201.9755480333
 10
308.5333050062
 20
201.9838269541
 10
308.5088143832
 20
201.9871289003
 10
308.482504589
 20
201.9853930519
  0
LWPOLYLINE
  5
2CE
100
AcDbEntity
  8
0
100
AcDbPolyline
 62
250
  6
CONTINUOUS
 90
5
 70
0
 10
277.9527111027
 20
219.6453767149
 10
277.9482776893
 20
219.6477894738
 10
277.9260569507
 20
219.6560681354
 10
277.9015666145
 20
219.6593699099
 10
277.8752572834
 20
219.6576340473
  0
LINE
  5
2CF
100
AcDbEntity
  8
0
100
AcDbLine
 62
250
  6
CONTINUOUS
 10
276.6264580795
 20
219.0963991107
 11
307.384579117
 21
201.3370455135
  0
LINE
  5
2D0
100
AcDbEntity
  8
0
100
AcDbLine
 62
7
  6
CONTINUOUS
 10
308.360712842
 20
201.9393705793
 11
277.5690994604
 21
219.7180622362
  0
LINE
  5
2D1
100
AcDbEntity
  8
0
100
AcDbLine
 62
250
  6
CONTINUOUS
 10
277.8752572834
 20
219.6576340473
 11
308.482504589
 21
201.9853930519
  0
LINE
  5
2D2
100
AcDbEntity
  8
0
100
AcDbLine
 62
7
  6
CONTINUOUS
 10
277.9492633152
 20
219.6473488425
 11
308.5599584083
 21
201.9731357195
  0
LINE
  5
2D3
100
AcDbEntity
  8
0
100
AcDbLine
 62
250
  6
CONTINUOUS
 10
308.8428437651
 20
166.4731630334
 11
308.8427168697
 21
166.4681254759
  0
LWPOLYLINE
  5
2D4
100
AcDbEntity
  8
0
100
AcDbPolyline
 62
250
  6
CONTINUOUS
 90
9
 70
0
 10
307.750411857
 20
165.6251254657
 10
307.7465451925
 20
165.5825764461
 10
307.738919851
 20
165.5427656816
 10
307.7276192804
 20
165.5061288407
 10
307.712767148
 20
165.4730668578
 10
307.6945259882
 20
165.4439415463
 10
307.6730954235
 20
165.4190716389
 10
307.6487099792
 20
165.3987292993
 10
307.6260372651
 20
165.3852552566
  0
LWPOLYLINE
  5
2D5
100
AcDbEntity
  8
0
100
AcDbPolyline
 62
7
  6
CONTINUOUS
 90
7
 70
0
 10
277.9492633152
 20
219.6473488425
 10
277.9144884392
 20
219.6652353132
 10
277.8789923036
 20
219.6798984497
 10
277.8429432721
 20
219.6912449408
 10
277.8065581811
 20
219.6991898251
 10
277.770139523
 20
219.7036912982
 10
277.7556984343
 20
219.7045238508
  0
LWPOLYLINE
  5
2D6
100
AcDbEntity
  8
0
100
AcDbPolyline
 62
250
  6
CONTINUOUS
 90
10
 70
0
 10
308.6341044063
 20
201.8789669093
 10
308.6648145661
 20
201.8463592986
 10
308.6922111192
 20
201.8126380527
 10
308.7163151805
 20
201.7784358465
 10
308.737326883
 20
201.7441308305
 10
308.7553563045
 20
201.7100160816
 10
308.7704393484
 20
201.6767846339
 10
308.7829934373
 20
201.6444202975
 10
308.7935100159
 20
201.6120014696
 10
308.8019654517
 20
201.5798059793
  0
LWPOLYLINE
  5
2D7
100
AcDbEntity
  8
0
100
AcDbPolyline
 62
250
  6
CONTINUOUS
 90
6
 70
0
 10
308.8019654517
 20
201.5798059793
 10
308.8084748061
 20
201.5478970516
 10
308.8132533846
 20
201.51492507
 10
308.8160874139
 20
201.4805526466
 10
308.8166573007
 20
201.4454822832
 10
308.8147361012
 20
201.4099511935
  0
LWPOLYLINE
  5
2D8
100
AcDbEntity
  8
0
100
AcDbPolyline
 62
250
  6
CONTINUOUS
 90
4
 70
0
 10
308.8427168697
 20
166.4681254759
 10
308.8387774005
 20
166.4447400632
 10
308.8293929296
 20
166.4218775806
 10
308.8147361012
 20
166.3999586871
  0
LWPOLYLINE
  5
2D9
100
AcDbEntity
  8
0
100
AcDbPolyline
 62
7
  6
CONTINUOUS
 90
7
 70
0
 10
308.7955504178
 20
166.2729956371
 10
308.8034122876
 20
166.2887844462
 10
308.8176435236
 20
166.3231965509
 10
308.8287655314
 20
166.3592838446
 10
308.8366770705
 20
166.3967461169
 10
308.8413676779
 20
166.435351165
 10
308.8428437633
 20
166.4731821166
  0
LINE
  5
2DA
100
AcDbEntity
  8
0
100
AcDbLine
 62
250
  6
CONTINUOUS
 10
308.8147361012
 20
166.3999586871
 11
308.7139971079
 21
166.2086582088
  0
LINE
  5
2DB
100
AcDbEntity
  8
0
100
AcDbLine
 62
7
  6
CONTINUOUS
 10
308.7955900208
 20
166.2730439134
 11
308.7139971079
 21
166.1181012964
  0
LINE
  5
2DC
100
AcDbEntity
  8
0
100
AcDbLine
 62
250
  6
CONTINUOUS
 10
277.8752572834
 20
219.6576340473
 11
277.6592102956
 21
219.6660333693
  0
LINE
  5
2DD
100
AcDbEntity
  8
0
100
AcDbLine
 62
7
  6
CONTINUOUS
 10
277.7557360706
 20
219.7045226774
 11
277.58076801
 21
219.7113249619
  0
LWPOLYLINE
  5
2DE
100
AcDbEntity
  8
0
100
AcDbPolyline
 62
250
  6
CONTINUOUS
 90
7
 70
0
 10
277.7557242262
 20
219.7045231379
 10
277.7640990285
 20
219.7039801673
 10
277.784507426
 20
219.7008761854
 10
277.8058923766
 20
219.6949953912
 10
277.8283966124
 20
219.6859545947
 10
277.8515782046
 20
219.6735735186
 10
277.8752572834
 20
219.6576340473
  0
LWPOLYLINE
  5
2DF
100
AcDbEntity
  8
0
100
AcDbPolyline
 62
250
  6
CONTINUOUS
 90
16
 70
0
 10
307.0692241971
 20
166.0270852296
 10
307.0302155757
 20
166.0057491887
 10
306.9879034436
 20
165.9868667271
 10
306.9427411263
 20
165.9706401726
 10
306.8952124882
 20
165.9572433989
 10
306.8458267591
 20
165.9468199625
 10
306.7951130793
 20
165.9394815624
 10
306.7436148094
 20
165.9353068417
 10
306.6918837277
 20
165.9343405493
 10
306.6404741288
 20
165.9365930549
 10
306.5899368444
 20
165.9420402388
 10
306.5408133688
 20
165.9506237497
 10
306.4936300735
 20
165.9622516227
 10
306.4488925248
 20
165.9767992738
 10
306.4070800698
 20
165.9941108402
 10
306.3686407246
 20
166.0140008412
  0
LINE
  5
2E0
100
AcDbEntity
  8
0
100
AcDbLine
 62
250
  6
CONTINUOUS
 10
307.750411857
 20
165.6251254657
 11
308.7139971079
 21
166.1050886259
  0
LINE
  5
2E1
100
AcDbEntity
  8
0
100
AcDbLine
 62
7
  6
CONTINUOUS
 10
307.626009427
 20
165.3852413873
 11
308.6013686724
 21
165.8710691907
  0
ELLIPSE
  5
2E2
100
AcDbEntity
  8
0
100
AcDbEllipse
 62
7
  6
CONTINUOUS
 10
663.8885521523
 20
384.3043268847
 30
0.0
 11
-222.6802417435
 21
562.3907231254
 31
0.0
 40
0.695984786
 41
-4.6474121049
 42
-4.6464816858
  0
ELLIPSE
  5
2E3
100
AcDbEntity
  8
0
100
AcDbEllipse
 62
7
  6
CONTINUOUS
 10
663.8885521523
 20
384.3043268847
 30
0.0
 11
446.8968390529
 21
317.4881042992
 31
0.0
 40
0.1746808404
 41
2.4349727398
 42
2.435903159
  0
ELLIPSE
  5
2E4
100
AcDbEntity
  8
0
100
AcDbEllipse
 62
7
  6
CONTINUOUS
 10
308.3603898612
 20
201.530761686
 30
0.0
 11
-0.2496303025
 21
0.4334023309
 31
0.0
 40
0.5778584463
 41
-2.3545649475
 42
-0.7846820092
  0
ELLIPSE
  5
2E5
100
AcDbEntity
  8
0
100
AcDbEllipse
 62
7
  6
CONTINUOUS
 10
277.5694224412
 20
219.3090803729
 30
0.0
 11
-0.2498600223
 21
0.43379745
 31
0.0
 40
0.5768037941
 41
5.4994124095
 42
6.3180789651
  0
ELLIPSE
  5
2E6
100
AcDbEntity
  8
0
100
AcDbEllipse
 62
7
  6
CONTINUOUS
 10
308.3603898612
 20
166.3096304074
 30
0.0
 11
-0.2498600223
 21
0.43379745
 31
0.0
 40
0.5768037941
 41
3.1066989922
 42
3.9277026942
  0
ELLIPSE
  5
2E7
100
AcDbEntity
  8
0
100
AcDbEllipse
 62
7
  6
CONTINUOUS
 10
618.1313176858
 20
410.7239805928
 30
0.0
 11
411.2835037081
 21
339.3139141644
 31
0.0
 40
0.1196884959
 41
2.3990702416
 42
2.4001022096
  0
ELLIPSE
  5
2E8
100
AcDbEntity
  8
0
100
AcDbEllipse
 62
7
  6
CONTINUOUS
 10
618.1313176858
 20
410.7239805928
 30
0.0
 11
-186.5461915041
 21
580.4478333504
 31
0.0
 40
0.6353493651
 41
-4.5376302344
 42
-4.5365982663
  0
ENDSEC
  0
SECTION
  2
OBJECTS
  0
DICTIONARY
  5
C
100
AcDbDictionary
280
0
281
1
  3
ACAD_GROUP
350
D
  3
ACAD_MLINESTYLE
350
17
  3
ACAD_LAYOUT
350
1A
  3
ACAD_PLOTSETTINGS
350
19
  3
ACAD_PLOTSTYLENAME
350
E
  0
DICTIONARY
  5
D
102
{ACAD_REACTORS
330
C
102
}
100
AcDbDictionary
280
0
281
1
  0
ACDBDICTIONARYWDFLT
  5
E
102
{ACAD_REACTORS
330
C
102
}
100
AcDbDictionary
281
1
  3
Normal
350
F
100
AcDbDictionaryWithDefault
340
F
  0
DICTIONARY
  5
17
102
{ACAD_REACTORS
330
C
102
}
100
AcDbDictionary
280
0
281
1
  3
Standard
350
18
  0
DICTIONARY
  5
19
102
{ACAD_REACTORS
330
C
102
}
100
AcDbDictionary
281
1
  0
DICTIONARY
  5
1A
102
{ACAD_REACTORS
330
C
102
}
100
AcDbDictionary
281
1
  3
Model
350
2E9
  3
Layout1
350
2EA
  0
ACDBPLACEHOLDER
  5
F
102
{ACAD_REACTORS
330
E
102
}
  0
MLINESTYLE
  5
18
102
{ACAD_REACTORS
330
17
102
}
100
AcDbMlineStyle
  2
STANDARD
 70
0
  3

 62
256
 51
90.0
 52
90.0
 71
2
 49
0.5
 62
256
  6
BYLAYER
 49
-0.5
 62
256
  6
BYLAYER
  0
LAYOUT
  5
2E9
102
{ACAD_REACTORS
330
1A
102
}
100
AcDbPlotSettings
  1

  2
none_device
  4
ANSI_C_(22.00_x_17.00_Inches)
  6

 40
0.0
 41
0.0
 42
0.0
 43
0.0
 44
558.8
 45
431.8
 46
0.0
 47
0.0
 48
0.0
 49
0.0
140
0.0
141
0.0
142
1.0
143
1.0
 70
1024
 72
1
 73
0
 74
0
  7

 75
0
147
1.0
148
0.0
149
0.0
100
AcDbLayout
  1
Model
 70
0
 71
0
 10
0.0
 20
0.0
 11
558.8
 21
431.8
 12
0.0
 22
0.0
 32
0.0
 14
0.0
 24
0.0
 34
0.0
 15
0.0
 25
0.0
 35
0.0
146
0.0
 13
0.0
 23
0.0
 33
0.0
 16
1.0
 26
0.0
 36
0.0
 17
0.0
 27
1.0
 37
0.0
 76
0
330
214
345
0
346
0
  0
LAYOUT
  5
2EA
102
{ACAD_REACTORS
330
1A
102
}
100
AcDbPlotSettings
  1

  2
none_device
  4
ANSI_C_(22.00_x_17.00_Inches)
  6

 40
0.0
 41
0.0
 42
0.0
 43
0.0
 44
558.8
 45
431.8
 46
0.0
 47
0.0
 48
0.0
 49
0.0
140
0.0
141
0.0
142
1.0
143
1.0
 70
0
 72
1
 73
0
 74
0
  7

 75
0
147
1.0
148
0.0
149
0.0
100
AcDbLayout
  1
Layout1
 70
0
 71
1
 10
0.0
 20
0.0
 11
558.8
 21
431.8
 12
0.0
 22
0.0
 32
0.0
 14
0.0
 24
0.0
 34
0.0
 15
0.0
 25
0.0
 35
0.0
146
0.0
 13
0.0
 23
0.0
 33
0.0
 16
1.0
 26
0.0
 36
0.0
 17
0.0
 27
1.0
 37
0.0
 76
0
330
215
345
0
346
0
  0
ENDSEC
  0
EOF
