  0
SECTION
  2
HEADER
  9
$ACADVER
  1
AC1015
  9
$DWGCODEPAGE
  3
ANSI_1252
  9
$EXTMAX
 10
297.0
 20
210.0
 30
0.0
  9
$EXTMIN
 10
0.0
 20
0.0
 30
0.0
  9
$LIMMIN
 10
0.0
 20
0.0
  9
$LIMMAX
 10
297.0
 20
210.0
  9
$VIEWCTR
 10
148.5
 20
105.0
  9
$VIEWSIZE
 40
210.0
  9
$CLAYER
  8
0
  9
$LTSCALE
 40
16.335
  9
$CELTYPE
  6
BYLAYER
  9
$DIMSCALE
 40
1.0
  9
$DIMASZ
 40
3.0
  9
$DIMEXO
 40
0.5
  9
$DIMDLI
 40
11.286
  9
$DIMEXE
 40
1.5
  9
$DIMCEN
 40
2.673
  9
$DIMLFAC
 40
1.0
  9
$DIMBLK
  1
_FILLED
  9
$DIMTXT
 40
3.0
  9
$DIMTOL
 70
1
  9
$DIMLIM
 70
0
  9
$DIMTFAC
 40
1.0
  9
$DIMTP
 40
0.01
  9
$DIMTM
 40
0.01
  9
$DIMGAP
 40
0.625
  9
$DIMDSEP
 70
44
  9
$PDMODE
 70
3
  9
$PDSIZE
 40
3.0
  9
$HANDSEED
  5
6A3
  9
$TILEMODE
 70
1
  9
$MEASUREMENT
 70
1
  9
$INSUNITS
 70
4
  0
ENDSEC
  0
SECTION
  2
CLASSES
  0
CLASS
  1
ACDBDICTIONARYWDFLT
  2
AcDbDictionaryWithDefault
  3
AutoCAD 2000
 90
0
280
0
281
0
  0
CLASS
  1
ACDBPLACEHOLDER
  2
AcDbPlaceHolder
  3
AutoCAD 2000
 90
0
280
0
281
0
  0
CLASS
  1
LAYOUT
  2
AcDbLayout
  3
AutoCAD 2000
 90
0
280
0
281
0
  0
ENDSEC
  0
SECTION
  2
TABLES
  0
TABLE
  2
VPORT
  5
8
100
AcDbSymbolTable
 70
2
  0
VPORT
  5
1F4
100
AcDbSymbolTableRecord
100
AcDbViewportTableRecord
  2
*ACTIVE
 70
0
 10
0.0
 20
0.0
 11
1.0
 21
1.0
 12
148.5
 22
105.0
 13
0.0
 23
0.0
 14
1.0
 24
1.0
 15
0.0
 25
0.0
 16
0.0
 26
0.0
 36
1.0
 17
0.0
 27
0.0
 37
0.0
 40
210.0
 41
1.4142857143
 42
50.0
 43
0.0
 44
0.0
 50
0.0
 51
0.0
 71
0
 72
100
 73
1
 74
1
 75
0
 76
0
 77
0
 78
0
  0
ENDTAB
  0
TABLE
  2
LTYPE
  5
5
100
AcDbSymbolTable
 70
6
  0
LTYPE
  5
14
100
AcDbSymbolTableRecord
100
AcDbLinetypeTableRecord
  2
BYBLOCK
 70
0
  3

 72
65
 73
0
 40
0.0
  0
LTYPE
  5
15
100
AcDbSymbolTableRecord
100
AcDbLinetypeTableRecord
  2
BYLAYER
 70
0
  3

 72
65
 73
0
 40
0.0
  0
LTYPE
  5
16
100
AcDbSymbolTableRecord
100
AcDbLinetypeTableRecord
  2
CONTINUOUS
 70
64
  3
Solid line
 72
65
 73
0
 40
0.0
  0
LTYPE
  5
1F5
100
AcDbSymbolTableRecord
100
AcDbLinetypeTableRecord
  2
CENTER
 70
64
  3
____ _ ____ _ ____ _ ____ _ ____ _ ____ _ ____
 72
65
 73
4
 40
0.6
 49
0.375
 74
0
 49
-0.075
 74
0
 49
0.075
 74
0
 49
-0.075
 74
0
  0
LTYPE
  5
1F6
100
AcDbSymbolTableRecord
100
AcDbLinetypeTableRecord
  2
HIDDEN
 70
64
  3
- - - - - - - - - - - - - - - - - - - -
 72
65
 73
2
 40
0.2
 49
0.1
 74
0
 49
-0.1
 74
0
  0
LTYPE
  5
1F7
100
AcDbSymbolTableRecord
100
AcDbLinetypeTableRecord
  2
PHANTOM
 70
64
  3
_____ _ _ _____ _ _ _____ _ _ _____
 72
65
 73
6
 40
0.8
 49
0.45
 74
0
 49
-0.05
 74
0
 49
0.1
 74
0
 49
-0.05
 74
0
 49
0.1
 74
0
 49
-0.05
 74
0
  0
LTYPE
  5
1F8
100
AcDbSymbolTableRecord
100
AcDbLinetypeTableRecord
  2
DOT
 70
64
  3
. . . . . . . . . . . . . . . . . . . .
 72
65
 73
2
 40
0.2
 49
0.1
 74
0
 49
-0.1
 74
0
  0
LTYPE
  5
1F9
100
AcDbSymbolTableRecord
100
AcDbLinetypeTableRecord
  2
DASHED
 70
64
  3
- - - - - - - - - - - - - - - - - - - -
 72
65
 73
2
 40
0.2
 49
0.1
 74
0
 49
-0.1
 74
0
  0
ENDTAB
  0
TABLE
  2
LAYER
  5
2
100
AcDbSymbolTable
 70
36
  0
LAYER
  5
10
100
AcDbSymbolTableRecord
100
AcDbLayerTableRecord
  2
0
 70
0
 62
7
  6
CONTINUOUS
370
-3
390
F
  0
LAYER
  5
1FA
100
AcDbSymbolTableRecord
100
AcDbLayerTableRecord
  2
DEFAULT_1
 70
0
 62
7
  6
CENTER
370
-3
390
F
  0
LAYER
  5
1FB
100
AcDbSymbolTableRecord
100
AcDbLayerTableRecord
  2
DEFAULT_2
 70
0
 62
7
  6
HIDDEN
370
-3
390
F
  0
LAYER
  5
1FC
100
AcDbSymbolTableRecord
100
AcDbLayerTableRecord
  2
DEFAULT_3
 70
0
 62
7
  6
PHANTOM
370
-3
390
F
  0
LAYER
  5
1FD
100
AcDbSymbolTableRecord
100
AcDbLayerTableRecord
  2
ASSI
 70
0
 62
7
  6
CONTINUOUS
370
-3
390
F
  0
LAYER
  5
1FE
100
AcDbSymbolTableRecord
100
AcDbLayerTableRecord
  2
COLORE_MATERIALE
 70
0
 62
7
  6
CONTINUOUS
370
-3
390
F
  0
LAYER
  5
1FF
100
AcDbSymbolTableRecord
100
AcDbLayerTableRecord
  2
COORDINATE
 70
0
 62
7
  6
CONTINUOUS
370
-3
390
F
  0
LAYER
  5
200
100
AcDbSymbolTableRecord
100
AcDbLayerTableRecord
  2
COORD_ORIGINE
 70
0
 62
7
  6
CONTINUOUS
370
-3
390
F
  0
LAYER
  5
201
100
AcDbSymbolTableRecord
100
AcDbLayerTableRecord
  2
COPY
 70
0
 62
7
  6
CONTINUOUS
370
-3
390
F
  0
LAYER
  5
202
100
AcDbSymbolTableRecord
100
AcDbLayerTableRecord
  2
COPY_PUBLISH
 70
0
 62
7
  6
CONTINUOUS
370
-3
390
F
  0
LAYER
  5
203
100
AcDbSymbolTableRecord
100
AcDbLayerTableRecord
  2
COSMETICI
 70
0
 62
7
  6
CONTINUOUS
370
-3
390
F
  0
LAYER
  5
204
100
AcDbSymbolTableRecord
100
AcDbLayerTableRecord
  2
CURVE
 70
0
 62
7
  6
CONTINUOUS
370
-3
390
F
  0
LAYER
  5
205
100
AcDbSymbolTableRecord
100
AcDbLayerTableRecord
  2
DRAFT
 70
0
 62
7
  6
CONTINUOUS
370
-3
390
F
  0
LAYER
  5
206
100
AcDbSymbolTableRecord
100
AcDbLayerTableRecord
  2
IMPORT_IGES
 70
0
 62
7
  6
CONTINUOUS
370
-3
390
F
  0
LAYER
  5
207
100
AcDbSymbolTableRecord
100
AcDbLayerTableRecord
  2
INTFCLR_2
 70
0
 62
7
  6
CONTINUOUS
370
-3
390
F
  0
LAYER
  5
208
100
AcDbSymbolTableRecord
100
AcDbLayerTableRecord
  2
INTF_1
 70
0
 62
7
  6
CONTINUOUS
370
-3
390
F
  0
LAYER
  5
209
100
AcDbSymbolTableRecord
100
AcDbLayerTableRecord
  2
NOTE
 70
0
 62
7
  6
CONTINUOUS
370
-3
390
F
  0
LAYER
  5
20A
100
AcDbSymbolTableRecord
100
AcDbLayerTableRecord
  2
PIANI
 70
0
 62
7
  6
CONTINUOUS
370
-3
390
F
  0
LAYER
  5
20B
100
AcDbSymbolTableRecord
100
AcDbLayerTableRecord
  2
PIANI_ORIGINE
 70
0
 62
7
  6
CONTINUOUS
370
-3
390
F
  0
LAYER
  5
20C
100
AcDbSymbolTableRecord
100
AcDbLayerTableRecord
  2
PIANI_RIFERIMENTO
 70
0
 62
7
  6
CONTINUOUS
370
-3
390
F
  0
LAYER
  5
20D
100
AcDbSymbolTableRecord
100
AcDbLayerTableRecord
  2
PIANI_SFORMO
 70
0
 62
7
  6
CONTINUOUS
370
-3
390
F
  0
LAYER
  5
20E
100
AcDbSymbolTableRecord
100
AcDbLayerTableRecord
  2
PUNTI
 70
0
 62
7
  6
CONTINUOUS
370
-3
390
F
  0
LAYER
  5
20F
100
AcDbSymbolTableRecord
100
AcDbLayerTableRecord
  2
RACCORDO
 70
0
 62
7
  6
CONTINUOUS
370
-3
390
F
  0
LAYER
  5
210
100
AcDbSymbolTableRecord
100
AcDbLayerTableRecord
  2
SIMBOLI
 70
0
 62
7
  6
CONTINUOUS
370
-3
390
F
  0
LAYER
  5
211
100
AcDbSymbolTableRecord
100
AcDbLayerTableRecord
  2
SMUSSO
 70
0
 62
7
  6
CONTINUOUS
370
-3
390
F
  0
LAYER
  5
212
100
AcDbSymbolTableRecord
100
AcDbLayerTableRecord
  2
SNAPLINE
 70
0
 62
7
  6
CONTINUOUS
370
-3
390
F
  0
LAYER
  5
213
100
AcDbSymbolTableRecord
100
AcDbLayerTableRecord
  2
SUPERFICI
 70
0
 62
7
  6
CONTINUOUS
370
-3
390
F
  0
LAYER
  5
214
100
AcDbSymbolTableRecord
100
AcDbLayerTableRecord
  2
TRASH
 70
0
 62
7
  6
CONTINUOUS
370
-3
390
F
  0
LAYER
  5
215
100
AcDbSymbolTableRecord
100
AcDbLayerTableRecord
  2
XSEC_DATUMS
 70
0
 62
7
  6
CONTINUOUS
370
-3
390
F
  0
ENDTAB
  0
TABLE
  2
STYLE
  5
3
100
AcDbSymbolTable
 70
1
  0
STYLE
  5
11
100
AcDbSymbolTableRecord
100
AcDbTextStyleTableRecord
  2
STANDARD
 70
0
 40
0.0
 41
0.8
 50
0.0
 71
0
 42
0.2
  3
txt
  4

  0
STYLE
  5
216
100
AcDbSymbolTableRecord
100
AcDbTextStyleTableRecord
  2
TEXTSTYLE_1
 70
0
 40
0.0
 41
0.8
 50
0.0
 71
0
 42
0.2
  3
gdt
  4

  0
ENDTAB
  0
TABLE
  2
VIEW
  5
6
100
AcDbSymbolTable
 70
0
  0
ENDTAB
  0
TABLE
  2
UCS
  5
7
100
AcDbSymbolTable
 70
0
  0
ENDTAB
  0
TABLE
  2
APPID
  5
9
100
AcDbSymbolTable
 70
1
  0
APPID
  5
217
100
AcDbSymbolTableRecord
100
AcDbRegAppTableRecord
  2
ACAD
 70
0
  0
ENDTAB
  0
TABLE
  2
BLOCK_RECORD
  5
1
100
AcDbSymbolTable
 70
0
  0
BLOCK_RECORD
  5
218
100
AcDbSymbolTableRecord
100
AcDbBlockTableRecord
  2
*Model_Space
  0
BLOCK_RECORD
  5
219
100
AcDbSymbolTableRecord
100
AcDbBlockTableRecord
  2
*Paper_Space
  0
ENDTAB
  0
TABLE
  2
DIMSTYLE
  5
A
100
AcDbSymbolTable
 70
1
100
AcDbDimStyleTable
 71
0
  0
DIMSTYLE
105
21A
100
AcDbSymbolTableRecord
100
AcDbDimStyleTableRecord
  2
STANDARD
 70
0
  3

  4

 40
1.0
 41
3.0
 42
0.5
 43
0.38
 44
1.5
 45
0.0
 46
0.0
 47
0.01
 48
0.01
140
3.0
141
0.09
142
0.0
143
25.4
144
1.0
145
0.0
146
1.0
147
0.625
 71
1.0
 72
0.0
 73
0
 74
0
 75
0
 76
0
 77
1
 78
8
170
0
171
2
172
0
173
0
174
0
175
0
176
0
177
0
178
0
270
2
271
2
272
2
273
2
274
2
275
0
280
0
281
0
282
0
283
1
284
8
285
0
286
0
287
3
288
0
340
11
278
44
  0
ENDTAB
  0
ENDSEC
  0
SECTION
  2
BLOCKS
  0
BLOCK
  5
20
100
AcDbEntity
  8
0
100
AcDbBlockBegin
  2
*Model_Space
 70
0
 10
0.0
 20
0.0
 30
0.0
  3
*Model_Space
  1

  0
ENDBLK
  5
21
100
AcDbEntity
  8
0
100
AcDbBlockEnd
  0
BLOCK
  5
1C
100
AcDbEntity
  8
0
100
AcDbBlockBegin
  2
*Paper_Space
 70
0
 10
0.0
 20
0.0
 30
0.0
  3
*Paper_Space
  1

  0
ENDBLK
  5
1D
100
AcDbEntity
  8
0
100
AcDbBlockEnd
  0
ENDSEC
  0
SECTION
  2
ENTITIES
  0
LWPOLYLINE
  5
21B
100
AcDbEntity
  8
RACCORDO
100
AcDbPolyline
 62
7
  6
CONTINUOUS
 90
22
 70
0
 10
-32.7301708696
 20
-3.2873906468
 10
-32.695091932
 20
-3.3047356688
 10
-32.6590825639
 20
-3.3205148209
 10
-32.6221869949
 20
-3.3346878405
 10
-32.584420353
 20
-3.3472256959
 10
-32.5458423969
 20
-3.3580851484
 10
-32.5065136975
 20
-3.3672269082
 10
-32.466444374
 20
-3.3746235311
 10
-32.4256893849
 20
-3.3802382213
 10
-32.3843125521
 20
-3.3840378379
 10
-32.3423270385
 20
-3.3859943255
 10
-32.2997868679
 20
-3.3860755783
 10
-32.256747782
 20
-3.3842543192
 10
-32.2132122368
 20
-3.3805005206
 10
-32.1692261628
 20
-3.3747836137
 10
-32.1248398201
 20
-3.3670769125
 10
-32.080048639
 20
-3.3573436092
 10
-32.0348962755
 20
-3.345551671
 10
-31.9894230455
 20
-3.3316698042
 10
-31.9436078532
 20
-3.3156448628
 10
-31.8974673772
 20
-3.2974269096
 10
-31.8510683649
 20
-3.2769866153
  0
LWPOLYLINE
  5
21C
100
AcDbEntity
  8
ASSI
100
AcDbPolyline
 62
7
  6
CONTINUOUS
 90
12
 70
0
 10
-32.7613110295
 20
-3.2702437773
 10
-32.7116217933
 20
-3.2968134183
 10
-32.6430587363
 20
-3.3269109336
 10
-32.5716688306
 20
-3.3510280594
 10
-32.4975583643
 20
-3.3690451288
 10
-32.4211242983
 20
-3.3807503006
 10
-32.3428034657
 20
-3.3859826323
 10
-32.2626347516
 20
-3.3846150613
 10
-32.1809475905
 20
-3.3764947846
 10
-32.0980826514
 20
-3.3614980128
 10
-32.0139434495
 20
-3.3394053751
 10
-31.9286348729
 20
-3.3099623964
  0
LINE
  5
21D
100
AcDbEntity
  8
RACCORDO
100
AcDbLine
 62
7
  6
CONTINUOUS
 10
-32.7609007357
 20
-3.2704810541
 11
-32.7301708696
 21
-3.2873906468
  0
LINE
  5
21E
100
AcDbEntity
  8
ASSI
100
AcDbLine
 62
7
  6
CONTINUOUS
 10
-47.5943721632
 20
5.2941793758
 11
-32.7607676209
 21
-3.2705579782
  0
LINE
  5
21F
100
AcDbEntity
  8
RACCORDO
100
AcDbLine
 62
7
  6
CONTINUOUS
 10
-32.7607676255
 20
-3.2705579755
 11
-47.5943721586
 21
5.2941793732
  0
LINE
  5
220
100
AcDbEntity
  8
RACCORDO
100
AcDbLine
 62
7
  6
CONTINUOUS
 10
-47.5942495922
 20
5.2941086276
 11
-47.5943697441
 21
5.2941779791
  0
LINE
  5
221
100
AcDbEntity
  8
RACCORDO
100
AcDbLine
 62
253
  6
CONTINUOUS
 10
-47.5943697441
 20
5.2941779791
 11
-47.5984968425
 21
5.2965879121
  0
LINE
  5
222
100
AcDbEntity
  8
RACCORDO
100
AcDbLine
 62
7
  6
CONTINUOUS
 10
-47.6253337134
 20
5.3129780087
 11
-47.5942540979
 21
5.2941112738
  0
LINE
  5
223
100
AcDbEntity
  8
RACCORDO
100
AcDbLine
 62
253
  6
CONTINUOUS
 10
-47.5984968425
 20
5.2965879121
 11
-47.6239572289
 21
5.3126998977
  0
LINE
  5
224
100
AcDbEntity
  8
ASSI
100
AcDbLine
 62
253
  6
CONTINUOUS
 10
-47.5984948556
 20
5.2965867387
 11
-47.6239553157
 21
5.3126986025
  0
LINE
  5
225
100
AcDbEntity
  8
RACCORDO
100
AcDbLine
 62
253
  6
CONTINUOUS
 10
-47.6239572289
 20
5.3126998977
 11
-47.6484634728
 21
5.3304019747
  0
LWPOLYLINE
  5
226
100
AcDbEntity
  8
ASSI
100
AcDbPolyline
 62
253
  6
CONTINUOUS
 90
21
 70
0
 10
-47.6239553157
 20
5.3126986025
 10
-47.6484616371
 20
5.3304005606
 10
-47.6719842627
 20
5.349671146
 10
-47.6944938454
 20
5.3704863881
 10
-47.7159621176
 20
5.3928202758
 10
-47.7363630527
 20
5.4166454169
 10
-47.7556711345
 20
5.4419321005
 10
-47.7738622224
 20
5.4686488889
 10
-47.7909144098
 20
5.4967630959
 10
-47.8068063983
 20
5.5262397829
 10
-47.8215182768
 20
5.5570423412
 10
-47.835032364
 20
5.589133105
 10
-47.8473318778
 20
5.6224725708
 10
-47.8584012488
 20
5.6570191273
 10
-47.8682269352
 20
5.6927296104
 10
-47.8767966883
 20
5.7295594641
 10
-47.8840998596
 20
5.7674632458
 10
-47.8901277078
 20
5.8063943629
 10
-47.8948728348
 20
5.8463047184
 10
-47.8983292184
 20
5.8871447513
 10
-47.9004925663
 20
5.9288638948
  0
LWPOLYLINE
  5
227
100
AcDbEntity
  8
RACCORDO
100
AcDbPolyline
 62
253
  6
CONTINUOUS
 90
20
 70
0
 10
-47.6484634728
 20
5.3304019747
 10
-47.6719860203
 20
5.3496726779
 10
-47.6944955247
 20
5.3704880374
 10
-47.7159637176
 20
5.3928220418
 10
-47.7363645728
 20
5.4166472993
 10
-47.7556725756
 20
5.4419341015
 10
-47.7738635834
 20
5.4686510089
 10
-47.7909156855
 20
5.4967653285
 10
-47.8068075815
 20
5.5262421162
 10
-47.821519364
 20
5.5570447669
 10
-47.835033356
 20
5.5891356228
 10
-47.8473327764
 20
5.6224751835
 10
-47.858402054
 20
5.6570218352
 10
-47.8682276464
 20
5.6927324141
 10
-47.8767973178
 20
5.7295624271
 10
-47.8841004017
 20
5.7674663725
 10
-47.8901281299
 20
5.8063974595
 10
-47.8948731169
 20
5.8463075086
 10
-47.8983293708
 20
5.8871470109
 10
-47.9004926193
 20
5.9288653883
  0
LINE
  5
228
100
AcDbEntity
  8
RACCORDO
100
AcDbLine
 62
253
  6
CONTINUOUS
 10
-26.0099296504
 20
-1.3646093729
 11
-26.5381968222
 21
-1.3189664299
  0
LWPOLYLINE
  5
229
100
AcDbEntity
  8
RACCORDO
100
AcDbPolyline
 62
7
  6
CONTINUOUS
 90
34
 70
0
 10
-27.4282570049
 20
-1.7097692054
 10
-27.4361504673
 20
-1.7089435365
 10
-27.4443978476
 20
-1.7079408949
 10
-27.4529875146
 20
-1.7067506851
 10
-27.4619058178
 20
-1.7053520714
 10
-27.4711401182
 20
-1.7037453621
 10
-27.480679098
 20
-1.7019517733
 10
-27.4905071792
 20
-1.6999608937
 10
-27.5006082844
 20
-1.6977636713
 10
-27.5109693903
 20
-1.6953832534
 10
-27.5215721391
 20
-1.6928099862
 10
-27.5323977309
 20
-1.6900354952
 10
-27.5434314684
 20
-1.6870846947
 10
-27.5546522167
 20
-1.6839488561
 10
-27.566038347
 20
-1.6806204753
 10
-27.5775732927
 20
-1.6771261178
 10
-27.5892331234
 20
-1.6734582021
 10
-27.6009932653
 20
-1.6696103116
 10
-27.6128348765
 20
-1.6656105918
 10
-27.6247312108
 20
-1.6614529199
 10
-27.6366546515
 20
-1.6571322237
 10
-27.6485835284
 20
-1.65267816
 10
-27.6604882896
 20
-1.6480865027
 10
-27.6723382675
 20
-1.6433538297
 10
-27.6841084157
 20
-1.6385111566
 10
-27.6957664146
 20
-1.6335567529
 10
-27.7072787884
 20
-1.6284891887
 10
-27.7186169875
 20
-1.6233404056
 10
-27.7297577801
 20
-1.6181079434
 10
-27.7406530144
 20
-1.612795986
 10
-27.7512383362
 20
-1.6074503356
 10
-27.7614714689
 20
-1.6020922993
 10
-27.771329204
 20
-1.5967157809
 10
-27.7807789646
 20
-1.5913297912
  0
LWPOLYLINE
  5
22A
100
AcDbEntity
  8
RACCORDO
100
AcDbPolyline
 62
7
  6
CONTINUOUS
 90
21
 70
0
 10
-28.4402289403
 20
-3.021420155
 10
-28.4299780975
 20
-3.0270236742
 10
-28.4184270722
 20
-3.0326208271
 10
-28.4065918928
 20
-3.0376224893
 10
-28.3944943831
 20
-3.0420164998
 10
-28.382163697
 20
-3.0457884873
 10
-28.3696333246
 20
-3.0489244832
 10
-28.3569322415
 20
-3.0514134078
 10
-28.3440927283
 20
-3.0532447732
 10
-28.3311497469
 20
-3.0544094584
 10
-28.3181372061
 20
-3.0549003173
 10
-28.3050902952
 20
-3.0547118817
 10
-28.2920445749
 20
-3.0538405182
 10
-28.279035188
 20
-3.0522843418
 10
-28.2660963729
 20
-3.0500429592
 10
-28.2532665988
 20
-3.047118501
 10
-28.2405874349
 20
-3.0435164469
 10
-28.2280954582
 20
-3.0392436002
 10
-28.2158262451
 20
-3.0343084759
 10
-28.2038190961
 20
-3.0287234651
 10
-28.1924047025
 20
-3.022668759
  0
LWPOLYLINE
  5
22B
100
AcDbEntity
  8
RACCORDO
100
AcDbPolyline
 62
253
  6
CONTINUOUS
 90
31
 70
0
 10
-28.4919995727
 20
-2.9069859529
 10
-28.4825415545
 20
-2.912169199
 10
-28.4726283175
 20
-2.9170606481
 10
-28.4622868323
 20
-2.9216469923
 10
-28.4515452347
 20
-2.9259157536
 10
-28.440432749
 20
-2.929855318
 10
-28.4289796087
 20
-2.9334549675
 10
-28.4172169739
 20
-2.9367049084
 10
-28.4051768468
 20
-2.9395962988
 10
-28.3928919848
 20
-2.9421212722
 10
-28.3803958107
 20
-2.944272959
 10
-28.3677223227
 20
-2.946045505
 10
-28.354906001
 20
-2.9474340879
 10
-28.3419817146
 20
-2.9484349297
 10
-28.3289846263
 20
-2.9490453075
 10
-28.3159500969
 20
-2.9492635606
 10
-28.3029135889
 20
-2.9490890953
 10
-28.2899105704
 20
-2.9485223861
 10
-28.2769764183
 20
-2.9475649751
 10
-28.2641463222
 20
-2.9462194668
 10
-28.2514551885
 20
-2.9444895221
 10
-28.2389375456
 20
-2.9423798474
 10
-28.22662745
 20
-2.9398961827
 10
-28.2145583931
 20
-2.937045285
 10
-28.2027632111
 20
-2.9338349108
 10
-28.1912739947
 20
-2.9302737943
 10
-28.1801220022
 20
-2.9263716243
 10
-28.1693375745
 20
-2.9221390172
 10
-28.1589500525
 20
-2.9175874886
 10
-28.1489876973
 20
-2.9127294216
 10
-28.139477613
 20
-2.9075780335
  0
LWPOLYLINE
  5
22C
100
AcDbEntity
  8
RACCORDO
100
AcDbPolyline
 62
253
  6
CONTINUOUS
 90
31
 70
0
 10
-28.4919995727
 20
-2.58646578
 10
-28.4825415545
 20
-2.5916490261
 10
-28.4726283175
 20
-2.5965404753
 10
-28.4622868323
 20
-2.6011268195
 10
-28.4515452347
 20
-2.6053955807
 10
-28.440432749
 20
-2.6093351452
 10
-28.4289796087
 20
-2.6129347946
 10
-28.4172169739
 20
-2.6161847356
 10
-28.4051768468
 20
-2.619076126
 10
-28.3928919848
 20
-2.6216010994
 10
-28.3803958107
 20
-2.6237527861
 10
-28.3677223227
 20
-2.6255253322
 10
-28.354906001
 20
-2.6269139151
 10
-28.3419817146
 20
-2.6279147569
 10
-28.3289846263
 20
-2.6285251347
 10
-28.3159500969
 20
-2.6287433878
 10
-28.3029135889
 20
-2.6285689224
 10
-28.2899105704
 20
-2.6280022133
 10
-28.2769764183
 20
-2.6270448022
 10
-28.2641463222
 20
-2.625699294
 10
-28.2514551885
 20
-2.6239693492
 10
-28.2389375456
 20
-2.6218596746
 10
-28.22662745
 20
-2.6193760098
 10
-28.2145583931
 20
-2.6165251122
 10
-28.2027632111
 20
-2.6133147379
 10
-28.1912739947
 20
-2.6097536215
 10
-28.1801220022
 20
-2.6058514515
 10
-28.1693375745
 20
-2.6016188444
 10
-28.1589500525
 20
-2.5970673157
 10
-28.1489876973
 20
-2.5922092488
 10
-28.139477613
 20
-2.5870578607
  0
LINE
  5
22D
100
AcDbEntity
  8
ASSI
100
AcDbLine
 62
7
  6
CONTINUOUS
 10
-47.5930347444
 20
5.293409971
 11
-47.5943697494
 21
5.2941779822
  0
LINE
  5
22E
100
AcDbEntity
  8
ASSI
100
AcDbLine
 62
253
  6
CONTINUOUS
 10
-47.9004925663
 20
5.9288638948
 11
-33.0741011573
 21
-2.6317086863
  0
LINE
  5
22F
100
AcDbEntity
  8
RACCORDO
100
AcDbLine
 62
253
  6
CONTINUOUS
 10
-33.0741012131
 20
-2.6317071912
 11
-47.9004926193
 21
5.9288653883
  0
LINE
  5
230
100
AcDbEntity
  8
RACCORDO
100
AcDbLine
 62
7
  6
CONTINUOUS
 10
-29.7652135972
 20
-2.25639062
 11
-28.4402289174
 21
-3.0214201682
  0
LINE
  5
231
100
AcDbEntity
  8
RACCORDO
100
AcDbLine
 62
253
  6
CONTINUOUS
 10
-29.7031346147
 20
-2.2076917587
 11
-28.4919995727
 21
-2.9069859529
  0
LINE
  5
232
100
AcDbEntity
  8
CURVE
100
AcDbLine
 62
253
  6
CONTINUOUS
 10
-45.898258625
 20
7.5167572944
 11
-45.8779401836
 21
7.5038457501
  0
LINE
  5
233
100
AcDbEntity
  8
CURVE
100
AcDbLine
 62
253
  6
CONTINUOUS
 10
-45.9169673552
 20
7.5309745663
 11
-45.898258625
 21
7.5167572944
  0
LINE
  5
234
100
AcDbEntity
  8
CURVE
100
AcDbLine
 62
253
  6
CONTINUOUS
 10
-42.4446491204
 20
6.175494924
 11
-42.4364108274
 21
6.1687659491
  0
LINE
  5
235
100
AcDbEntity
  8
CURVE
100
AcDbLine
 62
253
  6
CONTINUOUS
 10
-42.4527979265
 20
6.1826018877
 11
-42.4446491204
 21
6.175494924
  0
LINE
  5
236
100
AcDbEntity
  8
CURVE
100
AcDbLine
 62
253
  6
CONTINUOUS
 10
-45.9340153858
 20
7.5462817489
 11
-45.9169673552
 21
7.5309745663
  0
LINE
  5
237
100
AcDbEntity
  8
CURVE
100
AcDbLine
 62
253
  6
CONTINUOUS
 10
-42.46084418
 20
6.1900751701
 11
-42.4527979265
 21
6.1826018877
  0
LINE
  5
238
100
AcDbEntity
  8
CURVE
100
AcDbLine
 62
253
  6
CONTINUOUS
 10
-42.4687739877
 20
6.1979018977
 11
-42.46084418
 21
6.1900751701
  0
LWPOLYLINE
  5
239
100
AcDbEntity
  8
ASSI
100
AcDbPolyline
 62
7
  6
CONTINUOUS
 90
12
 70
0
 10
-48.0469172298
 20
6.1317052659
 10
-48.0383333433
 20
6.020357263
 10
-48.0203212852
 20
5.9114949481
 10
-47.9936232682
 20
5.809652554
 10
-47.958970712
 20
5.7153230183
 10
-47.9168993404
 20
5.6283288362
 10
-47.8675906273
 20
5.5481775566
 10
-47.811654747
 20
5.4753432187
 10
-47.7497219601
 20
5.4101614837
 10
-47.6818458154
 20
5.3524342325
 10
-47.6084818194
 20
5.3025157791
 10
-47.5930380755
 20
5.2934119149
  0
LWPOLYLINE
  5
23A
100
AcDbEntity
  8
ASSI
100
AcDbPolyline
 62
253
  6
CONTINUOUS
 90
16
 70
0
 10
-48.0469173417
 20
6.1317052619
 10
-48.0461061868
 20
6.1199049781
 10
-48.0438623401
 20
6.1044493256
 10
-48.0402873296
 20
6.0891147167
 10
-48.0353907378
 20
6.0739422546
 10
-48.0291856896
 20
6.058972608
 10
-48.0216888172
 20
6.0442459018
 10
-48.0129202154
 20
6.0298016098
 10
-48.0029033878
 20
6.0156784489
 10
-47.9916651836
 20
6.0019142751
 10
-47.9792357261
 20
5.9885459822
 10
-47.9656483315
 20
5.975609403
 10
-47.9509394197
 20
5.963139213
 10
-47.9351484168
 20
5.9511688375
 10
-47.9183176495
 20
5.9397303622
 10
-47.9004922313
 20
5.9288544471
  0
LINE
  5
23B
100
AcDbEntity
  8
RACCORDO
100
AcDbLine
 62
253
  6
CONTINUOUS
 10
-48.0469181216
 20
6.1317270116
 11
-48.0461061868
 21
6.1199049781
  0
LINE
  5
23C
100
AcDbEntity
  8
RACCORDO
100
AcDbLine
 62
253
  6
CONTINUOUS
 10
-26.0993434458
 20
-1.0353309354
 11
-26.5381968222
 21
-0.997413456
  0
LINE
  5
23D
100
AcDbEntity
  8
CURVE
100
AcDbLine
 62
253
  6
CONTINUOUS
 10
-43.7406251296
 20
6.270968709
 11
-43.7264933876
 21
6.2663593398
  0
LINE
  5
23E
100
AcDbEntity
  8
CURVE
100
AcDbLine
 62
253
  6
CONTINUOUS
 10
-42.3695165306
 20
6.1301439609
 11
-42.3614151219
 21
6.1274406364
  0
LINE
  5
23F
100
AcDbEntity
  8
CURVE
100
AcDbLine
 62
253
  6
CONTINUOUS
 10
-42.3777161159
 20
6.1333380124
 11
-42.3695165306
 21
6.1301439609
  0
LINE
  5
240
100
AcDbEntity
  8
CURVE
100
AcDbLine
 62
253
  6
CONTINUOUS
 10
-42.4392703945
 20
6.5602435913
 11
-42.4474882996
 21
6.5634476392
  0
LINE
  5
241
100
AcDbEntity
  8
CURVE
100
AcDbLine
 62
253
  6
CONTINUOUS
 10
-42.3860024791
 20
6.1370191203
 11
-42.3777161159
 21
6.1333380124
  0
LINE
  5
242
100
AcDbEntity
  8
CURVE
100
AcDbLine
 62
253
  6
CONTINUOUS
 10
-42.430962811
 20
6.5565508622
 11
-42.4392703945
 21
6.5602435913
  0
LINE
  5
243
100
AcDbEntity
  8
CURVE
100
AcDbLine
 62
253
  6
CONTINUOUS
 10
-43.7887536351
 20
7.9116860744
 11
-43.8040206154
 21
7.9187251851
  0
LINE
  5
244
100
AcDbEntity
  8
CURVE
100
AcDbLine
 62
253
  6
CONTINUOUS
 10
-43.7549208774
 20
6.2780410104
 11
-43.7406251296
 21
6.270968709
  0
LINE
  5
245
100
AcDbEntity
  8
CURVE
100
AcDbLine
 62
253
  6
CONTINUOUS
 10
-42.3943650799
 20
6.1411838005
 11
-42.3860024791
 21
6.1370191203
  0
LINE
  5
246
100
AcDbEntity
  8
CURVE
100
AcDbLine
 62
253
  6
CONTINUOUS
 10
-42.4225758036
 20
6.5523726075
 11
-42.430962811
 21
6.5565508622
  0
LINE
  5
247
100
AcDbEntity
  8
CURVE
100
AcDbLine
 62
253
  6
CONTINUOUS
 10
-42.4027942119
 20
6.1458288841
 11
-42.3943650799
 21
6.1411838005
  0
LINE
  5
248
100
AcDbEntity
  8
CURVE
100
AcDbLine
 62
253
  6
CONTINUOUS
 10
-42.4141188108
 20
6.5477116549
 11
-42.4225758036
 21
6.5523726075
  0
LWPOLYLINE
  5
249
100
AcDbEntity
  8
RACCORDO
100
AcDbPolyline
 62
253
  6
CONTINUOUS
 90
7
 70
0
 10
-26.0627257977
 20
-1.0466333707
 10
-26.0642923512
 20
-1.0457512571
 10
-26.0707549064
 20
-1.0425581252
 10
-26.0775084199
 20
-1.0399136421
 10
-26.0845361198
 20
-1.0378243787
 10
-26.0918205014
 20
-1.0362955423
 10
-26.0993434458
 20
-1.0353309354
  0
LINE
  5
24A
100
AcDbEntity
  8
RACCORDO
100
AcDbLine
 62
253
  6
CONTINUOUS
 10
-28.4919995727
 20
-2.58646578
 11
-29.4051118426
 21
-2.0592461994
  0
LINE
  5
24B
100
AcDbEntity
  8
CURVE
100
AcDbLine
 62
253
  6
CONTINUOUS
 10
-45.8779401836
 20
7.5038457501
 11
-43.7549208774
 21
6.2780410104
  0
LINE
  5
24C
100
AcDbEntity
  8
RACCORDO
100
AcDbLine
 62
253
  6
CONTINUOUS
 10
-28.403611225
 20
-2.3586604556
 11
-29.145844027
 21
-1.9301045381
  0
LINE
  5
24D
100
AcDbEntity
  8
RACCORDO
100
AcDbLine
 62
7
  6
CONTINUOUS
 10
-28.0816252566
 20
-1.4176249127
 11
-27.7812931929
 21
-1.5910328822
  0
LINE
  5
24E
100
AcDbEntity
  8
RACCORDO
100
AcDbLine
 62
253
  6
CONTINUOUS
 10
-26.5381968222
 20
-0.781942496
 11
-26.0993434458
 21
-1.0353309354
  0
LINE
  5
24F
100
AcDbEntity
  8
CURVE
100
AcDbLine
 62
253
  6
CONTINUOUS
 10
-42.4112768495
 20
6.1509484444
 11
-42.4027942119
 21
6.1458288841
  0
LINE
  5
250
100
AcDbEntity
  8
CURVE
100
AcDbLine
 62
253
  6
CONTINUOUS
 10
-42.4056898387
 20
6.542622863
 11
-42.4141188108
 21
6.5477116549
  0
LINE
  5
251
100
AcDbEntity
  8
CURVE
100
AcDbLine
 62
253
  6
CONTINUOUS
 10
-43.7743537662
 20
7.9027075136
 11
-43.7887536351
 21
7.9116860744
  0
LINE
  5
252
100
AcDbEntity
  8
CURVE
100
AcDbLine
 62
253
  6
CONTINUOUS
 10
-42.4197137631
 20
6.1564834277
 11
-42.4112768495
 21
6.1509484444
  0
LINE
  5
253
100
AcDbEntity
  8
CURVE
100
AcDbLine
 62
253
  6
CONTINUOUS
 10
-42.3973010171
 20
6.5371147988
 11
-42.4056898387
 21
6.542622863
  0
LWPOLYLINE
  5
254
100
AcDbEntity
  8
RACCORDO
100
AcDbPolyline
 62
7
  6
CONTINUOUS
 90
3
 70
0
 10
-29.780908705
 20
-2.2464311418
 10
-29.7776405799
 20
-2.2487230127
 10
-29.7652137459
 20
-2.2563905341
  0
LINE
  5
255
100
AcDbEntity
  8
CURVE
100
AcDbLine
 62
253
  6
CONTINUOUS
 10
-42.428095258
 20
6.1624255605
 11
-42.4197137631
 21
6.1564834277
  0
LINE
  5
256
100
AcDbEntity
  8
CURVE
100
AcDbLine
 62
253
  6
CONTINUOUS
 10
-42.388962083
 20
6.5311954656
 11
-42.3973010171
 21
6.5371147988
  0
LINE
  5
257
100
AcDbEntity
  8
CURVE
100
AcDbLine
 62
253
  6
CONTINUOUS
 10
-42.4364108274
 20
6.1687659491
 11
-42.428095258
 21
6.1624255605
  0
LINE
  5
258
100
AcDbEntity
  8
CURVE
100
AcDbLine
 62
253
  6
CONTINUOUS
 10
-42.3806836292
 20
6.5248735187
 11
-42.388962083
 21
6.5311954656
  0
LINE
  5
259
100
AcDbEntity
  8
CURVE
100
AcDbLine
 62
253
  6
CONTINUOUS
 10
-43.7608634502
 20
7.8919534128
 11
-43.7743537662
 21
7.9027075136
  0
LINE
  5
25A
100
AcDbEntity
  8
CURVE
100
AcDbLine
 62
253
  6
CONTINUOUS
 10
-42.3724771391
 20
6.5181584309
 11
-42.3806836292
 21
6.5248735187
  0
LINE
  5
25B
100
AcDbEntity
  8
CURVE
100
AcDbLine
 62
253
  6
CONTINUOUS
 10
-42.3643550054
 20
6.5110606566
 11
-42.3724771391
 21
6.5181584309
  0
LINE
  5
25C
100
AcDbEntity
  8
CURVE
100
AcDbLine
 62
253
  6
CONTINUOUS
 10
-42.356330527
 20
6.5035917859
 11
-42.3643550054
 21
6.5110606566
  0
LWPOLYLINE
  5
25D
100
AcDbEntity
  8
RACCORDO
100
AcDbPolyline
 62
253
  6
CONTINUOUS
 90
4
 70
0
 10
-29.7796205696
 20
-2.2457895198
 10
-29.777889869
 20
-2.2474087376
 10
-29.771920066
 20
-2.2520785957
 10
-29.7652137459
 20
-2.2563905341
  0
LINE
  5
25E
100
AcDbEntity
  8
CURVE
100
AcDbLine
 62
253
  6
CONTINUOUS
 10
-43.7483163374
 20
7.8795444318
 11
-43.7608634502
 21
7.8919534128
  0
LINE
  5
25F
100
AcDbEntity
  8
CURVE
100
AcDbLine
 62
253
  6
CONTINUOUS
 10
-42.3484178816
 20
6.4957646857
 11
-42.356330527
 21
6.5035917859
  0
LINE
  5
260
100
AcDbEntity
  8
CURVE
100
AcDbLine
 62
253
  6
CONTINUOUS
 10
-42.4765726793
 20
6.2060678833
 11
-42.4687739877
 21
6.1979018977
  0
LINE
  5
261
100
AcDbEntity
  8
CURVE
100
AcDbLine
 62
253
  6
CONTINUOUS
 10
-42.340632074
 20
6.4875936181
 11
-42.3484178816
 21
6.4957646857
  0
LINE
  5
262
100
AcDbEntity
  8
CURVE
100
AcDbLine
 62
253
  6
CONTINUOUS
 10
-42.4842248834
 20
6.2145575405
 11
-42.4765726793
 21
6.2060678833
  0
LINE
  5
263
100
AcDbEntity
  8
CURVE
100
AcDbLine
 62
253
  6
CONTINUOUS
 10
-42.3329888565
 20
6.4790943326
 11
-42.340632074
 21
6.4875936181
  0
LINE
  5
264
100
AcDbEntity
  8
CURVE
100
AcDbLine
 62
253
  6
CONTINUOUS
 10
-43.7424045613
 20
7.8727418008
 11
-43.7483163374
 21
7.8795444318
  0
LINE
  5
265
100
AcDbEntity
  8
CURVE
100
AcDbLine
 62
253
  6
CONTINUOUS
 10
-42.4917146298
 20
6.2233538316
 11
-42.4842248834
 21
6.2145575405
  0
LINE
  5
266
100
AcDbEntity
  8
CURVE
100
AcDbLine
 62
253
  6
CONTINUOUS
 10
-42.3255046217
 20
6.4702841226
 11
-42.3329888565
 21
6.4790943326
  0
LINE
  5
267
100
AcDbEntity
  8
CURVE
100
AcDbLine
 62
253
  6
CONTINUOUS
 10
-42.4990254748
 20
6.2324382501
 11
-42.4917146298
 21
6.2233538316
  0
LINE
  5
268
100
AcDbEntity
  8
CURVE
100
AcDbLine
 62
253
  6
CONTINUOUS
 10
-42.3181962703
 20
6.4611818447
 11
-42.3255046217
 21
6.4702841226
  0
LINE
  5
269
100
AcDbEntity
  8
CURVE
100
AcDbLine
 62
253
  6
CONTINUOUS
 10
-43.7367503774
 20
7.8655605462
 11
-43.7424045613
 21
7.8727418008
  0
LINE
  5
26A
100
AcDbEntity
  8
CURVE
100
AcDbLine
 62
253
  6
CONTINUOUS
 10
-42.5061406492
 20
6.2417908458
 11
-42.4990254748
 21
6.2324382501
  0
LINE
  5
26B
100
AcDbEntity
  8
CURVE
100
AcDbLine
 62
253
  6
CONTINUOUS
 10
-42.3110810543
 20
6.4518078917
 11
-42.3181962703
 21
6.4611818447
  0
LINE
  5
26C
100
AcDbEntity
  8
CURVE
100
AcDbLine
 62
253
  6
CONTINUOUS
 10
-42.5130432247
 20
6.2513902916
 11
-42.5061406492
 21
6.2417908458
  0
LINE
  5
26D
100
AcDbEntity
  8
CURVE
100
AcDbLine
 62
253
  6
CONTINUOUS
 10
-42.3041764008
 20
6.4421841214
 11
-42.3110810543
 21
6.4518078917
  0
LINE
  5
26E
100
AcDbEntity
  8
CURVE
100
AcDbLine
 62
253
  6
CONTINUOUS
 10
-42.5197162929
 20
6.2612139944
 11
-42.5130432247
 21
6.2513902916
  0
LINE
  5
26F
100
AcDbEntity
  8
CURVE
100
AcDbLine
 62
253
  6
CONTINUOUS
 10
-42.2974997208
 20
6.4323337376
 11
-42.3041764008
 21
6.4421841214
  0
LWPOLYLINE
  5
270
100
AcDbEntity
  8
RACCORDO
100
AcDbPolyline
 62
253
  6
CONTINUOUS
 90
15
 70
0
 10
-48.0461061868
 20
6.1199049781
 10
-48.0438623401
 20
6.1044493256
 10
-48.0402873296
 20
6.0891147167
 10
-48.0353907378
 20
6.0739422546
 10
-48.0291856896
 20
6.058972608
 10
-48.0216888172
 20
6.0442459018
 10
-48.0129202154
 20
6.0298016098
 10
-48.0029033877
 20
6.0156784489
 10
-47.9916651836
 20
6.0019142751
 10
-47.9792357261
 20
5.9885459823
 10
-47.9656483314
 20
5.9756094031
 10
-47.9509394196
 20
5.963139213
 10
-47.9351484168
 20
5.9511688375
 10
-47.9183176495
 20
5.9397303622
 10
-47.9004922313
 20
5.9288544471
  0
LWPOLYLINE
  5
271
100
AcDbEntity
  8
RACCORDO
100
AcDbPolyline
 62
7
  6
CONTINUOUS
 90
23
 70
0
 10
-48.0469179371
 20
6.1317270182
 10
-48.044290168
 20
6.0827015458
 10
-48.0396408274
 20
6.0316803769
 10
-48.0331478375
 20
5.9820830211
 10
-48.0248764904
 20
5.9339459576
 10
-48.0148829433
 20
5.8872485543
 10
-48.0032055715
 20
5.841931167
 10
-47.9898953744
 20
5.7980072759
 10
-47.9750044343
 20
5.7554955299
 10
-47.9585636075
 20
5.7143646895
 10
-47.940624471
 20
5.674641744
 10
-47.921237833
 20
5.6363479186
 10
-47.9004299386
 20
5.5994625538
 10
-47.8782549009
 20
5.5640186878
 10
-47.8547689892
 20
5.530045727
 10
-47.8300007305
 20
5.4975351953
 10
-47.8040129649
 20
5.4665265433
 10
-47.7768667747
 20
5.4370477914
 10
-47.748586492
 20
5.4090883848
 10
-47.7192374057
 20
5.3826827765
 10
-47.6888887953
 20
5.3578619832
 10
-47.6575689348
 20
5.3346206528
 10
-47.6253337134
 20
5.3129780087
  0
LWPOLYLINE
  5
272
100
AcDbEntity
  8
RACCORDO
100
AcDbPolyline
 62
253
  6
CONTINUOUS
 90
22
 70
0
 10
-47.9004926239
 20
5.9288653909
 10
-47.953798969
 20
7.4951308674
 10
-48.0017770819
 20
9.0648163973
 10
-48.0444262006
 20
10.637897888
 10
-48.0817456467
 20
12.2143515954
 10
-48.1137348218
 20
13.7941529262
 10
-48.1403932219
 20
15.3772764301
 10
-48.1617204303
 20
16.9636973972
 10
-48.177716117
 20
18.5533918792
 10
-48.1883800455
 20
20.1463354861
 10
-48.1937120535
 20
21.7425037662
 10
-48.1937120535
 20
23.3418722194
 10
-48.1883800455
 20
24.9444163102
 10
-48.177716117
 20
26.5501114471
 10
-48.1617204303
 20
28.1589329814
 10
-48.1403932219
 20
29.7708562195
 10
-48.1137348228
 20
31.3858567856
 10
-48.0817456491
 20
33.0039095349
 10
-48.0444262006
 20
34.6249885453
 10
-48.0017770722
 20
36.2490685704
 10
-47.9537989421
 20
37.8761250468
 10
-47.9004925704
 20
39.5061330029
  0
LWPOLYLINE
  5
273
100
AcDbEntity
  8
ASSI
100
AcDbPolyline
 62
253
  6
CONTINUOUS
 90
22
 70
0
 10
-47.9004925704
 20
5.9288638971
 10
-47.9537989421
 20
7.4951300355
 10
-48.0017770722
 20
9.0648160636
 10
-48.0444262006
 20
10.6378978877
 10
-48.0817456491
 20
12.2143517066
 10
-48.1137348228
 20
13.7941529817
 10
-48.1403932219
 20
15.3772764297
 10
-48.1617204303
 20
16.9636973968
 10
-48.177716117
 20
18.5533918788
 10
-48.1883800455
 20
20.1463354856
 10
-48.1937120535
 20
21.7425037658
 10
-48.1937120535
 20
23.341872219
 10
-48.1883800455
 20
24.9444163097
 10
-48.177716117
 20
26.5501114467
 10
-48.1617204303
 20
28.1589329809
 10
-48.1403932219
 20
29.7708562191
 10
-48.1137348218
 20
31.3858568423
 10
-48.0817456467
 20
33.003909649
 10
-48.0444262006
 20
34.6249885449
 10
-48.0017770819
 20
36.2490682252
 10
-47.953798969
 20
37.8761241828
 10
-47.9004926239
 20
39.5061314453
  0
LINE
  5
274
100
AcDbEntity
  8
ASSI
100
AcDbLine
 62
7
  6
CONTINUOUS
 10
-48.161608016
 20
9.7410991871
 11
-48.0469183135
 21
6.1317323725
  0
LWPOLYLINE
  5
275
100
AcDbEntity
  8
RACCORDO
100
AcDbPolyline
 62
7
  6
CONTINUOUS
 90
4
 70
0
 10
-48.1906247777
 20
10.8318183398
 10
-48.147906434
 20
9.2574303234
 10
-48.0998503833
 20
7.6864329522
 10
-48.0469183142
 20
6.1317323915
  0
LWPOLYLINE
  5
276
100
AcDbEntity
  8
ASSI
100
AcDbPolyline
 62
253
  6
CONTINUOUS
 90
17
 70
0
 10
-48.0469525156
 20
39.7102011952
 10
-48.0470126737
 20
39.7026897917
 10
-48.0461059986
 20
39.6883626536
 10
-48.0438621461
 20
39.6740488002
 10
-48.0402871305
 20
39.6597865988
 10
-48.0353905345
 20
39.6456142782
 10
-48.029185483
 20
39.6315698261
 10
-48.0216886081
 20
39.6176908875
 10
-48.0129200047
 20
39.604014664
 10
-48.0029031764
 20
39.5905778135
 10
-47.9916649723
 20
39.5774163525
 10
-47.9792355157
 20
39.5645655592
 10
-47.9656481228
 20
39.5520598793
 10
-47.9509392135
 20
39.5399328331
 10
-47.9351482139
 20
39.5282169264
 10
-47.9183174506
 20
39.5169435627
 10
-47.900492037
 20
39.5061429594
  0
LWPOLYLINE
  5
277
100
AcDbEntity
  8
RACCORDO
100
AcDbPolyline
 62
253
  6
CONTINUOUS
 90
17
 70
0
 10
-48.0469444088
 20
39.7104459886
 10
-48.0470127451
 20
39.7026897763
 10
-48.0461060727
 20
39.6883626362
 10
-48.0438622226
 20
39.674048781
 10
-48.0402872091
 20
39.6597865777
 10
-48.0353906148
 20
39.6456142551
 10
-48.0291855647
 20
39.631569801
 10
-48.0216886909
 20
39.6176908606
 10
-48.0129200882
 20
39.6040146352
 10
-48.0029032602
 20
39.5905777828
 10
-47.9916650563
 20
39.57741632
 10
-47.9792355994
 20
39.5645655251
 10
-47.9656482059
 20
39.5520598435
 10
-47.9509392958
 20
39.5399327958
 10
-47.935148295
 20
39.5282168877
 10
-47.9183175302
 20
39.5169435226
 10
-47.900492115
 20
39.5061429181
  0
LWPOLYLINE
  5
278
100
AcDbEntity
  8
RACCORDO
100
AcDbPolyline
 62
7
  6
CONTINUOUS
 90
17
 70
0
 10
-48.1479520674
 20
36.4632399656
 10
-48.1906627924
 20
34.8379167679
 10
-48.2280359291
 20
33.2155953115
 10
-48.2600709248
 20
31.5962998882
 10
-48.2867672996
 20
29.9800532858
 10
-48.3081245797
 20
28.3668795156
 10
-48.3241424246
 20
26.756803489
 10
-48.3348205338
 20
25.1498493526
 10
-48.3401586369
 20
23.546041452
 10
-48.3401566273
 20
21.9454048706
 10
-48.3348144489
 20
20.3479648605
 10
-48.3241320958
 20
18.7537464438
 10
-48.3081097257
 20
17.1627737093
 10
-48.2867475271
 20
15.5750705076
 10
-48.2600457277
 20
13.9906614109
 10
-48.2280046888
 20
12.4095699314
 10
-48.1906247777
 20
10.8318183398
  0
LWPOLYLINE
  5
279
100
AcDbEntity
  8
ASSI
100
AcDbPolyline
 62
7
  6
CONTINUOUS
 90
9
 70
0
 10
-48.0469439774
 20
39.7104617043
 10
-48.1617702443
 20
35.95880845
 10
-48.249481655
 20
32.1618920593
 10
-48.3079533351
 20
28.3816285765
 10
-48.3371798905
 20
24.6183324276
 10
-48.3371581514
 20
20.8723202724
 10
-48.3078874001
 20
17.1439023698
 10
-48.2493693695
 20
13.433392403
 10
-48.161608016
 20
9.7410991871
  0
LWPOLYLINE
  5
27A
100
AcDbEntity
  8
RACCORDO
100
AcDbPolyline
 62
7
  6
CONTINUOUS
 90
3
 70
0
 10
-48.046943978
 20
39.7104616892
 10
-48.0999045929
 20
38.0915368955
 10
-48.1479520674
 20
36.4632399656
  0
LINE
  5
27B
100
AcDbEntity
  8
RACCORDO
100
AcDbLine
 62
7
  6
CONTINUOUS
 10
-48.0452647239
 20
39.7468117917
 11
-48.0469444088
 21
39.7104459886
  0
LWPOLYLINE
  5
27C
100
AcDbEntity
  8
RACCORDO
100
AcDbPolyline
 62
253
  6
CONTINUOUS
 90
43
 70
0
 10
-47.9004925663
 20
39.5061330006
 10
-47.8983292184
 20
39.5504094231
 10
-47.8948728348
 20
39.5953347518
 10
-47.8901277078
 20
39.6408534634
 10
-47.8840998596
 20
39.6869092852
 10
-47.8767966884
 20
39.7334453344
 10
-47.8682269352
 20
39.7804041964
 10
-47.8584012489
 20
39.8277282632
 10
-47.8473318779
 20
39.875358703
 10
-47.8350323641
 20
39.9232355923
 10
-47.8215182769
 20
39.9712994598
 10
-47.8068063984
 20
40.0194913033
 10
-47.7909144099
 20
40.0677515605
 10
-47.7738622225
 20
40.1160207477
 10
-47.7556711346
 20
40.1642392139
 10
-47.7363630528
 20
40.2123471436
 10
-47.7159621178
 20
40.2602853334
 10
-47.6944938456
 20
40.3079944958
 10
-47.6719842629
 20
40.3554150182
 10
-47.6484616372
 20
40.4024883481
 10
-47.6239553159
 20
40.4491565245
 10
-47.5984948557
 20
40.4953614797
 10
-47.5721121572
 20
40.5410462855
 10
-47.5448401954
 20
40.5861546177
 10
-47.5167118606
 20
40.6306302835
 10
-47.4877623176
 20
40.6744186085
 10
-47.4580278205
 20
40.7174655283
 10
-47.4275444431
 20
40.7597170581
 10
-47.3963504513
 20
40.8011211029
 10
-47.3644847891
 20
40.8416267874
 10
-47.3319858884
 20
40.8811835439
 10
-47.2988944934
 20
40.9197426691
 10
-47.2652519579
 20
40.9572567696
 10
-47.2310987268
 20
40.9936790745
 10
-47.1964772888
 20
41.0289650737
 10
-47.1614312175
 20
41.0630710707
 10
-47.1260034783
 20
41.0959536723
 10
-47.0902386507
 20
41.1275723591
 10
-47.0541812973
 20
41.1578885449
 10
-47.0178750094
 20
41.1868641538
 10
-46.9813647217
 20
41.2144633851
 10
-46.944696655
 20
41.240652755
 10
-46.9079167086
 20
41.2654002219
  0
LWPOLYLINE
  5
27D
100
AcDbEntity
  8
ASSI
100
AcDbPolyline
 62
253
  6
CONTINUOUS
 90
43
 70
0
 10
-47.9004926193
 20
39.5061314427
 10
-47.8983293708
 20
39.55040698
 10
-47.8948731169
 20
39.5953316249
 10
-47.89012813
 20
39.6408498656
 10
-47.8841004018
 20
39.6869055168
 10
-47.8767973178
 20
39.7334416278
 10
-47.8682276464
 20
39.7804005528
 10
-47.858402054
 20
39.8277246032
 10
-47.8473327764
 20
39.8753550259
 10
-47.8350333561
 20
39.9232318981
 10
-47.8215193641
 20
39.9712957446
 10
-47.8068075816
 20
40.0194875668
 10
-47.7909156856
 20
40.067747815
 10
-47.7738635835
 20
40.1160170132
 10
-47.7556725757
 20
40.1642355025
 10
-47.7363645729
 20
40.2123434563
 10
-47.7159637177
 20
40.2602816672
 10
-47.6944955248
 20
40.3079908516
 10
-47.6719860204
 20
40.3554113981
 10
-47.648463473
 20
40.4024847525
 10
-47.623957229
 20
40.4491529554
 10
-47.5984968427
 20
40.4953579447
 10
-47.5721142118
 20
40.5410427956
 10
-47.5448423132
 20
40.5861511801
 10
-47.5167140404
 20
40.6306268999
 10
-47.4877645592
 20
40.6744152792
 10
-47.4580301227
 20
40.7174622552
 10
-47.4275468056
 20
40.7597138422
 10
-47.3963528766
 20
40.8011179417
 10
-47.3644872771
 20
40.8416236824
 10
-47.3319884312
 20
40.8811805057
 10
-47.2988970772
 20
40.9197397142
 10
-47.2652545739
 20
40.9572539072
 10
-47.2311013748
 20
40.9936763045
 10
-47.1964799719
 20
41.0289623934
 10
-47.1614339359
 20
41.0630684805
 10
-47.1260062316
 20
41.0959511724
 10
-47.0902414982
 20
41.1275698974
 10
-47.0541842395
 20
41.1578861264
 10
-47.0178778649
 20
41.1868619273
 10
-46.9813672449
 20
41.2144615242
 10
-46.9446986593
 20
41.2406513615
 10
-46.9079180073
 20
41.265399375
  0
LINE
  5
27E
100
AcDbEntity
  8
RACCORDO
100
AcDbLine
 62
253
  6
CONTINUOUS
 10
-39.9025149866
 20
44.6253539616
 11
-39.3742478149
 21
45.288166228
  0
LINE
  5
27F
100
AcDbEntity
  8
RACCORDO
100
AcDbLine
 62
7
  6
CONTINUOUS
 10
-39.9025149866
 20
44.5488021187
 11
-39.3565478143
 21
45.2338224232
  0
LWPOLYLINE
  5
280
100
AcDbEntity
  8
RACCORDO
100
AcDbPolyline
 62
7
  6
CONTINUOUS
 90
28
 70
0
 10
-40.7925751693
 20
44.0002277274
 10
-40.8004542923
 20
43.9908254649
 10
-40.8086745414
 20
43.9815871521
 10
-40.8172324026
 20
43.9725342612
 10
-40.8261308331
 20
43.9636897931
 10
-40.8353572681
 20
43.9550739201
 10
-40.8448838424
 20
43.9467041541
 10
-40.8547040307
 20
43.9386025451
 10
-40.864809929
 20
43.9307905672
 10
-40.8751707119
 20
43.9232852554
 10
-40.8857772332
 20
43.9161085571
 10
-40.8966191446
 20
43.9092817262
 10
-40.9076629217
 20
43.9028211701
 10
-40.9188967701
 20
43.8967483453
 10
-40.9303077209
 20
43.8910839927
 10
-40.9418595414
 20
43.8858438816
 10
-40.9535376733
 20
43.8810485811
 10
-40.9653264048
 20
43.876717902
 10
-40.9771867188
 20
43.8728668671
 10
-40.9891011664
 20
43.8695146671
 10
-41.0010511798
 20
43.8666796552
 10
-41.0129948574
 20
43.8643758206
 10
-41.024911707
 20
43.8626203571
 10
-41.0367802742
 20
43.8614294609
 10
-41.0485558528
 20
43.8608154949
 10
-41.0602146733
 20
43.8607928672
 10
-41.0717326104
 20
43.8613747169
 10
-41.0746416714
 20
43.8616210193
  0
LWPOLYLINE
  5
281
100
AcDbEntity
  8
RACCORDO
100
AcDbPolyline
 62
7
  6
CONTINUOUS
 90
35
 70
0
 10
-47.1966394493
 20
41.2641335647
 10
-47.2374922848
 20
41.2347343537
 10
-47.2783344368
 20
41.203326491
 10
-47.3183328172
 20
41.1705642367
 10
-47.3574873979
 20
41.1364989945
 10
-47.3957986032
 20
41.1011746171
 10
-47.4332536884
 20
41.0646444378
 10
-47.4698382259
 20
41.0269588772
 10
-47.505537176
 20
40.988166073
 10
-47.5403332289
 20
40.9483159673
 10
-47.5742083381
 20
40.9074547049
 10
-47.6071399438
 20
40.8656340112
 10
-47.6391063169
 20
40.8229024719
 10
-47.6700865832
 20
40.7793047237
 10
-47.7000553575
 20
40.7348927065
 10
-47.7289888119
 20
40.6897124128
 10
-47.7568633942
 20
40.6438095681
 10
-47.7836505447
 20
40.5972371978
 10
-47.80932471
 20
40.5500404287
 10
-47.8338610165
 20
40.5022648003
 10
-47.8572291634
 20
40.4539624515
 10
-47.8794029091
 20
40.4051775592
 10
-47.9003555027
 20
40.3559546176
 10
-47.9200560503
 20
40.3063427508
 10
-47.9384777427
 20
40.256383385
 10
-47.955590512
 20
40.2061205339
 10
-47.9713625157
 20
40.1556007058
 10
-47.9857639532
 20
40.1048637097
 10
-47.9987615007
 20
40.0539505659
 10
-48.0103225291
 20
40.0028994826
 10
-48.0204116195
 20
39.9517494128
 10
-48.0289905358
 20
39.9005389132
 10
-48.0360220348
 20
39.849290595
 10
-48.0414625448
 20
39.7980318697
 10
-48.0452647239
 20
39.7468117917
  0
LINE
  5
282
100
AcDbEntity
  8
RACCORDO
100
AcDbLine
 62
7
  6
CONTINUOUS
 10
-47.1646839538
 20
41.2858119991
 11
-47.1966394493
 21
41.2641335647
  0
LWPOLYLINE
  5
283
100
AcDbEntity
  8
ASSI
100
AcDbPolyline
 62
7
  6
CONTINUOUS
 90
19
 70
0
 10
-47.1644858052
 20
41.2859425158
 10
-47.1976802689
 20
41.2634276048
 10
-47.2847292294
 20
41.1982233858
 10
-47.3681895332
 20
41.1268334853
 10
-47.4479615326
 20
41.0497381589
 10
-47.5239205536
 20
40.9673715611
 10
-47.5958233024
 20
40.8802483013
 10
-47.6634578624
 20
40.7888236184
 10
-47.7266054784
 20
40.6935254204
 10
-47.7849265673
 20
40.5949533474
 10
-47.8381808798
 20
40.4935539853
 10
-47.8861149069
 20
40.3897665126
 10
-47.9283970082
 20
40.284195216
 10
-47.964778279
 20
40.1772514397
 10
-47.9949831229
 20
40.0693548384
 10
-48.018701929
 20
39.9609832039
 10
-48.0356314014
 20
39.8524710363
 10
-48.0454161047
 20
39.7441556627
 10
-48.0469525156
 20
39.7102011952
  0
LINE
  5
284
100
AcDbEntity
  8
RACCORDO
100
AcDbLine
 62
7
  6
CONTINUOUS
 10
-43.5901667088
 20
43.6619947772
 11
-42.5515327673
 21
44.3469640937
  0
LINE
  5
285
100
AcDbEntity
  8
RACCORDO
100
AcDbLine
 62
7
  6
CONTINUOUS
 10
-47.1646956434
 20
41.2858045022
 11
-43.5833284433
 21
43.6476824892
  0
LINE
  5
286
100
AcDbEntity
  8
ASSI
100
AcDbLine
 62
7
  6
CONTINUOUS
 10
-47.1646956434
 20
41.2858045022
 11
-43.5833284433
 21
43.6476824892
  0
LINE
  5
287
100
AcDbEntity
  8
RACCORDO
100
AcDbLine
 62
253
  6
CONTINUOUS
 10
-43.3526709986
 20
43.6440532619
 11
-42.5515327673
 21
44.172396391
  0
LINE
  5
288
100
AcDbEntity
  8
RACCORDO
100
AcDbLine
 62
253
  6
CONTINUOUS
 10
-46.9079167652
 20
41.2654002546
 11
-43.3251809322
 21
43.6281808421
  0
LINE
  5
289
100
AcDbEntity
  8
ASSI
100
AcDbLine
 62
253
  6
CONTINUOUS
 10
-46.9079180562
 20
41.2653994032
 11
-43.3251809322
 21
43.6281808421
  0
LWPOLYLINE
  5
28A
100
AcDbEntity
  8
RACCORDO
100
AcDbPolyline
 62
7
  6
CONTINUOUS
 90
19
 70
0
 10
-43.1317069202
 20
45.4691604896
 10
-43.1436034067
 20
45.46167177
 10
-43.1551376298
 20
45.4534677888
 10
-43.1662553627
 20
45.4445679635
 10
-43.1769085043
 20
45.4349922014
 10
-43.1870404932
 20
45.4247741969
 10
-43.1965906351
 20
45.4139627772
 10
-43.2055097705
 20
45.402607079
 10
-43.2137671526
 20
45.3907420179
 10
-43.2213371456
 20
45.3783982927
 10
-43.2281818538
 20
45.3656328654
 10
-43.2342792802
 20
45.3524842763
 10
-43.2396245121
 20
45.3389491212
 10
-43.2441997958
 20
45.3250361218
 10
-43.2479636331
 20
45.3108314695
 10
-43.2508846958
 20
45.2964400221
 10
-43.2529557979
 20
45.2819013373
 10
-43.2541696689
 20
45.2672660891
 10
-43.2545257216
 20
45.2539299466
  0
LWPOLYLINE
  5
28B
100
AcDbEntity
  8
RACCORDO
100
AcDbPolyline
 62
253
  6
CONTINUOUS
 90
17
 70
0
 10
-47.164684051
 20
41.2858121466
 10
-47.1567096406
 20
41.2907306204
 10
-47.1437197467
 20
41.297421592
 10
-47.1300336524
 20
41.3029380178
 10
-47.1156888267
 20
41.3072647951
 10
-47.1007245421
 20
41.3103900785
 10
-47.0851817669
 20
41.3123053116
 10
-47.0691030532
 20
41.313005251
 10
-47.0525324206
 20
41.3124879805
 10
-47.0355152352
 20
41.3107549162
 10
-47.0180980856
 20
41.3078108029
 10
-47.0003286556
 20
41.3036637007
 10
-46.9822555933
 20
41.2983249633
 10
-46.9639283782
 20
41.2918092069
 10
-46.9453971855
 20
41.2841342699
 10
-46.9267127488
 20
41.2753211644
 10
-46.9079262214
 20
41.2653940183
  0
LWPOLYLINE
  5
28C
100
AcDbEntity
  8
ASSI
100
AcDbPolyline
 62
253
  6
CONTINUOUS
 90
17
 70
0
 10
-47.1644858642
 20
41.2859426055
 10
-47.1567096406
 20
41.2907306204
 10
-47.1437197467
 20
41.297421592
 10
-47.1300336524
 20
41.3029380178
 10
-47.1156888267
 20
41.3072647951
 10
-47.1007245421
 20
41.3103900785
 10
-47.0851817669
 20
41.3123053116
 10
-47.0691030532
 20
41.313005251
 10
-47.0525324206
 20
41.3124879805
 10
-47.0355152352
 20
41.3107549162
 10
-47.0180980856
 20
41.3078108029
 10
-47.0003286556
 20
41.3036637007
 10
-46.9822555933
 20
41.2983249633
 10
-46.9639283782
 20
41.2918092069
 10
-46.9453971855
 20
41.2841342699
 10
-46.9267127488
 20
41.2753211644
 10
-46.9079262214
 20
41.2653940183
  0
LINE
  5
28D
100
AcDbEntity
  8
RACCORDO
100
AcDbLine
 62
7
  6
CONTINUOUS
 10
-41.5485305104
 20
46.4046626143
 11
-43.1317069202
 21
45.4691604896
  0
LINE
  5
28E
100
AcDbEntity
  8
RACCORDO
100
AcDbLine
 62
253
  6
CONTINUOUS
 10
-41.4227975578
 20
46.3927025572
 11
-43.0055541609
 21
45.4574484971
  0
LINE
  5
28F
100
AcDbEntity
  8
RACCORDO
100
AcDbLine
 62
7
  6
CONTINUOUS
 10
-41.547072622
 20
46.40550443
 11
-41.5485268653
 21
46.4046647682
  0
LINE
  5
290
100
AcDbEntity
  8
RACCORDO
100
AcDbLine
 62
253
  6
CONTINUOUS
 10
-39.5510215185
 20
45.9219925644
 11
-41.6805694811
 21
44.692418949
  0
LINE
  5
291
100
AcDbEntity
  8
RACCORDO
100
AcDbLine
 62
7
  6
CONTINUOUS
 10
-41.0121943067
 20
46.7071914529
 11
-41.5470689054
 21
46.4055065267
  0
LINE
  5
292
100
AcDbEntity
  8
RACCORDO
100
AcDbLine
 62
253
  6
CONTINUOUS
 10
-40.8883476791
 20
46.6941479289
 11
-41.4227975578
 21
46.3927025572
  0
LINE
  5
293
100
AcDbEntity
  8
CURVE
100
AcDbLine
 62
253
  6
CONTINUOUS
 10
-43.7264933876
 20
6.2663593398
 11
-43.7127368837
 21
6.2643273056
  0
LINE
  5
294
100
AcDbEntity
  8
CURVE
100
AcDbLine
 62
253
  6
CONTINUOUS
 10
-42.3455567397
 20
6.1235208908
 11
-42.3378268065
 21
6.1223113535
  0
LINE
  5
295
100
AcDbEntity
  8
CURVE
100
AcDbLine
 62
253
  6
CONTINUOUS
 10
-42.4714887181
 20
6.5700939376
 11
-42.4792284845
 21
6.5713098269
  0
LINE
  5
296
100
AcDbEntity
  8
CURVE
100
AcDbLine
 62
253
  6
CONTINUOUS
 10
-42.3534241536
 20
6.1252317499
 11
-42.3455567397
 21
6.1235208908
  0
LINE
  5
297
100
AcDbEntity
  8
CURVE
100
AcDbLine
 62
253
  6
CONTINUOUS
 10
-42.4636098325
 20
6.5683761885
 11
-42.4714887181
 21
6.5700939376
  0
LINE
  5
298
100
AcDbEntity
  8
CURVE
100
AcDbLine
 62
253
  6
CONTINUOUS
 10
-42.3614151219
 20
6.1274406364
 11
-42.3534241536
 21
6.1252317499
  0
LINE
  5
299
100
AcDbEntity
  8
CURVE
100
AcDbLine
 62
253
  6
CONTINUOUS
 10
-42.4556054289
 20
6.5661596458
 11
-42.4636098325
 21
6.5683761885
  0
LINE
  5
29A
100
AcDbEntity
  8
CURVE
100
AcDbLine
 62
253
  6
CONTINUOUS
 10
-43.8040206154
 20
7.9187251851
 11
-43.8200933744
 21
7.9236224199
  0
LINE
  5
29B
100
AcDbEntity
  8
CURVE
100
AcDbLine
 62
253
  6
CONTINUOUS
 10
-42.4474882996
 20
6.5634476392
 11
-42.4556054289
 21
6.5661596458
  0
LINE
  5
29C
100
AcDbEntity
  8
CURVE
100
AcDbLine
 62
253
  6
CONTINUOUS
 10
-43.6523133226
 20
6.3369921918
 11
-43.6916948554
 21
7.729664808
  0
LWPOLYLINE
  5
29D
100
AcDbEntity
  8
RACCORDO
100
AcDbPolyline
 62
253
  6
CONTINUOUS
 90
25
 70
0
 10
-41.5037957774
 20
44.0657177402
 10
-41.5086797946
 20
44.0539731112
 10
-41.514030398
 20
44.0425408993
 10
-41.5198329764
 20
44.0314523234
 10
-41.526071684
 20
44.0207376642
 10
-41.5327294843
 20
44.0104261811
 10
-41.5397881963
 20
44.0005460327
 10
-41.547228544
 20
43.9911241995
 10
-41.5550302095
 20
43.9821864105
 10
-41.563171888
 20
43.9737570732
 10
-41.5716313462
 20
43.9658592061
 10
-41.5803854833
 20
43.9585143767
 10
-41.5894103934
 20
43.9517426422
 10
-41.5986814315
 20
43.9455624948
 10
-41.6081732802
 20
43.9399908112
 10
-41.6178600194
 20
43.9350428065
 10
-41.6277151965
 20
43.9307319926
 10
-41.6377118991
 20
43.9270701415
 10
-41.6478228284
 20
43.9240672529
 10
-41.6580203734
 20
43.9217315271
 10
-41.6682766869
 20
43.9200693425
 10
-41.678563761
 20
43.9190852381
 10
-41.6888535039
 20
43.9187819013
 10
-41.6991178164
 20
43.9191601605
 10
-41.7024643522
 20
43.9194316439
  0
LINE
  5
29E
100
AcDbEntity
  8
RACCORDO
100
AcDbLine
 62
7
  6
CONTINUOUS
 10
-39.9025149866
 20
43.8003228729
 11
-40.7925751693
 21
43.2388093912
  0
LINE
  5
29F
100
AcDbEntity
  8
RACCORDO
100
AcDbLine
 62
7
  6
CONTINUOUS
 10
-19.0356686017
 20
54.7465465995
 11
-12.3073957958
 21
58.7280986674
  0
LINE
  5
2A0
100
AcDbEntity
  8
ASSI
100
AcDbLine
 62
7
  6
CONTINUOUS
 10
-19.0356686017
 20
54.7465465995
 11
-12.3073957958
 21
58.7280986674
  0
LINE
  5
2A1
100
AcDbEntity
  8
RACCORDO
100
AcDbLine
 62
253
  6
CONTINUOUS
 10
-12.3073957958
 20
58.7280986674
 11
-12.3042845615
 21
58.7299172026
  0
LINE
  5
2A2
100
AcDbEntity
  8
ASSI
100
AcDbLine
 62
253
  6
CONTINUOUS
 10
-12.3073957958
 20
58.7280986674
 11
-12.3042845615
 21
58.7299172026
  0
LINE
  5
2A3
100
AcDbEntity
  8
RACCORDO
100
AcDbLine
 62
253
  6
CONTINUOUS
 10
-19.0280420154
 20
54.7451983084
 11
-11.864532034
 21
58.9837757262
  0
LINE
  5
2A4
100
AcDbEntity
  8
ASSI
100
AcDbLine
 62
253
  6
CONTINUOUS
 10
-19.0280420154
 20
54.7451983084
 11
-11.864532034
 21
58.9837757262
  0
LINE
  5
2A5
100
AcDbEntity
  8
RACCORDO
100
AcDbLine
 62
7
  6
CONTINUOUS
 10
-12.307416908
 20
58.7280849771
 11
-12.3042845615
 21
58.7299172026
  0
LINE
  5
2A6
100
AcDbEntity
  8
ASSI
100
AcDbLine
 62
7
  6
CONTINUOUS
 10
-12.307416908
 20
58.7280849771
 11
-12.3042845615
 21
58.7299172026
  0
LINE
  5
2A7
100
AcDbEntity
  8
RACCORDO
100
AcDbLine
 62
253
  6
CONTINUOUS
 10
-39.3742478149
 20
45.6158115285
 11
-41.5037957774
 21
44.3862379131
  0
LINE
  5
2A8
100
AcDbEntity
  8
RACCORDO
100
AcDbLine
 62
7
  6
CONTINUOUS
 10
-38.4944722516
 20
43.7967606032
 11
-31.8931881289
 21
47.6082885974
  0
LINE
  5
2A9
100
AcDbEntity
  8
ASSI
100
AcDbLine
 62
7
  6
CONTINUOUS
 10
-19.2252660953
 20
54.7186581099
 11
-31.7165852414
 21
47.5063269879
  0
LINE
  5
2AA
100
AcDbEntity
  8
ASSI
100
AcDbLine
 62
253
  6
CONTINUOUS
 10
-18.8702660953
 20
54.6834739704
 11
-31.5086168458
 21
47.3862486428
  0
LINE
  5
2AB
100
AcDbEntity
  8
RACCORDO
100
AcDbLine
 62
7
  6
CONTINUOUS
 10
-11.864532034
 20
58.9837757262
 11
-12.3042845615
 21
58.7299172026
  0
LINE
  5
2AC
100
AcDbEntity
  8
ASSI
100
AcDbLine
 62
7
  6
CONTINUOUS
 10
-11.864532034
 20
58.9837757262
 11
-12.3042845615
 21
58.7299172026
  0
LINE
  5
2AD
100
AcDbEntity
  8
CURVE
100
AcDbLine
 62
253
  6
CONTINUOUS
 10
-42.3302490296
 20
6.1216059567
 11
-42.3228387452
 21
6.1214068589
  0
LINE
  5
2AE
100
AcDbEntity
  8
CURVE
100
AcDbLine
 62
253
  6
CONTINUOUS
 10
-42.4868147785
 20
6.57202123
 11
-42.4942325769
 21
6.5722261425
  0
LINE
  5
2AF
100
AcDbEntity
  8
CURVE
100
AcDbLine
 62
253
  6
CONTINUOUS
 10
-42.3378268065
 20
6.1223113535
 11
-42.3302490296
 21
6.1216059567
  0
LINE
  5
2B0
100
AcDbEntity
  8
CURVE
100
AcDbLine
 62
253
  6
CONTINUOUS
 10
-42.4792284845
 20
6.5713098269
 11
-42.4868147785
 21
6.57202123
  0
LWPOLYLINE
  5
2B1
100
AcDbEntity
  8
RACCORDO
100
AcDbPolyline
 62
253
  6
CONTINUOUS
 90
31
 70
0
 10
-28.139477613
 20
-2.5870578607
 10
-28.1443561128
 20
-2.5803410775
 10
-28.1497017544
 20
-2.5733608859
 10
-28.1555003445
 20
-2.5661361074
 10
-28.1617370297
 20
-2.5586855589
 10
-28.1683946238
 20
-2.5510300601
 10
-28.1754532729
 20
-2.5431925568
 10
-28.1828929287
 20
-2.5351952697
 10
-28.1906939648
 20
-2.5270592583
 10
-28.1988352841
 20
-2.5188065344
 10
-28.2072948196
 20
-2.51045949
 10
-28.2160493564
 20
-2.5020410526
 10
-28.2250747766
 20
-2.4935744223
 10
-28.234346343
 20
-2.485082802
 10
-28.2438388123
 20
-2.4765893088
 10
-28.2535262806
 20
-2.468117121
 10
-28.2633823051
 20
-2.4596893662
 10
-28.273379951
 20
-2.4513290778
 10
-28.2834918869
 20
-2.4430591117
 10
-28.293690485
 20
-2.4349020629
 10
-28.3039478967
 20
-2.4268802049
 10
-28.3142361047
 20
-2.4190154489
 10
-28.3245270233
 20
-2.4113292653
 10
-28.3347925283
 20
-2.4038426601
 10
-28.3450045342
 20
-2.3965761146
 10
-28.3551351193
 20
-2.3895494938
 10
-28.3651566451
 20
-2.3827819648
 10
-28.3750417835
 20
-2.3762919806
 10
-28.3847635491
 20
-2.3700972586
 10
-28.3942953744
 20
-2.364214728
 10
-28.403611225
 20
-2.3586604556
  0
LINE
  5
2B2
100
AcDbEntity
  8
CURVE
100
AcDbLine
 62
253
  6
CONTINUOUS
 10
-42.3817995337
 20
5.4640281651
 11
-42.3913636843
 21
5.7850743463
  0
LINE
  5
2B3
100
AcDbEntity
  8
CURVE
100
AcDbLine
 62
253
  6
CONTINUOUS
 10
-42.423139394
 20
6.912951558
 11
-42.4316816222
 21
7.2345877773
  0
LWPOLYLINE
  5
2B4
100
AcDbEntity
  8
RACCORDO
100
AcDbPolyline
 62
253
  6
CONTINUOUS
 90
17
 70
0
 10
-43.1813024169
 20
44.831339369
 10
-43.1810825622
 20
44.821289407
 10
-43.180423545
 20
44.8115183243
 10
-43.1793270042
 20
44.8020504256
 10
-43.1777956733
 20
44.7929092922
 10
-43.175833358
 20
44.7841176281
 10
-43.1734449122
 20
44.7756972159
 10
-43.1706362421
 20
44.7676689572
 10
-43.1674143366
 20
44.760052896
 10
-43.163787239
 20
44.7528680666
 10
-43.1597639594
 20
44.7461323212
 10
-43.1553545168
 20
44.7398624377
 10
-43.1505699803
 20
44.7340741234
 10
-43.1454223469
 20
44.728781816
 10
-43.1399243789
 20
44.7239985653
 10
-43.1340896452
 20
44.719736152
 10
-43.1295310334
 20
44.7169047333
  0
LWPOLYLINE
  5
2B5
100
AcDbEntity
  8
RACCORDO
100
AcDbPolyline
 62
253
  6
CONTINUOUS
 90
17
 70
0
 10
-41.8563177371
 20
44.0663098209
 10
-41.8560978824
 20
44.0562598588
 10
-41.8554388652
 20
44.0464887762
 10
-41.8543423244
 20
44.0370208775
 10
-41.8528109935
 20
44.027879744
 10
-41.8508486782
 20
44.0190880799
 10
-41.8484602324
 20
44.0106676677
 10
-41.8456515623
 20
44.002639409
 10
-41.8424296568
 20
43.9950233478
 10
-41.8388025592
 20
43.9878385185
 10
-41.8347792796
 20
43.9811027731
 10
-41.830369837
 20
43.9748328895
 10
-41.8255853005
 20
43.9690445753
 10
-41.820437667
 20
43.9637522679
 10
-41.8149396991
 20
43.9589690171
 10
-41.8091049654
 20
43.9547066039
 10
-41.8046102982
 20
43.9519121429
  0
LINE
  5
2B6
100
AcDbEntity
  8
RACCORDO
100
AcDbLine
 62
7
  6
CONTINUOUS
 10
-43.2545257216
 20
45.2539281902
 11
-43.2545209088
 21
44.9318568257
  0
LINE
  5
2B7
100
AcDbEntity
  8
RACCORDO
100
AcDbLine
 62
253
  6
CONTINUOUS
 10
-43.1813024169
 20
45.1518595419
 11
-43.1813024169
 21
44.831339369
  0
LINE
  5
2B8
100
AcDbEntity
  8
RACCORDO
100
AcDbLine
 62
7
  6
CONTINUOUS
 10
-42.5515327673
 20
44.1037767132
 11
-42.5515327673
 21
44.3831757785
  0
LINE
  5
2B9
100
AcDbEntity
  8
RACCORDO
100
AcDbLine
 62
253
  6
CONTINUOUS
 10
-42.4783094626
 20
43.99854645
 11
-42.4783094626
 21
44.34089756
  0
LINE
  5
2BA
100
AcDbEntity
  8
RACCORDO
100
AcDbLine
 62
253
  6
CONTINUOUS
 10
-41.8563177371
 20
44.0663098209
 11
-41.8563177371
 21
44.3868299937
  0
LINE
  5
2BB
100
AcDbEntity
  8
RACCORDO
100
AcDbLine
 62
253
  6
CONTINUOUS
 10
-41.5037957774
 20
44.0657177402
 11
-41.5037957774
 21
44.3862379131
  0
LINE
  5
2BC
100
AcDbEntity
  8
0
100
AcDbLine
 62
7
  6
CONTINUOUS
 10
-41.2106625318
 20
42.4072844188
 11
-41.2106625318
 21
41.8057474123
  0
LINE
  5
2BD
100
AcDbEntity
  8
ASSI
100
AcDbLine
 62
7
  6
CONTINUOUS
 10
-41.2106625318
 20
41.8057474123
 11
-41.2106625318
 21
42.4072844188
  0
LINE
  5
2BE
100
AcDbEntity
  8
RACCORDO
100
AcDbLine
 62
253
  6
CONTINUOUS
 10
-41.145097129
 20
43.8681086279
 11
-41.145097129
 21
43.2287663577
  0
LWPOLYLINE
  5
2BF
100
AcDbEntity
  8
RACCORDO
100
AcDbPolyline
 62
253
  6
CONTINUOUS
 90
31
 70
0
 10
-43.1813024169
 20
45.1518595419
 10
-43.1810618356
 20
45.1626439478
 10
-43.1803407445
 20
45.1736768435
 10
-43.1791411027
 20
45.1849282006
 10
-43.1774661702
 20
45.1963674074
 10
-43.1753205036
 20
45.2079633172
 10
-43.172709949
 20
45.2196843306
 10
-43.1696416156
 20
45.2314985351
 10
-43.1661238543
 20
45.2433737818
 10
-43.1621662451
 20
45.2552777364
 10
-43.1577795632
 20
45.2671779954
 10
-43.1529757501
 20
45.2790421698
 10
-43.1477678855
 20
45.2908379625
 10
-43.1421701401
 20
45.3025332811
 10
-43.1361977585
 20
45.3140962794
 10
-43.1298670242
 20
45.3254954417
 10
-43.1231952033
 20
45.3366996981
 10
-43.1162004349
 20
45.3476786053
 10
-43.1089016981
 20
45.3584023777
 10
-43.1013187555
 20
45.3688419595
 10
-43.0934723372
 20
45.3789687924
 10
-43.0853840459
 20
45.3887550197
 10
-43.0770760781
 20
45.3981738559
 10
-43.0685709057
 20
45.4071998934
 10
-43.059891443
 20
45.415808839
 10
-43.0510593525
 20
45.4239790106
 10
-43.0421005695
 20
45.4316862244
 10
-43.0330452326
 20
45.4389050927
 10
-43.0239200638
 20
45.4456155602
 10
-43.0147480593
 20
45.4518019519
 10
-43.0055541609
 20
45.4574484971
  0
LWPOLYLINE
  5
2C0
100
AcDbEntity
  8
RACCORDO
100
AcDbPolyline
 62
253
  6
CONTINUOUS
 90
31
 70
0
 10
-41.8563177371
 20
44.3868299937
 10
-41.8560772616
 20
44.3976119999
 10
-41.8553564894
 20
44.4086423668
 10
-41.8541573815
 20
44.4198910845
 10
-41.8524832002
 20
44.431327549
 10
-41.8503385005
 20
44.4429206454
 10
-41.8477291174
 20
44.4546388328
 10
-41.84466215
 20
44.4664502297
 10
-41.8411459427
 20
44.4783227014
 10
-41.8371900619
 20
44.4902239467
 10
-41.8328052702
 20
44.5021215863
 10
-41.8280034972
 20
44.5139832506
 10
-41.822797807
 20
44.525776668
 10
-41.8172023624
 20
44.5374697525
 10
-41.8112323868
 20
44.549030691
 10
-41.8049041227
 20
44.5604280302
 10
-41.798234787
 20
44.5716307614
 10
-41.7912425249
 20
44.582608406
 10
-41.7839463599
 20
44.5933310972
 10
-41.7763661426
 20
44.6037696622
 10
-41.7685224962
 20
44.6138957012
 10
-41.7604367607
 20
44.6236816645
 10
-41.7521309346
 20
44.6331009277
 10
-41.7436276155
 20
44.6421278642
 10
-41.7349499379
 20
44.6507379145
 10
-41.7261215111
 20
44.6589076538
 10
-41.7171663542
 20
44.6666148546
 10
-41.7081088312
 20
44.6738385484
 10
-41.6989735848
 20
44.6805590819
 10
-41.6897854688
 20
44.6867581706
 10
-41.6805694811
 20
44.692418949
  0
LINE
  5
2C1
100
AcDbEntity
  8
RACCORDO
100
AcDbLine
 62
253
  6
CONTINUOUS
 10
-18.6918787767
 20
54.5987157564
 11
-11.3645510725
 21
58.934222487
  0
LINE
  5
2C2
100
AcDbEntity
  8
ASSI
100
AcDbLine
 62
253
  6
CONTINUOUS
 10
-18.6918787767
 20
54.5987157564
 11
-11.3645510725
 21
58.934222487
  0
LINE
  5
2C3
100
AcDbEntity
  8
RACCORDO
100
AcDbLine
 62
7
  6
CONTINUOUS
 10
-37.5336952682
 20
43.1626157582
 11
-37.180153879
 21
43.3715240761
  0
LINE
  5
2C4
100
AcDbEntity
  8
ASSI
100
AcDbLine
 62
253
  6
CONTINUOUS
 10
-16.1861535456
 20
53.133701024
 11
-28.8245042961
 21
45.8364756964
  0
LINE
  5
2C5
100
AcDbEntity
  8
0
100
AcDbLine
 62
7
  6
CONTINUOUS
 10
-32.2304064107
 20
43.7799643802
 11
-31.5232996295
 21
44.1882389735
  0
LINE
  5
2C6
100
AcDbEntity
  8
ASSI
100
AcDbLine
 62
7
  6
CONTINUOUS
 10
-31.2384000384
 20
46.0316845523
 11
-35.8366509948
 21
43.4076014503
  0
LINE
  5
2C7
100
AcDbEntity
  8
DRAFT
100
AcDbLine
 62
7
  6
CONTINUOUS
 10
-31.5232996295
 20
44.7091790473
 11
-31.1895240069
 21
44.8985335871
  0
LINE
  5
2C8
100
AcDbEntity
  8
RACCORDO
100
AcDbLine
 62
7
  6
CONTINUOUS
 10
-29.1129659811
 20
45.6718755538
 11
-31.1697462389
 21
44.5050417507
  0
LINE
  5
2C9
100
AcDbEntity
  8
ASSI
100
AcDbLine
 62
7
  6
CONTINUOUS
 10
-37.180153879
 20
43.3715240761
 11
-31.8439304731
 21
46.3813102362
  0
LWPOLYLINE
  5
2CA
100
AcDbEntity
  8
ASSI
100
AcDbPolyline
 62
7
  6
CONTINUOUS
 90
7
 70
0
 10
-31.2384000384
 20
46.0316845523
 10
-31.230190779
 20
46.0362574677
 10
-31.2220068213
 20
46.0405991499
 10
-31.2138481652
 20
46.0447095991
 10
-31.2057148108
 20
46.0485888153
 10
-31.197606758
 20
46.0522367983
 10
-31.1895240069
 20
46.0556535484
  0
LWPOLYLINE
  5
2CB
100
AcDbEntity
  8
RACCORDO
100
AcDbPolyline
 62
253
  6
CONTINUOUS
 90
7
 70
0
 10
-16.1877812312
 20
51.4377234533
 10
-16.1655876126
 20
51.4475856493
 10
-16.1424505856
 20
51.4521038599
 10
-16.1174558023
 20
51.4519704581
 10
-16.0910308889
 20
51.4471877262
 10
-16.0636279391
 20
51.4378374902
 10
-16.0357157797
 20
51.4240797198
  0
LWPOLYLINE
  5
2CC
100
AcDbEntity
  8
ASSI
100
AcDbPolyline
 62
253
  6
CONTINUOUS
 90
7
 70
0
 10
-16.1877812312
 20
51.4377234533
 10
-16.1655876126
 20
51.4475856493
 10
-16.1424505856
 20
51.4521038599
 10
-16.1174558023
 20
51.4519704581
 10
-16.0910308889
 20
51.4471877262
 10
-16.0636279391
 20
51.4378374902
 10
-16.0357157797
 20
51.4240797198
  0
LINE
  5
2CD
100
AcDbEntity
  8
ASSI
100
AcDbLine
 62
7
  6
CONTINUOUS
 10
-31.166565358
 20
46.0650318336
 11
-31.1895240069
 21
46.0556535484
  0
LWPOLYLINE
  5
2CE
100
AcDbEntity
  8
ASSI
100
AcDbPolyline
 62
7
  6
CONTINUOUS
 90
18
 70
0
 10
-31.7929992818
 20
46.4058244969
 10
-31.7808436915
 20
46.4102208574
 10
-31.7681109477
 20
46.4138598309
 10
-31.7548072919
 20
46.4167222722
 10
-31.7409326969
 20
46.4188027015
 10
-31.7265047623
 20
46.4200672509
 10
-31.7115610744
 20
46.4204556549
 10
-31.6961201442
 20
46.4199433557
 10
-31.6801970899
 20
46.4185192693
 10
-31.6638304234
 20
46.4161465778
 10
-31.6470797706
 20
46.4128166775
 10
-31.6299333115
 20
46.4085083187
 10
-31.6123218372
 20
46.403160714
 10
-31.5942612812
 20
46.3967535894
 10
-31.5757864881
 20
46.3892632121
 10
-31.5568543006
 20
46.3806115924
 10
-31.5374931233
 20
46.3707708303
 10
-31.5213828295
 20
46.3618314979
  0
LINE
  5
2CF
100
AcDbEntity
  8
CURVE
100
AcDbLine
 62
253
  6
CONTINUOUS
 10
-42.3156118359
 20
6.1217153789
 11
-42.3085845925
 21
6.1225318263
  0
LINE
  5
2D0
100
AcDbEntity
  8
CURVE
100
AcDbLine
 62
253
  6
CONTINUOUS
 10
-42.5014662945
 20
6.5719233604
 11
-42.508499915
 21
6.5711126491
  0
LINE
  5
2D1
100
AcDbEntity
  8
CURVE
100
AcDbLine
 62
253
  6
CONTINUOUS
 10
-42.3228387452
 20
6.1214068589
 11
-42.3156118359
 21
6.1217153789
  0
LINE
  5
2D2
100
AcDbEntity
  8
CURVE
100
AcDbLine
 62
253
  6
CONTINUOUS
 10
-42.4942325769
 20
6.5722261425
 11
-42.5014662945
 21
6.5719233604
  0
LINE
  5
2D3
100
AcDbEntity
  8
0
100
AcDbLine
 62
7
  6
CONTINUOUS
 10
-26.9164354023
 20
6.4194322343
 11
-27.0619387187
 21
6.5034440256
  0
LINE
  5
2D4
100
AcDbEntity
  8
0
100
AcDbLine
 62
7
  6
CONTINUOUS
 10
-25.4775366504
 20
7.1932254185
 11
-26.4726081617
 21
7.767767238
  0
LWPOLYLINE
  5
2D5
100
AcDbEntity
  8
RACCORDO
100
AcDbPolyline
 62
253
  6
CONTINUOUS
 90
31
 70
0
 10
-41.5037957774
 20
44.3862379131
 10
-41.5040908719
 20
44.3970323791
 10
-41.5048670554
 20
44.4080787671
 10
-41.5061222028
 20
44.4193467891
 10
-41.5078528772
 20
44.4308055601
 10
-41.5100543351
 20
44.4424236499
 10
-41.5127205344
 20
44.4541691681
 10
-41.5158441611
 20
44.4660098997
 10
-41.5194166506
 20
44.4779133843
 10
-41.5234282019
 20
44.4898469706
 10
-41.5278678121
 20
44.5017779339
 10
-41.5327233062
 20
44.5136735616
 10
-41.5379813662
 20
44.5255012314
 10
-41.5436275789
 20
44.5372285261
 10
-41.549646454
 20
44.548823276
 10
-41.5560214602
 20
44.5602536456
 10
-41.5627350826
 20
44.57148825
 10
-41.5697689331
 20
44.5824963368
 10
-41.5771037849
 20
44.5932478194
 10
-41.5847196288
 20
44.603713349
 10
-41.592595492
 20
44.6138640868
 10
-41.600709534
 20
44.6236719078
 10
-41.6090393259
 20
44.6331097713
 10
-41.6175621686
 20
44.6421520266
 10
-41.6262549271
 20
44.6507741528
 10
-41.635095715
 20
44.6589542479
 10
-41.6440584053
 20
44.6666679468
 10
-41.6531127105
 20
44.6738897186
 10
-41.6622317551
 20
44.6805993653
 10
-41.6713923736
 20
44.6867810694
 10
-41.6805694811
 20
44.692418949
  0
LWPOLYLINE
  5
2D6
100
AcDbEntity
  8
RACCORDO
100
AcDbPolyline
 62
7
  6
CONTINUOUS
 90
34
 70
0
 10
-39.9025149866
 20
45.3107963393
 10
-39.9027150426
 20
45.3206241824
 10
-39.9033152801
 20
45.3306608589
 10
-39.9043142381
 20
45.3408836946
 10
-39.9057094736
 20
45.3512696395
 10
-39.9074978219
 20
45.3617951713
 10
-39.9096754032
 20
45.372436348
 10
-39.9122372277
 20
45.3831691003
 10
-39.915177402
 20
45.3939691689
 10
-39.918489397
 20
45.4048120108
 10
-39.9221656741
 20
45.4156730866
 10
-39.9261978343
 20
45.4265278349
 10
-39.9305768317
 20
45.4373516113
 10
-39.9352927322
 20
45.4481199062
 10
-39.9403348022
 20
45.4588083563
 10
-39.9456916628
 20
45.4693927183
 10
-39.9513511871
 20
45.4798490116
 10
-39.957300525
 20
45.4901535671
 10
-39.9635261968
 20
45.5002830372
 10
-39.9700141293
 20
45.5102144586
 10
-39.9767496182
 20
45.5199253389
 10
-39.9837173574
 20
45.5293937017
 10
-39.9909016144
 20
45.5385980693
 10
-39.9982861301
 20
45.5475175837
 10
-40.0058540844
 20
45.5561320881
 10
-40.013588406
 20
45.5644220276
 10
-40.0214716119
 20
45.5723686034
 10
-40.0294857114
 20
45.5799538888
 10
-40.0376126417
 20
45.5871606499
 10
-40.0458340528
 20
45.5939725297
 10
-40.0541311495
 20
45.6003741967
 10
-40.0624851429
 20
45.606351148
 10
-40.070877292
 20
45.6118897419
 10
-40.0792886903
 20
45.6169773752
  0
LWPOLYLINE
  5
2D7
100
AcDbEntity
  8
RACCORDO
100
AcDbPolyline
 62
253
  6
CONTINUOUS
 90
31
 70
0
 10
-39.3742478149
 20
45.6158115285
 10
-39.3744380629
 20
45.6266665315
 10
-39.3751153274
 20
45.6377700342
 10
-39.3762777543
 20
45.6490915919
 10
-39.377922161
 20
45.6606001728
 10
-39.3800440405
 20
45.6722642101
 10
-39.3826375694
 20
45.6840516872
 10
-39.3856956329
 20
45.6959302742
 10
-39.3892098461
 20
45.7078674068
 10
-39.3931705678
 20
45.7198303415
 10
-39.3975669344
 20
45.7317862731
 10
-39.4023868896
 20
45.7437024205
 10
-39.4076172127
 20
45.7555461053
 10
-39.4132435665
 20
45.7672848662
 10
-39.4192505151
 20
45.7788865024
 10
-39.4256215599
 20
45.7903191593
 10
-39.4323391967
 20
45.8015514458
 10
-39.4393850261
 20
45.8125526161
 10
-39.4467397887
 20
45.8232926024
 10
-39.4543834211
 20
45.8337420873
 10
-39.4622948741
 20
45.843872276
 10
-39.4704522084
 20
45.8536551006
 10
-39.4788328746
 20
45.8630635899
 10
-39.4874140343
 20
45.8720721737
 10
-39.4961723939
 20
45.8806564226
 10
-39.505085904
 20
45.8887945289
 10
-39.5141282244
 20
45.8964622503
 10
-39.5232687932
 20
45.9036342146
 10
-39.5324804661
 20
45.9102903789
 10
-39.5417398298
 20
45.9164150687
 10
-39.5510215185
 20
45.9219925644
  0
LINE
  5
2D8
100
AcDbEntity
  8
0
100
AcDbLine
 62
7
  6
CONTINUOUS
 10
-41.1399518537
 20
42.3664569595
 11
-41.1399518537
 21
41.764919953
  0
LINE
  5
2D9
100
AcDbEntity
  8
RACCORDO
100
AcDbLine
 62
253
  6
CONTINUOUS
 10
-40.7925751693
 20
44.0002277274
 11
-40.7925751693
 21
43.2388093912
  0
LINE
  5
2DA
100
AcDbEntity
  8
RACCORDO
100
AcDbLine
 62
7
  6
CONTINUOUS
 10
-39.9025149866
 20
43.8003228729
 11
-39.9025149866
 21
45.3107963393
  0
LINE
  5
2DB
100
AcDbEntity
  8
RACCORDO
100
AcDbLine
 62
253
  6
CONTINUOUS
 10
-39.3742478149
 20
45.6158115285
 11
-39.3742478149
 21
45.288166228
  0
LINE
  5
2DC
100
AcDbEntity
  8
RACCORDO
100
AcDbLine
 62
7
  6
CONTINUOUS
 10
-39.3020499579
 20
45.7172846415
 11
-39.3020499579
 21
45.389639341
  0
LINE
  5
2DD
100
AcDbEntity
  8
0
100
AcDbLine
 62
7
  6
CONTINUOUS
 10
-39.3014742226
 20
40.7463729394
 11
-39.3014742226
 21
40.8150135048
  0
LINE
  5
2DE
100
AcDbEntity
  8
0
100
AcDbLine
 62
7
  6
CONTINUOUS
 10
-38.4529460852
 20
40.7720465758
 11
-38.4529460852
 21
40.8150135048
  0
LWPOLYLINE
  5
2DF
100
AcDbEntity
  8
RACCORDO
100
AcDbPolyline
 62
7
  6
CONTINUOUS
 90
15
 70
0
 10
-39.302049958
 20
45.3896344617
 10
-39.3022090918
 20
45.380720734
 10
-39.302982668
 20
45.3680642375
 10
-39.304399134
 20
45.3554476838
 10
-39.3064569256
 20
45.3429053867
 10
-39.30915242
 20
45.3304718997
 10
-39.3124828032
 20
45.318172017
 10
-39.3164426765
 20
45.3060378521
 10
-39.3210234247
 20
45.294105363
 10
-39.3262163399
 20
45.2824051253
 10
-39.3320096031
 20
45.2709707173
 10
-39.3383898345
 20
45.2598342886
 10
-39.3453441032
 20
45.2490239448
 10
-39.3528564558
 20
45.2385699904
 10
-39.3565482951
 20
45.23382182
  0
LWPOLYLINE
  5
2E0
100
AcDbEntity
  8
RACCORDO
100
AcDbPolyline
 62
253
  6
CONTINUOUS
 90
16
 70
0
 10
-39.3020499579
 20
45.7172846453
 10
-39.3023512284
 20
45.710200295
 10
-39.303330947
 20
45.7026908534
 10
-39.304987636
 20
45.6952211175
 10
-39.3073167875
 20
45.6878114271
 10
-39.3103120677
 20
45.6804819423
 10
-39.3139653266
 20
45.6732526161
 10
-39.3182666247
 20
45.6661431251
 10
-39.3232042572
 20
45.6591728222
 10
-39.3287647825
 20
45.6523606866
 10
-39.3349330716
 20
45.6457252558
 10
-39.3416923329
 20
45.639284596
 10
-39.3490241468
 20
45.633056257
 10
-39.3569085449
 20
45.6270571961
 10
-39.3653240707
 20
45.6213037338
 10
-39.3742478149
 20
45.6158115285
  0
LWPOLYLINE
  5
2E1
100
AcDbEntity
  8
RACCORDO
100
AcDbPolyline
 62
253
  6
CONTINUOUS
 90
16
 70
0
 10
-39.302049958
 20
45.3896344617
 10
-39.3023528811
 20
45.382535601
 10
-39.3033341181
 20
45.3750275467
 10
-39.3049920759
 20
45.3675592488
 10
-39.3073222423
 20
45.3601510306
 10
-39.3103182779
 20
45.3528230457
 10
-39.3139720343
 20
45.3455952261
 10
-39.318273579
 20
45.3384872278
 10
-39.3232112047
 20
45.3315184017
 10
-39.3287714577
 20
45.3247077333
 10
-39.3349391912
 20
45.3180737658
 10
-39.3416976299
 20
45.3116345334
 10
-39.3490284005
 20
45.3054075384
 10
-39.3569115646
 20
45.2994097184
 10
-39.3653256671
 20
45.2936573979
 10
-39.3742478149
 20
45.288166228
  0
LWPOLYLINE
  5
2E2
100
AcDbEntity
  8
RACCORDO
100
AcDbPolyline
 62
7
  6
CONTINUOUS
 90
5
 70
0
 10
-37.6732695431
 20
42.9982478433
 10
-37.6753060864
 20
42.9878151813
 10
-37.6768204453
 20
42.9767217012
 10
-37.677776829
 20
42.9650538192
 10
-37.6781085758
 20
42.952149431
  0
LWPOLYLINE
  5
2E3
100
AcDbEntity
  8
RACCORDO
100
AcDbPolyline
 62
253
  6
CONTINUOUS
 90
41
 70
0
 10
-31.2574052835
 20
43.1490876756
 10
-31.247665287
 20
43.1603350809
 10
-31.2369762328
 20
43.1714591123
 10
-31.2253381209
 20
43.1824597699
 10
-31.2127592183
 20
43.1933685768
 10
-31.1992312581
 20
43.2041540099
 10
-31.184729439
 20
43.2147214994
 10
-31.1692229798
 20
43.225081597
 10
-31.1527426618
 20
43.2352237511
 10
-31.1353560285
 20
43.2450217369
 10
-31.1170177595
 20
43.254478682
 10
-31.0977731752
 20
43.2635914588
 10
-31.0778257802
 20
43.2722244603
 10
-31.057194185
 20
43.2803527812
 10
-31.0358597792
 20
43.2880013268
 10
-31.0139702367
 20
43.2951092053
 10
-30.9915311454
 20
43.3016683361
 10
-30.9685369173
 20
43.3076867999
 10
-30.945118462
 20
43.3131279471
 10
-30.9212705811
 20
43.3179885864
 10
-30.8969984729
 20
43.3222719091
 10
-30.8724486424
 20
43.3259508388
 10
-30.8476186224
 20
43.3290211791
 10
-30.82251088
 20
43.3314871264
 10
-30.7972793225
 20
43.3333341942
 10
-30.7719226504
 20
43.3345579503
 10
-30.7464421631
 20
43.3351628268
 10
-30.720995666
 20
43.3351476336
 10
-30.6955829949
 20
43.3345077841
 10
-30.6702043139
 20
43.3332478648
 10
-30.6450179211
 20
43.3313804461
 10
-30.6200258566
 20
43.3289010878
 10
-30.5952260802
 20
43.3258142299
 10
-30.5707707704
 20
43.3221457633
 10
-30.5466608579
 20
43.317890852
 10
-30.522895412
 20
43.313054332
 10
-30.4996238181
 20
43.3076766014
 10
-30.4768553422
 20
43.3017553508
 10
-30.4545807185
 20
43.2952928898
 10
-30.4329215342
 20
43.2883365448
 10
-30.4118711177
 20
43.2808776543
  0
LWPOLYLINE
  5
2E4
100
AcDbEntity
  8
RACCORDO
100
AcDbPolyline
 62
253
  6
CONTINUOUS
 90
7
 70
0
 10
-31.3120331276
 20
43.0864289293
 10
-31.3027952083
 20
43.0967007556
 10
-31.2936106004
 20
43.1070411011
 10
-31.284479304
 20
43.1174499659
 10
-31.2754013191
 20
43.1279273499
 10
-31.2663766455
 20
43.1384732531
 10
-31.2574052835
 20
43.1490876756
  0
LINE
  5
2E5
100
AcDbEntity
  8
RACCORDO
100
AcDbLine
 62
7
  6
CONTINUOUS
 10
-32.9541714274
 20
41.7432938741
 11
-31.8262262967
 21
42.9420819237
  0
LINE
  5
2E6
100
AcDbEntity
  8
RACCORDO
100
AcDbLine
 62
253
  6
CONTINUOUS
 10
-32.7792486329
 20
41.6422956448
 11
-31.5677758169
 21
42.9298575082
  0
LWPOLYLINE
  5
2E7
100
AcDbEntity
  8
RACCORDO
100
AcDbPolyline
 62
7
  6
CONTINUOUS
 90
3
 70
0
 10
-31.8251704945
 20
42.9431373699
 10
-31.8172805794
 20
42.9507444932
 10
-31.8032022878
 20
42.9611395045
  0
LWPOLYLINE
  5
2E8
100
AcDbEntity
  8
RACCORDO
100
AcDbPolyline
 62
7
  6
CONTINUOUS
 90
4
 70
0
 10
-31.5496490212
 20
43.1285317018
 10
-31.5522810299
 20
43.1264116982
 10
-31.5780068149
 20
43.1058913256
 10
-31.60508139
 20
43.0845725157
  0
LINE
  5
2E9
100
AcDbEntity
  8
RACCORDO
100
AcDbLine
 62
7
  6
CONTINUOUS
 10
-31.4971236909
 20
43.168103094
 11
-31.5495440983
 21
43.1286162261
  0
LINE
  5
2EA
100
AcDbEntity
  8
RACCORDO
100
AcDbLine
 62
253
  6
CONTINUOUS
 10
-31.5495440983
 20
43.1286162261
 11
-31.5307719383
 21
43.1414165346
  0
LINE
  5
2EB
100
AcDbEntity
  8
RACCORDO
100
AcDbLine
 62
7
  6
CONTINUOUS
 10
-16.1878579458
 20
51.4376677753
 11
-16.2270252296
 21
51.4115434365
  0
LINE
  5
2EC
100
AcDbEntity
  8
ASSI
100
AcDbLine
 62
7
  6
CONTINUOUS
 10
-16.1878589192
 20
51.4376671921
 11
-16.2270252296
 21
51.4115434365
  0
LINE
  5
2ED
100
AcDbEntity
  8
RACCORDO
100
AcDbLine
 62
7
  6
CONTINUOUS
 10
-31.8016457267
 20
42.9621022418
 11
-31.6028135494
 21
43.0850630428
  0
LINE
  5
2EE
100
AcDbEntity
  8
RACCORDO
100
AcDbLine
 62
253
  6
CONTINUOUS
 10
-31.5656133203
 20
42.9286089098
 11
-31.3111940863
 21
43.0859455804
  0
LINE
  5
2EF
100
AcDbEntity
  8
DRAFT
100
AcDbLine
 62
7
  6
CONTINUOUS
 10
-32.6723503842
 20
42.0428152688
 11
-33.0589036366
 21
41.8037649391
  0
LINE
  5
2F0
100
AcDbEntity
  8
RACCORDO
100
AcDbLine
 62
7
  6
CONTINUOUS
 10
-16.1878622511
 20
51.4376749742
 11
-14.7905832177
 21
52.2728553375
  0
LINE
  5
2F1
100
AcDbEntity
  8
ASSI
100
AcDbLine
 62
7
  6
CONTINUOUS
 10
-16.1878632246
 20
51.4376743911
 11
-14.7905832177
 21
52.2728553375
  0
LINE
  5
2F2
100
AcDbEntity
  8
RACCORDO
100
AcDbLine
 62
253
  6
CONTINUOUS
 10
-16.0357157797
 20
51.4240797198
 11
-14.6392459508
 21
52.2587763541
  0
LINE
  5
2F3
100
AcDbEntity
  8
ASSI
100
AcDbLine
 62
253
  6
CONTINUOUS
 10
-16.0357157797
 20
51.4240797198
 11
-14.6392459508
 21
52.2587763541
  0
LINE
  5
2F4
100
AcDbEntity
  8
DRAFT
100
AcDbLine
 62
7
  6
CONTINUOUS
 10
-33.1772245433
 20
41.8720819477
 11
-32.4227343735
 21
42.3153178071
  0
LINE
  5
2F5
100
AcDbEntity
  8
0
100
AcDbLine
 62
7
  6
CONTINUOUS
 10
-29.7719617324
 20
44.7911649325
 11
-31.1697462389
 21
43.9841016768
  0
LINE
  5
2F6
100
AcDbEntity
  8
ASSI
100
AcDbLine
 62
253
  6
CONTINUOUS
 10
-15.684107731
 20
52.2641321662
 11
-28.3343922302
 21
44.9600164417
  0
LINE
  5
2F7
100
AcDbEntity
  8
0
100
AcDbLine
 62
7
  6
CONTINUOUS
 10
-16.3912145121
 20
50.2636174338
 11
-26.9555606569
 21
44.1638963721
  0
LINE
  5
2F8
100
AcDbEntity
  8
0
100
AcDbLine
 62
7
  6
CONTINUOUS
 10
-26.8212233519
 20
44.0863316958
 11
-16.3912145121
 21
50.1084880812
  0
LWPOLYLINE
  5
2F9
100
AcDbEntity
  8
RACCORDO
100
AcDbPolyline
 62
7
  6
CONTINUOUS
 90
3
 70
0
 10
-31.8032022878
 20
42.9611395045
 10
-31.7819671111
 20
42.9714130576
 10
-31.737634543
 20
42.9797970504
  0
LWPOLYLINE
  5
2FA
100
AcDbEntity
  8
RACCORDO
100
AcDbPolyline
 62
253
  6
CONTINUOUS
 90
3
 70
0
 10
-31.5307719383
 20
43.1414165346
 10
-31.4971437432
 20
43.1564061098
 10
-31.4575916311
 20
43.1660575892
  0
LWPOLYLINE
  5
2FB
100
AcDbEntity
  8
RACCORDO
100
AcDbPolyline
 62
7
  6
CONTINUOUS
 90
4
 70
0
 10
-31.1872181214
 20
43.3194342124
 10
-31.2958497977
 20
43.2793706916
 10
-31.3994988373
 20
43.2290228058
 10
-31.4971236909
 20
43.168103094
  0
LINE
  5
2FC
100
AcDbEntity
  8
CURVE
100
AcDbLine
 62
253
  6
CONTINUOUS
 10
-42.3085845925
 20
6.1225318263
 11
-42.3017735559
 21
6.1238553496
  0
LINE
  5
2FD
100
AcDbEntity
  8
CURVE
100
AcDbLine
 62
253
  6
CONTINUOUS
 10
-42.508499915
 20
6.5711126491
 11
-42.5153171437
 21
6.5697948983
  0
LWPOLYLINE
  5
2FE
100
AcDbEntity
  8
RACCORDO
100
AcDbPolyline
 62
7
  6
CONTINUOUS
 90
27
 70
0
 10
-37.6781085758
 20
42.952149431
 10
-37.6778325788
 20
42.9403390739
 10
-37.6770413948
 20
42.9274081682
 10
-37.6757296244
 20
42.9141671146
 10
-37.6738768665
 20
42.9006735403
 10
-37.6715540369
 20
42.8869483617
 10
-37.6687595006
 20
42.8730330615
 10
-37.6654818025
 20
42.8589715653
 10
-37.6617740528
 20
42.8447749825
 10
-37.6576360377
 20
42.8304742928
 10
-37.6530618339
 20
42.8161038858
 10
-37.6480923417
 20
42.8016720185
 10
-37.6427278737
 20
42.7872030953
 10
-37.6369658291
 20
42.7727247165
 10
-37.630839275
 20
42.7582454105
 10
-37.6243487299
 20
42.7437851792
 10
-37.6174936842
 20
42.7293669744
 10
-37.6103026726
 20
42.7150013282
 10
-37.6027763744
 20
42.7007051816
 10
-37.594915735
 20
42.6864982697
 10
-37.5867472955
 20
42.6723941439
 10
-37.5782717673
 20
42.6584071165
 10
-37.5694914961
 20
42.6445549971
 10
-37.5604338112
 20
42.6308560582
 10
-37.5511089694
 20
42.6173260397
 10
-37.5415113721
 20
42.603977711
 10
-37.5316443728
 20
42.5908242084
  0
LINE
  5
2FF
100
AcDbEntity
  8
RACCORDO
100
AcDbLine
 62
7
  6
CONTINUOUS
 10
-37.6780909822
 20
42.9517391261
 11
-37.6780909822
 21
41.7825153616
  0
LINE
  5
300
100
AcDbEntity
  8
RACCORDO
100
AcDbLine
 62
253
  6
CONTINUOUS
 10
-37.5316443728
 20
42.5908242084
 11
-37.5316443728
 21
41.5720733138
  0
LWPOLYLINE
  5
301
100
AcDbEntity
  8
RACCORDO
100
AcDbPolyline
 62
7
  6
CONTINUOUS
 90
9
 70
0
 10
-16.2270441364
 20
51.4115308258
 10
-16.2655589575
 20
51.3794395056
 10
-16.2990054195
 20
51.3443929657
 10
-16.3270695809
 20
51.3072214183
 10
-16.3499469029
 20
51.2682512743
 10
-16.3679689146
 20
51.2272521047
 10
-16.3809800284
 20
51.1845329381
 10
-16.3887209235
 20
51.1409931095
 10
-16.3912011032
 20
51.0983256402
  0
LWPOLYLINE
  5
302
100
AcDbEntity
  8
ASSI
100
AcDbPolyline
 62
7
  6
CONTINUOUS
 90
9
 70
0
 10
-16.2270252296
 20
51.4115434365
 10
-16.2655343035
 20
51.3794625514
 10
-16.2989894119
 20
51.3444118127
 10
-16.3270611264
 20
51.3072340861
 10
-16.3499442847
 20
51.2682563943
 10
-16.3679695412
 20
51.2272504154
 10
-16.380981601
 20
51.1845263875
 10
-16.3887220449
 20
51.1409834703
 10
-16.3912011032
 20
51.0983252166
  0
LINE
  5
303
100
AcDbEntity
  8
RACCORDO
100
AcDbLine
 62
7
  6
CONTINUOUS
 10
-30.9576142046
 20
38.6356492673
 11
-31.3152933539
 21
38.4099997345
  0
LINE
  5
304
100
AcDbEntity
  8
ASSI
100
AcDbLine
 62
7
  6
CONTINUOUS
 10
-16.8154785809
 20
48.6795356846
 11
-16.3592859395
 21
48.9429355983
  0
LINE
  5
305
100
AcDbEntity
  8
ASSI
100
AcDbLine
 62
7
  6
CONTINUOUS
 10
-16.3205516675
 20
48.3937710877
 11
-15.8962944321
 21
48.6387318983
  0
LINE
  5
306
100
AcDbEntity
  8
ASSI
100
AcDbLine
 62
7
  6
CONTINUOUS
 10
-30.9576142046
 20
39.7787076548
 11
-25.6831221354
 21
42.8241367151
  0
LINE
  5
307
100
AcDbEntity
  8
RACCORDO
100
AcDbLine
 62
7
  6
CONTINUOUS
 10
-31.3152933539
 20
39.5721884277
 11
-30.9576142046
 21
39.7787076548
  0
LINE
  5
308
100
AcDbEntity
  8
DRAFT
100
AcDbLine
 62
7
  6
CONTINUOUS
 10
-30.9576142046
 20
38.6356492673
 11
-25.6327801344
 21
41.6921546329
  0
LINE
  5
309
100
AcDbEntity
  8
ASSI
100
AcDbLine
 62
7
  6
CONTINUOUS
 10
-26.2886525701
 20
43.173762399
 11
-30.8869035265
 21
40.5496792971
  0
LINE
  5
30A
100
AcDbEntity
  8
RACCORDO
100
AcDbLine
 62
7
  6
CONTINUOUS
 10
-24.870325294
 20
43.2222279938
 11
-25.5091860705
 21
42.8597953291
  0
LWPOLYLINE
  5
30B
100
AcDbEntity
  8
ASSI
100
AcDbPolyline
 62
7
  6
CONTINUOUS
 90
7
 70
0
 10
-26.2886525701
 20
43.173762399
 10
-26.2804433107
 20
43.1783353144
 10
-26.272259353
 20
43.1826769966
 10
-26.2641006969
 20
43.1867874458
 10
-26.2559673425
 20
43.190666662
 10
-26.2478592897
 20
43.194314645
 10
-26.2397765386
 20
43.1977313951
  0
LWPOLYLINE
  5
30C
100
AcDbEntity
  8
RACCORDO
100
AcDbPolyline
 62
7
  6
CONTINUOUS
 90
21
 70
0
 10
-24.870325294
 20
43.2222279938
 10
-24.8419507732
 20
43.2376633077
 10
-24.8137163212
 20
43.2517190412
 10
-24.785621938
 20
43.2643951941
 10
-24.7576176249
 20
43.2757092027
 10
-24.7297533806
 20
43.2856436307
 10
-24.702179201
 20
43.29414617
 10
-24.6749100723
 20
43.301206954
 10
-24.6479310083
 20
43.3068358491
 10
-24.6213470457
 20
43.3110101468
 10
-24.5951420868
 20
43.3137245286
 10
-24.5693322294
 20
43.3149843129
 10
-24.5440708031
 20
43.3147827465
 10
-24.5193810498
 20
43.3131141457
 10
-24.4952397277
 20
43.3099841942
 10
-24.4717304414
 20
43.3054031896
 10
-24.4488346612
 20
43.2993588423
 10
-24.4265709168
 20
43.2918634419
 10
-24.4050784023
 20
43.2829641552
 10
-24.3843816298
 20
43.2726638489
 10
-24.3764724475
 20
43.2682393353
  0
LINE
  5
30D
100
AcDbEntity
  8
ASSI
100
AcDbLine
 62
7
  6
CONTINUOUS
 10
-25.610064851
 20
42.8582629378
 11
-25.6327801344
 21
42.8489911668
  0
LWPOLYLINE
  5
30E
100
AcDbEntity
  8
ASSI
100
AcDbPolyline
 62
7
  6
CONTINUOUS
 90
18
 70
0
 10
-26.2397765386
 20
43.1977313951
 10
-26.2276326005
 20
43.2022583983
 10
-26.2149038822
 20
43.2060236898
 10
-26.2015965001
 20
43.2090078232
 10
-26.1877097679
 20
43.2112054014
 10
-26.1732617563
 20
43.2125818075
 10
-26.1582918555
 20
43.2130753415
 10
-26.1428182213
 20
43.2126607669
 10
-26.1268567028
 20
43.211327254
 10
-26.1104497093
 20
43.2090383521
 10
-26.0936581435
 20
43.2057851664
 10
-26.076469882
 20
43.201546989
 10
-26.0588174618
 20
43.1962650147
 10
-26.0407196571
 20
43.1899203835
 10
-26.0222092759
 20
43.1824885525
 10
-26.0032373119
 20
43.1738898034
 10
-25.983830828
 20
43.1640957515
 10
-25.9663897454
 20
43.15444852
  0
LINE
  5
30F
100
AcDbEntity
  8
CURVE
100
AcDbLine
 62
253
  6
CONTINUOUS
 10
-42.3017735559
 20
6.1238553496
 11
-42.2951953403
 21
6.125683809
  0
LINE
  5
310
100
AcDbEntity
  8
CURVE
100
AcDbLine
 62
253
  6
CONTINUOUS
 10
-42.5153171437
 20
6.5697948983
 11
-42.5219015775
 21
6.5679722521
  0
LWPOLYLINE
  5
311
100
AcDbEntity
  8
ASSI
100
AcDbPolyline
 62
253
  6
CONTINUOUS
 90
43
 70
0
 10
-32.3735173303
 20
-2.6186337943
 10
-32.3720265543
 20
-2.6465188614
 10
-32.3696559902
 20
-2.6737682224
 10
-32.3664056377
 20
-2.7003818773
 10
-32.3622693118
 20
-2.7263917797
 10
-32.3572531977
 20
-2.751765976
 10
-32.351375851
 20
-2.7764086059
 10
-32.3446340499
 20
-2.8003164795
 10
-32.3370310162
 20
-2.8234927867
 10
-32.3285949716
 20
-2.8458512371
 10
-32.3193228689
 20
-2.8673886048
 10
-32.3092177552
 20
-2.8881081157
 10
-32.2983169936
 20
-2.9079331576
 10
-32.2866176372
 20
-2.9268604546
 10
-32.2741226328
 20
-2.9448932826
 10
-32.2608781842
 20
-2.9619648567
 10
-32.2468814647
 20
-2.9780716566
 10
-32.232135301
 20
-2.9932172026
 10
-32.2166943768
 20
-3.0073452711
 10
-32.200556146
 20
-3.0204520464
 10
-32.1837231547
 20
-3.0325413441
 10
-32.1662577253
 20
-3.0435683874
 10
-32.148157519
 20
-3.0535292409
 10
-32.1294248746
 20
-3.0624278399
 10
-32.1101291309
 20
-3.0702312135
 10
-32.0902681501
 20
-3.0769353097
 10
-32.06984407
 20
-3.0825441805
 10
-32.048932642
 20
-3.0870370109
 10
-32.0275321058
 20
-3.0904096437
 10
-32.0056442218
 20
-3.0926662361
 10
-31.9833500231
 20
-3.093798444
 10
-31.9606480384
 20
-3.0938021201
 10
-31.9375397392
 20
-3.0926814116
 10
-31.9141105721
 20
-3.0904404171
 10
-31.890359151
 20
-3.0870749165
 10
-31.8662868621
 20
-3.0825891298
 10
-31.8419833113
 20
-3.0769998152
 10
-31.8174470727
 20
-3.0703025521
 10
-31.7926795721
 20
-3.0625017611
 10
-31.7677746933
 20
-3.0536274626
 10
-31.7427637308
 20
-3.0436896634
 10
-31.71761539
 20
-3.0326783567
 10
-31.6923296709
 20
-3.0205935425
  0
LWPOLYLINE
  5
312
100
AcDbEntity
  8
RACCORDO
100
AcDbPolyline
 62
253
  6
CONTINUOUS
 90
43
 70
0
 10
-32.3735173303
 20
-2.6186337943
 10
-32.3720268041
 20
-2.6465166698
 10
-32.3696564742
 20
-2.6737643807
 10
-32.3664063406
 20
-2.700376927
 10
-32.3622702069
 20
-2.7263864371
 10
-32.3572542696
 20
-2.7517607825
 10
-32.351377117
 20
-2.7764035779
 10
-32.3446355417
 20
-2.8003114602
 10
-32.3370327512
 20
-2.8234877926
 10
-32.3285969572
 20
-2.8458462787
 10
-32.3193251092
 20
-2.8673836873
 10
-32.3092202577
 20
-2.8881032498
 10
-32.2983197661
 20
-2.9079283642
 10
-32.2866206879
 20
-2.9268557595
 10
-32.2741259697
 20
-2.9448887068
 10
-32.2608818144
 20
-2.9619604171
 10
-32.2468854036
 20
-2.9780673629
 10
-32.2321395558
 20
-2.9932130717
 10
-32.2166989281
 20
-3.0073413366
 10
-32.2005609739
 20
-3.0204483501
 10
-32.1837282399
 20
-3.0325379196
 10
-32.166263024
 20
-3.0435652605
 10
-32.1481629777
 20
-3.0535264432
 10
-32.1294304496
 20
-3.0624253973
 10
-32.1101347832
 20
-3.0702291267
 10
-32.0902738335
 20
-3.0769335762
 10
-32.0698497455
 20
-3.082542801
 10
-32.0489382983
 20
-3.0870359711
 10
-32.0275377417
 20
-3.0904089255
 10
-32.005649826
 20
-3.0926658251
 10
-31.9833555809
 20
-3.0937983235
 10
-31.9606535311
 20
-3.0938022703
 10
-31.937545152
 20
-3.0926818159
 10
-31.9141158991
 20
-3.0904410637
 10
-31.8903643892
 20
-3.0870757994
 10
-31.8662920056
 20
-3.0825902373
 10
-31.8419883537
 20
-3.0770011242
 10
-31.8174521668
 20
-3.07030411
 10
-31.7926847115
 20
-3.0625035447
 10
-31.7677793938
 20
-3.0536292256
 10
-31.7427673487
 20
-3.0436910851
 10
-31.7176174411
 20
-3.0326791907
 10
-31.6923296709
 20
-3.0205935425
  0
LWPOLYLINE
  5
313
100
AcDbEntity
  8
ASSI
100
AcDbPolyline
 62
253
  6
CONTINUOUS
 90
23
 70
0
 10
-33.0741011573
 20
-2.6317086863
 10
-33.0718866313
 20
-2.6734573792
 10
-33.0683488893
 20
-2.7143443875
 10
-33.0634922233
 20
-2.7543191442
 10
-33.0573224456
 20
-2.7933322096
 10
-33.0498471643
 20
-2.8313353655
 10
-33.0410757509
 20
-2.8682816553
 10
-33.0310187403
 20
-2.9041257021
 10
-33.019688495
 20
-2.9388228842
 10
-33.007099528
 20
-2.9723294766
 10
-32.9932673057
 20
-3.0046039277
 10
-32.9782087132
 20
-3.0356066743
 10
-32.9619427122
 20
-3.0652993115
 10
-32.9444891118
 20
-3.0936452893
 10
-32.9258693123
 20
-3.1206096104
 10
-32.9061068067
 20
-3.1461586726
 10
-32.8852256394
 20
-3.1702610939
 10
-32.8632514227
 20
-3.1928871076
 10
-32.8402120584
 20
-3.214008239
 10
-32.8161357265
 20
-3.2335985274
 10
-32.7910518618
 20
-3.2516339518
 10
-32.7649921592
 20
-3.2680918107
 10
-32.7613092353
 20
-3.2702448191
  0
LWPOLYLINE
  5
314
100
AcDbEntity
  8
RACCORDO
100
AcDbPolyline
 62
253
  6
CONTINUOUS
 90
23
 70
0
 10
-33.0741012131
 20
-2.6317071912
 10
-33.0718867902
 20
-2.673455116
 10
-33.0683491809
 20
-2.7143415919
 10
-33.0634926575
 20
-2.7543160408
 10
-33.0573230012
 20
-2.7933290751
 10
-33.0498478082
 20
-2.8313323942
 10
-33.0410764783
 20
-2.8682788423
 10
-33.0310195649
 20
-2.9041229831
 10
-33.0196894168
 20
-2.9388202581
 10
-33.0071005468
 20
-2.9723269434
 10
-32.9932684224
 20
-3.004601485
 10
-32.9782099283
 20
-3.0356043227
 10
-32.9619440223
 20
-3.065297059
 10
-32.94449051
 20
-3.0936431479
 10
-32.9258707935
 20
-3.1206075863
 10
-32.9061083697
 20
-3.1461567655
 10
-32.8852272849
 20
-3.1702593016
 10
-32.8632531501
 20
-3.1928854305
 10
-32.8402138667
 20
-3.2140066778
 10
-32.8161376156
 20
-3.2335970825
 10
-32.7910538309
 20
-3.2516326243
 10
-32.7649942043
 20
-3.2680906038
 10
-32.7608964225
 20
-3.2704835857
  0
LINE
  5
315
100
AcDbEntity
  8
0
100
AcDbLine
 62
7
  6
CONTINUOUS
 10
-33.2910665825
 20
37.8346089735
 11
-33.2910665825
 21
37.233071967
  0
LINE
  5
316
100
AcDbEntity
  8
ASSI
100
AcDbLine
 62
7
  6
CONTINUOUS
 10
-33.2910665825
 20
37.233071967
 11
-33.2910665825
 21
37.8346089735
  0
LINE
  5
317
100
AcDbEntity
  8
0
100
AcDbLine
 62
7
  6
CONTINUOUS
 10
-33.2203559044
 20
37.7937815142
 11
-33.2203559044
 21
37.1922445077
  0
LWPOLYLINE
  5
318
100
AcDbEntity
  8
RACCORDO
100
AcDbPolyline
 62
253
  6
CONTINUOUS
 90
22
 70
0
 10
-33.0741011533
 20
30.9455604172
 10
-33.1292996304
 20
29.3166449389
 10
-33.1789806952
 20
27.6905717156
 10
-33.2231435876
 20
26.0673657188
 10
-33.2617876473
 20
24.4470515223
 10
-33.2949122615
 20
22.8296543621
 10
-33.322516877
 20
21.2152001296
 10
-33.3446010687
 20
19.6037139642
 10
-33.3611645147
 20
17.995220247
 10
-33.3722069523
 20
16.3897436564
 10
-33.3777282105
 20
14.7873088364
 10
-33.3777282105
 20
13.1879403832
 10
-33.3722069523
 20
11.5916628323
 10
-33.3611645147
 20
9.998500679
 10
-33.3446010687
 20
8.40847838
 10
-33.322516877
 20
6.8216203402
 10
-33.2949122604
 20
5.2379505027
 10
-33.2617876447
 20
3.6574935828
 10
-33.2231435876
 20
2.0802750616
 10
-33.1789807052
 20
0.5063195427
 10
-33.1292996582
 20
-1.06434924
 10
-33.0741012085
 20
-2.6317071939
  0
LWPOLYLINE
  5
319
100
AcDbEntity
  8
ASSI
100
AcDbPolyline
 62
253
  6
CONTINUOUS
 90
22
 70
0
 10
-33.0741012085
 20
30.9455588605
 10
-33.1292996582
 20
29.3166440755
 10
-33.1789807052
 20
27.6905713706
 10
-33.2231435876
 20
26.0673657185
 10
-33.2617876447
 20
24.4470516364
 10
-33.2949122604
 20
22.8296544188
 10
-33.322516877
 20
21.2152001292
 10
-33.3446010687
 20
19.6037139637
 10
-33.3611645147
 20
17.9952202465
 10
-33.3722069523
 20
16.3897436559
 10
-33.3777282105
 20
14.7873088359
 10
-33.3777282105
 20
13.1879403827
 10
-33.3722069523
 20
11.5916628319
 10
-33.3611645147
 20
9.9985006786
 10
-33.3446010687
 20
8.4084783795
 10
-33.322516877
 20
6.8216203398
 10
-33.2949122615
 20
5.2379505582
 10
-33.2617876473
 20
3.657493694
 10
-33.2231435876
 20
2.0802750612
 10
-33.1789806952
 20
0.5063192088
 10
-33.1292996304
 20
-1.0643500724
 10
-33.0741011533
 20
-2.6317086886
  0
LINE
  5
31A
100
AcDbEntity
  8
RACCORDO
100
AcDbLine
 62
7
  6
CONTINUOUS
 10
-28.1842123459
 20
38.6882728004
 11
-29.7673887558
 21
37.7527706758
  0
LINE
  5
31B
100
AcDbEntity
  8
RACCORDO
100
AcDbLine
 62
253
  6
CONTINUOUS
 10
-28.0584793933
 20
38.6763127433
 11
-29.6412359965
 21
37.7410586832
  0
LINE
  5
31C
100
AcDbEntity
  8
RACCORDO
100
AcDbLine
 62
7
  6
CONTINUOUS
 10
-28.1827544576
 20
38.6891146161
 11
-28.1842087009
 21
38.6882749543
  0
LINE
  5
31D
100
AcDbEntity
  8
ASSI
100
AcDbLine
 62
7
  6
CONTINUOUS
 10
-13.2799583416
 20
47.2913941763
 11
-13.8456300999
 21
46.9647823926
  0
LINE
  5
31E
100
AcDbEntity
  8
RACCORDO
100
AcDbLine
 62
253
  6
CONTINUOUS
 10
-2.0983932137
 20
53.5840590716
 11
-10.9375383649
 21
48.4804559757
  0
LINE
  5
31F
100
AcDbEntity
  8
ASSI
100
AcDbLine
 62
253
  6
CONTINUOUS
 10
-2.0983932137
 20
53.5840590716
 11
-10.9375383649
 21
48.4804559757
  0
LINE
  5
320
100
AcDbEntity
  8
RACCORDO
100
AcDbLine
 62
253
  6
CONTINUOUS
 10
-1.8862692567
 20
53.216649601
 11
-10.7254144079
 21
48.113046505
  0
LINE
  5
321
100
AcDbEntity
  8
ASSI
100
AcDbLine
 62
253
  6
CONTINUOUS
 10
-1.8862692567
 20
53.216649601
 11
-10.7254144079
 21
48.113046505
  0
LINE
  5
322
100
AcDbEntity
  8
RACCORDO
100
AcDbLine
 62
253
  6
CONTINUOUS
 10
-1.8862692567
 20
52.5634547263
 11
-9.304356386
 21
48.2803513502
  0
LINE
  5
323
100
AcDbEntity
  8
ASSI
100
AcDbLine
 62
253
  6
CONTINUOUS
 10
-1.8862692567
 20
52.5634547263
 11
-9.304356386
 21
48.2803513502
  0
LINE
  5
324
100
AcDbEntity
  8
RACCORDO
100
AcDbLine
 62
253
  6
CONTINUOUS
 10
-26.1867033541
 20
38.2056027505
 11
-28.3162513167
 21
36.9760291351
  0
LINE
  5
325
100
AcDbEntity
  8
RACCORDO
100
AcDbLine
 62
253
  6
CONTINUOUS
 10
-1.6741452997
 20
52.1960452556
 11
-9.0922324289
 21
47.9129418795
  0
LINE
  5
326
100
AcDbEntity
  8
ASSI
100
AcDbLine
 62
253
  6
CONTINUOUS
 10
-1.6741452997
 20
52.1960452556
 11
-9.0922324289
 21
47.9129418795
  0
LINE
  5
327
100
AcDbEntity
  8
RACCORDO
100
AcDbLine
 62
7
  6
CONTINUOUS
 10
-10.7254144079
 20
47.3741769747
 11
-9.304356386
 21
48.1804811521
  0
LINE
  5
328
100
AcDbEntity
  8
ASSI
100
AcDbLine
 62
7
  6
CONTINUOUS
 10
-10.7254144079
 20
47.3741769747
 11
-9.304356386
 21
48.1804811521
  0
LINE
  5
329
100
AcDbEntity
  8
RACCORDO
100
AcDbLine
 62
7
  6
CONTINUOUS
 10
-27.6478761423
 20
38.990801639
 11
-28.182750741
 21
38.6891167128
  0
LINE
  5
32A
100
AcDbEntity
  8
RACCORDO
100
AcDbLine
 62
253
  6
CONTINUOUS
 10
-27.5240295147
 20
38.977758115
 11
-28.0584793933
 21
38.6763127433
  0
LINE
  5
32B
100
AcDbEntity
  8
RACCORDO
100
AcDbLine
 62
7
  6
CONTINUOUS
 10
-21.80335935
 20
41.4514002959
 11
-26.8203947773
 21
38.6548662899
  0
LWPOLYLINE
  5
32C
100
AcDbEntity
  8
RACCORDO
100
AcDbPolyline
 62
253
  6
CONTINUOUS
 90
10
 70
0
 10
-10.9375383649
 20
48.4804559757
 10
-10.9504888502
 20
48.4736116643
 10
-10.9641947888
 20
48.4675066614
 10
-10.9786561807
 20
48.4621409669
 10
-10.994005205
 20
48.4574821603
 10
-11.0101096826
 20
48.4535626621
 10
-11.0265730764
 20
48.4504797341
 10
-11.0432632074
 20
48.4482657967
 10
-11.0603122545
 20
48.4468884296
 10
-11.0777202178
 20
48.4463476326
  0
LWPOLYLINE
  5
32D
100
AcDbEntity
  8
ASSI
100
AcDbPolyline
 62
253
  6
CONTINUOUS
 90
10
 70
0
 10
-10.9375383649
 20
48.4804559757
 10
-10.9504888502
 20
48.4736116643
 10
-10.9641947888
 20
48.4675066614
 10
-10.9786561807
 20
48.4621409669
 10
-10.994005205
 20
48.4574821603
 10
-11.0101096826
 20
48.4535626621
 10
-11.0265730764
 20
48.4504797341
 10
-11.0432632074
 20
48.4482657967
 10
-11.0603122545
 20
48.4468884296
 10
-11.0777202178
 20
48.4463476326
  0
LWPOLYLINE
  5
32E
100
AcDbEntity
  8
RACCORDO
100
AcDbPolyline
 62
7
  6
CONTINUOUS
 90
19
 70
0
 10
-27.6478761423
 20
38.990801639
 10
-27.6354423679
 20
38.9973608664
 10
-27.6225702574
 20
39.0032486912
 10
-27.6093037457
 20
39.0084278601
 10
-27.5956841408
 20
39.012866667
 10
-27.5817688965
 20
39.0165329818
 10
-27.567630613
 20
39.0193986622
 10
-27.5533364231
 20
39.0214456995
 10
-27.5389319488
 20
39.0226649195
 10
-27.5244565789
 20
39.0230494688
 10
-27.5099786021
 20
39.0225950039
 10
-27.4955423987
 20
39.0213017415
 10
-27.4811474579
 20
39.0191637194
 10
-27.4668102139
 20
39.0161699168
 10
-27.4526260788
 20
39.0123274861
 10
-27.4387015332
 20
39.0076617191
 10
-27.4250744471
 20
39.0021861739
 10
-27.4117923497
 20
38.9959198915
 10
-27.4000534225
 20
38.9895539267
  0
LWPOLYLINE
  5
32F
100
AcDbEntity
  8
RACCORDO
100
AcDbPolyline
 62
253
  6
CONTINUOUS
 90
10
 70
0
 10
-10.7254144079
 20
48.113046505
 10
-10.7574560228
 20
48.0962481743
 10
-10.7918674333
 20
48.0811092238
 10
-10.8283925298
 20
48.0677414207
 10
-10.8667594779
 20
48.0562425276
 10
-10.9066827242
 20
48.0466981
 10
-10.9478651195
 20
48.0391808528
 10
-10.9900001548
 20
48.0337467637
 10
-11.032774244
 20
48.0304346661
 10
-11.07586904
 20
48.0292684828
  0
LWPOLYLINE
  5
330
100
AcDbEntity
  8
ASSI
100
AcDbPolyline
 62
253
  6
CONTINUOUS
 90
10
 70
0
 10
-10.7254144079
 20
48.113046505
 10
-10.7574560228
 20
48.0962481743
 10
-10.7918674333
 20
48.0811092238
 10
-10.8283925298
 20
48.0677414207
 10
-10.8667594779
 20
48.0562425276
 10
-10.9066827242
 20
48.0466981
 10
-10.9478651195
 20
48.0391808528
 10
-10.9900001548
 20
48.0337467637
 10
-11.032774244
 20
48.0304346661
 10
-11.07586904
 20
48.0292684828
  0
LWPOLYLINE
  5
331
100
AcDbEntity
  8
RACCORDO
100
AcDbPolyline
 62
7
  6
CONTINUOUS
 90
10
 70
0
 10
-10.7254144079
 20
47.3741769747
 10
-10.7577365407
 20
47.3573906089
 10
-10.7919759802
 20
47.3424388618
 10
-10.8281327264
 20
47.3293217335
 10
-10.8665574314
 20
47.3179559565
 10
-10.9068994431
 20
47.3084247983
 10
-10.9481068054
 20
47.3009780609
 10
-10.9898288663
 20
47.2956990118
 10
-11.0324162779
 20
47.2925043836
 10
-11.07586904
 20
47.2913941763
  0
LWPOLYLINE
  5
332
100
AcDbEntity
  8
ASSI
100
AcDbPolyline
 62
7
  6
CONTINUOUS
 90
10
 70
0
 10
-10.7254144079
 20
47.3741769747
 10
-10.7577365407
 20
47.3573906089
 10
-10.7919759802
 20
47.3424388618
 10
-10.8281327264
 20
47.3293217335
 10
-10.8665574314
 20
47.3179559565
 10
-10.9068994431
 20
47.3084247983
 10
-10.9481068054
 20
47.3009780609
 10
-10.9898288663
 20
47.2956990118
 10
-11.0324162779
 20
47.2925043836
 10
-11.07586904
 20
47.2913941763
  0
LINE
  5
333
100
AcDbEntity
  8
0
100
AcDbLine
 62
253
  6
CONTINUOUS
 10
-14.8002242545
 20
10.6466872613
 11
-15.2244883232
 21
10.8916520173
  0
LWPOLYLINE
  5
334
100
AcDbEntity
  8
RACCORDO
100
AcDbPolyline
 62
253
  6
CONTINUOUS
 90
31
 70
0
 10
-31.6923296709
 20
32.086665667
 10
-31.6937895523
 20
32.107724744
 10
-31.6961963349
 20
32.1292947112
 10
-31.6995434295
 20
32.1513165156
 10
-31.7038216729
 20
32.1737298672
 10
-31.7090193522
 20
32.196473404
 10
-31.7151222377
 20
32.2194848602
 10
-31.7221136214
 20
32.2427012363
 10
-31.7299743627
 20
32.2660589719
 10
-31.7386829409
 20
32.2894941195
 10
-31.7482155144
 20
32.3129425197
 10
-31.7585459853
 20
32.3363399767
 10
-31.7696460717
 20
32.3596224343
 10
-31.7814853844
 20
32.3827261511
 10
-31.7940315104
 20
32.405587875
 10
-31.8072501017
 20
32.4281450163
 10
-31.8211049692
 20
32.4503358194
 10
-31.8355581819
 20
32.4720995314
 10
-31.8505701705
 20
32.4933765688
 10
-31.8660998361
 20
32.5141086804
 10
-31.8821046625
 20
32.5342391069
 10
-31.8985408324
 20
32.5537127362
 10
-31.9153633479
 20
32.5724762545
 10
-31.9325261532
 20
32.5904782919
 10
-31.9499822608
 20
32.6076695633
 10
-31.9676838804
 20
32.6240030034
 10
-31.9855825494
 20
32.6394338953
 10
-32.0036292657
 20
32.653919993
 10
-32.021774622
 20
32.6674216373
 10
-32.0399689409
 20
32.679901864
 10
-32.0581624109
 20
32.6913265054
  0
LWPOLYLINE
  5
335
100
AcDbEntity
  8
ASSI
100
AcDbPolyline
 62
253
  6
CONTINUOUS
 90
31
 70
0
 10
-31.6923296709
 20
32.086665667
 10
-31.6937895526
 20
32.1077247473
 10
-31.6961963358
 20
32.1292947178
 10
-31.6995434312
 20
32.1513165253
 10
-31.7038216755
 20
32.1737298799
 10
-31.709019356
 20
32.1964734196
 10
-31.7151222428
 20
32.2194848783
 10
-31.7221136279
 20
32.2427012567
 10
-31.7299743705
 20
32.2660589943
 10
-31.7386829502
 20
32.2894941435
 10
-31.748215525
 20
32.312942545
 10
-31.7585459973
 20
32.3363400029
 10
-31.7696460849
 20
32.3596224611
 10
-31.7814853987
 20
32.3827261781
 10
-31.7940315256
 20
32.4055879017
 10
-31.8072501176
 20
32.4281450426
 10
-31.8211049855
 20
32.4503358448
 10
-31.8355581984
 20
32.4720995556
 10
-31.850570187
 20
32.4933765916
 10
-31.8660998524
 20
32.5141087015
 10
-31.8821046782
 20
32.5342391262
 10
-31.8985408474
 20
32.5537127535
 10
-31.9153633619
 20
32.5724762697
 10
-31.932526166
 20
32.590478305
 10
-31.9499822722
 20
32.6076695742
 10
-31.9676838902
 20
32.6240030122
 10
-31.9855825574
 20
32.639433902
 10
-32.0036292718
 20
32.6539199978
 10
-32.0217746261
 20
32.6674216402
 10
-32.039968943
 20
32.6799018653
 10
-32.0581624109
 20
32.6913265054
  0
LINE
  5
336
100
AcDbEntity
  8
DRAFT
100
AcDbLine
 62
253
  6
CONTINUOUS
 10
-32.2304064107
 20
42.5125164446
 11
-32.2304064107
 21
43.7799643802
  0
LINE
  5
337
100
AcDbEntity
  8
RACCORDO
100
AcDbLine
 62
253
  6
CONTINUOUS
 10
-32.0203372732
 20
38.3899136674
 11
-32.0203372732
 21
39.408664562
  0
LINE
  5
338
100
AcDbEntity
  8
DRAFT
100
AcDbLine
 62
7
  6
CONTINUOUS
 10
-31.5232996295
 20
44.1882389735
 11
-31.5232996295
 21
44.7091790473
  0
LINE
  5
339
100
AcDbEntity
  8
0
100
AcDbLine
 62
7
  6
CONTINUOUS
 10
-31.3818782733
 20
36.1736974941
 11
-31.3818782733
 21
36.2423380596
  0
LINE
  5
33A
100
AcDbEntity
  8
RACCORDO
100
AcDbLine
 62
253
  6
CONTINUOUS
 10
-31.3152933539
 20
38.4099997345
 11
-31.3152933539
 21
39.5721884277
  0
LINE
  5
33B
100
AcDbEntity
  8
ASSI
100
AcDbLine
 62
253
  6
CONTINUOUS
 10
-31.1895240069
 20
46.0556535484
 11
-31.1895240069
 21
44.8985335871
  0
LINE
  5
33C
100
AcDbEntity
  8
DRAFT
100
AcDbLine
 62
7
  6
CONTINUOUS
 10
-31.1697462389
 20
43.9841016768
 11
-31.1697462389
 21
44.5050417507
  0
LINE
  5
33D
100
AcDbEntity
  8
ASSI
100
AcDbLine
 62
7
  6
CONTINUOUS
 10
-31.0641744997
 20
46.0965172841
 11
-31.0641744997
 21
45.0711113617
  0
LINE
  5
33E
100
AcDbEntity
  8
DRAFT
100
AcDbLine
 62
7
  6
CONTINUOUS
 10
-30.9576142046
 20
39.7787076548
 11
-30.9576142046
 21
38.6356492673
  0
LINE
  5
33F
100
AcDbEntity
  8
DRAFT
100
AcDbLine
 62
253
  6
CONTINUOUS
 10
-30.8161928483
 20
43.3795917665
 11
-30.8161928483
 21
43.7799643802
  0
LINE
  5
340
100
AcDbEntity
  8
0
100
AcDbLine
 62
7
  6
CONTINUOUS
 10
-30.5333501359
 20
36.1993711305
 11
-30.5333501359
 21
36.2423380596
  0
LWPOLYLINE
  5
341
100
AcDbEntity
  8
RACCORDO
100
AcDbPolyline
 62
253
  6
CONTINUOUS
 90
22
 70
0
 10
-32.3735173303
 20
30.9250773267
 10
-32.4286628346
 20
29.2977455311
 10
-32.4782949313
 20
27.6733039726
 10
-32.5224136206
 20
26.0517526512
 10
-32.5610194103
 20
24.4330667603
 10
-32.5941117926
 20
22.8172711064
 10
-32.6216892432
 20
21.2044401099
 10
-32.6437515081
 20
19.5945739156
 10
-32.6602988414
 20
17.9876723786
 10
-32.6713304815
 20
16.3838094842
 10
-32.6768461745
 20
14.7829853749
 10
-32.6768461743
 20
13.1851999081
 10
-32.6713304809
 20
11.5905266416
 10
-32.6602988403
 20
9.9989657163
 10
-32.6437515066
 20
8.4105169914
 10
-32.6216892413
 20
6.8252536027
 10
-32.5941117901
 20
5.2431756844
 10
-32.5610194074
 20
3.6642831022
 10
-32.5224136175
 20
2.08864859
 10
-32.4782949288
 20
0.516296392
 10
-32.4286628331
 20
-1.052797736
 10
-32.3735173303
 20
-2.6186337943
  0
LWPOLYLINE
  5
342
100
AcDbEntity
  8
ASSI
100
AcDbPolyline
 62
253
  6
CONTINUOUS
 90
22
 70
0
 10
-32.3735173303
 20
30.9250773267
 10
-32.4286628331
 20
29.297745585
 10
-32.4782949288
 20
27.6733040669
 10
-32.5224136175
 20
26.0517527725
 10
-32.5610194074
 20
24.4330668905
 10
-32.5941117901
 20
22.8172712322
 10
-32.6216892413
 20
21.2044402311
 10
-32.6437515066
 20
19.5945740369
 10
-32.6602988403
 20
17.9876724999
 10
-32.6713304809
 20
16.3838096055
 10
-32.6768461743
 20
14.7829854959
 10
-32.6768461745
 20
13.1852000289
 10
-32.6713304815
 20
11.5905267622
 10
-32.6602988414
 20
9.9989658364
 10
-32.6437515081
 20
8.410517111
 10
-32.6216892432
 20
6.8252537219
 10
-32.5941117926
 20
5.2431758074
 10
-32.5610194103
 20
3.6642832292
 10
-32.5224136206
 20
2.0886487079
 10
-32.4782949313
 20
0.5162964836
 10
-32.4286628346
 20
-1.0527976838
 10
-32.3735173303
 20
-2.6186337943
  0
LWPOLYLINE
  5
343
100
AcDbEntity
  8
RACCORDO
100
AcDbPolyline
 62
253
  6
CONTINUOUS
 90
25
 70
0
 10
-28.139477613
 20
36.3493279263
 10
-28.1443616301
 20
36.3375832973
 10
-28.1497122336
 20
36.3261510854
 10
-28.1555148119
 20
36.3150625096
 10
-28.1617535196
 20
36.3043478503
 10
-28.1684113199
 20
36.2940363672
 10
-28.1754700319
 20
36.2841562188
 10
-28.1829103796
 20
36.2747343856
 10
-28.1907120451
 20
36.2657965967
 10
-28.1988537235
 20
36.2573672593
 10
-28.2073131818
 20
36.2494693922
 10
-28.2160673189
 20
36.2421245628
 10
-28.225092229
 20
36.2353528283
 10
-28.2343632671
 20
36.2291726809
 10
-28.2438551158
 20
36.2236009973
 10
-28.2535418549
 20
36.2186529926
 10
-28.263397032
 20
36.2143421787
 10
-28.2733937347
 20
36.2106803276
 10
-28.2835046639
 20
36.207677439
 10
-28.293702209
 20
36.2053417132
 10
-28.3039585225
 20
36.2036795286
 10
-28.3142455966
 20
36.2026954242
 10
-28.3245353395
 20
36.2023920874
 10
-28.3347996519
 20
36.2027703466
 10
-28.3381461878
 20
36.20304183
  0
LINE
  5
344
100
AcDbEntity
  8
RACCORDO
100
AcDbLine
 62
253
  6
CONTINUOUS
 10
-26.5381968222
 20
36.9089641477
 11
-26.0099296504
 21
37.5717764141
  0
LINE
  5
345
100
AcDbEntity
  8
RACCORDO
100
AcDbLine
 62
7
  6
CONTINUOUS
 10
-26.5381968222
 20
36.8324123048
 11
-25.9922296499
 21
37.5174326093
  0
LWPOLYLINE
  5
346
100
AcDbEntity
  8
RACCORDO
100
AcDbPolyline
 62
7
  6
CONTINUOUS
 90
28
 70
0
 10
-27.4282570049
 20
36.2838379135
 10
-27.4361361279
 20
36.274435651
 10
-27.444356377
 20
36.2651973382
 10
-27.4529142382
 20
36.2561444473
 10
-27.4618126687
 20
36.2472999792
 10
-27.4710391037
 20
36.2386841062
 10
-27.480565678
 20
36.2303143402
 10
-27.4903858663
 20
36.2222127312
 10
-27.5004917645
 20
36.2144007533
 10
-27.5108525475
 20
36.2068954415
 10
-27.5214590688
 20
36.1997187432
 10
-27.5323009802
 20
36.1928919123
 10
-27.5433447572
 20
36.1864313563
 10
-27.5545786057
 20
36.1803585314
 10
-27.5659895565
 20
36.1746941788
 10
-27.577541377
 20
36.1694540677
 10
-27.5892195088
 20
36.1646587672
 10
-27.6010082404
 20
36.1603280881
 10
-27.6128685544
 20
36.1564770532
 10
-27.624783002
 20
36.1531248532
 10
-27.6367330154
 20
36.1502898413
 10
-27.6486766929
 20
36.1479860067
 10
-27.6605935426
 20
36.1462305432
 10
-27.6724621098
 20
36.145039647
 10
-27.6842376884
 20
36.144425681
 10
-27.6958965089
 20
36.1444030533
 10
-27.707414446
 20
36.144984903
 10
-27.710323507
 20
36.1452312054
  0
LWPOLYLINE
  5
347
100
AcDbEntity
  8
ASSI
100
AcDbPolyline
 62
253
  6
CONTINUOUS
 90
43
 70
0
 10
-32.0581540042
 20
32.691331751
 10
-32.0958025507
 20
32.6670848491
 10
-32.1333342314
 20
32.6413933521
 10
-32.1707031471
 20
32.6142893245
 10
-32.2078640603
 20
32.5858069235
 10
-32.2447710582
 20
32.5559813232
 10
-32.2813776045
 20
32.5248486504
 10
-32.3176391822
 20
32.4924474267
 10
-32.3535111655
 20
32.4588182311
 10
-32.3889475014
 20
32.4240026743
 10
-32.4239045656
 20
32.3880444186
 10
-32.4583399198
 20
32.3509880078
 10
-32.4922101845
 20
32.3128785327
 10
-32.5254739527
 20
32.2737633659
 10
-32.5580905342
 20
32.2336912327
 10
-32.5900187229
 20
32.1927110856
 10
-32.6212195164
 20
32.1508737604
 10
-32.651654707
 20
32.1082313911
 10
-32.681285622
 20
32.0648364631
 10
-32.7100759349
 20
32.020742997
 10
-32.7379905531
 20
31.9760057108
 10
-32.7649942041
 20
31.930679429
 10
-32.7910538308
 20
31.8848204336
 10
-32.8161376155
 20
31.8384856955
 10
-32.8402138665
 20
31.7917320426
 10
-32.8632531499
 20
31.7446173839
 10
-32.8852272848
 20
31.697200324
 10
-32.9061083696
 20
31.6495393917
 10
-32.9258707933
 20
31.6016938149
 10
-32.9444905099
 20
31.5537228566
 10
-32.9619440222
 20
31.5056854276
 10
-32.9782099282
 20
31.4576411281
 10
-32.9932684223
 20
31.4096494928
 10
-33.0071005467
 20
31.361769332
 10
-33.0196894168
 20
31.3140595843
 10
-33.0310195648
 20
31.266579785
 10
-33.0410764782
 20
31.2193892964
 10
-33.0498478082
 20
31.1725468066
 10
-33.0573230012
 20
31.1261100692
 10
-33.0634926574
 20
31.0801363654
 10
-33.0683491809
 20
31.0346825245
 10
-33.0718867902
 20
30.9898048531
 10
-33.0741012131
 20
30.9455588632
  0
LWPOLYLINE
  5
348
100
AcDbEntity
  8
RACCORDO
100
AcDbPolyline
 62
253
  6
CONTINUOUS
 90
43
 70
0
 10
-32.0581526751
 20
32.6913325803
 10
-32.0958004937
 20
32.667086212
 10
-32.1333316393
 20
32.6413951731
 10
-32.1707002128
 20
32.6142915053
 10
-32.2078610377
 20
32.5858092954
 10
-32.244768135
 20
32.555983741
 10
-32.2813747791
 20
32.5248511086
 10
-32.3176363917
 20
32.492449975
 10
-32.3535084092
 20
32.458820869
 10
-32.3889447798
 20
32.4240054017
 10
-32.4239018765
 20
32.3880472387
 10
-32.458337264
 20
32.350990921
 10
-32.4922075708
 20
32.3128815297
 10
-32.5254713948
 20
32.2737664304
 10
-32.55808804
 20
32.2336943541
 10
-32.5900162927
 20
32.1927142624
 10
-32.6212171478
 20
32.1508769951
 10
-32.6516524005
 20
32.1082346828
 10
-32.6812833787
 20
32.06483981
 10
-32.7100737552
 20
32.0207463988
 10
-32.7379884384
 20
31.9760091659
 10
-32.764992159
 20
31.9306829304
 10
-32.7910518617
 20
31.8848239704
 10
-32.8161357263
 20
31.8384892603
 10
-32.8402120582
 20
31.7917356334
 10
-32.8632514225
 20
31.7446210002
 10
-32.8852256392
 20
31.6972039639
 10
-32.9061068066
 20
31.6495430542
 10
-32.9258693122
 20
31.6016975031
 10
-32.9444891117
 20
31.5537265696
 10
-32.9619427121
 20
31.5056891532
 10
-32.9782087131
 20
31.4576448462
 10
-32.9932673056
 20
31.409653191
 10
-33.0070995279
 20
31.3617730107
 10
-33.0196884949
 20
31.3140632481
 10
-33.0310187402
 20
31.2665834339
 10
-33.0410757508
 20
31.2193929308
 10
-33.0498471642
 20
31.1725505049
 10
-33.0573224455
 20
31.1261138299
 10
-33.0634922233
 20
31.0801399564
 10
-33.0683488893
 20
31.034685646
 10
-33.0718866313
 20
30.9898072925
 10
-33.0741011573
 20
30.9455604195
  0
LWPOLYLINE
  5
349
100
AcDbEntity
  8
ASSI
100
AcDbPolyline
 62
253
  6
CONTINUOUS
 90
43
 70
0
 10
-31.6923296709
 20
32.086665667
 10
-31.717617441
 20
32.0705515777
 10
-31.7427673485
 20
32.0535174725
 10
-31.7677793936
 20
32.0355633512
 10
-31.7926847113
 20
32.0166644257
 10
-31.8174521666
 20
31.9968454842
 10
-31.8419883535
 20
31.9761808913
 10
-31.8662920054
 20
31.9546677094
 10
-31.890364389
 20
31.9323088761
 10
-31.9141158989
 20
31.9091875684
 10
-31.9375451518
 20
31.8853011144
 10
-31.960653531
 20
31.8606521861
 10
-31.9833555807
 20
31.835331976
 10
-32.0056498258
 20
31.8093379791
 10
-32.0275377416
 20
31.7826727004
 10
-32.0489382981
 20
31.7554348471
 10
-32.0698497453
 20
31.7276222099
 10
-32.0902738333
 20
31.6992369982
 10
-32.1101347831
 20
31.6703845472
 10
-32.1294304495
 20
31.6410631938
 10
-32.1481629776
 20
31.6112746012
 10
-32.1662630239
 20
31.5811290942
 10
-32.1837282398
 20
31.550625362
 10
-32.2005609738
 20
31.5197647155
 10
-32.216698928
 20
31.4886614108
 10
-32.2321395557
 20
31.4573144808
 10
-32.2468854036
 20
31.4257248926
 10
-32.2608818143
 20
31.3940098047
 10
-32.2741259696
 20
31.3621688323
 10
-32.2866206879
 20
31.3302023602
 10
-32.298319766
 20
31.2982287005
 10
-32.3092202576
 20
31.2662478681
 10
-32.3193251091
 20
31.2342598482
 10
-32.3285969572
 20
31.2023829087
 10
-32.3370327511
 20
31.1706172199
 10
-32.3446355416
 20
31.1389626115
 10
-32.351377117
 20
31.1075368399
 10
-32.3572542695
 20
31.0763401191
 10
-32.3622702069
 20
31.0453722351
 10
-32.3664063405
 20
31.0147503024
 10
-32.3696564742
 20
30.9845133592
 10
-32.3720268041
 20
30.9546223673
 10
-32.3735173303
 20
30.9250773267
  0
LWPOLYLINE
  5
34A
100
AcDbEntity
  8
RACCORDO
100
AcDbPolyline
 62
253
  6
CONTINUOUS
 90
43
 70
0
 10
-31.6923296709
 20
32.086665667
 10
-31.7176153899
 20
32.070553031
 10
-31.7427637306
 20
32.0535200853
 10
-31.7677746931
 20
32.0355668298
 10
-31.792679572
 20
32.0166683732
 10
-31.8174470726
 20
31.9968496069
 10
-31.8419833112
 20
31.9761852052
 10
-31.866286862
 20
31.9546723376
 10
-31.8903591509
 20
31.9323138345
 10
-31.914110572
 20
31.9091928621
 10
-31.937539739
 20
31.8853067462
 10
-31.9606480383
 20
31.860658161
 10
-31.9833500229
 20
31.8353382944
 10
-32.0056442216
 20
31.8093446396
 10
-32.0275321057
 20
31.7826797035
 10
-32.0489326419
 20
31.7554421944
 10
-32.0698440698
 20
31.7276299185
 10
-32.09026815
 20
31.6992450695
 10
-32.1101291307
 20
31.6703929372
 10
-32.1294248745
 20
31.6410718534
 10
-32.1481575189
 20
31.6112834862
 10
-32.1662577252
 20
31.5811381299
 10
-32.1837231546
 20
31.5506344573
 10
-32.2005561459
 20
31.5197737956
 10
-32.2166943767
 20
31.4886704207
 10
-32.2321353009
 20
31.4573233564
 10
-32.2468814646
 20
31.4257335788
 10
-32.2608781841
 20
31.3940182925
 10
-32.2741226327
 20
31.3621771293
 10
-32.2866176371
 20
31.3302104573
 10
-32.2983169935
 20
31.2982365856
 10
-32.3092177551
 20
31.2662555247
 10
-32.3193228688
 20
31.234267264
 10
-32.3285949716
 20
31.2023900814
 10
-32.3370310162
 20
31.1706241489
 10
-32.3446340498
 20
31.1389692944
 10
-32.351375851
 20
31.1075432798
 10
-32.3572531976
 20
31.076346508
 10
-32.3622693118
 20
31.045378576
 10
-32.3664056377
 20
31.0147560366
 10
-32.3696559901
 20
30.9845177407
 10
-32.3720265543
 20
30.9546248374
 10
-32.3735173303
 20
30.9250773267
  0
LINE
  5
34B
100
AcDbEntity
  8
RACCORDO
100
AcDbLine
 62
7
  6
CONTINUOUS
 10
-26.5381968222
 20
36.083933059
 11
-27.4282570049
 21
35.5224195773
  0
LINE
  5
34C
100
AcDbEntity
  8
RACCORDO
100
AcDbLine
 62
7
  6
CONTINUOUS
 10
-20.9218238915
 20
40.7410452837
 11
-25.940349145
 21
37.6375139875
  0
LINE
  5
34D
100
AcDbEntity
  8
RACCORDO
100
AcDbLine
 62
253
  6
CONTINUOUS
 10
-28.3481210574
 20
34.980614177
 11
-32.0581526186
 21
32.6913325478
  0
LINE
  5
34E
100
AcDbEntity
  8
ASSI
100
AcDbLine
 62
253
  6
CONTINUOUS
 10
-28.3481210574
 20
34.980614177
 11
-32.0581539554
 21
32.6913317229
  0
LINE
  5
34F
100
AcDbEntity
  8
RACCORDO
100
AcDbLine
 62
253
  6
CONTINUOUS
 10
-26.522007551
 20
36.0745855768
 11
-28.3206309909
 21
34.9647417572
  0
LINE
  5
350
100
AcDbEntity
  8
RACCORDO
100
AcDbLine
 62
253
  6
CONTINUOUS
 10
-26.1955389096
 20
35.5120669378
 11
-27.9956094663
 21
34.4013301721
  0
LINE
  5
351
100
AcDbEntity
  8
RACCORDO
100
AcDbLine
 62
253
  6
CONTINUOUS
 10
-27.9948367914
 20
34.3682102802
 11
-31.6923296709
 21
32.086665667
  0
LINE
  5
352
100
AcDbEntity
  8
ASSI
100
AcDbLine
 62
253
  6
CONTINUOUS
 10
-27.9948367914
 20
34.3682102802
 11
-31.6923296709
 21
32.086665667
  0
LINE
  5
353
100
AcDbEntity
  8
RACCORDO
100
AcDbLine
 62
7
  6
CONTINUOUS
 10
-20.9218238915
 20
40.2721732092
 11
-26.5008906036
 21
36.8792200957
  0
LINE
  5
354
100
AcDbEntity
  8
DRAFT
100
AcDbLine
 62
7
  6
CONTINUOUS
 10
-26.0763986461
 20
36.6267205384
 11
-22.3116755724
 21
38.9104572244
  0
LINE
  5
355
100
AcDbEntity
  8
RACCORDO
100
AcDbLine
 62
7
  6
CONTINUOUS
 10
-21.3097488412
 20
39.7268606451
 11
-21.8047923919
 21
39.4343384154
  0
LINE
  5
356
100
AcDbEntity
  8
RACCORDO
100
AcDbLine
 62
253
  6
CONTINUOUS
 10
-26.0099296504
 20
37.8994217146
 11
-28.139477613
 21
36.6698480992
  0
LINE
  5
357
100
AcDbEntity
  8
0
100
AcDbLine
 62
7
  6
CONTINUOUS
 10
-22.3309114741
 20
38.921563793
 11
-21.6238046929
 21
39.3298383863
  0
LINE
  5
358
100
AcDbEntity
  8
RACCORDO
100
AcDbLine
 62
253
  6
CONTINUOUS
 10
-25.8029048631
 20
36.4688086557
 11
-26.522354239
 21
36.0747857501
  0
LINE
  5
359
100
AcDbEntity
  8
RACCORDO
100
AcDbLine
 62
253
  6
CONTINUOUS
 10
-25.4775366504
 20
35.9052972968
 11
-26.1955389096
 21
35.5120669378
  0
LWPOLYLINE
  5
35A
100
AcDbEntity
  8
ASSI
100
AcDbPolyline
 62
7
  6
CONTINUOUS
 90
4
 70
0
 10
-3.0440617655
 20
42.8210311145
 10
-3.0072234023
 20
42.8336251136
 10
-2.8944089163
 20
42.8829460224
 10
-2.7794089743
 20
42.9437668895
  0
LWPOLYLINE
  5
35B
100
AcDbEntity
  8
RACCORDO
100
AcDbPolyline
 62
253
  6
CONTINUOUS
 90
31
 70
0
 10
-28.139477613
 20
36.6698480992
 10
-28.1397725899
 20
36.6806401685
 10
-28.1405484431
 20
36.6916840326
 10
-28.1418030462
 20
36.7029494223
 10
-28.1435329605
 20
36.7144054613
 10
-28.1457334447
 20
36.7260207507
 10
-28.1483984675
 20
36.7377634552
 10
-28.1515207249
 20
36.7496013902
 10
-28.155091659
 20
36.7615021103
 10
-28.1591014829
 20
36.7734329977
 10
-28.1635392062
 20
36.7853613521
 10
-28.1683926659
 20
36.7972544801
 10
-28.1736485597
 20
36.809079785
 10
-28.1792924822
 20
36.8208048557
 10
-28.1853089644
 20
36.8323975561
 10
-28.1916815163
 20
36.8438261128
 10
-28.1983926718
 20
36.8550592021
 10
-28.205424037
 20
36.8660660363
 10
-28.2127563403
 20
36.8768164478
 10
-28.2203694851
 20
36.8872809716
 10
-28.2282426052
 20
36.8974309266
 10
-28.236354122
 20
36.9072384935
 10
-28.2446818032
 20
36.9166767917
 10
-28.2532028243
 20
36.9257199525
 10
-28.2618938307
 20
36.9343431904
 10
-28.270731002
 20
36.9425228706
 10
-28.2796901172
 20
36.9502365743
 10
-28.2887466211
 20
36.9574631595
 10
-28.2978756913
 20
36.9641828196
 10
-28.307052307
 20
36.9703771373
 10
-28.3162513167
 20
36.9760291351
  0
LWPOLYLINE
  5
35C
100
AcDbEntity
  8
RACCORDO
100
AcDbPolyline
 62
253
  6
CONTINUOUS
 90
16
 70
0
 10
-28.4919995727
 20
-2.9069859529
 10
-28.4917602177
 20
-2.9174661013
 10
-28.4910422125
 20
-2.9276476339
 10
-28.4898466224
 20
-2.9375023566
 10
-28.4881754249
 20
-2.9470047874
 10
-28.4860324901
 20
-2.956126343
 10
-28.4834245346
 20
-2.9648362336
 10
-28.4803593626
 20
-2.9731090284
 10
-28.4768448083
 20
-2.9809241206
 10
-28.472890327
 20
-2.9882604301
 10
-28.4685065632
 20
-2.9950980742
 10
-28.4637054836
 20
-3.0014182654
 10
-28.4585002781
 20
-3.0072036037
 10
-28.4529051892
 20
-3.0124382857
 10
-28.4469353862
 20
-3.0171081439
 10
-28.4402289403
 20
-3.021420155
  0
LWPOLYLINE
  5
35D
100
AcDbEntity
  8
RACCORDO
100
AcDbPolyline
 62
253
  6
CONTINUOUS
 90
17
 70
0
 10
-29.8169842525
 20
37.1149495552
 10
-29.8167643978
 20
37.1048995931
 10
-29.8161053805
 20
37.0951285104
 10
-29.8150088398
 20
37.0856606117
 10
-29.8134775089
 20
37.0765194783
 10
-29.8115151936
 20
37.0677278142
 10
-29.8091267478
 20
37.059307402
 10
-29.8063180777
 20
37.0512791433
 10
-29.8030961722
 20
37.0436630821
 10
-29.7994690746
 20
37.0364782527
 10
-29.795445795
 20
37.0297425073
 10
-29.7910363524
 20
37.0234726238
 10
-29.7862518159
 20
37.0176843095
 10
-29.7811041824
 20
37.0123920021
 10
-29.7756062145
 20
37.0076087514
 10
-29.7697714808
 20
37.0033463381
 10
-29.765212869
 20
37.0005149194
  0
LWPOLYLINE
  5
35E
100
AcDbEntity
  8
RACCORDO
100
AcDbPolyline
 62
253
  6
CONTINUOUS
 90
17
 70
0
 10
-28.4919995727
 20
36.349920007
 10
-28.491779718
 20
36.3398700449
 10
-28.4911207007
 20
36.3300989623
 10
-28.4900241599
 20
36.3206310636
 10
-28.488492829
 20
36.3114899301
 10
-28.4865305138
 20
36.302698266
 10
-28.4841420679
 20
36.2942778538
 10
-28.4813333979
 20
36.2862495951
 10
-28.4781114923
 20
36.2786335339
 10
-28.4744843948
 20
36.2714487046
 10
-28.4704611151
 20
36.2647129592
 10
-28.4660516726
 20
36.2584430756
 10
-28.461267136
 20
36.2526547614
 10
-28.4561195026
 20
36.247362454
 10
-28.4506215346
 20
36.2425792032
 10
-28.4447868009
 20
36.23831679
 10
-28.4402921338
 20
36.235522329
  0
LWPOLYLINE
  5
35F
100
AcDbEntity
  8
RACCORDO
100
AcDbPolyline
 62
7
  6
CONTINUOUS
 90
21
 70
0
 10
-28.4120297923
 20
45.2601481363
 10
-28.4126029767
 20
45.292587229
 10
-28.4143020897
 20
45.3242258317
 10
-28.4171271313
 20
45.3550639445
 10
-28.4210875658
 20
45.3851539318
 10
-28.426173929
 20
45.4144434292
 10
-28.4323578273
 20
45.4427753431
 10
-28.4396404428
 20
45.4701316983
 10
-28.4480205934
 20
45.49653047
 10
-28.4574663407
 20
45.5218684908
 10
-28.4679901992
 20
45.5461572489
 10
-28.4795796542
 20
45.569385256
 10
-28.492165223
 20
45.5914148795
 10
-28.5057404088
 20
45.6122229675
 10
-28.5203117084
 20
45.6318326719
 10
-28.5358291284
 20
45.6501758154
 10
-28.5523124158
 20
45.667262592
 10
-28.5697418236
 20
45.6830828077
 10
-28.5880081183
 20
45.6975377037
 10
-28.6070967742
 20
45.7106072161
 10
-28.6191131346
 20
45.7178868952
  0
LINE
  5
360
100
AcDbEntity
  8
RACCORDO
100
AcDbLine
 62
7
  6
CONTINUOUS
 10
-29.8902075572
 20
37.5375383763
 11
-29.8902027444
 21
37.2154670118
  0
LINE
  5
361
100
AcDbEntity
  8
RACCORDO
100
AcDbLine
 62
253
  6
CONTINUOUS
 10
-29.8169842525
 20
37.435469728
 11
-29.8169842525
 21
37.1149495552
  0
LINE
  5
362
100
AcDbEntity
  8
RACCORDO
100
AcDbLine
 62
7
  6
CONTINUOUS
 10
-29.1872146029
 20
36.3873868993
 11
-29.1872146029
 21
36.6667859646
  0
LINE
  5
363
100
AcDbEntity
  8
RACCORDO
100
AcDbLine
 62
253
  6
CONTINUOUS
 10
-29.1139912982
 20
36.2821566361
 11
-29.1139912982
 21
36.6245077461
  0
LINE
  5
364
100
AcDbEntity
  8
RACCORDO
100
AcDbLine
 62
253
  6
CONTINUOUS
 10
-28.4919995727
 20
-2.9069859529
 11
-28.4919995727
 21
-2.58646578
  0
LINE
  5
365
100
AcDbEntity
  8
RACCORDO
100
AcDbLine
 62
253
  6
CONTINUOUS
 10
-28.4919995727
 20
36.349920007
 11
-28.4919995727
 21
36.6704401798
  0
LINE
  5
366
100
AcDbEntity
  8
RACCORDO
100
AcDbLine
 62
7
  6
CONTINUOUS
 10
-28.4120297923
 20
45.2601481363
 11
-28.4120297923
 21
45.0048433971
  0
LINE
  5
367
100
AcDbEntity
  8
RACCORDO
100
AcDbLine
 62
253
  6
CONTINUOUS
 10
-28.139477613
 20
-2.9075780335
 11
-28.139477613
 21
-2.5870578607
  0
LINE
  5
368
100
AcDbEntity
  8
RACCORDO
100
AcDbLine
 62
253
  6
CONTINUOUS
 10
-28.139477613
 20
36.3493279263
 11
-28.139477613
 21
36.6698480992
  0
LINE
  5
369
100
AcDbEntity
  8
RACCORDO
100
AcDbLine
 62
7
  6
CONTINUOUS
 10
-27.9956094663
 20
34.4013301721
 11
-27.9956094663
 21
27.3939026535
  0
LINE
  5
36A
100
AcDbEntity
  8
0
100
AcDbLine
 62
7
  6
CONTINUOUS
 10
-27.9956094663
 20
23.9219728659
 11
-27.9956094663
 21
9.2682625087
  0
LINE
  5
36B
100
AcDbEntity
  8
RACCORDO
100
AcDbLine
 62
7
  6
CONTINUOUS
 10
-27.9956094663
 20
5.7963327211
 11
-27.9956094663
 21
-1.2110947976
  0
LINE
  5
36C
100
AcDbEntity
  8
ASSI
100
AcDbLine
 62
7
  6
CONTINUOUS
 10
-27.9948367914
 20
34.3682102802
 11
-27.9948367914
 21
-1.1788671712
  0
LINE
  5
36D
100
AcDbEntity
  8
RACCORDO
100
AcDbLine
 62
7
  6
CONTINUOUS
 10
-27.9948367914
 20
-1.1788671712
 11
-27.9948367914
 21
5.8172639008
  0
LINE
  5
36E
100
AcDbEntity
  8
0
100
AcDbLine
 62
7
  6
CONTINUOUS
 10
-27.9948367914
 20
5.8172639008
 11
-27.9948367914
 21
27.3720792082
  0
LINE
  5
36F
100
AcDbEntity
  8
RACCORDO
100
AcDbLine
 62
7
  6
CONTINUOUS
 10
-27.9948367914
 20
27.3720792082
 11
-27.9948367914
 21
34.3682102802
  0
LINE
  5
370
100
AcDbEntity
  8
RACCORDO
100
AcDbLine
 62
253
  6
CONTINUOUS
 10
-27.7807789646
 20
36.151718814
 11
-27.7807789646
 21
35.5123765438
  0
LINE
  5
371
100
AcDbEntity
  8
RACCORDO
100
AcDbLine
 62
253
  6
CONTINUOUS
 10
-27.7807789646
 20
-1.2677729541
 11
-27.7807789646
 21
-1.5913297912
  0
LWPOLYLINE
  5
372
100
AcDbEntity
  8
RACCORDO
100
AcDbPolyline
 62
253
  6
CONTINUOUS
 90
22
 70
0
 10
-28.4919995727
 20
-2.58646578
 10
-28.4917807015
 20
-2.576185277
 10
-28.4911241458
 20
-2.5656716074
 10
-28.4900308081
 20
-2.5549504785
 10
-28.4885023583
 20
-2.544046159
 10
-28.4865420397
 20
-2.5329874434
 10
-28.4841554566
 20
-2.5218078358
 10
-28.4813491238
 20
-2.5105373128
 10
-28.4781296067
 20
-2.499201782
 10
-28.4745048376
 20
-2.4878292104
 10
-28.4704837545
 20
-2.4764477362
 10
-28.4660763813
 20
-2.4650858174
 10
-28.4612937535
 20
-2.4537719322
 10
-28.4561477806
 20
-2.4425342518
 10
-28.4506512517
 20
-2.4314007024
 10
-28.4448179084
 20
-2.4203991053
 10
-28.4386623196
 20
-2.4095569027
 10
-28.4321997643
 20
-2.398900974
 10
-28.4254462509
 20
-2.3884577028
 10
-28.418418551
 20
-2.3782530278
 10
-28.4111341694
 20
-2.3683123701
 10
-28.403611225
 20
-2.3586604556
  0
LWPOLYLINE
  5
373
100
AcDbEntity
  8
RACCORDO
100
AcDbPolyline
 62
253
  6
CONTINUOUS
 90
31
 70
0
 10
-29.8169842525
 20
37.435469728
 10
-29.8167448976
 20
37.4462262775
 10
-29.8160268924
 20
37.4572369445
 10
-29.8148313022
 20
37.4684723047
 10
-29.8131601048
 20
37.4799045924
 10
-29.8110171699
 20
37.4915007555
 10
-29.8084092144
 20
37.5032222478
 10
-29.8053440424
 20
37.5150346263
 10
-29.8018294881
 20
37.5269082377
 10
-29.7978750069
 20
37.5388110831
 10
-29.7934912431
 20
37.5507109877
 10
-29.7886901634
 20
37.5625753453
 10
-29.7834849579
 20
37.5743715244
 10
-29.777889869
 20
37.5860672749
 10
-29.771920066
 20
37.5976309119
 10
-29.7655917441
 20
37.6090310613
 10
-29.758922093
 20
37.6202367374
 10
-29.7519292856
 20
37.6312173901
 10
-29.7446323768
 20
37.6419430887
 10
-29.7370512344
 20
37.6523846268
 10
-29.7292064831
 20
37.6625135943
 10
-29.7211194769
 20
37.6723024158
 10
-29.7128122247
 20
37.6817244475
 10
-29.7043073379
 20
37.6907540401
 10
-29.6956279729
 20
37.6993666067
 10
-29.6867977469
 20
37.7075387094
 10
-29.6778407006
 20
37.7152480975
 10
-29.6687812413
 20
37.7224737645
 10
-29.6596440378
 20
37.7291960397
 10
-29.6504539515
 20
37.7353966371
 10
-29.6412359965
 20
37.7410586832
  0
LWPOLYLINE
  5
374
100
AcDbEntity
  8
RACCORDO
100
AcDbPolyline
 62
253
  6
CONTINUOUS
 90
31
 70
0
 10
-28.4919995727
 20
36.6704401798
 10
-28.4917589914
 20
36.6812245857
 10
-28.4910379002
 20
36.6922574815
 10
-28.4898382584
 20
36.7035088385
 10
-28.4881633259
 20
36.7149480454
 10
-28.4860176594
 20
36.7265439551
 10
-28.4834071048
 20
36.7382649685
 10
-28.4803387713
 20
36.750079173
 10
-28.47682101
 20
36.7619544197
 10
-28.4728634008
 20
36.7738583744
 10
-28.4684767189
 20
36.7857586333
 10
-28.4636729059
 20
36.7976228077
 10
-28.4584650413
 20
36.8094186004
 10
-28.4528672959
 20
36.821113919
 10
-28.4468949143
 20
36.8326769174
 10
-28.44056418
 20
36.8440760796
 10
-28.433892359
 20
36.855280336
 10
-28.4268975907
 20
36.8662592432
 10
-28.4195988538
 20
36.8769830157
 10
-28.4120159112
 20
36.8874225974
 10
-28.4041694929
 20
36.8975494303
 10
-28.3960812016
 20
36.9073356576
 10
-28.3877732339
 20
36.9167544939
 10
-28.3792680615
 20
36.9257805314
 10
-28.3705885988
 20
36.934389477
 10
-28.3617565082
 20
36.9425596486
 10
-28.3527977253
 20
36.9502668623
 10
-28.3437423884
 20
36.9574857306
 10
-28.3346172196
 20
36.9641961981
 10
-28.325445215
 20
36.9703825898
 10
-28.3162513167
 20
36.9760291351
  0
LWPOLYLINE
  5
375
100
AcDbEntity
  8
RACCORDO
100
AcDbPolyline
 62
7
  6
CONTINUOUS
 90
19
 70
0
 10
-29.8902075572
 20
37.5375383763
 10
-29.8898097509
 20
37.5516359742
 10
-29.8886067111
 20
37.5657847675
 10
-29.8865876474
 20
37.579927657
 10
-29.8837454369
 20
37.5940122734
 10
-29.8800804854
 20
37.6079725881
 10
-29.8756039276
 20
37.6217318962
 10
-29.8703332528
 20
37.6352223776
 10
-29.8642831321
 20
37.6483992648
 10
-29.8574668327
 20
37.6612251063
 10
-29.8499144672
 20
37.6736376482
 10
-29.841648266
 20
37.685597961
 10
-29.8326622747
 20
37.6971039795
 10
-29.8229546202
 20
37.7081358872
 10
-29.812579319
 20
37.7186128794
 10
-29.8016120895
 20
37.7284534803
 10
-29.7900841856
 20
37.737630845
 10
-29.7780358298
 20
37.7461129847
 10
-29.7673910876
 20
37.7527692978
  0
LWPOLYLINE
  5
376
100
AcDbEntity
  8
RACCORDO
100
AcDbPolyline
 62
253
  6
CONTINUOUS
 90
17
 70
0
 10
-31.6923296709
 20
-3.0205935425
 10
-31.693789553
 20
-3.0421818765
 10
-31.6961963369
 20
-3.0631425628
 10
-31.6995434335
 20
-3.0834182163
 10
-31.7038216791
 20
-3.1029533276
 10
-31.7090193612
 20
-3.1216944145
 10
-31.7151222497
 20
-3.1395901686
 10
-31.7221136366
 20
-3.156591596
 10
-31.7299743812
 20
-3.1726521511
 10
-31.7386829627
 20
-3.1877278641
 10
-31.7482155394
 20
-3.2017774617
 10
-31.7585460134
 20
-3.2147624797
 10
-31.7696461025
 20
-3.2266473683
 10
-31.7814854177
 20
-3.2373995898
 10
-31.7940315457
 20
-3.2469897073
 10
-31.8072501385
 20
-3.2553914656
 10
-31.8167320968
 20
-3.2604776187
  0
LWPOLYLINE
  5
377
100
AcDbEntity
  8
ASSI
100
AcDbPolyline
 62
253
  6
CONTINUOUS
 90
17
 70
0
 10
-31.6923296709
 20
-3.0205935425
 10
-31.693789553
 20
-3.0421818765
 10
-31.6961963369
 20
-3.0631425628
 10
-31.6995434335
 20
-3.0834182163
 10
-31.7038216791
 20
-3.1029533276
 10
-31.7090193612
 20
-3.1216944145
 10
-31.7151222497
 20
-3.1395901686
 10
-31.7221136366
 20
-3.156591596
 10
-31.7299743812
 20
-3.1726521511
 10
-31.7386829627
 20
-3.1877278641
 10
-31.7482155394
 20
-3.2017774617
 10
-31.7585460134
 20
-3.2147624797
 10
-31.7696461025
 20
-3.2266473683
 10
-31.7814854176
 20
-3.2373995898
 10
-31.7940315457
 20
-3.2469897073
 10
-31.8072501385
 20
-3.2553914656
 10
-31.8167320968
 20
-3.2604776187
  0
LINE
  5
378
100
AcDbEntity
  8
RACCORDO
100
AcDbLine
 62
253
  6
CONTINUOUS
 10
-21.0283378212
 20
36.6876510383
 11
-25.4775366504
 21
34.0652685323
  0
LINE
  5
379
100
AcDbEntity
  8
RACCORDO
100
AcDbLine
 62
253
  6
CONTINUOUS
 10
-20.6141873455
 20
35.2940382663
 11
-25.4775366504
 21
32.4275531693
  0
LINE
  5
37A
100
AcDbEntity
  8
RACCORDO
100
AcDbLine
 62
253
  6
CONTINUOUS
 10
-5.4638475172
 20
45.8179579058
 11
1.9166458273
 21
50.1227674621
  0
LINE
  5
37B
100
AcDbEntity
  8
ASSI
100
AcDbLine
 62
253
  6
CONTINUOUS
 10
-5.4638475172
 20
45.8179579058
 11
1.9166458273
 21
50.1227674621
  0
LINE
  5
37C
100
AcDbEntity
  8
RACCORDO
100
AcDbLine
 62
253
  6
CONTINUOUS
 10
-4.9638665556
 20
45.2901456631
 11
2.4166267889
 21
49.5949552193
  0
LINE
  5
37D
100
AcDbEntity
  8
ASSI
100
AcDbLine
 62
253
  6
CONTINUOUS
 10
-4.9638665556
 20
45.2901456631
 11
2.4166267889
 21
49.5949552193
  0
LINE
  5
37E
100
AcDbEntity
  8
ASSI
100
AcDbLine
 62
253
  6
CONTINUOUS
 10
-5.4268815548
 20
45.7783738343
 11
-21.0641220523
 21
36.7496271517
  0
LINE
  5
37F
100
AcDbEntity
  8
ASSI
100
AcDbLine
 62
253
  6
CONTINUOUS
 10
-5.0718815548
 20
45.4036128723
 11
-20.8375187224
 21
36.3007315615
  0
LINE
  5
380
100
AcDbEntity
  8
ASSI
100
AcDbLine
 62
253
  6
CONTINUOUS
 10
-4.5174450466
 20
44.4433006716
 11
-20.6141873455
 21
35.1492434078
  0
LINE
  5
381
100
AcDbEntity
  8
RACCORDO
100
AcDbLine
 62
253
  6
CONTINUOUS
 10
-4.5617078128
 20
44.5935862886
 11
2.8563793164
 21
48.8332814997
  0
LINE
  5
382
100
AcDbEntity
  8
ASSI
100
AcDbLine
 62
253
  6
CONTINUOUS
 10
-4.5617078128
 20
44.5935862886
 11
2.8563793164
 21
48.8332814997
  0
LWPOLYLINE
  5
383
100
AcDbEntity
  8
RACCORDO
100
AcDbPolyline
 62
253
  6
CONTINUOUS
 90
31
 70
0
 10
-32.3735173303
 20
30.9250773267
 10
-32.3925819533
 20
30.9158542445
 10
-32.4125264645
 20
30.9072125247
 10
-32.4332974041
 20
30.8991753308
 10
-32.4548390971
 20
30.8917642059
 10
-32.4770938028
 20
30.8849990149
 10
-32.500001869
 20
30.8788978914
 10
-32.5235018925
 20
30.873477189
 10
-32.5475308832
 20
30.8687514374
 10
-32.5720244333
 20
30.8647333038
 10
-32.5969168896
 20
30.8614335584
 10
-32.6221415298
 20
30.8588610458
 10
-32.6476307412
 20
30.8570226616
 10
-32.6733162019
 20
30.8559233334
 10
-32.699129064
 20
30.8555660079
 10
-32.7250001381
 20
30.8559516427
 10
-32.7508600787
 20
30.8570792044
 10
-32.7766395702
 20
30.8589456704
 10
-32.8022695127
 20
30.861546038
 10
-32.8276812071
 20
30.864873337
 10
-32.8528065392
 20
30.8689186489
 10
-32.8775781625
 20
30.8736711304
 10
-32.9019296786
 20
30.879118043
 10
-32.9257958151
 20
30.8852447865
 10
-32.9491126006
 20
30.8920349388
 10
-32.9718175362
 20
30.8994702994
 10
-32.9938497632
 20
30.9075309383
 10
-33.0151502257
 20
30.9161952495
 10
-33.0356618296
 20
30.9254400092
 10
-33.055329595
 20
30.9352404373
 10
-33.074100804
 20
30.9455702647
  0
LWPOLYLINE
  5
384
100
AcDbEntity
  8
ASSI
100
AcDbPolyline
 62
253
  6
CONTINUOUS
 90
31
 70
0
 10
-32.3735173303
 20
30.9250773267
 10
-32.3925819533
 20
30.9158542445
 10
-32.4125264645
 20
30.9072125247
 10
-32.4332974041
 20
30.8991753308
 10
-32.4548390971
 20
30.8917642059
 10
-32.4770938028
 20
30.8849990149
 10
-32.500001869
 20
30.8788978914
 10
-32.5235018925
 20
30.873477189
 10
-32.5475308832
 20
30.8687514374
 10
-32.5720244333
 20
30.8647333038
 10
-32.5969168896
 20
30.8614335584
 10
-32.6221415298
 20
30.8588610458
 10
-32.6476307412
 20
30.8570226617
 10
-32.6733162019
 20
30.8559233334
 10
-32.699129064
 20
30.8555660079
 10
-32.7250001381
 20
30.8559516428
 10
-32.7508600787
 20
30.8570792044
 10
-32.7766395702
 20
30.8589456705
 10
-32.8022695127
 20
30.8615460381
 10
-32.8276812071
 20
30.864873337
 10
-32.8528065392
 20
30.8689186489
 10
-32.8775781625
 20
30.8736711304
 10
-32.9019296786
 20
30.879118043
 10
-32.925795815
 20
30.8852447866
 10
-32.9491126005
 20
30.8920349389
 10
-32.9718175362
 20
30.8994702994
 10
-32.9938497631
 20
30.9075309383
 10
-33.0151502257
 20
30.9161952496
 10
-33.0356618295
 20
30.9254400092
 10
-33.055329595
 20
30.9352404373
 10
-33.074100804
 20
30.9455702647
  0
LINE
  5
385
100
AcDbEntity
  8
0
100
AcDbLine
 62
253
  6
CONTINUOUS
 10
-14.8453181496
 20
10.4326068372
 11
-15.2244883232
 21
10.8507796094
  0
LWPOLYLINE
  5
386
100
AcDbEntity
  8
ASSI
100
AcDbPolyline
 62
7
  6
CONTINUOUS
 90
4
 70
0
 10
-31.0641745286
 20
46.0967611152
 10
-31.0642275228
 20
46.0972332598
 10
-31.0650248779
 20
46.0983325704
 10
-31.065174074
 20
46.0984227115
  0
LWPOLYLINE
  5
387
100
AcDbEntity
  8
RACCORDO
100
AcDbPolyline
 62
7
  6
CONTINUOUS
 90
34
 70
0
 10
-26.1955389096
 20
35.5120669378
 10
-26.1962427489
 20
35.529969759
 10
-26.1976710195
 20
35.5482618409
 10
-26.1998191967
 20
35.5669023075
 10
-26.2026800468
 20
35.5858499907
 10
-26.206246894
 20
35.6050620745
 10
-26.2105137019
 20
35.6244942137
 10
-26.2154696677
 20
35.6441030023
 10
-26.2211023561
 20
35.6638446838
 10
-26.2274010824
 20
35.6836738262
 10
-26.2343505791
 20
35.7035461284
 10
-26.2419339997
 20
35.723417257
 10
-26.2501362225
 20
35.7432415877
 10
-26.2589378185
 20
35.762974796
 10
-26.2683178629
 20
35.7825728414
 10
-26.2782570914
 20
35.8019908015
 10
-26.2887322953
 20
35.8211851978
 10
-26.299718883
 20
35.8401131508
 10
-26.3111938254
 20
35.8587313277
 10
-26.323130589
 20
35.8769979521
 10
-26.3355013978
 20
35.8948721499
 10
-26.3482799105
 20
35.9123130378
 10
-26.3614367881
 20
35.9292813654
 10
-26.3749416153
 20
35.9457390711
 10
-26.3887652567
 20
35.9616485348
 10
-26.4028761422
 20
35.9769738075
 10
-26.4172418141
 20
35.9916803957
 10
-26.431830921
 20
36.0057346956
 10
-26.4466166045
 20
36.0191100728
 10
-26.4615587742
 20
36.0317703936
 10
-26.4766052262
 20
36.0436726336
 10
-26.4917153963
 20
36.0547880233
 10
-26.5068609107
 20
36.0650991769
 10
-26.522007551
 20
36.0745855768
  0
LWPOLYLINE
  5
388
100
AcDbEntity
  8
RACCORDO
100
AcDbPolyline
 62
7
  6
CONTINUOUS
 90
22
 70
0
 10
-25.9377317934
 20
-1.2631362599
 10
-25.9380554674
 20
-1.2504189133
 10
-25.9390317124
 20
-1.2376751358
 10
-25.9406659637
 20
-1.2249462638
 10
-25.9429595747
 20
-1.2122780166
 10
-25.9459116592
 20
-1.199708958
 10
-25.9495211455
 20
-1.1872700142
 10
-25.9537820399
 20
-1.1750027659
 10
-25.9586845731
 20
-1.1629495803
 10
-25.9642209085
 20
-1.1511412408
 10
-25.9703779926
 20
-1.1396157142
 10
-25.9771377389
 20
-1.1284137892
 10
-25.9844841427
 20
-1.1175670583
 10
-25.9923993354
 20
-1.1071066769
 10
-26.0008576335
 20
-1.0970698626
 10
-26.0098311703
 20
-1.0874906841
 10
-26.0193000973
 20
-1.0783911283
 10
-26.0292333877
 20
-1.0698016914
 10
-26.0395870964
 20
-1.0617581361
 10
-26.0503423094
 20
-1.0542723578
 10
-26.0614676099
 20
-1.0473647234
 10
-26.5381968222
 20
-0.7721023602
  0
LWPOLYLINE
  5
389
100
AcDbEntity
  8
RACCORDO
100
AcDbPolyline
 62
7
  6
CONTINUOUS
 90
34
 70
0
 10
-26.5381968222
 20
37.5944065254
 10
-26.5383968782
 20
37.6042343685
 10
-26.5389971157
 20
37.614271045
 10
-26.5399960737
 20
37.6244938807
 10
-26.5413913092
 20
37.6348798256
 10
-26.5431796574
 20
37.6454053574
 10
-26.5453572388
 20
37.6560465341
 10
-26.5479190633
 20
37.6667792864
 10
-26.5508592376
 20
37.677579355
 10
-26.5541712326
 20
37.6884221969
 10
-26.5578475097
 20
37.6992832727
 10
-26.5618796699
 20
37.710138021
 10
-26.5662586672
 20
37.7209617974
 10
-26.5709745678
 20
37.7317300923
 10
-26.5760166378
 20
37.7424185424
 10
-26.5813734984
 20
37.7530029044
 10
-26.5870330227
 20
37.7634591977
 10
-26.5929823606
 20
37.7737637533
 10
-26.5992080324
 20
37.7838932233
 10
-26.6056959649
 20
37.7938246448
 10
-26.6124314537
 20
37.803535525
 10
-26.619399193
 20
37.8130038878
 10
-26.62658345
 20
37.8222082554
 10
-26.6339679657
 20
37.8311277698
 10
-26.64153592
 20
37.8397422742
 10
-26.6492702415
 20
37.8480322137
 10
-26.6571534475
 20
37.8559787895
 10
-26.6651675469
 20
37.8635640749
 10
-26.6732944773
 20
37.870770836
 10
-26.6815158883
 20
37.8775827158
 10
-26.6898129851
 20
37.8839843828
 10
-26.6981669784
 20
37.8899613341
 10
-26.7065591276
 20
37.895499928
 10
-26.7149705258
 20
37.9005875613
  0
LWPOLYLINE
  5
38A
100
AcDbEntity
  8
RACCORDO
100
AcDbPolyline
 62
253
  6
CONTINUOUS
 90
31
 70
0
 10
-26.0099296504
 20
37.8994217146
 10
-26.0101198033
 20
37.910274308
 10
-26.0107967574
 20
37.9213752752
 10
-26.0119586572
 20
37.9326941907
 10
-26.0136023182
 20
37.9442000312
 10
-26.0157232354
 20
37.9558612616
 10
-26.0183155958
 20
37.9676459205
 10
-26.0213722942
 20
37.9795217084
 10
-26.0248849528
 20
37.9914560761
 10
-26.028843944
 20
38.0034163136
 10
-26.033238417
 20
38.0153696401
 10
-26.0380563274
 20
38.027283294
 10
-26.0432844702
 20
38.039124622
 10
-26.048908516
 20
38.0508611693
 10
-26.0549130503
 20
38.0624607682
 10
-26.0612816159
 20
38.0738916264
 10
-26.0679967577
 20
38.0851224141
 10
-26.0750400708
 20
38.0961223498
 10
-26.0823922507
 20
38.1068612847
 10
-26.0900331466
 20
38.1173097855
 10
-26.0979418161
 20
38.1274392147
 10
-26.1060965831
 20
38.1372218094
 10
-26.114475097
 20
38.1466307575
 10
-26.1230543936
 20
38.1556402707
 10
-26.1318109589
 20
38.1642256557
 10
-26.1407207927
 20
38.1723633815
 10
-26.1497594749
 20
38.1800311442
 10
-26.158902232
 20
38.1872079279
 10
-26.1681240056
 20
38.1938740623
 10
-26.1773995204
 20
38.2000112768
 10
-26.1867033541
 20
38.2056027505
  0
LINE
  5
38B
100
AcDbEntity
  8
RACCORDO
100
AcDbLine
 62
253
  6
CONTINUOUS
 10
-27.4282570049
 20
36.2838379135
 11
-27.4282570049
 21
35.5224195773
  0
LINE
  5
38C
100
AcDbEntity
  8
RACCORDO
100
AcDbLine
 62
253
  6
CONTINUOUS
 10
-27.4282570049
 20
-1.0921812733
 11
-27.4282570049
 21
-1.7097692054
  0
LINE
  5
38D
100
AcDbEntity
  8
RACCORDO
100
AcDbLine
 62
253
  6
CONTINUOUS
 10
-26.6954622003
 20
28.101834276
 11
-26.6954622003
 21
24.8986408459
  0
LINE
  5
38E
100
AcDbEntity
  8
RACCORDO
100
AcDbLine
 62
253
  6
CONTINUOUS
 10
-26.6954622003
 20
9.9761941312
 11
-26.6954622003
 21
6.7730007011
  0
LINE
  5
38F
100
AcDbEntity
  8
ASSI
100
AcDbLine
 62
253
  6
CONTINUOUS
 10
-26.6954622003
 20
6.7730007011
 11
-26.6954622003
 21
9.9761941312
  0
LINE
  5
390
100
AcDbEntity
  8
ASSI
100
AcDbLine
 62
253
  6
CONTINUOUS
 10
-26.6954622003
 20
24.8986408459
 11
-26.6954622003
 21
28.101834276
  0
LINE
  5
391
100
AcDbEntity
  8
RACCORDO
100
AcDbLine
 62
7
  6
CONTINUOUS
 10
-26.5381968222
 20
-2.0044088077
 11
-26.5381968222
 21
-0.6488410523
  0
LINE
  5
392
100
AcDbEntity
  8
RACCORDO
100
AcDbLine
 62
7
  6
CONTINUOUS
 10
-26.5381968222
 20
36.083933059
 11
-26.5381968222
 21
37.5944065254
  0
LINE
  5
393
100
AcDbEntity
  8
RACCORDO
100
AcDbLine
 62
7
  6
CONTINUOUS
 10
-26.4726081617
 20
28.2305069782
 11
-26.4726081617
 21
25.2705818748
  0
LINE
  5
394
100
AcDbEntity
  8
RACCORDO
100
AcDbLine
 62
7
  6
CONTINUOUS
 10
-26.4726081617
 20
10.1048668334
 11
-26.4726081617
 21
7.14494173
  0
LINE
  5
395
100
AcDbEntity
  8
ASSI
100
AcDbLine
 62
7
  6
CONTINUOUS
 10
-26.4726081617
 20
7.14494173
 11
-26.4726081617
 21
10.1048668334
  0
LINE
  5
396
100
AcDbEntity
  8
ASSI
100
AcDbLine
 62
7
  6
CONTINUOUS
 10
-26.4726081617
 20
25.2705818748
 11
-26.4726081617
 21
28.2305069782
  0
LINE
  5
397
100
AcDbEntity
  8
RACCORDO
100
AcDbLine
 62
7
  6
CONTINUOUS
 10
-26.4128568121
 20
28.2650065442
 11
-26.4128568121
 21
25.8589077023
  0
LINE
  5
398
100
AcDbEntity
  8
RACCORDO
100
AcDbLine
 62
7
  6
CONTINUOUS
 10
-26.4128568121
 20
10.1393663994
 11
-26.4128568121
 21
7.7332675575
  0
LINE
  5
399
100
AcDbEntity
  8
RACCORDO
100
AcDbLine
 62
253
  6
CONTINUOUS
 10
-26.0099296504
 20
37.8994217146
 11
-26.0099296504
 21
37.5717764141
  0
LINE
  5
39A
100
AcDbEntity
  8
RACCORDO
100
AcDbLine
 62
253
  6
CONTINUOUS
 10
-26.0099296504
 20
-1.3646093729
 11
-26.0099296504
 21
-1.6922546734
  0
LINE
  5
39B
100
AcDbEntity
  8
RACCORDO
100
AcDbLine
 62
7
  6
CONTINUOUS
 10
-25.9377317934
 20
38.0008948277
 11
-25.9377317934
 21
37.6732495271
  0
LINE
  5
39C
100
AcDbEntity
  8
RACCORDO
100
AcDbLine
 62
7
  6
CONTINUOUS
 10
-25.9377317934
 20
-1.2631362599
 11
-25.9377317934
 21
-1.5907815604
  0
LINE
  5
39D
100
AcDbEntity
  8
ASSI
100
AcDbLine
 62
253
  6
CONTINUOUS
 10
-25.6327801344
 20
42.8489911668
 11
-25.6327801344
 21
41.6921546329
  0
LINE
  5
39E
100
AcDbEntity
  8
ASSI
100
AcDbLine
 62
7
  6
CONTINUOUS
 10
-25.5091860705
 20
42.8891760126
 11
-25.5091860705
 21
41.8637301805
  0
LINE
  5
39F
100
AcDbEntity
  8
0
100
AcDbLine
 62
7
  6
CONTINUOUS
 10
-25.4775366504
 20
25.3188655633
 11
-25.4775366504
 21
10.6794067478
  0
LINE
  5
3A0
100
AcDbEntity
  8
RACCORDO
100
AcDbLine
 62
7
  6
CONTINUOUS
 10
-25.4775366504
 20
35.9052972968
 11
-25.4775366504
 21
0.0929750143
  0
LWPOLYLINE
  5
3A1
100
AcDbEntity
  8
RACCORDO
100
AcDbPolyline
 62
7
  6
CONTINUOUS
 90
21
 70
0
 10
-25.9377317934
 20
-1.5907815334
 10
-25.9380044261
 20
-1.6024538357
 10
-25.9389326637
 20
-1.6152558949
 10
-25.9405186885
 20
-1.6280062935
 10
-25.9427621205
 20
-1.6406800506
 10
-25.9456608285
 20
-1.6532447329
 10
-25.9492101646
 20
-1.6656643526
 10
-25.9534052364
 20
-1.6779082765
 10
-25.9582389864
 20
-1.6899433045
 10
-25.9637018326
 20
-1.7017345984
 10
-25.9697830092
 20
-1.7132492192
 10
-25.9764696574
 20
-1.7244539579
 10
-25.9837471432
 20
-1.7353162014
 10
-25.9915995277
 20
-1.7458045727
 10
-26.0000100324
 20
-1.7558892236
 10
-26.0089575775
 20
-1.7655379042
 10
-26.0184166327
 20
-1.7747173545
 10
-26.0283630179
 20
-1.7833992994
 10
-26.0387715704
 20
-1.7915571863
 10
-26.049611909
 20
-1.7991631755
 10
-26.0605505811
 20
-1.8060138517
  0
LWPOLYLINE
  5
3A2
100
AcDbEntity
  8
RACCORDO
100
AcDbPolyline
 62
7
  6
CONTINUOUS
 90
14
 70
0
 10
-25.9377317934
 20
37.6732495271
 10
-25.9380537381
 20
37.6605661784
 10
-25.9390249855
 20
37.6478541959
 10
-25.9406512823
 20
37.6351546322
 10
-25.9429345034
 20
37.6225120979
 10
-25.9458740328
 20
37.609965852
 10
-25.9494683781
 20
37.5975491645
 10
-25.9537113556
 20
37.5853038927
 10
-25.958593414
 20
37.5732715146
 10
-25.9641064701
 20
37.561483187
 10
-25.9702374454
 20
37.5499766245
 10
-25.9769684168
 20
37.5387921027
 10
-25.9842833657
 20
37.527961065
 10
-25.9922308266
 20
37.5174311332
  0
LWPOLYLINE
  5
3A3
100
AcDbEntity
  8
RACCORDO
100
AcDbPolyline
 62
7
  6
CONTINUOUS
 90
18
 70
0
 10
-26.1955389096
 20
-0.3144771373
 10
-26.196244926
 20
-0.3323067069
 10
-26.1976695332
 20
-0.3496651833
 10
-26.1998108685
 20
-0.3665137561
 10
-26.2026665257
 20
-0.3828154615
 10
-26.2062303147
 20
-0.3985330938
 10
-26.2104922191
 20
-0.4136293344
 10
-26.2154438252
 20
-0.4280704015
 10
-26.2210752209
 20
-0.4418240106
 10
-26.2273716815
 20
-0.4548573596
 10
-26.2343200538
 20
-0.4671412967
 10
-26.2419058059
 20
-0.4786484096
 10
-26.2501098006
 20
-0.4893511161
 10
-26.2589144124
 20
-0.4992255168
 10
-26.2683007854
 20
-0.5082496558
 10
-26.2782457608
 20
-0.5164017614
 10
-26.2887276029
 20
-0.5236636967
 10
-26.2952272281
 20
-0.5275654105
  0
LWPOLYLINE
  5
3A4
100
AcDbEntity
  8
RACCORDO
100
AcDbPolyline
 62
253
  6
CONTINUOUS
 90
16
 70
0
 10
-25.9377317934
 20
38.0008948243
 10
-25.9380372984
 20
37.9937608985
 10
-25.9390214701
 20
37.9862517638
 10
-25.9406825695
 20
37.9787824634
 10
-25.9430161156
 20
37.9713732316
 10
-25.9460157451
 20
37.9640443329
 10
-25.9496731785
 20
37.956815933
 10
-25.9539783173
 20
37.9497078333
 10
-25.9589194573
 20
37.9427392257
 10
-25.964483265
 20
37.9359288726
 10
-25.9706560235
 20
37.9292938692
 10
-25.9774197729
 20
37.9228537953
 10
-25.9847512911
 20
37.916630046
 10
-25.9926278627
 20
37.9106403636
 10
-26.0010285678
 20
37.9048992244
 10
-26.0099296504
 20
37.8994217146
  0
LWPOLYLINE
  5
3A5
100
AcDbEntity
  8
RACCORDO
100
AcDbPolyline
 62
253
  6
CONTINUOUS
 90
16
 70
0
 10
-25.9377317934
 20
37.6732495271
 10
-25.9380350145
 20
37.6661422982
 10
-25.9390165202
 20
37.6586345183
 10
-25.9406746981
 20
37.651166501
 10
-25.9430050366
 20
37.6437585643
 10
-25.9460011957
 20
37.6364308628
 10
-25.9496550239
 20
37.6292033327
 10
-25.9539565804
 20
37.6220956377
 10
-25.9588941619
 20
37.6151271156
 10
-25.9644543349
 20
37.6083167253
 10
-25.9706219722
 20
37.6016829957
 10
-25.9773802935
 20
37.595243975
 10
-25.9847109117
 20
37.5890171817
 10
-25.9925938826
 20
37.5830195567
 10
-26.0010077593
 20
37.5772674176
 10
-26.0099296504
 20
37.5717764141
  0
LINE
  5
3A6
100
AcDbEntity
  8
RACCORDO
100
AcDbLine
 62
7
  6
CONTINUOUS
 10
-27.9948367914
 20
27.3720792082
 11
-27.8492220071
 21
27.4726250917
  0
LINE
  5
3A7
100
AcDbEntity
  8
ASSI
100
AcDbLine
 62
7
  6
CONTINUOUS
 10
-27.9948367914
 20
27.3720792082
 11
-27.8492220071
 21
27.4726250917
  0
LINE
  5
3A8
100
AcDbEntity
  8
RACCORDO
100
AcDbLine
 62
253
  6
CONTINUOUS
 10
-1.5202150236
 20
45.415130801
 11
-1.3963741748
 21
45.4905827525
  0
LINE
  5
3A9
100
AcDbEntity
  8
ASSI
100
AcDbLine
 62
253
  6
CONTINUOUS
 10
-1.5202150236
 20
45.415130801
 11
-1.3963741748
 21
45.4905827525
  0
LINE
  5
3AA
100
AcDbEntity
  8
RACCORDO
100
AcDbLine
 62
7
  6
CONTINUOUS
 10
-1.5125298445
 20
45.3214964576
 11
-1.4586499465
 21
45.3531680265
  0
LINE
  5
3AB
100
AcDbEntity
  8
ASSI
100
AcDbLine
 62
7
  6
CONTINUOUS
 10
-1.5122251592
 20
45.3216755571
 11
-1.458650623
 21
45.3531676432
  0
LINE
  5
3AC
100
AcDbEntity
  8
ASSI
100
AcDbLine
 62
253
  6
CONTINUOUS
 10
-4.370399232
 20
43.9484927759
 11
-20.6141873455
 21
34.5695331016
  0
LINE
  5
3AD
100
AcDbEntity
  8
RACCORDO
100
AcDbLine
 62
253
  6
CONTINUOUS
 10
-4.3546089177
 20
43.8967002957
 11
3.0634782116
 21
48.1363955068
  0
LINE
  5
3AE
100
AcDbEntity
  8
ASSI
100
AcDbLine
 62
253
  6
CONTINUOUS
 10
-4.3546089177
 20
43.8967002957
 11
3.0634782116
 21
48.1363955068
  0
LINE
  5
3AF
100
AcDbEntity
  8
RACCORDO
100
AcDbLine
 62
253
  6
CONTINUOUS
 10
-1.3963741748
 20
45.4905827525
 11
3.0634782116
 21
48.02108999
  0
LINE
  5
3B0
100
AcDbEntity
  8
ASSI
100
AcDbLine
 62
253
  6
CONTINUOUS
 10
-1.3963741748
 20
45.4905827525
 11
3.0634782116
 21
48.02108999
  0
LINE
  5
3B1
100
AcDbEntity
  8
RACCORDO
100
AcDbLine
 62
7
  6
CONTINUOUS
 10
-1.4585989445
 20
45.3532044454
 11
3.0006847033
 21
47.8833889822
  0
LINE
  5
3B2
100
AcDbEntity
  8
ASSI
100
AcDbLine
 62
7
  6
CONTINUOUS
 10
-1.4585989445
 20
45.3532044454
 11
3.0006847033
 21
47.8833889822
  0
LWPOLYLINE
  5
3B3
100
AcDbEntity
  8
RACCORDO
100
AcDbPolyline
 62
253
  6
CONTINUOUS
 90
13
 70
0
 10
-1.606646954
 20
41.8583660403
 10
-1.7149088231
 20
41.8014662074
 10
-1.8224451512
 20
41.753651891
 10
-1.928731646
 20
41.7151182919
 10
-2.0332540457
 20
41.6860168878
 10
-2.1355119575
 20
41.6664422754
 10
-2.235020033
 20
41.6564370204
 10
-2.331295678
 20
41.6560087385
 10
-2.4239020272
 20
41.6651172207
 10
-2.5124438156
 20
41.6836827386
 10
-2.5965039216
 20
41.7115886141
 10
-2.6756959046
 20
41.7486755877
 10
-2.6890561052
 20
41.7561121446
  0
LWPOLYLINE
  5
3B4
100
AcDbEntity
  8
ASSI
100
AcDbPolyline
 62
253
  6
CONTINUOUS
 90
13
 70
0
 10
-1.606646954
 20
41.8583660403
 10
-1.7149088231
 20
41.8014662074
 10
-1.8224451512
 20
41.753651891
 10
-1.928731646
 20
41.7151182919
 10
-2.0332540457
 20
41.6860168878
 10
-2.1355119575
 20
41.6664422754
 10
-2.235020033
 20
41.6564370204
 10
-2.331295678
 20
41.6560087385
 10
-2.4239020272
 20
41.6651172207
 10
-2.5124438156
 20
41.6836827386
 10
-2.5965039216
 20
41.7115886141
 10
-2.6756959046
 20
41.7486755877
 10
-2.6891200249
 20
41.7561486084
  0
LWPOLYLINE
  5
3B5
100
AcDbEntity
  8
ASSI
100
AcDbPolyline
 62
7
  6
CONTINUOUS
 90
4
 70
0
 10
-3.0440617655
 20
38.7386797305
 10
-3.0072234023
 20
38.7512737297
 10
-2.8944089163
 20
38.8005946384
 10
-2.7794089743
 20
38.8614155056
  0
LINE
  5
3B6
100
AcDbEntity
  8
0
100
AcDbLine
 62
7
  6
CONTINUOUS
 10
-26.9164354023
 20
24.5450723791
 11
-27.0619387187
 21
24.6290841704
  0
LINE
  5
3B7
100
AcDbEntity
  8
0
100
AcDbLine
 62
7
  6
CONTINUOUS
 10
-25.4775366504
 20
25.3188655633
 11
-26.4726081617
 21
25.8934073828
  0
LINE
  5
3B8
100
AcDbEntity
  8
0
100
AcDbLine
 62
253
  6
CONTINUOUS
 10
-7.375603052
 20
14.9335704912
 11
-7.7998671207
 21
15.1785352472
  0
LINE
  5
3B9
100
AcDbEntity
  8
ASSI
100
AcDbLine
 62
253
  6
CONTINUOUS
 10
-47.9004926193
 20
39.5061314427
 11
-33.0741012131
 21
30.9455588632
  0
LINE
  5
3BA
100
AcDbEntity
  8
RACCORDO
100
AcDbLine
 62
253
  6
CONTINUOUS
 10
-33.0741011573
 20
30.9455604195
 11
-47.9004925663
 21
39.5061330006
  0
LWPOLYLINE
  5
3BB
100
AcDbEntity
  8
RACCORDO
100
AcDbPolyline
 62
253
  6
CONTINUOUS
 90
13
 70
0
 10
-39.3742478149
 20
45.288166228
 10
-39.3699001241
 20
45.2817515984
 10
-39.3660498779
 20
45.2756316062
 10
-39.3627075911
 20
45.269822965
 10
-39.3598823934
 20
45.2643415421
 10
-39.3575819975
 20
45.2592023024
 10
-39.3558126818
 20
45.2544192698
 10
-39.3545792805
 20
45.2500055009
 10
-39.3538851698
 20
45.2459730622
 10
-39.3537322488
 20
45.2423329806
 10
-39.3541209327
 20
45.2390952002
 10
-39.3550501581
 20
45.236268557
 10
-39.3565478143
 20
45.2338224232
  0
LWPOLYLINE
  5
3BC
100
AcDbEntity
  8
ASSI
100
AcDbPolyline
 62
7
  6
CONTINUOUS
 90
4
 70
0
 10
-25.5091860905
 20
42.8893788477
 10
-25.5092215537
 20
42.8897692194
 10
-25.5099575314
 20
42.8908976895
 10
-25.5101859746
 20
42.8910417961
  0
LWPOLYLINE
  5
3BD
100
AcDbEntity
  8
RACCORDO
100
AcDbPolyline
 62
253
  6
CONTINUOUS
 90
16
 70
0
 10
-25.9377317934
 20
-1.5907815566
 10
-25.938033064
 20
-1.597865907
 10
-25.9390127826
 20
-1.6053753485
 10
-25.9406694716
 20
-1.6128450844
 10
-25.9429986231
 20
-1.6202547748
 10
-25.9459939033
 20
-1.6275842596
 10
-25.9496471622
 20
-1.6348135858
 10
-25.9539484603
 20
-1.6419230768
 10
-25.9588860928
 20
-1.6488933797
 10
-25.9644466181
 20
-1.6557055153
 10
-25.9706149072
 20
-1.6623409461
 10
-25.9773741685
 20
-1.6687816059
 10
-25.9847059824
 20
-1.6750099449
 10
-25.9925903805
 20
-1.6810090058
 10
-26.0010059063
 20
-1.6867624681
 10
-26.0099296504
 20
-1.6922546734
  0
LWPOLYLINE
  5
3BE
100
AcDbEntity
  8
RACCORDO
100
AcDbPolyline
 62
253
  6
CONTINUOUS
 90
16
 70
0
 10
-25.9377317934
 20
-1.2631362599
 10
-25.9380350145
 20
-1.2702434888
 10
-25.9390165202
 20
-1.2777512687
 10
-25.9406746981
 20
-1.285219286
 10
-25.9430050366
 20
-1.2926272227
 10
-25.9460011957
 20
-1.2999549242
 10
-25.9496550239
 20
-1.3071824543
 10
-25.9539565804
 20
-1.3142901493
 10
-25.9588941619
 20
-1.3212586714
 10
-25.9644543349
 20
-1.3280690617
 10
-25.9706219722
 20
-1.3347027913
 10
-25.9773802935
 20
-1.341141812
 10
-25.9847109117
 20
-1.3473686054
 10
-25.9925938826
 20
-1.3533662304
 10
-26.0010077593
 20
-1.3591183694
 10
-26.0099296504
 20
-1.3646093729
  0
LINE
  5
3BF
100
AcDbEntity
  8
RACCORDO
100
AcDbLine
 62
7
  6
CONTINUOUS
 10
-27.9948367914
 20
23.9429040456
 11
-26.6954622003
 21
24.8986408459
  0
LINE
  5
3C0
100
AcDbEntity
  8
ASSI
100
AcDbLine
 62
7
  6
CONTINUOUS
 10
-27.9948367914
 20
23.9429040456
 11
-26.6954622003
 21
24.8986408459
  0
LWPOLYLINE
  5
3C1
100
AcDbEntity
  8
ASSI
100
AcDbPolyline
 62
7
  6
CONTINUOUS
 90
20
 70
0
 10
-2.7794089743
 20
42.9437668895
 10
-2.6644090323
 20
43.0157450728
 10
-2.5515945463
 20
43.0966995048
 10
-2.4409655162
 20
43.1866301853
 10
-2.3318357936
 20
43.2862337564
 10
-2.2248915271
 20
43.3948135762
 10
-2.1221911616
 20
43.5102797186
 10
-2.0238169107
 20
43.6327655861
 10
-1.929686561
 20
43.7621377763
 10
-1.8416119175
 20
43.8959061549
 10
-1.7597102921
 20
44.0341558854
 10
-1.683864373
 20
44.1768018045
 10
-1.6155340295
 20
44.3210982874
 10
-1.5548648544
 20
44.4670773092
 10
-1.501711255
 20
44.6147068948
 10
-1.4570963229
 20
44.761145495
 10
-1.42118547
 20
44.9063700378
 10
-1.3938132843
 20
45.0504035952
 10
-1.3755066211
 20
45.1904738335
 10
-1.3664410986
 20
45.3265039747
  0
LWPOLYLINE
  5
3C2
100
AcDbEntity
  8
ASSI
100
AcDbPolyline
 62
7
  6
CONTINUOUS
 90
3
 70
0
 10
-2.7794089743
 20
42.1272966127
 10
-2.8944089163
 20
42.0553184294
 10
-2.9334511767
 20
42.0273021336
  0
LINE
  5
3C3
100
AcDbEntity
  8
RACCORDO
100
AcDbLine
 62
253
  6
CONTINUOUS
 10
-1.5202150236
 20
41.332779417
 11
-1.3963741748
 21
41.4082313686
  0
LINE
  5
3C4
100
AcDbEntity
  8
ASSI
100
AcDbLine
 62
253
  6
CONTINUOUS
 10
-1.5202150236
 20
41.332779417
 11
-1.3963741748
 21
41.4082313686
  0
LINE
  5
3C5
100
AcDbEntity
  8
RACCORDO
100
AcDbLine
 62
7
  6
CONTINUOUS
 10
-1.5125298445
 20
41.2391450737
 11
-1.4586499465
 21
41.2708166425
  0
LINE
  5
3C6
100
AcDbEntity
  8
ASSI
100
AcDbLine
 62
7
  6
CONTINUOUS
 10
-1.5122251592
 20
41.2393241731
 11
-1.458650623
 21
41.2708162592
  0
LINE
  5
3C7
100
AcDbEntity
  8
DRAFT
100
AcDbLine
 62
7
  6
CONTINUOUS
 10
1.1450336613
 20
44.1481887763
 11
-2.1844121192
 21
42.1919604056
  0
LINE
  5
3C8
100
AcDbEntity
  8
ASSI
100
AcDbLine
 62
7
  6
CONTINUOUS
 10
1.1450336613
 20
44.1481887763
 11
-2.1844121192
 21
42.1919604056
  0
LINE
  5
3C9
100
AcDbEntity
  8
0
100
AcDbLine
 62
7
  6
CONTINUOUS
 10
-25.4775366504
 20
28.8050468926
 11
-26.9164354023
 21
27.9742475416
  0
LINE
  5
3CA
100
AcDbEntity
  8
DRAFT
100
AcDbLine
 62
7
  6
CONTINUOUS
 10
1.1450336613
 20
44.1481887763
 11
2.2056938331
 21
44.7606006663
  0
LINE
  5
3CB
100
AcDbEntity
  8
ASSI
100
AcDbLine
 62
7
  6
CONTINUOUS
 10
1.1450336613
 20
44.1481887763
 11
2.2056938331
 21
44.7606006663
  0
LINE
  5
3CC
100
AcDbEntity
  8
RACCORDO
100
AcDbLine
 62
253
  6
CONTINUOUS
 10
2.8513380996
 20
44.3878137586
 11
-1.606646954
 21
41.8583660403
  0
LINE
  5
3CD
100
AcDbEntity
  8
ASSI
100
AcDbLine
 62
253
  6
CONTINUOUS
 10
2.8513380996
 20
44.3878137586
 11
-1.606646954
 21
41.8583660403
  0
LINE
  5
3CE
100
AcDbEntity
  8
RACCORDO
100
AcDbLine
 62
253
  6
CONTINUOUS
 10
3.0634782116
 20
44.0203856337
 11
-1.3963741748
 21
41.4898783962
  0
LINE
  5
3CF
100
AcDbEntity
  8
ASSI
100
AcDbLine
 62
253
  6
CONTINUOUS
 10
3.0634782116
 20
44.0203856337
 11
-1.3963741748
 21
41.4898783962
  0
LINE
  5
3D0
100
AcDbEntity
  8
RACCORDO
100
AcDbLine
 62
253
  6
CONTINUOUS
 10
-1.3963741748
 20
41.4082313686
 11
3.0634782116
 21
43.938738606
  0
LINE
  5
3D1
100
AcDbEntity
  8
ASSI
100
AcDbLine
 62
253
  6
CONTINUOUS
 10
-1.3963741748
 20
41.4082313686
 11
3.0634782116
 21
43.938738606
  0
LINE
  5
3D2
100
AcDbEntity
  8
RACCORDO
100
AcDbLine
 62
7
  6
CONTINUOUS
 10
-1.4585989445
 20
41.2708530614
 11
3.0006847033
 21
43.8010375982
  0
LINE
  5
3D3
100
AcDbEntity
  8
ASSI
100
AcDbLine
 62
7
  6
CONTINUOUS
 10
-1.4585989445
 20
41.2708530614
 11
3.0006847033
 21
43.8010375982
  0
LINE
  5
3D4
100
AcDbEntity
  8
0
100
AcDbLine
 62
7
  6
CONTINUOUS
 10
-27.9956094663
 20
27.3939026535
 11
-26.9164354023
 21
27.9742475416
  0
LWPOLYLINE
  5
3D5
100
AcDbEntity
  8
RACCORDO
100
AcDbPolyline
 62
253
  6
CONTINUOUS
 90
45
 70
0
 10
-1.3963741748
 20
41.4898783962
 10
-1.5200741264
 20
41.4248553664
 10
-1.6419146291
 20
41.3704716454
 10
-1.7618956827
 20
41.3267272331
 10
-1.8806133049
 20
41.2935392814
 10
-1.9974714781
 20
41.2709906385
 10
-2.1106821496
 20
41.2593298484
 10
-2.2201271609
 20
41.2587264203
 10
-2.3259246705
 20
41.2690108451
 10
-2.4266411003
 20
41.28992314
 10
-2.5222039713
 20
41.3215912043
 10
-2.6126857625
 20
41.3638871387
 10
-2.6968703332
 20
41.4161672628
 10
-2.7746803384
 20
41.4785480142
 10
-2.8461931231
 20
41.5509129552
 10
-2.9104245817
 20
41.6322690928
 10
-2.96729248
 20
41.7227491853
 10
-3.0168790522
 20
41.8222204743
 10
-3.0584468941
 20
41.9292916917
 10
-3.0918839924
 20
42.0440845985
 10
-3.1173023604
 20
42.1664774338
 10
-3.134300634
 20
42.2947136469
 10
-3.1427450262
 20
42.428917436
 10
-3.1427693238
 20
42.5689646029
 10
-3.1343735239
 20
42.7127260034
 10
-3.1174241742
 20
42.8602283519
 10
-3.0920547269
 20
43.011444934
 10
-3.0586655348
 20
43.1641664615
 10
-3.0171450487
 20
43.318398351
 10
-2.9676048177
 20
43.474135186
 10
-2.9107798419
 20
43.6291514278
 10
-2.8465884947
 20
43.7834076507
 10
-2.7751124027
 20
43.9369432806
 10
-2.6973314446
 20
44.087651056
 10
-2.613167229
 20
44.2355044625
 10
-2.5226981475
 20
44.3805300145
 10
-2.4271392536
 20
44.5206999944
 10
-2.3264173918
 20
44.6559694216
 10
-2.2206057178
 20
44.7863832766
 10
-2.1111387514
 20
44.9100487842
 10
-1.9979046911
 20
45.0269260645
 10
-1.8810153385
 20
45.1370549972
 10
-1.7622406181
 20
45.2386624461
 10
-1.6421705047
 20
45.3311573655
 10
-1.5202150236
 20
45.415130801
  0
LWPOLYLINE
  5
3D6
100
AcDbEntity
  8
ASSI
100
AcDbPolyline
 62
253
  6
CONTINUOUS
 90
45
 70
0
 10
-1.3963741748
 20
41.4898783962
 10
-1.5200741264
 20
41.4248553664
 10
-1.6419146291
 20
41.3704716454
 10
-1.7618956827
 20
41.3267272331
 10
-1.8806133049
 20
41.2935392814
 10
-1.9974714781
 20
41.2709906385
 10
-2.1106821496
 20
41.2593298484
 10
-2.2201271609
 20
41.2587264203
 10
-2.3259246705
 20
41.2690108451
 10
-2.4266411003
 20
41.28992314
 10
-2.5222039713
 20
41.3215912043
 10
-2.6126857625
 20
41.3638871387
 10
-2.6968703332
 20
41.4161672628
 10
-2.7746803384
 20
41.4785480142
 10
-2.8461931231
 20
41.5509129552
 10
-2.9104245817
 20
41.6322690928
 10
-2.96729248
 20
41.7227491853
 10
-3.0168790522
 20
41.8222204743
 10
-3.0584468941
 20
41.9292916917
 10
-3.0918839924
 20
42.0440845985
 10
-3.1173023604
 20
42.1664774338
 10
-3.134300634
 20
42.2947136469
 10
-3.1427450262
 20
42.428917436
 10
-3.1427693238
 20
42.5689646029
 10
-3.1343735239
 20
42.7127260034
 10
-3.1174241742
 20
42.8602283519
 10
-3.0920547269
 20
43.011444934
 10
-3.0586655348
 20
43.1641664615
 10
-3.0171450487
 20
43.318398351
 10
-2.9676048177
 20
43.474135186
 10
-2.9107798419
 20
43.6291514278
 10
-2.8465884947
 20
43.7834076507
 10
-2.7751124027
 20
43.9369432806
 10
-2.6973314446
 20
44.087651056
 10
-2.613167229
 20
44.2355044625
 10
-2.5226981475
 20
44.3805300145
 10
-2.4271392536
 20
44.5206999944
 10
-2.3264173918
 20
44.6559694216
 10
-2.2206057178
 20
44.7863832766
 10
-2.1111387514
 20
44.9100487842
 10
-1.9979046911
 20
45.0269260645
 10
-1.8810153385
 20
45.1370549972
 10
-1.7622406181
 20
45.2386624461
 10
-1.6421705047
 20
45.3311573655
 10
-1.5202150236
 20
45.415130801
  0
LWPOLYLINE
  5
3D7
100
AcDbEntity
  8
ASSI
100
AcDbPolyline
 62
7
  6
CONTINUOUS
 90
4
 70
0
 10
-3.0440617655
 20
34.6563283466
 10
-3.0072234023
 20
34.6689223457
 10
-2.8944089163
 20
34.7182432545
 10
-2.7794089743
 20
34.7790641216
  0
LINE
  5
3D8
100
AcDbEntity
  8
ASSI
100
AcDbLine
 62
253
  6
CONTINUOUS
 10
-46.9079180562
 20
41.2653994032
 11
-32.0581539554
 21
32.6913317229
  0
LINE
  5
3D9
100
AcDbEntity
  8
RACCORDO
100
AcDbLine
 62
253
  6
CONTINUOUS
 10
-32.0581526186
 20
32.6913325478
 11
-46.9079167652
 21
41.2654002546
  0
LWPOLYLINE
  5
3DA
100
AcDbEntity
  8
0
100
AcDbPolyline
 62
7
  6
CONTINUOUS
 90
9
 70
0
 10
-15.5780415822
 20
13.3049963455
 10
-15.535204159
 20
13.2362084798
 10
-15.4943100865
 20
13.1653780723
 10
-15.4560098343
 20
13.0936097408
 10
-15.4203731136
 20
13.0209764533
 10
-15.3873302132
 20
12.9474052417
 10
-15.3571594461
 20
12.873520038
 10
-15.3298599922
 20
12.799245449
 10
-15.3054326715
 20
12.7246568678
  0
LINE
  5
3DB
100
AcDbEntity
  8
0
100
AcDbLine
 62
253
  6
CONTINUOUS
 10
-15.1537776451
 20
10.2024723456
 11
-15.2335465977
 21
10.3406362243
  0
LINE
  5
3DC
100
AcDbEntity
  8
0
100
AcDbLine
 62
253
  6
CONTINUOUS
 10
-14.9472700691
 20
10.3216841865
 11
-15.2244883232
 21
10.8018402868
  0
LINE
  5
3DD
100
AcDbEntity
  8
DRAFT
100
AcDbLine
 62
7
  6
CONTINUOUS
 10
-21.6238046929
 20
39.3298383863
 11
-21.6238046929
 21
37.7190299134
  0
LINE
  5
3DE
100
AcDbEntity
  8
RACCORDO
100
AcDbLine
 62
7
  6
CONTINUOUS
 10
-21.1699682152
 20
39.9718040999
 11
-21.1699682152
 21
40.1212622954
  0
LINE
  5
3DF
100
AcDbEntity
  8
RACCORDO
100
AcDbLine
 62
253
  6
CONTINUOUS
 10
-20.9218238915
 20
40.7410452837
 11
-20.9218238915
 21
40.2721732092
  0
LINE
  5
3E0
100
AcDbEntity
  8
RACCORDO
100
AcDbLine
 62
253
  6
CONTINUOUS
 10
-20.9218238915
 20
5.6831326765
 11
-20.9218238915
 21
5.5250894211
  0
LINE
  5
3E1
100
AcDbEntity
  8
RACCORDO
100
AcDbLine
 62
7
  6
CONTINUOUS
 10
-20.7814937916
 20
41.061482016
 11
-20.7814937916
 21
40.475167463
  0
LINE
  5
3E2
100
AcDbEntity
  8
RACCORDO
100
AcDbLine
 62
7
  6
CONTINUOUS
 10
-20.7814937916
 20
5.8492995701
 11
-20.7814937916
 21
5.6057397258
  0
LINE
  5
3E3
100
AcDbEntity
  8
RACCORDO
100
AcDbLine
 62
7
  6
CONTINUOUS
 10
-20.6141873455
 20
35.2940382663
 11
-20.6141873455
 21
6.5198487849
  0
LWPOLYLINE
  5
3E4
100
AcDbEntity
  8
ASSI
100
AcDbPolyline
 62
7
  6
CONTINUOUS
 90
20
 70
0
 10
-2.7794089743
 20
38.8614155056
 10
-2.6644090323
 20
38.9333936889
 10
-2.5515945463
 20
39.0143481208
 10
-2.4409655162
 20
39.1042788013
 10
-2.3318357936
 20
39.2038823725
 10
-2.2248915271
 20
39.3124621923
 10
-2.1221911616
 20
39.4279283346
 10
-2.0238169107
 20
39.5504142022
 10
-1.929686561
 20
39.6797863923
 10
-1.8416119175
 20
39.8135547709
 10
-1.7597102921
 20
39.9518045015
 10
-1.683864373
 20
40.0944504205
 10
-1.6155340295
 20
40.2387469035
 10
-1.5548648544
 20
40.3847259252
 10
-1.501711255
 20
40.5323555109
 10
-1.4570963229
 20
40.6787941111
 10
-1.42118547
 20
40.8240186539
 10
-1.3938132843
 20
40.9680522112
 10
-1.3755066211
 20
41.1081224495
 10
-1.3664410986
 20
41.2441525908
  0
LWPOLYLINE
  5
3E5
100
AcDbEntity
  8
ASSI
100
AcDbPolyline
 62
7
  6
CONTINUOUS
 90
3
 70
0
 10
-2.7794089743
 20
38.0449452288
 10
-2.8944089163
 20
37.9729670455
 10
-2.9334511767
 20
37.9449507497
  0
LINE
  5
3E6
100
AcDbEntity
  8
RACCORDO
100
AcDbLine
 62
253
  6
CONTINUOUS
 10
-1.5202150236
 20
37.250428033
 11
-1.3963741748
 21
37.3258799846
  0
LINE
  5
3E7
100
AcDbEntity
  8
ASSI
100
AcDbLine
 62
253
  6
CONTINUOUS
 10
-1.5202150236
 20
37.250428033
 11
-1.3963741748
 21
37.3258799846
  0
LINE
  5
3E8
100
AcDbEntity
  8
RACCORDO
100
AcDbLine
 62
7
  6
CONTINUOUS
 10
-1.5125298445
 20
37.1567936897
 11
-1.4586499465
 21
37.1884652586
  0
LINE
  5
3E9
100
AcDbEntity
  8
ASSI
100
AcDbLine
 62
7
  6
CONTINUOUS
 10
-1.5122251592
 20
37.1569727892
 11
-1.458650623
 21
37.1884648752
  0
LINE
  5
3EA
100
AcDbEntity
  8
DRAFT
100
AcDbLine
 62
7
  6
CONTINUOUS
 10
1.1450336613
 20
40.0658373924
 11
-2.1844121192
 21
38.1096090217
  0
LINE
  5
3EB
100
AcDbEntity
  8
ASSI
100
AcDbLine
 62
7
  6
CONTINUOUS
 10
1.1450336613
 20
40.0658373924
 11
-2.1844121192
 21
38.1096090217
  0
LINE
  5
3EC
100
AcDbEntity
  8
0
100
AcDbLine
 62
7
  6
CONTINUOUS
 10
-27.9956094663
 20
23.9219728659
 11
-26.9164354023
 21
24.5450723791
  0
LINE
  5
3ED
100
AcDbEntity
  8
DRAFT
100
AcDbLine
 62
7
  6
CONTINUOUS
 10
1.1450336613
 20
40.0658373924
 11
2.2056938331
 21
40.6782492823
  0
LINE
  5
3EE
100
AcDbEntity
  8
ASSI
100
AcDbLine
 62
7
  6
CONTINUOUS
 10
1.1450336613
 20
40.0658373924
 11
2.2056938331
 21
40.6782492823
  0
LINE
  5
3EF
100
AcDbEntity
  8
RACCORDO
100
AcDbLine
 62
253
  6
CONTINUOUS
 10
2.8513380996
 20
40.3054623747
 11
-1.606646954
 21
37.7760146564
  0
LINE
  5
3F0
100
AcDbEntity
  8
ASSI
100
AcDbLine
 62
253
  6
CONTINUOUS
 10
2.8513380996
 20
40.3054623747
 11
-1.606646954
 21
37.7760146564
  0
LINE
  5
3F1
100
AcDbEntity
  8
RACCORDO
100
AcDbLine
 62
253
  6
CONTINUOUS
 10
3.0634782116
 20
39.9380342497
 11
-1.3963741748
 21
37.4075270123
  0
LINE
  5
3F2
100
AcDbEntity
  8
ASSI
100
AcDbLine
 62
253
  6
CONTINUOUS
 10
3.0634782116
 20
39.9380342497
 11
-1.3963741748
 21
37.4075270123
  0
LINE
  5
3F3
100
AcDbEntity
  8
RACCORDO
100
AcDbLine
 62
253
  6
CONTINUOUS
 10
-1.3963741748
 20
37.3258799846
 11
3.0634782116
 21
39.856387222
  0
LINE
  5
3F4
100
AcDbEntity
  8
ASSI
100
AcDbLine
 62
253
  6
CONTINUOUS
 10
-1.3963741748
 20
37.3258799846
 11
3.0634782116
 21
39.856387222
  0
LINE
  5
3F5
100
AcDbEntity
  8
RACCORDO
100
AcDbLine
 62
7
  6
CONTINUOUS
 10
-1.4585989445
 20
37.1885016774
 11
3.0006847033
 21
39.7186862142
  0
LINE
  5
3F6
100
AcDbEntity
  8
ASSI
100
AcDbLine
 62
7
  6
CONTINUOUS
 10
-1.4585989445
 20
37.1885016774
 11
3.0006847033
 21
39.7186862142
  0
LINE
  5
3F7
100
AcDbEntity
  8
0
100
AcDbLine
 62
7
  6
CONTINUOUS
 10
-25.4775366504
 20
25.3188655633
 11
-26.9164354023
 21
24.5450723791
  0
LWPOLYLINE
  5
3F8
100
AcDbEntity
  8
RACCORDO
100
AcDbPolyline
 62
253
  6
CONTINUOUS
 90
45
 70
0
 10
-1.3963741748
 20
37.4075270123
 10
-1.5200741264
 20
37.3425039825
 10
-1.6419146291
 20
37.2881202614
 10
-1.7618956827
 20
37.2443758491
 10
-1.8806133049
 20
37.2111878974
 10
-1.9974714781
 20
37.1886392545
 10
-2.1106821496
 20
37.1769784645
 10
-2.2201271609
 20
37.1763750363
 10
-2.3259246705
 20
37.1866594611
 10
-2.4266411003
 20
37.207571756
 10
-2.5222039713
 20
37.2392398203
 10
-2.6126857625
 20
37.2815357547
 10
-2.6968703332
 20
37.3338158788
 10
-2.7746803384
 20
37.3961966302
 10
-2.8461931231
 20
37.4685615713
 10
-2.9104245817
 20
37.5499177089
 10
-2.96729248
 20
37.6403978013
 10
-3.0168790522
 20
37.7398690903
 10
-3.0584468941
 20
37.8469403078
 10
-3.0918839924
 20
37.9617332145
 10
-3.1173023604
 20
38.0841260498
 10
-3.134300634
 20
38.212362263
 10
-3.1427450262
 20
38.346566052
 10
-3.1427693238
 20
38.4866132189
 10
-3.1343735239
 20
38.6303746194
 10
-3.1174241742
 20
38.777876968
 10
-3.0920547269
 20
38.9290935501
 10
-3.0586655348
 20
39.0818150775
 10
-3.0171450487
 20
39.2360469671
 10
-2.9676048177
 20
39.391783802
 10
-2.9107798419
 20
39.5468000438
 10
-2.8465884947
 20
39.7010562668
 10
-2.7751124027
 20
39.8545918966
 10
-2.6973314446
 20
40.0052996721
 10
-2.613167229
 20
40.1531530785
 10
-2.5226981475
 20
40.2981786305
 10
-2.4271392536
 20
40.4383486105
 10
-2.3264173918
 20
40.5736180376
 10
-2.2206057178
 20
40.7040318927
 10
-2.1111387514
 20
40.8276974002
 10
-1.9979046911
 20
40.9445746805
 10
-1.8810153385
 20
41.0547036133
 10
-1.7622406181
 20
41.1563110621
 10
-1.6421705047
 20
41.2488059815
 10
-1.5202150236
 20
41.332779417
  0
LWPOLYLINE
  5
3F9
100
AcDbEntity
  8
ASSI
100
AcDbPolyline
 62
253
  6
CONTINUOUS
 90
45
 70
0
 10
-1.3963741748
 20
37.4075270123
 10
-1.5200741264
 20
37.3425039825
 10
-1.6419146291
 20
37.2881202614
 10
-1.7618956827
 20
37.2443758491
 10
-1.8806133049
 20
37.2111878974
 10
-1.9974714781
 20
37.1886392545
 10
-2.1106821496
 20
37.1769784645
 10
-2.2201271609
 20
37.1763750363
 10
-2.3259246705
 20
37.1866594611
 10
-2.4266411003
 20
37.207571756
 10
-2.5222039713
 20
37.2392398203
 10
-2.6126857625
 20
37.2815357547
 10
-2.6968703332
 20
37.3338158788
 10
-2.7746803384
 20
37.3961966302
 10
-2.8461931231
 20
37.4685615713
 10
-2.9104245817
 20
37.5499177089
 10
-2.96729248
 20
37.6403978013
 10
-3.0168790522
 20
37.7398690903
 10
-3.0584468941
 20
37.8469403078
 10
-3.0918839924
 20
37.9617332145
 10
-3.1173023604
 20
38.0841260498
 10
-3.134300634
 20
38.212362263
 10
-3.1427450262
 20
38.346566052
 10
-3.1427693238
 20
38.4866132189
 10
-3.1343735239
 20
38.6303746194
 10
-3.1174241742
 20
38.777876968
 10
-3.0920547269
 20
38.9290935501
 10
-3.0586655348
 20
39.0818150775
 10
-3.0171450487
 20
39.2360469671
 10
-2.9676048177
 20
39.391783802
 10
-2.9107798419
 20
39.5468000438
 10
-2.8465884947
 20
39.7010562668
 10
-2.7751124027
 20
39.8545918966
 10
-2.6973314446
 20
40.0052996721
 10
-2.613167229
 20
40.1531530785
 10
-2.5226981475
 20
40.2981786305
 10
-2.4271392536
 20
40.4383486105
 10
-2.3264173918
 20
40.5736180376
 10
-2.2206057178
 20
40.7040318927
 10
-2.1111387514
 20
40.8276974002
 10
-1.9979046911
 20
40.9445746805
 10
-1.8810153385
 20
41.0547036133
 10
-1.7622406181
 20
41.1563110621
 10
-1.6421705047
 20
41.2488059815
 10
-1.5202150236
 20
41.332779417
  0
LWPOLYLINE
  5
3FA
100
AcDbEntity
  8
RACCORDO
100
AcDbPolyline
 62
253
  6
CONTINUOUS
 90
13
 70
0
 10
-1.606646954
 20
37.7760146564
 10
-1.7149088231
 20
37.7191148234
 10
-1.8224451512
 20
37.671300507
 10
-1.928731646
 20
37.6327669079
 10
-2.0332540457
 20
37.6036655039
 10
-2.1355119575
 20
37.5840908914
 10
-2.235020033
 20
37.5740856364
 10
-2.331295678
 20
37.5736573545
 10
-2.4239020272
 20
37.5827658368
 10
-2.5124438156
 20
37.6013313546
 10
-2.5965039216
 20
37.6292372301
 10
-2.6756959046
 20
37.6663242037
 10
-2.6890561052
 20
37.6737607606
  0
LWPOLYLINE
  5
3FB
100
AcDbEntity
  8
ASSI
100
AcDbPolyline
 62
253
  6
CONTINUOUS
 90
13
 70
0
 10
-1.606646954
 20
37.7760146564
 10
-1.7149088231
 20
37.7191148234
 10
-1.8224451512
 20
37.671300507
 10
-1.928731646
 20
37.6327669079
 10
-2.0332540457
 20
37.6036655039
 10
-2.1355119575
 20
37.5840908914
 10
-2.235020033
 20
37.5740856364
 10
-2.331295678
 20
37.5736573545
 10
-2.4239020272
 20
37.5827658368
 10
-2.5124438156
 20
37.6013313546
 10
-2.5965039216
 20
37.6292372301
 10
-2.6756959046
 20
37.6663242037
 10
-2.6891200249
 20
37.6737972244
  0
LINE
  5
3FC
100
AcDbEntity
  8
0
100
AcDbLine
 62
7
  6
CONTINUOUS
 10
-41.2106625318
 20
41.8057474123
 11
-39.3721849007
 21
40.7442334697
  0
LINE
  5
3FD
100
AcDbEntity
  8
0
100
AcDbLine
 62
7
  6
CONTINUOUS
 10
-33.2910665825
 20
37.233071967
 11
-31.4525889514
 21
36.1715580244
  0
LINE
  5
3FE
100
AcDbEntity
  8
ASSI
100
AcDbLine
 62
7
  6
CONTINUOUS
 10
-31.4525889514
 20
36.1715580244
 11
-33.2910665825
 21
37.233071967
  0
LINE
  5
3FF
100
AcDbEntity
  8
ASSI
100
AcDbLine
 62
7
  6
CONTINUOUS
 10
-39.3721849007
 20
40.7442334697
 11
-41.2106625318
 21
41.8057474123
  0
LINE
  5
400
100
AcDbEntity
  8
0
100
AcDbLine
 62
7
  6
CONTINUOUS
 10
-31.3818782733
 20
36.2423380596
 11
-33.2203559044
 21
37.3038520022
  0
LINE
  5
401
100
AcDbEntity
  8
0
100
AcDbLine
 62
7
  6
CONTINUOUS
 10
-39.3014742226
 20
40.8150135048
 11
-41.1399518537
 21
41.8765274475
  0
LINE
  5
402
100
AcDbEntity
  8
0
100
AcDbLine
 62
253
  6
CONTINUOUS
 10
-7.4206969471
 20
14.7194900671
 11
-7.7998671207
 21
15.1376628393
  0
LWPOLYLINE
  5
403
100
AcDbEntity
  8
RACCORDO
100
AcDbPolyline
 62
253
  6
CONTINUOUS
 90
13
 70
0
 10
-26.0099296504
 20
37.5717764141
 10
-26.0055865091
 20
37.5653687402
 10
-26.0017387001
 20
37.5592533784
 10
-25.9983971314
 20
37.5534472532
 10
-25.9955711071
 20
37.5479659776
 10
-25.9932691072
 20
37.5428253443
 10
-25.9914982748
 20
37.5380409601
 10
-25.9902635438
 20
37.5336263187
 10
-25.9895680809
 20
37.5295929763
 10
-25.9894137881
 20
37.5259518615
 10
-25.9898011379
 20
37.5227128976
 10
-25.9907291197
 20
37.5198850252
 10
-25.9922296499
 20
37.5174326093
  0
LWPOLYLINE
  5
404
100
AcDbEntity
  8
0
100
AcDbPolyline
 62
7
  6
CONTINUOUS
 90
8
 70
0
 10
-15.3054326715
 20
12.7246568678
 10
-15.284158257
 20
12.6506044068
 10
-15.2660857476
 20
12.577147224
 10
-15.2511661444
 20
12.5042261613
 10
-15.2395332228
 20
12.4325138571
 10
-15.2312315746
 20
12.3622345241
 10
-15.2262166081
 20
12.2931639497
 10
-15.2244883232
 20
12.2253021337
  0
LINE
  5
405
100
AcDbEntity
  8
0
100
AcDbLine
 62
7
  6
CONTINUOUS
 10
-18.689311551
 20
8.401176998
 11
-18.689311551
 21
11.5085880589
  0
LWPOLYLINE
  5
406
100
AcDbEntity
  8
RACCORDO
100
AcDbPolyline
 62
253
  6
CONTINUOUS
 90
13
 70
0
 10
-16.2447679027
 20
49.565906665
 10
-16.2429730743
 20
49.5987382424
 10
-16.2376190147
 20
49.6330867462
 10
-16.2287963579
 20
49.6683709341
 10
-16.2166544245
 20
49.7039937528
 10
-16.2013987068
 20
49.7393524032
 10
-16.1832874017
 20
49.7738485424
 10
-16.1626270126
 20
49.8068984662
 10
-16.1397671601
 20
49.8379429699
 10
-16.1150946877
 20
49.8664567748
 10
-16.089027096
 20
49.8919574465
 10
-16.0620054741
 20
49.9140135534
 10
-16.0344870461
 20
49.9322519526
  0
LWPOLYLINE
  5
407
100
AcDbEntity
  8
ASSI
100
AcDbPolyline
 62
253
  6
CONTINUOUS
 90
13
 70
0
 10
-16.2447679027
 20
49.565906665
 10
-16.2429730743
 20
49.5987382424
 10
-16.2376190147
 20
49.6330867462
 10
-16.2287963579
 20
49.6683709341
 10
-16.2166544245
 20
49.7039937528
 10
-16.2013987068
 20
49.7393524032
 10
-16.1832874017
 20
49.7738485424
 10
-16.1626270126
 20
49.8068984662
 10
-16.1397671601
 20
49.8379429699
 10
-16.1150946877
 20
49.8664567748
 10
-16.089027096
 20
49.8919574465
 10
-16.0620054741
 20
49.9140135534
 10
-16.0344870461
 20
49.9322519526
  0
LWPOLYLINE
  5
408
100
AcDbEntity
  8
RACCORDO
100
AcDbPolyline
 62
253
  6
CONTINUOUS
 90
10
 70
0
 10
-16.0930656899
 20
51.3421452511
 10
-16.0922877529
 20
51.3522880169
 10
-16.0900703562
 20
51.3622289931
 10
-16.0864134996
 20
51.3719681797
 10
-16.081262662
 20
51.3815828359
 10
-16.0746723645
 20
51.3909957024
 10
-16.0668061711
 20
51.3999750019
 10
-16.0577186032
 20
51.408443475
 10
-16.0473551394
 20
51.4164783809
 10
-16.0357157797
 20
51.4240797198
  0
LWPOLYLINE
  5
409
100
AcDbEntity
  8
ASSI
100
AcDbPolyline
 62
253
  6
CONTINUOUS
 90
10
 70
0
 10
-16.0930656899
 20
51.3421452511
 10
-16.0922877529
 20
51.3522880169
 10
-16.0900703562
 20
51.3622289931
 10
-16.0864134996
 20
51.3719681797
 10
-16.081262662
 20
51.3815828359
 10
-16.0746723645
 20
51.3909957024
 10
-16.0668061711
 20
51.3999750019
 10
-16.0577186032
 20
51.408443475
 10
-16.0473551394
 20
51.4164783809
 10
-16.0357157797
 20
51.4240797198
  0
LWPOLYLINE
  5
40A
100
AcDbEntity
  8
RACCORDO
100
AcDbPolyline
 62
253
  6
CONTINUOUS
 90
13
 70
0
 10
-16.3912145121
 20
51.0982823415
 10
-16.388667968
 20
51.1299897132
 10
-16.3810715991
 20
51.1611586976
 10
-16.3685544137
 20
51.1912601506
 10
-16.3513289506
 20
51.2197830683
 10
-16.329687686
 20
51.2462432334
 10
-16.3039980808
 20
51.2701914417
 10
-16.2746963056
 20
51.2912211679
 10
-16.2422798314
 20
51.3089754485
 10
-16.2072990136
 20
51.3231529212
 10
-16.1703477212
 20
51.3335129581
 10
-16.1320532506
 20
51.3398797434
 10
-16.0930656899
 20
51.3421452511
  0
LWPOLYLINE
  5
40B
100
AcDbEntity
  8
ASSI
100
AcDbPolyline
 62
253
  6
CONTINUOUS
 90
13
 70
0
 10
-16.3912145121
 20
51.0982823415
 10
-16.388667968
 20
51.1299897132
 10
-16.3810715991
 20
51.1611586976
 10
-16.3685544137
 20
51.1912601506
 10
-16.3513289506
 20
51.2197830683
 10
-16.329687686
 20
51.2462432334
 10
-16.3039980808
 20
51.2701914417
 10
-16.2746963056
 20
51.2912211679
 10
-16.2422798314
 20
51.3089754485
 10
-16.2072990136
 20
51.3231529212
 10
-16.1703477212
 20
51.3335129581
 10
-16.1320532506
 20
51.3398797434
 10
-16.0930656899
 20
51.3421452511
  0
LWPOLYLINE
  5
40C
100
AcDbEntity
  8
RACCORDO
100
AcDbPolyline
 62
253
  6
CONTINUOUS
 90
13
 70
0
 10
-16.3912145121
 20
49.7704613478
 10
-16.3886680669
 20
49.802168118
 10
-16.3810719606
 20
49.8333366245
 10
-16.3685551469
 20
49.8634377413
 10
-16.351330115
 20
49.891960463
 10
-16.3296892822
 20
49.9184205792
 10
-16.30400003
 20
49.9423688948
 10
-16.2746984667
 20
49.9633988561
 10
-16.2422820246
 20
49.9811534521
 10
-16.2073010148
 20
49.9953312755
 10
-16.1703492856
 20
50.0056916393
 10
-16.1320541407
 20
50.0120586628
 10
-16.0930656899
 20
50.0143242574
  0
LWPOLYLINE
  5
40D
100
AcDbEntity
  8
ASSI
100
AcDbPolyline
 62
253
  6
CONTINUOUS
 90
13
 70
0
 10
-16.3912145121
 20
49.7704613478
 10
-16.3886680669
 20
49.802168118
 10
-16.3810719606
 20
49.8333366245
 10
-16.3685551469
 20
49.8634377413
 10
-16.351330115
 20
49.891960463
 10
-16.3296892822
 20
49.9184205792
 10
-16.30400003
 20
49.9423688948
 10
-16.2746984667
 20
49.9633988561
 10
-16.2422820246
 20
49.9811534521
 10
-16.2073010148
 20
49.9953312755
 10
-16.1703492856
 20
50.0056916393
 10
-16.1320541407
 20
50.0120586628
 10
-16.0930656899
 20
50.0143242574
  0
LWPOLYLINE
  5
40E
100
AcDbEntity
  8
ASSI
100
AcDbPolyline
 62
7
  6
CONTINUOUS
 90
20
 70
0
 10
-2.7794089743
 20
34.7790641216
 10
-2.6644090323
 20
34.8510423049
 10
-2.5515945463
 20
34.9319967368
 10
-2.4409655162
 20
35.0219274174
 10
-2.3318357936
 20
35.1215309885
 10
-2.2248915271
 20
35.2301108083
 10
-2.1221911616
 20
35.3455769506
 10
-2.0238169107
 20
35.4680628182
 10
-1.929686561
 20
35.5974350083
 10
-1.8416119175
 20
35.7312033869
 10
-1.7597102921
 20
35.8694531175
 10
-1.683864373
 20
36.0120990366
 10
-1.6155340295
 20
36.1563955195
 10
-1.5548648544
 20
36.3023745413
 10
-1.501711255
 20
36.4500041269
 10
-1.4570963229
 20
36.5964427271
 10
-1.42118547
 20
36.7416672699
 10
-1.3938132843
 20
36.8857008273
 10
-1.3755066211
 20
37.0257710655
 10
-1.3664410986
 20
37.1618012068
  0
LWPOLYLINE
  5
40F
100
AcDbEntity
  8
ASSI
100
AcDbPolyline
 62
7
  6
CONTINUOUS
 90
3
 70
0
 10
-2.7794089743
 20
33.9625938448
 10
-2.8944089163
 20
33.8906156615
 10
-2.9334511767
 20
33.8625993657
  0
LINE
  5
410
100
AcDbEntity
  8
DRAFT
100
AcDbLine
 62
7
  6
CONTINUOUS
 10
1.1450336613
 20
35.9834860084
 11
-2.1844121192
 21
34.0272576377
  0
LINE
  5
411
100
AcDbEntity
  8
ASSI
100
AcDbLine
 62
7
  6
CONTINUOUS
 10
1.1450336613
 20
35.9834860084
 11
-2.1844121192
 21
34.0272576377
  0
LINE
  5
412
100
AcDbEntity
  8
DRAFT
100
AcDbLine
 62
7
  6
CONTINUOUS
 10
1.1450336613
 20
35.9834860084
 11
2.2056938331
 21
36.5958978984
  0
LINE
  5
413
100
AcDbEntity
  8
ASSI
100
AcDbLine
 62
7
  6
CONTINUOUS
 10
1.1450336613
 20
35.9834860084
 11
2.2056938331
 21
36.5958978984
  0
LINE
  5
414
100
AcDbEntity
  8
RACCORDO
100
AcDbLine
 62
253
  6
CONTINUOUS
 10
2.8513380996
 20
36.2231109907
 11
-1.606646954
 21
33.6936632724
  0
LINE
  5
415
100
AcDbEntity
  8
ASSI
100
AcDbLine
 62
253
  6
CONTINUOUS
 10
2.8513380996
 20
36.2231109907
 11
-1.606646954
 21
33.6936632724
  0
LINE
  5
416
100
AcDbEntity
  8
RACCORDO
100
AcDbLine
 62
253
  6
CONTINUOUS
 10
3.0634782116
 20
35.8556828657
 11
-1.3963741748
 21
33.3251756283
  0
LINE
  5
417
100
AcDbEntity
  8
ASSI
100
AcDbLine
 62
253
  6
CONTINUOUS
 10
3.0634782116
 20
35.8556828657
 11
-1.3963741748
 21
33.3251756283
  0
LWPOLYLINE
  5
418
100
AcDbEntity
  8
RACCORDO
100
AcDbPolyline
 62
253
  6
CONTINUOUS
 90
45
 70
0
 10
-1.3963741748
 20
33.3251756283
 10
-1.5200741264
 20
33.2601525985
 10
-1.6419146291
 20
33.2057688775
 10
-1.7618956827
 20
33.1620244651
 10
-1.8806133049
 20
33.1288365135
 10
-1.9974714781
 20
33.1062878705
 10
-2.1106821496
 20
33.0946270805
 10
-2.2201271609
 20
33.0940236524
 10
-2.3259246705
 20
33.1043080771
 10
-2.4266411003
 20
33.1252203721
 10
-2.5222039713
 20
33.1568884363
 10
-2.6126857625
 20
33.1991843708
 10
-2.6968703332
 20
33.2514644949
 10
-2.7746803384
 20
33.3138452462
 10
-2.8461931231
 20
33.3862101873
 10
-2.9104245817
 20
33.4675663249
 10
-2.96729248
 20
33.5580464173
 10
-3.0168790522
 20
33.6575177063
 10
-3.0584468941
 20
33.7645889238
 10
-3.0918839924
 20
33.8793818306
 10
-3.1173023604
 20
34.0017746658
 10
-3.134300634
 20
34.130010879
 10
-3.1427450262
 20
34.264214668
 10
-3.1427693238
 20
34.404261835
 10
-3.1343735239
 20
34.5480232354
 10
-3.1174241742
 20
34.695525584
 10
-3.0920547269
 20
34.8467421661
 10
-3.0586655348
 20
34.9994636935
 10
-3.0171450487
 20
35.1536955831
 10
-2.9676048177
 20
35.309432418
 10
-2.9107798419
 20
35.4644486598
 10
-2.8465884947
 20
35.6187048828
 10
-2.7751124027
 20
35.7722405127
 10
-2.6973314446
 20
35.9229482881
 10
-2.613167229
 20
36.0708016946
 10
-2.5226981475
 20
36.2158272466
 10
-2.4271392536
 20
36.3559972265
 10
-2.3264173918
 20
36.4912666536
 10
-2.2206057178
 20
36.6216805087
 10
-2.1111387514
 20
36.7453460162
 10
-1.9979046911
 20
36.8622232965
 10
-1.8810153385
 20
36.9723522293
 10
-1.7622406181
 20
37.0739596781
 10
-1.6421705047
 20
37.1664545975
 10
-1.5202150236
 20
37.250428033
  0
LWPOLYLINE
  5
419
100
AcDbEntity
  8
ASSI
100
AcDbPolyline
 62
253
  6
CONTINUOUS
 90
45
 70
0
 10
-1.3963741748
 20
33.3251756283
 10
-1.5200741264
 20
33.2601525985
 10
-1.6419146291
 20
33.2057688775
 10
-1.7618956827
 20
33.1620244651
 10
-1.8806133049
 20
33.1288365135
 10
-1.9974714781
 20
33.1062878705
 10
-2.1106821496
 20
33.0946270805
 10
-2.2201271609
 20
33.0940236524
 10
-2.3259246705
 20
33.1043080771
 10
-2.4266411003
 20
33.1252203721
 10
-2.5222039713
 20
33.1568884363
 10
-2.6126857625
 20
33.1991843708
 10
-2.6968703332
 20
33.2514644949
 10
-2.7746803384
 20
33.3138452462
 10
-2.8461931231
 20
33.3862101873
 10
-2.9104245817
 20
33.4675663249
 10
-2.96729248
 20
33.5580464173
 10
-3.0168790522
 20
33.6575177063
 10
-3.0584468941
 20
33.7645889238
 10
-3.0918839924
 20
33.8793818306
 10
-3.1173023604
 20
34.0017746658
 10
-3.134300634
 20
34.130010879
 10
-3.1427450262
 20
34.264214668
 10
-3.1427693238
 20
34.404261835
 10
-3.1343735239
 20
34.5480232354
 10
-3.1174241742
 20
34.695525584
 10
-3.0920547269
 20
34.8467421661
 10
-3.0586655348
 20
34.9994636935
 10
-3.0171450487
 20
35.1536955831
 10
-2.9676048177
 20
35.309432418
 10
-2.9107798419
 20
35.4644486598
 10
-2.8465884947
 20
35.6187048828
 10
-2.7751124027
 20
35.7722405127
 10
-2.6973314446
 20
35.9229482881
 10
-2.613167229
 20
36.0708016946
 10
-2.5226981475
 20
36.2158272466
 10
-2.4271392536
 20
36.3559972265
 10
-2.3264173918
 20
36.4912666536
 10
-2.2206057178
 20
36.6216805087
 10
-2.1111387514
 20
36.7453460162
 10
-1.9979046911
 20
36.8622232965
 10
-1.8810153385
 20
36.9723522293
 10
-1.7622406181
 20
37.0739596781
 10
-1.6421705047
 20
37.1664545975
 10
-1.5202150236
 20
37.250428033
  0
LWPOLYLINE
  5
41A
100
AcDbEntity
  8
RACCORDO
100
AcDbPolyline
 62
253
  6
CONTINUOUS
 90
13
 70
0
 10
-1.606646954
 20
33.6936632724
 10
-1.7149088231
 20
33.6367634394
 10
-1.8224451512
 20
33.5889491231
 10
-1.928731646
 20
33.550415524
 10
-2.0332540457
 20
33.5213141199
 10
-2.1355119575
 20
33.5017395075
 10
-2.235020033
 20
33.4917342525
 10
-2.331295678
 20
33.4913059706
 10
-2.4239020272
 20
33.5004144528
 10
-2.5124438156
 20
33.5189799707
 10
-2.5965039216
 20
33.5468858462
 10
-2.6756959046
 20
33.5839728197
 10
-2.6890561052
 20
33.5914093767
  0
LWPOLYLINE
  5
41B
100
AcDbEntity
  8
ASSI
100
AcDbPolyline
 62
253
  6
CONTINUOUS
 90
13
 70
0
 10
-1.606646954
 20
33.6936632724
 10
-1.7149088231
 20
33.6367634394
 10
-1.8224451512
 20
33.5889491231
 10
-1.928731646
 20
33.550415524
 10
-2.0332540457
 20
33.5213141199
 10
-2.1355119575
 20
33.5017395075
 10
-2.235020033
 20
33.4917342525
 10
-2.331295678
 20
33.4913059706
 10
-2.4239020272
 20
33.5004144528
 10
-2.5124438156
 20
33.5189799707
 10
-2.5965039216
 20
33.5468858462
 10
-2.6756959046
 20
33.5839728197
 10
-2.6891200249
 20
33.5914458404
  0
LWPOLYLINE
  5
41C
100
AcDbEntity
  8
ASSI
100
AcDbPolyline
 62
7
  6
CONTINUOUS
 90
4
 70
0
 10
-3.0440617655
 20
30.5739769626
 10
-3.0072234023
 20
30.5865709617
 10
-2.8944089163
 20
30.6358918705
 10
-2.7794089743
 20
30.6967127376
  0
LWPOLYLINE
  5
41D
100
AcDbEntity
  8
ASSI
100
AcDbPolyline
 62
7
  6
CONTINUOUS
 90
6
 70
0
 10
-2.2248915271
 20
34.1518900067
 10
-2.3318357936
 20
34.1369732681
 10
-2.4409655162
 20
34.1105565711
 10
-2.5515945463
 20
34.0727356207
 10
-2.6644090323
 20
34.0234147119
 10
-2.7794089743
 20
33.9625938448
  0
LINE
  5
41E
100
AcDbEntity
  8
ASSI
100
AcDbLine
 62
7
  6
CONTINUOUS
 10
-2.1221911616
 20
34.1550196721
 11
-2.2248915271
 21
34.1518900067
  0
LWPOLYLINE
  5
41F
100
AcDbEntity
  8
RACCORDO
100
AcDbPolyline
 62
253
  6
CONTINUOUS
 90
17
 70
0
 10
-29.6412359965
 20
37.7410586832
 10
-29.6505418694
 20
37.746091037
 10
-29.6598194248
 20
37.750551545
 10
-29.6690432232
 20
37.7544279727
 10
-29.6781879807
 20
37.75770969
 10
-29.6872286126
 20
37.7603876905
 10
-29.6961403029
 20
37.7624546221
 10
-29.7048986097
 20
37.7639048178
 10
-29.7134795236
 20
37.7647343041
 10
-29.721859508
 20
37.764940808
 10
-29.7300155842
 20
37.7645237666
 10
-29.7379253908
 20
37.7634843268
 10
-29.7455672376
 20
37.7618253426
 10
-29.7529201805
 20
37.7595513638
 10
-29.7599640507
 20
37.7566686311
 10
-29.7666795105
 20
37.7531850672
 10
-29.7673887615
 20
37.7527706723
  0
LWPOLYLINE
  5
420
100
AcDbEntity
  8
RACCORDO
100
AcDbPolyline
 62
253
  6
CONTINUOUS
 90
31
 70
0
 10
-28.4919995727
 20
36.349920007
 10
-28.4825406023
 20
36.3447362657
 10
-28.4726263259
 20
36.3398443799
 10
-28.4622837222
 20
36.3352576613
 10
-28.4515409517
 20
36.3309885977
 10
-28.4404272325
 20
36.3270487988
 10
-28.4289727552
 20
36.3234489704
 10
-28.4172086498
 20
36.3201989039
 10
-28.4051669594
 20
36.3173074596
 10
-28.3928805052
 20
36.3147825214
 10
-28.3803827408
 20
36.3126309634
 10
-28.367707658
 20
36.3108586365
 10
-28.3548897496
 20
36.3094703637
 10
-28.3419638862
 20
36.3084699224
 10
-28.328965253
 20
36.3078600361
 10
-28.3159292547
 20
36.3076423647
 10
-28.3028913869
 20
36.3078174971
 10
-28.2898871076
 20
36.3083849531
 10
-28.2769517732
 20
36.3093431884
 10
-28.2641204676
 20
36.3106896095
 10
-28.2514282263
 20
36.3124205454
 10
-28.2389098973
 20
36.3145312286
 10
-28.2265997329
 20
36.3170158432
 10
-28.2145310021
 20
36.319867633
 10
-28.2027362313
 20
36.3230788965
 10
-28.1912463687
 20
36.3266412733
 10
-28.180093887
 20
36.3305447632
 10
-28.1693120771
 20
36.3347775228
 10
-28.158930888
 20
36.3393273337
 10
-28.1489771759
 20
36.3441819469
 10
-28.139477613
 20
36.3493279263
  0
LWPOLYLINE
  5
421
100
AcDbEntity
  8
RACCORDO
100
AcDbPolyline
 62
253
  6
CONTINUOUS
 90
31
 70
0
 10
-28.4919995727
 20
36.6704401798
 10
-28.4825394233
 20
36.6652558253
 10
-28.4726238367
 20
36.6603633879
 10
-28.4622797988
 20
36.6557761864
 10
-28.4515354506
 20
36.6515067045
 10
-28.4404200451
 20
36.6475665705
 10
-28.4289638715
 20
36.6439665225
 10
-28.4171981223
 20
36.6407163609
 10
-28.4051548149
 20
36.6378249288
 10
-28.3928667423
 20
36.6353000976
 10
-28.3803673548
 20
36.6331487382
 10
-28.367690673
 20
36.6313767039
 10
-28.3548712071
 20
36.6299888164
 10
-28.3419438355
 20
36.6289888502
 10
-28.3289437604
 20
36.6283795263
 10
-28.3159064171
 20
36.6281625009
 10
-28.3028673457
 20
36.6283383561
 10
-28.2898619807
 20
36.6289066045
 10
-28.2769256064
 20
36.6298657025
 10
-28.2640932673
 20
36.6312130628
 10
-28.2514000602
 20
36.6329450113
 10
-28.2388809109
 20
36.6350567674
 10
-28.2265701143
 20
36.6375425007
 10
-28.2145009095
 20
36.6403954529
 10
-28.2027057917
 20
36.6436079258
 10
-28.1912143692
 20
36.6471719992
 10
-28.1800605526
 20
36.6510773033
 10
-28.1692813971
 20
36.65531043
 10
-28.1589076311
 20
36.6598582638
 10
-28.1489643271
 20
36.6647087256
 10
-28.139477613
 20
36.6698480992
  0
LWPOLYLINE
  5
422
100
AcDbEntity
  8
RACCORDO
100
AcDbPolyline
 62
253
  6
CONTINUOUS
 90
31
 70
0
 10
-41.8563177371
 20
44.0663098209
 10
-41.8468587668
 20
44.0611260796
 10
-41.8369444904
 20
44.0562341937
 10
-41.8266018866
 20
44.0516474752
 10
-41.8158591162
 20
44.0473784116
 10
-41.804745397
 20
44.0434386127
 10
-41.7932909196
 20
44.0398387843
 10
-41.7815268142
 20
44.0365887178
 10
-41.7694851238
 20
44.0336972735
 10
-41.7571986696
 20
44.0311723353
 10
-41.7447009052
 20
44.0290207773
 10
-41.7320258224
 20
44.0272484504
 10
-41.719207914
 20
44.0258601776
 10
-41.7062820506
 20
44.0248597362
 10
-41.6932834175
 20
44.02424985
 10
-41.6802474191
 20
44.0240321786
 10
-41.6672095513
 20
44.024207311
 10
-41.654205272
 20
44.024774767
 10
-41.6412699376
 20
44.0257330023
 10
-41.628438632
 20
44.0270794234
 10
-41.6157463908
 20
44.0288103593
 10
-41.6032280617
 20
44.0309210425
 10
-41.5909178973
 20
44.0334056571
 10
-41.5788491666
 20
44.0362574469
 10
-41.5670543957
 20
44.0394687104
 10
-41.5555645332
 20
44.0430310872
 10
-41.5444120514
 20
44.0469345771
 10
-41.5336302415
 20
44.0511673367
 10
-41.5232490524
 20
44.0557171476
 10
-41.5132953403
 20
44.0605717608
 10
-41.5037957774
 20
44.0657177402
  0
LWPOLYLINE
  5
423
100
AcDbEntity
  8
RACCORDO
100
AcDbPolyline
 62
253
  6
CONTINUOUS
 90
31
 70
0
 10
-41.8563177371
 20
44.3868299937
 10
-41.8468823259
 20
44.3816585066
 10
-41.8369875335
 20
44.3767745119
 10
-41.8266593754
 20
44.3721918003
 10
-41.8159228869
 20
44.3679225434
 10
-41.8048086276
 20
44.3639799169
 10
-41.7933533388
 20
44.3603773783
 10
-41.7815907514
 20
44.3571253916
 10
-41.7695504637
 20
44.3542319996
 10
-41.7572649157
 20
44.3517050139
 10
-41.7447672939
 20
44.3495513043
 10
-41.7320918199
 20
44.3477768109
 10
-41.7192733488
 20
44.3463864271
 10
-41.7063469314
 20
44.3453839442
 10
-41.6933475923
 20
44.3447720675
 10
-41.6803106001
 20
44.3445524592
 10
-41.6672713841
 20
44.3447257251
 10
-41.6542654877
 20
44.3452914024
 10
-41.6413283592
 20
44.3462479538
 10
-41.6284952258
 20
44.3475927767
 10
-41.6158010035
 20
44.349322214
 10
-41.60328025
 20
44.3514315599
 10
-41.5909670436
 20
44.3539150755
 10
-41.5788949027
 20
44.3567660026
 10
-41.5670966978
 20
44.3599765802
 10
-41.555604535
 20
44.3635380731
 10
-41.5444497036
 20
44.3674407858
 10
-41.5336625991
 20
44.3716740833
 10
-41.5232725902
 20
44.3762264359
 10
-41.5133079432
 20
44.381085455
 10
-41.5037957774
 20
44.3862379131
  0
LINE
  5
424
100
AcDbEntity
  8
ASSI
100
AcDbLine
 62
7
  6
CONTINUOUS
 10
-43.3251809322
 20
43.6281808421
 11
-41.2106625318
 21
42.4072844188
  0
LINE
  5
425
100
AcDbEntity
  8
ASSI
100
AcDbLine
 62
7
  6
CONTINUOUS
 10
-38.382235407
 20
40.7741860455
 11
-33.2910665825
 21
37.8346089735
  0
LINE
  5
426
100
AcDbEntity
  8
ASSI
100
AcDbLine
 62
7
  6
CONTINUOUS
 10
-30.4626394578
 20
36.2015106002
 11
-28.3481210574
 21
34.980614177
  0
LINE
  5
427
100
AcDbEntity
  8
RACCORDO
100
AcDbLine
 62
7
  6
CONTINUOUS
 10
-28.3206309909
 20
34.9647417572
 11
-30.5333501359
 21
36.2423380596
  0
LINE
  5
428
100
AcDbEntity
  8
0
100
AcDbLine
 62
7
  6
CONTINUOUS
 10
-30.5333501359
 20
36.2423380596
 11
-41.1399518537
 21
42.3664569595
  0
LINE
  5
429
100
AcDbEntity
  8
RACCORDO
100
AcDbLine
 62
7
  6
CONTINUOUS
 10
-41.1399518537
 20
42.3664569595
 11
-43.3526709986
 21
43.6440532619
  0
LINE
  5
42A
100
AcDbEntity
  8
0
100
AcDbLine
 62
253
  6
CONTINUOUS
 10
0.0490181504
 20
19.2204537212
 11
-0.3752459183
 21
19.4654184772
  0
LINE
  5
42B
100
AcDbEntity
  8
RACCORDO
100
AcDbLine
 62
7
  6
CONTINUOUS
 10
-42.4783094626
 20
43.99854645
 11
-41.145097129
 21
43.2287663577
  0
LINE
  5
42C
100
AcDbEntity
  8
RACCORDO
100
AcDbLine
 62
7
  6
CONTINUOUS
 10
-29.1139912982
 20
36.2821566361
 11
-27.7807789646
 21
35.5123765438
  0
LINE
  5
42D
100
AcDbEntity
  8
RACCORDO
100
AcDbLine
 62
7
  6
CONTINUOUS
 10
-43.1295317616
 20
44.7169051538
 11
-41.8045470818
 21
43.9518756056
  0
LINE
  5
42E
100
AcDbEntity
  8
RACCORDO
100
AcDbLine
 62
7
  6
CONTINUOUS
 10
-29.7652135972
 20
37.0005153399
 11
-28.4402289174
 21
36.2354857917
  0
LINE
  5
42F
100
AcDbEntity
  8
RACCORDO
100
AcDbLine
 62
253
  6
CONTINUOUS
 10
-43.1813024169
 20
44.831339369
 11
-41.8563177371
 21
44.0663098209
  0
LINE
  5
430
100
AcDbEntity
  8
RACCORDO
100
AcDbLine
 62
253
  6
CONTINUOUS
 10
-29.8169842525
 20
37.1149495552
 11
-28.4919995727
 21
36.349920007
  0
LINE
  5
431
100
AcDbEntity
  8
RACCORDO
100
AcDbLine
 62
7
  6
CONTINUOUS
 10
-32.0203372732
 20
38.3899136674
 11
-37.5316443728
 21
41.5720733138
  0
LINE
  5
432
100
AcDbEntity
  8
RACCORDO
100
AcDbLine
 62
253
  6
CONTINUOUS
 10
-28.4919995727
 20
36.6704401798
 11
-29.8169842525
 21
37.435469728
  0
LINE
  5
433
100
AcDbEntity
  8
RACCORDO
100
AcDbLine
 62
253
  6
CONTINUOUS
 10
-41.8563177371
 20
44.3868299937
 11
-43.1813024169
 21
45.1518595419
  0
LINE
  5
434
100
AcDbEntity
  8
RACCORDO
100
AcDbLine
 62
253
  6
CONTINUOUS
 10
-28.3162513167
 20
36.9760291351
 11
-29.6412359965
 21
37.7410586832
  0
LINE
  5
435
100
AcDbEntity
  8
RACCORDO
100
AcDbLine
 62
253
  6
CONTINUOUS
 10
-41.6805694811
 20
44.692418949
 11
-43.0055541609
 21
45.4574484971
  0
LINE
  5
436
100
AcDbEntity
  8
RACCORDO
100
AcDbLine
 62
7
  6
CONTINUOUS
 10
-26.522354239
 20
36.0747857501
 11
-26.5381968222
 21
36.083933059
  0
LINE
  5
437
100
AcDbEntity
  8
DRAFT
100
AcDbLine
 62
7
  6
CONTINUOUS
 10
-29.5999154214
 20
37.8517310059
 11
-30.9576142046
 21
38.6356492673
  0
LINE
  5
438
100
AcDbEntity
  8
DRAFT
100
AcDbLine
 62
7
  6
CONTINUOUS
 10
-37.6780909822
 20
42.5159683314
 11
-39.9025149866
 21
43.8003228729
  0
LINE
  5
439
100
AcDbEntity
  8
RACCORDO
100
AcDbLine
 62
253
  6
CONTINUOUS
 10
-32.0203372732
 20
39.408664562
 11
-37.5316443728
 21
42.5908242084
  0
LINE
  5
43A
100
AcDbEntity
  8
RACCORDO
100
AcDbLine
 62
253
  6
CONTINUOUS
 10
-31.5975148933
 20
39.4901832556
 11
-37.6732695431
 21
42.9982478433
  0
LINE
  5
43B
100
AcDbEntity
  8
RACCORDO
100
AcDbLine
 62
253
  6
CONTINUOUS
 10
-41.8046102982
 20
43.9519121429
 11
-41.8045463536
 21
43.9518751851
  0
LINE
  5
43C
100
AcDbEntity
  8
RACCORDO
100
AcDbLine
 62
253
  6
CONTINUOUS
 10
-28.4402921338
 20
36.235522329
 11
-28.4402281892
 21
36.2354853712
  0
LWPOLYLINE
  5
43D
100
AcDbEntity
  8
RACCORDO
100
AcDbPolyline
 62
7
  6
CONTINUOUS
 90
21
 70
0
 10
-43.1294818607
 20
44.7168763646
 10
-43.1329557242
 20
44.7189185647
 10
-43.1441618185
 20
44.7260393729
 10
-43.1549819443
 20
44.7337509988
 10
-43.1653667052
 20
44.7420178997
 10
-43.1752927084
 20
44.7508193096
 10
-43.1847572602
 20
44.7601550448
 10
-43.1937304843
 20
44.7700019052
 10
-43.202177416
 20
44.780326968
 10
-43.2100839453
 20
44.7911202222
 10
-43.2174229471
 20
44.8023554658
 10
-43.2241640514
 20
44.8139969456
 10
-43.2302867704
 20
44.8260211055
 10
-43.2357658024
 20
44.8383920979
 10
-43.2405792542
 20
44.8510749761
 10
-43.2447111316
 20
44.8640468694
 10
-43.2481422443
 20
44.8772743389
 10
-43.2508529053
 20
44.8907123675
 10
-43.2528276417
 20
44.9043192489
 10
-43.2540533641
 20
44.9180471706
 10
-43.2545209088
 20
44.9318568257
  0
LWPOLYLINE
  5
43E
100
AcDbEntity
  8
RACCORDO
100
AcDbPolyline
 62
7
  6
CONTINUOUS
 90
21
 70
0
 10
-29.7651636963
 20
37.0004865507
 10
-29.7686375598
 20
37.0025287508
 10
-29.779843654
 20
37.009649559
 10
-29.7906637799
 20
37.017361185
 10
-29.8010485408
 20
37.0256280858
 10
-29.810974544
 20
37.0344294957
 10
-29.8204390958
 20
37.0437652309
 10
-29.8294123199
 20
37.0536120913
 10
-29.8378592516
 20
37.0639371541
 10
-29.8457657809
 20
37.0747304083
 10
-29.8531047826
 20
37.0859656519
 10
-29.859845887
 20
37.0976071317
 10
-29.865968606
 20
37.1096312916
 10
-29.871447638
 20
37.122002284
 10
-29.8762610898
 20
37.1346851622
 10
-29.8803929671
 20
37.1476570555
 10
-29.8838240798
 20
37.160884525
 10
-29.8865347408
 20
37.1743225536
 10
-29.8885094773
 20
37.187929435
 10
-29.8897351997
 20
37.2016573567
 10
-29.8902027444
 20
37.2154670118
  0
LWPOLYLINE
  5
43F
100
AcDbEntity
  8
RACCORDO
100
AcDbPolyline
 62
253
  6
CONTINUOUS
 90
16
 70
0
 10
-43.1813024169
 20
44.831339369
 10
-43.1902803418
 20
44.83680086
 10
-43.1987527907
 20
44.8425252389
 10
-43.2066967084
 20
44.8484969287
 10
-43.2140904672
 20
44.8546996697
 10
-43.2209139594
 20
44.8611165919
 10
-43.2271486434
 20
44.8677302635
 10
-43.2327775611
 20
44.8745227105
 10
-43.2377853668
 20
44.8814754317
 10
-43.2421584063
 20
44.8885694764
 10
-43.2458847741
 20
44.8957855289
 10
-43.2489543365
 20
44.9031039628
 10
-43.2513587406
 20
44.9105048625
 10
-43.2530914442
 20
44.917968094
 10
-43.2541477301
 20
44.9254733419
 10
-43.2545257216
 20
44.9334080188
  0
LWPOLYLINE
  5
440
100
AcDbEntity
  8
RACCORDO
100
AcDbPolyline
 62
253
  6
CONTINUOUS
 90
16
 70
0
 10
-43.1813024169
 20
45.1518595419
 10
-43.1902814038
 20
45.1573217136
 10
-43.198754808
 20
45.163046849
 10
-43.2066995622
 20
45.1690193668
 10
-43.2140940455
 20
45.1752230188
 10
-43.2209181179
 20
45.1816409146
 10
-43.2271531823
 20
45.1882555657
 10
-43.2327822646
 20
45.1950489618
 10
-43.2377900494
 20
45.2020026166
 10
-43.2421629035
 20
45.2090975957
 10
-43.2458889273
 20
45.2163145854
 10
-43.248957983
 20
45.2236339426
 10
-43.2513617197
 20
45.2310357415
 10
-43.2530936004
 20
45.2384998438
 10
-43.2541489124
 20
45.2460059243
 10
-43.2545257216
 20
45.2539281936
  0
LWPOLYLINE
  5
441
100
AcDbEntity
  8
RACCORDO
100
AcDbPolyline
 62
253
  6
CONTINUOUS
 90
16
 70
0
 10
-29.8169842525
 20
37.1149495552
 10
-29.8259621773
 20
37.1204110461
 10
-29.8344346263
 20
37.126135425
 10
-29.842378544
 20
37.1321071148
 10
-29.8497723028
 20
37.1383098558
 10
-29.8565957949
 20
37.144726778
 10
-29.8628304789
 20
37.1513404496
 10
-29.8684593966
 20
37.1581328967
 10
-29.8734672024
 20
37.1650856178
 10
-29.8778402419
 20
37.1721796625
 10
-29.8815666096
 20
37.179395715
 10
-29.8846361721
 20
37.1867141489
 10
-29.8870405761
 20
37.1941150486
 10
-29.8887732798
 20
37.2015782801
 10
-29.8898295656
 20
37.209083528
 10
-29.8902075572
 20
37.2170182049
  0
LWPOLYLINE
  5
442
100
AcDbEntity
  8
RACCORDO
100
AcDbPolyline
 62
253
  6
CONTINUOUS
 90
16
 70
0
 10
-29.8169842525
 20
37.435469728
 10
-29.8259613197
 20
37.4409306691
 10
-29.8344330123
 20
37.4466544479
 10
-29.8423762816
 20
37.4526254919
 10
-29.8497695167
 20
37.4588275557
 10
-29.8565926029
 20
37.4652437657
 10
-29.862826977
 20
37.4718566653
 10
-29.8684556772
 20
37.4786482633
 10
-29.8734633896
 20
37.4856000817
 10
-29.8778364901
 20
37.4926932071
 10
-29.8815630807
 20
37.4999083414
 10
-29.8846330228
 20
37.5072258546
 10
-29.8870379639
 20
37.5146258381
 10
-29.8887713611
 20
37.522088159
 10
-29.8898284983
 20
37.5295925149
 10
-29.8902075572
 20
37.5375383763
  0
LWPOLYLINE
  5
443
100
AcDbEntity
  8
RACCORDO
100
AcDbPolyline
 62
7
  6
CONTINUOUS
 90
10
 70
0
 10
-16.3912145121
 20
49.0440734094
 10
-16.3891935932
 20
49.0185976955
 10
-16.3835121987
 20
48.9936861199
 10
-16.3741703287
 20
48.9693386827
 10
-16.3610376581
 20
48.9453763042
 10
-16.3442445119
 20
48.921978064
 10
-16.3241818657
 20
48.899681201
 10
-16.3009800447
 20
48.8786647945
 10
-16.2745087237
 20
48.8587497651
 10
-16.2447679027
 20
48.8399361128
  0
LWPOLYLINE
  5
444
100
AcDbEntity
  8
ASSI
100
AcDbPolyline
 62
7
  6
CONTINUOUS
 90
10
 70
0
 10
-16.3912145121
 20
49.0440734094
 10
-16.3891935932
 20
49.0185976955
 10
-16.3835121987
 20
48.9936861199
 10
-16.3741703287
 20
48.9693386827
 10
-16.3610376581
 20
48.9453763042
 10
-16.3442445119
 20
48.921978064
 10
-16.3241818657
 20
48.899681201
 10
-16.3009800447
 20
48.8786647945
 10
-16.2745087237
 20
48.8587497651
 10
-16.2447679027
 20
48.8399361128
  0
LWPOLYLINE
  5
445
100
AcDbEntity
  8
ASSI
100
AcDbPolyline
 62
7
  6
CONTINUOUS
 90
55
 70
0
 10
-15.684107731
 20
52.2641321662
 10
-15.6843216171
 20
52.2811396027
 10
-15.6849584291
 20
52.2983485074
 10
-15.6860181669
 20
52.3157588801
 10
-15.6875024418
 20
52.3333857843
 10
-15.6894096426
 20
52.3512141566
 10
-15.691734935
 20
52.369198807
 10
-15.6944793795
 20
52.3873401319
 10
-15.6976419157
 20
52.405637735
 10
-15.7012145273
 20
52.4240452368
 10
-15.7051982545
 20
52.4425629161
 10
-15.7095920572
 20
52.4611904941
 10
-15.7143847983
 20
52.479880755
 10
-15.7195774897
 20
52.4986338579
 10
-15.7251691195
 20
52.5174496438
 10
-15.7311455143
 20
52.5362804197
 10
-15.7375076504
 20
52.5551262238
 10
-15.7442545515
 20
52.573987018
 10
-15.7513691163
 20
52.5928149954
 10
-15.7588522772
 20
52.6116100727
 10
-15.7667031018
 20
52.6303723332
 10
-15.7749016902
 20
52.6490542197
 10
-15.7834489247
 20
52.6676555284
 10
-15.7923439232
 20
52.6861764631
 10
-15.8015641391
 20
52.7045700783
 10
-15.8111103976
 20
52.7228360511
 10
-15.8209818736
 20
52.7409747045
 10
-15.8311535456
 20
52.7589400619
 10
-15.8416261752
 20
52.7767316838
 10
-15.8523990009
 20
52.7943500098
 10
-15.8634447165
 20
52.8117503822
 10
-15.8747640142
 20
52.8289322481
 10
-15.8863562018
 20
52.8458961606
 10
-15.8981918964
 20
52.8625991206
 10
-15.9102717155
 20
52.8790404663
 10
-15.9225950416
 20
52.8952208596
 10
-15.9351306383
 20
52.9110992877
 10
-15.9478790441
 20
52.9266749845
 10
-15.9608397207
 20
52.9419487161
 10
-15.9739798161
 20
52.9568817678
 10
-15.9872997856
 20
52.9714732753
 10
-16.000799174
 20
52.9857241028
 10
-16.0144437641
 20
52.9995981286
 10
-16.0282339243
 20
53.0130943966
 10
-16.0421692861
 20
53.0262138627
 10
-16.0562145273
 20
53.0389232728
 10
-16.0703699266
 20
53.0512215866
 10
-16.0846352053
 20
53.0631098442
 10
-16.0989742048
 20
53.0745579124
 10
-16.1133871121
 20
53.0855646743
 10
-16.1278737403
 20
53.0961312467
 10
-16.1423973697
 20
53.1062308462
 10
-16.1569457605
 20
53.115854545
 10
-16.1715311524
 20
53.125011271
 10
-16.1861535456
 20
53.133701024
  0
LINE
  5
446
100
AcDbEntity
  8
RACCORDO
100
AcDbLine
 62
7
  6
CONTINUOUS
 10
-16.3912145121
 20
49.0440734094
 11
-16.3912145121
 21
51.0982823415
  0
LINE
  5
447
100
AcDbEntity
  8
ASSI
100
AcDbLine
 62
7
  6
CONTINUOUS
 10
-16.3912145121
 20
49.0440734094
 11
-16.3912145121
 21
51.0982823415
  0
LINE
  5
448
100
AcDbEntity
  8
RACCORDO
100
AcDbLine
 62
253
  6
CONTINUOUS
 10
-16.2447679027
 20
48.8399361128
 11
-16.2447679027
 21
49.565906665
  0
LINE
  5
449
100
AcDbEntity
  8
ASSI
100
AcDbLine
 62
253
  6
CONTINUOUS
 10
-16.2447679027
 20
48.8399361128
 11
-16.2447679027
 21
49.565906665
  0
LINE
  5
44A
100
AcDbEntity
  8
RACCORDO
100
AcDbLine
 62
253
  6
CONTINUOUS
 10
-16.0930656899
 20
50.0143242574
 11
-16.0930656899
 21
51.3421452511
  0
LINE
  5
44B
100
AcDbEntity
  8
ASSI
100
AcDbLine
 62
253
  6
CONTINUOUS
 10
-16.0930656899
 20
50.0143242574
 11
-16.0930656899
 21
51.3421452511
  0
LINE
  5
44C
100
AcDbEntity
  8
0
100
AcDbLine
 62
7
  6
CONTINUOUS
 10
-15.2951990013
 20
12.6890352781
 11
-15.2951990013
 21
13.4683061068
  0
LINE
  5
44D
100
AcDbEntity
  8
ASSI
100
AcDbLine
 62
7
  6
CONTINUOUS
 10
-15.2244883232
 20
12.2253021337
 11
-15.2244883232
 21
10.488240888
  0
LINE
  5
44E
100
AcDbEntity
  8
0
100
AcDbLine
 62
7
  6
CONTINUOUS
 10
-14.8002242545
 20
10.6466872613
 11
-14.8002242545
 21
13.7540983222
  0
LWPOLYLINE
  5
44F
100
AcDbEntity
  8
0
100
AcDbPolyline
 62
7
  6
CONTINUOUS
 90
8
 70
0
 10
-15.2244883232
 20
10.488240888
 10
-15.225633596
 20
10.4342926433
 10
-15.2289931456
 20
10.3820012838
 10
-15.2345669719
 20
10.3313668094
 10
-15.2423751539
 20
10.2822907914
 10
-15.2523976127
 20
10.2348716584
 10
-15.2645741113
 20
10.1894046968
 10
-15.2789270218
 20
10.1458827376
  0
LWPOLYLINE
  5
450
100
AcDbEntity
  8
RACCORDO
100
AcDbPolyline
 62
253
  6
CONTINUOUS
 90
13
 70
0
 10
-13.7092339968
 20
48.1019211654
 10
-13.707439258
 20
48.1347520412
 10
-13.7020854105
 20
48.1690999064
 10
-13.6932630465
 20
48.2043835622
 10
-13.6811214488
 20
48.2400059753
 10
-13.665866065
 20
48.2753643802
 10
-13.6477550308
 20
48.309860479
 10
-13.6270948022
 20
48.3429105643
 10
-13.6042349701
 20
48.3739553973
 10
-13.5795623447
 20
48.4024696695
 10
-13.5534944106
 20
48.427970892
 10
-13.5264722622
 20
48.4500275599
 10
-13.4989531402
 20
48.468266453
  0
LWPOLYLINE
  5
451
100
AcDbEntity
  8
ASSI
100
AcDbPolyline
 62
253
  6
CONTINUOUS
 90
13
 70
0
 10
-13.7092339968
 20
48.1019211654
 10
-13.707439258
 20
48.1347520412
 10
-13.7020854105
 20
48.1690999064
 10
-13.6932630465
 20
48.2043835622
 10
-13.6811214488
 20
48.2400059753
 10
-13.665866065
 20
48.2753643802
 10
-13.6477550308
 20
48.309860479
 10
-13.6270948022
 20
48.3429105643
 10
-13.6042349701
 20
48.3739553973
 10
-13.5795623447
 20
48.4024696695
 10
-13.5534944106
 20
48.427970892
 10
-13.5264722622
 20
48.4500275599
 10
-13.4989531402
 20
48.468266453
  0
LWPOLYLINE
  5
452
100
AcDbEntity
  8
RACCORDO
100
AcDbPolyline
 62
253
  6
CONTINUOUS
 90
31
 70
0
 10
-26.0099296504
 20
-1.3646093729
 10
-26.0055865091
 20
-1.3525681297
 10
-26.0017387001
 20
-1.340279755
 10
-25.9983971314
 20
-1.3277775633
 10
-25.9955711071
 20
-1.31509432
 10
-25.9932691072
 20
-1.3022656638
 10
-25.9914982748
 20
-1.2893301286
 10
-25.9902635438
 20
-1.2763243592
 10
-25.9895680809
 20
-1.2632825758
 10
-25.9894137881
 20
-1.2502400695
 10
-25.9898011379
 20
-1.2372322462
 10
-25.9907291197
 20
-1.224294854
 10
-25.9921951959
 20
-1.2114635533
 10
-25.9941953416
 20
-1.1987735058
 10
-25.9967241046
 20
-1.1862592558
 10
-25.9997745858
 20
-1.1739549549
 10
-26.0033384631
 20
-1.1618941931
 10
-26.0074060014
 20
-1.150109935
 10
-26.0119660827
 20
-1.1386343976
 10
-26.0170062473
 20
-1.1274989339
 10
-26.0225127319
 20
-1.1167339502
 10
-26.028470496
 20
-1.1063688502
 10
-26.0348632765
 20
-1.0964319304
 10
-26.0416736033
 20
-1.0869503486
 10
-26.0488828412
 20
-1.0779500425
 10
-26.0564712706
 20
-1.0694556129
 10
-26.0644181807
 20
-1.0614902268
 10
-26.0727018976
 20
-1.0540756019
 10
-26.0812998082
 20
-1.0472319801
 10
-26.0901884168
 20
-1.0409780643
 10
-26.0993434458
 20
-1.0353309354
  0
LWPOLYLINE
  5
453
100
AcDbEntity
  8
ASSI
100
AcDbPolyline
 62
7
  6
CONTINUOUS
 90
20
 70
0
 10
-2.7794089743
 20
30.6967127376
 10
-2.6644090323
 20
30.7686909209
 10
-2.5515945463
 20
30.8496453529
 10
-2.4409655162
 20
30.9395760334
 10
-2.3318357936
 20
31.0391796046
 10
-2.2248915271
 20
31.1477594243
 10
-2.1221911616
 20
31.2632255667
 10
-2.0238169107
 20
31.3857114342
 10
-1.929686561
 20
31.5150836244
 10
-1.8416119175
 20
31.648852003
 10
-1.7597102921
 20
31.7871017335
 10
-1.683864373
 20
31.9297476526
 10
-1.6155340295
 20
32.0740441355
 10
-1.5548648544
 20
32.2200231573
 10
-1.501711255
 20
32.3676527429
 10
-1.4570963229
 20
32.5140913431
 10
-1.42118547
 20
32.6593158859
 10
-1.3938132843
 20
32.8033494433
 10
-1.3755066211
 20
32.9434196816
 10
-1.3664410986
 20
33.0794498229
  0
LINE
  5
454
100
AcDbEntity
  8
RACCORDO
100
AcDbLine
 62
253
  6
CONTINUOUS
 10
-1.5202150236
 20
33.1680766491
 11
-1.3963741748
 21
33.2435286006
  0
LINE
  5
455
100
AcDbEntity
  8
ASSI
100
AcDbLine
 62
253
  6
CONTINUOUS
 10
-1.5202150236
 20
33.1680766491
 11
-1.3963741748
 21
33.2435286006
  0
LINE
  5
456
100
AcDbEntity
  8
RACCORDO
100
AcDbLine
 62
7
  6
CONTINUOUS
 10
-1.5125298445
 20
33.0744423057
 11
-1.4586499465
 21
33.1061138746
  0
LINE
  5
457
100
AcDbEntity
  8
ASSI
100
AcDbLine
 62
7
  6
CONTINUOUS
 10
-1.5122251592
 20
33.0746214052
 11
-1.458650623
 21
33.1061134913
  0
LINE
  5
458
100
AcDbEntity
  8
0
100
AcDbLine
 62
7
  6
CONTINUOUS
 10
-3.0379612438
 20
30.1391927592
 11
0.0490181504
 21
31.9215759725
  0
LINE
  5
459
100
AcDbEntity
  8
DRAFT
100
AcDbLine
 62
7
  6
CONTINUOUS
 10
1.1450336613
 20
31.9011346244
 11
2.2056938331
 21
32.5135465144
  0
LINE
  5
45A
100
AcDbEntity
  8
ASSI
100
AcDbLine
 62
7
  6
CONTINUOUS
 10
1.1450336613
 20
31.9011346244
 11
2.2056938331
 21
32.5135465144
  0
LINE
  5
45B
100
AcDbEntity
  8
RACCORDO
100
AcDbLine
 62
253
  6
CONTINUOUS
 10
-1.3963741748
 20
33.2435286006
 11
3.0634782116
 21
35.7740358381
  0
LINE
  5
45C
100
AcDbEntity
  8
ASSI
100
AcDbLine
 62
253
  6
CONTINUOUS
 10
-1.3963741748
 20
33.2435286006
 11
3.0634782116
 21
35.7740358381
  0
LINE
  5
45D
100
AcDbEntity
  8
RACCORDO
100
AcDbLine
 62
7
  6
CONTINUOUS
 10
-1.4585989445
 20
33.1061502935
 11
3.0006847033
 21
35.6363348303
  0
LINE
  5
45E
100
AcDbEntity
  8
ASSI
100
AcDbLine
 62
7
  6
CONTINUOUS
 10
-1.4585989445
 20
33.1061502935
 11
3.0006847033
 21
35.6363348303
  0
LWPOLYLINE
  5
45F
100
AcDbEntity
  8
RACCORDO
100
AcDbPolyline
 62
253
  6
CONTINUOUS
 90
13
 70
0
 10
-1.606646954
 20
29.6113118884
 10
-1.7149088231
 20
29.5544120555
 10
-1.8224451512
 20
29.5065977391
 10
-1.928731646
 20
29.46806414
 10
-2.0332540457
 20
29.438962736
 10
-2.1355119575
 20
29.4193881235
 10
-2.235020033
 20
29.4093828685
 10
-2.331295678
 20
29.4089545866
 10
-2.4239020272
 20
29.4180630688
 10
-2.5124438156
 20
29.4366285867
 10
-2.5965039216
 20
29.4645344622
 10
-2.6756959046
 20
29.5016214358
 10
-2.6890561052
 20
29.5090579927
  0
LWPOLYLINE
  5
460
100
AcDbEntity
  8
ASSI
100
AcDbPolyline
 62
253
  6
CONTINUOUS
 90
13
 70
0
 10
-1.606646954
 20
29.6113118884
 10
-1.7149088231
 20
29.5544120555
 10
-1.8224451512
 20
29.5065977391
 10
-1.928731646
 20
29.46806414
 10
-2.0332540457
 20
29.438962736
 10
-2.1355119575
 20
29.4193881235
 10
-2.235020033
 20
29.4093828685
 10
-2.331295678
 20
29.4089545866
 10
-2.4239020272
 20
29.4180630688
 10
-2.5124438156
 20
29.4366285867
 10
-2.5965039216
 20
29.4645344622
 10
-2.6756959046
 20
29.5016214358
 10
-2.6891200249
 20
29.5090944565
  0
LWPOLYLINE
  5
461
100
AcDbEntity
  8
ASSI
100
AcDbPolyline
 62
7
  6
CONTINUOUS
 90
6
 70
0
 10
-2.2248915271
 20
38.2342413907
 10
-2.3318357936
 20
38.219324652
 10
-2.4409655162
 20
38.1929079551
 10
-2.5515945463
 20
38.1550870047
 10
-2.6644090323
 20
38.1057660959
 10
-2.7794089743
 20
38.0449452288
  0
LINE
  5
462
100
AcDbEntity
  8
0
100
AcDbLine
 62
7
  6
CONTINUOUS
 10
-31.3818782733
 20
36.2423380596
 11
-30.5333501359
 21
36.2423380596
  0
LINE
  5
463
100
AcDbEntity
  8
RACCORDO
100
AcDbLine
 62
7
  6
CONTINUOUS
 10
-28.3381461878
 20
36.20304183
 11
-27.7102134752
 21
36.1452210625
  0
LINE
  5
464
100
AcDbEntity
  8
RACCORDO
100
AcDbLine
 62
253
  6
CONTINUOUS
 10
-28.139477613
 20
36.3493279263
 11
-27.4282570049
 21
36.2838379135
  0
LWPOLYLINE
  5
465
100
AcDbEntity
  8
RACCORDO
100
AcDbPolyline
 62
7
  6
CONTINUOUS
 90
9
 70
0
 10
-28.3381461878
 20
36.20304183
 10
-28.351548004
 20
36.2046417856
 10
-28.3648989015
 20
36.2069737876
 10
-28.3781451231
 20
36.2100366126
 10
-28.3912495895
 20
36.2138291739
 10
-28.4041355384
 20
36.2183339137
 10
-28.4167000842
 20
36.2235102614
 10
-28.4288862978
 20
36.2293215944
 10
-28.4402921338
 20
36.235522329
  0
LWPOLYLINE
  5
466
100
AcDbEntity
  8
RACCORDO
100
AcDbPolyline
 62
253
  6
CONTINUOUS
 90
16
 70
0
 10
-26.0627257563
 20
38.2173976929
 10
-26.0690623117
 20
38.2207028784
 10
-26.0760570801
 20
38.2236044025
 10
-26.0833558169
 20
38.2258997766
 10
-26.0909387595
 20
38.2275827662
 10
-26.0987851779
 20
38.228648752
 10
-26.1068734692
 20
38.2290948232
 10
-26.1151814369
 20
38.2289198265
 10
-26.1236866093
 20
38.2281243042
 10
-26.132366072
 20
38.2267104238
 10
-26.1411981625
 20
38.2246815186
 10
-26.1501569455
 20
38.2220433544
 10
-26.1592122824
 20
38.2188053466
 10
-26.1683374512
 20
38.2149782979
 10
-26.1775094557
 20
38.2105730886
 10
-26.1867033541
 20
38.2056027505
  0
LWPOLYLINE
  5
467
100
AcDbEntity
  8
RACCORDO
100
AcDbPolyline
 62
253
  6
CONTINUOUS
 90
16
 70
0
 10
-27.4000534225
 20
38.9895539267
 10
-27.4063884723
 20
38.9928582429
 10
-27.4133832406
 20
38.9957597669
 10
-27.4206819775
 20
38.998055141
 10
-27.4282649201
 20
38.9997381307
 10
-27.4361113384
 20
39.0008041165
 10
-27.4441996297
 20
39.0012501877
 10
-27.4525075975
 20
39.001075191
 10
-27.4610127698
 20
39.0002796686
 10
-27.4696922326
 20
38.9988657882
 10
-27.4785243231
 20
38.9968368831
 10
-27.4874831061
 20
38.9941987188
 10
-27.496538443
 20
38.9909607111
 10
-27.5056636118
 20
38.9871336624
 10
-27.5148356163
 20
38.9827284531
 10
-27.5240295147
 20
38.977758115
  0
LWPOLYLINE
  5
468
100
AcDbEntity
  8
RACCORDO
100
AcDbPolyline
 62
253
  6
CONTINUOUS
 90
16
 70
0
 10
-39.4270439178
 20
45.9337875052
 10
-39.4333562126
 20
45.9370813228
 10
-39.4403484748
 20
45.9399844783
 10
-39.4476446397
 20
45.9422817411
 10
-39.455224857
 20
45.9439668612
 10
-39.4630685034
 20
45.9450352539
 10
-39.471154239
 20
45.9454840124
 10
-39.479460065
 20
45.9453119159
 10
-39.4879633842
 20
45.9445194326
 10
-39.4966410617
 20
45.9431087184
 10
-39.5054694886
 20
45.9410836116
 10
-39.5144246455
 20
45.9384496218
 10
-39.5234821684
 20
45.9352139151
 10
-39.5326174149
 20
45.9313852949
 10
-39.5418055308
 20
45.9269741776
 10
-39.5510215185
 20
45.9219925644
  0
LWPOLYLINE
  5
469
100
AcDbEntity
  8
RACCORDO
100
AcDbPolyline
 62
253
  6
CONTINUOUS
 90
16
 70
0
 10
-40.7643700784
 20
46.7059428696
 10
-40.7706823732
 20
46.7092366872
 10
-40.7776746353
 20
46.7121398427
 10
-40.7849708003
 20
46.7144371056
 10
-40.7925510176
 20
46.7161222257
 10
-40.800394664
 20
46.7171906184
 10
-40.8084803995
 20
46.7176393769
 10
-40.8167862256
 20
46.7174672804
 10
-40.8252895447
 20
46.716674797
 10
-40.8339672223
 20
46.7152640829
 10
-40.8427956491
 20
46.7132389761
 10
-40.851750806
 20
46.7106049862
 10
-40.860808329
 20
46.7073692796
 10
-40.8699435754
 20
46.7035406594
 10
-40.8791316914
 20
46.6991295421
 10
-40.8883476791
 20
46.6941479289
  0
LWPOLYLINE
  5
46A
100
AcDbEntity
  8
RACCORDO
100
AcDbPolyline
 62
7
  6
CONTINUOUS
 90
19
 70
0
 10
-40.7643700784
 20
46.7059428696
 10
-40.7767779854
 20
46.7126476623
 10
-40.7896328508
 20
46.7186806631
 10
-40.8028906169
 20
46.7240039803
 10
-40.8165094776
 20
46.7285852601
 10
-40.8304320561
 20
46.7323918477
 10
-40.8445863892
 20
46.7353950429
 10
-40.8589050093
 20
46.7375760804
 10
-40.8733417979
 20
46.738925277
 10
-40.8878576829
 20
46.7394353947
 10
-40.9023837148
 20
46.7391013814
 10
-40.9168750396
 20
46.7379230218
 10
-40.9313327764
 20
46.7358941373
 10
-40.9457406366
 20
46.7330032234
 10
-40.9600017026
 20
46.7292566585
 10
-40.9740076787
 20
46.7246792438
 10
-40.9877197285
 20
46.7192845929
 10
-41.0010899755
 20
46.7130915522
 10
-41.0121919626
 20
46.707192775
  0
LWPOLYLINE
  5
46B
100
AcDbEntity
  8
RACCORDO
100
AcDbPolyline
 62
253
  6
CONTINUOUS
 90
17
 70
0
 10
-43.0055541609
 20
45.4574484971
 10
-43.0148579946
 20
45.4624798092
 10
-43.0241335094
 20
45.4669395204
 10
-43.033355283
 20
45.4708154076
 10
-43.0424980401
 20
45.4740968475
 10
-43.0515367223
 20
45.4767748465
 10
-43.0604465561
 20
45.4788420646
 10
-43.0692031214
 20
45.4802928359
 10
-43.0777824181
 20
45.4811231843
 10
-43.0861609319
 20
45.4813308337
 10
-43.0943156989
 20
45.4809152152
 10
-43.1022243684
 20
45.4798774679
 10
-43.1098652643
 20
45.4782204359
 10
-43.1172174443
 20
45.475948661
 10
-43.1242607573
 20
45.4730683696
 10
-43.1309758991
 20
45.4695874561
 10
-43.1317069202
 20
45.4691604896
  0
LWPOLYLINE
  5
46C
100
AcDbEntity
  8
RACCORDO
100
AcDbPolyline
 62
7
  6
CONTINUOUS
 90
18
 70
0
 10
-28.0584793933
 20
38.6763127433
 10
-28.0668904688
 20
38.6809381955
 10
-28.0752826864
 20
38.6850906846
 10
-28.0836369341
 20
38.6887608623
 10
-28.0919341081
 20
38.6919405192
 10
-28.1001554064
 20
38.6946224537
 10
-28.1082823722
 20
38.6968004886
 10
-28.1162965376
 20
38.6984697224
 10
-28.124179657
 20
38.6996264252
 10
-28.1319139992
 20
38.7002678983
 10
-28.1394820067
 20
38.7003927086
 10
-28.1468664637
 20
38.7000006139
 10
-28.1540507262
 20
38.6990924494
 10
-28.1610185049
 20
38.69767028
 10
-28.1677539641
 20
38.6957373563
 10
-28.1742418868
 20
38.693298031
 10
-28.1804675834
 20
38.690357825
 10
-28.1827544576
 20
38.6891146161
  0
LWPOLYLINE
  5
46D
100
AcDbEntity
  8
RACCORDO
100
AcDbPolyline
 62
7
  6
CONTINUOUS
 90
18
 70
0
 10
-41.4227975578
 20
46.3927025572
 10
-41.4312086332
 20
46.3973280094
 10
-41.4396008508
 20
46.4014804985
 10
-41.4479550985
 20
46.4051506762
 10
-41.4562522725
 20
46.4083303331
 10
-41.4644735709
 20
46.4110122676
 10
-41.4726005367
 20
46.4131903025
 10
-41.480614702
 20
46.4148595363
 10
-41.4884978214
 20
46.4160162391
 10
-41.4962321636
 20
46.4166577122
 10
-41.5038001711
 20
46.4167825225
 10
-41.5111846281
 20
46.4163904278
 10
-41.5183688906
 20
46.4154822633
 10
-41.5253366693
 20
46.4140600939
 10
-41.5320721285
 20
46.4121271702
 10
-41.5385600512
 20
46.4096878449
 10
-41.5447857479
 20
46.4067476389
 10
-41.547072622
 20
46.40550443
  0
LWPOLYLINE
  5
46E
100
AcDbEntity
  8
RACCORDO
100
AcDbPolyline
 62
253
  6
CONTINUOUS
 90
16
 70
0
 10
-27.5240295147
 20
38.977758115
 10
-27.5332285243
 20
38.9828499511
 10
-27.54240514
 20
38.9873667655
 10
-27.5515342103
 20
38.9912961784
 10
-27.5605907141
 20
38.9946274199
 10
-27.5695498293
 20
38.9973513598
 10
-27.5783870006
 20
38.9994605323
 10
-27.587078007
 20
39.0009491566
 10
-27.5955990281
 20
39.0018131525
 10
-27.6039267093
 20
39.0020501521
 10
-27.6120382261
 20
39.0016595057
 10
-27.6199113463
 20
39.0006422841
 10
-27.6275244911
 20
38.9990012753
 10
-27.6348567943
 20
38.9967409769
 10
-27.6418881595
 20
38.9938675841
 10
-27.6478761423
 20
38.990801639
  0
LWPOLYLINE
  5
46F
100
AcDbEntity
  8
RACCORDO
100
AcDbPolyline
 62
253
  6
CONTINUOUS
 90
16
 70
0
 10
-40.8883476791
 20
46.6941479289
 10
-40.8975247866
 20
46.6992283108
 10
-40.9066854051
 20
46.7037390878
 10
-40.9158044497
 20
46.7076668501
 10
-40.9248587549
 20
46.711000378
 10
-40.9338214451
 20
46.7137285241
 10
-40.9426622331
 20
46.715841527
 10
-40.9513549916
 20
46.7173333349
 10
-40.9598778343
 20
46.7182003878
 10
-40.9682076262
 20
46.7184403076
 10
-40.9763216682
 20
46.7180523717
 10
-40.9841975314
 20
46.7170375816
 10
-40.9918133753
 20
46.715398727
 10
-40.9991482271
 20
46.7131403399
 10
-41.0061820775
 20
46.7102686003
 10
-41.0121919626
 20
46.707192775
  0
LINE
  5
470
100
AcDbEntity
  8
RACCORDO
100
AcDbLine
 62
7
  6
CONTINUOUS
 10
-39.8692496537
 20
44.5905398451
 11
-38.4944722516
 21
43.7967606032
  0
LINE
  5
471
100
AcDbEntity
  8
RACCORDO
100
AcDbLine
 62
7
  6
CONTINUOUS
 10
-26.5049314893
 20
36.8741500312
 11
-25.8029048631
 21
36.4688086557
  0
LINE
  5
472
100
AcDbEntity
  8
DRAFT
100
AcDbLine
 62
7
  6
CONTINUOUS
 10
-37.180153879
 20
43.3715240761
 11
-30.9576142046
 21
39.7787076548
  0
LINE
  5
473
100
AcDbEntity
  8
RACCORDO
100
AcDbLine
 62
7
  6
CONTINUOUS
 10
-41.4227975578
 20
46.3927025572
 11
-40.0792886903
 21
45.6169773752
  0
LINE
  5
474
100
AcDbEntity
  8
RACCORDO
100
AcDbLine
 62
7
  6
CONTINUOUS
 10
-28.0584793933
 20
38.6763127433
 11
-26.7149705258
 21
37.9005875613
  0
LINE
  5
475
100
AcDbEntity
  8
DRAFT
100
AcDbLine
 62
7
  6
CONTINUOUS
 10
-30.8869035265
 20
40.5496792971
 11
-35.8366509948
 21
43.4076014503
  0
LINE
  5
476
100
AcDbEntity
  8
RACCORDO
100
AcDbLine
 62
253
  6
CONTINUOUS
 10
-40.8883476791
 20
46.6941479289
 11
-39.5510215185
 21
45.9219925644
  0
LINE
  5
477
100
AcDbEntity
  8
RACCORDO
100
AcDbLine
 62
253
  6
CONTINUOUS
 10
-27.5240295147
 20
38.977758115
 11
-26.1867033541
 21
38.2056027505
  0
LINE
  5
478
100
AcDbEntity
  8
RACCORDO
100
AcDbLine
 62
7
  6
CONTINUOUS
 10
-40.7643700784
 20
46.7059428696
 11
-39.4270439178
 21
45.9337875052
  0
LINE
  5
479
100
AcDbEntity
  8
RACCORDO
100
AcDbLine
 62
7
  6
CONTINUOUS
 10
-27.4000519139
 20
38.9895530557
 11
-26.0627257534
 21
38.2173976913
  0
LINE
  5
47A
100
AcDbEntity
  8
DRAFT
100
AcDbLine
 62
7
  6
CONTINUOUS
 10
-32.6120770126
 20
42.2040858113
 11
-32.5528086905
 21
42.169865025
  0
LINE
  5
47B
100
AcDbEntity
  8
RACCORDO
100
AcDbLine
 62
7
  6
CONTINUOUS
 10
-4.3729034377
 20
26.5485147389
 11
-4.2501639277
 21
26.4776464842
  0
LINE
  5
47C
100
AcDbEntity
  8
ASSI
100
AcDbLine
 62
7
  6
CONTINUOUS
 10
-4.3729034377
 20
26.5485147389
 11
-4.2501639277
 21
26.4776464842
  0
LINE
  5
47D
100
AcDbEntity
  8
ASSI
100
AcDbLine
 62
253
  6
CONTINUOUS
 10
-4.0168458414
 20
26.3487540294
 11
-4.2136712849
 21
26.4623985737
  0
LINE
  5
47E
100
AcDbEntity
  8
RACCORDO
100
AcDbLine
 62
253
  6
CONTINUOUS
 10
-4.370399232
 20
26.7161538175
 11
-4.3546089177
 21
26.7070366879
  0
LINE
  5
47F
100
AcDbEntity
  8
ASSI
100
AcDbLine
 62
253
  6
CONTINUOUS
 10
-4.370399232
 20
26.7161538175
 11
-4.3546089177
 21
26.7070366879
  0
LWPOLYLINE
  5
480
100
AcDbEntity
  8
RACCORDO
100
AcDbPolyline
 62
7
  6
CONTINUOUS
 90
19
 70
0
 10
-39.4270439178
 20
45.9337875052
 10
-39.4150075287
 20
45.9263764156
 10
-39.4033330885
 20
45.9182405846
 10
-39.3920755479
 20
45.9093996804
 10
-39.3812844404
 20
45.8998747233
 10
-39.3710160781
 20
45.8896990674
 10
-39.361329744
 20
45.8789194151
 10
-39.3522754359
 20
45.8675848088
 10
-39.3438850283
 20
45.8557308837
 10
-39.3361838947
 20
45.8433871505
 10
-39.329211274
 20
45.8306112532
 10
-39.32298999
 20
45.8174421719
 10
-39.3175245886
 20
45.8038747747
 10
-39.3128336106
 20
45.789917547
 10
-39.3089604897
 20
45.7756585264
 10
-39.3059380263
 20
45.761204081
 10
-39.3037741763
 20
45.7465956648
 10
-39.3024766471
 20
45.7318847294
 10
-39.3020499579
 20
45.7172848062
  0
LWPOLYLINE
  5
481
100
AcDbEntity
  8
ASSI
100
AcDbPolyline
 62
7
  6
CONTINUOUS
 90
25
 70
0
 10
-4.2668578975
 20
26.3239834268
 10
-4.2748644949
 20
26.3289116748
 10
-4.282619679
 20
26.3343097933
 10
-4.2900945935
 20
26.3401643894
 10
-4.2972964994
 20
26.3464836441
 10
-4.3042181357
 20
26.3532593763
 10
-4.3108236801
 20
26.3604622036
 10
-4.3171101926
 20
26.3680965565
 10
-4.3230806132
 20
26.3761580045
 10
-4.3287079387
 20
26.3846038735
 10
-4.3339850095
 20
26.3934261739
 10
-4.3389189853
 20
26.4026328954
 10
-4.3435043411
 20
26.4122053329
 10
-4.3477419268
 20
26.4221416948
 10
-4.3516308925
 20
26.4324437727
 10
-4.3551631636
 20
26.4430982357
 10
-4.3583413313
 20
26.4541176328
 10
-4.3611628045
 20
26.4654894149
 10
-4.3636117347
 20
26.4771626048
 10
-4.3656847277
 20
26.4891415981
 10
-4.3673851778
 20
26.5014219991
 10
-4.3687074198
 20
26.5139396433
 10
-4.3696495652
 20
26.5266731426
 10
-4.3702135027
 20
26.5396438853
 10
-4.370399232
 20
26.5528518711
  0
LWPOLYLINE
  5
482
100
AcDbEntity
  8
0
100
AcDbPolyline
 62
7
  6
CONTINUOUS
 90
9
 70
0
 10
-8.1534203797
 20
17.5918795754
 10
-8.1105829565
 20
17.5230917098
 10
-8.069688884
 20
17.4522613023
 10
-8.0313886319
 20
17.3804929707
 10
-7.9957519111
 20
17.3078596832
 10
-7.9627090107
 20
17.2342884716
 10
-7.9325382436
 20
17.160403268
 10
-7.9052387897
 20
17.0861286789
 10
-7.8808114691
 20
17.0115400978
  0
LINE
  5
483
100
AcDbEntity
  8
RACCORDO
100
AcDbLine
 62
7
  6
CONTINUOUS
 10
-22.3116755724
 20
38.9104572244
 11
-21.0283378212
 21
36.6876510383
  0
LINE
  5
484
100
AcDbEntity
  8
0
100
AcDbLine
 62
253
  6
CONTINUOUS
 10
-7.7291564426
 20
14.4893555755
 11
-7.8089253953
 21
14.6275194542
  0
LINE
  5
485
100
AcDbEntity
  8
0
100
AcDbLine
 62
253
  6
CONTINUOUS
 10
-7.5226488667
 20
14.6085674164
 11
-7.7998671207
 21
15.0887235168
  0
LINE
  5
486
100
AcDbEntity
  8
RACCORDO
100
AcDbLine
 62
253
  6
CONTINUOUS
 10
-13.3556806062
 20
48.0177821147
 11
-13.3566028635
 21
48.1628449228
  0
LINE
  5
487
100
AcDbEntity
  8
ASSI
100
AcDbLine
 62
253
  6
CONTINUOUS
 10
-13.3556806062
 20
48.0177821147
 11
-13.3566028635
 21
48.1628449228
  0
LINE
  5
488
100
AcDbEntity
  8
RACCORDO
100
AcDbLine
 62
253
  6
CONTINUOUS
 10
-13.3566028635
 20
48.1628449228
 11
-13.3572799269
 21
48.3153918265
  0
LINE
  5
489
100
AcDbEntity
  8
ASSI
100
AcDbLine
 62
253
  6
CONTINUOUS
 10
-13.3566028635
 20
48.1628449228
 11
-13.3572799269
 21
48.3153918265
  0
LINE
  5
48A
100
AcDbEntity
  8
RACCORDO
100
AcDbLine
 62
253
  6
CONTINUOUS
 10
-13.3572799269
 20
48.3153918265
 11
-13.3575317839
 21
48.4348612644
  0
LINE
  5
48B
100
AcDbEntity
  8
ASSI
100
AcDbLine
 62
253
  6
CONTINUOUS
 10
-13.3572799269
 20
48.3153918265
 11
-13.3575317839
 21
48.4348612644
  0
LINE
  5
48C
100
AcDbEntity
  8
RACCORDO
100
AcDbLine
 62
253
  6
CONTINUOUS
 10
-13.7092339968
 20
48.1019211654
 11
-13.7092339968
 21
47.3759506132
  0
LINE
  5
48D
100
AcDbEntity
  8
ASSI
100
AcDbLine
 62
253
  6
CONTINUOUS
 10
-13.7092339968
 20
48.1019211654
 11
-13.7092339968
 21
47.3759506132
  0
LINE
  5
48E
100
AcDbEntity
  8
RACCORDO
100
AcDbLine
 62
253
  6
CONTINUOUS
 10
-13.3556806062
 20
48.0177821147
 11
-13.3556806062
 21
47.2913941763
  0
LINE
  5
48F
100
AcDbEntity
  8
ASSI
100
AcDbLine
 62
253
  6
CONTINUOUS
 10
-13.3556806062
 20
48.0177821147
 11
-13.3556806062
 21
47.2913941763
  0
LINE
  5
490
100
AcDbEntity
  8
0
100
AcDbLine
 62
7
  6
CONTINUOUS
 10
-18.8221690934
 20
8.085098141
 11
-18.8309678781
 21
8.0629399831
  0
LINE
  5
491
100
AcDbEntity
  8
DRAFT
100
AcDbLine
 62
7
  6
CONTINUOUS
 10
1.1450336613
 20
31.9011346244
 11
-2.1844121192
 21
29.9449062537
  0
LINE
  5
492
100
AcDbEntity
  8
ASSI
100
AcDbLine
 62
7
  6
CONTINUOUS
 10
1.1450336613
 20
31.9011346244
 11
-2.1844121192
 21
29.9449062537
  0
LINE
  5
493
100
AcDbEntity
  8
ASSI
100
AcDbLine
 62
7
  6
CONTINUOUS
 10
1.9935617987
 20
29.8190880727
 11
-4.0168458414
 21
26.3487540294
  0
LINE
  5
494
100
AcDbEntity
  8
RACCORDO
100
AcDbLine
 62
253
  6
CONTINUOUS
 10
2.8513380996
 20
32.1407596068
 11
-1.606646954
 21
29.6113118884
  0
LINE
  5
495
100
AcDbEntity
  8
ASSI
100
AcDbLine
 62
253
  6
CONTINUOUS
 10
2.8513380996
 20
32.1407596068
 11
-1.606646954
 21
29.6113118884
  0
LINE
  5
496
100
AcDbEntity
  8
RACCORDO
100
AcDbLine
 62
253
  6
CONTINUOUS
 10
3.0634782116
 20
31.7733314818
 11
-1.3963741748
 21
29.2428242443
  0
LINE
  5
497
100
AcDbEntity
  8
ASSI
100
AcDbLine
 62
253
  6
CONTINUOUS
 10
3.0634782116
 20
31.7733314818
 11
-1.3963741748
 21
29.2428242443
  0
LINE
  5
498
100
AcDbEntity
  8
RACCORDO
100
AcDbLine
 62
7
  6
CONTINUOUS
 10
1.9935617987
 20
29.9007351004
 11
-3.9979701134
 21
26.501157367
  0
LINE
  5
499
100
AcDbEntity
  8
ASSI
100
AcDbLine
 62
7
  6
CONTINUOUS
 10
1.9935617987
 20
29.9007351004
 11
-3.9979701134
 21
26.501157367
  0
LWPOLYLINE
  5
49A
100
AcDbEntity
  8
ASSI
100
AcDbPolyline
 62
7
  6
CONTINUOUS
 90
25
 70
0
 10
-4.0168458414
 20
26.3487540294
 10
-4.02837697
 20
26.3423105346
 10
-4.0398917569
 20
26.3363131349
 10
-4.0513902021
 20
26.3307618303
 10
-4.0628918161
 20
26.325647552
 10
-4.0743770884
 20
26.3209793689
 10
-4.0857874876
 20
26.3167844876
 10
-4.0971207484
 20
26.3130680834
 10
-4.1083791361
 20
26.3098249811
 10
-4.1195109145
 20
26.3070668614
 10
-4.1305040116
 20
26.3047977006
 10
-4.1413704995
 20
26.3030135224
 10
-4.1520948588
 20
26.3017140791
 10
-4.1626783472
 20
26.3008977467
 10
-4.1731197069
 20
26.3005661491
 10
-4.1833996456
 20
26.3007239101
 10
-4.1935285974
 20
26.3013732766
 10
-4.2034961281
 20
26.3025120017
 10
-4.2132516428
 20
26.3041379686
 10
-4.2227926514
 20
26.3062559065
 10
-4.2321216441
 20
26.3088610863
 10
-4.2411954958
 20
26.3119372032
 10
-4.250003528
 20
26.3154820294
 10
-4.2585564194
 20
26.3194977929
 10
-4.2668578975
 20
26.3239834268
  0
LWPOLYLINE
  5
49B
100
AcDbEntity
  8
RACCORDO
100
AcDbPolyline
 62
253
  6
CONTINUOUS
 90
45
 70
0
 10
-1.3963741748
 20
29.2428242443
 10
-1.5200741264
 20
29.1778012146
 10
-1.6419146291
 20
29.1234174935
 10
-1.7618956827
 20
29.0796730812
 10
-1.8806133049
 20
29.0464851295
 10
-1.9974714781
 20
29.0239364866
 10
-2.1106821496
 20
29.0122756965
 10
-2.2201271609
 20
29.0116722684
 10
-2.3259246705
 20
29.0219566932
 10
-2.4266411003
 20
29.0428689881
 10
-2.5222039713
 20
29.0745370524
 10
-2.6126857625
 20
29.1168329868
 10
-2.6968703332
 20
29.1691131109
 10
-2.7746803384
 20
29.2314938623
 10
-2.8461931231
 20
29.3038588033
 10
-2.9104245817
 20
29.3852149409
 10
-2.96729248
 20
29.4756950334
 10
-3.0168790522
 20
29.5751663224
 10
-3.0584468941
 20
29.6822375398
 10
-3.0918839924
 20
29.7970304466
 10
-3.1173023604
 20
29.9194232819
 10
-3.134300634
 20
30.047659495
 10
-3.1427450262
 20
30.1818632841
 10
-3.1427693238
 20
30.321910451
 10
-3.1343735239
 20
30.4656718515
 10
-3.1174241742
 20
30.6131742
 10
-3.0920547269
 20
30.7643907821
 10
-3.0586655348
 20
30.9171123096
 10
-3.0171450487
 20
31.0713441991
 10
-2.9676048177
 20
31.2270810341
 10
-2.9107798419
 20
31.3820972759
 10
-2.8465884947
 20
31.5363534989
 10
-2.7751124027
 20
31.6898891287
 10
-2.6973314446
 20
31.8405969042
 10
-2.613167229
 20
31.9884503106
 10
-2.5226981475
 20
32.1334758626
 10
-2.4271392536
 20
32.2736458425
 10
-2.3264173918
 20
32.4089152697
 10
-2.2206057178
 20
32.5393291247
 10
-2.1111387514
 20
32.6629946323
 10
-1.9979046911
 20
32.7798719126
 10
-1.8810153385
 20
32.8900008453
 10
-1.7622406181
 20
32.9916082942
 10
-1.6421705047
 20
33.0841032136
 10
-1.5202150236
 20
33.1680766491
  0
LWPOLYLINE
  5
49C
100
AcDbEntity
  8
ASSI
100
AcDbPolyline
 62
253
  6
CONTINUOUS
 90
45
 70
0
 10
-1.3963741748
 20
29.2428242443
 10
-1.5200741264
 20
29.1778012146
 10
-1.6419146291
 20
29.1234174935
 10
-1.7618956827
 20
29.0796730812
 10
-1.8806133049
 20
29.0464851295
 10
-1.9974714781
 20
29.0239364866
 10
-2.1106821496
 20
29.0122756965
 10
-2.2201271609
 20
29.0116722684
 10
-2.3259246705
 20
29.0219566932
 10
-2.4266411003
 20
29.0428689881
 10
-2.5222039713
 20
29.0745370524
 10
-2.6126857625
 20
29.1168329868
 10
-2.6968703332
 20
29.1691131109
 10
-2.7746803384
 20
29.2314938623
 10
-2.8461931231
 20
29.3038588033
 10
-2.9104245817
 20
29.3852149409
 10
-2.96729248
 20
29.4756950334
 10
-3.0168790522
 20
29.5751663224
 10
-3.0584468941
 20
29.6822375398
 10
-3.0918839924
 20
29.7970304466
 10
-3.1173023604
 20
29.9194232819
 10
-3.134300634
 20
30.047659495
 10
-3.1427450262
 20
30.1818632841
 10
-3.1427693238
 20
30.321910451
 10
-3.1343735239
 20
30.4656718515
 10
-3.1174241742
 20
30.6131742
 10
-3.0920547269
 20
30.7643907821
 10
-3.0586655348
 20
30.9171123096
 10
-3.0171450487
 20
31.0713441991
 10
-2.9676048177
 20
31.2270810341
 10
-2.9107798419
 20
31.3820972759
 10
-2.8465884947
 20
31.5363534989
 10
-2.7751124027
 20
31.6898891287
 10
-2.6973314446
 20
31.8405969042
 10
-2.613167229
 20
31.9884503106
 10
-2.5226981475
 20
32.1334758626
 10
-2.4271392536
 20
32.2736458425
 10
-2.3264173918
 20
32.4089152697
 10
-2.2206057178
 20
32.5393291247
 10
-2.1111387514
 20
32.6629946323
 10
-1.9979046911
 20
32.7798719126
 10
-1.8810153385
 20
32.8900008453
 10
-1.7622406181
 20
32.9916082942
 10
-1.6421705047
 20
33.0841032136
 10
-1.5202150236
 20
33.1680766491
  0
LINE
  5
49D
100
AcDbEntity
  8
ASSI
100
AcDbLine
 62
7
  6
CONTINUOUS
 10
-2.1221911616
 20
38.237371056
 11
-2.2248915271
 21
38.2342413907
  0
LINE
  5
49E
100
AcDbEntity
  8
0
100
AcDbLine
 62
7
  6
CONTINUOUS
 10
-31.4525889514
 20
36.1715580244
 11
-30.4626394578
 21
36.2015106002
  0
LINE
  5
49F
100
AcDbEntity
  8
ASSI
100
AcDbLine
 62
7
  6
CONTINUOUS
 10
-30.4626394578
 20
36.2015106002
 11
-31.4525889514
 21
36.1715580244
  0
LWPOLYLINE
  5
4A0
100
AcDbEntity
  8
ASSI
100
AcDbPolyline
 62
7
  6
CONTINUOUS
 90
3
 70
0
 10
-1.9934417956
 20
34.1394629685
 10
-2.0238169107
 20
34.1461339236
 10
-2.1221911616
 20
34.1550196721
  0
LWPOLYLINE
  5
4A1
100
AcDbEntity
  8
RACCORDO
100
AcDbPolyline
 62
253
  6
CONTINUOUS
 90
6
 70
0
 10
-30.2208670228
 20
43.2460755628
 10
-30.2282511086
 20
43.2496474931
 10
-30.2480382436
 20
43.2545723086
 10
-30.2699344304
 20
43.2540658577
 10
-30.2932890993
 20
43.248143472
 10
-30.3174082528
 20
43.2369813674
  0
LWPOLYLINE
  5
4A2
100
AcDbEntity
  8
0
100
AcDbPolyline
 62
7
  6
CONTINUOUS
 90
40
 70
0
 10
-30.8161928483
 20
43.7799643802
 10
-30.8453192687
 20
43.7961107044
 10
-30.8754451766
 20
43.8115209296
 10
-30.906570572
 20
43.8261950556
 10
-30.9387491519
 20
43.840154518
 10
-30.9719272193
 20
43.8533778812
 10
-31.0059436835
 20
43.8658008391
 10
-31.040802645
 20
43.8774194853
 10
-31.0765000033
 20
43.8882377261
 10
-31.1128623664
 20
43.8982029733
 10
-31.1498926392
 20
43.9073110254
 10
-31.1875879167
 20
43.9155660839
 10
-31.2257660922
 20
43.9229281648
 10
-31.2644299776
 20
43.9293930198
 10
-31.3035767608
 20
43.9349648971
 10
-31.3430158994
 20
43.9396165573
 10
-31.3827487154
 20
43.9433434743
 10
-31.4227738868
 20
43.9461501741
 10
-31.4628969037
 20
43.9480229954
 10
-31.5031181578
 20
43.9489573829
 10
-31.5434372574
 20
43.9489578919
 10
-31.5836585188
 20
43.9480245265
 10
-31.6237814655
 20
43.9461527467
 10
-31.6638065739
 20
43.9433470926
 10
-31.7035395897
 20
43.9396211888
 10
-31.7429790919
 20
43.9349705614
 10
-31.7821265014
 20
43.9293996842
 10
-31.8207918269
 20
43.922935603
 10
-31.8589727236
 20
43.9155739756
 10
-31.8966715363
 20
43.9073191443
 10
-31.9337053076
 20
43.8982111812
 10
-31.9700708034
 20
43.8882459392
 10
-32.0057712578
 20
43.8774275654
 10
-32.040633416
 20
43.8658085739
 10
-32.0746532012
 20
43.8533850729
 10
-32.1078346902
 20
43.8401609541
 10
-32.1400168581
 20
43.8262004065
 10
-32.17114603
 20
43.8115248265
 10
-32.2012758809
 20
43.7961128177
 10
-32.2304064107
 20
43.7799643802
  0
LWPOLYLINE
  5
4A3
100
AcDbEntity
  8
RACCORDO
100
AcDbPolyline
 62
7
  6
CONTINUOUS
 90
3
 70
0
 10
-30.2199533376
 20
43.2455358163
 10
-30.2422214092
 20
43.25792726
 10
-30.3270413663
 20
43.2977157139
  0
LINE
  5
4A4
100
AcDbEntity
  8
RACCORDO
100
AcDbLine
 62
7
  6
CONTINUOUS
 10
-31.5677758169
 20
42.9298575082
 11
-29.1561091792
 21
41.5373914169
  0
LINE
  5
4A5
100
AcDbEntity
  8
RACCORDO
100
AcDbLine
 62
7
  6
CONTINUOUS
 10
-31.3111940863
 20
43.0859455804
 11
-28.8911092147
 21
41.6886189022
  0
LINE
  5
4A6
100
AcDbEntity
  8
ASSI
100
AcDbLine
 62
7
  6
CONTINUOUS
 10
-30.8161928483
 20
43.7799643802
 11
-28.0376445702
 21
42.1756654277
  0
LINE
  5
4A7
100
AcDbEntity
  8
0
100
AcDbLine
 62
7
  6
CONTINUOUS
 10
-31.1697462389
 20
43.9841016768
 11
-31.5232996295
 21
44.1882389735
  0
LINE
  5
4A8
100
AcDbEntity
  8
DRAFT
100
AcDbLine
 62
7
  6
CONTINUOUS
 10
-22.3309114741
 20
38.921563793
 11
-22.3116755724
 21
38.9104572244
  0
LINE
  5
4A9
100
AcDbEntity
  8
DRAFT
100
AcDbLine
 62
7
  6
CONTINUOUS
 10
-31.5232996295
 20
44.7091790473
 11
-31.1697462389
 21
44.5050417507
  0
LINE
  5
4AA
100
AcDbEntity
  8
DRAFT
100
AcDbLine
 62
7
  6
CONTINUOUS
 10
-22.0585579677
 20
39.5808594784
 11
-21.6238046929
 21
39.3298383863
  0
LINE
  5
4AB
100
AcDbEntity
  8
0
100
AcDbLine
 62
7
  6
CONTINUOUS
 10
-26.6316811985
 20
42.9780063092
 11
-29.7719617324
 21
44.7911649325
  0
LWPOLYLINE
  5
4AC
100
AcDbEntity
  8
RACCORDO
100
AcDbPolyline
 62
253
  6
CONTINUOUS
 90
3
 70
0
 10
-29.9266524635
 20
43.0113569117
 10
-29.6683723355
 20
42.86224098
 10
-29.2943708703
 20
42.6462963783
  0
LINE
  5
4AD
100
AcDbEntity
  8
RACCORDO
100
AcDbLine
 62
7
  6
CONTINUOUS
 10
-28.2033044165
 20
42.081128351
 11
-28.8813550546
 21
42.4726416112
  0
LINE
  5
4AE
100
AcDbEntity
  8
RACCORDO
100
AcDbLine
 62
7
  6
CONTINUOUS
 10
-28.8813550546
 20
42.4726416112
 11
-30.2208670228
 21
43.2460755628
  0
LINE
  5
4AF
100
AcDbEntity
  8
RACCORDO
100
AcDbLine
 62
253
  6
CONTINUOUS
 10
-30.3174082529
 20
43.2369813656
 11
-29.9266524635
 21
43.0113569117
  0
LWPOLYLINE
  5
4B0
100
AcDbEntity
  8
RACCORDO
100
AcDbPolyline
 62
253
  6
CONTINUOUS
 90
4
 70
0
 10
-29.2943708703
 20
42.6462963783
 10
-28.6036208571
 20
42.2474567364
 10
-28.5162290599
 20
42.196955724
 10
-28.2597811009
 20
42.048898811
  0
LINE
  5
4B1
100
AcDbEntity
  8
0
100
AcDbLine
 62
253
  6
CONTINUOUS
 10
0.0039242554
 20
19.0063732971
 11
-0.3752459183
 21
19.4245460693
  0
LWPOLYLINE
  5
4B2
100
AcDbEntity
  8
RACCORDO
100
AcDbPolyline
 62
253
  6
CONTINUOUS
 90
13
 70
0
 10
-10.7254144079
 20
48.113046505
 10
-10.7274569148
 20
48.1459342374
 10
-10.7330620764
 20
48.1803729678
 10
-10.7421339594
 20
48.2157734655
 10
-10.7545173251
 20
48.2515300667
 10
-10.7700002735
 20
48.2870309989
 10
-10.7883178598
 20
48.3216688493
 10
-10.8091566546
 20
48.3548510154
 10
-10.8321601094
 20
48.3860098267
 10
-10.8569346347
 20
48.4146122216
 10
-10.8830563553
 20
48.4401688977
 10
-10.9100783656
 20
48.4622426779
 10
-10.9375383649
 20
48.4804559757
  0
LWPOLYLINE
  5
4B3
100
AcDbEntity
  8
ASSI
100
AcDbPolyline
 62
253
  6
CONTINUOUS
 90
13
 70
0
 10
-10.7254144079
 20
48.113046505
 10
-10.7274569148
 20
48.1459342374
 10
-10.7330620764
 20
48.1803729678
 10
-10.7421339594
 20
48.2157734655
 10
-10.7545173251
 20
48.2515300667
 10
-10.7700002735
 20
48.2870309989
 10
-10.7883178598
 20
48.3216688493
 10
-10.8091566546
 20
48.3548510154
 10
-10.8321601094
 20
48.3860098267
 10
-10.8569346347
 20
48.4146122216
 10
-10.8830563553
 20
48.4401688977
 10
-10.9100783656
 20
48.4622426779
 10
-10.9375383649
 20
48.4804559757
  0
LINE
  5
4B4
100
AcDbEntity
  8
RACCORDO
100
AcDbLine
 62
253
  6
CONTINUOUS
 10
-11.07586904
 20
48.0292684828
 11
-11.0767913464
 21
48.1743288779
  0
LINE
  5
4B5
100
AcDbEntity
  8
ASSI
100
AcDbLine
 62
253
  6
CONTINUOUS
 10
-11.07586904
 20
48.0292684828
 11
-11.0767913464
 21
48.1743288779
  0
LINE
  5
4B6
100
AcDbEntity
  8
RACCORDO
100
AcDbLine
 62
253
  6
CONTINUOUS
 10
-11.0767913464
 20
48.1743288779
 11
-11.0774684161
 21
48.3268757988
  0
LINE
  5
4B7
100
AcDbEntity
  8
ASSI
100
AcDbLine
 62
253
  6
CONTINUOUS
 10
-11.0767913464
 20
48.1743288779
 11
-11.0774684161
 21
48.3268757988
  0
LINE
  5
4B8
100
AcDbEntity
  8
RACCORDO
100
AcDbLine
 62
253
  6
CONTINUOUS
 10
-11.0774684161
 20
48.3268757988
 11
-11.0777202178
 21
48.4463476326
  0
LINE
  5
4B9
100
AcDbEntity
  8
ASSI
100
AcDbLine
 62
253
  6
CONTINUOUS
 10
-11.0774684161
 20
48.3268757988
 11
-11.0777202178
 21
48.4463476326
  0
LINE
  5
4BA
100
AcDbEntity
  8
0
100
AcDbLine
 62
7
  6
CONTINUOUS
 10
-11.2646903485
 20
12.6880602279
 11
-11.2646903485
 21
15.7954712888
  0
LINE
  5
4BB
100
AcDbEntity
  8
RACCORDO
100
AcDbLine
 62
253
  6
CONTINUOUS
 10
-11.07586904
 20
47.2913941763
 11
-11.07586904
 21
48.0292684828
  0
LINE
  5
4BC
100
AcDbEntity
  8
ASSI
100
AcDbLine
 62
253
  6
CONTINUOUS
 10
-11.07586904
 20
47.2913941763
 11
-11.07586904
 21
48.0292684828
  0
LINE
  5
4BD
100
AcDbEntity
  8
RACCORDO
100
AcDbLine
 62
253
  6
CONTINUOUS
 10
-10.7254144079
 20
47.3741769747
 11
-10.7254144079
 21
48.113046505
  0
LINE
  5
4BE
100
AcDbEntity
  8
ASSI
100
AcDbLine
 62
253
  6
CONTINUOUS
 10
-10.7254144079
 20
47.3741769747
 11
-10.7254144079
 21
48.113046505
  0
LINE
  5
4BF
100
AcDbEntity
  8
RACCORDO
100
AcDbLine
 62
7
  6
CONTINUOUS
 10
-9.304356386
 20
48.2803513502
 11
-9.304356386
 21
48.1804811521
  0
LINE
  5
4C0
100
AcDbEntity
  8
ASSI
100
AcDbLine
 62
7
  6
CONTINUOUS
 10
-9.304356386
 20
48.2803513502
 11
-9.304356386
 21
48.1804811521
  0
LWPOLYLINE
  5
4C1
100
AcDbEntity
  8
0
100
AcDbPolyline
 62
7
  6
CONTINUOUS
 90
11
 70
0
 10
-15.2789270218
 20
10.1458827376
 10
-15.2954339721
 20
10.1043129497
 10
-15.3139676094
 20
10.0650121264
 10
-15.3345279759
 20
10.0280197772
 10
-15.3571150293
 20
9.9932963927
 10
-15.38160129
 20
9.9610402368
 10
-15.4080197896
 20
9.9312447662
 10
-15.4363374965
 20
9.9039165242
 10
-15.4663278358
 20
9.8792734054
 10
-15.4979764725
 20
9.8573527176
 10
-15.5144056356
 20
9.8474122234
  0
LWPOLYLINE
  5
4C2
100
AcDbEntity
  8
0
100
AcDbPolyline
 62
7
  6
CONTINUOUS
 90
10
 70
0
 10
-18.8309678781
 20
8.0629399831
 10
-18.8495015153
 20
8.0236391597
 10
-18.8700618818
 20
7.9866468106
 10
-18.8926489353
 20
7.951923426
 10
-18.9171351959
 20
7.9196672701
 10
-18.9435536956
 20
7.8898717995
 10
-18.9718714025
 20
7.8625435576
 10
-19.0018617418
 20
7.8379004387
 10
-19.0335103784
 20
7.815979751
 10
-19.0499395416
 20
7.8060392567
  0
LWPOLYLINE
  5
4C3
100
AcDbEntity
  8
0
100
AcDbPolyline
 62
7
  6
CONTINUOUS
 90
16
 70
0
 10
-18.7344054461
 20
8.1870965739
 10
-18.7286644549
 20
8.1989186795
 10
-18.7233065043
 20
8.2111198116
 10
-18.7183315941
 20
8.2236999701
 10
-18.7137362496
 20
8.236670085
 10
-18.7095239456
 20
8.2500192264
 10
-18.7057051063
 20
8.2637146044
 10
-18.7022807514
 20
8.2777569385
 10
-18.6992498611
 20
8.2921455093
 10
-18.6966198006
 20
8.3068453673
 10
-18.6943915449
 20
8.3218572574
 10
-18.6925641189
 20
8.3371804348
 10
-18.6911419625
 20
8.352777716
 10
-18.6901265557
 20
8.3686367063
 10
-18.6895164185
 20
8.3847698003
 10
-18.689311551
 20
8.401176998
  0
LINE
  5
4C4
100
AcDbEntity
  8
RACCORDO
100
AcDbLine
 62
7
  6
CONTINUOUS
 10
-27.9948367914
 20
9.2464390634
 11
-27.8492220071
 21
9.3469849469
  0
LINE
  5
4C5
100
AcDbEntity
  8
ASSI
100
AcDbLine
 62
7
  6
CONTINUOUS
 10
-27.9948367914
 20
9.2464390634
 11
-27.8492220071
 21
9.3469849469
  0
LINE
  5
4C6
100
AcDbEntity
  8
0
100
AcDbLine
 62
7
  6
CONTINUOUS
 10
-25.4775366504
 20
10.6794067478
 11
-26.9164354023
 21
9.8486073968
  0
LINE
  5
4C7
100
AcDbEntity
  8
0
100
AcDbLine
 62
7
  6
CONTINUOUS
 10
-27.9956094663
 20
9.2682625087
 11
-26.9164354023
 21
9.8486073968
  0
LINE
  5
4C8
100
AcDbEntity
  8
CURVE
100
AcDbLine
 62
253
  6
CONTINUOUS
 10
-42.2951953403
 20
6.125683809
 11
-42.2888664469
 21
6.1280136806
  0
LINE
  5
4C9
100
AcDbEntity
  8
CURVE
100
AcDbLine
 62
253
  6
CONTINUOUS
 10
-42.5219015775
 20
6.5679722521
 11
-42.5282368874
 21
6.5656482106
  0
LINE
  5
4CA
100
AcDbEntity
  8
RACCORDO
100
AcDbLine
 62
7
  6
CONTINUOUS
 10
-31.8083562071
 20
39.4531734273
 11
-31.892298235
 21
39.434171063
  0
LWPOLYLINE
  5
4CB
100
AcDbEntity
  8
RACCORDO
100
AcDbPolyline
 62
7
  6
CONTINUOUS
 90
3
 70
0
 10
-31.892298235
 20
39.434171063
 10
-31.9181661705
 20
39.428433051
 10
-31.9306853852
 20
39.4257109324
  0
LINE
  5
4CC
100
AcDbEntity
  8
RACCORDO
100
AcDbLine
 62
7
  6
CONTINUOUS
 10
-31.7783484615
 20
39.4598145573
 11
-31.8083562071
 21
39.4531734273
  0
LWPOLYLINE
  5
4CD
100
AcDbEntity
  8
RACCORDO
100
AcDbPolyline
 62
7
  6
CONTINUOUS
 90
8
 70
0
 10
-31.9306853852
 20
39.4257109324
 10
-31.954881119
 20
39.4206251974
 10
-31.9665442375
 20
39.4182659723
 10
-31.97791902
 20
39.4160511283
 10
-31.9889856224
 20
39.4139717006
 10
-31.9997385768
 20
39.41203435
 10
-32.0101880093
 20
39.410260925
 10
-32.0203372732
 20
39.408664562
  0
LWPOLYLINE
  5
4CE
100
AcDbEntity
  8
ASSI
100
AcDbPolyline
 62
7
  6
CONTINUOUS
 90
6
 70
0
 10
-2.2248915271
 20
42.3165927746
 10
-2.3318357936
 20
42.301676036
 10
-2.4409655162
 20
42.275259339
 10
-2.5515945463
 20
42.2374383886
 10
-2.6644090323
 20
42.1881174799
 10
-2.7794089743
 20
42.1272966127
  0
LWPOLYLINE
  5
4CF
100
AcDbEntity
  8
RACCORDO
100
AcDbPolyline
 62
7
  6
CONTINUOUS
 90
11
 70
0
 10
-31.5975148933
 20
39.4901832556
 10
-31.6148095613
 20
39.4885604436
 10
-31.6320039595
 20
39.4865204217
 10
-31.6490622973
 20
39.4841496061
 10
-31.6659531307
 20
39.481558573
 10
-31.6826573935
 20
39.4788000591
 10
-31.6991642134
 20
39.4758568041
 10
-31.7154576203
 20
39.4727807592
 10
-31.7315274133
 20
39.4696354411
 10
-31.7473705671
 20
39.4663990738
 10
-31.7783484615
 20
39.4598145573
  0
LINE
  5
4D0
100
AcDbEntity
  8
0
100
AcDbLine
 62
7
  6
CONTINUOUS
 10
-39.3721849007
 20
40.7442334697
 11
-38.382235407
 21
40.7741860455
  0
LINE
  5
4D1
100
AcDbEntity
  8
ASSI
100
AcDbLine
 62
7
  6
CONTINUOUS
 10
-38.382235407
 20
40.7741860455
 11
-39.3721849007
 21
40.7442334697
  0
LINE
  5
4D2
100
AcDbEntity
  8
0
100
AcDbLine
 62
7
  6
CONTINUOUS
 10
-39.3014742226
 20
40.8150135048
 11
-38.4529460852
 21
40.8150135048
  0
LWPOLYLINE
  5
4D3
100
AcDbEntity
  8
RACCORDO
100
AcDbPolyline
 62
7
  6
CONTINUOUS
 90
9
 70
0
 10
-41.7024643522
 20
43.9194316439
 10
-41.7158661684
 20
43.9210315995
 10
-41.7292170659
 20
43.9233636015
 10
-41.7424632875
 20
43.9264264265
 10
-41.7555677539
 20
43.9302189878
 10
-41.7684537029
 20
43.9347237276
 10
-41.7810182486
 20
43.9399000753
 10
-41.7932044622
 20
43.9457114083
 10
-41.8046102982
 20
43.9519121429
  0
LWPOLYLINE
  5
4D4
100
AcDbEntity
  8
RACCORDO
100
AcDbPolyline
 62
7
  6
CONTINUOUS
 90
7
 70
0
 10
-31.37154725
 20
43.100207811
 10
-31.4279238555
 20
43.1091302482
 10
-31.4795643876
 20
43.1124138017
 10
-31.5249567612
 20
43.1103746944
 10
-31.5641246078
 20
43.1025150001
 10
-31.5986508976
 20
43.0875477546
 10
-31.6029860817
 20
43.0849563462
  0
LINE
  5
4D5
100
AcDbEntity
  8
RACCORDO
100
AcDbLine
 62
7
  6
CONTINUOUS
 10
-31.3112214431
 20
43.0859286626
 11
-31.37154725
 21
43.100207811
  0
LWPOLYLINE
  5
4D6
100
AcDbEntity
  8
RACCORDO
100
AcDbPolyline
 62
7
  6
CONTINUOUS
 90
8
 70
0
 10
-30.4195647494
 20
43.3302431392
 10
-30.5193700808
 20
43.3552119311
 10
-30.6253169097
 20
43.3720612535
 10
-30.7352862079
 20
43.3802190449
 10
-30.8481630113
 20
43.3793438982
 10
-30.962562975
 20
43.3690393928
 10
-31.0758403028
 20
43.3491646602
 10
-31.1872181214
 20
43.3194342124
  0
LWPOLYLINE
  5
4D7
100
AcDbEntity
  8
RACCORDO
100
AcDbPolyline
 62
7
  6
CONTINUOUS
 90
3
 70
0
 10
-31.6855210089
 20
42.9755265749
 10
-31.627562418
 20
42.9583523028
 10
-31.5656133203
 20
42.9286089098
  0
LWPOLYLINE
  5
4D8
100
AcDbEntity
  8
ASSI
100
AcDbPolyline
 62
7
  6
CONTINUOUS
 90
15
 70
0
 10
-25.5101859746
 20
42.8910417961
 10
-25.5116054333
 20
42.8914947244
 10
-25.514121434
 20
42.8916040621
 10
-25.5174595948
 20
42.8912460116
 10
-25.5215739533
 20
42.8904385821
 10
-25.5264379274
 20
42.8892203956
 10
-25.5320104595
 20
42.8876120109
 10
-25.5382555884
 20
42.8856220524
 10
-25.5451750112
 20
42.8832725444
 10
-25.5527593837
 20
42.8805722977
 10
-25.5609660988
 20
42.8775400029
 10
-25.5697556977
 20
42.87421282
 10
-25.5790982494
 20
42.8705938495
 10
-25.5889614887
 20
42.8666991697
 10
-25.610064851
 20
42.8582629378
  0
LINE
  5
4D9
100
AcDbEntity
  8
RACCORDO
100
AcDbLine
 62
7
  6
CONTINUOUS
 10
-30.3270413663
 20
43.2977157139
 11
-30.4195647494
 21
43.3302431392
  0
LWPOLYLINE
  5
4DA
100
AcDbEntity
  8
RACCORDO
100
AcDbPolyline
 62
253
  6
CONTINUOUS
 90
6
 70
0
 10
-30.4118711177
 20
43.2808776543
 10
-30.3914361407
 20
43.27292488
 10
-30.3717582054
 20
43.2645515328
 10
-30.3528845128
 20
43.2557820499
 10
-30.3347678619
 20
43.2465919941
 10
-30.3174082529
 20
43.2369813656
  0
LWPOLYLINE
  5
4DB
100
AcDbEntity
  8
RACCORDO
100
AcDbPolyline
 62
7
  6
CONTINUOUS
 90
21
 70
0
 10
-28.6191131346
 20
45.7178868952
 10
-28.6270223169
 20
45.7223114088
 10
-28.6477190894
 20
45.7326117152
 10
-28.669211604
 20
45.7415110019
 10
-28.6914753483
 20
45.7490064022
 10
-28.7143711285
 20
45.7550507496
 10
-28.7378804148
 20
45.7596317541
 10
-28.7620217369
 20
45.7627617057
 10
-28.7867114902
 20
45.7644303065
 10
-28.8119729165
 20
45.7646318729
 10
-28.837782774
 20
45.7633720885
 10
-28.8639877328
 20
45.7606577067
 10
-28.8905716954
 20
45.7564834091
 10
-28.9175507595
 20
45.7508545139
 10
-28.9448198881
 20
45.74379373
 10
-28.9723940677
 20
45.7352911907
 10
-29.000258312
 20
45.7253567626
 10
-29.0282626251
 20
45.7140427541
 10
-29.0563570083
 20
45.7013666011
 10
-29.0845914603
 20
45.6873108677
 10
-29.1129659811
 20
45.6718755538
  0
LINE
  5
4DC
100
AcDbEntity
  8
RACCORDO
100
AcDbLine
 62
7
  6
CONTINUOUS
 10
-2.6890561052
 20
29.5090579927
 11
-2.6924233469
 21
29.5109905197
  0
LINE
  5
4DD
100
AcDbEntity
  8
ASSI
100
AcDbLine
 62
7
  6
CONTINUOUS
 10
-2.6891200249
 20
29.5090944565
 11
-2.6924233469
 21
29.5109905197
  0
LINE
  5
4DE
100
AcDbEntity
  8
ASSI
100
AcDbLine
 62
253
  6
CONTINUOUS
 10
-25.6831221354
 20
42.8241367151
 11
-26.2886525701
 21
43.173762399
  0
LINE
  5
4DF
100
AcDbEntity
  8
ASSI
100
AcDbLine
 62
253
  6
CONTINUOUS
 10
-31.2384000384
 20
46.0316845523
 11
-31.8439304731
 21
46.3813102362
  0
LINE
  5
4E0
100
AcDbEntity
  8
ASSI
100
AcDbLine
 62
7
  6
CONTINUOUS
 10
-25.5106714477
 20
42.8913219565
 11
-25.9654891103
 21
43.1539279747
  0
LINE
  5
4E1
100
AcDbEntity
  8
ASSI
100
AcDbLine
 62
7
  6
CONTINUOUS
 10
-31.0656525463
 20
46.0986984226
 11
-31.5204703836
 21
46.3613045417
  0
LINE
  5
4E2
100
AcDbEntity
  8
0
100
AcDbLine
 62
7
  6
CONTINUOUS
 10
-25.0994864424
 20
43.0922223827
 11
-28.4120297923
 21
45.0048433971
  0
LINE
  5
4E3
100
AcDbEntity
  8
RACCORDO
100
AcDbLine
 62
253
  6
CONTINUOUS
 10
-1.606646954
 20
29.6113118884
 11
-2.1844121192
 21
29.9449062537
  0
LINE
  5
4E4
100
AcDbEntity
  8
ASSI
100
AcDbLine
 62
253
  6
CONTINUOUS
 10
-1.606646954
 20
29.6113118884
 11
-2.1844121192
 21
29.9449062537
  0
LINE
  5
4E5
100
AcDbEntity
  8
RACCORDO
100
AcDbLine
 62
253
  6
CONTINUOUS
 10
-32.179931925
 20
47.4427032517
 11
-29.1129659811
 21
45.6718755538
  0
LINE
  5
4E6
100
AcDbEntity
  8
RACCORDO
100
AcDbLine
 62
253
  6
CONTINUOUS
 10
-24.870325294
 20
43.2222279938
 11
-21.80335935
 21
41.4514002959
  0
LINE
  5
4E7
100
AcDbEntity
  8
RACCORDO
100
AcDbLine
 62
7
  6
CONTINUOUS
 10
-31.8940884314
 20
47.6088151052
 11
-28.6191124134
 21
45.7178849974
  0
LINE
  5
4E8
100
AcDbEntity
  8
RACCORDO
100
AcDbLine
 62
7
  6
CONTINUOUS
 10
-24.3764717262
 20
43.2682374375
 11
-21.1014957082
 21
41.3773073297
  0
LINE
  5
4E9
100
AcDbEntity
  8
ASSI
100
AcDbLine
 62
7
  6
CONTINUOUS
 10
-2.6891900563
 20
29.5091376253
 11
-2.7435697911
 21
29.5445948441
  0
LWPOLYLINE
  5
4EA
100
AcDbEntity
  8
RACCORDO
100
AcDbPolyline
 62
7
  6
CONTINUOUS
 90
34
 70
0
 10
-2.6891261496
 20
29.5091011785
 10
-2.7451261493
 20
29.5457545508
 10
-2.8021065314
 20
29.5947490241
 10
-2.8534731797
 20
29.6520969608
 10
-2.8999430166
 20
29.7187059043
 10
-2.9412703246
 20
29.7947942306
 10
-2.9767227914
 20
29.8796227955
 10
-3.0058697917
 20
29.9726934183
 10
-3.0283642287
 20
30.0732621198
 10
-3.043949921
 20
30.1805345308
 10
-3.0524667047
 20
30.2939552303
 10
-3.053825855
 20
30.4124583079
 10
-3.0480268681
 20
30.5354475679
 10
-3.0349372837
 20
30.663377533
 10
-3.0143781253
 20
30.7960390335
 10
-2.9863529073
 20
30.932208162
 10
-2.9509027972
 20
31.070998586
 10
-2.9081266458
 20
31.211643185
 10
-2.8581886217
 20
31.3533296766
 10
-2.8013337813
 20
31.4951329593
 10
-2.7378491443
 20
31.6362312197
 10
-2.6680501582
 20
31.7758669272
 10
-2.5922975758
 20
31.9132435274
 10
-2.5109934096
 20
32.0476044741
 10
-2.4245884229
 20
32.1782158973
 10
-2.3335665251
 20
32.3043409376
 10
-2.2383970488
 20
32.4253465608
 10
-2.1396797013
 20
32.5405290319
 10
-2.0381632778
 20
32.6490888009
 10
-1.9344249145
 20
32.7505130469
 10
-1.8291211944
 20
32.8443005328
 10
-1.7232037264
 20
32.9297762471
 10
-1.6174670719
 20
33.0065389934
 10
-1.5125298445
 20
33.0744423057
  0
LWPOLYLINE
  5
4EB
100
AcDbEntity
  8
0
100
AcDbPolyline
 62
7
  6
CONTINUOUS
 90
8
 70
0
 10
-7.8808114691
 20
17.0115400978
 10
-7.8595370545
 20
16.9374876368
 10
-7.8414645452
 20
16.8640304539
 10
-7.8265449419
 20
16.7911093912
 10
-7.8149120203
 20
16.719397087
 10
-7.8066103722
 20
16.6491177541
 10
-7.8015954056
 20
16.5800471796
 10
-7.7998671207
 20
16.5121853637
  0
LINE
  5
4EC
100
AcDbEntity
  8
0
100
AcDbLine
 62
7
  6
CONTINUOUS
 10
-7.8705777988
 20
16.9759185081
 11
-7.8705777988
 21
17.7551893368
  0
LINE
  5
4ED
100
AcDbEntity
  8
ASSI
100
AcDbLine
 62
7
  6
CONTINUOUS
 10
-7.7998671207
 20
16.5121853637
 11
-7.7998671207
 21
14.7751241179
  0
LINE
  5
4EE
100
AcDbEntity
  8
0
100
AcDbLine
 62
7
  6
CONTINUOUS
 10
-7.375603052
 20
14.9335704912
 11
-7.375603052
 21
18.0409815521
  0
LWPOLYLINE
  5
4EF
100
AcDbEntity
  8
0
100
AcDbPolyline
 62
7
  6
CONTINUOUS
 90
8
 70
0
 10
-7.7998671207
 20
14.7751241179
 10
-7.8010123935
 20
14.7211758733
 10
-7.8043719431
 20
14.6688845138
 10
-7.8099457694
 20
14.6182500394
 10
-7.8177539514
 20
14.5691740213
 10
-7.8277764102
 20
14.5217548883
 10
-7.8399529089
 20
14.4762879267
 10
-7.8543058194
 20
14.4327659675
  0
LINE
  5
4F0
100
AcDbEntity
  8
0
100
AcDbLine
 62
7
  6
CONTINUOUS
 10
-11.3975478909
 20
12.3719813709
 11
-11.4063466756
 21
12.349823213
  0
LWPOLYLINE
  5
4F1
100
AcDbEntity
  8
0
100
AcDbPolyline
 62
7
  6
CONTINUOUS
 90
16
 70
0
 10
-14.8453181496
 20
10.4326068372
 10
-14.8395771584
 20
10.4444289428
 10
-14.8342192077
 20
10.4566300749
 10
-14.8292442975
 20
10.4692102334
 10
-14.8246489531
 20
10.4821803483
 10
-14.8204366491
 20
10.4955294897
 10
-14.8166178098
 20
10.5092248677
 10
-14.8131934549
 20
10.5232672019
 10
-14.8101625646
 20
10.5376557726
 10
-14.8075325041
 20
10.5523556306
 10
-14.8053042483
 20
10.5673675207
 10
-14.8034768223
 20
10.5826906981
 10
-14.802054666
 20
10.5982879793
 10
-14.8010392592
 20
10.6141469696
 10
-14.800429122
 20
10.6302800636
 10
-14.8002242545
 20
10.6466872613
  0
LINE
  5
4F2
100
AcDbEntity
  8
RACCORDO
100
AcDbLine
 62
253
  6
CONTINUOUS
 10
-27.7812931929
 20
-1.5910328822
 11
-28.403611225
 21
-2.3586604556
  0
LINE
  5
4F3
100
AcDbEntity
  8
RACCORDO
100
AcDbLine
 62
253
  6
CONTINUOUS
 10
-27.4282570049
 20
-1.7097692054
 11
-28.139477613
 21
-2.5870578607
  0
LINE
  5
4F4
100
AcDbEntity
  8
RACCORDO
100
AcDbLine
 62
7
  6
CONTINUOUS
 10
-27.9948367914
 20
5.8172639008
 11
-26.6954622003
 21
6.7730007011
  0
LINE
  5
4F5
100
AcDbEntity
  8
ASSI
100
AcDbLine
 62
7
  6
CONTINUOUS
 10
-27.9948367914
 20
5.8172639008
 11
-26.6954622003
 21
6.7730007011
  0
LINE
  5
4F6
100
AcDbEntity
  8
0
100
AcDbLine
 62
7
  6
CONTINUOUS
 10
-18.689311551
 20
11.5085880589
 11
-14.8002242545
 21
13.7540983222
  0
LINE
  5
4F7
100
AcDbEntity
  8
0
100
AcDbLine
 62
7
  6
CONTINUOUS
 10
-11.2646903485
 20
15.7954712888
 11
-7.375603052
 21
18.0409815521
  0
LINE
  5
4F8
100
AcDbEntity
  8
0
100
AcDbLine
 62
7
  6
CONTINUOUS
 10
-27.9956094663
 20
5.7963327211
 11
-26.9164354023
 21
6.4194322343
  0
LWPOLYLINE
  5
4F9
100
AcDbEntity
  8
RACCORDO
100
AcDbPolyline
 62
253
  6
CONTINUOUS
 90
5
 70
0
 10
-31.4575916311
 20
43.1660575892
 10
-31.4129070929
 20
43.1701778284
 10
-31.3639843189
 20
43.1686843746
 10
-31.3118023082
 20
43.1616071156
 10
-31.2574052835
 20
43.1490876756
  0
LINE
  5
4FA
100
AcDbEntity
  8
ASSI
100
AcDbLine
 62
7
  6
CONTINUOUS
 10
-2.1221911616
 20
42.31972244
 11
-2.2248915271
 21
42.3165927746
  0
LINE
  5
4FB
100
AcDbEntity
  8
RACCORDO
100
AcDbLine
 62
7
  6
CONTINUOUS
 10
-31.737634543
 20
42.9797970504
 11
-31.6855210089
 21
42.9755265749
  0
LINE
  5
4FC
100
AcDbEntity
  8
RACCORDO
100
AcDbLine
 62
7
  6
CONTINUOUS
 10
-41.7024643522
 20
43.9194316439
 11
-41.0745316396
 21
43.8616108764
  0
LINE
  5
4FD
100
AcDbEntity
  8
RACCORDO
100
AcDbLine
 62
253
  6
CONTINUOUS
 10
-41.5037957774
 20
44.0657177402
 11
-40.7925751693
 21
44.0002277274
  0
LWPOLYLINE
  5
4FE
100
AcDbEntity
  8
ASSI
100
AcDbPolyline
 62
7
  6
CONTINUOUS
 90
3
 70
0
 10
-1.9934417956
 20
38.2218143524
 10
-2.0238169107
 20
38.2284853076
 10
-2.1221911616
 20
38.237371056
  0
LWPOLYLINE
  5
4FF
100
AcDbEntity
  8
ASSI
100
AcDbPolyline
 62
7
  6
CONTINUOUS
 90
15
 70
0
 10
-31.065174074
 20
46.0984227115
 10
-31.0667379654
 20
46.0988980518
 10
-31.0693228208
 20
46.0989740499
 10
-31.072732851
 20
46.0985814156
 10
-31.0769219048
 20
46.0977377684
 10
-31.0818650586
 20
46.0964810687
 10
-31.087522467
 20
46.0948322152
 10
-31.0938579845
 20
46.092799952
 10
-31.1008735109
 20
46.0904054706
 10
-31.1085604535
 20
46.0876572981
 10
-31.1168758694
 20
46.0845749639
 10
-31.1257782351
 20
46.081196351
 10
-31.1352369284
 20
46.0775243462
 10
-31.1452196238
 20
46.073575447
 10
-31.166565358
 20
46.0650318336
  0
LINE
  5
500
100
AcDbEntity
  8
RACCORDO
100
AcDbLine
 62
7
  6
CONTINUOUS
 10
-2.6890561052
 20
33.5914093767
 11
-2.6924233469
 21
33.5933419037
  0
LINE
  5
501
100
AcDbEntity
  8
ASSI
100
AcDbLine
 62
7
  6
CONTINUOUS
 10
-2.6891200249
 20
33.5914458404
 11
-2.6924233469
 21
33.5933419037
  0
LINE
  5
502
100
AcDbEntity
  8
ASSI
100
AcDbLine
 62
7
  6
CONTINUOUS
 10
1.9935617987
 20
29.8190880727
 11
1.9222409308
 21
29.8602678479
  0
LINE
  5
503
100
AcDbEntity
  8
DRAFT
100
AcDbLine
 62
7
  6
CONTINUOUS
 10
0.0490181504
 20
32.0032545642
 11
0.6894693205
 21
31.6334660853
  0
LINE
  5
504
100
AcDbEntity
  8
ASSI
100
AcDbLine
 62
7
  6
CONTINUOUS
 10
0.0490181504
 20
32.0032545642
 11
0.6894693205
 21
31.6334660853
  0
LINE
  5
505
100
AcDbEntity
  8
RACCORDO
100
AcDbLine
 62
253
  6
CONTINUOUS
 10
-1.606646954
 20
33.6936632724
 11
-2.1844121192
 21
34.0272576377
  0
LINE
  5
506
100
AcDbEntity
  8
ASSI
100
AcDbLine
 62
253
  6
CONTINUOUS
 10
-1.606646954
 20
33.6936632724
 11
-2.1844121192
 21
34.0272576377
  0
LINE
  5
507
100
AcDbEntity
  8
RACCORDO
100
AcDbLine
 62
7
  6
CONTINUOUS
 10
2.8513380996
 20
32.1407596068
 11
2.2056938331
 21
32.5135465144
  0
LINE
  5
508
100
AcDbEntity
  8
ASSI
100
AcDbLine
 62
7
  6
CONTINUOUS
 10
2.8513380996
 20
32.1407596068
 11
2.2056938331
 21
32.5135465144
  0
LINE
  5
509
100
AcDbEntity
  8
ASSI
100
AcDbLine
 62
7
  6
CONTINUOUS
 10
-2.6891900563
 20
33.5914890092
 11
-2.7435697911
 21
33.6269462281
  0
LWPOLYLINE
  5
50A
100
AcDbEntity
  8
RACCORDO
100
AcDbPolyline
 62
7
  6
CONTINUOUS
 90
34
 70
0
 10
-2.6891261496
 20
33.5914525625
 10
-2.7451261493
 20
33.6281059348
 10
-2.8021065314
 20
33.6771004081
 10
-2.8534731797
 20
33.7344483447
 10
-2.8999430166
 20
33.8010572883
 10
-2.9412703246
 20
33.8771456145
 10
-2.9767227914
 20
33.9619741795
 10
-3.0058697917
 20
34.0550448023
 10
-3.0283642287
 20
34.1556135037
 10
-3.043949921
 20
34.2628859147
 10
-3.0524667047
 20
34.3763066143
 10
-3.053825855
 20
34.4948096919
 10
-3.0480268681
 20
34.6177989518
 10
-3.0349372837
 20
34.745728917
 10
-3.0143781253
 20
34.8783904174
 10
-2.9863529073
 20
35.014559546
 10
-2.9509027972
 20
35.15334997
 10
-2.9081266458
 20
35.293994569
 10
-2.8581886217
 20
35.4356810606
 10
-2.8013337813
 20
35.5774843432
 10
-2.7378491443
 20
35.7185826037
 10
-2.6680501582
 20
35.8582183112
 10
-2.5922975758
 20
35.9955949113
 10
-2.5109934096
 20
36.1299558581
 10
-2.4245884229
 20
36.2605672812
 10
-2.3335665251
 20
36.3866923215
 10
-2.2383970488
 20
36.5076979448
 10
-2.1396797013
 20
36.6228804159
 10
-2.0381632778
 20
36.7314401849
 10
-1.9344249145
 20
36.8328644309
 10
-1.8291211944
 20
36.9266519167
 10
-1.7232037264
 20
37.0121276311
 10
-1.6174670719
 20
37.0888903774
 10
-1.5125298445
 20
37.1567936897
  0
LWPOLYLINE
  5
50B
100
AcDbEntity
  8
ASSI
100
AcDbPolyline
 62
7
  6
CONTINUOUS
 90
33
 70
0
 10
-2.7435697911
 20
29.5445948441
 10
-2.8006960166
 20
29.5933680239
 10
-2.852209773
 20
29.650503699
 10
-2.8988387016
 20
29.7169195492
 10
-2.9403376437
 20
29.7928477499
 10
-2.9759685704
 20
29.8775545915
 10
-3.00529368
 20
29.9705423281
 10
-3.027961147
 20
30.0710733555
 10
-3.0437095143
 20
30.1783492561
 10
-3.0523734313
 20
30.2917926423
 10
-3.0538639705
 20
30.4103224463
 10
-3.048183418
 20
30.5333478246
 10
-3.0351999026
 20
30.6613326655
 10
-3.0147329271
 20
30.7940697187
 10
-2.9867856746
 20
30.9303295137
 10
-2.9513979025
 20
31.0692274547
 10
-2.9086668205
 20
31.2099963309
 10
-2.8587569306
 20
31.3518196826
 10
-2.8019137243
 20
31.4937687681
 10
-2.7384242969
 20
31.6350191306
 10
-2.6686047198
 20
31.7748109998
 10
-2.59281677
 20
31.9123449684
 10
-2.5114633062
 20
32.046861877
 10
-2.4249962256
 20
32.1776256807
 10
-2.3339007452
 20
32.3038972931
 10
-2.2386474523
 20
32.4250415173
 10
-2.1398377192
 20
32.540352473
 10
-2.0382223495
 20
32.6490283795
 10
-1.9343800677
 20
32.7505549157
 10
-1.8289695585
 20
32.8444291684
 10
-1.7229455333
 20
32.9299740117
 10
-1.6171051758
 20
33.0067872842
 10
-1.5122251592
 20
33.0746214052
  0
LINE
  5
50C
100
AcDbEntity
  8
0
100
AcDbLine
 62
253
  6
CONTINUOUS
 10
-0.3045352401
 20
18.7762388055
 11
-0.3843041928
 21
18.9144026842
  0
LINE
  5
50D
100
AcDbEntity
  8
0
100
AcDbLine
 62
253
  6
CONTINUOUS
 10
-0.0980276642
 20
18.8954506464
 11
-0.3752459183
 21
19.3756067467
  0
LWPOLYLINE
  5
50E
100
AcDbEntity
  8
ASSI
100
AcDbPolyline
 62
7
  6
CONTINUOUS
 90
28
 70
0
 10
-4.370399232
 20
43.9484927759
 10
-4.3706131181
 20
43.9655002124
 10
-4.3712499301
 20
43.982709117
 10
-4.3723096679
 20
44.0001194898
 10
-4.3737939428
 20
44.0177463939
 10
-4.3757011436
 20
44.0355747662
 10
-4.378026436
 20
44.0535594166
 10
-4.3807708806
 20
44.0717007416
 10
-4.3839334167
 20
44.0899983446
 10
-4.3875060283
 20
44.1084058464
 10
-4.3914897556
 20
44.1269235257
 10
-4.3958835583
 20
44.1455511037
 10
-4.4006762993
 20
44.1642413647
 10
-4.4058689907
 20
44.1829944676
 10
-4.4114606205
 20
44.2018102534
 10
-4.4174370154
 20
44.2206410294
 10
-4.4237991514
 20
44.2394868335
 10
-4.4305460526
 20
44.2583476277
 10
-4.4376606173
 20
44.277175605
 10
-4.4451437783
 20
44.2959706824
 10
-4.4529946028
 20
44.3147329429
 10
-4.4611931912
 20
44.3334148294
 10
-4.4697404258
 20
44.352016138
 10
-4.4786354242
 20
44.3705370727
 10
-4.4878556401
 20
44.388930688
 10
-4.4973935581
 20
44.4071813353
 10
-4.5072566936
 20
44.4253046632
 10
-4.5174450466
 20
44.4433006716
  0
LINE
  5
50F
100
AcDbEntity
  8
ASSI
100
AcDbLine
 62
7
  6
CONTINUOUS
 10
-4.370399232
 20
43.9484927759
 11
-4.370399232
 21
26.5528518711
  0
LINE
  5
510
100
AcDbEntity
  8
RACCORDO
100
AcDbLine
 62
7
  6
CONTINUOUS
 10
-4.3546089177
 20
26.7070366879
 11
-4.3546089177
 21
43.8967002957
  0
LINE
  5
511
100
AcDbEntity
  8
ASSI
100
AcDbLine
 62
7
  6
CONTINUOUS
 10
-4.3546089177
 20
26.7070366879
 11
-4.3546089177
 21
43.8967002957
  0
LINE
  5
512
100
AcDbEntity
  8
0
100
AcDbLine
 62
7
  6
CONTINUOUS
 10
-3.8400691461
 20
16.9749434579
 11
-3.8400691461
 21
19.4291782973
  0
LWPOLYLINE
  5
513
100
AcDbEntity
  8
0
100
AcDbPolyline
 62
7
  6
CONTINUOUS
 90
11
 70
0
 10
-7.8543058194
 20
14.4327659675
 10
-7.8708127697
 20
14.3911961796
 10
-7.889346407
 20
14.3518953563
 10
-7.9099067734
 20
14.3149030072
 10
-7.9324938269
 20
14.2801796226
 10
-7.9569800875
 20
14.2479234667
 10
-7.9833985872
 20
14.2181279961
 10
-8.0117162941
 20
14.1907997542
 10
-8.0417066334
 20
14.1661566353
 10
-8.07335527
 20
14.1442359476
 10
-8.0897844332
 20
14.1342954533
  0
LWPOLYLINE
  5
514
100
AcDbEntity
  8
0
100
AcDbPolyline
 62
7
  6
CONTINUOUS
 90
10
 70
0
 10
-11.4063466756
 20
12.349823213
 10
-11.4248803129
 20
12.3105223897
 10
-11.4454406794
 20
12.2735300405
 10
-11.4680277328
 20
12.238806656
 10
-11.4925139935
 20
12.2065505001
 10
-11.5189324931
 20
12.1767550295
 10
-11.5472502
 20
12.1494267875
 10
-11.5772405393
 20
12.1247836687
 10
-11.608889176
 20
12.1028629809
 10
-11.6253183391
 20
12.0929224867
  0
LWPOLYLINE
  5
515
100
AcDbEntity
  8
0
100
AcDbPolyline
 62
7
  6
CONTINUOUS
 90
16
 70
0
 10
-11.3097842436
 20
12.4739798038
 10
-11.3040432525
 20
12.4858019094
 10
-11.2986853018
 20
12.4980030415
 10
-11.2937103916
 20
12.5105832
 10
-11.2891150471
 20
12.523553315
 10
-11.2849027432
 20
12.5369024564
 10
-11.2810839039
 20
12.5505978343
 10
-11.2776595489
 20
12.5646401685
 10
-11.2746286587
 20
12.5790287392
 10
-11.2719985981
 20
12.5937285972
 10
-11.2697703424
 20
12.6087404874
 10
-11.2679429164
 20
12.6240636648
 10
-11.26652076
 20
12.6396609459
 10
-11.2655053532
 20
12.6555199362
 10
-11.2648952161
 20
12.6716530302
 10
-11.2646903485
 20
12.6880602279
  0
LWPOLYLINE
  5
516
100
AcDbEntity
  8
0
100
AcDbPolyline
 62
7
  6
CONTINUOUS
 90
16
 70
0
 10
-18.8363401806
 20
8.0761838497
 10
-18.8279678781
 20
8.0812525921
 10
-18.8197961949
 20
8.0866717633
 10
-18.8118423161
 20
8.0924314368
 10
-18.8041024679
 20
8.0985349617
 10
-18.7965804241
 20
8.1049789889
 10
-18.7892875058
 20
8.1117534705
 10
-18.7822235726
 20
8.1188592845
 10
-18.7753887649
 20
8.1262955528
 10
-18.7687948248
 20
8.1340495937
 10
-18.762442238
 20
8.1421218139
 10
-18.7563305187
 20
8.1505118065
 10
-18.7504699515
 20
8.1592056691
 10
-18.7448639644
 20
8.1681987674
 10
-18.7395091292
 20
8.1774957357
 10
-18.7344054461
 20
8.1870965739
  0
LWPOLYLINE
  5
517
100
AcDbEntity
  8
0
100
AcDbPolyline
 62
7
  6
CONTINUOUS
 90
16
 70
0
 10
-14.9472528841
 20
10.321694113
 10
-14.9388805816
 20
10.3267628554
 10
-14.9307088984
 20
10.3321820266
 10
-14.9227550196
 20
10.3379417001
 10
-14.9150151714
 20
10.344045225
 10
-14.9074931276
 20
10.3504892522
 10
-14.9002002093
 20
10.3572637338
 10
-14.8931362761
 20
10.3643695478
 10
-14.8863014684
 20
10.3718058161
 10
-14.8797075282
 20
10.379559857
 10
-14.8733549415
 20
10.3876320772
 10
-14.8672432222
 20
10.3960220698
 10
-14.861382655
 20
10.4047159324
 10
-14.8557766678
 20
10.4137090307
 10
-14.8504218327
 20
10.423005999
 10
-14.8453181496
 20
10.4326068372
  0
LWPOLYLINE
  5
518
100
AcDbEntity
  8
0
100
AcDbPolyline
 62
7
  6
CONTINUOUS
 90
16
 70
0
 10
-11.4117189781
 20
12.3630670797
 10
-11.4033466756
 20
12.3681358221
 10
-11.3951749925
 20
12.3735549933
 10
-11.3872211136
 20
12.3793146667
 10
-11.3794812655
 20
12.3854181916
 10
-11.3719592217
 20
12.3918622188
 10
-11.3646663033
 20
12.3986367004
 10
-11.3576023702
 20
12.4057425144
 10
-11.3507675625
 20
12.4131787828
 10
-11.3441736223
 20
12.4209328236
 10
-11.3378210355
 20
12.4290050438
 10
-11.3317093163
 20
12.4373950364
 10
-11.325848749
 20
12.446088899
 10
-11.3202427619
 20
12.4550819974
 10
-11.3148879268
 20
12.4643789656
 10
-11.3097842436
 20
12.4739798038
  0
LWPOLYLINE
  5
519
100
AcDbEntity
  8
0
100
AcDbPolyline
 62
7
  6
CONTINUOUS
 90
16
 70
0
 10
-7.5226316816
 20
14.608577343
 10
-7.5142593791
 20
14.6136460854
 10
-7.5060876959
 20
14.6190652566
 10
-7.4981338171
 20
14.62482493
 10
-7.490393969
 20
14.630928455
 10
-7.4828719251
 20
14.6373724821
 10
-7.4755790068
 20
14.6441469637
 10
-7.4685150736
 20
14.6512527777
 10
-7.4616802659
 20
14.6586890461
 10
-7.4550863258
 20
14.6664430869
 10
-7.448733739
 20
14.6745153071
 10
-7.4426220198
 20
14.6829052998
 10
-7.4367614525
 20
14.6915991623
 10
-7.4311554654
 20
14.7005922607
 10
-7.4258006302
 20
14.7098892289
 10
-7.4206969471
 20
14.7194900671
  0
LWPOLYLINE
  5
51A
100
AcDbEntity
  8
0
100
AcDbPolyline
 62
7
  6
CONTINUOUS
 90
16
 70
0
 10
-3.9870977757
 20
16.6499503096
 10
-3.9787254732
 20
16.655019052
 10
-3.97055379
 20
16.6604382232
 10
-3.9625999112
 20
16.6661978966
 10
-3.954860063
 20
16.6723014216
 10
-3.9473380192
 20
16.6787454488
 10
-3.9400451009
 20
16.6855199304
 10
-3.9329811677
 20
16.6926257444
 10
-3.92614636
 20
16.7000620127
 10
-3.9195524198
 20
16.7078160536
 10
-3.9131998331
 20
16.7158882737
 10
-3.9070881138
 20
16.7242782664
 10
-3.9012275466
 20
16.732972129
 10
-3.8956215594
 20
16.7419652273
 10
-3.8902667243
 20
16.7512621956
 10
-3.8851630412
 20
16.7608630338
  0
LINE
  5
51B
100
AcDbEntity
  8
0
100
AcDbLine
 62
7
  6
CONTINUOUS
 10
-3.8400691461
 20
19.4291782973
 11
0.0490181504
 21
21.6746885606
  0
LINE
  5
51C
100
AcDbEntity
  8
0
100
AcDbLine
 62
7
  6
CONTINUOUS
 10
-0.4459565964
 20
21.2257482732
 11
-0.6594376232
 21
21.1024870038
  0
LINE
  5
51D
100
AcDbEntity
  8
0
100
AcDbLine
 62
253
  6
CONTINUOUS
 10
-18.689311551
 20
10.2247566264
 11
-15.2244883232
 21
12.2253021337
  0
LINE
  5
51E
100
AcDbEntity
  8
0
100
AcDbLine
 62
253
  6
CONTINUOUS
 10
-11.2646903485
 20
14.5116398564
 11
-7.7998671207
 21
16.5121853637
  0
LINE
  5
51F
100
AcDbEntity
  8
0
100
AcDbLine
 62
253
  6
CONTINUOUS
 10
-0.3752459183
 20
20.2273699511
 11
-3.8400691461
 21
18.2268244438
  0
LINE
  5
520
100
AcDbEntity
  8
0
100
AcDbLine
 62
253
  6
CONTINUOUS
 10
-18.689311551
 20
8.4876953806
 11
-15.2244883232
 21
10.488240888
  0
LINE
  5
521
100
AcDbEntity
  8
0
100
AcDbLine
 62
253
  6
CONTINUOUS
 10
-11.2646903485
 20
12.7745786106
 11
-7.7998671207
 21
14.7751241179
  0
LINE
  5
522
100
AcDbEntity
  8
0
100
AcDbLine
 62
253
  6
CONTINUOUS
 10
-3.8400691461
 20
17.0614618405
 11
-0.3752459183
 21
19.0620073478
  0
LINE
  5
523
100
AcDbEntity
  8
0
100
AcDbLine
 62
253
  6
CONTINUOUS
 10
1.9935617987
 20
20.3432088528
 11
0.0490181504
 21
19.2204537212
  0
LINE
  5
524
100
AcDbEntity
  8
0
100
AcDbLine
 62
253
  6
CONTINUOUS
 10
-3.8400691461
 20
16.9749434579
 11
-7.375603052
 21
14.9335704912
  0
LINE
  5
525
100
AcDbEntity
  8
0
100
AcDbLine
 62
253
  6
CONTINUOUS
 10
-11.2646903485
 20
12.6880602279
 11
-14.8002242545
 21
10.6466872613
  0
LINE
  5
526
100
AcDbEntity
  8
0
100
AcDbLine
 62
253
  6
CONTINUOUS
 10
-18.689311551
 20
8.401176998
 11
-20.6141873455
 21
7.2897778386
  0
LINE
  5
527
100
AcDbEntity
  8
ASSI
100
AcDbLine
 62
7
  6
CONTINUOUS
 10
1.8465331378
 20
20.0182156814
 11
-0.0980105105
 21
18.8954605497
  0
LINE
  5
528
100
AcDbEntity
  8
ASSI
100
AcDbLine
 62
7
  6
CONTINUOUS
 10
-3.987097807
 20
16.6499502864
 11
-7.522631713
 21
14.6085773198
  0
LINE
  5
529
100
AcDbEntity
  8
ASSI
100
AcDbLine
 62
7
  6
CONTINUOUS
 10
-11.4117190095
 20
12.3630670565
 11
-14.9472529154
 21
10.3216940899
  0
LINE
  5
52A
100
AcDbEntity
  8
ASSI
100
AcDbLine
 62
7
  6
CONTINUOUS
 10
-18.8363402119
 20
8.0761838266
 11
-20.6141873455
 21
7.0496771733
  0
LINE
  5
52B
100
AcDbEntity
  8
0
100
AcDbLine
 62
7
  6
CONTINUOUS
 10
-19.0499378986
 20
7.8060363157
 11
-15.5144039927
 21
9.8474092824
  0
LINE
  5
52C
100
AcDbEntity
  8
0
100
AcDbLine
 62
7
  6
CONTINUOUS
 10
-11.6253166961
 20
12.0929195457
 11
-8.0897827902
 21
14.1342925123
  0
LINE
  5
52D
100
AcDbEntity
  8
0
100
AcDbLine
 62
7
  6
CONTINUOUS
 10
-4.2006954937
 20
16.3798027756
 11
-0.6651615877
 21
18.4211757422
  0
LINE
  5
52E
100
AcDbEntity
  8
0
100
AcDbLine
 62
7
  6
CONTINUOUS
 10
-0.0980276642
 20
18.8954506464
 11
-0.4377504331
 21
18.6993368888
  0
LINE
  5
52F
100
AcDbEntity
  8
0
100
AcDbLine
 62
7
  6
CONTINUOUS
 10
-7.5226488667
 20
14.6085674164
 11
-7.8623716356
 21
14.4124536589
  0
LINE
  5
530
100
AcDbEntity
  8
0
100
AcDbLine
 62
7
  6
CONTINUOUS
 10
-14.9472700691
 20
10.3216841865
 11
-15.286992838
 21
10.1255704289
  0
LINE
  5
531
100
AcDbEntity
  8
RACCORDO
100
AcDbLine
 62
7
  6
CONTINUOUS
 10
2.8563793164
 20
20.5861789868
 11
2.4166267889
 21
20.3323204631
  0
LINE
  5
532
100
AcDbEntity
  8
ASSI
100
AcDbLine
 62
7
  6
CONTINUOUS
 10
2.8563793164
 20
20.5861789868
 11
2.4166267889
 21
20.3323204631
  0
LINE
  5
533
100
AcDbEntity
  8
RACCORDO
100
AcDbLine
 62
7
  6
CONTINUOUS
 10
2.4166267889
 20
20.3323204631
 11
2.4135227797
 21
20.3305518913
  0
LINE
  5
534
100
AcDbEntity
  8
ASSI
100
AcDbLine
 62
7
  6
CONTINUOUS
 10
2.4166267889
 20
20.3323204631
 11
2.4135227797
 21
20.3305518913
  0
LINE
  5
535
100
AcDbEntity
  8
RACCORDO
100
AcDbLine
 62
253
  6
CONTINUOUS
 10
3.0634782116
 20
21.0439123666
 11
1.9935617987
 21
20.4412719634
  0
LINE
  5
536
100
AcDbEntity
  8
ASSI
100
AcDbLine
 62
253
  6
CONTINUOUS
 10
3.0634782116
 20
21.0439123666
 11
1.9935617987
 21
20.4412719634
  0
LINE
  5
537
100
AcDbEntity
  8
RACCORDO
100
AcDbLine
 62
253
  6
CONTINUOUS
 10
2.8563793164
 20
20.5861789868
 11
1.8468931665
 21
20.0175764931
  0
LINE
  5
538
100
AcDbEntity
  8
ASSI
100
AcDbLine
 62
253
  6
CONTINUOUS
 10
2.8563793164
 20
20.5861789868
 11
1.8468931665
 21
20.0175764931
  0
LINE
  5
539
100
AcDbEntity
  8
RACCORDO
100
AcDbLine
 62
253
  6
CONTINUOUS
 10
2.413544872
 20
20.330563148
 11
2.4166267889
 21
20.3323204631
  0
LINE
  5
53A
100
AcDbEntity
  8
ASSI
100
AcDbLine
 62
253
  6
CONTINUOUS
 10
2.413544872
 20
20.330563148
 11
2.4166267889
 21
20.3323204631
  0
LINE
  5
53B
100
AcDbEntity
  8
RACCORDO
100
AcDbLine
 62
7
  6
CONTINUOUS
 10
1.8495204471
 20
20.0129113964
 11
2.413544872
 21
20.330563148
  0
LINE
  5
53C
100
AcDbEntity
  8
ASSI
100
AcDbLine
 62
7
  6
CONTINUOUS
 10
1.789088374
 20
19.9788767819
 11
2.413544872
 21
20.330563148
  0
LWPOLYLINE
  5
53D
100
AcDbEntity
  8
0
100
AcDbPolyline
 62
7
  6
CONTINUOUS
 90
11
 70
0
 10
-4.2006971366
 20
16.3798057166
 10
-4.2175892426
 20
16.3705106462
 10
-4.2523995744
 20
16.354066175
 10
-4.2887384478
 20
16.3404190398
 10
-4.3265663839
 20
16.329562998
 10
-4.3655813761
 20
16.3215852926
 10
-4.4057612401
 20
16.316511255
 10
-4.4471281603
 20
16.3143155537
 10
-4.4894466833
 20
16.3150094371
 10
-4.5327510054
 20
16.3186126985
 10
-4.5553254707
 20
16.3219246285
  0
LWPOLYLINE
  5
53E
100
AcDbEntity
  8
0
100
AcDbPolyline
 62
7
  6
CONTINUOUS
 90
11
 70
0
 10
-11.6253183391
 20
12.0929224867
 10
-11.6422104451
 20
12.0836274163
 10
-11.6770207768
 20
12.0671829451
 10
-11.7133596502
 20
12.0535358099
 10
-11.7511875863
 20
12.0426797681
 10
-11.7902025786
 20
12.0347020626
 10
-11.8303824426
 20
12.029628025
 10
-11.8717493627
 20
12.0274323238
 10
-11.9140678857
 20
12.0281262071
 10
-11.9573722079
 20
12.0317294685
 10
-11.9799466731
 20
12.0350413986
  0
LINE
  5
53F
100
AcDbEntity
  8
0
100
AcDbLine
 62
7
  6
CONTINUOUS
 10
-25.4775366504
 20
7.1932254185
 11
-26.9164354023
 21
6.4194322343
  0
LINE
  5
540
100
AcDbEntity
  8
0
100
AcDbLine
 62
7
  6
CONTINUOUS
 10
-28.4120297923
 20
45.0048433971
 11
-29.7719617324
 21
44.7911649325
  0
LWPOLYLINE
  5
541
100
AcDbEntity
  8
ASSI
100
AcDbPolyline
 62
7
  6
CONTINUOUS
 90
3
 70
0
 10
-1.9934417956
 20
42.3041657364
 10
-2.0238169107
 20
42.3108366915
 10
-2.1221911616
 20
42.31972244
  0
LINE
  5
542
100
AcDbEntity
  8
RACCORDO
100
AcDbLine
 62
7
  6
CONTINUOUS
 10
-2.6890561052
 20
37.6737607606
 11
-2.6924233469
 21
37.6756932877
  0
LINE
  5
543
100
AcDbEntity
  8
ASSI
100
AcDbLine
 62
7
  6
CONTINUOUS
 10
-2.6891200249
 20
37.6737972244
 11
-2.6924233469
 21
37.6756932877
  0
LINE
  5
544
100
AcDbEntity
  8
RACCORDO
100
AcDbLine
 62
253
  6
CONTINUOUS
 10
-1.606646954
 20
37.7760146564
 11
-2.1844121192
 21
38.1096090217
  0
LINE
  5
545
100
AcDbEntity
  8
ASSI
100
AcDbLine
 62
253
  6
CONTINUOUS
 10
-1.606646954
 20
37.7760146564
 11
-2.1844121192
 21
38.1096090217
  0
LINE
  5
546
100
AcDbEntity
  8
ASSI
100
AcDbLine
 62
7
  6
CONTINUOUS
 10
-2.6891900563
 20
37.6738403932
 11
-2.7435697911
 21
37.709297612
  0
LWPOLYLINE
  5
547
100
AcDbEntity
  8
RACCORDO
100
AcDbPolyline
 62
7
  6
CONTINUOUS
 90
34
 70
0
 10
-2.6891261496
 20
37.6738039465
 10
-2.7451261493
 20
37.7104573187
 10
-2.8021065314
 20
37.7594517921
 10
-2.8534731797
 20
37.8167997287
 10
-2.8999430166
 20
37.8834086723
 10
-2.9412703246
 20
37.9594969985
 10
-2.9767227914
 20
38.0443255634
 10
-3.0058697917
 20
38.1373961863
 10
-3.0283642287
 20
38.2379648877
 10
-3.043949921
 20
38.3452372987
 10
-3.0524667047
 20
38.4586579983
 10
-3.053825855
 20
38.5771610758
 10
-3.0480268681
 20
38.7001503358
 10
-3.0349372837
 20
38.8280803009
 10
-3.0143781253
 20
38.9607418014
 10
-2.9863529073
 20
39.09691093
 10
-2.9509027972
 20
39.235701354
 10
-2.9081266458
 20
39.3763459529
 10
-2.8581886217
 20
39.5180324445
 10
-2.8013337813
 20
39.6598357272
 10
-2.7378491443
 20
39.8009339876
 10
-2.6680501582
 20
39.9405696951
 10
-2.5922975758
 20
40.0779462953
 10
-2.5109934096
 20
40.212307242
 10
-2.4245884229
 20
40.3429186652
 10
-2.3335665251
 20
40.4690437055
 10
-2.2383970488
 20
40.5900493288
 10
-2.1396797013
 20
40.7052317999
 10
-2.0381632778
 20
40.8137915688
 10
-1.9344249145
 20
40.9152158149
 10
-1.8291211944
 20
41.0090033007
 10
-1.7232037264
 20
41.094479015
 10
-1.6174670719
 20
41.1712417614
 10
-1.5125298445
 20
41.2391450737
  0
LWPOLYLINE
  5
548
100
AcDbEntity
  8
ASSI
100
AcDbPolyline
 62
7
  6
CONTINUOUS
 90
33
 70
0
 10
-2.7435697911
 20
33.6269462281
 10
-2.8006960166
 20
33.6757194079
 10
-2.852209773
 20
33.732855083
 10
-2.8988387016
 20
33.7992709332
 10
-2.9403376437
 20
33.8751991339
 10
-2.9759685704
 20
33.9599059754
 10
-3.00529368
 20
34.0528937121
 10
-3.027961147
 20
34.1534247395
 10
-3.0437095143
 20
34.2607006401
 10
-3.0523734313
 20
34.3741440263
 10
-3.0538639705
 20
34.4926738303
 10
-3.048183418
 20
34.6156992085
 10
-3.0351999026
 20
34.7436840495
 10
-3.0147329271
 20
34.8764211027
 10
-2.9867856746
 20
35.0126808977
 10
-2.9513979025
 20
35.1515788387
 10
-2.9086668205
 20
35.2923477149
 10
-2.8587569306
 20
35.4341710666
 10
-2.8019137243
 20
35.5761201521
 10
-2.7384242969
 20
35.7173705146
 10
-2.6686047198
 20
35.8571623837
 10
-2.59281677
 20
35.9946963523
 10
-2.5114633062
 20
36.1292132609
 10
-2.4249962256
 20
36.2599770647
 10
-2.3339007452
 20
36.386248677
 10
-2.2386474523
 20
36.5073929013
 10
-2.1398377192
 20
36.622703857
 10
-2.0382223495
 20
36.7313797635
 10
-1.9343800677
 20
36.8329062996
 10
-1.8289695585
 20
36.9267805523
 10
-1.7229455333
 20
37.0123253957
 10
-1.6171051758
 20
37.0891386681
 10
-1.5122251592
 20
37.1569727892
  0
LWPOLYLINE
  5
549
100
AcDbEntity
  8
0
100
AcDbPolyline
 62
7
  6
CONTINUOUS
 90
11
 70
0
 10
-0.4414552325
 20
20.6358226124
 10
-0.4614358264
 20
20.6968331574
 10
-0.483765713
 20
20.7575868692
 10
-0.5084442216
 20
20.8180220789
 10
-0.5354720231
 20
20.8782004553
 10
-0.5646214682
 20
20.9376116466
 10
-0.595949578
 20
20.9963153376
 10
-0.6293993314
 20
21.0542518434
 10
-0.6645720168
 20
21.1107317568
 10
-0.701440466
 20
21.165671814
 10
-0.7400041905
 20
21.2191169497
  0
LWPOLYLINE
  5
54A
100
AcDbEntity
  8
RACCORDO
100
AcDbPolyline
 62
253
  6
CONTINUOUS
 90
13
 70
0
 10
-1.3963741748
 20
29.2428242443
 10
-1.3981732173
 20
29.2758536555
 10
-1.4035395068
 20
29.3104316847
 10
-1.4123811391
 20
29.3459666298
 10
-1.4245467401
 20
29.3818504181
 10
-1.4398280783
 20
29.4174690707
 10
-1.4579636476
 20
29.4522132061
 10
-1.4786430892
 20
29.4854883545
 10
-1.50151254
 20
29.5167252186
 10
-1.5261807376
 20
29.5453894516
 10
-1.5522256228
 20
29.5709906654
 10
-1.579201545
 20
29.5930908401
 10
-1.6066469521
 20
29.6113118896
  0
LWPOLYLINE
  5
54B
100
AcDbEntity
  8
ASSI
100
AcDbPolyline
 62
253
  6
CONTINUOUS
 90
13
 70
0
 10
-1.3963741748
 20
29.2428242443
 10
-1.3981732173
 20
29.2758536555
 10
-1.4035395068
 20
29.3104316847
 10
-1.4123811391
 20
29.3459666298
 10
-1.4245467401
 20
29.3818504181
 10
-1.4398280783
 20
29.4174690707
 10
-1.4579636476
 20
29.4522132061
 10
-1.4786430892
 20
29.4854883545
 10
-1.50151254
 20
29.5167252186
 10
-1.5261807376
 20
29.5453894516
 10
-1.5522256228
 20
29.5709906654
 10
-1.579201545
 20
29.5930908401
 10
-1.6066469521
 20
29.6113118896
  0
LWPOLYLINE
  5
54C
100
AcDbEntity
  8
RACCORDO
100
AcDbPolyline
 62
253
  6
CONTINUOUS
 90
13
 70
0
 10
-1.3963741748
 20
33.3251756283
 10
-1.3981732173
 20
33.3582050395
 10
-1.4035395068
 20
33.3927830686
 10
-1.4123811391
 20
33.4283180138
 10
-1.4245467401
 20
33.4642018021
 10
-1.4398280783
 20
33.4998204547
 10
-1.4579636476
 20
33.5345645901
 10
-1.4786430892
 20
33.5678397384
 10
-1.50151254
 20
33.5990766025
 10
-1.5261807376
 20
33.6277408355
 10
-1.5522256228
 20
33.6533420493
 10
-1.579201545
 20
33.675442224
 10
-1.6066469521
 20
33.6936632735
  0
LWPOLYLINE
  5
54D
100
AcDbEntity
  8
ASSI
100
AcDbPolyline
 62
253
  6
CONTINUOUS
 90
13
 70
0
 10
-1.3963741748
 20
33.3251756283
 10
-1.3981732173
 20
33.3582050395
 10
-1.4035395068
 20
33.3927830686
 10
-1.4123811391
 20
33.4283180138
 10
-1.4245467401
 20
33.4642018021
 10
-1.4398280783
 20
33.4998204547
 10
-1.4579636476
 20
33.5345645901
 10
-1.4786430892
 20
33.5678397384
 10
-1.50151254
 20
33.5990766025
 10
-1.5261807376
 20
33.6277408355
 10
-1.5522256228
 20
33.6533420493
 10
-1.579201545
 20
33.675442224
 10
-1.6066469521
 20
33.6936632735
  0
LWPOLYLINE
  5
54E
100
AcDbEntity
  8
RACCORDO
100
AcDbPolyline
 62
253
  6
CONTINUOUS
 90
13
 70
0
 10
-1.3963741748
 20
37.4075270123
 10
-1.3981732173
 20
37.4405564234
 10
-1.4035395068
 20
37.4751344526
 10
-1.4123811391
 20
37.5106693978
 10
-1.4245467401
 20
37.546553186
 10
-1.4398280783
 20
37.5821718386
 10
-1.4579636476
 20
37.616915974
 10
-1.4786430892
 20
37.6501911224
 10
-1.50151254
 20
37.6814279865
 10
-1.5261807376
 20
37.7100922195
 10
-1.5522256228
 20
37.7356934333
 10
-1.579201545
 20
37.757793608
 10
-1.6066469521
 20
37.7760146575
  0
LWPOLYLINE
  5
54F
100
AcDbEntity
  8
ASSI
100
AcDbPolyline
 62
253
  6
CONTINUOUS
 90
13
 70
0
 10
-1.3963741748
 20
37.4075270123
 10
-1.3981732173
 20
37.4405564234
 10
-1.4035395068
 20
37.4751344526
 10
-1.4123811391
 20
37.5106693978
 10
-1.4245467401
 20
37.546553186
 10
-1.4398280783
 20
37.5821718386
 10
-1.4579636476
 20
37.616915974
 10
-1.4786430892
 20
37.6501911224
 10
-1.50151254
 20
37.6814279865
 10
-1.5261807376
 20
37.7100922195
 10
-1.5522256228
 20
37.7356934333
 10
-1.579201545
 20
37.757793608
 10
-1.6066469521
 20
37.7760146575
  0
LINE
  5
550
100
AcDbEntity
  8
RACCORDO
100
AcDbLine
 62
7
  6
CONTINUOUS
 10
-1.8862692567
 20
53.216649601
 11
-1.8862692567
 21
52.5634547263
  0
LINE
  5
551
100
AcDbEntity
  8
ASSI
100
AcDbLine
 62
7
  6
CONTINUOUS
 10
-1.8862692567
 20
53.216649601
 11
-1.8862692567
 21
52.5634547263
  0
LINE
  5
552
100
AcDbEntity
  8
ASSI
100
AcDbLine
 62
7
  6
CONTINUOUS
 10
-1.3664410986
 20
33.0794498229
 11
-1.3664410986
 21
33.1584403864
  0
LINE
  5
553
100
AcDbEntity
  8
ASSI
100
AcDbLine
 62
7
  6
CONTINUOUS
 10
-1.3664410986
 20
37.1618012068
 11
-1.3664410986
 21
37.2407917704
  0
LINE
  5
554
100
AcDbEntity
  8
ASSI
100
AcDbLine
 62
7
  6
CONTINUOUS
 10
-1.3664410986
 20
41.2441525908
 11
-1.3664410986
 21
41.3231431543
  0
LINE
  5
555
100
AcDbEntity
  8
ASSI
100
AcDbLine
 62
7
  6
CONTINUOUS
 10
-1.3664410986
 20
45.3265039747
 11
-1.3664410986
 21
45.4054945383
  0
LWPOLYLINE
  5
556
100
AcDbEntity
  8
RACCORDO
100
AcDbPolyline
 62
253
  6
CONTINUOUS
 90
7
 70
0
 10
-1.3963741748
 20
45.4905827525
 10
-1.3981730875
 20
45.4596684836
 10
-1.403539046
 20
45.4313970823
 10
-1.412380237
 20
45.4062522802
 10
-1.4245453854
 20
45.3846643117
 10
-1.439826342
 20
45.3670025531
 10
-1.4585989445
 20
45.3532044454
  0
LWPOLYLINE
  5
557
100
AcDbEntity
  8
ASSI
100
AcDbPolyline
 62
253
  6
CONTINUOUS
 90
7
 70
0
 10
-1.3963741748
 20
45.4905827525
 10
-1.3981730875
 20
45.4596684836
 10
-1.403539046
 20
45.4313970823
 10
-1.412380237
 20
45.4062522802
 10
-1.4245453854
 20
45.3846643117
 10
-1.439826342
 20
45.3670025531
 10
-1.4585989445
 20
45.3532044454
  0
LWPOLYLINE
  5
558
100
AcDbEntity
  8
RACCORDO
100
AcDbPolyline
 62
253
  6
CONTINUOUS
 90
7
 70
0
 10
-1.3963741748
 20
41.4082313686
 10
-1.3981730875
 20
41.3773170996
 10
-1.403539046
 20
41.3490456983
 10
-1.412380237
 20
41.3239008962
 10
-1.4245453854
 20
41.3023129277
 10
-1.439826342
 20
41.2846511691
 10
-1.4585989445
 20
41.2708530614
  0
LWPOLYLINE
  5
559
100
AcDbEntity
  8
ASSI
100
AcDbPolyline
 62
253
  6
CONTINUOUS
 90
7
 70
0
 10
-1.3963741748
 20
41.4082313686
 10
-1.3981730875
 20
41.3773170996
 10
-1.403539046
 20
41.3490456983
 10
-1.412380237
 20
41.3239008962
 10
-1.4245453854
 20
41.3023129277
 10
-1.439826342
 20
41.2846511691
 10
-1.4585989445
 20
41.2708530614
  0
LWPOLYLINE
  5
55A
100
AcDbEntity
  8
RACCORDO
100
AcDbPolyline
 62
253
  6
CONTINUOUS
 90
7
 70
0
 10
-1.3963741748
 20
37.3258799846
 10
-1.3981730875
 20
37.2949657157
 10
-1.403539046
 20
37.2666943144
 10
-1.412380237
 20
37.2415495122
 10
-1.4245453854
 20
37.2199615438
 10
-1.439826342
 20
37.2022997851
 10
-1.4585989445
 20
37.1885016774
  0
LWPOLYLINE
  5
55B
100
AcDbEntity
  8
ASSI
100
AcDbPolyline
 62
253
  6
CONTINUOUS
 90
7
 70
0
 10
-1.3963741748
 20
37.3258799846
 10
-1.3981730875
 20
37.2949657157
 10
-1.403539046
 20
37.2666943144
 10
-1.412380237
 20
37.2415495122
 10
-1.4245453854
 20
37.2199615438
 10
-1.439826342
 20
37.2022997851
 10
-1.4585989445
 20
37.1885016774
  0
LWPOLYLINE
  5
55C
100
AcDbEntity
  8
RACCORDO
100
AcDbPolyline
 62
253
  6
CONTINUOUS
 90
7
 70
0
 10
-1.3963741748
 20
33.2435286006
 10
-1.3981730875
 20
33.2126143317
 10
-1.403539046
 20
33.1843429304
 10
-1.412380237
 20
33.1591981283
 10
-1.4245453854
 20
33.1376101598
 10
-1.439826342
 20
33.1199484012
 10
-1.4585989445
 20
33.1061502935
  0
LWPOLYLINE
  5
55D
100
AcDbEntity
  8
ASSI
100
AcDbPolyline
 62
253
  6
CONTINUOUS
 90
7
 70
0
 10
-1.3963741748
 20
33.2435286006
 10
-1.3981730875
 20
33.2126143317
 10
-1.403539046
 20
33.1843429304
 10
-1.412380237
 20
33.1591981283
 10
-1.4245453854
 20
33.1376101598
 10
-1.439826342
 20
33.1199484012
 10
-1.4585989445
 20
33.1061502935
  0
LINE
  5
55E
100
AcDbEntity
  8
0
100
AcDbLine
 62
7
  6
CONTINUOUS
 10
-3.9729266885
 20
16.6588646009
 11
-3.9817254732
 21
16.6367064429
  0
LWPOLYLINE
  5
55F
100
AcDbEntity
  8
0
100
AcDbPolyline
 62
7
  6
CONTINUOUS
 90
10
 70
0
 10
-3.9817254732
 20
16.6367064429
 10
-4.0002591104
 20
16.5974056196
 10
-4.0208194769
 20
16.5604132705
 10
-4.0434065303
 20
16.5256898859
 10
-4.067892791
 20
16.49343373
 10
-4.0943112907
 20
16.4636382594
 10
-4.1226289975
 20
16.4363100175
 10
-4.1526193368
 20
16.4116668986
 10
-4.1842679735
 20
16.3897462109
 10
-4.2006971366
 20
16.3798057166
  0
LWPOLYLINE
  5
560
100
AcDbEntity
  8
0
100
AcDbPolyline
 62
7
  6
CONTINUOUS
 90
16
 70
0
 10
-7.4206969471
 20
14.7194900671
 10
-7.4149559559
 20
14.7313121727
 10
-7.4095980053
 20
14.7435133048
 10
-7.4046230951
 20
14.7560934633
 10
-7.4000277506
 20
14.7690635783
 10
-7.3958154466
 20
14.7824127197
 10
-7.3919966073
 20
14.7961080976
 10
-7.3885722524
 20
14.8101504318
 10
-7.3855413621
 20
14.8245390025
 10
-7.3829113016
 20
14.8392388605
 10
-7.3806830459
 20
14.8542507507
 10
-7.3788556199
 20
14.8695739281
 10
-7.3774334635
 20
14.8851712092
 10
-7.3764180567
 20
14.9010301995
 10
-7.3758079195
 20
14.9171632935
 10
-7.375603052
 20
14.9335704912
  0
LWPOLYLINE
  5
561
100
AcDbEntity
  8
0
100
AcDbPolyline
 62
7
  6
CONTINUOUS
 90
16
 70
0
 10
-3.8851630412
 20
16.7608630338
 10
-3.87942205
 20
16.7726851394
 10
-3.8740640993
 20
16.7848862714
 10
-3.8690891891
 20
16.79746643
 10
-3.8644938447
 20
16.8104365449
 10
-3.8602815407
 20
16.8237856863
 10
-3.8564627014
 20
16.8374810642
 10
-3.8530383465
 20
16.8515233984
 10
-3.8500074562
 20
16.8659119691
 10
-3.8473773957
 20
16.8806118272
 10
-3.8451491399
 20
16.8956237173
 10
-3.8433217139
 20
16.9109468947
 10
-3.8418995576
 20
16.9265441759
 10
-3.8408841508
 20
16.9424031662
 10
-3.8402740136
 20
16.9585362602
 10
-3.8400691461
 20
16.9749434579
  0
LWPOLYLINE
  5
562
100
AcDbEntity
  8
RACCORDO
100
AcDbPolyline
 62
7
  6
CONTINUOUS
 90
16
 70
0
 10
-26.5813734984
 20
-2.1131458431
 10
-26.5760166378
 20
-2.1087474608
 10
-26.5709745678
 20
-2.103881501
 10
-26.5662586672
 20
-2.0985589643
 10
-26.5618796699
 20
-2.0927919379
 10
-26.5578475097
 20
-2.086593495
 10
-26.5541712326
 20
-2.0799776305
 10
-26.5508592376
 20
-2.0729593735
 10
-26.5479190633
 20
-2.0655546443
 10
-26.5453572388
 20
-2.0577801467
 10
-26.5431796574
 20
-2.0496535455
 10
-26.5413913092
 20
-2.0411932835
 10
-26.5399960737
 20
-2.0324184324
 10
-26.5389971157
 20
-2.0233488747
 10
-26.5383968782
 20
-2.0140052582
 10
-26.5381968222
 20
-2.0044088077
  0
LINE
  5
563
100
AcDbEntity
  8
RACCORDO
100
AcDbLine
 62
253
  6
CONTINUOUS
 10
-25.4775366504
 20
3.5707191418
 11
-20.6141873455
 21
6.5198487849
  0
LINE
  5
564
100
AcDbEntity
  8
RACCORDO
100
AcDbLine
 62
7
  6
CONTINUOUS
 10
-25.4775366504
 20
2.9063160253
 11
-21.015924773
 21
5.6118325364
  0
LWPOLYLINE
  5
565
100
AcDbEntity
  8
0
100
AcDbPolyline
 62
7
  6
CONTINUOUS
 90
16
 70
0
 10
-0.0980104791
 20
18.8954605729
 10
-0.0896381767
 20
18.9005293153
 10
-0.0814664935
 20
18.9059484865
 10
-0.0735126147
 20
18.9117081599
 10
-0.0657727665
 20
18.9178116849
 10
-0.0582507227
 20
18.9242557121
 10
-0.0509578044
 20
18.9310301937
 10
-0.0438938712
 20
18.9381360077
 10
-0.0370590635
 20
18.945572276
 10
-0.0304651233
 20
18.9533263169
 10
-0.0241125365
 20
18.961398537
 10
-0.0180008173
 20
18.9697885297
 10
-0.01214025
 20
18.9784823923
 10
-0.0065342629
 20
18.9874754906
 10
-0.0011794278
 20
18.9967724589
 10
0.0039242554
 20
19.0063732971
  0
LINE
  5
566
100
AcDbEntity
  8
RACCORDO
100
AcDbLine
 62
7
  6
CONTINUOUS
 10
-20.7815384565
 20
5.6061000087
 11
-20.9218238915
 21
5.5250894211
  0
LINE
  5
567
100
AcDbEntity
  8
RACCORDO
100
AcDbLine
 62
7
  6
CONTINUOUS
 10
-20.9218238915
 20
5.5250894211
 11
-25.4775366504
 21
2.8946689388
  0
LWPOLYLINE
  5
568
100
AcDbEntity
  8
ASSI
100
AcDbPolyline
 62
253
  6
CONTINUOUS
 90
31
 70
0
 10
-32.3735173303
 20
-2.6186337943
 10
-32.3925819539
 20
-2.6295949432
 10
-32.412526465
 20
-2.6399700711
 10
-32.433297404
 20
-2.6497313681
 10
-32.454839096
 20
-2.6588526698
 10
-32.4770938
 20
-2.6673095273
 10
-32.5000018641
 20
-2.6750792727
 10
-32.523501885
 20
-2.6821410797
 10
-32.5475308726
 20
-2.6884760197
 10
-32.5720244192
 20
-2.6940671124
 10
-32.5969168717
 20
-2.6988993713
 10
-32.6221415077
 20
-2.7029598439
 10
-32.6476307147
 20
-2.7062376465
 10
-32.6733161706
 20
-2.7087239931
 10
-32.6991290278
 20
-2.7104122192
 10
-32.7250000967
 20
-2.7112977997
 10
-32.7508600319
 20
-2.7113783609
 10
-32.776639518
 20
-2.7106536869
 10
-32.802269455
 20
-2.70912572
 10
-32.8276811438
 20
-2.7067985559
 10
-32.8528064703
 20
-2.7036784323
 10
-32.8775780881
 20
-2.6997737125
 10
-32.9019295988
 20
-2.6950948629
 10
-32.9257957299
 20
-2.6896544246
 10
-32.9491125102
 20
-2.6834669804
 10
-32.9718174408
 20
-2.6765491152
 10
-32.993849663
 20
-2.6689193719
 10
-33.0151501211
 20
-2.6605982014
 10
-33.0356617207
 20
-2.6516079079
 10
-33.0553294822
 20
-2.6419725892
 10
-33.0741006877
 20
-2.631718072
  0
LWPOLYLINE
  5
569
100
AcDbEntity
  8
RACCORDO
100
AcDbPolyline
 62
253
  6
CONTINUOUS
 90
31
 70
0
 10
-32.3735173303
 20
-2.6186337943
 10
-32.3925819537
 20
-2.6295949397
 10
-32.4125264644
 20
-2.639970064
 10
-32.4332974026
 20
-2.6497313575
 10
-32.4548390934
 20
-2.6588526558
 10
-32.477093796
 20
-2.66730951
 10
-32.5000018584
 20
-2.6750792521
 10
-32.5235018773
 20
-2.682141056
 10
-32.5475308627
 20
-2.688475993
 10
-32.5720244068
 20
-2.6940670828
 10
-32.5969168566
 20
-2.698899339
 10
-32.6221414898
 20
-2.702959809
 10
-32.6476306937
 20
-2.7062376091
 10
-32.6733161464
 20
-2.7087239534
 10
-32.6991290003
 20
-2.7104121775
 10
-32.7250000657
 20
-2.7112977561
 10
-32.7508599975
 20
-2.7113783156
 10
-32.7766394801
 20
-2.71065364
 10
-32.8022694135
 20
-2.7091256718
 10
-32.8276810987
 20
-2.7067985066
 10
-32.8528064217
 20
-2.7036783821
 10
-32.877578036
 20
-2.6997736616
 10
-32.9019295432
 20
-2.6950948114
 10
-32.925795671
 20
-2.6896543728
 10
-32.9491124481
 20
-2.6834669285
 10
-32.9718173756
 20
-2.6765490634
 10
-32.9938495949
 20
-2.6689193203
 10
-33.0151500501
 20
-2.6605981502
 10
-33.0356616472
 20
-2.6516078573
 10
-33.0553294064
 20
-2.6419725395
 10
-33.0741006097
 20
-2.6317180233
  0
LWPOLYLINE
  5
56A
100
AcDbEntity
  8
0
100
AcDbPolyline
 62
7
  6
CONTINUOUS
 90
11
 70
0
 10
-19.0499395416
 20
7.8060392567
 10
-19.0668316475
 20
7.7967441863
 10
-19.1016419793
 20
7.7802997151
 10
-19.1379808527
 20
7.7666525799
 10
-19.1758087888
 20
7.7557965381
 10
-19.214823781
 20
7.7478188327
 10
-19.255003645
 20
7.7427447951
 10
-19.2963705652
 20
7.7405490938
 10
-19.3386890882
 20
7.7412429772
 10
-19.3819934103
 20
7.7448462386
 10
-19.4045678756
 20
7.7481581687
  0
LINE
  5
56B
100
AcDbEntity
  8
RACCORDO
100
AcDbLine
 62
253
  6
CONTINUOUS
 10
-11.07586904
 20
48.0292684828
 11
-13.3556806062
 21
48.0177821147
  0
LINE
  5
56C
100
AcDbEntity
  8
ASSI
100
AcDbLine
 62
253
  6
CONTINUOUS
 10
-11.07586904
 20
48.0292684828
 11
-13.3556806062
 21
48.0177821147
  0
LINE
  5
56D
100
AcDbEntity
  8
RACCORDO
100
AcDbLine
 62
253
  6
CONTINUOUS
 10
-11.0777202178
 20
48.4463476326
 11
-13.3575317839
 21
48.4348612644
  0
LINE
  5
56E
100
AcDbEntity
  8
ASSI
100
AcDbLine
 62
253
  6
CONTINUOUS
 10
-11.0777202178
 20
48.4463476326
 11
-13.3575317839
 21
48.4348612644
  0
LINE
  5
56F
100
AcDbEntity
  8
RACCORDO
100
AcDbLine
 62
7
  6
CONTINUOUS
 10
-11.07586904
 20
47.2913941763
 11
-13.3556806062
 21
47.2913941763
  0
LINE
  5
570
100
AcDbEntity
  8
ASSI
100
AcDbLine
 62
7
  6
CONTINUOUS
 10
-11.07586904
 20
47.2913941763
 11
-13.3556806062
 21
47.2913941763
  0
LWPOLYLINE
  5
571
100
AcDbEntity
  8
RACCORDO
100
AcDbPolyline
 62
253
  6
CONTINUOUS
 90
10
 70
0
 10
-13.3575317839
 20
48.4348612644
 10
-13.3751528557
 20
48.4352385717
 10
-13.3923969132
 20
48.4364734058
 10
-13.4092639565
 20
48.4385657668
 10
-13.4258871626
 20
48.4415475635
 10
-13.4421333544
 20
48.4453868871
 10
-13.4576030012
 20
48.4499880106
 10
-13.4721629259
 20
48.4553190249
 10
-13.4859463056
 20
48.461411839
 10
-13.4989531402
 20
48.468266453
  0
LWPOLYLINE
  5
572
100
AcDbEntity
  8
ASSI
100
AcDbPolyline
 62
253
  6
CONTINUOUS
 90
10
 70
0
 10
-13.3575317839
 20
48.4348612644
 10
-13.3751528557
 20
48.4352385717
 10
-13.3923969132
 20
48.4364734058
 10
-13.4092639565
 20
48.4385657668
 10
-13.4258871626
 20
48.4415475635
 10
-13.4421333544
 20
48.4453868871
 10
-13.4576030012
 20
48.4499880106
 10
-13.4721629259
 20
48.4553190249
 10
-13.4859463056
 20
48.461411839
 10
-13.4989531402
 20
48.468266453
  0
LWPOLYLINE
  5
573
100
AcDbEntity
  8
RACCORDO
100
AcDbPolyline
 62
253
  6
CONTINUOUS
 90
10
 70
0
 10
-13.3556806062
 20
48.0177821147
 10
-13.3992968476
 20
48.018797757
 10
-13.4425645489
 20
48.0220137493
 10
-13.4851546355
 20
48.0274025855
 10
-13.526735499
 20
48.0349182511
 10
-13.567000937
 20
48.0445020634
 10
-13.6056695791
 20
48.0560872773
 10
-13.6424534745
 20
48.0695901847
 10
-13.6770633077
 20
48.0849066432
 10
-13.7092339968
 20
48.1019211654
  0
LWPOLYLINE
  5
574
100
AcDbEntity
  8
ASSI
100
AcDbPolyline
 62
253
  6
CONTINUOUS
 90
10
 70
0
 10
-13.3556806062
 20
48.0177821147
 10
-13.3992968476
 20
48.018797757
 10
-13.4425645489
 20
48.0220137493
 10
-13.4851546355
 20
48.0274025855
 10
-13.526735499
 20
48.0349182511
 10
-13.567000937
 20
48.0445020634
 10
-13.6056695791
 20
48.0560872773
 10
-13.6424534745
 20
48.0695901847
 10
-13.6770633077
 20
48.0849066432
 10
-13.7092339968
 20
48.1019211654
  0
LWPOLYLINE
  5
575
100
AcDbEntity
  8
RACCORDO
100
AcDbPolyline
 62
7
  6
CONTINUOUS
 90
10
 70
0
 10
-13.7092339968
 20
47.3759506132
 10
-13.6766498944
 20
47.3587786359
 10
-13.6421582739
 20
47.3434944269
 10
-13.6057591353
 20
47.3300979862
 10
-13.5671423236
 20
47.3185140658
 10
-13.5266179938
 20
47.3088179137
 10
-13.4851166107
 20
47.3012352742
 10
-13.4429483291
 20
47.2958413956
 10
-13.3998029943
 20
47.2925610296
 10
-13.3556806062
 20
47.2913941763
  0
LWPOLYLINE
  5
576
100
AcDbEntity
  8
ASSI
100
AcDbPolyline
 62
7
  6
CONTINUOUS
 90
10
 70
0
 10
-13.7092339968
 20
47.3759506132
 10
-13.6766498944
 20
47.3587786359
 10
-13.6421582739
 20
47.3434944269
 10
-13.6057591353
 20
47.3300979862
 10
-13.5671423236
 20
47.3185140658
 10
-13.5266179938
 20
47.3088179137
 10
-13.4851166107
 20
47.3012352742
 10
-13.4429483291
 20
47.2958413956
 10
-13.3998029943
 20
47.2925610296
 10
-13.3556806062
 20
47.2913941763
  0
LINE
  5
577
100
AcDbEntity
  8
RACCORDO
100
AcDbLine
 62
7
  6
CONTINUOUS
 10
-13.851042057
 20
47.4578598259
 11
-13.8541211519
 21
47.4596066407
  0
LINE
  5
578
100
AcDbEntity
  8
ASSI
100
AcDbLine
 62
7
  6
CONTINUOUS
 10
-13.851042057
 20
47.4578598259
 11
-13.8541211519
 21
47.4596066407
  0
LINE
  5
579
100
AcDbEntity
  8
RACCORDO
100
AcDbLine
 62
7
  6
CONTINUOUS
 10
2.8513380996
 20
36.2231109907
 11
2.2056938331
 21
36.5958978984
  0
LINE
  5
57A
100
AcDbEntity
  8
ASSI
100
AcDbLine
 62
7
  6
CONTINUOUS
 10
2.8513380996
 20
36.2231109907
 11
2.2056938331
 21
36.5958978984
  0
LINE
  5
57B
100
AcDbEntity
  8
ASSI
100
AcDbLine
 62
7
  6
CONTINUOUS
 10
-13.8456300999
 20
46.9647823926
 11
-16.8154785809
 21
48.6795356846
  0
LINE
  5
57C
100
AcDbEntity
  8
RACCORDO
100
AcDbLine
 62
7
  6
CONTINUOUS
 10
-16.2447679027
 20
48.8399361128
 11
-13.8541211519
 21
47.4596066407
  0
LINE
  5
57D
100
AcDbEntity
  8
ASSI
100
AcDbLine
 62
7
  6
CONTINUOUS
 10
-16.2447679027
 20
48.8399361128
 11
-13.8541211519
 21
47.4596066407
  0
LINE
  5
57E
100
AcDbEntity
  8
RACCORDO
100
AcDbLine
 62
7
  6
CONTINUOUS
 10
-13.8518119665
 20
47.4583082385
 11
-13.7092339968
 21
47.3759506132
  0
LINE
  5
57F
100
AcDbEntity
  8
ASSI
100
AcDbLine
 62
7
  6
CONTINUOUS
 10
-13.8518119665
 20
47.4583082385
 11
-13.7092339968
 21
47.3759506132
  0
LWPOLYLINE
  5
580
100
AcDbEntity
  8
RACCORDO
100
AcDbPolyline
 62
253
  6
CONTINUOUS
 90
10
 70
0
 10
-16.2447679027
 20
49.565906665
 10
-16.2742460502
 20
49.5844874085
 10
-16.300801282
 20
49.6044868918
 10
-16.3242335803
 20
49.62575206
 10
-16.3443631829
 20
49.6481162157
 10
-16.3610445066
 20
49.6714127498
 10
-16.3741601361
 20
49.6954781538
 10
-16.383607831
 20
49.7201352804
 10
-16.3893085028
 20
49.745193013
 10
-16.3912145121
 20
49.7704613478
  0
LWPOLYLINE
  5
581
100
AcDbEntity
  8
ASSI
100
AcDbPolyline
 62
253
  6
CONTINUOUS
 90
10
 70
0
 10
-16.2447679027
 20
49.565906665
 10
-16.2742460502
 20
49.5844874085
 10
-16.300801282
 20
49.6044868918
 10
-16.3242335803
 20
49.62575206
 10
-16.3443631829
 20
49.6481162157
 10
-16.3610445066
 20
49.6714127498
 10
-16.3741601361
 20
49.6954781538
 10
-16.383607831
 20
49.7201352804
 10
-16.3893085028
 20
49.745193013
 10
-16.3912145121
 20
49.7704613478
  0
LWPOLYLINE
  5
582
100
AcDbEntity
  8
ASSI
100
AcDbPolyline
 62
7
  6
CONTINUOUS
 90
33
 70
0
 10
-2.7435697911
 20
37.709297612
 10
-2.8006960166
 20
37.7580707919
 10
-2.852209773
 20
37.8152064669
 10
-2.8988387016
 20
37.8816223171
 10
-2.9403376437
 20
37.9575505179
 10
-2.9759685704
 20
38.0422573594
 10
-3.00529368
 20
38.135245096
 10
-3.027961147
 20
38.2357761235
 10
-3.0437095143
 20
38.343052024
 10
-3.0523734313
 20
38.4564954103
 10
-3.0538639705
 20
38.5750252142
 10
-3.048183418
 20
38.6980505925
 10
-3.0351999026
 20
38.8260354334
 10
-3.0147329271
 20
38.9587724867
 10
-2.9867856746
 20
39.0950322816
 10
-2.9513979025
 20
39.2339302227
 10
-2.9086668205
 20
39.3746990988
 10
-2.8587569306
 20
39.5165224505
 10
-2.8019137243
 20
39.6584715361
 10
-2.7384242969
 20
39.7997218986
 10
-2.6686047198
 20
39.9395137677
 10
-2.59281677
 20
40.0770477363
 10
-2.5114633062
 20
40.2115646449
 10
-2.4249962256
 20
40.3423284487
 10
-2.3339007452
 20
40.468600061
 10
-2.2386474523
 20
40.5897442852
 10
-2.1398377192
 20
40.705055241
 10
-2.0382223495
 20
40.8137311474
 10
-1.9343800677
 20
40.9152576836
 10
-1.8289695585
 20
41.0091319363
 10
-1.7229455333
 20
41.0946767796
 10
-1.6171051758
 20
41.1714900521
 10
-1.5122251592
 20
41.2393241731
  0
LWPOLYLINE
  5
583
100
AcDbEntity
  8
RACCORDO
100
AcDbPolyline
 62
253
  6
CONTINUOUS
 90
13
 70
0
 10
-1.3963741748
 20
41.4898783962
 10
-1.3981732173
 20
41.5229078074
 10
-1.4035395068
 20
41.5574858365
 10
-1.4123811391
 20
41.5930207817
 10
-1.4245467401
 20
41.62890457
 10
-1.4398280783
 20
41.6645232226
 10
-1.4579636476
 20
41.699267358
 10
-1.4786430892
 20
41.7325425064
 10
-1.50151254
 20
41.7637793705
 10
-1.5261807376
 20
41.7924436034
 10
-1.5522256228
 20
41.8180448173
 10
-1.579201545
 20
41.8401449919
 10
-1.6066469521
 20
41.8583660414
  0
LWPOLYLINE
  5
584
100
AcDbEntity
  8
ASSI
100
AcDbPolyline
 62
253
  6
CONTINUOUS
 90
13
 70
0
 10
-1.3963741748
 20
41.4898783962
 10
-1.3981732173
 20
41.5229078074
 10
-1.4035395068
 20
41.5574858365
 10
-1.4123811391
 20
41.5930207817
 10
-1.4245467401
 20
41.62890457
 10
-1.4398280783
 20
41.6645232226
 10
-1.4579636476
 20
41.699267358
 10
-1.4786430892
 20
41.7325425064
 10
-1.50151254
 20
41.7637793705
 10
-1.5261807376
 20
41.7924436034
 10
-1.5522256228
 20
41.8180448173
 10
-1.579201545
 20
41.8401449919
 10
-1.6066469521
 20
41.8583660414
  0
LWPOLYLINE
  5
585
100
AcDbEntity
  8
0
100
AcDbPolyline
 62
7
  6
CONTINUOUS
 90
8
 70
0
 10
-0.3752459183
 20
20.2273699511
 10
-0.3766595878
 20
20.282878265
 10
-0.3807616345
 20
20.3393752961
 10
-0.3875520583
 20
20.3968610445
 10
-0.3970673336
 20
20.4555189073
 10
-0.4092709862
 20
20.5151654874
 10
-0.4240535927
 20
20.5752505928
 10
-0.4414552325
 20
20.6358226124
  0
LINE
  5
586
100
AcDbEntity
  8
0
100
AcDbLine
 62
7
  6
CONTINUOUS
 10
-0.4459565964
 20
20.6495674824
 11
-0.4459565964
 21
21.3888963453
  0
LINE
  5
587
100
AcDbEntity
  8
ASSI
100
AcDbLine
 62
7
  6
CONTINUOUS
 10
-0.3752459183
 20
20.2273699511
 11
-0.3752459183
 21
19.0620073478
  0
LINE
  5
588
100
AcDbEntity
  8
0
100
AcDbLine
 62
7
  6
CONTINUOUS
 10
0.0490181504
 20
19.2204537212
 11
0.0490181504
 21
21.6746885606
  0
LINE
  5
589
100
AcDbEntity
  8
0
100
AcDbLine
 62
7
  6
CONTINUOUS
 10
0.0490181504
 20
31.9215759725
 11
0.0490181504
 21
33.9615678364
  0
LINE
  5
58A
100
AcDbEntity
  8
0
100
AcDbLine
 62
7
  6
CONTINUOUS
 10
0.0490181504
 20
35.3395179794
 11
0.0490181504
 21
38.0439192203
  0
LINE
  5
58B
100
AcDbEntity
  8
0
100
AcDbLine
 62
7
  6
CONTINUOUS
 10
0.0490181504
 20
39.4218693633
 11
0.0490181504
 21
42.1262706043
  0
LINE
  5
58C
100
AcDbEntity
  8
0
100
AcDbLine
 62
7
  6
CONTINUOUS
 10
0.0490181504
 20
43.5042207473
 11
0.0490181504
 21
46.2086219882
  0
LINE
  5
58D
100
AcDbEntity
  8
DRAFT
100
AcDbLine
 62
7
  6
CONTINUOUS
 10
1.1450336613
 20
31.9011346244
 11
1.1450336613
 21
34.5834438408
  0
LINE
  5
58E
100
AcDbEntity
  8
ASSI
100
AcDbLine
 62
7
  6
CONTINUOUS
 10
1.1450336613
 20
31.9011346244
 11
1.1450336613
 21
34.5834438408
  0
LINE
  5
58F
100
AcDbEntity
  8
DRAFT
100
AcDbLine
 62
7
  6
CONTINUOUS
 10
1.1450336613
 20
35.9834860084
 11
1.1450336613
 21
38.6657952248
  0
LINE
  5
590
100
AcDbEntity
  8
ASSI
100
AcDbLine
 62
7
  6
CONTINUOUS
 10
1.1450336613
 20
35.9834860084
 11
1.1450336613
 21
38.6657952248
  0
LINE
  5
591
100
AcDbEntity
  8
DRAFT
100
AcDbLine
 62
7
  6
CONTINUOUS
 10
1.1450336613
 20
40.0658373924
 11
1.1450336613
 21
42.7481466087
  0
LINE
  5
592
100
AcDbEntity
  8
ASSI
100
AcDbLine
 62
7
  6
CONTINUOUS
 10
1.1450336613
 20
40.0658373924
 11
1.1450336613
 21
42.7481466087
  0
LINE
  5
593
100
AcDbEntity
  8
DRAFT
100
AcDbLine
 62
7
  6
CONTINUOUS
 10
1.1450336613
 20
44.1481887763
 11
1.1450336613
 21
46.8304979927
  0
LINE
  5
594
100
AcDbEntity
  8
ASSI
100
AcDbLine
 62
7
  6
CONTINUOUS
 10
1.1450336613
 20
44.1481887763
 11
1.1450336613
 21
46.8304979927
  0
LWPOLYLINE
  5
595
100
AcDbEntity
  8
0
100
AcDbPolyline
 62
7
  6
CONTINUOUS
 90
8
 70
0
 10
-0.3752459183
 20
19.0620073478
 10
-0.3763911911
 20
19.0080591032
 10
-0.3797507406
 20
18.9557677437
 10
-0.385324567
 20
18.9051332693
 10
-0.393132749
 20
18.8560572512
 10
-0.4031552078
 20
18.8086381183
 10
-0.4153317064
 20
18.7631711567
 10
-0.4296846169
 20
18.7196491974
  0
LWPOLYLINE
  5
596
100
AcDbEntity
  8
0
100
AcDbPolyline
 62
7
  6
CONTINUOUS
 90
11
 70
0
 10
-0.4296846169
 20
18.7196491974
 10
-0.4461915672
 20
18.6780794096
 10
-0.4647252045
 20
18.6387785862
 10
-0.485285571
 20
18.6017862371
 10
-0.5078726244
 20
18.5670628526
 10
-0.5323588851
 20
18.5348066967
 10
-0.5587773847
 20
18.505011226
 10
-0.5870950916
 20
18.4776829841
 10
-0.6170854309
 20
18.4530398653
 10
-0.6487340676
 20
18.4311191775
 10
-0.6651632307
 20
18.4211786833
  0
LWPOLYLINE
  5
597
100
AcDbEntity
  8
0
100
AcDbPolyline
 62
7
  6
CONTINUOUS
 90
16
 70
0
 10
0.0039242554
 20
19.0063732971
 10
0.0096652465
 20
19.0181954027
 10
0.0150231972
 20
19.0303965347
 10
0.0199981074
 20
19.0429766933
 10
0.0245934518
 20
19.0559468082
 10
0.0288057558
 20
19.0692959496
 10
0.0326245951
 20
19.0829913275
 10
0.0360489501
 20
19.0970336617
 10
0.0390798403
 20
19.1114222324
 10
0.0417099009
 20
19.1261220905
 10
0.0439381566
 20
19.1411339806
 10
0.0457655826
 20
19.156457158
 10
0.047187739
 20
19.1720544392
 10
0.0482031457
 20
19.1879134295
 10
0.0488132829
 20
19.2040465235
 10
0.0490181504
 20
19.2204537212
  0
LWPOLYLINE
  5
598
100
AcDbEntity
  8
RACCORDO
100
AcDbPolyline
 62
253
  6
CONTINUOUS
 90
16
 70
0
 10
-26.0605505811
 20
-1.8060138517
 10
-26.0549323507
 20
-1.8023824352
 10
-26.048925402
 20
-1.7977312452
 10
-26.0432990483
 20
-1.7925125892
 10
-26.0380687252
 20
-1.7867407803
 10
-26.03324877
 20
-1.7804316358
 10
-26.0288524033
 20
-1.7736024547
 10
-26.0248916816
 20
-1.766271959
 10
-26.0213774685
 20
-1.7584602477
 10
-26.018319405
 20
-1.7501887465
 10
-26.0157258761
 20
-1.7414801295
 10
-26.0136039966
 20
-1.7323582805
 10
-26.0119595899
 20
-1.722848239
 10
-26.010797163
 20
-1.7129760941
 10
-26.0101198985
 20
-1.7027689088
 10
-26.0099296504
 20
-1.6922546734
  0
LWPOLYLINE
  5
599
100
AcDbEntity
  8
RACCORDO
100
AcDbPolyline
 62
7
  6
CONTINUOUS
 90
3
 70
0
 10
-26.5892412464
 20
-2.1184182287
 10
-26.5870330227
 20
-2.1170666884
 10
-26.5813734984
 20
-2.1131458431
  0
LINE
  5
59A
100
AcDbEntity
  8
RACCORDO
100
AcDbLine
 62
253
  6
CONTINUOUS
 10
-26.0099296504
 20
-1.6922546734
 11
-26.5381968222
 21
-2.0044088077
  0
LINE
  5
59B
100
AcDbEntity
  8
RACCORDO
100
AcDbLine
 62
7
  6
CONTINUOUS
 10
-26.0605505948
 20
-1.8060138598
 11
-26.5892375733
 21
-2.1184160587
  0
LINE
  5
59C
100
AcDbEntity
  8
RACCORDO
100
AcDbLine
 62
7
  6
CONTINUOUS
 10
-26.5906954897
 20
-2.1192578906
 11
-26.5892412464
 21
-2.1184182287
  0
LWPOLYLINE
  5
59D
100
AcDbEntity
  8
RACCORDO
100
AcDbPolyline
 62
253
  6
CONTINUOUS
 90
17
 70
0
 10
-28.1924046828
 20
-3.0226687479
 10
-28.1916597405
 20
-3.0222435096
 10
-28.18528711
 20
-3.0181663774
 10
-28.1792707858
 20
-3.013504566
 10
-28.1736272101
 20
-3.0082708201
 10
-28.1683717949
 20
-3.0024794073
 10
-28.1635190288
 20
-2.9961462668
 10
-28.1590823481
 20
-2.9892889734
 10
-28.1550739563
 20
-2.9819265178
 10
-28.1515047172
 20
-2.9740789979
 10
-28.1483842988
 20
-2.965767728
 10
-28.1457207251
 20
-2.9570135347
 10
-28.1435220328
 20
-2.9478421917
 10
-28.1417951878
 20
-2.9382849659
 10
-28.1405442435
 20
-2.9283708593
 10
-28.1397713149
 20
-2.9181256852
 10
-28.139477613
 20
-2.9075780335
  0
LINE
  5
59E
100
AcDbEntity
  8
RACCORDO
100
AcDbLine
 62
253
  6
CONTINUOUS
 10
-26.1955389096
 20
-0.3144771373
 11
-25.4775366504
 21
0.0929750143
  0
LINE
  5
59F
100
AcDbEntity
  8
RACCORDO
100
AcDbLine
 62
7
  6
CONTINUOUS
 10
-26.2952093274
 20
-0.5275552522
 11
-25.5738119735
 21
-0.1181764512
  0
LINE
  5
5A0
100
AcDbEntity
  8
RACCORDO
100
AcDbLine
 62
253
  6
CONTINUOUS
 10
-26.5381968222
 20
-2.0044088077
 11
-28.139477613
 21
-2.9075780335
  0
LINE
  5
5A1
100
AcDbEntity
  8
RACCORDO
100
AcDbLine
 62
7
  6
CONTINUOUS
 10
-26.5906991782
 20
-2.119259971
 11
-28.192404689
 21
-3.0226687514
  0
LWPOLYLINE
  5
5A2
100
AcDbEntity
  8
RACCORDO
100
AcDbPolyline
 62
7
  6
CONTINUOUS
 90
3
 70
0
 10
-26.2952272281
 20
-0.5275654105
 10
-26.2997235227
 20
-0.5300194327
 10
-26.3026018859
 20
-0.5314909042
  0
LINE
  5
5A3
100
AcDbEntity
  8
RACCORDO
100
AcDbLine
 62
253
  6
CONTINUOUS
 10
-31.6923296709
 20
-3.0205935425
 11
-27.9948367914
 21
-1.1788671712
  0
LINE
  5
5A4
100
AcDbEntity
  8
ASSI
100
AcDbLine
 62
253
  6
CONTINUOUS
 10
-31.6923296709
 20
-3.0205935425
 11
-27.9948367914
 21
-1.1788671712
  0
LINE
  5
5A5
100
AcDbEntity
  8
RACCORDO
100
AcDbLine
 62
253
  6
CONTINUOUS
 10
-27.9956094663
 20
-1.2110947976
 11
-26.1955389096
 21
-0.3144771373
  0
LINE
  5
5A6
100
AcDbEntity
  8
RACCORDO
100
AcDbLine
 62
7
  6
CONTINUOUS
 10
-31.8167320968
 20
-3.2604776187
 11
-28.1074992726
 21
-1.4129035646
  0
LINE
  5
5A7
100
AcDbEntity
  8
ASSI
100
AcDbLine
 62
7
  6
CONTINUOUS
 10
-31.8167320968
 20
-3.2604776187
 11
-28.1074992726
 21
-1.4129035646
  0
LINE
  5
5A8
100
AcDbEntity
  8
RACCORDO
100
AcDbLine
 62
7
  6
CONTINUOUS
 10
-28.099258949
 20
-1.4264082795
 11
-26.3026154938
 21
-0.5314976634
  0
LINE
  5
5A9
100
AcDbEntity
  8
RACCORDO
100
AcDbLine
 62
7
  6
CONTINUOUS
 10
-31.8510683649
 20
-3.2769866153
 11
-31.8167411399
 21
-3.2604819934
  0
LINE
  5
5AA
100
AcDbEntity
  8
RACCORDO
100
AcDbLine
 62
7
  6
CONTINUOUS
 10
-2.6890561052
 20
41.7561121446
 11
-2.6924233469
 21
41.7580446716
  0
LINE
  5
5AB
100
AcDbEntity
  8
ASSI
100
AcDbLine
 62
7
  6
CONTINUOUS
 10
-2.6891200249
 20
41.7561486084
 11
-2.6924233469
 21
41.7580446716
  0
LINE
  5
5AC
100
AcDbEntity
  8
RACCORDO
100
AcDbLine
 62
253
  6
CONTINUOUS
 10
-13.7092339968
 20
48.1019211654
 11
-16.2447679027
 21
49.565906665
  0
LINE
  5
5AD
100
AcDbEntity
  8
ASSI
100
AcDbLine
 62
253
  6
CONTINUOUS
 10
-13.7092339968
 20
48.1019211654
 11
-16.2447679027
 21
49.565906665
  0
LINE
  5
5AE
100
AcDbEntity
  8
RACCORDO
100
AcDbLine
 62
253
  6
CONTINUOUS
 10
-13.4989531402
 20
48.468266453
 11
-16.0344870461
 21
49.9322519526
  0
LINE
  5
5AF
100
AcDbEntity
  8
ASSI
100
AcDbLine
 62
253
  6
CONTINUOUS
 10
-13.4989531402
 20
48.468266453
 11
-16.0344870461
 21
49.9322519526
  0
LINE
  5
5B0
100
AcDbEntity
  8
RACCORDO
100
AcDbLine
 62
253
  6
CONTINUOUS
 10
-1.606646954
 20
41.8583660403
 11
-2.1844121192
 21
42.1919604056
  0
LINE
  5
5B1
100
AcDbEntity
  8
ASSI
100
AcDbLine
 62
253
  6
CONTINUOUS
 10
-1.606646954
 20
41.8583660403
 11
-2.1844121192
 21
42.1919604056
  0
LINE
  5
5B2
100
AcDbEntity
  8
RACCORDO
100
AcDbLine
 62
7
  6
CONTINUOUS
 10
2.8513380996
 20
40.3054623747
 11
2.2056938331
 21
40.6782492823
  0
LINE
  5
5B3
100
AcDbEntity
  8
ASSI
100
AcDbLine
 62
7
  6
CONTINUOUS
 10
2.8513380996
 20
40.3054623747
 11
2.2056938331
 21
40.6782492823
  0
LINE
  5
5B4
100
AcDbEntity
  8
ASSI
100
AcDbLine
 62
7
  6
CONTINUOUS
 10
-9.4470050147
 20
48.0995427361
 11
-5.4268815548
 21
45.7783738343
  0
LINE
  5
5B5
100
AcDbEntity
  8
RACCORDO
100
AcDbLine
 62
7
  6
CONTINUOUS
 10
-5.4638475172
 20
45.8179579058
 11
-9.0922324289
 21
47.9129418795
  0
LINE
  5
5B6
100
AcDbEntity
  8
ASSI
100
AcDbLine
 62
7
  6
CONTINUOUS
 10
-5.4638475172
 20
45.8179579058
 11
-9.0922324289
 21
47.9129418795
  0
LWPOLYLINE
  5
5B7
100
AcDbEntity
  8
RACCORDO
100
AcDbPolyline
 62
253
  6
CONTINUOUS
 90
10
 70
0
 10
-16.0344870461
 20
49.9322519526
 10
-16.0463686392
 20
49.9397676053
 10
-16.0569489725
 20
49.947742094
 10
-16.0662280461
 20
49.9561754186
 10
-16.0742617986
 20
49.9651448629
 10
-16.0809942913
 20
49.9745731431
 10
-16.0862577084
 20
49.9842284078
 10
-16.0899961112
 20
49.9940333732
 10
-16.0922654384
 20
50.0040653231
 10
-16.0930656899
 20
50.0143242574
  0
LWPOLYLINE
  5
5B8
100
AcDbEntity
  8
ASSI
100
AcDbPolyline
 62
253
  6
CONTINUOUS
 90
10
 70
0
 10
-16.0344870461
 20
49.9322519526
 10
-16.0463686392
 20
49.9397676053
 10
-16.0569489725
 20
49.947742094
 10
-16.0662280461
 20
49.9561754186
 10
-16.0742617986
 20
49.9651448629
 10
-16.0809942913
 20
49.9745731431
 10
-16.0862577084
 20
49.9842284078
 10
-16.0899961112
 20
49.9940333732
 10
-16.0922654384
 20
50.0040653231
 10
-16.0930656899
 20
50.0143242574
  0
LINE
  5
5B9
100
AcDbEntity
  8
ASSI
100
AcDbLine
 62
7
  6
CONTINUOUS
 10
-2.6891900563
 20
41.7561917771
 11
-2.7435697911
 21
41.791648996
  0
LWPOLYLINE
  5
5BA
100
AcDbEntity
  8
RACCORDO
100
AcDbPolyline
 62
7
  6
CONTINUOUS
 90
34
 70
0
 10
-2.6891261496
 20
41.7561553304
 10
-2.7451261493
 20
41.7928087027
 10
-2.8021065314
 20
41.841803176
 10
-2.8534731797
 20
41.8991511126
 10
-2.8999430166
 20
41.9657600562
 10
-2.9412703246
 20
42.0418483825
 10
-2.9767227914
 20
42.1266769474
 10
-3.0058697917
 20
42.2197475702
 10
-3.0283642287
 20
42.3203162717
 10
-3.043949921
 20
42.4275886827
 10
-3.0524667047
 20
42.5410093822
 10
-3.053825855
 20
42.6595124598
 10
-3.0480268681
 20
42.7825017198
 10
-3.0349372837
 20
42.9104316849
 10
-3.0143781253
 20
43.0430931853
 10
-2.9863529073
 20
43.1792623139
 10
-2.9509027972
 20
43.3180527379
 10
-2.9081266458
 20
43.4586973369
 10
-2.8581886217
 20
43.6003838285
 10
-2.8013337813
 20
43.7421871112
 10
-2.7378491443
 20
43.8832853716
 10
-2.6680501582
 20
44.0229210791
 10
-2.5922975758
 20
44.1602976792
 10
-2.5109934096
 20
44.294658626
 10
-2.4245884229
 20
44.4252700492
 10
-2.3335665251
 20
44.5513950895
 10
-2.2383970488
 20
44.6724007127
 10
-2.1396797013
 20
44.7875831838
 10
-2.0381632778
 20
44.8961429528
 10
-1.9344249145
 20
44.9975671988
 10
-1.8291211944
 20
45.0913546847
 10
-1.7232037264
 20
45.176830399
 10
-1.6174670719
 20
45.2535931453
 10
-1.5125298445
 20
45.3214964576
  0
LWPOLYLINE
  5
5BB
100
AcDbEntity
  8
ASSI
100
AcDbPolyline
 62
7
  6
CONTINUOUS
 90
33
 70
0
 10
-2.7435697911
 20
41.791648996
 10
-2.8006960166
 20
41.8404221758
 10
-2.852209773
 20
41.8975578509
 10
-2.8988387016
 20
41.9639737011
 10
-2.9403376437
 20
42.0399019018
 10
-2.9759685704
 20
42.1246087433
 10
-3.00529368
 20
42.21759648
 10
-3.027961147
 20
42.3181275074
 10
-3.0437095143
 20
42.425403408
 10
-3.0523734313
 20
42.5388467942
 10
-3.0538639705
 20
42.6573765982
 10
-3.048183418
 20
42.7804019765
 10
-3.0351999026
 20
42.9083868174
 10
-3.0147329271
 20
43.0411238706
 10
-2.9867856746
 20
43.1773836656
 10
-2.9513979025
 20
43.3162816066
 10
-2.9086668205
 20
43.4570504828
 10
-2.8587569306
 20
43.5988738345
 10
-2.8019137243
 20
43.74082292
 10
-2.7384242969
 20
43.8820732825
 10
-2.6686047198
 20
44.0218651516
 10
-2.59281677
 20
44.1593991202
 10
-2.5114633062
 20
44.2939160289
 10
-2.4249962256
 20
44.4246798326
 10
-2.3339007452
 20
44.5509514449
 10
-2.2386474523
 20
44.6720956692
 10
-2.1398377192
 20
44.7874066249
 10
-2.0382223495
 20
44.8960825314
 10
-1.9343800677
 20
44.9976090676
 10
-1.8289695585
 20
45.0914833203
 10
-1.7229455333
 20
45.1770281636
 10
-1.6171051758
 20
45.2538414361
 10
-1.5122251592
 20
45.3216755571
  0
LWPOLYLINE
  5
5BC
100
AcDbEntity
  8
ASSI
100
AcDbPolyline
 62
7
  6
CONTINUOUS
 90
28
 70
0
 10
-5.0718815548
 20
45.4036128723
 10
-5.0823723885
 20
45.4214342659
 10
-5.0931361121
 20
45.439037706
 10
-5.1041727256
 20
45.4564231925
 10
-5.1154920233
 20
45.4736050585
 10
-5.127084211
 20
45.4905689709
 10
-5.1389199055
 20
45.507271931
 10
-5.1509997247
 20
45.5237132766
 10
-5.1633230507
 20
45.5398936699
 10
-5.1758586474
 20
45.555772098
 10
-5.1886070533
 20
45.5713477948
 10
-5.2015677298
 20
45.5866215264
 10
-5.2147078253
 20
45.6015545781
 10
-5.2280277948
 20
45.6161460856
 10
-5.2415271832
 20
45.6303969132
 10
-5.2551717733
 20
45.6442709389
 10
-5.2689619334
 20
45.6577672069
 10
-5.2828972952
 20
45.6708866731
 10
-5.2969425364
 20
45.6835960831
 10
-5.3110979357
 20
45.6958943969
 10
-5.3253632144
 20
45.7077826546
 10
-5.3397022139
 20
45.7192307227
 10
-5.3541151213
 20
45.7302374846
 10
-5.3686017495
 20
45.740804057
 10
-5.3831253789
 20
45.7509036565
 10
-5.3976737696
 20
45.7605273553
 10
-5.4122591616
 20
45.7696840813
 10
-5.4268815548
 20
45.7783738343
  0
LINE
  5
5BD
100
AcDbEntity
  8
ASSI
100
AcDbLine
 62
7
  6
CONTINUOUS
 10
-5.0718815548
 20
45.4036128723
 11
-4.5174450466
 21
44.4433006716
  0
LINE
  5
5BE
100
AcDbEntity
  8
RACCORDO
100
AcDbLine
 62
7
  6
CONTINUOUS
 10
-4.5617078128
 20
44.5935862886
 11
-4.9638665556
 21
45.2901456631
  0
LINE
  5
5BF
100
AcDbEntity
  8
ASSI
100
AcDbLine
 62
7
  6
CONTINUOUS
 10
-4.5617078128
 20
44.5935862886
 11
-4.9638665556
 21
45.2901456631
  0
LINE
  5
5C0
100
AcDbEntity
  8
RACCORDO
100
AcDbLine
 62
7
  6
CONTINUOUS
 10
1.9935617987
 20
29.9007351004
 11
1.9935617987
 21
20.4412719634
  0
LINE
  5
5C1
100
AcDbEntity
  8
ASSI
100
AcDbLine
 62
7
  6
CONTINUOUS
 10
1.9935617987
 20
29.9007351004
 11
1.9935617987
 21
29.8190880727
  0
LINE
  5
5C2
100
AcDbEntity
  8
ASSI
100
AcDbLine
 62
7
  6
CONTINUOUS
 10
1.9935617987
 20
29.8190880727
 11
1.9935617987
 21
20.3432088528
  0
LINE
  5
5C3
100
AcDbEntity
  8
ASSI
100
AcDbLine
 62
7
  6
CONTINUOUS
 10
2.2056938331
 20
32.5135465144
 11
2.2056938331
 21
35.185259329
  0
LINE
  5
5C4
100
AcDbEntity
  8
ASSI
100
AcDbLine
 62
7
  6
CONTINUOUS
 10
2.2056938331
 20
36.5958978984
 11
2.2056938331
 21
39.267610713
  0
LINE
  5
5C5
100
AcDbEntity
  8
ASSI
100
AcDbLine
 62
7
  6
CONTINUOUS
 10
2.2056938331
 20
40.6782492823
 11
2.2056938331
 21
43.3499620969
  0
LINE
  5
5C6
100
AcDbEntity
  8
ASSI
100
AcDbLine
 62
7
  6
CONTINUOUS
 10
2.2056938331
 20
44.7606006663
 11
2.2056938331
 21
47.4323134809
  0
LINE
  5
5C7
100
AcDbEntity
  8
RACCORDO
100
AcDbLine
 62
7
  6
CONTINUOUS
 10
3.0634782116
 20
48.1363955068
 11
3.0634782116
 21
48.02108999
  0
LINE
  5
5C8
100
AcDbEntity
  8
ASSI
100
AcDbLine
 62
7
  6
CONTINUOUS
 10
3.0634782116
 20
48.1363955068
 11
3.0634782116
 21
48.02108999
  0
LINE
  5
5C9
100
AcDbEntity
  8
RACCORDO
100
AcDbLine
 62
7
  6
CONTINUOUS
 10
3.0634782116
 20
44.0203856337
 11
3.0634782116
 21
43.938738606
  0
LINE
  5
5CA
100
AcDbEntity
  8
ASSI
100
AcDbLine
 62
7
  6
CONTINUOUS
 10
3.0634782116
 20
44.0203856337
 11
3.0634782116
 21
43.938738606
  0
LINE
  5
5CB
100
AcDbEntity
  8
RACCORDO
100
AcDbLine
 62
7
  6
CONTINUOUS
 10
3.0634782116
 20
39.9380342497
 11
3.0634782116
 21
39.856387222
  0
LINE
  5
5CC
100
AcDbEntity
  8
ASSI
100
AcDbLine
 62
7
  6
CONTINUOUS
 10
3.0634782116
 20
39.9380342497
 11
3.0634782116
 21
39.856387222
  0
LINE
  5
5CD
100
AcDbEntity
  8
RACCORDO
100
AcDbLine
 62
7
  6
CONTINUOUS
 10
3.0634782116
 20
35.8556828657
 11
3.0634782116
 21
35.7740358381
  0
LINE
  5
5CE
100
AcDbEntity
  8
ASSI
100
AcDbLine
 62
7
  6
CONTINUOUS
 10
3.0634782116
 20
35.8556828657
 11
3.0634782116
 21
35.7740358381
  0
LINE
  5
5CF
100
AcDbEntity
  8
RACCORDO
100
AcDbLine
 62
7
  6
CONTINUOUS
 10
3.0634782116
 20
31.7733314818
 11
3.0634782116
 21
21.0439123666
  0
LINE
  5
5D0
100
AcDbEntity
  8
ASSI
100
AcDbLine
 62
7
  6
CONTINUOUS
 10
3.0634782116
 20
31.7733314818
 11
3.0634782116
 21
21.0439123666
  0
LWPOLYLINE
  5
5D1
100
AcDbEntity
  8
ASSI
100
AcDbPolyline
 62
7
  6
CONTINUOUS
 90
28
 70
0
 10
1.9935617987
 20
20.3432088528
 10
1.993350349
 20
20.326477974
 10
1.9927148908
 20
20.3100215391
 10
1.9916554242
 20
20.2938395481
 10
1.9901695547
 20
20.2779114586
 10
1.9882596767
 20
20.262257813
 10
1.985932974
 20
20.2469402392
 10
1.9831895273
 20
20.2319704702
 10
1.9800292557
 20
20.217336773
 10
1.9764591003
 20
20.2030655756
 10
1.9724790142
 20
20.1891566172
 10
1.9680890442
 20
20.1756101588
 10
1.9632962709
 20
20.1624534117
 10
1.9580958127
 20
20.149679434
 10
1.9524925512
 20
20.1372951676
 10
1.9465082124
 20
20.1253486497
 10
1.9401452872
 20
20.1138492726
 10
1.9334012847
 20
20.1027876438
 10
1.9262904578
 20
20.092183624
 10
1.918812981
 20
20.082037434
 10
1.9109686797
 20
20.0723488529
 10
1.9027712834
 20
20.0631370784
 10
1.8942136422
 20
20.0543978428
 10
1.8853029061
 20
20.0461354138
 10
1.8760742542
 20
20.0383817927
 10
1.8665394132
 20
20.0311476466
 10
1.8566866564
 20
20.0244223084
 10
1.8465331619
 20
20.0182156938
  0
LWPOLYLINE
  5
5D2
100
AcDbEntity
  8
ASSI
100
AcDbPolyline
 62
7
  6
CONTINUOUS
 90
3
 70
0
 10
-31.9286348729
 20
-3.3099623964
 10
-31.8425585255
 20
-3.2730051408
 10
-31.8168379051
 20
-3.2605300646
  0
LWPOLYLINE
  5
5D3
100
AcDbEntity
  8
ASSI
100
AcDbPolyline
 62
7
  6
CONTINUOUS
 90
28
 70
0
 10
-18.8702660953
 20
54.6834739704
 10
-18.8848884885
 20
54.6916697904
 10
-18.8994738804
 20
54.6993559095
 10
-18.9140222712
 20
54.7065323276
 10
-18.9285459006
 20
54.7132042513
 10
-18.9430325288
 20
54.7193664741
 10
-18.9574454361
 20
54.7250033763
 10
-18.9717844356
 20
54.7301136254
 10
-18.9860497143
 20
54.734698554
 10
-19.0002051136
 20
54.7387465405
 10
-19.0142503548
 20
54.7422562229
 10
-19.0281857166
 20
54.7452289633
 10
-19.0419758768
 20
54.7476572265
 10
-19.0556204669
 20
54.7495396314
 10
-19.0691198553
 20
54.7508775592
 10
-19.0824398248
 20
54.7516676186
 10
-19.0955799202
 20
54.7519084198
 10
-19.1085405967
 20
54.7516013526
 10
-19.1212890026
 20
54.7507471953
 10
-19.1338245993
 20
54.7493445601
 10
-19.1461479254
 20
54.7473948348
 10
-19.1582277445
 20
54.7449029615
 10
-19.1700634391
 20
54.7418675648
 10
-19.1816556267
 20
54.7382900201
 10
-19.1929749244
 20
54.7341793955
 10
-19.204011538
 20
54.7295387136
 10
-19.2147752616
 20
54.7243649517
 10
-19.2252660953
 20
54.7186581099
  0
LINE
  5
5D4
100
AcDbEntity
  8
ASSI
100
AcDbLine
 62
7
  6
CONTINUOUS
 10
-18.8702660953
 20
54.6834739704
 11
-16.1861535456
 21
53.133701024
  0
LINE
  5
5D5
100
AcDbEntity
  8
RACCORDO
100
AcDbLine
 62
7
  6
CONTINUOUS
 10
-18.6918787767
 20
54.5987157564
 11
-14.6392459508
 21
52.2587763541
  0
LINE
  5
5D6
100
AcDbEntity
  8
ASSI
100
AcDbLine
 62
7
  6
CONTINUOUS
 10
-18.6918787767
 20
54.5987157564
 11
-14.6392459508
 21
52.2587763541
  0
LINE
  5
5D7
100
AcDbEntity
  8
RACCORDO
100
AcDbLine
 62
7
  6
CONTINUOUS
 10
2.8513380996
 20
44.3878137586
 11
2.2056938331
 21
44.7606006663
  0
LINE
  5
5D8
100
AcDbEntity
  8
ASSI
100
AcDbLine
 62
7
  6
CONTINUOUS
 10
2.8513380996
 20
44.3878137586
 11
2.2056938331
 21
44.7606006663
  0
LINE
  5
5D9
100
AcDbEntity
  8
RACCORDO
100
AcDbLine
 62
7
  6
CONTINUOUS
 10
1.9166458273
 20
50.1227674621
 11
-1.6741452997
 21
52.1960452556
  0
LINE
  5
5DA
100
AcDbEntity
  8
ASSI
100
AcDbLine
 62
7
  6
CONTINUOUS
 10
1.9166458273
 20
50.1227674621
 11
-1.6741452997
 21
52.1960452556
  0
LINE
  5
5DB
100
AcDbEntity
  8
RACCORDO
100
AcDbLine
 62
7
  6
CONTINUOUS
 10
-11.3645510725
 20
58.934222487
 11
-2.0983932137
 21
53.5840590716
  0
LINE
  5
5DC
100
AcDbEntity
  8
ASSI
100
AcDbLine
 62
7
  6
CONTINUOUS
 10
-11.3645510725
 20
58.934222487
 11
-2.0983932137
 21
53.5840590716
  0
LINE
  5
5DD
100
AcDbEntity
  8
RACCORDO
100
AcDbLine
 62
7
  6
CONTINUOUS
 10
2.8563793164
 20
48.8332814997
 11
2.4166267889
 21
49.5949552193
  0
LINE
  5
5DE
100
AcDbEntity
  8
ASSI
100
AcDbLine
 62
7
  6
CONTINUOUS
 10
2.8563793164
 20
48.8332814997
 11
2.4166267889
 21
49.5949552193
  0
ARC
  5
5DF
100
AcDbEntity
  8
RACCORDO
100
AcDbCircle
 62
7
  6
CONTINUOUS
 10
-26.1877317934
 20
38.0008948277
 40
0.25
100
AcDbArc
 50
0.0102634021
 51
59.989736688
  0
ELLIPSE
  5
5E0
100
AcDbEntity
  8
RACCORDO
100
AcDbEllipse
 62
7
  6
CONTINUOUS
 10
-2.0984093687
 20
53.3391179893
 30
0.0
 11
-0.1500072497
 21
0.2598034354
 31
0.0
 40
0.5773756362
 41
-2.3562047428
 42
-0.7854845684
  0
ELLIPSE
  5
5E1
100
AcDbEntity
  8
RACCORDO
100
AcDbEllipse
 62
7
  6
CONTINUOUS
 10
-11.3645287671
 20
58.1177082415
 30
0.0
 11
-0.5000195414
 21
0.8660580892
 31
0.0
 40
0.5773134593
 41
-0.7853991688
 42
-0.0000325492
  0
ELLIPSE
  5
5E2
100
AcDbEntity
  8
RACCORDO
100
AcDbEllipse
 62
7
  6
CONTINUOUS
 10
2.3563445049
 20
21.4522282616
 30
0.0
 11
-0.5000668544
 21
0.8660307748
 31
0.0
 40
0.5773134558
 41
-3.1416567412
 42
-2.3562901216
  0
ELLIPSE
  5
5E3
100
AcDbEntity
  8
RACCORDO
100
AcDbEllipse
 62
7
  6
CONTINUOUS
 10
2.8513380996
 20
31.8958185237
 30
0.0
 11
-0.1500186713
 21
0.2598034368
 31
0.0
 40
0.5773316664
 41
-2.3562808875
 42
-0.7854845607
  0
ELLIPSE
  5
5E4
100
AcDbEntity
  8
RACCORDO
100
AcDbEllipse
 62
7
  6
CONTINUOUS
 10
2.8513380996
 20
35.89652288
 30
0.0
 11
-0.1500186713
 21
0.2598034368
 31
0.0
 40
0.5773316664
 41
-3.1459423927
 42
-2.3562808875
  0
ELLIPSE
  5
5E5
100
AcDbEntity
  8
RACCORDO
100
AcDbEllipse
 62
7
  6
CONTINUOUS
 10
2.8513380996
 20
35.9781699077
 30
0.0
 11
-0.1500186713
 21
0.2598034368
 31
0.0
 40
0.5773316664
 41
-2.3562808875
 42
-0.7854845607
  0
ELLIPSE
  5
5E6
100
AcDbEntity
  8
RACCORDO
100
AcDbEllipse
 62
7
  6
CONTINUOUS
 10
2.8513380996
 20
39.978874264
 30
0.0
 11
-0.1500186713
 21
0.2598034368
 31
0.0
 40
0.5773316664
 41
-3.1459423927
 42
-2.3562808875
  0
ELLIPSE
  5
5E7
100
AcDbEntity
  8
RACCORDO
100
AcDbEllipse
 62
7
  6
CONTINUOUS
 10
2.8513380996
 20
40.0605212916
 30
0.0
 11
-0.1500186713
 21
0.2598034368
 31
0.0
 40
0.5773316664
 41
-2.3562808875
 42
-0.7854845607
  0
ELLIPSE
  5
5E8
100
AcDbEntity
  8
RACCORDO
100
AcDbEllipse
 62
7
  6
CONTINUOUS
 10
2.8513380996
 20
44.0612256479
 30
0.0
 11
-0.1500186713
 21
0.2598034368
 31
0.0
 40
0.5773316664
 41
-3.1459423927
 42
-2.3562808875
  0
ELLIPSE
  5
5E9
100
AcDbEntity
  8
RACCORDO
100
AcDbEllipse
 62
7
  6
CONTINUOUS
 10
2.8513380996
 20
44.1428726756
 30
0.0
 11
-0.1500186713
 21
0.2598034368
 31
0.0
 40
0.5773316664
 41
-2.3562808875
 42
-0.7854845607
  0
ELLIPSE
  5
5EA
100
AcDbEntity
  8
RACCORDO
100
AcDbEllipse
 62
7
  6
CONTINUOUS
 10
2.8513380996
 20
48.1435770319
 30
0.0
 11
-0.1500186713
 21
0.2598034368
 31
0.0
 40
0.5773316664
 41
-3.1459423927
 42
-2.3562808875
  0
ELLIPSE
  5
5EB
100
AcDbEntity
  8
RACCORDO
100
AcDbEllipse
 62
7
  6
CONTINUOUS
 10
2.3563445049
 20
48.5446598914
 30
0.0
 11
-0.500051088
 21
0.8660034525
 31
0.0
 40
0.5773498789
 41
-2.3562585873
 42
-1.5708919678
  0
ELLIPSE
  5
5EC
100
AcDbEntity
  8
RACCORDO
100
AcDbEllipse
 62
7
  6
CONTINUOUS
 10
1.9166235219
 20
49.3062789743
 30
0.0
 11
-0.5000037704
 21
0.8660307695
 31
0.0
 40
0.5773498824
 41
-1.5707973348
 42
-0.7854307152
  0
ELLIPSE
  5
5ED
100
AcDbEntity
  8
DRAFT
100
AcDbEllipse
 62
7
  6
CONTINUOUS
 10
-2.1844121192
 20
31.7003173488
 30
0.0
 11
1.0610913518
 21
1.8699624759
 31
0.0
 40
0.5722717666
 41
-2.8628032189
 42
-2.3604340017
  0
ELLIPSE
  5
5EE
100
AcDbEntity
  8
DRAFT
100
AcDbEllipse
 62
7
  6
CONTINUOUS
 10
-2.1844121192
 20
43.9473715007
 30
0.0
 11
1.0610913518
 21
1.8699624759
 31
0.0
 40
0.5722717666
 41
-2.8628032189
 42
-2.3604340017
  0
ELLIPSE
  5
5EF
100
AcDbEntity
  8
DRAFT
100
AcDbEllipse
 62
7
  6
CONTINUOUS
 10
-2.1844121192
 20
39.8650201168
 30
0.0
 11
1.0610913518
 21
1.8699624759
 31
0.0
 40
0.5722717666
 41
-2.8628032189
 42
-2.3604340017
  0
ELLIPSE
  5
5F0
100
AcDbEntity
  8
DRAFT
100
AcDbEllipse
 62
7
  6
CONTINUOUS
 10
-2.1844121192
 20
35.7826687328
 30
0.0
 11
1.0610913518
 21
1.8699624759
 31
0.0
 40
0.5722717666
 41
-2.8628032189
 42
-2.3604340017
  0
ELLIPSE
  5
5F1
100
AcDbEntity
  8
RACCORDO
100
AcDbEllipse
 62
7
  6
CONTINUOUS
 10
-1.6741291447
 20
52.440986338
 30
0.0
 11
-0.1500072497
 21
0.2598034354
 31
0.0
 40
0.5773756362
 41
0.7853879108
 42
2.3561080852
  0
ELLIPSE
  5
5F2
100
AcDbEntity
  8
RACCORDO
100
AcDbEllipse
 62
7
  6
CONTINUOUS
 10
-14.6392297958
 20
52.0138166165
 30
0.0
 11
-0.1500186702
 21
0.2598232227
 31
0.0
 40
0.5772877058
 41
-0.7854084013
 42
0.0088311374
  0
ELLIPSE
  5
5F3
100
AcDbEntity
  8
RACCORDO
100
AcDbEllipse
 62
7
  6
CONTINUOUS
 10
1.286428092
 20
20.8495878584
 30
0.0
 11
-0.5000668544
 21
0.8660307748
 31
0.0
 40
0.5773134558
 41
-2.4217560886
 42
-2.3562901216
  0
ELLIPSE
  5
5F4
100
AcDbEntity
  8
RACCORDO
100
AcDbEllipse
 62
7
  6
CONTINUOUS
 10
-18.6918564713
 20
53.7822015109
 30
0.0
 11
-0.5000195414
 21
0.8660580892
 31
0.0
 40
0.5773134593
 41
5.4977861384
 42
5.707770874
  0
ELLIPSE
  5
5F5
100
AcDbEntity
  8
RACCORDO
100
AcDbEllipse
 62
7
  6
CONTINUOUS
 10
-5.4638698225
 20
45.001469418
 30
0.0
 11
-0.5000037704
 21
0.8660307695
 31
0.0
 40
0.5773498824
 41
4.7123879724
 42
5.4977545919
  0
ELLIPSE
  5
5F6
100
AcDbEntity
  8
RACCORDO
100
AcDbEllipse
 62
7
  6
CONTINUOUS
 10
-5.0617426243
 20
44.3049646803
 30
0.0
 11
-0.500051088
 21
0.8660034525
 31
0.0
 40
0.5773498789
 41
3.9269267198
 42
4.7122933394
  0
ELLIPSE
  5
5F7
100
AcDbEntity
  8
RACCORDO
100
AcDbEllipse
 62
7
  6
CONTINUOUS
 10
-9.092216274
 20
48.1578829618
 30
0.0
 11
-0.1500072497
 21
0.2598034354
 31
0.0
 40
0.5773756362
 41
0.7853879108
 42
2.3561080852
  0
ELLIPSE
  5
5F8
100
AcDbEntity
  8
RACCORDO
100
AcDbEllipse
 62
7
  6
CONTINUOUS
 10
-3.9979701134
 20
26.9093925054
 30
0.0
 11
0.2533110813
 21
0.431095234
 31
0.0
 40
0.5823475934
 41
2.3606829537
 42
3.9314792805
  0
ELLIPSE
  5
5F9
100
AcDbEntity
  8
ASSI
100
AcDbEllipse
 62
7
  6
CONTINUOUS
 10
-2.0984093687
 20
53.3391179893
 30
0.0
 11
-0.1500072497
 21
0.2598034354
 31
0.0
 40
0.5773756362
 41
-2.3562047428
 42
-0.7854845684
  0
ELLIPSE
  5
5FA
100
AcDbEntity
  8
ASSI
100
AcDbEllipse
 62
7
  6
CONTINUOUS
 10
-11.3645287671
 20
58.1177082415
 30
0.0
 11
-0.5000195414
 21
0.8660580892
 31
0.0
 40
0.5773134593
 41
-0.7853991688
 42
-0.0000325492
  0
ELLIPSE
  5
5FB
100
AcDbEntity
  8
ASSI
100
AcDbEllipse
 62
7
  6
CONTINUOUS
 10
2.3563445049
 20
21.4522282616
 30
0.0
 11
-0.5000668544
 21
0.8660307748
 31
0.0
 40
0.5773134558
 41
-3.1416567412
 42
-2.3562901216
  0
ELLIPSE
  5
5FC
100
AcDbEntity
  8
ASSI
100
AcDbEllipse
 62
7
  6
CONTINUOUS
 10
2.8513380996
 20
31.8958185237
 30
0.0
 11
-0.1500186713
 21
0.2598034368
 31
0.0
 40
0.5773316664
 41
-2.3562808875
 42
-0.7854845607
  0
ELLIPSE
  5
5FD
100
AcDbEntity
  8
ASSI
100
AcDbEllipse
 62
7
  6
CONTINUOUS
 10
2.8513380996
 20
35.89652288
 30
0.0
 11
-0.1500186713
 21
0.2598034368
 31
0.0
 40
0.5773316664
 41
-3.1459423927
 42
-2.3562808875
  0
ELLIPSE
  5
5FE
100
AcDbEntity
  8
ASSI
100
AcDbEllipse
 62
7
  6
CONTINUOUS
 10
2.8513380996
 20
35.9781699077
 30
0.0
 11
-0.1500186713
 21
0.2598034368
 31
0.0
 40
0.5773316664
 41
-2.3562808875
 42
-0.7854845607
  0
ELLIPSE
  5
5FF
100
AcDbEntity
  8
ASSI
100
AcDbEllipse
 62
7
  6
CONTINUOUS
 10
2.8513380996
 20
39.978874264
 30
0.0
 11
-0.1500186713
 21
0.2598034368
 31
0.0
 40
0.5773316664
 41
-3.1459423927
 42
-2.3562808875
  0
ELLIPSE
  5
600
100
AcDbEntity
  8
ASSI
100
AcDbEllipse
 62
7
  6
CONTINUOUS
 10
2.8513380996
 20
40.0605212916
 30
0.0
 11
-0.1500186713
 21
0.2598034368
 31
0.0
 40
0.5773316664
 41
-2.3562808875
 42
-0.7854845607
  0
ELLIPSE
  5
601
100
AcDbEntity
  8
ASSI
100
AcDbEllipse
 62
7
  6
CONTINUOUS
 10
2.8513380996
 20
44.0612256479
 30
0.0
 11
-0.1500186713
 21
0.2598034368
 31
0.0
 40
0.5773316664
 41
-3.1459423927
 42
-2.3562808875
  0
ELLIPSE
  5
602
100
AcDbEntity
  8
ASSI
100
AcDbEllipse
 62
7
  6
CONTINUOUS
 10
2.8513380996
 20
44.1428726756
 30
0.0
 11
-0.1500186713
 21
0.2598034368
 31
0.0
 40
0.5773316664
 41
-2.3562808875
 42
-0.7854845607
  0
ELLIPSE
  5
603
100
AcDbEntity
  8
ASSI
100
AcDbEllipse
 62
7
  6
CONTINUOUS
 10
2.8513380996
 20
48.1435770319
 30
0.0
 11
-0.1500186713
 21
0.2598034368
 31
0.0
 40
0.5773316664
 41
-3.1459423927
 42
-2.3562808875
  0
ELLIPSE
  5
604
100
AcDbEntity
  8
ASSI
100
AcDbEllipse
 62
7
  6
CONTINUOUS
 10
2.3563445049
 20
48.5446598914
 30
0.0
 11
-0.500051088
 21
0.8660034525
 31
0.0
 40
0.5773498789
 41
-2.3562585873
 42
-1.5708919678
  0
ELLIPSE
  5
605
100
AcDbEntity
  8
ASSI
100
AcDbEllipse
 62
7
  6
CONTINUOUS
 10
1.9166235219
 20
49.3062789743
 30
0.0
 11
-0.5000037704
 21
0.8660307695
 31
0.0
 40
0.5773498824
 41
-1.5707973348
 42
-0.7854307152
  0
ELLIPSE
  5
606
100
AcDbEntity
  8
ASSI
100
AcDbEllipse
 62
7
  6
CONTINUOUS
 10
-1.6741291447
 20
52.440986338
 30
0.0
 11
-0.1500072497
 21
0.2598034354
 31
0.0
 40
0.5773756362
 41
0.7853879108
 42
2.3561080852
  0
ELLIPSE
  5
607
100
AcDbEntity
  8
ASSI
100
AcDbEllipse
 62
7
  6
CONTINUOUS
 10
-2.1844121192
 20
35.7826687328
 30
0.0
 11
1.0610913518
 21
1.8699624759
 31
0.0
 40
0.5722717666
 41
-2.8628032189
 42
-2.3604340017
  0
ELLIPSE
  5
608
100
AcDbEntity
  8
ASSI
100
AcDbEllipse
 62
7
  6
CONTINUOUS
 10
-2.1844121192
 20
39.8650201168
 30
0.0
 11
1.0610913518
 21
1.8699624759
 31
0.0
 40
0.5722717666
 41
-2.8628032189
 42
-2.3604340017
  0
ELLIPSE
  5
609
100
AcDbEntity
  8
ASSI
100
AcDbEllipse
 62
7
  6
CONTINUOUS
 10
-2.1844121192
 20
43.9473715007
 30
0.0
 11
1.0610913518
 21
1.8699624759
 31
0.0
 40
0.5722717666
 41
-2.8628032189
 42
-2.3604340017
  0
ELLIPSE
  5
60A
100
AcDbEntity
  8
ASSI
100
AcDbEllipse
 62
7
  6
CONTINUOUS
 10
-2.1844121192
 20
31.7003173488
 30
0.0
 11
1.0610913518
 21
1.8699624759
 31
0.0
 40
0.5722717666
 41
-2.8628032189
 42
-2.3604340017
  0
ELLIPSE
  5
60B
100
AcDbEntity
  8
ASSI
100
AcDbEllipse
 62
7
  6
CONTINUOUS
 10
-9.092216274
 20
48.1578829618
 30
0.0
 11
-0.1500072497
 21
0.2598034354
 31
0.0
 40
0.5773756362
 41
0.7853879108
 42
2.3561080852
  0
ELLIPSE
  5
60C
100
AcDbEntity
  8
ASSI
100
AcDbEllipse
 62
7
  6
CONTINUOUS
 10
-18.6918564713
 20
53.7822015109
 30
0.0
 11
-0.5000195414
 21
0.8660580892
 31
0.0
 40
0.5773134593
 41
5.4977861384
 42
5.707770874
  0
ELLIPSE
  5
60D
100
AcDbEntity
  8
ASSI
100
AcDbEllipse
 62
7
  6
CONTINUOUS
 10
-5.4638698225
 20
45.001469418
 30
0.0
 11
-0.5000037704
 21
0.8660307695
 31
0.0
 40
0.5773498824
 41
4.7123879724
 42
5.4977545919
  0
ELLIPSE
  5
60E
100
AcDbEntity
  8
ASSI
100
AcDbEllipse
 62
7
  6
CONTINUOUS
 10
-5.0617426243
 20
44.3049646803
 30
0.0
 11
-0.500051088
 21
0.8660034525
 31
0.0
 40
0.5773498789
 41
3.9269267198
 42
4.7122933394
  0
ELLIPSE
  5
60F
100
AcDbEntity
  8
ASSI
100
AcDbEllipse
 62
7
  6
CONTINUOUS
 10
-14.6392297958
 20
52.0138166165
 30
0.0
 11
-0.1500186702
 21
0.2598232227
 31
0.0
 40
0.5772877058
 41
-0.7854084013
 42
0.0088311374
  0
ELLIPSE
  5
610
100
AcDbEntity
  8
ASSI
100
AcDbEllipse
 62
7
  6
CONTINUOUS
 10
-3.9979701134
 20
26.9093925054
 30
0.0
 11
0.2533110813
 21
0.431095234
 31
0.0
 40
0.5823475934
 41
2.3606829537
 42
3.9314792805
  0
ELLIPSE
  5
611
100
AcDbEntity
  8
ASSI
100
AcDbEllipse
 62
7
  6
CONTINUOUS
 10
1.286428092
 20
20.8495878584
 30
0.0
 11
-0.5000668544
 21
0.8660307748
 31
0.0
 40
0.5773134558
 41
-2.4217560886
 42
-2.3562901216
  0
ELLIPSE
  5
612
100
AcDbEntity
  8
RACCORDO
100
AcDbEllipse
 62
7
  6
CONTINUOUS
 10
-22.0286163323
 20
7.3367284043
 30
0.0
 11
-1.000389877
 21
1.7321775001
 31
0.0
 40
0.5772588101
 41
-3.1289935798
 42
-2.3564320312
  0
ELLIPSE
  5
613
100
AcDbEntity
  8
RACCORDO
100
AcDbEllipse
 62
7
  6
CONTINUOUS
 10
-22.0286163323
 20
36.1105057868
 30
0.0
 11
-1.0002637881
 21
1.7319588718
 31
0.0
 40
0.5774045053
 41
-2.3563059395
 42
-1.5710339479
  0
ELLIPSE
  5
614
100
AcDbEntity
  8
RACCORDO
100
AcDbEllipse
 62
7
  6
CONTINUOUS
 10
-27.4726081617
 20
25.2605128607
 30
0.0
 11
0.9999591619
 21
0.0153860996
 31
0.0
 40
0.5873737521
 41
-0.6897159224
 42
-0.0090140792
  0
ELLIPSE
  5
615
100
AcDbEntity
  8
RACCORDO
100
AcDbEllipse
 62
7
  6
CONTINUOUS
 10
-27.4726081617
 20
7.1348727159
 30
0.0
 11
0.9999591619
 21
0.0153860996
 31
0.0
 40
0.5873737521
 41
-0.6897159224
 42
-0.0090140792
  0
ELLIPSE
  5
616
100
AcDbEntity
  8
RACCORDO
100
AcDbEllipse
 62
7
  6
CONTINUOUS
 10
-43.3248579514
 20
43.2191989788
 30
0.0
 11
-0.2498600223
 21
0.43379745
 31
0.0
 40
0.5768037941
 41
-0.7837728977
 42
0.0349351157
  0
ELLIPSE
  5
617
100
AcDbEntity
  8
RACCORDO
100
AcDbEllipse
 62
7
  6
CONTINUOUS
 10
-28.3484440381
 20
34.5720052838
 30
0.0
 11
-0.2496303025
 21
0.4334023309
 31
0.0
 40
0.5778584463
 41
-2.3545649475
 42
-0.7846820092
  0
ELLIPSE
  5
618
100
AcDbEntity
  8
RACCORDO
100
AcDbEllipse
 62
7
  6
CONTINUOUS
 10
-28.3484440381
 20
-0.9743253898
 30
0.0
 11
-0.2498600223
 21
0.43379745
 31
0.0
 40
0.5768037941
 41
-3.1765341303
 42
-2.355482613
  0
ELLIPSE
  5
619
100
AcDbEntity
  8
ASSI
100
AcDbEllipse
 62
7
  6
CONTINUOUS
 10
-28.3484440381
 20
-0.9743253898
 30
0.0
 11
-0.2498600223
 21
0.43379745
 31
0.0
 40
0.5768037941
 41
-3.1765341303
 42
-2.355482613
  0
ELLIPSE
  5
61A
100
AcDbEntity
  8
ASSI
100
AcDbEllipse
 62
7
  6
CONTINUOUS
 10
-28.3484440381
 20
34.5720052838
 30
0.0
 11
-0.2496303025
 21
0.4334023309
 31
0.0
 40
0.5778584463
 41
-2.3545649475
 42
-0.7846820092
  0
ELLIPSE
  5
61B
100
AcDbEntity
  8
ASSI
100
AcDbEllipse
 62
7
  6
CONTINUOUS
 10
-43.3248579514
 20
43.2191989788
 30
0.0
 11
-0.2498600223
 21
0.43379745
 31
0.0
 40
0.5768037941
 41
-0.7837728977
 42
0.0349351157
  0
ELLIPSE
  5
61C
100
AcDbEntity
  8
ASSI
100
AcDbEllipse
 62
7
  6
CONTINUOUS
 10
-27.4726081617
 20
25.2605128607
 30
0.0
 11
0.9999591619
 21
0.0153860996
 31
0.0
 40
0.5873737521
 41
-0.6897159224
 42
-0.0090140792
  0
ELLIPSE
  5
61D
100
AcDbEntity
  8
ASSI
100
AcDbEllipse
 62
7
  6
CONTINUOUS
 10
-27.4726081617
 20
7.1348727159
 30
0.0
 11
0.9999591619
 21
0.0153860996
 31
0.0
 40
0.5873737521
 41
-0.6897159224
 42
-0.0090140792
  0
ELLIPSE
  5
61E
100
AcDbEntity
  8
CURVE
100
AcDbEllipse
 62
253
  6
CONTINUOUS
 10
307.5449516268
 20
225.4169520442
 30
0.0
 11
74.02386696
 21
512.7366507199
 31
0.0
 40
0.7091402642
 41
-4.171298683
 42
-4.1712761542
  0
ELLIPSE
  5
61F
100
AcDbEntity
  8
CURVE
100
AcDbEllipse
 62
253
  6
CONTINUOUS
 10
308.1273146879
 20
225.0807029114
 30
0.0
 11
111.1467385357
 21
499.7639272642
 31
0.0
 40
0.6976068463
 41
-4.1111144515
 42
-4.111091612
  0
ELLIPSE
  5
620
100
AcDbEntity
  8
CURVE
100
AcDbEllipse
 62
253
  6
CONTINUOUS
 10
308.6953329423
 20
224.7527362903
 30
0.0
 11
144.2426690891
 21
486.505885252
 31
0.0
 40
0.6818846049
 41
-4.0571645294
 42
-4.0571414172
  0
ELLIPSE
  5
621
100
AcDbEntity
  8
CURVE
100
AcDbEllipse
 62
253
  6
CONTINUOUS
 10
309.2517065265
 20
224.4314931558
 30
0.0
 11
173.3546635936
 21
473.4502070541
 31
0.0
 40
0.6626945145
 41
-4.0100765249
 42
-4.0100531755
  0
ELLIPSE
  5
622
100
AcDbEntity
  8
CURVE
100
AcDbEllipse
 62
253
  6
CONTINUOUS
 10
309.7988643872
 20
224.1155710645
 30
0.0
 11
198.8387851364
 21
460.9399134076
 31
0.0
 40
0.6407278174
 41
-3.96976692
 42
-3.9697433663
  0
ELLIPSE
  5
623
100
AcDbEntity
  8
CURVE
100
AcDbEllipse
 62
253
  6
CONTINUOUS
 10
310.3390152644
 20
223.8036947177
 30
0.0
 11
221.1964818193
 21
449.1642324103
 31
0.0
 40
0.6165842903
 41
-3.9357329552
 42
-3.9357092277
  0
ELLIPSE
  5
624
100
AcDbEntity
  8
CURVE
100
AcDbEllipse
 62
253
  6
CONTINUOUS
 10
310.8741895909
 20
223.4946917689
 30
0.0
 11
240.9555062486
 21
438.1909900777
 31
0.0
 40
0.5907521424
 41
-3.9072914325
 42
-3.9072675592
  0
ELLIPSE
  5
625
100
AcDbEntity
  8
CURVE
100
AcDbEllipse
 62
253
  6
CONTINUOUS
 10
311.406061284
 20
223.1875957192
 30
0.0
 11
258.598684021
 21
428.0117347325
 31
0.0
 40
0.5636240064
 41
-3.8837398112
 42
-3.8837158812
  0
ELLIPSE
  5
626
100
AcDbEntity
  8
CURVE
100
AcDbEllipse
 62
253
  6
CONTINUOUS
 10
311.9409369084
 20
222.8787652372
 30
0.0
 11
274.6839247909
 21
418.4893900569
 31
0.0
 40
0.5352472995
 41
-3.8642660134
 42
-3.8642422387
  0
ELLIPSE
  5
627
100
AcDbEntity
  8
CURVE
100
AcDbEllipse
 62
253
  6
CONTINUOUS
 10
312.4817813707
 20
222.5664884231
 30
0.0
 11
289.5739739185
 21
409.5379852055
 31
0.0
 40
0.5057531084
 41
-3.8483480107
 42
-3.8483244189
  0
ELLIPSE
  5
628
100
AcDbEntity
  8
CURVE
100
AcDbEllipse
 62
253
  6
CONTINUOUS
 10
313.0306334721
 20
222.2495880985
 30
0.0
 11
303.5517028106
 21
401.0783753233
 31
0.0
 40
0.4752724671
 41
-3.8355834057
 42
-3.8355600267
  0
ELLIPSE
  5
629
100
AcDbEntity
  8
CURVE
100
AcDbEllipse
 62
253
  6
CONTINUOUS
 10
313.5897201738
 20
221.9267784439
 30
0.0
 11
316.8633730898
 21
393.0247654981
 31
0.0
 40
0.4438927568
 41
-3.8256417896
 42
-3.8256186558
  0
ELLIPSE
  5
62A
100
AcDbEntity
  8
CURVE
100
AcDbEllipse
 62
253
  6
CONTINUOUS
 10
314.1615001186
 20
221.5966398699
 30
0.0
 11
329.7262229187
 21
385.288676679
 31
0.0
 40
0.4116664714
 41
-3.8182627726
 42
-3.818239919
  0
ELLIPSE
  5
62B
100
AcDbEntity
  8
CURVE
100
AcDbEllipse
 62
253
  6
CONTINUOUS
 10
314.7487152881
 20
221.2575891905
 30
0.0
 11
342.3364531622
 21
377.7802586633
 31
0.0
 40
0.3786187376
 41
-3.8132516894
 42
-3.8132291532
  0
ELLIPSE
  5
62C
100
AcDbEntity
  8
CURVE
100
AcDbEllipse
 62
253
  6
CONTINUOUS
 10
315.3544547957
 20
220.9078427906
 30
0.0
 11
354.87706239
 21
370.4077707719
 31
0.0
 40
0.3447537731
 41
-3.8104751825
 42
-3.8104530035
  0
ELLIPSE
  5
62D
100
AcDbEntity
  8
CURVE
100
AcDbEllipse
 62
253
  6
CONTINUOUS
 10
315.9822329744
 20
220.5453715381
 30
0.0
 11
367.5254305957
 21
363.0757279087
 31
0.0
 40
0.3100607613
 41
-3.8098578618
 42
-3.8098360819
  0
ELLIPSE
  5
62E
100
AcDbEntity
  8
CURVE
100
AcDbEllipse
 62
253
  6
CONTINUOUS
 10
316.6360873095
 20
220.1678442397
 30
0.0
 11
380.4608763531
 21
355.6818919464
 31
0.0
 40
0.2745195877
 41
-3.8113806381
 42
-3.8113593012
  0
ELLIPSE
  5
62F
100
AcDbEntity
  8
CURVE
100
AcDbEllipse
 62
253
  6
CONTINUOUS
 10
317.3207006906
 20
219.7725570537
 30
0.0
 11
393.8725136453
 21
348.1130887716
 31
0.0
 40
0.2381071259
 41
2.46810425
 42
2.4681250985
  0
ELLIPSE
  5
630
100
AcDbEntity
  8
CURVE
100
AcDbEllipse
 62
253
  6
CONTINUOUS
 10
318.0415582629
 20
219.3563429259
 30
0.0
 11
407.9679192144
 21
340.2395823381
 31
0.0
 40
0.2008046979
 41
2.4621294823
 42
2.4621497957
  0
ELLIPSE
  5
631
100
AcDbEntity
  8
CURVE
100
AcDbEllipse
 62
253
  6
CONTINUOUS
 10
318.8051480817
 20
218.9154557345
 30
0.0
 11
422.9831445762
 21
331.9075737899
 31
0.0
 40
0.1626077742
 41
2.45371969
 42
2.4537394206
  0
ELLIPSE
  5
632
100
AcDbEntity
  8
CURVE
100
AcDbEllipse
 62
253
  6
CONTINUOUS
 10
319.6192234251
 20
218.445418834
 30
0.0
 11
439.1948117999
 21
322.9291058179
 31
0.0
 40
0.1235390563
 41
2.4426431644
 42
2.4426622644
  0
ELLIPSE
  5
633
100
AcDbEntity
  8
CURVE
100
AcDbEllipse
 62
253
  6
CONTINUOUS
 10
320.4931506721
 20
217.9408241945
 30
0.0
 11
456.9351662285
 21
313.0683740875
 31
0.0
 40
0.083666526
 41
2.4285881796
 42
2.4286066011
  0
ELLIPSE
  5
634
100
AcDbEntity
  8
CURVE
100
AcDbEllipse
 62
253
  6
CONTINUOUS
 10
321.4383714157
 20
217.3950655835
 30
0.0
 11
476.611010485
 21
302.0231887627
 31
0.0
 40
0.0431287433
 41
2.411153212
 42
2.4111709083
  0
ELLIPSE
  5
635
100
AcDbEntity
  8
CURVE
100
AcDbEllipse
 62
253
  6
CONTINUOUS
 10
322.4690369753
 20
216.7999722067
 30
0.0
 11
498.7278681126
 21
289.3999001304
 31
0.0
 40
0.002169364
 41
2.3898387415
 42
2.389856402
  0
ELLIPSE
  5
636
100
AcDbEntity
  8
CURVE
100
AcDbEllipse
 62
253
  6
CONTINUOUS
 10
323.706474795
 20
216.0854911183
 30
0.0
 11
526.2683455478
 21
273.2879546681
 31
0.0
 40
0.0423442687
 41
-2.361599327
 42
-2.361582604
  0
ELLIPSE
  5
637
100
AcDbEntity
  8
CURVE
100
AcDbEllipse
 62
253
  6
CONTINUOUS
 10
322.0785318479
 20
217.0254449731
 30
0.0
 11
501.1432613898
 21
288.0053359422
 31
0.0
 40
0.0020159042
 41
-2.386733456
 42
-2.3867157821
  0
ELLIPSE
  5
638
100
AcDbEntity
  8
CURVE
100
AcDbEllipse
 62
253
  6
CONTINUOUS
 10
298.1993204512
 20
230.8130023567
 30
0.0
 11
-398.5192002421
 21
629.0369009031
 31
0.0
 40
0.5479262287
 41
-4.7025432538
 42
-4.7025272625
  0
ELLIPSE
  5
639
100
AcDbEntity
  8
CURVE
100
AcDbEllipse
 62
253
  6
CONTINUOUS
 10
299.3460090278
 20
230.150918744
 30
0.0
 11
-355.6295766218
 21
613.1019437003
 31
0.0
 40
0.5759973767
 41
-4.6811868726
 42
-4.6811692043
  0
ELLIPSE
  5
63A
100
AcDbEntity
  8
CURVE
100
AcDbEllipse
 62
253
  6
CONTINUOUS
 10
300.4875741611
 20
229.4917933432
 30
0.0
 11
-310.0575047463
 21
598.3636540316
 31
0.0
 40
0.6053890398
 41
-4.652472538
 42
-4.6524539725
  0
ELLIPSE
  5
63B
100
AcDbEntity
  8
CURVE
100
AcDbEllipse
 62
253
  6
CONTINUOUS
 10
301.434082017
 20
228.9452915697
 30
0.0
 11
-269.2455477939
 21
587.112034021
 31
0.0
 40
0.6303985581
 41
-4.6209343413
 42
-4.6209159406
  0
ELLIPSE
  5
63C
100
AcDbEntity
  8
CURVE
100
AcDbEllipse
 62
253
  6
CONTINUOUS
 10
302.3090610122
 20
228.4400896639
 30
0.0
 11
-228.235174753
 21
577.4944632132
 31
0.0
 40
0.6533897877
 41
-4.5834821355
 42
-4.5834630545
  0
ELLIPSE
  5
63D
100
AcDbEntity
  8
CURVE
100
AcDbEllipse
 62
253
  6
CONTINUOUS
 10
303.123974581
 20
227.9695687826
 30
0.0
 11
-186.430292092
 21
569.0660353567
 31
0.0
 40
0.6738494205
 41
-4.5395071791
 42
-4.5394874649
  0
ELLIPSE
  5
63E
100
AcDbEntity
  8
CURVE
100
AcDbEllipse
 62
253
  6
CONTINUOUS
 10
303.8882083875
 20
227.5283097608
 30
0.0
 11
-143.4530202591
 21
561.2902577832
 31
0.0
 40
0.6911517344
 41
-4.488689463
 42
-4.4886691628
  0
ELLIPSE
  5
63F
100
AcDbEntity
  8
CURVE
100
AcDbEllipse
 62
253
  6
CONTINUOUS
 10
304.6095325283
 20
227.1118262422
 30
0.0
 11
-99.2689360753
 21
553.5396076593
 31
0.0
 40
0.7045971572
 41
-4.431273833
 42
-4.431252994
  0
ELLIPSE
  5
640
100
AcDbEntity
  8
CURVE
100
AcDbEllipse
 62
253
  6
CONTINUOUS
 10
305.2944511779
 20
226.716362798
 30
0.0
 11
-54.3114009058
 21
545.1642214711
 31
0.0
 40
0.7134993565
 41
-4.3683501506
 42
-4.368328819
  0
ELLIPSE
  5
641
100
AcDbEntity
  8
CURVE
100
AcDbEllipse
 62
253
  6
CONTINUOUS
 10
305.9484625743
 20
226.3387448144
 30
0.0
 11
-9.511141778
 21
535.6380273927
 31
0.0
 40
0.7173167975
 41
-4.3019708848
 42
-4.3019491057
  0
ELLIPSE
  5
642
100
AcDbEntity
  8
CURVE
100
AcDbEllipse
 62
253
  6
CONTINUOUS
 10
306.5762616961
 20
225.9762614697
 30
0.0
 11
33.8638090799
 21
524.7268745763
 31
0.0
 40
0.7157897334
 41
-4.2349245354
 42
-4.2349023525
  0
ELLIPSE
  5
643
100
AcDbEntity
  8
CURVE
100
AcDbEllipse
 62
253
  6
CONTINUOUS
 10
323.1980023111
 20
216.3790767579
 30
0.0
 11
526.6827365676
 21
273.0418367025
 31
0.0
 40
0.042961909
 41
-2.3604214695
 42
-2.3604054608
  0
ELLIPSE
  5
644
100
AcDbEntity
  8
CURVE
100
AcDbEllipse
 62
253
  6
CONTINUOUS
 10
307.1818967012
 20
225.6265754081
 30
0.0
 11
74.5426354345
 21
512.5684218912
 31
0.0
 40
0.7090173422
 41
-4.170159705
 42
-4.17013716
  0
ELLIPSE
  5
645
100
AcDbEntity
  8
CURVE
100
AcDbEllipse
 62
253
  6
CONTINUOUS
 10
307.7688912356
 20
225.2876521207
 30
0.0
 11
111.5960398306
 21
499.5949159647
 31
0.0
 40
0.6974306067
 41
-4.1101243201
 42
-4.1101014526
  0
ELLIPSE
  5
646
100
AcDbEntity
  8
CURVE
100
AcDbEllipse
 62
253
  6
CONTINUOUS
 10
308.3403422858
 20
224.9577034463
 30
0.0
 11
144.6075033605
 21
486.3504339051
 31
0.0
 40
0.6816777814
 41
-4.0563586839
 42
-4.0563355314
  0
ELLIPSE
  5
647
100
AcDbEntity
  8
CURVE
100
AcDbEllipse
 62
253
  6
CONTINUOUS
 10
298.7504224432
 20
230.4948029735
 30
0.0
 11
-397.6130190355
 21
628.6806245463
 31
0.0
 40
0.5485173366
 41
-4.7028853088
 42
-4.7028692651
  0
ELLIPSE
  5
648
100
AcDbEntity
  8
CURVE
100
AcDbEllipse
 62
253
  6
CONTINUOUS
 10
299.8666355477
 20
229.8503155164
 30
0.0
 11
-354.8590705246
 21
612.8335886973
 31
0.0
 40
0.5765009423
 41
-4.6814633141
 42
-4.681445721
  0
ELLIPSE
  5
649
100
AcDbEntity
  8
CURVE
100
AcDbEllipse
 62
253
  6
CONTINUOUS
 10
300.964412717
 20
229.2164727372
 30
0.0
 11
-310.0515311947
 21
598.3618742059
 31
0.0
 40
0.6053928148
 41
-4.6531405817
 42
-4.6531221111
  0
ELLIPSE
  5
64A
100
AcDbEntity
  8
CURVE
100
AcDbEllipse
 62
253
  6
CONTINUOUS
 10
301.8896384843
 20
228.6822589749
 30
0.0
 11
-269.3375597904
 21
587.1354178879
 31
0.0
 40
0.6303442548
 41
-4.6216472861
 42
-4.6216288451
  0
ELLIPSE
  5
64B
100
AcDbEntity
  8
CURVE
100
AcDbEllipse
 62
253
  6
CONTINUOUS
 10
302.7461288185
 20
228.1877321903
 30
0.0
 11
-228.4248689523
 21
577.5355263863
 31
0.0
 40
0.6532895868
 41
-4.5842665252
 42
-4.5842474064
  0
ELLIPSE
  5
64C
100
AcDbEntity
  8
CURVE
100
AcDbEllipse
 62
253
  6
CONTINUOUS
 10
303.5449912429
 20
227.7264790386
 30
0.0
 11
-186.7175707416
 21
569.1203489598
 31
0.0
 40
0.6737205011
 41
-4.540387594
 42
-4.540367846
  0
ELLIPSE
  5
64D
100
AcDbEntity
  8
CURVE
100
AcDbEllipse
 62
253
  6
CONTINUOUS
 10
304.2953234783
 20
227.2932466097
 30
0.0
 11
-143.835113987
 21
561.3573197627
 31
0.0
 40
0.6910158262
 41
-4.4896834686
 42
-4.48966314
  0
ELLIPSE
  5
64E
100
AcDbEntity
  8
CURVE
100
AcDbEllipse
 62
253
  6
CONTINUOUS
 10
305.0046633837
 20
226.8836826385
 30
0.0
 11
-99.7362486058
 21
553.6228145614
 31
0.0
 40
0.7044789238
 41
-4.4323835958
 42
-4.4323627349
  0
ELLIPSE
  5
64F
100
AcDbEntity
  8
CURVE
100
AcDbEllipse
 62
253
  6
CONTINUOUS
 10
305.6793245445
 20
226.4941417397
 30
0.0
 11
-54.8437718178
 21
545.2690557637
 31
0.0
 40
0.7134230438
 41
-4.3695543472
 42
-4.3695330016
  0
ELLIPSE
  5
650
100
AcDbEntity
  8
CURVE
100
AcDbEllipse
 62
253
  6
CONTINUOUS
 10
306.3246506432
 20
226.1215385382
 30
0.0
 11
-10.0769762265
 21
535.768266156
 31
0.0
 40
0.717301556
 41
-4.303221703
 42
-4.303199919
  0
ELLIPSE
  5
651
100
AcDbEntity
  8
CURVE
100
AcDbEllipse
 62
253
  6
CONTINUOUS
 10
308.8989991617
 20
224.6351419677
 30
0.0
 11
173.6307822676
 21
473.3200422644
 31
0.0
 40
0.6624843918
 41
-4.0094682512
 42
-4.0094448486
  0
ELLIPSE
  5
652
100
AcDbEntity
  8
CURVE
100
AcDbEllipse
 62
253
  6
CONTINUOUS
 10
306.9452110999
 20
225.7632347079
 30
0.0
 11
33.3030616986
 21
524.8805963424
 31
0.0
 40
0.7158449827
 41
-4.2361547521
 42
-4.2361325744
  0
ELLIPSE
  5
653
100
AcDbEntity
  8
CURVE
100
AcDbEllipse
 62
253
  6
CONTINUOUS
 10
309.447326537
 20
224.3185446134
 30
0.0
 11
199.0287809721
 21
460.842919845
 31
0.0
 40
0.640543127
 41
-3.9693527212
 42
-3.9693291011
  0
ELLIPSE
  5
654
100
AcDbEntity
  8
CURVE
100
AcDbEllipse
 62
253
  6
CONTINUOUS
 10
309.9875563294
 20
224.006622702
 30
0.0
 11
221.3060453153
 21
449.1047842778
 31
0.0
 40
0.6164533067
 41
-3.9354989685
 42
-3.9354751612
  0
ELLIPSE
  5
655
100
AcDbEntity
  8
CURVE
100
AcDbEllipse
 62
253
  6
CONTINUOUS
 10
310.5217318034
 20
223.6981964781
 30
0.0
 11
240.9908835964
 21
438.1709125595
 31
0.0
 40
0.5907017286
 41
-3.907218448
 42
-3.9071944813
  0
ELLIPSE
  5
656
100
AcDbEntity
  8
CURVE
100
AcDbEllipse
 62
253
  6
CONTINUOUS
 10
311.0528349486
 20
223.3915441783
 30
0.0
 11
258.6064040674
 21
428.0072136882
 31
0.0
 40
0.5636112394
 41
-3.8837538898
 42
-3.8837299798
  0
ELLIPSE
  5
657
100
AcDbEntity
  8
CURVE
100
AcDbEllipse
 62
253
  6
CONTINUOUS
 10
311.587307192
 20
223.0829466035
 30
0.0
 11
274.7023344929
 21
418.4783891131
 31
0.0
 40
0.5352127588
 41
-3.864316627
 42
-3.864292867
  0
ELLIPSE
  5
658
100
AcDbEntity
  8
CURVE
100
AcDbEllipse
 62
253
  6
CONTINUOUS
 10
312.1268413392
 20
222.7714263488
 30
0.0
 11
289.5988409375
 21
409.5229654464
 31
0.0
 40
0.5057012527
 41
-3.8484423343
 42
-3.8484187524
  0
ELLIPSE
  5
659
100
AcDbEntity
  8
CURVE
100
AcDbEllipse
 62
253
  6
CONTINUOUS
 10
312.6734720037
 20
222.455808654
 30
0.0
 11
303.5802013867
 21
401.0611123924
 31
0.0
 40
0.4752076545
 41
-3.835725705
 42
-3.835702332
  0
ELLIPSE
  5
65A
100
AcDbEntity
  8
CURVE
100
AcDbEllipse
 62
253
  6
CONTINUOUS
 10
313.2294130244
 20
222.1348152763
 30
0.0
 11
316.8936726251
 21
393.0064741683
 31
0.0
 40
0.4438189142
 41
-3.8258342658
 42
-3.8258111349
  0
ELLIPSE
  5
65B
100
AcDbEntity
  8
CURVE
100
AcDbEllipse
 62
253
  6
CONTINUOUS
 10
313.7970990275
 20
221.8070404928
 30
0.0
 11
329.7571804918
 21
385.2701412407
 31
0.0
 40
0.411586938
 41
-3.8185062251
 42
-3.8184833718
  0
ELLIPSE
  5
65C
100
AcDbEntity
  8
CURVE
100
AcDbEllipse
 62
253
  6
CONTINUOUS
 10
314.3792369019
 20
221.47092138
 30
0.0
 11
342.3674290785
 21
377.7619263608
 31
0.0
 40
0.3785361307
 41
-3.8135459906
 42
-3.813523453
  0
ELLIPSE
  5
65D
100
AcDbEntity
  8
CURVE
100
AcDbEllipse
 62
253
  6
CONTINUOUS
 10
314.9788676966
 20
221.1247020744
 30
0.0
 11
354.9077983875
 21
370.3898263066
 31
0.0
 40
0.3446699266
 41
-3.8108196394
 42
-3.8107974578
  0
ELLIPSE
  5
65E
100
AcDbEntity
  8
CURVE
100
AcDbEllipse
 62
253
  6
CONTINUOUS
 10
315.5994421811
 20
220.7663901446
 30
0.0
 11
367.5559701346
 21
363.0581504998
 31
0.0
 40
0.3099767314
 41
-3.8102514899
 42
-3.8102297068
  0
ELLIPSE
  5
65F
100
AcDbEntity
  8
CURVE
100
AcDbEllipse
 62
253
  6
CONTINUOUS
 10
316.2449166979
 20
220.3937012483
 30
0.0
 11
380.4915358216
 21
355.664483876
 31
0.0
 40
0.2744356582
 41
-3.8118223712
 42
-3.811801031
  0
ELLIPSE
  5
660
100
AcDbEntity
  8
CURVE
100
AcDbEllipse
 62
253
  6
CONTINUOUS
 10
316.9198722443
 20
220.003990375
 30
0.0
 11
393.9038886667
 21
348.0954815894
 31
0.0
 40
0.2380228287
 41
2.4676153819
 42
2.4676362332
  0
ELLIPSE
  5
661
100
AcDbEntity
  8
CURVE
100
AcDbEllipse
 62
253
  6
CONTINUOUS
 10
330.5839365755
 20
212.1145308811
 30
0.0
 11
707.1533755257
 21
155.388473653
 31
0.0
 40
0.2022737761
 41
-2.1713043746
 42
-2.1709045269
  0
ELLIPSE
  5
662
100
AcDbEntity
  8
CURVE
100
AcDbEllipse
 62
253
  6
CONTINUOUS
 10
291.3474695244
 20
234.769175208
 30
0.0
 11
-638.5519637624
 21
744.3974518348
 31
0.0
 40
0.4103439492
 41
1.5248881281
 42
1.5252879527
  0
ELLIPSE
  5
663
100
AcDbEntity
  8
CURVE
100
AcDbEllipse
 62
253
  6
CONTINUOUS
 10
330.5304406638
 20
212.1454187501
 30
0.0
 11
705.7061335494
 21
156.4005597426
 31
0.0
 40
0.2016429416
 41
-2.1709170898
 42
-2.1705165759
  0
ELLIPSE
  5
664
100
AcDbEntity
  8
CURVE
100
AcDbEllipse
 62
253
  6
CONTINUOUS
 10
291.3659677746
 20
234.7584945502
 30
0.0
 11
-637.927440774
 21
744.0608868578
 31
0.0
 40
0.4106394125
 41
1.5267477015
 42
1.5271475492
  0
ELLIPSE
  5
665
100
AcDbEntity
  8
CURVE
100
AcDbEllipse
 62
253
  6
CONTINUOUS
 10
309.1325449834
 20
224.5002955373
 30
0.0
 11
229.0405843212
 21
444.8674990369
 31
0.0
 40
0.6068706215
 41
-3.9258637467
 42
-3.9258078684
  0
ELLIPSE
  5
666
100
AcDbEntity
  8
CURVE
100
AcDbEllipse
 62
253
  6
CONTINUOUS
 10
307.8999481336
 20
225.2119815103
 30
0.0
 11
173.0616754535
 21
473.5881941771
 31
0.0
 40
0.6629168521
 41
-4.0121819721
 42
-4.0121315325
  0
ELLIPSE
  5
667
100
AcDbEntity
  8
CURVE
100
AcDbEllipse
 62
253
  6
CONTINUOUS
 10
306.5010909174
 20
226.0196641351
 30
0.0
 11
88.8536133519
 21
507.7847693813
 31
0.0
 40
0.7052175334
 41
-4.148964863
 42
-4.1489198853
  0
ELLIPSE
  5
668
100
AcDbEntity
  8
CURVE
100
AcDbEllipse
 62
253
  6
CONTINUOUS
 10
304.8600124991
 20
226.9672022463
 30
0.0
 11
-29.6624996702
 21
540.1092909173
 31
0.0
 40
0.7162457329
 41
-4.3342426527
 42
-4.3342031006
  0
ELLIPSE
  5
669
100
AcDbEntity
  8
CURVE
100
AcDbEllipse
 62
253
  6
CONTINUOUS
 10
302.8525985471
 20
228.1262579034
 30
0.0
 11
-165.0700568678
 21
565.1286444308
 31
0.0
 40
0.6829500924
 41
-4.5170285764
 42
-4.5169943756
  0
ELLIPSE
  5
66A
100
AcDbEntity
  8
CURVE
100
AcDbEllipse
 62
253
  6
CONTINUOUS
 10
300.2605679164
 20
229.6228639038
 30
0.0
 11
-299.6691998674
 21
595.3282799791
 31
0.0
 40
0.611910355
 41
-4.6471825145
 42
-4.6471535843
  0
ELLIPSE
  5
66B
100
AcDbEntity
  8
CURVE
100
AcDbEllipse
 62
253
  6
CONTINUOUS
 10
296.6606235538
 20
231.7014266609
 30
0.0
 11
-445.7882268355
 21
648.6910593142
 31
0.0
 40
0.5175140022
 41
1.5602319189
 42
1.5602556265
  0
ELLIPSE
  5
66C
100
AcDbEntity
  8
CURVE
100
AcDbEllipse
 62
253
  6
CONTINUOUS
 10
337.7760191764
 20
207.9619125253
 30
0.0
 11
1002.1273267173
 21
-55.7809866213
 31
0.0
 40
0.2367939984
 41
-1.9482451284
 42
-1.9482270079
  0
ELLIPSE
  5
66D
100
AcDbEntity
  8
CURVE
100
AcDbEllipse
 62
253
  6
CONTINUOUS
 10
330.3960779759
 20
212.2229980821
 30
0.0
 11
777.1993443465
 21
105.6745910136
 31
0.0
 40
0.2249837446
 41
-2.1035276415
 42
-2.1035028377
  0
ELLIPSE
  5
66E
100
AcDbEntity
  8
CURVE
100
AcDbEllipse
 62
253
  6
CONTINUOUS
 10
327.9819711127
 20
213.6168731291
 30
0.0
 11
706.4086255274
 21
155.9093878184
 31
0.0
 40
0.2019500773
 41
-2.1725243042
 42
-2.1690560855
  0
ELLIPSE
  5
66F
100
AcDbEntity
  8
CURVE
100
AcDbEllipse
 62
253
  6
CONTINUOUS
 10
325.6405311845
 20
214.9687911984
 30
0.0
 11
646.8147914725
 21
196.8282568993
 31
0.0
 40
0.168929566
 41
-2.2332242321
 42
-2.2331927784
  0
ELLIPSE
  5
670
100
AcDbEntity
  8
CURVE
100
AcDbEllipse
 62
253
  6
CONTINUOUS
 10
321.8525819119
 20
217.1559056343
 30
0.0
 11
556.2554339769
 21
255.1781080368
 31
0.0
 40
0.0833351647
 41
-2.3308407024
 42
-2.3308067253
  0
ELLIPSE
  5
671
100
AcDbEntity
  8
CURVE
100
AcDbEllipse
 62
253
  6
CONTINUOUS
 10
318.7737347363
 20
218.9335934065
 30
0.0
 11
489.4175855708
 21
294.7447053767
 31
0.0
 40
0.0188268693
 41
2.4003077226
 42
2.4003437493
  0
ELLIPSE
  5
672
100
AcDbEntity
  8
CURVE
100
AcDbEllipse
 62
253
  6
CONTINUOUS
 10
316.1711533921
 20
220.4362912566
 30
0.0
 11
437.6439187575
 21
323.7885814444
 31
0.0
 40
0.1271709861
 41
2.4451801281
 42
2.4452177303
  0
ELLIPSE
  5
673
100
AcDbEntity
  8
CURVE
100
AcDbEllipse
 62
253
  6
CONTINUOUS
 10
313.8906245668
 20
221.7530400186
 30
0.0
 11
394.6336119516
 21
347.6860888274
 31
0.0
 40
0.2360636363
 41
2.4693275077
 42
2.4693662088
  0
ELLIPSE
  5
674
100
AcDbEntity
  8
CURVE
100
AcDbEllipse
 62
253
  6
CONTINUOUS
 10
311.82211929
 20
222.9473690409
 30
0.0
 11
355.5249445927
 21
370.0296520016
 31
0.0
 40
0.3429857114
 41
-3.8087933436
 42
-3.8087540241
  0
ELLIPSE
  5
675
100
AcDbEntity
  8
CURVE
100
AcDbEllipse
 62
253
  6
CONTINUOUS
 10
309.8803271836
 20
224.0685354668
 30
0.0
 11
315.7073643387
 21
393.7228164165
 31
0.0
 40
0.4467022303
 41
-3.8247055935
 42
-3.8246661412
  0
ELLIPSE
  5
676
100
AcDbEntity
  8
CURVE
100
AcDbEllipse
 62
253
  6
CONTINUOUS
 10
307.992242557
 20
225.1586918669
 30
0.0
 11
269.1323996469
 21
421.7971222168
 31
0.0
 40
0.5454464384
 41
-3.8689166867
 42
-3.8688775933
  0
ELLIPSE
  5
677
100
AcDbEntity
  8
CURVE
100
AcDbEllipse
 62
253
  6
CONTINUOUS
 10
306.0877449576
 20
226.2583249119
 30
0.0
 11
205.4673981789
 21
457.5242023054
 31
0.0
 40
0.6340851806
 41
-3.9575708902
 42
-3.9575326526
  0
ELLIPSE
  5
678
100
AcDbEntity
  8
CURVE
100
AcDbEllipse
 62
253
  6
CONTINUOUS
 10
304.1384337906
 20
227.3838327491
 30
0.0
 11
110.6167568333
 21
499.9629076234
 31
0.0
 40
0.697813517
 41
-4.10991897
 42
-4.1098837596
  0
ELLIPSE
  5
679
100
AcDbEntity
  8
CURVE
100
AcDbEllipse
 62
253
  6
CONTINUOUS
 10
302.0140120592
 20
228.6104472316
 30
0.0
 11
-23.9118617437
 21
538.8671486412
 31
0.0
 40
0.7166611362
 41
-4.3218996461
 42
-4.321864538
  0
ELLIPSE
  5
67A
100
AcDbEntity
  8
CURVE
100
AcDbEllipse
 62
253
  6
CONTINUOUS
 10
299.5341448488
 20
230.0422914788
 30
0.0
 11
-172.0394095478
 21
566.3934586198
 31
0.0
 40
0.6800873093
 41
-4.5213665008
 42
-4.521333732
  0
ELLIPSE
  5
67B
100
AcDbEntity
  8
CURVE
100
AcDbEllipse
 62
253
  6
CONTINUOUS
 10
296.5550882315
 20
231.7623614333
 30
0.0
 11
-307.0963803205
 21
597.4862511471
 31
0.0
 40
0.6072569338
 41
-4.6486787805
 42
-4.6486488387
  0
ELLIPSE
  5
67C
100
AcDbEntity
  8
CURVE
100
AcDbEllipse
 62
253
  6
CONTINUOUS
 10
292.757484883
 20
233.9550500116
 30
0.0
 11
-442.9624897761
 21
647.4603553605
 31
0.0
 40
0.5193018248
 41
1.5651294384
 42
1.5651560718
  0
ELLIPSE
  5
67D
100
AcDbEntity
  8
CURVE
100
AcDbEllipse
 62
253
  6
CONTINUOUS
 10
287.5487005161
 20
236.9625368236
 30
0.0
 11
-606.5475250537
 21
727.3085124249
 31
0.0
 40
0.425918028
 41
1.5312507826
 42
1.5312736319
  0
ELLIPSE
  5
67E
100
AcDbEntity
  8
CURVE
100
AcDbEllipse
 62
253
  6
CONTINUOUS
 10
279.6689162657
 20
241.5122254929
 30
0.0
 11
-840.2246077442
 21
857.3218119398
 31
0.0
 40
0.3305685308
 41
1.5200991393
 42
1.5201177322
  0
ELLIPSE
  5
67F
100
AcDbEntity
  8
CURVE
100
AcDbEllipse
 62
253
  6
CONTINUOUS
 10
331.498805035
 20
211.5862972986
 30
0.0
 11
731.3338991364
 21
138.3738533839
 31
0.0
 40
0.2117629738
 41
-2.1490983336
 42
-2.1490774841
  0
ELLIPSE
  5
680
100
AcDbEntity
  8
CURVE
100
AcDbEllipse
 62
253
  6
CONTINUOUS
 10
325.6168146919
 20
214.982484804
 30
0.0
 11
586.1580927387
 21
236.503512197
 31
0.0
 40
0.1173482574
 41
-2.2988353183
 42
-2.2988073911
  0
ELLIPSE
  5
681
100
AcDbEntity
  8
CURVE
100
AcDbEllipse
 62
253
  6
CONTINUOUS
 10
321.6371108049
 20
217.280315951
 30
0.0
 11
498.5721615515
 21
289.4896845453
 31
0.0
 40
0.0024410741
 41
2.3916867939
 42
2.3917182566
  0
ELLIPSE
  5
682
100
AcDbEntity
  8
CURVE
100
AcDbEllipse
 62
253
  6
CONTINUOUS
 10
318.7169043617
 20
218.9664065525
 30
0.0
 11
440.5822133605
 21
322.1600008382
 31
0.0
 40
0.1203095428
 41
2.443322601
 42
2.4433576777
  0
ELLIPSE
  5
683
100
AcDbEntity
  8
CURVE
100
AcDbEllipse
 62
253
  6
CONTINUOUS
 10
316.3362664232
 20
220.3409570618
 30
0.0
 11
395.9826284518
 21
346.929835963
 31
0.0
 40
0.2324489678
 41
2.4690724801
 42
2.4691101404
  0
ELLIPSE
  5
684
100
AcDbEntity
  8
CURVE
100
AcDbEllipse
 62
253
  6
CONTINUOUS
 10
314.2702894773
 20
221.5338262576
 30
0.0
 11
357.2131802804
 21
369.0456577933
 31
0.0
 40
0.3383723451
 41
-3.808440466
 42
-3.8084011657
  0
ELLIPSE
  5
685
100
AcDbEntity
  8
CURVE
100
AcDbEllipse
 62
253
  6
CONTINUOUS
 10
312.3836252698
 20
222.6231625255
 30
0.0
 11
318.9762404906
 21
391.7499060433
 31
0.0
 40
0.4387187856
 41
-3.8224889913
 42
-3.8224488267
  0
ELLIPSE
  5
686
100
AcDbEntity
  8
CURVE
100
AcDbEllipse
 62
253
  6
CONTINUOUS
 10
310.5857036011
 20
223.6612599638
 30
0.0
 11
275.7940011222
 21
417.8256990117
 31
0.0
 40
0.5331560357
 41
-3.8611852786
 42
-3.8611448308
  0
ELLIPSE
  5
687
100
AcDbEntity
  8
CURVE
100
AcDbEllipse
 62
253
  6
CONTINUOUS
 10
320.9643053685
 20
217.6687853778
 30
0.0
 11
476.6671208964
 21
301.9914692034
 31
0.0
 40
0.0430187093
 41
2.4104287954
 42
2.4104473665
  0
ELLIPSE
  5
688
100
AcDbEntity
  8
CURVE
100
AcDbEllipse
 62
253
  6
CONTINUOUS
 10
320.0378226051
 20
218.2037249138
 30
0.0
 11
456.9819834936
 21
313.0422529191
 31
0.0
 40
0.0835654407
 41
2.4279133969
 42
2.427931817
  0
ELLIPSE
  5
689
100
AcDbEntity
  8
CURVE
100
AcDbEllipse
 62
253
  6
CONTINUOUS
 10
319.1803054256
 20
218.698844586
 30
0.0
 11
439.2350609293
 21
322.9067970037
 31
0.0
 40
0.1234451061
 41
2.4420155166
 42
2.4420346163
  0
ELLIPSE
  5
68A
100
AcDbEntity
  8
CURVE
100
AcDbEllipse
 62
253
  6
CONTINUOUS
 10
318.380625202
 20
219.1605699247
 30
0.0
 11
423.0189383496
 21
331.8877477611
 31
0.0
 40
0.1625189128
 41
2.4531383272
 42
2.4531580588
  0
ELLIPSE
  5
68B
100
AcDbEntity
  8
CURVE
100
AcDbEllipse
 62
253
  6
CONTINUOUS
 10
317.6296655585
 20
219.5941646112
 30
0.0
 11
408.0008914584
 21
340.2212376042
 31
0.0
 40
0.2007189357
 41
2.461594202
 42
2.4616145174
  0
ELLIPSE
  5
68C
100
AcDbEntity
  8
RACCORDO
100
AcDbEllipse
 62
7
  6
CONTINUOUS
 10
-25.8028553173
 20
36.09318942
 30
0.0
 11
-0.2300899278
 21
0.3984107856
 31
0.0
 40
0.5772437351
 41
-2.3564331449
 42
-0.7854845191
  0
ELLIPSE
  5
68D
100
AcDbEntity
  8
RACCORDO
100
AcDbEllipse
 62
7
  6
CONTINUOUS
 10
-25.8028553173
 20
0.2807527333
 30
0.0
 11
-0.2300549222
 21
0.3983500929
 31
0.0
 40
0.5774195892
 41
-3.1459654127
 42
-2.3562809449
  0
ELLIPSE
  5
68E
100
AcDbEntity
  8
ASSI
100
AcDbEllipse
 62
7
  6
CONTINUOUS
 10
-31.8459993183
 20
45.9719012998
 30
0.0
 11
0.2522054935
 21
0.4317367776
 31
0.0
 40
0.580680601
 41
0.6387924013
 42
0.7825716451
  0
ELLIPSE
  5
68F
100
AcDbEntity
  8
RACCORDO
100
AcDbEllipse
 62
7
  6
CONTINUOUS
 10
-21.2814937916
 20
40.4726545515
 30
0.0
 11
0.4999950703
 21
0.0038122721
 31
0.0
 40
0.5824033911
 41
-0.7723854459
 42
-0.0044618197
  0
ELLIPSE
  5
690
100
AcDbEntity
  8
RACCORDO
100
AcDbEllipse
 62
7
  6
CONTINUOUS
 10
-37.1780909822
 20
42.9596833495
 30
0.0
 11
0.4999978344
 21
0.0025340295
 31
0.0
 40
0.5807363987
 41
2.3590690438
 42
2.9996644382
  0
ELLIPSE
  5
691
100
AcDbEntity
  8
RACCORDO
100
AcDbEllipse
 62
7
  6
CONTINUOUS
 10
-21.3105668061
 20
39.8896741269
 30
0.0
 11
0.0991367736
 21
0.1737025424
 31
0.0
 40
0.5739631936
 41
-2.353203638
 42
-0.7882250754
  0
ELLIPSE
  5
692
100
AcDbEntity
  8
RACCORDO
100
AcDbEllipse
 62
7
  6
CONTINUOUS
 10
-28.3209281332
 20
34.5888215754
 30
0.0
 11
-0.2296598783
 21
0.3987301445
 31
0.0
 40
0.5778584463
 41
-2.3545649475
 42
-0.7846820092
  0
ELLIPSE
  5
693
100
AcDbEntity
  8
RACCORDO
100
AcDbEllipse
 62
7
  6
CONTINUOUS
 10
-43.3523738563
 20
43.2677899477
 30
0.0
 11
-0.2298712205
 21
0.399093654
 31
0.0
 40
0.5768037941
 41
5.4994124095
 42
6.5792962001
  0
ELLIPSE
  5
694
100
AcDbEntity
  8
DRAFT
100
AcDbEllipse
 62
7
  6
CONTINUOUS
 10
-25.9371560582
 20
41.8658821611
 30
0.0
 11
0.4279660527
 21
-0.0032066148
 31
0.0
 40
0.5723275643
 41
-0.7752921553
 42
0.0042190185
  0
ELLIPSE
  5
695
100
AcDbEntity
  8
DRAFT
100
AcDbEllipse
 62
7
  6
CONTINUOUS
 10
-31.4921444873
 20
45.0732628598
 30
0.0
 11
0.4279660527
 21
-0.0032066148
 31
0.0
 40
0.5723275643
 41
-0.7811099195
 42
0.004222027
  0
ELLIPSE
  5
696
100
AcDbEntity
  8
RACCORDO
100
AcDbEllipse
 62
7
  6
CONTINUOUS
 10
-21.1024500857
 20
40.2231392376
 30
0.0
 11
-0.7070896968
 21
1.224754734
 31
0.0
 40
0.5773595689
 41
5.1751773485
 42
6.2744828216
  0
ELLIPSE
  5
697
100
AcDbEntity
  8
ASSI
100
AcDbEllipse
 62
7
  6
CONTINUOUS
 10
-25.6851670475
 20
42.4147139601
 30
0.0
 11
0.247841934
 21
0.4342563559
 31
0.0
 40
0.5739631936
 41
0.6329742434
 42
0.7767534872
  0
ELLIPSE
  5
698
100
AcDbEntity
  8
RACCORDO
100
AcDbEllipse
 62
7
  6
CONTINUOUS
 10
-28.3209281332
 20
-1.0229163587
 30
0.0
 11
-0.2298712205
 21
0.399093654
 31
0.0
 40
0.5768037941
 41
2.8808714214
 42
3.9277026942
  0
ELLIPSE
  5
699
100
AcDbEntity
  8
RACCORDO
100
AcDbEllipse
 62
7
  6
CONTINUOUS
 10
-31.6667838826
 20
38.6154456611
 30
0.0
 11
0.4997887139
 21
0.0239535316
 31
0.0
 40
0.6067642562
 41
-2.385266879
 42
-0.8202883164
  0
ELLIPSE
  5
69A
100
AcDbEntity
  8
RACCORDO
100
AcDbEllipse
 62
7
  6
CONTINUOUS
 10
-31.6667838826
 20
39.777523703
 30
0.0
 11
0.4999978344
 21
0.0025340295
 31
0.0
 40
0.5807363987
 41
-1.4347545326
 42
-0.7941591381
  0
ELLIPSE
  5
69B
100
AcDbEntity
  8
RACCORDO
100
AcDbEllipse
 62
7
  6
CONTINUOUS
 10
-37.1780909822
 20
41.7976053075
 30
0.0
 11
0.4997887139
 21
0.0239535316
 31
0.0
 40
0.6067642562
 41
3.1125159911
 42
3.8979184282
  0
ELLIPSE
  5
69C
100
AcDbEntity
  8
RACCORDO
100
AcDbEllipse
 62
7
  6
CONTINUOUS
 10
-21.2814937916
 20
41.3497617644
 30
0.0
 11
-0.3535448484
 21
0.612377367
 31
0.0
 40
0.5773595689
 41
-3.1241152003
 42
-2.2313402172
  0
ELLIPSE
  5
69D
100
AcDbEntity
  8
RACCORDO
100
AcDbEllipse
 62
7
  6
CONTINUOUS
 10
-27.6040022693
 20
35.6251425406
 30
0.0
 11
0.249894357
 21
0.0119767658
 31
0.0
 40
0.6067642562
 41
-2.385266879
 42
-0.8202883164
  0
ELLIPSE
  5
69E
100
AcDbEntity
  8
RACCORDO
100
AcDbEllipse
 62
7
  6
CONTINUOUS
 10
-42.3015327673
 20
44.1113124469
 30
0.0
 11
0.249894357
 21
0.0119767658
 31
0.0
 40
0.6067642562
 41
3.1125215436
 42
3.8979184282
  0
ELLIPSE
  5
69F
100
AcDbEntity
  8
RACCORDO
100
AcDbEllipse
 62
7
  6
CONTINUOUS
 10
-40.9683204337
 20
43.3415323545
 30
0.0
 11
0.249894357
 21
0.0119767658
 31
0.0
 40
0.6067642562
 41
-2.385266879
 42
-0.8202883164
  0
ELLIPSE
  5
6A0
100
AcDbEntity
  8
RACCORDO
100
AcDbEllipse
 62
7
  6
CONTINUOUS
 10
-28.9372146029
 20
36.394922633
 30
0.0
 11
0.249894357
 21
0.0119767658
 31
0.0
 40
0.6067642562
 41
3.1125215436
 42
3.8979184282
  0
ENDSEC
  0
SECTION
  2
OBJECTS
  0
DICTIONARY
  5
C
100
AcDbDictionary
280
0
281
1
  3
ACAD_GROUP
350
D
  3
ACAD_MLINESTYLE
350
17
  3
ACAD_LAYOUT
350
1A
  3
ACAD_PLOTSETTINGS
350
19
  3
ACAD_PLOTSTYLENAME
350
E
  0
DICTIONARY
  5
D
102
{ACAD_REACTORS
330
C
102
}
100
AcDbDictionary
280
0
281
1
  0
ACDBDICTIONARYWDFLT
  5
E
102
{ACAD_REACTORS
330
C
102
}
100
AcDbDictionary
281
1
  3
Normal
350
F
100
AcDbDictionaryWithDefault
340
F
  0
DICTIONARY
  5
17
102
{ACAD_REACTORS
330
C
102
}
100
AcDbDictionary
280
0
281
1
  3
Standard
350
18
  0
DICTIONARY
  5
19
102
{ACAD_REACTORS
330
C
102
}
100
AcDbDictionary
281
1
  0
DICTIONARY
  5
1A
102
{ACAD_REACTORS
330
C
102
}
100
AcDbDictionary
281
1
  3
Model
350
6A1
  3
Layout1
350
6A2
  0
ACDBPLACEHOLDER
  5
F
102
{ACAD_REACTORS
330
E
102
}
  0
MLINESTYLE
  5
18
102
{ACAD_REACTORS
330
17
102
}
100
AcDbMlineStyle
  2
STANDARD
 70
0
  3

 62
256
 51
90.0
 52
90.0
 71
2
 49
0.5
 62
256
  6
BYLAYER
 49
-0.5
 62
256
  6
BYLAYER
  0
LAYOUT
  5
6A1
102
{ACAD_REACTORS
330
1A
102
}
100
AcDbPlotSettings
  1

  2
none_device
  4
ISO_A4_(297.00_x_210.00_MM)
  6

 40
0.0
 41
0.0
 42
0.0
 43
0.0
 44
297.0
 45
210.0
 46
0.0
 47
0.0
 48
0.0
 49
0.0
140
0.0
141
0.0
142
1.0
143
1.0
 70
1024
 72
1
 73
0
 74
0
  7

 75
0
147
1.0
148
0.0
149
0.0
100
AcDbLayout
  1
Model
 70
0
 71
0
 10
0.0
 20
0.0
 11
297.0
 21
210.0
 12
0.0
 22
0.0
 32
0.0
 14
0.0
 24
0.0
 34
0.0
 15
0.0
 25
0.0
 35
0.0
146
0.0
 13
0.0
 23
0.0
 33
0.0
 16
1.0
 26
0.0
 36
0.0
 17
0.0
 27
1.0
 37
0.0
 76
0
330
218
345
0
346
0
  0
LAYOUT
  5
6A2
102
{ACAD_REACTORS
330
1A
102
}
100
AcDbPlotSettings
  1

  2
none_device
  4
ISO_A4_(297.00_x_210.00_MM)
  6

 40
0.0
 41
0.0
 42
0.0
 43
0.0
 44
297.0
 45
210.0
 46
0.0
 47
0.0
 48
0.0
 49
0.0
140
0.0
141
0.0
142
1.0
143
1.0
 70
0
 72
1
 73
0
 74
0
  7

 75
0
147
1.0
148
0.0
149
0.0
100
AcDbLayout
  1
Layout1
 70
0
 71
1
 10
0.0
 20
0.0
 11
297.0
 21
210.0
 12
0.0
 22
0.0
 32
0.0
 14
0.0
 24
0.0
 34
0.0
 15
0.0
 25
0.0
 35
0.0
146
0.0
 13
0.0
 23
0.0
 33
0.0
 16
1.0
 26
0.0
 36
0.0
 17
0.0
 27
1.0
 37
0.0
 76
0
330
219
345
0
346
0
  0
ENDSEC
  0
EOF
