  0
SECTION
  2
HEADER
  9
$ACADVER
  1
AC1015
  9
$DWGCODEPAGE
  3
ANSI_1252
  9
$EXTMAX
 10
297.0
 20
210.0
 30
0.0
  9
$EXTMIN
 10
0.0
 20
0.0
 30
0.0
  9
$LIMMIN
 10
0.0
 20
0.0
  9
$LIMMAX
 10
297.0
 20
210.0
  9
$VIEWCTR
 10
148.5
 20
105.0
  9
$VIEWSIZE
 40
210.0
  9
$CLAYER
  8
0
  9
$LTSCALE
 40
16.335
  9
$CELTYPE
  6
BYLAYER
  9
$DIMSCALE
 40
1.0
  9
$DIMASZ
 40
3.0
  9
$DIMEXO
 40
1.85625
  9
$DIMDLI
 40
11.286
  9
$DIMEXE
 40
5.346
  9
$DIMCEN
 40
2.673
  9
$DIMLFAC
 40
1.0
  9
$DIMBLK
  1
_FILLED
  9
$DIMTXT
 40
3.0
  9
$DIMTOL
 70
1
  9
$DIMLIM
 70
0
  9
$DIMTFAC
 40
1.0
  9
$DIMTP
 40
0.01
  9
$DIMTM
 40
0.01
  9
$PDMODE
 70
3
  9
$PDSIZE
 40
3.0
  9
$HANDSEED
  5
549
  9
$TILEMODE
 70
1
  9
$MEASUREMENT
 70
1
  9
$INSUNITS
 70
4
  0
ENDSEC
  0
SECTION
  2
CLASSES
  0
CLASS
  1
ACDBDICTIONARYWDFLT
  2
AcDbDictionaryWithDefault
  3
AutoCAD 2000
 90
0
280
0
281
0
  0
CLASS
  1
ACDBPLACEHOLDER
  2
AcDbPlaceHolder
  3
AutoCAD 2000
 90
0
280
0
281
0
  0
CLASS
  1
LAYOUT
  2
AcDbLayout
  3
AutoCAD 2000
 90
0
280
0
281
0
  0
ENDSEC
  0
SECTION
  2
TABLES
  0
TABLE
  2
VPORT
  5
8
100
AcDbSymbolTable
 70
2
  0
VPORT
  5
1F4
100
AcDbSymbolTableRecord
100
AcDbViewportTableRecord
  2
*ACTIVE
 70
0
 10
0.0
 20
0.0
 11
1.0
 21
1.0
 12
148.5
 22
105.0
 13
0.0
 23
0.0
 14
1.0
 24
1.0
 15
0.0
 25
0.0
 16
0.0
 26
0.0
 36
1.0
 17
0.0
 27
0.0
 37
0.0
 40
210.0
 41
1.4142857143
 42
50.0
 43
0.0
 44
0.0
 50
0.0
 51
0.0
 71
0
 72
100
 73
1
 74
1
 75
0
 76
0
 77
0
 78
0
  0
ENDTAB
  0
TABLE
  2
LTYPE
  5
5
100
AcDbSymbolTable
 70
6
  0
LTYPE
  5
14
100
AcDbSymbolTableRecord
100
AcDbLinetypeTableRecord
  2
BYBLOCK
 70
0
  3

 72
65
 73
0
 40
0.0
  0
LTYPE
  5
15
100
AcDbSymbolTableRecord
100
AcDbLinetypeTableRecord
  2
BYLAYER
 70
0
  3

 72
65
 73
0
 40
0.0
  0
LTYPE
  5
16
100
AcDbSymbolTableRecord
100
AcDbLinetypeTableRecord
  2
CONTINUOUS
 70
64
  3
Solid line
 72
65
 73
0
 40
0.0
  0
LTYPE
  5
1F5
100
AcDbSymbolTableRecord
100
AcDbLinetypeTableRecord
  2
CENTER
 70
64
  3
____ _ ____ _ ____ _ ____ _ ____ _ ____ _ ____
 72
65
 73
4
 40
0.6
 49
0.375
 74
0
 49
-0.075
 74
0
 49
0.075
 74
0
 49
-0.075
 74
0
  0
LTYPE
  5
1F6
100
AcDbSymbolTableRecord
100
AcDbLinetypeTableRecord
  2
HIDDEN
 70
64
  3
- - - - - - - - - - - - - - - - - - - -
 72
65
 73
2
 40
0.2
 49
0.1
 74
0
 49
-0.1
 74
0
  0
LTYPE
  5
1F7
100
AcDbSymbolTableRecord
100
AcDbLinetypeTableRecord
  2
PHANTOM
 70
64
  3
_____ _ _ _____ _ _ _____ _ _ _____
 72
65
 73
6
 40
0.8
 49
0.45
 74
0
 49
-0.05
 74
0
 49
0.1
 74
0
 49
-0.05
 74
0
 49
0.1
 74
0
 49
-0.05
 74
0
  0
LTYPE
  5
1F8
100
AcDbSymbolTableRecord
100
AcDbLinetypeTableRecord
  2
DOT
 70
64
  3
. . . . . . . . . . . . . . . . . . . .
 72
65
 73
2
 40
0.2
 49
0.1
 74
0
 49
-0.1
 74
0
  0
LTYPE
  5
1F9
100
AcDbSymbolTableRecord
100
AcDbLinetypeTableRecord
  2
DASHED
 70
64
  3
- - - - - - - - - - - - - - - - - - - -
 72
65
 73
2
 40
0.2
 49
0.1
 74
0
 49
-0.1
 74
0
  0
ENDTAB
  0
TABLE
  2
LAYER
  5
2
100
AcDbSymbolTable
 70
36
  0
LAYER
  5
10
100
AcDbSymbolTableRecord
100
AcDbLayerTableRecord
  2
0
 70
0
 62
7
  6
CONTINUOUS
370
-3
390
F
  0
LAYER
  5
1FA
100
AcDbSymbolTableRecord
100
AcDbLayerTableRecord
  2
DEFAULT_1
 70
0
 62
7
  6
CENTER
370
-3
390
F
  0
LAYER
  5
1FB
100
AcDbSymbolTableRecord
100
AcDbLayerTableRecord
  2
DEFAULT_2
 70
0
 62
7
  6
HIDDEN
370
-3
390
F
  0
LAYER
  5
1FC
100
AcDbSymbolTableRecord
100
AcDbLayerTableRecord
  2
DEFAULT_3
 70
0
 62
7
  6
PHANTOM
370
-3
390
F
  0
LAYER
  5
1FD
100
AcDbSymbolTableRecord
100
AcDbLayerTableRecord
  2
ASSI
 70
0
 62
7
  6
CONTINUOUS
370
-3
390
F
  0
LAYER
  5
1FE
100
AcDbSymbolTableRecord
100
AcDbLayerTableRecord
  2
COLOR15
 70
0
 62
7
  6
CONTINUOUS
370
-3
390
F
  0
LAYER
  5
1FF
100
AcDbSymbolTableRecord
100
AcDbLayerTableRecord
  2
COLORE_MATERIALE
 70
0
 62
7
  6
CONTINUOUS
370
-3
390
F
  0
LAYER
  5
200
100
AcDbSymbolTableRecord
100
AcDbLayerTableRecord
  2
COORDINATE
 70
0
 62
7
  6
CONTINUOUS
370
-3
390
F
  0
LAYER
  5
201
100
AcDbSymbolTableRecord
100
AcDbLayerTableRecord
  2
COORD_ORIGINE
 70
0
 62
7
  6
CONTINUOUS
370
-3
390
F
  0
LAYER
  5
202
100
AcDbSymbolTableRecord
100
AcDbLayerTableRecord
  2
COPY_PUBLISH
 70
0
 62
7
  6
CONTINUOUS
370
-3
390
F
  0
LAYER
  5
203
100
AcDbSymbolTableRecord
100
AcDbLayerTableRecord
  2
CORPO
 70
0
 62
7
  6
CONTINUOUS
370
-3
390
F
  0
LAYER
  5
204
100
AcDbSymbolTableRecord
100
AcDbLayerTableRecord
  2
COSMETIC
 70
0
 62
7
  6
CONTINUOUS
370
-3
390
F
  0
LAYER
  5
205
100
AcDbSymbolTableRecord
100
AcDbLayerTableRecord
  2
CURVE
 70
0
 62
7
  6
CONTINUOUS
370
-3
390
F
  0
LAYER
  5
206
100
AcDbSymbolTableRecord
100
AcDbLayerTableRecord
  2
DRAFT
 70
0
 62
7
  6
CONTINUOUS
370
-3
390
F
  0
LAYER
  5
207
100
AcDbSymbolTableRecord
100
AcDbLayerTableRecord
  2
FUSIBILE
 70
0
 62
7
  6
CONTINUOUS
370
-3
390
F
  0
LAYER
  5
208
100
AcDbSymbolTableRecord
100
AcDbLayerTableRecord
  2
IMPORT
 70
0
 62
7
  6
CONTINUOUS
370
-3
390
F
  0
LAYER
  5
209
100
AcDbSymbolTableRecord
100
AcDbLayerTableRecord
  2
IMPORT_IGES
 70
0
 62
7
  6
CONTINUOUS
370
-3
390
F
  0
LAYER
  5
20A
100
AcDbSymbolTableRecord
100
AcDbLayerTableRecord
  2
INTF_1
 70
0
 62
7
  6
CONTINUOUS
370
-3
390
F
  0
LAYER
  5
20B
100
AcDbSymbolTableRecord
100
AcDbLayerTableRecord
  2
INTF_CYAN
 70
0
 62
7
  6
CONTINUOUS
370
-3
390
F
  0
LAYER
  5
20C
100
AcDbSymbolTableRecord
100
AcDbLayerTableRecord
  2
INTF_GREEN
 70
0
 62
7
  6
CONTINUOUS
370
-3
390
F
  0
LAYER
  5
20D
100
AcDbSymbolTableRecord
100
AcDbLayerTableRecord
  2
INTF_YELLOW
 70
0
 62
7
  6
CONTINUOUS
370
-3
390
F
  0
LAYER
  5
20E
100
AcDbSymbolTableRecord
100
AcDbLayerTableRecord
  2
MAGNETOTERMICO
 70
0
 62
7
  6
CONTINUOUS
370
-3
390
F
  0
LAYER
  5
20F
100
AcDbSymbolTableRecord
100
AcDbLayerTableRecord
  2
MOLLA
 70
0
 62
7
  6
CONTINUOUS
370
-3
390
F
  0
LAYER
  5
210
100
AcDbSymbolTableRecord
100
AcDbLayerTableRecord
  2
NOTE
 70
0
 62
7
  6
CONTINUOUS
370
-3
390
F
  0
LAYER
  5
211
100
AcDbSymbolTableRecord
100
AcDbLayerTableRecord
  2
PIANI
 70
0
 62
7
  6
CONTINUOUS
370
-3
390
F
  0
LAYER
  5
212
100
AcDbSymbolTableRecord
100
AcDbLayerTableRecord
  2
PIANI_ORIGINE
 70
0
 62
7
  6
CONTINUOUS
370
-3
390
F
  0
LAYER
  5
213
100
AcDbSymbolTableRecord
100
AcDbLayerTableRecord
  2
PIANI_RIFERIMENTO
 70
0
 62
7
  6
CONTINUOUS
370
-3
390
F
  0
LAYER
  5
214
100
AcDbSymbolTableRecord
100
AcDbLayerTableRecord
  2
PORTATASTO
 70
0
 62
7
  6
CONTINUOUS
370
-3
390
F
  0
LAYER
  5
215
100
AcDbSymbolTableRecord
100
AcDbLayerTableRecord
  2
PUNTI
 70
0
 62
7
  6
CONTINUOUS
370
-3
390
F
  0
LAYER
  5
216
100
AcDbSymbolTableRecord
100
AcDbLayerTableRecord
  2
RACCORDO
 70
0
 62
7
  6
CONTINUOUS
370
-3
390
F
  0
LAYER
  5
217
100
AcDbSymbolTableRecord
100
AcDbLayerTableRecord
  2
RGB____0____0____0__
 70
0
 62
7
  6
CONTINUOUS
370
-3
390
F
  0
LAYER
  5
218
100
AcDbSymbolTableRecord
100
AcDbLayerTableRecord
  2
SKEL
 70
0
 62
7
  6
CONTINUOUS
370
-3
390
F
  0
LAYER
  5
219
100
AcDbSymbolTableRecord
100
AcDbLayerTableRecord
  2
SMUSSO
 70
0
 62
7
  6
CONTINUOUS
370
-3
390
F
  0
LAYER
  5
21A
100
AcDbSymbolTableRecord
100
AcDbLayerTableRecord
  2
SNAPLINE
 70
0
 62
7
  6
CONTINUOUS
370
-3
390
F
  0
LAYER
  5
21B
100
AcDbSymbolTableRecord
100
AcDbLayerTableRecord
  2
SUPERFICI
 70
0
 62
7
  6
CONTINUOUS
370
-3
390
F
  0
LAYER
  5
21C
100
AcDbSymbolTableRecord
100
AcDbLayerTableRecord
  2
TASTO
 70
0
 62
7
  6
CONTINUOUS
370
-3
390
F
  0
LAYER
  5
21D
100
AcDbSymbolTableRecord
100
AcDbLayerTableRecord
  2
TRASH
 70
0
 62
7
  6
CONTINUOUS
370
-3
390
F
  0
LAYER
  5
21E
100
AcDbSymbolTableRecord
100
AcDbLayerTableRecord
  2
XSEC_DATUMS
 70
0
 62
7
  6
CONTINUOUS
370
-3
390
F
  0
LAYER
  5
21F
100
AcDbSymbolTableRecord
100
AcDbLayerTableRecord
  2
___SHELL
 70
0
 62
7
  6
CONTINUOUS
370
-3
390
F
  0
ENDTAB
  0
TABLE
  2
STYLE
  5
3
100
AcDbSymbolTable
 70
1
  0
STYLE
  5
11
100
AcDbSymbolTableRecord
100
AcDbTextStyleTableRecord
  2
STANDARD
 70
0
 40
0.0
 41
0.8
 50
0.0
 71
0
 42
0.2
  3
txt
  4

  0
STYLE
  5
220
100
AcDbSymbolTableRecord
100
AcDbTextStyleTableRecord
  2
TEXTSTYLE_1
 70
0
 40
0.0
 41
0.8
 50
0.0
 71
0
 42
0.2
  3
gdt
  4

  0
ENDTAB
  0
TABLE
  2
VIEW
  5
6
100
AcDbSymbolTable
 70
0
  0
ENDTAB
  0
TABLE
  2
UCS
  5
7
100
AcDbSymbolTable
 70
0
  0
ENDTAB
  0
TABLE
  2
APPID
  5
9
100
AcDbSymbolTable
 70
1
  0
APPID
  5
221
100
AcDbSymbolTableRecord
100
AcDbRegAppTableRecord
  2
ACAD
 70
0
  0
ENDTAB
  0
TABLE
  2
BLOCK_RECORD
  5
1
100
AcDbSymbolTable
 70
0
  0
BLOCK_RECORD
  5
222
100
AcDbSymbolTableRecord
100
AcDbBlockTableRecord
  2
*Model_Space
  0
BLOCK_RECORD
  5
223
100
AcDbSymbolTableRecord
100
AcDbBlockTableRecord
  2
*Paper_Space
  0
ENDTAB
  0
TABLE
  2
DIMSTYLE
  5
A
100
AcDbSymbolTable
 70
1
100
AcDbDimStyleTable
 71
0
  0
DIMSTYLE
105
224
100
AcDbSymbolTableRecord
100
AcDbDimStyleTableRecord
  2
STANDARD
 70
0
  3

  4

 40
1.0
 41
3.0
 42
0.0625
 43
0.38
 44
0.18
 45
0.0
 46
0.0
 47
0.01
 48
0.01
140
3.0
141
0.09
142
0.0
143
25.4
144
1.0
145
0.0
146
1.0
147
0.09
 71
1.0
 72
0.0
 73
0
 74
0
 75
0
 76
0
 77
1
 78
8
170
0
171
2
172
0
173
0
174
0
175
0
176
0
177
0
178
0
270
2
271
2
272
2
273
2
274
2
275
0
280
0
281
0
282
0
283
1
284
8
285
0
286
0
287
3
288
0
340
11
  0
ENDTAB
  0
ENDSEC
  0
SECTION
  2
BLOCKS
  0
BLOCK
  5
20
100
AcDbEntity
  8
0
100
AcDbBlockBegin
  2
*Model_Space
 70
0
 10
0.0
 20
0.0
 30
0.0
  3
*Model_Space
  1

  0
ENDBLK
  5
21
100
AcDbEntity
  8
0
100
AcDbBlockEnd
  0
BLOCK
  5
1C
100
AcDbEntity
  8
0
100
AcDbBlockBegin
  2
*Paper_Space
 70
0
 10
0.0
 20
0.0
 30
0.0
  3
*Paper_Space
  1

  0
ENDBLK
  5
1D
100
AcDbEntity
  8
0
100
AcDbBlockEnd
  0
ENDSEC
  0
SECTION
  2
ENTITIES
  0
LINE
  5
225
100
AcDbEntity
  8
PORTATASTO
100
AcDbLine
 62
7
  6
CONTINUOUS
 10
-22.0846415808
 20
24.1046724721
 11
-21.3738323633
 21
24.9563746446
  0
LWPOLYLINE
  5
226
100
AcDbEntity
  8
RACCORDO
100
AcDbPolyline
 62
7
  6
CONTINUOUS
 90
19
 70
0
 10
-29.2795130419
 20
21.1267598906
 10
-29.2974997447
 20
21.1160892735
 10
-29.3893570008
 20
21.0556913649
 10
-29.4775547099
 20
20.9878510584
 10
-29.5619568963
 20
20.9130386536
 10
-29.6423901403
 20
20.8317213027
 10
-29.7184925781
 20
20.7444920732
 10
-29.7900592237
 20
20.6518184208
 10
-29.8568242374
 20
20.5541516092
 10
-29.9182898686
 20
20.4523088078
 10
-29.9742195958
 20
20.3467982545
 10
-30.0243288835
 20
20.2381026875
 10
-30.0681852683
 20
20.1271638233
 10
-30.1055507744
 20
20.0145142598
 10
-30.1361730177
 20
19.9006307211
 10
-30.1597445302
 20
19.7863075756
 10
-30.1760089713
 20
19.672059978
 10
-30.1847419326
 20
19.5582920127
 10
-30.1853955531
 20
19.5409925581
  0
LINE
  5
227
100
AcDbEntity
  8
RACCORDO
100
AcDbLine
 62
7
  6
CONTINUOUS
 10
-29.2797067389
 20
21.1266652715
 11
-26.0452780763
 21
23.0126334327
  0
LINE
  5
228
100
AcDbEntity
  8
PORTATASTO
100
AcDbLine
 62
7
  6
CONTINUOUS
 10
-24.9837830079
 20
23.5610674722
 11
-24.638380948
 21
23.7624685095
  0
LINE
  5
229
100
AcDbEntity
  8
RACCORDO
100
AcDbLine
 62
253
  6
CONTINUOUS
 10
-29.0463526918
 20
21.1178978781
 11
-25.8111965399
 21
23.0042902322
  0
LINE
  5
22A
100
AcDbEntity
  8
PORTATASTO
100
AcDbLine
 62
253
  6
CONTINUOUS
 10
-24.7497001455
 20
23.5527250449
 11
-24.638380948
 21
23.6176343331
  0
LINE
  5
22B
100
AcDbEntity
  8
PORTATASTO
100
AcDbLine
 62
7
  6
CONTINUOUS
 10
-25.2056687515
 20
25.1147798975
 11
-22.9183101925
 21
26.2852445075
  0
LINE
  5
22C
100
AcDbEntity
  8
PORTATASTO
100
AcDbLine
 62
253
  6
CONTINUOUS
 10
-25.0927108893
 20
25.1082658648
 11
-22.8057260184
 21
26.2785392548
  0
LINE
  5
22D
100
AcDbEntity
  8
PORTATASTO
100
AcDbLine
 62
253
  6
CONTINUOUS
 10
-23.861667035
 20
24.4927439376
 11
-21.5506066354
 21
25.6509795632
  0
LWPOLYLINE
  5
22E
100
AcDbEntity
  8
RACCORDO
100
AcDbPolyline
 62
7
  6
CONTINUOUS
 90
14
 70
0
 10
-30.1853668873
 20
-16.0840659366
 10
-30.1843364987
 20
-16.1087014575
 10
-30.1748726458
 20
-16.2170759842
 10
-30.157605353
 20
-16.3211202835
 10
-30.1326699351
 20
-16.4205595905
 10
-30.1002220858
 20
-16.5150744681
 10
-30.0604751577
 20
-16.604148401
 10
-30.0136776494
 20
-16.6873781587
 10
-29.9601341734
 20
-16.764350067
 10
-29.900388929
 20
-16.8344038958
 10
-29.8349776042
 20
-16.897108331
 10
-29.7645575463
 20
-16.95209225
 10
-29.6901698324
 20
-16.9988671837
 10
-29.6539789562
 20
-17.0180188619
  0
LWPOLYLINE
  5
22F
100
AcDbEntity
  8
RACCORDO
100
AcDbPolyline
 62
7
  6
CONTINUOUS
 90
10
 70
0
 10
-30.1854005225
 20
19.5411557175
 10
-30.2999545787
 20
15.5875412676
 10
-30.3878889204
 20
11.5653275154
 10
-30.4465091319
 20
7.5573848979
 10
-30.4758069184
 20
3.5640799986
 10
-30.4757796642
 20
-0.414251837
 10
-30.4464268346
 20
-4.3772661059
 10
-30.3877499449
 20
-8.3246299015
 10
-30.2997561918
 20
-12.2559849268
 10
-30.1853818795
 20
-16.0840558256
  0
LINE
  5
230
100
AcDbEntity
  8
PORTATASTO
100
AcDbLine
 62
7
  6
CONTINUOUS
 10
-22.0846415808
 20
23.3489356366
 11
-22.9740835455
 21
22.8520550503
  0
LINE
  5
231
100
AcDbEntity
  8
PORTATASTO
100
AcDbLine
 62
7
  6
CONTINUOUS
 10
-24.0367506132
 20
22.1367921587
 11
-24.05620556
 21
22.1267947423
  0
LINE
  5
232
100
AcDbEntity
  8
PORTATASTO
100
AcDbLine
 62
7
  6
CONTINUOUS
 10
-19.6730639339
 20
23.0366653842
 11
-18.6161159167
 21
23.5775164212
  0
LINE
  5
233
100
AcDbEntity
  8
PORTATASTO
100
AcDbLine
 62
253
  6
CONTINUOUS
 10
-23.6848927629
 20
24.1878534185
 11
-21.3738323633
 21
25.3460890441
  0
LINE
  5
234
100
AcDbEntity
  8
PORTATASTO
100
AcDbLine
 62
7
  6
CONTINUOUS
 10
-18.6161159167
 20
23.5775164212
 11
-13.9921342828
 21
25.8359237654
  0
LINE
  5
235
100
AcDbEntity
  8
PORTATASTO
100
AcDbLine
 62
7
  6
CONTINUOUS
 10
-13.5495005937
 20
26.8082019089
 11
-20.670839409
 21
23.3441029435
  0
LINE
  5
236
100
AcDbEntity
  8
ASSI
100
AcDbLine
 62
7
  6
CONTINUOUS
 10
-0.2443708061
 20
32.4787866183
 11
-12.6726072714
 21
26.6176647313
  0
LINE
  5
237
100
AcDbEntity
  8
ASSI
100
AcDbLine
 62
7
  6
CONTINUOUS
 10
-2.632715719
 20
28.5053645607
 11
-3.045983732
 21
28.2964240759
  0
LINE
  5
238
100
AcDbEntity
  8
ASSI
100
AcDbLine
 62
7
  6
CONTINUOUS
 10
-6.7293622363
 20
26.4341776251
 11
-7.1811965348
 21
26.2057387564
  0
LINE
  5
239
100
AcDbEntity
  8
PORTATASTO
100
AcDbLine
 62
7
  6
CONTINUOUS
 10
-12.6883587151
 20
23.7327921804
 11
-11.596475753
 21
24.2787336615
  0
LINE
  5
23A
100
AcDbEntity
  8
PORTATASTO
100
AcDbLine
 62
7
  6
CONTINUOUS
 10
-18.0031689577
 20
23.2710429418
 11
-13.4030623567
 21
25.5413878023
  0
LINE
  5
23B
100
AcDbEntity
  8
PORTATASTO
100
AcDbLine
 62
7
  6
CONTINUOUS
 10
-13.6806149969
 20
24.1316079334
 11
-13.3431127733
 21
24.2979372088
  0
LINE
  5
23C
100
AcDbEntity
  8
PORTATASTO
100
AcDbLine
 62
7
  6
CONTINUOUS
 10
-10.5546007738
 20
25.3107519989
 11
-12.6899156061
 21
24.2584170987
  0
LINE
  5
23D
100
AcDbEntity
  8
ASSI
100
AcDbLine
 62
253
  6
CONTINUOUS
 10
0.1945139443
 20
32.4463836833
 11
-12.4262296983
 21
26.4944759448
  0
LINE
  5
23E
100
AcDbEntity
  8
PORTATASTO
100
AcDbLine
 62
7
  6
CONTINUOUS
 10
7.1719014908
 20
-30.7464082838
 11
7.8827107083
 21
-30.8947061114
  0
LWPOLYLINE
  5
23F
100
AcDbEntity
  8
RACCORDO
100
AcDbPolyline
 62
7
  6
CONTINUOUS
 90
12
 70
0
 10
1.0806869181
 20
-32.3853504165
 10
1.1222286638
 20
-32.4048746256
 10
1.1998969649
 20
-32.4347162804
 10
1.2815155768
 20
-32.4576004793
 10
1.3664497355
 20
-32.473023511
 10
1.4538128567
 20
-32.4805803733
 10
1.5430657481
 20
-32.480073378
 10
1.6336657335
 20
-32.4713771752
 10
1.7248416019
 20
-32.4544637397
 10
1.8161003952
 20
-32.4293749792
 10
1.9070930862
 20
-32.3961902603
 10
5.2665311164
 20
-30.9860942232
  0
LINE
  5
240
100
AcDbEntity
  8
RACCORDO
100
AcDbLine
 62
7
  6
CONTINUOUS
 10
1.0819810841
 20
-32.3859995348
 11
-29.6545027907
 21
-17.0177575974
  0
LINE
  5
241
100
AcDbEntity
  8
RACCORDO
100
AcDbLine
 62
253
  6
CONTINUOUS
 10
0.6885126913
 20
-31.6254183109
 11
-30.0389180751
 21
-16.2617029277
  0
LINE
  5
242
100
AcDbEntity
  8
PORTATASTO
100
AcDbLine
 62
7
  6
CONTINUOUS
 10
4.0529543798
 20
-31.9324046925
 11
5.2839982341
 21
-32.5479266197
  0
LINE
  5
243
100
AcDbEntity
  8
PORTATASTO
100
AcDbLine
 62
253
  6
CONTINUOUS
 10
3.9879810834
 20
-31.7971862424
 11
5.2190249377
 21
-32.4127081696
  0
LINE
  5
244
100
AcDbEntity
  8
PORTATASTO
100
AcDbLine
 62
253
  6
CONTINUOUS
 10
5.2190249377
 20
-32.1627369602
 11
3.9879810834
 21
-31.5472150331
  0
LINE
  5
245
100
AcDbEntity
  8
PORTATASTO
100
AcDbLine
 62
253
  6
CONTINUOUS
 10
5.2838381863
 20
-32.5478464047
 11
5.2839982453
 21
-32.5479266253
  0
LINE
  5
246
100
AcDbEntity
  8
PORTATASTO
100
AcDbLine
 62
7
  6
CONTINUOUS
 10
-25.3417852929
 20
24.8922252798
 11
-25.3417852929
 21
24.6422540705
  0
LINE
  5
247
100
AcDbEntity
  8
PORTATASTO
100
AcDbLine
 62
253
  6
CONTINUOUS
 10
-25.2685619882
 20
24.8038369322
 11
-25.2685619882
 21
24.5538657228
  0
LINE
  5
248
100
AcDbEntity
  8
PORTATASTO
100
AcDbLine
 62
7
  6
CONTINUOUS
 10
-25.1029844114
 20
23.2961562842
 11
-25.1029844114
 21
22.650184168
  0
LINE
  5
249
100
AcDbEntity
  8
PORTATASTO
100
AcDbLine
 62
7
  6
CONTINUOUS
 10
-24.638380948
 20
24.1360434009
 11
-24.638380948
 21
23.5521857989
  0
LINE
  5
24A
100
AcDbEntity
  8
PORTATASTO
100
AcDbLine
 62
253
  6
CONTINUOUS
 10
-24.5651576433
 20
24.0994317485
 11
-24.5651576433
 21
23.4604537938
  0
LINE
  5
24B
100
AcDbEntity
  8
PORTATASTO
100
AcDbLine
 62
253
  6
CONTINUOUS
 10
-24.0375181339
 20
23.9383437957
 11
-24.0375181339
 21
24.188315005
  0
LINE
  5
24C
100
AcDbEntity
  8
PORTATASTO
100
AcDbLine
 62
253
  6
CONTINUOUS
 10
-23.6848927629
 20
23.9378822091
 11
-23.6848927629
 21
24.1878534185
  0
LINE
  5
24D
100
AcDbEntity
  8
ASSI
100
AcDbLine
 62
253
  6
CONTINUOUS
 10
-13.5956577703
 20
23.0741538476
 11
-14.9761166736
 21
21.7575167997
  0
LINE
  5
24E
100
AcDbEntity
  8
ASSI
100
AcDbLine
 62
7
  6
CONTINUOUS
 10
-13.6929585642
 20
23.0735612773
 11
-15.0851620599
 21
21.8120394929
  0
LINE
  5
24F
100
AcDbEntity
  8
PORTATASTO
100
AcDbLine
 62
7
  6
CONTINUOUS
 10
-13.4616509541
 20
19.9309588943
 11
-12.3935762423
 21
20.466246584
  0
LINE
  5
250
100
AcDbEntity
  8
PORTATASTO
100
AcDbLine
 62
7
  6
CONTINUOUS
 10
-12.3935762423
 20
20.466246584
 11
-7.8177650512
 21
22.7487391496
  0
LINE
  5
251
100
AcDbEntity
  8
ASSI
100
AcDbLine
 62
7
  6
CONTINUOUS
 10
-3.7894608044
 20
24.5098708912
 11
-3.2717123134
 21
24.7661856929
  0
LINE
  5
252
100
AcDbEntity
  8
PORTATASTO
100
AcDbLine
 62
7
  6
CONTINUOUS
 10
-13.0065232012
 20
20.7727200635
 11
-8.4068369773
 21
23.0432751126
  0
LINE
  5
253
100
AcDbEntity
  8
PORTATASTO
100
AcDbLine
 62
7
  6
CONTINUOUS
 10
-7.6414763025
 20
22.5268991267
 11
-6.3047282469
 21
23.1858157355
  0
LINE
  5
254
100
AcDbEntity
  8
ASSI
100
AcDbLine
 62
7
  6
CONTINUOUS
 10
1.3109995662
 20
26.635842755
 11
1.2889399737
 21
26.6252370338
  0
LINE
  5
255
100
AcDbEntity
  8
ASSI
100
AcDbLine
 62
7
  6
CONTINUOUS
 10
0.031193345
 20
27.2541103482
 11
-0.4838890046
 21
27.0153767122
  0
LINE
  5
256
100
AcDbEntity
  8
ASSI
100
AcDbLine
 62
7
  6
CONTINUOUS
 10
-4.265055899
 20
25.2628574857
 11
-4.7997692859
 21
25.0150251319
  0
LINE
  5
257
100
AcDbEntity
  8
ASSI
100
AcDbLine
 62
7
  6
CONTINUOUS
 10
-5.9377647597
 20
25.5840228689
 11
-5.402132303
 21
25.8313956876
  0
LINE
  5
258
100
AcDbEntity
  8
ASSI
100
AcDbLine
 62
7
  6
CONTINUOUS
 10
-1.6144663071
 20
27.5806653635
 11
-1.0760045851
 21
27.8293448307
  0
LWPOLYLINE
  5
259
100
AcDbEntity
  8
RACCORDO
100
AcDbPolyline
 62
7
  6
CONTINUOUS
 90
4
 70
0
 10
-3.4001072063
 20
-24.2828703654
 10
-3.3538030485
 20
-24.2799555615
 10
-3.3023962766
 20
-24.2830172299
 10
-3.2471032787
 20
-24.2924973989
  0
LWPOLYLINE
  5
25A
100
AcDbEntity
  8
RACCORDO
100
AcDbPolyline
 62
7
  6
CONTINUOUS
 90
3
 70
0
 10
-3.2471032787
 20
-24.2924973989
 10
-3.1889334193
 20
-24.3084548485
 10
-3.1287258682
 20
-24.3307634175
  0
LINE
  5
25B
100
AcDbEntity
  8
RACCORDO
100
AcDbLine
 62
7
  6
CONTINUOUS
 10
-3.1287258682
 20
-24.3307634175
 11
-3.0720318205
 21
-24.3567544672
  0
LINE
  5
25C
100
AcDbEntity
  8
PORTATASTO
100
AcDbLine
 62
253
  6
CONTINUOUS
 10
5.3074132853
 20
-31.9310427864
 11
4.2613687908
 21
-31.4080205392
  0
LINE
  5
25D
100
AcDbEntity
  8
PORTATASTO
100
AcDbLine
 62
253
  6
CONTINUOUS
 10
5.8405201984
 20
-31.2922661571
 11
5.2456806709
 21
-30.9948463933
  0
LINE
  5
25E
100
AcDbEntity
  8
PORTATASTO
100
AcDbLine
 62
253
  6
CONTINUOUS
 10
5.9298341551
 20
-31.0610347878
 11
5.4001298114
 21
-30.7961826159
  0
LINE
  5
25F
100
AcDbEntity
  8
PORTATASTO
100
AcDbLine
 62
7
  6
CONTINUOUS
 10
6.1143766573
 20
-30.4544895011
 11
5.9298341551
 21
-30.36221825
  0
LINE
  5
260
100
AcDbEntity
  8
PORTATASTO
100
AcDbLine
 62
7
  6
CONTINUOUS
 10
7.8827107083
 20
-30.8947061114
 11
7.1719014908
 21
-30.5393015026
  0
LINE
  5
261
100
AcDbEntity
  8
PORTATASTO
100
AcDbLine
 62
253
  6
CONTINUOUS
 10
-23.3267089165
 20
22.8412294303
 11
-23.3267089165
 21
23.5400459682
  0
LINE
  5
262
100
AcDbEntity
  8
PORTATASTO
100
AcDbLine
 62
253
  6
CONTINUOUS
 10
-22.9740835455
 20
22.8520550503
 11
-22.9740835455
 21
23.5395843816
  0
LINE
  5
263
100
AcDbEntity
  8
PORTATASTO
100
AcDbLine
 62
7
  6
CONTINUOUS
 10
-22.0846415808
 20
24.1046724721
 11
-22.0846415808
 21
23.3489356366
  0
LINE
  5
264
100
AcDbEntity
  8
PORTATASTO
100
AcDbLine
 62
7
  6
CONTINUOUS
 10
-21.3738323633
 20
25.3460890441
 11
-21.3738323633
 21
24.9563746446
  0
LINE
  5
265
100
AcDbEntity
  8
PORTATASTO
100
AcDbLine
 62
7
  6
CONTINUOUS
 10
-13.1043854597
 20
19.6145444116
 11
-12.3935762423
 21
20.466246584
  0
LINE
  5
266
100
AcDbEntity
  8
DRAFT
100
AcDbLine
 62
7
  6
CONTINUOUS
 10
-12.4996422594
 20
16.348513092
 11
-14.5839348187
 21
15.1331796234
  0
LINE
  5
267
100
AcDbEntity
  8
PORTATASTO
100
AcDbLine
 62
7
  6
CONTINUOUS
 10
-13.1043854597
 20
18.8588075761
 11
-13.4616509541
 21
18.6592236849
  0
LINE
  5
268
100
AcDbEntity
  8
PORTATASTO
100
AcDbLine
 62
7
  6
CONTINUOUS
 10
-11.8590282566
 20
18.4414596501
 11
-9.5716696977
 21
19.6119242601
  0
LINE
  5
269
100
AcDbEntity
  8
PORTATASTO
100
AcDbLine
 62
253
  6
CONTINUOUS
 10
-11.7460703944
 20
18.4349456173
 11
-9.4590855235
 21
19.6052190073
  0
LINE
  5
26A
100
AcDbEntity
  8
ASSI
100
AcDbLine
 62
253
  6
CONTINUOUS
 10
-2.4578567302
 20
24.3592579013
 11
-2.9675975722
 21
24.0989392751
  0
LINE
  5
26B
100
AcDbEntity
  8
ASSI
100
AcDbLine
 62
7
  6
CONTINUOUS
 10
-1.5015535582
 20
23.8811063152
 11
-2.0138832567
 21
23.6220821173
  0
LINE
  5
26C
100
AcDbEntity
  8
PORTATASTO
100
AcDbLine
 62
253
  6
CONTINUOUS
 10
-10.5150265401
 20
17.8194236902
 11
-8.2039661405
 21
18.9776593158
  0
LINE
  5
26D
100
AcDbEntity
  8
PORTATASTO
100
AcDbLine
 62
7
  6
CONTINUOUS
 10
-3.309828427
 20
21.6883658255
 11
-8.4707286272
 21
19.1110405592
  0
LINE
  5
26E
100
AcDbEntity
  8
PORTATASTO
100
AcDbLine
 62
7
  6
CONTINUOUS
 10
-13.0969805872
 20
18.8551051398
 11
-7.7655235883
 21
21.5107077829
  0
LINE
  5
26F
100
AcDbEntity
  8
ASSI
100
AcDbLine
 62
7
  6
CONTINUOUS
 10
-1.5049800411
 20
23.8828195567
 11
-2.0273373777
 21
23.6288091779
  0
LWPOLYLINE
  5
270
100
AcDbEntity
  8
RACCORDO
100
AcDbPolyline
 62
7
  6
CONTINUOUS
 90
27
 70
0
 10
-3.0715571667
 20
-24.3569930357
 10
-2.9976739009
 20
-24.3977937255
 10
-2.9278901126
 20
-24.4432904309
 10
-2.8566993726
 20
-24.4966456536
 10
-2.7849741182
 20
-24.5576590543
 10
-2.7137729776
 20
-24.6257748908
 10
-2.6438282803
 20
-24.7005667318
 10
-2.5758207197
 20
-24.7815613339
 10
-2.5105995325
 20
-24.8679215416
 10
-2.4487767523
 20
-24.9589711919
 10
-2.3909049751
 20
-25.0539937882
 10
-2.3376040757
 20
-25.1519845588
 10
-2.2893080994
 20
-25.2521185654
 10
-2.2463833069
 20
-25.3535556649
 10
-2.209194583
 20
-25.4552086495
 10
-2.1779384805
 20
-25.5562261301
 10
-2.1527505176
 20
-25.655749083
 10
-2.133713386
 20
-25.7526604565
 10
-2.120780427
 20
-25.8458653074
 10
-2.1137335118
 20
-25.9349597856
 10
-2.1123327582
 20
-26.019783935
 10
-2.1163143799
 20
-26.0991355979
 10
-2.1253679057
 20
-26.1729095734
 10
-2.1394665839
 20
-26.2420105349
 10
-2.1585379129
 20
-26.3058775561
 10
-2.1821435131
 20
-26.3630637079
 10
-2.2096841656
 20
-26.4126941155
  0
LINE
  5
271
100
AcDbEntity
  8
PORTATASTO
100
AcDbLine
 62
7
  6
CONTINUOUS
 10
-19.817664197
 20
22.8527025818
 11
-19.817664197
 21
21.5731563385
  0
LINE
  5
272
100
AcDbEntity
  8
PORTATASTO
100
AcDbLine
 62
253
  6
CONTINUOUS
 10
-19.6712175876
 20
22.5094840675
 11
-19.6712175876
 21
21.3897303906
  0
LINE
  5
273
100
AcDbEntity
  8
PORTATASTO
100
AcDbLine
 62
7
  6
CONTINUOUS
 10
-8.0271918684
 20
18.2830543971
 11
-8.7177675082
 21
17.4555963983
  0
LINE
  5
274
100
AcDbEntity
  8
PORTATASTO
100
AcDbLine
 62
7
  6
CONTINUOUS
 10
-9.2006328596
 20
16.4171693566
 11
-9.6274430506
 21
16.1787348029
  0
LINE
  5
275
100
AcDbEntity
  8
PORTATASTO
100
AcDbLine
 62
7
  6
CONTINUOUS
 10
-2.3701285239
 20
20.4532623004
 11
-3.6173324128
 21
19.7939364195
  0
LINE
  5
276
100
AcDbEntity
  8
PORTATASTO
100
AcDbLine
 62
7
  6
CONTINUOUS
 10
-2.3701285239
 20
20.8533895607
 11
-4.0135138711
 21
19.9920271487
  0
LINE
  5
277
100
AcDbEntity
  8
PORTATASTO
100
AcDbLine
 62
7
  6
CONTINUOUS
 10
-9.2957661748
 20
17.1598286092
 11
-7.0084076159
 21
18.3302932192
  0
LINE
  5
278
100
AcDbEntity
  8
PORTATASTO
100
AcDbLine
 62
253
  6
CONTINUOUS
 10
-9.1828083126
 20
17.1533145764
 11
-6.8958234417
 21
18.3235879664
  0
LINE
  5
279
100
AcDbEntity
  8
PORTATASTO
100
AcDbLine
 62
253
  6
CONTINUOUS
 10
-10.338252268
 20
17.514533171
 11
-8.0271918684
 21
18.6727687966
  0
LINE
  5
27A
100
AcDbEntity
  8
PORTATASTO
100
AcDbLine
 62
253
  6
CONTINUOUS
 10
-7.9517644583
 20
16.5377926493
 11
-5.6407040587
 21
17.6960282749
  0
LINE
  5
27B
100
AcDbEntity
  8
PORTATASTO
100
AcDbLine
 62
253
  6
CONTINUOUS
 10
-7.7749901862
 20
16.2329021301
 11
-5.4639297866
 21
17.3911377557
  0
LINE
  5
27C
100
AcDbEntity
  8
PORTATASTO
100
AcDbLine
 62
7
  6
CONTINUOUS
 10
-2.5647919838
 20
19.7793248923
 11
-3.0764506711
 21
19.5234955487
  0
LINE
  5
27D
100
AcDbEntity
  8
DRAFT
100
AcDbLine
 62
7
  6
CONTINUOUS
 10
-14.1140486789
 20
14.8982365535
 11
-12.4996422594
 21
15.6989940392
  0
LINE
  5
27E
100
AcDbEntity
  8
ASSI
100
AcDbLine
 62
7
  6
CONTINUOUS
 10
12.0846591017
 20
26.5013111046
 11
3.9405904032
 21
22.6033806661
  0
LINE
  5
27F
100
AcDbEntity
  8
RACCORDO
100
AcDbLine
 62
7
  6
CONTINUOUS
 10
7.4564140336
 20
24.1301863458
 11
12.149681471
 21
26.3764873874
  0
LINE
  5
280
100
AcDbEntity
  8
ASSI
100
AcDbLine
 62
7
  6
CONTINUOUS
 10
-8.0271918684
 20
18.508853253
 11
-4.3986904648
 21
20.1846154455
  0
LINE
  5
281
100
AcDbEntity
  8
PORTATASTO
100
AcDbLine
 62
7
  6
CONTINUOUS
 10
-6.1747390041
 20
16.1497211838
 11
-5.4639297866
 21
17.0014233562
  0
LINE
  5
282
100
AcDbEntity
  8
PORTATASTO
100
AcDbLine
 62
7
  6
CONTINUOUS
 10
-6.1747390041
 20
15.3939843483
 11
-7.0641809688
 21
14.897103762
  0
LINE
  5
283
100
AcDbEntity
  8
DRAFT
100
AcDbLine
 62
7
  6
CONTINUOUS
 10
-8.2570015723
 20
14.2271927484
 11
-10.4153497002
 21
13.0488870642
  0
LINE
  5
284
100
AcDbEntity
  8
PORTATASTO
100
AcDbLine
 62
7
  6
CONTINUOUS
 10
-3.7631613572
 20
15.0817140958
 11
-2.70621334
 21
15.6225651329
  0
LINE
  5
285
100
AcDbEntity
  8
DRAFT
100
AcDbLine
 62
7
  6
CONTINUOUS
 10
7.1339025902
 20
21.0680558822
 11
7.7912369469
 21
21.3967230606
  0
LINE
  5
286
100
AcDbEntity
  8
ASSI
100
AcDbLine
 62
7
  6
CONTINUOUS
 10
-4.8982443617
 20
16.2132518596
 11
-0.6601828246
 21
18.3153616254
  0
LINE
  5
287
100
AcDbEntity
  8
PORTATASTO
100
AcDbLine
 62
7
  6
CONTINUOUS
 10
-2.093266381
 20
15.3160916534
 11
2.50684022
 21
17.586436514
  0
LINE
  5
288
100
AcDbEntity
  8
ASSI
100
AcDbLine
 62
7
  6
CONTINUOUS
 10
7.0692986752
 20
21.5601568561
 11
6.6983068498
 21
21.3786261733
  0
LINE
  5
289
100
AcDbEntity
  8
PORTATASTO
100
AcDbLine
 62
7
  6
CONTINUOUS
 10
-2.70621334
 20
15.6225651329
 11
1.9177682939
 21
17.8809724771
  0
LINE
  5
28A
100
AcDbEntity
  8
PORTATASTO
100
AcDbLine
 62
7
  6
CONTINUOUS
 10
2.360401983
 20
18.8532506205
 11
-4.0492170103
 21
15.7353601369
  0
LINE
  5
28B
100
AcDbEntity
  8
PORTATASTO
100
AcDbLine
 62
253
  6
CONTINUOUS
 10
-13.6731653374
 20
23.082384022
 11
-13.6806149969
 21
24.1316079334
  0
LINE
  5
28C
100
AcDbEntity
  8
PORTATASTO
100
AcDbLine
 62
7
  6
CONTINUOUS
 10
-13.2192941894
 20
24.4464075683
 11
-13.2249099319
 21
25.5661752478
  0
LINE
  5
28D
100
AcDbEntity
  8
PORTATASTO
100
AcDbLine
 62
253
  6
CONTINUOUS
 10
-13.3475840722
 20
25.5630070498
 11
-13.3431127733
 21
24.2979372088
  0
LINE
  5
28E
100
AcDbEntity
  8
PORTATASTO
100
AcDbLine
 62
253
  6
CONTINUOUS
 10
-14.1669016961
 20
18.6375724449
 11
-14.1669016961
 21
19.7573261218
  0
LINE
  5
28F
100
AcDbEntity
  8
PORTATASTO
100
AcDbLine
 62
253
  6
CONTINUOUS
 10
-13.4616509541
 20
18.6592236849
 11
-13.4616509541
 21
19.9309588943
  0
LINE
  5
290
100
AcDbEntity
  8
PORTATASTO
100
AcDbLine
 62
7
  6
CONTINUOUS
 10
-13.1043854597
 20
18.8588075761
 11
-13.1043854597
 21
19.6145444116
  0
LINE
  5
291
100
AcDbEntity
  8
PORTATASTO
100
AcDbLine
 62
7
  6
CONTINUOUS
 10
-13.0969805872
 20
18.8551051398
 11
-13.0969805872
 21
19.2942764601
  0
LINE
  5
292
100
AcDbEntity
  8
DRAFT
100
AcDbLine
 62
7
  6
CONTINUOUS
 10
-12.4996422594
 20
16.348513092
 11
-12.4996422594
 21
15.6989940392
  0
LINE
  5
293
100
AcDbEntity
  8
PORTATASTO
100
AcDbLine
 62
7
  6
CONTINUOUS
 10
-11.995144798
 20
18.2189050324
 11
-11.995144798
 21
17.968933823
  0
LINE
  5
294
100
AcDbEntity
  8
PORTATASTO
100
AcDbLine
 62
253
  6
CONTINUOUS
 10
-11.9219214933
 20
18.1305166847
 11
-11.9219214933
 21
17.8805454754
  0
LINE
  5
295
100
AcDbEntity
  8
PORTATASTO
100
AcDbLine
 62
253
  6
CONTINUOUS
 10
-12.2458340974
 20
23.0153291531
 11
-12.2416644794
 21
23.6025859077
  0
LINE
  5
296
100
AcDbEntity
  8
ASSI
100
AcDbLine
 62
253
  6
CONTINUOUS
 10
-10.4952612392
 20
25.9009207095
 11
-10.5200583273
 21
25.5413902593
  0
LINE
  5
297
100
AcDbEntity
  8
PORTATASTO
100
AcDbLine
 62
7
  6
CONTINUOUS
 10
3.2215438616
 20
15.7778408921
 11
4.3134268237
 21
16.3237823731
  0
LINE
  5
298
100
AcDbEntity
  8
PORTATASTO
100
AcDbLine
 62
7
  6
CONTINUOUS
 10
2.2292875798
 20
16.176656645
 11
2.5667898034
 21
16.3429859204
  0
LINE
  5
299
100
AcDbEntity
  8
PORTATASTO
100
AcDbLine
 62
7
  6
CONTINUOUS
 10
5.3553018029
 20
17.3558007106
 11
3.2199869705
 21
16.3034658104
  0
LINE
  5
29A
100
AcDbEntity
  8
DRAFT
100
AcDbLine
 62
7
  6
CONTINUOUS
 10
18.6011681616
 20
22.7866049148
 11
17.7291726363
 21
22.3692486736
  0
LINE
  5
29B
100
AcDbEntity
  8
ASSI
100
AcDbLine
 62
7
  6
CONTINUOUS
 10
7.0539855861
 20
16.3467745606
 11
6.6205081968
 21
16.1393027462
  0
LINE
  5
29C
100
AcDbEntity
  8
ASSI
100
AcDbLine
 62
253
  6
CONTINUOUS
 10
7.0555624549
 20
16.2747849732
 11
6.6948416081
 21
16.1021360406
  0
LINE
  5
29D
100
AcDbEntity
  8
ASSI
100
AcDbLine
 62
253
  6
CONTINUOUS
 10
6.0604930054
 20
16.9212572572
 11
6.776518324
 21
17.2519414775
  0
LINE
  5
29E
100
AcDbEntity
  8
ASSI
100
AcDbLine
 62
253
  6
CONTINUOUS
 10
6.0671488795
 20
16.4602759605
 11
6.9812048069
 21
16.8824172786
  0
LINE
  5
29F
100
AcDbEntity
  8
PORTATASTO
100
AcDbLine
 62
7
  6
CONTINUOUS
 10
-9.8454370269
 20
24.7931524015
 11
-9.8424380853
 21
24.3707758873
  0
LINE
  5
2A0
100
AcDbEntity
  8
PORTATASTO
100
AcDbLine
 62
7
  6
CONTINUOUS
 10
-11.2917404531
 20
17.4627231534
 11
-11.2917404531
 21
16.8788655515
  0
LINE
  5
2A1
100
AcDbEntity
  8
PORTATASTO
100
AcDbLine
 62
253
  6
CONTINUOUS
 10
-11.2185171484
 20
17.4261115011
 11
-11.2185171484
 21
16.7871335463
  0
LINE
  5
2A2
100
AcDbEntity
  8
PORTATASTO
100
AcDbLine
 62
253
  6
CONTINUOUS
 10
-10.690877639
 20
17.2650235483
 11
-10.690877639
 21
17.5149947576
  0
LINE
  5
2A3
100
AcDbEntity
  8
PORTATASTO
100
AcDbLine
 62
253
  6
CONTINUOUS
 10
-10.338252268
 20
17.2645619617
 11
-10.338252268
 21
17.514533171
  0
LINE
  5
2A4
100
AcDbEntity
  8
PORTATASTO
100
AcDbLine
 62
253
  6
CONTINUOUS
 10
-9.9800684216
 20
16.1679091829
 11
-9.9800684216
 21
16.8667257207
  0
LINE
  5
2A5
100
AcDbEntity
  8
PORTATASTO
100
AcDbLine
 62
253
  6
CONTINUOUS
 10
-9.6274430506
 20
16.1787348029
 11
-9.6274430506
 21
16.8662641341
  0
LINE
  5
2A6
100
AcDbEntity
  8
PORTATASTO
100
AcDbLine
 62
7
  6
CONTINUOUS
 10
-9.4318827162
 20
16.9372739915
 11
-9.4318827162
 21
16.6873027821
  0
LINE
  5
2A7
100
AcDbEntity
  8
PORTATASTO
100
AcDbLine
 62
253
  6
CONTINUOUS
 10
-9.3586594115
 20
16.8488856438
 11
-9.3586594115
 21
16.5989144345
  0
LINE
  5
2A8
100
AcDbEntity
  8
PORTATASTO
100
AcDbLine
 62
7
  6
CONTINUOUS
 10
-8.7284783713
 20
16.1810921125
 11
-8.7284783713
 21
15.5972345106
  0
LINE
  5
2A9
100
AcDbEntity
  8
PORTATASTO
100
AcDbLine
 62
253
  6
CONTINUOUS
 10
-8.6552550666
 20
16.1444804602
 11
-8.6552550666
 21
15.5055025054
  0
LINE
  5
2AA
100
AcDbEntity
  8
ASSI
100
AcDbLine
 62
253
  6
CONTINUOUS
 10
2.3142448064
 20
15.1192025592
 11
0.9337859031
 21
13.8025655113
  0
LINE
  5
2AB
100
AcDbEntity
  8
ASSI
100
AcDbLine
 62
7
  6
CONTINUOUS
 10
2.2169440125
 20
15.1186099889
 11
0.8247405168
 21
13.8570882045
  0
LINE
  5
2AC
100
AcDbEntity
  8
PORTATASTO
100
AcDbLine
 62
7
  6
CONTINUOUS
 10
2.4482516226
 20
11.9760076059
 11
3.5163263344
 21
12.5112952957
  0
LINE
  5
2AD
100
AcDbEntity
  8
PORTATASTO
100
AcDbLine
 62
7
  6
CONTINUOUS
 10
3.5163263344
 20
12.5112952957
 11
8.0921375255
 21
14.7937878612
  0
LINE
  5
2AE
100
AcDbEntity
  8
PORTATASTO
100
AcDbLine
 62
7
  6
CONTINUOUS
 10
2.9033793755
 20
12.8177687752
 11
7.5030655994
 21
15.0883238243
  0
LINE
  5
2AF
100
AcDbEntity
  8
PORTATASTO
100
AcDbLine
 62
7
  6
CONTINUOUS
 10
8.2684262742
 20
14.5719478383
 11
9.6051743298
 21
15.2308644471
  0
LINE
  5
2B0
100
AcDbEntity
  8
DRAFT
100
AcDbLine
 62
7
  6
CONTINUOUS
 10
21.6182599328
 20
20.4247050253
 11
22.4902554581
 21
20.8420612666
  0
LINE
  5
2B1
100
AcDbEntity
  8
PORTATASTO
100
AcDbLine
 62
253
  6
CONTINUOUS
 10
-8.1276155572
 20
15.9833925074
 11
-8.1276155572
 21
16.2333637167
  0
LINE
  5
2B2
100
AcDbEntity
  8
PORTATASTO
100
AcDbLine
 62
7
  6
CONTINUOUS
 10
-8.0271918684
 20
18.6727687966
 11
-8.0271918684
 21
18.2830543971
  0
LINE
  5
2B3
100
AcDbEntity
  8
PORTATASTO
100
AcDbLine
 62
253
  6
CONTINUOUS
 10
-7.7749901862
 20
15.9829309208
 11
-7.7749901862
 21
16.2329021301
  0
LINE
  5
2B4
100
AcDbEntity
  8
PORTATASTO
100
AcDbLine
 62
253
  6
CONTINUOUS
 10
-7.4168063398
 20
14.886278142
 11
-7.4168063398
 21
15.5850946798
  0
LINE
  5
2B5
100
AcDbEntity
  8
PORTATASTO
100
AcDbLine
 62
253
  6
CONTINUOUS
 10
-7.0641809688
 20
14.897103762
 11
-7.0641809688
 21
15.5846330932
  0
LINE
  5
2B6
100
AcDbEntity
  8
ASSI
100
AcDbLine
 62
253
  6
CONTINUOUS
 10
-6.312457924
 20
26.2865584982
 11
-6.312457924
 21
27.1546651039
  0
LINE
  5
2B7
100
AcDbEntity
  8
PORTATASTO
100
AcDbLine
 62
7
  6
CONTINUOUS
 10
-6.1747390041
 20
16.1497211838
 11
-6.1747390041
 21
15.3939843483
  0
LINE
  5
2B8
100
AcDbEntity
  8
PORTATASTO
100
AcDbLine
 62
7
  6
CONTINUOUS
 10
-7.6432788752
 20
21.6576606358
 11
-7.6409628305
 21
22.7745061358
  0
LINE
  5
2B9
100
AcDbEntity
  8
ASSI
100
AcDbLine
 62
253
  6
CONTINUOUS
 10
-6.2590896956
 20
27.9284456008
 11
-6.312457924
 21
27.1546651039
  0
LINE
  5
2BA
100
AcDbEntity
  8
PORTATASTO
100
AcDbLine
 62
7
  6
CONTINUOUS
 10
2.805517117
 20
10.9038562877
 11
2.4482516226
 21
10.7042723965
  0
LINE
  5
2BB
100
AcDbEntity
  8
PORTATASTO
100
AcDbLine
 62
7
  6
CONTINUOUS
 10
3.8232565656
 20
8.2067885693
 11
3.8038016188
 21
8.1967911529
  0
LINE
  5
2BC
100
AcDbEntity
  8
PORTATASTO
100
AcDbLine
 62
7
  6
CONTINUOUS
 10
4.0508743201
 20
10.4865083617
 11
6.338232879
 21
11.6569729717
  0
LINE
  5
2BD
100
AcDbEntity
  8
PORTATASTO
100
AcDbLine
 62
253
  6
CONTINUOUS
 10
4.1638321823
 20
10.479994329
 11
6.4508170532
 21
11.650267719
  0
LINE
  5
2BE
100
AcDbEntity
  8
PORTATASTO
100
AcDbLine
 62
253
  6
CONTINUOUS
 10
5.3948760366
 20
9.8644724018
 11
7.7059364362
 21
11.0227080274
  0
LINE
  5
2BF
100
AcDbEntity
  8
PORTATASTO
100
AcDbLine
 62
253
  6
CONTINUOUS
 10
5.5716503087
 20
9.5595818827
 11
7.8827107083
 21
10.7178175083
  0
LINE
  5
2C0
100
AcDbEntity
  8
PORTATASTO
100
AcDbLine
 62
7
  6
CONTINUOUS
 10
12.6000741497
 20
13.7334145372
 11
7.4391739495
 21
11.1560892708
  0
LINE
  5
2C1
100
AcDbEntity
  8
PORTATASTO
100
AcDbLine
 62
7
  6
CONTINUOUS
 10
2.8129219895
 20
10.9001538514
 11
8.1443789884
 21
13.5557564946
  0
LINE
  5
2C2
100
AcDbEntity
  8
ASSI
100
AcDbLine
 62
7
  6
CONTINUOUS
 10
12.7278411645
 20
14.214913314
 11
12.4291759046
 21
14.0667731433
  0
LINE
  5
2C3
100
AcDbEntity
  8
ASSI
100
AcDbLine
 62
253
  6
CONTINUOUS
 10
12.8648483369
 20
14.2077764711
 11
12.5045703369
 21
14.0290759272
  0
LINE
  5
2C4
100
AcDbEntity
  8
PORTATASTO
100
AcDbLine
 62
7
  6
CONTINUOUS
 10
-5.4639297866
 20
17.3911377557
 11
-5.4639297866
 21
17.0014233562
  0
LINE
  5
2C5
100
AcDbEntity
  8
ASSI
100
AcDbLine
 62
7
  6
CONTINUOUS
 10
-4.8982443617
 20
16.2132518596
 11
-4.8982443617
 21
16.1598738126
  0
LINE
  5
2C6
100
AcDbEntity
  8
PORTATASTO
100
AcDbLine
 62
7
  6
CONTINUOUS
 10
-3.9077616203
 20
14.8977512934
 11
-3.9077616203
 21
13.6182050502
  0
LINE
  5
2C7
100
AcDbEntity
  8
PORTATASTO
100
AcDbLine
 62
253
  6
CONTINUOUS
 10
-3.7613150109
 20
14.5545327792
 11
-3.7613150109
 21
13.4347791022
  0
LINE
  5
2C8
100
AcDbEntity
  8
ASSI
100
AcDbLine
 62
253
  6
CONTINUOUS
 10
-3.7777469227
 20
22.5421635513
 11
-3.8025439674
 21
22.1826330793
  0
LINE
  5
2C9
100
AcDbEntity
  8
ASSI
100
AcDbLine
 62
253
  6
CONTINUOUS
 10
-2.0229181521
 20
29.955970492
 11
-2.0698172369
 21
29.2759854474
  0
LINE
  5
2CA
100
AcDbEntity
  8
PORTATASTO
100
AcDbLine
 62
7
  6
CONTINUOUS
 10
2.805517117
 20
11.6595931232
 11
3.5163263344
 21
12.5112952957
  0
LINE
  5
2CB
100
AcDbEntity
  8
PORTATASTO
100
AcDbLine
 62
7
  6
CONTINUOUS
 10
7.1719014908
 20
8.7206641008
 11
6.2824595261
 21
8.2237835145
  0
LINE
  5
2CC
100
AcDbEntity
  8
RACCORDO
100
AcDbLine
 62
253
  6
CONTINUOUS
 10
5.0545527082
 20
7.5714156082
 11
1.7044504431
 21
5.7424963107
  0
LINE
  5
2CD
100
AcDbEntity
  8
PORTATASTO
100
AcDbLine
 62
253
  6
CONTINUOUS
 10
7.1935507213
 20
8.7098394856
 11
6.1143766573
 21
8.1206866435
  0
LINE
  5
2CE
100
AcDbEntity
  8
RACCORDO
100
AcDbLine
 62
253
  6
CONTINUOUS
 10
5.4078369741
 20
6.9615625816
 11
2.0702831831
 21
5.1394938649
  0
LINE
  5
2CF
100
AcDbEntity
  8
PORTATASTO
100
AcDbLine
 62
253
  6
CONTINUOUS
 10
7.5468349872
 20
8.099986459
 11
6.4676609233
 21
7.5108336169
  0
LINE
  5
2D0
100
AcDbEntity
  8
PORTATASTO
100
AcDbLine
 62
7
  6
CONTINUOUS
 10
13.5397740528
 20
12.498311012
 11
7.4545594002
 21
9.2814035389
  0
LINE
  5
2D1
100
AcDbEntity
  8
PORTATASTO
100
AcDbLine
 62
7
  6
CONTINUOUS
 10
13.5397740528
 20
12.8984382723
 11
7.297090297
 21
9.6264040251
  0
LINE
  5
2D2
100
AcDbEntity
  8
PORTATASTO
100
AcDbLine
 62
253
  6
CONTINUOUS
 10
7.8942220378
 20
9.0615722201
 11
7.193286084
 21
8.7099718042
  0
LINE
  5
2D3
100
AcDbEntity
  8
PORTATASTO
100
AcDbLine
 62
253
  6
CONTINUOUS
 10
8.247770941
 20
8.4517997224
 11
7.5468349872
 21
8.1001993065
  0
LINE
  5
2D4
100
AcDbEntity
  8
PORTATASTO
100
AcDbLine
 62
7
  6
CONTINUOUS
 10
13.3451105929
 20
11.824373604
 11
11.4911125298
 21
10.8973745724
  0
LINE
  5
2D5
100
AcDbEntity
  8
PORTATASTO
100
AcDbLine
 62
7
  6
CONTINUOUS
 10
8.247770941
 20
7.0872443709
 11
8.2892971075
 21
7.1080074541
  0
LINE
  5
2D6
100
AcDbEntity
  8
RACCORDO
100
AcDbLine
 62
253
  6
CONTINUOUS
 10
24.1025497391
 20
15.8071184931
 11
28.7138958887
 21
18.0943801785
  0
LINE
  5
2D7
100
AcDbEntity
  8
ASSI
100
AcDbLine
 62
7
  6
CONTINUOUS
 10
11.6168682502
 20
10.8344967122
 11
7.927988532
 21
9.0426267552
  0
LINE
  5
2D8
100
AcDbEntity
  8
ASSI
100
AcDbLine
 62
253
  6
CONTINUOUS
 10
12.2994479525
 20
9.6572208713
 11
21.1929190511
 21
13.9772163421
  0
LINE
  5
2D9
100
AcDbEntity
  8
ASSI
100
AcDbLine
 62
253
  6
CONTINUOUS
 10
12.6371162864
 20
9.0748291442
 11
21.6928428987
 21
13.4736400828
  0
LINE
  5
2DA
100
AcDbEntity
  8
ASSI
100
AcDbLine
 62
7
  6
CONTINUOUS
 10
21.6182599328
 20
13.6022766707
 11
23.6688695983
 21
14.5655852998
  0
LINE
  5
2DB
100
AcDbEntity
  8
PORTATASTO
100
AcDbLine
 62
7
  6
CONTINUOUS
 10
7.5468349872
 20
5.198999548
 11
8.9487068948
 21
5.6068698673
  0
LINE
  5
2DC
100
AcDbEntity
  8
PORTATASTO
100
AcDbLine
 62
7
  6
CONTINUOUS
 10
-2.5647919838
 20
20.350354782
 11
-2.5647919838
 21
19.7793248923
  0
LINE
  5
2DD
100
AcDbEntity
  8
PORTATASTO
100
AcDbLine
 62
253
  6
CONTINUOUS
 10
-2.3701285239
 20
20.8533895607
 11
-2.3701285239
 21
20.4532623004
  0
LINE
  5
2DE
100
AcDbEntity
  8
PORTATASTO
100
AcDbLine
 62
7
  6
CONTINUOUS
 10
-2.2297984241
 20
21.1503558344
 11
-2.2297984241
 21
20.6295282973
  0
LINE
  5
2DF
100
AcDbEntity
  8
ASSI
100
AcDbLine
 62
253
  6
CONTINUOUS
 10
-2.0698172369
 20
28.3262511566
 11
-2.0698172369
 21
29.2759854474
  0
LINE
  5
2E0
100
AcDbEntity
  8
ASSI
100
AcDbLine
 62
7
  6
CONTINUOUS
 10
-0.6601828246
 20
18.3153616254
 11
-0.6601828246
 21
17.3839195048
  0
LINE
  5
2E1
100
AcDbEntity
  8
ASSI
100
AcDbLine
 62
7
  6
CONTINUOUS
 10
0.031193345
 20
27.2541103482
 11
0.031193345
 21
26.7578355374
  0
LINE
  5
2E2
100
AcDbEntity
  8
ASSI
100
AcDbLine
 62
7
  6
CONTINUOUS
 10
0.2282798019
 20
27.1555671197
 11
0.2282798019
 21
27.1772026372
  0
LINE
  5
2E3
100
AcDbEntity
  8
ASSI
100
AcDbLine
 62
253
  6
CONTINUOUS
 10
0.4584246215
 20
24.5696884422
 11
0.4050564972
 21
23.7959078932
  0
LINE
  5
2E4
100
AcDbEntity
  8
PORTATASTO
100
AcDbLine
 62
7
  6
CONTINUOUS
 10
7.8827107083
 20
10.3281031088
 11
7.1719014908
 21
9.4764009363
  0
LWPOLYLINE
  5
2E5
100
AcDbEntity
  8
ASSI
100
AcDbPolyline
 62
7
  6
CONTINUOUS
 90
7
 70
0
 10
12.7573313148
 20
14.2330233891
 10
12.7574984012
 20
14.2331932703
 10
12.7559167785
 20
14.2318534677
 10
12.7513912205
 20
14.2284969332
 10
12.7436603784
 20
14.2235178544
 10
12.7326932259
 20
14.2173822004
 10
12.7278780361
 20
14.2149309586
  0
LINE
  5
2E6
100
AcDbEntity
  8
PORTATASTO
100
AcDbLine
 62
7
  6
CONTINUOUS
 10
8.247770941
 20
5.6064973117
 11
8.9487068948
 21
5.9706938052
  0
LINE
  5
2E7
100
AcDbEntity
  8
ASSI
100
AcDbLine
 62
253
  6
CONTINUOUS
 10
23.7975890954
 20
14.3435770073
 11
8.582253413
 21
6.6027325685
  0
LINE
  5
2E8
100
AcDbEntity
  8
ASSI
100
AcDbLine
 62
253
  6
CONTINUOUS
 10
24.211739571
 20
12.9119434327
 11
8.9964038886
 21
5.1710989939
  0
LINE
  5
2E9
100
AcDbEntity
  8
ASSI
100
AcDbLine
 62
7
  6
CONTINUOUS
 10
30.1988368811
 20
14.9571430718
 11
24.211739571
 21
11.9223607207
  0
LINE
  5
2EA
100
AcDbEntity
  8
RACCORDO
100
AcDbLine
 62
253
  6
CONTINUOUS
 10
25.5074560072
 20
13.3638227491
 11
30.1339571749
 21
15.6586014352
  0
LINE
  5
2EB
100
AcDbEntity
  8
PORTATASTO
100
AcDbLine
 62
253
  6
CONTINUOUS
 10
2.2367372393
 20
15.1274327336
 11
2.2292875798
 21
16.176656645
  0
LINE
  5
2EC
100
AcDbEntity
  8
PORTATASTO
100
AcDbLine
 62
7
  6
CONTINUOUS
 10
2.6906083873
 20
16.49145628
 11
2.6849926448
 21
17.6112239595
  0
LINE
  5
2ED
100
AcDbEntity
  8
PORTATASTO
100
AcDbLine
 62
253
  6
CONTINUOUS
 10
2.5667898034
 20
16.3429859204
 11
2.5623185045
 21
17.6080557615
  0
LINE
  5
2EE
100
AcDbEntity
  8
ASSI
100
AcDbLine
 62
253
  6
CONTINUOUS
 10
0.4050564972
 20
23.4541768404
 11
0.4050564972
 21
23.7959078932
  0
LINE
  5
2EF
100
AcDbEntity
  8
ASSI
100
AcDbLine
 62
7
  6
CONTINUOUS
 10
1.2889399737
 20
26.6468725513
 11
1.2889399737
 21
26.6252370338
  0
LINE
  5
2F0
100
AcDbEntity
  8
PORTATASTO
100
AcDbLine
 62
253
  6
CONTINUOUS
 10
1.7430008806
 20
10.6826211565
 11
1.7430008806
 21
11.8023748335
  0
LINE
  5
2F1
100
AcDbEntity
  8
PORTATASTO
100
AcDbLine
 62
253
  6
CONTINUOUS
 10
2.4482516226
 20
10.7042723965
 11
2.4482516226
 21
11.9760076059
  0
LINE
  5
2F2
100
AcDbEntity
  8
PORTATASTO
100
AcDbLine
 62
7
  6
CONTINUOUS
 10
2.805517117
 20
10.9038562877
 11
2.805517117
 21
11.6595931232
  0
LINE
  5
2F3
100
AcDbEntity
  8
PORTATASTO
100
AcDbLine
 62
7
  6
CONTINUOUS
 10
2.8129219895
 20
10.9001538514
 11
2.8129219895
 21
11.3393251717
  0
LINE
  5
2F4
100
AcDbEntity
  8
ASSI
100
AcDbLine
 62
253
  6
CONTINUOUS
 10
4.6945961657
 20
26.5972133331
 11
4.6476971843
 21
25.9172282368
  0
LINE
  5
2F5
100
AcDbEntity
  8
RACCORDO
100
AcDbLine
 62
7
  6
CONTINUOUS
 10
25.5027044768
 20
12.6826774486
 11
30.1380039594
 21
15.0826740125
  0
LINE
  5
2F6
100
AcDbEntity
  8
PORTATASTO
100
AcDbLine
 62
7
  6
CONTINUOUS
 10
7.5468349872
 20
5.198999548
 11
8.9857337391
 21
5.5883564451
  0
LINE
  5
2F7
100
AcDbEntity
  8
PORTATASTO
100
AcDbLine
 62
7
  6
CONTINUOUS
 10
6.0644655498
 20
16.8382011131
 11
6.0674644914
 21
16.4158245989
  0
LINE
  5
2F8
100
AcDbEntity
  8
PORTATASTO
100
AcDbLine
 62
7
  6
CONTINUOUS
 10
3.9147577787
 20
10.263953744
 11
3.9147577787
 21
10.0139825347
  0
LINE
  5
2F9
100
AcDbEntity
  8
PORTATASTO
100
AcDbLine
 62
7
  6
CONTINUOUS
 10
3.9147577787
 20
-31.5535137632
 11
3.9147577787
 21
-31.7087978948
  0
LINE
  5
2FA
100
AcDbEntity
  8
PORTATASTO
100
AcDbLine
 62
253
  6
CONTINUOUS
 10
3.9879810834
 20
10.1755653964
 11
3.9879810834
 21
9.925594187
  0
LINE
  5
2FB
100
AcDbEntity
  8
PORTATASTO
100
AcDbLine
 62
253
  6
CONTINUOUS
 10
3.9879810834
 20
-31.5472150331
 11
3.9879810834
 21
-31.7971862424
  0
LINE
  5
2FC
100
AcDbEntity
  8
PORTATASTO
100
AcDbLine
 62
7
  6
CONTINUOUS
 10
4.6181621236
 20
9.5077718651
 11
4.6181621236
 21
8.9239142631
  0
LINE
  5
2FD
100
AcDbEntity
  8
ASSI
100
AcDbLine
 62
253
  6
CONTINUOUS
 10
4.6476971843
 20
25.4909069945
 11
4.6476971843
 21
25.9172282368
  0
LINE
  5
2FE
100
AcDbEntity
  8
PORTATASTO
100
AcDbLine
 62
253
  6
CONTINUOUS
 10
4.6913854283
 20
9.4711602127
 11
4.6913854283
 21
8.832182258
  0
LINE
  5
2FF
100
AcDbEntity
  8
PORTATASTO
100
AcDbLine
 62
253
  6
CONTINUOUS
 10
5.2190249377
 20
-32.4127081696
 11
5.2190249377
 21
-32.1627369602
  0
LINE
  5
300
100
AcDbEntity
  8
PORTATASTO
100
AcDbLine
 62
253
  6
CONTINUOUS
 10
5.2190249377
 20
9.3100722599
 11
5.2190249377
 21
9.5600434692
  0
LINE
  5
301
100
AcDbEntity
  8
RACCORDO
100
AcDbLine
 62
7
  6
CONTINUOUS
 10
5.4078369741
 20
-30.7101460996
 11
5.4078369741
 21
6.9615625816
  0
LINE
  5
302
100
AcDbEntity
  8
PORTATASTO
100
AcDbLine
 62
253
  6
CONTINUOUS
 10
5.5716503087
 20
-32.4131697562
 11
5.5716503087
 21
-32.1631985468
  0
LINE
  5
303
100
AcDbEntity
  8
PORTATASTO
100
AcDbLine
 62
253
  6
CONTINUOUS
 10
5.5716503087
 20
9.3096106733
 11
5.5716503087
 21
9.5595818827
  0
LINE
  5
304
100
AcDbEntity
  8
PORTATASTO
100
AcDbLine
 62
253
  6
CONTINUOUS
 10
5.9298341551
 20
-31.0610347878
 11
5.9298341551
 21
-30.36221825
  0
LINE
  5
305
100
AcDbEntity
  8
PORTATASTO
100
AcDbLine
 62
253
  6
CONTINUOUS
 10
5.9298341551
 20
8.2129578946
 11
5.9298341551
 21
8.9117744324
  0
LINE
  5
306
100
AcDbEntity
  8
PORTATASTO
100
AcDbLine
 62
253
  6
CONTINUOUS
 10
6.2824595261
 20
-31.0614963744
 11
6.2824595261
 21
-30.485775473
  0
LINE
  5
307
100
AcDbEntity
  8
PORTATASTO
100
AcDbLine
 62
253
  6
CONTINUOUS
 10
6.2824595261
 20
8.2237835145
 11
6.2824595261
 21
8.9113128458
  0
LINE
  5
308
100
AcDbEntity
  8
PORTATASTO
100
AcDbLine
 62
253
  6
CONTINUOUS
 10
3.6640684793
 20
15.0603778647
 11
3.6682380973
 21
15.6476346193
  0
LINE
  5
309
100
AcDbEntity
  8
RACCORDO
100
AcDbLine
 62
253
  6
CONTINUOUS
 10
0.6885126913
 20
4.0023975237
 11
-30.0389180751
 21
19.3661129069
  0
LINE
  5
30A
100
AcDbEntity
  8
RACCORDO
100
AcDbLine
 62
253
  6
CONTINUOUS
 10
1.7044504431
 20
5.7424963107
 11
-29.0463526918
 21
21.1178978781
  0
LINE
  5
30B
100
AcDbEntity
  8
PORTATASTO
100
AcDbLine
 62
7
  6
CONTINUOUS
 10
6.4676609233
 20
7.5108336169
 11
6.4676609233
 21
-30.1979207404
  0
LINE
  5
30C
100
AcDbEntity
  8
ASSI
100
AcDbLine
 62
7
  6
CONTINUOUS
 10
6.6983068498
 20
21.6570902833
 11
6.6983068498
 21
21.2245224428
  0
LINE
  5
30D
100
AcDbEntity
  8
ASSI
100
AcDbLine
 62
253
  6
CONTINUOUS
 10
6.9812100004
 20
16.3119425643
 11
6.9812048069
 21
16.8824172786
  0
LINE
  5
30E
100
AcDbEntity
  8
PORTATASTO
100
AcDbLine
 62
7
  6
CONTINUOUS
 10
7.1719014908
 20
9.4764009363
 11
7.1719014908
 21
8.7206641008
  0
LINE
  5
30F
100
AcDbEntity
  8
PORTATASTO
100
AcDbLine
 62
7
  6
CONTINUOUS
 10
7.1719014908
 20
-30.1189428196
 11
7.1719014908
 21
-30.7464082838
  0
LINE
  5
310
100
AcDbEntity
  8
ASSI
100
AcDbLine
 62
253
  6
CONTINUOUS
 10
7.4017358491
 20
16.1736382071
 11
7.4017164596
 21
16.8716881236
  0
LINE
  5
311
100
AcDbEntity
  8
PORTATASTO
100
AcDbLine
 62
7
  6
CONTINUOUS
 10
7.5468349872
 20
8.1001993065
 11
7.5468349872
 21
5.198999548
  0
LINE
  5
312
100
AcDbEntity
  8
PORTATASTO
100
AcDbLine
 62
7
  6
CONTINUOUS
 10
7.5468349872
 20
-29.7451401504
 11
7.5468349872
 21
-26.843940392
  0
LINE
  5
313
100
AcDbEntity
  8
PORTATASTO
100
AcDbLine
 62
7
  6
CONTINUOUS
 10
7.8827107083
 20
10.7178175083
 11
7.8827107083
 21
10.3281031088
  0
LINE
  5
314
100
AcDbEntity
  8
PORTATASTO
100
AcDbLine
 62
7
  6
CONTINUOUS
 10
7.8827107083
 20
-30.8947061114
 11
7.8827107083
 21
-31.2844205109
  0
LINE
  5
315
100
AcDbEntity
  8
PORTATASTO
100
AcDbLine
 62
7
  6
CONTINUOUS
 10
8.247770941
 20
8.4517997224
 11
8.247770941
 21
5.6064973117
  0
LINE
  5
316
100
AcDbEntity
  8
PORTATASTO
100
AcDbLine
 62
7
  6
CONTINUOUS
 10
8.247770941
 20
-26.5381605471
 11
8.247770941
 21
-29.3834629577
  0
LINE
  5
317
100
AcDbEntity
  8
PORTATASTO
100
AcDbLine
 62
7
  6
CONTINUOUS
 10
8.9487068948
 20
5.9706938052
 11
8.9487068948
 21
5.6068698673
  0
LINE
  5
318
100
AcDbEntity
  8
PORTATASTO
100
AcDbLine
 62
7
  6
CONTINUOUS
 10
8.9487068948
 20
-25.8695060944
 11
8.9487068948
 21
-26.189079432
  0
LINE
  5
319
100
AcDbEntity
  8
PORTATASTO
100
AcDbLine
 62
7
  6
CONTINUOUS
 10
8.9857337391
 20
5.5883564451
 11
8.9857337391
 21
-25.8437689162
  0
LINE
  5
31A
100
AcDbEntity
  8
ASSI
100
AcDbLine
 62
7
  6
CONTINUOUS
 10
8.9964038886
 20
5.1710989939
 11
8.9964038886
 21
-25.4371816145
  0
LINE
  5
31B
100
AcDbEntity
  8
PORTATASTO
100
AcDbLine
 62
7
  6
CONTINUOUS
 10
8.2666237015
 20
13.7027093474
 11
8.2689397462
 21
14.8195548474
  0
LINE
  5
31C
100
AcDbEntity
  8
RACCORDO
100
AcDbLine
 62
7
  6
CONTINUOUS
 10
7.0967037478
 20
23.5211631517
 11
7.0825874589
 21
21.5329987468
  0
LINE
  5
31D
100
AcDbEntity
  8
DRAFT
100
AcDbLine
 62
7
  6
CONTINUOUS
 10
-14.5839348187
 20
15.1331796234
 11
-10.4153497002
 21
13.0488870642
  0
LINE
  5
31E
100
AcDbEntity
  8
DRAFT
100
AcDbLine
 62
7
  6
CONTINUOUS
 10
-8.877998608
 20
13.8881722134
 11
-12.4996422594
 21
15.6989940392
  0
LINE
  5
31F
100
AcDbEntity
  8
PORTATASTO
100
AcDbLine
 62
7
  6
CONTINUOUS
 10
8.9857337391
 20
5.5883564451
 11
8.9487068948
 21
5.6068698673
  0
LINE
  5
320
100
AcDbEntity
  8
RACCORDO
100
AcDbLine
 62
7
  6
CONTINUOUS
 10
-25.8111965399
 20
23.0042902322
 11
-12.4996422594
 21
16.348513092
  0
LINE
  5
321
100
AcDbEntity
  8
RACCORDO
100
AcDbLine
 62
7
  6
CONTINUOUS
 10
-8.2570015723
 20
14.2271927484
 11
5.0545527082
 21
7.5714156082
  0
LINE
  5
322
100
AcDbEntity
  8
PORTATASTO
100
AcDbLine
 62
7
  6
CONTINUOUS
 10
5.8778498402
 20
9.0425067554
 11
5.3447429271
 21
9.1537301261
  0
LINE
  5
323
100
AcDbEntity
  8
PORTATASTO
100
AcDbLine
 62
253
  6
CONTINUOUS
 10
6.1047572218
 20
9.1983873027
 11
5.5716503087
 21
9.3096106733
  0
LINE
  5
324
100
AcDbEntity
  8
PORTATASTO
100
AcDbLine
 62
7
  6
CONTINUOUS
 10
6.1143766573
 20
8.1206866435
 11
5.9298341551
 21
8.2129578946
  0
LINE
  5
325
100
AcDbEntity
  8
PORTATASTO
100
AcDbLine
 62
7
  6
CONTINUOUS
 10
4.6913854283
 20
8.832182258
 11
-7.4168063398
 21
14.886278142
  0
LINE
  5
326
100
AcDbEntity
  8
PORTATASTO
100
AcDbLine
 62
7
  6
CONTINUOUS
 10
-8.6552550666
 20
15.5055025054
 11
-9.9800684216
 21
16.1679091829
  0
LINE
  5
327
100
AcDbEntity
  8
PORTATASTO
100
AcDbLine
 62
7
  6
CONTINUOUS
 10
-11.2185171484
 20
16.7871335463
 11
-23.3267089165
 21
22.8412294303
  0
LINE
  5
328
100
AcDbEntity
  8
PORTATASTO
100
AcDbLine
 62
7
  6
CONTINUOUS
 10
-24.5651576433
 20
23.4604537938
 11
-24.7497001455
 21
23.5527250449
  0
LINE
  5
329
100
AcDbEntity
  8
PORTATASTO
100
AcDbLine
 62
7
  6
CONTINUOUS
 10
8.247770941
 20
7.1287705373
 11
8.2892971075
 21
7.1080074541
  0
LINE
  5
32A
100
AcDbEntity
  8
PORTATASTO
100
AcDbLine
 62
7
  6
CONTINUOUS
 10
1.7430008806
 20
10.6826211565
 11
-3.7613150109
 21
13.4347791022
  0
LINE
  5
32B
100
AcDbEntity
  8
PORTATASTO
100
AcDbLine
 62
7
  6
CONTINUOUS
 10
-14.1669016961
 20
18.6375724449
 11
-19.6712175876
 21
21.3897303906
  0
LINE
  5
32C
100
AcDbEntity
  8
PORTATASTO
100
AcDbLine
 62
7
  6
CONTINUOUS
 10
-25.2035886918
 20
24.4186472727
 11
-23.9725448375
 21
23.8031253456
  0
LINE
  5
32D
100
AcDbEntity
  8
PORTATASTO
100
AcDbLine
 62
7
  6
CONTINUOUS
 10
-11.8569481969
 20
17.7453270253
 11
-10.6259043426
 21
17.1298050982
  0
LINE
  5
32E
100
AcDbEntity
  8
PORTATASTO
100
AcDbLine
 62
7
  6
CONTINUOUS
 10
-9.2936861151
 20
16.4636959844
 11
-8.0626422608
 21
15.8481740573
  0
LINE
  5
32F
100
AcDbEntity
  8
PORTATASTO
100
AcDbLine
 62
7
  6
CONTINUOUS
 10
4.0529543798
 20
9.7903757369
 11
5.2839982341
 21
9.1748538098
  0
LINE
  5
330
100
AcDbEntity
  8
PORTATASTO
100
AcDbLine
 62
253
  6
CONTINUOUS
 10
-23.7381709594
 20
23.7457769896
 11
-23.3267089165
 21
23.5400459682
  0
LINE
  5
331
100
AcDbEntity
  8
PORTATASTO
100
AcDbLine
 62
253
  6
CONTINUOUS
 10
-10.3915304645
 20
17.0724567422
 11
-9.9800684216
 21
16.8667257207
  0
LINE
  5
332
100
AcDbEntity
  8
PORTATASTO
100
AcDbLine
 62
253
  6
CONTINUOUS
 10
-7.8282683827
 20
15.7908257013
 11
-7.4168063398
 21
15.5850946798
  0
LINE
  5
333
100
AcDbEntity
  8
PORTATASTO
100
AcDbLine
 62
253
  6
CONTINUOUS
 10
5.5183721122
 20
9.1175054538
 11
5.9298341551
 21
8.9117744324
  0
LINE
  5
334
100
AcDbEntity
  8
PORTATASTO
100
AcDbLine
 62
253
  6
CONTINUOUS
 10
-25.2685619882
 20
24.5538657228
 11
-24.0375181339
 21
23.9383437957
  0
LINE
  5
335
100
AcDbEntity
  8
PORTATASTO
100
AcDbLine
 62
253
  6
CONTINUOUS
 10
-11.9219214933
 20
17.8805454754
 11
-10.690877639
 21
17.2650235483
  0
LINE
  5
336
100
AcDbEntity
  8
PORTATASTO
100
AcDbLine
 62
253
  6
CONTINUOUS
 10
-9.3586594115
 20
16.5989144345
 11
-8.1276155572
 21
15.9833925074
  0
LINE
  5
337
100
AcDbEntity
  8
PORTATASTO
100
AcDbLine
 62
253
  6
CONTINUOUS
 10
3.9879810834
 20
9.925594187
 11
5.2190249377
 21
9.3100722599
  0
LINE
  5
338
100
AcDbEntity
  8
PORTATASTO
100
AcDbLine
 62
253
  6
CONTINUOUS
 10
5.2190249377
 20
9.5600434692
 11
3.9879810834
 21
10.1755653964
  0
LINE
  5
339
100
AcDbEntity
  8
PORTATASTO
100
AcDbLine
 62
253
  6
CONTINUOUS
 10
-8.1276155572
 20
16.2333637167
 11
-9.3586594115
 21
16.8488856438
  0
LINE
  5
33A
100
AcDbEntity
  8
PORTATASTO
100
AcDbLine
 62
253
  6
CONTINUOUS
 10
-10.690877639
 20
17.5149947576
 11
-11.9219214933
 21
18.1305166847
  0
LINE
  5
33B
100
AcDbEntity
  8
PORTATASTO
100
AcDbLine
 62
253
  6
CONTINUOUS
 10
-24.0375181339
 20
24.188315005
 11
-25.2685619882
 21
24.8038369322
  0
LINE
  5
33C
100
AcDbEntity
  8
PORTATASTO
100
AcDbLine
 62
7
  6
CONTINUOUS
 10
-22.0846415808
 20
23.3489356366
 11
-19.817664197
 21
22.2154469447
  0
LINE
  5
33D
100
AcDbEntity
  8
PORTATASTO
100
AcDbLine
 62
7
  6
CONTINUOUS
 10
-13.1043854597
 20
18.8588075761
 11
-11.9820182062
 21
18.2976239493
  0
LINE
  5
33E
100
AcDbEntity
  8
PORTATASTO
100
AcDbLine
 62
7
  6
CONTINUOUS
 10
-6.1747390041
 20
15.3939843483
 11
-3.9077616203
 21
14.2604956564
  0
LINE
  5
33F
100
AcDbEntity
  8
PORTATASTO
100
AcDbLine
 62
7
  6
CONTINUOUS
 10
2.805517117
 20
10.9038562877
 11
3.9278843705
 21
10.3426726609
  0
LINE
  5
340
100
AcDbEntity
  8
PORTATASTO
100
AcDbLine
 62
7
  6
CONTINUOUS
 10
7.1719014908
 20
8.7206641008
 11
7.1935507213
 21
8.7098394856
  0
LINE
  5
341
100
AcDbEntity
  8
PORTATASTO
100
AcDbLine
 62
253
  6
CONTINUOUS
 10
5.3948760366
 20
9.8644724018
 11
4.1638321823
 21
10.479994329
  0
LINE
  5
342
100
AcDbEntity
  8
PORTATASTO
100
AcDbLine
 62
253
  6
CONTINUOUS
 10
-7.9517644583
 20
16.5377926493
 11
-9.1828083126
 21
17.1533145764
  0
LINE
  5
343
100
AcDbEntity
  8
PORTATASTO
100
AcDbLine
 62
253
  6
CONTINUOUS
 10
-10.5150265401
 20
17.8194236902
 11
-11.7460703944
 21
18.4349456173
  0
LINE
  5
344
100
AcDbEntity
  8
PORTATASTO
100
AcDbLine
 62
253
  6
CONTINUOUS
 10
-23.861667035
 20
24.4927439376
 11
-25.0927108893
 21
25.1082658648
  0
LINE
  5
345
100
AcDbEntity
  8
PORTATASTO
100
AcDbLine
 62
253
  6
CONTINUOUS
 10
1.7430008806
 20
11.8023748335
 11
-3.7613150109
 21
14.5545327792
  0
LINE
  5
346
100
AcDbEntity
  8
PORTATASTO
100
AcDbLine
 62
253
  6
CONTINUOUS
 10
-14.1669016961
 20
19.7573261218
 11
-19.6712175876
 21
22.5094840675
  0
LINE
  5
347
100
AcDbEntity
  8
PORTATASTO
100
AcDbLine
 62
253
  6
CONTINUOUS
 10
2.1659675969
 20
11.904775061
 11
-3.9029199689
 21
14.9392188438
  0
LINE
  5
348
100
AcDbEntity
  8
PORTATASTO
100
AcDbLine
 62
253
  6
CONTINUOUS
 10
-13.7439349798
 20
19.8597263493
 11
-19.8128225456
 21
22.8941701322
  0
LINE
  5
349
100
AcDbEntity
  8
PORTATASTO
100
AcDbLine
 62
7
  6
CONTINUOUS
 10
7.8942220378
 20
9.0615722201
 11
7.1719014908
 21
9.4227324936
  0
LINE
  5
34A
100
AcDbEntity
  8
PORTATASTO
100
AcDbLine
 62
7
  6
CONTINUOUS
 10
-20.670839409
 20
23.3441029435
 11
-22.0846415808
 21
24.0510040294
  0
LINE
  5
34B
100
AcDbEntity
  8
PORTATASTO
100
AcDbLine
 62
7
  6
CONTINUOUS
 10
2.8761782249
 20
11.6242625693
 11
2.805517117
 21
11.6595931232
  0
LINE
  5
34C
100
AcDbEntity
  8
PORTATASTO
100
AcDbLine
 62
7
  6
CONTINUOUS
 10
-13.0337243518
 20
19.5792138576
 11
-13.1043854597
 21
19.6145444116
  0
LINE
  5
34D
100
AcDbEntity
  8
PORTATASTO
100
AcDbLine
 62
7
  6
CONTINUOUS
 10
-4.0492170103
 20
15.7353601369
 11
-5.7929263357
 21
16.6072147996
  0
LINE
  5
34E
100
AcDbEntity
  8
PORTATASTO
100
AcDbLine
 62
7
  6
CONTINUOUS
 10
-8.1108357871
 20
17.7661695253
 11
-8.3561884175
 21
17.8888458405
  0
LINE
  5
34F
100
AcDbEntity
  8
PORTATASTO
100
AcDbLine
 62
7
  6
CONTINUOUS
 10
8.2892971075
 20
7.1080074541
 11
8.9487068948
 21
5.9706938052
  0
LINE
  5
350
100
AcDbEntity
  8
ASSI
100
AcDbLine
 62
7
  6
CONTINUOUS
 10
8.247770941
 20
7.1796294967
 11
8.582253413
 21
6.6027325685
  0
LINE
  5
351
100
AcDbEntity
  8
ASSI
100
AcDbLine
 62
253
  6
CONTINUOUS
 10
12.6417041868
 20
14.25169426
 11
12.6417017134
 21
14.1721875112
  0
LINE
  5
352
100
AcDbEntity
  8
PORTATASTO
100
AcDbLine
 62
7
  6
CONTINUOUS
 10
13.3451105929
 20
12.3954034936
 11
13.3451105929
 21
11.824373604
  0
LINE
  5
353
100
AcDbEntity
  8
PORTATASTO
100
AcDbLine
 62
253
  6
CONTINUOUS
 10
13.5397740528
 20
-24.2605214996
 11
13.5397740528
 21
-23.881831235
  0
LINE
  5
354
100
AcDbEntity
  8
PORTATASTO
100
AcDbLine
 62
253
  6
CONTINUOUS
 10
13.5397740528
 20
12.498311012
 11
13.5397740528
 21
12.8984382723
  0
LINE
  5
355
100
AcDbEntity
  8
PORTATASTO
100
AcDbLine
 62
7
  6
CONTINUOUS
 10
13.6801041526
 20
-24.2101593387
 11
13.6801041526
 21
-23.8076223666
  0
LINE
  5
356
100
AcDbEntity
  8
PORTATASTO
100
AcDbLine
 62
7
  6
CONTINUOUS
 10
13.6801041526
 20
12.6745770089
 11
13.6801041526
 21
13.1954052966
  0
LWPOLYLINE
  5
357
100
AcDbEntity
  8
RACCORDO
100
AcDbPolyline
 62
7
  6
CONTINUOUS
 90
5
 70
0
 10
-2.2096841656
 20
-26.4126941155
 10
-2.2399917618
 20
-26.4537519479
 10
-2.2727783999
 20
-26.4868525581
 10
-2.309460449
 20
-26.5135296341
 10
-2.3293637862
 20
-26.5243828979
  0
LINE
  5
358
100
AcDbEntity
  8
PORTATASTO
100
AcDbLine
 62
7
  6
CONTINUOUS
 10
-7.4687906547
 20
15.7158270029
 11
-8.0018975678
 21
15.8270503735
  0
LINE
  5
359
100
AcDbEntity
  8
PORTATASTO
100
AcDbLine
 62
253
  6
CONTINUOUS
 10
-7.2418832731
 20
15.8717075501
 11
-7.7749901862
 21
15.9829309208
  0
LINE
  5
35A
100
AcDbEntity
  8
PORTATASTO
100
AcDbLine
 62
7
  6
CONTINUOUS
 10
-10.0320527365
 20
16.9974580438
 11
-10.5651596496
 21
17.1086814144
  0
LINE
  5
35B
100
AcDbEntity
  8
PORTATASTO
100
AcDbLine
 62
253
  6
CONTINUOUS
 10
-9.8051453549
 20
17.153338591
 11
-10.338252268
 21
17.2645619617
  0
LINE
  5
35C
100
AcDbEntity
  8
ASSI
100
AcDbLine
 62
7
  6
CONTINUOUS
 10
-8.3247565605
 20
17.926507959
 11
-8.0580755705
 21
17.793167464
  0
LINE
  5
35D
100
AcDbEntity
  8
ASSI
100
AcDbLine
 62
7
  6
CONTINUOUS
 10
-5.7614944787
 20
16.6448769181
 11
-4.8982443617
 21
16.2132518596
  0
LINE
  5
35E
100
AcDbEntity
  8
PORTATASTO
100
AcDbLine
 62
7
  6
CONTINUOUS
 10
3.5163263344
 20
12.5112952957
 11
-2.70621334
 21
15.6225651329
  0
LINE
  5
35F
100
AcDbEntity
  8
PORTATASTO
100
AcDbLine
 62
7
  6
CONTINUOUS
 10
-12.3935762423
 20
20.466246584
 11
-18.6161159167
 21
23.5775164212
  0
LINE
  5
360
100
AcDbEntity
  8
PORTATASTO
100
AcDbLine
 62
7
  6
CONTINUOUS
 10
-22.8057260184
 20
26.2785392548
 11
-21.5506066354
 21
25.6509795632
  0
LINE
  5
361
100
AcDbEntity
  8
PORTATASTO
100
AcDbLine
 62
7
  6
CONTINUOUS
 10
-6.8958234417
 20
18.3235879664
 11
-5.6407040587
 21
17.6960282749
  0
LINE
  5
362
100
AcDbEntity
  8
PORTATASTO
100
AcDbLine
 62
7
  6
CONTINUOUS
 10
7.7059364362
 20
11.0227080274
 11
6.4508170532
 21
11.650267719
  0
LINE
  5
363
100
AcDbEntity
  8
PORTATASTO
100
AcDbLine
 62
7
  6
CONTINUOUS
 10
-8.2039661405
 20
18.9776593158
 11
-9.4590855235
 21
19.6052190073
  0
LINE
  5
364
100
AcDbEntity
  8
ASSI
100
AcDbLine
 62
7
  6
CONTINUOUS
 10
2.3142448064
 20
15.1192025592
 11
4.9231062933
 21
13.8147718158
  0
LINE
  5
365
100
AcDbEntity
  8
ASSI
100
AcDbLine
 62
7
  6
CONTINUOUS
 10
-10.9867962834
 20
21.7697231041
 11
-13.5956577703
 21
23.0741538476
  0
LINE
  5
366
100
AcDbEntity
  8
ASSI
100
AcDbLine
 62
7
  6
CONTINUOUS
 10
11.6168682502
 20
10.8344967122
 11
10.9876090765
 21
11.149126299
  0
LINE
  5
367
100
AcDbEntity
  8
ASSI
100
AcDbLine
 62
253
  6
CONTINUOUS
 10
5.4924167482
 20
14.0958020133
 11
3.4456156563
 21
15.1192025592
  0
LINE
  5
368
100
AcDbEntity
  8
ASSI
100
AcDbLine
 62
253
  6
CONTINUOUS
 10
-10.4174858285
 20
22.0507533016
 11
-12.4642869204
 21
23.0741538476
  0
LINE
  5
369
100
AcDbEntity
  8
ASSI
100
AcDbLine
 62
7
  6
CONTINUOUS
 10
5.5431414499
 20
14.1208413794
 11
3.5350582563
 21
15.1248829762
  0
LINE
  5
36A
100
AcDbEntity
  8
ASSI
100
AcDbLine
 62
7
  6
CONTINUOUS
 10
-10.3667611268
 20
22.0757926678
 11
-12.3748443204
 21
23.0798342646
  0
LINE
  5
36B
100
AcDbEntity
  8
PORTATASTO
100
AcDbLine
 62
7
  6
CONTINUOUS
 10
6.0674644914
 20
16.4158245989
 11
4.3134268237
 21
16.3237823731
  0
LINE
  5
36C
100
AcDbEntity
  8
PORTATASTO
100
AcDbLine
 62
7
  6
CONTINUOUS
 10
-12.2416644794
 20
23.6025859077
 11
-9.7736429398
 21
22.3685751378
  0
LINE
  5
36D
100
AcDbEntity
  8
PORTATASTO
100
AcDbLine
 62
7
  6
CONTINUOUS
 10
3.6682380973
 20
15.6476346193
 11
6.1362596369
 21
14.4136238495
  0
LINE
  5
36E
100
AcDbEntity
  8
ASSI
100
AcDbLine
 62
7
  6
CONTINUOUS
 10
-4.3986904648
 20
20.1846154455
 11
-0.6601828246
 21
18.3153616254
  0
LINE
  5
36F
100
AcDbEntity
  8
PORTATASTO
100
AcDbLine
 62
7
  6
CONTINUOUS
 10
-11.596475753
 20
24.2787336615
 11
-8.7685006754
 21
22.8647461227
  0
LINE
  5
370
100
AcDbEntity
  8
PORTATASTO
100
AcDbLine
 62
7
  6
CONTINUOUS
 10
4.3134268237
 20
16.3237823731
 11
7.1414019013
 21
14.9097948343
  0
LINE
  5
371
100
AcDbEntity
  8
PORTATASTO
100
AcDbLine
 62
7
  6
CONTINUOUS
 10
8.0921375255
 20
14.7937878612
 11
7.5030655994
 21
15.0883238243
  0
LINE
  5
372
100
AcDbEntity
  8
PORTATASTO
100
AcDbLine
 62
7
  6
CONTINUOUS
 10
2.50684022
 20
17.586436514
 11
1.9177682939
 21
17.8809724771
  0
LINE
  5
373
100
AcDbEntity
  8
PORTATASTO
100
AcDbLine
 62
7
  6
CONTINUOUS
 10
-7.8177650512
 20
22.7487391496
 11
-8.4068369773
 21
23.0432751126
  0
LINE
  5
374
100
AcDbEntity
  8
PORTATASTO
100
AcDbLine
 62
7
  6
CONTINUOUS
 10
-13.4030623567
 20
25.5413878023
 11
-13.9921342828
 21
25.8359237654
  0
LINE
  5
375
100
AcDbEntity
  8
PORTATASTO
100
AcDbLine
 62
7
  6
CONTINUOUS
 10
8.261015765
 20
14.8316744416
 11
7.7730069068
 21
15.0756788707
  0
LINE
  5
376
100
AcDbEntity
  8
PORTATASTO
100
AcDbLine
 62
7
  6
CONTINUOUS
 10
2.6767075743
 20
17.6238285369
 11
2.1886987752
 21
17.8678329365
  0
LINE
  5
377
100
AcDbEntity
  8
PORTATASTO
100
AcDbLine
 62
7
  6
CONTINUOUS
 10
-7.6488866065
 20
22.7866256273
 11
-8.1368954057
 21
23.0306300269
  0
LINE
  5
378
100
AcDbEntity
  8
PORTATASTO
100
AcDbLine
 62
7
  6
CONTINUOUS
 10
-13.2331947381
 20
25.5787796931
 11
-13.7212035963
 21
25.8227841222
  0
LINE
  5
379
100
AcDbEntity
  8
PORTATASTO
100
AcDbLine
 62
7
  6
CONTINUOUS
 10
9.017119104
 20
14.9409972926
 11
6.0674644914
 21
16.4158245989
  0
LINE
  5
37A
100
AcDbEntity
  8
PORTATASTO
100
AcDbLine
 62
7
  6
CONTINUOUS
 10
-6.8927834727
 20
22.8959485809
 11
-9.8424380853
 21
24.3707758873
  0
LINE
  5
37B
100
AcDbEntity
  8
ASSI
100
AcDbLine
 62
7
  6
CONTINUOUS
 10
-9.8446201756
 20
24.6781055425
 11
-6.5843628033
 21
23.0479768564
  0
LINE
  5
37C
100
AcDbEntity
  8
ASSI
100
AcDbLine
 62
253
  6
CONTINUOUS
 10
9.3726437776
 20
15.1162443119
 11
7.0555624549
 21
16.2747849732
  0
LINE
  5
37D
100
AcDbEntity
  8
ASSI
100
AcDbLine
 62
7
  6
CONTINUOUS
 10
9.4450963062
 20
15.1519579785
 11
7.0554769972
 21
16.346767633
  0
LINE
  5
37E
100
AcDbEntity
  8
PORTATASTO
100
AcDbLine
 62
253
  6
CONTINUOUS
 10
-13.5495005937
 20
26.8082019089
 11
-10.5546007738
 21
25.3107519989
  0
LINE
  5
37F
100
AcDbEntity
  8
PORTATASTO
100
AcDbLine
 62
253
  6
CONTINUOUS
 10
-6.3047282469
 20
23.1858157355
 11
-3.309828427
 21
21.6883658255
  0
LINE
  5
380
100
AcDbEntity
  8
PORTATASTO
100
AcDbLine
 62
253
  6
CONTINUOUS
 10
2.360401983
 20
18.8532506205
 11
5.3553018029
 21
17.3558007106
  0
LINE
  5
381
100
AcDbEntity
  8
PORTATASTO
100
AcDbLine
 62
253
  6
CONTINUOUS
 10
9.6051743298
 20
15.2308644471
 11
12.6000741497
 21
13.7334145372
  0
LINE
  5
382
100
AcDbEntity
  8
PORTATASTO
100
AcDbLine
 62
7
  6
CONTINUOUS
 10
-13.2607753842
 20
26.9117487877
 11
-10.1101088238
 21
25.3364155075
  0
LINE
  5
383
100
AcDbEntity
  8
PORTATASTO
100
AcDbLine
 62
7
  6
CONTINUOUS
 10
-5.8630205204
 20
23.2128713558
 11
-2.71235396
 21
21.6375380756
  0
LINE
  5
384
100
AcDbEntity
  8
PORTATASTO
100
AcDbLine
 62
7
  6
CONTINUOUS
 10
2.6491271925
 20
18.9567974994
 11
5.7997937529
 21
17.3814642191
  0
LINE
  5
385
100
AcDbEntity
  8
PORTATASTO
100
AcDbLine
 62
7
  6
CONTINUOUS
 10
10.0468820563
 20
15.2579200674
 11
13.1975486167
 21
13.6825867872
  0
LINE
  5
386
100
AcDbEntity
  8
ASSI
100
AcDbLine
 62
7
  6
CONTINUOUS
 10
12.6371162864
 20
9.0748291442
 11
11.6168682502
 21
10.8344967122
  0
LINE
  5
387
100
AcDbEntity
  8
DRAFT
100
AcDbLine
 62
7
  6
CONTINUOUS
 10
18.607292337
 20
21.9301888233
 11
18.6011681616
 21
22.7866049148
  0
LINE
  5
388
100
AcDbEntity
  8
0
100
AcDbLine
 62
7
  6
CONTINUOUS
 10
-3.6756619153
 20
-24.430405637
 11
-3.3777804784
 21
-24.2814649186
  0
LINE
  5
389
100
AcDbEntity
  8
RACCORDO
100
AcDbLine
 62
7
  6
CONTINUOUS
 10
-3.4886204791
 20
-24.3089370249
 11
-3.4908273058
 21
-24.3100385815
  0
LINE
  5
38A
100
AcDbEntity
  8
RACCORDO
100
AcDbLine
 62
253
  6
CONTINUOUS
 10
-3.6745039082
 20
-24.4298286704
 11
-3.6756619153
 21
-24.430405637
  0
LWPOLYLINE
  5
38B
100
AcDbEntity
  8
RACCORDO
100
AcDbPolyline
 62
7
  6
CONTINUOUS
 90
4
 70
0
 10
-3.4908809781
 20
-24.3100667877
 10
-3.4808076024
 20
-24.3052570814
 10
-3.4418173746
 20
-24.2912205275
 10
-3.4001072063
 20
-24.2828703654
  0
LINE
  5
38C
100
AcDbEntity
  8
DRAFT
100
AcDbLine
 62
7
  6
CONTINUOUS
 10
19.7231371407
 20
14.7121072974
 11
19.7487460897
 21
14.7068035104
  0
LINE
  5
38D
100
AcDbEntity
  8
DRAFT
100
AcDbLine
 62
7
  6
CONTINUOUS
 10
18.1675022221
 20
15.4899247567
 11
18.1931111711
 21
15.4846209697
  0
LINE
  5
38E
100
AcDbEntity
  8
DRAFT
100
AcDbLine
 62
7
  6
CONTINUOUS
 10
11.8035411914
 20
18.671905272
 11
11.8291501404
 21
18.666601485
  0
LINE
  5
38F
100
AcDbEntity
  8
DRAFT
100
AcDbLine
 62
7
  6
CONTINUOUS
 10
10.2479062728
 20
19.4497227313
 11
10.2735152218
 21
19.4444189443
  0
LINE
  5
390
100
AcDbEntity
  8
PORTATASTO
100
AcDbLine
 62
7
  6
CONTINUOUS
 10
-23.3786932314
 20
23.6707782912
 11
-23.9118001445
 21
23.7820016619
  0
LINE
  5
391
100
AcDbEntity
  8
PORTATASTO
100
AcDbLine
 62
253
  6
CONTINUOUS
 10
-23.1517858498
 20
23.8266588385
 11
-23.6848927629
 21
23.9378822091
  0
LINE
  5
392
100
AcDbEntity
  8
ASSI
100
AcDbLine
 62
253
  6
CONTINUOUS
 10
7.4017164596
 20
16.8716881236
 11
12.6417041868
 21
14.25169426
  0
LINE
  5
393
100
AcDbEntity
  8
ASSI
100
AcDbLine
 62
7
  6
CONTINUOUS
 10
-10.4952612392
 20
25.9009207095
 11
-3.7777469227
 21
22.5421635513
  0
LINE
  5
394
100
AcDbEntity
  8
ASSI
100
AcDbLine
 62
253
  6
CONTINUOUS
 10
7.617577415
 20
17.2393599459
 11
12.8575085254
 21
14.6193943907
  0
LINE
  5
395
100
AcDbEntity
  8
ASSI
100
AcDbLine
 62
7
  6
CONTINUOUS
 10
-1.7730397895
 20
23.5016603838
 11
-8.4905541063
 21
26.8604175422
  0
LINE
  5
396
100
AcDbEntity
  8
ASSI
100
AcDbLine
 62
7
  6
CONTINUOUS
 10
-6.312457924
 20
26.2865584982
 11
-0.3001572829
 21
23.2804081776
  0
LINE
  5
397
100
AcDbEntity
  8
ASSI
100
AcDbLine
 62
7
  6
CONTINUOUS
 10
21.6182599328
 20
13.6022766707
 11
21.6182599328
 21
13.5903169024
  0
LINE
  5
398
100
AcDbEntity
  8
0
100
AcDbLine
 62
7
  6
CONTINUOUS
 10
-2.5799886063
 20
-26.621752255
 11
-2.2376539766
 21
-26.4505849401
  0
LINE
  5
399
100
AcDbEntity
  8
RACCORDO
100
AcDbLine
 62
7
  6
CONTINUOUS
 10
-2.329303195
 20
-26.5243538803
 11
-2.3277307351
 21
-26.5235738279
  0
LINE
  5
39A
100
AcDbEntity
  8
0
100
AcDbLine
 62
7
  6
CONTINUOUS
 10
6.9245044012
 20
21.1114236671
 11
7.1339025902
 21
21.0680558822
  0
LINE
  5
39B
100
AcDbEntity
  8
ASSI
100
AcDbLine
 62
7
  6
CONTINUOUS
 10
-6.312457924
 20
27.1546651039
 11
0.4050564972
 21
23.7959078932
  0
LINE
  5
39C
100
AcDbEntity
  8
ASSI
100
AcDbLine
 62
7
  6
CONTINUOUS
 10
21.1929190511
 20
13.9772163421
 11
3.9405904032
 21
22.6033806661
  0
LINE
  5
39D
100
AcDbEntity
  8
DRAFT
100
AcDbLine
 62
7
  6
CONTINUOUS
 10
18.1931111711
 20
15.4846209697
 11
19.7487460897
 21
14.7068035104
  0
LINE
  5
39E
100
AcDbEntity
  8
DRAFT
100
AcDbLine
 62
7
  6
CONTINUOUS
 10
11.8291501404
 20
18.666601485
 11
10.2735152218
 21
19.4444189443
  0
LINE
  5
39F
100
AcDbEntity
  8
0
100
AcDbLine
 62
7
  6
CONTINUOUS
 10
21.8488313524
 20
13.7105915011
 11
7.1339025902
 21
21.0680558822
  0
LINE
  5
3A0
100
AcDbEntity
  8
ASSI
100
AcDbLine
 62
7
  6
CONTINUOUS
 10
-6.2590896956
 20
27.9284456008
 11
0.4584246215
 21
24.5696884422
  0
LINE
  5
3A1
100
AcDbEntity
  8
DRAFT
100
AcDbLine
 62
7
  6
CONTINUOUS
 10
7.0825874589
 20
21.5329987468
 11
7.5731878891
 21
21.2876985317
  0
LINE
  5
3A2
100
AcDbEntity
  8
RACCORDO
100
AcDbLine
 62
7
  6
CONTINUOUS
 10
24.442032009
 20
12.8532764717
 11
24.7894681933
 21
12.6795583796
  0
LINE
  5
3A3
100
AcDbEntity
  8
ASSI
100
AcDbLine
 62
7
  6
CONTINUOUS
 10
5.8352641572
 20
22.3351679542
 11
6.5423709384
 21
21.9816145636
  0
LINE
  5
3A4
100
AcDbEntity
  8
DRAFT
100
AcDbLine
 62
7
  6
CONTINUOUS
 10
24.1937682318
 20
13.1954574181
 11
24.4435477878
 21
13.0705676401
  0
LINE
  5
3A5
100
AcDbEntity
  8
DRAFT
100
AcDbLine
 62
7
  6
CONTINUOUS
 10
22.5266584974
 20
14.0290122853
 11
7.7912369469
 21
21.3967230606
  0
LINE
  5
3A6
100
AcDbEntity
  8
ASSI
100
AcDbLine
 62
7
  6
CONTINUOUS
 10
2.4760898297
 20
25.5353872951
 11
-4.2414244877
 21
28.8941444538
  0
LINE
  5
3A7
100
AcDbEntity
  8
ASSI
100
AcDbLine
 62
7
  6
CONTINUOUS
 10
24.211739571
 20
11.9223607207
 11
24.211739571
 21
12.9119434327
  0
LINE
  5
3A8
100
AcDbEntity
  8
DRAFT
100
AcDbLine
 62
7
  6
CONTINUOUS
 10
24.442032009
 20
12.8532764717
 11
24.4435477878
 21
13.0705676401
  0
LINE
  5
3A9
100
AcDbEntity
  8
RACCORDO
100
AcDbLine
 62
253
  6
CONTINUOUS
 10
24.7942461787
 20
13.3644960782
 11
24.7894681933
 21
12.6795583796
  0
LINE
  5
3AA
100
AcDbEntity
  8
RACCORDO
100
AcDbLine
 62
253
  6
CONTINUOUS
 10
25.5074560072
 20
13.3638227491
 11
25.5027044768
 21
12.6826774486
  0
LINE
  5
3AB
100
AcDbEntity
  8
PORTATASTO
100
AcDbLine
 62
253
  6
CONTINUOUS
 10
5.3074132853
 20
-31.9310427864
 11
5.8405201984
 21
-31.2922661571
  0
LINE
  5
3AC
100
AcDbEntity
  8
PORTATASTO
100
AcDbLine
 62
253
  6
CONTINUOUS
 10
5.5716503087
 20
-32.1631985468
 11
6.1047572218
 21
-31.5244219175
  0
LINE
  5
3AD
100
AcDbEntity
  8
PORTATASTO
100
AcDbLine
 62
7
  6
CONTINUOUS
 10
8.9487068948
 20
-26.189079432
 11
8.2892971075
 21
-26.6669832935
  0
LINE
  5
3AE
100
AcDbEntity
  8
ASSI
100
AcDbLine
 62
7
  6
CONTINUOUS
 10
8.582253413
 20
-26.4546647135
 11
8.247770941
 21
-26.6970791697
  0
LINE
  5
3AF
100
AcDbEntity
  8
ASSI
100
AcDbLine
 62
7
  6
CONTINUOUS
 10
11.6168682502
 20
-25.0943409639
 11
12.6371162864
 21
-24.3549214321
  0
LINE
  5
3B0
100
AcDbEntity
  8
PORTATASTO
100
AcDbLine
 62
7
  6
CONTINUOUS
 10
8.9857337391
 20
-25.8437689162
 11
7.5468349872
 21
-26.843940392
  0
LINE
  5
3B1
100
AcDbEntity
  8
ASSI
100
AcDbLine
 62
253
  6
CONTINUOUS
 10
8.9964038886
 20
-25.4371816145
 11
30.1988368811
 21
-14.2682164081
  0
LINE
  5
3B2
100
AcDbEntity
  8
PORTATASTO
100
AcDbLine
 62
7
  6
CONTINUOUS
 10
-9.8424380853
 20
24.3707758873
 11
-11.596475753
 21
24.2787336615
  0
LINE
  5
3B3
100
AcDbEntity
  8
RACCORDO
100
AcDbLine
 62
253
  6
CONTINUOUS
 10
23.7428394533
 20
15.1980952989
 11
7.0967037478
 21
23.5211631517
  0
LINE
  5
3B4
100
AcDbEntity
  8
ASSI
100
AcDbLine
 62
7
  6
CONTINUOUS
 10
0.031193345
 20
27.2541103482
 11
0.2282798019
 21
27.1555671197
  0
LINE
  5
3B5
100
AcDbEntity
  8
ASSI
100
AcDbLine
 62
7
  6
CONTINUOUS
 10
1.2889399737
 20
26.6252370338
 11
3.9139246909
 21
25.3127446752
  0
LINE
  5
3B6
100
AcDbEntity
  8
ASSI
100
AcDbLine
 62
7
  6
CONTINUOUS
 10
-2.0698172369
 20
28.3262511566
 11
3.9499255447
 21
25.3163797658
  0
LINE
  5
3B7
100
AcDbEntity
  8
RACCORDO
100
AcDbLine
 62
253
  6
CONTINUOUS
 10
7.4564140336
 20
24.1301863458
 11
15.9944212364
 21
19.8611827444
  0
LINE
  5
3B8
100
AcDbEntity
  8
RACCORDO
100
AcDbLine
 62
253
  6
CONTINUOUS
 10
16.4546550042
 20
19.6310658605
 11
24.1025497391
 21
15.8071184931
  0
LINE
  5
3B9
100
AcDbEntity
  8
ASSI
100
AcDbLine
 62
7
  6
CONTINUOUS
 10
-2.0698172369
 20
29.2759854474
 11
4.6476971843
 21
25.9172282368
  0
LINE
  5
3BA
100
AcDbEntity
  8
ASSI
100
AcDbLine
 62
7
  6
CONTINUOUS
 10
-2.0229181521
 20
29.955970492
 11
4.6945961657
 21
26.5972133331
  0
LINE
  5
3BB
100
AcDbEntity
  8
ASSI
100
AcDbLine
 62
7
  6
CONTINUOUS
 10
21.6928428987
 20
13.4736400828
 11
21.6182599328
 21
13.6022766707
  0
LINE
  5
3BC
100
AcDbEntity
  8
ASSI
100
AcDbLine
 62
253
  6
CONTINUOUS
 10
29.7846864055
 20
-15.2856995071
 11
29.7780289656
 21
-15.2905244525
  0
LINE
  5
3BD
100
AcDbEntity
  8
ASSI
100
AcDbLine
 62
7
  6
CONTINUOUS
 10
29.8598040854
 20
-15.2389382414
 11
29.85259656
 21
-15.2441623195
  0
LINE
  5
3BE
100
AcDbEntity
  8
ASSI
100
AcDbLine
 62
253
  6
CONTINUOUS
 10
29.7780289656
 20
-15.2905244525
 11
12.6371162864
 21
-24.3549214321
  0
LINE
  5
3BF
100
AcDbEntity
  8
ASSI
100
AcDbLine
 62
7
  6
CONTINUOUS
 10
29.7332410357
 20
-15.3184591465
 11
12.6154241841
 21
-24.3706426719
  0
LINE
  5
3C0
100
AcDbEntity
  8
ASSI
100
AcDbLine
 62
7
  6
CONTINUOUS
 10
11.6168682502
 20
-25.0943409639
 11
8.247770941
 21
-26.8759751186
  0
LINE
  5
3C1
100
AcDbEntity
  8
ASSI
100
AcDbLine
 62
253
  6
CONTINUOUS
 10
8.582253413
 20
-26.4546647135
 11
29.7846864055
 21
-15.2856995071
  0
LINE
  5
3C2
100
AcDbEntity
  8
PORTATASTO
100
AcDbLine
 62
253
  6
CONTINUOUS
 10
7.5468349872
 20
-29.7451401504
 11
8.247770941
 21
-29.3834629577
  0
LINE
  5
3C3
100
AcDbEntity
  8
PORTATASTO
100
AcDbLine
 62
7
  6
CONTINUOUS
 10
7.4181358333
 20
-30.0149431755
 11
8.1199605609
 21
-29.6528073829
  0
LINE
  5
3C4
100
AcDbEntity
  8
PORTATASTO
100
AcDbLine
 62
7
  6
CONTINUOUS
 10
12.6000741497
 20
-24.867017843
 11
8.247770941
 21
-27.102964922
  0
LINE
  5
3C5
100
AcDbEntity
  8
PORTATASTO
100
AcDbLine
 62
7
  6
CONTINUOUS
 10
13.5397740528
 20
-24.2605214996
 11
8.247770941
 21
-26.9668057319
  0
LINE
  5
3C6
100
AcDbEntity
  8
PORTATASTO
100
AcDbLine
 62
7
  6
CONTINUOUS
 10
8.247770941
 20
-26.6877463767
 11
8.2892971075
 21
-26.6669832935
  0
LINE
  5
3C7
100
AcDbEntity
  8
PORTATASTO
100
AcDbLine
 62
7
  6
CONTINUOUS
 10
8.247770941
 20
-26.5381605471
 11
8.9487068948
 21
-26.189079432
  0
LINE
  5
3C8
100
AcDbEntity
  8
0
100
AcDbLine
 62
7
  6
CONTINUOUS
 10
17.7291726363
 20
22.3692486736
 11
21.6182599328
 21
20.4247050253
  0
LINE
  5
3C9
100
AcDbEntity
  8
DRAFT
100
AcDbLine
 62
7
  6
CONTINUOUS
 10
22.4902554581
 20
20.8420612666
 11
18.6011681616
 21
22.7866049148
  0
LINE
  5
3CA
100
AcDbEntity
  8
RACCORDO
100
AcDbLine
 62
253
  6
CONTINUOUS
 10
28.7138958887
 20
18.0943801785
 11
12.149681471
 21
26.3764873874
  0
LINE
  5
3CB
100
AcDbEntity
  8
ASSI
100
AcDbLine
 62
253
  6
CONTINUOUS
 10
0.1945139443
 20
32.4463836833
 11
12.0846591017
 21
26.5013111046
  0
LINE
  5
3CC
100
AcDbEntity
  8
RACCORDO
100
AcDbLine
 62
7
  6
CONTINUOUS
 10
29.1487687525
 20
18.1167435165
 11
12.5845543516
 21
26.398850717
  0
LINE
  5
3CD
100
AcDbEntity
  8
ASSI
100
AcDbLine
 62
7
  6
CONTINUOUS
 10
0.6293868249
 20
32.4687470129
 11
12.5195319823
 21
26.5236744342
  0
LINE
  5
3CE
100
AcDbEntity
  8
ASSI
100
AcDbLine
 62
7
  6
CONTINUOUS
 10
23.6688695983
 20
14.5655852998
 11
23.7975890954
 21
14.3435770073
  0
LWPOLYLINE
  5
3CF
100
AcDbEntity
  8
RACCORDO
100
AcDbPolyline
 62
7
  6
CONTINUOUS
 90
11
 70
0
 10
30.4145262604
 20
16.0120417961
 10
30.39559016
 20
16.2815563457
 10
30.3492977129
 20
16.5283996667
 10
30.2753498031
 20
16.7759578727
 10
30.1744896765
 20
17.0199869745
 10
30.0508668446
 20
17.2506472643
 10
29.9061532158
 20
17.4662408016
 10
29.7407666929
 20
17.6649556429
 10
29.5606531446
 20
17.8394024695
 10
29.3687306924
 20
17.9872183361
 10
29.1482540013
 20
18.1169018875
  0
LINE
  5
3D0
100
AcDbEntity
  8
RACCORDO
100
AcDbLine
 62
253
  6
CONTINUOUS
 10
30.1380039594
 20
15.0826740125
 11
30.1339571749
 21
15.6586014352
  0
LINE
  5
3D1
100
AcDbEntity
  8
RACCORDO
100
AcDbLine
 62
7
  6
CONTINUOUS
 10
30.4186751346
 20
15.4319544277
 11
30.4145926876
 21
16.012957235
  0
LINE
  5
3D2
100
AcDbEntity
  8
ASSI
100
AcDbLine
 62
253
  6
CONTINUOUS
 10
30.1988368811
 20
14.9571430718
 11
30.1988368811
 21
-14.2682164081
  0
LINE
  5
3D3
100
AcDbEntity
  8
ASSI
100
AcDbLine
 62
7
  6
CONTINUOUS
 10
30.4794970808
 20
15.2992654063
 11
30.4794970808
 21
-13.9208872345
  0
LWPOLYLINE
  5
3D4
100
AcDbEntity
  8
ASSI
100
AcDbPolyline
 62
7
  6
CONTINUOUS
 90
15
 70
0
 10
29.8597998852
 20
-15.2389324764
 10
29.9388224275
 20
-15.177118238
 10
30.0133146872
 20
-15.1096849868
 10
30.0834490451
 20
-15.0364064727
 10
30.1488448186
 20
-14.9575042885
 10
30.2092735305
 20
-14.8730540804
 10
30.2643736282
 20
-14.7832988593
 10
30.3137757266
 20
-14.6885616348
 10
30.357274531
 20
-14.5889346197
 10
30.3946005311
 20
-14.4846134115
 10
30.4254420528
 20
-14.3759360779
 10
30.4495811769
 20
-14.2630579824
 10
30.4667889805
 20
-14.1461113566
 10
30.4768067973
 20
-14.0253291082
 10
30.479494166
 20
-13.9209483677
  0
LINE
  5
3D5
100
AcDbEntity
  8
PORTATASTO
100
AcDbLine
 62
253
  6
CONTINUOUS
 10
5.5716503087
 20
-32.4131697562
 11
7.8827107083
 21
-31.2844205109
  0
LINE
  5
3D6
100
AcDbEntity
  8
PORTATASTO
100
AcDbLine
 62
7
  6
CONTINUOUS
 10
5.5055176654
 20
-32.5489581807
 11
7.8169535517
 21
-31.4200255433
  0
LINE
  5
3D7
100
AcDbEntity
  8
PORTATASTO
100
AcDbLine
 62
253
  6
CONTINUOUS
 10
6.4676609233
 20
-30.1979207404
 11
7.5468349872
 21
-29.744927303
  0
LINE
  5
3D8
100
AcDbEntity
  8
RACCORDO
100
AcDbLine
 62
253
  6
CONTINUOUS
 10
2.0702831831
 20
-32.1111156143
 11
5.4078369741
 21
-30.7101460996
  0
LINE
  5
3D9
100
AcDbEntity
  8
PORTATASTO
100
AcDbLine
 62
7
  6
CONTINUOUS
 10
6.3263531329
 20
-30.4738696753
 11
7.4045673606
 21
-30.0212791381
  0
ARC
  5
3DA
100
AcDbEntity
  8
RACCORDO
100
AcDbCircle
 62
253
  6
CONTINUOUS
 10
-2.3728328876
 20
-25.409106017
 40
1.5343224711
100
AcDbArc
 50
233.3436643267
 51
235.816493055
  0
ARC
  5
3DB
100
AcDbEntity
  8
RACCORDO
100
AcDbCircle
 62
253
  6
CONTINUOUS
 10
-3.7686397598
 20
-25.5229384637
 40
1.3961237142
100
AcDbArc
 50
55.2647571172
 51
60.6312752713
  0
ARC
  5
3DC
100
AcDbEntity
  8
RACCORDO
100
AcDbCircle
 62
253
  6
CONTINUOUS
 10
-3.6941923087
 20
-25.3931529247
 40
1.2465074816
100
AcDbArc
 50
60.687771329
 51
63.4185603729
  0
ARC
  5
3DD
100
AcDbEntity
  8
RACCORDO
100
AcDbCircle
 62
253
  6
CONTINUOUS
 10
-3.6534363391
 20
-25.311641597
 40
1.1553749139
100
AcDbArc
 50
63.4172812583
 51
66.2375415085
  0
ARC
  5
3DE
100
AcDbEntity
  8
RACCORDO
100
AcDbCircle
 62
253
  6
CONTINUOUS
 10
-2.8698176397
 20
-26.1289149228
 40
0.5777677375
100
AcDbArc
 50
322.8139353727
 51
326.9636820309
  0
ARC
  5
3DF
100
AcDbEntity
  8
RACCORDO
100
AcDbCircle
 62
253
  6
CONTINUOUS
 10
-3.4692038451
 20
-24.843340453
 40
0.4616652379
100
AcDbArc
 50
114.5616967377
 51
116.403449553
  0
ARC
  5
3E0
100
AcDbEntity
  8
ASSI
100
AcDbCircle
 62
7
  6
CONTINUOUS
 10
0.1821690185
 20
31.5744027486
 40
0.9999200733
100
AcDbArc
 50
63.4173555274
 51
115.2502436068
  0
ARC
  5
3E1
100
AcDbEntity
  8
ASSI
100
AcDbCircle
 62
253
  6
CONTINUOUS
 10
-0.0796629527
 20
32.1298480232
 40
0.3858145027
100
AcDbArc
 50
113.0672789419
 51
115.2684971883
  0
ARC
  5
3E2
100
AcDbEntity
  8
PORTATASTO
100
AcDbCircle
 62
7
  6
CONTINUOUS
 10
-9.1807583515
 20
16.6874387443
 40
0.251122737
100
AcDbArc
 50
179.9693959518
 51
188.7742829618
  0
ARC
  5
3E3
100
AcDbEntity
  8
PORTATASTO
100
AcDbCircle
 62
7
  6
CONTINUOUS
 10
-11.7440204333
 20
17.9690697852
 40
0.251122737
100
AcDbArc
 50
179.9693959518
 51
188.7742829618
  0
ARC
  5
3E4
100
AcDbEntity
  8
PORTATASTO
100
AcDbCircle
 62
7
  6
CONTINUOUS
 10
-25.0906609282
 20
24.6423900326
 40
0.251122737
100
AcDbArc
 50
179.9693959518
 51
188.7742829618
  0
ARC
  5
3E5
100
AcDbEntity
  8
PORTATASTO
100
AcDbCircle
 62
7
  6
CONTINUOUS
 10
-9.1819016992
 20
16.9372892327
 40
0.2499769874
100
AcDbArc
 50
117.0970053572
 51
179.9995093396
  0
ARC
  5
3E6
100
AcDbEntity
  8
PORTATASTO
100
AcDbCircle
 62
7
  6
CONTINUOUS
 10
-11.745163781
 20
18.2189202736
 40
0.2499769874
100
AcDbArc
 50
117.0970053572
 51
179.9995093396
  0
ARC
  5
3E7
100
AcDbEntity
  8
PORTATASTO
100
AcDbCircle
 62
7
  6
CONTINUOUS
 10
-25.0918042759
 20
24.892240521
 40
0.2499769874
100
AcDbArc
 50
117.0970053571
 51
179.9995093397
  0
ARC
  5
3E8
100
AcDbEntity
  8
PORTATASTO
100
AcDbCircle
 62
7
  6
CONTINUOUS
 10
-9.1821025886
 20
16.6871862568
 40
0.2497557206
100
AcDbArc
 50
188.7640789954
 51
243.4744576509
  0
ARC
  5
3E9
100
AcDbEntity
  8
PORTATASTO
100
AcDbCircle
 62
7
  6
CONTINUOUS
 10
-11.7453646704
 20
17.9688172977
 40
0.2497557206
100
AcDbArc
 50
188.7640789954
 51
243.4744576509
  0
ARC
  5
3EA
100
AcDbEntity
  8
PORTATASTO
100
AcDbCircle
 62
7
  6
CONTINUOUS
 10
-25.0920051653
 20
24.6421375451
 40
0.2497557206
100
AcDbArc
 50
188.7640789954
 51
243.4744576509
  0
ARC
  5
3EB
100
AcDbEntity
  8
PORTATASTO
100
AcDbCircle
 62
7
  6
CONTINUOUS
 10
-7.951430201
 20
16.0700146492
 40
0.2481429355
100
AcDbArc
 50
243.3741215853
 51
258.2653077363
  0
ARC
  5
3EC
100
AcDbEntity
  8
PORTATASTO
100
AcDbCircle
 62
7
  6
CONTINUOUS
 10
-10.5146922828
 20
17.3516456901
 40
0.2481429355
100
AcDbArc
 50
243.3741215853
 51
258.2653077364
  0
ARC
  5
3ED
100
AcDbEntity
  8
PORTATASTO
100
AcDbCircle
 62
7
  6
CONTINUOUS
 10
-23.8613327777
 20
24.0249659376
 40
0.2481429355
100
AcDbArc
 50
243.3741215853
 51
258.2653077363
  0
ARC
  5
3EE
100
AcDbEntity
  8
PORTATASTO
100
AcDbCircle
 62
253
  6
CONTINUOUS
 10
-24.997566452
 20
24.9204985817
 40
0.2104970702
100
AcDbArc
 50
116.8720017143
 51
119.4559622163
  0
ARC
  5
3EF
100
AcDbEntity
  8
PORTATASTO
100
AcDbCircle
 62
253
  6
CONTINUOUS
 10
-11.6509259571
 20
18.2471783342
 40
0.2104970702
100
AcDbArc
 50
116.8720017143
 51
119.4559622163
  0
ARC
  5
3F0
100
AcDbEntity
  8
PORTATASTO
100
AcDbCircle
 62
253
  6
CONTINUOUS
 10
-9.0876638753
 20
16.9655472933
 40
0.2104970702
100
AcDbArc
 50
116.8720017141
 51
119.4559622164
  0
ARC
  5
3F1
100
AcDbEntity
  8
PORTATASTO
100
AcDbCircle
 62
7
  6
CONTINUOUS
 10
-13.8848413488
 20
25.6806819542
 40
0.1841044728
100
AcDbArc
 50
102.5706574364
 51
105.761185649
  0
ARC
  5
3F2
100
AcDbEntity
  8
PORTATASTO
100
AcDbCircle
 62
7
  6
CONTINUOUS
 10
2.0250606472
 20
17.7257329436
 40
0.1841021229
100
AcDbArc
 50
102.5726476478
 51
105.7612042734
  0
ARC
  5
3F3
100
AcDbEntity
  8
PORTATASTO
100
AcDbCircle
 62
7
  6
CONTINUOUS
 10
-8.3000028773
 20
22.8894419171
 40
0.1828799528
100
AcDbArc
 50
103.1146715997
 51
106.3372471414
  0
ARC
  5
3F4
100
AcDbEntity
  8
PORTATASTO
100
AcDbCircle
 62
253
  6
CONTINUOUS
 10
-7.9709501285
 20
15.9754175268
 40
0.1515597703
100
AcDbArc
 50
258.2177840066
 51
260.7562600468
  0
ARC
  5
3F5
100
AcDbEntity
  8
PORTATASTO
100
AcDbCircle
 62
253
  6
CONTINUOUS
 10
-10.5342122103
 20
17.2570485677
 40
0.1515597703
100
AcDbArc
 50
258.2177840067
 51
260.7562600467
  0
ARC
  5
3F6
100
AcDbEntity
  8
PORTATASTO
100
AcDbCircle
 62
253
  6
CONTINUOUS
 10
-23.8808527052
 20
23.9303688151
 40
0.1515597702
100
AcDbArc
 50
258.2177840066
 51
260.756260047
  0
ARC
  5
3F7
100
AcDbEntity
  8
PORTATASTO
100
AcDbCircle
 62
253
  6
CONTINUOUS
 10
-9.2514011383
 20
16.5481928919
 40
0.0944861492
100
AcDbArc
 50
237.0569889239
 51
243.4163799976
  0
ARC
  5
3F8
100
AcDbEntity
  8
PORTATASTO
100
AcDbCircle
 62
253
  6
CONTINUOUS
 10
-11.8146632201
 20
17.8298239328
 40
0.0944861492
100
AcDbArc
 50
237.056988924
 51
243.4163799974
  0
ARC
  5
3F9
100
AcDbEntity
  8
PORTATASTO
100
AcDbCircle
 62
253
  6
CONTINUOUS
 10
-25.161303715
 20
24.5031441803
 40
0.0944861492
100
AcDbArc
 50
237.056988924
 51
243.4163799976
  0
ARC
  5
3FA
100
AcDbEntity
  8
PORTATASTO
100
AcDbCircle
 62
253
  6
CONTINUOUS
 10
-25.2787422622
 20
24.642241505
 40
0.0630380903
100
AcDbArc
 50
179.988571989
 51
188.728584815
  0
ARC
  5
3FB
100
AcDbEntity
  8
PORTATASTO
100
AcDbCircle
 62
253
  6
CONTINUOUS
 10
-11.9321017673
 20
17.9689212575
 40
0.0630380904
100
AcDbArc
 50
179.9885719891
 51
188.7285848149
  0
ARC
  5
3FC
100
AcDbEntity
  8
PORTATASTO
100
AcDbCircle
 62
253
  6
CONTINUOUS
 10
-9.3688396855
 20
16.6872902166
 40
0.0630380904
100
AcDbArc
 50
179.9885719893
 51
188.7285848147
  0
ARC
  5
3FD
100
AcDbEntity
  8
ASSI
100
AcDbCircle
 62
7
  6
CONTINUOUS
 10
-13.6552981129
 20
23.0320715749
 40
0.056032635
100
AcDbArc
 50
116.2321611049
 51
132.2630176055
  0
ARC
  5
3FE
100
AcDbEntity
  8
ASSI
100
AcDbCircle
 62
7
  6
CONTINUOUS
 10
29.2657994658
 20
-14.4345096806
 40
0.9999339801
100
AcDbArc
 50
297.8707592383
 51
305.9326427706
  0
ARC
  5
3FF
100
AcDbEntity
  8
ASSI
100
AcDbCircle
 62
253
  6
CONTINUOUS
 10
29.2882272277
 20
-14.6094839463
 40
0.839124727
100
AcDbArc
 50
310.7414115989
 51
319.8302040657
  0
ARC
  5
400
100
AcDbEntity
  8
ASSI
100
AcDbCircle
 62
253
  6
CONTINUOUS
 10
29.3255037152
 20
-14.6518339846
 40
0.7827095526
100
AcDbArc
 50
305.9201948796
 51
310.6972403124
  0
ARC
  5
401
100
AcDbEntity
  8
ASSI
100
AcDbCircle
 62
253
  6
CONTINUOUS
 10
29.4916253469
 20
-14.7325905432
 40
0.6259878946
100
AcDbArc
 50
304.1393612751
 51
305.9596871955
  0
ARC
  5
402
100
AcDbEntity
  8
ASSI
100
AcDbCircle
 62
253
  6
CONTINUOUS
 10
29.4849752349
 20
-14.7374226413
 40
0.6259780004
100
AcDbArc
 50
304.1333612492
 51
305.9576885297
  0
ARC
  5
403
100
AcDbEntity
  8
ASSI
100
AcDbCircle
 62
253
  6
CONTINUOUS
 10
29.4897491045
 20
-14.7447067075
 40
0.6172700292
100
AcDbArc
 50
297.8412847726
 51
304.1459617242
  0
ARC
  5
404
100
AcDbEntity
  8
ASSI
100
AcDbCircle
 62
253
  6
CONTINUOUS
 10
29.4964105268
 20
-14.7398905867
 40
0.6172603664
100
AcDbArc
 50
297.84134038
 51
304.1520099604
  0
ARC
  5
405
100
AcDbEntity
  8
ASSI
100
AcDbCircle
 62
253
  6
CONTINUOUS
 10
29.5600854644
 20
-14.9903461747
 40
0.3709533234
100
AcDbArc
 50
297.8220227543
 51
305.9814084304
  0
ARC
  5
406
100
AcDbEntity
  8
PORTATASTO
100
AcDbCircle
 62
253
  6
CONTINUOUS
 10
4.2711148032
 20
-31.5474815816
 40
0.2831338453
100
AcDbArc
 50
174.894673655
 51
179.9460604639
  0
ARC
  5
407
100
AcDbEntity
  8
PORTATASTO
100
AcDbCircle
 62
7
  6
CONTINUOUS
 10
4.1655703995
 20
-31.7086877589
 40
0.2508092215
100
AcDbArc
 50
180.0307956406
 51
197.0246620052
  0
ARC
  5
408
100
AcDbEntity
  8
PORTATASTO
100
AcDbCircle
 62
7
  6
CONTINUOUS
 10
4.1647577787
 20
-31.7087978948
 40
0.25
100
AcDbArc
 50
197.0550544844
 51
243.4349488229
  0
ARC
  5
409
100
AcDbEntity
  8
PORTATASTO
100
AcDbCircle
 62
7
  6
CONTINUOUS
 10
5.3958072716
 20
-32.3244192766
 40
0.2499052258
100
AcDbArc
 50
243.382551662
 51
296.0402758365
  0
ARC
  5
40A
100
AcDbEntity
  8
PORTATASTO
100
AcDbCircle
 62
7
  6
CONTINUOUS
 10
7.3309843509
 20
-29.8459939405
 40
0.1901016751
100
AcDbArc
 50
292.7780009071
 51
297.2833862395
  0
ARC
  5
40B
100
AcDbEntity
  8
PORTATASTO
100
AcDbCircle
 62
253
  6
CONTINUOUS
 10
4.0947299555
 20
-31.8487833629
 40
0.0934745844
100
AcDbArc
 50
235.9182391889
 51
243.4541859743
  0
ARC
  5
40C
100
AcDbEntity
  8
RACCORDO
100
AcDbCircle
 62
7
  6
CONTINUOUS
 10
17.4197060654
 20
22.1639764985
 40
2.7104975323
100
AcDbArc
 50
243.4840368711
 51
249.1389786296
  0
ARC
  5
40D
100
AcDbEntity
  8
ASSI
100
AcDbCircle
 62
7
  6
CONTINUOUS
 10
12.3474797591
 20
26.178558809
 40
0.3854617475
100
AcDbArc
 50
61.379328713
 51
63.4921496473
  0
ARC
  5
40E
100
AcDbEntity
  8
PORTATASTO
100
AcDbCircle
 62
7
  6
CONTINUOUS
 10
4.1658821434
 20
10.0141184968
 40
0.251122737
100
AcDbArc
 50
179.9693959518
 51
188.7742829618
  0
ARC
  5
40F
100
AcDbEntity
  8
PORTATASTO
100
AcDbCircle
 62
7
  6
CONTINUOUS
 10
4.1647387957
 20
10.2639689852
 40
0.2499769874
100
AcDbArc
 50
117.0970053572
 51
179.9995093396
  0
ARC
  5
410
100
AcDbEntity
  8
PORTATASTO
100
AcDbCircle
 62
7
  6
CONTINUOUS
 10
4.1645379063
 20
10.0138660093
 40
0.2497557206
100
AcDbArc
 50
188.7640789954
 51
243.4744576509
  0
ARC
  5
411
100
AcDbEntity
  8
PORTATASTO
100
AcDbCircle
 62
7
  6
CONTINUOUS
 10
5.3952102939
 20
9.3966944018
 40
0.2481429355
100
AcDbArc
 50
243.3741215853
 51
258.2653077363
  0
ARC
  5
412
100
AcDbEntity
  8
PORTATASTO
100
AcDbCircle
 62
253
  6
CONTINUOUS
 10
4.2589766196
 20
10.2922270459
 40
0.2104970702
100
AcDbArc
 50
116.872001714
 51
119.4559622165
  0
ARC
  5
413
100
AcDbEntity
  8
PORTATASTO
100
AcDbCircle
 62
7
  6
CONTINUOUS
 10
7.6098991078
 20
14.9344928639
 40
0.1828776414
100
AcDbArc
 50
103.1167328437
 51
106.337266258
  0
ARC
  5
414
100
AcDbEntity
  8
PORTATASTO
100
AcDbCircle
 62
253
  6
CONTINUOUS
 10
5.3756903664
 20
9.3020972793
 40
0.1515597703
100
AcDbArc
 50
258.2177840067
 51
260.7562600467
  0
ARC
  5
415
100
AcDbEntity
  8
PORTATASTO
100
AcDbCircle
 62
253
  6
CONTINUOUS
 10
4.0952393566
 20
9.8748726445
 40
0.0944861492
100
AcDbArc
 50
237.0569889239
 51
243.4163799975
  0
ARC
  5
416
100
AcDbEntity
  8
PORTATASTO
100
AcDbCircle
 62
253
  6
CONTINUOUS
 10
3.9778008094
 20
10.0139699692
 40
0.0630380904
100
AcDbArc
 50
179.9885719894
 51
188.7285848146
  0
ARC
  5
417
100
AcDbEntity
  8
ASSI
100
AcDbCircle
 62
7
  6
CONTINUOUS
 10
2.2546044638
 20
15.0771202865
 40
0.056032635
100
AcDbArc
 50
116.2321611049
 51
132.2630176055
  0
SPLINE
  5
418
100
AcDbEntity
  8
RACCORDO
100
AcDbSpline
 62
7
  6
CONTINUOUS
 70
0
 71
3
 72
11
 73
7
 74
5
 42
0.0000001
 43
0.0000001
 44
0.0000000001
 12
-0.5907207857
 22
-0.2953603929
 32
0.0
 13
-0.5907207857
 23
0.2953603928
 33
0.0
 40
0.0
 40
0.0
 40
0.0
 40
0.0
 40
0.2249271483
 40
0.4614838855
 40
0.7187250717
 40
1.0
 40
1.0
 40
1.0
 40
1.0
 10
-2.5799885936
 20
-26.6217522486
 30
0.0
 10
-2.6242783076
 20
-26.6438971056
 30
0.0
 10
-2.7214178646
 20
-26.6777778357
 30
0.0
 10
-2.8806559799
 20
-26.6909097167
 30
0.0
 10
-3.0506380374
 20
-26.6639648789
 30
0.0
 10
-3.161882985
 20
-26.6203329079
 30
0.0
 10
-3.2172679673
 20
-26.5926404167
 30
0.0
 11
-2.5799885936
 21
-26.6217522486
 31
0.0
 11
-2.7201826754
 21
-26.6708784177
 31
0.0
 11
-2.8758187631
 21
-26.6845216196
 31
0.0
 11
-3.0438023831
 21
-26.6591161567
 31
0.0
 11
-3.2172679673
 21
-26.5926404167
 31
0.0
  0
SPLINE
  5
419
100
AcDbEntity
  8
RACCORDO
100
AcDbSpline
 62
7
  6
CONTINUOUS
 70
0
 71
3
 72
20
 73
16
 74
14
 42
0.0000001
 43
0.0000001
 44
0.0000000001
 12
-2.3227793353
 22
1.1613896677
 32
0.0
 13
2.3227793355
 23
1.1613896677
 33
0.0
 40
0.0
 40
0.0
 40
0.0
 40
0.0
 40
0.0772142304
 40
0.1591838541
 40
0.2442804697
 40
0.330978447
 40
0.4182076026
 40
0.5045870306
 40
0.5888424665
 40
0.6698340028
 40
0.7463781174
 40
0.8173830623
 40
0.8819259711
 40
0.9423018996
 40
1.0
 40
1.0
 40
1.0
 40
1.0
 10
-3.2172679673
 20
-26.5926404167
 30
0.0
 10
-3.2770518402
 20
-26.5627484803
 30
0.0
 10
-3.394464988
 20
-26.4890269027
 30
0.0
 10
-3.5537931588
 20
-26.3488921771
 30
0.0
 10
-3.697288237
 20
-26.1816914353
 30
0.0
 10
-3.8208627801
 20
-25.9939207341
 30
0.0
 10
-3.9213910964
 20
-25.7916471922
 30
0.0
 10
-3.9961165243
 20
-25.5807097563
 30
0.0
 10
-4.0424492041
 20
-25.3672261005
 30
0.0
 10
-4.0580497456
 20
-25.1577320986
 30
0.0
 10
-4.0411556822
 20
-24.9596384041
 30
0.0
 10
-3.9916583304
 20
-24.7815546007
 30
0.0
 10
-3.9118467054
 20
-24.6302499326
 30
0.0
 10
-3.806195284
 20
-24.5105854606
 30
0.0
 10
-3.720335221
 20
-24.4527422899
 30
0.0
 10
-3.6756619026
 20
-24.4304056307
 30
0.0
 11
-3.2172679673
 21
-26.5926404167
 31
0.0
 11
-3.3877603811
 21
-26.4870890511
 31
0.0
 11
-3.5482640005
 21
-26.3472587046
 31
0.0
 11
-3.6926570117
 21
-26.1799630707
 31
0.0
 11
-3.8166815817
 21
-25.9920523937
 31
0.0
 11
-3.9174939743
 21
-25.7891917438
 31
0.0
 11
-3.9921120898
 21
-25.5776431099
 31
0.0
 11
-4.0379116831
 21
-25.3636832315
 31
0.0
 11
-4.0525720982
 21
-25.1538641156
 31
0.0
 11
-4.0344144327
 21
-24.9559142088
 31
0.0
 11
-3.9836789158
 21
-24.7786353286
 31
0.0
 11
-3.9044407192
 21
-24.6309332059
 31
0.0
 11
-3.8000574471
 21
-24.513936667
 31
0.0
 11
-3.6756619026
 21
-24.4304056307
 31
0.0
  0
SPLINE
  5
41A
100
AcDbEntity
  8
RACCORDO
100
AcDbSpline
 62
253
  6
CONTINUOUS
 70
0
 71
3
 72
10
 73
6
 74
4
 42
0.0000001
 43
0.0000001
 44
0.0000000001
 12
0.2011052251
 22
0.1005479501
 32
0.0
 13
0.136032931
 23
0.1791717409
 33
0.0
 40
0.0
 40
0.0
 40
0.0
 40
0.0
 40
0.2010035864
 40
0.6564923207
 40
1.0
 40
1.0
 40
1.0
 40
1.0
 10
-2.5799911755
 20
-26.6217471164
 30
0.0
 10
-2.566516885
 20
-26.6150102835
 30
0.0
 10
-2.5235825373
 20
-26.5908516132
 30
0.0
 10
-2.4646108838
 20
-26.5438492029
 30
0.0
 10
-2.4250995231
 20
-26.4986364669
 30
0.0
 10
-2.4095234043
 20
-26.4781208439
 30
0.0
 11
-2.5799911755
 21
-26.6217471164
 31
0.0
 11
-2.5406213647
 21
-26.5995886618
 31
0.0
 11
-2.460479278
 21
-26.536097082
 31
0.0
 11
-2.4095234043
 21
-26.4781208439
 31
0.0
  0
SPLINE
  5
41B
100
AcDbEntity
  8
RACCORDO
100
AcDbSpline
 62
253
  6
CONTINUOUS
 70
0
 71
3
 72
23
 73
19
 74
17
 42
0.0000001
 43
0.0000001
 44
0.0000000001
 12
1.262420508
 22
1.9397774798
 32
0.0
 13
-2.066092649
 23
1.0330463245
 33
0.0
 40
0.0
 40
0.0
 40
0.0
 40
0.0
 40
0.0608498581
 40
0.1316267222
 40
0.2109425188
 40
0.2965994544
 40
0.3867306444
 40
0.479123625
 40
0.5664669118
 40
0.6433320818
 40
0.7112150521
 40
0.7702576366
 40
0.8217665001
 40
0.8674582666
 40
0.908183727
 40
0.943958367
 40
0.9746424692
 40
1.0
 40
1.0
 40
1.0
 40
1.0
 10
-2.3854604029
 20
-26.4438968677
 30
0.0
 10
-2.3598543666
 20
-26.4045518062
 30
0.0
 10
-2.314624219
 20
-26.3130123382
 30
0.0
 10
-2.2726794522
 20
-26.155112575
 30
0.0
 10
-2.2569624162
 20
-25.9734848188
 30
0.0
 10
-2.269234389
 20
-25.7768137942
 30
0.0
 10
-2.3087414823
 20
-25.573604941
 30
0.0
 10
-2.3720321493
 20
-25.3752214032
 30
0.0
 10
-2.4517830075
 20
-25.1940840938
 30
0.0
 10
-2.5390174129
 20
-25.0378460019
 30
0.0
 10
-2.6269748838
 20
-24.9076881711
 30
0.0
 10
-2.7126807375
 20
-24.8001374647
 30
0.0
 10
-2.7944367601
 20
-24.7117409911
 30
0.0
 10
-2.8719159785
 20
-24.6389824308
 30
0.0
 10
-2.9448225902
 20
-24.5793959082
 30
0.0
 10
-3.0121420355
 20
-24.5315475298
 30
0.0
 10
-3.0723302134
 20
-24.4943741095
 30
0.0
 10
-3.1103615788
 20
-24.4739296547
 30
0.0
 10
-3.1278252482
 20
-24.46519782
 30
0.0
 11
-2.3854604029
 21
-26.4438968677
 31
0.0
 11
-2.3221080865
 21
-26.3184224239
 31
0.0
 11
-2.2787887718
 21
-26.1607740085
 31
0.0
 11
-2.2617619141
 21
-25.9783504421
 31
0.0
 11
-2.2731599821
 21
-25.780814761
 31
0.0
 11
-2.3122897569
 21
-25.5763253069
 31
0.0
 11
-2.3768389016
 21
-25.3728963978
 31
0.0
 11
-2.458062411
 21
-25.1882082809
 31
0.0
 11
-2.5446688365
 21
-25.0332072468
 31
0.0
 11
-2.6325590587
 21
-24.9033466846
 31
0.0
 11
-2.717653373
 21
-24.7967627736
 31
0.0
 11
-2.7985310491
 21
-24.709493784
 31
0.0
 11
-2.8755492145
 21
-24.637325855
 31
0.0
 11
-2.9484576386
 21
-24.5778756428
 31
0.0
 11
-3.0158679938
 21
-24.5300751026
 31
0.0
 11
-3.0762099944
 21
-24.4928905578
 31
0.0
 11
-3.1278252482
 21
-24.46519782
 31
0.0
  0
SPLINE
  5
41C
100
AcDbEntity
  8
RACCORDO
100
AcDbSpline
 62
253
  6
CONTINUOUS
 70
0
 71
3
 72
34
 73
30
 74
28
 42
0.0000001
 43
0.0000001
 44
0.0000000001
 12
-2.4019410392
 22
1.2009705196
 32
0.0
 13
2.4019410392
 23
-1.2009705196
 33
0.0
 40
0.0
 40
0.0
 40
0.0
 40
0.0
 40
0.0153048713
 40
0.0330120699
 40
0.0524794339
 40
0.0731906623
 40
0.0947523827
 40
0.1171265012
 40
0.1408256747
 40
0.1666059007
 40
0.195273232
 40
0.2277807781
 40
0.2655724096
 40
0.3102622079
 40
0.362242632
 40
0.4204942872
 40
0.4834030766
 40
0.5495979159
 40
0.617453887
 40
0.68160123
 40
0.7380531491
 40
0.7879082869
 40
0.8312708034
 40
0.8691003455
 40
0.9026576497
 40
0.9325675621
 40
0.958841453
 40
0.9813767194
 40
1.0
 40
1.0
 40
1.0
 40
1.0
 10
-3.2684709411
 20
-24.6906099097
 30
0.0
 10
-3.2807247406
 20
-24.68448301
 30
0.0
 10
-3.3074822939
 20
-24.6719084755
 30
0.0
 10
-3.3510884665
 20
-24.6543526527
 30
0.0
 10
-3.4004359629
 20
-24.6383820421
 30
0.0
 10
-3.4543299363
 20
-24.6258004094
 30
0.0
 10
-3.5118125727
 20
-24.6182382997
 30
0.0
 10
-3.5725025103
 20
-24.617277307
 30
0.0
 10
-3.6365936881
 20
-24.6249260532
 30
0.0
 10
-3.7041976781
 20
-24.6441967294
 30
0.0
 10
-3.7742755563
 20
-24.6792343607
 30
0.0
 10
-3.8440965725
 20
-24.7348842481
 30
0.0
 10
-3.9090752981
 20
-24.8157984974
 30
0.0
 10
-3.9627902966
 20
-24.9245100893
 30
0.0
 10
-3.9986033466
 20
-25.0593264143
 30
0.0
 10
-4.0120228786
 20
-25.2144019779
 30
0.0
 10
-4.0015450935
 20
-25.3823217272
 30
0.0
 10
-3.9678135309
 20
-25.5558235964
 30
0.0
 10
-3.9137753579
 20
-25.7252056286
 30
0.0
 10
-3.8456831381
 20
-25.8798625973
 30
0.0
 10
-3.7712014815
 20
-26.0132603878
 30
0.0
 10
-3.6961023961
 20
-26.124390523
 30
0.0
 10
-3.6229258315
 20
-26.2162184949
 30
0.0
 10
-3.553121653
 20
-26.2916923643
 30
0.0
 10
-3.4869690539
 20
-26.3538144107
 30
0.0
 10
-3.4247206064
 20
-26.4046900434
 30
0.0
 10
-3.3672425177
 20
-26.4455434992
 30
0.0
 10
-3.3158532122
 20
-26.4772826115
 30
0.0
 10
-3.2833816151
 20
-26.4947383256
 30
0.0
 10
-3.2684709411
 20
-26.5021936626
 30
0.0
 11
-3.2684709411
 21
-24.6906099097
 31
0.0
 11
-3.3056797281
 21
-24.6731526278
 31
0.0
 11
-3.3498079111
 21
-24.6554359771
 31
0.0
 11
-3.3995681446
 21
-24.639405441
 31
0.0
 11
-3.4537525491
 21
-24.6268545875
 31
0.0
 11
-3.5111763321
 21
-24.6194207586
 31
0.0
 11
-3.571255438
 21
-24.6186071185
 31
0.0
 11
-3.6344323373
 21
-24.6262953633
 31
0.0
 11
-3.700977663
 21
-24.6453932017
 31
0.0
 11
-3.7698318342
 21
-24.6798279573
 31
0.0
 11
-3.8382579193
 21
-24.7340378725
 31
0.0
 11
-3.9023096985
 21
-24.8127595524
 31
0.0
 11
-3.9564005339
 21
-24.9198909329
 31
0.0
 11
-3.9933871343
 21
-25.0544926275
 31
0.0
 11
-4.0079250091
 21
-25.2102476376
 31
0.0
 11
-3.9981933593
 21
-25.3789056272
 31
0.0
 11
-3.9647839896
 21
-25.553500914
 31
0.0
 11
-3.9096712768
 21
-25.7271907272
 31
0.0
 11
-3.8403217289
 21
-25.8848794398
 31
0.0
 11
-3.7663762206
 21
-26.0172210025
 31
0.0
 11
-3.6913345794
 21
-26.1280973355
 31
0.0
 11
-3.6186801386
 21
-26.2190998411
 31
0.0
 11
-3.5496259043
 21
-26.2936110535
 31
0.0
 11
-3.4838669606
 21
-26.355228815
 31
0.0
 11
-3.4216169586
 21
-26.4059880586
 31
0.0
 11
-3.3640612661
 21
-26.446800679
 31
0.0
 11
-3.312540609
 21
-26.4785492843
 31
0.0
 11
-3.2684709411
 21
-26.5021936626
 31
0.0
  0
SPLINE
  5
41D
100
AcDbEntity
  8
RACCORDO
100
AcDbSpline
 62
253
  6
CONTINUOUS
 70
0
 71
3
 72
16
 73
12
 74
10
 42
0.0000001
 43
0.0000001
 44
0.0000000001
 12
-0.4945792087
 22
0.2472896043
 32
0.0
 13
-0.5037117086
 23
-0.2302093051
 33
0.0
 40
0.0
 40
0.0
 40
0.0
 40
0.0
 40
0.087055165
 40
0.1877749486
 40
0.298506661
 40
0.4163135728
 40
0.5389581332
 40
0.666223682
 40
0.8010262457
 40
0.9476659849
 40
1.0
 40
1.0
 40
1.0
 40
1.0
 10
-3.1278252482
 20
-24.46519782
 30
0.0
 10
-3.1421771397
 20
-24.4580218743
 30
0.0
 10
-3.1735161086
 20
-24.4432943162
 30
0.0
 10
-3.2245885023
 20
-24.4227325421
 30
0.0
 10
-3.2823852674
 20
-24.4040274441
 30
0.0
 10
-3.3455069431
 20
-24.389291535
 30
0.0
 10
-3.4128317463
 20
-24.3804346334
 30
0.0
 10
-3.4839130046
 20
-24.3793090481
 30
0.0
 10
-3.5589778774
 20
-24.3882673326
 30
0.0
 10
-3.6184332027
 20
-24.4052150926
 30
0.0
 10
-3.6523184688
 20
-24.4194334391
 30
0.0
 10
-3.6611055542
 20
-24.4234493648
 30
0.0
 11
-3.1278252482
 21
-24.46519782
 31
0.0
 11
-3.1714049053
 21
-24.4447514907
 31
0.0
 11
-3.2230886963
 21
-24.424001361
 31
0.0
 11
-3.2813688577
 21
-24.4052260622
 31
0.0
 11
-3.3448306995
 21
-24.3905262169
 31
0.0
 11
-3.4120865663
 21
-24.3818195463
 31
0.0
 11
-3.4824524085
 21
-24.3808665469
 31
0.0
 11
-3.5564464639
 21
-24.3898710891
 31
0.0
 11
-3.6343857183
 21
-24.4122387224
 31
0.0
 11
-3.6611055542
 21
-24.4234493648
 31
0.0
  0
SPLINE
  5
41E
100
AcDbEntity
  8
RACCORDO
100
AcDbSpline
 62
253
  6
CONTINUOUS
 70
0
 71
3
 72
34
 73
30
 74
28
 42
0.0000001
 43
0.0000001
 44
0.0000000001
 12
2.4019409704
 22
-1.2009704852
 32
0.0
 13
-2.4019409704
 23
1.2009704852
 33
0.0
 40
0.0
 40
0.0
 40
0.0
 40
0.0
 40
0.0153048707
 40
0.0330120678
 40
0.0524794312
 40
0.0731906582
 40
0.0947523778
 40
0.1171264943
 40
0.1408256638
 40
0.1666058827
 40
0.195273205
 40
0.2277807419
 40
0.265572361
 40
0.3102621582
 40
0.3622425924
 40
0.4204942582
 40
0.4834030555
 40
0.5495978985
 40
0.6174538731
 40
0.6816012189
 40
0.7380531406
 40
0.7879082811
 40
0.8312707993
 40
0.8691003429
 40
0.9026576484
 40
0.9325675618
 40
0.9588414537
 40
0.9813767194
 40
1.0
 40
1.0
 40
1.0
 40
1.0
 10
-3.2684709411
 20
-26.5021936626
 30
0.0
 10
-3.2562171425
 20
-26.5083205619
 30
0.0
 10
-3.2294595928
 20
-26.5208950973
 30
0.0
 10
-3.1858534259
 20
-26.5384509246
 30
0.0
 10
-3.1365059341
 20
-26.5544215342
 30
0.0
 10
-3.082611966
 20
-26.5670031715
 30
0.0
 10
-3.025129335
 20
-26.5745652816
 30
0.0
 10
-2.9644394054
 20
-26.5755262786
 30
0.0
 10
-2.9003482407
 20
-26.5678775392
 30
0.0
 10
-2.8327442681
 20
-26.5486068742
 30
0.0
 10
-2.7626664117
 20
-26.5135692549
 30
0.0
 10
-2.6928454192
 20
-26.4579193847
 30
0.0
 10
-2.627866723
 20
-26.3770051415
 30
0.0
 10
-2.574151731
 20
-26.2682935567
 30
0.0
 10
-2.5383386417
 20
-26.1334772293
 30
0.0
 10
-2.5249190651
 20
-25.9784016483
 30
0.0
 10
-2.535396806
 20
-25.8104818797
 30
0.0
 10
-2.5691283632
 20
-25.6369800007
 30
0.0
 10
-2.623166509
 20
-25.467597955
 30
0.0
 10
-2.6912587519
 20
-25.3129409927
 30
0.0
 10
-2.7657404008
 20
-25.1795431947
 30
0.0
 10
-2.8408395012
 20
-25.0684130665
 30
0.0
 10
-2.9140160599
 20
-24.9765850879
 30
0.0
 10
-2.9838202389
 20
-24.9011112171
 30
0.0
 10
-3.0499728385
 20
-24.8389891704
 30
0.0
 10
-3.1122212841
 20
-24.7881135342
 30
0.0
 10
-3.169699374
 20
-24.7472600817
 30
0.0
 10
-3.2210886731
 20
-24.7155209619
 30
0.0
 10
-3.2535602676
 20
-24.6980652465
 30
0.0
 10
-3.2684709411
 20
-24.6906099097
 30
0.0
 11
-3.2684709411
 21
-26.5021936626
 31
0.0
 11
-3.2312621578
 21
-26.5196509456
 31
0.0
 11
-3.1871339815
 21
-26.5373675989
 31
0.0
 11
-3.1373737518
 21
-26.5533981363
 31
0.0
 11
-3.0831893534
 21
-26.5659489926
 31
0.0
 11
-3.0257655745
 21
-26.5733828234
 31
0.0
 11
-2.9656864759
 21
-26.5741964673
 31
0.0
 11
-2.9025095884
 21
-26.5665082289
 31
0.0
 11
-2.8359642816
 21
-26.5474104009
 31
0.0
 11
-2.7671101331
 21
-26.5129756585
 31
0.0
 11
-2.6986840713
 21
-26.4587657578
 31
0.0
 11
-2.6346323247
 21
-26.3800440981
 31
0.0
 11
-2.5805414919
 21
-26.2729127234
 31
0.0
 11
-2.5435548558
 21
-26.1383110149
 31
0.0
 11
-2.5290169363
 21
-25.9825559845
 31
0.0
 11
-2.538748548
 21
-25.8138979766
 31
0.0
 11
-2.5721579012
 21
-25.6393026814
 31
0.0
 11
-2.6272705988
 21
-25.4656128593
 31
0.0
 11
-2.6966201562
 21
-25.3079241479
 31
0.0
 11
-2.7705656656
 21
-25.1755825827
 31
0.0
 11
-2.8456073151
 21
-25.0647062512
 31
0.0
 11
-2.9182617537
 21
-24.9737037423
 31
0.0
 11
-2.9873159876
 21
-24.899192528
 31
0.0
 11
-3.0530749316
 21
-24.8375747653
 31
0.0
 11
-3.1153249325
 21
-24.78681552
 31
0.0
 11
-3.1728806254
 21
-24.746002899
 31
0.0
 11
-3.2244012761
 21
-24.7142542898
 31
0.0
 11
-3.2684709411
 21
-24.6906099097
 31
0.0
  0
SPLINE
  5
41F
100
AcDbEntity
  8
RACCORDO
100
AcDbSpline
 62
7
  6
CONTINUOUS
 70
0
 71
3
 72
10
 73
6
 74
4
 42
0.0000001
 43
0.0000001
 44
0.0000000001
 12
0.0052208833
 22
0.7353189252
 32
0.0
 13
0.6632798257
 23
0.3174603159
 33
0.0
 40
0.0
 40
0.0
 40
0.0
 40
0.0
 40
0.3356186143
 40
0.688073818
 40
1.0
 40
1.0
 40
1.0
 40
1.0
 10
7.0967037478
 20
23.5211631517
 30
0.0
 10
7.097287823
 20
23.6034253912
 30
0.0
 10
7.1358635848
 20
23.7722019962
 30
0.0
 10
7.2604373398
 20
23.986231718
 30
0.0
 10
7.3874492524
 20
24.0971782844
 30
0.0
 10
7.4564140336
 20
24.1301863458
 30
0.0
 11
7.0967037478
 21
23.5211631517
 31
0.0
 11
7.1461350285
 21
23.7629550112
 31
0.0
 11
7.2779388192
 21
23.9861111698
 31
0.0
 11
7.4564140336
 21
24.1301863458
 31
0.0
  0
SPLINE
  5
420
100
AcDbEntity
  8
RACCORDO
100
AcDbSpline
 62
7
  6
CONTINUOUS
 70
0
 71
3
 72
8
 73
4
 74
2
 42
0.0000001
 43
0.0000001
 44
0.0000000001
 12
0.3162972907
 22
0.1513868415
 32
0.0
 13
0.342677176
 23
-0.0832517125
 33
0.0
 40
0.0
 40
0.0
 40
0.0
 40
0.0
 40
1.0
 40
1.0
 40
1.0
 40
1.0
 10
12.149681471
 20
26.3764873874
 30
0.0
 10
12.2551139013
 20
26.4269496679
 30
0.0
 10
12.3819988489
 20
26.4578087475
 30
0.0
 10
12.4962245743
 20
26.4300581767
 30
0.0
 11
12.149681471
 21
26.3764873874
 31
0.0
 11
12.4962245743
 21
26.4300581767
 31
0.0
  0
SPLINE
  5
421
100
AcDbEntity
  8
RACCORDO
100
AcDbSpline
 62
7
  6
CONTINUOUS
 70
0
 71
3
 72
8
 73
4
 74
2
 42
0.0000001
 43
0.0000001
 44
0.0000000001
 12
0.0892595654
 22
-0.0216851667
 32
0.0
 13
0.0823867534
 23
-0.0433539137
 33
0.0
 40
0.0
 40
0.0
 40
0.0
 40
0.0
 40
1.0
 40
1.0
 40
1.0
 40
1.0
 10
12.4962245743
 20
26.4300581767
 30
0.0
 10
12.5259777627
 20
26.4228297878
 30
0.0
 10
12.5548720441
 20
26.4116248318
 30
0.0
 10
12.5823342952
 20
26.3971735273
 30
0.0
 11
12.4962245743
 21
26.4300581767
 31
0.0
 11
12.5823342952
 21
26.3971735273
 31
0.0
  0
SPLINE
  5
422
100
AcDbEntity
  8
RACCORDO
100
AcDbSpline
 62
7
  6
CONTINUOUS
 70
0
 71
3
 72
10
 73
6
 74
4
 42
0.0000001
 43
0.0000001
 44
0.0000000001
 12
-0.2214538587
 22
0.1107269294
 32
0.0
 13
-0.2071336106
 23
0.1356389759
 33
0.0
 40
0.0
 40
0.0
 40
0.0
 40
0.0
 40
0.3452819477
 40
0.6851431792
 40
1.0
 40
1.0
 40
1.0
 40
1.0
 10
16.209611082
 20
19.7385939002
 30
0.0
 10
16.1841230755
 20
19.7513379034
 30
0.0
 10
16.1339699675
 20
19.7774838859
 30
0.0
 10
16.0622046895
 20
19.8182780357
 30
0.0
 10
16.0163279915
 20
19.8468633197
 30
0.0
 10
15.9945888481
 20
19.8610989386
 30
0.0
 11
16.209611082
 21
19.7385939002
 31
0.0
 11
16.1338229769
 21
19.7781488745
 31
0.0
 11
16.0607091599
 21
19.8198037431
 31
0.0
 11
15.9945888481
 21
19.8610989386
 31
0.0
  0
SPLINE
  5
423
100
AcDbEntity
  8
RACCORDO
100
AcDbSpline
 62
7
  6
CONTINUOUS
 70
0
 71
3
 72
15
 73
11
 74
9
 42
0.0000001
 43
0.0000001
 44
0.0000000001
 12
5.1267252645
 22
-1.960363884
 32
0.0
 13
-4.909284143
 23
2.4546420715
 33
0.0
 40
0.0
 40
0.0
 40
0.0
 40
0.0
 40
0.1494935545
 40
0.3128344548
 40
0.4712671911
 40
0.6089421152
 40
0.7164073485
 40
0.7993245852
 40
0.8857479165
 40
1.0
 40
1.0
 40
1.0
 40
1.0
 10
16.4546550042
 20
19.6310658605
 30
0.0
 10
16.7101257985
 20
19.5333786055
 30
0.0
 10
17.2716920795
 20
19.3979824862
 30
0.0
 10
18.1363684659
 20
19.352709513
 30
0.0
 10
18.9765598383
 20
19.4571312186
 30
0.0
 10
19.6779744294
 20
19.7019942731
 30
0.0
 10
20.1838214227
 20
20.0559384101
 30
0.0
 10
20.3812987574
 20
20.5756323157
 30
0.0
 10
20.1112390904
 20
21.0727048895
 30
0.0
 10
19.7951682552
 20
21.2721380653
 30
0.0
 10
19.6082029413
 20
21.3656207222
 30
0.0
 11
16.4546550042
 21
19.6310658605
 31
0.0
 11
17.2496708756
 21
19.4280316197
 31
0.0
 11
18.144868548
 21
19.3790483475
 31
0.0
 11
19.006832383
 21
19.4940158171
 31
0.0
 11
19.7153193351
 21
19.7568321963
 31
0.0
 11
20.1714136132
 21
20.1308647557
 31
0.0
 11
20.3111698398
 21
20.5639869697
 31
0.0
 11
20.1145613756
 21
20.9956795678
 31
0.0
 11
19.6082029413
 21
21.3656207222
 31
0.0
  0
SPLINE
  5
424
100
AcDbEntity
  8
RACCORDO
100
AcDbSpline
 62
7
  6
CONTINUOUS
 70
0
 71
3
 72
15
 73
11
 74
9
 42
0.0000001
 43
0.0000001
 44
0.0000000001
 12
-4.9285587037
 22
2.4642793518
 32
0.0
 13
4.6098549163
 23
-3.0187085433
 33
0.0
 40
0.0
 40
0.0
 40
0.0
 40
0.0
 40
0.1429421771
 40
0.3034194646
 40
0.4649662476
 40
0.610808613
 40
0.7286268496
 40
0.8175356812
 40
0.8985153116
 40
1.0
 40
1.0
 40
1.0
 40
1.0
 10
19.6082029413
 20
21.3656207222
 30
0.0
 10
19.373369971
 20
21.4830372074
 30
0.0
 10
18.8364792741
 20
21.6554667519
 30
0.0
 10
17.9841311855
 20
21.7529451079
 30
0.0
 10
17.1216497235
 20
21.7001903894
 30
0.0
 10
16.3595846819
 20
21.5001328867
 30
0.0
 10
15.7859104947
 20
21.1865539829
 30
0.0
 10
15.4515211422
 20
20.7230592273
 30
0.0
 10
15.5676655742
 20
20.1870093951
 30
0.0
 10
15.8384780065
 20
19.9633003097
 30
0.0
 10
15.9944212364
 20
19.8611827444
 30
0.0
 11
19.6082029413
 21
21.3656207222
 31
0.0
 11
18.8632193025
 21
21.6213506043
 31
0.0
 11
17.9852683661
 21
21.7269377065
 31
0.0
 11
17.09704785
 21
21.6680476373
 31
0.0
 11
16.3226778648
 21
21.4531529315
 31
0.0
 11
15.7700857566
 21
21.1123891303
 31
0.0
 11
15.5162982846
 21
20.6933334792
 31
0.0
 11
15.596849312
 21
20.2544424015
 31
0.0
 11
15.9944212364
 21
19.8611827444
 31
0.0
  0
SPLINE
  5
425
100
AcDbEntity
  8
RACCORDO
100
AcDbSpline
 62
253
  6
CONTINUOUS
 70
0
 71
3
 72
12
 73
8
 74
6
 42
0.0000001
 43
0.0000001
 44
0.0000000001
 12
1.9717391672
 22
-0.9874203275
 32
0.0
 13
-0.0141477289
 23
-2.2051199714
 33
0.0
 40
0.0
 40
0.0
 40
0.0
 40
0.0
 40
0.1803413552
 40
0.3821673088
 40
0.5948185977
 40
0.8051056194
 40
1.0
 40
1.0
 40
1.0
 40
1.0
 10
23.7428394533
 20
15.1980952989
 30
0.0
 10
23.8613681578
 20
15.1387377256
 30
0.0
 10
24.0925884261
 20
14.9722098473
 30
0.0
 10
24.381166749
 20
14.6399794825
 30
0.0
 10
24.6102683247
 20
14.2385626469
 30
0.0
 10
24.7579333569
 20
13.8063534959
 30
0.0
 10
24.795165283
 20
13.5077512419
 30
0.0
 10
24.7942461787
 20
13.3644960782
 30
0.0
 11
23.7428394533
 21
15.1980952989
 31
0.0
 11
24.0693886059
 21
14.9711216692
 31
0.0
 11
24.3642735884
 21
14.6377736598
 31
0.0
 11
24.5974820509
 21
14.2309440455
 31
0.0
 11
24.7455564173
 21
13.7915034402
 31
0.0
 11
24.7942461787
 21
13.3644960782
 31
0.0
  0
SPLINE
  5
426
100
AcDbEntity
  8
RACCORDO
100
AcDbSpline
 62
253
  6
CONTINUOUS
 70
0
 71
3
 72
10
 73
6
 74
4
 42
0.0000001
 43
0.0000001
 44
0.0000000001
 12
-0.6632797627
 22
-0.3174602761
 32
0.0
 13
-0.005221179
 23
-0.735318849
 33
0.0
 40
0.0
 40
0.0
 40
0.0
 40
0.0
 40
0.3119563058
 40
0.6644177164
 40
1.0
 40
1.0
 40
1.0
 40
1.0
 10
24.1025497391
 20
15.8071184931
 30
0.0
 10
24.0335783043
 20
15.7741072481
 30
0.0
 10
23.9065613473
 20
15.6631511451
 30
0.0
 10
23.7819938684
 20
15.4491177998
 30
0.0
 10
23.7434234984
 20
15.2803486251
 30
0.0
 10
23.7428394533
 20
15.1980952989
 30
0.0
 11
24.1025497391
 21
15.8071184931
 31
0.0
 11
23.9240599892
 21
15.6630260948
 31
0.0
 11
23.7922609347
 21
15.4398618685
 31
0.0
 11
23.7428394533
 21
15.1980952989
 31
0.0
  0
SPLINE
  5
427
100
AcDbEntity
  8
RACCORDO
100
AcDbSpline
 62
253
  6
CONTINUOUS
 70
0
 71
3
 72
10
 73
6
 74
4
 42
0.0000001
 43
0.0000001
 44
0.0000000001
 12
-0.6526832112
 22
-0.330834709
 32
0.0
 13
-0.6545395001
 23
0.327146789
 33
0.0
 40
0.0
 40
0.0
 40
0.0
 40
0.0
 40
0.3196418303
 40
0.6771623112
 40
1.0
 40
1.0
 40
1.0
 40
1.0
 10
25.5074560072
 20
13.3638227491
 30
0.0
 10
25.4379143885
 20
13.3285732118
 30
0.0
 10
25.2741439058
 20
13.2870583523
 30
0.0
 10
25.0290366043
 20
13.2874329799
 30
0.0
 10
24.8646828519
 20
13.3292909738
 30
0.0
 10
24.7942461787
 20
13.3644960782
 30
0.0
 11
25.5074560072
 21
13.3638227491
 31
0.0
 11
25.282813052
 21
13.2986871813
 31
0.0
 11
25.0212002643
 21
13.2989341858
 31
0.0
 11
24.7942461787
 21
13.3644960782
 31
0.0
  0
SPLINE
  5
428
100
AcDbEntity
  8
RACCORDO
100
AcDbSpline
 62
253
  6
CONTINUOUS
 70
0
 71
3
 72
9
 73
5
 74
3
 42
0.0000001
 43
0.0000001
 44
0.0000000001
 12
0.3992589594
 22
0.191094159
 32
0.0
 13
0.3989616847
 23
-0.2107525974
 33
0.0
 40
0.0
 40
0.0
 40
0.0
 40
0.0
 40
0.7922108151
 40
1.0
 40
1.0
 40
1.0
 40
1.0
 10
28.7138958887
 20
18.0943801785
 30
0.0
 10
28.8193283106
 20
18.144842465
 30
0.0
 10
28.9794939398
 20
18.1837955802
 30
0.0
 10
29.119488659
 20
18.1293614493
 30
0.0
 10
29.1471219668
 20
18.1147640792
 30
0.0
 11
28.7138958887
 21
18.0943801785
 31
0.0
 11
29.0604389756
 21
18.1479509767
 31
0.0
 11
29.1471219668
 21
18.1147640792
 31
0.0
  0
SPLINE
  5
429
100
AcDbEntity
  8
RACCORDO
100
AcDbSpline
 62
253
  6
CONTINUOUS
 70
0
 71
3
 72
9
 73
5
 74
3
 42
0.0000001
 43
0.0000001
 44
0.0000000001
 12
0.4097009555
 22
0.2165873375
 32
0.0
 13
-0.0035331824
 23
0.4816050126
 33
0.0
 40
0.0
 40
0.0
 40
0.0
 40
0.0
 40
0.7283258496
 40
1.0
 40
1.0
 40
1.0
 40
1.0
 10
30.1339571749
 20
15.6586014352
 30
0.0
 10
30.2334224404
 20
15.7111834874
 30
0.0
 10
30.3784852466
 20
15.8079118765
 30
0.0
 10
30.4080869066
 20
15.9683785838
 30
0.0
 10
30.4077669485
 20
16.0119917947
 30
0.0
 11
30.1339571749
 21
15.6586014352
 31
0.0
 11
30.3834810721
 21
15.8858935951
 31
0.0
 11
30.4077669485
 21
16.0119917947
 31
0.0
  0
SPLINE
  5
42A
100
AcDbEntity
  8
RACCORDO
100
AcDbSpline
 62
253
  6
CONTINUOUS
 70
0
 71
3
 72
11
 73
7
 74
5
 42
0.0000001
 43
0.0000001
 44
0.0000000001
 12
0.0077347699
 22
2.409408718
 32
0.0
 13
-1.8095687253
 23
1.6050718497
 33
0.0
 40
0.0
 40
0.0
 40
0.0
 40
0.0
 40
0.238114527
 40
0.4942783729
 40
0.7534143414
 40
1.0
 40
1.0
 40
1.0
 40
1.0
 10
30.1339571749
 20
15.6586014352
 30
0.0
 10
30.1345710952
 20
15.849839841
 30
0.0
 10
30.0828385834
 20
16.2476782877
 30
0.0
 10
29.8823117756
 20
16.8222643266
 30
0.0
 10
29.5730591069
 20
17.3548706968
 30
0.0
 10
29.3025580248
 20
17.661366184
 30
0.0
 10
29.1538201261
 20
17.793295417
 30
0.0
 11
30.1339571749
 21
15.6586014352
 31
0.0
 11
30.0662026638
 21
16.2283047518
 31
0.0
 11
29.8653070014
 21
16.8119012732
 31
0.0
 11
29.550838876
 21
17.3512942623
 31
0.0
 11
29.1538201261
 21
17.793295417
 31
0.0
  0
SPLINE
  5
42B
100
AcDbEntity
  8
RACCORDO
100
AcDbSpline
 62
253
  6
CONTINUOUS
 70
0
 71
3
 72
8
 73
4
 74
2
 42
0.0000001
 43
0.0000001
 44
0.0000000001
 12
-0.400371563
 22
0.3551261227
 32
0.0
 13
-0.4783475644
 23
0.2353061324
 33
0.0
 40
0.0
 40
0.0
 40
0.0
 40
0.0
 40
1.0
 40
1.0
 40
1.0
 40
1.0
 10
29.1538201261
 20
17.793295417
 30
0.0
 10
29.0203629385
 20
17.9116707912
 30
0.0
 10
28.8733450768
 20
18.0159448011
 30
0.0
 10
28.7138958887
 20
18.0943801785
 30
0.0
 11
29.1538201261
 21
17.793295417
 31
0.0
 11
28.7138958887
 21
18.0943801785
 31
0.0
  0
SPLINE
  5
42C
100
AcDbEntity
  8
RACCORDO
100
AcDbSpline
 62
253
  6
CONTINUOUS
 70
0
 71
3
 72
12
 73
8
 74
6
 42
0.0000001
 43
0.0000001
 44
0.0000000001
 12
2.635284404
 22
-1.3074617412
 32
0.0
 13
-0.0248323596
 23
-2.941693976
 33
0.0
 40
0.0
 40
0.0
 40
0.0
 40
0.0
 40
0.181008121
 40
0.3826895657
 40
0.594747341
 40
0.8046697165
 40
1.0
 40
1.0
 40
1.0
 40
1.0
 10
24.1025497391
 20
15.8071184931
 30
0.0
 10
24.2615523652
 20
15.7282314287
 30
0.0
 10
24.5710718664
 20
15.5065537273
 30
0.0
 10
24.9569365878
 20
15.0641960546
 30
0.0
 10
25.2626739959
 20
14.529946279
 30
0.0
 10
25.4596393902
 20
13.9538799587
 30
0.0
 10
25.5090728445
 20
13.5553567218
 30
0.0
 10
25.5074560072
 20
13.3638227491
 30
0.0
 11
24.1025497391
 21
15.8071184931
 31
0.0
 11
24.540651785
 21
15.5044443552
 31
0.0
 11
24.9346164483
 21
15.0608182454
 31
0.0
 11
25.2454811551
 21
14.5199590842
 31
0.0
 11
25.4428637845
 21
13.9348032537
 31
0.0
 11
25.5074560072
 21
13.3638227491
 31
0.0
  0
SPLINE
  5
42D
100
AcDbEntity
  8
RACCORDO
100
AcDbSpline
 62
253
  6
CONTINUOUS
 70
0
 71
3
 72
14
 73
10
 74
8
 42
0.0000001
 43
0.0000001
 44
0.0000000001
 12
-1.2254166236
 22
-0.6691582615
 32
0.0
 13
-0.0471762433
 23
-1.3954186047
 33
0.0
 40
0.0
 40
0.0
 40
0.0
 40
0.0
 40
0.1288226721
 40
0.2684410091
 40
0.4155007224
 40
0.5662420845
 40
0.7166916817
 40
0.8626335767
 40
1.0
 40
1.0
 40
1.0
 40
1.0
 10
2.0702831831
 20
5.1394938649
 30
0.0
 10
2.0176627018
 20
5.1107596132
 30
0.0
 10
1.9139358043
 20
5.0397070277
 30
0.0
 10
1.7737355836
 20
4.9055373106
 30
0.0
 10
1.6478421934
 20
4.7447174509
 30
0.0
 10
1.5418961395
 20
4.564320049
 30
0.0
 10
1.4604727031
 20
4.3721445703
 30
0.0
 10
1.4071494377
 20
4.1768135894
 30
0.0
 10
1.3912560978
 20
4.0452702586
 30
0.0
 10
1.3890959538
 20
3.9813757043
 30
0.0
 11
2.0702831831
 21
5.1394938649
 31
0.0
 11
1.9211352966
 21
5.0389649714
 31
0.0
 11
1.779620192
 21
4.9048976771
 31
0.0
 11
1.6526385004
 21
4.7435444353
 31
0.0
 11
1.545920246
 21
4.5621394368
 31
0.0
 11
1.4641704362
 21
4.3686395171
 31
0.0
 11
1.4111197987
 21
4.1719001721
 31
0.0
 11
1.3890959538
 21
3.9813757043
 31
0.0
  0
SPLINE
  5
42E
100
AcDbEntity
  8
RACCORDO
100
AcDbSpline
 62
253
  6
CONTINUOUS
 70
0
 71
3
 72
10
 73
6
 74
4
 42
0.0000001
 43
0.0000001
 44
0.0000000001
 12
-1.1983745616
 22
-35.6138300658
 32
0.0
 13
1.2385765869
 23
-35.6124545853
 33
0.0
 40
0.0
 40
0.0
 40
0.0
 40
0.0
 40
0.3369874596
 40
0.6703466869
 40
1.0
 40
1.0
 40
1.0
 40
1.0
 10
0.6885126913
 20
4.0023975237
 30
0.0
 10
0.5539002916
 20
0.0019261497
 30
0.0
 10
0.3734474893
 20
-7.9591948933
 30
0.0
 10
0.3719576742
 20
-19.8381146554
 30
0.0
 10
0.5524123995
 20
-27.7121637634
 30
0.0
 10
0.6885126913
 20
-31.6254183109
 30
0.0
 11
0.6885126913
 21
4.0023975237
 31
0.0
 11
0.4178212804
 21
-8.0027576843
 31
0.0
 11
0.4178212803
 21
-19.8816758858
 31
0.0
 11
0.6885126913
 21
-31.6254183109
 31
0.0
  0
LINE
  5
42F
100
AcDbEntity
  8
RACCORDO
100
AcDbLine
 62
253
  6
CONTINUOUS
 10
-30.0389180751
 20
-16.2617029277
 11
-30.0449965454
 21
-16.0798729438
  0
SPLINE
  5
430
100
AcDbEntity
  8
RACCORDO
100
AcDbSpline
 62
253
  6
CONTINUOUS
 70
0
 71
3
 72
10
 73
6
 74
4
 42
0.0000001
 43
0.0000001
 44
0.0000000001
 12
-1.1781764272
 22
35.43209575
 32
0.0
 13
1.1507560826
 23
35.4329577346
 33
0.0
 40
0.0
 40
0.0
 40
0.0
 40
0.0
 40
0.3260803208
 40
0.6611541966
 40
1.0
 40
1.0
 40
1.0
 40
1.0
 10
-30.0449965454
 20
-16.0798729438
 30
0.0
 10
-30.1730565945
 20
-12.2286365603
 30
0.0
 10
-30.3446400094
 20
-4.4167432122
 30
0.0
 10
-30.3431579411
 20
7.4013273673
 30
0.0
 10
-30.1688943649
 20
15.3640098965
 30
0.0
 10
-30.0389180751
 20
19.3661129069
 30
0.0
 11
-30.0449965454
 21
-16.0798729438
 31
0.0
 11
-30.3003308604
 21
-4.5225998155
 31
0.0
 11
-30.3003308605
 21
7.3563183862
 31
0.0
 11
-30.0389180751
 21
19.3661129069
 31
0.0
  0
SPLINE
  5
431
100
AcDbEntity
  8
RACCORDO
100
AcDbSpline
 62
253
  6
CONTINUOUS
 70
0
 71
3
 72
21
 73
17
 74
15
 42
0.0000001
 43
0.0000001
 44
0.0000000001
 12
5.8939187289
 22
-2.9482957978
 32
0.0
 13
-5.8951200518
 23
2.9458930172
 33
0.0
 40
0.0
 40
0.0
 40
0.0
 40
0.0
 40
0.0741168086
 40
0.1553923119
 40
0.2409227707
 40
0.328585254
 40
0.4157420207
 40
0.4997977302
 40
0.5783818048
 40
0.6496291858
 40
0.712847194
 40
0.7691510077
 40
0.8216785888
 40
0.875024643
 40
0.9338328385
 40
1.0
 40
1.0
 40
1.0
 40
1.0
 10
-3.5336105207
 20
-23.4867157761
 30
0.0
 10
-3.3879977053
 20
-23.5595552012
 30
0.0
 10
-3.0994339654
 20
-23.7466425417
 30
0.0
 10
-2.7099986409
 20
-24.1079872792
 30
0.0
 10
-2.3594204563
 20
-24.545803757
 30
0.0
 10
-2.0644341151
 20
-25.0377086278
 30
0.0
 10
-1.8377097461
 20
-25.561071241
 30
0.0
 10
-1.6896989609
 20
-26.0914052017
 30
0.0
 10
-1.6275882502
 20
-26.6037219921
 30
0.0
 10
-1.6550151871
 20
-27.0739908455
 30
0.0
 10
-1.7725506731
 20
-27.4808212266
 30
0.0
 10
-1.9797565406
 20
-27.8048833962
 30
0.0
 10
-2.2724445983
 20
-28.0230350751
 30
0.0
 10
-2.631269452
 20
-28.1143657339
 30
0.0
 10
-3.027227396
 20
-28.0764090634
 30
0.0
 10
-3.2863682558
 20
-27.9772187227
 30
0.0
 10
-3.416389376
 20
-27.9122449297
 30
0.0
 11
-3.5336105207
 21
-23.4867157761
 31
0.0
 11
-3.1212320759
 21
-23.7484830067
 31
0.0
 11
-2.7263310227
 21
-24.1103446219
 31
0.0
 11
-2.3726914133
 21
-24.5492691474
 31
0.0
 11
-2.0751685493
 21
-25.0444789243
 31
0.0
 11
-1.8475623502
 21
-25.5718386964
 31
0.0
 11
-1.7006609038
 21
-26.1059489657
 31
0.0
 11
-1.6418911397
 21
-26.6204882615
 31
0.0
 11
-1.6744478238
 21
-27.0888926266
 31
0.0
 11
-1.7964794308
 21
-27.4872390872
 31
0.0
 11
-2.0017932969
 21
-27.7963131975
 31
0.0
 11
-2.2807183093
 21
-28.0013316967
 31
0.0
 11
-2.6204229473
 21
-28.0918633735
 31
0.0
 11
-3.0068208472
 21
-28.0619025034
 31
0.0
 11
-3.416389376
 21
-27.9122449297
 31
0.0
  0
SPLINE
  5
432
100
AcDbEntity
  8
RACCORDO
100
AcDbSpline
 62
253
  6
CONTINUOUS
 70
0
 71
3
 72
21
 73
17
 74
15
 42
0.0000001
 43
0.0000001
 44
0.0000000001
 12
-5.9027641806
 22
2.9527695051
 32
0.0
 13
5.9039645859
 23
-2.9503686024
 33
0.0
 40
0.0
 40
0.0
 40
0.0
 40
0.0
 40
0.0740454583
 40
0.155274511
 40
0.2407370215
 40
0.3282854185
 40
0.4152835944
 40
0.4991628302
 40
0.5775989367
 40
0.6487823015
 40
0.7120657447
 40
0.7685722203
 40
0.8213795189
 40
0.8749647494
 40
0.9338779131
 40
1.0
 40
1.0
 40
1.0
 40
1.0
 10
-3.416389376
 20
-27.9122449297
 30
0.0
 10
-3.5620803357
 20
-27.8393652059
 30
0.0
 10
-3.8510057418
 20
-27.6524580839
 30
0.0
 10
-4.2417083135
 20
-27.2919666382
 30
0.0
 10
-4.5941978285
 20
-26.8552768573
 30
0.0
 10
-4.8913412648
 20
-26.3645408455
 30
0.0
 10
-5.120037789
 20
-25.8421608316
 30
0.0
 10
-5.2694416277
 20
-25.3124257502
 30
0.0
 10
-5.3320698527
 20
-24.8001999494
 30
0.0
 10
-5.3041419228
 20
-24.3295128115
 30
0.0
 10
-5.1851477881
 20
-23.9219158945
 30
0.0
 10
-4.9759225364
 20
-23.5970438679
 30
0.0
 10
-4.6813465085
 20
-23.3780089518
 30
0.0
 10
-4.3208908759
 20
-23.2855183349
 30
0.0
 10
-3.923547793
 20
-23.3225582546
 30
0.0
 10
-3.6637380072
 20
-23.4216875997
 30
0.0
 10
-3.5336105207
 20
-23.4867157761
 30
0.0
 11
-3.416389376
 21
-27.9122449297
 31
0.0
 11
-3.8292423882
 21
-27.6507335929
 31
0.0
 11
-4.2254762909
 21
-27.2895906605
 31
0.0
 11
-4.5810209839
 21
-26.8516933794
 31
0.0
 11
-4.8806468995
 21
-26.3576175946
 31
0.0
 11
-5.1101434361
 21
-25.8312771151
 31
0.0
 11
-5.2583540249
 21
-25.2978727507
 31
0.0
 11
-5.3175924477
 21
-24.7835861618
 31
0.0
 11
-5.2845689066
 21
-24.3149300625
 31
0.0
 11
-5.1612296319
 21
-23.9158784923
 31
0.0
 11
-4.9540261111
 21
-23.6057854579
 31
0.0
 11
-4.672997574
 21
-23.3996327134
 31
0.0
 11
-4.3313863562
 21
-23.3080729861
 31
0.0
 11
-3.9436539739
 21
-23.3373142874
 31
0.0
 11
-3.5336105207
 21
-23.4867157761
 31
0.0
  0
SPLINE
  5
433
100
AcDbEntity
  8
RACCORDO
100
AcDbSpline
 62
253
  6
CONTINUOUS
 70
0
 71
3
 72
9
 73
5
 74
3
 42
0.0000001
 43
0.0000001
 44
0.0000000001
 12
-0.1318432193
 22
-0.0660201164
 32
0.0
 13
-0.103981949
 23
-0.1048482135
 33
0.0
 40
0.0
 40
0.0
 40
0.0
 40
0.0
 40
0.2936633245
 40
1.0
 40
1.0
 40
1.0
 40
1.0
 10
-3.4908055748
 20
-24.3100819787
 30
0.0
 10
-3.5037114141
 20
-24.3165445409
 30
0.0
 10
-3.5465726526
 20
-24.3406762835
 30
0.0
 10
-3.5848968974
 20
-24.3719280421
 30
0.0
 10
-3.6093789854
 20
-24.3966140882
 30
0.0
 11
-3.4908055748
 21
-24.3100819787
 31
0.0
 11
-3.5284936997
 21
-24.3313317734
 31
0.0
 11
-3.6093789854
 21
-24.3966140882
 31
0.0
  0
SPLINE
  5
434
100
AcDbEntity
  8
RACCORDO
100
AcDbSpline
 62
253
  6
CONTINUOUS
 70
0
 71
3
 72
9
 73
5
 74
3
 42
0.0000001
 43
0.0000001
 44
0.0000000001
 12
0.0088580874
 22
-0.2376757851
 32
0.0
 13
0.2132564342
 23
-0.1068093099
 33
0.0
 40
0.0
 40
0.0
 40
0.0
 40
0.0
 40
0.434070058
 40
1.0
 40
1.0
 40
1.0
 40
1.0
 10
-30.1853758412
 20
-16.0840662166
 30
0.0
 10
-30.1840941644
 20
-16.1184555305
 30
0.0
 10
-30.1478065173
 20
-16.1968644555
 30
0.0
 10
-30.0791474701
 20
-16.2415540625
 30
0.0
 10
-30.0389180696
 20
-16.2617029247
 30
0.0
 11
-30.1853758412
 21
-16.0840662166
 31
0.0
 11
-30.1464920861
 21
-16.1801721772
 31
0.0
 11
-30.0389180696
 21
-16.2617029247
 31
0.0
  0
SPLINE
  5
435
100
AcDbEntity
  8
RACCORDO
100
AcDbSpline
 62
253
  6
CONTINUOUS
 70
0
 71
3
 72
10
 73
6
 74
4
 42
0.0000001
 43
0.0000001
 44
0.0000000001
 12
-0.010502452
 22
-0.2352924485
 32
0.0
 13
0.2125559153
 23
-0.1060847754
 33
0.0
 40
0.0
 40
0.0
 40
0.0
 40
0.0
 40
0.0240212074
 40
0.4390717549
 40
1.0
 40
1.0
 40
1.0
 40
1.0
 10
-30.1853365994
 20
19.5409899266
 30
0.0
 10
-30.1854206932
 20
19.5391059237
 30
0.0
 10
-30.1859923359
 20
19.5046675196
 30
0.0
 10
-30.1455317163
 20
19.4272892549
 30
0.0
 10
-30.0786495657
 20
19.3859533368
 30
0.0
 10
-30.0389066935
 20
19.3661180211
 30
0.0
 11
-30.1853365994
 21
19.5409899266
 31
0.0
 11
-30.1854283579
 21
19.5353391258
 31
0.0
 11
-30.1464798831
 21
19.4447591655
 31
0.0
 11
-30.0389066935
 21
19.3661180211
 31
0.0
  0
SPLINE
  5
436
100
AcDbEntity
  8
RACCORDO
100
AcDbSpline
 62
253
  6
CONTINUOUS
 70
0
 71
3
 72
9
 73
5
 74
3
 42
0.0000001
 43
0.0000001
 44
0.0000000001
 12
0.2102123049
 22
0.1189985774
 32
0.0
 13
0.2160924771
 23
-0.1041117121
 33
0.0
 40
0.0
 40
0.0
 40
0.0
 40
0.0
 40
0.4148551632
 40
1.0
 40
1.0
 40
1.0
 40
1.0
 10
-29.2794356801
 20
21.1266228293
 30
0.0
 10
-29.2503664601
 20
21.143078554
 30
0.0
 10
-29.1679661047
 20
21.1631764031
 30
0.0
 10
-29.0885011576
 20
21.1382046884
 30
0.0
 10
-29.0463526918
 20
21.1178978781
 30
0.0
 11
-29.2794356801
 21
21.1266228293
 31
0.0
 11
-29.1825032322
 21
21.1519972584
 31
0.0
 11
-29.0463526918
 21
21.1178978781
 31
0.0
  0
SPLINE
  5
437
100
AcDbEntity
  8
RACCORDO
100
AcDbSpline
 62
253
  6
CONTINUOUS
 70
0
 71
3
 72
14
 73
10
 74
8
 42
0.0000001
 43
0.0000001
 44
0.0000000001
 12
0.0358440346
 22
-1.0277179032
 32
0.0
 13
0.9482752503
 23
0.3978227407
 33
0.0
 40
0.0
 40
0.0
 40
0.0
 40
0.0
 40
0.1659241419
 40
0.3164828463
 40
0.4532721691
 40
0.582019082
 40
0.7111845216
 40
0.8488697853
 40
1.0
 40
1.0
 40
1.0
 40
1.0
 10
1.3890959538
 20
-31.6108123144
 30
0.0
 10
1.3910784174
 20
-31.6676533848
 30
0.0
 10
1.4041128148
 20
-31.7761608537
 30
0.0
 10
1.4559306351
 20
-31.9241914378
 30
0.0
 10
1.5384085564
 20
-32.0431563752
 30
0.0
 10
1.6491035328
 20
-32.1254807547
 30
0.0
 10
1.7815900597
 20
-32.1649739456
 30
0.0
 10
1.9268110575
 20
-32.1604117226
 30
0.0
 10
2.022512169
 20
-32.1311566263
 30
0.0
 10
2.0702831831
 20
-32.1111156143
 30
0.0
 11
1.3890959538
 21
-31.6108123144
 31
0.0
 11
1.4111075885
 21
-31.7800134519
 31
0.0
 11
1.4641232981
 21
-31.9254796392
 31
0.0
 11
1.545797377
 21
-32.0400063019
 31
0.0
 11
1.6524856014
 21
-32.1184047249
 31
0.0
 11
1.7795202792
 21
-32.1571994326
 31
0.0
 11
1.921084542
 21
-32.1546262228
 31
0.0
 11
2.0702831831
 21
-32.1111156143
 31
0.0
  0
SPLINE
  5
438
100
AcDbEntity
  8
RACCORDO
100
AcDbSpline
 62
253
  6
CONTINUOUS
 70
0
 71
3
 72
10
 73
6
 74
4
 42
0.0000001
 43
0.0000001
 44
0.0000000001
 12
-1.1971961689
 22
-35.5782157754
 32
0.0
 13
1.2373577663
 23
-35.5768416555
 33
0.0
 40
0.0
 40
0.0
 40
0.0
 40
0.0
 40
0.3369872207
 40
0.670347162
 40
1.0
 40
1.0
 40
1.0
 40
1.0
 10
1.3890959538
 20
3.9813757043
 30
0.0
 10
1.2546160173
 20
-0.0150923129
 30
0.0
 10
1.0743402527
 20
-7.968257868
 30
0.0
 10
1.0728520388
 20
-19.8352988233
 30
0.0
 10
1.2531297874
 20
-27.701476708
 30
0.0
 10
1.3890959538
 20
-31.6108123144
 30
0.0
 11
1.3890959538
 21
3.9813757043
 31
0.0
 11
1.1186706618
 21
-8.0117658089
 31
0.0
 11
1.1186708039
 21
-19.8788305817
 31
0.0
 11
1.3890959538
 21
-31.6108123144
 31
0.0
  0
SPLINE
  5
439
100
AcDbEntity
  8
RACCORDO
100
AcDbSpline
 62
253
  6
CONTINUOUS
 70
0
 71
3
 72
11
 73
7
 74
5
 42
0.0000001
 43
0.0000001
 44
0.0000000001
 12
-0.7971950751
 22
0.3984718989
 32
0.0
 13
-0.030025245
 23
0.8870488988
 33
0.0
 40
0.0
 40
0.0
 40
0.0
 40
0.0
 40
0.2185385211
 40
0.4520414034
 40
0.7113041573
 40
1.0
 40
1.0
 40
1.0
 40
1.0
 10
-29.6545022501
 20
-17.0177577809
 30
0.0
 10
-29.712574861
 20
-16.9887306278
 30
0.0
 10
-29.8216712159
 20
-16.9067030866
 30
0.0
 10
-29.9416643104
 20
-16.7300047036
 30
0.0
 10
-30.0170804652
 20
-16.5092267088
 30
0.0
 10
-30.0360286873
 20
-16.3470653708
 30
0.0
 10
-30.0389180751
 20
-16.2617029277
 30
0.0
 11
-29.6545022501
 21
-17.0177577809
 31
0.0
 11
-29.8103843907
 21
-16.9023446533
 31
0.0
 11
-29.9293313015
 21
-16.7326302129
 31
0.0
 11
-30.0066435094
 21
-16.5158961804
 31
0.0
 11
-30.0389180751
 21
-16.2617029277
 31
0.0
  0
SPLINE
  5
43A
100
AcDbEntity
  8
RACCORDO
100
AcDbSpline
 62
253
  6
CONTINUOUS
 70
0
 71
3
 72
9
 73
5
 74
3
 42
0.0000001
 43
0.0000001
 44
0.0000000001
 12
0.1469591416
 22
0.0206208351
 32
0.0
 13
0.1331880172
 23
0.0656945821
 33
0.0
 40
0.0
 40
0.0
 40
0.0
 40
0.0
 40
0.0373461399
 40
1.0
 40
1.0
 40
1.0
 40
1.0
 10
-2.4708284866
 20
-26.5674292299
 30
0.0
 10
-2.4689990344
 20
-26.5671725271
 30
0.0
 10
-2.42004564
 20
-26.5600235021
 30
0.0
 10
-2.3720407642
 20
-26.5454351071
 30
0.0
 10
-2.3293027779
 20
-26.524354726
 30
0.0
 11
-2.4708284866
 21
-26.5674292299
 31
0.0
 11
-2.4653439167
 21
-26.5666281741
 31
0.0
 11
-2.3293027779
 21
-26.524354726
 31
0.0
  0
SPLINE
  5
43B
100
AcDbEntity
  8
RACCORDO
100
AcDbSpline
 62
253
  6
CONTINUOUS
 70
0
 71
3
 72
21
 73
17
 74
15
 42
0.0000001
 43
0.0000001
 44
0.0000000001
 12
-5.5321187592
 22
2.7672809929
 32
0.0
 13
5.5329840903
 23
-2.7655504183
 33
0.0
 40
0.0
 40
0.0
 40
0.0
 40
0.0
 40
0.0743623233
 40
0.1555934933
 40
0.2410355233
 40
0.3285434256
 40
0.4154833814
 40
0.4992913789
 40
0.5776495184
 40
0.6487563718
 40
0.7119750385
 40
0.7684360275
 40
0.8212117647
 40
0.8747699129
 40
0.9336520137
 40
1.0
 40
1.0
 40
1.0
 40
1.0
 10
-3.3866113024
 20
-27.7546527745
 30
0.0
 10
-3.5237383703
 20
-27.6860589599
 30
0.0
 10
-3.7950256646
 20
-27.5104224919
 30
0.0
 10
-4.1614977157
 20
-27.1720028757
 30
0.0
 10
-4.4916701356
 20
-26.7627477896
 30
0.0
 10
-4.7699466411
 20
-26.3029934782
 30
0.0
 10
-4.9840808666
 20
-25.8137139616
 30
0.0
 10
-5.1239328092
 20
-25.3176428941
 30
0.0
 10
-5.1825180735
 20
-24.8380407522
 30
0.0
 10
-5.1563174541
 20
-24.3973687332
 30
0.0
 10
-5.0448627212
 20
-24.0157551048
 30
0.0
 10
-4.8489289012
 20
-23.7115450948
 30
0.0
 10
-4.5730708535
 20
-23.506359668
 30
0.0
 10
-4.2354860412
 20
-23.4195606554
 30
0.0
 10
-3.8627329342
 20
-23.4540663226
 30
0.0
 10
-3.6188076397
 20
-23.5470456527
 30
0.0
 10
-3.4964401887
 20
-23.6082085532
 30
0.0
 11
-3.3866113024
 21
-27.7546527745
 31
0.0
 11
-3.7751184161
 21
-27.5083953484
 31
0.0
 11
-4.1463287425
 21
-27.1697568745
 31
0.0
 11
-4.4793534138
 21
-26.7593649578
 31
0.0
 11
-4.7599497334
 21
-26.2964789542
 31
0.0
 11
-4.9748256042
 21
-25.8034929478
 31
0.0
 11
-5.1135539271
 21
-25.3039935803
 31
0.0
 11
-5.1689615644
 21
-24.8224754434
 31
0.0
 11
-5.13799326
 21
-24.3837253781
 31
0.0
 11
-5.0224828701
 21
-24.0101266896
 31
0.0
 11
-4.8284470505
 21
-23.7197408419
 31
0.0
 11
-4.5652607985
 21
-23.5265988545
 31
0.0
 11
-4.2453033771
 21
-23.4406839533
 31
0.0
 11
-3.8820933298
 21
-23.4678379874
 31
0.0
 11
-3.4964401887
 21
-23.6082085532
 31
0.0
  0
SPLINE
  5
43C
100
AcDbEntity
  8
RACCORDO
100
AcDbSpline
 62
253
  6
CONTINUOUS
 70
0
 71
3
 72
21
 73
17
 74
15
 42
0.0000001
 43
0.0000001
 44
0.0000000001
 12
-3.1159099379
 22
1.3705501159
 32
0.0
 13
2.7302886668
 23
-2.0309562843
 33
0.0
 40
0.0
 40
0.0
 40
0.0
 40
0.0
 40
0.0339503013
 40
0.0855861942
 40
0.1385947361
 40
0.194624296
 40
0.2569189959
 40
0.3274603422
 40
0.4074307452
 40
0.497180687
 40
0.5950618065
 40
0.6981302279
 40
0.7967669262
 40
0.8837205547
 40
0.9575303491
 40
1.0
 40
1.0
 40
1.0
 40
1.0
 10
-3.1878829773
 20
-24.2542148813
 30
0.0
 10
-3.2231450045
 20
-24.2387046848
 30
0.0
 10
-3.3141273015
 20
-24.2042173956
 30
0.0
 10
-3.4689560058
 20
-24.1715498504
 30
0.0
 10
-3.6534779955
 20
-24.1790308956
 30
0.0
 10
-3.8383927403
 20
-24.2518747982
 30
0.0
 10
-3.9959465445
 20
-24.4048515511
 30
0.0
 10
-4.1004132713
 20
-24.6268353966
 30
0.0
 10
-4.1452682022
 20
-24.8980672759
 30
0.0
 10
-4.1303547302
 20
-25.2028784149
 30
0.0
 10
-4.0571755103
 20
-25.5256362743
 30
0.0
 10
-3.9320357203
 20
-25.8426685381
 30
0.0
 10
-3.7698848394
 20
-26.1280565175
 30
0.0
 10
-3.5916490822
 20
-26.3629529432
 30
0.0
 10
-3.4297133491
 20
-26.527687795
 30
0.0
 10
-3.3274962774
 20
-26.6112355075
 30
0.0
 10
-3.2888448086
 20
-26.6399868422
 30
0.0
 11
-3.1878829773
 21
-24.2542148813
 31
0.0
 11
-3.2960550246
 21
-24.2135962728
 31
0.0
 11
-3.4682198747
 21
-24.1790653255
 31
0.0
 11
-3.6482265292
 21
-24.1886467328
 31
0.0
 11
-3.8251291278
 21
-24.2594208403
 31
0.0
 11
-3.9790377219
 21
-24.4049830929
 31
0.0
 11
-4.0857270924
 21
-24.6198355655
 31
0.0
 11
-4.1343076849
 21
-24.8874094851
 31
0.0
 11
-4.1223933434
 21
-25.1923815576
 31
0.0
 11
-4.0505681682
 21
-25.5173954891
 31
0.0
 11
-3.9225989825
 21
-25.8436946115
 31
0.0
 11
-3.7567498159
 21
-26.1352491794
 31
0.0
 11
-3.5774589466
 21
-26.370388786
 31
0.0
 11
-3.4008872893
 21
-26.5487779006
 31
0.0
 11
-3.2888448086
 21
-26.6399868422
 31
0.0
  0
SPLINE
  5
43D
100
AcDbEntity
  8
RACCORDO
100
AcDbSpline
 62
253
  6
CONTINUOUS
 70
0
 71
3
 72
8
 73
4
 74
2
 42
0.0000001
 43
0.0000001
 44
0.0000000001
 12
0.146638225
 22
-0.0995479302
 32
0.0
 13
0.1583736038
 23
-0.0791871791
 33
0.0
 40
0.0
 40
0.0
 40
0.0
 40
0.0
 40
1.0
 40
1.0
 40
1.0
 40
1.0
 10
-3.2348847148
 20
-26.6783625287
 30
0.0
 10
-3.1860053064
 20
-26.7115451721
 30
0.0
 10
-3.1351160131
 20
-26.7418460753
 30
0.0
 10
-3.0823248118
 20
-26.7682418017
 30
0.0
 11
-3.2348847148
 21
-26.6783625287
 31
0.0
 11
-3.0823248118
 21
-26.7682418017
 31
0.0
  0
SPLINE
  5
43E
100
AcDbEntity
  8
RACCORDO
100
AcDbSpline
 62
253
  6
CONTINUOUS
 70
0
 71
3
 72
9
 73
5
 74
3
 42
0.0000001
 43
0.0000001
 44
0.0000000001
 12
0.578024598
 22
-0.2890932791
 32
0.0
 13
0.4852599056
 23
-0.4278651076
 33
0.0
 40
0.0
 40
0.0
 40
0.0
 40
0.0
 40
0.7113389818
 40
1.0
 40
1.0
 40
1.0
 40
1.0
 10
-3.4964401887
 20
-23.6082085532
 30
0.0
 10
-3.3593830457
 20
-23.6767563261
 30
0.0
 10
-3.1773118058
 20
-23.7949105609
 30
0.0
 10
-3.0111056297
 20
-23.9325435987
 30
0.0
 10
-2.9644137569
 20
-23.9737129246
 30
0.0
 11
-3.4964401887
 21
-23.6082085532
 31
0.0
 11
-3.1083820771
 21
-23.8547080878
 31
0.0
 11
-2.9644137569
 21
-23.9737129246
 31
0.0
  0
SPLINE
  5
43F
100
AcDbEntity
  8
RACCORDO
100
AcDbSpline
 62
253
  6
CONTINUOUS
 70
0
 71
3
 72
20
 73
16
 74
14
 42
0.0000001
 43
0.0000001
 44
0.0000000001
 12
4.1522104342
 22
-3.6611019041
 32
0.0
 13
-4.9467755251
 23
2.4720606456
 33
0.0
 40
0.0
 40
0.0
 40
0.0
 40
0.0
 40
0.0570418233
 40
0.1525449669
 40
0.2504071094
 40
0.3476845545
 40
0.4414839074
 40
0.5291646484
 40
0.6086529817
 40
0.6791868377
 40
0.7420200901
 40
0.8006514652
 40
0.8602008767
 40
0.9258481106
 40
1.0
 40
1.0
 40
1.0
 40
1.0
 10
-2.9644137569
 20
-23.9737129246
 30
0.0
 10
-2.8854638722
 20
-24.0433249006
 30
0.0
 10
-2.6841586733
 20
-24.2404960445
 30
0.0
 10
-2.3947763439
 20
-24.6021039564
 30
0.0
 10
-2.1185157144
 20
-25.062948563
 30
0.0
 10
-1.9062308165
 20
-25.5531499127
 30
0.0
 10
-1.7676825642
 20
-26.0497813461
 30
0.0
 10
-1.7095820413
 20
-26.5294688376
 30
0.0
 10
-1.7353136366
 20
-26.9697492911
 30
0.0
 10
-1.8454028862
 20
-27.3506453801
 30
0.0
 10
-2.0394457627
 20
-27.6540966521
 30
0.0
 10
-2.313534143
 20
-27.8584553022
 30
0.0
 10
-2.6495914388
 20
-27.9441631605
 30
0.0
 10
-3.0210494711
 20
-27.9088103108
 30
0.0
 10
-3.2643403852
 20
-27.8157554304
 30
0.0
 10
-3.3866113024
 20
-27.7546527745
 30
0.0
 11
-2.9644137569
 21
-23.9737129246
 31
0.0
 11
-2.7384120135
 21
-24.194015321
 31
0.0
 11
-2.407178352
 21
-24.605372972
 31
0.0
 11
-2.1285514624
 21
-25.0693209172
 31
0.0
 11
-1.9154465442
 21
-25.5632618426
 31
0.0
 11
-1.7779439853
 21
-26.0634221564
 31
0.0
 11
-1.7229751655
 21
-26.5451769094
 31
0.0
 11
-1.753506509
 21
-26.9836913608
 31
0.0
 11
-1.8677927869
 21
-27.3566299939
 31
0.0
 11
-2.0600589997
 21
-27.6460616488
 31
0.0
 11
-2.3212754779
 21
-27.838141511
 31
0.0
 11
-2.639442482
 21
-27.9230909979
 31
0.0
 11
-3.0014083702
 21
-27.8952660984
 31
0.0
 11
-3.3866113024
 21
-27.7546527745
 31
0.0
  0
SPLINE
  5
440
100
AcDbEntity
  8
RACCORDO
100
AcDbSpline
 62
253
  6
CONTINUOUS
 70
0
 71
3
 72
13
 73
9
 74
7
 42
0.0000001
 43
0.0000001
 44
0.0000000001
 12
0.9227047532
 22
-0.4613022678
 32
0.0
 13
0.4806808967
 23
0.9191070008
 33
0.0
 40
0.0
 40
0.0
 40
0.0
 40
0.0
 40
0.1574040993
 40
0.318179781
 40
0.4834399579
 40
0.6580377173
 40
0.8529727072
 40
1.0
 40
1.0
 40
1.0
 40
1.0
 10
-3.0823248118
 20
-26.7682418017
 30
0.0
 10
-3.0339123083
 20
-26.7924454243
 30
0.0
 10
-2.9325542491
 20
-26.8348734093
 30
0.0
 10
-2.7694957552
 20
-26.8721558403
 30
0.0
 10
-2.5953676066
 20
-26.8716464546
 30
0.0
 10
-2.4166405339
 20
-26.8148051894
 30
0.0
 10
-2.275493207
 20
-26.6998174732
 30
0.0
 10
-2.2099460809
 20
-26.600801581
 30
0.0
 10
-2.1863883439
 20
-26.5557569763
 30
0.0
 11
-3.0823248118
 21
-26.7682418017
 31
0.0
 11
-2.9321696575
 21
-26.8300455415
 31
0.0
 11
-2.7701736759
 21
-26.8656151688
 31
0.0
 11
-2.5997096134
 21
-26.8631965554
 31
0.0
 11
-2.4284655621
 21
-26.8073713193
 31
0.0
 11
-2.2714664138
 21
-26.6817135247
 31
0.0
 11
-2.1863883439
 21
-26.5557569763
 31
0.0
  0
SPLINE
  5
441
100
AcDbEntity
  8
RACCORDO
100
AcDbSpline
 62
253
  6
CONTINUOUS
 70
0
 71
3
 72
16
 73
12
 74
10
 42
0.0000001
 43
0.0000001
 44
0.0000000001
 12
1.1553490196
 22
2.2091357896
 32
0.0
 13
-2.0415738614
 23
1.4118211345
 33
0.0
 40
0.0
 40
0.0
 40
0.0
 40
0.0
 40
0.0326945411
 40
0.1390671241
 40
0.2589013802
 40
0.3904433115
 40
0.5303481929
 40
0.6704150741
 40
0.7983309739
 40
0.9081225725
 40
1.0
 40
1.0
 40
1.0
 40
1.0
 10
-2.1863883439
 20
-26.5557569763
 30
0.0
 10
-2.1737971419
 20
-26.531681416
 30
0.0
 10
-2.1258592456
 20
-26.4262709415
 30
0.0
 10
-2.0783751406
 20
-26.2152864028
 30
0.0
 10
-2.0793412581
 20
-25.9176424199
 30
0.0
 10
-2.1388883123
 20
-25.5982588669
 30
0.0
 10
-2.2529841932
 20
-25.2764980737
 30
0.0
 10
-2.4106140355
 20
-24.977217129
 30
0.0
 10
-2.5931597697
 20
-24.7227227958
 30
0.0
 10
-2.7806797253
 20
-24.5240001266
 30
0.0
 10
-2.9106243901
 20
-24.4188509288
 30
0.0
 10
-2.9731492416
 20
-24.3756127641
 30
0.0
 11
-2.1863883439
 21
-26.5557569763
 31
0.0
 11
-2.1524966978
 21
-26.4816799582
 31
0.0
 11
-2.0901533653
 21
-26.2254028003
 31
0.0
 11
-2.0878491607
 21
-25.9282823168
 31
0.0
 11
-2.1455884051
 21
-25.6072750967
 31
0.0
 11
-2.2605733173
 21
-25.2799918381
 31
0.0
 11
-2.4223934968
 21
-24.9726989273
 31
0.0
 11
-2.6078198444
 21
-24.7153809659
 31
0.0
 11
-2.7953782539
 21
-24.5180734322
 31
0.0
 11
-2.9731492416
 21
-24.3756127641
 31
0.0
  0
SPLINE
  5
442
100
AcDbEntity
  8
RACCORDO
100
AcDbSpline
 62
253
  6
CONTINUOUS
 70
0
 71
3
 72
11
 73
7
 74
5
 42
0.0000001
 43
0.0000001
 44
0.0000000001
 12
-0.0324678849
 22
0.7302925434
 32
0.0
 13
-0.6488722891
 23
0.3366691475
 33
0.0
 40
0.0
 40
0.0
 40
0.0
 40
0.0
 40
0.2445505036
 40
0.5100528154
 40
0.7700841567
 40
1.0
 40
1.0
 40
1.0
 40
1.0
 10
2.0702831831
 20
5.1394938649
 30
0.0
 10
2.0676365039
 20
5.1990250014
 30
0.0
 10
2.041845913
 20
5.3224258854
 30
0.0
 10
1.9620032412
 20
5.4937619775
 30
0.0
 10
1.8494861495
 20
5.6411677617
 30
0.0
 10
1.7541791181
 20
5.7166944547
 30
0.0
 10
1.7044504449
 20
5.7424963117
 30
0.0
 11
2.0702831831
 21
5.1394938649
 31
0.0
 11
2.0366773616
 21
5.3150766056
 31
0.0
 11
1.9553651243
 21
5.4913084185
 31
0.0
 11
1.8387097313
 21
5.6413897597
 31
0.0
 11
1.7044504449
 21
5.7424963117
 31
0.0
  0
SPLINE
  5
443
100
AcDbEntity
  8
RACCORDO
100
AcDbSpline
 62
253
  6
CONTINUOUS
 70
0
 71
3
 72
11
 73
7
 74
5
 42
0.0000001
 43
0.0000001
 44
0.0000000001
 12
-0.658769968
 22
-0.2854228722
 32
0.0
 13
-0.6419155517
 23
0.3215408392
 33
0.0
 40
0.0
 40
0.0
 40
0.0
 40
0.0
 40
0.2343153761
 40
0.4988556607
 40
0.7640090564
 40
1.0
 40
1.0
 40
1.0
 40
1.0
 10
1.3890959538
 20
3.9813757043
 30
0.0
 10
1.3376426429
 20
3.9590827151
 30
0.0
 10
1.2206882508
 20
3.928828296
 30
0.0
 10
1.0372990277
 20
3.9182330952
 30
0.0
 10
0.8544760331
 20
3.9398932872
 30
0.0
 10
0.7390081138
 20
3.9771039499
 30
0.0
 10
0.6885126949
 20
4.0023975253
 30
0.0
 11
1.3890959538
 21
3.9813757043
 31
0.0
 11
1.2271591032
 21
3.9358099102
 31
0.0
 11
1.0376132953
 21
3.9238111977
 31
0.0
 11
0.8486860305
 21
3.9471664369
 31
0.0
 11
0.6885126949
 21
4.0023975253
 31
0.0
  0
SPLINE
  5
444
100
AcDbEntity
  8
RACCORDO
100
AcDbSpline
 62
253
  6
CONTINUOUS
 70
0
 71
3
 72
11
 73
7
 74
5
 42
0.0000001
 43
0.0000001
 44
0.0000000001
 12
-0.6368017928
 22
-0.3390262775
 32
0.0
 13
-0.6454817978
 23
0.3221934028
 33
0.0
 40
0.0
 40
0.0
 40
0.0
 40
0.0
 40
0.2389250452
 40
0.5036645128
 40
0.7664279673
 40
1.0
 40
1.0
 40
1.0
 40
1.0
 10
1.3890959536
 20
-31.6108123143
 30
0.0
 10
1.3383799879
 20
-31.6378129372
 30
0.0
 10
1.2223191821
 20
-31.6776302172
 30
0.0
 10
1.0382257342
 20
-31.6995186968
 30
0.0
 10
0.854665661
 20
-31.6855667314
 30
0.0
 10
0.7387840821
 20
-31.6504946838
 30
0.0
 10
0.6885285835
 20
-31.6254095612
 30
0.0
 11
1.3890959536
 21
-31.6108123143
 31
0.0
 11
1.2271610324
 21
-31.669866244
 31
0.0
 11
1.0376197511
 21
-31.6933449293
 31
0.0
 11
0.8486977849
 21
-31.6777520251
 31
0.0
 11
0.6885285835
 21
-31.6254095612
 31
0.0
  0
SPLINE
  5
445
100
AcDbEntity
  8
RACCORDO
100
AcDbSpline
 62
253
  6
CONTINUOUS
 70
0
 71
3
 72
14
 73
10
 74
8
 42
0.0000001
 43
0.0000001
 44
0.0000000001
 12
-1.8324305873
 22
-1.0115149358
 32
0.0
 13
-0.0701456785
 23
-2.0918995928
 33
0.0
 40
0.0
 40
0.0
 40
0.0
 40
0.0
 40
0.1290537037
 40
0.2684350574
 40
0.4152960705
 40
0.5658438901
 40
0.7161433655
 40
0.8620426486
 40
1.0
 40
1.0
 40
1.0
 40
1.0
 10
1.7044504431
 20
5.7424963107
 30
0.0
 10
1.625623125
 20
5.6989830611
 30
0.0
 10
1.4706736527
 20
5.5916651096
 30
0.0
 10
1.2615870455
 20
5.3896237711
 30
0.0
 10
1.0741552871
 20
5.1480976443
 30
0.0
 10
0.9164324606
 20
4.8774742211
 30
0.0
 10
0.7951571342
 20
4.5893577788
 30
0.0
 10
0.7155429687
 20
4.2961777744
 30
0.0
 10
0.6917383953
 20
4.0985951661
 30
0.0
 10
0.6885126913
 20
4.0023975237
 30
0.0
 11
1.7044504431
 21
5.7424963107
 31
0.0
 11
1.4812120319
 21
5.5904142524
 31
0.0
 11
1.2703990482
 21
5.3887521876
 31
0.0
 11
1.0813085166
 21
5.1464010004
 31
0.0
 11
0.9224340751
 21
4.8742761809
 31
0.0
 11
0.8006806626
 21
4.5842041314
 31
0.0
 11
0.7215493418
 21
4.289256555
 31
0.0
 11
0.6885126913
 21
4.0023975237
 31
0.0
  0
SPLINE
  5
446
100
AcDbEntity
  8
RACCORDO
100
AcDbSpline
 62
253
  6
CONTINUOUS
 70
0
 71
3
 72
14
 73
10
 74
8
 42
0.0000001
 43
0.0000001
 44
0.0000000001
 12
0.0625433232
 22
1.9101002023
 32
0.0
 13
1.5275912568
 23
1.1545697363
 33
0.0
 40
0.0
 40
0.0
 40
0.0
 40
0.0
 40
0.1512443902
 40
0.3112508134
 40
0.4759763763
 40
0.6407326911
 40
0.8010922829
 40
0.9528105403
 40
1.0
 40
1.0
 40
1.0
 40
1.0
 10
-30.0389180751
 20
19.3661129069
 30
0.0
 10
-30.0357649662
 20
19.4624102203
 30
0.0
 10
-30.0124950925
 20
19.6602464791
 30
0.0
 10
-29.9347560526
 20
19.9542020263
 30
0.0
 10
-29.8163397152
 20
20.2436017598
 30
0.0
 10
-29.6623358135
 20
20.5159542044
 30
0.0
 10
-29.4793281711
 20
20.7595777137
 30
0.0
 10
-29.3170582922
 20
20.922068534
 30
0.0
 10
-29.2179528973
 20
21.0015513957
 30
0.0
 10
-29.193924162
 20
21.0197125697
 30
0.0
 11
-30.0389180751
 21
19.3661129069
 31
0.0
 11
-30.0066413743
 21
19.6533519131
 31
0.0
 11
-29.9293304744
 21
19.9492096999
 31
0.0
 11
-29.8103783236
 21
20.2406823803
 31
0.0
 11
-29.6551589899
 21
20.5146347536
 31
0.0
 11
-29.4704190285
 21
20.7591612259
 31
0.0
 11
-29.2644555447
 21
20.9632480407
 31
0.0
 11
-29.193924162
 21
21.0197125697
 31
0.0
  0
SPLINE
  5
447
100
AcDbEntity
  8
RACCORDO
100
AcDbSpline
 62
253
  6
CONTINUOUS
 70
0
 71
3
 72
8
 73
4
 74
2
 42
0.0000001
 43
0.0000001
 44
0.0000000001
 12
0.1416248959
 22
0.1070416042
 32
0.0
 13
0.1534816812
 23
0.0885272679
 33
0.0
 40
0.0
 40
0.0
 40
0.0
 40
0.0
 40
1.0
 40
1.0
 40
1.0
 40
1.0
 10
-29.193924162
 20
21.0197125697
 30
0.0
 10
-29.1467158633
 20
21.0553931044
 30
0.0
 10
-29.0975132522
 20
21.0883887888
 30
0.0
 10
-29.0463526918
 20
21.1178978781
 30
0.0
 11
-29.193924162
 21
21.0197125697
 31
0.0
 11
-29.0463526918
 21
21.1178978781
 31
0.0
  0
SPLINE
  5
448
100
AcDbEntity
  8
RACCORDO
100
AcDbSpline
 62
253
  6
CONTINUOUS
 70
0
 71
3
 72
11
 73
7
 74
5
 42
0.0000001
 43
0.0000001
 44
0.0000000001
 12
0.0309761971
 22
-0.8943630422
 32
0.0
 13
0.8026507399
 23
-0.4038175529
 33
0.0
 40
0.0
 40
0.0
 40
0.0
 40
0.0
 40
0.2868564313
 40
0.5456383408
 40
0.7803090185
 40
1.0
 40
1.0
 40
1.0
 40
1.0
 10
0.6885126913
 20
-31.6254183109
 30
0.0
 10
0.6914745984
 20
-31.7109362411
 30
0.0
 10
0.7109704658
 20
-31.8737409001
 30
0.0
 10
0.7883869057
 20
-32.0955645325
 30
0.0
 10
0.9111667504
 20
-32.2731612041
 30
0.0
 10
1.0219389667
 20
-32.3557940271
 30
0.0
 10
1.080717343
 20
-32.3853657186
 30
0.0
 11
0.6885126913
 21
-31.6254183109
 31
0.0
 11
0.7215471946
 21
-31.8799915324
 31
0.0
 11
0.800679943
 21
-32.0976358351
 31
0.0
 11
0.9224276296
 21
-32.2687506634
 31
0.0
 11
1.080717343
 21
-32.3853657186
 31
0.0
  0
SPLINE
  5
449
100
AcDbEntity
  8
RACCORDO
100
AcDbSpline
 62
253
  6
CONTINUOUS
 70
0
 71
3
 72
10
 73
6
 74
4
 42
0.0000001
 43
0.0000001
 44
0.0000000001
 12
-0.0142726169
 22
-0.3348134469
 32
0.0
 13
-0.314637668
 23
-0.1294495942
 33
0.0
 40
0.0
 40
0.0
 40
0.0
 40
0.0
 40
0.4738277891
 40
0.8683389869
 40
1.0
 40
1.0
 40
1.0
 40
1.0
 10
2.0702831831
 20
-32.1111156143
 30
0.0
 10
2.0680289289
 20
-32.1639969194
 30
0.0
 10
2.0506774467
 20
-32.261616557
 30
0.0
 10
1.9826730914
 20
-32.3576892503
 30
0.0
 10
1.9301069804
 20
-32.3861988202
 30
0.0
 10
1.9162984757
 20
-32.3918799751
 30
0.0
 11
2.0702831831
 21
-32.1111156143
 31
0.0
 11
2.0366762251
 21
-32.2663064619
 31
0.0
 11
1.955362716
 21
-32.3705512049
 31
0.0
 11
1.9162984757
 21
-32.3918799751
 31
0.0
  0
SPLINE
  5
44A
100
AcDbEntity
  8
PORTATASTO
100
AcDbSpline
 62
7
  6
CONTINUOUS
 70
0
 71
3
 72
20
 73
16
 74
14
 42
0.0000001
 43
0.0000001
 44
0.0000000001
 12
0.3051531842
 22
-0.5540398213
 32
0.0
 13
-0.4901583853
 23
-0.3997791224
 33
0.0
 40
0.0
 40
0.0
 40
0.0
 40
0.0
 40
0.0911181569
 40
0.181904473
 40
0.271612961
 40
0.3595288084
 40
0.4449908887
 40
0.5274157126
 40
0.6063235543
 40
0.6813675186
 40
0.7523660745
 40
0.8193386577
 40
0.8825415849
 40
0.942496889
 40
1.0
 40
1.0
 40
1.0
 40
1.0
 10
-7.8214480004
 20
22.5085054353
 30
0.0
 10
-7.8121796685
 20
22.4916777395
 30
0.0
 10
-7.794859038
 20
22.4574168873
 30
0.0
 10
-7.7726685888
 20
22.4045747989
 30
0.0
 10
-7.7545291861
 20
22.3509160437
 30
0.0
 10
-7.7406813973
 20
22.2971490827
 30
0.0
 10
-7.731307391
 20
22.2439783353
 30
0.0
 10
-7.7265320237
 20
22.1920996698
 30
0.0
 10
-7.726421601
 20
22.1421894219
 30
0.0
 10
-7.7309848671
 20
22.0948960002
 30
0.0
 10
-7.7401760321
 20
22.0508320129
 30
0.0
 10
-7.7538964956
 20
22.0105711935
 30
0.0
 10
-7.7720041607
 20
21.9746432005
 30
0.0
 10
-7.794288474
 20
21.9435546248
 30
0.0
 10
-7.8120527897
 20
21.9260774691
 30
0.0
 10
-7.8214480004
 20
21.9184146214
 30
0.0
 11
-7.8214480004
 21
22.5085054353
 31
0.0
 11
-7.7954444999
 21
22.4570712263
 31
0.0
 11
-7.7732252191
 21
22.4041201792
 31
0.0
 11
-7.7550851451
 21
22.3503557365
 31
0.0
 11
-7.741265096
 21
22.2964920923
 31
0.0
 11
-7.7319485317
 21
22.2432447215
 31
0.0
 11
-7.7272591252
 21
22.1913208924
 31
0.0
 11
-7.7272591252
 21
22.1414102891
 31
0.0
 11
-7.7319485317
 21
22.0941758664
 31
0.0
 11
-7.741265096
 21
22.0502450599
 31
0.0
 11
-7.7550851451
 21
22.0102014649
 31
0.0
 11
-7.7732252191
 21
21.9745770962
 31
0.0
 11
-7.7954444999
 21
21.9438453299
 31
0.0
 11
-7.8214480004
 21
21.9184146214
 31
0.0
  0
SPLINE
  5
44B
100
AcDbEntity
  8
PORTATASTO
100
AcDbSpline
 62
7
  6
CONTINUOUS
 70
0
 71
3
 72
20
 73
16
 74
14
 42
0.0000001
 43
0.0000001
 44
0.0000000001
 12
0.3051531842
 22
-0.5540398213
 32
0.0
 13
-0.4901583853
 23
-0.3997791224
 33
0.0
 40
0.0
 40
0.0
 40
0.0
 40
0.0
 40
0.0911181569
 40
0.181904473
 40
0.271612961
 40
0.3595288084
 40
0.4449908887
 40
0.5274157126
 40
0.6063235543
 40
0.6813675186
 40
0.7523660745
 40
0.8193386577
 40
0.8825415849
 40
0.942496889
 40
1.0
 40
1.0
 40
1.0
 40
1.0
 10
8.0884545763
 20
14.553554147
 30
0.0
 10
8.0977229082
 20
14.5367264512
 30
0.0
 10
8.1150435387
 20
14.5024655989
 30
0.0
 10
8.1372339879
 20
14.4496235106
 30
0.0
 10
8.1553733906
 20
14.3959647554
 30
0.0
 10
8.1692211794
 20
14.3421977944
 30
0.0
 10
8.1785951857
 20
14.2890270469
 30
0.0
 10
8.183370553
 20
14.2371483815
 30
0.0
 10
8.1834809757
 20
14.1872381335
 30
0.0
 10
8.1789177096
 20
14.1399447118
 30
0.0
 10
8.1697265446
 20
14.0958807246
 30
0.0
 10
8.1560060811
 20
14.0556199052
 30
0.0
 10
8.137898416
 20
14.0196919121
 30
0.0
 10
8.1156141027
 20
13.9886033365
 30
0.0
 10
8.097849787
 20
13.9711261808
 30
0.0
 10
8.0884545763
 20
13.963463333
 30
0.0
 11
8.0884545763
 21
14.553554147
 31
0.0
 11
8.1144580768
 21
14.502119938
 31
0.0
 11
8.1366773576
 21
14.4491688909
 31
0.0
 11
8.1548174316
 21
14.3954044481
 31
0.0
 11
8.1686374807
 21
14.341540804
 31
0.0
 11
8.177954045
 21
14.2882934332
 31
0.0
 11
8.1826434515
 21
14.2363696041
 31
0.0
 11
8.1826434515
 21
14.1864590007
 31
0.0
 11
8.177954045
 21
14.1392245781
 31
0.0
 11
8.1686374807
 21
14.0952937716
 31
0.0
 11
8.1548174316
 21
14.0552501766
 31
0.0
 11
8.1366773576
 21
14.0196258078
 31
0.0
 11
8.1144580768
 21
13.9888940415
 31
0.0
 11
8.0884545763
 21
13.963463333
 31
0.0
  0
SPLINE
  5
44C
100
AcDbEntity
  8
PORTATASTO
100
AcDbSpline
 62
7
  6
CONTINUOUS
 70
0
 71
3
 72
10
 73
6
 74
4
 42
0.0000001
 43
0.0000001
 44
0.0000000001
 12
-0.0002858398
 22
0.0147980752
 32
0.0
 13
-0.0133354588
 23
0.0066656343
 33
0.0
 40
0.0
 40
0.0
 40
0.0
 40
0.0
 40
0.1580849988
 40
0.751616837
 40
1.0
 40
1.0
 40
1.0
 40
1.0
 10
8.2690163232
 20
14.8195582364
 30
0.0
 10
8.2690012608
 20
14.820338021
 30
0.0
 10
8.2686392498
 20
14.8240332148
 30
0.0
 10
8.2659692968
 20
14.8287759648
 30
0.0
 10
8.2624648692
 20
14.8310370273
 30
0.0
 10
8.2613607681
 20
14.8315889044
 30
0.0
 11
8.2690163232
 21
14.8195582364
 31
0.0
 11
8.2687762196
 21
14.8218866446
 31
0.0
 11
8.2644232657
 21
14.8295521592
 31
0.0
 11
8.2613607681
 21
14.8315889044
 31
0.0
  0
SPLINE
  5
44D
100
AcDbEntity
  8
PORTATASTO
100
AcDbSpline
 62
7
  6
CONTINUOUS
 70
0
 71
3
 72
10
 73
6
 74
4
 42
0.0000001
 43
0.0000001
 44
0.0000000001
 12
-0.0002978068
 22
0.0154479751
 32
0.0
 13
-0.013883246
 23
0.0069727755
 33
0.0
 40
0.0
 40
0.0
 40
0.0
 40
0.0
 40
0.1823378353
 40
0.7673064495
 40
1.0
 40
1.0
 40
1.0
 40
1.0
 10
2.6850685068
 20
17.6112275547
 30
0.0
 10
2.6850504063
 20
17.6121664714
 30
0.0
 10
2.6846217984
 20
17.6160934379
 30
0.0
 10
2.6816857932
 20
17.6209311606
 30
0.0
 10
2.678121465
 20
17.6232038266
 30
0.0
 10
2.6770446178
 20
17.6237446666
 30
0.0
 11
2.6850685068
 21
17.6112275547
 31
0.0
 11
2.6847436905
 21
17.614020692
 31
0.0
 11
2.6800559232
 21
17.6217739986
 31
0.0
 11
2.6770446178
 21
17.6237446666
 31
0.0
  0
SPLINE
  5
44E
100
AcDbEntity
  8
PORTATASTO
100
AcDbSpline
 62
7
  6
CONTINUOUS
 70
0
 71
3
 72
10
 73
6
 74
4
 42
0.0000001
 43
0.0000001
 44
0.0000000001
 12
-0.0002963318
 22
0.0154481948
 32
0.0
 13
-0.0138824024
 23
0.0069735658
 33
0.0
 40
0.0
 40
0.0
 40
0.0
 40
0.0
 40
0.1827878562
 40
0.7676876018
 40
1.0
 40
1.0
 40
1.0
 40
1.0
 10
-13.2248340711
 20
25.5661788482
 30
0.0
 10
-13.2248521264
 20
25.5671200957
 30
0.0
 10
-13.2252813953
 20
25.5710488823
 30
0.0
 10
-13.2282202383
 20
25.57588477
 30
0.0
 10
-13.2317828129
 20
25.5781558874
 30
0.0
 10
-13.232857831
 20
25.5786959027
 30
0.0
 11
-13.2248340711
 21
25.5661788482
 31
0.0
 11
-13.2251601142
 21
25.568978734
 31
0.0
 11
-13.2298511321
 21
25.576728816
 31
0.0
 11
-13.232857831
 21
25.5786959027
 31
0.0
  0
SPLINE
  5
44F
100
AcDbEntity
  8
PORTATASTO
100
AcDbSpline
 62
7
  6
CONTINUOUS
 70
0
 71
3
 72
10
 73
6
 74
4
 42
0.0000001
 43
0.0000001
 44
0.0000000001
 12
-0.0002844051
 22
0.0147980167
 32
0.0
 13
-0.0133345887
 23
0.0066663294
 33
0.0
 40
0.0
 40
0.0
 40
0.0
 40
0.0
 40
0.1585181274
 40
0.7519738068
 40
1.0
 40
1.0
 40
1.0
 40
1.0
 10
-7.640886189
 20
22.77450953
 30
0.0
 10
-7.6409012168
 20
22.775291448
 30
0.0
 10
-7.6412638209
 20
22.7789882365
 30
0.0
 10
-7.6439364457
 20
22.7837293845
 30
0.0
 10
-7.6474392317
 20
22.7859890248
 30
0.0
 10
-7.6485416742
 20
22.7865401662
 30
0.0
 11
-7.640886189
 21
22.77450953
 31
0.0
 11
-7.6411272879
 21
22.7768441875
 31
0.0
 11
-7.6454832726
 21
22.7845066769
 31
0.0
 11
-7.6485416742
 21
22.7865401662
 31
0.0
  0
SPLINE
  5
450
100
AcDbEntity
  8
PORTATASTO
100
AcDbSpline
 62
7
  6
CONTINUOUS
 70
0
 71
3
 72
10
 73
6
 74
4
 42
0.0000001
 43
0.0000001
 44
0.0000000001
 12
0.0898922838
 22
0.0209654167
 32
0.0
 13
0.0910398633
 23
-0.0151021978
 33
0.0
 40
0.0
 40
0.0
 40
0.0
 40
0.0
 40
0.2304243534
 40
0.5985719661
 40
1.0
 40
1.0
 40
1.0
 40
1.0
 10
-8.3414984673
 20
23.0675519761
 30
0.0
 10
-8.3345940102
 20
23.0691622903
 30
0.0
 10
-8.3164054344
 20
23.0723323981
 30
0.0
 10
-8.2855815003
 20
23.0735389613
 30
0.0
 10
-8.2619793844
 20
23.0710872189
 30
0.0
 10
-8.2497974
 20
23.0690664037
 30
0.0
 11
-8.3414984673
 21
23.0675519761
 31
0.0
 11
-8.3205515863
 21
23.071240242
 31
0.0
 11
-8.2866346197
 21
23.0727252454
 31
0.0
 11
-8.2497974
 21
23.0690664037
 31
0.0
  0
SPLINE
  5
451
100
AcDbEntity
  8
PORTATASTO
100
AcDbSpline
 62
7
  6
CONTINUOUS
 70
0
 71
3
 72
10
 73
6
 74
4
 42
0.0000001
 43
0.0000001
 44
0.0000000001
 12
0.117420726
 22
-0.0194784017
 32
0.0
 13
0.1064593044
 23
-0.0531555288
 33
0.0
 40
0.0
 40
0.0
 40
0.0
 40
0.0
 40
0.3445832191
 40
0.729550314
 40
1.0
 40
1.0
 40
1.0
 40
1.0
 10
-8.2497974
 20
23.0690664037
 30
0.0
 10
-8.2363103294
 20
23.0668290936
 30
0.0
 10
-8.2080913957
 20
23.0601668563
 30
0.0
 10
-8.1707414331
 20
23.0466324599
 30
0.0
 10
-8.147125152
 20
23.0357390064
 30
0.0
 10
-8.1375278569
 20
23.030947041
 30
0.0
 11
-8.2497974
 21
23.0690664037
 31
0.0
 11
-8.2098698934
 21
23.0598191275
 31
0.0
 11
-8.1667621187
 21
23.044384687
 31
0.0
 11
-8.1375278569
 21
23.030947041
 31
0.0
  0
SPLINE
  5
452
100
AcDbEntity
  8
PORTATASTO
100
AcDbSpline
 62
7
  6
CONTINUOUS
 70
0
 71
3
 72
10
 73
6
 74
4
 42
0.0000001
 43
0.0000001
 44
0.0000000001
 12
0.0899955823
 22
0.0200906067
 32
0.0
 13
0.0908695549
 23
-0.0155510525
 33
0.0
 40
0.0
 40
0.0
 40
0.0
 40
0.0
 40
0.2300987001
 40
0.5981370777
 40
1.0
 40
1.0
 40
1.0
 40
1.0
 10
-13.9249104763
 20
25.8603731391
 30
0.0
 10
-13.9180078541
 20
25.8619140799
 30
0.0
 10
-13.8998241891
 20
25.8649156988
 30
0.0
 10
-13.8690253425
 20
25.8658901803
 30
0.0
 10
-13.8454531088
 20
25.8633024784
 30
0.0
 10
-13.8332807405
 20
25.861219348
 30
0.0
 11
-13.9249104763
 21
25.8603731391
 31
0.0
 11
-13.9039823632
 21
25.8638655334
 31
0.0
 11
-13.8700990547
 21
25.8650944434
 31
0.0
 11
-13.8332807405
 21
25.861219348
 31
0.0
  0
SPLINE
  5
453
100
AcDbEntity
  8
PORTATASTO
100
AcDbSpline
 62
7
  6
CONTINUOUS
 70
0
 71
3
 72
10
 73
6
 74
4
 42
0.0000001
 43
0.0000001
 44
0.0000000001
 12
0.1165154175
 22
-0.0199399829
 32
0.0
 13
0.105730614
 23
-0.0527896616
 33
0.0
 40
0.0
 40
0.0
 40
0.0
 40
0.0
 40
0.347395902
 40
0.7356607663
 40
1.0
 40
1.0
 40
1.0
 40
1.0
 10
-13.8332807405
 20
25.861219348
 30
0.0
 10
-13.8197884143
 20
25.8589103252
 30
0.0
 10
-13.7915587561
 20
25.8521149746
 30
0.0
 10
-13.7545078337
 20
25.8385585437
 30
0.0
 10
-13.7311671174
 20
25.8277600329
 30
0.0
 10
-13.7218508676
 20
25.8231085733
 30
0.0
 11
-13.8332807405
 21
25.861219348
 31
0.0
 11
-13.7933439465
 21
25.8517839003
 31
0.0
 11
-13.7502132019
 21
25.8361877876
 31
0.0
 11
-13.7218508676
 21
25.8231085733
 31
0.0
  0
SPLINE
  5
454
100
AcDbEntity
  8
PORTATASTO
100
AcDbSpline
 62
7
  6
CONTINUOUS
 70
0
 71
3
 72
10
 73
6
 74
4
 42
0.0000001
 43
0.0000001
 44
0.0000000001
 12
0.0899685061
 22
0.0200878131
 32
0.0
 13
0.0908447123
 23
-0.0155365909
 33
0.0
 40
0.0
 40
0.0
 40
0.0
 40
0.0
 40
0.2300550887
 40
0.5980983412
 40
1.0
 40
1.0
 40
1.0
 40
1.0
 10
1.9849857896
 20
17.905420443
 30
0.0
 10
1.9918850271
 20
17.9069608776
 30
0.0
 10
2.0100619639
 20
17.909962499
 30
0.0
 10
2.0408516974
 20
17.9109396392
 30
0.0
 10
2.0644186509
 20
17.9083550952
 30
0.0
 10
2.0765888644
 20
17.9062737013
 30
0.0
 11
1.9849857896
 21
17.905420443
 31
0.0
 11
2.0059036
 21
17.9089123635
 31
0.0
 11
2.0397773435
 21
17.9101440896
 31
0.0
 11
2.0765888644
 21
17.9062737013
 31
0.0
  0
SPLINE
  5
455
100
AcDbEntity
  8
PORTATASTO
100
AcDbSpline
 62
7
  6
CONTINUOUS
 70
0
 71
3
 72
10
 73
6
 74
4
 42
0.0000001
 43
0.0000001
 44
0.0000000001
 12
0.1165513154
 22
-0.0199330271
 32
0.0
 13
0.105761137
 23
-0.0528051103
 33
0.0
 40
0.0
 40
0.0
 40
0.0
 40
0.0
 40
0.3473449085
 40
0.7354963154
 40
1.0
 40
1.0
 40
1.0
 40
1.0
 10
2.0765888644
 20
17.9062737013
 30
0.0
 10
2.0900833664
 20
17.9039658229
 30
0.0
 10
2.1183155257
 20
17.8971724967
 30
0.0
 10
2.1553780643
 20
17.8836145575
 30
0.0
 10
2.1787276546
 20
17.8728126588
 30
0.0
 10
2.1880523914
 20
17.8681569433
 30
0.0
 11
2.0765888644
 21
17.9062737013
 31
0.0
 11
2.1165321988
 21
17.8968405069
 31
0.0
 11
2.1596638444
 21
17.8812472882
 31
0.0
 11
2.1880523914
 21
17.8681569433
 31
0.0
  0
SPLINE
  5
456
100
AcDbEntity
  8
PORTATASTO
100
AcDbSpline
 62
7
  6
CONTINUOUS
 70
0
 71
3
 72
10
 73
6
 74
4
 42
0.0000001
 43
0.0000001
 44
0.0000000001
 12
0.0898648229
 22
0.0209623901
 32
0.0
 13
0.0910146125
 23
-0.0150874966
 33
0.0
 40
0.0
 40
0.0
 40
0.0
 40
0.0
 40
0.2303789229
 40
0.5985305945
 40
1.0
 40
1.0
 40
1.0
 40
1.0
 10
7.5683976347
 20
15.112599179
 30
0.0
 10
7.5752986218
 20
15.1142089432
 30
0.0
 10
7.5934802972
 20
15.1173790048
 30
0.0
 10
7.6242949615
 20
15.1185882653
 30
0.0
 10
7.6478917481
 20
15.1161397389
 30
0.0
 10
7.6600716089
 20
15.1141206828
 30
0.0
 11
7.5683976347
 21
15.112599179
 31
0.0
 11
7.5893339419
 21
15.1162868783
 31
0.0
 11
7.623241096
 21
15.1177747371
 31
0.0
 11
7.6600716089
 21
15.1141206828
 31
0.0
  0
SPLINE
  5
457
100
AcDbEntity
  8
PORTATASTO
100
AcDbSpline
 62
7
  6
CONTINUOUS
 70
0
 71
3
 72
10
 73
6
 74
4
 42
0.0000001
 43
0.0000001
 44
0.0000000001
 12
0.1174572269
 22
-0.01947089
 32
0.0
 13
0.1064903349
 23
-0.0531712325
 33
0.0
 40
0.0
 40
0.0
 40
0.0
 40
0.0
 40
0.3445296208
 40
0.7293768048
 40
1.0
 40
1.0
 40
1.0
 40
1.0
 10
7.6600716089
 20
15.1141206828
 30
0.0
 10
7.6735607735
 20
15.1118845834
 30
0.0
 10
7.7017818933
 20
15.1052245455
 30
0.0
 10
7.7391437113
 20
15.0916887713
 30
0.0
 10
7.7627691435
 20
15.0807918706
 30
0.0
 10
7.772375395
 20
15.0759954143
 30
0.0
 11
7.6600716089
 21
15.1141206828
 31
0.0
 11
7.7000054287
 21
15.1048758682
 31
0.0
 11
7.7431134405
 21
15.0894447341
 31
0.0
 11
7.772375395
 21
15.0759954143
 31
0.0
  0
SPLINE
  5
458
100
AcDbEntity
  8
PORTATASTO
100
AcDbSpline
 62
7
  6
CONTINUOUS
 70
0
 71
3
 72
9
 73
5
 74
3
 42
0.0000001
 43
0.0000001
 44
0.0000000001
 12
-0.0111224961
 22
-0.0399610998
 32
0.0
 13
0.0000215545
 23
-0.041498564
 33
0.0
 40
0.0
 40
0.0
 40
0.0
 40
0.0
 40
0.5896504735
 40
1.0
 40
1.0
 40
1.0
 40
1.0
 10
-19.8128225456
 20
22.8941701322
 30
0.0
 10
-19.815008674
 20
22.8863157717
 30
0.0
 10
-19.8171467553
 20
22.8725588509
 30
0.0
 10
-19.8176695701
 20
22.8587245409
 30
0.0
 10
-19.8176666218
 20
22.8530482356
 30
0.0
 11
-19.8128225456
 21
22.8941701322
 31
0.0
 11
-19.816968507
 21
22.8700653147
 31
0.0
 11
-19.8176666218
 21
22.8530482356
 31
0.0
  0
SPLINE
  5
459
100
AcDbEntity
  8
PORTATASTO
100
AcDbSpline
 62
7
  6
CONTINUOUS
 70
0
 71
3
 72
9
 73
5
 74
3
 42
0.0000001
 43
0.0000001
 44
0.0000000001
 12
-0.0111224961
 22
-0.0399610998
 32
0.0
 13
0.0000215545
 23
-0.041498564
 33
0.0
 40
0.0
 40
0.0
 40
0.0
 40
0.0
 40
0.5896504735
 40
1.0
 40
1.0
 40
1.0
 40
1.0
 10
-3.9029199689
 20
14.9392188438
 30
0.0
 10
-3.9051060973
 20
14.9313644834
 30
0.0
 10
-3.9072441786
 20
14.9176075626
 30
0.0
 10
-3.9077669934
 20
14.9037732526
 30
0.0
 10
-3.9077640451
 20
14.8980969472
 30
0.0
 11
-3.9029199689
 21
14.9392188438
 31
0.0
 11
-3.9070659303
 21
14.9151140264
 31
0.0
 11
-3.9077640451
 21
14.8980969472
 31
0.0
  0
SPLINE
  5
45A
100
AcDbEntity
  8
PORTATASTO
100
AcDbSpline
 62
253
  6
CONTINUOUS
 70
0
 71
3
 72
10
 73
6
 74
4
 42
0.0000001
 43
0.0000001
 44
0.0000000001
 12
0.0553703353
 22
-0.0090115078
 32
0.0
 13
0.055015019
 23
0.0109680039
 33
0.0
 40
0.0
 40
0.0
 40
0.0
 40
0.0
 40
0.1648709646
 40
0.6628780818
 40
1.0
 40
1.0
 40
1.0
 40
1.0
 10
5.3513446041
 20
9.1525056759
 30
0.0
 10
5.354387591
 20
9.1520104306
 30
0.0
 10
5.3666824001
 20
9.1503926045
 30
0.0
 10
5.3854609344
 20
9.1502385315
 30
0.0
 10
5.4009492757
 20
9.1524210103
 30
0.0
 10
5.4071315319
 20
9.1536535285
 30
0.0
 11
5.3513446041
 21
9.1525056759
 31
0.0
 11
5.3605129873
 21
9.1512994228
 31
0.0
 11
5.3884130797
 21
9.1510355923
 31
0.0
 11
5.4071315319
 21
9.1536535285
 31
0.0
  0
SPLINE
  5
45B
100
AcDbEntity
  8
PORTATASTO
100
AcDbSpline
 62
253
  6
CONTINUOUS
 70
0
 71
3
 72
15
 73
11
 74
9
 42
0.0000001
 43
0.0000001
 44
0.0000000001
 12
0.2318452025
 22
0.0462215434
 32
0.0
 13
0.0846118177
 23
0.220423937
 33
0.0
 40
0.0
 40
0.0
 40
0.0
 40
0.0
 40
0.0405029155
 40
0.1645058941
 40
0.2928246716
 40
0.4258615169
 40
0.563618024
 40
0.7057235882
 40
0.8515194656
 40
1.0
 40
1.0
 40
1.0
 40
1.0
 10
5.4071315319
 20
9.1536535285
 30
0.0
 10
5.4102616675
 20
9.1542775642
 30
0.0
 10
5.4229020622
 20
9.1571781155
 30
0.0
 10
5.4447289078
 20
9.1648913976
 30
0.0
 10
5.4714716072
 20
9.1794463614
 30
0.0
 10
5.4966374646
 20
9.198419939
 30
0.0
 10
5.5197322313
 20
9.2214156224
 30
0.0
 10
5.5403048055
 20
9.2479654718
 30
0.0
 10
5.557945988
 20
9.2775217316
 30
0.0
 10
5.5674625727
 20
9.2987011187
 30
0.0
 10
5.5716503087
 20
9.3096106733
 30
0.0
 11
5.4071315319
 21
9.1536535285
 31
0.0
 11
5.4164631062
 21
9.1557926993
 31
0.0
 11
5.4440938517
 21
9.1654742077
 31
0.0
 11
5.4707446147
 21
9.1798836531
 31
0.0
 11
5.4958744212
 21
9.1987284927
 31
0.0
 11
5.5189734998
 21
9.2216263944
 31
0.0
 11
5.5395719597
 21
9.2481110146
 31
0.0
 11
5.5572533048
 21
9.2776462256
 31
0.0
 11
5.5716503087
 21
9.3096106733
 31
0.0
  0
SPLINE
  5
45C
100
AcDbEntity
  8
PORTATASTO
100
AcDbSpline
 62
253
  6
CONTINUOUS
 70
0
 71
3
 72
13
 73
9
 74
7
 42
0.0000001
 43
0.0000001
 44
0.0000000001
 12
0.0000087569
 22
-0.1209332527
 32
0.0
 13
0.1077836379
 23
-0.0538918189
 33
0.0
 40
0.0
 40
0.0
 40
0.0
 40
0.0
 40
0.0763758374
 40
0.2284437537
 40
0.3927709664
 40
0.5746734429
 40
0.7768864614
 40
1.0
 40
1.0
 40
1.0
 40
1.0
 10
3.914762722
 20
10.2639537629
 30
0.0
 10
3.9147629449
 20
10.2608749701
 30
0.0
 10
3.9154348503
 20
10.2516658924
 30
0.0
 10
3.9200330306
 20
10.2363696499
 30
0.0
 10
3.9304947918
 20
10.2191002066
 30
0.0
 10
3.9456252501
 20
10.2029150547
 30
0.0
 10
3.9650731825
 20
10.1880487625
 30
0.0
 10
3.9799650871
 20
10.1795733945
 30
0.0
 10
3.9879810834
 20
10.1755653964
 30
0.0
 11
3.914762722
 21
10.2639537629
 31
0.0
 11
3.9154360556
 21
10.2547521356
 31
0.0
 11
3.9205683494
 21
10.237160449
 31
0.0
 11
3.9306400082
 21
10.2201106443
 31
0.0
 11
3.9454473331
 21
10.2039476434
 31
0.0
 11
3.9646908177
 21
10.1889984055
 31
0.0
 11
3.9879810834
 21
10.1755653964
 31
0.0
  0
SPLINE
  5
45D
100
AcDbEntity
  8
PORTATASTO
100
AcDbSpline
 62
253
  6
CONTINUOUS
 70
0
 71
3
 72
14
 73
10
 74
8
 42
0.0000001
 43
0.0000001
 44
0.0000000001
 12
-0.1238366788
 22
0.0802264474
 32
0.0
 13
-0.0
 23
0.1472939001
 33
0.0
 40
0.0
 40
0.0
 40
0.0
 40
0.0
 40
0.0334941419
 40
0.1725453018
 40
0.3179033921
 40
0.4721782052
 40
0.6369662921
 40
0.8129531068
 40
1.0
 40
1.0
 40
1.0
 40
1.0
 10
4.0438573553
 20
9.7955787461
 30
0.0
 10
4.0424747542
 20
9.7964744514
 30
0.0
 10
4.035472676
 20
9.8012737196
 30
0.0
 10
4.0238022769
 20
9.8118062148
 30
0.0
 10
4.0108868282
 20
9.8292000562
 30
0.0
 10
4.000682311
 20
9.8497080623
 30
0.0
 10
3.9933235306
 20
9.8729629489
 30
0.0
 10
3.9889040404
 20
9.8985663241
 30
0.0
 10
3.9879810834
 20
9.9164105649
 30
0.0
 10
3.9879810834
 20
9.925594187
 30
0.0
 11
4.0438573553
 21
9.7955787461
 31
0.0
 11
4.0397814617
 21
9.7983722671
 31
0.0
 11
4.0245279939
 21
9.8120404403
 31
0.0
 11
4.011676019
 21
9.8291644076
 31
0.0
 11
4.0014435279
 21
9.8494539231
 31
0.0
 11
3.9940072933
 21
9.8725590306
 31
0.0
 11
3.9894940819
 21
9.8980848963
 31
0.0
 11
3.9879810834
 21
9.925594187
 31
0.0
  0
SPLINE
  5
45E
100
AcDbEntity
  8
PORTATASTO
100
AcDbSpline
 62
253
  6
CONTINUOUS
 70
0
 71
3
 72
10
 73
6
 74
4
 42
0.0000001
 43
0.0000001
 44
0.0000000001
 12
0.0553703353
 22
-0.0090115078
 32
0.0
 13
0.055015019
 23
0.0109680039
 33
0.0
 40
0.0
 40
0.0
 40
0.0
 40
0.0
 40
0.1648709646
 40
0.6628780818
 40
1.0
 40
1.0
 40
1.0
 40
1.0
 10
-7.9952958908
 20
15.8258259233
 30
0.0
 10
-7.9922529039
 20
15.825330678
 30
0.0
 10
-7.9799580948
 20
15.8237128519
 30
0.0
 10
-7.9611795605
 20
15.8235587789
 30
0.0
 10
-7.9456912192
 20
15.8257412578
 30
0.0
 10
-7.939508963
 20
15.8269737759
 30
0.0
 11
-7.9952958908
 21
15.8258259233
 31
0.0
 11
-7.9861275076
 21
15.8246196702
 31
0.0
 11
-7.9582274152
 21
15.8243558398
 31
0.0
 11
-7.939508963
 21
15.8269737759
 31
0.0
  0
SPLINE
  5
45F
100
AcDbEntity
  8
PORTATASTO
100
AcDbSpline
 62
253
  6
CONTINUOUS
 70
0
 71
3
 72
15
 73
11
 74
9
 42
0.0000001
 43
0.0000001
 44
0.0000000001
 12
0.2318452025
 22
0.0462215434
 32
0.0
 13
0.0846118177
 23
0.220423937
 33
0.0
 40
0.0
 40
0.0
 40
0.0
 40
0.0
 40
0.0405029155
 40
0.1645058941
 40
0.2928246716
 40
0.4258615169
 40
0.563618024
 40
0.7057235882
 40
0.8515194656
 40
1.0
 40
1.0
 40
1.0
 40
1.0
 10
-7.939508963
 20
15.8269737759
 30
0.0
 10
-7.9363788274
 20
15.8275978117
 30
0.0
 10
-7.9237384327
 20
15.8304983629
 30
0.0
 10
-7.9019115871
 20
15.838211645
 30
0.0
 10
-7.8751688877
 20
15.8527666088
 30
0.0
 10
-7.8500030303
 20
15.8717401864
 30
0.0
 10
-7.8269082636
 20
15.8947358698
 30
0.0
 10
-7.8063356894
 20
15.9212857193
 30
0.0
 10
-7.7886945069
 20
15.950841979
 30
0.0
 10
-7.7791779222
 20
15.9720213661
 30
0.0
 10
-7.7749901862
 20
15.9829309208
 30
0.0
 11
-7.939508963
 21
15.8269737759
 31
0.0
 11
-7.9301773887
 21
15.8291129468
 31
0.0
 11
-7.9025466432
 21
15.8387944552
 31
0.0
 11
-7.8758958802
 21
15.8532039005
 31
0.0
 11
-7.8507660737
 21
15.8720487401
 31
0.0
 11
-7.8276669951
 21
15.8949466419
 31
0.0
 11
-7.8070685352
 21
15.921431262
 31
0.0
 11
-7.7893871901
 21
15.9509664731
 31
0.0
 11
-7.7749901862
 21
15.9829309208
 31
0.0
  0
SPLINE
  5
460
100
AcDbEntity
  8
PORTATASTO
100
AcDbSpline
 62
253
  6
CONTINUOUS
 70
0
 71
3
 72
14
 73
10
 74
8
 42
0.0000001
 43
0.0000001
 44
0.0000000001
 12
-0.1238366788
 22
0.0802264474
 32
0.0
 13
0.0
 23
0.1472939001
 33
0.0
 40
0.0
 40
0.0
 40
0.0
 40
0.0
 40
0.0334941419
 40
0.1725453018
 40
0.3179033921
 40
0.4721782052
 40
0.6369662921
 40
0.8129531068
 40
1.0
 40
1.0
 40
1.0
 40
1.0
 10
-9.3027831396
 20
16.4688989935
 30
0.0
 10
-9.3041657407
 20
16.4697946989
 30
0.0
 10
-9.3111678189
 20
16.474593967
 30
0.0
 10
-9.322838218
 20
16.4851264622
 30
0.0
 10
-9.3357536667
 20
16.5025203036
 30
0.0
 10
-9.3459581839
 20
16.5230283098
 30
0.0
 10
-9.3533169642
 20
16.5462831964
 30
0.0
 10
-9.3577364545
 20
16.5718865715
 30
0.0
 10
-9.3586594115
 20
16.5897308124
 30
0.0
 10
-9.3586594115
 20
16.5989144345
 30
0.0
 11
-9.3027831396
 21
16.4688989935
 31
0.0
 11
-9.3068590332
 21
16.4716925145
 31
0.0
 11
-9.322112501
 21
16.4853606878
 31
0.0
 11
-9.3349644759
 21
16.5024846551
 31
0.0
 11
-9.345196967
 21
16.5227741705
 31
0.0
 11
-9.3526332016
 21
16.545879278
 31
0.0
 11
-9.357146413
 21
16.5714051438
 31
0.0
 11
-9.3586594115
 21
16.5989144345
 31
0.0
  0
SPLINE
  5
461
100
AcDbEntity
  8
PORTATASTO
100
AcDbSpline
 62
253
  6
CONTINUOUS
 70
0
 71
3
 72
13
 73
9
 74
7
 42
0.0000001
 43
0.0000001
 44
0.0000000001
 12
0.0000087569
 22
-0.1209332527
 32
0.0
 13
0.1077836379
 23
-0.0538918189
 33
0.0
 40
0.0
 40
0.0
 40
0.0
 40
0.0
 40
0.0763758374
 40
0.2284437537
 40
0.3927709664
 40
0.5746734429
 40
0.7768864614
 40
1.0
 40
1.0
 40
1.0
 40
1.0
 10
-9.4318777729
 20
16.9372740104
 30
0.0
 10
-9.43187755
 20
16.9341952175
 30
0.0
 10
-9.4312056446
 20
16.9249861398
 30
0.0
 10
-9.4266074643
 20
16.9096898974
 30
0.0
 10
-9.4161457031
 20
16.8924204541
 30
0.0
 10
-9.4010152447
 20
16.8762353021
 30
0.0
 10
-9.3815673124
 20
16.8613690099
 30
0.0
 10
-9.3666754078
 20
16.852893642
 30
0.0
 10
-9.3586594115
 20
16.8488856438
 30
0.0
 11
-9.4318777729
 21
16.9372740104
 31
0.0
 11
-9.4312044393
 21
16.928072383
 31
0.0
 11
-9.4260721455
 21
16.9104806964
 31
0.0
 11
-9.4160004867
 21
16.8934308918
 31
0.0
 11
-9.4011931618
 21
16.8772678908
 31
0.0
 11
-9.3819496772
 21
16.8623186529
 31
0.0
 11
-9.3586594115
 21
16.8488856438
 31
0.0
  0
LINE
  5
462
100
AcDbEntity
  8
PORTATASTO
100
AcDbLine
 62
7
  6
CONTINUOUS
 10
-12.6899156061
 20
24.2584170987
 11
-12.6883587151
 21
23.7327921804
  0
SPLINE
  5
463
100
AcDbEntity
  8
PORTATASTO
100
AcDbSpline
 62
253
  6
CONTINUOUS
 70
0
 71
3
 72
13
 73
9
 74
7
 42
0.0000001
 43
0.0000001
 44
0.0000000001
 12
0.0770121651
 22
-0.0453551141
 32
0.0
 13
0.0259299922
 23
-0.0854636218
 33
0.0
 40
0.0
 40
0.0
 40
0.0
 40
0.0
 40
0.0492770403
 40
0.2542392125
 40
0.4652422127
 40
0.6856320046
 40
0.918952479
 40
1.0
 40
1.0
 40
1.0
 40
1.0
 10
-10.0399381113
 20
16.9991388153
 30
0.0
 10
-10.0386731341
 20
16.9983938267
 30
0.0
 10
-10.0322348862
 20
16.9944007473
 30
0.0
 10
-10.0213507745
 20
16.9857196767
 30
0.0
 10
-10.0088449685
 20
16.9713800293
 30
0.0
 10
-9.9984374955
 20
16.9544685085
 30
0.0
 10
-9.9921821571
 20
16.9397831542
 30
0.0
 10
-9.9892749448
 20
16.9308851782
 30
0.0
 10
-9.9885744243
 20
16.9285763066
 30
0.0
 11
-10.0399381113
 21
16.9991388153
 31
0.0
 11
-10.0361958162
 21
16.9968177306
 31
0.0
 11
-10.0218700378
 21
16.9854410681
 31
0.0
 11
-10.0094417642
 21
16.9712914507
 31
0.0
 11
-9.9990638414
 21
16.9545812533
 31
0.0
 11
-9.990825154
 21
16.9354555631
 31
0.0
 11
-9.9885744243
 21
16.9285763066
 31
0.0
  0
SPLINE
  5
464
100
AcDbEntity
  8
PORTATASTO
100
AcDbSpline
 62
253
  6
CONTINUOUS
 70
0
 71
3
 72
10
 73
6
 74
4
 42
0.0000001
 43
0.0000001
 44
0.0000000001
 12
0.018193477
 22
-0.0599645548
 32
0.0
 13
-0.0000000029
 23
-0.0626237623
 33
0.0
 40
0.0
 40
0.0
 40
0.0
 40
0.0
 40
0.2379216854
 40
0.6104955935
 40
1.0
 40
1.0
 40
1.0
 40
1.0
 10
-9.9885744243
 20
16.9285763066
 30
0.0
 10
-9.9871315501
 20
16.923820684
 30
0.0
 10
-9.9839625115
 20
16.9114560506
 30
0.0
 10
-9.9808061576
 20
16.8907793861
 30
0.0
 10
-9.9800684218
 20
16.8748576905
 30
0.0
 10
-9.9800684222
 20
16.8667269467
 30
0.0
 11
-9.9885744243
 21
16.9285763066
 31
0.0
 11
-9.9848501324
 21
16.9141439779
 31
0.0
 11
-9.9812581908
 21
16.8910901444
 31
0.0
 11
-9.9800684222
 21
16.8667269467
 31
0.0
  0
SPLINE
  5
465
100
AcDbEntity
  8
PORTATASTO
100
AcDbSpline
 62
253
  6
CONTINUOUS
 70
0
 71
3
 72
13
 73
9
 74
7
 42
0.0000001
 43
0.0000001
 44
0.0000000001
 12
0.0770121651
 22
-0.0453551141
 32
0.0
 13
0.0259299922
 23
-0.0854636219
 33
0.0
 40
0.0
 40
0.0
 40
0.0
 40
0.0
 40
0.0492770403
 40
0.2542392125
 40
0.4652422127
 40
0.6856320046
 40
0.918952479
 40
1.0
 40
1.0
 40
1.0
 40
1.0
 10
-23.3865786062
 20
23.6724590628
 30
0.0
 10
-23.385313629
 20
23.6717140742
 30
0.0
 10
-23.3788753811
 20
23.6677209947
 30
0.0
 10
-23.3679912694
 20
23.6590399241
 30
0.0
 10
-23.3554854634
 20
23.6447002767
 30
0.0
 10
-23.3450779904
 20
23.6277887559
 30
0.0
 10
-23.338822652
 20
23.6131034016
 30
0.0
 10
-23.3359154397
 20
23.6042054256
 30
0.0
 10
-23.3352149192
 20
23.6018965541
 30
0.0
 11
-23.3865786062
 21
23.6724590628
 31
0.0
 11
-23.3828363111
 21
23.670137978
 31
0.0
 11
-23.3685105327
 21
23.6587613156
 31
0.0
 11
-23.3560822591
 21
23.6446116981
 31
0.0
 11
-23.3457043363
 21
23.6279015008
 31
0.0
 11
-23.3374656489
 21
23.6087758106
 31
0.0
 11
-23.3352149192
 21
23.6018965541
 31
0.0
  0
SPLINE
  5
466
100
AcDbEntity
  8
PORTATASTO
100
AcDbSpline
 62
253
  6
CONTINUOUS
 70
0
 71
3
 72
10
 73
6
 74
4
 42
0.0000001
 43
0.0000001
 44
0.0000000001
 12
0.018193477
 22
-0.0599645548
 32
0.0
 13
-0.0000000029
 23
-0.0626237623
 33
0.0
 40
0.0
 40
0.0
 40
0.0
 40
0.0
 40
0.2379216854
 40
0.6104955935
 40
1.0
 40
1.0
 40
1.0
 40
1.0
 10
-23.3352149192
 20
23.6018965541
 30
0.0
 10
-23.3337720449
 20
23.5971409314
 30
0.0
 10
-23.3306030064
 20
23.584776298
 30
0.0
 10
-23.3274466525
 20
23.5640996336
 30
0.0
 10
-23.3267089167
 20
23.5481779379
 30
0.0
 10
-23.3267089171
 20
23.5400471941
 30
0.0
 11
-23.3352149192
 21
23.6018965541
 31
0.0
 11
-23.3314906273
 21
23.5874642253
 31
0.0
 11
-23.3278986857
 21
23.5644103918
 31
0.0
 11
-23.3267089171
 21
23.5400471941
 31
0.0
  0
LINE
  5
467
100
AcDbEntity
  8
PORTATASTO
100
AcDbLine
 62
7
  6
CONTINUOUS
 10
3.2199869705
 20
16.3034658104
 11
3.2215438616
 21
15.7778408921
  0
SPLINE
  5
468
100
AcDbEntity
  8
PORTATASTO
100
AcDbSpline
 62
253
  6
CONTINUOUS
 70
0
 71
3
 72
16
 73
12
 74
10
 42
0.0000001
 43
0.0000001
 44
0.0000000001
 12
0.0000019944
 22
0.3661320663
 32
0.0
 13
-0.358414782
 23
0.0747765602
 33
0.0
 40
0.0
 40
0.0
 40
0.0
 40
0.0
 40
0.1331580327
 40
0.2605676092
 40
0.3813663631
 40
0.4949432228
 40
0.6021338655
 40
0.704661191
 40
0.8041622809
 40
0.9021216877
 40
1.0
 40
1.0
 40
1.0
 40
1.0
 10
-22.9740835455
 20
23.5395843816
 30
0.0
 10
-22.9740834569
 20
23.5558355235
 30
0.0
 10
-22.9755493358
 20
23.5876632104
 30
0.0
 10
-22.9825507156
 20
23.6337701366
 30
0.0
 10
-22.9942920257
 20
23.6764543949
 30
0.0
 10
-23.0106223973
 20
23.7149574252
 30
0.0
 10
-23.0313304703
 20
23.7487331653
 30
0.0
 10
-23.0562161974
 20
23.777354781
 30
0.0
 10
-23.0849850189
 20
23.8003449542
 30
0.0
 10
-23.1170693483
 20
23.8172280477
 30
0.0
 10
-23.1400921718
 20
23.8242191706
 30
0.0
 10
-23.1517858498
 20
23.8266588385
 30
0.0
 11
-22.9740835455
 21
23.5395843816
 31
0.0
 11
-22.9764481252
 21
23.5882804315
 31
0.0
 11
-22.9835939253
 21
23.6343786059
 31
0.0
 11
-22.9954825034
 21
23.6769791224
 31
0.0
 11
-23.0118768188
 21
23.7151951703
 31
0.0
 11
-23.0325291068
 21
23.748567706
 31
0.0
 11
-23.0572621089
 21
23.7768063446
 31
0.0
 11
-23.0857714215
 21
23.7994868056
 31
0.0
 11
-23.1175154855
 21
23.8161808194
 31
0.0
 11
-23.1517858498
 21
23.8266588385
 31
0.0
  0
SPLINE
  5
469
100
AcDbEntity
  8
PORTATASTO
100
AcDbSpline
 62
253
  6
CONTINUOUS
 70
0
 71
3
 72
10
 73
6
 74
4
 42
0.0000001
 43
0.0000001
 44
0.0000000001
 12
0.0553703353
 22
-0.0090115078
 32
0.0
 13
0.055015019
 23
0.0109680039
 33
0.0
 40
0.0
 40
0.0
 40
0.0
 40
0.0
 40
0.1648709646
 40
0.6628780818
 40
1.0
 40
1.0
 40
1.0
 40
1.0
 10
-10.5585579726
 20
17.1074569642
 30
0.0
 10
-10.5555149857
 20
17.1069617189
 30
0.0
 10
-10.5432201766
 20
17.1053438928
 30
0.0
 10
-10.5244416423
 20
17.1051898198
 30
0.0
 10
-10.508953301
 20
17.1073722987
 30
0.0
 10
-10.5027710448
 20
17.1086048168
 30
0.0
 11
-10.5585579726
 21
17.1074569642
 31
0.0
 11
-10.5493895894
 21
17.1062507111
 31
0.0
 11
-10.521489497
 21
17.1059868807
 31
0.0
 11
-10.5027710448
 21
17.1086048168
 31
0.0
  0
SPLINE
  5
46A
100
AcDbEntity
  8
PORTATASTO
100
AcDbSpline
 62
253
  6
CONTINUOUS
 70
0
 71
3
 72
15
 73
11
 74
9
 42
0.0000001
 43
0.0000001
 44
0.0000000001
 12
0.2318452025
 22
0.0462215434
 32
0.0
 13
0.0846118177
 23
0.220423937
 33
0.0
 40
0.0
 40
0.0
 40
0.0
 40
0.0
 40
0.0405029155
 40
0.1645058941
 40
0.2928246716
 40
0.4258615169
 40
0.563618024
 40
0.7057235882
 40
0.8515194656
 40
1.0
 40
1.0
 40
1.0
 40
1.0
 10
-10.5027710448
 20
17.1086048168
 30
0.0
 10
-10.4996409092
 20
17.1092288526
 30
0.0
 10
-10.4870005145
 20
17.1121294038
 30
0.0
 10
-10.4651736689
 20
17.1198426859
 30
0.0
 10
-10.4384309695
 20
17.1343976497
 30
0.0
 10
-10.4132651121
 20
17.1533712273
 30
0.0
 10
-10.3901703454
 20
17.1763669107
 30
0.0
 10
-10.3695977712
 20
17.2029167602
 30
0.0
 10
-10.3519565887
 20
17.2324730199
 30
0.0
 10
-10.342440004
 20
17.253652407
 30
0.0
 10
-10.338252268
 20
17.2645619617
 30
0.0
 11
-10.5027710448
 21
17.1086048168
 31
0.0
 11
-10.4934394705
 21
17.1107439877
 31
0.0
 11
-10.465808725
 21
17.1204254961
 31
0.0
 11
-10.439157962
 21
17.1348349414
 31
0.0
 11
-10.4140281555
 21
17.153679781
 31
0.0
 11
-10.3909290769
 21
17.1765776828
 31
0.0
 11
-10.370330617
 21
17.2030623029
 31
0.0
 11
-10.3526492719
 21
17.232597514
 31
0.0
 11
-10.338252268
 21
17.2645619617
 31
0.0
  0
SPLINE
  5
46B
100
AcDbEntity
  8
PORTATASTO
100
AcDbSpline
 62
253
  6
CONTINUOUS
 70
0
 71
3
 72
16
 73
12
 74
10
 42
0.0000001
 43
0.0000001
 44
0.0000000001
 12
0.0000019944
 22
0.3661320663
 32
0.0
 13
-0.358414782
 23
0.0747765602
 33
0.0
 40
0.0
 40
0.0
 40
0.0
 40
0.0
 40
0.1331580327
 40
0.2605676092
 40
0.3813663631
 40
0.4949432228
 40
0.6021338655
 40
0.704661191
 40
0.8041622809
 40
0.9021216877
 40
1.0
 40
1.0
 40
1.0
 40
1.0
 10
-9.6274430506
 20
16.8662641341
 30
0.0
 10
-9.627442962
 20
16.882515276
 30
0.0
 10
-9.6289088409
 20
16.914342963
 30
0.0
 10
-9.6359102207
 20
16.9604498892
 30
0.0
 10
-9.6476515308
 20
17.0031341475
 30
0.0
 10
-9.6639819024
 20
17.0416371777
 30
0.0
 10
-9.6846899755
 20
17.0754129178
 30
0.0
 10
-9.7095757025
 20
17.1040345336
 30
0.0
 10
-9.738344524
 20
17.1270247068
 30
0.0
 10
-9.7704288534
 20
17.1439078002
 30
0.0
 10
-9.793451677
 20
17.1508989232
 30
0.0
 10
-9.8051453549
 20
17.153338591
 30
0.0
 11
-9.6274430506
 21
16.8662641341
 31
0.0
 11
-9.6298076303
 21
16.914960184
 31
0.0
 11
-9.6369534304
 21
16.9610583585
 31
0.0
 11
-9.6488420085
 21
17.0036588749
 31
0.0
 11
-9.6652363239
 21
17.0418749228
 31
0.0
 11
-9.6858886119
 21
17.0752474585
 31
0.0
 11
-9.710621614
 21
17.1034860971
 31
0.0
 11
-9.7391309266
 21
17.1261665582
 31
0.0
 11
-9.7708749906
 21
17.142860572
 31
0.0
 11
-9.8051453549
 21
17.153338591
 31
0.0
  0
SPLINE
  5
46C
100
AcDbEntity
  8
PORTATASTO
100
AcDbSpline
 62
253
  6
CONTINUOUS
 70
0
 71
3
 72
13
 73
9
 74
7
 42
0.0000001
 43
0.0000001
 44
0.0000000001
 12
0.0000087569
 22
-0.1209332527
 32
0.0
 13
0.1077836379
 23
-0.0538918189
 33
0.0
 40
0.0
 40
0.0
 40
0.0
 40
0.0
 40
0.0763758374
 40
0.2284437537
 40
0.3927709664
 40
0.5746734429
 40
0.7768864614
 40
1.0
 40
1.0
 40
1.0
 40
1.0
 10
-11.9951398547
 20
18.2189050513
 30
0.0
 10
-11.9951396318
 20
18.2158262584
 30
0.0
 10
-11.9944677264
 20
18.2066171807
 30
0.0
 10
-11.9898695461
 20
18.1913209383
 30
0.0
 10
-11.9794077849
 20
18.174051495
 30
0.0
 10
-11.9642773265
 20
18.157866343
 30
0.0
 10
-11.9448293942
 20
18.1430000508
 30
0.0
 10
-11.9299374896
 20
18.1345246829
 30
0.0
 10
-11.9219214933
 20
18.1305166847
 30
0.0
 11
-11.9951398547
 21
18.2189050513
 31
0.0
 11
-11.9944665211
 21
18.2097034239
 31
0.0
 11
-11.9893342273
 21
18.1921117373
 31
0.0
 11
-11.9792625685
 21
18.1750619327
 31
0.0
 11
-11.9644552436
 21
18.1588989317
 31
0.0
 11
-11.945211759
 21
18.1439496938
 31
0.0
 11
-11.9219214933
 21
18.1305166847
 31
0.0
  0
SPLINE
  5
46D
100
AcDbEntity
  8
PORTATASTO
100
AcDbSpline
 62
253
  6
CONTINUOUS
 70
0
 71
3
 72
14
 73
10
 74
8
 42
0.0000001
 43
0.0000001
 44
0.0000000001
 12
-0.1238366788
 22
0.0802264474
 32
0.0
 13
0.0
 23
0.1472939001
 33
0.0
 40
0.0
 40
0.0
 40
0.0
 40
0.0
 40
0.0334941419
 40
0.1725453018
 40
0.3179033921
 40
0.4721782052
 40
0.6369662921
 40
0.8129531068
 40
1.0
 40
1.0
 40
1.0
 40
1.0
 10
-11.8660452214
 20
17.7505300344
 30
0.0
 10
-11.8674278225
 20
17.7514257398
 30
0.0
 10
-11.8744299007
 20
17.7562250079
 30
0.0
 10
-11.8861002998
 20
17.7667575031
 30
0.0
 10
-11.8990157485
 20
17.7841513445
 30
0.0
 10
-11.9092202657
 20
17.8046593507
 30
0.0
 10
-11.916579046
 20
17.8279142373
 30
0.0
 10
-11.9209985363
 20
17.8535176124
 30
0.0
 10
-11.9219214933
 20
17.8713618533
 30
0.0
 10
-11.9219214933
 20
17.8805454754
 30
0.0
 11
-11.8660452214
 21
17.7505300344
 31
0.0
 11
-11.870121115
 21
17.7533235554
 31
0.0
 11
-11.8853745828
 21
17.7669917287
 31
0.0
 11
-11.8982265577
 21
17.784115696
 31
0.0
 11
-11.9084590488
 21
17.8044052114
 31
0.0
 11
-11.9158952834
 21
17.8275103189
 31
0.0
 11
-11.9204084948
 21
17.8530361847
 31
0.0
 11
-11.9219214933
 21
17.8805454754
 31
0.0
  0
SPLINE
  5
46E
100
AcDbEntity
  8
PORTATASTO
100
AcDbSpline
 62
253
  6
CONTINUOUS
 70
0
 71
3
 72
10
 73
6
 74
4
 42
0.0000001
 43
0.0000001
 44
0.0000000001
 12
0.0553703353
 22
-0.0090115078
 32
0.0
 13
0.055015019
 23
0.0109680039
 33
0.0
 40
0.0
 40
0.0
 40
0.0
 40
0.0
 40
0.1648709646
 40
0.6628780818
 40
1.0
 40
1.0
 40
1.0
 40
1.0
 10
-23.9051984675
 20
23.7807772117
 30
0.0
 10
-23.9021554806
 20
23.7802819664
 30
0.0
 10
-23.8898606715
 20
23.7786641403
 30
0.0
 10
-23.8710821372
 20
23.7785100673
 30
0.0
 10
-23.8555937959
 20
23.7806925461
 30
0.0
 10
-23.8494115397
 20
23.7819250643
 30
0.0
 11
-23.9051984675
 21
23.7807772117
 31
0.0
 11
-23.8960300843
 21
23.7795709586
 31
0.0
 11
-23.8681299919
 21
23.7793071281
 31
0.0
 11
-23.8494115397
 21
23.7819250643
 31
0.0
  0
SPLINE
  5
46F
100
AcDbEntity
  8
PORTATASTO
100
AcDbSpline
 62
253
  6
CONTINUOUS
 70
0
 71
3
 72
15
 73
11
 74
9
 42
0.0000001
 43
0.0000001
 44
0.0000000001
 12
0.2318452025
 22
0.0462215434
 32
0.0
 13
0.0846118177
 23
0.220423937
 33
0.0
 40
0.0
 40
0.0
 40
0.0
 40
0.0
 40
0.0405029155
 40
0.1645058941
 40
0.2928246716
 40
0.4258615169
 40
0.563618024
 40
0.7057235882
 40
0.8515194656
 40
1.0
 40
1.0
 40
1.0
 40
1.0
 10
-23.8494115397
 20
23.7819250643
 30
0.0
 10
-23.8462814041
 20
23.7825491
 30
0.0
 10
-23.8336410094
 20
23.7854496513
 30
0.0
 10
-23.8118141638
 20
23.7931629334
 30
0.0
 10
-23.7850714644
 20
23.8077178972
 30
0.0
 10
-23.759905607
 20
23.8266914748
 30
0.0
 10
-23.7368108403
 20
23.8496871582
 30
0.0
 10
-23.7162382661
 20
23.8762370076
 30
0.0
 10
-23.6985970836
 20
23.9057932673
 30
0.0
 10
-23.6890804989
 20
23.9269726545
 30
0.0
 10
-23.6848927629
 20
23.9378822091
 30
0.0
 11
-23.8494115397
 21
23.7819250643
 31
0.0
 11
-23.8400799654
 21
23.7840642351
 31
0.0
 11
-23.8124492199
 21
23.7937457435
 31
0.0
 11
-23.7857984569
 21
23.8081551889
 31
0.0
 11
-23.7606686504
 21
23.8270000285
 31
0.0
 11
-23.7375695718
 21
23.8498979302
 31
0.0
 11
-23.7169711119
 21
23.8763825504
 31
0.0
 11
-23.6992897668
 21
23.9059177614
 31
0.0
 11
-23.6848927629
 21
23.9378822091
 31
0.0
  0
SPLINE
  5
470
100
AcDbEntity
  8
PORTATASTO
100
AcDbSpline
 62
253
  6
CONTINUOUS
 70
0
 71
3
 72
14
 73
10
 74
8
 42
0.0000001
 43
0.0000001
 44
0.0000000001
 12
-0.1238366788
 22
0.0802264474
 32
0.0
 13
0.0
 23
0.1472939001
 33
0.0
 40
0.0
 40
0.0
 40
0.0
 40
0.0
 40
0.0334941419
 40
0.1725453018
 40
0.3179033921
 40
0.4721782052
 40
0.6369662921
 40
0.8129531068
 40
1.0
 40
1.0
 40
1.0
 40
1.0
 10
-25.2126857163
 20
24.4238502819
 30
0.0
 10
-25.2140683174
 20
24.4247459872
 30
0.0
 10
-25.2210703956
 20
24.4295452554
 30
0.0
 10
-25.2327407947
 20
24.4400777506
 30
0.0
 10
-25.2456562434
 20
24.457471592
 30
0.0
 10
-25.2558607606
 20
24.4779795981
 30
0.0
 10
-25.2632195409
 20
24.5012344847
 30
0.0
 10
-25.2676390312
 20
24.5268378599
 30
0.0
 10
-25.2685619882
 20
24.5446821007
 30
0.0
 10
-25.2685619882
 20
24.5538657228
 30
0.0
 11
-25.2126857163
 21
24.4238502819
 31
0.0
 11
-25.2167616099
 21
24.4266438029
 31
0.0
 11
-25.2320150777
 21
24.4403119761
 31
0.0
 11
-25.2448670526
 21
24.4574359434
 31
0.0
 11
-25.2550995437
 21
24.4777254589
 31
0.0
 11
-25.2625357783
 21
24.5008305664
 31
0.0
 11
-25.2670489897
 21
24.5263564321
 31
0.0
 11
-25.2685619882
 21
24.5538657228
 31
0.0
  0
SPLINE
  5
471
100
AcDbEntity
  8
PORTATASTO
100
AcDbSpline
 62
253
  6
CONTINUOUS
 70
0
 71
3
 72
13
 73
9
 74
7
 42
0.0000001
 43
0.0000001
 44
0.0000000001
 12
0.0000087569
 22
-0.1209332527
 32
0.0
 13
0.1077836379
 23
-0.0538918189
 33
0.0
 40
0.0
 40
0.0
 40
0.0
 40
0.0
 40
0.0763758374
 40
0.2284437537
 40
0.3927709664
 40
0.5746734429
 40
0.7768864614
 40
1.0
 40
1.0
 40
1.0
 40
1.0
 10
-25.3417803496
 20
24.8922252987
 30
0.0
 10
-25.3417801267
 20
24.8891465059
 30
0.0
 10
-25.3411082213
 20
24.8799374281
 30
0.0
 10
-25.336510041
 20
24.8646411857
 30
0.0
 10
-25.3260482798
 20
24.8473717424
 30
0.0
 10
-25.3109178214
 20
24.8311865905
 30
0.0
 10
-25.2914698891
 20
24.8163202982
 30
0.0
 10
-25.2765779845
 20
24.8078449303
 30
0.0
 10
-25.2685619882
 20
24.8038369322
 30
0.0
 11
-25.3417803496
 21
24.8922252987
 31
0.0
 11
-25.341107016
 21
24.8830236714
 31
0.0
 11
-25.3359747222
 21
24.8654319848
 31
0.0
 11
-25.3259030633
 21
24.8483821801
 31
0.0
 11
-25.3110957385
 21
24.8322191792
 31
0.0
 11
-25.2918522539
 21
24.8172699413
 31
0.0
 11
-25.2685619882
 21
24.8038369322
 31
0.0
  0
SPLINE
  5
472
100
AcDbEntity
  8
PORTATASTO
100
AcDbSpline
 62
253
  6
CONTINUOUS
 70
0
 71
3
 72
16
 73
12
 74
10
 42
0.0000001
 43
0.0000001
 44
0.0000000001
 12
0.0000019944
 22
0.3661320663
 32
0.0
 13
-0.358414782
 23
0.0747765602
 33
0.0
 40
0.0
 40
0.0
 40
0.0
 40
0.0
 40
0.1331580327
 40
0.2605676092
 40
0.3813663631
 40
0.4949432228
 40
0.6021338655
 40
0.704661191
 40
0.8041622809
 40
0.9021216877
 40
1.0
 40
1.0
 40
1.0
 40
1.0
 10
-7.0641809688
 20
15.5846330932
 30
0.0
 10
-7.0641808802
 20
15.6008842351
 30
0.0
 10
-7.0656467591
 20
15.6327119221
 30
0.0
 10
-7.0726481389
 20
15.6788188483
 30
0.0
 10
-7.084389449
 20
15.7215031066
 30
0.0
 10
-7.1007198206
 20
15.7600061368
 30
0.0
 10
-7.1214278937
 20
15.7937818769
 30
0.0
 10
-7.1463136207
 20
15.8224034927
 30
0.0
 10
-7.1750824422
 20
15.8453936659
 30
0.0
 10
-7.2071667716
 20
15.8622767593
 30
0.0
 10
-7.2301895951
 20
15.8692678823
 30
0.0
 10
-7.2418832731
 20
15.8717075501
 30
0.0
 11
-7.0641809688
 21
15.5846330932
 31
0.0
 11
-7.0665455485
 21
15.6333291431
 31
0.0
 11
-7.0736913486
 21
15.6794273176
 31
0.0
 11
-7.0855799267
 21
15.722027834
 31
0.0
 11
-7.1019742421
 21
15.7602438819
 31
0.0
 11
-7.1226265301
 21
15.7936164176
 31
0.0
 11
-7.1473595322
 21
15.8218550562
 31
0.0
 11
-7.1758688448
 21
15.8445355173
 31
0.0
 11
-7.2076129088
 21
15.8612295311
 31
0.0
 11
-7.2418832731
 21
15.8717075501
 31
0.0
  0
SPLINE
  5
473
100
AcDbEntity
  8
PORTATASTO
100
AcDbSpline
 62
7
  6
CONTINUOUS
 70
0
 71
3
 72
13
 73
9
 74
7
 42
0.0000001
 43
0.0000001
 44
0.0000000001
 12
0.4628116396
 22
-0.064098053
 32
0.0
 13
0.4179025476
 23
-0.2089512738
 33
0.0
 40
0.0
 40
0.0
 40
0.0
 40
0.0
 40
0.1796826336
 40
0.3552527235
 40
0.5258289147
 40
0.6906034756
 40
0.8488616656
 40
1.0
 40
1.0
 40
1.0
 40
1.0
 10
-12.6883587151
 20
23.7327921804
 30
0.0
 10
-12.6606389771
 20
23.7289530781
 30
0.0
 10
-12.6059950531
 20
23.7201324529
 30
0.0
 10
-12.5258217694
 20
23.7032830629
 30
0.0
 10
-12.4488241089
 20
23.6830677459
 30
0.0
 10
-12.375565468
 20
23.6596340292
 30
0.0
 10
-12.3065838653
 20
23.6331546481
 30
0.0
 10
-12.2627181778
 20
23.6131127568
 30
0.0
 10
-12.2416644794
 20
23.6025859077
 30
0.0
 11
-12.6883587151
 21
23.7327921804
 31
0.0
 11
-12.6054848692
 21
23.719374694
 31
0.0
 11
-12.5252176654
 21
23.7024531105
 31
0.0
 11
-12.4481484155
 21
23.6821520853
 31
0.0
 11
-12.3748451165
 21
23.6586212393
 31
0.0
 11
-12.3058476025
 21
23.6320338552
 31
0.0
 11
-12.2416644794
 21
23.6025859077
 31
0.0
  0
SPLINE
  5
474
100
AcDbEntity
  8
PORTATASTO
100
AcDbSpline
 62
7
  6
CONTINUOUS
 70
0
 71
3
 72
14
 73
10
 74
8
 42
0.0000001
 43
0.0000001
 44
0.0000000001
 12
-0.0003156004
 22
-0.2012684705
 32
0.0
 13
-0.1796980781
 23
-0.0895077445
 33
0.0
 40
0.0
 40
0.0
 40
0.0
 40
0.0
 40
0.0274634043
 40
0.1605984937
 40
0.3006484352
 40
0.4515198336
 40
0.6180762323
 40
0.8014208189
 40
1.0
 40
1.0
 40
1.0
 40
1.0
 10
8.2666217057
 20
13.7027093471
 30
0.0
 10
8.2666188166
 20
13.7008668413
 30
0.0
 10
8.266316037
 20
13.690093743
 30
0.0
 10
8.2625777218
 20
13.6701077286
 30
0.0
 10
8.2507745273
 20
13.6440408881
 30
0.0
 10
8.2326076137
 20
13.6191797591
 30
0.0
 10
8.208423655
 20
13.5957874869
 30
0.0
 10
8.1786302154
 20
13.5741842363
 30
0.0
 10
8.1562737541
 20
13.5616812861
 30
0.0
 10
8.1443789884
 20
13.5557564946
 30
0.0
 11
8.2666217057
 21
13.7027093471
 31
0.0
 11
8.26646572
 21
13.6971851386
 31
0.0
 11
8.2616645205
 21
13.6708922145
 31
0.0
 11
8.2502749808
 21
13.6451865427
 31
0.0
 11
8.2326150612
 21
13.6205793863
 31
0.0
 11
8.2087566019
 21
13.5971524403
 31
0.0
 11
8.1790866448
 21
13.5753696545
 31
0.0
 11
8.1443789884
 21
13.5557564946
 31
0.0
  0
SPLINE
  5
475
100
AcDbEntity
  8
PORTATASTO
100
AcDbSpline
 62
7
  6
CONTINUOUS
 70
0
 71
3
 72
14
 73
10
 74
8
 42
0.0000001
 43
0.0000001
 44
0.0000000001
 12
0.001118265
 22
-0.203778607
 32
0.0
 13
-0.1823114036
 23
-0.0898474781
 33
0.0
 40
0.0
 40
0.0
 40
0.0
 40
0.0
 40
0.0362236359
 40
0.167907642
 40
0.3066456087
 40
0.4562281119
 40
0.6213988319
 40
0.8031849424
 40
1.0
 40
1.0
 40
1.0
 40
1.0
 10
2.6906054168
 20
16.491456255
 30
0.0
 10
2.6906189193
 20
16.4889957209
 30
0.0
 10
2.690279099
 20
16.4775894119
 30
0.0
 10
2.6861994008
 20
16.4569953362
 30
0.0
 10
2.674118808
 20
16.430972797
 30
0.0
 10
2.6556912902
 20
16.406169796
 30
0.0
 10
2.6312630191
 20
16.3828476209
 30
0.0
 10
2.6012434003
 20
16.3613262743
 30
0.0
 10
2.5787503466
 20
16.348880366
 30
0.0
 10
2.5667898034
 20
16.3429859204
 30
0.0
 11
2.6906054168
 21
16.491456255
 31
0.0
 11
2.6903841433
 21
16.4840802693
 31
0.0
 11
2.6853019649
 21
16.4578026144
 31
0.0
 11
2.6736381718
 21
16.4321296643
 31
0.0
 11
2.6557160466
 21
16.4075714481
 31
0.0
 11
2.6316079397
 21
16.384209237
 31
0.0
 11
2.6017060876
 21
16.3625062898
 31
0.0
 11
2.5667898034
 21
16.3429859204
 31
0.0
  0
SPLINE
  5
476
100
AcDbEntity
  8
PORTATASTO
100
AcDbSpline
 62
7
  6
CONTINUOUS
 70
0
 71
3
 72
14
 73
10
 74
8
 42
0.0000001
 43
0.0000001
 44
0.0000000001
 12
0.0011183735
 22
-0.2037785963
 32
0.0
 13
-0.1823113885
 23
-0.0898474707
 33
0.0
 40
0.0
 40
0.0
 40
0.0
 40
0.0
 40
0.0361797747
 40
0.1678680881
 40
0.3065894265
 40
0.4561575738
 40
0.6213570309
 40
0.8031650597
 40
1.0
 40
1.0
 40
1.0
 40
1.0
 10
-13.2192971564
 20
24.4464075438
 30
0.0
 10
-13.2192836689
 20
24.4439499892
 30
0.0
 10
-13.2196229233
 20
24.4325463698
 30
0.0
 10
-13.2237002492
 20
24.4119557152
 30
0.0
 10
-13.2357780359
 20
24.385933916
 30
0.0
 10
-13.2542034944
 20
24.3611295684
 30
0.0
 10
-13.2786324437
 20
24.3378044092
 30
0.0
 10
-13.3086555344
 20
24.3162796433
 30
0.0
 10
-13.3311510228
 20
24.3038322493
 30
0.0
 10
-13.3431127733
 20
24.2979372088
 30
0.0
 11
-13.2192971564
 21
24.4464075438
 31
0.0
 11
-13.2195178466
 21
24.4390404756
 31
0.0
 11
-13.2245981394
 21
24.4127615667
 31
0.0
 11
-13.236258589
 21
24.3870908122
 31
0.0
 11
-13.25417706
 21
24.3625335449
 31
0.0
 11
-13.2782881054
 21
24.3391659771
 31
0.0
 11
-13.3081930757
 21
24.3174597471
 31
0.0
 11
-13.3431127733
 21
24.2979372088
 31
0.0
  0
SPLINE
  5
477
100
AcDbEntity
  8
PORTATASTO
100
AcDbSpline
 62
7
  6
CONTINUOUS
 70
0
 71
3
 72
14
 73
10
 74
8
 42
0.0000001
 43
0.0000001
 44
0.0000000001
 12
-0.0003155752
 22
-0.2012684551
 32
0.0
 13
-0.1796980627
 23
-0.0895077369
 33
0.0
 40
0.0
 40
0.0
 40
0.0
 40
0.0
 40
0.0274210906
 40
0.1605608875
 40
0.3005952013
 40
0.4514528445
 40
0.6180368173
 40
0.8014023858
 40
1.0
 40
1.0
 40
1.0
 40
1.0
 10
-7.643280867
 20
21.6576606356
 30
0.0
 10
-7.6432837515
 20
21.6558209687
 30
0.0
 10
-7.643586025
 20
21.6450503919
 30
0.0
 10
-7.6473221794
 20
21.6250676069
 30
0.0
 10
-7.659122756
 20
21.599001441
 30
0.0
 10
-7.6772877266
 20
21.574139037
 30
0.0
 10
-7.7014723146
 20
21.5507439392
 30
0.0
 10
-7.7312689965
 20
21.5291374669
 30
0.0
 10
-7.7536277195
 20
21.5166331239
 30
0.0
 10
-7.7655235883
 20
21.5107077829
 30
0.0
 11
-7.643280867
 21
21.6576606356
 31
0.0
 11
-7.6434363882
 21
21.6521449296
 31
0.0
 11
-7.6482358065
 21
21.625850722
 31
0.0
 11
-7.6596222332
 21
21.600147105
 31
0.0
 11
-7.677278706
 21
21.5755408773
 31
0.0
 11
-7.7011399223
 21
21.5521088422
 31
0.0
 11
-7.7308128163
 21
21.5303229444
 31
0.0
 11
-7.7655235883
 21
21.5107077829
 31
0.0
  0
SPLINE
  5
478
100
AcDbEntity
  8
PORTATASTO
100
AcDbSpline
 62
7
  6
CONTINUOUS
 70
0
 71
3
 72
11
 73
7
 74
5
 42
0.0000001
 43
0.0000001
 44
0.0000000001
 12
0.9691084659
 22
0.5089457726
 32
0.0
 13
0.0
 23
1.0862471538
 33
0.0
 40
0.0
 40
0.0
 40
0.0
 40
0.0
 40
0.0856209928
 40
0.35423346
 40
0.6561033916
 40
1.0
 40
1.0
 40
1.0
 40
1.0
 10
5.4077926458
 20
5.0864396037
 30
0.0
 10
5.4354513221
 20
5.1009650845
 30
0.0
 10
5.5455998968
 20
5.1689964678
 30
0.0
 10
5.7065930239
 20
5.3524534757
 30
0.0
 10
5.8265741858
 20
5.666429426
 30
0.0
 10
5.8497787124
 20
5.9015790942
 30
0.0
 10
5.8497787124
 20
6.0260979982
 30
0.0
 11
5.4077926458
 21
5.0864396037
 31
0.0
 11
5.4873418453
 21
5.1356646693
 31
0.0
 11
5.6839936078
 21
5.3512183222
 31
0.0
 11
5.8076140736
 21
5.6549285485
 31
0.0
 11
5.8497787124
 21
6.0260979982
 31
0.0
  0
SPLINE
  5
479
100
AcDbEntity
  8
PORTATASTO
100
AcDbSpline
 62
253
  6
CONTINUOUS
 70
0
 71
3
 72
16
 73
12
 74
10
 42
0.0000001
 43
0.0000001
 44
0.0000000001
 12
0.3236790135
 22
0.3878370912
 32
0.0
 13
-0.0000027547
 23
0.5051590968
 33
0.0
 40
0.0
 40
0.0
 40
0.0
 40
0.0
 40
0.1110160359
 40
0.2251124574
 40
0.3405889506
 40
0.4558553607
 40
0.5699516537
 40
0.6824994821
 40
0.7926627183
 40
0.8988620715
 40
1.0
 40
1.0
 40
1.0
 40
1.0
 10
6.1047572218
 20
-31.5244219175
 30
0.0
 10
6.1167350754
 20
-31.510069872
 30
0.0
 10
6.1399007648
 20
-31.4800129636
 30
0.0
 10
6.1714898027
 20
-31.4320884364
 30
0.0
 10
6.1998841805
 20
-31.3813798416
 30
0.0
 10
6.224575913
 20
-31.3287703936
 30
0.0
 10
6.2452465593
 20
-31.2749817763
 30
0.0
 10
6.2616569145
 20
-31.2206387838
 30
0.0
 10
6.2735620115
 20
-31.1664891935
 30
0.0
 10
6.2807728727
 20
-31.1134555707
 30
0.0
 10
6.282459619
 20
-31.0785266226
 30
0.0
 10
6.2824595261
 20
-31.0614963744
 30
0.0
 11
6.1047572218
 21
-31.5244219175
 31
0.0
 11
6.1390275863
 21
-31.4800305467
 31
0.0
 11
6.17077165
 21
-31.4319231631
 31
0.0
 11
6.1992809628
 21
-31.3810303861
 31
0.0
 11
6.2240139647
 21
-31.328316402
 31
0.0
 11
6.2446662528
 21
-31.274506724
 31
0.0
 11
6.2610605682
 21
-31.2200671489
 31
0.0
 11
6.2729491463
 21
-31.165701904
 31
0.0
 11
6.2800949462
 21
-31.112532371
 31
0.0
 11
6.2824595261
 21
-31.0614963744
 31
0.0
  0
SPLINE
  5
47A
100
AcDbEntity
  8
PORTATASTO
100
AcDbSpline
 62
253
  6
CONTINUOUS
 70
0
 71
3
 72
16
 73
12
 74
10
 42
0.0000001
 43
0.0000001
 44
0.0000000001
 12
0.0000019944
 22
0.3661320663
 32
0.0
 13
-0.358414782
 23
0.0747765602
 33
0.0
 40
0.0
 40
0.0
 40
0.0
 40
0.0
 40
0.1331580327
 40
0.2605676092
 40
0.3813663631
 40
0.4949432228
 40
0.6021338655
 40
0.704661191
 40
0.8041622809
 40
0.9021216877
 40
1.0
 40
1.0
 40
1.0
 40
1.0
 10
6.2824595261
 20
8.9113128458
 30
0.0
 10
6.2824596146
 20
8.9275639877
 30
0.0
 10
6.2809937358
 20
8.9593916746
 30
0.0
 10
6.273992356
 20
9.0054986008
 30
0.0
 10
6.2622510459
 20
9.0481828591
 30
0.0
 10
6.2459206743
 20
9.0866858894
 30
0.0
 10
6.2252126012
 20
9.1204616295
 30
0.0
 10
6.2003268742
 20
9.1490832453
 30
0.0
 10
6.1715580527
 20
9.1720734184
 30
0.0
 10
6.1394737233
 20
9.1889565119
 30
0.0
 10
6.1164508997
 20
9.1959476348
 30
0.0
 10
6.1047572218
 20
9.1983873027
 30
0.0
 11
6.2824595261
 21
8.9113128458
 31
0.0
 11
6.2800949464
 21
8.9600088957
 31
0.0
 11
6.2729491463
 21
9.0061070701
 31
0.0
 11
6.2610605682
 21
9.0487075866
 31
0.0
 11
6.2446662528
 21
9.0869236345
 31
0.0
 11
6.2240139648
 21
9.1202961702
 31
0.0
 11
6.1992809627
 21
9.1485348088
 31
0.0
 11
6.1707716501
 21
9.1712152698
 31
0.0
 11
6.1390275861
 21
9.1879092837
 31
0.0
 11
6.1047572218
 21
9.1983873027
 31
0.0
  0
SPLINE
  5
47B
100
AcDbEntity
  8
PORTATASTO
100
AcDbSpline
 62
7
  6
CONTINUOUS
 70
0
 71
3
 72
10
 73
6
 74
4
 42
0.0000001
 43
0.0000001
 44
0.0000000001
 12
5.0017684454
 22
2.5711843134
 32
0.0
 13
5.0055620789
 23
2.5637910659
 33
0.0
 40
0.0
 40
0.0
 40
0.0
 40
0.0
 40
0.3270780677
 40
0.6604220924
 40
1.0
 40
1.0
 40
1.0
 40
1.0
 10
-12.8252477114
 20
19.9412774082
 30
0.0
 10
-12.279924792
 20
20.2216034072
 30
0.0
 10
-11.1786626481
 20
20.7872963231
 30
0.0
 10
-9.5107077856
 20
21.6429973181
 30
0.0
 10
-8.3880407661
 20
22.2183031667
 30
0.0
 10
-7.8214480004
 20
22.5085054353
 30
0.0
 11
-12.8252477114
 21
19.9412774082
 31
0.0
 11
-11.1890395651
 21
20.7817895565
 31
0.0
 11
-9.5210409338
 21
21.637536819
 31
0.0
 11
-7.8214480004
 21
22.5085054353
 31
0.0
  0
LINE
  5
47C
100
AcDbEntity
  8
PORTATASTO
100
AcDbLine
 62
253
  6
CONTINUOUS
 10
-7.761076877
 20
22.7709782764
 11
-7.7620037206
 21
22.5082956934
  0
LINE
  5
47D
100
AcDbEntity
  8
PORTATASTO
100
AcDbLine
 62
253
  6
CONTINUOUS
 10
-7.7620037206
 20
22.5082956934
 11
-7.7624786161
 21
22.3737025687
  0
LINE
  5
47E
100
AcDbEntity
  8
PORTATASTO
100
AcDbLine
 62
253
  6
CONTINUOUS
 10
-7.763826817
 20
21.9916004367
 11
-7.7640857584
 21
21.9182122257
  0
LINE
  5
47F
100
AcDbEntity
  8
PORTATASTO
100
AcDbLine
 62
253
  6
CONTINUOUS
 10
-7.7640857584
 20
21.9182122257
 11
-7.7655235883
 21
21.5107077829
  0
SPLINE
  5
480
100
AcDbEntity
  8
PORTATASTO
100
AcDbSpline
 62
7
  6
CONTINUOUS
 70
0
 71
3
 72
13
 73
9
 74
7
 42
0.0000001
 43
0.0000001
 44
0.0000000001
 12
0.4628116396
 22
-0.064098053
 32
0.0
 13
0.4179025476
 23
-0.2089512738
 33
0.0
 40
0.0
 40
0.0
 40
0.0
 40
0.0
 40
0.1796826336
 40
0.3552527235
 40
0.5258289147
 40
0.6906034756
 40
0.8488616656
 40
1.0
 40
1.0
 40
1.0
 40
1.0
 10
3.2215438616
 20
15.7778408921
 30
0.0
 10
3.2492635996
 20
15.7740017897
 30
0.0
 10
3.3039075236
 20
15.7651811645
 30
0.0
 10
3.3840808073
 20
15.7483317745
 30
0.0
 10
3.4610784678
 20
15.7281164576
 30
0.0
 10
3.5343371087
 20
15.7046827409
 30
0.0
 10
3.6033187114
 20
15.6782033597
 30
0.0
 10
3.6471843989
 20
15.6581614685
 30
0.0
 10
3.6682380973
 20
15.6476346193
 30
0.0
 11
3.2215438616
 21
15.7778408921
 31
0.0
 11
3.3044177075
 21
15.7644234057
 31
0.0
 11
3.3846849113
 21
15.7475018221
 31
0.0
 11
3.4617541612
 21
15.727200797
 31
0.0
 11
3.5350574602
 21
15.7036699509
 31
0.0
 11
3.6040549742
 21
15.6770825669
 31
0.0
 11
3.6682380973
 21
15.6476346193
 31
0.0
  0
SPLINE
  5
481
100
AcDbEntity
  8
PORTATASTO
100
AcDbSpline
 62
7
  6
CONTINUOUS
 70
0
 71
3
 72
11
 73
7
 74
5
 42
0.0000001
 43
0.0000001
 44
0.0000000001
 12
-0.0558540189
 22
0.0280572242
 32
0.0
 13
-0.0609845051
 23
-0.0127562676
 33
0.0
 40
0.0
 40
0.0
 40
0.0
 40
0.0
 40
0.115891449
 40
0.3485725948
 40
0.6442869389
 40
1.0
 40
1.0
 40
1.0
 40
1.0
 10
-13.232857831
 20
25.5786959027
 30
0.0
 10
-13.2350154987
 20
25.5797797668
 30
0.0
 10
-13.2422597204
 20
25.5817601901
 30
0.0
 10
-13.2555791451
 20
25.5823936175
 30
0.0
 10
-13.2739407694
 20
25.5805866421
 30
0.0
 10
-13.2872484299
 20
25.5781475212
 30
0.0
 10
-13.2944794249
 20
25.5766349976
 30
0.0
 11
-13.232857831
 21
25.5786959027
 31
0.0
 11
-13.239828319
 21
25.5809156138
 31
0.0
 11
-13.254285826
 21
25.5820214956
 31
0.0
 11
-13.2726490363
 21
25.5804810054
 31
0.0
 11
-13.2944794249
 21
25.5766349976
 31
0.0
  0
SPLINE
  5
482
100
AcDbEntity
  8
PORTATASTO
100
AcDbSpline
 62
7
  6
CONTINUOUS
 70
0
 71
3
 72
9
 73
5
 74
3
 42
0.0000001
 43
0.0000001
 44
0.0000000001
 12
-0.053663551
 22
-0.011224927
 32
0.0
 13
-0.0526505396
 23
-0.0153236142
 33
0.0
 40
0.0
 40
0.0
 40
0.0
 40
0.0
 40
0.4698162059
 40
1.0
 40
1.0
 40
1.0
 40
1.0
 10
-13.2944794249
 20
25.5766349976
 30
0.0
 10
-13.3028834269
 20
25.5748771134
 30
0.0
 10
-13.3206687062
 20
25.5706161258
 30
0.0
 10
-13.3382792512
 20
25.5657151605
 30
0.0
 10
-13.3475840722
 20
25.5630070498
 30
0.0
 11
-13.2944794249
 21
25.5766349976
 31
0.0
 11
-13.3195564832
 21
25.5707320908
 31
0.0
 11
-13.3475840722
 21
25.5630070498
 31
0.0
  0
SPLINE
  5
483
100
AcDbEntity
  8
PORTATASTO
100
AcDbSpline
 62
7
  6
CONTINUOUS
 70
0
 71
3
 72
11
 73
7
 74
5
 42
0.0000001
 43
0.0000001
 44
0.0000000001
 12
-0.0546556072
 22
0.0273238484
 32
0.0
 13
-0.0595665172
 23
-0.0124899511
 33
0.0
 40
0.0
 40
0.0
 40
0.0
 40
0.0
 40
0.111846091
 40
0.3445537668
 40
0.6417458825
 40
1.0
 40
1.0
 40
1.0
 40
1.0
 10
-7.6485416742
 20
22.7865401662
 30
0.0
 10
-7.6505793462
 20
22.7875588548
 30
0.0
 10
-7.657593298
 20
22.7894879394
 30
0.0
 10
-7.6705389637
 20
22.7900953377
 30
0.0
 10
-7.6885634411
 20
22.7883078164
 30
0.0
 10
-7.7016405694
 20
22.7859012298
 30
0.0
 10
-7.7087538861
 20
22.7844097044
 30
0.0
 11
-7.6485416742
 21
22.7865401662
 31
0.0
 11
-7.6551262818
 21
22.7886423513
 31
0.0
 11
-7.6692505882
 21
22.7897319004
 31
0.0
 11
-7.6872780324
 21
22.7882071498
 31
0.0
 11
-7.7087538861
 21
22.7844097044
 31
0.0
  0
SPLINE
  5
484
100
AcDbEntity
  8
PORTATASTO
100
AcDbSpline
 62
7
  6
CONTINUOUS
 70
0
 71
3
 72
9
 73
5
 74
3
 42
0.0000001
 43
0.0000001
 44
0.0000000001
 12
-0.0528668026
 22
-0.0110851501
 32
0.0
 13
-0.0518805773
 23
-0.0150837808
 33
0.0
 40
0.0
 40
0.0
 40
0.0
 40
0.0
 40
0.4696232064
 40
1.0
 40
1.0
 40
1.0
 40
1.0
 10
-7.7087538861
 20
22.7844097044
 30
0.0
 10
-7.7170297119
 20
22.7826744231
 30
0.0
 10
-7.7345528699
 20
22.7784717193
 30
0.0
 10
-7.7519047923
 20
22.7736449722
 30
0.0
 10
-7.761076877
 20
22.7709782764
 30
0.0
 11
-7.7087538861
 21
22.7844097044
 31
0.0
 11
-7.7334505099
 21
22.7785894184
 31
0.0
 11
-7.761076877
 21
22.7709782764
 31
0.0
  0
SPLINE
  5
485
100
AcDbEntity
  8
PORTATASTO
100
AcDbSpline
 62
7
  6
CONTINUOUS
 70
0
 71
3
 72
10
 73
6
 74
4
 42
0.0000001
 43
0.0000001
 44
0.0000000001
 12
5.0017684454
 22
2.5711843134
 32
0.0
 13
5.0055620789
 23
2.5637910659
 33
0.0
 40
0.0
 40
0.0
 40
0.0
 40
0.0
 40
0.3270780677
 40
0.6604220924
 40
1.0
 40
1.0
 40
1.0
 40
1.0
 10
3.0846548653
 20
11.9863261198
 30
0.0
 10
3.6299777847
 20
12.2666521188
 30
0.0
 10
4.7312399286
 20
12.8323450348
 30
0.0
 10
6.3991947911
 20
13.6880460297
 30
0.0
 10
7.5218618106
 20
14.2633518784
 30
0.0
 10
8.0884545763
 20
14.553554147
 30
0.0
 11
3.0846548653
 21
11.9863261198
 31
0.0
 11
4.7208630116
 21
12.8268382681
 31
0.0
 11
6.3888616429
 21
13.6825855306
 31
0.0
 11
8.0884545763
 21
14.553554147
 31
0.0
  0
LINE
  5
486
100
AcDbEntity
  8
PORTATASTO
100
AcDbLine
 62
253
  6
CONTINUOUS
 10
8.1443789884
 20
13.5557564946
 11
8.1458168183
 21
13.9632609373
  0
LINE
  5
487
100
AcDbEntity
  8
PORTATASTO
100
AcDbLine
 62
253
  6
CONTINUOUS
 10
8.1458168183
 20
13.9632609373
 11
8.1460757597
 21
14.0366491484
  0
LINE
  5
488
100
AcDbEntity
  8
PORTATASTO
100
AcDbLine
 62
253
  6
CONTINUOUS
 10
8.1474239606
 20
14.4187512803
 11
8.1478988561
 21
14.553344405
  0
LINE
  5
489
100
AcDbEntity
  8
PORTATASTO
100
AcDbLine
 62
253
  6
CONTINUOUS
 10
8.1478988561
 20
14.553344405
 11
8.1488256997
 21
14.8160269881
  0
SPLINE
  5
48A
100
AcDbEntity
  8
PORTATASTO
100
AcDbSpline
 62
7
  6
CONTINUOUS
 70
0
 71
3
 72
11
 73
7
 74
5
 42
0.0000001
 43
0.0000001
 44
0.0000000001
 12
-0.0558407528
 22
0.028045677
 32
0.0
 13
-0.0609669131
 23
-0.0127499313
 33
0.0
 40
0.0
 40
0.0
 40
0.0
 40
0.0
 40
0.1157994796
 40
0.3484977461
 40
0.6441881787
 40
1.0
 40
1.0
 40
1.0
 40
1.0
 10
2.6770446178
 20
17.6237446666
 30
0.0
 10
2.6748891744
 20
17.6248272248
 30
0.0
 10
2.6676488278
 20
17.6268079903
 30
0.0
 10
2.6543355597
 20
17.6274425931
 30
0.0
 10
2.63597727
 20
17.6256376371
 30
0.0
 10
2.6226719092
 20
17.6231996311
 30
0.0
 10
2.615440993
 20
17.6216874391
 30
0.0
 11
2.6770446178
 21
17.6237446666
 31
0.0
 11
2.6700817022
 21
17.6259627765
 31
0.0
 11
2.6556275798
 21
17.6270703909
 31
0.0
 11
2.6372711742
 21
17.6255321166
 31
0.0
 11
2.615440993
 21
17.6216874391
 31
0.0
  0
SPLINE
  5
48B
100
AcDbEntity
  8
PORTATASTO
100
AcDbSpline
 62
7
  6
CONTINUOUS
 70
0
 71
3
 72
9
 73
5
 74
3
 42
0.0000001
 43
0.0000001
 44
0.0000000001
 12
-0.0536818521
 22
-0.0112264159
 32
0.0
 13
-0.052668036
 23
-0.0153287064
 33
0.0
 40
0.0
 40
0.0
 40
0.0
 40
0.0
 40
0.4697289822
 40
1.0
 40
1.0
 40
1.0
 40
1.0
 10
2.615440993
 20
17.6216874391
 30
0.0
 10
2.6070356858
 20
17.6199296481
 30
0.0
 10
2.5892443748
 20
17.6156677209
 30
0.0
 10
2.5716279489
 20
17.6107652177
 30
0.0
 10
2.5623185045
 20
17.6080557615
 30
0.0
 11
2.615440993
 21
17.6216874391
 31
0.0
 11
2.5903600845
 21
17.6157844065
 31
0.0
 11
2.5623185045
 21
17.6080557615
 31
0.0
  0
SPLINE
  5
48C
100
AcDbEntity
  8
PORTATASTO
100
AcDbSpline
 62
7
  6
CONTINUOUS
 70
0
 71
3
 72
11
 73
7
 74
5
 42
0.0000001
 43
0.0000001
 44
0.0000000001
 12
-0.0546432025
 22
0.0273130163
 32
0.0
 13
-0.0595496307
 23
-0.0124839013
 33
0.0
 40
0.0
 40
0.0
 40
0.0
 40
0.0
 40
0.1117597333
 40
0.3444809722
 40
0.6416465056
 40
1.0
 40
1.0
 40
1.0
 40
1.0
 10
8.2613607681
 20
14.8315889044
 30
0.0
 10
8.2593251315
 20
14.8326064029
 30
0.0
 10
8.2523148881
 20
14.8345358064
 30
0.0
 10
8.2393751453
 20
14.8351442932
 30
0.0
 10
8.221353978
 20
14.8333587358
 30
0.0
 10
8.2082790937
 20
14.8309532221
 30
0.0
 10
8.201165821
 20
14.8294620055
 30
0.0
 11
8.2613607681
 21
14.8315889044
 31
0.0
 11
8.2547831347
 21
14.8336896193
 31
0.0
 11
8.240662274
 21
14.83478079
 31
0.0
 11
8.2226415726
 21
14.8332581914
 31
0.0
 11
8.201165821
 21
14.8294620055
 31
0.0
  0
SPLINE
  5
48D
100
AcDbEntity
  8
PORTATASTO
100
AcDbSpline
 62
7
  6
CONTINUOUS
 70
0
 71
3
 72
9
 73
5
 74
3
 42
0.0000001
 43
0.0000001
 44
0.0000000001
 12
-0.0528843731
 22
-0.011086606
 32
0.0
 13
-0.0518973797
 23
-0.0150886659
 33
0.0
 40
0.0
 40
0.0
 40
0.0
 40
0.0
 40
0.4695380299
 40
1.0
 40
1.0
 40
1.0
 40
1.0
 10
8.201165821
 20
14.8294620055
 30
0.0
 10
8.1928887462
 20
14.8277268111
 30
0.0
 10
8.1753597977
 20
14.8235232007
 30
0.0
 10
8.1580022284
 20
14.8186949759
 30
0.0
 10
8.1488256997
 20
14.8160269881
 30
0.0
 11
8.201165821
 21
14.8294620055
 31
0.0
 11
8.1764655136
 21
14.823641595
 31
0.0
 11
8.1488256997
 21
14.8160269881
 31
0.0
  0
SPLINE
  5
48E
100
AcDbEntity
  8
PORTATASTO
100
AcDbSpline
 62
7
  6
CONTINUOUS
 70
0
 71
3
 72
20
 73
16
 74
14
 42
0.0000001
 43
0.0000001
 44
0.0000000001
 12
0.0
 22
0.7356707928
 32
0.0
 13
-0.6580039607
 23
0.3290019804
 33
0.0
 40
0.0
 40
0.0
 40
0.0
 40
0.0
 40
0.0730105196
 40
0.1487729214
 40
0.2270906104
 40
0.3075074146
 40
0.3890306281
 40
0.4712522964
 40
0.5530515997
 40
0.6340549632
 40
0.7131935961
 40
0.7900924956
 40
0.8637935525
 40
0.9339524538
 40
1.0
 40
1.0
 40
1.0
 40
1.0
 10
7.5468349872
 20
8.099986459
 30
0.0
 10
7.5468349872
 20
8.1178903613
 30
0.0
 10
7.5456695097
 20
8.1544177046
 30
0.0
 10
7.5377127601
 20
8.2096308546
 30
0.0
 10
7.524815906
 20
8.2657283303
 30
0.0
 10
7.5069840142
 20
8.3219481401
 30
0.0
 10
7.4846003853
 20
8.3775392394
 30
0.0
 10
7.4580375759
 20
8.4316369853
 30
0.0
 10
7.4276764433
 20
8.4835493328
 30
0.0
 10
7.3940120723
 20
8.5324697906
 30
0.0
 10
7.3574980588
 20
8.5777739018
 30
0.0
 10
7.3187257988
 20
8.6187291666
 30
0.0
 10
7.278273303
 20
8.6548254037
 30
0.0
 10
7.2367403816
 20
8.6853276496
 30
0.0
 10
7.2080372369
 20
8.7025962278
 30
0.0
 10
7.1935507213
 20
8.7098394856
 30
0.0
 11
7.5468349872
 21
8.099986459
 31
0.0
 11
7.5447163538
 21
8.1536563653
 31
0.0
 11
7.5370587149
 21
8.2088640008
 31
0.0
 11
7.5241886004
 21
8.2650241985
 31
0.0
 11
7.5063690659
 21
8.3214370037
 31
0.0
 11
7.48399456
 21
8.3770813367
 31
0.0
 11
7.457343491
 21
8.4313816896
 31
0.0
 11
7.426951787
 21
8.4833206806
 31
0.0
 11
7.3931421776
 21
8.5323930147
 31
0.0
 11
7.3565619915
 21
8.577686018
 31
0.0
 11
7.3176176939
 21
8.6187197104
 31
0.0
 11
7.2770722059
 21
8.6547175006
 31
0.0
 11
7.2354618082
 21
8.6852554243
 31
0.0
 11
7.1935507213
 21
8.7098394856
 31
0.0
  0
SPLINE
  5
48F
100
AcDbEntity
  8
PORTATASTO
100
AcDbSpline
 62
7
  6
CONTINUOUS
 70
0
 71
3
 72
15
 73
11
 74
9
 42
0.0000001
 43
0.0000001
 44
0.0000000001
 12
0.0
 22
-0.3142264465
 32
0.0
 13
-0.2797191061
 23
-0.1442777691
 33
0.0
 40
0.0
 40
0.0
 40
0.0
 40
0.0
 40
0.1607622684
 40
0.3140160976
 40
0.4589295696
 40
0.5958928211
 40
0.7251191509
 40
0.848623603
 40
0.9680187643
 40
1.0
 40
1.0
 40
1.0
 40
1.0
 10
7.5468349872
 20
-29.7451401504
 30
0.0
 10
7.5468349872
 20
-29.7619787359
 30
0.0
 10
7.5458600093
 20
-29.7949244397
 30
0.0
 10
7.5381807792
 20
-29.8425120008
 30
0.0
 10
7.5254569018
 20
-29.8864054045
 30
0.0
 10
7.5077178567
 20
-29.9258177447
 30
0.0
 10
7.4852728363
 20
-29.9601301505
 30
0.0
 10
7.4584627388
 20
-29.9887193404
 30
0.0
 10
7.4350280981
 20
-30.0057546213
 30
0.0
 10
7.4211073337
 20
-30.0134087795
 30
0.0
 10
7.4181254128
 20
-30.0149468399
 30
0.0
 11
7.5468349872
 21
-29.7451401504
 31
0.0
 11
7.5447150654
 21
-29.7956114053
 31
0.0
 11
7.5370559142
 21
-29.8431548261
 31
0.0
 11
7.5241882478
 21
-29.8868345486
 31
0.0
 11
7.5063659244
 21
-29.9260083806
 31
0.0
 11
7.4839885277
 21
-29.9598923914
 31
0.0
 11
7.4573372568
 21
-29.9881023004
 31
0.0
 11
7.4269440833
 21
-30.0100975064
 31
0.0
 11
7.4181254128
 21
-30.0149468399
 31
0.0
  0
SPLINE
  5
490
100
AcDbEntity
  8
PORTATASTO
100
AcDbSpline
 62
7
  6
CONTINUOUS
 70
0
 71
3
 72
9
 73
5
 74
3
 42
0.0000001
 43
0.0000001
 44
0.0000000001
 12
0.0000106939
 22
-0.020588684
 32
0.0
 13
0.0016621915
 23
-0.0205197568
 33
0.0
 40
0.0
 40
0.0
 40
0.0
 40
0.0
 40
0.5208435173
 40
1.0
 40
1.0
 40
1.0
 40
1.0
 10
-3.9077640451
 20
14.8980969472
 30
0.0
 10
-3.9077621885
 20
14.894522453
 30
0.0
 10
-3.9075930393
 20
14.887660013
 30
0.0
 10
-3.907156146
 20
14.8808109913
 30
0.0
 10
-3.9068906627
 20
14.8775335998
 30
0.0
 11
-3.9077640451
 21
14.8980969472
 31
0.0
 11
-3.9075133549
 21
14.8873775783
 31
0.0
 11
-3.9068906627
 21
14.8775335998
 31
0.0
  0
SPLINE
  5
491
100
AcDbEntity
  8
PORTATASTO
100
AcDbSpline
 62
7
  6
CONTINUOUS
 70
0
 71
3
 72
17
 73
13
 74
11
 42
0.0000001
 43
0.0000001
 44
0.0000000001
 12
0.0289734995
 22
-0.3576778919
 32
0.0
 13
0.2214236492
 23
-0.2822258458
 33
0.0
 40
0.0
 40
0.0
 40
0.0
 40
0.0
 40
0.0573573103
 40
0.1483657571
 40
0.2444832861
 40
0.3448491641
 40
0.4487388961
 40
0.5555184648
 40
0.6646038968
 40
0.7754249575
 40
0.8874248937
 40
1.0
 40
1.0
 40
1.0
 40
1.0
 10
-3.9068906627
 20
14.8775335998
 30
0.0
 10
-3.9063367154
 20
14.8706951192
 30
0.0
 10
-3.9042715524
 20
14.8530551889
 30
0.0
 10
-3.8987071726
 20
14.82432505
 30
0.0
 10
-3.889664767
 20
14.7911302678
 30
0.0
 10
-3.8779741653
 20
14.7571454847
 30
0.0
 10
-3.8638173196
 20
14.7227323411
 30
0.0
 10
-3.847358661
 20
14.6882023575
 30
0.0
 10
-3.8287521265
 20
14.653836792
 30
0.0
 10
-3.8081472422
 20
14.6198990759
 30
0.0
 10
-3.7856989812
 20
14.5866484271
 30
0.0
 10
-3.7696239411
 20
14.565123314
 30
0.0
 10
-3.7613150109
 20
14.5545327792
 30
0.0
 11
-3.9068906627
 21
14.8775335998
 31
0.0
 11
-3.9045439303
 21
14.8570867632
 31
0.0
 11
-3.8984386868
 21
14.8250161886
 31
0.0
 11
-3.8894472688
 21
14.7917299526
 31
0.0
 11
-3.8777860682
 21
14.7576675326
 31
0.0
 11
-3.8636436345
 21
14.7231879279
 31
0.0
 11
-3.8471877601
 21
14.6885989695
 31
0.0
 11
-3.8285736545
 21
14.6541786558
 31
0.0
 11
-3.8079530973
 21
14.6201911647
 31
0.0
 11
-3.7854777884
 21
14.5868892305
 31
0.0
 11
-3.7613150109
 21
14.5545327792
 31
0.0
  0
SPLINE
  5
492
100
AcDbEntity
  8
PORTATASTO
100
AcDbSpline
 62
253
  6
CONTINUOUS
 70
0
 71
3
 72
17
 73
13
 74
11
 42
0.0000001
 43
0.0000001
 44
0.0000000001
 12
-0.1070926538
 22
-0.2789892123
 32
0.0
 13
-0.2929479529
 23
0.0611060668
 33
0.0
 40
0.0
 40
0.0
 40
0.0
 40
0.0
 40
0.117387821
 40
0.2325750288
 40
0.3448462271
 40
0.4536747247
 40
0.5587747311
 40
0.6601470123
 40
0.7581101567
 40
0.8533057292
 40
0.9466639717
 40
1.0
 40
1.0
 40
1.0
 40
1.0
 10
-23.1517858498
 20
23.8266588385
 30
0.0
 10
-23.1559763076
 20
23.8157421932
 30
0.0
 10
-23.1654966811
 20
23.7945564216
 30
0.0
 10
-23.1831436741
 20
23.7649955812
 30
0.0
 10
-23.2037173019
 20
23.7384487035
 30
0.0
 10
-23.2268121925
 20
23.7154565093
 30
0.0
 10
-23.2519770539
 20
23.6964865915
 30
0.0
 10
-23.2787181862
 20
23.6819348162
 30
0.0
 10
-23.3065058324
 20
23.672116912
 30
0.0
 10
-23.3347765142
 20
23.6672600014
 30
0.0
 10
-23.359004891
 20
23.6674596239
 30
0.0
 10
-23.3734848758
 20
23.669692527
 30
0.0
 10
-23.3786931026
 20
23.670778912
 30
0.0
 11
-23.1517858498
 21
23.8266588385
 31
0.0
 11
-23.1661934086
 21
23.7946741552
 31
0.0
 11
-23.1838765242
 21
23.7651411439
 31
0.0
 11
-23.2044764155
 21
23.7386590141
 31
0.0
 11
-23.2275751184
 21
23.7157650771
 31
0.0
 11
-23.2527039636
 21
23.6969238427
 31
0.0
 11
-23.2793530932
 21
23.6825175861
 31
0.0
 11
-23.3069818099
 21
23.6728385938
 31
0.0
 11
-23.3350295438
 21
23.6680832384
 31
0.0
 11
-23.362927226
 21
23.668347996
 31
0.0
 11
-23.3786931026
 21
23.670778912
 31
0.0
  0
SPLINE
  5
493
100
AcDbEntity
  8
PORTATASTO
100
AcDbSpline
 62
253
  6
CONTINUOUS
 70
0
 71
3
 72
17
 73
13
 74
11
 42
0.0000001
 43
0.0000001
 44
0.0000000001
 12
-0.1070926538
 22
-0.2789892123
 32
0.0
 13
-0.2929479529
 23
0.0611060668
 33
0.0
 40
0.0
 40
0.0
 40
0.0
 40
0.0
 40
0.117387821
 40
0.2325750288
 40
0.3448462271
 40
0.4536747247
 40
0.5587747311
 40
0.6601470123
 40
0.7581101567
 40
0.8533057292
 40
0.9466639717
 40
1.0
 40
1.0
 40
1.0
 40
1.0
 10
-9.8051453549
 20
17.153338591
 30
0.0
 10
-9.8093358127
 20
17.1424219458
 30
0.0
 10
-9.8188561862
 20
17.1212361742
 30
0.0
 10
-9.8365031792
 20
17.0916753337
 30
0.0
 10
-9.857076807
 20
17.065128456
 30
0.0
 10
-9.8801716976
 20
17.0421362618
 30
0.0
 10
-9.905336559
 20
17.023166344
 30
0.0
 10
-9.9320776913
 20
17.0086145688
 30
0.0
 10
-9.9598653375
 20
16.9987966646
 30
0.0
 10
-9.9881360193
 20
16.993939754
 30
0.0
 10
-10.0123643961
 20
16.9941393765
 30
0.0
 10
-10.0268443809
 20
16.9963722796
 30
0.0
 10
-10.0320526077
 20
16.9974586646
 30
0.0
 11
-9.8051453549
 21
17.153338591
 31
0.0
 11
-9.8195529137
 21
17.1213539077
 31
0.0
 11
-9.8372360293
 21
17.0918208964
 31
0.0
 11
-9.8578359206
 21
17.0653387667
 31
0.0
 11
-9.8809346235
 21
17.0424448297
 31
0.0
 11
-9.9060634687
 21
17.0236035952
 31
0.0
 11
-9.9327125983
 21
17.0091973386
 31
0.0
 11
-9.960341315
 21
16.9995183463
 31
0.0
 11
-9.9883890489
 21
16.994762991
 31
0.0
 11
-10.0162867311
 21
16.9950277485
 31
0.0
 11
-10.0320526077
 21
16.9974586646
 31
0.0
  0
SPLINE
  5
494
100
AcDbEntity
  8
PORTATASTO
100
AcDbSpline
 62
253
  6
CONTINUOUS
 70
0
 71
3
 72
18
 73
14
 74
12
 42
0.0000001
 43
0.0000001
 44
0.0000000001
 12
0.3246495851
 22
-0.1623247962
 32
0.0
 13
0.3253245715
 23
0.1609677474
 33
0.0
 40
0.0
 40
0.0
 40
0.0
 40
0.0
 40
0.0806595925
 40
0.1671780649
 40
0.2585292238
 40
0.3534795041
 40
0.4506548502
 40
0.5485992532
 40
0.6458291495
 40
0.7408865332
 40
0.8323932784
 40
0.9191094963
 40
1.0
 40
1.0
 40
1.0
 40
1.0
 10
-23.3267089185
 20
23.5400459692
 30
0.0
 10
-23.3179802174
 20
23.5356816185
 30
0.0
 10
-23.2993485191
 20
23.527694846
 30
0.0
 10
-23.2695092253
 20
23.5181844865
 30
0.0
 10
-23.237284044
 20
23.5108665687
 30
0.0
 10
-23.2033169492
 20
23.5058892803
 30
0.0
 10
-23.1682829116
 20
23.5033519364
 30
0.0
 10
-23.1328821419
 20
23.5033059311
 30
0.0
 10
-23.0978220712
 20
23.505752197
 30
0.0
 10
-23.0638034804
 20
23.5106411847
 30
0.0
 10
-23.0315024927
 20
23.5178753194
 30
0.0
 10
-23.0015647076
 20
23.5273080681
 30
0.0
 10
-22.982855435
 20
23.5352441275
 30
0.0
 10
-22.9740835455
 20
23.5395843816
 30
0.0
 11
-23.3267089185
 21
23.5400459692
 31
0.0
 11
-23.299846936
 21
23.5284023481
 31
0.0
 11
-23.2699534077
 21
23.5187815516
 31
0.0
 11
-23.2376328262
 21
23.5113781286
 31
0.0
 11
-23.2035387659
 21
23.5063417911
 31
0.0
 11
-23.1683606653
 21
23.5037743859
 31
0.0
 11
-23.1328098871
 21
23.5037278347
 31
0.0
 11
-23.0976053331
 21
23.5062030833
 31
0.0
 11
-23.0634589135
 21
23.5111500809
 31
0.0
 11
-23.0310611455
 21
23.5184687901
 31
0.0
 11
-23.0010671777
 21
23.5280112123
 31
0.0
 11
-22.9740835455
 21
23.5395843816
 31
0.0
  0
SPLINE
  5
495
100
AcDbEntity
  8
PORTATASTO
100
AcDbSpline
 62
253
  6
CONTINUOUS
 70
0
 71
3
 72
18
 73
14
 74
12
 42
0.0000001
 43
0.0000001
 44
0.0000000001
 12
0.3246495851
 22
-0.1623247962
 32
0.0
 13
0.3253245715
 23
0.1609677474
 33
0.0
 40
0.0
 40
0.0
 40
0.0
 40
0.0
 40
0.0806595925
 40
0.1671780649
 40
0.2585292238
 40
0.3534795041
 40
0.4506548502
 40
0.5485992532
 40
0.6458291495
 40
0.7408865332
 40
0.8323932784
 40
0.9191094963
 40
1.0
 40
1.0
 40
1.0
 40
1.0
 10
-9.9800684236
 20
16.8667257217
 30
0.0
 10
-9.9713397225
 20
16.8623613711
 30
0.0
 10
-9.9527080242
 20
16.8543745985
 30
0.0
 10
-9.9228687304
 20
16.8448642391
 30
0.0
 10
-9.8906435492
 20
16.8375463212
 30
0.0
 10
-9.8566764543
 20
16.8325690329
 30
0.0
 10
-9.8216424167
 20
16.8300316889
 30
0.0
 10
-9.786241647
 20
16.8299856836
 30
0.0
 10
-9.7511815763
 20
16.8324319495
 30
0.0
 10
-9.7171629855
 20
16.8373209373
 30
0.0
 10
-9.6848619978
 20
16.8445550719
 30
0.0
 10
-9.6549242127
 20
16.8539878207
 30
0.0
 10
-9.6362149401
 20
16.8619238801
 30
0.0
 10
-9.6274430506
 20
16.8662641341
 30
0.0
 11
-9.9800684236
 21
16.8667257217
 31
0.0
 11
-9.9532064411
 21
16.8550821006
 31
0.0
 11
-9.9233129128
 21
16.8454613042
 31
0.0
 11
-9.8909923313
 21
16.8380578811
 31
0.0
 11
-9.856898271
 21
16.8330215436
 31
0.0
 11
-9.8217201704
 21
16.8304541385
 31
0.0
 11
-9.7861693922
 21
16.8304075873
 31
0.0
 11
-9.7509648382
 21
16.8328828359
 31
0.0
 11
-9.7168184186
 21
16.8378298334
 31
0.0
 11
-9.6844206506
 21
16.8451485427
 31
0.0
 11
-9.6544266828
 21
16.8546909649
 31
0.0
 11
-9.6274430506
 21
16.8662641341
 31
0.0
  0
SPLINE
  5
496
100
AcDbEntity
  8
PORTATASTO
100
AcDbSpline
 62
253
  6
CONTINUOUS
 70
0
 71
3
 72
12
 73
8
 74
6
 42
0.0000001
 43
0.0000001
 44
0.0000000001
 12
-0.0992113636
 22
0.0496056818
 32
0.0
 13
-0.0168818249
 23
0.1099498659
 33
0.0
 40
0.0
 40
0.0
 40
0.0
 40
0.0
 40
0.2423757552
 40
0.4620472832
 40
0.65965851
 40
0.8381777041
 40
1.0
 40
1.0
 40
1.0
 40
1.0
 10
-25.2685619882
 20
24.5538657228
 30
0.0
 10
-25.2765774646
 20
24.557873461
 30
0.0
 10
-25.291468449
 20
24.5663482384
 30
0.0
 10
-25.3109154734
 20
24.5812133913
 30
0.0
 10
-25.3260456844
 20
24.5973972912
 30
0.0
 10
-25.3364426097
 20
24.6145577078
 30
0.0
 10
-25.3401396457
 20
24.6267444452
 30
0.0
 10
-25.3410502643
 20
24.6326752251
 30
0.0
 11
-25.2685619882
 21
24.5538657228
 31
0.0
 11
-25.2918508003
 21
24.567297762
 31
0.0
 11
-25.3110933357
 21
24.5822457744
 31
0.0
 11
-25.3259005501
 21
24.5984076159
 31
0.0
 11
-25.3359727402
 21
24.6154562599
 31
0.0
 11
-25.3410502643
 21
24.6326752251
 31
0.0
  0
SPLINE
  5
497
100
AcDbEntity
  8
PORTATASTO
100
AcDbSpline
 62
253
  6
CONTINUOUS
 70
0
 71
3
 72
18
 73
14
 74
12
 42
0.0000001
 43
0.0000001
 44
0.0000000001
 12
-0.3253245695
 22
-0.1609677464
 32
0.0
 13
-0.3246495845
 23
0.1623247923
 33
0.0
 40
0.0
 40
0.0
 40
0.0
 40
0.0
 40
0.0808903938
 40
0.1676064876
 40
0.2591130993
 40
0.3541703561
 40
0.4514001688
 40
0.549344556
 40
0.6465199513
 40
0.7414703353
 40
0.8328216347
 40
0.9193402632
 40
1.0
 40
1.0
 40
1.0
 40
1.0
 10
-23.6848927629
 20
23.9378822091
 30
0.0
 10
-23.6936646404
 20
23.933541961
 30
0.0
 10
-23.7123738861
 20
23.9256059113
 30
0.0
 10
-23.7423116267
 20
23.9161731705
 30
0.0
 10
-23.7746125669
 20
23.9089390373
 30
0.0
 10
-23.8086311144
 20
23.9040500439
 30
0.0
 10
-23.8436911565
 20
23.9016037659
 30
0.0
 10
-23.87909192
 20
23.9016497561
 30
0.0
 10
-23.914125975
 20
23.9041870864
 30
0.0
 10
-23.9480931068
 20
23.9091643665
 30
0.0
 10
-23.9803183377
 20
23.9164822842
 30
0.0
 10
-24.0101576846
 20
23.9259926525
 30
0.0
 10
-24.0287894173
 20
23.9339794374
 30
0.0
 10
-24.0375181339
 20
23.9383437957
 30
0.0
 11
-23.6848927629
 21
23.9378822091
 31
0.0
 11
-23.7118763575
 21
23.9263090538
 31
0.0
 11
-23.7418702805
 21
23.9167666399
 31
0.0
 11
-23.7742679991
 21
23.9094479327
 31
0.0
 11
-23.8084143712
 21
23.9045009301
 31
0.0
 11
-23.8436188938
 21
23.9020256695
 31
0.0
 11
-23.879169666
 21
23.9020722055
 31
0.0
 11
-23.9143477852
 21
23.9046395969
 31
0.0
 11
-23.9484418846
 21
23.9096759263
 31
0.0
 11
-23.9807625181
 21
23.9170793499
 31
0.0
 11
-24.0106561025
 21
23.9267001565
 31
0.0
 11
-24.0375181339
 21
23.9383437957
 31
0.0
  0
SPLINE
  5
498
100
AcDbEntity
  8
PORTATASTO
100
AcDbSpline
 62
253
  6
CONTINUOUS
 70
0
 71
3
 72
14
 73
10
 74
8
 42
0.0000001
 43
0.0000001
 44
0.0000000001
 12
0.0
 22
-0.1577570491
 32
0.0
 13
0.1413701496
 23
-0.0707269237
 33
0.0
 40
0.0
 40
0.0
 40
0.0
 40
0.0
 40
0.1743677075
 40
0.3386590498
 40
0.4925403877
 40
0.6365867691
 40
0.7723296719
 40
0.9021624116
 40
1.0
 40
1.0
 40
1.0
 40
1.0
 10
-24.0375181339
 20
23.9383437957
 30
0.0
 10
-24.0375181339
 20
23.9291745507
 30
0.0
 10
-24.0365974176
 20
23.9113460201
 30
0.0
 10
-24.0321859886
 20
23.885755965
 30
0.0
 10
-24.0248334218
 20
23.8624989709
 30
0.0
 10
-24.0146341303
 20
23.8419853804
 30
0.0
 10
-24.0017238543
 20
23.8245855299
 30
0.0
 10
-23.9874400743
 20
23.8116844741
 30
0.0
 10
-23.9771572357
 20
23.8054335736
 30
0.0
 10
-23.9725467975
 20
23.8031269897
 30
0.0
 11
-24.0375181339
 21
23.9383437957
 31
0.0
 11
-24.036010009
 21
23.9108774337
 31
0.0
 11
-24.0315031072
 21
23.8853541768
 31
0.0
 11
-24.0240720164
 21
23.8622436478
 31
0.0
 11
-24.0138456326
 21
23.8419503893
 31
0.0
 11
-24.0009973054
 21
23.824818635
 31
0.0
 11
-23.9857485792
 21
23.81114421
 31
0.0
 11
-23.9725467975
 21
23.8031269897
 31
0.0
  0
SPLINE
  5
499
100
AcDbEntity
  8
PORTATASTO
100
AcDbSpline
 62
253
  6
CONTINUOUS
 70
0
 71
3
 72
12
 73
8
 74
6
 42
0.0000001
 43
0.0000001
 44
0.0000000001
 12
-0.0992113636
 22
0.0496056818
 32
0.0
 13
-0.0168818249
 23
0.1099498659
 33
0.0
 40
0.0
 40
0.0
 40
0.0
 40
0.0
 40
0.2423757552
 40
0.4620472832
 40
0.65965851
 40
0.8381777041
 40
1.0
 40
1.0
 40
1.0
 40
1.0
 10
-11.9219214933
 20
17.8805454754
 30
0.0
 10
-11.9299369697
 20
17.8845532136
 30
0.0
 10
-11.9448279541
 20
17.8930279909
 30
0.0
 10
-11.9642749785
 20
17.9078931438
 30
0.0
 10
-11.9794051895
 20
17.9240770438
 30
0.0
 10
-11.9898021148
 20
17.9412374604
 30
0.0
 10
-11.9934991508
 20
17.9534241978
 30
0.0
 10
-11.9944097694
 20
17.9593549777
 30
0.0
 11
-11.9219214933
 21
17.8805454754
 31
0.0
 11
-11.9452103054
 21
17.8939775145
 31
0.0
 11
-11.9644528408
 21
17.908925527
 31
0.0
 11
-11.9792600553
 21
17.9250873684
 31
0.0
 11
-11.9893322453
 21
17.9421360125
 31
0.0
 11
-11.9944097694
 21
17.9593549777
 31
0.0
  0
SPLINE
  5
49A
100
AcDbEntity
  8
PORTATASTO
100
AcDbSpline
 62
253
  6
CONTINUOUS
 70
0
 71
3
 72
18
 73
14
 74
12
 42
0.0000001
 43
0.0000001
 44
0.0000000001
 12
-0.3253245695
 22
-0.1609677464
 32
0.0
 13
-0.3246495845
 23
0.1623247923
 33
0.0
 40
0.0
 40
0.0
 40
0.0
 40
0.0
 40
0.0808903938
 40
0.1676064876
 40
0.2591130993
 40
0.3541703561
 40
0.4514001688
 40
0.549344556
 40
0.6465199513
 40
0.7414703353
 40
0.8328216347
 40
0.9193402632
 40
1.0
 40
1.0
 40
1.0
 40
1.0
 10
-10.338252268
 20
17.2645619617
 30
0.0
 10
-10.3470241456
 20
17.2602217135
 30
0.0
 10
-10.3657333912
 20
17.2522856639
 30
0.0
 10
-10.3956711318
 20
17.2428529231
 30
0.0
 10
-10.427972072
 20
17.2356187899
 30
0.0
 10
-10.4619906195
 20
17.2307297964
 30
0.0
 10
-10.4970506616
 20
17.2282835185
 30
0.0
 10
-10.5324514251
 20
17.2283295087
 30
0.0
 10
-10.5674854801
 20
17.230866839
 30
0.0
 10
-10.6014526119
 20
17.2358441191
 30
0.0
 10
-10.6336778428
 20
17.2431620367
 30
0.0
 10
-10.6635171897
 20
17.2526724051
 30
0.0
 10
-10.6821489224
 20
17.2606591899
 30
0.0
 10
-10.690877639
 20
17.2650235483
 30
0.0
 11
-10.338252268
 21
17.2645619617
 31
0.0
 11
-10.3652358626
 21
17.2529888064
 31
0.0
 11
-10.3952297856
 21
17.2434463925
 31
0.0
 11
-10.4276275042
 21
17.2361276853
 31
0.0
 11
-10.4617738763
 21
17.2311806826
 31
0.0
 11
-10.4969783989
 21
17.2287054221
 31
0.0
 11
-10.5325291711
 21
17.228751958
 31
0.0
 11
-10.5677072903
 21
17.2313193494
 31
0.0
 11
-10.6018013897
 21
17.2363556789
 31
0.0
 11
-10.6341220232
 21
17.2437591024
 31
0.0
 11
-10.6640156076
 21
17.2533799091
 31
0.0
 11
-10.690877639
 21
17.2650235483
 31
0.0
  0
SPLINE
  5
49B
100
AcDbEntity
  8
PORTATASTO
100
AcDbSpline
 62
253
  6
CONTINUOUS
 70
0
 71
3
 72
14
 73
10
 74
8
 42
0.0000001
 43
0.0000001
 44
0.0000000001
 12
0.0
 22
-0.1577570491
 32
0.0
 13
0.1413701496
 23
-0.0707269237
 33
0.0
 40
0.0
 40
0.0
 40
0.0
 40
0.0
 40
0.1743677075
 40
0.3386590498
 40
0.4925403877
 40
0.6365867691
 40
0.7723296719
 40
0.9021624116
 40
1.0
 40
1.0
 40
1.0
 40
1.0
 10
-10.690877639
 20
17.2650235483
 30
0.0
 10
-10.690877639
 20
17.2558543033
 30
0.0
 10
-10.6899569227
 20
17.2380257727
 30
0.0
 10
-10.6855454937
 20
17.2124357175
 30
0.0
 10
-10.6781929269
 20
17.1891787235
 30
0.0
 10
-10.6679936354
 20
17.1686651329
 30
0.0
 10
-10.6550833594
 20
17.1512652824
 30
0.0
 10
-10.6407995794
 20
17.1383642267
 30
0.0
 10
-10.6305167408
 20
17.1321133262
 30
0.0
 10
-10.6259063026
 20
17.1298067423
 30
0.0
 11
-10.690877639
 21
17.2650235483
 31
0.0
 11
-10.6893695141
 21
17.2375571862
 31
0.0
 11
-10.6848626123
 21
17.2120339293
 31
0.0
 11
-10.6774315215
 21
17.1889234004
 31
0.0
 11
-10.6672051377
 21
17.1686301418
 31
0.0
 11
-10.6543568105
 21
17.1514983875
 31
0.0
 11
-10.6391080843
 21
17.1378239626
 31
0.0
 11
-10.6259063026
 21
17.1298067423
 31
0.0
  0
SPLINE
  5
49C
100
AcDbEntity
  8
PORTATASTO
100
AcDbSpline
 62
253
  6
CONTINUOUS
 70
0
 71
3
 72
18
 73
14
 74
12
 42
0.0000001
 43
0.0000001
 44
0.0000000001
 12
-0.3274336833
 22
-0.1658166109
 32
0.0
 13
0.0
 23
-0.3670258376
 33
0.0
 40
0.0
 40
0.0
 40
0.0
 40
0.0
 40
0.079422804
 40
0.1638981722
 40
0.2528307501
 40
0.3453754709
 40
0.4405064244
 40
0.537077953
 40
0.633880772
 40
0.7296955712
 40
0.8233462304
 40
0.9137547197
 40
1.0
 40
1.0
 40
1.0
 40
1.0
 10
-23.861667035
 20
24.4927439376
 30
0.0
 10
-23.8703356021
 20
24.4883540642
 30
0.0
 10
-23.8875913182
 20
24.4780094165
 30
0.0
 10
-23.9120595015
 20
24.4589858104
 30
0.0
 10
-23.9354918038
 20
24.4363272173
 30
0.0
 10
-23.9574217769
 20
24.4104874976
 30
0.0
 10
-23.97741843
 20
24.3819791228
 30
0.0
 10
-23.9950840269
 20
24.3513700065
 30
0.0
 10
-24.0100669357
 20
24.3192699906
 30
0.0
 10
-24.0220683724
 20
24.2863193572
 30
0.0
 10
-24.0308489121
 20
24.2531721581
 30
0.0
 10
-24.0362327463
 20
24.2204924412
 30
0.0
 10
-24.0375181339
 20
24.1988664205
 30
0.0
 10
-24.0375181339
 20
24.188315005
 30
0.0
 11
-23.861667035
 21
24.4927439376
 31
0.0
 11
-23.8867319876
 21
24.4778616144
 31
0.0
 11
-23.911271363
 21
24.4589114975
 31
0.0
 11
-23.9347889295
 21
24.4362767935
 31
0.0
 11
-23.9568091182
 21
24.4104152183
 31
0.0
 11
-23.97688664
 21
24.3818497408
 31
0.0
 11
-23.9946154902
 21
24.351158008
 31
0.0
 11
-24.0096371584
 21
24.3189606639
 31
0.0
 11
-24.0216478787
 21
24.2859087984
 31
0.0
 11
-24.0304047719
 21
24.2526707818
 31
0.0
 11
-24.0357307574
 21
24.2199187483
 31
0.0
 11
-24.0375181339
 21
24.188315005
 31
0.0
  0
SPLINE
  5
49D
100
AcDbEntity
  8
PORTATASTO
100
AcDbSpline
 62
253
  6
CONTINUOUS
 70
0
 71
3
 72
18
 73
14
 74
12
 42
0.0000001
 43
0.0000001
 44
0.0000000001
 12
-0.0015838354
 22
0.3677667756
 32
0.0
 13
-0.3282452006
 23
0.1658613822
 33
0.0
 40
0.0
 40
0.0
 40
0.0
 40
0.0
 40
0.0862298917
 40
0.1766966374
 40
0.2704573358
 40
0.3664103845
 40
0.4633549994
 40
0.5600473248
 40
0.6552540094
 40
0.7478094658
 40
0.836663259
 40
0.9209608649
 40
1.0
 40
1.0
 40
1.0
 40
1.0
 10
-23.6848927629
 20
24.1878534185
 30
0.0
 10
-23.6849382876
 20
24.1984242482
 30
0.0
 10
-23.6863179491
 20
24.2200934676
 30
0.0
 10
-23.6918401889
 20
24.2528367277
 30
0.0
 10
-23.700757621
 20
24.2860577624
 30
0.0
 10
-23.7128905348
 20
24.3190864094
 30
0.0
 10
-23.7279952355
 20
24.3512624469
 30
0.0
 10
-23.7457683487
 20
24.3819395481
 30
0.0
 10
-23.765853665
 20
24.4105024665
 30
0.0
 10
-23.7878485462
 20
24.4363779771
 30
0.0
 10
-23.8113177416
 20
24.4590497741
 30
0.0
 10
-23.8357813175
 20
24.4780536364
 30
0.0
 10
-23.8530189628
 20
24.4883740909
 30
0.0
 10
-23.861667035
 20
24.4927439376
 30
0.0
 11
-23.6848927629
 21
24.1878534185
 31
0.0
 11
-23.6868155136
 21
24.2195078598
 31
0.0
 11
-23.6922797861
 21
24.2523270508
 31
0.0
 11
-23.7011743015
 21
24.2856425544
 31
0.0
 11
-23.713317922
 21
24.3187759628
 31
0.0
 11
-23.7284633193
 21
24.3510525414
 31
0.0
 11
-23.7463020471
 21
24.3818150645
 31
0.0
 11
-23.7664707228
 21
24.4104370374
 31
0.0
 11
-23.7885590603
 21
24.4363362309
 31
0.0
 11
-23.8121158108
 21
24.458983892
 31
0.0
 11
-23.8366625187
 21
24.4779204228
 31
0.0
 11
-23.861667035
 21
24.4927439376
 31
0.0
  0
SPLINE
  5
49E
100
AcDbEntity
  8
PORTATASTO
100
AcDbSpline
 62
253
  6
CONTINUOUS
 70
0
 71
3
 72
18
 73
14
 74
12
 42
0.0000001
 43
0.0000001
 44
0.0000000001
 12
0.3246495934
 22
-0.1623247967
 32
0.0
 13
0.3253245784
 23
0.1609677508
 33
0.0
 40
0.0
 40
0.0
 40
0.0
 40
0.0
 40
0.0805600317
 40
0.1670785676
 40
0.2584318395
 40
0.353391101
 40
0.4505764045
 40
0.5485331093
 40
0.645776605
 40
0.7408481865
 40
0.8323689073
 40
0.9190982169
 40
1.0
 40
1.0
 40
1.0
 40
1.0
 10
-24.0375181339
 20
24.188315005
 30
0.0
 10
-24.0288002068
 20
24.1839560415
 30
0.0
 10
-24.0101802607
 20
24.175972743
 30
0.0
 10
-23.9803531481
 20
24.1664628676
 30
0.0
 10
-23.9481272826
 20
24.1591418371
 30
0.0
 10
-23.9141580155
 20
24.1541616847
 30
0.0
 10
-23.8791203528
 20
24.1516219085
 30
0.0
 10
-23.8437152349
 20
24.1515740483
 30
0.0
 10
-23.8086502055
 20
24.1540191126
 30
0.0
 10
-23.7746264235
 20
24.1589075926
 30
0.0
 10
-23.7423203468
 20
24.1661419139
 30
0.0
 10
-23.7123779427
 20
24.1755754908
 30
0.0
 10
-23.6936658758
 20
24.1835125591
 30
0.0
 10
-23.6848927629
 20
24.1878534185
 30
0.0
 11
-24.0375181339
 21
24.188315005
 31
0.0
 11
-24.0106900336
 21
24.176684081
 31
0.0
 11
-23.9807974951
 21
24.1670601321
 31
0.0
 11
-23.94847682
 21
24.1596536807
 31
0.0
 11
-23.9143799082
 21
24.1546143333
 31
0.0
 11
-23.8791983621
 21
24.1520444762
 31
0.0
 11
-23.8436431206
 21
24.1519960479
 31
0.0
 11
-23.8084335325
 21
24.154470089
 31
0.0
 11
-23.7742818335
 21
24.1594165923
 31
0.0
 11
-23.7418789128
 21
24.1667355165
 31
0.0
 11
-23.7118802395
 21
24.1762788246
 31
0.0
 11
-23.6848927629
 21
24.1878534185
 31
0.0
  0
SPLINE
  5
49F
100
AcDbEntity
  8
PORTATASTO
100
AcDbSpline
 62
253
  6
CONTINUOUS
 70
0
 71
3
 72
12
 73
8
 74
6
 42
0.0000001
 43
0.0000001
 44
0.0000000001
 12
-0.105075395
 22
0.05198689
 32
0.0
 13
-0.1046068627
 23
-0.053485869
 33
0.0
 40
0.0
 40
0.0
 40
0.0
 40
0.0
 40
0.2328889945
 40
0.4495112485
 40
0.6519220999
 40
0.8438975281
 40
1.0
 40
1.0
 40
1.0
 40
1.0
 10
-25.0927108893
 20
25.1082658648
 30
0.0
 10
-25.100867857
 20
25.1123015896
 30
0.0
 10
-25.1171655305
 20
25.1190538737
 30
0.0
 10
-25.142071884
 20
25.1249597837
 30
0.0
 10
-25.166078384
 20
25.1261057504
 30
0.0
 10
-25.1874783051
 20
25.1225814469
 30
0.0
 10
-25.2002252763
 20
25.1175623144
 30
0.0
 10
-25.2056684063
 20
25.1147792223
 30
0.0
 11
-25.0927108893
 21
25.1082658648
 31
0.0
 11
-25.1179903545
 21
25.1185788379
 31
0.0
 11
-25.1427363787
 21
25.1242840659
 31
0.0
 11
-25.166445222
 21
25.1252654108
 31
0.0
 11
-25.1886342573
 21
25.121502896
 31
0.0
 11
-25.2056684063
 21
25.1147792223
 31
0.0
  0
SPLINE
  5
4A0
100
AcDbEntity
  8
PORTATASTO
100
AcDbSpline
 62
253
  6
CONTINUOUS
 70
0
 71
3
 72
12
 73
8
 74
6
 42
0.0000001
 43
0.0000001
 44
0.0000000001
 12
0.0
 22
0.1580720269
 32
0.0
 13
0.0689400312
 23
0.142302146
 33
0.0
 40
0.0
 40
0.0
 40
0.0
 40
0.0
 40
0.2002807734
 40
0.410231436
 40
0.627711274
 40
0.8502158163
 40
1.0
 40
1.0
 40
1.0
 40
1.0
 10
-25.2685619882
 20
24.8038369322
 30
0.0
 10
-25.2685619882
 20
24.8143898614
 30
0.0
 10
-25.2672762267
 20
24.8360190928
 30
0.0
 10
-25.2618908746
 20
24.8687036083
 30
0.0
 10
-25.2531078948
 20
24.9018555537
 30
0.0
 10
-25.2424578128
 20
24.9310919394
 30
0.0
 10
-25.2344155294
 20
24.9489994674
 30
0.0
 10
-25.2309734873
 20
24.9561043377
 30
0.0
 11
-25.2685619882
 21
24.8038369322
 31
0.0
 11
-25.266774112
 21
24.835445196
 31
0.0
 11
-25.2614466164
 21
24.8682021258
 31
0.0
 11
-25.2526872778
 21
24.9014449452
 31
0.0
 11
-25.2406733026
 21
24.9345011999
 31
0.0
 11
-25.2309734873
 21
24.9561043377
 31
0.0
  0
SPLINE
  5
4A1
100
AcDbEntity
  8
PORTATASTO
100
AcDbSpline
 62
253
  6
CONTINUOUS
 70
0
 71
3
 72
14
 73
10
 74
8
 42
0.0000001
 43
0.0000001
 44
0.0000000001
 12
0.0869920683
 22
0.1795641485
 32
0.0
 13
0.1738022251
 23
0.0981016846
 33
0.0
 40
0.0
 40
0.0
 40
0.0
 40
0.0
 40
0.0594463549
 40
0.2371663724
 40
0.4122312226
 40
0.5825355804
 40
0.7461808724
 40
0.901621686
 40
1.0
 40
1.0
 40
1.0
 40
1.0
 10
-25.2309734873
 20
24.9561043377
 30
0.0
 10
-25.2292497002
 20
24.9596624824
 30
0.0
 10
-25.2221660146
 20
24.9737580217
 30
0.0
 10
-25.2084466957
 20
24.9975257572
 30
0.0
 10
-25.1884456253
 20
25.0260355689
 30
0.0
 10
-25.1665115544
 20
25.0518750748
 30
0.0
 10
-25.1430756953
 20
25.0745319145
 30
0.0
 10
-25.1211171098
 20
25.0915995934
 30
0.0
 10
-25.1067787807
 20
25.1005684941
 30
0.0
 10
-25.1010793241
 20
25.1037855203
 30
0.0
 11
-25.2309734873
 21
24.9561043377
 31
0.0
 11
-25.2256477629
 21
24.9667021729
 31
0.0
 11
-25.2079146431
 21
24.9973965108
 31
0.0
 11
-25.1878327904
 21
25.0259632359
 31
0.0
 11
-25.1658080212
 21
25.0518250892
 31
0.0
 11
-25.1422873351
 21
25.0744575486
 31
0.0
 11
-25.1177452845
 21
25.0934043797
 31
0.0
 11
-25.1010793241
 21
25.1037855203
 31
0.0
  0
SPLINE
  5
4A2
100
AcDbEntity
  8
PORTATASTO
100
AcDbSpline
 62
253
  6
CONTINUOUS
 70
0
 71
3
 72
12
 73
8
 74
6
 42
0.0000001
 43
0.0000001
 44
0.0000000001
 12
-0.105075395
 22
0.05198689
 32
0.0
 13
-0.1046068627
 23
-0.053485869
 33
0.0
 40
0.0
 40
0.0
 40
0.0
 40
0.0
 40
0.2328889945
 40
0.4495112485
 40
0.6519220999
 40
0.8438975281
 40
1.0
 40
1.0
 40
1.0
 40
1.0
 10
-11.7460703944
 20
18.4349456173
 30
0.0
 10
-11.7542273621
 20
18.4389813422
 30
0.0
 10
-11.7705250356
 20
18.4457336262
 30
0.0
 10
-11.7954313891
 20
18.4516395362
 30
0.0
 10
-11.8194378891
 20
18.452785503
 30
0.0
 10
-11.8408378102
 20
18.4492611995
 30
0.0
 10
-11.8535847814
 20
18.4442420669
 30
0.0
 10
-11.8590279114
 20
18.4414589748
 30
0.0
 11
-11.7460703944
 21
18.4349456173
 31
0.0
 11
-11.7713498596
 21
18.4452585904
 31
0.0
 11
-11.7960958838
 21
18.4509638184
 31
0.0
 11
-11.8198047271
 21
18.4519451633
 31
0.0
 11
-11.8419937624
 21
18.4481826485
 31
0.0
 11
-11.8590279114
 21
18.4414589748
 31
0.0
  0
SPLINE
  5
4A3
100
AcDbEntity
  8
PORTATASTO
100
AcDbSpline
 62
253
  6
CONTINUOUS
 70
0
 71
3
 72
12
 73
8
 74
6
 42
0.0000001
 43
0.0000001
 44
0.0000000001
 12
0.0
 22
0.1580720269
 32
0.0
 13
0.0689400312
 23
0.142302146
 33
0.0
 40
0.0
 40
0.0
 40
0.0
 40
0.0
 40
0.2002807734
 40
0.410231436
 40
0.627711274
 40
0.8502158163
 40
1.0
 40
1.0
 40
1.0
 40
1.0
 10
-11.9219214933
 20
18.1305166847
 30
0.0
 10
-11.9219214933
 20
18.141069614
 30
0.0
 10
-11.9206357318
 20
18.1626988454
 30
0.0
 10
-11.9152503797
 20
18.1953833609
 30
0.0
 10
-11.9064673999
 20
18.2285353063
 30
0.0
 10
-11.8958173179
 20
18.257771692
 30
0.0
 10
-11.8877750345
 20
18.27567922
 30
0.0
 10
-11.8843329924
 20
18.2827840902
 30
0.0
 11
-11.9219214933
 21
18.1305166847
 31
0.0
 11
-11.9201336171
 21
18.1621249486
 31
0.0
 11
-11.9148061215
 21
18.1948818784
 31
0.0
 11
-11.9060467829
 21
18.2281246977
 31
0.0
 11
-11.8940328077
 21
18.2611809524
 31
0.0
 11
-11.8843329924
 21
18.2827840902
 31
0.0
  0
SPLINE
  5
4A4
100
AcDbEntity
  8
PORTATASTO
100
AcDbSpline
 62
253
  6
CONTINUOUS
 70
0
 71
3
 72
14
 73
10
 74
8
 42
0.0000001
 43
0.0000001
 44
0.0000000001
 12
0.0869920683
 22
0.1795641485
 32
0.0
 13
0.1738022251
 23
0.0981016846
 33
0.0
 40
0.0
 40
0.0
 40
0.0
 40
0.0
 40
0.0594463549
 40
0.2371663724
 40
0.4122312226
 40
0.5825355804
 40
0.7461808724
 40
0.901621686
 40
1.0
 40
1.0
 40
1.0
 40
1.0
 10
-11.8843329924
 20
18.2827840902
 30
0.0
 10
-11.8826092053
 20
18.2863422349
 30
0.0
 10
-11.8755255197
 20
18.3004377742
 30
0.0
 10
-11.8618062008
 20
18.3242055098
 30
0.0
 10
-11.8418051304
 20
18.3527153215
 30
0.0
 10
-11.8198710595
 20
18.3785548273
 30
0.0
 10
-11.7964352004
 20
18.401211667
 30
0.0
 10
-11.7744766149
 20
18.418279346
 30
0.0
 10
-11.7601382858
 20
18.4272482467
 30
0.0
 10
-11.7544388292
 20
18.4304652728
 30
0.0
 11
-11.8843329924
 21
18.2827840902
 31
0.0
 11
-11.879007268
 21
18.2933819254
 31
0.0
 11
-11.8612741482
 21
18.3240762633
 31
0.0
 11
-11.8411922955
 21
18.3526429884
 31
0.0
 11
-11.8191675263
 21
18.3785048418
 31
0.0
 11
-11.7956468403
 21
18.4011373012
 31
0.0
 11
-11.7711047896
 21
18.4200841322
 31
0.0
 11
-11.7544388292
 21
18.4304652728
 31
0.0
  0
SPLINE
  5
4A5
100
AcDbEntity
  8
PORTATASTO
100
AcDbSpline
 62
253
  6
CONTINUOUS
 70
0
 71
3
 72
18
 73
14
 74
12
 42
0.0000001
 43
0.0000001
 44
0.0000000001
 12
-0.3274336833
 22
-0.1658166109
 32
0.0
 13
0.0
 23
-0.3670258376
 33
0.0
 40
0.0
 40
0.0
 40
0.0
 40
0.0
 40
0.079422804
 40
0.1638981722
 40
0.2528307501
 40
0.3453754709
 40
0.4405064244
 40
0.537077953
 40
0.633880772
 40
0.7296955712
 40
0.8233462304
 40
0.9137547197
 40
1.0
 40
1.0
 40
1.0
 40
1.0
 10
-10.5150265401
 20
17.8194236902
 30
0.0
 10
-10.5236951072
 20
17.8150338168
 30
0.0
 10
-10.5409508233
 20
17.8046891691
 30
0.0
 10
-10.5654190066
 20
17.785665563
 30
0.0
 10
-10.5888513089
 20
17.7630069699
 30
0.0
 10
-10.610781282
 20
17.7371672501
 30
0.0
 10
-10.6307779351
 20
17.7086588754
 30
0.0
 10
-10.648443532
 20
17.678049759
 30
0.0
 10
-10.6634264408
 20
17.6459497432
 30
0.0
 10
-10.6754278775
 20
17.6129991097
 30
0.0
 10
-10.6842084172
 20
17.5798519106
 30
0.0
 10
-10.6895922514
 20
17.5471721938
 30
0.0
 10
-10.690877639
 20
17.525546173
 30
0.0
 10
-10.690877639
 20
17.5149947576
 30
0.0
 11
-10.5150265401
 21
17.8194236902
 31
0.0
 11
-10.5400914927
 21
17.8045413669
 31
0.0
 11
-10.5646308681
 21
17.78559125
 31
0.0
 11
-10.5881484346
 21
17.7629565461
 31
0.0
 11
-10.6101686233
 21
17.7370949708
 31
0.0
 11
-10.6302461451
 21
17.7085294933
 31
0.0
 11
-10.6479749953
 21
17.6778377606
 31
0.0
 11
-10.6629966635
 21
17.6456404164
 31
0.0
 11
-10.6750073838
 21
17.612588551
 31
0.0
 11
-10.683764277
 21
17.5793505343
 31
0.0
 11
-10.6890902625
 21
17.5465985009
 31
0.0
 11
-10.690877639
 21
17.5149947576
 31
0.0
  0
SPLINE
  5
4A6
100
AcDbEntity
  8
PORTATASTO
100
AcDbSpline
 62
253
  6
CONTINUOUS
 70
0
 71
3
 72
18
 73
14
 74
12
 42
0.0000001
 43
0.0000001
 44
0.0000000001
 12
-0.0015838354
 22
0.3677667756
 32
0.0
 13
-0.3282452006
 23
0.1658613822
 33
0.0
 40
0.0
 40
0.0
 40
0.0
 40
0.0
 40
0.0862298917
 40
0.1766966374
 40
0.2704573358
 40
0.3664103845
 40
0.4633549994
 40
0.5600473248
 40
0.6552540094
 40
0.7478094658
 40
0.836663259
 40
0.9209608649
 40
1.0
 40
1.0
 40
1.0
 40
1.0
 10
-10.338252268
 20
17.514533171
 30
0.0
 10
-10.3382977927
 20
17.5251040008
 30
0.0
 10
-10.3396774542
 20
17.5467732201
 30
0.0
 10
-10.345199694
 20
17.5795164802
 30
0.0
 10
-10.3541171261
 20
17.612737515
 30
0.0
 10
-10.3662500399
 20
17.645766162
 30
0.0
 10
-10.3813547406
 20
17.6779421995
 30
0.0
 10
-10.3991278538
 20
17.7086193007
 30
0.0
 10
-10.4192131701
 20
17.737182219
 30
0.0
 10
-10.4412080514
 20
17.7630577296
 30
0.0
 10
-10.4646772467
 20
17.7857295267
 30
0.0
 10
-10.4891408226
 20
17.804733389
 30
0.0
 10
-10.5063784679
 20
17.8150538434
 30
0.0
 10
-10.5150265401
 20
17.8194236902
 30
0.0
 11
-10.338252268
 21
17.514533171
 31
0.0
 11
-10.3401750187
 21
17.5461876123
 31
0.0
 11
-10.3456392912
 21
17.5790068033
 31
0.0
 11
-10.3545338066
 21
17.6123223069
 31
0.0
 11
-10.3666774271
 21
17.6454557153
 31
0.0
 11
-10.3818228245
 21
17.6777322939
 31
0.0
 11
-10.3996615522
 21
17.7084948171
 31
0.0
 11
-10.4198302279
 21
17.7371167899
 31
0.0
 11
-10.4419185654
 21
17.7630159835
 31
0.0
 11
-10.4654753159
 21
17.7856636446
 31
0.0
 11
-10.4900220238
 21
17.8046001754
 31
0.0
 11
-10.5150265401
 21
17.8194236902
 31
0.0
  0
SPLINE
  5
4A7
100
AcDbEntity
  8
PORTATASTO
100
AcDbSpline
 62
253
  6
CONTINUOUS
 70
0
 71
3
 72
18
 73
14
 74
12
 42
0.0000001
 43
0.0000001
 44
0.0000000001
 12
0.3246495934
 22
-0.1623247967
 32
0.0
 13
0.3253245784
 23
0.1609677508
 33
0.0
 40
0.0
 40
0.0
 40
0.0
 40
0.0
 40
0.0805600317
 40
0.1670785676
 40
0.2584318395
 40
0.353391101
 40
0.4505764045
 40
0.5485331093
 40
0.645776605
 40
0.7408481865
 40
0.8323689073
 40
0.9190982169
 40
1.0
 40
1.0
 40
1.0
 40
1.0
 10
-10.690877639
 20
17.5149947576
 30
0.0
 10
-10.6821597119
 20
17.510635794
 30
0.0
 10
-10.6635397658
 20
17.5026524956
 30
0.0
 10
-10.6337126532
 20
17.4931426201
 30
0.0
 10
-10.6014867877
 20
17.4858215897
 30
0.0
 10
-10.5675175206
 20
17.4808414373
 30
0.0
 10
-10.5324798579
 20
17.478301661
 30
0.0
 10
-10.49707474
 20
17.4782538009
 30
0.0
 10
-10.4620097106
 20
17.4806988652
 30
0.0
 10
-10.4279859286
 20
17.4855873451
 30
0.0
 10
-10.3956798519
 20
17.4928216664
 30
0.0
 10
-10.3657374479
 20
17.5022552433
 30
0.0
 10
-10.3470253809
 20
17.5101923117
 30
0.0
 10
-10.338252268
 20
17.514533171
 30
0.0
 11
-10.690877639
 21
17.5149947576
 31
0.0
 11
-10.6640495387
 21
17.5033638335
 31
0.0
 11
-10.6341570002
 21
17.4937398846
 31
0.0
 11
-10.6018363251
 21
17.4863334332
 31
0.0
 11
-10.5677394133
 21
17.4812940859
 31
0.0
 11
-10.5325578673
 21
17.4787242287
 31
0.0
 11
-10.4970026257
 21
17.4786758004
 31
0.0
 11
-10.4617930377
 21
17.4811498416
 31
0.0
 11
-10.4276413386
 21
17.4860963448
 31
0.0
 11
-10.3952384179
 21
17.4934152691
 31
0.0
 11
-10.3652397446
 21
17.5029585771
 31
0.0
 11
-10.338252268
 21
17.514533171
 31
0.0
  0
SPLINE
  5
4A8
100
AcDbEntity
  8
PORTATASTO
100
AcDbSpline
 62
253
  6
CONTINUOUS
 70
0
 71
3
 72
17
 73
13
 74
11
 42
0.0000001
 43
0.0000001
 44
0.0000000001
 12
-0.1070926538
 22
-0.2789892123
 32
0.0
 13
-0.2929479529
 23
0.0611060668
 33
0.0
 40
0.0
 40
0.0
 40
0.0
 40
0.0
 40
0.117387821
 40
0.2325750288
 40
0.3448462271
 40
0.4536747247
 40
0.5587747311
 40
0.6601470123
 40
0.7581101567
 40
0.8533057292
 40
0.9466639717
 40
1.0
 40
1.0
 40
1.0
 40
1.0
 10
-7.2418832731
 20
15.8717075501
 30
0.0
 10
-7.2460737309
 20
15.8607909049
 30
0.0
 10
-7.2555941044
 20
15.8396051333
 30
0.0
 10
-7.2732410974
 20
15.8100442928
 30
0.0
 10
-7.2938147252
 20
15.7834974151
 30
0.0
 10
-7.3169096158
 20
15.7605052209
 30
0.0
 10
-7.3420744772
 20
15.7415353031
 30
0.0
 10
-7.3688156095
 20
15.7269835279
 30
0.0
 10
-7.3966032557
 20
15.7171656237
 30
0.0
 10
-7.4248739375
 20
15.7123087131
 30
0.0
 10
-7.4491023143
 20
15.7125083356
 30
0.0
 10
-7.4635822991
 20
15.7147412387
 30
0.0
 10
-7.4687905259
 20
15.7158276237
 30
0.0
 11
-7.2418832731
 21
15.8717075501
 31
0.0
 11
-7.2562908319
 21
15.8397228668
 31
0.0
 11
-7.2739739475
 21
15.8101898555
 31
0.0
 11
-7.2945738388
 21
15.7837077258
 31
0.0
 11
-7.3176725417
 21
15.7608137888
 31
0.0
 11
-7.3428013869
 21
15.7419725543
 31
0.0
 11
-7.3694505165
 21
15.7275662977
 31
0.0
 11
-7.3970792332
 21
15.7178873054
 31
0.0
 11
-7.4251269671
 21
15.7131319501
 31
0.0
 11
-7.4530246493
 21
15.7133967076
 31
0.0
 11
-7.4687905259
 21
15.7158276237
 31
0.0
  0
SPLINE
  5
4A9
100
AcDbEntity
  8
PORTATASTO
100
AcDbSpline
 62
253
  6
CONTINUOUS
 70
0
 71
3
 72
17
 73
13
 74
11
 42
0.0000001
 43
0.0000001
 44
0.0000000001
 12
-0.1070926538
 22
-0.2789892123
 32
0.0
 13
-0.2929479529
 23
0.0611060668
 33
0.0
 40
0.0
 40
0.0
 40
0.0
 40
0.0
 40
0.117387821
 40
0.2325750288
 40
0.3448462271
 40
0.4536747247
 40
0.5587747311
 40
0.6601470123
 40
0.7581101567
 40
0.8533057292
 40
0.9466639717
 40
1.0
 40
1.0
 40
1.0
 40
1.0
 10
6.1047572218
 20
9.1983873027
 30
0.0
 10
6.100566764
 20
9.1874706574
 30
0.0
 10
6.0910463905
 20
9.1662848858
 30
0.0
 10
6.0733993975
 20
9.1367240454
 30
0.0
 10
6.0528257696
 20
9.1101771677
 30
0.0
 10
6.0297308791
 20
9.0871849735
 30
0.0
 10
6.0045660177
 20
9.0682150557
 30
0.0
 10
5.9778248854
 20
9.0536632804
 30
0.0
 10
5.9500372392
 20
9.0438453762
 30
0.0
 10
5.9217665574
 20
9.0389884656
 30
0.0
 10
5.8975381806
 20
9.0391880881
 30
0.0
 10
5.8830581958
 20
9.0414209912
 30
0.0
 10
5.877849969
 20
9.0425073762
 30
0.0
 11
6.1047572218
 21
9.1983873027
 31
0.0
 11
6.090349663
 21
9.1664026194
 31
0.0
 11
6.0726665474
 21
9.1368696081
 31
0.0
 11
6.0520666561
 21
9.1103874783
 31
0.0
 11
6.0289679532
 21
9.0874935413
 31
0.0
 11
6.003839108
 21
9.0686523069
 31
0.0
 11
5.9771899784
 21
9.0542460503
 31
0.0
 11
5.9495612617
 21
9.044567058
 31
0.0
 11
5.9215135278
 21
9.0398117026
 31
0.0
 11
5.8936158456
 21
9.0400764602
 31
0.0
 11
5.877849969
 21
9.0425073762
 31
0.0
  0
SPLINE
  5
4AA
100
AcDbEntity
  8
PORTATASTO
100
AcDbSpline
 62
253
  6
CONTINUOUS
 70
0
 71
3
 72
18
 73
14
 74
12
 42
0.0000001
 43
0.0000001
 44
0.0000000001
 12
-0.3253245715
 22
-0.1609677474
 32
0.0
 13
-0.3246495851
 23
0.1623247962
 33
0.0
 40
0.0
 40
0.0
 40
0.0
 40
0.0
 40
0.0808905037
 40
0.1676067215
 40
0.2591134666
 40
0.3541708501
 40
0.4514007463
 40
0.5493451494
 40
0.6465204955
 40
0.7414707758
 40
0.8328219349
 40
0.9193404073
 40
1.0
 40
1.0
 40
1.0
 40
1.0
 10
6.2824595261
 20
-31.0614963744
 30
0.0
 10
6.2736876366
 20
-31.0658366284
 30
0.0
 10
6.254978364
 20
-31.0737726878
 30
0.0
 10
6.225040579
 20
-31.0832054365
 30
0.0
 10
6.1927395912
 20
-31.0904395712
 30
0.0
 10
6.1587210005
 20
-31.095328559
 30
0.0
 10
6.1236609299
 20
-31.0977748248
 30
0.0
 10
6.0882601601
 20
-31.0977288196
 30
0.0
 10
6.0532261225
 20
-31.0951914756
 30
0.0
 10
6.0192590277
 20
-31.0902141873
 30
0.0
 10
5.9870338464
 20
-31.0828962694
 30
0.0
 10
5.9571945525
 20
-31.07338591
 30
0.0
 10
5.9385628542
 20
-31.0653991374
 30
0.0
 10
5.9298341531
 20
-31.0610347868
 30
0.0
 11
6.2824595261
 21
-31.0614963744
 31
0.0
 11
6.2554758939
 21
-31.0730695436
 31
0.0
 11
6.2254819262
 21
-31.0826119658
 31
0.0
 11
6.1930841582
 21
-31.0899306751
 31
0.0
 11
6.1589377386
 21
-31.0948776726
 31
0.0
 11
6.1237331847
 21
-31.0973529212
 31
0.0
 11
6.0881824064
 21
-31.09730637
 31
0.0
 11
6.0530043059
 21
-31.0947389649
 31
0.0
 11
6.0189102455
 21
-31.0897026274
 31
0.0
 11
5.986589664
 21
-31.0822992044
 31
0.0
 11
5.9566961356
 21
-31.0726784079
 31
0.0
 11
5.9298341531
 21
-31.0610347868
 31
0.0
  0
SPLINE
  5
4AB
100
AcDbEntity
  8
PORTATASTO
100
AcDbSpline
 62
253
  6
CONTINUOUS
 70
0
 71
3
 72
18
 73
14
 74
12
 42
0.0000001
 43
0.0000001
 44
0.0000000001
 12
0.3246495851
 22
-0.1623247962
 32
0.0
 13
0.3253245715
 23
0.1609677474
 33
0.0
 40
0.0
 40
0.0
 40
0.0
 40
0.0
 40
0.0806595925
 40
0.1671780649
 40
0.2585292238
 40
0.3534795041
 40
0.4506548502
 40
0.5485992532
 40
0.6458291495
 40
0.7408865332
 40
0.8323932784
 40
0.9191094963
 40
1.0
 40
1.0
 40
1.0
 40
1.0
 10
-7.4168063418
 20
15.5850946808
 30
0.0
 10
-7.4080776407
 20
15.5807303302
 30
0.0
 10
-7.3894459424
 20
15.5727435576
 30
0.0
 10
-7.3596066486
 20
15.5632331982
 30
0.0
 10
-7.3273814674
 20
15.5559152803
 30
0.0
 10
-7.2934143725
 20
15.550937992
 30
0.0
 10
-7.2583803349
 20
15.548400648
 30
0.0
 10
-7.2229795652
 20
15.5483546427
 30
0.0
 10
-7.1879194945
 20
15.5508009086
 30
0.0
 10
-7.1539009037
 20
15.5556898964
 30
0.0
 10
-7.121599916
 20
15.562924031
 30
0.0
 10
-7.0916621309
 20
15.5723567798
 30
0.0
 10
-7.0729528583
 20
15.5802928392
 30
0.0
 10
-7.0641809688
 20
15.5846330932
 30
0.0
 11
-7.4168063418
 21
15.5850946808
 31
0.0
 11
-7.3899443593
 21
15.5734510597
 31
0.0
 11
-7.360050831
 21
15.5638302633
 31
0.0
 11
-7.3277302495
 21
15.5564268402
 31
0.0
 11
-7.2936361892
 21
15.5513905027
 31
0.0
 11
-7.2584580886
 21
15.5488230976
 31
0.0
 11
-7.2229073104
 21
15.5487765464
 31
0.0
 11
-7.1877027564
 21
15.551251795
 31
0.0
 11
-7.1535563368
 21
15.5561987925
 31
0.0
 11
-7.1211585688
 21
15.5635175018
 31
0.0
 11
-7.091164601
 21
15.573059924
 31
0.0
 11
-7.0641809688
 21
15.5846330932
 31
0.0
  0
SPLINE
  5
4AC
100
AcDbEntity
  8
PORTATASTO
100
AcDbSpline
 62
253
  6
CONTINUOUS
 70
0
 71
3
 72
18
 73
14
 74
12
 42
0.0000001
 43
0.0000001
 44
0.0000000001
 12
0.3246495851
 22
-0.1623247962
 32
0.0
 13
0.3253245715
 23
0.1609677474
 33
0.0
 40
0.0
 40
0.0
 40
0.0
 40
0.0
 40
0.0806595925
 40
0.1671780649
 40
0.2585292238
 40
0.3534795041
 40
0.4506548502
 40
0.5485992532
 40
0.6458291495
 40
0.7408865332
 40
0.8323932784
 40
0.9191094963
 40
1.0
 40
1.0
 40
1.0
 40
1.0
 10
5.9298341531
 20
8.9117744334
 30
0.0
 10
5.9385628542
 20
8.9074100827
 30
0.0
 10
5.9571945525
 20
8.8994233102
 30
0.0
 10
5.9870338463
 20
8.8899129507
 30
0.0
 10
6.0192590275
 20
8.8825950329
 30
0.0
 10
6.0532261224
 20
8.8776177445
 30
0.0
 10
6.08826016
 20
8.8750804006
 30
0.0
 10
6.1236609297
 20
8.8750343953
 30
0.0
 10
6.1587210004
 20
8.8774806612
 30
0.0
 10
6.1927395912
 20
8.8823696489
 30
0.0
 10
6.2250405789
 20
8.8896037836
 30
0.0
 10
6.254978364
 20
8.8990365323
 30
0.0
 10
6.2736876366
 20
8.9069725917
 30
0.0
 10
6.2824595261
 20
8.9113128458
 30
0.0
 11
5.9298341531
 21
8.9117744334
 31
0.0
 11
5.9566961356
 21
8.9001308123
 31
0.0
 11
5.9865896639
 21
8.8905100158
 31
0.0
 11
6.0189102454
 21
8.8831065928
 31
0.0
 11
6.0530043057
 21
8.8780702553
 31
0.0
 11
6.0881824063
 21
8.8755028502
 31
0.0
 11
6.1237331845
 21
8.8754562989
 31
0.0
 11
6.1589377385
 21
8.8779315475
 31
0.0
 11
6.1930841581
 21
8.8828785451
 31
0.0
 11
6.2254819261
 21
8.8901972543
 31
0.0
 11
6.2554758939
 21
8.8997396766
 31
0.0
 11
6.2824595261
 21
8.9113128458
 31
0.0
  0
SPLINE
  5
4AD
100
AcDbEntity
  8
PORTATASTO
100
AcDbSpline
 62
253
  6
CONTINUOUS
 70
0
 71
3
 72
18
 73
14
 74
12
 42
0.0000001
 43
0.0000001
 44
0.0000000001
 12
0.316712193
 22
-0.160487659
 32
0.0
 13
0.1868711975
 23
-0.3018974287
 33
0.0
 40
0.0
 40
0.0
 40
0.0
 40
0.0
 40
0.083132314
 40
0.173059602
 40
0.268176759
 40
0.3667389532
 40
0.4669124929
 40
0.5668230063
 40
0.6646027168
 40
0.7584378387
 40
0.8466172898
 40
0.9275849004
 40
1.0
 40
1.0
 40
1.0
 40
1.0
 10
5.8405201979
 20
-31.2922661568
 30
0.0
 10
5.8492965371
 20
-31.2967133936
 30
0.0
 10
5.8672651329
 20
-31.306571959
 30
0.0
 10
5.8942676567
 20
-31.3232735678
 30
0.0
 10
5.9219850589
 20
-31.3422235419
 30
0.0
 10
5.9498556061
 20
-31.3630415253
 30
0.0
 10
5.9773161744
 20
-31.3853090577
 30
0.0
 10
6.0038116554
 20
-31.4085765618
 30
0.0
 10
6.02880752
 20
-31.4323736042
 30
0.0
 10
6.0518006263
 20
-31.4562182936
 30
0.0
 10
6.0723317023
 20
-31.4796288533
 30
0.0
 10
6.08999144
 20
-31.5021301892
 30
0.0
 10
6.1002464563
 20
-31.5171346067
 30
0.0
 10
6.1047572218
 20
-31.5244219175
 30
0.0
 11
5.8405201979
 21
-31.2922661568
 31
0.0
 11
5.866434238
 21
-31.3063970068
 31
0.0
 11
5.8936158455
 21
-31.3231487368
 31
0.0
 11
5.9215135276
 21
-31.3421814689
 31
0.0
 11
5.9495612616
 21
-31.3631090453
 31
0.0
 11
5.9771899783
 21
-31.3855068625
 31
0.0
 11
6.0038391079
 21
-31.4089204852
 31
0.0
 11
6.0289679531
 21
-31.4328748664
 31
0.0
 11
6.0520666561
 21
-31.4568839807
 31
0.0
 11
6.0726665473
 21
-31.4804606883
 31
0.0
 11
6.090349663
 21
-31.5031266273
 31
0.0
 11
6.1047572218
 21
-31.5244219175
 31
0.0
  0
SPLINE
  5
4AE
100
AcDbEntity
  8
PORTATASTO
100
AcDbSpline
 62
253
  6
CONTINUOUS
 70
0
 71
3
 72
16
 73
12
 74
10
 42
0.0000001
 43
0.0000001
 44
0.0000000001
 12
0.0000000116
 22
-0.252579449
 32
0.0
 13
-0.1625428153
 23
-0.1933292819
 33
0.0
 40
0.0
 40
0.0
 40
0.0
 40
0.0
 40
0.101180106
 40
0.2073368143
 40
0.3174493626
 40
0.4299455758
 40
0.5439979907
 40
0.6592371244
 40
0.774710542
 40
0.8888335701
 40
1.0
 40
1.0
 40
1.0
 40
1.0
 10
5.9298341545
 20
-31.0610360146
 30
0.0
 10
5.9298341549
 20
-31.0695546864
 30
0.0
 10
5.928985907
 20
-31.0870192147
 30
0.0
 10
5.9253605451
 20
-31.1135292746
 30
0.0
 10
5.9193769902
 20
-31.1405850585
 30
0.0
 10
5.9111299422
 20
-31.1677312967
 30
0.0
 10
5.9007423266
 20
-31.1945946476
 30
0.0
 10
5.888334231
 20
-31.2208634242
 30
0.0
 10
5.87406571
 20
-31.246177557
 30
0.0
 10
5.8581874239
 20
-31.270102218
 30
0.0
 10
5.8465432403
 20
-31.2851023193
 30
0.0
 10
5.8405201388
 20
-31.292266228
 30
0.0
 11
5.9298341545
 21
-31.0610360146
 31
0.0
 11
5.9286443859
 21
-31.0865643199
 31
0.0
 11
5.9250524443
 21
-31.1131356406
 31
0.0
 11
5.9190774227
 21
-31.1402984044
 31
0.0
 11
5.9108387353
 21
-31.1674920173
 31
0.0
 11
5.9004608125
 21
-31.194365034
 31
0.0
 11
5.8880325389
 21
-31.220685323
 31
0.0
 11
5.8737067605
 21
-31.2460908344
 31
0.0
 11
5.8577554522
 21
-31.270100082
 31
0.0
 11
5.8405201388
 21
-31.292266228
 31
0.0
  0
SPLINE
  5
4AF
100
AcDbEntity
  8
PORTATASTO
100
AcDbSpline
 62
253
  6
CONTINUOUS
 70
0
 71
3
 72
12
 73
8
 74
6
 42
0.0000001
 43
0.0000001
 44
0.0000000001
 12
-0.0992113636
 22
0.0496056818
 32
0.0
 13
-0.0168818249
 23
0.1099498659
 33
0.0
 40
0.0
 40
0.0
 40
0.0
 40
0.0
 40
0.2423757552
 40
0.4620472832
 40
0.65965851
 40
0.8381777041
 40
1.0
 40
1.0
 40
1.0
 40
1.0
 10
-9.3586594115
 20
16.5989144345
 30
0.0
 10
-9.3666748879
 20
16.6029221727
 30
0.0
 10
-9.3815658723
 20
16.61139695
 30
0.0
 10
-9.4010128967
 20
16.6262621029
 30
0.0
 10
-9.4161431077
 20
16.6424460028
 30
0.0
 10
-9.426540033
 20
16.6596064195
 30
0.0
 10
-9.430237069
 20
16.6717931569
 30
0.0
 10
-9.4311476876
 20
16.6777239368
 30
0.0
 11
-9.3586594115
 21
16.5989144345
 31
0.0
 11
-9.3819482236
 21
16.6123464736
 31
0.0
 11
-9.401190759
 21
16.6272944861
 31
0.0
 11
-9.4159979734
 21
16.6434563275
 31
0.0
 11
-9.4260701635
 21
16.6605049716
 31
0.0
 11
-9.4311476876
 21
16.6777239368
 31
0.0
  0
SPLINE
  5
4B0
100
AcDbEntity
  8
PORTATASTO
100
AcDbSpline
 62
253
  6
CONTINUOUS
 70
0
 71
3
 72
14
 73
10
 74
8
 42
0.0000001
 43
0.0000001
 44
0.0000000001
 12
0.0
 22
-0.1577570491
 32
0.0
 13
0.1413701496
 23
-0.0707269237
 33
0.0
 40
0.0
 40
0.0
 40
0.0
 40
0.0
 40
0.1743677075
 40
0.3386590498
 40
0.4925403877
 40
0.6365867691
 40
0.7723296719
 40
0.9021624116
 40
1.0
 40
1.0
 40
1.0
 40
1.0
 10
-8.1276155572
 20
15.9833925074
 30
0.0
 10
-8.1276155572
 20
15.9742232624
 30
0.0
 10
-8.1266948409
 20
15.9563947318
 30
0.0
 10
-8.1222834119
 20
15.9308046766
 30
0.0
 10
-8.1149308451
 20
15.9075476826
 30
0.0
 10
-8.1047315536
 20
15.887034092
 30
0.0
 10
-8.0918212776
 20
15.8696342415
 30
0.0
 10
-8.0775374976
 20
15.8567331858
 30
0.0
 10
-8.067254659
 20
15.8504822853
 30
0.0
 10
-8.0626442208
 20
15.8481757014
 30
0.0
 11
-8.1276155572
 21
15.9833925074
 31
0.0
 11
-8.1261074323
 21
15.9559261453
 31
0.0
 11
-8.1216005305
 21
15.9304028884
 31
0.0
 11
-8.1141694397
 21
15.9072923595
 31
0.0
 11
-8.1039430559
 21
15.8869991009
 31
0.0
 11
-8.0910947287
 21
15.8698673466
 31
0.0
 11
-8.0758460025
 21
15.8561929217
 31
0.0
 11
-8.0626442208
 21
15.8481757014
 31
0.0
  0
SPLINE
  5
4B1
100
AcDbEntity
  8
PORTATASTO
100
AcDbSpline
 62
253
  6
CONTINUOUS
 70
0
 71
3
 72
18
 73
14
 74
12
 42
0.0000001
 43
0.0000001
 44
0.0000000001
 12
-0.3253245695
 22
-0.1609677464
 32
0.0
 13
-0.3246495845
 23
0.1623247923
 33
0.0
 40
0.0
 40
0.0
 40
0.0
 40
0.0
 40
0.0808903938
 40
0.1676064876
 40
0.2591130993
 40
0.3541703561
 40
0.4514001688
 40
0.549344556
 40
0.6465199513
 40
0.7414703353
 40
0.8328216347
 40
0.9193402632
 40
1.0
 40
1.0
 40
1.0
 40
1.0
 10
-7.7749901862
 20
15.9829309208
 30
0.0
 10
-7.7837620638
 20
15.9785906726
 30
0.0
 10
-7.8024713094
 20
15.970654623
 30
0.0
 10
-7.83240905
 20
15.9612218822
 30
0.0
 10
-7.8647099902
 20
15.953987749
 30
0.0
 10
-7.8987285377
 20
15.9490987555
 30
0.0
 10
-7.9337885798
 20
15.9466524776
 30
0.0
 10
-7.9691893433
 20
15.9466984678
 30
0.0
 10
-8.0042233983
 20
15.9492357981
 30
0.0
 10
-8.0381905301
 20
15.9542130781
 30
0.0
 10
-8.070415761
 20
15.9615309958
 30
0.0
 10
-8.1002551079
 20
15.9710413642
 30
0.0
 10
-8.1188868406
 20
15.979028149
 30
0.0
 10
-8.1276155572
 20
15.9833925074
 30
0.0
 11
-7.7749901862
 21
15.9829309208
 31
0.0
 11
-7.8019737808
 21
15.9713577655
 31
0.0
 11
-7.8319677038
 21
15.9618153516
 31
0.0
 11
-7.8643654224
 21
15.9544966444
 31
0.0
 11
-7.8985117945
 21
15.9495496417
 31
0.0
 11
-7.9337163171
 21
15.9470743812
 31
0.0
 11
-7.9692670893
 21
15.9471209171
 31
0.0
 11
-8.0044452085
 21
15.9496883085
 31
0.0
 11
-8.0385393079
 21
15.954724638
 31
0.0
 11
-8.0708599414
 21
15.9621280615
 31
0.0
 11
-8.1007535258
 21
15.9717488682
 31
0.0
 11
-8.1276155572
 21
15.9833925074
 31
0.0
  0
SPLINE
  5
4B2
100
AcDbEntity
  8
PORTATASTO
100
AcDbSpline
 62
253
  6
CONTINUOUS
 70
0
 71
3
 72
12
 73
8
 74
6
 42
0.0000001
 43
0.0000001
 44
0.0000000001
 12
-0.0992113636
 22
0.0496056818
 32
0.0
 13
-0.0168818249
 23
0.1099498659
 33
0.0
 40
0.0
 40
0.0
 40
0.0
 40
0.0
 40
0.2423757552
 40
0.4620472832
 40
0.65965851
 40
0.8381777041
 40
1.0
 40
1.0
 40
1.0
 40
1.0
 10
3.9879810834
 20
9.925594187
 30
0.0
 10
3.979965607
 20
9.9296019252
 30
0.0
 10
3.9650746226
 20
9.9380767026
 30
0.0
 10
3.9456275982
 20
9.9529418555
 30
0.0
 10
3.9304973872
 20
9.9691257554
 30
0.0
 10
3.9201004619
 20
9.986286172
 30
0.0
 10
3.9164034259
 20
9.9984729094
 30
0.0
 10
3.9154928073
 20
10.0044036893
 30
0.0
 11
3.9879810834
 21
9.925594187
 31
0.0
 11
3.9646922713
 21
9.9390262262
 31
0.0
 11
3.9454497359
 21
9.9539742386
 31
0.0
 11
3.9306425214
 21
9.9701360801
 31
0.0
 11
3.9205703314
 21
9.9871847241
 31
0.0
 11
3.9154928073
 21
10.0044036893
 31
0.0
  0
SPLINE
  5
4B3
100
AcDbEntity
  8
PORTATASTO
100
AcDbSpline
 62
253
  6
CONTINUOUS
 70
0
 71
3
 72
14
 73
10
 74
8
 42
0.0000001
 43
0.0000001
 44
0.0000000001
 12
0.0
 22
-0.1577570491
 32
0.0
 13
0.1413701496
 23
-0.0707269237
 33
0.0
 40
0.0
 40
0.0
 40
0.0
 40
0.0
 40
0.1743677075
 40
0.3386590498
 40
0.4925403877
 40
0.6365867691
 40
0.7723296719
 40
0.9021624116
 40
1.0
 40
1.0
 40
1.0
 40
1.0
 10
5.2190249377
 20
9.3100722599
 30
0.0
 10
5.2190249377
 20
9.3009030149
 30
0.0
 10
5.219945654
 20
9.2830744843
 30
0.0
 10
5.224357083
 20
9.2574844292
 30
0.0
 10
5.2317096498
 20
9.2342274351
 30
0.0
 10
5.2419089413
 20
9.2137138446
 30
0.0
 10
5.2548192173
 20
9.1963139941
 30
0.0
 10
5.2691029973
 20
9.1834129383
 30
0.0
 10
5.2793858359
 20
9.1771620378
 30
0.0
 10
5.2839962741
 20
9.1748554539
 30
0.0
 11
5.2190249377
 21
9.3100722599
 31
0.0
 11
5.2205330626
 21
9.2826058979
 31
0.0
 11
5.2250399644
 21
9.257082641
 31
0.0
 11
5.2324710552
 21
9.233972112
 31
0.0
 11
5.242697439
 21
9.2136788535
 31
0.0
 11
5.2555457662
 21
9.1965470992
 31
0.0
 11
5.2707944924
 21
9.1828726742
 31
0.0
 11
5.2839962741
 21
9.1748554539
 31
0.0
  0
SPLINE
  5
4B4
100
AcDbEntity
  8
PORTATASTO
100
AcDbSpline
 62
253
  6
CONTINUOUS
 70
0
 71
3
 72
18
 73
14
 74
12
 42
0.0000001
 43
0.0000001
 44
0.0000000001
 12
-0.3253245695
 22
-0.1609677464
 32
0.0
 13
-0.3246495845
 23
0.1623247923
 33
0.0
 40
0.0
 40
0.0
 40
0.0
 40
0.0
 40
0.0808903938
 40
0.1676064876
 40
0.2591130993
 40
0.3541703561
 40
0.4514001688
 40
0.549344556
 40
0.6465199513
 40
0.7414703353
 40
0.8328216347
 40
0.9193402632
 40
1.0
 40
1.0
 40
1.0
 40
1.0
 10
5.5716503087
 20
9.3096106733
 30
0.0
 10
5.5628784311
 20
9.3052704252
 30
0.0
 10
5.5441691855
 20
9.2973343755
 30
0.0
 10
5.5142314449
 20
9.2879016347
 30
0.0
 10
5.4819305047
 20
9.2806675015
 30
0.0
 10
5.4479119572
 20
9.2757785081
 30
0.0
 10
5.4128519151
 20
9.2733322302
 30
0.0
 10
5.3774511516
 20
9.2733782203
 30
0.0
 10
5.3424170966
 20
9.2759155506
 30
0.0
 10
5.3084499648
 20
9.2808928307
 30
0.0
 10
5.2762247339
 20
9.2882107484
 30
0.0
 10
5.246385387
 20
9.2977211167
 30
0.0
 10
5.2277536543
 20
9.3057079016
 30
0.0
 10
5.2190249377
 20
9.3100722599
 30
0.0
 11
5.5716503087
 21
9.3096106733
 31
0.0
 11
5.5446667141
 21
9.298037518
 31
0.0
 11
5.5146727911
 21
9.2884951041
 31
0.0
 11
5.4822750725
 21
9.2811763969
 31
0.0
 11
5.4481287004
 21
9.2762293943
 31
0.0
 11
5.4129241778
 21
9.2737541337
 31
0.0
 11
5.3773734056
 21
9.2738006697
 31
0.0
 11
5.3421952863
 21
9.2763680611
 31
0.0
 11
5.308101187
 21
9.2814043905
 31
0.0
 11
5.2757805535
 21
9.2888078141
 31
0.0
 11
5.2458869691
 21
9.2984286207
 31
0.0
 11
5.2190249377
 21
9.3100722599
 31
0.0
  0
SPLINE
  5
4B5
100
AcDbEntity
  8
PORTATASTO
100
AcDbSpline
 62
253
  6
CONTINUOUS
 70
0
 71
3
 72
18
 73
14
 74
12
 42
0.0000001
 43
0.0000001
 44
0.0000000001
 12
0.3246495895
 22
-0.1623247947
 32
0.0
 13
0.3253245745
 23
0.1609677488
 33
0.0
 40
0.0
 40
0.0
 40
0.0
 40
0.0
 40
0.0806657498
 40
0.1671911665
 40
0.2585507668
 40
0.3535097457
 40
0.4506936522
 40
0.5486460981
 40
0.6458825274
 40
0.7409452832
 40
0.8324506587
 40
0.9191646002
 40
1.0
 40
1.0
 40
1.0
 40
1.0
 10
5.2190249377
 20
-32.1627369602
 30
0.0
 10
5.2277543052
 20
-32.167101644
 30
0.0
 10
5.2463875045
 20
-32.1750889628
 30
0.0
 10
5.2762293879
 20
-32.1845998068
 30
0.0
 10
5.3084575334
 20
-32.1919178682
 30
0.0
 10
5.3424278151
 20
-32.1968949067
 30
0.0
 10
5.3774649781
 20
-32.1994315752
 30
0.0
 10
5.4128685561
 20
-32.1994764886
 30
0.0
 10
5.4479309513
 20
-32.1970287589
 30
0.0
 10
5.481950598
 20
-32.192138087
 30
0.0
 10
5.5142514198
 20
-32.1849022496
 30
0.0
 10
5.5441818891
 20
-32.1754698919
 30
0.0
 10
5.5628843946
 20
-32.1675358443
 30
0.0
 10
5.5716503087
 20
-32.1631985468
 30
0.0
 11
5.2190249377
 21
-32.1627369602
 31
0.0
 11
5.2458890159
 21
-32.1743813663
 31
0.0
 11
5.2757850408
 21
-32.184002634
 31
0.0
 11
5.3081087237
 21
-32.1914062412
 31
0.0
 11
5.3422060118
 21
-32.1964423362
 31
0.0
 11
5.3773872776
 21
-32.1990090629
 31
0.0
 11
5.4129409769
 21
-32.1990545095
 31
0.0
 11
5.4481478043
 21
-32.1965777809
 31
0.0
 11
5.4822959328
 21
-32.1916289776
 31
0.0
 11
5.5146928367
 21
-32.1843086981
 31
0.0
 11
5.5446854542
 21
-32.1747647564
 31
0.0
 11
5.5716503087
 21
-32.1631985468
 31
0.0
  0
SPLINE
  5
4B6
100
AcDbEntity
  8
PORTATASTO
100
AcDbSpline
 62
253
  6
CONTINUOUS
 70
0
 71
3
 72
15
 73
11
 74
9
 42
0.0000001
 43
0.0000001
 44
0.0000000001
 12
-0.1611233065
 22
-0.1944930359
 32
0.0
 13
0.0
 23
-0.25256338
 33
0.0
 40
0.0
 40
0.0
 40
0.0
 40
0.0
 40
0.1257835055
 40
0.2541455604
 40
0.383608301
 40
0.5127437268
 40
0.6402030735
 40
0.7646613352
 40
0.8849330394
 40
1.0
 40
1.0
 40
1.0
 40
1.0
 10
5.3074132853
 20
-31.9310427864
 30
0.0
 10
5.3006577339
 20
-31.9391974584
 30
0.0
 10
5.2877252575
 20
-31.9562806217
 30
0.0
 10
5.2704016397
 20
-31.9835759081
 30
0.0
 10
5.2551910552
 20
-32.0124240794
 30
0.0
 10
5.2423607663
 20
-32.0423237065
 30
0.0
 10
5.2321289542
 20
-32.0727664181
 30
0.0
 10
5.2246688433
 20
-32.1032401604
 30
0.0
 10
5.2201073757
 20
-32.1332259303
 30
0.0
 10
5.2190249377
 20
-32.1530497267
 30
0.0
 10
5.2190249377
 20
-32.1627369602
 30
0.0
 11
5.3074132853
 21
-31.9310427864
 31
0.0
 11
5.2882129621
 21
-31.9563523288
 31
0.0
 11
5.270825316
 21
-31.9837146619
 31
0.0
 11
5.2555718482
 21
-32.012636303
 31
0.0
 11
5.2427198732
 21
-32.0426122452
 31
0.0
 11
5.2324873822
 21
-32.0731342518
 31
0.0
 11
5.2250511476
 21
-32.1036755938
 31
0.0
 11
5.2205379362
 21
-32.133714671
 31
0.0
 11
5.2190249377
 21
-32.1627369602
 31
0.0
  0
SPLINE
  5
4B7
100
AcDbEntity
  8
PORTATASTO
100
AcDbSpline
 62
253
  6
CONTINUOUS
 70
0
 71
3
 72
18
 73
14
 74
12
 42
0.0000001
 43
0.0000001
 44
0.0000000001
 12
-0.1868711972
 22
0.3018974282
 32
0.0
 13
-0.3167121923
 23
0.1604876591
 33
0.0
 40
0.0
 40
0.0
 40
0.0
 40
0.0
 40
0.0724149993
 40
0.1533824891
 40
0.2415618042
 40
0.3353967931
 40
0.433176412
 40
0.5330869019
 40
0.6332604865
 40
0.7318227842
 40
0.826940085
 40
0.916867534
 40
1.0
 40
1.0
 40
1.0
 40
1.0
 10
5.5716503087
 20
-32.1631985468
 30
0.0
 10
5.5671395494
 20
-32.1559112461
 30
0.0
 10
5.5568845489
 20
-32.1409068497
 30
0.0
 10
5.5392248401
 20
-32.118405545
 30
0.0
 10
5.5186937985
 20
-32.0949950165
 30
0.0
 10
5.4957007268
 20
-32.0711503532
 30
0.0
 10
5.4707048889
 20
-32.0473533254
 30
0.0
 10
5.4442094197
 20
-32.0240858206
 30
0.0
 10
5.4167488451
 20
-32.0018182727
 30
0.0
 10
5.3888782745
 20
-31.9810002627
 30
0.0
 10
5.3611608358
 20
-31.9620502564
 30
0.0
 10
5.3341582683
 20
-31.9453486156
 30
0.0
 10
5.3161896405
 20
-31.9354900314
 30
0.0
 10
5.3074132853
 20
-31.9310427864
 30
0.0
 11
5.5716503087
 21
-32.1631985468
 31
0.0
 11
5.5572427709
 21
-32.1419032855
 31
0.0
 11
5.5395596844
 21
-32.1192373782
 31
0.0
 11
5.5189598288
 21
-32.0956607035
 31
0.0
 11
5.4958611636
 21
-32.0716516186
 31
0.0
 11
5.4707323474
 21
-32.0476972542
 31
0.0
 11
5.4440832296
 21
-32.0242836306
 31
0.0
 11
5.4164545058
 21
-32.001885797
 31
0.0
 11
5.3884067469
 21
-31.9809581928
 31
0.0
 11
5.360509026
 21
-31.9619254269
 31
0.0
 11
5.3333273721
 21
-31.9451736636
 31
0.0
 11
5.3074132853
 21
-31.9310427864
 31
0.0
  0
SPLINE
  5
4B8
100
AcDbEntity
  8
PORTATASTO
100
AcDbSpline
 62
253
  6
CONTINUOUS
 70
0
 71
3
 72
18
 73
14
 74
12
 42
0.0000001
 43
0.0000001
 44
0.0000000001
 12
-0.0015838354
 22
0.3677667756
 32
0.0
 13
-0.3282452006
 23
0.1658613822
 33
0.0
 40
0.0
 40
0.0
 40
0.0
 40
0.0
 40
0.0862298917
 40
0.1766966374
 40
0.2704573358
 40
0.3664103845
 40
0.4633549994
 40
0.5600473248
 40
0.6552540094
 40
0.7478094658
 40
0.836663259
 40
0.9209608649
 40
1.0
 40
1.0
 40
1.0
 40
1.0
 10
-7.7749901862
 20
16.2329021301
 30
0.0
 10
-7.7750357109
 20
16.2434729599
 30
0.0
 10
-7.7764153724
 20
16.2651421792
 30
0.0
 10
-7.7819376122
 20
16.2978854393
 30
0.0
 10
-7.7908550443
 20
16.3311064741
 30
0.0
 10
-7.8029879581
 20
16.3641351211
 30
0.0
 10
-7.8180926588
 20
16.3963111586
 30
0.0
 10
-7.835865772
 20
16.4269882598
 30
0.0
 10
-7.8559510883
 20
16.4555511781
 30
0.0
 10
-7.8779459695
 20
16.4814266887
 30
0.0
 10
-7.9014151649
 20
16.5040984858
 30
0.0
 10
-7.9258787408
 20
16.5231023481
 30
0.0
 10
-7.9431163861
 20
16.5334228025
 30
0.0
 10
-7.9517644583
 20
16.5377926493
 30
0.0
 11
-7.7749901862
 21
16.2329021301
 31
0.0
 11
-7.7769129369
 21
16.2645565714
 31
0.0
 11
-7.7823772094
 21
16.2973757624
 31
0.0
 11
-7.7912717248
 21
16.330691266
 31
0.0
 11
-7.8034153453
 21
16.3638246744
 31
0.0
 11
-7.8185607426
 21
16.396101253
 31
0.0
 11
-7.8363994704
 21
16.4268637762
 31
0.0
 11
-7.8565681461
 21
16.455485749
 31
0.0
 11
-7.8786564836
 21
16.4813849426
 31
0.0
 11
-7.9022132341
 21
16.5040326037
 31
0.0
 11
-7.926759942
 21
16.5229691345
 31
0.0
 11
-7.9517644583
 21
16.5377926493
 31
0.0
  0
SPLINE
  5
4B9
100
AcDbEntity
  8
PORTATASTO
100
AcDbSpline
 62
253
  6
CONTINUOUS
 70
0
 71
3
 72
18
 73
14
 74
12
 42
0.0000001
 43
0.0000001
 44
0.0000000001
 12
0.3246495934
 22
-0.1623247967
 32
0.0
 13
0.3253245784
 23
0.1609677508
 33
0.0
 40
0.0
 40
0.0
 40
0.0
 40
0.0
 40
0.0805600317
 40
0.1670785676
 40
0.2584318395
 40
0.353391101
 40
0.4505764045
 40
0.5485331093
 40
0.645776605
 40
0.7408481865
 40
0.8323689073
 40
0.9190982169
 40
1.0
 40
1.0
 40
1.0
 40
1.0
 10
-8.1276155572
 20
16.2333637167
 30
0.0
 10
-8.1188976301
 20
16.2290047531
 30
0.0
 10
-8.100277684
 20
16.2210214547
 30
0.0
 10
-8.0704505714
 20
16.2115115792
 30
0.0
 10
-8.0382247059
 20
16.2041905488
 30
0.0
 10
-8.0042554388
 20
16.1992103964
 30
0.0
 10
-7.9692177761
 20
16.1966706201
 30
0.0
 10
-7.9338126582
 20
16.19662276
 30
0.0
 10
-7.8987476288
 20
16.1990678243
 30
0.0
 10
-7.8647238468
 20
16.2039563042
 30
0.0
 10
-7.8324177701
 20
16.2111906255
 30
0.0
 10
-7.8024753661
 20
16.2206242024
 30
0.0
 10
-7.7837632991
 20
16.2285612708
 30
0.0
 10
-7.7749901862
 20
16.2329021301
 30
0.0
 11
-8.1276155572
 21
16.2333637167
 31
0.0
 11
-8.1007874569
 21
16.2217327926
 31
0.0
 11
-8.0708949184
 21
16.2121088437
 31
0.0
 11
-8.0385742433
 21
16.2047023923
 31
0.0
 11
-8.0044773315
 21
16.199663045
 31
0.0
 11
-7.9692957855
 21
16.1970931878
 31
0.0
 11
-7.9337405439
 21
16.1970447595
 31
0.0
 11
-7.8985309558
 21
16.1995188007
 31
0.0
 11
-7.8643792568
 21
16.2044653039
 31
0.0
 11
-7.8319763361
 21
16.2117842282
 31
0.0
 11
-7.8019776628
 21
16.2213275362
 31
0.0
 11
-7.7749901862
 21
16.2329021301
 31
0.0
  0
SPLINE
  5
4BA
100
AcDbEntity
  8
PORTATASTO
100
AcDbSpline
 62
253
  6
CONTINUOUS
 70
0
 71
3
 72
18
 73
14
 74
12
 42
0.0000001
 43
0.0000001
 44
0.0000000001
 12
-0.3274336833
 22
-0.1658166109
 32
0.0
 13
-0.0
 23
-0.3670258376
 33
0.0
 40
0.0
 40
0.0
 40
0.0
 40
0.0
 40
0.079422804
 40
0.1638981722
 40
0.2528307501
 40
0.3453754709
 40
0.4405064244
 40
0.537077953
 40
0.633880772
 40
0.7296955712
 40
0.8233462304
 40
0.9137547197
 40
1.0
 40
1.0
 40
1.0
 40
1.0
 10
-7.9517644583
 20
16.5377926493
 30
0.0
 10
-7.9604330254
 20
16.5334027759
 30
0.0
 10
-7.9776887415
 20
16.5230581282
 30
0.0
 10
-8.0021569248
 20
16.5040345221
 30
0.0
 10
-8.0255892271
 20
16.481375929
 30
0.0
 10
-8.0475192002
 20
16.4555362092
 30
0.0
 10
-8.0675158533
 20
16.4270278345
 30
0.0
 10
-8.0851814502
 20
16.3964187181
 30
0.0
 10
-8.100164359
 20
16.3643187023
 30
0.0
 10
-8.1121657957
 20
16.3313680688
 30
0.0
 10
-8.1209463354
 20
16.2982208697
 30
0.0
 10
-8.1263301696
 20
16.2655411529
 30
0.0
 10
-8.1276155572
 20
16.2439151321
 30
0.0
 10
-8.1276155572
 20
16.2333637167
 30
0.0
 11
-7.9517644583
 21
16.5377926493
 31
0.0
 11
-7.9768294109
 21
16.522910326
 31
0.0
 11
-8.0013687863
 21
16.5039602091
 31
0.0
 11
-8.0248863528
 21
16.4813255052
 31
0.0
 11
-8.0469065415
 21
16.4554639299
 31
0.0
 11
-8.0669840633
 21
16.4268984524
 31
0.0
 11
-8.0847129135
 21
16.3962067197
 31
0.0
 11
-8.0997345817
 21
16.3640093755
 31
0.0
 11
-8.111745302
 21
16.3309575101
 31
0.0
 11
-8.1205021952
 21
16.2977194934
 31
0.0
 11
-8.1258281807
 21
16.26496746
 31
0.0
 11
-8.1276155572
 21
16.2333637167
 31
0.0
  0
SPLINE
  5
4BB
100
AcDbEntity
  8
PORTATASTO
100
AcDbSpline
 62
253
  6
CONTINUOUS
 70
0
 71
3
 72
12
 73
8
 74
6
 42
0.0000001
 43
0.0000001
 44
0.0000000001
 12
0.0
 22
0.1580720269
 32
0.0
 13
0.0689400312
 23
0.142302146
 33
0.0
 40
0.0
 40
0.0
 40
0.0
 40
0.0
 40
0.2002807734
 40
0.410231436
 40
0.627711274
 40
0.8502158163
 40
1.0
 40
1.0
 40
1.0
 40
1.0
 10
-9.3586594115
 20
16.8488856438
 30
0.0
 10
-9.3586594115
 20
16.8594385731
 30
0.0
 10
-9.35737365
 20
16.8810678045
 30
0.0
 10
-9.3519882979
 20
16.91375232
 30
0.0
 10
-9.3432053181
 20
16.9469042654
 30
0.0
 10
-9.3325552361
 20
16.9761406511
 30
0.0
 10
-9.3245129527
 20
16.9940481791
 30
0.0
 10
-9.3210709106
 20
17.0011530493
 30
0.0
 11
-9.3586594115
 21
16.8488856438
 31
0.0
 11
-9.3568715353
 21
16.8804939077
 31
0.0
 11
-9.3515440397
 21
16.9132508375
 31
0.0
 11
-9.3427847011
 21
16.9464936568
 31
0.0
 11
-9.3307707259
 21
16.9795499115
 31
0.0
 11
-9.3210709106
 21
17.0011530493
 31
0.0
  0
SPLINE
  5
4BC
100
AcDbEntity
  8
PORTATASTO
100
AcDbSpline
 62
253
  6
CONTINUOUS
 70
0
 71
3
 72
14
 73
10
 74
8
 42
0.0000001
 43
0.0000001
 44
0.0000000001
 12
0.0869920683
 22
0.1795641485
 32
0.0
 13
0.1738022251
 23
0.0981016846
 33
0.0
 40
0.0
 40
0.0
 40
0.0
 40
0.0
 40
0.0594463549
 40
0.2371663724
 40
0.4122312226
 40
0.5825355804
 40
0.7461808724
 40
0.901621686
 40
1.0
 40
1.0
 40
1.0
 40
1.0
 10
-9.3210709106
 20
17.0011530493
 30
0.0
 10
-9.3193471235
 20
17.004711194
 30
0.0
 10
-9.3122634379
 20
17.0188067333
 30
0.0
 10
-9.298544119
 20
17.0425744689
 30
0.0
 10
-9.2785430486
 20
17.0710842806
 30
0.0
 10
-9.2566089777
 20
17.0969237864
 30
0.0
 10
-9.2331731186
 20
17.1195806261
 30
0.0
 10
-9.2112145331
 20
17.1366483051
 30
0.0
 10
-9.196876204
 20
17.1456172058
 30
0.0
 10
-9.1911767474
 20
17.1488342319
 30
0.0
 11
-9.3210709106
 21
17.0011530493
 31
0.0
 11
-9.3157451862
 21
17.0117508845
 31
0.0
 11
-9.2980120664
 21
17.0424452224
 31
0.0
 11
-9.2779302137
 21
17.0710119475
 31
0.0
 11
-9.2559054445
 21
17.0968738009
 31
0.0
 11
-9.2323847585
 21
17.1195062603
 31
0.0
 11
-9.2078427078
 21
17.1384530913
 31
0.0
 11
-9.1911767474
 21
17.1488342319
 31
0.0
  0
SPLINE
  5
4BD
100
AcDbEntity
  8
PORTATASTO
100
AcDbSpline
 62
253
  6
CONTINUOUS
 70
0
 71
3
 72
12
 73
8
 74
6
 42
0.0000001
 43
0.0000001
 44
0.0000000001
 12
-0.105075395
 22
0.05198689
 32
0.0
 13
-0.1046068627
 23
-0.053485869
 33
0.0
 40
0.0
 40
0.0
 40
0.0
 40
0.0
 40
0.2328889945
 40
0.4495112485
 40
0.6519220999
 40
0.8438975281
 40
1.0
 40
1.0
 40
1.0
 40
1.0
 10
-9.1828083126
 20
17.1533145764
 30
0.0
 10
-9.1909652803
 20
17.1573503013
 30
0.0
 10
-9.2072629538
 20
17.1641025853
 30
0.0
 10
-9.2321693073
 20
17.1700084953
 30
0.0
 10
-9.2561758073
 20
17.1711544621
 30
0.0
 10
-9.2775757284
 20
17.1676301586
 30
0.0
 10
-9.2903226996
 20
17.162611026
 30
0.0
 10
-9.2957658296
 20
17.1598279339
 30
0.0
 11
-9.1828083126
 21
17.1533145764
 31
0.0
 11
-9.2080877778
 21
17.1636275495
 31
0.0
 11
-9.232833802
 21
17.1693327775
 31
0.0
 11
-9.2565426453
 21
17.1703141224
 31
0.0
 11
-9.2787316806
 21
17.1665516076
 31
0.0
 11
-9.2957658296
 21
17.1598279339
 31
0.0
  0
SPLINE
  5
4BE
100
AcDbEntity
  8
PORTATASTO
100
AcDbSpline
 62
253
  6
CONTINUOUS
 70
0
 71
3
 72
12
 73
8
 74
6
 42
0.0000001
 43
0.0000001
 44
0.0000000001
 12
-0.105075395
 22
0.05198689
 32
0.0
 13
-0.1046068627
 23
-0.053485869
 33
0.0
 40
0.0
 40
0.0
 40
0.0
 40
0.0
 40
0.2328889945
 40
0.4495112485
 40
0.6519220999
 40
0.8438975281
 40
1.0
 40
1.0
 40
1.0
 40
1.0
 10
4.1638321823
 20
10.479994329
 30
0.0
 10
4.1556752146
 20
10.4840300538
 30
0.0
 10
4.1393775411
 20
10.4907823379
 30
0.0
 10
4.1144711876
 20
10.4966882479
 30
0.0
 10
4.0904646876
 20
10.4978342146
 30
0.0
 10
4.0690647665
 20
10.4943099111
 30
0.0
 10
4.0563177953
 20
10.4892907786
 30
0.0
 10
4.0508746653
 20
10.4865076865
 30
0.0
 11
4.1638321823
 21
10.479994329
 31
0.0
 11
4.1385527171
 21
10.4903073021
 31
0.0
 11
4.1138066929
 21
10.4960125301
 31
0.0
 11
4.0900978496
 21
10.496993875
 31
0.0
 11
4.0679088143
 21
10.4932313602
 31
0.0
 11
4.0508746653
 21
10.4865076865
 31
0.0
  0
SPLINE
  5
4BF
100
AcDbEntity
  8
PORTATASTO
100
AcDbSpline
 62
253
  6
CONTINUOUS
 70
0
 71
3
 72
12
 73
8
 74
6
 42
0.0000001
 43
0.0000001
 44
0.0000000001
 12
0.0
 22
0.1580720269
 32
0.0
 13
0.0689400312
 23
0.142302146
 33
0.0
 40
0.0
 40
0.0
 40
0.0
 40
0.0
 40
0.2002807734
 40
0.410231436
 40
0.627711274
 40
0.8502158163
 40
1.0
 40
1.0
 40
1.0
 40
1.0
 10
3.9879810834
 20
10.1755653964
 30
0.0
 10
3.9879810834
 20
10.1861183256
 30
0.0
 10
3.9892668449
 20
10.207747557
 30
0.0
 10
3.994652197
 20
10.2404320725
 30
0.0
 10
4.0034351768
 20
10.2735840179
 30
0.0
 10
4.0140852588
 20
10.3028204036
 30
0.0
 10
4.0221275422
 20
10.3207279316
 30
0.0
 10
4.0255695843
 20
10.3278328019
 30
0.0
 11
3.9879810834
 21
10.1755653964
 31
0.0
 11
3.9897689596
 21
10.2071736602
 31
0.0
 11
3.9950964552
 21
10.23993059
 31
0.0
 11
4.0038557938
 21
10.2731734094
 31
0.0
 11
4.015869769
 21
10.3062296641
 31
0.0
 11
4.0255695843
 21
10.3278328019
 31
0.0
  0
SPLINE
  5
4C0
100
AcDbEntity
  8
PORTATASTO
100
AcDbSpline
 62
253
  6
CONTINUOUS
 70
0
 71
3
 72
14
 73
10
 74
8
 42
0.0000001
 43
0.0000001
 44
0.0000000001
 12
0.0869920683
 22
0.1795641485
 32
0.0
 13
0.1738022251
 23
0.0981016846
 33
0.0
 40
0.0
 40
0.0
 40
0.0
 40
0.0
 40
0.0594463549
 40
0.2371663724
 40
0.4122312226
 40
0.5825355804
 40
0.7461808724
 40
0.901621686
 40
1.0
 40
1.0
 40
1.0
 40
1.0
 10
4.0255695843
 20
10.3278328019
 30
0.0
 10
4.0272933714
 20
10.3313909466
 30
0.0
 10
4.034377057
 20
10.3454864859
 30
0.0
 10
4.0480963759
 20
10.3692542214
 30
0.0
 10
4.0680974463
 20
10.3977640331
 30
0.0
 10
4.0900315172
 20
10.423603539
 30
0.0
 10
4.1134673763
 20
10.4462603787
 30
0.0
 10
4.1354259618
 20
10.4633280576
 30
0.0
 10
4.1497642909
 20
10.4722969583
 30
0.0
 10
4.1554637475
 20
10.4755139845
 30
0.0
 11
4.0255695843
 21
10.3278328019
 31
0.0
 11
4.0308953087
 21
10.3384306371
 31
0.0
 11
4.0486284285
 21
10.369124975
 31
0.0
 11
4.0687102812
 21
10.3976917001
 31
0.0
 11
4.0907350504
 21
10.4235535534
 31
0.0
 11
4.1142557364
 21
10.4461860128
 31
0.0
 11
4.1387977871
 21
10.4651328439
 31
0.0
 11
4.1554637475
 21
10.4755139845
 31
0.0
  0
SPLINE
  5
4C1
100
AcDbEntity
  8
PORTATASTO
100
AcDbSpline
 62
253
  6
CONTINUOUS
 70
0
 71
3
 72
13
 73
9
 74
7
 42
0.0000001
 43
0.0000001
 44
0.0000000001
 12
-0.1077616754
 22
0.0538808377
 32
0.0
 13
-0.0000566251
 23
0.1209085825
 33
0.0
 40
0.0
 40
0.0
 40
0.0
 40
0.0
 40
0.2228760723
 40
0.425144118
 40
0.6070986483
 40
0.7714794241
 40
0.9235883159
 40
1.0
 40
1.0
 40
1.0
 40
1.0
 10
3.9879810834
 20
-31.7971862424
 30
0.0
 10
3.9799752504
 20
-31.7931833259
 30
0.0
 10
3.9650923571
 20
-31.7847143857
 30
0.0
 10
3.9456495855
 20
-31.7698582856
 30
0.0
 10
3.9305135545
 20
-31.753675784
 30
0.0
 10
3.9200450208
 20
-31.736408441
 30
0.0
 10
3.9154399886
 20
-31.7211122118
 30
0.0
 10
3.9147641685
 20
-31.7119021742
 30
0.0
 10
3.9147627263
 20
-31.7088225647
 30
0.0
 11
3.9879810834
 21
-31.7971862424
 31
0.0
 11
3.9647192352
 21
-31.7837721923
 31
0.0
 11
3.9454713375
 21
-31.768825923
 31
0.0
 11
3.9306584347
 21
-31.7526655854
 31
0.0
 11
3.92057974
 21
-31.7356171296
 31
0.0
 11
3.9154400256
 21
-31.7180263565
 31
0.0
 11
3.9147627263
 21
-31.7088225647
 31
0.0
  0
SPLINE
  5
4C2
100
AcDbEntity
  8
PORTATASTO
100
AcDbSpline
 62
253
  6
CONTINUOUS
 70
0
 71
3
 72
18
 73
14
 74
12
 42
0.0000001
 43
0.0000001
 44
0.0000000001
 12
-0.3274336833
 22
-0.1658166109
 32
0.0
 13
0.0
 23
-0.3670258376
 33
0.0
 40
0.0
 40
0.0
 40
0.0
 40
0.0
 40
0.079422804
 40
0.1638981722
 40
0.2528307501
 40
0.3453754709
 40
0.4405064244
 40
0.537077953
 40
0.633880772
 40
0.7296955712
 40
0.8233462304
 40
0.9137547197
 40
1.0
 40
1.0
 40
1.0
 40
1.0
 10
5.3948760366
 20
9.8644724018
 30
0.0
 10
5.3862074695
 20
9.8600825284
 30
0.0
 10
5.3689517534
 20
9.8497378807
 30
0.0
 10
5.3444835701
 20
9.8307142746
 30
0.0
 10
5.3210512678
 20
9.8080556815
 30
0.0
 10
5.2991212947
 20
9.7822159618
 30
0.0
 10
5.2791246416
 20
9.753707587
 30
0.0
 10
5.2614590447
 20
9.7230984707
 30
0.0
 10
5.2464761359
 20
9.6909984548
 30
0.0
 10
5.2344746992
 20
9.6580478214
 30
0.0
 10
5.2256941595
 20
9.6249006223
 30
0.0
 10
5.2203103253
 20
9.5922209054
 30
0.0
 10
5.2190249377
 20
9.5705948847
 30
0.0
 10
5.2190249377
 20
9.5600434692
 30
0.0
 11
5.3948760366
 21
9.8644724018
 31
0.0
 11
5.369811084
 21
9.8495900786
 31
0.0
 11
5.3452717086
 21
9.8306399617
 31
0.0
 11
5.3217541421
 21
9.8080052577
 31
0.0
 11
5.2997339534
 21
9.7821436825
 31
0.0
 11
5.2796564316
 21
9.753578205
 31
0.0
 11
5.2619275814
 21
9.7228864722
 31
0.0
 11
5.2469059132
 21
9.6906891281
 31
0.0
 11
5.2348951929
 21
9.6576372626
 31
0.0
 11
5.2261382997
 21
9.624399246
 31
0.0
 11
5.2208123142
 21
9.5916472125
 31
0.0
 11
5.2190249377
 21
9.5600434692
 31
0.0
  0
SPLINE
  5
4C3
100
AcDbEntity
  8
PORTATASTO
100
AcDbSpline
 62
253
  6
CONTINUOUS
 70
0
 71
3
 72
18
 73
14
 74
12
 42
0.0000001
 43
0.0000001
 44
0.0000000001
 12
-0.0015838354
 22
0.3677667756
 32
0.0
 13
-0.3282452006
 23
0.1658613822
 33
0.0
 40
0.0
 40
0.0
 40
0.0
 40
0.0
 40
0.0862298917
 40
0.1766966374
 40
0.2704573358
 40
0.3664103845
 40
0.4633549994
 40
0.5600473248
 40
0.6552540094
 40
0.7478094658
 40
0.836663259
 40
0.9209608649
 40
1.0
 40
1.0
 40
1.0
 40
1.0
 10
5.5716503087
 20
9.5595818827
 30
0.0
 10
5.571604784
 20
9.5701527124
 30
0.0
 10
5.5702251225
 20
9.5918219318
 30
0.0
 10
5.5647028827
 20
9.6245651919
 30
0.0
 10
5.5557854506
 20
9.6577862266
 30
0.0
 10
5.5436525368
 20
9.6908148736
 30
0.0
 10
5.5285478361
 20
9.7229909111
 30
0.0
 10
5.5107747229
 20
9.7536680123
 30
0.0
 10
5.4906894066
 20
9.7822309307
 30
0.0
 10
5.4686945253
 20
9.8081064413
 30
0.0
 10
5.44522533
 20
9.8307782383
 30
0.0
 10
5.4207617541
 20
9.8497821006
 30
0.0
 10
5.4035241088
 20
9.8601025551
 30
0.0
 10
5.3948760366
 20
9.8644724018
 30
0.0
 11
5.5716503087
 21
9.5595818827
 31
0.0
 11
5.569727558
 21
9.591236324
 31
0.0
 11
5.5642632855
 21
9.624055515
 31
0.0
 11
5.5553687701
 21
9.6573710186
 31
0.0
 11
5.5432251496
 21
9.690504427
 31
0.0
 11
5.5280797522
 21
9.7227810056
 31
0.0
 11
5.5102410245
 21
9.7535435287
 31
0.0
 11
5.4900723488
 21
9.7821655016
 31
0.0
 11
5.4679840113
 21
9.8080646951
 31
0.0
 11
5.4444272608
 21
9.8307123562
 31
0.0
 11
5.4198805529
 21
9.849648887
 31
0.0
 11
5.3948760366
 21
9.8644724018
 31
0.0
  0
SPLINE
  5
4C4
100
AcDbEntity
  8
PORTATASTO
100
AcDbSpline
 62
253
  6
CONTINUOUS
 70
0
 71
3
 72
18
 73
14
 74
12
 42
0.0000001
 43
0.0000001
 44
0.0000000001
 12
0.3246495934
 22
-0.1623247967
 32
0.0
 13
0.3253245784
 23
0.1609677508
 33
0.0
 40
0.0
 40
0.0
 40
0.0
 40
0.0
 40
0.0805600317
 40
0.1670785676
 40
0.2584318395
 40
0.353391101
 40
0.4505764045
 40
0.5485331093
 40
0.645776605
 40
0.7408481865
 40
0.8323689073
 40
0.9190982169
 40
1.0
 40
1.0
 40
1.0
 40
1.0
 10
5.2190249377
 20
9.5600434692
 30
0.0
 10
5.2277428648
 20
9.5556845057
 30
0.0
 10
5.2463628108
 20
9.5477012072
 30
0.0
 10
5.2761899235
 20
9.5381913318
 30
0.0
 10
5.308415789
 20
9.5308703013
 30
0.0
 10
5.3423850561
 20
9.5258901489
 30
0.0
 10
5.3774227188
 20
9.5233503727
 30
0.0
 10
5.4128278367
 20
9.5233025125
 30
0.0
 10
5.4478928661
 20
9.5257475768
 30
0.0
 10
5.4819166481
 20
9.5306360568
 30
0.0
 10
5.5142227248
 20
9.5378703781
 30
0.0
 10
5.5441651288
 20
9.547303955
 30
0.0
 10
5.5628771958
 20
9.5552410233
 30
0.0
 10
5.5716503087
 20
9.5595818827
 30
0.0
 11
5.2190249377
 21
9.5600434692
 31
0.0
 11
5.245853038
 21
9.5484125452
 31
0.0
 11
5.2757455765
 21
9.5387885963
 31
0.0
 11
5.3080662516
 21
9.5313821449
 31
0.0
 11
5.3421631633
 21
9.5263427975
 31
0.0
 11
5.3773447094
 21
9.5237729404
 31
0.0
 11
5.412899951
 21
9.5237245121
 31
0.0
 11
5.448109539
 21
9.5261985533
 31
0.0
 11
5.4822612381
 21
9.5311450565
 31
0.0
 11
5.5146641588
 21
9.5384639807
 31
0.0
 11
5.5446628321
 21
9.5480072888
 31
0.0
 11
5.5716503087
 21
9.5595818827
 31
0.0
  0
SPLINE
  5
4C5
100
AcDbEntity
  8
PORTATASTO
100
AcDbSpline
 62
253
  6
CONTINUOUS
 70
0
 71
3
 72
14
 73
10
 74
8
 42
0.0000001
 43
0.0000001
 44
0.0000000001
 12
0.0
 22
-0.1575483748
 32
0.0
 13
0.1411145508
 23
-0.0708349437
 33
0.0
 40
0.0
 40
0.0
 40
0.0
 40
0.0
 40
0.1896175412
 40
0.3669726719
 40
0.532021714
 40
0.6858183964
 40
0.8306641817
 40
0.9700810263
 40
1.0
 40
1.0
 40
1.0
 40
1.0
 10
5.2190249377
 20
-32.4127081696
 30
0.0
 10
5.2190249377
 20
-32.422666148
 30
0.0
 10
5.220106337
 20
-32.4419643406
 30
0.0
 10
5.2253141133
 20
-32.4695042112
 30
0.0
 10
5.2339832387
 20
-32.4942000769
 30
0.0
 10
5.245991068
 20
-32.5155486365
 30
0.0
 10
5.2611556079
 20
-32.5330789371
 30
0.0
 10
5.2745672659
 20
-32.5429402371
 30
0.0
 10
5.2824313684
 20
-32.5471389399
 30
0.0
 10
5.2838387026
 20
-32.5478453762
 30
0.0
 11
5.2190249377
 21
-32.4127081696
 31
0.0
 11
5.2208128139
 21
-32.4425285572
 31
0.0
 11
5.2261403095
 21
-32.4699579914
 31
0.0
 11
5.234899648
 21
-32.4944414722
 31
0.0
 11
5.2469136233
 21
-32.5154837516
 31
0.0
 11
5.2619391629
 21
-32.532659185
 31
0.0
 11
5.2796722827
 21
-32.5456204031
 31
0.0
 11
5.2838387026
 21
-32.5478453762
 31
0.0
  0
SPLINE
  5
4C6
100
AcDbEntity
  8
PORTATASTO
100
AcDbSpline
 62
253
  6
CONTINUOUS
 70
0
 71
3
 72
18
 73
14
 74
12
 42
0.0000001
 43
0.0000001
 44
0.0000000001
 12
-0.3253245784
 22
-0.1609677508
 32
0.0
 13
-0.3246495933
 23
0.1623247967
 33
0.0
 40
0.0
 40
0.0
 40
0.0
 40
0.0
 40
0.0807873999
 40
0.1675032982
 40
0.2590118333
 40
0.3540783266
 40
0.4513184706
 40
0.5492756693
 40
0.6464652489
 40
0.7414304463
 40
0.8327963071
 40
0.9193285511
 40
1.0
 40
1.0
 40
1.0
 40
1.0
 10
5.5716503087
 20
-32.4131697562
 30
0.0
 10
5.5628895997
 20
-32.4175044782
 30
0.0
 10
5.5441925489
 20
-32.4254369595
 30
0.0
 10
5.5142674692
 20
-32.4348692124
 30
0.0
 10
5.4819658805
 20
-32.4421065499
 30
0.0
 10
5.4479451133
 20
-32.4469985044
 30
0.0
 10
5.4128813078
 20
-32.4494473015
 30
0.0
 10
5.377476013
 20
-32.4494032315
 30
0.0
 10
5.3424367843
 20
-32.4468671403
 30
0.0
 10
5.3084642376
 20
-32.4418903753
 30
0.0
 10
5.2762337051
 20
-32.4345722489
 30
0.0
 10
5.2463895553
 20
-32.4250610054
 30
0.0
 10
5.227754922
 20
-32.4170731617
 30
0.0
 10
5.2190249377
 20
-32.4127081696
 30
0.0
 11
5.5716503087
 21
-32.4131697562
 31
0.0
 11
5.5447018107
 21
-32.4247299024
 31
0.0
 11
5.5147089875
 21
-32.4342755414
 31
0.0
 11
5.4823112556
 21
-32.4415973615
 31
0.0
 11
5.448161946
 21
-32.4465474759
 31
0.0
 11
5.4129538419
 21
-32.4490252766
 31
0.0
 11
5.377398416
 21
-32.4489806835
 31
0.0
 11
5.3422150429
 21
-32.4464145365
 31
0.0
 11
5.3081154335
 21
-32.4413787071
 31
0.0
 11
5.2757894317
 21
-32.4339750447
 31
0.0
 11
5.2458909558
 21
-32.4243533024
 31
0.0
 11
5.2190249377
 21
-32.4127081696
 31
0.0
  0
SPLINE
  5
4C7
100
AcDbEntity
  8
PORTATASTO
100
AcDbSpline
 62
7
  6
CONTINUOUS
 70
0
 71
3
 72
14
 73
10
 74
8
 42
0.0000001
 43
0.0000001
 44
0.0000000001
 12
0.1922517655
 22
0.2296519252
 32
0.0
 13
-0.0336667603
 23
0.2976025829
 33
0.0
 40
0.0
 40
0.0
 40
0.0
 40
0.0
 40
0.1213298258
 40
0.2489673206
 40
0.3838717255
 40
0.5265329855
 40
0.6770197708
 40
0.8350383157
 40
1.0
 40
1.0
 40
1.0
 40
1.0
 10
-13.0969805872
 20
19.2942764601
 30
0.0
 10
-13.0892052961
 20
19.3035643361
 30
0.0
 10
-13.0748149984
 20
19.3239765468
 30
0.0
 10
-13.0575407378
 20
19.3583170316
 30
0.0
 10
-13.0442572857
 20
19.3966407771
 30
0.0
 10
-13.0351060957
 20
19.4384736682
 30
0.0
 10
-13.0301754969
 20
19.4833214241
 30
0.0
 10
-13.0295133559
 20
19.5306474453
 30
0.0
 10
-13.03187311
 20
19.5628495165
 30
0.0
 10
-13.0337243518
 20
19.5792138576
 30
0.0
 11
-13.0969805872
 21
19.2942764601
 31
0.0
 11
-13.0759364108
 21
19.323901125
 31
0.0
 11
-13.0586258972
 21
19.3579847078
 31
0.0
 11
-13.0452592703
 21
19.3961136338
 31
0.0
 11
-13.0359989093
 21
19.4378252201
 31
0.0
 11
-13.0309573758
 21
19.4826132824
 31
0.0
 11
-13.0301960318
 21
19.5299338438
 31
0.0
 11
-13.0337243518
 21
19.5792138576
 31
0.0
  0
SPLINE
  5
4C8
100
AcDbEntity
  8
PORTATASTO
100
AcDbSpline
 62
7
  6
CONTINUOUS
 70
0
 71
3
 72
11
 73
7
 74
5
 42
0.0000001
 43
0.0000001
 44
0.0000000001
 12
0.2508724809
 22
0.3425059839
 32
0.0
 13
0.1598550843
 23
0.3933112033
 33
0.0
 40
0.0
 40
0.0
 40
0.0
 40
0.0
 40
0.2948938727
 40
0.5566000891
 40
0.7856607226
 40
1.0
 40
1.0
 40
1.0
 40
1.0
 10
-13.0337243518
 20
19.5792138576
 30
0.0
 10
-13.0090640993
 20
19.6128814963
 30
0.0
 10
-12.9641925778
 20
19.6777072135
 30
0.0
 10
-12.9068007322
 20
19.7729537199
 30
0.0
 10
-12.8592288789
 20
19.86083875
 30
0.0
 10
-12.8359084875
 20
19.9191786069
 30
0.0
 10
-12.8244874131
 20
19.9472792866
 30
0.0
 11
-13.0337243518
 21
19.5792138576
 31
0.0
 11
-12.9626994994
 21
19.6823167763
 31
0.0
 11
-12.9051949394
 21
19.7773872372
 31
0.0
 11
-12.8599956472
 21
19.8634940398
 31
0.0
 11
-12.8244874131
 21
19.9472792866
 31
0.0
  0
SPLINE
  5
4C9
100
AcDbEntity
  8
PORTATASTO
100
AcDbSpline
 62
7
  6
CONTINUOUS
 70
0
 71
3
 72
14
 73
10
 74
8
 42
0.0000001
 43
0.0000001
 44
0.0000000001
 12
0.1922517655
 22
0.2296519252
 32
0.0
 13
-0.0336667603
 23
0.2976025829
 33
0.0
 40
0.0
 40
0.0
 40
0.0
 40
0.0
 40
0.1213298258
 40
0.2489673206
 40
0.3838717255
 40
0.5265329855
 40
0.6770197708
 40
0.8350383157
 40
1.0
 40
1.0
 40
1.0
 40
1.0
 10
2.8129219895
 20
11.3393251717
 30
0.0
 10
2.8206972806
 20
11.3486130478
 30
0.0
 10
2.8350875783
 20
11.3690252585
 30
0.0
 10
2.8523618389
 20
11.4033657432
 30
0.0
 10
2.865645291
 20
11.4416894888
 30
0.0
 10
2.874796481
 20
11.4835223798
 30
0.0
 10
2.8797270798
 20
11.5283701358
 30
0.0
 10
2.8803892208
 20
11.575696157
 30
0.0
 10
2.8780294667
 20
11.6078982282
 30
0.0
 10
2.8761782249
 20
11.6242625693
 30
0.0
 11
2.8129219895
 21
11.3393251717
 31
0.0
 11
2.8339661659
 21
11.3689498367
 31
0.0
 11
2.8512766795
 21
11.4030334195
 31
0.0
 11
2.8646433064
 21
11.4411623455
 31
0.0
 11
2.8739036674
 21
11.4828739317
 31
0.0
 11
2.8789452009
 21
11.5276619941
 31
0.0
 11
2.8797065449
 21
11.5749825554
 31
0.0
 11
2.8761782249
 21
11.6242625693
 31
0.0
  0
SPLINE
  5
4CA
100
AcDbEntity
  8
PORTATASTO
100
AcDbSpline
 62
7
  6
CONTINUOUS
 70
0
 71
3
 72
11
 73
7
 74
5
 42
0.0000001
 43
0.0000001
 44
0.0000000001
 12
0.2508724809
 22
0.3425059839
 32
0.0
 13
0.1598550843
 23
0.3933112033
 33
0.0
 40
0.0
 40
0.0
 40
0.0
 40
0.0
 40
0.2948938727
 40
0.5566000891
 40
0.7856607226
 40
1.0
 40
1.0
 40
1.0
 40
1.0
 10
2.8761782249
 20
11.6242625693
 30
0.0
 10
2.9008384773
 20
11.6579302079
 30
0.0
 10
2.9457099989
 20
11.7227559251
 30
0.0
 10
3.0031018445
 20
11.8180024315
 30
0.0
 10
3.0506736978
 20
11.9058874617
 30
0.0
 10
3.0739940891
 20
11.9642273186
 30
0.0
 10
3.0854151636
 20
11.9923279983
 30
0.0
 11
2.8761782249
 21
11.6242625693
 31
0.0
 11
2.9472030773
 21
11.727365488
 31
0.0
 11
3.0047076373
 21
11.8224359489
 31
0.0
 11
3.0499069295
 21
11.9085427515
 31
0.0
 11
3.0854151636
 21
11.9923279983
 31
0.0
  0
SPLINE
  5
4CB
100
AcDbEntity
  8
PORTATASTO
100
AcDbSpline
 62
7
  6
CONTINUOUS
 70
0
 71
3
 72
19
 73
15
 74
13
 42
0.0000001
 43
0.0000001
 44
0.0000000001
 12
-0.4347459944
 22
-0.032061621
 32
0.0
 13
-0.4203661256
 23
-0.115431138
 33
0.0
 40
0.0
 40
0.0
 40
0.0
 40
0.0
 40
0.0993228519
 40
0.197235155
 40
0.292953754
 40
0.3859686322
 40
0.4759499567
 40
0.5626287566
 40
0.6457651535
 40
0.7251289558
 40
0.8004853034
 40
0.8715851638
 40
0.9381799011
 40
1.0
 40
1.0
 40
1.0
 40
1.0
 10
-13.7439349798
 20
19.8597263493
 30
0.0
 10
-13.7583283838
 20
19.8586648654
 30
0.0
 10
-13.7868350822
 20
19.8554780932
 30
0.0
 10
-13.8288399128
 20
19.8484987514
 30
0.0
 10
-13.8696411607
 20
19.8400822326
 30
0.0
 10
-13.9090588656
 20
19.8307662725
 30
0.0
 10
-13.9469962376
 20
19.8209437478
 30
0.0
 10
-13.9833910437
 20
19.8109129954
 30
0.0
 10
-14.0181906211
 20
19.8009111916
 30
0.0
 10
-14.0513420476
 20
19.7911352024
 30
0.0
 10
-14.0827865214
 20
19.7817554247
 30
0.0
 10
-14.1124584265
 20
19.7729242215
 30
0.0
 10
-14.1402830058
 20
19.7647821108
 30
0.0
 10
-14.1582393376
 20
19.7597047766
 30
0.0
 10
-14.1669016961
 20
19.7573261218
 30
0.0
 11
-13.7439349798
 21
19.8597263493
 31
0.0
 11
-13.7869815469
 21
19.8550718347
 31
0.0
 11
-13.8291027889
 21
19.8481722953
 31
0.0
 11
-13.8699816565
 21
19.8398056264
 31
0.0
 11
-13.9094525009
 21
19.8305230956
 31
0.0
 11
-13.9474338604
 21
19.8207232484
 31
0.0
 11
-13.9838681529
 21
19.8107085749
 31
0.0
 11
-14.0187055286
 21
19.800718875
 31
0.0
 11
-14.0518952981
 21
19.7909527385
 31
0.0
 11
-14.0833802145
 21
19.7815819358
 31
0.0
 11
-14.1130928329
 21
19.7727610325
 31
0.0
 11
-14.1409616392
 21
19.7646311559
 31
0.0
 11
-14.1669016961
 21
19.7573261218
 31
0.0
  0
SPLINE
  5
4CC
100
AcDbEntity
  8
PORTATASTO
100
AcDbSpline
 62
7
  6
CONTINUOUS
 70
0
 71
3
 72
19
 73
15
 74
13
 42
0.0000001
 43
0.0000001
 44
0.0000000001
 12
-0.4347459944
 22
-0.032061621
 32
0.0
 13
-0.4203661256
 23
-0.115431138
 33
0.0
 40
0.0
 40
0.0
 40
0.0
 40
0.0
 40
0.0993228519
 40
0.197235155
 40
0.292953754
 40
0.3859686322
 40
0.4759499567
 40
0.5626287566
 40
0.6457651535
 40
0.7251289558
 40
0.8004853034
 40
0.8715851638
 40
0.9381799011
 40
1.0
 40
1.0
 40
1.0
 40
1.0
 10
2.1659675969
 20
11.904775061
 30
0.0
 10
2.1515741929
 20
11.9037135771
 30
0.0
 10
2.1230674945
 20
11.9005268049
 30
0.0
 10
2.0810626639
 20
11.8935474631
 30
0.0
 10
2.040261416
 20
11.8851309443
 30
0.0
 10
2.0008437111
 20
11.8758149841
 30
0.0
 10
1.9629063391
 20
11.8659924595
 30
0.0
 10
1.926511533
 20
11.855961707
 30
0.0
 10
1.8917119556
 20
11.8459599033
 30
0.0
 10
1.8585605291
 20
11.836183914
 30
0.0
 10
1.8271160552
 20
11.8268041364
 30
0.0
 10
1.7974441502
 20
11.8179729332
 30
0.0
 10
1.7696195709
 20
11.8098308224
 30
0.0
 10
1.7516632391
 20
11.8047534883
 30
0.0
 10
1.7430008806
 20
11.8023748335
 30
0.0
 11
2.1659675969
 21
11.904775061
 31
0.0
 11
2.1229210298
 21
11.9001205463
 31
0.0
 11
2.0807997878
 21
11.893221007
 31
0.0
 11
2.0399209202
 21
11.884854338
 31
0.0
 11
2.0004500758
 21
11.8755718073
 31
0.0
 11
1.9624687163
 21
11.8657719601
 31
0.0
 11
1.9260344238
 21
11.8557572865
 31
0.0
 11
1.891197048
 21
11.8457675866
 31
0.0
 11
1.8580072786
 21
11.8360014501
 31
0.0
 11
1.8265223622
 21
11.8266306475
 31
0.0
 11
1.7968097437
 21
11.8178097442
 31
0.0
 11
1.7689409375
 21
11.8096798676
 31
0.0
 11
1.7430008806
 21
11.8023748335
 31
0.0
  0
SPLINE
  5
4CD
100
AcDbEntity
  8
PORTATASTO
100
AcDbSpline
 62
7
  6
CONTINUOUS
 70
0
 71
3
 72
9
 73
5
 74
3
 42
0.0000001
 43
0.0000001
 44
0.0000000001
 12
0.0000106939
 22
-0.020588684
 32
0.0
 13
0.0016621915
 23
-0.0205197568
 33
0.0
 40
0.0
 40
0.0
 40
0.0
 40
0.0
 40
0.5208435173
 40
1.0
 40
1.0
 40
1.0
 40
1.0
 10
-19.8176666218
 20
22.8530482356
 30
0.0
 10
-19.8176647652
 20
22.8494737414
 30
0.0
 10
-19.817495616
 20
22.8426113014
 30
0.0
 10
-19.8170587227
 20
22.8357622797
 30
0.0
 10
-19.8167932394
 20
22.8324848882
 30
0.0
 11
-19.8176666218
 21
22.8530482356
 31
0.0
 11
-19.8174159316
 21
22.8423288667
 31
0.0
 11
-19.8167932394
 21
22.8324848882
 31
0.0
  0
SPLINE
  5
4CE
100
AcDbEntity
  8
PORTATASTO
100
AcDbSpline
 62
7
  6
CONTINUOUS
 70
0
 71
3
 72
17
 73
13
 74
11
 42
0.0000001
 43
0.0000001
 44
0.0000000001
 12
0.0289734995
 22
-0.3576778919
 32
0.0
 13
0.2214236492
 23
-0.2822258458
 33
0.0
 40
0.0
 40
0.0
 40
0.0
 40
0.0
 40
0.0573573103
 40
0.1483657571
 40
0.2444832861
 40
0.3448491641
 40
0.4487388961
 40
0.5555184648
 40
0.6646038968
 40
0.7754249575
 40
0.8874248937
 40
1.0
 40
1.0
 40
1.0
 40
1.0
 10
-19.8167932394
 20
22.8324848882
 30
0.0
 10
-19.8162392921
 20
22.8256464075
 30
0.0
 10
-19.814174129
 20
22.8080064773
 30
0.0
 10
-19.8086097493
 20
22.7792763384
 30
0.0
 10
-19.7995673437
 20
22.7460815561
 30
0.0
 10
-19.7878767419
 20
22.7120967731
 30
0.0
 10
-19.7737198963
 20
22.6776836294
 30
0.0
 10
-19.7572612377
 20
22.6431536459
 30
0.0
 10
-19.7386547032
 20
22.6087880803
 30
0.0
 10
-19.7180498189
 20
22.5748503643
 30
0.0
 10
-19.6956015579
 20
22.5415997154
 30
0.0
 10
-19.6795265178
 20
22.5200746024
 30
0.0
 10
-19.6712175876
 20
22.5094840675
 30
0.0
 11
-19.8167932394
 21
22.8324848882
 31
0.0
 11
-19.814446507
 21
22.8120380516
 31
0.0
 11
-19.8083412635
 21
22.779967477
 31
0.0
 11
-19.7993498455
 21
22.746681241
 31
0.0
 11
-19.7876886449
 21
22.7126188209
 31
0.0
 11
-19.7735462112
 21
22.6781392163
 31
0.0
 11
-19.7570903368
 21
22.6435502578
 31
0.0
 11
-19.7384762312
 21
22.6091299442
 31
0.0
 11
-19.717855674
 21
22.575142453
 31
0.0
 11
-19.6953803651
 21
22.5418405189
 31
0.0
 11
-19.6712175876
 21
22.5094840675
 31
0.0
  0
SPLINE
  5
4CF
100
AcDbEntity
  8
PORTATASTO
100
AcDbSpline
 62
253
  6
CONTINUOUS
 70
0
 71
3
 72
13
 73
9
 74
7
 42
0.0000001
 43
0.0000001
 44
0.0000000001
 12
0.0770121651
 22
-0.0453551141
 32
0.0
 13
0.0259299922
 23
-0.0854636218
 33
0.0
 40
0.0
 40
0.0
 40
0.0
 40
0.0
 40
0.0492770403
 40
0.2542392125
 40
0.4652422127
 40
0.6856320046
 40
0.918952479
 40
1.0
 40
1.0
 40
1.0
 40
1.0
 10
5.8699644654
 20
9.044187527
 30
0.0
 10
5.8712294426
 20
9.0434425384
 30
0.0
 10
5.8776676905
 20
9.0394494589
 30
0.0
 10
5.8885518022
 20
9.0307683883
 30
0.0
 10
5.9010576082
 20
9.0164287409
 30
0.0
 10
5.9114650812
 20
8.9995172201
 30
0.0
 10
5.9177204196
 20
8.9848318658
 30
0.0
 10
5.9206276319
 20
8.9759338898
 30
0.0
 10
5.9213281524
 20
8.9736250183
 30
0.0
 11
5.8699644654
 21
9.044187527
 31
0.0
 11
5.8737067605
 21
9.0418664422
 31
0.0
 11
5.8880325389
 21
9.0304897798
 31
0.0
 11
5.9004608125
 21
9.0163401623
 31
0.0
 11
5.9108387353
 21
8.999629965
 31
0.0
 11
5.9190774227
 21
8.9805042748
 31
0.0
 11
5.9213281524
 21
8.9736250183
 31
0.0
  0
SPLINE
  5
4D0
100
AcDbEntity
  8
PORTATASTO
100
AcDbSpline
 62
253
  6
CONTINUOUS
 70
0
 71
3
 72
10
 73
6
 74
4
 42
0.0000001
 43
0.0000001
 44
0.0000000001
 12
0.018193477
 22
-0.0599645548
 32
0.0
 13
-0.0000000029
 23
-0.0626237623
 33
0.0
 40
0.0
 40
0.0
 40
0.0
 40
0.0
 40
0.2379216854
 40
0.6104955935
 40
1.0
 40
1.0
 40
1.0
 40
1.0
 10
5.9213281524
 20
8.9736250183
 30
0.0
 10
5.9227710266
 20
8.9688693956
 30
0.0
 10
5.9259400652
 20
8.9565047622
 30
0.0
 10
5.9290964191
 20
8.9358280978
 30
0.0
 10
5.9298341549
 20
8.9199064021
 30
0.0
 10
5.9298341545
 20
8.9117756583
 30
0.0
 11
5.9213281524
 21
8.9736250183
 31
0.0
 11
5.9250524443
 21
8.9591926895
 31
0.0
 11
5.9286443859
 21
8.936138856
 31
0.0
 11
5.9298341545
 21
8.9117756583
 31
0.0
  0
SPLINE
  5
4D1
100
AcDbEntity
  8
PORTATASTO
100
AcDbSpline
 62
253
  6
CONTINUOUS
 70
0
 71
3
 72
13
 73
9
 74
7
 42
0.0000001
 43
0.0000001
 44
0.0000000001
 12
0.0770121651
 22
-0.0453551141
 32
0.0
 13
0.0259299922
 23
-0.0854636218
 33
0.0
 40
0.0
 40
0.0
 40
0.0
 40
0.0
 40
0.0492770403
 40
0.2542392125
 40
0.4652422127
 40
0.6856320046
 40
0.918952479
 40
1.0
 40
1.0
 40
1.0
 40
1.0
 10
-7.4766760295
 20
15.7175077744
 30
0.0
 10
-7.4754110523
 20
15.7167627858
 30
0.0
 10
-7.4689728044
 20
15.7127697064
 30
0.0
 10
-7.4580886927
 20
15.7040886357
 30
0.0
 10
-7.4455828867
 20
15.6897489884
 30
0.0
 10
-7.4351754137
 20
15.6728374676
 30
0.0
 10
-7.4289200753
 20
15.6581521133
 30
0.0
 10
-7.426012863
 20
15.6492541373
 30
0.0
 10
-7.4253123425
 20
15.6469452657
 30
0.0
 11
-7.4766760295
 21
15.7175077744
 31
0.0
 11
-7.4729337344
 21
15.7151866897
 31
0.0
 11
-7.458607956
 21
15.7038100272
 31
0.0
 11
-7.4461796824
 21
15.6896604098
 31
0.0
 11
-7.4358017596
 21
15.6729502124
 31
0.0
 11
-7.4275630722
 21
15.6538245222
 31
0.0
 11
-7.4253123425
 21
15.6469452657
 31
0.0
  0
SPLINE
  5
4D2
100
AcDbEntity
  8
PORTATASTO
100
AcDbSpline
 62
253
  6
CONTINUOUS
 70
0
 71
3
 72
10
 73
6
 74
4
 42
0.0000001
 43
0.0000001
 44
0.0000000001
 12
0.018193477
 22
-0.0599645548
 32
0.0
 13
-0.0000000029
 23
-0.0626237623
 33
0.0
 40
0.0
 40
0.0
 40
0.0
 40
0.0
 40
0.2379216854
 40
0.6104955935
 40
1.0
 40
1.0
 40
1.0
 40
1.0
 10
-7.4253123425
 20
15.6469452657
 30
0.0
 10
-7.4238694682
 20
15.6421896431
 30
0.0
 10
-7.4207004297
 20
15.6298250097
 30
0.0
 10
-7.4175440758
 20
15.6091483452
 30
0.0
 10
-7.41680634
 20
15.5932266496
 30
0.0
 10
-7.4168063404
 20
15.5850959058
 30
0.0
 11
-7.4253123425
 21
15.6469452657
 31
0.0
 11
-7.4215880506
 21
15.632512937
 31
0.0
 11
-7.417996109
 21
15.6094591035
 31
0.0
 11
-7.4168063404
 21
15.5850959058
 31
0.0
  0
SPLINE
  5
4D3
100
AcDbEntity
  8
PORTATASTO
100
AcDbSpline
 62
253
  6
CONTINUOUS
 70
0
 71
3
 72
14
 73
10
 74
8
 42
0.0000001
 43
0.0000001
 44
0.0000000001
 12
0.1430911413
 22
0.0698278485
 32
0.0
 13
0.0006812611
 23
0.1588630725
 33
0.0
 40
0.0
 40
0.0
 40
0.0
 40
0.0
 40
0.0336149653
 40
0.1722601754
 40
0.3164309802
 40
0.4696310554
 40
0.6341306056
 40
0.8109466694
 40
1.0
 40
1.0
 40
1.0
 40
1.0
 10
5.5055170556
 20
-32.5489569309
 30
0.0
 10
5.5071203901
 20
-32.5481745106
 30
0.0
 10
5.5152216878
 20
-32.5439306204
 30
0.0
 10
5.5288820532
 20
-32.5339686111
 30
0.0
 10
5.5441627656
 20
-32.5164265882
 30
0.0
 10
5.5562960381
 20
-32.4950254509
 30
0.0
 10
5.5650968906
 20
-32.4702396635
 30
0.0
 10
5.570439263
 20
-32.4425769078
 30
0.0
 10
5.5716073771
 20
-32.4231809538
 30
0.0
 10
5.5716503087
 20
-32.4131697562
 30
0.0
 11
5.5055170556
 21
-32.5489569309
 31
0.0
 11
5.5102568597
 21
-32.5464732929
 31
0.0
 11
5.5280913448
 21
-32.5335478413
 31
0.0
 11
5.5432328866
 21
-32.516363259
 31
0.0
 11
5.5553732579
 21
-32.4952693624
 31
0.0
 11
5.5642653243
 21
-32.4706955474
 31
0.0
 11
5.5697280752
 21
-32.4431420486
 31
0.0
 11
5.5716503087
 21
-32.4131697562
 31
0.0
  0
SPLINE
  5
4D4
100
AcDbEntity
  8
PORTATASTO
100
AcDbSpline
 62
253
  6
CONTINUOUS
 70
0
 71
3
 72
9
 73
5
 74
3
 42
0.0000001
 43
0.0000001
 44
0.0000000001
 12
0.0233887534
 22
-0.0158476896
 32
0.0
 13
0.0252433606
 23
-0.0126216803
 33
0.0
 40
0.0
 40
0.0
 40
0.0
 40
0.0
 40
0.0474808849
 40
1.0
 40
1.0
 40
1.0
 40
1.0
 10
3.9635806207
 20
-31.5330355607
 30
0.0
 10
3.9639507936
 20
-31.5332863814
 30
0.0
 10
3.9717659747
 20
-31.53854071
 30
0.0
 10
3.9799661555
 20
-31.5432075692
 30
0.0
 10
3.9879810834
 20
-31.5472150331
 30
0.0
 11
3.9635806207
 21
-31.5330355607
 31
0.0
 11
3.964693805
 21
-31.5337840174
 31
0.0
 11
3.9879810834
 21
-31.5472150331
 31
0.0
  0
SPLINE
  5
4D5
100
AcDbEntity
  8
PORTATASTO
100
AcDbSpline
 62
253
  6
CONTINUOUS
 70
0
 71
3
 72
13
 73
9
 74
7
 42
0.0000001
 43
0.0000001
 44
0.0000000001
 12
-0.1207750024
 22
0.081626639
 32
0.0
 13
0.0
 23
0.1454586507
 33
0.0
 40
0.0
 40
0.0
 40
0.0
 40
0.0
 40
0.1004032612
 40
0.2572715646
 40
0.4238331162
 40
0.6025792062
 40
0.7946502891
 40
1.0
 40
1.0
 40
1.0
 40
1.0
 10
4.042349101
 20
-31.9262026371
 30
0.0
 10
4.0383070329
 20
-31.9234707769
 30
0.0
 10
4.0284837854
 20
-31.9156768632
 30
0.0
 10
4.0149397503
 20
-31.9000156272
 30
0.0
 10
4.0029352233
 20
-31.8786683601
 30
0.0
 10
3.9942685213
 20
-31.8539749745
 30
0.0
 10
3.9890621944
 20
-31.826438502
 30
0.0
 10
3.9879810834
 20
-31.8071428731
 30
0.0
 10
3.9879810834
 20
-31.7971862424
 30
0.0
 11
4.042349101
 21
-31.9262026371
 31
0.0
 11
4.0308837271
 21
-31.9171266017
 31
0.0
 11
4.0158620589
 21
-31.8999509257
 31
0.0
 11
4.0038513387
 21
-31.8789097805
 31
0.0
 11
3.9950944455
 21
-31.8544286571
 31
0.0
 11
3.9897684599
 21
-31.8270026092
 31
0.0
 11
3.9879810834
 21
-31.7971862424
 31
0.0
  0
SPLINE
  5
4D6
100
AcDbEntity
  8
PORTATASTO
100
AcDbSpline
 62
7
  6
CONTINUOUS
 70
0
 71
3
 72
13
 73
9
 74
7
 42
0.0000001
 43
0.0000001
 44
0.0000000001
 12
-1.0526267492
 22
1.6373067843
 32
0.0
 13
-1.7442749221
 23
-0.8926913573
 33
0.0
 40
0.0
 40
0.0
 40
0.0
 40
0.0
 40
0.1646560284
 40
0.3825375876
 40
0.5800238033
 40
0.7539490053
 40
0.9074568652
 40
1.0
 40
1.0
 40
1.0
 40
1.0
 10
-22.4400427572
 20
21.3192955675
 30
0.0
 10
-22.4978165372
 20
21.4091597116
 30
0.0
 10
-22.644105353
 20
21.6101498609
 30
0.0
 10
-22.9084392624
 20
21.8803352709
 30
0.0
 10
-23.2268008186
 20
22.0968405902
 30
0.0
 10
-23.5510551256
 20
22.2140498421
 30
0.0
 10
-23.829895718
 20
22.2180481465
 30
0.0
 10
-23.9830111589
 20
22.1639996121
 30
0.0
 10
-24.0368180487
 20
22.1364621266
 30
0.0
 11
-22.4400427572
 21
21.3192955675
 31
0.0
 11
-22.6289468999
 21
21.5779608044
 31
0.0
 11
-22.9273931052
 21
21.8785874385
 31
0.0
 11
-23.2476653335
 21
22.0903644778
 31
0.0
 11
-23.5679375618
 21
22.1988596668
 31
0.0
 11
-23.866383767
 21
22.1966792379
 31
0.0
 11
-24.0368180487
 21
22.1364621266
 31
0.0
  0
SPLINE
  5
4D7
100
AcDbEntity
  8
PORTATASTO
100
AcDbSpline
 62
7
  6
CONTINUOUS
 70
0
 71
3
 72
16
 73
12
 74
10
 42
0.0000001
 43
0.0000001
 44
0.0000000001
 12
0.0
 22
3.3903997053
 32
0.0
 13
-3.0417169936
 23
-1.5567009748
 33
0.0
 40
0.0
 40
0.0
 40
0.0
 40
0.0
 40
0.1225457727
 40
0.2537551599
 40
0.3884623771
 40
0.5209713645
 40
0.6459157102
 40
0.7591643308
 40
0.8589018701
 40
0.946931069
 40
1.0
 40
1.0
 40
1.0
 40
1.0
 10
5.8497787124
 20
6.0260979982
 30
0.0
 10
5.8497787124
 20
6.1645910488
 30
0.0
 10
5.8180587243
 20
6.4517733513
 30
0.0
 10
5.6938329467
 20
6.8747590092
 30
0.0
 10
5.4989852689
 20
7.282822873
 30
0.0
 10
5.2461699934
 20
7.6492080642
 30
0.0
 10
4.9515679164
 20
7.9503316815
 30
0.0
 10
4.6332063601
 20
8.1668370008
 30
0.0
 10
4.3089520531
 20
8.2840462527
 30
0.0
 10
4.0301114607
 20
8.2880445572
 30
0.0
 10
3.8769960198
 20
8.2339960228
 30
0.0
 10
3.8231891301
 20
8.2064585372
 30
0.0
 11
5.8497787124
 21
6.0260979982
 31
0.0
 11
5.8076140736
 21
6.4394320867
 31
0.0
 11
5.6839936078
 21
6.8667627788
 31
0.0
 11
5.4873418453
 21
7.2789681942
 31
0.0
 11
5.2310602788
 21
7.647957215
 31
0.0
 11
4.9326140736
 21
7.9485838492
 31
0.0
 11
4.6123418453
 21
8.1603608884
 31
0.0
 11
4.292069617
 21
8.2688560775
 31
0.0
 11
3.9936234117
 21
8.2666756485
 31
0.0
 11
3.8231891301
 21
8.2064585372
 31
0.0
  0
SPLINE
  5
4D8
100
AcDbEntity
  8
ASSI
100
AcDbSpline
 62
7
  6
CONTINUOUS
 70
0
 71
3
 72
11
 73
7
 74
5
 42
0.0000001
 43
0.0000001
 44
0.0000000001
 12
0.3396153633
 22
-0.1688618995
 32
0.0
 13
-0.0
 23
-0.3769638203
 33
0.0
 40
0.0
 40
0.0
 40
0.0
 40
0.0
 40
0.0281669174
 40
0.3122991915
 40
0.6316770837
 40
1.0
 40
1.0
 40
1.0
 40
1.0
 10
6.5424561191
 20
21.981550521
 30
0.0
 10
6.5456447584
 20
21.9799650813
 30
0.0
 10
6.5805574952
 20
21.961529403
 30
0.0
 10
6.640214225
 20
21.9049488974
 30
0.0
 10
6.6890391426
 20
21.7903762745
 30
0.0
 10
6.6983068498
 20
21.7033717545
 30
0.0
 10
6.6983068498
 20
21.6570902833
 30
0.0
 11
6.5424561191
 21
21.981550521
 31
0.0
 11
6.5518983854
 21
21.9765619922
 31
0.0
 11
6.6309727211
 21
21.9043173749
 31
0.0
 11
6.6811272263
 21
21.7948677551
 31
0.0
 11
6.6983068498
 21
21.6570902833
 31
0.0
  0
SPLINE
  5
4D9
100
AcDbEntity
  8
ASSI
100
AcDbSpline
 62
7
  6
CONTINUOUS
 70
0
 71
3
 72
8
 73
4
 74
2
 42
0.0000001
 43
0.0000001
 44
0.0000000001
 12
0.1235944176
 22
0.0609383965
 32
0.0
 13
0.1304183507
 23
0.0453634238
 33
0.0
 40
0.0
 40
0.0
 40
0.0
 40
0.0
 40
1.0
 40
1.0
 40
1.0
 40
1.0
 10
-13.6800633173
 20
23.0823352433
 30
0.0
 10
-13.6388651781
 20
23.1026480421
 30
0.0
 10
-13.5962547927
 20
23.1201733013
 30
0.0
 10
-13.5527820091
 20
23.1352944426
 30
0.0
 11
-13.6800633173
 21
23.0823352433
 31
0.0
 11
-13.5527820091
 21
23.1352944426
 31
0.0
  0
SPLINE
  5
4DA
100
AcDbEntity
  8
ASSI
100
AcDbSpline
 62
7
  6
CONTINUOUS
 70
0
 71
3
 72
13
 73
9
 74
7
 42
0.0000001
 43
0.0000001
 44
0.0000000001
 12
1.0065066524
 22
0.3500932773
 32
0.0
 13
1.0062016672
 23
-0.3508875842
 33
0.0
 40
0.0
 40
0.0
 40
0.0
 40
0.0
 40
0.0692727473
 40
0.2827268513
 40
0.5008840833
 40
0.718709236
 40
0.9311491486
 40
1.0
 40
1.0
 40
1.0
 40
1.0
 10
-13.5527820091
 20
23.1352944426
 30
0.0
 10
-13.5295408487
 20
23.143378417
 30
0.0
 10
-13.4336793744
 20
23.1735675994
 30
0.0
 10
-13.259054896
 20
23.2085026671
 30
0.0
 10
-13.028647353
 20
23.223044881
 30
0.0
 10
-12.7986228664
 20
23.2081800872
 30
0.0
 10
-12.6246618341
 20
23.1731450264
 30
0.0
 10
-12.5293186572
 20
23.1430205738
 30
0.0
 10
-12.5062260433
 20
23.1349676041
 30
0.0
 11
-13.5527820091
 21
23.1352944426
 31
0.0
 11
-13.4824030928
 21
23.1575435738
 31
0.0
 11
-13.2600455302
 21
23.2031756769
 31
0.0
 11
-13.0285334503
 21
23.2181054792
 31
0.0
 11
-12.7973969104
 21
23.2028439342
 31
0.0
 11
-12.5761540957
 21
23.1571457052
 31
0.0
 11
-12.5062260433
 21
23.1349676041
 31
0.0
  0
SPLINE
  5
4DB
100
AcDbEntity
  8
ASSI
100
AcDbSpline
 62
7
  6
CONTINUOUS
 70
0
 71
3
 72
8
 73
4
 74
2
 42
0.0000001
 43
0.0000001
 44
0.0000000001
 12
0.1347637908
 22
-0.0469954906
 32
0.0
 13
0.1273909096
 23
-0.0636954315
 33
0.0
 40
0.0
 40
0.0
 40
0.0
 40
0.0
 40
1.0
 40
1.0
 40
1.0
 40
1.0
 10
-12.5062260433
 20
23.1349676041
 30
0.0
 10
-12.4613047798
 20
23.1193024406
 30
0.0
 10
-12.4173079693
 20
23.1010660813
 30
0.0
 10
-12.3748443328
 20
23.0798342708
 30
0.0
 11
-12.5062260433
 21
23.1349676041
 31
0.0
 11
-12.3748443328
 21
23.0798342708
 31
0.0
  0
SPLINE
  5
4DC
100
AcDbEntity
  8
ASSI
100
AcDbSpline
 62
7
  6
CONTINUOUS
 70
0
 71
3
 72
8
 73
4
 74
2
 42
0.0000001
 43
0.0000001
 44
0.0000000001
 12
0.1235944176
 22
0.0609383965
 32
0.0
 13
0.1304183507
 23
0.0453634238
 33
0.0
 40
0.0
 40
0.0
 40
0.0
 40
0.0
 40
1.0
 40
1.0
 40
1.0
 40
1.0
 10
2.2298392594
 20
15.1273839549
 30
0.0
 10
2.2710373986
 20
15.1476967538
 30
0.0
 10
2.313647784
 20
15.165222013
 30
0.0
 10
2.3571205676
 20
15.1803431542
 30
0.0
 11
2.2298392594
 21
15.1273839549
 31
0.0
 11
2.3571205676
 21
15.1803431542
 31
0.0
  0
SPLINE
  5
4DD
100
AcDbEntity
  8
ASSI
100
AcDbSpline
 62
7
  6
CONTINUOUS
 70
0
 71
3
 72
13
 73
9
 74
7
 42
0.0000001
 43
0.0000001
 44
0.0000000001
 12
1.0065066524
 22
0.3500932773
 32
0.0
 13
1.0062016672
 23
-0.3508875842
 33
0.0
 40
0.0
 40
0.0
 40
0.0
 40
0.0
 40
0.0692727473
 40
0.2827268513
 40
0.5008840833
 40
0.718709236
 40
0.9311491486
 40
1.0
 40
1.0
 40
1.0
 40
1.0
 10
2.3571205676
 20
15.1803431542
 30
0.0
 10
2.380361728
 20
15.1884271286
 30
0.0
 10
2.4762232023
 20
15.218616311
 30
0.0
 10
2.6508476807
 20
15.2535513788
 30
0.0
 10
2.8812552237
 20
15.2680935926
 30
0.0
 10
3.1112797103
 20
15.2532287989
 30
0.0
 10
3.2852407426
 20
15.2181937381
 30
0.0
 10
3.3805839195
 20
15.1880692854
 30
0.0
 10
3.4036765333
 20
15.1800163158
 30
0.0
 11
2.3571205676
 21
15.1803431542
 31
0.0
 11
2.4274994839
 21
15.2025922854
 31
0.0
 11
2.6498570465
 21
15.2482243886
 31
0.0
 11
2.8813691264
 21
15.2631541909
 31
0.0
 11
3.1125056663
 21
15.2478926459
 31
0.0
 11
3.333748481
 21
15.2021944169
 31
0.0
 11
3.4036765333
 21
15.1800163158
 31
0.0
  0
SPLINE
  5
4DE
100
AcDbEntity
  8
ASSI
100
AcDbSpline
 62
7
  6
CONTINUOUS
 70
0
 71
3
 72
8
 73
4
 74
2
 42
0.0000001
 43
0.0000001
 44
0.0000000001
 12
0.1347637908
 22
-0.0469954906
 32
0.0
 13
0.1273909096
 23
-0.0636954315
 33
0.0
 40
0.0
 40
0.0
 40
0.0
 40
0.0
 40
1.0
 40
1.0
 40
1.0
 40
1.0
 10
3.4036765333
 20
15.1800163158
 30
0.0
 10
3.4485977969
 20
15.1643511523
 30
0.0
 10
3.4925946073
 20
15.1461147929
 30
0.0
 10
3.5350582439
 20
15.1248829824
 30
0.0
 11
3.4036765333
 21
15.1800163158
 31
0.0
 11
3.5350582439
 21
15.1248829824
 31
0.0
  0
SPLINE
  5
4DF
100
AcDbEntity
  8
ASSI
100
AcDbSpline
 62
7
  6
CONTINUOUS
 70
0
 71
3
 72
10
 73
6
 74
4
 42
0.0000001
 43
0.0000001
 44
0.0000000001
 12
-0.1163899141
 22
0.2160302361
 32
0.0
 13
-0.2162219833
 23
0.1179944591
 33
0.0
 40
0.0
 40
0.0
 40
0.0
 40
0.0
 40
0.1087111578
 40
0.7849408613
 40
1.0
 40
1.0
 40
1.0
 40
1.0
 10
12.69999984
 20
26.3419340974
 30
0.0
 10
12.6957822126
 20
26.3497623964
 30
0.0
 10
12.6638806502
 20
26.4055433759
 30
0.0
 10
12.6093971769
 20
26.4690033451
 30
0.0
 10
12.5476194174
 20
26.5084624729
 30
0.0
 10
12.5321192462
 20
26.5169210684
 30
0.0
 11
12.69999984
 21
26.3419340974
 31
0.0
 11
12.6867373379
 21
26.3650987942
 31
0.0
 11
12.5766626161
 21
26.4884245865
 31
0.0
 11
12.5321192462
 21
26.5169210684
 31
0.0
  0
SPLINE
  5
4E0
100
AcDbEntity
  8
ASSI
100
AcDbSpline
 62
253
  6
CONTINUOUS
 70
0
 71
3
 72
11
 73
7
 74
5
 42
0.0000001
 43
0.0000001
 44
0.0000000001
 12
0.4068270028
 22
0.1732449031
 32
0.0
 13
0.3922013345
 23
-0.1988950638
 33
0.0
 40
0.0
 40
0.0
 40
0.0
 40
0.0
 40
0.0804585717
 40
0.3623381405
 40
0.6658663004
 40
1.0
 40
1.0
 40
1.0
 40
1.0
 10
-0.2308296088
 20
32.4848148845
 30
0.0
 10
-0.2199187023
 20
32.4894612303
 30
0.0
 10
-0.1698173291
 20
32.5081138928
 30
0.0
 10
-0.0717637479
 20
32.5224464998
 30
0.0
 10
0.0631864141
 20
32.5033050433
 30
0.0
 10
0.1508313834
 20
32.4685361978
 30
0.0
 10
0.1945139443
 20
32.4463836833
 30
0.0
 11
-0.2308296088
 21
32.4848148845
 31
0.0
 11
-0.1975077762
 21
32.497209861
 31
0.0
 11
-0.0750193931
 21
32.5162336614
 31
0.0
 11
0.0573495932
 21
32.4990718325
 31
0.0
 11
0.1945139443
 21
32.4463836833
 31
0.0
  0
SPLINE
  5
4E1
100
AcDbEntity
  8
ASSI
100
AcDbSpline
 62
253
  6
CONTINUOUS
 70
0
 71
3
 72
13
 73
9
 74
7
 42
0.0000001
 43
0.0000001
 44
0.0000000001
 12
0.5018684592
 22
-0.2507483464
 32
0.0
 13
-0.502592054
 23
-0.249294827
 33
0.0
 40
0.0
 40
0.0
 40
0.0
 40
0.0
 40
0.2008318057
 40
0.3656935445
 40
0.505011707
 40
0.6427653924
 40
0.8034827713
 40
1.0
 40
1.0
 40
1.0
 40
1.0
 10
12.8575085254
 20
14.6193943907
 30
0.0
 10
12.891105575
 20
14.6026083097
 30
0.0
 10
12.9498421713
 20
14.5663294919
 30
0.0
 10
13.0149210284
 20
14.4953764989
 30
0.0
 10
13.0408712121
 20
14.4129243334
 30
0.0
 10
13.0181792646
 20
14.3301739558
 30
0.0
 10
12.9551950584
 20
14.2595478688
 30
0.0
 10
12.8977710027
 20
14.224106714
 30
0.0
 10
12.8648483369
 20
14.2077764711
 30
0.0
 11
12.8575085254
 21
14.6193943907
 31
0.0
 11
12.9521176693
 21
14.5582068248
 31
0.0
 11
13.0119449359
 21
14.4876708626
 31
0.0
 11
13.0332185955
 21
14.4124610027
 31
0.0
 11
13.0145751048
 21
14.337460484
 31
0.0
 11
12.9573279683
 21
14.2677991885
 31
0.0
 11
12.8648483369
 21
14.2077764711
 31
0.0
  0
SPLINE
  5
4E2
100
AcDbEntity
  8
ASSI
100
AcDbSpline
 62
253
  6
CONTINUOUS
 70
0
 71
3
 72
13
 73
9
 74
7
 42
0.0000001
 43
0.0000001
 44
0.0000000001
 12
0.7842565631
 22
0.3621114247
 32
0.0
 13
0.7725209813
 23
-0.3865156843
 33
0.0
 40
0.0
 40
0.0
 40
0.0
 40
0.0
 40
0.1528836291
 40
0.3221117631
 40
0.500141459
 40
0.6782168772
 40
0.8471993223
 40
1.0
 40
1.0
 40
1.0
 40
1.0
 10
6.776518324
 20
17.2519414775
 30
0.0
 10
6.8164849872
 20
17.2703951138
 30
0.0
 10
6.9048408334
 20
17.3004246957
 30
0.0
 10
7.0469927647
 20
17.3258582654
 30
0.0
 10
7.1984992086
 20
17.3330012322
 30
0.0
 10
7.3496578623
 20
17.3213605666
 30
0.0
 10
7.4909030192
 20
17.2917009209
 30
0.0
 10
7.5782301719
 20
17.2590465654
 30
0.0
 10
7.617577415
 20
17.2393599459
 30
0.0
 11
6.776518324
 21
17.2519414775
 31
0.0
 11
6.9010774486
 21
17.295826124
 31
0.0
 11
7.0448356447
 21
17.3223382222
 31
0.0
 11
7.1984390815
 21
17.3298173125
 31
0.0
 11
7.3517909502
 21
17.3177630094
 31
0.0
 11
7.4944829355
 21
17.2870009564
 31
0.0
 11
7.617577415
 21
17.2393599459
 31
0.0
  0
SPLINE
  5
4E3
100
AcDbEntity
  8
ASSI
100
AcDbSpline
 62
253
  6
CONTINUOUS
 70
0
 71
3
 72
10
 73
6
 74
4
 42
0.0000001
 43
0.0000001
 44
0.0000000001
 12
-0.0829631482
 22
0.0420455526
 32
0.0
 13
-0.0825509033
 23
-0.0412756274
 33
0.0
 40
0.0
 40
0.0
 40
0.0
 40
0.0
 40
0.0744017811
 40
0.5048254358
 40
1.0
 40
1.0
 40
1.0
 40
1.0
 10
-12.3748578067
 20
23.0798076842
 30
0.0
 10
-12.376915342
 20
23.0808504389
 30
0.0
 10
-12.3911872143
 20
23.0872695426
 30
0.0
 10
-12.4230601762
 20
23.0903934703
 30
0.0
 10
-12.4506612179
 20
23.0809667278
 30
0.0
 10
-12.4642869204
 20
23.0741538476
 30
0.0
 11
-12.3748578067
 21
23.0798076842
 31
0.0
 11
-12.3811616515
 21
23.0826373738
 31
0.0
 11
-12.4205853949
 21
23.0875274272
 31
0.0
 11
-12.4642869204
 21
23.0741538476
 31
0.0
  0
SPLINE
  5
4E4
100
AcDbEntity
  8
ASSI
100
AcDbSpline
 62
7
  6
CONTINUOUS
 70
0
 71
3
 72
9
 73
5
 74
3
 42
0.0000001
 43
0.0000001
 44
0.0000000001
 12
0.0298596612
 22
0.0147174143
 32
0.0
 13
0.0332723555
 23
-0.0010069455
 33
0.0
 40
0.0
 40
0.0
 40
0.0
 40
0.0
 40
0.4165599351
 40
1.0
 40
1.0
 40
1.0
 40
1.0
 10
-13.680065066
 20
23.0823334314
 30
0.0
 10
-13.6759189531
 20
23.0843769931
 30
0.0
 10
-13.665363283
 20
23.0880692183
 30
0.0
 10
-13.6542032307
 20
23.0889626986
 30
0.0
 10
-13.6477324223
 20
23.0887668679
 30
0.0
 11
-13.680065066
 21
23.0823334314
 31
0.0
 11
-13.6670199409
 21
23.086967415
 31
0.0
 11
-13.6477324223
 21
23.0887668679
 31
0.0
  0
SPLINE
  5
4E5
100
AcDbEntity
  8
ASSI
100
AcDbSpline
 62
7
  6
CONTINUOUS
 70
0
 71
3
 72
9
 73
5
 74
3
 42
0.0000001
 43
0.0000001
 44
0.0000000001
 12
0.0545130051
 22
-0.0016497667
 32
0.0
 13
0.0486545646
 23
-0.0243272823
 33
0.0
 40
0.0
 40
0.0
 40
0.0
 40
0.0
 40
0.4414615411
 40
1.0
 40
1.0
 40
1.0
 40
1.0
 10
-13.6477324223
 20
23.0887668679
 30
0.0
 10
-13.6397106239
 20
23.0885240983
 30
0.0
 10
-13.6216803102
 20
23.0854777013
 30
0.0
 10
-13.6047162521
 20
23.0786830885
 30
0.0
 10
-13.5956577703
 20
23.0741538476
 30
0.0
 11
-13.6477324223
 21
23.0887668679
 31
0.0
 11
-13.6239990445
 21
23.0851038807
 31
0.0
 11
-13.5956577703
 21
23.0741538476
 31
0.0
  0
SPLINE
  5
4E6
100
AcDbEntity
  8
ASSI
100
AcDbSpline
 62
7
  6
CONTINUOUS
 70
0
 71
3
 72
16
 73
12
 74
10
 42
0.0000001
 43
0.0000001
 44
0.0000000001
 12
1.8399105926
 22
1.6899855655
 32
0.0
 13
2.2293028581
 23
-1.1146512687
 33
0.0
 40
0.0
 40
0.0
 40
0.0
 40
0.0
 40
0.0752752901
 40
0.1753039979
 40
0.2865087706
 40
0.405954128
 40
0.5311521666
 40
0.6586308345
 40
0.7828055998
 40
0.8979168114
 40
1.0
 40
1.0
 40
1.0
 40
1.0
 10
-8.6903181119
 20
26.9831575296
 30
0.0
 10
-8.6441515107
 20
27.0255622476
 30
0.0
 10
-8.5256694581
 20
27.111859594
 30
0.0
 10
-8.3107946629
 20
27.2167182477
 30
0.0
 10
-8.0482010397
 20
27.3001442447
 30
0.0
 10
-7.7570198093
 20
27.3549359925
 30
0.0
 10
-7.4482184202
 20
27.3786678236
 30
0.0
 10
-7.1346157952
 20
27.3708309286
 30
0.0
 10
-6.8321374712
 20
27.3293742989
 30
0.0
 10
-6.556266239
 20
27.2606825656
 30
0.0
 10
-6.3883160387
 20
27.1925941558
 30
0.0
 10
-6.312457924
 20
27.1546651039
 30
0.0
 11
-8.6903181119
 21
26.9831575296
 31
0.0
 11
-8.540003989
 21
27.0955922439
 31
0.0
 11
-8.3170861664
 21
27.2072421621
 31
0.0
 11
-8.0534490811
 21
27.2927941707
 31
0.0
 11
-7.761052616
 21
27.3487898659
 31
0.0
 11
-7.4499666789
 21
27.37327616
 31
0.0
 11
-7.132347143
 21
27.364805871
 31
0.0
 11
-6.8257315427
 21
27.3226668761
 31
0.0
 11
-6.5478646403
 21
27.2512118636
 31
0.0
 11
-6.312457924
 21
27.1546651039
 31
0.0
  0
SPLINE
  5
4E7
100
AcDbEntity
  8
ASSI
100
AcDbSpline
 62
7
  6
CONTINUOUS
 70
0
 71
3
 72
17
 73
13
 74
11
 42
0.0000001
 43
0.0000001
 44
0.0000000001
 12
1.7398018451
 22
1.8880792291
 32
0.0
 13
2.2866521276
 23
-1.1433258993
 33
0.0
 40
0.0
 40
0.0
 40
0.0
 40
0.0
 40
0.0140878835
 40
0.0984673996
 40
0.1959873859
 40
0.3044031413
 40
0.4208528073
 40
0.5429108773
 40
0.6671923783
 40
0.7882528386
 40
0.9004770593
 40
1.0
 40
1.0
 40
1.0
 40
1.0
 10
-4.4932444902
 20
29.0590821327
 30
0.0
 10
-4.4850744483
 20
29.0679484794
 30
0.0
 10
-4.4263953294
 20
29.1284595079
 30
0.0
 10
-4.2914846837
 20
29.2290534619
 30
0.0
 10
-4.0681539757
 20
29.3380385913
 30
0.0
 10
-3.8055603526
 20
29.4214645883
 30
0.0
 10
-3.5143791222
 20
29.476256336
 30
0.0
 10
-3.2055777331
 20
29.4999881671
 30
0.0
 10
-2.8919751081
 20
29.4921512722
 30
0.0
 10
-2.5894967841
 20
29.4506946425
 30
0.0
 10
-2.3136255519
 20
29.3820029092
 30
0.0
 10
-2.1456753516
 20
29.3139144993
 30
0.0
 10
-2.0698172369
 20
29.2759854474
 30
0.0
 11
-4.4932444902
 21
29.0590821327
 31
0.0
 11
-4.4680975044
 21
29.0850591934
 31
0.0
 11
-4.2973633019
 21
29.2169125875
 31
0.0
 11
-4.0744454793
 21
29.3285625056
 31
0.0
 11
-3.810808394
 21
29.4141145142
 31
0.0
 11
-3.5184119288
 21
29.4701102095
 31
0.0
 11
-3.2073259917
 21
29.4945965035
 31
0.0
 11
-2.8897064559
 21
29.4861262145
 31
0.0
 11
-2.5830908556
 21
29.4439872196
 31
0.0
 11
-2.3052239531
 21
29.3725322072
 31
0.0
 11
-2.0698172369
 21
29.2759854474
 31
0.0
  0
SPLINE
  5
4E8
100
AcDbEntity
  8
ASSI
100
AcDbSpline
 62
7
  6
CONTINUOUS
 70
0
 71
3
 72
10
 73
6
 74
4
 42
0.0000001
 43
0.0000001
 44
0.0000000001
 12
-0.4048075174
 22
0.2019074052
 32
0.0
 13
-0.404818931
 23
-0.1937552459
 33
0.0
 40
0.0
 40
0.0
 40
0.0
 40
0.0
 40
0.203817079
 40
0.5776715976
 40
1.0
 40
1.0
 40
1.0
 40
1.0
 10
12.5195192112
 20
26.5234982033
 30
0.0
 10
12.4920169826
 20
26.5372155958
 30
0.0
 10
12.4093775277
 20
26.5668235057
 30
0.0
 10
12.2561775596
 20
26.5676978305
 30
0.0
 10
12.1416479459
 20
26.5285872191
 30
0.0
 10
12.0846591017
 20
26.5013111046
 30
0.0
 11
12.5195192112
 21
26.5234982033
 31
0.0
 11
12.4329729607
 21
26.5544855433
 31
0.0
 11
12.2652453986
 21
26.5588786507
 31
0.0
 11
12.0846591017
 21
26.5013111046
 31
0.0
  0
SPLINE
  5
4E9
100
AcDbEntity
  8
ASSI
100
AcDbSpline
 62
253
  6
CONTINUOUS
 70
0
 71
3
 72
11
 73
7
 74
5
 42
0.0000001
 43
0.0000001
 44
0.0000000001
 12
0.390739127
 22
-0.2021606036
 32
0.0
 13
-0.0063325205
 23
-0.4398930258
 33
0.0
 40
0.0
 40
0.0
 40
0.0
 40
0.0
 40
0.2280085543
 40
0.4859370875
 40
0.7515655008
 40
1.0
 40
1.0
 40
1.0
 40
1.0
 10
6.776518324
 20
17.2519414775
 30
0.0
 10
6.8062156119
 20
17.2365766952
 30
0.0
 10
6.8627420572
 20
17.1907153808
 30
0.0
 10
6.9272688795
 20
17.1001914153
 30
0.0
 10
6.9705147243
 20
16.9945385073
 30
0.0
 10
6.9817380262
 20
16.9188495503
 30
0.0
 10
6.9812136207
 20
16.8824213491
 30
0.0
 11
6.776518324
 21
17.2519414775
 31
0.0
 11
6.8560020062
 21
17.1907500302
 31
0.0
 11
6.9228163514
 21
17.0990336131
 31
0.0
 11
6.966785652
 21
16.9907607847
 31
0.0
 11
6.9812136207
 21
16.8824213491
 31
0.0
  0
SPLINE
  5
4EA
100
AcDbEntity
  8
ASSI
100
AcDbSpline
 62
253
  6
CONTINUOUS
 70
0
 71
3
 72
12
 73
8
 74
6
 42
0.0000001
 43
0.0000001
 44
0.0000000001
 12
-0.401436596
 22
-0.1921363859
 32
0.0
 13
0.0
 23
-0.4450480102
 33
0.0
 40
0.0
 40
0.0
 40
0.0
 40
0.0
 40
0.1800327554
 40
0.3815013846
 40
0.5939293415
 40
0.8042858566
 40
1.0
 40
1.0
 40
1.0
 40
1.0
 10
7.617577415
 20
17.2393599459
 30
0.0
 10
7.5934868362
 20
17.2278296649
 30
0.0
 10
7.546451288
 20
17.1948530142
 30
0.0
 10
7.4875699548
 20
17.1285462285
 30
0.0
 10
7.4405438185
 20
17.0480670749
 30
0.0
 10
7.4098500429
 20
16.9610494732
 30
0.0
 10
7.4017431662
 20
16.9007088337
 30
0.0
 10
7.4017431662
 20
16.8716747703
 30
0.0
 11
7.617577415
 21
17.2393599459
 31
0.0
 11
7.5511460503
 21
17.1945648112
 31
0.0
 11
7.490991107
 21
17.1280751542
 31
0.0
 11
7.4431314419
 21
17.0465436574
 31
0.0
 11
7.4123556967
 21
16.9581280277
 31
0.0
 11
7.4017431662
 21
16.8716747703
 31
0.0
  0
SPLINE
  5
4EB
100
AcDbEntity
  8
ASSI
100
AcDbSpline
 62
7
  6
CONTINUOUS
 70
0
 71
3
 72
9
 73
5
 74
3
 42
0.0000001
 43
0.0000001
 44
0.0000000001
 12
0.3518741908
 22
-0.1759375559
 32
0.0
 13
0.2577409018
 23
-0.2989379895
 33
0.0
 40
0.0
 40
0.0
 40
0.0
 40
0.0
 40
0.5696100071
 40
1.0
 40
1.0
 40
1.0
 40
1.0
 10
4.6476971843
 20
25.9172282368
 30
0.0
 10
4.7145075378
 20
25.8838229727
 30
0.0
 10
4.8282132213
 20
25.8168161562
 30
0.0
 10
4.9262946736
 20
25.7282267795
 30
0.0
 10
4.9632710419
 20
25.6853401397
 30
0.0
 11
4.6476971843
 21
25.9172282368
 31
0.0
 11
4.8389739595
 21
25.8004848846
 31
0.0
 11
4.9632710419
 21
25.6853401397
 31
0.0
  0
SPLINE
  5
4EC
100
AcDbEntity
  8
ASSI
100
AcDbSpline
 62
253
  6
CONTINUOUS
 70
0
 71
3
 72
12
 73
8
 74
6
 42
0.0000001
 43
0.0000001
 44
0.0000000001
 12
-0.4014365937
 22
-0.1921363885
 32
0.0
 13
-0.0000000007
 23
-0.4450480092
 33
0.0
 40
0.0
 40
0.0
 40
0.0
 40
0.0
 40
0.1800336637
 40
0.3815027887
 40
0.5939306699
 40
0.8042866232
 40
1.0
 40
1.0
 40
1.0
 40
1.0
 10
12.8575085254
 20
14.6193943907
 30
0.0
 10
12.8334178251
 20
14.6078640514
 30
0.0
 10
12.7863821242
 20
14.5748872379
 30
0.0
 10
12.727500742
 20
14.5085802311
 30
0.0
 10
12.6804747157
 20
14.4281010388
 30
0.0
 10
12.6497810962
 20
14.3410836062
 30
0.0
 10
12.6416742768
 20
14.2807431646
 30
0.0
 10
12.6416742767
 20
14.251709215
 30
0.0
 11
12.8575085254
 21
14.6193943907
 31
0.0
 11
12.791076855
 21
14.5745989867
 31
0.0
 11
12.7309218471
 21
14.5081090908
 31
0.0
 11
12.6830623029
 21
14.4265775623
 31
0.0
 11
12.6522867282
 21
14.3381621382
 31
0.0
 11
12.6416742767
 21
14.251709215
 31
0.0
  0
SPLINE
  5
4ED
100
AcDbEntity
  8
ASSI
100
AcDbSpline
 62
253
  6
CONTINUOUS
 70
0
 71
3
 72
9
 73
5
 74
3
 42
0.0000001
 43
0.0000001
 44
0.0000000001
 12
-0.1263428905
 22
0.061050927
 32
0.0
 13
-0.1278034134
 23
-0.0618089528
 33
0.0
 40
0.0
 40
0.0
 40
0.0
 40
0.0
 40
0.6075913928
 40
1.0
 40
1.0
 40
1.0
 40
1.0
 10
12.8648483369
 20
14.2077764711
 30
0.0
 10
12.8392600526
 20
14.2201411437
 30
0.0
 10
12.7923380495
 20
14.2340370266
 30
0.0
 10
12.744675438
 20
14.2228496001
 30
0.0
 10
12.7279583849
 20
14.2147648117
 30
0.0
 11
12.8648483369
 21
14.2077764711
 31
0.0
 11
12.7819678337
 21
14.2277672437
 31
0.0
 11
12.7279583849
 21
14.2147648117
 31
0.0
  0
SPLINE
  5
4EE
100
AcDbEntity
  8
ASSI
100
AcDbSpline
 62
253
  6
CONTINUOUS
 70
0
 71
3
 72
13
 73
9
 74
7
 42
0.0000001
 43
0.0000001
 44
0.0000000001
 12
0.3948390224
 22
0.1740421624
 32
0.0
 13
0.3859335267
 23
-0.1929866338
 33
0.0
 40
0.0
 40
0.0
 40
0.0
 40
0.0
 40
0.1522199467
 40
0.3212093303
 40
0.4993340554
 40
0.6777054974
 40
0.8470363317
 40
1.0
 40
1.0
 40
1.0
 40
1.0
 10
6.9812048071
 20
16.8824174586
 30
0.0
 10
7.0012389321
 20
16.8912483548
 30
0.0
 10
7.0454907458
 20
16.90546378
 30
0.0
 10
7.1165546879
 20
16.9171056923
 30
0.0
 10
7.1922864645
 20
16.9197599659
 30
0.0
 10
7.2678326991
 20
16.9132353962
 30
0.0
 10
7.3383998417
 20
16.8979646936
 30
0.0
 10
7.3820385219
 20
16.8815282513
 30
0.0
 10
7.4017164579
 20
16.8716882701
 30
0.0
 11
6.9812048071
 21
16.8824174586
 31
0.0
 11
7.0435087874
 21
16.9032110169
 31
0.0
 11
7.1154026802
 21
16.9153901234
 31
0.0
 11
7.1922111746
 21
16.9182048299
 31
0.0
 11
7.2688822508
 21
16.9114676638
 31
0.0
 11
7.340213289
 21
16.8956419286
 31
0.0
 11
7.4017164579
 21
16.8716882701
 31
0.0
  0
SPLINE
  5
4EF
100
AcDbEntity
  8
ASSI
100
AcDbSpline
 62
253
  6
CONTINUOUS
 70
0
 71
3
 72
9
 73
5
 74
3
 42
0.0000001
 43
0.0000001
 44
0.0000000001
 12
0.0718695657
 22
-0.035930644
 32
0.0
 13
0.0526400732
 23
-0.0611714046
 33
0.0
 40
0.0
 40
0.0
 40
0.0
 40
0.0
 40
0.6995447438
 40
1.0
 40
1.0
 40
1.0
 40
1.0
 10
12.6417041847
 20
14.2516944238
 30
0.0
 10
12.6584628437
 20
14.2433160594
 30
0.0
 10
12.681485445
 20
14.2291607716
 30
0.0
 10
12.7010270876
 20
14.2104337733
 30
0.0
 10
12.7062990831
 20
14.2043073499
 30
0.0
 11
12.6417041847
 21
14.2516944238
 31
0.0
 11
12.6889700713
 21
14.2212743198
 31
0.0
 11
12.7062990831
 21
14.2043073499
 31
0.0
  0
SPLINE
  5
4F0
100
AcDbEntity
  8
ASSI
100
AcDbSpline
 62
7
  6
CONTINUOUS
 70
0
 71
3
 72
9
 73
5
 74
3
 42
0.0000001
 43
0.0000001
 44
0.0000000001
 12
0.2956386339
 22
-0.1478197038
 32
0.0
 13
0.2374347812
 23
-0.2310798472
 33
0.0
 40
0.0
 40
0.0
 40
0.0
 40
0.0
 40
0.677959635
 40
1.0
 40
1.0
 40
1.0
 40
1.0
 10
0.4050564972
 20
23.7959078932
 30
0.0
 10
0.4718668507
 20
23.7625026291
 30
0.0
 10
0.5674004073
 20
23.7062046561
 30
0.0
 10
0.6519047083
 20
23.6346714008
 30
0.0
 10
0.6773925695
 20
23.6098657213
 30
0.0
 11
0.4050564972
 21
23.7959078932
 31
0.0
 11
0.5963332724
 21
23.679164541
 31
0.0
 11
0.6773925695
 21
23.6098657213
 31
0.0
  0
SPLINE
  5
4F1
100
AcDbEntity
  8
ASSI
100
AcDbSpline
 62
253
  6
CONTINUOUS
 70
0
 71
3
 72
10
 73
6
 74
4
 42
0.0000001
 43
0.0000001
 44
0.0000000001
 12
-0.404784497
 22
0.201804016
 32
0.0
 13
-0.404758623
 23
-0.1937263812
 33
0.0
 40
0.0
 40
0.0
 40
0.0
 40
0.0
 40
0.2038864153
 40
0.577870313
 40
1.0
 40
1.0
 40
1.0
 40
1.0
 10
0.6293134917
 20
32.4686009896
 30
0.0
 10
0.6018034717
 20
32.4823160221
 30
0.0
 10
0.5191413689
 20
32.5119130299
 30
0.0
 10
0.3659637039
 20
32.5127511271
 30
0.0
 10
0.2514674879
 20
32.4736429022
 30
0.0
 10
0.1945139443
 20
32.4463836833
 30
0.0
 11
0.6293134917
 21
32.4686009896
 31
0.0
 11
0.5427443297
 21
32.4995769973
 31
0.0
 11
0.3749827354
 21
32.5039332772
 31
0.0
 11
0.1945139443
 21
32.4463836833
 31
0.0
  0
SPLINE
  5
4F2
100
AcDbEntity
  8
ASSI
100
AcDbSpline
 62
253
  6
CONTINUOUS
 70
0
 71
3
 72
10
 73
6
 74
4
 42
0.0000001
 43
0.0000001
 44
0.0000000001
 12
-0.0829631482
 22
0.0420455526
 32
0.0
 13
-0.0825509033
 23
-0.0412756274
 33
0.0
 40
0.0
 40
0.0
 40
0.0
 40
0.0
 40
0.0744017811
 40
0.5048254358
 40
1.0
 40
1.0
 40
1.0
 40
1.0
 10
3.53504477
 20
15.1248563959
 30
0.0
 10
3.5329872347
 20
15.1258991505
 30
0.0
 10
3.5187153624
 20
15.1323182542
 30
0.0
 10
3.4868424005
 20
15.135442182
 30
0.0
 10
3.4592413588
 20
15.1260154395
 30
0.0
 10
3.4456156563
 20
15.1192025592
 30
0.0
 11
3.53504477
 21
15.1248563959
 31
0.0
 11
3.5287409252
 21
15.1276860854
 31
0.0
 11
3.4893171818
 21
15.1325761389
 31
0.0
 11
3.4456156563
 21
15.1192025592
 31
0.0
  0
SPLINE
  5
4F3
100
AcDbEntity
  8
ASSI
100
AcDbSpline
 62
7
  6
CONTINUOUS
 70
0
 71
3
 72
9
 73
5
 74
3
 42
0.0000001
 43
0.0000001
 44
0.0000000001
 12
0.0298596612
 22
0.0147174143
 32
0.0
 13
0.0332723555
 23
-0.0010069455
 33
0.0
 40
0.0
 40
0.0
 40
0.0
 40
0.0
 40
0.4165599351
 40
1.0
 40
1.0
 40
1.0
 40
1.0
 10
2.2298375107
 20
15.1273821431
 30
0.0
 10
2.2339836236
 20
15.1294257048
 30
0.0
 10
2.2445392937
 20
15.13311793
 30
0.0
 10
2.255699346
 20
15.1340114103
 30
0.0
 10
2.2621701544
 20
15.1338155795
 30
0.0
 11
2.2298375107
 21
15.1273821431
 31
0.0
 11
2.2428826358
 21
15.1320161266
 31
0.0
 11
2.2621701544
 21
15.1338155795
 31
0.0
  0
SPLINE
  5
4F4
100
AcDbEntity
  8
ASSI
100
AcDbSpline
 62
7
  6
CONTINUOUS
 70
0
 71
3
 72
9
 73
5
 74
3
 42
0.0000001
 43
0.0000001
 44
0.0000000001
 12
0.0545130051
 22
-0.0016497667
 32
0.0
 13
0.0486545646
 23
-0.0243272823
 33
0.0
 40
0.0
 40
0.0
 40
0.0
 40
0.0
 40
0.4414615411
 40
1.0
 40
1.0
 40
1.0
 40
1.0
 10
2.2621701544
 20
15.1338155795
 30
0.0
 10
2.2701919528
 20
15.13357281
 30
0.0
 10
2.2882222665
 20
15.130526413
 30
0.0
 10
2.3051863246
 20
15.1237318001
 30
0.0
 10
2.3142448064
 20
15.1192025592
 30
0.0
 11
2.2621701544
 21
15.1338155795
 31
0.0
 11
2.2859035322
 21
15.1301525924
 31
0.0
 11
2.3142448064
 21
15.1192025592
 31
0.0
  0
SPLINE
  5
4F5
100
AcDbEntity
  8
ASSI
100
AcDbSpline
 62
253
  6
CONTINUOUS
 70
0
 71
3
 72
28
 73
24
 74
22
 42
0.0000001
 43
0.0000001
 44
0.0000000001
 12
-1.0420649319
 22
0.5210324659
 32
0.0
 13
-1.0420649319
 23
-0.5210324659
 33
0.0
 40
0.0
 40
0.0
 40
0.0
 40
0.0
 40
0.0414958189
 40
0.0847166354
 40
0.1295414073
 40
0.175827598
 40
0.2234145554
 40
0.2721265018
 40
0.3217752383
 40
0.3721626388
 40
0.4230829919
 40
0.4743252364
 40
0.5256751276
 40
0.576917364
 40
0.6278377009
 40
0.6782250778
 40
0.7278737836
 40
0.776585693
 40
0.8241726078
 40
0.8704587513
 40
0.9152834725
 40
0.9585042372
 40
1.0
 40
1.0
 40
1.0
 40
1.0
 10
-12.4642869204
 20
23.0741538476
 30
0.0
 10
-12.4787006996
 20
23.0813607372
 30
0.0
 10
-12.5085818015
 20
23.095179209
 30
0.0
 10
-12.5553510538
 20
23.1137726329
 30
0.0
 10
-12.6047633716
 20
23.1305708092
 30
0.0
 10
-12.6565425264
 20
23.145479642
 30
0.0
 10
-12.7104016153
 20
23.1584166268
 30
0.0
 10
-12.7660410142
 20
23.169309651
 30
0.0
 10
-12.8231511432
 20
23.1780979935
 30
0.0
 10
-12.8814139553
 20
23.1847325835
 30
0.0
 10
-12.9405048413
 20
23.1891763541
 30
0.0
 10
-13.0000944647
 20
23.1914044645
 30
0.0
 10
-13.0598506469
 20
23.1914044566
 30
0.0
 10
-13.1194402603
 20
23.1891763308
 30
0.0
 10
-13.1785311267
 20
23.1847325463
 30
0.0
 10
-13.23679391
 20
23.1780979447
 30
0.0
 10
-13.2939040017
 20
23.1693095938
 30
0.0
 10
-13.3495433561
 20
23.1584165651
 30
0.0
 10
-13.4034023944
 20
23.1454795806
 30
0.0
 10
-13.455181494
 20
23.1305707536
 30
0.0
 10
-13.5045937542
 20
23.1137725887
 30
0.0
 10
-13.5513629473
 20
23.0951791829
 30
0.0
 10
-13.5812440105
 20
23.0813607274
 30
0.0
 10
-13.5956577703
 20
23.0741538476
 30
0.0
 11
-12.4642869204
 21
23.0741538476
 31
0.0
 11
-12.5081424478
 21
23.0944998379
 31
0.0
 11
-12.5549162571
 21
23.1131502692
 31
0.0
 11
-12.604346774
 21
23.130000843
 31
0.0
 11
-12.6561575606
 21
23.1449573236
 31
0.0
 11
-12.7100588692
 21
23.1579360687
 31
0.0
 11
-12.7657492615
 21
23.1688644962
 31
0.0
 11
-12.8229172934
 21
23.1776814903
 31
0.0
 11
-12.8812432579
 21
23.1843377431
 31
0.0
 11
-12.9404009722
 21
23.1887960308
 31
0.0
 11
-13.0000596022
 21
23.191031421
 31
0.0
 11
-13.0598855125
 21
23.191031413
 31
0.0
 11
-13.1195441324
 21
23.1887960074
 31
0.0
 11
-13.1787018269
 21
23.1843377059
 31
0.0
 11
-13.2370277624
 21
23.1776814414
 31
0.0
 11
-13.2941957569
 21
23.1688644389
 31
0.0
 11
-13.3498861042
 21
23.157936007
 31
0.0
 11
-13.403787362
 21
23.1449572624
 31
0.0
 11
-13.4555980931
 21
23.1300007876
 31
0.0
 11
-13.5050285515
 21
23.1131502257
 31
0.0
 11
-13.5518023029
 21
23.0944998121
 31
0.0
 11
-13.5956577703
 21
23.0741538476
 31
0.0
  0
SPLINE
  5
4F6
100
AcDbEntity
  8
ASSI
100
AcDbSpline
 62
253
  6
CONTINUOUS
 70
0
 71
3
 72
28
 73
24
 74
22
 42
0.0000001
 43
0.0000001
 44
0.0000000001
 12
-1.0420649319
 22
0.5210324659
 32
0.0
 13
-1.0420649319
 23
-0.5210324659
 33
0.0
 40
0.0
 40
0.0
 40
0.0
 40
0.0
 40
0.0414958189
 40
0.0847166354
 40
0.1295414073
 40
0.175827598
 40
0.2234145554
 40
0.2721265018
 40
0.3217752383
 40
0.3721626388
 40
0.4230829919
 40
0.4743252364
 40
0.5256751276
 40
0.576917364
 40
0.6278377009
 40
0.6782250778
 40
0.7278737836
 40
0.776585693
 40
0.8241726078
 40
0.8704587513
 40
0.9152834725
 40
0.9585042372
 40
1.0
 40
1.0
 40
1.0
 40
1.0
 10
3.4456156563
 20
15.1192025592
 30
0.0
 10
3.4312018771
 20
15.1264094488
 30
0.0
 10
3.4013207752
 20
15.1402279207
 30
0.0
 10
3.3545515229
 20
15.1588213446
 30
0.0
 10
3.3051392051
 20
15.1756195209
 30
0.0
 10
3.2533600503
 20
15.1905283536
 30
0.0
 10
3.1995009614
 20
15.2034653384
 30
0.0
 10
3.1438615625
 20
15.2143583627
 30
0.0
 10
3.0867514335
 20
15.2231467052
 30
0.0
 10
3.0284886214
 20
15.2297812951
 30
0.0
 10
2.9693977354
 20
15.2342250657
 30
0.0
 10
2.909808112
 20
15.2364531762
 30
0.0
 10
2.8500519298
 20
15.2364531683
 30
0.0
 10
2.7904623164
 20
15.2342250425
 30
0.0
 10
2.73137145
 20
15.2297812579
 30
0.0
 10
2.6731086667
 20
15.2231466564
 30
0.0
 10
2.615998575
 20
15.2143583054
 30
0.0
 10
2.5603592206
 20
15.2034652767
 30
0.0
 10
2.5065001823
 20
15.1905282923
 30
0.0
 10
2.4547210827
 20
15.1756194652
 30
0.0
 10
2.4053088225
 20
15.1588213004
 30
0.0
 10
2.3585396294
 20
15.1402278945
 30
0.0
 10
2.3286585662
 20
15.1264094391
 30
0.0
 10
2.3142448064
 20
15.1192025592
 30
0.0
 11
3.4456156563
 21
15.1192025592
 31
0.0
 11
3.4017601289
 21
15.1395485496
 31
0.0
 11
3.3549863196
 21
15.1581989809
 31
0.0
 11
3.3055558027
 21
15.1750495547
 31
0.0
 11
3.2537450161
 21
15.1900060353
 31
0.0
 11
3.1998437075
 21
15.2029847804
 31
0.0
 11
3.1441533152
 21
15.2139132079
 31
0.0
 11
3.0869852833
 21
15.2227302019
 31
0.0
 11
3.0286593188
 21
15.2293864548
 31
0.0
 11
2.9695016045
 21
15.2338447424
 31
0.0
 11
2.9098429745
 21
15.2360801326
 31
0.0
 11
2.8500170642
 21
15.2360801247
 31
0.0
 11
2.7903584443
 21
15.2338447191
 31
0.0
 11
2.7312007498
 21
15.2293864175
 31
0.0
 11
2.6728748143
 21
15.222730153
 31
0.0
 11
2.6157068198
 21
15.2139131505
 31
0.0
 11
2.5600164725
 21
15.2029847187
 31
0.0
 11
2.5061152147
 21
15.190005974
 31
0.0
 11
2.4543044836
 21
15.1750494992
 31
0.0
 11
2.4048740252
 21
15.1581989374
 31
0.0
 11
2.3581002738
 21
15.1395485237
 31
0.0
 11
2.3142448064
 21
15.1192025592
 31
0.0
  0
SPLINE
  5
4F7
100
AcDbEntity
  8
ASSI
100
AcDbSpline
 62
7
  6
CONTINUOUS
 70
0
 71
3
 72
11
 73
7
 74
5
 42
0.0000001
 43
0.0000001
 44
0.0000000001
 12
0.0044615732
 22
-0.0006948853
 32
0.0
 13
0.0000110157
 23
-0.070775024
 33
0.0
 40
0.0
 40
0.0
 40
0.0
 40
0.0
 40
0.01386546
 40
0.1762166792
 40
0.5217765469
 40
1.0
 40
1.0
 40
1.0
 40
1.0
 10
7.0543646906
 20
16.3446576294
 30
0.0
 10
7.0543853112
 20
16.3446544177
 30
0.0
 10
7.0546573132
 20
16.3441897048
 30
0.0
 10
7.0558584091
 20
16.3257753919
 30
0.0
 10
7.0552809783
 20
16.3070532798
 30
0.0
 10
7.0555606989
 20
16.2860670653
 30
0.0
 10
7.0555624549
 20
16.2747849732
 30
0.0
 11
7.0543646906
 21
16.3446576294
 31
0.0
 11
7.0544289431
 21
16.344545661
 31
0.0
 11
7.0552868293
 21
16.3330873195
 31
0.0
 11
7.0554927582
 21
16.3086311782
 31
0.0
 11
7.0555624549
 21
16.2747849732
 31
0.0
  0
SPLINE
  5
4F8
100
AcDbEntity
  8
ASSI
100
AcDbSpline
 62
253
  6
CONTINUOUS
 70
0
 71
3
 72
10
 73
6
 74
4
 42
0.0000001
 43
0.0000001
 44
0.0000000001
 12
-0.0009627138
 22
-0.4685580768
 32
0.0
 13
-0.4141451335
 23
-0.2144299037
 33
0.0
 40
0.0
 40
0.0
 40
0.0
 40
0.0
 40
0.2732995852
 40
0.6021928923
 40
1.0
 40
1.0
 40
1.0
 40
1.0
 10
30.4794918604
 20
-13.9209483572
 30
0.0
 10
30.4794041573
 20
-13.9636339332
 30
0.0
 10
30.4535110961
 20
-14.0578565088
 30
0.0
 10
30.3497859834
 20
-14.1781227201
 30
0.0
 10
30.253753507
 20
-14.2397824945
 30
0.0
 10
30.1988368811
 20
-14.2682164078
 30
0.0
 11
30.4794918604
 21
-13.9209483572
 31
0.0
 11
30.4483692525
 21
-14.0446680017
 31
0.0
 11
30.3527031754
 21
-14.1645627898
 31
0.0
 11
30.1988368811
 21
-14.2682164078
 31
0.0
  0
SPLINE
  5
4F9
100
AcDbEntity
  8
ASSI
100
AcDbSpline
 62
253
  6
CONTINUOUS
 70
0
 71
3
 72
11
 73
7
 74
5
 42
0.0000001
 43
0.0000001
 44
0.0000000001
 12
0.0026992355
 22
-0.9404761207
 32
0.0
 13
-0.6090644892
 23
-0.7201118027
 33
0.0
 40
0.0
 40
0.0
 40
0.0
 40
0.0
 40
0.2790400935
 40
0.5381052248
 40
0.7775965177
 40
1.0
 40
1.0
 40
1.0
 40
1.0
 10
30.1988368811
 20
-14.2682164081
 30
0.0
 10
30.1990879461
 20
-14.3556932564
 30
0.0
 10
30.1890873411
 20
-14.5247094552
 30
0.0
 10
30.1388765999
 20
-14.7642618535
 30
0.0
 10
30.0547197448
 20
-14.9754748957
 30
0.0
 10
29.9745854808
 20
-15.0973803852
 30
0.0
 10
29.929432793
 20
-15.1507655094
 30
0.0
 11
30.1988368811
 21
-14.2682164081
 31
0.0
 11
30.1820618487
 21
-14.5301113419
 31
0.0
 11
30.1305913804
 21
-14.7682582635
 31
0.0
 11
30.0456767198
 21
-14.9768753837
 31
0.0
 11
29.929432793
 21
-15.1507655094
 31
0.0
  0
SPLINE
  5
4FA
100
AcDbEntity
  8
ASSI
100
AcDbSpline
 62
7
  6
CONTINUOUS
 70
0
 71
3
 72
13
 73
9
 74
7
 42
0.0000001
 43
0.0000001
 44
0.0000000001
 12
0.3419835893
 22
0.6973157254
 32
0.0
 13
0.6988440198
 23
-0.3474758251
 33
0.0
 40
0.0
 40
0.0
 40
0.0
 40
0.0
 40
0.1420307208
 40
0.355507484
 40
0.5525043869
 40
0.7265768538
 40
0.8774259788
 40
1.0
 40
1.0
 40
1.0
 40
1.0
 10
5.9421078809
 20
21.6026206065
 30
0.0
 10
5.9582986061
 20
21.6356340249
 30
0.0
 10
6.0034918772
 20
21.7159831383
 30
0.0
 10
6.091037813
 20
21.8298625158
 30
0.0
 10
6.2054039517
 20
21.930420029
 30
0.0
 10
6.3263184117
 20
21.9938871312
 30
0.0
 10
6.4430926962
 20
22.0135879774
 30
0.0
 10
6.5139027452
 20
21.9957476907
 30
0.0
 10
6.5424561191
 20
21.981550521
 30
0.0
 11
5.9421078809
 21
21.6026206065
 31
0.0
 11
5.9961871767
 21
21.6987063879
 31
0.0
 11
6.0977787948
 21
21.8294746566
 31
0.0
 11
6.2136565844
 21
21.9290902044
 31
0.0
 11
6.3344289777
 21
21.989476401
 31
0.0
 11
6.4503067673
 21
22.0057386428
 31
0.0
 11
6.5424561191
 21
21.981550521
 31
0.0
  0
SPLINE
  5
4FB
100
AcDbEntity
  8
ASSI
100
AcDbSpline
 62
7
  6
CONTINUOUS
 70
0
 71
3
 72
13
 73
9
 74
7
 42
0.0000001
 43
0.0000001
 44
0.0000000001
 12
-0.6988440198
 22
0.3474758251
 32
0.0
 13
-0.3419835893
 23
-0.6973157254
 33
0.0
 40
0.0
 40
0.0
 40
0.0
 40
0.0
 40
0.1225740212
 40
0.2734231462
 40
0.4474956131
 40
0.644492516
 40
0.8579692792
 40
1.0
 40
1.0
 40
1.0
 40
1.0
 10
5.8353493379
 20
22.3351039116
 30
0.0
 10
5.806795964
 20
22.3493010813
 30
0.0
 10
5.7359859151
 20
22.367141368
 30
0.0
 10
5.6192116306
 20
22.3474405218
 30
0.0
 10
5.4982971705
 20
22.2839734196
 30
0.0
 10
5.3839310318
 20
22.1834159064
 30
0.0
 10
5.296385096
 20
22.0695365289
 30
0.0
 10
5.2511918249
 20
21.9891874154
 30
0.0
 10
5.2350010997
 20
21.9561739971
 30
0.0
 11
5.8353493379
 21
22.3351039116
 31
0.0
 11
5.7431999861
 21
22.3592920334
 31
0.0
 11
5.6273221965
 21
22.3430297916
 31
0.0
 11
5.5065498033
 21
22.282643595
 31
0.0
 11
5.3906720136
 21
22.1830280472
 31
0.0
 11
5.2890803955
 21
22.0522597785
 31
0.0
 11
5.2350010997
 21
21.9561739971
 31
0.0
  0
ELLIPSE
  5
4FC
100
AcDbEntity
  8
RACCORDO
100
AcDbEllipse
 62
7
  6
CONTINUOUS
 10
29.4186641591
 20
15.4300031978
 30
0.0
 11
1.0000183804
 21
0.0000253779
 31
0.0
 40
0.500000664
 41
-0.7679765927
 42
0.0033818616
  0
ELLIPSE
  5
4FD
100
AcDbEntity
  8
RACCORDO
100
AcDbEllipse
 62
7
  6
CONTINUOUS
 10
25.1430345766
 20
12.8563420413
 30
0.0
 11
0.5000091902
 21
0.0000126889
 31
0.0
 40
0.500000664
 41
-2.3562255473
 42
-0.7679765927
  0
ELLIPSE
  5
4FE
100
AcDbEntity
  8
RACCORDO
100
AcDbEllipse
 62
7
  6
CONTINUOUS
 10
5.0542297274
 20
-30.5329464247
 30
0.0
 11
-0.2234618187
 21
0.4480306886
 31
0.0
 40
0.6116748051
 41
-3.1816869266
 42
-2.2548620396
  0
ELLIPSE
  5
4FF
100
AcDbEntity
  8
RACCORDO
100
AcDbEllipse
 62
7
  6
CONTINUOUS
 10
5.0542297274
 20
7.1379701534
 30
0.0
 11
-0.2230998035
 21
0.4477110033
 31
0.0
 40
0.6127700112
 41
-2.2535417632
 42
-0.6836588249
  0
ELLIPSE
  5
500
100
AcDbEntity
  8
RACCORDO
100
AcDbEllipse
 62
7
  6
CONTINUOUS
 10
-25.8108735592
 20
22.5705217967
 30
0.0
 11
-0.2234618187
 21
0.4480306886
 31
0.0
 40
0.6116748051
 41
-0.6831523243
 42
0.0396333849
  0
ELLIPSE
  5
501
100
AcDbEntity
  8
PORTATASTO
100
AcDbEllipse
 62
7
  6
CONTINUOUS
 10
7.8942040877
 20
-29.2066575472
 30
0.0
 11
-0.2236315662
 21
0.4472293059
 31
0.0
 40
0.6123445654
 41
-3.1338003475
 42
-2.2555748796
  0
ELLIPSE
  5
502
100
AcDbEntity
  8
PORTATASTO
100
AcDbEllipse
 62
7
  6
CONTINUOUS
 10
7.8942040877
 20
8.6285611652
 30
0.0
 11
-0.223611546
 21
0.4472115081
 31
0.0
 40
0.6124054886
 41
-2.2555017776
 42
-0.6847562194
  0
ELLIPSE
  5
503
100
AcDbEntity
  8
PORTATASTO
100
AcDbEllipse
 62
7
  6
CONTINUOUS
 10
-21.5506114819
 20
25.4344726677
 30
0.0
 11
-0.1118022285
 21
0.2236074604
 31
0.0
 40
0.6123888851
 41
-2.2554957904
 42
-0.684726879
  0
ELLIPSE
  5
504
100
AcDbEntity
  8
PORTATASTO
100
AcDbEllipse
 62
7
  6
CONTINUOUS
 10
-8.203970987
 20
18.7611524202
 30
0.0
 11
-0.1118022285
 21
0.2236074604
 31
0.0
 40
0.6123888851
 41
-2.2554957904
 42
-0.684726879
  0
ELLIPSE
  5
505
100
AcDbEntity
  8
PORTATASTO
100
AcDbEllipse
 62
7
  6
CONTINUOUS
 10
-6.3150127271
 20
22.3208334704
 30
0.0
 11
0.4547905863
 21
0.8906238433
 31
0.0
 40
0.6079814556
 41
0.0051486949
 42
0.6840559135
  0
ELLIPSE
  5
506
100
AcDbEntity
  8
PORTATASTO
100
AcDbEllipse
 62
7
  6
CONTINUOUS
 10
-14.2607599362
 20
26.293707075
 30
0.0
 11
1.004787277
 21
0.6140102217
 31
0.0
 40
0.0864918533
 41
0.0543764479
 42
0.7329085821
  0
ELLIPSE
  5
507
100
AcDbEntity
  8
PORTATASTO
100
AcDbEllipse
 62
7
  6
CONTINUOUS
 10
7.7059315897
 20
-31.196025016
 30
0.0
 11
-0.1118076343
 21
0.2236122655
 31
0.0
 40
0.6123559867
 41
-3.1472533326
 42
-2.2555352685
  0
ELLIPSE
  5
508
100
AcDbEntity
  8
PORTATASTO
100
AcDbEllipse
 62
7
  6
CONTINUOUS
 10
7.7059315897
 20
10.8062011319
 30
0.0
 11
-0.1118022285
 21
0.2236074604
 31
0.0
 40
0.6123888851
 41
-2.2554957904
 42
-0.684726879
  0
ELLIPSE
  5
509
100
AcDbEntity
  8
PORTATASTO
100
AcDbEllipse
 62
7
  6
CONTINUOUS
 10
-5.6407089052
 20
17.4795213793
 30
0.0
 11
-0.1118022285
 21
0.2236074604
 31
0.0
 40
0.6123888851
 41
-2.2554957904
 42
-0.684726879
  0
ELLIPSE
  5
50A
100
AcDbEntity
  8
PORTATASTO
100
AcDbEllipse
 62
7
  6
CONTINUOUS
 10
6.4508218996
 20
11.4337559769
 30
0.0
 11
-0.1118076343
 21
0.2236122655
 31
0.0
 40
0.6123559867
 41
-0.6847115264
 42
0.0057513703
  0
ELLIPSE
  5
50B
100
AcDbEntity
  8
PORTATASTO
100
AcDbEllipse
 62
7
  6
CONTINUOUS
 10
13.1801041526
 20
12.6719096547
 30
0.0
 11
0.499996712
 21
0.0035883639
 31
0.0
 40
0.5053247124
 41
-0.7715714568
 42
-0.0036366941
  0
ELLIPSE
  5
50C
100
AcDbEntity
  8
PORTATASTO
100
AcDbEllipse
 62
7
  6
CONTINUOUS
 10
-8.4136245566
 20
22.609977608
 30
0.0
 11
0.2273952932
 21
0.4453119217
 31
0.0
 40
0.6079814556
 41
0.5218181359
 42
0.6794017021
  0
ELLIPSE
  5
50D
100
AcDbEntity
  8
PORTATASTO
100
AcDbEllipse
 62
7
  6
CONTINUOUS
 10
-6.8958185953
 20
18.1070762244
 30
0.0
 11
-0.1118076343
 21
0.2236122655
 31
0.0
 40
0.6123559867
 41
-0.6847115264
 42
0.0057513703
  0
ELLIPSE
  5
50E
100
AcDbEntity
  8
PORTATASTO
100
AcDbEllipse
 62
7
  6
CONTINUOUS
 10
7.4962780201
 20
14.6550263196
 30
0.0
 11
0.2273952932
 21
0.4453119217
 31
0.0
 40
0.6079814556
 41
0.5218181359
 42
0.6794017021
  0
ELLIPSE
  5
50F
100
AcDbEntity
  8
PORTATASTO
100
AcDbEllipse
 62
7
  6
CONTINUOUS
 10
-19.317664197
 20
22.8608285798
 30
0.0
 11
0.499998833
 21
0.002146795
 31
0.0
 40
0.5031994763
 41
2.359269944
 42
3.0001556252
  0
ELLIPSE
  5
510
100
AcDbEntity
  8
PORTATASTO
100
AcDbEllipse
 62
7
  6
CONTINUOUS
 10
-9.4590806771
 20
19.3887072653
 30
0.0
 11
-0.1118076343
 21
0.2236122655
 31
0.0
 40
0.6123559867
 41
-0.6847115264
 42
0.0057513703
  0
ELLIPSE
  5
511
100
AcDbEntity
  8
PORTATASTO
100
AcDbEllipse
 62
7
  6
CONTINUOUS
 10
-3.4077616203
 20
14.9058772915
 30
0.0
 11
0.499998833
 21
0.002146795
 31
0.0
 40
0.5031994763
 41
2.359269944
 42
3.0001556252
  0
ELLIPSE
  5
512
100
AcDbEntity
  8
PORTATASTO
100
AcDbEllipse
 62
7
  6
CONTINUOUS
 10
-22.805721172
 20
26.0620275127
 30
0.0
 11
-0.1118076343
 21
0.2236122655
 31
0.0
 40
0.6123559867
 41
-0.6847115264
 42
0.0057513703
  0
ELLIPSE
  5
513
100
AcDbEntity
  8
PORTATASTO
100
AcDbEllipse
 62
7
  6
CONTINUOUS
 10
-13.9958560031
 20
25.4010933313
 30
0.0
 11
0.225491203
 21
0.4462695109
 31
0.0
 40
0.6155720462
 41
0.5148055967
 42
0.6768420768
  0
ELLIPSE
  5
514
100
AcDbEntity
  8
PORTATASTO
100
AcDbEllipse
 62
7
  6
CONTINUOUS
 10
1.9140465736
 20
17.4461420429
 30
0.0
 11
0.225491203
 21
0.4462695109
 31
0.0
 40
0.6155720462
 41
0.5148055967
 42
0.6768420768
  0
ELLIPSE
  5
515
100
AcDbEntity
  8
PORTATASTO
100
AcDbEllipse
 62
7
  6
CONTINUOUS
 10
-2.7297984241
 20
20.626860943
 30
0.0
 11
0.499996712
 21
0.0035883639
 31
0.0
 40
0.5053247124
 41
-0.7715714568
 42
-0.0036366941
  0
ELLIPSE
  5
516
100
AcDbEntity
  8
PORTATASTO
100
AcDbEllipse
 62
7
  6
CONTINUOUS
 10
1.6491426405
 20
18.3387557866
 30
0.0
 11
1.004787277
 21
0.6140102217
 31
0.0
 40
0.0864918533
 41
0.0543764479
 42
0.7329085821
  0
ELLIPSE
  5
517
100
AcDbEntity
  8
PORTATASTO
100
AcDbEllipse
 62
7
  6
CONTINUOUS
 10
9.5948898496
 20
14.3658821821
 30
0.0
 11
0.4547905863
 21
0.8906238433
 31
0.0
 40
0.6079814556
 41
0.0051486949
 42
0.6840559135
  0
ELLIPSE
  5
518
100
AcDbEntity
  8
PORTATASTO
100
AcDbEllipse
 62
7
  6
CONTINUOUS
 10
13.3031059777
 20
-24.3566367663
 30
0.0
 11
0.9927147821
 21
0.620457446
 31
0.0
 40
0.0764819879
 41
-2.4043514965
 42
-1.2416847052
  0
ELLIPSE
  5
519
100
AcDbEntity
  8
PORTATASTO
100
AcDbEllipse
 62
7
  6
CONTINUOUS
 10
-13.4036794469
 20
25.1050050532
 30
0.0
 11
0.2197467797
 21
0.4491356978
 31
0.0
 40
0.6167074461
 41
0.5113450335
 42
0.6689285998
  0
ELLIPSE
  5
51A
100
AcDbEntity
  8
PORTATASTO
100
AcDbEllipse
 62
7
  6
CONTINUOUS
 10
-12.9592982913
 20
23.7709132174
 30
0.0
 11
1.0201448544
 21
-0.0048230743
 31
0.0
 40
0.4964289597
 41
1.3059116217
 42
2.3584907469
  0
ELLIPSE
  5
51B
100
AcDbEntity
  8
PORTATASTO
100
AcDbEllipse
 62
7
  6
CONTINUOUS
 10
2.9506042854
 20
15.8159619291
 30
0.0
 11
1.0201448544
 21
-0.0048230743
 31
0.0
 40
0.4964289597
 41
1.3059116217
 42
2.3584907469
  0
ELLIPSE
  5
51C
100
AcDbEntity
  8
PORTATASTO
100
AcDbEllipse
 62
7
  6
CONTINUOUS
 10
2.5062231298
 20
17.1500537648
 30
0.0
 11
0.2197467797
 21
0.4491356978
 31
0.0
 40
0.6167074461
 41
0.5113450335
 42
0.6689285998
  0
ELLIPSE
  5
51D
100
AcDbEntity
  8
PORTATASTO
100
AcDbEllipse
 62
7
  6
CONTINUOUS
 10
-13.8133483055
 20
20.1086706341
 30
0.0
 11
0.499998833
 21
0.002146795
 31
0.0
 40
0.5031994763
 41
-1.4336803663
 42
-0.7927946851
  0
ELLIPSE
  5
51E
100
AcDbEntity
  8
PORTATASTO
100
AcDbEllipse
 62
7
  6
CONTINUOUS
 10
2.0965542712
 20
12.1537193458
 30
0.0
 11
0.499998833
 21
0.002146795
 31
0.0
 40
0.5031994763
 41
-1.4336803663
 42
-0.7927946851
  0
ELLIPSE
  5
51F
100
AcDbEntity
  8
PORTATASTO
100
AcDbEllipse
 62
7
  6
CONTINUOUS
 10
13.3031059777
 20
12.511774118
 30
0.0
 11
-0.7356038977
 21
1.2035991204
 31
0.0
 40
0.5552491559
 41
5.0730040213
 42
6.2356708126
  0
ELLIPSE
  5
520
100
AcDbEntity
  8
PORTATASTO
100
AcDbEllipse
 62
7
  6
CONTINUOUS
 10
5.3573587686
 20
16.4846477225
 30
0.0
 11
0.4394935595
 21
0.8982713957
 31
0.0
 40
0.6167074461
 41
5.3917895557
 42
6.9567681183
  0
ELLIPSE
  5
521
100
AcDbEntity
  8
PORTATASTO
100
AcDbEllipse
 62
7
  6
CONTINUOUS
 10
41.3420663601
 20
47.0539940852
 30
0.0
 11
67.1693271187
 21
33.9393393611
 31
0.0
 40
0.0051354763
 41
-2.5183487311
 42
-2.3945435781
  0
ELLIPSE
  5
522
100
AcDbEntity
  8
PORTATASTO
100
AcDbEllipse
 62
7
  6
CONTINUOUS
 10
-7.8214480004
 20
22.3138893299
 30
0.0
 11
0.2217444622
 21
0.448142966
 31
0.0
 40
0.6091593932
 41
0.509674996
 42
0.6717114762
  0
ELLIPSE
  5
523
100
AcDbEntity
  8
PORTATASTO
100
AcDbEllipse
 62
7
  6
CONTINUOUS
 10
-24.7493771648
 20
23.1189566094
 30
0.0
 11
-0.2234618187
 21
0.4480306886
 31
0.0
 40
0.6116748051
 41
-0.6831523243
 42
0.886730614
  0
ELLIPSE
  5
524
100
AcDbEntity
  8
PORTATASTO
100
AcDbEllipse
 62
7
  6
CONTINUOUS
 10
-10.5525438081
 20
24.4395990109
 30
0.0
 11
0.4394935595
 21
0.8982713957
 31
0.0
 40
0.6167074461
 41
5.3917895557
 42
6.9567681183
  0
ELLIPSE
  5
525
100
AcDbEntity
  8
PORTATASTO
100
AcDbEllipse
 62
7
  6
CONTINUOUS
 10
-2.606796599
 20
20.4667254063
 30
0.0
 11
-0.7356038977
 21
1.2035991204
 31
0.0
 40
0.5552491559
 41
5.0730040213
 42
6.2356708126
  0
ELLIPSE
  5
526
100
AcDbEntity
  8
PORTATASTO
100
AcDbEllipse
 62
7
  6
CONTINUOUS
 10
57.2519689368
 20
39.0990427969
 30
0.0
 11
67.1693271187
 21
33.9393393611
 31
0.0
 40
0.0051354763
 41
-2.5183487311
 42
-2.3945435781
  0
ELLIPSE
  5
527
100
AcDbEntity
  8
PORTATASTO
100
AcDbEllipse
 62
7
  6
CONTINUOUS
 10
8.0884545763
 20
14.3589380415
 30
0.0
 11
0.2217444622
 21
0.448142966
 31
0.0
 40
0.6091593932
 41
0.509674996
 42
0.6717114762
  0
ELLIPSE
  5
528
100
AcDbEntity
  8
PORTATASTO
100
AcDbEllipse
 62
7
  6
CONTINUOUS
 10
-2.7297984241
 20
21.4600941725
 30
0.0
 11
-0.3739417019
 21
0.598522373
 31
0.0
 40
0.554557473
 41
-3.1836090632
 42
-2.2031954143
  0
ELLIPSE
  5
529
100
AcDbEntity
  8
PORTATASTO
100
AcDbEllipse
 62
7
  6
CONTINUOUS
 10
6.1140536766
 20
7.6872411887
 30
0.0
 11
-0.2230998035
 21
0.4477110033
 31
0.0
 40
0.6127700112
 41
-2.2535417632
 42
-0.6836588249
  0
ELLIPSE
  5
52A
100
AcDbEntity
  8
PORTATASTO
100
AcDbEllipse
 62
7
  6
CONTINUOUS
 10
6.1140536766
 20
-30.0207210656
 30
0.0
 11
-0.2234618187
 21
0.4480306886
 31
0.0
 40
0.6116748051
 41
2.4584403293
 42
4.0283232676
  0
ELLIPSE
  5
52B
100
AcDbEntity
  8
PORTATASTO
100
AcDbEllipse
 62
7
  6
CONTINUOUS
 10
-23.1499322212
 20
22.940964395
 30
0.0
 11
0.249929385
 21
0.0111824824
 31
0.0
 40
0.5313301283
 41
-2.3799630874
 42
-0.8144027484
  0
ELLIPSE
  5
52C
100
AcDbEntity
  8
PORTATASTO
100
AcDbEllipse
 62
7
  6
CONTINUOUS
 10
-24.388380948
 20
23.5601887585
 30
0.0
 11
0.249929385
 21
0.0111824824
 31
0.0
 40
0.5313301283
 41
3.1178230293
 42
3.9032222197
  0
ELLIPSE
  5
52D
100
AcDbEntity
  8
PORTATASTO
100
AcDbEllipse
 62
7
  6
CONTINUOUS
 10
-11.0417404531
 20
16.886868511
 30
0.0
 11
0.249929385
 21
0.0111824824
 31
0.0
 40
0.5313301283
 41
3.1178230293
 42
3.9032222197
  0
ELLIPSE
  5
52E
100
AcDbEntity
  8
PORTATASTO
100
AcDbEllipse
 62
7
  6
CONTINUOUS
 10
-9.8032917263
 20
16.2676441476
 30
0.0
 11
0.249929385
 21
0.0111824824
 31
0.0
 40
0.5313301283
 41
-2.3799630874
 42
-0.8144027484
  0
ELLIPSE
  5
52F
100
AcDbEntity
  8
PORTATASTO
100
AcDbEllipse
 62
7
  6
CONTINUOUS
 10
-8.4784783713
 20
15.6052374701
 30
0.0
 11
0.249929385
 21
0.0111824824
 31
0.0
 40
0.5313301283
 41
3.1178230293
 42
3.9032222197
  0
ELLIPSE
  5
530
100
AcDbEntity
  8
PORTATASTO
100
AcDbEllipse
 62
7
  6
CONTINUOUS
 10
-7.2400296445
 20
14.9860131067
 30
0.0
 11
0.249929385
 21
0.0111824824
 31
0.0
 40
0.5313301283
 41
-2.3799630874
 42
-0.8144027484
  0
ELLIPSE
  5
531
100
AcDbEntity
  8
PORTATASTO
100
AcDbEllipse
 62
7
  6
CONTINUOUS
 10
6.1066108504
 20
8.3126928593
 30
0.0
 11
0.249929385
 21
0.0111824824
 31
0.0
 40
0.5313301283
 41
-2.3799630874
 42
-0.8144027484
  0
ELLIPSE
  5
532
100
AcDbEntity
  8
PORTATASTO
100
AcDbEllipse
 62
7
  6
CONTINUOUS
 10
4.8681621236
 20
8.9319172227
 30
0.0
 11
0.249929385
 21
0.0111824824
 31
0.0
 40
0.5313301283
 41
3.1178230293
 42
3.9032222197
  0
ELLIPSE
  5
533
100
AcDbEntity
  8
PORTATASTO
100
AcDbEllipse
 62
7
  6
CONTINUOUS
 10
-13.8133483055
 20
18.8370423743
 30
0.0
 11
0.4998587701
 21
0.0223649649
 31
0.0
 40
0.5313301283
 41
-2.3799630874
 42
-0.8144027484
  0
ELLIPSE
  5
534
100
AcDbEntity
  8
PORTATASTO
100
AcDbEllipse
 62
7
  6
CONTINUOUS
 10
-19.317664197
 20
21.58920032
 30
0.0
 11
0.4998587701
 21
0.0223649649
 31
0.0
 40
0.5313301283
 41
3.1178301629
 42
3.9032222197
  0
ELLIPSE
  5
535
100
AcDbEntity
  8
PORTATASTO
100
AcDbEllipse
 62
7
  6
CONTINUOUS
 10
-3.4077616203
 20
13.6342490317
 30
0.0
 11
0.4998587701
 21
0.0223649649
 31
0.0
 40
0.5313301283
 41
3.1178301629
 42
3.9032222197
  0
ELLIPSE
  5
536
100
AcDbEntity
  8
PORTATASTO
100
AcDbEllipse
 62
7
  6
CONTINUOUS
 10
2.0965542712
 20
10.8820910859
 30
0.0
 11
0.4998587701
 21
0.0223649649
 31
0.0
 40
0.5313301283
 41
-2.3799630874
 42
-0.8144027484
  0
ELLIPSE
  5
537
100
AcDbEntity
  8
PORTATASTO
100
AcDbEllipse
 62
7
  6
CONTINUOUS
 10
13.1801041526
 20
-24.5198969263
 30
0.0
 11
0.499443764
 21
0.3120915671
 31
0.0
 40
0.0755486457
 41
6.0235428442
 42
7.0039564932
  0
ELLIPSE
  5
538
100
AcDbEntity
  8
PORTATASTO
100
AcDbEllipse
 62
7
  6
CONTINUOUS
 10
13.1801041526
 20
13.5051428842
 30
0.0
 11
-0.3739417019
 21
0.598522373
 31
0.0
 40
0.554557473
 41
-3.1836090632
 42
-2.2031954143
  0
ELLIPSE
  5
539
100
AcDbEntity
  8
ASSI
100
AcDbEllipse
 62
7
  6
CONTINUOUS
 10
-7.3731180958
 20
25.7766353336
 30
0.0
 11
1.4999710778
 21
-0.0189973899
 31
0.0
 40
0.4903203455
 41
0.7916080745
 42
1.8332186255
  0
ELLIPSE
  5
53A
100
AcDbEntity
  8
ASSI
100
AcDbEllipse
 62
7
  6
CONTINUOUS
 10
-3.1304774087
 20
27.816327992
 30
0.0
 11
1.4999710778
 21
-0.0189973899
 31
0.0
 40
0.4903203455
 41
0.7916080745
 42
1.8363067263
  0
ELLIPSE
  5
53B
100
AcDbEntity
  8
ASSI
100
AcDbEllipse
 62
7
  6
CONTINUOUS
 10
22.7973105843
 20
13.6189393706
 30
0.0
 11
-0.894612936
 21
1.7887945813
 31
0.0
 40
0.6124635976
 41
-2.2555607096
 42
-1.470288718
  0
ELLIPSE
  5
53C
100
AcDbEntity
  8
ASSI
100
AcDbEllipse
 62
7
  6
CONTINUOUS
 10
-0.6573075319
 20
24.0356743869
 30
0.0
 11
1.5778454825
 21
-0.0221725661
 31
0.0
 40
0.4892375167
 41
3.9338651025
 42
7.0754578494
  0
ELLIPSE
  5
53D
100
AcDbEntity
  8
ASSI
100
AcDbEllipse
 62
7
  6
CONTINUOUS
 10
-4.8999581133
 20
22.0050484857
 30
0.0
 11
1.5870080038
 21
-0.0223013218
 31
0.0
 40
0.4892375167
 41
-0.0427006016
 42
0.7922725423
  0
ELLIPSE
  5
53E
100
AcDbEntity
  8
ASSI
100
AcDbEllipse
 62
7
  6
CONTINUOUS
 10
-11.6174725346
 20
25.3638056963
 30
0.0
 11
1.5870080038
 21
-0.0223013218
 31
0.0
 40
0.4892375167
 41
0.7922724489
 42
1.6399000838
  0
ELLIPSE
  5
53F
100
AcDbEntity
  8
ASSI
100
AcDbEllipse
 62
7
  6
CONTINUOUS
 10
-7.3748219532
 20
27.3944315976
 30
0.0
 11
1.5778454825
 21
-0.0221725661
 31
0.0
 40
0.4892375167
 41
0.7922724489
 42
3.9338651961
  0
ELLIPSE
  5
540
100
AcDbEntity
  8
ASSI
100
AcDbEllipse
 62
7
  6
CONTINUOUS
 10
-3.1321713718
 20
29.4250574988
 30
0.0
 11
1.5686829612
 21
-0.0220438104
 31
0.0
 40
0.4892375167
 41
0.7922724489
 42
3.9338651961
  0
ELLIPSE
  5
541
100
AcDbEntity
  8
ASSI
100
AcDbEllipse
 62
7
  6
CONTINUOUS
 10
21.1928298262
 20
13.1111036309
 30
0.0
 11
-0.447101003
 21
0.8945282396
 31
0.0
 40
0.6124326778
 41
-1.4698904957
 42
-0.6846185041
  0
ELLIPSE
  5
542
100
AcDbEntity
  8
ASSI
100
AcDbEllipse
 62
7
  6
CONTINUOUS
 10
7.5819749019
 20
5.8780949318
 30
0.0
 11
-0.894612936
 21
1.7887945813
 31
0.0
 40
0.6124635976
 41
4.0276245976
 42
4.1912332821
  0
ELLIPSE
  5
543
100
AcDbEntity
  8
ASSI
100
AcDbEllipse
 62
7
  6
CONTINUOUS
 10
7.5819749019
 20
5.8780949318
 30
0.0
 11
-0.894612936
 21
1.7887945813
 31
0.0
 40
0.6124635976
 41
-2.015409063
 42
-1.9952166845
  0
ELLIPSE
  5
544
100
AcDbEntity
  8
ASSI
100
AcDbEllipse
 62
7
  6
CONTINUOUS
 10
7.5819749019
 20
-24.7297485657
 30
0.0
 11
-0.894811907
 21
1.788971565
 31
0.0
 40
0.6123121697
 41
-2.3777848673
 42
-2.2557423369
  0
ELLIPSE
  5
545
100
AcDbEntity
  8
ASSI
100
AcDbEllipse
 62
7
  6
CONTINUOUS
 10
29.4794970808
 20
15.3046041569
 30
0.0
 11
0.9999938762
 21
-0.0070751823
 31
0.0
 40
0.4946372042
 41
-0.7644452153
 42
0.3542851022
  0
ELLIPSE
  5
546
100
AcDbEntity
  8
ASSI
100
AcDbEllipse
 62
7
  6
CONTINUOUS
 10
3.5853430495
 20
26.0663002882
 30
0.0
 11
1.5686829612
 21
-0.0220438104
 31
0.0
 40
0.4892375167
 41
3.9338651025
 42
7.0754578494
  0
ENDSEC
  0
SECTION
  2
OBJECTS
  0
DICTIONARY
  5
C
100
AcDbDictionary
280
0
281
1
  3
ACAD_GROUP
350
D
  3
ACAD_MLINESTYLE
350
17
  3
ACAD_LAYOUT
350
1A
  3
ACAD_PLOTSETTINGS
350
19
  3
ACAD_PLOTSTYLENAME
350
E
  0
DICTIONARY
  5
D
102
{ACAD_REACTORS
330
C
102
}
100
AcDbDictionary
280
0
281
1
  0
ACDBDICTIONARYWDFLT
  5
E
102
{ACAD_REACTORS
330
C
102
}
100
AcDbDictionary
281
1
  3
Normal
350
F
100
AcDbDictionaryWithDefault
340
F
  0
DICTIONARY
  5
17
102
{ACAD_REACTORS
330
C
102
}
100
AcDbDictionary
280
0
281
1
  3
Standard
350
18
  0
DICTIONARY
  5
19
102
{ACAD_REACTORS
330
C
102
}
100
AcDbDictionary
281
1
  0
DICTIONARY
  5
1A
102
{ACAD_REACTORS
330
C
102
}
100
AcDbDictionary
281
1
  3
Model
350
547
  3
Layout1
350
548
  0
ACDBPLACEHOLDER
  5
F
102
{ACAD_REACTORS
330
E
102
}
  0
MLINESTYLE
  5
18
102
{ACAD_REACTORS
330
17
102
}
100
AcDbMlineStyle
  2
STANDARD
 70
0
  3

 62
256
 51
90.0
 52
90.0
 71
2
 49
0.5
 62
256
  6
BYLAYER
 49
-0.5
 62
256
  6
BYLAYER
  0
LAYOUT
  5
547
102
{ACAD_REACTORS
330
1A
102
}
100
AcDbPlotSettings
  1

  2
none_device
  4
ISO_A4_(297.00_x_210.00_MM)
  6

 40
0.0
 41
0.0
 42
0.0
 43
0.0
 44
297.0
 45
210.0
 46
0.0
 47
0.0
 48
0.0
 49
0.0
140
0.0
141
0.0
142
1.0
143
1.0
 70
1024
 72
1
 73
0
 74
0
  7

 75
0
147
1.0
148
0.0
149
0.0
100
AcDbLayout
  1
Model
 70
0
 71
0
 10
0.0
 20
0.0
 11
297.0
 21
210.0
 12
0.0
 22
0.0
 32
0.0
 14
0.0
 24
0.0
 34
0.0
 15
0.0
 25
0.0
 35
0.0
146
0.0
 13
0.0
 23
0.0
 33
0.0
 16
1.0
 26
0.0
 36
0.0
 17
0.0
 27
1.0
 37
0.0
 76
0
330
222
345
0
346
0
  0
LAYOUT
  5
548
102
{ACAD_REACTORS
330
1A
102
}
100
AcDbPlotSettings
  1

  2
none_device
  4
ISO_A4_(297.00_x_210.00_MM)
  6

 40
0.0
 41
0.0
 42
0.0
 43
0.0
 44
297.0
 45
210.0
 46
0.0
 47
0.0
 48
0.0
 49
0.0
140
0.0
141
0.0
142
1.0
143
1.0
 70
0
 72
1
 73
0
 74
0
  7

 75
0
147
1.0
148
0.0
149
0.0
100
AcDbLayout
  1
Layout1
 70
0
 71
1
 10
0.0
 20
0.0
 11
297.0
 21
210.0
 12
0.0
 22
0.0
 32
0.0
 14
0.0
 24
0.0
 34
0.0
 15
0.0
 25
0.0
 35
0.0
146
0.0
 13
0.0
 23
0.0
 33
0.0
 16
1.0
 26
0.0
 36
0.0
 17
0.0
 27
1.0
 37
0.0
 76
0
330
223
345
0
346
0
  0
ENDSEC
  0
EOF
