  0
SECTION
  2
HEADER
  9
$ACADVER
  1
AC1015
  9
$DWGCODEPAGE
  3
ANSI_1252
  9
$EXTMAX
 10
297.0
 20
210.0
 30
0.0
  9
$EXTMIN
 10
0.0
 20
0.0
 30
0.0
  9
$LIMMIN
 10
0.0
 20
0.0
  9
$LIMMAX
 10
297.0
 20
210.0
  9
$VIEWCTR
 10
148.5
 20
105.0
  9
$VIEWSIZE
 40
210.0
  9
$CLAYER
  8
0
  9
$LTSCALE
 40
16.335
  9
$CELTYPE
  6
BYLAYER
  9
$DIMSCALE
 40
1.0
  9
$DIMASZ
 40
3.0
  9
$DIMEXO
 40
1.85625
  9
$DIMDLI
 40
11.286
  9
$DIMEXE
 40
5.346
  9
$DIMCEN
 40
2.673
  9
$DIMLFAC
 40
1.0
  9
$DIMBLK
  1
_FILLED
  9
$DIMTXT
 40
3.0
  9
$DIMTOL
 70
1
  9
$DIMLIM
 70
0
  9
$DIMTFAC
 40
1.0
  9
$DIMTP
 40
0.01
  9
$DIMTM
 40
0.01
  9
$PDMODE
 70
3
  9
$PDSIZE
 40
3.0
  9
$HANDSEED
  5
552
  9
$TILEMODE
 70
1
  9
$MEASUREMENT
 70
1
  9
$INSUNITS
 70
4
  0
ENDSEC
  0
SECTION
  2
CLASSES
  0
CLASS
  1
ACDBDICTIONARYWDFLT
  2
AcDbDictionaryWithDefault
  3
AutoCAD 2000
 90
0
280
0
281
0
  0
CLASS
  1
ACDBPLACEHOLDER
  2
AcDbPlaceHolder
  3
AutoCAD 2000
 90
0
280
0
281
0
  0
CLASS
  1
LAYOUT
  2
AcDbLayout
  3
AutoCAD 2000
 90
0
280
0
281
0
  0
ENDSEC
  0
SECTION
  2
TABLES
  0
TABLE
  2
VPORT
  5
8
100
AcDbSymbolTable
 70
2
  0
VPORT
  5
1F4
100
AcDbSymbolTableRecord
100
AcDbViewportTableRecord
  2
*ACTIVE
 70
0
 10
0.0
 20
0.0
 11
1.0
 21
1.0
 12
148.5
 22
105.0
 13
0.0
 23
0.0
 14
1.0
 24
1.0
 15
0.0
 25
0.0
 16
0.0
 26
0.0
 36
1.0
 17
0.0
 27
0.0
 37
0.0
 40
210.0
 41
1.4142857143
 42
50.0
 43
0.0
 44
0.0
 50
0.0
 51
0.0
 71
0
 72
100
 73
1
 74
1
 75
0
 76
0
 77
0
 78
0
  0
ENDTAB
  0
TABLE
  2
LTYPE
  5
5
100
AcDbSymbolTable
 70
6
  0
LTYPE
  5
14
100
AcDbSymbolTableRecord
100
AcDbLinetypeTableRecord
  2
BYBLOCK
 70
0
  3

 72
65
 73
0
 40
0.0
  0
LTYPE
  5
15
100
AcDbSymbolTableRecord
100
AcDbLinetypeTableRecord
  2
BYLAYER
 70
0
  3

 72
65
 73
0
 40
0.0
  0
LTYPE
  5
16
100
AcDbSymbolTableRecord
100
AcDbLinetypeTableRecord
  2
CONTINUOUS
 70
64
  3
Solid line
 72
65
 73
0
 40
0.0
  0
LTYPE
  5
1F5
100
AcDbSymbolTableRecord
100
AcDbLinetypeTableRecord
  2
CENTER
 70
64
  3
____ _ ____ _ ____ _ ____ _ ____ _ ____ _ ____
 72
65
 73
4
 40
0.6
 49
0.375
 74
0
 49
-0.075
 74
0
 49
0.075
 74
0
 49
-0.075
 74
0
  0
LTYPE
  5
1F6
100
AcDbSymbolTableRecord
100
AcDbLinetypeTableRecord
  2
HIDDEN
 70
64
  3
- - - - - - - - - - - - - - - - - - - -
 72
65
 73
2
 40
0.2
 49
0.1
 74
0
 49
-0.1
 74
0
  0
LTYPE
  5
1F7
100
AcDbSymbolTableRecord
100
AcDbLinetypeTableRecord
  2
PHANTOM
 70
64
  3
_____ _ _ _____ _ _ _____ _ _ _____
 72
65
 73
6
 40
0.8
 49
0.45
 74
0
 49
-0.05
 74
0
 49
0.1
 74
0
 49
-0.05
 74
0
 49
0.1
 74
0
 49
-0.05
 74
0
  0
LTYPE
  5
1F8
100
AcDbSymbolTableRecord
100
AcDbLinetypeTableRecord
  2
DOT
 70
64
  3
. . . . . . . . . . . . . . . . . . . .
 72
65
 73
2
 40
0.2
 49
0.1
 74
0
 49
-0.1
 74
0
  0
LTYPE
  5
1F9
100
AcDbSymbolTableRecord
100
AcDbLinetypeTableRecord
  2
DASHED
 70
64
  3
- - - - - - - - - - - - - - - - - - - -
 72
65
 73
2
 40
0.2
 49
0.1
 74
0
 49
-0.1
 74
0
  0
ENDTAB
  0
TABLE
  2
LAYER
  5
2
100
AcDbSymbolTable
 70
36
  0
LAYER
  5
10
100
AcDbSymbolTableRecord
100
AcDbLayerTableRecord
  2
0
 70
0
 62
7
  6
CONTINUOUS
370
-3
390
F
  0
LAYER
  5
1FA
100
AcDbSymbolTableRecord
100
AcDbLayerTableRecord
  2
DEFAULT_1
 70
0
 62
7
  6
CENTER
370
-3
390
F
  0
LAYER
  5
1FB
100
AcDbSymbolTableRecord
100
AcDbLayerTableRecord
  2
DEFAULT_2
 70
0
 62
7
  6
HIDDEN
370
-3
390
F
  0
LAYER
  5
1FC
100
AcDbSymbolTableRecord
100
AcDbLayerTableRecord
  2
DEFAULT_3
 70
0
 62
7
  6
PHANTOM
370
-3
390
F
  0
LAYER
  5
1FD
100
AcDbSymbolTableRecord
100
AcDbLayerTableRecord
  2
ASSI
 70
0
 62
7
  6
CONTINUOUS
370
-3
390
F
  0
LAYER
  5
1FE
100
AcDbSymbolTableRecord
100
AcDbLayerTableRecord
  2
COLOR15
 70
0
 62
7
  6
CONTINUOUS
370
-3
390
F
  0
LAYER
  5
1FF
100
AcDbSymbolTableRecord
100
AcDbLayerTableRecord
  2
COLOR9
 70
0
 62
7
  6
CONTINUOUS
370
-3
390
F
  0
LAYER
  5
200
100
AcDbSymbolTableRecord
100
AcDbLayerTableRecord
  2
COLORE_MATERIALE
 70
0
 62
7
  6
CONTINUOUS
370
-3
390
F
  0
LAYER
  5
201
100
AcDbSymbolTableRecord
100
AcDbLayerTableRecord
  2
COORDINATE
 70
0
 62
7
  6
CONTINUOUS
370
-3
390
F
  0
LAYER
  5
202
100
AcDbSymbolTableRecord
100
AcDbLayerTableRecord
  2
COORD_ORIGINE
 70
0
 62
7
  6
CONTINUOUS
370
-3
390
F
  0
LAYER
  5
203
100
AcDbSymbolTableRecord
100
AcDbLayerTableRecord
  2
COPY_PUBLISH
 70
0
 62
7
  6
CONTINUOUS
370
-3
390
F
  0
LAYER
  5
204
100
AcDbSymbolTableRecord
100
AcDbLayerTableRecord
  2
CORPO
 70
0
 62
7
  6
CONTINUOUS
370
-3
390
F
  0
LAYER
  5
205
100
AcDbSymbolTableRecord
100
AcDbLayerTableRecord
  2
COSMETIC
 70
0
 62
7
  6
CONTINUOUS
370
-3
390
F
  0
LAYER
  5
206
100
AcDbSymbolTableRecord
100
AcDbLayerTableRecord
  2
CURVE
 70
0
 62
7
  6
CONTINUOUS
370
-3
390
F
  0
LAYER
  5
207
100
AcDbSymbolTableRecord
100
AcDbLayerTableRecord
  2
DRAFT
 70
0
 62
7
  6
CONTINUOUS
370
-3
390
F
  0
LAYER
  5
208
100
AcDbSymbolTableRecord
100
AcDbLayerTableRecord
  2
FUSIBILE
 70
0
 62
7
  6
CONTINUOUS
370
-3
390
F
  0
LAYER
  5
209
100
AcDbSymbolTableRecord
100
AcDbLayerTableRecord
  2
IMPORT
 70
0
 62
7
  6
CONTINUOUS
370
-3
390
F
  0
LAYER
  5
20A
100
AcDbSymbolTableRecord
100
AcDbLayerTableRecord
  2
IMPORT_IGES
 70
0
 62
7
  6
CONTINUOUS
370
-3
390
F
  0
LAYER
  5
20B
100
AcDbSymbolTableRecord
100
AcDbLayerTableRecord
  2
INTF_1
 70
0
 62
7
  6
CONTINUOUS
370
-3
390
F
  0
LAYER
  5
20C
100
AcDbSymbolTableRecord
100
AcDbLayerTableRecord
  2
INTF_BLANK
 70
0
 62
7
  6
CONTINUOUS
370
-3
390
F
  0
LAYER
  5
20D
100
AcDbSymbolTableRecord
100
AcDbLayerTableRecord
  2
INTF_CYAN
 70
0
 62
7
  6
CONTINUOUS
370
-3
390
F
  0
LAYER
  5
20E
100
AcDbSymbolTableRecord
100
AcDbLayerTableRecord
  2
INTF_GREEN
 70
0
 62
7
  6
CONTINUOUS
370
-3
390
F
  0
LAYER
  5
20F
100
AcDbSymbolTableRecord
100
AcDbLayerTableRecord
  2
INTF_YELLOW
 70
0
 62
7
  6
CONTINUOUS
370
-3
390
F
  0
LAYER
  5
210
100
AcDbSymbolTableRecord
100
AcDbLayerTableRecord
  2
MAGNETOTERMICO
 70
0
 62
7
  6
CONTINUOUS
370
-3
390
F
  0
LAYER
  5
211
100
AcDbSymbolTableRecord
100
AcDbLayerTableRecord
  2
MOLLA
 70
0
 62
7
  6
CONTINUOUS
370
-3
390
F
  0
LAYER
  5
212
100
AcDbSymbolTableRecord
100
AcDbLayerTableRecord
  2
NOTE
 70
0
 62
7
  6
CONTINUOUS
370
-3
390
F
  0
LAYER
  5
213
100
AcDbSymbolTableRecord
100
AcDbLayerTableRecord
  2
PIANI
 70
0
 62
7
  6
CONTINUOUS
370
-3
390
F
  0
LAYER
  5
214
100
AcDbSymbolTableRecord
100
AcDbLayerTableRecord
  2
PIANI_ORIGINE
 70
0
 62
7
  6
CONTINUOUS
370
-3
390
F
  0
LAYER
  5
215
100
AcDbSymbolTableRecord
100
AcDbLayerTableRecord
  2
PIANI_RIFERIMENTO
 70
0
 62
7
  6
CONTINUOUS
370
-3
390
F
  0
LAYER
  5
216
100
AcDbSymbolTableRecord
100
AcDbLayerTableRecord
  2
PORTATASTO
 70
0
 62
7
  6
CONTINUOUS
370
-3
390
F
  0
LAYER
  5
217
100
AcDbSymbolTableRecord
100
AcDbLayerTableRecord
  2
PUNTI
 70
0
 62
7
  6
CONTINUOUS
370
-3
390
F
  0
LAYER
  5
218
100
AcDbSymbolTableRecord
100
AcDbLayerTableRecord
  2
RACCORDO
 70
0
 62
7
  6
CONTINUOUS
370
-3
390
F
  0
LAYER
  5
219
100
AcDbSymbolTableRecord
100
AcDbLayerTableRecord
  2
RGB____0____0____0__
 70
0
 62
7
  6
CONTINUOUS
370
-3
390
F
  0
LAYER
  5
21A
100
AcDbSymbolTableRecord
100
AcDbLayerTableRecord
  2
SKEL
 70
0
 62
7
  6
CONTINUOUS
370
-3
390
F
  0
LAYER
  5
21B
100
AcDbSymbolTableRecord
100
AcDbLayerTableRecord
  2
SMUSSO
 70
0
 62
7
  6
CONTINUOUS
370
-3
390
F
  0
LAYER
  5
21C
100
AcDbSymbolTableRecord
100
AcDbLayerTableRecord
  2
SNAPLINE
 70
0
 62
7
  6
CONTINUOUS
370
-3
390
F
  0
LAYER
  5
21D
100
AcDbSymbolTableRecord
100
AcDbLayerTableRecord
  2
SUPERFICI
 70
0
 62
7
  6
CONTINUOUS
370
-3
390
F
  0
LAYER
  5
21E
100
AcDbSymbolTableRecord
100
AcDbLayerTableRecord
  2
TASTO
 70
0
 62
7
  6
CONTINUOUS
370
-3
390
F
  0
LAYER
  5
21F
100
AcDbSymbolTableRecord
100
AcDbLayerTableRecord
  2
TRASH
 70
0
 62
7
  6
CONTINUOUS
370
-3
390
F
  0
LAYER
  5
220
100
AcDbSymbolTableRecord
100
AcDbLayerTableRecord
  2
XSEC_DATUMS
 70
0
 62
7
  6
CONTINUOUS
370
-3
390
F
  0
ENDTAB
  0
TABLE
  2
STYLE
  5
3
100
AcDbSymbolTable
 70
1
  0
STYLE
  5
11
100
AcDbSymbolTableRecord
100
AcDbTextStyleTableRecord
  2
STANDARD
 70
0
 40
0.0
 41
0.8
 50
0.0
 71
0
 42
0.2
  3
txt
  4

  0
STYLE
  5
221
100
AcDbSymbolTableRecord
100
AcDbTextStyleTableRecord
  2
TEXTSTYLE_1
 70
0
 40
0.0
 41
0.8
 50
0.0
 71
0
 42
0.2
  3
gdt
  4

  0
ENDTAB
  0
TABLE
  2
VIEW
  5
6
100
AcDbSymbolTable
 70
0
  0
ENDTAB
  0
TABLE
  2
UCS
  5
7
100
AcDbSymbolTable
 70
0
  0
ENDTAB
  0
TABLE
  2
APPID
  5
9
100
AcDbSymbolTable
 70
1
  0
APPID
  5
222
100
AcDbSymbolTableRecord
100
AcDbRegAppTableRecord
  2
ACAD
 70
0
  0
ENDTAB
  0
TABLE
  2
BLOCK_RECORD
  5
1
100
AcDbSymbolTable
 70
0
  0
BLOCK_RECORD
  5
223
100
AcDbSymbolTableRecord
100
AcDbBlockTableRecord
  2
*Model_Space
  0
BLOCK_RECORD
  5
224
100
AcDbSymbolTableRecord
100
AcDbBlockTableRecord
  2
*Paper_Space
  0
ENDTAB
  0
TABLE
  2
DIMSTYLE
  5
A
100
AcDbSymbolTable
 70
1
100
AcDbDimStyleTable
 71
0
  0
DIMSTYLE
105
225
100
AcDbSymbolTableRecord
100
AcDbDimStyleTableRecord
  2
STANDARD
 70
0
  3

  4

 40
1.0
 41
3.0
 42
0.0625
 43
0.38
 44
0.18
 45
0.0
 46
0.0
 47
0.01
 48
0.01
140
3.0
141
0.09
142
0.0
143
25.4
144
1.0
145
0.0
146
1.0
147
0.09
 71
1.0
 72
0.0
 73
0
 74
0
 75
0
 76
0
 77
1
 78
8
170
0
171
2
172
0
173
0
174
0
175
0
176
0
177
0
178
0
270
2
271
2
272
2
273
2
274
2
275
0
280
0
281
0
282
0
283
1
284
8
285
0
286
0
287
3
288
0
340
11
  0
ENDTAB
  0
ENDSEC
  0
SECTION
  2
BLOCKS
  0
BLOCK
  5
20
100
AcDbEntity
  8
0
100
AcDbBlockBegin
  2
*Model_Space
 70
0
 10
0.0
 20
0.0
 30
0.0
  3
*Model_Space
  1

  0
ENDBLK
  5
21
100
AcDbEntity
  8
0
100
AcDbBlockEnd
  0
BLOCK
  5
1C
100
AcDbEntity
  8
0
100
AcDbBlockBegin
  2
*Paper_Space
 70
0
 10
0.0
 20
0.0
 30
0.0
  3
*Paper_Space
  1

  0
ENDBLK
  5
1D
100
AcDbEntity
  8
0
100
AcDbBlockEnd
  0
ENDSEC
  0
SECTION
  2
ENTITIES
  0
LINE
  5
226
100
AcDbEntity
  8
PORTATASTO
100
AcDbLine
 62
7
  6
CONTINUOUS
 10
-20.1143948383
 20
27.0252246143
 11
-19.4035856208
 21
27.8769267868
  0
LWPOLYLINE
  5
227
100
AcDbEntity
  8
RACCORDO
100
AcDbPolyline
 62
7
  6
CONTINUOUS
 90
15
 70
0
 10
-27.2541066328
 20
23.7450477559
 10
-27.3434131383
 20
23.6764911039
 10
-27.4288053252
 20
23.6007101492
 10
-27.5101160247
 20
23.5182186851
 10
-27.5869913338
 20
23.429646788
 10
-27.6592232756
 20
23.3354246662
 10
-27.7265666193
 20
23.236051286
 10
-27.788494596
 20
23.1323931098
 10
-27.8447265321
 20
23.0249557677
 10
-27.8950106171
 20
22.9142825019
 10
-27.9388715968
 20
22.8013715549
 10
-27.9760462466
 20
22.6867653179
 10
-28.0063166016
 20
22.570943384
 10
-28.0293334859
 20
22.4547314349
 10
-28.0448288405
 20
22.3386891103
  0
LWPOLYLINE
  5
228
100
AcDbEntity
  8
ASSI
100
AcDbPolyline
 62
7
  6
CONTINUOUS
 90
18
 70
0
 10
-27.2523742099
 20
23.7462765482
 10
-27.3268536235
 20
23.6899977238
 10
-27.3985350372
 20
23.6287813368
 10
-27.4673497872
 20
23.5629390024
 10
-27.5331682962
 20
23.4928110132
 10
-27.5958938286
 20
23.4186474682
 10
-27.655403516
 20
23.3407061229
 10
-27.7114642938
 20
23.2594312052
 10
-27.7639304146
 20
23.1751210571
 10
-27.8126403465
 20
23.0880375911
 10
-27.8573529945
 20
22.9986573823
 10
-27.8979436677
 20
22.9072835933
 10
-27.9342471755
 20
22.8142224824
 10
-27.9660181304
 20
22.7199791927
 10
-27.9931348956
 20
22.6248489741
 10
-28.0154612016
 20
22.5290865136
 10
-28.0327968502
 20
22.4330805393
 10
-28.0448747032
 20
22.3380020405
  0
LINE
  5
229
100
AcDbEntity
  8
RACCORDO
100
AcDbLine
 62
7
  6
CONTINUOUS
 10
-27.1556782581
 20
23.8091042677
 11
-27.2533408935
 21
23.7455460937
  0
LWPOLYLINE
  5
22A
100
AcDbEntity
  8
ASSI
100
AcDbPolyline
 62
7
  6
CONTINUOUS
 90
3
 70
0
 10
-27.1557910133
 20
23.8090375898
 10
-27.1752090158
 20
23.7973067287
 10
-27.2523742099
 20
23.7462765482
  0
LINE
  5
22B
100
AcDbEntity
  8
ASSI
100
AcDbLine
 62
7
  6
CONTINUOUS
 10
-27.155900174
 20
23.809009088
 11
-23.598885124
 21
25.9176154044
  0
LINE
  5
22C
100
AcDbEntity
  8
RACCORDO
100
AcDbLine
 62
7
  6
CONTINUOUS
 10
-27.1559001749
 20
23.8090090875
 11
-23.5990004137
 21
25.9175470604
  0
LINE
  5
22D
100
AcDbEntity
  8
ASSI
100
AcDbLine
 62
253
  6
CONTINUOUS
 10
-26.9194358222
 20
23.8020703565
 11
-23.3637469326
 21
25.9098905221
  0
LINE
  5
22E
100
AcDbEntity
  8
RACCORDO
100
AcDbLine
 62
253
  6
CONTINUOUS
 10
-26.9194358222
 20
23.8020703565
 11
-23.3637469326
 21
25.9098905221
  0
LINE
  5
22F
100
AcDbEntity
  8
PORTATASTO
100
AcDbLine
 62
7
  6
CONTINUOUS
 10
-23.0135362654
 20
26.4816196144
 11
-22.6681342055
 21
26.6830206517
  0
LINE
  5
230
100
AcDbEntity
  8
PORTATASTO
100
AcDbLine
 62
253
  6
CONTINUOUS
 10
-22.779453403
 20
26.4732771871
 11
-22.6681342055
 21
26.5381864753
  0
LINE
  5
231
100
AcDbEntity
  8
PORTATASTO
100
AcDbLine
 62
7
  6
CONTINUOUS
 10
-20.1143948383
 20
26.2694877788
 11
-21.003836803
 21
25.7726071925
  0
LINE
  5
232
100
AcDbEntity
  8
PORTATASTO
100
AcDbLine
 62
7
  6
CONTINUOUS
 10
-23.235422009
 20
28.0353320397
 11
-20.94806345
 21
29.2057966497
  0
LINE
  5
233
100
AcDbEntity
  8
PORTATASTO
100
AcDbLine
 62
253
  6
CONTINUOUS
 10
-23.1224641468
 20
28.028818007
 11
-20.8354792759
 21
29.199091397
  0
LINE
  5
234
100
AcDbEntity
  8
PORTATASTO
100
AcDbLine
 62
253
  6
CONTINUOUS
 10
-21.8914202925
 20
27.4132960798
 11
-19.5803598929
 21
28.5715317055
  0
LINE
  5
235
100
AcDbEntity
  8
PORTATASTO
100
AcDbLine
 62
253
  6
CONTINUOUS
 10
-21.7146460204
 20
27.1084055607
 11
-19.4035856208
 21
28.2666411863
  0
LWPOLYLINE
  5
236
100
AcDbEntity
  8
RACCORDO
100
AcDbPolyline
 62
7
  6
CONTINUOUS
 90
12
 70
0
 10
-28.051947458
 20
-13.1134656162
 10
-28.0422341799
 20
-13.2293370151
 10
-28.0237215445
 20
-13.340064589
 10
-27.9964963189
 20
-13.4456234041
 10
-27.9608442059
 20
-13.5453303216
 10
-27.9175535455
 20
-13.6377188469
 10
-27.8675603571
 20
-13.7219319195
 10
-27.8112531678
 20
-13.7983719831
 10
-27.7488788329
 20
-13.8672748325
 10
-27.6811529999
 20
-13.9282085722
 10
-27.6087722457
 20
-13.9808987215
 10
-27.5241190844
 20
-14.0294369503
  0
LWPOLYLINE
  5
237
100
AcDbEntity
  8
ASSI
100
AcDbPolyline
 62
7
  6
CONTINUOUS
 90
14
 70
0
 10
-28.052609754
 20
-13.0963828086
 10
-28.05079441
 20
-13.1357450954
 10
-28.0408413901
 20
-13.2401573795
 10
-28.0236723855
 20
-13.3402967999
 10
-27.9994285407
 20
-13.4359088004
 10
-27.9682963404
 20
-13.5267509666
 10
-27.9305073706
 20
-13.6124158146
 10
-27.8862824272
 20
-13.6925620024
 10
-27.835904548
 20
-13.766857572
 10
-27.7798867975
 20
-13.8347809765
 10
-27.7187088998
 20
-13.8959857663
 10
-27.6529271344
 20
-13.9501297723
 10
-27.5834536709
 20
-13.9967739125
 10
-27.523439555
 20
-14.0297761288
  0
LINE
  5
238
100
AcDbEntity
  8
RACCORDO
100
AcDbLine
 62
7
  6
CONTINUOUS
 10
-28.0526097657
 20
-13.0963824573
 11
-28.051947458
 21
-13.1134656162
  0
LWPOLYLINE
  5
239
100
AcDbEntity
  8
RACCORDO
100
AcDbPolyline
 62
7
  6
CONTINUOUS
 90
9
 70
0
 10
-28.1639431006
 20
18.3143235027
 10
-28.2497526158
 20
14.3230557049
 10
-28.3069540156
 20
10.3459988682
 10
-28.3355397778
 20
6.3835280526
 10
-28.3355082135
 20
2.43595364
 10
-28.306858777
 20
-1.4964385444
 10
-28.2495920291
 20
-5.4133396502
 10
-28.1637143684
 20
-9.3143822634
 10
-28.0526394351
 20
-13.0963607816
  0
LINE
  5
23A
100
AcDbEntity
  8
RACCORDO
100
AcDbLine
 62
7
  6
CONTINUOUS
 10
-28.0526574332
 20
22.2218108681
 11
-28.1639431006
 21
18.3143235027
  0
LWPOLYLINE
  5
23B
100
AcDbEntity
  8
ASSI
100
AcDbPolyline
 62
7
  6
CONTINUOUS
 90
10
 70
0
 10
-28.0526574334
 20
22.2218108626
 10
-28.164565852
 20
18.2894300085
 10
-28.2500628809
 20
14.3057534457
 10
-28.3070594196
 20
10.3362358861
 10
-28.335547996
 20
6.3812501149
 10
-28.3355269372
 20
2.4411047309
 10
-28.3069957
 20
-1.4839158629
 10
-28.2499548321
 20
-5.3935046079
 10
-28.1644106836
 20
-9.2872963415
 10
-28.0526394354
 20
-13.0963607743
  0
LINE
  5
23C
100
AcDbEntity
  8
RACCORDO
100
AcDbLine
 62
7
  6
CONTINUOUS
 10
-28.0448288405
 20
22.3386891103
 11
-28.0526431997
 21
22.2216219856
  0
LWPOLYLINE
  5
23D
100
AcDbEntity
  8
ASSI
100
AcDbPolyline
 62
7
  6
CONTINUOUS
 90
3
 70
0
 10
-28.0449848209
 20
22.3371351785
 10
-28.0518856692
 20
22.2415395714
 10
-28.052640109
 20
22.2217230758
  0
LINE
  5
23E
100
AcDbEntity
  8
PORTATASTO
100
AcDbLine
 62
7
  6
CONTINUOUS
 10
-17.7028171914
 20
25.9572175264
 11
-16.6458691742
 21
26.4980685634
  0
LINE
  5
23F
100
AcDbEntity
  8
PORTATASTO
100
AcDbLine
 62
7
  6
CONTINUOUS
 10
-10.7181119726
 20
26.6533443226
 11
-9.6262290105
 21
27.1992858037
  0
LINE
  5
240
100
AcDbEntity
  8
PORTATASTO
100
AcDbLine
 62
7
  6
CONTINUOUS
 10
-16.0329222152
 20
26.191595084
 11
-11.4328156142
 21
28.4619399446
  0
LINE
  5
241
100
AcDbEntity
  8
PORTATASTO
100
AcDbLine
 62
7
  6
CONTINUOUS
 10
-11.7103682544
 20
27.0521600756
 11
-11.3728660308
 21
27.218489351
  0
LINE
  5
242
100
AcDbEntity
  8
PORTATASTO
100
AcDbLine
 62
7
  6
CONTINUOUS
 10
-8.5843540312
 20
28.2313041411
 11
-10.7196688636
 21
27.178969241
  0
LINE
  5
243
100
AcDbEntity
  8
PORTATASTO
100
AcDbLine
 62
7
  6
CONTINUOUS
 10
-16.6458691742
 20
26.4980685634
 11
-12.0218875403
 21
28.7564759076
  0
LINE
  5
244
100
AcDbEntity
  8
PORTATASTO
100
AcDbLine
 62
7
  6
CONTINUOUS
 10
-11.5792538511
 20
29.7287540511
 11
-18.7005926665
 21
26.2646550857
  0
LINE
  5
245
100
AcDbEntity
  8
ASSI
100
AcDbLine
 62
7
  6
CONTINUOUS
 10
1.7258759364
 20
35.3993387605
 11
-10.7023605289
 21
29.5382168735
  0
LINE
  5
246
100
AcDbEntity
  8
ASSI
100
AcDbLine
 62
253
  6
CONTINUOUS
 10
2.1647606868
 20
35.3669358255
 11
-10.4559829558
 21
29.415028087
  0
LINE
  5
247
100
AcDbEntity
  8
ASSI
100
AcDbLine
 62
253
  6
CONTINUOUS
 10
-11.6254110278
 20
25.9947059898
 11
-13.0058699311
 21
24.6780689419
  0
LINE
  5
248
100
AcDbEntity
  8
ASSI
100
AcDbLine
 62
7
  6
CONTINUOUS
 10
-11.7227118217
 20
25.9941134195
 11
-13.1149153174
 21
24.7325916351
  0
LINE
  5
249
100
AcDbEntity
  8
ASSI
100
AcDbLine
 62
7
  6
CONTINUOUS
 10
-0.6624689765
 20
31.4259167029
 11
-1.0757369895
 21
31.2169762181
  0
LINE
  5
24A
100
AcDbEntity
  8
ASSI
100
AcDbLine
 62
7
  6
CONTINUOUS
 10
-4.7591154938
 20
29.3547297673
 11
-5.2109497923
 21
29.1262908986
  0
LINE
  5
24B
100
AcDbEntity
  8
PORTATASTO
100
AcDbLine
 62
7
  6
CONTINUOUS
 10
-11.4914042116
 20
22.8515110365
 11
-10.4233294997
 21
23.3867987262
  0
LINE
  5
24C
100
AcDbEntity
  8
ASSI
100
AcDbLine
 62
7
  6
CONTINUOUS
 10
-3.9886577909
 20
28.5473525418
 11
-3.5056763876
 21
28.7888432434
  0
LINE
  5
24D
100
AcDbEntity
  8
ASSI
100
AcDbLine
 62
7
  6
CONTINUOUS
 10
0.2539828962
 20
30.6686728853
 11
0.6553366144
 21
30.8693497444
  0
LINE
  5
24E
100
AcDbEntity
  8
PORTATASTO
100
AcDbLine
 62
7
  6
CONTINUOUS
 10
-10.4233294997
 20
23.3867987262
 11
-5.8475183086
 21
25.6692912918
  0
LINE
  5
24F
100
AcDbEntity
  8
PORTATASTO
100
AcDbLine
 62
7
  6
CONTINUOUS
 10
-11.0362764587
 20
23.6932722057
 11
-6.4365902348
 21
25.9638272548
  0
LINE
  5
250
100
AcDbEntity
  8
PORTATASTO
100
AcDbLine
 62
7
  6
CONTINUOUS
 10
-5.67122956
 20
25.4474512689
 11
-4.3344815044
 21
26.1063678777
  0
LINE
  5
251
100
AcDbEntity
  8
PORTATASTO
100
AcDbLine
 62
7
  6
CONTINUOUS
 10
9.1421482333
 20
-27.8258561416
 11
9.8529574508
 21
-27.9741539692
  0
LWPOLYLINE
  5
252
100
AcDbEntity
  8
ASSI
100
AcDbPolyline
 62
7
  6
CONTINUOUS
 90
12
 70
0
 10
2.8805096387
 20
-29.2317498464
 10
2.9314273808
 20
-29.25533938
 10
3.0069660213
 20
-29.2835870965
 10
3.0861934346
 20
-29.3053435508
 10
3.1685438867
 20
-29.3201345507
 10
3.2531979379
 20
-29.3276166585
 10
3.3396632148
 20
-29.3276124087
 10
3.4274697232
 20
-29.3199828927
 10
3.5159357315
 20
-29.3046699234
 10
3.6045982547
 20
-29.2817175362
 10
3.693126317
 20
-29.2511931225
 10
3.7165936974
 20
-29.2418107696
  0
LWPOLYLINE
  5
253
100
AcDbEntity
  8
RACCORDO
100
AcDbPolyline
 62
7
  6
CONTINUOUS
 90
11
 70
0
 10
2.8804134069
 20
-29.2317014668
 10
2.9031451861
 20
-29.2427146908
 10
2.983322516
 20
-29.2755680297
 10
3.0678578835
 20
-29.3009870537
 10
3.1560548139
 20
-29.3183802245
 10
3.2469090817
 20
-29.3273197602
 10
3.3398005748
 20
-29.3276064104
 10
3.4341413701
 20
-29.3190939172
 10
3.5291054134
 20
-29.3017408339
 10
3.6241277214
 20
-29.2756403572
 10
3.7165857081
 20
-29.241814053
  0
LINE
  5
254
100
AcDbEntity
  8
ASSI
100
AcDbLine
 62
7
  6
CONTINUOUS
 10
2.8817872371
 20
-29.2324204724
 11
-27.5240534335
 21
-14.0295001372
  0
LINE
  5
255
100
AcDbEntity
  8
RACCORDO
100
AcDbLine
 62
7
  6
CONTINUOUS
 10
2.8818236643
 20
-29.232438686
 11
-27.5240898606
 21
-14.0294819236
  0
LINE
  5
256
100
AcDbEntity
  8
PORTATASTO
100
AcDbLine
 62
7
  6
CONTINUOUS
 10
-23.3715385504
 20
27.812777422
 11
-23.3715385504
 21
27.5628062127
  0
LINE
  5
257
100
AcDbEntity
  8
PORTATASTO
100
AcDbLine
 62
253
  6
CONTINUOUS
 10
-23.2983152457
 20
27.7243890744
 11
-23.2983152457
 21
27.4744178651
  0
LINE
  5
258
100
AcDbEntity
  8
PORTATASTO
100
AcDbLine
 62
7
  6
CONTINUOUS
 10
-23.1327376689
 20
26.2167084265
 11
-23.1327376689
 21
25.7943858902
  0
LINE
  5
259
100
AcDbEntity
  8
PORTATASTO
100
AcDbLine
 62
7
  6
CONTINUOUS
 10
-22.6681342055
 20
27.0565955431
 11
-22.6681342055
 21
26.4727379411
  0
LINE
  5
25A
100
AcDbEntity
  8
PORTATASTO
100
AcDbLine
 62
253
  6
CONTINUOUS
 10
-22.5949109008
 20
27.0199838907
 11
-22.5949109008
 21
26.381005936
  0
LINE
  5
25B
100
AcDbEntity
  8
PORTATASTO
100
AcDbLine
 62
253
  6
CONTINUOUS
 10
-22.0672713914
 20
26.8588959379
 11
-22.0672713914
 21
27.1088671473
  0
LINE
  5
25C
100
AcDbEntity
  8
PORTATASTO
100
AcDbLine
 62
253
  6
CONTINUOUS
 10
-21.7146460204
 20
26.8584343513
 11
-21.7146460204
 21
27.1084055607
  0
LINE
  5
25D
100
AcDbEntity
  8
PORTATASTO
100
AcDbLine
 62
253
  6
CONTINUOUS
 10
-21.356462174
 20
25.7617815726
 11
-21.356462174
 21
26.4605981104
  0
LINE
  5
25E
100
AcDbEntity
  8
PORTATASTO
100
AcDbLine
 62
7
  6
CONTINUOUS
 10
-11.1341387172
 20
22.5350965538
 11
-10.4233294997
 21
23.3867987262
  0
LINE
  5
25F
100
AcDbEntity
  8
PORTATASTO
100
AcDbLine
 62
7
  6
CONTINUOUS
 10
-11.1341387172
 20
21.7793597183
 11
-11.4914042116
 21
21.5797758271
  0
LINE
  5
260
100
AcDbEntity
  8
PORTATASTO
100
AcDbLine
 62
7
  6
CONTINUOUS
 10
-0.3998817814
 20
23.7739417029
 11
-2.0432671286
 21
22.9125792909
  0
LINE
  5
261
100
AcDbEntity
  8
PORTATASTO
100
AcDbLine
 62
7
  6
CONTINUOUS
 10
-9.8887815141
 20
21.3620117923
 11
-7.6014229551
 21
22.5324764023
  0
LINE
  5
262
100
AcDbEntity
  8
PORTATASTO
100
AcDbLine
 62
253
  6
CONTINUOUS
 10
-9.7758236519
 20
21.3554977595
 11
-7.488838781
 21
22.5257711495
  0
LINE
  5
263
100
AcDbEntity
  8
PORTATASTO
100
AcDbLine
 62
7
  6
CONTINUOUS
 10
-7.3255194323
 20
20.0803807514
 11
-5.0381608733
 21
21.2508453614
  0
LINE
  5
264
100
AcDbEntity
  8
PORTATASTO
100
AcDbLine
 62
253
  6
CONTINUOUS
 10
-8.5447797976
 20
20.7399758324
 11
-6.233719398
 21
21.898211458
  0
LINE
  5
265
100
AcDbEntity
  8
PORTATASTO
100
AcDbLine
 62
253
  6
CONTINUOUS
 10
-8.3680055255
 20
20.4350853132
 11
-6.0569451259
 21
21.5933209388
  0
LINE
  5
266
100
AcDbEntity
  8
PORTATASTO
100
AcDbLine
 62
7
  6
CONTINUOUS
 10
-1.3395816845
 20
24.6089179677
 11
-6.5004818847
 21
22.0315927014
  0
LINE
  5
267
100
AcDbEntity
  8
PORTATASTO
100
AcDbLine
 62
7
  6
CONTINUOUS
 10
-11.1267338446
 20
21.775657282
 11
-5.7952768458
 21
24.4312599251
  0
LINE
  5
268
100
AcDbEntity
  8
ASSI
100
AcDbLine
 62
7
  6
CONTINUOUS
 10
-6.0569451259
 20
21.4294053952
 11
-2.4284437223
 21
23.1051675878
  0
LINE
  5
269
100
AcDbEntity
  8
ASSI
100
AcDbLine
 62
253
  6
CONTINUOUS
 10
2.4859903405
 20
-28.4702301946
 11
-27.9061710238
 21
-13.2741495125
  0
LINE
  5
26A
100
AcDbEntity
  8
RACCORDO
100
AcDbLine
 62
253
  6
CONTINUOUS
 10
2.4859903405
 20
-28.4702301946
 11
-27.9061710238
 21
-13.2741495125
  0
LINE
  5
26B
100
AcDbEntity
  8
PORTATASTO
100
AcDbLine
 62
7
  6
CONTINUOUS
 10
6.0232011223
 20
-29.0118525503
 11
7.2542449766
 21
-29.6273744775
  0
LINE
  5
26C
100
AcDbEntity
  8
PORTATASTO
100
AcDbLine
 62
253
  6
CONTINUOUS
 10
5.9582278259
 20
-28.8766341002
 11
7.1892716802
 21
-29.4921560274
  0
LINE
  5
26D
100
AcDbEntity
  8
PORTATASTO
100
AcDbLine
 62
253
  6
CONTINUOUS
 10
7.1892716802
 20
-29.242184818
 11
5.9582278259
 21
-28.6266628909
  0
LINE
  5
26E
100
AcDbEntity
  8
PORTATASTO
100
AcDbLine
 62
253
  6
CONTINUOUS
 10
7.2776600278
 20
-29.0104906442
 11
6.0466161735
 21
-28.3949687171
  0
LINE
  5
26F
100
AcDbEntity
  8
PORTATASTO
100
AcDbLine
 62
253
  6
CONTINUOUS
 10
7.8107669409
 20
-28.3717140149
 11
6.5741694322
 21
-27.7534152605
  0
LINE
  5
270
100
AcDbEntity
  8
PORTATASTO
100
AcDbLine
 62
253
  6
CONTINUOUS
 10
7.9000808976
 20
-28.1404826456
 11
6.6616321708
 21
-27.5212582821
  0
LINE
  5
271
100
AcDbEntity
  8
PORTATASTO
100
AcDbLine
 62
253
  6
CONTINUOUS
 10
7.2540849288
 20
-29.6272942625
 11
7.2542449878
 21
-29.6273744831
  0
LINE
  5
272
100
AcDbEntity
  8
PORTATASTO
100
AcDbLine
 62
253
  6
CONTINUOUS
 10
-21.003836803
 20
25.7726071925
 11
-21.003836803
 21
26.4601365238
  0
LINE
  5
273
100
AcDbEntity
  8
PORTATASTO
100
AcDbLine
 62
7
  6
CONTINUOUS
 10
-20.1143948383
 20
27.0252246143
 11
-20.1143948383
 21
26.2694877788
  0
LINE
  5
274
100
AcDbEntity
  8
PORTATASTO
100
AcDbLine
 62
7
  6
CONTINUOUS
 10
-19.4035856208
 20
28.2666411863
 11
-19.4035856208
 21
27.8769267868
  0
LINE
  5
275
100
AcDbEntity
  8
PORTATASTO
100
AcDbLine
 62
7
  6
CONTINUOUS
 10
-17.8474174545
 20
25.773254724
 11
-17.8474174545
 21
24.4937084807
  0
LINE
  5
276
100
AcDbEntity
  8
PORTATASTO
100
AcDbLine
 62
253
  6
CONTINUOUS
 10
-17.700970845
 20
25.4300362097
 11
-17.700970845
 21
24.3102825328
  0
LINE
  5
277
100
AcDbEntity
  8
PORTATASTO
100
AcDbLine
 62
7
  6
CONTINUOUS
 10
-6.0569451259
 20
21.2036065393
 11
-6.7475207657
 21
20.3761485405
  0
LINE
  5
278
100
AcDbEntity
  8
PORTATASTO
100
AcDbLine
 62
7
  6
CONTINUOUS
 10
-7.2303861171
 20
19.3377214988
 11
-7.6571963081
 21
19.0992869451
  0
LINE
  5
279
100
AcDbEntity
  8
PORTATASTO
100
AcDbLine
 62
7
  6
CONTINUOUS
 10
-4.2044922616
 20
18.3145364905
 11
-5.0939342263
 21
17.8176559042
  0
LINE
  5
27A
100
AcDbEntity
  8
PORTATASTO
100
AcDbLine
 62
7
  6
CONTINUOUS
 10
-0.3998817814
 20
23.3738144426
 11
-1.6470856703
 21
22.7144885618
  0
LINE
  5
27B
100
AcDbEntity
  8
PORTATASTO
100
AcDbLine
 62
253
  6
CONTINUOUS
 10
-7.2125615701
 20
20.0738667186
 11
-4.9255766992
 21
21.2441401086
  0
LINE
  5
27C
100
AcDbEntity
  8
PORTATASTO
100
AcDbLine
 62
253
  6
CONTINUOUS
 10
-5.9815177158
 20
19.4583447915
 11
-3.6704573162
 21
20.6165804171
  0
LINE
  5
27D
100
AcDbEntity
  8
PORTATASTO
100
AcDbLine
 62
253
  6
CONTINUOUS
 10
-5.8047434437
 20
19.1534542723
 11
-3.4936830441
 21
20.3116898979
  0
LINE
  5
27E
100
AcDbEntity
  8
PORTATASTO
100
AcDbLine
 62
7
  6
CONTINUOUS
 10
-0.5945452412
 20
22.6998770345
 11
-1.1062039285
 21
22.4440476909
  0
LINE
  5
27F
100
AcDbEntity
  8
ASSI
100
AcDbLine
 62
7
  6
CONTINUOUS
 10
-2.9279976192
 20
19.1338040018
 11
1.3100639179
 21
21.2359137676
  0
LINE
  5
280
100
AcDbEntity
  8
ASSI
100
AcDbLine
 62
7
  6
CONTINUOUS
 10
9.0395454177
 20
24.4807089984
 11
8.6685535923
 21
24.2991783155
  0
LINE
  5
281
100
AcDbEntity
  8
PORTATASTO
100
AcDbLine
 62
7
  6
CONTINUOUS
 10
4.3306487255
 20
21.7738027627
 11
-2.0789702678
 21
18.6559122791
  0
LINE
  5
282
100
AcDbEntity
  8
ASSI
100
AcDbLine
 62
7
  6
CONTINUOUS
 10
14.0549058443
 20
29.4218632468
 11
5.9108371457
 21
25.5239328083
  0
LINE
  5
283
100
AcDbEntity
  8
RACCORDO
100
AcDbLine
 62
7
  6
CONTINUOUS
 10
9.4266607761
 20
27.050738488
 11
14.1199282135
 21
29.2970395296
  0
LINE
  5
284
100
AcDbEntity
  8
PORTATASTO
100
AcDbLine
 62
7
  6
CONTINUOUS
 10
8.0846233998
 20
-27.5339373589
 11
7.9000808976
 21
-27.4416661078
  0
LINE
  5
285
100
AcDbEntity
  8
PORTATASTO
100
AcDbLine
 62
7
  6
CONTINUOUS
 10
6.6616321708
 20
-26.8224417443
 11
6.5984977201
 21
-26.790874519
  0
LINE
  5
286
100
AcDbEntity
  8
PORTATASTO
100
AcDbLine
 62
7
  6
CONTINUOUS
 10
9.8529574508
 20
-27.9741539692
 11
9.1421482333
 21
-27.6187493604
  0
LINE
  5
287
100
AcDbEntity
  8
0
100
AcDbLine
 62
253
  6
CONTINUOUS
 10
-9.6631538966
 20
-17.8605611055
 11
-16.0271149272
 21
-14.6785805902
  0
LINE
  5
288
100
AcDbEntity
  8
PORTATASTO
100
AcDbLine
 62
7
  6
CONTINUOUS
 10
-4.2044922616
 20
19.070273326
 11
-3.4936830441
 21
19.9219754984
  0
LINE
  5
289
100
AcDbEntity
  8
PORTATASTO
100
AcDbLine
 62
7
  6
CONTINUOUS
 10
-1.7929146147
 20
18.002266238
 11
-0.7359665975
 21
18.5431172751
  0
LINE
  5
28A
100
AcDbEntity
  8
DRAFT
100
AcDbLine
 62
7
  6
CONTINUOUS
 10
9.1041493327
 20
23.9886080244
 11
9.7614836894
 21
24.3172752028
  0
LINE
  5
28B
100
AcDbEntity
  8
PORTATASTO
100
AcDbLine
 62
7
  6
CONTINUOUS
 10
5.1917906041
 20
18.6983930343
 11
6.2836735662
 21
19.2443345153
  0
LINE
  5
28C
100
AcDbEntity
  8
PORTATASTO
100
AcDbLine
 62
7
  6
CONTINUOUS
 10
-0.1230196385
 20
18.2366437956
 11
4.4770869625
 21
20.5069886562
  0
LINE
  5
28D
100
AcDbEntity
  8
PORTATASTO
100
AcDbLine
 62
7
  6
CONTINUOUS
 10
4.1995343223
 20
19.0972087872
 11
4.5370365459
 21
19.2635380626
  0
LINE
  5
28E
100
AcDbEntity
  8
PORTATASTO
100
AcDbLine
 62
7
  6
CONTINUOUS
 10
7.3255485454
 20
20.2763528528
 11
5.1902337131
 21
19.2240179526
  0
LINE
  5
28F
100
AcDbEntity
  8
PORTATASTO
100
AcDbLine
 62
7
  6
CONTINUOUS
 10
-0.7359665975
 20
18.5431172751
 11
3.8880150364
 21
20.8015246193
  0
LINE
  5
290
100
AcDbEntity
  8
DRAFT
100
AcDbLine
 62
7
  6
CONTINUOUS
 10
20.5714149041
 20
25.707157057
 11
19.6994193788
 21
25.2898008158
  0
LINE
  5
291
100
AcDbEntity
  8
ASSI
100
AcDbLine
 62
253
  6
CONTINUOUS
 10
8.030739748
 20
19.8418093994
 11
8.7467650666
 21
20.1724936198
  0
LINE
  5
292
100
AcDbEntity
  8
ASSI
100
AcDbLine
 62
253
  6
CONTINUOUS
 10
8.037395622
 20
19.3808281027
 11
8.9514515495
 21
19.8029694208
  0
LINE
  5
293
100
AcDbEntity
  8
PORTATASTO
100
AcDbLine
 62
253
  6
CONTINUOUS
 10
-11.7029185949
 20
26.0029361642
 11
-11.7103682544
 21
27.0521600756
  0
LINE
  5
294
100
AcDbEntity
  8
PORTATASTO
100
AcDbLine
 62
7
  6
CONTINUOUS
 10
-11.2490474468
 20
27.3669597106
 11
-11.2546631893
 21
28.48672739
  0
LINE
  5
295
100
AcDbEntity
  8
PORTATASTO
100
AcDbLine
 62
253
  6
CONTINUOUS
 10
-11.3773373297
 20
28.483559192
 11
-11.3728660308
 21
27.218489351
  0
LINE
  5
296
100
AcDbEntity
  8
PORTATASTO
100
AcDbLine
 62
253
  6
CONTINUOUS
 10
-12.1966549536
 20
21.5581245871
 11
-12.1966549536
 21
22.677878264
  0
LINE
  5
297
100
AcDbEntity
  8
PORTATASTO
100
AcDbLine
 62
253
  6
CONTINUOUS
 10
-11.4914042116
 20
21.5797758271
 11
-11.4914042116
 21
22.8515110365
  0
LINE
  5
298
100
AcDbEntity
  8
PORTATASTO
100
AcDbLine
 62
7
  6
CONTINUOUS
 10
-11.1341387172
 20
21.7793597183
 11
-11.1341387172
 21
22.5350965538
  0
LINE
  5
299
100
AcDbEntity
  8
PORTATASTO
100
AcDbLine
 62
7
  6
CONTINUOUS
 10
-11.1267338446
 20
21.775657282
 11
-11.1267338446
 21
22.2148286023
  0
LINE
  5
29A
100
AcDbEntity
  8
PORTATASTO
100
AcDbLine
 62
253
  6
CONTINUOUS
 10
-10.2755873549
 20
25.9358812953
 11
-10.2714177369
 21
26.5231380499
  0
LINE
  5
29B
100
AcDbEntity
  8
ASSI
100
AcDbLine
 62
253
  6
CONTINUOUS
 10
-8.5250144967
 20
28.8214728518
 11
-8.5498115848
 21
28.4619424015
  0
LINE
  5
29C
100
AcDbEntity
  8
ASSI
100
AcDbLine
 62
7
  6
CONTINUOUS
 10
4.187190755
 20
18.0391621311
 11
2.7949872593
 21
16.7776403467
  0
LINE
  5
29D
100
AcDbEntity
  8
PORTATASTO
100
AcDbLine
 62
7
  6
CONTINUOUS
 10
4.4184983651
 20
14.8965597482
 11
5.486573077
 21
15.4318474379
  0
LINE
  5
29E
100
AcDbEntity
  8
0
100
AcDbLine
 62
7
  6
CONTINUOUS
 10
9.7999244422
 20
18.9382854424
 11
9.7418584238
 21
18.9092524332
  0
LINE
  5
29F
100
AcDbEntity
  8
PORTATASTO
100
AcDbLine
 62
7
  6
CONTINUOUS
 10
5.486573077
 20
15.4318474379
 11
10.062384268
 21
17.7143400034
  0
LINE
  5
2A0
100
AcDbEntity
  8
PORTATASTO
100
AcDbLine
 62
7
  6
CONTINUOUS
 10
4.873626118
 20
15.7383209174
 11
9.4733123419
 21
18.0088759665
  0
LINE
  5
2A1
100
AcDbEntity
  8
PORTATASTO
100
AcDbLine
 62
7
  6
CONTINUOUS
 10
10.2386730167
 20
17.4924999805
 11
11.5754210723
 21
18.1514165893
  0
LINE
  5
2A2
100
AcDbEntity
  8
ASSI
100
AcDbLine
 62
7
  6
CONTINUOUS
 10
9.0242323286
 20
19.2673267028
 11
8.5907549394
 21
19.0598548884
  0
LINE
  5
2A3
100
AcDbEntity
  8
ASSI
100
AcDbLine
 62
253
  6
CONTINUOUS
 10
9.0258091974
 20
19.1953371154
 11
8.6650883506
 21
19.0226881828
  0
LINE
  5
2A4
100
AcDbEntity
  8
DRAFT
100
AcDbLine
 62
7
  6
CONTINUOUS
 10
23.5885066753
 20
23.3452571676
 11
24.4605022006
 21
23.7626134088
  0
LINE
  5
2A5
100
AcDbEntity
  8
PORTATASTO
100
AcDbLine
 62
7
  6
CONTINUOUS
 10
-7.8751902844
 20
27.7137045437
 11
-7.8721913428
 21
27.2913280295
  0
LINE
  5
2A6
100
AcDbEntity
  8
PORTATASTO
100
AcDbLine
 62
7
  6
CONTINUOUS
 10
-10.0248980555
 20
21.1394571746
 11
-10.0248980555
 21
20.8894859653
  0
LINE
  5
2A7
100
AcDbEntity
  8
PORTATASTO
100
AcDbLine
 62
253
  6
CONTINUOUS
 10
-9.9516747508
 20
21.0510688269
 11
-9.9516747508
 21
20.8010976176
  0
LINE
  5
2A8
100
AcDbEntity
  8
PORTATASTO
100
AcDbLine
 62
7
  6
CONTINUOUS
 10
-9.3214937106
 20
20.3832752956
 11
-9.3214937106
 21
19.7994176937
  0
LINE
  5
2A9
100
AcDbEntity
  8
PORTATASTO
100
AcDbLine
 62
253
  6
CONTINUOUS
 10
-9.2482704059
 20
20.3466636433
 11
-9.2482704059
 21
19.7076856885
  0
LINE
  5
2AA
100
AcDbEntity
  8
PORTATASTO
100
AcDbLine
 62
253
  6
CONTINUOUS
 10
-8.7206308965
 20
20.1855756905
 11
-8.7206308965
 21
20.4355468998
  0
LINE
  5
2AB
100
AcDbEntity
  8
PORTATASTO
100
AcDbLine
 62
253
  6
CONTINUOUS
 10
-8.3680055255
 20
20.1851141039
 11
-8.3680055255
 21
20.4350853132
  0
LINE
  5
2AC
100
AcDbEntity
  8
PORTATASTO
100
AcDbLine
 62
253
  6
CONTINUOUS
 10
-8.0098216791
 20
19.0884613251
 11
-8.0098216791
 21
19.7872778629
  0
LINE
  5
2AD
100
AcDbEntity
  8
PORTATASTO
100
AcDbLine
 62
253
  6
CONTINUOUS
 10
-7.6571963081
 20
19.0992869451
 11
-7.6571963081
 21
19.7868162763
  0
LINE
  5
2AE
100
AcDbEntity
  8
PORTATASTO
100
AcDbLine
 62
7
  6
CONTINUOUS
 10
-7.4616359737
 20
19.8578261337
 11
-7.4616359737
 21
19.6078549244
  0
LINE
  5
2AF
100
AcDbEntity
  8
PORTATASTO
100
AcDbLine
 62
253
  6
CONTINUOUS
 10
-7.388412669
 20
19.769437786
 11
-7.388412669
 21
19.5194665767
  0
LINE
  5
2B0
100
AcDbEntity
  8
PORTATASTO
100
AcDbLine
 62
7
  6
CONTINUOUS
 10
-6.7582316288
 20
19.1016442547
 11
-6.7582316288
 21
18.5177866528
  0
LINE
  5
2B1
100
AcDbEntity
  8
ASSI
100
AcDbLine
 62
253
  6
CONTINUOUS
 10
4.2844915489
 20
18.0397547014
 11
2.9040326456
 21
16.7231176535
  0
LINE
  5
2B2
100
AcDbEntity
  8
PORTATASTO
100
AcDbLine
 62
7
  6
CONTINUOUS
 10
4.7757638595
 20
13.8244084299
 11
4.4184983651
 21
13.6248245387
  0
LINE
  5
2B3
100
AcDbEntity
  8
PORTATASTO
100
AcDbLine
 62
7
  6
CONTINUOUS
 10
15.5100207953
 20
15.8189904145
 11
9.2673370395
 21
12.5469561673
  0
LINE
  5
2B4
100
AcDbEntity
  8
PORTATASTO
100
AcDbLine
 62
7
  6
CONTINUOUS
 10
6.0211210626
 20
13.4070605039
 11
8.3084796216
 21
14.5775251139
  0
LINE
  5
2B5
100
AcDbEntity
  8
PORTATASTO
100
AcDbLine
 62
253
  6
CONTINUOUS
 10
6.1340789248
 20
13.4005464712
 11
8.4210637957
 21
14.5708198612
  0
LINE
  5
2B6
100
AcDbEntity
  8
PORTATASTO
100
AcDbLine
 62
253
  6
CONTINUOUS
 10
7.3651227791
 20
12.785024544
 11
9.6761831787
 21
13.9432601697
  0
LINE
  5
2B7
100
AcDbEntity
  8
PORTATASTO
100
AcDbLine
 62
253
  6
CONTINUOUS
 10
7.5418970512
 20
12.4801340249
 11
9.8529574508
 21
13.6383696505
  0
LINE
  5
2B8
100
AcDbEntity
  8
PORTATASTO
100
AcDbLine
 62
7
  6
CONTINUOUS
 10
14.5703208922
 20
16.6539666794
 11
9.409420692
 21
14.076641413
  0
LINE
  5
2B9
100
AcDbEntity
  8
PORTATASTO
100
AcDbLine
 62
7
  6
CONTINUOUS
 10
4.7831687321
 20
13.8207059937
 11
10.1146257309
 21
16.4763086368
  0
LINE
  5
2BA
100
AcDbEntity
  8
ASSI
100
AcDbLine
 62
7
  6
CONTINUOUS
 10
14.698087907
 20
17.1354654562
 11
14.3994226471
 21
16.9873252855
  0
LINE
  5
2BB
100
AcDbEntity
  8
ASSI
100
AcDbLine
 62
253
  6
CONTINUOUS
 10
14.8350950794
 20
17.1283286134
 11
14.4748170794
 21
16.9496280694
  0
LINE
  5
2BC
100
AcDbEntity
  8
PORTATASTO
100
AcDbLine
 62
253
  6
CONTINUOUS
 10
-6.6850083241
 20
19.0650326024
 11
-6.6850083241
 21
18.4260546476
  0
LINE
  5
2BD
100
AcDbEntity
  8
PORTATASTO
100
AcDbLine
 62
253
  6
CONTINUOUS
 10
-6.1573688147
 20
18.9039446496
 11
-6.1573688147
 21
19.1539158589
  0
LINE
  5
2BE
100
AcDbEntity
  8
PORTATASTO
100
AcDbLine
 62
7
  6
CONTINUOUS
 10
-6.0569451259
 20
21.5933209388
 11
-6.0569451259
 21
21.2036065393
  0
LINE
  5
2BF
100
AcDbEntity
  8
PORTATASTO
100
AcDbLine
 62
253
  6
CONTINUOUS
 10
-5.8047434437
 20
18.903483063
 11
-5.8047434437
 21
19.1534542723
  0
LINE
  5
2C0
100
AcDbEntity
  8
PORTATASTO
100
AcDbLine
 62
253
  6
CONTINUOUS
 10
-5.4465595973
 20
17.8068302842
 11
-5.4465595973
 21
18.505646822
  0
LINE
  5
2C1
100
AcDbEntity
  8
PORTATASTO
100
AcDbLine
 62
253
  6
CONTINUOUS
 10
-5.0939342263
 20
17.8176559042
 11
-5.0939342263
 21
18.5051852354
  0
LINE
  5
2C2
100
AcDbEntity
  8
ASSI
100
AcDbLine
 62
253
  6
CONTINUOUS
 10
-4.3422111815
 20
29.2071106404
 11
-4.3422111815
 21
30.0752172461
  0
LINE
  5
2C3
100
AcDbEntity
  8
PORTATASTO
100
AcDbLine
 62
7
  6
CONTINUOUS
 10
-4.2044922616
 20
19.070273326
 11
-4.2044922616
 21
18.3145364905
  0
LINE
  5
2C4
100
AcDbEntity
  8
PORTATASTO
100
AcDbLine
 62
7
  6
CONTINUOUS
 10
-3.4936830441
 20
20.3116898979
 11
-3.4936830441
 21
19.9219754984
  0
LINE
  5
2C5
100
AcDbEntity
  8
PORTATASTO
100
AcDbLine
 62
7
  6
CONTINUOUS
 10
-5.6730321326
 20
24.578212778
 11
-5.6707160879
 21
25.695058278
  0
LINE
  5
2C6
100
AcDbEntity
  8
ASSI
100
AcDbLine
 62
253
  6
CONTINUOUS
 10
-4.2888429531
 20
30.848997743
 11
-4.3422111815
 21
30.0752172461
  0
LINE
  5
2C7
100
AcDbEntity
  8
ASSI
100
AcDbLine
 62
253
  6
CONTINUOUS
 10
-1.8075001801
 20
25.4627156935
 11
-1.8322972249
 21
25.1031852215
  0
LINE
  5
2C8
100
AcDbEntity
  8
PORTATASTO
100
AcDbLine
 62
7
  6
CONTINUOUS
 10
4.7757638595
 20
14.5801452654
 11
5.486573077
 21
15.4318474379
  0
LINE
  5
2C9
100
AcDbEntity
  8
PORTATASTO
100
AcDbLine
 62
7
  6
CONTINUOUS
 10
9.1421482333
 20
11.641216243
 11
8.2527062686
 21
11.1443356568
  0
LINE
  5
2CA
100
AcDbEntity
  8
PORTATASTO
100
AcDbLine
 62
253
  6
CONTINUOUS
 10
9.1637974638
 20
11.6303916278
 11
8.0846233998
 21
11.0412387857
  0
LINE
  5
2CB
100
AcDbEntity
  8
PORTATASTO
100
AcDbLine
 62
253
  6
CONTINUOUS
 10
9.5170817297
 20
11.0205386012
 11
8.4379076658
 21
10.4313857591
  0
LINE
  5
2CC
100
AcDbEntity
  8
ASSI
100
AcDbLine
 62
253
  6
CONTINUOUS
 10
7.2547033671
 20
10.6006653722
 11
3.5077890836
 21
8.5884579036
  0
LINE
  5
2CD
100
AcDbEntity
  8
RACCORDO
100
AcDbLine
 62
253
  6
CONTINUOUS
 10
7.2547033671
 20
10.6006653722
 11
3.5077890836
 21
8.5884579036
  0
LINE
  5
2CE
100
AcDbEntity
  8
ASSI
100
AcDbLine
 62
253
  6
CONTINUOUS
 10
7.6078934205
 20
9.99105744
 11
3.8704699262
 21
7.9839468152
  0
LINE
  5
2CF
100
AcDbEntity
  8
RACCORDO
100
AcDbLine
 62
253
  6
CONTINUOUS
 10
7.6078934205
 20
9.99105744
 11
3.8704699262
 21
7.9839468152
  0
LINE
  5
2D0
100
AcDbEntity
  8
PORTATASTO
100
AcDbLine
 62
7
  6
CONTINUOUS
 10
15.5100207953
 20
15.4188631542
 11
9.4248061427
 21
12.2019556811
  0
LINE
  5
2D1
100
AcDbEntity
  8
ASSI
100
AcDbLine
 62
253
  6
CONTINUOUS
 10
25.7678358379
 20
17.2641291496
 11
10.5525001555
 21
9.5232847108
  0
LINE
  5
2D2
100
AcDbEntity
  8
PORTATASTO
100
AcDbLine
 62
253
  6
CONTINUOUS
 10
9.8644687803
 20
11.9821243623
 11
9.1635328265
 21
11.6305239464
  0
LINE
  5
2D3
100
AcDbEntity
  8
PORTATASTO
100
AcDbLine
 62
253
  6
CONTINUOUS
 10
10.2180176835
 20
11.3723518646
 11
9.5170817297
 21
11.0207514487
  0
LINE
  5
2D4
100
AcDbEntity
  8
PORTATASTO
100
AcDbLine
 62
7
  6
CONTINUOUS
 10
15.3153573354
 20
14.7449257462
 11
13.4613592723
 21
13.8179267146
  0
LINE
  5
2D5
100
AcDbEntity
  8
PORTATASTO
100
AcDbLine
 62
7
  6
CONTINUOUS
 10
10.2180176835
 20
10.0077965131
 11
10.25954385
 21
10.0285595963
  0
LINE
  5
2D6
100
AcDbEntity
  8
RACCORDO
100
AcDbLine
 62
253
  6
CONTINUOUS
 10
26.0727964817
 20
18.7276706353
 11
30.6841426312
 21
21.0149323208
  0
LINE
  5
2D7
100
AcDbEntity
  8
ASSI
100
AcDbLine
 62
7
  6
CONTINUOUS
 10
13.5871149927
 20
13.7550488544
 11
9.8982352745
 21
11.9631788974
  0
LINE
  5
2D8
100
AcDbEntity
  8
ASSI
100
AcDbLine
 62
253
  6
CONTINUOUS
 10
14.269694695
 20
12.5777730135
 11
23.1631657936
 21
16.8977684844
  0
LINE
  5
2D9
100
AcDbEntity
  8
ASSI
100
AcDbLine
 62
253
  6
CONTINUOUS
 10
14.6073630289
 20
11.9953812864
 11
23.6630896412
 21
16.3941922251
  0
LINE
  5
2DA
100
AcDbEntity
  8
ASSI
100
AcDbLine
 62
7
  6
CONTINUOUS
 10
23.5885066753
 20
16.522828813
 11
25.6391163408
 21
17.486137442
  0
LINE
  5
2DB
100
AcDbEntity
  8
PORTATASTO
100
AcDbLine
 62
7
  6
CONTINUOUS
 10
9.5170817297
 20
8.1195516903
 11
10.9189536373
 21
8.5274220095
  0
LINE
  5
2DC
100
AcDbEntity
  8
ASSI
100
AcDbLine
 62
7
  6
CONTINUOUS
 10
-2.9279976192
 20
19.1338040018
 11
-2.9279976192
 21
19.0804259548
  0
LINE
  5
2DD
100
AcDbEntity
  8
PORTATASTO
100
AcDbLine
 62
7
  6
CONTINUOUS
 10
-1.9375148778
 20
17.8183034356
 11
-1.9375148778
 21
16.5387571924
  0
LINE
  5
2DE
100
AcDbEntity
  8
PORTATASTO
100
AcDbLine
 62
253
  6
CONTINUOUS
 10
-1.7910682684
 20
17.4750849214
 11
-1.7910682684
 21
16.3553312445
  0
LINE
  5
2DF
100
AcDbEntity
  8
PORTATASTO
100
AcDbLine
 62
7
  6
CONTINUOUS
 10
-0.5945452412
 20
23.2709069242
 11
-0.5945452412
 21
22.6998770345
  0
LINE
  5
2E0
100
AcDbEntity
  8
PORTATASTO
100
AcDbLine
 62
253
  6
CONTINUOUS
 10
-0.3998817814
 20
23.7739417029
 11
-0.3998817814
 21
23.3738144426
  0
LINE
  5
2E1
100
AcDbEntity
  8
PORTATASTO
100
AcDbLine
 62
7
  6
CONTINUOUS
 10
-0.2595516816
 20
24.0709079766
 11
-0.2595516816
 21
23.5500804395
  0
LINE
  5
2E2
100
AcDbEntity
  8
ASSI
100
AcDbLine
 62
253
  6
CONTINUOUS
 10
-0.0995704944
 20
31.2468032988
 11
-0.0995704944
 21
32.1965375897
  0
LINE
  5
2E3
100
AcDbEntity
  8
ASSI
100
AcDbLine
 62
253
  6
CONTINUOUS
 10
-0.0526714096
 20
32.8765226342
 11
-0.0995704944
 21
32.1965375897
  0
LINE
  5
2E4
100
AcDbEntity
  8
PORTATASTO
100
AcDbLine
 62
7
  6
CONTINUOUS
 10
9.8529574508
 20
13.248655251
 11
9.1421482333
 21
12.3969530785
  0
LWPOLYLINE
  5
2E5
100
AcDbEntity
  8
ASSI
100
AcDbPolyline
 62
7
  6
CONTINUOUS
 90
7
 70
0
 10
14.7275780574
 20
17.1535755313
 10
14.7277451437
 20
17.1537454125
 10
14.726163521
 20
17.1524056099
 10
14.721637963
 20
17.1490490754
 10
14.7139071209
 20
17.1440699966
 10
14.7029399684
 20
17.1379343426
 10
14.6981247787
 20
17.1354831008
  0
LINE
  5
2E6
100
AcDbEntity
  8
PORTATASTO
100
AcDbLine
 62
7
  6
CONTINUOUS
 10
10.2180176835
 20
8.5270494539
 11
10.9189536373
 21
8.8912459474
  0
LINE
  5
2E7
100
AcDbEntity
  8
RACCORDO
100
AcDbLine
 62
7
  6
CONTINUOUS
 10
27.4729512193
 20
15.6032295909
 11
32.108250702
 21
18.0032261548
  0
LINE
  5
2E8
100
AcDbEntity
  8
ASSI
100
AcDbLine
 62
253
  6
CONTINUOUS
 10
26.1819863135
 20
15.8324955749
 11
10.9666506312
 21
8.0916511361
  0
LINE
  5
2E9
100
AcDbEntity
  8
ASSI
100
AcDbLine
 62
7
  6
CONTINUOUS
 10
32.1690836236
 20
17.877695214
 11
26.1819863135
 21
14.8429128629
  0
LINE
  5
2EA
100
AcDbEntity
  8
RACCORDO
100
AcDbLine
 62
253
  6
CONTINUOUS
 10
27.4777027498
 20
16.2843748913
 11
32.1042039174
 21
18.5791535774
  0
LINE
  5
2EB
100
AcDbEntity
  8
ASSI
100
AcDbLine
 62
7
  6
CONTINUOUS
 10
1.3100639179
 20
21.2359137676
 11
1.3100639179
 21
20.304471647
  0
LINE
  5
2EC
100
AcDbEntity
  8
ASSI
100
AcDbLine
 62
253
  6
CONTINUOUS
 10
2.3753032397
 20
26.3747289827
 11
2.3753032397
 21
26.7164600355
  0
LINE
  5
2ED
100
AcDbEntity
  8
PORTATASTO
100
AcDbLine
 62
253
  6
CONTINUOUS
 10
3.7132476231
 20
13.6031732987
 11
3.7132476231
 21
14.7229269757
  0
LINE
  5
2EE
100
AcDbEntity
  8
ASSI
100
AcDbLine
 62
253
  6
CONTINUOUS
 10
2.428671364
 20
27.4902405844
 11
2.3753032397
 21
26.7164600355
  0
LINE
  5
2EF
100
AcDbEntity
  8
PORTATASTO
100
AcDbLine
 62
253
  6
CONTINUOUS
 10
4.2069839818
 20
18.0479848758
 11
4.1995343223
 21
19.0972087872
  0
LINE
  5
2F0
100
AcDbEntity
  8
PORTATASTO
100
AcDbLine
 62
7
  6
CONTINUOUS
 10
4.6608551298
 20
19.4120084222
 11
4.6552393874
 21
20.5317761017
  0
LINE
  5
2F1
100
AcDbEntity
  8
PORTATASTO
100
AcDbLine
 62
253
  6
CONTINUOUS
 10
4.5370365459
 20
19.2635380626
 11
4.532565247
 21
20.5286079037
  0
LINE
  5
2F2
100
AcDbEntity
  8
PORTATASTO
100
AcDbLine
 62
253
  6
CONTINUOUS
 10
4.4184983651
 20
13.6248245387
 11
4.4184983651
 21
14.8965597482
  0
LINE
  5
2F3
100
AcDbEntity
  8
PORTATASTO
100
AcDbLine
 62
7
  6
CONTINUOUS
 10
4.7757638595
 20
13.8244084299
 11
4.7757638595
 21
14.5801452654
  0
LINE
  5
2F4
100
AcDbEntity
  8
PORTATASTO
100
AcDbLine
 62
7
  6
CONTINUOUS
 10
4.7831687321
 20
13.8207059937
 11
4.7831687321
 21
14.259877314
  0
LINE
  5
2F5
100
AcDbEntity
  8
PORTATASTO
100
AcDbLine
 62
7
  6
CONTINUOUS
 10
5.8850045212
 20
13.1845058862
 11
5.8850045212
 21
12.9345346769
  0
LINE
  5
2F6
100
AcDbEntity
  8
PORTATASTO
100
AcDbLine
 62
7
  6
CONTINUOUS
 10
5.8850045212
 20
-28.5382745432
 11
5.8850045212
 21
-28.7882457526
  0
LINE
  5
2F7
100
AcDbEntity
  8
PORTATASTO
100
AcDbLine
 62
253
  6
CONTINUOUS
 10
5.9582278259
 20
13.0961175386
 11
5.9582278259
 21
12.8461463293
  0
LINE
  5
2F8
100
AcDbEntity
  8
PORTATASTO
100
AcDbLine
 62
253
  6
CONTINUOUS
 10
5.9582278259
 20
-28.6266628909
 11
5.9582278259
 21
-28.8766341002
  0
LINE
  5
2F9
100
AcDbEntity
  8
PORTATASTO
100
AcDbLine
 62
7
  6
CONTINUOUS
 10
6.5884088661
 20
12.4283240073
 11
6.5884088661
 21
11.8444664053
  0
LINE
  5
2FA
100
AcDbEntity
  8
PORTATASTO
100
AcDbLine
 62
7
  6
CONTINUOUS
 10
6.5884088661
 20
-26.9925295948
 11
6.5884088661
 21
-27.4328699345
  0
LINE
  5
2FB
100
AcDbEntity
  8
ASSI
100
AcDbLine
 62
253
  6
CONTINUOUS
 10
6.6179439269
 20
28.4114591367
 11
6.6179439269
 21
28.837780379
  0
LINE
  5
2FC
100
AcDbEntity
  8
PORTATASTO
100
AcDbLine
 62
253
  6
CONTINUOUS
 10
6.6616321708
 20
12.3917123549
 11
6.6616321708
 21
11.7527344002
  0
LINE
  5
2FD
100
AcDbEntity
  8
PORTATASTO
100
AcDbLine
 62
253
  6
CONTINUOUS
 10
6.6616321708
 20
-26.8224417443
 11
6.6616321708
 21
-27.5212582821
  0
LINE
  5
2FE
100
AcDbEntity
  8
PORTATASTO
100
AcDbLine
 62
7
  6
CONTINUOUS
 10
6.7947206222
 20
-23.6233130157
 11
6.7947206222
 21
-22.8687894185
  0
LINE
  5
2FF
100
AcDbEntity
  8
PORTATASTO
100
AcDbLine
 62
253
  6
CONTINUOUS
 10
7.1892716802
 20
-29.4921560274
 11
7.1892716802
 21
-29.242184818
  0
LINE
  5
300
100
AcDbEntity
  8
PORTATASTO
100
AcDbLine
 62
253
  6
CONTINUOUS
 10
7.1892716802
 20
12.2306244021
 11
7.1892716802
 21
12.4805956115
  0
LINE
  5
301
100
AcDbEntity
  8
PORTATASTO
100
AcDbLine
 62
253
  6
CONTINUOUS
 10
7.5418970512
 20
-29.4926176139
 11
7.5418970512
 21
-29.2426464046
  0
LINE
  5
302
100
AcDbEntity
  8
PORTATASTO
100
AcDbLine
 62
253
  6
CONTINUOUS
 10
7.5418970512
 20
12.2301628155
 11
7.5418970512
 21
12.4801340249
  0
LINE
  5
303
100
AcDbEntity
  8
ASSI
100
AcDbLine
 62
7
  6
CONTINUOUS
 10
7.6078934205
 20
-6.615167216
 11
7.6078934205
 21
9.99105744
  0
LINE
  5
304
100
AcDbEntity
  8
RACCORDO
100
AcDbLine
 62
7
  6
CONTINUOUS
 10
7.6078934205
 20
-6.615167216
 11
7.6078934205
 21
9.99105744
  0
LINE
  5
305
100
AcDbEntity
  8
PORTATASTO
100
AcDbLine
 62
253
  6
CONTINUOUS
 10
5.6343152218
 20
17.9809300069
 11
5.6384848398
 21
18.5681867615
  0
LWPOLYLINE
  5
306
100
AcDbEntity
  8
PORTATASTO
100
AcDbPolyline
 62
7
  6
CONTINUOUS
 90
7
 70
0
 10
6.588408863
 20
-27.4328602005
 10
6.5874418205
 20
-27.457122648
 10
6.5844490256
 20
-27.4834596354
 10
6.5791975412
 20
-27.5120718199
 10
6.5715151242
 20
-27.5425203644
 10
6.5614113095
 20
-27.5739833217
 10
6.5590116983
 20
-27.5801174481
  0
LINE
  5
307
100
AcDbEntity
  8
ASSI
100
AcDbLine
 62
253
  6
CONTINUOUS
 10
6.6648429082
 20
29.5177654753
 11
6.6179439269
 21
28.837780379
  0
LINE
  5
308
100
AcDbEntity
  8
PORTATASTO
100
AcDbLine
 62
7
  6
CONTINUOUS
 10
9.5170817297
 20
8.1195516903
 11
10.9559804816
 21
8.5089085873
  0
LINE
  5
309
100
AcDbEntity
  8
ASSI
100
AcDbLine
 62
253
  6
CONTINUOUS
 10
2.4859903407
 20
6.8508140076
 11
-27.9061710235
 21
22.0468946898
  0
LINE
  5
30A
100
AcDbEntity
  8
RACCORDO
100
AcDbLine
 62
253
  6
CONTINUOUS
 10
2.4859903407
 20
6.8508140076
 11
-27.9061710235
 21
22.0468946898
  0
LINE
  5
30B
100
AcDbEntity
  8
PORTATASTO
100
AcDbLine
 62
7
  6
CONTINUOUS
 10
8.0347122923
 20
19.7587532553
 11
8.0377112339
 21
19.3363767411
  0
LINE
  5
30C
100
AcDbEntity
  8
PORTATASTO
100
AcDbLine
 62
253
  6
CONTINUOUS
 10
7.9000808976
 20
-28.1404826456
 11
7.9000808976
 21
-27.4416661078
  0
LINE
  5
30D
100
AcDbEntity
  8
PORTATASTO
100
AcDbLine
 62
253
  6
CONTINUOUS
 10
7.9000808976
 20
11.1335100368
 11
7.9000808976
 21
11.8323265746
  0
LINE
  5
30E
100
AcDbEntity
  8
PORTATASTO
100
AcDbLine
 62
253
  6
CONTINUOUS
 10
8.2527062686
 20
-28.1409442322
 11
8.2527062686
 21
-27.5652233308
  0
LINE
  5
30F
100
AcDbEntity
  8
PORTATASTO
100
AcDbLine
 62
253
  6
CONTINUOUS
 10
8.2527062686
 20
11.1443356568
 11
8.2527062686
 21
11.831864988
  0
LINE
  5
310
100
AcDbEntity
  8
PORTATASTO
100
AcDbLine
 62
7
  6
CONTINUOUS
 10
8.4379076658
 20
10.4313857591
 11
8.4379076658
 21
-27.2773685982
  0
LINE
  5
311
100
AcDbEntity
  8
ASSI
100
AcDbLine
 62
7
  6
CONTINUOUS
 10
8.6685535923
 20
24.5776424255
 11
8.6685535923
 21
24.145074585
  0
LINE
  5
312
100
AcDbEntity
  8
ASSI
100
AcDbLine
 62
253
  6
CONTINUOUS
 10
8.9514567429
 20
19.2324947066
 11
8.9514515495
 21
19.8029694208
  0
LINE
  5
313
100
AcDbEntity
  8
PORTATASTO
100
AcDbLine
 62
7
  6
CONTINUOUS
 10
9.1421482333
 20
12.3969530785
 11
9.1421482333
 21
11.641216243
  0
LINE
  5
314
100
AcDbEntity
  8
PORTATASTO
100
AcDbLine
 62
7
  6
CONTINUOUS
 10
9.1421482333
 20
-27.1983906774
 11
9.1421482333
 21
-27.8258561416
  0
LINE
  5
315
100
AcDbEntity
  8
ASSI
100
AcDbLine
 62
253
  6
CONTINUOUS
 10
9.3719825916
 20
19.0941903493
 11
9.3719632021
 21
19.7922402658
  0
LINE
  5
316
100
AcDbEntity
  8
PORTATASTO
100
AcDbLine
 62
7
  6
CONTINUOUS
 10
9.5170817297
 20
11.0207514487
 11
9.5170817297
 21
8.1195516903
  0
LINE
  5
317
100
AcDbEntity
  8
PORTATASTO
100
AcDbLine
 62
7
  6
CONTINUOUS
 10
9.5170817297
 20
-26.8245880082
 11
9.5170817297
 21
-23.9233882498
  0
LINE
  5
318
100
AcDbEntity
  8
PORTATASTO
100
AcDbLine
 62
7
  6
CONTINUOUS
 10
9.8529574508
 20
13.6383696505
 11
9.8529574508
 21
13.248655251
  0
LINE
  5
319
100
AcDbEntity
  8
PORTATASTO
100
AcDbLine
 62
7
  6
CONTINUOUS
 10
9.8529574508
 20
-27.9741539692
 11
9.8529574508
 21
-28.3638683687
  0
LINE
  5
31A
100
AcDbEntity
  8
PORTATASTO
100
AcDbLine
 62
7
  6
CONTINUOUS
 10
10.2180176835
 20
11.3723518646
 11
10.2180176835
 21
8.5270494539
  0
LINE
  5
31B
100
AcDbEntity
  8
PORTATASTO
100
AcDbLine
 62
7
  6
CONTINUOUS
 10
10.2180176835
 20
-23.6176084049
 11
10.2180176835
 21
-26.4629108155
  0
LINE
  5
31C
100
AcDbEntity
  8
PORTATASTO
100
AcDbLine
 62
7
  6
CONTINUOUS
 10
10.9189536373
 20
8.8912459474
 11
10.9189536373
 21
8.5274220095
  0
LINE
  5
31D
100
AcDbEntity
  8
PORTATASTO
100
AcDbLine
 62
7
  6
CONTINUOUS
 10
10.9189536373
 20
-22.9489539522
 11
10.9189536373
 21
-23.2685272898
  0
LINE
  5
31E
100
AcDbEntity
  8
PORTATASTO
100
AcDbLine
 62
7
  6
CONTINUOUS
 10
10.9559804816
 20
8.5089085873
 11
10.9559804816
 21
-22.923216774
  0
LINE
  5
31F
100
AcDbEntity
  8
ASSI
100
AcDbLine
 62
7
  6
CONTINUOUS
 10
10.9666506312
 20
8.0916511361
 11
10.9666506312
 21
-22.5166294723
  0
LINE
  5
320
100
AcDbEntity
  8
PORTATASTO
100
AcDbLine
 62
7
  6
CONTINUOUS
 10
10.2368704441
 20
16.6232614897
 11
10.2391864887
 21
17.7401069896
  0
LINE
  5
321
100
AcDbEntity
  8
RACCORDO
100
AcDbLine
 62
7
  6
CONTINUOUS
 10
9.0669504903
 20
26.4417152939
 11
9.0528342014
 21
24.453550889
  0
LINE
  5
322
100
AcDbEntity
  8
ASSI
100
AcDbLine
 62
7
  6
CONTINUOUS
 10
7.6078934205
 20
-6.615167216
 11
6.5450562131
 21
-27.8590583877
  0
LINE
  5
323
100
AcDbEntity
  8
RACCORDO
100
AcDbLine
 62
7
  6
CONTINUOUS
 10
7.6078934205
 20
-6.615167216
 11
6.5450562131
 21
-27.8590583877
  0
LINE
  5
324
100
AcDbEntity
  8
ASSI
100
AcDbLine
 62
253
  6
CONTINUOUS
 10
3.5077890836
 20
8.5884579036
 11
-26.9194358222
 21
23.8020703565
  0
LINE
  5
325
100
AcDbEntity
  8
RACCORDO
100
AcDbLine
 62
253
  6
CONTINUOUS
 10
3.5077890836
 20
8.5884579036
 11
-26.9194358222
 21
23.8020703565
  0
LINE
  5
326
100
AcDbEntity
  8
ASSI
100
AcDbLine
 62
253
  6
CONTINUOUS
 10
14.6119509293
 20
17.1722464022
 11
14.6119484559
 21
17.0927396534
  0
LINE
  5
327
100
AcDbEntity
  8
PORTATASTO
100
AcDbLine
 62
7
  6
CONTINUOUS
 10
7.8480965827
 20
11.9630588976
 11
7.3149896696
 21
12.0742822683
  0
LINE
  5
328
100
AcDbEntity
  8
PORTATASTO
100
AcDbLine
 62
253
  6
CONTINUOUS
 10
8.0750039643
 20
12.1189394449
 11
7.5418970512
 21
12.2301628155
  0
LINE
  5
329
100
AcDbEntity
  8
PORTATASTO
100
AcDbLine
 62
7
  6
CONTINUOUS
 10
10.9559804816
 20
8.5089085873
 11
10.9189536373
 21
8.5274220095
  0
LINE
  5
32A
100
AcDbEntity
  8
ASSI
100
AcDbLine
 62
7
  6
CONTINUOUS
 10
-23.3637469326
 20
25.9098905221
 11
7.2547033671
 21
10.6006653722
  0
LINE
  5
32B
100
AcDbEntity
  8
RACCORDO
100
AcDbLine
 62
7
  6
CONTINUOUS
 10
-23.3637469326
 20
25.9098905221
 11
7.2547033671
 21
10.6006653722
  0
LINE
  5
32C
100
AcDbEntity
  8
PORTATASTO
100
AcDbLine
 62
7
  6
CONTINUOUS
 10
8.0846233998
 20
11.0412387857
 11
7.9000808976
 21
11.1335100368
  0
LINE
  5
32D
100
AcDbEntity
  8
PORTATASTO
100
AcDbLine
 62
7
  6
CONTINUOUS
 10
6.6616321708
 20
11.7527344002
 11
-5.4465595973
 21
17.8068302842
  0
LINE
  5
32E
100
AcDbEntity
  8
PORTATASTO
100
AcDbLine
 62
7
  6
CONTINUOUS
 10
-6.6850083241
 20
18.4260546476
 11
-8.0098216791
 21
19.0884613251
  0
LINE
  5
32F
100
AcDbEntity
  8
PORTATASTO
100
AcDbLine
 62
7
  6
CONTINUOUS
 10
-9.2482704059
 20
19.7076856885
 11
-21.356462174
 21
25.7617815726
  0
LINE
  5
330
100
AcDbEntity
  8
PORTATASTO
100
AcDbLine
 62
7
  6
CONTINUOUS
 10
-22.5949109008
 20
26.381005936
 11
-22.779453403
 21
26.4732771871
  0
LINE
  5
331
100
AcDbEntity
  8
PORTATASTO
100
AcDbLine
 62
7
  6
CONTINUOUS
 10
10.2180176835
 20
10.0493226795
 11
10.25954385
 21
10.0285595963
  0
LINE
  5
332
100
AcDbEntity
  8
PORTATASTO
100
AcDbLine
 62
7
  6
CONTINUOUS
 10
3.7132476231
 20
13.6031732987
 11
-1.7910682684
 21
16.3553312445
  0
LINE
  5
333
100
AcDbEntity
  8
PORTATASTO
100
AcDbLine
 62
7
  6
CONTINUOUS
 10
-12.1966549536
 20
21.5581245871
 11
-17.700970845
 21
24.3102825328
  0
LINE
  5
334
100
AcDbEntity
  8
PORTATASTO
100
AcDbLine
 62
7
  6
CONTINUOUS
 10
-23.2333419493
 20
27.339199415
 11
-22.002298095
 21
26.7236774878
  0
LINE
  5
335
100
AcDbEntity
  8
PORTATASTO
100
AcDbLine
 62
7
  6
CONTINUOUS
 10
-9.8867014544
 20
20.6658791675
 11
-8.6556576001
 21
20.0503572404
  0
LINE
  5
336
100
AcDbEntity
  8
PORTATASTO
100
AcDbLine
 62
7
  6
CONTINUOUS
 10
-7.3234393726
 20
19.3842481266
 11
-6.0923955183
 21
18.7687261995
  0
LINE
  5
337
100
AcDbEntity
  8
PORTATASTO
100
AcDbLine
 62
7
  6
CONTINUOUS
 10
6.0232011223
 20
12.7109278792
 11
7.2542449766
 21
12.095405952
  0
LINE
  5
338
100
AcDbEntity
  8
PORTATASTO
100
AcDbLine
 62
253
  6
CONTINUOUS
 10
-21.7679242169
 20
26.6663291318
 11
-21.356462174
 21
26.4605981104
  0
LINE
  5
339
100
AcDbEntity
  8
PORTATASTO
100
AcDbLine
 62
253
  6
CONTINUOUS
 10
-8.421283722
 20
19.9930088844
 11
-8.0098216791
 21
19.7872778629
  0
LINE
  5
33A
100
AcDbEntity
  8
PORTATASTO
100
AcDbLine
 62
253
  6
CONTINUOUS
 10
-5.8580216402
 20
18.7113778435
 11
-5.4465595973
 21
18.505646822
  0
LINE
  5
33B
100
AcDbEntity
  8
PORTATASTO
100
AcDbLine
 62
253
  6
CONTINUOUS
 10
7.4886188547
 20
12.038057596
 11
7.9000808976
 21
11.8323265746
  0
LINE
  5
33C
100
AcDbEntity
  8
PORTATASTO
100
AcDbLine
 62
253
  6
CONTINUOUS
 10
-23.2983152457
 20
27.4744178651
 11
-22.0672713914
 21
26.8588959379
  0
LINE
  5
33D
100
AcDbEntity
  8
PORTATASTO
100
AcDbLine
 62
253
  6
CONTINUOUS
 10
-9.9516747508
 20
20.8010976176
 11
-8.7206308965
 21
20.1855756905
  0
LINE
  5
33E
100
AcDbEntity
  8
PORTATASTO
100
AcDbLine
 62
253
  6
CONTINUOUS
 10
-7.388412669
 20
19.5194665767
 11
-6.1573688147
 21
18.9039446496
  0
LINE
  5
33F
100
AcDbEntity
  8
PORTATASTO
100
AcDbLine
 62
253
  6
CONTINUOUS
 10
5.9582278259
 20
12.8461463293
 11
7.1892716802
 21
12.2306244021
  0
LINE
  5
340
100
AcDbEntity
  8
PORTATASTO
100
AcDbLine
 62
253
  6
CONTINUOUS
 10
7.1892716802
 20
12.4805956115
 11
5.9582278259
 21
13.0961175386
  0
LINE
  5
341
100
AcDbEntity
  8
PORTATASTO
100
AcDbLine
 62
253
  6
CONTINUOUS
 10
-6.1573688147
 20
19.1539158589
 11
-7.388412669
 21
19.769437786
  0
LINE
  5
342
100
AcDbEntity
  8
PORTATASTO
100
AcDbLine
 62
253
  6
CONTINUOUS
 10
-8.7206308965
 20
20.4355468998
 11
-9.9516747508
 21
21.0510688269
  0
LINE
  5
343
100
AcDbEntity
  8
PORTATASTO
100
AcDbLine
 62
253
  6
CONTINUOUS
 10
-22.0672713914
 20
27.1088671473
 11
-23.2983152457
 21
27.7243890744
  0
LINE
  5
344
100
AcDbEntity
  8
PORTATASTO
100
AcDbLine
 62
7
  6
CONTINUOUS
 10
-20.1143948383
 20
26.2694877788
 11
-17.8474174545
 21
25.1359990869
  0
LINE
  5
345
100
AcDbEntity
  8
PORTATASTO
100
AcDbLine
 62
7
  6
CONTINUOUS
 10
-11.1341387172
 20
21.7793597183
 11
-10.0117714636
 21
21.2181760915
  0
LINE
  5
346
100
AcDbEntity
  8
PORTATASTO
100
AcDbLine
 62
7
  6
CONTINUOUS
 10
-4.2044922616
 20
18.3145364905
 11
-1.9375148778
 21
17.1810477986
  0
LINE
  5
347
100
AcDbEntity
  8
PORTATASTO
100
AcDbLine
 62
7
  6
CONTINUOUS
 10
4.7757638595
 20
13.8244084299
 11
5.898131113
 21
13.2632248032
  0
LINE
  5
348
100
AcDbEntity
  8
PORTATASTO
100
AcDbLine
 62
7
  6
CONTINUOUS
 10
9.1421482333
 20
11.641216243
 11
9.1637974638
 21
11.6303916278
  0
LINE
  5
349
100
AcDbEntity
  8
PORTATASTO
100
AcDbLine
 62
253
  6
CONTINUOUS
 10
7.3651227791
 20
12.785024544
 11
6.1340789248
 21
13.4005464712
  0
LINE
  5
34A
100
AcDbEntity
  8
PORTATASTO
100
AcDbLine
 62
253
  6
CONTINUOUS
 10
-5.9815177158
 20
19.4583447915
 11
-7.2125615701
 21
20.0738667186
  0
LINE
  5
34B
100
AcDbEntity
  8
PORTATASTO
100
AcDbLine
 62
253
  6
CONTINUOUS
 10
-8.5447797976
 20
20.7399758324
 11
-9.7758236519
 21
21.3554977595
  0
LINE
  5
34C
100
AcDbEntity
  8
PORTATASTO
100
AcDbLine
 62
253
  6
CONTINUOUS
 10
-21.8914202925
 20
27.4132960798
 11
-23.1224641468
 21
28.028818007
  0
LINE
  5
34D
100
AcDbEntity
  8
PORTATASTO
100
AcDbLine
 62
253
  6
CONTINUOUS
 10
3.7132476231
 20
14.7229269757
 11
-1.7910682684
 21
17.4750849214
  0
LINE
  5
34E
100
AcDbEntity
  8
PORTATASTO
100
AcDbLine
 62
253
  6
CONTINUOUS
 10
-12.1966549536
 20
22.677878264
 11
-17.700970845
 21
25.4300362097
  0
LINE
  5
34F
100
AcDbEntity
  8
PORTATASTO
100
AcDbLine
 62
7
  6
CONTINUOUS
 10
10.25954385
 20
10.0285595963
 11
10.9189536373
 21
8.8912459474
  0
LINE
  5
350
100
AcDbEntity
  8
ASSI
100
AcDbLine
 62
7
  6
CONTINUOUS
 10
10.2180176835
 20
10.1001816389
 11
10.5525001555
 21
9.5232847108
  0
LINE
  5
351
100
AcDbEntity
  8
PORTATASTO
100
AcDbLine
 62
7
  6
CONTINUOUS
 10
15.3153573354
 20
15.3159556358
 11
15.3153573354
 21
14.7449257462
  0
LINE
  5
352
100
AcDbEntity
  8
PORTATASTO
100
AcDbLine
 62
253
  6
CONTINUOUS
 10
15.5100207953
 20
-21.3399693574
 11
15.5100207953
 21
-20.9612790928
  0
LINE
  5
353
100
AcDbEntity
  8
PORTATASTO
100
AcDbLine
 62
253
  6
CONTINUOUS
 10
15.5100207953
 20
15.4188631542
 11
15.5100207953
 21
15.8189904145
  0
LINE
  5
354
100
AcDbEntity
  8
PORTATASTO
100
AcDbLine
 62
7
  6
CONTINUOUS
 10
15.6503508951
 20
-21.2896071964
 11
15.6503508951
 21
-20.8870702244
  0
LINE
  5
355
100
AcDbEntity
  8
PORTATASTO
100
AcDbLine
 62
7
  6
CONTINUOUS
 10
15.6503508951
 20
15.5951291511
 11
15.6503508951
 21
16.1159574388
  0
LINE
  5
356
100
AcDbEntity
  8
PORTATASTO
100
AcDbLine
 62
7
  6
CONTINUOUS
 10
-5.4985439122
 20
18.6363791451
 11
-6.0316508253
 21
18.7476025157
  0
LINE
  5
357
100
AcDbEntity
  8
PORTATASTO
100
AcDbLine
 62
253
  6
CONTINUOUS
 10
-5.2716365306
 20
18.7922596923
 11
-5.8047434437
 21
18.903483063
  0
LINE
  5
358
100
AcDbEntity
  8
PORTATASTO
100
AcDbLine
 62
7
  6
CONTINUOUS
 10
-8.061805994
 20
19.918010186
 11
-8.5949129071
 21
20.0292335566
  0
LINE
  5
359
100
AcDbEntity
  8
PORTATASTO
100
AcDbLine
 62
253
  6
CONTINUOUS
 10
-7.8348986124
 20
20.0738907332
 11
-8.3680055255
 21
20.1851141039
  0
LINE
  5
35A
100
AcDbEntity
  8
PORTATASTO
100
AcDbLine
 62
253
  6
CONTINUOUS
 10
4.1362143394
 20
14.8253272032
 11
-1.9326732264
 21
17.859770986
  0
LINE
  5
35B
100
AcDbEntity
  8
PORTATASTO
100
AcDbLine
 62
253
  6
CONTINUOUS
 10
-11.7736882373
 20
22.7802784915
 11
-17.8425758031
 21
25.8147222744
  0
LINE
  5
35C
100
AcDbEntity
  8
PORTATASTO
100
AcDbLine
 62
7
  6
CONTINUOUS
 10
9.8644687803
 20
11.9821243623
 11
9.1421482333
 21
12.3432846358
  0
LINE
  5
35D
100
AcDbEntity
  8
PORTATASTO
100
AcDbLine
 62
7
  6
CONTINUOUS
 10
-18.7005926665
 20
26.2646550857
 11
-20.1143948383
 21
26.9715561716
  0
LINE
  5
35E
100
AcDbEntity
  8
PORTATASTO
100
AcDbLine
 62
7
  6
CONTINUOUS
 10
4.8464249674
 20
14.5448147115
 11
4.7757638595
 21
14.5801452654
  0
LINE
  5
35F
100
AcDbEntity
  8
PORTATASTO
100
AcDbLine
 62
7
  6
CONTINUOUS
 10
-11.0634776093
 20
22.4997659998
 11
-11.1341387172
 21
22.5350965538
  0
LINE
  5
360
100
AcDbEntity
  8
PORTATASTO
100
AcDbLine
 62
7
  6
CONTINUOUS
 10
-2.0789702678
 20
18.6559122791
 11
-3.8226795932
 21
19.5277669418
  0
LINE
  5
361
100
AcDbEntity
  8
PORTATASTO
100
AcDbLine
 62
7
  6
CONTINUOUS
 10
-6.1405890446
 20
20.6867216675
 11
-6.385941675
 21
20.8093979827
  0
LINE
  5
362
100
AcDbEntity
  8
ASSI
100
AcDbLine
 62
7
  6
CONTINUOUS
 10
-6.354509818
 20
20.8470601012
 11
-6.087828828
 21
20.7137196063
  0
LINE
  5
363
100
AcDbEntity
  8
ASSI
100
AcDbLine
 62
7
  6
CONTINUOUS
 10
-3.7912477361
 20
19.5654290603
 11
-2.9279976192
 21
19.1338040018
  0
LINE
  5
364
100
AcDbEntity
  8
PORTATASTO
100
AcDbLine
 62
7
  6
CONTINUOUS
 10
5.486573077
 20
15.4318474379
 11
-0.7359665975
 21
18.5431172751
  0
LINE
  5
365
100
AcDbEntity
  8
PORTATASTO
100
AcDbLine
 62
7
  6
CONTINUOUS
 10
-10.4233294997
 20
23.3867987262
 11
-16.6458691742
 21
26.4980685634
  0
LINE
  5
366
100
AcDbEntity
  8
PORTATASTO
100
AcDbLine
 62
7
  6
CONTINUOUS
 10
-20.8354792759
 20
29.199091397
 11
-19.5803598929
 21
28.5715317055
  0
LINE
  5
367
100
AcDbEntity
  8
PORTATASTO
100
AcDbLine
 62
7
  6
CONTINUOUS
 10
-4.9255766992
 20
21.2441401086
 11
-3.6704573162
 21
20.6165804171
  0
LINE
  5
368
100
AcDbEntity
  8
PORTATASTO
100
AcDbLine
 62
7
  6
CONTINUOUS
 10
9.6761831787
 20
13.9432601697
 11
8.4210637957
 21
14.5708198612
  0
LINE
  5
369
100
AcDbEntity
  8
PORTATASTO
100
AcDbLine
 62
7
  6
CONTINUOUS
 10
-6.233719398
 20
21.898211458
 11
-7.488838781
 21
22.5257711495
  0
LINE
  5
36A
100
AcDbEntity
  8
ASSI
100
AcDbLine
 62
7
  6
CONTINUOUS
 10
4.2844915489
 20
18.0397547014
 11
6.8933530358
 21
16.735323958
  0
LINE
  5
36B
100
AcDbEntity
  8
ASSI
100
AcDbLine
 62
7
  6
CONTINUOUS
 10
-9.0165495409
 20
24.6902752463
 11
-11.6254110278
 21
25.9947059898
  0
LINE
  5
36C
100
AcDbEntity
  8
ASSI
100
AcDbLine
 62
7
  6
CONTINUOUS
 10
13.5871149927
 20
13.7550488544
 11
12.9578558191
 21
14.0696784412
  0
LINE
  5
36D
100
AcDbEntity
  8
DRAFT
100
AcDbLine
 62
7
  6
CONTINUOUS
 10
20.5775390795
 20
24.8507409655
 11
20.5714149041
 21
25.707157057
  0
LINE
  5
36E
100
AcDbEntity
  8
PORTATASTO
100
AcDbLine
 62
7
  6
CONTINUOUS
 10
8.0377112339
 20
19.3363767411
 11
6.2836735662
 21
19.2443345153
  0
LINE
  5
36F
100
AcDbEntity
  8
DRAFT
100
AcDbLine
 62
7
  6
CONTINUOUS
 10
21.6933838832
 20
17.6326594396
 11
21.7189928322
 21
17.6273556526
  0
LINE
  5
370
100
AcDbEntity
  8
DRAFT
100
AcDbLine
 62
7
  6
CONTINUOUS
 10
20.1377489646
 20
18.4104768989
 11
20.1633579136
 21
18.4051731119
  0
LINE
  5
371
100
AcDbEntity
  8
PORTATASTO
100
AcDbLine
 62
7
  6
CONTINUOUS
 10
-21.4084464889
 20
26.5913304334
 11
-21.941553402
 21
26.7025538041
  0
LINE
  5
372
100
AcDbEntity
  8
PORTATASTO
100
AcDbLine
 62
253
  6
CONTINUOUS
 10
-21.1815391073
 20
26.7472109807
 11
-21.7146460204
 21
26.8584343513
  0
LINE
  5
373
100
AcDbEntity
  8
ASSI
100
AcDbLine
 62
253
  6
CONTINUOUS
 10
7.4626634907
 20
17.0163541555
 11
5.4158623988
 21
18.0397547014
  0
LINE
  5
374
100
AcDbEntity
  8
ASSI
100
AcDbLine
 62
253
  6
CONTINUOUS
 10
-8.447239086
 20
24.9713054438
 11
-10.4940401779
 21
25.9947059898
  0
LINE
  5
375
100
AcDbEntity
  8
ASSI
100
AcDbLine
 62
7
  6
CONTINUOUS
 10
7.5133881924
 20
17.0413935216
 11
5.5053049988
 21
18.0454351184
  0
LINE
  5
376
100
AcDbEntity
  8
ASSI
100
AcDbLine
 62
7
  6
CONTINUOUS
 10
-8.3965143843
 20
24.99634481
 11
-10.4045975779
 21
26.0003864068
  0
LINE
  5
377
100
AcDbEntity
  8
PORTATASTO
100
AcDbLine
 62
7
  6
CONTINUOUS
 10
-10.2714177369
 20
26.5231380499
 11
-7.8033961973
 21
25.28912728
  0
LINE
  5
378
100
AcDbEntity
  8
PORTATASTO
100
AcDbLine
 62
7
  6
CONTINUOUS
 10
5.6384848398
 20
18.5681867615
 11
8.1065063794
 21
17.3341759917
  0
LINE
  5
379
100
AcDbEntity
  8
ASSI
100
AcDbLine
 62
7
  6
CONTINUOUS
 10
-2.4284437223
 20
23.1051675878
 11
1.3100639179
 21
21.2359137676
  0
LINE
  5
37A
100
AcDbEntity
  8
PORTATASTO
100
AcDbLine
 62
7
  6
CONTINUOUS
 10
-9.6262290105
 20
27.1992858037
 11
-6.7982539328
 21
25.7852982649
  0
LINE
  5
37B
100
AcDbEntity
  8
PORTATASTO
100
AcDbLine
 62
7
  6
CONTINUOUS
 10
6.2836735662
 20
19.2443345153
 11
9.1116486439
 21
17.8303469765
  0
LINE
  5
37C
100
AcDbEntity
  8
PORTATASTO
100
AcDbLine
 62
7
  6
CONTINUOUS
 10
10.062384268
 20
17.7143400034
 11
9.4733123419
 21
18.0088759665
  0
LINE
  5
37D
100
AcDbEntity
  8
PORTATASTO
100
AcDbLine
 62
7
  6
CONTINUOUS
 10
4.4770869625
 20
20.5069886562
 11
3.8880150364
 21
20.8015246193
  0
LINE
  5
37E
100
AcDbEntity
  8
PORTATASTO
100
AcDbLine
 62
7
  6
CONTINUOUS
 10
-5.8475183086
 20
25.6692912918
 11
-6.4365902348
 21
25.9638272548
  0
LINE
  5
37F
100
AcDbEntity
  8
PORTATASTO
100
AcDbLine
 62
7
  6
CONTINUOUS
 10
-11.4328156142
 20
28.4619399446
 11
-12.0218875403
 21
28.7564759076
  0
LINE
  5
380
100
AcDbEntity
  8
PORTATASTO
100
AcDbLine
 62
7
  6
CONTINUOUS
 10
10.2312625075
 20
17.7522265838
 11
9.7432536493
 21
17.9962310129
  0
LINE
  5
381
100
AcDbEntity
  8
PORTATASTO
100
AcDbLine
 62
7
  6
CONTINUOUS
 10
4.6469543168
 20
20.5443806791
 11
4.1589455177
 21
20.7883850787
  0
LINE
  5
382
100
AcDbEntity
  8
PORTATASTO
100
AcDbLine
 62
7
  6
CONTINUOUS
 10
-5.678639864
 20
25.7071777695
 11
-6.1666486631
 21
25.9511821691
  0
LINE
  5
383
100
AcDbEntity
  8
PORTATASTO
100
AcDbLine
 62
7
  6
CONTINUOUS
 10
-11.2629479956
 20
28.4993318353
 11
-11.7509568538
 21
28.7433362644
  0
LINE
  5
384
100
AcDbEntity
  8
PORTATASTO
100
AcDbLine
 62
7
  6
CONTINUOUS
 10
10.9873658465
 20
17.8615494348
 11
8.0377112339
 21
19.3363767411
  0
LINE
  5
385
100
AcDbEntity
  8
PORTATASTO
100
AcDbLine
 62
7
  6
CONTINUOUS
 10
-4.9225367302
 20
25.8165007232
 11
-7.8721913428
 21
27.2913280295
  0
LINE
  5
386
100
AcDbEntity
  8
ASSI
100
AcDbLine
 62
7
  6
CONTINUOUS
 10
-7.8743734331
 20
27.5986576847
 11
-4.6141160608
 21
25.9685289986
  0
LINE
  5
387
100
AcDbEntity
  8
ASSI
100
AcDbLine
 62
253
  6
CONTINUOUS
 10
11.3428905201
 20
18.0367964541
 11
9.0258091974
 21
19.1953371154
  0
LINE
  5
388
100
AcDbEntity
  8
ASSI
100
AcDbLine
 62
7
  6
CONTINUOUS
 10
11.4153430487
 20
18.0725101207
 11
9.0257237397
 21
19.2673197752
  0
LINE
  5
389
100
AcDbEntity
  8
0
100
AcDbLine
 62
7
  6
CONTINUOUS
 10
11.4738228082
 20
18.1013362594
 11
9.7999244422
 21
18.9382854424
  0
LINE
  5
38A
100
AcDbEntity
  8
PORTATASTO
100
AcDbLine
 62
253
  6
CONTINUOUS
 10
-11.5792538511
 20
29.7287540511
 11
-8.5843540312
 21
28.2313041411
  0
LINE
  5
38B
100
AcDbEntity
  8
PORTATASTO
100
AcDbLine
 62
253
  6
CONTINUOUS
 10
-4.3344815044
 20
26.1063678777
 11
-1.3395816845
 21
24.6089179677
  0
LINE
  5
38C
100
AcDbEntity
  8
PORTATASTO
100
AcDbLine
 62
253
  6
CONTINUOUS
 10
4.3306487255
 20
21.7738027627
 11
7.3255485454
 21
20.2763528528
  0
LINE
  5
38D
100
AcDbEntity
  8
PORTATASTO
100
AcDbLine
 62
253
  6
CONTINUOUS
 10
11.5754210723
 20
18.1514165893
 11
14.5703208922
 21
16.6539666794
  0
LINE
  5
38E
100
AcDbEntity
  8
PORTATASTO
100
AcDbLine
 62
7
  6
CONTINUOUS
 10
-11.2905286417
 20
29.8323009299
 11
-8.1398620813
 21
28.2569676497
  0
LINE
  5
38F
100
AcDbEntity
  8
PORTATASTO
100
AcDbLine
 62
7
  6
CONTINUOUS
 10
-3.8927737779
 20
26.133423498
 11
-0.7421072175
 21
24.5580902178
  0
LINE
  5
390
100
AcDbEntity
  8
PORTATASTO
100
AcDbLine
 62
7
  6
CONTINUOUS
 10
4.619373935
 20
21.8773496416
 11
7.7700404954
 21
20.3020163614
  0
LINE
  5
391
100
AcDbEntity
  8
PORTATASTO
100
AcDbLine
 62
7
  6
CONTINUOUS
 10
12.0171287988
 20
18.1784722097
 11
15.1677953592
 21
16.6031389294
  0
LINE
  5
392
100
AcDbEntity
  8
ASSI
100
AcDbLine
 62
253
  6
CONTINUOUS
 10
9.3719632021
 20
19.7922402658
 11
14.6119509293
 21
17.1722464022
  0
LINE
  5
393
100
AcDbEntity
  8
ASSI
100
AcDbLine
 62
7
  6
CONTINUOUS
 10
-8.5250144967
 20
28.8214728518
 11
-1.8075001801
 21
25.4627156935
  0
LINE
  5
394
100
AcDbEntity
  8
ASSI
100
AcDbLine
 62
7
  6
CONTINUOUS
 10
14.6073630289
 20
11.9953812864
 11
13.5871149927
 21
13.7550488544
  0
LINE
  5
395
100
AcDbEntity
  8
ASSI
100
AcDbLine
 62
7
  6
CONTINUOUS
 10
23.5885066753
 20
16.522828813
 11
23.5885066753
 21
16.5108690446
  0
LINE
  5
396
100
AcDbEntity
  8
PORTATASTO
100
AcDbLine
 62
7
  6
CONTINUOUS
 10
6.0094712353
 20
-28.2973230836
 11
5.9419060864
 21
-28.3794885411
  0
LINE
  5
397
100
AcDbEntity
  8
PORTATASTO
100
AcDbLine
 62
253
  6
CONTINUOUS
 10
6.5741694322
 20
-27.7534152605
 11
6.5487979273
 21
-27.7842693523
  0
LINE
  5
398
100
AcDbEntity
  8
PORTATASTO
100
AcDbLine
 62
253
  6
CONTINUOUS
 10
6.1870697357
 20
-28.2241642214
 11
6.0466161735
 21
-28.3949687171
  0
LINE
  5
399
100
AcDbEntity
  8
PORTATASTO
100
AcDbLine
 62
253
  6
CONTINUOUS
 10
7.2776600278
 20
-29.0104906442
 11
7.8107669409
 21
-28.3717140149
  0
LINE
  5
39A
100
AcDbEntity
  8
PORTATASTO
100
AcDbLine
 62
253
  6
CONTINUOUS
 10
7.5418970512
 20
-29.2426464046
 11
8.0750039643
 21
-28.6038697753
  0
LINE
  5
39B
100
AcDbEntity
  8
PORTATASTO
100
AcDbLine
 62
7
  6
CONTINUOUS
 10
10.9189536373
 20
-23.2685272898
 11
10.25954385
 21
-23.7464311513
  0
LINE
  5
39C
100
AcDbEntity
  8
ASSI
100
AcDbLine
 62
7
  6
CONTINUOUS
 10
10.5525001555
 20
-23.5341125713
 11
10.2180176835
 21
-23.7765270275
  0
LINE
  5
39D
100
AcDbEntity
  8
PORTATASTO
100
AcDbLine
 62
7
  6
CONTINUOUS
 10
10.9559804816
 20
-22.923216774
 11
9.5170817297
 21
-23.9233882498
  0
LINE
  5
39E
100
AcDbEntity
  8
ASSI
100
AcDbLine
 62
253
  6
CONTINUOUS
 10
10.9666506312
 20
-22.5166294723
 11
32.1690836236
 21
-11.3476642659
  0
LINE
  5
39F
100
AcDbEntity
  8
PORTATASTO
100
AcDbLine
 62
7
  6
CONTINUOUS
 10
10.2180176835
 20
-23.6176084049
 11
10.9189536373
 21
-23.2685272898
  0
LINE
  5
3A0
100
AcDbEntity
  8
PORTATASTO
100
AcDbLine
 62
253
  6
CONTINUOUS
 10
6.7561155542
 20
-23.6404239242
 11
6.7947206222
 21
-23.6233130157
  0
LINE
  5
3A1
100
AcDbEntity
  8
DRAFT
100
AcDbLine
 62
7
  6
CONTINUOUS
 10
13.7737879339
 20
21.5924574142
 11
13.799396883
 21
21.5871536272
  0
LINE
  5
3A2
100
AcDbEntity
  8
DRAFT
100
AcDbLine
 62
7
  6
CONTINUOUS
 10
12.2181530153
 20
22.3702748735
 11
12.2437619643
 21
22.3649710865
  0
LINE
  5
3A3
100
AcDbEntity
  8
0
100
AcDbLine
 62
7
  6
CONTINUOUS
 10
8.8947511437
 20
24.0319758093
 11
9.1041493327
 21
23.9886080244
  0
LINE
  5
3A4
100
AcDbEntity
  8
ASSI
100
AcDbLine
 62
253
  6
CONTINUOUS
 10
9.5878241575
 20
20.1599120881
 11
14.8277552679
 21
17.5399465329
  0
LINE
  5
3A5
100
AcDbEntity
  8
ASSI
100
AcDbLine
 62
7
  6
CONTINUOUS
 10
0.197206953
 20
26.422212526
 11
-6.5203073638
 21
29.7809696844
  0
LINE
  5
3A6
100
AcDbEntity
  8
ASSI
100
AcDbLine
 62
7
  6
CONTINUOUS
 10
-4.3422111815
 20
29.2071106404
 11
1.6700894596
 21
26.2009603198
  0
LINE
  5
3A7
100
AcDbEntity
  8
ASSI
100
AcDbLine
 62
7
  6
CONTINUOUS
 10
-4.3422111815
 20
30.0752172461
 11
2.3753032397
 21
26.7164600355
  0
LINE
  5
3A8
100
AcDbEntity
  8
ASSI
100
AcDbLine
 62
7
  6
CONTINUOUS
 10
23.1631657936
 20
16.8977684844
 11
5.9108371457
 21
25.5239328083
  0
LINE
  5
3A9
100
AcDbEntity
  8
DRAFT
100
AcDbLine
 62
7
  6
CONTINUOUS
 10
20.1633579136
 20
18.4051731119
 11
21.7189928322
 21
17.6273556526
  0
LINE
  5
3AA
100
AcDbEntity
  8
DRAFT
100
AcDbLine
 62
7
  6
CONTINUOUS
 10
13.799396883
 20
21.5871536272
 11
12.2437619643
 21
22.3649710865
  0
LINE
  5
3AB
100
AcDbEntity
  8
0
100
AcDbLine
 62
7
  6
CONTINUOUS
 10
23.8190780949
 20
16.6311436433
 11
9.1041493327
 21
23.9886080244
  0
LINE
  5
3AC
100
AcDbEntity
  8
ASSI
100
AcDbLine
 62
7
  6
CONTINUOUS
 10
-4.2888429531
 20
30.848997743
 11
2.428671364
 21
27.4902405844
  0
LINE
  5
3AD
100
AcDbEntity
  8
ASSI
100
AcDbLine
 62
7
  6
CONTINUOUS
 10
26.1819863135
 20
14.8429128629
 11
26.1819863135
 21
15.8324955749
  0
LINE
  5
3AE
100
AcDbEntity
  8
DRAFT
100
AcDbLine
 62
7
  6
CONTINUOUS
 10
26.4122787515
 20
15.773828614
 11
26.4137945303
 21
15.9911197824
  0
LINE
  5
3AF
100
AcDbEntity
  8
RACCORDO
100
AcDbLine
 62
253
  6
CONTINUOUS
 10
26.7644929212
 20
16.2850482204
 11
26.7597149358
 21
15.6001105218
  0
LINE
  5
3B0
100
AcDbEntity
  8
RACCORDO
100
AcDbLine
 62
253
  6
CONTINUOUS
 10
27.4777027498
 20
16.2843748913
 11
27.4729512193
 21
15.6032295909
  0
LWPOLYLINE
  5
3B1
100
AcDbEntity
  8
ASSI
100
AcDbPolyline
 62
7
  6
CONTINUOUS
 90
15
 70
0
 10
31.8300466277
 20
-12.3183803341
 10
31.9090691701
 20
-12.2565660958
 10
31.9835614297
 20
-12.1891328446
 10
32.0536957876
 20
-12.1158543305
 10
32.1190915612
 20
-12.0369521463
 10
32.1795202731
 20
-11.9525019382
 10
32.2346203707
 20
-11.8627467171
 10
32.2840224692
 20
-11.7680094926
 10
32.3275212735
 20
-11.6683824775
 10
32.3648472736
 20
-11.5640612693
 10
32.3956887953
 20
-11.4553839357
 10
32.4198279195
 20
-11.3425058402
 10
32.437035723
 20
-11.2255592144
 10
32.4470535399
 20
-11.104776966
 10
32.4497409085
 20
-11.0003962255
  0
LINE
  5
3B2
100
AcDbEntity
  8
ASSI
100
AcDbLine
 62
7
  6
CONTINUOUS
 10
13.5871149927
 20
-22.1737888217
 11
14.6073630289
 21
-21.4343692899
  0
LINE
  5
3B3
100
AcDbEntity
  8
ASSI
100
AcDbLine
 62
253
  6
CONTINUOUS
 10
31.754933148
 20
-12.3651473649
 11
31.7482757082
 21
-12.3699723103
  0
LINE
  5
3B4
100
AcDbEntity
  8
ASSI
100
AcDbLine
 62
7
  6
CONTINUOUS
 10
31.8300508279
 20
-12.3183860992
 11
31.8228433025
 21
-12.3236101772
  0
LINE
  5
3B5
100
AcDbEntity
  8
ASSI
100
AcDbLine
 62
7
  6
CONTINUOUS
 10
31.7034877782
 20
-12.3979070043
 11
14.5856709266
 21
-21.4500905297
  0
LINE
  5
3B6
100
AcDbEntity
  8
ASSI
100
AcDbLine
 62
7
  6
CONTINUOUS
 10
13.5871149927
 20
-22.1737888217
 11
10.2180176835
 21
-23.9554229764
  0
LINE
  5
3B7
100
AcDbEntity
  8
ASSI
100
AcDbLine
 62
253
  6
CONTINUOUS
 10
10.5525001555
 20
-23.5341125713
 11
31.7011541233
 21
-12.3934769465
  0
LINE
  5
3B8
100
AcDbEntity
  8
ASSI
100
AcDbLine
 62
253
  6
CONTINUOUS
 10
14.6073630289
 20
-21.4343692899
 11
31.754933148
 21
-12.3651473649
  0
LINE
  5
3B9
100
AcDbEntity
  8
PORTATASTO
100
AcDbLine
 62
253
  6
CONTINUOUS
 10
9.5170817297
 20
-26.8245880082
 11
10.2180176835
 21
-26.4629108155
  0
LINE
  5
3BA
100
AcDbEntity
  8
PORTATASTO
100
AcDbLine
 62
7
  6
CONTINUOUS
 10
9.3883825758
 20
-27.0943910333
 11
10.0902073035
 21
-26.7322552407
  0
LINE
  5
3BB
100
AcDbEntity
  8
PORTATASTO
100
AcDbLine
 62
7
  6
CONTINUOUS
 10
14.5703208922
 20
-21.9464657007
 11
10.2180176835
 21
-24.1824127798
  0
LINE
  5
3BC
100
AcDbEntity
  8
PORTATASTO
100
AcDbLine
 62
7
  6
CONTINUOUS
 10
15.5100207953
 20
-21.3399693574
 11
10.2180176835
 21
-24.0462535897
  0
LINE
  5
3BD
100
AcDbEntity
  8
PORTATASTO
100
AcDbLine
 62
7
  6
CONTINUOUS
 10
10.2180176835
 20
-23.7671942345
 11
10.25954385
 21
-23.7464311513
  0
LINE
  5
3BE
100
AcDbEntity
  8
PORTATASTO
100
AcDbLine
 62
253
  6
CONTINUOUS
 10
8.4379076658
 20
-27.2773685982
 11
9.5170817297
 21
-26.8243751607
  0
LINE
  5
3BF
100
AcDbEntity
  8
PORTATASTO
100
AcDbLine
 62
7
  6
CONTINUOUS
 10
8.2965998754
 20
-27.5533175331
 11
9.3748141031
 21
-27.1007269959
  0
LINE
  5
3C0
100
AcDbEntity
  8
ASSI
100
AcDbLine
 62
253
  6
CONTINUOUS
 10
3.8704699262
 20
-28.9608114383
 11
6.5450562131
 21
-27.8590583877
  0
LINE
  5
3C1
100
AcDbEntity
  8
RACCORDO
100
AcDbLine
 62
253
  6
CONTINUOUS
 10
3.8704699262
 20
-28.9608114383
 11
6.5450562131
 21
-27.8590583877
  0
LINE
  5
3C2
100
AcDbEntity
  8
ASSI
100
AcDbLine
 62
7
  6
CONTINUOUS
 10
3.7167344709
 20
-29.2417793298
 11
6.3849565398
 21
-28.1426479169
  0
LINE
  5
3C3
100
AcDbEntity
  8
RACCORDO
100
AcDbLine
 62
7
  6
CONTINUOUS
 10
3.7167344694
 20
-29.2417793304
 11
6.3849580802
 21
-28.1426472824
  0
LINE
  5
3C4
100
AcDbEntity
  8
PORTATASTO
100
AcDbLine
 62
7
  6
CONTINUOUS
 10
-7.8721913428
 20
27.2913280295
 11
-9.6262290105
 21
27.1992858037
  0
LINE
  5
3C5
100
AcDbEntity
  8
DRAFT
100
AcDbLine
 62
7
  6
CONTINUOUS
 10
9.0528342014
 20
24.453550889
 11
9.5434346316
 21
24.2082506739
  0
LINE
  5
3C6
100
AcDbEntity
  8
RACCORDO
100
AcDbLine
 62
7
  6
CONTINUOUS
 10
26.4122787515
 20
15.773828614
 11
26.7597149358
 21
15.6001105218
  0
LINE
  5
3C7
100
AcDbEntity
  8
ASSI
100
AcDbLine
 62
7
  6
CONTINUOUS
 10
7.8055108997
 20
25.2557200964
 11
8.5126176809
 21
24.9021667058
  0
LINE
  5
3C8
100
AcDbEntity
  8
DRAFT
100
AcDbLine
 62
7
  6
CONTINUOUS
 10
26.1640149744
 20
16.1160095603
 11
26.4137945303
 21
15.9911197824
  0
LINE
  5
3C9
100
AcDbEntity
  8
DRAFT
100
AcDbLine
 62
7
  6
CONTINUOUS
 10
24.4969052399
 20
16.9495644276
 11
9.7614836894
 21
24.3172752028
  0
LINE
  5
3CA
100
AcDbEntity
  8
ASSI
100
AcDbLine
 62
7
  6
CONTINUOUS
 10
4.4463365722
 20
28.4559394373
 11
-2.2711777452
 21
31.814696596
  0
LINE
  5
3CB
100
AcDbEntity
  8
RACCORDO
100
AcDbLine
 62
253
  6
CONTINUOUS
 10
25.7130861958
 20
18.1186474411
 11
9.0669504903
 21
26.4417152939
  0
LINE
  5
3CC
100
AcDbEntity
  8
ASSI
100
AcDbLine
 62
7
  6
CONTINUOUS
 10
-0.0995704944
 20
31.2468032988
 11
5.9201722873
 21
28.236931908
  0
LINE
  5
3CD
100
AcDbEntity
  8
RACCORDO
100
AcDbLine
 62
253
  6
CONTINUOUS
 10
9.4266607761
 20
27.050738488
 11
17.9646679789
 21
22.7817348866
  0
LINE
  5
3CE
100
AcDbEntity
  8
RACCORDO
100
AcDbLine
 62
253
  6
CONTINUOUS
 10
18.4249017467
 20
22.5516180027
 11
26.0727964817
 21
18.7276706353
  0
LINE
  5
3CF
100
AcDbEntity
  8
ASSI
100
AcDbLine
 62
7
  6
CONTINUOUS
 10
-0.0995704944
 20
32.1965375897
 11
6.6179439269
 21
28.837780379
  0
LINE
  5
3D0
100
AcDbEntity
  8
ASSI
100
AcDbLine
 62
7
  6
CONTINUOUS
 10
23.6630896412
 20
16.3941922251
 11
23.5885066753
 21
16.522828813
  0
LINE
  5
3D1
100
AcDbEntity
  8
RACCORDO
100
AcDbLine
 62
253
  6
CONTINUOUS
 10
32.108250702
 20
18.0032261548
 11
32.1042039174
 21
18.5791535774
  0
LINE
  5
3D2
100
AcDbEntity
  8
RACCORDO
100
AcDbLine
 62
7
  6
CONTINUOUS
 10
32.3889218771
 20
18.3525065699
 11
32.3848394301
 21
18.9335093772
  0
LINE
  5
3D3
100
AcDbEntity
  8
ASSI
100
AcDbLine
 62
253
  6
CONTINUOUS
 10
32.1690836236
 20
17.877695214
 11
32.1690836236
 21
-11.3476642659
  0
LINE
  5
3D4
100
AcDbEntity
  8
ASSI
100
AcDbLine
 62
7
  6
CONTINUOUS
 10
32.4497438233
 20
18.2198175485
 11
32.4497438233
 21
-11.0003350923
  0
LINE
  5
3D5
100
AcDbEntity
  8
PORTATASTO
100
AcDbLine
 62
253
  6
CONTINUOUS
 10
7.5418970512
 20
-29.4926176139
 11
9.8529574508
 21
-28.3638683687
  0
LINE
  5
3D6
100
AcDbEntity
  8
PORTATASTO
100
AcDbLine
 62
7
  6
CONTINUOUS
 10
7.4757644079
 20
-29.6284060384
 11
9.7872002942
 21
-28.4994734011
  0
LINE
  5
3D7
100
AcDbEntity
  8
ASSI
100
AcDbLine
 62
7
  6
CONTINUOUS
 10
-0.0526714096
 20
32.8765226342
 11
6.6648429082
 21
29.5177654753
  0
LINE
  5
3D8
100
AcDbEntity
  8
0
100
AcDbLine
 62
7
  6
CONTINUOUS
 10
19.6994193788
 20
25.2898008158
 11
23.5885066753
 21
23.3452571676
  0
LINE
  5
3D9
100
AcDbEntity
  8
DRAFT
100
AcDbLine
 62
7
  6
CONTINUOUS
 10
24.4605022006
 20
23.7626134088
 11
20.5714149041
 21
25.707157057
  0
LINE
  5
3DA
100
AcDbEntity
  8
RACCORDO
100
AcDbLine
 62
253
  6
CONTINUOUS
 10
30.6841426312
 20
21.0149323208
 11
14.1199282135
 21
29.2970395296
  0
LINE
  5
3DB
100
AcDbEntity
  8
ASSI
100
AcDbLine
 62
253
  6
CONTINUOUS
 10
2.1647606868
 20
35.3669358255
 11
14.0549058443
 21
29.4218632468
  0
LINE
  5
3DC
100
AcDbEntity
  8
RACCORDO
100
AcDbLine
 62
7
  6
CONTINUOUS
 10
31.119015495
 20
21.0372956588
 11
14.5548010941
 21
29.3194028592
  0
LINE
  5
3DD
100
AcDbEntity
  8
ASSI
100
AcDbLine
 62
7
  6
CONTINUOUS
 10
2.5996335674
 20
35.3892991551
 11
14.4897787248
 21
29.4442265764
  0
LINE
  5
3DE
100
AcDbEntity
  8
ASSI
100
AcDbLine
 62
7
  6
CONTINUOUS
 10
25.6391163408
 20
17.486137442
 11
25.7678358379
 21
17.2641291496
  0
LWPOLYLINE
  5
3DF
100
AcDbEntity
  8
RACCORDO
100
AcDbPolyline
 62
7
  6
CONTINUOUS
 90
11
 70
0
 10
32.3847730029
 20
18.9325939383
 10
32.3658369025
 20
19.2021084879
 10
32.3195444554
 20
19.4489518089
 10
32.2455965456
 20
19.6965100149
 10
32.144736419
 20
19.9405391167
 10
32.0211135871
 20
20.1711994065
 10
31.8763999584
 20
20.3867929439
 10
31.7110134354
 20
20.5855077851
 10
31.5308998871
 20
20.7599546117
 10
31.3389774349
 20
20.9077704783
 10
31.1185007438
 20
21.0374540297
  0
ARC
  5
3E0
100
AcDbEntity
  8
RACCORDO
100
AcDbCircle
 62
253
  6
CONTINUOUS
 10
-27.2750007212
 20
-13.5303749468
 40
0.5576006689
100
AcDbArc
 50
240.5322025294
 51
243.480352299
  0
ARC
  5
3E1
100
AcDbEntity
  8
ASSI
100
AcDbCircle
 62
253
  6
CONTINUOUS
 10
-27.2769668501
 20
-13.5359287686
 40
0.5519149344
100
AcDbArc
 50
237.9783801968
 51
243.4131464521
  0
ARC
  5
3E2
100
AcDbEntity
  8
ASSI
100
AcDbCircle
 62
7
  6
CONTINUOUS
 10
-3.7346280507
 20
28.03786285
 40
0.5693073467
100
AcDbArc
 50
116.5006800517
 51
120.0083517257
  0
ARC
  5
3E3
100
AcDbEntity
  8
ASSI
100
AcDbCircle
 62
253
  6
CONTINUOUS
 10
1.8905837898
 20
35.0504001654
 40
0.3858145027
100
AcDbArc
 50
113.067278942
 51
115.2684971883
  0
ARC
  5
3E4
100
AcDbEntity
  8
PORTATASTO
100
AcDbCircle
 62
7
  6
CONTINUOUS
 10
-7.2116549567
 20
19.8578413749
 40
0.2499769874
100
AcDbArc
 50
117.0970053572
 51
179.9995093396
  0
ARC
  5
3E5
100
AcDbEntity
  8
PORTATASTO
100
AcDbCircle
 62
7
  6
CONTINUOUS
 10
-9.7749170385
 20
21.1394724158
 40
0.2499769874
100
AcDbArc
 50
117.0970053572
 51
179.9995093396
  0
ARC
  5
3E6
100
AcDbEntity
  8
PORTATASTO
100
AcDbCircle
 62
7
  6
CONTINUOUS
 10
-23.1215575334
 20
27.8127926632
 40
0.2499769874
100
AcDbArc
 50
117.0970053572
 51
179.9995093396
  0
ARC
  5
3E7
100
AcDbEntity
  8
PORTATASTO
100
AcDbCircle
 62
7
  6
CONTINUOUS
 10
-7.2118558428
 20
19.6077383995
 40
0.2497557238
100
AcDbArc
 50
179.9693960131
 51
243.4744577438
  0
ARC
  5
3E8
100
AcDbEntity
  8
PORTATASTO
100
AcDbCircle
 62
7
  6
CONTINUOUS
 10
-9.7751179246
 20
20.8893694404
 40
0.2497557238
100
AcDbArc
 50
179.9693960131
 51
243.4744577438
  0
ARC
  5
3E9
100
AcDbEntity
  8
PORTATASTO
100
AcDbCircle
 62
7
  6
CONTINUOUS
 10
-23.1217584195
 20
27.5626896878
 40
0.2497557238
100
AcDbArc
 50
179.9693960131
 51
243.4744577438
  0
ARC
  5
3EA
100
AcDbEntity
  8
PORTATASTO
100
AcDbCircle
 62
7
  6
CONTINUOUS
 10
-5.9811834586
 20
18.9905667906
 40
0.2481429346
100
AcDbArc
 50
243.3741215214
 51
258.265307726
  0
ARC
  5
3EB
100
AcDbEntity
  8
PORTATASTO
100
AcDbCircle
 62
7
  6
CONTINUOUS
 10
-8.5444455404
 20
20.2721978315
 40
0.2481429346
100
AcDbArc
 50
243.3741215215
 51
258.265307726
  0
ARC
  5
3EC
100
AcDbEntity
  8
PORTATASTO
100
AcDbCircle
 62
7
  6
CONTINUOUS
 10
-21.8910860353
 20
26.9455180789
 40
0.2481429346
100
AcDbArc
 50
243.3741215214
 51
258.265307726
  0
ARC
  5
3ED
100
AcDbEntity
  8
PORTATASTO
100
AcDbCircle
 62
253
  6
CONTINUOUS
 10
-23.0273197094
 20
27.8410507239
 40
0.2104970702
100
AcDbArc
 50
116.8720017141
 51
119.4559622163
  0
ARC
  5
3EE
100
AcDbEntity
  8
PORTATASTO
100
AcDbCircle
 62
253
  6
CONTINUOUS
 10
-9.6806792145
 20
21.1677304764
 40
0.2104970702
100
AcDbArc
 50
116.8720017143
 51
119.4559622163
  0
ARC
  5
3EF
100
AcDbEntity
  8
PORTATASTO
100
AcDbCircle
 62
253
  6
CONTINUOUS
 10
-7.1174171327
 20
19.8860994355
 40
0.2104970702
100
AcDbArc
 50
116.8720017142
 51
119.4559622164
  0
ARC
  5
3F0
100
AcDbEntity
  8
PORTATASTO
100
AcDbCircle
 62
7
  6
CONTINUOUS
 10
-11.9145946063
 20
28.6012340964
 40
0.1841044728
100
AcDbArc
 50
102.5706574364
 51
105.761185649
  0
ARC
  5
3F1
100
AcDbEntity
  8
PORTATASTO
100
AcDbCircle
 62
7
  6
CONTINUOUS
 10
-6.3297561348
 20
25.8099940593
 40
0.1828799528
100
AcDbArc
 50
103.1146715997
 51
106.3372471416
  0
ARC
  5
3F2
100
AcDbEntity
  8
PORTATASTO
100
AcDbCircle
 62
253
  6
CONTINUOUS
 10
-8.5639654678
 20
20.1776007098
 40
0.1515597702
100
AcDbArc
 50
258.2177840063
 51
260.756260047
  0
ARC
  5
3F3
100
AcDbEntity
  8
PORTATASTO
100
AcDbCircle
 62
253
  6
CONTINUOUS
 10
-21.9106059627
 20
26.8509209573
 40
0.1515597702
100
AcDbArc
 50
258.2177840063
 51
260.756260047
  0
ARC
  5
3F4
100
AcDbEntity
  8
PORTATASTO
100
AcDbCircle
 62
253
  6
CONTINUOUS
 10
-6.000703386
 20
18.8959696689
 40
0.1515597702
100
AcDbArc
 50
258.2177840064
 51
260.756260047
  0
ARC
  5
3F5
100
AcDbEntity
  8
PORTATASTO
100
AcDbCircle
 62
253
  6
CONTINUOUS
 10
-9.8444164773
 20
20.7503760756
 40
0.0944861498
100
AcDbArc
 50
237.0569823571
 51
243.4163799838
  0
ARC
  5
3F6
100
AcDbEntity
  8
PORTATASTO
100
AcDbCircle
 62
253
  6
CONTINUOUS
 10
-23.1910569722
 20
27.423696323
 40
0.0944861498
100
AcDbArc
 50
237.0569823569
 51
243.4163799838
  0
ARC
  5
3F7
100
AcDbEntity
  8
PORTATASTO
100
AcDbCircle
 62
253
  6
CONTINUOUS
 10
-7.2811543955
 20
19.4687450347
 40
0.0944861498
100
AcDbArc
 50
237.0569823571
 51
243.4163799837
  0
ARC
  5
3F8
100
AcDbEntity
  8
PORTATASTO
100
AcDbCircle
 62
253
  6
CONTINUOUS
 10
-23.3084955195
 20
27.5627936472
 40
0.0630380905
100
AcDbArc
 50
179.9885719983
 51
188.7285782283
  0
ARC
  5
3F9
100
AcDbEntity
  8
PORTATASTO
100
AcDbCircle
 62
253
  6
CONTINUOUS
 10
-9.9618550246
 20
20.8894733997
 40
0.0630380905
100
AcDbArc
 50
179.9885719986
 51
188.728578228
  0
ARC
  5
3FA
100
AcDbEntity
  8
PORTATASTO
100
AcDbCircle
 62
253
  6
CONTINUOUS
 10
-7.3985929428
 20
19.6078423588
 40
0.0630380905
100
AcDbArc
 50
179.988571999
 51
188.7285782277
  0
ARC
  5
3FB
100
AcDbEntity
  8
ASSI
100
AcDbCircle
 62
7
  6
CONTINUOUS
 10
-11.6850513704
 20
25.9526237171
 40
0.056032635
100
AcDbArc
 50
116.2321611049
 51
132.2630176055
  0
ARC
  5
3FC
100
AcDbEntity
  8
ASSI
100
AcDbCircle
 62
7
  6
CONTINUOUS
 10
31.2360462083
 20
-11.5139575384
 40
0.9999339801
100
AcDbArc
 50
297.8707592383
 51
305.9326427705
  0
ARC
  5
3FD
100
AcDbEntity
  8
ASSI
100
AcDbCircle
 62
253
  6
CONTINUOUS
 10
31.2584739702
 20
-11.6889318041
 40
0.839124727
100
AcDbArc
 50
310.7414115989
 51
319.8302040657
  0
ARC
  5
3FE
100
AcDbEntity
  8
ASSI
100
AcDbCircle
 62
253
  6
CONTINUOUS
 10
31.2957504577
 20
-11.7312818424
 40
0.7827095526
100
AcDbArc
 50
305.9201948796
 51
310.6972403124
  0
ARC
  5
3FF
100
AcDbEntity
  8
ASSI
100
AcDbCircle
 62
253
  6
CONTINUOUS
 10
31.4618720894
 20
-11.812038401
 40
0.6259878947
100
AcDbArc
 50
304.1393612751
 51
305.9596871954
  0
ARC
  5
400
100
AcDbEntity
  8
ASSI
100
AcDbCircle
 62
253
  6
CONTINUOUS
 10
31.4552219775
 20
-11.8168704991
 40
0.6259780004
100
AcDbArc
 50
304.1333612492
 51
305.9576885297
  0
ARC
  5
401
100
AcDbEntity
  8
ASSI
100
AcDbCircle
 62
253
  6
CONTINUOUS
 10
31.459995847
 20
-11.8241545653
 40
0.6172700292
100
AcDbArc
 50
297.8412847726
 51
304.1459617242
  0
ARC
  5
402
100
AcDbEntity
  8
ASSI
100
AcDbCircle
 62
253
  6
CONTINUOUS
 10
31.4666572693
 20
-11.8193384445
 40
0.6172603664
100
AcDbArc
 50
297.84134038
 51
304.1520099604
  0
ARC
  5
403
100
AcDbEntity
  8
ASSI
100
AcDbCircle
 62
253
  6
CONTINUOUS
 10
31.530332207
 20
-12.0697940325
 40
0.3709533234
100
AcDbArc
 50
297.8220227543
 51
305.9814084303
  0
ARC
  5
404
100
AcDbEntity
  8
PORTATASTO
100
AcDbCircle
 62
7
  6
CONTINUOUS
 10
6.135144099
 20
-28.5383033326
 40
0.2501395795
100
AcDbArc
 50
140.5905274921
 51
179.9934056541
  0
ARC
  5
405
100
AcDbEntity
  8
PORTATASTO
100
AcDbCircle
 62
7
  6
CONTINUOUS
 10
6.1350045212
 20
-28.7882457526
 40
0.25
100
AcDbArc
 50
180.0307956406
 51
243.4349488229
  0
ARC
  5
406
100
AcDbEntity
  8
PORTATASTO
100
AcDbCircle
 62
7
  6
CONTINUOUS
 10
7.3660540141
 20
-29.4038671344
 40
0.2499052258
100
AcDbArc
 50
243.382551662
 51
296.0402758365
  0
ARC
  5
407
100
AcDbEntity
  8
PORTATASTO
100
AcDbCircle
 62
7
  6
CONTINUOUS
 10
9.3012310934
 20
-26.9254417983
 40
0.1901016751
100
AcDbArc
 50
292.7780009071
 51
297.2833862395
  0
ARC
  5
408
100
AcDbEntity
  8
PORTATASTO
100
AcDbCircle
 62
253
  6
CONTINUOUS
 10
6.064976698
 20
-28.9282312207
 40
0.0934745844
100
AcDbArc
 50
235.9182391889
 51
243.4541859743
  0
ARC
  5
409
100
AcDbEntity
  8
RACCORDO
100
AcDbCircle
 62
7
  6
CONTINUOUS
 10
19.3899528079
 20
25.0845286407
 40
2.7104975323
100
AcDbArc
 50
243.4840368711
 51
249.1389786296
  0
ARC
  5
40A
100
AcDbEntity
  8
ASSI
100
AcDbCircle
 62
7
  6
CONTINUOUS
 10
2.152415761
 20
34.4949548908
 40
0.9999200733
100
AcDbArc
 50
63.4173555274
 51
115.2502436068
  0
ARC
  5
40B
100
AcDbEntity
  8
ASSI
100
AcDbCircle
 62
7
  6
CONTINUOUS
 10
14.3177265016
 20
29.0991109513
 40
0.3854617475
100
AcDbArc
 50
61.3793287128
 51
63.4921496475
  0
ARC
  5
40C
100
AcDbEntity
  8
PORTATASTO
100
AcDbCircle
 62
7
  6
CONTINUOUS
 10
6.1349855382
 20
13.1845211274
 40
0.2499769874
100
AcDbArc
 50
117.097005357
 51
179.9995093398
  0
ARC
  5
40D
100
AcDbEntity
  8
PORTATASTO
100
AcDbCircle
 62
7
  6
CONTINUOUS
 10
6.1347846521
 20
12.934418152
 40
0.2497557238
100
AcDbArc
 50
179.9693960131
 51
243.4744577438
  0
ARC
  5
40E
100
AcDbEntity
  8
PORTATASTO
100
AcDbCircle
 62
7
  6
CONTINUOUS
 10
7.3654570363
 20
12.3172465431
 40
0.2481429346
100
AcDbArc
 50
243.3741215214
 51
258.265307726
  0
ARC
  5
40F
100
AcDbEntity
  8
PORTATASTO
100
AcDbCircle
 62
253
  6
CONTINUOUS
 10
6.2292233621
 20
13.2127791881
 40
0.2104970702
100
AcDbArc
 50
116.872001714
 51
119.4559622165
  0
ARC
  5
410
100
AcDbEntity
  8
PORTATASTO
100
AcDbCircle
 62
7
  6
CONTINUOUS
 10
3.9953073897
 20
20.6462850858
 40
0.1841021229
100
AcDbArc
 50
102.5726476478
 51
105.7612042734
  0
ARC
  5
411
100
AcDbEntity
  8
PORTATASTO
100
AcDbCircle
 62
7
  6
CONTINUOUS
 10
9.5801458503
 20
17.8550450061
 40
0.1828776414
100
AcDbArc
 50
103.1167328437
 51
106.337266258
  0
ARC
  5
412
100
AcDbEntity
  8
PORTATASTO
100
AcDbCircle
 62
253
  6
CONTINUOUS
 10
7.3459371089
 20
12.2226494215
 40
0.1515597703
100
AcDbArc
 50
258.2177840068
 51
260.7562600467
  0
ARC
  5
413
100
AcDbEntity
  8
PORTATASTO
100
AcDbCircle
 62
253
  6
CONTINUOUS
 10
6.0654860994
 20
12.7954247872
 40
0.0944861498
100
AcDbArc
 50
237.0569823569
 51
243.4163799838
  0
ARC
  5
414
100
AcDbEntity
  8
PORTATASTO
100
AcDbCircle
 62
253
  6
CONTINUOUS
 10
5.9480475521
 20
12.9345221114
 40
0.0630380905
100
AcDbArc
 50
179.9885719986
 51
188.7285782281
  0
ARC
  5
415
100
AcDbEntity
  8
ASSI
100
AcDbCircle
 62
7
  6
CONTINUOUS
 10
4.2248512063
 20
17.9976724287
 40
0.056032635
100
AcDbArc
 50
116.2321611049
 51
132.2630176056
  0
SPLINE
  5
416
100
AcDbEntity
  8
RACCORDO
100
AcDbSpline
 62
7
  6
CONTINUOUS
 70
0
 71
3
 72
10
 73
6
 74
4
 42
0.0000001
 43
0.0000001
 44
0.0000000001
 12
0.0052208833
 22
0.7353189252
 32
0.0
 13
0.6632798257
 23
0.3174603159
 33
0.0
 40
0.0
 40
0.0
 40
0.0
 40
0.0
 40
0.3356186143
 40
0.688073818
 40
1.0
 40
1.0
 40
1.0
 40
1.0
 10
9.0669504903
 20
26.4417152939
 30
0.0
 10
9.0675345655
 20
26.5239775335
 30
0.0
 10
9.1061103273
 20
26.6927541384
 30
0.0
 10
9.2306840823
 20
26.9067838602
 30
0.0
 10
9.3576959949
 20
27.0177304266
 30
0.0
 10
9.4266607761
 20
27.050738488
 30
0.0
 11
9.0669504903
 21
26.4417152939
 31
0.0
 11
9.116381771
 21
26.6835071534
 31
0.0
 11
9.2481855617
 21
26.906663312
 31
0.0
 11
9.4266607761
 21
27.050738488
 31
0.0
  0
SPLINE
  5
417
100
AcDbEntity
  8
RACCORDO
100
AcDbSpline
 62
7
  6
CONTINUOUS
 70
0
 71
3
 72
8
 73
4
 74
2
 42
0.0000001
 43
0.0000001
 44
0.0000000001
 12
0.3162972907
 22
0.1513868415
 32
0.0
 13
0.342677176
 23
-0.0832517125
 33
0.0
 40
0.0
 40
0.0
 40
0.0
 40
0.0
 40
1.0
 40
1.0
 40
1.0
 40
1.0
 10
14.1199282135
 20
29.2970395296
 30
0.0
 10
14.2253606438
 20
29.3475018101
 30
0.0
 10
14.3522455914
 20
29.3783608897
 30
0.0
 10
14.4664713168
 20
29.3506103189
 30
0.0
 11
14.1199282135
 21
29.2970395296
 31
0.0
 11
14.4664713168
 21
29.3506103189
 31
0.0
  0
SPLINE
  5
418
100
AcDbEntity
  8
RACCORDO
100
AcDbSpline
 62
7
  6
CONTINUOUS
 70
0
 71
3
 72
8
 73
4
 74
2
 42
0.0000001
 43
0.0000001
 44
0.0000000001
 12
0.0892595654
 22
-0.0216851667
 32
0.0
 13
0.0823867534
 23
-0.0433539137
 33
0.0
 40
0.0
 40
0.0
 40
0.0
 40
0.0
 40
1.0
 40
1.0
 40
1.0
 40
1.0
 10
14.4664713168
 20
29.3506103189
 30
0.0
 10
14.4962245052
 20
29.34338193
 30
0.0
 10
14.5251187866
 20
29.3321769741
 30
0.0
 10
14.5525810377
 20
29.3177256695
 30
0.0
 11
14.4664713168
 21
29.3506103189
 31
0.0
 11
14.5525810377
 21
29.3177256695
 31
0.0
  0
SPLINE
  5
419
100
AcDbEntity
  8
RACCORDO
100
AcDbSpline
 62
7
  6
CONTINUOUS
 70
0
 71
3
 72
10
 73
6
 74
4
 42
0.0000001
 43
0.0000001
 44
0.0000000001
 12
-0.2214538587
 22
0.1107269294
 32
0.0
 13
-0.2071336106
 23
0.1356389759
 33
0.0
 40
0.0
 40
0.0
 40
0.0
 40
0.0
 40
0.3452819477
 40
0.6851431792
 40
1.0
 40
1.0
 40
1.0
 40
1.0
 10
18.1798578245
 20
22.6591460424
 30
0.0
 10
18.154369818
 20
22.6718900456
 30
0.0
 10
18.10421671
 20
22.6980360281
 30
0.0
 10
18.032451432
 20
22.7388301779
 30
0.0
 10
17.986574734
 20
22.7674154619
 30
0.0
 10
17.9648355906
 20
22.7816510808
 30
0.0
 11
18.1798578245
 21
22.6591460424
 31
0.0
 11
18.1040697194
 21
22.6987010168
 31
0.0
 11
18.0309559024
 21
22.7403558853
 31
0.0
 11
17.9648355906
 21
22.7816510808
 31
0.0
  0
SPLINE
  5
41A
100
AcDbEntity
  8
RACCORDO
100
AcDbSpline
 62
7
  6
CONTINUOUS
 70
0
 71
3
 72
15
 73
11
 74
9
 42
0.0000001
 43
0.0000001
 44
0.0000000001
 12
5.1267252645
 22
-1.960363884
 32
0.0
 13
-4.909284143
 23
2.4546420715
 33
0.0
 40
0.0
 40
0.0
 40
0.0
 40
0.0
 40
0.1494935545
 40
0.3128344548
 40
0.4712671911
 40
0.6089421152
 40
0.7164073485
 40
0.7993245852
 40
0.8857479165
 40
1.0
 40
1.0
 40
1.0
 40
1.0
 10
18.4249017467
 20
22.5516180027
 30
0.0
 10
18.680372541
 20
22.4539307477
 30
0.0
 10
19.241938822
 20
22.3185346284
 30
0.0
 10
20.1066152084
 20
22.2732616552
 30
0.0
 10
20.9468065808
 20
22.3776833608
 30
0.0
 10
21.6482211719
 20
22.6225464154
 30
0.0
 10
22.1540681652
 20
22.9764905523
 30
0.0
 10
22.3515454999
 20
23.4961844579
 30
0.0
 10
22.081485833
 20
23.9932570318
 30
0.0
 10
21.7654149977
 20
24.1926902075
 30
0.0
 10
21.5784496839
 20
24.2861728644
 30
0.0
 11
18.4249017467
 21
22.5516180027
 31
0.0
 11
19.2199176181
 21
22.3485837619
 31
0.0
 11
20.1151152905
 21
22.2996004897
 31
0.0
 11
20.9770791255
 21
22.4145679593
 31
0.0
 11
21.6855660776
 21
22.6773843386
 31
0.0
 11
22.1416603557
 21
23.0514168979
 31
0.0
 11
22.2814165823
 21
23.4845391119
 31
0.0
 11
22.0848081181
 21
23.91623171
 31
0.0
 11
21.5784496839
 21
24.2861728644
 31
0.0
  0
SPLINE
  5
41B
100
AcDbEntity
  8
RACCORDO
100
AcDbSpline
 62
7
  6
CONTINUOUS
 70
0
 71
3
 72
15
 73
11
 74
9
 42
0.0000001
 43
0.0000001
 44
0.0000000001
 12
-4.9285587037
 22
2.4642793518
 32
0.0
 13
4.6098549163
 23
-3.0187085433
 33
0.0
 40
0.0
 40
0.0
 40
0.0
 40
0.0
 40
0.1429421771
 40
0.3034194646
 40
0.4649662476
 40
0.610808613
 40
0.7286268496
 40
0.8175356812
 40
0.8985153116
 40
1.0
 40
1.0
 40
1.0
 40
1.0
 10
21.5784496839
 20
24.2861728644
 30
0.0
 10
21.3436167135
 20
24.4035893496
 30
0.0
 10
20.8067260166
 20
24.5760188941
 30
0.0
 10
19.954377928
 20
24.6734972502
 30
0.0
 10
19.091896466
 20
24.6207425316
 30
0.0
 10
18.3298314244
 20
24.4206850289
 30
0.0
 10
17.7561572372
 20
24.1071061251
 30
0.0
 10
17.4217678847
 20
23.6436113695
 30
0.0
 10
17.5379123167
 20
23.1075615373
 30
0.0
 10
17.808724749
 20
22.8838524519
 30
0.0
 10
17.9646679789
 20
22.7817348866
 30
0.0
 11
21.5784496839
 21
24.2861728644
 31
0.0
 11
20.833466045
 21
24.5419027465
 31
0.0
 11
19.9555151086
 21
24.6474898487
 31
0.0
 11
19.0672945926
 21
24.5885997795
 31
0.0
 11
18.2929246073
 21
24.3737050737
 31
0.0
 11
17.7403324991
 21
24.0329412725
 31
0.0
 11
17.4865450272
 21
23.6138856214
 31
0.0
 11
17.5670960545
 21
23.1749945437
 31
0.0
 11
17.9646679789
 21
22.7817348866
 31
0.0
  0
SPLINE
  5
41C
100
AcDbEntity
  8
RACCORDO
100
AcDbSpline
 62
253
  6
CONTINUOUS
 70
0
 71
3
 72
12
 73
8
 74
6
 42
0.0000001
 43
0.0000001
 44
0.0000000001
 12
1.9717391672
 22
-0.9874203275
 32
0.0
 13
-0.0141477289
 23
-2.2051199714
 33
0.0
 40
0.0
 40
0.0
 40
0.0
 40
0.0
 40
0.1803413552
 40
0.3821673088
 40
0.5948185977
 40
0.8051056194
 40
1.0
 40
1.0
 40
1.0
 40
1.0
 10
25.7130861958
 20
18.1186474411
 30
0.0
 10
25.8316149003
 20
18.0592898678
 30
0.0
 10
26.0628351686
 20
17.8927619895
 30
0.0
 10
26.3514134915
 20
17.5605316247
 30
0.0
 10
26.5805150672
 20
17.1591147891
 30
0.0
 10
26.7281800994
 20
16.7269056381
 30
0.0
 10
26.7654120255
 20
16.4283033841
 30
0.0
 10
26.7644929212
 20
16.2850482204
 30
0.0
 11
25.7130861958
 21
18.1186474411
 31
0.0
 11
26.0396353485
 21
17.8916738114
 31
0.0
 11
26.3345203309
 21
17.558325802
 31
0.0
 11
26.5677287935
 21
17.1514961878
 31
0.0
 11
26.7158031598
 21
16.7120555824
 31
0.0
 11
26.7644929212
 21
16.2850482204
 31
0.0
  0
SPLINE
  5
41D
100
AcDbEntity
  8
RACCORDO
100
AcDbSpline
 62
253
  6
CONTINUOUS
 70
0
 71
3
 72
10
 73
6
 74
4
 42
0.0000001
 43
0.0000001
 44
0.0000000001
 12
-0.6632797627
 22
-0.3174602761
 32
0.0
 13
-0.005221179
 23
-0.735318849
 33
0.0
 40
0.0
 40
0.0
 40
0.0
 40
0.0
 40
0.3119563058
 40
0.6644177164
 40
1.0
 40
1.0
 40
1.0
 40
1.0
 10
26.0727964817
 20
18.7276706353
 30
0.0
 10
26.0038250468
 20
18.6946593903
 30
0.0
 10
25.8768080898
 20
18.5837032873
 30
0.0
 10
25.7522406109
 20
18.369669942
 30
0.0
 10
25.7136702409
 20
18.2009007673
 30
0.0
 10
25.7130861958
 20
18.1186474411
 30
0.0
 11
26.0727964817
 21
18.7276706353
 31
0.0
 11
25.8943067317
 21
18.5835782371
 31
0.0
 11
25.7625076772
 21
18.3604140107
 31
0.0
 11
25.7130861958
 21
18.1186474411
 31
0.0
  0
SPLINE
  5
41E
100
AcDbEntity
  8
RACCORDO
100
AcDbSpline
 62
253
  6
CONTINUOUS
 70
0
 71
3
 72
10
 73
6
 74
4
 42
0.0000001
 43
0.0000001
 44
0.0000000001
 12
-0.6526832112
 22
-0.330834709
 32
0.0
 13
-0.6545395001
 23
0.327146789
 33
0.0
 40
0.0
 40
0.0
 40
0.0
 40
0.0
 40
0.3196418303
 40
0.6771623112
 40
1.0
 40
1.0
 40
1.0
 40
1.0
 10
27.4777027498
 20
16.2843748913
 30
0.0
 10
27.408161131
 20
16.249125354
 30
0.0
 10
27.2443906483
 20
16.2076104945
 30
0.0
 10
26.9992833468
 20
16.2079851221
 30
0.0
 10
26.8349295944
 20
16.249843116
 30
0.0
 10
26.7644929212
 20
16.2850482204
 30
0.0
 11
27.4777027498
 21
16.2843748913
 31
0.0
 11
27.2530597945
 21
16.2192393235
 31
0.0
 11
26.9914470068
 21
16.219486328
 31
0.0
 11
26.7644929212
 21
16.2850482204
 31
0.0
  0
SPLINE
  5
41F
100
AcDbEntity
  8
RACCORDO
100
AcDbSpline
 62
253
  6
CONTINUOUS
 70
0
 71
3
 72
9
 73
5
 74
3
 42
0.0000001
 43
0.0000001
 44
0.0000000001
 12
0.3992589594
 22
0.191094159
 32
0.0
 13
0.3989616847
 23
-0.2107525974
 33
0.0
 40
0.0
 40
0.0
 40
0.0
 40
0.0
 40
0.7922108151
 40
1.0
 40
1.0
 40
1.0
 40
1.0
 10
30.6841426312
 20
21.0149323208
 30
0.0
 10
30.7895750531
 20
21.0653946072
 30
0.0
 10
30.9497406823
 20
21.1043477224
 30
0.0
 10
31.0897354015
 20
21.0499135915
 30
0.0
 10
31.1173687093
 20
21.0353162214
 30
0.0
 11
30.6841426312
 21
21.0149323208
 31
0.0
 11
31.0306857181
 21
21.0685031189
 31
0.0
 11
31.1173687093
 21
21.0353162214
 31
0.0
  0
SPLINE
  5
420
100
AcDbEntity
  8
RACCORDO
100
AcDbSpline
 62
253
  6
CONTINUOUS
 70
0
 71
3
 72
9
 73
5
 74
3
 42
0.0000001
 43
0.0000001
 44
0.0000000001
 12
0.4097009555
 22
0.2165873375
 32
0.0
 13
-0.0035331824
 23
0.4816050126
 33
0.0
 40
0.0
 40
0.0
 40
0.0
 40
0.0
 40
0.7283258496
 40
1.0
 40
1.0
 40
1.0
 40
1.0
 10
32.1042039174
 20
18.5791535774
 30
0.0
 10
32.2036691829
 20
18.6317356296
 30
0.0
 10
32.3487319892
 20
18.7284640187
 30
0.0
 10
32.3783336491
 20
18.888930726
 30
0.0
 10
32.378013691
 20
18.9325439369
 30
0.0
 11
32.1042039174
 21
18.5791535774
 31
0.0
 11
32.3537278146
 21
18.8064457374
 31
0.0
 11
32.378013691
 21
18.9325439369
 31
0.0
  0
SPLINE
  5
421
100
AcDbEntity
  8
RACCORDO
100
AcDbSpline
 62
253
  6
CONTINUOUS
 70
0
 71
3
 72
11
 73
7
 74
5
 42
0.0000001
 43
0.0000001
 44
0.0000000001
 12
0.0077347699
 22
2.409408718
 32
0.0
 13
-1.8095687253
 23
1.6050718497
 33
0.0
 40
0.0
 40
0.0
 40
0.0
 40
0.0
 40
0.238114527
 40
0.4942783729
 40
0.7534143414
 40
1.0
 40
1.0
 40
1.0
 40
1.0
 10
32.1042039174
 20
18.5791535774
 30
0.0
 10
32.1048178377
 20
18.7703919832
 30
0.0
 10
32.0530853259
 20
19.1682304299
 30
0.0
 10
31.8525585181
 20
19.7428164688
 30
0.0
 10
31.5433058494
 20
20.275422839
 30
0.0
 10
31.2728047673
 20
20.5819183262
 30
0.0
 10
31.1240668687
 20
20.7138475592
 30
0.0
 11
32.1042039174
 21
18.5791535774
 31
0.0
 11
32.0364494063
 21
19.148856894
 31
0.0
 11
31.835553744
 21
19.7324534155
 31
0.0
 11
31.5210856185
 21
20.2718464045
 31
0.0
 11
31.1240668687
 21
20.7138475592
 31
0.0
  0
SPLINE
  5
422
100
AcDbEntity
  8
RACCORDO
100
AcDbSpline
 62
253
  6
CONTINUOUS
 70
0
 71
3
 72
8
 73
4
 74
2
 42
0.0000001
 43
0.0000001
 44
0.0000000001
 12
-0.400371563
 22
0.3551261227
 32
0.0
 13
-0.4783475644
 23
0.2353061324
 33
0.0
 40
0.0
 40
0.0
 40
0.0
 40
0.0
 40
1.0
 40
1.0
 40
1.0
 40
1.0
 10
31.1240668687
 20
20.7138475592
 30
0.0
 10
30.990609681
 20
20.8322229335
 30
0.0
 10
30.8435918194
 20
20.9364969433
 30
0.0
 10
30.6841426312
 20
21.0149323208
 30
0.0
 11
31.1240668687
 21
20.7138475592
 31
0.0
 11
30.6841426312
 21
21.0149323208
 31
0.0
  0
SPLINE
  5
423
100
AcDbEntity
  8
RACCORDO
100
AcDbSpline
 62
253
  6
CONTINUOUS
 70
0
 71
3
 72
12
 73
8
 74
6
 42
0.0000001
 43
0.0000001
 44
0.0000000001
 12
2.635284404
 22
-1.3074617412
 32
0.0
 13
-0.0248323596
 23
-2.941693976
 33
0.0
 40
0.0
 40
0.0
 40
0.0
 40
0.0
 40
0.181008121
 40
0.3826895657
 40
0.594747341
 40
0.8046697165
 40
1.0
 40
1.0
 40
1.0
 40
1.0
 10
26.0727964817
 20
18.7276706353
 30
0.0
 10
26.2317991078
 20
18.6487835709
 30
0.0
 10
26.5413186089
 20
18.4271058695
 30
0.0
 10
26.9271833303
 20
17.9847481968
 30
0.0
 10
27.2329207384
 20
17.4504984213
 30
0.0
 10
27.4298861327
 20
16.8744321009
 30
0.0
 10
27.479319587
 20
16.475908864
 30
0.0
 10
27.4777027498
 20
16.2843748913
 30
0.0
 11
26.0727964817
 21
18.7276706353
 31
0.0
 11
26.5108985275
 21
18.4249964974
 31
0.0
 11
26.9048631908
 21
17.9813703876
 31
0.0
 11
27.2157278976
 21
17.4405112264
 31
0.0
 11
27.413110527
 21
16.855355396
 31
0.0
 11
27.4777027498
 21
16.2843748913
 31
0.0
  0
SPLINE
  5
424
100
AcDbEntity
  8
ASSI
100
AcDbSpline
 62
253
  6
CONTINUOUS
 70
0
 71
3
 72
14
 73
10
 74
8
 42
0.0000001
 43
0.0000001
 44
0.0000000001
 12
-0.0327517362
 22
0.7308342752
 32
0.0
 13
-0.6467850046
 23
0.3418487557
 33
0.0
 40
0.0
 40
0.0
 40
0.0
 40
0.0
 40
0.1360172389
 40
0.28219724
 40
0.434091205
 40
0.5866472225
 40
0.734747216
 40
0.8737353138
 40
1.0
 40
1.0
 40
1.0
 40
1.0
 10
3.8704699262
 20
7.9839468152
 30
0.0
 10
3.8689849927
 20
8.0170821686
 30
0.0
 10
3.8595848919
 20
8.0856138213
 30
0.0
 10
3.8299884779
 20
8.1875628506
 30
0.0
 10
3.7856911527
 20
8.2884640058
 30
0.0
 10
3.7288434249
 20
8.3833905073
 30
0.0
 10
3.662174986
 20
8.4677753833
 30
0.0
 10
3.5889350188
 20
8.5375293282
 30
0.0
 10
3.535011125
 20
8.5740700983
 30
0.0
 10
3.5077890898
 20
8.5884579069
 30
0.0
 11
3.8704699262
 21
7.9839468152
 31
0.0
 11
3.8576373746
 21
8.0826217141
 31
0.0
 11
3.8282187367
 21
8.1854362613
 31
0.0
 11
3.7836862083
 21
8.2872432878
 31
0.0
 11
3.7262690894
 21
8.3829457715
 31
0.0
 11
3.6588417263
 21
8.4677527843
 31
0.0
 11
3.5847792879
 21
8.5374192594
 31
0.0
 11
3.5077890898
 21
8.5884579069
 31
0.0
  0
SPLINE
  5
425
100
AcDbEntity
  8
ASSI
100
AcDbSpline
 62
253
  6
CONTINUOUS
 70
0
 71
3
 72
14
 73
10
 74
8
 42
0.0000001
 43
0.0000001
 44
0.0000000001
 12
-0.6583238565
 22
-0.2802691892
 32
0.0
 13
-0.6396172894
 23
0.3206724833
 33
0.0
 40
0.0
 40
0.0
 40
0.0
 40
0.0
 40
0.1292115639
 40
0.2716542059
 40
0.4225765638
 40
0.5764654308
 40
0.7275594583
 40
0.8703316481
 40
1.0
 40
1.0
 40
1.0
 40
1.0
 10
3.1834268417
 20
6.8284395419
 30
0.0
 10
3.15507249
 20
6.8163682018
 30
0.0
 10
3.0931911149
 20
6.7962235095
 30
0.0
 10
2.9939063724
 20
6.7777059272
 30
0.0
 10
2.8873008998
 20
6.769999817
 30
0.0
 10
2.7784339247
 20
6.773495443
 30
0.0
 10
2.6724230841
 20
6.7880286602
 30
0.0
 10
2.5742983843
 20
6.8128859692
 30
0.0
 10
2.5136363864
 20
6.8369536954
 30
0.0
 10
2.4859903464
 20
6.8508140529
 30
0.0
 11
3.1834268417
 21
6.8284395419
 31
0.0
 11
3.0957652672
 21
6.7990690302
 31
0.0
 11
2.9956632095
 21
6.7799166061
 31
0.0
 11
2.8879753012
 21
6.7719114224
 31
0.0
 11
2.7779243367
 21
6.775441845
 31
0.0
 11
2.6708474677
 21
6.7903366544
 31
0.0
 11
2.5719372846
 21
6.815873516
 31
0.0
 11
2.4859903464
 21
6.8508140529
 31
0.0
  0
SPLINE
  5
426
100
AcDbEntity
  8
ASSI
100
AcDbSpline
 62
253
  6
CONTINUOUS
 70
0
 71
3
 72
14
 73
10
 74
8
 42
0.0000001
 43
0.0000001
 44
0.0000000001
 12
-0.6370391557
 22
-0.3332781682
 32
0.0
 13
-0.6433750705
 23
0.3208765212
 33
0.0
 40
0.0
 40
0.0
 40
0.0
 40
0.0
 40
0.1324040227
 40
0.2764367741
 40
0.4275929775
 40
0.5806818376
 40
0.7303385266
 40
0.8715136763
 40
1.0
 40
1.0
 40
1.0
 40
1.0
 10
3.1834268409
 20
-28.4572837077
 30
0.0
 10
3.1553113253
 20
-28.4719928311
 30
0.0
 10
3.0938103005
 20
-28.4974615518
 30
0.0
 10
2.9943957809
 20
-28.5233303168
 30
0.0
 10
2.8876662053
 20
-28.5376367349
 30
0.0
 10
2.7786756149
 20
-28.5396870154
 30
0.0
 10
2.6725262488
 20
-28.5293858732
 30
0.0
 10
2.5742355158
 20
-28.5072415789
 30
0.0
 10
2.5135770432
 20
-28.48395553
 30
0.0
 10
2.4860220773
 20
-28.4702127819
 30
0.0
 11
3.1834268409
 21
-28.4572837077
 31
0.0
 11
3.0957619755
 21
-28.4943840598
 31
0.0
 11
2.9956591128
 21
-28.52089049
 31
0.0
 11
2.8879737991
 21
-28.5355175833
 31
0.0
 11
2.7779290115
 21
-28.537556503
 31
0.0
 11
2.6708610167
 21
-28.5269091367
 31
0.0
 11
2.5719605828
 21
-28.5040923735
 31
0.0
 11
2.4860220773
 21
-28.4702127819
 31
0.0
  0
SPLINE
  5
427
100
AcDbEntity
  8
ASSI
100
AcDbSpline
 62
253
  6
CONTINUOUS
 70
0
 71
3
 72
12
 73
8
 74
6
 42
0.0000001
 43
0.0000001
 44
0.0000000001
 12
-0.7101404867
 22
0.4441178096
 32
0.0
 13
-0.0278386942
 23
0.8338082577
 33
0.0
 40
0.0
 40
0.0
 40
0.0
 40
0.0
 40
0.052107719
 40
0.2587489348
 40
0.4825397853
 40
0.7291583067
 40
1.0
 40
1.0
 40
1.0
 40
1.0
 10
-27.5696393055
 20
-14.0038533145
 30
0.0
 10
-27.5819739058
 20
-13.9961393258
 30
0.0
 10
-27.6416996079
 20
-13.9554234908
 30
0.0
 10
-27.7370658904
 20
-13.8583626613
 30
0.0
 10
-27.82960728
 20
-13.692242281
 30
0.0
 10
-27.8883699313
 20
-13.4932785041
 30
0.0
 10
-27.9036577307
 20
-13.3494261927
 30
0.0
 10
-27.9061710237
 20
-13.2741495125
 30
0.0
 11
-27.5696393055
 21
-14.0038533145
 31
0.0
 11
-27.6056811331
 21
-13.9792808382
 31
0.0
 11
-27.727629964
 21
-13.8574261168
 31
0.0
 11
-27.820375137
 21
-13.6953884486
 31
0.0
 11
-27.8806044042
 21
-13.4986543118
 31
0.0
 11
-27.9061710237
 21
-13.2741495125
 31
0.0
  0
SPLINE
  5
428
100
AcDbEntity
  8
ASSI
100
AcDbSpline
 62
253
  6
CONTINUOUS
 70
0
 71
3
 72
12
 73
8
 74
6
 42
0.0000001
 43
0.0000001
 44
0.0000000001
 12
-0.0144742016
 22
-0.3367174944
 32
0.0
 13
-0.3132838486
 23
-0.1285410347
 33
0.0
 40
0.0
 40
0.0
 40
0.0
 40
0.0
 40
0.2803242839
 40
0.5327878774
 40
0.7594790348
 40
0.9691861491
 40
1.0
 40
1.0
 40
1.0
 40
1.0
 10
3.8704699262
 20
-28.9608114383
 30
0.0
 10
3.8691174362
 20
-28.9922748018
 30
0.0
 10
3.8614958044
 20
-29.0520759529
 30
0.0
 10
3.8328145561
 20
-29.1332535344
 30
0.0
 10
3.7880388514
 20
-29.1977932911
 30
0.0
 10
3.744779354
 20
-29.2294621679
 30
0.0
 10
3.7199485088
 20
-29.2404498247
 30
0.0
 10
3.7167306816
 20
-29.2417701061
 30
0.0
 11
3.8704699262
 21
-28.9608114383
 31
0.0
 11
3.8576372212
 21
-29.0544131153
 31
0.0
 11
3.8282184142
 21
-29.1342529649
 31
0.0
 11
3.7836858487
 21
-29.1963337165
 31
0.0
 11
3.7262687837
 21
-29.2375472596
 31
0.0
 11
3.7167306816
 21
-29.2417701061
 31
0.0
  0
SPLINE
  5
429
100
AcDbEntity
  8
ASSI
100
AcDbSpline
 62
253
  6
CONTINUOUS
 70
0
 71
3
 72
15
 73
11
 74
9
 42
0.0000001
 43
0.0000001
 44
0.0000000001
 12
0.0615546816
 22
1.9046245804
 32
0.0
 13
1.5130158007
 23
1.1634277853
 33
0.0
 40
0.0
 40
0.0
 40
0.0
 40
0.0
 40
0.1322861147
 40
0.2715894477
 40
0.4151760769
 40
0.5601228454
 40
0.7034773833
 40
0.8422788288
 40
0.9737665138
 40
1.0
 40
1.0
 40
1.0
 40
1.0
 10
-27.9061710235
 20
22.0468946897
 30
0.0
 10
-27.9034567469
 20
22.1308798183
 30
0.0
 10
-27.885220368
 20
22.3030483931
 30
0.0
 10
-27.8247716632
 20
22.5603457115
 30
0.0
 10
-27.7324888116
 20
22.8165813271
 30
0.0
 10
-27.6114059101
 20
23.0633676707
 30
0.0
 10
-27.4654235785
 20
23.2927200269
 30
0.0
 10
-27.2992152289
 20
23.497064149
 30
0.0
 10
-27.1624882235
 20
23.6273658897
 30
0.0
 10
-27.0839114285
 20
23.6897898477
 30
0.0
 10
-27.0706808688
 20
23.6999634367
 30
0.0
 11
-27.9061710235
 21
22.0468946897
 31
0.0
 11
-27.880636641
 21
22.297685075
 31
0.0
 11
-27.8205867394
 21
22.5562629771
 31
0.0
 11
-27.7281618589
 21
22.8138019387
 31
0.0
 11
-27.6064821948
 21
23.0617693867
 31
0.0
 11
-27.4594959614
 21
23.2920342013
 31
0.0
 11
-27.2920506119
 21
23.4967870237
 31
0.0
 11
-27.1098886321
 21
23.6688336692
 31
0.0
 11
-27.0706808688
 21
23.6999634367
 31
0.0
  0
SPLINE
  5
42A
100
AcDbEntity
  8
ASSI
100
AcDbSpline
 62
253
  6
CONTINUOUS
 70
0
 71
3
 72
8
 73
4
 74
2
 42
0.0000001
 43
0.0000001
 44
0.0000000001
 12
0.144853164
 22
0.1113842934
 32
0.0
 13
0.1575951914
 23
0.0919140412
 33
0.0
 40
0.0
 40
0.0
 40
0.0
 40
0.0
 40
1.0
 40
1.0
 40
1.0
 40
1.0
 10
-27.0706808688
 20
23.6999634367
 30
0.0
 10
-27.0223964808
 20
23.7370915344
 30
0.0
 10
-26.9719675526
 20
23.7714323428
 30
0.0
 10
-26.9194358222
 20
23.8020703565
 30
0.0
 11
-27.0706808688
 21
23.6999634367
 31
0.0
 11
-26.9194358222
 21
23.8020703565
 31
0.0
  0
SPLINE
  5
42B
100
AcDbEntity
  8
ASSI
100
AcDbSpline
 62
253
  6
CONTINUOUS
 70
0
 71
3
 72
15
 73
11
 74
9
 42
0.0000001
 43
0.0000001
 44
0.0000000001
 12
-1.8389560766
 22
-1.0041210479
 32
0.0
 13
-0.0701465271
 23
-2.0940625576
 33
0.0
 40
0.0
 40
0.0
 40
0.0
 40
0.0
 40
0.1126989169
 40
0.2335159314
 40
0.3604921003
 40
0.4911932324
 40
0.6230253543
 40
0.7534208634
 40
0.8798565463
 40
1.0
 40
1.0
 40
1.0
 40
1.0
 10
3.5077890836
 20
8.5884579036
 30
0.0
 10
3.4387062976
 20
8.5507367854
 30
0.0
 10
3.30234764
 20
8.4597822517
 30
0.0
 10
3.1149074838
 20
8.2906126826
 30
0.0
 10
2.9426718915
 20
8.089171028
 30
0.0
 10
2.7913964279
 20
7.8623393677
 30
0.0
 10
2.6659270447
 20
7.6176091342
 30
0.0
 10
2.5703018757
 20
7.3628924667
 30
0.0
 10
2.5076671852
 20
7.1065212842
 30
0.0
 10
2.488799556
 20
6.9346766436
 30
0.0
 10
2.4859903406
 20
6.8508140077
 30
0.0
 11
3.5077890836
 21
8.5884579036
 31
0.0
 11
3.3105680539
 21
8.4586053249
 31
0.0
 11
3.12193314
 21
8.2897951458
 31
0.0
 11
2.94853916
 21
8.088016639
 31
0.0
 11
2.7963290787
 21
7.8603637497
 31
0.0
 11
2.6703252583
 21
7.6145583815
 31
0.0
 11
2.574616245
 21
7.3586614869
 31
0.0
 11
2.5124327517
 21
7.1011503804
 31
0.0
 11
2.4859903406
 21
6.8508140077
 31
0.0
  0
SPLINE
  5
42C
100
AcDbEntity
  8
ASSI
100
AcDbSpline
 62
253
  6
CONTINUOUS
 70
0
 71
3
 72
12
 73
8
 74
6
 42
0.0000001
 43
0.0000001
 44
0.0000000001
 12
0.0310269213
 22
-0.8977366187
 32
0.0
 13
0.8054826473
 23
-0.4052672951
 33
0.0
 40
0.0
 40
0.0
 40
0.0
 40
0.0
 40
0.2521635102
 40
0.4830560708
 40
0.6943297227
 40
0.8913716622
 40
1.0
 40
1.0
 40
1.0
 40
1.0
 10
2.4859903404
 20
-28.4702301946
 30
0.0
 10
2.4885982929
 20
-28.5456890002
 30
0.0
 10
2.5045293439
 20
-28.6902681236
 30
0.0
 10
2.56558841
 20
-28.890458027
 30
0.0
 10
2.661677
 20
-29.0582094971
 30
0.0
 10
2.7727727969
 20
-29.1689774382
 30
0.0
 10
2.8514208574
 20
-29.2170950248
 30
0.0
 10
2.8805869378
 20
-29.231769529
 30
0.0
 11
2.4859903404
 21
-28.4702301946
 31
0.0
 11
2.5124654221
 21
-28.6951892241
 31
0.0
 11
2.5748353421
 21
-28.8929936873
 31
0.0
 11
2.6708766587
 21
-29.0566794277
 31
0.0
 11
2.7971577148
 21
-29.1807002622
 31
0.0
 11
2.8805869378
 21
-29.231769529
 31
0.0
  0
SPLINE
  5
42D
100
AcDbEntity
  8
ASSI
100
AcDbSpline
 62
253
  6
CONTINUOUS
 70
0
 71
3
 72
15
 73
11
 74
9
 42
0.0000001
 43
0.0000001
 44
0.0000000001
 12
0.0361324057
 22
-1.0344177507
 32
0.0
 13
0.9571625173
 23
0.3939105853
 33
0.0
 40
0.0
 40
0.0
 40
0.0
 40
0.0
 40
0.1443926661
 40
0.2785472649
 40
0.4019303247
 40
0.5171112183
 40
0.6294139953
 40
0.7448146412
 40
0.8677578933
 40
1.0
 40
1.0
 40
1.0
 40
1.0
 10
3.1834268417
 20
-28.4572837081
 30
0.0
 10
3.1851659265
 20
-28.5070711537
 30
0.0
 10
3.1957585103
 20
-28.6031251594
 30
0.0
 10
3.2364846448
 20
-28.7366693472
 30
0.0
 10
3.3011806025
 20
-28.8493089892
 30
0.0
 10
3.388156811
 20
-28.9358442287
 30
0.0
 10
3.4943942338
 20
-28.9918463011
 30
0.0
 10
3.6148568744
 20
-29.0147729626
 30
0.0
 10
3.7435674914
 20
-29.0046043286
 30
0.0
 10
3.8282775303
 20
-28.9781752936
 30
0.0
 10
3.8704699262
 20
-28.9608114383
 30
0.0
 11
3.1834268417
 21
-28.4572837081
 31
0.0
 11
3.2008857233
 21
-28.6057138765
 31
0.0
 11
3.2426252746
 21
-28.7381485631
 31
0.0
 11
3.3073462992
 21
-28.848241186
 31
0.0
 11
3.3924828419
 21
-28.9316957167
 31
0.0
 11
3.4953014977
 21
-28.9859155516
 31
0.0
 11
3.6124764263
 21
-29.0090933575
 31
0.0
 11
3.7394279584
 21
-29.0003502591
 31
0.0
 11
3.8704699262
 21
-28.9608114383
 31
0.0
  0
SPLINE
  5
42E
100
AcDbEntity
  8
ASSI
100
AcDbSpline
 62
253
  6
CONTINUOUS
 70
0
 71
3
 72
11
 73
7
 74
5
 42
0.0000001
 43
0.0000001
 44
0.0000000001
 12
-1.1870950989
 22
-35.2721974637
 32
0.0
 13
1.2262120839
 23
-35.2708592554
 33
0.0
 40
0.0
 40
0.0
 40
0.0
 40
0.0
 40
0.2530024838
 40
0.5040534976
 40
0.7530767173
 40
1.0
 40
1.0
 40
1.0
 40
1.0
 10
3.1834268417
 20
6.8284395419
 30
0.0
 10
3.0833141722
 20
3.8537883526
 30
0.0
 10
2.9327257727
 20
-2.0743362065
 30
0.0
 10
2.8567095469
 20
-10.9336574703
 30
0.0
 10
2.9315029726
 20
-19.7214774123
 30
0.0
 10
3.0825000707
 20
-25.5542182574
 30
0.0
 10
3.1834268417
 20
-28.4572837081
 30
0.0
 11
3.1834268417
 21
6.8284395419
 31
0.0
 11
2.9572633483
 21
-2.0977018572
 31
0.0
 11
2.8818461499
 21
-10.9575153831
 31
0.0
 11
2.9572632953
 21
-19.7457610475
 31
0.0
 11
3.1834268417
 21
-28.4572837081
 31
0.0
  0
SPLINE
  5
42F
100
AcDbEntity
  8
ASSI
100
AcDbSpline
 62
253
  6
CONTINUOUS
 70
0
 71
3
 72
15
 73
11
 74
9
 42
0.0000001
 43
0.0000001
 44
0.0000000001
 12
-1.23160805
 22
-0.6616903488
 32
0.0
 13
-0.0474011345
 23
-1.3972994092
 33
0.0
 40
0.0
 40
0.0
 40
0.0
 40
0.0
 40
0.1117469814
 40
0.2328793707
 40
0.3605135598
 40
0.4916507096
 40
0.6239749366
 40
0.7549815983
 40
0.88143068
 40
1.0
 40
1.0
 40
1.0
 40
1.0
 10
3.8704699262
 20
7.9839468152
 30
0.0
 10
3.8245937656
 20
7.9592995155
 30
0.0
 10
3.7333755027
 20
7.8995179765
 30
0.0
 10
3.6073762247
 20
7.7876359399
 30
0.0
 10
3.4910911607
 20
7.6535064469
 30
0.0
 10
3.3888513366
 20
7.5021140115
 30
0.0
 10
3.3041156928
 20
7.3385119199
 30
0.0
 10
3.2396583624
 20
7.168219772
 30
0.0
 10
3.1978119384
 20
6.9976036545
 30
0.0
 10
3.1853002818
 20
6.8836651555
 30
0.0
 10
3.1834268417
 20
6.8284395419
 30
0.0
 11
3.8704699262
 21
7.9839468152
 31
0.0
 11
3.7393144755
 21
7.8990512843
 31
0.0
 11
3.6122089758
 21
7.7871338859
 31
0.0
 11
3.4949756208
 21
7.6526005003
 31
0.0
 11
3.392203985
 21
7.5007691985
 31
0.0
 11
3.3071201817
 21
7.3364925178
 31
0.0
 11
3.242509961
 21
7.1651057935
 31
0.0
 11
3.2008649938
 21
6.9932919438
 31
0.0
 11
3.1834268417
 21
6.8284395419
 31
0.0
  0
SPLINE
  5
430
100
AcDbEntity
  8
ASSI
100
AcDbSpline
 62
253
  6
CONTINUOUS
 70
0
 71
3
 72
11
 73
7
 74
5
 42
0.0000001
 43
0.0000001
 44
0.0000000001
 12
0.0079766006
 22
-0.2424814286
 32
0.0
 13
0.215168694
 23
-0.1078561747
 33
0.0
 40
0.0
 40
0.0
 40
0.0
 40
0.0
 40
0.1158400553
 40
0.3702899703
 40
0.6617238333
 40
1.0
 40
1.0
 40
1.0
 40
1.0
 10
-28.052569449
 20
-13.0963814957
 30
0.0
 10
-28.0522614457
 20
-13.1057445164
 30
0.0
 10
-28.0483351996
 20
-13.1355725893
 30
0.0
 10
-28.024550495
 20
-13.1845076947
 30
0.0
 10
-27.9738888349
 20
-13.2354199961
 30
0.0
 10
-27.9304331624
 20
-13.261987833
 30
0.0
 10
-27.9061710154
 20
-13.2741495575
 30
0.0
 11
-28.052569449
 21
-13.0963814957
 31
0.0
 11
-28.0488865941
 21
-13.1241678484
 31
0.0
 11
-28.023346934
 21
-13.179831332
 31
0.0
 11
-27.9749934709
 21
-13.230646644
 31
0.0
 11
-27.9061710154
 21
-13.2741495575
 31
0.0
  0
SPLINE
  5
431
100
AcDbEntity
  8
ASSI
100
AcDbSpline
 62
253
  6
CONTINUOUS
 70
0
 71
3
 72
11
 73
7
 74
5
 42
0.0000001
 43
0.0000001
 44
0.0000000001
 12
-1.1882534875
 22
-35.307505577
 32
0.0
 13
1.2274099059
 23
-35.3061660527
 33
0.0
 40
0.0
 40
0.0
 40
0.0
 40
0.0
 40
0.2530243991
 40
0.5040534949
 40
0.753055181
 40
1.0
 40
1.0
 40
1.0
 40
1.0
 10
2.4859903407
 20
6.8508140076
 30
0.0
 10
2.3857712992
 20
3.8729272138
 30
0.0
 10
2.2350385276
 20
-2.0611315332
 30
0.0
 10
2.1589600914
 20
-10.9290672648
 30
0.0
 10
2.23381456
 20
-19.725425633
 30
0.0
 10
2.3849561681
 20
-25.5640052658
 30
0.0
 10
2.4859903405
 20
-28.4702301946
 30
0.0
 11
2.4859903407
 21
6.8508140076
 31
0.0
 11
2.2595923089
 21
-2.0850366206
 31
0.0
 11
2.1841157804
 21
-10.9529445311
 31
0.0
 11
2.2595921696
 21
-19.7492265232
 31
0.0
 11
2.4859903405
 21
-28.4702301946
 31
0.0
  0
LINE
  5
432
100
AcDbEntity
  8
ASSI
100
AcDbLine
 62
253
  6
CONTINUOUS
 10
-27.9061710238
 20
-13.2741495125
 11
-27.9121499375
 21
-13.0921159109
  0
SPLINE
  5
433
100
AcDbEntity
  8
ASSI
100
AcDbSpline
 62
253
  6
CONTINUOUS
 70
0
 71
3
 72
11
 73
7
 74
5
 42
0.0000001
 43
0.0000001
 44
0.0000000001
 12
-1.1475227787
 22
35.1260109333
 32
0.0
 13
1.1209377586
 23
35.1268417165
 33
0.0
 40
0.0
 40
0.0
 40
0.0
 40
0.0
 40
0.2428742603
 40
0.493115234
 40
0.745503663
 40
1.0
 40
1.0
 40
1.0
 40
1.0
 10
-27.9121499375
 20
-13.0921159109
 30
0.0
 10
-28.0050511862
 20
-10.2483812698
 30
0.0
 10
-28.1460127309
 20
-4.4729953017
 30
0.0
 10
-28.2165266443
 20
4.2606004178
 30
0.0
 10
-28.1442985936
 20
13.1303343206
 30
0.0
 10
-28.0012625414
 20
19.0670105068
 30
0.0
 10
-27.9061710235
 20
22.0468946898
 30
0.0
 11
-27.9121499375
 21
-13.0921159109
 31
0.0
 11
-28.1210261686
 21
-4.5589173611
 31
0.0
 11
-28.1926542826
 21
4.2354404918
 31
0.0
 11
-28.1210260373
 21
13.1052725445
 31
0.0
 11
-27.9061710235
 21
22.0468946898
 31
0.0
  0
SPLINE
  5
434
100
AcDbEntity
  8
ASSI
100
AcDbSpline
 62
253
  6
CONTINUOUS
 70
0
 71
3
 72
11
 73
7
 74
5
 42
0.0000001
 43
0.0000001
 44
0.0000000001
 12
-0.0067570443
 22
-0.2414607678
 32
0.0
 13
0.2141932963
 23
-0.1068069479
 33
0.0
 40
0.0
 40
0.0
 40
0.0
 40
0.0
 40
0.1374126843
 40
0.3772587039
 40
0.6621897017
 40
1.0
 40
1.0
 40
1.0
 40
1.0
 10
-28.0525530719
 20
22.2217206402
 30
0.0
 10
-28.0528625731
 20
22.2106607161
 30
0.0
 10
-28.0494053821
 20
22.180108601
 30
0.0
 10
-28.0237452624
 20
22.1323559967
 30
0.0
 10
-27.973229731
 20
22.0845556347
 30
0.0
 10
-27.9302671452
 20
22.0589318033
 30
0.0
 10
-27.9061482447
 20
22.0469049743
 30
0.0
 11
-28.0525530719
 21
22.2217206402
 31
0.0
 11
-28.0488632433
 21
22.1888481367
 31
0.0
 11
-28.0233204864
 21
22.137437663
 31
0.0
 11
-27.9749671864
 21
22.089346075
 31
0.0
 11
-27.9061482447
 21
22.0469049743
 31
0.0
  0
SPLINE
  5
435
100
AcDbEntity
  8
ASSI
100
AcDbSpline
 62
253
  6
CONTINUOUS
 70
0
 71
3
 72
11
 73
7
 74
5
 42
0.0000001
 43
0.0000001
 44
0.0000000001
 12
0.2120347473
 22
0.1260129105
 32
0.0
 13
0.2217772173
 23
-0.1048822257
 33
0.0
 40
0.0
 40
0.0
 40
0.0
 40
0.0
 40
0.0664221844
 40
0.3471577989
 40
0.6544750962
 40
1.0
 40
1.0
 40
1.0
 40
1.0
 10
-27.1557951431
 20
23.8090446279
 30
0.0
 10
-27.1511005394
 20
23.8118346455
 30
0.0
 10
-27.1259170856
 20
23.8253035213
 30
0.0
 10
-27.0728998851
 20
23.8388361173
 30
0.0
 10
-26.9957360804
 20
23.8323899051
 30
0.0
 10
-26.9449790061
 20
23.8141501635
 30
0.0
 10
-26.9194358222
 20
23.8020703565
 30
0.0
 11
-27.1557951431
 21
23.8090446279
 31
0.0
 11
-27.1413561851
 21
23.8167583954
 31
0.0
 11
-27.074832505
 21
23.8345898885
 31
0.0
 11
-26.999603818
 21
23.8296108045
 31
0.0
 11
-26.9194358222
 21
23.8020703565
 31
0.0
  0
SPLINE
  5
436
100
AcDbEntity
  8
RACCORDO
100
AcDbSpline
 62
253
  6
CONTINUOUS
 70
0
 71
3
 72
13
 73
9
 74
7
 42
0.0000001
 43
0.0000001
 44
0.0000000001
 12
-1.2309347156
 22
-0.661328595
 32
0.0
 13
-0.0473752197
 23
-1.3965354894
 33
0.0
 40
0.0
 40
0.0
 40
0.0
 40
0.0
 40
0.1515405306
 40
0.3171996743
 40
0.4912180102
 40
0.6674789447
 40
0.8393293668
 40
1.0
 40
1.0
 40
1.0
 40
1.0
 10
3.8704699262
 20
7.9839468152
 30
0.0
 10
3.8082910929
 20
7.9505407865
 30
0.0
 10
3.6862095916
 20
7.8651385994
 30
0.0
 10
3.5253679487
 20
7.7009706182
 30
0.0
 10
3.3865573359
 20
7.5035687857
 30
0.0
 10
3.278321599
 20
7.284704907
 30
0.0
 10
3.2070356143
 20
7.0577120866
 30
0.0
 10
3.1859641105
 20
6.9032336224
 30
0.0
 10
3.1834268417
 20
6.8284395419
 30
0.0
 11
3.8704699262
 21
7.9839468152
 31
0.0
 11
3.6958018686
 21
7.8642363302
 31
0.0
 11
3.5328223858
 21
7.6998539021
 31
0.0
 11
3.3924989642
 21
7.5012654432
 31
0.0
 11
3.2834034313
 21
7.280448764
 31
0.0
 11
3.2122849877
 21
7.0510884523
 31
0.0
 11
3.1834268417
 21
6.8284395419
 31
0.0
  0
SPLINE
  5
437
100
AcDbEntity
  8
RACCORDO
100
AcDbSpline
 62
253
  6
CONTINUOUS
 70
0
 71
3
 72
11
 73
7
 74
5
 42
0.0000001
 43
0.0000001
 44
0.0000000001
 12
-0.0326907537
 22
0.7294735266
 32
0.0
 13
-0.6455807406
 23
0.3412122782
 33
0.0
 40
0.0
 40
0.0
 40
0.0
 40
0.0
 40
0.2448893931
 40
0.5106820882
 40
0.7706670834
 40
1.0
 40
1.0
 40
1.0
 40
1.0
 10
3.8704699262
 20
7.9839468152
 30
0.0
 10
3.8678013866
 20
8.0434935916
 30
0.0
 10
3.8421793806
 20
8.1669057545
 30
0.0
 10
3.7630578208
 20
8.3384727573
 30
0.0
 10
3.6516239805
 20
8.4863008147
 30
0.0
 10
3.5571400612
 20
8.5623741713
 30
0.0
 10
3.5077890898
 20
8.5884579069
 30
0.0
 11
3.8704699262
 21
7.9839468152
 31
0.0
 11
3.8370636038
 21
8.159618312
 31
0.0
 11
3.7564277289
 21
8.3361578124
 31
0.0
 11
3.6408126016
 21
8.486734448
 31
0.0
 11
3.5077890898
 21
8.5884579069
 31
0.0
  0
SPLINE
  5
438
100
AcDbEntity
  8
RACCORDO
100
AcDbSpline
 62
253
  6
CONTINUOUS
 70
0
 71
3
 72
11
 73
7
 74
5
 42
0.0000001
 43
0.0000001
 44
0.0000000001
 12
-0.6574749474
 22
-0.2799077818
 32
0.0
 13
-0.6387925025
 23
0.3202589759
 33
0.0
 40
0.0
 40
0.0
 40
0.0
 40
0.0
 40
0.2349706432
 40
0.4995090645
 40
0.7643103083
 40
1.0
 40
1.0
 40
1.0
 40
1.0
 10
3.1834268417
 20
6.8284395419
 30
0.0
 10
3.1319310712
 20
6.8065161714
 30
0.0
 10
3.0152917222
 20
6.7768208
 30
0.0
 10
2.8326700342
 20
6.7667053362
 30
0.0
 10
2.6509019724
 20
6.7885432614
 30
0.0
 10
2.5361759491
 20
6.8256534732
 30
0.0
 10
2.4859903464
 20
6.8508140529
 30
0.0
 11
3.1834268417
 21
6.8284395419
 31
0.0
 11
3.0215960056
 21
6.7836866939
 31
0.0
 11
2.8329100357
 21
6.7722322747
 31
0.0
 11
2.6451577211
 21
6.7957632379
 31
0.0
 11
2.4859903464
 21
6.8508140529
 31
0.0
  0
SPLINE
  5
439
100
AcDbEntity
  8
RACCORDO
100
AcDbSpline
 62
253
  6
CONTINUOUS
 70
0
 71
3
 72
11
 73
7
 74
5
 42
0.0000001
 43
0.0000001
 44
0.0000000001
 12
-0.6360619197
 22
-0.3327669099
 32
0.0
 13
-0.6423880991
 23
0.3203843195
 33
0.0
 40
0.0
 40
0.0
 40
0.0
 40
0.0
 40
0.2394988559
 40
0.5042464262
 40
0.7667064304
 40
1.0
 40
1.0
 40
1.0
 40
1.0
 10
3.1834268409
 20
-28.4572837077
 30
0.0
 10
3.1326481403
 20
-28.4838494724
 30
0.0
 10
3.0168827204
 20
-28.5229602758
 30
0.0
 10
2.8335860253
 20
-28.5442351782
 30
0.0
 10
2.6511082755
 20
-28.5300572335
 30
0.0
 10
2.5359770816
 20
-28.4951273157
 30
0.0
 10
2.4860220773
 20
-28.4702127819
 30
0.0
 11
3.1834268409
 21
-28.4572837077
 31
0.0
 11
3.0215999181
 21
-28.5153353549
 31
0.0
 11
2.8329229613
 21
-28.5381310126
 31
0.0
 11
2.6451811823
 21
-28.5223137158
 31
0.0
 11
2.4860220773
 21
-28.4702127819
 31
0.0
  0
SPLINE
  5
43A
100
AcDbEntity
  8
RACCORDO
100
AcDbSpline
 62
253
  6
CONTINUOUS
 70
0
 71
3
 72
10
 73
6
 74
4
 42
0.0000001
 43
0.0000001
 44
0.0000000001
 12
-0.0143883936
 22
-0.3347213152
 32
0.0
 13
-0.315546969
 23
-0.1274333013
 33
0.0
 40
0.0
 40
0.0
 40
0.0
 40
0.0
 40
0.4732852999
 40
0.8658218485
 40
1.0
 40
1.0
 40
1.0
 40
1.0
 10
3.8704699262
 20
-28.9608114383
 30
0.0
 10
3.8681999879
 20
-29.0136176644
 30
0.0
 10
3.8510262591
 20
-29.1108839831
 30
0.0
 10
3.7834007501
 20
-29.2072274903
 30
0.0
 10
3.7306624039
 20
-29.2356210659
 30
0.0
 10
3.7165492342
 20
-29.2413206542
 30
0.0
 11
3.8704699262
 21
-28.9608114383
 31
0.0
 11
3.8370606347
 21
-29.1158168266
 31
0.0
 11
3.7564211659
 21
-29.2197042641
 31
0.0
 11
3.7165492342
 21
-29.2413206542
 31
0.0
  0
SPLINE
  5
43B
100
AcDbEntity
  8
RACCORDO
100
AcDbSpline
 62
253
  6
CONTINUOUS
 70
0
 71
3
 72
13
 73
9
 74
7
 42
0.0000001
 43
0.0000001
 44
0.0000000001
 12
0.0607803398
 22
1.8806649031
 32
0.0
 13
1.4786716882
 23
1.1714917029
 33
0.0
 40
0.0
 40
0.0
 40
0.0
 40
0.0
 40
0.1801714616
 40
0.3716218407
 40
0.5674313681
 40
0.7601057031
 40
0.9425552716
 40
1.0
 40
1.0
 40
1.0
 40
1.0
 10
-27.9061710235
 20
22.0468946897
 30
0.0
 10
-27.9025207292
 20
22.1598420712
 30
0.0
 10
-27.872068715
 20
22.3923646714
 30
0.0
 10
-27.7697335622
 20
22.734560422
 30
0.0
 10
-27.6148773029
 20
23.0651468021
 30
0.0
 10
-27.4163763486
 20
23.3648664586
 30
0.0
 10
-27.2322717857
 20
23.5657034821
 30
0.0
 10
-27.1171346215
 20
23.6633913434
 30
0.0
 10
-27.088820657
 20
23.685823351
 30
0.0
 11
-27.9061710235
 21
22.0468946897
 31
0.0
 11
-27.8643971593
 21
22.3833302184
 31
0.0
 11
-27.7623160681
 21
22.7288063336
 31
0.0
 11
-27.6060799839
 21
23.0624851343
 31
0.0
 11
-27.4051092515
 21
23.3642295242
 31
0.0
 11
-27.1715282608
 21
23.6158218322
 31
0.0
 11
-27.088820657
 21
23.685823351
 31
0.0
  0
SPLINE
  5
43C
100
AcDbEntity
  8
RACCORDO
100
AcDbSpline
 62
253
  6
CONTINUOUS
 70
0
 71
3
 72
8
 73
4
 74
2
 42
0.0000001
 43
0.0000001
 44
0.0000000001
 12
0.1613645986
 22
0.1278426374
 32
0.0
 13
0.1773768666
 23
0.1034512823
 33
0.0
 40
0.0
 40
0.0
 40
0.0
 40
0.0
 40
1.0
 40
1.0
 40
1.0
 40
1.0
 10
-27.088820657
 20
23.685823351
 30
0.0
 10
-27.0350324574
 20
23.7284375634
 30
0.0
 10
-26.9785614444
 20
23.7675865958
 30
0.0
 10
-26.9194358222
 20
23.8020703565
 30
0.0
 11
-27.088820657
 21
23.685823351
 31
0.0
 11
-26.9194358222
 21
23.8020703565
 31
0.0
  0
SPLINE
  5
43D
100
AcDbEntity
  8
RACCORDO
100
AcDbSpline
 62
253
  6
CONTINUOUS
 70
0
 71
3
 72
13
 73
9
 74
7
 42
0.0000001
 43
0.0000001
 44
0.0000000001
 12
-1.837960336
 22
-1.0035773459
 32
0.0
 13
-0.0701085448
 23
-2.0929286844
 33
0.0
 40
0.0
 40
0.0
 40
0.0
 40
0.0
 40
0.1519025674
 40
0.3171408761
 40
0.4907801152
 40
0.6666725767
 40
0.8383703303
 40
1.0
 40
1.0
 40
1.0
 40
1.0
 10
3.5077890836
 20
8.5884579036
 30
0.0
 10
3.4147254523
 20
8.5376425785
 30
0.0
 10
3.2327891121
 20
8.408253082
 30
0.0
 10
2.9937334322
 20
8.1607642066
 30
0.0
 10
2.7879279544
 20
7.8644086223
 30
0.0
 10
2.6273774422
 20
7.5363364465
 30
0.0
 10
2.5212803406
 20
7.1956489756
 30
0.0
 10
2.4897675476
 20
6.9635737983
 30
0.0
 10
2.4859903406
 20
6.8508140077
 30
0.0
 11
3.5077890836
 21
8.5884579036
 31
0.0
 11
3.2467391177
 21
8.406688143
 31
0.0
 11
3.0048587048
 21
8.1592455461
 31
0.0
 11
2.7967455698
 21
7.8610723574
 31
0.0
 11
2.6349568034
 21
7.5301698978
 31
0.0
 11
2.529248401
 21
7.1865074382
 31
0.0
 11
2.4859903406
 21
6.8508140077
 31
0.0
  0
SPLINE
  5
43E
100
AcDbEntity
  8
RACCORDO
100
AcDbSpline
 62
253
  6
CONTINUOUS
 70
0
 71
3
 72
11
 73
7
 74
5
 42
0.0000001
 43
0.0000001
 44
0.0000000001
 12
0.0309688853
 22
-0.8960573979
 32
0.0
 13
0.8068480344
 23
-0.4049997726
 33
0.0
 40
0.0
 40
0.0
 40
0.0
 40
0.0
 40
0.331349923
 40
0.6254596823
 40
0.8910020436
 40
1.0
 40
1.0
 40
1.0
 40
1.0
 10
2.4859903404
 20
-28.4702301946
 30
0.0
 10
2.489410853
 20
-28.5691997112
 30
0.0
 10
2.5143286089
 20
-28.7564099427
 30
0.0
 10
2.6180248823
 20
-29.0058093462
 30
0.0
 10
2.7547103732
 20
-29.1580397432
 30
0.0
 10
2.8512357528
 20
-29.216885711
 30
0.0
 10
2.8805506817
 20
-29.2316004269
 30
0.0
 11
2.4859903404
 21
-28.4702301946
 31
0.0
 11
2.5292484472
 21
-28.7641497793
 31
0.0
 11
2.6349569355
 21
-29.0057312339
 31
0.0
 11
2.7967451119
 21
-29.1803972756
 31
0.0
 11
2.8805506817
 21
-29.2316004269
 31
0.0
  0
SPLINE
  5
43F
100
AcDbEntity
  8
RACCORDO
100
AcDbSpline
 62
253
  6
CONTINUOUS
 70
0
 71
3
 72
9
 73
5
 74
3
 42
0.0000001
 43
0.0000001
 44
0.0000000001
 12
0.0082856191
 22
-0.2378995827
 32
0.0
 13
0.2133786945
 23
-0.1069589136
 33
0.0
 40
0.0
 40
0.0
 40
0.0
 40
0.0
 40
0.437090822
 40
1.0
 40
1.0
 40
1.0
 40
1.0
 10
-28.0526375089
 20
-13.0963833759
 30
0.0
 10
-28.0514303196
 20
-13.1310446173
 30
0.0
 10
-28.0148426023
 20
-13.2093664674
 30
0.0
 10
-27.9462086239
 20
-13.2540801728
 30
0.0
 10
-27.9061710154
 20
-13.2741495575
 30
0.0
 11
-28.0526375089
 21
-13.0963833759
 31
0.0
 11
-28.0133236223
 21
-13.1930913591
 31
0.0
 11
-27.9061710154
 21
-13.2741495575
 31
0.0
  0
SPLINE
  5
440
100
AcDbEntity
  8
RACCORDO
100
AcDbSpline
 62
253
  6
CONTINUOUS
 70
0
 71
3
 72
10
 73
6
 74
4
 42
0.0000001
 43
0.0000001
 44
0.0000000001
 12
-0.0107232991
 22
-0.2354575889
 32
0.0
 13
0.2125313314
 23
-0.1059782297
 33
0.0
 40
0.0
 40
0.0
 40
0.0
 40
0.0
 40
0.028013323
 40
0.4416709917
 40
1.0
 40
1.0
 40
1.0
 40
1.0
 10
-28.0525648168
 20
22.2216184158
 30
0.0
 10
-28.0526649485
 20
22.219419766
 30
0.0
 10
-28.0531203852
 20
22.184758404
 30
0.0
 10
-28.0122389816
 20
22.1077726553
 30
0.0
 10
-27.9457023805
 20
22.0666285476
 30
0.0
 10
-27.9061482447
 20
22.0469049743
 30
0.0
 11
-28.0525648168
 21
22.2216184158
 31
0.0
 11
-28.0526482525
 21
22.2150255698
 31
0.0
 11
-28.0132993112
 21
22.125011248
 31
0.0
 11
-27.9061482447
 21
22.0469049743
 31
0.0
  0
SPLINE
  5
441
100
AcDbEntity
  8
RACCORDO
100
AcDbSpline
 62
253
  6
CONTINUOUS
 70
0
 71
3
 72
10
 73
6
 74
4
 42
0.0000001
 43
0.0000001
 44
0.0000000001
 12
-1.1882422309
 22
-35.3071711001
 32
0.0
 13
1.2273982784
 23
-35.3058315886
 33
0.0
 40
0.0
 40
0.0
 40
0.0
 40
0.0
 40
0.3369243036
 40
0.6702820991
 40
1.0
 40
1.0
 40
1.0
 40
1.0
 10
2.4859903407
 20
6.8508140076
 30
0.0
 10
2.352541112
 20
2.8855326631
 30
0.0
 10
2.1736622019
 20
-5.006279216
 30
0.0
 10
2.1722110798
 20
-16.7829154387
 30
0.0
 10
2.3510919458
 20
-24.589908634
 30
0.0
 10
2.4859903405
 20
-28.4702301946
 30
0.0
 11
2.4859903407
 21
6.8508140076
 31
0.0
 11
2.2176615367
 21
-5.0487398998
 31
0.0
 11
2.2176615364
 21
-16.8253241595
 31
0.0
 11
2.4859903405
 21
-28.4702301946
 31
0.0
  0
LINE
  5
442
100
AcDbEntity
  8
RACCORDO
100
AcDbLine
 62
253
  6
CONTINUOUS
 10
-27.9061710238
 20
-13.2741495125
 11
-27.9121456381
 21
-13.0922475714
  0
SPLINE
  5
443
100
AcDbEntity
  8
RACCORDO
100
AcDbSpline
 62
253
  6
CONTINUOUS
 70
0
 71
3
 72
10
 73
6
 74
4
 42
0.0000001
 43
0.0000001
 44
0.0000000001
 12
-1.1475271971
 22
35.125851191
 32
0.0
 13
1.1209323465
 23
35.126672118
 33
0.0
 40
0.0
 40
0.0
 40
0.0
 40
0.0
 40
0.3260491413
 40
0.6611390303
 40
1.0
 40
1.0
 40
1.0
 40
1.0
 10
-27.9121456381
 20
-13.0922475714
 30
0.0
 10
-28.0368623905
 20
-9.2746630322
 30
0.0
 10
-28.2039811229
 20
-1.5305769532
 30
0.0
 10
-28.2025376788
 20
10.1850946158
 30
0.0
 10
-28.0327844308
 20
18.0792086314
 30
0.0
 10
-27.9061710235
 20
22.0468946898
 30
0.0
 11
-27.9121456381
 21
-13.0922475714
 31
0.0
 11
-28.1608188955
 21
-1.6360839435
 31
0.0
 11
-28.1608188957
 21
10.1405003164
 31
0.0
 11
-27.9061710235
 21
22.0468946898
 31
0.0
  0
SPLINE
  5
444
100
AcDbEntity
  8
RACCORDO
100
AcDbSpline
 62
253
  6
CONTINUOUS
 70
0
 71
3
 72
11
 73
7
 74
5
 42
0.0000001
 43
0.0000001
 44
0.0000000001
 12
-0.7508569565
 22
0.4242849916
 32
0.0
 13
-0.0285745634
 23
0.8558485787
 33
0.0
 40
0.0
 40
0.0
 40
0.0
 40
0.0
 40
0.0786015941
 40
0.3498589176
 40
0.6541751973
 40
1.0
 40
1.0
 40
1.0
 40
1.0
 10
-27.5493036201
 20
-14.015840111
 30
0.0
 10
-27.5689764714
 20
-14.0047236187
 30
0.0
 10
-27.6534699946
 20
-13.9499328827
 30
0.0
 10
-27.7795026876
 20
-13.8060160636
 30
0.0
 10
-27.8790514634
 20
-13.5586657025
 30
0.0
 10
-27.9028770928
 20
-13.3728074012
 30
0.0
 10
-27.9061710237
 20
-13.2741495125
 30
0.0
 11
-27.5493036201
 21
-14.015840111
 31
0.0
 11
-27.6060795845
 21
-13.9789849274
 31
0.0
 11
-27.762316141
 21
-13.8070946957
 31
0.0
 11
-27.8643972128
 21
-13.5673269493
 31
0.0
 11
-27.9061710237
 21
-13.2741495125
 31
0.0
  0
SPLINE
  5
445
100
AcDbEntity
  8
RACCORDO
100
AcDbSpline
 62
253
  6
CONTINUOUS
 70
0
 71
3
 72
9
 73
5
 74
3
 42
0.0000001
 43
0.0000001
 44
0.0000000001
 12
0.2119471973
 22
0.1222142956
 32
0.0
 13
0.2197046244
 23
-0.1039020478
 33
0.0
 40
0.0
 40
0.0
 40
0.0
 40
0.0
 40
0.4187056845
 40
1.0
 40
1.0
 40
1.0
 40
1.0
 10
-27.1556207165
 20
23.8090037406
 30
0.0
 10
-27.1260395511
 20
23.826061014
 30
0.0
 10
-27.0426707661
 20
23.8468277143
 30
0.0
 10
-26.9620068386
 20
23.8222029131
 30
0.0
 10
-26.9194358222
 20
23.8020703565
 30
0.0
 11
-27.1556207165
 21
23.8090037406
 31
0.0
 11
-27.0566997833
 21
23.8354934988
 31
0.0
 11
-26.9194358222
 21
23.8020703565
 31
0.0
  0
SPLINE
  5
446
100
AcDbEntity
  8
RACCORDO
100
AcDbSpline
 62
253
  6
CONTINUOUS
 70
0
 71
3
 72
13
 73
9
 74
7
 42
0.0000001
 43
0.0000001
 44
0.0000000001
 12
0.0360644956
 22
-1.0324735858
 32
0.0
 13
0.9553635519
 23
0.3931702392
 33
0.0
 40
0.0
 40
0.0
 40
0.0
 40
0.0
 40
0.1909596108
 40
0.3619900568
 40
0.5169535765
 40
0.6669188743
 40
0.8250614315
 40
1.0
 40
1.0
 40
1.0
 40
1.0
 10
3.1834268417
 20
-28.4572837081
 30
0.0
 10
3.1857224624
 20
-28.5230039595
 30
0.0
 10
3.2024236703
 20
-28.6478412924
 30
0.0
 10
3.272027181
 20
-28.8144829437
 30
0.0
 10
3.3843777069
 20
-28.9391085807
 30
0.0
 10
3.5330384635
 20
-29.0080720079
 30
0.0
 10
3.7027297989
 20
-29.0153968164
 30
0.0
 10
3.8147599489
 20
-28.983738318
 30
0.0
 10
3.8704699262
 20
-28.9608114383
 30
0.0
 11
3.1834268417
 21
-28.4572837081
 31
0.0
 11
3.2122587707
 21
-28.6524464907
 31
0.0
 11
3.2832898823
 21
-28.8142324097
 31
0.0
 11
3.3922499741
 21
-28.931525073
 31
0.0
 11
3.5326222024
 21
-28.9970905398
 31
0.0
 11
3.6957070204
 21
-29.0068670269
 31
0.0
 11
3.8704699262
 21
-28.9608114383
 31
0.0
  0
SPLINE
  5
447
100
AcDbEntity
  8
RACCORDO
100
AcDbSpline
 62
253
  6
CONTINUOUS
 70
0
 71
3
 72
10
 73
6
 74
4
 42
0.0000001
 43
0.0000001
 44
0.0000000001
 12
-1.1870838535
 22
-35.2718633284
 32
0.0
 13
1.2262004679
 23
-35.2705251328
 33
0.0
 40
0.0
 40
0.0
 40
0.0
 40
0.0
 40
0.336924003
 40
0.6702826347
 40
1.0
 40
1.0
 40
1.0
 40
1.0
 10
3.1834268417
 20
6.8284395419
 30
0.0
 10
3.0501078271
 20
2.8671270796
 30
0.0
 10
2.8714028761
 20
-5.0167993059
 30
0.0
 10
2.8699533363
 20
-16.7816590857
 30
0.0
 10
3.0486603125
 20
-24.5808488348
 30
0.0
 10
3.1834268417
 20
-28.4572837081
 30
0.0
 11
3.1834268417
 21
6.8284395419
 31
0.0
 11
2.9153596024
 21
-5.0592041865
 31
0.0
 11
2.9153597672
 21
-16.8240415055
 31
0.0
 11
3.1834268417
 21
-28.4572837081
 31
0.0
  0
SPLINE
  5
448
100
AcDbEntity
  8
ASSI
100
AcDbSpline
 62
7
  6
CONTINUOUS
 70
0
 71
3
 72
8
 73
4
 74
2
 42
0.0000001
 43
0.0000001
 44
0.0000000001
 12
-0.1073400758
 22
-0.0536700379
 32
0.0
 13
-0.0899599189
 23
-0.0811242456
 33
0.0
 40
0.0
 40
0.0
 40
0.0
 40
0.0
 40
1.0
 40
1.0
 40
1.0
 40
1.0
 10
0.2539828962
 20
30.6686728853
 30
0.0
 10
0.2182028709
 20
30.6507828727
 30
0.0
 10
0.1838955695
 20
30.6294322467
 30
0.0
 10
0.1539089299
 20
30.6023908315
 30
0.0
 11
0.2539828962
 21
30.6686728853
 31
0.0
 11
0.1539089299
 21
30.6023908315
 31
0.0
  0
SPLINE
  5
449
100
AcDbEntity
  8
PORTATASTO
100
AcDbSpline
 62
7
  6
CONTINUOUS
 70
0
 71
3
 72
20
 73
16
 74
14
 42
0.0000001
 43
0.0000001
 44
0.0000000001
 12
0.3051531842
 22
-0.5540398213
 32
0.0
 13
-0.4901583853
 23
-0.3997791224
 33
0.0
 40
0.0
 40
0.0
 40
0.0
 40
0.0
 40
0.0911181569
 40
0.181904473
 40
0.271612961
 40
0.3595288084
 40
0.4449908887
 40
0.5274157126
 40
0.6063235543
 40
0.6813675186
 40
0.7523660745
 40
0.8193386577
 40
0.8825415849
 40
0.942496889
 40
1.0
 40
1.0
 40
1.0
 40
1.0
 10
-5.8512012579
 20
25.4290575775
 30
0.0
 10
-5.841932926
 20
25.4122298817
 30
0.0
 10
-5.8246122955
 20
25.3779690295
 30
0.0
 10
-5.8024218463
 20
25.3251269412
 30
0.0
 10
-5.7842824436
 20
25.2714681859
 30
0.0
 10
-5.7704346548
 20
25.2177012249
 30
0.0
 10
-5.7610606485
 20
25.1645304775
 30
0.0
 10
-5.7562852812
 20
25.112651812
 30
0.0
 10
-5.7561748585
 20
25.0627415641
 30
0.0
 10
-5.7607381245
 20
25.0154481424
 30
0.0
 10
-5.7699292896
 20
24.9713841552
 30
0.0
 10
-5.7836497531
 20
24.9311233357
 30
0.0
 10
-5.8017574181
 20
24.8951953427
 30
0.0
 10
-5.8240417315
 20
24.864106767
 30
0.0
 10
-5.8418060472
 20
24.8466296113
 30
0.0
 10
-5.8512012579
 20
24.8389667636
 30
0.0
 11
-5.8512012579
 21
25.4290575775
 31
0.0
 11
-5.8251977574
 21
25.3776233685
 31
0.0
 11
-5.8029784766
 21
25.3246723214
 31
0.0
 11
-5.7848384026
 21
25.2709078787
 31
0.0
 11
-5.7710183534
 21
25.2170442345
 31
0.0
 11
-5.7617017891
 21
25.1637968637
 31
0.0
 11
-5.7570123827
 21
25.1118730346
 31
0.0
 11
-5.7570123827
 21
25.0619624313
 31
0.0
 11
-5.7617017891
 21
25.0147280086
 31
0.0
 11
-5.7710183534
 21
24.9707972022
 31
0.0
 11
-5.7848384026
 21
24.9307536071
 31
0.0
 11
-5.8029784766
 21
24.8951292384
 31
0.0
 11
-5.8251977574
 21
24.8643974721
 31
0.0
 11
-5.8512012579
 21
24.8389667636
 31
0.0
  0
SPLINE
  5
44A
100
AcDbEntity
  8
PORTATASTO
100
AcDbSpline
 62
7
  6
CONTINUOUS
 70
0
 71
3
 72
20
 73
16
 74
14
 42
0.0000001
 43
0.0000001
 44
0.0000000001
 12
0.3051531842
 22
-0.5540398213
 32
0.0
 13
-0.4901583853
 23
-0.3997791224
 33
0.0
 40
0.0
 40
0.0
 40
0.0
 40
0.0
 40
0.0911181569
 40
0.181904473
 40
0.271612961
 40
0.3595288084
 40
0.4449908887
 40
0.5274157126
 40
0.6063235543
 40
0.6813675186
 40
0.7523660745
 40
0.8193386577
 40
0.8825415849
 40
0.942496889
 40
1.0
 40
1.0
 40
1.0
 40
1.0
 10
10.0587013188
 20
17.4741062892
 30
0.0
 10
10.0679696507
 20
17.4572785934
 30
0.0
 10
10.0852902812
 20
17.4230177411
 30
0.0
 10
10.1074807304
 20
17.3701756528
 30
0.0
 10
10.1256201331
 20
17.3165168976
 30
0.0
 10
10.1394679219
 20
17.2627499366
 30
0.0
 10
10.1488419282
 20
17.2095791891
 30
0.0
 10
10.1536172955
 20
17.1577005237
 30
0.0
 10
10.1537277182
 20
17.1077902757
 30
0.0
 10
10.1491644522
 20
17.060496854
 30
0.0
 10
10.1399732871
 20
17.0164328668
 30
0.0
 10
10.1262528236
 20
16.9761720474
 30
0.0
 10
10.1081451585
 20
16.9402440543
 30
0.0
 10
10.0858608452
 20
16.9091554787
 30
0.0
 10
10.0680965295
 20
16.891678323
 30
0.0
 10
10.0587013188
 20
16.8840154752
 30
0.0
 11
10.0587013188
 21
17.4741062892
 31
0.0
 11
10.0847048193
 21
17.4226720802
 31
0.0
 11
10.1069241001
 21
17.3697210331
 31
0.0
 11
10.1250641741
 21
17.3159565903
 31
0.0
 11
10.1388842233
 21
17.2620929462
 31
0.0
 11
10.1482007876
 21
17.2088455754
 31
0.0
 11
10.152890194
 21
17.1569217463
 31
0.0
 11
10.152890194
 21
17.1070111429
 31
0.0
 11
10.1482007876
 21
17.0597767203
 31
0.0
 11
10.1388842233
 21
17.0158459138
 31
0.0
 11
10.1250641741
 21
16.9758023188
 31
0.0
 11
10.1069241001
 21
16.94017795
 31
0.0
 11
10.0847048193
 21
16.9094461837
 31
0.0
 11
10.0587013188
 21
16.8840154752
 31
0.0
  0
SPLINE
  5
44B
100
AcDbEntity
  8
PORTATASTO
100
AcDbSpline
 62
7
  6
CONTINUOUS
 70
0
 71
3
 72
10
 73
6
 74
4
 42
0.0000001
 43
0.0000001
 44
0.0000000001
 12
-0.0002858398
 22
0.0147980752
 32
0.0
 13
-0.0133354588
 23
0.0066656343
 33
0.0
 40
0.0
 40
0.0
 40
0.0
 40
0.0
 40
0.1580849988
 40
0.751616837
 40
1.0
 40
1.0
 40
1.0
 40
1.0
 10
10.2392630657
 20
17.7401103786
 30
0.0
 10
10.2392480034
 20
17.7408901632
 30
0.0
 10
10.2388859923
 20
17.7445853571
 30
0.0
 10
10.2362160394
 20
17.749328107
 30
0.0
 10
10.2327116117
 20
17.7515891695
 30
0.0
 10
10.2316075106
 20
17.7521410467
 30
0.0
 11
10.2392630657
 21
17.7401103786
 31
0.0
 11
10.2390229621
 21
17.7424387868
 31
0.0
 11
10.2346700082
 21
17.7501043014
 31
0.0
 11
10.2316075106
 21
17.7521410467
 31
0.0
  0
SPLINE
  5
44C
100
AcDbEntity
  8
PORTATASTO
100
AcDbSpline
 62
7
  6
CONTINUOUS
 70
0
 71
3
 72
10
 73
6
 74
4
 42
0.0000001
 43
0.0000001
 44
0.0000000001
 12
-0.0002978068
 22
0.0154479751
 32
0.0
 13
-0.013883246
 23
0.0069727755
 33
0.0
 40
0.0
 40
0.0
 40
0.0
 40
0.0
 40
0.1823378353
 40
0.7673064495
 40
1.0
 40
1.0
 40
1.0
 40
1.0
 10
4.6553152493
 20
20.5317796969
 30
0.0
 10
4.6552971489
 20
20.5327186137
 30
0.0
 10
4.6548685409
 20
20.5366455801
 30
0.0
 10
4.6519325357
 20
20.5414833028
 30
0.0
 10
4.6483682075
 20
20.5437559688
 30
0.0
 10
4.6472913603
 20
20.5442968088
 30
0.0
 11
4.6553152493
 21
20.5317796969
 31
0.0
 11
4.654990433
 21
20.5345728342
 31
0.0
 11
4.6503026658
 21
20.5423261408
 31
0.0
 11
4.6472913603
 21
20.5442968088
 31
0.0
  0
SPLINE
  5
44D
100
AcDbEntity
  8
PORTATASTO
100
AcDbSpline
 62
7
  6
CONTINUOUS
 70
0
 71
3
 72
10
 73
6
 74
4
 42
0.0000001
 43
0.0000001
 44
0.0000000001
 12
-0.0002963318
 22
0.0154481948
 32
0.0
 13
-0.0138824024
 23
0.0069735658
 33
0.0
 40
0.0
 40
0.0
 40
0.0
 40
0.0
 40
0.1827878562
 40
0.7676876018
 40
1.0
 40
1.0
 40
1.0
 40
1.0
 10
-11.2545873286
 20
28.4867309904
 30
0.0
 10
-11.2546053839
 20
28.4876722379
 30
0.0
 10
-11.2550346527
 20
28.4916010245
 30
0.0
 10
-11.2579734958
 20
28.4964369122
 30
0.0
 10
-11.2615360704
 20
28.4987080296
 30
0.0
 10
-11.2626110885
 20
28.4992480449
 30
0.0
 11
-11.2545873286
 21
28.4867309904
 31
0.0
 11
-11.2549133717
 21
28.4895308762
 31
0.0
 11
-11.2596043895
 21
28.4972809582
 31
0.0
 11
-11.2626110885
 21
28.4992480449
 31
0.0
  0
SPLINE
  5
44E
100
AcDbEntity
  8
PORTATASTO
100
AcDbSpline
 62
7
  6
CONTINUOUS
 70
0
 71
3
 72
10
 73
6
 74
4
 42
0.0000001
 43
0.0000001
 44
0.0000000001
 12
-0.0002844051
 22
0.0147980167
 32
0.0
 13
-0.0133345887
 23
0.0066663294
 33
0.0
 40
0.0
 40
0.0
 40
0.0
 40
0.0
 40
0.1585181274
 40
0.7519738068
 40
1.0
 40
1.0
 40
1.0
 40
1.0
 10
-5.6706394465
 20
25.6950616723
 30
0.0
 10
-5.6706544743
 20
25.6958435902
 30
0.0
 10
-5.6710170784
 20
25.6995403787
 30
0.0
 10
-5.6736897032
 20
25.7042815267
 30
0.0
 10
-5.6771924892
 20
25.706541167
 30
0.0
 10
-5.6782949316
 20
25.7070923085
 30
0.0
 11
-5.6706394465
 21
25.6950616723
 31
0.0
 11
-5.6708805454
 21
25.6973963297
 31
0.0
 11
-5.6752365301
 21
25.7050588191
 31
0.0
 11
-5.6782949316
 21
25.7070923085
 31
0.0
  0
SPLINE
  5
44F
100
AcDbEntity
  8
PORTATASTO
100
AcDbSpline
 62
7
  6
CONTINUOUS
 70
0
 71
3
 72
10
 73
6
 74
4
 42
0.0000001
 43
0.0000001
 44
0.0000000001
 12
0.0898922838
 22
0.0209654167
 32
0.0
 13
0.0910398633
 23
-0.0151021978
 33
0.0
 40
0.0
 40
0.0
 40
0.0
 40
0.0
 40
0.2304243534
 40
0.5985719661
 40
1.0
 40
1.0
 40
1.0
 40
1.0
 10
-6.3712517248
 20
25.9881041183
 30
0.0
 10
-6.3643472677
 20
25.9897144325
 30
0.0
 10
-6.3461586918
 20
25.9928845403
 30
0.0
 10
-6.3153347578
 20
25.9940911035
 30
0.0
 10
-6.2917326419
 20
25.9916393611
 30
0.0
 10
-6.2795506575
 20
25.9896185459
 30
0.0
 11
-6.3712517248
 21
25.9881041183
 31
0.0
 11
-6.3503048438
 21
25.9917923842
 31
0.0
 11
-6.3163878772
 21
25.9932773876
 31
0.0
 11
-6.2795506575
 21
25.9896185459
 31
0.0
  0
SPLINE
  5
450
100
AcDbEntity
  8
PORTATASTO
100
AcDbSpline
 62
7
  6
CONTINUOUS
 70
0
 71
3
 72
10
 73
6
 74
4
 42
0.0000001
 43
0.0000001
 44
0.0000000001
 12
0.117420726
 22
-0.0194784017
 32
0.0
 13
0.1064593044
 23
-0.0531555288
 33
0.0
 40
0.0
 40
0.0
 40
0.0
 40
0.0
 40
0.3445832191
 40
0.729550314
 40
1.0
 40
1.0
 40
1.0
 40
1.0
 10
-6.2795506575
 20
25.9896185459
 30
0.0
 10
-6.2660635869
 20
25.9873812358
 30
0.0
 10
-6.2378446532
 20
25.9807189985
 30
0.0
 10
-6.2004946906
 20
25.9671846021
 30
0.0
 10
-6.1768784095
 20
25.9562911486
 30
0.0
 10
-6.1672811144
 20
25.9514991832
 30
0.0
 11
-6.2795506575
 21
25.9896185459
 31
0.0
 11
-6.2396231509
 21
25.9803712697
 31
0.0
 11
-6.1965153762
 21
25.9649368292
 31
0.0
 11
-6.1672811144
 21
25.9514991832
 31
0.0
  0
SPLINE
  5
451
100
AcDbEntity
  8
PORTATASTO
100
AcDbSpline
 62
7
  6
CONTINUOUS
 70
0
 71
3
 72
10
 73
6
 74
4
 42
0.0000001
 43
0.0000001
 44
0.0000000001
 12
0.0899955823
 22
0.0200906067
 32
0.0
 13
0.0908695549
 23
-0.0155510525
 33
0.0
 40
0.0
 40
0.0
 40
0.0
 40
0.0
 40
0.2300987001
 40
0.5981370777
 40
1.0
 40
1.0
 40
1.0
 40
1.0
 10
-11.9546637338
 20
28.7809252813
 30
0.0
 10
-11.9477611116
 20
28.7824662221
 30
0.0
 10
-11.9295774465
 20
28.785467841
 30
0.0
 10
-11.8987785999
 20
28.7864423225
 30
0.0
 10
-11.8752063663
 20
28.7838546206
 30
0.0
 10
-11.863033998
 20
28.7817714902
 30
0.0
 11
-11.9546637338
 21
28.7809252813
 31
0.0
 11
-11.9337356207
 21
28.7844176756
 31
0.0
 11
-11.8998523122
 21
28.7856465856
 31
0.0
 11
-11.863033998
 21
28.7817714902
 31
0.0
  0
SPLINE
  5
452
100
AcDbEntity
  8
PORTATASTO
100
AcDbSpline
 62
7
  6
CONTINUOUS
 70
0
 71
3
 72
10
 73
6
 74
4
 42
0.0000001
 43
0.0000001
 44
0.0000000001
 12
0.1165154175
 22
-0.0199399829
 32
0.0
 13
0.105730614
 23
-0.0527896616
 33
0.0
 40
0.0
 40
0.0
 40
0.0
 40
0.0
 40
0.347395902
 40
0.7356607663
 40
1.0
 40
1.0
 40
1.0
 40
1.0
 10
-11.863033998
 20
28.7817714902
 30
0.0
 10
-11.8495416718
 20
28.7794624674
 30
0.0
 10
-11.8213120136
 20
28.7726671168
 30
0.0
 10
-11.7842610911
 20
28.7591106859
 30
0.0
 10
-11.7609203749
 20
28.7483121751
 30
0.0
 10
-11.7516041251
 20
28.7436607155
 30
0.0
 11
-11.863033998
 21
28.7817714902
 31
0.0
 11
-11.823097204
 21
28.7723360425
 31
0.0
 11
-11.7799664594
 21
28.7567399298
 31
0.0
 11
-11.7516041251
 21
28.7436607155
 31
0.0
  0
SPLINE
  5
453
100
AcDbEntity
  8
PORTATASTO
100
AcDbSpline
 62
7
  6
CONTINUOUS
 70
0
 71
3
 72
10
 73
6
 74
4
 42
0.0000001
 43
0.0000001
 44
0.0000000001
 12
0.0899685061
 22
0.0200878131
 32
0.0
 13
0.0908447123
 23
-0.0155365909
 33
0.0
 40
0.0
 40
0.0
 40
0.0
 40
0.0
 40
0.2300550887
 40
0.5980983412
 40
1.0
 40
1.0
 40
1.0
 40
1.0
 10
3.9552325321
 20
20.8259725853
 30
0.0
 10
3.9621317696
 20
20.8275130198
 30
0.0
 10
3.9803087064
 20
20.8305146412
 30
0.0
 10
4.01109844
 20
20.8314917814
 30
0.0
 10
4.0346653934
 20
20.8289072374
 30
0.0
 10
4.0468356069
 20
20.8268258436
 30
0.0
 11
3.9552325321
 21
20.8259725853
 31
0.0
 11
3.9761503426
 21
20.8294645057
 31
0.0
 11
4.010024086
 21
20.8306962318
 31
0.0
 11
4.0468356069
 21
20.8268258436
 31
0.0
  0
SPLINE
  5
454
100
AcDbEntity
  8
PORTATASTO
100
AcDbSpline
 62
7
  6
CONTINUOUS
 70
0
 71
3
 72
10
 73
6
 74
4
 42
0.0000001
 43
0.0000001
 44
0.0000000001
 12
0.1165513154
 22
-0.0199330271
 32
0.0
 13
0.105761137
 23
-0.0528051103
 33
0.0
 40
0.0
 40
0.0
 40
0.0
 40
0.0
 40
0.3473449085
 40
0.7354963154
 40
1.0
 40
1.0
 40
1.0
 40
1.0
 10
4.0468356069
 20
20.8268258436
 30
0.0
 10
4.0603301089
 20
20.8245179651
 30
0.0
 10
4.0885622683
 20
20.8177246389
 30
0.0
 10
4.1256248068
 20
20.8041666997
 30
0.0
 10
4.1489743971
 20
20.793364801
 30
0.0
 10
4.158299134
 20
20.7887090855
 30
0.0
 11
4.0468356069
 21
20.8268258436
 31
0.0
 11
4.0867789413
 21
20.8173926491
 31
0.0
 11
4.1299105869
 21
20.8017994305
 31
0.0
 11
4.158299134
 21
20.7887090855
 31
0.0
  0
SPLINE
  5
455
100
AcDbEntity
  8
PORTATASTO
100
AcDbSpline
 62
7
  6
CONTINUOUS
 70
0
 71
3
 72
10
 73
6
 74
4
 42
0.0000001
 43
0.0000001
 44
0.0000000001
 12
0.0898648229
 22
0.0209623901
 32
0.0
 13
0.0910146125
 23
-0.0150874966
 33
0.0
 40
0.0
 40
0.0
 40
0.0
 40
0.0
 40
0.2303789229
 40
0.5985305945
 40
1.0
 40
1.0
 40
1.0
 40
1.0
 10
9.5386443772
 20
18.0331513212
 30
0.0
 10
9.5455453643
 20
18.0347610855
 30
0.0
 10
9.5637270397
 20
18.037931147
 30
0.0
 10
9.594541704
 20
18.0391404075
 30
0.0
 10
9.6181384906
 20
18.0366918811
 30
0.0
 10
9.6303183514
 20
18.034672825
 30
0.0
 11
9.5386443772
 21
18.0331513212
 31
0.0
 11
9.5595806844
 21
18.0368390205
 31
0.0
 11
9.5934878385
 21
18.0383268793
 31
0.0
 11
9.6303183514
 21
18.034672825
 31
0.0
  0
SPLINE
  5
456
100
AcDbEntity
  8
PORTATASTO
100
AcDbSpline
 62
7
  6
CONTINUOUS
 70
0
 71
3
 72
10
 73
6
 74
4
 42
0.0000001
 43
0.0000001
 44
0.0000000001
 12
0.1174572269
 22
-0.01947089
 32
0.0
 13
0.1064903349
 23
-0.0531712325
 33
0.0
 40
0.0
 40
0.0
 40
0.0
 40
0.0
 40
0.3445296208
 40
0.7293768048
 40
1.0
 40
1.0
 40
1.0
 40
1.0
 10
9.6303183514
 20
18.034672825
 30
0.0
 10
9.643807516
 20
18.0324367256
 30
0.0
 10
9.6720286358
 20
18.0257766877
 30
0.0
 10
9.7093904538
 20
18.0122409135
 30
0.0
 10
9.733015886
 20
18.0013440128
 30
0.0
 10
9.7426221376
 20
17.9965475565
 30
0.0
 11
9.6303183514
 21
18.034672825
 31
0.0
 11
9.6702521712
 21
18.0254280105
 31
0.0
 11
9.713360183
 21
18.0099968763
 31
0.0
 11
9.7426221376
 21
17.9965475565
 31
0.0
  0
SPLINE
  5
457
100
AcDbEntity
  8
PORTATASTO
100
AcDbSpline
 62
7
  6
CONTINUOUS
 70
0
 71
3
 72
9
 73
5
 74
3
 42
0.0000001
 43
0.0000001
 44
0.0000000001
 12
-0.0111224961
 22
-0.0399610998
 32
0.0
 13
0.0000215545
 23
-0.041498564
 33
0.0
 40
0.0
 40
0.0
 40
0.0
 40
0.0
 40
0.5896504735
 40
1.0
 40
1.0
 40
1.0
 40
1.0
 10
-17.8425758031
 20
25.8147222744
 30
0.0
 10
-17.8447619314
 20
25.8068679139
 30
0.0
 10
-17.8469000128
 20
25.7931109931
 30
0.0
 10
-17.8474228276
 20
25.7792766831
 30
0.0
 10
-17.8474198793
 20
25.7736003778
 30
0.0
 11
-17.8425758031
 21
25.8147222744
 31
0.0
 11
-17.8467217645
 21
25.7906174569
 31
0.0
 11
-17.8474198793
 21
25.7736003778
 31
0.0
  0
SPLINE
  5
458
100
AcDbEntity
  8
PORTATASTO
100
AcDbSpline
 62
7
  6
CONTINUOUS
 70
0
 71
3
 72
9
 73
5
 74
3
 42
0.0000001
 43
0.0000001
 44
0.0000000001
 12
-0.0111224961
 22
-0.0399610998
 32
0.0
 13
0.0000215545
 23
-0.041498564
 33
0.0
 40
0.0
 40
0.0
 40
0.0
 40
0.0
 40
0.5896504735
 40
1.0
 40
1.0
 40
1.0
 40
1.0
 10
-1.9326732264
 20
17.859770986
 30
0.0
 10
-1.9348593547
 20
17.8519166256
 30
0.0
 10
-1.9369974361
 20
17.8381597048
 30
0.0
 10
-1.9375202509
 20
17.8243253948
 30
0.0
 10
-1.9375173026
 20
17.8186490894
 30
0.0
 11
-1.9326732264
 21
17.859770986
 31
0.0
 11
-1.9368191878
 21
17.8356661686
 31
0.0
 11
-1.9375173026
 21
17.8186490894
 31
0.0
  0
SPLINE
  5
459
100
AcDbEntity
  8
PORTATASTO
100
AcDbSpline
 62
253
  6
CONTINUOUS
 70
0
 71
3
 72
13
 73
9
 74
7
 42
0.0000001
 43
0.0000001
 44
0.0000000001
 12
0.0770121651
 22
-0.0453551141
 32
0.0
 13
0.0259299922
 23
-0.0854636218
 33
0.0
 40
0.0
 40
0.0
 40
0.0
 40
0.0
 40
0.0492770403
 40
0.2542392125
 40
0.4652422127
 40
0.6856320046
 40
0.918952479
 40
1.0
 40
1.0
 40
1.0
 40
1.0
 10
-8.0696913688
 20
19.9196909575
 30
0.0
 10
-8.0684263916
 20
19.9189459689
 30
0.0
 10
-8.0619881437
 20
19.9149528895
 30
0.0
 10
-8.051104032
 20
19.9062718189
 30
0.0
 10
-8.038598226
 20
19.8919321715
 30
0.0
 10
-8.028190753
 20
19.8750206507
 30
0.0
 10
-8.0219354146
 20
19.8603352964
 30
0.0
 10
-8.0190282023
 20
19.8514373204
 30
0.0
 10
-8.0183276818
 20
19.8491284488
 30
0.0
 11
-8.0696913688
 21
19.9196909575
 31
0.0
 11
-8.0659490737
 21
19.9173698728
 31
0.0
 11
-8.0516232952
 21
19.9059932104
 31
0.0
 11
-8.0391950217
 21
19.8918435929
 31
0.0
 11
-8.0288170989
 21
19.8751333955
 31
0.0
 11
-8.0205784115
 21
19.8560077053
 31
0.0
 11
-8.0183276818
 21
19.8491284488
 31
0.0
  0
SPLINE
  5
45A
100
AcDbEntity
  8
PORTATASTO
100
AcDbSpline
 62
253
  6
CONTINUOUS
 70
0
 71
3
 72
10
 73
6
 74
4
 42
0.0000001
 43
0.0000001
 44
0.0000000001
 12
0.018193477
 22
-0.0599645548
 32
0.0
 13
-0.0000000029
 23
-0.0626237623
 33
0.0
 40
0.0
 40
0.0
 40
0.0
 40
0.0
 40
0.2379216854
 40
0.6104955935
 40
1.0
 40
1.0
 40
1.0
 40
1.0
 10
-8.0183276818
 20
19.8491284488
 30
0.0
 10
-8.0168848075
 20
19.8443728262
 30
0.0
 10
-8.013715769
 20
19.8320081928
 30
0.0
 10
-8.010559415
 20
19.8113315283
 30
0.0
 10
-8.0098216793
 20
19.7954098327
 30
0.0
 10
-8.0098216797
 20
19.7872790889
 30
0.0
 11
-8.0183276818
 21
19.8491284488
 31
0.0
 11
-8.0146033899
 21
19.8346961201
 31
0.0
 11
-8.0110114483
 21
19.8116422866
 31
0.0
 11
-8.0098216797
 21
19.7872790889
 31
0.0
  0
SPLINE
  5
45B
100
AcDbEntity
  8
PORTATASTO
100
AcDbSpline
 62
253
  6
CONTINUOUS
 70
0
 71
3
 72
13
 73
9
 74
7
 42
0.0000001
 43
0.0000001
 44
0.0000000001
 12
0.0770121651
 22
-0.0453551141
 32
0.0
 13
0.0259299922
 23
-0.0854636218
 33
0.0
 40
0.0
 40
0.0
 40
0.0
 40
0.0
 40
0.0492770403
 40
0.2542392125
 40
0.4652422127
 40
0.6856320046
 40
0.918952479
 40
1.0
 40
1.0
 40
1.0
 40
1.0
 10
-21.4163318637
 20
26.593011205
 30
0.0
 10
-21.4150668865
 20
26.5922662164
 30
0.0
 10
-21.4086286386
 20
26.5882731369
 30
0.0
 10
-21.3977445269
 20
26.5795920663
 30
0.0
 10
-21.3852387209
 20
26.565252419
 30
0.0
 10
-21.3748312479
 20
26.5483408981
 30
0.0
 10
-21.3685759095
 20
26.5336555438
 30
0.0
 10
-21.3656686972
 20
26.5247575678
 30
0.0
 10
-21.3649681767
 20
26.5224486963
 30
0.0
 11
-21.4163318637
 21
26.593011205
 31
0.0
 11
-21.4125895686
 21
26.5906901202
 31
0.0
 11
-21.3982637901
 21
26.5793134578
 31
0.0
 11
-21.3858355166
 21
26.5651638403
 31
0.0
 11
-21.3754575938
 21
26.548453643
 31
0.0
 11
-21.3672189064
 21
26.5293279528
 31
0.0
 11
-21.3649681767
 21
26.5224486963
 31
0.0
  0
SPLINE
  5
45C
100
AcDbEntity
  8
PORTATASTO
100
AcDbSpline
 62
253
  6
CONTINUOUS
 70
0
 71
3
 72
10
 73
6
 74
4
 42
0.0000001
 43
0.0000001
 44
0.0000000001
 12
0.018193477
 22
-0.0599645548
 32
0.0
 13
-0.0000000029
 23
-0.0626237623
 33
0.0
 40
0.0
 40
0.0
 40
0.0
 40
0.0
 40
0.2379216854
 40
0.6104955935
 40
1.0
 40
1.0
 40
1.0
 40
1.0
 10
-21.3649681767
 20
26.5224486963
 30
0.0
 10
-21.3635253024
 20
26.5176930736
 30
0.0
 10
-21.3603562639
 20
26.5053284402
 30
0.0
 10
-21.3571999099
 20
26.4846517758
 30
0.0
 10
-21.3564621742
 20
26.4687300801
 30
0.0
 10
-21.3564621746
 20
26.4605993363
 30
0.0
 11
-21.3649681767
 21
26.5224486963
 31
0.0
 11
-21.3612438848
 21
26.5080163676
 31
0.0
 11
-21.3576519432
 21
26.484962534
 31
0.0
 11
-21.3564621746
 21
26.4605993363
 31
0.0
  0
SPLINE
  5
45D
100
AcDbEntity
  8
PORTATASTO
100
AcDbSpline
 62
253
  6
CONTINUOUS
 70
0
 71
3
 72
10
 73
6
 74
4
 42
0.0000001
 43
0.0000001
 44
0.0000000001
 12
0.0553703353
 22
-0.0090115078
 32
0.0
 13
0.055015019
 23
0.0109680039
 33
0.0
 40
0.0
 40
0.0
 40
0.0
 40
0.0
 40
0.1648709646
 40
0.6628780818
 40
1.0
 40
1.0
 40
1.0
 40
1.0
 10
-8.5883112301
 20
20.0280091064
 30
0.0
 10
-8.5852682432
 20
20.0275138611
 30
0.0
 10
-8.5729734341
 20
20.025896035
 30
0.0
 10
-8.5541948998
 20
20.025741962
 30
0.0
 10
-8.5387065585
 20
20.0279244409
 30
0.0
 10
-8.5325243023
 20
20.029156959
 30
0.0
 11
-8.5883112301
 21
20.0280091064
 31
0.0
 11
-8.5791428469
 21
20.0268028533
 31
0.0
 11
-8.5512427545
 21
20.0265390229
 31
0.0
 11
-8.5325243023
 21
20.029156959
 31
0.0
  0
SPLINE
  5
45E
100
AcDbEntity
  8
PORTATASTO
100
AcDbSpline
 62
253
  6
CONTINUOUS
 70
0
 71
3
 72
15
 73
11
 74
9
 42
0.0000001
 43
0.0000001
 44
0.0000000001
 12
0.2318452025
 22
0.0462215434
 32
0.0
 13
0.0846118177
 23
0.220423937
 33
0.0
 40
0.0
 40
0.0
 40
0.0
 40
0.0
 40
0.0405029155
 40
0.1645058941
 40
0.2928246716
 40
0.4258615169
 40
0.563618024
 40
0.7057235882
 40
0.8515194656
 40
1.0
 40
1.0
 40
1.0
 40
1.0
 10
-8.5325243023
 20
20.029156959
 30
0.0
 10
-8.5293941667
 20
20.0297809948
 30
0.0
 10
-8.516753772
 20
20.032681546
 30
0.0
 10
-8.4949269264
 20
20.0403948281
 30
0.0
 10
-8.468184227
 20
20.054949792
 30
0.0
 10
-8.4430183696
 20
20.0739233696
 30
0.0
 10
-8.4199236029
 20
20.0969190529
 30
0.0
 10
-8.3993510287
 20
20.1234689024
 30
0.0
 10
-8.3817098462
 20
20.1530251621
 30
0.0
 10
-8.3721932615
 20
20.1742045492
 30
0.0
 10
-8.3680055255
 20
20.1851141039
 30
0.0
 11
-8.5325243023
 21
20.029156959
 31
0.0
 11
-8.523192728
 21
20.0312961299
 31
0.0
 11
-8.4955619825
 21
20.0409776383
 31
0.0
 11
-8.4689112195
 21
20.0553870837
 31
0.0
 11
-8.4437814129
 21
20.0742319232
 31
0.0
 11
-8.4206823344
 21
20.097129825
 31
0.0
 11
-8.4000838745
 21
20.1236144451
 31
0.0
 11
-8.3824025294
 21
20.1531496562
 31
0.0
 11
-8.3680055255
 21
20.1851141039
 31
0.0
  0
SPLINE
  5
45F
100
AcDbEntity
  8
PORTATASTO
100
AcDbSpline
 62
253
  6
CONTINUOUS
 70
0
 71
3
 72
13
 73
9
 74
7
 42
0.0000001
 43
0.0000001
 44
0.0000000001
 12
0.0000087569
 22
-0.1209332527
 32
0.0
 13
0.1077836379
 23
-0.0538918189
 33
0.0
 40
0.0
 40
0.0
 40
0.0
 40
0.0
 40
0.0763758374
 40
0.2284437537
 40
0.3927709664
 40
0.5746734429
 40
0.7768864614
 40
1.0
 40
1.0
 40
1.0
 40
1.0
 10
-10.0248931122
 20
21.1394571935
 30
0.0
 10
-10.0248928893
 20
21.1363784007
 30
0.0
 10
-10.0242209838
 20
21.1271693229
 30
0.0
 10
-10.0196228036
 20
21.1118730805
 30
0.0
 10
-10.0091610424
 20
21.0946036372
 30
0.0
 10
-9.994030584
 20
21.0784184852
 30
0.0
 10
-9.9745826517
 20
21.063552193
 30
0.0
 10
-9.9596907471
 20
21.0550768251
 30
0.0
 10
-9.9516747508
 20
21.0510688269
 30
0.0
 11
-10.0248931122
 21
21.1394571935
 31
0.0
 11
-10.0242197786
 21
21.1302555661
 31
0.0
 11
-10.0190874848
 21
21.1126638795
 31
0.0
 11
-10.0090158259
 21
21.0956140749
 31
0.0
 11
-9.9942085011
 21
21.0794510739
 31
0.0
 11
-9.9749650165
 21
21.064501836
 31
0.0
 11
-9.9516747508
 21
21.0510688269
 31
0.0
  0
LINE
  5
460
100
AcDbEntity
  8
PORTATASTO
100
AcDbLine
 62
7
  6
CONTINUOUS
 10
-10.7196688636
 20
27.178969241
 11
-10.7181119726
 21
26.6533443226
  0
SPLINE
  5
461
100
AcDbEntity
  8
PORTATASTO
100
AcDbSpline
 62
253
  6
CONTINUOUS
 70
0
 71
3
 72
14
 73
10
 74
8
 42
0.0000001
 43
0.0000001
 44
0.0000000001
 12
-0.1238366605
 22
0.0802264557
 32
0.0
 13
0.0
 23
0.1472938892
 33
0.0
 40
0.0
 40
0.0
 40
0.0
 40
0.0
 40
0.0334940707
 40
0.1725452408
 40
0.3179033418
 40
0.4721781663
 40
0.6369662653
 40
0.812953093
 40
1.0
 40
1.0
 40
1.0
 40
1.0
 10
-9.895798488
 20
20.6710821825
 30
0.0
 10
-9.897181086
 20
20.6719778861
 30
0.0
 10
-9.9041831609
 20
20.6767771526
 30
0.0
 10
-9.9158535573
 20
20.6873096453
 30
0.0
 10
-9.928769006
 20
20.7047034867
 30
0.0
 10
-9.9389735232
 20
20.7252114929
 30
0.0
 10
-9.9463323035
 20
20.7484663795
 30
0.0
 10
-9.9507517938
 20
20.7740697546
 30
0.0
 10
-9.9516747508
 20
20.7919139955
 30
0.0
 10
-9.9516747508
 20
20.8010976176
 30
0.0
 11
-9.895798488
 21
20.6710821825
 31
0.0
 11
-9.8998743725
 21
20.6738756977
 31
0.0
 11
-9.9151278403
 21
20.6875438709
 31
0.0
 11
-9.9279798152
 21
20.7046678382
 31
0.0
 11
-9.9382123063
 21
20.7249573536
 31
0.0
 11
-9.9456485409
 21
20.7480624611
 31
0.0
 11
-9.9501617523
 21
20.7735883269
 31
0.0
 11
-9.9516747508
 21
20.8010976176
 31
0.0
  0
SPLINE
  5
462
100
AcDbEntity
  8
PORTATASTO
100
AcDbSpline
 62
253
  6
CONTINUOUS
 70
0
 71
3
 72
10
 73
6
 74
4
 42
0.0000001
 43
0.0000001
 44
0.0000000001
 12
0.0553703353
 22
-0.0090115078
 32
0.0
 13
0.055015019
 23
0.0109680039
 33
0.0
 40
0.0
 40
0.0
 40
0.0
 40
0.0
 40
0.1648709646
 40
0.6628780818
 40
1.0
 40
1.0
 40
1.0
 40
1.0
 10
-21.934951725
 20
26.7013293539
 30
0.0
 10
-21.9319087381
 20
26.7008341086
 30
0.0
 10
-21.919613929
 20
26.6992162825
 30
0.0
 10
-21.9008353947
 20
26.6990622095
 30
0.0
 10
-21.8853470534
 20
26.7012446883
 30
0.0
 10
-21.8791647972
 20
26.7024772065
 30
0.0
 11
-21.934951725
 21
26.7013293539
 31
0.0
 11
-21.9257833418
 21
26.7001231008
 31
0.0
 11
-21.8978832494
 21
26.6998592704
 31
0.0
 11
-21.8791647972
 21
26.7024772065
 31
0.0
  0
SPLINE
  5
463
100
AcDbEntity
  8
PORTATASTO
100
AcDbSpline
 62
253
  6
CONTINUOUS
 70
0
 71
3
 72
15
 73
11
 74
9
 42
0.0000001
 43
0.0000001
 44
0.0000000001
 12
0.2318452025
 22
0.0462215434
 32
0.0
 13
0.0846118177
 23
0.220423937
 33
0.0
 40
0.0
 40
0.0
 40
0.0
 40
0.0
 40
0.0405029155
 40
0.1645058941
 40
0.2928246716
 40
0.4258615169
 40
0.563618024
 40
0.7057235882
 40
0.8515194656
 40
1.0
 40
1.0
 40
1.0
 40
1.0
 10
-21.8791647972
 20
26.7024772065
 30
0.0
 10
-21.8760346616
 20
26.7031012422
 30
0.0
 10
-21.8633942669
 20
26.7060017935
 30
0.0
 10
-21.8415674213
 20
26.7137150756
 30
0.0
 10
-21.8148247219
 20
26.7282700394
 30
0.0
 10
-21.7896588645
 20
26.747243617
 30
0.0
 10
-21.7665640978
 20
26.7702393004
 30
0.0
 10
-21.7459915236
 20
26.7967891499
 30
0.0
 10
-21.7283503411
 20
26.8263454096
 30
0.0
 10
-21.7188337564
 20
26.8475247967
 30
0.0
 10
-21.7146460204
 20
26.8584343513
 30
0.0
 11
-21.8791647972
 21
26.7024772065
 31
0.0
 11
-21.8698332229
 21
26.7046163773
 31
0.0
 11
-21.8422024774
 21
26.7142978857
 31
0.0
 11
-21.8155517144
 21
26.7287073311
 31
0.0
 11
-21.7904219078
 21
26.7475521707
 31
0.0
 11
-21.7673228292
 21
26.7704500724
 31
0.0
 11
-21.7467243694
 21
26.7969346926
 31
0.0
 11
-21.7290430243
 21
26.8264699036
 31
0.0
 11
-21.7146460204
 21
26.8584343513
 31
0.0
  0
SPLINE
  5
464
100
AcDbEntity
  8
PORTATASTO
100
AcDbSpline
 62
253
  6
CONTINUOUS
 70
0
 71
3
 72
14
 73
10
 74
8
 42
0.0000001
 43
0.0000001
 44
0.0000000001
 12
-0.1238366605
 22
0.0802264557
 32
0.0
 13
-0.0
 23
0.1472938892
 33
0.0
 40
0.0
 40
0.0
 40
0.0
 40
0.0
 40
0.0334940707
 40
0.1725452408
 40
0.3179033418
 40
0.4721781663
 40
0.6369662653
 40
0.812953093
 40
1.0
 40
1.0
 40
1.0
 40
1.0
 10
-23.2424389829
 20
27.34440243
 30
0.0
 10
-23.2438215809
 20
27.3452981335
 30
0.0
 10
-23.2508236558
 20
27.3500974
 30
0.0
 10
-23.2624940522
 20
27.3606298928
 30
0.0
 10
-23.2754095009
 20
27.3780237342
 30
0.0
 10
-23.2856140181
 20
27.3985317403
 30
0.0
 10
-23.2929727984
 20
27.4217866269
 30
0.0
 10
-23.2973922887
 20
27.4473900021
 30
0.0
 10
-23.2983152457
 20
27.4652342429
 30
0.0
 10
-23.2983152457
 20
27.4744178651
 30
0.0
 11
-23.2424389829
 21
27.34440243
 31
0.0
 11
-23.2465148674
 21
27.3471959451
 31
0.0
 11
-23.2617683352
 21
27.3608641183
 31
0.0
 11
-23.2746203101
 21
27.3779880856
 31
0.0
 11
-23.2848528012
 21
27.3982776011
 31
0.0
 11
-23.2922890358
 21
27.4213827086
 31
0.0
 11
-23.2968022472
 21
27.4469085744
 31
0.0
 11
-23.2983152457
 21
27.4744178651
 31
0.0
  0
SPLINE
  5
465
100
AcDbEntity
  8
PORTATASTO
100
AcDbSpline
 62
253
  6
CONTINUOUS
 70
0
 71
3
 72
13
 73
9
 74
7
 42
0.0000001
 43
0.0000001
 44
0.0000000001
 12
0.0000087569
 22
-0.1209332527
 32
0.0
 13
0.1077836379
 23
-0.0538918189
 33
0.0
 40
0.0
 40
0.0
 40
0.0
 40
0.0
 40
0.0763758374
 40
0.2284437537
 40
0.3927709664
 40
0.5746734429
 40
0.7768864614
 40
1.0
 40
1.0
 40
1.0
 40
1.0
 10
-23.3715336071
 20
27.8127774409
 30
0.0
 10
-23.3715333842
 20
27.8096986481
 30
0.0
 10
-23.3708614787
 20
27.8004895704
 30
0.0
 10
-23.3662632985
 20
27.7851933279
 30
0.0
 10
-23.3558015373
 20
27.7679238846
 30
0.0
 10
-23.3406710789
 20
27.7517387327
 30
0.0
 10
-23.3212231466
 20
27.7368724405
 30
0.0
 10
-23.306331242
 20
27.7283970725
 30
0.0
 10
-23.2983152457
 20
27.7243890744
 30
0.0
 11
-23.3715336071
 21
27.8127774409
 31
0.0
 11
-23.3708602735
 21
27.8035758136
 31
0.0
 11
-23.3657279797
 21
27.785984127
 31
0.0
 11
-23.3556563208
 21
27.7689343223
 31
0.0
 11
-23.340848996
 21
27.7527713214
 31
0.0
 11
-23.3216055114
 21
27.7378220835
 31
0.0
 11
-23.2983152457
 21
27.7243890744
 31
0.0
  0
SPLINE
  5
466
100
AcDbEntity
  8
PORTATASTO
100
AcDbSpline
 62
7
  6
CONTINUOUS
 70
0
 71
3
 72
9
 73
5
 74
3
 42
0.0000001
 43
0.0000001
 44
0.0000000001
 12
0.0000106939
 22
-0.020588684
 32
0.0
 13
0.0016621915
 23
-0.0205197568
 33
0.0
 40
0.0
 40
0.0
 40
0.0
 40
0.0
 40
0.5208435173
 40
1.0
 40
1.0
 40
1.0
 40
1.0
 10
-1.9375173026
 20
17.8186490894
 30
0.0
 10
-1.937515446
 20
17.8150745952
 30
0.0
 10
-1.9373462968
 20
17.8082121553
 30
0.0
 10
-1.9369094035
 20
17.8013631335
 30
0.0
 10
-1.9366439202
 20
17.798085742
 30
0.0
 11
-1.9375173026
 21
17.8186490894
 31
0.0
 11
-1.9372666124
 21
17.8079297206
 31
0.0
 11
-1.9366439202
 21
17.798085742
 31
0.0
  0
SPLINE
  5
467
100
AcDbEntity
  8
PORTATASTO
100
AcDbSpline
 62
7
  6
CONTINUOUS
 70
0
 71
3
 72
17
 73
13
 74
11
 42
0.0000001
 43
0.0000001
 44
0.0000000001
 12
0.0289734995
 22
-0.3576778919
 32
0.0
 13
0.2214236492
 23
-0.2822258458
 33
0.0
 40
0.0
 40
0.0
 40
0.0
 40
0.0
 40
0.0573573103
 40
0.1483657571
 40
0.2444832861
 40
0.3448491641
 40
0.4487388961
 40
0.5555184648
 40
0.6646038968
 40
0.7754249575
 40
0.8874248937
 40
1.0
 40
1.0
 40
1.0
 40
1.0
 10
-1.9366439202
 20
17.798085742
 30
0.0
 10
-1.9360899729
 20
17.7912472614
 30
0.0
 10
-1.9340248098
 20
17.7736073311
 30
0.0
 10
-1.9284604301
 20
17.7448771923
 30
0.0
 10
-1.9194180245
 20
17.71168241
 30
0.0
 10
-1.9077274227
 20
17.6776976269
 30
0.0
 10
-1.8935705771
 20
17.6432844833
 30
0.0
 10
-1.8771119184
 20
17.6087544997
 30
0.0
 10
-1.858505384
 20
17.5743889342
 30
0.0
 10
-1.8379004997
 20
17.5404512181
 30
0.0
 10
-1.8154522387
 20
17.5072005693
 30
0.0
 10
-1.7993771986
 20
17.4856754562
 30
0.0
 10
-1.7910682684
 20
17.4750849214
 30
0.0
 11
-1.9366439202
 21
17.798085742
 31
0.0
 11
-1.9342971878
 21
17.7776389055
 31
0.0
 11
-1.9281919443
 21
17.7455683308
 31
0.0
 11
-1.9192005263
 21
17.7122820948
 31
0.0
 11
-1.9075393257
 21
17.6782196748
 31
0.0
 11
-1.893396892
 21
17.6437400701
 31
0.0
 11
-1.8769410176
 21
17.6091511117
 31
0.0
 11
-1.858326912
 21
17.574730798
 31
0.0
 11
-1.8377063548
 21
17.5407433069
 31
0.0
 11
-1.8152310458
 21
17.5074413727
 31
0.0
 11
-1.7910682684
 21
17.4750849214
 31
0.0
  0
LINE
  5
468
100
AcDbEntity
  8
PORTATASTO
100
AcDbLine
 62
7
  6
CONTINUOUS
 10
5.1902337131
 20
19.2240179526
 11
5.1917906041
 21
18.6983930343
  0
SPLINE
  5
469
100
AcDbEntity
  8
PORTATASTO
100
AcDbSpline
 62
7
  6
CONTINUOUS
 70
0
 71
3
 72
14
 73
10
 74
8
 42
0.0000001
 43
0.0000001
 44
0.0000000001
 12
-0.0003156004
 22
-0.2012684705
 32
0.0
 13
-0.1796980781
 23
-0.0895077445
 33
0.0
 40
0.0
 40
0.0
 40
0.0
 40
0.0
 40
0.0274634043
 40
0.1605984937
 40
0.3006484352
 40
0.4515198336
 40
0.6180762323
 40
0.8014208189
 40
1.0
 40
1.0
 40
1.0
 40
1.0
 10
10.2368684482
 20
16.6232614893
 30
0.0
 10
10.2368655591
 20
16.6214189835
 30
0.0
 10
10.2365627795
 20
16.6106458852
 30
0.0
 10
10.2328244643
 20
16.5906598708
 30
0.0
 10
10.2210212698
 20
16.5645930303
 30
0.0
 10
10.2028543562
 20
16.5397319013
 30
0.0
 10
10.1786703975
 20
16.5163396291
 30
0.0
 10
10.1488769579
 20
16.4947363785
 30
0.0
 10
10.1265204966
 20
16.4822334283
 30
0.0
 10
10.1146257309
 20
16.4763086368
 30
0.0
 11
10.2368684482
 21
16.6232614893
 31
0.0
 11
10.2367124626
 21
16.6177372808
 31
0.0
 11
10.231911263
 21
16.5914443567
 31
0.0
 11
10.2205217233
 21
16.5657386849
 31
0.0
 11
10.2028618037
 21
16.5411315285
 31
0.0
 11
10.1790033445
 21
16.5177045825
 31
0.0
 11
10.1493333873
 21
16.4959217967
 31
0.0
 11
10.1146257309
 21
16.4763086368
 31
0.0
  0
SPLINE
  5
46A
100
AcDbEntity
  8
PORTATASTO
100
AcDbSpline
 62
7
  6
CONTINUOUS
 70
0
 71
3
 72
9
 73
5
 74
3
 42
0.0000001
 43
0.0000001
 44
0.0000000001
 12
0.0000106939
 22
-0.020588684
 32
0.0
 13
0.0016621915
 23
-0.0205197568
 33
0.0
 40
0.0
 40
0.0
 40
0.0
 40
0.0
 40
0.5208435173
 40
1.0
 40
1.0
 40
1.0
 40
1.0
 10
-17.8474198793
 20
25.7736003778
 30
0.0
 10
-17.8474180227
 20
25.7700258836
 30
0.0
 10
-17.8472488735
 20
25.7631634436
 30
0.0
 10
-17.8468119802
 20
25.7563144219
 30
0.0
 10
-17.8465464969
 20
25.7530370304
 30
0.0
 11
-17.8474198793
 21
25.7736003778
 31
0.0
 11
-17.8471691891
 21
25.7628810089
 31
0.0
 11
-17.8465464969
 21
25.7530370304
 31
0.0
  0
SPLINE
  5
46B
100
AcDbEntity
  8
PORTATASTO
100
AcDbSpline
 62
7
  6
CONTINUOUS
 70
0
 71
3
 72
17
 73
13
 74
11
 42
0.0000001
 43
0.0000001
 44
0.0000000001
 12
0.0289734995
 22
-0.3576778919
 32
0.0
 13
0.2214236492
 23
-0.2822258458
 33
0.0
 40
0.0
 40
0.0
 40
0.0
 40
0.0
 40
0.0573573103
 40
0.1483657571
 40
0.2444832861
 40
0.3448491641
 40
0.4487388961
 40
0.5555184648
 40
0.6646038968
 40
0.7754249575
 40
0.8874248937
 40
1.0
 40
1.0
 40
1.0
 40
1.0
 10
-17.8465464969
 20
25.7530370304
 30
0.0
 10
-17.8459925496
 20
25.7461985498
 30
0.0
 10
-17.8439273865
 20
25.7285586195
 30
0.0
 10
-17.8383630068
 20
25.6998284806
 30
0.0
 10
-17.8293206012
 20
25.6666336984
 30
0.0
 10
-17.8176299994
 20
25.6326489153
 30
0.0
 10
-17.8034731538
 20
25.5982357716
 30
0.0
 10
-17.7870144951
 20
25.5637057881
 30
0.0
 10
-17.7684079607
 20
25.5293402225
 30
0.0
 10
-17.7478030764
 20
25.4954025065
 30
0.0
 10
-17.7253548154
 20
25.4621518576
 30
0.0
 10
-17.7092797753
 20
25.4406267446
 30
0.0
 10
-17.700970845
 20
25.4300362097
 30
0.0
 11
-17.8465464969
 21
25.7530370304
 31
0.0
 11
-17.8441997645
 21
25.7325901938
 31
0.0
 11
-17.838094521
 21
25.7005196192
 31
0.0
 11
-17.829103103
 21
25.6672333832
 31
0.0
 11
-17.8174419024
 21
25.6331709631
 31
0.0
 11
-17.8032994687
 21
25.5986913585
 31
0.0
 11
-17.7868435943
 21
25.5641024
 31
0.0
 11
-17.7682294887
 21
25.5296820864
 31
0.0
 11
-17.7476089315
 21
25.4956945952
 31
0.0
 11
-17.7251336225
 21
25.4623926611
 31
0.0
 11
-17.700970845
 21
25.4300362097
 31
0.0
  0
SPLINE
  5
46C
100
AcDbEntity
  8
PORTATASTO
100
AcDbSpline
 62
7
  6
CONTINUOUS
 70
0
 71
3
 72
14
 73
10
 74
8
 42
0.0000001
 43
0.0000001
 44
0.0000000001
 12
0.001118265
 22
-0.203778607
 32
0.0
 13
-0.1823114036
 23
-0.0898474781
 33
0.0
 40
0.0
 40
0.0
 40
0.0
 40
0.0
 40
0.0362236359
 40
0.167907642
 40
0.3066456087
 40
0.4562281119
 40
0.6213988319
 40
0.8031849424
 40
1.0
 40
1.0
 40
1.0
 40
1.0
 10
4.6608521593
 20
19.4120083972
 30
0.0
 10
4.6608656618
 20
19.4095478631
 30
0.0
 10
4.6605258415
 20
19.3981415541
 30
0.0
 10
4.6564461433
 20
19.3775474784
 30
0.0
 10
4.6443655505
 20
19.3515249392
 30
0.0
 10
4.6259380327
 20
19.3267219383
 30
0.0
 10
4.6015097617
 20
19.3033997631
 30
0.0
 10
4.5714901428
 20
19.2818784165
 30
0.0
 10
4.5489970891
 20
19.2694325082
 30
0.0
 10
4.5370365459
 20
19.2635380626
 30
0.0
 11
4.6608521593
 21
19.4120083972
 31
0.0
 11
4.6606308858
 21
19.4046324115
 31
0.0
 11
4.6555487075
 21
19.3783547566
 31
0.0
 11
4.6438849143
 21
19.3526818065
 31
0.0
 11
4.6259627891
 21
19.3281235904
 31
0.0
 11
4.6018546822
 21
19.3047613792
 31
0.0
 11
4.5719528301
 21
19.283058432
 31
0.0
 11
4.5370365459
 21
19.2635380626
 31
0.0
  0
SPLINE
  5
46D
100
AcDbEntity
  8
PORTATASTO
100
AcDbSpline
 62
253
  6
CONTINUOUS
 70
0
 71
3
 72
16
 73
12
 74
10
 42
0.0000001
 43
0.0000001
 44
0.0000000001
 12
0.0000019944
 22
0.3661320663
 32
0.0
 13
-0.358414782
 23
0.0747765602
 33
0.0
 40
0.0
 40
0.0
 40
0.0
 40
0.0
 40
0.1331580327
 40
0.2605676092
 40
0.3813663631
 40
0.4949432228
 40
0.6021338655
 40
0.704661191
 40
0.8041622809
 40
0.9021216877
 40
1.0
 40
1.0
 40
1.0
 40
1.0
 10
-21.003836803
 20
26.4601365238
 30
0.0
 10
-21.0038367144
 20
26.4763876657
 30
0.0
 10
-21.0053025933
 20
26.5082153526
 30
0.0
 10
-21.0123039731
 20
26.5543222788
 30
0.0
 10
-21.0240452832
 20
26.5970065371
 30
0.0
 10
-21.0403756548
 20
26.6355095674
 30
0.0
 10
-21.0610837278
 20
26.6692853075
 30
0.0
 10
-21.0859694549
 20
26.6979069233
 30
0.0
 10
-21.1147382764
 20
26.7208970964
 30
0.0
 10
-21.1468226058
 20
26.7377801899
 30
0.0
 10
-21.1698454293
 20
26.7447713128
 30
0.0
 10
-21.1815391073
 20
26.7472109807
 30
0.0
 11
-21.003836803
 21
26.4601365238
 31
0.0
 11
-21.0062013827
 21
26.5088325737
 31
0.0
 11
-21.0133471828
 21
26.5549307482
 31
0.0
 11
-21.0252357609
 21
26.5975312646
 31
0.0
 11
-21.0416300763
 21
26.6357473125
 31
0.0
 11
-21.0622823643
 21
26.6691198482
 31
0.0
 11
-21.0870153664
 21
26.6973584868
 31
0.0
 11
-21.115524679
 21
26.7200389478
 31
0.0
 11
-21.147268743
 21
26.7367329617
 31
0.0
 11
-21.1815391073
 21
26.7472109807
 31
0.0
  0
SPLINE
  5
46E
100
AcDbEntity
  8
PORTATASTO
100
AcDbSpline
 62
7
  6
CONTINUOUS
 70
0
 71
3
 72
14
 73
10
 74
8
 42
0.0000001
 43
0.0000001
 44
0.0000000001
 12
0.0011183735
 22
-0.2037785963
 32
0.0
 13
-0.1823113885
 23
-0.0898474707
 33
0.0
 40
0.0
 40
0.0
 40
0.0
 40
0.0
 40
0.0361797747
 40
0.1678680881
 40
0.3065894265
 40
0.4561575738
 40
0.6213570309
 40
0.8031650597
 40
1.0
 40
1.0
 40
1.0
 40
1.0
 10
-11.2490504139
 20
27.366959686
 30
0.0
 10
-11.2490369264
 20
27.3645021314
 30
0.0
 10
-11.2493761808
 20
27.353098512
 30
0.0
 10
-11.2534535067
 20
27.3325078574
 30
0.0
 10
-11.2655312933
 20
27.3064860582
 30
0.0
 10
-11.2839567519
 20
27.2816817106
 30
0.0
 10
-11.3083857012
 20
27.2583565515
 30
0.0
 10
-11.3384087919
 20
27.2368317855
 30
0.0
 10
-11.3609042803
 20
27.2243843915
 30
0.0
 10
-11.3728660308
 20
27.218489351
 30
0.0
 11
-11.2490504139
 21
27.366959686
 31
0.0
 11
-11.249271104
 21
27.3595926178
 31
0.0
 11
-11.2543513969
 21
27.3333137089
 31
0.0
 11
-11.2660118464
 21
27.3076429545
 31
0.0
 11
-11.2839303175
 21
27.2830856871
 31
0.0
 11
-11.3080413629
 21
27.2597181193
 31
0.0
 11
-11.3379463332
 21
27.2380118893
 31
0.0
 11
-11.3728660308
 21
27.218489351
 31
0.0
  0
SPLINE
  5
46F
100
AcDbEntity
  8
PORTATASTO
100
AcDbSpline
 62
7
  6
CONTINUOUS
 70
0
 71
3
 72
14
 73
10
 74
8
 42
0.0000001
 43
0.0000001
 44
0.0000000001
 12
-0.0003155752
 22
-0.2012684551
 32
0.0
 13
-0.1796980627
 23
-0.0895077369
 33
0.0
 40
0.0
 40
0.0
 40
0.0
 40
0.0
 40
0.0274210906
 40
0.1605608875
 40
0.3005952013
 40
0.4514528445
 40
0.6180368173
 40
0.8014023858
 40
1.0
 40
1.0
 40
1.0
 40
1.0
 10
-5.6730341245
 20
24.5782127778
 30
0.0
 10
-5.673037009
 20
24.5763731109
 30
0.0
 10
-5.6733392825
 20
24.5656025341
 30
0.0
 10
-5.6770754369
 20
24.5456197491
 30
0.0
 10
-5.6888760135
 20
24.5195535832
 30
0.0
 10
-5.7070409841
 20
24.4946911792
 30
0.0
 10
-5.7312255721
 20
24.4712960814
 30
0.0
 10
-5.761022254
 20
24.4496896091
 30
0.0
 10
-5.783380977
 20
24.4371852661
 30
0.0
 10
-5.7952768458
 20
24.4312599251
 30
0.0
 11
-5.6730341245
 21
24.5782127778
 31
0.0
 11
-5.6731896457
 21
24.5726970718
 31
0.0
 11
-5.677989064
 21
24.5464028642
 31
0.0
 11
-5.6893754907
 21
24.5206992473
 31
0.0
 11
-5.7070319635
 21
24.4960930195
 31
0.0
 11
-5.7308931798
 21
24.4726609844
 31
0.0
 11
-5.7605660738
 21
24.4508750866
 31
0.0
 11
-5.7952768458
 21
24.4312599251
 31
0.0
  0
SPLINE
  5
470
100
AcDbEntity
  8
PORTATASTO
100
AcDbSpline
 62
253
  6
CONTINUOUS
 70
0
 71
3
 72
16
 73
12
 74
10
 42
0.0000001
 43
0.0000001
 44
0.0000000001
 12
0.0000019944
 22
0.3661320663
 32
0.0
 13
-0.358414782
 23
0.0747765602
 33
0.0
 40
0.0
 40
0.0
 40
0.0
 40
0.0
 40
0.1331580327
 40
0.2605676092
 40
0.3813663631
 40
0.4949432228
 40
0.6021338655
 40
0.704661191
 40
0.8041622809
 40
0.9021216877
 40
1.0
 40
1.0
 40
1.0
 40
1.0
 10
-7.6571963081
 20
19.7868162763
 30
0.0
 10
-7.6571962195
 20
19.8030674182
 30
0.0
 10
-7.6586620984
 20
19.8348951052
 30
0.0
 10
-7.6656634782
 20
19.8810020314
 30
0.0
 10
-7.6774047883
 20
19.9236862897
 30
0.0
 10
-7.6937351599
 20
19.9621893199
 30
0.0
 10
-7.7144432329
 20
19.99596506
 30
0.0
 10
-7.73932896
 20
20.0245866758
 30
0.0
 10
-7.7680977815
 20
20.047576849
 30
0.0
 10
-7.8001821109
 20
20.0644599425
 30
0.0
 10
-7.8232049344
 20
20.0714510654
 30
0.0
 10
-7.8348986124
 20
20.0738907332
 30
0.0
 11
-7.6571963081
 21
19.7868162763
 31
0.0
 11
-7.6595608878
 21
19.8355123262
 31
0.0
 11
-7.6667066879
 21
19.8816105007
 31
0.0
 11
-7.678595266
 21
19.9242110171
 31
0.0
 11
-7.6949895814
 21
19.962427065
 31
0.0
 11
-7.7156418694
 21
19.9957996007
 31
0.0
 11
-7.7403748715
 21
20.0240382394
 31
0.0
 11
-7.7688841841
 21
20.0467187004
 31
0.0
 11
-7.8006282481
 21
20.0634127142
 31
0.0
 11
-7.8348986124
 21
20.0738907332
 31
0.0
  0
SPLINE
  5
471
100
AcDbEntity
  8
PORTATASTO
100
AcDbSpline
 62
7
  6
CONTINUOUS
 70
0
 71
3
 72
11
 73
7
 74
5
 42
0.0000001
 43
0.0000001
 44
0.0000000001
 12
-0.0558540189
 22
0.0280572242
 32
0.0
 13
-0.0609845051
 23
-0.0127562676
 33
0.0
 40
0.0
 40
0.0
 40
0.0
 40
0.0
 40
0.115891449
 40
0.3485725948
 40
0.6442869389
 40
1.0
 40
1.0
 40
1.0
 40
1.0
 10
-11.2626110885
 20
28.4992480449
 30
0.0
 10
-11.2647687562
 20
28.500331909
 30
0.0
 10
-11.2720129779
 20
28.5023123323
 30
0.0
 10
-11.2853324026
 20
28.5029457597
 30
0.0
 10
-11.3036940269
 20
28.5011387843
 30
0.0
 10
-11.3170016874
 20
28.4986996634
 30
0.0
 10
-11.3242326824
 20
28.4971871398
 30
0.0
 11
-11.2626110885
 21
28.4992480449
 31
0.0
 11
-11.2695815765
 21
28.501467756
 31
0.0
 11
-11.2840390835
 21
28.5025736378
 31
0.0
 11
-11.3024022938
 21
28.5010331476
 31
0.0
 11
-11.3242326824
 21
28.4971871398
 31
0.0
  0
SPLINE
  5
472
100
AcDbEntity
  8
PORTATASTO
100
AcDbSpline
 62
7
  6
CONTINUOUS
 70
0
 71
3
 72
9
 73
5
 74
3
 42
0.0000001
 43
0.0000001
 44
0.0000000001
 12
-0.053663551
 22
-0.011224927
 32
0.0
 13
-0.0526505396
 23
-0.0153236142
 33
0.0
 40
0.0
 40
0.0
 40
0.0
 40
0.0
 40
0.4698162059
 40
1.0
 40
1.0
 40
1.0
 40
1.0
 10
-11.3242326824
 20
28.4971871398
 30
0.0
 10
-11.3326366844
 20
28.4954292556
 30
0.0
 10
-11.3504219637
 20
28.491168268
 30
0.0
 10
-11.3680325087
 20
28.4862673027
 30
0.0
 10
-11.3773373297
 20
28.483559192
 30
0.0
 11
-11.3242326824
 21
28.4971871398
 31
0.0
 11
-11.3493097406
 21
28.491284233
 31
0.0
 11
-11.3773373297
 21
28.483559192
 31
0.0
  0
SPLINE
  5
473
100
AcDbEntity
  8
PORTATASTO
100
AcDbSpline
 62
7
  6
CONTINUOUS
 70
0
 71
3
 72
11
 73
7
 74
5
 42
0.0000001
 43
0.0000001
 44
0.0000000001
 12
-0.0546556072
 22
0.0273238484
 32
0.0
 13
-0.0595665172
 23
-0.0124899511
 33
0.0
 40
0.0
 40
0.0
 40
0.0
 40
0.0
 40
0.111846091
 40
0.3445537668
 40
0.6417458825
 40
1.0
 40
1.0
 40
1.0
 40
1.0
 10
-5.6782949316
 20
25.7070923085
 30
0.0
 10
-5.6803326036
 20
25.708110997
 30
0.0
 10
-5.6873465555
 20
25.7100400817
 30
0.0
 10
-5.7002922212
 20
25.7106474799
 30
0.0
 10
-5.7183166986
 20
25.7088599586
 30
0.0
 10
-5.7313938269
 20
25.706453372
 30
0.0
 10
-5.7385071436
 20
25.7049618466
 30
0.0
 11
-5.6782949316
 21
25.7070923085
 31
0.0
 11
-5.6848795392
 21
25.7091944935
 31
0.0
 11
-5.6990038457
 21
25.7102840426
 31
0.0
 11
-5.7170312899
 21
25.708759292
 31
0.0
 11
-5.7385071436
 21
25.7049618466
 31
0.0
  0
SPLINE
  5
474
100
AcDbEntity
  8
PORTATASTO
100
AcDbSpline
 62
7
  6
CONTINUOUS
 70
0
 71
3
 72
9
 73
5
 74
3
 42
0.0000001
 43
0.0000001
 44
0.0000000001
 12
-0.0528668026
 22
-0.0110851501
 32
0.0
 13
-0.0518805773
 23
-0.0150837808
 33
0.0
 40
0.0
 40
0.0
 40
0.0
 40
0.0
 40
0.4696232064
 40
1.0
 40
1.0
 40
1.0
 40
1.0
 10
-5.7385071436
 20
25.7049618466
 30
0.0
 10
-5.7467829694
 20
25.7032265653
 30
0.0
 10
-5.7643061274
 20
25.6990238615
 30
0.0
 10
-5.7816580498
 20
25.6941971144
 30
0.0
 10
-5.7908301345
 20
25.6915304186
 30
0.0
 11
-5.7385071436
 21
25.7049618466
 31
0.0
 11
-5.7632037674
 21
25.6991415606
 31
0.0
 11
-5.7908301345
 21
25.6915304186
 31
0.0
  0
SPLINE
  5
475
100
AcDbEntity
  8
PORTATASTO
100
AcDbSpline
 62
7
  6
CONTINUOUS
 70
0
 71
3
 72
13
 73
9
 74
7
 42
0.0000001
 43
0.0000001
 44
0.0000000001
 12
0.4628116396
 22
-0.064098053
 32
0.0
 13
0.4179025476
 23
-0.2089512738
 33
0.0
 40
0.0
 40
0.0
 40
0.0
 40
0.0
 40
0.1796826336
 40
0.3552527235
 40
0.5258289147
 40
0.6906034756
 40
0.8488616656
 40
1.0
 40
1.0
 40
1.0
 40
1.0
 10
-10.7181119726
 20
26.6533443226
 30
0.0
 10
-10.6903922345
 20
26.6495052203
 30
0.0
 10
-10.6357483106
 20
26.6406845951
 30
0.0
 10
-10.5555750269
 20
26.6238352051
 30
0.0
 10
-10.4785773664
 20
26.6036198881
 30
0.0
 10
-10.4053187255
 20
26.5801861714
 30
0.0
 10
-10.3363371228
 20
26.5537067903
 30
0.0
 10
-10.2924714353
 20
26.533664899
 30
0.0
 10
-10.2714177369
 20
26.5231380499
 30
0.0
 11
-10.7181119726
 21
26.6533443226
 31
0.0
 11
-10.6352381267
 21
26.6399268362
 31
0.0
 11
-10.5549709228
 21
26.6230052527
 31
0.0
 11
-10.477901673
 21
26.6027042275
 31
0.0
 11
-10.4045983739
 21
26.5791733815
 31
0.0
 11
-10.33560086
 21
26.5525859974
 31
0.0
 11
-10.2714177369
 21
26.5231380499
 31
0.0
  0
SPLINE
  5
476
100
AcDbEntity
  8
PORTATASTO
100
AcDbSpline
 62
7
  6
CONTINUOUS
 70
0
 71
3
 72
11
 73
7
 74
5
 42
0.0000001
 43
0.0000001
 44
0.0000000001
 12
-0.0558407528
 22
0.028045677
 32
0.0
 13
-0.0609669131
 23
-0.0127499313
 33
0.0
 40
0.0
 40
0.0
 40
0.0
 40
0.0
 40
0.1157994796
 40
0.3484977461
 40
0.6441881787
 40
1.0
 40
1.0
 40
1.0
 40
1.0
 10
4.6472913603
 20
20.5442968088
 30
0.0
 10
4.6451359169
 20
20.5453793671
 30
0.0
 10
4.6378955703
 20
20.5473601326
 30
0.0
 10
4.6245823022
 20
20.5479947353
 30
0.0
 10
4.6062240125
 20
20.5461897793
 30
0.0
 10
4.5929186517
 20
20.5437517734
 30
0.0
 10
4.5856877356
 20
20.5422395813
 30
0.0
 11
4.6472913603
 21
20.5442968088
 31
0.0
 11
4.6403284447
 21
20.5465149187
 31
0.0
 11
4.6258743223
 21
20.5476225331
 31
0.0
 11
4.6075179167
 21
20.5460842588
 31
0.0
 11
4.5856877356
 21
20.5422395813
 31
0.0
  0
SPLINE
  5
477
100
AcDbEntity
  8
PORTATASTO
100
AcDbSpline
 62
7
  6
CONTINUOUS
 70
0
 71
3
 72
9
 73
5
 74
3
 42
0.0000001
 43
0.0000001
 44
0.0000000001
 12
-0.0536818521
 22
-0.0112264159
 32
0.0
 13
-0.052668036
 23
-0.0153287064
 33
0.0
 40
0.0
 40
0.0
 40
0.0
 40
0.0
 40
0.4697289822
 40
1.0
 40
1.0
 40
1.0
 40
1.0
 10
4.5856877356
 20
20.5422395813
 30
0.0
 10
4.5772824283
 20
20.5404817903
 30
0.0
 10
4.5594911173
 20
20.5362198631
 30
0.0
 10
4.5418746914
 20
20.5313173599
 30
0.0
 10
4.532565247
 20
20.5286079037
 30
0.0
 11
4.5856877356
 21
20.5422395813
 31
0.0
 11
4.5606068271
 21
20.5363365488
 31
0.0
 11
4.532565247
 21
20.5286079037
 31
0.0
  0
SPLINE
  5
478
100
AcDbEntity
  8
PORTATASTO
100
AcDbSpline
 62
7
  6
CONTINUOUS
 70
0
 71
3
 72
11
 73
7
 74
5
 42
0.0000001
 43
0.0000001
 44
0.0000000001
 12
-0.0546432025
 22
0.0273130163
 32
0.0
 13
-0.0595496307
 23
-0.0124839013
 33
0.0
 40
0.0
 40
0.0
 40
0.0
 40
0.0
 40
0.1117597333
 40
0.3444809722
 40
0.6416465056
 40
1.0
 40
1.0
 40
1.0
 40
1.0
 10
10.2316075106
 20
17.7521410467
 30
0.0
 10
10.229571874
 20
17.7531585451
 30
0.0
 10
10.2225616306
 20
17.7550879486
 30
0.0
 10
10.2096218878
 20
17.7556964354
 30
0.0
 10
10.1916007205
 20
17.753910878
 30
0.0
 10
10.1785258362
 20
17.7515053643
 30
0.0
 10
10.1714125635
 20
17.7500141477
 30
0.0
 11
10.2316075106
 21
17.7521410467
 31
0.0
 11
10.2250298772
 21
17.7542417615
 31
0.0
 11
10.2109090165
 21
17.7553329323
 31
0.0
 11
10.1928883152
 21
17.7538103336
 31
0.0
 11
10.1714125635
 21
17.7500141477
 31
0.0
  0
SPLINE
  5
479
100
AcDbEntity
  8
PORTATASTO
100
AcDbSpline
 62
7
  6
CONTINUOUS
 70
0
 71
3
 72
9
 73
5
 74
3
 42
0.0000001
 43
0.0000001
 44
0.0000000001
 12
-0.0528843731
 22
-0.011086606
 32
0.0
 13
-0.0518973797
 23
-0.0150886659
 33
0.0
 40
0.0
 40
0.0
 40
0.0
 40
0.0
 40
0.4695380299
 40
1.0
 40
1.0
 40
1.0
 40
1.0
 10
10.1714125635
 20
17.7500141477
 30
0.0
 10
10.1631354887
 20
17.7482789534
 30
0.0
 10
10.1456065402
 20
17.7440753429
 30
0.0
 10
10.1282489709
 20
17.7392471181
 30
0.0
 10
10.1190724422
 20
17.7365791303
 30
0.0
 11
10.1714125635
 21
17.7500141477
 31
0.0
 11
10.1467122561
 21
17.7441937372
 31
0.0
 11
10.1190724422
 21
17.7365791303
 31
0.0
  0
SPLINE
  5
47A
100
AcDbEntity
  8
PORTATASTO
100
AcDbSpline
 62
253
  6
CONTINUOUS
 70
0
 71
3
 72
16
 73
12
 74
10
 42
0.0000001
 43
0.0000001
 44
0.0000000001
 12
0.0000019944
 22
0.3661320663
 32
0.0
 13
-0.358414782
 23
0.0747765602
 33
0.0
 40
0.0
 40
0.0
 40
0.0
 40
0.0
 40
0.1331580327
 40
0.2605676092
 40
0.3813663631
 40
0.4949432228
 40
0.6021338655
 40
0.704661191
 40
0.8041622809
 40
0.9021216877
 40
1.0
 40
1.0
 40
1.0
 40
1.0
 10
-5.0939342263
 20
18.5051852354
 30
0.0
 10
-5.0939341377
 20
18.5214363773
 30
0.0
 10
-5.0954000166
 20
18.5532640643
 30
0.0
 10
-5.1024013964
 20
18.5993709905
 30
0.0
 10
-5.1141427065
 20
18.6420552488
 30
0.0
 10
-5.1304730781
 20
18.680558279
 30
0.0
 10
-5.1511811511
 20
18.7143340191
 30
0.0
 10
-5.1760668782
 20
18.7429556349
 30
0.0
 10
-5.2048356997
 20
18.7659458081
 30
0.0
 10
-5.2369200291
 20
18.7828289016
 30
0.0
 10
-5.2599428526
 20
18.7898200245
 30
0.0
 10
-5.2716365306
 20
18.7922596923
 30
0.0
 11
-5.0939342263
 21
18.5051852354
 31
0.0
 11
-5.096298806
 21
18.5538812853
 31
0.0
 11
-5.1034446061
 21
18.5999794598
 31
0.0
 11
-5.1153331842
 21
18.6425799762
 31
0.0
 11
-5.1317274996
 21
18.6807960241
 31
0.0
 11
-5.1523797876
 21
18.7141685598
 31
0.0
 11
-5.1771127897
 21
18.7424071984
 31
0.0
 11
-5.2056221023
 21
18.7650876595
 31
0.0
 11
-5.2373661663
 21
18.7817816733
 31
0.0
 11
-5.2716365306
 21
18.7922596923
 31
0.0
  0
SPLINE
  5
47B
100
AcDbEntity
  8
PORTATASTO
100
AcDbSpline
 62
253
  6
CONTINUOUS
 70
0
 71
3
 72
16
 73
12
 74
10
 42
0.0000001
 43
0.0000001
 44
0.0000000001
 12
0.3236790135
 22
0.3878370912
 32
0.0
 13
-0.0000027547
 23
0.5051590968
 33
0.0
 40
0.0
 40
0.0
 40
0.0
 40
0.0
 40
0.1110160359
 40
0.2251124574
 40
0.3405889506
 40
0.4558553607
 40
0.5699516537
 40
0.6824994821
 40
0.7926627183
 40
0.8988620715
 40
1.0
 40
1.0
 40
1.0
 40
1.0
 10
8.0750039643
 20
-28.6038697753
 30
0.0
 10
8.0869818179
 20
-28.5895177298
 30
0.0
 10
8.1101475073
 20
-28.5594608214
 30
0.0
 10
8.1417365452
 20
-28.5115362942
 30
0.0
 10
8.170130923
 20
-28.4608276994
 30
0.0
 10
8.1948226555
 20
-28.4082182514
 30
0.0
 10
8.2154933018
 20
-28.3544296341
 30
0.0
 10
8.2319036571
 20
-28.3000866416
 30
0.0
 10
8.243808754
 20
-28.2459370513
 30
0.0
 10
8.2510196152
 20
-28.1929034285
 30
0.0
 10
8.2527063615
 20
-28.1579744804
 30
0.0
 10
8.2527062686
 20
-28.1409442322
 30
0.0
 11
8.0750039643
 21
-28.6038697753
 31
0.0
 11
8.1092743288
 21
-28.5594784045
 31
0.0
 11
8.1410183925
 21
-28.5113710209
 31
0.0
 11
8.1695277053
 21
-28.4604782439
 31
0.0
 11
8.1942607072
 21
-28.4077642598
 31
0.0
 11
8.2149129953
 21
-28.3539545818
 31
0.0
 11
8.2313073107
 21
-28.2995150067
 31
0.0
 11
8.2431958889
 21
-28.2451497618
 31
0.0
 11
8.2503416888
 21
-28.1919802288
 31
0.0
 11
8.2527062686
 21
-28.1409442322
 31
0.0
  0
SPLINE
  5
47C
100
AcDbEntity
  8
PORTATASTO
100
AcDbSpline
 62
253
  6
CONTINUOUS
 70
0
 71
3
 72
16
 73
12
 74
10
 42
0.0000001
 43
0.0000001
 44
0.0000000001
 12
0.0000019944
 22
0.3661320663
 32
0.0
 13
-0.358414782
 23
0.0747765602
 33
0.0
 40
0.0
 40
0.0
 40
0.0
 40
0.0
 40
0.1331580327
 40
0.2605676092
 40
0.3813663631
 40
0.4949432228
 40
0.6021338655
 40
0.704661191
 40
0.8041622809
 40
0.9021216877
 40
1.0
 40
1.0
 40
1.0
 40
1.0
 10
8.2527062686
 20
11.831864988
 30
0.0
 10
8.2527063572
 20
11.8481161299
 30
0.0
 10
8.2512404783
 20
11.8799438168
 30
0.0
 10
8.2442390985
 20
11.926050743
 30
0.0
 10
8.2324977884
 20
11.9687350013
 30
0.0
 10
8.2161674168
 20
12.0072380316
 30
0.0
 10
8.1954593438
 20
12.0410137717
 30
0.0
 10
8.1705736167
 20
12.0696353875
 30
0.0
 10
8.1418047952
 20
12.0926255606
 30
0.0
 10
8.1097204658
 20
12.1095086541
 30
0.0
 10
8.0866976423
 20
12.116499777
 30
0.0
 10
8.0750039643
 20
12.1189394449
 30
0.0
 11
8.2527062686
 21
11.831864988
 31
0.0
 11
8.2503416889
 21
11.8805610379
 31
0.0
 11
8.2431958888
 21
11.9266592124
 31
0.0
 11
8.2313073107
 21
11.9692597288
 31
0.0
 11
8.2149129953
 21
12.0074757767
 31
0.0
 11
8.1942607073
 21
12.0408483124
 31
0.0
 11
8.1695277052
 21
12.069086951
 31
0.0
 11
8.1410183926
 21
12.091767412
 31
0.0
 11
8.1092743286
 21
12.1084614259
 31
0.0
 11
8.0750039643
 21
12.1189394449
 31
0.0
  0
SPLINE
  5
47D
100
AcDbEntity
  8
PORTATASTO
100
AcDbSpline
 62
7
  6
CONTINUOUS
 70
0
 71
3
 72
10
 73
6
 74
4
 42
0.0000001
 43
0.0000001
 44
0.0000000001
 12
5.0017684454
 22
2.5711843134
 32
0.0
 13
5.0055620789
 23
2.5637910659
 33
0.0
 40
0.0
 40
0.0
 40
0.0
 40
0.0
 40
0.3270780677
 40
0.6604220924
 40
1.0
 40
1.0
 40
1.0
 40
1.0
 10
-10.8550009689
 20
22.8618295504
 30
0.0
 10
-10.3096780495
 20
23.1421555494
 30
0.0
 10
-9.2084159056
 20
23.7078484653
 30
0.0
 10
-7.5404610431
 20
24.5635494603
 30
0.0
 10
-6.4177940236
 20
25.1388553089
 30
0.0
 10
-5.8512012579
 20
25.4290575775
 30
0.0
 11
-10.8550009689
 21
22.8618295504
 31
0.0
 11
-9.2187928226
 21
23.7023416987
 31
0.0
 11
-7.5507941913
 21
24.5580889612
 31
0.0
 11
-5.8512012579
 21
25.4290575775
 31
0.0
  0
LINE
  5
47E
100
AcDbEntity
  8
PORTATASTO
100
AcDbLine
 62
253
  6
CONTINUOUS
 10
-5.7908301345
 20
25.6915304186
 11
-5.7917569781
 21
25.4288478356
  0
LINE
  5
47F
100
AcDbEntity
  8
PORTATASTO
100
AcDbLine
 62
253
  6
CONTINUOUS
 10
-5.7917569781
 20
25.4288478356
 11
-5.7922318736
 21
25.2942547109
  0
LINE
  5
480
100
AcDbEntity
  8
PORTATASTO
100
AcDbLine
 62
253
  6
CONTINUOUS
 10
-5.7935800745
 20
24.912152579
 11
-5.7938390159
 21
24.8387643679
  0
LINE
  5
481
100
AcDbEntity
  8
PORTATASTO
100
AcDbLine
 62
253
  6
CONTINUOUS
 10
-5.7938390159
 20
24.8387643679
 11
-5.7952768458
 21
24.4312599251
  0
SPLINE
  5
482
100
AcDbEntity
  8
PORTATASTO
100
AcDbSpline
 62
253
  6
CONTINUOUS
 70
0
 71
3
 72
13
 73
9
 74
7
 42
0.0000001
 43
0.0000001
 44
0.0000000001
 12
0.0770121651
 22
-0.0453551141
 32
0.0
 13
0.0259299922
 23
-0.0854636218
 33
0.0
 40
0.0
 40
0.0
 40
0.0
 40
0.0
 40
0.0492770403
 40
0.2542392125
 40
0.4652422127
 40
0.6856320046
 40
0.918952479
 40
1.0
 40
1.0
 40
1.0
 40
1.0
 10
7.8402112079
 20
11.9647396692
 30
0.0
 10
7.8414761851
 20
11.9639946806
 30
0.0
 10
7.847914433
 20
11.9600016011
 30
0.0
 10
7.8587985447
 20
11.9513205305
 30
0.0
 10
7.8713043507
 20
11.9369808832
 30
0.0
 10
7.8817118237
 20
11.9200693623
 30
0.0
 10
7.8879671621
 20
11.905384008
 30
0.0
 10
7.8908743744
 20
11.896486032
 30
0.0
 10
7.8915748949
 20
11.8941771605
 30
0.0
 11
7.8402112079
 21
11.9647396692
 31
0.0
 11
7.843953503
 21
11.9624185844
 31
0.0
 11
7.8582792814
 21
11.951041922
 31
0.0
 11
7.870707555
 21
11.9368923045
 31
0.0
 11
7.8810854778
 21
11.9201821072
 31
0.0
 11
7.8893241652
 21
11.901056417
 31
0.0
 11
7.8915748949
 21
11.8941771605
 31
0.0
  0
SPLINE
  5
483
100
AcDbEntity
  8
PORTATASTO
100
AcDbSpline
 62
253
  6
CONTINUOUS
 70
0
 71
3
 72
10
 73
6
 74
4
 42
0.0000001
 43
0.0000001
 44
0.0000000001
 12
0.018193477
 22
-0.0599645548
 32
0.0
 13
-0.0000000029
 23
-0.0626237623
 33
0.0
 40
0.0
 40
0.0
 40
0.0
 40
0.0
 40
0.2379216854
 40
0.6104955935
 40
1.0
 40
1.0
 40
1.0
 40
1.0
 10
7.8915748949
 20
11.8941771605
 30
0.0
 10
7.8930177692
 20
11.8894215378
 30
0.0
 10
7.8961868077
 20
11.8770569044
 30
0.0
 10
7.8993431616
 20
11.85638024
 30
0.0
 10
7.9000808974
 20
11.8404585443
 30
0.0
 10
7.900080897
 20
11.8323278005
 30
0.0
 11
7.8915748949
 21
11.8941771605
 31
0.0
 11
7.8952991868
 21
11.8797448318
 31
0.0
 11
7.8988911284
 21
11.8566909982
 31
0.0
 11
7.900080897
 21
11.8323278005
 31
0.0
  0
SPLINE
  5
484
100
AcDbEntity
  8
PORTATASTO
100
AcDbSpline
 62
7
  6
CONTINUOUS
 70
0
 71
3
 72
10
 73
6
 74
4
 42
0.0000001
 43
0.0000001
 44
0.0000000001
 12
5.0017684454
 22
2.5711843134
 32
0.0
 13
5.0055620789
 23
2.5637910659
 33
0.0
 40
0.0
 40
0.0
 40
0.0
 40
0.0
 40
0.3270780677
 40
0.6604220924
 40
1.0
 40
1.0
 40
1.0
 40
1.0
 10
5.0549016078
 20
14.906878262
 30
0.0
 10
5.6002245272
 20
15.187204261
 30
0.0
 10
6.7014866711
 20
15.752897177
 30
0.0
 10
8.3694415336
 20
16.6085981719
 30
0.0
 10
9.4921085531
 20
17.1839040206
 30
0.0
 10
10.0587013188
 20
17.4741062892
 30
0.0
 11
5.0549016078
 21
14.906878262
 31
0.0
 11
6.6911097541
 21
15.7473904104
 31
0.0
 11
8.3591083854
 21
16.6031376728
 31
0.0
 11
10.0587013188
 21
17.4741062892
 31
0.0
  0
LINE
  5
485
100
AcDbEntity
  8
PORTATASTO
100
AcDbLine
 62
253
  6
CONTINUOUS
 10
10.1146257309
 20
16.4763086368
 11
10.1160635608
 21
16.8838130795
  0
LINE
  5
486
100
AcDbEntity
  8
PORTATASTO
100
AcDbLine
 62
253
  6
CONTINUOUS
 10
10.1160635608
 20
16.8838130795
 11
10.1163225022
 21
16.9572012906
  0
LINE
  5
487
100
AcDbEntity
  8
PORTATASTO
100
AcDbLine
 62
253
  6
CONTINUOUS
 10
10.1176707031
 20
17.3393034225
 11
10.1181455986
 21
17.4738965473
  0
LINE
  5
488
100
AcDbEntity
  8
PORTATASTO
100
AcDbLine
 62
253
  6
CONTINUOUS
 10
10.1181455986
 20
17.4738965473
 11
10.1190724422
 21
17.7365791303
  0
SPLINE
  5
489
100
AcDbEntity
  8
PORTATASTO
100
AcDbSpline
 62
7
  6
CONTINUOUS
 70
0
 71
3
 72
13
 73
9
 74
7
 42
0.0000001
 43
0.0000001
 44
0.0000000001
 12
0.4628116396
 22
-0.064098053
 32
0.0
 13
0.4179025476
 23
-0.2089512738
 33
0.0
 40
0.0
 40
0.0
 40
0.0
 40
0.0
 40
0.1796826336
 40
0.3552527235
 40
0.5258289147
 40
0.6906034756
 40
0.8488616656
 40
1.0
 40
1.0
 40
1.0
 40
1.0
 10
5.1917906041
 20
18.6983930343
 30
0.0
 10
5.2195103421
 20
18.6945539319
 30
0.0
 10
5.2741542661
 20
18.6857333067
 30
0.0
 10
5.3543275498
 20
18.6688839167
 30
0.0
 10
5.4313252103
 20
18.6486685998
 30
0.0
 10
5.5045838512
 20
18.6252348831
 30
0.0
 10
5.5735654539
 20
18.5987555019
 30
0.0
 10
5.6174311414
 20
18.5787136107
 30
0.0
 10
5.6384848398
 20
18.5681867615
 30
0.0
 11
5.1917906041
 21
18.6983930343
 31
0.0
 11
5.27466445
 21
18.6849755479
 31
0.0
 11
5.3549316539
 21
18.6680539643
 31
0.0
 11
5.4320009037
 21
18.6477529392
 31
0.0
 11
5.5053042028
 21
18.6242220931
 31
0.0
 11
5.5743017167
 21
18.5976347091
 31
0.0
 11
5.6384848398
 21
18.5681867615
 31
0.0
  0
SPLINE
  5
48A
100
AcDbEntity
  8
PORTATASTO
100
AcDbSpline
 62
253
  6
CONTINUOUS
 70
0
 71
3
 72
13
 73
9
 74
7
 42
0.0000001
 43
0.0000001
 44
0.0000000001
 12
0.0770121651
 22
-0.0453551141
 32
0.0
 13
0.0259299922
 23
-0.0854636219
 33
0.0
 40
0.0
 40
0.0
 40
0.0
 40
0.0
 40
0.0492770403
 40
0.2542392125
 40
0.4652422127
 40
0.6856320046
 40
0.918952479
 40
1.0
 40
1.0
 40
1.0
 40
1.0
 10
-5.506429287
 20
18.6380599166
 30
0.0
 10
-5.5051643098
 20
18.637314928
 30
0.0
 10
-5.4987260619
 20
18.6333218486
 30
0.0
 10
-5.4878419502
 20
18.624640778
 30
0.0
 10
-5.4753361442
 20
18.6103011306
 30
0.0
 10
-5.4649286712
 20
18.5933896098
 30
0.0
 10
-5.4586733328
 20
18.5787042555
 30
0.0
 10
-5.4557661205
 20
18.5698062795
 30
0.0
 10
-5.4550656
 20
18.5674974079
 30
0.0
 11
-5.506429287
 21
18.6380599166
 31
0.0
 11
-5.5026869919
 21
18.6357388319
 31
0.0
 11
-5.4883612134
 21
18.6243621695
 31
0.0
 11
-5.4759329399
 21
18.610212552
 31
0.0
 11
-5.4655550171
 21
18.5935023546
 31
0.0
 11
-5.4573163297
 21
18.5743766644
 31
0.0
 11
-5.4550656
 21
18.5674974079
 31
0.0
  0
SPLINE
  5
48B
100
AcDbEntity
  8
PORTATASTO
100
AcDbSpline
 62
253
  6
CONTINUOUS
 70
0
 71
3
 72
10
 73
6
 74
4
 42
0.0000001
 43
0.0000001
 44
0.0000000001
 12
0.018193477
 22
-0.0599645548
 32
0.0
 13
-0.0000000029
 23
-0.0626237623
 33
0.0
 40
0.0
 40
0.0
 40
0.0
 40
0.0
 40
0.2379216854
 40
0.6104955935
 40
1.0
 40
1.0
 40
1.0
 40
1.0
 10
-5.4550656
 20
18.5674974079
 30
0.0
 10
-5.4536227257
 20
18.5627417853
 30
0.0
 10
-5.4504536872
 20
18.5503771519
 30
0.0
 10
-5.4472973332
 20
18.5297004874
 30
0.0
 10
-5.4465595975
 20
18.5137787918
 30
0.0
 10
-5.4465595979
 20
18.505648048
 30
0.0
 11
-5.4550656
 21
18.5674974079
 31
0.0
 11
-5.4513413081
 21
18.5530650792
 31
0.0
 11
-5.4477493665
 21
18.5300112457
 31
0.0
 11
-5.4465595979
 21
18.505648048
 31
0.0
  0
SPLINE
  5
48C
100
AcDbEntity
  8
PORTATASTO
100
AcDbSpline
 62
7
  6
CONTINUOUS
 70
0
 71
3
 72
20
 73
16
 74
14
 42
0.0000001
 43
0.0000001
 44
0.0000000001
 12
0.0
 22
0.7356707928
 32
0.0
 13
-0.6580039607
 23
0.3290019804
 33
0.0
 40
0.0
 40
0.0
 40
0.0
 40
0.0
 40
0.0730105196
 40
0.1487729214
 40
0.2270906104
 40
0.3075074146
 40
0.3890306281
 40
0.4712522964
 40
0.5530515997
 40
0.6340549632
 40
0.7131935961
 40
0.7900924956
 40
0.8637935525
 40
0.9339524538
 40
1.0
 40
1.0
 40
1.0
 40
1.0
 10
9.5170817297
 20
11.0205386012
 30
0.0
 10
9.5170817297
 20
11.0384425035
 30
0.0
 10
9.5159162522
 20
11.0749698468
 30
0.0
 10
9.5079595026
 20
11.1301829968
 30
0.0
 10
9.4950626486
 20
11.1862804725
 30
0.0
 10
9.4772307567
 20
11.2425002823
 30
0.0
 10
9.4548471278
 20
11.2980913816
 30
0.0
 10
9.4282843184
 20
11.3521891275
 30
0.0
 10
9.3979231858
 20
11.404101475
 30
0.0
 10
9.3642588148
 20
11.4530219329
 30
0.0
 10
9.3277448013
 20
11.498326044
 30
0.0
 10
9.2889725413
 20
11.5392813088
 30
0.0
 10
9.2485200455
 20
11.5753775459
 30
0.0
 10
9.2069871241
 20
11.6058797918
 30
0.0
 10
9.1782839794
 20
11.62314837
 30
0.0
 10
9.1637974638
 20
11.6303916278
 30
0.0
 11
9.5170817297
 21
11.0205386012
 31
0.0
 11
9.5149630963
 21
11.0742085075
 31
0.0
 11
9.5073054574
 21
11.1294161431
 31
0.0
 11
9.4944353429
 21
11.1855763407
 31
0.0
 11
9.4766158084
 21
11.2419891459
 31
0.0
 11
9.4542413025
 21
11.2976334789
 31
0.0
 11
9.4275902335
 21
11.3519338318
 31
0.0
 11
9.3971985295
 21
11.4038728228
 31
0.0
 11
9.3633889201
 21
11.4529451569
 31
0.0
 11
9.326808734
 21
11.4982381602
 31
0.0
 11
9.2878644364
 21
11.5392718526
 31
0.0
 11
9.2473189485
 21
11.5752696428
 31
0.0
 11
9.2057085508
 21
11.6058075666
 31
0.0
 11
9.1637974638
 21
11.6303916278
 31
0.0
  0
SPLINE
  5
48D
100
AcDbEntity
  8
PORTATASTO
100
AcDbSpline
 62
7
  6
CONTINUOUS
 70
0
 71
3
 72
15
 73
11
 74
9
 42
0.0000001
 43
0.0000001
 44
0.0000000001
 12
0.0
 22
-0.3142264465
 32
0.0
 13
-0.2797191061
 23
-0.1442777691
 33
0.0
 40
0.0
 40
0.0
 40
0.0
 40
0.0
 40
0.1607622684
 40
0.3140160976
 40
0.4589295696
 40
0.5958928211
 40
0.7251191509
 40
0.848623603
 40
0.9680187643
 40
1.0
 40
1.0
 40
1.0
 40
1.0
 10
9.5170817297
 20
-26.8245880082
 30
0.0
 10
9.5170817297
 20
-26.8414265937
 30
0.0
 10
9.5161067518
 20
-26.8743722975
 30
0.0
 10
9.5084275217
 20
-26.9219598585
 30
0.0
 10
9.4957036443
 20
-26.9658532623
 30
0.0
 10
9.4779645992
 20
-27.0052656025
 30
0.0
 10
9.4555195789
 20
-27.0395780083
 30
0.0
 10
9.4287094814
 20
-27.0681671982
 30
0.0
 10
9.4052748406
 20
-27.0852024791
 30
0.0
 10
9.3913540762
 20
-27.0928566372
 30
0.0
 10
9.3883721553
 20
-27.0943946977
 30
0.0
 11
9.5170817297
 21
-26.8245880082
 31
0.0
 11
9.514961808
 21
-26.8750592631
 31
0.0
 11
9.5073026567
 21
-26.9226026839
 31
0.0
 11
9.4944349903
 21
-26.9662824064
 31
0.0
 11
9.4766126669
 21
-27.0054562384
 31
0.0
 11
9.4542352702
 21
-27.0393402492
 31
0.0
 11
9.4275839993
 21
-27.0675501582
 31
0.0
 11
9.3971908258
 21
-27.0895453642
 31
0.0
 11
9.3883721553
 21
-27.0943946977
 31
0.0
  0
SPLINE
  5
48E
100
AcDbEntity
  8
PORTATASTO
100
AcDbSpline
 62
253
  6
CONTINUOUS
 70
0
 71
3
 72
14
 73
10
 74
8
 42
0.0000001
 43
0.0000001
 44
0.0000000001
 12
0.1430911413
 22
0.0698278485
 32
0.0
 13
0.0006812611
 23
0.1588630725
 33
0.0
 40
0.0
 40
0.0
 40
0.0
 40
0.0
 40
0.0336149653
 40
0.1722601754
 40
0.3164309802
 40
0.4696310554
 40
0.6341306056
 40
0.8109466694
 40
1.0
 40
1.0
 40
1.0
 40
1.0
 10
7.4757637981
 20
-29.6284047887
 30
0.0
 10
7.4773671326
 20
-29.6276223684
 30
0.0
 10
7.4854684303
 20
-29.6233784782
 30
0.0
 10
7.4991287957
 20
-29.6134164688
 30
0.0
 10
7.5144095081
 20
-29.595874446
 30
0.0
 10
7.5265427806
 20
-29.5744733087
 30
0.0
 10
7.5353436331
 20
-29.5496875213
 30
0.0
 10
7.5406860055
 20
-29.5220247655
 30
0.0
 10
7.5418541196
 20
-29.5026288116
 30
0.0
 10
7.5418970512
 20
-29.4926176139
 30
0.0
 11
7.4757637981
 21
-29.6284047887
 31
0.0
 11
7.4805036022
 21
-29.6259211506
 31
0.0
 11
7.4983380873
 21
-29.6129956991
 31
0.0
 11
7.5134796291
 21
-29.5958111168
 31
0.0
 11
7.5256200004
 21
-29.5747172202
 31
0.0
 11
7.5345120668
 21
-29.5501434052
 31
0.0
 11
7.5399748177
 21
-29.5225899064
 31
0.0
 11
7.5418970512
 21
-29.4926176139
 31
0.0
  0
SPLINE
  5
48F
100
AcDbEntity
  8
PORTATASTO
100
AcDbSpline
 62
253
  6
CONTINUOUS
 70
0
 71
3
 72
13
 73
9
 74
7
 42
0.0000001
 43
0.0000001
 44
0.0000000001
 12
0.0000091729
 22
-0.1209331506
 32
0.0
 13
0.1077836665
 23
-0.0538918332
 33
0.0
 40
0.0
 40
0.0
 40
0.0
 40
0.0
 40
0.0764802391
 40
0.228532975
 40
0.392844682
 40
0.5747280082
 40
0.7769162592
 40
1.0
 40
1.0
 40
1.0
 40
1.0
 10
5.8850094602
 20
-28.5382745429
 30
0.0
 10
5.8850096941
 20
-28.5413575416
 30
0.0
 10
5.8856828166
 20
-28.5505702197
 30
0.0
 10
5.8902844658
 20
-28.5658684623
 30
0.0
 10
5.9007470598
 20
-28.5831349464
 30
0.0
 10
5.9158768655
 20
-28.5993173557
 30
0.0
 10
5.9353228537
 20
-28.6141812552
 30
0.0
 10
5.9502128981
 20
-28.622655427
 30
0.0
 10
5.9582278259
 20
-28.6266628909
 30
0.0
 11
5.8850094602
 21
-28.5382745429
 31
0.0
 11
5.8856846455
 21
-28.5474886569
 31
0.0
 11
5.8908194283
 21
-28.5650777165
 31
0.0
 11
5.9008920871
 21
-28.5821247662
 31
0.0
 11
5.9156989342
 21
-28.598285083
 31
0.0
 11
5.9349405475
 21
-28.6132318752
 31
0.0
 11
5.9582278259
 21
-28.6266628909
 31
0.0
  0
SPLINE
  5
490
100
AcDbEntity
  8
PORTATASTO
100
AcDbSpline
 62
253
  6
CONTINUOUS
 70
0
 71
3
 72
13
 73
9
 74
7
 42
0.0000001
 43
0.0000001
 44
0.0000000001
 12
-0.1207750024
 22
0.081626639
 32
0.0
 13
-0.0
 23
0.1454586507
 33
0.0
 40
0.0
 40
0.0
 40
0.0
 40
0.0
 40
0.1004032612
 40
0.2572715646
 40
0.4238331162
 40
0.6025792062
 40
0.7946502891
 40
1.0
 40
1.0
 40
1.0
 40
1.0
 10
6.0125958435
 20
-29.0056504949
 30
0.0
 10
6.0085537755
 20
-29.0029186347
 30
0.0
 10
5.9987305279
 20
-28.995124721
 30
0.0
 10
5.9851864928
 20
-28.979463485
 30
0.0
 10
5.9731819658
 20
-28.9581162179
 30
0.0
 10
5.9645152638
 20
-28.9334228323
 30
0.0
 10
5.959308937
 20
-28.9058863597
 30
0.0
 10
5.9582278259
 20
-28.8865907308
 30
0.0
 10
5.9582278259
 20
-28.8766341002
 30
0.0
 11
6.0125958435
 21
-29.0056504949
 31
0.0
 11
6.0011304696
 21
-28.9965744594
 31
0.0
 11
5.9861088014
 21
-28.9793987835
 31
0.0
 11
5.9740980812
 21
-28.9583576383
 31
0.0
 11
5.965341188
 21
-28.9338765149
 31
0.0
 11
5.9600152024
 21
-28.906450467
 31
0.0
 11
5.9582278259
 21
-28.8766341002
 31
0.0
  0
SPLINE
  5
491
100
AcDbEntity
  8
PORTATASTO
100
AcDbSpline
 62
253
  6
CONTINUOUS
 70
0
 71
3
 72
8
 73
4
 74
2
 42
0.0000001
 43
0.0000001
 44
0.0000000001
 12
0.0236697908
 22
-0.0097195409
 32
0.0
 13
0.0229397622
 23
-0.0113166979
 33
0.0
 40
0.0
 40
0.0
 40
0.0
 40
0.0
 40
1.0
 40
1.0
 40
1.0
 40
1.0
 10
6.5508744629
 20
-27.7428481073
 30
0.0
 10
6.5587643931
 20
-27.7460879542
 30
0.0
 10
6.5665228453
 20
-27.7496430281
 30
0.0
 10
6.5741694327
 20
-27.7534152608
 30
0.0
 11
6.5508744629
 21
-27.7428481073
 31
0.0
 11
6.5741694327
 21
-27.7534152608
 31
0.0
  0
SPLINE
  5
492
100
AcDbEntity
  8
PORTATASTO
100
AcDbSpline
 62
253
  6
CONTINUOUS
 70
0
 71
3
 72
17
 73
13
 74
11
 42
0.0000001
 43
0.0000001
 44
0.0000000001
 12
-0.1070926538
 22
-0.2789892123
 32
0.0
 13
-0.2929479529
 23
0.0611060668
 33
0.0
 40
0.0
 40
0.0
 40
0.0
 40
0.0
 40
0.117387821
 40
0.2325750288
 40
0.3448462271
 40
0.4536747247
 40
0.5587747311
 40
0.6601470123
 40
0.7581101567
 40
0.8533057292
 40
0.9466639717
 40
1.0
 40
1.0
 40
1.0
 40
1.0
 10
-21.1815391073
 20
26.7472109807
 30
0.0
 10
-21.1857295651
 20
26.7362943354
 30
0.0
 10
-21.1952499386
 20
26.7151085638
 30
0.0
 10
-21.2128969316
 20
26.6855477234
 30
0.0
 10
-21.2334705594
 20
26.6590008457
 30
0.0
 10
-21.25656545
 20
26.6360086515
 30
0.0
 10
-21.2817303114
 20
26.6170387337
 30
0.0
 10
-21.3084714437
 20
26.6024869584
 30
0.0
 10
-21.3362590899
 20
26.5926690542
 30
0.0
 10
-21.3645297717
 20
26.5878121436
 30
0.0
 10
-21.3887581485
 20
26.5880117661
 30
0.0
 10
-21.4032381333
 20
26.5902446692
 30
0.0
 10
-21.4084463601
 20
26.5913310542
 30
0.0
 11
-21.1815391073
 21
26.7472109807
 31
0.0
 11
-21.1959466661
 21
26.7152262974
 31
0.0
 11
-21.2136297817
 21
26.6856932861
 31
0.0
 11
-21.234229673
 21
26.6592111563
 31
0.0
 11
-21.2573283759
 21
26.6363172193
 31
0.0
 11
-21.2824572211
 21
26.6174759849
 31
0.0
 11
-21.3091063507
 21
26.6030697283
 31
0.0
 11
-21.3367350674
 21
26.593390736
 31
0.0
 11
-21.3647828013
 21
26.5886353806
 31
0.0
 11
-21.3926804834
 21
26.5889001382
 31
0.0
 11
-21.4084463601
 21
26.5913310542
 31
0.0
  0
SPLINE
  5
493
100
AcDbEntity
  8
PORTATASTO
100
AcDbSpline
 62
253
  6
CONTINUOUS
 70
0
 71
3
 72
17
 73
13
 74
11
 42
0.0000001
 43
0.0000001
 44
0.0000000001
 12
-0.1070926538
 22
-0.2789892123
 32
0.0
 13
-0.2929479529
 23
0.0611060668
 33
0.0
 40
0.0
 40
0.0
 40
0.0
 40
0.0
 40
0.117387821
 40
0.2325750288
 40
0.3448462271
 40
0.4536747247
 40
0.5587747311
 40
0.6601470123
 40
0.7581101567
 40
0.8533057292
 40
0.9466639717
 40
1.0
 40
1.0
 40
1.0
 40
1.0
 10
-7.8348986124
 20
20.0738907332
 30
0.0
 10
-7.8390890702
 20
20.062974088
 30
0.0
 10
-7.8486094437
 20
20.0417883164
 30
0.0
 10
-7.8662564367
 20
20.0122274759
 30
0.0
 10
-7.8868300645
 20
19.9856805983
 30
0.0
 10
-7.9099249551
 20
19.962688404
 30
0.0
 10
-7.9350898165
 20
19.9437184863
 30
0.0
 10
-7.9618309488
 20
19.929166711
 30
0.0
 10
-7.989618595
 20
19.9193488068
 30
0.0
 10
-8.0178892768
 20
19.9144918962
 30
0.0
 10
-8.0421176536
 20
19.9146915187
 30
0.0
 10
-8.0565976384
 20
19.9169244218
 30
0.0
 10
-8.0618058652
 20
19.9180108068
 30
0.0
 11
-7.8348986124
 21
20.0738907332
 31
0.0
 11
-7.8493061712
 21
20.0419060499
 31
0.0
 11
-7.8669892868
 21
20.0123730386
 31
0.0
 11
-7.8875891781
 21
19.9858909089
 31
0.0
 11
-7.910687881
 21
19.9629969719
 31
0.0
 11
-7.9358167262
 21
19.9441557374
 31
0.0
 11
-7.9624658558
 21
19.9297494809
 31
0.0
 11
-7.9900945725
 21
19.9200704886
 31
0.0
 11
-8.0181423064
 21
19.9153151332
 31
0.0
 11
-8.0460399886
 21
19.9155798908
 31
0.0
 11
-8.0618058652
 21
19.9180108068
 31
0.0
  0
SPLINE
  5
494
100
AcDbEntity
  8
PORTATASTO
100
AcDbSpline
 62
253
  6
CONTINUOUS
 70
0
 71
3
 72
18
 73
14
 74
12
 42
0.0000001
 43
0.0000001
 44
0.0000000001
 12
0.3246495851
 22
-0.1623247962
 32
0.0
 13
0.3253245715
 23
0.1609677474
 33
0.0
 40
0.0
 40
0.0
 40
0.0
 40
0.0
 40
0.0806595925
 40
0.1671780649
 40
0.2585292238
 40
0.3534795041
 40
0.4506548502
 40
0.5485992532
 40
0.6458291495
 40
0.7408865332
 40
0.8323932784
 40
0.9191094963
 40
1.0
 40
1.0
 40
1.0
 40
1.0
 10
-21.3564621759
 20
26.4605981114
 30
0.0
 10
-21.3477334749
 20
26.4562337607
 30
0.0
 10
-21.3291017766
 20
26.4482469882
 30
0.0
 10
-21.2992624828
 20
26.4387366287
 30
0.0
 10
-21.2670373015
 20
26.4314187109
 30
0.0
 10
-21.2330702067
 20
26.4264414225
 30
0.0
 10
-21.1980361691
 20
26.4239040786
 30
0.0
 10
-21.1626353993
 20
26.4238580733
 30
0.0
 10
-21.1275753287
 20
26.4263043392
 30
0.0
 10
-21.0935567379
 20
26.4311933269
 30
0.0
 10
-21.0612557501
 20
26.4384274616
 30
0.0
 10
-21.0313179651
 20
26.4478602103
 30
0.0
 10
-21.0126086924
 20
26.4557962697
 30
0.0
 10
-21.003836803
 20
26.4601365238
 30
0.0
 11
-21.3564621759
 21
26.4605981114
 31
0.0
 11
-21.3296001935
 21
26.4489544903
 31
0.0
 11
-21.2997066652
 21
26.4393336938
 31
0.0
 11
-21.2673860837
 21
26.4319302708
 31
0.0
 11
-21.2332920233
 21
26.4268939333
 31
0.0
 11
-21.1981139228
 21
26.4243265282
 31
0.0
 11
-21.1625631446
 21
26.424279977
 31
0.0
 11
-21.1273585906
 21
26.4267552255
 31
0.0
 11
-21.093212171
 21
26.4317022231
 31
0.0
 11
-21.060814403
 21
26.4390209323
 31
0.0
 11
-21.0308204352
 21
26.4485633546
 31
0.0
 11
-21.003836803
 21
26.4601365238
 31
0.0
  0
SPLINE
  5
495
100
AcDbEntity
  8
PORTATASTO
100
AcDbSpline
 62
253
  6
CONTINUOUS
 70
0
 71
3
 72
18
 73
14
 74
12
 42
0.0000001
 43
0.0000001
 44
0.0000000001
 12
0.3246495851
 22
-0.1623247962
 32
0.0
 13
0.3253245715
 23
0.1609677474
 33
0.0
 40
0.0
 40
0.0
 40
0.0
 40
0.0
 40
0.0806595925
 40
0.1671780649
 40
0.2585292238
 40
0.3534795041
 40
0.4506548502
 40
0.5485992532
 40
0.6458291495
 40
0.7408865332
 40
0.8323932784
 40
0.9191094963
 40
1.0
 40
1.0
 40
1.0
 40
1.0
 10
-8.009821681
 20
19.7872778639
 30
0.0
 10
-8.00109298
 20
19.7829135133
 30
0.0
 10
-7.9824612817
 20
19.7749267407
 30
0.0
 10
-7.9526219879
 20
19.7654163813
 30
0.0
 10
-7.9203968066
 20
19.7580984634
 30
0.0
 10
-7.8864297118
 20
19.7531211751
 30
0.0
 10
-7.8513956742
 20
19.7505838311
 30
0.0
 10
-7.8159949044
 20
19.7505378259
 30
0.0
 10
-7.7809348338
 20
19.7529840917
 30
0.0
 10
-7.746916243
 20
19.7578730795
 30
0.0
 10
-7.7146152552
 20
19.7651072141
 30
0.0
 10
-7.6846774702
 20
19.7745399629
 30
0.0
 10
-7.6659681975
 20
19.7824760223
 30
0.0
 10
-7.6571963081
 20
19.7868162763
 30
0.0
 11
-8.009821681
 21
19.7872778639
 31
0.0
 11
-7.9829596986
 21
19.7756342428
 31
0.0
 11
-7.9530661703
 21
19.7660134464
 31
0.0
 11
-7.9207455888
 21
19.7586100233
 31
0.0
 11
-7.8866515284
 21
19.7535736858
 31
0.0
 11
-7.8514734279
 21
19.7510062807
 31
0.0
 11
-7.8159226497
 21
19.7509597295
 31
0.0
 11
-7.7807180957
 21
19.7534349781
 31
0.0
 11
-7.7465716761
 21
19.7583819756
 31
0.0
 11
-7.7141739081
 21
19.7657006849
 31
0.0
 11
-7.6841799403
 21
19.7752431071
 31
0.0
 11
-7.6571963081
 21
19.7868162763
 31
0.0
  0
SPLINE
  5
496
100
AcDbEntity
  8
PORTATASTO
100
AcDbSpline
 62
253
  6
CONTINUOUS
 70
0
 71
3
 72
12
 73
8
 74
6
 42
0.0000001
 43
0.0000001
 44
0.0000000001
 12
-0.0992113701
 22
0.049605685
 32
0.0
 13
-0.0168818134
 23
0.1099498751
 33
0.0
 40
0.0
 40
0.0
 40
0.0
 40
0.0
 40
0.2423757394
 40
0.4620472532
 40
0.6596584671
 40
0.8381776496
 40
1.0
 40
1.0
 40
1.0
 40
1.0
 10
-23.2983152457
 20
27.4744178651
 30
0.0
 10
-23.3063307221
 20
27.4784256033
 30
0.0
 10
-23.3212217065
 20
27.4869003806
 30
0.0
 10
-23.3406687309
 20
27.5017655335
 30
0.0
 10
-23.3557989419
 20
27.5179494334
 30
0.0
 10
-23.3661958685
 20
27.5351098521
 30
0.0
 10
-23.3698929046
 20
27.5472965921
 30
0.0
 10
-23.3708035229
 20
27.5532273745
 30
0.0
 11
-23.2983152457
 21
27.4744178651
 31
0.0
 11
-23.3216040578
 21
27.4878499042
 31
0.0
 11
-23.3408465932
 21
27.5027979166
 31
0.0
 11
-23.3556538076
 21
27.5189597581
 31
0.0
 11
-23.3657259977
 21
27.5360084021
 31
0.0
 11
-23.3708035229
 21
27.5532273745
 31
0.0
  0
SPLINE
  5
497
100
AcDbEntity
  8
PORTATASTO
100
AcDbSpline
 62
253
  6
CONTINUOUS
 70
0
 71
3
 72
18
 73
14
 74
12
 42
0.0000001
 43
0.0000001
 44
0.0000000001
 12
-0.3253245695
 22
-0.1609677464
 32
0.0
 13
-0.3246495845
 23
0.1623247923
 33
0.0
 40
0.0
 40
0.0
 40
0.0
 40
0.0
 40
0.0808903938
 40
0.1676064876
 40
0.2591130993
 40
0.3541703561
 40
0.4514001688
 40
0.549344556
 40
0.6465199513
 40
0.7414703353
 40
0.8328216347
 40
0.9193402632
 40
1.0
 40
1.0
 40
1.0
 40
1.0
 10
-21.7146460204
 20
26.8584343513
 30
0.0
 10
-21.7234178979
 20
26.8540941032
 30
0.0
 10
-21.7421271436
 20
26.8461580535
 30
0.0
 10
-21.7720648842
 20
26.8367253127
 30
0.0
 10
-21.8043658243
 20
26.8294911795
 30
0.0
 10
-21.8383843719
 20
26.8246021861
 30
0.0
 10
-21.873444414
 20
26.8221559082
 30
0.0
 10
-21.9088451775
 20
26.8222018984
 30
0.0
 10
-21.9438792325
 20
26.8247392286
 30
0.0
 10
-21.9778463643
 20
26.8297165087
 30
0.0
 10
-22.0100715951
 20
26.8370344264
 30
0.0
 10
-22.0399109421
 20
26.8465447947
 30
0.0
 10
-22.0585426747
 20
26.8545315796
 30
0.0
 10
-22.0672713914
 20
26.8588959379
 30
0.0
 11
-21.7146460204
 21
26.8584343513
 31
0.0
 11
-21.741629615
 21
26.8468611961
 31
0.0
 11
-21.771623538
 21
26.8373187821
 31
0.0
 11
-21.8040212566
 21
26.8300000749
 31
0.0
 11
-21.8381676287
 21
26.8250530723
 31
0.0
 11
-21.8733721512
 21
26.8225778117
 31
0.0
 11
-21.9089229235
 21
26.8226243477
 31
0.0
 11
-21.9441010427
 21
26.8251917391
 31
0.0
 11
-21.9781951421
 21
26.8302280685
 31
0.0
 11
-22.0105157756
 21
26.8376314921
 31
0.0
 11
-22.04040936
 21
26.8472522987
 31
0.0
 11
-22.0672713914
 21
26.8588959379
 31
0.0
  0
SPLINE
  5
498
100
AcDbEntity
  8
PORTATASTO
100
AcDbSpline
 62
253
  6
CONTINUOUS
 70
0
 71
3
 72
14
 73
10
 74
8
 42
0.0000001
 43
0.0000001
 44
0.0000000001
 12
0.0
 22
-0.1577570491
 32
0.0
 13
0.1413701496
 23
-0.0707269237
 33
0.0
 40
0.0
 40
0.0
 40
0.0
 40
0.0
 40
0.1743677075
 40
0.3386590498
 40
0.4925403877
 40
0.6365867691
 40
0.7723296719
 40
0.9021624116
 40
1.0
 40
1.0
 40
1.0
 40
1.0
 10
-22.0672713914
 20
26.8588959379
 30
0.0
 10
-22.0672713914
 20
26.8497266929
 30
0.0
 10
-22.0663506751
 20
26.8318981623
 30
0.0
 10
-22.0619392461
 20
26.8063081072
 30
0.0
 10
-22.0545866793
 20
26.7830511131
 30
0.0
 10
-22.0443873878
 20
26.7625375226
 30
0.0
 10
-22.0314771118
 20
26.7451376721
 30
0.0
 10
-22.0171933318
 20
26.7322366163
 30
0.0
 10
-22.0069104932
 20
26.7259857158
 30
0.0
 10
-22.002300055
 20
26.7236791319
 30
0.0
 11
-22.0672713914
 21
26.8588959379
 31
0.0
 11
-22.0657632665
 21
26.8314295759
 31
0.0
 11
-22.0612563647
 21
26.805906319
 31
0.0
 11
-22.0538252739
 21
26.78279579
 31
0.0
 11
-22.0435988901
 21
26.7625025315
 31
0.0
 11
-22.0307505628
 21
26.7453707772
 31
0.0
 11
-22.0155018367
 21
26.7316963522
 31
0.0
 11
-22.002300055
 21
26.7236791319
 31
0.0
  0
SPLINE
  5
499
100
AcDbEntity
  8
PORTATASTO
100
AcDbSpline
 62
253
  6
CONTINUOUS
 70
0
 71
3
 72
12
 73
8
 74
6
 42
0.0000001
 43
0.0000001
 44
0.0000000001
 12
-0.0992113701
 22
0.049605685
 32
0.0
 13
-0.0168818134
 23
0.1099498751
 33
0.0
 40
0.0
 40
0.0
 40
0.0
 40
0.0
 40
0.2423757394
 40
0.4620472532
 40
0.6596584671
 40
0.8381776496
 40
1.0
 40
1.0
 40
1.0
 40
1.0
 10
-9.9516747508
 20
20.8010976176
 30
0.0
 10
-9.9596902272
 20
20.8051053558
 30
0.0
 10
-9.9745812116
 20
20.8135801331
 30
0.0
 10
-9.994028236
 20
20.828445286
 30
0.0
 10
-10.009158447
 20
20.844629186
 30
0.0
 10
-10.0195553736
 20
20.8617896047
 30
0.0
 10
-10.0232524097
 20
20.8739763446
 30
0.0
 10
-10.024163028
 20
20.879907127
 30
0.0
 11
-9.9516747508
 21
20.8010976176
 31
0.0
 11
-9.9749635629
 21
20.8145296567
 31
0.0
 11
-9.9942060983
 21
20.8294776692
 31
0.0
 11
-10.0090133127
 21
20.8456395106
 31
0.0
 11
-10.0190855028
 21
20.8626881547
 31
0.0
 11
-10.024163028
 21
20.879907127
 31
0.0
  0
SPLINE
  5
49A
100
AcDbEntity
  8
PORTATASTO
100
AcDbSpline
 62
253
  6
CONTINUOUS
 70
0
 71
3
 72
18
 73
14
 74
12
 42
0.0000001
 43
0.0000001
 44
0.0000000001
 12
-0.3253245695
 22
-0.1609677464
 32
0.0
 13
-0.3246495845
 23
0.1623247923
 33
0.0
 40
0.0
 40
0.0
 40
0.0
 40
0.0
 40
0.0808903938
 40
0.1676064876
 40
0.2591130993
 40
0.3541703561
 40
0.4514001688
 40
0.549344556
 40
0.6465199513
 40
0.7414703353
 40
0.8328216347
 40
0.9193402632
 40
1.0
 40
1.0
 40
1.0
 40
1.0
 10
-8.3680055255
 20
20.1851141039
 30
0.0
 10
-8.376777403
 20
20.1807738558
 30
0.0
 10
-8.3954866487
 20
20.1728378061
 30
0.0
 10
-8.4254243893
 20
20.1634050653
 30
0.0
 10
-8.4577253294
 20
20.1561709321
 30
0.0
 10
-8.491743877
 20
20.1512819386
 30
0.0
 10
-8.5268039191
 20
20.1488356607
 30
0.0
 10
-8.5622046826
 20
20.1488816509
 30
0.0
 10
-8.5972387376
 20
20.1514189812
 30
0.0
 10
-8.6312058694
 20
20.1563962613
 30
0.0
 10
-8.6634311002
 20
20.163714179
 30
0.0
 10
-8.6932704472
 20
20.1732245473
 30
0.0
 10
-8.7119021798
 20
20.1812113321
 30
0.0
 10
-8.7206308965
 20
20.1855756905
 30
0.0
 11
-8.3680055255
 21
20.1851141039
 31
0.0
 11
-8.3949891201
 21
20.1735409486
 31
0.0
 11
-8.4249830431
 21
20.1639985347
 31
0.0
 11
-8.4573807617
 21
20.1566798275
 31
0.0
 11
-8.4915271338
 21
20.1517328248
 31
0.0
 11
-8.5267316563
 21
20.1492575643
 31
0.0
 11
-8.5622824286
 21
20.1493041002
 31
0.0
 11
-8.5974605478
 21
20.1518714917
 31
0.0
 11
-8.6315546472
 21
20.1569078211
 31
0.0
 11
-8.6638752807
 21
20.1643112446
 31
0.0
 11
-8.6937688651
 21
20.1739320513
 31
0.0
 11
-8.7206308965
 21
20.1855756905
 31
0.0
  0
SPLINE
  5
49B
100
AcDbEntity
  8
PORTATASTO
100
AcDbSpline
 62
253
  6
CONTINUOUS
 70
0
 71
3
 72
14
 73
10
 74
8
 42
0.0000001
 43
0.0000001
 44
0.0000000001
 12
0.0
 22
-0.1577570491
 32
0.0
 13
0.1413701496
 23
-0.0707269237
 33
0.0
 40
0.0
 40
0.0
 40
0.0
 40
0.0
 40
0.1743677075
 40
0.3386590498
 40
0.4925403877
 40
0.6365867691
 40
0.7723296719
 40
0.9021624116
 40
1.0
 40
1.0
 40
1.0
 40
1.0
 10
-8.7206308965
 20
20.1855756905
 30
0.0
 10
-8.7206308965
 20
20.1764064455
 30
0.0
 10
-8.7197101802
 20
20.1585779149
 30
0.0
 10
-8.7152987512
 20
20.1329878598
 30
0.0
 10
-8.7079461844
 20
20.1097308657
 30
0.0
 10
-8.6977468929
 20
20.0892172751
 30
0.0
 10
-8.6848366169
 20
20.0718174246
 30
0.0
 10
-8.6705528369
 20
20.0589163689
 30
0.0
 10
-8.6602699983
 20
20.0526654684
 30
0.0
 10
-8.6556595601
 20
20.0503588845
 30
0.0
 11
-8.7206308965
 21
20.1855756905
 31
0.0
 11
-8.7191227716
 21
20.1581093284
 31
0.0
 11
-8.7146158698
 21
20.1325860715
 31
0.0
 11
-8.707184779
 21
20.1094755426
 31
0.0
 11
-8.6969583952
 21
20.089182284
 31
0.0
 11
-8.6841100679
 21
20.0720505298
 31
0.0
 11
-8.6688613418
 21
20.0583761048
 31
0.0
 11
-8.6556595601
 21
20.0503588845
 31
0.0
  0
SPLINE
  5
49C
100
AcDbEntity
  8
PORTATASTO
100
AcDbSpline
 62
253
  6
CONTINUOUS
 70
0
 71
3
 72
18
 73
14
 74
12
 42
0.0000001
 43
0.0000001
 44
0.0000000001
 12
-0.3274336833
 22
-0.1658166109
 32
0.0
 13
0.0
 23
-0.3670258376
 33
0.0
 40
0.0
 40
0.0
 40
0.0
 40
0.0
 40
0.079422804
 40
0.1638981722
 40
0.2528307501
 40
0.3453754709
 40
0.4405064244
 40
0.537077953
 40
0.633880772
 40
0.7296955712
 40
0.8233462304
 40
0.9137547197
 40
1.0
 40
1.0
 40
1.0
 40
1.0
 10
-21.8914202925
 20
27.4132960798
 30
0.0
 10
-21.9000888596
 20
27.4089062064
 30
0.0
 10
-21.9173445757
 20
27.3985615587
 30
0.0
 10
-21.9418127589
 20
27.3795379526
 30
0.0
 10
-21.9652450613
 20
27.3568793595
 30
0.0
 10
-21.9871750344
 20
27.3310396398
 30
0.0
 10
-22.0071716874
 20
27.302531265
 30
0.0
 10
-22.0248372844
 20
27.2719221487
 30
0.0
 10
-22.0398201931
 20
27.2398221328
 30
0.0
 10
-22.0518216299
 20
27.2068714994
 30
0.0
 10
-22.0606021696
 20
27.1737243003
 30
0.0
 10
-22.0659860038
 20
27.1410445834
 30
0.0
 10
-22.0672713914
 20
27.1194185627
 30
0.0
 10
-22.0672713914
 20
27.1088671473
 30
0.0
 11
-21.8914202925
 21
27.4132960798
 31
0.0
 11
-21.9164852451
 21
27.3984137566
 31
0.0
 11
-21.9410246205
 21
27.3794636397
 31
0.0
 11
-21.964542187
 21
27.3568289357
 31
0.0
 11
-21.9865623757
 21
27.3309673605
 31
0.0
 11
-22.0066398975
 21
27.302401883
 31
0.0
 11
-22.0243687477
 21
27.2717101502
 31
0.0
 11
-22.0393904159
 21
27.2395128061
 31
0.0
 11
-22.0514011361
 21
27.2064609406
 31
0.0
 11
-22.0601580294
 21
27.173222924
 31
0.0
 11
-22.0654840149
 21
27.1404708905
 31
0.0
 11
-22.0672713914
 21
27.1088671473
 31
0.0
  0
SPLINE
  5
49D
100
AcDbEntity
  8
PORTATASTO
100
AcDbSpline
 62
253
  6
CONTINUOUS
 70
0
 71
3
 72
18
 73
14
 74
12
 42
0.0000001
 43
0.0000001
 44
0.0000000001
 12
-0.0015838354
 22
0.3677667756
 32
0.0
 13
-0.3282452006
 23
0.1658613822
 33
0.0
 40
0.0
 40
0.0
 40
0.0
 40
0.0
 40
0.0862298917
 40
0.1766966374
 40
0.2704573358
 40
0.3664103845
 40
0.4633549994
 40
0.5600473248
 40
0.6552540094
 40
0.7478094658
 40
0.836663259
 40
0.9209608649
 40
1.0
 40
1.0
 40
1.0
 40
1.0
 10
-21.7146460204
 20
27.1084055607
 30
0.0
 10
-21.7146915451
 20
27.1189763904
 30
0.0
 10
-21.7160712066
 20
27.1406456098
 30
0.0
 10
-21.7215934464
 20
27.1733888699
 30
0.0
 10
-21.7305108785
 20
27.2066099046
 30
0.0
 10
-21.7426437923
 20
27.2396385516
 30
0.0
 10
-21.757748493
 20
27.2718145892
 30
0.0
 10
-21.7755216062
 20
27.3024916903
 30
0.0
 10
-21.7956069225
 20
27.3310546087
 30
0.0
 10
-21.8176018037
 20
27.3569301193
 30
0.0
 10
-21.8410709991
 20
27.3796019163
 30
0.0
 10
-21.865534575
 20
27.3986057786
 30
0.0
 10
-21.8827722203
 20
27.4089262331
 30
0.0
 10
-21.8914202925
 20
27.4132960798
 30
0.0
 11
-21.7146460204
 21
27.1084055607
 31
0.0
 11
-21.7165687711
 21
27.140060002
 31
0.0
 11
-21.7220330436
 21
27.172879193
 31
0.0
 11
-21.730927559
 21
27.2061946966
 31
0.0
 11
-21.7430711795
 21
27.239328105
 31
0.0
 11
-21.7582165768
 21
27.2716046836
 31
0.0
 11
-21.7760553046
 21
27.3023672067
 31
0.0
 11
-21.7962239803
 21
27.3309891796
 31
0.0
 11
-21.8183123177
 21
27.3568883731
 31
0.0
 11
-21.8418690682
 21
27.3795360342
 31
0.0
 11
-21.8664157762
 21
27.398472565
 31
0.0
 11
-21.8914202925
 21
27.4132960798
 31
0.0
  0
SPLINE
  5
49E
100
AcDbEntity
  8
PORTATASTO
100
AcDbSpline
 62
253
  6
CONTINUOUS
 70
0
 71
3
 72
18
 73
14
 74
12
 42
0.0000001
 43
0.0000001
 44
0.0000000001
 12
0.3246495934
 22
-0.1623247967
 32
0.0
 13
0.3253245784
 23
0.1609677508
 33
0.0
 40
0.0
 40
0.0
 40
0.0
 40
0.0
 40
0.0805600317
 40
0.1670785676
 40
0.2584318395
 40
0.353391101
 40
0.4505764045
 40
0.5485331093
 40
0.645776605
 40
0.7408481865
 40
0.8323689073
 40
0.9190982169
 40
1.0
 40
1.0
 40
1.0
 40
1.0
 10
-22.0672713914
 20
27.1088671473
 30
0.0
 10
-22.0585534642
 20
27.1045081837
 30
0.0
 10
-22.0399335182
 20
27.0965248852
 30
0.0
 10
-22.0101064056
 20
27.0870150098
 30
0.0
 10
-21.97788054
 20
27.0796939793
 30
0.0
 10
-21.943911273
 20
27.0747138269
 30
0.0
 10
-21.9088736103
 20
27.0721740507
 30
0.0
 10
-21.8734684924
 20
27.0721261905
 30
0.0
 10
-21.838403463
 20
27.0745712549
 30
0.0
 10
-21.804379681
 20
27.0794597348
 30
0.0
 10
-21.7720736043
 20
27.0866940561
 30
0.0
 10
-21.7421312002
 20
27.096127633
 30
0.0
 10
-21.7234191333
 20
27.1040647013
 30
0.0
 10
-21.7146460204
 20
27.1084055607
 30
0.0
 11
-22.0672713914
 21
27.1088671473
 31
0.0
 11
-22.0404432911
 21
27.0972362232
 31
0.0
 11
-22.0105507526
 21
27.0876122743
 31
0.0
 11
-21.9782300774
 21
27.0802058229
 31
0.0
 11
-21.9441331657
 21
27.0751664756
 31
0.0
 11
-21.9089516196
 21
27.0725966184
 31
0.0
 11
-21.873396378
 21
27.0725481901
 31
0.0
 11
-21.83818679
 21
27.0750222313
 31
0.0
 11
-21.804035091
 21
27.0799687345
 31
0.0
 11
-21.7716321703
 21
27.0872876588
 31
0.0
 11
-21.741633497
 21
27.0968309668
 31
0.0
 11
-21.7146460204
 21
27.1084055607
 31
0.0
  0
SPLINE
  5
49F
100
AcDbEntity
  8
PORTATASTO
100
AcDbSpline
 62
253
  6
CONTINUOUS
 70
0
 71
3
 72
12
 73
8
 74
6
 42
0.0000001
 43
0.0000001
 44
0.0000000001
 12
-0.105075395
 22
0.05198689
 32
0.0
 13
-0.1046068627
 23
-0.053485869
 33
0.0
 40
0.0
 40
0.0
 40
0.0
 40
0.0
 40
0.2328889945
 40
0.4495112485
 40
0.6519220999
 40
0.8438975281
 40
1.0
 40
1.0
 40
1.0
 40
1.0
 10
-23.1224641468
 20
28.028818007
 30
0.0
 10
-23.1306211145
 20
28.0328537318
 30
0.0
 10
-23.146918788
 20
28.0396060159
 30
0.0
 10
-23.1718251415
 20
28.0455119259
 30
0.0
 10
-23.1958316415
 20
28.0466578926
 30
0.0
 10
-23.2172315626
 20
28.0431335891
 30
0.0
 10
-23.2299785338
 20
28.0381144566
 30
0.0
 10
-23.2354216638
 20
28.0353313645
 30
0.0
 11
-23.1224641468
 21
28.028818007
 31
0.0
 11
-23.1477436119
 21
28.0391309801
 31
0.0
 11
-23.1724896362
 21
28.0448362081
 31
0.0
 11
-23.1961984794
 21
28.045817553
 31
0.0
 11
-23.2183875148
 21
28.0420550382
 31
0.0
 11
-23.2354216638
 21
28.0353313645
 31
0.0
  0
SPLINE
  5
4A0
100
AcDbEntity
  8
PORTATASTO
100
AcDbSpline
 62
253
  6
CONTINUOUS
 70
0
 71
3
 72
12
 73
8
 74
6
 42
0.0000001
 43
0.0000001
 44
0.0000000001
 12
0.0
 22
0.1580720269
 32
0.0
 13
0.0689400312
 23
0.142302146
 33
0.0
 40
0.0
 40
0.0
 40
0.0
 40
0.0
 40
0.2002807734
 40
0.410231436
 40
0.627711274
 40
0.8502158163
 40
1.0
 40
1.0
 40
1.0
 40
1.0
 10
-23.2983152457
 20
27.7243890744
 30
0.0
 10
-23.2983152457
 20
27.7349420037
 30
0.0
 10
-23.2970294842
 20
27.756571235
 30
0.0
 10
-23.2916441321
 20
27.7892557505
 30
0.0
 10
-23.2828611523
 20
27.822407696
 30
0.0
 10
-23.2722110703
 20
27.8516440816
 30
0.0
 10
-23.2641687869
 20
27.8695516096
 30
0.0
 10
-23.2607267448
 20
27.8766564799
 30
0.0
 11
-23.2983152457
 21
27.7243890744
 31
0.0
 11
-23.2965273695
 21
27.7559973382
 31
0.0
 11
-23.2911998738
 21
27.788754268
 31
0.0
 11
-23.2824405353
 21
27.8219970874
 31
0.0
 11
-23.2704265601
 21
27.8550533421
 31
0.0
 11
-23.2607267448
 21
27.8766564799
 31
0.0
  0
SPLINE
  5
4A1
100
AcDbEntity
  8
PORTATASTO
100
AcDbSpline
 62
253
  6
CONTINUOUS
 70
0
 71
3
 72
14
 73
10
 74
8
 42
0.0000001
 43
0.0000001
 44
0.0000000001
 12
0.0869920683
 22
0.1795641485
 32
0.0
 13
0.1738022251
 23
0.0981016846
 33
0.0
 40
0.0
 40
0.0
 40
0.0
 40
0.0
 40
0.0594463549
 40
0.2371663724
 40
0.4122312226
 40
0.5825355804
 40
0.7461808724
 40
0.901621686
 40
1.0
 40
1.0
 40
1.0
 40
1.0
 10
-23.2607267448
 20
27.8766564799
 30
0.0
 10
-23.2590029577
 20
27.8802146246
 30
0.0
 10
-23.2519192721
 20
27.8943101639
 30
0.0
 10
-23.2381999532
 20
27.9180778994
 30
0.0
 10
-23.2181988828
 20
27.9465877111
 30
0.0
 10
-23.1962648119
 20
27.972427217
 30
0.0
 10
-23.1728289528
 20
27.9950840567
 30
0.0
 10
-23.1508703673
 20
28.0121517356
 30
0.0
 10
-23.1365320382
 20
28.0211206364
 30
0.0
 10
-23.1308325816
 20
28.0243376625
 30
0.0
 11
-23.2607267448
 21
27.8766564799
 31
0.0
 11
-23.2554010204
 21
27.8872543151
 31
0.0
 11
-23.2376679006
 21
27.917948653
 31
0.0
 11
-23.2175860479
 21
27.9465153781
 31
0.0
 11
-23.1955612787
 21
27.9723772314
 31
0.0
 11
-23.1720405926
 21
27.9950096908
 31
0.0
 11
-23.147498542
 21
28.0139565219
 31
0.0
 11
-23.1308325816
 21
28.0243376625
 31
0.0
  0
SPLINE
  5
4A2
100
AcDbEntity
  8
PORTATASTO
100
AcDbSpline
 62
253
  6
CONTINUOUS
 70
0
 71
3
 72
12
 73
8
 74
6
 42
0.0000001
 43
0.0000001
 44
0.0000000001
 12
-0.105075395
 22
0.05198689
 32
0.0
 13
-0.1046068627
 23
-0.053485869
 33
0.0
 40
0.0
 40
0.0
 40
0.0
 40
0.0
 40
0.2328889945
 40
0.4495112485
 40
0.6519220999
 40
0.8438975281
 40
1.0
 40
1.0
 40
1.0
 40
1.0
 10
-9.7758236519
 20
21.3554977595
 30
0.0
 10
-9.7839806196
 20
21.3595334844
 30
0.0
 10
-9.8002782931
 20
21.3662857684
 30
0.0
 10
-9.8251846466
 20
21.3721916784
 30
0.0
 10
-9.8491911466
 20
21.3733376452
 30
0.0
 10
-9.8705910677
 20
21.3698133417
 30
0.0
 10
-9.8833380389
 20
21.3647942091
 30
0.0
 10
-9.8887811689
 20
21.362011117
 30
0.0
 11
-9.7758236519
 21
21.3554977595
 31
0.0
 11
-9.801103117
 21
21.3658107326
 31
0.0
 11
-9.8258491413
 21
21.3715159606
 31
0.0
 11
-9.8495579845
 21
21.3724973055
 31
0.0
 11
-9.8717470199
 21
21.3687347907
 31
0.0
 11
-9.8887811689
 21
21.362011117
 31
0.0
  0
SPLINE
  5
4A3
100
AcDbEntity
  8
PORTATASTO
100
AcDbSpline
 62
253
  6
CONTINUOUS
 70
0
 71
3
 72
12
 73
8
 74
6
 42
0.0000001
 43
0.0000001
 44
0.0000000001
 12
0.0
 22
0.1580720269
 32
0.0
 13
0.0689400312
 23
0.142302146
 33
0.0
 40
0.0
 40
0.0
 40
0.0
 40
0.0
 40
0.2002807734
 40
0.410231436
 40
0.627711274
 40
0.8502158163
 40
1.0
 40
1.0
 40
1.0
 40
1.0
 10
-9.9516747508
 20
21.0510688269
 30
0.0
 10
-9.9516747508
 20
21.0616217562
 30
0.0
 10
-9.9503889893
 20
21.0832509876
 30
0.0
 10
-9.9450036372
 20
21.1159355031
 30
0.0
 10
-9.9362206574
 20
21.1490874485
 30
0.0
 10
-9.9255705754
 20
21.1783238342
 30
0.0
 10
-9.917528292
 20
21.1962313622
 30
0.0
 10
-9.9140862499
 20
21.2033362324
 30
0.0
 11
-9.9516747508
 21
21.0510688269
 31
0.0
 11
-9.9498868746
 21
21.0826770908
 31
0.0
 11
-9.9445593789
 21
21.1154340206
 31
0.0
 11
-9.9358000404
 21
21.1486768399
 31
0.0
 11
-9.9237860652
 21
21.1817330946
 31
0.0
 11
-9.9140862499
 21
21.2033362324
 31
0.0
  0
SPLINE
  5
4A4
100
AcDbEntity
  8
PORTATASTO
100
AcDbSpline
 62
253
  6
CONTINUOUS
 70
0
 71
3
 72
14
 73
10
 74
8
 42
0.0000001
 43
0.0000001
 44
0.0000000001
 12
0.0869920683
 22
0.1795641485
 32
0.0
 13
0.1738022251
 23
0.0981016846
 33
0.0
 40
0.0
 40
0.0
 40
0.0
 40
0.0
 40
0.0594463549
 40
0.2371663724
 40
0.4122312226
 40
0.5825355804
 40
0.7461808724
 40
0.901621686
 40
1.0
 40
1.0
 40
1.0
 40
1.0
 10
-9.9140862499
 20
21.2033362324
 30
0.0
 10
-9.9123624628
 20
21.2068943771
 30
0.0
 10
-9.9052787772
 20
21.2209899164
 30
0.0
 10
-9.8915594583
 20
21.244757652
 30
0.0
 10
-9.8715583879
 20
21.2732674637
 30
0.0
 10
-9.849624317
 20
21.2991069695
 30
0.0
 10
-9.8261884579
 20
21.3217638092
 30
0.0
 10
-9.8042298724
 20
21.3388314882
 30
0.0
 10
-9.7898915433
 20
21.3478003889
 30
0.0
 10
-9.7841920867
 20
21.351017415
 30
0.0
 11
-9.9140862499
 21
21.2033362324
 31
0.0
 11
-9.9087605255
 21
21.2139340676
 31
0.0
 11
-9.8910274057
 21
21.2446284055
 31
0.0
 11
-9.870945553
 21
21.2731951306
 31
0.0
 11
-9.8489207838
 21
21.299056984
 31
0.0
 11
-9.8254000977
 21
21.3216894434
 31
0.0
 11
-9.8008580471
 21
21.3406362744
 31
0.0
 11
-9.7841920867
 21
21.351017415
 31
0.0
  0
SPLINE
  5
4A5
100
AcDbEntity
  8
PORTATASTO
100
AcDbSpline
 62
253
  6
CONTINUOUS
 70
0
 71
3
 72
18
 73
14
 74
12
 42
0.0000001
 43
0.0000001
 44
0.0000000001
 12
-0.3274336833
 22
-0.1658166109
 32
0.0
 13
0.0
 23
-0.3670258376
 33
0.0
 40
0.0
 40
0.0
 40
0.0
 40
0.0
 40
0.079422804
 40
0.1638981722
 40
0.2528307501
 40
0.3453754709
 40
0.4405064244
 40
0.537077953
 40
0.633880772
 40
0.7296955712
 40
0.8233462304
 40
0.9137547197
 40
1.0
 40
1.0
 40
1.0
 40
1.0
 10
-8.5447797976
 20
20.7399758324
 30
0.0
 10
-8.5534483647
 20
20.735585959
 30
0.0
 10
-8.5707040808
 20
20.7252413113
 30
0.0
 10
-8.595172264
 20
20.7062177052
 30
0.0
 10
-8.6186045664
 20
20.6835591121
 30
0.0
 10
-8.6405345395
 20
20.6577193923
 30
0.0
 10
-8.6605311925
 20
20.6292110176
 30
0.0
 10
-8.6781967895
 20
20.5986019013
 30
0.0
 10
-8.6931796982
 20
20.5665018854
 30
0.0
 10
-8.705181135
 20
20.5335512519
 30
0.0
 10
-8.7139616747
 20
20.5004040529
 30
0.0
 10
-8.7193455089
 20
20.467724336
 30
0.0
 10
-8.7206308965
 20
20.4460983152
 30
0.0
 10
-8.7206308965
 20
20.4355468998
 30
0.0
 11
-8.5447797976
 21
20.7399758324
 31
0.0
 11
-8.5698447502
 21
20.7250935091
 31
0.0
 11
-8.5943841256
 21
20.7061433922
 31
0.0
 11
-8.6179016921
 21
20.6835086883
 31
0.0
 11
-8.6399218808
 21
20.657647113
 31
0.0
 11
-8.6599994026
 21
20.6290816355
 31
0.0
 11
-8.6777282528
 21
20.5983899028
 31
0.0
 11
-8.692749921
 21
20.5661925586
 31
0.0
 11
-8.7047606412
 21
20.5331406932
 31
0.0
 11
-8.7135175345
 21
20.4999026765
 31
0.0
 11
-8.71884352
 21
20.4671506431
 31
0.0
 11
-8.7206308965
 21
20.4355468998
 31
0.0
  0
SPLINE
  5
4A6
100
AcDbEntity
  8
PORTATASTO
100
AcDbSpline
 62
253
  6
CONTINUOUS
 70
0
 71
3
 72
18
 73
14
 74
12
 42
0.0000001
 43
0.0000001
 44
0.0000000001
 12
-0.0015838354
 22
0.3677667756
 32
0.0
 13
-0.3282452006
 23
0.1658613822
 33
0.0
 40
0.0
 40
0.0
 40
0.0
 40
0.0
 40
0.0862298917
 40
0.1766966374
 40
0.2704573358
 40
0.3664103845
 40
0.4633549994
 40
0.5600473248
 40
0.6552540094
 40
0.7478094658
 40
0.836663259
 40
0.9209608649
 40
1.0
 40
1.0
 40
1.0
 40
1.0
 10
-8.3680055255
 20
20.4350853132
 30
0.0
 10
-8.3680510502
 20
20.445656143
 30
0.0
 10
-8.3694307117
 20
20.4673253623
 30
0.0
 10
-8.3749529515
 20
20.5000686224
 30
0.0
 10
-8.3838703836
 20
20.5332896572
 30
0.0
 10
-8.3960032974
 20
20.5663183042
 30
0.0
 10
-8.4111079981
 20
20.5984943417
 30
0.0
 10
-8.4288811113
 20
20.6291714429
 30
0.0
 10
-8.4489664276
 20
20.6577343612
 30
0.0
 10
-8.4709613088
 20
20.6836098719
 30
0.0
 10
-8.4944305042
 20
20.7062816689
 30
0.0
 10
-8.5188940801
 20
20.7252855312
 30
0.0
 10
-8.5361317254
 20
20.7356059857
 30
0.0
 10
-8.5447797976
 20
20.7399758324
 30
0.0
 11
-8.3680055255
 21
20.4350853132
 31
0.0
 11
-8.3699282762
 21
20.4667397546
 31
0.0
 11
-8.3753925487
 21
20.4995589455
 31
0.0
 11
-8.3842870641
 21
20.5328744492
 31
0.0
 11
-8.3964306846
 21
20.5660078575
 31
0.0
 11
-8.4115760819
 21
20.5982844362
 31
0.0
 11
-8.4294148097
 21
20.6290469593
 31
0.0
 11
-8.4495834854
 21
20.6576689321
 31
0.0
 11
-8.4716718228
 21
20.6835681257
 31
0.0
 11
-8.4952285734
 21
20.7062157868
 31
0.0
 11
-8.5197752813
 21
20.7251523176
 31
0.0
 11
-8.5447797976
 21
20.7399758324
 31
0.0
  0
SPLINE
  5
4A7
100
AcDbEntity
  8
PORTATASTO
100
AcDbSpline
 62
253
  6
CONTINUOUS
 70
0
 71
3
 72
18
 73
14
 74
12
 42
0.0000001
 43
0.0000001
 44
0.0000000001
 12
0.3246495934
 22
-0.1623247967
 32
0.0
 13
0.3253245784
 23
0.1609677508
 33
0.0
 40
0.0
 40
0.0
 40
0.0
 40
0.0
 40
0.0805600317
 40
0.1670785676
 40
0.2584318395
 40
0.353391101
 40
0.4505764045
 40
0.5485331093
 40
0.645776605
 40
0.7408481865
 40
0.8323689073
 40
0.9190982169
 40
1.0
 40
1.0
 40
1.0
 40
1.0
 10
-8.7206308965
 20
20.4355468998
 30
0.0
 10
-8.7119129694
 20
20.4311879362
 30
0.0
 10
-8.6932930233
 20
20.4232046378
 30
0.0
 10
-8.6634659107
 20
20.4136947623
 30
0.0
 10
-8.6312400451
 20
20.4063737319
 30
0.0
 10
-8.5972707781
 20
20.4013935795
 30
0.0
 10
-8.5622331154
 20
20.3988538032
 30
0.0
 10
-8.5268279975
 20
20.3988059431
 30
0.0
 10
-8.4917629681
 20
20.4012510074
 30
0.0
 10
-8.4577391861
 20
20.4061394873
 30
0.0
 10
-8.4254331094
 20
20.4133738086
 30
0.0
 10
-8.3954907053
 20
20.4228073855
 30
0.0
 10
-8.3767786384
 20
20.4307444539
 30
0.0
 10
-8.3680055255
 20
20.4350853132
 30
0.0
 11
-8.7206308965
 21
20.4355468998
 31
0.0
 11
-8.6938027962
 21
20.4239159757
 31
0.0
 11
-8.6639102577
 21
20.4142920268
 31
0.0
 11
-8.6315895825
 21
20.4068855754
 31
0.0
 11
-8.5974926708
 21
20.4018462281
 31
0.0
 11
-8.5623111247
 21
20.3992763709
 31
0.0
 11
-8.5267558831
 21
20.3992279426
 31
0.0
 11
-8.4915462951
 21
20.4017019838
 31
0.0
 11
-8.4573945961
 21
20.406648487
 31
0.0
 11
-8.4249916754
 21
20.4139674113
 31
0.0
 11
-8.3949930021
 21
20.4235107193
 31
0.0
 11
-8.3680055255
 21
20.4350853132
 31
0.0
  0
SPLINE
  5
4A8
100
AcDbEntity
  8
PORTATASTO
100
AcDbSpline
 62
253
  6
CONTINUOUS
 70
0
 71
3
 72
17
 73
13
 74
11
 42
0.0000001
 43
0.0000001
 44
0.0000000001
 12
-0.1070926538
 22
-0.2789892123
 32
0.0
 13
-0.2929479529
 23
0.0611060668
 33
0.0
 40
0.0
 40
0.0
 40
0.0
 40
0.0
 40
0.117387821
 40
0.2325750288
 40
0.3448462271
 40
0.4536747247
 40
0.5587747311
 40
0.6601470123
 40
0.7581101567
 40
0.8533057292
 40
0.9466639717
 40
1.0
 40
1.0
 40
1.0
 40
1.0
 10
-5.2716365306
 20
18.7922596923
 30
0.0
 10
-5.2758269884
 20
18.7813430471
 30
0.0
 10
-5.2853473619
 20
18.7601572755
 30
0.0
 10
-5.3029943549
 20
18.730596435
 30
0.0
 10
-5.3235679827
 20
18.7040495574
 30
0.0
 10
-5.3466628733
 20
18.6810573631
 30
0.0
 10
-5.3718277347
 20
18.6620874454
 30
0.0
 10
-5.398568867
 20
18.6475356701
 30
0.0
 10
-5.4263565132
 20
18.6377177659
 30
0.0
 10
-5.454627195
 20
18.6328608553
 30
0.0
 10
-5.4788555718
 20
18.6330604778
 30
0.0
 10
-5.4933355566
 20
18.6352933809
 30
0.0
 10
-5.4985437834
 20
18.6363797659
 30
0.0
 11
-5.2716365306
 21
18.7922596923
 31
0.0
 11
-5.2860440894
 21
18.760275009
 31
0.0
 11
-5.303727205
 21
18.7307419977
 31
0.0
 11
-5.3243270963
 21
18.704259868
 31
0.0
 11
-5.3474257992
 21
18.681365931
 31
0.0
 11
-5.3725546444
 21
18.6625246965
 31
0.0
 11
-5.399203774
 21
18.64811844
 31
0.0
 11
-5.4268324907
 21
18.6384394477
 31
0.0
 11
-5.4548802246
 21
18.6336840923
 31
0.0
 11
-5.4827779068
 21
18.6339488499
 31
0.0
 11
-5.4985437834
 21
18.6363797659
 31
0.0
  0
SPLINE
  5
4A9
100
AcDbEntity
  8
PORTATASTO
100
AcDbSpline
 62
253
  6
CONTINUOUS
 70
0
 71
3
 72
17
 73
13
 74
11
 42
0.0000001
 43
0.0000001
 44
0.0000000001
 12
-0.1070926538
 22
-0.2789892123
 32
0.0
 13
-0.2929479529
 23
0.0611060668
 33
0.0
 40
0.0
 40
0.0
 40
0.0
 40
0.0
 40
0.117387821
 40
0.2325750288
 40
0.3448462271
 40
0.4536747247
 40
0.5587747311
 40
0.6601470123
 40
0.7581101567
 40
0.8533057292
 40
0.9466639717
 40
1.0
 40
1.0
 40
1.0
 40
1.0
 10
8.0750039643
 20
12.1189394449
 30
0.0
 10
8.0708135065
 20
12.1080227996
 30
0.0
 10
8.061293133
 20
12.0868370281
 30
0.0
 10
8.04364614
 20
12.0572761876
 30
0.0
 10
8.0230725122
 20
12.0307293099
 30
0.0
 10
7.9999776216
 20
12.0077371157
 30
0.0
 10
7.9748127602
 20
11.9887671979
 30
0.0
 10
7.9480716279
 20
11.9742154226
 30
0.0
 10
7.9202839817
 20
11.9643975184
 30
0.0
 10
7.8920132999
 20
11.9595406078
 30
0.0
 10
7.8677849231
 20
11.9597402303
 30
0.0
 10
7.8533049383
 20
11.9619731334
 30
0.0
 10
7.8480967115
 20
11.9630595184
 30
0.0
 11
8.0750039643
 21
12.1189394449
 31
0.0
 11
8.0605964055
 21
12.0869547616
 31
0.0
 11
8.0429132899
 21
12.0574217503
 31
0.0
 11
8.0223133986
 21
12.0309396205
 31
0.0
 11
7.9992146957
 21
12.0080456835
 31
0.0
 11
7.9740858505
 21
11.9892044491
 31
0.0
 11
7.9474367209
 21
11.9747981925
 31
0.0
 11
7.9198080042
 21
11.9651192002
 31
0.0
 11
7.8917602703
 21
11.9603638448
 31
0.0
 11
7.8638625881
 21
11.9606286024
 31
0.0
 11
7.8480967115
 21
11.9630595184
 31
0.0
  0
SPLINE
  5
4AA
100
AcDbEntity
  8
PORTATASTO
100
AcDbSpline
 62
253
  6
CONTINUOUS
 70
0
 71
3
 72
18
 73
14
 74
12
 42
0.0000001
 43
0.0000001
 44
0.0000000001
 12
-0.3253245715
 22
-0.1609677474
 32
0.0
 13
-0.3246495851
 23
0.1623247962
 33
0.0
 40
0.0
 40
0.0
 40
0.0
 40
0.0
 40
0.0808905037
 40
0.1676067215
 40
0.2591134666
 40
0.3541708501
 40
0.4514007463
 40
0.5493451494
 40
0.6465204955
 40
0.7414707758
 40
0.8328219349
 40
0.9193404073
 40
1.0
 40
1.0
 40
1.0
 40
1.0
 10
8.2527062686
 20
-28.1409442322
 30
0.0
 10
8.2439343792
 20
-28.1452844862
 30
0.0
 10
8.2252251065
 20
-28.1532205456
 30
0.0
 10
8.1952873215
 20
-28.1626532943
 30
0.0
 10
8.1629863337
 20
-28.169887429
 30
0.0
 10
8.128967743
 20
-28.1747764167
 30
0.0
 10
8.0939076724
 20
-28.1772226826
 30
0.0
 10
8.0585069026
 20
-28.1771766774
 30
0.0
 10
8.023472865
 20
-28.1746393334
 30
0.0
 10
7.9895057702
 20
-28.1696620451
 30
0.0
 10
7.9572805889
 20
-28.1623441272
 30
0.0
 10
7.927441295
 20
-28.1528337678
 30
0.0
 10
7.9088095967
 20
-28.1448469952
 30
0.0
 10
7.9000808956
 20
-28.1404826446
 30
0.0
 11
8.2527062686
 21
-28.1409442322
 31
0.0
 11
8.2257226364
 21
-28.1525174014
 31
0.0
 11
8.1957286687
 21
-28.1620598236
 31
0.0
 11
8.1633309007
 21
-28.1693785328
 31
0.0
 11
8.1291844812
 21
-28.1743255304
 31
0.0
 11
8.0939799272
 21
-28.176800779
 31
0.0
 11
8.058429149
 21
-28.1767542278
 31
0.0
 11
8.0232510484
 21
-28.1741868227
 31
0.0
 11
7.989156988
 21
-28.1691504852
 31
0.0
 11
7.9568364065
 21
-28.1617470621
 31
0.0
 11
7.9269428781
 21
-28.1521262657
 31
0.0
 11
7.9000808956
 21
-28.1404826446
 31
0.0
  0
SPLINE
  5
4AB
100
AcDbEntity
  8
PORTATASTO
100
AcDbSpline
 62
253
  6
CONTINUOUS
 70
0
 71
3
 72
18
 73
14
 74
12
 42
0.0000001
 43
0.0000001
 44
0.0000000001
 12
0.3246495851
 22
-0.1623247962
 32
0.0
 13
0.3253245715
 23
0.1609677474
 33
0.0
 40
0.0
 40
0.0
 40
0.0
 40
0.0
 40
0.0806595925
 40
0.1671780649
 40
0.2585292238
 40
0.3534795041
 40
0.4506548502
 40
0.5485992532
 40
0.6458291495
 40
0.7408865332
 40
0.8323932784
 40
0.9191094963
 40
1.0
 40
1.0
 40
1.0
 40
1.0
 10
-5.4465595992
 20
18.505646823
 30
0.0
 10
-5.4378308982
 20
18.5012824724
 30
0.0
 10
-5.4191991999
 20
18.4932956998
 30
0.0
 10
-5.3893599061
 20
18.4837853404
 30
0.0
 10
-5.3571347248
 20
18.4764674225
 30
0.0
 10
-5.32316763
 20
18.4714901342
 30
0.0
 10
-5.2881335924
 20
18.4689527902
 30
0.0
 10
-5.2527328226
 20
18.468906785
 30
0.0
 10
-5.217672752
 20
18.4713530508
 30
0.0
 10
-5.1836541612
 20
18.4762420386
 30
0.0
 10
-5.1513531734
 20
18.4834761732
 30
0.0
 10
-5.1214153884
 20
18.492908922
 30
0.0
 10
-5.1027061157
 20
18.5008449814
 30
0.0
 10
-5.0939342263
 20
18.5051852354
 30
0.0
 11
-5.4465595992
 21
18.505646823
 31
0.0
 11
-5.4196976168
 21
18.4940032019
 31
0.0
 11
-5.3898040885
 21
18.4843824055
 31
0.0
 11
-5.357483507
 21
18.4769789824
 31
0.0
 11
-5.3233894466
 21
18.4719426449
 31
0.0
 11
-5.2882113461
 21
18.4693752398
 31
0.0
 11
-5.2526605679
 21
18.4693286886
 31
0.0
 11
-5.2174560139
 21
18.4718039372
 31
0.0
 11
-5.1833095943
 21
18.4767509347
 31
0.0
 11
-5.1509118263
 21
18.484069644
 31
0.0
 11
-5.1209178585
 21
18.4936120662
 31
0.0
 11
-5.0939342263
 21
18.5051852354
 31
0.0
  0
SPLINE
  5
4AC
100
AcDbEntity
  8
PORTATASTO
100
AcDbSpline
 62
253
  6
CONTINUOUS
 70
0
 71
3
 72
18
 73
14
 74
12
 42
0.0000001
 43
0.0000001
 44
0.0000000001
 12
0.3246495851
 22
-0.1623247962
 32
0.0
 13
0.3253245715
 23
0.1609677474
 33
0.0
 40
0.0
 40
0.0
 40
0.0
 40
0.0
 40
0.0806595925
 40
0.1671780649
 40
0.2585292238
 40
0.3534795041
 40
0.4506548502
 40
0.5485992532
 40
0.6458291495
 40
0.7408865332
 40
0.8323932784
 40
0.9191094963
 40
1.0
 40
1.0
 40
1.0
 40
1.0
 10
7.9000808956
 20
11.8323265756
 30
0.0
 10
7.9088095967
 20
11.8279622249
 30
0.0
 10
7.927441295
 20
11.8199754524
 30
0.0
 10
7.9572805888
 20
11.810465093
 30
0.0
 10
7.9895057701
 20
11.8031471751
 30
0.0
 10
8.0234728649
 20
11.7981698867
 30
0.0
 10
8.0585069025
 20
11.7956325428
 30
0.0
 10
8.0939076722
 20
11.7955865375
 30
0.0
 10
8.1289677429
 20
11.7980328034
 30
0.0
 10
8.1629863337
 20
11.8029217911
 30
0.0
 10
8.1952873215
 20
11.8101559258
 30
0.0
 10
8.2252251065
 20
11.8195886745
 30
0.0
 10
8.2439343791
 20
11.8275247339
 30
0.0
 10
8.2527062686
 20
11.831864988
 30
0.0
 11
7.9000808956
 21
11.8323265756
 31
0.0
 11
7.9269428781
 21
11.8206829545
 31
0.0
 11
7.9568364064
 21
11.811062158
 31
0.0
 11
7.9891569879
 21
11.803658735
 31
0.0
 11
8.0232510483
 21
11.7986223975
 31
0.0
 11
8.0584291488
 21
11.7960549924
 31
0.0
 11
8.093979927
 21
11.7960084412
 31
0.0
 11
8.129184481
 21
11.7984836897
 31
0.0
 11
8.1633309006
 21
11.8034306873
 31
0.0
 11
8.1957286686
 21
11.8107493965
 31
0.0
 11
8.2257226364
 21
11.8202918188
 31
0.0
 11
8.2527062686
 21
11.831864988
 31
0.0
  0
SPLINE
  5
4AD
100
AcDbEntity
  8
PORTATASTO
100
AcDbSpline
 62
253
  6
CONTINUOUS
 70
0
 71
3
 72
18
 73
14
 74
12
 42
0.0000001
 43
0.0000001
 44
0.0000000001
 12
0.316712193
 22
-0.160487659
 32
0.0
 13
0.1868711975
 23
-0.3018974287
 33
0.0
 40
0.0
 40
0.0
 40
0.0
 40
0.0
 40
0.083132314
 40
0.173059602
 40
0.268176759
 40
0.3667389532
 40
0.4669124929
 40
0.5668230063
 40
0.6646027168
 40
0.7584378387
 40
0.8466172898
 40
0.9275849004
 40
1.0
 40
1.0
 40
1.0
 40
1.0
 10
7.8107669404
 20
-28.3717140146
 30
0.0
 10
7.8195432796
 20
-28.3761612514
 30
0.0
 10
7.8375118754
 20
-28.3860198168
 30
0.0
 10
7.8645143992
 20
-28.4027214256
 30
0.0
 10
7.8922318014
 20
-28.4216713997
 30
0.0
 10
7.9201023487
 20
-28.4424893831
 30
0.0
 10
7.947562917
 20
-28.4647569155
 30
0.0
 10
7.9740583979
 20
-28.4880244196
 30
0.0
 10
7.9990542625
 20
-28.511821462
 30
0.0
 10
8.0220473688
 20
-28.5356661514
 30
0.0
 10
8.0425784448
 20
-28.5590767111
 30
0.0
 10
8.0602381825
 20
-28.581578047
 30
0.0
 10
8.0704931988
 20
-28.5965824645
 30
0.0
 10
8.0750039643
 20
-28.6038697753
 30
0.0
 11
7.8107669404
 21
-28.3717140146
 31
0.0
 11
7.8366809806
 21
-28.3858448646
 31
0.0
 11
7.863862588
 21
-28.4025965946
 31
0.0
 11
7.8917602702
 21
-28.4216293267
 31
0.0
 11
7.9198080041
 21
-28.4425569031
 31
0.0
 11
7.9474367208
 21
-28.4649547202
 31
0.0
 11
7.9740858504
 21
-28.488368343
 31
0.0
 11
7.9992146956
 21
-28.5123227242
 31
0.0
 11
8.0223133986
 21
-28.5363318385
 31
0.0
 11
8.0429132899
 21
-28.5599085461
 31
0.0
 11
8.0605964055
 21
-28.5825744851
 31
0.0
 11
8.0750039643
 21
-28.6038697753
 31
0.0
  0
SPLINE
  5
4AE
100
AcDbEntity
  8
PORTATASTO
100
AcDbSpline
 62
253
  6
CONTINUOUS
 70
0
 71
3
 72
16
 73
12
 74
10
 42
0.0000001
 43
0.0000001
 44
0.0000000001
 12
0.0000000116
 22
-0.252579449
 32
0.0
 13
-0.1625428153
 23
-0.1933292819
 33
0.0
 40
0.0
 40
0.0
 40
0.0
 40
0.0
 40
0.101180106
 40
0.2073368143
 40
0.3174493626
 40
0.4299455758
 40
0.5439979907
 40
0.6592371244
 40
0.774710542
 40
0.8888335701
 40
1.0
 40
1.0
 40
1.0
 40
1.0
 10
7.900080897
 20
-28.1404838724
 30
0.0
 10
7.9000808974
 20
-28.1490025442
 30
0.0
 10
7.8992326495
 20
-28.1664670725
 30
0.0
 10
7.8956072876
 20
-28.1929771324
 30
0.0
 10
7.8896237327
 20
-28.2200329163
 30
0.0
 10
7.8813766847
 20
-28.2471791545
 30
0.0
 10
7.8709890691
 20
-28.2740425054
 30
0.0
 10
7.8585809735
 20
-28.3003112819
 30
0.0
 10
7.8443124525
 20
-28.3256254148
 30
0.0
 10
7.8284341665
 20
-28.3495500758
 30
0.0
 10
7.8167899828
 20
-28.3645501771
 30
0.0
 10
7.8107668813
 20
-28.3717140858
 30
0.0
 11
7.900080897
 21
-28.1404838724
 31
0.0
 11
7.8988911284
 21
-28.1660121777
 31
0.0
 11
7.8952991868
 21
-28.1925834984
 31
0.0
 11
7.8893241652
 21
-28.2197462622
 31
0.0
 11
7.8810854778
 21
-28.2469398751
 31
0.0
 11
7.870707555
 21
-28.2738128918
 31
0.0
 11
7.8582792814
 21
-28.3001331808
 31
0.0
 11
7.843953503
 21
-28.3255386922
 31
0.0
 11
7.8280021947
 21
-28.3495479398
 31
0.0
 11
7.8107668813
 21
-28.3717140858
 31
0.0
  0
SPLINE
  5
4AF
100
AcDbEntity
  8
PORTATASTO
100
AcDbSpline
 62
253
  6
CONTINUOUS
 70
0
 71
3
 72
13
 73
9
 74
7
 42
0.0000001
 43
0.0000001
 44
0.0000000001
 12
-0.1077836681
 22
0.0538918328
 32
0.0
 13
-0.0000091784
 23
0.1209331518
 33
0.0
 40
0.0
 40
0.0
 40
0.0
 40
0.0
 40
0.2230833764
 40
0.4252713494
 40
0.607154509
 40
0.7714661431
 40
0.9235188667
 40
1.0
 40
1.0
 40
1.0
 40
1.0
 10
6.6616321728
 20
-27.5212582831
 30
0.0
 10
6.6536172579
 20
-27.5172508258
 30
0.0
 10
6.6387272352
 20
-27.5087766683
 30
0.0
 10
6.6192812676
 20
-27.4939127957
 30
0.0
 10
6.6041514646
 20
-27.477730413
 30
0.0
 10
6.5936888558
 20
-27.4604639505
 30
0.0
 10
6.5890871725
 20
-27.4451656841
 30
0.0
 10
6.5884140391
 20
-27.4359529703
 30
0.0
 10
6.5884138051
 20
-27.4328699355
 30
0.0
 11
6.6616321728
 21
-27.5212582831
 31
0.0
 11
6.6383449306
 21
-27.5078272919
 31
0.0
 11
6.6191033377
 21
-27.4928805278
 31
0.0
 11
6.6042964916
 21
-27.476720237
 31
0.0
 11
6.5942238167
 21
-27.4596732068
 31
0.0
 11
6.5890890064
 21
-27.4420841566
 31
0.0
 11
6.5884138051
 21
-27.4328699355
 31
0.0
  0
SPLINE
  5
4B0
100
AcDbEntity
  8
PORTATASTO
100
AcDbSpline
 62
253
  6
CONTINUOUS
 70
0
 71
3
 72
16
 73
12
 74
10
 42
0.0000001
 43
0.0000001
 44
0.0000000001
 12
0.1597134923
 22
0.1956781171
 32
0.0
 13
0.0000000128
 23
0.2525833033
 33
0.0
 40
0.0
 40
0.0
 40
0.0
 40
0.0
 40
0.1108656497
 40
0.2248169704
 40
0.3402306741
 40
0.45549933
 40
0.5696443591
 40
0.6822688082
 40
0.7925150514
 40
0.8987771666
 40
1.0
 40
1.0
 40
1.0
 40
1.0
 10
6.5741693795
 20
-27.7534153251
 30
0.0
 10
6.5800716262
 20
-27.7461839979
 30
0.0
 10
6.591480213
 20
-27.7310542408
 30
0.0
 10
6.6070269239
 20
-27.7069666756
 30
0.0
 10
6.6209974509
 20
-27.6815069192
 30
0.0
 10
6.6331463992
 20
-27.6551121749
 30
0.0
 10
6.6433171019
 20
-27.6281441435
 30
0.0
 10
6.6513919627
 20
-27.6009158483
 30
0.0
 10
6.6572507064
 20
-27.5738020497
 30
0.0
 10
6.6608007333
 20
-27.5472587888
 30
0.0
 10
6.661632171
 20
-27.5297819073
 30
0.0
 10
6.6616321714
 20
-27.5212595081
 30
0.0
 11
6.5741693795
 21
-27.7534153251
 31
0.0
 11
6.5910474521
 21
-27.7310705685
 31
0.0
 11
6.606668134
 21
-27.7068960077
 31
0.0
 11
6.620696983
 21
-27.6813420316
 31
0.0
 11
6.6328676545
 21
-27.6548929416
 31
0.0
 11
6.6430304739
 21
-27.6279123732
 31
0.0
 11
6.6510983966
 21
-27.6006333779
 31
0.0
 11
6.6569495752
 21
-27.5734086926
 31
0.0
 11
6.6604670623
 21
-27.5468001447
 31
0.0
 11
6.6616321714
 21
-27.5212595081
 31
0.0
  0
SPLINE
  5
4B1
100
AcDbEntity
  8
PORTATASTO
100
AcDbSpline
 62
253
  6
CONTINUOUS
 70
0
 71
3
 72
12
 73
8
 74
6
 42
0.0000001
 43
0.0000001
 44
0.0000000001
 12
-0.0992113701
 22
0.049605685
 32
0.0
 13
-0.0168818134
 23
0.1099498751
 33
0.0
 40
0.0
 40
0.0
 40
0.0
 40
0.0
 40
0.2423757394
 40
0.4620472532
 40
0.6596584671
 40
0.8381776496
 40
1.0
 40
1.0
 40
1.0
 40
1.0
 10
-7.388412669
 20
19.5194665767
 30
0.0
 10
-7.3964281454
 20
19.5234743149
 30
0.0
 10
-7.4113191298
 20
19.5319490922
 30
0.0
 10
-7.4307661542
 20
19.5468142451
 30
0.0
 10
-7.4458963652
 20
19.5629981451
 30
0.0
 10
-7.4562932918
 20
19.5801585638
 30
0.0
 10
-7.4599903279
 20
19.5923453037
 30
0.0
 10
-7.4609009462
 20
19.5982760861
 30
0.0
 11
-7.388412669
 21
19.5194665767
 31
0.0
 11
-7.4117014811
 21
19.5328986158
 31
0.0
 11
-7.4309440165
 21
19.5478466283
 31
0.0
 11
-7.4457512309
 21
19.5640084697
 31
0.0
 11
-7.455823421
 21
19.5810571138
 31
0.0
 11
-7.4609009462
 21
19.5982760861
 31
0.0
  0
SPLINE
  5
4B2
100
AcDbEntity
  8
PORTATASTO
100
AcDbSpline
 62
253
  6
CONTINUOUS
 70
0
 71
3
 72
14
 73
10
 74
8
 42
0.0000001
 43
0.0000001
 44
0.0000000001
 12
0.0
 22
-0.1577570491
 32
0.0
 13
0.1413701496
 23
-0.0707269237
 33
0.0
 40
0.0
 40
0.0
 40
0.0
 40
0.0
 40
0.1743677075
 40
0.3386590498
 40
0.4925403877
 40
0.6365867691
 40
0.7723296719
 40
0.9021624116
 40
1.0
 40
1.0
 40
1.0
 40
1.0
 10
-6.1573688147
 20
18.9039446496
 30
0.0
 10
-6.1573688147
 20
18.8947754046
 30
0.0
 10
-6.1564480984
 20
18.876946874
 30
0.0
 10
-6.1520366694
 20
18.8513568189
 30
0.0
 10
-6.1446841026
 20
18.8280998248
 30
0.0
 10
-6.1344848111
 20
18.8075862342
 30
0.0
 10
-6.1215745351
 20
18.7901863837
 30
0.0
 10
-6.1072907551
 20
18.777285328
 30
0.0
 10
-6.0970079165
 20
18.7710344275
 30
0.0
 10
-6.0923974783
 20
18.7687278436
 30
0.0
 11
-6.1573688147
 21
18.9039446496
 31
0.0
 11
-6.1558606898
 21
18.8764782875
 31
0.0
 11
-6.151353788
 21
18.8509550306
 31
0.0
 11
-6.1439226972
 21
18.8278445017
 31
0.0
 11
-6.1336963134
 21
18.8075512431
 31
0.0
 11
-6.1208479861
 21
18.7904194889
 31
0.0
 11
-6.10559926
 21
18.7767450639
 31
0.0
 11
-6.0923974783
 21
18.7687278436
 31
0.0
  0
SPLINE
  5
4B3
100
AcDbEntity
  8
PORTATASTO
100
AcDbSpline
 62
253
  6
CONTINUOUS
 70
0
 71
3
 72
18
 73
14
 74
12
 42
0.0000001
 43
0.0000001
 44
0.0000000001
 12
-0.3253245695
 22
-0.1609677464
 32
0.0
 13
-0.3246495845
 23
0.1623247923
 33
0.0
 40
0.0
 40
0.0
 40
0.0
 40
0.0
 40
0.0808903938
 40
0.1676064876
 40
0.2591130993
 40
0.3541703561
 40
0.4514001688
 40
0.549344556
 40
0.6465199513
 40
0.7414703353
 40
0.8328216347
 40
0.9193402632
 40
1.0
 40
1.0
 40
1.0
 40
1.0
 10
-5.8047434437
 20
18.903483063
 30
0.0
 10
-5.8135153212
 20
18.8991428149
 30
0.0
 10
-5.8322245669
 20
18.8912067652
 30
0.0
 10
-5.8621623075
 20
18.8817740244
 30
0.0
 10
-5.8944632476
 20
18.8745398912
 30
0.0
 10
-5.9284817952
 20
18.8696508977
 30
0.0
 10
-5.9635418373
 20
18.8672046198
 30
0.0
 10
-5.9989426008
 20
18.86725061
 30
0.0
 10
-6.0339766558
 20
18.8697879403
 30
0.0
 10
-6.0679437876
 20
18.8747652204
 30
0.0
 10
-6.1001690184
 20
18.8820831381
 30
0.0
 10
-6.1300083654
 20
18.8915935064
 30
0.0
 10
-6.148640098
 20
18.8995802912
 30
0.0
 10
-6.1573688147
 20
18.9039446496
 30
0.0
 11
-5.8047434437
 21
18.903483063
 31
0.0
 11
-5.8317270383
 21
18.8919099077
 31
0.0
 11
-5.8617209613
 21
18.8823674938
 31
0.0
 11
-5.8941186799
 21
18.8750487866
 31
0.0
 11
-5.928265052
 21
18.8701017839
 31
0.0
 11
-5.9634695745
 21
18.8676265234
 31
0.0
 11
-5.9990203468
 21
18.8676730593
 31
0.0
 11
-6.034198466
 21
18.8702404508
 31
0.0
 11
-6.0682925654
 21
18.8752767802
 31
0.0
 11
-6.1006131989
 21
18.8826802037
 31
0.0
 11
-6.1305067833
 21
18.8923010104
 31
0.0
 11
-6.1573688147
 21
18.9039446496
 31
0.0
  0
SPLINE
  5
4B4
100
AcDbEntity
  8
PORTATASTO
100
AcDbSpline
 62
253
  6
CONTINUOUS
 70
0
 71
3
 72
12
 73
8
 74
6
 42
0.0000001
 43
0.0000001
 44
0.0000000001
 12
-0.0992113701
 22
0.049605685
 32
0.0
 13
-0.0168818134
 23
0.1099498751
 33
0.0
 40
0.0
 40
0.0
 40
0.0
 40
0.0
 40
0.2423757394
 40
0.4620472532
 40
0.6596584671
 40
0.8381776496
 40
1.0
 40
1.0
 40
1.0
 40
1.0
 10
5.9582278259
 20
12.8461463293
 30
0.0
 10
5.9502123495
 20
12.8501540675
 30
0.0
 10
5.9353213651
 20
12.8586288448
 30
0.0
 10
5.9158743407
 20
12.8734939977
 30
0.0
 10
5.9007441297
 20
12.8896778976
 30
0.0
 10
5.8903472031
 20
12.9068383163
 30
0.0
 10
5.886650167
 20
12.9190250563
 30
0.0
 10
5.8857395487
 20
12.9249558387
 30
0.0
 11
5.9582278259
 21
12.8461463293
 31
0.0
 11
5.9349390138
 21
12.8595783684
 31
0.0
 11
5.9156964784
 21
12.8745263808
 31
0.0
 11
5.900889264
 21
12.8906882223
 31
0.0
 11
5.8908170739
 21
12.9077368663
 31
0.0
 11
5.8857395487
 21
12.9249558387
 31
0.0
  0
SPLINE
  5
4B5
100
AcDbEntity
  8
PORTATASTO
100
AcDbSpline
 62
253
  6
CONTINUOUS
 70
0
 71
3
 72
14
 73
10
 74
8
 42
0.0000001
 43
0.0000001
 44
0.0000000001
 12
0.0
 22
-0.1577570491
 32
0.0
 13
0.1413701496
 23
-0.0707269237
 33
0.0
 40
0.0
 40
0.0
 40
0.0
 40
0.0
 40
0.1743677075
 40
0.3386590498
 40
0.4925403877
 40
0.6365867691
 40
0.7723296719
 40
0.9021624116
 40
1.0
 40
1.0
 40
1.0
 40
1.0
 10
7.1892716802
 20
12.2306244021
 30
0.0
 10
7.1892716802
 20
12.2214551571
 30
0.0
 10
7.1901923965
 20
12.2036266265
 30
0.0
 10
7.1946038255
 20
12.1780365714
 30
0.0
 10
7.2019563923
 20
12.1547795773
 30
0.0
 10
7.2121556838
 20
12.1342659868
 30
0.0
 10
7.2250659598
 20
12.1168661363
 30
0.0
 10
7.2393497398
 20
12.1039650805
 30
0.0
 10
7.2496325784
 20
12.09771418
 30
0.0
 10
7.2542430166
 20
12.0954075961
 30
0.0
 11
7.1892716802
 21
12.2306244021
 31
0.0
 11
7.1907798051
 21
12.2031580401
 31
0.0
 11
7.1952867069
 21
12.1776347832
 31
0.0
 11
7.2027177977
 21
12.1545242542
 31
0.0
 11
7.2129441815
 21
12.1342309957
 31
0.0
 11
7.2257925088
 21
12.1170992414
 31
0.0
 11
7.2410412349
 21
12.1034248164
 31
0.0
 11
7.2542430166
 21
12.0954075961
 31
0.0
  0
SPLINE
  5
4B6
100
AcDbEntity
  8
PORTATASTO
100
AcDbSpline
 62
253
  6
CONTINUOUS
 70
0
 71
3
 72
18
 73
14
 74
12
 42
0.0000001
 43
0.0000001
 44
0.0000000001
 12
-0.3253245695
 22
-0.1609677464
 32
0.0
 13
-0.3246495845
 23
0.1623247923
 33
0.0
 40
0.0
 40
0.0
 40
0.0
 40
0.0
 40
0.0808903938
 40
0.1676064876
 40
0.2591130993
 40
0.3541703561
 40
0.4514001688
 40
0.549344556
 40
0.6465199513
 40
0.7414703353
 40
0.8328216347
 40
0.9193402632
 40
1.0
 40
1.0
 40
1.0
 40
1.0
 10
7.5418970512
 20
12.2301628155
 30
0.0
 10
7.5331251737
 20
12.2258225674
 30
0.0
 10
7.514415928
 20
12.2178865177
 30
0.0
 10
7.4844781874
 20
12.2084537769
 30
0.0
 10
7.4521772473
 20
12.2012196438
 30
0.0
 10
7.4181586997
 20
12.1963306503
 30
0.0
 10
7.3830986576
 20
12.1938843724
 30
0.0
 10
7.3476978941
 20
12.1939303626
 30
0.0
 10
7.3126638391
 20
12.1964676928
 30
0.0
 10
7.2786967073
 20
12.2014449729
 30
0.0
 10
7.2464714764
 20
12.2087628906
 30
0.0
 10
7.2166321295
 20
12.2182732589
 30
0.0
 10
7.1980003969
 20
12.2262600438
 30
0.0
 10
7.1892716802
 20
12.2306244021
 30
0.0
 11
7.5418970512
 21
12.2301628155
 31
0.0
 11
7.5149134566
 21
12.2185896603
 31
0.0
 11
7.4849195336
 21
12.2090472464
 31
0.0
 11
7.452521815
 21
12.2017285391
 31
0.0
 11
7.4183754429
 21
12.1967815365
 31
0.0
 11
7.3831709204
 21
12.1943062759
 31
0.0
 11
7.3476201481
 21
12.1943528119
 31
0.0
 11
7.3124420289
 21
12.1969202033
 31
0.0
 11
7.2783479295
 21
12.2019565327
 31
0.0
 11
7.246027296
 21
12.2093599563
 31
0.0
 11
7.2161337116
 21
12.2189807629
 31
0.0
 11
7.1892716802
 21
12.2306244021
 31
0.0
  0
SPLINE
  5
4B7
100
AcDbEntity
  8
PORTATASTO
100
AcDbSpline
 62
253
  6
CONTINUOUS
 70
0
 71
3
 72
18
 73
14
 74
12
 42
0.0000001
 43
0.0000001
 44
0.0000000001
 12
0.3246495895
 22
-0.1623247947
 32
0.0
 13
0.3253245745
 23
0.1609677488
 33
0.0
 40
0.0
 40
0.0
 40
0.0
 40
0.0
 40
0.0806657498
 40
0.1671911665
 40
0.2585507668
 40
0.3535097457
 40
0.4506936522
 40
0.5486460981
 40
0.6458825274
 40
0.7409452832
 40
0.8324506587
 40
0.9191646002
 40
1.0
 40
1.0
 40
1.0
 40
1.0
 10
7.1892716802
 20
-29.242184818
 30
0.0
 10
7.1980010477
 20
-29.2465495018
 30
0.0
 10
7.2166342471
 20
-29.2545368206
 30
0.0
 10
7.2464761304
 20
-29.2640476645
 30
0.0
 10
7.278704276
 20
-29.271365726
 30
0.0
 10
7.3126745576
 20
-29.2763427645
 30
0.0
 10
7.3477117206
 20
-29.278879433
 30
0.0
 10
7.3831152986
 20
-29.2789243464
 30
0.0
 10
7.4181776938
 20
-29.2764766167
 30
0.0
 10
7.4521973405
 20
-29.2715859448
 30
0.0
 10
7.4844981623
 20
-29.2643501074
 30
0.0
 10
7.5144286316
 20
-29.2549177497
 30
0.0
 10
7.5331311372
 20
-29.246983702
 30
0.0
 10
7.5418970512
 20
-29.2426464046
 30
0.0
 11
7.1892716802
 21
-29.242184818
 31
0.0
 11
7.2161357584
 21
-29.2538292241
 31
0.0
 11
7.2460317833
 21
-29.2634504917
 31
0.0
 11
7.2783554662
 21
-29.270854099
 31
0.0
 11
7.3124527543
 21
-29.275890194
 31
0.0
 11
7.3476340201
 21
-29.2784569207
 31
0.0
 11
7.3831877194
 21
-29.2785023673
 31
0.0
 11
7.4183945468
 21
-29.2760256387
 31
0.0
 11
7.4525426753
 21
-29.2710768354
 31
0.0
 11
7.4849395792
 21
-29.2637565559
 31
0.0
 11
7.5149321967
 21
-29.2542126142
 31
0.0
 11
7.5418970512
 21
-29.2426464046
 31
0.0
  0
SPLINE
  5
4B8
100
AcDbEntity
  8
PORTATASTO
100
AcDbSpline
 62
253
  6
CONTINUOUS
 70
0
 71
3
 72
15
 73
11
 74
9
 42
0.0000001
 43
0.0000001
 44
0.0000000001
 12
-0.1611233065
 22
-0.1944930359
 32
0.0
 13
-0.0
 23
-0.25256338
 33
0.0
 40
0.0
 40
0.0
 40
0.0
 40
0.0
 40
0.1257835055
 40
0.2541455604
 40
0.383608301
 40
0.5127437268
 40
0.6402030735
 40
0.7646613352
 40
0.8849330394
 40
1.0
 40
1.0
 40
1.0
 40
1.0
 10
7.2776600278
 20
-29.0104906442
 30
0.0
 10
7.2709044764
 20
-29.0186453161
 30
0.0
 10
7.257972
 20
-29.0357284795
 30
0.0
 10
7.2406483823
 20
-29.0630237659
 30
0.0
 10
7.2254377977
 20
-29.0918719372
 30
0.0
 10
7.2126075088
 20
-29.1217715643
 30
0.0
 10
7.2023756967
 20
-29.1522142759
 30
0.0
 10
7.1949155858
 20
-29.1826880182
 30
0.0
 10
7.1903541182
 20
-29.212673788
 30
0.0
 10
7.1892716802
 20
-29.2324975845
 30
0.0
 10
7.1892716802
 20
-29.242184818
 30
0.0
 11
7.2776600278
 21
-29.0104906442
 31
0.0
 11
7.2584597046
 21
-29.0358001866
 31
0.0
 11
7.2410720585
 21
-29.0631625197
 31
0.0
 11
7.2258185907
 21
-29.0920841608
 31
0.0
 11
7.2129666157
 21
-29.122060103
 31
0.0
 11
7.2027341247
 21
-29.1525821095
 31
0.0
 11
7.1952978901
 21
-29.1831234516
 31
0.0
 11
7.1907846787
 21
-29.2131625288
 31
0.0
 11
7.1892716802
 21
-29.242184818
 31
0.0
  0
SPLINE
  5
4B9
100
AcDbEntity
  8
PORTATASTO
100
AcDbSpline
 62
253
  6
CONTINUOUS
 70
0
 71
3
 72
18
 73
14
 74
12
 42
0.0000001
 43
0.0000001
 44
0.0000000001
 12
-0.1868711972
 22
0.3018974282
 32
0.0
 13
-0.3167121923
 23
0.1604876591
 33
0.0
 40
0.0
 40
0.0
 40
0.0
 40
0.0
 40
0.0724149993
 40
0.1533824891
 40
0.2415618042
 40
0.3353967931
 40
0.433176412
 40
0.5330869019
 40
0.6332604865
 40
0.7318227842
 40
0.826940085
 40
0.916867534
 40
1.0
 40
1.0
 40
1.0
 40
1.0
 10
7.5418970512
 20
-29.2426464046
 30
0.0
 10
7.537386292
 20
-29.2353591039
 30
0.0
 10
7.5271312914
 20
-29.2203547075
 30
0.0
 10
7.5094715826
 20
-29.1978534028
 30
0.0
 10
7.488940541
 20
-29.1744428743
 30
0.0
 10
7.4659474693
 20
-29.150598211
 30
0.0
 10
7.4409516314
 20
-29.1268011832
 30
0.0
 10
7.4144561622
 20
-29.1035336784
 30
0.0
 10
7.3869955876
 20
-29.0812661305
 30
0.0
 10
7.3591250171
 20
-29.0604481205
 30
0.0
 10
7.3314075783
 20
-29.0414981141
 30
0.0
 10
7.3044050108
 20
-29.0247964734
 30
0.0
 10
7.286436383
 20
-29.0149378892
 30
0.0
 10
7.2776600278
 20
-29.0104906442
 30
0.0
 11
7.5418970512
 21
-29.2426464046
 31
0.0
 11
7.5274895134
 21
-29.2213511433
 31
0.0
 11
7.5098064269
 21
-29.198685236
 31
0.0
 11
7.4892065713
 21
-29.1751085613
 31
0.0
 11
7.4661079061
 21
-29.1510994764
 31
0.0
 11
7.4409790899
 21
-29.1271451119
 31
0.0
 11
7.4143299721
 21
-29.1037314884
 31
0.0
 11
7.3867012483
 21
-29.0813336548
 31
0.0
 11
7.3586534894
 21
-29.0604060506
 31
0.0
 11
7.3307557685
 21
-29.0413732847
 31
0.0
 11
7.3035741146
 21
-29.0246215214
 31
0.0
 11
7.2776600278
 21
-29.0104906442
 31
0.0
  0
SPLINE
  5
4BA
100
AcDbEntity
  8
PORTATASTO
100
AcDbSpline
 62
253
  6
CONTINUOUS
 70
0
 71
3
 72
14
 73
10
 74
8
 42
0.0000001
 43
0.0000001
 44
0.0000000001
 12
-0.0998733478
 22
0.0492697566
 32
0.0
 13
-0.0705668541
 23
-0.0870017096
 33
0.0
 40
0.0
 40
0.0
 40
0.0
 40
0.0
 40
0.2396248673
 40
0.4496625656
 40
0.6277346553
 40
0.7733437012
 40
0.889285077
 40
0.9844562811
 40
1.0
 40
1.0
 40
1.0
 40
1.0
 10
6.0466161735
 20
-28.3949687171
 30
0.0
 10
6.0386387943
 20
-28.3910332974
 30
0.0
 10
6.0234405527
 20
-28.3840918978
 30
0.0
 10
6.001515618
 20
-28.3761109069
 30
0.0
 10
5.982239542
 20
-28.3713135907
 30
0.0
 10
5.9659055781
 20
-28.3697923426
 30
0.0
 10
5.9526053128
 20
-28.3716036293
 30
0.0
 10
5.9450203241
 20
-28.3759515229
 30
0.0
 10
5.9422789672
 20
-28.3790436555
 30
0.0
 10
5.9419133434
 20
-28.3794944322
 30
0.0
 11
6.0466161735
 21
-28.3949687171
 31
0.0
 11
6.0222965066
 21
-28.3839828733
 31
0.0
 11
6.0002639484
 21
-28.3761279677
 31
0.0
 11
5.9809654024
 21
-28.3715633641
 31
0.0
 11
5.9647927359
 21
-28.370381791
 31
0.0
 11
5.952074138
 21
-28.3726072256
 31
0.0
 11
5.9430677025
 21
-28.3781945073
 31
0.0
 11
5.9419133434
 21
-28.3794944322
 31
0.0
  0
SPLINE
  5
4BB
100
AcDbEntity
  8
PORTATASTO
100
AcDbSpline
 62
253
  6
CONTINUOUS
 70
0
 71
3
 72
15
 73
11
 74
9
 42
0.0000001
 43
0.0000001
 44
0.0000000001
 12
0.0
 22
0.2525633905
 32
0.0
 13
0.1611233132
 23
0.194493044
 33
0.0
 40
0.0
 40
0.0
 40
0.0
 40
0.0
 40
0.1148769399
 40
0.235110009
 40
0.3595645174
 40
0.4870072986
 40
0.6161520925
 40
0.7456113596
 40
0.8740085492
 40
1.0
 40
1.0
 40
1.0
 40
1.0
 10
5.9582278259
 20
-28.6266628909
 30
0.0
 10
5.9582278259
 20
-28.6169916544
 30
0.0
 10
5.9593074379
 20
-28.5971871551
 30
0.0
 10
5.9638611161
 20
-28.5672200039
 30
0.0
 10
5.9713151712
 20
-28.5367498871
 30
0.0
 10
5.9815419451
 20
-28.5063064579
 30
0.0
 10
5.9943673415
 20
-28.4764056985
 30
0.0
 10
6.0095752397
 20
-28.4475522024
 30
0.0
 10
6.0269057754
 20
-28.4202373897
 30
0.0
 10
6.0398494535
 20
-28.4031368707
 30
0.0
 10
6.0466161735
 20
-28.3949687171
 30
0.0
 11
5.9582278259
 21
-28.6266628909
 31
0.0
 11
5.9597359508
 21
-28.5976884039
 31
0.0
 11
5.9642428526
 21
-28.5676582452
 31
0.0
 11
5.9716739435
 21
-28.5371166254
 31
0.0
 11
5.9819003272
 21
-28.5065969831
 31
0.0
 11
5.9947486545
 21
-28.4766169016
 31
0.0
 11
6.0099973806
 21
-28.4476937504
 31
0.0
 11
6.0273858612
 21
-28.4203214325
 31
0.0
 11
6.0466161735
 21
-28.3949687171
 31
0.0
  0
SPLINE
  5
4BC
100
AcDbEntity
  8
PORTATASTO
100
AcDbSpline
 62
253
  6
CONTINUOUS
 70
0
 71
3
 72
18
 73
14
 74
12
 42
0.0000001
 43
0.0000001
 44
0.0000000001
 12
-0.0015838354
 22
0.3677667756
 32
0.0
 13
-0.3282452006
 23
0.1658613822
 33
0.0
 40
0.0
 40
0.0
 40
0.0
 40
0.0
 40
0.0862298917
 40
0.1766966374
 40
0.2704573358
 40
0.3664103845
 40
0.4633549994
 40
0.5600473248
 40
0.6552540094
 40
0.7478094658
 40
0.836663259
 40
0.9209608649
 40
1.0
 40
1.0
 40
1.0
 40
1.0
 10
-5.8047434437
 20
19.1534542723
 30
0.0
 10
-5.8047889684
 20
19.1640251021
 30
0.0
 10
-5.8061686299
 20
19.1856943214
 30
0.0
 10
-5.8116908697
 20
19.2184375815
 30
0.0
 10
-5.8206083018
 20
19.2516586163
 30
0.0
 10
-5.8327412156
 20
19.2846872633
 30
0.0
 10
-5.8478459163
 20
19.3168633008
 30
0.0
 10
-5.8656190295
 20
19.347540402
 30
0.0
 10
-5.8857043458
 20
19.3761033203
 30
0.0
 10
-5.907699227
 20
19.401978831
 30
0.0
 10
-5.9311684224
 20
19.424650628
 30
0.0
 10
-5.9556319983
 20
19.4436544903
 30
0.0
 10
-5.9728696436
 20
19.4539749448
 30
0.0
 10
-5.9815177158
 20
19.4583447915
 30
0.0
 11
-5.8047434437
 21
19.1534542723
 31
0.0
 11
-5.8066661944
 21
19.1851087137
 31
0.0
 11
-5.8121304669
 21
19.2179279046
 31
0.0
 11
-5.8210249823
 21
19.2512434082
 31
0.0
 11
-5.8331686028
 21
19.2843768166
 31
0.0
 11
-5.8483140001
 21
19.3166533953
 31
0.0
 11
-5.8661527279
 21
19.3474159184
 31
0.0
 11
-5.8863214036
 21
19.3760378912
 31
0.0
 11
-5.908409741
 21
19.4019370848
 31
0.0
 11
-5.9319664916
 21
19.4245847459
 31
0.0
 11
-5.9565131995
 21
19.4435212767
 31
0.0
 11
-5.9815177158
 21
19.4583447915
 31
0.0
  0
SPLINE
  5
4BD
100
AcDbEntity
  8
PORTATASTO
100
AcDbSpline
 62
253
  6
CONTINUOUS
 70
0
 71
3
 72
18
 73
14
 74
12
 42
0.0000001
 43
0.0000001
 44
0.0000000001
 12
0.3246495934
 22
-0.1623247967
 32
0.0
 13
0.3253245784
 23
0.1609677508
 33
0.0
 40
0.0
 40
0.0
 40
0.0
 40
0.0
 40
0.0805600317
 40
0.1670785676
 40
0.2584318395
 40
0.353391101
 40
0.4505764045
 40
0.5485331093
 40
0.645776605
 40
0.7408481865
 40
0.8323689073
 40
0.9190982169
 40
1.0
 40
1.0
 40
1.0
 40
1.0
 10
-6.1573688147
 20
19.1539158589
 30
0.0
 10
-6.1486508875
 20
19.1495568953
 30
0.0
 10
-6.1300309415
 20
19.1415735969
 30
0.0
 10
-6.1002038289
 20
19.1320637214
 30
0.0
 10
-6.0679779633
 20
19.124742691
 30
0.0
 10
-6.0340086963
 20
19.1197625386
 30
0.0
 10
-5.9989710336
 20
19.1172227623
 30
0.0
 10
-5.9635659157
 20
19.1171749022
 30
0.0
 10
-5.9285008863
 20
19.1196199665
 30
0.0
 10
-5.8944771043
 20
19.1245084464
 30
0.0
 10
-5.8621710276
 20
19.1317427677
 30
0.0
 10
-5.8322286235
 20
19.1411763446
 30
0.0
 10
-5.8135165566
 20
19.149113413
 30
0.0
 10
-5.8047434437
 20
19.1534542723
 30
0.0
 11
-6.1573688147
 21
19.1539158589
 31
0.0
 11
-6.1305407144
 21
19.1422849348
 31
0.0
 11
-6.1006481759
 21
19.1326609859
 31
0.0
 11
-6.0683275007
 21
19.1252545345
 31
0.0
 11
-6.034230589
 21
19.1202151872
 31
0.0
 11
-5.9990490429
 21
19.11764533
 31
0.0
 11
-5.9634938013
 21
19.1175969017
 31
0.0
 11
-5.9282842133
 21
19.1200709429
 31
0.0
 11
-5.8941325143
 21
19.1250174461
 31
0.0
 11
-5.8617295936
 21
19.1323363704
 31
0.0
 11
-5.8317309203
 21
19.1418796784
 31
0.0
 11
-5.8047434437
 21
19.1534542723
 31
0.0
  0
SPLINE
  5
4BE
100
AcDbEntity
  8
PORTATASTO
100
AcDbSpline
 62
253
  6
CONTINUOUS
 70
0
 71
3
 72
18
 73
14
 74
12
 42
0.0000001
 43
0.0000001
 44
0.0000000001
 12
-0.3274336833
 22
-0.1658166109
 32
0.0
 13
0.0
 23
-0.3670258376
 33
0.0
 40
0.0
 40
0.0
 40
0.0
 40
0.0
 40
0.079422804
 40
0.1638981722
 40
0.2528307501
 40
0.3453754709
 40
0.4405064244
 40
0.537077953
 40
0.633880772
 40
0.7296955712
 40
0.8233462304
 40
0.9137547197
 40
1.0
 40
1.0
 40
1.0
 40
1.0
 10
-5.9815177158
 20
19.4583447915
 30
0.0
 10
-5.9901862829
 20
19.4539549181
 30
0.0
 10
-6.007441999
 20
19.4436102704
 30
0.0
 10
-6.0319101822
 20
19.4245866643
 30
0.0
 10
-6.0553424846
 20
19.4019280712
 30
0.0
 10
-6.0772724577
 20
19.3760883514
 30
0.0
 10
-6.0972691107
 20
19.3475799767
 30
0.0
 10
-6.1149347077
 20
19.3169708604
 30
0.0
 10
-6.1299176164
 20
19.2848708445
 30
0.0
 10
-6.1419190532
 20
19.251920211
 30
0.0
 10
-6.1506995929
 20
19.218773012
 30
0.0
 10
-6.1560834271
 20
19.1860932951
 30
0.0
 10
-6.1573688147
 20
19.1644672743
 30
0.0
 10
-6.1573688147
 20
19.1539158589
 30
0.0
 11
-5.9815177158
 21
19.4583447915
 31
0.0
 11
-6.0065826684
 21
19.4434624682
 31
0.0
 11
-6.0311220438
 21
19.4245123513
 31
0.0
 11
-6.0546396103
 21
19.4018776474
 31
0.0
 11
-6.076659799
 21
19.3760160721
 31
0.0
 11
-6.0967373208
 21
19.3474505946
 31
0.0
 11
-6.114466171
 21
19.3167588619
 31
0.0
 11
-6.1294878392
 21
19.2845615177
 31
0.0
 11
-6.1414985594
 21
19.2515096523
 31
0.0
 11
-6.1502554527
 21
19.2182716356
 31
0.0
 11
-6.1555814382
 21
19.1855196022
 31
0.0
 11
-6.1573688147
 21
19.1539158589
 31
0.0
  0
SPLINE
  5
4BF
100
AcDbEntity
  8
PORTATASTO
100
AcDbSpline
 62
253
  6
CONTINUOUS
 70
0
 71
3
 72
12
 73
8
 74
6
 42
0.0000001
 43
0.0000001
 44
0.0000000001
 12
0.0
 22
0.1580720269
 32
0.0
 13
0.0689400312
 23
0.142302146
 33
0.0
 40
0.0
 40
0.0
 40
0.0
 40
0.0
 40
0.2002807734
 40
0.410231436
 40
0.627711274
 40
0.8502158163
 40
1.0
 40
1.0
 40
1.0
 40
1.0
 10
-7.388412669
 20
19.769437786
 30
0.0
 10
-7.388412669
 20
19.7799907153
 30
0.0
 10
-7.3871269075
 20
19.8016199467
 30
0.0
 10
-7.3817415554
 20
19.8343044622
 30
0.0
 10
-7.3729585756
 20
19.8674564076
 30
0.0
 10
-7.3623084936
 20
19.8966927933
 30
0.0
 10
-7.3542662102
 20
19.9146003213
 30
0.0
 10
-7.3508241681
 20
19.9217051915
 30
0.0
 11
-7.388412669
 21
19.769437786
 31
0.0
 11
-7.3866247928
 21
19.8010460499
 31
0.0
 11
-7.3812972971
 21
19.8338029797
 31
0.0
 11
-7.3725379586
 21
19.867045799
 31
0.0
 11
-7.3605239834
 21
19.9001020537
 31
0.0
 11
-7.3508241681
 21
19.9217051915
 31
0.0
  0
SPLINE
  5
4C0
100
AcDbEntity
  8
PORTATASTO
100
AcDbSpline
 62
253
  6
CONTINUOUS
 70
0
 71
3
 72
14
 73
10
 74
8
 42
0.0000001
 43
0.0000001
 44
0.0000000001
 12
0.0869920683
 22
0.1795641485
 32
0.0
 13
0.1738022251
 23
0.0981016846
 33
0.0
 40
0.0
 40
0.0
 40
0.0
 40
0.0
 40
0.0594463549
 40
0.2371663724
 40
0.4122312226
 40
0.5825355804
 40
0.7461808724
 40
0.901621686
 40
1.0
 40
1.0
 40
1.0
 40
1.0
 10
-7.3508241681
 20
19.9217051915
 30
0.0
 10
-7.349100381
 20
19.9252633362
 30
0.0
 10
-7.3420166954
 20
19.9393588755
 30
0.0
 10
-7.3282973765
 20
19.9631266111
 30
0.0
 10
-7.3082963061
 20
19.9916364228
 30
0.0
 10
-7.2863622352
 20
20.0174759286
 30
0.0
 10
-7.2629263761
 20
20.0401327683
 30
0.0
 10
-7.2409677906
 20
20.0572004473
 30
0.0
 10
-7.2266294615
 20
20.066169348
 30
0.0
 10
-7.2209300049
 20
20.0693863741
 30
0.0
 11
-7.3508241681
 21
19.9217051915
 31
0.0
 11
-7.3454984437
 21
19.9323030267
 31
0.0
 11
-7.3277653239
 21
19.9629973646
 31
0.0
 11
-7.3076834712
 21
19.9915640897
 31
0.0
 11
-7.285658702
 21
20.0174259431
 31
0.0
 11
-7.2621380159
 21
20.0400584025
 31
0.0
 11
-7.2375959653
 21
20.0590052335
 31
0.0
 11
-7.2209300049
 21
20.0693863741
 31
0.0
  0
SPLINE
  5
4C1
100
AcDbEntity
  8
PORTATASTO
100
AcDbSpline
 62
253
  6
CONTINUOUS
 70
0
 71
3
 72
12
 73
8
 74
6
 42
0.0000001
 43
0.0000001
 44
0.0000000001
 12
-0.105075395
 22
0.05198689
 32
0.0
 13
-0.1046068627
 23
-0.053485869
 33
0.0
 40
0.0
 40
0.0
 40
0.0
 40
0.0
 40
0.2328889945
 40
0.4495112485
 40
0.6519220999
 40
0.8438975281
 40
1.0
 40
1.0
 40
1.0
 40
1.0
 10
-7.2125615701
 20
20.0738667186
 30
0.0
 10
-7.2207185378
 20
20.0779024435
 30
0.0
 10
-7.2370162113
 20
20.0846547275
 30
0.0
 10
-7.2619225648
 20
20.0905606375
 30
0.0
 10
-7.2859290648
 20
20.0917066043
 30
0.0
 10
-7.3073289859
 20
20.0881823008
 30
0.0
 10
-7.3200759571
 20
20.0831631682
 30
0.0
 10
-7.3255190871
 20
20.0803800761
 30
0.0
 11
-7.2125615701
 21
20.0738667186
 31
0.0
 11
-7.2378410352
 21
20.0841796917
 31
0.0
 11
-7.2625870595
 21
20.0898849197
 31
0.0
 11
-7.2862959027
 21
20.0908662646
 31
0.0
 11
-7.3084849381
 21
20.0871037498
 31
0.0
 11
-7.3255190871
 21
20.0803800761
 31
0.0
  0
SPLINE
  5
4C2
100
AcDbEntity
  8
PORTATASTO
100
AcDbSpline
 62
253
  6
CONTINUOUS
 70
0
 71
3
 72
12
 73
8
 74
6
 42
0.0000001
 43
0.0000001
 44
0.0000000001
 12
-0.105075395
 22
0.05198689
 32
0.0
 13
-0.1046068627
 23
-0.053485869
 33
0.0
 40
0.0
 40
0.0
 40
0.0
 40
0.0
 40
0.2328889945
 40
0.4495112485
 40
0.6519220999
 40
0.8438975281
 40
1.0
 40
1.0
 40
1.0
 40
1.0
 10
6.1340789248
 20
13.4005464712
 30
0.0
 10
6.1259219571
 20
13.404582196
 30
0.0
 10
6.1096242836
 20
13.4113344801
 30
0.0
 10
6.0847179301
 20
13.4172403901
 30
0.0
 10
6.0607114301
 20
13.4183863568
 30
0.0
 10
6.039311509
 20
13.4148620533
 30
0.0
 10
6.0265645378
 20
13.4098429208
 30
0.0
 10
6.0211214078
 20
13.4070598287
 30
0.0
 11
6.1340789248
 21
13.4005464712
 31
0.0
 11
6.1087994596
 21
13.4108594443
 31
0.0
 11
6.0840534354
 21
13.4165646723
 31
0.0
 11
6.0603445922
 21
13.4175460172
 31
0.0
 11
6.0381555568
 21
13.4137835024
 31
0.0
 11
6.0211214078
 21
13.4070598287
 31
0.0
  0
SPLINE
  5
4C3
100
AcDbEntity
  8
PORTATASTO
100
AcDbSpline
 62
253
  6
CONTINUOUS
 70
0
 71
3
 72
12
 73
8
 74
6
 42
0.0000001
 43
0.0000001
 44
0.0000000001
 12
0.0
 22
0.1580720269
 32
0.0
 13
0.0689400312
 23
0.142302146
 33
0.0
 40
0.0
 40
0.0
 40
0.0
 40
0.0
 40
0.2002807734
 40
0.410231436
 40
0.627711274
 40
0.8502158163
 40
1.0
 40
1.0
 40
1.0
 40
1.0
 10
5.9582278259
 20
13.0961175386
 30
0.0
 10
5.9582278259
 20
13.1066704679
 30
0.0
 10
5.9595135874
 20
13.1282996992
 30
0.0
 10
5.9648989395
 20
13.1609842147
 30
0.0
 10
5.9736819193
 20
13.1941361602
 30
0.0
 10
5.9843320013
 20
13.2233725458
 30
0.0
 10
5.9923742847
 20
13.2412800738
 30
0.0
 10
5.9958163268
 20
13.2483849441
 30
0.0
 11
5.9582278259
 21
13.0961175386
 31
0.0
 11
5.9600157021
 21
13.1277258024
 31
0.0
 11
5.9653431978
 21
13.1604827322
 31
0.0
 11
5.9741025363
 21
13.1937255516
 31
0.0
 11
5.9861165115
 21
13.2267818063
 31
0.0
 11
5.9958163268
 21
13.2483849441
 31
0.0
  0
SPLINE
  5
4C4
100
AcDbEntity
  8
PORTATASTO
100
AcDbSpline
 62
253
  6
CONTINUOUS
 70
0
 71
3
 72
14
 73
10
 74
8
 42
0.0000001
 43
0.0000001
 44
0.0000000001
 12
0.0869920683
 22
0.1795641485
 32
0.0
 13
0.1738022251
 23
0.0981016846
 33
0.0
 40
0.0
 40
0.0
 40
0.0
 40
0.0
 40
0.0594463549
 40
0.2371663724
 40
0.4122312226
 40
0.5825355804
 40
0.7461808724
 40
0.901621686
 40
1.0
 40
1.0
 40
1.0
 40
1.0
 10
5.9958163268
 20
13.2483849441
 30
0.0
 10
5.9975401139
 20
13.2519430888
 30
0.0
 10
6.0046237995
 20
13.2660386281
 30
0.0
 10
6.0183431184
 20
13.2898063636
 30
0.0
 10
6.0383441888
 20
13.3183161753
 30
0.0
 10
6.0602782597
 20
13.3441556812
 30
0.0
 10
6.0837141188
 20
13.3668125209
 30
0.0
 10
6.1056727043
 20
13.3838801999
 30
0.0
 10
6.1200110334
 20
13.3928491006
 30
0.0
 10
6.12571049
 20
13.3960661267
 30
0.0
 11
5.9958163268
 21
13.2483849441
 31
0.0
 11
6.0011420512
 21
13.2589827793
 31
0.0
 11
6.018875171
 21
13.2896771172
 31
0.0
 11
6.0389570237
 21
13.3182438423
 31
0.0
 11
6.0609817929
 21
13.3441056956
 31
0.0
 11
6.084502479
 21
13.366738155
 31
0.0
 11
6.1090445296
 21
13.3856849861
 31
0.0
 11
6.12571049
 21
13.3960661267
 31
0.0
  0
SPLINE
  5
4C5
100
AcDbEntity
  8
PORTATASTO
100
AcDbSpline
 62
253
  6
CONTINUOUS
 70
0
 71
3
 72
13
 73
9
 74
7
 42
0.0000001
 43
0.0000001
 44
0.0000000001
 12
-0.1077616754
 22
0.0538808377
 32
0.0
 13
-0.0000566251
 23
0.1209085825
 33
0.0
 40
0.0
 40
0.0
 40
0.0
 40
0.0
 40
0.2228760723
 40
0.425144118
 40
0.6070986483
 40
0.7714794241
 40
0.9235883159
 40
1.0
 40
1.0
 40
1.0
 40
1.0
 10
5.9582278259
 20
-28.8766341002
 30
0.0
 10
5.9502219929
 20
-28.8726311837
 30
0.0
 10
5.9353390996
 20
-28.8641622435
 30
0.0
 10
5.915896328
 20
-28.8493061434
 30
0.0
 10
5.900760297
 20
-28.8331236418
 30
0.0
 10
5.8902917634
 20
-28.8158562988
 30
0.0
 10
5.8856867311
 20
-28.8005600696
 30
0.0
 10
5.885010911
 20
-28.7913500319
 30
0.0
 10
5.8850094688
 20
-28.7882704225
 30
0.0
 11
5.9582278259
 21
-28.8766341002
 31
0.0
 11
5.9349659778
 21
-28.8632200501
 31
0.0
 11
5.91571808
 21
-28.8482737808
 31
0.0
 11
5.9009051772
 21
-28.8321134432
 31
0.0
 11
5.8908264825
 21
-28.8150649874
 31
0.0
 11
5.8856867682
 21
-28.7974742143
 31
0.0
 11
5.8850094688
 21
-28.7882704225
 31
0.0
  0
SPLINE
  5
4C6
100
AcDbEntity
  8
PORTATASTO
100
AcDbSpline
 62
253
  6
CONTINUOUS
 70
0
 71
3
 72
18
 73
14
 74
12
 42
0.0000001
 43
0.0000001
 44
0.0000000001
 12
-0.3274336833
 22
-0.1658166109
 32
0.0
 13
0.0
 23
-0.3670258376
 33
0.0
 40
0.0
 40
0.0
 40
0.0
 40
0.0
 40
0.079422804
 40
0.1638981722
 40
0.2528307501
 40
0.3453754709
 40
0.4405064244
 40
0.537077953
 40
0.633880772
 40
0.7296955712
 40
0.8233462304
 40
0.9137547197
 40
1.0
 40
1.0
 40
1.0
 40
1.0
 10
7.3651227791
 20
12.785024544
 30
0.0
 10
7.356454212
 20
12.7806346706
 30
0.0
 10
7.3391984959
 20
12.7702900229
 30
0.0
 10
7.3147303127
 20
12.7512664168
 30
0.0
 10
7.2912980103
 20
12.7286078237
 30
0.0
 10
7.2693680372
 20
12.702768104
 30
0.0
 10
7.2493713841
 20
12.6742597292
 30
0.0
 10
7.2317057872
 20
12.6436506129
 30
0.0
 10
7.2167228785
 20
12.611550597
 30
0.0
 10
7.2047214417
 20
12.5785999636
 30
0.0
 10
7.195940902
 20
12.5454527645
 30
0.0
 10
7.1905570678
 20
12.5127730476
 30
0.0
 10
7.1892716802
 20
12.4911470269
 30
0.0
 10
7.1892716802
 20
12.4805956115
 30
0.0
 11
7.3651227791
 21
12.785024544
 31
0.0
 11
7.3400578265
 21
12.7701422208
 31
0.0
 11
7.3155184511
 21
12.7511921039
 31
0.0
 11
7.2920008846
 21
12.7285574
 31
0.0
 11
7.2699806959
 21
12.7026958247
 31
0.0
 11
7.2499031741
 21
12.6741303472
 31
0.0
 11
7.2321743239
 21
12.6434386144
 31
0.0
 11
7.2171526557
 21
12.6112412703
 31
0.0
 11
7.2051419355
 21
12.5781894048
 31
0.0
 11
7.1963850422
 21
12.5449513882
 31
0.0
 11
7.1910590567
 21
12.5121993547
 31
0.0
 11
7.1892716802
 21
12.4805956115
 31
0.0
  0
SPLINE
  5
4C7
100
AcDbEntity
  8
PORTATASTO
100
AcDbSpline
 62
253
  6
CONTINUOUS
 70
0
 71
3
 72
18
 73
14
 74
12
 42
0.0000001
 43
0.0000001
 44
0.0000000001
 12
-0.0015838354
 22
0.3677667756
 32
0.0
 13
-0.3282452006
 23
0.1658613822
 33
0.0
 40
0.0
 40
0.0
 40
0.0
 40
0.0
 40
0.0862298917
 40
0.1766966374
 40
0.2704573358
 40
0.3664103845
 40
0.4633549994
 40
0.5600473248
 40
0.6552540094
 40
0.7478094658
 40
0.836663259
 40
0.9209608649
 40
1.0
 40
1.0
 40
1.0
 40
1.0
 10
7.5418970512
 20
12.4801340249
 30
0.0
 10
7.5418515265
 20
12.4907048546
 30
0.0
 10
7.540471865
 20
12.512374074
 30
0.0
 10
7.5349496252
 20
12.5451173341
 30
0.0
 10
7.5260321931
 20
12.5783383689
 30
0.0
 10
7.5138992793
 20
12.6113670158
 30
0.0
 10
7.4987945786
 20
12.6435430534
 30
0.0
 10
7.4810214654
 20
12.6742201545
 30
0.0
 10
7.4609361491
 20
12.7027830729
 30
0.0
 10
7.4389412679
 20
12.7286585835
 30
0.0
 10
7.4154720725
 20
12.7513303805
 30
0.0
 10
7.3910084966
 20
12.7703342428
 30
0.0
 10
7.3737708513
 20
12.7806546973
 30
0.0
 10
7.3651227791
 20
12.785024544
 30
0.0
 11
7.5418970512
 21
12.4801340249
 31
0.0
 11
7.5399743005
 21
12.5117884662
 31
0.0
 11
7.534510028
 21
12.5446076572
 31
0.0
 11
7.5256155126
 21
12.5779231608
 31
0.0
 11
7.5134718921
 21
12.6110565692
 31
0.0
 11
7.4983264948
 21
12.6433331478
 31
0.0
 11
7.480487767
 21
12.6740956709
 31
0.0
 11
7.4603190913
 21
12.7027176438
 31
0.0
 11
7.4382307538
 21
12.7286168373
 31
0.0
 11
7.4146740033
 21
12.7512644985
 31
0.0
 11
7.3901272954
 21
12.7702010292
 31
0.0
 11
7.3651227791
 21
12.785024544
 31
0.0
  0
SPLINE
  5
4C8
100
AcDbEntity
  8
PORTATASTO
100
AcDbSpline
 62
253
  6
CONTINUOUS
 70
0
 71
3
 72
18
 73
14
 74
12
 42
0.0000001
 43
0.0000001
 44
0.0000000001
 12
0.3246495934
 22
-0.1623247967
 32
0.0
 13
0.3253245784
 23
0.1609677508
 33
0.0
 40
0.0
 40
0.0
 40
0.0
 40
0.0
 40
0.0805600317
 40
0.1670785676
 40
0.2584318395
 40
0.353391101
 40
0.4505764045
 40
0.5485331093
 40
0.645776605
 40
0.7408481865
 40
0.8323689073
 40
0.9190982169
 40
1.0
 40
1.0
 40
1.0
 40
1.0
 10
7.1892716802
 20
12.4805956115
 30
0.0
 10
7.1979896073
 20
12.4762366479
 30
0.0
 10
7.2166095534
 20
12.4682533494
 30
0.0
 10
7.246436666
 20
12.458743474
 30
0.0
 10
7.2786625315
 20
12.4514224435
 30
0.0
 10
7.3126317986
 20
12.4464422912
 30
0.0
 10
7.3476694613
 20
12.4439025149
 30
0.0
 10
7.3830745792
 20
12.4438546547
 30
0.0
 10
7.4181396086
 20
12.4462997191
 30
0.0
 10
7.4521633906
 20
12.451188199
 30
0.0
 10
7.4844694673
 20
12.4584225203
 30
0.0
 10
7.5144118714
 20
12.4678560972
 30
0.0
 10
7.5331239383
 20
12.4757931655
 30
0.0
 10
7.5418970512
 20
12.4801340249
 30
0.0
 11
7.1892716802
 21
12.4805956115
 31
0.0
 11
7.2160997805
 21
12.4689646874
 31
0.0
 11
7.245992319
 21
12.4593407385
 31
0.0
 11
7.2783129942
 21
12.4519342871
 31
0.0
 11
7.3124099059
 21
12.4468949398
 31
0.0
 11
7.347591452
 21
12.4443250826
 31
0.0
 11
7.3831466936
 21
12.4442766543
 31
0.0
 11
7.4183562816
 21
12.4467506955
 31
0.0
 11
7.4525079806
 21
12.4516971987
 31
0.0
 11
7.4849109013
 21
12.459016123
 31
0.0
 11
7.5149095746
 21
12.468559431
 31
0.0
 11
7.5418970512
 21
12.4801340249
 31
0.0
  0
SPLINE
  5
4C9
100
AcDbEntity
  8
PORTATASTO
100
AcDbSpline
 62
253
  6
CONTINUOUS
 70
0
 71
3
 72
14
 73
10
 74
8
 42
0.0000001
 43
0.0000001
 44
0.0000000001
 12
0.0
 22
-0.1575483748
 32
0.0
 13
0.1411145508
 23
-0.0708349437
 33
0.0
 40
0.0
 40
0.0
 40
0.0
 40
0.0
 40
0.1896175412
 40
0.3669726719
 40
0.532021714
 40
0.6858183964
 40
0.8306641817
 40
0.9700810263
 40
1.0
 40
1.0
 40
1.0
 40
1.0
 10
7.1892716802
 20
-29.4921560274
 30
0.0
 10
7.1892716802
 20
-29.5021140058
 30
0.0
 10
7.1903530795
 20
-29.5214121984
 30
0.0
 10
7.1955608558
 20
-29.548952069
 30
0.0
 10
7.2042299812
 20
-29.5736479347
 30
0.0
 10
7.2162378105
 20
-29.5949964943
 30
0.0
 10
7.2314023504
 20
-29.6125267949
 30
0.0
 10
7.2448140084
 20
-29.6223880949
 30
0.0
 10
7.2526781109
 20
-29.6265867977
 30
0.0
 10
7.2540854451
 20
-29.627293234
 30
0.0
 11
7.1892716802
 21
-29.4921560274
 31
0.0
 11
7.1910595564
 21
-29.521976415
 31
0.0
 11
7.196387052
 21
-29.5494058491
 31
0.0
 11
7.2051463905
 21
-29.57388933
 31
0.0
 11
7.2171603658
 21
-29.5949316094
 31
0.0
 11
7.2321859054
 21
-29.6121070428
 31
0.0
 11
7.2499190252
 21
-29.6250682609
 31
0.0
 11
7.2540854451
 21
-29.627293234
 31
0.0
  0
SPLINE
  5
4CA
100
AcDbEntity
  8
PORTATASTO
100
AcDbSpline
 62
253
  6
CONTINUOUS
 70
0
 71
3
 72
18
 73
14
 74
12
 42
0.0000001
 43
0.0000001
 44
0.0000000001
 12
-0.3253245784
 22
-0.1609677508
 32
0.0
 13
-0.3246495933
 23
0.1623247967
 33
0.0
 40
0.0
 40
0.0
 40
0.0
 40
0.0
 40
0.0807873999
 40
0.1675032982
 40
0.2590118333
 40
0.3540783266
 40
0.4513184706
 40
0.5492756693
 40
0.6464652489
 40
0.7414304463
 40
0.8327963071
 40
0.9193285511
 40
1.0
 40
1.0
 40
1.0
 40
1.0
 10
7.5418970512
 20
-29.4926176139
 30
0.0
 10
7.5331363422
 20
-29.496952336
 30
0.0
 10
7.5144392915
 20
-29.5048848173
 30
0.0
 10
7.4845142117
 20
-29.5143170702
 30
0.0
 10
7.452212623
 20
-29.5215544077
 30
0.0
 10
7.4181918559
 20
-29.5264463622
 30
0.0
 10
7.3831280503
 20
-29.5288951593
 30
0.0
 10
7.3477227555
 20
-29.5288510893
 30
0.0
 10
7.3126835268
 20
-29.5263149981
 30
0.0
 10
7.2787109801
 20
-29.5213382331
 30
0.0
 10
7.2464804476
 20
-29.5140201067
 30
0.0
 10
7.2166362978
 20
-29.5045088632
 30
0.0
 10
7.1980016645
 20
-29.4965210195
 30
0.0
 10
7.1892716802
 20
-29.4921560274
 30
0.0
 11
7.5418970512
 21
-29.4926176139
 31
0.0
 11
7.5149485532
 21
-29.5041777602
 31
0.0
 11
7.48495573
 21
-29.5137233992
 31
0.0
 11
7.4525579982
 21
-29.5210452193
 31
0.0
 11
7.4184086885
 21
-29.5259953337
 31
0.0
 11
7.3832005844
 21
-29.5284731344
 31
0.0
 11
7.3476451585
 21
-29.5284285413
 31
0.0
 11
7.3124617854
 21
-29.5258623943
 31
0.0
 11
7.2783621761
 21
-29.5208265649
 31
0.0
 11
7.2460361742
 21
-29.5134229025
 31
0.0
 11
7.2161376983
 21
-29.5038011602
 31
0.0
 11
7.1892716802
 21
-29.4921560274
 31
0.0
  0
SPLINE
  5
4CB
100
AcDbEntity
  8
PORTATASTO
100
AcDbSpline
 62
7
  6
CONTINUOUS
 70
0
 71
3
 72
14
 73
10
 74
8
 42
0.0000001
 43
0.0000001
 44
0.0000000001
 12
0.1922517655
 22
0.2296519252
 32
0.0
 13
-0.0336667603
 23
0.2976025829
 33
0.0
 40
0.0
 40
0.0
 40
0.0
 40
0.0
 40
0.1213298258
 40
0.2489673206
 40
0.3838717255
 40
0.5265329855
 40
0.6770197708
 40
0.8350383157
 40
1.0
 40
1.0
 40
1.0
 40
1.0
 10
-11.1267338446
 20
22.2148286023
 30
0.0
 10
-11.1189585536
 20
22.2241164783
 30
0.0
 10
-11.1045682559
 20
22.244528689
 30
0.0
 10
-11.0872939953
 20
22.2788691738
 30
0.0
 10
-11.0740105432
 20
22.3171929194
 30
0.0
 10
-11.0648593532
 20
22.3590258104
 30
0.0
 10
-11.0599287543
 20
22.4038735663
 30
0.0
 10
-11.0592666134
 20
22.4511995875
 30
0.0
 10
-11.0616263675
 20
22.4834016587
 30
0.0
 10
-11.0634776093
 20
22.4997659998
 30
0.0
 11
-11.1267338446
 21
22.2148286023
 31
0.0
 11
-11.1056896683
 21
22.2444532672
 31
0.0
 11
-11.0883791547
 21
22.27853685
 31
0.0
 11
-11.0750125278
 21
22.316665776
 31
0.0
 11
-11.0657521668
 21
22.3583773623
 31
0.0
 11
-11.0607106332
 21
22.4031654247
 31
0.0
 11
-11.0599492893
 21
22.450485986
 31
0.0
 11
-11.0634776093
 21
22.4997659998
 31
0.0
  0
SPLINE
  5
4CC
100
AcDbEntity
  8
PORTATASTO
100
AcDbSpline
 62
7
  6
CONTINUOUS
 70
0
 71
3
 72
11
 73
7
 74
5
 42
0.0000001
 43
0.0000001
 44
0.0000000001
 12
0.2508724809
 22
0.3425059839
 32
0.0
 13
0.1598550843
 23
0.3933112033
 33
0.0
 40
0.0
 40
0.0
 40
0.0
 40
0.0
 40
0.2948938727
 40
0.5566000891
 40
0.7856607226
 40
1.0
 40
1.0
 40
1.0
 40
1.0
 10
-11.0634776093
 20
22.4997659998
 30
0.0
 10
-11.0388173568
 20
22.5334336385
 30
0.0
 10
-10.9939458353
 20
22.5982593557
 30
0.0
 10
-10.9365539897
 20
22.6935058621
 30
0.0
 10
-10.8889821364
 20
22.7813908922
 30
0.0
 10
-10.865661745
 20
22.8397307491
 30
0.0
 10
-10.8542406706
 20
22.8678314288
 30
0.0
 11
-11.0634776093
 21
22.4997659998
 31
0.0
 11
-10.9924527569
 21
22.6028689185
 31
0.0
 11
-10.9349481969
 21
22.6979393794
 31
0.0
 11
-10.8897489047
 21
22.784046182
 31
0.0
 11
-10.8542406706
 21
22.8678314288
 31
0.0
  0
SPLINE
  5
4CD
100
AcDbEntity
  8
PORTATASTO
100
AcDbSpline
 62
7
  6
CONTINUOUS
 70
0
 71
3
 72
14
 73
10
 74
8
 42
0.0000001
 43
0.0000001
 44
0.0000000001
 12
0.1922517655
 22
0.2296519252
 32
0.0
 13
-0.0336667603
 23
0.2976025829
 33
0.0
 40
0.0
 40
0.0
 40
0.0
 40
0.0
 40
0.1213298258
 40
0.2489673206
 40
0.3838717255
 40
0.5265329855
 40
0.6770197708
 40
0.8350383157
 40
1.0
 40
1.0
 40
1.0
 40
1.0
 10
4.7831687321
 20
14.259877314
 30
0.0
 10
4.7909440231
 20
14.26916519
 30
0.0
 10
4.8053343208
 20
14.2895774007
 30
0.0
 10
4.8226085814
 20
14.3239178854
 30
0.0
 10
4.8358920335
 20
14.362241631
 30
0.0
 10
4.8450432235
 20
14.404074522
 30
0.0
 10
4.8499738224
 20
14.448922278
 30
0.0
 10
4.8506359633
 20
14.4962482992
 30
0.0
 10
4.8482762092
 20
14.5284503704
 30
0.0
 10
4.8464249674
 20
14.5448147115
 30
0.0
 11
4.7831687321
 21
14.259877314
 31
0.0
 11
4.8042129084
 21
14.2895019789
 31
0.0
 11
4.821523422
 21
14.3235855617
 31
0.0
 11
4.8348900489
 21
14.3617144877
 31
0.0
 11
4.8441504099
 21
14.403426074
 31
0.0
 11
4.8491919435
 21
14.4482141363
 31
0.0
 11
4.8499532874
 21
14.4955346977
 31
0.0
 11
4.8464249674
 21
14.5448147115
 31
0.0
  0
SPLINE
  5
4CE
100
AcDbEntity
  8
PORTATASTO
100
AcDbSpline
 62
7
  6
CONTINUOUS
 70
0
 71
3
 72
11
 73
7
 74
5
 42
0.0000001
 43
0.0000001
 44
0.0000000001
 12
0.2508724809
 22
0.3425059839
 32
0.0
 13
0.1598550843
 23
0.3933112033
 33
0.0
 40
0.0
 40
0.0
 40
0.0
 40
0.0
 40
0.2948938727
 40
0.5566000891
 40
0.7856607226
 40
1.0
 40
1.0
 40
1.0
 40
1.0
 10
4.8464249674
 20
14.5448147115
 30
0.0
 10
4.8710852199
 20
14.5784823501
 30
0.0
 10
4.9159567414
 20
14.6433080673
 30
0.0
 10
4.973348587
 20
14.7385545737
 30
0.0
 10
5.0209204403
 20
14.8264396039
 30
0.0
 10
5.0442408317
 20
14.8847794608
 30
0.0
 10
5.0556619061
 20
14.9128801405
 30
0.0
 11
4.8464249674
 21
14.5448147115
 31
0.0
 11
4.9174498198
 21
14.6479176302
 31
0.0
 11
4.9749543798
 21
14.7429880911
 31
0.0
 11
5.020153672
 21
14.8290948937
 31
0.0
 11
5.0556619061
 21
14.9128801405
 31
0.0
  0
SPLINE
  5
4CF
100
AcDbEntity
  8
PORTATASTO
100
AcDbSpline
 62
253
  6
CONTINUOUS
 70
0
 71
3
 72
10
 73
6
 74
4
 42
0.0000001
 43
0.0000001
 44
0.0000000001
 12
0.0553703353
 22
-0.0090115078
 32
0.0
 13
0.055015019
 23
0.0109680039
 33
0.0
 40
0.0
 40
0.0
 40
0.0
 40
0.0
 40
0.1648709646
 40
0.6628780818
 40
1.0
 40
1.0
 40
1.0
 40
1.0
 10
7.3215913466
 20
12.0730578181
 30
0.0
 10
7.3246343335
 20
12.0725625728
 30
0.0
 10
7.3369291426
 20
12.0709447467
 30
0.0
 10
7.3557076769
 20
12.0707906737
 30
0.0
 10
7.3711960182
 20
12.0729731525
 30
0.0
 10
7.3773782744
 20
12.0742056707
 30
0.0
 11
7.3215913466
 21
12.0730578181
 31
0.0
 11
7.3307597298
 21
12.071851565
 31
0.0
 11
7.3586598222
 21
12.0715877346
 31
0.0
 11
7.3773782744
 21
12.0742056707
 31
0.0
  0
SPLINE
  5
4D0
100
AcDbEntity
  8
PORTATASTO
100
AcDbSpline
 62
253
  6
CONTINUOUS
 70
0
 71
3
 72
15
 73
11
 74
9
 42
0.0000001
 43
0.0000001
 44
0.0000000001
 12
0.2318452025
 22
0.0462215434
 32
0.0
 13
0.0846118177
 23
0.220423937
 33
0.0
 40
0.0
 40
0.0
 40
0.0
 40
0.0
 40
0.0405029155
 40
0.1645058941
 40
0.2928246716
 40
0.4258615169
 40
0.563618024
 40
0.7057235882
 40
0.8515194656
 40
1.0
 40
1.0
 40
1.0
 40
1.0
 10
7.3773782744
 20
12.0742056707
 30
0.0
 10
7.38050841
 20
12.0748297064
 30
0.0
 10
7.3931488047
 20
12.0777302577
 30
0.0
 10
7.4149756503
 20
12.0854435398
 30
0.0
 10
7.4417183497
 20
12.0999985036
 30
0.0
 10
7.4668842071
 20
12.1189720812
 30
0.0
 10
7.4899789738
 20
12.1419677646
 30
0.0
 10
7.510551548
 20
12.1685176141
 30
0.0
 10
7.5281927305
 20
12.1980738738
 30
0.0
 10
7.5377093152
 20
12.2192532609
 30
0.0
 10
7.5418970512
 20
12.2301628155
 30
0.0
 11
7.3773782744
 21
12.0742056707
 31
0.0
 11
7.3867098487
 21
12.0763448415
 31
0.0
 11
7.4143405942
 21
12.0860263499
 31
0.0
 11
7.4409913572
 21
12.1004357953
 31
0.0
 11
7.4661211637
 21
12.1192806349
 31
0.0
 11
7.4892202423
 21
12.1421785366
 31
0.0
 11
7.5098187022
 21
12.1686631568
 31
0.0
 11
7.5275000473
 21
12.1981983678
 31
0.0
 11
7.5418970512
 21
12.2301628155
 31
0.0
  0
SPLINE
  5
4D1
100
AcDbEntity
  8
PORTATASTO
100
AcDbSpline
 62
7
  6
CONTINUOUS
 70
0
 71
3
 72
19
 73
15
 74
13
 42
0.0000001
 43
0.0000001
 44
0.0000000001
 12
-0.4347459944
 22
-0.032061621
 32
0.0
 13
-0.4203661256
 23
-0.115431138
 33
0.0
 40
0.0
 40
0.0
 40
0.0
 40
0.0
 40
0.0993228519
 40
0.197235155
 40
0.292953754
 40
0.3859686322
 40
0.4759499567
 40
0.5626287566
 40
0.6457651535
 40
0.7251289558
 40
0.8004853034
 40
0.8715851638
 40
0.9381799011
 40
1.0
 40
1.0
 40
1.0
 40
1.0
 10
-11.7736882373
 20
22.7802784915
 30
0.0
 10
-11.7880816413
 20
22.7792170076
 30
0.0
 10
-11.8165883397
 20
22.7760302354
 30
0.0
 10
-11.8585931703
 20
22.7690508936
 30
0.0
 10
-11.8993944182
 20
22.7606343749
 30
0.0
 10
-11.938812123
 20
22.7513184147
 30
0.0
 10
-11.976749495
 20
22.74149589
 30
0.0
 10
-12.0131443012
 20
22.7314651376
 30
0.0
 10
-12.0479438786
 20
22.7214633338
 30
0.0
 10
-12.0810953051
 20
22.7116873446
 30
0.0
 10
-12.1125397789
 20
22.702307567
 30
0.0
 10
-12.142211684
 20
22.6934763637
 30
0.0
 10
-12.1700362633
 20
22.685334253
 30
0.0
 10
-12.1879925951
 20
22.6802569188
 30
0.0
 10
-12.1966549536
 20
22.677878264
 30
0.0
 11
-11.7736882373
 21
22.7802784915
 31
0.0
 11
-11.8167348044
 21
22.7756239769
 31
0.0
 11
-11.8588560464
 21
22.7687244376
 31
0.0
 11
-11.899734914
 21
22.7603577686
 31
0.0
 11
-11.9392057583
 21
22.7510752378
 31
0.0
 11
-11.9771871179
 21
22.7412753906
 31
0.0
 11
-12.0136214104
 21
22.7312607171
 31
0.0
 11
-12.0484587861
 21
22.7212710172
 31
0.0
 11
-12.0816485556
 21
22.7115048807
 31
0.0
 11
-12.113133472
 21
22.702134078
 31
0.0
 11
-12.1428460904
 21
22.6933131747
 31
0.0
 11
-12.1707148966
 21
22.6851832981
 31
0.0
 11
-12.1966549536
 21
22.677878264
 31
0.0
  0
SPLINE
  5
4D2
100
AcDbEntity
  8
PORTATASTO
100
AcDbSpline
 62
7
  6
CONTINUOUS
 70
0
 71
3
 72
19
 73
15
 74
13
 42
0.0000001
 43
0.0000001
 44
0.0000000001
 12
-0.4347459944
 22
-0.032061621
 32
0.0
 13
-0.4203661256
 23
-0.115431138
 33
0.0
 40
0.0
 40
0.0
 40
0.0
 40
0.0
 40
0.0993228519
 40
0.197235155
 40
0.292953754
 40
0.3859686322
 40
0.4759499567
 40
0.5626287566
 40
0.6457651535
 40
0.7251289558
 40
0.8004853034
 40
0.8715851638
 40
0.9381799011
 40
1.0
 40
1.0
 40
1.0
 40
1.0
 10
4.1362143394
 20
14.8253272032
 30
0.0
 10
4.1218209354
 20
14.8242657193
 30
0.0
 10
4.093314237
 20
14.8210789471
 30
0.0
 10
4.0513094064
 20
14.8140996053
 30
0.0
 10
4.0105081585
 20
14.8056830865
 30
0.0
 10
3.9710904537
 20
14.7963671264
 30
0.0
 10
3.9331530817
 20
14.7865446017
 30
0.0
 10
3.8967582755
 20
14.7765138492
 30
0.0
 10
3.8619586981
 20
14.7665120455
 30
0.0
 10
3.8288072716
 20
14.7567360563
 30
0.0
 10
3.7973627978
 20
14.7473562786
 30
0.0
 10
3.7676908927
 20
14.7385250754
 30
0.0
 10
3.7398663134
 20
14.7303829646
 30
0.0
 10
3.7219099816
 20
14.7253056305
 30
0.0
 10
3.7132476231
 20
14.7229269757
 30
0.0
 11
4.1362143394
 21
14.8253272032
 31
0.0
 11
4.0931677723
 21
14.8206726885
 31
0.0
 11
4.0510465303
 21
14.8137731492
 31
0.0
 11
4.0101676627
 21
14.8054064802
 31
0.0
 11
3.9706968183
 21
14.7961239495
 31
0.0
 11
3.9327154588
 21
14.7863241023
 31
0.0
 11
3.8962811663
 21
14.7763094287
 31
0.0
 11
3.8614437906
 21
14.7663197288
 31
0.0
 11
3.8282540211
 21
14.7565535924
 31
0.0
 11
3.7967691047
 21
14.7471827897
 31
0.0
 11
3.7670564863
 21
14.7383618864
 31
0.0
 11
3.7391876801
 21
14.7302320098
 31
0.0
 11
3.7132476231
 21
14.7229269757
 31
0.0
  0
SPLINE
  5
4D3
100
AcDbEntity
  8
PORTATASTO
100
AcDbSpline
 62
253
  6
CONTINUOUS
 70
0
 71
3
 72
13
 73
9
 74
7
 42
0.0000001
 43
0.0000001
 44
0.0000000001
 12
0.0000087569
 22
-0.1209332527
 32
0.0
 13
0.1077836379
 23
-0.0538918189
 33
0.0
 40
0.0
 40
0.0
 40
0.0
 40
0.0
 40
0.0763758374
 40
0.2284437537
 40
0.3927709664
 40
0.5746734429
 40
0.7768864614
 40
1.0
 40
1.0
 40
1.0
 40
1.0
 10
5.8850094645
 20
13.1845059051
 30
0.0
 10
5.8850096874
 20
13.1814271123
 30
0.0
 10
5.8856815929
 20
13.1722180346
 30
0.0
 10
5.8902797731
 20
13.1569217921
 30
0.0
 10
5.9007415343
 20
13.1396523488
 30
0.0
 10
5.9158719927
 20
13.1234671969
 30
0.0
 10
5.935319925
 20
13.1086009047
 30
0.0
 10
5.9502118296
 20
13.1001255367
 30
0.0
 10
5.9582278259
 20
13.0961175386
 30
0.0
 11
5.8850094645
 21
13.1845059051
 31
0.0
 11
5.8856827981
 21
13.1753042778
 31
0.0
 11
5.8908150919
 21
13.1577125912
 31
0.0
 11
5.9008867508
 21
13.1406627865
 31
0.0
 11
5.9156940756
 21
13.1244997856
 31
0.0
 11
5.9349375602
 21
13.1095505477
 31
0.0
 11
5.9582278259
 21
13.0961175386
 31
0.0
  0
SPLINE
  5
4D4
100
AcDbEntity
  8
PORTATASTO
100
AcDbSpline
 62
253
  6
CONTINUOUS
 70
0
 71
3
 72
14
 73
10
 74
8
 42
0.0000001
 43
0.0000001
 44
0.0000000001
 12
-0.1238366605
 22
0.0802264557
 32
0.0
 13
0.0
 23
0.1472938892
 33
0.0
 40
0.0
 40
0.0
 40
0.0
 40
0.0
 40
0.0334940707
 40
0.1725452408
 40
0.3179033418
 40
0.4721781663
 40
0.6369662653
 40
0.812953093
 40
1.0
 40
1.0
 40
1.0
 40
1.0
 10
6.0141040887
 20
12.7161308942
 30
0.0
 10
6.0127214907
 20
12.7170265977
 30
0.0
 10
6.0057194158
 20
12.7218258642
 30
0.0
 10
5.9940490194
 20
12.732358357
 30
0.0
 10
5.9811335707
 20
12.7497521984
 30
0.0
 10
5.9709290535
 20
12.7702602045
 30
0.0
 10
5.9635702732
 20
12.7935150911
 30
0.0
 10
5.9591507829
 20
12.8191184663
 30
0.0
 10
5.9582278259
 20
12.8369627071
 30
0.0
 10
5.9582278259
 20
12.8461463293
 30
0.0
 11
6.0141040887
 21
12.7161308942
 31
0.0
 11
6.0100282042
 21
12.7189244093
 31
0.0
 11
5.9947747364
 21
12.7325925825
 31
0.0
 11
5.9819227615
 21
12.7497165498
 31
0.0
 11
5.9716902704
 21
12.7700060653
 31
0.0
 11
5.9642540358
 21
12.7931111728
 31
0.0
 11
5.9597408244
 21
12.8186370386
 31
0.0
 11
5.9582278259
 21
12.8461463293
 31
0.0
  0
SPLINE
  5
4D5
100
AcDbEntity
  8
PORTATASTO
100
AcDbSpline
 62
253
  6
CONTINUOUS
 70
0
 71
3
 72
10
 73
6
 74
4
 42
0.0000001
 43
0.0000001
 44
0.0000000001
 12
0.0553703353
 22
-0.0090115078
 32
0.0
 13
0.055015019
 23
0.0109680039
 33
0.0
 40
0.0
 40
0.0
 40
0.0
 40
0.0
 40
0.1648709646
 40
0.6628780818
 40
1.0
 40
1.0
 40
1.0
 40
1.0
 10
-6.0250491483
 20
18.7463780655
 30
0.0
 10
-6.0220061614
 20
18.7458828202
 30
0.0
 10
-6.0097113523
 20
18.7442649941
 30
0.0
 10
-5.990932818
 20
18.7441109211
 30
0.0
 10
-5.9754444767
 20
18.7462934
 30
0.0
 10
-5.9692622205
 20
18.7475259181
 30
0.0
 11
-6.0250491483
 21
18.7463780655
 31
0.0
 11
-6.0158807651
 21
18.7451718124
 31
0.0
 11
-5.9879806727
 21
18.744907982
 31
0.0
 11
-5.9692622205
 21
18.7475259181
 31
0.0
  0
SPLINE
  5
4D6
100
AcDbEntity
  8
PORTATASTO
100
AcDbSpline
 62
253
  6
CONTINUOUS
 70
0
 71
3
 72
15
 73
11
 74
9
 42
0.0000001
 43
0.0000001
 44
0.0000000001
 12
0.2318452025
 22
0.0462215434
 32
0.0
 13
0.0846118177
 23
0.220423937
 33
0.0
 40
0.0
 40
0.0
 40
0.0
 40
0.0
 40
0.0405029155
 40
0.1645058941
 40
0.2928246716
 40
0.4258615169
 40
0.563618024
 40
0.7057235882
 40
0.8515194656
 40
1.0
 40
1.0
 40
1.0
 40
1.0
 10
-5.9692622205
 20
18.7475259181
 30
0.0
 10
-5.9661320849
 20
18.7481499539
 30
0.0
 10
-5.9534916902
 20
18.7510505051
 30
0.0
 10
-5.9316648446
 20
18.7587637872
 30
0.0
 10
-5.9049221452
 20
18.7733187511
 30
0.0
 10
-5.8797562878
 20
18.7922923287
 30
0.0
 10
-5.8566615211
 20
18.815288012
 30
0.0
 10
-5.8360889469
 20
18.8418378615
 30
0.0
 10
-5.8184477644
 20
18.8713941212
 30
0.0
 10
-5.8089311797
 20
18.8925735083
 30
0.0
 10
-5.8047434437
 20
18.903483063
 30
0.0
 11
-5.9692622205
 21
18.7475259181
 31
0.0
 11
-5.9599306462
 21
18.749665089
 31
0.0
 11
-5.9322999007
 21
18.7593465974
 31
0.0
 11
-5.9056491377
 21
18.7737560428
 31
0.0
 11
-5.8805193311
 21
18.7926008823
 31
0.0
 11
-5.8574202526
 21
18.8154987841
 31
0.0
 11
-5.8368217927
 21
18.8419834042
 31
0.0
 11
-5.8191404476
 21
18.8715186153
 31
0.0
 11
-5.8047434437
 21
18.903483063
 31
0.0
  0
SPLINE
  5
4D7
100
AcDbEntity
  8
PORTATASTO
100
AcDbSpline
 62
253
  6
CONTINUOUS
 70
0
 71
3
 72
14
 73
10
 74
8
 42
0.0000001
 43
0.0000001
 44
0.0000000001
 12
-0.1238366605
 22
0.0802264557
 32
0.0
 13
0.0
 23
0.1472938892
 33
0.0
 40
0.0
 40
0.0
 40
0.0
 40
0.0
 40
0.0334940707
 40
0.1725452408
 40
0.3179033418
 40
0.4721781663
 40
0.6369662653
 40
0.812953093
 40
1.0
 40
1.0
 40
1.0
 40
1.0
 10
-7.3325364062
 20
19.3894511416
 30
0.0
 10
-7.3339190042
 20
19.3903468452
 30
0.0
 10
-7.3409210791
 20
19.3951461117
 30
0.0
 10
-7.3525914755
 20
19.4056786044
 30
0.0
 10
-7.3655069242
 20
19.4230724458
 30
0.0
 10
-7.3757114414
 20
19.443580452
 30
0.0
 10
-7.3830702217
 20
19.4668353386
 30
0.0
 10
-7.387489712
 20
19.4924387137
 30
0.0
 10
-7.388412669
 20
19.5102829546
 30
0.0
 10
-7.388412669
 20
19.5194665767
 30
0.0
 11
-7.3325364062
 21
19.3894511416
 31
0.0
 11
-7.3366122907
 21
19.3922446568
 31
0.0
 11
-7.3518657585
 21
19.40591283
 31
0.0
 11
-7.3647177334
 21
19.4230367973
 31
0.0
 11
-7.3749502245
 21
19.4433263127
 31
0.0
 11
-7.3823864591
 21
19.4664314202
 31
0.0
 11
-7.3868996705
 21
19.491957286
 31
0.0
 11
-7.388412669
 21
19.5194665767
 31
0.0
  0
SPLINE
  5
4D8
100
AcDbEntity
  8
PORTATASTO
100
AcDbSpline
 62
253
  6
CONTINUOUS
 70
0
 71
3
 72
13
 73
9
 74
7
 42
0.0000001
 43
0.0000001
 44
0.0000000001
 12
0.0000087569
 22
-0.1209332527
 32
0.0
 13
0.1077836379
 23
-0.0538918189
 33
0.0
 40
0.0
 40
0.0
 40
0.0
 40
0.0
 40
0.0763758374
 40
0.2284437537
 40
0.3927709664
 40
0.5746734429
 40
0.7768864614
 40
1.0
 40
1.0
 40
1.0
 40
1.0
 10
-7.4616310304
 20
19.8578261526
 30
0.0
 10
-7.4616308075
 20
19.8547473598
 30
0.0
 10
-7.460958902
 20
19.845538282
 30
0.0
 10
-7.4563607218
 20
19.8302420396
 30
0.0
 10
-7.4458989606
 20
19.8129725963
 30
0.0
 10
-7.4307685022
 20
19.7967874443
 30
0.0
 10
-7.4113205699
 20
19.7819211521
 30
0.0
 10
-7.3964286653
 20
19.7734457842
 30
0.0
 10
-7.388412669
 20
19.769437786
 30
0.0
 11
-7.4616310304
 21
19.8578261526
 31
0.0
 11
-7.4609576968
 21
19.8486245252
 31
0.0
 11
-7.455825403
 21
19.8310328386
 31
0.0
 11
-7.4457537441
 21
19.813983034
 31
0.0
 11
-7.4309464193
 21
19.797820033
 31
0.0
 11
-7.4117029347
 21
19.7828707951
 31
0.0
 11
-7.388412669
 21
19.769437786
 31
0.0
  0
SPLINE
  5
4D9
100
AcDbEntity
  8
ASSI
100
AcDbSpline
 62
7
  6
CONTINUOUS
 70
0
 71
3
 72
11
 73
7
 74
5
 42
0.0000001
 43
0.0000001
 44
0.0000000001
 12
0.3396153633
 22
-0.1688618995
 32
0.0
 13
-0.0
 23
-0.3769638203
 33
0.0
 40
0.0
 40
0.0
 40
0.0
 40
0.0
 40
0.0281669174
 40
0.3122991915
 40
0.6316770837
 40
1.0
 40
1.0
 40
1.0
 40
1.0
 10
8.5127028616
 20
24.9021026632
 30
0.0
 10
8.5158915009
 20
24.9005172235
 30
0.0
 10
8.5508042377
 20
24.8820815452
 30
0.0
 10
8.6104609675
 20
24.8255010396
 30
0.0
 10
8.6592858851
 20
24.7109284167
 30
0.0
 10
8.6685535923
 20
24.6239238968
 30
0.0
 10
8.6685535923
 20
24.5776424255
 30
0.0
 11
8.5127028616
 21
24.9021026632
 31
0.0
 11
8.5221451279
 21
24.8971141344
 31
0.0
 11
8.6012194637
 21
24.8248695171
 31
0.0
 11
8.6513739688
 21
24.7154198973
 31
0.0
 11
8.6685535923
 21
24.5776424255
 31
0.0
  0
SPLINE
  5
4DA
100
AcDbEntity
  8
ASSI
100
AcDbSpline
 62
7
  6
CONTINUOUS
 70
0
 71
3
 72
8
 73
4
 74
2
 42
0.0000001
 43
0.0000001
 44
0.0000000001
 12
0.1235944176
 22
0.0609383965
 32
0.0
 13
0.1304183507
 23
0.0453634238
 33
0.0
 40
0.0
 40
0.0
 40
0.0
 40
0.0
 40
1.0
 40
1.0
 40
1.0
 40
1.0
 10
-11.7098165748
 20
26.0028873855
 30
0.0
 10
-11.6686184356
 20
26.0232001843
 30
0.0
 10
-11.6260080501
 20
26.0407254435
 30
0.0
 10
-11.5825352666
 20
26.0558465848
 30
0.0
 11
-11.7098165748
 21
26.0028873855
 31
0.0
 11
-11.5825352666
 21
26.0558465848
 31
0.0
  0
SPLINE
  5
4DB
100
AcDbEntity
  8
ASSI
100
AcDbSpline
 62
7
  6
CONTINUOUS
 70
0
 71
3
 72
13
 73
9
 74
7
 42
0.0000001
 43
0.0000001
 44
0.0000000001
 12
1.0065066524
 22
0.3500932773
 32
0.0
 13
1.0062016672
 23
-0.3508875842
 33
0.0
 40
0.0
 40
0.0
 40
0.0
 40
0.0
 40
0.0692727473
 40
0.2827268513
 40
0.5008840833
 40
0.718709236
 40
0.9311491486
 40
1.0
 40
1.0
 40
1.0
 40
1.0
 10
-11.5825352666
 20
26.0558465848
 30
0.0
 10
-11.5592941062
 20
26.0639305592
 30
0.0
 10
-11.4634326319
 20
26.0941197416
 30
0.0
 10
-11.2888081534
 20
26.1290548093
 30
0.0
 10
-11.0584006105
 20
26.1435970232
 30
0.0
 10
-10.8283761239
 20
26.1287322295
 30
0.0
 10
-10.6544150916
 20
26.0936971686
 30
0.0
 10
-10.5590719147
 20
26.063572716
 30
0.0
 10
-10.5359793008
 20
26.0555197463
 30
0.0
 11
-11.5825352666
 21
26.0558465848
 31
0.0
 11
-11.5121563503
 21
26.078095716
 31
0.0
 11
-11.2897987877
 21
26.1237278191
 31
0.0
 11
-11.0582867077
 21
26.1386576214
 31
0.0
 11
-10.8271501679
 21
26.1233960764
 31
0.0
 11
-10.6059073532
 21
26.0776978474
 31
0.0
 11
-10.5359793008
 21
26.0555197463
 31
0.0
  0
SPLINE
  5
4DC
100
AcDbEntity
  8
ASSI
100
AcDbSpline
 62
7
  6
CONTINUOUS
 70
0
 71
3
 72
8
 73
4
 74
2
 42
0.0000001
 43
0.0000001
 44
0.0000000001
 12
0.1347637908
 22
-0.0469954906
 32
0.0
 13
0.1273909096
 23
-0.0636954315
 33
0.0
 40
0.0
 40
0.0
 40
0.0
 40
0.0
 40
1.0
 40
1.0
 40
1.0
 40
1.0
 10
-10.5359793008
 20
26.0555197463
 30
0.0
 10
-10.4910580373
 20
26.0398545828
 30
0.0
 10
-10.4470612268
 20
26.0216182235
 30
0.0
 10
-10.4045975903
 20
26.000386413
 30
0.0
 11
-10.5359793008
 21
26.0555197463
 31
0.0
 11
-10.4045975903
 21
26.000386413
 31
0.0
  0
SPLINE
  5
4DD
100
AcDbEntity
  8
ASSI
100
AcDbSpline
 62
7
  6
CONTINUOUS
 70
0
 71
3
 72
8
 73
4
 74
2
 42
0.0000001
 43
0.0000001
 44
0.0000000001
 12
0.1235944176
 22
0.0609383965
 32
0.0
 13
0.1304183507
 23
0.0453634238
 33
0.0
 40
0.0
 40
0.0
 40
0.0
 40
0.0
 40
1.0
 40
1.0
 40
1.0
 40
1.0
 10
4.2000860019
 20
18.0479360971
 30
0.0
 10
4.2412841411
 20
18.068248896
 30
0.0
 10
4.2838945266
 20
18.0857741552
 30
0.0
 10
4.3273673101
 20
18.1008952964
 30
0.0
 11
4.2000860019
 21
18.0479360971
 31
0.0
 11
4.3273673101
 21
18.1008952964
 31
0.0
  0
SPLINE
  5
4DE
100
AcDbEntity
  8
ASSI
100
AcDbSpline
 62
7
  6
CONTINUOUS
 70
0
 71
3
 72
13
 73
9
 74
7
 42
0.0000001
 43
0.0000001
 44
0.0000000001
 12
1.0065066524
 22
0.3500932773
 32
0.0
 13
1.0062016672
 23
-0.3508875842
 33
0.0
 40
0.0
 40
0.0
 40
0.0
 40
0.0
 40
0.0692727473
 40
0.2827268513
 40
0.5008840833
 40
0.718709236
 40
0.9311491486
 40
1.0
 40
1.0
 40
1.0
 40
1.0
 10
4.3273673101
 20
18.1008952964
 30
0.0
 10
4.3506084705
 20
18.1089792708
 30
0.0
 10
4.4464699448
 20
18.1391684532
 30
0.0
 10
4.6210944233
 20
18.174103521
 30
0.0
 10
4.8515019662
 20
18.1886457349
 30
0.0
 10
5.0815264528
 20
18.1737809411
 30
0.0
 10
5.2554874851
 20
18.1387458803
 30
0.0
 10
5.350830662
 20
18.1086214276
 30
0.0
 10
5.3739232759
 20
18.100568458
 30
0.0
 11
4.3273673101
 21
18.1008952964
 31
0.0
 11
4.3977462264
 21
18.1231444276
 31
0.0
 11
4.620103789
 21
18.1687765308
 31
0.0
 11
4.851615869
 21
18.1837063331
 31
0.0
 11
5.0827524088
 21
18.1684447881
 31
0.0
 11
5.3039952235
 21
18.1227465591
 31
0.0
 11
5.3739232759
 21
18.100568458
 31
0.0
  0
SPLINE
  5
4DF
100
AcDbEntity
  8
ASSI
100
AcDbSpline
 62
7
  6
CONTINUOUS
 70
0
 71
3
 72
8
 73
4
 74
2
 42
0.0000001
 43
0.0000001
 44
0.0000000001
 12
0.1347637908
 22
-0.0469954906
 32
0.0
 13
0.1273909096
 23
-0.0636954315
 33
0.0
 40
0.0
 40
0.0
 40
0.0
 40
0.0
 40
1.0
 40
1.0
 40
1.0
 40
1.0
 10
5.3739232759
 20
18.100568458
 30
0.0
 10
5.4188445394
 20
18.0849032945
 30
0.0
 10
5.4628413499
 20
18.0666669351
 30
0.0
 10
5.5053049864
 20
18.0454351246
 30
0.0
 11
5.3739232759
 21
18.100568458
 31
0.0
 11
5.5053049864
 21
18.0454351246
 31
0.0
  0
SPLINE
  5
4E0
100
AcDbEntity
  8
ASSI
100
AcDbSpline
 62
7
  6
CONTINUOUS
 70
0
 71
3
 72
10
 73
6
 74
4
 42
0.0000001
 43
0.0000001
 44
0.0000000001
 12
-0.1163899141
 22
0.2160302361
 32
0.0
 13
-0.2162219833
 23
0.1179944591
 33
0.0
 40
0.0
 40
0.0
 40
0.0
 40
0.0
 40
0.1087111578
 40
0.7849408613
 40
1.0
 40
1.0
 40
1.0
 40
1.0
 10
14.6702465826
 20
29.2624862396
 30
0.0
 10
14.6660289551
 20
29.2703145386
 30
0.0
 10
14.6341273927
 20
29.3260955181
 30
0.0
 10
14.5796439194
 20
29.3895554873
 30
0.0
 10
14.5178661599
 20
29.4290146151
 30
0.0
 10
14.5023659887
 20
29.4374732106
 30
0.0
 11
14.6702465826
 21
29.2624862396
 31
0.0
 11
14.6569840804
 21
29.2856509364
 31
0.0
 11
14.5469093586
 21
29.4089767287
 31
0.0
 11
14.5023659887
 21
29.4374732106
 31
0.0
  0
SPLINE
  5
4E1
100
AcDbEntity
  8
ASSI
100
AcDbSpline
 62
253
  6
CONTINUOUS
 70
0
 71
3
 72
11
 73
7
 74
5
 42
0.0000001
 43
0.0000001
 44
0.0000000001
 12
0.4068270028
 22
0.1732449031
 32
0.0
 13
0.3922013345
 23
-0.1988950638
 33
0.0
 40
0.0
 40
0.0
 40
0.0
 40
0.0
 40
0.0804585717
 40
0.3623381405
 40
0.6658663004
 40
1.0
 40
1.0
 40
1.0
 40
1.0
 10
1.7394171337
 20
35.4053670267
 30
0.0
 10
1.7503280402
 20
35.4100133725
 30
0.0
 10
1.8004294134
 20
35.428666035
 30
0.0
 10
1.8984829946
 20
35.442998642
 30
0.0
 10
2.0334331566
 20
35.4238571855
 30
0.0
 10
2.1210781259
 20
35.38908834
 30
0.0
 10
2.1647606868
 20
35.3669358255
 30
0.0
 11
1.7394171337
 21
35.4053670267
 31
0.0
 11
1.7727389663
 21
35.4177620032
 31
0.0
 11
1.8952273494
 21
35.4367858036
 31
0.0
 11
2.0275963357
 21
35.4196239747
 31
0.0
 11
2.1647606868
 21
35.3669358255
 31
0.0
  0
SPLINE
  5
4E2
100
AcDbEntity
  8
ASSI
100
AcDbSpline
 62
253
  6
CONTINUOUS
 70
0
 71
3
 72
10
 73
6
 74
4
 42
0.0000001
 43
0.0000001
 44
0.0000000001
 12
-0.0829631482
 22
0.0420455526
 32
0.0
 13
-0.0825509033
 23
-0.0412756274
 33
0.0
 40
0.0
 40
0.0
 40
0.0
 40
0.0
 40
0.0744017811
 40
0.5048254358
 40
1.0
 40
1.0
 40
1.0
 40
1.0
 10
5.5052915125
 20
18.0454085381
 30
0.0
 10
5.5032339772
 20
18.0464512928
 30
0.0
 10
5.4889621049
 20
18.0528703964
 30
0.0
 10
5.4570891431
 20
18.0559943242
 30
0.0
 10
5.4294881014
 20
18.0465675817
 30
0.0
 10
5.4158623988
 20
18.0397547014
 30
0.0
 11
5.5052915125
 21
18.0454085381
 31
0.0
 11
5.4989876677
 21
18.0482382277
 31
0.0
 11
5.4595639243
 21
18.0531282811
 31
0.0
 11
5.4158623988
 21
18.0397547014
 31
0.0
  0
SPLINE
  5
4E3
100
AcDbEntity
  8
ASSI
100
AcDbSpline
 62
7
  6
CONTINUOUS
 70
0
 71
3
 72
9
 73
5
 74
3
 42
0.0000001
 43
0.0000001
 44
0.0000000001
 12
0.0298596612
 22
0.0147174143
 32
0.0
 13
0.0332723555
 23
-0.0010069455
 33
0.0
 40
0.0
 40
0.0
 40
0.0
 40
0.0
 40
0.4165599351
 40
1.0
 40
1.0
 40
1.0
 40
1.0
 10
4.2000842533
 20
18.0479342853
 30
0.0
 10
4.2042303661
 20
18.049977847
 30
0.0
 10
4.2147860362
 20
18.0536700722
 30
0.0
 10
4.2259460885
 20
18.0545635525
 30
0.0
 10
4.2324168969
 20
18.0543677217
 30
0.0
 11
4.2000842533
 21
18.0479342853
 31
0.0
 11
4.2131293783
 21
18.0525682689
 31
0.0
 11
4.2324168969
 21
18.0543677217
 31
0.0
  0
SPLINE
  5
4E4
100
AcDbEntity
  8
ASSI
100
AcDbSpline
 62
7
  6
CONTINUOUS
 70
0
 71
3
 72
9
 73
5
 74
3
 42
0.0000001
 43
0.0000001
 44
0.0000000001
 12
0.0545130051
 22
-0.0016497667
 32
0.0
 13
0.0486545646
 23
-0.0243272823
 33
0.0
 40
0.0
 40
0.0
 40
0.0
 40
0.0
 40
0.4414615411
 40
1.0
 40
1.0
 40
1.0
 40
1.0
 10
4.2324168969
 20
18.0543677217
 30
0.0
 10
4.2404386953
 20
18.0541249522
 30
0.0
 10
4.258469009
 20
18.0510785552
 30
0.0
 10
4.2754330671
 20
18.0442839424
 30
0.0
 10
4.2844915489
 20
18.0397547014
 30
0.0
 11
4.2324168969
 21
18.0543677217
 31
0.0
 11
4.2561502747
 21
18.0507047346
 31
0.0
 11
4.2844915489
 21
18.0397547014
 31
0.0
  0
SPLINE
  5
4E5
100
AcDbEntity
  8
ASSI
100
AcDbSpline
 62
7
  6
CONTINUOUS
 70
0
 71
3
 72
10
 73
6
 74
4
 42
0.0000001
 43
0.0000001
 44
0.0000000001
 12
-0.4048075174
 22
0.2019074052
 32
0.0
 13
-0.404818931
 23
-0.1937552459
 33
0.0
 40
0.0
 40
0.0
 40
0.0
 40
0.0
 40
0.203817079
 40
0.5776715976
 40
1.0
 40
1.0
 40
1.0
 40
1.0
 10
14.4897659537
 20
29.4440503455
 30
0.0
 10
14.4622637251
 20
29.457767738
 30
0.0
 10
14.3796242702
 20
29.4873756479
 30
0.0
 10
14.2264243021
 20
29.4882499727
 30
0.0
 10
14.1118946884
 20
29.4491393613
 30
0.0
 10
14.0549058443
 20
29.4218632468
 30
0.0
 11
14.4897659537
 21
29.4440503455
 31
0.0
 11
14.4032197032
 21
29.4750376855
 31
0.0
 11
14.2354921411
 21
29.4794307929
 31
0.0
 11
14.0549058443
 21
29.4218632468
 31
0.0
  0
SPLINE
  5
4E6
100
AcDbEntity
  8
ASSI
100
AcDbSpline
 62
253
  6
CONTINUOUS
 70
0
 71
3
 72
10
 73
6
 74
4
 42
0.0000001
 43
0.0000001
 44
0.0000000001
 12
-0.404784497
 22
0.201804016
 32
0.0
 13
-0.404758623
 23
-0.1937263812
 33
0.0
 40
0.0
 40
0.0
 40
0.0
 40
0.0
 40
0.2038864153
 40
0.577870313
 40
1.0
 40
1.0
 40
1.0
 40
1.0
 10
2.5995602343
 20
35.3891531318
 30
0.0
 10
2.5720502142
 20
35.4028681643
 30
0.0
 10
2.4893881114
 20
35.4324651721
 30
0.0
 10
2.3362104464
 20
35.4333032693
 30
0.0
 10
2.2217142304
 20
35.3941950444
 30
0.0
 10
2.1647606868
 20
35.3669358255
 30
0.0
 11
2.5995602343
 21
35.3891531318
 31
0.0
 11
2.5129910722
 21
35.4201291395
 31
0.0
 11
2.3452294779
 21
35.4244854194
 31
0.0
 11
2.1647606868
 21
35.3669358255
 31
0.0
  0
SPLINE
  5
4E7
100
AcDbEntity
  8
ASSI
100
AcDbSpline
 62
7
  6
CONTINUOUS
 70
0
 71
3
 72
11
 73
7
 74
5
 42
0.0000001
 43
0.0000001
 44
0.0000000001
 12
0.0044615732
 22
-0.0006948853
 32
0.0
 13
0.0000110157
 23
-0.070775024
 33
0.0
 40
0.0
 40
0.0
 40
0.0
 40
0.0
 40
0.01386546
 40
0.1762166792
 40
0.5217765469
 40
1.0
 40
1.0
 40
1.0
 40
1.0
 10
9.0246114332
 20
19.2652097716
 30
0.0
 10
9.0246320537
 20
19.2652065599
 30
0.0
 10
9.0249040557
 20
19.264741847
 30
0.0
 10
9.0261051516
 20
19.2463275341
 30
0.0
 10
9.0255277208
 20
19.227605422
 30
0.0
 10
9.0258074414
 20
19.2066192076
 30
0.0
 10
9.0258091974
 20
19.1953371154
 30
0.0
 11
9.0246114332
 21
19.2652097716
 31
0.0
 11
9.0246756856
 21
19.2650978032
 31
0.0
 11
9.0255335718
 21
19.2536394617
 31
0.0
 11
9.0257395007
 21
19.2291833205
 31
0.0
 11
9.0258091974
 21
19.1953371154
 31
0.0
  0
SPLINE
  5
4E8
100
AcDbEntity
  8
ASSI
100
AcDbSpline
 62
7
  6
CONTINUOUS
 70
0
 71
3
 72
16
 73
12
 74
10
 42
0.0000001
 43
0.0000001
 44
0.0000000001
 12
1.8399105926
 22
1.6899855655
 32
0.0
 13
2.2293028581
 23
-1.1146512687
 33
0.0
 40
0.0
 40
0.0
 40
0.0
 40
0.0
 40
0.0752752901
 40
0.1753039979
 40
0.2865087706
 40
0.405954128
 40
0.5311521666
 40
0.6586308345
 40
0.7828055998
 40
0.8979168114
 40
1.0
 40
1.0
 40
1.0
 40
1.0
 10
-6.7200713694
 20
29.9037096719
 30
0.0
 10
-6.6739047682
 20
29.9461143898
 30
0.0
 10
-6.5554227156
 20
30.0324117362
 30
0.0
 10
-6.3405479203
 20
30.13727039
 30
0.0
 10
-6.0779542972
 20
30.2206963869
 30
0.0
 10
-5.7867730668
 20
30.2754881347
 30
0.0
 10
-5.4779716777
 20
30.2992199658
 30
0.0
 10
-5.1643690527
 20
30.2913830708
 30
0.0
 10
-4.8618907287
 20
30.2499264411
 30
0.0
 10
-4.5860194965
 20
30.1812347078
 30
0.0
 10
-4.4180692962
 20
30.113146298
 30
0.0
 10
-4.3422111815
 20
30.0752172461
 30
0.0
 11
-6.7200713694
 21
29.9037096719
 31
0.0
 11
-6.5697572465
 21
30.0161443861
 31
0.0
 11
-6.3468394239
 21
30.1277943043
 31
0.0
 11
-6.0832023386
 21
30.2133463129
 31
0.0
 11
-5.7908058735
 21
30.2693420081
 31
0.0
 11
-5.4797199363
 21
30.2938283022
 31
0.0
 11
-5.1621004005
 21
30.2853580132
 31
0.0
 11
-4.8554848002
 21
30.2432190183
 31
0.0
 11
-4.5776178977
 21
30.1717640058
 31
0.0
 11
-4.3422111815
 21
30.0752172461
 31
0.0
  0
SPLINE
  5
4E9
100
AcDbEntity
  8
ASSI
100
AcDbSpline
 62
7
  6
CONTINUOUS
 70
0
 71
3
 72
17
 73
13
 74
11
 42
0.0000001
 43
0.0000001
 44
0.0000000001
 12
1.7398018451
 22
1.8880792291
 32
0.0
 13
2.2866521276
 23
-1.1433258993
 33
0.0
 40
0.0
 40
0.0
 40
0.0
 40
0.0
 40
0.0140878835
 40
0.0984673996
 40
0.1959873859
 40
0.3044031413
 40
0.4208528073
 40
0.5429108773
 40
0.6671923783
 40
0.7882528386
 40
0.9004770593
 40
1.0
 40
1.0
 40
1.0
 40
1.0
 10
-2.5229977477
 20
31.9796342749
 30
0.0
 10
-2.5148277058
 20
31.9885006217
 30
0.0
 10
-2.4561485869
 20
32.0490116501
 30
0.0
 10
-2.3212379412
 20
32.1496056041
 30
0.0
 10
-2.0979072332
 20
32.2585907335
 30
0.0
 10
-1.8353136101
 20
32.3420167305
 30
0.0
 10
-1.5441323797
 20
32.3968084782
 30
0.0
 10
-1.2353309906
 20
32.4205403094
 30
0.0
 10
-0.9217283656
 20
32.4127034144
 30
0.0
 10
-0.6192500416
 20
32.3712467847
 30
0.0
 10
-0.3433788094
 20
32.3025550514
 30
0.0
 10
-0.1754286091
 20
32.2344666415
 30
0.0
 10
-0.0995704944
 20
32.1965375897
 30
0.0
 11
-2.5229977477
 21
31.9796342749
 31
0.0
 11
-2.4978507619
 21
32.0056113356
 31
0.0
 11
-2.3271165594
 21
32.1374647297
 31
0.0
 11
-2.1041987367
 21
32.2491146478
 31
0.0
 11
-1.8405616515
 21
32.3346666564
 31
0.0
 11
-1.5481651863
 21
32.3906623517
 31
0.0
 11
-1.2370792492
 21
32.4151486458
 31
0.0
 11
-0.9194597134
 21
32.4066783567
 31
0.0
 11
-0.6128441131
 21
32.3645393618
 31
0.0
 11
-0.3349772106
 21
32.2930843494
 31
0.0
 11
-0.0995704944
 21
32.1965375897
 31
0.0
  0
SPLINE
  5
4EA
100
AcDbEntity
  8
ASSI
100
AcDbSpline
 62
253
  6
CONTINUOUS
 70
0
 71
3
 72
10
 73
6
 74
4
 42
0.0000001
 43
0.0000001
 44
0.0000000001
 12
-0.0009627138
 22
-0.4685580768
 32
0.0
 13
-0.4141451335
 23
-0.2144299037
 33
0.0
 40
0.0
 40
0.0
 40
0.0
 40
0.0
 40
0.2732995852
 40
0.6021928923
 40
1.0
 40
1.0
 40
1.0
 40
1.0
 10
32.449738603
 20
-11.000396215
 30
0.0
 10
32.4496508999
 20
-11.043081791
 30
0.0
 10
32.4237578386
 20
-11.1373043666
 30
0.0
 10
32.3200327259
 20
-11.2575705779
 30
0.0
 10
32.2240002495
 20
-11.3192303523
 30
0.0
 10
32.1690836236
 20
-11.3476642656
 30
0.0
 11
32.449738603
 21
-11.000396215
 31
0.0
 11
32.418615995
 21
-11.1241158595
 31
0.0
 11
32.3229499179
 21
-11.2440106476
 31
0.0
 11
32.1690836236
 21
-11.3476642656
 31
0.0
  0
SPLINE
  5
4EB
100
AcDbEntity
  8
ASSI
100
AcDbSpline
 62
7
  6
CONTINUOUS
 70
0
 71
3
 72
9
 73
5
 74
3
 42
0.0000001
 43
0.0000001
 44
0.0000000001
 12
0.3518741908
 22
-0.1759375559
 32
0.0
 13
0.2577409018
 23
-0.2989379895
 33
0.0
 40
0.0
 40
0.0
 40
0.0
 40
0.0
 40
0.5696100071
 40
1.0
 40
1.0
 40
1.0
 40
1.0
 10
6.6179439269
 20
28.837780379
 30
0.0
 10
6.6847542803
 20
28.8043751149
 30
0.0
 10
6.7984599638
 20
28.7373682984
 30
0.0
 10
6.8965414161
 20
28.6487789217
 30
0.0
 10
6.9335177844
 20
28.6058922819
 30
0.0
 11
6.6179439269
 21
28.837780379
 31
0.0
 11
6.809220702
 21
28.7210370268
 31
0.0
 11
6.9335177844
 21
28.6058922819
 31
0.0
  0
SPLINE
  5
4EC
100
AcDbEntity
  8
ASSI
100
AcDbSpline
 62
253
  6
CONTINUOUS
 70
0
 71
3
 72
11
 73
7
 74
5
 42
0.0000001
 43
0.0000001
 44
0.0000000001
 12
0.390739127
 22
-0.2021606036
 32
0.0
 13
-0.0063325205
 23
-0.4398930258
 33
0.0
 40
0.0
 40
0.0
 40
0.0
 40
0.0
 40
0.2280085543
 40
0.4859370875
 40
0.7515655008
 40
1.0
 40
1.0
 40
1.0
 40
1.0
 10
8.7467650666
 20
20.1724936198
 30
0.0
 10
8.7764623544
 20
20.1571288374
 30
0.0
 10
8.8329887998
 20
20.111267523
 30
0.0
 10
8.897515622
 20
20.0207435575
 30
0.0
 10
8.9407614668
 20
19.9150906495
 30
0.0
 10
8.9519847687
 20
19.8394016925
 30
0.0
 10
8.9514603632
 20
19.8029734913
 30
0.0
 11
8.7467650666
 21
20.1724936198
 31
0.0
 11
8.8262487487
 21
20.1113021724
 31
0.0
 11
8.893063094
 21
20.0195857553
 31
0.0
 11
8.9370323946
 21
19.9113129269
 31
0.0
 11
8.9514603632
 21
19.8029734913
 31
0.0
  0
SPLINE
  5
4ED
100
AcDbEntity
  8
ASSI
100
AcDbSpline
 62
253
  6
CONTINUOUS
 70
0
 71
3
 72
12
 73
8
 74
6
 42
0.0000001
 43
0.0000001
 44
0.0000000001
 12
-0.401436596
 22
-0.1921363859
 32
0.0
 13
0.0
 23
-0.4450480102
 33
0.0
 40
0.0
 40
0.0
 40
0.0
 40
0.0
 40
0.1800327554
 40
0.3815013846
 40
0.5939293415
 40
0.8042858566
 40
1.0
 40
1.0
 40
1.0
 40
1.0
 10
9.5878241575
 20
20.1599120881
 30
0.0
 10
9.5637335787
 20
20.1483818071
 30
0.0
 10
9.5166980305
 20
20.1154051564
 30
0.0
 10
9.4578166973
 20
20.0490983707
 30
0.0
 10
9.4107905611
 20
19.9686192171
 30
0.0
 10
9.3800967854
 20
19.8816016154
 30
0.0
 10
9.3719899087
 20
19.8212609759
 30
0.0
 10
9.3719899087
 20
19.7922269125
 30
0.0
 11
9.5878241575
 21
20.1599120881
 31
0.0
 11
9.5213927928
 21
20.1151169534
 31
0.0
 11
9.4612378495
 21
20.0486272964
 31
0.0
 11
9.4133781844
 21
19.9670957996
 31
0.0
 11
9.3826024392
 21
19.8786801699
 31
0.0
 11
9.3719899087
 21
19.7922269125
 31
0.0
  0
SPLINE
  5
4EE
100
AcDbEntity
  8
ASSI
100
AcDbSpline
 62
253
  6
CONTINUOUS
 70
0
 71
3
 72
12
 73
8
 74
6
 42
0.0000001
 43
0.0000001
 44
0.0000000001
 12
-0.4014365937
 22
-0.1921363885
 32
0.0
 13
-0.0000000007
 23
-0.4450480092
 33
0.0
 40
0.0
 40
0.0
 40
0.0
 40
0.0
 40
0.1800336637
 40
0.3815027887
 40
0.5939306699
 40
0.8042866232
 40
1.0
 40
1.0
 40
1.0
 40
1.0
 10
14.8277552679
 20
17.5399465329
 30
0.0
 10
14.8036645676
 20
17.5284161936
 30
0.0
 10
14.7566288667
 20
17.4954393802
 30
0.0
 10
14.6977474845
 20
17.4291323733
 30
0.0
 10
14.6507214582
 20
17.348653181
 30
0.0
 10
14.6200278388
 20
17.2616357484
 30
0.0
 10
14.6119210193
 20
17.2012953068
 30
0.0
 10
14.6119210193
 20
17.1722613572
 30
0.0
 11
14.8277552679
 21
17.5399465329
 31
0.0
 11
14.7613235975
 21
17.4951511289
 31
0.0
 11
14.7011685896
 21
17.428661233
 31
0.0
 11
14.6533090454
 21
17.3471297045
 31
0.0
 11
14.6225334708
 21
17.2587142804
 31
0.0
 11
14.6119210193
 21
17.1722613572
 31
0.0
  0
SPLINE
  5
4EF
100
AcDbEntity
  8
ASSI
100
AcDbSpline
 62
253
  6
CONTINUOUS
 70
0
 71
3
 72
9
 73
5
 74
3
 42
0.0000001
 43
0.0000001
 44
0.0000000001
 12
-0.1263428905
 22
0.061050927
 32
0.0
 13
-0.1278034134
 23
-0.0618089528
 33
0.0
 40
0.0
 40
0.0
 40
0.0
 40
0.0
 40
0.6075913928
 40
1.0
 40
1.0
 40
1.0
 40
1.0
 10
14.8350950794
 20
17.1283286134
 30
0.0
 10
14.8095067951
 20
17.1406932859
 30
0.0
 10
14.762584792
 20
17.1545891688
 30
0.0
 10
14.7149221805
 20
17.1434017423
 30
0.0
 10
14.6982051274
 20
17.1353169539
 30
0.0
 11
14.8350950794
 21
17.1283286134
 31
0.0
 11
14.7522145763
 21
17.148319386
 31
0.0
 11
14.6982051274
 21
17.1353169539
 31
0.0
  0
SPLINE
  5
4F0
100
AcDbEntity
  8
ASSI
100
AcDbSpline
 62
7
  6
CONTINUOUS
 70
0
 71
3
 72
9
 73
5
 74
3
 42
0.0000001
 43
0.0000001
 44
0.0000000001
 12
0.2956386339
 22
-0.1478197038
 32
0.0
 13
0.2374347812
 23
-0.2310798472
 33
0.0
 40
0.0
 40
0.0
 40
0.0
 40
0.0
 40
0.677959635
 40
1.0
 40
1.0
 40
1.0
 40
1.0
 10
2.3753032397
 20
26.7164600355
 30
0.0
 10
2.4421135932
 20
26.6830547713
 30
0.0
 10
2.5376471498
 20
26.6267567983
 30
0.0
 10
2.6221514508
 20
26.555223543
 30
0.0
 10
2.647639312
 20
26.5304178635
 30
0.0
 11
2.3753032397
 21
26.7164600355
 31
0.0
 11
2.5665800149
 21
26.5997166832
 31
0.0
 11
2.647639312
 21
26.5304178635
 31
0.0
  0
SPLINE
  5
4F1
100
AcDbEntity
  8
ASSI
100
AcDbSpline
 62
253
  6
CONTINUOUS
 70
0
 71
3
 72
13
 73
9
 74
7
 42
0.0000001
 43
0.0000001
 44
0.0000000001
 12
0.3948390224
 22
0.1740421624
 32
0.0
 13
0.3859335267
 23
-0.1929866338
 33
0.0
 40
0.0
 40
0.0
 40
0.0
 40
0.0
 40
0.1522199467
 40
0.3212093303
 40
0.4993340554
 40
0.6777054974
 40
0.8470363317
 40
1.0
 40
1.0
 40
1.0
 40
1.0
 10
8.9514515496
 20
19.8029696008
 30
0.0
 10
8.9714856746
 20
19.811800497
 30
0.0
 10
9.0157374883
 20
19.8260159222
 30
0.0
 10
9.0868014304
 20
19.8376578345
 30
0.0
 10
9.162533207
 20
19.8403121081
 30
0.0
 10
9.2380794416
 20
19.8337875384
 30
0.0
 10
9.3086465842
 20
19.8185168358
 30
0.0
 10
9.3522852644
 20
19.8020803935
 30
0.0
 10
9.3719632004
 20
19.7922404123
 30
0.0
 11
8.9514515496
 21
19.8029696008
 31
0.0
 11
9.0137555299
 21
19.8237631591
 31
0.0
 11
9.0856494227
 21
19.8359422656
 31
0.0
 11
9.1624579171
 21
19.8387569721
 31
0.0
 11
9.2391289933
 21
19.8320198061
 31
0.0
 11
9.3104600315
 21
19.8161940708
 31
0.0
 11
9.3719632004
 21
19.7922404123
 31
0.0
  0
SPLINE
  5
4F2
100
AcDbEntity
  8
ASSI
100
AcDbSpline
 62
253
  6
CONTINUOUS
 70
0
 71
3
 72
9
 73
5
 74
3
 42
0.0000001
 43
0.0000001
 44
0.0000000001
 12
0.0718695657
 22
-0.035930644
 32
0.0
 13
0.0526400732
 23
-0.0611714046
 33
0.0
 40
0.0
 40
0.0
 40
0.0
 40
0.0
 40
0.6995447438
 40
1.0
 40
1.0
 40
1.0
 40
1.0
 10
14.6119509272
 20
17.172246566
 30
0.0
 10
14.6287095862
 20
17.1638682016
 30
0.0
 10
14.6517321875
 20
17.1497129138
 30
0.0
 10
14.6712738301
 20
17.1309859155
 30
0.0
 10
14.6765458256
 20
17.1248594922
 30
0.0
 11
14.6119509272
 21
17.172246566
 31
0.0
 11
14.6592168138
 21
17.141826462
 31
0.0
 11
14.6765458256
 21
17.1248594922
 31
0.0
  0
SPLINE
  5
4F3
100
AcDbEntity
  8
ASSI
100
AcDbSpline
 62
253
  6
CONTINUOUS
 70
0
 71
3
 72
28
 73
24
 74
22
 42
0.0000001
 43
0.0000001
 44
0.0000000001
 12
-1.0420649319
 22
0.5210324659
 32
0.0
 13
-1.0420649319
 23
-0.5210324659
 33
0.0
 40
0.0
 40
0.0
 40
0.0
 40
0.0
 40
0.0414958189
 40
0.0847166354
 40
0.1295414073
 40
0.175827598
 40
0.2234145554
 40
0.2721265018
 40
0.3217752383
 40
0.3721626388
 40
0.4230829919
 40
0.4743252364
 40
0.5256751276
 40
0.576917364
 40
0.6278377009
 40
0.6782250778
 40
0.7278737836
 40
0.776585693
 40
0.8241726078
 40
0.8704587513
 40
0.9152834725
 40
0.9585042372
 40
1.0
 40
1.0
 40
1.0
 40
1.0
 10
-10.4940401779
 20
25.9947059898
 30
0.0
 10
-10.5084539571
 20
26.0019128794
 30
0.0
 10
-10.538335059
 20
26.0157313512
 30
0.0
 10
-10.5851043113
 20
26.0343247751
 30
0.0
 10
-10.6345166291
 20
26.0511229515
 30
0.0
 10
-10.6862957838
 20
26.0660317842
 30
0.0
 10
-10.7401548727
 20
26.078968769
 30
0.0
 10
-10.7957942717
 20
26.0898617932
 30
0.0
 10
-10.8529044007
 20
26.0986501357
 30
0.0
 10
-10.9111672127
 20
26.1052847257
 30
0.0
 10
-10.9702580988
 20
26.1097284963
 30
0.0
 10
-11.0298477222
 20
26.1119566067
 30
0.0
 10
-11.0896039044
 20
26.1119565988
 30
0.0
 10
-11.1491935178
 20
26.1097284731
 30
0.0
 10
-11.2082843842
 20
26.1052846885
 30
0.0
 10
-11.2665471674
 20
26.0986500869
 30
0.0
 10
-11.3236572592
 20
26.089861736
 30
0.0
 10
-11.3792966136
 20
26.0789687073
 30
0.0
 10
-11.4331556519
 20
26.0660317228
 30
0.0
 10
-11.4849347515
 20
26.0511228958
 30
0.0
 10
-11.5343470117
 20
26.034324731
 30
0.0
 10
-11.5811162048
 20
26.0157313251
 30
0.0
 10
-11.610997268
 20
26.0019128697
 30
0.0
 10
-11.6254110278
 20
25.9947059898
 30
0.0
 11
-10.4940401779
 21
25.9947059898
 31
0.0
 11
-10.5378957053
 21
26.0150519801
 31
0.0
 11
-10.5846695146
 21
26.0337024114
 31
0.0
 11
-10.6341000314
 21
26.0505529852
 31
0.0
 11
-10.685910818
 21
26.0655094658
 31
0.0
 11
-10.7398121267
 21
26.0784882109
 31
0.0
 11
-10.7955025189
 21
26.0894166384
 31
0.0
 11
-10.8526705509
 21
26.0982336325
 31
0.0
 11
-10.9109965154
 21
26.1048898854
 31
0.0
 11
-10.9701542297
 21
26.109348173
 31
0.0
 11
-11.0298128597
 21
26.1115835632
 31
0.0
 11
-11.08963877
 21
26.1115835553
 31
0.0
 11
-11.1492973899
 21
26.1093481496
 31
0.0
 11
-11.2084550844
 21
26.1048898481
 31
0.0
 11
-11.2667810199
 21
26.0982335836
 31
0.0
 11
-11.3239490144
 21
26.0894165811
 31
0.0
 11
-11.3796393617
 21
26.0784881492
 31
0.0
 11
-11.4335406195
 21
26.0655094046
 31
0.0
 11
-11.4853513505
 21
26.0505529298
 31
0.0
 11
-11.534781809
 21
26.0337023679
 31
0.0
 11
-11.5815555604
 21
26.0150519543
 31
0.0
 11
-11.6254110278
 21
25.9947059898
 31
0.0
  0
SPLINE
  5
4F4
100
AcDbEntity
  8
ASSI
100
AcDbSpline
 62
253
  6
CONTINUOUS
 70
0
 71
3
 72
28
 73
24
 74
22
 42
0.0000001
 43
0.0000001
 44
0.0000000001
 12
-1.0420649319
 22
0.5210324659
 32
0.0
 13
-1.0420649319
 23
-0.5210324659
 33
0.0
 40
0.0
 40
0.0
 40
0.0
 40
0.0
 40
0.0414958189
 40
0.0847166354
 40
0.1295414073
 40
0.175827598
 40
0.2234145554
 40
0.2721265018
 40
0.3217752383
 40
0.3721626388
 40
0.4230829919
 40
0.4743252364
 40
0.5256751276
 40
0.576917364
 40
0.6278377009
 40
0.6782250778
 40
0.7278737836
 40
0.776585693
 40
0.8241726078
 40
0.8704587513
 40
0.9152834725
 40
0.9585042372
 40
1.0
 40
1.0
 40
1.0
 40
1.0
 10
5.4158623988
 20
18.0397547014
 30
0.0
 10
5.4014486196
 20
18.046961591
 30
0.0
 10
5.3715675177
 20
18.0607800629
 30
0.0
 10
5.3247982654
 20
18.0793734868
 30
0.0
 10
5.2753859476
 20
18.0961716631
 30
0.0
 10
5.2236067928
 20
18.1110804958
 30
0.0
 10
5.169747704
 20
18.1240174806
 30
0.0
 10
5.114108305
 20
18.1349105049
 30
0.0
 10
5.056998176
 20
18.1436988474
 30
0.0
 10
4.998735364
 20
18.1503334373
 30
0.0
 10
4.9396444779
 20
18.154777208
 30
0.0
 10
4.8800548545
 20
18.1570053184
 30
0.0
 10
4.8202986723
 20
18.1570053105
 30
0.0
 10
4.7607090589
 20
18.1547771847
 30
0.0
 10
4.7016181925
 20
18.1503334002
 30
0.0
 10
4.6433554092
 20
18.1436987986
 30
0.0
 10
4.5862453175
 20
18.1349104476
 30
0.0
 10
4.5306059631
 20
18.1240174189
 30
0.0
 10
4.4767469248
 20
18.1110804345
 30
0.0
 10
4.4249678252
 20
18.0961716075
 30
0.0
 10
4.375555565
 20
18.0793734426
 30
0.0
 10
4.3287863719
 20
18.0607800368
 30
0.0
 10
4.2989053087
 20
18.0469615813
 30
0.0
 10
4.2844915489
 20
18.0397547014
 30
0.0
 11
5.4158623988
 21
18.0397547014
 31
0.0
 11
5.3720068714
 21
18.0601006918
 31
0.0
 11
5.3252330621
 21
18.0787511231
 31
0.0
 11
5.2758025453
 21
18.0956016969
 31
0.0
 11
5.2239917587
 21
18.1105581775
 31
0.0
 11
5.17009045
 21
18.1235369226
 31
0.0
 11
5.1144000578
 21
18.1344653501
 31
0.0
 11
5.0572320258
 21
18.1432823441
 31
0.0
 11
4.9989060613
 21
18.149938597
 31
0.0
 11
4.939748347
 21
18.1543968846
 31
0.0
 11
4.880089717
 21
18.1566322748
 31
0.0
 11
4.8202638067
 21
18.1566322669
 31
0.0
 11
4.7606051868
 21
18.1543968613
 31
0.0
 11
4.7014474923
 21
18.1499385597
 31
0.0
 11
4.6431215568
 21
18.1432822952
 31
0.0
 11
4.5859535623
 21
18.1344652927
 31
0.0
 11
4.530263215
 21
18.1235368609
 31
0.0
 11
4.4763619572
 21
18.1105581162
 31
0.0
 11
4.4245512262
 21
18.0956016415
 31
0.0
 11
4.3751207677
 21
18.0787510796
 31
0.0
 11
4.3283470163
 21
18.0601006659
 31
0.0
 11
4.2844915489
 21
18.0397547014
 31
0.0
  0
SPLINE
  5
4F5
100
AcDbEntity
  8
ASSI
100
AcDbSpline
 62
7
  6
CONTINUOUS
 70
0
 71
3
 72
13
 73
9
 74
7
 42
0.0000001
 43
0.0000001
 44
0.0000000001
 12
0.3419835893
 22
0.6973157254
 32
0.0
 13
0.6988440198
 23
-0.3474758251
 33
0.0
 40
0.0
 40
0.0
 40
0.0
 40
0.0
 40
0.1420307208
 40
0.355507484
 40
0.5525043869
 40
0.7265768538
 40
0.8774259788
 40
1.0
 40
1.0
 40
1.0
 40
1.0
 10
7.9123546234
 20
24.5231727487
 30
0.0
 10
7.9285453486
 20
24.5561861671
 30
0.0
 10
7.9737386197
 20
24.6365352806
 30
0.0
 10
8.0612845555
 20
24.750414658
 30
0.0
 10
8.1756506942
 20
24.8509721712
 30
0.0
 10
8.2965651543
 20
24.9144392734
 30
0.0
 10
8.4133394388
 20
24.9341401197
 30
0.0
 10
8.4841494877
 20
24.9162998329
 30
0.0
 10
8.5127028616
 20
24.9021026632
 30
0.0
 11
7.9123546234
 21
24.5231727487
 31
0.0
 11
7.9664339192
 21
24.6192585301
 31
0.0
 11
8.0680255373
 21
24.7500267988
 31
0.0
 11
8.1839033269
 21
24.8496423466
 31
0.0
 11
8.3046757202
 21
24.9100285432
 31
0.0
 11
8.4205535098
 21
24.9262907851
 31
0.0
 11
8.5127028616
 21
24.9021026632
 31
0.0
  0
SPLINE
  5
4F6
100
AcDbEntity
  8
ASSI
100
AcDbSpline
 62
253
  6
CONTINUOUS
 70
0
 71
3
 72
11
 73
7
 74
5
 42
0.0000001
 43
0.0000001
 44
0.0000000001
 12
0.0026992355
 22
-0.9404761207
 32
0.0
 13
-0.6090644892
 23
-0.7201118027
 33
0.0
 40
0.0
 40
0.0
 40
0.0
 40
0.0
 40
0.2790400935
 40
0.5381052248
 40
0.7775965177
 40
1.0
 40
1.0
 40
1.0
 40
1.0
 10
32.1690836236
 20
-11.3476642659
 30
0.0
 10
32.1693346886
 20
-11.4351411141
 30
0.0
 10
32.1593340836
 20
-11.604157313
 30
0.0
 10
32.1091233425
 20
-11.8437097113
 30
0.0
 10
32.0249664873
 20
-12.0549227534
 30
0.0
 10
31.9448322233
 20
-12.176828243
 30
0.0
 10
31.8996795355
 20
-12.2302133672
 30
0.0
 11
32.1690836236
 21
-11.3476642659
 31
0.0
 11
32.1523085912
 21
-11.6095591997
 31
0.0
 11
32.1008381229
 21
-11.8477061213
 31
0.0
 11
32.0159234623
 21
-12.0563232415
 31
0.0
 11
31.8996795355
 21
-12.2302133672
 31
0.0
  0
SPLINE
  5
4F7
100
AcDbEntity
  8
ASSI
100
AcDbSpline
 62
7
  6
CONTINUOUS
 70
0
 71
3
 72
13
 73
9
 74
7
 42
0.0000001
 43
0.0000001
 44
0.0000000001
 12
-0.6988440198
 22
0.3474758251
 32
0.0
 13
-0.3419835893
 23
-0.6973157254
 33
0.0
 40
0.0
 40
0.0
 40
0.0
 40
0.0
 40
0.1225740212
 40
0.2734231462
 40
0.4474956131
 40
0.644492516
 40
0.8579692792
 40
1.0
 40
1.0
 40
1.0
 40
1.0
 10
7.8055960804
 20
25.2556560538
 30
0.0
 10
7.7770427065
 20
25.2698532235
 30
0.0
 10
7.7062326576
 20
25.2876935102
 30
0.0
 10
7.5894583731
 20
25.267992664
 30
0.0
 10
7.468543913
 20
25.2045255618
 30
0.0
 10
7.3541777743
 20
25.1039680486
 30
0.0
 10
7.2666318385
 20
24.9900886711
 30
0.0
 10
7.2214385674
 20
24.9097395577
 30
0.0
 10
7.2052478422
 20
24.8767261393
 30
0.0
 11
7.8055960804
 21
25.2556560538
 31
0.0
 11
7.7134467287
 21
25.2798441756
 31
0.0
 11
7.597568939
 21
25.2635819338
 31
0.0
 11
7.4767965458
 21
25.2031957372
 31
0.0
 11
7.3609187561
 21
25.1035801894
 31
0.0
 11
7.259327138
 21
24.9728119207
 31
0.0
 11
7.2052478422
 21
24.8767261393
 31
0.0
  0
SPLINE
  5
4F8
100
AcDbEntity
  8
ASSI
100
AcDbSpline
 62
253
  6
CONTINUOUS
 70
0
 71
3
 72
10
 73
6
 74
4
 42
0.0000001
 43
0.0000001
 44
0.0000000001
 12
-0.0829631482
 22
0.0420455526
 32
0.0
 13
-0.0825509033
 23
-0.0412756274
 33
0.0
 40
0.0
 40
0.0
 40
0.0
 40
0.0
 40
0.0744017811
 40
0.5048254358
 40
1.0
 40
1.0
 40
1.0
 40
1.0
 10
-10.4046110641
 20
26.0003598264
 30
0.0
 10
-10.4066685995
 20
26.0014025811
 30
0.0
 10
-10.4209404718
 20
26.0078216848
 30
0.0
 10
-10.4528134336
 20
26.0109456125
 30
0.0
 10
-10.4804144753
 20
26.0015188701
 30
0.0
 10
-10.4940401779
 20
25.9947059898
 30
0.0
 11
-10.4046110641
 21
26.0003598264
 31
0.0
 11
-10.410914909
 21
26.003189516
 31
0.0
 11
-10.4503386524
 21
26.0080795694
 31
0.0
 11
-10.4940401779
 21
25.9947059898
 31
0.0
  0
SPLINE
  5
4F9
100
AcDbEntity
  8
ASSI
100
AcDbSpline
 62
7
  6
CONTINUOUS
 70
0
 71
3
 72
9
 73
5
 74
3
 42
0.0000001
 43
0.0000001
 44
0.0000000001
 12
0.0298596612
 22
0.0147174143
 32
0.0
 13
0.0332723555
 23
-0.0010069455
 33
0.0
 40
0.0
 40
0.0
 40
0.0
 40
0.0
 40
0.4165599351
 40
1.0
 40
1.0
 40
1.0
 40
1.0
 10
-11.7098183234
 20
26.0028855736
 30
0.0
 10
-11.7056722106
 20
26.0049291353
 30
0.0
 10
-11.6951165405
 20
26.0086213605
 30
0.0
 10
-11.6839564882
 20
26.0095148409
 30
0.0
 10
-11.6774856798
 20
26.0093190101
 30
0.0
 11
-11.7098183234
 21
26.0028855736
 31
0.0
 11
-11.6967731984
 21
26.0075195572
 31
0.0
 11
-11.6774856798
 21
26.0093190101
 31
0.0
  0
SPLINE
  5
4FA
100
AcDbEntity
  8
ASSI
100
AcDbSpline
 62
7
  6
CONTINUOUS
 70
0
 71
3
 72
9
 73
5
 74
3
 42
0.0000001
 43
0.0000001
 44
0.0000000001
 12
0.0545130051
 22
-0.0016497667
 32
0.0
 13
0.0486545646
 23
-0.0243272823
 33
0.0
 40
0.0
 40
0.0
 40
0.0
 40
0.0
 40
0.4414615411
 40
1.0
 40
1.0
 40
1.0
 40
1.0
 10
-11.6774856798
 20
26.0093190101
 30
0.0
 10
-11.6694638814
 20
26.0090762406
 30
0.0
 10
-11.6514335677
 20
26.0060298435
 30
0.0
 10
-11.6344695096
 20
25.9992352307
 30
0.0
 10
-11.6254110278
 20
25.9947059898
 30
0.0
 11
-11.6774856798
 21
26.0093190101
 31
0.0
 11
-11.653752302
 21
26.0056560229
 31
0.0
 11
-11.6254110278
 21
25.9947059898
 31
0.0
  0
SPLINE
  5
4FB
100
AcDbEntity
  8
ASSI
100
AcDbSpline
 62
253
  6
CONTINUOUS
 70
0
 71
3
 72
13
 73
9
 74
7
 42
0.0000001
 43
0.0000001
 44
0.0000000001
 12
0.5018684592
 22
-0.2507483464
 32
0.0
 13
-0.502592054
 23
-0.249294827
 33
0.0
 40
0.0
 40
0.0
 40
0.0
 40
0.0
 40
0.2008318057
 40
0.3656935445
 40
0.505011707
 40
0.6427653924
 40
0.8034827713
 40
1.0
 40
1.0
 40
1.0
 40
1.0
 10
14.8277552679
 20
17.5399465329
 30
0.0
 10
14.8613523175
 20
17.5231604519
 30
0.0
 10
14.9200889138
 20
17.4868816341
 30
0.0
 10
14.9851677709
 20
17.4159286411
 30
0.0
 10
15.0111179546
 20
17.3334764756
 30
0.0
 10
14.9884260071
 20
17.2507260981
 30
0.0
 10
14.925441801
 20
17.180100011
 30
0.0
 10
14.8680177452
 20
17.1446588562
 30
0.0
 10
14.8350950794
 20
17.1283286134
 30
0.0
 11
14.8277552679
 21
17.5399465329
 31
0.0
 11
14.9223644118
 21
17.478758967
 31
0.0
 11
14.9821916784
 21
17.4082230049
 31
0.0
 11
15.003465338
 21
17.333013145
 31
0.0
 11
14.9848218473
 21
17.2580126262
 31
0.0
 11
14.9275747109
 21
17.1883513307
 31
0.0
 11
14.8350950794
 21
17.1283286134
 31
0.0
  0
SPLINE
  5
4FC
100
AcDbEntity
  8
ASSI
100
AcDbSpline
 62
253
  6
CONTINUOUS
 70
0
 71
3
 72
13
 73
9
 74
7
 42
0.0000001
 43
0.0000001
 44
0.0000000001
 12
0.7842565631
 22
0.3621114247
 32
0.0
 13
0.7725209813
 23
-0.3865156843
 33
0.0
 40
0.0
 40
0.0
 40
0.0
 40
0.0
 40
0.1528836291
 40
0.3221117631
 40
0.500141459
 40
0.6782168772
 40
0.8471993223
 40
1.0
 40
1.0
 40
1.0
 40
1.0
 10
8.7467650666
 20
20.1724936198
 30
0.0
 10
8.7867317297
 20
20.190947256
 30
0.0
 10
8.8750875759
 20
20.2209768379
 30
0.0
 10
9.0172395072
 20
20.2464104076
 30
0.0
 10
9.1687459511
 20
20.2535533745
 30
0.0
 10
9.3199046048
 20
20.2419127088
 30
0.0
 10
9.4611497617
 20
20.2122530631
 30
0.0
 10
9.5484769144
 20
20.1795987076
 30
0.0
 10
9.5878241575
 20
20.1599120881
 30
0.0
 11
8.7467650666
 21
20.1724936198
 31
0.0
 11
8.8713241911
 21
20.2163782662
 31
0.0
 11
9.0150823872
 21
20.2428903644
 31
0.0
 11
9.168685824
 21
20.2503694548
 31
0.0
 11
9.3220376928
 21
20.2383151516
 31
0.0
 11
9.464729678
 21
20.2075530987
 31
0.0
 11
9.5878241575
 21
20.1599120881
 31
0.0
  0
ELLIPSE
  5
4FD
100
AcDbEntity
  8
RACCORDO
100
AcDbEllipse
 62
7
  6
CONTINUOUS
 10
31.3889109016
 20
18.35055534
 30
0.0
 11
1.0000183804
 21
0.0000253779
 31
0.0
 40
0.500000664
 41
-0.7679765927
 42
0.0033818616
  0
ELLIPSE
  5
4FE
100
AcDbEntity
  8
RACCORDO
100
AcDbEllipse
 62
7
  6
CONTINUOUS
 10
27.1132813191
 20
15.7768941835
 30
0.0
 11
0.5000091902
 21
0.0000126889
 31
0.0
 40
0.500000664
 41
-2.3562255473
 42
-0.7679765927
  0
ELLIPSE
  5
4FF
100
AcDbEntity
  8
ASSI
100
AcDbEllipse
 62
7
  6
CONTINUOUS
 10
-23.3632624
 20
25.4760413106
 30
0.0
 11
-0.2236507175
 21
0.4481039483
 31
0.0
 40
0.6114248242
 41
-0.6832297371
 42
0.0439843789
  0
ELLIPSE
  5
500
100
AcDbEntity
  8
ASSI
100
AcDbEllipse
 62
7
  6
CONTINUOUS
 10
7.2542188345
 20
10.1673006934
 30
0.0
 11
-0.2231080361
 21
0.4476242326
 31
0.0
 40
0.6130677323
 41
-2.2534169372
 42
-0.6839906064
  0
ELLIPSE
  5
501
100
AcDbEntity
  8
ASSI
100
AcDbEllipse
 62
7
  6
CONTINUOUS
 10
6.1914119724
 20
-27.6816145547
 30
0.0
 11
-0.1957286549
 21
0.4601190624
 31
0.0
 40
0.6419488884
 41
-3.1487887619
 42
-2.2185641814
  0
ELLIPSE
  5
502
100
AcDbEntity
  8
0
100
AcDbEllipse
 62
253
  6
CONTINUOUS
 10
333.1245001397
 20
177.1302486872
 30
0.0
 11
-370.8956999625
 21
600.1218488205
 31
0.0
 40
0.5587454355
 41
1.5414583904
 42
1.5504613484
  0
ELLIPSE
  5
503
100
AcDbEntity
  8
0
100
AcDbEllipse
 62
253
  6
CONTINUOUS
 10
347.9737425447
 20
169.7056274848
 30
0.0
 11
499.3666179528
 21
308.6255427419
 31
0.0
 40
0.0815198604
 41
2.3268565538
 42
2.3358595118
  0
ELLIPSE
  5
504
100
AcDbEntity
  8
0
100
AcDbEllipse
 62
253
  6
CONTINUOUS
 10
346.4737425447
 20
170.4556274848
 30
0.0
 11
499.3666179528
 21
308.6255427419
 31
0.0
 40
0.0815198604
 41
2.3226131537
 42
2.3316152182
  0
ELLIPSE
  5
505
100
AcDbEntity
  8
0
100
AcDbEllipse
 62
253
  6
CONTINUOUS
 10
334.6245001397
 20
176.3802486872
 30
0.0
 11
-370.8956999625
 21
600.1218488205
 31
0.0
 40
0.5587454355
 41
1.5372149903
 42
1.5462170548
  0
ELLIPSE
  5
506
100
AcDbEntity
  8
RACCORDO
100
AcDbEllipse
 62
7
  6
CONTINUOUS
 10
-23.3632624
 20
25.4760413106
 30
0.0
 11
-0.2236507175
 21
0.4481039483
 31
0.0
 40
0.6114248242
 41
-0.6832297371
 42
0.0437621273
  0
ELLIPSE
  5
507
100
AcDbEntity
  8
RACCORDO
100
AcDbEllipse
 62
7
  6
CONTINUOUS
 10
7.2542188345
 20
10.1673006934
 30
0.0
 11
-0.2231080361
 21
0.4476242326
 31
0.0
 40
0.6130677323
 41
-2.2534169372
 42
-0.6839906064
  0
ELLIPSE
  5
508
100
AcDbEntity
  8
RACCORDO
100
AcDbEllipse
 62
7
  6
CONTINUOUS
 10
6.1914119724
 20
-27.6816145547
 30
0.0
 11
-0.1957286549
 21
0.4601190624
 31
0.0
 40
0.6419488884
 41
-3.149104814
 42
-2.2185641814
  0
ELLIPSE
  5
509
100
AcDbEntity
  8
PORTATASTO
100
AcDbEllipse
 62
7
  6
CONTINUOUS
 10
9.8644508302
 20
-26.286105405
 30
0.0
 11
-0.2236315662
 21
0.4472293059
 31
0.0
 40
0.6123445654
 41
-3.1338003475
 42
-2.2555748796
  0
ELLIPSE
  5
50A
100
AcDbEntity
  8
PORTATASTO
100
AcDbEllipse
 62
7
  6
CONTINUOUS
 10
9.8644508302
 20
11.5491133074
 30
0.0
 11
-0.223611546
 21
0.4472115081
 31
0.0
 40
0.6124054886
 41
-2.2555017776
 42
-0.6847562194
  0
ELLIPSE
  5
50B
100
AcDbEntity
  8
PORTATASTO
100
AcDbEllipse
 62
7
  6
CONTINUOUS
 10
-19.5803647394
 20
28.3550248099
 30
0.0
 11
-0.1118022285
 21
0.2236074604
 31
0.0
 40
0.6123888851
 41
-2.2554957904
 42
-0.684726879
  0
ELLIPSE
  5
50C
100
AcDbEntity
  8
PORTATASTO
100
AcDbEllipse
 62
7
  6
CONTINUOUS
 10
-6.2337242445
 20
21.6817045624
 30
0.0
 11
-0.1118022285
 21
0.2236074604
 31
0.0
 40
0.6123888851
 41
-2.2554957904
 42
-0.684726879
  0
ELLIPSE
  5
50D
100
AcDbEntity
  8
PORTATASTO
100
AcDbEllipse
 62
7
  6
CONTINUOUS
 10
-4.3447659846
 20
25.2413856126
 30
0.0
 11
0.4547905863
 21
0.8906238433
 31
0.0
 40
0.6079814556
 41
0.0051486949
 42
0.6840559135
  0
ELLIPSE
  5
50E
100
AcDbEntity
  8
PORTATASTO
100
AcDbEllipse
 62
7
  6
CONTINUOUS
 10
-12.2905131937
 20
29.2142592172
 30
0.0
 11
1.004787277
 21
0.6140102217
 31
0.0
 40
0.0864918533
 41
0.0543764479
 42
0.7329085821
  0
ELLIPSE
  5
50F
100
AcDbEntity
  8
PORTATASTO
100
AcDbEllipse
 62
7
  6
CONTINUOUS
 10
9.6761783322
 20
-28.2754728738
 30
0.0
 11
-0.1118076343
 21
0.2236122655
 31
0.0
 40
0.6123559867
 41
-3.1472533326
 42
-2.2555352685
  0
ELLIPSE
  5
510
100
AcDbEntity
  8
PORTATASTO
100
AcDbEllipse
 62
7
  6
CONTINUOUS
 10
9.6761783322
 20
13.7267532741
 30
0.0
 11
-0.1118022285
 21
0.2236074604
 31
0.0
 40
0.6123888851
 41
-2.2554957904
 42
-0.684726879
  0
ELLIPSE
  5
511
100
AcDbEntity
  8
PORTATASTO
100
AcDbEllipse
 62
7
  6
CONTINUOUS
 10
-3.6704621627
 20
20.4000735215
 30
0.0
 11
-0.1118022285
 21
0.2236074604
 31
0.0
 40
0.6123888851
 41
-2.2554957904
 42
-0.684726879
  0
ELLIPSE
  5
512
100
AcDbEntity
  8
PORTATASTO
100
AcDbEllipse
 62
7
  6
CONTINUOUS
 10
8.4210686421
 20
14.3543081191
 30
0.0
 11
-0.1118076343
 21
0.2236122655
 31
0.0
 40
0.6123559867
 41
-0.6847115264
 42
0.0057513703
  0
ELLIPSE
  5
513
100
AcDbEntity
  8
PORTATASTO
100
AcDbEllipse
 62
7
  6
CONTINUOUS
 10
-4.9255718528
 20
21.0276283666
 30
0.0
 11
-0.1118076343
 21
0.2236122655
 31
0.0
 40
0.6123559867
 41
-0.6847115264
 42
0.0057513703
  0
ELLIPSE
  5
514
100
AcDbEntity
  8
PORTATASTO
100
AcDbEllipse
 62
7
  6
CONTINUOUS
 10
15.1503508951
 20
15.5924617969
 30
0.0
 11
0.499996712
 21
0.0035883639
 31
0.0
 40
0.5053247124
 41
-0.7715714568
 42
-0.0036366941
  0
ELLIPSE
  5
515
100
AcDbEntity
  8
PORTATASTO
100
AcDbEllipse
 62
7
  6
CONTINUOUS
 10
-6.4433778141
 20
25.5305297502
 30
0.0
 11
0.2273952932
 21
0.4453119217
 31
0.0
 40
0.6079814556
 41
0.5218181359
 42
0.6794017021
  0
ELLIPSE
  5
516
100
AcDbEntity
  8
PORTATASTO
100
AcDbEllipse
 62
7
  6
CONTINUOUS
 10
9.4665247626
 20
17.5755784618
 30
0.0
 11
0.2273952932
 21
0.4453119217
 31
0.0
 40
0.6079814556
 41
0.5218181359
 42
0.6794017021
  0
ELLIPSE
  5
517
100
AcDbEntity
  8
PORTATASTO
100
AcDbEllipse
 62
7
  6
CONTINUOUS
 10
-7.4888339346
 20
22.3092594075
 30
0.0
 11
-0.1118076343
 21
0.2236122655
 31
0.0
 40
0.6123559867
 41
-0.6847115264
 42
0.0057513703
  0
ELLIPSE
  5
518
100
AcDbEntity
  8
PORTATASTO
100
AcDbEllipse
 62
7
  6
CONTINUOUS
 10
-20.8354744295
 20
28.9825796549
 30
0.0
 11
-0.1118076343
 21
0.2236122655
 31
0.0
 40
0.6123559867
 41
-0.6847115264
 42
0.0057513703
  0
ELLIPSE
  5
519
100
AcDbEntity
  8
PORTATASTO
100
AcDbEllipse
 62
7
  6
CONTINUOUS
 10
-17.3474174545
 20
25.781380722
 30
0.0
 11
0.499998833
 21
0.002146795
 31
0.0
 40
0.5031994763
 41
2.359269944
 42
3.0001556252
  0
ELLIPSE
  5
51A
100
AcDbEntity
  8
PORTATASTO
100
AcDbEllipse
 62
7
  6
CONTINUOUS
 10
-1.4375148778
 20
17.8264294337
 30
0.0
 11
0.499998833
 21
0.002146795
 31
0.0
 40
0.5031994763
 41
2.359269944
 42
3.0001556252
  0
ELLIPSE
  5
51B
100
AcDbEntity
  8
PORTATASTO
100
AcDbEllipse
 62
7
  6
CONTINUOUS
 10
-0.7595516816
 20
23.5474130852
 30
0.0
 11
0.499996712
 21
0.0035883639
 31
0.0
 40
0.5053247124
 41
-0.7715714568
 42
-0.0036366941
  0
ELLIPSE
  5
51C
100
AcDbEntity
  8
PORTATASTO
100
AcDbEllipse
 62
7
  6
CONTINUOUS
 10
-12.0256092606
 20
28.3216454735
 30
0.0
 11
0.225491203
 21
0.4462695109
 31
0.0
 40
0.6155720462
 41
0.5148055967
 42
0.6768420768
  0
ELLIPSE
  5
51D
100
AcDbEntity
  8
PORTATASTO
100
AcDbEllipse
 62
7
  6
CONTINUOUS
 10
3.8842933161
 20
20.3666941851
 30
0.0
 11
0.225491203
 21
0.4462695109
 31
0.0
 40
0.6155720462
 41
0.5148055967
 42
0.6768420768
  0
ELLIPSE
  5
51E
100
AcDbEntity
  8
PORTATASTO
100
AcDbEllipse
 62
7
  6
CONTINUOUS
 10
3.619389383
 20
21.2593079288
 30
0.0
 11
1.004787277
 21
0.6140102217
 31
0.0
 40
0.0864918533
 41
0.0543764479
 42
0.7329085821
  0
ELLIPSE
  5
51F
100
AcDbEntity
  8
PORTATASTO
100
AcDbEllipse
 62
7
  6
CONTINUOUS
 10
11.5651365921
 20
17.2864343243
 30
0.0
 11
0.4547905863
 21
0.8906238433
 31
0.0
 40
0.6079814556
 41
0.0051486949
 42
0.6840559135
  0
ELLIPSE
  5
520
100
AcDbEntity
  8
PORTATASTO
100
AcDbEllipse
 62
7
  6
CONTINUOUS
 10
15.2733527202
 20
-21.4360846241
 30
0.0
 11
0.9927147821
 21
0.620457446
 31
0.0
 40
0.0764819879
 41
-2.4043514965
 42
-1.2416847052
  0
ELLIPSE
  5
521
100
AcDbEntity
  8
PORTATASTO
100
AcDbEllipse
 62
7
  6
CONTINUOUS
 10
15.1503508951
 20
-21.599344784
 30
0.0
 11
0.499443764
 21
0.3120915671
 31
0.0
 40
0.0755486457
 41
6.0235428442
 42
7.0039564932
  0
ELLIPSE
  5
522
100
AcDbEntity
  8
PORTATASTO
100
AcDbEllipse
 62
7
  6
CONTINUOUS
 10
15.1503508951
 20
16.4256950264
 30
0.0
 11
-0.3739417019
 21
0.598522373
 31
0.0
 40
0.554557473
 41
-3.1836090632
 42
-2.2031954143
  0
ELLIPSE
  5
523
100
AcDbEntity
  8
PORTATASTO
100
AcDbEllipse
 62
7
  6
CONTINUOUS
 10
-10.9890515488
 20
26.6914653596
 30
0.0
 11
1.0201448544
 21
-0.0048230743
 31
0.0
 40
0.4964289597
 41
1.3059116217
 42
2.3584907469
  0
ELLIPSE
  5
524
100
AcDbEntity
  8
PORTATASTO
100
AcDbEllipse
 62
7
  6
CONTINUOUS
 10
-11.4334327044
 20
28.0255571954
 30
0.0
 11
0.2197467797
 21
0.4491356978
 31
0.0
 40
0.6167074461
 41
0.5113450335
 42
0.6689285998
  0
ELLIPSE
  5
525
100
AcDbEntity
  8
PORTATASTO
100
AcDbEllipse
 62
7
  6
CONTINUOUS
 10
4.9208510279
 20
18.7365140713
 30
0.0
 11
1.0201448544
 21
-0.0048230743
 31
0.0
 40
0.4964289597
 41
1.3059116217
 42
2.3584907469
  0
ELLIPSE
  5
526
100
AcDbEntity
  8
PORTATASTO
100
AcDbEllipse
 62
7
  6
CONTINUOUS
 10
4.4764698723
 20
20.070605907
 30
0.0
 11
0.2197467797
 21
0.4491356978
 31
0.0
 40
0.6167074461
 41
0.5113450335
 42
0.6689285998
  0
ELLIPSE
  5
527
100
AcDbEntity
  8
PORTATASTO
100
AcDbEllipse
 62
7
  6
CONTINUOUS
 10
15.2733527202
 20
15.4323262602
 30
0.0
 11
-0.7356038977
 21
1.2035991204
 31
0.0
 40
0.5552491559
 41
5.0730040213
 42
6.2356708126
  0
ELLIPSE
  5
528
100
AcDbEntity
  8
PORTATASTO
100
AcDbEllipse
 62
7
  6
CONTINUOUS
 10
7.3276055111
 20
19.4051998647
 30
0.0
 11
0.4394935595
 21
0.8982713957
 31
0.0
 40
0.6167074461
 41
5.3917895557
 42
6.9567681183
  0
ELLIPSE
  5
529
100
AcDbEntity
  8
PORTATASTO
100
AcDbEllipse
 62
7
  6
CONTINUOUS
 10
-22.7791304222
 20
26.0395087516
 30
0.0
 11
-0.2234618187
 21
0.4480306886
 31
0.0
 40
0.6116748051
 41
-0.6831523243
 42
0.886730614
  0
ELLIPSE
  5
52A
100
AcDbEntity
  8
PORTATASTO
100
AcDbEllipse
 62
7
  6
CONTINUOUS
 10
-11.843101563
 20
23.0292227763
 30
0.0
 11
0.499998833
 21
0.002146795
 31
0.0
 40
0.5031994763
 41
-1.4336803663
 42
-0.7927946851
  0
ELLIPSE
  5
52B
100
AcDbEntity
  8
PORTATASTO
100
AcDbEllipse
 62
7
  6
CONTINUOUS
 10
-8.5822970656
 20
27.3601511531
 30
0.0
 11
0.4394935595
 21
0.8982713957
 31
0.0
 40
0.6167074461
 41
5.3917895557
 42
6.9567681183
  0
ELLIPSE
  5
52C
100
AcDbEntity
  8
PORTATASTO
100
AcDbEllipse
 62
7
  6
CONTINUOUS
 10
-0.6365498565
 20
23.3872775485
 30
0.0
 11
-0.7356038977
 21
1.2035991204
 31
0.0
 40
0.5552491559
 41
5.0730040213
 42
6.2356708126
  0
ELLIPSE
  5
52D
100
AcDbEntity
  8
PORTATASTO
100
AcDbEllipse
 62
7
  6
CONTINUOUS
 10
4.0668010137
 20
15.074271488
 30
0.0
 11
0.499998833
 21
0.002146795
 31
0.0
 40
0.5031994763
 41
-1.4336803663
 42
-0.7927946851
  0
ELLIPSE
  5
52E
100
AcDbEntity
  8
PORTATASTO
100
AcDbEllipse
 62
7
  6
CONTINUOUS
 10
-0.7595516816
 20
24.3806463147
 30
0.0
 11
-0.3739417019
 21
0.598522373
 31
0.0
 40
0.554557473
 41
-3.1836090632
 42
-2.2031954143
  0
ELLIPSE
  5
52F
100
AcDbEntity
  8
PORTATASTO
100
AcDbEllipse
 62
7
  6
CONTINUOUS
 10
43.3123131026
 20
49.9745462274
 30
0.0
 11
67.1693271187
 21
33.9393393611
 31
0.0
 40
0.0051354763
 41
-2.5183487311
 42
-2.3945435781
  0
ELLIPSE
  5
530
100
AcDbEntity
  8
PORTATASTO
100
AcDbEllipse
 62
7
  6
CONTINUOUS
 10
-5.8512012579
 20
25.2344414721
 30
0.0
 11
0.2217444622
 21
0.448142966
 31
0.0
 40
0.6091593932
 41
0.509674996
 42
0.6717114762
  0
ELLIPSE
  5
531
100
AcDbEntity
  8
PORTATASTO
100
AcDbEllipse
 62
7
  6
CONTINUOUS
 10
5.733696864
 20
-23.0919106882
 30
0.0
 11
-0.6714555817
 21
1.3424611417
 31
0.0
 40
0.6119614214
 41
-2.5837102844
 42
-2.2560086979
  0
ELLIPSE
  5
532
100
AcDbEntity
  8
PORTATASTO
100
AcDbEllipse
 62
7
  6
CONTINUOUS
 10
59.2222156793
 20
42.0195949391
 30
0.0
 11
67.1693271187
 21
33.9393393611
 31
0.0
 40
0.0051354763
 41
-2.5183487311
 42
-2.3945435781
  0
ELLIPSE
  5
533
100
AcDbEntity
  8
PORTATASTO
100
AcDbEllipse
 62
7
  6
CONTINUOUS
 10
10.0587013188
 20
17.2794901837
 30
0.0
 11
0.2217444622
 21
0.448142966
 31
0.0
 40
0.6091593932
 41
0.509674996
 42
0.6717114762
  0
ELLIPSE
  5
534
100
AcDbEntity
  8
PORTATASTO
100
AcDbEllipse
 62
7
  6
CONTINUOUS
 10
8.0843004191
 20
10.6077933309
 30
0.0
 11
-0.2230998035
 21
0.4477110033
 31
0.0
 40
0.6127700112
 41
-2.2535417632
 42
-0.6836588249
  0
ELLIPSE
  5
535
100
AcDbEntity
  8
PORTATASTO
100
AcDbEllipse
 62
7
  6
CONTINUOUS
 10
8.0843004191
 20
-27.1001689233
 30
0.0
 11
-0.2234618187
 21
0.4480306886
 31
0.0
 40
0.6116748051
 41
2.4584403293
 42
4.0283232676
  0
ELLIPSE
  5
536
100
AcDbEntity
  8
PORTATASTO
100
AcDbEllipse
 62
7
  6
CONTINUOUS
 10
-21.1796854787
 20
25.8615165373
 30
0.0
 11
0.249929385
 21
0.0111824824
 31
0.0
 40
0.5313301283
 41
-2.3799630874
 42
-0.8144027484
  0
ELLIPSE
  5
537
100
AcDbEntity
  8
PORTATASTO
100
AcDbEllipse
 62
7
  6
CONTINUOUS
 10
-22.4181342055
 20
26.4807409007
 30
0.0
 11
0.249929385
 21
0.0111824824
 31
0.0
 40
0.5313301283
 41
3.1178230293
 42
3.9032222197
  0
ELLIPSE
  5
538
100
AcDbEntity
  8
PORTATASTO
100
AcDbEllipse
 62
7
  6
CONTINUOUS
 10
-9.0714937106
 20
19.8074206532
 30
0.0
 11
0.249929385
 21
0.0111824824
 31
0.0
 40
0.5313301283
 41
3.1178230293
 42
3.9032222197
  0
ELLIPSE
  5
539
100
AcDbEntity
  8
PORTATASTO
100
AcDbEllipse
 62
7
  6
CONTINUOUS
 10
-7.8330449838
 20
19.1881962898
 30
0.0
 11
0.249929385
 21
0.0111824824
 31
0.0
 40
0.5313301283
 41
-2.3799630874
 42
-0.8144027484
  0
ELLIPSE
  5
53A
100
AcDbEntity
  8
PORTATASTO
100
AcDbEllipse
 62
7
  6
CONTINUOUS
 10
-6.5082316288
 20
18.5257896123
 30
0.0
 11
0.249929385
 21
0.0111824824
 31
0.0
 40
0.5313301283
 41
3.1178230293
 42
3.9032222197
  0
ELLIPSE
  5
53B
100
AcDbEntity
  8
PORTATASTO
100
AcDbEllipse
 62
7
  6
CONTINUOUS
 10
-5.269782902
 20
17.9065652489
 30
0.0
 11
0.249929385
 21
0.0111824824
 31
0.0
 40
0.5313301283
 41
-2.3799630874
 42
-0.8144027484
  0
ELLIPSE
  5
53C
100
AcDbEntity
  8
PORTATASTO
100
AcDbEllipse
 62
7
  6
CONTINUOUS
 10
8.0768575929
 20
11.2332450015
 30
0.0
 11
0.249929385
 21
0.0111824824
 31
0.0
 40
0.5313301283
 41
-2.3799630874
 42
-0.8144027484
  0
ELLIPSE
  5
53D
100
AcDbEntity
  8
PORTATASTO
100
AcDbEllipse
 62
7
  6
CONTINUOUS
 10
6.8384088661
 20
11.8524693649
 30
0.0
 11
0.249929385
 21
0.0111824824
 31
0.0
 40
0.5313301283
 41
3.1178230293
 42
3.9032222197
  0
ELLIPSE
  5
53E
100
AcDbEntity
  8
PORTATASTO
100
AcDbEllipse
 62
7
  6
CONTINUOUS
 10
-11.843101563
 20
21.7575945165
 30
0.0
 11
0.4998587701
 21
0.0223649649
 31
0.0
 40
0.5313301283
 41
-2.3799630874
 42
-0.8144027484
  0
ELLIPSE
  5
53F
100
AcDbEntity
  8
PORTATASTO
100
AcDbEllipse
 62
7
  6
CONTINUOUS
 10
-17.3474174545
 20
24.5097524622
 30
0.0
 11
0.4998587701
 21
0.0223649649
 31
0.0
 40
0.5313301283
 41
3.1178301629
 42
3.9032222197
  0
ELLIPSE
  5
540
100
AcDbEntity
  8
PORTATASTO
100
AcDbEllipse
 62
7
  6
CONTINUOUS
 10
-1.4375148778
 20
16.5548011739
 30
0.0
 11
0.4998587701
 21
0.0223649649
 31
0.0
 40
0.5313301283
 41
3.1178301629
 42
3.9032222197
  0
ELLIPSE
  5
541
100
AcDbEntity
  8
PORTATASTO
100
AcDbEllipse
 62
7
  6
CONTINUOUS
 10
4.0668010137
 20
13.8026432281
 30
0.0
 11
0.4998587701
 21
0.0223649649
 31
0.0
 40
0.5313301283
 41
-2.3799630874
 42
-0.8144027484
  0
ELLIPSE
  5
542
100
AcDbEntity
  8
ASSI
100
AcDbEllipse
 62
7
  6
CONTINUOUS
 10
-5.4028713533
 20
28.6971874758
 30
0.0
 11
1.4999710778
 21
-0.0189973899
 31
0.0
 40
0.4903203455
 41
0.7916080745
 42
1.8332186255
  0
ELLIPSE
  5
543
100
AcDbEntity
  8
ASSI
100
AcDbEllipse
 62
7
  6
CONTINUOUS
 10
-1.1602306662
 20
30.7368801342
 30
0.0
 11
1.4999710778
 21
-0.0189973899
 31
0.0
 40
0.4903203455
 41
0.7916080745
 42
1.8363067263
  0
ELLIPSE
  5
544
100
AcDbEntity
  8
ASSI
100
AcDbEllipse
 62
7
  6
CONTINUOUS
 10
24.7675573268
 20
16.5394915128
 30
0.0
 11
-0.894612936
 21
1.7887945813
 31
0.0
 40
0.6124635976
 41
-2.2555607096
 42
-1.470288718
  0
ELLIPSE
  5
545
100
AcDbEntity
  8
ASSI
100
AcDbEllipse
 62
7
  6
CONTINUOUS
 10
-9.6472257921
 20
28.2843578385
 30
0.0
 11
1.5870080038
 21
-0.0223013218
 31
0.0
 40
0.4892375167
 41
0.7922724489
 42
1.6399000838
  0
ELLIPSE
  5
546
100
AcDbEntity
  8
ASSI
100
AcDbEllipse
 62
7
  6
CONTINUOUS
 10
-5.4045752107
 20
30.3149837398
 30
0.0
 11
1.5778454825
 21
-0.0221725661
 31
0.0
 40
0.4892375167
 41
0.7922724489
 42
3.9338651961
  0
ELLIPSE
  5
547
100
AcDbEntity
  8
ASSI
100
AcDbEllipse
 62
7
  6
CONTINUOUS
 10
-1.1619246293
 20
32.345609641
 30
0.0
 11
1.5686829612
 21
-0.0220438104
 31
0.0
 40
0.4892375167
 41
0.7922724489
 42
3.9338651961
  0
ELLIPSE
  5
548
100
AcDbEntity
  8
ASSI
100
AcDbEllipse
 62
7
  6
CONTINUOUS
 10
23.1630765687
 20
16.0316557731
 30
0.0
 11
-0.447101003
 21
0.8945282396
 31
0.0
 40
0.6124326778
 41
-1.4698904957
 42
-0.6846185041
  0
ELLIPSE
  5
549
100
AcDbEntity
  8
ASSI
100
AcDbEllipse
 62
7
  6
CONTINUOUS
 10
5.555589792
 20
28.9868524304
 30
0.0
 11
1.5686829612
 21
-0.0220438104
 31
0.0
 40
0.4892375167
 41
3.9338651025
 42
7.0754578494
  0
ELLIPSE
  5
54A
100
AcDbEntity
  8
ASSI
100
AcDbEllipse
 62
7
  6
CONTINUOUS
 10
9.5522216444
 20
8.798647074
 30
0.0
 11
-0.894612936
 21
1.7887945813
 31
0.0
 40
0.6124635976
 41
4.0276245976
 42
4.1912332821
  0
ELLIPSE
  5
54B
100
AcDbEntity
  8
ASSI
100
AcDbEllipse
 62
7
  6
CONTINUOUS
 10
9.5522216444
 20
8.798647074
 30
0.0
 11
-0.894612936
 21
1.7887945813
 31
0.0
 40
0.6124635976
 41
-2.015409063
 42
-1.9952166845
  0
ELLIPSE
  5
54C
100
AcDbEntity
  8
ASSI
100
AcDbEllipse
 62
7
  6
CONTINUOUS
 10
9.5522216444
 20
-21.8091964235
 30
0.0
 11
-0.894811907
 21
1.788971565
 31
0.0
 40
0.6123121697
 41
-2.3777848673
 42
-2.2557423369
  0
ELLIPSE
  5
54D
100
AcDbEntity
  8
ASSI
100
AcDbEllipse
 62
7
  6
CONTINUOUS
 10
1.3129392106
 20
26.9562265292
 30
0.0
 11
1.5778454825
 21
-0.0221725661
 31
0.0
 40
0.4892375167
 41
3.9338651025
 42
7.0754578494
  0
ELLIPSE
  5
54E
100
AcDbEntity
  8
ASSI
100
AcDbEllipse
 62
7
  6
CONTINUOUS
 10
-2.9297113708
 20
24.9256006279
 30
0.0
 11
1.5870080038
 21
-0.0223013218
 31
0.0
 40
0.4892375167
 41
-0.0427006016
 42
0.7922725423
  0
ELLIPSE
  5
54F
100
AcDbEntity
  8
ASSI
100
AcDbEllipse
 62
7
  6
CONTINUOUS
 10
31.4497438233
 20
18.2251562991
 30
0.0
 11
0.9999938762
 21
-0.0070751823
 31
0.0
 40
0.4946372042
 41
-0.7644452153
 42
0.3542851022
  0
ENDSEC
  0
SECTION
  2
OBJECTS
  0
DICTIONARY
  5
C
100
AcDbDictionary
280
0
281
1
  3
ACAD_GROUP
350
D
  3
ACAD_MLINESTYLE
350
17
  3
ACAD_LAYOUT
350
1A
  3
ACAD_PLOTSETTINGS
350
19
  3
ACAD_PLOTSTYLENAME
350
E
  0
DICTIONARY
  5
D
102
{ACAD_REACTORS
330
C
102
}
100
AcDbDictionary
280
0
281
1
  0
ACDBDICTIONARYWDFLT
  5
E
102
{ACAD_REACTORS
330
C
102
}
100
AcDbDictionary
281
1
  3
Normal
350
F
100
AcDbDictionaryWithDefault
340
F
  0
DICTIONARY
  5
17
102
{ACAD_REACTORS
330
C
102
}
100
AcDbDictionary
280
0
281
1
  3
Standard
350
18
  0
DICTIONARY
  5
19
102
{ACAD_REACTORS
330
C
102
}
100
AcDbDictionary
281
1
  0
DICTIONARY
  5
1A
102
{ACAD_REACTORS
330
C
102
}
100
AcDbDictionary
281
1
  3
Model
350
550
  3
Layout1
350
551
  0
ACDBPLACEHOLDER
  5
F
102
{ACAD_REACTORS
330
E
102
}
  0
MLINESTYLE
  5
18
102
{ACAD_REACTORS
330
17
102
}
100
AcDbMlineStyle
  2
STANDARD
 70
0
  3

 62
256
 51
90.0
 52
90.0
 71
2
 49
0.5
 62
256
  6
BYLAYER
 49
-0.5
 62
256
  6
BYLAYER
  0
LAYOUT
  5
550
102
{ACAD_REACTORS
330
1A
102
}
100
AcDbPlotSettings
  1

  2
none_device
  4
ISO_A4_(297.00_x_210.00_MM)
  6

 40
0.0
 41
0.0
 42
0.0
 43
0.0
 44
297.0
 45
210.0
 46
0.0
 47
0.0
 48
0.0
 49
0.0
140
0.0
141
0.0
142
1.0
143
1.0
 70
1024
 72
1
 73
0
 74
0
  7

 75
0
147
1.0
148
0.0
149
0.0
100
AcDbLayout
  1
Model
 70
0
 71
0
 10
0.0
 20
0.0
 11
297.0
 21
210.0
 12
0.0
 22
0.0
 32
0.0
 14
0.0
 24
0.0
 34
0.0
 15
0.0
 25
0.0
 35
0.0
146
0.0
 13
0.0
 23
0.0
 33
0.0
 16
1.0
 26
0.0
 36
0.0
 17
0.0
 27
1.0
 37
0.0
 76
0
330
223
345
0
346
0
  0
LAYOUT
  5
551
102
{ACAD_REACTORS
330
1A
102
}
100
AcDbPlotSettings
  1

  2
none_device
  4
ISO_A4_(297.00_x_210.00_MM)
  6

 40
0.0
 41
0.0
 42
0.0
 43
0.0
 44
297.0
 45
210.0
 46
0.0
 47
0.0
 48
0.0
 49
0.0
140
0.0
141
0.0
142
1.0
143
1.0
 70
0
 72
1
 73
0
 74
0
  7

 75
0
147
1.0
148
0.0
149
0.0
100
AcDbLayout
  1
Layout1
 70
0
 71
1
 10
0.0
 20
0.0
 11
297.0
 21
210.0
 12
0.0
 22
0.0
 32
0.0
 14
0.0
 24
0.0
 34
0.0
 15
0.0
 25
0.0
 35
0.0
146
0.0
 13
0.0
 23
0.0
 33
0.0
 16
1.0
 26
0.0
 36
0.0
 17
0.0
 27
1.0
 37
0.0
 76
0
330
224
345
0
346
0
  0
ENDSEC
  0
EOF
