  0
SECTION
  2
HEADER
  9
$ACADVER
  1
AC1015
  9
$DWGCODEPAGE
  3
ANSI_1252
  9
$EXTMAX
 10
297.0
 20
210.0
 30
0.0
  9
$EXTMIN
 10
0.0
 20
0.0
 30
0.0
  9
$LIMMIN
 10
0.0
 20
0.0
  9
$LIMMAX
 10
297.0
 20
210.0
  9
$VIEWCTR
 10
148.5
 20
105.0
  9
$VIEWSIZE
 40
210.0
  9
$CLAYER
  8
0
  9
$LTSCALE
 40
16.335
  9
$CELTYPE
  6
BYLAYER
  9
$DIMSCALE
 40
1.0
  9
$DIMASZ
 40
3.0
  9
$DIMEXO
 40
1.85625
  9
$DIMDLI
 40
11.286
  9
$DIMEXE
 40
5.346
  9
$DIMCEN
 40
2.673
  9
$DIMLFAC
 40
1.0
  9
$DIMBLK
  1
_FILLED
  9
$DIMTXT
 40
3.0
  9
$DIMTOL
 70
1
  9
$DIMLIM
 70
0
  9
$DIMTFAC
 40
1.0
  9
$DIMTP
 40
0.01
  9
$DIMTM
 40
0.01
  9
$PDMODE
 70
3
  9
$PDSIZE
 40
3.0
  9
$HANDSEED
  5
540
  9
$TILEMODE
 70
1
  9
$MEASUREMENT
 70
1
  9
$INSUNITS
 70
4
  0
ENDSEC
  0
SECTION
  2
CLASSES
  0
CLASS
  1
ACDBDICTIONARYWDFLT
  2
AcDbDictionaryWithDefault
  3
AutoCAD 2000
 90
0
280
0
281
0
  0
CLASS
  1
ACDBPLACEHOLDER
  2
AcDbPlaceHolder
  3
AutoCAD 2000
 90
0
280
0
281
0
  0
CLASS
  1
LAYOUT
  2
AcDbLayout
  3
AutoCAD 2000
 90
0
280
0
281
0
  0
ENDSEC
  0
SECTION
  2
TABLES
  0
TABLE
  2
VPORT
  5
8
100
AcDbSymbolTable
 70
2
  0
VPORT
  5
1F4
100
AcDbSymbolTableRecord
100
AcDbViewportTableRecord
  2
*ACTIVE
 70
0
 10
0.0
 20
0.0
 11
1.0
 21
1.0
 12
148.5
 22
105.0
 13
0.0
 23
0.0
 14
1.0
 24
1.0
 15
0.0
 25
0.0
 16
0.0
 26
0.0
 36
1.0
 17
0.0
 27
0.0
 37
0.0
 40
210.0
 41
1.4142857143
 42
50.0
 43
0.0
 44
0.0
 50
0.0
 51
0.0
 71
0
 72
100
 73
1
 74
1
 75
0
 76
0
 77
0
 78
0
  0
ENDTAB
  0
TABLE
  2
LTYPE
  5
5
100
AcDbSymbolTable
 70
6
  0
LTYPE
  5
14
100
AcDbSymbolTableRecord
100
AcDbLinetypeTableRecord
  2
BYBLOCK
 70
0
  3

 72
65
 73
0
 40
0.0
  0
LTYPE
  5
15
100
AcDbSymbolTableRecord
100
AcDbLinetypeTableRecord
  2
BYLAYER
 70
0
  3

 72
65
 73
0
 40
0.0
  0
LTYPE
  5
16
100
AcDbSymbolTableRecord
100
AcDbLinetypeTableRecord
  2
CONTINUOUS
 70
64
  3
Solid line
 72
65
 73
0
 40
0.0
  0
LTYPE
  5
1F5
100
AcDbSymbolTableRecord
100
AcDbLinetypeTableRecord
  2
CENTER
 70
64
  3
____ _ ____ _ ____ _ ____ _ ____ _ ____ _ ____
 72
65
 73
4
 40
0.6
 49
0.375
 74
0
 49
-0.075
 74
0
 49
0.075
 74
0
 49
-0.075
 74
0
  0
LTYPE
  5
1F6
100
AcDbSymbolTableRecord
100
AcDbLinetypeTableRecord
  2
HIDDEN
 70
64
  3
- - - - - - - - - - - - - - - - - - - -
 72
65
 73
2
 40
0.2
 49
0.1
 74
0
 49
-0.1
 74
0
  0
LTYPE
  5
1F7
100
AcDbSymbolTableRecord
100
AcDbLinetypeTableRecord
  2
PHANTOM
 70
64
  3
_____ _ _ _____ _ _ _____ _ _ _____
 72
65
 73
6
 40
0.8
 49
0.45
 74
0
 49
-0.05
 74
0
 49
0.1
 74
0
 49
-0.05
 74
0
 49
0.1
 74
0
 49
-0.05
 74
0
  0
LTYPE
  5
1F8
100
AcDbSymbolTableRecord
100
AcDbLinetypeTableRecord
  2
DOT
 70
64
  3
. . . . . . . . . . . . . . . . . . . .
 72
65
 73
2
 40
0.2
 49
0.1
 74
0
 49
-0.1
 74
0
  0
LTYPE
  5
1F9
100
AcDbSymbolTableRecord
100
AcDbLinetypeTableRecord
  2
DASHED
 70
64
  3
- - - - - - - - - - - - - - - - - - - -
 72
65
 73
2
 40
0.2
 49
0.1
 74
0
 49
-0.1
 74
0
  0
ENDTAB
  0
TABLE
  2
LAYER
  5
2
100
AcDbSymbolTable
 70
36
  0
LAYER
  5
10
100
AcDbSymbolTableRecord
100
AcDbLayerTableRecord
  2
0
 70
0
 62
7
  6
CONTINUOUS
370
-3
390
F
  0
LAYER
  5
1FA
100
AcDbSymbolTableRecord
100
AcDbLayerTableRecord
  2
DEFAULT_1
 70
0
 62
7
  6
CENTER
370
-3
390
F
  0
LAYER
  5
1FB
100
AcDbSymbolTableRecord
100
AcDbLayerTableRecord
  2
DEFAULT_2
 70
0
 62
7
  6
HIDDEN
370
-3
390
F
  0
LAYER
  5
1FC
100
AcDbSymbolTableRecord
100
AcDbLayerTableRecord
  2
DEFAULT_3
 70
0
 62
7
  6
PHANTOM
370
-3
390
F
  0
LAYER
  5
1FD
100
AcDbSymbolTableRecord
100
AcDbLayerTableRecord
  2
ASSI
 70
0
 62
7
  6
CONTINUOUS
370
-3
390
F
  0
LAYER
  5
1FE
100
AcDbSymbolTableRecord
100
AcDbLayerTableRecord
  2
COLOR15
 70
0
 62
7
  6
CONTINUOUS
370
-3
390
F
  0
LAYER
  5
1FF
100
AcDbSymbolTableRecord
100
AcDbLayerTableRecord
  2
COLORE_MATERIALE
 70
0
 62
7
  6
CONTINUOUS
370
-3
390
F
  0
LAYER
  5
200
100
AcDbSymbolTableRecord
100
AcDbLayerTableRecord
  2
COORDINATE
 70
0
 62
7
  6
CONTINUOUS
370
-3
390
F
  0
LAYER
  5
201
100
AcDbSymbolTableRecord
100
AcDbLayerTableRecord
  2
COORD_ORIGINE
 70
0
 62
7
  6
CONTINUOUS
370
-3
390
F
  0
LAYER
  5
202
100
AcDbSymbolTableRecord
100
AcDbLayerTableRecord
  2
COPY_PUBLISH
 70
0
 62
7
  6
CONTINUOUS
370
-3
390
F
  0
LAYER
  5
203
100
AcDbSymbolTableRecord
100
AcDbLayerTableRecord
  2
CORPO
 70
0
 62
7
  6
CONTINUOUS
370
-3
390
F
  0
LAYER
  5
204
100
AcDbSymbolTableRecord
100
AcDbLayerTableRecord
  2
COSMETIC
 70
0
 62
7
  6
CONTINUOUS
370
-3
390
F
  0
LAYER
  5
205
100
AcDbSymbolTableRecord
100
AcDbLayerTableRecord
  2
CURVE
 70
0
 62
7
  6
CONTINUOUS
370
-3
390
F
  0
LAYER
  5
206
100
AcDbSymbolTableRecord
100
AcDbLayerTableRecord
  2
DRAFT
 70
0
 62
7
  6
CONTINUOUS
370
-3
390
F
  0
LAYER
  5
207
100
AcDbSymbolTableRecord
100
AcDbLayerTableRecord
  2
FUSIBILE
 70
0
 62
7
  6
CONTINUOUS
370
-3
390
F
  0
LAYER
  5
208
100
AcDbSymbolTableRecord
100
AcDbLayerTableRecord
  2
IMPORT
 70
0
 62
7
  6
CONTINUOUS
370
-3
390
F
  0
LAYER
  5
209
100
AcDbSymbolTableRecord
100
AcDbLayerTableRecord
  2
IMPORT_IGES
 70
0
 62
7
  6
CONTINUOUS
370
-3
390
F
  0
LAYER
  5
20A
100
AcDbSymbolTableRecord
100
AcDbLayerTableRecord
  2
INTF_1
 70
0
 62
7
  6
CONTINUOUS
370
-3
390
F
  0
LAYER
  5
20B
100
AcDbSymbolTableRecord
100
AcDbLayerTableRecord
  2
INTF_BLANK
 70
0
 62
7
  6
CONTINUOUS
370
-3
390
F
  0
LAYER
  5
20C
100
AcDbSymbolTableRecord
100
AcDbLayerTableRecord
  2
INTF_CYAN
 70
0
 62
7
  6
CONTINUOUS
370
-3
390
F
  0
LAYER
  5
20D
100
AcDbSymbolTableRecord
100
AcDbLayerTableRecord
  2
INTF_GREEN
 70
0
 62
7
  6
CONTINUOUS
370
-3
390
F
  0
LAYER
  5
20E
100
AcDbSymbolTableRecord
100
AcDbLayerTableRecord
  2
INTF_YELLOW
 70
0
 62
7
  6
CONTINUOUS
370
-3
390
F
  0
LAYER
  5
20F
100
AcDbSymbolTableRecord
100
AcDbLayerTableRecord
  2
MAGNETOTERMICO
 70
0
 62
7
  6
CONTINUOUS
370
-3
390
F
  0
LAYER
  5
210
100
AcDbSymbolTableRecord
100
AcDbLayerTableRecord
  2
MOLLA
 70
0
 62
7
  6
CONTINUOUS
370
-3
390
F
  0
LAYER
  5
211
100
AcDbSymbolTableRecord
100
AcDbLayerTableRecord
  2
NOTE
 70
0
 62
7
  6
CONTINUOUS
370
-3
390
F
  0
LAYER
  5
212
100
AcDbSymbolTableRecord
100
AcDbLayerTableRecord
  2
PIANI
 70
0
 62
7
  6
CONTINUOUS
370
-3
390
F
  0
LAYER
  5
213
100
AcDbSymbolTableRecord
100
AcDbLayerTableRecord
  2
PIANI_ORIGINE
 70
0
 62
7
  6
CONTINUOUS
370
-3
390
F
  0
LAYER
  5
214
100
AcDbSymbolTableRecord
100
AcDbLayerTableRecord
  2
PIANI_RIFERIMENTO
 70
0
 62
7
  6
CONTINUOUS
370
-3
390
F
  0
LAYER
  5
215
100
AcDbSymbolTableRecord
100
AcDbLayerTableRecord
  2
PORTATASTO
 70
0
 62
7
  6
CONTINUOUS
370
-3
390
F
  0
LAYER
  5
216
100
AcDbSymbolTableRecord
100
AcDbLayerTableRecord
  2
PUNTI
 70
0
 62
7
  6
CONTINUOUS
370
-3
390
F
  0
LAYER
  5
217
100
AcDbSymbolTableRecord
100
AcDbLayerTableRecord
  2
RACCORDO
 70
0
 62
7
  6
CONTINUOUS
370
-3
390
F
  0
LAYER
  5
218
100
AcDbSymbolTableRecord
100
AcDbLayerTableRecord
  2
RGB____0____0____0__
 70
0
 62
7
  6
CONTINUOUS
370
-3
390
F
  0
LAYER
  5
219
100
AcDbSymbolTableRecord
100
AcDbLayerTableRecord
  2
SKEL
 70
0
 62
7
  6
CONTINUOUS
370
-3
390
F
  0
LAYER
  5
21A
100
AcDbSymbolTableRecord
100
AcDbLayerTableRecord
  2
SMUSSO
 70
0
 62
7
  6
CONTINUOUS
370
-3
390
F
  0
LAYER
  5
21B
100
AcDbSymbolTableRecord
100
AcDbLayerTableRecord
  2
SUPERFICI
 70
0
 62
7
  6
CONTINUOUS
370
-3
390
F
  0
LAYER
  5
21C
100
AcDbSymbolTableRecord
100
AcDbLayerTableRecord
  2
TASTO
 70
0
 62
7
  6
CONTINUOUS
370
-3
390
F
  0
LAYER
  5
21D
100
AcDbSymbolTableRecord
100
AcDbLayerTableRecord
  2
TRASH
 70
0
 62
7
  6
CONTINUOUS
370
-3
390
F
  0
LAYER
  5
21E
100
AcDbSymbolTableRecord
100
AcDbLayerTableRecord
  2
XSEC_DATUMS
 70
0
 62
7
  6
CONTINUOUS
370
-3
390
F
  0
ENDTAB
  0
TABLE
  2
STYLE
  5
3
100
AcDbSymbolTable
 70
1
  0
STYLE
  5
11
100
AcDbSymbolTableRecord
100
AcDbTextStyleTableRecord
  2
STANDARD
 70
0
 40
0.0
 41
0.8
 50
0.0
 71
0
 42
0.2
  3
txt
  4

  0
STYLE
  5
21F
100
AcDbSymbolTableRecord
100
AcDbTextStyleTableRecord
  2
TEXTSTYLE_1
 70
0
 40
0.0
 41
0.8
 50
0.0
 71
0
 42
0.2
  3
gdt
  4

  0
ENDTAB
  0
TABLE
  2
VIEW
  5
6
100
AcDbSymbolTable
 70
0
  0
ENDTAB
  0
TABLE
  2
UCS
  5
7
100
AcDbSymbolTable
 70
0
  0
ENDTAB
  0
TABLE
  2
APPID
  5
9
100
AcDbSymbolTable
 70
1
  0
APPID
  5
220
100
AcDbSymbolTableRecord
100
AcDbRegAppTableRecord
  2
ACAD
 70
0
  0
ENDTAB
  0
TABLE
  2
BLOCK_RECORD
  5
1
100
AcDbSymbolTable
 70
0
  0
BLOCK_RECORD
  5
221
100
AcDbSymbolTableRecord
100
AcDbBlockTableRecord
  2
*Model_Space
  0
BLOCK_RECORD
  5
222
100
AcDbSymbolTableRecord
100
AcDbBlockTableRecord
  2
*Paper_Space
  0
ENDTAB
  0
TABLE
  2
DIMSTYLE
  5
A
100
AcDbSymbolTable
 70
1
100
AcDbDimStyleTable
 71
0
  0
DIMSTYLE
105
223
100
AcDbSymbolTableRecord
100
AcDbDimStyleTableRecord
  2
STANDARD
 70
0
  3

  4

 40
1.0
 41
3.0
 42
0.0625
 43
0.38
 44
0.18
 45
0.0
 46
0.0
 47
0.01
 48
0.01
140
3.0
141
0.09
142
0.0
143
25.4
144
1.0
145
0.0
146
1.0
147
0.09
 71
1.0
 72
0.0
 73
0
 74
0
 75
0
 76
0
 77
1
 78
8
170
0
171
2
172
0
173
0
174
0
175
0
176
0
177
0
178
0
270
2
271
2
272
2
273
2
274
2
275
0
280
0
281
0
282
0
283
1
284
8
285
0
286
0
287
3
288
0
340
11
  0
ENDTAB
  0
ENDSEC
  0
SECTION
  2
BLOCKS
  0
BLOCK
  5
20
100
AcDbEntity
  8
0
100
AcDbBlockBegin
  2
*Model_Space
 70
0
 10
0.0
 20
0.0
 30
0.0
  3
*Model_Space
  1

  0
ENDBLK
  5
21
100
AcDbEntity
  8
0
100
AcDbBlockEnd
  0
BLOCK
  5
1C
100
AcDbEntity
  8
0
100
AcDbBlockBegin
  2
*Paper_Space
 70
0
 10
0.0
 20
0.0
 30
0.0
  3
*Paper_Space
  1

  0
ENDBLK
  5
1D
100
AcDbEntity
  8
0
100
AcDbBlockEnd
  0
ENDSEC
  0
SECTION
  2
ENTITIES
  0
LWPOLYLINE
  5
224
100
AcDbEntity
  8
RACCORDO
100
AcDbPolyline
 62
7
  6
CONTINUOUS
 90
19
 70
0
 10
-28.900256557
 20
24.0473120328
 10
-28.9182432599
 20
24.0366414157
 10
-29.010100516
 20
23.9762435071
 10
-29.098298225
 20
23.9084032006
 10
-29.1827004115
 20
23.8335907958
 10
-29.2631336555
 20
23.7522734449
 10
-29.3392360932
 20
23.6650442154
 10
-29.4108027388
 20
23.572370563
 10
-29.4775677526
 20
23.4747037514
 10
-29.5390333838
 20
23.37286095
 10
-29.5949631109
 20
23.2673503967
 10
-29.6450723986
 20
23.1586548297
 10
-29.6889287835
 20
23.0477159655
 10
-29.7262942895
 20
22.9350664021
 10
-29.7569165329
 20
22.8211828634
 10
-29.7804880454
 20
22.7068597179
 10
-29.7967524865
 20
22.5926121202
 10
-29.8054854478
 20
22.478844155
 10
-29.8061390683
 20
22.4615447003
  0
LINE
  5
225
100
AcDbEntity
  8
RACCORDO
100
AcDbLine
 62
7
  6
CONTINUOUS
 10
-28.9004502541
 20
24.0472174137
 11
-25.6660215915
 21
25.933185575
  0
LINE
  5
226
100
AcDbEntity
  8
PORTATASTO
100
AcDbLine
 62
7
  6
CONTINUOUS
 10
-24.6045265231
 20
26.4816196144
 11
-24.2591244632
 21
26.6830206517
  0
LINE
  5
227
100
AcDbEntity
  8
RACCORDO
100
AcDbLine
 62
253
  6
CONTINUOUS
 10
-28.667096207
 20
24.0384500203
 11
-25.4319400551
 21
25.9248423744
  0
LINE
  5
228
100
AcDbEntity
  8
PORTATASTO
100
AcDbLine
 62
253
  6
CONTINUOUS
 10
-24.3704436607
 20
26.4732771871
 11
-24.2591244632
 21
26.5381864753
  0
LINE
  5
229
100
AcDbEntity
  8
PORTATASTO
100
AcDbLine
 62
7
  6
CONTINUOUS
 10
-24.8264122667
 20
28.0353320397
 11
-22.5390537077
 21
29.2057966497
  0
LINE
  5
22A
100
AcDbEntity
  8
PORTATASTO
100
AcDbLine
 62
253
  6
CONTINUOUS
 10
-24.7134544045
 20
28.028818007
 11
-22.4264695336
 21
29.199091397
  0
LINE
  5
22B
100
AcDbEntity
  8
PORTATASTO
100
AcDbLine
 62
253
  6
CONTINUOUS
 10
-23.4824105502
 20
27.4132960798
 11
-21.1713501506
 21
28.5715317055
  0
LINE
  5
22C
100
AcDbEntity
  8
PORTATASTO
100
AcDbLine
 62
7
  6
CONTINUOUS
 10
-21.7053850959
 20
27.0252246143
 11
-20.9945758785
 21
27.8769267868
  0
LINE
  5
22D
100
AcDbEntity
  8
PORTATASTO
100
AcDbLine
 62
7
  6
CONTINUOUS
 10
-21.7053850959
 20
26.2694877788
 11
-22.5948270606
 21
25.7726071925
  0
LINE
  5
22E
100
AcDbEntity
  8
PORTATASTO
100
AcDbLine
 62
7
  6
CONTINUOUS
 10
-23.6574941283
 20
25.0573443009
 11
-23.6769490751
 21
25.0473468845
  0
LINE
  5
22F
100
AcDbEntity
  8
PORTATASTO
100
AcDbLine
 62
7
  6
CONTINUOUS
 10
-19.2938074491
 20
25.9572175264
 11
-18.2368594319
 21
26.4980685634
  0
LINE
  5
230
100
AcDbEntity
  8
PORTATASTO
100
AcDbLine
 62
253
  6
CONTINUOUS
 10
-23.3056362781
 20
27.1084055607
 11
-20.9945758785
 21
28.2666411863
  0
LINE
  5
231
100
AcDbEntity
  8
PORTATASTO
100
AcDbLine
 62
7
  6
CONTINUOUS
 10
-18.2368594319
 20
26.4980685634
 11
-13.612877798
 21
28.7564759076
  0
LINE
  5
232
100
AcDbEntity
  8
PORTATASTO
100
AcDbLine
 62
7
  6
CONTINUOUS
 10
-13.1702441088
 20
29.7287540511
 11
-20.2915829242
 21
26.2646550857
  0
LINE
  5
233
100
AcDbEntity
  8
ASSI
100
AcDbLine
 62
7
  6
CONTINUOUS
 10
0.1348856787
 20
35.3993387605
 11
-12.2933507866
 21
29.5382168735
  0
LINE
  5
234
100
AcDbEntity
  8
ASSI
100
AcDbLine
 62
253
  6
CONTINUOUS
 10
0.5737704292
 20
35.3669358255
 11
-12.0469732135
 21
29.415028087
  0
LWPOLYLINE
  5
235
100
AcDbEntity
  8
RACCORDO
100
AcDbPolyline
 62
7
  6
CONTINUOUS
 90
14
 70
0
 10
-29.8061104025
 20
-13.1635137944
 10
-29.8050800139
 20
-13.1881493153
 10
-29.7956161609
 20
-13.2965238419
 10
-29.7783488682
 20
-13.4005681413
 10
-29.7534134503
 20
-13.5000074483
 10
-29.7209656009
 20
-13.5945223259
 10
-29.6812186729
 20
-13.6835962588
 10
-29.6344211645
 20
-13.7668260165
 10
-29.5808776886
 20
-13.8437979248
 10
-29.5211324442
 20
-13.9138517536
 10
-29.4557211194
 20
-13.9765561887
 10
-29.3853010614
 20
-14.0315401078
 10
-29.3109133476
 20
-14.0783150415
 10
-29.2747224714
 20
-14.0974667197
  0
LWPOLYLINE
  5
236
100
AcDbEntity
  8
RACCORDO
100
AcDbPolyline
 62
7
  6
CONTINUOUS
 90
10
 70
0
 10
-29.8061440376
 20
22.4617078597
 10
-29.9206980939
 20
18.5080934099
 10
-30.0086324356
 20
14.4858796576
 10
-30.067252647
 20
10.4779370401
 10
-30.0965504336
 20
6.4846321409
 10
-30.0965231794
 20
2.5063003052
 10
-30.0671703497
 20
-1.4567139637
 10
-30.00849346
 20
-5.4040777593
 10
-29.920499707
 20
-9.3354327846
 10
-29.8061253947
 20
-13.1635036834
  0
LINE
  5
237
100
AcDbEntity
  8
ASSI
100
AcDbLine
 62
253
  6
CONTINUOUS
 10
-13.2164012854
 20
25.9947059898
 11
-14.5968601887
 21
24.6780689419
  0
LINE
  5
238
100
AcDbEntity
  8
ASSI
100
AcDbLine
 62
7
  6
CONTINUOUS
 10
-13.3137020794
 20
25.9941134195
 11
-14.7059055751
 21
24.7325916351
  0
LINE
  5
239
100
AcDbEntity
  8
ASSI
100
AcDbLine
 62
7
  6
CONTINUOUS
 10
-2.2534592341
 20
31.4259167029
 11
-2.6667272471
 21
31.2169762181
  0
LINE
  5
23A
100
AcDbEntity
  8
ASSI
100
AcDbLine
 62
7
  6
CONTINUOUS
 10
-6.3501057514
 20
29.3547297673
 11
-6.8019400499
 21
29.1262908986
  0
LINE
  5
23B
100
AcDbEntity
  8
PORTATASTO
100
AcDbLine
 62
7
  6
CONTINUOUS
 10
-12.3091022303
 20
26.6533443226
 11
-11.2172192681
 21
27.1992858037
  0
LINE
  5
23C
100
AcDbEntity
  8
ASSI
100
AcDbLine
 62
7
  6
CONTINUOUS
 10
-5.5796480486
 20
28.5473525418
 11
-5.0966666453
 21
28.7888432434
  0
LINE
  5
23D
100
AcDbEntity
  8
ASSI
100
AcDbLine
 62
7
  6
CONTINUOUS
 10
-1.3370073615
 20
30.6686728853
 11
-0.9356536433
 21
30.8693497444
  0
LINE
  5
23E
100
AcDbEntity
  8
PORTATASTO
100
AcDbLine
 62
7
  6
CONTINUOUS
 10
-17.6239124729
 20
26.191595084
 11
-13.0238058718
 21
28.4619399446
  0
LINE
  5
23F
100
AcDbEntity
  8
PORTATASTO
100
AcDbLine
 62
7
  6
CONTINUOUS
 10
-13.3013585121
 20
27.0521600756
 11
-12.9638562884
 21
27.218489351
  0
LINE
  5
240
100
AcDbEntity
  8
PORTATASTO
100
AcDbLine
 62
7
  6
CONTINUOUS
 10
-10.1753442889
 20
28.2313041411
 11
-12.3106591213
 21
27.178969241
  0
LINE
  5
241
100
AcDbEntity
  8
PORTATASTO
100
AcDbLine
 62
7
  6
CONTINUOUS
 10
-24.9625288081
 20
27.812777422
 11
-24.9625288081
 21
27.5628062127
  0
LINE
  5
242
100
AcDbEntity
  8
PORTATASTO
100
AcDbLine
 62
253
  6
CONTINUOUS
 10
-24.8893055034
 20
27.7243890744
 11
-24.8893055034
 21
27.4744178651
  0
LINE
  5
243
100
AcDbEntity
  8
PORTATASTO
100
AcDbLine
 62
7
  6
CONTINUOUS
 10
-24.7237279266
 20
26.2167084265
 11
-24.7237279266
 21
25.5707363102
  0
LINE
  5
244
100
AcDbEntity
  8
PORTATASTO
100
AcDbLine
 62
7
  6
CONTINUOUS
 10
-12.7251289749
 20
21.7793597183
 11
-13.0823944693
 21
21.5797758271
  0
LINE
  5
245
100
AcDbEntity
  8
PORTATASTO
100
AcDbLine
 62
7
  6
CONTINUOUS
 10
-13.0823944693
 20
22.8515110365
 11
-12.0143197574
 21
23.3867987262
  0
LINE
  5
246
100
AcDbEntity
  8
PORTATASTO
100
AcDbLine
 62
7
  6
CONTINUOUS
 10
-12.0143197574
 20
23.3867987262
 11
-7.4385085663
 21
25.6692912918
  0
LINE
  5
247
100
AcDbEntity
  8
PORTATASTO
100
AcDbLine
 62
7
  6
CONTINUOUS
 10
-12.7177241023
 20
21.775657282
 11
-7.3862671035
 21
24.4312599251
  0
LINE
  5
248
100
AcDbEntity
  8
PORTATASTO
100
AcDbLine
 62
7
  6
CONTINUOUS
 10
-12.6272667164
 20
23.6932722057
 11
-8.0275804924
 21
25.9638272548
  0
LINE
  5
249
100
AcDbEntity
  8
PORTATASTO
100
AcDbLine
 62
7
  6
CONTINUOUS
 10
-7.2622198176
 20
25.4474512689
 11
-5.925471762
 21
26.1063678777
  0
LINE
  5
24A
100
AcDbEntity
  8
PORTATASTO
100
AcDbLine
 62
7
  6
CONTINUOUS
 10
7.5511579756
 20
-27.8258561416
 11
8.2619671931
 21
-27.9741539692
  0
LWPOLYLINE
  5
24B
100
AcDbEntity
  8
RACCORDO
100
AcDbPolyline
 62
7
  6
CONTINUOUS
 90
12
 70
0
 10
1.459943403
 20
-29.4647982743
 10
1.5014851487
 20
-29.4843224834
 10
1.5791534497
 20
-29.5141641381
 10
1.6607720617
 20
-29.5370483371
 10
1.7457062203
 20
-29.5524713688
 10
1.8330693415
 20
-29.5600282311
 10
1.922322233
 20
-29.5595212358
 10
2.0129222184
 20
-29.550825033
 10
2.1040980868
 20
-29.5339115975
 10
2.1953568801
 20
-29.508822837
 10
2.286349571
 20
-29.4756381181
 10
5.6457876012
 20
-28.065542081
  0
LINE
  5
24C
100
AcDbEntity
  8
RACCORDO
100
AcDbLine
 62
7
  6
CONTINUOUS
 10
1.4612375689
 20
-29.4654473926
 11
-29.2752463058
 21
-14.0972054552
  0
LINE
  5
24D
100
AcDbEntity
  8
RACCORDO
100
AcDbLine
 62
253
  6
CONTINUOUS
 10
1.0677691761
 20
-28.7048661687
 11
-29.6596615903
 21
-13.3411507855
  0
LINE
  5
24E
100
AcDbEntity
  8
PORTATASTO
100
AcDbLine
 62
7
  6
CONTINUOUS
 10
-24.2591244632
 20
27.0565955431
 11
-24.2591244632
 21
26.4727379411
  0
LINE
  5
24F
100
AcDbEntity
  8
PORTATASTO
100
AcDbLine
 62
253
  6
CONTINUOUS
 10
-24.1859011585
 20
27.0199838907
 11
-24.1859011585
 21
26.381005936
  0
LINE
  5
250
100
AcDbEntity
  8
PORTATASTO
100
AcDbLine
 62
253
  6
CONTINUOUS
 10
-23.6582616491
 20
26.8588959379
 11
-23.6582616491
 21
27.1088671473
  0
LINE
  5
251
100
AcDbEntity
  8
PORTATASTO
100
AcDbLine
 62
253
  6
CONTINUOUS
 10
-23.3056362781
 20
26.8584343513
 11
-23.3056362781
 21
27.1084055607
  0
LINE
  5
252
100
AcDbEntity
  8
PORTATASTO
100
AcDbLine
 62
253
  6
CONTINUOUS
 10
-22.9474524316
 20
25.7617815726
 11
-22.9474524316
 21
26.4605981104
  0
LINE
  5
253
100
AcDbEntity
  8
PORTATASTO
100
AcDbLine
 62
253
  6
CONTINUOUS
 10
-22.5948270606
 20
25.7726071925
 11
-22.5948270606
 21
26.4601365238
  0
LINE
  5
254
100
AcDbEntity
  8
PORTATASTO
100
AcDbLine
 62
7
  6
CONTINUOUS
 10
-21.7053850959
 20
27.0252246143
 11
-21.7053850959
 21
26.2694877788
  0
LINE
  5
255
100
AcDbEntity
  8
PORTATASTO
100
AcDbLine
 62
7
  6
CONTINUOUS
 10
-20.9945758785
 20
28.2666411863
 11
-20.9945758785
 21
27.8769267868
  0
LINE
  5
256
100
AcDbEntity
  8
PORTATASTO
100
AcDbLine
 62
7
  6
CONTINUOUS
 10
-12.7251289749
 20
22.5350965538
 11
-12.0143197574
 21
23.3867987262
  0
LINE
  5
257
100
AcDbEntity
  8
DRAFT
100
AcDbLine
 62
7
  6
CONTINUOUS
 10
-12.1203857746
 20
19.2690652342
 11
-14.2046783338
 21
18.0537317656
  0
LINE
  5
258
100
AcDbEntity
  8
PORTATASTO
100
AcDbLine
 62
7
  6
CONTINUOUS
 10
-8.8213763747
 20
19.3377214988
 11
-9.2481865657
 21
19.0992869451
  0
LINE
  5
259
100
AcDbEntity
  8
PORTATASTO
100
AcDbLine
 62
7
  6
CONTINUOUS
 10
-1.9908720391
 20
23.3738144426
 11
-3.238075928
 21
22.7144885618
  0
LINE
  5
25A
100
AcDbEntity
  8
PORTATASTO
100
AcDbLine
 62
7
  6
CONTINUOUS
 10
-1.9908720391
 20
23.7739417029
 11
-3.6342573862
 21
22.9125792909
  0
LINE
  5
25B
100
AcDbEntity
  8
PORTATASTO
100
AcDbLine
 62
7
  6
CONTINUOUS
 10
-11.4797717718
 20
21.3620117923
 11
-9.1924132128
 21
22.5324764023
  0
LINE
  5
25C
100
AcDbEntity
  8
PORTATASTO
100
AcDbLine
 62
253
  6
CONTINUOUS
 10
-11.3668139096
 20
21.3554977595
 11
-9.0798290387
 21
22.5257711495
  0
LINE
  5
25D
100
AcDbEntity
  8
PORTATASTO
100
AcDbLine
 62
7
  6
CONTINUOUS
 10
-8.91650969
 20
20.0803807514
 11
-6.629151131
 21
21.2508453614
  0
LINE
  5
25E
100
AcDbEntity
  8
PORTATASTO
100
AcDbLine
 62
253
  6
CONTINUOUS
 10
-8.8035518278
 20
20.0738667186
 11
-6.5165669569
 21
21.2441401086
  0
LINE
  5
25F
100
AcDbEntity
  8
PORTATASTO
100
AcDbLine
 62
253
  6
CONTINUOUS
 10
-10.1357700553
 20
20.7399758324
 11
-7.8247096557
 21
21.898211458
  0
LINE
  5
260
100
AcDbEntity
  8
PORTATASTO
100
AcDbLine
 62
253
  6
CONTINUOUS
 10
-9.9589957832
 20
20.4350853132
 11
-7.6479353836
 21
21.5933209388
  0
LINE
  5
261
100
AcDbEntity
  8
PORTATASTO
100
AcDbLine
 62
7
  6
CONTINUOUS
 10
-2.1855354989
 20
22.6998770345
 11
-2.6971941862
 21
22.4440476909
  0
LINE
  5
262
100
AcDbEntity
  8
PORTATASTO
100
AcDbLine
 62
7
  6
CONTINUOUS
 10
-2.9305719421
 20
24.6089179677
 11
-8.0914721424
 21
22.0315927014
  0
LINE
  5
263
100
AcDbEntity
  8
DRAFT
100
AcDbLine
 62
7
  6
CONTINUOUS
 10
-13.7347921941
 20
17.8187886957
 11
-12.1203857746
 21
18.6195461814
  0
LINE
  5
264
100
AcDbEntity
  8
ASSI
100
AcDbLine
 62
7
  6
CONTINUOUS
 10
12.4639155866
 20
29.4218632468
 11
4.319846888
 21
25.5239328083
  0
LINE
  5
265
100
AcDbEntity
  8
RACCORDO
100
AcDbLine
 62
7
  6
CONTINUOUS
 10
7.8356705185
 20
27.050738488
 11
12.5289379559
 21
29.2970395296
  0
LINE
  5
266
100
AcDbEntity
  8
ASSI
100
AcDbLine
 62
7
  6
CONTINUOUS
 10
-7.6479353836
 20
21.4294053952
 11
-4.01943398
 21
23.1051675878
  0
LWPOLYLINE
  5
267
100
AcDbEntity
  8
RACCORDO
100
AcDbPolyline
 62
7
  6
CONTINUOUS
 90
4
 70
0
 10
-3.0208507215
 20
-21.3623182232
 10
-2.9745465636
 20
-21.3594034193
 10
-2.9231397918
 20
-21.3624650877
 10
-2.8678467939
 20
-21.3719452566
  0
LWPOLYLINE
  5
268
100
AcDbEntity
  8
RACCORDO
100
AcDbPolyline
 62
7
  6
CONTINUOUS
 90
3
 70
0
 10
-2.8678467939
 20
-21.3719452566
 10
-2.8096769345
 20
-21.3879027063
 10
-2.7494693834
 20
-21.4102112753
  0
LINE
  5
269
100
AcDbEntity
  8
PORTATASTO
100
AcDbLine
 62
7
  6
CONTINUOUS
 10
4.4322108646
 20
-29.0118525503
 11
5.6632547189
 21
-29.6273744775
  0
LINE
  5
26A
100
AcDbEntity
  8
PORTATASTO
100
AcDbLine
 62
253
  6
CONTINUOUS
 10
4.3672375682
 20
-28.8766341002
 11
5.5982814225
 21
-29.4921560274
  0
LINE
  5
26B
100
AcDbEntity
  8
PORTATASTO
100
AcDbLine
 62
253
  6
CONTINUOUS
 10
5.5982814225
 20
-29.242184818
 11
4.3672375682
 21
-28.6266628909
  0
LINE
  5
26C
100
AcDbEntity
  8
PORTATASTO
100
AcDbLine
 62
253
  6
CONTINUOUS
 10
5.6866697701
 20
-29.0104906442
 11
4.6406252757
 21
-28.487468397
  0
LINE
  5
26D
100
AcDbEntity
  8
PORTATASTO
100
AcDbLine
 62
253
  6
CONTINUOUS
 10
6.2197766832
 20
-28.3717140149
 11
5.6249371557
 21
-28.0742942511
  0
LINE
  5
26E
100
AcDbEntity
  8
PORTATASTO
100
AcDbLine
 62
253
  6
CONTINUOUS
 10
6.30909064
 20
-28.1404826456
 11
5.7793862962
 21
-27.8756304737
  0
LINE
  5
26F
100
AcDbEntity
  8
PORTATASTO
100
AcDbLine
 62
7
  6
CONTINUOUS
 10
6.4936331422
 20
-27.5339373589
 11
6.30909064
 21
-27.4416661078
  0
LINE
  5
270
100
AcDbEntity
  8
PORTATASTO
100
AcDbLine
 62
7
  6
CONTINUOUS
 10
8.2619671931
 20
-27.9741539692
 11
7.5511579756
 21
-27.6187493604
  0
LINE
  5
271
100
AcDbEntity
  8
PORTATASTO
100
AcDbLine
 62
253
  6
CONTINUOUS
 10
5.6630946712
 20
-29.6272942625
 11
5.6632547301
 21
-29.6273744831
  0
LINE
  5
272
100
AcDbEntity
  8
PORTATASTO
100
AcDbLine
 62
7
  6
CONTINUOUS
 10
-19.4384077121
 20
25.773254724
 11
-19.4384077121
 21
24.4937084807
  0
LINE
  5
273
100
AcDbEntity
  8
PORTATASTO
100
AcDbLine
 62
253
  6
CONTINUOUS
 10
-19.2919611027
 20
25.4300362097
 11
-19.2919611027
 21
24.3102825328
  0
LINE
  5
274
100
AcDbEntity
  8
PORTATASTO
100
AcDbLine
 62
7
  6
CONTINUOUS
 10
-7.6479353836
 20
21.2036065393
 11
-8.3385110233
 21
20.3761485405
  0
LINE
  5
275
100
AcDbEntity
  8
PORTATASTO
100
AcDbLine
 62
7
  6
CONTINUOUS
 10
-5.7954825193
 20
18.3145364905
 11
-6.6849244839
 21
17.8176559042
  0
LINE
  5
276
100
AcDbEntity
  8
DRAFT
100
AcDbLine
 62
7
  6
CONTINUOUS
 10
-7.8777450875
 20
17.1477448906
 11
-10.0360932154
 21
15.9694392064
  0
LINE
  5
277
100
AcDbEntity
  8
PORTATASTO
100
AcDbLine
 62
7
  6
CONTINUOUS
 10
-3.3839048724
 20
18.002266238
 11
-2.3269568552
 21
18.5431172751
  0
LINE
  5
278
100
AcDbEntity
  8
PORTATASTO
100
AcDbLine
 62
253
  6
CONTINUOUS
 10
-7.5725079735
 20
19.4583447915
 11
-5.2614475739
 21
20.6165804171
  0
LINE
  5
279
100
AcDbEntity
  8
PORTATASTO
100
AcDbLine
 62
253
  6
CONTINUOUS
 10
-7.3957337014
 20
19.1534542723
 11
-5.0846733018
 21
20.3116898979
  0
LINE
  5
27A
100
AcDbEntity
  8
DRAFT
100
AcDbLine
 62
7
  6
CONTINUOUS
 10
7.513159075
 20
23.9886080244
 11
8.1704934318
 21
24.3172752028
  0
LINE
  5
27B
100
AcDbEntity
  8
ASSI
100
AcDbLine
 62
7
  6
CONTINUOUS
 10
-4.5189878768
 20
19.1338040018
 11
-0.2809263397
 21
21.2359137676
  0
LINE
  5
27C
100
AcDbEntity
  8
ASSI
100
AcDbLine
 62
7
  6
CONTINUOUS
 10
7.44855516
 20
24.4807089984
 11
7.0775633346
 21
24.2991783155
  0
LINE
  5
27D
100
AcDbEntity
  8
PORTATASTO
100
AcDbLine
 62
7
  6
CONTINUOUS
 10
-2.3269568552
 20
18.5431172751
 11
2.2970247787
 21
20.8015246193
  0
LINE
  5
27E
100
AcDbEntity
  8
PORTATASTO
100
AcDbLine
 62
7
  6
CONTINUOUS
 10
2.7396584679
 20
21.7738027627
 11
-3.6699605254
 21
18.6559122791
  0
LINE
  5
27F
100
AcDbEntity
  8
RACCORDO
100
AcDbLine
 62
7
  6
CONTINUOUS
 10
-2.7494693834
 20
-21.4102112753
 11
-2.6927753356
 21
-21.436202325
  0
LWPOLYLINE
  5
280
100
AcDbEntity
  8
RACCORDO
100
AcDbPolyline
 62
7
  6
CONTINUOUS
 90
27
 70
0
 10
-2.6923006818
 20
-21.4364408935
 10
-2.6184174161
 20
-21.4772415833
 10
-2.5486336277
 20
-21.5227382887
 10
-2.4774428878
 20
-21.5760935114
 10
-2.4057176334
 20
-21.637106912
 10
-2.3345164928
 20
-21.7052227486
 10
-2.2645717955
 20
-21.7800145896
 10
-2.1965642349
 20
-21.8610091917
 10
-2.1313430476
 20
-21.9473693994
 10
-2.0695202674
 20
-22.0384190497
 10
-2.0116484903
 20
-22.133441646
 10
-1.9583475909
 20
-22.2314324166
 10
-1.9100516146
 20
-22.3315664232
 10
-1.867126822
 20
-22.4330035227
 10
-1.8299380982
 20
-22.5346565073
 10
-1.7986819956
 20
-22.6356739878
 10
-1.7734940328
 20
-22.7351969408
 10
-1.7544569012
 20
-22.8321083143
 10
-1.7415239421
 20
-22.9253131652
 10
-1.7344770269
 20
-23.0144076434
 10
-1.7330762734
 20
-23.0992317928
 10
-1.7370578951
 20
-23.1785834557
 10
-1.7461114208
 20
-23.2523574312
 10
-1.760210099
 20
-23.3214583927
 10
-1.7792814281
 20
-23.3853254139
 10
-1.8028870283
 20
-23.4425115657
 10
-1.8304276808
 20
-23.4921419732
  0
LINE
  5
281
100
AcDbEntity
  8
PORTATASTO
100
AcDbLine
 62
253
  6
CONTINUOUS
 10
-13.7876452113
 20
21.5581245871
 11
-13.7876452113
 21
22.677878264
  0
LINE
  5
282
100
AcDbEntity
  8
PORTATASTO
100
AcDbLine
 62
7
  6
CONTINUOUS
 10
-5.7954825193
 20
19.070273326
 11
-5.0846733018
 21
19.9219754984
  0
LINE
  5
283
100
AcDbEntity
  8
PORTATASTO
100
AcDbLine
 62
7
  6
CONTINUOUS
 10
3.6008003464
 20
18.6983930343
 11
4.6926833086
 21
19.2443345153
  0
LINE
  5
284
100
AcDbEntity
  8
PORTATASTO
100
AcDbLine
 62
7
  6
CONTINUOUS
 10
-1.7140098962
 20
18.2366437956
 11
2.8860967049
 21
20.5069886562
  0
LINE
  5
285
100
AcDbEntity
  8
PORTATASTO
100
AcDbLine
 62
7
  6
CONTINUOUS
 10
2.6085440646
 20
19.0972087872
 11
2.9460462883
 21
19.2635380626
  0
LINE
  5
286
100
AcDbEntity
  8
PORTATASTO
100
AcDbLine
 62
7
  6
CONTINUOUS
 10
5.7345582878
 20
20.2763528528
 11
3.5992434554
 21
19.2240179526
  0
LINE
  5
287
100
AcDbEntity
  8
DRAFT
100
AcDbLine
 62
7
  6
CONTINUOUS
 10
18.9804246464
 20
25.707157057
 11
18.1084291211
 21
25.2898008158
  0
LINE
  5
288
100
AcDbEntity
  8
ASSI
100
AcDbLine
 62
7
  6
CONTINUOUS
 10
7.4332420709
 20
19.2673267028
 11
6.9997646817
 21
19.0598548884
  0
LINE
  5
289
100
AcDbEntity
  8
ASSI
100
AcDbLine
 62
253
  6
CONTINUOUS
 10
7.4348189397
 20
19.1953371154
 11
7.0740980929
 21
19.0226881828
  0
LINE
  5
28A
100
AcDbEntity
  8
ASSI
100
AcDbLine
 62
253
  6
CONTINUOUS
 10
6.4397494903
 20
19.8418093994
 11
7.1557748089
 21
20.1724936198
  0
LINE
  5
28B
100
AcDbEntity
  8
ASSI
100
AcDbLine
 62
253
  6
CONTINUOUS
 10
6.4464053644
 20
19.3808281027
 11
7.3604612918
 21
19.8029694208
  0
LINE
  5
28C
100
AcDbEntity
  8
PORTATASTO
100
AcDbLine
 62
253
  6
CONTINUOUS
 10
-13.2939088526
 20
26.0029361642
 11
-13.3013585121
 21
27.0521600756
  0
LINE
  5
28D
100
AcDbEntity
  8
PORTATASTO
100
AcDbLine
 62
7
  6
CONTINUOUS
 10
-12.8400377045
 20
27.3669597106
 11
-12.845653447
 21
28.48672739
  0
LINE
  5
28E
100
AcDbEntity
  8
PORTATASTO
100
AcDbLine
 62
253
  6
CONTINUOUS
 10
-12.9683275874
 20
28.483559192
 11
-12.9638562884
 21
27.218489351
  0
LINE
  5
28F
100
AcDbEntity
  8
PORTATASTO
100
AcDbLine
 62
253
  6
CONTINUOUS
 10
-13.0823944693
 20
21.5797758271
 11
-13.0823944693
 21
22.8515110365
  0
LINE
  5
290
100
AcDbEntity
  8
PORTATASTO
100
AcDbLine
 62
7
  6
CONTINUOUS
 10
-12.7251289749
 20
21.7793597183
 11
-12.7251289749
 21
22.5350965538
  0
LINE
  5
291
100
AcDbEntity
  8
PORTATASTO
100
AcDbLine
 62
7
  6
CONTINUOUS
 10
-12.7177241023
 20
21.775657282
 11
-12.7177241023
 21
22.2148286023
  0
LINE
  5
292
100
AcDbEntity
  8
DRAFT
100
AcDbLine
 62
7
  6
CONTINUOUS
 10
-12.1203857746
 20
19.2690652342
 11
-12.1203857746
 21
18.6195461814
  0
LINE
  5
293
100
AcDbEntity
  8
PORTATASTO
100
AcDbLine
 62
7
  6
CONTINUOUS
 10
-11.6158883132
 20
21.1394571746
 11
-11.6158883132
 21
20.8894859653
  0
LINE
  5
294
100
AcDbEntity
  8
PORTATASTO
100
AcDbLine
 62
253
  6
CONTINUOUS
 10
-11.5426650085
 20
21.0510688269
 11
-11.5426650085
 21
20.8010976176
  0
LINE
  5
295
100
AcDbEntity
  8
PORTATASTO
100
AcDbLine
 62
7
  6
CONTINUOUS
 10
-10.9124839683
 20
20.3832752956
 11
-10.9124839683
 21
19.7994176937
  0
LINE
  5
296
100
AcDbEntity
  8
PORTATASTO
100
AcDbLine
 62
253
  6
CONTINUOUS
 10
-10.8392606636
 20
20.3466636433
 11
-10.8392606636
 21
19.7076856885
  0
LINE
  5
297
100
AcDbEntity
  8
PORTATASTO
100
AcDbLine
 62
253
  6
CONTINUOUS
 10
-10.3116211542
 20
20.1855756905
 11
-10.3116211542
 21
20.4355468998
  0
LINE
  5
298
100
AcDbEntity
  8
PORTATASTO
100
AcDbLine
 62
253
  6
CONTINUOUS
 10
-11.8665776126
 20
25.9358812953
 11
-11.8624079946
 21
26.5231380499
  0
LINE
  5
299
100
AcDbEntity
  8
ASSI
100
AcDbLine
 62
253
  6
CONTINUOUS
 10
-10.1160047543
 20
28.8214728518
 11
-10.1408018425
 21
28.4619424015
  0
LINE
  5
29A
100
AcDbEntity
  8
ASSI
100
AcDbLine
 62
253
  6
CONTINUOUS
 10
2.6935012913
 20
18.0397547014
 11
1.313042388
 21
16.7231176535
  0
LINE
  5
29B
100
AcDbEntity
  8
ASSI
100
AcDbLine
 62
7
  6
CONTINUOUS
 10
2.5962004973
 20
18.0391621311
 11
1.2039970016
 21
16.7776403467
  0
LINE
  5
29C
100
AcDbEntity
  8
PORTATASTO
100
AcDbLine
 62
7
  6
CONTINUOUS
 10
3.1847736018
 20
13.8244084299
 11
2.8275081074
 21
13.6248245387
  0
LINE
  5
29D
100
AcDbEntity
  8
PORTATASTO
100
AcDbLine
 62
7
  6
CONTINUOUS
 10
2.8275081074
 20
14.8965597482
 11
3.8955828193
 21
15.4318474379
  0
LINE
  5
29E
100
AcDbEntity
  8
0
100
AcDbLine
 62
7
  6
CONTINUOUS
 10
8.2089341845
 20
18.9382854424
 11
8.1508681661
 21
18.9092524332
  0
LINE
  5
29F
100
AcDbEntity
  8
PORTATASTO
100
AcDbLine
 62
7
  6
CONTINUOUS
 10
3.8955828193
 20
15.4318474379
 11
8.4713940104
 21
17.7143400034
  0
LINE
  5
2A0
100
AcDbEntity
  8
PORTATASTO
100
AcDbLine
 62
7
  6
CONTINUOUS
 10
3.1921784744
 20
13.8207059937
 11
8.5236354732
 21
16.4763086368
  0
LINE
  5
2A1
100
AcDbEntity
  8
PORTATASTO
100
AcDbLine
 62
7
  6
CONTINUOUS
 10
3.2826358603
 20
15.7383209174
 11
7.8823220843
 21
18.0088759665
  0
LINE
  5
2A2
100
AcDbEntity
  8
PORTATASTO
100
AcDbLine
 62
7
  6
CONTINUOUS
 10
8.6476827591
 20
17.4924999805
 11
9.9844308147
 21
18.1514165893
  0
LINE
  5
2A3
100
AcDbEntity
  8
DRAFT
100
AcDbLine
 62
7
  6
CONTINUOUS
 10
21.9975164177
 20
23.3452571676
 11
22.8695119429
 21
23.7626134088
  0
LINE
  5
2A4
100
AcDbEntity
  8
PORTATASTO
100
AcDbLine
 62
7
  6
CONTINUOUS
 10
-9.4661805421
 20
27.7137045437
 11
-9.4631816005
 21
27.2913280295
  0
LINE
  5
2A5
100
AcDbEntity
  8
PORTATASTO
100
AcDbLine
 62
253
  6
CONTINUOUS
 10
-9.9589957832
 20
20.1851141039
 11
-9.9589957832
 21
20.4350853132
  0
LINE
  5
2A6
100
AcDbEntity
  8
PORTATASTO
100
AcDbLine
 62
253
  6
CONTINUOUS
 10
-9.6008119367
 20
19.0884613251
 11
-9.6008119367
 21
19.7872778629
  0
LINE
  5
2A7
100
AcDbEntity
  8
PORTATASTO
100
AcDbLine
 62
253
  6
CONTINUOUS
 10
-9.2481865657
 20
19.0992869451
 11
-9.2481865657
 21
19.7868162763
  0
LINE
  5
2A8
100
AcDbEntity
  8
PORTATASTO
100
AcDbLine
 62
7
  6
CONTINUOUS
 10
-9.0526262314
 20
19.8578261337
 11
-9.0526262314
 21
19.6078549244
  0
LINE
  5
2A9
100
AcDbEntity
  8
PORTATASTO
100
AcDbLine
 62
253
  6
CONTINUOUS
 10
-8.9794029267
 20
19.769437786
 11
-8.9794029267
 21
19.5194665767
  0
LINE
  5
2AA
100
AcDbEntity
  8
PORTATASTO
100
AcDbLine
 62
7
  6
CONTINUOUS
 10
-8.3492218865
 20
19.1016442547
 11
-8.3492218865
 21
18.5177866528
  0
LINE
  5
2AB
100
AcDbEntity
  8
PORTATASTO
100
AcDbLine
 62
253
  6
CONTINUOUS
 10
-8.2759985818
 20
19.0650326024
 11
-8.2759985818
 21
18.4260546476
  0
LINE
  5
2AC
100
AcDbEntity
  8
PORTATASTO
100
AcDbLine
 62
253
  6
CONTINUOUS
 10
-7.7483590724
 20
18.9039446496
 11
-7.7483590724
 21
19.1539158589
  0
LINE
  5
2AD
100
AcDbEntity
  8
PORTATASTO
100
AcDbLine
 62
7
  6
CONTINUOUS
 10
-7.6479353836
 20
21.5933209388
 11
-7.6479353836
 21
21.2036065393
  0
LINE
  5
2AE
100
AcDbEntity
  8
PORTATASTO
100
AcDbLine
 62
253
  6
CONTINUOUS
 10
-7.3957337014
 20
18.903483063
 11
-7.3957337014
 21
19.1534542723
  0
LINE
  5
2AF
100
AcDbEntity
  8
PORTATASTO
100
AcDbLine
 62
253
  6
CONTINUOUS
 10
-7.0375498549
 20
17.8068302842
 11
-7.0375498549
 21
18.505646822
  0
LINE
  5
2B0
100
AcDbEntity
  8
PORTATASTO
100
AcDbLine
 62
253
  6
CONTINUOUS
 10
-6.6849244839
 20
17.8176559042
 11
-6.6849244839
 21
18.5051852354
  0
LINE
  5
2B1
100
AcDbEntity
  8
PORTATASTO
100
AcDbLine
 62
7
  6
CONTINUOUS
 10
-7.2640223903
 20
24.578212778
 11
-7.2617063456
 21
25.695058278
  0
LINE
  5
2B2
100
AcDbEntity
  8
ASSI
100
AcDbLine
 62
253
  6
CONTINUOUS
 10
-5.8798332108
 20
30.848997743
 11
-5.9332014392
 21
30.0752172461
  0
LINE
  5
2B3
100
AcDbEntity
  8
PORTATASTO
100
AcDbLine
 62
7
  6
CONTINUOUS
 10
3.1847736018
 20
14.5801452654
 11
3.8955828193
 21
15.4318474379
  0
LINE
  5
2B4
100
AcDbEntity
  8
PORTATASTO
100
AcDbLine
 62
7
  6
CONTINUOUS
 10
13.9190305376
 20
15.4188631542
 11
7.833815885
 21
12.2019556811
  0
LINE
  5
2B5
100
AcDbEntity
  8
PORTATASTO
100
AcDbLine
 62
7
  6
CONTINUOUS
 10
13.9190305376
 20
15.8189904145
 11
7.6763467818
 21
12.5469561673
  0
LINE
  5
2B6
100
AcDbEntity
  8
PORTATASTO
100
AcDbLine
 62
7
  6
CONTINUOUS
 10
4.2025130504
 20
11.1273407115
 11
4.1830581036
 21
11.1173432951
  0
LINE
  5
2B7
100
AcDbEntity
  8
PORTATASTO
100
AcDbLine
 62
7
  6
CONTINUOUS
 10
4.4301308049
 20
13.4070605039
 11
6.7174893639
 21
14.5775251139
  0
LINE
  5
2B8
100
AcDbEntity
  8
PORTATASTO
100
AcDbLine
 62
253
  6
CONTINUOUS
 10
4.5430886671
 20
13.4005464712
 11
6.830073538
 21
14.5708198612
  0
LINE
  5
2B9
100
AcDbEntity
  8
PORTATASTO
100
AcDbLine
 62
253
  6
CONTINUOUS
 10
8.2734785226
 20
11.9821243623
 11
7.5725425688
 21
11.6305239464
  0
LINE
  5
2BA
100
AcDbEntity
  8
PORTATASTO
100
AcDbLine
 62
253
  6
CONTINUOUS
 10
5.7741325214
 20
12.785024544
 11
8.085192921
 21
13.9432601697
  0
LINE
  5
2BB
100
AcDbEntity
  8
PORTATASTO
100
AcDbLine
 62
253
  6
CONTINUOUS
 10
5.9509067935
 20
12.4801340249
 11
8.2619671931
 21
13.6383696505
  0
LINE
  5
2BC
100
AcDbEntity
  8
PORTATASTO
100
AcDbLine
 62
7
  6
CONTINUOUS
 10
13.7243670778
 20
14.7449257462
 11
11.8703690146
 21
13.8179267146
  0
LINE
  5
2BD
100
AcDbEntity
  8
PORTATASTO
100
AcDbLine
 62
7
  6
CONTINUOUS
 10
12.9793306346
 20
16.6539666794
 11
7.8184304343
 21
14.076641413
  0
LINE
  5
2BE
100
AcDbEntity
  8
ASSI
100
AcDbLine
 62
7
  6
CONTINUOUS
 10
13.1070976493
 20
17.1354654562
 11
12.8084323895
 21
16.9873252855
  0
LINE
  5
2BF
100
AcDbEntity
  8
ASSI
100
AcDbLine
 62
253
  6
CONTINUOUS
 10
13.2441048217
 20
17.1283286134
 11
12.8838268217
 21
16.9496280694
  0
LINE
  5
2C0
100
AcDbEntity
  8
ASSI
100
AcDbLine
 62
7
  6
CONTINUOUS
 10
11.996124735
 20
13.7550488544
 11
8.3072450168
 21
11.9631788974
  0
LINE
  5
2C1
100
AcDbEntity
  8
ASSI
100
AcDbLine
 62
253
  6
CONTINUOUS
 10
-5.9332014392
 20
29.2071106404
 11
-5.9332014392
 21
30.0752172461
  0
LINE
  5
2C2
100
AcDbEntity
  8
PORTATASTO
100
AcDbLine
 62
7
  6
CONTINUOUS
 10
-5.7954825193
 20
19.070273326
 11
-5.7954825193
 21
18.3145364905
  0
LINE
  5
2C3
100
AcDbEntity
  8
PORTATASTO
100
AcDbLine
 62
7
  6
CONTINUOUS
 10
-5.0846733018
 20
20.3116898979
 11
-5.0846733018
 21
19.9219754984
  0
LINE
  5
2C4
100
AcDbEntity
  8
ASSI
100
AcDbLine
 62
7
  6
CONTINUOUS
 10
-4.5189878768
 20
19.1338040018
 11
-4.5189878768
 21
19.0804259548
  0
LINE
  5
2C5
100
AcDbEntity
  8
PORTATASTO
100
AcDbLine
 62
7
  6
CONTINUOUS
 10
-3.5285051354
 20
17.8183034356
 11
-3.5285051354
 21
16.5387571924
  0
LINE
  5
2C6
100
AcDbEntity
  8
PORTATASTO
100
AcDbLine
 62
253
  6
CONTINUOUS
 10
-3.382058526
 20
17.4750849214
 11
-3.382058526
 21
16.3553312445
  0
LINE
  5
2C7
100
AcDbEntity
  8
ASSI
100
AcDbLine
 62
253
  6
CONTINUOUS
 10
-3.3984904378
 20
25.4627156935
 11
-3.4232874826
 21
25.1031852215
  0
LINE
  5
2C8
100
AcDbEntity
  8
ASSI
100
AcDbLine
 62
253
  6
CONTINUOUS
 10
-1.6436616672
 20
32.8765226342
 11
-1.6905607521
 21
32.1965375897
  0
LINE
  5
2C9
100
AcDbEntity
  8
PORTATASTO
100
AcDbLine
 62
7
  6
CONTINUOUS
 10
7.5511579756
 20
11.641216243
 11
6.661716011
 21
11.1443356568
  0
LINE
  5
2CA
100
AcDbEntity
  8
RACCORDO
100
AcDbLine
 62
253
  6
CONTINUOUS
 10
5.433809193
 20
10.4919677504
 11
2.0837069279
 21
8.6630484529
  0
LINE
  5
2CB
100
AcDbEntity
  8
PORTATASTO
100
AcDbLine
 62
253
  6
CONTINUOUS
 10
7.5728072061
 20
11.6303916278
 11
6.4936331422
 21
11.0412387857
  0
LINE
  5
2CC
100
AcDbEntity
  8
RACCORDO
100
AcDbLine
 62
253
  6
CONTINUOUS
 10
5.787093459
 20
9.8821147238
 11
2.4495396679
 21
8.0600460072
  0
LINE
  5
2CD
100
AcDbEntity
  8
PORTATASTO
100
AcDbLine
 62
253
  6
CONTINUOUS
 10
7.926091472
 20
11.0205386012
 11
6.8469174081
 21
10.4313857591
  0
LINE
  5
2CE
100
AcDbEntity
  8
PORTATASTO
100
AcDbLine
 62
7
  6
CONTINUOUS
 10
8.6270274258
 20
8.5270494539
 11
9.3279633796
 21
8.8912459474
  0
LINE
  5
2CF
100
AcDbEntity
  8
ASSI
100
AcDbLine
 62
253
  6
CONTINUOUS
 10
24.1768455802
 20
17.2641291496
 11
8.9615098978
 21
9.5232847108
  0
LINE
  5
2D0
100
AcDbEntity
  8
PORTATASTO
100
AcDbLine
 62
253
  6
CONTINUOUS
 10
8.6270274258
 20
11.3723518646
 11
7.926091472
 21
11.0207514487
  0
LINE
  5
2D1
100
AcDbEntity
  8
PORTATASTO
100
AcDbLine
 62
7
  6
CONTINUOUS
 10
8.6270274258
 20
10.0077965131
 11
8.6685535923
 21
10.0285595963
  0
LINE
  5
2D2
100
AcDbEntity
  8
RACCORDO
100
AcDbLine
 62
253
  6
CONTINUOUS
 10
24.481806224
 20
18.7276706353
 11
29.0931523736
 21
21.0149323208
  0
LINE
  5
2D3
100
AcDbEntity
  8
RACCORDO
100
AcDbLine
 62
253
  6
CONTINUOUS
 10
25.8867124921
 20
16.2843748913
 11
30.5132136597
 21
18.5791535774
  0
LINE
  5
2D4
100
AcDbEntity
  8
ASSI
100
AcDbLine
 62
253
  6
CONTINUOUS
 10
12.6787044373
 20
12.5777730135
 11
21.572175536
 21
16.8977684844
  0
LINE
  5
2D5
100
AcDbEntity
  8
ASSI
100
AcDbLine
 62
253
  6
CONTINUOUS
 10
13.0163727712
 20
11.9953812864
 11
22.0720993835
 21
16.3941922251
  0
LINE
  5
2D6
100
AcDbEntity
  8
ASSI
100
AcDbLine
 62
7
  6
CONTINUOUS
 10
21.9975164177
 20
16.522828813
 11
24.0481260831
 21
17.486137442
  0
LINE
  5
2D7
100
AcDbEntity
  8
PORTATASTO
100
AcDbLine
 62
7
  6
CONTINUOUS
 10
7.926091472
 20
8.1195516903
 11
9.3279633796
 21
8.5274220095
  0
LINE
  5
2D8
100
AcDbEntity
  8
PORTATASTO
100
AcDbLine
 62
7
  6
CONTINUOUS
 10
-2.1855354989
 20
23.2709069242
 11
-2.1855354989
 21
22.6998770345
  0
LINE
  5
2D9
100
AcDbEntity
  8
PORTATASTO
100
AcDbLine
 62
253
  6
CONTINUOUS
 10
-1.9908720391
 20
23.7739417029
 11
-1.9908720391
 21
23.3738144426
  0
LINE
  5
2DA
100
AcDbEntity
  8
PORTATASTO
100
AcDbLine
 62
7
  6
CONTINUOUS
 10
-1.8505419392
 20
24.0709079766
 11
-1.8505419392
 21
23.5500804395
  0
LINE
  5
2DB
100
AcDbEntity
  8
ASSI
100
AcDbLine
 62
253
  6
CONTINUOUS
 10
-1.6905607521
 20
31.2468032988
 11
-1.6905607521
 21
32.1965375897
  0
LINE
  5
2DC
100
AcDbEntity
  8
ASSI
100
AcDbLine
 62
7
  6
CONTINUOUS
 10
-0.2809263397
 20
21.2359137676
 11
-0.2809263397
 21
20.304471647
  0
LINE
  5
2DD
100
AcDbEntity
  8
ASSI
100
AcDbLine
 62
253
  6
CONTINUOUS
 10
0.8376811063
 20
27.4902405844
 11
0.7843129821
 21
26.7164600355
  0
LINE
  5
2DE
100
AcDbEntity
  8
PORTATASTO
100
AcDbLine
 62
7
  6
CONTINUOUS
 10
8.2619671931
 20
13.248655251
 11
7.5511579756
 21
12.3969530785
  0
LWPOLYLINE
  5
2DF
100
AcDbEntity
  8
ASSI
100
AcDbPolyline
 62
7
  6
CONTINUOUS
 90
7
 70
0
 10
13.1365877997
 20
17.1535755313
 10
13.136754886
 20
17.1537454125
 10
13.1351732633
 20
17.1524056099
 10
13.1306477054
 20
17.1490490754
 10
13.1229168632
 20
17.1440699966
 10
13.1119497107
 20
17.1379343426
 10
13.107134521
 20
17.1354831008
  0
LINE
  5
2E0
100
AcDbEntity
  8
RACCORDO
100
AcDbLine
 62
7
  6
CONTINUOUS
 10
25.8819609616
 20
15.6032295909
 11
30.5172604443
 21
18.0032261548
  0
LINE
  5
2E1
100
AcDbEntity
  8
ASSI
100
AcDbLine
 62
253
  6
CONTINUOUS
 10
24.5909960559
 20
15.8324955749
 11
9.3756603735
 21
8.0916511361
  0
LINE
  5
2E2
100
AcDbEntity
  8
ASSI
100
AcDbLine
 62
7
  6
CONTINUOUS
 10
30.5780933659
 20
17.877695214
 11
24.5909960559
 21
14.8429128629
  0
LINE
  5
2E3
100
AcDbEntity
  8
PORTATASTO
100
AcDbLine
 62
253
  6
CONTINUOUS
 10
2.6159937241
 20
18.0479848758
 11
2.6085440646
 21
19.0972087872
  0
LINE
  5
2E4
100
AcDbEntity
  8
PORTATASTO
100
AcDbLine
 62
7
  6
CONTINUOUS
 10
3.0698648722
 20
19.4120084222
 11
3.0642491297
 21
20.5317761017
  0
LINE
  5
2E5
100
AcDbEntity
  8
PORTATASTO
100
AcDbLine
 62
253
  6
CONTINUOUS
 10
2.9460462883
 20
19.2635380626
 11
2.9415749893
 21
20.5286079037
  0
LINE
  5
2E6
100
AcDbEntity
  8
ASSI
100
AcDbLine
 62
253
  6
CONTINUOUS
 10
0.7843129821
 20
26.3747289827
 11
0.7843129821
 21
26.7164600355
  0
LINE
  5
2E7
100
AcDbEntity
  8
PORTATASTO
100
AcDbLine
 62
253
  6
CONTINUOUS
 10
2.1222573654
 20
13.6031732987
 11
2.1222573654
 21
14.7229269757
  0
LINE
  5
2E8
100
AcDbEntity
  8
PORTATASTO
100
AcDbLine
 62
253
  6
CONTINUOUS
 10
2.8275081074
 20
13.6248245387
 11
2.8275081074
 21
14.8965597482
  0
LINE
  5
2E9
100
AcDbEntity
  8
PORTATASTO
100
AcDbLine
 62
7
  6
CONTINUOUS
 10
3.1847736018
 20
13.8244084299
 11
3.1847736018
 21
14.5801452654
  0
LINE
  5
2EA
100
AcDbEntity
  8
PORTATASTO
100
AcDbLine
 62
7
  6
CONTINUOUS
 10
3.1921784744
 20
13.8207059937
 11
3.1921784744
 21
14.259877314
  0
LINE
  5
2EB
100
AcDbEntity
  8
PORTATASTO
100
AcDbLine
 62
253
  6
CONTINUOUS
 10
4.0433249641
 20
17.9809300069
 11
4.0474945821
 21
18.5681867615
  0
LINE
  5
2EC
100
AcDbEntity
  8
ASSI
100
AcDbLine
 62
253
  6
CONTINUOUS
 10
5.0738526505
 20
29.5177654753
 11
5.0269536692
 21
28.837780379
  0
LINE
  5
2ED
100
AcDbEntity
  8
PORTATASTO
100
AcDbLine
 62
7
  6
CONTINUOUS
 10
6.4437220346
 20
19.7587532553
 11
6.4467209762
 21
19.3363767411
  0
LINE
  5
2EE
100
AcDbEntity
  8
PORTATASTO
100
AcDbLine
 62
7
  6
CONTINUOUS
 10
4.2940142635
 20
13.1845058862
 11
4.2940142635
 21
12.9345346769
  0
LINE
  5
2EF
100
AcDbEntity
  8
PORTATASTO
100
AcDbLine
 62
7
  6
CONTINUOUS
 10
4.2940142635
 20
-28.632961621
 11
4.2940142635
 21
-28.7882457526
  0
LINE
  5
2F0
100
AcDbEntity
  8
PORTATASTO
100
AcDbLine
 62
253
  6
CONTINUOUS
 10
4.3672375682
 20
13.0961175386
 11
4.3672375682
 21
12.8461463293
  0
LINE
  5
2F1
100
AcDbEntity
  8
PORTATASTO
100
AcDbLine
 62
253
  6
CONTINUOUS
 10
4.3672375682
 20
-28.6266628909
 11
4.3672375682
 21
-28.8766341002
  0
LINE
  5
2F2
100
AcDbEntity
  8
PORTATASTO
100
AcDbLine
 62
7
  6
CONTINUOUS
 10
4.9974186084
 20
12.4283240073
 11
4.9974186084
 21
11.8444664053
  0
LINE
  5
2F3
100
AcDbEntity
  8
ASSI
100
AcDbLine
 62
253
  6
CONTINUOUS
 10
5.0269536692
 20
28.4114591367
 11
5.0269536692
 21
28.837780379
  0
LINE
  5
2F4
100
AcDbEntity
  8
PORTATASTO
100
AcDbLine
 62
253
  6
CONTINUOUS
 10
5.0706419131
 20
12.3917123549
 11
5.0706419131
 21
11.7527344002
  0
LINE
  5
2F5
100
AcDbEntity
  8
PORTATASTO
100
AcDbLine
 62
253
  6
CONTINUOUS
 10
5.5982814225
 20
-29.4921560274
 11
5.5982814225
 21
-29.242184818
  0
LINE
  5
2F6
100
AcDbEntity
  8
PORTATASTO
100
AcDbLine
 62
253
  6
CONTINUOUS
 10
5.5982814225
 20
12.2306244021
 11
5.5982814225
 21
12.4805956115
  0
LINE
  5
2F7
100
AcDbEntity
  8
RACCORDO
100
AcDbLine
 62
7
  6
CONTINUOUS
 10
5.787093459
 20
-27.7895939574
 11
5.787093459
 21
9.8821147238
  0
LINE
  5
2F8
100
AcDbEntity
  8
PORTATASTO
100
AcDbLine
 62
253
  6
CONTINUOUS
 10
5.9509067935
 20
-29.4926176139
 11
5.9509067935
 21
-29.2426464046
  0
LINE
  5
2F9
100
AcDbEntity
  8
PORTATASTO
100
AcDbLine
 62
253
  6
CONTINUOUS
 10
5.9509067935
 20
12.2301628155
 11
5.9509067935
 21
12.4801340249
  0
LINE
  5
2FA
100
AcDbEntity
  8
PORTATASTO
100
AcDbLine
 62
253
  6
CONTINUOUS
 10
6.30909064
 20
-28.1404826456
 11
6.30909064
 21
-27.4416661078
  0
LINE
  5
2FB
100
AcDbEntity
  8
PORTATASTO
100
AcDbLine
 62
253
  6
CONTINUOUS
 10
6.30909064
 20
11.1335100368
 11
6.30909064
 21
11.8323265746
  0
LINE
  5
2FC
100
AcDbEntity
  8
PORTATASTO
100
AcDbLine
 62
253
  6
CONTINUOUS
 10
6.661716011
 20
-28.1409442322
 11
6.661716011
 21
-27.5652233308
  0
LINE
  5
2FD
100
AcDbEntity
  8
PORTATASTO
100
AcDbLine
 62
253
  6
CONTINUOUS
 10
6.661716011
 20
11.1443356568
 11
6.661716011
 21
11.831864988
  0
LINE
  5
2FE
100
AcDbEntity
  8
PORTATASTO
100
AcDbLine
 62
7
  6
CONTINUOUS
 10
6.8469174081
 20
10.4313857591
 11
6.8469174081
 21
-27.2773685982
  0
LINE
  5
2FF
100
AcDbEntity
  8
ASSI
100
AcDbLine
 62
7
  6
CONTINUOUS
 10
7.0775633346
 20
24.5776424255
 11
7.0775633346
 21
24.145074585
  0
LINE
  5
300
100
AcDbEntity
  8
ASSI
100
AcDbLine
 62
253
  6
CONTINUOUS
 10
7.3604664853
 20
19.2324947066
 11
7.3604612918
 21
19.8029694208
  0
LINE
  5
301
100
AcDbEntity
  8
PORTATASTO
100
AcDbLine
 62
7
  6
CONTINUOUS
 10
7.5511579756
 20
12.3969530785
 11
7.5511579756
 21
11.641216243
  0
LINE
  5
302
100
AcDbEntity
  8
PORTATASTO
100
AcDbLine
 62
7
  6
CONTINUOUS
 10
7.5511579756
 20
-27.1983906774
 11
7.5511579756
 21
-27.8258561416
  0
LINE
  5
303
100
AcDbEntity
  8
RACCORDO
100
AcDbLine
 62
7
  6
CONTINUOUS
 10
7.4759602326
 20
26.4417152939
 11
7.4618439437
 21
24.453550889
  0
LINE
  5
304
100
AcDbEntity
  8
PORTATASTO
100
AcDbLine
 62
7
  6
CONTINUOUS
 10
7.926091472
 20
8.1195516903
 11
9.364990224
 21
8.5089085873
  0
LINE
  5
305
100
AcDbEntity
  8
RACCORDO
100
AcDbLine
 62
253
  6
CONTINUOUS
 10
1.0677691761
 20
6.9229496659
 11
-29.6596615903
 21
22.2866650491
  0
LINE
  5
306
100
AcDbEntity
  8
ASSI
100
AcDbLine
 62
253
  6
CONTINUOUS
 10
7.7809923339
 20
19.0941903493
 11
7.7809729444
 21
19.7922402658
  0
LINE
  5
307
100
AcDbEntity
  8
PORTATASTO
100
AcDbLine
 62
7
  6
CONTINUOUS
 10
7.926091472
 20
11.0207514487
 11
7.926091472
 21
8.1195516903
  0
LINE
  5
308
100
AcDbEntity
  8
PORTATASTO
100
AcDbLine
 62
7
  6
CONTINUOUS
 10
7.926091472
 20
-26.8245880082
 11
7.926091472
 21
-23.9233882498
  0
LINE
  5
309
100
AcDbEntity
  8
PORTATASTO
100
AcDbLine
 62
7
  6
CONTINUOUS
 10
8.2619671931
 20
13.6383696505
 11
8.2619671931
 21
13.248655251
  0
LINE
  5
30A
100
AcDbEntity
  8
PORTATASTO
100
AcDbLine
 62
7
  6
CONTINUOUS
 10
8.2619671931
 20
-27.9741539692
 11
8.2619671931
 21
-28.3638683687
  0
LINE
  5
30B
100
AcDbEntity
  8
PORTATASTO
100
AcDbLine
 62
7
  6
CONTINUOUS
 10
8.6270274258
 20
11.3723518646
 11
8.6270274258
 21
8.5270494539
  0
LINE
  5
30C
100
AcDbEntity
  8
PORTATASTO
100
AcDbLine
 62
7
  6
CONTINUOUS
 10
8.6270274258
 20
-23.6176084049
 11
8.6270274258
 21
-26.4629108155
  0
LINE
  5
30D
100
AcDbEntity
  8
PORTATASTO
100
AcDbLine
 62
7
  6
CONTINUOUS
 10
9.3279633796
 20
8.8912459474
 11
9.3279633796
 21
8.5274220095
  0
LINE
  5
30E
100
AcDbEntity
  8
PORTATASTO
100
AcDbLine
 62
7
  6
CONTINUOUS
 10
9.3279633796
 20
-22.9489539522
 11
9.3279633796
 21
-23.2685272898
  0
LINE
  5
30F
100
AcDbEntity
  8
PORTATASTO
100
AcDbLine
 62
7
  6
CONTINUOUS
 10
9.364990224
 20
8.5089085873
 11
9.364990224
 21
-22.923216774
  0
LINE
  5
310
100
AcDbEntity
  8
ASSI
100
AcDbLine
 62
7
  6
CONTINUOUS
 10
9.3756603735
 20
8.0916511361
 11
9.3756603735
 21
-22.5166294723
  0
LINE
  5
311
100
AcDbEntity
  8
PORTATASTO
100
AcDbLine
 62
7
  6
CONTINUOUS
 10
8.6458801864
 20
16.6232614897
 11
8.6481962311
 21
17.7401069896
  0
LINE
  5
312
100
AcDbEntity
  8
RACCORDO
100
AcDbLine
 62
253
  6
CONTINUOUS
 10
2.0837069279
 20
8.6630484529
 11
-28.667096207
 21
24.0384500203
  0
LINE
  5
313
100
AcDbEntity
  8
DRAFT
100
AcDbLine
 62
7
  6
CONTINUOUS
 10
-14.2046783338
 20
18.0537317656
 11
-10.0360932154
 21
15.9694392064
  0
LINE
  5
314
100
AcDbEntity
  8
ASSI
100
AcDbLine
 62
253
  6
CONTINUOUS
 10
13.0209606717
 20
17.1722464022
 11
13.0209581982
 21
17.0927396534
  0
LINE
  5
315
100
AcDbEntity
  8
PORTATASTO
100
AcDbLine
 62
7
  6
CONTINUOUS
 10
13.7243670778
 20
15.3159556358
 11
13.7243670778
 21
14.7449257462
  0
LINE
  5
316
100
AcDbEntity
  8
PORTATASTO
100
AcDbLine
 62
253
  6
CONTINUOUS
 10
13.9190305376
 20
-21.3399693574
 11
13.9190305376
 21
-20.9612790928
  0
LINE
  5
317
100
AcDbEntity
  8
PORTATASTO
100
AcDbLine
 62
253
  6
CONTINUOUS
 10
13.9190305376
 20
15.4188631542
 11
13.9190305376
 21
15.8189904145
  0
LINE
  5
318
100
AcDbEntity
  8
PORTATASTO
100
AcDbLine
 62
7
  6
CONTINUOUS
 10
14.0593606375
 20
-21.2896071964
 11
14.0593606375
 21
-20.8870702244
  0
LINE
  5
319
100
AcDbEntity
  8
PORTATASTO
100
AcDbLine
 62
7
  6
CONTINUOUS
 10
14.0593606375
 20
15.5951291511
 11
14.0593606375
 21
16.1159574388
  0
LWPOLYLINE
  5
31A
100
AcDbEntity
  8
RACCORDO
100
AcDbPolyline
 62
7
  6
CONTINUOUS
 90
5
 70
0
 10
-1.8304276808
 20
-23.4921419732
 10
-1.8607352769
 20
-23.5331998057
 10
-1.8935219151
 20
-23.5663004159
 10
-1.9302039641
 20
-23.5929774919
 10
-1.9501073013
 20
-23.6038307557
  0
LINE
  5
31B
100
AcDbEntity
  8
PORTATASTO
100
AcDbLine
 62
7
  6
CONTINUOUS
 10
6.2571063251
 20
11.9630588976
 11
5.723999412
 21
12.0742822683
  0
LINE
  5
31C
100
AcDbEntity
  8
PORTATASTO
100
AcDbLine
 62
253
  6
CONTINUOUS
 10
6.4840137066
 20
12.1189394449
 11
5.9509067935
 21
12.2301628155
  0
LINE
  5
31D
100
AcDbEntity
  8
DRAFT
100
AcDbLine
 62
7
  6
CONTINUOUS
 10
-8.4987421231
 20
16.8087243556
 11
-12.1203857746
 21
18.6195461814
  0
LINE
  5
31E
100
AcDbEntity
  8
PORTATASTO
100
AcDbLine
 62
7
  6
CONTINUOUS
 10
9.364990224
 20
8.5089085873
 11
9.3279633796
 21
8.5274220095
  0
LINE
  5
31F
100
AcDbEntity
  8
RACCORDO
100
AcDbLine
 62
7
  6
CONTINUOUS
 10
-25.4319400551
 20
25.9248423744
 11
-12.1203857746
 21
19.2690652342
  0
LINE
  5
320
100
AcDbEntity
  8
RACCORDO
100
AcDbLine
 62
7
  6
CONTINUOUS
 10
-7.8777450875
 20
17.1477448906
 11
5.433809193
 21
10.4919677504
  0
LINE
  5
321
100
AcDbEntity
  8
PORTATASTO
100
AcDbLine
 62
7
  6
CONTINUOUS
 10
6.4936331422
 20
11.0412387857
 11
6.30909064
 21
11.1335100368
  0
LINE
  5
322
100
AcDbEntity
  8
PORTATASTO
100
AcDbLine
 62
7
  6
CONTINUOUS
 10
5.0706419131
 20
11.7527344002
 11
-7.0375498549
 21
17.8068302842
  0
LINE
  5
323
100
AcDbEntity
  8
PORTATASTO
100
AcDbLine
 62
7
  6
CONTINUOUS
 10
-8.2759985818
 20
18.4260546476
 11
-9.6008119367
 21
19.0884613251
  0
LINE
  5
324
100
AcDbEntity
  8
PORTATASTO
100
AcDbLine
 62
7
  6
CONTINUOUS
 10
-10.8392606636
 20
19.7076856885
 11
-22.9474524316
 21
25.7617815726
  0
LINE
  5
325
100
AcDbEntity
  8
PORTATASTO
100
AcDbLine
 62
7
  6
CONTINUOUS
 10
-24.1859011585
 20
26.381005936
 11
-24.3704436607
 21
26.4732771871
  0
LINE
  5
326
100
AcDbEntity
  8
PORTATASTO
100
AcDbLine
 62
7
  6
CONTINUOUS
 10
8.6270274258
 20
10.0493226795
 11
8.6685535923
 21
10.0285595963
  0
LINE
  5
327
100
AcDbEntity
  8
PORTATASTO
100
AcDbLine
 62
7
  6
CONTINUOUS
 10
2.1222573654
 20
13.6031732987
 11
-3.382058526
 21
16.3553312445
  0
LINE
  5
328
100
AcDbEntity
  8
PORTATASTO
100
AcDbLine
 62
7
  6
CONTINUOUS
 10
-13.7876452113
 20
21.5581245871
 11
-19.2919611027
 21
24.3102825328
  0
LINE
  5
329
100
AcDbEntity
  8
PORTATASTO
100
AcDbLine
 62
7
  6
CONTINUOUS
 10
-24.8243322069
 20
27.339199415
 11
-23.5932883527
 21
26.7236774878
  0
LINE
  5
32A
100
AcDbEntity
  8
PORTATASTO
100
AcDbLine
 62
7
  6
CONTINUOUS
 10
-11.4776917121
 20
20.6658791675
 11
-10.2466478578
 21
20.0503572404
  0
LINE
  5
32B
100
AcDbEntity
  8
PORTATASTO
100
AcDbLine
 62
7
  6
CONTINUOUS
 10
-8.9144296303
 20
19.3842481266
 11
-7.683385776
 21
18.7687261995
  0
LINE
  5
32C
100
AcDbEntity
  8
PORTATASTO
100
AcDbLine
 62
7
  6
CONTINUOUS
 10
4.4322108646
 20
12.7109278792
 11
5.6632547189
 21
12.095405952
  0
LINE
  5
32D
100
AcDbEntity
  8
PORTATASTO
100
AcDbLine
 62
253
  6
CONTINUOUS
 10
-23.3589144746
 20
26.6663291318
 11
-22.9474524316
 21
26.4605981104
  0
LINE
  5
32E
100
AcDbEntity
  8
PORTATASTO
100
AcDbLine
 62
253
  6
CONTINUOUS
 10
-10.0122739797
 20
19.9930088844
 11
-9.6008119367
 21
19.7872778629
  0
LINE
  5
32F
100
AcDbEntity
  8
PORTATASTO
100
AcDbLine
 62
253
  6
CONTINUOUS
 10
-7.4490118979
 20
18.7113778435
 11
-7.0375498549
 21
18.505646822
  0
LINE
  5
330
100
AcDbEntity
  8
PORTATASTO
100
AcDbLine
 62
253
  6
CONTINUOUS
 10
5.897628597
 20
12.038057596
 11
6.30909064
 21
11.8323265746
  0
LINE
  5
331
100
AcDbEntity
  8
PORTATASTO
100
AcDbLine
 62
253
  6
CONTINUOUS
 10
-24.8893055034
 20
27.4744178651
 11
-23.6582616491
 21
26.8588959379
  0
LINE
  5
332
100
AcDbEntity
  8
PORTATASTO
100
AcDbLine
 62
253
  6
CONTINUOUS
 10
-11.5426650085
 20
20.8010976176
 11
-10.3116211542
 21
20.1855756905
  0
LINE
  5
333
100
AcDbEntity
  8
PORTATASTO
100
AcDbLine
 62
253
  6
CONTINUOUS
 10
-8.9794029267
 20
19.5194665767
 11
-7.7483590724
 21
18.9039446496
  0
LINE
  5
334
100
AcDbEntity
  8
PORTATASTO
100
AcDbLine
 62
253
  6
CONTINUOUS
 10
4.3672375682
 20
12.8461463293
 11
5.5982814225
 21
12.2306244021
  0
LINE
  5
335
100
AcDbEntity
  8
PORTATASTO
100
AcDbLine
 62
253
  6
CONTINUOUS
 10
5.5982814225
 20
12.4805956115
 11
4.3672375682
 21
13.0961175386
  0
LINE
  5
336
100
AcDbEntity
  8
PORTATASTO
100
AcDbLine
 62
253
  6
CONTINUOUS
 10
-7.7483590724
 20
19.1539158589
 11
-8.9794029267
 21
19.769437786
  0
LINE
  5
337
100
AcDbEntity
  8
PORTATASTO
100
AcDbLine
 62
253
  6
CONTINUOUS
 10
-10.3116211542
 20
20.4355468998
 11
-11.5426650085
 21
21.0510688269
  0
LINE
  5
338
100
AcDbEntity
  8
PORTATASTO
100
AcDbLine
 62
253
  6
CONTINUOUS
 10
-23.6582616491
 20
27.1088671473
 11
-24.8893055034
 21
27.7243890744
  0
LINE
  5
339
100
AcDbEntity
  8
PORTATASTO
100
AcDbLine
 62
7
  6
CONTINUOUS
 10
-21.7053850959
 20
26.2694877788
 11
-19.4384077121
 21
25.1359990869
  0
LINE
  5
33A
100
AcDbEntity
  8
PORTATASTO
100
AcDbLine
 62
7
  6
CONTINUOUS
 10
-12.7251289749
 20
21.7793597183
 11
-11.6027617213
 21
21.2181760915
  0
LINE
  5
33B
100
AcDbEntity
  8
PORTATASTO
100
AcDbLine
 62
7
  6
CONTINUOUS
 10
-5.7954825193
 20
18.3145364905
 11
-3.5285051354
 21
17.1810477986
  0
LINE
  5
33C
100
AcDbEntity
  8
PORTATASTO
100
AcDbLine
 62
7
  6
CONTINUOUS
 10
3.1847736018
 20
13.8244084299
 11
4.3071408554
 21
13.2632248032
  0
LINE
  5
33D
100
AcDbEntity
  8
PORTATASTO
100
AcDbLine
 62
7
  6
CONTINUOUS
 10
7.5511579756
 20
11.641216243
 11
7.5728072061
 21
11.6303916278
  0
LINE
  5
33E
100
AcDbEntity
  8
PORTATASTO
100
AcDbLine
 62
253
  6
CONTINUOUS
 10
5.7741325214
 20
12.785024544
 11
4.5430886671
 21
13.4005464712
  0
LINE
  5
33F
100
AcDbEntity
  8
PORTATASTO
100
AcDbLine
 62
253
  6
CONTINUOUS
 10
-7.5725079735
 20
19.4583447915
 11
-8.8035518278
 21
20.0738667186
  0
LINE
  5
340
100
AcDbEntity
  8
PORTATASTO
100
AcDbLine
 62
253
  6
CONTINUOUS
 10
-10.1357700553
 20
20.7399758324
 11
-11.3668139096
 21
21.3554977595
  0
LINE
  5
341
100
AcDbEntity
  8
PORTATASTO
100
AcDbLine
 62
253
  6
CONTINUOUS
 10
-23.4824105502
 20
27.4132960798
 11
-24.7134544045
 21
28.028818007
  0
LINE
  5
342
100
AcDbEntity
  8
PORTATASTO
100
AcDbLine
 62
253
  6
CONTINUOUS
 10
2.1222573654
 20
14.7229269757
 11
-3.382058526
 21
17.4750849214
  0
LINE
  5
343
100
AcDbEntity
  8
PORTATASTO
100
AcDbLine
 62
253
  6
CONTINUOUS
 10
-13.7876452113
 20
22.677878264
 11
-19.2919611027
 21
25.4300362097
  0
LINE
  5
344
100
AcDbEntity
  8
PORTATASTO
100
AcDbLine
 62
253
  6
CONTINUOUS
 10
2.5452240817
 20
14.8253272032
 11
-3.5236634841
 21
17.859770986
  0
LINE
  5
345
100
AcDbEntity
  8
PORTATASTO
100
AcDbLine
 62
253
  6
CONTINUOUS
 10
-13.364678495
 20
22.7802784915
 11
-19.4335660608
 21
25.8147222744
  0
LINE
  5
346
100
AcDbEntity
  8
PORTATASTO
100
AcDbLine
 62
7
  6
CONTINUOUS
 10
8.2734785226
 20
11.9821243623
 11
7.5511579756
 21
12.3432846358
  0
LINE
  5
347
100
AcDbEntity
  8
PORTATASTO
100
AcDbLine
 62
7
  6
CONTINUOUS
 10
-20.2915829242
 20
26.2646550857
 11
-21.7053850959
 21
26.9715561716
  0
LINE
  5
348
100
AcDbEntity
  8
PORTATASTO
100
AcDbLine
 62
7
  6
CONTINUOUS
 10
3.2554347097
 20
14.5448147115
 11
3.1847736018
 21
14.5801452654
  0
LINE
  5
349
100
AcDbEntity
  8
PORTATASTO
100
AcDbLine
 62
7
  6
CONTINUOUS
 10
-12.654467867
 20
22.4997659998
 11
-12.7251289749
 21
22.5350965538
  0
LINE
  5
34A
100
AcDbEntity
  8
PORTATASTO
100
AcDbLine
 62
7
  6
CONTINUOUS
 10
8.6685535923
 20
10.0285595963
 11
9.3279633796
 21
8.8912459474
  0
LINE
  5
34B
100
AcDbEntity
  8
ASSI
100
AcDbLine
 62
7
  6
CONTINUOUS
 10
8.6270274258
 20
10.1001816389
 11
8.9615098978
 21
9.5232847108
  0
LINE
  5
34C
100
AcDbEntity
  8
0
100
AcDbLine
 62
7
  6
CONTINUOUS
 10
-3.2964054305
 20
-21.5098534948
 11
-2.9985239935
 21
-21.3609127763
  0
LINE
  5
34D
100
AcDbEntity
  8
RACCORDO
100
AcDbLine
 62
7
  6
CONTINUOUS
 10
-3.1093639943
 20
-21.3883848827
 11
-3.111570821
 21
-21.3894864392
  0
LINE
  5
34E
100
AcDbEntity
  8
RACCORDO
100
AcDbLine
 62
253
  6
CONTINUOUS
 10
-3.2952474234
 20
-21.5092765282
 11
-3.2964054305
 21
-21.5098534948
  0
LWPOLYLINE
  5
34F
100
AcDbEntity
  8
RACCORDO
100
AcDbPolyline
 62
7
  6
CONTINUOUS
 90
4
 70
0
 10
-3.1116244932
 20
-21.3895146455
 10
-3.1015511175
 20
-21.3847049392
 10
-3.0625608898
 20
-21.3706683853
 10
-3.0208507215
 20
-21.3623182232
  0
LINE
  5
350
100
AcDbEntity
  8
PORTATASTO
100
AcDbLine
 62
7
  6
CONTINUOUS
 10
-7.0895341698
 20
18.6363791451
 11
-7.6226410829
 21
18.7476025157
  0
LINE
  5
351
100
AcDbEntity
  8
PORTATASTO
100
AcDbLine
 62
253
  6
CONTINUOUS
 10
-6.8626267883
 20
18.7922596923
 11
-7.3957337014
 21
18.903483063
  0
LINE
  5
352
100
AcDbEntity
  8
PORTATASTO
100
AcDbLine
 62
7
  6
CONTINUOUS
 10
-9.6527962516
 20
19.918010186
 11
-10.1859031647
 21
20.0292335566
  0
LINE
  5
353
100
AcDbEntity
  8
PORTATASTO
100
AcDbLine
 62
253
  6
CONTINUOUS
 10
-9.4258888701
 20
20.0738907332
 11
-9.9589957832
 21
20.1851141039
  0
LINE
  5
354
100
AcDbEntity
  8
PORTATASTO
100
AcDbLine
 62
7
  6
CONTINUOUS
 10
-3.6699605254
 20
18.6559122791
 11
-5.4136698509
 21
19.5277669418
  0
LINE
  5
355
100
AcDbEntity
  8
PORTATASTO
100
AcDbLine
 62
7
  6
CONTINUOUS
 10
-7.7315793022
 20
20.6867216675
 11
-7.9769319327
 21
20.8093979827
  0
LINE
  5
356
100
AcDbEntity
  8
ASSI
100
AcDbLine
 62
7
  6
CONTINUOUS
 10
-7.9455000756
 20
20.8470601012
 11
-7.6788190857
 21
20.7137196063
  0
LINE
  5
357
100
AcDbEntity
  8
ASSI
100
AcDbLine
 62
7
  6
CONTINUOUS
 10
-5.3822379938
 20
19.5654290603
 11
-4.5189878768
 21
19.1338040018
  0
LINE
  5
358
100
AcDbEntity
  8
PORTATASTO
100
AcDbLine
 62
7
  6
CONTINUOUS
 10
3.8955828193
 20
15.4318474379
 11
-2.3269568552
 21
18.5431172751
  0
LINE
  5
359
100
AcDbEntity
  8
PORTATASTO
100
AcDbLine
 62
7
  6
CONTINUOUS
 10
-12.0143197574
 20
23.3867987262
 11
-18.2368594319
 21
26.4980685634
  0
LINE
  5
35A
100
AcDbEntity
  8
PORTATASTO
100
AcDbLine
 62
7
  6
CONTINUOUS
 10
-22.4264695336
 20
29.199091397
 11
-21.1713501506
 21
28.5715317055
  0
LINE
  5
35B
100
AcDbEntity
  8
PORTATASTO
100
AcDbLine
 62
7
  6
CONTINUOUS
 10
-6.5165669569
 20
21.2441401086
 11
-5.2614475739
 21
20.6165804171
  0
LINE
  5
35C
100
AcDbEntity
  8
PORTATASTO
100
AcDbLine
 62
7
  6
CONTINUOUS
 10
8.085192921
 20
13.9432601697
 11
6.830073538
 21
14.5708198612
  0
LINE
  5
35D
100
AcDbEntity
  8
PORTATASTO
100
AcDbLine
 62
7
  6
CONTINUOUS
 10
-7.8247096557
 20
21.898211458
 11
-9.0798290387
 21
22.5257711495
  0
LINE
  5
35E
100
AcDbEntity
  8
ASSI
100
AcDbLine
 62
7
  6
CONTINUOUS
 10
2.6935012913
 20
18.0397547014
 11
5.3023627782
 21
16.735323958
  0
LINE
  5
35F
100
AcDbEntity
  8
ASSI
100
AcDbLine
 62
7
  6
CONTINUOUS
 10
-10.6075397985
 20
24.6902752463
 11
-13.2164012854
 21
25.9947059898
  0
LINE
  5
360
100
AcDbEntity
  8
ASSI
100
AcDbLine
 62
7
  6
CONTINUOUS
 10
11.996124735
 20
13.7550488544
 11
11.3668655614
 21
14.0696784412
  0
LINE
  5
361
100
AcDbEntity
  8
ASSI
100
AcDbLine
 62
253
  6
CONTINUOUS
 10
5.8716732331
 20
17.0163541555
 11
3.8248721412
 21
18.0397547014
  0
LINE
  5
362
100
AcDbEntity
  8
ASSI
100
AcDbLine
 62
253
  6
CONTINUOUS
 10
-10.0382293436
 20
24.9713054438
 11
-12.0850304355
 21
25.9947059898
  0
LINE
  5
363
100
AcDbEntity
  8
ASSI
100
AcDbLine
 62
7
  6
CONTINUOUS
 10
5.9223979348
 20
17.0413935216
 11
3.9143147412
 21
18.0454351184
  0
LINE
  5
364
100
AcDbEntity
  8
ASSI
100
AcDbLine
 62
7
  6
CONTINUOUS
 10
-9.9875046419
 20
24.99634481
 11
-11.9955878355
 21
26.0003864068
  0
LINE
  5
365
100
AcDbEntity
  8
ASSI
100
AcDbLine
 62
7
  6
CONTINUOUS
 10
13.0163727712
 20
11.9953812864
 11
11.996124735
 21
13.7550488544
  0
LINE
  5
366
100
AcDbEntity
  8
DRAFT
100
AcDbLine
 62
7
  6
CONTINUOUS
 10
18.9865488218
 20
24.8507409655
 11
18.9804246464
 21
25.707157057
  0
LINE
  5
367
100
AcDbEntity
  8
0
100
AcDbLine
 62
7
  6
CONTINUOUS
 10
-2.2007321215
 20
-23.7012001128
 11
-1.8583974918
 21
-23.5300327979
  0
LINE
  5
368
100
AcDbEntity
  8
RACCORDO
100
AcDbLine
 62
7
  6
CONTINUOUS
 10
-1.9500467102
 20
-23.6038017381
 11
-1.9484742503
 21
-23.6030216857
  0
LINE
  5
369
100
AcDbEntity
  8
PORTATASTO
100
AcDbLine
 62
7
  6
CONTINUOUS
 10
6.4467209762
 20
19.3363767411
 11
4.6926833086
 21
19.2443345153
  0
LINE
  5
36A
100
AcDbEntity
  8
DRAFT
100
AcDbLine
 62
7
  6
CONTINUOUS
 10
20.1023936255
 20
17.6326594396
 11
20.1280025746
 21
17.6273556526
  0
LINE
  5
36B
100
AcDbEntity
  8
PORTATASTO
100
AcDbLine
 62
7
  6
CONTINUOUS
 10
-22.9994367465
 20
26.5913304334
 11
-23.5325436596
 21
26.7025538041
  0
LINE
  5
36C
100
AcDbEntity
  8
PORTATASTO
100
AcDbLine
 62
253
  6
CONTINUOUS
 10
-22.772529365
 20
26.7472109807
 11
-23.3056362781
 21
26.8584343513
  0
LINE
  5
36D
100
AcDbEntity
  8
PORTATASTO
100
AcDbLine
 62
7
  6
CONTINUOUS
 10
-11.8624079946
 20
26.5231380499
 11
-9.394386455
 21
25.28912728
  0
LINE
  5
36E
100
AcDbEntity
  8
PORTATASTO
100
AcDbLine
 62
7
  6
CONTINUOUS
 10
4.0474945821
 20
18.5681867615
 11
6.5155161217
 21
17.3341759917
  0
LINE
  5
36F
100
AcDbEntity
  8
ASSI
100
AcDbLine
 62
7
  6
CONTINUOUS
 10
-4.01943398
 20
23.1051675878
 11
-0.2809263397
 21
21.2359137676
  0
LINE
  5
370
100
AcDbEntity
  8
PORTATASTO
100
AcDbLine
 62
7
  6
CONTINUOUS
 10
-11.2172192681
 20
27.1992858037
 11
-8.3892441905
 21
25.7852982649
  0
LINE
  5
371
100
AcDbEntity
  8
PORTATASTO
100
AcDbLine
 62
7
  6
CONTINUOUS
 10
4.6926833086
 20
19.2443345153
 11
7.5206583862
 21
17.8303469765
  0
LINE
  5
372
100
AcDbEntity
  8
PORTATASTO
100
AcDbLine
 62
7
  6
CONTINUOUS
 10
8.4713940104
 20
17.7143400034
 11
7.8823220843
 21
18.0088759665
  0
LINE
  5
373
100
AcDbEntity
  8
PORTATASTO
100
AcDbLine
 62
7
  6
CONTINUOUS
 10
2.8860967049
 20
20.5069886562
 11
2.2970247787
 21
20.8015246193
  0
LINE
  5
374
100
AcDbEntity
  8
PORTATASTO
100
AcDbLine
 62
7
  6
CONTINUOUS
 10
-7.4385085663
 20
25.6692912918
 11
-8.0275804924
 21
25.9638272548
  0
LINE
  5
375
100
AcDbEntity
  8
PORTATASTO
100
AcDbLine
 62
7
  6
CONTINUOUS
 10
-13.0238058718
 20
28.4619399446
 11
-13.612877798
 21
28.7564759076
  0
LINE
  5
376
100
AcDbEntity
  8
PORTATASTO
100
AcDbLine
 62
7
  6
CONTINUOUS
 10
8.6402722498
 20
17.7522265838
 11
8.1522633916
 21
17.9962310129
  0
LINE
  5
377
100
AcDbEntity
  8
PORTATASTO
100
AcDbLine
 62
7
  6
CONTINUOUS
 10
3.0559640592
 20
20.5443806791
 11
2.56795526
 21
20.7883850787
  0
LINE
  5
378
100
AcDbEntity
  8
PORTATASTO
100
AcDbLine
 62
7
  6
CONTINUOUS
 10
-7.2696301217
 20
25.7071777695
 11
-7.7576389208
 21
25.9511821691
  0
LINE
  5
379
100
AcDbEntity
  8
PORTATASTO
100
AcDbLine
 62
7
  6
CONTINUOUS
 10
-12.8539382533
 20
28.4993318353
 11
-13.3419471115
 21
28.7433362644
  0
LINE
  5
37A
100
AcDbEntity
  8
PORTATASTO
100
AcDbLine
 62
7
  6
CONTINUOUS
 10
9.3963755888
 20
17.8615494348
 11
6.4467209762
 21
19.3363767411
  0
LINE
  5
37B
100
AcDbEntity
  8
PORTATASTO
100
AcDbLine
 62
7
  6
CONTINUOUS
 10
-6.5135269879
 20
25.8165007232
 11
-9.4631816005
 21
27.2913280295
  0
LINE
  5
37C
100
AcDbEntity
  8
ASSI
100
AcDbLine
 62
7
  6
CONTINUOUS
 10
-9.4653636908
 20
27.5986576847
 11
-6.2051063184
 21
25.9685289986
  0
LINE
  5
37D
100
AcDbEntity
  8
ASSI
100
AcDbLine
 62
253
  6
CONTINUOUS
 10
9.7519002624
 20
18.0367964541
 11
7.4348189397
 21
19.1953371154
  0
LINE
  5
37E
100
AcDbEntity
  8
ASSI
100
AcDbLine
 62
7
  6
CONTINUOUS
 10
9.824352791
 20
18.0725101207
 11
7.4347334821
 21
19.2673197752
  0
LINE
  5
37F
100
AcDbEntity
  8
0
100
AcDbLine
 62
7
  6
CONTINUOUS
 10
9.8828325505
 20
18.1013362594
 11
8.2089341845
 21
18.9382854424
  0
LINE
  5
380
100
AcDbEntity
  8
PORTATASTO
100
AcDbLine
 62
253
  6
CONTINUOUS
 10
-13.1702441088
 20
29.7287540511
 11
-10.1753442889
 21
28.2313041411
  0
LINE
  5
381
100
AcDbEntity
  8
PORTATASTO
100
AcDbLine
 62
253
  6
CONTINUOUS
 10
-5.925471762
 20
26.1063678777
 11
-2.9305719421
 21
24.6089179677
  0
LINE
  5
382
100
AcDbEntity
  8
PORTATASTO
100
AcDbLine
 62
253
  6
CONTINUOUS
 10
2.7396584679
 20
21.7738027627
 11
5.7345582878
 21
20.2763528528
  0
LINE
  5
383
100
AcDbEntity
  8
PORTATASTO
100
AcDbLine
 62
253
  6
CONTINUOUS
 10
9.9844308147
 20
18.1514165893
 11
12.9793306346
 21
16.6539666794
  0
LINE
  5
384
100
AcDbEntity
  8
PORTATASTO
100
AcDbLine
 62
7
  6
CONTINUOUS
 10
-12.8815188994
 20
29.8323009299
 11
-9.730852339
 21
28.2569676497
  0
LINE
  5
385
100
AcDbEntity
  8
PORTATASTO
100
AcDbLine
 62
7
  6
CONTINUOUS
 10
-5.4837640356
 20
26.133423498
 11
-2.3330974751
 21
24.5580902178
  0
LINE
  5
386
100
AcDbEntity
  8
PORTATASTO
100
AcDbLine
 62
7
  6
CONTINUOUS
 10
3.0283836773
 20
21.8773496416
 11
6.1790502377
 21
20.3020163614
  0
LINE
  5
387
100
AcDbEntity
  8
PORTATASTO
100
AcDbLine
 62
7
  6
CONTINUOUS
 10
10.4261385411
 20
18.1784722097
 11
13.5768051015
 21
16.6031389294
  0
LINE
  5
388
100
AcDbEntity
  8
ASSI
100
AcDbLine
 62
253
  6
CONTINUOUS
 10
7.7809729444
 20
19.7922402658
 11
13.0209606717
 21
17.1722464022
  0
LINE
  5
389
100
AcDbEntity
  8
ASSI
100
AcDbLine
 62
7
  6
CONTINUOUS
 10
-10.1160047543
 20
28.8214728518
 11
-3.3984904378
 21
25.4627156935
  0
LINE
  5
38A
100
AcDbEntity
  8
ASSI
100
AcDbLine
 62
253
  6
CONTINUOUS
 10
7.9968338999
 20
20.1599120881
 11
13.2367650102
 21
17.5399465329
  0
LINE
  5
38B
100
AcDbEntity
  8
ASSI
100
AcDbLine
 62
7
  6
CONTINUOUS
 10
21.9975164177
 20
16.522828813
 11
21.9975164177
 21
16.5108690446
  0
LINE
  5
38C
100
AcDbEntity
  8
ASSI
100
AcDbLine
 62
7
  6
CONTINUOUS
 10
24.5909960559
 20
14.8429128629
 11
24.5909960559
 21
15.8324955749
  0
LINE
  5
38D
100
AcDbEntity
  8
DRAFT
100
AcDbLine
 62
7
  6
CONTINUOUS
 10
24.8212884938
 20
15.773828614
 11
24.8228042726
 21
15.9911197824
  0
LINE
  5
38E
100
AcDbEntity
  8
RACCORDO
100
AcDbLine
 62
253
  6
CONTINUOUS
 10
25.1735026636
 20
16.2850482204
 11
25.1687246781
 21
15.6001105218
  0
LINE
  5
38F
100
AcDbEntity
  8
PORTATASTO
100
AcDbLine
 62
253
  6
CONTINUOUS
 10
5.6866697701
 20
-29.0104906442
 11
6.2197766832
 21
-28.3717140149
  0
LINE
  5
390
100
AcDbEntity
  8
PORTATASTO
100
AcDbLine
 62
253
  6
CONTINUOUS
 10
5.9509067935
 20
-29.2426464046
 11
6.4840137066
 21
-28.6038697753
  0
LINE
  5
391
100
AcDbEntity
  8
PORTATASTO
100
AcDbLine
 62
7
  6
CONTINUOUS
 10
9.3279633796
 20
-23.2685272898
 11
8.6685535923
 21
-23.7464311513
  0
LINE
  5
392
100
AcDbEntity
  8
ASSI
100
AcDbLine
 62
7
  6
CONTINUOUS
 10
8.9615098978
 20
-23.5341125713
 11
8.6270274258
 21
-23.7765270275
  0
LINE
  5
393
100
AcDbEntity
  8
ASSI
100
AcDbLine
 62
7
  6
CONTINUOUS
 10
11.996124735
 20
-22.1737888217
 11
13.0163727712
 21
-21.4343692899
  0
LINE
  5
394
100
AcDbEntity
  8
PORTATASTO
100
AcDbLine
 62
7
  6
CONTINUOUS
 10
9.364990224
 20
-22.923216774
 11
7.926091472
 21
-23.9233882498
  0
LINE
  5
395
100
AcDbEntity
  8
ASSI
100
AcDbLine
 62
253
  6
CONTINUOUS
 10
30.1572854505
 20
-12.3699723103
 11
13.0163727712
 21
-21.4343692899
  0
LINE
  5
396
100
AcDbEntity
  8
ASSI
100
AcDbLine
 62
7
  6
CONTINUOUS
 10
30.1124975205
 20
-12.3979070043
 11
12.9946806689
 21
-21.4500905297
  0
LINE
  5
397
100
AcDbEntity
  8
ASSI
100
AcDbLine
 62
7
  6
CONTINUOUS
 10
11.996124735
 20
-22.1737888217
 11
8.6270274258
 21
-23.9554229764
  0
LINE
  5
398
100
AcDbEntity
  8
ASSI
100
AcDbLine
 62
253
  6
CONTINUOUS
 10
9.3756603735
 20
-22.5166294723
 11
30.5780933659
 21
-11.3476642659
  0
LINE
  5
399
100
AcDbEntity
  8
ASSI
100
AcDbLine
 62
253
  6
CONTINUOUS
 10
8.9615098978
 20
-23.5341125713
 11
30.1639428903
 21
-12.3651473649
  0
LINE
  5
39A
100
AcDbEntity
  8
PORTATASTO
100
AcDbLine
 62
7
  6
CONTINUOUS
 10
8.6270274258
 20
-23.7671942345
 11
8.6685535923
 21
-23.7464311513
  0
LINE
  5
39B
100
AcDbEntity
  8
PORTATASTO
100
AcDbLine
 62
7
  6
CONTINUOUS
 10
8.6270274258
 20
-23.6176084049
 11
9.3279633796
 21
-23.2685272898
  0
LINE
  5
39C
100
AcDbEntity
  8
DRAFT
100
AcDbLine
 62
7
  6
CONTINUOUS
 10
18.5467587069
 20
18.4104768989
 11
18.572367656
 21
18.4051731119
  0
LINE
  5
39D
100
AcDbEntity
  8
DRAFT
100
AcDbLine
 62
7
  6
CONTINUOUS
 10
12.1827976763
 20
21.5924574142
 11
12.2084066253
 21
21.5871536272
  0
LINE
  5
39E
100
AcDbEntity
  8
DRAFT
100
AcDbLine
 62
7
  6
CONTINUOUS
 10
10.6271627576
 20
22.3702748735
 11
10.6527717067
 21
22.3649710865
  0
LINE
  5
39F
100
AcDbEntity
  8
0
100
AcDbLine
 62
7
  6
CONTINUOUS
 10
7.3037608861
 20
24.0319758093
 11
7.513159075
 21
23.9886080244
  0
LINE
  5
3A0
100
AcDbEntity
  8
ASSI
100
AcDbLine
 62
7
  6
CONTINUOUS
 10
-1.3937833047
 20
26.422212526
 11
-8.1112976215
 21
29.7809696844
  0
LINE
  5
3A1
100
AcDbEntity
  8
ASSI
100
AcDbLine
 62
7
  6
CONTINUOUS
 10
-5.9332014392
 20
29.2071106404
 11
0.0790992019
 21
26.2009603198
  0
LINE
  5
3A2
100
AcDbEntity
  8
ASSI
100
AcDbLine
 62
7
  6
CONTINUOUS
 10
-5.9332014392
 20
30.0752172461
 11
0.7843129821
 21
26.7164600355
  0
LINE
  5
3A3
100
AcDbEntity
  8
ASSI
100
AcDbLine
 62
7
  6
CONTINUOUS
 10
21.572175536
 20
16.8977684844
 11
4.319846888
 21
25.5239328083
  0
LINE
  5
3A4
100
AcDbEntity
  8
DRAFT
100
AcDbLine
 62
7
  6
CONTINUOUS
 10
18.572367656
 20
18.4051731119
 11
20.1280025746
 21
17.6273556526
  0
LINE
  5
3A5
100
AcDbEntity
  8
DRAFT
100
AcDbLine
 62
7
  6
CONTINUOUS
 10
12.2084066253
 20
21.5871536272
 11
10.6527717067
 21
22.3649710865
  0
LINE
  5
3A6
100
AcDbEntity
  8
0
100
AcDbLine
 62
7
  6
CONTINUOUS
 10
22.2280878372
 20
16.6311436433
 11
7.513159075
 21
23.9886080244
  0
LINE
  5
3A7
100
AcDbEntity
  8
ASSI
100
AcDbLine
 62
7
  6
CONTINUOUS
 10
-5.8798332108
 20
30.848997743
 11
0.8376811063
 21
27.4902405844
  0
LINE
  5
3A8
100
AcDbEntity
  8
DRAFT
100
AcDbLine
 62
7
  6
CONTINUOUS
 10
7.4618439437
 20
24.453550889
 11
7.952444374
 21
24.2082506739
  0
LINE
  5
3A9
100
AcDbEntity
  8
RACCORDO
100
AcDbLine
 62
7
  6
CONTINUOUS
 10
24.8212884938
 20
15.773828614
 11
25.1687246781
 21
15.6001105218
  0
LINE
  5
3AA
100
AcDbEntity
  8
RACCORDO
100
AcDbLine
 62
253
  6
CONTINUOUS
 10
25.8867124921
 20
16.2843748913
 11
25.8819609616
 21
15.6032295909
  0
LWPOLYLINE
  5
3AB
100
AcDbEntity
  8
ASSI
100
AcDbPolyline
 62
7
  6
CONTINUOUS
 90
15
 70
0
 10
30.23905637
 20
-12.3183803341
 10
30.3180789124
 20
-12.2565660958
 10
30.3925711721
 20
-12.1891328446
 10
30.4627055299
 20
-12.1158543305
 10
30.5281013035
 20
-12.0369521463
 10
30.5885300154
 20
-11.9525019382
 10
30.6436301131
 20
-11.8627467171
 10
30.6930322115
 20
-11.7680094926
 10
30.7365310158
 20
-11.6683824775
 10
30.773857016
 20
-11.5640612693
 10
30.8046985377
 20
-11.4553839357
 10
30.8288376618
 20
-11.3425058402
 10
30.8460454654
 20
-11.2255592144
 10
30.8560632822
 20
-11.104776966
 10
30.8587506509
 20
-11.0003962255
  0
LINE
  5
3AC
100
AcDbEntity
  8
ASSI
100
AcDbLine
 62
253
  6
CONTINUOUS
 10
30.1639428903
 20
-12.3651473649
 11
30.1572854505
 21
-12.3699723103
  0
LINE
  5
3AD
100
AcDbEntity
  8
ASSI
100
AcDbLine
 62
7
  6
CONTINUOUS
 10
30.2390605702
 20
-12.3183860992
 11
30.2318530449
 21
-12.3236101772
  0
LINE
  5
3AE
100
AcDbEntity
  8
PORTATASTO
100
AcDbLine
 62
253
  6
CONTINUOUS
 10
7.926091472
 20
-26.8245880082
 11
8.6270274258
 21
-26.4629108155
  0
LINE
  5
3AF
100
AcDbEntity
  8
PORTATASTO
100
AcDbLine
 62
7
  6
CONTINUOUS
 10
7.7973923182
 20
-27.0943910333
 11
8.4992170458
 21
-26.7322552407
  0
LINE
  5
3B0
100
AcDbEntity
  8
PORTATASTO
100
AcDbLine
 62
7
  6
CONTINUOUS
 10
12.9793306346
 20
-21.9464657007
 11
8.6270274258
 21
-24.1824127798
  0
LINE
  5
3B1
100
AcDbEntity
  8
PORTATASTO
100
AcDbLine
 62
7
  6
CONTINUOUS
 10
13.9190305376
 20
-21.3399693574
 11
8.6270274258
 21
-24.0462535897
  0
LINE
  5
3B2
100
AcDbEntity
  8
PORTATASTO
100
AcDbLine
 62
253
  6
CONTINUOUS
 10
6.8469174081
 20
-27.2773685982
 11
7.926091472
 21
-26.8243751607
  0
LINE
  5
3B3
100
AcDbEntity
  8
RACCORDO
100
AcDbLine
 62
253
  6
CONTINUOUS
 10
2.4495396679
 20
-29.190563472
 11
5.787093459
 21
-27.7895939574
  0
LINE
  5
3B4
100
AcDbEntity
  8
PORTATASTO
100
AcDbLine
 62
7
  6
CONTINUOUS
 10
6.7056096177
 20
-27.5533175331
 11
7.7838238454
 21
-27.1007269959
  0
LINE
  5
3B5
100
AcDbEntity
  8
PORTATASTO
100
AcDbLine
 62
7
  6
CONTINUOUS
 10
-9.4631816005
 20
27.2913280295
 11
-11.2172192681
 21
27.1992858037
  0
LINE
  5
3B6
100
AcDbEntity
  8
ASSI
100
AcDbLine
 62
7
  6
CONTINUOUS
 10
6.214520642
 20
25.2557200964
 11
6.9216274232
 21
24.9021667058
  0
LINE
  5
3B7
100
AcDbEntity
  8
DRAFT
100
AcDbLine
 62
7
  6
CONTINUOUS
 10
24.5730247167
 20
16.1160095603
 11
24.8228042726
 21
15.9911197824
  0
LINE
  5
3B8
100
AcDbEntity
  8
DRAFT
100
AcDbLine
 62
7
  6
CONTINUOUS
 10
22.9059149822
 20
16.9495644276
 11
8.1704934318
 21
24.3172752028
  0
LINE
  5
3B9
100
AcDbEntity
  8
ASSI
100
AcDbLine
 62
7
  6
CONTINUOUS
 10
2.8553463146
 20
28.4559394373
 11
-3.8621680029
 21
31.814696596
  0
LINE
  5
3BA
100
AcDbEntity
  8
RACCORDO
100
AcDbLine
 62
253
  6
CONTINUOUS
 10
24.1220959381
 20
18.1186474411
 11
7.4759602326
 21
26.4417152939
  0
LINE
  5
3BB
100
AcDbEntity
  8
ASSI
100
AcDbLine
 62
7
  6
CONTINUOUS
 10
-1.6905607521
 20
31.2468032988
 11
4.3291820296
 21
28.236931908
  0
LINE
  5
3BC
100
AcDbEntity
  8
RACCORDO
100
AcDbLine
 62
253
  6
CONTINUOUS
 10
7.8356705185
 20
27.050738488
 11
16.3736777212
 21
22.7817348866
  0
LINE
  5
3BD
100
AcDbEntity
  8
RACCORDO
100
AcDbLine
 62
253
  6
CONTINUOUS
 10
16.8339114891
 20
22.5516180027
 11
24.481806224
 21
18.7276706353
  0
LINE
  5
3BE
100
AcDbEntity
  8
ASSI
100
AcDbLine
 62
7
  6
CONTINUOUS
 10
-1.6905607521
 20
32.1965375897
 11
5.0269536692
 21
28.837780379
  0
LINE
  5
3BF
100
AcDbEntity
  8
ASSI
100
AcDbLine
 62
7
  6
CONTINUOUS
 10
-1.6436616672
 20
32.8765226342
 11
5.0738526505
 21
29.5177654753
  0
LINE
  5
3C0
100
AcDbEntity
  8
ASSI
100
AcDbLine
 62
7
  6
CONTINUOUS
 10
22.0720993835
 20
16.3941922251
 11
21.9975164177
 21
16.522828813
  0
LWPOLYLINE
  5
3C1
100
AcDbEntity
  8
RACCORDO
100
AcDbPolyline
 62
7
  6
CONTINUOUS
 90
11
 70
0
 10
30.7937827453
 20
18.9325939383
 10
30.7748466449
 20
19.2021084879
 10
30.7285541977
 20
19.4489518089
 10
30.654606288
 20
19.6965100149
 10
30.5537461614
 20
19.9405391167
 10
30.4301233294
 20
20.1711994065
 10
30.2854097007
 20
20.3867929439
 10
30.1200231778
 20
20.5855077851
 10
29.9399096294
 20
20.7599546117
 10
29.7479871772
 20
20.9077704783
 10
29.5275104862
 20
21.0374540297
  0
LINE
  5
3C2
100
AcDbEntity
  8
RACCORDO
100
AcDbLine
 62
253
  6
CONTINUOUS
 10
30.5172604443
 20
18.0032261548
 11
30.5132136597
 21
18.5791535774
  0
LINE
  5
3C3
100
AcDbEntity
  8
RACCORDO
100
AcDbLine
 62
7
  6
CONTINUOUS
 10
30.7979316194
 20
18.3525065699
 11
30.7938491724
 21
18.9335093772
  0
LINE
  5
3C4
100
AcDbEntity
  8
ASSI
100
AcDbLine
 62
253
  6
CONTINUOUS
 10
30.5780933659
 20
17.877695214
 11
30.5780933659
 21
-11.3476642659
  0
LINE
  5
3C5
100
AcDbEntity
  8
ASSI
100
AcDbLine
 62
7
  6
CONTINUOUS
 10
30.8587535656
 20
18.2198175485
 11
30.8587535656
 21
-11.0003350923
  0
LINE
  5
3C6
100
AcDbEntity
  8
PORTATASTO
100
AcDbLine
 62
253
  6
CONTINUOUS
 10
5.9509067935
 20
-29.4926176139
 11
8.2619671931
 21
-28.3638683687
  0
LINE
  5
3C7
100
AcDbEntity
  8
PORTATASTO
100
AcDbLine
 62
7
  6
CONTINUOUS
 10
5.8847741503
 20
-29.6284060384
 11
8.1962100365
 21
-28.4994734011
  0
LINE
  5
3C8
100
AcDbEntity
  8
0
100
AcDbLine
 62
7
  6
CONTINUOUS
 10
18.1084291211
 20
25.2898008158
 11
21.9975164177
 21
23.3452571676
  0
LINE
  5
3C9
100
AcDbEntity
  8
DRAFT
100
AcDbLine
 62
7
  6
CONTINUOUS
 10
22.8695119429
 20
23.7626134088
 11
18.9804246464
 21
25.707157057
  0
LINE
  5
3CA
100
AcDbEntity
  8
RACCORDO
100
AcDbLine
 62
253
  6
CONTINUOUS
 10
29.0931523736
 20
21.0149323208
 11
12.5289379559
 21
29.2970395296
  0
LINE
  5
3CB
100
AcDbEntity
  8
ASSI
100
AcDbLine
 62
253
  6
CONTINUOUS
 10
0.5737704292
 20
35.3669358255
 11
12.4639155866
 21
29.4218632468
  0
LINE
  5
3CC
100
AcDbEntity
  8
RACCORDO
100
AcDbLine
 62
7
  6
CONTINUOUS
 10
29.5280252373
 20
21.0372956588
 11
12.9638108364
 21
29.3194028592
  0
LINE
  5
3CD
100
AcDbEntity
  8
ASSI
100
AcDbLine
 62
7
  6
CONTINUOUS
 10
1.0086433097
 20
35.3892991551
 11
12.8987884671
 21
29.4442265764
  0
LINE
  5
3CE
100
AcDbEntity
  8
ASSI
100
AcDbLine
 62
7
  6
CONTINUOUS
 10
24.0481260831
 20
17.486137442
 11
24.1768455802
 21
17.2641291496
  0
ARC
  5
3CF
100
AcDbEntity
  8
RACCORDO
100
AcDbCircle
 62
253
  6
CONTINUOUS
 10
-1.9935764027
 20
-22.4885538748
 40
1.5343224711
100
AcDbArc
 50
233.3436643267
 51
235.816493055
  0
ARC
  5
3D0
100
AcDbEntity
  8
RACCORDO
100
AcDbCircle
 62
253
  6
CONTINUOUS
 10
-3.3893832749
 20
-22.6023863215
 40
1.3961237142
100
AcDbArc
 50
55.2647571172
 51
60.6312752713
  0
ARC
  5
3D1
100
AcDbEntity
  8
RACCORDO
100
AcDbCircle
 62
253
  6
CONTINUOUS
 10
-3.3149358238
 20
-22.4726007825
 40
1.2465074816
100
AcDbArc
 50
60.687771329
 51
63.4185603729
  0
ARC
  5
3D2
100
AcDbEntity
  8
RACCORDO
100
AcDbCircle
 62
253
  6
CONTINUOUS
 10
-3.2741798543
 20
-22.3910894547
 40
1.1553749139
100
AcDbArc
 50
63.4172812583
 51
66.2375415085
  0
ARC
  5
3D3
100
AcDbEntity
  8
RACCORDO
100
AcDbCircle
 62
253
  6
CONTINUOUS
 10
-2.4905611549
 20
-23.2083627806
 40
0.5777677375
100
AcDbArc
 50
322.8139353727
 51
326.9636820309
  0
ARC
  5
3D4
100
AcDbEntity
  8
RACCORDO
100
AcDbCircle
 62
253
  6
CONTINUOUS
 10
-3.0899473602
 20
-21.9227883108
 40
0.4616652379
100
AcDbArc
 50
114.5616967378
 51
116.403449553
  0
ARC
  5
3D5
100
AcDbEntity
  8
ASSI
100
AcDbCircle
 62
7
  6
CONTINUOUS
 10
0.5614255033
 20
34.4949548908
 40
0.9999200733
100
AcDbArc
 50
63.4173555274
 51
115.2502436068
  0
ARC
  5
3D6
100
AcDbEntity
  8
ASSI
100
AcDbCircle
 62
7
  6
CONTINUOUS
 10
-5.3256183083
 20
28.03786285
 40
0.5693073466
100
AcDbArc
 50
116.5006800517
 51
120.0083517257
  0
ARC
  5
3D7
100
AcDbEntity
  8
ASSI
100
AcDbCircle
 62
253
  6
CONTINUOUS
 10
0.2995935322
 20
35.0504001654
 40
0.3858145027
100
AcDbArc
 50
113.0672789418
 51
115.2684971883
  0
ARC
  5
3D8
100
AcDbEntity
  8
PORTATASTO
100
AcDbCircle
 62
7
  6
CONTINUOUS
 10
-8.8015018666
 20
19.6079908865
 40
0.251122737
100
AcDbArc
 50
179.9693959518
 51
188.7742829618
  0
ARC
  5
3D9
100
AcDbEntity
  8
PORTATASTO
100
AcDbCircle
 62
7
  6
CONTINUOUS
 10
-11.3647639485
 20
20.8896219274
 40
0.251122737
100
AcDbArc
 50
179.9693959518
 51
188.7742829618
  0
ARC
  5
3DA
100
AcDbEntity
  8
PORTATASTO
100
AcDbCircle
 62
7
  6
CONTINUOUS
 10
-24.7114044433
 20
27.5629421748
 40
0.251122737
100
AcDbArc
 50
179.9693959518
 51
188.7742829618
  0
ARC
  5
3DB
100
AcDbEntity
  8
PORTATASTO
100
AcDbCircle
 62
7
  6
CONTINUOUS
 10
-8.8026452144
 20
19.8578413749
 40
0.2499769874
100
AcDbArc
 50
117.0970053572
 51
179.9995093396
  0
ARC
  5
3DC
100
AcDbEntity
  8
PORTATASTO
100
AcDbCircle
 62
7
  6
CONTINUOUS
 10
-11.3659072962
 20
21.1394724158
 40
0.2499769874
100
AcDbArc
 50
117.0970053572
 51
179.9995093396
  0
ARC
  5
3DD
100
AcDbEntity
  8
PORTATASTO
100
AcDbCircle
 62
7
  6
CONTINUOUS
 10
-24.7125477911
 20
27.8127926632
 40
0.2499769874
100
AcDbArc
 50
117.097005357
 51
179.9995093398
  0
ARC
  5
3DE
100
AcDbEntity
  8
PORTATASTO
100
AcDbCircle
 62
7
  6
CONTINUOUS
 10
-8.8028461037
 20
19.607738399
 40
0.2497557206
100
AcDbArc
 50
188.7640789954
 51
243.4744576509
  0
ARC
  5
3DF
100
AcDbEntity
  8
PORTATASTO
100
AcDbCircle
 62
7
  6
CONTINUOUS
 10
-11.3661081855
 20
20.8893694399
 40
0.2497557206
100
AcDbArc
 50
188.7640789954
 51
243.4744576509
  0
ARC
  5
3E0
100
AcDbEntity
  8
PORTATASTO
100
AcDbCircle
 62
7
  6
CONTINUOUS
 10
-24.7127486804
 20
27.5626896873
 40
0.2497557206
100
AcDbArc
 50
188.7640789954
 51
243.4744576509
  0
ARC
  5
3E1
100
AcDbEntity
  8
PORTATASTO
100
AcDbCircle
 62
7
  6
CONTINUOUS
 10
-7.5721737161
 20
18.9905667914
 40
0.2481429355
100
AcDbArc
 50
243.3741215853
 51
258.2653077363
  0
ARC
  5
3E2
100
AcDbEntity
  8
PORTATASTO
100
AcDbCircle
 62
7
  6
CONTINUOUS
 10
-10.1354357979
 20
20.2721978323
 40
0.2481429355
100
AcDbArc
 50
243.3741215853
 51
258.2653077364
  0
ARC
  5
3E3
100
AcDbEntity
  8
PORTATASTO
100
AcDbCircle
 62
7
  6
CONTINUOUS
 10
-23.4820762928
 20
26.9455180798
 40
0.2481429355
100
AcDbArc
 50
243.3741215853
 51
258.2653077364
  0
ARC
  5
3E4
100
AcDbEntity
  8
PORTATASTO
100
AcDbCircle
 62
253
  6
CONTINUOUS
 10
-24.6183099671
 20
27.8410507239
 40
0.2104970702
100
AcDbArc
 50
116.8720017144
 51
119.4559622161
  0
ARC
  5
3E5
100
AcDbEntity
  8
PORTATASTO
100
AcDbCircle
 62
253
  6
CONTINUOUS
 10
-11.2716694722
 20
21.1677304764
 40
0.2104970702
100
AcDbArc
 50
116.8720017143
 51
119.4559622162
  0
ARC
  5
3E6
100
AcDbEntity
  8
PORTATASTO
100
AcDbCircle
 62
253
  6
CONTINUOUS
 10
-8.7084073904
 20
19.8860994355
 40
0.2104970702
100
AcDbArc
 50
116.8720017142
 51
119.4559622163
  0
ARC
  5
3E7
100
AcDbEntity
  8
PORTATASTO
100
AcDbCircle
 62
7
  6
CONTINUOUS
 10
-13.505584864
 20
28.6012340964
 40
0.1841044728
100
AcDbArc
 50
102.5706574365
 51
105.761185649
  0
ARC
  5
3E8
100
AcDbEntity
  8
PORTATASTO
100
AcDbCircle
 62
7
  6
CONTINUOUS
 10
2.4043171321
 20
20.6462850858
 40
0.1841021229
100
AcDbArc
 50
102.5726476478
 51
105.7612042734
  0
ARC
  5
3E9
100
AcDbEntity
  8
PORTATASTO
100
AcDbCircle
 62
7
  6
CONTINUOUS
 10
-7.9207463925
 20
25.8099940593
 40
0.1828799528
100
AcDbArc
 50
103.1146715997
 51
106.3372471414
  0
ARC
  5
3EA
100
AcDbEntity
  8
PORTATASTO
100
AcDbCircle
 62
253
  6
CONTINUOUS
 10
-7.5916936436
 20
18.895969669
 40
0.1515597702
100
AcDbArc
 50
258.2177840066
 51
260.756260047
  0
ARC
  5
3EB
100
AcDbEntity
  8
PORTATASTO
100
AcDbCircle
 62
253
  6
CONTINUOUS
 10
-10.1549557254
 20
20.1776007099
 40
0.1515597703
100
AcDbArc
 50
258.2177840066
 51
260.7562600467
  0
ARC
  5
3EC
100
AcDbEntity
  8
PORTATASTO
100
AcDbCircle
 62
253
  6
CONTINUOUS
 10
-23.5015962203
 20
26.8509209573
 40
0.1515597702
100
AcDbArc
 50
258.2177840063
 51
260.756260047
  0
ARC
  5
3ED
100
AcDbEntity
  8
PORTATASTO
100
AcDbCircle
 62
253
  6
CONTINUOUS
 10
-8.8721446535
 20
19.4687450341
 40
0.0944861492
100
AcDbArc
 50
237.0569889239
 51
243.4163799976
  0
ARC
  5
3EE
100
AcDbEntity
  8
PORTATASTO
100
AcDbCircle
 62
253
  6
CONTINUOUS
 10
-11.4354067353
 20
20.750376075
 40
0.0944861492
100
AcDbArc
 50
237.0569889239
 51
243.4163799977
  0
ARC
  5
3EF
100
AcDbEntity
  8
PORTATASTO
100
AcDbCircle
 62
253
  6
CONTINUOUS
 10
-24.7820472301
 20
27.4236963225
 40
0.0944861492
100
AcDbArc
 50
237.0569889241
 51
243.4163799975
  0
ARC
  5
3F0
100
AcDbEntity
  8
PORTATASTO
100
AcDbCircle
 62
253
  6
CONTINUOUS
 10
-24.8994857773
 20
27.5627936472
 40
0.0630380903
100
AcDbArc
 50
179.9885719882
 51
188.7285848159
  0
ARC
  5
3F1
100
AcDbEntity
  8
PORTATASTO
100
AcDbCircle
 62
253
  6
CONTINUOUS
 10
-11.5528452824
 20
20.8894733997
 40
0.0630380904
100
AcDbArc
 50
179.9885719891
 51
188.7285848149
  0
ARC
  5
3F2
100
AcDbEntity
  8
PORTATASTO
100
AcDbCircle
 62
253
  6
CONTINUOUS
 10
-8.9895832006
 20
19.6078423588
 40
0.0630380904
100
AcDbArc
 50
179.9885719895
 51
188.7285848146
  0
ARC
  5
3F3
100
AcDbEntity
  8
ASSI
100
AcDbCircle
 62
7
  6
CONTINUOUS
 10
-13.2760416281
 20
25.9526237171
 40
0.056032635
100
AcDbArc
 50
116.2321611049
 51
132.2630176054
  0
ARC
  5
3F4
100
AcDbEntity
  8
ASSI
100
AcDbCircle
 62
7
  6
CONTINUOUS
 10
29.6450559507
 20
-11.5139575384
 40
0.9999339801
100
AcDbArc
 50
297.8707592383
 51
305.9326427706
  0
ARC
  5
3F5
100
AcDbEntity
  8
ASSI
100
AcDbCircle
 62
253
  6
CONTINUOUS
 10
29.6674837125
 20
-11.6889318041
 40
0.839124727
100
AcDbArc
 50
310.7414115989
 51
319.8302040657
  0
ARC
  5
3F6
100
AcDbEntity
  8
ASSI
100
AcDbCircle
 62
253
  6
CONTINUOUS
 10
29.7047602
 20
-11.7312818424
 40
0.7827095526
100
AcDbArc
 50
305.9201948796
 51
310.6972403124
  0
ARC
  5
3F7
100
AcDbEntity
  8
ASSI
100
AcDbCircle
 62
253
  6
CONTINUOUS
 10
29.8708818318
 20
-11.812038401
 40
0.6259878947
100
AcDbArc
 50
304.1393612751
 51
305.9596871954
  0
ARC
  5
3F8
100
AcDbEntity
  8
ASSI
100
AcDbCircle
 62
253
  6
CONTINUOUS
 10
29.8642317198
 20
-11.8168704991
 40
0.6259780004
100
AcDbArc
 50
304.1333612492
 51
305.9576885297
  0
ARC
  5
3F9
100
AcDbEntity
  8
ASSI
100
AcDbCircle
 62
253
  6
CONTINUOUS
 10
29.8690055893
 20
-11.8241545653
 40
0.6172700292
100
AcDbArc
 50
297.8412847726
 51
304.1459617242
  0
ARC
  5
3FA
100
AcDbEntity
  8
ASSI
100
AcDbCircle
 62
253
  6
CONTINUOUS
 10
29.8756670116
 20
-11.8193384445
 40
0.6172603664
100
AcDbArc
 50
297.84134038
 51
304.1520099604
  0
ARC
  5
3FB
100
AcDbEntity
  8
ASSI
100
AcDbCircle
 62
253
  6
CONTINUOUS
 10
29.9393419493
 20
-12.0697940325
 40
0.3709533234
100
AcDbArc
 50
297.8220227543
 51
305.9814084303
  0
ARC
  5
3FC
100
AcDbEntity
  8
PORTATASTO
100
AcDbCircle
 62
253
  6
CONTINUOUS
 10
4.6503712881
 20
-28.6269294394
 40
0.2831338453
100
AcDbArc
 50
174.894673655
 51
179.9460604639
  0
ARC
  5
3FD
100
AcDbEntity
  8
PORTATASTO
100
AcDbCircle
 62
7
  6
CONTINUOUS
 10
4.5448268843
 20
-28.7881356167
 40
0.2508092215
100
AcDbArc
 50
180.0307956406
 51
197.0246620052
  0
ARC
  5
3FE
100
AcDbEntity
  8
PORTATASTO
100
AcDbCircle
 62
7
  6
CONTINUOUS
 10
4.5440142635
 20
-28.7882457526
 40
0.25
100
AcDbArc
 50
197.0550544844
 51
243.4349488229
  0
ARC
  5
3FF
100
AcDbEntity
  8
PORTATASTO
100
AcDbCircle
 62
7
  6
CONTINUOUS
 10
5.7750637565
 20
-29.4038671344
 40
0.2499052258
100
AcDbArc
 50
243.382551662
 51
296.0402758365
  0
ARC
  5
400
100
AcDbEntity
  8
PORTATASTO
100
AcDbCircle
 62
7
  6
CONTINUOUS
 10
7.7102408358
 20
-26.9254417983
 40
0.1901016751
100
AcDbArc
 50
292.7780009071
 51
297.2833862395
  0
ARC
  5
401
100
AcDbEntity
  8
PORTATASTO
100
AcDbCircle
 62
253
  6
CONTINUOUS
 10
4.4739864403
 20
-28.9282312207
 40
0.0934745844
100
AcDbArc
 50
235.9182391889
 51
243.4541859743
  0
ARC
  5
402
100
AcDbEntity
  8
RACCORDO
100
AcDbCircle
 62
7
  6
CONTINUOUS
 10
17.7989625497
 20
25.0845286409
 40
2.7104975323
100
AcDbArc
 50
243.4840368833
 51
249.1389786418
  0
ARC
  5
403
100
AcDbEntity
  8
ASSI
100
AcDbCircle
 62
7
  6
CONTINUOUS
 10
12.7267362439
 20
29.0991109512
 40
0.3854617476
100
AcDbArc
 50
61.379328713
 51
63.4921496472
  0
ARC
  5
404
100
AcDbEntity
  8
PORTATASTO
100
AcDbCircle
 62
7
  6
CONTINUOUS
 10
4.5451386282
 20
12.9346706391
 40
0.251122737
100
AcDbArc
 50
179.9693959518
 51
188.7742829618
  0
ARC
  5
405
100
AcDbEntity
  8
PORTATASTO
100
AcDbCircle
 62
7
  6
CONTINUOUS
 10
4.5439952805
 20
13.1845211274
 40
0.2499769874
100
AcDbArc
 50
117.0970053572
 51
179.9995093396
  0
ARC
  5
406
100
AcDbEntity
  8
PORTATASTO
100
AcDbCircle
 62
7
  6
CONTINUOUS
 10
4.5437943912
 20
12.9344181515
 40
0.2497557206
100
AcDbArc
 50
188.7640789954
 51
243.4744576509
  0
ARC
  5
407
100
AcDbEntity
  8
PORTATASTO
100
AcDbCircle
 62
7
  6
CONTINUOUS
 10
5.7744667788
 20
12.317246544
 40
0.2481429355
100
AcDbArc
 50
243.3741215853
 51
258.2653077363
  0
ARC
  5
408
100
AcDbEntity
  8
PORTATASTO
100
AcDbCircle
 62
253
  6
CONTINUOUS
 10
4.6382331045
 20
13.2127791881
 40
0.2104970702
100
AcDbArc
 50
116.8720017141
 51
119.4559622165
  0
ARC
  5
409
100
AcDbEntity
  8
PORTATASTO
100
AcDbCircle
 62
7
  6
CONTINUOUS
 10
7.9891555926
 20
17.8550450061
 40
0.1828776414
100
AcDbArc
 50
103.1167328436
 51
106.337266258
  0
ARC
  5
40A
100
AcDbEntity
  8
PORTATASTO
100
AcDbCircle
 62
253
  6
CONTINUOUS
 10
5.7549468513
 20
12.2226494215
 40
0.1515597703
100
AcDbArc
 50
258.2177840067
 51
260.7562600468
  0
ARC
  5
40B
100
AcDbEntity
  8
PORTATASTO
100
AcDbCircle
 62
253
  6
CONTINUOUS
 10
4.4744958414
 20
12.7954247867
 40
0.0944861492
100
AcDbArc
 50
237.0569889239
 51
243.4163799975
  0
ARC
  5
40C
100
AcDbEntity
  8
PORTATASTO
100
AcDbCircle
 62
253
  6
CONTINUOUS
 10
4.3570572943
 20
12.9345221114
 40
0.0630380904
100
AcDbArc
 50
179.9885719894
 51
188.7285848146
  0
ARC
  5
40D
100
AcDbEntity
  8
ASSI
100
AcDbCircle
 62
7
  6
CONTINUOUS
 10
2.6338609486
 20
17.9976724287
 40
0.056032635
100
AcDbArc
 50
116.2321611049
 51
132.2630176055
  0
SPLINE
  5
40E
100
AcDbEntity
  8
RACCORDO
100
AcDbSpline
 62
7
  6
CONTINUOUS
 70
0
 71
3
 72
11
 73
7
 74
5
 42
0.0000001
 43
0.0000001
 44
0.0000000001
 12
-0.5907207857
 22
-0.2953603929
 32
0.0
 13
-0.5907207857
 23
0.2953603928
 33
0.0
 40
0.0
 40
0.0
 40
0.0
 40
0.0
 40
0.2249271483
 40
0.4614838855
 40
0.7187250717
 40
1.0
 40
1.0
 40
1.0
 40
1.0
 10
-2.2007321088
 20
-23.7012001064
 30
0.0
 10
-2.2450218227
 20
-23.7233449634
 30
0.0
 10
-2.3421613797
 20
-23.7572256935
 30
0.0
 10
-2.5013994951
 20
-23.7703575745
 30
0.0
 10
-2.6713815525
 20
-23.7434127367
 30
0.0
 10
-2.7826265002
 20
-23.6997807656
 30
0.0
 10
-2.8380114824
 20
-23.6720882745
 30
0.0
 11
-2.2007321088
 21
-23.7012001064
 31
0.0
 11
-2.3409261905
 21
-23.7503262755
 31
0.0
 11
-2.4965622782
 21
-23.7639694774
 31
0.0
 11
-2.6645458983
 21
-23.7385640145
 31
0.0
 11
-2.8380114824
 21
-23.6720882745
 31
0.0
  0
SPLINE
  5
40F
100
AcDbEntity
  8
RACCORDO
100
AcDbSpline
 62
7
  6
CONTINUOUS
 70
0
 71
3
 72
20
 73
16
 74
14
 42
0.0000001
 43
0.0000001
 44
0.0000000001
 12
-2.3227793353
 22
1.1613896677
 32
0.0
 13
2.3227793355
 23
1.1613896677
 33
0.0
 40
0.0
 40
0.0
 40
0.0
 40
0.0
 40
0.0772142304
 40
0.1591838541
 40
0.2442804697
 40
0.330978447
 40
0.4182076026
 40
0.5045870306
 40
0.5888424665
 40
0.6698340028
 40
0.7463781174
 40
0.8173830623
 40
0.8819259711
 40
0.9423018996
 40
1.0
 40
1.0
 40
1.0
 40
1.0
 10
-2.8380114824
 20
-23.6720882745
 30
0.0
 10
-2.8977953553
 20
-23.6421963381
 30
0.0
 10
-3.0152085032
 20
-23.5684747605
 30
0.0
 10
-3.1745366739
 20
-23.4283400349
 30
0.0
 10
-3.3180317522
 20
-23.2611392931
 30
0.0
 10
-3.4416062953
 20
-23.0733685919
 30
0.0
 10
-3.5421346116
 20
-22.87109505
 30
0.0
 10
-3.6168600395
 20
-22.6601576141
 30
0.0
 10
-3.6631927193
 20
-22.4466739583
 30
0.0
 10
-3.6787932608
 20
-22.2371799564
 30
0.0
 10
-3.6618991974
 20
-22.0390862619
 30
0.0
 10
-3.6124018455
 20
-21.8610024584
 30
0.0
 10
-3.5325902206
 20
-21.7096977904
 30
0.0
 10
-3.4269387992
 20
-21.5900333184
 30
0.0
 10
-3.3410787362
 20
-21.5321901477
 30
0.0
 10
-3.2964054178
 20
-21.5098534885
 30
0.0
 11
-2.8380114824
 21
-23.6720882745
 31
0.0
 11
-3.0085038963
 21
-23.5665369089
 31
0.0
 11
-3.1690075157
 21
-23.4267065624
 31
0.0
 11
-3.3134005269
 21
-23.2594109285
 31
0.0
 11
-3.4374250968
 21
-23.0715002515
 31
0.0
 11
-3.5382374895
 21
-22.8686396016
 31
0.0
 11
-3.612855605
 21
-22.6570909677
 31
0.0
 11
-3.6586551982
 21
-22.4431310893
 31
0.0
 11
-3.6733156133
 21
-22.2333119734
 31
0.0
 11
-3.6551579479
 21
-22.0353620666
 31
0.0
 11
-3.604422431
 21
-21.8580831864
 31
0.0
 11
-3.5251842344
 21
-21.7103810637
 31
0.0
 11
-3.4208009622
 21
-21.5933845248
 31
0.0
 11
-3.2964054178
 21
-21.5098534885
 31
0.0
  0
SPLINE
  5
410
100
AcDbEntity
  8
RACCORDO
100
AcDbSpline
 62
253
  6
CONTINUOUS
 70
0
 71
3
 72
10
 73
6
 74
4
 42
0.0000001
 43
0.0000001
 44
0.0000000001
 12
0.2011052251
 22
0.1005479501
 32
0.0
 13
0.136032931
 23
0.1791717409
 33
0.0
 40
0.0
 40
0.0
 40
0.0
 40
0.0
 40
0.2010035864
 40
0.6564923207
 40
1.0
 40
1.0
 40
1.0
 40
1.0
 10
-2.2007346907
 20
-23.7011949742
 30
0.0
 10
-2.1872604002
 20
-23.6944581413
 30
0.0
 10
-2.1443260525
 20
-23.670299471
 30
0.0
 10
-2.085354399
 20
-23.6232970607
 30
0.0
 10
-2.0458430383
 20
-23.5780843247
 30
0.0
 10
-2.0302669195
 20
-23.5575687017
 30
0.0
 11
-2.2007346907
 21
-23.7011949742
 31
0.0
 11
-2.1613648798
 21
-23.6790365196
 31
0.0
 11
-2.0812227932
 21
-23.6155449398
 31
0.0
 11
-2.0302669195
 21
-23.5575687017
 31
0.0
  0
SPLINE
  5
411
100
AcDbEntity
  8
RACCORDO
100
AcDbSpline
 62
253
  6
CONTINUOUS
 70
0
 71
3
 72
23
 73
19
 74
17
 42
0.0000001
 43
0.0000001
 44
0.0000000001
 12
1.262420508
 22
1.9397774798
 32
0.0
 13
-2.066092649
 23
1.0330463245
 33
0.0
 40
0.0
 40
0.0
 40
0.0
 40
0.0
 40
0.0608498581
 40
0.1316267222
 40
0.2109425188
 40
0.2965994544
 40
0.3867306444
 40
0.479123625
 40
0.5664669118
 40
0.6433320818
 40
0.7112150521
 40
0.7702576366
 40
0.8217665001
 40
0.8674582666
 40
0.908183727
 40
0.943958367
 40
0.9746424692
 40
1.0
 40
1.0
 40
1.0
 40
1.0
 10
-2.006203918
 20
-23.5233447255
 30
0.0
 10
-1.9805978818
 20
-23.483999664
 30
0.0
 10
-1.9353677342
 20
-23.392460196
 30
0.0
 10
-1.8934229674
 20
-23.2345604328
 30
0.0
 10
-1.8777059314
 20
-23.0529326766
 30
0.0
 10
-1.8899779041
 20
-22.856261652
 30
0.0
 10
-1.9294849975
 20
-22.6530527988
 30
0.0
 10
-1.9927756644
 20
-22.454669261
 30
0.0
 10
-2.0725265227
 20
-22.2735319516
 30
0.0
 10
-2.1597609281
 20
-22.1172938597
 30
0.0
 10
-2.2477183989
 20
-21.9871360289
 30
0.0
 10
-2.3334242527
 20
-21.8795853225
 30
0.0
 10
-2.4151802753
 20
-21.7911888489
 30
0.0
 10
-2.4926594936
 20
-21.7184302886
 30
0.0
 10
-2.5655661053
 20
-21.6588437659
 30
0.0
 10
-2.6328855506
 20
-21.6109953876
 30
0.0
 10
-2.6930737285
 20
-21.5738219673
 30
0.0
 10
-2.731105094
 20
-21.5533775125
 30
0.0
 10
-2.7485687633
 20
-21.5446456778
 30
0.0
 11
-2.006203918
 21
-23.5233447255
 31
0.0
 11
-1.9428516017
 21
-23.3978702817
 31
0.0
 11
-1.899532287
 21
-23.2402218663
 31
0.0
 11
-1.8825054292
 21
-23.0577982999
 31
0.0
 11
-1.8939034973
 21
-22.8602626188
 31
0.0
 11
-1.9330332721
 21
-22.6557731646
 31
0.0
 11
-1.9975824168
 21
-22.4523442556
 31
0.0
 11
-2.0788059262
 21
-22.2676561387
 31
0.0
 11
-2.1654123516
 21
-22.1126551046
 31
0.0
 11
-2.2533025739
 21
-21.9827945424
 31
0.0
 11
-2.3383968882
 21
-21.8762106314
 31
0.0
 11
-2.4192745642
 21
-21.7889416418
 31
0.0
 11
-2.4962927297
 21
-21.7167737128
 31
0.0
 11
-2.5692011538
 21
-21.6573235006
 31
0.0
 11
-2.636611509
 21
-21.6095229603
 31
0.0
 11
-2.6969535095
 21
-21.5723384156
 31
0.0
 11
-2.7485687633
 21
-21.5446456778
 31
0.0
  0
SPLINE
  5
412
100
AcDbEntity
  8
RACCORDO
100
AcDbSpline
 62
253
  6
CONTINUOUS
 70
0
 71
3
 72
34
 73
30
 74
28
 42
0.0000001
 43
0.0000001
 44
0.0000000001
 12
-2.4019410392
 22
1.2009705196
 32
0.0
 13
2.4019410392
 23
-1.2009705196
 33
0.0
 40
0.0
 40
0.0
 40
0.0
 40
0.0
 40
0.0153048713
 40
0.0330120699
 40
0.0524794339
 40
0.0731906623
 40
0.0947523827
 40
0.1171265012
 40
0.1408256747
 40
0.1666059007
 40
0.195273232
 40
0.2277807781
 40
0.2655724096
 40
0.3102622079
 40
0.362242632
 40
0.4204942872
 40
0.4834030766
 40
0.5495979159
 40
0.617453887
 40
0.68160123
 40
0.7380531491
 40
0.7879082869
 40
0.8312708034
 40
0.8691003455
 40
0.9026576497
 40
0.9325675621
 40
0.958841453
 40
0.9813767194
 40
1.0
 40
1.0
 40
1.0
 40
1.0
 10
-2.8892144563
 20
-21.7700577675
 30
0.0
 10
-2.9014682558
 20
-21.7639308678
 30
0.0
 10
-2.928225809
 20
-21.7513563333
 30
0.0
 10
-2.9718319817
 20
-21.7338005105
 30
0.0
 10
-3.021179478
 20
-21.7178298999
 30
0.0
 10
-3.0750734514
 20
-21.7052482672
 30
0.0
 10
-3.1325560879
 20
-21.6976861575
 30
0.0
 10
-3.1932460255
 20
-21.6967251648
 30
0.0
 10
-3.2573372032
 20
-21.704373911
 30
0.0
 10
-3.3249411933
 20
-21.7236445872
 30
0.0
 10
-3.3950190714
 20
-21.7586822185
 30
0.0
 10
-3.4648400876
 20
-21.8143321059
 30
0.0
 10
-3.5298188133
 20
-21.8952463552
 30
0.0
 10
-3.5835338117
 20
-22.0039579471
 30
0.0
 10
-3.6193468618
 20
-22.1387742721
 30
0.0
 10
-3.6327663937
 20
-22.2938498356
 30
0.0
 10
-3.6222886087
 20
-22.461769585
 30
0.0
 10
-3.588557046
 20
-22.6352714542
 30
0.0
 10
-3.534518873
 20
-22.8046534864
 30
0.0
 10
-3.4664266533
 20
-22.9593104551
 30
0.0
 10
-3.3919449967
 20
-23.0927082456
 30
0.0
 10
-3.3168459113
 20
-23.2038383808
 30
0.0
 10
-3.2436693467
 20
-23.2956663527
 30
0.0
 10
-3.1738651682
 20
-23.3711402221
 30
0.0
 10
-3.107712569
 20
-23.4332622685
 30
0.0
 10
-3.0454641215
 20
-23.4841379012
 30
0.0
 10
-2.9879860329
 20
-23.524991357
 30
0.0
 10
-2.9365967273
 20
-23.5567304693
 30
0.0
 10
-2.9041251303
 20
-23.5741861833
 30
0.0
 10
-2.8892144563
 20
-23.5816415204
 30
0.0
 11
-2.8892144563
 21
-21.7700577675
 31
0.0
 11
-2.9264232433
 21
-21.7526004856
 31
0.0
 11
-2.9705514263
 21
-21.7348838349
 31
0.0
 11
-3.0203116598
 21
-21.7188532988
 31
0.0
 11
-3.0744960643
 21
-21.7063024453
 31
0.0
 11
-3.1319198472
 21
-21.6988686164
 31
0.0
 11
-3.1919989531
 21
-21.6980549763
 31
0.0
 11
-3.2551758524
 21
-21.705743221
 31
0.0
 11
-3.3217211782
 21
-21.7248410595
 31
0.0
 11
-3.3905753494
 21
-21.7592758151
 31
0.0
 11
-3.4590014345
 21
-21.8134857303
 31
0.0
 11
-3.5230532137
 21
-21.8922074102
 31
0.0
 11
-3.5771440491
 21
-21.9993387907
 31
0.0
 11
-3.6141306495
 21
-22.1339404852
 31
0.0
 11
-3.6286685243
 21
-22.2896954953
 31
0.0
 11
-3.6189368745
 21
-22.458353485
 31
0.0
 11
-3.5855275048
 21
-22.6329487718
 31
0.0
 11
-3.530414792
 21
-22.8066385849
 31
0.0
 11
-3.461065244
 21
-22.9643272976
 31
0.0
 11
-3.3871197358
 21
-23.0966688603
 31
0.0
 11
-3.3120780945
 21
-23.2075451933
 31
0.0
 11
-3.2394236537
 21
-23.2985476989
 31
0.0
 11
-3.1703694195
 21
-23.3730589112
 31
0.0
 11
-3.1046104757
 21
-23.4346766728
 31
0.0
 11
-3.0423604737
 21
-23.4854359164
 31
0.0
 11
-2.9848047813
 21
-23.5262485368
 31
0.0
 11
-2.9332841241
 21
-23.5579971421
 31
0.0
 11
-2.8892144563
 21
-23.5816415204
 31
0.0
  0
SPLINE
  5
413
100
AcDbEntity
  8
RACCORDO
100
AcDbSpline
 62
253
  6
CONTINUOUS
 70
0
 71
3
 72
16
 73
12
 74
10
 42
0.0000001
 43
0.0000001
 44
0.0000000001
 12
-0.4945792087
 22
0.2472896043
 32
0.0
 13
-0.5037117086
 23
-0.2302093051
 33
0.0
 40
0.0
 40
0.0
 40
0.0
 40
0.0
 40
0.087055165
 40
0.1877749486
 40
0.298506661
 40
0.4163135728
 40
0.5389581332
 40
0.666223682
 40
0.8010262457
 40
0.9476659849
 40
1.0
 40
1.0
 40
1.0
 40
1.0
 10
-2.7485687633
 20
-21.5446456778
 30
0.0
 10
-2.7629206548
 20
-21.537469732
 30
0.0
 10
-2.7942596238
 20
-21.522742174
 30
0.0
 10
-2.8453320175
 20
-21.5021803999
 30
0.0
 10
-2.9031287825
 20
-21.4834753019
 30
0.0
 10
-2.9662504583
 20
-21.4687393928
 30
0.0
 10
-3.0335752615
 20
-21.4598824911
 30
0.0
 10
-3.1046565197
 20
-21.4587569058
 30
0.0
 10
-3.1797213926
 20
-21.4677151904
 30
0.0
 10
-3.2391767179
 20
-21.4846629504
 30
0.0
 10
-3.273061984
 20
-21.4988812969
 30
0.0
 10
-3.2818490694
 20
-21.5028972226
 30
0.0
 11
-2.7485687633
 21
-21.5446456778
 31
0.0
 11
-2.7921484204
 21
-21.5241993485
 31
0.0
 11
-2.8438322115
 21
-21.5034492188
 31
0.0
 11
-2.9021123728
 21
-21.48467392
 31
0.0
 11
-2.9655742146
 21
-21.4699740746
 31
0.0
 11
-3.0328300815
 21
-21.4612674041
 31
0.0
 11
-3.1031959236
 21
-21.4603144047
 31
0.0
 11
-3.177189979
 21
-21.4693189469
 31
0.0
 11
-3.2551292334
 21
-21.4916865802
 31
0.0
 11
-3.2818490694
 21
-21.5028972226
 31
0.0
  0
SPLINE
  5
414
100
AcDbEntity
  8
RACCORDO
100
AcDbSpline
 62
253
  6
CONTINUOUS
 70
0
 71
3
 72
34
 73
30
 74
28
 42
0.0000001
 43
0.0000001
 44
0.0000000001
 12
2.4019409704
 22
-1.2009704852
 32
0.0
 13
-2.4019409704
 23
1.2009704852
 33
0.0
 40
0.0
 40
0.0
 40
0.0
 40
0.0
 40
0.0153048707
 40
0.0330120678
 40
0.0524794312
 40
0.0731906582
 40
0.0947523778
 40
0.1171264943
 40
0.1408256638
 40
0.1666058827
 40
0.195273205
 40
0.2277807419
 40
0.265572361
 40
0.3102621582
 40
0.3622425924
 40
0.4204942582
 40
0.4834030555
 40
0.5495978985
 40
0.6174538731
 40
0.6816012189
 40
0.7380531406
 40
0.7879082811
 40
0.8312707993
 40
0.8691003429
 40
0.9026576484
 40
0.9325675618
 40
0.9588414537
 40
0.9813767194
 40
1.0
 40
1.0
 40
1.0
 40
1.0
 10
-2.8892144563
 20
-23.5816415204
 30
0.0
 10
-2.8769606577
 20
-23.5877684197
 30
0.0
 10
-2.8502031079
 20
-23.6003429551
 30
0.0
 10
-2.806596941
 20
-23.6178987823
 30
0.0
 10
-2.7572494492
 20
-23.633869392
 30
0.0
 10
-2.7033554811
 20
-23.6464510293
 30
0.0
 10
-2.6458728501
 20
-23.6540131394
 30
0.0
 10
-2.5851829206
 20
-23.6549741364
 30
0.0
 10
-2.5210917558
 20
-23.647325397
 30
0.0
 10
-2.4534877832
 20
-23.628054732
 30
0.0
 10
-2.3834099269
 20
-23.5930171127
 30
0.0
 10
-2.3135889344
 20
-23.5373672425
 30
0.0
 10
-2.2486102381
 20
-23.4564529993
 30
0.0
 10
-2.1948952461
 20
-23.3477414145
 30
0.0
 10
-2.1590821568
 20
-23.2129250871
 30
0.0
 10
-2.1456625803
 20
-23.0578495061
 30
0.0
 10
-2.1561403211
 20
-22.8899297375
 30
0.0
 10
-2.1898718784
 20
-22.7164278585
 30
0.0
 10
-2.2439100242
 20
-22.5470458128
 30
0.0
 10
-2.312002267
 20
-22.3923888505
 30
0.0
 10
-2.3864839159
 20
-22.2589910525
 30
0.0
 10
-2.4615830163
 20
-22.1478609243
 30
0.0
 10
-2.534759575
 20
-22.0560329457
 30
0.0
 10
-2.604563754
 20
-21.9805590749
 30
0.0
 10
-2.6707163537
 20
-21.9184370282
 30
0.0
 10
-2.7329647993
 20
-21.8675613919
 30
0.0
 10
-2.7904428891
 20
-21.8267079395
 30
0.0
 10
-2.8418321882
 20
-21.7949688197
 30
0.0
 10
-2.8743037827
 20
-21.7775131043
 30
0.0
 10
-2.8892144563
 20
-21.7700577675
 30
0.0
 11
-2.8892144563
 21
-23.5816415204
 31
0.0
 11
-2.852005673
 21
-23.5990988034
 31
0.0
 11
-2.8078774967
 21
-23.6168154567
 31
0.0
 11
-2.7581172669
 21
-23.6328459941
 31
0.0
 11
-2.7039328686
 21
-23.6453968504
 31
0.0
 11
-2.6465090897
 21
-23.6528306812
 31
0.0
 11
-2.586429991
 21
-23.653644325
 31
0.0
 11
-2.5232531036
 21
-23.6459560867
 31
0.0
 11
-2.4567077968
 21
-23.6268582587
 31
0.0
 11
-2.3878536482
 21
-23.5924235163
 31
0.0
 11
-2.3194275864
 21
-23.5382136155
 31
0.0
 11
-2.2553758399
 21
-23.4594919559
 31
0.0
 11
-2.201285007
 21
-23.3523605812
 31
0.0
 11
-2.1642983709
 21
-23.2177588727
 31
0.0
 11
-2.1497604515
 21
-23.0620038423
 31
0.0
 11
-2.1594920631
 21
-22.8933458344
 31
0.0
 11
-2.1929014164
 21
-22.7187505392
 31
0.0
 11
-2.2480141139
 21
-22.5450607171
 31
0.0
 11
-2.3173636714
 21
-22.3873720057
 31
0.0
 11
-2.3913091807
 21
-22.2550304405
 31
0.0
 11
-2.4663508302
 21
-22.144154109
 31
0.0
 11
-2.5390052689
 21
-22.0531516001
 31
0.0
 11
-2.6080595028
 21
-21.9786403858
 31
0.0
 11
-2.6738184467
 21
-21.9170226231
 31
0.0
 11
-2.7360684476
 21
-21.8662633778
 31
0.0
 11
-2.7936241406
 21
-21.8254507568
 31
0.0
 11
-2.8451447912
 21
-21.7937021476
 31
0.0
 11
-2.8892144563
 21
-21.7700577675
 31
0.0
  0
SPLINE
  5
415
100
AcDbEntity
  8
RACCORDO
100
AcDbSpline
 62
7
  6
CONTINUOUS
 70
0
 71
3
 72
10
 73
6
 74
4
 42
0.0000001
 43
0.0000001
 44
0.0000000001
 12
0.0052208833
 22
0.7353189252
 32
0.0
 13
0.6632798257
 23
0.3174603159
 33
0.0
 40
0.0
 40
0.0
 40
0.0
 40
0.0
 40
0.3356186143
 40
0.688073818
 40
1.0
 40
1.0
 40
1.0
 40
1.0
 10
7.4759602326
 20
26.4417152939
 30
0.0
 10
7.4765443078
 20
26.5239775335
 30
0.0
 10
7.5151200697
 20
26.6927541384
 30
0.0
 10
7.6396938246
 20
26.9067838602
 30
0.0
 10
7.7667057372
 20
27.0177304266
 30
0.0
 10
7.8356705185
 20
27.050738488
 30
0.0
 11
7.4759602326
 21
26.4417152939
 31
0.0
 11
7.5253915133
 21
26.6835071534
 31
0.0
 11
7.657195304
 21
26.906663312
 31
0.0
 11
7.8356705185
 21
27.050738488
 31
0.0
  0
SPLINE
  5
416
100
AcDbEntity
  8
RACCORDO
100
AcDbSpline
 62
7
  6
CONTINUOUS
 70
0
 71
3
 72
8
 73
4
 74
2
 42
0.0000001
 43
0.0000001
 44
0.0000000001
 12
0.3162972907
 22
0.1513868415
 32
0.0
 13
0.342677176
 23
-0.0832517125
 33
0.0
 40
0.0
 40
0.0
 40
0.0
 40
0.0
 40
1.0
 40
1.0
 40
1.0
 40
1.0
 10
12.5289379559
 20
29.2970395296
 30
0.0
 10
12.6343703861
 20
29.3475018101
 30
0.0
 10
12.7612553338
 20
29.3783608897
 30
0.0
 10
12.8754810591
 20
29.3506103189
 30
0.0
 11
12.5289379559
 21
29.2970395296
 31
0.0
 11
12.8754810591
 21
29.3506103189
 31
0.0
  0
SPLINE
  5
417
100
AcDbEntity
  8
RACCORDO
100
AcDbSpline
 62
7
  6
CONTINUOUS
 70
0
 71
3
 72
8
 73
4
 74
2
 42
0.0000001
 43
0.0000001
 44
0.0000000001
 12
0.0892595654
 22
-0.0216851667
 32
0.0
 13
0.0823867534
 23
-0.0433539137
 33
0.0
 40
0.0
 40
0.0
 40
0.0
 40
0.0
 40
1.0
 40
1.0
 40
1.0
 40
1.0
 10
12.8754810591
 20
29.3506103189
 30
0.0
 10
12.9052342476
 20
29.34338193
 30
0.0
 10
12.9341285289
 20
29.3321769741
 30
0.0
 10
12.96159078
 20
29.3177256695
 30
0.0
 11
12.8754810591
 21
29.3506103189
 31
0.0
 11
12.96159078
 21
29.3177256695
 31
0.0
  0
SPLINE
  5
418
100
AcDbEntity
  8
RACCORDO
100
AcDbSpline
 62
7
  6
CONTINUOUS
 70
0
 71
3
 72
10
 73
6
 74
4
 42
0.0000001
 43
0.0000001
 44
0.0000000001
 12
-0.2214538587
 22
0.1107269294
 32
0.0
 13
-0.2071336106
 23
0.1356389759
 33
0.0
 40
0.0
 40
0.0
 40
0.0
 40
0.0
 40
0.3452819477
 40
0.6851431792
 40
1.0
 40
1.0
 40
1.0
 40
1.0
 10
16.5888675669
 20
22.6591460424
 30
0.0
 10
16.5633795603
 20
22.6718900456
 30
0.0
 10
16.5132264523
 20
22.6980360281
 30
0.0
 10
16.4414611743
 20
22.7388301779
 30
0.0
 10
16.3955844763
 20
22.7674154619
 30
0.0
 10
16.3738453329
 20
22.7816510808
 30
0.0
 11
16.5888675669
 21
22.6591460424
 31
0.0
 11
16.5130794617
 21
22.6987010168
 31
0.0
 11
16.4399656448
 21
22.7403558853
 31
0.0
 11
16.3738453329
 21
22.7816510808
 31
0.0
  0
SPLINE
  5
419
100
AcDbEntity
  8
RACCORDO
100
AcDbSpline
 62
7
  6
CONTINUOUS
 70
0
 71
3
 72
15
 73
11
 74
9
 42
0.0000001
 43
0.0000001
 44
0.0000000001
 12
5.1267252645
 22
-1.960363884
 32
0.0
 13
-4.909284143
 23
2.4546420715
 33
0.0
 40
0.0
 40
0.0
 40
0.0
 40
0.0
 40
0.1494935545
 40
0.3128344548
 40
0.4712671911
 40
0.6089421152
 40
0.7164073485
 40
0.7993245852
 40
0.8857479165
 40
1.0
 40
1.0
 40
1.0
 40
1.0
 10
16.8339114891
 20
22.5516180027
 30
0.0
 10
17.0893822833
 20
22.4539307477
 30
0.0
 10
17.6509485644
 20
22.3185346284
 30
0.0
 10
18.5156249508
 20
22.2732616552
 30
0.0
 10
19.3558163231
 20
22.3776833608
 30
0.0
 10
20.0572309142
 20
22.6225464154
 30
0.0
 10
20.5630779076
 20
22.9764905523
 30
0.0
 10
20.7605552422
 20
23.4961844579
 30
0.0
 10
20.4904955753
 20
23.9932570318
 30
0.0
 10
20.1744247401
 20
24.1926902075
 30
0.0
 10
19.9874594262
 20
24.2861728644
 30
0.0
 11
16.8339114891
 21
22.5516180027
 31
0.0
 11
17.6289273604
 21
22.3485837619
 31
0.0
 11
18.5241250329
 21
22.2996004897
 31
0.0
 11
19.3860888679
 21
22.4145679593
 31
0.0
 11
20.09457582
 21
22.6773843386
 31
0.0
 11
20.5506700981
 21
23.0514168979
 31
0.0
 11
20.6904263247
 21
23.4845391119
 31
0.0
 11
20.4938178604
 21
23.91623171
 31
0.0
 11
19.9874594262
 21
24.2861728644
 31
0.0
  0
SPLINE
  5
41A
100
AcDbEntity
  8
RACCORDO
100
AcDbSpline
 62
7
  6
CONTINUOUS
 70
0
 71
3
 72
15
 73
11
 74
9
 42
0.0000001
 43
0.0000001
 44
0.0000000001
 12
-4.9285587037
 22
2.4642793518
 32
0.0
 13
4.6098549163
 23
-3.0187085433
 33
0.0
 40
0.0
 40
0.0
 40
0.0
 40
0.0
 40
0.1429421771
 40
0.3034194646
 40
0.4649662476
 40
0.610808613
 40
0.7286268496
 40
0.8175356812
 40
0.8985153116
 40
1.0
 40
1.0
 40
1.0
 40
1.0
 10
19.9874594262
 20
24.2861728644
 30
0.0
 10
19.7526264558
 20
24.4035893496
 30
0.0
 10
19.2157357589
 20
24.5760188941
 30
0.0
 10
18.3633876704
 20
24.6734972502
 30
0.0
 10
17.5009062083
 20
24.6207425316
 30
0.0
 10
16.7388411668
 20
24.4206850289
 30
0.0
 10
16.1651669795
 20
24.1071061251
 30
0.0
 10
15.830777627
 20
23.6436113695
 30
0.0
 10
15.9469220591
 20
23.1075615373
 30
0.0
 10
16.2177344913
 20
22.8838524519
 30
0.0
 10
16.3736777212
 20
22.7817348866
 30
0.0
 11
19.9874594262
 21
24.2861728644
 31
0.0
 11
19.2424757874
 21
24.5419027465
 31
0.0
 11
18.3645248509
 21
24.6474898487
 31
0.0
 11
17.4763043349
 21
24.5885997795
 31
0.0
 11
16.7019343497
 21
24.3737050737
 31
0.0
 11
16.1493422415
 21
24.0329412725
 31
0.0
 11
15.8955547695
 21
23.6138856214
 31
0.0
 11
15.9761057969
 21
23.1749945437
 31
0.0
 11
16.3736777212
 21
22.7817348866
 31
0.0
  0
SPLINE
  5
41B
100
AcDbEntity
  8
RACCORDO
100
AcDbSpline
 62
253
  6
CONTINUOUS
 70
0
 71
3
 72
12
 73
8
 74
6
 42
0.0000001
 43
0.0000001
 44
0.0000000001
 12
1.9717391672
 22
-0.9874203275
 32
0.0
 13
-0.0141477289
 23
-2.2051199714
 33
0.0
 40
0.0
 40
0.0
 40
0.0
 40
0.0
 40
0.1803413552
 40
0.3821673088
 40
0.5948185977
 40
0.8051056194
 40
1.0
 40
1.0
 40
1.0
 40
1.0
 10
24.1220959381
 20
18.1186474411
 30
0.0
 10
24.2406246426
 20
18.0592898678
 30
0.0
 10
24.4718449109
 20
17.8927619895
 30
0.0
 10
24.7604232338
 20
17.5605316247
 30
0.0
 10
24.9895248096
 20
17.1591147891
 30
0.0
 10
25.1371898417
 20
16.7269056381
 30
0.0
 10
25.1744217678
 20
16.4283033841
 30
0.0
 10
25.1735026636
 20
16.2850482204
 30
0.0
 11
24.1220959381
 21
18.1186474411
 31
0.0
 11
24.4486450908
 21
17.8916738114
 31
0.0
 11
24.7435300733
 21
17.558325802
 31
0.0
 11
24.9767385358
 21
17.1514961878
 31
0.0
 11
25.1248129022
 21
16.7120555824
 31
0.0
 11
25.1735026636
 21
16.2850482204
 31
0.0
  0
SPLINE
  5
41C
100
AcDbEntity
  8
RACCORDO
100
AcDbSpline
 62
253
  6
CONTINUOUS
 70
0
 71
3
 72
10
 73
6
 74
4
 42
0.0000001
 43
0.0000001
 44
0.0000000001
 12
-0.6632797627
 22
-0.3174602761
 32
0.0
 13
-0.005221179
 23
-0.735318849
 33
0.0
 40
0.0
 40
0.0
 40
0.0
 40
0.0
 40
0.3119563058
 40
0.6644177164
 40
1.0
 40
1.0
 40
1.0
 40
1.0
 10
24.481806224
 20
18.7276706353
 30
0.0
 10
24.4128347892
 20
18.6946593903
 30
0.0
 10
24.2858178321
 20
18.5837032873
 30
0.0
 10
24.1612503532
 20
18.369669942
 30
0.0
 10
24.1226799832
 20
18.2009007673
 30
0.0
 10
24.1220959381
 20
18.1186474411
 30
0.0
 11
24.481806224
 21
18.7276706353
 31
0.0
 11
24.303316474
 21
18.5835782371
 31
0.0
 11
24.1715174195
 21
18.3604140107
 31
0.0
 11
24.1220959381
 21
18.1186474411
 31
0.0
  0
SPLINE
  5
41D
100
AcDbEntity
  8
RACCORDO
100
AcDbSpline
 62
253
  6
CONTINUOUS
 70
0
 71
3
 72
10
 73
6
 74
4
 42
0.0000001
 43
0.0000001
 44
0.0000000001
 12
-0.6526832112
 22
-0.330834709
 32
0.0
 13
-0.6545395001
 23
0.327146789
 33
0.0
 40
0.0
 40
0.0
 40
0.0
 40
0.0
 40
0.3196418303
 40
0.6771623112
 40
1.0
 40
1.0
 40
1.0
 40
1.0
 10
25.8867124921
 20
16.2843748913
 30
0.0
 10
25.8171708734
 20
16.249125354
 30
0.0
 10
25.6534003906
 20
16.2076104945
 30
0.0
 10
25.4082930892
 20
16.2079851221
 30
0.0
 10
25.2439393367
 20
16.249843116
 30
0.0
 10
25.1735026636
 20
16.2850482204
 30
0.0
 11
25.8867124921
 21
16.2843748913
 31
0.0
 11
25.6620695368
 21
16.2192393235
 31
0.0
 11
25.4004567492
 21
16.219486328
 31
0.0
 11
25.1735026636
 21
16.2850482204
 31
0.0
  0
SPLINE
  5
41E
100
AcDbEntity
  8
RACCORDO
100
AcDbSpline
 62
253
  6
CONTINUOUS
 70
0
 71
3
 72
9
 73
5
 74
3
 42
0.0000001
 43
0.0000001
 44
0.0000000001
 12
0.3992589594
 22
0.191094159
 32
0.0
 13
0.3989616847
 23
-0.2107525974
 33
0.0
 40
0.0
 40
0.0
 40
0.0
 40
0.0
 40
0.7922108151
 40
1.0
 40
1.0
 40
1.0
 40
1.0
 10
29.0931523736
 20
21.0149323208
 30
0.0
 10
29.1985847955
 20
21.0653946072
 30
0.0
 10
29.3587504246
 20
21.1043477224
 30
0.0
 10
29.4987451438
 20
21.0499135915
 30
0.0
 10
29.5263784516
 20
21.0353162214
 30
0.0
 11
29.0931523736
 21
21.0149323208
 31
0.0
 11
29.4396954605
 21
21.0685031189
 31
0.0
 11
29.5263784516
 21
21.0353162214
 31
0.0
  0
SPLINE
  5
41F
100
AcDbEntity
  8
RACCORDO
100
AcDbSpline
 62
253
  6
CONTINUOUS
 70
0
 71
3
 72
9
 73
5
 74
3
 42
0.0000001
 43
0.0000001
 44
0.0000000001
 12
0.4097009555
 22
0.2165873375
 32
0.0
 13
-0.0035331824
 23
0.4816050126
 33
0.0
 40
0.0
 40
0.0
 40
0.0
 40
0.0
 40
0.7283258496
 40
1.0
 40
1.0
 40
1.0
 40
1.0
 10
30.5132136597
 20
18.5791535774
 30
0.0
 10
30.6126789252
 20
18.6317356296
 30
0.0
 10
30.7577417315
 20
18.7284640187
 30
0.0
 10
30.7873433914
 20
18.888930726
 30
0.0
 10
30.7870234333
 20
18.9325439369
 30
0.0
 11
30.5132136597
 21
18.5791535774
 31
0.0
 11
30.762737557
 21
18.8064457374
 31
0.0
 11
30.7870234333
 21
18.9325439369
 31
0.0
  0
SPLINE
  5
420
100
AcDbEntity
  8
RACCORDO
100
AcDbSpline
 62
253
  6
CONTINUOUS
 70
0
 71
3
 72
11
 73
7
 74
5
 42
0.0000001
 43
0.0000001
 44
0.0000000001
 12
0.0077347699
 22
2.409408718
 32
0.0
 13
-1.8095687253
 23
1.6050718497
 33
0.0
 40
0.0
 40
0.0
 40
0.0
 40
0.0
 40
0.238114527
 40
0.4942783729
 40
0.7534143414
 40
1.0
 40
1.0
 40
1.0
 40
1.0
 10
30.5132136597
 20
18.5791535774
 30
0.0
 10
30.5138275801
 20
18.7703919832
 30
0.0
 10
30.4620950683
 20
19.1682304299
 30
0.0
 10
30.2615682604
 20
19.7428164688
 30
0.0
 10
29.9523155917
 20
20.275422839
 30
0.0
 10
29.6818145096
 20
20.5819183262
 30
0.0
 10
29.533076611
 20
20.7138475592
 30
0.0
 11
30.5132136597
 21
18.5791535774
 31
0.0
 11
30.4454591487
 21
19.148856894
 31
0.0
 11
30.2445634863
 21
19.7324534155
 31
0.0
 11
29.9300953608
 21
20.2718464045
 31
0.0
 11
29.533076611
 21
20.7138475592
 31
0.0
  0
SPLINE
  5
421
100
AcDbEntity
  8
RACCORDO
100
AcDbSpline
 62
253
  6
CONTINUOUS
 70
0
 71
3
 72
8
 73
4
 74
2
 42
0.0000001
 43
0.0000001
 44
0.0000000001
 12
-0.400371563
 22
0.3551261227
 32
0.0
 13
-0.4783475644
 23
0.2353061324
 33
0.0
 40
0.0
 40
0.0
 40
0.0
 40
0.0
 40
1.0
 40
1.0
 40
1.0
 40
1.0
 10
29.533076611
 20
20.7138475592
 30
0.0
 10
29.3996194233
 20
20.8322229335
 30
0.0
 10
29.2526015617
 20
20.9364969433
 30
0.0
 10
29.0931523736
 20
21.0149323208
 30
0.0
 11
29.533076611
 21
20.7138475592
 31
0.0
 11
29.0931523736
 21
21.0149323208
 31
0.0
  0
SPLINE
  5
422
100
AcDbEntity
  8
RACCORDO
100
AcDbSpline
 62
253
  6
CONTINUOUS
 70
0
 71
3
 72
12
 73
8
 74
6
 42
0.0000001
 43
0.0000001
 44
0.0000000001
 12
2.635284404
 22
-1.3074617412
 32
0.0
 13
-0.0248323596
 23
-2.941693976
 33
0.0
 40
0.0
 40
0.0
 40
0.0
 40
0.0
 40
0.181008121
 40
0.3826895657
 40
0.594747341
 40
0.8046697165
 40
1.0
 40
1.0
 40
1.0
 40
1.0
 10
24.481806224
 20
18.7276706353
 30
0.0
 10
24.6408088501
 20
18.6487835709
 30
0.0
 10
24.9503283512
 20
18.4271058695
 30
0.0
 10
25.3361930726
 20
17.9847481968
 30
0.0
 10
25.6419304808
 20
17.4504984213
 30
0.0
 10
25.838895875
 20
16.8744321009
 30
0.0
 10
25.8883293294
 20
16.475908864
 30
0.0
 10
25.8867124921
 20
16.2843748913
 30
0.0
 11
24.481806224
 21
18.7276706353
 31
0.0
 11
24.9199082698
 21
18.4249964974
 31
0.0
 11
25.3138729332
 21
17.9813703876
 31
0.0
 11
25.62473764
 21
17.4405112264
 31
0.0
 11
25.8221202693
 21
16.855355396
 31
0.0
 11
25.8867124921
 21
16.2843748913
 31
0.0
  0
SPLINE
  5
423
100
AcDbEntity
  8
RACCORDO
100
AcDbSpline
 62
253
  6
CONTINUOUS
 70
0
 71
3
 72
14
 73
10
 74
8
 42
0.0000001
 43
0.0000001
 44
0.0000000001
 12
-1.2254166236
 22
-0.6691582615
 32
0.0
 13
-0.0471762433
 23
-1.3954186047
 33
0.0
 40
0.0
 40
0.0
 40
0.0
 40
0.0
 40
0.1288226721
 40
0.2684410091
 40
0.4155007224
 40
0.5662420845
 40
0.7166916817
 40
0.8626335767
 40
1.0
 40
1.0
 40
1.0
 40
1.0
 10
2.4495396679
 20
8.0600460072
 30
0.0
 10
2.3969191866
 20
8.0313117554
 30
0.0
 10
2.2931922891
 20
7.9602591699
 30
0.0
 10
2.1529920685
 20
7.8260894528
 30
0.0
 10
2.0270986783
 20
7.6652695931
 30
0.0
 10
1.9211526243
 20
7.4848721912
 30
0.0
 10
1.839729188
 20
7.2926967125
 30
0.0
 10
1.7864059226
 20
7.0973657316
 30
0.0
 10
1.7705125826
 20
6.9658224008
 30
0.0
 10
1.7683524387
 20
6.9019278465
 30
0.0
 11
2.4495396679
 21
8.0600460072
 31
0.0
 11
2.3003917814
 21
7.9595171136
 31
0.0
 11
2.1588766768
 21
7.8254498194
 31
0.0
 11
2.0318949852
 21
7.6640965775
 31
0.0
 11
1.9251767309
 21
7.482691579
 31
0.0
 11
1.843426921
 21
7.2891916593
 31
0.0
 11
1.7903762836
 21
7.0924523143
 31
0.0
 11
1.7683524387
 21
6.9019278465
 31
0.0
  0
SPLINE
  5
424
100
AcDbEntity
  8
RACCORDO
100
AcDbSpline
 62
253
  6
CONTINUOUS
 70
0
 71
3
 72
10
 73
6
 74
4
 42
0.0000001
 43
0.0000001
 44
0.0000000001
 12
-1.1983745616
 22
-35.6138300658
 32
0.0
 13
1.2385765869
 23
-35.6124545853
 33
0.0
 40
0.0
 40
0.0
 40
0.0
 40
0.0
 40
0.3369874596
 40
0.6703466869
 40
1.0
 40
1.0
 40
1.0
 40
1.0
 10
1.0677691761
 20
6.9229496659
 30
0.0
 10
0.9331567764
 20
2.9224782919
 30
0.0
 10
0.7527039741
 20
-5.0386427511
 30
0.0
 10
0.7512141591
 20
-16.9175625132
 30
0.0
 10
0.9316688843
 20
-24.7916116212
 30
0.0
 10
1.0677691761
 20
-28.7048661687
 30
0.0
 11
1.0677691761
 21
6.9229496659
 31
0.0
 11
0.7970777653
 21
-5.082205542
 31
0.0
 11
0.7970777651
 21
-16.9611237436
 31
0.0
 11
1.0677691761
 21
-28.7048661687
 31
0.0
  0
LINE
  5
425
100
AcDbEntity
  8
RACCORDO
100
AcDbLine
 62
253
  6
CONTINUOUS
 10
-29.6596615903
 20
-13.3411507855
 11
-29.6657400605
 21
-13.1593208016
  0
SPLINE
  5
426
100
AcDbEntity
  8
RACCORDO
100
AcDbSpline
 62
253
  6
CONTINUOUS
 70
0
 71
3
 72
10
 73
6
 74
4
 42
0.0000001
 43
0.0000001
 44
0.0000000001
 12
-1.1781764272
 22
35.43209575
 32
0.0
 13
1.1507560826
 23
35.4329577346
 33
0.0
 40
0.0
 40
0.0
 40
0.0
 40
0.0
 40
0.3260803208
 40
0.6611541966
 40
1.0
 40
1.0
 40
1.0
 40
1.0
 10
-29.6657400605
 20
-13.1593208016
 30
0.0
 10
-29.7938001097
 20
-9.3080844181
 30
0.0
 10
-29.9653835246
 20
-1.49619107
 30
0.0
 10
-29.9639014562
 20
10.3218795095
 30
0.0
 10
-29.7896378801
 20
18.2845620387
 30
0.0
 10
-29.6596615903
 20
22.2866650491
 30
0.0
 11
-29.6657400605
 21
-13.1593208016
 31
0.0
 11
-29.9210743755
 21
-1.6020476733
 31
0.0
 11
-29.9210743756
 21
10.2768705284
 31
0.0
 11
-29.6596615903
 21
22.2866650491
 31
0.0
  0
SPLINE
  5
427
100
AcDbEntity
  8
RACCORDO
100
AcDbSpline
 62
253
  6
CONTINUOUS
 70
0
 71
3
 72
21
 73
17
 74
15
 42
0.0000001
 43
0.0000001
 44
0.0000000001
 12
5.8939187289
 22
-2.9482957978
 32
0.0
 13
-5.8951200518
 23
2.9458930172
 33
0.0
 40
0.0
 40
0.0
 40
0.0
 40
0.0
 40
0.0741168086
 40
0.1553923119
 40
0.2409227707
 40
0.328585254
 40
0.4157420207
 40
0.4997977302
 40
0.5783818048
 40
0.6496291858
 40
0.712847194
 40
0.7691510077
 40
0.8216785888
 40
0.875024643
 40
0.9338328385
 40
1.0
 40
1.0
 40
1.0
 40
1.0
 10
-3.1543540359
 20
-20.5661636339
 30
0.0
 10
-3.0087412205
 20
-20.639003059
 30
0.0
 10
-2.7201774806
 20
-20.8260903995
 30
0.0
 10
-2.3307421561
 20
-21.187435137
 30
0.0
 10
-1.9801639714
 20
-21.6252516148
 30
0.0
 10
-1.6851776302
 20
-22.1171564856
 30
0.0
 10
-1.4584532613
 20
-22.6405190988
 30
0.0
 10
-1.3104424761
 20
-23.1708530595
 30
0.0
 10
-1.2483317654
 20
-23.6831698499
 30
0.0
 10
-1.2757587022
 20
-24.1534387033
 30
0.0
 10
-1.3932941882
 20
-24.5602690844
 30
0.0
 10
-1.6005000558
 20
-24.884331254
 30
0.0
 10
-1.8931881135
 20
-25.1024829329
 30
0.0
 10
-2.2520129671
 20
-25.1938135917
 30
0.0
 10
-2.6479709112
 20
-25.1558569212
 30
0.0
 10
-2.907111771
 20
-25.0566665805
 30
0.0
 10
-3.0371328911
 20
-24.9916927875
 30
0.0
 11
-3.1543540359
 21
-20.5661636339
 31
0.0
 11
-2.7419755911
 21
-20.8279308645
 31
0.0
 11
-2.3470745378
 21
-21.1897924797
 31
0.0
 11
-1.9934349284
 21
-21.6287170051
 31
0.0
 11
-1.6959120644
 21
-22.1239267821
 31
0.0
 11
-1.4683058654
 21
-22.6512865542
 31
0.0
 11
-1.3214044189
 21
-23.1853968235
 31
0.0
 11
-1.2626346549
 21
-23.6999361193
 31
0.0
 11
-1.295191339
 21
-24.1683404844
 31
0.0
 11
-1.4172229459
 21
-24.566686945
 31
0.0
 11
-1.622536812
 21
-24.8757610553
 31
0.0
 11
-1.9014618244
 21
-25.0807795545
 31
0.0
 11
-2.2411664625
 21
-25.1713112313
 31
0.0
 11
-2.6275643623
 21
-25.1413503612
 31
0.0
 11
-3.0371328911
 21
-24.9916927875
 31
0.0
  0
SPLINE
  5
428
100
AcDbEntity
  8
RACCORDO
100
AcDbSpline
 62
253
  6
CONTINUOUS
 70
0
 71
3
 72
21
 73
17
 74
15
 42
0.0000001
 43
0.0000001
 44
0.0000000001
 12
-5.9027641806
 22
2.9527695051
 32
0.0
 13
5.9039645859
 23
-2.9503686024
 33
0.0
 40
0.0
 40
0.0
 40
0.0
 40
0.0
 40
0.0740454583
 40
0.155274511
 40
0.2407370215
 40
0.3282854185
 40
0.4152835944
 40
0.4991628302
 40
0.5775989367
 40
0.6487823015
 40
0.7120657447
 40
0.7685722203
 40
0.8213795189
 40
0.8749647494
 40
0.9338779131
 40
1.0
 40
1.0
 40
1.0
 40
1.0
 10
-3.0371328911
 20
-24.9916927875
 30
0.0
 10
-3.1828238509
 20
-24.9188130637
 30
0.0
 10
-3.471749257
 20
-24.7319059417
 30
0.0
 10
-3.8624518286
 20
-24.371414496
 30
0.0
 10
-4.2149413436
 20
-23.9347247151
 30
0.0
 10
-4.51208478
 20
-23.4439887033
 30
0.0
 10
-4.7407813041
 20
-22.9216086894
 30
0.0
 10
-4.8901851429
 20
-22.391873608
 30
0.0
 10
-4.9528133678
 20
-21.8796478072
 30
0.0
 10
-4.9248854379
 20
-21.4089606693
 30
0.0
 10
-4.8058913033
 20
-21.0013637523
 30
0.0
 10
-4.5966660515
 20
-20.6764917257
 30
0.0
 10
-4.3020900237
 20
-20.4574568096
 30
0.0
 10
-3.941634391
 20
-20.3649661927
 30
0.0
 10
-3.5442913081
 20
-20.4020061124
 30
0.0
 10
-3.2844815224
 20
-20.5011354575
 30
0.0
 10
-3.1543540359
 20
-20.5661636339
 30
0.0
 11
-3.0371328911
 21
-24.9916927875
 31
0.0
 11
-3.4499859034
 21
-24.7301814507
 31
0.0
 11
-3.846219806
 21
-24.3690385183
 31
0.0
 11
-4.2017644991
 21
-23.9311412372
 31
0.0
 11
-4.5013904146
 21
-23.4370654523
 31
0.0
 11
-4.7308869513
 21
-22.9107249729
 31
0.0
 11
-4.8790975401
 21
-22.3773206085
 31
0.0
 11
-4.9383359629
 21
-21.8630340196
 31
0.0
 11
-4.9053124217
 21
-21.3943779202
 31
0.0
 11
-4.7819731471
 21
-20.9953263501
 31
0.0
 11
-4.5747696262
 21
-20.6852333157
 31
0.0
 11
-4.2937410892
 21
-20.4790805712
 31
0.0
 11
-3.9521298713
 21
-20.3875208439
 31
0.0
 11
-3.564397489
 21
-20.4167621452
 31
0.0
 11
-3.1543540359
 21
-20.5661636339
 31
0.0
  0
SPLINE
  5
429
100
AcDbEntity
  8
RACCORDO
100
AcDbSpline
 62
253
  6
CONTINUOUS
 70
0
 71
3
 72
9
 73
5
 74
3
 42
0.0000001
 43
0.0000001
 44
0.0000000001
 12
-0.1318432193
 22
-0.0660201164
 32
0.0
 13
-0.103981949
 23
-0.1048482135
 33
0.0
 40
0.0
 40
0.0
 40
0.0
 40
0.0
 40
0.2936633245
 40
1.0
 40
1.0
 40
1.0
 40
1.0
 10
-3.1115490899
 20
-21.3895298364
 30
0.0
 10
-3.1244549293
 20
-21.3959923987
 30
0.0
 10
-3.1673161677
 20
-21.4201241413
 30
0.0
 10
-3.2056404125
 20
-21.4513758998
 30
0.0
 10
-3.2301225006
 20
-21.476061946
 30
0.0
 11
-3.1115490899
 21
-21.3895298364
 31
0.0
 11
-3.1492372149
 21
-21.4107796312
 31
0.0
 11
-3.2301225006
 21
-21.476061946
 31
0.0
  0
SPLINE
  5
42A
100
AcDbEntity
  8
RACCORDO
100
AcDbSpline
 62
253
  6
CONTINUOUS
 70
0
 71
3
 72
9
 73
5
 74
3
 42
0.0000001
 43
0.0000001
 44
0.0000000001
 12
0.0088580874
 22
-0.2376757851
 32
0.0
 13
0.2132564342
 23
-0.1068093099
 33
0.0
 40
0.0
 40
0.0
 40
0.0
 40
0.0
 40
0.434070058
 40
1.0
 40
1.0
 40
1.0
 40
1.0
 10
-29.8061193564
 20
-13.1635140743
 30
0.0
 10
-29.8048376795
 20
-13.1979033883
 30
0.0
 10
-29.7685500324
 20
-13.2763123133
 30
0.0
 10
-29.6998909853
 20
-13.3210019203
 30
0.0
 10
-29.6596615848
 20
-13.3411507824
 30
0.0
 11
-29.8061193564
 21
-13.1635140743
 31
0.0
 11
-29.7672356013
 21
-13.259620035
 31
0.0
 11
-29.6596615848
 21
-13.3411507824
 31
0.0
  0
SPLINE
  5
42B
100
AcDbEntity
  8
RACCORDO
100
AcDbSpline
 62
253
  6
CONTINUOUS
 70
0
 71
3
 72
10
 73
6
 74
4
 42
0.0000001
 43
0.0000001
 44
0.0000000001
 12
-0.010502452
 22
-0.2352924485
 32
0.0
 13
0.2125559153
 23
-0.1060847754
 33
0.0
 40
0.0
 40
0.0
 40
0.0
 40
0.0
 40
0.0240212074
 40
0.4390717549
 40
1.0
 40
1.0
 40
1.0
 40
1.0
 10
-29.8060801145
 20
22.4615420689
 30
0.0
 10
-29.8061642084
 20
22.459658066
 30
0.0
 10
-29.8067358511
 20
22.4252196618
 30
0.0
 10
-29.7662752315
 20
22.3478413971
 30
0.0
 10
-29.6993930808
 20
22.306505479
 30
0.0
 10
-29.6596502086
 20
22.2866701633
 30
0.0
 11
-29.8060801145
 21
22.4615420689
 31
0.0
 11
-29.806171873
 21
22.455891268
 31
0.0
 11
-29.7672233983
 21
22.3653113077
 31
0.0
 11
-29.6596502086
 21
22.2866701633
 31
0.0
  0
SPLINE
  5
42C
100
AcDbEntity
  8
RACCORDO
100
AcDbSpline
 62
253
  6
CONTINUOUS
 70
0
 71
3
 72
9
 73
5
 74
3
 42
0.0000001
 43
0.0000001
 44
0.0000000001
 12
0.2102123049
 22
0.1189985774
 32
0.0
 13
0.2160924771
 23
-0.1041117121
 33
0.0
 40
0.0
 40
0.0
 40
0.0
 40
0.0
 40
0.4148551632
 40
1.0
 40
1.0
 40
1.0
 40
1.0
 10
-28.9001791952
 20
24.0471749715
 30
0.0
 10
-28.8711099752
 20
24.0636306962
 30
0.0
 10
-28.7887096198
 20
24.0837285453
 30
0.0
 10
-28.7092446727
 20
24.0587568306
 30
0.0
 10
-28.667096207
 20
24.0384500203
 30
0.0
 11
-28.9001791952
 21
24.0471749715
 31
0.0
 11
-28.8032467473
 21
24.0725494006
 31
0.0
 11
-28.667096207
 21
24.0384500203
 31
0.0
  0
SPLINE
  5
42D
100
AcDbEntity
  8
RACCORDO
100
AcDbSpline
 62
253
  6
CONTINUOUS
 70
0
 71
3
 72
14
 73
10
 74
8
 42
0.0000001
 43
0.0000001
 44
0.0000000001
 12
0.0358440346
 22
-1.0277179032
 32
0.0
 13
0.9482752503
 23
0.3978227407
 33
0.0
 40
0.0
 40
0.0
 40
0.0
 40
0.0
 40
0.1659241419
 40
0.3164828463
 40
0.4532721691
 40
0.582019082
 40
0.7111845216
 40
0.8488697853
 40
1.0
 40
1.0
 40
1.0
 40
1.0
 10
1.7683524387
 20
-28.6902601722
 30
0.0
 10
1.7703349022
 20
-28.7471012426
 30
0.0
 10
1.7833692997
 20
-28.8556087115
 30
0.0
 10
1.8351871199
 20
-29.0036392956
 30
0.0
 10
1.9176650412
 20
-29.122604233
 30
0.0
 10
2.0283600176
 20
-29.2049286125
 30
0.0
 10
2.1608465445
 20
-29.2444218033
 30
0.0
 10
2.3060675423
 20
-29.2398595804
 30
0.0
 10
2.4017686538
 20
-29.2106044841
 30
0.0
 10
2.4495396679
 20
-29.190563472
 30
0.0
 11
1.7683524387
 21
-28.6902601722
 31
0.0
 11
1.7903640734
 21
-28.8594613097
 31
0.0
 11
1.843379783
 21
-29.004927497
 31
0.0
 11
1.9250538619
 21
-29.1194541597
 31
0.0
 11
2.0317420863
 21
-29.1978525827
 31
0.0
 11
2.158776764
 21
-29.2366472904
 31
0.0
 11
2.3003410269
 21
-29.2340740806
 31
0.0
 11
2.4495396679
 21
-29.190563472
 31
0.0
  0
SPLINE
  5
42E
100
AcDbEntity
  8
RACCORDO
100
AcDbSpline
 62
253
  6
CONTINUOUS
 70
0
 71
3
 72
10
 73
6
 74
4
 42
0.0000001
 43
0.0000001
 44
0.0000000001
 12
-1.1971961689
 22
-35.5782157754
 32
0.0
 13
1.2373577663
 23
-35.5768416555
 33
0.0
 40
0.0
 40
0.0
 40
0.0
 40
0.0
 40
0.3369872207
 40
0.670347162
 40
1.0
 40
1.0
 40
1.0
 40
1.0
 10
1.7683524387
 20
6.9019278465
 30
0.0
 10
1.6338725021
 20
2.9054598293
 30
0.0
 10
1.4535967376
 20
-5.0477057258
 30
0.0
 10
1.4521085237
 20
-16.9147466811
 30
0.0
 10
1.6323862722
 20
-24.7809245658
 30
0.0
 10
1.7683524387
 20
-28.6902601722
 30
0.0
 11
1.7683524387
 21
6.9019278465
 31
0.0
 11
1.4979271467
 21
-5.0912136667
 31
0.0
 11
1.4979272887
 21
-16.9582784395
 31
0.0
 11
1.7683524387
 21
-28.6902601722
 31
0.0
  0
SPLINE
  5
42F
100
AcDbEntity
  8
RACCORDO
100
AcDbSpline
 62
253
  6
CONTINUOUS
 70
0
 71
3
 72
11
 73
7
 74
5
 42
0.0000001
 43
0.0000001
 44
0.0000000001
 12
-0.7971950751
 22
0.3984718989
 32
0.0
 13
-0.030025245
 23
0.8870488988
 33
0.0
 40
0.0
 40
0.0
 40
0.0
 40
0.0
 40
0.2185385211
 40
0.4520414034
 40
0.7113041573
 40
1.0
 40
1.0
 40
1.0
 40
1.0
 10
-29.2752457652
 20
-14.0972056387
 30
0.0
 10
-29.3333183761
 20
-14.0681784855
 30
0.0
 10
-29.4424147311
 20
-13.9861509443
 30
0.0
 10
-29.5624078255
 20
-13.8094525614
 30
0.0
 10
-29.6378239803
 20
-13.5886745666
 30
0.0
 10
-29.6567722025
 20
-13.4265132286
 30
0.0
 10
-29.6596615903
 20
-13.3411507855
 30
0.0
 11
-29.2752457652
 21
-14.0972056387
 31
0.0
 11
-29.4311279058
 21
-13.9817925111
 31
0.0
 11
-29.5500748166
 21
-13.8120780707
 31
0.0
 11
-29.6273870246
 21
-13.5953440382
 31
0.0
 11
-29.6596615903
 21
-13.3411507855
 31
0.0
  0
SPLINE
  5
430
100
AcDbEntity
  8
RACCORDO
100
AcDbSpline
 62
253
  6
CONTINUOUS
 70
0
 71
3
 72
9
 73
5
 74
3
 42
0.0000001
 43
0.0000001
 44
0.0000000001
 12
0.1469591416
 22
0.0206208351
 32
0.0
 13
0.1331880172
 23
0.0656945821
 33
0.0
 40
0.0
 40
0.0
 40
0.0
 40
0.0
 40
0.0373461399
 40
1.0
 40
1.0
 40
1.0
 40
1.0
 10
-2.0915720018
 20
-23.6468770877
 30
0.0
 10
-2.0897425496
 20
-23.6466203848
 30
0.0
 10
-2.0407891551
 20
-23.6394713599
 30
0.0
 10
-1.9927842793
 20
-23.6248829648
 30
0.0
 10
-1.950046293
 20
-23.6038025838
 30
0.0
 11
-2.0915720018
 21
-23.6468770877
 31
0.0
 11
-2.0860874319
 21
-23.6460760319
 31
0.0
 11
-1.950046293
 21
-23.6038025838
 31
0.0
  0
SPLINE
  5
431
100
AcDbEntity
  8
RACCORDO
100
AcDbSpline
 62
253
  6
CONTINUOUS
 70
0
 71
3
 72
21
 73
17
 74
15
 42
0.0000001
 43
0.0000001
 44
0.0000000001
 12
-5.5321187592
 22
2.7672809929
 32
0.0
 13
5.5329840903
 23
-2.7655504183
 33
0.0
 40
0.0
 40
0.0
 40
0.0
 40
0.0
 40
0.0743623233
 40
0.1555934933
 40
0.2410355233
 40
0.3285434256
 40
0.4154833814
 40
0.4992913789
 40
0.5776495184
 40
0.6487563718
 40
0.7119750385
 40
0.7684360275
 40
0.8212117647
 40
0.8747699129
 40
0.9336520137
 40
1.0
 40
1.0
 40
1.0
 40
1.0
 10
-3.0073548176
 20
-24.8341006323
 30
0.0
 10
-3.1444818855
 20
-24.7655068177
 30
0.0
 10
-3.4157691797
 20
-24.5898703497
 30
0.0
 10
-3.7822412309
 20
-24.2514507335
 30
0.0
 10
-4.1124136508
 20
-23.8421956474
 30
0.0
 10
-4.3906901562
 20
-23.382441336
 30
0.0
 10
-4.6048243817
 20
-22.8931618194
 30
0.0
 10
-4.7446763244
 20
-22.3970907519
 30
0.0
 10
-4.8032615887
 20
-21.9174886099
 30
0.0
 10
-4.7770609692
 20
-21.476816591
 30
0.0
 10
-4.6656062363
 20
-21.0952029626
 30
0.0
 10
-4.4696724163
 20
-20.7909929526
 30
0.0
 10
-4.1938143686
 20
-20.5858075258
 30
0.0
 10
-3.8562295564
 20
-20.4990085132
 30
0.0
 10
-3.4834764494
 20
-20.5335141804
 30
0.0
 10
-3.2395511548
 20
-20.6264935105
 30
0.0
 10
-3.1171837039
 20
-20.6876564109
 30
0.0
 11
-3.0073548176
 21
-24.8341006323
 31
0.0
 11
-3.3958619313
 21
-24.5878432062
 31
0.0
 11
-3.7670722577
 21
-24.2492047323
 31
0.0
 11
-4.100096929
 21
-23.8388128156
 31
0.0
 11
-4.3806932485
 21
-23.375926812
 31
0.0
 11
-4.5955691194
 21
-22.8829408056
 31
0.0
 11
-4.7342974423
 21
-22.3834414381
 31
0.0
 11
-4.7897050796
 21
-21.9019233012
 31
0.0
 11
-4.7587367752
 21
-21.4631732359
 31
0.0
 11
-4.6432263852
 21
-21.0895745474
 31
0.0
 11
-4.4491905657
 21
-20.7991886997
 31
0.0
 11
-4.1860043137
 21
-20.6060467123
 31
0.0
 11
-3.8660468923
 21
-20.5201318111
 31
0.0
 11
-3.502836845
 21
-20.5472858452
 31
0.0
 11
-3.1171837039
 21
-20.6876564109
 31
0.0
  0
SPLINE
  5
432
100
AcDbEntity
  8
RACCORDO
100
AcDbSpline
 62
253
  6
CONTINUOUS
 70
0
 71
3
 72
21
 73
17
 74
15
 42
0.0000001
 43
0.0000001
 44
0.0000000001
 12
-3.1159099379
 22
1.3705501159
 32
0.0
 13
2.7302886668
 23
-2.0309562843
 33
0.0
 40
0.0
 40
0.0
 40
0.0
 40
0.0
 40
0.0339503013
 40
0.0855861942
 40
0.1385947361
 40
0.194624296
 40
0.2569189959
 40
0.3274603422
 40
0.4074307452
 40
0.497180687
 40
0.5950618065
 40
0.6981302279
 40
0.7967669262
 40
0.8837205547
 40
0.9575303491
 40
1.0
 40
1.0
 40
1.0
 40
1.0
 10
-2.8086264925
 20
-21.3336627391
 30
0.0
 10
-2.8438885196
 20
-21.3181525426
 30
0.0
 10
-2.9348708167
 20
-21.2836652534
 30
0.0
 10
-3.0896995209
 20
-21.2509977082
 30
0.0
 10
-3.2742215106
 20
-21.2584787534
 30
0.0
 10
-3.4591362555
 20
-21.331322656
 30
0.0
 10
-3.6166900596
 20
-21.4842994089
 30
0.0
 10
-3.7211567865
 20
-21.7062832543
 30
0.0
 10
-3.7660117173
 20
-21.9775151337
 30
0.0
 10
-3.7510982453
 20
-22.2823262727
 30
0.0
 10
-3.6779190254
 20
-22.605084132
 30
0.0
 10
-3.5527792354
 20
-22.9221163959
 30
0.0
 10
-3.3906283545
 20
-23.2075043753
 30
0.0
 10
-3.2123925973
 20
-23.442400801
 30
0.0
 10
-3.0504568642
 20
-23.6071356528
 30
0.0
 10
-2.9482397925
 20
-23.6906833652
 30
0.0
 10
-2.9095883237
 20
-23.7194347
 30
0.0
 11
-2.8086264925
 21
-21.3336627391
 31
0.0
 11
-2.9167985397
 21
-21.2930441306
 31
0.0
 11
-3.0889633898
 21
-21.2585131833
 31
0.0
 11
-3.2689700444
 21
-21.2680945906
 31
0.0
 11
-3.445872643
 21
-21.3388686981
 31
0.0
 11
-3.5997812371
 21
-21.4844309507
 31
0.0
 11
-3.7064706076
 21
-21.6992834233
 31
0.0
 11
-3.7550512001
 21
-21.9668573429
 31
0.0
 11
-3.7431368586
 21
-22.2718294154
 31
0.0
 11
-3.6713116834
 21
-22.5968433468
 31
0.0
 11
-3.5433424977
 21
-22.9231424692
 31
0.0
 11
-3.377493331
 21
-23.2146970372
 31
0.0
 11
-3.1982024617
 21
-23.4498366438
 31
0.0
 11
-3.0216308044
 21
-23.6282257584
 31
0.0
 11
-2.9095883237
 21
-23.7194347
 31
0.0
  0
SPLINE
  5
433
100
AcDbEntity
  8
RACCORDO
100
AcDbSpline
 62
253
  6
CONTINUOUS
 70
0
 71
3
 72
8
 73
4
 74
2
 42
0.0000001
 43
0.0000001
 44
0.0000000001
 12
0.146638225
 22
-0.0995479302
 32
0.0
 13
0.1583736038
 23
-0.0791871791
 33
0.0
 40
0.0
 40
0.0
 40
0.0
 40
0.0
 40
1.0
 40
1.0
 40
1.0
 40
1.0
 10
-2.8556282299
 20
-23.7578103865
 30
0.0
 10
-2.8067488216
 20
-23.7909930299
 30
0.0
 10
-2.7558595282
 20
-23.8212939331
 30
0.0
 10
-2.703068327
 20
-23.8476896595
 30
0.0
 11
-2.8556282299
 21
-23.7578103865
 31
0.0
 11
-2.703068327
 21
-23.8476896595
 31
0.0
  0
SPLINE
  5
434
100
AcDbEntity
  8
RACCORDO
100
AcDbSpline
 62
253
  6
CONTINUOUS
 70
0
 71
3
 72
9
 73
5
 74
3
 42
0.0000001
 43
0.0000001
 44
0.0000000001
 12
0.578024598
 22
-0.2890932791
 32
0.0
 13
0.4852599056
 23
-0.4278651076
 33
0.0
 40
0.0
 40
0.0
 40
0.0
 40
0.0
 40
0.7113389818
 40
1.0
 40
1.0
 40
1.0
 40
1.0
 10
-3.1171837039
 20
-20.6876564109
 30
0.0
 10
-2.9801265609
 20
-20.7562041839
 30
0.0
 10
-2.7980553209
 20
-20.8743584187
 30
0.0
 10
-2.6318491449
 20
-21.0119914565
 30
0.0
 10
-2.5851572721
 20
-21.0531607824
 30
0.0
 11
-3.1171837039
 21
-20.6876564109
 31
0.0
 11
-2.7291255923
 21
-20.9341559456
 31
0.0
 11
-2.5851572721
 21
-21.0531607824
 31
0.0
  0
SPLINE
  5
435
100
AcDbEntity
  8
RACCORDO
100
AcDbSpline
 62
253
  6
CONTINUOUS
 70
0
 71
3
 72
20
 73
16
 74
14
 42
0.0000001
 43
0.0000001
 44
0.0000000001
 12
4.1522104342
 22
-3.6611019041
 32
0.0
 13
-4.9467755251
 23
2.4720606456
 33
0.0
 40
0.0
 40
0.0
 40
0.0
 40
0.0
 40
0.0570418233
 40
0.1525449669
 40
0.2504071094
 40
0.3476845545
 40
0.4414839074
 40
0.5291646484
 40
0.6086529817
 40
0.6791868377
 40
0.7420200901
 40
0.8006514652
 40
0.8602008767
 40
0.9258481106
 40
1.0
 40
1.0
 40
1.0
 40
1.0
 10
-2.5851572721
 20
-21.0531607824
 30
0.0
 10
-2.5062073874
 20
-21.1227727584
 30
0.0
 10
-2.3049021885
 20
-21.3199439023
 30
0.0
 10
-2.015519859
 20
-21.6815518142
 30
0.0
 10
-1.7392592296
 20
-22.1423964208
 30
0.0
 10
-1.5269743316
 20
-22.6325977705
 30
0.0
 10
-1.3884260793
 20
-23.1292292038
 30
0.0
 10
-1.3303255565
 20
-23.6089166954
 30
0.0
 10
-1.3560571518
 20
-24.0491971489
 30
0.0
 10
-1.4661464014
 20
-24.4300932379
 30
0.0
 10
-1.6601892779
 20
-24.7335445099
 30
0.0
 10
-1.9342776582
 20
-24.93790316
 30
0.0
 10
-2.2703349539
 20
-25.0236110183
 30
0.0
 10
-2.6417929863
 20
-24.9882581686
 30
0.0
 10
-2.8850839003
 20
-24.8952032882
 30
0.0
 10
-3.0073548176
 20
-24.8341006323
 30
0.0
 11
-2.5851572721
 21
-21.0531607824
 31
0.0
 11
-2.3591555287
 21
-21.2734631788
 31
0.0
 11
-2.0279218671
 21
-21.6848208298
 31
0.0
 11
-1.7492949775
 21
-22.148768775
 31
0.0
 11
-1.5361900594
 21
-22.6427097004
 31
0.0
 11
-1.3986875005
 21
-23.1428700142
 31
0.0
 11
-1.3437186806
 21
-23.6246247672
 31
0.0
 11
-1.3742500242
 21
-24.0631392186
 31
0.0
 11
-1.4885363021
 21
-24.4360778517
 31
0.0
 11
-1.6808025149
 21
-24.7255095066
 31
0.0
 11
-1.9420189931
 21
-24.9175893688
 31
0.0
 11
-2.2601859971
 21
-25.0025388557
 31
0.0
 11
-2.6221518853
 21
-24.9747139562
 31
0.0
 11
-3.0073548176
 21
-24.8341006323
 31
0.0
  0
SPLINE
  5
436
100
AcDbEntity
  8
RACCORDO
100
AcDbSpline
 62
253
  6
CONTINUOUS
 70
0
 71
3
 72
13
 73
9
 74
7
 42
0.0000001
 43
0.0000001
 44
0.0000000001
 12
0.9227047532
 22
-0.4613022678
 32
0.0
 13
0.4806808967
 23
0.9191070008
 33
0.0
 40
0.0
 40
0.0
 40
0.0
 40
0.0
 40
0.1574040993
 40
0.318179781
 40
0.4834399579
 40
0.6580377173
 40
0.8529727072
 40
1.0
 40
1.0
 40
1.0
 40
1.0
 10
-2.703068327
 20
-23.8476896595
 30
0.0
 10
-2.6546558234
 20
-23.8718932821
 30
0.0
 10
-2.5532977643
 20
-23.9143212671
 30
0.0
 10
-2.3902392704
 20
-23.951603698
 30
0.0
 10
-2.2161111217
 20
-23.9510943123
 30
0.0
 10
-2.037384049
 20
-23.8942530472
 30
0.0
 10
-1.8962367222
 20
-23.779265331
 30
0.0
 10
-1.8306895961
 20
-23.6802494388
 30
0.0
 10
-1.8071318591
 20
-23.6352048341
 30
0.0
 11
-2.703068327
 21
-23.8476896595
 31
0.0
 11
-2.5529131727
 21
-23.9094933993
 31
0.0
 11
-2.390917191
 21
-23.9450630266
 31
0.0
 11
-2.2204531286
 21
-23.9426444132
 31
0.0
 11
-2.0492090772
 21
-23.8868191771
 31
0.0
 11
-1.8922099289
 21
-23.7611613825
 31
0.0
 11
-1.8071318591
 21
-23.6352048341
 31
0.0
  0
SPLINE
  5
437
100
AcDbEntity
  8
RACCORDO
100
AcDbSpline
 62
253
  6
CONTINUOUS
 70
0
 71
3
 72
16
 73
12
 74
10
 42
0.0000001
 43
0.0000001
 44
0.0000000001
 12
1.1553490196
 22
2.2091357896
 32
0.0
 13
-2.0415738614
 23
1.4118211345
 33
0.0
 40
0.0
 40
0.0
 40
0.0
 40
0.0
 40
0.0326945411
 40
0.1390671241
 40
0.2589013802
 40
0.3904433115
 40
0.5303481929
 40
0.6704150741
 40
0.7983309739
 40
0.9081225725
 40
1.0
 40
1.0
 40
1.0
 40
1.0
 10
-1.8071318591
 20
-23.6352048341
 30
0.0
 10
-1.7945406571
 20
-23.6111292738
 30
0.0
 10
-1.7466027608
 20
-23.5057187993
 30
0.0
 10
-1.6991186558
 20
-23.2947342606
 30
0.0
 10
-1.7000847732
 20
-22.9970902777
 30
0.0
 10
-1.7596318275
 20
-22.6777067246
 30
0.0
 10
-1.8737277084
 20
-22.3559459315
 30
0.0
 10
-2.0313575507
 20
-22.0566649868
 30
0.0
 10
-2.2139032849
 20
-21.8021706536
 30
0.0
 10
-2.4014232405
 20
-21.6034479844
 30
0.0
 10
-2.5313679053
 20
-21.4982987866
 30
0.0
 10
-2.5938927568
 20
-21.4550606219
 30
0.0
 11
-1.8071318591
 21
-23.6352048341
 31
0.0
 11
-1.7732402129
 21
-23.561127816
 31
0.0
 11
-1.7108968805
 21
-23.3048506581
 31
0.0
 11
-1.7085926759
 21
-23.0077301746
 31
0.0
 11
-1.7663319202
 21
-22.6867229545
 31
0.0
 11
-1.8813168325
 21
-22.3594396959
 31
0.0
 11
-2.0431370119
 21
-22.0521467851
 31
0.0
 11
-2.2285633595
 21
-21.7948288237
 31
0.0
 11
-2.4161217691
 21
-21.59752129
 31
0.0
 11
-2.5938927568
 21
-21.4550606219
 31
0.0
  0
SPLINE
  5
438
100
AcDbEntity
  8
RACCORDO
100
AcDbSpline
 62
253
  6
CONTINUOUS
 70
0
 71
3
 72
11
 73
7
 74
5
 42
0.0000001
 43
0.0000001
 44
0.0000000001
 12
-0.0324678849
 22
0.7302925434
 32
0.0
 13
-0.6488722891
 23
0.3366691475
 33
0.0
 40
0.0
 40
0.0
 40
0.0
 40
0.0
 40
0.2445505036
 40
0.5100528154
 40
0.7700841567
 40
1.0
 40
1.0
 40
1.0
 40
1.0
 10
2.4495396679
 20
8.0600460072
 30
0.0
 10
2.4468929887
 20
8.1195771436
 30
0.0
 10
2.4211023979
 20
8.2429780276
 30
0.0
 10
2.341259726
 20
8.4143141198
 30
0.0
 10
2.2287426343
 20
8.5617199039
 30
0.0
 10
2.1334356029
 20
8.6372465969
 30
0.0
 10
2.0837069297
 20
8.6630484539
 30
0.0
 11
2.4495396679
 21
8.0600460072
 31
0.0
 11
2.4159338465
 21
8.2356287478
 31
0.0
 11
2.3346216091
 21
8.4118605607
 31
0.0
 11
2.2179662161
 21
8.5619419019
 31
0.0
 11
2.0837069297
 21
8.6630484539
 31
0.0
  0
SPLINE
  5
439
100
AcDbEntity
  8
RACCORDO
100
AcDbSpline
 62
253
  6
CONTINUOUS
 70
0
 71
3
 72
11
 73
7
 74
5
 42
0.0000001
 43
0.0000001
 44
0.0000000001
 12
-0.658769968
 22
-0.2854228722
 32
0.0
 13
-0.6419155517
 23
0.3215408392
 33
0.0
 40
0.0
 40
0.0
 40
0.0
 40
0.0
 40
0.2343153761
 40
0.4988556607
 40
0.7640090564
 40
1.0
 40
1.0
 40
1.0
 40
1.0
 10
1.7683524387
 20
6.9019278465
 30
0.0
 10
1.7168991277
 20
6.8796348573
 30
0.0
 10
1.5999447356
 20
6.8493804382
 30
0.0
 10
1.4165555125
 20
6.8387852374
 30
0.0
 10
1.2337325179
 20
6.8604454294
 30
0.0
 10
1.1182645986
 20
6.8976560921
 30
0.0
 10
1.0677691797
 20
6.9229496675
 30
0.0
 11
1.7683524387
 21
6.9019278465
 31
0.0
 11
1.6064155881
 21
6.8563620524
 31
0.0
 11
1.4168697801
 21
6.8443633399
 31
0.0
 11
1.2279425153
 21
6.8677185791
 31
0.0
 11
1.0677691797
 21
6.9229496675
 31
0.0
  0
SPLINE
  5
43A
100
AcDbEntity
  8
RACCORDO
100
AcDbSpline
 62
253
  6
CONTINUOUS
 70
0
 71
3
 72
11
 73
7
 74
5
 42
0.0000001
 43
0.0000001
 44
0.0000000001
 12
-0.6368017928
 22
-0.3390262775
 32
0.0
 13
-0.6454817978
 23
0.3221934028
 33
0.0
 40
0.0
 40
0.0
 40
0.0
 40
0.0
 40
0.2389250452
 40
0.5036645128
 40
0.7664279673
 40
1.0
 40
1.0
 40
1.0
 40
1.0
 10
1.7683524385
 20
-28.6902601721
 30
0.0
 10
1.7176364728
 20
-28.717260795
 30
0.0
 10
1.6015756669
 20
-28.757078075
 30
0.0
 10
1.4174822191
 20
-28.7789665546
 30
0.0
 10
1.2339221458
 20
-28.7650145892
 30
0.0
 10
1.1180405669
 20
-28.7299425416
 30
0.0
 10
1.0677850684
 20
-28.704857419
 30
0.0
 11
1.7683524385
 21
-28.6902601721
 31
0.0
 11
1.6064175172
 21
-28.7493141018
 31
0.0
 11
1.4168762359
 21
-28.7727927871
 31
0.0
 11
1.2279542698
 21
-28.7571998829
 31
0.0
 11
1.0677850684
 21
-28.704857419
 31
0.0
  0
SPLINE
  5
43B
100
AcDbEntity
  8
RACCORDO
100
AcDbSpline
 62
253
  6
CONTINUOUS
 70
0
 71
3
 72
14
 73
10
 74
8
 42
0.0000001
 43
0.0000001
 44
0.0000000001
 12
-1.8324305873
 22
-1.0115149358
 32
0.0
 13
-0.0701456785
 23
-2.0918995928
 33
0.0
 40
0.0
 40
0.0
 40
0.0
 40
0.0
 40
0.1290537037
 40
0.2684350574
 40
0.4152960705
 40
0.5658438901
 40
0.7161433655
 40
0.8620426486
 40
1.0
 40
1.0
 40
1.0
 40
1.0
 10
2.0837069279
 20
8.6630484529
 30
0.0
 10
2.0048796099
 20
8.6195352033
 30
0.0
 10
1.8499301376
 20
8.5122172518
 30
0.0
 10
1.6408435303
 20
8.3101759133
 30
0.0
 10
1.4534117719
 20
8.0686497865
 30
0.0
 10
1.2956889454
 20
7.7980263633
 30
0.0
 10
1.174413619
 20
7.509909921
 30
0.0
 10
1.0947994536
 20
7.2167299166
 30
0.0
 10
1.0709948802
 20
7.0191473083
 30
0.0
 10
1.0677691761
 20
6.9229496659
 30
0.0
 11
2.0837069279
 21
8.6630484529
 31
0.0
 11
1.8604685168
 21
8.5109663946
 31
0.0
 11
1.649655533
 21
8.3093043298
 31
0.0
 11
1.4605650015
 21
8.0669531426
 31
0.0
 11
1.30169056
 21
7.7948283231
 31
0.0
 11
1.1799371475
 21
7.5047562736
 31
0.0
 11
1.1008058267
 21
7.2098086972
 31
0.0
 11
1.0677691761
 21
6.9229496659
 31
0.0
  0
SPLINE
  5
43C
100
AcDbEntity
  8
RACCORDO
100
AcDbSpline
 62
253
  6
CONTINUOUS
 70
0
 71
3
 72
14
 73
10
 74
8
 42
0.0000001
 43
0.0000001
 44
0.0000000001
 12
0.0625433232
 22
1.9101002023
 32
0.0
 13
1.5275912568
 23
1.1545697363
 33
0.0
 40
0.0
 40
0.0
 40
0.0
 40
0.0
 40
0.1512443902
 40
0.3112508134
 40
0.4759763763
 40
0.6407326911
 40
0.8010922829
 40
0.9528105403
 40
1.0
 40
1.0
 40
1.0
 40
1.0
 10
-29.6596615903
 20
22.2866650491
 30
0.0
 10
-29.6565084814
 20
22.3829623626
 30
0.0
 10
-29.6332386076
 20
22.5807986213
 30
0.0
 10
-29.5554995677
 20
22.8747541685
 30
0.0
 10
-29.4370832304
 20
23.164153902
 30
0.0
 10
-29.2830793286
 20
23.4365063466
 30
0.0
 10
-29.1000716862
 20
23.6801298559
 30
0.0
 10
-28.9378018073
 20
23.8426206763
 30
0.0
 10
-28.8386964124
 20
23.9221035379
 30
0.0
 10
-28.8146676771
 20
23.9402647119
 30
0.0
 11
-29.6596615903
 21
22.2866650491
 31
0.0
 11
-29.6273848895
 21
22.5739040553
 31
0.0
 11
-29.5500739896
 21
22.8697618421
 31
0.0
 11
-29.4311218388
 21
23.1612345225
 31
0.0
 11
-29.2759025051
 21
23.4351868958
 31
0.0
 11
-29.0911625436
 21
23.6797133681
 31
0.0
 11
-28.8851990598
 21
23.8838001829
 31
0.0
 11
-28.8146676771
 21
23.9402647119
 31
0.0
  0
SPLINE
  5
43D
100
AcDbEntity
  8
RACCORDO
100
AcDbSpline
 62
253
  6
CONTINUOUS
 70
0
 71
3
 72
8
 73
4
 74
2
 42
0.0000001
 43
0.0000001
 44
0.0000000001
 12
0.1416248959
 22
0.1070416042
 32
0.0
 13
0.1534816812
 23
0.0885272679
 33
0.0
 40
0.0
 40
0.0
 40
0.0
 40
0.0
 40
1.0
 40
1.0
 40
1.0
 40
1.0
 10
-28.8146676771
 20
23.9402647119
 30
0.0
 10
-28.7674593785
 20
23.9759452466
 30
0.0
 10
-28.7182567674
 20
24.008940931
 30
0.0
 10
-28.667096207
 20
24.0384500203
 30
0.0
 11
-28.8146676771
 21
23.9402647119
 31
0.0
 11
-28.667096207
 21
24.0384500203
 31
0.0
  0
SPLINE
  5
43E
100
AcDbEntity
  8
RACCORDO
100
AcDbSpline
 62
253
  6
CONTINUOUS
 70
0
 71
3
 72
11
 73
7
 74
5
 42
0.0000001
 43
0.0000001
 44
0.0000000001
 12
0.0309761971
 22
-0.8943630422
 32
0.0
 13
0.8026507399
 23
-0.4038175529
 33
0.0
 40
0.0
 40
0.0
 40
0.0
 40
0.0
 40
0.2868564313
 40
0.5456383408
 40
0.7803090185
 40
1.0
 40
1.0
 40
1.0
 40
1.0
 10
1.0677691761
 20
-28.7048661687
 30
0.0
 10
1.0707310833
 20
-28.7903840989
 30
0.0
 10
1.0902269507
 20
-28.9531887579
 30
0.0
 10
1.1676433905
 20
-29.1750123903
 30
0.0
 10
1.2904232352
 20
-29.3526090619
 30
0.0
 10
1.4011954515
 20
-29.4352418848
 30
0.0
 10
1.4599738278
 20
-29.4648135764
 30
0.0
 11
1.0677691761
 21
-28.7048661687
 31
0.0
 11
1.1008036794
 21
-28.9594393902
 31
0.0
 11
1.1799364279
 21
-29.1770836929
 31
0.0
 11
1.3016841145
 21
-29.3481985212
 31
0.0
 11
1.4599738278
 21
-29.4648135764
 31
0.0
  0
SPLINE
  5
43F
100
AcDbEntity
  8
RACCORDO
100
AcDbSpline
 62
253
  6
CONTINUOUS
 70
0
 71
3
 72
10
 73
6
 74
4
 42
0.0000001
 43
0.0000001
 44
0.0000000001
 12
-0.0142726169
 22
-0.3348134469
 32
0.0
 13
-0.314637668
 23
-0.1294495942
 33
0.0
 40
0.0
 40
0.0
 40
0.0
 40
0.0
 40
0.4738277891
 40
0.8683389869
 40
1.0
 40
1.0
 40
1.0
 40
1.0
 10
2.4495396679
 20
-29.190563472
 30
0.0
 10
2.4472854137
 20
-29.2434447771
 30
0.0
 10
2.4299339316
 20
-29.3410644148
 30
0.0
 10
2.3619295762
 20
-29.4371371081
 30
0.0
 10
2.3093634653
 20
-29.465646678
 30
0.0
 10
2.2955549606
 20
-29.4713278329
 30
0.0
 11
2.4495396679
 21
-29.190563472
 31
0.0
 11
2.4159327099
 21
-29.3457543197
 31
0.0
 11
2.3346192009
 21
-29.4499990627
 31
0.0
 11
2.2955549606
 21
-29.4713278329
 31
0.0
  0
SPLINE
  5
440
100
AcDbEntity
  8
ASSI
100
AcDbSpline
 62
7
  6
CONTINUOUS
 70
0
 71
3
 72
8
 73
4
 74
2
 42
0.0000001
 43
0.0000001
 44
0.0000000001
 12
-0.1073400758
 22
-0.0536700379
 32
0.0
 13
-0.0899599189
 23
-0.0811242456
 33
0.0
 40
0.0
 40
0.0
 40
0.0
 40
0.0
 40
1.0
 40
1.0
 40
1.0
 40
1.0
 10
-1.3370073615
 20
30.6686728853
 30
0.0
 10
-1.3727873868
 20
30.6507828727
 30
0.0
 10
-1.4070946882
 20
30.6294322467
 30
0.0
 10
-1.4370813278
 20
30.6023908315
 30
0.0
 11
-1.3370073615
 21
30.6686728853
 31
0.0
 11
-1.4370813278
 21
30.6023908315
 31
0.0
  0
SPLINE
  5
441
100
AcDbEntity
  8
PORTATASTO
100
AcDbSpline
 62
7
  6
CONTINUOUS
 70
0
 71
3
 72
20
 73
16
 74
14
 42
0.0000001
 43
0.0000001
 44
0.0000000001
 12
0.3051531842
 22
-0.5540398213
 32
0.0
 13
-0.4901583853
 23
-0.3997791224
 33
0.0
 40
0.0
 40
0.0
 40
0.0
 40
0.0
 40
0.0911181569
 40
0.181904473
 40
0.271612961
 40
0.3595288084
 40
0.4449908887
 40
0.5274157126
 40
0.6063235543
 40
0.6813675186
 40
0.7523660745
 40
0.8193386577
 40
0.8825415849
 40
0.942496889
 40
1.0
 40
1.0
 40
1.0
 40
1.0
 10
-7.4421915155
 20
25.4290575775
 30
0.0
 10
-7.4329231836
 20
25.4122298817
 30
0.0
 10
-7.4156025532
 20
25.3779690295
 30
0.0
 10
-7.393412104
 20
25.3251269412
 30
0.0
 10
-7.3752727012
 20
25.2714681859
 30
0.0
 10
-7.3614249125
 20
25.2177012249
 30
0.0
 10
-7.3520509061
 20
25.1645304775
 30
0.0
 10
-7.3472755388
 20
25.112651812
 30
0.0
 10
-7.3471651161
 20
25.0627415641
 30
0.0
 10
-7.3517283822
 20
25.0154481424
 30
0.0
 10
-7.3609195473
 20
24.9713841552
 30
0.0
 10
-7.3746400108
 20
24.9311233357
 30
0.0
 10
-7.3927476758
 20
24.8951953427
 30
0.0
 10
-7.4150319892
 20
24.864106767
 30
0.0
 10
-7.4327963049
 20
24.8466296113
 30
0.0
 10
-7.4421915155
 20
24.8389667636
 30
0.0
 11
-7.4421915155
 21
25.4290575775
 31
0.0
 11
-7.416188015
 21
25.3776233685
 31
0.0
 11
-7.3939687342
 21
25.3246723214
 31
0.0
 11
-7.3758286603
 21
25.2709078787
 31
0.0
 11
-7.3620086111
 21
25.2170442345
 31
0.0
 11
-7.3526920468
 21
25.1637968637
 31
0.0
 11
-7.3480026404
 21
25.1118730346
 31
0.0
 11
-7.3480026404
 21
25.0619624313
 31
0.0
 11
-7.3526920468
 21
25.0147280086
 31
0.0
 11
-7.3620086111
 21
24.9707972022
 31
0.0
 11
-7.3758286603
 21
24.9307536071
 31
0.0
 11
-7.3939687342
 21
24.8951292384
 31
0.0
 11
-7.416188015
 21
24.8643974721
 31
0.0
 11
-7.4421915155
 21
24.8389667636
 31
0.0
  0
SPLINE
  5
442
100
AcDbEntity
  8
PORTATASTO
100
AcDbSpline
 62
7
  6
CONTINUOUS
 70
0
 71
3
 72
20
 73
16
 74
14
 42
0.0000001
 43
0.0000001
 44
0.0000000001
 12
0.3051531842
 22
-0.5540398213
 32
0.0
 13
-0.4901583853
 23
-0.3997791224
 33
0.0
 40
0.0
 40
0.0
 40
0.0
 40
0.0
 40
0.0911181569
 40
0.181904473
 40
0.271612961
 40
0.3595288084
 40
0.4449908887
 40
0.5274157126
 40
0.6063235543
 40
0.6813675186
 40
0.7523660745
 40
0.8193386577
 40
0.8825415849
 40
0.942496889
 40
1.0
 40
1.0
 40
1.0
 40
1.0
 10
8.4677110612
 20
17.4741062892
 30
0.0
 10
8.4769793931
 20
17.4572785934
 30
0.0
 10
8.4943000235
 20
17.4230177411
 30
0.0
 10
8.5164904727
 20
17.3701756528
 30
0.0
 10
8.5346298755
 20
17.3165168976
 30
0.0
 10
8.5484776642
 20
17.2627499366
 30
0.0
 10
8.5578516706
 20
17.2095791891
 30
0.0
 10
8.5626270379
 20
17.1577005237
 30
0.0
 10
8.5627374606
 20
17.1077902757
 30
0.0
 10
8.5581741945
 20
17.060496854
 30
0.0
 10
8.5489830294
 20
17.0164328668
 30
0.0
 10
8.5352625659
 20
16.9761720474
 30
0.0
 10
8.5171549009
 20
16.9402440543
 30
0.0
 10
8.4948705875
 20
16.9091554787
 30
0.0
 10
8.4771062718
 20
16.891678323
 30
0.0
 10
8.4677110612
 20
16.8840154752
 30
0.0
 11
8.4677110612
 21
17.4741062892
 31
0.0
 11
8.4937145617
 21
17.4226720802
 31
0.0
 11
8.5159338424
 21
17.3697210331
 31
0.0
 11
8.5340739164
 21
17.3159565903
 31
0.0
 11
8.5478939656
 21
17.2620929462
 31
0.0
 11
8.5572105299
 21
17.2088455754
 31
0.0
 11
8.5618999363
 21
17.1569217463
 31
0.0
 11
8.5618999363
 21
17.1070111429
 31
0.0
 11
8.5572105299
 21
17.0597767203
 31
0.0
 11
8.5478939656
 21
17.0158459138
 31
0.0
 11
8.5340739164
 21
16.9758023188
 31
0.0
 11
8.5159338424
 21
16.94017795
 31
0.0
 11
8.4937145617
 21
16.9094461837
 31
0.0
 11
8.4677110612
 21
16.8840154752
 31
0.0
  0
SPLINE
  5
443
100
AcDbEntity
  8
PORTATASTO
100
AcDbSpline
 62
7
  6
CONTINUOUS
 70
0
 71
3
 72
10
 73
6
 74
4
 42
0.0000001
 43
0.0000001
 44
0.0000000001
 12
-0.0002858398
 22
0.0147980752
 32
0.0
 13
-0.0133354588
 23
0.0066656343
 33
0.0
 40
0.0
 40
0.0
 40
0.0
 40
0.0
 40
0.1580849988
 40
0.751616837
 40
1.0
 40
1.0
 40
1.0
 40
1.0
 10
8.648272808
 20
17.7401103786
 30
0.0
 10
8.6482577457
 20
17.7408901632
 30
0.0
 10
8.6478957346
 20
17.7445853571
 30
0.0
 10
8.6452257817
 20
17.749328107
 30
0.0
 10
8.6417213541
 20
17.7515891695
 30
0.0
 10
8.6406172529
 20
17.7521410467
 30
0.0
 11
8.648272808
 21
17.7401103786
 31
0.0
 11
8.6480327044
 21
17.7424387868
 31
0.0
 11
8.6436797505
 21
17.7501043014
 31
0.0
 11
8.6406172529
 21
17.7521410467
 31
0.0
  0
SPLINE
  5
444
100
AcDbEntity
  8
PORTATASTO
100
AcDbSpline
 62
7
  6
CONTINUOUS
 70
0
 71
3
 72
10
 73
6
 74
4
 42
0.0000001
 43
0.0000001
 44
0.0000000001
 12
-0.0002978068
 22
0.0154479751
 32
0.0
 13
-0.013883246
 23
0.0069727755
 33
0.0
 40
0.0
 40
0.0
 40
0.0
 40
0.0
 40
0.1823378353
 40
0.7673064495
 40
1.0
 40
1.0
 40
1.0
 40
1.0
 10
3.0643249917
 20
20.5317796969
 30
0.0
 10
3.0643068912
 20
20.5327186137
 30
0.0
 10
3.0638782833
 20
20.5366455801
 30
0.0
 10
3.0609422781
 20
20.5414833028
 30
0.0
 10
3.0573779499
 20
20.5437559688
 30
0.0
 10
3.0563011026
 20
20.5442968088
 30
0.0
 11
3.0643249917
 21
20.5317796969
 31
0.0
 11
3.0640001753
 21
20.5345728342
 31
0.0
 11
3.0593124081
 21
20.5423261408
 31
0.0
 11
3.0563011026
 21
20.5442968088
 31
0.0
  0
SPLINE
  5
445
100
AcDbEntity
  8
PORTATASTO
100
AcDbSpline
 62
7
  6
CONTINUOUS
 70
0
 71
3
 72
10
 73
6
 74
4
 42
0.0000001
 43
0.0000001
 44
0.0000000001
 12
-0.0002963318
 22
0.0154481948
 32
0.0
 13
-0.0138824024
 23
0.0069735658
 33
0.0
 40
0.0
 40
0.0
 40
0.0
 40
0.0
 40
0.1827878562
 40
0.7676876018
 40
1.0
 40
1.0
 40
1.0
 40
1.0
 10
-12.8455775863
 20
28.4867309904
 30
0.0
 10
-12.8455956416
 20
28.4876722379
 30
0.0
 10
-12.8460249104
 20
28.4916010245
 30
0.0
 10
-12.8489637535
 20
28.4964369122
 30
0.0
 10
-12.8525263281
 20
28.4987080296
 30
0.0
 10
-12.8536013462
 20
28.4992480449
 30
0.0
 11
-12.8455775863
 21
28.4867309904
 31
0.0
 11
-12.8459036294
 21
28.4895308762
 31
0.0
 11
-12.8505946472
 21
28.4972809582
 31
0.0
 11
-12.8536013462
 21
28.4992480449
 31
0.0
  0
SPLINE
  5
446
100
AcDbEntity
  8
PORTATASTO
100
AcDbSpline
 62
7
  6
CONTINUOUS
 70
0
 71
3
 72
10
 73
6
 74
4
 42
0.0000001
 43
0.0000001
 44
0.0000000001
 12
-0.0002844051
 22
0.0147980167
 32
0.0
 13
-0.0133345887
 23
0.0066663294
 33
0.0
 40
0.0
 40
0.0
 40
0.0
 40
0.0
 40
0.1585181274
 40
0.7519738068
 40
1.0
 40
1.0
 40
1.0
 40
1.0
 10
-7.2616297042
 20
25.6950616723
 30
0.0
 10
-7.2616447319
 20
25.6958435902
 30
0.0
 10
-7.2620073361
 20
25.6995403787
 30
0.0
 10
-7.2646799609
 20
25.7042815267
 30
0.0
 10
-7.2681827469
 20
25.706541167
 30
0.0
 10
-7.2692851893
 20
25.7070923085
 30
0.0
 11
-7.2616297042
 21
25.6950616723
 31
0.0
 11
-7.2618708031
 21
25.6973963297
 31
0.0
 11
-7.2662267878
 21
25.7050588191
 31
0.0
 11
-7.2692851893
 21
25.7070923085
 31
0.0
  0
SPLINE
  5
447
100
AcDbEntity
  8
PORTATASTO
100
AcDbSpline
 62
7
  6
CONTINUOUS
 70
0
 71
3
 72
10
 73
6
 74
4
 42
0.0000001
 43
0.0000001
 44
0.0000000001
 12
0.0898922838
 22
0.0209654167
 32
0.0
 13
0.0910398633
 23
-0.0151021978
 33
0.0
 40
0.0
 40
0.0
 40
0.0
 40
0.0
 40
0.2304243534
 40
0.5985719661
 40
1.0
 40
1.0
 40
1.0
 40
1.0
 10
-7.9622419825
 20
25.9881041183
 30
0.0
 10
-7.9553375254
 20
25.9897144325
 30
0.0
 10
-7.9371489495
 20
25.9928845403
 30
0.0
 10
-7.9063250154
 20
25.9940911035
 30
0.0
 10
-7.8827228996
 20
25.9916393611
 30
0.0
 10
-7.8705409151
 20
25.9896185459
 30
0.0
 11
-7.9622419825
 21
25.9881041183
 31
0.0
 11
-7.9412951015
 21
25.9917923842
 31
0.0
 11
-7.9073781349
 21
25.9932773876
 31
0.0
 11
-7.8705409151
 21
25.9896185459
 31
0.0
  0
SPLINE
  5
448
100
AcDbEntity
  8
PORTATASTO
100
AcDbSpline
 62
7
  6
CONTINUOUS
 70
0
 71
3
 72
10
 73
6
 74
4
 42
0.0000001
 43
0.0000001
 44
0.0000000001
 12
0.117420726
 22
-0.0194784017
 32
0.0
 13
0.1064593044
 23
-0.0531555288
 33
0.0
 40
0.0
 40
0.0
 40
0.0
 40
0.0
 40
0.3445832191
 40
0.729550314
 40
1.0
 40
1.0
 40
1.0
 40
1.0
 10
-7.8705409151
 20
25.9896185459
 30
0.0
 10
-7.8570538446
 20
25.9873812358
 30
0.0
 10
-7.8288349109
 20
25.9807189985
 30
0.0
 10
-7.7914849483
 20
25.9671846021
 30
0.0
 10
-7.7678686672
 20
25.9562911486
 30
0.0
 10
-7.758271372
 20
25.9514991832
 30
0.0
 11
-7.8705409151
 21
25.9896185459
 31
0.0
 11
-7.8306134086
 21
25.9803712697
 31
0.0
 11
-7.7875056339
 21
25.9649368292
 31
0.0
 11
-7.758271372
 21
25.9514991832
 31
0.0
  0
SPLINE
  5
449
100
AcDbEntity
  8
PORTATASTO
100
AcDbSpline
 62
7
  6
CONTINUOUS
 70
0
 71
3
 72
10
 73
6
 74
4
 42
0.0000001
 43
0.0000001
 44
0.0000000001
 12
0.0899955823
 22
0.0200906067
 32
0.0
 13
0.0908695549
 23
-0.0155510525
 33
0.0
 40
0.0
 40
0.0
 40
0.0
 40
0.0
 40
0.2300987001
 40
0.5981370777
 40
1.0
 40
1.0
 40
1.0
 40
1.0
 10
-13.5456539914
 20
28.7809252813
 30
0.0
 10
-13.5387513693
 20
28.7824662221
 30
0.0
 10
-13.5205677042
 20
28.785467841
 30
0.0
 10
-13.4897688576
 20
28.7864423225
 30
0.0
 10
-13.466196624
 20
28.7838546206
 30
0.0
 10
-13.4540242557
 20
28.7817714902
 30
0.0
 11
-13.5456539914
 21
28.7809252813
 31
0.0
 11
-13.5247258784
 21
28.7844176756
 31
0.0
 11
-13.4908425698
 21
28.7856465856
 31
0.0
 11
-13.4540242557
 21
28.7817714902
 31
0.0
  0
SPLINE
  5
44A
100
AcDbEntity
  8
PORTATASTO
100
AcDbSpline
 62
7
  6
CONTINUOUS
 70
0
 71
3
 72
10
 73
6
 74
4
 42
0.0000001
 43
0.0000001
 44
0.0000000001
 12
0.1165154175
 22
-0.0199399829
 32
0.0
 13
0.105730614
 23
-0.0527896616
 33
0.0
 40
0.0
 40
0.0
 40
0.0
 40
0.0
 40
0.347395902
 40
0.7356607663
 40
1.0
 40
1.0
 40
1.0
 40
1.0
 10
-13.4540242557
 20
28.7817714902
 30
0.0
 10
-13.4405319295
 20
28.7794624674
 30
0.0
 10
-13.4123022713
 20
28.7726671168
 30
0.0
 10
-13.3752513488
 20
28.7591106859
 30
0.0
 10
-13.3519106326
 20
28.7483121751
 30
0.0
 10
-13.3425943827
 20
28.7436607155
 30
0.0
 11
-13.4540242557
 21
28.7817714902
 31
0.0
 11
-13.4140874617
 21
28.7723360425
 31
0.0
 11
-13.3709567171
 21
28.7567399298
 31
0.0
 11
-13.3425943827
 21
28.7436607155
 31
0.0
  0
SPLINE
  5
44B
100
AcDbEntity
  8
PORTATASTO
100
AcDbSpline
 62
7
  6
CONTINUOUS
 70
0
 71
3
 72
10
 73
6
 74
4
 42
0.0000001
 43
0.0000001
 44
0.0000000001
 12
0.0899685061
 22
0.0200878131
 32
0.0
 13
0.0908447123
 23
-0.0155365909
 33
0.0
 40
0.0
 40
0.0
 40
0.0
 40
0.0
 40
0.2300550887
 40
0.5980983412
 40
1.0
 40
1.0
 40
1.0
 40
1.0
 10
2.3642422744
 20
20.8259725853
 30
0.0
 10
2.371141512
 20
20.8275130198
 30
0.0
 10
2.3893184488
 20
20.8305146412
 30
0.0
 10
2.4201081823
 20
20.8314917814
 30
0.0
 10
2.4436751358
 20
20.8289072374
 30
0.0
 10
2.4558453493
 20
20.8268258436
 30
0.0
 11
2.3642422744
 21
20.8259725853
 31
0.0
 11
2.3851600849
 21
20.8294645057
 31
0.0
 11
2.4190338283
 21
20.8306962318
 31
0.0
 11
2.4558453493
 21
20.8268258436
 31
0.0
  0
SPLINE
  5
44C
100
AcDbEntity
  8
PORTATASTO
100
AcDbSpline
 62
7
  6
CONTINUOUS
 70
0
 71
3
 72
10
 73
6
 74
4
 42
0.0000001
 43
0.0000001
 44
0.0000000001
 12
0.1165513154
 22
-0.0199330271
 32
0.0
 13
0.105761137
 23
-0.0528051103
 33
0.0
 40
0.0
 40
0.0
 40
0.0
 40
0.0
 40
0.3473449085
 40
0.7354963154
 40
1.0
 40
1.0
 40
1.0
 40
1.0
 10
2.4558453493
 20
20.8268258436
 30
0.0
 10
2.4693398513
 20
20.8245179651
 30
0.0
 10
2.4975720106
 20
20.8177246389
 30
0.0
 10
2.5346345491
 20
20.8041666997
 30
0.0
 10
2.5579841395
 20
20.793364801
 30
0.0
 10
2.5673088763
 20
20.7887090855
 30
0.0
 11
2.4558453493
 21
20.8268258436
 31
0.0
 11
2.4957886836
 21
20.8173926491
 31
0.0
 11
2.5389203293
 21
20.8017994305
 31
0.0
 11
2.5673088763
 21
20.7887090855
 31
0.0
  0
SPLINE
  5
44D
100
AcDbEntity
  8
PORTATASTO
100
AcDbSpline
 62
7
  6
CONTINUOUS
 70
0
 71
3
 72
10
 73
6
 74
4
 42
0.0000001
 43
0.0000001
 44
0.0000000001
 12
0.0898648229
 22
0.0209623901
 32
0.0
 13
0.0910146125
 23
-0.0150874966
 33
0.0
 40
0.0
 40
0.0
 40
0.0
 40
0.0
 40
0.2303789229
 40
0.5985305945
 40
1.0
 40
1.0
 40
1.0
 40
1.0
 10
7.9476541196
 20
18.0331513212
 30
0.0
 10
7.9545551066
 20
18.0347610855
 30
0.0
 10
7.9727367821
 20
18.037931147
 30
0.0
 10
8.0035514463
 20
18.0391404075
 30
0.0
 10
8.027148233
 20
18.0366918811
 30
0.0
 10
8.0393280938
 20
18.034672825
 30
0.0
 11
7.9476541196
 21
18.0331513212
 31
0.0
 11
7.9685904268
 21
18.0368390205
 31
0.0
 11
8.0024975809
 21
18.0383268793
 31
0.0
 11
8.0393280938
 21
18.034672825
 31
0.0
  0
SPLINE
  5
44E
100
AcDbEntity
  8
PORTATASTO
100
AcDbSpline
 62
7
  6
CONTINUOUS
 70
0
 71
3
 72
10
 73
6
 74
4
 42
0.0000001
 43
0.0000001
 44
0.0000000001
 12
0.1174572269
 22
-0.01947089
 32
0.0
 13
0.1064903349
 23
-0.0531712325
 33
0.0
 40
0.0
 40
0.0
 40
0.0
 40
0.0
 40
0.3445296208
 40
0.7293768048
 40
1.0
 40
1.0
 40
1.0
 40
1.0
 10
8.0393280938
 20
18.034672825
 30
0.0
 10
8.0528172584
 20
18.0324367256
 30
0.0
 10
8.0810383781
 20
18.0257766877
 30
0.0
 10
8.1184001961
 20
18.0122409135
 30
0.0
 10
8.1420256283
 20
18.0013440128
 30
0.0
 10
8.1516318799
 20
17.9965475565
 30
0.0
 11
8.0393280938
 21
18.034672825
 31
0.0
 11
8.0792619135
 21
18.0254280105
 31
0.0
 11
8.1223699254
 21
18.0099968763
 31
0.0
 11
8.1516318799
 21
17.9965475565
 31
0.0
  0
SPLINE
  5
44F
100
AcDbEntity
  8
PORTATASTO
100
AcDbSpline
 62
7
  6
CONTINUOUS
 70
0
 71
3
 72
9
 73
5
 74
3
 42
0.0000001
 43
0.0000001
 44
0.0000000001
 12
-0.0111224961
 22
-0.0399610998
 32
0.0
 13
0.0000215545
 23
-0.041498564
 33
0.0
 40
0.0
 40
0.0
 40
0.0
 40
0.0
 40
0.5896504735
 40
1.0
 40
1.0
 40
1.0
 40
1.0
 10
-19.4335660608
 20
25.8147222744
 30
0.0
 10
-19.4357521891
 20
25.8068679139
 30
0.0
 10
-19.4378902704
 20
25.7931109931
 30
0.0
 10
-19.4384130853
 20
25.7792766831
 30
0.0
 10
-19.438410137
 20
25.7736003778
 30
0.0
 11
-19.4335660608
 21
25.8147222744
 31
0.0
 11
-19.4377120222
 21
25.7906174569
 31
0.0
 11
-19.438410137
 21
25.7736003778
 31
0.0
  0
SPLINE
  5
450
100
AcDbEntity
  8
PORTATASTO
100
AcDbSpline
 62
7
  6
CONTINUOUS
 70
0
 71
3
 72
9
 73
5
 74
3
 42
0.0000001
 43
0.0000001
 44
0.0000000001
 12
-0.0111224961
 22
-0.0399610998
 32
0.0
 13
0.0000215545
 23
-0.041498564
 33
0.0
 40
0.0
 40
0.0
 40
0.0
 40
0.0
 40
0.5896504735
 40
1.0
 40
1.0
 40
1.0
 40
1.0
 10
-3.5236634841
 20
17.859770986
 30
0.0
 10
-3.5258496124
 20
17.8519166256
 30
0.0
 10
-3.5279876937
 20
17.8381597048
 30
0.0
 10
-3.5285105086
 20
17.8243253948
 30
0.0
 10
-3.5285075603
 20
17.8186490894
 30
0.0
 11
-3.5236634841
 21
17.859770986
 31
0.0
 11
-3.5278094455
 21
17.8356661686
 31
0.0
 11
-3.5285075603
 21
17.8186490894
 31
0.0
  0
SPLINE
  5
451
100
AcDbEntity
  8
PORTATASTO
100
AcDbSpline
 62
253
  6
CONTINUOUS
 70
0
 71
3
 72
10
 73
6
 74
4
 42
0.0000001
 43
0.0000001
 44
0.0000000001
 12
0.0553703353
 22
-0.0090115078
 32
0.0
 13
0.055015019
 23
0.0109680039
 33
0.0
 40
0.0
 40
0.0
 40
0.0
 40
0.0
 40
0.1648709646
 40
0.6628780818
 40
1.0
 40
1.0
 40
1.0
 40
1.0
 10
5.7306010889
 20
12.0730578181
 30
0.0
 10
5.7336440758
 20
12.0725625728
 30
0.0
 10
5.745938885
 20
12.0709447467
 30
0.0
 10
5.7647174192
 20
12.0707906737
 30
0.0
 10
5.7802057605
 20
12.0729731525
 30
0.0
 10
5.7863880167
 20
12.0742056707
 30
0.0
 11
5.7306010889
 21
12.0730578181
 31
0.0
 11
5.7397694721
 21
12.071851565
 31
0.0
 11
5.7676695645
 21
12.0715877346
 31
0.0
 11
5.7863880167
 21
12.0742056707
 31
0.0
  0
SPLINE
  5
452
100
AcDbEntity
  8
PORTATASTO
100
AcDbSpline
 62
253
  6
CONTINUOUS
 70
0
 71
3
 72
15
 73
11
 74
9
 42
0.0000001
 43
0.0000001
 44
0.0000000001
 12
0.2318452025
 22
0.0462215434
 32
0.0
 13
0.0846118177
 23
0.220423937
 33
0.0
 40
0.0
 40
0.0
 40
0.0
 40
0.0
 40
0.0405029155
 40
0.1645058941
 40
0.2928246716
 40
0.4258615169
 40
0.563618024
 40
0.7057235882
 40
0.8515194656
 40
1.0
 40
1.0
 40
1.0
 40
1.0
 10
5.7863880167
 20
12.0742056707
 30
0.0
 10
5.7895181523
 20
12.0748297064
 30
0.0
 10
5.802158547
 20
12.0777302577
 30
0.0
 10
5.8239853927
 20
12.0854435398
 30
0.0
 10
5.850728092
 20
12.0999985036
 30
0.0
 10
5.8758939494
 20
12.1189720812
 30
0.0
 10
5.8989887161
 20
12.1419677646
 30
0.0
 10
5.9195612904
 20
12.1685176141
 30
0.0
 10
5.9372024728
 20
12.1980738738
 30
0.0
 10
5.9467190575
 20
12.2192532609
 30
0.0
 10
5.9509067935
 20
12.2301628155
 30
0.0
 11
5.7863880167
 21
12.0742056707
 31
0.0
 11
5.795719591
 21
12.0763448415
 31
0.0
 11
5.8233503365
 21
12.0860263499
 31
0.0
 11
5.8500010995
 21
12.1004357953
 31
0.0
 11
5.8751309061
 21
12.1192806349
 31
0.0
 11
5.8982299847
 21
12.1421785366
 31
0.0
 11
5.9188284445
 21
12.1686631568
 31
0.0
 11
5.9365097897
 21
12.1981983678
 31
0.0
 11
5.9509067935
 21
12.2301628155
 31
0.0
  0
SPLINE
  5
453
100
AcDbEntity
  8
PORTATASTO
100
AcDbSpline
 62
253
  6
CONTINUOUS
 70
0
 71
3
 72
13
 73
9
 74
7
 42
0.0000001
 43
0.0000001
 44
0.0000000001
 12
0.0000087569
 22
-0.1209332527
 32
0.0
 13
0.1077836379
 23
-0.0538918189
 33
0.0
 40
0.0
 40
0.0
 40
0.0
 40
0.0
 40
0.0763758374
 40
0.2284437537
 40
0.3927709664
 40
0.5746734429
 40
0.7768864614
 40
1.0
 40
1.0
 40
1.0
 40
1.0
 10
4.2940192068
 20
13.1845059051
 30
0.0
 10
4.2940194297
 20
13.1814271123
 30
0.0
 10
4.2946913352
 20
13.1722180346
 30
0.0
 10
4.2992895154
 20
13.1569217921
 30
0.0
 10
4.3097512766
 20
13.1396523488
 30
0.0
 10
4.324881735
 20
13.1234671969
 30
0.0
 10
4.3443296673
 20
13.1086009047
 30
0.0
 10
4.3592215719
 20
13.1001255367
 30
0.0
 10
4.3672375682
 20
13.0961175386
 30
0.0
 11
4.2940192068
 21
13.1845059051
 31
0.0
 11
4.2946925404
 21
13.1753042778
 31
0.0
 11
4.2998248343
 21
13.1577125912
 31
0.0
 11
4.3098964931
 21
13.1406627865
 31
0.0
 11
4.3247038179
 21
13.1244997856
 31
0.0
 11
4.3439473025
 21
13.1095505477
 31
0.0
 11
4.3672375682
 21
13.0961175386
 31
0.0
  0
SPLINE
  5
454
100
AcDbEntity
  8
PORTATASTO
100
AcDbSpline
 62
253
  6
CONTINUOUS
 70
0
 71
3
 72
14
 73
10
 74
8
 42
0.0000001
 43
0.0000001
 44
0.0000000001
 12
-0.1238366788
 22
0.0802264474
 32
0.0
 13
0.0
 23
0.1472939001
 33
0.0
 40
0.0
 40
0.0
 40
0.0
 40
0.0
 40
0.0334941419
 40
0.1725453018
 40
0.3179033921
 40
0.4721782052
 40
0.6369662921
 40
0.8129531068
 40
1.0
 40
1.0
 40
1.0
 40
1.0
 10
4.4231138401
 20
12.7161308883
 30
0.0
 10
4.421731239
 20
12.7170265936
 30
0.0
 10
4.4147291608
 20
12.7218258618
 30
0.0
 10
4.4030587617
 20
12.732358357
 30
0.0
 10
4.390143313
 20
12.7497521984
 30
0.0
 10
4.3799387958
 20
12.7702602045
 30
0.0
 10
4.3725800155
 20
12.7935150911
 30
0.0
 10
4.3681605252
 20
12.8191184663
 30
0.0
 10
4.3672375682
 20
12.8369627071
 30
0.0
 10
4.3672375682
 20
12.8461463293
 30
0.0
 11
4.4231138401
 21
12.7161308883
 31
0.0
 11
4.4190379466
 21
12.7189244093
 31
0.0
 11
4.4037844787
 21
12.7325925825
 31
0.0
 11
4.3909325038
 21
12.7497165498
 31
0.0
 11
4.3807000127
 21
12.7700060653
 31
0.0
 11
4.3732637781
 21
12.7931111728
 31
0.0
 11
4.3687505667
 21
12.8186370386
 31
0.0
 11
4.3672375682
 21
12.8461463293
 31
0.0
  0
SPLINE
  5
455
100
AcDbEntity
  8
PORTATASTO
100
AcDbSpline
 62
253
  6
CONTINUOUS
 70
0
 71
3
 72
10
 73
6
 74
4
 42
0.0000001
 43
0.0000001
 44
0.0000000001
 12
0.0553703353
 22
-0.0090115078
 32
0.0
 13
0.055015019
 23
0.0109680039
 33
0.0
 40
0.0
 40
0.0
 40
0.0
 40
0.0
 40
0.1648709646
 40
0.6628780818
 40
1.0
 40
1.0
 40
1.0
 40
1.0
 10
-7.616039406
 20
18.7463780655
 30
0.0
 10
-7.6129964191
 20
18.7458828202
 30
0.0
 10
-7.6007016099
 20
18.7442649941
 30
0.0
 10
-7.5819230757
 20
18.7441109211
 30
0.0
 10
-7.5664347344
 20
18.7462934
 30
0.0
 10
-7.5602524781
 20
18.7475259181
 30
0.0
 11
-7.616039406
 21
18.7463780655
 31
0.0
 11
-7.6068710228
 21
18.7451718124
 31
0.0
 11
-7.5789709304
 21
18.744907982
 31
0.0
 11
-7.5602524781
 21
18.7475259181
 31
0.0
  0
SPLINE
  5
456
100
AcDbEntity
  8
PORTATASTO
100
AcDbSpline
 62
253
  6
CONTINUOUS
 70
0
 71
3
 72
15
 73
11
 74
9
 42
0.0000001
 43
0.0000001
 44
0.0000000001
 12
0.2318452025
 22
0.0462215434
 32
0.0
 13
0.0846118177
 23
0.220423937
 33
0.0
 40
0.0
 40
0.0
 40
0.0
 40
0.0
 40
0.0405029155
 40
0.1645058941
 40
0.2928246716
 40
0.4258615169
 40
0.563618024
 40
0.7057235882
 40
0.8515194656
 40
1.0
 40
1.0
 40
1.0
 40
1.0
 10
-7.5602524781
 20
18.7475259181
 30
0.0
 10
-7.5571223426
 20
18.7481499539
 30
0.0
 10
-7.5444819479
 20
18.7510505051
 30
0.0
 10
-7.5226551022
 20
18.7587637872
 30
0.0
 10
-7.4959124029
 20
18.7733187511
 30
0.0
 10
-7.4707465455
 20
18.7922923287
 30
0.0
 10
-7.4476517788
 20
18.815288012
 30
0.0
 10
-7.4270792045
 20
18.8418378615
 30
0.0
 10
-7.4094380221
 20
18.8713941212
 30
0.0
 10
-7.3999214374
 20
18.8925735083
 30
0.0
 10
-7.3957337014
 20
18.903483063
 30
0.0
 11
-7.5602524781
 21
18.7475259181
 31
0.0
 11
-7.5509209039
 21
18.749665089
 31
0.0
 11
-7.5232901584
 21
18.7593465974
 31
0.0
 11
-7.4966393954
 21
18.7737560428
 31
0.0
 11
-7.4715095888
 21
18.7926008823
 31
0.0
 11
-7.4484105102
 21
18.8154987841
 31
0.0
 11
-7.4278120504
 21
18.8419834042
 31
0.0
 11
-7.4101307052
 21
18.8715186153
 31
0.0
 11
-7.3957337014
 21
18.903483063
 31
0.0
  0
SPLINE
  5
457
100
AcDbEntity
  8
PORTATASTO
100
AcDbSpline
 62
253
  6
CONTINUOUS
 70
0
 71
3
 72
14
 73
10
 74
8
 42
0.0000001
 43
0.0000001
 44
0.0000000001
 12
-0.1238366788
 22
0.0802264474
 32
0.0
 13
0.0
 23
0.1472939001
 33
0.0
 40
0.0
 40
0.0
 40
0.0
 40
0.0
 40
0.0334941419
 40
0.1725453018
 40
0.3179033921
 40
0.4721782052
 40
0.6369662921
 40
0.8129531068
 40
1.0
 40
1.0
 40
1.0
 40
1.0
 10
-8.9235266548
 20
19.3894511357
 30
0.0
 10
-8.9249092558
 20
19.3903468411
 30
0.0
 10
-8.9319113341
 20
19.3951461092
 30
0.0
 10
-8.9435817332
 20
19.4056786044
 30
0.0
 10
-8.9564971819
 20
19.4230724458
 30
0.0
 10
-8.966701699
 20
19.443580452
 30
0.0
 10
-8.9740604794
 20
19.4668353386
 30
0.0
 10
-8.9784799697
 20
19.4924387137
 30
0.0
 10
-8.9794029267
 20
19.5102829546
 30
0.0
 10
-8.9794029267
 20
19.5194665767
 30
0.0
 11
-8.9235266548
 21
19.3894511357
 31
0.0
 11
-8.9276025483
 21
19.3922446568
 31
0.0
 11
-8.9428560162
 21
19.40591283
 31
0.0
 11
-8.9557079911
 21
19.4230367973
 31
0.0
 11
-8.9659404822
 21
19.4433263127
 31
0.0
 11
-8.9733767168
 21
19.4664314202
 31
0.0
 11
-8.9778899282
 21
19.491957286
 31
0.0
 11
-8.9794029267
 21
19.5194665767
 31
0.0
  0
SPLINE
  5
458
100
AcDbEntity
  8
PORTATASTO
100
AcDbSpline
 62
253
  6
CONTINUOUS
 70
0
 71
3
 72
13
 73
9
 74
7
 42
0.0000001
 43
0.0000001
 44
0.0000000001
 12
0.0000087569
 22
-0.1209332527
 32
0.0
 13
0.1077836379
 23
-0.0538918189
 33
0.0
 40
0.0
 40
0.0
 40
0.0
 40
0.0
 40
0.0763758374
 40
0.2284437537
 40
0.3927709664
 40
0.5746734429
 40
0.7768864614
 40
1.0
 40
1.0
 40
1.0
 40
1.0
 10
-9.0526212881
 20
19.8578261526
 30
0.0
 10
-9.0526210652
 20
19.8547473598
 30
0.0
 10
-9.0519491597
 20
19.845538282
 30
0.0
 10
-9.0473509795
 20
19.8302420396
 30
0.0
 10
-9.0368892183
 20
19.8129725963
 30
0.0
 10
-9.0217587599
 20
19.7967874443
 30
0.0
 10
-9.0023108276
 20
19.7819211521
 30
0.0
 10
-8.987418923
 20
19.7734457842
 30
0.0
 10
-8.9794029267
 20
19.769437786
 30
0.0
 11
-9.0526212881
 21
19.8578261526
 31
0.0
 11
-9.0519479545
 21
19.8486245252
 31
0.0
 11
-9.0468156606
 21
19.8310328386
 31
0.0
 11
-9.0367440018
 21
19.813983034
 31
0.0
 11
-9.021936677
 21
19.797820033
 31
0.0
 11
-9.0026931924
 21
19.7828707951
 31
0.0
 11
-8.9794029267
 21
19.769437786
 31
0.0
  0
LINE
  5
459
100
AcDbEntity
  8
PORTATASTO
100
AcDbLine
 62
7
  6
CONTINUOUS
 10
-12.3106591213
 20
27.178969241
 11
-12.3091022303
 21
26.6533443226
  0
SPLINE
  5
45A
100
AcDbEntity
  8
PORTATASTO
100
AcDbSpline
 62
253
  6
CONTINUOUS
 70
0
 71
3
 72
13
 73
9
 74
7
 42
0.0000001
 43
0.0000001
 44
0.0000000001
 12
0.0770121651
 22
-0.0453551141
 32
0.0
 13
0.0259299922
 23
-0.0854636218
 33
0.0
 40
0.0
 40
0.0
 40
0.0
 40
0.0
 40
0.0492770403
 40
0.2542392125
 40
0.4652422127
 40
0.6856320046
 40
0.918952479
 40
1.0
 40
1.0
 40
1.0
 40
1.0
 10
-9.6606816265
 20
19.9196909575
 30
0.0
 10
-9.6594166493
 20
19.9189459689
 30
0.0
 10
-9.6529784014
 20
19.9149528895
 30
0.0
 10
-9.6420942896
 20
19.9062718189
 30
0.0
 10
-9.6295884837
 20
19.8919321715
 30
0.0
 10
-9.6191810106
 20
19.8750206507
 30
0.0
 10
-9.6129256722
 20
19.8603352964
 30
0.0
 10
-9.61001846
 20
19.8514373204
 30
0.0
 10
-9.6093179394
 20
19.8491284488
 30
0.0
 11
-9.6606816265
 21
19.9196909575
 31
0.0
 11
-9.6569393313
 21
19.9173698728
 31
0.0
 11
-9.6426135529
 21
19.9059932104
 31
0.0
 11
-9.6301852794
 21
19.8918435929
 31
0.0
 11
-9.6198073566
 21
19.8751333955
 31
0.0
 11
-9.6115686692
 21
19.8560077053
 31
0.0
 11
-9.6093179394
 21
19.8491284488
 31
0.0
  0
SPLINE
  5
45B
100
AcDbEntity
  8
PORTATASTO
100
AcDbSpline
 62
253
  6
CONTINUOUS
 70
0
 71
3
 72
10
 73
6
 74
4
 42
0.0000001
 43
0.0000001
 44
0.0000000001
 12
0.018193477
 22
-0.0599645548
 32
0.0
 13
-0.0000000029
 23
-0.0626237623
 33
0.0
 40
0.0
 40
0.0
 40
0.0
 40
0.0
 40
0.2379216854
 40
0.6104955935
 40
1.0
 40
1.0
 40
1.0
 40
1.0
 10
-9.6093179394
 20
19.8491284488
 30
0.0
 10
-9.6078750652
 20
19.8443728262
 30
0.0
 10
-9.6047060266
 20
19.8320081928
 30
0.0
 10
-9.6015496727
 20
19.8113315283
 30
0.0
 10
-9.600811937
 20
19.7954098327
 30
0.0
 10
-9.6008119373
 20
19.7872790889
 30
0.0
 11
-9.6093179394
 21
19.8491284488
 31
0.0
 11
-9.6055936476
 21
19.8346961201
 31
0.0
 11
-9.6020017059
 21
19.8116422866
 31
0.0
 11
-9.6008119373
 21
19.7872790889
 31
0.0
  0
SPLINE
  5
45C
100
AcDbEntity
  8
PORTATASTO
100
AcDbSpline
 62
253
  6
CONTINUOUS
 70
0
 71
3
 72
13
 73
9
 74
7
 42
0.0000001
 43
0.0000001
 44
0.0000000001
 12
0.0770121651
 22
-0.0453551141
 32
0.0
 13
0.0259299922
 23
-0.0854636218
 33
0.0
 40
0.0
 40
0.0
 40
0.0
 40
0.0
 40
0.0492770403
 40
0.2542392125
 40
0.4652422127
 40
0.6856320046
 40
0.918952479
 40
1.0
 40
1.0
 40
1.0
 40
1.0
 10
-23.0073221214
 20
26.593011205
 30
0.0
 10
-23.0060571442
 20
26.5922662164
 30
0.0
 10
-22.9996188963
 20
26.5882731369
 30
0.0
 10
-22.9887347845
 20
26.5795920663
 30
0.0
 10
-22.9762289786
 20
26.565252419
 30
0.0
 10
-22.9658215055
 20
26.5483408981
 30
0.0
 10
-22.9595661671
 20
26.5336555438
 30
0.0
 10
-22.9566589549
 20
26.5247575678
 30
0.0
 10
-22.9559584343
 20
26.5224486963
 30
0.0
 11
-23.0073221214
 21
26.593011205
 31
0.0
 11
-23.0035798262
 21
26.5906901202
 31
0.0
 11
-22.9892540478
 21
26.5793134578
 31
0.0
 11
-22.9768257743
 21
26.5651638403
 31
0.0
 11
-22.9664478515
 21
26.548453643
 31
0.0
 11
-22.9582091641
 21
26.5293279528
 31
0.0
 11
-22.9559584343
 21
26.5224486963
 31
0.0
  0
SPLINE
  5
45D
100
AcDbEntity
  8
PORTATASTO
100
AcDbSpline
 62
253
  6
CONTINUOUS
 70
0
 71
3
 72
10
 73
6
 74
4
 42
0.0000001
 43
0.0000001
 44
0.0000000001
 12
0.018193477
 22
-0.0599645548
 32
0.0
 13
-0.0000000029
 23
-0.0626237623
 33
0.0
 40
0.0
 40
0.0
 40
0.0
 40
0.0
 40
0.2379216854
 40
0.6104955935
 40
1.0
 40
1.0
 40
1.0
 40
1.0
 10
-22.9559584343
 20
26.5224486963
 30
0.0
 10
-22.9545155601
 20
26.5176930736
 30
0.0
 10
-22.9513465215
 20
26.5053284402
 30
0.0
 10
-22.9481901676
 20
26.4846517758
 30
0.0
 10
-22.9474524319
 20
26.4687300801
 30
0.0
 10
-22.9474524322
 20
26.4605993363
 30
0.0
 11
-22.9559584343
 21
26.5224486963
 31
0.0
 11
-22.9522341425
 21
26.5080163676
 31
0.0
 11
-22.9486422008
 21
26.484962534
 31
0.0
 11
-22.9474524322
 21
26.4605993363
 31
0.0
  0
LINE
  5
45E
100
AcDbEntity
  8
PORTATASTO
100
AcDbLine
 62
7
  6
CONTINUOUS
 10
3.5992434554
 20
19.2240179526
 11
3.6008003464
 21
18.6983930343
  0
SPLINE
  5
45F
100
AcDbEntity
  8
PORTATASTO
100
AcDbSpline
 62
253
  6
CONTINUOUS
 70
0
 71
3
 72
16
 73
12
 74
10
 42
0.0000001
 43
0.0000001
 44
0.0000000001
 12
0.0000019944
 22
0.3661320663
 32
0.0
 13
-0.358414782
 23
0.0747765602
 33
0.0
 40
0.0
 40
0.0
 40
0.0
 40
0.0
 40
0.1331580327
 40
0.2605676092
 40
0.3813663631
 40
0.4949432228
 40
0.6021338655
 40
0.704661191
 40
0.8041622809
 40
0.9021216877
 40
1.0
 40
1.0
 40
1.0
 40
1.0
 10
-22.5948270606
 20
26.4601365238
 30
0.0
 10
-22.5948269721
 20
26.4763876657
 30
0.0
 10
-22.596292851
 20
26.5082153526
 30
0.0
 10
-22.6032942308
 20
26.5543222788
 30
0.0
 10
-22.6150355409
 20
26.5970065371
 30
0.0
 10
-22.6313659124
 20
26.6355095674
 30
0.0
 10
-22.6520739855
 20
26.6692853075
 30
0.0
 10
-22.6769597125
 20
26.6979069233
 30
0.0
 10
-22.7057285341
 20
26.7208970964
 30
0.0
 10
-22.7378128635
 20
26.7377801899
 30
0.0
 10
-22.760835687
 20
26.7447713128
 30
0.0
 10
-22.772529365
 20
26.7472109807
 30
0.0
 11
-22.5948270606
 21
26.4601365238
 31
0.0
 11
-22.5971916403
 21
26.5088325737
 31
0.0
 11
-22.6043374405
 21
26.5549307482
 31
0.0
 11
-22.6162260185
 21
26.5975312646
 31
0.0
 11
-22.6326203339
 21
26.6357473125
 31
0.0
 11
-22.653272622
 21
26.6691198482
 31
0.0
 11
-22.678005624
 21
26.6973584868
 31
0.0
 11
-22.7065149367
 21
26.7200389478
 31
0.0
 11
-22.7382590006
 21
26.7367329617
 31
0.0
 11
-22.772529365
 21
26.7472109807
 31
0.0
  0
SPLINE
  5
460
100
AcDbEntity
  8
PORTATASTO
100
AcDbSpline
 62
253
  6
CONTINUOUS
 70
0
 71
3
 72
10
 73
6
 74
4
 42
0.0000001
 43
0.0000001
 44
0.0000000001
 12
0.0553703353
 22
-0.0090115078
 32
0.0
 13
0.055015019
 23
0.0109680039
 33
0.0
 40
0.0
 40
0.0
 40
0.0
 40
0.0
 40
0.1648709646
 40
0.6628780818
 40
1.0
 40
1.0
 40
1.0
 40
1.0
 10
-10.1793014878
 20
20.0280091064
 30
0.0
 10
-10.1762585009
 20
20.0275138611
 30
0.0
 10
-10.1639636917
 20
20.025896035
 30
0.0
 10
-10.1451851575
 20
20.025741962
 30
0.0
 10
-10.1296968162
 20
20.0279244409
 30
0.0
 10
-10.1235145599
 20
20.029156959
 30
0.0
 11
-10.1793014878
 21
20.0280091064
 31
0.0
 11
-10.1701331046
 21
20.0268028533
 31
0.0
 11
-10.1422330122
 21
20.0265390229
 31
0.0
 11
-10.1235145599
 21
20.029156959
 31
0.0
  0
SPLINE
  5
461
100
AcDbEntity
  8
PORTATASTO
100
AcDbSpline
 62
253
  6
CONTINUOUS
 70
0
 71
3
 72
15
 73
11
 74
9
 42
0.0000001
 43
0.0000001
 44
0.0000000001
 12
0.2318452025
 22
0.0462215434
 32
0.0
 13
0.0846118177
 23
0.220423937
 33
0.0
 40
0.0
 40
0.0
 40
0.0
 40
0.0
 40
0.0405029155
 40
0.1645058941
 40
0.2928246716
 40
0.4258615169
 40
0.563618024
 40
0.7057235882
 40
0.8515194656
 40
1.0
 40
1.0
 40
1.0
 40
1.0
 10
-10.1235145599
 20
20.029156959
 30
0.0
 10
-10.1203844244
 20
20.0297809948
 30
0.0
 10
-10.1077440297
 20
20.032681546
 30
0.0
 10
-10.085917184
 20
20.0403948281
 30
0.0
 10
-10.0591744847
 20
20.054949792
 30
0.0
 10
-10.0340086273
 20
20.0739233696
 30
0.0
 10
-10.0109138606
 20
20.0969190529
 30
0.0
 10
-9.9903412863
 20
20.1234689024
 30
0.0
 10
-9.9727001039
 20
20.1530251621
 30
0.0
 10
-9.9631835192
 20
20.1742045492
 30
0.0
 10
-9.9589957832
 20
20.1851141039
 30
0.0
 11
-10.1235145599
 21
20.029156959
 31
0.0
 11
-10.1141829857
 21
20.0312961299
 31
0.0
 11
-10.0865522402
 21
20.0409776383
 31
0.0
 11
-10.0599014772
 21
20.0553870837
 31
0.0
 11
-10.0347716706
 21
20.0742319232
 31
0.0
 11
-10.011672592
 21
20.097129825
 31
0.0
 11
-9.9910741322
 21
20.1236144451
 31
0.0
 11
-9.973392787
 21
20.1531496562
 31
0.0
 11
-9.9589957832
 21
20.1851141039
 31
0.0
  0
SPLINE
  5
462
100
AcDbEntity
  8
PORTATASTO
100
AcDbSpline
 62
253
  6
CONTINUOUS
 70
0
 71
3
 72
16
 73
12
 74
10
 42
0.0000001
 43
0.0000001
 44
0.0000000001
 12
0.0000019944
 22
0.3661320663
 32
0.0
 13
-0.358414782
 23
0.0747765602
 33
0.0
 40
0.0
 40
0.0
 40
0.0
 40
0.0
 40
0.1331580327
 40
0.2605676092
 40
0.3813663631
 40
0.4949432228
 40
0.6021338655
 40
0.704661191
 40
0.8041622809
 40
0.9021216877
 40
1.0
 40
1.0
 40
1.0
 40
1.0
 10
-9.2481865657
 20
19.7868162763
 30
0.0
 10
-9.2481864772
 20
19.8030674182
 30
0.0
 10
-9.2496523561
 20
19.8348951052
 30
0.0
 10
-9.2566537359
 20
19.8810020314
 30
0.0
 10
-9.268395046
 20
19.9236862897
 30
0.0
 10
-9.2847254175
 20
19.9621893199
 30
0.0
 10
-9.3054334906
 20
19.99596506
 30
0.0
 10
-9.3303192177
 20
20.0245866758
 30
0.0
 10
-9.3590880392
 20
20.047576849
 30
0.0
 10
-9.3911723686
 20
20.0644599425
 30
0.0
 10
-9.4141951921
 20
20.0714510654
 30
0.0
 10
-9.4258888701
 20
20.0738907332
 30
0.0
 11
-9.2481865657
 21
19.7868162763
 31
0.0
 11
-9.2505511454
 21
19.8355123262
 31
0.0
 11
-9.2576969456
 21
19.8816105007
 31
0.0
 11
-9.2695855236
 21
19.9242110171
 31
0.0
 11
-9.285979839
 21
19.962427065
 31
0.0
 11
-9.3066321271
 21
19.9957996007
 31
0.0
 11
-9.3313651291
 21
20.0240382394
 31
0.0
 11
-9.3598744418
 21
20.0467187004
 31
0.0
 11
-9.3916185057
 21
20.0634127142
 31
0.0
 11
-9.4258888701
 21
20.0738907332
 31
0.0
  0
SPLINE
  5
463
100
AcDbEntity
  8
PORTATASTO
100
AcDbSpline
 62
253
  6
CONTINUOUS
 70
0
 71
3
 72
13
 73
9
 74
7
 42
0.0000001
 43
0.0000001
 44
0.0000000001
 12
0.0000087569
 22
-0.1209332527
 32
0.0
 13
0.1077836379
 23
-0.0538918189
 33
0.0
 40
0.0
 40
0.0
 40
0.0
 40
0.0
 40
0.0763758374
 40
0.2284437537
 40
0.3927709664
 40
0.5746734429
 40
0.7768864614
 40
1.0
 40
1.0
 40
1.0
 40
1.0
 10
-11.6158833699
 20
21.1394571935
 30
0.0
 10
-11.615883147
 20
21.1363784007
 30
0.0
 10
-11.6152112415
 20
21.1271693229
 30
0.0
 10
-11.6106130613
 20
21.1118730805
 30
0.0
 10
-11.6001513001
 20
21.0946036372
 30
0.0
 10
-11.5850208417
 20
21.0784184852
 30
0.0
 10
-11.5655729094
 20
21.063552193
 30
0.0
 10
-11.5506810048
 20
21.0550768251
 30
0.0
 10
-11.5426650085
 20
21.0510688269
 30
0.0
 11
-11.6158833699
 21
21.1394571935
 31
0.0
 11
-11.6152100363
 21
21.1302555661
 31
0.0
 11
-11.6100777424
 21
21.1126638795
 31
0.0
 11
-11.6000060836
 21
21.0956140749
 31
0.0
 11
-11.5851987588
 21
21.0794510739
 31
0.0
 11
-11.5659552742
 21
21.064501836
 31
0.0
 11
-11.5426650085
 21
21.0510688269
 31
0.0
  0
SPLINE
  5
464
100
AcDbEntity
  8
PORTATASTO
100
AcDbSpline
 62
253
  6
CONTINUOUS
 70
0
 71
3
 72
14
 73
10
 74
8
 42
0.0000001
 43
0.0000001
 44
0.0000000001
 12
-0.1238366788
 22
0.0802264474
 32
0.0
 13
0.0
 23
0.1472939001
 33
0.0
 40
0.0
 40
0.0
 40
0.0
 40
0.0
 40
0.0334941419
 40
0.1725453018
 40
0.3179033921
 40
0.4721782052
 40
0.6369662921
 40
0.8129531068
 40
1.0
 40
1.0
 40
1.0
 40
1.0
 10
-11.4867887366
 20
20.6710821766
 30
0.0
 10
-11.4881713376
 20
20.671977882
 30
0.0
 10
-11.4951734159
 20
20.6767771501
 30
0.0
 10
-11.506843815
 20
20.6873096453
 30
0.0
 10
-11.5197592637
 20
20.7047034867
 30
0.0
 10
-11.5299637808
 20
20.7252114929
 30
0.0
 10
-11.5373225612
 20
20.7484663795
 30
0.0
 10
-11.5417420515
 20
20.7740697546
 30
0.0
 10
-11.5426650085
 20
20.7919139955
 30
0.0
 10
-11.5426650085
 20
20.8010976176
 30
0.0
 11
-11.4867887366
 21
20.6710821766
 31
0.0
 11
-11.4908646301
 21
20.6738756977
 31
0.0
 11
-11.506118098
 21
20.6875438709
 31
0.0
 11
-11.5189700729
 21
20.7046678382
 31
0.0
 11
-11.529202564
 21
20.7249573536
 31
0.0
 11
-11.5366387986
 21
20.7480624611
 31
0.0
 11
-11.54115201
 21
20.7735883269
 31
0.0
 11
-11.5426650085
 21
20.8010976176
 31
0.0
  0
SPLINE
  5
465
100
AcDbEntity
  8
PORTATASTO
100
AcDbSpline
 62
253
  6
CONTINUOUS
 70
0
 71
3
 72
10
 73
6
 74
4
 42
0.0000001
 43
0.0000001
 44
0.0000000001
 12
0.0553703353
 22
-0.0090115078
 32
0.0
 13
0.055015019
 23
0.0109680039
 33
0.0
 40
0.0
 40
0.0
 40
0.0
 40
0.0
 40
0.1648709646
 40
0.6628780818
 40
1.0
 40
1.0
 40
1.0
 40
1.0
 10
-23.5259419827
 20
26.7013293539
 30
0.0
 10
-23.5228989958
 20
26.7008341086
 30
0.0
 10
-23.5106041866
 20
26.6992162825
 30
0.0
 10
-23.4918256524
 20
26.6990622095
 30
0.0
 10
-23.4763373111
 20
26.7012446883
 30
0.0
 10
-23.4701550548
 20
26.7024772065
 30
0.0
 11
-23.5259419827
 21
26.7013293539
 31
0.0
 11
-23.5167735995
 21
26.7001231008
 31
0.0
 11
-23.4888735071
 21
26.6998592704
 31
0.0
 11
-23.4701550548
 21
26.7024772065
 31
0.0
  0
SPLINE
  5
466
100
AcDbEntity
  8
PORTATASTO
100
AcDbSpline
 62
253
  6
CONTINUOUS
 70
0
 71
3
 72
15
 73
11
 74
9
 42
0.0000001
 43
0.0000001
 44
0.0000000001
 12
0.2318452025
 22
0.0462215434
 32
0.0
 13
0.0846118177
 23
0.220423937
 33
0.0
 40
0.0
 40
0.0
 40
0.0
 40
0.0
 40
0.0405029155
 40
0.1645058941
 40
0.2928246716
 40
0.4258615169
 40
0.563618024
 40
0.7057235882
 40
0.8515194656
 40
1.0
 40
1.0
 40
1.0
 40
1.0
 10
-23.4701550548
 20
26.7024772065
 30
0.0
 10
-23.4670249193
 20
26.7031012422
 30
0.0
 10
-23.4543845246
 20
26.7060017935
 30
0.0
 10
-23.4325576789
 20
26.7137150756
 30
0.0
 10
-23.4058149795
 20
26.7282700394
 30
0.0
 10
-23.3806491222
 20
26.747243617
 30
0.0
 10
-23.3575543555
 20
26.7702393004
 30
0.0
 10
-23.3369817812
 20
26.7967891499
 30
0.0
 10
-23.3193405988
 20
26.8263454096
 30
0.0
 10
-23.3098240141
 20
26.8475247967
 30
0.0
 10
-23.3056362781
 20
26.8584343513
 30
0.0
 11
-23.4701550548
 21
26.7024772065
 31
0.0
 11
-23.4608234806
 21
26.7046163773
 31
0.0
 11
-23.4331927351
 21
26.7142978857
 31
0.0
 11
-23.4065419721
 21
26.7287073311
 31
0.0
 11
-23.3814121655
 21
26.7475521707
 31
0.0
 11
-23.3583130869
 21
26.7704500724
 31
0.0
 11
-23.3377146271
 21
26.7969346926
 31
0.0
 11
-23.3200332819
 21
26.8264699036
 31
0.0
 11
-23.3056362781
 21
26.8584343513
 31
0.0
  0
SPLINE
  5
467
100
AcDbEntity
  8
PORTATASTO
100
AcDbSpline
 62
253
  6
CONTINUOUS
 70
0
 71
3
 72
14
 73
10
 74
8
 42
0.0000001
 43
0.0000001
 44
0.0000000001
 12
-0.1238366788
 22
0.0802264474
 32
0.0
 13
0.0
 23
0.1472939001
 33
0.0
 40
0.0
 40
0.0
 40
0.0
 40
0.0
 40
0.0334941419
 40
0.1725453018
 40
0.3179033921
 40
0.4721782052
 40
0.6369662921
 40
0.8129531068
 40
1.0
 40
1.0
 40
1.0
 40
1.0
 10
-24.8334292314
 20
27.3444024241
 30
0.0
 10
-24.8348118325
 20
27.3452981294
 30
0.0
 10
-24.8418139108
 20
27.3500973976
 30
0.0
 10
-24.8534843099
 20
27.3606298928
 30
0.0
 10
-24.8663997586
 20
27.3780237342
 30
0.0
 10
-24.8766042757
 20
27.3985317403
 30
0.0
 10
-24.8839630561
 20
27.4217866269
 30
0.0
 10
-24.8883825464
 20
27.4473900021
 30
0.0
 10
-24.8893055034
 20
27.4652342429
 30
0.0
 10
-24.8893055034
 20
27.4744178651
 30
0.0
 11
-24.8334292314
 21
27.3444024241
 31
0.0
 11
-24.837505125
 21
27.3471959451
 31
0.0
 11
-24.8527585929
 21
27.3608641183
 31
0.0
 11
-24.8656105678
 21
27.3779880856
 31
0.0
 11
-24.8758430589
 21
27.3982776011
 31
0.0
 11
-24.8832792935
 21
27.4213827086
 31
0.0
 11
-24.8877925049
 21
27.4469085744
 31
0.0
 11
-24.8893055034
 21
27.4744178651
 31
0.0
  0
SPLINE
  5
468
100
AcDbEntity
  8
PORTATASTO
100
AcDbSpline
 62
253
  6
CONTINUOUS
 70
0
 71
3
 72
13
 73
9
 74
7
 42
0.0000001
 43
0.0000001
 44
0.0000000001
 12
0.0000087569
 22
-0.1209332527
 32
0.0
 13
0.1077836379
 23
-0.0538918189
 33
0.0
 40
0.0
 40
0.0
 40
0.0
 40
0.0
 40
0.0763758374
 40
0.2284437537
 40
0.3927709664
 40
0.5746734429
 40
0.7768864614
 40
1.0
 40
1.0
 40
1.0
 40
1.0
 10
-24.9625238648
 20
27.8127774409
 30
0.0
 10
-24.9625236419
 20
27.8096986481
 30
0.0
 10
-24.9618517364
 20
27.8004895704
 30
0.0
 10
-24.9572535562
 20
27.7851933279
 30
0.0
 10
-24.946791795
 20
27.7679238846
 30
0.0
 10
-24.9316613366
 20
27.7517387327
 30
0.0
 10
-24.9122134043
 20
27.7368724405
 30
0.0
 10
-24.8973214997
 20
27.7283970725
 30
0.0
 10
-24.8893055034
 20
27.7243890744
 30
0.0
 11
-24.9625238648
 21
27.8127774409
 31
0.0
 11
-24.9618505312
 21
27.8035758136
 31
0.0
 11
-24.9567182373
 21
27.785984127
 31
0.0
 11
-24.9466465785
 21
27.7689343223
 31
0.0
 11
-24.9318392537
 21
27.7527713214
 31
0.0
 11
-24.9125957691
 21
27.7378220835
 31
0.0
 11
-24.8893055034
 21
27.7243890744
 31
0.0
  0
SPLINE
  5
469
100
AcDbEntity
  8
PORTATASTO
100
AcDbSpline
 62
253
  6
CONTINUOUS
 70
0
 71
3
 72
16
 73
12
 74
10
 42
0.0000001
 43
0.0000001
 44
0.0000000001
 12
0.0000019944
 22
0.3661320663
 32
0.0
 13
-0.358414782
 23
0.0747765602
 33
0.0
 40
0.0
 40
0.0
 40
0.0
 40
0.0
 40
0.1331580327
 40
0.2605676092
 40
0.3813663631
 40
0.4949432228
 40
0.6021338655
 40
0.704661191
 40
0.8041622809
 40
0.9021216877
 40
1.0
 40
1.0
 40
1.0
 40
1.0
 10
-6.6849244839
 20
18.5051852354
 30
0.0
 10
-6.6849243954
 20
18.5214363773
 30
0.0
 10
-6.6863902743
 20
18.5532640643
 30
0.0
 10
-6.6933916541
 20
18.5993709905
 30
0.0
 10
-6.7051329642
 20
18.6420552488
 30
0.0
 10
-6.7214633357
 20
18.680558279
 30
0.0
 10
-6.7421714088
 20
18.7143340191
 30
0.0
 10
-6.7670571359
 20
18.7429556349
 30
0.0
 10
-6.7958259574
 20
18.7659458081
 30
0.0
 10
-6.8279102868
 20
18.7828289016
 30
0.0
 10
-6.8509331103
 20
18.7898200245
 30
0.0
 10
-6.8626267883
 20
18.7922596923
 30
0.0
 11
-6.6849244839
 21
18.5051852354
 31
0.0
 11
-6.6872890636
 21
18.5538812853
 31
0.0
 11
-6.6944348638
 21
18.5999794598
 31
0.0
 11
-6.7063234418
 21
18.6425799762
 31
0.0
 11
-6.7227177572
 21
18.6807960241
 31
0.0
 11
-6.7433700453
 21
18.7141685598
 31
0.0
 11
-6.7681030473
 21
18.7424071984
 31
0.0
 11
-6.79661236
 21
18.7650876595
 31
0.0
 11
-6.8283564239
 21
18.7817816733
 31
0.0
 11
-6.8626267883
 21
18.7922596923
 31
0.0
  0
SPLINE
  5
46A
100
AcDbEntity
  8
PORTATASTO
100
AcDbSpline
 62
7
  6
CONTINUOUS
 70
0
 71
3
 72
13
 73
9
 74
7
 42
0.0000001
 43
0.0000001
 44
0.0000000001
 12
0.4628116396
 22
-0.064098053
 32
0.0
 13
0.4179025476
 23
-0.2089512738
 33
0.0
 40
0.0
 40
0.0
 40
0.0
 40
0.0
 40
0.1796826336
 40
0.3552527235
 40
0.5258289147
 40
0.6906034756
 40
0.8488616656
 40
1.0
 40
1.0
 40
1.0
 40
1.0
 10
-12.3091022303
 20
26.6533443226
 30
0.0
 10
-12.2813824922
 20
26.6495052203
 30
0.0
 10
-12.2267385683
 20
26.6406845951
 30
0.0
 10
-12.1465652846
 20
26.6238352051
 30
0.0
 10
-12.0695676241
 20
26.6036198881
 30
0.0
 10
-11.9963089832
 20
26.5801861714
 30
0.0
 10
-11.9273273805
 20
26.5537067903
 30
0.0
 10
-11.8834616929
 20
26.533664899
 30
0.0
 10
-11.8624079946
 20
26.5231380499
 30
0.0
 11
-12.3091022303
 21
26.6533443226
 31
0.0
 11
-12.2262283844
 21
26.6399268362
 31
0.0
 11
-12.1459611805
 21
26.6230052527
 31
0.0
 11
-12.0688919307
 21
26.6027042275
 31
0.0
 11
-11.9955886316
 21
26.5791733815
 31
0.0
 11
-11.9265911177
 21
26.5525859974
 31
0.0
 11
-11.8624079946
 21
26.5231380499
 31
0.0
  0
SPLINE
  5
46B
100
AcDbEntity
  8
PORTATASTO
100
AcDbSpline
 62
7
  6
CONTINUOUS
 70
0
 71
3
 72
14
 73
10
 74
8
 42
0.0000001
 43
0.0000001
 44
0.0000000001
 12
-0.0003156004
 22
-0.2012684705
 32
0.0
 13
-0.1796980781
 23
-0.0895077445
 33
0.0
 40
0.0
 40
0.0
 40
0.0
 40
0.0
 40
0.0274634043
 40
0.1605984937
 40
0.3006484352
 40
0.4515198336
 40
0.6180762323
 40
0.8014208189
 40
1.0
 40
1.0
 40
1.0
 40
1.0
 10
8.6458781906
 20
16.6232614893
 30
0.0
 10
8.6458753014
 20
16.6214189835
 30
0.0
 10
8.6455725218
 20
16.6106458852
 30
0.0
 10
8.6418342066
 20
16.5906598708
 30
0.0
 10
8.6300310121
 20
16.5645930303
 30
0.0
 10
8.6118640986
 20
16.5397319013
 30
0.0
 10
8.5876801399
 20
16.5163396291
 30
0.0
 10
8.5578867003
 20
16.4947363785
 30
0.0
 10
8.535530239
 20
16.4822334283
 30
0.0
 10
8.5236354732
 20
16.4763086368
 30
0.0
 11
8.6458781906
 21
16.6232614893
 31
0.0
 11
8.6457222049
 21
16.6177372808
 31
0.0
 11
8.6409210054
 21
16.5914443567
 31
0.0
 11
8.6295314656
 21
16.5657386849
 31
0.0
 11
8.611871546
 21
16.5411315285
 31
0.0
 11
8.5880130868
 21
16.5177045825
 31
0.0
 11
8.5583431297
 21
16.4959217967
 31
0.0
 11
8.5236354732
 21
16.4763086368
 31
0.0
  0
SPLINE
  5
46C
100
AcDbEntity
  8
PORTATASTO
100
AcDbSpline
 62
7
  6
CONTINUOUS
 70
0
 71
3
 72
14
 73
10
 74
8
 42
0.0000001
 43
0.0000001
 44
0.0000000001
 12
0.001118265
 22
-0.203778607
 32
0.0
 13
-0.1823114036
 23
-0.0898474781
 33
0.0
 40
0.0
 40
0.0
 40
0.0
 40
0.0
 40
0.0362236359
 40
0.167907642
 40
0.3066456087
 40
0.4562281119
 40
0.6213988319
 40
0.8031849424
 40
1.0
 40
1.0
 40
1.0
 40
1.0
 10
3.0698619016
 20
19.4120083972
 30
0.0
 10
3.0698754041
 20
19.4095478631
 30
0.0
 10
3.0695355838
 20
19.3981415541
 30
0.0
 10
3.0654558856
 20
19.3775474784
 30
0.0
 10
3.0533752929
 20
19.3515249392
 30
0.0
 10
3.034947775
 20
19.3267219383
 30
0.0
 10
3.010519504
 20
19.3033997631
 30
0.0
 10
2.9804998852
 20
19.2818784165
 30
0.0
 10
2.9580068314
 20
19.2694325082
 30
0.0
 10
2.9460462883
 20
19.2635380626
 30
0.0
 11
3.0698619016
 21
19.4120083972
 31
0.0
 11
3.0696406281
 21
19.4046324115
 31
0.0
 11
3.0645584498
 21
19.3783547566
 31
0.0
 11
3.0528946566
 21
19.3526818065
 31
0.0
 11
3.0349725315
 21
19.3281235904
 31
0.0
 11
3.0108644245
 21
19.3047613792
 31
0.0
 11
2.9809625724
 21
19.283058432
 31
0.0
 11
2.9460462883
 21
19.2635380626
 31
0.0
  0
SPLINE
  5
46D
100
AcDbEntity
  8
PORTATASTO
100
AcDbSpline
 62
7
  6
CONTINUOUS
 70
0
 71
3
 72
14
 73
10
 74
8
 42
0.0000001
 43
0.0000001
 44
0.0000000001
 12
0.0011183735
 22
-0.2037785963
 32
0.0
 13
-0.1823113885
 23
-0.0898474707
 33
0.0
 40
0.0
 40
0.0
 40
0.0
 40
0.0
 40
0.0361797747
 40
0.1678680881
 40
0.3065894265
 40
0.4561575738
 40
0.6213570309
 40
0.8031650597
 40
1.0
 40
1.0
 40
1.0
 40
1.0
 10
-12.8400406716
 20
27.366959686
 30
0.0
 10
-12.8400271841
 20
27.3645021314
 30
0.0
 10
-12.8403664385
 20
27.353098512
 30
0.0
 10
-12.8444437643
 20
27.3325078574
 30
0.0
 10
-12.856521551
 20
27.3064860582
 30
0.0
 10
-12.8749470096
 20
27.2816817106
 30
0.0
 10
-12.8993759588
 20
27.2583565515
 30
0.0
 10
-12.9293990495
 20
27.2368317855
 30
0.0
 10
-12.951894538
 20
27.2243843915
 30
0.0
 10
-12.9638562884
 20
27.218489351
 30
0.0
 11
-12.8400406716
 21
27.366959686
 31
0.0
 11
-12.8402613617
 21
27.3595926178
 31
0.0
 11
-12.8453416546
 21
27.3333137089
 31
0.0
 11
-12.8570021041
 21
27.3076429545
 31
0.0
 11
-12.8749205751
 21
27.2830856871
 31
0.0
 11
-12.8990316206
 21
27.2597181193
 31
0.0
 11
-12.9289365908
 21
27.2380118893
 31
0.0
 11
-12.9638562884
 21
27.218489351
 31
0.0
  0
SPLINE
  5
46E
100
AcDbEntity
  8
PORTATASTO
100
AcDbSpline
 62
7
  6
CONTINUOUS
 70
0
 71
3
 72
14
 73
10
 74
8
 42
0.0000001
 43
0.0000001
 44
0.0000000001
 12
-0.0003155752
 22
-0.2012684551
 32
0.0
 13
-0.1796980627
 23
-0.0895077369
 33
0.0
 40
0.0
 40
0.0
 40
0.0
 40
0.0
 40
0.0274210906
 40
0.1605608875
 40
0.3005952013
 40
0.4514528445
 40
0.6180368173
 40
0.8014023858
 40
1.0
 40
1.0
 40
1.0
 40
1.0
 10
-7.2640243822
 20
24.5782127778
 30
0.0
 10
-7.2640272667
 20
24.5763731109
 30
0.0
 10
-7.2643295402
 20
24.5656025341
 30
0.0
 10
-7.2680656946
 20
24.5456197491
 30
0.0
 10
-7.2798662712
 20
24.5195535832
 30
0.0
 10
-7.2980312418
 20
24.4946911792
 30
0.0
 10
-7.3222158297
 20
24.4712960814
 30
0.0
 10
-7.3520125116
 20
24.4496896091
 30
0.0
 10
-7.3743712346
 20
24.4371852661
 30
0.0
 10
-7.3862671035
 20
24.4312599251
 30
0.0
 11
-7.2640243822
 21
24.5782127778
 31
0.0
 11
-7.2641799033
 21
24.5726970718
 31
0.0
 11
-7.2689793217
 21
24.5464028642
 31
0.0
 11
-7.2803657483
 21
24.5206992473
 31
0.0
 11
-7.2980222211
 21
24.4960930195
 31
0.0
 11
-7.3218834375
 21
24.4726609844
 31
0.0
 11
-7.3515563315
 21
24.4508750866
 31
0.0
 11
-7.3862671035
 21
24.4312599251
 31
0.0
  0
SPLINE
  5
46F
100
AcDbEntity
  8
PORTATASTO
100
AcDbSpline
 62
7
  6
CONTINUOUS
 70
0
 71
3
 72
11
 73
7
 74
5
 42
0.0000001
 43
0.0000001
 44
0.0000000001
 12
0.9691084659
 22
0.5089457726
 32
0.0
 13
-0.0
 23
1.0862471538
 33
0.0
 40
0.0
 40
0.0
 40
0.0
 40
0.0
 40
0.0856209928
 40
0.35423346
 40
0.6561033916
 40
1.0
 40
1.0
 40
1.0
 40
1.0
 10
5.7870491307
 20
8.0069917459
 30
0.0
 10
5.814707807
 20
8.0215172267
 30
0.0
 10
5.9248563817
 20
8.08954861
 30
0.0
 10
6.0858495088
 20
8.2730056179
 30
0.0
 10
6.2058306707
 20
8.5869815682
 30
0.0
 10
6.2290351972
 20
8.8221312364
 30
0.0
 10
6.2290351972
 20
8.9466501404
 30
0.0
 11
5.7870491307
 21
8.0069917459
 31
0.0
 11
5.8665983301
 21
8.0562168115
 31
0.0
 11
6.0632500926
 21
8.2717704644
 31
0.0
 11
6.1868705584
 21
8.5754806907
 31
0.0
 11
6.2290351972
 21
8.9466501404
 31
0.0
  0
SPLINE
  5
470
100
AcDbEntity
  8
PORTATASTO
100
AcDbSpline
 62
253
  6
CONTINUOUS
 70
0
 71
3
 72
16
 73
12
 74
10
 42
0.0000001
 43
0.0000001
 44
0.0000000001
 12
0.3236790135
 22
0.3878370912
 32
0.0
 13
-0.0000027547
 23
0.5051590968
 33
0.0
 40
0.0
 40
0.0
 40
0.0
 40
0.0
 40
0.1110160359
 40
0.2251124574
 40
0.3405889506
 40
0.4558553607
 40
0.5699516537
 40
0.6824994821
 40
0.7926627183
 40
0.8988620715
 40
1.0
 40
1.0
 40
1.0
 40
1.0
 10
6.4840137066
 20
-28.6038697753
 30
0.0
 10
6.4959915603
 20
-28.5895177298
 30
0.0
 10
6.5191572496
 20
-28.5594608214
 30
0.0
 10
6.5507462875
 20
-28.5115362942
 30
0.0
 10
6.5791406653
 20
-28.4608276994
 30
0.0
 10
6.6038323978
 20
-28.4082182514
 30
0.0
 10
6.6245030441
 20
-28.3544296341
 30
0.0
 10
6.6409133994
 20
-28.3000866416
 30
0.0
 10
6.6528184964
 20
-28.2459370513
 30
0.0
 10
6.6600293576
 20
-28.1929034285
 30
0.0
 10
6.6617161038
 20
-28.1579744804
 30
0.0
 10
6.661716011
 20
-28.1409442322
 30
0.0
 11
6.4840137066
 21
-28.6038697753
 31
0.0
 11
6.5182840712
 21
-28.5594784045
 31
0.0
 11
6.5500281348
 21
-28.5113710209
 31
0.0
 11
6.5785374476
 21
-28.4604782439
 31
0.0
 11
6.6032704496
 21
-28.4077642598
 31
0.0
 11
6.6239227377
 21
-28.3539545818
 31
0.0
 11
6.640317053
 21
-28.2995150067
 31
0.0
 11
6.6522056312
 21
-28.2451497618
 31
0.0
 11
6.6593514311
 21
-28.1919802288
 31
0.0
 11
6.661716011
 21
-28.1409442322
 31
0.0
  0
SPLINE
  5
471
100
AcDbEntity
  8
PORTATASTO
100
AcDbSpline
 62
253
  6
CONTINUOUS
 70
0
 71
3
 72
16
 73
12
 74
10
 42
0.0000001
 43
0.0000001
 44
0.0000000001
 12
0.0000019944
 22
0.3661320663
 32
0.0
 13
-0.358414782
 23
0.0747765602
 33
0.0
 40
0.0
 40
0.0
 40
0.0
 40
0.0
 40
0.1331580327
 40
0.2605676092
 40
0.3813663631
 40
0.4949432228
 40
0.6021338655
 40
0.704661191
 40
0.8041622809
 40
0.9021216877
 40
1.0
 40
1.0
 40
1.0
 40
1.0
 10
6.661716011
 20
11.831864988
 30
0.0
 10
6.6617160995
 20
11.8481161299
 30
0.0
 10
6.6602502206
 20
11.8799438168
 30
0.0
 10
6.6532488408
 20
11.926050743
 30
0.0
 10
6.6415075307
 20
11.9687350013
 30
0.0
 10
6.6251771592
 20
12.0072380316
 30
0.0
 10
6.6044690861
 20
12.0410137717
 30
0.0
 10
6.579583359
 20
12.0696353875
 30
0.0
 10
6.5508145375
 20
12.0926255606
 30
0.0
 10
6.5187302081
 20
12.1095086541
 30
0.0
 10
6.4957073846
 20
12.116499777
 30
0.0
 10
6.4840137066
 20
12.1189394449
 30
0.0
 11
6.661716011
 21
11.831864988
 31
0.0
 11
6.6593514313
 21
11.8805610379
 31
0.0
 11
6.6522056311
 21
11.9266592124
 31
0.0
 11
6.6403170531
 21
11.9692597288
 31
0.0
 11
6.6239227377
 21
12.0074757767
 31
0.0
 11
6.6032704496
 21
12.0408483124
 31
0.0
 11
6.5785374476
 21
12.069086951
 31
0.0
 11
6.5500281349
 21
12.091767412
 31
0.0
 11
6.518284071
 21
12.1084614259
 31
0.0
 11
6.4840137066
 21
12.1189394449
 31
0.0
  0
SPLINE
  5
472
100
AcDbEntity
  8
PORTATASTO
100
AcDbSpline
 62
7
  6
CONTINUOUS
 70
0
 71
3
 72
10
 73
6
 74
4
 42
0.0000001
 43
0.0000001
 44
0.0000000001
 12
5.0017684454
 22
2.5711843134
 32
0.0
 13
5.0055620789
 23
2.5637910659
 33
0.0
 40
0.0
 40
0.0
 40
0.0
 40
0.0
 40
0.3270780677
 40
0.6604220924
 40
1.0
 40
1.0
 40
1.0
 40
1.0
 10
-12.4459912266
 20
22.8618295504
 30
0.0
 10
-11.9006683071
 20
23.1421555494
 30
0.0
 10
-10.7994061633
 20
23.7078484653
 30
0.0
 10
-9.1314513008
 20
24.5635494603
 30
0.0
 10
-8.0087842813
 20
25.1388553089
 30
0.0
 10
-7.4421915155
 20
25.4290575775
 30
0.0
 11
-12.4459912266
 21
22.8618295504
 31
0.0
 11
-10.8097830802
 21
23.7023416987
 31
0.0
 11
-9.141784449
 21
24.5580889612
 31
0.0
 11
-7.4421915155
 21
25.4290575775
 31
0.0
  0
LINE
  5
473
100
AcDbEntity
  8
PORTATASTO
100
AcDbLine
 62
253
  6
CONTINUOUS
 10
-7.3818203922
 20
25.6915304186
 11
-7.3827472358
 21
25.4288478356
  0
LINE
  5
474
100
AcDbEntity
  8
PORTATASTO
100
AcDbLine
 62
253
  6
CONTINUOUS
 10
-7.3827472358
 20
25.4288478356
 11
-7.3832221312
 21
25.2942547109
  0
LINE
  5
475
100
AcDbEntity
  8
PORTATASTO
100
AcDbLine
 62
253
  6
CONTINUOUS
 10
-7.3845703322
 20
24.912152579
 11
-7.3848292736
 21
24.8387643679
  0
LINE
  5
476
100
AcDbEntity
  8
PORTATASTO
100
AcDbLine
 62
253
  6
CONTINUOUS
 10
-7.3848292736
 20
24.8387643679
 11
-7.3862671035
 21
24.4312599251
  0
SPLINE
  5
477
100
AcDbEntity
  8
PORTATASTO
100
AcDbSpline
 62
7
  6
CONTINUOUS
 70
0
 71
3
 72
13
 73
9
 74
7
 42
0.0000001
 43
0.0000001
 44
0.0000000001
 12
0.4628116396
 22
-0.064098053
 32
0.0
 13
0.4179025476
 23
-0.2089512738
 33
0.0
 40
0.0
 40
0.0
 40
0.0
 40
0.0
 40
0.1796826336
 40
0.3552527235
 40
0.5258289147
 40
0.6906034756
 40
0.8488616656
 40
1.0
 40
1.0
 40
1.0
 40
1.0
 10
3.6008003464
 20
18.6983930343
 30
0.0
 10
3.6285200845
 20
18.6945539319
 30
0.0
 10
3.6831640084
 20
18.6857333067
 30
0.0
 10
3.7633372921
 20
18.6688839167
 30
0.0
 10
3.8403349526
 20
18.6486685998
 30
0.0
 10
3.9135935935
 20
18.6252348831
 30
0.0
 10
3.9825751962
 20
18.5987555019
 30
0.0
 10
4.0264408838
 20
18.5787136107
 30
0.0
 10
4.0474945821
 20
18.5681867615
 30
0.0
 11
3.6008003464
 21
18.6983930343
 31
0.0
 11
3.6836741923
 21
18.6849755479
 31
0.0
 11
3.7639413962
 21
18.6680539643
 31
0.0
 11
3.841010646
 21
18.6477529392
 31
0.0
 11
3.9143139451
 21
18.6242220931
 31
0.0
 11
3.983311459
 21
18.5976347091
 31
0.0
 11
4.0474945821
 21
18.5681867615
 31
0.0
  0
SPLINE
  5
478
100
AcDbEntity
  8
PORTATASTO
100
AcDbSpline
 62
7
  6
CONTINUOUS
 70
0
 71
3
 72
11
 73
7
 74
5
 42
0.0000001
 43
0.0000001
 44
0.0000000001
 12
-0.0558540189
 22
0.0280572242
 32
0.0
 13
-0.0609845051
 23
-0.0127562676
 33
0.0
 40
0.0
 40
0.0
 40
0.0
 40
0.0
 40
0.115891449
 40
0.3485725948
 40
0.6442869389
 40
1.0
 40
1.0
 40
1.0
 40
1.0
 10
-12.8536013462
 20
28.4992480449
 30
0.0
 10
-12.8557590139
 20
28.500331909
 30
0.0
 10
-12.8630032355
 20
28.5023123323
 30
0.0
 10
-12.8763226603
 20
28.5029457597
 30
0.0
 10
-12.8946842846
 20
28.5011387843
 30
0.0
 10
-12.9079919451
 20
28.4986996634
 30
0.0
 10
-12.9152229401
 20
28.4971871398
 30
0.0
 11
-12.8536013462
 21
28.4992480449
 31
0.0
 11
-12.8605718342
 21
28.501467756
 31
0.0
 11
-12.8750293412
 21
28.5025736378
 31
0.0
 11
-12.8933925515
 21
28.5010331476
 31
0.0
 11
-12.9152229401
 21
28.4971871398
 31
0.0
  0
SPLINE
  5
479
100
AcDbEntity
  8
PORTATASTO
100
AcDbSpline
 62
7
  6
CONTINUOUS
 70
0
 71
3
 72
9
 73
5
 74
3
 42
0.0000001
 43
0.0000001
 44
0.0000000001
 12
-0.053663551
 22
-0.011224927
 32
0.0
 13
-0.0526505396
 23
-0.0153236142
 33
0.0
 40
0.0
 40
0.0
 40
0.0
 40
0.0
 40
0.4698162059
 40
1.0
 40
1.0
 40
1.0
 40
1.0
 10
-12.9152229401
 20
28.4971871398
 30
0.0
 10
-12.923626942
 20
28.4954292556
 30
0.0
 10
-12.9414122213
 20
28.491168268
 30
0.0
 10
-12.9590227664
 20
28.4862673027
 30
0.0
 10
-12.9683275874
 20
28.483559192
 30
0.0
 11
-12.9152229401
 21
28.4971871398
 31
0.0
 11
-12.9402999983
 21
28.491284233
 31
0.0
 11
-12.9683275874
 21
28.483559192
 31
0.0
  0
SPLINE
  5
47A
100
AcDbEntity
  8
PORTATASTO
100
AcDbSpline
 62
7
  6
CONTINUOUS
 70
0
 71
3
 72
11
 73
7
 74
5
 42
0.0000001
 43
0.0000001
 44
0.0000000001
 12
-0.0546556072
 22
0.0273238484
 32
0.0
 13
-0.0595665172
 23
-0.0124899511
 33
0.0
 40
0.0
 40
0.0
 40
0.0
 40
0.0
 40
0.111846091
 40
0.3445537668
 40
0.6417458825
 40
1.0
 40
1.0
 40
1.0
 40
1.0
 10
-7.2692851893
 20
25.7070923085
 30
0.0
 10
-7.2713228613
 20
25.708110997
 30
0.0
 10
-7.2783368132
 20
25.7100400817
 30
0.0
 10
-7.2912824788
 20
25.7106474799
 30
0.0
 10
-7.3093069563
 20
25.7088599586
 30
0.0
 10
-7.3223840846
 20
25.706453372
 30
0.0
 10
-7.3294974013
 20
25.7049618466
 30
0.0
 11
-7.2692851893
 21
25.7070923085
 31
0.0
 11
-7.2758697969
 21
25.7091944935
 31
0.0
 11
-7.2899941034
 21
25.7102840426
 31
0.0
 11
-7.3080215475
 21
25.708759292
 31
0.0
 11
-7.3294974013
 21
25.7049618466
 31
0.0
  0
SPLINE
  5
47B
100
AcDbEntity
  8
PORTATASTO
100
AcDbSpline
 62
7
  6
CONTINUOUS
 70
0
 71
3
 72
9
 73
5
 74
3
 42
0.0000001
 43
0.0000001
 44
0.0000000001
 12
-0.0528668026
 22
-0.0110851501
 32
0.0
 13
-0.0518805773
 23
-0.0150837808
 33
0.0
 40
0.0
 40
0.0
 40
0.0
 40
0.0
 40
0.4696232064
 40
1.0
 40
1.0
 40
1.0
 40
1.0
 10
-7.3294974013
 20
25.7049618466
 30
0.0
 10
-7.3377732271
 20
25.7032265653
 30
0.0
 10
-7.355296385
 20
25.6990238615
 30
0.0
 10
-7.3726483074
 20
25.6941971144
 30
0.0
 10
-7.3818203922
 20
25.6915304186
 30
0.0
 11
-7.3294974013
 21
25.7049618466
 31
0.0
 11
-7.354194025
 21
25.6991415606
 31
0.0
 11
-7.3818203922
 21
25.6915304186
 31
0.0
  0
SPLINE
  5
47C
100
AcDbEntity
  8
PORTATASTO
100
AcDbSpline
 62
7
  6
CONTINUOUS
 70
0
 71
3
 72
10
 73
6
 74
4
 42
0.0000001
 43
0.0000001
 44
0.0000000001
 12
5.0017684454
 22
2.5711843134
 32
0.0
 13
5.0055620789
 23
2.5637910659
 33
0.0
 40
0.0
 40
0.0
 40
0.0
 40
0.0
 40
0.3270780677
 40
0.6604220924
 40
1.0
 40
1.0
 40
1.0
 40
1.0
 10
3.4639113501
 20
14.906878262
 30
0.0
 10
4.0092342696
 20
15.187204261
 30
0.0
 10
5.1104964134
 20
15.752897177
 30
0.0
 10
6.7784512759
 20
16.6085981719
 30
0.0
 10
7.9011182954
 20
17.1839040206
 30
0.0
 10
8.4677110612
 20
17.4741062892
 30
0.0
 11
3.4639113501
 21
14.906878262
 31
0.0
 11
5.1001194965
 21
15.7473904104
 31
0.0
 11
6.7681181277
 21
16.6031376728
 31
0.0
 11
8.4677110612
 21
17.4741062892
 31
0.0
  0
LINE
  5
47D
100
AcDbEntity
  8
PORTATASTO
100
AcDbLine
 62
253
  6
CONTINUOUS
 10
8.5236354732
 20
16.4763086368
 11
8.5250733031
 21
16.8838130795
  0
LINE
  5
47E
100
AcDbEntity
  8
PORTATASTO
100
AcDbLine
 62
253
  6
CONTINUOUS
 10
8.5250733031
 20
16.8838130795
 11
8.5253322445
 21
16.9572012906
  0
LINE
  5
47F
100
AcDbEntity
  8
PORTATASTO
100
AcDbLine
 62
253
  6
CONTINUOUS
 10
8.5266804455
 20
17.3393034225
 11
8.5271553409
 21
17.4738965473
  0
LINE
  5
480
100
AcDbEntity
  8
PORTATASTO
100
AcDbLine
 62
253
  6
CONTINUOUS
 10
8.5271553409
 20
17.4738965473
 11
8.5280821845
 21
17.7365791303
  0
SPLINE
  5
481
100
AcDbEntity
  8
PORTATASTO
100
AcDbSpline
 62
7
  6
CONTINUOUS
 70
0
 71
3
 72
11
 73
7
 74
5
 42
0.0000001
 43
0.0000001
 44
0.0000000001
 12
-0.0558407528
 22
0.028045677
 32
0.0
 13
-0.0609669131
 23
-0.0127499313
 33
0.0
 40
0.0
 40
0.0
 40
0.0
 40
0.0
 40
0.1157994796
 40
0.3484977461
 40
0.6441881787
 40
1.0
 40
1.0
 40
1.0
 40
1.0
 10
3.0563011026
 20
20.5442968088
 30
0.0
 10
3.0541456592
 20
20.5453793671
 30
0.0
 10
3.0469053126
 20
20.5473601326
 30
0.0
 10
3.0335920445
 20
20.5479947353
 30
0.0
 10
3.0152337549
 20
20.5461897793
 30
0.0
 10
3.001928394
 20
20.5437517734
 30
0.0
 10
2.9946974779
 20
20.5422395813
 30
0.0
 11
3.0563011026
 21
20.5442968088
 31
0.0
 11
3.0493381871
 21
20.5465149187
 31
0.0
 11
3.0348840647
 21
20.5476225331
 31
0.0
 11
3.0165276591
 21
20.5460842588
 31
0.0
 11
2.9946974779
 21
20.5422395813
 31
0.0
  0
SPLINE
  5
482
100
AcDbEntity
  8
PORTATASTO
100
AcDbSpline
 62
7
  6
CONTINUOUS
 70
0
 71
3
 72
9
 73
5
 74
3
 42
0.0000001
 43
0.0000001
 44
0.0000000001
 12
-0.0536818521
 22
-0.0112264159
 32
0.0
 13
-0.052668036
 23
-0.0153287064
 33
0.0
 40
0.0
 40
0.0
 40
0.0
 40
0.0
 40
0.4697289822
 40
1.0
 40
1.0
 40
1.0
 40
1.0
 10
2.9946974779
 20
20.5422395813
 30
0.0
 10
2.9862921706
 20
20.5404817903
 30
0.0
 10
2.9685008596
 20
20.5362198631
 30
0.0
 10
2.9508844337
 20
20.5313173599
 30
0.0
 10
2.9415749893
 20
20.5286079037
 30
0.0
 11
2.9946974779
 21
20.5422395813
 31
0.0
 11
2.9696165694
 21
20.5363365488
 31
0.0
 11
2.9415749893
 21
20.5286079037
 31
0.0
  0
SPLINE
  5
483
100
AcDbEntity
  8
PORTATASTO
100
AcDbSpline
 62
7
  6
CONTINUOUS
 70
0
 71
3
 72
11
 73
7
 74
5
 42
0.0000001
 43
0.0000001
 44
0.0000000001
 12
-0.0546432025
 22
0.0273130163
 32
0.0
 13
-0.0595496307
 23
-0.0124839013
 33
0.0
 40
0.0
 40
0.0
 40
0.0
 40
0.0
 40
0.1117597333
 40
0.3444809722
 40
0.6416465056
 40
1.0
 40
1.0
 40
1.0
 40
1.0
 10
8.6406172529
 20
17.7521410467
 30
0.0
 10
8.6385816163
 20
17.7531585451
 30
0.0
 10
8.6315713729
 20
17.7550879486
 30
0.0
 10
8.6186316301
 20
17.7556964354
 30
0.0
 10
8.6006104629
 20
17.753910878
 30
0.0
 10
8.5875355786
 20
17.7515053643
 30
0.0
 10
8.5804223058
 20
17.7500141477
 30
0.0
 11
8.6406172529
 21
17.7521410467
 31
0.0
 11
8.6340396195
 21
17.7542417615
 31
0.0
 11
8.6199187589
 21
17.7553329323
 31
0.0
 11
8.6018980575
 21
17.7538103336
 31
0.0
 11
8.5804223058
 21
17.7500141477
 31
0.0
  0
SPLINE
  5
484
100
AcDbEntity
  8
PORTATASTO
100
AcDbSpline
 62
7
  6
CONTINUOUS
 70
0
 71
3
 72
9
 73
5
 74
3
 42
0.0000001
 43
0.0000001
 44
0.0000000001
 12
-0.0528843731
 22
-0.011086606
 32
0.0
 13
-0.0518973797
 23
-0.0150886659
 33
0.0
 40
0.0
 40
0.0
 40
0.0
 40
0.0
 40
0.4695380299
 40
1.0
 40
1.0
 40
1.0
 40
1.0
 10
8.5804223058
 20
17.7500141477
 30
0.0
 10
8.572145231
 20
17.7482789534
 30
0.0
 10
8.5546162825
 20
17.7440753429
 30
0.0
 10
8.5372587133
 20
17.7392471181
 30
0.0
 10
8.5280821845
 20
17.7365791303
 30
0.0
 11
8.5804223058
 21
17.7500141477
 31
0.0
 11
8.5557219984
 21
17.7441937372
 31
0.0
 11
8.5280821845
 21
17.7365791303
 31
0.0
  0
SPLINE
  5
485
100
AcDbEntity
  8
PORTATASTO
100
AcDbSpline
 62
7
  6
CONTINUOUS
 70
0
 71
3
 72
20
 73
16
 74
14
 42
0.0000001
 43
0.0000001
 44
0.0000000001
 12
0.0
 22
0.7356707928
 32
0.0
 13
-0.6580039607
 23
0.3290019804
 33
0.0
 40
0.0
 40
0.0
 40
0.0
 40
0.0
 40
0.0730105196
 40
0.1487729214
 40
0.2270906104
 40
0.3075074146
 40
0.3890306281
 40
0.4712522964
 40
0.5530515997
 40
0.6340549632
 40
0.7131935961
 40
0.7900924956
 40
0.8637935525
 40
0.9339524538
 40
1.0
 40
1.0
 40
1.0
 40
1.0
 10
7.926091472
 20
11.0205386012
 30
0.0
 10
7.926091472
 20
11.0384425035
 30
0.0
 10
7.9249259945
 20
11.0749698468
 30
0.0
 10
7.916969245
 20
11.1301829968
 30
0.0
 10
7.9040723909
 20
11.1862804725
 30
0.0
 10
7.886240499
 20
11.2425002823
 30
0.0
 10
7.8638568701
 20
11.2980913816
 30
0.0
 10
7.8372940607
 20
11.3521891275
 30
0.0
 10
7.8069329281
 20
11.404101475
 30
0.0
 10
7.7732685571
 20
11.4530219329
 30
0.0
 10
7.7367545436
 20
11.498326044
 30
0.0
 10
7.6979822836
 20
11.5392813088
 30
0.0
 10
7.6575297878
 20
11.5753775459
 30
0.0
 10
7.6159968665
 20
11.6058797918
 30
0.0
 10
7.5872937218
 20
11.62314837
 30
0.0
 10
7.5728072061
 20
11.6303916278
 30
0.0
 11
7.926091472
 21
11.0205386012
 31
0.0
 11
7.9239728387
 21
11.0742085075
 31
0.0
 11
7.9163151998
 21
11.1294161431
 31
0.0
 11
7.9034450852
 21
11.1855763407
 31
0.0
 11
7.8856255508
 21
11.2419891459
 31
0.0
 11
7.8632510449
 21
11.2976334789
 31
0.0
 11
7.8365999758
 21
11.3519338318
 31
0.0
 11
7.8062082718
 21
11.4038728228
 31
0.0
 11
7.7723986624
 21
11.4529451569
 31
0.0
 11
7.7358184763
 21
11.4982381602
 31
0.0
 11
7.6968741788
 21
11.5392718526
 31
0.0
 11
7.6563286908
 21
11.5752696428
 31
0.0
 11
7.6147182931
 21
11.6058075666
 31
0.0
 11
7.5728072061
 21
11.6303916278
 31
0.0
  0
SPLINE
  5
486
100
AcDbEntity
  8
PORTATASTO
100
AcDbSpline
 62
7
  6
CONTINUOUS
 70
0
 71
3
 72
15
 73
11
 74
9
 42
0.0000001
 43
0.0000001
 44
0.0000000001
 12
0.0
 22
-0.3142264465
 32
0.0
 13
-0.2797191061
 23
-0.1442777691
 33
0.0
 40
0.0
 40
0.0
 40
0.0
 40
0.0
 40
0.1607622684
 40
0.3140160976
 40
0.4589295696
 40
0.5958928211
 40
0.7251191509
 40
0.848623603
 40
0.9680187643
 40
1.0
 40
1.0
 40
1.0
 40
1.0
 10
7.926091472
 20
-26.8245880082
 30
0.0
 10
7.926091472
 20
-26.8414265937
 30
0.0
 10
7.9251164942
 20
-26.8743722975
 30
0.0
 10
7.9174372641
 20
-26.9219598585
 30
0.0
 10
7.9047133867
 20
-26.9658532623
 30
0.0
 10
7.8869743415
 20
-27.0052656025
 30
0.0
 10
7.8645293212
 20
-27.0395780083
 30
0.0
 10
7.8377192237
 20
-27.0681671982
 30
0.0
 10
7.8142845829
 20
-27.0852024791
 30
0.0
 10
7.8003638185
 20
-27.0928566372
 30
0.0
 10
7.7973818976
 20
-27.0943946977
 30
0.0
 11
7.926091472
 21
-26.8245880082
 31
0.0
 11
7.9239715503
 21
-26.8750592631
 31
0.0
 11
7.916312399
 21
-26.9226026839
 31
0.0
 11
7.9034447327
 21
-26.9662824064
 31
0.0
 11
7.8856224092
 21
-27.0054562384
 31
0.0
 11
7.8632450125
 21
-27.0393402492
 31
0.0
 11
7.8365937417
 21
-27.0675501582
 31
0.0
 11
7.8062005681
 21
-27.0895453642
 31
0.0
 11
7.7973818976
 21
-27.0943946977
 31
0.0
  0
SPLINE
  5
487
100
AcDbEntity
  8
PORTATASTO
100
AcDbSpline
 62
7
  6
CONTINUOUS
 70
0
 71
3
 72
9
 73
5
 74
3
 42
0.0000001
 43
0.0000001
 44
0.0000000001
 12
0.0000106939
 22
-0.020588684
 32
0.0
 13
0.0016621915
 23
-0.0205197568
 33
0.0
 40
0.0
 40
0.0
 40
0.0
 40
0.0
 40
0.5208435173
 40
1.0
 40
1.0
 40
1.0
 40
1.0
 10
-3.5285075603
 20
17.8186490894
 30
0.0
 10
-3.5285057037
 20
17.8150745952
 30
0.0
 10
-3.5283365544
 20
17.8082121553
 30
0.0
 10
-3.5278996612
 20
17.8013631335
 30
0.0
 10
-3.5276341779
 20
17.798085742
 30
0.0
 11
-3.5285075603
 21
17.8186490894
 31
0.0
 11
-3.52825687
 21
17.8079297206
 31
0.0
 11
-3.5276341779
 21
17.798085742
 31
0.0
  0
SPLINE
  5
488
100
AcDbEntity
  8
PORTATASTO
100
AcDbSpline
 62
7
  6
CONTINUOUS
 70
0
 71
3
 72
17
 73
13
 74
11
 42
0.0000001
 43
0.0000001
 44
0.0000000001
 12
0.0289734995
 22
-0.3576778919
 32
0.0
 13
0.2214236492
 23
-0.2822258458
 33
0.0
 40
0.0
 40
0.0
 40
0.0
 40
0.0
 40
0.0573573103
 40
0.1483657571
 40
0.2444832861
 40
0.3448491641
 40
0.4487388961
 40
0.5555184648
 40
0.6646038968
 40
0.7754249575
 40
0.8874248937
 40
1.0
 40
1.0
 40
1.0
 40
1.0
 10
-3.5276341779
 20
17.798085742
 30
0.0
 10
-3.5270802306
 20
17.7912472614
 30
0.0
 10
-3.5250150675
 20
17.7736073311
 30
0.0
 10
-3.5194506878
 20
17.7448771923
 30
0.0
 10
-3.5104082822
 20
17.71168241
 30
0.0
 10
-3.4987176804
 20
17.6776976269
 30
0.0
 10
-3.4845608348
 20
17.6432844833
 30
0.0
 10
-3.4681021761
 20
17.6087544997
 30
0.0
 10
-3.4494956416
 20
17.5743889342
 30
0.0
 10
-3.4288907573
 20
17.5404512181
 30
0.0
 10
-3.4064424964
 20
17.5072005693
 30
0.0
 10
-3.3903674563
 20
17.4856754562
 30
0.0
 10
-3.382058526
 20
17.4750849214
 30
0.0
 11
-3.5276341779
 21
17.798085742
 31
0.0
 11
-3.5252874455
 21
17.7776389055
 31
0.0
 11
-3.519182202
 21
17.7455683308
 31
0.0
 11
-3.5101907839
 21
17.7122820948
 31
0.0
 11
-3.4985295834
 21
17.6782196748
 31
0.0
 11
-3.4843871497
 21
17.6437400701
 31
0.0
 11
-3.4679312752
 21
17.6091511117
 31
0.0
 11
-3.4493171697
 21
17.574730798
 31
0.0
 11
-3.4286966125
 21
17.5407433069
 31
0.0
 11
-3.4062213035
 21
17.5074413727
 31
0.0
 11
-3.382058526
 21
17.4750849214
 31
0.0
  0
SPLINE
  5
489
100
AcDbEntity
  8
PORTATASTO
100
AcDbSpline
 62
253
  6
CONTINUOUS
 70
0
 71
3
 72
17
 73
13
 74
11
 42
0.0000001
 43
0.0000001
 44
0.0000000001
 12
-0.1070926538
 22
-0.2789892123
 32
0.0
 13
-0.2929479529
 23
0.0611060668
 33
0.0
 40
0.0
 40
0.0
 40
0.0
 40
0.0
 40
0.117387821
 40
0.2325750288
 40
0.3448462271
 40
0.4536747247
 40
0.5587747311
 40
0.6601470123
 40
0.7581101567
 40
0.8533057292
 40
0.9466639717
 40
1.0
 40
1.0
 40
1.0
 40
1.0
 10
-22.772529365
 20
26.7472109807
 30
0.0
 10
-22.7767198227
 20
26.7362943354
 30
0.0
 10
-22.7862401963
 20
26.7151085638
 30
0.0
 10
-22.8038871893
 20
26.6855477234
 30
0.0
 10
-22.8244608171
 20
26.6590008457
 30
0.0
 10
-22.8475557077
 20
26.6360086515
 30
0.0
 10
-22.8727205691
 20
26.6170387337
 30
0.0
 10
-22.8994617014
 20
26.6024869584
 30
0.0
 10
-22.9272493476
 20
26.5926690542
 30
0.0
 10
-22.9555200294
 20
26.5878121436
 30
0.0
 10
-22.9797484061
 20
26.5880117661
 30
0.0
 10
-22.994228391
 20
26.5902446692
 30
0.0
 10
-22.9994366177
 20
26.5913310542
 30
0.0
 11
-22.772529365
 21
26.7472109807
 31
0.0
 11
-22.7869369237
 21
26.7152262974
 31
0.0
 11
-22.8046200394
 21
26.6856932861
 31
0.0
 11
-22.8252199307
 21
26.6592111563
 31
0.0
 11
-22.8483186336
 21
26.6363172193
 31
0.0
 11
-22.8734474788
 21
26.6174759849
 31
0.0
 11
-22.9000966083
 21
26.6030697283
 31
0.0
 11
-22.927725325
 21
26.593390736
 31
0.0
 11
-22.955773059
 21
26.5886353806
 31
0.0
 11
-22.9836707411
 21
26.5889001382
 31
0.0
 11
-22.9994366177
 21
26.5913310542
 31
0.0
  0
SPLINE
  5
48A
100
AcDbEntity
  8
PORTATASTO
100
AcDbSpline
 62
253
  6
CONTINUOUS
 70
0
 71
3
 72
17
 73
13
 74
11
 42
0.0000001
 43
0.0000001
 44
0.0000000001
 12
-0.1070926538
 22
-0.2789892123
 32
0.0
 13
-0.2929479529
 23
0.0611060668
 33
0.0
 40
0.0
 40
0.0
 40
0.0
 40
0.0
 40
0.117387821
 40
0.2325750288
 40
0.3448462271
 40
0.4536747247
 40
0.5587747311
 40
0.6601470123
 40
0.7581101567
 40
0.8533057292
 40
0.9466639717
 40
1.0
 40
1.0
 40
1.0
 40
1.0
 10
-9.4258888701
 20
20.0738907332
 30
0.0
 10
-9.4300793279
 20
20.062974088
 30
0.0
 10
-9.4395997014
 20
20.0417883164
 30
0.0
 10
-9.4572466944
 20
20.0122274759
 30
0.0
 10
-9.4778203222
 20
19.9856805983
 30
0.0
 10
-9.5009152128
 20
19.962688404
 30
0.0
 10
-9.5260800742
 20
19.9437184863
 30
0.0
 10
-9.5528212065
 20
19.929166711
 30
0.0
 10
-9.5806088527
 20
19.9193488068
 30
0.0
 10
-9.6088795345
 20
19.9144918962
 30
0.0
 10
-9.6331079112
 20
19.9146915187
 30
0.0
 10
-9.6475878961
 20
19.9169244218
 30
0.0
 10
-9.6527961228
 20
19.9180108068
 30
0.0
 11
-9.4258888701
 21
20.0738907332
 31
0.0
 11
-9.4402964288
 21
20.0419060499
 31
0.0
 11
-9.4579795445
 21
20.0123730386
 31
0.0
 11
-9.4785794358
 21
19.9858909089
 31
0.0
 11
-9.5016781387
 21
19.9629969719
 31
0.0
 11
-9.5268069839
 21
19.9441557374
 31
0.0
 11
-9.5534561135
 21
19.9297494809
 31
0.0
 11
-9.5810848301
 21
19.9200704886
 31
0.0
 11
-9.6091325641
 21
19.9153151332
 31
0.0
 11
-9.6370302462
 21
19.9155798908
 31
0.0
 11
-9.6527961228
 21
19.9180108068
 31
0.0
  0
SPLINE
  5
48B
100
AcDbEntity
  8
PORTATASTO
100
AcDbSpline
 62
253
  6
CONTINUOUS
 70
0
 71
3
 72
18
 73
14
 74
12
 42
0.0000001
 43
0.0000001
 44
0.0000000001
 12
0.3246495851
 22
-0.1623247962
 32
0.0
 13
0.3253245715
 23
0.1609677474
 33
0.0
 40
0.0
 40
0.0
 40
0.0
 40
0.0
 40
0.0806595925
 40
0.1671780649
 40
0.2585292238
 40
0.3534795041
 40
0.4506548502
 40
0.5485992532
 40
0.6458291495
 40
0.7408865332
 40
0.8323932784
 40
0.9191094963
 40
1.0
 40
1.0
 40
1.0
 40
1.0
 10
-22.9474524336
 20
26.4605981114
 30
0.0
 10
-22.9387237325
 20
26.4562337607
 30
0.0
 10
-22.9200920343
 20
26.4482469882
 30
0.0
 10
-22.8902527404
 20
26.4387366287
 30
0.0
 10
-22.8580275592
 20
26.4314187109
 30
0.0
 10
-22.8240604644
 20
26.4264414225
 30
0.0
 10
-22.7890264268
 20
26.4239040786
 30
0.0
 10
-22.753625657
 20
26.4238580733
 30
0.0
 10
-22.7185655863
 20
26.4263043392
 30
0.0
 10
-22.6845469956
 20
26.4311933269
 30
0.0
 10
-22.6522460078
 20
26.4384274616
 30
0.0
 10
-22.6223082228
 20
26.4478602103
 30
0.0
 10
-22.6035989501
 20
26.4557962697
 30
0.0
 10
-22.5948270606
 20
26.4601365238
 30
0.0
 11
-22.9474524336
 21
26.4605981114
 31
0.0
 11
-22.9205904512
 21
26.4489544903
 31
0.0
 11
-22.8906969229
 21
26.4393336938
 31
0.0
 11
-22.8583763414
 21
26.4319302708
 31
0.0
 11
-22.824282281
 21
26.4268939333
 31
0.0
 11
-22.7891041805
 21
26.4243265282
 31
0.0
 11
-22.7535534023
 21
26.424279977
 31
0.0
 11
-22.7183488482
 21
26.4267552255
 31
0.0
 11
-22.6842024286
 21
26.4317022231
 31
0.0
 11
-22.6518046606
 21
26.4390209323
 31
0.0
 11
-22.6218106929
 21
26.4485633546
 31
0.0
 11
-22.5948270606
 21
26.4601365238
 31
0.0
  0
SPLINE
  5
48C
100
AcDbEntity
  8
PORTATASTO
100
AcDbSpline
 62
253
  6
CONTINUOUS
 70
0
 71
3
 72
18
 73
14
 74
12
 42
0.0000001
 43
0.0000001
 44
0.0000000001
 12
0.3246495851
 22
-0.1623247962
 32
0.0
 13
0.3253245715
 23
0.1609677474
 33
0.0
 40
0.0
 40
0.0
 40
0.0
 40
0.0
 40
0.0806595925
 40
0.1671780649
 40
0.2585292238
 40
0.3534795041
 40
0.4506548502
 40
0.5485992532
 40
0.6458291495
 40
0.7408865332
 40
0.8323932784
 40
0.9191094963
 40
1.0
 40
1.0
 40
1.0
 40
1.0
 10
-9.6008119387
 20
19.7872778639
 30
0.0
 10
-9.5920832376
 20
19.7829135133
 30
0.0
 10
-9.5734515394
 20
19.7749267407
 30
0.0
 10
-9.5436122455
 20
19.7654163813
 30
0.0
 10
-9.5113870643
 20
19.7580984634
 30
0.0
 10
-9.4774199695
 20
19.7531211751
 30
0.0
 10
-9.4423859319
 20
19.7505838311
 30
0.0
 10
-9.4069851621
 20
19.7505378259
 30
0.0
 10
-9.3719250914
 20
19.7529840917
 30
0.0
 10
-9.3379065007
 20
19.7578730795
 30
0.0
 10
-9.3056055129
 20
19.7651072142
 30
0.0
 10
-9.2756677279
 20
19.7745399629
 30
0.0
 10
-9.2569584552
 20
19.7824760223
 30
0.0
 10
-9.2481865657
 20
19.7868162763
 30
0.0
 11
-9.6008119387
 21
19.7872778639
 31
0.0
 11
-9.5739499563
 21
19.7756342428
 31
0.0
 11
-9.544056428
 21
19.7660134464
 31
0.0
 11
-9.5117358465
 21
19.7586100233
 31
0.0
 11
-9.4776417861
 21
19.7535736858
 31
0.0
 11
-9.4424636856
 21
19.7510062807
 31
0.0
 11
-9.4069129074
 21
19.7509597295
 31
0.0
 11
-9.3717083533
 21
19.7534349781
 31
0.0
 11
-9.3375619337
 21
19.7583819756
 31
0.0
 11
-9.3051641657
 21
19.7657006849
 31
0.0
 11
-9.275170198
 21
19.7752431071
 31
0.0
 11
-9.2481865657
 21
19.7868162763
 31
0.0
  0
SPLINE
  5
48D
100
AcDbEntity
  8
PORTATASTO
100
AcDbSpline
 62
253
  6
CONTINUOUS
 70
0
 71
3
 72
12
 73
8
 74
6
 42
0.0000001
 43
0.0000001
 44
0.0000000001
 12
-0.0992113636
 22
0.0496056818
 32
0.0
 13
-0.0168818249
 23
0.1099498659
 33
0.0
 40
0.0
 40
0.0
 40
0.0
 40
0.0
 40
0.2423757552
 40
0.4620472832
 40
0.65965851
 40
0.8381777041
 40
1.0
 40
1.0
 40
1.0
 40
1.0
 10
-24.8893055034
 20
27.4744178651
 30
0.0
 10
-24.8973209798
 20
27.4784256033
 30
0.0
 10
-24.9122119642
 20
27.4869003806
 30
0.0
 10
-24.9316589885
 20
27.5017655335
 30
0.0
 10
-24.9467891996
 20
27.5179494334
 30
0.0
 10
-24.9571861249
 20
27.5351098501
 30
0.0
 10
-24.9608831609
 20
27.5472965874
 30
0.0
 10
-24.9617937794
 20
27.5532273673
 30
0.0
 11
-24.8893055034
 21
27.4744178651
 31
0.0
 11
-24.9125943155
 21
27.4878499042
 31
0.0
 11
-24.9318368508
 21
27.5027979166
 31
0.0
 11
-24.9466440653
 21
27.5189597581
 31
0.0
 11
-24.9567162553
 21
27.5360084021
 31
0.0
 11
-24.9617937794
 21
27.5532273673
 31
0.0
  0
SPLINE
  5
48E
100
AcDbEntity
  8
PORTATASTO
100
AcDbSpline
 62
253
  6
CONTINUOUS
 70
0
 71
3
 72
18
 73
14
 74
12
 42
0.0000001
 43
0.0000001
 44
0.0000000001
 12
-0.3253245695
 22
-0.1609677464
 32
0.0
 13
-0.3246495845
 23
0.1623247923
 33
0.0
 40
0.0
 40
0.0
 40
0.0
 40
0.0
 40
0.0808903938
 40
0.1676064876
 40
0.2591130993
 40
0.3541703561
 40
0.4514001688
 40
0.549344556
 40
0.6465199513
 40
0.7414703353
 40
0.8328216347
 40
0.9193402632
 40
1.0
 40
1.0
 40
1.0
 40
1.0
 10
-23.3056362781
 20
26.8584343513
 30
0.0
 10
-23.3144081556
 20
26.8540941032
 30
0.0
 10
-23.3331174013
 20
26.8461580535
 30
0.0
 10
-23.3630551419
 20
26.8367253127
 30
0.0
 10
-23.395356082
 20
26.8294911795
 30
0.0
 10
-23.4293746296
 20
26.8246021861
 30
0.0
 10
-23.4644346717
 20
26.8221559082
 30
0.0
 10
-23.4998354352
 20
26.8222018984
 30
0.0
 10
-23.5348694902
 20
26.8247392286
 30
0.0
 10
-23.568836622
 20
26.8297165087
 30
0.0
 10
-23.6010618528
 20
26.8370344264
 30
0.0
 10
-23.6309011998
 20
26.8465447947
 30
0.0
 10
-23.6495329324
 20
26.8545315796
 30
0.0
 10
-23.6582616491
 20
26.8588959379
 30
0.0
 11
-23.3056362781
 21
26.8584343513
 31
0.0
 11
-23.3326198727
 21
26.8468611961
 31
0.0
 11
-23.3626137957
 21
26.8373187821
 31
0.0
 11
-23.3950115142
 21
26.8300000749
 31
0.0
 11
-23.4291578863
 21
26.8250530723
 31
0.0
 11
-23.4643624089
 21
26.8225778117
 31
0.0
 11
-23.4999131811
 21
26.8226243477
 31
0.0
 11
-23.5350913004
 21
26.8251917391
 31
0.0
 11
-23.5691853998
 21
26.8302280685
 31
0.0
 11
-23.6015060333
 21
26.8376314921
 31
0.0
 11
-23.6313996176
 21
26.8472522987
 31
0.0
 11
-23.6582616491
 21
26.8588959379
 31
0.0
  0
SPLINE
  5
48F
100
AcDbEntity
  8
PORTATASTO
100
AcDbSpline
 62
253
  6
CONTINUOUS
 70
0
 71
3
 72
14
 73
10
 74
8
 42
0.0000001
 43
0.0000001
 44
0.0000000001
 12
0.0
 22
-0.1577570491
 32
0.0
 13
0.1413701496
 23
-0.0707269237
 33
0.0
 40
0.0
 40
0.0
 40
0.0
 40
0.0
 40
0.1743677075
 40
0.3386590498
 40
0.4925403877
 40
0.6365867691
 40
0.7723296719
 40
0.9021624116
 40
1.0
 40
1.0
 40
1.0
 40
1.0
 10
-23.6582616491
 20
26.8588959379
 30
0.0
 10
-23.6582616491
 20
26.8497266929
 30
0.0
 10
-23.6573409328
 20
26.8318981623
 30
0.0
 10
-23.6529295037
 20
26.8063081072
 30
0.0
 10
-23.645576937
 20
26.7830511131
 30
0.0
 10
-23.6353776455
 20
26.7625375226
 30
0.0
 10
-23.6224673695
 20
26.7451376721
 30
0.0
 10
-23.6081835894
 20
26.7322366163
 30
0.0
 10
-23.5979007508
 20
26.7259857158
 30
0.0
 10
-23.5932903127
 20
26.7236791319
 30
0.0
 11
-23.6582616491
 21
26.8588959379
 31
0.0
 11
-23.6567535242
 21
26.8314295759
 31
0.0
 11
-23.6522466224
 21
26.805906319
 31
0.0
 11
-23.6448155315
 21
26.78279579
 31
0.0
 11
-23.6345891478
 21
26.7625025315
 31
0.0
 11
-23.6217408205
 21
26.7453707772
 31
0.0
 11
-23.6064920943
 21
26.7316963522
 31
0.0
 11
-23.5932903127
 21
26.7236791319
 31
0.0
  0
SPLINE
  5
490
100
AcDbEntity
  8
PORTATASTO
100
AcDbSpline
 62
253
  6
CONTINUOUS
 70
0
 71
3
 72
12
 73
8
 74
6
 42
0.0000001
 43
0.0000001
 44
0.0000000001
 12
-0.0992113636
 22
0.0496056818
 32
0.0
 13
-0.0168818249
 23
0.1099498659
 33
0.0
 40
0.0
 40
0.0
 40
0.0
 40
0.0
 40
0.2423757552
 40
0.4620472832
 40
0.65965851
 40
0.8381777041
 40
1.0
 40
1.0
 40
1.0
 40
1.0
 10
-11.5426650085
 20
20.8010976176
 30
0.0
 10
-11.5506804849
 20
20.8051053558
 30
0.0
 10
-11.5655714693
 20
20.8135801331
 30
0.0
 10
-11.5850184936
 20
20.828445286
 30
0.0
 10
-11.6001487047
 20
20.844629186
 30
0.0
 10
-11.61054563
 20
20.8617896026
 30
0.0
 10
-11.614242666
 20
20.87397634
 30
0.0
 10
-11.6151532845
 20
20.8799071199
 30
0.0
 11
-11.5426650085
 21
20.8010976176
 31
0.0
 11
-11.5659538206
 21
20.8145296567
 31
0.0
 11
-11.5851963559
 21
20.8294776692
 31
0.0
 11
-11.6000035704
 21
20.8456395106
 31
0.0
 11
-11.6100757604
 21
20.8626881547
 31
0.0
 11
-11.6151532845
 21
20.8799071199
 31
0.0
  0
SPLINE
  5
491
100
AcDbEntity
  8
PORTATASTO
100
AcDbSpline
 62
253
  6
CONTINUOUS
 70
0
 71
3
 72
18
 73
14
 74
12
 42
0.0000001
 43
0.0000001
 44
0.0000000001
 12
-0.3253245695
 22
-0.1609677464
 32
0.0
 13
-0.3246495845
 23
0.1623247923
 33
0.0
 40
0.0
 40
0.0
 40
0.0
 40
0.0
 40
0.0808903938
 40
0.1676064876
 40
0.2591130993
 40
0.3541703561
 40
0.4514001688
 40
0.549344556
 40
0.6465199513
 40
0.7414703353
 40
0.8328216347
 40
0.9193402632
 40
1.0
 40
1.0
 40
1.0
 40
1.0
 10
-9.9589957832
 20
20.1851141039
 30
0.0
 10
-9.9677676607
 20
20.1807738558
 30
0.0
 10
-9.9864769064
 20
20.1728378061
 30
0.0
 10
-10.016414647
 20
20.1634050653
 30
0.0
 10
-10.0487155871
 20
20.1561709321
 30
0.0
 10
-10.0827341347
 20
20.1512819386
 30
0.0
 10
-10.1177941768
 20
20.1488356607
 30
0.0
 10
-10.1531949403
 20
20.1488816509
 30
0.0
 10
-10.1882289953
 20
20.1514189812
 30
0.0
 10
-10.2221961271
 20
20.1563962613
 30
0.0
 10
-10.2544213579
 20
20.163714179
 30
0.0
 10
-10.2842607049
 20
20.1732245473
 30
0.0
 10
-10.3028924375
 20
20.1812113321
 30
0.0
 10
-10.3116211542
 20
20.1855756905
 30
0.0
 11
-9.9589957832
 21
20.1851141039
 31
0.0
 11
-9.9859793778
 21
20.1735409486
 31
0.0
 11
-10.0159733008
 21
20.1639985347
 31
0.0
 11
-10.0483710193
 21
20.1566798275
 31
0.0
 11
-10.0825173914
 21
20.1517328248
 31
0.0
 11
-10.117721914
 21
20.1492575643
 31
0.0
 11
-10.1532726863
 21
20.1493041002
 31
0.0
 11
-10.1884508055
 21
20.1518714917
 31
0.0
 11
-10.2225449049
 21
20.1569078211
 31
0.0
 11
-10.2548655384
 21
20.1643112446
 31
0.0
 11
-10.2847591227
 21
20.1739320513
 31
0.0
 11
-10.3116211542
 21
20.1855756905
 31
0.0
  0
SPLINE
  5
492
100
AcDbEntity
  8
PORTATASTO
100
AcDbSpline
 62
253
  6
CONTINUOUS
 70
0
 71
3
 72
14
 73
10
 74
8
 42
0.0000001
 43
0.0000001
 44
0.0000000001
 12
0.0
 22
-0.1577570491
 32
0.0
 13
0.1413701496
 23
-0.0707269237
 33
0.0
 40
0.0
 40
0.0
 40
0.0
 40
0.0
 40
0.1743677075
 40
0.3386590498
 40
0.4925403877
 40
0.6365867691
 40
0.7723296719
 40
0.9021624116
 40
1.0
 40
1.0
 40
1.0
 40
1.0
 10
-10.3116211542
 20
20.1855756905
 30
0.0
 10
-10.3116211542
 20
20.1764064455
 30
0.0
 10
-10.3107004379
 20
20.1585779149
 30
0.0
 10
-10.3062890089
 20
20.1329878598
 30
0.0
 10
-10.2989364421
 20
20.1097308657
 30
0.0
 10
-10.2887371506
 20
20.0892172751
 30
0.0
 10
-10.2758268746
 20
20.0718174246
 30
0.0
 10
-10.2615430946
 20
20.0589163689
 30
0.0
 10
-10.2512602559
 20
20.0526654684
 30
0.0
 10
-10.2466498178
 20
20.0503588845
 30
0.0
 11
-10.3116211542
 21
20.1855756905
 31
0.0
 11
-10.3101130293
 21
20.1581093284
 31
0.0
 11
-10.3056061275
 21
20.1325860715
 31
0.0
 11
-10.2981750366
 21
20.1094755426
 31
0.0
 11
-10.2879486529
 21
20.089182284
 31
0.0
 11
-10.2751003256
 21
20.0720505298
 31
0.0
 11
-10.2598515994
 21
20.0583761048
 31
0.0
 11
-10.2466498178
 21
20.0503588845
 31
0.0
  0
SPLINE
  5
493
100
AcDbEntity
  8
PORTATASTO
100
AcDbSpline
 62
253
  6
CONTINUOUS
 70
0
 71
3
 72
18
 73
14
 74
12
 42
0.0000001
 43
0.0000001
 44
0.0000000001
 12
-0.3274336833
 22
-0.1658166109
 32
0.0
 13
0.0
 23
-0.3670258376
 33
0.0
 40
0.0
 40
0.0
 40
0.0
 40
0.0
 40
0.079422804
 40
0.1638981722
 40
0.2528307501
 40
0.3453754709
 40
0.4405064244
 40
0.537077953
 40
0.633880772
 40
0.7296955712
 40
0.8233462304
 40
0.9137547197
 40
1.0
 40
1.0
 40
1.0
 40
1.0
 10
-23.4824105502
 20
27.4132960798
 30
0.0
 10
-23.4910791173
 20
27.4089062064
 30
0.0
 10
-23.5083348334
 20
27.3985615587
 30
0.0
 10
-23.5328030166
 20
27.3795379526
 30
0.0
 10
-23.5562353189
 20
27.3568793595
 30
0.0
 10
-23.578165292
 20
27.3310396398
 30
0.0
 10
-23.5981619451
 20
27.302531265
 30
0.0
 10
-23.615827542
 20
27.2719221487
 30
0.0
 10
-23.6308104508
 20
27.2398221328
 30
0.0
 10
-23.6428118876
 20
27.2068714994
 30
0.0
 10
-23.6515924273
 20
27.1737243003
 30
0.0
 10
-23.6569762614
 20
27.1410445834
 30
0.0
 10
-23.6582616491
 20
27.1194185627
 30
0.0
 10
-23.6582616491
 20
27.1088671473
 30
0.0
 11
-23.4824105502
 21
27.4132960798
 31
0.0
 11
-23.5074755027
 21
27.3984137566
 31
0.0
 11
-23.5320148782
 21
27.3794636397
 31
0.0
 11
-23.5555324446
 21
27.3568289357
 31
0.0
 11
-23.5775526334
 21
27.3309673605
 31
0.0
 11
-23.5976301552
 21
27.302401883
 31
0.0
 11
-23.6153590053
 21
27.2717101502
 31
0.0
 11
-23.6303806736
 21
27.2395128061
 31
0.0
 11
-23.6423913938
 21
27.2064609406
 31
0.0
 11
-23.651148287
 21
27.173222924
 31
0.0
 11
-23.6564742726
 21
27.1404708905
 31
0.0
 11
-23.6582616491
 21
27.1088671473
 31
0.0
  0
SPLINE
  5
494
100
AcDbEntity
  8
PORTATASTO
100
AcDbSpline
 62
253
  6
CONTINUOUS
 70
0
 71
3
 72
18
 73
14
 74
12
 42
0.0000001
 43
0.0000001
 44
0.0000000001
 12
-0.0015838354
 22
0.3677667756
 32
0.0
 13
-0.3282452006
 23
0.1658613822
 33
0.0
 40
0.0
 40
0.0
 40
0.0
 40
0.0
 40
0.0862298917
 40
0.1766966374
 40
0.2704573358
 40
0.3664103845
 40
0.4633549994
 40
0.5600473248
 40
0.6552540094
 40
0.7478094658
 40
0.836663259
 40
0.9209608649
 40
1.0
 40
1.0
 40
1.0
 40
1.0
 10
-23.3056362781
 20
27.1084055607
 30
0.0
 10
-23.3056818027
 20
27.1189763904
 30
0.0
 10
-23.3070614642
 20
27.1406456098
 30
0.0
 10
-23.312583704
 20
27.1733888699
 30
0.0
 10
-23.3215011362
 20
27.2066099046
 30
0.0
 10
-23.33363405
 20
27.2396385516
 30
0.0
 10
-23.3487387507
 20
27.2718145892
 30
0.0
 10
-23.3665118638
 20
27.3024916903
 30
0.0
 10
-23.3865971801
 20
27.3310546087
 30
0.0
 10
-23.4085920614
 20
27.3569301193
 30
0.0
 10
-23.4320612567
 20
27.3796019163
 30
0.0
 10
-23.4565248326
 20
27.3986057786
 30
0.0
 10
-23.4737624779
 20
27.4089262331
 30
0.0
 10
-23.4824105502
 20
27.4132960798
 30
0.0
 11
-23.3056362781
 21
27.1084055607
 31
0.0
 11
-23.3075590287
 21
27.140060002
 31
0.0
 11
-23.3130233013
 21
27.172879193
 31
0.0
 11
-23.3219178167
 21
27.2061946966
 31
0.0
 11
-23.3340614372
 21
27.239328105
 31
0.0
 11
-23.3492068345
 21
27.2716046836
 31
0.0
 11
-23.3670455623
 21
27.3023672067
 31
0.0
 11
-23.387214238
 21
27.3309891796
 31
0.0
 11
-23.4093025754
 21
27.3568883731
 31
0.0
 11
-23.4328593259
 21
27.3795360342
 31
0.0
 11
-23.4574060339
 21
27.398472565
 31
0.0
 11
-23.4824105502
 21
27.4132960798
 31
0.0
  0
SPLINE
  5
495
100
AcDbEntity
  8
PORTATASTO
100
AcDbSpline
 62
253
  6
CONTINUOUS
 70
0
 71
3
 72
18
 73
14
 74
12
 42
0.0000001
 43
0.0000001
 44
0.0000000001
 12
0.3246495934
 22
-0.1623247967
 32
0.0
 13
0.3253245784
 23
0.1609677508
 33
0.0
 40
0.0
 40
0.0
 40
0.0
 40
0.0
 40
0.0805600317
 40
0.1670785676
 40
0.2584318395
 40
0.353391101
 40
0.4505764045
 40
0.5485331093
 40
0.645776605
 40
0.7408481865
 40
0.8323689073
 40
0.9190982169
 40
1.0
 40
1.0
 40
1.0
 40
1.0
 10
-23.6582616491
 20
27.1088671473
 30
0.0
 10
-23.6495437219
 20
27.1045081837
 30
0.0
 10
-23.6309237759
 20
27.0965248852
 30
0.0
 10
-23.6010966632
 20
27.0870150098
 30
0.0
 10
-23.5688707977
 20
27.0796939793
 30
0.0
 10
-23.5349015307
 20
27.0747138269
 30
0.0
 10
-23.4998638679
 20
27.0721740507
 30
0.0
 10
-23.4644587501
 20
27.0721261905
 30
0.0
 10
-23.4293937206
 20
27.0745712549
 30
0.0
 10
-23.3953699386
 20
27.0794597348
 30
0.0
 10
-23.3630638619
 20
27.0866940561
 30
0.0
 10
-23.3331214579
 20
27.096127633
 30
0.0
 10
-23.3144093909
 20
27.1040647013
 30
0.0
 10
-23.3056362781
 20
27.1084055607
 30
0.0
 11
-23.6582616491
 21
27.1088671473
 31
0.0
 11
-23.6314335488
 21
27.0972362232
 31
0.0
 11
-23.6015410103
 21
27.0876122743
 31
0.0
 11
-23.5692203351
 21
27.0802058229
 31
0.0
 11
-23.5351234234
 21
27.0751664756
 31
0.0
 11
-23.4999418773
 21
27.0725966184
 31
0.0
 11
-23.4643866357
 21
27.0725481901
 31
0.0
 11
-23.4291770477
 21
27.0750222313
 31
0.0
 11
-23.3950253486
 21
27.0799687345
 31
0.0
 11
-23.3626224279
 21
27.0872876588
 31
0.0
 11
-23.3326237547
 21
27.0968309668
 31
0.0
 11
-23.3056362781
 21
27.1084055607
 31
0.0
  0
SPLINE
  5
496
100
AcDbEntity
  8
PORTATASTO
100
AcDbSpline
 62
253
  6
CONTINUOUS
 70
0
 71
3
 72
12
 73
8
 74
6
 42
0.0000001
 43
0.0000001
 44
0.0000000001
 12
-0.105075395
 22
0.05198689
 32
0.0
 13
-0.1046068627
 23
-0.053485869
 33
0.0
 40
0.0
 40
0.0
 40
0.0
 40
0.0
 40
0.2328889945
 40
0.4495112485
 40
0.6519220999
 40
0.8438975281
 40
1.0
 40
1.0
 40
1.0
 40
1.0
 10
-24.7134544045
 20
28.028818007
 30
0.0
 10
-24.7216113722
 20
28.0328537318
 30
0.0
 10
-24.7379090457
 20
28.0396060159
 30
0.0
 10
-24.7628153992
 20
28.0455119259
 30
0.0
 10
-24.7868218991
 20
28.0466578926
 30
0.0
 10
-24.8082218203
 20
28.0431335891
 30
0.0
 10
-24.8209687915
 20
28.0381144566
 30
0.0
 10
-24.8264119214
 20
28.0353313645
 30
0.0
 11
-24.7134544045
 21
28.028818007
 31
0.0
 11
-24.7387338696
 21
28.0391309801
 31
0.0
 11
-24.7634798939
 21
28.0448362081
 31
0.0
 11
-24.7871887371
 21
28.045817553
 31
0.0
 11
-24.8093777724
 21
28.0420550382
 31
0.0
 11
-24.8264119214
 21
28.0353313645
 31
0.0
  0
SPLINE
  5
497
100
AcDbEntity
  8
PORTATASTO
100
AcDbSpline
 62
253
  6
CONTINUOUS
 70
0
 71
3
 72
12
 73
8
 74
6
 42
0.0000001
 43
0.0000001
 44
0.0000000001
 12
0.0
 22
0.1580720269
 32
0.0
 13
0.0689400312
 23
0.142302146
 33
0.0
 40
0.0
 40
0.0
 40
0.0
 40
0.0
 40
0.2002807734
 40
0.410231436
 40
0.627711274
 40
0.8502158163
 40
1.0
 40
1.0
 40
1.0
 40
1.0
 10
-24.8893055034
 20
27.7243890744
 30
0.0
 10
-24.8893055034
 20
27.7349420037
 30
0.0
 10
-24.8880197419
 20
27.756571235
 30
0.0
 10
-24.8826343898
 20
27.7892557505
 30
0.0
 10
-24.8738514099
 20
27.822407696
 30
0.0
 10
-24.863201328
 20
27.8516440816
 30
0.0
 10
-24.8551590446
 20
27.8695516096
 30
0.0
 10
-24.8517170025
 20
27.8766564799
 30
0.0
 11
-24.8893055034
 21
27.7243890744
 31
0.0
 11
-24.8875176271
 21
27.7559973382
 31
0.0
 11
-24.8821901315
 21
27.788754268
 31
0.0
 11
-24.873430793
 21
27.8219970874
 31
0.0
 11
-24.8614168177
 21
27.8550533421
 31
0.0
 11
-24.8517170025
 21
27.8766564799
 31
0.0
  0
SPLINE
  5
498
100
AcDbEntity
  8
PORTATASTO
100
AcDbSpline
 62
253
  6
CONTINUOUS
 70
0
 71
3
 72
14
 73
10
 74
8
 42
0.0000001
 43
0.0000001
 44
0.0000000001
 12
0.0869920683
 22
0.1795641485
 32
0.0
 13
0.1738022251
 23
0.0981016846
 33
0.0
 40
0.0
 40
0.0
 40
0.0
 40
0.0
 40
0.0594463549
 40
0.2371663724
 40
0.4122312226
 40
0.5825355804
 40
0.7461808724
 40
0.901621686
 40
1.0
 40
1.0
 40
1.0
 40
1.0
 10
-24.8517170025
 20
27.8766564799
 30
0.0
 10
-24.8499932154
 20
27.8802146246
 30
0.0
 10
-24.8429095297
 20
27.8943101639
 30
0.0
 10
-24.8291902109
 20
27.9180778994
 30
0.0
 10
-24.8091891405
 20
27.9465877111
 30
0.0
 10
-24.7872550696
 20
27.972427217
 30
0.0
 10
-24.7638192105
 20
27.9950840567
 30
0.0
 10
-24.741860625
 20
28.0121517356
 30
0.0
 10
-24.7275222959
 20
28.0211206364
 30
0.0
 10
-24.7218228393
 20
28.0243376625
 30
0.0
 11
-24.8517170025
 21
27.8766564799
 31
0.0
 11
-24.8463912781
 21
27.8872543151
 31
0.0
 11
-24.8286581583
 21
27.917948653
 31
0.0
 11
-24.8085763056
 21
27.9465153781
 31
0.0
 11
-24.7865515363
 21
27.9723772314
 31
0.0
 11
-24.7630308503
 21
27.9950096908
 31
0.0
 11
-24.7384887997
 21
28.0139565219
 31
0.0
 11
-24.7218228393
 21
28.0243376625
 31
0.0
  0
SPLINE
  5
499
100
AcDbEntity
  8
PORTATASTO
100
AcDbSpline
 62
253
  6
CONTINUOUS
 70
0
 71
3
 72
12
 73
8
 74
6
 42
0.0000001
 43
0.0000001
 44
0.0000000001
 12
-0.105075395
 22
0.05198689
 32
0.0
 13
-0.1046068627
 23
-0.053485869
 33
0.0
 40
0.0
 40
0.0
 40
0.0
 40
0.0
 40
0.2328889945
 40
0.4495112485
 40
0.6519220999
 40
0.8438975281
 40
1.0
 40
1.0
 40
1.0
 40
1.0
 10
-11.3668139096
 20
21.3554977595
 30
0.0
 10
-11.3749708773
 20
21.3595334844
 30
0.0
 10
-11.3912685508
 20
21.3662857684
 30
0.0
 10
-11.4161749043
 20
21.3721916784
 30
0.0
 10
-11.4401814042
 20
21.3733376452
 30
0.0
 10
-11.4615813254
 20
21.3698133417
 30
0.0
 10
-11.4743282966
 20
21.3647942091
 30
0.0
 10
-11.4797714265
 20
21.362011117
 30
0.0
 11
-11.3668139096
 21
21.3554977595
 31
0.0
 11
-11.3920933747
 21
21.3658107326
 31
0.0
 11
-11.416839399
 21
21.3715159606
 31
0.0
 11
-11.4405482422
 21
21.3724973055
 31
0.0
 11
-11.4627372776
 21
21.3687347907
 31
0.0
 11
-11.4797714265
 21
21.362011117
 31
0.0
  0
SPLINE
  5
49A
100
AcDbEntity
  8
PORTATASTO
100
AcDbSpline
 62
253
  6
CONTINUOUS
 70
0
 71
3
 72
12
 73
8
 74
6
 42
0.0000001
 43
0.0000001
 44
0.0000000001
 12
0.0
 22
0.1580720269
 32
0.0
 13
0.0689400312
 23
0.142302146
 33
0.0
 40
0.0
 40
0.0
 40
0.0
 40
0.0
 40
0.2002807734
 40
0.410231436
 40
0.627711274
 40
0.8502158163
 40
1.0
 40
1.0
 40
1.0
 40
1.0
 10
-11.5426650085
 20
21.0510688269
 30
0.0
 10
-11.5426650085
 20
21.0616217562
 30
0.0
 10
-11.541379247
 20
21.0832509876
 30
0.0
 10
-11.5359938949
 20
21.1159355031
 30
0.0
 10
-11.527210915
 20
21.1490874485
 30
0.0
 10
-11.5165608331
 20
21.1783238342
 30
0.0
 10
-11.5085185497
 20
21.1962313622
 30
0.0
 10
-11.5050765076
 20
21.2033362324
 30
0.0
 11
-11.5426650085
 21
21.0510688269
 31
0.0
 11
-11.5408771322
 21
21.0826770908
 31
0.0
 11
-11.5355496366
 21
21.1154340206
 31
0.0
 11
-11.5267902981
 21
21.1486768399
 31
0.0
 11
-11.5147763228
 21
21.1817330946
 31
0.0
 11
-11.5050765076
 21
21.2033362324
 31
0.0
  0
SPLINE
  5
49B
100
AcDbEntity
  8
PORTATASTO
100
AcDbSpline
 62
253
  6
CONTINUOUS
 70
0
 71
3
 72
14
 73
10
 74
8
 42
0.0000001
 43
0.0000001
 44
0.0000000001
 12
0.0869920683
 22
0.1795641485
 32
0.0
 13
0.1738022251
 23
0.0981016846
 33
0.0
 40
0.0
 40
0.0
 40
0.0
 40
0.0
 40
0.0594463549
 40
0.2371663724
 40
0.4122312226
 40
0.5825355804
 40
0.7461808724
 40
0.901621686
 40
1.0
 40
1.0
 40
1.0
 40
1.0
 10
-11.5050765076
 20
21.2033362324
 30
0.0
 10
-11.5033527205
 20
21.2068943771
 30
0.0
 10
-11.4962690348
 20
21.2209899164
 30
0.0
 10
-11.482549716
 20
21.244757652
 30
0.0
 10
-11.4625486456
 20
21.2732674637
 30
0.0
 10
-11.4406145747
 20
21.2991069695
 30
0.0
 10
-11.4171787156
 20
21.3217638092
 30
0.0
 10
-11.3952201301
 20
21.3388314882
 30
0.0
 10
-11.380881801
 20
21.3478003889
 30
0.0
 10
-11.3751823444
 20
21.351017415
 30
0.0
 11
-11.5050765076
 21
21.2033362324
 31
0.0
 11
-11.4997507832
 21
21.2139340676
 31
0.0
 11
-11.4820176634
 21
21.2446284055
 31
0.0
 11
-11.4619358107
 21
21.2731951306
 31
0.0
 11
-11.4399110414
 21
21.299056984
 31
0.0
 11
-11.4163903554
 21
21.3216894434
 31
0.0
 11
-11.3918483048
 21
21.3406362744
 31
0.0
 11
-11.3751823444
 21
21.351017415
 31
0.0
  0
SPLINE
  5
49C
100
AcDbEntity
  8
PORTATASTO
100
AcDbSpline
 62
253
  6
CONTINUOUS
 70
0
 71
3
 72
18
 73
14
 74
12
 42
0.0000001
 43
0.0000001
 44
0.0000000001
 12
-0.3274336833
 22
-0.1658166109
 32
0.0
 13
0.0
 23
-0.3670258376
 33
0.0
 40
0.0
 40
0.0
 40
0.0
 40
0.0
 40
0.079422804
 40
0.1638981722
 40
0.2528307501
 40
0.3453754709
 40
0.4405064244
 40
0.537077953
 40
0.633880772
 40
0.7296955712
 40
0.8233462304
 40
0.9137547197
 40
1.0
 40
1.0
 40
1.0
 40
1.0
 10
-10.1357700553
 20
20.7399758324
 30
0.0
 10
-10.1444386224
 20
20.735585959
 30
0.0
 10
-10.1616943385
 20
20.7252413113
 30
0.0
 10
-10.1861625217
 20
20.7062177052
 30
0.0
 10
-10.209594824
 20
20.6835591121
 30
0.0
 10
-10.2315247971
 20
20.6577193923
 30
0.0
 10
-10.2515214502
 20
20.6292110176
 30
0.0
 10
-10.2691870471
 20
20.5986019013
 30
0.0
 10
-10.2841699559
 20
20.5665018854
 30
0.0
 10
-10.2961713927
 20
20.5335512519
 30
0.0
 10
-10.3049519324
 20
20.5004040529
 30
0.0
 10
-10.3103357665
 20
20.467724336
 30
0.0
 10
-10.3116211542
 20
20.4460983152
 30
0.0
 10
-10.3116211542
 20
20.4355468998
 30
0.0
 11
-10.1357700553
 21
20.7399758324
 31
0.0
 11
-10.1608350079
 21
20.7250935091
 31
0.0
 11
-10.1853743833
 21
20.7061433922
 31
0.0
 11
-10.2088919497
 21
20.6835086883
 31
0.0
 11
-10.2309121385
 21
20.657647113
 31
0.0
 11
-10.2509896603
 21
20.6290816355
 31
0.0
 11
-10.2687185104
 21
20.5983899028
 31
0.0
 11
-10.2837401787
 21
20.5661925586
 31
0.0
 11
-10.2957508989
 21
20.5331406932
 31
0.0
 11
-10.3045077921
 21
20.4999026765
 31
0.0
 11
-10.3098337777
 21
20.4671506431
 31
0.0
 11
-10.3116211542
 21
20.4355468998
 31
0.0
  0
SPLINE
  5
49D
100
AcDbEntity
  8
PORTATASTO
100
AcDbSpline
 62
253
  6
CONTINUOUS
 70
0
 71
3
 72
18
 73
14
 74
12
 42
0.0000001
 43
0.0000001
 44
0.0000000001
 12
-0.0015838354
 22
0.3677667756
 32
0.0
 13
-0.3282452006
 23
0.1658613822
 33
0.0
 40
0.0
 40
0.0
 40
0.0
 40
0.0
 40
0.0862298917
 40
0.1766966374
 40
0.2704573358
 40
0.3664103845
 40
0.4633549994
 40
0.5600473248
 40
0.6552540094
 40
0.7478094658
 40
0.836663259
 40
0.9209608649
 40
1.0
 40
1.0
 40
1.0
 40
1.0
 10
-9.9589957832
 20
20.4350853132
 30
0.0
 10
-9.9590413079
 20
20.445656143
 30
0.0
 10
-9.9604209693
 20
20.4673253623
 30
0.0
 10
-9.9659432091
 20
20.5000686224
 30
0.0
 10
-9.9748606413
 20
20.5332896572
 30
0.0
 10
-9.9869935551
 20
20.5663183042
 30
0.0
 10
-10.0020982558
 20
20.5984943417
 30
0.0
 10
-10.019871369
 20
20.6291714429
 30
0.0
 10
-10.0399566852
 20
20.6577343612
 30
0.0
 10
-10.0619515665
 20
20.6836098719
 30
0.0
 10
-10.0854207618
 20
20.7062816689
 30
0.0
 10
-10.1098843377
 20
20.7252855312
 30
0.0
 10
-10.127121983
 20
20.7356059857
 30
0.0
 10
-10.1357700553
 20
20.7399758324
 30
0.0
 11
-9.9589957832
 21
20.4350853132
 31
0.0
 11
-9.9609185338
 21
20.4667397546
 31
0.0
 11
-9.9663828064
 21
20.4995589455
 31
0.0
 11
-9.9752773218
 21
20.5328744492
 31
0.0
 11
-9.9874209423
 21
20.5660078575
 31
0.0
 11
-10.0025663396
 21
20.5982844362
 31
0.0
 11
-10.0204050674
 21
20.6290469593
 31
0.0
 11
-10.0405737431
 21
20.6576689321
 31
0.0
 11
-10.0626620805
 21
20.6835681257
 31
0.0
 11
-10.086218831
 21
20.7062157868
 31
0.0
 11
-10.110765539
 21
20.7251523176
 31
0.0
 11
-10.1357700553
 21
20.7399758324
 31
0.0
  0
SPLINE
  5
49E
100
AcDbEntity
  8
PORTATASTO
100
AcDbSpline
 62
253
  6
CONTINUOUS
 70
0
 71
3
 72
18
 73
14
 74
12
 42
0.0000001
 43
0.0000001
 44
0.0000000001
 12
0.3246495934
 22
-0.1623247967
 32
0.0
 13
0.3253245784
 23
0.1609677508
 33
0.0
 40
0.0
 40
0.0
 40
0.0
 40
0.0
 40
0.0805600317
 40
0.1670785676
 40
0.2584318395
 40
0.353391101
 40
0.4505764045
 40
0.5485331093
 40
0.645776605
 40
0.7408481865
 40
0.8323689073
 40
0.9190982169
 40
1.0
 40
1.0
 40
1.0
 40
1.0
 10
-10.3116211542
 20
20.4355468998
 30
0.0
 10
-10.302903227
 20
20.4311879362
 30
0.0
 10
-10.284283281
 20
20.4232046378
 30
0.0
 10
-10.2544561683
 20
20.4136947623
 30
0.0
 10
-10.2222303028
 20
20.4063737319
 30
0.0
 10
-10.1882610358
 20
20.4013935795
 30
0.0
 10
-10.153223373
 20
20.3988538032
 30
0.0
 10
-10.1178182552
 20
20.3988059431
 30
0.0
 10
-10.0827532257
 20
20.4012510074
 30
0.0
 10
-10.0487294438
 20
20.4061394873
 30
0.0
 10
-10.016423367
 20
20.4133738086
 30
0.0
 10
-9.986480963
 20
20.4228073855
 30
0.0
 10
-9.967768896
 20
20.4307444539
 30
0.0
 10
-9.9589957832
 20
20.4350853132
 30
0.0
 11
-10.3116211542
 21
20.4355468998
 31
0.0
 11
-10.2847930539
 21
20.4239159757
 31
0.0
 11
-10.2549005154
 21
20.4142920268
 31
0.0
 11
-10.2225798402
 21
20.4068855754
 31
0.0
 11
-10.1884829285
 21
20.4018462281
 31
0.0
 11
-10.1533013824
 21
20.3992763709
 31
0.0
 11
-10.1177461408
 21
20.3992279426
 31
0.0
 11
-10.0825365528
 21
20.4017019838
 31
0.0
 11
-10.0483848537
 21
20.406648487
 31
0.0
 11
-10.0159819331
 21
20.4139674113
 31
0.0
 11
-9.9859832598
 21
20.4235107193
 31
0.0
 11
-9.9589957832
 21
20.4350853132
 31
0.0
  0
SPLINE
  5
49F
100
AcDbEntity
  8
PORTATASTO
100
AcDbSpline
 62
253
  6
CONTINUOUS
 70
0
 71
3
 72
17
 73
13
 74
11
 42
0.0000001
 43
0.0000001
 44
0.0000000001
 12
-0.1070926538
 22
-0.2789892123
 32
0.0
 13
-0.2929479529
 23
0.0611060668
 33
0.0
 40
0.0
 40
0.0
 40
0.0
 40
0.0
 40
0.117387821
 40
0.2325750288
 40
0.3448462271
 40
0.4536747247
 40
0.5587747311
 40
0.6601470123
 40
0.7581101567
 40
0.8533057292
 40
0.9466639717
 40
1.0
 40
1.0
 40
1.0
 40
1.0
 10
-6.8626267883
 20
18.7922596923
 30
0.0
 10
-6.8668172461
 20
18.7813430471
 30
0.0
 10
-6.8763376196
 20
18.7601572755
 30
0.0
 10
-6.8939846126
 20
18.730596435
 30
0.0
 10
-6.9145582404
 20
18.7040495574
 30
0.0
 10
-6.937653131
 20
18.6810573631
 30
0.0
 10
-6.9628179924
 20
18.6620874454
 30
0.0
 10
-6.9895591247
 20
18.6475356701
 30
0.0
 10
-7.0173467709
 20
18.6377177659
 30
0.0
 10
-7.0456174527
 20
18.6328608553
 30
0.0
 10
-7.0698458294
 20
18.6330604778
 30
0.0
 10
-7.0843258143
 20
18.6352933809
 30
0.0
 10
-7.089534041
 20
18.6363797659
 30
0.0
 11
-6.8626267883
 21
18.7922596923
 31
0.0
 11
-6.877034347
 21
18.760275009
 31
0.0
 11
-6.8947174627
 21
18.7307419977
 31
0.0
 11
-6.915317354
 21
18.704259868
 31
0.0
 11
-6.9384160569
 21
18.681365931
 31
0.0
 11
-6.9635449021
 21
18.6625246965
 31
0.0
 11
-6.9901940316
 21
18.64811844
 31
0.0
 11
-7.0178227483
 21
18.6384394477
 31
0.0
 11
-7.0458704823
 21
18.6336840923
 31
0.0
 11
-7.0737681644
 21
18.6339488499
 31
0.0
 11
-7.089534041
 21
18.6363797659
 31
0.0
  0
SPLINE
  5
4A0
100
AcDbEntity
  8
PORTATASTO
100
AcDbSpline
 62
253
  6
CONTINUOUS
 70
0
 71
3
 72
17
 73
13
 74
11
 42
0.0000001
 43
0.0000001
 44
0.0000000001
 12
-0.1070926538
 22
-0.2789892123
 32
0.0
 13
-0.2929479529
 23
0.0611060668
 33
0.0
 40
0.0
 40
0.0
 40
0.0
 40
0.0
 40
0.117387821
 40
0.2325750288
 40
0.3448462271
 40
0.4536747247
 40
0.5587747311
 40
0.6601470123
 40
0.7581101567
 40
0.8533057292
 40
0.9466639717
 40
1.0
 40
1.0
 40
1.0
 40
1.0
 10
6.4840137066
 20
12.1189394449
 30
0.0
 10
6.4798232488
 20
12.1080227996
 30
0.0
 10
6.4703028753
 20
12.0868370281
 30
0.0
 10
6.4526558823
 20
12.0572761876
 30
0.0
 10
6.4320822545
 20
12.0307293099
 30
0.0
 10
6.4089873639
 20
12.0077371157
 30
0.0
 10
6.3838225025
 20
11.9887671979
 30
0.0
 10
6.3570813702
 20
11.9742154226
 30
0.0
 10
6.329293724
 20
11.9643975184
 30
0.0
 10
6.3010230422
 20
11.9595406078
 30
0.0
 10
6.2767946654
 20
11.9597402303
 30
0.0
 10
6.2623146806
 20
11.9619731334
 30
0.0
 10
6.2571064539
 20
11.9630595184
 30
0.0
 11
6.4840137066
 21
12.1189394449
 31
0.0
 11
6.4696061479
 21
12.0869547616
 31
0.0
 11
6.4519230322
 21
12.0574217503
 31
0.0
 11
6.4313231409
 21
12.0309396205
 31
0.0
 11
6.408224438
 21
12.0080456835
 31
0.0
 11
6.3830955928
 21
11.9892044491
 31
0.0
 11
6.3564464632
 21
11.9747981925
 31
0.0
 11
6.3288177466
 21
11.9651192002
 31
0.0
 11
6.3007700126
 21
11.9603638448
 31
0.0
 11
6.2728723305
 21
11.9606286024
 31
0.0
 11
6.2571064539
 21
11.9630595184
 31
0.0
  0
SPLINE
  5
4A1
100
AcDbEntity
  8
PORTATASTO
100
AcDbSpline
 62
253
  6
CONTINUOUS
 70
0
 71
3
 72
18
 73
14
 74
12
 42
0.0000001
 43
0.0000001
 44
0.0000000001
 12
-0.3253245715
 22
-0.1609677474
 32
0.0
 13
-0.3246495851
 23
0.1623247962
 33
0.0
 40
0.0
 40
0.0
 40
0.0
 40
0.0
 40
0.0808905037
 40
0.1676067215
 40
0.2591134666
 40
0.3541708501
 40
0.4514007463
 40
0.5493451494
 40
0.6465204955
 40
0.7414707758
 40
0.8328219349
 40
0.9193404073
 40
1.0
 40
1.0
 40
1.0
 40
1.0
 10
6.661716011
 20
-28.1409442322
 30
0.0
 10
6.6529441215
 20
-28.1452844862
 30
0.0
 10
6.6342348489
 20
-28.1532205456
 30
0.0
 10
6.6042970638
 20
-28.1626532943
 30
0.0
 10
6.5719960761
 20
-28.169887429
 30
0.0
 10
6.5379774854
 20
-28.1747764167
 30
0.0
 10
6.5029174147
 20
-28.1772226826
 30
0.0
 10
6.467516645
 20
-28.1771766774
 30
0.0
 10
6.4324826074
 20
-28.1746393334
 30
0.0
 10
6.3985155125
 20
-28.1696620451
 30
0.0
 10
6.3662903312
 20
-28.1623441272
 30
0.0
 10
6.3364510374
 20
-28.1528337678
 30
0.0
 10
6.3178193391
 20
-28.1448469952
 30
0.0
 10
6.309090638
 20
-28.1404826446
 30
0.0
 11
6.661716011
 21
-28.1409442322
 31
0.0
 11
6.6347323788
 21
-28.1525174014
 31
0.0
 11
6.604738411
 21
-28.1620598236
 31
0.0
 11
6.572340643
 21
-28.1693785328
 31
0.0
 11
6.5381942235
 21
-28.1743255304
 31
0.0
 11
6.5029896695
 21
-28.176800779
 31
0.0
 11
6.4674388913
 21
-28.1767542278
 31
0.0
 11
6.4322607907
 21
-28.1741868227
 31
0.0
 11
6.3981667304
 21
-28.1691504852
 31
0.0
 11
6.3658461488
 21
-28.1617470621
 31
0.0
 11
6.3359526205
 21
-28.1521262657
 31
0.0
 11
6.309090638
 21
-28.1404826446
 31
0.0
  0
SPLINE
  5
4A2
100
AcDbEntity
  8
PORTATASTO
100
AcDbSpline
 62
253
  6
CONTINUOUS
 70
0
 71
3
 72
18
 73
14
 74
12
 42
0.0000001
 43
0.0000001
 44
0.0000000001
 12
0.3246495851
 22
-0.1623247962
 32
0.0
 13
0.3253245715
 23
0.1609677474
 33
0.0
 40
0.0
 40
0.0
 40
0.0
 40
0.0
 40
0.0806595925
 40
0.1671780649
 40
0.2585292238
 40
0.3534795041
 40
0.4506548502
 40
0.5485992532
 40
0.6458291495
 40
0.7408865332
 40
0.8323932784
 40
0.9191094963
 40
1.0
 40
1.0
 40
1.0
 40
1.0
 10
-7.0375498569
 20
18.505646823
 30
0.0
 10
-7.0288211558
 20
18.5012824724
 30
0.0
 10
-7.0101894576
 20
18.4932956998
 30
0.0
 10
-6.9803501637
 20
18.4837853404
 30
0.0
 10
-6.9481249825
 20
18.4764674225
 30
0.0
 10
-6.9141578877
 20
18.4714901342
 30
0.0
 10
-6.8791238501
 20
18.4689527902
 30
0.0
 10
-6.8437230803
 20
18.468906785
 30
0.0
 10
-6.8086630096
 20
18.4713530508
 30
0.0
 10
-6.7746444189
 20
18.4762420386
 30
0.0
 10
-6.7423434311
 20
18.4834761732
 30
0.0
 10
-6.7124056461
 20
18.492908922
 30
0.0
 10
-6.6936963734
 20
18.5008449814
 30
0.0
 10
-6.6849244839
 20
18.5051852354
 30
0.0
 11
-7.0375498569
 21
18.505646823
 31
0.0
 11
-7.0106878745
 21
18.4940032019
 31
0.0
 11
-6.9807943462
 21
18.4843824055
 31
0.0
 11
-6.9484737647
 21
18.4769789824
 31
0.0
 11
-6.9143797043
 21
18.4719426449
 31
0.0
 11
-6.8792016038
 21
18.4693752398
 31
0.0
 11
-6.8436508256
 21
18.4693286886
 31
0.0
 11
-6.8084462715
 21
18.4718039372
 31
0.0
 11
-6.7742998519
 21
18.4767509347
 31
0.0
 11
-6.7419020839
 21
18.484069644
 31
0.0
 11
-6.7119081162
 21
18.4936120662
 31
0.0
 11
-6.6849244839
 21
18.5051852354
 31
0.0
  0
SPLINE
  5
4A3
100
AcDbEntity
  8
PORTATASTO
100
AcDbSpline
 62
253
  6
CONTINUOUS
 70
0
 71
3
 72
18
 73
14
 74
12
 42
0.0000001
 43
0.0000001
 44
0.0000000001
 12
0.3246495851
 22
-0.1623247962
 32
0.0
 13
0.3253245715
 23
0.1609677474
 33
0.0
 40
0.0
 40
0.0
 40
0.0
 40
0.0
 40
0.0806595925
 40
0.1671780649
 40
0.2585292238
 40
0.3534795041
 40
0.4506548502
 40
0.5485992532
 40
0.6458291495
 40
0.7408865332
 40
0.8323932784
 40
0.9191094963
 40
1.0
 40
1.0
 40
1.0
 40
1.0
 10
6.309090638
 20
11.8323265756
 30
0.0
 10
6.3178193391
 20
11.8279622249
 30
0.0
 10
6.3364510373
 20
11.8199754524
 30
0.0
 10
6.3662903312
 20
11.810465093
 30
0.0
 10
6.3985155124
 20
11.8031471751
 30
0.0
 10
6.4324826072
 20
11.7981698867
 30
0.0
 10
6.4675166448
 20
11.7956325428
 30
0.0
 10
6.5029174146
 20
11.7955865375
 30
0.0
 10
6.5379774852
 20
11.7980328034
 30
0.0
 10
6.571996076
 20
11.8029217911
 30
0.0
 10
6.6042970638
 20
11.8101559258
 30
0.0
 10
6.6342348488
 20
11.8195886745
 30
0.0
 10
6.6529441215
 20
11.8275247339
 30
0.0
 10
6.661716011
 20
11.831864988
 30
0.0
 11
6.309090638
 21
11.8323265756
 31
0.0
 11
6.3359526204
 21
11.8206829545
 31
0.0
 11
6.3658461487
 21
11.811062158
 31
0.0
 11
6.3981667302
 21
11.803658735
 31
0.0
 11
6.4322607906
 21
11.7986223975
 31
0.0
 11
6.4674388911
 21
11.7960549924
 31
0.0
 11
6.5029896693
 21
11.7960084412
 31
0.0
 11
6.5381942234
 21
11.7984836897
 31
0.0
 11
6.572340643
 21
11.8034306873
 31
0.0
 11
6.604738411
 21
11.8107493965
 31
0.0
 11
6.6347323787
 21
11.8202918188
 31
0.0
 11
6.661716011
 21
11.831864988
 31
0.0
  0
SPLINE
  5
4A4
100
AcDbEntity
  8
PORTATASTO
100
AcDbSpline
 62
253
  6
CONTINUOUS
 70
0
 71
3
 72
18
 73
14
 74
12
 42
0.0000001
 43
0.0000001
 44
0.0000000001
 12
0.316712193
 22
-0.160487659
 32
0.0
 13
0.1868711975
 23
-0.3018974287
 33
0.0
 40
0.0
 40
0.0
 40
0.0
 40
0.0
 40
0.083132314
 40
0.173059602
 40
0.268176759
 40
0.3667389532
 40
0.4669124929
 40
0.5668230063
 40
0.6646027168
 40
0.7584378387
 40
0.8466172898
 40
0.9275849004
 40
1.0
 40
1.0
 40
1.0
 40
1.0
 10
6.2197766828
 20
-28.3717140146
 30
0.0
 10
6.2285530219
 20
-28.3761612514
 30
0.0
 10
6.2465216178
 20
-28.3860198168
 30
0.0
 10
6.2735241415
 20
-28.4027214256
 30
0.0
 10
6.3012415438
 20
-28.4216713997
 30
0.0
 10
6.329112091
 20
-28.4424893831
 30
0.0
 10
6.3565726593
 20
-28.4647569155
 30
0.0
 10
6.3830681402
 20
-28.4880244196
 30
0.0
 10
6.4080640049
 20
-28.511821462
 30
0.0
 10
6.4310571111
 20
-28.5356661514
 30
0.0
 10
6.4515881871
 20
-28.5590767111
 30
0.0
 10
6.4692479249
 20
-28.581578047
 30
0.0
 10
6.4795029411
 20
-28.5965824645
 30
0.0
 10
6.4840137066
 20
-28.6038697753
 30
0.0
 11
6.2197766828
 21
-28.3717140146
 31
0.0
 11
6.2456907229
 21
-28.3858448646
 31
0.0
 11
6.2728723304
 21
-28.4025965946
 31
0.0
 11
6.3007700125
 21
-28.4216293267
 31
0.0
 11
6.3288177464
 21
-28.4425569031
 31
0.0
 11
6.3564464631
 21
-28.4649547202
 31
0.0
 11
6.3830955927
 21
-28.488368343
 31
0.0
 11
6.408224438
 21
-28.5123227242
 31
0.0
 11
6.4313231409
 21
-28.5363318385
 31
0.0
 11
6.4519230322
 21
-28.5599085461
 31
0.0
 11
6.4696061479
 21
-28.5825744851
 31
0.0
 11
6.4840137066
 21
-28.6038697753
 31
0.0
  0
SPLINE
  5
4A5
100
AcDbEntity
  8
PORTATASTO
100
AcDbSpline
 62
253
  6
CONTINUOUS
 70
0
 71
3
 72
16
 73
12
 74
10
 42
0.0000001
 43
0.0000001
 44
0.0000000001
 12
0.0000000116
 22
-0.252579449
 32
0.0
 13
-0.1625428153
 23
-0.1933292819
 33
0.0
 40
0.0
 40
0.0
 40
0.0
 40
0.0
 40
0.101180106
 40
0.2073368143
 40
0.3174493626
 40
0.4299455758
 40
0.5439979907
 40
0.6592371244
 40
0.774710542
 40
0.8888335701
 40
1.0
 40
1.0
 40
1.0
 40
1.0
 10
6.3090906394
 20
-28.1404838724
 30
0.0
 10
6.3090906398
 20
-28.1490025442
 30
0.0
 10
6.3082423918
 20
-28.1664670725
 30
0.0
 10
6.30461703
 20
-28.1929771324
 30
0.0
 10
6.2986334751
 20
-28.2200329163
 30
0.0
 10
6.2903864271
 20
-28.2471791545
 30
0.0
 10
6.2799988114
 20
-28.2740425054
 30
0.0
 10
6.2675907158
 20
-28.3003112819
 30
0.0
 10
6.2533221949
 20
-28.3256254148
 30
0.0
 10
6.2374439088
 20
-28.3495500758
 30
0.0
 10
6.2257997252
 20
-28.3645501771
 30
0.0
 10
6.2197766237
 20
-28.3717140858
 30
0.0
 11
6.3090906394
 21
-28.1404838724
 31
0.0
 11
6.3079008708
 21
-28.1660121777
 31
0.0
 11
6.3043089291
 21
-28.1925834984
 31
0.0
 11
6.2983339075
 21
-28.2197462622
 31
0.0
 11
6.2900952201
 21
-28.2469398751
 31
0.0
 11
6.2797172973
 21
-28.2738128918
 31
0.0
 11
6.2672890238
 21
-28.3001331808
 31
0.0
 11
6.2529632454
 21
-28.3255386922
 31
0.0
 11
6.237011937
 21
-28.3495479398
 31
0.0
 11
6.2197766237
 21
-28.3717140858
 31
0.0
  0
SPLINE
  5
4A6
100
AcDbEntity
  8
PORTATASTO
100
AcDbSpline
 62
253
  6
CONTINUOUS
 70
0
 71
3
 72
12
 73
8
 74
6
 42
0.0000001
 43
0.0000001
 44
0.0000000001
 12
-0.0992113636
 22
0.0496056818
 32
0.0
 13
-0.0168818249
 23
0.1099498659
 33
0.0
 40
0.0
 40
0.0
 40
0.0
 40
0.0
 40
0.2423757552
 40
0.4620472832
 40
0.65965851
 40
0.8381777041
 40
1.0
 40
1.0
 40
1.0
 40
1.0
 10
-8.9794029267
 20
19.5194665767
 30
0.0
 10
-8.9874184031
 20
19.5234743149
 30
0.0
 10
-9.0023093875
 20
19.5319490922
 30
0.0
 10
-9.0217564118
 20
19.5468142451
 30
0.0
 10
-9.0368866229
 20
19.5629981451
 30
0.0
 10
-9.0472835482
 20
19.5801585617
 30
0.0
 10
-9.0509805842
 20
19.5923452991
 30
0.0
 10
-9.0518912027
 20
19.598276079
 30
0.0
 11
-8.9794029267
 21
19.5194665767
 31
0.0
 11
-9.0026917388
 21
19.5328986158
 31
0.0
 11
-9.0219342741
 21
19.5478466283
 31
0.0
 11
-9.0367414886
 21
19.5640084697
 31
0.0
 11
-9.0468136786
 21
19.5810571138
 31
0.0
 11
-9.0518912027
 21
19.598276079
 31
0.0
  0
SPLINE
  5
4A7
100
AcDbEntity
  8
PORTATASTO
100
AcDbSpline
 62
253
  6
CONTINUOUS
 70
0
 71
3
 72
14
 73
10
 74
8
 42
0.0000001
 43
0.0000001
 44
0.0000000001
 12
0.0
 22
-0.1577570491
 32
0.0
 13
0.1413701496
 23
-0.0707269237
 33
0.0
 40
0.0
 40
0.0
 40
0.0
 40
0.0
 40
0.1743677075
 40
0.3386590498
 40
0.4925403877
 40
0.6365867691
 40
0.7723296719
 40
0.9021624116
 40
1.0
 40
1.0
 40
1.0
 40
1.0
 10
-7.7483590724
 20
18.9039446496
 30
0.0
 10
-7.7483590724
 20
18.8947754046
 30
0.0
 10
-7.7474383561
 20
18.876946874
 30
0.0
 10
-7.7430269271
 20
18.8513568189
 30
0.0
 10
-7.7356743603
 20
18.8280998248
 30
0.0
 10
-7.7254750688
 20
18.8075862342
 30
0.0
 10
-7.7125647928
 20
18.7901863837
 30
0.0
 10
-7.6982810128
 20
18.777285328
 30
0.0
 10
-7.6879981741
 20
18.7710344275
 30
0.0
 10
-7.683387736
 20
18.7687278436
 30
0.0
 11
-7.7483590724
 21
18.9039446496
 31
0.0
 11
-7.7468509475
 21
18.8764782875
 31
0.0
 11
-7.7423440457
 21
18.8509550306
 31
0.0
 11
-7.7349129548
 21
18.8278445017
 31
0.0
 11
-7.7246865711
 21
18.8075512431
 31
0.0
 11
-7.7118382438
 21
18.7904194889
 31
0.0
 11
-7.6965895176
 21
18.7767450639
 31
0.0
 11
-7.683387736
 21
18.7687278436
 31
0.0
  0
SPLINE
  5
4A8
100
AcDbEntity
  8
PORTATASTO
100
AcDbSpline
 62
253
  6
CONTINUOUS
 70
0
 71
3
 72
18
 73
14
 74
12
 42
0.0000001
 43
0.0000001
 44
0.0000000001
 12
-0.3253245695
 22
-0.1609677464
 32
0.0
 13
-0.3246495845
 23
0.1623247923
 33
0.0
 40
0.0
 40
0.0
 40
0.0
 40
0.0
 40
0.0808903938
 40
0.1676064876
 40
0.2591130993
 40
0.3541703561
 40
0.4514001688
 40
0.549344556
 40
0.6465199513
 40
0.7414703353
 40
0.8328216347
 40
0.9193402632
 40
1.0
 40
1.0
 40
1.0
 40
1.0
 10
-7.3957337014
 20
18.903483063
 30
0.0
 10
-7.4045055789
 20
18.8991428149
 30
0.0
 10
-7.4232148246
 20
18.8912067652
 30
0.0
 10
-7.4531525652
 20
18.8817740244
 30
0.0
 10
-7.4854535053
 20
18.8745398912
 30
0.0
 10
-7.5194720529
 20
18.8696508977
 30
0.0
 10
-7.554532095
 20
18.8672046198
 30
0.0
 10
-7.5899328585
 20
18.86725061
 30
0.0
 10
-7.6249669135
 20
18.8697879403
 30
0.0
 10
-7.6589340453
 20
18.8747652204
 30
0.0
 10
-7.6911592761
 20
18.8820831381
 30
0.0
 10
-7.7209986231
 20
18.8915935064
 30
0.0
 10
-7.7396303557
 20
18.8995802912
 30
0.0
 10
-7.7483590724
 20
18.9039446496
 30
0.0
 11
-7.3957337014
 21
18.903483063
 31
0.0
 11
-7.422717296
 21
18.8919099077
 31
0.0
 11
-7.452711219
 21
18.8823674938
 31
0.0
 11
-7.4851089375
 21
18.8750487866
 31
0.0
 11
-7.5192553096
 21
18.8701017839
 31
0.0
 11
-7.5544598322
 21
18.8676265234
 31
0.0
 11
-7.5900106044
 21
18.8676730593
 31
0.0
 11
-7.6251887237
 21
18.8702404508
 31
0.0
 11
-7.6592828231
 21
18.8752767802
 31
0.0
 11
-7.6916034566
 21
18.8826802037
 31
0.0
 11
-7.7214970409
 21
18.8923010104
 31
0.0
 11
-7.7483590724
 21
18.9039446496
 31
0.0
  0
SPLINE
  5
4A9
100
AcDbEntity
  8
PORTATASTO
100
AcDbSpline
 62
253
  6
CONTINUOUS
 70
0
 71
3
 72
12
 73
8
 74
6
 42
0.0000001
 43
0.0000001
 44
0.0000000001
 12
-0.0992113636
 22
0.0496056818
 32
0.0
 13
-0.0168818249
 23
0.1099498659
 33
0.0
 40
0.0
 40
0.0
 40
0.0
 40
0.0
 40
0.2423757552
 40
0.4620472832
 40
0.65965851
 40
0.8381777041
 40
1.0
 40
1.0
 40
1.0
 40
1.0
 10
4.3672375682
 20
12.8461463293
 30
0.0
 10
4.3592220918
 20
12.8501540675
 30
0.0
 10
4.3443311074
 20
12.8586288448
 30
0.0
 10
4.3248840831
 20
12.8734939977
 30
0.0
 10
4.309753872
 20
12.8896778976
 30
0.0
 10
4.2993569467
 20
12.9068383143
 30
0.0
 10
4.2956599107
 20
12.9190250516
 30
0.0
 10
4.2947492922
 20
12.9249558315
 30
0.0
 11
4.3672375682
 21
12.8461463293
 31
0.0
 11
4.3439487561
 21
12.8595783684
 31
0.0
 11
4.3247062208
 21
12.8745263808
 31
0.0
 11
4.3098990063
 21
12.8906882223
 31
0.0
 11
4.2998268163
 21
12.9077368663
 31
0.0
 11
4.2947492922
 21
12.9249558315
 31
0.0
  0
SPLINE
  5
4AA
100
AcDbEntity
  8
PORTATASTO
100
AcDbSpline
 62
253
  6
CONTINUOUS
 70
0
 71
3
 72
14
 73
10
 74
8
 42
0.0000001
 43
0.0000001
 44
0.0000000001
 12
0.0
 22
-0.1577570491
 32
0.0
 13
0.1413701496
 23
-0.0707269237
 33
0.0
 40
0.0
 40
0.0
 40
0.0
 40
0.0
 40
0.1743677075
 40
0.3386590498
 40
0.4925403877
 40
0.6365867691
 40
0.7723296719
 40
0.9021624116
 40
1.0
 40
1.0
 40
1.0
 40
1.0
 10
5.5982814225
 20
12.2306244021
 30
0.0
 10
5.5982814225
 20
12.2214551571
 30
0.0
 10
5.5992021388
 20
12.2036266265
 30
0.0
 10
5.6036135678
 20
12.1780365714
 30
0.0
 10
5.6109661346
 20
12.1547795773
 30
0.0
 10
5.6211654261
 20
12.1342659868
 30
0.0
 10
5.6340757021
 20
12.1168661363
 30
0.0
 10
5.6483594821
 20
12.1039650805
 30
0.0
 10
5.6586423208
 20
12.09771418
 30
0.0
 10
5.6632527589
 20
12.0954075961
 30
0.0
 11
5.5982814225
 21
12.2306244021
 31
0.0
 11
5.5997895474
 21
12.2031580401
 31
0.0
 11
5.6042964492
 21
12.1776347832
 31
0.0
 11
5.6117275401
 21
12.1545242542
 31
0.0
 11
5.6219539238
 21
12.1342309957
 31
0.0
 11
5.6348022511
 21
12.1170992414
 31
0.0
 11
5.6500509773
 21
12.1034248164
 31
0.0
 11
5.6632527589
 21
12.0954075961
 31
0.0
  0
SPLINE
  5
4AB
100
AcDbEntity
  8
PORTATASTO
100
AcDbSpline
 62
253
  6
CONTINUOUS
 70
0
 71
3
 72
18
 73
14
 74
12
 42
0.0000001
 43
0.0000001
 44
0.0000000001
 12
-0.3253245695
 22
-0.1609677464
 32
0.0
 13
-0.3246495845
 23
0.1623247923
 33
0.0
 40
0.0
 40
0.0
 40
0.0
 40
0.0
 40
0.0808903938
 40
0.1676064876
 40
0.2591130993
 40
0.3541703561
 40
0.4514001688
 40
0.549344556
 40
0.6465199513
 40
0.7414703353
 40
0.8328216347
 40
0.9193402632
 40
1.0
 40
1.0
 40
1.0
 40
1.0
 10
5.9509067935
 20
12.2301628155
 30
0.0
 10
5.942134916
 20
12.2258225674
 30
0.0
 10
5.9234256703
 20
12.2178865177
 30
0.0
 10
5.8934879297
 20
12.2084537769
 30
0.0
 10
5.8611869896
 20
12.2012196438
 30
0.0
 10
5.827168442
 20
12.1963306503
 30
0.0
 10
5.7921083999
 20
12.1938843724
 30
0.0
 10
5.7567076364
 20
12.1939303626
 30
0.0
 10
5.7216735814
 20
12.1964676928
 30
0.0
 10
5.6877064496
 20
12.2014449729
 30
0.0
 10
5.6554812188
 20
12.2087628906
 30
0.0
 10
5.6256418718
 20
12.2182732589
 30
0.0
 10
5.6070101392
 20
12.2262600438
 30
0.0
 10
5.5982814225
 20
12.2306244021
 30
0.0
 11
5.9509067935
 21
12.2301628155
 31
0.0
 11
5.9239231989
 21
12.2185896603
 31
0.0
 11
5.8939292759
 21
12.2090472464
 31
0.0
 11
5.8615315574
 21
12.2017285391
 31
0.0
 11
5.8273851853
 21
12.1967815365
 31
0.0
 11
5.7921806627
 21
12.1943062759
 31
0.0
 11
5.7566298904
 21
12.1943528119
 31
0.0
 11
5.7214517712
 21
12.1969202033
 31
0.0
 11
5.6873576718
 21
12.2019565327
 31
0.0
 11
5.6550370383
 21
12.2093599563
 31
0.0
 11
5.625143454
 21
12.2189807629
 31
0.0
 11
5.5982814225
 21
12.2306244021
 31
0.0
  0
SPLINE
  5
4AC
100
AcDbEntity
  8
PORTATASTO
100
AcDbSpline
 62
253
  6
CONTINUOUS
 70
0
 71
3
 72
18
 73
14
 74
12
 42
0.0000001
 43
0.0000001
 44
0.0000000001
 12
0.3246495895
 22
-0.1623247947
 32
0.0
 13
0.3253245745
 23
0.1609677488
 33
0.0
 40
0.0
 40
0.0
 40
0.0
 40
0.0
 40
0.0806657498
 40
0.1671911665
 40
0.2585507668
 40
0.3535097457
 40
0.4506936522
 40
0.5486460981
 40
0.6458825274
 40
0.7409452832
 40
0.8324506587
 40
0.9191646002
 40
1.0
 40
1.0
 40
1.0
 40
1.0
 10
5.5982814225
 20
-29.242184818
 30
0.0
 10
5.60701079
 20
-29.2465495018
 30
0.0
 10
5.6256439894
 20
-29.2545368206
 30
0.0
 10
5.6554858727
 20
-29.2640476645
 30
0.0
 10
5.6877140183
 20
-29.271365726
 30
0.0
 10
5.7216842999
 20
-29.2763427645
 30
0.0
 10
5.7567214629
 20
-29.278879433
 30
0.0
 10
5.792125041
 20
-29.2789243464
 30
0.0
 10
5.8271874361
 20
-29.2764766167
 30
0.0
 10
5.8612070828
 20
-29.2715859448
 30
0.0
 10
5.8935079046
 20
-29.2643501074
 30
0.0
 10
5.9234383739
 20
-29.2549177497
 30
0.0
 10
5.9421408795
 20
-29.246983702
 30
0.0
 10
5.9509067935
 20
-29.2426464046
 30
0.0
 11
5.5982814225
 21
-29.242184818
 31
0.0
 11
5.6251455008
 21
-29.2538292241
 31
0.0
 11
5.6550415257
 21
-29.2634504917
 31
0.0
 11
5.6873652086
 21
-29.270854099
 31
0.0
 11
5.7214624967
 21
-29.275890194
 31
0.0
 11
5.7566437625
 21
-29.2784569207
 31
0.0
 11
5.7921974617
 21
-29.2785023673
 31
0.0
 11
5.8274042891
 21
-29.2760256387
 31
0.0
 11
5.8615524177
 21
-29.2710768354
 31
0.0
 11
5.8939493215
 21
-29.2637565559
 31
0.0
 11
5.9239419391
 21
-29.2542126142
 31
0.0
 11
5.9509067935
 21
-29.2426464046
 31
0.0
  0
SPLINE
  5
4AD
100
AcDbEntity
  8
PORTATASTO
100
AcDbSpline
 62
253
  6
CONTINUOUS
 70
0
 71
3
 72
15
 73
11
 74
9
 42
0.0000001
 43
0.0000001
 44
0.0000000001
 12
-0.1611233065
 22
-0.1944930359
 32
0.0
 13
0.0
 23
-0.25256338
 33
0.0
 40
0.0
 40
0.0
 40
0.0
 40
0.0
 40
0.1257835055
 40
0.2541455604
 40
0.383608301
 40
0.5127437268
 40
0.6402030735
 40
0.7646613352
 40
0.8849330394
 40
1.0
 40
1.0
 40
1.0
 40
1.0
 10
5.6866697701
 20
-29.0104906442
 30
0.0
 10
5.6799142187
 20
-29.0186453161
 30
0.0
 10
5.6669817423
 20
-29.0357284795
 30
0.0
 10
5.6496581246
 20
-29.0630237659
 30
0.0
 10
5.63444754
 20
-29.0918719372
 30
0.0
 10
5.6216172511
 20
-29.1217715643
 30
0.0
 10
5.611385439
 20
-29.1522142759
 30
0.0
 10
5.6039253281
 20
-29.1826880182
 30
0.0
 10
5.5993638605
 20
-29.212673788
 30
0.0
 10
5.5982814225
 20
-29.2324975845
 30
0.0
 10
5.5982814225
 20
-29.242184818
 30
0.0
 11
5.6866697701
 21
-29.0104906442
 31
0.0
 11
5.6674694469
 21
-29.0358001866
 31
0.0
 11
5.6500818008
 21
-29.0631625197
 31
0.0
 11
5.634828333
 21
-29.0920841608
 31
0.0
 11
5.6219763581
 21
-29.122060103
 31
0.0
 11
5.611743867
 21
-29.1525821095
 31
0.0
 11
5.6043076324
 21
-29.1831234516
 31
0.0
 11
5.599794421
 21
-29.2131625288
 31
0.0
 11
5.5982814225
 21
-29.242184818
 31
0.0
  0
SPLINE
  5
4AE
100
AcDbEntity
  8
PORTATASTO
100
AcDbSpline
 62
253
  6
CONTINUOUS
 70
0
 71
3
 72
18
 73
14
 74
12
 42
0.0000001
 43
0.0000001
 44
0.0000000001
 12
-0.1868711972
 22
0.3018974282
 32
0.0
 13
-0.3167121923
 23
0.1604876591
 33
0.0
 40
0.0
 40
0.0
 40
0.0
 40
0.0
 40
0.0724149993
 40
0.1533824891
 40
0.2415618042
 40
0.3353967931
 40
0.433176412
 40
0.5330869019
 40
0.6332604865
 40
0.7318227842
 40
0.826940085
 40
0.916867534
 40
1.0
 40
1.0
 40
1.0
 40
1.0
 10
5.9509067935
 20
-29.2426464046
 30
0.0
 10
5.9463960343
 20
-29.2353591039
 30
0.0
 10
5.9361410337
 20
-29.2203547075
 30
0.0
 10
5.9184813249
 20
-29.1978534028
 30
0.0
 10
5.8979502834
 20
-29.1744428743
 30
0.0
 10
5.8749572116
 20
-29.150598211
 30
0.0
 10
5.8499613737
 20
-29.1268011832
 30
0.0
 10
5.8234659046
 20
-29.1035336784
 30
0.0
 10
5.7960053299
 20
-29.0812661305
 30
0.0
 10
5.7681347594
 20
-29.0604481205
 30
0.0
 10
5.7404173207
 20
-29.0414981141
 30
0.0
 10
5.7134147531
 20
-29.0247964734
 30
0.0
 10
5.6954461253
 20
-29.0149378892
 30
0.0
 10
5.6866697701
 20
-29.0104906442
 30
0.0
 11
5.9509067935
 21
-29.2426464046
 31
0.0
 11
5.9364992558
 21
-29.2213511433
 31
0.0
 11
5.9188161692
 21
-29.198685236
 31
0.0
 11
5.8982163137
 21
-29.1751085613
 31
0.0
 11
5.8751176484
 21
-29.1510994764
 31
0.0
 11
5.8499888322
 21
-29.1271451119
 31
0.0
 11
5.8233397145
 21
-29.1037314884
 31
0.0
 11
5.7957109906
 21
-29.0813336548
 31
0.0
 11
5.7676632317
 21
-29.0604060506
 31
0.0
 11
5.7397655109
 21
-29.0413732847
 31
0.0
 11
5.7125838569
 21
-29.0246215214
 31
0.0
 11
5.6866697701
 21
-29.0104906442
 31
0.0
  0
SPLINE
  5
4AF
100
AcDbEntity
  8
PORTATASTO
100
AcDbSpline
 62
253
  6
CONTINUOUS
 70
0
 71
3
 72
18
 73
14
 74
12
 42
0.0000001
 43
0.0000001
 44
0.0000000001
 12
-0.0015838354
 22
0.3677667756
 32
0.0
 13
-0.3282452006
 23
0.1658613822
 33
0.0
 40
0.0
 40
0.0
 40
0.0
 40
0.0
 40
0.0862298917
 40
0.1766966374
 40
0.2704573358
 40
0.3664103845
 40
0.4633549994
 40
0.5600473248
 40
0.6552540094
 40
0.7478094658
 40
0.836663259
 40
0.9209608649
 40
1.0
 40
1.0
 40
1.0
 40
1.0
 10
-7.3957337014
 20
19.1534542723
 30
0.0
 10
-7.395779226
 20
19.1640251021
 30
0.0
 10
-7.3971588875
 20
19.1856943214
 30
0.0
 10
-7.4026811273
 20
19.2184375815
 30
0.0
 10
-7.4115985595
 20
19.2516586163
 30
0.0
 10
-7.4237314733
 20
19.2846872633
 30
0.0
 10
-7.438836174
 20
19.3168633008
 30
0.0
 10
-7.4566092871
 20
19.347540402
 30
0.0
 10
-7.4766946034
 20
19.3761033203
 30
0.0
 10
-7.4986894847
 20
19.401978831
 30
0.0
 10
-7.52215868
 20
19.424650628
 30
0.0
 10
-7.5466222559
 20
19.4436544903
 30
0.0
 10
-7.5638599012
 20
19.4539749448
 30
0.0
 10
-7.5725079735
 20
19.4583447915
 30
0.0
 11
-7.3957337014
 21
19.1534542723
 31
0.0
 11
-7.397656452
 21
19.1851087137
 31
0.0
 11
-7.4031207246
 21
19.2179279046
 31
0.0
 11
-7.41201524
 21
19.2512434082
 31
0.0
 11
-7.4241588605
 21
19.2843768166
 31
0.0
 11
-7.4393042578
 21
19.3166533953
 31
0.0
 11
-7.4571429856
 21
19.3474159184
 31
0.0
 11
-7.4773116613
 21
19.3760378912
 31
0.0
 11
-7.4993999987
 21
19.4019370848
 31
0.0
 11
-7.5229567492
 21
19.4245847459
 31
0.0
 11
-7.5475034572
 21
19.4435212767
 31
0.0
 11
-7.5725079735
 21
19.4583447915
 31
0.0
  0
SPLINE
  5
4B0
100
AcDbEntity
  8
PORTATASTO
100
AcDbSpline
 62
253
  6
CONTINUOUS
 70
0
 71
3
 72
18
 73
14
 74
12
 42
0.0000001
 43
0.0000001
 44
0.0000000001
 12
0.3246495934
 22
-0.1623247967
 32
0.0
 13
0.3253245784
 23
0.1609677508
 33
0.0
 40
0.0
 40
0.0
 40
0.0
 40
0.0
 40
0.0805600317
 40
0.1670785676
 40
0.2584318395
 40
0.353391101
 40
0.4505764045
 40
0.5485331093
 40
0.645776605
 40
0.7408481865
 40
0.8323689073
 40
0.9190982169
 40
1.0
 40
1.0
 40
1.0
 40
1.0
 10
-7.7483590724
 20
19.1539158589
 30
0.0
 10
-7.7396411452
 20
19.1495568953
 30
0.0
 10
-7.7210211992
 20
19.1415735969
 30
0.0
 10
-7.6911940865
 20
19.1320637214
 30
0.0
 10
-7.658968221
 20
19.124742691
 30
0.0
 10
-7.624998954
 20
19.1197625386
 30
0.0
 10
-7.5899612912
 20
19.1172227623
 30
0.0
 10
-7.5545561734
 20
19.1171749022
 30
0.0
 10
-7.5194911439
 20
19.1196199665
 30
0.0
 10
-7.485467362
 20
19.1245084464
 30
0.0
 10
-7.4531612852
 20
19.1317427677
 30
0.0
 10
-7.4232188812
 20
19.1411763446
 30
0.0
 10
-7.4045068142
 20
19.149113413
 30
0.0
 10
-7.3957337014
 20
19.1534542723
 30
0.0
 11
-7.7483590724
 21
19.1539158589
 31
0.0
 11
-7.7215309721
 21
19.1422849348
 31
0.0
 11
-7.6916384336
 21
19.1326609859
 31
0.0
 11
-7.6593177584
 21
19.1252545345
 31
0.0
 11
-7.6252208467
 21
19.1202151872
 31
0.0
 11
-7.5900393006
 21
19.11764533
 31
0.0
 11
-7.554484059
 21
19.1175969017
 31
0.0
 11
-7.519274471
 21
19.1200709429
 31
0.0
 11
-7.4851227719
 21
19.1250174461
 31
0.0
 11
-7.4527198513
 21
19.1323363704
 31
0.0
 11
-7.422721178
 21
19.1418796784
 31
0.0
 11
-7.3957337014
 21
19.1534542723
 31
0.0
  0
SPLINE
  5
4B1
100
AcDbEntity
  8
PORTATASTO
100
AcDbSpline
 62
253
  6
CONTINUOUS
 70
0
 71
3
 72
18
 73
14
 74
12
 42
0.0000001
 43
0.0000001
 44
0.0000000001
 12
-0.3274336833
 22
-0.1658166109
 32
0.0
 13
0.0
 23
-0.3670258376
 33
0.0
 40
0.0
 40
0.0
 40
0.0
 40
0.0
 40
0.079422804
 40
0.1638981722
 40
0.2528307501
 40
0.3453754709
 40
0.4405064244
 40
0.537077953
 40
0.633880772
 40
0.7296955712
 40
0.8233462304
 40
0.9137547197
 40
1.0
 40
1.0
 40
1.0
 40
1.0
 10
-7.5725079735
 20
19.4583447915
 30
0.0
 10
-7.5811765406
 20
19.4539549181
 30
0.0
 10
-7.5984322567
 20
19.4436102704
 30
0.0
 10
-7.6229004399
 20
19.4245866643
 30
0.0
 10
-7.6463327422
 20
19.4019280712
 30
0.0
 10
-7.6682627153
 20
19.3760883514
 30
0.0
 10
-7.6882593684
 20
19.3475799767
 30
0.0
 10
-7.7059249653
 20
19.3169708604
 30
0.0
 10
-7.7209078741
 20
19.2848708445
 30
0.0
 10
-7.7329093109
 20
19.251920211
 30
0.0
 10
-7.7416898506
 20
19.218773012
 30
0.0
 10
-7.7470736847
 20
19.1860932951
 30
0.0
 10
-7.7483590724
 20
19.1644672743
 30
0.0
 10
-7.7483590724
 20
19.1539158589
 30
0.0
 11
-7.5725079735
 21
19.4583447915
 31
0.0
 11
-7.5975729261
 21
19.4434624682
 31
0.0
 11
-7.6221123015
 21
19.4245123513
 31
0.0
 11
-7.6456298679
 21
19.4018776474
 31
0.0
 11
-7.6676500567
 21
19.3760160721
 31
0.0
 11
-7.6877275785
 21
19.3474505946
 31
0.0
 11
-7.7054564286
 21
19.3167588619
 31
0.0
 11
-7.7204780969
 21
19.2845615177
 31
0.0
 11
-7.7324888171
 21
19.2515096523
 31
0.0
 11
-7.7412457103
 21
19.2182716356
 31
0.0
 11
-7.7465716959
 21
19.1855196022
 31
0.0
 11
-7.7483590724
 21
19.1539158589
 31
0.0
  0
SPLINE
  5
4B2
100
AcDbEntity
  8
PORTATASTO
100
AcDbSpline
 62
253
  6
CONTINUOUS
 70
0
 71
3
 72
12
 73
8
 74
6
 42
0.0000001
 43
0.0000001
 44
0.0000000001
 12
0.0
 22
0.1580720269
 32
0.0
 13
0.0689400312
 23
0.142302146
 33
0.0
 40
0.0
 40
0.0
 40
0.0
 40
0.0
 40
0.2002807734
 40
0.410231436
 40
0.627711274
 40
0.8502158163
 40
1.0
 40
1.0
 40
1.0
 40
1.0
 10
-8.9794029267
 20
19.769437786
 30
0.0
 10
-8.9794029267
 20
19.7799907153
 30
0.0
 10
-8.9781171652
 20
19.8016199467
 30
0.0
 10
-8.9727318131
 20
19.8343044622
 30
0.0
 10
-8.9639488332
 20
19.8674564076
 30
0.0
 10
-8.9532987513
 20
19.8966927933
 30
0.0
 10
-8.9452564679
 20
19.9146003213
 30
0.0
 10
-8.9418144258
 20
19.9217051915
 30
0.0
 11
-8.9794029267
 21
19.769437786
 31
0.0
 11
-8.9776150504
 21
19.8010460499
 31
0.0
 11
-8.9722875548
 21
19.8338029797
 31
0.0
 11
-8.9635282163
 21
19.867045799
 31
0.0
 11
-8.951514241
 21
19.9001020537
 31
0.0
 11
-8.9418144258
 21
19.9217051915
 31
0.0
  0
SPLINE
  5
4B3
100
AcDbEntity
  8
PORTATASTO
100
AcDbSpline
 62
253
  6
CONTINUOUS
 70
0
 71
3
 72
14
 73
10
 74
8
 42
0.0000001
 43
0.0000001
 44
0.0000000001
 12
0.0869920683
 22
0.1795641485
 32
0.0
 13
0.1738022251
 23
0.0981016846
 33
0.0
 40
0.0
 40
0.0
 40
0.0
 40
0.0
 40
0.0594463549
 40
0.2371663724
 40
0.4122312226
 40
0.5825355804
 40
0.7461808724
 40
0.901621686
 40
1.0
 40
1.0
 40
1.0
 40
1.0
 10
-8.9418144258
 20
19.9217051915
 30
0.0
 10
-8.9400906387
 20
19.9252633362
 30
0.0
 10
-8.933006953
 20
19.9393588755
 30
0.0
 10
-8.9192876342
 20
19.9631266111
 30
0.0
 10
-8.8992865638
 20
19.9916364228
 30
0.0
 10
-8.8773524929
 20
20.0174759286
 30
0.0
 10
-8.8539166338
 20
20.0401327683
 30
0.0
 10
-8.8319580483
 20
20.0572004473
 30
0.0
 10
-8.8176197192
 20
20.066169348
 30
0.0
 10
-8.8119202626
 20
20.0693863741
 30
0.0
 11
-8.9418144258
 21
19.9217051915
 31
0.0
 11
-8.9364887014
 21
19.9323030267
 31
0.0
 11
-8.9187555816
 21
19.9629973646
 31
0.0
 11
-8.8986737289
 21
19.9915640897
 31
0.0
 11
-8.8766489596
 21
20.0174259431
 31
0.0
 11
-8.8531282736
 21
20.0400584025
 31
0.0
 11
-8.828586223
 21
20.0590052335
 31
0.0
 11
-8.8119202626
 21
20.0693863741
 31
0.0
  0
SPLINE
  5
4B4
100
AcDbEntity
  8
PORTATASTO
100
AcDbSpline
 62
253
  6
CONTINUOUS
 70
0
 71
3
 72
12
 73
8
 74
6
 42
0.0000001
 43
0.0000001
 44
0.0000000001
 12
-0.105075395
 22
0.05198689
 32
0.0
 13
-0.1046068627
 23
-0.053485869
 33
0.0
 40
0.0
 40
0.0
 40
0.0
 40
0.0
 40
0.2328889945
 40
0.4495112485
 40
0.6519220999
 40
0.8438975281
 40
1.0
 40
1.0
 40
1.0
 40
1.0
 10
-8.8035518278
 20
20.0738667186
 30
0.0
 10
-8.8117087955
 20
20.0779024435
 30
0.0
 10
-8.828006469
 20
20.0846547275
 30
0.0
 10
-8.8529128225
 20
20.0905606375
 30
0.0
 10
-8.8769193224
 20
20.0917066043
 30
0.0
 10
-8.8983192436
 20
20.0881823008
 30
0.0
 10
-8.9110662148
 20
20.0831631682
 30
0.0
 10
-8.9165093447
 20
20.0803800761
 30
0.0
 11
-8.8035518278
 21
20.0738667186
 31
0.0
 11
-8.8288312929
 21
20.0841796917
 31
0.0
 11
-8.8535773172
 21
20.0898849197
 31
0.0
 11
-8.8772861604
 21
20.0908662646
 31
0.0
 11
-8.8994751958
 21
20.0871037498
 31
0.0
 11
-8.9165093447
 21
20.0803800761
 31
0.0
  0
SPLINE
  5
4B5
100
AcDbEntity
  8
PORTATASTO
100
AcDbSpline
 62
253
  6
CONTINUOUS
 70
0
 71
3
 72
12
 73
8
 74
6
 42
0.0000001
 43
0.0000001
 44
0.0000000001
 12
-0.105075395
 22
0.05198689
 32
0.0
 13
-0.1046068627
 23
-0.053485869
 33
0.0
 40
0.0
 40
0.0
 40
0.0
 40
0.0
 40
0.2328889945
 40
0.4495112485
 40
0.6519220999
 40
0.8438975281
 40
1.0
 40
1.0
 40
1.0
 40
1.0
 10
4.5430886671
 20
13.4005464712
 30
0.0
 10
4.5349316994
 20
13.404582196
 30
0.0
 10
4.5186340259
 20
13.4113344801
 30
0.0
 10
4.4937276724
 20
13.4172403901
 30
0.0
 10
4.4697211725
 20
13.4183863568
 30
0.0
 10
4.4483212513
 20
13.4148620533
 30
0.0
 10
4.4355742801
 20
13.4098429208
 30
0.0
 10
4.4301311502
 20
13.4070598287
 30
0.0
 11
4.5430886671
 21
13.4005464712
 31
0.0
 11
4.517809202
 21
13.4108594443
 31
0.0
 11
4.4930631777
 21
13.4165646723
 31
0.0
 11
4.4693543345
 21
13.4175460172
 31
0.0
 11
4.4471652991
 21
13.4137835024
 31
0.0
 11
4.4301311502
 21
13.4070598287
 31
0.0
  0
SPLINE
  5
4B6
100
AcDbEntity
  8
PORTATASTO
100
AcDbSpline
 62
253
  6
CONTINUOUS
 70
0
 71
3
 72
12
 73
8
 74
6
 42
0.0000001
 43
0.0000001
 44
0.0000000001
 12
0.0
 22
0.1580720269
 32
0.0
 13
0.0689400312
 23
0.142302146
 33
0.0
 40
0.0
 40
0.0
 40
0.0
 40
0.0
 40
0.2002807734
 40
0.410231436
 40
0.627711274
 40
0.8502158163
 40
1.0
 40
1.0
 40
1.0
 40
1.0
 10
4.3672375682
 20
13.0961175386
 30
0.0
 10
4.3672375682
 20
13.1066704679
 30
0.0
 10
4.3685233297
 20
13.1282996992
 30
0.0
 10
4.3739086818
 20
13.1609842147
 30
0.0
 10
4.3826916617
 20
13.1941361602
 30
0.0
 10
4.3933417436
 20
13.2233725458
 30
0.0
 10
4.401384027
 20
13.2412800738
 30
0.0
 10
4.4048260691
 20
13.2483849441
 30
0.0
 11
4.3672375682
 21
13.0961175386
 31
0.0
 11
4.3690254445
 21
13.1277258024
 31
0.0
 11
4.3743529401
 21
13.1604827322
 31
0.0
 11
4.3831122786
 21
13.1937255516
 31
0.0
 11
4.3951262538
 21
13.2267818063
 31
0.0
 11
4.4048260691
 21
13.2483849441
 31
0.0
  0
SPLINE
  5
4B7
100
AcDbEntity
  8
PORTATASTO
100
AcDbSpline
 62
253
  6
CONTINUOUS
 70
0
 71
3
 72
14
 73
10
 74
8
 42
0.0000001
 43
0.0000001
 44
0.0000000001
 12
0.0869920683
 22
0.1795641485
 32
0.0
 13
0.1738022251
 23
0.0981016846
 33
0.0
 40
0.0
 40
0.0
 40
0.0
 40
0.0
 40
0.0594463549
 40
0.2371663724
 40
0.4122312226
 40
0.5825355804
 40
0.7461808724
 40
0.901621686
 40
1.0
 40
1.0
 40
1.0
 40
1.0
 10
4.4048260691
 20
13.2483849441
 30
0.0
 10
4.4065498562
 20
13.2519430888
 30
0.0
 10
4.4136335419
 20
13.2660386281
 30
0.0
 10
4.4273528607
 20
13.2898063636
 30
0.0
 10
4.4473539311
 20
13.3183161753
 30
0.0
 10
4.469288002
 20
13.3441556812
 30
0.0
 10
4.4927238611
 20
13.3668125209
 30
0.0
 10
4.5146824466
 20
13.3838801999
 30
0.0
 10
4.5290207757
 20
13.3928491006
 30
0.0
 10
4.5347202323
 20
13.3960661267
 30
0.0
 11
4.4048260691
 21
13.2483849441
 31
0.0
 11
4.4101517935
 21
13.2589827793
 31
0.0
 11
4.4278849133
 21
13.2896771172
 31
0.0
 11
4.447966766
 21
13.3182438423
 31
0.0
 11
4.4699915353
 21
13.3441056956
 31
0.0
 11
4.4935122213
 21
13.366738155
 31
0.0
 11
4.5180542719
 21
13.3856849861
 31
0.0
 11
4.5347202323
 21
13.3960661267
 31
0.0
  0
SPLINE
  5
4B8
100
AcDbEntity
  8
PORTATASTO
100
AcDbSpline
 62
253
  6
CONTINUOUS
 70
0
 71
3
 72
13
 73
9
 74
7
 42
0.0000001
 43
0.0000001
 44
0.0000000001
 12
-0.1077616754
 22
0.0538808377
 32
0.0
 13
-0.0000566251
 23
0.1209085825
 33
0.0
 40
0.0
 40
0.0
 40
0.0
 40
0.0
 40
0.2228760723
 40
0.425144118
 40
0.6070986483
 40
0.7714794241
 40
0.9235883159
 40
1.0
 40
1.0
 40
1.0
 40
1.0
 10
4.3672375682
 20
-28.8766341002
 30
0.0
 10
4.3592317352
 20
-28.8726311837
 30
0.0
 10
4.344348842
 20
-28.8641622435
 30
0.0
 10
4.3249060703
 20
-28.8493061434
 30
0.0
 10
4.3097700394
 20
-28.8331236418
 30
0.0
 10
4.2993015057
 20
-28.8158562988
 30
0.0
 10
4.2946964735
 20
-28.8005600696
 30
0.0
 10
4.2940206534
 20
-28.7913500319
 30
0.0
 10
4.2940192111
 20
-28.7882704225
 30
0.0
 11
4.3672375682
 21
-28.8766341002
 31
0.0
 11
4.3439757201
 21
-28.8632200501
 31
0.0
 11
4.3247278223
 21
-28.8482737808
 31
0.0
 11
4.3099149195
 21
-28.8321134432
 31
0.0
 11
4.2998362248
 21
-28.8150649874
 31
0.0
 11
4.2946965105
 21
-28.7974742143
 31
0.0
 11
4.2940192111
 21
-28.7882704225
 31
0.0
  0
SPLINE
  5
4B9
100
AcDbEntity
  8
PORTATASTO
100
AcDbSpline
 62
253
  6
CONTINUOUS
 70
0
 71
3
 72
18
 73
14
 74
12
 42
0.0000001
 43
0.0000001
 44
0.0000000001
 12
-0.3274336833
 22
-0.1658166109
 32
0.0
 13
0.0
 23
-0.3670258376
 33
0.0
 40
0.0
 40
0.0
 40
0.0
 40
0.0
 40
0.079422804
 40
0.1638981722
 40
0.2528307501
 40
0.3453754709
 40
0.4405064244
 40
0.537077953
 40
0.633880772
 40
0.7296955712
 40
0.8233462304
 40
0.9137547197
 40
1.0
 40
1.0
 40
1.0
 40
1.0
 10
5.7741325214
 20
12.785024544
 30
0.0
 10
5.7654639543
 20
12.7806346706
 30
0.0
 10
5.7482082382
 20
12.7702900229
 30
0.0
 10
5.723740055
 20
12.7512664168
 30
0.0
 10
5.7003077527
 20
12.7286078237
 30
0.0
 10
5.6783777796
 20
12.702768104
 30
0.0
 10
5.6583811265
 20
12.6742597292
 30
0.0
 10
5.6407155296
 20
12.6436506129
 30
0.0
 10
5.6257326208
 20
12.611550597
 30
0.0
 10
5.613731184
 20
12.5785999636
 30
0.0
 10
5.6049506443
 20
12.5454527645
 30
0.0
 10
5.5995668102
 20
12.5127730476
 30
0.0
 10
5.5982814225
 20
12.4911470269
 30
0.0
 10
5.5982814225
 20
12.4805956115
 30
0.0
 11
5.7741325214
 21
12.785024544
 31
0.0
 11
5.7490675688
 21
12.7701422208
 31
0.0
 11
5.7245281934
 21
12.7511921039
 31
0.0
 11
5.701010627
 21
12.7285574
 31
0.0
 11
5.6789904382
 21
12.7026958247
 31
0.0
 11
5.6589129164
 21
12.6741303472
 31
0.0
 11
5.6411840663
 21
12.6434386144
 31
0.0
 11
5.626162398
 21
12.6112412703
 31
0.0
 11
5.6141516778
 21
12.5781894048
 31
0.0
 11
5.6053947846
 21
12.5449513882
 31
0.0
 11
5.600068799
 21
12.5121993547
 31
0.0
 11
5.5982814225
 21
12.4805956115
 31
0.0
  0
SPLINE
  5
4BA
100
AcDbEntity
  8
PORTATASTO
100
AcDbSpline
 62
253
  6
CONTINUOUS
 70
0
 71
3
 72
18
 73
14
 74
12
 42
0.0000001
 43
0.0000001
 44
0.0000000001
 12
-0.0015838354
 22
0.3677667756
 32
0.0
 13
-0.3282452006
 23
0.1658613822
 33
0.0
 40
0.0
 40
0.0
 40
0.0
 40
0.0
 40
0.0862298917
 40
0.1766966374
 40
0.2704573358
 40
0.3664103845
 40
0.4633549994
 40
0.5600473248
 40
0.6552540094
 40
0.7478094658
 40
0.836663259
 40
0.9209608649
 40
1.0
 40
1.0
 40
1.0
 40
1.0
 10
5.9509067935
 20
12.4801340249
 30
0.0
 10
5.9508612688
 20
12.4907048546
 30
0.0
 10
5.9494816074
 20
12.512374074
 30
0.0
 10
5.9439593676
 20
12.5451173341
 30
0.0
 10
5.9350419354
 20
12.5783383689
 30
0.0
 10
5.9229090216
 20
12.6113670158
 30
0.0
 10
5.9078043209
 20
12.6435430534
 30
0.0
 10
5.8900312077
 20
12.6742201545
 30
0.0
 10
5.8699458915
 20
12.7027830729
 30
0.0
 10
5.8479510102
 20
12.7286585835
 30
0.0
 10
5.8244818149
 20
12.7513303805
 30
0.0
 10
5.800018239
 20
12.7703342428
 30
0.0
 10
5.7827805937
 20
12.7806546973
 30
0.0
 10
5.7741325214
 20
12.785024544
 30
0.0
 11
5.9509067935
 21
12.4801340249
 31
0.0
 11
5.9489840429
 21
12.5117884662
 31
0.0
 11
5.9435197703
 21
12.5446076572
 31
0.0
 11
5.9346252549
 21
12.5779231608
 31
0.0
 11
5.9224816344
 21
12.6110565692
 31
0.0
 11
5.9073362371
 21
12.6433331478
 31
0.0
 11
5.8894975093
 21
12.6740956709
 31
0.0
 11
5.8693288336
 21
12.7027176438
 31
0.0
 11
5.8472404962
 21
12.7286168373
 31
0.0
 11
5.8236837457
 21
12.7512644985
 31
0.0
 11
5.7991370377
 21
12.7702010292
 31
0.0
 11
5.7741325214
 21
12.785024544
 31
0.0
  0
SPLINE
  5
4BB
100
AcDbEntity
  8
PORTATASTO
100
AcDbSpline
 62
253
  6
CONTINUOUS
 70
0
 71
3
 72
18
 73
14
 74
12
 42
0.0000001
 43
0.0000001
 44
0.0000000001
 12
0.3246495934
 22
-0.1623247967
 32
0.0
 13
0.3253245784
 23
0.1609677508
 33
0.0
 40
0.0
 40
0.0
 40
0.0
 40
0.0
 40
0.0805600317
 40
0.1670785676
 40
0.2584318395
 40
0.353391101
 40
0.4505764045
 40
0.5485331093
 40
0.645776605
 40
0.7408481865
 40
0.8323689073
 40
0.9190982169
 40
1.0
 40
1.0
 40
1.0
 40
1.0
 10
5.5982814225
 20
12.4805956115
 30
0.0
 10
5.6069993497
 20
12.4762366479
 30
0.0
 10
5.6256192957
 20
12.4682533494
 30
0.0
 10
5.6554464084
 20
12.458743474
 30
0.0
 10
5.6876722739
 20
12.4514224435
 30
0.0
 10
5.7216415409
 20
12.4464422912
 30
0.0
 10
5.7566792037
 20
12.4439025149
 30
0.0
 10
5.7920843215
 20
12.4438546547
 30
0.0
 10
5.827149351
 20
12.4462997191
 30
0.0
 10
5.8611731329
 20
12.451188199
 30
0.0
 10
5.8934792097
 20
12.4584225203
 30
0.0
 10
5.9234216137
 20
12.4678560972
 30
0.0
 10
5.9421336807
 20
12.4757931655
 30
0.0
 10
5.9509067935
 20
12.4801340249
 30
0.0
 11
5.5982814225
 21
12.4805956115
 31
0.0
 11
5.6251095228
 21
12.4689646874
 31
0.0
 11
5.6550020613
 21
12.4593407385
 31
0.0
 11
5.6873227365
 21
12.4519342871
 31
0.0
 11
5.7214196482
 21
12.4468949398
 31
0.0
 11
5.7566011943
 21
12.4443250826
 31
0.0
 11
5.7921564359
 21
12.4442766543
 31
0.0
 11
5.8273660239
 21
12.4467506955
 31
0.0
 11
5.861517723
 21
12.4516971987
 31
0.0
 11
5.8939206436
 21
12.459016123
 31
0.0
 11
5.9239193169
 21
12.468559431
 31
0.0
 11
5.9509067935
 21
12.4801340249
 31
0.0
  0
SPLINE
  5
4BC
100
AcDbEntity
  8
PORTATASTO
100
AcDbSpline
 62
253
  6
CONTINUOUS
 70
0
 71
3
 72
14
 73
10
 74
8
 42
0.0000001
 43
0.0000001
 44
0.0000000001
 12
0.0
 22
-0.1575483748
 32
0.0
 13
0.1411145508
 23
-0.0708349437
 33
0.0
 40
0.0
 40
0.0
 40
0.0
 40
0.0
 40
0.1896175412
 40
0.3669726719
 40
0.532021714
 40
0.6858183964
 40
0.8306641817
 40
0.9700810263
 40
1.0
 40
1.0
 40
1.0
 40
1.0
 10
5.5982814225
 20
-29.4921560274
 30
0.0
 10
5.5982814225
 20
-29.5021140058
 30
0.0
 10
5.5993628219
 20
-29.5214121984
 30
0.0
 10
5.6045705982
 20
-29.548952069
 30
0.0
 10
5.6132397235
 20
-29.5736479347
 30
0.0
 10
5.6252475528
 20
-29.5949964943
 30
0.0
 10
5.6404120927
 20
-29.6125267949
 30
0.0
 10
5.6538237508
 20
-29.6223880949
 30
0.0
 10
5.6616878532
 20
-29.6265867977
 30
0.0
 10
5.6630951874
 20
-29.627293234
 30
0.0
 11
5.5982814225
 21
-29.4921560274
 31
0.0
 11
5.6000692987
 21
-29.521976415
 31
0.0
 11
5.6053967944
 21
-29.5494058491
 31
0.0
 11
5.6141561329
 21
-29.57388933
 31
0.0
 11
5.6261701081
 21
-29.5949316094
 31
0.0
 11
5.6411956478
 21
-29.6121070428
 31
0.0
 11
5.6589287676
 21
-29.6250682609
 31
0.0
 11
5.6630951874
 21
-29.627293234
 31
0.0
  0
SPLINE
  5
4BD
100
AcDbEntity
  8
PORTATASTO
100
AcDbSpline
 62
253
  6
CONTINUOUS
 70
0
 71
3
 72
18
 73
14
 74
12
 42
0.0000001
 43
0.0000001
 44
0.0000000001
 12
-0.3253245784
 22
-0.1609677508
 32
0.0
 13
-0.3246495933
 23
0.1623247967
 33
0.0
 40
0.0
 40
0.0
 40
0.0
 40
0.0
 40
0.0807873999
 40
0.1675032982
 40
0.2590118333
 40
0.3540783266
 40
0.4513184706
 40
0.5492756693
 40
0.6464652489
 40
0.7414304463
 40
0.8327963071
 40
0.9193285511
 40
1.0
 40
1.0
 40
1.0
 40
1.0
 10
5.9509067935
 20
-29.4926176139
 30
0.0
 10
5.9421460846
 20
-29.496952336
 30
0.0
 10
5.9234490338
 20
-29.5048848173
 30
0.0
 10
5.8935239541
 20
-29.5143170702
 30
0.0
 10
5.8612223654
 20
-29.5215544077
 30
0.0
 10
5.8272015982
 20
-29.5264463622
 30
0.0
 10
5.7921377926
 20
-29.5288951593
 30
0.0
 10
5.7567324979
 20
-29.5288510893
 30
0.0
 10
5.7216932692
 20
-29.5263149981
 30
0.0
 10
5.6877207225
 20
-29.5213382331
 30
0.0
 10
5.6554901899
 20
-29.5140201067
 30
0.0
 10
5.6256460402
 20
-29.5045088632
 30
0.0
 10
5.6070114069
 20
-29.4965210195
 30
0.0
 10
5.5982814225
 20
-29.4921560274
 30
0.0
 11
5.9509067935
 21
-29.4926176139
 31
0.0
 11
5.9239582955
 21
-29.5041777602
 31
0.0
 11
5.8939654724
 21
-29.5137233992
 31
0.0
 11
5.8615677405
 21
-29.5210452193
 31
0.0
 11
5.8274184308
 21
-29.5259953337
 31
0.0
 11
5.7922103268
 21
-29.5284731344
 31
0.0
 11
5.7566549009
 21
-29.5284285413
 31
0.0
 11
5.7214715277
 21
-29.5258623943
 31
0.0
 11
5.6873719184
 21
-29.5208265649
 31
0.0
 11
5.6550459165
 21
-29.5134229025
 31
0.0
 11
5.6251474407
 21
-29.5038011602
 31
0.0
 11
5.5982814225
 21
-29.4921560274
 31
0.0
  0
SPLINE
  5
4BE
100
AcDbEntity
  8
PORTATASTO
100
AcDbSpline
 62
7
  6
CONTINUOUS
 70
0
 71
3
 72
14
 73
10
 74
8
 42
0.0000001
 43
0.0000001
 44
0.0000000001
 12
0.1922517655
 22
0.2296519252
 32
0.0
 13
-0.0336667603
 23
0.2976025829
 33
0.0
 40
0.0
 40
0.0
 40
0.0
 40
0.0
 40
0.1213298258
 40
0.2489673206
 40
0.3838717255
 40
0.5265329855
 40
0.6770197708
 40
0.8350383157
 40
1.0
 40
1.0
 40
1.0
 40
1.0
 10
-12.7177241023
 20
22.2148286023
 30
0.0
 10
-12.7099488112
 20
22.2241164783
 30
0.0
 10
-12.6955585135
 20
22.244528689
 30
0.0
 10
-12.678284253
 20
22.2788691738
 30
0.0
 10
-12.6650008008
 20
22.3171929194
 30
0.0
 10
-12.6558496109
 20
22.3590258104
 30
0.0
 10
-12.650919012
 20
22.4038735663
 30
0.0
 10
-12.6502568711
 20
22.4511995875
 30
0.0
 10
-12.6526166252
 20
22.4834016587
 30
0.0
 10
-12.654467867
 20
22.4997659998
 30
0.0
 11
-12.7177241023
 21
22.2148286023
 31
0.0
 11
-12.6966799259
 21
22.2444532672
 31
0.0
 11
-12.6793694124
 21
22.27853685
 31
0.0
 11
-12.6660027855
 21
22.316665776
 31
0.0
 11
-12.6567424245
 21
22.3583773623
 31
0.0
 11
-12.6517008909
 21
22.4031654247
 31
0.0
 11
-12.650939547
 21
22.450485986
 31
0.0
 11
-12.654467867
 21
22.4997659998
 31
0.0
  0
SPLINE
  5
4BF
100
AcDbEntity
  8
PORTATASTO
100
AcDbSpline
 62
7
  6
CONTINUOUS
 70
0
 71
3
 72
11
 73
7
 74
5
 42
0.0000001
 43
0.0000001
 44
0.0000000001
 12
0.2508724809
 22
0.3425059839
 32
0.0
 13
0.1598550843
 23
0.3933112033
 33
0.0
 40
0.0
 40
0.0
 40
0.0
 40
0.0
 40
0.2948938727
 40
0.5566000891
 40
0.7856607226
 40
1.0
 40
1.0
 40
1.0
 40
1.0
 10
-12.654467867
 20
22.4997659998
 30
0.0
 10
-12.6298076145
 20
22.5334336385
 30
0.0
 10
-12.584936093
 20
22.5982593557
 30
0.0
 10
-12.5275442474
 20
22.6935058621
 30
0.0
 10
-12.479972394
 20
22.7813908922
 30
0.0
 10
-12.4566520027
 20
22.8397307491
 30
0.0
 10
-12.4452309283
 20
22.8678314288
 30
0.0
 11
-12.654467867
 21
22.4997659998
 31
0.0
 11
-12.5834430145
 21
22.6028689185
 31
0.0
 11
-12.5259384546
 21
22.6979393794
 31
0.0
 11
-12.4807391623
 21
22.784046182
 31
0.0
 11
-12.4452309283
 21
22.8678314288
 31
0.0
  0
SPLINE
  5
4C0
100
AcDbEntity
  8
PORTATASTO
100
AcDbSpline
 62
7
  6
CONTINUOUS
 70
0
 71
3
 72
14
 73
10
 74
8
 42
0.0000001
 43
0.0000001
 44
0.0000000001
 12
0.1922517655
 22
0.2296519252
 32
0.0
 13
-0.0336667603
 23
0.2976025829
 33
0.0
 40
0.0
 40
0.0
 40
0.0
 40
0.0
 40
0.1213298258
 40
0.2489673206
 40
0.3838717255
 40
0.5265329855
 40
0.6770197708
 40
0.8350383157
 40
1.0
 40
1.0
 40
1.0
 40
1.0
 10
3.1921784744
 20
14.259877314
 30
0.0
 10
3.1999537655
 20
14.26916519
 30
0.0
 10
3.2143440632
 20
14.2895774007
 30
0.0
 10
3.2316183237
 20
14.3239178854
 30
0.0
 10
3.2449017759
 20
14.362241631
 30
0.0
 10
3.2540529658
 20
14.404074522
 30
0.0
 10
3.2589835647
 20
14.448922278
 30
0.0
 10
3.2596457056
 20
14.4962482992
 30
0.0
 10
3.2572859515
 20
14.5284503704
 30
0.0
 10
3.2554347097
 20
14.5448147115
 30
0.0
 11
3.1921784744
 21
14.259877314
 31
0.0
 11
3.2132226508
 21
14.2895019789
 31
0.0
 11
3.2305331643
 21
14.3235855617
 31
0.0
 11
3.2438997912
 21
14.3617144877
 31
0.0
 11
3.2531601522
 21
14.403426074
 31
0.0
 11
3.2582016858
 21
14.4482141363
 31
0.0
 11
3.2589630297
 21
14.4955346977
 31
0.0
 11
3.2554347097
 21
14.5448147115
 31
0.0
  0
SPLINE
  5
4C1
100
AcDbEntity
  8
PORTATASTO
100
AcDbSpline
 62
7
  6
CONTINUOUS
 70
0
 71
3
 72
11
 73
7
 74
5
 42
0.0000001
 43
0.0000001
 44
0.0000000001
 12
0.2508724809
 22
0.3425059839
 32
0.0
 13
0.1598550843
 23
0.3933112033
 33
0.0
 40
0.0
 40
0.0
 40
0.0
 40
0.0
 40
0.2948938727
 40
0.5566000891
 40
0.7856607226
 40
1.0
 40
1.0
 40
1.0
 40
1.0
 10
3.2554347097
 20
14.5448147115
 30
0.0
 10
3.2800949622
 20
14.5784823501
 30
0.0
 10
3.3249664837
 20
14.6433080673
 30
0.0
 10
3.3823583293
 20
14.7385545737
 30
0.0
 10
3.4299301827
 20
14.8264396039
 30
0.0
 10
3.453250574
 20
14.8847794608
 30
0.0
 10
3.4646716484
 20
14.9128801405
 30
0.0
 11
3.2554347097
 21
14.5448147115
 31
0.0
 11
3.3264595622
 21
14.6479176302
 31
0.0
 11
3.3839641221
 21
14.7429880911
 31
0.0
 11
3.4291634144
 21
14.8290948937
 31
0.0
 11
3.4646716484
 21
14.9128801405
 31
0.0
  0
SPLINE
  5
4C2
100
AcDbEntity
  8
PORTATASTO
100
AcDbSpline
 62
7
  6
CONTINUOUS
 70
0
 71
3
 72
19
 73
15
 74
13
 42
0.0000001
 43
0.0000001
 44
0.0000000001
 12
-0.4347459944
 22
-0.032061621
 32
0.0
 13
-0.4203661256
 23
-0.115431138
 33
0.0
 40
0.0
 40
0.0
 40
0.0
 40
0.0
 40
0.0993228519
 40
0.197235155
 40
0.292953754
 40
0.3859686322
 40
0.4759499567
 40
0.5626287566
 40
0.6457651535
 40
0.7251289558
 40
0.8004853034
 40
0.8715851638
 40
0.9381799011
 40
1.0
 40
1.0
 40
1.0
 40
1.0
 10
-13.364678495
 20
22.7802784915
 30
0.0
 10
-13.379071899
 20
22.7792170076
 30
0.0
 10
-13.4075785973
 20
22.7760302354
 30
0.0
 10
-13.449583428
 20
22.7690508936
 30
0.0
 10
-13.4903846758
 20
22.7606343749
 30
0.0
 10
-13.5298023807
 20
22.7513184147
 30
0.0
 10
-13.5677397527
 20
22.74149589
 30
0.0
 10
-13.6041345588
 20
22.7314651376
 30
0.0
 10
-13.6389341363
 20
22.7214633338
 30
0.0
 10
-13.6720855628
 20
22.7116873446
 30
0.0
 10
-13.7035300366
 20
22.702307567
 30
0.0
 10
-13.7332019417
 20
22.6934763637
 30
0.0
 10
-13.7610265209
 20
22.685334253
 30
0.0
 10
-13.7789828528
 20
22.6802569188
 30
0.0
 10
-13.7876452113
 20
22.677878264
 30
0.0
 11
-13.364678495
 21
22.7802784915
 31
0.0
 11
-13.4077250621
 21
22.7756239769
 31
0.0
 11
-13.449846304
 21
22.7687244376
 31
0.0
 11
-13.4907251717
 21
22.7603577686
 31
0.0
 11
-13.530196016
 21
22.7510752378
 31
0.0
 11
-13.5681773755
 21
22.7412753906
 31
0.0
 11
-13.604611668
 21
22.7312607171
 31
0.0
 11
-13.6394490438
 21
22.7212710172
 31
0.0
 11
-13.6726388132
 21
22.7115048807
 31
0.0
 11
-13.7041237296
 21
22.702134078
 31
0.0
 11
-13.7338363481
 21
22.6933131747
 31
0.0
 11
-13.7617051543
 21
22.6851832981
 31
0.0
 11
-13.7876452113
 21
22.677878264
 31
0.0
  0
SPLINE
  5
4C3
100
AcDbEntity
  8
PORTATASTO
100
AcDbSpline
 62
7
  6
CONTINUOUS
 70
0
 71
3
 72
19
 73
15
 74
13
 42
0.0000001
 43
0.0000001
 44
0.0000000001
 12
-0.4347459944
 22
-0.032061621
 32
0.0
 13
-0.4203661256
 23
-0.115431138
 33
0.0
 40
0.0
 40
0.0
 40
0.0
 40
0.0
 40
0.0993228519
 40
0.197235155
 40
0.292953754
 40
0.3859686322
 40
0.4759499567
 40
0.5626287566
 40
0.6457651535
 40
0.7251289558
 40
0.8004853034
 40
0.8715851638
 40
0.9381799011
 40
1.0
 40
1.0
 40
1.0
 40
1.0
 10
2.5452240817
 20
14.8253272032
 30
0.0
 10
2.5308306777
 20
14.8242657193
 30
0.0
 10
2.5023239794
 20
14.8210789471
 30
0.0
 10
2.4603191487
 20
14.8140996053
 30
0.0
 10
2.4195179009
 20
14.8056830865
 30
0.0
 10
2.380100196
 20
14.7963671264
 30
0.0
 10
2.342162824
 20
14.7865446017
 30
0.0
 10
2.3057680179
 20
14.7765138492
 30
0.0
 10
2.2709684404
 20
14.7665120455
 30
0.0
 10
2.2378170139
 20
14.7567360563
 30
0.0
 10
2.2063725401
 20
14.7473562786
 30
0.0
 10
2.176700635
 20
14.7385250754
 30
0.0
 10
2.1488760558
 20
14.7303829646
 30
0.0
 10
2.1309197239
 20
14.7253056305
 30
0.0
 10
2.1222573654
 20
14.7229269757
 30
0.0
 11
2.5452240817
 21
14.8253272032
 31
0.0
 11
2.5021775146
 21
14.8206726885
 31
0.0
 11
2.4600562727
 21
14.8137731492
 31
0.0
 11
2.419177405
 21
14.8054064802
 31
0.0
 11
2.3797065607
 21
14.7961239495
 31
0.0
 11
2.3417252011
 21
14.7863241023
 31
0.0
 11
2.3052909087
 21
14.7763094287
 31
0.0
 11
2.2704535329
 21
14.7663197288
 31
0.0
 11
2.2372637635
 21
14.7565535924
 31
0.0
 11
2.2057788471
 21
14.7471827897
 31
0.0
 11
2.1760662286
 21
14.7383618864
 31
0.0
 11
2.1481974224
 21
14.7302320098
 31
0.0
 11
2.1222573654
 21
14.7229269757
 31
0.0
  0
SPLINE
  5
4C4
100
AcDbEntity
  8
PORTATASTO
100
AcDbSpline
 62
7
  6
CONTINUOUS
 70
0
 71
3
 72
9
 73
5
 74
3
 42
0.0000001
 43
0.0000001
 44
0.0000000001
 12
0.0000106939
 22
-0.020588684
 32
0.0
 13
0.0016621915
 23
-0.0205197568
 33
0.0
 40
0.0
 40
0.0
 40
0.0
 40
0.0
 40
0.5208435173
 40
1.0
 40
1.0
 40
1.0
 40
1.0
 10
-19.438410137
 20
25.7736003778
 30
0.0
 10
-19.4384082804
 20
25.7700258836
 30
0.0
 10
-19.4382391311
 20
25.7631634436
 30
0.0
 10
-19.4378022379
 20
25.7563144219
 30
0.0
 10
-19.4375367546
 20
25.7530370304
 30
0.0
 11
-19.438410137
 21
25.7736003778
 31
0.0
 11
-19.4381594467
 21
25.7628810089
 31
0.0
 11
-19.4375367546
 21
25.7530370304
 31
0.0
  0
SPLINE
  5
4C5
100
AcDbEntity
  8
PORTATASTO
100
AcDbSpline
 62
7
  6
CONTINUOUS
 70
0
 71
3
 72
17
 73
13
 74
11
 42
0.0000001
 43
0.0000001
 44
0.0000000001
 12
0.0289734995
 22
-0.3576778919
 32
0.0
 13
0.2214236492
 23
-0.2822258458
 33
0.0
 40
0.0
 40
0.0
 40
0.0
 40
0.0
 40
0.0573573103
 40
0.1483657571
 40
0.2444832861
 40
0.3448491641
 40
0.4487388961
 40
0.5555184648
 40
0.6646038968
 40
0.7754249575
 40
0.8874248937
 40
1.0
 40
1.0
 40
1.0
 40
1.0
 10
-19.4375367546
 20
25.7530370304
 30
0.0
 10
-19.4369828073
 20
25.7461985498
 30
0.0
 10
-19.4349176442
 20
25.7285586195
 30
0.0
 10
-19.4293532644
 20
25.6998284806
 30
0.0
 10
-19.4203108589
 20
25.6666336984
 30
0.0
 10
-19.4086202571
 20
25.6326489153
 30
0.0
 10
-19.3944634115
 20
25.5982357716
 30
0.0
 10
-19.3780047528
 20
25.5637057881
 30
0.0
 10
-19.3593982183
 20
25.5293402225
 30
0.0
 10
-19.338793334
 20
25.4954025065
 30
0.0
 10
-19.3163450731
 20
25.4621518576
 30
0.0
 10
-19.300270033
 20
25.4406267446
 30
0.0
 10
-19.2919611027
 20
25.4300362097
 30
0.0
 11
-19.4375367546
 21
25.7530370304
 31
0.0
 11
-19.4351900222
 21
25.7325901938
 31
0.0
 11
-19.4290847787
 21
25.7005196192
 31
0.0
 11
-19.4200933606
 21
25.6672333832
 31
0.0
 11
-19.4084321601
 21
25.6331709631
 31
0.0
 11
-19.3942897264
 21
25.5986913585
 31
0.0
 11
-19.3778338519
 21
25.5641024
 31
0.0
 11
-19.3592197464
 21
25.5296820864
 31
0.0
 11
-19.3385991892
 21
25.4956945952
 31
0.0
 11
-19.3161238802
 21
25.4623926611
 31
0.0
 11
-19.2919611027
 21
25.4300362097
 31
0.0
  0
SPLINE
  5
4C6
100
AcDbEntity
  8
PORTATASTO
100
AcDbSpline
 62
253
  6
CONTINUOUS
 70
0
 71
3
 72
13
 73
9
 74
7
 42
0.0000001
 43
0.0000001
 44
0.0000000001
 12
0.0770121651
 22
-0.0453551141
 32
0.0
 13
0.0259299922
 23
-0.0854636218
 33
0.0
 40
0.0
 40
0.0
 40
0.0
 40
0.0
 40
0.0492770403
 40
0.2542392125
 40
0.4652422127
 40
0.6856320046
 40
0.918952479
 40
1.0
 40
1.0
 40
1.0
 40
1.0
 10
6.2492209502
 20
11.9647396692
 30
0.0
 10
6.2504859274
 20
11.9639946806
 30
0.0
 10
6.2569241753
 20
11.9600016011
 30
0.0
 10
6.2678082871
 20
11.9513205305
 30
0.0
 10
6.280314093
 20
11.9369808832
 30
0.0
 10
6.290721566
 20
11.9200693623
 30
0.0
 10
6.2969769045
 20
11.905384008
 30
0.0
 10
6.2998841167
 20
11.896486032
 30
0.0
 10
6.3005846373
 20
11.8941771605
 30
0.0
 11
6.2492209502
 21
11.9647396692
 31
0.0
 11
6.2529632454
 21
11.9624185844
 31
0.0
 11
6.2672890238
 21
11.951041922
 31
0.0
 11
6.2797172973
 21
11.9368923045
 31
0.0
 11
6.2900952201
 21
11.9201821072
 31
0.0
 11
6.2983339075
 21
11.901056417
 31
0.0
 11
6.3005846373
 21
11.8941771605
 31
0.0
  0
SPLINE
  5
4C7
100
AcDbEntity
  8
PORTATASTO
100
AcDbSpline
 62
253
  6
CONTINUOUS
 70
0
 71
3
 72
10
 73
6
 74
4
 42
0.0000001
 43
0.0000001
 44
0.0000000001
 12
0.018193477
 22
-0.0599645548
 32
0.0
 13
-0.0000000029
 23
-0.0626237623
 33
0.0
 40
0.0
 40
0.0
 40
0.0
 40
0.0
 40
0.2379216854
 40
0.6104955935
 40
1.0
 40
1.0
 40
1.0
 40
1.0
 10
6.3005846373
 20
11.8941771605
 30
0.0
 10
6.3020275115
 20
11.8894215378
 30
0.0
 10
6.3051965501
 20
11.8770569044
 30
0.0
 10
6.308352904
 20
11.85638024
 30
0.0
 10
6.3090906397
 20
11.8404585443
 30
0.0
 10
6.3090906394
 20
11.8323278005
 30
0.0
 11
6.3005846373
 21
11.8941771605
 31
0.0
 11
6.3043089291
 21
11.8797448318
 31
0.0
 11
6.3079008708
 21
11.8566909982
 31
0.0
 11
6.3090906394
 21
11.8323278005
 31
0.0
  0
SPLINE
  5
4C8
100
AcDbEntity
  8
PORTATASTO
100
AcDbSpline
 62
253
  6
CONTINUOUS
 70
0
 71
3
 72
13
 73
9
 74
7
 42
0.0000001
 43
0.0000001
 44
0.0000000001
 12
0.0770121651
 22
-0.0453551141
 32
0.0
 13
0.0259299922
 23
-0.0854636219
 33
0.0
 40
0.0
 40
0.0
 40
0.0
 40
0.0
 40
0.0492770403
 40
0.2542392125
 40
0.4652422127
 40
0.6856320046
 40
0.918952479
 40
1.0
 40
1.0
 40
1.0
 40
1.0
 10
-7.0974195447
 20
18.6380599166
 30
0.0
 10
-7.0961545675
 20
18.637314928
 30
0.0
 10
-7.0897163196
 20
18.6333218486
 30
0.0
 10
-7.0788322078
 20
18.624640778
 30
0.0
 10
-7.0663264019
 20
18.6103011306
 30
0.0
 10
-7.0559189288
 20
18.5933896098
 30
0.0
 10
-7.0496635904
 20
18.5787042555
 30
0.0
 10
-7.0467563782
 20
18.5698062795
 30
0.0
 10
-7.0460558576
 20
18.5674974079
 30
0.0
 11
-7.0974195447
 21
18.6380599166
 31
0.0
 11
-7.0936772495
 21
18.6357388319
 31
0.0
 11
-7.0793514711
 21
18.6243621695
 31
0.0
 11
-7.0669231976
 21
18.610212552
 31
0.0
 11
-7.0565452748
 21
18.5935023546
 31
0.0
 11
-7.0483065874
 21
18.5743766644
 31
0.0
 11
-7.0460558576
 21
18.5674974079
 31
0.0
  0
SPLINE
  5
4C9
100
AcDbEntity
  8
PORTATASTO
100
AcDbSpline
 62
253
  6
CONTINUOUS
 70
0
 71
3
 72
10
 73
6
 74
4
 42
0.0000001
 43
0.0000001
 44
0.0000000001
 12
0.018193477
 22
-0.0599645548
 32
0.0
 13
-0.0000000029
 23
-0.0626237623
 33
0.0
 40
0.0
 40
0.0
 40
0.0
 40
0.0
 40
0.2379216854
 40
0.6104955935
 40
1.0
 40
1.0
 40
1.0
 40
1.0
 10
-7.0460558576
 20
18.5674974079
 30
0.0
 10
-7.0446129834
 20
18.5627417853
 30
0.0
 10
-7.0414439448
 20
18.5503771519
 30
0.0
 10
-7.0382875909
 20
18.5297004874
 30
0.0
 10
-7.0375498552
 20
18.5137787918
 30
0.0
 10
-7.0375498555
 20
18.505648048
 30
0.0
 11
-7.0460558576
 21
18.5674974079
 31
0.0
 11
-7.0423315658
 21
18.5530650792
 31
0.0
 11
-7.0387396241
 21
18.5300112457
 31
0.0
 11
-7.0375498555
 21
18.505648048
 31
0.0
  0
SPLINE
  5
4CA
100
AcDbEntity
  8
PORTATASTO
100
AcDbSpline
 62
253
  6
CONTINUOUS
 70
0
 71
3
 72
14
 73
10
 74
8
 42
0.0000001
 43
0.0000001
 44
0.0000000001
 12
0.1430911413
 22
0.0698278485
 32
0.0
 13
0.0006812611
 23
0.1588630725
 33
0.0
 40
0.0
 40
0.0
 40
0.0
 40
0.0
 40
0.0336149653
 40
0.1722601754
 40
0.3164309802
 40
0.4696310554
 40
0.6341306056
 40
0.8109466694
 40
1.0
 40
1.0
 40
1.0
 40
1.0
 10
5.8847735404
 20
-29.6284047887
 30
0.0
 10
5.886376875
 20
-29.6276223684
 30
0.0
 10
5.8944781726
 20
-29.6233784782
 30
0.0
 10
5.908138538
 20
-29.6134164688
 30
0.0
 10
5.9234192505
 20
-29.595874446
 30
0.0
 10
5.9355525229
 20
-29.5744733087
 30
0.0
 10
5.9443533755
 20
-29.5496875213
 30
0.0
 10
5.9496957479
 20
-29.5220247655
 30
0.0
 10
5.9508638619
 20
-29.5026288116
 30
0.0
 10
5.9509067935
 20
-29.4926176139
 30
0.0
 11
5.8847735404
 21
-29.6284047887
 31
0.0
 11
5.8895133446
 21
-29.6259211506
 31
0.0
 11
5.9073478296
 21
-29.6129956991
 31
0.0
 11
5.9224893715
 21
-29.5958111168
 31
0.0
 11
5.9346297427
 21
-29.5747172202
 31
0.0
 11
5.9435218091
 21
-29.5501434052
 31
0.0
 11
5.94898456
 21
-29.5225899064
 31
0.0
 11
5.9509067935
 21
-29.4926176139
 31
0.0
  0
SPLINE
  5
4CB
100
AcDbEntity
  8
PORTATASTO
100
AcDbSpline
 62
253
  6
CONTINUOUS
 70
0
 71
3
 72
9
 73
5
 74
3
 42
0.0000001
 43
0.0000001
 44
0.0000000001
 12
0.0233887534
 22
-0.0158476896
 32
0.0
 13
0.0252433606
 23
-0.0126216803
 33
0.0
 40
0.0
 40
0.0
 40
0.0
 40
0.0
 40
0.0474808849
 40
1.0
 40
1.0
 40
1.0
 40
1.0
 10
4.3428371055
 20
-28.6124834185
 30
0.0
 10
4.3432072784
 20
-28.6127342392
 30
0.0
 10
4.3510224595
 20
-28.6179885677
 30
0.0
 10
4.3592226404
 20
-28.622655427
 30
0.0
 10
4.3672375682
 20
-28.6266628909
 30
0.0
 11
4.3428371055
 21
-28.6124834185
 31
0.0
 11
4.3439502898
 21
-28.6132318752
 31
0.0
 11
4.3672375682
 21
-28.6266628909
 31
0.0
  0
SPLINE
  5
4CC
100
AcDbEntity
  8
PORTATASTO
100
AcDbSpline
 62
253
  6
CONTINUOUS
 70
0
 71
3
 72
13
 73
9
 74
7
 42
0.0000001
 43
0.0000001
 44
0.0000000001
 12
-0.1207750024
 22
0.081626639
 32
0.0
 13
0.0
 23
0.1454586507
 33
0.0
 40
0.0
 40
0.0
 40
0.0
 40
0.0
 40
0.1004032612
 40
0.2572715646
 40
0.4238331162
 40
0.6025792062
 40
0.7946502891
 40
1.0
 40
1.0
 40
1.0
 40
1.0
 10
4.4216055858
 20
-29.0056504949
 30
0.0
 10
4.4175635178
 20
-29.0029186347
 30
0.0
 10
4.4077402702
 20
-28.995124721
 30
0.0
 10
4.3941962352
 20
-28.979463485
 30
0.0
 10
4.3821917081
 20
-28.9581162179
 30
0.0
 10
4.3735250061
 20
-28.9334228323
 30
0.0
 10
4.3683186793
 20
-28.9058863597
 30
0.0
 10
4.3672375682
 20
-28.8865907308
 30
0.0
 10
4.3672375682
 20
-28.8766341002
 30
0.0
 11
4.4216055858
 21
-29.0056504949
 31
0.0
 11
4.410140212
 21
-28.9965744594
 31
0.0
 11
4.3951185438
 21
-28.9793987835
 31
0.0
 11
4.3831078235
 21
-28.9583576383
 31
0.0
 11
4.3743509303
 21
-28.9338765149
 31
0.0
 11
4.3690249448
 21
-28.906450467
 31
0.0
 11
4.3672375682
 21
-28.8766341002
 31
0.0
  0
SPLINE
  5
4CD
100
AcDbEntity
  8
PORTATASTO
100
AcDbSpline
 62
7
  6
CONTINUOUS
 70
0
 71
3
 72
13
 73
9
 74
7
 42
0.0000001
 43
0.0000001
 44
0.0000000001
 12
-1.0526267492
 22
1.6373067843
 32
0.0
 13
-1.7442749221
 23
-0.8926913573
 33
0.0
 40
0.0
 40
0.0
 40
0.0
 40
0.0
 40
0.1646560284
 40
0.3825375876
 40
0.5800238033
 40
0.7539490053
 40
0.9074568652
 40
1.0
 40
1.0
 40
1.0
 40
1.0
 10
-22.0607862724
 20
24.2398477097
 30
0.0
 10
-22.1185600524
 20
24.3297118539
 30
0.0
 10
-22.2648488682
 20
24.5307020031
 30
0.0
 10
-22.5291827775
 20
24.8008874131
 30
0.0
 10
-22.8475443338
 20
25.0173927324
 30
0.0
 10
-23.1717986408
 20
25.1346019843
 30
0.0
 10
-23.4506392332
 20
25.1386002887
 30
0.0
 10
-23.6037546741
 20
25.0845517544
 30
0.0
 10
-23.6575615638
 20
25.0570142688
 30
0.0
 11
-22.0607862724
 21
24.2398477097
 31
0.0
 11
-22.2496904151
 21
24.4985129466
 31
0.0
 11
-22.5481366203
 21
24.7991395807
 31
0.0
 11
-22.8684088486
 21
25.01091662
 31
0.0
 11
-23.1886810769
 21
25.119411809
 31
0.0
 11
-23.4871272822
 21
25.1172313801
 31
0.0
 11
-23.6575615638
 21
25.0570142688
 31
0.0
  0
SPLINE
  5
4CE
100
AcDbEntity
  8
PORTATASTO
100
AcDbSpline
 62
7
  6
CONTINUOUS
 70
0
 71
3
 72
16
 73
12
 74
10
 42
0.0000001
 43
0.0000001
 44
0.0000000001
 12
0.0
 22
3.3903997053
 32
0.0
 13
-3.0417169936
 23
-1.5567009748
 33
0.0
 40
0.0
 40
0.0
 40
0.0
 40
0.0
 40
0.1225457727
 40
0.2537551599
 40
0.3884623771
 40
0.5209713645
 40
0.6459157102
 40
0.7591643308
 40
0.8589018701
 40
0.946931069
 40
1.0
 40
1.0
 40
1.0
 40
1.0
 10
6.2290351972
 20
8.9466501404
 30
0.0
 10
6.2290351972
 20
9.085143191
 30
0.0
 10
6.1973152091
 20
9.3723254936
 30
0.0
 10
6.0730894315
 20
9.7953111514
 30
0.0
 10
5.8782417538
 20
10.2033750152
 30
0.0
 10
5.6254264782
 20
10.5697602064
 30
0.0
 10
5.3308244012
 20
10.8708838237
 30
0.0
 10
5.012462845
 20
11.0873891431
 30
0.0
 10
4.688208538
 20
11.2045983949
 30
0.0
 10
4.4093679456
 20
11.2085966994
 30
0.0
 10
4.2562525047
 20
11.154548165
 30
0.0
 10
4.2024456149
 20
11.1270106794
 30
0.0
 11
6.2290351972
 21
8.9466501404
 31
0.0
 11
6.1868705584
 21
9.3599842289
 31
0.0
 11
6.0632500926
 21
9.7873149211
 31
0.0
 11
5.8665983301
 21
10.1995203364
 31
0.0
 11
5.6103167637
 21
10.5685093572
 31
0.0
 11
5.3118705584
 21
10.8691359914
 31
0.0
 11
4.9915983301
 21
11.0809130306
 31
0.0
 11
4.6713261018
 21
11.1894082197
 31
0.0
 11
4.3728798966
 21
11.1872277907
 31
0.0
 11
4.2024456149
 21
11.1270106794
 31
0.0
  0
SPLINE
  5
4CF
100
AcDbEntity
  8
ASSI
100
AcDbSpline
 62
7
  6
CONTINUOUS
 70
0
 71
3
 72
11
 73
7
 74
5
 42
0.0000001
 43
0.0000001
 44
0.0000000001
 12
0.3396153633
 22
-0.1688618995
 32
0.0
 13
0.0
 23
-0.3769638203
 33
0.0
 40
0.0
 40
0.0
 40
0.0
 40
0.0
 40
0.0281669174
 40
0.3122991915
 40
0.6316770837
 40
1.0
 40
1.0
 40
1.0
 40
1.0
 10
6.9217126039
 20
24.9021026632
 30
0.0
 10
6.9249012432
 20
24.9005172235
 30
0.0
 10
6.95981398
 20
24.8820815452
 30
0.0
 10
7.0194707099
 20
24.8255010396
 30
0.0
 10
7.0682956274
 20
24.7109284167
 30
0.0
 10
7.0775633346
 20
24.6239238968
 30
0.0
 10
7.0775633346
 20
24.5776424255
 30
0.0
 11
6.9217126039
 21
24.9021026632
 31
0.0
 11
6.9311548703
 21
24.8971141344
 31
0.0
 11
7.010229206
 21
24.8248695171
 31
0.0
 11
7.0603837111
 21
24.7154198973
 31
0.0
 11
7.0775633346
 21
24.5776424255
 31
0.0
  0
SPLINE
  5
4D0
100
AcDbEntity
  8
ASSI
100
AcDbSpline
 62
7
  6
CONTINUOUS
 70
0
 71
3
 72
8
 73
4
 74
2
 42
0.0000001
 43
0.0000001
 44
0.0000000001
 12
0.1235944176
 22
0.0609383965
 32
0.0
 13
0.1304183507
 23
0.0453634238
 33
0.0
 40
0.0
 40
0.0
 40
0.0
 40
0.0
 40
1.0
 40
1.0
 40
1.0
 40
1.0
 10
-13.3008068325
 20
26.0028873855
 30
0.0
 10
-13.2596086933
 20
26.0232001843
 30
0.0
 10
-13.2169983078
 20
26.0407254435
 30
0.0
 10
-13.1735255242
 20
26.0558465848
 30
0.0
 11
-13.3008068325
 21
26.0028873855
 31
0.0
 11
-13.1735255242
 21
26.0558465848
 31
0.0
  0
SPLINE
  5
4D1
100
AcDbEntity
  8
ASSI
100
AcDbSpline
 62
7
  6
CONTINUOUS
 70
0
 71
3
 72
13
 73
9
 74
7
 42
0.0000001
 43
0.0000001
 44
0.0000000001
 12
1.0065066524
 22
0.3500932773
 32
0.0
 13
1.0062016672
 23
-0.3508875842
 33
0.0
 40
0.0
 40
0.0
 40
0.0
 40
0.0
 40
0.0692727473
 40
0.2827268513
 40
0.5008840833
 40
0.718709236
 40
0.9311491486
 40
1.0
 40
1.0
 40
1.0
 40
1.0
 10
-13.1735255242
 20
26.0558465848
 30
0.0
 10
-13.1502843639
 20
26.0639305592
 30
0.0
 10
-13.0544228896
 20
26.0941197416
 30
0.0
 10
-12.8797984111
 20
26.1290548093
 30
0.0
 10
-12.6493908682
 20
26.1435970232
 30
0.0
 10
-12.4193663816
 20
26.1287322295
 30
0.0
 10
-12.2454053492
 20
26.0936971686
 30
0.0
 10
-12.1500621723
 20
26.063572716
 30
0.0
 10
-12.1269695585
 20
26.0555197463
 30
0.0
 11
-13.1735255242
 21
26.0558465848
 31
0.0
 11
-13.103146608
 21
26.078095716
 31
0.0
 11
-12.8807890454
 21
26.1237278191
 31
0.0
 11
-12.6492769654
 21
26.1386576214
 31
0.0
 11
-12.4181404256
 21
26.1233960764
 31
0.0
 11
-12.1968976108
 21
26.0776978474
 31
0.0
 11
-12.1269695585
 21
26.0555197463
 31
0.0
  0
SPLINE
  5
4D2
100
AcDbEntity
  8
ASSI
100
AcDbSpline
 62
7
  6
CONTINUOUS
 70
0
 71
3
 72
8
 73
4
 74
2
 42
0.0000001
 43
0.0000001
 44
0.0000000001
 12
0.1347637908
 22
-0.0469954906
 32
0.0
 13
0.1273909096
 23
-0.0636954315
 33
0.0
 40
0.0
 40
0.0
 40
0.0
 40
0.0
 40
1.0
 40
1.0
 40
1.0
 40
1.0
 10
-12.1269695585
 20
26.0555197463
 30
0.0
 10
-12.0820482949
 20
26.0398545828
 30
0.0
 10
-12.0380514845
 20
26.0216182235
 30
0.0
 10
-11.995587848
 20
26.000386413
 30
0.0
 11
-12.1269695585
 21
26.0555197463
 31
0.0
 11
-11.995587848
 21
26.000386413
 31
0.0
  0
SPLINE
  5
4D3
100
AcDbEntity
  8
ASSI
100
AcDbSpline
 62
7
  6
CONTINUOUS
 70
0
 71
3
 72
8
 73
4
 74
2
 42
0.0000001
 43
0.0000001
 44
0.0000000001
 12
0.1235944176
 22
0.0609383965
 32
0.0
 13
0.1304183507
 23
0.0453634238
 33
0.0
 40
0.0
 40
0.0
 40
0.0
 40
0.0
 40
1.0
 40
1.0
 40
1.0
 40
1.0
 10
2.6090957442
 20
18.0479360971
 30
0.0
 10
2.6502938834
 20
18.068248896
 30
0.0
 10
2.6929042689
 20
18.0857741552
 30
0.0
 10
2.7363770525
 20
18.1008952964
 30
0.0
 11
2.6090957442
 21
18.0479360971
 31
0.0
 11
2.7363770525
 21
18.1008952964
 31
0.0
  0
SPLINE
  5
4D4
100
AcDbEntity
  8
ASSI
100
AcDbSpline
 62
7
  6
CONTINUOUS
 70
0
 71
3
 72
13
 73
9
 74
7
 42
0.0000001
 43
0.0000001
 44
0.0000000001
 12
1.0065066524
 22
0.3500932773
 32
0.0
 13
1.0062016672
 23
-0.3508875842
 33
0.0
 40
0.0
 40
0.0
 40
0.0
 40
0.0
 40
0.0692727473
 40
0.2827268513
 40
0.5008840833
 40
0.718709236
 40
0.9311491486
 40
1.0
 40
1.0
 40
1.0
 40
1.0
 10
2.7363770525
 20
18.1008952964
 30
0.0
 10
2.7596182128
 20
18.1089792708
 30
0.0
 10
2.8554796871
 20
18.1391684532
 30
0.0
 10
3.0301041656
 20
18.174103521
 30
0.0
 10
3.2605117085
 20
18.1886457349
 30
0.0
 10
3.4905361951
 20
18.1737809411
 30
0.0
 10
3.6644972275
 20
18.1387458803
 30
0.0
 10
3.7598404044
 20
18.1086214276
 30
0.0
 10
3.7829330182
 20
18.100568458
 30
0.0
 11
2.7363770525
 21
18.1008952964
 31
0.0
 11
2.8067559687
 21
18.1231444276
 31
0.0
 11
3.0291135313
 21
18.1687765308
 31
0.0
 11
3.2606256113
 21
18.1837063331
 31
0.0
 11
3.4917621511
 21
18.1684447881
 31
0.0
 11
3.7130049659
 21
18.1227465591
 31
0.0
 11
3.7829330182
 21
18.100568458
 31
0.0
  0
SPLINE
  5
4D5
100
AcDbEntity
  8
ASSI
100
AcDbSpline
 62
7
  6
CONTINUOUS
 70
0
 71
3
 72
8
 73
4
 74
2
 42
0.0000001
 43
0.0000001
 44
0.0000000001
 12
0.1347637908
 22
-0.0469954906
 32
0.0
 13
0.1273909096
 23
-0.0636954315
 33
0.0
 40
0.0
 40
0.0
 40
0.0
 40
0.0
 40
1.0
 40
1.0
 40
1.0
 40
1.0
 10
3.7829330182
 20
18.100568458
 30
0.0
 10
3.8278542818
 20
18.0849032945
 30
0.0
 10
3.8718510922
 20
18.0666669351
 30
0.0
 10
3.9143147287
 20
18.0454351246
 30
0.0
 11
3.7829330182
 21
18.100568458
 31
0.0
 11
3.9143147287
 21
18.0454351246
 31
0.0
  0
SPLINE
  5
4D6
100
AcDbEntity
  8
ASSI
100
AcDbSpline
 62
7
  6
CONTINUOUS
 70
0
 71
3
 72
10
 73
6
 74
4
 42
0.0000001
 43
0.0000001
 44
0.0000000001
 12
-0.1163899141
 22
0.2160302361
 32
0.0
 13
-0.2162219833
 23
0.1179944591
 33
0.0
 40
0.0
 40
0.0
 40
0.0
 40
0.0
 40
0.1087111578
 40
0.7849408613
 40
1.0
 40
1.0
 40
1.0
 40
1.0
 10
13.0792563249
 20
29.2624862396
 30
0.0
 10
13.0750386974
 20
29.2703145386
 30
0.0
 10
13.0431371351
 20
29.3260955181
 30
0.0
 10
12.9886536617
 20
29.3895554873
 30
0.0
 10
12.9268759022
 20
29.4290146151
 30
0.0
 10
12.9113757311
 20
29.4374732106
 30
0.0
 11
13.0792563249
 21
29.2624862396
 31
0.0
 11
13.0659938227
 21
29.2856509364
 31
0.0
 11
12.9559191009
 21
29.4089767287
 31
0.0
 11
12.9113757311
 21
29.4374732106
 31
0.0
  0
SPLINE
  5
4D7
100
AcDbEntity
  8
ASSI
100
AcDbSpline
 62
253
  6
CONTINUOUS
 70
0
 71
3
 72
11
 73
7
 74
5
 42
0.0000001
 43
0.0000001
 44
0.0000000001
 12
0.4068270028
 22
0.1732449031
 32
0.0
 13
0.3922013345
 23
-0.1988950638
 33
0.0
 40
0.0
 40
0.0
 40
0.0
 40
0.0
 40
0.0804585717
 40
0.3623381405
 40
0.6658663004
 40
1.0
 40
1.0
 40
1.0
 40
1.0
 10
0.1484268761
 20
35.4053670267
 30
0.0
 10
0.1593377826
 20
35.4100133725
 30
0.0
 10
0.2094391557
 20
35.428666035
 30
0.0
 10
0.307492737
 20
35.442998642
 30
0.0
 10
0.4424428989
 20
35.4238571855
 30
0.0
 10
0.5300878682
 20
35.38908834
 30
0.0
 10
0.5737704292
 20
35.3669358255
 30
0.0
 11
0.1484268761
 21
35.4053670267
 31
0.0
 11
0.1817487086
 21
35.4177620032
 31
0.0
 11
0.3042370918
 21
35.4367858036
 31
0.0
 11
0.4366060781
 21
35.4196239747
 31
0.0
 11
0.5737704292
 21
35.3669358255
 31
0.0
  0
SPLINE
  5
4D8
100
AcDbEntity
  8
ASSI
100
AcDbSpline
 62
253
  6
CONTINUOUS
 70
0
 71
3
 72
10
 73
6
 74
4
 42
0.0000001
 43
0.0000001
 44
0.0000000001
 12
-0.0829631482
 22
0.0420455526
 32
0.0
 13
-0.0825509033
 23
-0.0412756274
 33
0.0
 40
0.0
 40
0.0
 40
0.0
 40
0.0
 40
0.0744017811
 40
0.5048254358
 40
1.0
 40
1.0
 40
1.0
 40
1.0
 10
3.9143012549
 20
18.0454085381
 30
0.0
 10
3.9122437196
 20
18.0464512928
 30
0.0
 10
3.8979718472
 20
18.0528703964
 30
0.0
 10
3.8660988854
 20
18.0559943242
 30
0.0
 10
3.8384978437
 20
18.0465675817
 30
0.0
 10
3.8248721412
 20
18.0397547014
 30
0.0
 11
3.9143012549
 21
18.0454085381
 31
0.0
 11
3.90799741
 21
18.0482382277
 31
0.0
 11
3.8685736666
 21
18.0531282811
 31
0.0
 11
3.8248721412
 21
18.0397547014
 31
0.0
  0
SPLINE
  5
4D9
100
AcDbEntity
  8
ASSI
100
AcDbSpline
 62
7
  6
CONTINUOUS
 70
0
 71
3
 72
9
 73
5
 74
3
 42
0.0000001
 43
0.0000001
 44
0.0000000001
 12
0.0298596612
 22
0.0147174143
 32
0.0
 13
0.0332723555
 23
-0.0010069455
 33
0.0
 40
0.0
 40
0.0
 40
0.0
 40
0.0
 40
0.4165599351
 40
1.0
 40
1.0
 40
1.0
 40
1.0
 10
2.6090939956
 20
18.0479342853
 30
0.0
 10
2.6132401084
 20
18.049977847
 30
0.0
 10
2.6237957785
 20
18.0536700722
 30
0.0
 10
2.6349558308
 20
18.0545635525
 30
0.0
 10
2.6414266393
 20
18.0543677217
 30
0.0
 11
2.6090939956
 21
18.0479342853
 31
0.0
 11
2.6221391206
 21
18.0525682689
 31
0.0
 11
2.6414266393
 21
18.0543677217
 31
0.0
  0
SPLINE
  5
4DA
100
AcDbEntity
  8
ASSI
100
AcDbSpline
 62
7
  6
CONTINUOUS
 70
0
 71
3
 72
9
 73
5
 74
3
 42
0.0000001
 43
0.0000001
 44
0.0000000001
 12
0.0545130051
 22
-0.0016497667
 32
0.0
 13
0.0486545646
 23
-0.0243272823
 33
0.0
 40
0.0
 40
0.0
 40
0.0
 40
0.0
 40
0.4414615411
 40
1.0
 40
1.0
 40
1.0
 40
1.0
 10
2.6414266393
 20
18.0543677217
 30
0.0
 10
2.6494484377
 20
18.0541249522
 30
0.0
 10
2.6674787513
 20
18.0510785552
 30
0.0
 10
2.6844428094
 20
18.0442839424
 30
0.0
 10
2.6935012913
 20
18.0397547014
 30
0.0
 11
2.6414266393
 21
18.0543677217
 31
0.0
 11
2.665160017
 21
18.0507047346
 31
0.0
 11
2.6935012913
 21
18.0397547014
 31
0.0
  0
SPLINE
  5
4DB
100
AcDbEntity
  8
ASSI
100
AcDbSpline
 62
7
  6
CONTINUOUS
 70
0
 71
3
 72
10
 73
6
 74
4
 42
0.0000001
 43
0.0000001
 44
0.0000000001
 12
-0.4048075174
 22
0.2019074052
 32
0.0
 13
-0.404818931
 23
-0.1937552459
 33
0.0
 40
0.0
 40
0.0
 40
0.0
 40
0.0
 40
0.203817079
 40
0.5776715976
 40
1.0
 40
1.0
 40
1.0
 40
1.0
 10
12.898775696
 20
29.4440503455
 30
0.0
 10
12.8712734675
 20
29.457767738
 30
0.0
 10
12.7886340126
 20
29.4873756479
 30
0.0
 10
12.6354340444
 20
29.4882499727
 30
0.0
 10
12.5209044307
 20
29.4491393613
 30
0.0
 10
12.4639155866
 20
29.4218632468
 30
0.0
 11
12.898775696
 21
29.4440503455
 31
0.0
 11
12.8122294456
 21
29.4750376855
 31
0.0
 11
12.6445018835
 21
29.4794307929
 31
0.0
 11
12.4639155866
 21
29.4218632468
 31
0.0
  0
SPLINE
  5
4DC
100
AcDbEntity
  8
ASSI
100
AcDbSpline
 62
253
  6
CONTINUOUS
 70
0
 71
3
 72
10
 73
6
 74
4
 42
0.0000001
 43
0.0000001
 44
0.0000000001
 12
-0.404784497
 22
0.201804016
 32
0.0
 13
-0.404758623
 23
-0.1937263812
 33
0.0
 40
0.0
 40
0.0
 40
0.0
 40
0.0
 40
0.2038864153
 40
0.577870313
 40
1.0
 40
1.0
 40
1.0
 40
1.0
 10
1.0085699766
 20
35.3891531318
 30
0.0
 10
0.9810599566
 20
35.4028681643
 30
0.0
 10
0.8983978538
 20
35.4324651721
 30
0.0
 10
0.7452201887
 20
35.4333032693
 30
0.0
 10
0.6307239728
 20
35.3941950444
 30
0.0
 10
0.5737704292
 20
35.3669358255
 30
0.0
 11
1.0085699766
 21
35.3891531318
 31
0.0
 11
0.9220008146
 21
35.4201291395
 31
0.0
 11
0.7542392202
 21
35.4244854194
 31
0.0
 11
0.5737704292
 21
35.3669358255
 31
0.0
  0
SPLINE
  5
4DD
100
AcDbEntity
  8
ASSI
100
AcDbSpline
 62
7
  6
CONTINUOUS
 70
0
 71
3
 72
11
 73
7
 74
5
 42
0.0000001
 43
0.0000001
 44
0.0000000001
 12
0.0044615732
 22
-0.0006948853
 32
0.0
 13
0.0000110157
 23
-0.070775024
 33
0.0
 40
0.0
 40
0.0
 40
0.0
 40
0.0
 40
0.01386546
 40
0.1762166792
 40
0.5217765469
 40
1.0
 40
1.0
 40
1.0
 40
1.0
 10
7.4336211755
 20
19.2652097716
 30
0.0
 10
7.4336417961
 20
19.2652065599
 30
0.0
 10
7.4339137981
 20
19.264741847
 30
0.0
 10
7.4351148939
 20
19.2463275341
 30
0.0
 10
7.4345374631
 20
19.227605422
 30
0.0
 10
7.4348171837
 20
19.2066192076
 30
0.0
 10
7.4348189397
 20
19.1953371154
 30
0.0
 11
7.4336211755
 21
19.2652097716
 31
0.0
 11
7.4336854279
 21
19.2650978032
 31
0.0
 11
7.4345433142
 21
19.2536394617
 31
0.0
 11
7.4347492431
 21
19.2291833205
 31
0.0
 11
7.4348189397
 21
19.1953371154
 31
0.0
  0
SPLINE
  5
4DE
100
AcDbEntity
  8
ASSI
100
AcDbSpline
 62
7
  6
CONTINUOUS
 70
0
 71
3
 72
16
 73
12
 74
10
 42
0.0000001
 43
0.0000001
 44
0.0000000001
 12
1.8399105926
 22
1.6899855655
 32
0.0
 13
2.2293028581
 23
-1.1146512687
 33
0.0
 40
0.0
 40
0.0
 40
0.0
 40
0.0
 40
0.0752752901
 40
0.1753039979
 40
0.2865087706
 40
0.405954128
 40
0.5311521666
 40
0.6586308345
 40
0.7828055998
 40
0.8979168114
 40
1.0
 40
1.0
 40
1.0
 40
1.0
 10
-8.3110616271
 20
29.9037096719
 30
0.0
 10
-8.2648950259
 20
29.9461143898
 30
0.0
 10
-8.1464129733
 20
30.0324117362
 30
0.0
 10
-7.931538178
 20
30.13727039
 30
0.0
 10
-7.6689445549
 20
30.2206963869
 30
0.0
 10
-7.3777633245
 20
30.2754881347
 30
0.0
 10
-7.0689619354
 20
30.2992199658
 30
0.0
 10
-6.7553593104
 20
30.2913830708
 30
0.0
 10
-6.4528809864
 20
30.2499264411
 30
0.0
 10
-6.1770097542
 20
30.1812347078
 30
0.0
 10
-6.0090595539
 20
30.113146298
 30
0.0
 10
-5.9332014392
 20
30.0752172461
 30
0.0
 11
-8.3110616271
 21
29.9037096719
 31
0.0
 11
-8.1607475042
 21
30.0161443861
 31
0.0
 11
-7.9378296815
 21
30.1277943043
 31
0.0
 11
-7.6741925963
 21
30.2133463129
 31
0.0
 11
-7.3817961311
 21
30.2693420081
 31
0.0
 11
-7.070710194
 21
30.2938283022
 31
0.0
 11
-6.7530906582
 21
30.2853580132
 31
0.0
 11
-6.4464750579
 21
30.2432190183
 31
0.0
 11
-6.1686081554
 21
30.1717640058
 31
0.0
 11
-5.9332014392
 21
30.0752172461
 31
0.0
  0
SPLINE
  5
4DF
100
AcDbEntity
  8
ASSI
100
AcDbSpline
 62
7
  6
CONTINUOUS
 70
0
 71
3
 72
17
 73
13
 74
11
 42
0.0000001
 43
0.0000001
 44
0.0000000001
 12
1.7398018451
 22
1.8880792291
 32
0.0
 13
2.2866521276
 23
-1.1433258993
 33
0.0
 40
0.0
 40
0.0
 40
0.0
 40
0.0
 40
0.0140878835
 40
0.0984673996
 40
0.1959873859
 40
0.3044031413
 40
0.4208528073
 40
0.5429108773
 40
0.6671923783
 40
0.7882528386
 40
0.9004770593
 40
1.0
 40
1.0
 40
1.0
 40
1.0
 10
-4.1139880054
 20
31.9796342749
 30
0.0
 10
-4.1058179635
 20
31.9885006217
 30
0.0
 10
-4.0471388446
 20
32.0490116501
 30
0.0
 10
-3.9122281989
 20
32.1496056041
 30
0.0
 10
-3.6888974909
 20
32.2585907335
 30
0.0
 10
-3.4263038678
 20
32.3420167305
 30
0.0
 10
-3.1351226373
 20
32.3968084782
 30
0.0
 10
-2.8263212483
 20
32.4205403094
 30
0.0
 10
-2.5127186233
 20
32.4127034144
 30
0.0
 10
-2.2102402993
 20
32.3712467847
 30
0.0
 10
-1.934369067
 20
32.3025550514
 30
0.0
 10
-1.7664188668
 20
32.2344666415
 30
0.0
 10
-1.6905607521
 20
32.1965375897
 30
0.0
 11
-4.1139880054
 21
31.9796342749
 31
0.0
 11
-4.0888410195
 21
32.0056113356
 31
0.0
 11
-3.918106817
 21
32.1374647297
 31
0.0
 11
-3.6951889944
 21
32.2491146478
 31
0.0
 11
-3.4315519092
 21
32.3346666564
 31
0.0
 11
-3.139155444
 21
32.3906623517
 31
0.0
 11
-2.8280695069
 21
32.4151486458
 31
0.0
 11
-2.510449971
 21
32.4066783567
 31
0.0
 11
-2.2038343707
 21
32.3645393618
 31
0.0
 11
-1.9259674683
 21
32.2930843494
 31
0.0
 11
-1.6905607521
 21
32.1965375897
 31
0.0
  0
SPLINE
  5
4E0
100
AcDbEntity
  8
ASSI
100
AcDbSpline
 62
253
  6
CONTINUOUS
 70
0
 71
3
 72
10
 73
6
 74
4
 42
0.0000001
 43
0.0000001
 44
0.0000000001
 12
-0.0009627138
 22
-0.4685580768
 32
0.0
 13
-0.4141451335
 23
-0.2144299037
 33
0.0
 40
0.0
 40
0.0
 40
0.0
 40
0.0
 40
0.2732995852
 40
0.6021928923
 40
1.0
 40
1.0
 40
1.0
 40
1.0
 10
30.8587483453
 20
-11.000396215
 30
0.0
 10
30.8586606422
 20
-11.043081791
 30
0.0
 10
30.832767581
 20
-11.1373043666
 30
0.0
 10
30.7290424682
 20
-11.2575705779
 30
0.0
 10
30.6330099919
 20
-11.3192303523
 30
0.0
 10
30.5780933659
 20
-11.3476642656
 30
0.0
 11
30.8587483453
 21
-11.000396215
 31
0.0
 11
30.8276257373
 21
-11.1241158595
 31
0.0
 11
30.7319596602
 21
-11.2440106476
 31
0.0
 11
30.5780933659
 21
-11.3476642656
 31
0.0
  0
SPLINE
  5
4E1
100
AcDbEntity
  8
ASSI
100
AcDbSpline
 62
7
  6
CONTINUOUS
 70
0
 71
3
 72
9
 73
5
 74
3
 42
0.0000001
 43
0.0000001
 44
0.0000000001
 12
0.3518741908
 22
-0.1759375559
 32
0.0
 13
0.2577409018
 23
-0.2989379895
 33
0.0
 40
0.0
 40
0.0
 40
0.0
 40
0.0
 40
0.5696100071
 40
1.0
 40
1.0
 40
1.0
 40
1.0
 10
5.0269536692
 20
28.837780379
 30
0.0
 10
5.0937640226
 20
28.8043751149
 30
0.0
 10
5.2074697061
 20
28.7373682984
 30
0.0
 10
5.3055511585
 20
28.6487789217
 30
0.0
 10
5.3425275268
 20
28.6058922819
 30
0.0
 11
5.0269536692
 21
28.837780379
 31
0.0
 11
5.2182304443
 21
28.7210370268
 31
0.0
 11
5.3425275268
 21
28.6058922819
 31
0.0
  0
SPLINE
  5
4E2
100
AcDbEntity
  8
ASSI
100
AcDbSpline
 62
253
  6
CONTINUOUS
 70
0
 71
3
 72
11
 73
7
 74
5
 42
0.0000001
 43
0.0000001
 44
0.0000000001
 12
0.390739127
 22
-0.2021606036
 32
0.0
 13
-0.0063325205
 23
-0.4398930258
 33
0.0
 40
0.0
 40
0.0
 40
0.0
 40
0.0
 40
0.2280085543
 40
0.4859370875
 40
0.7515655008
 40
1.0
 40
1.0
 40
1.0
 40
1.0
 10
7.1557748089
 20
20.1724936198
 30
0.0
 10
7.1854720967
 20
20.1571288374
 30
0.0
 10
7.2419985421
 20
20.111267523
 30
0.0
 10
7.3065253643
 20
20.0207435575
 30
0.0
 10
7.3497712091
 20
19.9150906495
 30
0.0
 10
7.360994511
 20
19.8394016925
 30
0.0
 10
7.3604701055
 20
19.8029734913
 30
0.0
 11
7.1557748089
 21
20.1724936198
 31
0.0
 11
7.235258491
 21
20.1113021724
 31
0.0
 11
7.3020728363
 21
20.0195857553
 31
0.0
 11
7.3460421369
 21
19.9113129269
 31
0.0
 11
7.3604701055
 21
19.8029734913
 31
0.0
  0
SPLINE
  5
4E3
100
AcDbEntity
  8
ASSI
100
AcDbSpline
 62
253
  6
CONTINUOUS
 70
0
 71
3
 72
12
 73
8
 74
6
 42
0.0000001
 43
0.0000001
 44
0.0000000001
 12
-0.401436596
 22
-0.1921363859
 32
0.0
 13
0.0
 23
-0.4450480102
 33
0.0
 40
0.0
 40
0.0
 40
0.0
 40
0.0
 40
0.1800327554
 40
0.3815013846
 40
0.5939293415
 40
0.8042858566
 40
1.0
 40
1.0
 40
1.0
 40
1.0
 10
7.9968338999
 20
20.1599120881
 30
0.0
 10
7.972743321
 20
20.1483818071
 30
0.0
 10
7.9257077729
 20
20.1154051564
 30
0.0
 10
7.8668264397
 20
20.0490983707
 30
0.0
 10
7.8198003034
 20
19.9686192171
 30
0.0
 10
7.7891065277
 20
19.8816016154
 30
0.0
 10
7.780999651
 20
19.8212609759
 30
0.0
 10
7.780999651
 20
19.7922269125
 30
0.0
 11
7.9968338999
 21
20.1599120881
 31
0.0
 11
7.9304025352
 21
20.1151169534
 31
0.0
 11
7.8702475918
 21
20.0486272964
 31
0.0
 11
7.8223879267
 21
19.9670957996
 31
0.0
 11
7.7916121815
 21
19.8786801699
 31
0.0
 11
7.780999651
 21
19.7922269125
 31
0.0
  0
SPLINE
  5
4E4
100
AcDbEntity
  8
ASSI
100
AcDbSpline
 62
253
  6
CONTINUOUS
 70
0
 71
3
 72
12
 73
8
 74
6
 42
0.0000001
 43
0.0000001
 44
0.0000000001
 12
-0.4014365937
 22
-0.1921363885
 32
0.0
 13
-0.0000000007
 23
-0.4450480092
 33
0.0
 40
0.0
 40
0.0
 40
0.0
 40
0.0
 40
0.1800336637
 40
0.3815027887
 40
0.5939306699
 40
0.8042866232
 40
1.0
 40
1.0
 40
1.0
 40
1.0
 10
13.2367650102
 20
17.5399465329
 30
0.0
 10
13.21267431
 20
17.5284161936
 30
0.0
 10
13.165638609
 20
17.4954393802
 30
0.0
 10
13.1067572268
 20
17.4291323733
 30
0.0
 10
13.0597312005
 20
17.348653181
 30
0.0
 10
13.0290375811
 20
17.2616357484
 30
0.0
 10
13.0209307616
 20
17.2012953068
 30
0.0
 10
13.0209307616
 20
17.1722613572
 30
0.0
 11
13.2367650102
 21
17.5399465329
 31
0.0
 11
13.1703333398
 21
17.4951511289
 31
0.0
 11
13.1101783319
 21
17.428661233
 31
0.0
 11
13.0623187877
 21
17.3471297045
 31
0.0
 11
13.0315432131
 21
17.2587142804
 31
0.0
 11
13.0209307616
 21
17.1722613572
 31
0.0
  0
SPLINE
  5
4E5
100
AcDbEntity
  8
ASSI
100
AcDbSpline
 62
253
  6
CONTINUOUS
 70
0
 71
3
 72
9
 73
5
 74
3
 42
0.0000001
 43
0.0000001
 44
0.0000000001
 12
-0.1263428905
 22
0.061050927
 32
0.0
 13
-0.1278034134
 23
-0.0618089528
 33
0.0
 40
0.0
 40
0.0
 40
0.0
 40
0.0
 40
0.6075913928
 40
1.0
 40
1.0
 40
1.0
 40
1.0
 10
13.2441048217
 20
17.1283286134
 30
0.0
 10
13.2185165374
 20
17.1406932859
 30
0.0
 10
13.1715945343
 20
17.1545891688
 30
0.0
 10
13.1239319229
 20
17.1434017423
 30
0.0
 10
13.1072148697
 20
17.1353169539
 30
0.0
 11
13.2441048217
 21
17.1283286134
 31
0.0
 11
13.1612243186
 21
17.148319386
 31
0.0
 11
13.1072148697
 21
17.1353169539
 31
0.0
  0
SPLINE
  5
4E6
100
AcDbEntity
  8
ASSI
100
AcDbSpline
 62
7
  6
CONTINUOUS
 70
0
 71
3
 72
9
 73
5
 74
3
 42
0.0000001
 43
0.0000001
 44
0.0000000001
 12
0.2956386339
 22
-0.1478197038
 32
0.0
 13
0.2374347812
 23
-0.2310798472
 33
0.0
 40
0.0
 40
0.0
 40
0.0
 40
0.0
 40
0.677959635
 40
1.0
 40
1.0
 40
1.0
 40
1.0
 10
0.7843129821
 20
26.7164600355
 30
0.0
 10
0.8511233355
 20
26.6830547713
 30
0.0
 10
0.9466568921
 20
26.6267567983
 30
0.0
 10
1.0311611931
 20
26.555223543
 30
0.0
 10
1.0566490544
 20
26.5304178635
 30
0.0
 11
0.7843129821
 21
26.7164600355
 31
0.0
 11
0.9755897572
 21
26.5997166832
 31
0.0
 11
1.0566490544
 21
26.5304178635
 31
0.0
  0
SPLINE
  5
4E7
100
AcDbEntity
  8
ASSI
100
AcDbSpline
 62
253
  6
CONTINUOUS
 70
0
 71
3
 72
13
 73
9
 74
7
 42
0.0000001
 43
0.0000001
 44
0.0000000001
 12
0.3948390224
 22
0.1740421624
 32
0.0
 13
0.3859335267
 23
-0.1929866338
 33
0.0
 40
0.0
 40
0.0
 40
0.0
 40
0.0
 40
0.1522199467
 40
0.3212093303
 40
0.4993340554
 40
0.6777054974
 40
0.8470363317
 40
1.0
 40
1.0
 40
1.0
 40
1.0
 10
7.360461292
 20
19.8029696008
 30
0.0
 10
7.3804954169
 20
19.811800497
 30
0.0
 10
7.4247472306
 20
19.8260159222
 30
0.0
 10
7.4958111727
 20
19.8376578345
 30
0.0
 10
7.5715429494
 20
19.8403121081
 30
0.0
 10
7.6470891839
 20
19.8337875384
 30
0.0
 10
7.7176563265
 20
19.8185168358
 30
0.0
 10
7.7612950067
 20
19.8020803935
 30
0.0
 10
7.7809729427
 20
19.7922404123
 30
0.0
 11
7.360461292
 21
19.8029696008
 31
0.0
 11
7.4227652722
 21
19.8237631591
 31
0.0
 11
7.4946591651
 21
19.8359422656
 31
0.0
 11
7.5714676594
 21
19.8387569721
 31
0.0
 11
7.6481387357
 21
19.8320198061
 31
0.0
 11
7.7194697738
 21
19.8161940708
 31
0.0
 11
7.7809729427
 21
19.7922404123
 31
0.0
  0
SPLINE
  5
4E8
100
AcDbEntity
  8
ASSI
100
AcDbSpline
 62
253
  6
CONTINUOUS
 70
0
 71
3
 72
9
 73
5
 74
3
 42
0.0000001
 43
0.0000001
 44
0.0000000001
 12
0.0718695657
 22
-0.035930644
 32
0.0
 13
0.0526400732
 23
-0.0611714046
 33
0.0
 40
0.0
 40
0.0
 40
0.0
 40
0.0
 40
0.6995447438
 40
1.0
 40
1.0
 40
1.0
 40
1.0
 10
13.0209606696
 20
17.172246566
 30
0.0
 10
13.0377193285
 20
17.1638682016
 30
0.0
 10
13.0607419299
 20
17.1497129138
 30
0.0
 10
13.0802835724
 20
17.1309859155
 30
0.0
 10
13.085555568
 20
17.1248594922
 30
0.0
 11
13.0209606696
 21
17.172246566
 31
0.0
 11
13.0682265561
 21
17.141826462
 31
0.0
 11
13.085555568
 21
17.1248594922
 31
0.0
  0
SPLINE
  5
4E9
100
AcDbEntity
  8
ASSI
100
AcDbSpline
 62
253
  6
CONTINUOUS
 70
0
 71
3
 72
28
 73
24
 74
22
 42
0.0000001
 43
0.0000001
 44
0.0000000001
 12
-1.0420649319
 22
0.5210324659
 32
0.0
 13
-1.0420649319
 23
-0.5210324659
 33
0.0
 40
0.0
 40
0.0
 40
0.0
 40
0.0
 40
0.0414958189
 40
0.0847166354
 40
0.1295414073
 40
0.175827598
 40
0.2234145554
 40
0.2721265018
 40
0.3217752383
 40
0.3721626388
 40
0.4230829919
 40
0.4743252364
 40
0.5256751276
 40
0.576917364
 40
0.6278377009
 40
0.6782250778
 40
0.7278737836
 40
0.776585693
 40
0.8241726078
 40
0.8704587513
 40
0.9152834725
 40
0.9585042372
 40
1.0
 40
1.0
 40
1.0
 40
1.0
 10
-12.0850304355
 20
25.9947059898
 30
0.0
 10
-12.0994442148
 20
26.0019128794
 30
0.0
 10
-12.1293253167
 20
26.0157313512
 30
0.0
 10
-12.1760945689
 20
26.0343247751
 30
0.0
 10
-12.2255068867
 20
26.0511229515
 30
0.0
 10
-12.2772860415
 20
26.0660317842
 30
0.0
 10
-12.3311451304
 20
26.078968769
 30
0.0
 10
-12.3867845294
 20
26.0898617932
 30
0.0
 10
-12.4438946583
 20
26.0986501357
 30
0.0
 10
-12.5021574704
 20
26.1052847257
 30
0.0
 10
-12.5612483565
 20
26.1097284963
 30
0.0
 10
-12.6208379798
 20
26.1119566067
 30
0.0
 10
-12.6805941621
 20
26.1119565988
 30
0.0
 10
-12.7401837755
 20
26.1097284731
 30
0.0
 10
-12.7992746419
 20
26.1052846885
 30
0.0
 10
-12.8575374251
 20
26.0986500869
 30
0.0
 10
-12.9146475169
 20
26.089861736
 30
0.0
 10
-12.9702868713
 20
26.0789687073
 30
0.0
 10
-13.0241459096
 20
26.0660317228
 30
0.0
 10
-13.0759250092
 20
26.0511228958
 30
0.0
 10
-13.1253372694
 20
26.034324731
 30
0.0
 10
-13.1721064624
 20
26.0157313251
 30
0.0
 10
-13.2019875257
 20
26.0019128697
 30
0.0
 10
-13.2164012854
 20
25.9947059898
 30
0.0
 11
-12.0850304355
 21
25.9947059898
 31
0.0
 11
-12.128885963
 21
26.0150519801
 31
0.0
 11
-12.1756597723
 21
26.0337024114
 31
0.0
 11
-12.2250902891
 21
26.0505529852
 31
0.0
 11
-12.2769010757
 21
26.0655094658
 31
0.0
 11
-12.3308023844
 21
26.0784882109
 31
0.0
 11
-12.3864927766
 21
26.0894166384
 31
0.0
 11
-12.4436608086
 21
26.0982336325
 31
0.0
 11
-12.5019867731
 21
26.1048898854
 31
0.0
 11
-12.5611444874
 21
26.109348173
 31
0.0
 11
-12.6208031173
 21
26.1115835632
 31
0.0
 11
-12.6806290276
 21
26.1115835553
 31
0.0
 11
-12.7402876476
 21
26.1093481496
 31
0.0
 11
-12.7994453421
 21
26.1048898481
 31
0.0
 11
-12.8577712775
 21
26.0982335836
 31
0.0
 11
-12.914939272
 21
26.0894165811
 31
0.0
 11
-12.9706296194
 21
26.0784881492
 31
0.0
 11
-13.0245308772
 21
26.0655094046
 31
0.0
 11
-13.0763416082
 21
26.0505529298
 31
0.0
 11
-13.1257720666
 21
26.0337023679
 31
0.0
 11
-13.172545818
 21
26.0150519543
 31
0.0
 11
-13.2164012854
 21
25.9947059898
 31
0.0
  0
SPLINE
  5
4EA
100
AcDbEntity
  8
ASSI
100
AcDbSpline
 62
253
  6
CONTINUOUS
 70
0
 71
3
 72
28
 73
24
 74
22
 42
0.0000001
 43
0.0000001
 44
0.0000000001
 12
-1.0420649319
 22
0.5210324659
 32
0.0
 13
-1.0420649319
 23
-0.5210324659
 33
0.0
 40
0.0
 40
0.0
 40
0.0
 40
0.0
 40
0.0414958189
 40
0.0847166354
 40
0.1295414073
 40
0.175827598
 40
0.2234145554
 40
0.2721265018
 40
0.3217752383
 40
0.3721626388
 40
0.4230829919
 40
0.4743252364
 40
0.5256751276
 40
0.576917364
 40
0.6278377009
 40
0.6782250778
 40
0.7278737836
 40
0.776585693
 40
0.8241726078
 40
0.8704587513
 40
0.9152834725
 40
0.9585042372
 40
1.0
 40
1.0
 40
1.0
 40
1.0
 10
3.8248721412
 20
18.0397547014
 30
0.0
 10
3.8104583619
 20
18.046961591
 30
0.0
 10
3.78057726
 20
18.0607800629
 30
0.0
 10
3.7338080078
 20
18.0793734868
 30
0.0
 10
3.68439569
 20
18.0961716631
 30
0.0
 10
3.6326165352
 20
18.1110804958
 30
0.0
 10
3.5787574463
 20
18.1240174806
 30
0.0
 10
3.5231180473
 20
18.1349105049
 30
0.0
 10
3.4660079184
 20
18.1436988474
 30
0.0
 10
3.4077451063
 20
18.1503334373
 30
0.0
 10
3.3486542202
 20
18.154777208
 30
0.0
 10
3.2890645969
 20
18.1570053184
 30
0.0
 10
3.2293084146
 20
18.1570053105
 30
0.0
 10
3.1697188012
 20
18.1547771847
 30
0.0
 10
3.1106279348
 20
18.1503334002
 30
0.0
 10
3.0523651516
 20
18.1436987986
 30
0.0
 10
2.9952550598
 20
18.1349104476
 30
0.0
 10
2.9396157054
 20
18.1240174189
 30
0.0
 10
2.8857566671
 20
18.1110804345
 30
0.0
 10
2.8339775675
 20
18.0961716075
 30
0.0
 10
2.7845653073
 20
18.0793734426
 30
0.0
 10
2.7377961143
 20
18.0607800368
 30
0.0
 10
2.707915051
 20
18.0469615813
 30
0.0
 10
2.6935012913
 20
18.0397547014
 30
0.0
 11
3.8248721412
 21
18.0397547014
 31
0.0
 11
3.7810166137
 21
18.0601006918
 31
0.0
 11
3.7342428044
 21
18.0787511231
 31
0.0
 11
3.6848122876
 21
18.0956016969
 31
0.0
 11
3.633001501
 21
18.1105581775
 31
0.0
 11
3.5791001923
 21
18.1235369226
 31
0.0
 11
3.5234098001
 21
18.1344653501
 31
0.0
 11
3.4662417681
 21
18.1432823441
 31
0.0
 11
3.4079158036
 21
18.149938597
 31
0.0
 11
3.3487580893
 21
18.1543968846
 31
0.0
 11
3.2890994594
 21
18.1566322748
 31
0.0
 11
3.2292735491
 21
18.1566322669
 31
0.0
 11
3.1696149291
 21
18.1543968613
 31
0.0
 11
3.1104572346
 21
18.1499385597
 31
0.0
 11
3.0521312992
 21
18.1432822952
 31
0.0
 11
2.9949633047
 21
18.1344652927
 31
0.0
 11
2.9392729573
 21
18.1235368609
 31
0.0
 11
2.8853716995
 21
18.1105581162
 31
0.0
 11
2.8335609685
 21
18.0956016415
 31
0.0
 11
2.78413051
 21
18.0787510796
 31
0.0
 11
2.7373567587
 21
18.0601006659
 31
0.0
 11
2.6935012913
 21
18.0397547014
 31
0.0
  0
SPLINE
  5
4EB
100
AcDbEntity
  8
ASSI
100
AcDbSpline
 62
7
  6
CONTINUOUS
 70
0
 71
3
 72
13
 73
9
 74
7
 42
0.0000001
 43
0.0000001
 44
0.0000000001
 12
0.3419835893
 22
0.6973157254
 32
0.0
 13
0.6988440198
 23
-0.3474758251
 33
0.0
 40
0.0
 40
0.0
 40
0.0
 40
0.0
 40
0.1420307208
 40
0.355507484
 40
0.5525043869
 40
0.7265768538
 40
0.8774259788
 40
1.0
 40
1.0
 40
1.0
 40
1.0
 10
6.3213643657
 20
24.5231727487
 30
0.0
 10
6.337555091
 20
24.5561861671
 30
0.0
 10
6.382748362
 20
24.6365352806
 30
0.0
 10
6.4702942978
 20
24.750414658
 30
0.0
 10
6.5846604365
 20
24.8509721712
 30
0.0
 10
6.7055748966
 20
24.9144392734
 30
0.0
 10
6.8223491811
 20
24.9341401197
 30
0.0
 10
6.89315923
 20
24.9162998329
 30
0.0
 10
6.9217126039
 20
24.9021026632
 30
0.0
 11
6.3213643657
 21
24.5231727487
 31
0.0
 11
6.3754436616
 21
24.6192585301
 31
0.0
 11
6.4770352797
 21
24.7500267988
 31
0.0
 11
6.5929130693
 21
24.8496423466
 31
0.0
 11
6.7136854625
 21
24.9100285432
 31
0.0
 11
6.8295632522
 21
24.9262907851
 31
0.0
 11
6.9217126039
 21
24.9021026632
 31
0.0
  0
SPLINE
  5
4EC
100
AcDbEntity
  8
ASSI
100
AcDbSpline
 62
253
  6
CONTINUOUS
 70
0
 71
3
 72
11
 73
7
 74
5
 42
0.0000001
 43
0.0000001
 44
0.0000000001
 12
0.0026992355
 22
-0.9404761207
 32
0.0
 13
-0.6090644892
 23
-0.7201118027
 33
0.0
 40
0.0
 40
0.0
 40
0.0
 40
0.0
 40
0.2790400935
 40
0.5381052248
 40
0.7775965177
 40
1.0
 40
1.0
 40
1.0
 40
1.0
 10
30.5780933659
 20
-11.3476642659
 30
0.0
 10
30.5783444309
 20
-11.4351411141
 30
0.0
 10
30.568343826
 20
-11.604157313
 30
0.0
 10
30.5181330848
 20
-11.8437097113
 30
0.0
 10
30.4339762297
 20
-12.0549227534
 30
0.0
 10
30.3538419656
 20
-12.176828243
 30
0.0
 10
30.3086892778
 20
-12.2302133672
 30
0.0
 11
30.5780933659
 21
-11.3476642659
 31
0.0
 11
30.5613183335
 21
-11.6095591997
 31
0.0
 11
30.5098478652
 21
-11.8477061213
 31
0.0
 11
30.4249332047
 21
-12.0563232415
 31
0.0
 11
30.3086892778
 21
-12.2302133672
 31
0.0
  0
SPLINE
  5
4ED
100
AcDbEntity
  8
ASSI
100
AcDbSpline
 62
7
  6
CONTINUOUS
 70
0
 71
3
 72
13
 73
9
 74
7
 42
0.0000001
 43
0.0000001
 44
0.0000000001
 12
-0.6988440198
 22
0.3474758251
 32
0.0
 13
-0.3419835893
 23
-0.6973157254
 33
0.0
 40
0.0
 40
0.0
 40
0.0
 40
0.0
 40
0.1225740212
 40
0.2734231462
 40
0.4474956131
 40
0.644492516
 40
0.8579692792
 40
1.0
 40
1.0
 40
1.0
 40
1.0
 10
6.2146058227
 20
25.2556560538
 30
0.0
 10
6.1860524488
 20
25.2698532235
 30
0.0
 10
6.1152423999
 20
25.2876935102
 30
0.0
 10
5.9984681154
 20
25.267992664
 30
0.0
 10
5.8775536553
 20
25.2045255618
 30
0.0
 10
5.7631875166
 20
25.1039680486
 30
0.0
 10
5.6756415808
 20
24.9900886711
 30
0.0
 10
5.6304483098
 20
24.9097395577
 30
0.0
 10
5.6142575845
 20
24.8767261393
 30
0.0
 11
6.2146058227
 21
25.2556560538
 31
0.0
 11
6.122456471
 21
25.2798441756
 31
0.0
 11
6.0065786814
 21
25.2635819338
 31
0.0
 11
5.8858062881
 21
25.2031957372
 31
0.0
 11
5.7699284985
 21
25.1035801894
 31
0.0
 11
5.6683368804
 21
24.9728119207
 31
0.0
 11
5.6142575845
 21
24.8767261393
 31
0.0
  0
SPLINE
  5
4EE
100
AcDbEntity
  8
ASSI
100
AcDbSpline
 62
253
  6
CONTINUOUS
 70
0
 71
3
 72
10
 73
6
 74
4
 42
0.0000001
 43
0.0000001
 44
0.0000000001
 12
-0.0829631482
 22
0.0420455526
 32
0.0
 13
-0.0825509033
 23
-0.0412756274
 33
0.0
 40
0.0
 40
0.0
 40
0.0
 40
0.0
 40
0.0744017811
 40
0.5048254358
 40
1.0
 40
1.0
 40
1.0
 40
1.0
 10
-11.9956013218
 20
26.0003598264
 30
0.0
 10
-11.9976588571
 20
26.0014025811
 30
0.0
 10
-12.0119307295
 20
26.0078216848
 30
0.0
 10
-12.0438036913
 20
26.0109456125
 30
0.0
 10
-12.071404733
 20
26.0015188701
 30
0.0
 10
-12.0850304355
 20
25.9947059898
 30
0.0
 11
-11.9956013218
 21
26.0003598264
 31
0.0
 11
-12.0019051667
 21
26.003189516
 31
0.0
 11
-12.0413289101
 21
26.0080795694
 31
0.0
 11
-12.0850304355
 21
25.9947059898
 31
0.0
  0
SPLINE
  5
4EF
100
AcDbEntity
  8
ASSI
100
AcDbSpline
 62
7
  6
CONTINUOUS
 70
0
 71
3
 72
9
 73
5
 74
3
 42
0.0000001
 43
0.0000001
 44
0.0000000001
 12
0.0298596612
 22
0.0147174143
 32
0.0
 13
0.0332723555
 23
-0.0010069455
 33
0.0
 40
0.0
 40
0.0
 40
0.0
 40
0.0
 40
0.4165599351
 40
1.0
 40
1.0
 40
1.0
 40
1.0
 10
-13.3008085811
 20
26.0028855736
 30
0.0
 10
-13.2966624683
 20
26.0049291353
 30
0.0
 10
-13.2861067982
 20
26.0086213605
 30
0.0
 10
-13.2749467459
 20
26.0095148409
 30
0.0
 10
-13.2684759374
 20
26.0093190101
 30
0.0
 11
-13.3008085811
 21
26.0028855736
 31
0.0
 11
-13.2877634561
 21
26.0075195572
 31
0.0
 11
-13.2684759374
 21
26.0093190101
 31
0.0
  0
SPLINE
  5
4F0
100
AcDbEntity
  8
ASSI
100
AcDbSpline
 62
7
  6
CONTINUOUS
 70
0
 71
3
 72
9
 73
5
 74
3
 42
0.0000001
 43
0.0000001
 44
0.0000000001
 12
0.0545130051
 22
-0.0016497667
 32
0.0
 13
0.0486545646
 23
-0.0243272823
 33
0.0
 40
0.0
 40
0.0
 40
0.0
 40
0.0
 40
0.4414615411
 40
1.0
 40
1.0
 40
1.0
 40
1.0
 10
-13.2684759374
 20
26.0093190101
 30
0.0
 10
-13.260454139
 20
26.0090762406
 30
0.0
 10
-13.2424238254
 20
26.0060298435
 30
0.0
 10
-13.2254597673
 20
25.9992352307
 30
0.0
 10
-13.2164012854
 20
25.9947059898
 30
0.0
 11
-13.2684759374
 21
26.0093190101
 31
0.0
 11
-13.2447425597
 21
26.0056560229
 31
0.0
 11
-13.2164012854
 21
25.9947059898
 31
0.0
  0
SPLINE
  5
4F1
100
AcDbEntity
  8
ASSI
100
AcDbSpline
 62
253
  6
CONTINUOUS
 70
0
 71
3
 72
13
 73
9
 74
7
 42
0.0000001
 43
0.0000001
 44
0.0000000001
 12
0.5018684592
 22
-0.2507483464
 32
0.0
 13
-0.502592054
 23
-0.249294827
 33
0.0
 40
0.0
 40
0.0
 40
0.0
 40
0.0
 40
0.2008318057
 40
0.3656935445
 40
0.505011707
 40
0.6427653924
 40
0.8034827713
 40
1.0
 40
1.0
 40
1.0
 40
1.0
 10
13.2367650102
 20
17.5399465329
 30
0.0
 10
13.2703620598
 20
17.5231604519
 30
0.0
 10
13.3290986561
 20
17.4868816341
 30
0.0
 10
13.3941775132
 20
17.4159286411
 30
0.0
 10
13.420127697
 20
17.3334764756
 30
0.0
 10
13.3974357494
 20
17.2507260981
 30
0.0
 10
13.3344515433
 20
17.180100011
 30
0.0
 10
13.2770274876
 20
17.1446588562
 30
0.0
 10
13.2441048217
 20
17.1283286134
 30
0.0
 11
13.2367650102
 21
17.5399465329
 31
0.0
 11
13.3313741542
 21
17.478758967
 31
0.0
 11
13.3912014208
 21
17.4082230049
 31
0.0
 11
13.4124750804
 21
17.333013145
 31
0.0
 11
13.3938315896
 21
17.2580126262
 31
0.0
 11
13.3365844532
 21
17.1883513307
 31
0.0
 11
13.2441048217
 21
17.1283286134
 31
0.0
  0
SPLINE
  5
4F2
100
AcDbEntity
  8
ASSI
100
AcDbSpline
 62
253
  6
CONTINUOUS
 70
0
 71
3
 72
13
 73
9
 74
7
 42
0.0000001
 43
0.0000001
 44
0.0000000001
 12
0.7842565631
 22
0.3621114247
 32
0.0
 13
0.7725209813
 23
-0.3865156843
 33
0.0
 40
0.0
 40
0.0
 40
0.0
 40
0.0
 40
0.1528836291
 40
0.3221117631
 40
0.500141459
 40
0.6782168772
 40
0.8471993223
 40
1.0
 40
1.0
 40
1.0
 40
1.0
 10
7.1557748089
 20
20.1724936198
 30
0.0
 10
7.1957414721
 20
20.190947256
 30
0.0
 10
7.2840973183
 20
20.2209768379
 30
0.0
 10
7.4262492495
 20
20.2464104076
 30
0.0
 10
7.5777556934
 20
20.2535533745
 30
0.0
 10
7.7289143472
 20
20.2419127088
 30
0.0
 10
7.870159504
 20
20.2122530631
 30
0.0
 10
7.9574866567
 20
20.1795987076
 30
0.0
 10
7.9968338999
 20
20.1599120881
 30
0.0
 11
7.1557748089
 21
20.1724936198
 31
0.0
 11
7.2803339334
 21
20.2163782662
 31
0.0
 11
7.4240921296
 21
20.2428903644
 31
0.0
 11
7.5776955663
 21
20.2503694548
 31
0.0
 11
7.7310474351
 21
20.2383151516
 31
0.0
 11
7.8737394203
 21
20.2075530987
 31
0.0
 11
7.9968338999
 21
20.1599120881
 31
0.0
  0
ELLIPSE
  5
4F3
100
AcDbEntity
  8
RACCORDO
100
AcDbEllipse
 62
7
  6
CONTINUOUS
 10
29.7979206439
 20
18.35055534
 30
0.0
 11
1.0000183804
 21
0.0000253779
 31
0.0
 40
0.500000664
 41
-0.7679765927
 42
0.0033818616
  0
ELLIPSE
  5
4F4
100
AcDbEntity
  8
RACCORDO
100
AcDbEllipse
 62
7
  6
CONTINUOUS
 10
25.5222910615
 20
15.7768941835
 30
0.0
 11
0.5000091902
 21
0.0000126889
 31
0.0
 40
0.500000664
 41
-2.3562255473
 42
-0.7679765927
  0
ELLIPSE
  5
4F5
100
AcDbEntity
  8
RACCORDO
100
AcDbEllipse
 62
7
  6
CONTINUOUS
 10
5.4334862123
 20
-27.6123942825
 30
0.0
 11
-0.2234618187
 21
0.4480306886
 31
0.0
 40
0.6116748051
 41
-3.1816869266
 42
-2.2548620396
  0
ELLIPSE
  5
4F6
100
AcDbEntity
  8
RACCORDO
100
AcDbEllipse
 62
7
  6
CONTINUOUS
 10
5.4334862123
 20
10.0585222956
 30
0.0
 11
-0.2230998035
 21
0.4477110033
 31
0.0
 40
0.6127700112
 41
-2.2535417632
 42
-0.6836588249
  0
ELLIPSE
  5
4F7
100
AcDbEntity
  8
RACCORDO
100
AcDbEllipse
 62
7
  6
CONTINUOUS
 10
-25.4316170743
 20
25.4910739389
 30
0.0
 11
-0.2234618187
 21
0.4480306886
 31
0.0
 40
0.6116748051
 41
-0.6831523243
 42
0.0396333849
  0
ELLIPSE
  5
4F8
100
AcDbEntity
  8
PORTATASTO
100
AcDbEllipse
 62
7
  6
CONTINUOUS
 10
8.2734605725
 20
-26.286105405
 30
0.0
 11
-0.2236315662
 21
0.4472293059
 31
0.0
 40
0.6123445654
 41
-3.1338003475
 42
-2.2555748796
  0
ELLIPSE
  5
4F9
100
AcDbEntity
  8
PORTATASTO
100
AcDbEllipse
 62
7
  6
CONTINUOUS
 10
8.2734605725
 20
11.5491133074
 30
0.0
 11
-0.223611546
 21
0.4472115081
 31
0.0
 40
0.6124054886
 41
-2.2555017776
 42
-0.6847562194
  0
ELLIPSE
  5
4FA
100
AcDbEntity
  8
PORTATASTO
100
AcDbEllipse
 62
7
  6
CONTINUOUS
 10
-21.171354997
 20
28.3550248099
 30
0.0
 11
-0.1118022285
 21
0.2236074604
 31
0.0
 40
0.6123888851
 41
-2.2554957904
 42
-0.684726879
  0
ELLIPSE
  5
4FB
100
AcDbEntity
  8
PORTATASTO
100
AcDbEllipse
 62
7
  6
CONTINUOUS
 10
-7.8247145021
 20
21.6817045624
 30
0.0
 11
-0.1118022285
 21
0.2236074604
 31
0.0
 40
0.6123888851
 41
-2.2554957904
 42
-0.684726879
  0
ELLIPSE
  5
4FC
100
AcDbEntity
  8
PORTATASTO
100
AcDbEllipse
 62
7
  6
CONTINUOUS
 10
-5.9357562423
 20
25.2413856126
 30
0.0
 11
0.4547905863
 21
0.8906238433
 31
0.0
 40
0.6079814556
 41
0.0051486949
 42
0.6840559135
  0
ELLIPSE
  5
4FD
100
AcDbEntity
  8
PORTATASTO
100
AcDbEllipse
 62
7
  6
CONTINUOUS
 10
-13.8815034514
 20
29.2142592172
 30
0.0
 11
1.004787277
 21
0.6140102217
 31
0.0
 40
0.0864918533
 41
0.0543764479
 42
0.7329085821
  0
ELLIPSE
  5
4FE
100
AcDbEntity
  8
PORTATASTO
100
AcDbEllipse
 62
7
  6
CONTINUOUS
 10
8.0851880746
 20
-28.2754728738
 30
0.0
 11
-0.1118076343
 21
0.2236122655
 31
0.0
 40
0.6123559867
 41
-3.1472533326
 42
-2.2555352685
  0
ELLIPSE
  5
4FF
100
AcDbEntity
  8
PORTATASTO
100
AcDbEllipse
 62
7
  6
CONTINUOUS
 10
8.0851880746
 20
13.7267532741
 30
0.0
 11
-0.1118022285
 21
0.2236074604
 31
0.0
 40
0.6123888851
 41
-2.2554957904
 42
-0.684726879
  0
ELLIPSE
  5
500
100
AcDbEntity
  8
PORTATASTO
100
AcDbEllipse
 62
7
  6
CONTINUOUS
 10
-5.2614524203
 20
20.4000735215
 30
0.0
 11
-0.1118022285
 21
0.2236074604
 31
0.0
 40
0.6123888851
 41
-2.2554957904
 42
-0.684726879
  0
ELLIPSE
  5
501
100
AcDbEntity
  8
PORTATASTO
100
AcDbEllipse
 62
7
  6
CONTINUOUS
 10
6.8300783845
 20
14.3543081191
 30
0.0
 11
-0.1118076343
 21
0.2236122655
 31
0.0
 40
0.6123559867
 41
-0.6847115264
 42
0.0057513703
  0
ELLIPSE
  5
502
100
AcDbEntity
  8
PORTATASTO
100
AcDbEllipse
 62
7
  6
CONTINUOUS
 10
13.5593606375
 20
15.5924617969
 30
0.0
 11
0.499996712
 21
0.0035883639
 31
0.0
 40
0.5053247124
 41
-0.7715714568
 42
-0.0036366941
  0
ELLIPSE
  5
503
100
AcDbEntity
  8
PORTATASTO
100
AcDbEllipse
 62
7
  6
CONTINUOUS
 10
-8.0343680717
 20
25.5305297502
 30
0.0
 11
0.2273952932
 21
0.4453119217
 31
0.0
 40
0.6079814556
 41
0.5218181359
 42
0.6794017021
  0
ELLIPSE
  5
504
100
AcDbEntity
  8
PORTATASTO
100
AcDbEllipse
 62
7
  6
CONTINUOUS
 10
-6.5165621104
 20
21.0276283666
 30
0.0
 11
-0.1118076343
 21
0.2236122655
 31
0.0
 40
0.6123559867
 41
-0.6847115264
 42
0.0057513703
  0
ELLIPSE
  5
505
100
AcDbEntity
  8
PORTATASTO
100
AcDbEllipse
 62
7
  6
CONTINUOUS
 10
7.875534505
 20
17.5755784618
 30
0.0
 11
0.2273952932
 21
0.4453119217
 31
0.0
 40
0.6079814556
 41
0.5218181359
 42
0.6794017021
  0
ELLIPSE
  5
506
100
AcDbEntity
  8
PORTATASTO
100
AcDbEllipse
 62
7
  6
CONTINUOUS
 10
-18.9384077121
 20
25.781380722
 30
0.0
 11
0.499998833
 21
0.002146795
 31
0.0
 40
0.5031994763
 41
2.359269944
 42
3.0001556252
  0
ELLIPSE
  5
507
100
AcDbEntity
  8
PORTATASTO
100
AcDbEllipse
 62
7
  6
CONTINUOUS
 10
-9.0798241922
 20
22.3092594075
 30
0.0
 11
-0.1118076343
 21
0.2236122655
 31
0.0
 40
0.6123559867
 41
-0.6847115264
 42
0.0057513703
  0
ELLIPSE
  5
508
100
AcDbEntity
  8
PORTATASTO
100
AcDbEllipse
 62
7
  6
CONTINUOUS
 10
-3.0285051354
 20
17.8264294337
 30
0.0
 11
0.499998833
 21
0.002146795
 31
0.0
 40
0.5031994763
 41
2.359269944
 42
3.0001556252
  0
ELLIPSE
  5
509
100
AcDbEntity
  8
PORTATASTO
100
AcDbEllipse
 62
7
  6
CONTINUOUS
 10
-22.4264646871
 20
28.9825796549
 30
0.0
 11
-0.1118076343
 21
0.2236122655
 31
0.0
 40
0.6123559867
 41
-0.6847115264
 42
0.0057513703
  0
ELLIPSE
  5
50A
100
AcDbEntity
  8
PORTATASTO
100
AcDbEllipse
 62
7
  6
CONTINUOUS
 10
-13.6165995183
 20
28.3216454735
 30
0.0
 11
0.225491203
 21
0.4462695109
 31
0.0
 40
0.6155720462
 41
0.5148055967
 42
0.6768420768
  0
ELLIPSE
  5
50B
100
AcDbEntity
  8
PORTATASTO
100
AcDbEllipse
 62
7
  6
CONTINUOUS
 10
2.2933030584
 20
20.3666941851
 30
0.0
 11
0.225491203
 21
0.4462695109
 31
0.0
 40
0.6155720462
 41
0.5148055967
 42
0.6768420768
  0
ELLIPSE
  5
50C
100
AcDbEntity
  8
PORTATASTO
100
AcDbEllipse
 62
7
  6
CONTINUOUS
 10
-2.3505419392
 20
23.5474130852
 30
0.0
 11
0.499996712
 21
0.0035883639
 31
0.0
 40
0.5053247124
 41
-0.7715714568
 42
-0.0036366941
  0
ELLIPSE
  5
50D
100
AcDbEntity
  8
PORTATASTO
100
AcDbEllipse
 62
7
  6
CONTINUOUS
 10
2.0283991253
 20
21.2593079288
 30
0.0
 11
1.004787277
 21
0.6140102217
 31
0.0
 40
0.0864918533
 41
0.0543764479
 42
0.7329085821
  0
ELLIPSE
  5
50E
100
AcDbEntity
  8
PORTATASTO
100
AcDbEllipse
 62
7
  6
CONTINUOUS
 10
9.9741463344
 20
17.2864343243
 30
0.0
 11
0.4547905863
 21
0.8906238433
 31
0.0
 40
0.6079814556
 41
0.0051486949
 42
0.6840559135
  0
ELLIPSE
  5
50F
100
AcDbEntity
  8
PORTATASTO
100
AcDbEllipse
 62
7
  6
CONTINUOUS
 10
13.6823624626
 20
-21.4360846241
 30
0.0
 11
0.9927147821
 21
0.620457446
 31
0.0
 40
0.0764819879
 41
-2.4043514965
 42
-1.2416847052
  0
ELLIPSE
  5
510
100
AcDbEntity
  8
PORTATASTO
100
AcDbEllipse
 62
7
  6
CONTINUOUS
 10
-13.0244229621
 20
28.0255571954
 30
0.0
 11
0.2197467797
 21
0.4491356978
 31
0.0
 40
0.6167074461
 41
0.5113450335
 42
0.6689285998
  0
ELLIPSE
  5
511
100
AcDbEntity
  8
PORTATASTO
100
AcDbEllipse
 62
7
  6
CONTINUOUS
 10
-12.5800418065
 20
26.6914653596
 30
0.0
 11
1.0201448544
 21
-0.0048230743
 31
0.0
 40
0.4964289597
 41
1.3059116217
 42
2.3584907469
  0
ELLIPSE
  5
512
100
AcDbEntity
  8
PORTATASTO
100
AcDbEllipse
 62
7
  6
CONTINUOUS
 10
3.3298607702
 20
18.7365140713
 30
0.0
 11
1.0201448544
 21
-0.0048230743
 31
0.0
 40
0.4964289597
 41
1.3059116217
 42
2.3584907469
  0
ELLIPSE
  5
513
100
AcDbEntity
  8
PORTATASTO
100
AcDbEllipse
 62
7
  6
CONTINUOUS
 10
2.8854796146
 20
20.070605907
 30
0.0
 11
0.2197467797
 21
0.4491356978
 31
0.0
 40
0.6167074461
 41
0.5113450335
 42
0.6689285998
  0
ELLIPSE
  5
514
100
AcDbEntity
  8
PORTATASTO
100
AcDbEllipse
 62
7
  6
CONTINUOUS
 10
-13.4340918207
 20
23.0292227763
 30
0.0
 11
0.499998833
 21
0.002146795
 31
0.0
 40
0.5031994763
 41
-1.4336803663
 42
-0.7927946851
  0
ELLIPSE
  5
515
100
AcDbEntity
  8
PORTATASTO
100
AcDbEllipse
 62
7
  6
CONTINUOUS
 10
2.475810756
 20
15.074271488
 30
0.0
 11
0.499998833
 21
0.002146795
 31
0.0
 40
0.5031994763
 41
-1.4336803663
 42
-0.7927946851
  0
ELLIPSE
  5
516
100
AcDbEntity
  8
PORTATASTO
100
AcDbEllipse
 62
7
  6
CONTINUOUS
 10
13.6823624626
 20
15.4323262602
 30
0.0
 11
-0.7356038977
 21
1.2035991204
 31
0.0
 40
0.5552491559
 41
5.0730040213
 42
6.2356708126
  0
ELLIPSE
  5
517
100
AcDbEntity
  8
PORTATASTO
100
AcDbEllipse
 62
7
  6
CONTINUOUS
 10
5.7366152534
 20
19.4051998647
 30
0.0
 11
0.4394935595
 21
0.8982713957
 31
0.0
 40
0.6167074461
 41
5.3917895557
 42
6.9567681183
  0
ELLIPSE
  5
518
100
AcDbEntity
  8
PORTATASTO
100
AcDbEllipse
 62
7
  6
CONTINUOUS
 10
41.721322845
 20
49.9745462274
 30
0.0
 11
67.1693271187
 21
33.9393393611
 31
0.0
 40
0.0051354763
 41
-2.5183487311
 42
-2.3945435781
  0
ELLIPSE
  5
519
100
AcDbEntity
  8
PORTATASTO
100
AcDbEllipse
 62
7
  6
CONTINUOUS
 10
-7.4421915155
 20
25.2344414721
 30
0.0
 11
0.2217444622
 21
0.448142966
 31
0.0
 40
0.6091593932
 41
0.509674996
 42
0.6717114762
  0
ELLIPSE
  5
51A
100
AcDbEntity
  8
PORTATASTO
100
AcDbEllipse
 62
7
  6
CONTINUOUS
 10
-24.3701206799
 20
26.0395087516
 30
0.0
 11
-0.2234618187
 21
0.4480306886
 31
0.0
 40
0.6116748051
 41
-0.6831523243
 42
0.886730614
  0
ELLIPSE
  5
51B
100
AcDbEntity
  8
PORTATASTO
100
AcDbEllipse
 62
7
  6
CONTINUOUS
 10
-10.1732873232
 20
27.3601511531
 30
0.0
 11
0.4394935595
 21
0.8982713957
 31
0.0
 40
0.6167074461
 41
5.3917895557
 42
6.9567681183
  0
ELLIPSE
  5
51C
100
AcDbEntity
  8
PORTATASTO
100
AcDbEllipse
 62
7
  6
CONTINUOUS
 10
-2.2275401141
 20
23.3872775485
 30
0.0
 11
-0.7356038977
 21
1.2035991204
 31
0.0
 40
0.5552491559
 41
5.0730040213
 42
6.2356708126
  0
ELLIPSE
  5
51D
100
AcDbEntity
  8
PORTATASTO
100
AcDbEllipse
 62
7
  6
CONTINUOUS
 10
57.6312254217
 20
42.0195949391
 30
0.0
 11
67.1693271187
 21
33.9393393611
 31
0.0
 40
0.0051354763
 41
-2.5183487311
 42
-2.3945435781
  0
ELLIPSE
  5
51E
100
AcDbEntity
  8
PORTATASTO
100
AcDbEllipse
 62
7
  6
CONTINUOUS
 10
8.4677110612
 20
17.2794901837
 30
0.0
 11
0.2217444622
 21
0.448142966
 31
0.0
 40
0.6091593932
 41
0.509674996
 42
0.6717114762
  0
ELLIPSE
  5
51F
100
AcDbEntity
  8
PORTATASTO
100
AcDbEllipse
 62
7
  6
CONTINUOUS
 10
-2.3505419392
 20
24.3806463147
 30
0.0
 11
-0.3739417019
 21
0.598522373
 31
0.0
 40
0.554557473
 41
-3.1836090632
 42
-2.2031954143
  0
ELLIPSE
  5
520
100
AcDbEntity
  8
PORTATASTO
100
AcDbEllipse
 62
7
  6
CONTINUOUS
 10
6.4933101614
 20
10.6077933309
 30
0.0
 11
-0.2230998035
 21
0.4477110033
 31
0.0
 40
0.6127700112
 41
-2.2535417632
 42
-0.6836588249
  0
ELLIPSE
  5
521
100
AcDbEntity
  8
PORTATASTO
100
AcDbEllipse
 62
7
  6
CONTINUOUS
 10
6.4933101614
 20
-27.1001689233
 30
0.0
 11
-0.2234618187
 21
0.4480306886
 31
0.0
 40
0.6116748051
 41
2.4584403293
 42
4.0283232676
  0
ELLIPSE
  5
522
100
AcDbEntity
  8
PORTATASTO
100
AcDbEllipse
 62
7
  6
CONTINUOUS
 10
-22.7706757363
 20
25.8615165373
 30
0.0
 11
0.249929385
 21
0.0111824824
 31
0.0
 40
0.5313301283
 41
-2.3799630874
 42
-0.8144027484
  0
ELLIPSE
  5
523
100
AcDbEntity
  8
PORTATASTO
100
AcDbEllipse
 62
7
  6
CONTINUOUS
 10
-24.0091244632
 20
26.4807409007
 30
0.0
 11
0.249929385
 21
0.0111824824
 31
0.0
 40
0.5313301283
 41
3.1178230293
 42
3.9032222197
  0
ELLIPSE
  5
524
100
AcDbEntity
  8
PORTATASTO
100
AcDbEllipse
 62
7
  6
CONTINUOUS
 10
-10.6624839683
 20
19.8074206532
 30
0.0
 11
0.249929385
 21
0.0111824824
 31
0.0
 40
0.5313301283
 41
3.1178230293
 42
3.9032222197
  0
ELLIPSE
  5
525
100
AcDbEntity
  8
PORTATASTO
100
AcDbEllipse
 62
7
  6
CONTINUOUS
 10
-9.4240352414
 20
19.1881962898
 30
0.0
 11
0.249929385
 21
0.0111824824
 31
0.0
 40
0.5313301283
 41
-2.3799630874
 42
-0.8144027484
  0
ELLIPSE
  5
526
100
AcDbEntity
  8
PORTATASTO
100
AcDbEllipse
 62
7
  6
CONTINUOUS
 10
-8.0992218865
 20
18.5257896123
 30
0.0
 11
0.249929385
 21
0.0111824824
 31
0.0
 40
0.5313301283
 41
3.1178230293
 42
3.9032222197
  0
ELLIPSE
  5
527
100
AcDbEntity
  8
PORTATASTO
100
AcDbEllipse
 62
7
  6
CONTINUOUS
 10
-6.8607731596
 20
17.9065652489
 30
0.0
 11
0.249929385
 21
0.0111824824
 31
0.0
 40
0.5313301283
 41
-2.3799630874
 42
-0.8144027484
  0
ELLIPSE
  5
528
100
AcDbEntity
  8
PORTATASTO
100
AcDbEllipse
 62
7
  6
CONTINUOUS
 10
6.4858673353
 20
11.2332450015
 30
0.0
 11
0.249929385
 21
0.0111824824
 31
0.0
 40
0.5313301283
 41
-2.3799630874
 42
-0.8144027484
  0
ELLIPSE
  5
529
100
AcDbEntity
  8
PORTATASTO
100
AcDbEllipse
 62
7
  6
CONTINUOUS
 10
5.2474186084
 20
11.8524693649
 30
0.0
 11
0.249929385
 21
0.0111824824
 31
0.0
 40
0.5313301283
 41
3.1178230293
 42
3.9032222197
  0
ELLIPSE
  5
52A
100
AcDbEntity
  8
PORTATASTO
100
AcDbEllipse
 62
7
  6
CONTINUOUS
 10
-13.4340918207
 20
21.7575945165
 30
0.0
 11
0.4998587701
 21
0.0223649649
 31
0.0
 40
0.5313301283
 41
-2.3799630874
 42
-0.8144027484
  0
ELLIPSE
  5
52B
100
AcDbEntity
  8
PORTATASTO
100
AcDbEllipse
 62
7
  6
CONTINUOUS
 10
-18.9384077121
 20
24.5097524622
 30
0.0
 11
0.4998587701
 21
0.0223649649
 31
0.0
 40
0.5313301283
 41
3.1178301629
 42
3.9032222197
  0
ELLIPSE
  5
52C
100
AcDbEntity
  8
PORTATASTO
100
AcDbEllipse
 62
7
  6
CONTINUOUS
 10
-3.0285051354
 20
16.5548011739
 30
0.0
 11
0.4998587701
 21
0.0223649649
 31
0.0
 40
0.5313301283
 41
3.1178301629
 42
3.9032222197
  0
ELLIPSE
  5
52D
100
AcDbEntity
  8
PORTATASTO
100
AcDbEllipse
 62
7
  6
CONTINUOUS
 10
2.475810756
 20
13.8026432281
 30
0.0
 11
0.4998587701
 21
0.0223649649
 31
0.0
 40
0.5313301283
 41
-2.3799630874
 42
-0.8144027484
  0
ELLIPSE
  5
52E
100
AcDbEntity
  8
PORTATASTO
100
AcDbEllipse
 62
7
  6
CONTINUOUS
 10
13.5593606375
 20
-21.599344784
 30
0.0
 11
0.499443764
 21
0.3120915671
 31
0.0
 40
0.0755486457
 41
6.0235428442
 42
7.0039564932
  0
ELLIPSE
  5
52F
100
AcDbEntity
  8
PORTATASTO
100
AcDbEllipse
 62
7
  6
CONTINUOUS
 10
13.5593606375
 20
16.4256950264
 30
0.0
 11
-0.3739417019
 21
0.598522373
 31
0.0
 40
0.554557473
 41
-3.1836090632
 42
-2.2031954143
  0
ELLIPSE
  5
530
100
AcDbEntity
  8
ASSI
100
AcDbEllipse
 62
7
  6
CONTINUOUS
 10
-6.993861611
 20
28.6971874758
 30
0.0
 11
1.4999710778
 21
-0.0189973899
 31
0.0
 40
0.4903203455
 41
0.7916080745
 42
1.8332186255
  0
ELLIPSE
  5
531
100
AcDbEntity
  8
ASSI
100
AcDbEllipse
 62
7
  6
CONTINUOUS
 10
-2.7512209239
 20
30.7368801342
 30
0.0
 11
1.4999710778
 21
-0.0189973899
 31
0.0
 40
0.4903203455
 41
0.7916080745
 42
1.8363067263
  0
ELLIPSE
  5
532
100
AcDbEntity
  8
ASSI
100
AcDbEllipse
 62
7
  6
CONTINUOUS
 10
23.1765670691
 20
16.5394915128
 30
0.0
 11
-0.894612936
 21
1.7887945813
 31
0.0
 40
0.6124635976
 41
-2.2555607096
 42
-1.470288718
  0
ELLIPSE
  5
533
100
AcDbEntity
  8
ASSI
100
AcDbEllipse
 62
7
  6
CONTINUOUS
 10
-11.2382160498
 20
28.2843578385
 30
0.0
 11
1.5870080038
 21
-0.0223013218
 31
0.0
 40
0.4892375167
 41
0.7922724489
 42
1.6399000838
  0
ELLIPSE
  5
534
100
AcDbEntity
  8
ASSI
100
AcDbEllipse
 62
7
  6
CONTINUOUS
 10
-6.9955654684
 20
30.3149837398
 30
0.0
 11
1.5778454825
 21
-0.0221725661
 31
0.0
 40
0.4892375167
 41
0.7922724489
 42
3.9338651961
  0
ELLIPSE
  5
535
100
AcDbEntity
  8
ASSI
100
AcDbEllipse
 62
7
  6
CONTINUOUS
 10
-2.752914887
 20
32.345609641
 30
0.0
 11
1.5686829612
 21
-0.0220438104
 31
0.0
 40
0.4892375167
 41
0.7922724489
 42
3.9338651961
  0
ELLIPSE
  5
536
100
AcDbEntity
  8
ASSI
100
AcDbEllipse
 62
7
  6
CONTINUOUS
 10
21.5720863111
 20
16.0316557731
 30
0.0
 11
-0.447101003
 21
0.8945282396
 31
0.0
 40
0.6124326778
 41
-1.4698904957
 42
-0.6846185041
  0
ELLIPSE
  5
537
100
AcDbEntity
  8
ASSI
100
AcDbEllipse
 62
7
  6
CONTINUOUS
 10
3.9645995343
 20
28.9868524304
 30
0.0
 11
1.5686829612
 21
-0.0220438104
 31
0.0
 40
0.4892375167
 41
3.9338651025
 42
7.0754578494
  0
ELLIPSE
  5
538
100
AcDbEntity
  8
ASSI
100
AcDbEllipse
 62
7
  6
CONTINUOUS
 10
7.9612313867
 20
8.798647074
 30
0.0
 11
-0.894612936
 21
1.7887945813
 31
0.0
 40
0.6124635976
 41
4.0276245976
 42
4.1912332821
  0
ELLIPSE
  5
539
100
AcDbEntity
  8
ASSI
100
AcDbEllipse
 62
7
  6
CONTINUOUS
 10
7.9612313867
 20
8.798647074
 30
0.0
 11
-0.894612936
 21
1.7887945813
 31
0.0
 40
0.6124635976
 41
-2.015409063
 42
-1.9952166845
  0
ELLIPSE
  5
53A
100
AcDbEntity
  8
ASSI
100
AcDbEllipse
 62
7
  6
CONTINUOUS
 10
7.9612313867
 20
-21.8091964235
 30
0.0
 11
-0.894811907
 21
1.788971565
 31
0.0
 40
0.6123121697
 41
-2.3777848673
 42
-2.2557423369
  0
ELLIPSE
  5
53B
100
AcDbEntity
  8
ASSI
100
AcDbEllipse
 62
7
  6
CONTINUOUS
 10
-0.2780510471
 20
26.9562265292
 30
0.0
 11
1.5778454825
 21
-0.0221725661
 31
0.0
 40
0.4892375167
 41
3.9338651025
 42
7.0754578494
  0
ELLIPSE
  5
53C
100
AcDbEntity
  8
ASSI
100
AcDbEllipse
 62
7
  6
CONTINUOUS
 10
-4.5207016285
 20
24.9256006279
 30
0.0
 11
1.5870080038
 21
-0.0223013218
 31
0.0
 40
0.4892375167
 41
-0.0427006016
 42
0.7922725423
  0
ELLIPSE
  5
53D
100
AcDbEntity
  8
ASSI
100
AcDbEllipse
 62
7
  6
CONTINUOUS
 10
29.8587535656
 20
18.2251562991
 30
0.0
 11
0.9999938762
 21
-0.0070751823
 31
0.0
 40
0.4946372042
 41
-0.7644452153
 42
0.3542851022
  0
ENDSEC
  0
SECTION
  2
OBJECTS
  0
DICTIONARY
  5
C
100
AcDbDictionary
280
0
281
1
  3
ACAD_GROUP
350
D
  3
ACAD_MLINESTYLE
350
17
  3
ACAD_LAYOUT
350
1A
  3
ACAD_PLOTSETTINGS
350
19
  3
ACAD_PLOTSTYLENAME
350
E
  0
DICTIONARY
  5
D
102
{ACAD_REACTORS
330
C
102
}
100
AcDbDictionary
280
0
281
1
  0
ACDBDICTIONARYWDFLT
  5
E
102
{ACAD_REACTORS
330
C
102
}
100
AcDbDictionary
281
1
  3
Normal
350
F
100
AcDbDictionaryWithDefault
340
F
  0
DICTIONARY
  5
17
102
{ACAD_REACTORS
330
C
102
}
100
AcDbDictionary
280
0
281
1
  3
Standard
350
18
  0
DICTIONARY
  5
19
102
{ACAD_REACTORS
330
C
102
}
100
AcDbDictionary
281
1
  0
DICTIONARY
  5
1A
102
{ACAD_REACTORS
330
C
102
}
100
AcDbDictionary
281
1
  3
Model
350
53E
  3
Layout1
350
53F
  0
ACDBPLACEHOLDER
  5
F
102
{ACAD_REACTORS
330
E
102
}
  0
MLINESTYLE
  5
18
102
{ACAD_REACTORS
330
17
102
}
100
AcDbMlineStyle
  2
STANDARD
 70
0
  3

 62
256
 51
90.0
 52
90.0
 71
2
 49
0.5
 62
256
  6
BYLAYER
 49
-0.5
 62
256
  6
BYLAYER
  0
LAYOUT
  5
53E
102
{ACAD_REACTORS
330
1A
102
}
100
AcDbPlotSettings
  1

  2
none_device
  4
ISO_A4_(297.00_x_210.00_MM)
  6

 40
0.0
 41
0.0
 42
0.0
 43
0.0
 44
297.0
 45
210.0
 46
0.0
 47
0.0
 48
0.0
 49
0.0
140
0.0
141
0.0
142
1.0
143
1.0
 70
1024
 72
1
 73
0
 74
0
  7

 75
0
147
1.0
148
0.0
149
0.0
100
AcDbLayout
  1
Model
 70
0
 71
0
 10
0.0
 20
0.0
 11
297.0
 21
210.0
 12
0.0
 22
0.0
 32
0.0
 14
0.0
 24
0.0
 34
0.0
 15
0.0
 25
0.0
 35
0.0
146
0.0
 13
0.0
 23
0.0
 33
0.0
 16
1.0
 26
0.0
 36
0.0
 17
0.0
 27
1.0
 37
0.0
 76
0
330
221
345
0
346
0
  0
LAYOUT
  5
53F
102
{ACAD_REACTORS
330
1A
102
}
100
AcDbPlotSettings
  1

  2
none_device
  4
ISO_A4_(297.00_x_210.00_MM)
  6

 40
0.0
 41
0.0
 42
0.0
 43
0.0
 44
297.0
 45
210.0
 46
0.0
 47
0.0
 48
0.0
 49
0.0
140
0.0
141
0.0
142
1.0
143
1.0
 70
0
 72
1
 73
0
 74
0
  7

 75
0
147
1.0
148
0.0
149
0.0
100
AcDbLayout
  1
Layout1
 70
0
 71
1
 10
0.0
 20
0.0
 11
297.0
 21
210.0
 12
0.0
 22
0.0
 32
0.0
 14
0.0
 24
0.0
 34
0.0
 15
0.0
 25
0.0
 35
0.0
146
0.0
 13
0.0
 23
0.0
 33
0.0
 16
1.0
 26
0.0
 36
0.0
 17
0.0
 27
1.0
 37
0.0
 76
0
330
222
345
0
346
0
  0
ENDSEC
  0
EOF
