  0
SECTION
  2
HEADER
  9
$ACADVER
  1
AC1015
  9
$DWGCODEPAGE
  3
ANSI_1252
  9
$EXTMAX
 10
297.0
 20
210.0
 30
0.0
  9
$EXTMIN
 10
0.0
 20
0.0
 30
0.0
  9
$LIMMIN
 10
0.0
 20
0.0
  9
$LIMMAX
 10
297.0
 20
210.0
  9
$VIEWCTR
 10
148.5
 20
105.0
  9
$VIEWSIZE
 40
210.0
  9
$CLAYER
  8
0
  9
$LTSCALE
 40
16.335
  9
$CELTYPE
  6
BYLAYER
  9
$DIMSCALE
 40
1.0
  9
$DIMASZ
 40
3.0
  9
$DIMEXO
 40
0.5
  9
$DIMDLI
 40
11.286
  9
$DIMEXE
 40
1.5
  9
$DIMCEN
 40
2.673
  9
$DIMLFAC
 40
1.0
  9
$DIMBLK
  1
_FILLED
  9
$DIMTXT
 40
3.0
  9
$DIMTOL
 70
1
  9
$DIMLIM
 70
0
  9
$DIMTFAC
 40
1.0
  9
$DIMTP
 40
0.01
  9
$DIMTM
 40
0.01
  9
$DIMGAP
 40
0.625
  9
$DIMDSEP
 70
44
  9
$PDMODE
 70
3
  9
$PDSIZE
 40
3.0
  9
$HANDSEED
  5
493
  9
$TILEMODE
 70
1
  9
$MEASUREMENT
 70
1
  9
$INSUNITS
 70
4
  0
ENDSEC
  0
SECTION
  2
CLASSES
  0
CLASS
  1
ACDBDICTIONARYWDFLT
  2
AcDbDictionaryWithDefault
  3
AutoCAD 2000
 90
0
280
0
281
0
  0
CLASS
  1
ACDBPLACEHOLDER
  2
AcDbPlaceHolder
  3
AutoCAD 2000
 90
0
280
0
281
0
  0
CLASS
  1
LAYOUT
  2
AcDbLayout
  3
AutoCAD 2000
 90
0
280
0
281
0
  0
ENDSEC
  0
SECTION
  2
TABLES
  0
TABLE
  2
VPORT
  5
8
100
AcDbSymbolTable
 70
2
  0
VPORT
  5
1F4
100
AcDbSymbolTableRecord
100
AcDbViewportTableRecord
  2
*ACTIVE
 70
0
 10
0.0
 20
0.0
 11
1.0
 21
1.0
 12
148.5
 22
105.0
 13
0.0
 23
0.0
 14
1.0
 24
1.0
 15
0.0
 25
0.0
 16
0.0
 26
0.0
 36
1.0
 17
0.0
 27
0.0
 37
0.0
 40
210.0
 41
1.4142857143
 42
50.0
 43
0.0
 44
0.0
 50
0.0
 51
0.0
 71
0
 72
100
 73
1
 74
1
 75
0
 76
0
 77
0
 78
0
  0
ENDTAB
  0
TABLE
  2
LTYPE
  5
5
100
AcDbSymbolTable
 70
6
  0
LTYPE
  5
14
100
AcDbSymbolTableRecord
100
AcDbLinetypeTableRecord
  2
BYBLOCK
 70
0
  3

 72
65
 73
0
 40
0.0
  0
LTYPE
  5
15
100
AcDbSymbolTableRecord
100
AcDbLinetypeTableRecord
  2
BYLAYER
 70
0
  3

 72
65
 73
0
 40
0.0
  0
LTYPE
  5
16
100
AcDbSymbolTableRecord
100
AcDbLinetypeTableRecord
  2
CONTINUOUS
 70
64
  3
Solid line
 72
65
 73
0
 40
0.0
  0
LTYPE
  5
1F5
100
AcDbSymbolTableRecord
100
AcDbLinetypeTableRecord
  2
CENTER
 70
64
  3
____ _ ____ _ ____ _ ____ _ ____ _ ____ _ ____
 72
65
 73
4
 40
0.6
 49
0.375
 74
0
 49
-0.075
 74
0
 49
0.075
 74
0
 49
-0.075
 74
0
  0
LTYPE
  5
1F6
100
AcDbSymbolTableRecord
100
AcDbLinetypeTableRecord
  2
HIDDEN
 70
64
  3
- - - - - - - - - - - - - - - - - - - -
 72
65
 73
2
 40
0.2
 49
0.1
 74
0
 49
-0.1
 74
0
  0
LTYPE
  5
1F7
100
AcDbSymbolTableRecord
100
AcDbLinetypeTableRecord
  2
PHANTOM
 70
64
  3
_____ _ _ _____ _ _ _____ _ _ _____
 72
65
 73
6
 40
0.8
 49
0.45
 74
0
 49
-0.05
 74
0
 49
0.1
 74
0
 49
-0.05
 74
0
 49
0.1
 74
0
 49
-0.05
 74
0
  0
LTYPE
  5
1F8
100
AcDbSymbolTableRecord
100
AcDbLinetypeTableRecord
  2
DOT
 70
64
  3
. . . . . . . . . . . . . . . . . . . .
 72
65
 73
2
 40
0.2
 49
0.1
 74
0
 49
-0.1
 74
0
  0
LTYPE
  5
1F9
100
AcDbSymbolTableRecord
100
AcDbLinetypeTableRecord
  2
DASHED
 70
64
  3
- - - - - - - - - - - - - - - - - - - -
 72
65
 73
2
 40
0.2
 49
0.1
 74
0
 49
-0.1
 74
0
  0
ENDTAB
  0
TABLE
  2
LAYER
  5
2
100
AcDbSymbolTable
 70
36
  0
LAYER
  5
10
100
AcDbSymbolTableRecord
100
AcDbLayerTableRecord
  2
0
 70
0
 62
7
  6
CONTINUOUS
370
-3
390
F
  0
LAYER
  5
1FA
100
AcDbSymbolTableRecord
100
AcDbLayerTableRecord
  2
DEFAULT_1
 70
0
 62
7
  6
CENTER
370
-3
390
F
  0
LAYER
  5
1FB
100
AcDbSymbolTableRecord
100
AcDbLayerTableRecord
  2
DEFAULT_2
 70
0
 62
7
  6
HIDDEN
370
-3
390
F
  0
LAYER
  5
1FC
100
AcDbSymbolTableRecord
100
AcDbLayerTableRecord
  2
DEFAULT_3
 70
0
 62
7
  6
PHANTOM
370
-3
390
F
  0
LAYER
  5
1FD
100
AcDbSymbolTableRecord
100
AcDbLayerTableRecord
  2
ASSI
 70
0
 62
7
  6
CONTINUOUS
370
-3
390
F
  0
LAYER
  5
1FE
100
AcDbSymbolTableRecord
100
AcDbLayerTableRecord
  2
COORDINATE
 70
0
 62
7
  6
CONTINUOUS
370
-3
390
F
  0
LAYER
  5
1FF
100
AcDbSymbolTableRecord
100
AcDbLayerTableRecord
  2
COORD_ORIGINE
 70
0
 62
7
  6
CONTINUOUS
370
-3
390
F
  0
LAYER
  5
200
100
AcDbSymbolTableRecord
100
AcDbLayerTableRecord
  2
COPY-PUBBLISH
 70
0
 62
7
  6
CONTINUOUS
370
-3
390
F
  0
LAYER
  5
201
100
AcDbSymbolTableRecord
100
AcDbLayerTableRecord
  2
COPY_PUBLISH
 70
0
 62
7
  6
CONTINUOUS
370
-3
390
F
  0
LAYER
  5
202
100
AcDbSymbolTableRecord
100
AcDbLayerTableRecord
  2
COSMETICHE
 70
0
 62
7
  6
CONTINUOUS
370
-3
390
F
  0
LAYER
  5
203
100
AcDbSymbolTableRecord
100
AcDbLayerTableRecord
  2
COSMETICI
 70
0
 62
7
  6
CONTINUOUS
370
-3
390
F
  0
LAYER
  5
204
100
AcDbSymbolTableRecord
100
AcDbLayerTableRecord
  2
CURVE
 70
0
 62
7
  6
CONTINUOUS
370
-3
390
F
  0
LAYER
  5
205
100
AcDbSymbolTableRecord
100
AcDbLayerTableRecord
  2
DRAFT
 70
0
 62
7
  6
CONTINUOUS
370
-3
390
F
  0
LAYER
  5
206
100
AcDbSymbolTableRecord
100
AcDbLayerTableRecord
  2
IMPORT
 70
0
 62
7
  6
CONTINUOUS
370
-3
390
F
  0
LAYER
  5
207
100
AcDbSymbolTableRecord
100
AcDbLayerTableRecord
  2
IMPORT_IGES
 70
0
 62
7
  6
CONTINUOUS
370
-3
390
F
  0
LAYER
  5
208
100
AcDbSymbolTableRecord
100
AcDbLayerTableRecord
  2
NOTE
 70
0
 62
7
  6
CONTINUOUS
370
-3
390
F
  0
LAYER
  5
209
100
AcDbSymbolTableRecord
100
AcDbLayerTableRecord
  2
PIANI
 70
0
 62
7
  6
CONTINUOUS
370
-3
390
F
  0
LAYER
  5
20A
100
AcDbSymbolTableRecord
100
AcDbLayerTableRecord
  2
PIANI-RIFERIMENTO
 70
0
 62
7
  6
CONTINUOUS
370
-3
390
F
  0
LAYER
  5
20B
100
AcDbSymbolTableRecord
100
AcDbLayerTableRecord
  2
PIANISFORMI
 70
0
 62
7
  6
CONTINUOUS
370
-3
390
F
  0
LAYER
  5
20C
100
AcDbSymbolTableRecord
100
AcDbLayerTableRecord
  2
PIANI_ORIGINE
 70
0
 62
7
  6
CONTINUOUS
370
-3
390
F
  0
LAYER
  5
20D
100
AcDbSymbolTableRecord
100
AcDbLayerTableRecord
  2
PIANI_RIFERIMENTO
 70
0
 62
7
  6
CONTINUOUS
370
-3
390
F
  0
LAYER
  5
20E
100
AcDbSymbolTableRecord
100
AcDbLayerTableRecord
  2
PUNTI
 70
0
 62
7
  6
CONTINUOUS
370
-3
390
F
  0
LAYER
  5
20F
100
AcDbSymbolTableRecord
100
AcDbLayerTableRecord
  2
RACCORDO
 70
0
 62
7
  6
CONTINUOUS
370
-3
390
F
  0
LAYER
  5
210
100
AcDbSymbolTableRecord
100
AcDbLayerTableRecord
  2
SIMBOLI
 70
0
 62
7
  6
CONTINUOUS
370
-3
390
F
  0
LAYER
  5
211
100
AcDbSymbolTableRecord
100
AcDbLayerTableRecord
  2
SMUSSO
 70
0
 62
7
  6
CONTINUOUS
370
-3
390
F
  0
LAYER
  5
212
100
AcDbSymbolTableRecord
100
AcDbLayerTableRecord
  2
SNAPLINE
 70
0
 62
7
  6
CONTINUOUS
370
-3
390
F
  0
LAYER
  5
213
100
AcDbSymbolTableRecord
100
AcDbLayerTableRecord
  2
SUPERFICI
 70
0
 62
7
  6
CONTINUOUS
370
-3
390
F
  0
LAYER
  5
214
100
AcDbSymbolTableRecord
100
AcDbLayerTableRecord
  2
TRACCIABILITA
 70
0
 62
7
  6
CONTINUOUS
370
-3
390
F
  0
LAYER
  5
215
100
AcDbSymbolTableRecord
100
AcDbLayerTableRecord
  2
TRASCH
 70
0
 62
7
  6
CONTINUOUS
370
-3
390
F
  0
LAYER
  5
216
100
AcDbSymbolTableRecord
100
AcDbLayerTableRecord
  2
TRASH
 70
0
 62
7
  6
CONTINUOUS
370
-3
390
F
  0
LAYER
  5
217
100
AcDbSymbolTableRecord
100
AcDbLayerTableRecord
  2
XSEC_DATUMS
 70
0
 62
7
  6
CONTINUOUS
370
-3
390
F
  0
ENDTAB
  0
TABLE
  2
STYLE
  5
3
100
AcDbSymbolTable
 70
1
  0
STYLE
  5
11
100
AcDbSymbolTableRecord
100
AcDbTextStyleTableRecord
  2
STANDARD
 70
0
 40
0.0
 41
0.8
 50
0.0
 71
0
 42
0.2
  3
txt
  4

  0
STYLE
  5
218
100
AcDbSymbolTableRecord
100
AcDbTextStyleTableRecord
  2
TEXTSTYLE_1
 70
0
 40
0.0
 41
0.8
 50
0.0
 71
0
 42
0.2
  3
gdt
  4

  0
ENDTAB
  0
TABLE
  2
VIEW
  5
6
100
AcDbSymbolTable
 70
0
  0
ENDTAB
  0
TABLE
  2
UCS
  5
7
100
AcDbSymbolTable
 70
0
  0
ENDTAB
  0
TABLE
  2
APPID
  5
9
100
AcDbSymbolTable
 70
1
  0
APPID
  5
219
100
AcDbSymbolTableRecord
100
AcDbRegAppTableRecord
  2
ACAD
 70
0
  0
ENDTAB
  0
TABLE
  2
BLOCK_RECORD
  5
1
100
AcDbSymbolTable
 70
0
  0
BLOCK_RECORD
  5
21A
100
AcDbSymbolTableRecord
100
AcDbBlockTableRecord
  2
*Model_Space
  0
BLOCK_RECORD
  5
21B
100
AcDbSymbolTableRecord
100
AcDbBlockTableRecord
  2
*Paper_Space
  0
ENDTAB
  0
TABLE
  2
DIMSTYLE
  5
A
100
AcDbSymbolTable
 70
1
100
AcDbDimStyleTable
 71
0
  0
DIMSTYLE
105
21C
100
AcDbSymbolTableRecord
100
AcDbDimStyleTableRecord
  2
STANDARD
 70
0
  3

  4

 40
1.0
 41
3.0
 42
0.5
 43
0.38
 44
1.5
 45
0.0
 46
0.0
 47
0.01
 48
0.01
140
3.0
141
0.09
142
0.0
143
25.4
144
1.0
145
0.0
146
1.0
147
0.625
 71
1.0
 72
0.0
 73
0
 74
0
 75
0
 76
0
 77
1
 78
8
170
0
171
2
172
0
173
0
174
0
175
0
176
0
177
0
178
0
270
2
271
2
272
2
273
2
274
2
275
0
280
0
281
0
282
0
283
1
284
8
285
0
286
0
287
3
288
0
340
11
278
44
  0
ENDTAB
  0
ENDSEC
  0
SECTION
  2
BLOCKS
  0
BLOCK
  5
20
100
AcDbEntity
  8
0
100
AcDbBlockBegin
  2
*Model_Space
 70
0
 10
0.0
 20
0.0
 30
0.0
  3
*Model_Space
  1

  0
ENDBLK
  5
21
100
AcDbEntity
  8
0
100
AcDbBlockEnd
  0
BLOCK
  5
1C
100
AcDbEntity
  8
0
100
AcDbBlockBegin
  2
*Paper_Space
 70
0
 10
0.0
 20
0.0
 30
0.0
  3
*Paper_Space
  1

  0
ENDBLK
  5
1D
100
AcDbEntity
  8
0
100
AcDbBlockEnd
  0
ENDSEC
  0
SECTION
  2
ENTITIES
  0
LWPOLYLINE
  5
21D
100
AcDbEntity
  8
RACCORDO
100
AcDbPolyline
 62
7
  6
CONTINUOUS
 90
37
 70
0
 10
130.294589843
 20
115.263130642
 10
130.2686213358
 20
115.2384660122
 10
130.2343232088
 20
115.2040461519
 10
130.2009601416
 20
115.1684773812
 10
130.1685176593
 20
115.1318313958
 10
130.1369688907
 20
115.0941604442
 10
130.1062943735
 20
115.0555148995
 10
130.0764848197
 20
115.015952739
 10
130.0475345771
 20
114.9755298022
 10
130.0194501118
 20
114.9343149417
 10
129.9922352362
 20
114.8923730243
 10
129.9658846938
 20
114.8497491986
 10
129.9404022433
 20
114.8065009296
 10
129.915802595
 20
114.7627022553
 10
129.8920786455
 20
114.7183856867
 10
129.8692110015
 20
114.6735548125
 10
129.8472114313
 20
114.6282642349
 10
129.8260862548
 20
114.5825572865
 10
129.8058187496
 20
114.5364208426
 10
129.7864232366
 20
114.4899008498
 10
129.7679131663
 20
114.4430428498
 10
129.7502809353
 20
114.3958303148
 10
129.7335452394
 20
114.3483070095
 10
129.7177245119
 20
114.3005165556
 10
129.7028195855
 20
114.2524379345
 10
129.6888538187
 20
114.2041131397
 10
129.6758519304
 20
114.1555852267
 10
129.6638236715
 20
114.1068280381
 10
129.6527984617
 20
114.057880734
 10
129.6428093141
 20
114.0087877603
 10
129.6338771721
 20
113.9595200666
 10
129.6260408734
 20
113.9101175869
 10
129.6193432186
 20
113.8606251976
 10
129.6138194063
 20
113.8110024632
 10
129.60951994
 20
113.7612561979
 10
129.6065048693
 20
113.7114608973
 10
129.6051598781
 20
113.6755058445
  0
LINE
  5
21E
100
AcDbEntity
  8
RACCORDO
100
AcDbLine
 62
7
  6
CONTINUOUS
 10
130.2945667214
 20
115.2631093359
 11
134.131557457
 21
118.8204663135
  0
LWPOLYLINE
  5
21F
100
AcDbEntity
  8
RACCORDO
100
AcDbPolyline
 62
253
  6
CONTINUOUS
 90
21
 70
0
 10
130.2945897796
 20
115.2631307104
 10
130.2995340077
 20
115.2675699619
 10
130.3115451413
 20
115.2772666716
 10
130.3242870364
 20
115.2861017064
 10
130.3377308619
 20
115.2940550755
 10
130.3518461986
 20
115.3011087828
 10
130.366601108
 20
115.3072468681
 10
130.3819622043
 20
115.3124554426
 10
130.3978947301
 20
115.3167227211
 10
130.4143626351
 20
115.320039048
 10
130.4313286576
 20
115.3223969195
 10
130.4487544087
 20
115.3237910005
 10
130.4666004593
 20
115.3242181366
 10
130.4848264294
 20
115.3236773614
 10
130.5033910794
 20
115.3221698983
 10
130.5222524032
 20
115.3196991585
 10
130.5413677235
 20
115.3162707323
 10
130.5606937883
 20
115.3118923772
 10
130.5801868688
 20
115.3065740002
 10
130.5998028581
 20
115.3003276349
 10
130.6194973714
 20
115.293167415
  0
LWPOLYLINE
  5
220
100
AcDbEntity
  8
RACCORDO
100
AcDbPolyline
 62
7
  6
CONTINUOUS
 90
17
 70
0
 10
133.6522006826
 20
119.8216015121
 10
133.6422537129
 20
119.8128084673
 10
133.6326872893
 20
119.8033957428
 10
133.6235520993
 20
119.7933817712
 10
133.614883264
 20
119.7827711575
 10
133.6067463114
 20
119.7716107742
 10
133.5992238158
 20
119.7599945694
 10
133.5923825826
 20
119.7480302061
 10
133.5862078339
 20
119.735700073
 10
133.5806657788
 20
119.7229071229
 10
133.5757689139
 20
119.7095975918
 10
133.5716015812
 20
119.6959110609
 10
133.5682291469
 20
119.6820327249
 10
133.5656633853
 20
119.6680405533
 10
133.5639002481
 20
119.6539522203
 10
133.5629422306
 20
119.6398494038
 10
133.5627467088
 20
119.6299516462
  0
LINE
  5
221
100
AcDbEntity
  8
RACCORDO
100
AcDbLine
 62
7
  6
CONTINUOUS
 10
134.9331860049
 20
120.8947577754
 11
133.6522006826
 21
119.8216015121
  0
LINE
  5
222
100
AcDbEntity
  8
RACCORDO
100
AcDbLine
 62
253
  6
CONTINUOUS
 10
135.0925639621
 20
120.9069416734
 11
133.8119124795
 21
119.8340650871
  0
LINE
  5
223
100
AcDbEntity
  8
RACCORDO
100
AcDbLine
 62
7
  6
CONTINUOUS
 10
134.9351111782
 20
120.8963347997
 11
134.9331881934
 21
120.8947596088
  0
LINE
  5
224
100
AcDbEntity
  8
RACCORDO
100
AcDbLine
 62
7
  6
CONTINUOUS
 10
135.3700523349
 20
121.2446584224
 11
134.9351126424
 21
120.8963359723
  0
LINE
  5
225
100
AcDbEntity
  8
RACCORDO
100
AcDbLine
 62
253
  6
CONTINUOUS
 10
135.5271617145
 20
121.25499028
 11
135.0925639621
 21
120.9069416734
  0
LINE
  5
226
100
AcDbEntity
  8
RACCORDO
100
AcDbLine
 62
7
  6
CONTINUOUS
 10
142.0574717259
 20
121.8980220044
 11
142.0275292074
 21
121.8890165157
  0
LINE
  5
227
100
AcDbEntity
  8
RACCORDO
100
AcDbLine
 62
253
  6
CONTINUOUS
 10
134.131557457
 20
118.5492741696
 11
130.6194973714
 21
115.293167415
  0
LINE
  5
228
100
AcDbEntity
  8
RACCORDO
100
AcDbLine
 62
7
  6
CONTINUOUS
 10
136.853744323
 20
118.4793926426
 11
136.1299755088
 21
117.8400718246
  0
LINE
  5
229
100
AcDbEntity
  8
RACCORDO
100
AcDbLine
 62
253
  6
CONTINUOUS
 10
137.0763951365
 20
120.6327832111
 11
136.6489597776
 21
120.2818580258
  0
LINE
  5
22A
100
AcDbEntity
  8
RACCORDO
100
AcDbLine
 62
253
  6
CONTINUOUS
 10
137.2811796819
 20
120.3457525755
 11
136.853744323
 21
119.9948273902
  0
LINE
  5
22B
100
AcDbEntity
  8
RACCORDO
100
AcDbLine
 62
253
  6
CONTINUOUS
 10
136.6489597776
 20
120.2818580258
 11
135.3468488399
 21
119.2176000405
  0
LINE
  5
22C
100
AcDbEntity
  8
RACCORDO
100
AcDbLine
 62
253
  6
CONTINUOUS
 10
136.853744323
 20
119.9948273902
 11
135.5516333853
 21
118.9305694049
  0
LINE
  5
22D
100
AcDbEntity
  8
DRAFT
100
AcDbLine
 62
7
  6
CONTINUOUS
 10
141.9523182297
 20
121.9114861719
 11
140.7408162712
 21
120.964089349
  0
LINE
  5
22E
100
AcDbEntity
  8
DRAFT
100
AcDbLine
 62
253
  6
CONTINUOUS
 10
141.8044280075
 20
121.8928242482
 11
137.8218083708
 21
118.7836552031
  0
LINE
  5
22F
100
AcDbEntity
  8
DRAFT
100
AcDbLine
 62
7
  6
CONTINUOUS
 10
141.7866806474
 20
121.8869406449
 11
137.8146243024
 21
118.786540487
  0
LINE
  5
230
100
AcDbEntity
  8
DRAFT
100
AcDbLine
 62
7
  6
CONTINUOUS
 10
140.7408162712
 20
120.964089349
 11
141.3793268737
 21
121.3461596986
  0
LWPOLYLINE
  5
231
100
AcDbEntity
  8
ASSI
100
AcDbPolyline
 62
7
  6
CONTINUOUS
 90
16
 70
0
 10
144.3881435749
 20
121.8636327372
 10
144.3981083384
 20
121.8690876303
 10
144.4087061026
 20
121.8738454997
 10
144.4199364786
 20
121.8778869939
 10
144.4318043189
 20
121.8812070186
 10
144.4442992994
 20
121.8837704238
 10
144.457392996
 20
121.8855137157
 10
144.4710728262
 20
121.8864108815
 10
144.4853289733
 20
121.8864497159
 10
144.5001302649
 20
121.8855900054
 10
144.515425308
 20
121.8838177878
 10
144.5312273945
 20
121.881113058
 10
144.5476044264
 20
121.8774217009
 10
144.564546955
 20
121.8727223074
 10
144.5820276575
 20
121.8669881769
 10
144.5994505746
 20
121.8604048995
  0
LINE
  5
232
100
AcDbEntity
  8
RACCORDO
100
AcDbLine
 62
7
  6
CONTINUOUS
 10
142.0275292074
 20
121.8890165157
 11
142.0177617762
 21
121.8852025683
  0
LINE
  5
233
100
AcDbEntity
  8
RACCORDO
100
AcDbLine
 62
253
  6
CONTINUOUS
 10
152.763153319
 20
74.734845724
 11
152.3357179601
 21
74.735730438
  0
LWPOLYLINE
  5
234
100
AcDbEntity
  8
RACCORDO
100
AcDbPolyline
 62
7
  6
CONTINUOUS
 90
24
 70
0
 10
147.2978679723
 20
72.2197148853
 10
147.3308379283
 20
72.2073801045
 10
147.3636701824
 20
72.1968468502
 10
147.3971025907
 20
72.187830072
 10
147.4310939258
 20
72.1803562994
 10
147.4656429165
 20
72.1744458513
 10
147.5006955185
 20
72.1701316378
 10
147.5361868788
 20
72.1674436609
 10
147.572106421
 20
72.166405636
 10
147.6084029213
 20
72.1670449302
 10
147.6450140603
 20
72.1693857919
 10
147.6819240054
 20
72.1734539833
 10
147.719086046
 20
72.1792721596
 10
147.7564488447
 20
72.1868597371
 10
147.7940055581
 20
72.1962455166
 10
147.8317219257
 20
72.2074540166
 10
147.8695579007
 20
72.2205053338
 10
147.9075168414
 20
72.2354360565
 10
147.9455692816
 20
72.2522743686
 10
147.9836958444
 20
72.2710518573
 10
148.0219319181
 20
72.29183251
 10
148.0602813512
 20
72.3146747013
 10
148.0987040597
 20
72.3396119318
 10
148.1266962862
 20
72.3591002308
  0
LINE
  5
235
100
AcDbEntity
  8
RACCORDO
100
AcDbLine
 62
7
  6
CONTINUOUS
 10
130.114026482
 20
79.1211327106
 11
147.2979661456
 21
72.2196751388
  0
LINE
  5
236
100
AcDbEntity
  8
RACCORDO
100
AcDbLine
 62
7
  6
CONTINUOUS
 10
130.1141148426
 20
79.1210972355
 11
130.1140348547
 21
79.1211293479
  0
LINE
  5
237
100
AcDbEntity
  8
RACCORDO
100
AcDbLine
 62
253
  6
CONTINUOUS
 10
129.81842652
 20
79.7563531176
 11
146.99235738
 21
72.858915307
  0
LINE
  5
238
100
AcDbEntity
  8
RACCORDO
100
AcDbLine
 62
253
  6
CONTINUOUS
 10
130.1140348547
 20
79.1211293479
 11
130.105461009
 21
79.1247181144
  0
LWPOLYLINE
  5
239
100
AcDbEntity
  8
RACCORDO
100
AcDbPolyline
 62
253
  6
CONTINUOUS
 90
24
 70
0
 10
130.105461009
 20
79.1247181144
 10
130.0834512541
 20
79.1353196944
 10
130.0621590341
 20
79.1476304086
 10
130.0416110811
 20
79.161634853
 10
130.0218332837
 20
79.1773154979
 10
130.0028492314
 20
79.1946533064
 10
129.9846826976
 20
79.2136267515
 10
129.9673566458
 20
79.2342121351
 10
129.9508918971
 20
79.2563841214
 10
129.9353091432
 20
79.280115043
 10
129.9206279599
 20
79.3053754352
 10
129.9068658224
 20
79.332134373
 10
129.8940399931
 20
79.3603586033
 10
129.8821666321
 20
79.3900131085
 10
129.8712598315
 20
79.4210616669
 10
129.8613331615
 20
79.4534661926
 10
129.8523993123
 20
79.4871861777
 10
129.8444691602
 20
79.522179207
 10
129.8375527015
 20
79.5584010546
 10
129.8316584497
 20
79.5958075377
 10
129.8267932046
 20
79.6343540985
 10
129.8229629909
 20
79.67399372
 10
129.820172901
 20
79.7146768193
 10
129.81842652
 20
79.7563531176
  0
LINE
  5
23A
100
AcDbEntity
  8
RACCORDO
100
AcDbLine
 62
253
  6
CONTINUOUS
 10
136.853744323
 20
119.3071336175
 11
137.2811796819
 21
120.0170310956
  0
LWPOLYLINE
  5
23B
100
AcDbEntity
  8
RACCORDO
100
AcDbPolyline
 62
7
  6
CONTINUOUS
 90
28
 70
0
 10
136.1299755088
 20
118.6039911054
 10
136.1235111684
 20
118.5938807518
 10
136.1166538341
 20
118.5838961721
 10
136.1094049845
 20
118.5740590943
 10
136.1017610976
 20
118.5643922498
 10
136.0937314544
 20
118.5549168718
 10
136.0853378764
 20
118.5456528382
 10
136.0765851904
 20
118.5366227885
 10
136.0674795742
 20
118.5278489214
 10
136.0580458113
 20
118.5193509349
 10
136.0482915894
 20
118.51115165
 10
136.0382258122
 20
118.5032733144
 10
136.0278760242
 20
118.4957352738
 10
136.0172528524
 20
118.4885601479
 10
136.0063681464
 20
118.4817699609
 10
135.9952522736
 20
118.4753837013
 10
135.9839189654
 20
118.4694234055
 10
135.9723832028
 20
118.4639104734
 10
135.96067834
 20
118.4588634421
 10
135.948821394
 20
118.4543032894
 10
135.9368306717
 20
118.45025028
 10
135.9247427583
 20
118.4467222337
 10
135.912578171
 20
118.4437384699
 10
135.9003586744
 20
118.4413174276
 10
135.8881242311
 20
118.4394756255
 10
135.8758991704
 20
118.4382299629
 10
135.8637086092
 20
118.4375961379
 10
135.8555196025
 20
118.4375213972
  0
LINE
  5
23C
100
AcDbEntity
  8
RACCORDO
100
AcDbLine
 62
7
  6
CONTINUOUS
 10
139.7214197249
 20
118.1199451279
 11
140.0074796935
 21
118.3595942805
  0
LINE
  5
23D
100
AcDbEntity
  8
RACCORDO
100
AcDbLine
 62
7
  6
CONTINUOUS
 10
143.3421173672
 20
122.8101528204
 11
138.239324172
 21
118.6159714447
  0
LINE
  5
23E
100
AcDbEntity
  8
RACCORDO
100
AcDbLine
 62
7
  6
CONTINUOUS
 10
143.0172611647
 20
122.6790817014
 11
138.0954136903
 21
118.6737691385
  0
LINE
  5
23F
100
AcDbEntity
  8
ASSI
100
AcDbLine
 62
7
  6
CONTINUOUS
 10
140.0074796935
 20
118.3595942805
 11
144.3467279396
 21
121.8346911885
  0
LINE
  5
240
100
AcDbEntity
  8
DRAFT
100
AcDbLine
 62
7
  6
CONTINUOUS
 10
140.0304614306
 20
120.2484768197
 11
138.0434574392
 21
118.6946359403
  0
LWPOLYLINE
  5
241
100
AcDbEntity
  8
ASSI
100
AcDbPolyline
 62
7
  6
CONTINUOUS
 90
3
 70
0
 10
145.1145644225
 20
121.5977888532
 10
145.0972352613
 20
121.5869679585
 10
145.0878545238
 20
121.5811718157
  0
LINE
  5
242
100
AcDbEntity
  8
0
100
AcDbLine
 62
7
  6
CONTINUOUS
 10
147.4636333554
 20
120.7736920712
 11
146.3605115403
 21
120.4434740123
  0
LINE
  5
243
100
AcDbEntity
  8
RACCORDO
100
AcDbLine
 62
253
  6
CONTINUOUS
 10
152.6292315997
 20
75.0524908631
 11
152.3357179601
 21
75.0530983833
  0
LWPOLYLINE
  5
244
100
AcDbEntity
  8
RACCORDO
100
AcDbPolyline
 62
253
  6
CONTINUOUS
 90
31
 70
0
 10
150.6862625962
 20
72.9707060075
 10
150.6971357772
 20
72.9665772221
 10
150.7083695039
 20
72.9627792438
 10
150.7199332129
 20
72.9593224058
 10
150.7317954433
 20
72.9562161129
 10
150.7439239218
 20
72.9534688164
 10
150.7562856509
 20
72.9510879907
 10
150.7688469984
 20
72.9490801132
 10
150.781573789
 20
72.9474506469
 10
150.7944313973
 20
72.9462040247
 10
150.8073848421
 20
72.9453436386
 10
150.8203988812
 20
72.9448718291
 10
150.8334381078
 20
72.9447898801
 10
150.8464670465
 20
72.9450980144
 10
150.8594502498
 20
72.9457953938
 10
150.8723523947
 20
72.9468801208
 10
150.8851383787
 20
72.9483492443
 10
150.8977734154
 20
72.9501987673
 10
150.9102231291
 20
72.9524236578
 10
150.9224536482
 20
72.9550178628
 10
150.9344316975
 20
72.9579743241
 10
150.9461246886
 20
72.9612849982
 10
150.9575008088
 20
72.9649408779
 10
150.9685291075
 20
72.9689320168
 10
150.9791795803
 20
72.9732475562
 10
150.9894232508
 20
72.9778757551
 10
150.9992322493
 20
72.9828040216
 10
151.0085798887
 20
72.9880189475
 10
151.0174407374
 20
72.9935063447
 10
151.0257906877
 20
72.9992512839
 10
151.0336070223
 20
73.005238135
  0
LWPOLYLINE
  5
245
100
AcDbEntity
  8
RACCORDO
100
AcDbPolyline
 62
253
  6
CONTINUOUS
 90
31
 70
0
 10
150.6862625962
 20
73.2922789567
 10
150.6971357772
 20
73.2881501712
 10
150.7083695039
 20
73.284352193
 10
150.7199332129
 20
73.2808953549
 10
150.7317954433
 20
73.2777890621
 10
150.7439239218
 20
73.2750417655
 10
150.7562856509
 20
73.2726609398
 10
150.7688469984
 20
73.2706530624
 10
150.781573789
 20
73.269023596
 10
150.7944313973
 20
73.2677769739
 10
150.8073848421
 20
73.2669165877
 10
150.8203988812
 20
73.2664447783
 10
150.8334381078
 20
73.2663628293
 10
150.8464670465
 20
73.2666709636
 10
150.8594502498
 20
73.2673683429
 10
150.8723523947
 20
73.2684530699
 10
150.8851383787
 20
73.2699221935
 10
150.8977734154
 20
73.2717717165
 10
150.9102231291
 20
73.273996607
 10
150.9224536482
 20
73.2765908119
 10
150.9344316975
 20
73.2795472732
 10
150.9461246886
 20
73.2828579474
 10
150.9575008088
 20
73.2865138271
 10
150.9685291075
 20
73.290504966
 10
150.9791795803
 20
73.2948205054
 10
150.9894232508
 20
73.2994487043
 10
150.9992322493
 20
73.3043769707
 10
151.0085798887
 20
73.3095918967
 10
151.0174407374
 20
73.3150792939
 10
151.0257906877
 20
73.3208242331
 10
151.0336070223
 20
73.3268110842
  0
LINE
  5
246
100
AcDbEntity
  8
RACCORDO
100
AcDbLine
 62
7
  6
CONTINUOUS
 10
149.5087618476
 20
73.3492595858
 11
150.7364846332
 21
72.8561784367
  0
LINE
  5
247
100
AcDbEntity
  8
RACCORDO
100
AcDbLine
 62
253
  6
CONTINUOUS
 10
149.5931558075
 20
73.4097223374
 11
150.6862625962
 21
72.9707060075
  0
LINE
  5
248
100
AcDbEntity
  8
RACCORDO
100
AcDbLine
 62
253
  6
CONTINUOUS
 10
150.6862625962
 20
73.2922789567
 11
149.880773444
 21
73.6157815596
  0
LINE
  5
249
100
AcDbEntity
  8
RACCORDO
100
AcDbLine
 62
253
  6
CONTINUOUS
 10
150.7579596508
 20
73.5283613655
 11
150.1176822344
 21
73.7855112106
  0
LWPOLYLINE
  5
24A
100
AcDbEntity
  8
RACCORDO
100
AcDbPolyline
 62
253
  6
CONTINUOUS
 90
21
 70
0
 10
129.6051792049
 20
79.9935323244
 10
129.6061920717
 20
79.9789325711
 10
129.6082953433
 20
79.9648799247
 10
129.6114989091
 20
79.9509226284
 10
129.615795672
 20
79.937091602
 10
129.6211761135
 20
79.9234174856
 10
129.6276283142
 20
79.9099305715
 10
129.6351379805
 20
79.8966607376
 10
129.643688476
 20
79.8836373805
 10
129.6532608588
 20
79.8708893512
 10
129.663833923
 20
79.8584448905
 10
129.6753842461
 20
79.8463315667
 10
129.6878862404
 20
79.8345762146
 10
129.7013122101
 20
79.8232048761
 10
129.7156324125
 20
79.8122427422
 10
129.730815124
 20
79.8017140974
 10
129.7468267099
 20
79.7916422659
 10
129.7636316998
 20
79.7820495601
 10
129.7811928652
 20
79.7729572307
 10
129.7994713028
 20
79.7643854202
 10
129.8184265201
 20
79.7563531177
  0
LWPOLYLINE
  5
24B
100
AcDbEntity
  8
RACCORDO
100
AcDbPolyline
 62
7
  6
CONTINUOUS
 90
30
 70
0
 10
129.6051790568
 20
79.9935405512
 10
129.6066250416
 20
79.9575078592
 10
129.6098258171
 20
79.9099594411
 10
129.6144528166
 20
79.8635296397
 10
129.6205043804
 20
79.8181547696
 10
129.627967832
 20
79.7738828995
 10
129.6368028325
 20
79.7308706164
 10
129.6469944338
 20
79.6890894197
 10
129.6585253356
 20
79.6485350734
 10
129.6713169389
 20
79.6093871334
 10
129.6853391422
 20
79.5716180418
 10
129.7005557938
 20
79.5352212377
 10
129.716829753
 20
79.5003972891
 10
129.7340552398
 20
79.4672083021
 10
129.7522097837
 20
79.4355451306
 10
129.771251594
 20
79.4053580405
 10
129.7910815152
 20
79.3766876131
 10
129.8116694978
 20
79.3494663501
 10
129.8330913944
 20
79.3235177397
 10
129.8553279719
 20
79.2988188182
 10
129.8783024685
 20
79.2754104691
 10
129.9020219763
 20
79.253245665
 10
129.9264313146
 20
79.2323421831
 10
129.9514847992
 20
79.2127057573
 10
129.9772104062
 20
79.1942903908
 10
130.0035576902
 20
79.1771158292
 10
130.0304792819
 20
79.1611960049
 10
130.058016342
 20
79.1464964688
 10
130.0861529595
 20
79.1330252072
 10
130.1141214486
 20
79.121094879
  0
LWPOLYLINE
  5
24C
100
AcDbEntity
  8
RACCORDO
100
AcDbPolyline
 62
253
  6
CONTINUOUS
 90
22
 70
0
 10
129.81842652
 20
79.7563531176
 10
129.7755149707
 20
81.3232546763
 10
129.7368926745
 20
82.8940374509
 10
129.7025602392
 20
84.4686773252
 10
129.6725182151
 20
86.0471501172
 10
129.6467670648
 20
87.6294316019
 10
129.6253071631
 20
89.2154975116
 10
129.6081388425
 20
90.8053235023
 10
129.5952623784
 20
92.3988851655
 10
129.5866779581
 20
93.9961580503
 10
129.5823857117
 20
95.5971176382
 10
129.5823857117
 20
97.2017393564
 10
129.5866779581
 20
98.8099985893
 10
129.5952623784
 20
100.4218706577
 10
129.6081388425
 20
102.0373308175
 10
129.6253071631
 20
103.6563542742
 10
129.6467670648
 20
105.2789161802
 10
129.6725182151
 20
106.9049916345
 10
129.7025602392
 20
108.5345556816
 10
129.7368926745
 20
110.167583314
 10
129.7755149707
 20
111.8040494725
 10
129.81842652
 20
113.4439290454
  0
LWPOLYLINE
  5
24D
100
AcDbEntity
  8
RACCORDO
100
AcDbPolyline
 62
7
  6
CONTINUOUS
 90
22
 70
0
 10
129.605160334
 20
113.6755275312
 10
129.5625369772
 20
112.0471617474
 10
129.5238676445
 20
110.4098087092
 10
129.4894932865
 20
108.7758881925
 10
129.4594145964
 20
107.1454283643
 10
129.4336320372
 20
105.518453638
 10
129.4121460139
 20
103.8949869185
 10
129.3949569262
 20
102.2750523402
 10
129.3820650669
 20
100.6586749284
 10
129.3734706966
 20
99.0458789339
 10
129.3691740516
 20
97.4366888072
 10
129.3691752364
 20
95.8311297226
 10
129.3734743153
 20
94.2292270139
 10
129.3820713119
 20
92.6310057886
 10
129.3949661182
 20
91.036490202
 10
129.4121586021
 20
89.445704157
 10
129.4336485993
 20
87.8586722868
 10
129.4594358386
 20
86.2754181485
 10
129.4895200443
 20
84.6959640413
 10
129.5239008821
 20
83.1203336948
 10
129.5625777873
 20
81.5485542182
 10
129.6051792049
 20
79.9935323244
  0
LWPOLYLINE
  5
24E
100
AcDbEntity
  8
RACCORDO
100
AcDbPolyline
 62
253
  6
CONTINUOUS
 90
43
 70
0
 10
129.81842652
 20
113.4439290454
 10
129.8201728903
 20
113.4885386137
 10
129.8229629632
 20
113.5339076316
 10
129.826793158
 20
113.5799799503
 10
129.8316583896
 20
113.6266979682
 10
129.8375526361
 20
113.6740044804
 10
129.8444690912
 20
113.721842827
 10
129.8523992367
 20
113.7701550134
 10
129.8613330791
 20
113.8188802997
 10
129.8712597411
 20
113.8679570767
 10
129.8821665303
 20
113.9173241848
 10
129.8940398778
 20
113.9669211673
 10
129.9068656959
 20
114.016686923
 10
129.9206278288
 20
114.0665601152
 10
129.9353090117
 20
114.1164790544
 10
129.9508917645
 20
114.1663819266
 10
129.9673565093
 20
114.2162073273
 10
129.9846825555
 20
114.2658935586
 10
130.0028490827
 20
114.315378522
 10
130.0218331262
 20
114.3646010192
 10
130.0416109133
 20
114.4135004541
 10
130.0621588577
 20
114.4620161288
 10
130.0834510735
 20
114.5100882188
 10
130.1054608265
 20
114.5576574059
 10
130.1281618656
 20
114.6046645763
 10
130.1515256786
 20
114.6510519233
 10
130.1755228535
 20
114.6967620778
 10
130.2001245299
 20
114.7417377494
 10
130.2252996278
 20
114.7859233688
 10
130.2510165958
 20
114.829264636
 10
130.2772447765
 20
114.8717076449
 10
130.3039511053
 20
114.9132000521
 10
130.3311020569
 20
114.9536908048
 10
130.3586653963
 20
114.9931296672
 10
130.3866067433
 20
115.0314684797
 10
130.4148906799
 20
115.0686595596
 10
130.4434826856
 20
115.1046554929
 10
130.4723461166
 20
115.1394112868
 10
130.501445298
 20
115.172885063
 10
130.5307466567
 20
115.2050363095
 10
130.5602143627
 20
115.2358255712
 10
130.5898103435
 20
115.2652146808
 10
130.6194973714
 20
115.293167415
  0
LINE
  5
24F
100
AcDbEntity
  8
RACCORDO
100
AcDbLine
 62
7
  6
CONTINUOUS
 10
136.853744323
 20
119.2455321614
 11
137.2897346464
 21
119.9696379815
  0
LINE
  5
250
100
AcDbEntity
  8
0
100
AcDbLine
 62
7
  6
CONTINUOUS
 10
144.2435327951
 20
119.2093465454
 11
144.8171092315
 21
119.6791928558
  0
LINE
  5
251
100
AcDbEntity
  8
0
100
AcDbLine
 62
7
  6
CONTINUOUS
 10
146.3605115403
 20
120.4434740123
 11
145.2266852536
 21
119.5146978916
  0
LINE
  5
252
100
AcDbEntity
  8
ASSI
100
AcDbLine
 62
7
  6
CONTINUOUS
 10
145.0482082628
 20
121.5529608762
 11
141.3182929697
 21
118.5285839682
  0
LINE
  5
253
100
AcDbEntity
  8
DRAFT
100
AcDbLine
 62
7
  6
CONTINUOUS
 10
144.8171092315
 20
120.2018440025
 11
145.0878545238
 21
120.4202511935
  0
LINE
  5
254
100
AcDbEntity
  8
RACCORDO
100
AcDbLine
 62
7
  6
CONTINUOUS
 10
146.8950622542
 20
121.3832100546
 11
145.2266852536
 21
120.0373490383
  0
LWPOLYLINE
  5
255
100
AcDbEntity
  8
ASSI
100
AcDbPolyline
 62
7
  6
CONTINUOUS
 90
7
 70
0
 10
145.0482082628
 20
121.5529608762
 10
145.0548672822
 20
121.5582480688
 10
145.0615057778
 20
121.5633011136
 10
145.0681237498
 20
121.5681200108
 10
145.0747211982
 20
121.5727047602
 10
145.0812981228
 20
121.5770553618
 10
145.0878545238
 20
121.5811718157
  0
LWPOLYLINE
  5
256
100
AcDbEntity
  8
RACCORDO
100
AcDbPolyline
 62
7
  6
CONTINUOUS
 90
5
 70
0
 10
144.2532369899
 20
118.6841598984
 10
144.2524393587
 20
118.6835307109
 10
144.2471752334
 20
118.6789049341
 10
144.2425129499
 20
118.6739912977
 10
144.2400284708
 20
118.6709831582
  0
LINE
  5
257
100
AcDbEntity
  8
RACCORDO
100
AcDbLine
 62
7
  6
CONTINUOUS
 10
144.3652841226
 20
118.7712545282
 11
144.253286434
 21
118.6841987124
  0
LINE
  5
258
100
AcDbEntity
  8
RACCORDO
100
AcDbLine
 62
253
  6
CONTINUOUS
 10
144.4859168841
 20
118.7755747783
 11
144.3745631221
 21
118.6890194867
  0
LWPOLYLINE
  5
259
100
AcDbEntity
  8
RACCORDO
100
AcDbPolyline
 62
253
  6
CONTINUOUS
 90
7
 70
0
 10
145.0799481727
 20
118.9339864119
 10
145.0873236087
 20
118.9395969051
 10
145.0946716387
 20
118.9445069711
 10
145.1019616283
 20
118.9486941034
 10
145.1091656886
 20
118.9521398418
 10
145.116250733
 20
118.9548258836
 10
145.1231791298
 20
118.9567370317
  0
LINE
  5
25A
100
AcDbEntity
  8
RACCORDO
100
AcDbLine
 62
7
  6
CONTINUOUS
 10
144.365324571
 20
118.7712859687
 11
144.3698897488
 21
118.7745970551
  0
LWPOLYLINE
  5
25B
100
AcDbEntity
  8
RACCORDO
100
AcDbPolyline
 62
7
  6
CONTINUOUS
 90
4
 70
0
 10
144.3698897488
 20
118.7745970551
 10
144.3741683002
 20
118.7773064067
 10
144.3897768261
 20
118.7845668513
 10
144.4070037689
 20
118.7888501086
  0
LWPOLYLINE
  5
25C
100
AcDbEntity
  8
RACCORDO
100
AcDbPolyline
 62
7
  6
CONTINUOUS
 90
3
 70
0
 10
144.5043700273
 20
118.8498895988
 10
144.434182633
 20
118.8141536413
 10
144.3698914445
 20
118.7745983697
  0
LWPOLYLINE
  5
25D
100
AcDbEntity
  8
RACCORDO
100
AcDbPolyline
 62
253
  6
CONTINUOUS
 90
5
 70
0
 10
152.650699274
 20
75.0484005513
 10
152.64694329
 20
75.0497529915
 10
152.6412427039
 20
75.0512505043
 10
152.6353339081
 20
75.0521638854
 10
152.6292315997
 20
75.0524908631
  0
LWPOLYLINE
  5
25E
100
AcDbEntity
  8
RACCORDO
100
AcDbPolyline
 62
7
  6
CONTINUOUS
 90
34
 70
0
 10
151.2646047198
 20
74.3513833263
 10
151.275468477
 20
74.3470502016
 10
151.2866398607
 20
74.3427593945
 10
151.298084079
 20
74.338516476
 10
151.3097770096
 20
74.3343129129
 10
151.32167371
 20
74.3301655968
 10
151.3337063279
 20
74.326113699
 10
151.3458259192
 20
74.3221564945
 10
151.3580106107
 20
74.3182892847
 10
151.370232777
 20
74.3145413133
 10
151.3824597632
 20
74.3109078375
 10
151.3946603789
 20
74.307383955
 10
151.4068110796
 20
74.3039983818
 10
151.4188826815
 20
74.3007447145
 10
151.4308473642
 20
74.2976158763
 10
151.4426853504
 20
74.2946395931
 10
151.4543710191
 20
74.291808156
 10
151.4658798214
 20
74.289112907
 10
151.4771950694
 20
74.2865803626
 10
151.4882945747
 20
74.2842018046
 10
151.4991569682
 20
74.2819674255
 10
151.5097680304
 20
74.2799024023
 10
151.5201088177
 20
74.2779972475
 10
151.5301610417
 20
74.2762413087
 10
151.5399125213
 20
74.2746583085
 10
151.5493473747
 20
74.273238191
 10
151.5584503126
 20
74.271969674
 10
151.5672109924
 20
74.2708748899
 10
151.5756164374
 20
74.2699433928
 10
151.5836543035
 20
74.2691634346
 10
151.5913161067
 20
74.2685553949
 10
151.5985923218
 20
74.2681185668
 10
151.6054727574
 20
74.2678309568
 10
151.6119491459
 20
74.2676810404
  0
LINE
  5
25F
100
AcDbEntity
  8
RACCORDO
100
AcDbLine
 62
7
  6
CONTINUOUS
 10
151.0357945698
 20
74.4432786409
 11
151.2640090089
 21
74.3516225772
  0
LINE
  5
260
100
AcDbEntity
  8
RACCORDO
100
AcDbLine
 62
253
  6
CONTINUOUS
 10
152.3357179601
 20
75.1703725579
 11
152.6292315997
 21
75.0524908631
  0
LINE
  5
261
100
AcDbEntity
  8
RACCORDO
100
AcDbLine
 62
7
  6
CONTINUOUS
 10
152.3357179601
 20
75.1749041487
 11
152.6507066172
 21
75.0483976028
  0
LWPOLYLINE
  5
262
100
AcDbEntity
  8
RACCORDO
100
AcDbPolyline
 62
253
  6
CONTINUOUS
 90
22
 70
0
 10
129.6051598781
 20
113.6755058445
 10
129.6051938977
 20
113.6662925072
 10
129.606192223
 20
113.653451906
 10
129.6082955011
 20
113.6406298201
 10
129.6114990726
 20
113.6278546544
 10
129.6157958406
 20
113.6151547098
 10
129.6211762864
 20
113.6025581206
 10
129.6276284907
 20
113.5900927923
 10
129.6351381598
 20
113.5777863394
 10
129.6436886576
 20
113.5656660245
 10
129.6532610418
 20
113.5537586979
 10
129.6638341069
 20
113.542090738
 10
129.6753844301
 20
113.530687993
 10
129.6878864238
 20
113.5195757235
 10
129.7013123924
 20
113.5087785467
 10
129.715632593
 20
113.4983203815
 10
129.730815302
 20
113.4882243962
 10
129.7468268849
 20
113.4785129565
 10
129.7636318712
 20
113.4692075762
 10
129.7811930325
 20
113.4603288696
 10
129.7994714655
 20
113.4518965059
 10
129.8184266777
 20
113.4439291653
  0
LWPOLYLINE
  5
263
100
AcDbEntity
  8
RACCORDO
100
AcDbPolyline
 62
253
  6
CONTINUOUS
 90
25
 70
0
 10
135.5516333853
 20
118.6089964557
 10
135.5475785134
 20
118.5967894979
 10
135.5429777689
 20
118.5848423377
 10
135.5378437154
 20
118.5731876003
 10
135.5321903731
 20
118.5618571124
 10
135.5260331799
 20
118.5508818152
 10
135.5193889499
 20
118.5402916798
 10
135.5122758271
 20
118.5301156257
 10
135.5047132359
 20
118.5203814416
 10
135.4967218282
 20
118.5111157096
 10
135.4883234269
 20
118.5023437323
 10
135.4795409661
 20
118.4940894643
 10
135.4703984291
 20
118.4863754462
 10
135.4609207821
 20
118.4792227433
 10
135.4511339066
 20
118.4726508883
 10
135.4410645285
 20
118.4666778274
 10
135.4307401453
 20
118.4613198719
 10
135.4201889505
 20
118.4565916531
 10
135.4094397573
 20
118.452506083
 10
135.3985219196
 20
118.4490743182
 10
135.3874652516
 20
118.4463057304
 10
135.3762999467
 20
118.4442078797
 10
135.3650564952
 20
118.4427864952
 10
135.3537656005
 20
118.4420454582
 10
135.3455194861
 20
118.4419352681
  0
LWPOLYLINE
  5
264
100
AcDbEntity
  8
RACCORDO
100
AcDbPolyline
 62
253
  6
CONTINUOUS
 90
16
 70
0
 10
144.5209677307
 20
117.8550637148
 10
144.5557853433
 20
117.8901484457
 10
144.5934344218
 20
117.9222092684
 10
144.6339149663
 20
117.9512461829
 10
144.6777517874
 20
117.9774703987
 10
144.7244200746
 20
118.0006707063
 10
144.7723453958
 20
118.020213477
 10
144.8215312925
 20
118.0359585355
 10
144.8719742233
 20
118.0480460571
 10
144.9220891328
 20
118.0562629392
 10
144.971753547
 20
118.0605060994
 10
145.0210899398
 20
118.0608786201
 10
145.0688806775
 20
118.0574766461
 10
145.1147198821
 20
118.0503322258
 10
145.1590134315
 20
118.0394133108
 10
145.2017613257
 20
118.0247199011
  0
LWPOLYLINE
  5
265
100
AcDbEntity
  8
ASSI
100
AcDbPolyline
 62
7
  6
CONTINUOUS
 90
16
 70
0
 10
150.8219188338
 20
119.2782423174
 10
150.8318509248
 20
119.2838253612
 10
150.8424235078
 20
119.2887078006
 10
150.8536364082
 20
119.2928700016
 10
150.8654951397
 20
119.2963070197
 10
150.8779891022
 20
119.298982922
 10
150.8910884151
 20
119.3008326227
 10
150.9047808573
 20
119.301829464
 10
150.9190560084
 20
119.3019614329
 10
150.9338792137
 20
119.3011883254
 10
150.9491978796
 20
119.299495765
 10
150.9650254643
 20
119.2968643093
 10
150.9814281141
 20
119.2932416551
 10
150.9983936144
 20
119.2886075315
 10
151.0158964345
 20
119.2829346104
 10
151.0346591918
 20
119.2758791934
  0
LWPOLYLINE
  5
266
100
AcDbEntity
  8
RACCORDO
100
AcDbPolyline
 62
253
  6
CONTINUOUS
 90
6
 70
0
 10
155.8081147551
 20
118.446886266
 10
155.7895409181
 20
118.439804738
 10
155.6411640093
 20
118.3797684244
 10
155.4981329095
 20
118.315605513
 10
155.3607963787
 20
118.2474724586
 10
155.3482771445
 20
118.2406137543
  0
LINE
  5
267
100
AcDbEntity
  8
0
100
AcDbLine
 62
7
  6
CONTINUOUS
 10
155.8081147551
 20
118.446886266
 11
156.4275650586
 21
118.6815102455
  0
LINE
  5
268
100
AcDbEntity
  8
RACCORDO
100
AcDbLine
 62
7
  6
CONTINUOUS
 10
146.4920285334
 20
115.069795957
 11
146.3869292518
 21
115.036569228
  0
LINE
  5
269
100
AcDbEntity
  8
RACCORDO
100
AcDbLine
 62
7
  6
CONTINUOUS
 10
146.3869292518
 20
115.036569228
 11
146.3586028602
 21
115.0278028903
  0
LWPOLYLINE
  5
26A
100
AcDbEntity
  8
RACCORDO
100
AcDbPolyline
 62
7
  6
CONTINUOUS
 90
10
 70
0
 10
146.3586028602
 20
115.0278028903
 10
146.3311172666
 20
115.0195031799
 10
146.3176947246
 20
115.0155628195
 10
146.3045057
 20
115.0117596709
 10
146.2915480104
 20
115.0081088151
 10
146.2788213583
 20
115.0046271382
 10
146.266350032
 20
115.0013080165
 10
146.2541411973
 20
114.9981588254
 10
146.24218391
 20
114.9952003956
 10
146.2304754497
 20
114.9924456213
  0
LWPOLYLINE
  5
26B
100
AcDbEntity
  8
RACCORDO
100
AcDbPolyline
 62
253
  6
CONTINUOUS
 90
100
 70
0
 10
138.246169433
 20
83.1442865673
 10
138.1806118842
 20
83.1716026637
 10
138.1150461499
 20
83.200962424
 10
138.0494722631
 20
83.2323658764
 10
137.9837968002
 20
83.2658515645
 10
137.9181133177
 20
83.3013810582
 10
137.8527023519
 20
83.3388389532
 10
137.7875669002
 20
83.3782396284
 10
137.722704232
 20
83.4195689326
 10
137.6583863206
 20
83.4626686915
 10
137.594622333
 20
83.507547946
 10
137.5314034915
 20
83.5541979872
 10
137.468974871
 20
83.6024340314
 10
137.4073651032
 20
83.6522428897
 10
137.3465460465
 20
83.703638169
 10
137.2866776241
 20
83.7564752852
 10
137.227767205
 20
83.8107506042
 10
137.1698079983
 20
83.8664682528
 10
137.1129386883
 20
83.9234952893
 10
137.0571485165
 20
83.9818479278
 10
137.0024488963
 20
84.041510512
 10
136.9490117575
 20
84.1023022837
 10
136.8968375215
 20
84.1642333245
 10
136.8459264685
 20
84.2272941499
 10
136.796450282
 20
84.2912746233
 10
136.7484194742
 20
84.3561721395
 10
136.7018242474
 20
84.4219899111
 10
136.6568057695
 20
84.4885264846
 10
136.6133711233
 20
84.5557808183
 10
136.5715139321
 20
84.6237545535
 10
136.5313551128
 20
84.6922502083
 10
136.4929000129
 20
84.7612677301
 10
136.4561439617
 20
84.8308077453
 10
136.421192774
 20
84.9006737265
 10
136.3880507467
 20
84.9708669597
 10
136.3567142101
 20
85.0413866898
 10
136.3272769424
 20
85.1120332545
 10
136.2997417192
 20
85.1828147562
 10
136.2741063233
 20
85.2537235641
 10
136.2504569386
 20
85.3245363271
 10
136.2287995419
 20
85.3952608777
 10
136.2091286133
 20
85.4658897682
 10
136.1915129619
 20
85.5361766166
 10
136.1759633056
 20
85.6061113662
 10
136.1624692452
 20
85.6757043407
 10
136.1510677742
 20
85.74473961
 10
136.1417658637
 20
85.8132073807
 10
136.1345567285
 20
85.8811176004
 10
136.1294565975
 20
85.9482838409
 10
136.1264700356
 20
86.0147071043
 10
136.1255925432
 20
86.0803864405
 10
136.1268266257
 20
86.1451323853
 10
136.1301782925
 20
86.2089458238
 10
136.1356414695
 20
86.2718258127
 10
136.1432004028
 20
86.3335800333
 10
136.1528615559
 20
86.3942048681
 10
136.1646182643
 20
86.4537037612
 10
136.1784349469
 20
86.5118948722
 10
136.1943179493
 20
86.5687740476
 10
136.2122605968
 20
86.6243451598
 10
136.2322076501
 20
86.6784382986
 10
136.2541649826
 20
86.7310482514
 10
136.2781262753
 20
86.782179852
 10
136.3040178811
 20
86.8316781598
 10
136.3318453911
 20
86.8795377979
 10
136.3616026695
 20
86.9257636814
 10
136.3931983719
 20
86.9702162178
 10
136.4266371942
 20
87.0128892086
 10
136.4619138166
 20
87.0537883245
 10
136.4989217781
 20
87.092791698
 10
136.5376649745
 20
87.1298930876
 10
136.5781388312
 20
87.1650981614
 10
136.6202241038
 20
87.1983028511
 10
136.6639264465
 20
87.2295020546
 10
136.7092394968
 20
87.2587002765
 10
136.7560259227
 20
87.2858078067
 10
136.8042942648
 20
87.310818911
 10
136.8540352672
 20
87.3337387208
 10
136.9050848532
 20
87.3544937836
 10
136.9574435172
 20
87.3730745589
 10
137.0111100643
 20
87.3894899973
 10
137.0659178519
 20
87.4036943552
 10
137.1218574133
 20
87.4156803882
 10
137.1789375612
 20
87.4254547906
 10
137.23701906
 20
87.4329927163
 10
137.2961081606
 20
87.4382917327
 10
137.3561980338
 20
87.4413537864
 10
137.4171298252
 20
87.4421606012
 10
137.4789304419
 20
87.4407026878
 10
137.5415724864
 20
87.4369891235
 10
137.6048156547
 20
87.4310294879
 10
137.668669332
 20
87.4228074997
 10
137.7331237437
 20
87.4123391134
 10
137.797909864
 20
87.3996822769
 10
137.8630318485
 20
87.3848197862
 10
137.9284852747
 20
87.3677686213
 10
137.9939882795
 20
87.3486380308
 10
138.0594468641
 20
87.3274643934
 10
138.1249548941
 20
87.3042112188
 10
138.1905123366
 20
87.278878479
  0
LWPOLYLINE
  5
26C
100
AcDbEntity
  8
RACCORDO
100
AcDbPolyline
 62
253
  6
CONTINUOUS
 90
72
 70
0
 10
138.4181923258
 20
83.5368711098
 10
138.3604218379
 20
83.5609572063
 10
138.3025289632
 20
83.5868679757
 10
138.2445714328
 20
83.6145911285
 10
138.186585985
 20
83.6441235793
 10
138.1286537156
 20
83.6754387447
 10
138.0708990468
 20
83.7084800882
 10
138.0133805645
 20
83.7432209975
 10
137.9561581335
 20
83.7796331378
 10
137.8993559158
 20
83.8176431197
 10
137.8430358224
 20
83.8572096557
 10
137.7872503144
 20
83.8982968622
 10
137.7321056216
 20
83.9408274672
 10
137.6776774193
 20
83.9847370962
 10
137.6239965493
 20
84.0299953004
 10
137.5710998043
 20
84.0765711694
 10
137.5190441298
 20
84.1244113322
 10
137.46787536
 20
84.1734705665
 10
137.4176147133
 20
84.223732073
 10
137.3683016442
 20
84.2751579489
 10
137.3199980235
 20
84.327685499
 10
137.2727588513
 20
84.3812609558
 10
137.2266277952
 20
84.4358352619
 10
137.181655838
 20
84.4913489707
 10
137.1379058954
 20
84.5477299737
 10
137.0954250893
 20
84.6049148119
 10
137.0542508548
 20
84.6628505895
 10
137.0144282656
 20
84.7214788484
 10
136.9759979956
 20
84.7807366172
 10
136.9389954715
 20
84.8405662202
 10
136.9034561022
 20
84.9009163409
 10
136.8694155849
 20
84.9617240566
 10
136.836906486
 20
85.0229288304
 10
136.8059586037
 20
85.0844826223
 10
136.7766030632
 20
85.1463229545
 10
136.7488694688
 20
85.2083868204
 10
136.722784718
 20
85.2706251698
 10
136.6983736345
 20
85.3329810191
 10
136.6756645371
 20
85.3953843188
 10
136.6546873241
 20
85.457766176
 10
136.6354614664
 20
85.5200697656
 10
136.618009145
 20
85.5822241323
 10
136.6023585394
 20
85.644139473
 10
136.5885249477
 20
85.7057450203
 10
136.5765180423
 20
85.7669855672
 10
136.5663517745
 20
85.8277955977
 10
136.5580346279
 20
85.8881063348
 10
136.5515708647
 20
85.9478638336
 10
136.5469662217
 20
86.0070253934
 10
136.5442240599
 20
86.0655332394
 10
136.5433460067
 20
86.1233252531
 10
136.5443345985
 20
86.1803525001
 10
136.5471886296
 20
86.2365597614
 10
136.5519046244
 20
86.2918862157
 10
136.5584795012
 20
86.3462755287
 10
136.5669060789
 20
86.3996721093
 10
136.5771751204
 20
86.4520212145
 10
136.5892773491
 20
86.5032694587
 10
136.6031999162
 20
86.5533646416
 10
136.6189278864
 20
86.6022553384
 10
136.6364457654
 20
86.6498913149
 10
136.6557349185
 20
86.696223762
 10
136.6767749922
 20
86.7412056818
 10
136.6995449883
 20
86.7847917561
 10
136.724021048
 20
86.8269376379
 10
136.7501774901
 20
86.8676004206
 10
136.7779878982
 20
86.9067392763
 10
136.8074229605
 20
86.9443140181
 10
136.8384523591
 20
86.9802869645
 10
136.8710458339
 20
87.0146233553
 10
136.9051693077
 20
87.0472877548
 10
136.944419237
 20
87.0812388501
  0
LWPOLYLINE
  5
26D
100
AcDbEntity
  8
RACCORDO
100
AcDbPolyline
 62
253
  6
CONTINUOUS
 90
31
 70
0
 10
133.6693525988
 20
119.512502324
 10
133.6695477486
 20
119.5233426447
 10
133.6701326686
 20
119.5344732009
 10
133.6711057695
 20
119.5458636984
 10
133.672464407
 20
119.5574831475
 10
133.674204885
 20
119.5692999109
 10
133.6763224614
 20
119.5812817876
 10
133.6788113694
 20
119.5933961547
 10
133.6816648352
 20
119.6056100464
 10
133.6848750878
 20
119.6178902061
 10
133.6884333868
 20
119.630203206
 10
133.6923300458
 20
119.6425155336
 10
133.696554455
 20
119.6547936718
 10
133.7010951198
 20
119.6670042155
 10
133.7059396743
 20
119.6791139155
 10
133.7110749101
 20
119.6910897654
 10
133.7164868215
 20
119.7028991227
 10
133.7221606948
 20
119.7145098989
 10
133.7280811351
 20
119.7258905942
 10
133.7342321116
 20
119.7370103737
 10
133.740596809
 20
119.7478388198
 10
133.7471577039
 20
119.758346144
 10
133.7538967915
 20
119.7685035823
 10
133.7607958435
 20
119.7782837293
 10
133.7678362728
 20
119.7876602604
 10
133.7750005076
 20
119.7966095769
 10
133.7822675102
 20
119.8051052066
 10
133.7896128334
 20
119.8131191111
 10
133.7970148015
 20
119.8206288932
 10
133.8044547608
 20
119.8276168675
 10
133.8119124795
 20
119.8340650871
  0
LWPOLYLINE
  5
26E
100
AcDbEntity
  8
RACCORDO
100
AcDbPolyline
 62
253
  6
CONTINUOUS
 90
10
 70
0
 10
145.2017613257
 20
118.0247199011
 10
145.1863161267
 20
118.0039909912
 10
145.1718385056
 20
117.980983118
 10
145.158626098
 20
117.956169285
 10
145.1469505289
 20
117.9300596228
 10
145.1370518285
 20
117.9031909026
 10
145.1291334974
 20
117.8761155
 10
145.1233583232
 20
117.8493900401
 10
145.119845034
 20
117.8235639535
 10
145.1186658569
 20
117.7991681813
  0
LINE
  5
26F
100
AcDbEntity
  8
RACCORDO
100
AcDbLine
 62
7
  6
CONTINUOUS
 10
144.2400526939
 20
118.6710140217
 11
143.4530317352
 21
117.6712247535
  0
LINE
  5
270
100
AcDbEntity
  8
RACCORDO
100
AcDbLine
 62
253
  6
CONTINUOUS
 10
144.3737998451
 20
118.689326036
 11
143.5436992083
 21
117.6348106522
  0
LWPOLYLINE
  5
271
100
AcDbEntity
  8
RACCORDO
100
AcDbPolyline
 62
253
  6
CONTINUOUS
 90
16
 70
0
 10
144.7101896999
 20
117.6528554741
 10
144.7306413658
 20
117.6786992169
 10
144.7533423122
 20
117.7027334719
 10
144.7780256112
 20
117.7248419354
 10
144.8044159707
 20
117.7450332897
 10
144.8322092678
 20
117.7631186957
 10
144.8610719518
 20
117.7787171971
 10
144.8906875714
 20
117.79175638
 10
144.9207421797
 20
117.8022515444
 10
144.9508998493
 20
117.8099900372
 10
144.9808002411
 20
117.8149591458
 10
145.0102017688
 20
117.8172378673
 10
145.0389538979
 20
117.8167573021
 10
145.0668174019
 20
117.8135213551
 10
145.0934746013
 20
117.8076321507
 10
145.1186658569
 20
117.7991681813
  0
LINE
  5
272
100
AcDbEntity
  8
RACCORDO
100
AcDbLine
 62
253
  6
CONTINUOUS
 10
144.1169856191
 20
117.4045659052
 11
144.5209677307
 21
117.8550637148
  0
LINE
  5
273
100
AcDbEntity
  8
RACCORDO
100
AcDbLine
 62
253
  6
CONTINUOUS
 10
144.3894191535
 20
117.2951504559
 11
144.7101896999
 21
117.6528554741
  0
LWPOLYLINE
  5
274
100
AcDbEntity
  8
RACCORDO
100
AcDbPolyline
 62
253
  6
CONTINUOUS
 90
16
 70
0
 10
146.8145934548
 20
116.9338919155
 10
146.8494110673
 20
116.9689766464
 10
146.8870601458
 20
117.0010374691
 10
146.9275406903
 20
117.0300743835
 10
146.9713775114
 20
117.0562985993
 10
147.0180457986
 20
117.0794989069
 10
147.0659711199
 20
117.0990416776
 10
147.1151570165
 20
117.1147867361
 10
147.1655999473
 20
117.1268742577
 10
147.2157148568
 20
117.1350911399
 10
147.265379271
 20
117.1393343
 10
147.3147156638
 20
117.1397068207
 10
147.3625064015
 20
117.1363048468
 10
147.4083456061
 20
117.1291604264
 10
147.4526391555
 20
117.1182415114
 10
147.4953870497
 20
117.1035481018
  0
LINE
  5
275
100
AcDbEntity
  8
ASSI
100
AcDbLine
 62
7
  6
CONTINUOUS
 10
150.7822725728
 20
119.2500313778
 11
147.0523572797
 21
116.2256544699
  0
LINE
  5
276
100
AcDbEntity
  8
RACCORDO
100
AcDbLine
 62
7
  6
CONTINUOUS
 10
151.8099745199
 20
119.4092704846
 11
151.4418781849
 21
119.1123312992
  0
LWPOLYLINE
  5
277
100
AcDbEntity
  8
ASSI
100
AcDbPolyline
 62
7
  6
CONTINUOUS
 90
7
 70
0
 10
150.7822725728
 20
119.2500313778
 10
150.7889315922
 20
119.2553185704
 10
150.7955700879
 20
119.2603716153
 10
150.8021880599
 20
119.2651905124
 10
150.8087855082
 20
119.2697752618
 10
150.8153624328
 20
119.2741258635
 10
150.8219188338
 20
119.2782423174
  0
LWPOLYLINE
  5
278
100
AcDbEntity
  8
RACCORDO
100
AcDbPolyline
 62
7
  6
CONTINUOUS
 90
19
 70
0
 10
151.8099745199
 20
119.4092704846
 10
151.8329907841
 20
119.4271734126
 10
151.8558934302
 20
119.4436802979
 10
151.8786824582
 20
119.4587911404
 10
151.9013984249
 20
119.4725276924
 10
151.9240007734
 20
119.4848682016
 10
151.9463678333
 20
119.4957474114
 10
151.9684874481
 20
119.5051541463
 10
151.9903717742
 20
119.5130995819
 10
152.01193561
 20
119.5195519878
 10
152.0331920133
 20
119.5245073995
 10
152.0541279263
 20
119.5279697815
 10
152.0746189741
 20
119.5299192981
 10
152.094646304
 20
119.530348267
 10
152.1142287686
 20
119.5292643705
 10
152.1332985512
 20
119.5266708185
 10
152.1518706826
 20
119.5225568595
 10
152.169930132
 20
119.516933245
 10
152.1776733833
 20
119.5139943053
  0
LINE
  5
279
100
AcDbEntity
  8
RACCORDO
100
AcDbLine
 62
7
  6
CONTINUOUS
 10
151.285545441
 20
119.2387260146
 11
155.8460931049
 21
122.7281749366
  0
LINE
  5
27A
100
AcDbEntity
  8
RACCORDO
100
AcDbLine
 62
253
  6
CONTINUOUS
 10
152.2053103487
 20
119.502900076
 11
156.4637700961
 21
122.7612100139
  0
LWPOLYLINE
  5
27B
100
AcDbEntity
  8
RACCORDO
100
AcDbPolyline
 62
7
  6
CONTINUOUS
 90
13
 70
0
 10
155.8460931049
 20
122.7281749366
 10
155.9162777172
 20
122.7772575403
 10
155.9911567388
 20
122.8205480372
 10
156.0701319598
 20
122.8574705589
 10
156.1522352938
 20
122.8874412012
 10
156.2369810623
 20
122.9102035007
 10
156.324463003
 20
122.9255887197
 10
156.4142327135
 20
122.9332012619
 10
156.5049896998
 20
122.9326696348
 10
156.5956209713
 20
122.9238693459
 10
156.6854172043
 20
122.90678017
 10
156.7732963555
 20
122.8815567261
 10
156.8263525509
 20
122.8619777222
  0
LWPOLYLINE
  5
27C
100
AcDbEntity
  8
RACCORDO
100
AcDbPolyline
 62
253
  6
CONTINUOUS
 90
11
 70
0
 10
155.8460931048
 20
122.7281749366
 10
155.888862771
 20
122.7571892257
 10
155.9414848214
 20
122.7842599632
 10
155.9980040829
 20
122.8048620857
 10
156.0579905765
 20
122.8188388592
 10
156.1209879458
 20
122.8260839534
 10
156.1865169284
 20
122.82654225
 10
156.2540790022
 20
122.8202102626
 10
156.3231601784
 20
122.8071361627
 10
156.3932349111
 20
122.7874194137
 10
156.4637700961
 20
122.7612100139
  0
LWPOLYLINE
  5
27D
100
AcDbEntity
  8
ASSI
100
AcDbPolyline
 62
7
  6
CONTINUOUS
 90
3
 70
0
 10
151.5508343605
 20
119.0139368351
 10
151.5337448735
 20
119.0032471848
 10
151.5244859805
 20
118.9975167421
  0
LWPOLYLINE
  5
27E
100
AcDbEntity
  8
RACCORDO
100
AcDbPolyline
 62
7
  6
CONTINUOUS
 90
5
 70
0
 10
155.8081147551
 20
118.446886266
 10
155.6595851579
 20
118.3875993846
 10
155.5159020069
 20
118.3240767404
 10
155.3773845332
 20
118.2564272686
 10
155.3481339506
 20
118.2406712642
  0
LWPOLYLINE
  5
27F
100
AcDbEntity
  8
0
100
AcDbPolyline
 62
7
  6
CONTINUOUS
 90
12
 70
0
 10
138.8131936509
 20
83.8194796505
 10
138.8748380291
 20
83.7957306223
 10
138.936416397
 20
83.7740245127
 10
138.9978628149
 20
83.7543845653
 10
139.0591114844
 20
83.7368318109
 10
139.1200968189
 20
83.7213850455
 10
139.1807535139
 20
83.7080608098
 10
139.2410166165
 20
83.6968733719
 10
139.3008215956
 20
83.6878347114
 10
139.3601044105
 20
83.6809545073
 10
139.4188015796
 20
83.6762401269
 10
139.4320838885
 20
83.6754696697
  0
LWPOLYLINE
  5
280
100
AcDbEntity
  8
0
100
AcDbPolyline
 62
7
  6
CONTINUOUS
 90
7
 70
0
 10
139.3099254158
 20
83.8168024691
 10
139.3806690594
 20
83.7894866356
 10
139.451212087
 20
83.7644163663
 10
139.5215544985
 20
83.7415916613
 10
139.5917625955
 20
83.720995141
 10
139.6617700763
 20
83.702644185
 10
139.7228242365
 20
83.6885636417
  0
LWPOLYLINE
  5
281
100
AcDbEntity
  8
ASSI
100
AcDbPolyline
 62
7
  6
CONTINUOUS
 90
68
 70
0
 10
138.5642760485
 20
83.6565358899
 10
138.5038645314
 20
83.6817941241
 10
138.4436463258
 20
83.7089374439
 10
138.3836214315
 20
83.7379658491
 10
138.3237260321
 20
83.7689144362
 10
138.2640239441
 20
83.8017481089
 10
138.2047066173
 20
83.8363615777
 10
138.1457752867
 20
83.872760556
 10
138.0872287173
 20
83.9109393304
 10
138.0292546532
 20
83.9507754711
 10
137.9718549324
 20
83.9922742984
 10
137.915027717
 20
84.0354304921
 10
137.8589552376
 20
84.0801056609
 10
137.8036399173
 20
84.126304681
 10
137.749079333
 20
84.1740226761
 10
137.6954484471
 20
84.2231066267
 10
137.6427502439
 20
84.2735609177
 10
137.5909817391
 20
84.325381164
 10
137.5403089412
 20
84.3784011911
 10
137.4907353678
 20
84.4326248505
 10
137.4422575014
 20
84.4880482907
 10
137.3950307984
 20
84.5444937825
 10
137.3490592753
 20
84.6019646069
 10
137.3043389156
 20
84.6604574829
 10
137.2610131265
 20
84.7197848384
 10
137.2190863846
 20
84.7799493523
 10
137.1785542133
 20
84.8409483457
 10
137.139546589
 20
84.9025862102
 10
137.1020684058
 20
84.9648649964
 10
137.0661147697
 20
85.0277826537
 10
137.031800975
 20
85.0911374206
 10
136.9991322859
 20
85.1549307005
 10
136.9681034382
 20
85.2191610901
 10
136.9388139337
 20
85.2836226186
 10
136.911269356
 20
85.3483160279
 10
136.8854641215
 20
85.4132405762
 10
136.8614809811
 20
85.4781880664
 10
136.8393257841
 20
85.5431585723
 10
136.8189926813
 20
85.6081520202
 10
136.8005468759
 20
85.6729599923
 10
136.7839944263
 20
85.7375818933
 10
136.7693292741
 20
85.8020183185
 10
136.7565984467
 20
85.8660626363
 10
136.7458081537
 20
85.9297135881
 10
136.7369521855
 20
85.9929724326
 10
136.7300589411
 20
86.0556363144
 10
136.725134721
 20
86.1177033235
 10
136.7221732247
 20
86.17917537
 10
136.7211839488
 20
86.2398553283
 10
136.7221732247
 20
86.2997406556
 10
136.725134721
 20
86.3588338947
 10
136.7300589411
 20
86.4169455483
 10
136.7369521855
 20
86.4740724653
 10
136.7458081537
 20
86.5302177969
 10
136.7565984467
 20
86.5852014988
 10
136.7693292741
 20
86.6390198421
 10
136.7839944263
 20
86.6916765558
 10
136.8005468759
 20
86.7430027829
 10
136.8189926813
 20
86.7929942524
 10
136.8393257841
 20
86.8416552354
 10
136.8614809811
 20
86.8888296881
 10
136.8854641215
 20
86.9345128386
 10
136.911269356
 20
86.9787094589
 10
136.9388139337
 20
87.0212778215
 10
136.9681034382
 20
87.0622126993
 10
136.9991322859
 20
87.1015193194
 10
137.031800975
 20
87.1390716352
 10
137.0425980414
 20
87.1503339484
  0
LWPOLYLINE
  5
282
100
AcDbEntity
  8
RACCORDO
100
AcDbPolyline
 62
253
  6
CONTINUOUS
 90
18
 70
0
 10
133.6693525988
 20
119.1909293749
 10
133.669530936
 20
119.1808651298
 10
133.6700655042
 20
119.1711180877
 10
133.6709549737
 20
119.1617124932
 10
133.6721971274
 20
119.1526717723
 10
133.6737888782
 20
119.1440183794
 10
133.675726289
 20
119.1357737552
 10
133.6780045686
 20
119.1279583669
 10
133.6806180481
 20
119.1205917291
 10
133.683560203
 20
119.1136922533
 10
133.6868237248
 20
119.1072770831
 10
133.6904004864
 20
119.1013621978
 10
133.694281509
 20
119.0959624137
 10
133.6984570612
 20
119.091091194
 10
133.7029167905
 20
119.0867605441
 10
133.7076496906
 20
119.0829811278
 10
133.7126449869
 20
119.0797617751
 10
133.71787276
 20
119.0771196745
  0
LWPOLYLINE
  5
283
100
AcDbEntity
  8
RACCORDO
100
AcDbPolyline
 62
253
  6
CONTINUOUS
 90
19
 70
0
 10
135.2042889592
 20
118.5744643282
 10
135.2044672964
 20
118.5644000832
 10
135.2050018645
 20
118.554653041
 10
135.2058913341
 20
118.5452474465
 10
135.2071334878
 20
118.5362067256
 10
135.2087252386
 20
118.5275533327
 10
135.2106626494
 20
118.5193087086
 10
135.212940929
 20
118.5114933203
 10
135.2155544085
 20
118.5041266824
 10
135.2184965634
 20
118.4972272067
 10
135.2217600852
 20
118.4908120364
 10
135.2253368468
 20
118.4848971511
 10
135.2292178694
 20
118.4794973671
 10
135.2333934216
 20
118.4746261473
 10
135.2378531509
 20
118.4702954974
 10
135.242586051
 20
118.4665160811
 10
135.2475813473
 20
118.4632967284
 10
135.2528257164
 20
118.4606462402
 10
135.2544850566
 20
118.4599471829
  0
LINE
  5
284
100
AcDbEntity
  8
RACCORDO
100
AcDbLine
 62
7
  6
CONTINUOUS
 10
133.5627467079
 20
119.6299639016
 11
133.5627467079
 21
119.3083909525
  0
LINE
  5
285
100
AcDbEntity
  8
RACCORDO
100
AcDbLine
 62
253
  6
CONTINUOUS
 10
133.6693525988
 20
119.512502324
 11
133.6693525988
 21
119.1909293749
  0
LINE
  5
286
100
AcDbEntity
  8
RACCORDO
100
AcDbLine
 62
7
  6
CONTINUOUS
 10
134.131557457
 20
118.9109402151
 11
134.131557457
 21
118.5372175358
  0
LINE
  5
287
100
AcDbEntity
  8
RACCORDO
100
AcDbLine
 62
253
  6
CONTINUOUS
 10
134.2381633479
 20
118.8681248859
 11
134.2381633479
 21
118.4151627125
  0
LINE
  5
288
100
AcDbEntity
  8
RACCORDO
100
AcDbLine
 62
253
  6
CONTINUOUS
 10
135.2042889592
 20
118.5744643282
 11
135.2042889592
 21
118.8960372774
  0
LINE
  5
289
100
AcDbEntity
  8
RACCORDO
100
AcDbLine
 62
253
  6
CONTINUOUS
 10
135.5516333853
 20
118.6089964557
 11
135.5516333853
 21
118.9305694049
  0
LWPOLYLINE
  5
28A
100
AcDbEntity
  8
RACCORDO
100
AcDbPolyline
 62
253
  6
CONTINUOUS
 90
31
 70
0
 10
135.2042889592
 20
118.8960372774
 10
135.2044840232
 20
118.9068751814
 10
135.2050686844
 20
118.9180031733
 10
135.2060413523
 20
118.9293909773
 10
135.2073993805
 20
118.9410076111
 10
135.2091390742
 20
118.9528214695
 10
135.2112557003
 20
118.9648004111
 10
135.2137435002
 20
118.9769118451
 10
135.2165957054
 20
118.9891228202
 10
135.219804556
 20
119.0014001145
 10
135.2233613218
 20
119.0137103254
 10
135.2272563259
 20
119.026019961
 10
135.2314789714
 20
119.0382955308
 10
135.2360177699
 20
119.0505036371
 10
135.2408603727
 20
119.0626110655
 10
135.2459936048
 20
119.0745848759
 10
135.2514035003
 20
119.0863924914
 10
135.2570753407
 20
119.0980017874
 10
135.2629936947
 20
119.1093811788
 10
135.2691424606
 20
119.1204997062
 10
135.2755049095
 20
119.1313271196
 10
135.2820637313
 20
119.1418339612
 10
135.2888010816
 20
119.1519916454
 10
135.2956986304
 20
119.1617725365
 10
135.3027376116
 20
119.1711500239
 10
135.3098988746
 20
119.1800985946
 10
135.3171629358
 20
119.1885939025
 10
135.3245100323
 20
119.1966128346
 10
135.3319201749
 20
119.204133574
 10
135.3393732032
 20
119.2111356595
 10
135.3468488399
 20
119.2176000405
  0
LINE
  5
28B
100
AcDbEntity
  8
RACCORDO
100
AcDbLine
 62
7
  6
CONTINUOUS
 10
146.0966289795
 20
117.1570830244
 11
145.7858854921
 21
116.7342980917
  0
LINE
  5
28C
100
AcDbEntity
  8
RACCORDO
100
AcDbLine
 62
253
  6
CONTINUOUS
 10
146.2261626072
 20
117.1702190097
 11
145.8784424526
 21
116.6971251297
  0
LWPOLYLINE
  5
28D
100
AcDbEntity
  8
RACCORDO
100
AcDbPolyline
 62
253
  6
CONTINUOUS
 90
10
 70
0
 10
146.0889267773
 20
117.6684142551
 10
146.0734811289
 20
117.6476846377
 10
146.0590032411
 20
117.624676134
 10
146.0457907407
 20
117.5998618342
 10
146.0341152356
 20
117.5737519536
 10
146.0242167044
 20
117.546883281
 10
146.0162985795
 20
117.5198081372
 10
146.0105235994
 20
117.4930831096
 10
146.0070104504
 20
117.4672576135
 10
146.0058313109
 20
117.4428625344
  0
LWPOLYLINE
  5
28E
100
AcDbEntity
  8
RACCORDO
100
AcDbPolyline
 62
253
  6
CONTINUOUS
 90
16
 70
0
 10
147.0038154239
 20
116.7316836747
 10
147.0242670898
 20
116.7575274175
 10
147.0469680362
 20
116.7815616725
 10
147.0716513352
 20
116.8036701361
 10
147.0980416948
 20
116.8238614904
 10
147.1258349918
 20
116.8419468963
 10
147.1546976758
 20
116.8575453977
 10
147.1843132954
 20
116.8705845807
 10
147.2143679037
 20
116.8810797451
 10
147.2445255733
 20
116.8888182379
 10
147.2744259651
 20
116.8937873465
 10
147.3038274928
 20
116.896066068
 10
147.3325796219
 20
116.8955855028
 10
147.3604431259
 20
116.8923495558
 10
147.3871003253
 20
116.8864603514
 10
147.4122915809
 20
116.877996382
  0
LINE
  5
28F
100
AcDbEntity
  8
RACCORDO
100
AcDbLine
 62
253
  6
CONTINUOUS
 10
146.4106113431
 20
116.4833941058
 11
146.8145934548
 21
116.9338919155
  0
LINE
  5
290
100
AcDbEntity
  8
RACCORDO
100
AcDbLine
 62
253
  6
CONTINUOUS
 10
146.6830448775
 20
116.3739786566
 11
147.0038154239
 21
116.7316836747
  0
LINE
  5
291
100
AcDbEntity
  8
RACCORDO
100
AcDbLine
 62
7
  6
CONTINUOUS
 10
147.2160176833
 20
114.3176700491
 11
146.9251643019
 21
114.0607528982
  0
LINE
  5
292
100
AcDbEntity
  8
ASSI
100
AcDbLine
 62
7
  6
CONTINUOUS
 10
147.2160176833
 20
115.4644829112
 11
151.4837528961
 21
118.9683010655
  0
LINE
  5
293
100
AcDbEntity
  8
RACCORDO
100
AcDbLine
 62
7
  6
CONTINUOUS
 10
146.9251643019
 20
115.2267589011
 11
147.2160176833
 21
115.4644829112
  0
LINE
  5
294
100
AcDbEntity
  8
DRAFT
100
AcDbLine
 62
7
  6
CONTINUOUS
 10
147.2160176833
 20
114.3176700491
 11
151.5244859805
 21
117.8368804781
  0
LINE
  5
295
100
AcDbEntity
  8
RACCORDO
100
AcDbLine
 62
7
  6
CONTINUOUS
 10
154.9528997478
 20
120.1239199805
 11
157.631887875
 21
122.2920675793
  0
LWPOLYLINE
  5
296
100
AcDbEntity
  8
0
100
AcDbPolyline
 62
7
  6
CONTINUOUS
 90
11
 70
0
 10
139.4320838885
 20
83.6754696697
 10
139.4768502486
 20
83.6736966187
 10
139.5341882575
 20
83.6733267061
 10
139.5907542073
 20
83.6751307854
 10
139.6464875258
 20
83.6791069247
 10
139.7013285323
 20
83.6852508663
 10
139.7552185018
 20
83.693556031
 10
139.8080997274
 20
83.7040135255
 10
139.8599155827
 20
83.7166121516
 10
139.910610582
 20
83.7313384184
 10
139.9449832852
 20
83.7430261
  0
LWPOLYLINE
  5
297
100
AcDbEntity
  8
RACCORDO
100
AcDbPolyline
 62
7
  6
CONTINUOUS
 90
72
 70
0
 10
138.2507635795
 20
87.1448489942
 10
138.2957288118
 20
87.1262506238
 10
138.3536575278
 20
87.1007056139
 10
138.4117305648
 20
87.0733073074
 10
138.4698747806
 20
87.044075041
 10
138.5280182843
 20
87.013032619
 10
138.5860873358
 20
86.9802077284
 10
138.6440143886
 20
86.9456268014
 10
138.7017306989
 20
86.9093209982
 10
138.7591626209
 20
86.8713270028
 10
138.8162424736
 20
86.8316796255
 10
138.8729022713
 20
86.7904182704
 10
138.9290699027
 20
86.7475883259
 10
138.9846792818
 20
86.7032326995
 10
139.0396661233
 20
86.657397056
 10
139.0939629397
 20
86.6101327395
 10
139.1475065544
 20
86.5614892704
 10
139.2002357617
 20
86.5115185798
 10
139.2520879153
 20
86.4602772779
 10
139.3030038722
 20
86.4078203296
 10
139.3529259256
 20
86.3542053972
 10
139.4017955081
 20
86.2994948184
 10
139.4495579659
 20
86.2437484503
 10
139.4961599417
 20
86.1870288544
 10
139.5415469999
 20
86.1294042601
 10
139.5856692071
 20
86.0709393702
 10
139.6284788681
 20
86.0117002403
 10
139.6699274373
 20
85.9517590447
 10
139.7099703799
 20
85.8911846201
 10
139.7485663073
 20
85.8300455321
 10
139.7856741662
 20
85.7684153877
 10
139.8212560395
 20
85.7063651809
 10
139.855276569
 20
85.6439661413
 10
139.8877016025
 20
85.5812939743
 10
139.918500021
 20
85.5184216473
 10
139.9476434814
 20
85.4554215313
 10
139.9751054839
 20
85.3923700863
 10
140.0008621733
 20
85.3293415927
 10
140.0248927959
 20
85.2664084076
 10
140.0471793463
 20
85.2036456026
 10
140.0677031693
 20
85.1411358987
 10
140.0864543998
 20
85.0789425464
 10
140.1034302008
 20
85.0171130827
 10
140.1186189359
 20
84.9557286076
 10
140.1320156386
 20
84.8948525019
 10
140.1436256203
 20
84.8345085988
 10
140.1534435894
 20
84.7747690493
 10
140.1614663498
 20
84.7157056639
 10
140.1676992327
 20
84.6573459952
 10
140.172141756
 20
84.5997658473
 10
140.1747963286
 20
84.543032333
 10
140.1756696307
 20
84.4871652312
 10
140.1747665302
 20
84.4322438251
 10
140.1720940967
 20
84.3783301195
 10
140.1676573114
 20
84.3254250513
 10
140.1614644241
 20
84.2736017298
 10
140.1535254271
 20
84.2229271618
 10
140.1438412538
 20
84.1734012562
 10
140.1324237096
 20
84.1250964736
 10
140.1192850004
 20
84.0780756824
 10
140.1044186484
 20
84.0323317926
 10
140.0878376739
 20
83.9879335644
 10
140.0695535163
 20
83.9449382061
 10
140.049545053
 20
83.9033277658
 10
140.0278242404
 20
83.8631705616
 10
140.0043932468
 20
83.8245112283
 10
139.9791942281
 20
83.7873061373
 10
139.9522284334
 20
83.7516242266
 10
139.9234786097
 20
83.7175055834
 10
139.8928225265
 20
83.6848869082
 10
139.8601880479
 20
83.6538009393
 10
139.8312607209
 20
83.628961716
  0
LWPOLYLINE
  5
298
100
AcDbEntity
  8
RACCORDO
100
AcDbPolyline
 62
253
  6
CONTINUOUS
 90
57
 70
0
 10
138.1905123366
 20
87.278878479
 10
138.2560806385
 20
87.2515483272
 10
138.3216396316
 20
87.2221628958
 10
138.3871893492
 20
87.1907222126
 10
138.452822835
 20
87.1571879191
 10
138.5184471782
 20
87.1215984853
 10
138.5837835126
 20
87.0840692094
 10
138.6488289961
 20
87.0445860015
 10
138.7135867377
 20
87.0031631754
 10
138.7777868275
 20
86.9599586595
 10
138.8414206193
 20
86.9149636363
 10
138.9044971486
 20
86.8681872503
 10
138.966773047
 20
86.8198143881
 10
139.0282211809
 20
86.7698577286
 10
139.0888691743
 20
86.7183050049
 10
139.1485558025
 20
86.6653036915
 10
139.2072741921
 20
86.6108575863
 10
139.2650317947
 20
86.5549633774
 10
139.3216888737
 20
86.4977578759
 10
139.3772550547
 20
86.4392271105
 10
139.431721366
 20
86.3793856025
 10
139.4849201639
 20
86.3184128922
 10
139.5368513937
 20
86.2563003873
 10
139.5875158107
 20
86.1930572699
 10
139.6367469532
 20
86.1288897148
 10
139.6845363627
 20
86.063799619
 10
139.7308932132
 20
85.9977856885
 10
139.7756774418
 20
85.9310492698
 10
139.8188833582
 20
85.8635907463
 10
139.8605173611
 20
85.7954103324
 10
139.9004574573
 20
85.7267090688
 10
139.9386997962
 20
85.6574847379
 10
139.9752489072
 20
85.5877401308
 10
140.0099952909
 20
85.5176837365
 10
140.042934352
 20
85.4473138793
 10
140.0740713094
 20
85.3766327627
 10
140.1033112918
 20
85.3058546161
 10
140.1306488077
 20
85.2349791336
 10
140.1560898931
 20
85.164007083
 10
140.1795568614
 20
85.0931542132
 10
140.2010439032
 20
85.0224205066
 10
140.2205572735
 20
84.9518063599
 10
140.2380372631
 20
84.881528044
 10
140.2534775309
 20
84.8115869734
 10
140.266884747
 20
84.7419820147
 10
140.2782185903
 20
84.6729255097
 10
140.2874726185
 20
84.604419289
 10
140.2946534749
 20
84.536461695
 10
140.2997403329
 20
84.4692597242
 10
140.302727088
 20
84.4028191567
 10
140.3036199094
 20
84.3371342704
 10
140.3024162473
 20
84.2723946947
 10
140.2991114718
 20
84.2086051853
 10
140.2937101471
 20
84.1457609345
 10
140.2862233879
 20
84.0840371191
 10
140.2766445186
 20
84.0234293777
 10
140.2649800288
 20
83.9639419174
  0
LINE
  5
299
100
AcDbEntity
  8
RACCORDO
100
AcDbLine
 62
253
  6
CONTINUOUS
 10
137.7838810786
 20
95.0168576745
 11
137.7832193235
 21
95.0301921294
  0
LWPOLYLINE
  5
29A
100
AcDbEntity
  8
ASSI
100
AcDbPolyline
 62
7
  6
CONTINUOUS
 90
29
 70
0
 10
137.1883726226
 20
102.736442727
 10
137.1934576241
 20
102.5833351046
 10
137.2081480825
 20
102.4282803583
 10
137.2324439978
 20
102.2712784881
 10
137.2665311414
 20
102.1116424777
 10
137.3102237419
 20
101.9500593434
 10
137.362964485
 20
101.7885901344
 10
137.4248692756
 20
101.6272363101
 10
137.4958222088
 20
101.4659964111
 10
137.5749182551
 20
101.3069271086
 10
137.6622617264
 20
101.1500562074
 10
137.7577483108
 20
100.9953559027
 10
137.8601600437
 20
100.8447994507
 10
137.969585635
 20
100.6984399334
 10
138.0859363747
 20
100.5562242688
 10
138.2077281687
 20
100.4199664674
 10
138.3350307159
 20
100.2897428481
 10
138.4677743173
 20
100.165477092
 10
138.604265782
 20
100.048754252
 10
138.7445531196
 20
99.9396709515
 10
138.8885883205
 20
99.8381305671
 10
139.0345341656
 20
99.7454282818
 10
139.1824151298
 20
99.66167731
 10
139.3322067382
 20
99.5867644374
 10
139.4819983467
 20
99.5216452037
 10
139.6317899551
 20
99.4664450636
 10
139.7815815635
 20
99.4210385624
 10
139.9294625277
 20
99.3860048758
 10
139.9846312452
 20
99.3767330929
  0
LWPOLYLINE
  5
29B
100
AcDbEntity
  8
0
100
AcDbPolyline
 62
7
  6
CONTINUOUS
 90
28
 70
0
 10
137.3030879099
 20
102.8304119891
 10
137.3081729114
 20
102.6773043667
 10
137.3228633698
 20
102.5222496204
 10
137.3471592851
 20
102.3652477502
 10
137.3812464287
 20
102.2056117398
 10
137.4249390292
 20
102.0440286054
 10
137.4776797723
 20
101.8825593965
 10
137.5395845629
 20
101.7212055722
 10
137.6105374961
 20
101.5599656732
 10
137.6896335424
 20
101.4008963707
 10
137.7769770137
 20
101.2440254695
 10
137.8724635981
 20
101.0893251648
 10
137.974875331
 20
100.9387687128
 10
138.0843009222
 20
100.7924091955
 10
138.200651662
 20
100.6501935309
 10
138.322443456
 20
100.5139357295
 10
138.4497460031
 20
100.3837121102
 10
138.5824896045
 20
100.2594463541
 10
138.7189810693
 20
100.1427235141
 10
138.8592684069
 20
100.0336402135
 10
139.0033036078
 20
99.9320998291
 10
139.1492494528
 20
99.8393975439
 10
139.2971304171
 20
99.7556465721
 10
139.4469220255
 20
99.6807336995
 10
139.5967136339
 20
99.6156144657
 10
139.7465052423
 20
99.5604143256
 10
139.8962968508
 20
99.5150078244
 10
140.0431901547
 20
99.4802081192
  0
LWPOLYLINE
  5
29C
100
AcDbEntity
  8
0
100
AcDbPolyline
 62
7
  6
CONTINUOUS
 90
25
 70
0
 10
137.3039984814
 20
95.020600164
 10
137.3080474567
 20
94.8966840941
 10
137.3228006424
 20
94.7409672737
 10
137.3471592851
 20
94.5833033294
 10
137.3812464287
 20
94.423667319
 10
137.4249390292
 20
94.2620841847
 10
137.4776797723
 20
94.1006149757
 10
137.5395845629
 20
93.9392611514
 10
137.6105374961
 20
93.7780212525
 10
137.6896335424
 20
93.6189519499
 10
137.7769770137
 20
93.4620810488
 10
137.8724635981
 20
93.307380744
 10
137.974875331
 20
93.156824292
 10
138.0843009222
 20
93.0104647747
 10
138.200651662
 20
92.8682491102
 10
138.322443456
 20
92.7319913087
 10
138.4497460031
 20
92.6017676895
 10
138.5824896045
 20
92.4775019333
 10
138.7189810693
 20
92.3607790933
 10
138.8592684069
 20
92.2516957928
 10
139.0033036078
 20
92.1501554084
 10
139.1492494528
 20
92.0574531231
 10
139.2964935357
 20
91.9740206646
 10
139.4456482627
 20
91.8994263052
 10
139.5967136339
 20
91.833670045
  0
LINE
  5
29D
100
AcDbEntity
  8
RACCORDO
100
AcDbLine
 62
253
  6
CONTINUOUS
 10
137.3491545622
 20
102.8571266847
 11
137.3510087571
 21
102.7995108981
  0
LWPOLYLINE
  5
29E
100
AcDbEntity
  8
RACCORDO
100
AcDbPolyline
 62
253
  6
CONTINUOUS
 90
31
 70
0
 10
135.5516333853
 20
118.9305694049
 10
135.5513097377
 20
118.941367191
 10
135.5504277404
 20
118.9523627865
 10
135.5489898082
 20
118.9635260422
 10
135.5469998784
 20
118.9748263597
 10
135.5444634052
 20
118.9862327433
 10
135.5413873498
 20
118.9977138835
 10
135.5377801509
 20
119.0092382906
 10
135.5336516988
 20
119.0207743715
 10
135.5290133199
 20
119.0322904829
 10
135.5238777363
 20
119.0437550452
 10
135.5182590316
 20
119.0551366249
 10
135.5121726173
 20
119.0664040096
 10
135.5056351772
 20
119.0775263179
 10
135.4986646466
 20
119.08847304
 10
135.4912801707
 20
119.0992141203
 10
135.4835020379
 20
119.1097200677
 10
135.475351552
 20
119.1199621256
 10
135.466850992
 20
119.1299123012
 10
135.458023547
 20
119.1395434318
 10
135.4488935265
 20
119.1488289763
 10
135.4394862488
 20
119.1577432089
 10
135.4298277178
 20
119.1662615592
 10
135.4199442534
 20
119.1743608826
 10
135.4098626843
 20
119.1820192178
 10
135.399608393
 20
119.1892170887
 10
135.3892116836
 20
119.1959330323
 10
135.3787076906
 20
119.2021448913
 10
135.3681275946
 20
119.2078354695
 10
135.3574982748
 20
119.2129915425
 10
135.3468488399
 20
119.2176000405
  0
LWPOLYLINE
  5
29F
100
AcDbEntity
  8
RACCORDO
100
AcDbPolyline
 62
7
  6
CONTINUOUS
 90
34
 70
0
 10
136.853744323
 20
119.9948273902
 10
136.8535125108
 20
120.0046646983
 10
136.8528171741
 20
120.0146659019
 10
136.8516599694
 20
120.0248084159
 10
136.850043664
 20
120.035069388
 10
136.8479719218
 20
120.0454255793
 10
136.8454492959
 20
120.0558534164
 10
136.8424815466
 20
120.066329318
 10
136.8390754692
 20
120.0768296149
 10
136.8352386725
 20
120.0873304313
 10
136.8309798767
 20
120.0978080057
 10
136.8263087866
 20
120.1082386519
 10
136.8212359122
 20
120.1185986782
 10
136.815772756
 20
120.1288646271
 10
136.809931735
 20
120.1390132773
 10
136.8037260463
 20
120.1490216049
 10
136.7971697412
 20
120.1588669333
 10
136.7902776954
 20
120.1685269801
 10
136.7830655247
 20
120.1779798578
 10
136.7755495425
 20
120.1872041334
 10
136.7677467806
 20
120.1961789169
 10
136.759674955
 20
120.2048839037
 10
136.7513523088
 20
120.213299341
 10
136.7427976831
 20
120.2214061564
 10
136.7340305322
 20
120.2291860424
 10
136.725070658
 20
120.2366213284
 10
136.7159383264
 20
120.2436951483
 10
136.7066543339
 20
120.2503915642
 10
136.697239637
 20
120.2566953478
 10
136.6877155142
 20
120.2625921823
 10
136.6781036799
 20
120.2680688241
 10
136.6684259026
 20
120.273112865
 10
136.6587039557
 20
120.2777127609
 10
136.6489597776
 20
120.2818580258
  0
LWPOLYLINE
  5
2A0
100
AcDbEntity
  8
0
100
AcDbPolyline
 62
7
  6
CONTINUOUS
 90
49
 70
0
 10
136.929143949
 20
94.2421506083
 10
136.9301526928
 20
94.1801010962
 10
136.933177844
 20
94.1173077597
 10
136.9382161632
 20
94.0538378394
 10
136.9452622553
 20
93.9897593005
 10
136.9543085751
 20
93.9251407599
 10
136.9653454356
 20
93.8600514129
 10
136.9783610182
 20
93.7945609589
 10
136.9933413856
 20
93.7287395265
 10
137.0102704964
 20
93.662657599
 10
137.0291302225
 20
93.5963859387
 10
137.0499003683
 20
93.5299955108
 10
137.0725586928
 20
93.463557408
 10
137.0970809328
 20
93.3971427737
 10
137.1234408293
 20
93.3308227265
 10
137.1516101554
 20
93.2646682835
 10
137.1815587467
 20
93.1987502846
 10
137.2132545336
 20
93.1331393163
 10
137.2466635754
 20
93.0679056367
 10
137.2817500968
 20
93.0031190994
 10
137.3184765263
 20
92.9388490796
 10
137.3568035363
 20
92.8751643992
 10
137.3966900854
 20
92.8121332534
 10
137.438093462
 20
92.7498231374
 10
137.4809693302
 20
92.6883007746
 10
137.5252717777
 20
92.6276320447
 10
137.5709533642
 20
92.5678819131
 10
137.6179651726
 20
92.5091143618
 10
137.6662568617
 20
92.4513923207
 10
137.7157767194
 20
92.3947775999
 10
137.7664717187
 20
92.3393308239
 10
137.818287574
 20
92.2851113665
 10
137.8711687997
 20
92.2321772872
 10
137.9250587691
 20
92.1805852691
 10
137.9798997757
 20
92.1303905584
 10
138.0356330942
 20
92.0816469047
 10
138.092199044
 20
92.034406504
 10
138.1495370529
 20
91.9887199425
 10
138.2075857219
 20
91.9446361424
 10
138.2662828911
 20
91.9022023099
 10
138.3255657059
 20
91.8614638841
 10
138.3853706851
 20
91.8224644888
 10
138.4456337877
 20
91.7852458855
 10
138.5062904827
 20
91.7498479288
 10
138.5672758172
 20
91.7163085237
 10
138.6285244868
 20
91.6846635851
 10
138.6899709047
 20
91.6549469992
 10
138.7515492726
 20
91.6271905871
 10
138.8131936509
 20
91.6014240713
  0
LWPOLYLINE
  5
2A1
100
AcDbEntity
  8
0
100
AcDbPolyline
 62
7
  6
CONTINUOUS
 90
52
 70
0
 10
137.0168996166
 20
86.992504118
 10
137.0173899171
 20
86.9605522337
 10
137.0206544098
 20
86.8886312402
 10
137.0260838947
 20
86.8160413531
 10
137.033684529
 20
86.7427806701
 10
137.0434501555
 20
86.6688510935
 10
137.0553530283
 20
86.5944626712
 10
137.0693992255
 20
86.5196140982
 10
137.085582669
 20
86.4443066795
 10
137.1038573786
 20
86.3687543777
 10
137.1242293015
 20
86.2929564964
 10
137.1466924905
 20
86.216913732
 10
137.1711831235
 20
86.1408421363
 10
137.1977069661
 20
86.0647416274
 10
137.2262582527
 20
85.9886122873
 10
137.2567558635
 20
85.9126704139
 10
137.2892053338
 20
85.8369165402
 10
137.3236011283
 20
85.7613501331
 10
137.3598455222
 20
85.6861858911
 10
137.3979437727
 20
85.6114249579
 10
137.4378906225
 20
85.5370661898
 10
137.4795725751
 20
85.463320854
 10
137.5229945648
 20
85.3901906953
 10
137.5681516574
 20
85.3176739689
 10
137.6149155529
 20
85.2459767087
 10
137.663290821
 20
85.175101245
 10
137.7132728919
 20
85.1050452475
 10
137.7647197573
 20
85.0360077585
 10
137.8176355829
 20
84.9679916745
 10
137.8720162028
 20
84.900994099
 10
137.9277071116
 20
84.8352053847
 10
137.9847120354
 20
84.7706289696
 10
138.0430272481
 20
84.7072614157
 10
138.102487065
 20
84.6452827623
 10
138.1630947413
 20
84.5846969592
 10
138.2248470219
 20
84.5255000566
 10
138.2875684568
 20
84.4678602441
 10
138.3512618022
 20
84.4117819498
 10
138.4159243019
 20
84.3572607455
 10
138.4813722376
 20
84.3044515364
 10
138.5476078429
 20
84.2533591911
 10
138.6146288842
 20
84.203978841
 10
138.682244942
 20
84.1564507848
 10
138.7504577085
 20
84.1107802905
 10
138.8192654914
 20
84.0669620901
 10
138.8884727949
 20
84.0251206796
 10
138.9580807552
 20
83.9852616806
 10
139.028088236
 20
83.9473794715
 10
139.098296333
 20
83.9115816827
 10
139.1686387445
 20
83.8779041912
 10
139.2391817721
 20
83.8463111199
 10
139.3099254158
 20
83.8168024691
  0
LWPOLYLINE
  5
2A2
100
AcDbEntity
  8
0
100
AcDbPolyline
 62
7
  6
CONTINUOUS
 90
52
 70
0
 10
137.0168996166
 20
94.7744485388
 10
137.0173899171
 20
94.7424966545
 10
137.0206544098
 20
94.670575661
 10
137.0260838947
 20
94.5979857739
 10
137.033684529
 20
94.5247250909
 10
137.0434501555
 20
94.4507955143
 10
137.0553530283
 20
94.3764070919
 10
137.0693992255
 20
94.3015585189
 10
137.085582669
 20
94.2262511002
 10
137.1038573786
 20
94.1506987984
 10
137.1242293015
 20
94.0749009171
 10
137.1466924905
 20
93.9988581527
 10
137.1711831235
 20
93.9227865571
 10
137.1977069661
 20
93.8466860482
 10
137.2262582527
 20
93.7705567081
 10
137.2567558635
 20
93.6946148346
 10
137.2892053338
 20
93.6188609609
 10
137.3236011283
 20
93.5432945538
 10
137.3598455222
 20
93.4681303118
 10
137.3979437727
 20
93.3933693786
 10
137.4378906225
 20
93.3190106105
 10
137.4795725751
 20
93.2452652748
 10
137.5229945648
 20
93.172135116
 10
137.5681516574
 20
93.0996183896
 10
137.6149155529
 20
93.0279211294
 10
137.663290821
 20
92.9570456658
 10
137.7132728919
 20
92.8869896683
 10
137.7647197573
 20
92.8179521793
 10
137.8176355829
 20
92.7499360953
 10
137.8720162028
 20
92.6829385197
 10
137.9277071116
 20
92.6171498055
 10
137.9847120354
 20
92.5525733903
 10
138.0430272481
 20
92.4892058364
 10
138.102487065
 20
92.427227183
 10
138.1630947413
 20
92.3666413799
 10
138.2248470219
 20
92.3074444773
 10
138.2875684568
 20
92.2498046648
 10
138.3512618022
 20
92.1937263705
 10
138.4159243019
 20
92.1392051663
 10
138.4813722376
 20
92.0863959572
 10
138.5476078429
 20
92.0353036119
 10
138.6146288842
 20
91.9859232617
 10
138.682244942
 20
91.9383952056
 10
138.7504577085
 20
91.8927247112
 10
138.8192654914
 20
91.8489065108
 10
138.8884727949
 20
91.8070651003
 10
138.9580807552
 20
91.7672061014
 10
139.028088236
 20
91.7293238923
 10
139.098296333
 20
91.6935261035
 10
139.1686387445
 20
91.6598486119
 10
139.2391817721
 20
91.6282555407
 10
139.3099254158
 20
91.5987468898
  0
LINE
  5
2A3
100
AcDbEntity
  8
RACCORDO
100
AcDbLine
 62
253
  6
CONTINUOUS
 10
135.7826310827
 20
118.438152219
 11
135.7826310827
 21
117.794869651
  0
LINE
  5
2A4
100
AcDbEntity
  8
RACCORDO
100
AcDbLine
 62
253
  6
CONTINUOUS
 10
136.1299755088
 20
118.6039911054
 11
136.1299755088
 21
117.8400718246
  0
LINE
  5
2A5
100
AcDbEntity
  8
RACCORDO
100
AcDbLine
 62
7
  6
CONTINUOUS
 10
136.853744323
 20
118.4793926426
 11
136.853744323
 21
119.9948273902
  0
LINE
  5
2A6
100
AcDbEntity
  8
ASSI
100
AcDbLine
 62
7
  6
CONTINUOUS
 10
137.1883726226
 20
102.8019489065
 11
137.1883726226
 21
102.736442727
  0
LINE
  5
2A7
100
AcDbEntity
  8
ASSI
100
AcDbLine
 62
7
  6
CONTINUOUS
 10
137.1883726226
 20
87.1725538855
 11
137.1883726226
 21
86.0915231273
  0
LINE
  5
2A8
100
AcDbEntity
  8
RACCORDO
100
AcDbLine
 62
253
  6
CONTINUOUS
 10
137.2811796819
 20
120.3457525755
 11
137.2811796819
 21
120.0170310956
  0
LINE
  5
2A9
100
AcDbEntity
  8
0
100
AcDbLine
 62
7
  6
CONTINUOUS
 10
137.3030879099
 20
102.8443192259
 11
137.3030879099
 21
102.8304119891
  0
LINE
  5
2AA
100
AcDbEntity
  8
0
100
AcDbLine
 62
7
  6
CONTINUOUS
 10
137.3030879099
 20
87.2551399985
 11
137.3030879099
 21
85.806416986
  0
LINE
  5
2AB
100
AcDbEntity
  8
RACCORDO
100
AcDbLine
 62
7
  6
CONTINUOUS
 10
137.3255609081
 20
120.4273153058
 11
137.3255609081
 21
120.0985938259
  0
LINE
  5
2AC
100
AcDbEntity
  8
RACCORDO
100
AcDbLine
 62
253
  6
CONTINUOUS
 10
137.3459809724
 20
87.2644982589
 11
137.3459809724
 21
85.7149384309
  0
LINE
  5
2AD
100
AcDbEntity
  8
0
100
AcDbLine
 62
7
  6
CONTINUOUS
 10
137.4261307219
 20
87.2772469377
 11
137.4261307219
 21
85.5589565697
  0
LWPOLYLINE
  5
2AE
100
AcDbEntity
  8
RACCORDO
100
AcDbPolyline
 62
7
  6
CONTINUOUS
 90
13
 70
0
 10
137.3255609081
 20
120.0985934093
 10
137.32553443
 20
120.0949553746
 10
137.3250352762
 20
120.0823907506
 10
137.3239032316
 20
120.0698520387
 10
137.322139353
 20
120.0573740432
 10
137.3197456464
 20
120.0449858638
 10
137.3167260297
 20
120.0327198241
 10
137.31308643
 20
120.0206090425
 10
137.3088336477
 20
120.0086837099
 10
137.3039767698
 20
119.996975943
 10
137.2985266701
 20
119.9855174404
 10
137.2924948529
 20
119.974337383
 10
137.2897353543
 20
119.9696391571
  0
LWPOLYLINE
  5
2AF
100
AcDbEntity
  8
RACCORDO
100
AcDbPolyline
 62
253
  6
CONTINUOUS
 90
13
 70
0
 10
137.325560908
 20
120.4273116705
 10
137.3254400446
 20
120.4228569843
 10
137.324694598
 20
120.4153881625
 10
137.3232710463
 20
120.4079517916
 10
137.3211732605
 20
120.4005681114
 10
137.3184069469
 20
120.3932572208
 10
137.3149796353
 20
120.3860390259
 10
137.3109006495
 20
120.3789331691
 10
137.3061810927
 20
120.3719589971
 10
137.3008338266
 20
120.3651355137
 10
137.2948734163
 20
120.3584812971
 10
137.2883160841
 20
120.3520144508
 10
137.2811796819
 20
120.3457525755
  0
LWPOLYLINE
  5
2B0
100
AcDbEntity
  8
RACCORDO
100
AcDbPolyline
 62
253
  6
CONTINUOUS
 90
13
 70
0
 10
137.3255609081
 20
120.0985934093
 10
137.3254392128
 20
120.0941201925
 10
137.3246925712
 20
120.0866527628
 10
137.3232680764
 20
120.0792178164
 10
137.3211695988
 20
120.0718355719
 10
137.3184028479
 20
120.0645261266
 10
137.3149753631
 20
120.0573093943
 10
137.3108964844
 20
120.0502050244
 10
137.3061773085
 20
120.0432323308
 10
137.3008306655
 20
120.0364102662
 10
137.2948710973
 20
120.0297573864
 10
137.2883148233
 20
120.023291799
 10
137.2811796819
 20
120.0170310956
  0
LINE
  5
2B1
100
AcDbEntity
  8
ASSI
100
AcDbLine
 62
7
  6
CONTINUOUS
 10
137.1900244387
 20
87.2209626766
 11
137.1883726226
 21
87.1725538855
  0
LWPOLYLINE
  5
2B2
100
AcDbEntity
  8
0
100
AcDbPolyline
 62
7
  6
CONTINUOUS
 90
54
 70
0
 10
136.946675987
 20
102.2734813199
 10
136.9452622554
 20
102.2635393874
 10
136.9382161633
 20
102.2051205873
 10
136.933177844
 20
102.145697672
 10
136.9301526928
 20
102.085334273
 10
136.929143949
 20
102.0240950291
 10
136.9301526928
 20
101.9620455166
 10
136.933177844
 20
101.8992521797
 10
136.9382161633
 20
101.8357822593
 10
136.9452622554
 20
101.7717037203
 10
136.9543085752
 20
101.7070851798
 10
136.9653454357
 20
101.6419958328
 10
136.9783610184
 20
101.5765053787
 10
136.9933413858
 20
101.5106839464
 10
137.0102704966
 20
101.4446020189
 10
137.0291302227
 20
101.3783303586
 10
137.0499003686
 20
101.3119399308
 10
137.0725586931
 20
101.245501828
 10
137.0970809331
 20
101.1790871937
 10
137.1234408296
 20
101.1127671466
 10
137.1516101557
 20
101.0466127036
 10
137.1815587471
 20
100.9806947047
 10
137.2132545339
 20
100.9150837364
 10
137.2466635757
 20
100.8498500568
 10
137.2817500971
 20
100.7850635195
 10
137.3184765266
 20
100.7207934998
 10
137.3568035367
 20
100.6571088194
 10
137.3966900857
 20
100.5940776736
 10
137.4380934623
 20
100.5317675577
 10
137.4809693306
 20
100.4702451949
 10
137.525271778
 20
100.409576465
 10
137.5709533645
 20
100.3498263334
 10
137.617965173
 20
100.2910587822
 10
137.666256862
 20
100.2333367411
 10
137.7157767197
 20
100.1767220203
 10
137.766471719
 20
100.1212752444
 10
137.8182875743
 20
100.0670557869
 10
137.8711687999
 20
100.0141217077
 10
137.9250587694
 20
99.9625296896
 10
137.9798997759
 20
99.9123349789
 10
138.0356330944
 20
99.8635913253
 10
138.0921990442
 20
99.8163509246
 10
138.1495370531
 20
99.7706643631
 10
138.2075857221
 20
99.726580563
 10
138.2662828912
 20
99.6841467305
 10
138.3255657061
 20
99.6434083048
 10
138.3853706852
 20
99.6044089095
 10
138.4456337878
 20
99.5671903062
 10
138.5062904828
 20
99.5317923495
 10
138.5672758173
 20
99.4982529444
 10
138.6285244868
 20
99.4666080058
 10
138.6899709047
 20
99.4368914199
 10
138.7515492726
 20
99.4091350079
 10
138.8131936509
 20
99.383368492
  0
LWPOLYLINE
  5
2B3
100
AcDbEntity
  8
0
100
AcDbPolyline
 62
7
  6
CONTINUOUS
 90
6
 70
0
 10
136.946675987
 20
94.4915368991
 10
136.9452622553
 20
94.4815949658
 10
136.9382161632
 20
94.4231761657
 10
136.933177844
 20
94.3637532506
 10
136.9301526928
 20
94.3033898519
 10
136.929143949
 20
94.2421506083
  0
LWPOLYLINE
  5
2B4
100
AcDbEntity
  8
ASSI
100
AcDbPolyline
 62
7
  6
CONTINUOUS
 90
13
 70
0
 10
145.1652519914
 20
121.6330660919
 10
145.1651097068
 20
121.6327370482
 10
145.1641994366
 20
121.6317404146
 10
145.1624743671
 20
121.6302482706
 10
145.1599678335
 20
121.6282850616
 10
145.1567124222
 20
121.6258629108
 10
145.1527182037
 20
121.6230038816
 10
145.1479958716
 20
121.6197175704
 10
145.142577047
 20
121.6160269618
 10
145.136495157
 20
121.6119735788
 10
145.1297775003
 20
121.6075631303
 10
145.1224529396
 20
121.6028151412
 10
145.1145644225
 20
121.5977888532
  0
LWPOLYLINE
  5
2B5
100
AcDbEntity
  8
0
100
AcDbPolyline
 62
7
  6
CONTINUOUS
 90
11
 70
0
 10
137.1156546678
 20
102.7660195387
 10
137.0970809331
 20
102.7342083067
 10
137.0725586931
 20
102.6874910413
 10
137.0499003686
 20
102.6392531263
 10
137.0291302227
 20
102.5895462162
 10
137.0102704966
 20
102.5384235382
 10
136.9933413858
 20
102.4859398359
 10
136.9783610184
 20
102.4321513101
 10
136.9653454357
 20
102.3771155589
 10
136.9543085752
 20
102.3208915159
 10
136.946675987
 20
102.2734813199
  0
LWPOLYLINE
  5
2B6
100
AcDbEntity
  8
RACCORDO
100
AcDbPolyline
 62
253
  6
CONTINUOUS
 90
10
 70
0
 10
147.4953870497
 20
117.1035481018
 10
147.4799418507
 20
117.0828191918
 10
147.4654642296
 20
117.0598113187
 10
147.452251822
 20
117.0349974856
 10
147.4405762529
 20
117.0088878235
 10
147.4306775525
 20
116.9820191032
 10
147.4227592214
 20
116.9549437007
 10
147.4169840472
 20
116.9282182408
 10
147.413470758
 20
116.9023921542
 10
147.4122915809
 20
116.877996382
  0
LINE
  5
2B7
100
AcDbEntity
  8
ASSI
100
AcDbLine
 62
7
  6
CONTINUOUS
 10
136.9681034382
 20
102.6261015408
 11
136.9991322859
 21
102.6654081609
  0
LWPOLYLINE
  5
2B8
100
AcDbEntity
  8
ASSI
100
AcDbPolyline
 62
7
  6
CONTINUOUS
 90
3
 70
0
 10
136.9991322859
 20
102.6654081609
 10
137.031800975
 20
102.7029604767
 10
137.0600042356
 20
102.7323790189
  0
LINE
  5
2B9
100
AcDbEntity
  8
RACCORDO
100
AcDbLine
 62
7
  6
CONTINUOUS
 10
150.4151596419
 20
114.6768481298
 11
149.1341743196
 21
113.6036918665
  0
LINE
  5
2BA
100
AcDbEntity
  8
RACCORDO
100
AcDbLine
 62
253
  6
CONTINUOUS
 10
150.5745375992
 20
114.6890320279
 11
149.2938861165
 21
113.6161554416
  0
LINE
  5
2BB
100
AcDbEntity
  8
DRAFT
100
AcDbLine
 62
7
  6
CONTINUOUS
 10
158.6389809262
 20
121.4539877797
 11
155.9484488536
 21
119.2425363103
  0
LINE
  5
2BC
100
AcDbEntity
  8
RACCORDO
100
AcDbLine
 62
7
  6
CONTINUOUS
 10
136.9796780577
 20
102.6740100404
 11
136.979970766
 21
102.6742499025
  0
LINE
  5
2BD
100
AcDbEntity
  8
RACCORDO
100
AcDbLine
 62
7
  6
CONTINUOUS
 10
150.4170848153
 20
114.6784251542
 11
150.4151618305
 21
114.6768499633
  0
LINE
  5
2BE
100
AcDbEntity
  8
0
100
AcDbLine
 62
253
  6
CONTINUOUS
 10
137.1883726226
 20
102.736442727
 11
137.3030879099
 21
102.8304119891
  0
LINE
  5
2BF
100
AcDbEntity
  8
0
100
AcDbLine
 62
7
  6
CONTINUOUS
 10
155.9223897445
 20
118.020345869
 11
156.3238932499
 21
118.3492382863
  0
LINE
  5
2C0
100
AcDbEntity
  8
RACCORDO
100
AcDbLine
 62
7
  6
CONTINUOUS
 10
155.3967493202
 20
119.1568733127
 11
158.6387313791
 21
121.7806608334
  0
LINE
  5
2C1
100
AcDbEntity
  8
DRAFT
100
AcDbLine
 62
7
  6
CONTINUOUS
 10
155.9484488536
 20
119.2425363103
 11
155.3967493202
 21
118.796037124
  0
LINE
  5
2C2
100
AcDbEntity
  8
RACCORDO
100
AcDbLine
 62
7
  6
CONTINUOUS
 10
156.2556490996
 20
119.0395529352
 11
155.2902524673
 21
118.2639177727
  0
LINE
  5
2C3
100
AcDbEntity
  8
RACCORDO
100
AcDbLine
 62
7
  6
CONTINUOUS
 10
150.852025972
 20
115.0267487768
 11
150.4170862794
 21
114.6784263267
  0
LINE
  5
2C4
100
AcDbEntity
  8
RACCORDO
100
AcDbLine
 62
253
  6
CONTINUOUS
 10
151.0091353516
 20
115.0370806344
 11
150.5745375992
 21
114.6890320279
  0
LINE
  5
2C5
100
AcDbEntity
  8
RACCORDO
100
AcDbLine
 62
7
  6
CONTINUOUS
 10
155.3629194068
 20
117.9823277187
 11
151.4831855916
 21
114.9102975737
  0
LWPOLYLINE
  5
2C6
100
AcDbEntity
  8
RACCORDO
100
AcDbPolyline
 62
7
  6
CONTINUOUS
 90
30
 70
0
 10
136.9796836116
 20
102.674014058
 10
137.0039910758
 20
102.6932467607
 10
137.040046119
 20
102.7193727824
 10
137.0771249356
 20
102.7435361775
 10
137.1152033183
 20
102.765784142
 10
137.154322302
 20
102.7861862411
 10
137.1944444136
 20
102.8047596762
 10
137.23551656
 20
102.8215137338
 10
137.2775648046
 20
102.8364846275
 10
137.32054845
 20
102.849678931
 10
137.3644140309
 20
102.8610995687
 10
137.4091709123
 20
102.87076305
 10
137.4547736504
 20
102.8786715156
 10
137.50116473
 20
102.8848260996
 10
137.5483362698
 20
102.8892335046
 10
137.5962371498
 20
102.8918961591
 10
137.6448071126
 20
102.8928177511
 10
137.6940259557
 20
102.8920024536
 10
137.7438360687
 20
102.8894560368
 10
137.7941788872
 20
102.8851867336
 10
137.8450357141
 20
102.8791987355
 10
137.8963473995
 20
102.8715016207
 10
137.9480550906
 20
102.8621079641
 10
138.0001445771
 20
102.8510213245
 10
138.052558754
 20
102.8382537174
 10
138.1052413159
 20
102.8238202009
 10
138.1581840909
 20
102.8077217359
 10
138.2113468055
 20
102.7899670709
 10
138.2646513667
 20
102.7705812618
 10
138.306384444
 20
102.7543031796
  0
LWPOLYLINE
  5
2C7
100
AcDbEntity
  8
RACCORDO
100
AcDbPolyline
 62
7
  6
CONTINUOUS
 90
21
 70
0
 10
150.852025972
 20
115.0267487768
 10
150.8624430498
 20
115.0346531696
 10
150.8733135324
 20
115.0420369413
 10
150.8846053049
 20
115.0488668304
 10
150.8962827865
 20
115.0551119286
 10
150.9083086774
 20
115.0607448104
 10
150.9206445951
 20
115.0657416105
 10
150.9332063047
 20
115.0700676897
 10
150.9459906561
 20
115.0737230458
 10
150.9590840421
 20
115.0767202136
 10
150.972520079
 20
115.0790389135
 10
150.9861735708
 20
115.0806315463
 10
150.9998946601
 20
115.0814713519
 10
151.013589885
 20
115.0815567807
 10
151.0272516063
 20
115.0808934524
 10
151.0408629139
 20
115.0794831182
 10
151.0543535274
 20
115.0773344742
 10
151.0676988092
 20
115.074454065
 10
151.0809525409
 20
115.0708234553
 10
151.0941468416
 20
115.0664116047
 10
151.1014796282
 20
115.0635992935
  0
LWPOLYLINE
  5
2C8
100
AcDbEntity
  8
RACCORDO
100
AcDbPolyline
 62
253
  6
CONTINUOUS
 90
31
 70
0
 10
151.0336070223
 20
73.3268110842
 10
151.0295568165
 20
73.3331266625
 10
151.0249605522
 20
73.3396528434
 10
151.019830313
 20
73.3463720001
 10
151.0141791111
 20
73.3532665988
 10
151.0080223988
 20
73.3603173412
 10
151.0013784883
 20
73.3675030803
 10
150.9942662664
 20
73.3748034484
 10
150.9867045114
 20
73.3821992257
 10
150.9787136697
 20
73.3896704019
 10
150.9703153911
 20
73.3971967029
 10
150.9615327129
 20
73.4047574523
 10
150.9523898277
 20
73.4123318126
 10
150.9429117956
 20
73.4198990267
 10
150.9331244232
 20
73.4274384945
 10
150.9230544188
 20
73.4349296409
 10
150.9127292685
 20
73.4423520162
 10
150.9021771888
 20
73.4496853344
 10
150.891427026
 20
73.4569095472
 10
150.8805081522
 20
73.4640049167
 10
150.8694503826
 20
73.4709520684
 10
150.8582839207
 20
73.4777320267
 10
150.8470392496
 20
73.4843262827
 10
150.8357470999
 20
73.4907168142
 10
150.8244383663
 20
73.4968861389
 10
150.8131439706
 20
73.5028173918
 10
150.8018947279
 20
73.5084943947
 10
150.7907213145
 20
73.513901668
 10
150.7796542329
 20
73.5190244502
 10
150.7687237268
 20
73.5238487415
 10
150.7579596508
 20
73.5283613655
  0
LWPOLYLINE
  5
2C9
100
AcDbEntity
  8
RACCORDO
100
AcDbPolyline
 62
253
  6
CONTINUOUS
 90
27
 70
0
 10
137.3510087571
 20
102.7995108981
 10
137.3660723024
 20
102.6398921295
 10
137.3911102459
 20
102.4775613055
 10
137.4259948037
 20
102.3133068631
 10
137.470592591
 20
102.1477286898
 10
137.5248232536
 20
101.9812292887
 10
137.5885978424
 20
101.8143011909
 10
137.6616308661
 20
101.6478785254
 10
137.7434793259
 20
101.4830249836
 10
137.8337085314
 20
101.3205807462
 10
137.9319895974
 20
101.1611062719
 10
138.037937236
 20
101.005226402
 10
138.1511261461
 20
100.8535797803
 10
138.2710511112
 20
100.7068552551
 10
138.3971633438
 20
100.5657256278
 10
138.5288951526
 20
100.4308188735
 10
138.6657007202
 20
100.3026869902
 10
138.8070262785
 20
100.1818492249
 10
138.9522904076
 20
100.0688101188
 10
139.1008475188
 20
99.96407925
 10
139.2520231824
 20
99.8681326747
 10
139.405142053
 20
99.7813932837
 10
139.5595698556
 20
99.7042147298
 10
139.7146801833
 20
99.6369106079
 10
139.8698313623
 20
99.5797659708
 10
140.0243315128
 20
99.5330422741
 10
140.0635027295
 20
99.5238113638
  0
LINE
  5
2CA
100
AcDbEntity
  8
RACCORDO
100
AcDbLine
 62
7
  6
CONTINUOUS
 10
137.6138552168
 20
102.516954016
 11
137.6239752282
 21
102.3809712066
  0
LWPOLYLINE
  5
2CB
100
AcDbEntity
  8
RACCORDO
100
AcDbPolyline
 62
253
  6
CONTINUOUS
 90
31
 70
0
 10
137.2811796819
 20
120.3457525755
 10
137.2809410815
 20
120.3566200282
 10
137.2801393233
 20
120.3676813517
 10
137.2787766023
 20
120.3789062167
 10
137.2768566494
 20
120.390263856
 10
137.2743847268
 20
120.4017231165
 10
137.2713676188
 20
120.4132525434
 10
137.2678136021
 20
120.4248205149
 10
137.2637324214
 20
120.4363953182
 10
137.2591352734
 20
120.447945204
 10
137.2540347672
 20
120.4594385001
 10
137.2484448903
 20
120.470843694
 10
137.242380975
 20
120.4821295089
 10
137.2358596436
 20
120.4932650127
 10
137.2288987874
 20
120.5042196596
 10
137.2215175248
 20
120.5149633721
 10
137.2137361358
 20
120.5254666521
 10
137.205575933
 20
120.5357007504
 10
137.1970592222
 20
120.545637696
 10
137.1882092363
 20
120.5552503622
 10
137.1790503467
 20
120.5645122585
 10
137.1696079521
 20
120.573397725
 10
137.1599081539
 20
120.5818822712
 10
137.1499773851
 20
120.5899428451
 10
137.139842603
 20
120.5975575908
 10
137.1295293224
 20
120.6047071406
 10
137.1190680203
 20
120.6113701729
 10
137.1084940537
 20
120.6175247129
 10
137.0978388214
 20
120.623153743
 10
137.0871294035
 20
120.6282442035
 10
137.0763951365
 20
120.6327832111
  0
LINE
  5
2CC
100
AcDbEntity
  8
DRAFT
100
AcDbLine
 62
7
  6
CONTINUOUS
 10
137.8597180326
 20
87.259910991
 11
137.8597180326
 21
84.9161455921
  0
LINE
  5
2CD
100
AcDbEntity
  8
RACCORDO
100
AcDbLine
 62
7
  6
CONTINUOUS
 10
139.6326572725
 20
117.945205701
 11
139.6326572725
 21
116.7786507954
  0
LINE
  5
2CE
100
AcDbEntity
  8
RACCORDO
100
AcDbLine
 62
253
  6
CONTINUOUS
 10
139.8458690543
 20
117.5566474873
 11
139.8458690543
 21
116.5345504169
  0
LWPOLYLINE
  5
2CF
100
AcDbEntity
  8
0
100
AcDbPolyline
 62
7
  6
CONTINUOUS
 90
54
 70
0
 10
136.946675987
 20
86.7095924784
 10
136.9452622554
 20
86.6996505459
 10
136.9382161633
 20
86.6412317458
 10
136.933177844
 20
86.5818088305
 10
136.9301526928
 20
86.5214454315
 10
136.929143949
 20
86.4602061876
 10
136.9301526928
 20
86.3981566751
 10
136.933177844
 20
86.3353633382
 10
136.9382161633
 20
86.2718934178
 10
136.9452622554
 20
86.2078148788
 10
136.9543085752
 20
86.1431963383
 10
136.9653454357
 20
86.0781069913
 10
136.9783610184
 20
86.0126165372
 10
136.9933413858
 20
85.9467951049
 10
137.0102704966
 20
85.8807131774
 10
137.0291302227
 20
85.8144415171
 10
137.0499003686
 20
85.7480510893
 10
137.0725586931
 20
85.6816129865
 10
137.0970809331
 20
85.6151983522
 10
137.1234408296
 20
85.5488783051
 10
137.1516101557
 20
85.4827238621
 10
137.1815587471
 20
85.4168058632
 10
137.2132545339
 20
85.3511948949
 10
137.2466635757
 20
85.2859612153
 10
137.2817500971
 20
85.221174678
 10
137.3184765266
 20
85.1569046583
 10
137.3568035367
 20
85.0932199779
 10
137.3966900857
 20
85.0301888321
 10
137.4380934623
 20
84.9678787162
 10
137.4809693306
 20
84.9063563534
 10
137.525271778
 20
84.8456876235
 10
137.5709533645
 20
84.7859374919
 10
137.617965173
 20
84.7271699407
 10
137.666256862
 20
84.6694478996
 10
137.7157767197
 20
84.6128331788
 10
137.766471719
 20
84.5573864029
 10
137.8182875743
 20
84.5031669454
 10
137.8711687999
 20
84.4502328662
 10
137.9250587694
 20
84.3986408482
 10
137.9798997759
 20
84.3484461374
 10
138.0356330944
 20
84.2997024838
 10
138.0921990442
 20
84.2524620831
 10
138.1495370531
 20
84.2067755216
 10
138.2075857221
 20
84.1626917215
 10
138.2662828912
 20
84.120257889
 10
138.3255657061
 20
84.0795194633
 10
138.3853706852
 20
84.040520068
 10
138.4456337878
 20
84.0033014647
 10
138.5062904828
 20
83.967903508
 10
138.5672758173
 20
83.9343641029
 10
138.6285244868
 20
83.9027191643
 10
138.6899709047
 20
83.8730025784
 10
138.7515492726
 20
83.8452461664
 10
138.8131936509
 20
83.8194796505
  0
LINE
  5
2D0
100
AcDbEntity
  8
RACCORDO
100
AcDbLine
 62
7
  6
CONTINUOUS
 10
139.0649850239
 20
100.9744886506
 11
139.1317209113
 21
101.2817438649
  0
LWPOLYLINE
  5
2D1
100
AcDbEntity
  8
0
100
AcDbPolyline
 62
7
  6
CONTINUOUS
 90
10
 70
0
 10
137.0967673851
 20
94.9516665464
 10
137.0725586928
 20
94.90554662
 10
137.0499003683
 20
94.857308705
 10
137.0291302225
 20
94.8076017948
 10
137.0102704964
 20
94.7564791168
 10
136.9933413856
 20
94.7039954145
 10
136.9783610182
 20
94.6502068886
 10
136.9653454356
 20
94.5951711374
 10
136.9543085751
 20
94.5389470944
 10
136.946675987
 20
94.4915368991
  0
LWPOLYLINE
  5
2D2
100
AcDbEntity
  8
RACCORDO
100
AcDbPolyline
 62
253
  6
CONTINUOUS
 90
11
 70
0
 10
155.5810443602
 20
118.1471291928
 10
155.6194204287
 20
118.1879097944
 10
155.6881114981
 20
118.2526540882
 10
155.7625810391
 20
118.3153008932
 10
155.8428112646
 20
118.3758042214
 10
155.9288421144
 20
118.4341209593
 10
156.0202915061
 20
118.4899232463
 10
156.1164391537
 20
118.5427726375
 10
156.2172867381
 20
118.592689622
 10
156.3222503096
 20
118.6394037873
 10
156.4275650586
 20
118.6815102455
  0
LWPOLYLINE
  5
2D3
100
AcDbEntity
  8
RACCORDO
100
AcDbPolyline
 62
253
  6
CONTINUOUS
 90
43
 70
0
 10
147.8205041073
 20
108.3848553223
 10
147.7898115687
 20
108.3573064238
 10
147.7592156696
 20
108.3283189039
 10
147.7287536377
 20
108.2979289859
 10
147.6984623505
 20
108.2661753171
 10
147.668378833
 20
108.2330968725
 10
147.638540243
 20
108.1987327243
 10
147.608982256
 20
108.163124751
 10
147.5797415152
 20
108.1263179451
 10
147.5508561251
 20
108.0883582816
 10
147.5223615692
 20
108.0492934167
 10
147.4942921622
 20
108.0091715365
 10
147.4666835261
 20
107.9680415162
 10
147.4395692417
 20
107.9259543866
 10
147.4129823183
 20
107.882962513
 10
147.3869566349
 20
107.839118508
 10
147.3615238131
 20
107.7944766431
 10
147.3367148628
 20
107.7490925159
 10
147.3125616559
 20
107.7030222073
 10
147.2890936899
 20
107.6563230521
 10
147.2663393915
 20
107.6090528911
 10
147.2443277672
 20
107.5612697319
 10
147.223085644
 20
107.513032855
 10
147.2026388149
 20
107.4644021224
 10
147.1830133419
 20
107.4154372378
 10
147.1642330985
 20
107.3661987567
 10
147.1463209487
 20
107.3167479178
 10
147.1292998861
 20
107.2671459468
 10
147.1131907136
 20
107.2174544966
 10
147.0980128968
 20
107.1677350168
 10
147.0837857525
 20
107.1180485837
 10
147.0705266635
 20
107.0684568393
 10
147.0582516676
 20
107.0190211679
 10
147.0469763353
 20
106.969802075
 10
147.0367143546
 20
106.9208599695
 10
147.0274782989
 20
106.872256059
 10
147.0192801711
 20
106.8240515003
 10
147.0121300969
 20
106.7763069804
 10
147.0060364624
 20
106.7290805469
 10
147.0010068038
 20
106.6824285666
 10
146.9970473861
 20
106.6364081466
 10
146.9941630513
 20
106.5910769865
 10
146.99235738
 20
106.5464912348
  0
LINE
  5
2D4
100
AcDbEntity
  8
RACCORDO
100
AcDbLine
 62
7
  6
CONTINUOUS
 10
156.2613516645
 20
117.3599563756
 11
152.7843517538
 21
114.3143556103
  0
LINE
  5
2D5
100
AcDbEntity
  8
RACCORDO
100
AcDbLine
 62
7
  6
CONTINUOUS
 10
156.2613516645
 20
116.8895442501
 11
152.8075345452
 21
113.9084029746
  0
LINE
  5
2D6
100
AcDbEntity
  8
RACCORDO
100
AcDbLine
 62
253
  6
CONTINUOUS
 10
147.8205041073
 20
108.3848553223
 11
151.5130842434
 21
111.5696535824
  0
LWPOLYLINE
  5
2D7
100
AcDbEntity
  8
RACCORDO
100
AcDbPolyline
 62
7
  6
CONTINUOUS
 90
13
 70
0
 10
151.6119491459
 20
111.6213404951
 10
151.6054919305
 20
111.615892271
 10
151.5986626742
 20
111.6106306643
 10
151.5914740594
 20
111.605564818
 10
151.5839389782
 20
111.6007070381
 10
151.5760718927
 20
111.5960623508
 10
151.5678890094
 20
111.5916283652
 10
151.5594056858
 20
111.5874155747
 10
151.5506379896
 20
111.5834283921
 10
151.5416043885
 20
111.5796544713
 10
151.5323227275
 20
111.576093682
 10
151.5228100011
 20
111.572758253
 10
151.5130842434
 20
111.5696535824
  0
LINE
  5
2D8
100
AcDbEntity
  8
RACCORDO
100
AcDbLine
 62
7
  6
CONTINUOUS
 10
155.3526427058
 20
115.9676133625
 11
155.6835920714
 21
116.2448689863
  0
LINE
  5
2D9
100
AcDbEntity
  8
RACCORDO
100
AcDbLine
 62
253
  6
CONTINUOUS
 10
152.5583687736
 20
114.4148735655
 11
152.1309334146
 21
114.0639483802
  0
LINE
  5
2DA
100
AcDbEntity
  8
RACCORDO
100
AcDbLine
 62
253
  6
CONTINUOUS
 10
152.763153319
 20
114.1278429299
 11
152.3357179601
 21
113.7769177446
  0
LINE
  5
2DB
100
AcDbEntity
  8
RACCORDO
100
AcDbLine
 62
7
  6
CONTINUOUS
 10
158.6918870532
 20
118.7989852511
 11
157.6280802195
 21
117.9275657086
  0
LINE
  5
2DC
100
AcDbEntity
  8
RACCORDO
100
AcDbLine
 62
7
  6
CONTINUOUS
 10
157.0592758669
 20
117.4616284603
 11
156.8224940772
 21
117.2676681732
  0
LINE
  5
2DD
100
AcDbEntity
  8
0
100
AcDbLine
 62
7
  6
CONTINUOUS
 10
159.4668795158
 20
118.3689242535
 11
158.0477868906
 21
117.2064716286
  0
LINE
  5
2DE
100
AcDbEntity
  8
RACCORDO
100
AcDbLine
 62
7
  6
CONTINUOUS
 10
159.6748715912
 20
118.4041990449
 11
158.6110626727
 21
117.5327777946
  0
LINE
  5
2DF
100
AcDbEntity
  8
RACCORDO
100
AcDbLine
 62
253
  6
CONTINUOUS
 10
152.1309334146
 20
114.0639483802
 11
150.8288224769
 21
112.9996903949
  0
LINE
  5
2E0
100
AcDbEntity
  8
RACCORDO
100
AcDbLine
 62
253
  6
CONTINUOUS
 10
152.3357179601
 20
113.7769177446
 11
151.0336070223
 21
112.7126597593
  0
LINE
  5
2E1
100
AcDbEntity
  8
DRAFT
100
AcDbLine
 62
7
  6
CONTINUOUS
 10
155.9350940343
 20
115.7336877779
 11
152.4387303408
 21
112.9131698092
  0
LINE
  5
2E2
100
AcDbEntity
  8
RACCORDO
100
AcDbLine
 62
7
  6
CONTINUOUS
 10
163.1059438826
 20
120.0935632769
 11
160.3593351372
 21
117.9525736429
  0
LINE
  5
2E3
100
AcDbEntity
  8
RACCORDO
100
AcDbLine
 62
253
  6
CONTINUOUS
 10
152.909169619
 20
112.7242307893
 11
152.3357179601
 21
112.2784867513
  0
LINE
  5
2E4
100
AcDbEntity
  8
RACCORDO
100
AcDbLine
 62
253
  6
CONTINUOUS
 10
153.3188704186
 20
112.1500317131
 11
152.7322809178
 21
111.6940756292
  0
LWPOLYLINE
  5
2E5
100
AcDbEntity
  8
RACCORDO
100
AcDbPolyline
 62
7
  6
CONTINUOUS
 90
10
 70
0
 10
159.674848152
 20
118.4041798447
 10
159.6840925032
 20
118.4112514601
 10
159.6931940401
 20
118.4172330406
 10
159.7021527628
 20
118.4221245861
 10
159.7110457153
 20
118.4259444322
 10
159.7197958535
 20
118.4286742434
 10
159.7281720458
 20
118.4302590133
 10
159.7360972483
 20
118.4306804063
 10
159.7436485047
 20
118.4299567579
 10
159.7508258152
 20
118.4280880682
  0
LWPOLYLINE
  5
2E6
100
AcDbEntity
  8
SMUSSO
100
AcDbPolyline
 62
7
  6
CONTINUOUS
 90
22
 70
0
 10
160.3593351372
 20
117.9525736429
 10
160.2336540573
 20
117.8605103966
 10
160.0972536698
 20
117.7732682169
 10
159.9501339746
 20
117.690847104
 10
159.7914962861
 20
117.6126980436
 10
159.62213929
 20
117.5393700499
 10
159.4444590438
 20
117.4725101655
 10
159.2581861187
 20
117.4123208319
 10
159.0635899436
 20
117.3585996077
 10
158.8638748623
 20
117.3123862111
 10
158.6590180295
 20
117.2738991757
 10
158.4490422906
 20
117.242919968
 10
158.2372205261
 20
117.219832706
 10
158.0238496846
 20
117.2047832966
 10
157.8086328175
 20
117.1976258331
 10
157.5939519592
 20
117.198306713
 10
157.3798371838
 20
117.2068661527
 10
157.1662584172
 20
117.2232639359
 10
156.9555074716
 20
117.2473258113
 10
156.7474507922
 20
117.2791448945
 10
156.5422219338
 20
117.31862807
 10
156.3468328783
 20
117.3643117999
  0
LWPOLYLINE
  5
2E7
100
AcDbEntity
  8
RACCORDO
100
AcDbPolyline
 62
7
  6
CONTINUOUS
 90
7
 70
0
 10
164.9985111155
 20
114.3225105945
 10
164.9805033655
 20
114.3150856207
 10
164.9635104751
 20
114.3101454402
 10
164.9475324445
 20
114.3076900531
 10
164.9325692735
 20
114.3077194592
 10
164.9186209622
 20
114.3102336587
 10
164.9056875106
 20
114.3152326516
  0
LINE
  5
2E8
100
AcDbEntity
  8
0
100
AcDbLine
 62
7
  6
CONTINUOUS
 10
139.5967136339
 20
91.833670045
 11
139.7477790051
 21
91.7780837877
  0
LWPOLYLINE
  5
2E9
100
AcDbEntity
  8
0
100
AcDbPolyline
 62
7
  6
CONTINUOUS
 90
12
 70
0
 10
138.8131936509
 20
91.6014240713
 10
138.8748380291
 20
91.577675043
 10
138.936416397
 20
91.5559689335
 10
138.9978628149
 20
91.536328986
 10
139.0591114845
 20
91.5187762316
 10
139.120096819
 20
91.5033294662
 10
139.180753514
 20
91.4900052305
 10
139.2410166167
 20
91.4788177926
 10
139.3008215958
 20
91.4697791321
 10
139.3601044107
 20
91.462898928
 10
139.4188015798
 20
91.4581845477
 10
139.4320838885
 20
91.4574140904
  0
LWPOLYLINE
  5
2EA
100
AcDbEntity
  8
0
100
AcDbPolyline
 62
7
  6
CONTINUOUS
 90
7
 70
0
 10
139.3099254158
 20
91.5987468898
 10
139.3806690594
 20
91.5714310563
 10
139.451212087
 20
91.5463607871
 10
139.5215544985
 20
91.5235360821
 10
139.5917625955
 20
91.5029395618
 10
139.6617700763
 20
91.4845886057
 10
139.7228242365
 20
91.4705080624
  0
LWPOLYLINE
  5
2EB
100
AcDbEntity
  8
RACCORDO
100
AcDbPolyline
 62
253
  6
CONTINUOUS
 90
100
 70
0
 10
138.1665067278
 20
90.8656470901
 10
138.1009312336
 20
90.8929880766
 10
138.0353776149
 20
90.922395952
 10
137.9698459048
 20
90.9538707434
 10
137.9042429996
 20
90.9874509833
 10
137.8386621361
 20
91.0230982492
 10
137.7733828907
 20
91.0606971639
 10
137.7084084649
 20
91.1002621503
 10
137.6437359244
 20
91.1417790062
 10
137.5796356716
 20
91.1850894406
 10
137.5161168933
 20
91.2302026247
 10
137.4531707923
 20
91.2771097091
 10
137.3910408134
 20
91.3256253865
 10
137.3297548461
 20
91.3757370837
 10
137.2692854918
 20
91.4274577792
 10
137.2097932696
 20
91.4806404993
 10
137.1512855206
 20
91.5352818846
 10
137.0937554824
 20
91.5913857718
 10
137.0373425213
 20
91.6488159823
 10
136.9820370479
 20
91.707587882
 10
136.9278493062
 20
91.7676866447
 10
136.8749484003
 20
91.8289307927
 10
136.8233352204
 20
91.8913297876
 10
136.7730095773
 20
91.9548747453
 10
136.7241389229
 20
92.0193566424
 10
136.676733683
 20
92.0847724311
 10
136.6307841464
 20
92.1511257472
 10
136.5864275106
 20
92.2182175512
 10
136.5436702104
 20
92.2860472647
 10
136.5025065192
 20
92.3546160482
 10
136.4630553311
 20
92.42372742
 10
136.4253194668
 20
92.4933872022
 10
136.3892967872
 20
92.5635901321
 10
136.3550986691
 20
92.6341230375
 10
136.3227302534
 20
92.7049899147
 10
136.2921870243
 20
92.7761872792
 10
136.2635657776
 20
92.847490659
 10
136.2368743822
 20
92.9188972148
 10
136.2121055093
 20
92.9904102272
 10
136.1893330494
 20
93.061814313
 10
136.1685634563
 20
93.1331074086
 10
136.1497907173
 20
93.2042919372
 10
136.133069907
 20
93.2751591505
 10
136.1184063835
 20
93.3457142637
 10
136.1057951202
 20
93.4159523305
 10
136.0952754848
 20
93.4856492547
 10
136.0868554222
 20
93.5548042544
 10
136.0805271835
 20
93.6234182687
 10
136.0763064545
 20
93.6912696667
 10
136.074198534
 20
93.7583349301
 10
136.074198169
 20
93.8246376113
 10
136.076305093
 20
93.8900265836
 10
136.0805243763
 20
93.9545204327
 10
136.0868509012
 20
94.0181005308
 10
136.0952689956
 20
94.0805598292
 10
136.1057862912
 20
94.1418933826
 10
136.1183949609
 20
94.202105973
 10
136.1330560032
 20
94.2610050279
 10
136.1497745674
 20
94.3185815918
 10
136.1685451738
 20
94.3748443467
 10
136.1893127489
 20
94.4296270706
 10
136.2120833131
 20
94.4829266389
 10
136.2368504051
 20
94.5347458131
 10
136.2635401123
 20
94.5849271052
 10
136.2921597636
 20
94.6334671921
 10
136.3227014902
 20
94.6803689537
 10
136.3550684739
 20
94.7254841169
 10
136.3892652856
 20
94.7688047982
 10
136.4252867295
 20
94.8103383692
 10
136.4630212401
 20
94.8499593613
 10
136.5024708932
 20
94.8876598308
 10
136.5436329314
 20
94.923447164
 10
136.5863884627
 20
94.9572188243
 10
136.6307430874
 20
94.9889704501
 10
136.6766904969
 20
95.0187058248
 10
136.7240938754
 20
95.0463345795
 10
136.7729630134
 20
95.0718517566
 10
136.8232874059
 20
95.0952617312
 10
136.8748997437
 20
95.1164880938
 10
136.9278005149
 20
95.1355209187
 10
136.9819885305
 20
95.1523695606
 10
137.0372939317
 20
95.1669865038
 10
137.0937064127
 20
95.1793641243
 10
137.1512356245
 20
95.1895095132
 10
137.209741631
 20
95.1973972174
 10
137.26923058
 20
95.203024912
 10
137.3296957449
 20
95.2063944511
 10
137.3909778792
 20
95.2074866521
 10
137.4531042125
 20
95.206292098
 10
137.5160470245
 20
95.2028198069
 10
137.5795646513
 20
95.1970782555
 10
137.6436664116
 20
95.1890509799
 10
137.7083425971
 20
95.1787541274
 10
137.7733230212
 20
95.1662451061
 10
137.8386116518
 20
95.1515064813
 10
137.9042042539
 20
95.1345554706
 10
137.9698183654
 20
95.1155014847
 10
138.0353597877
 20
95.0943809575
 10
138.1009225862
 20
95.0711573469
 10
138.1665067278
 20
95.0458306261
  0
LWPOLYLINE
  5
2EC
100
AcDbEntity
  8
RACCORDO
100
AcDbPolyline
 62
253
  6
CONTINUOUS
 90
73
 70
0
 10
138.3385774182
 20
91.2535988162
 10
138.2807927717
 20
91.277707855
 10
138.2229153936
 20
91.3036651129
 10
138.1650030833
 20
91.3314580996
 10
138.1070929681
 20
91.3610833725
 10
138.049265857
 20
91.3925142879
 10
137.9916452235
 20
91.4256946388
 10
137.9342899031
 20
91.4605978746
 10
137.8772595893
 20
91.4971953755
 10
137.8206768872
 20
91.5354137252
 10
137.7646038201
 20
91.57521182
 10
137.7090928401
 20
91.6165535288
 10
137.6542484774
 20
91.6593610288
 10
137.6001458033
 20
91.7035704652
 10
137.546816426
 20
91.7491509062
 10
137.4942974572
 20
91.7960693209
 10
137.4426457133
 20
91.8442723369
 10
137.3919071823
 20
91.8937145217
 10
137.3421036679
 20
91.9443764172
 10
137.293275492
 20
91.9962191528
 10
137.2454833972
 20
92.0491805497
 10
137.1987799182
 20
92.103206364
 10
137.1532091726
 20
92.1582470298
 10
137.1088214815
 20
92.2142433669
 10
137.0656758339
 20
92.2711241457
 10
137.0238195983
 20
92.3288256935
 10
136.9832900667
 20
92.3872953602
 10
136.944128199
 20
92.446476499
 10
136.9063747141
 20
92.5063067241
 10
136.8700656492
 20
92.5667279855
 10
136.8352335527
 20
92.6276894852
 10
136.8019120103
 20
92.6891334109
 10
136.7701369959
 20
92.7509942949
 10
136.7399429245
 20
92.8132093159
 10
136.7113595197
 20
92.8757180536
 10
136.6844169846
 20
92.9384550647
 10
136.659147253
 20
93.001349418
 10
136.6355765575
 20
93.0643346096
 10
136.6137269751
 20
93.1273499422
 10
136.5936209967
 20
93.1903330113
 10
136.5752790692
 20
93.2532186287
 10
136.5587186996
 20
93.3159449544
 10
136.5439558006
 20
93.3784547351
 10
136.5310043955
 20
93.4406903672
 10
136.5198789557
 20
93.5025834505
 10
136.510592834
 20
93.5640611047
 10
136.5031545177
 20
93.6250628107
 10
136.497570787
 20
93.6855259307
 10
136.4938473597
 20
93.7453758082
 10
136.4919862294
 20
93.804533799
 10
136.491985536
 20
93.862960694
 10
136.4938452003
 20
93.9206409397
 10
136.4975668724
 20
93.9775334666
 10
136.5031484159
 20
94.0335617739
 10
136.510584247
 20
94.0886571426
 10
136.5198677027
 20
94.1427630199
 10
136.530990284
 20
94.1958250375
 10
136.5439388306
 20
94.2477802926
 10
136.5586990882
 20
94.2985725246
 10
136.5752570388
 20
94.34815475
 10
136.5935966416
 20
94.3964800071
 10
136.6137003671
 20
94.4435005506
 10
136.6355478458
 20
94.4891675441
 10
136.6591165258
 20
94.5334340594
 10
136.6843843216
 20
94.5762572481
 10
136.7113250287
 20
94.6175915427
 10
136.7399066812
 20
94.6573887185
 10
136.7700991108
 20
94.6956077296
 10
136.8018725681
 20
94.7322118811
 10
136.8351924863
 20
94.7671626501
 10
136.8700228055
 20
94.800423475
 10
136.9063299853
 20
94.8319635543
 10
136.9102459024
 20
94.8351901205
  0
LWPOLYLINE
  5
2ED
100
AcDbEntity
  8
0
100
AcDbPolyline
 62
7
  6
CONTINUOUS
 90
67
 70
0
 10
138.5642760485
 20
91.4384803106
 10
138.5038645314
 20
91.4637385449
 10
138.4436463258
 20
91.4908818646
 10
138.3836214315
 20
91.5199102698
 10
138.3237260321
 20
91.550858857
 10
138.2640239441
 20
91.5836925297
 10
138.2047066173
 20
91.6183059984
 10
138.1457752867
 20
91.6547049767
 10
138.0872287173
 20
91.6928837511
 10
138.0292546532
 20
91.7327198918
 10
137.9718549324
 20
91.7742187192
 10
137.915027717
 20
91.8173749129
 10
137.8589552376
 20
91.8620500816
 10
137.8036399173
 20
91.9082491017
 10
137.749079333
 20
91.9559670969
 10
137.6954484471
 20
92.0050510475
 10
137.6427502439
 20
92.0555053384
 10
137.5909817391
 20
92.1073255847
 10
137.5403089412
 20
92.1603456118
 10
137.4907353678
 20
92.2145692712
 10
137.4422575014
 20
92.2699927114
 10
137.3950307984
 20
92.3264382032
 10
137.3490592753
 20
92.3839090276
 10
137.3043389156
 20
92.4424019036
 10
137.2610131265
 20
92.5017292591
 10
137.2190863846
 20
92.561893773
 10
137.1785542133
 20
92.6228927665
 10
137.139546589
 20
92.6845306309
 10
137.1020684058
 20
92.7468094172
 10
137.0661147697
 20
92.8097270744
 10
137.031800975
 20
92.8730818414
 10
136.9991322859
 20
92.9368751213
 10
136.9681034382
 20
93.0011055109
 10
136.9388139337
 20
93.0655670394
 10
136.911269356
 20
93.1302604487
 10
136.8854641215
 20
93.1951849969
 10
136.8614809811
 20
93.2601324871
 10
136.8393257841
 20
93.325102993
 10
136.8189926813
 20
93.3900964409
 10
136.8005468759
 20
93.4549044131
 10
136.7839944263
 20
93.519526314
 10
136.7693292741
 20
93.5839627392
 10
136.7565984467
 20
93.6480070571
 10
136.7458081537
 20
93.7116580089
 10
136.7369521855
 20
93.7749168533
 10
136.7300589411
 20
93.8375807351
 10
136.725134721
 20
93.8996477443
 10
136.7221732247
 20
93.9611197908
 10
136.7211839488
 20
94.0217997491
 10
136.7221732247
 20
94.0816850764
 10
136.725134721
 20
94.1407783155
 10
136.7300589411
 20
94.1988899691
 10
136.7369521855
 20
94.2560168861
 10
136.7458081537
 20
94.3121622176
 10
136.7565984467
 20
94.3671459195
 10
136.7693292741
 20
94.4209642628
 10
136.7839944263
 20
94.4736209765
 10
136.8005468759
 20
94.5249472037
 10
136.8189926813
 20
94.5749386732
 10
136.8393257841
 20
94.6235996561
 10
136.8614809811
 20
94.6707741088
 10
136.8854641215
 20
94.7164572594
 10
136.911269356
 20
94.7606538797
 10
136.9388139337
 20
94.8032222422
 10
136.9681034382
 20
94.8441571201
 10
136.9991322859
 20
94.8834637402
 10
137.0269399826
 20
94.9154283962
  0
LINE
  5
2EE
100
AcDbEntity
  8
RACCORDO
100
AcDbLine
 62
253
  6
CONTINUOUS
 10
139.713487968
 20
91.8554447079
 11
139.5593536712
 21
91.9223714577
  0
LWPOLYLINE
  5
2EF
100
AcDbEntity
  8
ASSI
100
AcDbPolyline
 62
7
  6
CONTINUOUS
 90
26
 70
0
 10
139.4819983467
 20
91.7397007829
 10
139.3309329755
 20
91.8054570432
 10
139.1817782484
 20
91.8800514025
 10
139.0345341656
 20
91.963483861
 10
138.8885883205
 20
92.0561861463
 10
138.7445531196
 20
92.1577265307
 10
138.604265782
 20
92.2668098312
 10
138.4677743173
 20
92.3835326713
 10
138.3350307159
 20
92.5077984274
 10
138.2077281687
 20
92.6380220466
 10
138.0859363747
 20
92.7742798481
 10
137.969585635
 20
92.9164955126
 10
137.8601600437
 20
93.0628550299
 10
137.7577483108
 20
93.2134114819
 10
137.6622617264
 20
93.3681117867
 10
137.5749182551
 20
93.5249826878
 10
137.4958222088
 20
93.6840519904
 10
137.4248692756
 20
93.8452918893
 10
137.362964485
 20
94.0066457136
 10
137.3102237419
 20
94.1681149226
 10
137.2665311414
 20
94.3296980569
 10
137.2324439978
 20
94.4893340674
 10
137.2080853552
 20
94.6469980116
 10
137.1933321695
 20
94.802714832
 10
137.1883726226
 20
94.9544983063
 10
137.1895255811
 20
94.9888576881
  0
LWPOLYLINE
  5
2F0
100
AcDbEntity
  8
0
100
AcDbPolyline
 62
7
  6
CONTINUOUS
 90
22
 70
0
 10
140.0820887248
 20
91.8913753195
 10
139.989551144
 20
91.9316553995
 10
139.811098167
 20
92.0209022224
 10
139.6349311393
 20
92.1207231995
 10
139.4603173604
 20
92.2316348622
 10
139.2879895307
 20
92.3531206793
 10
139.1201457519
 20
92.4836310567
 10
138.9568434637
 20
92.6232815974
 10
138.7980252263
 20
92.7719566985
 10
138.6457168217
 20
92.9277599573
 10
138.5000016396
 20
93.090782684
 10
138.3607962902
 20
93.2609335684
 10
138.2298763864
 20
93.4360422766
 10
138.1073480631
 20
93.6161723174
 10
137.9931051853
 20
93.801260182
 10
137.8886049608
 20
93.9889450101
 10
137.7939721911
 20
94.1792600685
 10
137.7090820746
 20
94.3721720905
 10
137.6350174144
 20
94.565220416
 10
137.5719168825
 20
94.758406791
 10
137.5196418069
 20
94.9517294696
 10
137.4995885396
 20
95.0456424008
  0
LWPOLYLINE
  5
2F1
100
AcDbEntity
  8
RACCORDO
100
AcDbPolyline
 62
253
  6
CONTINUOUS
 90
24
 70
0
 10
139.5593536712
 20
91.9223714577
 10
139.405856709
 20
91.9990684619
 10
139.2536488752
 20
92.085213286
 10
139.1034683877
 20
92.1803819126
 10
138.955858933
 20
92.2842237163
 10
138.8111847247
 20
92.3965152068
 10
138.6699046945
 20
92.5169839741
 10
138.5328361221
 20
92.6450189872
 10
138.4008541964
 20
92.7798349833
 10
138.2746089091
 20
92.9207537596
 10
138.1545508546
 20
93.0672577552
 10
138.0411915476
 20
93.2187212543
 10
137.9350182537
 20
93.3744919086
 10
137.836485187
 20
93.5339018254
 10
137.7460099086
 20
93.6962754564
 10
137.6639782985
 20
93.8609229146
 10
137.5907475708
 20
94.0271301809
 10
137.5266374566
 20
94.1941710883
 10
137.4719245906
 20
94.3613196982
 10
137.4268391696
 20
94.5278667017
 10
137.3915711202
 20
94.6931098825
 10
137.3662717892
 20
94.8563480949
 10
137.351052954
 20
95.0168712303
 10
137.3506405427
 20
95.0296457752
  0
LWPOLYLINE
  5
2F2
100
AcDbEntity
  8
RACCORDO
100
AcDbPolyline
 62
253
  6
CONTINUOUS
 90
22
 70
0
 10
140.1071298479
 20
92.5046096172
 10
140.0708135418
 20
92.524668807
 10
139.9177575095
 20
92.6156804983
 10
139.7663953188
 20
92.7122026102
 10
139.6167358217
 20
92.8142883046
 10
139.4687701662
 20
92.9218844197
 10
139.3239759574
 20
93.0339749535
 10
139.1823619546
 20
93.1506201752
 10
139.0439193984
 20
93.2717598156
 10
138.9100996162
 20
93.3961970655
 10
138.7809344289
 20
93.5239838878
 10
138.6563920155
 20
93.6550683195
 10
138.5378282403
 20
93.7880976621
 10
138.4253069825
 20
93.9230962358
 10
138.3187643628
 20
94.0600397204
 10
138.2193646076
 20
94.1975024579
 10
138.1271777785
 20
94.3355082697
 10
138.0421338139
 20
94.4740333342
 10
137.965186756
 20
94.6115805288
 10
137.8966546187
 20
94.7476508123
 10
137.8362193882
 20
94.8827432258
 10
137.7838810643
 20
95.0168577692
  0
LWPOLYLINE
  5
2F3
100
AcDbEntity
  8
RACCORDO
100
AcDbPolyline
 62
253
  6
CONTINUOUS
 90
18
 70
0
 10
139.3135044845
 20
91.9655132518
 10
139.1740065432
 20
92.0444646847
 10
139.0259149163
 20
92.1383098743
 10
138.8803587088
 20
92.2407076934
 10
138.7376966835
 20
92.3514377
 10
138.5983812473
 20
92.4702311813
 10
138.4632185636
 20
92.5964856115
 10
138.3330718771
 20
92.7294267229
 10
138.2085822049
 20
92.8683858142
 10
138.0901937689
 20
93.012852493
 10
137.9784109071
 20
93.1622097022
 10
137.8737140923
 20
93.3158141338
 10
137.7765512491
 20
93.4730072004
 10
137.6873341453
 20
93.6331227666
 10
137.6064432979
 20
93.7954805508
 10
137.5342309472
 20
93.9593764564
 10
137.4710123753
 20
94.1240944096
 10
137.4206400496
 20
94.2779825885
  0
LWPOLYLINE
  5
2F4
100
AcDbEntity
  8
RACCORDO
100
AcDbPolyline
 62
253
  6
CONTINUOUS
 90
19
 70
0
 10
140.0203366177
 20
92.9026689352
 10
139.9319186012
 20
92.9583069967
 10
139.791988191
 20
93.052333541
 10
139.6539730389
 20
93.1510902166
 10
139.5183660795
 20
93.2543499957
 10
139.3855744082
 20
93.361750737
 10
139.2560377975
 20
93.4729077506
 10
139.1302866953
 20
93.5875363049
 10
139.008697534
 20
93.7052210449
 10
138.8916685395
 20
93.8255288276
 10
138.7797381386
 20
93.9481228364
 10
138.6732443634
 20
94.0725342115
 10
138.5725153939
 20
94.1983026315
 10
138.478039965
 20
94.3250849956
 10
138.3900851322
 20
94.4524012164
 10
138.3089201155
 20
94.5797553629
 10
138.2349910991
 20
94.70677116
 10
138.1685667906
 20
94.8329932395
 10
138.1140380029
 20
94.9487793478
  0
LWPOLYLINE
  5
2F5
100
AcDbEntity
  8
RACCORDO
100
AcDbPolyline
 62
253
  6
CONTINUOUS
 90
18
 70
0
 10
137.4201367923
 20
102.0617881456
 10
137.4692235789
 20
101.9110821006
 10
137.5321112772
 20
101.7464752559
 10
137.6041285847
 20
101.582366656
 10
137.6848387483
 20
101.4198054602
 10
137.7738131811
 20
101.2596202381
 10
137.8707275367
 20
101.1023635314
 10
137.9752018447
 20
100.9486514193
 10
138.0868166922
 20
100.7991136471
 10
138.2050739048
 20
100.6544295153
 10
138.3294323431
 20
100.5152624848
 10
138.4593322204
 20
100.3822318002
 10
138.5942353033
 20
100.2558817759
 10
138.7335955194
 20
100.1367244347
 10
138.8768395308
 20
100.0252573009
 10
139.0233307296
 20
99.9219828671
 10
139.1724040673
 20
99.8273705691
 10
139.313229741
 20
99.7475950757
  0
LWPOLYLINE
  5
2F6
100
AcDbEntity
  8
0
100
AcDbPolyline
 62
7
  6
CONTINUOUS
 90
10
 70
0
 10
137.4913660997
 20
102.8835261408
 10
137.5013159826
 20
102.8409196987
 10
137.53722824
 20
102.7190553152
 10
137.580718875
 20
102.5966551916
 10
137.632093312
 20
102.4730868434
 10
137.6910461268
 20
102.348982755
 10
137.7566610461
 20
102.22624038
 10
137.8286326456
 20
102.1054922026
 10
137.9072663498
 20
101.9861057385
 10
137.9925621585
 20
101.8680809876
  0
LINE
  5
2F7
100
AcDbEntity
  8
0
100
AcDbLine
 62
7
  6
CONTINUOUS
 10
137.9925621585
 20
101.8680809876
 11
137.7879821672
 21
102.8857122441
  0
LWPOLYLINE
  5
2F8
100
AcDbEntity
  8
RACCORDO
100
AcDbPolyline
 62
7
  6
CONTINUOUS
 90
31
 70
0
 10
139.6329731529
 20
117.945205701
 10
139.6339707368
 20
117.9347853451
 10
139.6354651604
 20
117.9237525643
 10
139.6374854556
 20
117.9121971073
 10
139.640091446
 20
117.9002158763
 10
139.6432642799
 20
117.8878801208
 10
139.6469098233
 20
117.8752235966
 10
139.6510309854
 20
117.8623046787
 10
139.6556460859
 20
117.8491830685
 10
139.6606847614
 20
117.8358726443
 10
139.6661472841
 20
117.8224150766
 10
139.6720439997
 20
117.8088554986
 10
139.6783221492
 20
117.7951997286
 10
139.6849813601
 20
117.781478821
 10
139.692026983
 20
117.767727828
 10
139.6994177994
 20
117.7539508821
 10
139.7071532983
 20
117.7401724199
 10
139.7152358469
 20
117.7264203753
 10
139.7236313538
 20
117.7126998844
 10
139.7323393391
 20
117.6990309657
 10
139.7413602754
 20
117.6854366946
 10
139.7506639251
 20
117.6719246184
 10
139.7602498208
 20
117.6585116829
 10
139.7701171119
 20
117.6452176005
 10
139.780236927
 20
117.6320530964
 10
139.7906089722
 20
117.6190324931
 10
139.8012310616
 20
117.6061734352
 10
139.8120728352
 20
117.5934912471
 10
139.8231232426
 20
117.5810006199
 10
139.8343895557
 20
117.5687150687
 10
139.8458690543
 20
117.5566474873
  0
LWPOLYLINE
  5
2F9
100
AcDbEntity
  8
RACCORDO
100
AcDbPolyline
 62
253
  6
CONTINUOUS
 90
42
 70
0
 10
155.6616218314
 20
118.1147674638
 10
155.6661386875
 20
118.120287616
 10
155.7242294498
 20
118.1828015458
 10
155.7878216091
 20
118.2435473712
 10
155.856919569
 20
118.3025418537
 10
155.9311817398
 20
118.3594109907
 10
156.0108408495
 20
118.414246898
 10
156.0956641702
 20
118.4669574598
 10
156.1846119283
 20
118.5168923251
 10
156.2780925762
 20
118.5640618501
 10
156.3756976614
 20
118.6084556787
 10
156.4751620527
 20
118.6493923912
 10
156.5765215776
 20
118.6866673927
 10
156.6797404086
 20
118.7204852782
 10
156.7824459321
 20
118.7507784131
 10
156.8843366438
 20
118.7773608205
 10
156.985714048
 20
118.8004184773
 10
157.085110044
 20
118.8204416797
 10
157.1822945554
 20
118.8373792052
 10
157.2774976586
 20
118.8512822762
 10
157.3699414825
 20
118.8627948566
 10
157.459459041
 20
118.8719251214
 10
157.5462173203
 20
118.8786648955
 10
157.6299394077
 20
118.8836336179
 10
157.7104886559
 20
118.8868658593
 10
157.7880017121
 20
118.8883270489
 10
157.8626116059
 20
118.8885329132
 10
157.9342715867
 20
118.8875262255
 10
158.003028405
 20
118.8852642125
 10
158.0691553412
 20
118.8821342813
 10
158.1326263186
 20
118.87817399
 10
158.1934674138
 20
118.8733457804
 10
158.2520301372
 20
118.8679243857
 10
158.3083007846
 20
118.8619418651
 10
158.3622930602
 20
118.8553661594
 10
158.4143995864
 20
118.8483758238
 10
158.4646155409
 20
118.8409969856
 10
158.5129457459
 20
118.8332035176
 10
158.5597972907
 20
118.8250955928
 10
158.6053058718
 20
118.8167066023
 10
158.6493357926
 20
118.8080031551
 10
158.6918870532
 20
118.7989852511
  0
LWPOLYLINE
  5
2FA
100
AcDbEntity
  8
RACCORDO
100
AcDbPolyline
 62
253
  6
CONTINUOUS
 90
43
 70
0
 10
148.2400219401
 20
107.8195656526
 10
148.219362535
 20
107.8012357388
 10
148.1988147541
 20
107.7819936755
 10
148.1783785973
 20
107.7618394625
 10
148.1580283152
 20
107.7407453125
 10
148.1377896573
 20
107.7187390129
 10
148.1177398723
 20
107.6959039263
 10
148.097880253
 20
107.6722374065
 10
148.0782095067
 20
107.6477420997
 10
148.0588010033
 20
107.6225093066
 10
148.0396559379
 20
107.5965365405
 10
148.0207731155
 20
107.569826288
 10
148.0022223206
 20
107.5424773103
 10
147.9840047477
 20
107.5144872113
 10
147.9661192022
 20
107.485858387
 10
147.9486318853
 20
107.4566967858
 10
147.93154421
 20
107.4270003086
 10
147.9148547633
 20
107.3967710545
 10
147.8986255076
 20
107.3661212691
 10
147.8828582121
 20
107.3350494948
 10
147.8675511076
 20
107.3035571891
 10
147.852760849
 20
107.2717609707
 10
147.8384893544
 20
107.2396597273
 10
147.8247347057
 20
107.207254571
 10
147.8115478034
 20
107.174665457
 10
147.7989307182
 20
107.1418916014
 10
147.7868813794
 20
107.1089337881
 10
147.7754444759
 20
107.075914324
 10
147.7646223235
 20
107.0428330989
 10
147.7544126064
 20
107.0096902231
 10
147.7448530654
 20
106.9766083348
 10
147.7359461086
 20
106.9435877184
 10
147.7276893279
 20
106.9106280895
 10
147.7201132393
 20
106.8778512328
 10
147.7132203186
 20
106.8452574757
 10
147.70700809
 20
106.8128464908
 10
147.7014996422
 20
106.7807390797
 10
147.6966975992
 20
106.7489351129
 10
147.692599337
 20
106.71743472
 10
147.689220072
 20
106.6863590907
 10
147.6865648762
 20
106.6557486217
 10
147.6846286775
 20
106.6255629164
 10
147.6834114759
 20
106.5958019747
  0
LINE
  5
2FB
100
AcDbEntity
  8
RACCORDO
100
AcDbLine
 62
7
  6
CONTINUOUS
 10
151.6119491459
 20
111.6213404951
 11
152.3357179601
 21
112.2612438678
  0
LINE
  5
2FC
100
AcDbEntity
  8
RACCORDO
100
AcDbLine
 62
253
  6
CONTINUOUS
 10
152.7322809178
 20
111.6940756292
 11
148.2400219401
 21
107.8195656526
  0
LWPOLYLINE
  5
2FD
100
AcDbEntity
  8
RACCORDO
100
AcDbPolyline
 62
253
  6
CONTINUOUS
 90
3
 70
0
 10
164.0866356317
 20
119.6996953613
 10
162.8729386627
 20
118.7001160244
 10
162.269983784
 20
118.2041683555
  0
LINE
  5
2FE
100
AcDbEntity
  8
DRAFT
100
AcDbLine
 62
253
  6
CONTINUOUS
 10
158.8945108926
 20
115.0290616746
 11
153.3188704186
 21
110.4396768527
  0
LINE
  5
2FF
100
AcDbEntity
  8
RACCORDO
100
AcDbLine
 62
253
  6
CONTINUOUS
 10
162.269983784
 20
118.2041683555
 11
161.0833475481
 21
117.2294234031
  0
LINE
  5
300
100
AcDbEntity
  8
RACCORDO
100
AcDbLine
 62
253
  6
CONTINUOUS
 10
161.0833475481
 20
117.2294234031
 11
159.8496627109
 21
116.2175918516
  0
LINE
  5
301
100
AcDbEntity
  8
RACCORDO
100
AcDbLine
 62
253
  6
CONTINUOUS
 10
159.8496627109
 20
116.2175918516
 11
158.5838147308
 21
115.1807698665
  0
LINE
  5
302
100
AcDbEntity
  8
RACCORDO
100
AcDbLine
 62
7
  6
CONTINUOUS
 10
139.7963193463
 20
99.1642276347
 11
139.7960608904
 21
99.1640159886
  0
LINE
  5
303
100
AcDbEntity
  8
DRAFT
100
AcDbLine
 62
7
  6
CONTINUOUS
 10
157.9937954357
 20
115.4688672793
 11
156.8070569599
 21
114.5115248835
  0
LINE
  5
304
100
AcDbEntity
  8
RACCORDO
100
AcDbLine
 62
253
  6
CONTINUOUS
 10
160.9899128036
 20
115.485089266
 11
159.8069525359
 21
114.5542874632
  0
LINE
  5
305
100
AcDbEntity
  8
RACCORDO
100
AcDbLine
 62
253
  6
CONTINUOUS
 10
162.6728838544
 20
116.8077661827
 11
160.9899128036
 21
115.485089266
  0
LWPOLYLINE
  5
306
100
AcDbEntity
  8
RACCORDO
100
AcDbPolyline
 62
253
  6
CONTINUOUS
 90
29
 70
0
 10
139.7960608904
 20
99.1640159886
 10
139.7621785695
 20
99.1374273117
 10
139.7225918599
 20
99.1090797262
 10
139.6816583546
 20
99.082556159
 10
139.6394198113
 20
99.0578840128
 10
139.5959147912
 20
99.0350862879
 10
139.5511897393
 20
99.0141877213
 10
139.5053011728
 20
98.9952139984
 10
139.4582991629
 20
98.978183849
 10
139.4102280466
 20
98.9631113469
 10
139.3611384108
 20
98.9500106265
 10
139.311090399
 20
98.9388951672
 10
139.2601247928
 20
98.9297714858
 10
139.2082630409
 20
98.9226435122
 10
139.1555515212
 20
98.9175197303
 10
139.1020466574
 20
98.9144077189
 10
139.0477840605
 20
98.9133124028
 10
138.9927955761
 20
98.9142393121
 10
138.9371559743
 20
98.917191964
 10
138.8809674043
 20
98.9221661098
 10
138.8242818105
 20
98.9291561847
 10
138.7671615611
 20
98.9381533956
 10
138.7097281099
 20
98.9491340163
 10
138.6520407863
 20
98.9620792592
 10
138.5941586758
 20
98.9769683103
 10
138.5362050354
 20
98.9937585715
 10
138.4782605927
 20
99.0124119916
 10
138.4203625231
 20
99.0329022892
 10
138.3625686236
 20
99.055195682
  0
LINE
  5
307
100
AcDbEntity
  8
RACCORDO
100
AcDbLine
 62
253
  6
CONTINUOUS
 10
164.9056216309
 20
118.5598803727
 11
162.6728838544
 21
116.8077661827
  0
LWPOLYLINE
  5
308
100
AcDbEntity
  8
RACCORDO
100
AcDbPolyline
 62
253
  6
CONTINUOUS
 90
34
 70
0
 10
147.6834114759
 20
106.5958019747
 10
147.6691462787
 20
106.5858732981
 10
147.6540165708
 20
106.5763400515
 10
147.6380558692
 20
106.5672233541
 10
147.6212995318
 20
106.5585434022
 10
147.6037846791
 20
106.5503194246
 10
147.585550112
 20
106.5425696399
 10
147.5666362259
 20
106.5353112164
 10
147.5470849207
 20
106.5285602337
 10
147.5269395089
 20
106.5223316474
 10
147.5062446187
 20
106.5166392557
 10
147.4850460957
 20
106.5114956691
 10
147.4633909015
 20
106.5069122822
 10
147.4413270089
 20
106.5028992486
 10
147.4189032963
 20
106.4994654585
 10
147.3961694394
 20
106.4966185188
 10
147.3731758006
 20
106.4943647363
 10
147.3499733181
 20
106.4927091038
 10
147.3266133926
 20
106.4916552892
 10
147.3031477737
 20
106.4912056269
 10
147.279628445
 20
106.4913611131
 10
147.2561075091
 20
106.4921214033
 10
147.2326370723
 20
106.4934848133
 10
147.2092691289
 20
106.4954483227
 10
147.1860554463
 20
106.4980075816
 10
147.1630474499
 20
106.5011569206
 10
147.1402961097
 20
106.5048893628
 10
147.117851827
 20
106.5091966398
 10
147.0957643228
 20
106.5140692095
 10
147.074082528
 20
106.5194962778
 10
147.0528544744
 20
106.5254658219
 10
147.0321271888
 20
106.5319646174
 10
147.0119465886
 20
106.5389782676
 10
146.9923573801
 20
106.5464912349
  0
LWPOLYLINE
  5
309
100
AcDbEntity
  8
0
100
AcDbPolyline
 62
7
  6
CONTINUOUS
 90
11
 70
0
 10
139.4320838885
 20
91.4574140904
 10
139.4768502488
 20
91.4556410394
 10
139.5341882577
 20
91.4552711269
 10
139.5907542076
 20
91.4570752062
 10
139.6464875261
 20
91.4610513455
 10
139.7013285326
 20
91.4671952871
 10
139.7552185021
 20
91.4755004518
 10
139.8080997277
 20
91.4859579463
 10
139.859915583
 20
91.4985565724
 10
139.9106105823
 20
91.5132828392
 10
139.9124718919
 20
91.5139157366
  0
LWPOLYLINE
  5
30A
100
AcDbEntity
  8
ASSI
100
AcDbPolyline
 62
7
  6
CONTINUOUS
 90
5
 70
0
 10
139.9667925034
 20
91.5977866926
 10
139.9294625277
 20
91.6040604551
 10
139.7822184449
 20
91.638901083
 10
139.6330637179
 20
91.6841145256
 10
139.4819983467
 20
91.7397007829
  0
LWPOLYLINE
  5
30B
100
AcDbEntity
  8
RACCORDO
100
AcDbPolyline
 62
253
  6
CONTINUOUS
 90
4
 70
0
 10
140.0376800739
 20
91.7480354551
 10
140.0211193824
 20
91.7519649317
 10
139.8676224692
 20
91.7985637115
 10
139.713487968
 20
91.8554447079
  0
LWPOLYLINE
  5
30C
100
AcDbEntity
  8
0
100
AcDbPolyline
 62
7
  6
CONTINUOUS
 90
3
 70
0
 10
139.7477790051
 20
91.7780837877
 10
139.8969337322
 20
91.7328703451
 10
140.019741231
 20
91.7038118574
  0
LWPOLYLINE
  5
30D
100
AcDbEntity
  8
RACCORDO
100
AcDbPolyline
 62
7
  6
CONTINUOUS
 90
72
 70
0
 10
138.226772309
 20
94.9071409941
 10
138.2717348896
 20
94.888533548
 10
138.3296149558
 20
94.8629665462
 10
138.3876081871
 20
94.8355270905
 10
138.4456406206
 20
94.806235378
 10
138.5036413475
 20
94.7751152858
 10
138.5615392692
 20
94.7421935232
 10
138.6192676564
 20
94.7074963629
 10
138.6767572219
 20
94.6710556899
 10
138.7339348722
 20
94.6329082956
 10
138.790732757
 20
94.5930895798
 10
138.8470835742
 20
94.5516390673
 10
138.902917002
 20
94.5086013915
 10
138.958167164
 20
94.4640197953
 10
139.0127702169
 20
94.4179402015
 10
139.0666607264
 20
94.3704127999
 10
139.1197759368
 20
94.3214872255
 10
139.1720549242
 20
94.2712157648
 10
139.2234367663
 20
94.2196539656
 10
139.2738627799
 20
94.1668568362
 10
139.3232754945
 20
94.1128824477
 10
139.3716176116
 20
94.0577924219
 10
139.4188350158
 20
94.0016465734
 10
139.4648744881
 20
93.9445080438
 10
139.5096821909
 20
93.8864451646
 10
139.5532085955
 20
93.8275228898
 10
139.5954063471
 20
93.7678077626
 10
139.6362273841
 20
93.707372349
 10
139.6756276923
 20
93.6462857177
 10
139.7135661892
 20
93.5846171298
 10
139.7500020099
 20
93.5224412266
 10
139.7848976974
 20
93.4598295396
 10
139.8182184373
 20
93.3968538705
 10
139.8499304456
 20
93.3335909453
 10
139.880003043
 20
93.2701145476
 10
139.9084086201
 20
93.2064974465
 10
139.9351214735
 20
93.1428163885
 10
139.9601177864
 20
93.0791476496
 10
139.9833780313
 20
93.0155628201
 10
140.0048863521
 20
92.9521329885
 10
140.0246247132
 20
92.8889405899
 10
140.0425830444
 20
92.8260504634
 10
140.0587588451
 20
92.7635088744
 10
140.0731409487
 20
92.7013961842
 10
140.0857239537
 20
92.639777968
 10
140.0965121599
 20
92.5786809749
 10
140.1055004721
 20
92.5181780429
 10
140.1126859784
 20
92.4583416275
 10
140.1180734829
 20
92.399201729
 10
140.1216628902
 20
92.3408347778
 10
140.1234569486
 20
92.2833083167
 10
140.1234619826
 20
92.2266437473
 10
140.1216833014
 20
92.1709203586
 10
140.1181282308
 20
92.1162008533
 10
140.1128013142
 20
92.0624882195
 10
140.1057111573
 20
92.0098557037
 10
140.0968681101
 20
91.9583706097
 10
140.0862728056
 20
91.9080345089
 10
140.0739372758
 20
91.8589197967
 10
140.0598740753
 20
91.8110899039
 10
140.0440766716
 20
91.7645399731
 10
140.0265581567
 20
91.7193386548
 10
140.007330695
 20
91.6755445878
 10
139.9863745032
 20
91.6331443835
 10
139.9637020063
 20
91.5922064228
 10
139.9393174089
 20
91.552778043
 10
139.9131681659
 20
91.5148240598
 10
139.8852577421
 20
91.478413556
 10
139.8555736951
 20
91.4435897252
 10
139.82400654
 20
91.4103006114
 10
139.7904940692
 20
91.37858198
 10
139.7618566132
 20
91.354053601
  0
LWPOLYLINE
  5
30E
100
AcDbEntity
  8
RACCORDO
100
AcDbPolyline
 62
253
  6
CONTINUOUS
 90
100
 70
0
 10
138.1665067278
 20
95.0458306261
 10
138.2320751279
 20
95.0184836873
 10
138.2976067845
 20
94.9890576653
 10
138.3631017308
 20
94.9575525868
 10
138.4286531755
 20
94.9239300032
 10
138.494168043
 20
94.8882284712
 10
138.5593669725
 20
94.8505635529
 10
138.6242468976
 20
94.8109209354
 10
138.6888111519
 20
94.7693151485
 10
138.7527900039
 20
94.7259050422
 10
138.816174547
 20
94.680681676
 10
138.8789740775
 20
94.633654307
 10
138.9409461856
 20
94.585009096
 10
139.0020634602
 20
94.5347590154
 10
139.0623538033
 20
94.4828914918
 10
139.121657782
 20
94.4295543742
 10
139.1799686222
 20
94.3747514858
 10
139.2372936768
 20
94.318479474
 10
139.2934947044
 20
94.2608754245
 10
139.3485818737
 20
94.20192443
 10
139.4025456708
 20
94.1416419306
 10
139.4552183186
 20
94.0802105245
 10
139.5065995603
 20
94.017621266
 10
139.5566903537
 20
93.9538836718
 10
139.6053247108
 20
93.8892080069
 10
139.6524928925
 20
93.8235979089
 10
139.6982053525
 20
93.7570503229
 10
139.7423263429
 20
93.6897654352
 10
139.7848501186
 20
93.6217443997
 10
139.8257831329
 20
93.5529866407
 10
139.8650078745
 20
93.4836897013
 10
139.9025221811
 20
93.4138482726
 10
139.9383288965
 20
93.3434682208
 10
139.9723179417
 20
93.2727637889
 10
140.004484779
 20
93.2017314569
 10
140.0348345711
 20
93.1303752568
 10
140.0632716924
 20
93.0589206813
 10
140.0897888118
 20
92.9873709823
 10
140.1143938005
 20
92.9157233512
 10
140.1370137271
 20
92.8441941007
 10
140.1576425638
 20
92.7727856427
 10
140.1762867795
 20
92.7014959284
 10
140.192892071
 20
92.6305344846
 10
140.2074533766
 20
92.559896413
 10
140.2199760894
 20
92.4895868857
 10
140.230421459
 20
92.4198304295
 10
140.2387817351
 20
92.3506280274
 10
140.2450648638
 20
92.2819788599
 10
140.2492554981
 20
92.2141046334
 10
140.2513484342
 20
92.1470290866
 10
140.2513489217
 20
92.0807285217
 10
140.2492571699
 20
92.0153533888
 10
140.2450680782
 20
91.9508847346
 10
140.2387867003
 20
91.8873414774
 10
140.230428353
 20
91.8249307734
 10
140.219985167
 20
91.7636574133
 10
140.2074648163
 20
91.7035164495
 10
140.1929057911
 20
91.6447003146
 10
140.1763026077
 20
91.5872177941
 10
140.1576604192
 20
91.5310598343
 10
140.1370335425
 20
91.4763920028
 10
140.1144155173
 20
91.4232170607
 10
140.0898123629
 20
91.3715318876
 10
140.0632969981
 20
91.3214931328
 10
140.0348615496
 20
91.273103666
 10
140.0045133507
 20
91.2263601762
 10
139.9723480213
 20
91.1814099511
 10
139.9383603389
 20
91.1382603389
 10
139.9025549009
 20
91.0969034795
 10
139.8650419608
 20
91.0574637689
 10
139.8258187241
 20
91.019948562
 10
139.7848873036
 20
90.9843499445
 10
139.7423652362
 20
90.9507693452
 10
139.6982461958
 20
90.9192105317
 10
139.6525358001
 20
90.8896691543
 10
139.6053694413
 20
90.8622344154
 10
139.5567365999
 20
90.8369106758
 10
139.5066470808
 20
90.8136929868
 10
139.4552667129
 20
90.7926565452
 10
139.4025942404
 20
90.773810648
 10
139.348630218
 20
90.7571454207
 10
139.2935431569
 20
90.7427072751
 10
139.2373426236
 20
90.7305032296
 10
139.1800183968
 20
90.7205257259
 10
139.1217092943
 20
90.7127993005
 10
139.062408575
 20
90.7073257925
 10
139.0021224012
 20
90.7041028852
 10
138.9410089467
 20
90.7031488825
 10
138.8790404836
 20
90.7044727937
 10
138.8162442491
 20
90.7080652043
 10
138.752860872
 20
90.7139167895
 10
138.6888805374
 20
90.7220436067
 10
138.6243126706
 20
90.7324292766
 10
138.5594267787
 20
90.7450158332
 10
138.4942184949
 20
90.7598203844
 10
138.4286919188
 20
90.7768256015
 10
138.363129287
 20
90.7959218871
 10
138.2976246338
 20
90.8170726721
 10
138.2320837918
 20
90.8403144155
 10
138.1665067278
 20
90.8656470901
  0
LINE
  5
30F
100
AcDbEntity
  8
RACCORDO
100
AcDbLine
 62
253
  6
CONTINUOUS
 10
140.2649800288
 20
83.9639419174
 11
140.2512606512
 21
83.905762658
  0
LWPOLYLINE
  5
310
100
AcDbEntity
  8
ASSI
100
AcDbPolyline
 62
7
  6
CONTINUOUS
 90
13
 70
0
 10
151.6004612737
 20
119.0485406292
 10
151.6003537844
 20
119.0482653246
 10
151.5995108808
 20
119.0473119529
 10
151.5978573167
 20
119.0458657975
 10
151.5954272697
 20
119.0439510544
 10
151.5922536343
 20
119.0415797487
 10
151.5883469869
 20
119.0387748253
 10
151.5837187086
 20
119.0355462355
 10
151.5784003093
 20
119.031916107
 10
151.5724238588
 20
119.0279250884
 10
151.5658161025
 20
119.0235790445
 10
151.5586057782
 20
119.0188970678
 10
151.5508343605
 20
119.0139368351
  0
LWPOLYLINE
  5
311
100
AcDbEntity
  8
0
100
AcDbPolyline
 62
7
  6
CONTINUOUS
 90
11
 70
0
 10
137.105287455
 20
87.1843747738
 10
137.0970809331
 20
87.1703194652
 10
137.0725586931
 20
87.1236021998
 10
137.0499003686
 20
87.0753642848
 10
137.0291302227
 20
87.0256573747
 10
137.0102704966
 20
86.9745346967
 10
136.9933413858
 20
86.9220509944
 10
136.9783610184
 20
86.8682624686
 10
136.9653454357
 20
86.8132267174
 10
136.9543085752
 20
86.7570026744
 10
136.946675987
 20
86.7095924784
  0
LINE
  5
312
100
AcDbEntity
  8
RACCORDO
100
AcDbLine
 62
253
  6
CONTINUOUS
 10
152.3357179601
 20
113.0892239719
 11
152.763153319
 21
113.79912145
  0
LINE
  5
313
100
AcDbEntity
  8
RACCORDO
100
AcDbLine
 62
7
  6
CONTINUOUS
 10
152.3357179601
 20
113.0276225159
 11
152.7717082835
 21
113.7517283359
  0
LWPOLYLINE
  5
314
100
AcDbEntity
  8
RACCORDO
100
AcDbPolyline
 62
7
  6
CONTINUOUS
 90
28
 70
0
 10
151.6119491459
 20
112.3860814598
 10
151.6054848055
 20
112.3759711062
 10
151.5986274712
 20
112.3659865265
 10
151.5913786216
 20
112.3561494488
 10
151.5837347347
 20
112.3464826043
 10
151.5757050914
 20
112.3370072262
 10
151.5673115135
 20
112.3277431926
 10
151.5585588275
 20
112.3187131429
 10
151.5494532113
 20
112.3099392758
 10
151.5400194484
 20
112.3014412893
 10
151.5302652265
 20
112.2932420045
 10
151.5201994492
 20
112.2853636688
 10
151.5098496613
 20
112.2778256282
 10
151.4992264895
 20
112.2706505023
 10
151.4883417835
 20
112.2638603154
 10
151.4772259107
 20
112.2574740557
 10
151.4658926025
 20
112.2515137599
 10
151.4543568399
 20
112.2460008278
 10
151.4426519771
 20
112.2409537965
 10
151.4307950311
 20
112.2363936438
 10
151.4188043087
 20
112.2323406344
 10
151.4067163954
 20
112.2288125882
 10
151.394551808
 20
112.2258288243
 10
151.3823323114
 20
112.223407782
 10
151.3700978681
 20
112.2215659799
 10
151.3578728075
 20
112.2203203174
 10
151.3456822463
 20
112.2196864923
 10
151.3374932396
 20
112.2196117516
  0
LINE
  5
315
100
AcDbEntity
  8
RACCORDO
100
AcDbLine
 62
253
  6
CONTINUOUS
 10
164.9056875106
 20
118.5465229824
 11
153.3188704186
 21
108.6935335978
  0
LINE
  5
316
100
AcDbEntity
  8
RACCORDO
100
AcDbLine
 62
7
  6
CONTINUOUS
 10
136.9102459024
 20
94.8351901205
 11
136.9105477413
 21
94.8354374691
  0
LWPOLYLINE
  5
317
100
AcDbEntity
  8
RACCORDO
100
AcDbPolyline
 62
7
  6
CONTINUOUS
 90
30
 70
0
 10
136.9102517719
 20
94.8351943986
 10
136.9351979317
 20
94.8548842182
 10
136.9706135197
 20
94.8803890751
 10
137.0070545559
 20
94.903935378
 10
137.0444985352
 20
94.9255765699
 10
137.0829958718
 20
94.9453907098
 10
137.1225091503
 20
94.9633973641
 10
137.1629824915
 20
94.9796066788
 10
137.2044480631
 20
94.9940585905
 10
137.2468640705
 20
95.0067604686
 10
137.2901747041
 20
95.017715681
 10
137.33439448
 20
95.026942623
 10
137.3794764929
 20
95.0344437354
 10
137.4253614037
 20
95.0402204813
 10
137.4720472441
 20
95.0442804631
 10
137.5194814986
 20
95.0466261225
 10
137.567603036
 20
95.0472612421
 10
137.6163998665
 20
95.0461897141
 10
137.6658135278
 20
95.0434168016
 10
137.7157853959
 20
95.038950162
 10
137.7663076295
 20
95.0327918292
 10
137.8173209991
 20
95.0249499508
 10
137.868766947
 20
95.015435556
 10
137.9206438352
 20
95.0042477425
 10
137.9728948008
 20
94.9913959864
 10
138.0254640137
 20
94.9768927031
 10
138.0783569961
 20
94.9607319092
 10
138.1315383437
 20
94.942917016
 10
138.184925546
 20
94.9234707012
 10
138.226769536
 20
94.9071420479
  0
LWPOLYLINE
  5
318
100
AcDbEntity
  8
ASSI
100
AcDbPolyline
 62
7
  6
CONTINUOUS
 90
26
 70
0
 10
139.8846825134
 20
99.2476645081
 10
139.8675389705
 20
99.2368341382
 10
139.8242131813
 20
99.21230801
 10
139.7794928217
 20
99.1897365433
 10
139.7335212986
 20
99.169192119
 10
139.6862945956
 20
99.1506812445
 10
139.6378167292
 20
99.1341974124
 10
139.5882431558
 20
99.1197934824
 10
139.5375703579
 20
99.1074761313
 10
139.4858018531
 20
99.0972386823
 10
139.4331036499
 20
99.0891139642
 10
139.379472764
 20
99.0831087594
 10
139.3249121797
 20
99.0792162856
 10
139.2695968594
 20
99.0774490249
 10
139.21352438
 20
99.0778137998
 10
139.1566971646
 20
99.0803037878
 10
139.0992974438
 20
99.0849110043
 10
139.0413233797
 20
99.0916422459
 10
138.9827768103
 20
99.1004907158
 10
138.9238454797
 20
99.1114280394
 10
138.8645281529
 20
99.1244609221
 10
138.8048260649
 20
99.1395826584
 10
138.7449306655
 20
99.1567447567
 10
138.6849057712
 20
99.175931053
 10
138.6246875656
 20
99.1971577112
 10
138.5642760485
 20
99.2204247314
  0
LINE
  5
319
100
AcDbEntity
  8
RACCORDO
100
AcDbLine
 62
7
  6
CONTINUOUS
 10
137.7838810786
 20
95.0168576745
 11
137.6957347799
 21
95.0407423479
  0
LWPOLYLINE
  5
31A
100
AcDbEntity
  8
RACCORDO
100
AcDbPolyline
 62
253
  6
CONTINUOUS
 90
25
 70
0
 10
146.99235738
 20
72.858915307
 10
146.994163064
 20
72.8172151913
 10
146.9970474171
 20
72.7764942337
 10
147.0010068544
 20
72.7368027132
 10
147.006036526
 20
72.698190115
 10
147.0121301645
 20
72.6607035537
 10
147.0192802419
 20
72.6243878795
 10
147.0274783775
 20
72.589287222
 10
147.0367144422
 20
72.5554458604
 10
147.0469764328
 20
72.5229066624
 10
147.0582517773
 20
72.4917100884
 10
147.0705267875
 20
72.4618942718
 10
147.0837858884
 20
72.4334960298
 10
147.0980130383
 20
72.4065503326
 10
147.1131908567
 20
72.3810904806
 10
147.1293000314
 20
72.3571481365
 10
147.146321099
 20
72.33475272
 10
147.1642332555
 20
72.3139319435
 10
147.1830135065
 20
72.2947120157
 10
147.2026389895
 20
72.2771165942
 10
147.2230858302
 20
72.2611672465
 10
147.2443279629
 20
72.2468840038
 10
147.266339592
 20
72.2342843588
 10
147.2890938926
 20
72.2233837524
 10
147.2978615665
 20
72.219717157
  0
LWPOLYLINE
  5
31B
100
AcDbEntity
  8
RACCORDO
100
AcDbPolyline
 62
253
  6
CONTINUOUS
 90
11
 70
0
 10
145.0799481727
 20
118.9339864119
 10
145.0796693911
 20
118.9410632928
 10
145.0793872319
 20
118.9474098884
 10
145.0791028997
 20
118.9529967015
 10
145.0788175017
 20
118.9577991152
 10
145.078532382
 20
118.9617916498
 10
145.0782491118
 20
118.9649513465
 10
145.0779687876
 20
118.9672659052
 10
145.0776927492
 20
118.9687241919
 10
145.0774228703
 20
118.9693199911
 10
145.0773718377
 20
118.9693360055
  0
LINE
  5
31C
100
AcDbEntity
  8
RACCORDO
100
AcDbLine
 62
7
  6
CONTINUOUS
 10
146.1337580281
 20
117.252264931
 11
146.1337583614
 21
117.2519434825
  0
LINE
  5
31D
100
AcDbEntity
  8
DRAFT
100
AcDbLine
 62
253
  6
CONTINUOUS
 10
144.2435327951
 20
118.6750661247
 11
144.2435327951
 21
119.2093465454
  0
LINE
  5
31E
100
AcDbEntity
  8
RACCORDO
100
AcDbLine
 62
253
  6
CONTINUOUS
 10
144.7101896999
 20
117.6528554741
 11
144.7101896999
 21
117.1663217729
  0
LINE
  5
31F
100
AcDbEntity
  8
DRAFT
100
AcDbLine
 62
7
  6
CONTINUOUS
 10
144.8171092315
 20
119.6791928558
 11
144.8171092315
 21
120.2018440025
  0
LINE
  5
320
100
AcDbEntity
  8
ASSI
100
AcDbLine
 62
253
  6
CONTINUOUS
 10
145.0878545238
 20
121.5811718157
 11
145.0878545238
 21
120.4202511935
  0
LINE
  5
321
100
AcDbEntity
  8
RACCORDO
100
AcDbLine
 62
253
  6
CONTINUOUS
 10
145.1186658569
 20
117.7991681813
 11
145.1186658569
 21
117.0022685393
  0
LINE
  5
322
100
AcDbEntity
  8
ASSI
100
AcDbLine
 62
7
  6
CONTINUOUS
 10
145.1652520212
 20
121.6327621187
 11
145.1652520212
 21
120.5592959048
  0
LINE
  5
323
100
AcDbEntity
  8
DRAFT
100
AcDbLine
 62
7
  6
CONTINUOUS
 10
145.2266852536
 20
119.5146978916
 11
145.2266852536
 21
120.0373490383
  0
LINE
  5
324
100
AcDbEntity
  8
DRAFT
100
AcDbLine
 62
253
  6
CONTINUOUS
 10
145.6362612758
 20
118.7610396025
 11
145.6362612758
 21
119.3502029275
  0
LINE
  5
325
100
AcDbEntity
  8
RACCORDO
100
AcDbLine
 62
253
  6
CONTINUOUS
 10
146.0058313084
 20
117.4428625353
 11
146.0058313084
 21
117.0335474112
  0
LWPOLYLINE
  5
326
100
AcDbEntity
  8
RACCORDO
100
AcDbPolyline
 62
7
  6
CONTINUOUS
 90
7
 70
0
 10
146.1337579245
 20
117.2522564826
 10
146.1334714414
 20
117.2444267511
 10
146.1312140222
 20
117.2290360722
 10
146.1264665957
 20
117.2121358924
 10
146.119032478
 20
117.1940900698
 10
146.1089005032
 20
117.1753855437
 10
146.0966886452
 20
117.1571622754
  0
LWPOLYLINE
  5
327
100
AcDbEntity
  8
RACCORDO
100
AcDbPolyline
 62
253
  6
CONTINUOUS
 90
43
 70
0
 10
140.2512606512
 20
83.905762658
 10
140.2354758228
 20
83.8488893919
 10
140.2176357885
 20
83.7933240601
 10
140.1978023543
 20
83.7392606866
 10
140.175969022
 20
83.6867111555
 10
140.1521418333
 20
83.6356631983
 10
140.126401273
 20
83.5862744995
 10
140.0987443933
 20
83.5385552001
 10
140.0691735831
 20
83.4924946872
 10
140.0377772269
 20
83.4482194248
 10
140.0045510096
 20
83.4057334602
 10
139.9694986186
 20
83.365032215
 10
139.9327203562
 20
83.3262291419
 10
139.8942107968
 20
83.2893276041
 10
139.8539746891
 20
83.2543236646
 10
139.8121275224
 20
83.2213197624
 10
139.7686622427
 20
83.1903197016
 10
139.723585198
 20
83.1613190786
 10
139.6770319182
 20
83.1344079666
 10
139.6289918487
 20
83.1095912786
 10
139.5794748299
 20
83.0868634946
 10
139.5286469332
 20
83.0662989952
 10
139.4765070905
 20
83.0479073848
 10
139.4230556686
 20
83.0316784622
 10
139.3684608577
 20
83.0176568714
 10
139.3127330016
 20
83.0058496351
 10
139.2558611014
 20
82.9962491727
 10
139.1979813221
 20
82.9888782139
 10
139.1390869433
 20
82.9837383341
 10
139.0791841069
 20
82.9808274651
 10
139.018428273
 20
82.9801628722
 10
138.9567910758
 20
82.9817535097
 10
138.8943003908
 20
82.9855900054
 10
138.8311960478
 20
82.9916621414
 10
138.7674679112
 20
82.9999859496
 10
138.7031257274
 20
83.010545066
 10
138.6384391668
 20
83.0232806946
 10
138.5734036434
 20
83.0382098914
 10
138.5080234763
 20
83.0553153725
 10
138.4425817225
 20
83.074486857
 10
138.37717269
 20
83.0956875467
 10
138.3117019378
 20
83.1189541262
 10
138.246169433
 20
83.1442865673
  0
LWPOLYLINE
  5
328
100
AcDbEntity
  8
RACCORDO
100
AcDbPolyline
 62
253
  6
CONTINUOUS
 90
26
 70
0
 10
164.9985146415
 20
112.8174917969
 10
165.0145239974
 20
112.8289979528
 10
165.0296703279
 20
112.8383883372
 10
165.0439249422
 20
112.8456911214
 10
165.0572271085
 20
112.8508259127
 10
165.069559037
 20
112.8539459951
 10
165.0809571643
 20
112.8554282341
 10
165.0913615611
 20
112.855332488
 10
165.1007471525
 20
112.8536755696
 10
165.1092136771
 20
112.8507603556
 10
165.1167351306
 20
112.8466763354
 10
165.123247302
 20
112.8414191522
 10
165.1287966109
 20
112.8351493582
 10
165.1333637303
 20
112.8279560986
 10
165.1368661588
 20
112.8198532531
 10
165.1392529957
 20
112.8108934282
 10
165.14049138
 20
112.8011678575
 10
165.140499518
 20
112.790710453
 10
165.1391463467
 20
112.7794971705
 10
165.1364024573
 20
112.7676548779
 10
165.1321678933
 20
112.7552099741
 10
165.1261869097
 20
112.7420105326
 10
165.1184396404
 20
112.7282337021
 10
165.1087815387
 20
112.7139124862
 10
165.0967274877
 20
112.6987295071
 10
165.0913031358
 20
112.692739731
  0
LWPOLYLINE
  5
329
100
AcDbEntity
  8
RACCORDO
100
AcDbPolyline
 62
253
  6
CONTINUOUS
 90
86
 70
0
 10
138.1905123366
 20
98.6719277242
 10
138.1249637004
 20
98.6992739599
 10
138.0594649899
 20
98.7287087446
 10
137.9940162381
 20
98.7602321048
 10
137.9285245329
 20
98.7938825066
 10
137.8630829194
 20
98.82962159
 10
137.7979703995
 20
98.8673341694
 10
137.7331903655
 20
98.907034785
 10
137.668739692
 20
98.9487091097
 10
137.6048876344
 20
98.9921986802
 10
137.5416434578
 20
99.0375128208
 10
137.4789982865
 20
99.0846425182
 10
137.4171941833
 20
99.1334018168
 10
137.3562587224
 20
99.1837783993
 10
137.2961648201
 20
99.2357849745
 10
137.2370725602
 20
99.2892731314
 10
137.1789893625
 20
99.3442395198
 10
137.1219083855
 20
99.4006879513
 10
137.0659683216
 20
99.458480758
 10
137.0111604036
 20
99.517632612
 10
136.9574940527
 20
99.5781293626
 10
136.9051352333
 20
99.639790099
 10
136.8540848784
 20
99.7026241331
 10
136.8043427557
 20
99.7666227111
 10
136.7560730487
 20
99.831577798
 10
136.7092849592
 20
99.8974881112
 10
136.6639700008
 20
99.9643555027
 10
136.6202657757
 20
100.0319765995
 10
136.5781787247
 20
100.1003516346
 10
136.5377031153
 20
100.169480938
 10
136.4989582271
 20
100.2391612321
 10
136.4619486815
 20
100.3093953545
 10
136.4266705358
 20
100.380181006
 10
136.393230147
 20
100.4513071424
 10
136.3616328193
 20
100.522776016
 10
136.3318738721
 20
100.5945858684
 10
136.3040445917
 20
100.6665195646
 10
136.2781510735
 20
100.7385779226
 10
136.2541877668
 20
100.8107605548
 10
136.2322283827
 20
100.8828484327
 10
136.2122792389
 20
100.9548419993
 10
136.1943344633
 20
101.0267411626
 10
136.1784493624
 20
101.0983259966
 10
136.1646306444
 20
101.1695953688
 10
136.1528719302
 20
101.2405506697
 10
136.1432087673
 20
101.3109756554
 10
136.135647821
 20
101.3808686661
 10
136.1301826269
 20
101.4502315175
 10
136.1268289037
 20
101.5188530733
 10
136.1255927286
 20
101.5867275392
 10
136.126468089
 20
101.6538607571
 10
136.1294524344
 20
101.720058939
 10
136.1345502473
 20
101.7853172166
 10
136.1417569797
 20
101.8496404028
 10
136.1510564087
 20
101.9128491301
 10
136.1624552152
 20
101.974947762
 10
136.1759465323
 20
102.0359317846
 10
136.1914936854
 20
102.0956084121
 10
136.2091071022
 20
102.1539797525
 10
136.2287760371
 20
102.2110434434
 10
136.2504319159
 20
102.2665998825
 10
136.2740805165
 20
102.3206366015
 10
136.2997156047
 20
102.3731657056
 10
136.3272504579
 20
102.42402435
 10
136.3566871578
 20
102.473201653
 10
136.3880230639
 20
102.5207080529
 10
136.421164266
 20
102.566412602
 10
136.4561143607
 20
102.6103106758
 10
136.4928691238
 20
102.6524064018
 10
136.5313228283
 20
102.6925818932
 10
136.5714801768
 20
102.730833198
 10
136.6133357898
 20
102.7671637331
 10
136.6567687427
 20
102.8014666069
 10
136.701785327
 20
102.8337373869
 10
136.7483785451
 20
102.8639799482
 10
136.7964074755
 20
102.8920998123
 10
136.8458818995
 20
102.9180914368
 10
136.8967913217
 20
102.9419598011
 10
136.9489643555
 20
102.9636261691
 10
137.0024010373
 20
102.9830800949
 10
137.0571006293
 20
103.0003314721
 10
137.1128905505
 20
103.0153320478
 10
137.169759409
 20
103.0280739357
 10
137.2277179415
 20
103.0385645067
 10
137.2866267484
 20
103.0467783844
 10
137.3464919799
 20
103.0527135237
  0
LWPOLYLINE
  5
32A
100
AcDbEntity
  8
RACCORDO
100
AcDbPolyline
 62
253
  6
CONTINUOUS
 90
72
 70
0
 10
138.3625686236
 20
99.055195682
 10
138.3048092132
 20
99.0793106245
 10
138.246985145
 20
99.1052955949
 10
138.1891541806
 20
99.1331380814
 10
138.1313535353
 20
99.1628345735
 10
138.0736638455
 20
99.1943584535
 10
138.0162081568
 20
99.2276536698
 10
137.9590454661
 20
99.2626938657
 10
137.9022352239
 20
99.2994502706
 10
137.8458990141
 20
99.3378491701
 10
137.790098933
 20
99.377849699
 10
137.7348873022
 20
99.4194155975
 10
137.6803673409
 20
99.4624682325
 10
137.6266138154
 20
99.5069440208
 10
137.5736586135
 20
99.5528118973
 10
137.5215383929
 20
99.6000373697
 10
137.4703099538
 20
99.648567034
 10
137.4200192142
 20
99.6983555086
 10
137.3706873806
 20
99.7493819077
 10
137.3223554589
 20
99.8016067818
 10
137.2750833192
 20
99.8549684697
 10
137.2289206173
 20
99.9094130046
 10
137.183911682
 20
99.9648908998
 10
137.1401066366
 20
100.0213430534
 10
137.0975611973
 20
100.0786986893
 10
137.0563218265
 20
100.136895837
 10
137.0164271069
 20
100.1958804739
 10
136.9779179783
 20
100.2555917621
 10
136.9408348405
 20
100.3159679198
 10
136.905214068
 20
100.3769503354
 10
136.8710886678
 20
100.4384820453
 10
136.8384933486
 20
100.5005025364
 10
136.8074621316
 20
100.5629488718
 10
136.7780251961
 20
100.625759893
 10
136.7502128626
 20
100.6888737953
 10
136.72405444
 20
100.752226621
 10
136.69957628
 20
100.815753552
 10
136.6768040514
 20
100.8793913695
 10
136.6557616584
 20
100.9430762496
 10
136.6364701318
 20
101.0067422926
 10
136.618949821
 20
101.0703264662
 10
136.6032193894
 20
101.1337646762
 10
136.5892943888
 20
101.1969895833
 10
136.5771897592
 20
101.2599379401
 10
136.5669183239
 20
101.3225470538
 10
136.558489352
 20
101.3847509114
 10
136.5519120726
 20
101.4464875786
 10
136.5471936545
 20
101.5076954746
 10
136.5443371683
 20
101.5683099378
 10
136.5433460839
 20
101.6282675214
 10
136.5442216047
 20
101.6875118779
 10
136.5469611808
 20
101.7459897736
 10
136.5515631569
 20
101.8036404032
 10
136.5580241589
 20
101.8604087104
 10
136.5663384703
 20
101.9162502795
 10
136.5765018004
 20
101.971114874
 10
136.5885056951
 20
102.024940255
 10
136.6023364074
 20
102.0776648931
 10
136.6179844216
 20
102.1292419731
 10
136.6354344567
 20
102.1796122822
 10
136.654658395
 20
102.2286993506
 10
136.6756342836
 20
102.2764501615
 10
136.6983425877
 20
102.3228232683
 10
136.7227529093
 20
102.3677640092
 10
136.7488366738
 20
102.4112246067
 10
136.7765691907
 20
102.4531685771
 10
136.8059235347
 20
102.4935603372
 10
136.8368700136
 20
102.532360653
 10
136.8693775029
 20
102.5695321325
 10
136.9034163396
 20
102.6050426439
 10
136.9389539926
 20
102.6388578903
 10
136.9796780577
 20
102.6740100404
  0
LWPOLYLINE
  5
32B
100
AcDbEntity
  8
ASSI
100
AcDbPolyline
 62
7
  6
CONTINUOUS
 90
65
 70
0
 10
138.5642760485
 20
99.2204247314
 10
138.5038645314
 20
99.2456829656
 10
138.4436463258
 20
99.2728262853
 10
138.3836214315
 20
99.3018546906
 10
138.3237260321
 20
99.3328032777
 10
138.2640239441
 20
99.3656369504
 10
138.2047066173
 20
99.4002504192
 10
138.1457752867
 20
99.4366493975
 10
138.0872287173
 20
99.4748281719
 10
138.0292546532
 20
99.5146643125
 10
137.9718549324
 20
99.5561631399
 10
137.915027717
 20
99.5993193336
 10
137.8589552376
 20
99.6439945024
 10
137.8036399173
 20
99.6901935224
 10
137.749079333
 20
99.7379115176
 10
137.6954484471
 20
99.7869954682
 10
137.6427502439
 20
99.8374497591
 10
137.5909817391
 20
99.8892700055
 10
137.5403089412
 20
99.9422900326
 10
137.4907353678
 20
99.996513692
 10
137.4422575014
 20
100.0519371322
 10
137.3950307984
 20
100.108382624
 10
137.3490592753
 20
100.1658534483
 10
137.3043389156
 20
100.2243463243
 10
137.2610131265
 20
100.2836736799
 10
137.2190863846
 20
100.3438381938
 10
137.1785542133
 20
100.4048371872
 10
137.139546589
 20
100.4664750517
 10
137.1020684058
 20
100.5287538379
 10
137.0661147697
 20
100.5916714952
 10
137.031800975
 20
100.6550262621
 10
136.9991322859
 20
100.718819542
 10
136.9681034382
 20
100.7830499316
 10
136.9388139337
 20
100.8475114601
 10
136.911269356
 20
100.9122048694
 10
136.8854641215
 20
100.9771294176
 10
136.8614809811
 20
101.0420769079
 10
136.8393257841
 20
101.1070474138
 10
136.8189926813
 20
101.1720408617
 10
136.8005468759
 20
101.2368488338
 10
136.7839944263
 20
101.3014707348
 10
136.7693292741
 20
101.36590716
 10
136.7565984467
 20
101.4299514778
 10
136.7458081537
 20
101.4936024296
 10
136.7369521855
 20
101.5568612741
 10
136.7300589411
 20
101.6195251559
 10
136.725134721
 20
101.681592165
 10
136.7221732247
 20
101.7430642115
 10
136.7211839488
 20
101.8037441698
 10
136.7221732247
 20
101.8636294971
 10
136.725134721
 20
101.9227227362
 10
136.7300589411
 20
101.9808343898
 10
136.7369521855
 20
102.0379613068
 10
136.7458081537
 20
102.0941066384
 10
136.7565984467
 20
102.1490903403
 10
136.7693292741
 20
102.2029086836
 10
136.7839944263
 20
102.2555653973
 10
136.8005468759
 20
102.3068916244
 10
136.8189926813
 20
102.3568830939
 10
136.8393257841
 20
102.4055440768
 10
136.8614809811
 20
102.4527185296
 10
136.8854641215
 20
102.4984016801
 10
136.911269356
 20
102.5425983004
 10
136.9388139337
 20
102.585166663
 10
136.9681034382
 20
102.6261015408
  0
LWPOLYLINE
  5
32C
100
AcDbEntity
  8
RACCORDO
100
AcDbPolyline
 62
253
  6
CONTINUOUS
 90
43
 70
0
 10
147.6834114759
 20
72.9419136228
 10
147.6846291558
 20
72.914069426
 10
147.6865657955
 20
72.8869370306
 10
147.6892213951
 20
72.8605164365
 10
147.69260101
 20
72.8347756896
 10
147.6966995847
 20
72.8097467441
 10
147.7015019528
 20
72.7855254627
 10
147.707010758
 20
72.7621156865
 10
147.7132233566
 20
72.7395135745
 10
147.7201166514
 20
72.7178034661
 10
147.727693116
 20
72.6969889365
 10
147.7359502767
 20
72.6770664105
 10
147.7448576165
 20
72.6581095018
 10
147.7544175432
 20
72.6401217344
 10
147.764627649
 20
72.6230995844
 10
147.7754501925
 20
72.6071060932
 10
147.7868874971
 20
72.5921450209
 10
147.7989372396
 20
72.5782126073
 10
147.8115547091
 20
72.5653606134
 10
147.824741976
 20
72.5535931006
 10
147.8384969699
 20
72.5429060074
 10
147.8527687693
 20
72.5333389107
 10
147.8675592838
 20
72.5248959565
 10
147.8828666037
 20
72.5175729988
 10
147.8986340785
 20
72.5113971764
 10
147.9148634712
 20
72.5063727362
 10
147.9315530187
 20
72.5024954313
 10
147.9486407809
 20
72.4997796602
 10
147.9661281798
 20
72.4982297499
 10
147.9840137934
 20
72.4978413734
 10
148.0022314156
 20
72.4986159487
 10
148.0207822364
 20
72.5005577545
 10
148.0396650658
 20
72.503662512
 10
148.0588101281
 20
72.5079188031
 10
148.0782186215
 20
72.5133310073
 10
148.0978893478
 20
72.5198947451
 10
148.1177489365
 20
72.5275854595
 10
148.1377990011
 20
72.536408059
 10
148.1580379281
 20
72.5463576351
 10
148.1783875066
 20
72.5573949057
 10
148.1988216663
 20
72.5695067769
 10
148.2193664775
 20
72.5827063426
 10
148.2400219401
 20
72.5969936028
  0
LWPOLYLINE
  5
32D
100
AcDbEntity
  8
RACCORDO
100
AcDbPolyline
 62
7
  6
CONTINUOUS
 90
23
 70
0
 10
147.4636333554
 20
121.029835381
 10
147.4631684113
 20
121.0623321994
 10
147.4617901596
 20
121.093929993
 10
147.4594986001
 20
121.1246287618
 10
147.4562860556
 20
121.1544802361
 10
147.4521602035
 20
121.1834326856
 10
147.4471440751
 20
121.2113309194
 10
147.4412367119
 20
121.2381568025
 10
147.4344390724
 20
121.2639284697
 10
147.4267770641
 20
121.2885451354
 10
147.4182405355
 20
121.3120172595
 10
147.4088396381
 20
121.3343343819
 10
147.3986307335
 20
121.3553643365
 10
147.3876190915
 20
121.3750844486
 10
147.3757994423
 20
121.3935173929
 10
147.3632123385
 20
121.4105990266
 10
147.3498417621
 20
121.4263378949
 10
147.335703731
 20
121.4407254526
 10
147.3208868512
 20
121.4536719208
 10
147.3054029052
 20
121.465158407
 10
147.2892401104
 20
121.4752038038
 10
147.2724517253
 20
121.4837750105
 10
147.2627611176
 20
121.4879338753
  0
LINE
  5
32E
100
AcDbEntity
  8
RACCORDO
100
AcDbLine
 62
253
  6
CONTINUOUS
 10
146.2304754497
 20
113.9703485509
 11
146.2304754497
 21
114.9924456213
  0
LINE
  5
32F
100
AcDbEntity
  8
RACCORDO
100
AcDbLine
 62
253
  6
CONTINUOUS
 10
146.9251643019
 20
114.0607528982
 11
146.9251643019
 21
115.2267589011
  0
LINE
  5
330
100
AcDbEntity
  8
RACCORDO
100
AcDbLine
 62
253
  6
CONTINUOUS
 10
147.0038154239
 20
116.7316836747
 11
147.0038154239
 21
116.2451499735
  0
LINE
  5
331
100
AcDbEntity
  8
DRAFT
100
AcDbLine
 62
7
  6
CONTINUOUS
 10
147.2160176833
 20
115.4644829112
 11
147.2160176833
 21
114.3176700491
  0
LINE
  5
332
100
AcDbEntity
  8
RACCORDO
100
AcDbLine
 62
253
  6
CONTINUOUS
 10
147.4122915809
 20
116.877996382
 11
147.4122915809
 21
116.5175047944
  0
LINE
  5
333
100
AcDbEntity
  8
RACCORDO
100
AcDbLine
 62
7
  6
CONTINUOUS
 10
147.4636333554
 20
121.029835381
 11
147.4636333554
 21
120.7736920712
  0
LWPOLYLINE
  5
334
100
AcDbEntity
  8
RACCORDO
100
AcDbPolyline
 62
253
  6
CONTINUOUS
 90
22
 70
0
 10
146.99235738
 20
106.5464912348
 10
146.9472539048
 20
104.9074919888
 10
146.9066588298
 20
103.2718181427
 10
146.8705727629
 20
101.6394948083
 10
146.8389962343
 20
100.0105470528
 10
146.8119297267
 20
98.3849998756
 10
146.7893736753
 20
96.762878208
 10
146.771328423
 20
95.144206947
 10
146.7577942347
 20
93.5290109439
 10
146.7487713284
 20
91.9173149815
 10
146.7442598439
 20
90.3091437995
 10
146.7442598439
 20
88.7045220813
 10
146.7487713284
 20
87.1034744425
 10
146.7577942347
 20
85.5060254518
 10
146.771328423
 20
83.9121996318
 10
146.7893736753
 20
82.3220214454
 10
146.8119297267
 20
80.7355152974
 10
146.8389962343
 20
79.1527055355
 10
146.8705727629
 20
77.5736164518
 10
146.9066588298
 20
75.9982722795
 10
146.9472539048
 20
74.4266971926
 10
146.99235738
 20
72.858915307
  0
LWPOLYLINE
  5
335
100
AcDbEntity
  8
RACCORDO
100
AcDbPolyline
 62
253
  6
CONTINUOUS
 90
22
 70
0
 10
147.6834114759
 20
106.5958019747
 10
147.6383511186
 20
104.958400898
 10
147.5977958613
 20
103.324371799
 10
147.5617457038
 20
101.6937146775
 10
147.5302002301
 20
100.066404566
 10
147.5031598563
 20
98.442466432
 10
147.4806258308
 20
96.8219751789
 10
147.4625983624
 20
95.2049310096
 10
147.4490772424
 20
93.5913337212
 10
147.440063093
 20
91.9812576074
 10
147.4355561218
 20
90.3747028333
 10
147.4355561213
 20
88.7716692339
 10
147.4400630915
 20
87.172230608
 10
147.4490772398
 20
85.5763871183
 10
147.4625983588
 20
83.984138602
 10
147.4806258262
 20
82.3955583707
 10
147.5031598503
 20
80.8106465637
 10
147.5302002227
 20
79.2294030417
 10
147.5617456962
 20
77.6519006973
 10
147.597795855
 20
76.0781638281
 10
147.6383511149
 20
74.5081681366
 10
147.6834114759
 20
72.9419136228
  0
LWPOLYLINE
  5
336
100
AcDbEntity
  8
RACCORDO
100
AcDbPolyline
 62
253
  6
CONTINUOUS
 90
25
 70
0
 10
151.0336070223
 20
112.3910868101
 10
151.0295521504
 20
112.3788798523
 10
151.0249514059
 20
112.3669326921
 10
151.0198173525
 20
112.3552779548
 10
151.0141640101
 20
112.3439474669
 10
151.008006817
 20
112.3329721696
 10
151.001362587
 20
112.3223820342
 10
150.9942494641
 20
112.3122059801
 10
150.986686873
 20
112.3024717961
 10
150.9786954653
 20
112.293206064
 10
150.9702970639
 20
112.2844340868
 10
150.9615146032
 20
112.2761798187
 10
150.9523720662
 20
112.2684658006
 10
150.9428944192
 20
112.2613130978
 10
150.9331075437
 20
112.2547412427
 10
150.9230381656
 20
112.2487681818
 10
150.9127137823
 20
112.2434102263
 10
150.9021625875
 20
112.2386820076
 10
150.8914133944
 20
112.2345964374
 10
150.8804955566
 20
112.2311646727
 10
150.8694388886
 20
112.2283960848
 10
150.8582735838
 20
112.2262982342
 10
150.8470301323
 20
112.2248768496
 10
150.8357392376
 20
112.2241358126
 10
150.8274931231
 20
112.2240256226
  0
LINE
  5
337
100
AcDbEntity
  8
RACCORDO
100
AcDbLine
 62
7
  6
CONTINUOUS
 10
139.7621407668
 20
91.3542857607
 11
139.761863007
 21
91.3540583159
  0
LWPOLYLINE
  5
338
100
AcDbEntity
  8
RACCORDO
100
AcDbPolyline
 62
253
  6
CONTINUOUS
 90
29
 70
0
 10
139.761863007
 20
91.3540583159
 10
139.7288157043
 20
91.3281391064
 10
139.6898911953
 20
91.300318049
 10
139.6496012512
 20
91.2743061815
 10
139.6079836608
 20
91.250128195
 10
139.5650756152
 20
91.2278067622
 10
139.5209245357
 20
91.2073675974
 10
139.4755864361
 20
91.1888357152
 10
139.4291113088
 20
91.1722298619
 10
139.3815435462
 20
91.1575642797
 10
139.3329336548
 20
91.1448523005
 10
139.2833423822
 20
91.1341073363
 10
139.2328100971
 20
91.1253357542
 10
139.1813567025
 20
91.1185404458
 10
139.1290286818
 20
91.113729877
 10
139.0758824433
 20
91.1109115856
 10
139.0219518093
 20
91.110089565
 10
138.9672683816
 20
91.1112694218
 10
138.911907199
 20
91.1144547151
 10
138.8559693669
 20
91.1196402773
 10
138.7995066185
 20
91.1268204512
 10
138.7425815896
 20
91.1359866037
 10
138.6853154244
 20
91.1471144185
 10
138.6277672784
 20
91.1601849301
 10
138.5699964926
 20
91.1751774815
 10
138.5121266716
 20
91.1920493098
 10
138.4542386893
 20
91.2107622577
 10
138.3963696598
 20
91.2312900381
 10
138.3385774182
 20
91.2535988162
  0
LWPOLYLINE
  5
339
100
AcDbEntity
  8
RACCORDO
100
AcDbPolyline
 62
7
  6
CONTINUOUS
 90
6
 70
0
 10
137.8895743976
 20
95.0109482036
 10
137.8794554412
 20
95.0097101719
 10
137.8540415707
 20
95.0085186696
 10
137.8293696379
 20
95.0093034713
 10
137.8058475042
 20
95.0120956544
 10
137.7838818195
 20
95.016858669
  0
LWPOLYLINE
  5
33A
100
AcDbEntity
  8
0
100
AcDbPolyline
 62
7
  6
CONTINUOUS
 90
7
 70
0
 10
139.7228242365
 20
99.2524524832
 10
139.6617700763
 20
99.2665330265
 10
139.5917625955
 20
99.2848839825
 10
139.5215544985
 20
99.3054805028
 10
139.451212087
 20
99.3283052078
 10
139.3806690594
 20
99.3533754771
 10
139.3099254158
 20
99.3806913105
  0
LWPOLYLINE
  5
33B
100
AcDbEntity
  8
RACCORDO
100
AcDbPolyline
 62
7
  6
CONTINUOUS
 90
3
 70
0
 10
140.1691334509
 20
100.2638000696
 10
140.005054996
 20
100.3165005441
 10
139.7705468339
 20
100.3804504683
  0
LWPOLYLINE
  5
33C
100
AcDbEntity
  8
0
100
AcDbPolyline
 62
7
  6
CONTINUOUS
 90
12
 70
0
 10
138.8131936509
 20
99.383368492
 10
138.8748380291
 20
99.3596194638
 10
138.936416397
 20
99.3379133542
 10
138.9978628149
 20
99.3182734068
 10
139.0591114844
 20
99.3007206524
 10
139.1200968189
 20
99.2852738869
 10
139.1807535139
 20
99.2719496513
 10
139.2410166165
 20
99.2607622134
 10
139.3008215956
 20
99.2517235529
 10
139.3601044105
 20
99.2448433488
 10
139.4188015796
 20
99.2401289684
 10
139.4320838885
 20
99.2393585111
  0
LWPOLYLINE
  5
33D
100
AcDbEntity
  8
0
100
AcDbPolyline
 62
7
  6
CONTINUOUS
 90
52
 70
0
 10
139.3099254158
 20
99.3806913105
 10
139.2391817721
 20
99.4101999614
 10
139.1686387445
 20
99.4417930327
 10
139.098296333
 20
99.4754705242
 10
139.028088236
 20
99.511268313
 10
138.9580807552
 20
99.5491505221
 10
138.8884727949
 20
99.5890095211
 10
138.8192654914
 20
99.6308509316
 10
138.7504577085
 20
99.674669132
 10
138.682244942
 20
99.7203396263
 10
138.6146288842
 20
99.7678676825
 10
138.5476078429
 20
99.8172480326
 10
138.4813722376
 20
99.8683403779
 10
138.4159243019
 20
99.921149587
 10
138.3512618022
 20
99.9756707912
 10
138.2875684568
 20
100.0317490855
 10
138.2248470219
 20
100.0893888981
 10
138.1630947413
 20
100.1485858007
 10
138.102487065
 20
100.2091716038
 10
138.0430272481
 20
100.2711502572
 10
137.9847120354
 20
100.3345178111
 10
137.9277071116
 20
100.3990942262
 10
137.8720162028
 20
100.4648829405
 10
137.8176355829
 20
100.531880516
 10
137.7647197573
 20
100.5998966
 10
137.7132728919
 20
100.668934089
 10
137.663290821
 20
100.7389900865
 10
137.6149155529
 20
100.8098655501
 10
137.5681516574
 20
100.8815628104
 10
137.5229945648
 20
100.9540795368
 10
137.4795725751
 20
101.0272096955
 10
137.4378906225
 20
101.1009550313
 10
137.3979437727
 20
101.1753137994
 10
137.3598455222
 20
101.2500747326
 10
137.3236011283
 20
101.3252389746
 10
137.2892053338
 20
101.4008053817
 10
137.2567558635
 20
101.4765592554
 10
137.2262582527
 20
101.5525011288
 10
137.1977069661
 20
101.6286304689
 10
137.1711831235
 20
101.7047309778
 10
137.1466924905
 20
101.7808025735
 10
137.1242293015
 20
101.8568453379
 10
137.1038573786
 20
101.9326432192
 10
137.085582669
 20
102.008195521
 10
137.0693992255
 20
102.0835029397
 10
137.0553530283
 20
102.1583515127
 10
137.0434501555
 20
102.232739935
 10
137.033684529
 20
102.3066695116
 10
137.0260838947
 20
102.3799301946
 10
137.0206544098
 20
102.4525200817
 10
137.0173899171
 20
102.5244410752
 10
137.0168996166
 20
102.5563929595
  0
LWPOLYLINE
  5
33E
100
AcDbEntity
  8
0
100
AcDbPolyline
 62
7
  6
CONTINUOUS
 90
22
 70
0
 10
140.113464294
 20
99.6596311459
 10
139.9910751102
 20
99.7128376635
 10
139.8118601501
 20
99.8024655647
 10
139.6349311393
 20
99.9026676202
 10
139.4603173604
 20
100.013579283
 10
139.2879895307
 20
100.1350651
 10
139.1201457519
 20
100.2655754775
 10
138.9568434637
 20
100.4052260182
 10
138.7980252263
 20
100.5539011193
 10
138.6457168217
 20
100.709704378
 10
138.5000016396
 20
100.8727271047
 10
138.3607962902
 20
101.0428779891
 10
138.2298763864
 20
101.2179866973
 10
138.1073480631
 20
101.3981167381
 10
137.9931051853
 20
101.5832046027
 10
137.8886049608
 20
101.7708894309
 10
137.7939721911
 20
101.9612044893
 10
137.7090820746
 20
102.1541165113
 10
137.6350174144
 20
102.3471648368
 10
137.5719168825
 20
102.5403512118
 10
137.5196418069
 20
102.7336738903
 10
137.4877463361
 20
102.8830459162
  0
LWPOLYLINE
  5
33F
100
AcDbEntity
  8
RACCORDO
100
AcDbPolyline
 62
253
  6
CONTINUOUS
 90
34
 70
0
 10
148.2400219401
 20
107.8195656526
 10
148.2388329738
 20
107.8386294079
 10
148.2367314214
 20
107.8580314492
 10
148.2337220381
 20
107.8777278756
 10
148.2298116331
 20
107.8976741204
 10
148.2250090544
 20
107.9178250514
 10
148.2193251686
 20
107.9381350734
 10
148.2127728367
 20
107.9585582311
 10
148.2053668844
 20
107.9790483133
 10
148.1971240691
 20
107.9995589574
 10
148.1880630416
 20
108.0200437543
 10
148.1782043042
 20
108.040456353
 10
148.1675701641
 20
108.0607505665
 10
148.156184683
 20
108.080880475
 10
148.1440736227
 20
108.100800531
 10
148.1312643867
 20
108.1204656615
 10
148.1177859582
 20
108.1398313705
 10
148.1036688348
 20
108.1588538393
 10
148.0889449591
 20
108.177490026
 10
148.0736476466
 20
108.1956977628
 10
148.0578115103
 20
108.2134358511
 10
148.0414723825
 20
108.2306641551
 10
148.0246672335
 20
108.2473436925
 10
148.0074340882
 20
108.2634367227
 10
147.9898119398
 20
108.2789068322
 10
147.9718406617
 20
108.2937190168
 10
147.9535609174
 20
108.3078397611
 10
147.9350140682
 20
108.3212371144
 10
147.91624208
 20
108.3338807624
 10
147.8972874279
 20
108.3457420966
 10
147.8781930003
 20
108.3567942784
 10
147.8590020022
 20
108.3670123001
 10
147.8397578567
 20
108.3763730416
 10
147.8205041073
 20
108.3848553223
  0
LWPOLYLINE
  5
340
100
AcDbEntity
  8
RACCORDO
100
AcDbPolyline
 62
253
  6
CONTINUOUS
 90
18
 70
0
 10
150.6862625962
 20
72.9707060075
 10
150.6864567513
 20
72.9602118242
 10
150.6870391681
 20
72.9500580085
 10
150.6880089824
 20
72.9402727563
 10
150.6893645903
 20
72.9308814651
 10
150.6911028524
 20
72.9219124822
 10
150.6932183205
 20
72.9133961263
 10
150.6957046641
 20
72.9053572474
 10
150.6985555285
 20
72.8978158524
 10
150.7017632438
 20
72.8907922852
 10
150.7053191758
 20
72.8843055872
 10
150.7092136175
 20
72.8783735883
 10
150.7134358698
 20
72.8730126222
 10
150.7179743797
 20
72.8682373309
 10
150.7228168426
 20
72.8640606365
 10
150.7279501215
 20
72.8604938735
 10
150.7333602728
 20
72.8575467497
 10
150.7364846083
 20
72.8561784467
  0
LWPOLYLINE
  5
341
100
AcDbEntity
  8
RACCORDO
100
AcDbPolyline
 62
253
  6
CONTINUOUS
 90
18
 70
0
 10
149.1513262358
 20
112.9730197293
 10
149.1515045731
 20
112.9629554842
 10
149.1520391412
 20
112.9532084421
 10
149.1529286108
 20
112.9438028476
 10
149.1541707645
 20
112.9347621267
 10
149.1557625153
 20
112.9261087338
 10
149.157699926
 20
112.9178641096
 10
149.1599782057
 20
112.9100487214
 10
149.1625916852
 20
112.9026820835
 10
149.1655338401
 20
112.8957826078
 10
149.1687973619
 20
112.8893674375
 10
149.1723741234
 20
112.8834525522
 10
149.1762551461
 20
112.8780527681
 10
149.1804306982
 20
112.8731815484
 10
149.1848904276
 20
112.8688508985
 10
149.1896233277
 20
112.8650714822
 10
149.1946186239
 20
112.8618521295
 10
149.1998463971
 20
112.8592100289
  0
LINE
  5
342
100
AcDbEntity
  8
RACCORDO
100
AcDbLine
 62
7
  6
CONTINUOUS
 10
149.0447203449
 20
113.412054256
 11
149.0447203449
 21
113.0904813069
  0
LINE
  5
343
100
AcDbEntity
  8
RACCORDO
100
AcDbLine
 62
253
  6
CONTINUOUS
 10
149.1513262358
 20
113.2945926785
 11
149.1513262358
 21
112.9730197293
  0
LINE
  5
344
100
AcDbEntity
  8
RACCORDO
100
AcDbLine
 62
7
  6
CONTINUOUS
 10
149.6135310941
 20
112.3192996662
 11
149.6135310941
 21
112.6930305695
  0
LINE
  5
345
100
AcDbEntity
  8
RACCORDO
100
AcDbLine
 62
253
  6
CONTINUOUS
 10
149.720136985
 20
112.1972530669
 11
149.720136985
 21
112.6502152404
  0
LWPOLYLINE
  5
346
100
AcDbEntity
  8
RACCORDO
100
AcDbPolyline
 62
253
  6
CONTINUOUS
 90
31
 70
0
 10
149.1513262358
 20
113.2945926785
 10
149.1515203909
 20
113.3054049468
 10
149.1521028077
 20
113.3165129383
 10
149.153072622
 20
113.3278870413
 10
149.1544282299
 20
113.3394992304
 10
149.156166492
 20
113.3513160153
 10
149.1582819601
 20
113.3632981511
 10
149.1607683037
 20
113.375410417
 10
149.1636191681
 20
113.3876223947
 10
149.1668268834
 20
113.3999011751
 10
149.1703828154
 20
113.4122135709
 10
149.1742772571
 20
113.4245258496
 10
149.1784995094
 20
113.4368041489
 10
149.1830380193
 20
113.4490148997
 10
149.1878804822
 20
113.4611250207
 10
149.1930137611
 20
113.4731016555
 10
149.1984239124
 20
113.4849122524
 10
149.2040961952
 20
113.4965246129
 10
149.2100151526
 20
113.507907085
 10
149.2161646689
 20
113.5190286739
 10
149.222528014
 20
113.5298591195
 10
149.2290878665
 20
113.540368937
 10
149.2358263737
 20
113.5505295202
 10
149.242725194
 20
113.5603132098
 10
149.2497655441
 20
113.5696933654
 10
149.2569282664
 20
113.5786444606
 10
149.2641938603
 20
113.5871421238
 10
149.2715425274
 20
113.5951632005
 10
149.2789542575
 20
113.6026858542
 10
149.2864088841
 20
113.6096896211
 10
149.2938861165
 20
113.6161554416
  0
LWPOLYLINE
  5
347
100
AcDbEntity
  8
RACCORDO
100
AcDbPolyline
 62
7
  6
CONTINUOUS
 90
17
 70
0
 10
149.0447203449
 20
113.412054256
 10
149.0450672043
 20
113.4252188478
 10
149.0461219299
 20
113.4384895764
 10
149.047903004
 20
113.4518185646
 10
149.050430189
 20
113.4651797635
 10
149.053710758
 20
113.4784950488
 10
149.0577273132
 20
113.4916425902
 10
149.0624660597
 20
113.5045634279
 10
149.0679182204
 20
113.5172245762
 10
149.0740555959
 20
113.5295577391
 10
149.0808550353
 20
113.5415209669
 10
149.0882974283
 20
113.5530846763
 10
149.0963576169
 20
113.5642128185
 10
149.1050275649
 20
113.5748935911
 10
149.1142753989
 20
113.5850849512
 10
149.1240400267
 20
113.5947239825
 10
149.1341826962
 20
113.6036988834
  0
LWPOLYLINE
  5
348
100
AcDbEntity
  8
RACCORDO
100
AcDbPolyline
 62
253
  6
CONTINUOUS
 90
17
 70
0
 10
148.2400219401
 20
72.5969936028
 10
148.2388329735
 20
72.5771565551
 10
148.2367314204
 20
72.5577458136
 10
148.233722036
 20
72.5388052987
 10
148.2298116297
 20
72.5203778669
 10
148.2250090494
 20
72.5025052138
 10
148.219325162
 20
72.4852277796
 10
148.2127728282
 20
72.4685846578
 10
148.2053668739
 20
72.4526135065
 10
148.1971240566
 20
72.4373504635
 10
148.1880630272
 20
72.4228300643
 10
148.1782042879
 20
72.4090851641
 10
148.1675701459
 20
72.3961468633
 10
148.1561846632
 20
72.3840444371
 10
148.1440736014
 20
72.3728052697
 10
148.131264364
 20
72.3624547918
 10
148.126710589
 20
72.3591102654
  0
LINE
  5
349
100
AcDbEntity
  8
DRAFT
100
AcDbLine
 62
7
  6
CONTINUOUS
 10
165.0915118858
 20
112.6925271724
 11
166.1089214237
 21
113.7487865224
  0
LINE
  5
34A
100
AcDbEntity
  8
RACCORDO
100
AcDbLine
 62
7
  6
CONTINUOUS
 10
136.944419237
 20
87.0812388501
 11
136.9447246398
 21
87.0814891247
  0
LINE
  5
34B
100
AcDbEntity
  8
0
100
AcDbLine
 62
253
  6
CONTINUOUS
 10
137.1883726226
 20
87.1725538855
 11
137.2832468672
 21
87.2502703169
  0
LWPOLYLINE
  5
34C
100
AcDbEntity
  8
RACCORDO
100
AcDbPolyline
 62
7
  6
CONTINUOUS
 90
30
 70
0
 10
136.944425287
 20
87.0812432731
 10
136.9699615545
 20
87.1013472337
 10
137.0047292758
 20
87.1262245705
 10
137.0405261637
 20
87.149149945
 10
137.0773312548
 20
87.1701827281
 10
137.1152041366
 20
87.1894090057
 10
137.1541073654
 20
87.2068503956
 10
137.193981878
 20
87.2225176056
 10
137.2348653779
 20
87.23645385
 10
137.2767146761
 20
87.2486670901
 10
137.3194713209
 20
87.2591610571
 10
137.3631546176
 20
87.2679558378
 10
137.407715914
 20
87.2750541094
 10
137.4530939175
 20
87.2804577048
 10
137.4992927085
 20
87.284175071
 10
137.5462582277
 20
87.286208652
 10
137.5939284712
 20
87.2865623642
 10
137.6423002678
 20
87.2852397185
 10
137.6913143106
 20
87.2822454282
 10
137.7409119792
 20
87.2775865527
 10
137.7910971619
 20
87.2712627345
 10
137.8418106538
 20
87.263280579
 10
137.8929942946
 20
87.2536494776
 10
137.9446600257
 20
87.2423636964
 10
137.9967513563
 20
87.2294300005
 10
138.0492130477
 20
87.214858002
 10
138.1020653868
 20
87.198634273
 10
138.1552783181
 20
87.1807565274
 10
138.2087647107
 20
87.1612449449
 10
138.2507607553
 20
87.1448500698
  0
LWPOLYLINE
  5
34D
100
AcDbEntity
  8
0
100
AcDbPolyline
 62
7
  6
CONTINUOUS
 90
25
 70
0
 10
139.8630302713
 20
91.4523374053
 10
139.8242131813
 20
91.4303635893
 10
139.7794928217
 20
91.4077921225
 10
139.7335212986
 20
91.3872476983
 10
139.6862945956
 20
91.3687368237
 10
139.6378167292
 20
91.3522529917
 10
139.5882431558
 20
91.3378490617
 10
139.5375703579
 20
91.3255317106
 10
139.4858018531
 20
91.3152942615
 10
139.4331036499
 20
91.3071695435
 10
139.379472764
 20
91.3011643386
 10
139.3249121797
 20
91.2972718648
 10
139.2695968594
 20
91.2955046042
 10
139.21352438
 20
91.295869379
 10
139.1566971646
 20
91.2983593671
 10
139.0992974438
 20
91.3029665835
 10
139.0413233797
 20
91.3096978251
 10
138.9827768103
 20
91.3185462951
 10
138.9238454797
 20
91.3294836186
 10
138.8645281529
 20
91.3425165014
 10
138.8048260649
 20
91.3576382377
 10
138.7449306655
 20
91.3748003359
 10
138.6849057712
 20
91.3939866322
 10
138.6246875656
 20
91.4152132905
 10
138.5642760485
 20
91.4384803106
  0
LWPOLYLINE
  5
34E
100
AcDbEntity
  8
RACCORDO
100
AcDbPolyline
 62
7
  6
CONTINUOUS
 90
5
 70
0
 10
165.7663653844
 20
102.9163285338
 10
165.7000551002
 20
102.9021980171
 10
165.6337974776
 20
102.8813639859
 10
165.5676139777
 20
102.8539136064
 10
165.5307300571
 20
102.8357357605
  0
LWPOLYLINE
  5
34F
100
AcDbEntity
  8
0
100
AcDbPolyline
 62
7
  6
CONTINUOUS
 90
11
 70
0
 10
139.4320838885
 20
99.2393585111
 10
139.4768502486
 20
99.2375854601
 10
139.5341882575
 20
99.2372155476
 10
139.5907542073
 20
99.2390196269
 10
139.6464875258
 20
99.2429957662
 10
139.7013285323
 20
99.2491397078
 10
139.7552185018
 20
99.2574448725
 10
139.8080997274
 20
99.267902367
 10
139.8599155827
 20
99.2805009931
 10
139.910610582
 20
99.2952272599
 10
139.9313519296
 20
99.3022798989
  0
LWPOLYLINE
  5
350
100
AcDbEntity
  8
RACCORDO
100
AcDbPolyline
 62
7
  6
CONTINUOUS
 90
31
 70
0
 10
139.7705468339
 20
100.3804504683
 10
139.7362595296
 20
100.3892288495
 10
139.7018795419
 20
100.3987895293
 10
139.6674068707
 20
100.4091325079
 10
139.632847401
 20
100.4202029447
 10
139.5981952479
 20
100.4320556802
 10
139.563432757
 20
100.4448552357
 10
139.5284330611
 20
100.4586276672
 10
139.4933230275
 20
100.4733469187
 10
139.4584656033
 20
100.4890993428
 10
139.4237363475
 20
100.5059573067
 10
139.3892597011
 20
100.5238484432
 10
139.3557719333
 20
100.5426420041
 10
139.3233580895
 20
100.5623183946
 10
139.2919331243
 20
100.5828972095
 10
139.261978171
 20
100.6043064839
 10
139.2334782138
 20
100.6265903746
 10
139.2064482685
 20
100.6497047248
 10
139.1814145155
 20
100.6734451001
 10
139.1583914489
 20
100.6979125055
 10
139.1373645746
 20
100.7230059359
 10
139.1188165907
 20
100.7482179413
 10
139.1029089525
 20
100.7734397341
 10
139.0894802048
 20
100.798780102
 10
139.0785286799
 20
100.8240579579
 10
139.0700483723
 20
100.8491966993
 10
139.0640452875
 20
100.8742729289
 10
139.0605357753
 20
100.8993353667
 10
139.0595252856
 20
100.924400253
 10
139.0610083685
 20
100.9494513476
 10
139.0649850239
 20
100.9744886506
  0
LWPOLYLINE
  5
351
100
AcDbEntity
  8
RACCORDO
100
AcDbPolyline
 62
7
  6
CONTINUOUS
 90
72
 70
0
 10
138.3063871542
 20
102.7543021522
 10
138.3514031559
 20
102.7356616643
 10
138.4092649051
 20
102.7100567986
 10
138.4672055359
 20
102.6825597847
 10
138.5251504707
 20
102.6531918715
 10
138.5830294316
 20
102.6219774845
 10
138.6407730283
 20
102.5889431869
 10
138.6983140823
 20
102.5541162703
 10
138.7555840009
 20
102.5175290754
 10
138.8125130602
 20
102.4792169553
 10
138.8690339668
 20
102.4392155112
 10
138.9250793513
 20
102.3975650292
 10
138.9805812171
 20
102.3543090612
 10
139.0354739656
 20
102.3094912068
 10
139.0896941109
 20
102.2631578136
 10
139.1431785348
 20
102.2153577048
 10
139.1958647594
 20
102.1661408071
 10
139.2476922839
 20
102.1155597205
 10
139.2986025266
 20
102.0636682782
 10
139.3485376086
 20
102.0105211068
 10
139.3974398748
 20
101.9561771118
 10
139.4452527279
 20
101.9006977759
 10
139.4919232693
 20
101.8441420476
 10
139.5373977284
 20
101.7865745245
 10
139.581620445
 20
101.7280669247
 10
139.6245421422
 20
101.6686851458
 10
139.6661164868
 20
101.608495856
 10
139.7062950294
 20
101.5475738706
 10
139.7450334684
 20
101.4859905818
 10
139.7822927924
 20
101.4238141328
 10
139.8180351101
 20
101.3611160591
 10
139.8522234305
 20
101.2979686191
 10
139.8848238364
 20
101.2344438244
 10
139.9158054803
 20
101.1706142077
 10
139.9451380703
 20
101.1065537623
 10
139.9727943076
 20
101.0423359051
 10
139.99875051
 20
100.9780336482
 10
140.0229834852
 20
100.9137219677
 10
140.0454729927
 20
100.8494747865
 10
140.0662027919
 20
100.7853648302
 10
140.0851550389
 20
100.7214748975
 10
140.1023195485
 20
100.6578707766
 10
140.1176930638
 20
100.5946011428
 10
140.1312646821
 20
100.5317468139
 10
140.1430290555
 20
100.4693743178
 10
140.1529896513
 20
100.4075133091
 10
140.1611416534
 20
100.3462373138
 10
140.1674825614
 20
100.2856193369
 10
140.1720168064
 20
100.2256917004
 10
140.1747447419
 20
100.1665313721
 10
140.1756695437
 20
100.1082063148
 10
140.1747972925
 20
100.0507396443
 10
140.1721337859
 20
99.9942106166
 10
140.1676867064
 20
99.9386827242
 10
140.1614603219
 20
99.8841613346
 10
140.1534636917
 20
99.8307197749
 10
140.1437076566
 20
99.778425652
 10
140.132192801
 20
99.7272826785
 10
140.1189315497
 20
99.6773631844
 10
140.1039370019
 20
99.628731126
 10
140.0872029629
 20
99.5813843246
 10
140.0687428803
 20
99.5353913167
 10
140.048569887
 20
99.490812006
 10
140.0266659936
 20
99.4476376634
 10
140.0030444462
 20
99.4059366297
 10
139.9777116518
 20
99.3657585426
 10
139.9506205703
 20
99.3270761171
 10
139.9217771038
 20
99.2899583515
 10
139.8911734982
 20
99.2544509772
 10
139.8587124783
 20
99.2205122586
 10
139.8243412564
 20
99.1881804486
 10
139.7960547965
 20
99.1640115226
  0
LWPOLYLINE
  5
352
100
AcDbEntity
  8
RACCORDO
100
AcDbPolyline
 62
253
  6
CONTINUOUS
 90
100
 70
0
 10
138.246169433
 20
102.8977028845
 10
138.3116929633
 20
102.8703589043
 10
138.3771543184
 20
102.8409136401
 10
138.4425535314
 20
102.8093671177
 10
138.5079841006
 20
102.7756808582
 10
138.5733526607
 20
102.7398934449
 10
138.638378982
 20
102.7021205234
 10
138.7030597817
 20
102.662347482
 10
138.7673986096
 20
102.6205891418
 10
138.8311255139
 20
102.5770053212
 10
138.8942312704
 20
102.5315869308
 10
138.9567254926
 20
102.4843433656
 10
139.018366504
 20
102.4354621848
 10
139.0791262167
 20
102.3849570131
 10
139.1390332088
 20
102.3328146109
 10
139.19793081
 20
102.279182247
 10
139.2558122458
 20
102.2240640412
 10
139.3126848689
 20
102.1674563282
 10
139.3684132023
 20
102.1094947005
 10
139.4230082508
 20
102.0501631633
 10
139.4764596644
 20
101.9894782267
 10
139.528599922
 20
101.9276242316
 10
139.5794289655
 20
101.8645913993
 10
139.6289475545
 20
101.8003900609
 10
139.6769893611
 20
101.7352346964
 10
139.7235445479
 20
101.6691284424
 10
139.7686236666
 20
101.6020687254
 10
139.812090923
 20
101.5342614206
 10
139.8539398886
 20
101.4657080983
 10
139.8941776978
 20
101.3964077455
 10
139.9326888381
 20
101.3265623132
 10
139.9694685658
 20
101.2561723835
 10
140.0045223012
 20
101.1852379093
 10
140.0377497028
 20
101.1139598391
 10
140.0691470162
 20
101.04233734
 10
140.0987186231
 20
100.9703717417
 10
140.1263762987
 20
100.8982671698
 10
140.1521175781
 20
100.8260156816
 10
140.1759454847
 20
100.753625663
 10
140.1977799224
 20
100.6813256498
 10
140.217615054
 20
100.6091079809
 10
140.2354571736
 20
100.5369806812
 10
140.251244252
 20
100.4651957127
 10
140.2649660556
 20
100.3937635522
 10
140.2766331366
 20
100.3226739779
 10
140.2862145043
 20
100.2521477938
 10
140.2937035758
 20
100.1821951052
 10
140.2991071199
 20
100.1128059572
 10
140.3024140446
 20
100.0441709608
 10
140.3036197758
 20
99.9762891094
 10
140.3027289529
 20
99.9091614647
 10
140.2997441761
 20
99.8429816394
 10
140.2946592862
 20
99.7777486236
 10
140.2874803778
 20
99.7134633795
 10
140.2782282988
 20
99.6503223715
 10
140.2668964076
 20
99.5883290583
 10
140.2534911449
 20
99.5274798253
 10
140.2380528474
 20
99.4679604207
 10
140.2205748688
 20
99.4097747459
 10
140.2010635264
 20
99.3529186415
 10
140.1795784738
 20
99.2975656626
 10
140.1561134524
 20
99.2437207162
 10
140.1306742753
 20
99.1913785443
 10
140.1033385842
 20
99.1406973598
 10
140.0741003123
 20
99.0916821543
 10
140.0429649817
 20
99.0443275059
 10
140.010027511
 20
98.9987759218
 10
139.9752826667
 20
98.9550331557
 10
139.9387350585
 20
98.9130929598
 10
139.9004942769
 20
98.873079765
 10
139.8605558322
 20
98.8349993252
 10
139.8189235353
 20
98.7988453477
 10
139.7757193505
 20
98.7647241323
 10
139.7309369584
 20
98.7326402377
 10
139.6845819701
 20
98.7025885423
 10
139.6367941834
 20
98.6746607743
 10
139.5875643731
 20
98.648862107
 10
139.536901049
 20
98.625186798
 10
139.4849705622
 20
98.6037101625
 10
139.431771893
 20
98.5844413099
 10
139.3773053604
 20
98.5673705727
 10
139.3217392905
 20
98.5525450754
 10
139.2650827004
 20
98.5399716943
 10
139.207325919
 20
98.5296430315
 10
139.1486092283
 20
98.5215847903
 10
139.0889257719
 20
98.5157989076
 10
139.0282818278
 20
98.5122829851
 10
138.9668373804
 20
98.5110562237
 10
138.9045649801
 20
98.512127668
 10
138.8414915861
 20
98.5154878819
 10
138.7778588034
 20
98.5211283518
 10
138.7136570817
 20
98.5290652232
 10
138.648895582
 20
98.5392820395
 10
138.5838439944
 20
98.5517213976
 10
138.518498179
 20
98.566400514
 10
138.4528620088
 20
98.5833019588
 10
138.3872172221
 20
98.6023163824
 10
138.3216576874
 20
98.6234072994
 10
138.2560894033
 20
98.6466110888
 10
138.1905123366
 20
98.6719277242
  0
LWPOLYLINE
  5
353
100
AcDbEntity
  8
RACCORDO
100
AcDbPolyline
 62
253
  6
CONTINUOUS
 90
11
 70
0
 10
137.2811796819
 20
120.0170310956
 10
137.2846131926
 20
120.0109579919
 10
137.2874757893
 20
120.0051242184
 10
137.2897596541
 20
119.9995457071
 10
137.291458549
 20
119.9942376966
 10
137.2925678362
 20
119.9892146785
 10
137.293084487
 20
119.9844903592
 10
137.2930070854
 20
119.9800776348
 10
137.2923358368
 20
119.9759885681
 10
137.2910725753
 20
119.9722343407
 10
137.2897353543
 20
119.9696391571
  0
LWPOLYLINE
  5
354
100
AcDbEntity
  8
RACCORDO
100
AcDbPolyline
 62
253
  6
CONTINUOUS
 90
31
 70
0
 10
151.0336070223
 20
112.7126597593
 10
151.0332835071
 20
112.723455154
 10
151.032401889
 20
112.7344482546
 10
151.0309645844
 20
112.7456089311
 10
151.0289755326
 20
112.7569065942
 10
151.0264401853
 20
112.768310279
 10
151.0233654915
 20
112.7797887303
 10
151.0197598782
 20
112.7913104877
 10
151.0156332277
 20
112.8028439723
 10
151.0109968505
 20
112.814357573
 10
151.005863454
 20
112.8258197331
 10
151.0002471078
 20
112.837199037
 10
150.9941632054
 20
112.8484642962
 10
150.9876284215
 20
112.8595846347
 10
150.9806606667
 20
112.8705295737
 10
150.9732790384
 20
112.8812691152
 10
150.9655037683
 20
112.8917738242
 10
150.9573561668
 20
112.9020149092
 10
150.9488585651
 20
112.9119643014
 10
150.9400342534
 20
112.9215947312
 10
150.9309074176
 20
112.9308798036
 10
150.9215030726
 20
112.9397940698
 10
150.9118469939
 20
112.9483130975
 10
150.901965647
 20
112.9564135377
 10
150.8918861149
 20
112.9640731886
 10
150.8816360237
 20
112.9712710565
 10
150.8712434669
 20
112.9779874134
 10
150.8607369286
 20
112.9842038511
 10
150.8501452052
 20
112.9899033314
 10
150.8394973267
 20
112.9950702332
 10
150.8288224769
 20
112.9996903949
  0
LWPOLYLINE
  5
355
100
AcDbEntity
  8
RACCORDO
100
AcDbPolyline
 62
7
  6
CONTINUOUS
 90
23
 70
0
 10
152.8075345452
 20
74.8164084543
 10
152.8071566144
 20
74.8301496518
 10
152.806025305
 20
74.8438372891
 10
152.8041476093
 20
74.8574206061
 10
152.801542492
 20
74.8708154556
 10
152.7982213458
 20
74.8840092228
 10
152.7941691128
 20
74.8970563395
 10
152.7893832209
 20
74.9099295295
 10
152.7838815816
 20
74.9225546695
 10
152.7776646682
 20
74.9349104751
 10
152.7707444992
 20
74.9469516097
 10
152.7631434791
 20
74.9586229619
 10
152.7548768838
 20
74.9698880992
 10
152.745970301
 20
74.9807007726
 10
152.7364541703
 20
74.9910159215
 10
152.7263514133
 20
75.0008016891
 10
152.7156918475
 20
75.0100221615
 10
152.7045173409
 20
75.0186361915
 10
152.6928677114
 20
75.0266105811
 10
152.6807757606
 20
75.033920759
 10
152.6682894585
 20
75.0405364292
 10
152.6554678255
 20
75.0464281765
 10
152.650699274
 20
75.0484005513
  0
LWPOLYLINE
  5
356
100
AcDbEntity
  8
RACCORDO
100
AcDbPolyline
 62
253
  6
CONTINUOUS
 90
19
 70
0
 10
150.6862625962
 20
112.3565546826
 10
150.6864409335
 20
112.3464904376
 10
150.6869755016
 20
112.3367433955
 10
150.6878649712
 20
112.327337801
 10
150.6891071249
 20
112.31829708
 10
150.6906988757
 20
112.3096436871
 10
150.6926362864
 20
112.301399063
 10
150.6949145661
 20
112.2935836747
 10
150.6975280456
 20
112.2862170368
 10
150.7004702005
 20
112.2793175611
 10
150.7037337223
 20
112.2729023908
 10
150.7073104838
 20
112.2669875055
 10
150.7111915065
 20
112.2615877215
 10
150.7153670586
 20
112.2567165017
 10
150.719826788
 20
112.2523858518
 10
150.7245596881
 20
112.2486064355
 10
150.7295549843
 20
112.2453870829
 10
150.7347993534
 20
112.2427365947
 10
150.7364586937
 20
112.2420375373
  0
LINE
  5
357
100
AcDbEntity
  8
RACCORDO
100
AcDbLine
 62
253
  6
CONTINUOUS
 10
150.6862625962
 20
72.9707060075
 11
150.6862625962
 21
73.2922789567
  0
LINE
  5
358
100
AcDbEntity
  8
RACCORDO
100
AcDbLine
 62
253
  6
CONTINUOUS
 10
150.6862625962
 20
112.3565546826
 11
150.6862625962
 21
112.6781276318
  0
LINE
  5
359
100
AcDbEntity
  8
RACCORDO
100
AcDbLine
 62
253
  6
CONTINUOUS
 10
151.0336070223
 20
73.005238135
 11
151.0336070223
 21
73.3268110842
  0
LINE
  5
35A
100
AcDbEntity
  8
RACCORDO
100
AcDbLine
 62
253
  6
CONTINUOUS
 10
151.0336070223
 20
112.3910868101
 11
151.0336070223
 21
112.7126597593
  0
LINE
  5
35B
100
AcDbEntity
  8
RACCORDO
100
AcDbLine
 62
253
  6
CONTINUOUS
 10
151.2646047198
 20
74.3513833263
 11
151.2646047198
 21
74.6072061458
  0
LINE
  5
35C
100
AcDbEntity
  8
RACCORDO
100
AcDbLine
 62
253
  6
CONTINUOUS
 10
151.2646047198
 20
111.5769600054
 11
151.2646047198
 21
112.2202425735
  0
LINE
  5
35D
100
AcDbEntity
  8
ASSI
100
AcDbLine
 62
253
  6
CONTINUOUS
 10
151.5244859805
 20
118.9975167421
 11
151.5244859805
 21
117.8368804781
  0
LINE
  5
35E
100
AcDbEntity
  8
ASSI
100
AcDbLine
 62
7
  6
CONTINUOUS
 10
151.6004613118
 20
119.0481974666
 11
151.6004613118
 21
117.9747700896
  0
LINE
  5
35F
100
AcDbEntity
  8
RACCORDO
100
AcDbLine
 62
253
  6
CONTINUOUS
 10
151.6119491459
 20
74.2676810404
 11
151.6119491459
 21
74.8560557057
  0
LINE
  5
360
100
AcDbEntity
  8
RACCORDO
100
AcDbLine
 62
253
  6
CONTINUOUS
 10
151.6119491459
 20
111.6213404951
 11
151.6119491459
 21
112.3860814598
  0
LINE
  5
361
100
AcDbEntity
  8
RACCORDO
100
AcDbLine
 62
7
  6
CONTINUOUS
 10
152.3357179601
 20
74.0480366653
 11
152.3357179601
 21
75.3745887159
  0
LINE
  5
362
100
AcDbEntity
  8
RACCORDO
100
AcDbLine
 62
7
  6
CONTINUOUS
 10
152.3357179601
 20
112.2612290337
 11
152.3357179601
 21
113.7769177446
  0
LWPOLYLINE
  5
363
100
AcDbEntity
  8
RACCORDO
100
AcDbPolyline
 62
253
  6
CONTINUOUS
 90
22
 70
0
 10
150.6862625962
 20
73.2922789567
 10
150.6864401357
 20
73.3026118702
 10
150.6869727071
 20
73.3132159977
 10
150.6878595785
 20
73.3240654705
 10
150.6890993952
 20
73.3351357982
 10
150.6906895264
 20
73.3463978152
 10
150.6926254261
 20
73.3578174302
 10
150.6949018098
 20
73.369364013
 10
150.6975133519
 20
73.3810110118
 10
150.7004536181
 20
73.3927296921
 10
150.7037153582
 20
73.4044910619
 10
150.7072904411
 20
73.4162657159
 10
150.7111699155
 20
73.4280241424
 10
150.7153441207
 20
73.4397370631
 10
150.7198026827
 20
73.4513753709
 10
150.724534455
 20
73.4629099825
 10
150.7295276198
 20
73.4743121247
 10
150.7347697834
 20
73.4855535282
 10
150.7402479605
 20
73.4966063592
 10
150.7459485465
 20
73.5074431654
 10
150.7518573424
 20
73.5180369509
 10
150.7579596508
 20
73.5283613655
  0
LWPOLYLINE
  5
364
100
AcDbEntity
  8
RACCORDO
100
AcDbPolyline
 62
253
  6
CONTINUOUS
 90
31
 70
0
 10
150.6862625962
 20
112.6781276318
 10
150.686457746
 20
112.6889679525
 10
150.687042666
 20
112.7000985086
 10
150.688015767
 20
112.7114890061
 10
150.6893744045
 20
112.7231084552
 10
150.6911148825
 20
112.7349252186
 10
150.6932324588
 20
112.7469070954
 10
150.6957213669
 20
112.7590214625
 10
150.6985748327
 20
112.7712353541
 10
150.7017850853
 20
112.7835155138
 10
150.7053433843
 20
112.7958285138
 10
150.7092400432
 20
112.8081408414
 10
150.7134644525
 20
112.8204189795
 10
150.7180051172
 20
112.8326295232
 10
150.7228496718
 20
112.8447392232
 10
150.7279849075
 20
112.8567150731
 10
150.733396819
 20
112.8685244304
 10
150.7390706923
 20
112.8801352067
 10
150.7449911326
 20
112.891515902
 10
150.7511421091
 20
112.9026356815
 10
150.7575068064
 20
112.9134641276
 10
150.7640677014
 20
112.9239714518
 10
150.770806789
 20
112.93412889
 10
150.777705841
 20
112.9439090371
 10
150.7847462703
 20
112.9532855682
 10
150.791910505
 20
112.9622348847
 10
150.7991775077
 20
112.9707305144
 10
150.8065228309
 20
112.9787444189
 10
150.8139247989
 20
112.986254201
 10
150.8213647582
 20
112.9932421753
 10
150.8288224769
 20
112.9996903949
  0
LWPOLYLINE
  5
365
100
AcDbEntity
  8
RACCORDO
100
AcDbPolyline
 62
7
  6
CONTINUOUS
 90
11
 70
0
 10
152.8075345452
 20
113.8806841803
 10
152.8071795597
 20
113.8673663815
 10
152.8061018499
 20
113.8539579182
 10
152.8042851367
 20
113.8405077495
 10
152.801711778
 20
113.8270420439
 10
152.7983770225
 20
113.813640157
 10
152.7943015782
 20
113.8004260216
 10
152.7895082455
 20
113.7874736538
 10
152.7840037745
 20
113.7747989214
 10
152.7777964605
 20
113.7624273046
 10
152.7717059673
 20
113.75172449
  0
LWPOLYLINE
  5
366
100
AcDbEntity
  8
RACCORDO
100
AcDbPolyline
 62
253
  6
CONTINUOUS
 90
13
 70
0
 10
152.8075345452
 20
114.2094056552
 10
152.8074110056
 20
114.2048982643
 10
152.8066610994
 20
114.1974295828
 10
152.8052331582
 20
114.1899937023
 10
152.8031311715
 20
114.1826110007
 10
152.800360894
 20
114.1753014192
 10
152.7969298137
 20
114.1680846412
 10
152.7928462979
 20
114.1609787575
 10
152.7881221449
 20
114.1540047117
 10
152.7827737897
 20
114.1471857478
 10
152.7768182664
 20
114.1405414857
 10
152.7702718235
 20
114.1340881715
 10
152.763153319
 20
114.1278429299
  0
LWPOLYLINE
  5
367
100
AcDbEntity
  8
RACCORDO
100
AcDbPolyline
 62
253
  6
CONTINUOUS
 90
12
 70
0
 10
152.8074127034
 20
113.8762078566
 10
152.8066658549
 20
113.8687406919
 10
152.8052412024
 20
113.8613060214
 10
152.803142622
 20
113.8539240726
 10
152.8003758231
 20
113.8466149291
 10
152.7969483334
 20
113.8393984768
 10
152.792869478
 20
113.8322943493
 10
152.7881503539
 20
113.8253218745
 10
152.7828038005
 20
113.8185000222
 10
152.7768443638
 20
113.8118473525
 10
152.7702882577
 20
113.805381965
 10
152.763153319
 20
113.79912145
  0
LWPOLYLINE
  5
368
100
AcDbEntity
  8
RACCORDO
100
AcDbPolyline
 62
7
  6
CONTINUOUS
 90
70
 70
0
 10
165.4069963051
 20
113.3267078185
 10
165.4460402004
 20
113.3775276614
 10
165.4838858454
 20
113.4272808078
 10
165.5206016917
 20
113.4760597533
 10
165.556191889
 20
113.5238657008
 10
165.5906522876
 20
113.5706974474
 10
165.6240388914
 20
113.6166438807
 10
165.6563568847
 20
113.6617059679
 10
165.6876010831
 20
113.7058827417
 10
165.7178119369
 20
113.749260188
 10
165.7469966221
 20
113.7918392681
 10
165.7751479627
 20
113.8336190206
 10
165.8022848799
 20
113.8746825476
 10
165.828418549
 20
113.9150317395
 10
165.8535377948
 20
113.9546647059
 10
165.877628013
 20
113.9936588776
 10
165.9007088223
 20
114.0320206402
 10
165.922760604
 20
114.0697436082
 10
165.9437098972
 20
114.1068860554
 10
165.9635940276
 20
114.1434718625
 10
165.9823756696
 20
114.1794771489
 10
165.9998693857
 20
114.2148885468
 10
166.0161442085
 20
114.2498080215
 10
166.0311311056
 20
114.2841336077
 10
166.0444375423
 20
114.3175460427
 10
166.0560775557
 20
114.3501300921
 10
166.0660371089
 20
114.3818009902
 10
166.0738815566
 20
114.4119851768
 10
166.0795273718
 20
114.4406442587
 10
166.0830580817
 20
114.4678166291
 10
166.0842896226
 20
114.4930439071
 10
166.0831022013
 20
114.5162294013
 10
166.0796156111
 20
114.5374698031
 10
166.074005168
 20
114.5565968065
 10
166.0661832178
 20
114.5735009087
 10
166.0562374146
 20
114.5882916125
 10
166.0446060369
 20
114.6011291197
 10
166.03130406
 20
114.6119495755
 10
166.0163165087
 20
114.6208168348
 10
166.0000367354
 20
114.6280826638
 10
165.982533318
 20
114.6337632171
 10
165.9637376786
 20
114.6378423402
 10
165.9438374363
 20
114.6406233354
 10
165.9228705098
 20
114.642145863
 10
165.9007989803
 20
114.6423702626
 10
165.8776967102
 20
114.6414808553
 10
165.8535833469
 20
114.6395047956
 10
165.8284392431
 20
114.6364149289
 10
165.8022793187
 20
114.6323141121
 10
165.7751148065
 20
114.6272195432
 10
165.7469344738
 20
114.6211140242
 10
165.717719542
 20
114.6140488182
 10
165.6874776408
 20
114.6060353713
 10
165.6562011406
 20
114.5970622373
 10
165.6238483737
 20
114.5871463412
 10
165.5904207362
 20
114.5762940876
 10
165.555916832
 20
114.5644990717
 10
165.5202908053
 20
114.5517590044
 10
165.4835471529
 20
114.5380794338
 10
165.4456813779
 20
114.5234548116
 10
165.4066341338
 20
114.5078662049
 10
165.3664161668
 20
114.4913213583
 10
165.3250167308
 20
114.4738125271
 10
165.2823442406
 20
114.4552975434
 10
165.2384007929
 20
114.4357802591
 10
165.193184291
 20
114.4152568222
 10
165.1465968599
 20
114.3936735096
 10
165.0986058744
 20
114.3710124136
 10
165.0492439596
 20
114.3472914419
 10
164.9985111155
 20
114.3225105945
  0
LINE
  5
369
100
AcDbEntity
  8
RACCORDO
100
AcDbLine
 62
7
  6
CONTINUOUS
 10
165.3253209749
 20
113.2218710014
 11
165.4069963051
 21
113.3267078185
  0
LWPOLYLINE
  5
36A
100
AcDbEntity
  8
RACCORDO
100
AcDbPolyline
 62
253
  6
CONTINUOUS
 90
20
 70
0
 10
164.9056875106
 20
112.6669002387
 10
164.9211684973
 20
112.6866489672
 10
164.936185022
 20
112.7037906163
 10
164.9506944606
 20
112.7183242964
 10
164.9646762144
 20
112.7302790089
 10
164.9780603379
 20
112.7396214591
 10
164.9907409687
 20
112.7462521774
 10
165.0027057821
 20
112.7499865799
 10
165.0138973896
 20
112.7509917142
 10
165.0241815334
 20
112.7496846779
 10
165.0335135874
 20
112.7459797539
 10
165.0419368344
 20
112.7399279675
 10
165.0494693525
 20
112.7321467906
 10
165.0560863286
 20
112.7226964902
 10
165.0617966392
 20
112.711485346
 10
165.0666345001
 20
112.6989068213
 10
165.0705653851
 20
112.6849942812
 10
165.073551009
 20
112.6696854517
 10
165.0755681477
 20
112.6532329055
 10
165.0765565055
 20
112.6356323788
  0
LINE
  5
36B
100
AcDbEntity
  8
RACCORDO
100
AcDbLine
 62
7
  6
CONTINUOUS
 10
165.238619723
 20
113.1124803905
 11
165.3253209749
 21
113.2218710014
  0
LINE
  5
36C
100
AcDbEntity
  8
RACCORDO
100
AcDbLine
 62
7
  6
CONTINUOUS
 10
165.1467193512
 20
112.9983307452
 11
165.238619723
 21
113.1124803905
  0
LWPOLYLINE
  5
36D
100
AcDbEntity
  8
RACCORDO
100
AcDbPolyline
 62
7
  6
CONTINUOUS
 90
3
 70
0
 10
164.9984889995
 20
112.8174584439
 10
165.0492705654
 20
112.8790211479
 10
165.1467193512
 20
112.9983307452
  0
LINE
  5
36E
100
AcDbEntity
  8
DRAFT
100
AcDbLine
 62
253
  6
CONTINUOUS
 10
137.8785620846
 20
84.8932613261
 11
139.4928859003
 21
86.1910137135
  0
LINE
  5
36F
100
AcDbEntity
  8
RACCORDO
100
AcDbLine
 62
7
  6
CONTINUOUS
 10
165.076649938
 20
102.5990397317
 11
165.5306248056
 21
102.8356981273
  0
LINE
  5
370
100
AcDbEntity
  8
RACCORDO
100
AcDbLine
 62
253
  6
CONTINUOUS
 10
165.076649938
 20
102.5116351275
 11
165.6991835233
 21
102.8361636643
  0
LWPOLYLINE
  5
371
100
AcDbEntity
  8
RACCORDO
100
AcDbPolyline
 62
253
  6
CONTINUOUS
 90
8
 70
0
 10
165.6991835233
 20
102.8361636643
 10
165.7601826397
 20
102.8651650069
 10
165.8199461774
 20
102.8867992554
 10
165.8781281335
 20
102.9009316723
 10
165.9344016162
 20
102.9074679034
 10
165.9884311498
 20
102.9063699013
 10
166.039873754
 20
102.8976532866
 10
166.0821464746
 20
102.8839655224
  0
LWPOLYLINE
  5
372
100
AcDbEntity
  8
RACCORDO
100
AcDbPolyline
 62
253
  6
CONTINUOUS
 90
7
 70
0
 10
165.5307230102
 20
102.83574928
 10
165.5475654989
 20
102.8433567957
 10
165.5757387761
 20
102.8515220273
 10
165.6055008664
 20
102.8549017099
 10
165.6363464119
 20
102.8534383895
 10
165.6677517133
 20
102.8471568451
 10
165.6991835209
 20
102.8361636631
  0
LWPOLYLINE
  5
373
100
AcDbEntity
  8
RACCORDO
100
AcDbPolyline
 62
253
  6
CONTINUOUS
 90
5
 70
0
 10
166.0133472124
 20
102.8757458903
 10
165.9601242406
 20
102.8679835919
 10
165.9050805904
 20
102.8525927975
 10
165.8485606207
 20
102.8296612867
 10
165.7909102371
 20
102.7993241481
  0
LWPOLYLINE
  5
374
100
AcDbEntity
  8
RACCORDO
100
AcDbPolyline
 62
253
  6
CONTINUOUS
 90
3
 70
0
 10
139.7705699612
 20
100.3804434967
 10
140.0642231505
 20
100.4151755852
 10
140.150505623
 20
100.4229405486
  0
LWPOLYLINE
  5
375
100
AcDbEntity
  8
RACCORDO
100
AcDbPolyline
 62
7
  6
CONTINUOUS
 90
34
 70
0
 10
152.3357179601
 20
113.7769177446
 10
152.3354861479
 20
113.7867550527
 10
152.3347908112
 20
113.7967562563
 10
152.3336336065
 20
113.8068987703
 10
152.332017301
 20
113.8171597425
 10
152.3299455588
 20
113.8275159337
 10
152.327422933
 20
113.8379437708
 10
152.3244551836
 20
113.8484196725
 10
152.3210491063
 20
113.8589199693
 10
152.3172123096
 20
113.8694207857
 10
152.3129535138
 20
113.8798983602
 10
152.3082824237
 20
113.8903290063
 10
152.3032095492
 20
113.9006890327
 10
152.2977463931
 20
113.9109549815
 10
152.291905372
 20
113.9211036318
 10
152.2856996834
 20
113.9311119593
 10
152.2791433783
 20
113.9409572877
 10
152.2722513325
 20
113.9506173345
 10
152.2650391618
 20
113.9600702122
 10
152.2575231796
 20
113.9692944879
 10
152.2497204177
 20
113.9782692713
 10
152.241648592
 20
113.9869742582
 10
152.2333259459
 20
113.9953896954
 10
152.2247713201
 20
114.0034965109
 10
152.2160041693
 20
114.0112763969
 10
152.2070442951
 20
114.0187116828
 10
152.1979119635
 20
114.0257855027
 10
152.1886279709
 20
114.0324819187
 10
152.1792132741
 20
114.0387857022
 10
152.1696891513
 20
114.0446825367
 10
152.160077317
 20
114.0501591785
 10
152.1503995396
 20
114.0552032195
 10
152.1406775928
 20
114.0598031154
 10
152.1309334146
 20
114.0639483802
  0
LWPOLYLINE
  5
376
100
AcDbEntity
  8
RACCORDO
100
AcDbPolyline
 62
253
  6
CONTINUOUS
 90
31
 70
0
 10
152.763153319
 20
114.1278429299
 10
152.7629148327
 20
114.1387079763
 10
152.7621134376
 20
114.1497667917
 10
152.7607513302
 20
114.1609890661
 10
152.7588322436
 20
114.1723440413
 10
152.7563614378
 20
114.1838005955
 10
152.7533456848
 20
114.1953273283
 10
152.7497932502
 20
114.2068926472
 10
152.7457138706
 20
114.2184648538
 10
152.7411187268
 20
114.2300122308
 10
152.7360204131
 20
114.2415031291
 10
152.7304329031
 20
114.2529060543
 10
152.7243715112
 20
114.264189753
 10
152.7178528505
 20
114.2753232988
 10
152.7108947874
 20
114.2862761768
 10
152.7035163926
 20
114.297018367
 10
152.6957378889
 20
114.3075204273
 10
152.6875805959
 20
114.3177535734
 10
152.679066871
 20
114.3276897582
 10
152.6702200487
 20
114.3373017485
 10
152.6610643767
 20
114.3465631996
 10
152.6516249488
 20
114.3554487276
 10
152.6419276368
 20
114.363933979
 10
152.6319990191
 20
114.3719956972
 10
152.6218663083
 20
114.3796117866
 10
152.6115572762
 20
114.386761373
 10
152.6011001779
 20
114.3934248606
 10
152.5905236744
 20
114.3995839862
 10
152.5798567539
 20
114.4052218686
 10
152.5691286523
 20
114.4103230555
 10
152.5583687736
 20
114.4148735655
  0
LWPOLYLINE
  5
377
100
AcDbEntity
  8
RACCORDO
100
AcDbPolyline
 62
7
  6
CONTINUOUS
 90
24
 70
0
 10
152.8075345451
 20
114.2094093351
 10
152.8073560424
 20
114.2188512644
 10
152.8065361651
 20
114.2317259031
 10
152.8050513912
 20
114.2445540731
 10
152.8029040038
 20
114.2572995926
 10
152.8000977874
 20
114.2699289904
 10
152.7966352593
 20
114.28241832
 10
152.7925215925
 20
114.2947349494
 10
152.7877651849
 20
114.3068420626
 10
152.7823739187
 20
114.3187091648
 10
152.7763583274
 20
114.3303029402
 10
152.7697316687
 20
114.3415887936
 10
152.7625079414
 20
114.352534647
 10
152.7547036215
 20
114.3631078245
 10
152.746336953
 20
114.3732764958
 10
152.7374269806
 20
114.3830107053
 10
152.7279939874
 20
114.3922815158
 10
152.7180627313
 20
114.4010582142
 10
152.7076618811
 20
114.4093100949
 10
152.6968187832
 20
114.4170108168
 10
152.6855622363
 20
114.4241355144
 10
152.6739262431
 20
114.430658847
 10
152.6619417835
 20
114.4365600759
 10
152.6507021468
 20
114.4413966038
  0
LINE
  5
378
100
AcDbEntity
  8
RACCORDO
100
AcDbLine
 62
253
  6
CONTINUOUS
 10
152.763153319
 20
114.1278429299
 11
152.763153319
 21
113.79912145
  0
LINE
  5
379
100
AcDbEntity
  8
RACCORDO
100
AcDbLine
 62
253
  6
CONTINUOUS
 10
152.763153319
 20
74.734845724
 11
152.763153319
 21
74.4061242441
  0
LINE
  5
37A
100
AcDbEntity
  8
RACCORDO
100
AcDbLine
 62
7
  6
CONTINUOUS
 10
152.8075345452
 20
114.2094056602
 11
152.8075345452
 21
113.8806841803
  0
LINE
  5
37B
100
AcDbEntity
  8
RACCORDO
100
AcDbLine
 62
7
  6
CONTINUOUS
 10
153.3188704186
 20
112.1500317131
 11
153.3188704186
 21
76.2856253893
  0
LINE
  5
37C
100
AcDbEntity
  8
DRAFT
100
AcDbLine
 62
7
  6
CONTINUOUS
 10
153.3188704186
 20
79.7421235046
 11
153.3188704186
 21
108.6935335978
  0
LWPOLYLINE
  5
37D
100
AcDbEntity
  8
RACCORDO
100
AcDbPolyline
 62
253
  6
CONTINUOUS
 90
13
 70
0
 10
152.8075345452
 20
74.8164084543
 10
152.8074127034
 20
74.8119321307
 10
152.8066658549
 20
74.8044649659
 10
152.8052412024
 20
74.7970302955
 10
152.803142622
 20
74.7896483466
 10
152.8003758231
 20
74.7823392032
 10
152.7969483334
 20
74.7751227509
 10
152.792869478
 20
74.7680186233
 10
152.7881503539
 20
74.7610461485
 10
152.7828038005
 20
74.7542242963
 10
152.7768443638
 20
74.7475716265
 10
152.7702882577
 20
74.7411062391
 10
152.763153319
 20
74.734845724
  0
LWPOLYLINE
  5
37E
100
AcDbEntity
  8
RACCORDO
100
AcDbPolyline
 62
253
  6
CONTINUOUS
 90
13
 70
0
 10
152.8075345452
 20
74.4876869825
 10
152.8074136817
 20
74.4832286529
 10
152.806668235
 20
74.4757598311
 10
152.8052446834
 20
74.4683234603
 10
152.8031468975
 20
74.46093978
 10
152.800380584
 20
74.4536288894
 10
152.7969532723
 20
74.4464106945
 10
152.7928742866
 20
74.4393048377
 10
152.7881547298
 20
74.4323306658
 10
152.7828074637
 20
74.4255071823
 10
152.7768470534
 20
74.4188529657
 10
152.7702897211
 20
74.4123861195
 10
152.763153319
 20
74.4061242441
  0
LWPOLYLINE
  5
37F
100
AcDbEntity
  8
RACCORDO
100
AcDbPolyline
 62
7
  6
CONTINUOUS
 90
18
 70
0
 10
152.7322809178
 20
75.8154033006
 10
152.7316722953
 20
75.7984608818
 10
152.7303762774
 20
75.7818045371
 10
152.7283907017
 20
75.7654639334
 10
152.7257144166
 20
75.7494703792
 10
152.7223480535
 20
75.7338508649
 10
152.7182929822
 20
75.7186286478
 10
152.713552709
 20
75.7038376232
 10
152.708128974
 20
75.689500772
 10
152.7020184
 20
75.6756271445
 10
152.695222601
 20
75.6622447296
 10
152.6877463996
 20
75.6493848573
 10
152.6795881333
 20
75.6370651252
 10
152.6707448582
 20
75.6253062953
 10
152.6612295851
 20
75.6141490842
 10
152.6510675071
 20
75.6036393167
 10
152.6402663684
 20
75.5937989253
 10
152.6347920065
 20
75.5892674881
  0
LWPOLYLINE
  5
380
100
AcDbEntity
  8
SMUSSO
100
AcDbPolyline
 62
7
  6
CONTINUOUS
 90
10
 70
0
 10
154.9222909158
 20
118.4116994273
 10
154.923350459
 20
118.422770893
 10
154.9449101887
 20
118.5231614193
 10
154.9780843706
 20
118.622002742
 10
155.0225662816
 20
118.7188718874
 10
155.0780160027
 20
118.8133700194
 10
155.1437598577
 20
118.9047637625
 10
155.2191399424
 20
118.9926117712
 10
155.3036669834
 20
119.076737266
 10
155.3967493202
 20
119.1568733127
  0
LINE
  5
381
100
AcDbEntity
  8
RACCORDO
100
AcDbLine
 62
7
  6
CONTINUOUS
 10
139.8315695499
 20
83.6292140696
 11
139.831267283
 21
83.6289665668
  0
LWPOLYLINE
  5
382
100
AcDbEntity
  8
RACCORDO
100
AcDbPolyline
 62
253
  6
CONTINUOUS
 90
29
 70
0
 10
139.831267283
 20
83.6289665668
 10
139.7985719891
 20
83.6033542965
 10
139.7603015792
 20
83.5760890279
 10
139.7206452083
 20
83.5506157508
 10
139.6796409317
 20
83.5269593125
 10
139.6373261353
 20
83.5051425552
 10
139.5937479612
 20
83.4851911081
 10
139.5489623753
 20
83.4671291978
 10
139.5030197392
 20
83.4509754124
 10
139.4559642796
 20
83.4367437489
 10
139.4078458442
 20
83.4244462878
 10
139.3587259199
 20
83.4140961766
 10
139.3086443809
 20
83.4056994153
 10
139.2576185665
 20
83.3992575738
 10
139.2056948591
 20
83.394779016
 10
139.1529297457
 20
83.3922711836
 10
139.0993546042
 20
83.391737088
 10
139.0450003707
 20
83.3931824383
 10
138.9899425924
 20
83.3966108397
 10
138.9342816553
 20
83.4020161573
 10
138.8780689585
 20
83.409392619
 10
138.8213673666
 20
83.4187317254
 10
138.7642981835
 20
83.430008424
 10
138.7069203109
 20
83.4432035021
 10
138.6492932619
 20
83.4582964
 10
138.5915414619
 20
83.475243963
 10
138.5337460283
 20
83.4940077648
 10
138.4759437274
 20
83.5145614711
 10
138.4181923258
 20
83.5368711098
  0
LINE
  5
383
100
AcDbEntity
  8
RACCORDO
100
AcDbLine
 62
253
  6
CONTINUOUS
 10
165.7909102371
 20
102.7993241481
 11
165.076649938
 21
102.376408466
  0
LINE
  5
384
100
AcDbEntity
  8
RACCORDO
100
AcDbLine
 62
253
  6
CONTINUOUS
 10
166.0826850649
 20
102.3157101031
 11
164.9056875106
 21
101.6188062934
  0
LWPOLYLINE
  5
385
100
AcDbEntity
  8
RACCORDO
100
AcDbPolyline
 62
253
  6
CONTINUOUS
 90
4
 70
0
 10
139.0649850109
 20
100.9744886023
 10
139.4225130815
 20
101.0304639119
 10
139.7819864308
 20
101.0747454389
 10
139.9522261147
 20
101.0900953043
  0
LWPOLYLINE
  5
386
100
AcDbEntity
  8
RACCORDO
100
AcDbPolyline
 62
253
  6
CONTINUOUS
 90
15
 70
0
 10
137.3464919799
 20
103.0527135237
 10
137.4073069073
 20
103.0563715151
 10
137.4689128143
 20
103.0577324364
 10
137.5313376235
 20
103.0567869744
 10
137.5945529222
 20
103.0535440572
 10
137.6583154986
 20
103.0480111317
 10
137.7226346584
 20
103.0401714884
 10
137.7875007067
 20
103.0300415311
 10
137.8526419482
 20
103.0176783896
 10
137.9180621506
 20
103.0030643388
 10
137.9837572793
 20
102.9862168942
 10
138.0494439653
 20
102.9672460695
 10
138.1150277079
 20
102.946188501
 10
138.1806028748
 20
102.923007448
 10
138.246169433
 20
102.8977028845
  0
LINE
  5
387
100
AcDbEntity
  8
RACCORDO
100
AcDbLine
 62
253
  6
CONTINUOUS
 10
166.0644315741
 20
102.8758342962
 11
166.0133472124
 21
102.8757458903
  0
LINE
  5
388
100
AcDbEntity
  8
DRAFT
100
AcDbLine
 62
7
  6
CONTINUOUS
 10
155.9485348902
 20
118.8329257339
 11
155.9484488536
 21
119.2425363103
  0
LINE
  5
389
100
AcDbEntity
  8
SMUSSO
100
AcDbLine
 62
253
  6
CONTINUOUS
 10
155.3967493202
 20
119.1568733127
 11
155.3967493202
 21
118.796037124
  0
LINE
  5
38A
100
AcDbEntity
  8
RACCORDO
100
AcDbLine
 62
253
  6
CONTINUOUS
 10
156.2613516645
 20
117.3599563756
 11
156.2613516645
 21
116.8895442501
  0
LINE
  5
38B
100
AcDbEntity
  8
RACCORDO
100
AcDbLine
 62
7
  6
CONTINUOUS
 10
156.3468328783
 20
117.5948886148
 11
156.3468328783
 21
117.0518985405
  0
LINE
  5
38C
100
AcDbEntity
  8
RACCORDO
100
AcDbLine
 62
7
  6
CONTINUOUS
 10
165.0901648207
 20
112.6913565911
 11
165.0911037767
 21
112.692920271
  0
LWPOLYLINE
  5
38D
100
AcDbEntity
  8
ASSI
100
AcDbPolyline
 62
7
  6
CONTINUOUS
 90
3
 70
0
 10
139.9021480647
 20
83.6948094642
 10
139.8675389705
 20
83.6729452967
 10
139.8242131813
 20
83.6484191685
  0
LINE
  5
38E
100
AcDbEntity
  8
RACCORDO
100
AcDbLine
 62
253
  6
CONTINUOUS
 10
129.81842652
 20
113.4439290454
 11
146.99235738
 21
106.5464912348
  0
LINE
  5
38F
100
AcDbEntity
  8
RACCORDO
100
AcDbLine
 62
253
  6
CONTINUOUS
 10
156.7052283792
 20
118.7725034977
 11
156.7052283792
 21
119.2444052682
  0
LINE
  5
390
100
AcDbEntity
  8
RACCORDO
100
AcDbLine
 62
253
  6
CONTINUOUS
 10
156.8439975747
 20
118.8089170246
 11
156.8439975747
 21
119.2920532633
  0
LINE
  5
391
100
AcDbEntity
  8
0
100
AcDbLine
 62
7
  6
CONTINUOUS
 10
157.0592758669
 20
117.4616284603
 11
157.0592758669
 21
117.235478357
  0
LINE
  5
392
100
AcDbEntity
  8
0
100
AcDbLine
 62
7
  6
CONTINUOUS
 10
157.1428856114
 20
118.0203124901
 11
157.1428856114
 21
117.225932458
  0
LINE
  5
393
100
AcDbEntity
  8
0
100
AcDbLine
 62
7
  6
CONTINUOUS
 10
157.6280802195
 20
117.9275657086
 11
157.6280802195
 21
117.1981984721
  0
LINE
  5
394
100
AcDbEntity
  8
0
100
AcDbLine
 62
7
  6
CONTINUOUS
 10
158.6110626727
 20
117.5327777946
 11
158.6110626727
 21
117.2668239823
  0
LINE
  5
395
100
AcDbEntity
  8
RACCORDO
100
AcDbLine
 62
7
  6
CONTINUOUS
 10
158.6389809262
 20
121.7565562537
 11
158.6389809262
 21
121.4539877797
  0
LWPOLYLINE
  5
396
100
AcDbEntity
  8
RACCORDO
100
AcDbPolyline
 62
253
  6
CONTINUOUS
 90
31
 70
0
 10
152.763153319
 20
74.734845724
 10
152.7665833356
 20
74.7472887419
 10
152.7694444268
 20
74.7599236308
 10
152.771728315
 20
74.772716085
 10
152.7734284166
 20
74.7856325191
 10
152.7745393649
 20
74.7986365805
 10
152.7750575728
 20
74.8116891836
 10
152.7749816628
 20
74.8247533609
 10
152.7743119244
 20
74.8377947476
 10
152.7730501478
 20
74.8507780514
 10
152.7711996998
 20
74.8636680212
 10
152.7687656068
 20
74.876429227
 10
152.7657545558
 20
74.8890264919
 10
152.7621748062
 20
74.9014252963
 10
152.7580361108
 20
74.9135918894
 10
152.7533497621
 20
74.9254930683
 10
152.7481285474
 20
74.9370963428
 10
152.7423867311
 20
74.9483699982
 10
152.7361400084
 20
74.9592832131
 10
152.7294054473
 20
74.9698061709
 10
152.7222014377
 20
74.979910138
 10
152.7145476568
 20
74.9895675162
 10
152.7064649978
 20
74.9987519408
 10
152.6979755489
 20
75.0074383105
 10
152.6891025394
 20
75.0156028635
 10
152.6798702376
 20
75.0232232849
 10
152.6703038392
 20
75.0302787931
 10
152.6604294344
 20
75.0367501519
 10
152.6502739785
 20
75.0426196942
 10
152.6398652237
 20
75.0478713791
 10
152.6292315997
 20
75.0524908631
  0
LWPOLYLINE
  5
397
100
AcDbEntity
  8
RACCORDO
100
AcDbPolyline
 62
253
  6
CONTINUOUS
 90
6
 70
0
 10
165.0632345598
 20
118.7863986382
 10
165.0454851803
 20
118.7381608377
 10
165.0205727017
 20
118.6910464138
 10
164.9887675823
 20
118.6454349262
 10
164.9503394869
 20
118.6016104164
 10
164.9056216308
 20
118.5598803846
  0
LWPOLYLINE
  5
398
100
AcDbEntity
  8
RACCORDO
100
AcDbPolyline
 62
7
  6
CONTINUOUS
 90
7
 70
0
 10
164.9056875106
 20
112.6669002387
 10
164.9185821085
 20
112.6938307704
 10
164.9325056331
 20
112.7200263031
 10
164.9474580846
 20
112.7454868367
 10
164.9634394628
 20
112.7702123715
 10
164.9804497678
 20
112.7942029072
 10
164.9984889995
 20
112.8174584439
  0
LWPOLYLINE
  5
399
100
AcDbEntity
  8
RACCORDO
100
AcDbPolyline
 62
253
  6
CONTINUOUS
 90
9
 70
0
 10
160.1348503622
 20
95.0899369479
 10
160.1606850239
 20
95.1144514539
 10
160.1988135337
 20
95.1590660463
 10
160.2314425138
 20
95.2088774734
 10
160.2583237078
 20
95.2635068075
 10
160.2792525526
 20
95.3225383632
 10
160.2940698186
 20
95.3855230034
 10
160.3026627906
 20
95.4519815802
 10
160.3049660946
 20
95.5214084866
  0
LWPOLYLINE
  5
39A
100
AcDbEntity
  8
RACCORDO
100
AcDbPolyline
 62
7
  6
CONTINUOUS
 90
6
 70
0
 10
164.7355497227
 20
99.119817261
 10
164.7919878339
 20
99.1732696052
 10
164.8443907918
 20
99.2312877536
 10
164.8922946912
 20
99.2934949384
 10
164.9352405065
 20
99.359386093
 10
164.9729112965
 20
99.4285217306
  0
LINE
  5
39B
100
AcDbEntity
  8
RACCORDO
100
AcDbLine
 62
253
  6
CONTINUOUS
 10
164.7840711453
 20
99.4447809688
 11
160.3049660972
 21
95.5214084889
  0
LINE
  5
39C
100
AcDbEntity
  8
RACCORDO
100
AcDbLine
 62
7
  6
CONTINUOUS
 10
164.7355497227
 20
99.119817261
 11
160.1348283075
 21
95.0899176283
  0
LWPOLYLINE
  5
39D
100
AcDbEntity
  8
ASSI
100
AcDbPolyline
 62
7
  6
CONTINUOUS
 90
24
 70
0
 10
139.8242131813
 20
83.6484191685
 10
139.7794928217
 20
83.6258477018
 10
139.7335212986
 20
83.6053032775
 10
139.6862945956
 20
83.586792403
 10
139.6378167292
 20
83.5703085709
 10
139.5882431558
 20
83.5559046409
 10
139.5375703579
 20
83.5435872898
 10
139.4858018531
 20
83.5333498408
 10
139.4331036499
 20
83.5252251227
 10
139.379472764
 20
83.5192199179
 10
139.3249121797
 20
83.5153274441
 10
139.2695968594
 20
83.5135601834
 10
139.21352438
 20
83.5139249583
 10
139.1566971646
 20
83.5164149463
 10
139.0992974438
 20
83.5210221628
 10
139.0413233797
 20
83.5277534044
 10
138.9827768103
 20
83.5366018743
 10
138.9238454797
 20
83.5475391979
 10
138.8645281529
 20
83.5605720806
 10
138.8048260649
 20
83.5756938169
 10
138.7449306655
 20
83.5928559152
 10
138.6849057712
 20
83.6120422115
 10
138.6246875656
 20
83.6332688697
 10
138.5642760485
 20
83.6565358899
  0
LWPOLYLINE
  5
39E
100
AcDbEntity
  8
RACCORDO
100
AcDbPolyline
 62
253
  6
CONTINUOUS
 90
3
 70
0
 10
166.1522693636
 20
102.855801039
 10
166.1130868357
 20
102.8682429519
 10
166.0644315741
 20
102.8758342962
  0
LINE
  5
39F
100
AcDbEntity
  8
RACCORDO
100
AcDbLine
 62
253
  6
CONTINUOUS
 10
130.6194973714
 20
115.293167415
 11
147.8205041073
 21
108.3848553223
  0
LWPOLYLINE
  5
3A0
100
AcDbEntity
  8
RACCORDO
100
AcDbPolyline
 62
7
  6
CONTINUOUS
 90
13
 70
0
 10
159.4668795158
 20
118.4973168903
 10
159.4665813366
 20
118.5089207236
 10
159.4656793012
 20
118.5198980463
 10
159.4641734097
 20
118.5302488584
 10
159.4620502347
 20
118.5400390517
 10
159.4593232036
 20
118.5492027344
 10
159.456032598
 20
118.5575422308
 10
159.4521614033
 20
118.5650313315
 10
159.4477266342
 20
118.5716962459
 10
159.442819616
 20
118.5774179261
 10
159.4374707905
 20
118.5821566893
 10
159.4316497159
 20
118.5859522183
 10
159.4253563922
 20
118.5888045131
  0
LINE
  5
3A1
100
AcDbEntity
  8
RACCORDO
100
AcDbLine
 62
7
  6
CONTINUOUS
 10
159.4668795158
 20
118.4973168903
 11
159.4668795158
 21
118.3689242535
  0
LINE
  5
3A2
100
AcDbEntity
  8
RACCORDO
100
AcDbLine
 62
253
  6
CONTINUOUS
 10
159.4806900935
 20
84.981901035
 11
159.4806900935
 21
93.5919345422
  0
LINE
  5
3A3
100
AcDbEntity
  8
RACCORDO
100
AcDbLine
 62
7
  6
CONTINUOUS
 10
159.651652521
 20
85.3026409078
 11
159.651652521
 21
93.9126744163
  0
LWPOLYLINE
  5
3A4
100
AcDbEntity
  8
RACCORDO
100
AcDbPolyline
 62
7
  6
CONTINUOUS
 90
25
 70
0
 10
159.6516419525
 20
93.912618688
 10
159.6517141146
 20
93.9234128755
 10
159.6529452722
 20
93.960438
 10
159.6561019945
 20
94.0044609793
 10
159.6616774004
 20
94.0551202687
 10
159.6699716377
 20
94.1111686802
 10
159.6812607978
 20
94.1721411812
 10
159.6957756177
 20
94.2374994849
 10
159.7134027019
 20
94.3055362801
 10
159.734076994
 20
94.3754221511
 10
159.7577128335
 20
94.4464816376
 10
159.7838761798
 20
94.5171589593
 10
159.8122783144
 20
94.5866994311
 10
159.8425676662
 20
94.6543836119
 10
159.8740263838
 20
94.7188211326
 10
159.906174372
 20
94.7794063066
 10
159.9385458374
 20
94.8357159524
 10
159.9703492834
 20
94.8868608416
 10
160.00103243
 20
94.932515032
 10
160.0301736564
 20
94.9726602877
 10
160.0571559054
 20
95.0070787504
 10
160.0815806859
 20
95.0358852206
 10
160.1029955161
 20
95.0591884319
 10
160.1207510746
 20
95.0769812678
 10
160.134845358
 20
95.0899426499
  0
LWPOLYLINE
  5
3A5
100
AcDbEntity
  8
RACCORDO
100
AcDbPolyline
 62
253
  6
CONTINUOUS
 90
22
 70
0
 10
159.4806900935
 20
93.5919345422
 10
159.4830375186
 20
93.6851868299
 10
159.4898588736
 20
93.7808960522
 10
159.5011541584
 20
93.8790622091
 10
159.5170410109
 20
93.9803089985
 10
159.5374017933
 20
94.0840127225
 10
159.5618835927
 20
94.1883022875
 10
159.5905402166
 20
94.2931007787
 10
159.6233178575
 20
94.398485111
 10
159.6597021806
 20
94.5028149355
 10
159.6997636152
 20
94.6061106178
 10
159.7434317319
 20
94.7083517922
 10
159.7899809075
 20
94.8078370127
 10
159.8394431682
 20
94.9044927287
 10
159.8917864879
 20
94.9983924907
 10
159.9461891639
 20
95.0880555041
 10
160.0027195992
 20
95.1734582367
 10
160.0613093909
 20
95.2546242206
 10
160.1209316277
 20
95.3301432576
 10
160.1812440058
 20
95.3995452816
 10
160.242588829
 20
95.4633003587
 10
160.3049660972
 20
95.5214084889
  0
LWPOLYLINE
  5
3A6
100
AcDbEntity
  8
RACCORDO
100
AcDbPolyline
 62
253
  6
CONTINUOUS
 90
8
 70
0
 10
159.6516525163
 20
93.9126186824
 10
159.6487944352
 20
93.8693399562
 10
159.6385718724
 20
93.820205439
 10
159.6210039046
 20
93.7717590551
 10
159.5962212976
 20
93.7243614686
 10
159.5644085235
 20
93.678365475
 10
159.5258023435
 20
93.6341133817
 10
159.4806900935
 20
93.5919345453
  0
LINE
  5
3A7
100
AcDbEntity
  8
RACCORDO
100
AcDbLine
 62
253
  6
CONTINUOUS
 10
165.0736147722
 20
118.8352800258
 11
165.0632345598
 21
118.7863986382
  0
LWPOLYLINE
  5
3A8
100
AcDbEntity
  8
RACCORDO
100
AcDbPolyline
 62
7
  6
CONTINUOUS
 90
10
 70
0
 10
164.9056875106
 20
101.6188062934
 10
164.9446280692
 20
101.6824392499
 10
164.9779455659
 20
101.7457251073
 10
165.0058990748
 20
101.8080724559
 10
165.0288838002
 20
101.8689261538
 10
165.0471535088
 20
101.9278202582
 10
165.0607581307
 20
101.9843707126
 10
165.069971758
 20
102.0381295004
 10
165.0752041652
 20
102.0888328165
 10
165.0766554093
 20
102.1317332014
  0
LWPOLYLINE
  5
3A9
100
AcDbEntity
  8
RACCORDO
100
AcDbPolyline
 62
7
  6
CONTINUOUS
 90
27
 70
0
 10
166.128843028
 20
100.7401615359
 10
166.1885151462
 20
100.8218093333
 10
166.2452187608
 20
100.9085615211
 10
166.2987284758
 20
100.9999364544
 10
166.34859215
 20
101.0950807314
 10
166.3945864923
 20
101.1934550193
 10
166.4364564461
 20
101.2944990194
 10
166.4737316162
 20
101.3970871059
 10
166.5062324506
 20
101.5006340163
 10
166.5337394183
 20
101.6045471829
 10
166.5559504233
 20
101.7077240881
 10
166.5727584205
 20
101.8097325264
 10
166.5839984958
 20
101.9100523171
 10
166.5895242373
 20
102.0077949257
 10
166.5892177975
 20
102.103140556
 10
166.5828889763
 20
102.1954074208
 10
166.5706022949
 20
102.2829657354
 10
166.5524158489
 20
102.3656612943
 10
166.5282675958
 20
102.443734937
 10
166.4983915063
 20
102.5164725926
 10
166.462939108
 20
102.5836709089
 10
166.4219590123
 20
102.6453230494
 10
166.3758952307
 20
102.7008983213
 10
166.3251570444
 20
102.7500924648
 10
166.2702322948
 20
102.7926049099
 10
166.2121358571
 20
102.8279385075
 10
166.1522696776
 20
102.8557828322
  0
LWPOLYLINE
  5
3AA
100
AcDbEntity
  8
RACCORDO
100
AcDbPolyline
 62
7
  6
CONTINUOUS
 90
7
 70
0
 10
164.8832614483
 20
99.3641070775
 10
164.8596621189
 20
99.335132793
 10
164.835782177
 20
99.3062126739
 10
164.8116224504
 20
99.277350611
 10
164.787183904
 20
99.2485504265
 10
164.7624676403
 20
99.219815871
 10
164.7374749
 20
99.1911506204
  0
LWPOLYLINE
  5
3AB
100
AcDbEntity
  8
RACCORDO
100
AcDbPolyline
 62
253
  6
CONTINUOUS
 90
37
 70
0
 10
166.0826850649
 20
100.7829662633
 10
166.1231459665
 20
100.8302582882
 10
166.162403606
 20
100.8808288854
 10
166.2004579834
 20
100.9346780547
 10
166.2375401152
 20
100.9921854567
 10
166.273418985
 20
101.0529714308
 10
166.3074015431
 20
101.1158969961
 10
166.3394394166
 20
101.1809888424
 10
166.3695809784
 20
101.2482202799
 10
166.3972782973
 20
101.3163722586
 10
166.4224830725
 20
101.3854521144
 10
166.4452436048
 20
101.4554525115
 10
166.4651568657
 20
101.5251323917
 10
166.4821737104
 20
101.5944919657
 10
166.4963432837
 20
101.6635310227
 10
166.5074099917
 20
101.7310078729
 10
166.5153170638
 20
101.7968926427
 10
166.5201212708
 20
101.8612152055
 10
166.5217373303
 20
101.9228234912
 10
166.5201078136
 20
101.9816676383
 10
166.5152901495
 20
102.0377975082
 10
166.5073713424
 20
102.0902106152
 10
166.4962952386
 20
102.1388406255
 10
166.4821179917
 20
102.183753873
 10
166.465095067
 20
102.2241468731
 10
166.4451773259
 20
102.2599369927
 10
166.4224139069
 20
102.291206865
 10
166.3972076909
 20
102.3174009051
 10
166.3695107807
 20
102.3384294148
 10
166.3393710736
 20
102.3543820923
 10
166.3073351421
 20
102.364972448
 10
166.2733521001
 20
102.3700910128
 10
166.2374728337
 20
102.3698472557
 10
166.200396574
 20
102.3642830944
 10
166.1623563977
 20
102.3534125015
 10
166.123119228
 20
102.3372215044
 10
166.0826850649
 20
102.3157101031
  0
LWPOLYLINE
  5
3AC
100
AcDbEntity
  8
RACCORDO
100
AcDbPolyline
 62
7
  6
CONTINUOUS
 90
48
 70
0
 10
164.7468639769
 20
99.2019907285
 10
164.7559896527
 20
99.2126252852
 10
164.7648536611
 20
99.2230522805
 10
164.7734524438
 20
99.2332634402
 10
164.7817930789
 20
99.2432631158
 10
164.7898930039
 20
99.2530685038
 10
164.7977535147
 20
99.2626776508
 10
164.8053762823
 20
99.2720892731
 10
164.8127787676
 20
99.281322046
 10
164.8199623079
 20
99.2903746731
 10
164.8269279503
 20
99.2992458485
 10
164.8336921025
 20
99.3079547366
 10
164.8402583152
 20
99.3165035935
 10
164.8466247425
 20
99.3248881978
 10
164.8527991154
 20
99.3331184461
 10
164.8587830487
 20
99.341194532
 10
164.8645761629
 20
99.349114724
 10
164.8701826631
 20
99.3568864208
 10
164.8755931303
 20
99.3644939774
 10
164.8808178511
 20
99.3719518179
 10
164.8858891928
 20
99.3793133728
 10
164.8908185139
 20
99.3865938394
 10
164.895592843
 20
99.3937784026
 10
164.9002060627
 20
99.4008767269
 10
164.9046813342
 20
99.4079264813
 10
164.9089917771
 20
99.4148915571
 10
164.9130560217
 20
99.4216710458
 10
164.9168566632
 20
99.4282296643
 10
164.9204096814
 20
99.4346027515
 10
164.9236824494
 20
99.4407960437
 10
164.9267013444
 20
99.4468265013
 10
164.9294342665
 20
99.4526794683
 10
164.9317538774
 20
99.4583170045
 10
164.9337117716
 20
99.4639029119
 10
164.9352353612
 20
99.4692831263
 10
164.93601561
 20
99.4739404669
 10
164.9359116571
 20
99.4777320068
 10
164.9350649272
 20
99.4807987781
 10
164.9336122787
 20
99.4830385876
 10
164.9315248482
 20
99.4843009166
 10
164.928857651
 20
99.4847231919
 10
164.9258830127
 20
99.4846308776
 10
164.922660156
 20
99.4840601442
 10
164.9191459415
 20
99.4829673661
 10
164.915454195
 20
99.4815606224
 10
164.911624412
 20
99.4799085533
 10
164.9076246193
 20
99.4779391608
 10
164.9034584999
 20
99.4756508691
  0
LWPOLYLINE
  5
3AD
100
AcDbEntity
  8
RACCORDO
100
AcDbPolyline
 62
7
  6
CONTINUOUS
 90
3
 70
0
 10
166.0479177603
 20
100.6431661148
 10
166.0663069102
 20
100.6639169473
 10
166.128843028
 20
100.7401615359
  0
LINE
  5
3AE
100
AcDbEntity
  8
RACCORDO
100
AcDbLine
 62
253
  6
CONTINUOUS
 10
164.9034584999
 20
99.4756508691
 11
166.0826850649
 21
100.7829662633
  0
LINE
  5
3AF
100
AcDbEntity
  8
RACCORDO
100
AcDbLine
 62
7
  6
CONTINUOUS
 10
164.981342201
 20
99.4607268515
 11
166.0480889653
 21
100.6433447707
  0
LWPOLYLINE
  5
3B0
100
AcDbEntity
  8
RACCORDO
100
AcDbPolyline
 62
7
  6
CONTINUOUS
 90
12
 70
0
 10
164.9815226278
 20
99.4609285519
 10
164.9805437346
 20
99.459863144
 10
164.9737882838
 20
99.4530021017
 10
164.9665557515
 20
99.4463733892
 10
164.9587895718
 20
99.4397521146
 10
164.95010028
 20
99.4324195222
 10
164.9404525336
 20
99.4241934335
 10
164.9300776439
 20
99.4150936174
 10
164.91909061
 20
99.4046330643
 10
164.9076098717
 20
99.3925927855
 10
164.8956722914
 20
99.3790802654
 10
164.8832614483
 20
99.3641070775
  0
LWPOLYLINE
  5
3B1
100
AcDbEntity
  8
RACCORDO
100
AcDbPolyline
 62
7
  6
CONTINUOUS
 90
6
 70
0
 10
166.0822385418
 20
102.8839104748
 10
166.0213320157
 20
102.9043929958
 10
165.9602664486
 20
102.9175138163
 10
165.8970954388
 20
102.9239752684
 10
165.8323433847
 20
102.9236111361
 10
165.7663653844
 20
102.9163285338
  0
LINE
  5
3B2
100
AcDbEntity
  8
RACCORDO
100
AcDbLine
 62
7
  6
CONTINUOUS
 10
166.1531125825
 20
102.8554639336
 11
166.1522693636
 21
102.855801039
  0
LINE
  5
3B3
100
AcDbEntity
  8
RACCORDO
100
AcDbLine
 62
253
  6
CONTINUOUS
 10
165.7909102371
 20
102.7993241481
 11
165.6991835233
 21
102.8361636643
  0
LINE
  5
3B4
100
AcDbEntity
  8
ASSI
100
AcDbLine
 62
7
  6
CONTINUOUS
 10
166.0820394688
 20
102.8840084984
 11
166.1531626993
 21
102.8554438055
  0
LINE
  5
3B5
100
AcDbEntity
  8
RACCORDO
100
AcDbLine
 62
7
  6
CONTINUOUS
 10
166.0821464746
 20
102.8839655224
 11
166.082227095
 21
102.8839331309
  0
LINE
  5
3B6
100
AcDbEntity
  8
ASSI
100
AcDbLine
 62
7
  6
CONTINUOUS
 10
145.165156259
 20
121.6332038375
 11
145.1652519914
 21
121.6330660919
  0
LWPOLYLINE
  5
3B7
100
AcDbEntity
  8
RACCORDO
100
AcDbPolyline
 62
253
  6
CONTINUOUS
 90
11
 70
0
 10
152.763153319
 20
113.79912145
 10
152.7665833356
 20
113.7930549537
 10
152.7694444268
 20
113.7872256574
 10
152.771728315
 20
113.7816496595
 10
152.7734284166
 20
113.7763419116
 10
152.7745393649
 20
113.7713176618
 10
152.7750575728
 20
113.7665921429
 10
152.7749816628
 20
113.7621786907
 10
152.7743119244
 20
113.7580888668
 10
152.7730501478
 20
113.7543337506
 10
152.771708315
 20
113.7517283881
  0
LWPOLYLINE
  5
3B8
100
AcDbEntity
  8
DRAFT
100
AcDbPolyline
 62
7
  6
CONTINUOUS
 90
37
 70
0
 10
160.9593595585
 20
118.4202944526
 10
160.955636319
 20
118.4600251038
 10
160.9319950081
 20
118.5693321059
 10
160.8953847403
 20
118.6767952434
 10
160.8457286605
 20
118.7821496266
 10
160.7831036239
 20
118.8856601451
 10
160.7081762538
 20
118.9862020216
 10
160.620549469
 20
119.0839840655
 10
160.5206203507
 20
119.1787974672
 10
160.4102467657
 20
119.2688910213
 10
160.2896029824
 20
119.3539549578
 10
160.1585147323
 20
119.4342990466
 10
160.0183170775
 20
119.5091013919
 10
159.868458214
 20
119.5784883757
 10
159.7094899457
 20
119.6423336162
 10
159.5444027457
 20
119.6994360717
 10
159.3735907847
 20
119.7495421996
 10
159.196659892
 20
119.7929055427
 10
159.0154180288
 20
119.8290856878
 10
158.8292940426
 20
119.8580722427
 10
158.6388590858
 20
119.8798755995
 10
158.4476345775
 20
119.8940865216
 10
158.2560992542
 20
119.90056207
 10
158.0637743794
 20
119.8994451836
 10
157.8727451618
 20
119.8907554419
 10
157.6825989198
 20
119.8743628308
 10
157.4937483351
 20
119.8503973646
 10
157.3095166612
 20
119.8192686655
 10
157.1303099547
 20
119.7809256941
 10
156.955722159
 20
119.73541949
 10
156.7878583581
 20
119.6833127943
 10
156.6265921267
 20
119.6244469454
 10
156.4720498901
 20
119.558980605
 10
156.3267160085
 20
119.4879524986
 10
156.1914186019
 20
119.4117088684
 10
156.0653295503
 20
119.3299034723
 10
155.9484488536
 20
119.2425363103
  0
LWPOLYLINE
  5
3B9
100
AcDbEntity
  8
RACCORDO
100
AcDbPolyline
 62
253
  6
CONTINUOUS
 90
7
 70
0
 10
159.411678772
 20
84.5628316876
 10
159.4320676003
 20
84.6250865647
 10
159.4491190716
 20
84.6904387882
 10
159.4626802919
 20
84.7588897606
 10
159.4725782037
 20
84.8303754693
 10
159.478635923
 20
84.9047561723
 10
159.4806900935
 20
84.981901035
  0
LINE
  5
3BA
100
AcDbEntity
  8
RACCORDO
100
AcDbLine
 62
7
  6
CONTINUOUS
 10
164.9729112965
 20
99.4285217306
 11
164.9936234176
 21
99.4743420668
  0
LINE
  5
3BB
100
AcDbEntity
  8
RACCORDO
100
AcDbLine
 62
253
  6
CONTINUOUS
 10
151.2640090089
 20
74.3516225772
 11
150.7579596508
 21
73.5283613655
  0
LINE
  5
3BC
100
AcDbEntity
  8
RACCORDO
100
AcDbLine
 62
7
  6
CONTINUOUS
 10
150.8274931231
 20
112.2240256226
 11
151.3375317391
 21
112.2196114154
  0
LINE
  5
3BD
100
AcDbEntity
  8
RACCORDO
100
AcDbLine
 62
253
  6
CONTINUOUS
 10
151.0336070223
 20
112.3910868101
 11
151.6119491459
 21
112.3860814598
  0
LWPOLYLINE
  5
3BE
100
AcDbEntity
  8
RACCORDO
100
AcDbPolyline
 62
7
  6
CONTINUOUS
 90
10
 70
0
 10
150.8274931231
 20
112.2240256226
 10
150.8165514158
 20
112.2243600006
 10
150.8056070997
 20
112.2251757204
 10
150.7946884576
 20
112.2264738969
 10
150.783829193
 20
112.2282524731
 10
150.7730551933
 20
112.230508009
 10
150.7623831732
 20
112.2332377897
 10
150.7518387258
 20
112.2364360455
 10
150.7414576715
 20
112.2400912193
 10
150.7364586937
 20
112.2420375373
  0
LWPOLYLINE
  5
3BF
100
AcDbEntity
  8
RACCORDO
100
AcDbPolyline
 62
253
  6
CONTINUOUS
 90
31
 70
0
 10
150.6862625962
 20
112.3565546826
 10
150.6971368638
 20
112.3524255076
 10
150.7083717454
 20
112.3486272056
 10
150.7199366686
 20
112.3451701127
 10
150.731800145
 20
112.3420636408
 10
150.7439299088
 20
112.3393162379
 10
150.7562930084
 20
112.3369353703
 10
150.7688558419
 20
112.3349275164
 10
150.7815841883
 20
112.333298153
 10
150.794443354
 20
112.332051724
 10
150.8073983263
 20
112.3311916221
 10
150.82041387
 20
112.3307201859
 10
150.833454566
 20
112.3306386983
 10
150.8464849373
 20
112.3309473815
 10
150.8594695141
 20
112.3316453956
 10
150.8723729305
 20
112.332730838
 10
150.8851600532
 20
112.3342007495
 10
150.8977961069
 20
112.3360511287
 10
150.9102467371
 20
112.3382769434
 10
150.9224781728
 20
112.3408721619
 10
150.9344570147
 20
112.3438297031
 10
150.9461503782
 20
112.3471414323
 10
150.9575262804
 20
112.3507982481
 10
150.9685539898
 20
112.3547902273
 10
150.9792037902
 20
112.3591065957
 10
150.9894477179
 20
112.363736092
 10
150.9992568013
 20
112.3686656984
 10
151.0086018168
 20
112.3738805128
 10
151.0174569454
 20
112.3793655988
 10
151.0257994227
 20
112.3851062983
 10
151.0336070223
 20
112.3910868101
  0
LINE
  5
3C0
100
AcDbEntity
  8
RACCORDO
100
AcDbLine
 62
7
  6
CONTINUOUS
 10
134.2381633479
 20
118.4151627125
 11
135.7826310827
 21
117.794869651
  0
LINE
  5
3C1
100
AcDbEntity
  8
RACCORDO
100
AcDbLine
 62
7
  6
CONTINUOUS
 10
149.720136985
 20
112.1972530669
 11
151.2646047198
 21
111.5769600054
  0
LINE
  5
3C2
100
AcDbEntity
  8
RACCORDO
100
AcDbLine
 62
7
  6
CONTINUOUS
 10
146.2304754497
 20
113.9703485509
 11
139.8458690543
 21
116.5345504169
  0
LINE
  5
3C3
100
AcDbEntity
  8
RACCORDO
100
AcDbLine
 62
7
  6
CONTINUOUS
 10
133.7195746358
 20
119.076401804
 11
135.2545109962
 21
118.4599367574
  0
LINE
  5
3C4
100
AcDbEntity
  8
RACCORDO
100
AcDbLine
 62
7
  6
CONTINUOUS
 10
149.2015482729
 20
112.8584921585
 11
150.7364846332
 21
112.2420271118
  0
LINE
  5
3C5
100
AcDbEntity
  8
RACCORDO
100
AcDbLine
 62
253
  6
CONTINUOUS
 10
133.6693525988
 20
119.1909293749
 11
135.2042889592
 21
118.5744643282
  0
LINE
  5
3C6
100
AcDbEntity
  8
RACCORDO
100
AcDbLine
 62
253
  6
CONTINUOUS
 10
149.1513262358
 20
112.9730197293
 11
150.6862625962
 21
112.3565546826
  0
LWPOLYLINE
  5
3C7
100
AcDbEntity
  8
RACCORDO
100
AcDbPolyline
 62
7
  6
CONTINUOUS
 90
24
 70
0
 10
133.7195957011
 20
119.0763933488
 10
133.7116991209
 20
119.0797222432
 10
133.6998045586
 20
119.085357173
 10
133.6882162886
 20
119.0916141671
 10
133.6769831976
 20
119.0984665168
 10
133.6661299132
 20
119.1058977043
 10
133.6556606897
 20
119.1139070639
 10
133.6456022775
 20
119.1224803847
 10
133.6359961816
 20
119.131588092
 10
133.6268699485
 20
119.1412089249
 10
133.6182566783
 20
119.1513125379
 10
133.6101810161
 20
119.1618742623
 10
133.6026582987
 20
119.1728813206
 10
133.5957135782
 20
119.1843078327
 10
133.5893748475
 20
119.196118908
 10
133.5836628013
 20
119.2082881866
 10
133.5785998005
 20
119.2207825867
 10
133.5742071421
 20
119.2335653183
 10
133.5705025579
 20
119.2466028324
 10
133.5675029252
 20
119.2598575925
 10
133.5652233118
 20
119.273288698
 10
133.5636759663
 20
119.2868557327
 10
133.5628708042
 20
119.3005148661
 10
133.5627467081
 20
119.3083977081
  0
LWPOLYLINE
  5
3C8
100
AcDbEntity
  8
RACCORDO
100
AcDbPolyline
 62
7
  6
CONTINUOUS
 90
24
 70
0
 10
149.2015693381
 20
112.8584837032
 10
149.1936727579
 20
112.8618125977
 10
149.1817781957
 20
112.8674475274
 10
149.1701899257
 20
112.8737045215
 10
149.1589568347
 20
112.8805568713
 10
149.1481035503
 20
112.8879880588
 10
149.1376343268
 20
112.8959974184
 10
149.1275759145
 20
112.9045707392
 10
149.1179698187
 20
112.9136784464
 10
149.1088435856
 20
112.9232992793
 10
149.1002303154
 20
112.9334028923
 10
149.0921546531
 20
112.9439646167
 10
149.0846319358
 20
112.954971675
 10
149.0776872153
 20
112.9663981872
 10
149.0713484845
 20
112.9782092625
 10
149.0656364383
 20
112.990378541
 10
149.0605734375
 20
113.0028729412
 10
149.0561807792
 20
113.0156556727
 10
149.0524761949
 20
113.0286931868
 10
149.0494765622
 20
113.0419479469
 10
149.0471969488
 20
113.0553790524
 10
149.0456496033
 20
113.0689460871
 10
149.0448444412
 20
113.0826052206
 10
149.0447203452
 20
113.0904880626
  0
LWPOLYLINE
  5
3C9
100
AcDbEntity
  8
RACCORDO
100
AcDbPolyline
 62
253
  6
CONTINUOUS
 90
19
 70
0
 10
133.6693525988
 20
119.1909293749
 10
133.6588685358
 20
119.1953781869
 10
133.6488032064
 20
119.2001345298
 10
133.6391840003
 20
119.2051854609
 10
133.6300371068
 20
119.2105172272
 10
133.6213874018
 20
119.2161153274
 10
133.6132583875
 20
119.2219645547
 10
133.6056721703
 20
119.2280490139
 10
133.5986494267
 20
119.2343521335
 10
133.5922093031
 20
119.2408567341
 10
133.5863693333
 20
119.2475451047
 10
133.5811453993
 20
119.254399054
 10
133.5765517172
 20
119.2613999302
 10
133.5726007846
 20
119.2685286878
 10
133.5693033571
 20
119.2757659219
 10
133.5666684135
 20
119.28309192
 10
133.564703122
 20
119.2904867336
 10
133.563412821
 20
119.2979302509
 10
133.562801016
 20
119.3054022341
  0
LWPOLYLINE
  5
3CA
100
AcDbEntity
  8
RACCORDO
100
AcDbPolyline
 62
253
  6
CONTINUOUS
 90
20
 70
0
 10
133.6693525988
 20
119.512502324
 10
133.6588672852
 20
119.5169516962
 10
133.6488007875
 20
119.5217086842
 10
133.6391805086
 20
119.5267603419
 10
133.6300326277
 20
119.5320929273
 10
133.6213820583
 20
119.5376919223
 10
133.6132523749
 20
119.5435420698
 10
133.6056657101
 20
119.5496274412
 10
133.5986427065
 20
119.5559314762
 10
133.5922024844
 20
119.5624370094
 10
133.5863625714
 20
119.5691263312
 10
133.5811388588
 20
119.5759812341
 10
133.5765455634
 20
119.5829830566
 10
133.5725951793
 20
119.5901127481
 10
133.5692984606
 20
119.5973508937
 10
133.5666643853
 20
119.604677763
 10
133.5647001177
 20
119.6120733811
 10
133.5634109797
 20
119.6195176483
 10
133.5628004655
 20
119.6269903677
 10
133.5627467088
 20
119.6299516462
  0
LWPOLYLINE
  5
3CB
100
AcDbEntity
  8
RACCORDO
100
AcDbPolyline
 62
253
  6
CONTINUOUS
 90
19
 70
0
 10
149.1513262358
 20
112.9730197293
 10
149.1408421729
 20
112.9774685413
 10
149.1307768434
 20
112.9822248843
 10
149.1211576374
 20
112.9872758153
 10
149.1120107439
 20
112.9926075816
 10
149.1033610388
 20
112.9982056818
 10
149.0952320246
 20
113.0040549091
 10
149.0876458073
 20
113.0101393683
 10
149.0806230638
 20
113.0164424879
 10
149.0741829402
 20
113.0229470885
 10
149.0683429704
 20
113.0296354591
 10
149.0631190364
 20
113.0364894084
 10
149.0585253542
 20
113.0434902846
 10
149.0545744216
 20
113.0506190422
 10
149.0512769942
 20
113.0578562763
 10
149.0486420506
 20
113.0651822744
 10
149.0466767591
 20
113.072577088
 10
149.045386458
 20
113.0800206053
 10
149.044774653
 20
113.0874925885
  0
LWPOLYLINE
  5
3CC
100
AcDbEntity
  8
RACCORDO
100
AcDbPolyline
 62
253
  6
CONTINUOUS
 90
20
 70
0
 10
149.1513262358
 20
113.2945926785
 10
149.1408431828
 20
113.299041038
 10
149.1307787787
 20
113.3037968692
 10
149.1211604054
 20
113.308847233
 10
149.1120142314
 20
113.314178389
 10
149.1033651403
 20
113.3197758328
 10
149.0952366634
 20
113.3256243358
 10
149.0876509158
 20
113.331707986
 10
149.0806285356
 20
113.3380102318
 10
149.0741886284
 20
113.344513927
 10
149.0683487152
 20
113.351201377
 10
149.0631246844
 20
113.3580543877
 10
149.0585307488
 20
113.3650543141
 10
149.054579407
 20
113.3721821119
 10
149.0512814094
 20
113.3794183885
 10
149.0486457286
 20
113.3867434566
 10
149.0466795356
 20
113.394137387
 10
149.0453881796
 20
113.4015800633
 10
149.0447751741
 20
113.4090512364
 10
149.0447203449
 20
113.412054256
  0
LINE
  5
3CD
100
AcDbEntity
  8
RACCORDO
100
AcDbLine
 62
253
  6
CONTINUOUS
 10
164.9056216309
 20
118.5598803727
 11
164.9056875106
 21
118.5465229824
  0
LINE
  5
3CE
100
AcDbEntity
  8
RACCORDO
100
AcDbLine
 62
253
  6
CONTINUOUS
 10
164.9056875106
 20
118.5465229824
 11
164.9056875106
 21
114.3152326516
  0
LINE
  5
3CF
100
AcDbEntity
  8
RACCORDO
100
AcDbLine
 62
253
  6
CONTINUOUS
 10
164.9056875106
 20
101.6188062934
 11
164.9056875106
 21
112.6669002387
  0
LWPOLYLINE
  5
3D0
100
AcDbEntity
  8
RACCORDO
100
AcDbPolyline
 62
253
  6
CONTINUOUS
 90
24
 70
0
 10
165.0766497719
 20
114.9945894605
 10
165.076623711
 20
114.9832332547
 10
165.0760104258
 20
114.9350563967
 10
165.0746126157
 20
114.8882477407
 10
165.0724694134
 20
114.8428431501
 10
165.0695998763
 20
114.7988294886
 10
165.0660281014
 20
114.7561813305
 10
165.0617802823
 20
114.7149439255
 10
165.0568535987
 20
114.6752107087
 10
165.0512604306
 20
114.6369498173
 10
165.0450172631
 20
114.6002117404
 10
165.0381077071
 20
114.5652151432
 10
165.0305323419
 20
114.5319253298
 10
165.0223035047
 20
114.5003966879
 10
165.0134103047
 20
114.4709832878
 10
165.0038399424
 20
114.4436823024
 10
164.9936117992
 20
114.4185176238
 10
164.9827660777
 20
114.39588264
 10
164.9713206936
 20
114.3758827856
 10
164.9592818548
 20
114.3584293302
 10
164.9466815634
 20
114.3436217732
 10
164.9335419376
 20
114.331497415
 10
164.9198720687
 20
114.3220322818
 10
164.9056875106
 20
114.3152326516
  0
LWPOLYLINE
  5
3D1
100
AcDbEntity
  8
RACCORDO
100
AcDbPolyline
 62
7
  6
CONTINUOUS
 90
7
 70
0
 10
165.0766506106
 20
112.6279160574
 10
165.0766619314
 20
112.6300561525
 10
165.0779434323
 20
112.6494893168
 10
165.0807296138
 20
112.6653251231
 10
165.0841753162
 20
112.6774804019
 10
165.0875525346
 20
112.6861299421
 10
165.0901648207
 20
112.6913565911
  0
LINE
  5
3D2
100
AcDbEntity
  8
RACCORDO
100
AcDbLine
 62
253
  6
CONTINUOUS
 10
165.0765771172
 20
118.8821613439
 11
165.0736147722
 21
118.8352800258
  0
LWPOLYLINE
  5
3D3
100
AcDbEntity
  8
RACCORDO
100
AcDbPolyline
 62
253
  6
CONTINUOUS
 90
8
 70
0
 10
165.076649938
 20
118.8672628552
 10
165.073791282
 20
118.8239240776
 10
165.0635682584
 20
118.7747902564
 10
165.0460000723
 20
118.7263446647
 10
165.0212174753
 20
118.6789478599
 10
164.9894049124
 20
118.6329525938
 10
164.9507991494
 20
118.5887011872
 10
164.9056875106
 20
118.5465229824
  0
LWPOLYLINE
  5
3D4
100
AcDbEntity
  8
RACCORDO
100
AcDbPolyline
 62
253
  6
CONTINUOUS
 90
6
 70
0
 10
164.8832614483
 20
99.3641070775
 10
164.8631979278
 20
99.3035712796
 10
164.8369971803
 20
99.2474621651
 10
164.8048614046
 20
99.1962190681
 10
164.7670356376
 20
99.1502397816
 10
164.7355497227
 20
99.119817261
  0
LWPOLYLINE
  5
3D5
100
AcDbEntity
  8
RACCORDO
100
AcDbPolyline
 62
253
  6
CONTINUOUS
 90
7
 70
0
 10
164.7374749
 20
99.1911506204
 10
164.7515147797
 20
99.2292025264
 10
164.7631178615
 20
99.2690950529
 10
164.7722239103
 20
99.3107191678
 10
164.7787801278
 20
99.3539584236
 10
164.7827415034
 20
99.3986891982
 10
164.7840711453
 20
99.4447809688
  0
LWPOLYLINE
  5
3D6
100
AcDbEntity
  8
RACCORDO
100
AcDbPolyline
 62
7
  6
CONTINUOUS
 90
8
 70
0
 10
159.4369624478
 20
84.5163595116
 10
159.4747837849
 20
84.582120706
 10
159.5269858894
 20
84.6893805438
 10
159.5706299086
 20
84.8021270797
 10
159.6054160567
 20
84.9203646299
 10
159.6308531625
 20
85.0437499633
 10
159.6463968007
 20
85.1714117271
 10
159.651652521
 20
85.3026409078
  0
LINE
  5
3D7
100
AcDbEntity
  8
RACCORDO
100
AcDbLine
 62
253
  6
CONTINUOUS
 10
151.6119491459
 20
74.2676810404
 11
151.0336070223
 21
73.3268110842
  0
LWPOLYLINE
  5
3D8
100
AcDbEntity
  8
RACCORDO
100
AcDbPolyline
 62
253
  6
CONTINUOUS
 90
8
 70
0
 10
159.4806900935
 20
84.981901035
 10
159.5258017324
 20
85.0240792399
 10
159.5644074954
 20
85.0683306464
 10
159.5962200583
 20
85.1143259125
 10
159.6210026553
 20
85.1617227173
 10
159.6385708414
 20
85.210168309
 10
159.6487938649
 20
85.2593021303
 10
159.651652521
 20
85.3026409078
  0
LINE
  5
3D9
100
AcDbEntity
  8
RACCORDO
100
AcDbLine
 62
253
  6
CONTINUOUS
 10
159.4806900935
 20
84.981901035
 11
153.3188704186
 21
79.7421235046
  0
LWPOLYLINE
  5
3DA
100
AcDbEntity
  8
RACCORDO
100
AcDbPolyline
 62
253
  6
CONTINUOUS
 90
18
 70
0
 10
149.2938861165
 20
113.6161554416
 10
149.2831238792
 20
113.620144763
 10
149.2723934173
 20
113.6235635037
 10
149.2617241541
 20
113.6264022858
 10
149.2511453357
 20
113.6286533234
 10
149.2406859807
 20
113.6303104374
 10
149.2303747994
 20
113.6313690779
 10
149.2202400718
 20
113.6318263434
 10
149.2103095808
 20
113.6316809822
 10
149.2006105646
 20
113.6309333955
 10
149.1911696189
 20
113.6295856364
 10
149.1820126278
 20
113.6276414036
 10
149.1731647016
 20
113.6251060322
 10
149.1646500897
 20
113.621986474
 10
149.1564921476
 20
113.618291289
 10
149.1487132712
 20
113.6140306306
 10
149.1413348131
 20
113.6092162124
 10
149.1341826962
 20
113.6036988834
  0
LWPOLYLINE
  5
3DB
100
AcDbEntity
  8
RACCORDO
100
AcDbPolyline
 62
253
  6
CONTINUOUS
 90
18
 70
0
 10
133.8119124795
 20
119.8340650871
 10
133.8011526007
 20
119.8380535957
 10
133.7904244992
 20
119.8414717694
 10
133.7797575786
 20
119.8443102397
 10
133.7691810751
 20
119.846561227
 10
133.7587239768
 20
119.8482185615
 10
133.7484149447
 20
119.8492777011
 10
133.7382822339
 20
119.8497357426
 10
133.7283536162
 20
119.8495914307
 10
133.7186563042
 20
119.848845161
 10
133.7092168763
 20
119.8474989789
 10
133.7000612043
 20
119.8455565739
 10
133.6912143821
 20
119.8430232698
 10
133.6827006572
 20
119.8399060099
 10
133.6745433641
 20
119.8362133381
 10
133.6667648604
 20
119.8319553754
 10
133.6593864656
 20
119.8271437918
 10
133.6522006826
 20
119.8216015121
  0
LWPOLYLINE
  5
3DC
100
AcDbEntity
  8
RACCORDO
100
AcDbPolyline
 62
7
  6
CONTINUOUS
 90
20
 70
0
 10
150.5745375992
 20
114.6890320279
 10
150.5647936829
 20
114.692713621
 10
150.5550716805
 20
114.6959228535
 10
150.5453936969
 20
114.6986525225
 10
150.5357817999
 20
114.7008965646
 10
150.5262577685
 20
114.7026498983
 10
150.5168430429
 20
114.7039084353
 10
150.5075589969
 20
114.7046693622
 10
150.4984267355
 20
114.7049310146
 10
150.4894668445
 20
114.7046927103
 10
150.4806996506
 20
114.7039550125
 10
150.4721450724
 20
114.7027196391
 10
150.4638224218
 20
114.7009893283
 10
150.4557505641
 20
114.6987680086
 10
150.4479478263
 20
114.6960607456
 10
150.4404318521
 20
114.6928736426
 10
150.4332196612
 20
114.6892139137
 10
150.4263276154
 20
114.6850898688
 10
150.4197713304
 20
114.6805108522
 10
150.4170848153
 20
114.6784251542
  0
LWPOLYLINE
  5
3DD
100
AcDbEntity
  8
RACCORDO
100
AcDbPolyline
 62
253
  6
CONTINUOUS
 90
31
 70
0
 10
150.6862625962
 20
112.6781276318
 10
150.6971382094
 20
112.6739979743
 10
150.7083745471
 20
112.6701992632
 10
150.7199410279
 20
112.6667418406
 10
150.7318061839
 20
112.6636351167
 10
150.7439377091
 20
112.6608875539
 10
150.7563025453
 20
112.6585066404
 10
150.7688670263
 20
112.6564988573
 10
150.7815969614
 20
112.6548696668
 10
150.7944576887
 20
112.6536235036
 10
150.8074141997
 20
112.6527637577
 10
150.8204312302
 20
112.652292767
 10
150.8334733441
 20
112.6522118115
 10
150.8465050577
 20
112.6525211097
 10
150.8594908855
 20
112.6532198176
 10
150.8723954323
 20
112.654306026
 10
150.8851835227
 20
112.6557767645
 10
150.8978204073
 20
112.6576280271
 10
150.9102718022
 20
112.6598547893
 10
150.9225039732
 20
112.6624510294
 10
150.9344834618
 20
112.6654096575
 10
150.9461773104
 20
112.6687225181
 10
150.9575534989
 20
112.6723804913
 10
150.9685813254
 20
112.6763736549
 10
150.9792311037
 20
112.680691241
 10
150.9894760575
 20
112.6853225524
 10
150.9992859097
 20
112.6902540667
 10
151.0086282009
 20
112.6954689759
 10
151.0174766138
 20
112.7009513883
 10
151.0258100895
 20
112.7066869898
 10
151.0336070223
 20
112.7126597593
  0
LWPOLYLINE
  5
3DE
100
AcDbEntity
  8
RACCORDO
100
AcDbPolyline
 62
253
  6
CONTINUOUS
 90
31
 70
0
 10
135.2042889592
 20
118.5744643282
 10
135.2151632268
 20
118.5703351531
 10
135.2263981083
 20
118.5665368512
 10
135.2379630315
 20
118.5630797583
 10
135.2498265079
 20
118.5599732864
 10
135.2619562717
 20
118.5572258835
 10
135.2743193713
 20
118.5548450158
 10
135.2868822048
 20
118.552837162
 10
135.2996105512
 20
118.5512077986
 10
135.312469717
 20
118.5499613695
 10
135.3254246892
 20
118.5491012677
 10
135.3384402329
 20
118.5486298315
 10
135.3514809289
 20
118.5485483439
 10
135.3645113002
 20
118.5488570271
 10
135.377495877
 20
118.5495550411
 10
135.3903992935
 20
118.5506404836
 10
135.4031864161
 20
118.5521103951
 10
135.4158224698
 20
118.5539607743
 10
135.4282731
 20
118.556186589
 10
135.4405045357
 20
118.5587818074
 10
135.4524833776
 20
118.5617393487
 10
135.4641767412
 20
118.5650510779
 10
135.4755526434
 20
118.5687078937
 10
135.4865803527
 20
118.5726998729
 10
135.4972301531
 20
118.5770162413
 10
135.5074740808
 20
118.5816457375
 10
135.5172831642
 20
118.586575344
 10
135.5266281798
 20
118.5917901584
 10
135.5354833084
 20
118.5972752444
 10
135.5438257856
 20
118.6030159439
 10
135.5516333853
 20
118.6089964557
  0
LWPOLYLINE
  5
3DF
100
AcDbEntity
  8
RACCORDO
100
AcDbPolyline
 62
253
  6
CONTINUOUS
 90
31
 70
0
 10
135.2042889592
 20
118.8960372774
 10
135.2151363401
 20
118.8919177442
 10
135.2263496605
 20
118.8881252215
 10
135.2378991524
 20
118.8846706099
 10
135.2497565004
 20
118.8815633232
 10
135.2618876465
 20
118.8788132078
 10
135.2742523604
 20
118.8764297696
 10
135.2868142764
 20
118.874419886
 10
135.2995418271
 20
118.8727884774
 10
135.3124007162
 20
118.871539955
 10
135.3253561951
 20
118.8706777341
 10
135.3383727756
 20
118.8702042174
 10
135.3514146606
 20
118.8701207206
 10
135.3644461916
 20
118.8704274616
 10
135.3774320622
 20
118.8711235988
 10
135.39033704
 20
118.8722072452
 10
135.4031260516
 20
118.8736754651
 10
135.4157642329
 20
118.8755242652
 10
135.4282171363
 20
118.8777486113
 10
135.4404508527
 20
118.8803424482
 10
135.4524320962
 20
118.8832987207
 10
135.4641282496
 20
118.8866093831
 10
135.4755074781
 20
118.8902654267
 10
135.4865388052
 20
118.8942569016
 10
135.4971921938
 20
118.898572941
 10
135.5074386527
 20
118.9032018016
 10
135.5172502837
 20
118.9081308818
 10
135.5266003517
 20
118.9133467497
 10
135.5354634017
 20
118.9188352008
 10
135.5438153226
 20
118.9245812997
 10
135.5516333853
 20
118.9305694049
  0
LINE
  5
3E0
100
AcDbEntity
  8
RACCORDO
100
AcDbLine
 62
253
  6
CONTINUOUS
 10
150.6862625962
 20
112.6781276318
 11
149.1513262358
 21
113.2945926785
  0
LINE
  5
3E1
100
AcDbEntity
  8
RACCORDO
100
AcDbLine
 62
253
  6
CONTINUOUS
 10
135.2042889592
 20
118.8960372774
 11
133.6693525988
 21
119.512502324
  0
LINE
  5
3E2
100
AcDbEntity
  8
DRAFT
100
AcDbLine
 62
7
  6
CONTINUOUS
 10
149.0953871161
 20
113.5628729155
 11
147.2160176833
 21
114.3176700491
  0
LINE
  5
3E3
100
AcDbEntity
  8
DRAFT
100
AcDbLine
 62
7
  6
CONTINUOUS
 10
139.6326572725
 20
117.363318553
 11
136.853744323
 21
118.4793926426
  0
LINE
  5
3E4
100
AcDbEntity
  8
RACCORDO
100
AcDbLine
 62
253
  6
CONTINUOUS
 10
150.8288224769
 20
112.9996903949
 11
149.2938861165
 21
113.6161554416
  0
LINE
  5
3E5
100
AcDbEntity
  8
RACCORDO
100
AcDbLine
 62
253
  6
CONTINUOUS
 10
135.3468488399
 20
119.2176000405
 11
133.8119124795
 21
119.8340650871
  0
LINE
  5
3E6
100
AcDbEntity
  8
RACCORDO
100
AcDbLine
 62
253
  6
CONTINUOUS
 10
146.2304754497
 20
114.9924456213
 11
139.8458690543
 21
117.5566474873
  0
LINE
  5
3E7
100
AcDbEntity
  8
RACCORDO
100
AcDbLine
 62
253
  6
CONTINUOUS
 10
146.6714671603
 20
115.1183878285
 11
139.6329731529
 21
117.945205701
  0
LINE
  5
3E8
100
AcDbEntity
  8
RACCORDO
100
AcDbLine
 62
7
  6
CONTINUOUS
 10
136.853744323
 20
119.1724515492
 11
138.239324172
 21
118.6159714447
  0
LINE
  5
3E9
100
AcDbEntity
  8
RACCORDO
100
AcDbLine
 62
7
  6
CONTINUOUS
 10
152.3357179601
 20
112.9545419037
 11
152.909169619
 21
112.7242307893
  0
LINE
  5
3EA
100
AcDbEntity
  8
DRAFT
100
AcDbLine
 62
7
  6
CONTINUOUS
 10
140.0074796935
 20
118.3595942805
 11
147.2160176833
 21
115.4644829112
  0
LINE
  5
3EB
100
AcDbEntity
  8
RACCORDO
100
AcDbLine
 62
7
  6
CONTINUOUS
 10
135.0925639621
 20
120.9069416734
 11
136.6489597776
 21
120.2818580258
  0
LINE
  5
3EC
100
AcDbEntity
  8
RACCORDO
100
AcDbLine
 62
7
  6
CONTINUOUS
 10
150.5745375992
 20
114.6890320279
 11
152.1309334146
 21
114.0639483802
  0
LINE
  5
3ED
100
AcDbEntity
  8
DRAFT
100
AcDbLine
 62
7
  6
CONTINUOUS
 10
147.0523572797
 20
116.2256544699
 11
141.3182929697
 21
118.5285839682
  0
LWPOLYLINE
  5
3EE
100
AcDbEntity
  8
RACCORDO
100
AcDbPolyline
 62
7
  6
CONTINUOUS
 90
24
 70
0
 10
137.1687329802
 20
120.6593044542
 10
137.1808230805
 20
120.6540748129
 10
137.1926459041
 20
120.648202388
 10
137.2041609898
 20
120.6417028497
 10
137.2153257817
 20
120.6345971913
 10
137.2261060642
 20
120.6269052753
 10
137.2364750741
 20
120.6186439006
 10
137.246390683
 20
120.6098452704
 10
137.2558272921
 20
120.6005320219
 10
137.2647807599
 20
120.5907039458
 10
137.2732196405
 20
120.5803872675
 10
137.2811107484
 20
120.5696152112
 10
137.2884426098
 20
120.558393073
 10
137.2951959361
 20
120.5467324503
 10
137.3013291127
 20
120.5346871724
 10
137.3068031499
 20
120.5223259661
 10
137.311598269
 20
120.5096946976
 10
137.3157035657
 20
120.4968243265
 10
137.3191053612
 20
120.483760849
 10
137.3217962352
 20
120.4705375645
 10
137.3237689335
 20
120.4571946652
 10
137.3250178959
 20
120.443783798
 10
137.3255427129
 20
120.4303314682
 10
137.325560908
 20
120.4273116705
  0
LWPOLYLINE
  5
3EF
100
AcDbEntity
  8
RACCORDO
100
AcDbPolyline
 62
7
  6
CONTINUOUS
 90
37
 70
0
 10
152.3356323811
 20
112.2611608005
 10
152.3529977493
 20
112.2528991353
 10
152.3703564722
 20
112.2439052626
 10
152.3876758574
 20
112.2341920912
 10
152.4049448658
 20
112.2237651624
 10
152.4221083514
 20
112.2126478581
 10
152.4390690264
 20
112.2008886844
 10
152.4557800075
 20
112.1885205144
 10
152.4722278364
 20
112.1755627467
 10
152.4883687962
 20
112.1620532785
 10
152.504152678
 20
112.1480421366
 10
152.5195765041
 20
112.1335401447
 10
152.5346658465
 20
112.1185234611
 10
152.5494015215
 20
112.1030077844
 10
152.5637452639
 20
112.0870301902
 10
152.5776891378
 20
112.07059304
 10
152.5912251446
 20
112.0536968961
 10
152.6043017091
 20
112.0363964867
 10
152.6168493414
 20
112.0187787143
 10
152.6288437737
 20
112.0008814591
 10
152.6402663684
 20
111.9827356523
 10
152.6510675071
 20
111.9644238822
 10
152.6612295851
 20
111.9459905079
 10
152.6707448582
 20
111.9274643572
 10
152.6795881333
 20
111.9089068677
 10
152.6877463996
 20
111.8903696235
 10
152.695222601
 20
111.8718719088
 10
152.7020184
 20
111.8534259873
 10
152.708128974
 20
111.835067504
 10
152.713552709
 20
111.816826441
 10
152.7182929822
 20
111.7987055801
 10
152.7223480535
 20
111.7807299611
 10
152.7257144166
 20
111.762936692
 10
152.7283907017
 20
111.7453462211
 10
152.7303762774
 20
111.7279850422
 10
152.7316722953
 20
111.7108854107
 10
152.7322809178
 20
111.6940756292
  0
LWPOLYLINE
  5
3F0
100
AcDbEntity
  8
RACCORDO
100
AcDbPolyline
 62
253
  6
CONTINUOUS
 90
13
 70
0
 10
144.5209677307
 20
117.8550637148
 10
144.5416785936
 20
117.8445773029
 10
144.5625725543
 20
117.8320566804
 10
144.5832986164
 20
117.8177122259
 10
144.6035086126
 20
117.8017849512
 10
144.6228630687
 20
117.7845424398
 10
144.6410369034
 20
117.7662743473
 10
144.6577248518
 20
117.747287571
 10
144.6726466433
 20
117.7279010435
 10
144.6855517041
 20
117.7084403581
 10
144.6962233007
 20
117.6892323817
 10
144.7044821975
 20
117.6705997667
 10
144.7101897013
 20
117.6528554756
  0
LWPOLYLINE
  5
3F1
100
AcDbEntity
  8
RACCORDO
100
AcDbPolyline
 62
253
  6
CONTINUOUS
 90
13
 70
0
 10
146.8145934548
 20
116.9338919155
 10
146.8353043176
 20
116.9234055035
 10
146.8561982783
 20
116.910884881
 10
146.8769243404
 20
116.8965404265
 10
146.8971343366
 20
116.8806131519
 10
146.9164887928
 20
116.8633706405
 10
146.9346626274
 20
116.8451025479
 10
146.9513505758
 20
116.8261157717
 10
146.9662723673
 20
116.8067292442
 10
146.9791774281
 20
116.7872685587
 10
146.9898490247
 20
116.7680605824
 10
146.9981079215
 20
116.7494279673
 10
147.0038154253
 20
116.7316836763
  0
LINE
  5
3F2
100
AcDbEntity
  8
DRAFT
100
AcDbLine
 62
7
  6
CONTINUOUS
 10
156.8070569599
 20
114.5115248835
 11
155.9350940343
 21
115.7336877779
  0
LINE
  5
3F3
100
AcDbEntity
  8
ASSI
100
AcDbLine
 62
7
  6
CONTINUOUS
 10
151.6003654264
 20
119.0486796026
 11
151.6004612737
 21
119.0485406292
  0
LWPOLYLINE
  5
3F4
100
AcDbEntity
  8
SMUSSO
100
AcDbPolyline
 62
7
  6
CONTINUOUS
 90
15
 70
0
 10
154.4933143852
 20
118.5839860731
 10
154.4686728151
 20
118.6332596781
 10
154.4238640769
 20
118.7520877106
 10
154.3930227547
 20
118.8727315549
 10
154.3759960173
 20
118.9949794705
 10
154.3732082781
 20
119.1169296666
 10
154.3850427586
 20
119.2386319836
 10
154.4111162375
 20
119.360036581
 10
154.450703464
 20
119.4790921469
 10
154.5042169573
 20
119.5957102172
 10
154.5712441981
 20
119.709979256
 10
154.6498223784
 20
119.8201133438
 10
154.7392972288
 20
119.9255171738
 10
154.8403230186
 20
120.0267860527
 10
154.9528997478
 20
120.1239199805
  0
LINE
  5
3F5
100
AcDbEntity
  8
SMUSSO
100
AcDbLine
 62
253
  6
CONTINUOUS
 10
154.9528997478
 20
120.1239199805
 11
155.3967493202
 21
119.1568733127
  0
LINE
  5
3F6
100
AcDbEntity
  8
0
100
AcDbLine
 62
7
  6
CONTINUOUS
 10
156.5682706702
 20
117.7609455282
 11
156.3238932499
 21
118.3492382863
  0
LWPOLYLINE
  5
3F7
100
AcDbEntity
  8
RACCORDO
100
AcDbPolyline
 62
253
  6
CONTINUOUS
 90
6
 70
0
 10
166.0826850649
 20
100.7829662633
 10
166.0849183021
 20
100.7463247499
 10
166.0814615325
 20
100.7124942144
 10
166.0723735936
 20
100.6820512996
 10
166.0578093006
 20
100.6555149209
 10
166.0480890673
 20
100.6433448839
  0
LWPOLYLINE
  5
3F8
100
AcDbEntity
  8
RACCORDO
100
AcDbPolyline
 62
7
  6
CONTINUOUS
 90
15
 70
0
 10
165.0765783305
 20
118.8821602548
 10
165.0719832208
 20
118.968711014
 10
165.0601164431
 20
119.0534245887
 10
165.0410213101
 20
119.1369306343
 10
165.0147597057
 20
119.218739577
 10
164.9814501743
 20
119.298252136
 10
164.9412899029
 20
119.3748178048
 10
164.8944958397
 20
119.4478704658
 10
164.841346078
 20
119.5168299807
 10
164.7821943161
 20
119.5811093782
 10
164.7174430547
 20
119.6401612053
 10
164.6475130752
 20
119.6934962627
 10
164.5729312804
 20
119.7406158117
 10
164.4943501865
 20
119.7810417115
 10
164.4494072638
 20
119.8003870928
  0
LINE
  5
3F9
100
AcDbEntity
  8
RACCORDO
100
AcDbLine
 62
253
  6
CONTINUOUS
 10
165.0765565055
 20
112.6356323788
 11
165.0766496261
 21
112.6284831562
  0
LINE
  5
3FA
100
AcDbEntity
  8
RACCORDO
100
AcDbLine
 62
253
  6
CONTINUOUS
 10
165.0765751961
 20
118.8823617984
 11
165.0765771172
 21
118.8821613439
  0
LINE
  5
3FB
100
AcDbEntity
  8
RACCORDO
100
AcDbLine
 62
7
  6
CONTINUOUS
 10
165.076649938
 20
118.8672628552
 11
165.0765752021
 21
118.8823611878
  0
LINE
  5
3FC
100
AcDbEntity
  8
RACCORDO
100
AcDbLine
 62
7
  6
CONTINUOUS
 10
165.0766496261
 20
112.6284831562
 11
165.0766499215
 21
112.6279391657
  0
LINE
  5
3FD
100
AcDbEntity
  8
RACCORDO
100
AcDbLine
 62
7
  6
CONTINUOUS
 10
165.076649938
 20
118.8672628552
 11
165.076649938
 21
114.9961316361
  0
LINE
  5
3FE
100
AcDbEntity
  8
RACCORDO
100
AcDbLine
 62
7
  6
CONTINUOUS
 10
165.076649938
 20
112.6272729804
 11
165.076649938
 21
102.1312554724
  0
LINE
  5
3FF
100
AcDbEntity
  8
RACCORDO
100
AcDbLine
 62
7
  6
CONTINUOUS
 10
165.0766499336
 20
114.9954124744
 11
165.0766497719
 21
114.9945894605
  0
LWPOLYLINE
  5
400
100
AcDbEntity
  8
RACCORDO
100
AcDbPolyline
 62
253
  6
CONTINUOUS
 90
13
 70
0
 10
166.0826850649
 20
102.3157101031
 10
166.0849182853
 20
102.3631436821
 10
166.0814612585
 20
102.4119555126
 10
166.0723729075
 20
102.4613136257
 10
166.0578081379
 20
102.5103767413
 10
166.0380151976
 20
102.5583086075
 10
166.0133314457
 20
102.6042922538
 10
165.9841776021
 20
102.6475439161
 10
165.951050577
 20
102.6873263952
 10
165.9145150014
 20
102.7229616223
 10
165.875193603
 20
102.7538422161
 10
165.8337565917
 20
102.7794418349
 10
165.7909102371
 20
102.7993241481
  0
LWPOLYLINE
  5
401
100
AcDbEntity
  8
RACCORDO
100
AcDbPolyline
 62
253
  6
CONTINUOUS
 90
7
 70
0
 10
159.2274631532
 20
84.2554606759
 10
159.2649293437
 20
84.298859019
 10
159.2998831491
 20
84.3454496133
 10
159.3321777776
 20
84.3951955924
 10
159.3616305728
 20
84.4479749518
 10
159.3881472487
 20
84.5037959206
 10
159.411678772
 20
84.5628316876
  0
LWPOLYLINE
  5
402
100
AcDbEntity
  8
RACCORDO
100
AcDbPolyline
 62
7
  6
CONTINUOUS
 90
6
 70
0
 10
159.2274631532
 20
84.2554606759
 10
159.2852152705
 20
84.3157735421
 10
159.3379250308
 20
84.3768824212
 10
159.3855924342
 20
84.438787313
 10
159.4281223429
 20
84.50200931
 10
159.436962255
 20
84.5163596285
  0
LINE
  5
403
100
AcDbEntity
  8
DRAFT
100
AcDbLine
 62
7
  6
CONTINUOUS
 10
159.0964521682
 20
84.1358230951
 11
153.3188704186
 21
79.1713241274
  0
LWPOLYLINE
  5
404
100
AcDbEntity
  8
RACCORDO
100
AcDbPolyline
 62
253
  6
CONTINUOUS
 90
34
 70
0
 10
147.6834114759
 20
72.9419136228
 10
147.6691462767
 20
72.9303995725
 10
147.6540165673
 20
72.9192844644
 10
147.6380558647
 20
72.9085929219
 10
147.6212995267
 20
72.89834863
 10
147.603784674
 20
72.8885742831
 10
147.5855501073
 20
72.8792915344
 10
147.5666362219
 20
72.870520948
 10
147.547084918
 20
72.8622819536
 10
147.5269395078
 20
72.8545928031
 10
147.5062446196
 20
72.8474705303
 10
147.485046099
 20
72.8409309134
 10
147.4633909075
 20
72.8349884395
 10
147.4413270179
 20
72.8296562732
 10
147.4189033086
 20
72.8249462267
 10
147.3961694553
 20
72.8208687345
 10
147.3731758203
 20
72.8174328292
 10
147.3499733418
 20
72.8146461227
 10
147.3266134206
 20
72.8125147882
 10
147.303147806
 20
72.8110435474
 10
147.2796284818
 20
72.8102356595
 10
147.2561075505
 20
72.8100929143
 10
147.2326371184
 20
72.8106156279
 10
147.2092691798
 20
72.8118026424
 10
147.1860555019
 20
72.8136513281
 10
147.1630475102
 20
72.8161575898
 10
147.1402961747
 20
72.8193158751
 10
147.1178518966
 20
72.8231191876
 10
147.095764397
 20
72.8275591017
 10
147.0740826065
 20
72.8326257816
 10
147.0528545571
 20
72.838308003
 10
147.0321272756
 20
72.8445931781
 10
147.0119466793
 20
72.8514673833
 10
146.9923574744
 20
72.8589153899
  0
LWPOLYLINE
  5
405
100
AcDbEntity
  8
RACCORDO
100
AcDbPolyline
 62
7
  6
CONTINUOUS
 90
11
 70
0
 10
146.6714671603
 20
115.1183878285
 10
146.6547888792
 20
115.1150664985
 10
146.6381186682
 20
115.1113290445
 10
146.6214855592
 20
115.1072652151
 10
146.6049090071
 20
115.1029881256
 10
146.5884105288
 20
115.0985528126
 10
146.5720170969
 20
115.0939443926
 10
146.5557434369
 20
115.0892164951
 10
146.5395960522
 20
115.084433567
 10
146.5235902364
 20
115.079575085
 10
146.4920285334
 20
115.069795957
  0
LWPOLYLINE
  5
406
100
AcDbEntity
  8
RACCORDO
100
AcDbPolyline
 62
253
  6
CONTINUOUS
 90
9
 70
0
 10
146.2261626072
 20
117.1702190097
 10
146.204548574
 20
117.1767313557
 10
146.1838287565
 20
117.1809240021
 10
146.1643512036
 20
117.1827265216
 10
146.1464430969
 20
117.1821086356
 10
146.1304052545
 20
117.1790807233
 10
146.116507078
 20
117.1736936472
 10
146.1049820273
 20
117.1660378987
 10
146.0966877983
 20
117.157162891
  0
LWPOLYLINE
  5
407
100
AcDbEntity
  8
RACCORDO
100
AcDbPolyline
 62
7
  6
CONTINUOUS
 90
13
 70
0
 10
144.3737998451
 20
118.689326036
 10
144.3594042269
 20
118.694270715
 10
144.3457062183
 20
118.6979467904
 10
144.3327653944
 20
118.7004242381
 10
144.3206129774
 20
118.701768892
 10
144.309279724
 20
118.7020769442
 10
144.2987983062
 20
118.7014721708
 10
144.2891899282
 20
118.7000507981
 10
144.2804043908
 20
118.6978979592
 10
144.2723645077
 20
118.6951027761
 10
144.2650265533
 20
118.6917250348
 10
144.2583885615
 20
118.6878375104
 10
144.2532369899
 20
118.6841598984
  0
LWPOLYLINE
  5
408
100
AcDbEntity
  8
RACCORDO
100
AcDbPolyline
 62
7
  6
CONTINUOUS
 90
20
 70
0
 10
135.6194995582
 20
121.2815115231
 10
135.6064650882
 20
121.2863302357
 10
135.5930991073
 20
121.2904405133
 10
135.579445974
 20
121.2938140574
 10
135.5655415678
 20
121.2964277325
 10
135.5514464401
 20
121.2982572498
 10
135.5372439853
 20
121.2992839211
 10
135.5229908825
 20
121.2995001077
 10
135.5087320863
 20
121.2989024097
 10
135.4945297451
 20
121.2974919367
 10
135.4804323267
 20
121.295273538
 10
135.4664855643
 20
121.292254623
 10
135.4527401345
 20
121.2884468433
 10
135.4392280673
 20
121.2838590794
 10
135.4259983201
 20
121.2785072179
 10
135.41311611
 20
121.2724196253
 10
135.4006051727
 20
121.265610088
 10
135.3885034224
 20
121.2580997643
 10
135.376881916
 20
121.2499369988
 10
135.3700482277
 20
121.2446551329
  0
LWPOLYLINE
  5
409
100
AcDbEntity
  8
RACCORDO
100
AcDbPolyline
 62
253
  6
CONTINUOUS
 90
15
 70
0
 10
152.6507021468
 20
114.4413966038
 10
152.6481205582
 20
114.4423590931
 10
152.6422001179
 20
114.4440403069
 10
152.6360491414
 20
114.4450829164
 10
152.6296844441
 20
114.4454840528
 10
152.6231235491
 20
114.445242636
 10
152.6163844615
 20
114.4443593995
 10
152.6094854095
 20
114.4428368014
 10
152.6024449802
 20
114.4406789684
 10
152.5952807454
 20
114.4378910898
 10
152.5880137428
 20
114.4344811594
 10
152.5806684196
 20
114.4304611908
 10
152.5732664516
 20
114.4258442984
 10
152.5658264922
 20
114.4206433569
 10
152.5583687736
 20
114.4148735655
  0
LWPOLYLINE
  5
40A
100
AcDbEntity
  8
RACCORDO
100
AcDbPolyline
 62
253
  6
CONTINUOUS
 90
15
 70
0
 10
151.1014731857
 20
115.0636018814
 10
151.0988871363
 20
115.064566162
 10
151.092966696
 20
115.0662473758
 10
151.0868157195
 20
115.0672899853
 10
151.0804510221
 20
115.0676911217
 10
151.0738901272
 20
115.0674497049
 10
151.0671510396
 20
115.0665664684
 10
151.0602519876
 20
115.0650438703
 10
151.0532115583
 20
115.0628860373
 10
151.0460473235
 20
115.0600981587
 10
151.0387803209
 20
115.0566882283
 10
151.0314349976
 20
115.0526682597
 10
151.0240330296
 20
115.0480513673
 10
151.0165930703
 20
115.0428504258
 10
151.0091353516
 20
115.0370806344
  0
LWPOLYLINE
  5
40B
100
AcDbEntity
  8
RACCORDO
100
AcDbPolyline
 62
253
  6
CONTINUOUS
 90
15
 70
0
 10
137.1687329802
 20
120.6593044542
 10
137.1661686357
 20
120.6602612488
 10
137.1602502816
 20
120.6619445766
 10
137.1541015158
 20
120.6629895557
 10
137.1477390669
 20
120.663393343
 10
137.1411802451
 20
120.6631548401
 10
137.1344428947
 20
120.6622746957
 10
137.127545346
 20
120.6607553045
 10
137.1205063647
 20
120.6586008001
 10
137.1133451018
 20
120.6558170444
 10
137.1060810405
 20
120.652411611
 10
137.098733944
 20
120.6483937649
 10
137.0913238014
 20
120.6437744375
 10
137.0838707731
 20
120.6385661962
 10
137.0763951365
 20
120.6327832111
  0
LWPOLYLINE
  5
40C
100
AcDbEntity
  8
RACCORDO
100
AcDbPolyline
 62
7
  6
CONTINUOUS
 90
20
 70
0
 10
135.0925639621
 20
120.9069416734
 10
135.0828200458
 20
120.9106232666
 10
135.0730980435
 20
120.9138324991
 10
135.0634200598
 20
120.9165621681
 10
135.0538081628
 20
120.9188062102
 10
135.0442841314
 20
120.9205595438
 10
135.0348694058
 20
120.9218180808
 10
135.0255853599
 20
120.9225790077
 10
135.0164530985
 20
120.9228406602
 10
135.0074932075
 20
120.9226023559
 10
134.9987260135
 20
120.9218646581
 10
134.9901714354
 20
120.9206292847
 10
134.9818487848
 20
120.9188989738
 10
134.9737769271
 20
120.9166776542
 10
134.9659741893
 20
120.9139703912
 10
134.958458215
 20
120.9107832881
 10
134.9512460242
 20
120.9071235592
 10
134.9443539783
 20
120.9029995144
 10
134.9377976934
 20
120.8984204978
 10
134.9351111782
 20
120.8963347997
  0
LWPOLYLINE
  5
40D
100
AcDbEntity
  8
RACCORDO
100
AcDbPolyline
 62
253
  6
CONTINUOUS
 90
17
 70
0
 10
151.0091353516
 20
115.0370806344
 10
150.9984605018
 20
115.0411387946
 10
150.9878126233
 20
115.0446226832
 10
150.9772208999
 20
115.0475227514
 10
150.9667143616
 20
115.0498310508
 10
150.9563218048
 20
115.0515412547
 10
150.9460717136
 20
115.0526486758
 10
150.9359921815
 20
115.0531502787
 10
150.9261108346
 20
115.0530446889
 10
150.916454756
 20
115.0523321955
 10
150.9070504109
 20
115.0510147516
 10
150.8979235751
 20
115.0490959678
 10
150.8890992634
 20
115.0465811033
 10
150.8806016617
 20
115.0434770508
 10
150.8724540602
 20
115.0397923179
 10
150.8646787901
 20
115.0355370038
 10
150.8572971618
 20
115.0307227716
  0
LWPOLYLINE
  5
40E
100
AcDbEntity
  8
RACCORDO
100
AcDbPolyline
 62
253
  6
CONTINUOUS
 90
18
 70
0
 10
135.5271617145
 20
121.25499028
 10
135.5165122796
 20
121.2590394491
 10
135.5058829598
 20
121.2625191068
 10
135.4953028638
 20
121.2654186633
 10
135.4847988708
 20
121.267729507
 10
135.4744021614
 20
121.2694435224
 10
135.4641478701
 20
121.2705543732
 10
135.454066301
 20
121.27105897
 10
135.4441828366
 20
121.2709562388
 10
135.4345243056
 20
121.270246434
 10
135.4251170279
 20
121.2689314209
 10
135.4159870074
 20
121.2670147632
 10
135.4071595624
 20
121.2645017517
 10
135.3986590024
 20
121.2613993257
 10
135.3905085165
 20
121.2577159677
 10
135.3827303837
 20
121.2534617425
 10
135.3753459078
 20
121.2486482834
 10
135.3700523625
 20
121.2446584445
  0
LINE
  5
40F
100
AcDbEntity
  8
RACCORDO
100
AcDbLine
 62
7
  6
CONTINUOUS
 10
145.1484713401
 20
118.9568692224
 11
145.1535141358
 21
118.9549217249
  0
LINE
  5
410
100
AcDbEntity
  8
RACCORDO
100
AcDbLine
 62
253
  6
CONTINUOUS
 10
135.5271617145
 20
121.25499028
 11
137.0763951365
 21
120.6327832111
  0
LINE
  5
411
100
AcDbEntity
  8
RACCORDO
100
AcDbLine
 62
253
  6
CONTINUOUS
 10
151.0091353516
 20
115.0370806344
 11
152.5583687736
 21
114.4148735655
  0
LINE
  5
412
100
AcDbEntity
  8
RACCORDO
100
AcDbLine
 62
7
  6
CONTINUOUS
 10
135.6194995582
 20
121.2815115231
 11
137.1687329802
 21
120.6593044542
  0
LINE
  5
413
100
AcDbEntity
  8
RACCORDO
100
AcDbLine
 62
7
  6
CONTINUOUS
 10
151.1014731953
 20
115.0636018775
 11
152.6507066172
 21
114.4413948086
  0
LINE
  5
414
100
AcDbEntity
  8
RACCORDO
100
AcDbLine
 62
253
  6
CONTINUOUS
 10
145.1186658569
 20
117.7991681813
 11
146.0058313084
 21
117.4428625353
  0
LINE
  5
415
100
AcDbEntity
  8
RACCORDO
100
AcDbLine
 62
253
  6
CONTINUOUS
 10
147.4122915809
 20
116.877996382
 11
147.7096126004
 21
116.7585855576
  0
LINE
  5
416
100
AcDbEntity
  8
RACCORDO
100
AcDbLine
 62
253
  6
CONTINUOUS
 10
145.2017613257
 20
118.0247199011
 11
146.0889267773
 21
117.6684142551
  0
LINE
  5
417
100
AcDbEntity
  8
RACCORDO
100
AcDbLine
 62
253
  6
CONTINUOUS
 10
147.4953870497
 20
117.1035481018
 11
147.923164784
 21
116.9317429197
  0
LINE
  5
418
100
AcDbEntity
  8
RACCORDO
100
AcDbLine
 62
7
  6
CONTINUOUS
 10
148.1970513712
 20
117.1538220299
 11
144.3737998451
 21
118.689326036
  0
LINE
  5
419
100
AcDbEntity
  8
RACCORDO
100
AcDbLine
 62
253
  6
CONTINUOUS
 10
148.6327464934
 20
117.5071025103
 11
145.0799481727
 21
118.9339864119
  0
LINE
  5
41A
100
AcDbEntity
  8
RACCORDO
100
AcDbLine
 62
7
  6
CONTINUOUS
 10
148.6743815414
 20
117.540862011
 11
145.1534847634
 21
118.9549335338
  0
LWPOLYLINE
  5
41B
100
AcDbEntity
  8
RACCORDO
100
AcDbPolyline
 62
253
  6
CONTINUOUS
 90
16
 70
0
 10
146.0889267773
 20
117.6684142551
 10
146.12846029
 20
117.6501367702
 10
146.1642125072
 20
117.6289610429
 10
146.196183429
 20
117.6048870732
 10
146.2246463697
 20
117.5776615133
 10
146.2493280148
 20
117.5475377111
 10
146.2694084215
 20
117.5152757099
 10
146.2847879913
 20
117.4807832916
 10
146.2955663227
 20
117.4441526742
 10
146.3012222675
 20
117.4064205548
 10
146.3015962919
 20
117.3675158576
 10
146.2968479297
 20
117.3275096583
 10
146.2869346348
 20
117.2876518814
 10
146.271842225
 20
117.2483591684
 10
146.2515848825
 20
117.2092148779
 10
146.2261626072
 20
117.1702190097
  0
LWPOLYLINE
  5
41C
100
AcDbEntity
  8
RACCORDO
100
AcDbPolyline
 62
253
  6
CONTINUOUS
 90
11
 70
0
 10
146.0058313084
 20
117.4428625353
 10
146.0292217196
 20
117.4318397329
 10
146.0507589897
 20
117.4184046316
 10
146.0702170013
 20
117.4026628314
 10
146.087376623
 20
117.3847067267
 10
146.1020642626
 20
117.3646950446
 10
146.1141364662
 20
117.3428460139
 10
146.1234398253
 20
117.3192656047
 10
146.1298332791
 20
117.2941551933
 10
146.133211889
 20
117.2678863966
 10
146.1337580281
 20
117.252264931
  0
LWPOLYLINE
  5
41D
100
AcDbEntity
  8
RACCORDO
100
AcDbPolyline
 62
7
  6
CONTINUOUS
 90
14
 70
0
 10
152.2977463931
 20
73.9444998641
 10
152.3032095492
 20
73.9503775986
 10
152.3082824237
 20
73.956662869
 10
152.3129535138
 20
73.9633414267
 10
152.3172123096
 20
73.9703981971
 10
152.3210491063
 20
73.9778171459
 10
152.3244551836
 20
73.9855814421
 10
152.327422933
 20
73.9936735789
 10
152.3299455588
 20
74.0020751642
 10
152.332017301
 20
74.0107671272
 10
152.3336336065
 20
74.0197298864
 10
152.3347908112
 20
74.0289431333
 10
152.3354861479
 20
74.0383858789
 10
152.3357179601
 20
74.0480366653
  0
LWPOLYLINE
  5
41E
100
AcDbEntity
  8
RACCORDO
100
AcDbPolyline
 62
253
  6
CONTINUOUS
 90
14
 70
0
 10
152.7180831708
 20
74.2960515424
 10
152.7243546121
 20
74.3017204088
 10
152.7304185274
 20
74.3081079472
 10
152.7360084043
 20
74.3149879078
 10
152.7411089105
 20
74.3223414257
 10
152.7457060585
 20
74.3301483413
 10
152.7497872391
 20
74.3383872486
 10
152.7533412558
 20
74.3470355501
 10
152.7563583639
 20
74.3560695384
 10
152.7588302864
 20
74.3654644374
 10
152.7607502393
 20
74.3751944579
 10
152.7621129604
 20
74.3852329081
 10
152.7629147186
 20
74.3955522694
 10
152.763153319
 20
74.4061242441
  0
LWPOLYLINE
  5
41F
100
AcDbEntity
  8
RACCORDO
100
AcDbPolyline
 62
7
  6
CONTINUOUS
 90
19
 70
0
 10
152.7180831708
 20
74.2960515424
 10
152.7239630282
 20
74.3011352122
 10
152.733353165
 20
74.3099573682
 10
152.7422914159
 20
74.319268155
 10
152.7507525254
 20
74.3290464623
 10
152.75870977
 20
74.3392668649
 10
152.766141359
 20
74.3499074505
 10
152.7730243697
 20
74.3609426037
 10
152.7793360573
 20
74.3723436208
 10
152.7850561844
 20
74.38408242
 10
152.7901653016
 20
74.3961286261
 10
152.7946455361
 20
74.408450758
 10
152.798480964
 20
74.4210174667
 10
152.8016572249
 20
74.4337971122
 10
152.8041606291
 20
74.4467531899
 10
152.8059794167
 20
74.4598455338
 10
152.8071049516
 20
74.4730373253
 10
152.8075306537
 20
74.4862920894
 10
152.8075345452
 20
74.8164084543
  0
LWPOLYLINE
  5
420
100
AcDbEntity
  8
RACCORDO
100
AcDbPolyline
 62
7
  6
CONTINUOUS
 90
3
 70
0
 10
152.2903091823
 20
73.9376802738
 10
152.291905372
 20
73.9390430147
 10
152.2977463931
 20
73.9444998641
  0
LINE
  5
421
100
AcDbEntity
  8
RACCORDO
100
AcDbLine
 62
253
  6
CONTINUOUS
 10
152.763153319
 20
74.4061242441
 11
152.3357179601
 21
74.0480366653
  0
LINE
  5
422
100
AcDbEntity
  8
RACCORDO
100
AcDbLine
 62
7
  6
CONTINUOUS
 10
152.7180805705
 20
74.2960493639
 11
152.2903113719
 21
73.9376821081
  0
LINE
  5
423
100
AcDbEntity
  8
RACCORDO
100
AcDbLine
 62
7
  6
CONTINUOUS
 10
152.2883862023
 20
73.9361050868
 11
152.2903091823
 21
73.9376802738
  0
LWPOLYLINE
  5
424
100
AcDbEntity
  8
RACCORDO
100
AcDbPolyline
 62
253
  6
CONTINUOUS
 90
15
 70
0
 10
150.9859318634
 20
72.8930315429
 10
150.9876535456
 20
72.8944384389
 10
150.9941879218
 20
72.9003325797
 10
151.0002712633
 20
72.9067418468
 10
151.0058867989
 20
72.9136485975
 10
151.0110189802
 20
72.9210336688
 10
151.0156536913
 20
72.9288766179
 10
151.0197783708
 20
72.9371560442
 10
151.0233818466
 20
72.9458494632
 10
151.0264548513
 20
72.9549350675
 10
151.0289881117
 20
72.9643860853
 10
151.0309736061
 20
72.9741703568
 10
151.0324066852
 20
72.9842583264
 10
151.0332849419
 20
72.9946238584
 10
151.0336070223
 20
73.005238135
  0
LINE
  5
425
100
AcDbEntity
  8
RACCORDO
100
AcDbLine
 62
253
  6
CONTINUOUS
 10
152.7322809178
 20
75.8154033006
 11
153.3188704186
 21
76.2856253893
  0
LINE
  5
426
100
AcDbEntity
  8
RACCORDO
100
AcDbLine
 62
7
  6
CONTINUOUS
 10
152.6347791887
 20
75.5892572103
 11
153.2242679679
 21
76.0618034195
  0
LINE
  5
427
100
AcDbEntity
  8
RACCORDO
100
AcDbLine
 62
253
  6
CONTINUOUS
 10
152.3357179601
 20
74.0480366653
 11
151.0336070223
 21
73.005238135
  0
LINE
  5
428
100
AcDbEntity
  8
RACCORDO
100
AcDbLine
 62
7
  6
CONTINUOUS
 10
152.2883847344
 20
73.9361039113
 11
150.9859318566
 21
72.8930315374
  0
LWPOLYLINE
  5
429
100
AcDbEntity
  8
RACCORDO
100
AcDbPolyline
 62
7
  6
CONTINUOUS
 90
3
 70
0
 10
152.6347920065
 20
75.5892674881
 10
152.6288437737
 20
75.5846570986
 10
152.6249586927
 20
75.5818107636
  0
LINE
  5
42A
100
AcDbEntity
  8
RACCORDO
100
AcDbLine
 62
253
  6
CONTINUOUS
 10
148.2400219401
 20
72.5969936028
 11
152.7322809178
 21
75.8154033006
  0
LINE
  5
42B
100
AcDbEntity
  8
RACCORDO
100
AcDbLine
 62
7
  6
CONTINUOUS
 10
148.126710589
 20
72.3591102654
 11
152.6249393587
 21
75.5817969287
  0
LINE
  5
42C
100
AcDbEntity
  8
RACCORDO
100
AcDbLine
 62
7
  6
CONTINUOUS
 10
135.3455194861
 20
118.4419352681
 11
135.855558102
 21
118.437521061
  0
LINE
  5
42D
100
AcDbEntity
  8
RACCORDO
100
AcDbLine
 62
253
  6
CONTINUOUS
 10
135.5516333853
 20
118.6089964557
 11
136.1299755088
 21
118.6039911054
  0
LWPOLYLINE
  5
42E
100
AcDbEntity
  8
RACCORDO
100
AcDbPolyline
 62
7
  6
CONTINUOUS
 90
10
 70
0
 10
135.3455194861
 20
118.4419352681
 10
135.3345777787
 20
118.4422696462
 10
135.3236334626
 20
118.443085366
 10
135.3127148205
 20
118.4443835424
 10
135.3018555559
 20
118.4461621187
 10
135.2910815562
 20
118.4484176545
 10
135.2804095361
 20
118.4511474353
 10
135.2698650887
 20
118.454345691
 10
135.2594840344
 20
118.4580008649
 10
135.2544850566
 20
118.4599471829
  0
LWPOLYLINE
  5
42F
100
AcDbEntity
  8
RACCORDO
100
AcDbPolyline
 62
253
  6
CONTINUOUS
 90
14
 70
0
 10
135.6169352137
 20
121.2824683177
 10
135.6110168597
 20
121.2841516455
 10
135.6048680938
 20
121.2851966246
 10
135.5985056449
 20
121.2856004119
 10
135.5919468231
 20
121.285361909
 10
135.5852094728
 20
121.2844817646
 10
135.578311924
 20
121.2829623734
 10
135.5712729428
 20
121.280807869
 10
135.5641116798
 20
121.2780241133
 10
135.5568476186
 20
121.2746186799
 10
135.5495005221
 20
121.2706008338
 10
135.5420903795
 20
121.2659815064
 10
135.5346373512
 20
121.2607732651
 10
135.5271617145
 20
121.25499028
  0
LINE
  5
430
100
AcDbEntity
  8
RACCORDO
100
AcDbLine
 62
253
  6
CONTINUOUS
 10
145.1487141706
 20
118.9565410115
 11
145.1534875048
 21
118.9549324327
  0
LWPOLYLINE
  5
431
100
AcDbEntity
  8
0
100
AcDbPolyline
 62
7
  6
CONTINUOUS
 90
40
 70
0
 10
145.6362612758
 20
119.3502029275
 10
145.602721375
 20
119.3630979923
 10
145.5684185516
 20
119.3751733765
 10
145.5333528055
 20
119.3864290798
 10
145.4974648089
 20
119.3968807246
 10
145.4608138897
 20
119.4065126886
 10
145.4235780312
 20
119.4152781051
 10
145.3857543699
 20
119.4231727445
 10
145.3473457694
 20
119.4302008363
 10
145.3085388033
 20
119.4363282033
 10
145.2693318743
 20
119.4415504457
 10
145.2297265796
 20
119.4458719632
 10
145.1899142847
 20
119.449271777
 10
145.1498934978
 20
119.4517454511
 10
145.1096657107
 20
119.4532974215
 10
145.0694267634
 20
119.4539200177
 10
145.0291767149
 20
119.4536086803
 10
144.9889155062
 20
119.4523679688
 10
144.9488388006
 20
119.4502038914
 10
144.9089475826
 20
119.4471119526
 10
144.8692408676
 20
119.4430966479
 10
144.8299113654
 20
119.4381774716
 10
144.7909609106
 20
119.4323500297
 10
144.7523876686
 20
119.4256187161
 10
144.7143788451
 20
119.4180162079
 10
144.6769371849
 20
119.4095382697
 10
144.6400599431
 20
119.4001891368
 10
144.6039260909
 20
119.3900141914
 10
144.5685392431
 20
119.3790094193
 10
144.5338957849
 20
119.3671788347
 10
144.5001638423
 20
119.3545798634
 10
144.4673478476
 20
119.3412087701
 10
144.4354433685
 20
119.3270692901
 10
144.4046052344
 20
119.3122300544
 10
144.3748386304
 20
119.2966876618
 10
144.3461383712
 20
119.2804455135
 10
144.3186437307
 20
119.2635824442
 10
144.2924011335
 20
119.2461247322
 10
144.267364155
 20
119.2280460993
 10
144.2435327951
 20
119.2093465454
  0
LINE
  5
432
100
AcDbEntity
  8
0
100
AcDbLine
 62
7
  6
CONTINUOUS
 10
145.2266852536
 20
119.5146978916
 11
144.8171092315
 21
119.6791928558
  0
LINE
  5
433
100
AcDbEntity
  8
ASSI
100
AcDbLine
 62
7
  6
CONTINUOUS
 10
145.6362612758
 20
119.3502029275
 11
149.1603031176
 21
117.9348682761
  0
LINE
  5
434
100
AcDbEntity
  8
DRAFT
100
AcDbLine
 62
7
  6
CONTINUOUS
 10
155.9350940343
 20
115.7336877779
 11
155.2438603571
 21
116.0113028062
  0
LINE
  5
435
100
AcDbEntity
  8
DRAFT
100
AcDbLine
 62
7
  6
CONTINUOUS
 10
144.8171092315
 20
120.2018440025
 11
145.2266852536
 21
120.0373490383
  0
LINE
  5
436
100
AcDbEntity
  8
DRAFT
100
AcDbLine
 62
7
  6
CONTINUOUS
 10
141.9523182297
 20
121.9114861719
 11
142.033802373
 21
121.878760303
  0
LINE
  5
437
100
AcDbEntity
  8
DRAFT
100
AcDbLine
 62
7
  6
CONTINUOUS
 10
155.7750530703
 20
116.3599642336
 11
157.9937954357
 21
115.4688672793
  0
LINE
  5
438
100
AcDbEntity
  8
0
100
AcDbLine
 62
7
  6
CONTINUOUS
 10
150.3018992292
 20
118.8605238599
 11
146.3605115403
 21
120.4434740123
  0
LINE
  5
439
100
AcDbEntity
  8
ASSI
100
AcDbLine
 62
253
  6
CONTINUOUS
 10
151.4837528961
 20
118.9683010655
 11
150.7822725728
 21
119.2500313778
  0
LINE
  5
43A
100
AcDbEntity
  8
ASSI
100
AcDbLine
 62
253
  6
CONTINUOUS
 10
145.0482082628
 20
121.5529608762
 11
144.3467279396
 21
121.8346911885
  0
LINE
  5
43B
100
AcDbEntity
  8
ASSI
100
AcDbLine
 62
7
  6
CONTINUOUS
 10
151.6003406829
 20
119.0486891875
 11
151.0347072255
 21
119.2758603359
  0
LINE
  5
43C
100
AcDbEntity
  8
ASSI
100
AcDbLine
 62
7
  6
CONTINUOUS
 10
145.1651206735
 20
121.633218622
 11
144.5994957584
 21
121.8603863396
  0
LINE
  5
43D
100
AcDbEntity
  8
DRAFT
100
AcDbLine
 62
7
  6
CONTINUOUS
 10
158.8945108926
 20
115.0290616746
 11
157.9937954357
 21
115.4688672793
  0
LWPOLYLINE
  5
43E
100
AcDbEntity
  8
RACCORDO
100
AcDbPolyline
 62
7
  6
CONTINUOUS
 90
10
 70
0
 10
159.8069525497
 20
114.5542874944
 10
159.7132788841
 20
114.6064251713
 10
159.6172505853
 20
114.6589045266
 10
159.5188676532
 20
114.7117255602
 10
159.4175601571
 20
114.76513884
 10
159.3138980277
 20
114.8188937981
 10
159.2095910573
 20
114.8722387309
 10
159.1052091767
 20
114.9249230707
 10
159.0001824552
 20
114.9771973853
 10
158.8945108926
 20
115.0290616746
  0
LWPOLYLINE
  5
43F
100
AcDbEntity
  8
DRAFT
100
AcDbPolyline
 62
7
  6
CONTINUOUS
 90
12
 70
0
 10
160.86032538
 20
118.3430970178
 10
160.8474843017
 20
118.3697361068
 10
160.8027835165
 20
118.4459610655
 10
160.7501938923
 20
118.5225826831
 10
160.6894588916
 20
118.5995942901
 10
160.6185763356
 20
118.6766886157
 10
160.5374685183
 20
118.7542403604
 10
160.4462131457
 20
118.8318748238
 10
160.3430411569
 20
118.908160634
 10
160.2273628651
 20
118.982620667
 10
160.0997679572
 20
119.0557320469
 10
159.9602564331
 20
119.1274947735
  0
LWPOLYLINE
  5
440
100
AcDbEntity
  8
RACCORDO
100
AcDbPolyline
 62
253
  6
CONTINUOUS
 90
29
 70
0
 10
165.076649938
 20
115.6125890156
 10
165.0821012431
 20
115.5890607813
 10
165.0956519789
 20
115.5223807825
 10
165.1069494007
 20
115.4574209265
 10
165.1164013733
 20
115.3940375137
 10
165.1241214917
 20
115.3322664617
 10
165.1301430193
 20
115.2721476588
 10
165.1347262689
 20
115.2135315975
 10
165.1379596688
 20
115.1564380228
 10
165.1398743725
 20
115.1008975338
 10
165.1406261124
 20
115.0467694376
 10
165.1402872492
 20
114.9940523815
 10
165.1388844303
 20
114.942781005
 10
165.1364932056
 20
114.8928639134
 10
165.1331758793
 20
114.8442880969
 10
165.1289554031
 20
114.7970885219
 10
165.123843188
 20
114.751242911
 10
165.1178945169
 20
114.7067195033
 10
165.1111308245
 20
114.66356435
 10
165.1035135864
 20
114.6218702777
 10
165.0950911458
 20
114.5816001302
 10
165.0858877111
 20
114.5428004375
 10
165.0758338567
 20
114.5056888755
 10
165.0649616221
 20
114.4702138615
 10
165.053307206
 20
114.4364337925
 10
165.0408141067
 20
114.4047316647
 10
165.0274853917
 20
114.3752378226
 10
165.013377051
 20
114.3478294613
 10
164.9985111155
 20
114.3225105945
  0
LWPOLYLINE
  5
441
100
AcDbEntity
  8
RACCORDO
100
AcDbPolyline
 62
7
  6
CONTINUOUS
 90
22
 70
0
 10
150.985921907
 20
72.8930235703
 10
150.9773997484
 20
72.8864945993
 10
150.9667281926
 20
72.8790948529
 10
150.9556761049
 20
72.8722529936
 10
150.9442732479
 20
72.86598962
 10
150.9325386503
 20
72.860318281
 10
150.9205014506
 20
72.8552572328
 10
150.9081960456
 20
72.850824854
 10
150.8956496205
 20
72.8470349761
 10
150.8828950727
 20
72.8439019997
 10
150.8699684429
 20
72.8414390626
 10
150.8569025767
 20
72.839656695
 10
150.8437339869
 20
72.8385642395
 10
150.8304997761
 20
72.8381690067
 10
150.817234592
 20
72.8384763936
 10
150.8039747734
 20
72.839490207
 10
150.7907609131
 20
72.841211886
 10
150.777634593
 20
72.8436400819
 10
150.7646356222
 20
72.8467711089
 10
150.7518023639
 20
72.8505992762
 10
150.7391741921
 20
72.8551162714
 10
150.7364871367
 20
72.8561774313
  0
LWPOLYLINE
  5
442
100
AcDbEntity
  8
RACCORDO
100
AcDbPolyline
 62
253
  6
CONTINUOUS
 90
5
 70
0
 10
145.1231791298
 20
118.9567370317
 10
145.1299254031
 20
118.9578659687
 10
145.136457854
 20
118.9582070921
 10
145.1427329692
 20
118.9577614921
 10
145.1487141706
 20
118.9565410115
  0
LWPOLYLINE
  5
443
100
AcDbEntity
  8
RACCORDO
100
AcDbPolyline
 62
7
  6
CONTINUOUS
 90
7
 70
0
 10
144.9909477615
 20
118.9663236526
 10
144.9050865039
 20
118.9586392704
 10
144.8203440243
 20
118.9462681981
 10
144.7372386686
 20
118.9291876723
 10
144.656435379
 20
118.9074069601
 10
144.5786298388
 20
118.8809703118
 10
144.5043700273
 20
118.8498895988
  0
LWPOLYLINE
  5
444
100
AcDbEntity
  8
RACCORDO
100
AcDbPolyline
 62
253
  6
CONTINUOUS
 90
9
 70
0
 10
145.0041195996
 20
118.931291371
 10
144.9302482795
 20
118.9247439566
 10
144.8583342124
 20
118.9143441685
 10
144.7877120369
 20
118.8999242591
 10
144.7190471144
 20
118.8816519762
 10
144.6543355294
 20
118.8600305623
 10
144.5942426434
 20
118.8352277652
 10
144.538103095
 20
118.8070758372
 10
144.4859168841
 20
118.7755747783
  0
LWPOLYLINE
  5
445
100
AcDbEntity
  8
RACCORDO
100
AcDbPolyline
 62
7
  6
CONTINUOUS
 90
5
 70
0
 10
144.4070037689
 20
118.7888501086
 10
144.4255637473
 20
118.7900916769
 10
144.4451365009
 20
118.788269701
 10
144.4653726502
 20
118.7834050561
 10
144.4859168841
 20
118.7755747783
  0
LINE
  5
446
100
AcDbEntity
  8
RACCORDO
100
AcDbLine
 62
253
  6
CONTINUOUS
 10
145.0799481727
 20
118.9339864119
 11
145.0041195996
 21
118.931291371
  0
LINE
  5
447
100
AcDbEntity
  8
RACCORDO
100
AcDbLine
 62
7
  6
CONTINUOUS
 10
145.0773708667
 20
118.9693360036
 11
144.9909477615
 21
118.9663236526
  0
LWPOLYLINE
  5
448
100
AcDbEntity
  8
RACCORDO
100
AcDbPolyline
 62
7
  6
CONTINUOUS
 90
6
 70
0
 10
145.0773718377
 20
118.9693360055
 10
145.0920264936
 20
118.9689140808
 10
145.1064016627
 20
118.9674488711
 10
145.1206462523
 20
118.96494687
 10
145.1346943245
 20
118.9614157624
 10
145.1484713401
 20
118.9568692224
  0
LINE
  5
449
100
AcDbEntity
  8
0
100
AcDbLine
 62
7
  6
CONTINUOUS
 10
157.6280802195
 20
117.9275657086
 11
157.1428856114
 21
118.0203124901
  0
LWPOLYLINE
  5
44A
100
AcDbEntity
  8
RACCORDO
100
AcDbPolyline
 62
7
  6
CONTINUOUS
 90
10
 70
0
 10
158.7629137313
 20
118.8242917731
 10
158.7606660516
 20
118.8247446719
 10
158.7531147951
 20
118.8254683203
 10
158.7451895927
 20
118.8250469273
 10
158.7368134004
 20
118.8234621574
 10
158.7280632621
 20
118.8207323462
 10
158.7191703097
 20
118.8169125001
 10
158.7102115869
 20
118.8120209546
 10
158.70111005
 20
118.8060393741
 10
158.6918656989
 20
118.7989677587
  0
LWPOLYLINE
  5
44B
100
AcDbEntity
  8
RACCORDO
100
AcDbPolyline
 62
7
  6
CONTINUOUS
 90
19
 70
0
 10
158.7629081872
 20
118.8242764269
 10
158.6369017624
 20
118.8503934672
 10
158.5069899978
 20
118.8729489908
 10
158.3754022588
 20
118.8914773544
 10
158.2424890304
 20
118.9059450429
 10
158.1085827433
 20
118.9163291547
 10
157.9739992655
 20
118.9226142799
 10
157.8390894068
 20
118.9247898025
 10
157.7041946221
 20
118.9228538531
 10
157.5696186098
 20
118.9168101585
 10
157.4357056841
 20
118.9066694281
 10
157.3028012137
 20
118.8924508797
 10
157.1712067506
 20
118.8741756815
 10
157.0412581113
 20
118.8518747456
 10
156.9132969293
 20
118.8255882938
 10
156.7876238093
 20
118.7953552501
 10
156.6645550988
 20
118.7612230695
 10
156.5444278034
 20
118.7232526643
 10
156.4275650586
 20
118.6815102455
  0
LWPOLYLINE
  5
44C
100
AcDbEntity
  8
0
100
AcDbPolyline
 62
7
  6
CONTINUOUS
 90
3
 70
0
 10
159.4668795158
 20
118.3689242535
 10
159.5866219884
 20
118.3341937712
 10
159.5886343149
 20
118.3335576037
  0
LWPOLYLINE
  5
44D
100
AcDbEntity
  8
RACCORDO
100
AcDbPolyline
 62
7
  6
CONTINUOUS
 90
19
 70
0
 10
147.2627611176
 20
121.4879338753
 10
147.2550178663
 20
121.4908728151
 10
147.2369584168
 20
121.4964964295
 10
147.2183862855
 20
121.5006103885
 10
147.1993165028
 20
121.5032039405
 10
147.1797340382
 20
121.5042878371
 10
147.1597067084
 20
121.5038588681
 10
147.1392156606
 20
121.5019093516
 10
147.1182797476
 20
121.4984469695
 10
147.0970233443
 20
121.4934915578
 10
147.0754595085
 20
121.4870391519
 10
147.0535751823
 20
121.4790937164
 10
147.0314555675
 20
121.4696869814
 10
147.0090885077
 20
121.4588077716
 10
146.9864861591
 20
121.4464672624
 10
146.9637701924
 20
121.4327307104
 10
146.9409811645
 20
121.4176198679
 10
146.9180785184
 20
121.4011129826
 10
146.8950622542
 20
121.3832100546
  0
LINE
  5
44E
100
AcDbEntity
  8
0
100
AcDbLine
 62
7
  6
CONTINUOUS
 10
151.4945202147
 20
119.1547970342
 11
147.4636333554
 21
120.7736920712
  0
LINE
  5
44F
100
AcDbEntity
  8
RACCORDO
100
AcDbLine
 62
253
  6
CONTINUOUS
 10
143.3421173672
 20
122.8101528204
 11
146.8950622542
 21
121.3832100546
  0
LINE
  5
450
100
AcDbEntity
  8
RACCORDO
100
AcDbLine
 62
253
  6
CONTINUOUS
 10
151.8099745199
 20
119.4092704846
 11
155.3629194068
 21
117.9823277187
  0
LINE
  5
451
100
AcDbEntity
  8
RACCORDO
100
AcDbLine
 62
7
  6
CONTINUOUS
 10
143.5127250638
 20
122.9940382961
 11
147.2627452073
 21
121.4879456643
  0
LINE
  5
452
100
AcDbEntity
  8
RACCORDO
100
AcDbLine
 62
7
  6
CONTINUOUS
 10
152.1776574731
 20
119.5140060942
 11
155.9276776166
 21
118.0079134624
  0
LINE
  5
453
100
AcDbEntity
  8
0
100
AcDbLine
 62
7
  6
CONTINUOUS
 10
156.741382106
 20
117.6914200729
 11
155.9223897445
 21
118.020345869
  0
LINE
  5
454
100
AcDbEntity
  8
0
100
AcDbLine
 62
7
  6
CONTINUOUS
 10
157.1428856114
 20
118.0203124901
 11
156.3238932499
 21
118.3492382863
  0
LINE
  5
455
100
AcDbEntity
  8
RACCORDO
100
AcDbLine
 62
7
  6
CONTINUOUS
 10
155.9485348902
 20
118.8329257339
 11
155.6102185867
 21
118.9688011886
  0
LINE
  5
456
100
AcDbEntity
  8
0
100
AcDbLine
 62
7
  6
CONTINUOUS
 10
156.741382106
 20
117.6914200729
 11
157.0592758669
 21
117.4616284603
  0
LINE
  5
457
100
AcDbEntity
  8
0
100
AcDbLine
 62
7
  6
CONTINUOUS
 10
158.903324155
 20
117.3215146445
 11
158.6110626727
 21
117.5327777946
  0
LINE
  5
458
100
AcDbEntity
  8
DRAFT
100
AcDbLine
 62
7
  6
CONTINUOUS
 10
141.8044280075
 20
121.8928242482
 11
141.9523182297
 21
121.9114861719
  0
LINE
  5
459
100
AcDbEntity
  8
RACCORDO
100
AcDbLine
 62
7
  6
CONTINUOUS
 10
158.7678433621
 20
118.8228759822
 11
158.7629137313
 21
118.8242917731
  0
LWPOLYLINE
  5
45A
100
AcDbEntity
  8
DRAFT
100
AcDbPolyline
 62
7
  6
CONTINUOUS
 90
31
 70
0
 10
159.6101616379
 20
119.268100736
 10
159.4446108751
 20
119.3188579012
 10
159.2808226649
 20
119.3627725506
 10
159.1187970074
 20
119.3998446841
 10
158.9579418483
 20
119.4295981285
 10
158.7988492418
 20
119.4525090571
 10
158.6432953503
 20
119.4700059896
 10
158.4919264284
 20
119.4821728674
 10
158.3440962215
 20
119.4889257492
 10
158.1996421276
 20
119.4914413302
 10
158.0584891865
 20
119.4898594171
 10
157.9207123584
 20
119.4840402033
 10
157.7863739221
 20
119.4747409638
 10
157.6554518105
 20
119.462025693
 10
157.5279680907
 20
119.4458303965
 10
157.4040512428
 20
119.4267203658
 10
157.283849522
 20
119.4047829512
 10
157.167214673
 20
119.3799308023
 10
157.0538304107
 20
119.3524671603
 10
156.9436547961
 20
119.3224573047
 10
156.8367297681
 20
119.289835956
 10
156.7328648577
 20
119.2547105155
 10
156.631867653
 20
119.2170501032
 10
156.5339305658
 20
119.1768855992
 10
156.4394403627
 20
119.1344170458
 10
156.3484193866
 20
119.089662792
 10
156.2608452945
 20
119.0426044888
 10
156.1770378251
 20
118.9933871318
 10
156.0971035576
 20
118.9420590529
 10
156.0209359126
 20
118.8885719203
 10
155.9485348902
 20
118.8329257339
  0
LINE
  5
45B
100
AcDbEntity
  8
RACCORDO
100
AcDbLine
 62
7
  6
CONTINUOUS
 10
159.7508258152
 20
118.4280880682
 11
159.8862707086
 21
118.380875
  0
LINE
  5
45C
100
AcDbEntity
  8
RACCORDO
100
AcDbLine
 62
7
  6
CONTINUOUS
 10
158.9736179386
 20
118.7509034633
 11
158.7678433621
 21
118.8228759822
  0
LINE
  5
45D
100
AcDbEntity
  8
RACCORDO
100
AcDbLine
 62
7
  6
CONTINUOUS
 10
159.8862707086
 20
118.380875
 11
160.0277562573
 21
118.33090171
  0
LINE
  5
45E
100
AcDbEntity
  8
RACCORDO
100
AcDbLine
 62
7
  6
CONTINUOUS
 10
159.1926836996
 20
118.6728426653
 11
158.9736179386
 21
118.7509034633
  0
LINE
  5
45F
100
AcDbEntity
  8
RACCORDO
100
AcDbLine
 62
7
  6
CONTINUOUS
 10
160.0277562573
 20
118.33090171
 11
160.2514419578
 21
118.250803273
  0
LINE
  5
460
100
AcDbEntity
  8
RACCORDO
100
AcDbLine
 62
7
  6
CONTINUOUS
 10
160.2514419578
 20
118.250803273
 11
160.4083388454
 21
118.1940165991
  0
LINE
  5
461
100
AcDbEntity
  8
RACCORDO
100
AcDbLine
 62
7
  6
CONTINUOUS
 10
159.4253563922
 20
118.5888045131
 11
159.1926836996
 21
118.6728426653
  0
LINE
  5
462
100
AcDbEntity
  8
DRAFT
100
AcDbLine
 62
7
  6
CONTINUOUS
 10
159.960376551
 20
119.1472504082
 11
159.6102817558
 21
119.2878563706
  0
LINE
  5
463
100
AcDbEntity
  8
RACCORDO
100
AcDbLine
 62
7
  6
CONTINUOUS
 10
160.4083388454
 20
118.1940165991
 11
160.4149531984
 21
118.1909864424
  0
LWPOLYLINE
  5
464
100
AcDbEntity
  8
DRAFT
100
AcDbPolyline
 62
7
  6
CONTINUOUS
 90
10
 70
0
 10
159.960376551
 20
119.1472504082
 10
159.9233902464
 20
119.1643980949
 10
159.8859169934
 20
119.1811680629
 10
159.8479567922
 20
119.197560312
 10
159.809498084
 20
119.2135794844
 10
159.7705524275
 20
119.2292209381
 10
159.7311544988
 20
119.2444707462
 10
159.6913158567
 20
119.2593242666
 10
159.6510249423
 20
119.2737861414
 10
159.6102817558
 20
119.2878563706
  0
LINE
  5
465
100
AcDbEntity
  8
RACCORDO
100
AcDbLine
 62
253
  6
CONTINUOUS
 10
160.5349269008
 20
118.1193481493
 11
160.4083388454
 21
118.1940165991
  0
LWPOLYLINE
  5
466
100
AcDbEntity
  8
RACCORDO
100
AcDbPolyline
 62
7
  6
CONTINUOUS
 90
3
 70
0
 10
160.5567245425
 20
118.1064392676
 10
160.5300513461
 20
118.1235431434
 10
160.414952201
 20
118.1909841495
  0
LINE
  5
467
100
AcDbEntity
  8
RACCORDO
100
AcDbLine
 62
253
  6
CONTINUOUS
 10
160.5558246406
 20
118.1057377915
 11
160.5349269008
 21
118.1193481493
  0
LWPOLYLINE
  5
468
100
AcDbEntity
  8
RACCORDO
100
AcDbPolyline
 62
253
  6
CONTINUOUS
 90
19
 70
0
 10
159.7508258152
 20
118.4280880682
 10
159.7820973421
 20
118.4073662607
 10
159.8134827968
 20
118.3857545146
 10
159.844915004
 20
118.3632342399
 10
159.8762331475
 20
118.3398566982
 10
159.9074598068
 20
118.3155378579
 10
159.9387758593
 20
118.2900479216
 10
159.9700779278
 20
118.2633623941
 10
160.001257527
 20
118.2354581335
 10
160.0324318066
 20
118.2060903544
 10
160.0634540546
 20
118.1752294335
 10
160.0941688728
 20
118.1428489223
 10
160.1246130057
 20
118.1086934592
 10
160.1545827887
 20
118.0727331951
 10
160.1838639809
 20
118.0349418808
 10
160.2123962938
 20
117.9950574647
 10
160.2399043391
 20
117.9530567248
 10
160.2660997299
 20
117.9089214379
 10
160.2755204455
 20
117.8911781439
  0
LWPOLYLINE
  5
469
100
AcDbEntity
  8
RACCORDO
100
AcDbPolyline
 62
253
  6
CONTINUOUS
 90
20
 70
0
 10
159.6748715912
 20
118.4041990449
 10
159.7041843421
 20
118.3843573697
 10
159.7334874158
 20
118.3636127575
 10
159.7627808122
 20
118.3419652083
 10
159.79207283
 20
118.3194991811
 10
159.8213551706
 20
118.2961302169
 10
159.8506029379
 20
118.2716049389
 10
159.8798601524
 20
118.2459298862
 10
159.9090827936
 20
118.2190985198
 10
159.9381139034
 20
118.1908378457
 10
159.967010746
 20
118.1611514075
 10
159.9957160571
 20
118.1300356615
 10
160.0239010864
 20
118.0972069827
 10
160.0516362138
 20
118.0626643017
 10
160.0788510594
 20
118.0264086879
 10
160.1050057324
 20
117.9881597247
 10
160.1301862025
 20
117.9479075072
 10
160.1543065002
 20
117.9056619404
 10
160.1765688259
 20
117.8611723219
 10
160.1892932063
 20
117.8321370363
  0
LWPOLYLINE
  5
46A
100
AcDbEntity
  8
RACCORDO
100
AcDbPolyline
 62
253
  6
CONTINUOUS
 90
9
 70
0
 10
156.8263525509
 20
122.8619777222
 10
156.7870533164
 20
122.873665111
 10
156.7455400419
 20
122.8782374662
 10
156.7018095709
 20
122.8757636338
 10
156.6562268216
 20
122.8662547531
 10
156.6092577312
 20
122.8498344537
 10
156.5613045038
 20
122.8267025386
 10
156.5126880643
 20
122.7970714217
 10
156.4637700961
 20
122.7612100139
  0
LWPOLYLINE
  5
46B
100
AcDbEntity
  8
RACCORDO
100
AcDbPolyline
 62
253
  6
CONTINUOUS
 90
9
 70
0
 10
164.4493079689
 20
119.8004269966
 10
164.4099354194
 20
119.8121471357
 10
164.3684240067
 20
119.8167223581
 10
164.3246963326
 20
119.8142518287
 10
164.2791163497
 20
119.8047468263
 10
164.2321469901
 20
119.7883296916
 10
164.1841892222
 20
119.7651983706
 10
164.1355648532
 20
119.7355643285
 10
164.0866356301
 20
119.6996953619
  0
LINE
  5
46C
100
AcDbEntity
  8
RACCORDO
100
AcDbLine
 62
253
  6
CONTINUOUS
 10
156.8264422591
 20
122.8619417192
 11
156.8263525509
 21
122.8619777222
  0
LINE
  5
46D
100
AcDbEntity
  8
DRAFT
100
AcDbLine
 62
7
  6
CONTINUOUS
 10
162.7388291891
 20
119.8073962884
 11
158.6389809262
 21
121.4539877797
  0
LINE
  5
46E
100
AcDbEntity
  8
RACCORDO
100
AcDbLine
 62
253
  6
CONTINUOUS
 10
156.4637700961
 20
122.7612100139
 11
157.631887875
 21
122.2920675793
  0
LINE
  5
46F
100
AcDbEntity
  8
RACCORDO
100
AcDbLine
 62
253
  6
CONTINUOUS
 10
163.1059438826
 20
120.0935632769
 11
164.0866356317
 21
119.6996953613
  0
LINE
  5
470
100
AcDbEntity
  8
RACCORDO
100
AcDbLine
 62
7
  6
CONTINUOUS
 10
156.8264480954
 20
122.8619393753
 11
158.0994724025
 21
122.3506641139
  0
LINE
  5
471
100
AcDbEntity
  8
RACCORDO
100
AcDbLine
 62
7
  6
CONTINUOUS
 10
163.3637153536
 20
120.2364254652
 11
164.4493136302
 21
119.800424723
  0
LWPOLYLINE
  5
472
100
AcDbEntity
  8
RACCORDO
100
AcDbPolyline
 62
253
  6
CONTINUOUS
 90
19
 70
0
 10
164.0866356301
 20
119.6996953619
 10
164.1583752821
 20
119.6687871027
 10
164.2295008495
 20
119.6318970441
 10
164.2994780496
 20
119.5893022956
 10
164.3677812246
 20
119.5413228192
 10
164.4338972937
 20
119.4883190267
 10
164.4973296071
 20
119.4306890714
 10
164.5576016743
 20
119.3688658556
 10
164.6142607387
 20
119.3033137846
 10
164.666881183
 20
119.2345252794
 10
164.7150677315
 20
119.1630170672
 10
164.7584584156
 20
119.089326304
 10
164.7967272907
 20
119.0140065474
 10
164.8295869201
 20
118.9376236142
 10
164.8567904361
 20
118.8607512486
 10
164.8781334036
 20
118.7839668273
 10
164.8934554839
 20
118.7078471275
 10
164.9026416282
 20
118.6329639852
 10
164.9056228521
 20
118.5598799238
  0
LWPOLYLINE
  5
473
100
AcDbEntity
  8
RACCORDO
100
AcDbPolyline
 62
7
  6
CONTINUOUS
 90
27
 70
0
 10
165.076649938
 20
117.8285271427
 10
165.1533569906
 20
117.7686473676
 10
165.3080776473
 20
117.6344608161
 10
165.456611399
 20
117.4918705595
 10
165.5983651041
 20
117.3415389661
 10
165.7327440364
 20
117.1841563897
 10
165.8591335303
 20
117.0204764455
 10
165.9769367633
 20
116.8512870203
 10
166.0856168951
 20
116.6773483209
 10
166.1846785933
 20
116.4993993181
 10
166.2735797195
 20
116.3183269133
 10
166.3517954011
 20
116.1351150429
 10
166.4189726304
 20
115.9504594003
 10
166.4746846823
 20
115.7653338307
 10
166.5184936325
 20
115.5811084979
 10
166.5501991638
 20
115.3987023494
 10
166.5696828413
 20
115.2187998284
 10
166.5768314576
 20
115.0423440541
 10
166.5715863255
 20
114.8698467374
 10
166.5539208784
 20
114.7023038205
 10
166.5240500129
 20
114.5412674629
 10
166.4823062253
 20
114.3876053971
 10
166.4289625476
 20
114.2417016874
 10
166.3644448427
 20
114.1042890378
 10
166.2892435543
 20
113.9759961665
 10
166.2038707264
 20
113.8573280487
 10
166.1089214223
 20
113.748786521
  0
LWPOLYLINE
  5
474
100
AcDbEntity
  8
RACCORDO
100
AcDbPolyline
 62
253
  6
CONTINUOUS
 90
28
 70
0
 10
165.076649938
 20
117.7328525174
 10
165.0958529476
 20
117.7175726397
 10
165.2435307724
 20
117.5880691787
 10
165.3860731369
 20
117.4507120819
 10
165.5228151804
 20
117.3061420254
 10
165.6531191041
 20
117.1550333209
 10
165.7763771368
 20
116.9980907787
 10
165.8920143696
 20
116.836046421
 10
165.9994914372
 20
116.669656069
 10
166.0983070356
 20
116.4996958148
 10
166.1880002613
 20
116.3269584009
 10
166.2681527604
 20
116.1522495223
 10
166.3383906795
 20
115.9763840695
 10
166.3983864094
 20
115.8001823278
 10
166.4478601133
 20
115.6244661514
 10
166.4865810319
 20
115.4500551295
 10
166.5143685601
 20
115.2777627637
 10
166.5310930891
 20
115.1083926738
 10
166.5366766112
 20
114.9427348488
 10
166.5310930831
 20
114.781561963
 10
166.514368548
 20
114.6256257718
 10
166.4865810137
 20
114.4756536049
 10
166.4478600892
 20
114.3323449743
 10
166.3983863794
 20
114.1963683114
 10
166.3383906437
 20
114.0683578494
 10
166.2681527189
 20
113.9489106647
 10
166.1880002143
 20
113.8385838924
 10
166.1089214223
 20
113.748786521
  0
ELLIPSE
  5
475
100
AcDbEntity
  8
0
100
AcDbEllipse
 62
7
  6
CONTINUOUS
 10
140.0496850804
 20
103.0627639263
 30
0.0
 11
2.6916267192
 21
-0.1056602342
 31
0.0
 40
0.7100899151
 41
-2.4123736205
 42
-1.8908156528
  0
ELLIPSE
  5
476
100
AcDbEntity
  8
RACCORDO
100
AcDbEllipse
 62
7
  6
CONTINUOUS
 10
143.5713792449
 20
121.0344587422
 30
0.0
 11
1.7891316341
 21
-0.8472216529
 31
0.0
 40
0.0797046865
 41
3.0172766308
 42
3.1014094053
  0
ELLIPSE
  5
477
100
AcDbEntity
  8
RACCORDO
100
AcDbEllipse
 62
7
  6
CONTINUOUS
 10
158.0725531215
 20
121.2838388917
 30
0.0
 11
0.3667674849
 21
0.9303298023
 31
0.0
 40
0.4639756799
 41
-0.8664843406
 42
-0.8367994821
  0
ELLIPSE
  5
478
100
AcDbEntity
  8
DRAFT
100
AcDbEllipse
 62
7
  6
CONTINUOUS
 10
157.6630963389
 20
117.9022814976
 30
0.0
 11
2.7499376731
 21
-0.032955525
 31
0.0
 40
0.5618086952
 41
2.5461867309
 42
2.8565602669
  0
ELLIPSE
  5
479
100
AcDbEntity
  8
RACCORDO
100
AcDbEllipse
 62
7
  6
CONTINUOUS
 10
158.5618616554
 20
86.0113280285
 30
0.0
 11
1.0815986856
 21
2.2842194106
 31
0.0
 40
0.6246240058
 41
-2.1899424952
 42
-2.1120419442
  0
ELLIPSE
  5
47A
100
AcDbEntity
  8
RACCORDO
100
AcDbEllipse
 62
7
  6
CONTINUOUS
 10
162.622977937
 20
119.4562856989
 30
0.0
 11
0.7484475151
 21
0.7755365559
 31
0.0
 40
0.1303619782
 41
0.0532478004
 42
0.7427038397
  0
ELLIPSE
  5
47B
100
AcDbEntity
  8
RACCORDO
100
AcDbEllipse
 62
7
  6
CONTINUOUS
 10
158.0948332424
 20
121.2748906929
 30
0.0
 11
-0.3028771145
 21
1.1005247027
 31
0.0
 40
0.6050093693
 41
5.0178955641
 42
6.5415537399
  0
ELLIPSE
  5
47C
100
AcDbEntity
  8
RACCORDO
100
AcDbEllipse
 62
7
  6
CONTINUOUS
 10
196.8299718778
 20
126.6956479335
 30
0.0
 11
32.0433493338
 21
27.2590354132
 31
0.0
 40
0.014834444
 41
3.1289737739
 42
3.2153198972
  0
ELLIPSE
  5
47D
100
AcDbEntity
  8
ASSI
100
AcDbEllipse
 62
7
  6
CONTINUOUS
 10
144.34504562
 20
121.4237609454
 30
0.0
 11
0.1883400828
 21
0.4631755635
 31
0.0
 40
0.4737433309
 41
0.559712894
 42
0.7034921378
  0
ELLIPSE
  5
47E
100
AcDbEntity
  8
RACCORDO
100
AcDbEllipse
 62
7
  6
CONTINUOUS
 10
152.9092320065
 20
112.3146141149
 30
0.0
 11
-0.3169397327
 21
0.3868330034
 31
0.0
 40
0.6708947896
 41
-2.4554665274
 42
-0.8845179015
  0
ELLIPSE
  5
47F
100
AcDbEntity
  8
RACCORDO
100
AcDbEllipse
 62
7
  6
CONTINUOUS
 10
152.9092320065
 20
76.4500830302
 30
0.0
 11
0.3169207644
 21
-0.3867520203
 31
0.0
 40
0.6710951612
 41
-0.0072392547
 42
0.6861992117
  0
ELLIPSE
  5
480
100
AcDbEntity
  8
RACCORDO
100
AcDbEllipse
 62
7
  6
CONTINUOUS
 10
143.4217696619
 20
122.920025458
 30
0.0
 11
0.4994192263
 21
0.3376144227
 31
0.0
 40
0.0713602449
 41
1.5722959791
 42
2.4650709623
  0
ELLIPSE
  5
481
100
AcDbEntity
  8
RACCORDO
100
AcDbEllipse
 62
7
  6
CONTINUOUS
 10
155.8468328783
 20
117.0498518061
 30
0.0
 11
0.4999968021
 21
0.0030863056
 31
0.0
 40
0.5794175877
 41
-0.5969884728
 42
-0.003601526
  0
ELLIPSE
  5
482
100
AcDbEntity
  8
RACCORDO
100
AcDbEllipse
 62
7
  6
CONTINUOUS
 10
155.682599315
 20
116.4897870683
 30
0.0
 11
0.1106196951
 21
0.2788629828
 31
0.0
 40
0.4659358609
 41
-2.4304892932
 42
-1.2602487068
  0
ELLIPSE
  5
483
100
AcDbEntity
  8
DRAFT
100
AcDbEllipse
 62
7
  6
CONTINUOUS
 10
151.1724913241
 20
117.9765238796
 30
0.0
 11
0.4279674632
 21
-0.0025893255
 31
0.0
 40
0.5677065366
 41
-0.6016127006
 42
0.0034170165
  0
ELLIPSE
  5
484
100
AcDbEntity
  8
DRAFT
100
AcDbEllipse
 62
7
  6
CONTINUOUS
 10
144.7372820335
 20
120.5610490091
 30
0.0
 11
0.4279674632
 21
-0.0025893255
 31
0.0
 40
0.5677065366
 41
-0.6074304648
 42
0.0034072768
  0
ELLIPSE
  5
485
100
AcDbEntity
  8
RACCORDO
100
AcDbEllipse
 62
7
  6
CONTINUOUS
 10
155.8468328783
 20
117.9298399538
 30
0.0
 11
-0.3952815345
 21
0.5847238294
 31
0.0
 40
0.5236494542
 41
-3.0759362005
 42
-2.1831612173
  0
ELLIPSE
  5
486
100
AcDbEntity
  8
RACCORDO
100
AcDbEllipse
 62
7
  6
CONTINUOUS
 10
142.5179911786
 20
122.3159092378
 30
0.0
 11
0.9988384526
 21
0.6752288455
 31
0.0
 40
0.0713602449
 41
-0.6503417526
 42
0.4489637206
  0
ELLIPSE
  5
487
100
AcDbEntity
  8
RACCORDO
100
AcDbEllipse
 62
7
  6
CONTINUOUS
 10
156.1770349252
 20
116.8301293333
 30
0.0
 11
-0.790563069
 21
1.1694476588
 31
0.0
 40
0.5236494542
 41
5.2233563483
 42
6.3226618215
  0
ELLIPSE
  5
488
100
AcDbEntity
  8
ASSI
100
AcDbEllipse
 62
7
  6
CONTINUOUS
 10
151.482098302
 20
118.5573596872
 30
0.0
 11
0.1843661585
 21
0.4647716379
 31
0.0
 40
0.4659358609
 41
0.5556885882
 42
0.699467832
  0
ELLIPSE
  5
489
100
AcDbEntity
  8
RACCORDO
100
AcDbEllipse
 62
7
  6
CONTINUOUS
 10
134.381557457
 20
118.5433567749
 30
0.0
 11
0.2499293568
 21
0.009771784
 31
0.0
 40
0.6081570881
 41
3.1179859279
 42
4.077750384
  0
ELLIPSE
  5
48A
100
AcDbEntity
  8
RACCORDO
100
AcDbEllipse
 62
7
  6
CONTINUOUS
 10
135.9260251918
 20
117.9230637135
 30
0.0
 11
0.2499293568
 21
0.009771784
 31
0.0
 40
0.6081570881
 41
-2.2054349231
 42
-0.6404563605
  0
ELLIPSE
  5
48B
100
AcDbEntity
  8
RACCORDO
100
AcDbEllipse
 62
7
  6
CONTINUOUS
 10
149.8635310941
 20
112.3254471294
 30
0.0
 11
0.2499293568
 21
0.009771784
 31
0.0
 40
0.6081570881
 41
3.1178947097
 42
4.077750384
  0
ELLIPSE
  5
48C
100
AcDbEntity
  8
RACCORDO
100
AcDbEllipse
 62
7
  6
CONTINUOUS
 10
151.4079988289
 20
111.7051540679
 30
0.0
 11
0.2499293568
 21
0.009771784
 31
0.0
 40
0.6081570881
 41
-2.2054349231
 42
-1.1607478594
  0
ELLIPSE
  5
48D
100
AcDbEntity
  8
RACCORDO
100
AcDbEllipse
 62
7
  6
CONTINUOUS
 10
146.5172636679
 20
114.2267366759
 30
0.0
 11
0.4998587135
 21
0.019543568
 31
0.0
 40
0.6081570881
 41
-2.2054349231
 42
-0.6404563605
  0
ELLIPSE
  5
48E
100
AcDbEntity
  8
RACCORDO
100
AcDbEllipse
 62
7
  6
CONTINUOUS
 10
146.5172636679
 20
115.3926316641
 30
0.0
 11
0.4999985978
 21
0.0020505589
 31
0.0
 40
0.577473785
 41
-1.259646687
 42
-0.6190512926
  0
ELLIPSE
  5
48F
100
AcDbEntity
  8
RACCORDO
100
AcDbEllipse
 62
7
  6
CONTINUOUS
 10
140.1326572725
 20
117.95683353
 30
0.0
 11
0.4999985978
 21
0.0020505589
 31
0.0
 40
0.577473785
 41
8.8173621965
 42
9.4579575909
  0
ELLIPSE
  5
490
100
AcDbEntity
  8
RACCORDO
100
AcDbEllipse
 62
7
  6
CONTINUOUS
 10
140.1326572725
 20
116.7909385419
 30
0.0
 11
0.4998587135
 21
0.019543568
 31
0.0
 40
0.6081570881
 41
3.1177965194
 42
4.077750384
  0
ENDSEC
  0
SECTION
  2
OBJECTS
  0
DICTIONARY
  5
C
100
AcDbDictionary
280
0
281
1
  3
ACAD_GROUP
350
D
  3
ACAD_MLINESTYLE
350
17
  3
ACAD_LAYOUT
350
1A
  3
ACAD_PLOTSETTINGS
350
19
  3
ACAD_PLOTSTYLENAME
350
E
  0
DICTIONARY
  5
D
102
{ACAD_REACTORS
330
C
102
}
100
AcDbDictionary
280
0
281
1
  0
ACDBDICTIONARYWDFLT
  5
E
102
{ACAD_REACTORS
330
C
102
}
100
AcDbDictionary
281
1
  3
Normal
350
F
100
AcDbDictionaryWithDefault
340
F
  0
DICTIONARY
  5
17
102
{ACAD_REACTORS
330
C
102
}
100
AcDbDictionary
280
0
281
1
  3
Standard
350
18
  0
DICTIONARY
  5
19
102
{ACAD_REACTORS
330
C
102
}
100
AcDbDictionary
281
1
  0
DICTIONARY
  5
1A
102
{ACAD_REACTORS
330
C
102
}
100
AcDbDictionary
281
1
  3
Model
350
491
  3
Layout1
350
492
  0
ACDBPLACEHOLDER
  5
F
102
{ACAD_REACTORS
330
E
102
}
  0
MLINESTYLE
  5
18
102
{ACAD_REACTORS
330
17
102
}
100
AcDbMlineStyle
  2
STANDARD
 70
0
  3

 62
256
 51
90.0
 52
90.0
 71
2
 49
0.5
 62
256
  6
BYLAYER
 49
-0.5
 62
256
  6
BYLAYER
  0
LAYOUT
  5
491
102
{ACAD_REACTORS
330
1A
102
}
100
AcDbPlotSettings
  1

  2
none_device
  4
ISO_A4_(297.00_x_210.00_MM)
  6

 40
0.0
 41
0.0
 42
0.0
 43
0.0
 44
297.0
 45
210.0
 46
0.0
 47
0.0
 48
0.0
 49
0.0
140
0.0
141
0.0
142
1.0
143
1.0
 70
1024
 72
1
 73
0
 74
0
  7

 75
0
147
1.0
148
0.0
149
0.0
100
AcDbLayout
  1
Model
 70
0
 71
0
 10
0.0
 20
0.0
 11
297.0
 21
210.0
 12
0.0
 22
0.0
 32
0.0
 14
0.0
 24
0.0
 34
0.0
 15
0.0
 25
0.0
 35
0.0
146
0.0
 13
0.0
 23
0.0
 33
0.0
 16
1.0
 26
0.0
 36
0.0
 17
0.0
 27
1.0
 37
0.0
 76
0
330
21A
345
0
346
0
  0
LAYOUT
  5
492
102
{ACAD_REACTORS
330
1A
102
}
100
AcDbPlotSettings
  1

  2
none_device
  4
ISO_A4_(297.00_x_210.00_MM)
  6

 40
0.0
 41
0.0
 42
0.0
 43
0.0
 44
297.0
 45
210.0
 46
0.0
 47
0.0
 48
0.0
 49
0.0
140
0.0
141
0.0
142
1.0
143
1.0
 70
0
 72
1
 73
0
 74
0
  7

 75
0
147
1.0
148
0.0
149
0.0
100
AcDbLayout
  1
Layout1
 70
0
 71
1
 10
0.0
 20
0.0
 11
297.0
 21
210.0
 12
0.0
 22
0.0
 32
0.0
 14
0.0
 24
0.0
 34
0.0
 15
0.0
 25
0.0
 35
0.0
146
0.0
 13
0.0
 23
0.0
 33
0.0
 16
1.0
 26
0.0
 36
0.0
 17
0.0
 27
1.0
 37
0.0
 76
0
330
21B
345
0
346
0
  0
ENDSEC
  0
EOF
