  0
SECTION
  2
HEADER
  9
$ACADVER
  1
AC1015
  9
$DWGCODEPAGE
  3
ANSI_1252
  9
$EXTMAX
 10
297.0
 20
210.0
 30
0.0
  9
$EXTMIN
 10
0.0
 20
0.0
 30
0.0
  9
$LIMMIN
 10
0.0
 20
0.0
  9
$LIMMAX
 10
297.0
 20
210.0
  9
$VIEWCTR
 10
148.5
 20
105.0
  9
$VIEWSIZE
 40
210.0
  9
$CLAYER
  8
0
  9
$LTSCALE
 40
16.335
  9
$CELTYPE
  6
BYLAYER
  9
$DIMSCALE
 40
1.0
  9
$DIMASZ
 40
3.0
  9
$DIMEXO
 40
1.85625
  9
$DIMDLI
 40
11.286
  9
$DIMEXE
 40
5.346
  9
$DIMCEN
 40
2.673
  9
$DIMLFAC
 40
1.0
  9
$DIMBLK
  1
_FILLED
  9
$DIMTXT
 40
3.0
  9
$DIMTOL
 70
1
  9
$DIMLIM
 70
0
  9
$DIMTFAC
 40
1.0
  9
$DIMTP
 40
0.01
  9
$DIMTM
 40
0.01
  9
$PDMODE
 70
3
  9
$PDSIZE
 40
3.0
  9
$HANDSEED
  5
41F
  9
$TILEMODE
 70
1
  9
$MEASUREMENT
 70
1
  9
$INSUNITS
 70
4
  0
ENDSEC
  0
SECTION
  2
CLASSES
  0
CLASS
  1
ACDBDICTIONARYWDFLT
  2
AcDbDictionaryWithDefault
  3
AutoCAD 2000
 90
0
280
0
281
0
  0
CLASS
  1
ACDBPLACEHOLDER
  2
AcDbPlaceHolder
  3
AutoCAD 2000
 90
0
280
0
281
0
  0
CLASS
  1
LAYOUT
  2
AcDbLayout
  3
AutoCAD 2000
 90
0
280
0
281
0
  0
ENDSEC
  0
SECTION
  2
TABLES
  0
TABLE
  2
VPORT
  5
8
100
AcDbSymbolTable
 70
2
  0
VPORT
  5
1F4
100
AcDbSymbolTableRecord
100
AcDbViewportTableRecord
  2
*ACTIVE
 70
0
 10
0.0
 20
0.0
 11
1.0
 21
1.0
 12
148.5
 22
105.0
 13
0.0
 23
0.0
 14
1.0
 24
1.0
 15
0.0
 25
0.0
 16
0.0
 26
0.0
 36
1.0
 17
0.0
 27
0.0
 37
0.0
 40
210.0
 41
1.4142857143
 42
50.0
 43
0.0
 44
0.0
 50
0.0
 51
0.0
 71
0
 72
100
 73
1
 74
1
 75
0
 76
0
 77
0
 78
0
  0
ENDTAB
  0
TABLE
  2
LTYPE
  5
5
100
AcDbSymbolTable
 70
6
  0
LTYPE
  5
14
100
AcDbSymbolTableRecord
100
AcDbLinetypeTableRecord
  2
BYBLOCK
 70
0
  3

 72
65
 73
0
 40
0.0
  0
LTYPE
  5
15
100
AcDbSymbolTableRecord
100
AcDbLinetypeTableRecord
  2
BYLAYER
 70
0
  3

 72
65
 73
0
 40
0.0
  0
LTYPE
  5
16
100
AcDbSymbolTableRecord
100
AcDbLinetypeTableRecord
  2
CONTINUOUS
 70
64
  3
Solid line
 72
65
 73
0
 40
0.0
  0
LTYPE
  5
1F5
100
AcDbSymbolTableRecord
100
AcDbLinetypeTableRecord
  2
CENTER
 70
64
  3
____ _ ____ _ ____ _ ____ _ ____ _ ____ _ ____
 72
65
 73
4
 40
0.6
 49
0.375
 74
0
 49
-0.075
 74
0
 49
0.075
 74
0
 49
-0.075
 74
0
  0
LTYPE
  5
1F6
100
AcDbSymbolTableRecord
100
AcDbLinetypeTableRecord
  2
HIDDEN
 70
64
  3
- - - - - - - - - - - - - - - - - - - -
 72
65
 73
2
 40
0.2
 49
0.1
 74
0
 49
-0.1
 74
0
  0
LTYPE
  5
1F7
100
AcDbSymbolTableRecord
100
AcDbLinetypeTableRecord
  2
PHANTOM
 70
64
  3
_____ _ _ _____ _ _ _____ _ _ _____
 72
65
 73
6
 40
0.8
 49
0.45
 74
0
 49
-0.05
 74
0
 49
0.1
 74
0
 49
-0.05
 74
0
 49
0.1
 74
0
 49
-0.05
 74
0
  0
LTYPE
  5
1F8
100
AcDbSymbolTableRecord
100
AcDbLinetypeTableRecord
  2
DOT
 70
64
  3
. . . . . . . . . . . . . . . . . . . .
 72
65
 73
2
 40
0.2
 49
0.1
 74
0
 49
-0.1
 74
0
  0
LTYPE
  5
1F9
100
AcDbSymbolTableRecord
100
AcDbLinetypeTableRecord
  2
DASHED
 70
64
  3
- - - - - - - - - - - - - - - - - - - -
 72
65
 73
2
 40
0.2
 49
0.1
 74
0
 49
-0.1
 74
0
  0
ENDTAB
  0
TABLE
  2
LAYER
  5
2
100
AcDbSymbolTable
 70
36
  0
LAYER
  5
10
100
AcDbSymbolTableRecord
100
AcDbLayerTableRecord
  2
0
 70
0
 62
7
  6
CONTINUOUS
370
-3
390
F
  0
LAYER
  5
1FA
100
AcDbSymbolTableRecord
100
AcDbLayerTableRecord
  2
DEFAULT_1
 70
0
 62
7
  6
CENTER
370
-3
390
F
  0
LAYER
  5
1FB
100
AcDbSymbolTableRecord
100
AcDbLayerTableRecord
  2
DEFAULT_2
 70
0
 62
7
  6
HIDDEN
370
-3
390
F
  0
LAYER
  5
1FC
100
AcDbSymbolTableRecord
100
AcDbLayerTableRecord
  2
DEFAULT_3
 70
0
 62
7
  6
PHANTOM
370
-3
390
F
  0
LAYER
  5
1FD
100
AcDbSymbolTableRecord
100
AcDbLayerTableRecord
  2
ASSI
 70
0
 62
7
  6
CONTINUOUS
370
-3
390
F
  0
LAYER
  5
1FE
100
AcDbSymbolTableRecord
100
AcDbLayerTableRecord
  2
COORDINATE
 70
0
 62
7
  6
CONTINUOUS
370
-3
390
F
  0
LAYER
  5
1FF
100
AcDbSymbolTableRecord
100
AcDbLayerTableRecord
  2
COORD_ORIGINE
 70
0
 62
7
  6
CONTINUOUS
370
-3
390
F
  0
LAYER
  5
200
100
AcDbSymbolTableRecord
100
AcDbLayerTableRecord
  2
CORPO
 70
0
 62
7
  6
CONTINUOUS
370
-3
390
F
  0
LAYER
  5
201
100
AcDbSymbolTableRecord
100
AcDbLayerTableRecord
  2
COSMETICHE
 70
0
 62
7
  6
CONTINUOUS
370
-3
390
F
  0
LAYER
  5
202
100
AcDbSymbolTableRecord
100
AcDbLayerTableRecord
  2
CURVE
 70
0
 62
7
  6
CONTINUOUS
370
-3
390
F
  0
LAYER
  5
203
100
AcDbSymbolTableRecord
100
AcDbLayerTableRecord
  2
DRAFT
 70
0
 62
7
  6
CONTINUOUS
370
-3
390
F
  0
LAYER
  5
204
100
AcDbSymbolTableRecord
100
AcDbLayerTableRecord
  2
NOTE
 70
0
 62
7
  6
CONTINUOUS
370
-3
390
F
  0
LAYER
  5
205
100
AcDbSymbolTableRecord
100
AcDbLayerTableRecord
  2
PIANI
 70
0
 62
7
  6
CONTINUOUS
370
-3
390
F
  0
LAYER
  5
206
100
AcDbSymbolTableRecord
100
AcDbLayerTableRecord
  2
PIANI_ORIGINE
 70
0
 62
7
  6
CONTINUOUS
370
-3
390
F
  0
LAYER
  5
207
100
AcDbSymbolTableRecord
100
AcDbLayerTableRecord
  2
PIANI_RIFERIMENTO
 70
0
 62
7
  6
CONTINUOUS
370
-3
390
F
  0
LAYER
  5
208
100
AcDbSymbolTableRecord
100
AcDbLayerTableRecord
  2
PIANI_SFORMI
 70
0
 62
7
  6
CONTINUOUS
370
-3
390
F
  0
LAYER
  5
209
100
AcDbSymbolTableRecord
100
AcDbLayerTableRecord
  2
PUNTI
 70
0
 62
7
  6
CONTINUOUS
370
-3
390
F
  0
LAYER
  5
20A
100
AcDbSymbolTableRecord
100
AcDbLayerTableRecord
  2
RACCORDO
 70
0
 62
7
  6
CONTINUOUS
370
-3
390
F
  0
LAYER
  5
20B
100
AcDbSymbolTableRecord
100
AcDbLayerTableRecord
  2
SMUSSO
 70
0
 62
7
  6
CONTINUOUS
370
-3
390
F
  0
LAYER
  5
20C
100
AcDbSymbolTableRecord
100
AcDbLayerTableRecord
  2
SUPERFICI
 70
0
 62
7
  6
CONTINUOUS
370
-3
390
F
  0
LAYER
  5
20D
100
AcDbSymbolTableRecord
100
AcDbLayerTableRecord
  2
TRASH
 70
0
 62
7
  6
CONTINUOUS
370
-3
390
F
  0
LAYER
  5
20E
100
AcDbSymbolTableRecord
100
AcDbLayerTableRecord
  2
XSEC_DATUMS
 70
0
 62
7
  6
CONTINUOUS
370
-3
390
F
  0
ENDTAB
  0
TABLE
  2
STYLE
  5
3
100
AcDbSymbolTable
 70
1
  0
STYLE
  5
11
100
AcDbSymbolTableRecord
100
AcDbTextStyleTableRecord
  2
STANDARD
 70
0
 40
0.0
 41
0.8
 50
0.0
 71
0
 42
0.2
  3
txt
  4

  0
STYLE
  5
20F
100
AcDbSymbolTableRecord
100
AcDbTextStyleTableRecord
  2
TEXTSTYLE_1
 70
0
 40
0.0
 41
0.8
 50
0.0
 71
0
 42
0.2
  3
gdt
  4

  0
ENDTAB
  0
TABLE
  2
VIEW
  5
6
100
AcDbSymbolTable
 70
0
  0
ENDTAB
  0
TABLE
  2
UCS
  5
7
100
AcDbSymbolTable
 70
0
  0
ENDTAB
  0
TABLE
  2
APPID
  5
9
100
AcDbSymbolTable
 70
1
  0
APPID
  5
210
100
AcDbSymbolTableRecord
100
AcDbRegAppTableRecord
  2
ACAD
 70
0
  0
ENDTAB
  0
TABLE
  2
BLOCK_RECORD
  5
1
100
AcDbSymbolTable
 70
0
  0
BLOCK_RECORD
  5
211
100
AcDbSymbolTableRecord
100
AcDbBlockTableRecord
  2
*Model_Space
  0
BLOCK_RECORD
  5
212
100
AcDbSymbolTableRecord
100
AcDbBlockTableRecord
  2
*Paper_Space
  0
ENDTAB
  0
TABLE
  2
DIMSTYLE
  5
A
100
AcDbSymbolTable
 70
1
100
AcDbDimStyleTable
 71
0
  0
DIMSTYLE
105
213
100
AcDbSymbolTableRecord
100
AcDbDimStyleTableRecord
  2
STANDARD
 70
0
  3

  4

 40
1.0
 41
3.0
 42
0.0625
 43
0.38
 44
0.18
 45
0.0
 46
0.0
 47
0.01
 48
0.01
140
3.0
141
0.09
142
0.0
143
25.4
144
1.0
145
0.0
146
1.0
147
0.09
 71
1.0
 72
0.0
 73
0
 74
0
 75
0
 76
0
 77
1
 78
8
170
0
171
2
172
0
173
0
174
0
175
0
176
0
177
0
178
0
270
2
271
2
272
2
273
2
274
2
275
0
280
0
281
0
282
0
283
1
284
8
285
0
286
0
287
3
288
0
340
11
  0
ENDTAB
  0
ENDSEC
  0
SECTION
  2
BLOCKS
  0
BLOCK
  5
20
100
AcDbEntity
  8
0
100
AcDbBlockBegin
  2
*Model_Space
 70
0
 10
0.0
 20
0.0
 30
0.0
  3
*Model_Space
  1

  0
ENDBLK
  5
21
100
AcDbEntity
  8
0
100
AcDbBlockEnd
  0
BLOCK
  5
1C
100
AcDbEntity
  8
0
100
AcDbBlockBegin
  2
*Paper_Space
 70
0
 10
0.0
 20
0.0
 30
0.0
  3
*Paper_Space
  1

  0
ENDBLK
  5
1D
100
AcDbEntity
  8
0
100
AcDbBlockEnd
  0
ENDSEC
  0
SECTION
  2
ENTITIES
  0
LINE
  5
214
100
AcDbEntity
  8
RACCORDO
100
AcDbLine
 62
7
  6
CONTINUOUS
 10
-13.1102175209
 20
24.477289302
 11
-14.6933892159
 21
23.6650922547
  0
LINE
  5
215
100
AcDbEntity
  8
RACCORDO
100
AcDbLine
 62
253
  6
CONTINUOUS
 10
-12.9975469466
 20
24.4706283769
 11
-14.5803035497
 21
23.6586442796
  0
LINE
  5
216
100
AcDbEntity
  8
RACCORDO
100
AcDbLine
 62
7
  6
CONTINUOUS
 10
-13.1084791354
 20
24.4781585348
 11
-13.1102155472
 21
24.4772903146
  0
LINE
  5
217
100
AcDbEntity
  8
RACCORDO
100
AcDbLine
 62
7
  6
CONTINUOUS
 10
-12.573609179
 20
24.7387106346
 11
-13.1084763698
 21
24.478159882
  0
LINE
  5
218
100
AcDbEntity
  8
RACCORDO
100
AcDbLine
 62
253
  6
CONTINUOUS
 10
-12.4630970679
 20
24.7309758435
 11
-12.9975469466
 21
24.4706283769
  0
LWPOLYLINE
  5
219
100
AcDbEntity
  8
RACCORDO
100
AcDbPolyline
 62
7
  6
CONTINUOUS
 90
37
 70
0
 10
-18.7152472667
 20
19.6412514283
 10
-18.7469285446
 20
19.6222021655
 10
-18.7898209288
 20
19.5945456036
 10
-18.8318954823
 20
19.5652668358
 10
-18.8731355203
 20
19.534426112
 10
-18.9135322272
 20
19.5020769684
 10
-18.9530717005
 20
19.4682716373
 10
-18.9917396321
 20
19.4330617509
 10
-19.0295208622
 20
19.396495768
 10
-19.0663902849
 20
19.3586287501
 10
-19.1023310206
 20
19.3195085531
 10
-19.1373240064
 20
19.2791804961
 10
-19.1713358066
 20
19.237706942
 10
-19.2043455937
 20
19.1951352892
 10
-19.2363314408
 20
19.1515102479
 10
-19.2672558283
 20
19.1069005466
 10
-19.2970951486
 20
19.0613536407
 10
-19.3258259457
 20
19.014915759
 10
-19.3534092913
 20
18.9676596489
 10
-19.3798203795
 20
18.9196328338
 10
-19.4050348389
 20
18.8708838001
 10
-19.4290131117
 20
18.8214888063
 10
-19.4517304937
 20
18.7714963092
 10
-19.4731622362
 20
18.7209552756
 10
-19.4932702768
 20
18.669942903
 10
-19.5120308639
 20
18.6185075366
 10
-19.5294182846
 20
18.5666978483
 10
-19.5453976926
 20
18.5145893846
 10
-19.5599452094
 20
18.4622292118
 10
-19.5730340496
 20
18.4096643623
 10
-19.584633115
 20
18.3569648816
 10
-19.5947164391
 20
18.3041770616
 10
-19.6032558648
 20
18.2513460399
 10
-19.6102216453
 20
18.1985292753
 10
-19.6155835622
 20
18.1457709728
 10
-19.619311209
 20
18.0931162547
 10
-19.6209515537
 20
18.0557089599
  0
LINE
  5
21A
100
AcDbEntity
  8
RACCORDO
100
AcDbLine
 62
7
  6
CONTINUOUS
 10
-18.715256983
 20
19.6412459905
 11
-14.1262821561
 21
22.3170386324
  0
LINE
  5
21B
100
AcDbEntity
  8
RACCORDO
100
AcDbLine
 62
253
  6
CONTINUOUS
 10
-14.1262821561
 20
22.1722044559
 11
-18.4819029354
 21
19.6324785973
  0
LINE
  5
21C
100
AcDbEntity
  8
RACCORDO
100
AcDbLine
 62
253
  6
CONTINUOUS
 10
-11.6540380791
 20
23.7988739432
 11
-13.2553188699
 21
22.9961519397
  0
LINE
  5
21D
100
AcDbEntity
  8
RACCORDO
100
AcDbLine
 62
253
  6
CONTINUOUS
 10
-11.4772643754
 20
23.4939844044
 11
-13.0785451662
 21
22.6912624009
  0
LINE
  5
21E
100
AcDbEntity
  8
RACCORDO
100
AcDbLine
 62
253
  6
CONTINUOUS
 10
-11.1257709073
 20
24.0623127632
 11
-11.6540380791
 21
23.7988739432
  0
LINE
  5
21F
100
AcDbEntity
  8
RACCORDO
100
AcDbLine
 62
253
  6
CONTINUOUS
 10
-10.9489972037
 20
23.7574232244
 11
-11.4772643754
 21
23.4939844044
  0
LINE
  5
220
100
AcDbEntity
  8
RACCORDO
100
AcDbLine
 62
253
  6
CONTINUOUS
 10
-11.4772643754
 20
22.7669395519
 11
-10.9489972037
 21
23.4098917077
  0
LINE
  5
221
100
AcDbEntity
  8
RACCORDO
100
AcDbLine
 62
7
  6
CONTINUOUS
 10
-11.4772643754
 20
22.6774090856
 11
-10.9336366313
 21
23.3390565411
  0
LINE
  5
222
100
AcDbEntity
  8
RACCORDO
100
AcDbLine
 62
7
  6
CONTINUOUS
 10
-11.4772643754
 20
21.8918337434
 11
-12.3673245581
 21
21.3951528221
  0
LINE
  5
223
100
AcDbEntity
  8
RACCORDO
100
AcDbLine
 62
7
  6
CONTINUOUS
 10
-9.1084446571
 20
21.5617153301
 11
-8.7549032678
 21
21.7430887549
  0
LINE
  5
224
100
AcDbEntity
  8
ASSI
100
AcDbLine
 62
7
  6
CONTINUOUS
 10
-8.7549032678
 20
21.7430887549
 11
-3.4186798619
 21
24.3425322204
  0
LINE
  5
225
100
AcDbEntity
  8
RACCORDO
100
AcDbLine
 62
7
  6
CONTINUOUS
 10
-3.6673364806
 20
24.9884653558
 11
-10.0604947726
 21
21.882998034
  0
LINE
  5
226
100
AcDbEntity
  8
CORPO
100
AcDbLine
 62
7
  6
CONTINUOUS
 10
5.0478954234
 20
28.504966522
 11
-2.803347784
 21
24.8023419757
  0
LINE
  5
227
100
AcDbEntity
  8
CORPO
100
AcDbLine
 62
253
  6
CONTINUOUS
 10
5.4867801739
 20
28.472563587
 11
-2.5569702109
 21
24.6791531891
  0
LINE
  5
228
100
AcDbEntity
  8
RACCORDO
100
AcDbLine
 62
253
  6
CONTINUOUS
 10
2.4153209608
 20
-24.5718715139
 11
1.887053789
 21
-24.4633692369
  0
LINE
  5
229
100
AcDbEntity
  8
RACCORDO
100
AcDbLine
 62
253
  6
CONTINUOUS
 10
2.3259071654
 20
-24.2523047079
 11
1.887053789
 21
-24.1621673812
  0
LWPOLYLINE
  5
22A
100
AcDbEntity
  8
RACCORDO
100
AcDbPolyline
 62
7
  6
CONTINUOUS
 90
24
 70
0
 10
-4.2562463782
 20
-25.9075419563
 10
-4.233393001
 20
-25.9185665993
 10
-4.2010095587
 20
-25.9328457454
 10
-4.1679452025
 20
-25.9458791336
 10
-4.134229532
 20
-25.9576397392
 10
-4.0998709562
 20
-25.9681070215
 10
-4.0649095287
 20
-25.9772507577
 10
-4.0293882467
 20
-25.9850434877
 10
-3.9933171846
 20
-25.9914652671
 10
-3.9567345817
 20
-25.996489619
 10
-3.9196867711
 20
-26.0000917589
 10
-3.8821919558
 20
-26.0022520366
 10
-3.8442930508
 20
-26.0029488725
 10
-3.806030203
 20
-26.0021623017
 10
-3.7674120972
 20
-25.9998724465
 10
-3.7284792631
 20
-25.9960612164
 10
-3.6892702076
 20
-25.990711417
 10
-3.6497845656
 20
-25.9837991565
 10
-3.6100551344
 20
-25.9753048882
 10
-3.5701206942
 20
-25.9652116234
 10
-3.5299833044
 20
-25.9534915219
 10
-3.4896662109
 20
-25.9401203172
 10
-3.4492196828
 20
-25.9250846874
 10
-3.4216689832
 20
-25.9139040773
  0
LINE
  5
22B
100
AcDbEntity
  8
RACCORDO
100
AcDbLine
 62
7
  6
CONTINUOUS
 10
-4.2561540769
 20
-25.9075881178
 11
-19.090052791
 21
-18.4906387608
  0
LINE
  5
22C
100
AcDbEntity
  8
RACCORDO
100
AcDbLine
 62
7
  6
CONTINUOUS
 10
-4.2562456343
 20
-25.907542329
 11
-4.2561544035
 21
-25.9075879545
  0
LINE
  5
22D
100
AcDbEntity
  8
RACCORDO
100
AcDbLine
 62
253
  6
CONTINUOUS
 10
-4.6496228678
 20
-25.146988465
 11
-19.4744689454
 21
-17.7345654262
  0
LINE
  5
22E
100
AcDbEntity
  8
RACCORDO
100
AcDbLine
 62
7
  6
CONTINUOUS
 10
-1.3267603449
 20
-25.4426620753
 11
-0.001775665
 21
-26.1051544152
  0
LINE
  5
22F
100
AcDbEntity
  8
RACCORDO
100
AcDbLine
 62
253
  6
CONTINUOUS
 10
-1.3917336413
 20
-25.3074436252
 11
-0.0667489615
 21
-25.9699359651
  0
LINE
  5
230
100
AcDbEntity
  8
RACCORDO
100
AcDbLine
 62
253
  6
CONTINUOUS
 10
-0.0667489615
 20
-25.629962031
 11
-1.2891523318
 21
-25.0187603458
  0
LINE
  5
231
100
AcDbEntity
  8
0
100
AcDbLine
 62
7
  6
CONTINUOUS
 10
-3.8051557995
 20
21.7629130381
 11
-3.0980490183
 21
22.1164664286
  0
LINE
  5
232
100
AcDbEntity
  8
0
100
AcDbLine
 62
7
  6
CONTINUOUS
 10
-1.3467111212
 20
22.6385819866
 11
-2.7444956278
 21
21.9396897334
  0
LINE
  5
233
100
AcDbEntity
  8
ASSI
100
AcDbLine
 62
7
  6
CONTINUOUS
 10
-2.8131494272
 20
24.0397670031
 11
-7.4114003836
 21
21.7734057056
  0
LINE
  5
234
100
AcDbEntity
  8
DRAFT
100
AcDbLine
 62
7
  6
CONTINUOUS
 10
-3.0980490183
 20
22.669024618
 11
-2.7642733957
 21
22.8323449732
  0
LINE
  5
235
100
AcDbEntity
  8
RACCORDO
100
AcDbLine
 62
7
  6
CONTINUOUS
 10
-0.6877153699
 20
23.4986548005
 11
-2.7444956278
 21
22.4922479227
  0
LINE
  5
236
100
AcDbEntity
  8
CORPO
100
AcDbLine
 62
253
  6
CONTINUOUS
 10
-3.522366935
 20
21.133687088
 11
-3.484907939
 21
21.1509868937
  0
LINE
  5
237
100
AcDbEntity
  8
CORPO
100
AcDbLine
 62
7
  6
CONTINUOUS
 10
-3.6833909637
 20
21.1768450943
 11
-3.7345592317
 21
21.1532545837
  0
LINE
  5
238
100
AcDbEntity
  8
RACCORDO
100
AcDbLine
 62
253
  6
CONTINUOUS
 10
0.0216393862
 20
-25.3982678572
 11
-0.9891952417
 21
-24.8928505432
  0
LINE
  5
239
100
AcDbEntity
  8
RACCORDO
100
AcDbLine
 62
7
  6
CONTINUOUS
 10
0.6444716466
 20
-24.6534655539
 11
0.1591686184
 21
-24.4108140397
  0
LINE
  5
23A
100
AcDbEntity
  8
RACCORDO
100
AcDbLine
 62
253
  6
CONTINUOUS
 10
1.887053789
 20
-24.0328780197
 11
2.3259071654
 21
-24.2523047079
  0
LINE
  5
23B
100
AcDbEntity
  8
RACCORDO
100
AcDbLine
 62
7
  6
CONTINUOUS
 10
1.887053789
 20
-24.0292578702
 11
2.3493222166
 21
-24.260392084
  0
LWPOLYLINE
  5
23C
100
AcDbEntity
  8
RACCORDO
100
AcDbPolyline
 62
7
  6
CONTINUOUS
 90
27
 70
0
 10
-19.6209325797
 20
-17.556917961
 10
-19.6191692262
 20
-17.5950377881
 10
-19.6152589653
 20
-17.6461056317
 10
-19.6096204024
 20
-17.6962567391
 10
-19.6022645742
 20
-17.7454849987
 10
-19.5932095542
 20
-17.7937353084
 10
-19.5824882993
 20
-17.8408979755
 10
-19.5701224953
 20
-17.8869499587
 10
-19.556135844
 20
-17.9318580619
 10
-19.540584878
 20
-17.975499699
 10
-19.5235050548
 20
-18.0178478601
 10
-19.5049327823
 20
-18.0588752463
 10
-19.4849527957
 20
-18.0984628601
 10
-19.463634509
 20
-18.1365577371
 10
-19.441017792
 20
-18.173167544
 10
-19.4171626394
 20
-18.2082633258
 10
-19.3921520506
 20
-18.241793752
 10
-19.366030819
 20
-18.2737685636
 10
-19.3388015489
 20
-18.3042367629
 10
-19.3105278562
 20
-18.3331683099
 10
-19.2812716655
 20
-18.3605427442
 10
-19.2510230204
 20
-18.386402475
 10
-19.2198455166
 20
-18.4107167754
 10
-19.1878013426
 20
-18.4334613837
 10
-19.154869105
 20
-18.4546694416
 10
-19.1210809785
 20
-18.4743277158
 10
-19.0899303878
 20
-18.4906999419
  0
LWPOLYLINE
  5
23D
100
AcDbEntity
  8
RACCORDO
100
AcDbPolyline
 62
7
  6
CONTINUOUS
 90
22
 70
0
 10
-19.6209513684
 20
18.0557179905
 10
-19.6739065867
 20
16.3448742003
 10
-19.7219491156
 20
14.6235207241
 10
-19.7646554002
 20
12.9047021577
 10
-19.8020246147
 20
11.1884481126
 10
-19.834056219
 20
9.4747843087
 10
-19.8607497457
 20
7.7637348978
 10
-19.8821047344
 20
6.0553253021
 10
-19.898120858
 20
4.3495819146
 10
-19.9087978295
 20
2.6465303511
 10
-19.9141353925
 20
0.9461964123
 10
-19.9141334545
 20
-0.7513932996
 10
-19.9087919739
 20
-2.4462119677
 10
-19.8981109594
 20
-4.1382330435
 10
-19.8820905837
 20
-5.8274309485
 10
-19.8607310505
 20
-7.5137803223
 10
-19.8340326031
 20
-9.1972550659
 10
-19.8019956183
 20
-10.8778301897
 10
-19.7646204798
 20
-12.5554819881
 10
-19.7219076438
 20
-14.2301852656
 10
-19.6738578518
 20
-15.9019112273
 10
-19.6209327468
 20
-17.5569184646
  0
LINE
  5
23E
100
AcDbEntity
  8
CORPO
100
AcDbLine
 62
7
  6
CONTINUOUS
 10
-4.6266730061
 20
20.3810420168
 11
-3.7726174751
 21
21.128506329
  0
LINE
  5
23F
100
AcDbEntity
  8
ASSI
100
AcDbLine
 62
7
  6
CONTINUOUS
 10
2.1365980411
 20
21.5648932689
 11
-2.4616529153
 21
19.2985319714
  0
LINE
  5
240
100
AcDbEntity
  8
CORPO
100
AcDbLine
 62
7
  6
CONTINUOUS
 10
9.6354640789
 20
26.3982216345
 11
6.0616852746
 21
24.6924517696
  0
LINE
  5
241
100
AcDbEntity
  8
CORPO
100
AcDbLine
 62
253
  6
CONTINUOUS
 10
-4.4727704513
 20
20.3040907394
 11
-3.5239718598
 21
21.1344736137
  0
LINE
  5
242
100
AcDbEntity
  8
RACCORDO
100
AcDbLine
 62
7
  6
CONTINUOUS
 10
-2.5323635934
 20
17.4193833524
 11
-2.8900427427
 21
17.2197874005
  0
LINE
  5
243
100
AcDbEntity
  8
0
100
AcDbLine
 62
7
  6
CONTINUOUS
 10
6.1929376034
 20
22.262958313
 11
6.9984276088
 21
22.68770912
  0
LINE
  5
244
100
AcDbEntity
  8
RACCORDO
100
AcDbLine
 62
253
  6
CONTINUOUS
 10
6.9982998268
 20
22.6876417332
 11
6.9984276088
 21
22.68770912
  0
LINE
  5
245
100
AcDbEntity
  8
CORPO
100
AcDbLine
 62
7
  6
CONTINUOUS
 10
6.5370634579
 20
23.4591321658
 11
10.7595002225
 21
25.6075235998
  0
LINE
  5
246
100
AcDbEntity
  8
CORPO
100
AcDbLine
 62
7
  6
CONTINUOUS
 10
6.5370634579
 20
23.0489131228
 11
10.7595002225
 21
25.1669533153
  0
LINE
  5
247
100
AcDbEntity
  8
RACCORDO
100
AcDbLine
 62
7
  6
CONTINUOUS
 10
-2.8900427427
 20
18.4525143729
 11
-2.5323635934
 21
18.6318189177
  0
LINE
  5
248
100
AcDbEntity
  8
0
100
AcDbLine
 62
7
  6
CONTINUOUS
 10
7.1267150376
 20
22.4646173887
 11
7.6216897844
 21
22.7121047621
  0
LINE
  5
249
100
AcDbEntity
  8
RACCORDO
100
AcDbLine
 62
7
  6
CONTINUOUS
 10
10.089867697
 20
22.8926046144
 11
8.7784033859
 21
22.2368724589
  0
LINE
  5
24A
100
AcDbEntity
  8
RACCORDO
100
AcDbLine
 62
7
  6
CONTINUOUS
 10
8.0771796441
 20
21.8862605879
 11
7.9741268821
 21
21.8347342069
  0
LINE
  5
24B
100
AcDbEntity
  8
ASSI
100
AcDbLine
 62
7
  6
CONTINUOUS
 10
-2.5323635934
 20
18.6318189177
 11
2.7421284757
 21
21.2621280516
  0
LINE
  5
24C
100
AcDbEntity
  8
DRAFT
100
AcDbLine
 62
7
  6
CONTINUOUS
 10
-2.5323635934
 20
17.4193833524
 11
2.7924704768
 21
20.0557147843
  0
LINE
  5
24D
100
AcDbEntity
  8
RACCORDO
100
AcDbLine
 62
7
  6
CONTINUOUS
 10
3.5549253172
 20
21.3773344569
 11
2.9160645407
 21
21.0647323318
  0
LINE
  5
24E
100
AcDbEntity
  8
RACCORDO
100
AcDbLine
 62
7
  6
CONTINUOUS
 10
-14.8292751104
 20
23.4426558123
 11
-14.8292751104
 21
23.1026818782
  0
LINE
  5
24F
100
AcDbEntity
  8
RACCORDO
100
AcDbLine
 62
253
  6
CONTINUOUS
 10
-14.7560518057
 20
23.3542674646
 11
-14.7560518057
 21
23.0142935305
  0
LINE
  5
250
100
AcDbEntity
  8
0
100
AcDbLine
 62
7
  6
CONTINUOUS
 10
-14.4117575173
 20
-7.098390423
 11
-14.4117575173
 21
-8.1919335083
  0
LINE
  5
251
100
AcDbEntity
  8
RACCORDO
100
AcDbLine
 62
7
  6
CONTINUOUS
 10
-14.1262821561
 20
22.5966769038
 11
-14.1262821561
 21
22.1427198093
  0
LINE
  5
252
100
AcDbEntity
  8
RACCORDO
100
AcDbLine
 62
253
  6
CONTINUOUS
 10
-14.0530588514
 20
22.5600652515
 11
-14.0530588514
 21
22.0509911073
  0
LINE
  5
253
100
AcDbEntity
  8
0
100
AcDbLine
 62
7
  6
CONTINUOUS
 10
-13.8460720924
 20
3.6432506988
 11
-13.8460720924
 21
2.5237464073
  0
LINE
  5
254
100
AcDbEntity
  8
RACCORDO
100
AcDbLine
 62
7
  6
CONTINUOUS
 10
0.2541006435
 20
17.7951302198
 11
-1.3290710515
 21
16.9829331725
  0
LINE
  5
255
100
AcDbEntity
  8
RACCORDO
100
AcDbLine
 62
253
  6
CONTINUOUS
 10
0.3667712178
 20
17.7884692947
 11
-1.2159853853
 21
16.9764851974
  0
LINE
  5
256
100
AcDbEntity
  8
RACCORDO
100
AcDbLine
 62
253
  6
CONTINUOUS
 10
1.7102800853
 20
17.116714861
 11
0.1089992945
 21
16.3139928575
  0
LINE
  5
257
100
AcDbEntity
  8
RACCORDO
100
AcDbLine
 62
253
  6
CONTINUOUS
 10
1.887053789
 20
16.8118253222
 11
0.2857729982
 21
16.0091033187
  0
LINE
  5
258
100
AcDbEntity
  8
RACCORDO
100
AcDbLine
 62
7
  6
CONTINUOUS
 10
0.255839029
 20
17.7959994526
 11
0.2541026172
 21
17.7951312324
  0
LINE
  5
259
100
AcDbEntity
  8
RACCORDO
100
AcDbLine
 62
7
  6
CONTINUOUS
 10
10.9383984047
 20
22.4683418308
 11
9.8986046093
 21
21.9484449331
  0
LINE
  5
25A
100
AcDbEntity
  8
RACCORDO
100
AcDbLine
 62
253
  6
CONTINUOUS
 10
2.2385472571
 20
17.380153681
 11
1.7102800853
 21
17.116714861
  0
LINE
  5
25B
100
AcDbEntity
  8
RACCORDO
100
AcDbLine
 62
253
  6
CONTINUOUS
 10
2.4153209608
 20
17.0752641422
 11
1.887053789
 21
16.8118253222
  0
LINE
  5
25C
100
AcDbEntity
  8
RACCORDO
100
AcDbLine
 62
7
  6
CONTINUOUS
 10
6.5345464279
 20
19.8875239016
 11
1.9083120722
 21
17.6072486444
  0
LINE
  5
25D
100
AcDbEntity
  8
RACCORDO
100
AcDbLine
 62
7
  6
CONTINUOUS
 10
0.7907089854
 20
18.0565515523
 11
0.2558417946
 21
17.7960007998
  0
LINE
  5
25E
100
AcDbEntity
  8
RACCORDO
100
AcDbLine
 62
253
  6
CONTINUOUS
 10
0.9012210965
 20
18.0488167613
 11
0.3667712178
 21
17.7884692947
  0
LINE
  5
25F
100
AcDbEntity
  8
CORPO
100
AcDbLine
 62
7
  6
CONTINUOUS
 10
14.4572895491
 20
23.9873088994
 11
10.8931555096
 21
22.2767166521
  0
LINE
  5
260
100
AcDbEntity
  8
0
100
AcDbLine
 62
253
  6
CONTINUOUS
 10
-8.9875248953
 20
-12.1940113944
 11
-10.7305843001
 21
-11.3224816908
  0
LINE
  5
261
100
AcDbEntity
  8
0
100
AcDbLine
 62
253
  6
CONTINUOUS
 10
-13.9053443529
 20
-9.7351016644
 11
-15.6484014982
 21
-8.863573093
  0
LINE
  5
262
100
AcDbEntity
  8
0
100
AcDbLine
 62
253
  6
CONTINUOUS
 10
-9.0804873857
 20
-11.673416869
 11
-10.59285258
 21
-10.9172342718
  0
LINE
  5
263
100
AcDbEntity
  8
0
100
AcDbLine
 62
253
  6
CONTINUOUS
 10
-13.6225639219
 20
-9.4023786008
 11
-15.2260225953
 21
-8.6006492641
  0
LINE
  5
264
100
AcDbEntity
  8
0
100
AcDbLine
 62
7
  6
CONTINUOUS
 10
-14.4117575173
 20
-8.1919335083
 11
-12.8004733892
 21
-8.9975755603
  0
LINE
  5
265
100
AcDbEntity
  8
0
100
AcDbLine
 62
7
  6
CONTINUOUS
 10
-9.8005019466
 20
-10.4975612816
 11
-9.089646831
 21
-10.8529888447
  0
LWPOLYLINE
  5
266
100
AcDbEntity
  8
0
100
AcDbPolyline
 62
7
  6
CONTINUOUS
 90
51
 70
0
 10
-10.8141349912
 20
-11.290807086
 10
-10.8033674125
 20
-11.3125518849
 10
-10.7689327856
 20
-11.3842240156
 10
-10.7358670684
 20
-11.4563936597
 10
-10.704201704
 20
-11.5289874776
 10
-10.6739690799
 20
-11.6019271463
 10
-10.645200509
 20
-11.6751286203
 10
-10.6179224095
 20
-11.7485149048
 10
-10.5921601601
 20
-11.8220085688
 10
-10.5679388425
 20
-11.8955236938
 10
-10.5452784707
 20
-11.9689827476
 10
-10.524197973
 20
-12.0423079701
 10
-10.5047157114
 20
-12.1154122776
 10
-10.4868448433
 20
-12.1882185797
 10
-10.4705973939
 20
-12.2606497591
 10
-10.4559844752
 20
-12.3326183005
 10
-10.4430118822
 20
-12.4040489069
 10
-10.4316843457
 20
-12.4748658296
 10
-10.4220052528
 20
-12.5449809735
 10
-10.4139727069
 20
-12.6143206018
 10
-10.4075833705
 20
-12.6828128823
 10
-10.4028318613
 20
-12.7503731628
 10
-10.3997085338
 20
-12.816919598
 10
-10.3982009154
 20
-12.8823966195
 10
-10.3982950567
 20
-12.94675844
 10
-10.3999741683
 20
-13.0099165088
 10
-10.4032206631
 20
-13.0718291807
 10
-10.4080220891
 20
-13.1325150912
 10
-10.4143602041
 20
-13.1919004302
 10
-10.4222165474
 20
-13.2499281024
 10
-10.4315864983
 20
-13.3066292844
 10
-10.442452029
 20
-13.3619364245
 10
-10.4547927924
 20
-13.4157813458
 10
-10.4686083141
 20
-13.4681788295
 10
-10.483877255
 20
-13.51905736
 10
-10.5005767916
 20
-13.5683497122
 10
-10.5187095903
 20
-13.6160614471
 10
-10.538245565
 20
-13.6621098959
 10
-10.559163068
 20
-13.7064410152
 10
-10.5814847846
 20
-13.7490853788
 10
-10.6051794341
 20
-13.7899609343
 10
-10.6302284189
 20
-13.8290140138
 10
-10.6566881218
 20
-13.8662952685
 10
-10.6845317057
 20
-13.9017209391
 10
-10.7137546779
 20
-13.9352393416
 10
-10.7444743271
 20
-13.9669200382
 10
-10.7766775369
 20
-13.9966694913
 10
-10.8103937904
 20
-14.0244340253
 10
-10.8458515581
 20
-14.0502935343
 10
-10.8831718189
 20
-14.0741879524
 10
-10.9235844686
 20
-14.0965995413
  0
LINE
  5
267
100
AcDbEntity
  8
RACCORDO
100
AcDbLine
 62
253
  6
CONTINUOUS
 10
-13.4310671259
 20
22.3518011906
 11
-13.4310671259
 21
22.6917751247
  0
LINE
  5
268
100
AcDbEntity
  8
RACCORDO
100
AcDbLine
 62
253
  6
CONTINUOUS
 10
-13.0785451662
 20
22.3512884667
 11
-13.0785451662
 21
22.6912624009
  0
LINE
  5
269
100
AcDbEntity
  8
RACCORDO
100
AcDbLine
 62
253
  6
CONTINUOUS
 10
-12.7198465178
 20
22.0732055634
 11
-12.7198465178
 21
21.3843849405
  0
LINE
  5
26A
100
AcDbEntity
  8
RACCORDO
100
AcDbLine
 62
253
  6
CONTINUOUS
 10
-12.3673245581
 20
22.2027849439
 11
-12.3673245581
 21
21.3951528221
  0
LINE
  5
26B
100
AcDbEntity
  8
RACCORDO
100
AcDbLine
 62
7
  6
CONTINUOUS
 10
-11.4772643754
 20
21.8918337434
 11
-11.4772643754
 21
23.4939844044
  0
LINE
  5
26C
100
AcDbEntity
  8
RACCORDO
100
AcDbLine
 62
253
  6
CONTINUOUS
 10
-3.6336844746
 20
12.208369367
 11
0.8853466638
 21
14.6754412952
  0
LINE
  5
26D
100
AcDbEntity
  8
RACCORDO
100
AcDbLine
 62
253
  6
CONTINUOUS
 10
2.2298375379
 20
14.606717091
 11
-3.2678517346
 21
11.6053669212
  0
LINE
  5
26E
100
AcDbEntity
  8
RACCORDO
100
AcDbLine
 62
7
  6
CONTINUOUS
 10
7.5034267197
 20
18.6126633366
 11
2.1452753826
 21
15.7801129564
  0
LINE
  5
26F
100
AcDbEntity
  8
CORPO
100
AcDbLine
 62
7
  6
CONTINUOUS
 10
2.5878453727
 20
15.5588279613
 11
8.1825301876
 21
18.4977716791
  0
LINE
  5
270
100
AcDbEntity
  8
RACCORDO
100
AcDbLine
 62
7
  6
CONTINUOUS
 10
7.5034267197
 20
18.9976740673
 11
1.9717108817
 21
16.0982858593
  0
LINE
  5
271
100
AcDbEntity
  8
0
100
AcDbLine
 62
7
  6
CONTINUOUS
 10
-13.1675278437
 20
6.8467702792
 11
-13.1670740329
 21
6.8469911002
  0
LINE
  5
272
100
AcDbEntity
  8
CORPO
100
AcDbLine
 62
253
  6
CONTINUOUS
 10
8.9280571233
 20
17.2119279203
 11
18.6059734541
 21
21.9129669469
  0
LINE
  5
273
100
AcDbEntity
  8
RACCORDO
100
AcDbLine
 62
253
  6
CONTINUOUS
 10
2.5940528601
 20
15.5557242177
 11
1.887053789
 21
15.2217805852
  0
LINE
  5
274
100
AcDbEntity
  8
RACCORDO
100
AcDbLine
 62
253
  6
CONTINUOUS
 10
2.9477139608
 20
14.945798527
 11
2.2298375379
 21
14.606717091
  0
LWPOLYLINE
  5
275
100
AcDbEntity
  8
0
100
AcDbPolyline
 62
7
  6
CONTINUOUS
 90
96
 70
0
 10
-13.1675196667
 20
6.8467738871
 10
-13.1278478824
 20
6.8647671053
 10
-13.0852565186
 20
6.881274533
 10
-13.0421114866
 20
6.8952471274
 10
-12.9984036178
 20
6.9067763937
 10
-12.9539969162
 20
6.9159624704
 10
-12.9089186419
 20
6.9228445851
 10
-12.8632365288
 20
6.9274533161
 10
-12.8168696496
 20
6.9298303554
 10
-12.7698599187
 20
6.9299947361
 10
-12.7222773922
 20
6.9279663886
 10
-12.6740819583
 20
6.9237603826
 10
-12.6253292283
 20
6.9173902331
 10
-12.576090263
 20
6.9088744876
 10
-12.5263444208
 20
6.8982166975
 10
-12.476154027
 20
6.8854312407
 10
-12.4255895698
 20
6.8705383177
 10
-12.3746363365
 20
6.8535340145
 10
-12.3233595529
 20
6.8344353256
 10
-12.2718265442
 20
6.8132638276
 10
-12.2200187343
 20
6.7900062991
 10
-12.1679951325
 20
6.7646781915
 10
-12.1158263497
 20
6.7373038748
 10
-12.0635054041
 20
6.7078685709
 10
-12.0110791361
 20
6.6763821888
 10
-11.9586280005
 20
6.6428772591
 10
-11.9061913965
 20
6.6073652943
 10
-11.8538293533
 20
6.5698714391
 10
-11.8016069692
 20
6.5304270952
 10
-11.7495680782
 20
6.4890517539
 10
-11.6977720651
 20
6.4457775378
 10
-11.6462817198
 20
6.4006417617
 10
-11.5951432821
 20
6.3536715121
 10
-11.5444105826
 20
6.3049013308
 10
-11.494148587
 20
6.2543783983
 10
-11.4444174169
 20
6.2021507551
 10
-11.3952734209
 20
6.1482652037
 10
-11.3467738568
 20
6.0927715396
 10
-11.2989769187
 20
6.0357259225
 10
-11.2519366893
 20
5.9771828322
 10
-11.2057063909
 20
5.9171976161
 10
-11.1603395374
 20
5.8558311538
 10
-11.1158857128
 20
5.7931423974
 10
-11.0723955363
 20
5.7291936022
 10
-11.0299204746
 20
5.6640538292
 10
-10.9885061807
 20
5.5977874136
 10
-10.948198854
 20
5.5304614414
 10
-10.9090467251
 20
5.4621522497
 10
-10.8710913163
 20
5.3929296363
 10
-10.8343733314
 20
5.3228639257
 10
-10.7989353695
 20
5.2520350235
 10
-10.764813759
 20
5.180516255
 10
-10.7320438808
 20
5.10838117
 10
-10.7006623178
 20
5.03571225
 10
-10.6706999697
 20
4.9625858479
 10
-10.642186286
 20
4.8890773254
 10
-10.615151001
 20
4.8152693655
 10
-10.5896188766
 20
4.7412392972
 10
-10.5656136125
 20
4.6670643901
 10
-10.5431586103
 20
4.5928284301
 10
-10.5222722886
 20
4.5186090473
 10
-10.5029720941
 20
4.4444842463
 10
-10.4852750133
 20
4.3705391446
 10
-10.469193011
 20
4.2968518784
 10
-10.4547365588
 20
4.2234991023
 10
-10.4419153196
 20
4.1505641101
 10
-10.4307343561
 20
4.0781237494
 10
-10.4211971956
 20
4.0062532382
 10
-10.4133061231
 20
3.9350335476
 10
-10.407059006
 20
3.8645382932
 10
-10.4024523084
 20
3.7948413293
 10
-10.3994808786
 20
3.7260238009
 10
-10.3981351435
 20
3.6581611776
 10
-10.3984035592
 20
3.5913184879
 10
-10.4002732472
 20
3.5255612176
 10
-10.4037260172
 20
3.4609824252
 10
-10.4087439736
 20
3.3976207567
 10
-10.4153162095
 20
3.335464635
 10
-10.4234235842
 20
3.2745881901
 10
-10.4330465764
 20
3.2150486808
 10
-10.4441817528
 20
3.1568205716
 10
-10.4568103107
 20
3.0999715379
 10
-10.4709105764
 20
3.0445687107
 10
-10.4864828676
 20
2.9906001201
 10
-10.5035057798
 20
2.9381356108
 10
-10.5219550977
 20
2.8872424003
 10
-10.5418330986
 20
2.8379193899
 10
-10.5631151663
 20
2.7902357538
 10
-10.585773658
 20
2.7442580409
 10
-10.6098112524
 20
2.6999943004
 10
-10.635197431
 20
2.6575144897
 10
-10.6619051287
 20
2.6168751285
 10
-10.6899490688
 20
2.578074723
 10
-10.7193187234
 20
2.541153675
 10
-10.7499747011
 20
2.5061864885
 10
-10.7751819904
 20
2.479881053
  0
LINE
  5
276
100
AcDbEntity
  8
0
100
AcDbLine
 62
7
  6
CONTINUOUS
 10
-15.4341509885
 20
-6.5871936874
 11
-9.1005442425
 21
-9.7539970604
  0
LINE
  5
277
100
AcDbEntity
  8
0
100
AcDbLine
 62
253
  6
CONTINUOUS
 10
-15.6748879425
 20
-6.3460791928
 11
-9.0135533243
 21
-9.676746502
  0
LINE
  5
278
100
AcDbEntity
  8
0
100
AcDbLine
 62
7
  6
CONTINUOUS
 10
-9.0821331813
 20
-11.5357014008
 11
-9.0776731774
 21
-11.9062975283
  0
LINE
  5
279
100
AcDbEntity
  8
0
100
AcDbLine
 62
7
  6
CONTINUOUS
 10
-9.088430397
 20
-10.9706458049
 11
-9.0821331813
 21
-11.5357014008
  0
LINE
  5
27A
100
AcDbEntity
  8
0
100
AcDbLine
 62
7
  6
CONTINUOUS
 10
-9.0941239399
 20
-10.4052738253
 11
-9.088430397
 21
-10.9706458049
  0
LINE
  5
27B
100
AcDbEntity
  8
0
100
AcDbLine
 62
7
  6
CONTINUOUS
 10
-9.0999411085
 20
-9.7527907925
 11
-9.0941239399
 21
-10.4052738253
  0
LINE
  5
27C
100
AcDbEntity
  8
RACCORDO
100
AcDbLine
 62
253
  6
CONTINUOUS
 10
-10.9489972037
 20
23.7574232244
 11
-10.9489972037
 21
23.4098917077
  0
LINE
  5
27D
100
AcDbEntity
  8
RACCORDO
100
AcDbLine
 62
7
  6
CONTINUOUS
 10
-10.8767993467
 20
23.8452958566
 11
-10.8767993467
 21
23.4977643398
  0
LINE
  5
27E
100
AcDbEntity
  8
RACCORDO
100
AcDbLine
 62
7
  6
CONTINUOUS
 10
-9.252840371
 20
21.3775583289
 11
-9.252840371
 21
20.1373692962
  0
LINE
  5
27F
100
AcDbEntity
  8
RACCORDO
100
AcDbLine
 62
253
  6
CONTINUOUS
 10
-9.1063937616
 20
21.0344884979
 11
-9.1063937616
 21
19.9539051871
  0
LINE
  5
280
100
AcDbEntity
  8
0
100
AcDbLine
 62
7
  6
CONTINUOUS
 10
-9.6624196335
 20
-0.2558293804
 11
-9.6656141515
 21
-0.628389905
  0
LINE
  5
281
100
AcDbEntity
  8
0
100
AcDbLine
 62
7
  6
CONTINUOUS
 10
-9.6570267922
 20
0.315178338
 11
-9.6624196335
 21
-0.2558293804
  0
LINE
  5
282
100
AcDbEntity
  8
0
100
AcDbLine
 62
7
  6
CONTINUOUS
 10
-9.6510302935
 20
0.8864834929
 11
-9.6570267922
 21
0.315178338
  0
LINE
  5
283
100
AcDbEntity
  8
0
100
AcDbLine
 62
7
  6
CONTINUOUS
 10
-9.6433870132
 20
1.5439367293
 11
-9.6510302935
 21
0.8864834929
  0
LWPOLYLINE
  5
284
100
AcDbEntity
  8
0
100
AcDbPolyline
 62
7
  6
CONTINUOUS
 90
52
 70
0
 10
-10.7751215006
 20
2.4799415763
 10
-10.776714488
 20
2.4783313376
 10
-10.7855165638
 20
2.4688942923
 10
-10.7936892989
 20
2.4592075106
 10
-10.8012367975
 20
2.4493156976
 10
-10.8082157673
 20
2.4391863974
 10
-10.8146286717
 20
2.4288487119
 10
-10.8204584749
 20
2.4183697905
 10
-10.825727784
 20
2.4077524234
 10
-10.8304434895
 20
2.3970238065
 10
-10.8346055016
 20
2.3862318734
 10
-10.8382253693
 20
2.3754026033
 10
-10.8413128055
 20
2.3645704585
 10
-10.8438810989
 20
2.3537634551
 10
-10.8459473739
 20
2.3429935238
 10
-10.8475257753
 20
2.3322841646
 10
-10.8486309956
 20
2.3216618797
 10
-10.8492797623
 20
2.3111395639
 10
-10.8494881576
 20
2.3007371418
 10
-10.8492729141
 20
2.2904746761
 10
-10.848650896
 20
2.2803626432
 10
-10.8476395002
 20
2.2704194192
 10
-10.8462562401
 20
2.2606577617
 10
-10.8445163655
 20
2.2510777086
 10
-10.8424363988
 20
2.2416910158
 10
-10.8400333502
 20
2.2325094956
 10
-10.837320657
 20
2.2235318998
 10
-10.8343143839
 20
2.2147679022
 10
-10.8310303739
 20
2.20622522
 10
-10.8274791802
 20
2.1978988847
 10
-10.8236754866
 20
2.1897957163
 10
-10.8196339171
 20
2.1819215662
 10
-10.8153622608
 20
2.1742697996
 10
-10.8108720161
 20
2.1668425217
 10
-10.8061779949
 20
2.1596469137
 10
-10.8012912423
 20
2.1526836232
 10
-10.7962252757
 20
2.1459567142
 10
-10.7909919267
 20
2.1394674718
 10
-10.78559852
 20
2.1332119333
 10
-10.7800576501
 20
2.1271926921
 10
-10.7743798817
 20
2.1214096823
 10
-10.7685676339
 20
2.1158551501
 10
-10.762625594
 20
2.1105249343
 10
-10.7565689777
 20
2.1054242536
 10
-10.7504153381
 20
2.1005589296
 10
-10.7441791987
 20
2.0959311843
 10
-10.7378662363
 20
2.0915362779
 10
-10.7314804464
 20
2.0873689645
 10
-10.725026066
 20
2.0834248404
 10
-10.7185164016
 20
2.0797050338
 10
-10.7119682855
 20
2.0762115483
 10
-10.7094877804
 20
2.0749507338
  0
LINE
  5
285
100
AcDbEntity
  8
0
100
AcDbLine
 62
7
  6
CONTINUOUS
 10
-10.7751858598
 20
2.4798771608
 11
-10.7750802295
 21
2.4799829728
  0
LINE
  5
286
100
AcDbEntity
  8
0
100
AcDbLine
 62
7
  6
CONTINUOUS
 10
-12.6866969578
 20
3.9867096976
 11
-11.7939267808
 21
4.4595602706
  0
LWPOLYLINE
  5
287
100
AcDbEntity
  8
0
100
AcDbPolyline
 62
7
  6
CONTINUOUS
 90
3
 70
0
 10
-11.7939267808
 20
4.4595602706
 10
-10.8747931091
 20
4.94617755
 10
-10.7015859835
 20
5.0378511425
  0
LINE
  5
288
100
AcDbEntity
  8
CORPO
100
AcDbLine
 62
253
  6
CONTINUOUS
 10
19.2200292659
 20
21.2125421675
 11
2.9477139608
 21
12.9339563994
  0
LINE
  5
289
100
AcDbEntity
  8
0
100
AcDbLine
 62
7
  6
CONTINUOUS
 10
-12.6906139141
 20
3.984750441
 11
-12.6866970159
 21
3.9867096703
  0
LINE
  5
28A
100
AcDbEntity
  8
CORPO
100
AcDbLine
 62
253
  6
CONTINUOUS
 10
9.2657254571
 20
16.6295361932
 11
19.1058973017
 21
21.4093906876
  0
LINE
  5
28B
100
AcDbEntity
  8
0
100
AcDbLine
 62
7
  6
CONTINUOUS
 10
-13.5155226439
 20
3.5958820241
 11
-12.6906138172
 21
3.9847504867
  0
LINE
  5
28C
100
AcDbEntity
  8
RACCORDO
100
AcDbLine
 62
253
  6
CONTINUOUS
 10
1.887053789
 20
16.0847804697
 11
2.4153209608
 21
16.7277326255
  0
LINE
  5
28D
100
AcDbEntity
  8
RACCORDO
100
AcDbLine
 62
7
  6
CONTINUOUS
 10
1.887053789
 20
15.9952500034
 11
2.4864139908
 21
16.7247292412
  0
LINE
  5
28E
100
AcDbEntity
  8
CORPO
100
AcDbLine
 62
253
  6
CONTINUOUS
 10
19.6341797416
 20
19.7809085929
 11
2.9477139608
 21
11.2916226159
  0
LINE
  5
28F
100
AcDbEntity
  8
0
100
AcDbLine
 62
7
  6
CONTINUOUS
 10
-13.8460720924
 20
2.5237464073
 11
-14.6846495107
 21
2.1028272096
  0
LINE
  5
290
100
AcDbEntity
  8
0
100
AcDbLine
 62
7
  6
CONTINUOUS
 10
-10.4529916704
 20
4.2135731181
 11
-13.8460720924
 21
2.5237464073
  0
LINE
  5
291
100
AcDbEntity
  8
0
100
AcDbLine
 62
7
  6
CONTINUOUS
 10
-13.518744702
 20
3.5944063405
 11
-13.5155226439
 21
3.5958820241
  0
LINE
  5
292
100
AcDbEntity
  8
0
100
AcDbLine
 62
7
  6
CONTINUOUS
 10
-13.5285004361
 20
3.5903542045
 11
-13.5248567671
 21
3.5918546483
  0
LINE
  5
293
100
AcDbEntity
  8
0
100
AcDbLine
 62
253
  6
CONTINUOUS
 10
-9.5792387492
 20
-0.919566845
 11
-15.1092025176
 21
1.8454150392
  0
LINE
  5
294
100
AcDbEntity
  8
0
100
AcDbLine
 62
253
  6
CONTINUOUS
 10
-9.6637520993
 20
-0.4097840423
 11
-14.6868186506
 21
2.1017492333
  0
LINE
  5
295
100
AcDbEntity
  8
DRAFT
100
AcDbLine
 62
253
  6
CONTINUOUS
 10
-3.8051557995
 20
21.7629130381
 11
-3.8051557995
 21
21.1000289813
  0
LINE
  5
296
100
AcDbEntity
  8
RACCORDO
100
AcDbLine
 62
253
  6
CONTINUOUS
 10
-3.595086662
 20
17.1982516373
 11
-3.595086662
 21
18.2788349481
  0
LINE
  5
297
100
AcDbEntity
  8
DRAFT
100
AcDbLine
 62
7
  6
CONTINUOUS
 10
-3.0980490183
 20
22.1164664286
 11
-3.0980490183
 21
22.669024618
  0
LINE
  5
298
100
AcDbEntity
  8
RACCORDO
100
AcDbLine
 62
253
  6
CONTINUOUS
 10
-2.8900427427
 20
17.2197874005
 11
-2.8900427427
 21
18.4525143729
  0
LINE
  5
299
100
AcDbEntity
  8
ASSI
100
AcDbLine
 62
253
  6
CONTINUOUS
 10
-2.7642733957
 20
22.8323449732
 11
-2.7642733957
 21
24.0596955702
  0
LINE
  5
29A
100
AcDbEntity
  8
DRAFT
100
AcDbLine
 62
7
  6
CONTINUOUS
 10
-2.7444956278
 20
21.9396897334
 11
-2.7444956278
 21
22.4922479227
  0
LINE
  5
29B
100
AcDbEntity
  8
ASSI
100
AcDbLine
 62
7
  6
CONTINUOUS
 10
-2.6389238885
 20
22.9813731316
 11
-2.6389238885
 21
24.0690071892
  0
LINE
  5
29C
100
AcDbEntity
  8
DRAFT
100
AcDbLine
 62
7
  6
CONTINUOUS
 10
-2.5323635934
 20
18.6318189177
 11
-2.5323635934
 21
17.4193833524
  0
LINE
  5
29D
100
AcDbEntity
  8
DRAFT
100
AcDbLine
 62
253
  6
CONTINUOUS
 10
-2.3909422372
 20
21.7629130381
 11
-2.3909422372
 21
21.239226648
  0
LWPOLYLINE
  5
29E
100
AcDbEntity
  8
0
100
AcDbPolyline
 62
7
  6
CONTINUOUS
 90
23
 70
0
 10
-13.770752355
 20
3.6055813403
 10
-13.764470021
 20
3.602515646
 10
-13.7522011183
 20
3.5969455968
 10
-13.7399972643
 20
3.5919259079
 10
-13.7279713101
 20
3.5875122899
 10
-13.7163744123
 20
3.5837579288
 10
-13.7051764042
 20
3.5805711547
 10
-13.6940541278
 20
3.5778250901
 10
-13.6830251291
 20
3.5755411897
 10
-13.6722244792
 20
3.5737376388
 10
-13.6614305622
 20
3.5723596525
 10
-13.6506814345
 20
3.5713981259
 10
-13.6400490883
 20
3.5708389275
 10
-13.6293330467
 20
3.5706677039
 10
-13.6185481923
 20
3.5708987274
 10
-13.60777696
 20
3.5715438437
 10
-13.5968776105
 20
3.5726323608
 10
-13.5858744404
 20
3.5741930193
 10
-13.5747859454
 20
3.5762550153
 10
-13.5634662931
 20
3.5788821245
 10
-13.5519658018
 20
3.5820893438
 10
-13.5403461686
 20
3.5858865669
 10
-13.5285004361
 20
3.5903542045
  0
LINE
  5
29F
100
AcDbEntity
  8
0
100
AcDbLine
 62
7
  6
CONTINUOUS
 10
-13.8460720924
 20
2.5237464073
 11
-9.6558656706
 21
0.4286431964
  0
LINE
  5
2A0
100
AcDbEntity
  8
0
100
AcDbLine
 62
7
  6
CONTINUOUS
 10
-14.8385198219
 20
4.1394745636
 11
-13.7710344249
 21
3.6057318651
  0
LINE
  5
2A1
100
AcDbEntity
  8
0
100
AcDbLine
 62
253
  6
CONTINUOUS
 10
-15.0827160732
 20
4.3889373683
 11
-13.9053420932
 21
3.800250377
  0
LINE
  5
2A2
100
AcDbEntity
  8
0
100
AcDbLine
 62
253
  6
CONTINUOUS
 10
-10.7305820319
 20
2.2128703464
 11
-9.5532103202
 21
1.6241844918
  0
LINE
  5
2A3
100
AcDbEntity
  8
0
100
AcDbLine
 62
7
  6
CONTINUOUS
 10
-9.6434115124
 20
1.5419204089
 11
-10.7092167892
 21
2.0748230867
  0
LINE
  5
2A4
100
AcDbEntity
  8
RACCORDO
100
AcDbLine
 62
7
  6
CONTINUOUS
 10
-1.464956946
 20
16.7604967301
 11
-1.464956946
 21
16.4205227959
  0
LINE
  5
2A5
100
AcDbEntity
  8
RACCORDO
100
AcDbLine
 62
7
  6
CONTINUOUS
 10
-1.464956946
 20
-25.0925559819
 11
-1.464956946
 21
-25.2190552776
  0
LINE
  5
2A6
100
AcDbEntity
  8
RACCORDO
100
AcDbLine
 62
253
  6
CONTINUOUS
 10
-1.3917336413
 20
16.6721083824
 11
-1.3917336413
 21
16.3321344483
  0
LINE
  5
2A7
100
AcDbEntity
  8
RACCORDO
100
AcDbLine
 62
253
  6
CONTINUOUS
 10
-1.3917336413
 20
-25.0618198128
 11
-1.3917336413
 21
-25.3074436252
  0
LINE
  5
2A8
100
AcDbEntity
  8
RACCORDO
100
AcDbLine
 62
7
  6
CONTINUOUS
 10
-0.7619639917
 20
15.4605456287
 11
-0.7619639917
 21
15.9145178216
  0
LINE
  5
2A9
100
AcDbEntity
  8
RACCORDO
100
AcDbLine
 62
253
  6
CONTINUOUS
 10
-0.688740687
 20
15.3688320251
 11
-0.688740687
 21
15.8779061693
  0
LINE
  5
2AA
100
AcDbEntity
  8
RACCORDO
100
AcDbLine
 62
253
  6
CONTINUOUS
 10
-0.0667489615
 20
-25.9699359651
 11
-0.0667489615
 21
-25.629962031
  0
LINE
  5
2AB
100
AcDbEntity
  8
RACCORDO
100
AcDbLine
 62
253
  6
CONTINUOUS
 10
-0.0667489615
 20
15.6696421084
 11
-0.0667489615
 21
16.0096160425
  0
LINE
  5
2AC
100
AcDbEntity
  8
RACCORDO
100
AcDbLine
 62
7
  6
CONTINUOUS
 10
0.0132208189
 20
22.9831304667
 11
0.0132208189
 21
22.712330174
  0
LINE
  5
2AD
100
AcDbEntity
  8
RACCORDO
100
AcDbLine
 62
253
  6
CONTINUOUS
 10
0.2857729982
 20
-25.970448689
 11
0.2857729982
 21
-25.6304747548
  0
LINE
  5
2AE
100
AcDbEntity
  8
RACCORDO
100
AcDbLine
 62
253
  6
CONTINUOUS
 10
0.2857729982
 20
15.6691293845
 11
0.2857729982
 21
16.0091033187
  0
LINE
  5
2AF
100
AcDbEntity
  8
RACCORDO
100
AcDbLine
 62
253
  6
CONTINUOUS
 10
0.6444716466
 20
-24.6534655539
 11
0.6444716466
 21
-24.2071035408
  0
LINE
  5
2B0
100
AcDbEntity
  8
RACCORDO
100
AcDbLine
 62
253
  6
CONTINUOUS
 10
0.6444716466
 20
14.7022258583
 11
0.6444716466
 21
15.3910464812
  0
LINE
  5
2B1
100
AcDbEntity
  8
RACCORDO
100
AcDbLine
 62
253
  6
CONTINUOUS
 10
0.9969936063
 20
-24.7789782777
 11
0.9969936063
 21
-24.0591291411
  0
LINE
  5
2B2
100
AcDbEntity
  8
RACCORDO
100
AcDbLine
 62
253
  6
CONTINUOUS
 10
0.9969936063
 20
14.7121250377
 11
0.9969936063
 21
15.5206258617
  0
LINE
  5
2B3
100
AcDbEntity
  8
RACCORDO
100
AcDbLine
 62
7
  6
CONTINUOUS
 10
1.887053789
 20
-23.6855180294
 11
1.887053789
 21
-25.1904140893
  0
LINE
  5
2B4
100
AcDbEntity
  8
RACCORDO
100
AcDbLine
 62
7
  6
CONTINUOUS
 10
1.887053789
 20
15.2094061656
 11
1.887053789
 21
16.8118253222
  0
LINE
  5
2B5
100
AcDbEntity
  8
RACCORDO
100
AcDbLine
 62
253
  6
CONTINUOUS
 10
2.4153209608
 20
17.0752641422
 11
2.4153209608
 21
16.7277326255
  0
LINE
  5
2B6
100
AcDbEntity
  8
RACCORDO
100
AcDbLine
 62
253
  6
CONTINUOUS
 10
2.4153209608
 20
-24.5718715139
 11
2.4153209608
 21
-24.9194030307
  0
LINE
  5
2B7
100
AcDbEntity
  8
RACCORDO
100
AcDbLine
 62
7
  6
CONTINUOUS
 10
2.4875188178
 20
17.1631367744
 11
2.4875188178
 21
16.7278922954
  0
LINE
  5
2B8
100
AcDbEntity
  8
RACCORDO
100
AcDbLine
 62
7
  6
CONTINUOUS
 10
2.4875188178
 20
-24.4839988818
 11
2.4875188178
 21
-24.8315303985
  0
LINE
  5
2B9
100
AcDbEntity
  8
0
100
AcDbLine
 62
7
  6
CONTINUOUS
 10
-15.2260225953
 20
-8.6006492641
 11
-14.4117575173
 21
-8.1919335083
  0
LINE
  5
2BA
100
AcDbEntity
  8
0
100
AcDbLine
 62
7
  6
CONTINUOUS
 10
-14.4117575173
 20
-8.1919335083
 11
-13.3160464739
 21
-7.6462459447
  0
LINE
  5
2BB
100
AcDbEntity
  8
ASSI
100
AcDbLine
 62
253
  6
CONTINUOUS
 10
2.7924704768
 20
20.0557147843
 11
2.7924704768
 21
21.2827647516
  0
LINE
  5
2BC
100
AcDbEntity
  8
ASSI
100
AcDbLine
 62
7
  6
CONTINUOUS
 10
2.9160645407
 20
20.2038784051
 11
2.9160645407
 21
21.2915548942
  0
LINE
  5
2BD
100
AcDbEntity
  8
CORPO
100
AcDbLine
 62
7
  6
CONTINUOUS
 10
2.9477139608
 20
11.2916226159
 11
2.9477139608
 21
-19.3166579925
  0
LINE
  5
2BE
100
AcDbEntity
  8
RACCORDO
100
AcDbLine
 62
7
  6
CONTINUOUS
 10
2.9477139608
 20
-22.9708339036
 11
2.9477139608
 21
14.945798527
  0
LWPOLYLINE
  5
2BF
100
AcDbEntity
  8
0
100
AcDbPolyline
 62
7
  6
CONTINUOUS
 90
32
 70
0
 10
-10.7183370504
 20
-10.9177364484
 10
-10.7225967485
 20
-10.9202865995
 10
-10.7340262498
 20
-10.9276671776
 10
-10.7450390991
 20
-10.9355844001
 10
-10.755580752
 20
-10.944000205
 10
-10.7655607064
 20
-10.952837947
 10
-10.7750088749
 20
-10.9621193774
 10
-10.7840337395
 20
-10.9719536345
 10
-10.7926122672
 20
-10.9823300123
 10
-10.8006806185
 20
-10.9931819947
 10
-10.8082424024
 20
-11.0045267319
 10
-10.8152451896
 20
-11.0163017449
 10
-10.8216528333
 20
-11.0284557685
 10
-10.8274672066
 20
-11.0410114259
 10
-10.8326333222
 20
-11.0538726754
 10
-10.8371278559
 20
-11.0669950336
 10
-10.8409658091
 20
-11.0804626853
 10
-10.8441053085
 20
-11.0941807151
 10
-10.8465283519
 20
-11.1080849393
 10
-10.8482420445
 20
-11.1222542447
 10
-10.8492252235
 20
-11.1365446739
 10
-10.8494806673
 20
-11.1508642031
 10
-10.8490032393
 20
-11.165323427
 10
-10.8477993988
 20
-11.1796956578
 10
-10.845882047
 20
-11.1940118863
 10
-10.8431836654
 20
-11.2086584215
 10
-10.8396969512
 20
-11.223467291
 10
-10.8354233083
 20
-11.238341446
 10
-10.8302266037
 20
-11.2536187655
 10
-10.8240381694
 20
-11.2692983575
 10
-10.8168967187
 20
-11.2851542954
 10
-10.8141350048
 20
-11.2908068684
  0
LINE
  5
2C0
100
AcDbEntity
  8
0
100
AcDbLine
 62
7
  6
CONTINUOUS
 10
-10.7181965299
 20
-10.9176542328
 11
-10.7183370504
 21
-10.9177364484
  0
LWPOLYLINE
  5
2C1
100
AcDbEntity
  8
0
100
AcDbPolyline
 62
7
  6
CONTINUOUS
 90
4
 70
0
 10
-10.7082804835
 20
-10.9120177852
 10
-10.7115860679
 20
-10.9137976932
 10
-10.7148721965
 20
-10.9156254815
 10
-10.7182484682
 20
-10.9175653736
  0
LINE
  5
2C2
100
AcDbEntity
  8
0
100
AcDbLine
 62
7
  6
CONTINUOUS
 10
-9.914278658
 20
-10.4914656225
 11
-10.7083073946
 21
-10.9120277407
  0
LINE
  5
2C3
100
AcDbEntity
  8
0
100
AcDbLine
 62
7
  6
CONTINUOUS
 10
-9.9103618849
 20
-10.4895064574
 11
-9.9142787147
 21
-10.4914656525
  0
LINE
  5
2C4
100
AcDbEntity
  8
CORPO
100
AcDbLine
 62
253
  6
CONTINUOUS
 10
6.5370634579
 20
23.0489131228
 11
6.5370634579
 21
23.4591321658
  0
LINE
  5
2C5
100
AcDbEntity
  8
CORPO
100
AcDbLine
 62
7
  6
CONTINUOUS
 10
7.2197736559
 20
23.3913712151
 11
7.2197736559
 21
22.9404722343
  0
LINE
  5
2C6
100
AcDbEntity
  8
0
100
AcDbLine
 62
7
  6
CONTINUOUS
 10
-9.0968879486
 20
-10.1060178218
 11
-9.9103617903
 21
-10.4895064073
  0
LINE
  5
2C7
100
AcDbEntity
  8
RACCORDO
100
AcDbLine
 62
253
  6
CONTINUOUS
 10
7.5034267197
 20
18.9976740673
 11
7.5034267197
 21
18.6126633366
  0
LINE
  5
2C8
100
AcDbEntity
  8
RACCORDO
100
AcDbLine
 62
253
  6
CONTINUOUS
 10
7.5034267197
 20
-17.9722274817
 11
7.5034267197
 21
-18.1310526453
  0
LINE
  5
2C9
100
AcDbEntity
  8
RACCORDO
100
AcDbLine
 62
7
  6
CONTINUOUS
 10
7.6437568196
 20
19.2945688406
 11
7.6437568196
 21
18.7889274102
  0
LINE
  5
2CA
100
AcDbEntity
  8
RACCORDO
100
AcDbLine
 62
7
  6
CONTINUOUS
 10
7.6437568196
 20
-17.898510681
 11
7.6437568196
 21
-18.0806182334
  0
LINE
  5
2CB
100
AcDbEntity
  8
0
100
AcDbLine
 62
7
  6
CONTINUOUS
 10
8.0771796441
 20
21.8862605879
 11
8.0771796441
 21
21.8268883858
  0
LINE
  5
2CC
100
AcDbEntity
  8
0
100
AcDbLine
 62
7
  6
CONTINUOUS
 10
8.3286587246
 20
22.358620292
 11
8.3286587246
 21
21.8144619356
  0
LINE
  5
2CD
100
AcDbEntity
  8
0
100
AcDbLine
 62
7
  6
CONTINUOUS
 10
8.7784033859
 20
22.2368724589
 11
8.7784033859
 21
21.8147305801
  0
LINE
  5
2CE
100
AcDbEntity
  8
CORPO
100
AcDbLine
 62
7
  6
CONTINUOUS
 10
8.8520555837
 20
23.33515909
 11
8.8520555837
 21
23.089011846
  0
LINE
  5
2CF
100
AcDbEntity
  8
0
100
AcDbLine
 62
7
  6
CONTINUOUS
 10
-10.9231356354
 20
-14.0963695774
 11
-10.9235817328
 21
-14.0965986578
  0
LINE
  5
2D0
100
AcDbEntity
  8
RACCORDO
100
AcDbLine
 62
253
  6
CONTINUOUS
 10
-4.6496228678
 20
10.4682514026
 11
-19.4744689454
 21
17.8806744414
  0
LINE
  5
2D1
100
AcDbEntity
  8
RACCORDO
100
AcDbLine
 62
253
  6
CONTINUOUS
 10
-3.6336844746
 20
12.208369367
 11
-18.4819029354
 21
19.6324785973
  0
LINE
  5
2D2
100
AcDbEntity
  8
CORPO
100
AcDbLine
 62
7
  6
CONTINUOUS
 10
10.7595002225
 20
25.6075235998
 11
10.7595002225
 21
25.1669533153
  0
LINE
  5
2D3
100
AcDbEntity
  8
RACCORDO
100
AcDbLine
 62
7
  6
CONTINUOUS
 10
0.6444716466
 20
14.7022258583
 11
-0.688740687
 21
15.3688320251
  0
LINE
  5
2D4
100
AcDbEntity
  8
RACCORDO
100
AcDbLine
 62
7
  6
CONTINUOUS
 10
-12.7198465178
 20
21.3843849405
 11
-14.0530588514
 21
22.0509911073
  0
LINE
  5
2D5
100
AcDbEntity
  8
RACCORDO
100
AcDbLine
 62
7
  6
CONTINUOUS
 10
-9.1063937616
 20
19.9539051871
 11
-3.595086662
 21
17.1982516373
  0
LINE
  5
2D6
100
AcDbEntity
  8
RACCORDO
100
AcDbLine
 62
7
  6
CONTINUOUS
 10
-14.6910785093
 20
22.8790750804
 11
-13.3660938295
 21
22.2165827405
  0
LINE
  5
2D7
100
AcDbEntity
  8
RACCORDO
100
AcDbLine
 62
7
  6
CONTINUOUS
 10
-1.3267603449
 20
16.1969159982
 11
-0.001775665
 21
15.5344236583
  0
LINE
  5
2D8
100
AcDbEntity
  8
RACCORDO
100
AcDbLine
 62
253
  6
CONTINUOUS
 10
-14.7560518057
 20
23.0142935305
 11
-13.4310671259
 21
22.3518011906
  0
LINE
  5
2D9
100
AcDbEntity
  8
RACCORDO
100
AcDbLine
 62
253
  6
CONTINUOUS
 10
-1.3917336413
 20
16.3321344483
 11
-0.0667489615
 21
15.6696421084
  0
LINE
  5
2DA
100
AcDbEntity
  8
RACCORDO
100
AcDbLine
 62
253
  6
CONTINUOUS
 10
0.6439574183
 20
-24.6532084397
 11
0.0216393862
 21
-25.3982678572
  0
LINE
  5
2DB
100
AcDbEntity
  8
RACCORDO
100
AcDbLine
 62
7
  6
CONTINUOUS
 10
0.0589295047
 20
15.5133082237
 11
0.6833347541
 21
15.3829318283
  0
LINE
  5
2DC
100
AcDbEntity
  8
RACCORDO
100
AcDbLine
 62
253
  6
CONTINUOUS
 10
0.2857729982
 20
15.6691293845
 11
0.9969936063
 21
15.5206258617
  0
LINE
  5
2DD
100
AcDbEntity
  8
RACCORDO
100
AcDbLine
 62
253
  6
CONTINUOUS
 10
-0.0667489615
 20
16.0096160425
 11
-1.3917336413
 21
16.6721083824
  0
LINE
  5
2DE
100
AcDbEntity
  8
RACCORDO
100
AcDbLine
 62
253
  6
CONTINUOUS
 10
-13.4310671259
 20
22.6917751247
 11
-14.7560518057
 21
23.3542674646
  0
LINE
  5
2DF
100
AcDbEntity
  8
DRAFT
100
AcDbLine
 62
7
  6
CONTINUOUS
 10
-11.4772643754
 20
21.8918337434
 11
-9.252840371
 21
20.7796217412
  0
LINE
  5
2E0
100
AcDbEntity
  8
DRAFT
100
AcDbLine
 62
7
  6
CONTINUOUS
 10
-2.5323635934
 20
17.4193833524
 11
-1.4384229928
 21
16.8724130521
  0
LINE
  5
2E1
100
AcDbEntity
  8
RACCORDO
100
AcDbLine
 62
253
  6
CONTINUOUS
 10
0.1089992945
 20
16.3139928575
 11
-1.2159853853
 21
16.9764851974
  0
LINE
  5
2E2
100
AcDbEntity
  8
RACCORDO
100
AcDbLine
 62
253
  6
CONTINUOUS
 10
-13.2553188699
 20
22.9961519397
 11
-14.5803035497
 21
23.6586442796
  0
LINE
  5
2E3
100
AcDbEntity
  8
RACCORDO
100
AcDbLine
 62
253
  6
CONTINUOUS
 10
-3.595086662
 20
18.2788349481
 11
-9.1063937616
 21
21.0344884979
  0
LINE
  5
2E4
100
AcDbEntity
  8
RACCORDO
100
AcDbLine
 62
253
  6
CONTINUOUS
 10
-3.1722642821
 20
18.3812245125
 11
-9.2480189319
 21
21.4191018374
  0
LINE
  5
2E5
100
AcDbEntity
  8
RACCORDO
100
AcDbLine
 62
7
  6
CONTINUOUS
 10
-11.4772643754
 20
22.5913828354
 11
-10.0604947726
 21
21.882998034
  0
LINE
  5
2E6
100
AcDbEntity
  8
RACCORDO
100
AcDbLine
 62
7
  6
CONTINUOUS
 10
1.887053789
 20
15.9092237532
 11
2.5940528601
 21
15.5557242177
  0
LINE
  5
2E7
100
AcDbEntity
  8
DRAFT
100
AcDbLine
 62
7
  6
CONTINUOUS
 10
-8.7549032678
 20
21.7430887549
 11
-2.5323635934
 21
18.6318189177
  0
LINE
  5
2E8
100
AcDbEntity
  8
RACCORDO
100
AcDbLine
 62
7
  6
CONTINUOUS
 10
-12.9975469466
 20
24.4706283769
 11
-11.6540380791
 21
23.7988739432
  0
LINE
  5
2E9
100
AcDbEntity
  8
RACCORDO
100
AcDbLine
 62
7
  6
CONTINUOUS
 10
0.3667712178
 20
17.7884692947
 11
1.7102800853
 21
17.116714861
  0
LINE
  5
2EA
100
AcDbEntity
  8
DRAFT
100
AcDbLine
 62
7
  6
CONTINUOUS
 10
-7.4114003836
 20
21.7734057056
 11
-2.4616529153
 21
19.2985319714
  0
LINE
  5
2EB
100
AcDbEntity
  8
RACCORDO
100
AcDbLine
 62
253
  6
CONTINUOUS
 10
-12.4630970679
 20
24.7309758435
 11
-11.1257709073
 21
24.0623127632
  0
LINE
  5
2EC
100
AcDbEntity
  8
RACCORDO
100
AcDbLine
 62
253
  6
CONTINUOUS
 10
0.9012210965
 20
18.0488167613
 11
2.2385472571
 21
17.380153681
  0
LINE
  5
2ED
100
AcDbEntity
  8
CORPO
100
AcDbLine
 62
7
  6
CONTINUOUS
 10
9.2657254571
 20
16.6295361932
 11
8.1825301876
 21
18.4977716791
  0
LINE
  5
2EE
100
AcDbEntity
  8
CORPO
100
AcDbLine
 62
253
  6
CONTINUOUS
 10
6.5370634579
 20
23.4591321658
 11
6.0616852746
 21
24.6924517696
  0
LINE
  5
2EF
100
AcDbEntity
  8
0
100
AcDbLine
 62
7
  6
CONTINUOUS
 10
7.8231891424
 20
22.1163803363
 11
7.6216897844
 21
22.7121047621
  0
LINE
  5
2F0
100
AcDbEntity
  8
RACCORDO
100
AcDbLine
 62
253
  6
CONTINUOUS
 10
0.9969936063
 20
-24.7789782777
 11
0.2857729982
 21
-25.6304747548
  0
LINE
  5
2F1
100
AcDbEntity
  8
CORPO
100
AcDbLine
 62
253
  6
CONTINUOUS
 10
2.9477139608
 20
-19.3166579925
 11
19.6341797416
 21
-10.5266028234
  0
LWPOLYLINE
  5
2F2
100
AcDbEntity
  8
CORPO
100
AcDbPolyline
 62
7
  6
CONTINUOUS
 90
64
 70
0
 10
-2.4434161224
 20
21.2654635872
 10
-2.4544427213
 20
21.2708374463
 10
-2.4718940172
 20
21.2787990333
 10
-2.4898131852
 20
21.2863327236
 10
-2.5081691095
 20
21.2934323996
 10
-2.5269527938
 20
21.3001036615
 10
-2.5461764915
 20
21.3063595638
 10
-2.5658177199
 20
21.3122014466
 10
-2.5858543993
 20
21.3176324944
 10
-2.6062951854
 20
21.3226642886
 10
-2.6270890024
 20
21.3272937779
 10
-2.6482469006
 20
21.3315329125
 10
-2.6698689709
 20
21.335406183
 10
-2.6919077898
 20
21.3389066668
 10
-2.714381289
 20
21.3420385714
 10
-2.7374883551
 20
21.3448237039
 10
-2.7613007618
 20
21.3472565083
 10
-2.7857234198
 20
21.3493131094
 10
-2.8107030425
 20
21.3509780401
 10
-2.8363403088
 20
21.3522448093
 10
-2.8625071557
 20
21.3530934859
 10
-2.8888039164
 20
21.3535094963
 10
-2.9151974554
 20
21.3534997046
 10
-2.9416936656
 20
21.3530702519
 10
-2.967952129
 20
21.3522388075
 10
-2.9938870717
 20
21.3510280825
 10
-3.0195657087
 20
21.3494533629
 10
-3.0448794087
 20
21.3475388883
 10
-3.0698080099
 20
21.3453049766
 10
-3.0943601818
 20
21.3427685011
 10
-3.1184716771
 20
21.3399536808
 10
-3.142122103
 20
21.3368811097
 10
-3.165326573
 20
21.3335661971
 10
-3.1880743542
 20
21.3300269568
 10
-3.2103566894
 20
21.3262809154
 10
-3.2321806295
 20
21.3223424934
 10
-3.25355812
 20
21.3182242928
 10
-3.2744895618
 20
21.3139403568
 10
-3.2949744582
 20
21.3095045661
 10
-3.3150217772
 20
21.3049283234
 10
-3.3346337343
 20
21.3002240399
 10
-3.3538088388
 20
21.2954047923
 10
-3.3725488212
 20
21.2904827121
 10
-3.3908644804
 20
21.285467203
 10
-3.4087459309
 20
21.2803731118
 10
-3.4261630332
 20
21.2752217565
 10
-3.4431035923
 20
21.2700300932
 10
-3.459582722
 20
21.2648067208
 10
-3.4756100394
 20
21.2595613728
 10
-3.4911640979
 20
21.2543139784
 10
-3.5062680544
 20
21.2490695531
 10
-3.5209935854
 20
21.2438146064
 10
-3.5353393189
 20
21.2385600249
 10
-3.5493001895
 20
21.233318193
 10
-3.5629346541
 20
21.2280770162
 10
-3.576225675
 20
21.2228524317
 10
-3.5891734212
 20
21.2176540874
 10
-3.6018519981
 20
21.2124611533
 10
-3.6142240738
 20
21.2072975856
 10
-3.6262906986
 20
21.2021722551
 10
-3.6381658104
 20
21.1970451021
 10
-3.6498032245
 20
21.1919441158
 10
-3.6611700238
 20
21.1868930565
 10
-3.6833909637
 20
21.1768450943
  0
LINE
  5
2F3
100
AcDbEntity
  8
RACCORDO
100
AcDbLine
 62
7
  6
CONTINUOUS
 10
-12.3523221083
 20
24.7375657346
 11
-11.0149959478
 21
24.0689026543
  0
LINE
  5
2F4
100
AcDbEntity
  8
RACCORDO
100
AcDbLine
 62
7
  6
CONTINUOUS
 10
1.0119960561
 20
18.0554066524
 11
2.3493222166
 21
17.3867435721
  0
LINE
  5
2F5
100
AcDbEntity
  8
CORPO
100
AcDbLine
 62
7
  6
CONTINUOUS
 10
-3.522366935
 20
21.133687088
 11
-1.147490935
 21
19.946249088
  0
LINE
  5
2F6
100
AcDbEntity
  8
CORPO
100
AcDbLine
 62
253
  6
CONTINUOUS
 10
-0.5197259302
 20
20.2556585405
 11
-2.5303940959
 21
21.2609926233
  0
LINE
  5
2F7
100
AcDbEntity
  8
CORPO
100
AcDbLine
 62
7
  6
CONTINUOUS
 10
-0.471421792
 20
20.2794664254
 11
-2.4434195195
 21
21.2654652891
  0
LINE
  5
2F8
100
AcDbEntity
  8
ASSI
100
AcDbLine
 62
7
  6
CONTINUOUS
 10
0.0560228295
 20
20.5394305047
 11
-2.3909422372
 21
21.7629130381
  0
LINE
  5
2F9
100
AcDbEntity
  8
0
100
AcDbLine
 62
7
  6
CONTINUOUS
 10
-2.7444956278
 20
21.9396897334
 11
-3.0980490183
 21
22.1164664286
  0
LINE
  5
2FA
100
AcDbEntity
  8
DRAFT
100
AcDbLine
 62
7
  6
CONTINUOUS
 10
-2.7444956278
 20
22.4922479227
 11
-3.0980490183
 21
22.669024618
  0
LWPOLYLINE
  5
2FB
100
AcDbEntity
  8
CORPO
100
AcDbPolyline
 62
7
  6
CONTINUOUS
 90
28
 70
0
 10
19.914839933
 20
20.1282358188
 10
19.9144616733
 20
20.1678099196
 10
19.9130331086
 20
20.2149733067
 10
19.9105517942
 20
20.2622061981
 10
19.9070265003
 20
20.3095170545
 10
19.9024673571
 20
20.3568781305
 10
19.8968902311
 20
20.4042206868
 10
19.8903061542
 20
20.4515361293
 10
19.8827249476
 20
20.4988140025
 10
19.8741682482
 20
20.5459794818
 10
19.8646477941
 20
20.5930231964
 10
19.8541743694
 20
20.6399366114
 10
19.84277443
 20
20.6866441286
 10
19.830463137
 20
20.7331277835
 10
19.8172498721
 20
20.7793879749
 10
19.8031579947
 20
20.8253747272
 10
19.7882030984
 20
20.8710687041
 10
19.7723927583
 20
20.9164715209
 10
19.7557413956
 20
20.9615626972
 10
19.738258839
 20
21.0063320189
 10
19.7199537073
 20
21.0507707817
 10
19.700838245
 20
21.0948589726
 10
19.6809207047
 20
21.1385854916
 10
19.6602076952
 20
21.1819404896
 10
19.6387090053
 20
21.2249057134
 10
19.6164310403
 20
21.2674688649
 10
19.593377567
 20
21.3096206924
 10
19.5728724932
 20
21.3456405496
  0
LINE
  5
2FC
100
AcDbEntity
  8
CORPO
100
AcDbLine
 62
253
  6
CONTINUOUS
 10
19.6341797416
 20
-10.5266028234
 11
19.6341797416
 21
19.7809085929
  0
LINE
  5
2FD
100
AcDbEntity
  8
CORPO
100
AcDbLine
 62
7
  6
CONTINUOUS
 10
19.9148399413
 20
-10.1792736382
 11
19.9148399413
 21
20.1282377781
  0
LWPOLYLINE
  5
2FE
100
AcDbEntity
  8
CORPO
100
AcDbPolyline
 62
7
  6
CONTINUOUS
 90
40
 70
0
 10
19.2946070812
 20
-11.4977163687
 10
19.3150614107
 20
-11.482603481
 10
19.3431089675
 20
-11.4609127815
 10
19.3706651751
 20
-11.4384548925
 10
19.3977020888
 20
-11.4152473469
 10
19.4242067119
 20
-11.3912962189
 10
19.4501803426
 20
-11.3665939505
 10
19.47560313
 20
-11.3411518488
 10
19.5004558175
 20
-11.3149816446
 10
19.5247391614
 20
-11.2880734579
 10
19.5484340049
 20
-11.2604381814
 10
19.5715206005
 20
-11.2320886186
 10
19.5939971446
 20
-11.203014999
 10
19.6158451488
 20
-11.1732273707
 10
19.6370447324
 20
-11.1427394254
 10
19.6575905645
 20
-11.1115438315
 10
19.6774638302
 20
-11.0796520698
 10
19.6966461922
 20
-11.0470764045
 10
19.7151319227
 20
-11.0138077128
 10
19.732901528
 20
-10.9798597316
 10
19.7499383738
 20
-10.9452420167
 10
19.766239308
 20
-10.9099356693
 10
19.7817880878
 20
-10.873945895
 10
19.7965638797
 20
-10.8372889962
 10
19.8105552701
 20
-10.7999591891
 10
19.8237499893
 20
-10.7619495754
 10
19.8361236458
 20
-10.7232873057
 10
19.8476497279
 20
-10.6840157915
 10
19.8583142357
 20
-10.6441447396
 10
19.8681026211
 20
-10.603685581
 10
19.8769939933
 20
-10.5626833851
 10
19.8849777269
 20
-10.5211464593
 10
19.8920421679
 20
-10.4790867553
 10
19.8981712162
 20
-10.4365539752
 10
19.9033567362
 20
-10.3935574485
 10
19.9075900857
 20
-10.3501071633
 10
19.9108602922
 20
-10.3062524107
 10
19.9131605595
 20
-10.2620147248
 10
19.9144855489
 20
-10.2173909269
 10
19.914839933
 20
-10.1792746782
  0
LINE
  5
2FF
100
AcDbEntity
  8
CORPO
100
AcDbLine
 62
7
  6
CONTINUOUS
 10
8.1825301876
 20
-17.6154876587
 11
9.2657254571
 21
-16.8304474424
  0
LINE
  5
300
100
AcDbEntity
  8
CORPO
100
AcDbLine
 62
253
  6
CONTINUOUS
 10
19.1058973017
 20
-11.6268024782
 11
19.2200292659
 21
-11.5440859224
  0
LINE
  5
301
100
AcDbEntity
  8
CORPO
100
AcDbLine
 62
7
  6
CONTINUOUS
 10
19.1804648957
 20
-11.5804403453
 11
19.29459686
 21
-11.4977237896
  0
LINE
  5
302
100
AcDbEntity
  8
CORPO
100
AcDbLine
 62
253
  6
CONTINUOUS
 10
19.1058973017
 20
-11.6268024782
 11
9.2657254571
 21
-16.8304474424
  0
LINE
  5
303
100
AcDbEntity
  8
CORPO
100
AcDbLine
 62
7
  6
CONTINUOUS
 10
19.0611093717
 20
-11.6547371722
 11
9.2440333549
 21
-16.8461686823
  0
LINE
  5
304
100
AcDbEntity
  8
CORPO
100
AcDbLine
 62
253
  6
CONTINUOUS
 10
2.9477139608
 20
-20.1159759284
 11
19.2200292659
 21
-11.5440859224
  0
LINE
  5
305
100
AcDbEntity
  8
CORPO
100
AcDbLine
 62
7
  6
CONTINUOUS
 10
2.9477139608
 20
-20.3653888189
 11
8.1825301876
 21
-17.6154876587
  0
LINE
  5
306
100
AcDbEntity
  8
RACCORDO
100
AcDbLine
 62
7
  6
CONTINUOUS
 10
6.5345464279
 20
-18.759128499
 11
2.9477139608
 21
-20.6040332225
  0
LINE
  5
307
100
AcDbEntity
  8
RACCORDO
100
AcDbLine
 62
7
  6
CONTINUOUS
 10
7.5034267197
 20
-18.1310526453
 11
2.9477139608
 21
-20.4608044134
  0
LINE
  5
308
100
AcDbEntity
  8
RACCORDO
100
AcDbLine
 62
7
  6
CONTINUOUS
 10
-13.3053886598
 20
22.195467306
 11
-12.6809825753
 21
22.0650907362
  0
LINE
  5
309
100
AcDbEntity
  8
RACCORDO
100
AcDbLine
 62
253
  6
CONTINUOUS
 10
-13.0785451662
 20
22.3512884667
 11
-12.3673245581
 21
22.2027849439
  0
LINE
  5
30A
100
AcDbEntity
  8
0
100
AcDbLine
 62
7
  6
CONTINUOUS
 10
1.4638385257
 20
21.2333071631
 11
-1.3467111212
 21
22.6385819866
  0
LINE
  5
30B
100
AcDbEntity
  8
CORPO
100
AcDbLine
 62
7
  6
CONTINUOUS
 10
7.6419165735
 20
18.7680784861
 11
8.1825301876
 21
18.4977716791
  0
LINE
  5
30C
100
AcDbEntity
  8
ASSI
100
AcDbLine
 62
253
  6
CONTINUOUS
 10
-3.4186798619
 20
24.3425322204
 11
-2.8131494272
 21
24.0397670031
  0
LINE
  5
30D
100
AcDbEntity
  8
ASSI
100
AcDbLine
 62
253
  6
CONTINUOUS
 10
2.1365980411
 20
21.5648932689
 11
2.7421284757
 21
21.2621280516
  0
LINE
  5
30E
100
AcDbEntity
  8
0
100
AcDbLine
 62
7
  6
CONTINUOUS
 10
0.0132208189
 20
22.712330174
 11
2.2490816905
 21
21.5943997382
  0
LINE
  5
30F
100
AcDbEntity
  8
0
100
AcDbLine
 62
7
  6
CONTINUOUS
 10
2.9160645407
 20
21.2609083131
 11
3.1143599402
 21
21.1617606133
  0
LINE
  5
310
100
AcDbEntity
  8
ASSI
100
AcDbLine
 62
7
  6
CONTINUOUS
 10
-3.1424078408
 20
24.3283509516
 11
-2.6460013562
 21
24.0801477094
  0
LINE
  5
311
100
AcDbEntity
  8
ASSI
100
AcDbLine
 62
7
  6
CONTINUOUS
 10
2.4125475512
 20
21.5508732556
 11
2.9089543212
 21
21.3026698706
  0
LINE
  5
312
100
AcDbEntity
  8
RACCORDO
100
AcDbLine
 62
253
  6
CONTINUOUS
 10
-3.6673364806
 20
24.9884653558
 11
-0.6877153699
 21
23.4986548005
  0
LINE
  5
313
100
AcDbEntity
  8
RACCORDO
100
AcDbLine
 62
253
  6
CONTINUOUS
 10
3.5549253172
 20
21.3773344569
 11
6.5345464279
 21
19.8875239016
  0
LINE
  5
314
100
AcDbEntity
  8
RACCORDO
100
AcDbLine
 62
7
  6
CONTINUOUS
 10
-3.3806642941
 20
25.0910002307
 11
-0.2466723668
 21
23.5240042671
  0
LINE
  5
315
100
AcDbEntity
  8
RACCORDO
100
AcDbLine
 62
7
  6
CONTINUOUS
 10
3.9959683203
 20
21.4026839235
 11
7.1299602476
 21
19.8356879599
  0
LINE
  5
316
100
AcDbEntity
  8
CORPO
100
AcDbLine
 62
7
  6
CONTINUOUS
 10
10.7323686689
 20
25.6786419018
 11
10.7595002225
 21
25.6075235998
  0
LINE
  5
317
100
AcDbEntity
  8
RACCORDO
100
AcDbLine
 62
253
  6
CONTINUOUS
 10
2.4153209608
 20
-24.9194030307
 11
1.887053789
 21
-25.1904140893
  0
LINE
  5
318
100
AcDbEntity
  8
RACCORDO
100
AcDbLine
 62
7
  6
CONTINUOUS
 10
2.3516329232
 20
-25.053966841
 11
1.8229506597
 21
-25.3251908495
  0
LINE
  5
319
100
AcDbEntity
  8
RACCORDO
100
AcDbLine
 62
7
  6
CONTINUOUS
 10
1.8212122725
 20
-25.3260600831
 11
1.82294869
 21
-25.3251918601
  0
LINE
  5
31A
100
AcDbEntity
  8
RACCORDO
100
AcDbLine
 62
253
  6
CONTINUOUS
 10
2.2298375379
 20
-23.3249976709
 11
2.9477139608
 21
-22.9708339036
  0
LINE
  5
31B
100
AcDbEntity
  8
RACCORDO
100
AcDbLine
 62
7
  6
CONTINUOUS
 10
2.0951931188
 20
-23.5977726257
 11
2.8168393036
 21
-23.2417490493
  0
LINE
  5
31C
100
AcDbEntity
  8
RACCORDO
100
AcDbLine
 62
253
  6
CONTINUOUS
 10
1.887053789
 20
-25.1904140893
 11
0.2857729982
 21
-25.970448689
  0
LINE
  5
31D
100
AcDbEntity
  8
RACCORDO
100
AcDbLine
 62
7
  6
CONTINUOUS
 10
2.0951925971
 20
-23.597772883
 11
2.0847788002
 21
-23.6025210866
  0
LINE
  5
31E
100
AcDbEntity
  8
RACCORDO
100
AcDbLine
 62
253
  6
CONTINUOUS
 10
-3.2678517346
 20
-25.6327043189
 11
2.2298375379
 21
-23.3249976709
  0
LINE
  5
31F
100
AcDbEntity
  8
RACCORDO
100
AcDbLine
 62
7
  6
CONTINUOUS
 10
-3.42165898
 20
-25.9139000173
 11
2.0847886323
 21
-23.6025169739
  0
LINE
  5
320
100
AcDbEntity
  8
0
100
AcDbLine
 62
7
  6
CONTINUOUS
 10
-1.3467111212
 20
22.6385819866
 11
0.0132208189
 21
22.712330174
  0
LINE
  5
321
100
AcDbEntity
  8
0
100
AcDbLine
 62
7
  6
CONTINUOUS
 10
7.8336839777
 20
22.1111329186
 11
7.1267150376
 21
22.4646173887
  0
LINE
  5
322
100
AcDbEntity
  8
0
100
AcDbLine
 62
7
  6
CONTINUOUS
 10
7.8336839777
 20
22.1111329186
 11
8.0771796441
 21
21.8862605879
  0
LINE
  5
323
100
AcDbEntity
  8
RACCORDO
100
AcDbLine
 62
7
  6
CONTINUOUS
 10
1.8212095086
 20
-25.3260614295
 11
0.2195114056
 21
-26.1062993152
  0
LINE
  5
324
100
AcDbEntity
  8
0
100
AcDbLine
 62
7
  6
CONTINUOUS
 10
8.7784033859
 20
22.2368724589
 11
8.3286587246
 21
22.358620292
  0
LINE
  5
325
100
AcDbEntity
  8
0
100
AcDbLine
 62
7
  6
CONTINUOUS
 10
8.3286587246
 20
22.358620292
 11
7.6216897844
 21
22.7121047621
  0
LINE
  5
326
100
AcDbEntity
  8
CORPO
100
AcDbLine
 62
7
  6
CONTINUOUS
 10
6.7696019769
 20
23.1655580738
 11
7.2197736559
 21
22.9404722343
  0
LINE
  5
327
100
AcDbEntity
  8
CORPO
100
AcDbLine
 62
7
  6
CONTINUOUS
 10
10.8103725928
 20
23.0740565616
 11
11.3879022691
 21
22.7852917234
  0
LINE
  5
328
100
AcDbEntity
  8
CORPO
100
AcDbLine
 62
7
  6
CONTINUOUS
 10
10.9627375915
 20
23.0135339148
 11
11.2668569755
 21
22.8614742228
  0
LINE
  5
329
100
AcDbEntity
  8
CORPO
100
AcDbLine
 62
7
  6
CONTINUOUS
 10
10.7595002225
 20
25.1669533153
 11
13.7743435743
 21
23.6595316394
  0
LINE
  5
32A
100
AcDbEntity
  8
CORPO
100
AcDbLine
 62
253
  6
CONTINUOUS
 10
18.6059734541
 20
21.9129669469
 11
14.4572895491
 21
23.9873088994
  0
LINE
  5
32B
100
AcDbEntity
  8
CORPO
100
AcDbLine
 62
253
  6
CONTINUOUS
 10
9.6354640789
 20
26.3982216345
 11
5.4867801739
 21
28.472563587
  0
LINE
  5
32C
100
AcDbEntity
  8
CORPO
100
AcDbLine
 62
7
  6
CONTINUOUS
 10
19.0408463346
 20
21.9353302765
 11
14.8037701447
 21
24.0538683715
  0
LINE
  5
32D
100
AcDbEntity
  8
CORPO
100
AcDbLine
 62
7
  6
CONTINUOUS
 10
10.1587292444
 20
26.3763888216
 11
5.9216530544
 21
28.4949269166
  0
LINE
  5
32E
100
AcDbEntity
  8
CORPO
100
AcDbLine
 62
253
  6
CONTINUOUS
 10
19.2200292659
 20
21.2125421675
 11
19.1058973017
 21
21.4093906876
  0
LINE
  5
32F
100
AcDbEntity
  8
CORPO
100
AcDbLine
 62
7
  6
CONTINUOUS
 10
19.5728725147
 20
21.345640525
 11
19.4587405504
 21
21.542489045
  0
ARC
  5
330
100
AcDbEntity
  8
RACCORDO
100
AcDbCircle
 62
7
  6
CONTINUOUS
 10
-25.0961921699
 20
-47.5837119851
 40
78.8191348932
100
AcDbArc
 50
62.7491355285
 51
63.4099869178
  0
ARC
  5
331
100
AcDbEntity
  8
CORPO
100
AcDbCircle
 62
7
  6
CONTINUOUS
 10
18.5933165064
 20
-10.7702471945
 40
1.0005779194
100
AcDbArc
 50
300.3287017987
 51
305.9309090947
  0
ARC
  5
332
100
AcDbEntity
  8
CORPO
100
AcDbCircle
 62
7
  6
CONTINUOUS
 10
18.5935346944
 20
-10.7705552954
 40
1.0002018087
100
AcDbArc
 50
297.8705034905
 51
300.3268258143
  0
ARC
  5
333
100
AcDbEntity
  8
CORPO
100
AcDbCircle
 62
253
  6
CONTINUOUS
 10
18.7582852806
 20
-10.9063494113
 40
0.7873470427
100
AcDbArc
 50
305.9058794628
 51
312.196376237
  0
ARC
  5
334
100
AcDbEntity
  8
CORPO
100
AcDbCircle
 62
253
  6
CONTINUOUS
 10
18.9299461705
 20
-10.9943764364
 40
0.6215534741
100
AcDbArc
 50
297.8207249181
 51
305.9215031027
  0
ARC
  5
335
100
AcDbEntity
  8
CORPO
100
AcDbCircle
 62
253
  6
CONTINUOUS
 10
18.8158248108
 20
-11.0771102545
 40
0.6215332579
100
AcDbArc
 50
297.8206030168
 51
305.9216450286
  0
ARC
  5
336
100
AcDbEntity
  8
CORPO
100
AcDbCircle
 62
253
  6
CONTINUOUS
 10
18.887504094
 20
-11.3265225354
 40
0.3712999289
100
AcDbArc
 50
297.876076126
 51
306.0283461424
  0
ARC
  5
337
100
AcDbEntity
  8
RACCORDO
100
AcDbCircle
 62
7
  6
CONTINUOUS
 10
-1.214954693
 20
-25.2190540336
 40
0.2500021202
100
AcDbArc
 50
180.0018403594
 51
243.4346144876
  0
ARC
  5
338
100
AcDbEntity
  8
RACCORDO
100
AcDbCircle
 62
7
  6
CONTINUOUS
 10
0.1100282304
 20
-25.8815460027
 40
0.2500012342
100
AcDbArc
 50
243.4334738355
 51
295.9719157382
  0
ARC
  5
339
100
AcDbEntity
  8
RACCORDO
100
AcDbCircle
 62
7
  6
CONTINUOUS
 10
2.2375184194
 20
-24.8315302019
 40
0.2500003968
100
AcDbArc
 50
297.1601719735
 51
0.000031526
  0
ARC
  5
33A
100
AcDbEntity
  8
RACCORDO
100
AcDbCircle
 62
7
  6
CONTINUOUS
 10
2.2375185512
 20
-24.4839995411
 40
0.2500002666
100
AcDbArc
 50
0.000151117
 51
63.4365832535
  0
ARC
  5
33B
100
AcDbEntity
  8
0
100
AcDbCircle
 62
253
  6
CONTINUOUS
 10
-10.4903136157
 20
-11.1167586953
 40
0.2243305095
100
AcDbArc
 50
117.1993716389
 51
118.7467947164
  0
ARC
  5
33C
100
AcDbEntity
  8
0
100
AcDbCircle
 62
253
  6
CONTINUOUS
 10
-10.6633466022
 20
-10.9969330211
 40
0.096070679
100
AcDbArc
 50
112.7876474082
 51
117.9030360443
  0
ARC
  5
33D
100
AcDbEntity
  8
0
100
AcDbCircle
 62
253
  6
CONTINUOUS
 10
-10.6699866484
 20
-11.0002020329
 40
0.0955943974
100
AcDbArc
 50
117.4200938613
 51
120.2859461291
  0
ARC
  5
33E
100
AcDbEntity
  8
RACCORDO
100
AcDbCircle
 62
7
  6
CONTINUOUS
 10
1.7801596625
 20
-25.2417784283
 40
0.0937479893
100
AcDbArc
 50
297.1567006962
 51
299.3030104152
  0
ARC
  5
33F
100
AcDbEntity
  8
RACCORDO
100
AcDbCircle
 62
7
  6
CONTINUOUS
 10
9.0927088649
 20
19.358195113
 40
3.7059776187
100
AcDbArc
 50
73.0771937146
 51
74.2386873556
  0
ARC
  5
340
100
AcDbEntity
  8
CORPO
100
AcDbCircle
 62
7
  6
CONTINUOUS
 10
18.5936309784
 20
21.0409012334
 40
1.000002444
100
AcDbArc
 50
30.1049939589
 51
63.43490605
  0
ARC
  5
341
100
AcDbEntity
  8
CORPO
100
AcDbCircle
 62
7
  6
CONTINUOUS
 10
5.4744393679
 20
27.6005002643
 40
0.9999994409
100
AcDbArc
 50
63.4349188672
 51
115.2504322683
  0
ARC
  5
342
100
AcDbEntity
  8
0
100
AcDbCircle
 62
7
  6
CONTINUOUS
 10
-14.8212465079
 20
2.3749708669
 40
0.3045010835
100
AcDbArc
 50
296.1976610898
 51
296.6534359911
  0
ARC
  5
343
100
AcDbEntity
  8
0
100
AcDbCircle
 62
253
  6
CONTINUOUS
 10
-13.4944644038
 20
-9.6546627045
 40
0.2829431524
100
AcDbArc
 50
116.9196106101
 51
118.1531977235
  0
ARC
  5
344
100
AcDbEntity
  8
RACCORDO
100
AcDbCircle
 62
7
  6
CONTINUOUS
 10
-13.2539287458
 20
22.4412303058
 40
0.2510925838
100
AcDbArc
 50
243.467357112
 51
258.173807398
  0
ARC
  5
345
100
AcDbEntity
  8
RACCORDO
100
AcDbCircle
 62
7
  6
CONTINUOUS
 10
0.1103894186
 20
15.7590712235
 40
0.2510925838
100
AcDbArc
 50
243.467357112
 51
258.173807398
  0
ARC
  5
346
100
AcDbEntity
  8
RACCORDO
100
AcDbCircle
 62
7
  6
CONTINUOUS
 10
-11.1268015997
 20
23.8452946126
 40
0.2500021202
100
AcDbArc
 50
0.0018403594
 51
63.4346144876
  0
ARC
  5
347
100
AcDbEntity
  8
RACCORDO
100
AcDbCircle
 62
7
  6
CONTINUOUS
 10
-12.464125025
 20
24.5139571036
 40
0.250001424
100
AcDbArc
 50
63.4352355626
 51
115.9737880832
  0
ARC
  5
348
100
AcDbEntity
  8
RACCORDO
100
AcDbCircle
 62
7
  6
CONTINUOUS
 10
0.9001921606
 20
17.8317982399
 40
0.2500012342
100
AcDbArc
 50
63.4334738355
 51
115.9719157382
  0
ARC
  5
349
100
AcDbEntity
  8
RACCORDO
100
AcDbCircle
 62
7
  6
CONTINUOUS
 10
-1.2149565476
 20
16.7604965334
 40
0.2500003968
100
AcDbArc
 50
117.1601719735
 51
180.000031526
  0
ARC
  5
34A
100
AcDbEntity
  8
RACCORDO
100
AcDbCircle
 62
7
  6
CONTINUOUS
 10
-14.5792748439
 20
23.1026825375
 40
0.2500002666
100
AcDbArc
 50
180.000151117
 51
243.4365832535
  0
ARC
  5
34B
100
AcDbEntity
  8
RACCORDO
100
AcDbCircle
 62
7
  6
CONTINUOUS
 10
-1.2149566794
 20
16.4205234553
 40
0.2500002666
100
AcDbArc
 50
180.000151117
 51
243.4365832535
  0
ARC
  5
34C
100
AcDbEntity
  8
RACCORDO
100
AcDbCircle
 62
7
  6
CONTINUOUS
 10
-11.1267996503
 20
23.4977642012
 40
0.2500001466
100
AcDbArc
 50
320.5926030822
 51
0.0004114696
  0
ARC
  5
34D
100
AcDbEntity
  8
RACCORDO
100
AcDbCircle
 62
7
  6
CONTINUOUS
 10
-14.5792764978
 20
23.4426559688
 40
0.2499986126
100
AcDbArc
 50
117.1565718893
 51
180.0000358744
  0
ARC
  5
34E
100
AcDbEntity
  8
RACCORDO
100
AcDbCircle
 62
7
  6
CONTINUOUS
 10
2.2375203138
 20
17.1631368918
 40
0.2499985039
100
AcDbArc
 50
359.9999730928
 51
63.4370632661
  0
ARC
  5
34F
100
AcDbEntity
  8
CORPO
100
AcDbCircle
 62
7
  6
CONTINUOUS
 10
-3.668205786
 20
21.0095787305
 40
0.1582577965
100
AcDbArc
 50
114.7904942651
 51
131.2619358771
  0
ARC
  5
350
100
AcDbEntity
  8
0
100
AcDbCircle
 62
253
  6
CONTINUOUS
 10
-10.6672169744
 20
2.3722072464
 40
0.1524794085
100
AcDbArc
 50
135.0794329352
 51
135.5145364979
  0
ARC
  5
351
100
AcDbEntity
  8
0
100
AcDbCircle
 62
253
  6
CONTINUOUS
 10
-13.4230785333
 20
-9.9504851914
 40
0.1410047935
100
AcDbArc
 50
116.1977168925
 51
116.6258825399
  0
ARC
  5
352
100
AcDbEntity
  8
0
100
AcDbCircle
 62
253
  6
CONTINUOUS
 10
-13.5607443483
 20
3.6770757928
 40
0.0924689218
100
AcDbArc
 50
292.8365062707
 51
302.8658854992
  0
ARC
  5
353
100
AcDbEntity
  8
0
100
AcDbCircle
 62
253
  6
CONTINUOUS
 10
-13.5535259874
 20
3.6793630365
 40
0.0917188517
100
AcDbArc
 50
295.2480610411
 51
297.7723194641
  0
ARC
  5
354
100
AcDbEntity
  8
RACCORDO
100
AcDbCircle
 62
7
  6
CONTINUOUS
 10
10.1489036506
 20
22.8294031
 40
0.0776367623
100
AcDbArc
 50
63.5314456204
 51
73.1139843021
  0
ARC
  5
355
100
AcDbEntity
  8
RACCORDO
100
AcDbCircle
 62
7
  6
CONTINUOUS
 10
10.9593370749
 20
22.4197265457
 40
0.0759917442
100
AcDbArc
 50
55.9851762195
 51
62.7845765142
  0
ARC
  5
356
100
AcDbEntity
  8
CORPO
100
AcDbCircle
 62
253
  6
CONTINUOUS
 10
-2.4769809434
 20
21.1983443539
 40
0.0750438038
100
AcDbArc
 50
63.4342957999
 51
64.3411611143
  0
ARC
  5
357
100
AcDbEntity
  8
0
100
AcDbCircle
 62
253
  6
CONTINUOUS
 10
-13.4972528255
 20
3.9148178607
 40
0.027845621
100
AcDbArc
 50
293.2260759493
 51
295.3581639327
  0
ARC
  5
358
100
AcDbEntity
  8
RACCORDO
100
AcDbCircle
 62
253
  6
CONTINUOUS
 10
-10.9491730719
 20
23.3518231545
 40
0.0201085157
100
AcDbArc
 50
320.5893497047
 51
322.5112512707
  0
ARC
  5
359
100
AcDbEntity
  8
RACCORDO
100
AcDbCircle
 62
253
  6
CONTINUOUS
 10
539.8835271487
 20
-7.8499236456
 40
544.841175944
100
AcDbArc
 50
178.0732881467
 51
178.4605001746
  0
ARC
  5
35A
100
AcDbEntity
  8
0
100
AcDbCircle
 62
253
  6
CONTINUOUS
 10
534.1183392694
 20
-5.2108352055
 40
543.7145127063
100
AcDbArc
 50
179.2797174112
 51
179.5477881999
  0
ARC
  5
35B
100
AcDbEntity
  8
RACCORDO
100
AcDbCircle
 62
253
  6
CONTINUOUS
 10
519.8528055592
 20
0.0730545076
 40
539.6211822679
100
AcDbArc
 50
178.1088830888
 51
181.8911169112
  0
ARC
  5
35C
100
AcDbEntity
  8
0
100
AcDbCircle
 62
253
  6
CONTINUOUS
 10
518.4178069658
 20
-2.4384591956
 40
533.5442075656
100
AcDbArc
 50
179.2668054885
 51
179.5399621111
  0
ARC
  5
35D
100
AcDbEntity
  8
0
100
AcDbCircle
 62
253
  6
CONTINUOUS
 10
518.5422451539
 20
-2.4399337947
 40
533.2462450605
100
AcDbArc
 50
179.3023960836
 51
179.511887456
  0
ARC
  5
35E
100
AcDbEntity
  8
0
100
AcDbCircle
 62
253
  6
CONTINUOUS
 10
517.8883269939
 20
-5.4873669107
 40
526.918534865
100
AcDbArc
 50
180.4555472667
 51
180.7292831325
  0
ARC
  5
35F
100
AcDbEntity
  8
RACCORDO
100
AcDbCircle
 62
253
  6
CONTINUOUS
 10
516.3539906974
 20
-7.3425763369
 40
520.6070692416
100
AcDbArc
 50
178.0417483865
 51
181.9582516135
  0
ARC
  5
360
100
AcDbEntity
  8
RACCORDO
100
AcDbCircle
 62
253
  6
CONTINUOUS
 10
513.5753959371
 20
-7.3722678864
 40
518.5297588441
100
AcDbArc
 50
178.4351617828
 51
181.9644311798
  0
ARC
  5
361
100
AcDbEntity
  8
0
100
AcDbCircle
 62
253
  6
CONTINUOUS
 10
501.6322676472
 20
-2.1623992786
 40
517.3240729001
100
AcDbArc
 50
180.4633648953
 51
180.7422034575
  0
ARC
  5
362
100
AcDbEntity
  8
0
100
AcDbCircle
 62
253
  6
CONTINUOUS
 10
501.765763362
 20
-2.1633777107
 40
517.0351611945
100
AcDbArc
 50
180.5004593581
 51
180.7135570757
  0
SPLINE
  5
363
100
AcDbEntity
  8
RACCORDO
100
AcDbSpline
 62
7
  6
CONTINUOUS
 70
0
 71
3
 72
15
 73
11
 74
9
 42
0.0000001
 43
0.0000001
 44
0.0000000001
 12
-3.0555304357
 22
0.8627369477
 32
0.0
 13
-2.808446291
 23
-1.4809492614
 33
0.0
 40
0.0
 40
0.0
 40
0.0
 40
0.0
 40
0.1239431405
 40
0.2528690727
 40
0.3845266169
 40
0.5164261195
 40
0.6460736386
 40
0.7711313758
 40
0.8895882584
 40
1.0
 40
1.0
 40
1.0
 40
1.0
 10
10.099365324
 20
22.9248339906
 30
0.0
 10
9.973127978
 20
22.9604774329
 30
0.0
 10
9.7117105205
 20
23.0199776622
 30
0.0
 10
9.3079130148
 20
23.0742749946
 30
0.0
 10
8.8925533017
 20
23.0947555321
 30
0.0
 10
8.4761684042
 20
23.0809187353
 30
0.0
 10
8.069315078
 20
23.0331013161
 30
0.0
 10
7.6821411709
 20
22.9523265216
 30
0.0
 10
7.3240800051
 20
22.8402768363
 30
0.0
 10
7.1017894242
 20
22.7422138491
 30
0.0
 10
6.9984276088
 20
22.68770912
 30
0.0
 11
10.099365324
 21
22.9248339906
 31
0.0
 11
9.7158709008
 21
23.0130889049
 31
0.0
 11
9.3102602979
 21
23.0682107025
 31
0.0
 11
8.8927656176
 21
23.0889966086
 31
0.0
 11
8.4742211457
 21
23.0749529657
 31
0.0
 11
8.0654633418
 21
23.0264112445
 31
0.0
 11
7.6769536803
 21
22.9444669632
 31
0.0
 11
7.3184193026
 21
22.8308705298
 31
0.0
 11
6.9984276088
 21
22.68770912
 31
0.0
  0
LINE
  5
364
100
AcDbEntity
  8
RACCORDO
100
AcDbLine
 62
7
  6
CONTINUOUS
 10
11.0320350038
 20
22.4746378393
 11
11.1658438247
 21
22.4076153201
  0
SPLINE
  5
365
100
AcDbEntity
  8
RACCORDO
100
AcDbSpline
 62
7
  6
CONTINUOUS
 70
0
 71
3
 72
11
 73
7
 74
5
 42
0.0000001
 43
0.0000001
 44
0.0000000001
 12
0.0868838074
 22
0.0434419037
 32
0.0
 13
0.0869209356
 23
-0.0433675679
 33
0.0
 40
0.0
 40
0.0
 40
0.0
 40
0.0
 40
0.2790622737
 40
0.5354121262
 40
0.7731144998
 40
1.0
 40
1.0
 40
1.0
 40
1.0
 10
10.9383695088
 20
22.4683273829
 30
0.0
 10
10.9464515064
 20
22.4723683817
 30
0.0
 10
10.962613957
 20
22.4789244041
 30
0.0
 10
10.9873781507
 20
22.4837065456
 30
0.0
 10
11.0109393206
 20
22.4826725468
 30
0.0
 10
11.0254613039
 20
22.4779176634
 30
0.0
 10
11.0320350038
 20
22.4746378393
 30
0.0
 11
10.9383695088
 21
22.4683273829
 31
0.0
 11
10.9635679009
 21
22.4783211933
 31
0.0
 11
10.9880618608
 21
22.4828083606
 31
0.0
 11
11.0111197052
 21
22.4815867444
 31
0.0
 11
11.0320350038
 21
22.4746378393
 31
0.0
  0
SPLINE
  5
366
100
AcDbEntity
  8
RACCORDO
100
AcDbSpline
 62
253
  6
CONTINUOUS
 70
0
 71
3
 72
10
 73
6
 74
4
 42
0.0000001
 43
0.0000001
 44
0.0000000001
 12
0.4066385649
 22
0.6798173678
 32
0.0
 13
0.7006825516
 23
0.3695274522
 33
0.0
 40
0.0
 40
0.0
 40
0.0
 40
0.0
 40
0.4567587155
 40
0.7173832996
 40
1.0
 40
1.0
 40
1.0
 40
1.0
 10
6.4047353655
 20
22.1748625286
 30
0.0
 10
6.4666472684
 20
22.2783666978
 30
0.0
 10
6.5969703109
 20
22.4215476544
 30
0.0
 10
6.8083005988
 20
22.5798939405
 30
0.0
 10
6.93229423
 20
22.6528289575
 30
0.0
 10
6.9983024269
 20
22.6876405006
 30
0.0
 11
6.4047353655
 21
22.1748625286
 31
0.0
 11
6.6412282923
 21
22.4486998278
 31
0.0
 11
6.8057683116
 21
22.5733997691
 31
0.0
 11
6.9983024269
 21
22.6876405006
 31
0.0
  0
SPLINE
  5
367
100
AcDbEntity
  8
RACCORDO
100
AcDbSpline
 62
253
  6
CONTINUOUS
 70
0
 71
3
 72
9
 73
5
 74
3
 42
0.0000001
 43
0.0000001
 44
0.0000000001
 12
0.099185935
 22
-0.081198351
 32
0.0
 13
0.0915363523
 23
-0.0897335953
 33
0.0
 40
0.0
 40
0.0
 40
0.0
 40
0.0
 40
0.2553796319
 40
1.0
 40
1.0
 40
1.0
 40
1.0
 10
11.0320350038
 20
22.4746378393
 30
0.0
 10
11.0404783597
 20
22.4677257043
 30
0.0
 10
11.0732550561
 20
22.4403140762
 30
0.0
 10
11.1048631544
 20
22.4114965237
 30
0.0
 10
11.1275830985
 20
22.3892240361
 30
0.0
 11
11.0320350038
 21
22.4746378393
 31
0.0
 11
11.0571431465
 21
22.4536332687
 31
0.0
 11
11.1275830985
 21
22.3892240361
 31
0.0
  0
SPLINE
  5
368
100
AcDbEntity
  8
RACCORDO
100
AcDbSpline
 62
253
  6
CONTINUOUS
 70
0
 71
3
 72
9
 73
5
 74
3
 42
0.0000001
 43
0.0000001
 44
0.0000000001
 12
0.1252807476
 22
-0.1055816648
 32
0.0
 13
0.1107909625
 23
-0.1206984519
 33
0.0
 40
0.0
 40
0.0
 40
0.0
 40
0.0
 40
0.2574647131
 40
1.0
 40
1.0
 40
1.0
 40
1.0
 10
10.9383984047
 20
22.4683418308
 30
0.0
 10
10.9491501953
 20
22.4592806465
 30
0.0
 10
10.9903783449
 20
22.4234638363
 30
0.0
 10
11.0294657559
 20
22.3851547233
 30
0.0
 10
11.0568878223
 20
22.3552804367
 30
0.0
 11
10.9383984047
 21
22.4683418308
 31
0.0
 11
10.9702378772
 21
22.440672307
 31
0.0
 11
11.0568878223
 21
22.3552804367
 31
0.0
  0
SPLINE
  5
369
100
AcDbEntity
  8
RACCORDO
100
AcDbSpline
 62
253
  6
CONTINUOUS
 70
0
 71
3
 72
20
 73
16
 74
14
 42
0.0000001
 43
0.0000001
 44
0.0000000001
 12
1.7236693292
 22
3.4839558352
 32
0.0
 13
3.7265214954
 23
-1.1054509316
 33
0.0
 40
0.0
 40
0.0
 40
0.0
 40
0.0
 40
0.0408417229
 40
0.0852378588
 40
0.1336716348
 40
0.1863241377
 40
0.2431344683
 40
0.3038517203
 40
0.3680763959
 40
0.4352941502
 40
0.5761691523
 40
0.7210966076
 40
0.8642330475
 40
0.9333745359
 40
1.0
 40
1.0
 40
1.0
 40
1.0
 10
6.497162527
 20
22.1406804615
 30
0.0
 10
6.520628402
 20
22.1881107144
 30
0.0
 10
6.579914217
 20
22.2821818962
 30
0.0
 10
6.6961384816
 20
22.4114485635
 30
0.0
 10
6.8411417998
 20
22.5327368985
 30
0.0
 10
7.012936628
 20
22.6445719152
 30
0.0
 10
7.2092855218
 20
22.7456251198
 30
0.0
 10
7.4276082586
 20
22.8346046971
 30
0.0
 10
7.6650244541
 20
22.9103639459
 30
0.0
 10
8.0081307706
 20
22.9936580031
 30
0.0
 10
8.4623662615
 20
23.0574705113
 30
0.0
 10
9.0191045433
 20
23.0702277152
 30
0.0
 10
9.4811972203
 20
23.0276320988
 30
0.0
 10
9.8365609046
 20
22.960961951
 30
0.0
 10
10.0071072889
 20
22.9171550082
 30
0.0
 10
10.089867697
 20
22.8926046144
 30
0.0
 11
6.497162527
 21
22.1406804615
 31
0.0
 11
6.5808459291
 21
22.2755862577
 31
0.0
 11
6.6953292899
 21
22.4047126419
 31
0.0
 11
6.8390560226
 21
22.5263092891
 31
0.0
 11
7.0100780336
 21
22.6387276959
 31
0.0
 11
7.2060805545
 21
22.7404427578
 31
0.0
 11
7.4244073075
 21
22.8300752233
 31
0.0
 11
7.6620932495
 21
22.9064104471
 31
0.0
 11
7.9159074131
 21
22.9684119241
 31
0.0
 11
8.4579317641
 21
23.0462513206
 31
0.0
 11
9.0211149127
 21
23.0594176203
 31
0.0
 11
9.5750387546
 21
23.0072462035
 31
0.0
 11
9.8391337246
 21
22.9574161714
 31
0.0
 11
10.089867697
 21
22.8926046144
 31
0.0
  0
SPLINE
  5
36A
100
AcDbEntity
  8
RACCORDO
100
AcDbSpline
 62
7
  6
CONTINUOUS
 70
0
 71
3
 72
9
 73
5
 74
3
 42
0.0000001
 43
0.0000001
 44
0.0000000001
 12
-0.080237241
 22
0.024403468
 32
0.0
 13
-0.0750122342
 23
-0.0375061171
 33
0.0
 40
0.0
 40
0.0
 40
0.0
 40
0.0
 40
0.4665212439
 40
1.0
 40
1.0
 40
1.0
 40
1.0
 10
10.1714546965
 20
22.9036925151
 30
0.0
 10
10.1589772373
 20
22.9074874271
 30
0.0
 10
10.1300178064
 20
22.9087711567
 30
0.0
 10
10.1031805158
 20
22.8992610238
 30
0.0
 10
10.0898413714
 20
22.8925914516
 30
0.0
 11
10.1714546965
 21
22.9036925151
 31
0.0
 11
10.1324187249
 21
22.9063360028
 31
0.0
 11
10.0898413714
 21
22.8925914516
 31
0.0
  0
SPLINE
  5
36B
100
AcDbEntity
  8
ASSI
100
AcDbSpline
 62
7
  6
CONTINUOUS
 70
0
 71
3
 72
9
 73
5
 74
3
 42
0.0000001
 43
0.0000001
 44
0.0000000001
 12
-0.0502723709
 22
-0.0161727928
 32
0.0
 13
-0.0473687191
 23
-0.0233468405
 33
0.0
 40
0.0
 40
0.0
 40
0.0
 40
0.0
 40
0.2435111882
 40
1.0
 40
1.0
 40
1.0
 40
1.0
 10
2.1854740726
 20
21.584821836
 30
0.0
 10
2.1813934443
 20
21.583509084
 30
0.0
 10
2.1647436735
 20
21.5777861047
 30
0.0
 10
2.1485426764
 20
21.5707804768
 30
0.0
 10
2.1365980411
 20
21.5648932689
 30
0.0
 11
2.1854740726
 21
21.584821836
 31
0.0
 11
2.1733112446
 21
21.5806458069
 31
0.0
 11
2.1365980411
 21
21.5648932689
 31
0.0
  0
SPLINE
  5
36C
100
AcDbEntity
  8
ASSI
100
AcDbSpline
 62
7
  6
CONTINUOUS
 70
0
 71
3
 72
11
 73
7
 74
5
 42
0.0000001
 43
0.0000001
 44
0.0000000001
 12
0.2230926208
 22
0.0717696553
 32
0.0
 13
0.2096565956
 23
-0.1047153896
 33
0.0
 40
0.0
 40
0.0
 40
0.0
 40
0.0
 40
0.2281620518
 40
0.4713410479
 40
0.7293701433
 40
1.0
 40
1.0
 40
1.0
 40
1.0
 10
2.1854740726
 20
21.584821836
 30
0.0
 10
2.2024411626
 20
21.5902802066
 30
0.0
 10
2.239257352
 20
21.5964250226
 30
0.0
 10
2.296472991
 20
21.5923157842
 30
0.0
 10
2.3550439618
 20
21.57689563
 30
0.0
 10
2.3931273928
 20
21.5605730018
 30
0.0
 10
2.4120405042
 20
21.5511266315
 30
0.0
 11
2.1854740726
 21
21.584821836
 31
0.0
 11
2.2381214772
 21
21.5941671222
 31
0.0
 11
2.2950059996
 21
21.5907069812
 31
0.0
 11
2.3536032309
 21
21.5757750059
 31
0.0
 11
2.4120405042
 21
21.5511266315
 31
0.0
  0
SPLINE
  5
36D
100
AcDbEntity
  8
ASSI
100
AcDbSpline
 62
7
  6
CONTINUOUS
 70
0
 71
3
 72
11
 73
7
 74
5
 42
0.0000001
 43
0.0000001
 44
0.0000000001
 12
0.222019678
 22
0.0689784695
 32
0.0
 13
0.2079932826
 23
-0.103872812
 33
0.0
 40
0.0
 40
0.0
 40
0.0
 40
0.0
 40
0.2283694312
 40
0.4716456017
 40
0.7295971459
 40
1.0
 40
1.0
 40
1.0
 40
1.0
 10
-3.3677486706
 20
24.3628743253
 30
0.0
 10
-3.3508478348
 20
24.3681251832
 30
0.0
 10
-3.3142678194
 20
24.3739316721
 30
0.0
 10
-3.2575192759
 20
24.3696035299
 30
0.0
 10
-3.1994671047
 20
24.354193988
 30
0.0
 10
-3.1617180249
 20
24.3379947245
 30
0.0
 10
-3.1429706992
 20
24.3286322229
 30
0.0
 11
-3.3677486706
 21
24.3628743253
 31
0.0
 11
-3.3153993696
 21
24.3717308786
 31
0.0
 11
-3.258961541
 21
24.3680330431
 31
0.0
 11
-3.200880726
 21
24.3530964155
 31
0.0
 11
-3.1429706992
 21
24.3286322229
 31
0.0
  0
SPLINE
  5
36E
100
AcDbEntity
  8
RACCORDO
100
AcDbSpline
 62
7
  6
CONTINUOUS
 70
0
 71
3
 72
8
 73
4
 74
2
 42
0.0000001
 43
0.0000001
 44
0.0000000001
 12
-0.0000053732
 22
-0.0031177234
 32
0.0
 13
-0.0019810057
 23
-0.002407456
 33
0.0
 40
0.0
 40
0.0
 40
0.0
 40
0.0
 40
1.0
 40
1.0
 40
1.0
 40
1.0
 10
2.4875187822
 20
16.7277233351
 30
0.0
 10
2.4875169911
 20
16.726684094
 30
0.0
 10
2.4871238852
 20
16.7255921005
 30
0.0
 10
2.48646355
 20
16.7247896152
 30
0.0
 11
2.4875187822
 21
16.7277233351
 31
0.0
 11
2.48646355
 21
16.7247896152
 31
0.0
  0
SPLINE
  5
36F
100
AcDbEntity
  8
ASSI
100
AcDbSpline
 62
7
  6
CONTINUOUS
 70
0
 71
3
 72
9
 73
5
 74
3
 42
0.0000001
 43
0.0000001
 44
0.0000000001
 12
-0.0000282459
 22
0.0132944178
 32
0.0
 13
-0.0119051738
 23
0.0059168555
 33
0.0
 40
0.0
 40
0.0
 40
0.0
 40
0.0
 40
0.4881036285
 40
1.0
 40
1.0
 40
1.0
 40
1.0
 10
-2.6389237713
 20
24.0692950002
 30
0.0
 10
-2.638928367
 20
24.0714580181
 30
0.0
 10
-2.6399657695
 20
24.0760841746
 30
0.0
 10
-2.6437047177
 20
24.079005339
 30
0.0
 10
-2.6457361228
 20
24.0800149446
 30
0.0
 11
-2.6389237713
 21
24.0692950002
 31
0.0
 11
-2.640584717
 21
24.0755678995
 31
0.0
 11
-2.6457361228
 21
24.0800149446
 31
0.0
  0
SPLINE
  5
370
100
AcDbEntity
  8
ASSI
100
AcDbSpline
 62
7
  6
CONTINUOUS
 70
0
 71
3
 72
9
 73
5
 74
3
 42
0.0000001
 43
0.0000001
 44
0.0000000001
 12
-0.0000238058
 22
0.0133037541
 32
0.0
 13
-0.0119149986
 23
0.0059180442
 33
0.0
 40
0.0
 40
0.0
 40
0.0
 40
0.0
 40
0.4881017562
 40
1.0
 40
1.0
 40
1.0
 40
1.0
 10
2.9160646295
 20
21.2917956684
 30
0.0
 10
2.9160607563
 20
21.2939601969
 30
0.0
 10
2.9150238736
 20
21.2985902878
 30
0.0
 10
2.9112813428
 20
21.3015129342
 30
0.0
 10
2.9092482539
 20
21.3025227463
 30
0.0
 11
2.9160646295
 21
21.2917956684
 31
0.0
 11
2.9144039452
 21
21.2980733207
 31
0.0
 11
2.9092482539
 21
21.3025227463
 31
0.0
  0
SPLINE
  5
371
100
AcDbEntity
  8
RACCORDO
100
AcDbSpline
 62
7
  6
CONTINUOUS
 70
0
 71
3
 72
9
 73
5
 74
3
 42
0.0000001
 43
0.0000001
 44
0.0000000001
 12
-0.0110860342
 22
-0.0399468313
 32
0.0
 13
0.0000244836
 23
-0.0414565904
 33
0.0
 40
0.0
 40
0.0
 40
0.0
 40
0.0
 40
0.470196659
 40
1.0
 40
1.0
 40
1.0
 40
1.0
 10
-9.2480189319
 20
21.4191018374
 30
0.0
 10
-9.2497564706
 20
21.4128408819
 30
0.0
 10
-9.2521856531
 20
21.3991710093
 30
0.0
 10
-9.2528451816
 20
21.3853399545
 30
0.0
 10
-9.2528408578
 20
21.3780186745
 30
0.0
 11
-9.2480189319
 21
21.4191018374
 31
0.0
 11
-9.2516496138
 21
21.3999501901
 31
0.0
 11
-9.2528408578
 21
21.3780186745
 31
0.0
  0
SPLINE
  5
372
100
AcDbEntity
  8
RACCORDO
100
AcDbSpline
 62
7
  6
CONTINUOUS
 70
0
 71
3
 72
14
 73
10
 74
8
 42
0.0000001
 43
0.0000001
 44
0.0000000001
 12
0.0
 22
0.630991571
 32
0.0
 13
-0.5643681094
 23
0.2822038267
 33
0.0
 40
0.0
 40
0.0
 40
0.0
 40
0.0
 40
0.2891525564
 40
0.4227177506
 40
0.5489643138
 40
0.668508974
 40
0.7824375212
 40
0.892292605
 40
1.0
 40
1.0
 40
1.0
 40
1.0
 10
0.0132208189
 20
22.9831304667
 30
0.0
 10
0.0132208189
 20
23.0439480753
 30
0.0
 10
0.0056343621
 20
23.1333394999
 30
0.0
 10
-0.0233650686
 20
23.2453261754
 30
0.0
 10
-0.0528147153
 20
23.319735666
 30
0.0
 10
-0.0902230267
 20
23.3858062804
 30
0.0
 10
-0.135212377
 20
23.4426978397
 30
0.0
 10
-0.1872500705
 20
23.4896032022
 30
0.0
 10
-0.2263962789
 20
23.5138649694
 30
0.0
 10
-0.2466584852
 20
23.5239967824
 30
0.0
 11
0.0132208189
 21
22.9831304667
 31
0.0
 11
-0.0040566188
 21
23.1647634037
 31
0.0
 11
-0.0254548747
 21
23.2462801638
 31
0.0
 11
-0.0550444413
 21
23.3202413397
 31
0.0
 11
-0.0924625483
 21
23.3857380767
 31
0.0
 11
-0.1372508159
 21
23.4419687522
 31
0.0
 11
-0.1888602573
 21
23.4882440119
 31
0.0
 11
-0.2466584852
 21
23.5239967824
 31
0.0
  0
SPLINE
  5
373
100
AcDbEntity
  8
RACCORDO
100
AcDbSpline
 62
7
  6
CONTINUOUS
 70
0
 71
3
 72
11
 73
7
 74
5
 42
0.0000001
 43
0.0000001
 44
0.0000000001
 12
0.4104598159
 22
0.2008428369
 32
0.0
 13
0.4087143287
 23
-0.2043714832
 33
0.0
 40
0.0
 40
0.0
 40
0.0
 40
0.0
 40
0.2787325875
 40
0.5346772883
 40
0.772449667
 40
1.0
 40
1.0
 40
1.0
 40
1.0
 10
3.5549253172
 20
21.3773344569
 30
0.0
 10
3.5930614928
 20
21.3959949381
 30
0.0
 10
3.6692924824
 20
21.4260813876
 30
0.0
 10
3.7859616851
 20
21.4471355618
 30
0.0
 10
3.8967698362
 20
21.4410231674
 30
0.0
 10
3.9649811747
 20
21.4181780385
 30
0.0
 10
3.9959822019
 20
21.4026764389
 30
0.0
 11
3.5549253172
 21
21.3773344569
 31
0.0
 11
3.6737713243
 21
21.4231477692
 31
0.0
 11
3.7890502874
 21
21.4428900043
 31
0.0
 11
3.8974848462
 21
21.436001211
 31
0.0
 11
3.9959822019
 21
21.4026764389
 31
0.0
  0
SPLINE
  5
374
100
AcDbEntity
  8
RACCORDO
100
AcDbSpline
 62
7
  6
CONTINUOUS
 70
0
 71
3
 72
12
 73
8
 74
6
 42
0.0000001
 43
0.0000001
 44
0.0000000001
 12
0.3495976162
 22
-0.0728101698
 32
0.0
 13
0.2289187257
 23
0.2740730398
 33
0.0
 40
0.0
 40
0.0
 40
0.0
 40
0.0
 40
0.2325109382
 40
0.3575195464
 40
0.4857910002
 40
0.7451588474
 40
1.0
 40
1.0
 40
1.0
 40
1.0
 10
0.6831783828
 20
15.3829695417
 30
0.0
 10
0.7102734727
 20
15.377326488
 30
0.0
 10
0.754067167
 20
15.3781036694
 30
0.0
 10
0.8102632856
 20
15.3919029369
 30
0.0
 10
0.867253186
 20
15.4142308918
 30
0.0
 10
0.9329270406
 20
15.4546696599
 30
0.0
 10
0.9775476357
 20
15.4973441652
 30
0.0
 10
0.9969936063
 20
15.5206258617
 30
0.0
 11
0.6831783828
 21
15.3829695417
 31
0.0
 11
0.766205177
 21
15.3823039526
 31
0.0
 11
0.8096074608
 21
15.392744896
 31
0.0
 11
0.8522996746
 21
15.4093440086
 31
0.0
 11
0.9313692841
 21
15.4575774929
 31
0.0
 11
0.9969936063
 21
15.5206258617
 31
0.0
  0
SPLINE
  5
375
100
AcDbEntity
  8
ASSI
100
AcDbSpline
 62
7
  6
CONTINUOUS
 70
0
 71
3
 72
13
 73
9
 74
7
 42
0.0000001
 43
0.0000001
 44
0.0000000001
 12
-0.1074301559
 22
0.0533593358
 32
0.0
 13
-0.114239298
 23
-0.0365764938
 33
0.0
 40
0.0
 40
0.0
 40
0.0
 40
0.0
 40
0.0547027218
 40
0.12553101
 40
0.2154900889
 40
0.3266288228
 40
0.6170723146
 40
1.0
 40
1.0
 40
1.0
 40
1.0
 10
2.9092482539
 20
21.3025227463
 30
0.0
 10
2.9072893466
 20
21.3034957133
 30
0.0
 10
2.9023993516
 20
21.3049110831
 30
0.0
 10
2.8937864536
 20
21.305601779
 30
0.0
 10
2.8829031791
 20
21.3050855383
 30
0.0
 10
2.8634145674
 20
21.3024264445
 30
0.0
 10
2.8328306356
 20
21.2952150379
 30
0.0
 10
2.8070522735
 20
21.2874334689
 30
0.0
 10
2.7924704768
 20
21.2827647516
 30
0.0
 11
2.9092482539
 21
21.3025227463
 31
0.0
 11
2.9030033334
 21
21.3045368991
 31
0.0
 11
2.8945494042
 21
21.3053812226
 31
0.0
 11
2.8837659394
 21
21.3049844465
 31
0.0
 11
2.8705440346
 21
21.3032800876
 31
0.0
 11
2.8365240809
 21
21.2957690357
 31
0.0
 11
2.7924704768
 21
21.2827647516
 31
0.0
  0
SPLINE
  5
376
100
AcDbEntity
  8
ASSI
100
AcDbSpline
 62
7
  6
CONTINUOUS
 70
0
 71
3
 72
13
 73
9
 74
7
 42
0.0000001
 43
0.0000001
 44
0.0000000001
 12
-0.1090711251
 22
0.0542082038
 32
0.0
 13
-0.1159470089
 23
-0.0373005473
 33
0.0
 40
0.0
 40
0.0
 40
0.0
 40
0.0
 40
0.0544143451
 40
0.1250279196
 40
0.214867035
 40
0.3259870749
 40
0.6166718751
 40
1.0
 40
1.0
 40
1.0
 40
1.0
 10
-2.6457361228
 20
24.0800149446
 30
0.0
 10
-2.6477144674
 20
24.0809981792
 30
0.0
 10
-2.6526630245
 20
24.0824225296
 30
0.0
 10
-2.6613847956
 20
24.0831012387
 30
0.0
 10
-2.6724200585
 20
24.0825505593
 30
0.0
 10
-2.6922064085
 20
24.079803494
 30
0.0
 10
-2.723270571
 20
24.0724119106
 30
0.0
 10
-2.7494581459
 20
24.0644616865
 30
0.0
 10
-2.7642733957
 20
24.0596955702
 30
0.0
 11
-2.6457361228
 21
24.0800149446
 31
0.0
 11
-2.6520458283
 21
24.082042997
 31
0.0
 11
-2.660605744
 21
24.0828793335
 31
0.0
 11
-2.6715396775
 21
24.0824507416
 31
0.0
 11
-2.6849588833
 21
24.0806892105
 31
0.0
 11
-2.7195158014
 21
24.0729856107
 31
0.0
 11
-2.7642733957
 21
24.0596955702
 31
0.0
  0
SPLINE
  5
377
100
AcDbEntity
  8
RACCORDO
100
AcDbSpline
 62
253
  6
CONTINUOUS
 70
0
 71
3
 72
9
 73
5
 74
3
 42
0.0000001
 43
0.0000001
 44
0.0000000001
 12
-0.0221872219
 22
0.0110907997
 32
0.0
 13
-0.0242893561
 23
0.0050304904
 33
0.0
 40
0.0
 40
0.0
 40
0.0
 40
0.0
 40
0.2486668508
 40
1.0
 40
1.0
 40
1.0
 40
1.0
 10
2.349315924
 20
-24.2603888549
 30
0.0
 10
2.3474768484
 20
-24.2594695502
 30
0.0
 10
2.3399611286
 20
-24.2560163695
 30
0.0
 10
2.3319902982
 20
-24.253564566
 30
0.0
 10
2.3259071654
 20
-24.2523047079
 30
0.0
 11
2.349315924
 21
-24.2603888549
 31
0.0
 11
2.3437108858
 21
-24.2578140874
 31
0.0
 11
2.3259071654
 21
-24.2523047079
 31
0.0
  0
SPLINE
  5
378
100
AcDbEntity
  8
RACCORDO
100
AcDbSpline
 62
253
  6
CONTINUOUS
 70
0
 71
3
 72
11
 73
7
 74
5
 42
0.0000001
 43
0.0000001
 44
0.0000000001
 12
-0.0000014429
 22
-0.119182188
 32
0.0
 13
-0.1063496889
 23
-0.0537971895
 33
0.0
 40
0.0
 40
0.0
 40
0.0
 40
0.0
 40
0.2069627842
 40
0.4350648191
 40
0.6978060254
 40
1.0
 40
1.0
 40
1.0
 40
1.0
 10
2.4875188154
 20
-24.8315303952
 30
0.0
 10
2.4875187158
 20
-24.8397524877
 30
0.0
 10
2.483919607
 20
-24.8571683839
 30
0.0
 10
2.4688702371
 20
-24.8809636339
 30
0.0
 10
2.4453932984
 20
-24.9023754331
 30
0.0
 10
2.4260337058
 20
-24.9139839685
 30
0.0
 10
2.4153209608
 20
-24.9194030307
 30
0.0
 11
2.4875188154
 21
-24.8315303952
 31
0.0
 11
2.4827856329
 21
-24.8557382912
 31
0.0
 11
2.4687653344
 21
-24.8790297809
 31
0.0
 11
2.4459912223
 21
-24.9005218938
 31
0.0
 11
2.4153209608
 21
-24.9194030307
 31
0.0
  0
SPLINE
  5
379
100
AcDbEntity
  8
RACCORDO
100
AcDbSpline
 62
253
  6
CONTINUOUS
 70
0
 71
3
 72
11
 73
7
 74
5
 42
0.0000001
 43
0.0000001
 44
0.0000000001
 12
-0.0000013698
 22
-0.1191821853
 32
0.0
 13
-0.1063496865
 23
-0.0537971883
 33
0.0
 40
0.0
 40
0.0
 40
0.0
 40
0.0
 40
0.2069627866
 40
0.4350648202
 40
0.69780603
 40
1.0
 40
1.0
 40
1.0
 40
1.0
 10
2.4875188156
 20
-24.4839988818
 30
0.0
 10
2.4875187211
 20
-24.4922209741
 30
0.0
 10
2.4839196044
 20
-24.5096368699
 30
0.0
 10
2.4688702369
 20
-24.5334321188
 30
0.0
 10
2.4453932971
 20
-24.5548439166
 30
0.0
 10
2.4260337054
 20
-24.566452452
 30
0.0
 10
2.4153209608
 20
-24.5718715139
 30
0.0
 11
2.4875188156
 21
-24.4839988818
 31
0.0
 11
2.4827856328
 21
-24.5082067774
 31
0.0
 11
2.4687653337
 21
-24.5314982658
 31
0.0
 11
2.4459912211
 21
-24.5529903777
 31
0.0
 11
2.4153209608
 21
-24.5718715139
 31
0.0
  0
SPLINE
  5
37A
100
AcDbEntity
  8
RACCORDO
100
AcDbSpline
 62
253
  6
CONTINUOUS
 70
0
 71
3
 72
11
 73
7
 74
5
 42
0.0000001
 43
0.0000001
 44
0.0000000001
 12
0.1389309039
 22
0.0712901785
 32
0.0
 13
-0.000739186
 23
0.1561522949
 33
0.0
 40
0.0
 40
0.0
 40
0.0
 40
0.0
 40
0.21754047
 40
0.4509586234
 40
0.7106393245
 40
1.0
 40
1.0
 40
1.0
 40
1.0
 10
2.3516382957
 20
-25.0539636522
 30
0.0
 10
2.3617126604
 20
-25.0487941525
 30
0.0
 10
2.3807312338
 20
-25.0340613484
 30
0.0
 10
2.4010378581
 20
-25.0024776702
 30
0.0
 10
2.4130992913
 20
-24.9631623432
 30
0.0
 10
2.4153922579
 20
-24.9344644752
 30
0.0
 10
2.4153209608
 20
-24.9194030307
 30
0.0
 11
2.3516382957
 21
-25.0539636522
 31
0.0
 11
2.3786345788
 21
-25.0333444947
 31
0.0
 11
2.3988332704
 21
-25.0030038254
 31
0.0
 11
2.4112614572
 21
-24.9644051437
 31
0.0
 11
2.4153209608
 21
-24.9194030307
 31
0.0
  0
SPLINE
  5
37B
100
AcDbEntity
  8
RACCORDO
100
AcDbSpline
 62
7
  6
CONTINUOUS
 70
0
 71
3
 72
11
 73
7
 74
5
 42
0.0000001
 43
0.0000001
 44
0.0000000001
 12
0.1334232764
 22
0.0748828011
 32
0.0
 13
-0.0
 23
0.1530006686
 33
0.0
 40
0.0
 40
0.0
 40
0.0
 40
0.0
 40
0.2171864146
 40
0.4511858794
 40
0.7111959599
 40
1.0
 40
1.0
 40
1.0
 40
1.0
 10
1.8260425788
 20
-25.3235307584
 30
0.0
 10
1.8357018198
 20
-25.3181095827
 30
0.0
 10
1.8538296911
 20
-25.3030873372
 30
0.0
 10
1.8731578418
 20
-25.2718093511
 30
0.0
 10
1.8847453683
 20
-25.233230931
 30
0.0
 10
1.887053789
 20
-25.2051431597
 30
0.0
 10
1.887053789
 20
-25.1904140893
 30
0.0
 11
1.8260425788
 21
-25.3235307584
 31
0.0
 11
1.8517949295
 21
-25.3025301113
 31
0.0
 11
1.8710793626
 21
-25.2723655761
 31
0.0
 11
1.8830138624
 21
-25.2344162328
 31
0.0
 11
1.887053789
 21
-25.1904140893
 31
0.0
  0
SPLINE
  5
37C
100
AcDbEntity
  8
RACCORDO
100
AcDbSpline
 62
7
  6
CONTINUOUS
 70
0
 71
3
 72
12
 73
8
 74
6
 42
0.0000001
 43
0.0000001
 44
0.0000000001
 12
0.0002238523
 22
-0.3790359227
 32
0.0
 13
0.2339640663
 23
-0.2982098196
 33
0.0
 40
0.0
 40
0.0
 40
0.0
 40
0.0
 40
0.1015870176
 40
0.2135875906
 40
0.4591399651
 40
0.7237133738
 40
1.0
 40
1.0
 40
1.0
 40
1.0
 10
-9.2528408578
 20
21.3780186745
 30
0.0
 10
-9.2528332776
 20
21.3651836315
 30
0.0
 10
-9.2505761334
 20
21.3381893757
 30
0.0
 10
-9.2391074499
 20
21.28124179
 30
0.0
 10
-9.2127617864
 20
21.206764317
 30
0.0
 10
-9.166875007
 20
21.1183723159
 30
0.0
 10
-9.1279408092
 20
21.0619522929
 30
0.0
 10
-9.1063937616
 20
21.0344884979
 30
0.0
 11
-9.2528408578
 21
21.3780186745
 31
0.0
 11
-9.2499898916
 21
21.3396192283
 31
0.0
 11
-9.2418340232
 21
21.2979577934
 31
0.0
 11
-9.2116759071
 21
21.2099060689
 31
0.0
 11
-9.1657936448
 21
21.1207350718
 31
0.0
 11
-9.1063937616
 21
21.0344884979
 31
0.0
  0
SPLINE
  5
37D
100
AcDbEntity
  8
RACCORDO
100
AcDbSpline
 62
253
  6
CONTINUOUS
 70
0
 71
3
 72
11
 73
7
 74
5
 42
0.0000001
 43
0.0000001
 44
0.0000000001
 12
0.1426575687
 22
0.0695004483
 32
0.0
 13
0.0007563653
 23
0.1586849776
 33
0.0
 40
0.0
 40
0.0
 40
0.0
 40
0.0
 40
0.2167635091
 40
0.4498673846
 40
0.7098578217
 40
1.0
 40
1.0
 40
1.0
 40
1.0
 10
0.2195112665
 20
-26.1062990295
 30
0.0
 10
0.2298189182
 20
-26.1012773092
 30
0.0
 10
0.2493726171
 20
-26.0866697867
 30
0.0
 10
0.2703947553
 20
-26.0548603707
 30
0.0
 10
0.2830826048
 20
-26.0149942843
 30
0.0
 10
0.285699847
 20
-25.9857957573
 30
0.0
 10
0.2857729982
 20
-25.970448689
 30
0.0
 11
0.2195112665
 21
-26.1062990295
 31
0.0
 11
0.2472157177
 21
-26.0859114937
 31
0.0
 11
0.268120196
 21
-26.0553942833
 31
0.0
 11
0.2811883123
 21
-26.0162615843
 31
0.0
 11
0.2857729982
 21
-25.970448689
 31
0.0
  0
SPLINE
  5
37E
100
AcDbEntity
  8
ASSI
100
AcDbSpline
 62
7
  6
CONTINUOUS
 70
0
 71
3
 72
9
 73
5
 74
3
 42
0.0000001
 43
0.0000001
 44
0.0000000001
 12
-0.0502723709
 22
-0.0161727928
 32
0.0
 13
-0.0473687191
 23
-0.0233468405
 33
0.0
 40
0.0
 40
0.0
 40
0.0
 40
0.0
 40
0.2435111882
 40
1.0
 40
1.0
 40
1.0
 40
1.0
 10
-2.7642733957
 20
24.0596955702
 30
0.0
 10
-2.768354024
 20
24.0583828182
 30
0.0
 10
-2.7850037948
 20
24.0526598389
 30
0.0
 10
-2.8012047919
 20
24.045654211
 30
0.0
 10
-2.8131494272
 20
24.0397670031
 30
0.0
 11
-2.7642733957
 21
24.0596955702
 31
0.0
 11
-2.7764362237
 21
24.0555195411
 31
0.0
 11
-2.8131494272
 21
24.0397670031
 31
0.0
  0
SPLINE
  5
37F
100
AcDbEntity
  8
RACCORDO
100
AcDbSpline
 62
7
  6
CONTINUOUS
 70
0
 71
3
 72
11
 73
7
 74
5
 42
0.0000001
 43
0.0000001
 44
0.0000000001
 12
-0.4087143287
 22
0.2043714832
 32
0.0
 13
-0.4104598159
 23
-0.2008428369
 33
0.0
 40
0.0
 40
0.0
 40
0.0
 40
0.0
 40
0.227550333
 40
0.4653227117
 40
0.7212674125
 40
1.0
 40
1.0
 40
1.0
 40
1.0
 10
-0.2466584852
 20
23.5239967824
 30
0.0
 10
-0.2776595124
 20
23.5394983821
 30
0.0
 10
-0.3458708509
 20
23.562343511
 30
0.0
 10
-0.456679002
 20
23.5684559053
 30
0.0
 10
-0.5733482047
 20
23.5474017311
 30
0.0
 10
-0.6495791944
 20
23.5173152817
 30
0.0
 10
-0.6877153699
 20
23.4986548005
 30
0.0
 11
-0.2466584852
 21
23.5239967824
 31
0.0
 11
-0.3451558409
 21
23.5573215546
 31
0.0
 11
-0.4535903997
 21
23.5642103478
 31
0.0
 11
-0.5688693628
 21
23.5444681127
 31
0.0
 11
-0.6877153699
 21
23.4986548005
 31
0.0
  0
SPLINE
  5
380
100
AcDbEntity
  8
0
100
AcDbSpline
 62
253
  6
CONTINUOUS
 70
0
 71
3
 72
14
 73
10
 74
8
 42
0.0000001
 43
0.0000001
 44
0.0000000001
 12
-0.1354728068
 22
0.0679339834
 32
0.0
 13
0.0493461924
 23
0.1432929195
 33
0.0
 40
0.0
 40
0.0
 40
0.0
 40
0.0
 40
0.0985753485
 40
0.1968001244
 40
0.3002756261
 40
0.4135275313
 40
0.6779445864
 40
0.8321600988
 40
1.0
 40
1.0
 40
1.0
 40
1.0
 10
-10.7092132538
 20
2.0748219145
 30
0.0
 10
-10.7136646802
 20
2.0770541199
 30
0.0
 10
-10.7220299469
 20
2.0826896993
 30
0.0
 10
-10.7319055198
 20
2.0944399059
 30
0.0
 10
-10.7387681517
 20
2.1089601958
 30
0.0
 10
-10.7442970479
 20
2.1327772367
 30
0.0
 10
-10.7432343498
 20
2.1600517204
 30
0.0
 10
-10.7377790506
 20
2.1891553507
 30
0.0
 10
-10.7333426868
 20
2.2048535419
 30
0.0
 10
-10.7305819334
 20
2.2128702984
 30
0.0
 11
-10.7092132538
 21
2.0748219145
 31
0.0
 11
-10.7215699527
 21
2.083217951
 31
0.0
 11
-10.7312019277
 21
2.0945679236
 31
0.0
 11
-10.7380463529
 21
2.1086773301
 31
0.0
 11
-10.7421018854
 21
2.1253548269
 31
0.0
 11
-10.741794335
 21
2.165426492
 31
0.0
 11
-10.737575451
 21
2.1884141743
 31
0.0
 11
-10.7305819334
 21
2.2128702984
 31
0.0
  0
SPLINE
  5
381
100
AcDbEntity
  8
0
100
AcDbSpline
 62
253
  6
CONTINUOUS
 70
0
 71
3
 72
9
 73
5
 74
3
 42
0.0000001
 43
0.0000001
 44
0.0000000001
 12
0.0150035492
 22
0.0096879656
 32
0.0
 13
0.0130001051
 23
0.0122458333
 33
0.0
 40
0.0
 40
0.0
 40
0.0
 40
0.0
 40
0.2474147934
 40
1.0
 40
1.0
 40
1.0
 40
1.0
 10
-13.5105638284
 20
3.5994071574
 30
0.0
 10
-13.5093264617
 20
3.6002061394
 30
0.0
 10
-13.5044013548
 20
3.6035521944
 30
0.0
 10
-13.499790734
 20
3.6073578789
 30
0.0
 10
-13.4965295051
 20
3.6104298898
 30
0.0
 11
-13.5105638284
 21
3.5994071574
 31
0.0
 11
-13.5069086241
 21
3.6018900022
 31
0.0
 11
-13.4965295051
 21
3.6104298898
 31
0.0
  0
SPLINE
  5
382
100
AcDbEntity
  8
0
100
AcDbSpline
 62
253
  6
CONTINUOUS
 70
0
 71
3
 72
13
 73
9
 74
7
 42
0.0000001
 43
0.0000001
 44
0.0000000001
 12
0.2142716424
 22
0.2018395067
 32
0.0
 13
-0.120434471
 23
0.2686020503
 33
0.0
 40
0.0
 40
0.0
 40
0.0
 40
0.0
 40
0.0956401503
 40
0.1996558711
 40
0.3134830153
 40
0.4371985913
 40
0.709060774
 40
1.0
 40
1.0
 40
1.0
 40
1.0
 10
-13.4965295051
 20
3.6104298898
 30
0.0
 10
-13.4896985144
 20
3.6168645434
 30
0.0
 10
-13.4772559872
 20
3.6323057585
 30
0.0
 10
-13.4637991106
 20
3.6601924623
 30
0.0
 10
-13.455112697
 20
3.6927394493
 30
0.0
 10
-13.4500067603
 20
3.7426296922
 30
0.0
 10
-13.4571032985
 20
3.8103403337
 30
0.0
 10
-13.474592952
 20
3.8631800629
 30
0.0
 10
-13.486272656
 20
3.8892290205
 30
0.0
 11
-13.4965295051
 21
3.6104298898
 31
0.0
 11
-13.4786664181
 21
3.632190288
 31
0.0
 11
-13.4650891961
 21
3.659634145
 31
0.0
 11
-13.4562046165
 21
3.6919416518
 31
0.0
 11
-13.4522794586
 21
3.7281472013
 31
0.0
 11
-13.459629623
 21
3.8078360119
 31
0.0
 11
-13.486272656
 21
3.8892290205
 31
0.0
  0
SPLINE
  5
383
100
AcDbEntity
  8
0
100
AcDbSpline
 62
253
  6
CONTINUOUS
 70
0
 71
3
 72
14
 73
10
 74
8
 42
0.0000001
 43
0.0000001
 44
0.0000000001
 12
0.2814911062
 22
0.1482367787
 32
0.0
 13
-0.137658431
 23
0.2868127294
 33
0.0
 40
0.0
 40
0.0
 40
0.0
 40
0.0
 40
0.0935635814
 40
0.1934293187
 40
0.3033259435
 40
0.4247853064
 40
0.5574456524
 40
0.6995448214
 40
1.0
 40
1.0
 40
1.0
 40
1.0
 10
-13.5107887418
 20
3.5982096286
 30
0.0
 10
-13.5020096365
 20
3.6028328166
 30
0.0
 10
-13.485354732
 20
3.6154858264
 30
0.0
 10
-13.4664650996
 20
3.6420000439
 30
0.0
 10
-13.4536725205
 20
3.6750339073
 30
0.0
 10
-13.4472310813
 20
3.7133097251
 30
0.0
 10
-13.4472388727
 20
3.7554998344
 30
0.0
 10
-13.4559481702
 20
3.8160138102
 30
0.0
 10
-13.47156502
 20
3.8609190911
 30
0.0
 10
-13.4853517495
 20
3.8896438811
 30
0.0
 11
-13.5107887418
 21
3.5982096286
 31
0.0
 11
-13.4869757788
 21
3.6160691306
 31
0.0
 11
-13.4682143391
 21
3.6417090658
 31
0.0
 11
-13.4552115312
 21
3.6741634034
 31
0.0
 11
-13.448457702
 21
3.7122093531
 31
0.0
 11
-13.4482072286
 21
3.7544128232
 31
0.0
 11
-13.4544697466
 21
3.7991840054
 31
0.0
 11
-13.4853517495
 21
3.8896438811
 31
0.0
  0
SPLINE
  5
384
100
AcDbEntity
  8
0
100
AcDbSpline
 62
253
  6
CONTINUOUS
 70
0
 71
3
 72
31
 73
27
 74
25
 42
0.0000001
 43
0.0000001
 44
0.0000000001
 12
3.1499661457
 22
-6.5352029907
 32
0.0
 13
-3.0662301808
 23
6.5749066401
 33
0.0
 40
0.0
 40
0.0
 40
0.0
 40
0.0
 40
0.0760971077
 40
0.1498586784
 40
0.2196192612
 40
0.2526033091
 40
0.2841493217
 40
0.3141920582
 40
0.3427196872
 40
0.3953992477
 40
0.4199757057
 40
0.4436836805
 40
0.4668656445
 40
0.4899089087
 40
0.5132133468
 40
0.5371559475
 40
0.5620609771
 40
0.5881814518
 40
0.615692426
 40
0.6446930431
 40
0.6752135022
 40
0.7072239677
 40
0.7753010792
 40
0.8478724335
 40
0.9233767661
 40
1.0
 40
1.0
 40
1.0
 40
1.0
 10
-10.7305843001
 20
-11.3224816908
 30
0.0
 10
-10.6506831958
 20
-11.4882517061
 30
0.0
 10
-10.5124032313
 20
-11.8243563886
 30
0.0
 10
-10.3714078394
 20
-12.3377268957
 30
0.0
 10
-10.3136641485
 20
-12.7622896461
 30
0.0
 10
-10.3076222002
 20
-13.0872967186
 30
0.0
 10
-10.3224731322
 20
-13.3157959726
 30
0.0
 10
-10.3565388498
 20
-13.5314387019
 30
0.0
 10
-10.4252209036
 20
-13.7918063995
 30
0.0
 10
-10.5315145562
 20
-14.028057389
 30
0.0
 10
-10.6768789272
 20
-14.2251873309
 30
0.0
 10
-10.7997177833
 20
-14.3477747602
 30
0.0
 10
-10.9376251567
 20
-14.4469593945
 30
0.0
 10
-11.0891528027
 20
-14.52160154
 30
0.0
 10
-11.2526130857
 20
-14.5708750852
 30
0.0
 10
-11.4261993223
 20
-14.5943457786
 30
0.0
 10
-11.6080783545
 20
-14.5919246492
 30
0.0
 10
-11.796430595
 20
-14.563799631
 30
0.0
 10
-11.9894431034
 20
-14.510381543
 30
0.0
 10
-12.1852856471
 20
-14.4322833638
 30
0.0
 10
-12.3821182777
 20
-14.3303183907
 30
0.0
 10
-12.6487868
 20
-14.1604253858
 30
0.0
 10
-12.9718549509
 20
-13.8931468644
 30
0.0
 10
-13.3255866227
 20
-13.506362297
 30
0.0
 10
-13.6399900719
 20
-13.0615894011
 30
0.0
 10
-13.8155861966
 20
-12.73715593
 30
0.0
 10
-13.8939010207
 20
-12.5692257269
 30
0.0
 11
-10.7305843001
 21
-11.3224816908
 31
0.0
 11
-10.5210962405
 21
-11.8332553323
 31
0.0
 11
-10.3807748678
 21
-12.3496504705
 31
0.0
 11
-10.3149972283
 21
-12.8514521384
 31
0.0
 11
-10.3109635221
 21
-13.0907086306
 31
0.0
 11
-10.3262799085
 21
-13.3190534572
 31
0.0
 11
-10.3607999291
 21
-13.5342544544
 31
0.0
 11
-10.4141932011
 21
-13.7342088204
 31
0.0
 11
-10.5753768743
 21
-14.0807322234
 31
0.0
 11
-10.6816202875
 21
-14.2239163049
 31
0.0
 11
-10.8036564485
 21
-14.3451164395
 31
0.0
 11
-10.9403091164
 21
-14.4431481601
 31
0.0
 11
-11.0902583494
 21
-14.5170532082
 31
0.0
 11
-11.2520524867
 21
-14.5661090573
 31
0.0
 11
-11.4241214788
 21
-14.5898362286
 31
0.0
 11
-11.6047915452
 21
-14.5880032868
 31
0.0
 11
-11.7923010629
 21
-14.5606293961
 31
0.0
 11
-11.9848175336
 21
-14.5079843568
 31
0.0
 11
-12.1804554706
 21
-14.4305860927
 31
0.0
 11
-12.3772950289
 21
-14.3291955836
 31
0.0
 11
-12.5734011677
 21
-14.2048092798
 31
0.0
 11
-12.955713823
 21
-13.8921500326
 31
0.0
 11
-13.3123479365
 21
-13.5048523705
 31
0.0
 11
-13.629245026
 21
-13.0580621899
 31
0.0
 11
-13.8939010207
 21
-12.5692257269
 31
0.0
  0
SPLINE
  5
385
100
AcDbEntity
  8
0
100
AcDbSpline
 62
7
  6
CONTINUOUS
 70
0
 71
3
 72
14
 73
10
 74
8
 42
0.0000001
 43
0.0000001
 44
0.0000000001
 12
0.2823689883
 22
0.149600341
 32
0.0
 13
-0.1437924033
 23
0.2853703775
 33
0.0
 40
0.0
 40
0.0
 40
0.0
 40
0.0
 40
0.0943233581
 40
0.194542428
 40
0.3044688715
 40
0.4257549336
 40
0.5581424206
 40
0.6999551529
 40
1.0
 40
1.0
 40
1.0
 40
1.0
 10
-12.6866971217
 20
3.9867100179
 30
0.0
 10
-12.6778191246
 20
3.9914136201
 30
0.0
 10
-12.6610085427
 20
4.0042124033
 30
0.0
 10
-12.6420140013
 20
4.0309895118
 30
0.0
 10
-12.6293231718
 20
4.0642649269
 30
0.0
 10
-12.6231849376
 20
4.1027277823
 30
0.0
 10
-12.623681113
 20
4.1450304283
 30
0.0
 10
-12.6332742056
 20
4.2055863341
 30
0.0
 10
-12.6497343933
 20
4.2503562337
 30
0.0
 10
-12.6641157832
 20
4.2788975374
 30
0.0
 11
-12.6866971217
 21
3.9867100179
 31
0.0
 11
-12.6626167202
 21
4.0048378586
 31
0.0
 11
-12.6437712134
 21
4.0307309235
 31
0.0
 11
-12.6308770437
 21
4.0634058352
 31
0.0
 11
-12.6244240657
 21
4.1016218737
 31
0.0
 11
-12.6246568903
 21
4.1439257177
 31
0.0
 11
-12.6315660156
 21
4.1887122493
 31
0.0
 11
-12.6641157832
 21
4.2788975374
 31
0.0
  0
SPLINE
  5
386
100
AcDbEntity
  8
RACCORDO
100
AcDbSpline
 62
253
  6
CONTINUOUS
 70
0
 71
3
 72
11
 73
7
 74
5
 42
0.0000001
 43
0.0000001
 44
0.0000000001
 12
-0.1026843425
 22
0.0513470616
 32
0.0
 13
-0.1029781233
 23
-0.0507553057
 33
0.0
 40
0.0
 40
0.0
 40
0.0
 40
0.0
 40
0.2274030322
 40
0.4651083369
 40
0.721100729
 40
1.0
 40
1.0
 40
1.0
 40
1.0
 10
-11.0149960961
 20
24.0689023578
 30
0.0
 10
-11.022779673
 20
24.072794517
 30
0.0
 10
-11.0399152843
 20
24.0785203774
 30
0.0
 10
-11.0677525739
 20
24.0800076578
 30
0.0
 10
-11.0970583387
 20
24.074646786
 30
0.0
 10
-11.1161973995
 20
24.0670313025
 30
0.0
 10
-11.1257709073
 20
24.0623127632
 30
0.0
 11
-11.0149960961
 21
24.0689023578
 31
0.0
 11
-11.0397315961
 21
24.0772541118
 31
0.0
 11
-11.0669696671
 21
24.0789397416
 31
0.0
 11
-11.0959260014
 21
24.0739115379
 31
0.0
 11
-11.1257709073
 21
24.0623127632
 31
0.0
  0
SPLINE
  5
387
100
AcDbEntity
  8
0
100
AcDbSpline
 62
7
  6
CONTINUOUS
 70
0
 71
3
 72
11
 73
7
 74
5
 42
0.0000001
 43
0.0000001
 44
0.0000000001
 12
-0.316205737
 22
0.1581628502
 32
0.0
 13
-0.1746241686
 23
0.3074214616
 33
0.0
 40
0.0
 40
0.0
 40
0.0
 40
0.0
 40
0.2430053179
 40
0.4931863229
 40
0.7464632017
 40
1.0
 40
1.0
 40
1.0
 40
1.0
 10
-14.8384871809
 20
4.1394582089
 30
0.0
 10
-14.8641004061
 20
4.1522696802
 30
0.0
 10
-14.9131271465
 20
4.1843103345
 30
0.0
 10
-14.9781267734
 20
4.2439850202
 30
0.0
 10
-15.0353867027
 20
4.3127005163
 30
0.0
 10
-15.067958189
 20
4.3629564839
 30
0.0
 10
-15.0827160732
 20
4.3889373683
 30
0.0
 11
-14.8384871809
 21
4.1394582089
 31
0.0
 11
-14.9109373324
 21
4.1856373758
 31
0.0
 11
-14.9764354967
 21
4.2450840303
 31
0.0
 11
-15.0339274023
 21
4.3137384383
 31
0.0
 11
-15.0827160732
 21
4.3889373683
 31
0.0
  0
SPLINE
  5
388
100
AcDbEntity
  8
0
100
AcDbSpline
 62
7
  6
CONTINUOUS
 70
0
 71
3
 72
10
 73
6
 74
4
 42
0.0000001
 43
0.0000001
 44
0.0000000001
 12
-0.0025254901
 22
-0.3065974057
 32
0.0
 13
0.1523207459
 23
-0.2660953545
 33
0.0
 40
0.0
 40
0.0
 40
0.0
 40
0.0
 40
0.2401532999
 40
0.4886795983
 40
1.0
 40
1.0
 40
1.0
 40
1.0
 10
-9.6656141588
 20
-0.6283898993
 30
0.0
 10
-9.665816327
 20
-0.6529333588
 30
0.0
 10
-9.6612842603
 20
-0.702974037
 30
0.0
 10
-9.6371905633
 20
-0.8025028103
 30
0.0
 10
-9.6052003176
 20
-0.8742135172
 30
0.0
 10
-9.5792387492
 20
-0.919566845
 30
0.0
 11
-9.6656141588
 21
-0.6283898993
 31
0.0
 11
-9.6596129152
 21
-0.701777811
 31
0.0
 11
-9.6420584996
 21
-0.7759283218
 31
0.0
 11
-9.5792387492
 21
-0.919566845
 31
0.0
  0
SPLINE
  5
389
100
AcDbEntity
  8
0
100
AcDbSpline
 62
7
  6
CONTINUOUS
 70
0
 71
3
 72
15
 73
11
 74
9
 42
0.0000001
 43
0.0000001
 44
0.0000000001
 12
0.0014804532
 22
0.1218056267
 32
0.0
 13
0.098778755
 23
0.0712850616
 33
0.0
 40
0.0
 40
0.0
 40
0.0
 40
0.0
 40
0.0188001931
 40
0.0435742608
 40
0.1124857514
 40
0.2067327465
 40
0.3245900165
 40
0.4642954484
 40
0.6242875226
 40
1.0
 40
1.0
 40
1.0
 40
1.0
 10
-9.643387027
 20
1.5439367211
 30
0.0
 10
-9.6433777494
 20
1.5447000442
 30
0.0
 10
-9.6429284655
 20
1.5464525072
 30
0.0
 10
-9.640827371
 20
1.5505179314
 30
0.0
 10
-9.636037077
 20
1.5565279329
 30
0.0
 10
-9.628093382
 20
1.5647111889
 30
0.0
 10
-9.6175213618
 20
1.5743358074
 30
0.0
 10
-9.6045476213
 20
1.5852523993
 30
0.0
 10
-9.5830648825
 20
1.6023054981
 30
0.0
 10
-9.5655811238
 20
1.6152569294
 30
0.0
 10
-9.5532103202
 20
1.6241844918
 30
0.0
 11
-9.643387027
 21
1.5439367211
 31
0.0
 11
-9.6429221847
 21
1.5461791875
 31
0.0
 11
-9.6416071852
 21
1.5488954638
 31
0.0
 11
-9.6366019993
 21
1.5556344936
 31
0.0
 11
-9.6286861406
 21
1.563949828
 31
0.0
 11
-9.6181228799
 21
1.5736726608
 31
0.0
 11
-9.6051299973
 21
1.5846636993
 31
0.0
 11
-9.5898866341
 21
1.5968076518
 31
0.0
 11
-9.5532103202
 21
1.6241844918
 31
0.0
  0
SPLINE
  5
38A
100
AcDbEntity
  8
RACCORDO
100
AcDbSpline
 62
253
  6
CONTINUOUS
 70
0
 71
3
 72
11
 73
7
 74
5
 42
0.0000001
 43
0.0000001
 44
0.0000000001
 12
-0.0000013331
 22
-0.1191821839
 32
0.0
 13
-0.1063496853
 23
-0.0537971877
 33
0.0
 40
0.0
 40
0.0
 40
0.0
 40
0.0
 40
0.2069628811
 40
0.4350650041
 40
0.6978063725
 40
1.0
 40
1.0
 40
1.0
 40
1.0
 10
-10.8767993487
 20
23.4977643386
 30
0.0
 10
-10.8767994406
 20
23.4895422425
 30
0.0
 10
-10.880398565
 20
23.4721263398
 30
0.0
 10
-10.8954479416
 20
23.4483310814
 30
0.0
 10
-10.9189248876
 20
23.4269192956
 30
0.0
 10
-10.9382844713
 20
23.4153107634
 30
0.0
 10
-10.9489972037
 20
23.4098917077
 30
0.0
 11
-10.8767993487
 21
23.4977643386
 31
0.0
 11
-10.8815325359
 21
23.4735564327
 31
0.0
 11
-10.8955528445
 21
23.4502649378
 31
0.0
 11
-10.9183269771
 21
23.4287728201
 31
0.0
 11
-10.9489972037
 21
23.4098917077
 31
0.0
  0
SPLINE
  5
38B
100
AcDbEntity
  8
RACCORDO
100
AcDbSpline
 62
253
  6
CONTINUOUS
 70
0
 71
3
 72
11
 73
7
 74
5
 42
0.0000001
 43
0.0000001
 44
0.0000000001
 12
-0.0000014429
 22
-0.119182188
 32
0.0
 13
-0.1063496889
 23
-0.0537971895
 33
0.0
 40
0.0
 40
0.0
 40
0.0
 40
0.0
 40
0.2069627842
 40
0.4350648191
 40
0.6978060254
 40
1.0
 40
1.0
 40
1.0
 40
1.0
 10
-10.8767993491
 20
23.8452958598
 30
0.0
 10
-10.8767994486
 20
23.8370737674
 30
0.0
 10
-10.8803985574
 20
23.8196578712
 30
0.0
 10
-10.8954479273
 20
23.7958626212
 30
0.0
 10
-10.918924866
 20
23.774450822
 30
0.0
 10
-10.9382844586
 20
23.7628422866
 30
0.0
 10
-10.9489972037
 20
23.7574232244
 30
0.0
 11
-10.8767993491
 21
23.8452958598
 31
0.0
 11
-10.8815325315
 21
23.8210879639
 31
0.0
 11
-10.89555283
 21
23.7977964742
 31
0.0
 11
-10.9183269421
 21
23.7763043613
 31
0.0
 11
-10.9489972037
 21
23.7574232244
 31
0.0
  0
SPLINE
  5
38C
100
AcDbEntity
  8
0
100
AcDbSpline
 62
253
  6
CONTINUOUS
 70
0
 71
3
 72
12
 73
8
 74
6
 42
0.0000001
 43
0.0000001
 44
0.0000000001
 12
0.0411730036
 22
-0.0823756062
 32
0.0
 13
0.0915171465
 23
-0.0102746583
 33
0.0
 40
0.0
 40
0.0
 40
0.0
 40
0.0
 40
0.1648333333
 40
0.265552411
 40
0.381185258
 40
0.6595219786
 40
1.0
 40
1.0
 40
1.0
 40
1.0
 10
-10.8141236995
 20
-11.2908288956
 30
0.0
 10
-10.8118614717
 20
-11.2953549775
 30
0.0
 10
-10.8058413248
 20
-11.3014253494
 30
0.0
 10
-10.7957805757
 20
-11.3073638451
 30
0.0
 10
-10.781778229
 20
-11.3133661332
 30
0.0
 10
-10.7598554056
 20
-11.3190844194
 30
0.0
 10
-10.7409684258
 20
-11.3213171504
 30
0.0
 10
-10.7305819002
 20
-11.3224832488
 30
0.0
 11
-10.8141236995
 21
-11.2908288956
 31
0.0
 11
-10.804006912
 21
-11.3021460702
 31
0.0
 11
-10.7960845478
 21
-11.3069699472
 31
0.0
 11
-10.7863312199
 21
-11.3112444166
 31
0.0
 11
-10.7616261801
 21
-11.3180775714
 31
0.0
 11
-10.7305819002
 21
-11.3224832488
 31
0.0
  0
SPLINE
  5
38D
100
AcDbEntity
  8
0
100
AcDbSpline
 62
7
  6
CONTINUOUS
 70
0
 71
3
 72
11
 73
7
 74
5
 42
0.0000001
 43
0.0000001
 44
0.0000000001
 12
-0.3084670125
 22
0.1543746078
 32
0.0
 13
-0.174633077
 23
0.2974671506
 33
0.0
 40
0.0
 40
0.0
 40
0.0
 40
0.0
 40
0.2435231856
 40
0.4935872193
 40
0.7465960796
 40
1.0
 40
1.0
 40
1.0
 40
1.0
 10
-15.4340771002
 20
-6.587230728
 30
0.0
 10
-15.4591167234
 20
-6.5746994626
 30
0.0
 10
-15.5071239758
 20
-6.5436846938
 30
0.0
 10
-15.5711081356
 20
-6.486078269
 30
0.0
 10
-15.6277285084
 20
-6.4197623722
 30
0.0
 10
-15.6601370404
 20
-6.3712056402
 30
0.0
 10
-15.6748879425
 20
-6.3460791928
 30
0.0
 11
-15.4340771002
 21
-6.587230728
 31
0.0
 11
-15.5050987961
 21
-6.542374772
 31
0.0
 11
-15.5695066435
 21
-6.4849996664
 31
0.0
 11
-15.6263272864
 21
-6.4187580063
 31
0.0
 11
-15.6748879425
 21
-6.3460791928
 31
0.0
  0
SPLINE
  5
38E
100
AcDbEntity
  8
0
100
AcDbSpline
 62
7
  6
CONTINUOUS
 70
0
 71
3
 72
10
 73
6
 74
4
 42
0.0000001
 43
0.0000001
 44
0.0000000001
 12
0.0037658078
 22
-0.304289097
 32
0.0
 13
0.1549099567
 23
-0.2619330853
 33
0.0
 40
0.0
 40
0.0
 40
0.0
 40
0.0
 40
0.2411105032
 40
0.4898339653
 40
1.0
 40
1.0
 40
1.0
 40
1.0
 10
-9.0776732352
 20
-11.9062975135
 30
0.0
 10
-9.0773705766
 20
-11.9307532793
 30
0.0
 10
-9.0719818295
 20
-11.9804357838
 30
0.0
 10
-9.046556847
 20
-12.0788364892
 30
0.0
 10
-9.0138681614
 20
-12.1494682732
 30
0.0
 10
-8.9875248953
 20
-12.1940113944
 30
0.0
 11
-9.0776732352
 21
-11.9062975135
 31
0.0
 11
-9.07035374
 21
-11.9793044291
 31
0.0
 11
-9.0517652724
 21
-12.052676014
 31
0.0
 11
-8.9875248953
 21
-12.1940113944
 31
0.0
  0
SPLINE
  5
38F
100
AcDbEntity
  8
0
100
AcDbSpline
 62
7
  6
CONTINUOUS
 70
0
 71
3
 72
15
 73
11
 74
9
 42
0.0000001
 43
0.0000001
 44
0.0000000001
 12
-0.0009756664
 22
0.1160259005
 32
0.0
 13
0.0938421165
 23
0.0682394217
 33
0.0
 40
0.0
 40
0.0
 40
0.0
 40
0.0
 40
0.0172387941
 40
0.0406898004
 40
0.1076857026
 40
0.2008700229
 40
0.3184428009
 40
0.4586068949
 40
0.6197821191
 40
1.0
 40
1.0
 40
1.0
 40
1.0
 10
-9.09994114
 20
-9.7527908112
 30
0.0
 10
-9.0999467465
 20
-9.7521240957
 30
0.0
 10
-9.0995284426
 20
-9.7505628512
 30
0.0
 10
-9.0975455046
 20
-9.7468952716
 30
0.0
 10
-9.0929944899
 20
-9.7413758491
 30
0.0
 10
-9.0854392585
 20
-9.7337507119
 30
0.0
 10
-9.0753373608
 20
-9.7246698262
 30
0.0
 10
-9.0629075586
 20
-9.7142770346
 30
0.0
 10
-9.0422473212
 20
-9.6979007546
 30
0.0
 10
-9.0254468078
 20
-9.6853951181
 30
0.0
 10
-9.0135533243
 20
-9.676746502
 30
0.0
 11
-9.09994114
 21
-9.7527908112
 31
0.0
 11
-9.0995329012
 21
-9.7508326973
 31
0.0
 11
-9.098308618
 21
-9.7484026598
 31
0.0
 11
-9.093575779
 21
-9.7422359688
 31
0.0
 11
-9.0860373301
 21
-9.7344851651
 31
0.0
 11
-9.0759402361
 21
-9.7253117235
 31
0.0
 11
-9.0634891596
 21
-9.7148492346
 31
0.0
 11
-9.0488527375
 21
-9.7032084185
 31
0.0
 11
-9.0135533243
 21
-9.676746502
 31
0.0
  0
SPLINE
  5
390
100
AcDbEntity
  8
0
100
AcDbSpline
 62
253
  6
CONTINUOUS
 70
0
 71
3
 72
28
 73
24
 74
22
 42
0.0000001
 43
0.0000001
 44
0.0000000001
 12
-5.4326802161
 22
-2.78783327
 32
0.0
 13
4.2761336993
 23
4.3589803002
 33
0.0
 40
0.0
 40
0.0
 40
0.0
 40
0.0
 40
0.022704176
 40
0.0457721149
 40
0.0695143085
 40
0.0941940183
 40
0.120015892
 40
0.1471224732
 40
0.2054031123
 40
0.2691580114
 40
0.3377639155
 40
0.4101298767
 40
0.4848583448
 40
0.5603807535
 40
0.6350785702
 40
0.7073988011
 40
0.7759723612
 40
0.8397442237
 40
0.8981264296
 40
0.9253240606
 40
0.9512650258
 40
0.9760901484
 40
1.0
 40
1.0
 40
1.0
 40
1.0
 10
-10.9235814198
 20
-14.0965981187
 30
0.0
 10
-10.9646962624
 20
-14.1176966045
 30
0.0
 10
-11.0510179726
 20
-14.1538759596
 30
0.0
 10
-11.1887638711
 20
-14.1883155823
 30
0.0
 10
-11.3340252383
 20
-14.2029277678
 30
0.0
 10
-11.4854684872
 20
-14.1976672127
 30
0.0
 10
-11.6418223567
 20
-14.172688248
 30
0.0
 10
-11.8603116204
 20
-14.1120182291
 30
0.0
 10
-12.1384800976
 20
-13.985675947
 30
0.0
 10
-12.4614639617
 20
-13.76808924
 30
0.0
 10
-12.7717883967
 20
-13.4881402806
 30
0.0
 10
-13.059343103
 20
-13.1550154212
 30
0.0
 10
-13.3147344041
 20
-12.7795802106
 30
0.0
 10
-13.5294629127
 20
-12.3741478862
 30
0.0
 10
-13.6963553647
 20
-11.9520218282
 30
0.0
 10
-13.8098228333
 20
-11.5270435919
 30
0.0
 10
-13.8660195222
 20
-11.1129987069
 30
0.0
 10
-13.8629594391
 20
-10.7233622716
 30
0.0
 10
-13.8093827011
 20
-10.4221154878
 30
0.0
 10
-13.7352188882
 20
-10.2071577995
 30
0.0
 10
-13.6667596031
 20
-10.0635742276
 30
0.0
 10
-13.5847251609
 20
-9.9351470735
 30
0.0
 10
-13.5203522335
 20
-9.859174549
 30
0.0
 10
-13.4862716594
 20
-9.8244336917
 30
0.0
 11
-10.9235814198
 21
-14.0965981187
 31
0.0
 11
-11.0514091009
 21
-14.1502662785
 31
0.0
 11
-11.1880003871
 21
-14.184673076
 31
0.0
 11
-11.3322121859
 21
-14.1995318833
 31
0.0
 11
-11.4828353221
 21
-14.1947208288
 31
0.0
 11
-11.6386044016
 21
-14.1702838084
 31
0.0
 11
-11.798208242
 21
-14.1264300974
 31
0.0
 11
-12.1235124602
 21
-13.9821244591
 31
0.0
 11
-12.4477669801
 21
-13.7666829399
 31
0.0
 11
-12.7599896949
 21
-13.4873735412
 31
0.0
 11
-13.0495752967
 21
-13.1536058672
 31
0.0
 11
-13.306663131
 21
-12.776612692
 31
0.0
 11
-13.5224807579
 21
-12.3690729753
 31
0.0
 11
-13.6896508297
 21
-11.9446894215
 31
0.0
 11
-13.8024501119
 21
-11.5177347423
 31
0.0
 11
-13.8570119333
 21
-11.102578945
 31
0.0
 11
-13.8514640435
 21
-10.7132128915
 31
0.0
 11
-13.7859968106
 21
-10.3627805903
 31
0.0
 11
-13.7314171645
 21
-10.2059304943
 31
0.0
 11
-13.6628576321
 21
-10.0631347845
 31
0.0
 11
-13.5809080818
 21
-9.9356077079
 31
0.0
 11
-13.4862716594
 21
-9.8244336917
 31
0.0
  0
SPLINE
  5
391
100
AcDbEntity
  8
RACCORDO
100
AcDbSpline
 62
253
  6
CONTINUOUS
 70
0
 71
3
 72
11
 73
7
 74
5
 42
0.0000001
 43
0.0000001
 44
0.0000000001
 12
-0.1026843425
 22
0.0513470616
 32
0.0
 13
-0.1029781233
 23
-0.0507553057
 33
0.0
 40
0.0
 40
0.0
 40
0.0
 40
0.0
 40
0.2274030322
 40
0.4651083369
 40
0.721100729
 40
1.0
 40
1.0
 40
1.0
 40
1.0
 10
-12.3523222566
 20
24.7375654381
 30
0.0
 10
-12.3601058336
 20
24.7414575972
 30
0.0
 10
-12.3772414448
 20
24.7471834577
 30
0.0
 10
-12.4050787344
 20
24.7486707381
 30
0.0
 10
-12.4343844993
 20
24.7433098663
 30
0.0
 10
-12.4535235601
 20
24.7356943828
 30
0.0
 10
-12.4630970679
 20
24.7309758435
 30
0.0
 11
-12.3523222566
 21
24.7375654381
 31
0.0
 11
-12.3770577567
 21
24.7459171921
 31
0.0
 11
-12.4042958276
 21
24.7476028219
 31
0.0
 11
-12.4332521619
 21
24.7425746182
 31
0.0
 11
-12.4630970679
 21
24.7309758435
 31
0.0
  0
SPLINE
  5
392
100
AcDbEntity
  8
RACCORDO
100
AcDbSpline
 62
253
  6
CONTINUOUS
 70
0
 71
3
 72
12
 73
8
 74
6
 42
0.0000001
 43
0.0000001
 44
0.0000000001
 12
0.0080892484
 22
-0.2408843262
 32
0.0
 13
0.2155017185
 23
-0.1079337941
 33
0.0
 40
0.0
 40
0.0
 40
0.0
 40
0.0
 40
0.1048972659
 40
0.2122700343
 40
0.4422669275
 40
0.7032089287
 40
1.0
 40
1.0
 40
1.0
 40
1.0
 10
-19.6209322593
 20
-17.5569184482
 30
0.0
 10
-19.6206494126
 20
-17.5653411506
 30
0.0
 10
-19.618492919
 20
-17.5823720447
 30
0.0
 10
-19.6077455613
 20
-17.6164117754
 30
0.0
 10
-19.5816020906
 20
-17.6577389838
 30
0.0
 10
-19.5344842164
 20
-17.7007478842
 30
0.0
 10
-19.4957886072
 20
-17.7238874973
 30
0.0
 10
-19.4744689452
 20
-17.7345654261
 30
0.0
 11
-19.6209322593
 21
-17.5569184482
 31
0.0
 11
-19.61778502
 21
-17.5820041443
 31
0.0
 11
-19.6100626258
 21
-17.6067040855
 31
0.0
 11
-19.5812173929
 21
-17.6540418851
 31
0.0
 11
-19.5354607292
 21
-17.6971900648
 31
0.0
 11
-19.4744689452
 21
-17.7345654261
 31
0.0
  0
SPLINE
  5
393
100
AcDbEntity
  8
RACCORDO
100
AcDbSpline
 62
253
  6
CONTINUOUS
 70
0
 71
3
 72
12
 73
8
 74
6
 42
0.0000001
 43
0.0000001
 44
0.0000000001
 12
-0.0077587338
 22
-0.2398606219
 32
0.0
 13
0.2147279964
 23
-0.1071690416
 33
0.0
 40
0.0
 40
0.0
 40
0.0
 40
0.0
 40
0.099277791
 40
0.2018807832
 40
0.4272193789
 40
0.6918016567
 40
1.0
 40
1.0
 40
1.0
 40
1.0
 10
-19.6209511672
 20
18.0557089474
 30
0.0
 10
-19.6212079238
 20
18.0477713365
 30
0.0
 10
-19.6199921474
 20
18.0315253084
 30
0.0
 10
-19.6104385269
 20
17.9984943994
 30
0.0
 10
-19.5843276529
 20
17.9577942408
 30
0.0
 10
-19.5362305525
 20
17.9150732991
 30
0.0
 10
-19.4965284332
 20
17.8916842675
 30
0.0
 10
-19.474468829
 20
17.8806744938
 30
0.0
 11
-19.6209511672
 21
18.0557089474
 31
0.0
 11
-19.6192144288
 21
18.0319470439
 31
0.0
 11
-19.6124864245
 21
18.0082607539
 31
0.0
 11
-19.5843784066
 21
17.9620613716
 31
0.0
 11
-19.5377527201
 21
17.9189592222
 31
0.0
 11
-19.474468829
 21
17.8806744938
 31
0.0
  0
SPLINE
  5
394
100
AcDbEntity
  8
RACCORDO
100
AcDbSpline
 62
253
  6
CONTINUOUS
 70
0
 71
3
 72
11
 73
7
 74
5
 42
0.0000001
 43
0.0000001
 44
0.0000000001
 12
0.2095462293
 22
0.1221727803
 32
0.0
 13
0.2185212513
 23
-0.1052818749
 33
0.0
 40
0.0
 40
0.0
 40
0.0
 40
0.0
 40
0.2233920384
 40
0.4591546198
 40
0.7164477244
 40
1.0
 40
1.0
 40
1.0
 40
1.0
 10
-18.7152473511
 20
19.641251573
 30
0.0
 10
-18.699643698
 20
19.6503490485
 30
0.0
 10
-18.6644463977
 20
19.6641077214
 30
0.0
 10
-18.6060324415
 20
19.668818388
 30
0.0
 10
-18.5435991092
 20
19.6583252076
 30
0.0
 10
-18.5025570014
 20
19.6424295691
 30
0.0
 10
-18.4819029354
 20
19.6324785973
 30
0.0
 11
-18.7152473511
 21
19.641251573
 31
0.0
 11
-18.6648647263
 21
19.6611948319
 31
0.0
 11
-18.6079164473
 21
19.6664123888
 31
0.0
 11
-18.5462618336
 21
19.6567364365
 31
0.0
 11
-18.4819029354
 21
19.6324785973
 31
0.0
  0
SPLINE
  5
395
100
AcDbEntity
  8
RACCORDO
100
AcDbSpline
 62
253
  6
CONTINUOUS
 70
0
 71
3
 72
14
 73
10
 74
8
 42
0.0000001
 43
0.0000001
 44
0.0000000001
 12
-0.7953860169
 22
0.3976920034
 32
0.0
 13
-0.0300379523
 23
0.8887606915
 33
0.0
 40
0.0
 40
0.0
 40
0.0
 40
0.0
 40
0.1080883285
 40
0.2183171873
 40
0.3325125383
 40
0.4521539535
 40
0.5783057402
 40
0.711610161
 40
1.0
 40
1.0
 40
1.0
 40
1.0
 10
-19.0900524879
 20
-18.4906389119
 30
0.0
 10
-19.1187098029
 20
-18.4763102906
 30
0.0
 10
-19.1741568671
 20
-18.4421949955
 30
0.0
 10
-19.2483395877
 20
-18.3766305917
 30
0.0
 10
-19.3131105703
 20
-18.2973069461
 30
0.0
 10
-19.36776511
 20
-18.2052475776
 30
0.0
 10
-19.4117955445
 20
-18.1015191935
 30
0.0
 10
-19.456933217
 20
-17.9452228117
 30
0.0
 10
-19.4715813987
 20
-17.8200019437
 30
0.0
 10
-19.4744689454
 20
-17.7345654262
 30
0.0
 11
-19.0900524879
 21
-18.4906389119
 31
0.0
 11
-19.1719608506
 21
-18.4403400059
 31
0.0
 11
-19.2455681161
 21
-18.3756060762
 31
0.0
 11
-19.3100537803
 21
-18.2971582577
 31
0.0
 11
-19.3646989559
 21
-18.2058705854
 31
0.0
 11
-19.4088944161
 21
-18.1027602837
 31
0.0
 11
-19.442147396
 21
-17.9889764039
 31
0.0
 11
-19.4744689454
 21
-17.7345654262
 31
0.0
  0
SPLINE
  5
396
100
AcDbEntity
  8
0
100
AcDbSpline
 62
7
  6
CONTINUOUS
 70
0
 71
3
 72
16
 73
12
 74
10
 42
0.0000001
 43
0.0000001
 44
0.0000000001
 12
-1.7086390034
 22
-2.1906470059
 32
0.0
 13
1.250146432
 23
-2.4810311258
 33
0.0
 40
0.0
 40
0.0
 40
0.0
 40
0.0
 40
0.0978623651
 40
0.2038042511
 40
0.3187290321
 40
0.4425190235
 40
0.5075069161
 40
0.5743116777
 40
0.7124666622
 40
0.8550992885
 40
1.0
 40
1.0
 40
1.0
 40
1.0
 10
-12.7573668638
 20
6.9295792182
 30
0.0
 10
-12.8131040151
 20
6.8581185858
 30
0.0
 10
-12.9113464649
 20
6.6948742609
 30
0.0
 10
-13.0103741776
 20
6.4151712916
 30
0.0
 10
-13.0648452475
 20
6.099346014
 30
0.0
 10
-13.0721601569
 20
5.8172939121
 30
0.0
 10
-13.0562143432
 20
5.5810329175
 30
0.0
 10
-13.0244449091
 20
5.3329354391
 30
0.0
 10
-12.956124713
 20
5.0176510761
 30
0.0
 10
-12.8327098839
 20
4.6425949165
 30
0.0
 10
-12.7244982348
 20
4.3987318858
 30
0.0
 10
-12.6641158657
 20
4.278897494
 30
0.0
 11
-12.7573668638
 21
6.9295792182
 31
0.0
 11
-12.8993999287
 21
6.6977476487
 31
0.0
 11
-12.9998260248
 21
6.4210831072
 31
0.0
 11
-13.0560324312
 21
6.1067855592
 31
0.0
 11
-13.0665568143
 21
5.7630335807
 31
0.0
 11
-13.0545556395
 21
5.5828836804
 31
0.0
 11
-13.0311246874
 21
5.3987718352
 31
0.0
 11
-12.9506581879
 21
5.0234794886
 31
0.0
 11
-12.8272524489
 21
4.6469236655
 31
0.0
 11
-12.6641158657
 21
4.278897494
 31
0.0
  0
SPLINE
  5
397
100
AcDbEntity
  8
0
100
AcDbSpline
 62
253
  6
CONTINUOUS
 70
0
 71
3
 72
30
 73
26
 74
24
 42
0.0000001
 43
0.0000001
 44
0.0000000001
 12
-3.0179214052
 22
6.5910552789
 32
0.0
 13
3.0004952848
 23
-6.5990065422
 33
0.0
 40
0.0
 40
0.0
 40
0.0
 40
0.0
 40
0.0755653912
 40
0.1491160865
 40
0.2190951459
 40
0.2523745117
 40
0.2843460523
 40
0.3440721503
 40
0.3719136285
 40
0.3984886246
 40
0.4239571409
 40
0.4485454295
 40
0.4725397722
 40
0.4962713605
 40
0.5200926965
 40
0.5443493834
 40
0.5693534071
 40
0.5953632518
 40
0.6225730841
 40
0.6511100865
 40
0.7122918241
 40
0.7788450015
 40
0.8499192905
 40
0.9241817641
 40
1.0
 40
1.0
 40
1.0
 40
1.0
 10
-13.9053420932
 20
3.800250377
 30
0.0
 10
-13.981358897
 20
3.9662689338
 30
0.0
 10
-14.1117139489
 20
4.3033469
 30
0.0
 10
-14.2399347039
 20
4.8183895129
 30
0.0
 10
-14.2866322945
 20
5.2447158564
 30
0.0
 10
-14.2841681386
 20
5.5718308259
 30
0.0
 10
-14.256879896
 20
5.8727871734
 30
0.0
 10
-14.1927810362
 20
6.1567743586
 30
0.0
 10
-14.0882435389
 20
6.4125808781
 30
0.0
 10
-13.9941727775
 20
6.5817308748
 30
0.0
 10
-13.8834650638
 20
6.7308770018
 30
0.0
 10
-13.757106646
 20
6.858478975
 30
0.0
 10
-13.6163080474
 20
6.9631339934
 30
0.0
 10
-13.46250808
 20
7.0436605956
 30
0.0
 10
-13.2973546513
 20
7.0991666609
 30
0.0
 10
-13.1226341463
 20
7.1291012984
 30
0.0
 10
-12.9401874277
 20
7.1332508906
 30
0.0
 10
-12.7518603958
 20
7.1116955409
 30
0.0
 10
-12.5594696426
 20
7.0647604734
 30
0.0
 10
-12.2939012613
 20
6.9668069882
 30
0.0
 10
-11.9624058597
 20
6.7807436183
 30
0.0
 10
-11.5881697669
 20
6.4765705778
 30
0.0
 10
-11.2412023243
 20
6.0977759172
 30
0.0
 10
-10.9342320117
 20
5.6586943284
 30
0.0
 10
-10.7639955627
 20
5.3372821581
 30
0.0
 10
-10.6881648096
 20
5.1705071466
 30
0.0
 11
-13.9053420932
 21
3.800250377
 31
0.0
 11
-14.1024101082
 21
4.3113576441
 31
0.0
 11
-14.2299219268
 21
4.8290640872
 31
0.0
 11
-14.2829353209
 21
5.3335736056
 31
0.0
 11
-14.2807475619
 21
5.5748100736
 31
0.0
 11
-14.2593966036
 21
5.8055903167
 31
0.0
 11
-14.1602189855
 21
6.2270402129
 31
0.0
 11
-14.0833553977
 21
6.4136572069
 31
0.0
 11
-13.989245357
 21
6.5817512559
 31
0.0
 11
-13.8788023178
 21
6.7296990694
 31
0.0
 11
-13.7530981253
 21
6.8560685932
 31
0.0
 11
-13.6133525842
 21
6.9596332322
 31
0.0
 11
-13.4609215126
 21
7.0393843048
 31
0.0
 11
-13.2972834383
 21
7.0945414998
 31
0.0
 11
-13.1240250684
 21
7.1245612259
 31
0.0
 11
-12.942825605
 21
7.1291426724
 31
0.0
 11
-12.755440083
 21
7.1082314907
 31
0.0
 11
-12.5636819268
 21
7.0620209917
 31
0.0
 11
-12.3694049175
 21
6.990950788
 31
0.0
 11
-11.980800546
 21
6.7771949948
 31
0.0
 11
-11.604561952
 21
6.4751934245
 31
0.0
 11
-11.255093448
 21
6.096603613
 31
0.0
 11
-10.9457152201
 21
5.6560436068
 31
0.0
 11
-10.6881648096
 21
5.1705071466
 31
0.0
  0
SPLINE
  5
398
100
AcDbEntity
  8
RACCORDO
100
AcDbSpline
 62
7
  6
CONTINUOUS
 70
0
 71
3
 72
9
 73
5
 74
3
 42
0.0000001
 43
0.0000001
 44
0.0000000001
 12
-0.0045884295
 22
-0.005576179
 32
0.0
 13
-0.0070425727
 23
-0.0015967554
 33
0.0
 40
0.0
 40
0.0
 40
0.0
 40
0.0
 40
0.2030518491
 40
1.0
 40
1.0
 40
1.0
 40
1.0
 10
2.48646355
 20
16.7247896152
 30
0.0
 10
2.486152987
 20
16.7244121973
 30
0.0
 10
2.4843516517
 20
16.7227751303
 30
0.0
 10
2.4819410655
 20
16.7220282143
 30
0.0
 10
2.4800702104
 20
16.7216040372
 30
0.0
 11
2.48646355
 21
16.7247896152
 31
0.0
 11
2.4853963386
 21
16.7237840793
 31
0.0
 11
2.4800702104
 21
16.7216040372
 31
0.0
  0
SPLINE
  5
399
100
AcDbEntity
  8
RACCORDO
100
AcDbSpline
 62
7
  6
CONTINUOUS
 70
0
 71
3
 72
11
 73
7
 74
5
 42
0.0000001
 43
0.0000001
 44
0.0000000001
 12
-0.063720268
 22
-0.0144472324
 32
0.0
 13
-0.0640012744
 23
0.0131465569
 33
0.0
 40
0.0
 40
0.0
 40
0.0
 40
0.0
 40
0.1602693157
 40
0.3822319954
 40
0.6633948103
 40
1.0
 40
1.0
 40
1.0
 40
1.0
 10
2.4800702104
 20
16.7216040372
 30
0.0
 10
2.4766660759
 20
16.7208322212
 30
0.0
 10
2.4682771124
 20
16.7203589101
 30
0.0
 10
2.4538628678
 20
16.7212662112
 30
0.0
 10
2.4357262803
 20
16.7237706438
 30
0.0
 10
2.4225020145
 20
16.726257559
 30
0.0
 10
2.4153209608
 20
16.7277326255
 30
0.0
 11
2.4800702104
 21
16.7216040372
 31
0.0
 11
2.4696458531
 21
16.7206104253
 31
0.0
 11
2.455161889
 21
16.7213433671
 31
0.0
 11
2.4369482452
 21
16.7237387868
 31
0.0
 11
2.4153209608
 21
16.7277326255
 31
0.0
  0
LINE
  5
39A
100
AcDbEntity
  8
0
100
AcDbLine
 62
253
  6
CONTINUOUS
 10
-10.8026978479
 20
5.2595540811
 11
-12.6641158657
 21
4.278897494
  0
LINE
  5
39B
100
AcDbEntity
  8
0
100
AcDbLine
 62
253
  6
CONTINUOUS
 10
-12.6641158686
 20
4.278897497
 11
-13.4853272303
 21
3.889655214
  0
SPLINE
  5
39C
100
AcDbEntity
  8
0
100
AcDbSpline
 62
253
  6
CONTINUOUS
 70
0
 71
3
 72
18
 73
14
 74
12
 42
0.0000001
 43
0.0000001
 44
0.0000000001
 12
-1.4213334272
 22
2.9321440952
 32
0.0
 13
2.9296477563
 23
1.426471777
 33
0.0
 40
0.0
 40
0.0
 40
0.0
 40
0.0
 40
0.1510033056
 40
0.2986312252
 40
0.4396725676
 40
0.5715458561
 40
0.6926633966
 40
0.749154683
 40
0.8030430165
 40
0.8546031408
 40
0.9042431162
 40
0.9524968808
 40
1.0
 40
1.0
 40
1.0
 40
1.0
 10
-13.4862716214
 20
3.8892289614
 30
0.0
 10
-13.5578136367
 20
4.0368167783
 30
0.0
 10
-13.6816648556
 20
4.3376484465
 30
0.0
 10
-13.8075315719
 20
4.7996040912
 30
0.0
 10
-13.8681312977
 20
5.2539016046
 30
0.0
 10
-13.8609853415
 20
5.6835423565
 30
0.0
 10
-13.796768224
 20
6.0158810684
 30
0.0
 10
-13.7099156883
 20
6.252352839
 30
0.0
 10
-13.630347449
 20
6.4097137628
 30
0.0
 10
-13.5355718636
 20
6.5495695409
 30
0.0
 10
-13.4264193147
 20
6.6704902928
 30
0.0
 10
-13.3039700386
 20
6.7711399696
 30
0.0
 10
-13.2139166609
 20
6.8241826714
 30
0.0
 10
-13.1675275254
 20
6.8467699576
 30
0.0
 11
-13.4862716214
 21
3.8892289614
 31
0.0
 11
-13.6732564746
 21
4.3443558421
 31
0.0
 11
-13.7986831952
 21
4.8087580365
 31
0.0
 11
-13.8576271922
 21
5.2645420455
 31
0.0
 11
-13.8477734754
 21
5.694134832
 31
0.0
 11
-13.7695090597
 21
6.0809551671
 31
0.0
 11
-13.7055805249
 21
6.253572972
 31
0.0
 11
-13.6259053615
 21
6.4100499408
 31
0.0
 11
-13.5312662115
 21
6.5488660255
 31
0.0
 11
-13.4225919826
 21
6.6686707445
 31
0.0
 11
-13.3009484554
 21
6.7682964465
 31
0.0
 11
-13.1675275254
 21
6.8467699576
 31
0.0
  0
SPLINE
  5
39D
100
AcDbEntity
  8
RACCORDO
100
AcDbSpline
 62
253
  6
CONTINUOUS
 70
0
 71
3
 72
11
 73
7
 74
5
 42
0.0000001
 43
0.0000001
 44
0.0000000001
 12
-0.1026816329
 22
0.0513348711
 32
0.0
 13
-0.1029710594
 23
-0.0507518241
 33
0.0
 40
0.0
 40
0.0
 40
0.0
 40
0.0
 40
0.2274027353
 40
0.4651090575
 40
0.7211019479
 40
1.0
 40
1.0
 40
1.0
 40
1.0
 10
2.3493149666
 20
17.386746827
 30
0.0
 10
2.3415316052
 20
17.390638057
 30
0.0
 10
2.3243967612
 20
17.3963622407
 30
0.0
 10
2.2965613243
 20
17.3978481099
 30
0.0
 10
2.267257726
 20
17.3924869267
 30
0.0
 10
2.2481200664
 20
17.384871876
 30
0.0
 10
2.2385472571
 20
17.380153681
 30
0.0
 11
2.3493149666
 21
17.386746827
 31
0.0
 11
2.3245805842
 21
17.395096186
 31
0.0
 11
2.2973441844
 21
17.3967804035
 31
0.0
 11
2.2683899047
 21
17.391751817
 31
0.0
 11
2.2385472571
 21
17.380153681
 31
0.0
  0
SPLINE
  5
39E
100
AcDbEntity
  8
RACCORDO
100
AcDbSpline
 62
253
  6
CONTINUOUS
 70
0
 71
3
 72
11
 73
7
 74
5
 42
0.0000001
 43
0.0000001
 44
0.0000000001
 12
-0.0000013698
 22
-0.1191821853
 32
0.0
 13
-0.1063496865
 23
-0.0537971883
 33
0.0
 40
0.0
 40
0.0
 40
0.0
 40
0.0
 40
0.2069627866
 40
0.4350648202
 40
0.69780603
 40
1.0
 40
1.0
 40
1.0
 40
1.0
 10
2.4875188156
 20
17.1631367744
 30
0.0
 10
2.4875187211
 20
17.154914682
 30
0.0
 10
2.4839196044
 20
17.1374987862
 30
0.0
 10
2.4688702369
 20
17.1137035373
 30
0.0
 10
2.4453932971
 20
17.0922917395
 30
0.0
 10
2.4260337054
 20
17.0806832042
 30
0.0
 10
2.4153209608
 20
17.0752641422
 30
0.0
 11
2.4875188156
 21
17.1631367744
 31
0.0
 11
2.4827856328
 21
17.1389288788
 31
0.0
 11
2.4687653337
 21
17.1156373903
 31
0.0
 11
2.4459912211
 21
17.0941452784
 31
0.0
 11
2.4153209608
 21
17.0752641422
 31
0.0
  0
LINE
  5
39F
100
AcDbEntity
  8
0
100
AcDbLine
 62
253
  6
CONTINUOUS
 10
-11.2282686168
 20
-8.6901337275
 11
-12.6641158657
 21
-9.4200252733
  0
SPLINE
  5
3A0
100
AcDbEntity
  8
0
100
AcDbSpline
 62
7
  6
CONTINUOUS
 70
0
 71
3
 72
24
 73
20
 74
18
 42
0.0000001
 43
0.0000001
 44
0.0000000001
 12
-4.0324422193
 22
-3.9703131748
 32
0.0
 13
5.6587822913
 23
0.0464751256
 33
0.0
 40
0.0
 40
0.0
 40
0.0
 40
0.0
 40
0.0234435677
 40
0.0476603369
 40
0.0989400218
 40
0.1547146939
 40
0.2151664494
 40
0.2799826816
 40
0.3484763028
 40
0.4196918749
 40
0.4924965932
 40
0.5656609525
 40
0.6379341715
 40
0.7081185749
 40
0.7751466967
 40
0.8381656756
 40
0.896634242
 40
0.95043576
 40
1.0
 40
1.0
 40
1.0
 40
1.0
 10
-12.6641158657
 20
-9.4200252733
 30
0.0
 10
-12.6956274764
 20
-9.4510513752
 30
0.0
 10
-12.7556672691
 20
-9.5183427809
 30
0.0
 10
-12.862499333
 20
-9.6718186142
 30
0.0
 10
-12.9681375637
 20
-9.8979829678
 30
0.0
 10
-13.0458521485
 20
-10.2057916115
 30
0.0
 10
-13.0759332476
 20
-10.5472304416
 30
0.0
 10
-13.0578813638
 20
-10.91327804
 30
0.0
 10
-12.9923745514
 20
-11.294341617
 30
0.0
 10
-12.8812171306
 20
-11.6802807944
 30
0.0
 10
-12.7274156694
 20
-12.0607624178
 30
0.0
 10
-12.5351125529
 20
-12.4255550389
 30
0.0
 10
-12.3094820071
 20
-12.7648394167
 30
0.0
 10
-12.056576401
 20
-13.0694936528
 30
0.0
 10
-11.7831193342
 20
-13.331346778
 30
0.0
 10
-11.4963078338
 20
-13.543385205
 30
0.0
 10
-11.2034300673
 20
-13.6998534052
 30
0.0
 10
-10.9120581614
 20
-13.7962618307
 30
0.0
 10
-10.7164624487
 20
-13.8188844141
 30
0.0
 10
-10.6229713675
 20
-13.8181165793
 30
0.0
 11
-12.6641158657
 21
-9.4200252733
 31
0.0
 11
-12.7526178024
 21
-9.5188575184
 31
0.0
 11
-12.831141281
 21
-9.6311721914
 31
0.0
 11
-12.9561495641
 21
-9.8930564673
 31
0.0
 11
-13.0357116676
 21
-10.1984914179
 31
0.0
 11
-13.0676429797
 21
-10.5390927752
 31
0.0
 11
-13.0510664343
 21
-10.9055113276
 31
0.0
 11
-12.9864373373
 21
-11.2876887752
 31
0.0
 11
-12.8755300595
 21
-11.675134546
 31
0.0
 11
-12.7213888007
 21
-12.0572136308
 31
0.0
 11
-12.5282442681
 21
-12.4234380016
 31
0.0
 11
-12.3013983728
 21
-12.763754859
 31
0.0
 11
-12.0470781709
 21
-13.0688229779
 31
0.0
 11
-11.7722644893
 21
-13.3302685266
 31
0.0
 11
-11.4845006614
 21
-13.540914523
 31
0.0
 11
-11.1916857938
 21
-13.6949786793
 31
0.0
 11
-10.9018575325
 21
-13.7882325784
 31
0.0
 11
-10.6229713675
 21
-13.8181165793
 31
0.0
  0
LINE
  5
3A1
100
AcDbEntity
  8
0
100
AcDbLine
 62
253
  6
CONTINUOUS
 10
-9.096338708
 20
-10.1656154866
 11
-9.8005019466
 21
-10.4975612816
  0
LINE
  5
3A2
100
AcDbEntity
  8
0
100
AcDbLine
 62
253
  6
CONTINUOUS
 10
-11.7154414822
 20
-8.4465484757
 11
-12.8004733892
 21
-8.9975755603
  0
SPLINE
  5
3A3
100
AcDbEntity
  8
0
100
AcDbSpline
 62
7
  6
CONTINUOUS
 70
0
 71
3
 72
15
 73
11
 74
9
 42
0.0000001
 43
0.0000001
 44
0.0000000001
 12
-1.301960625
 22
0.6509803125
 32
0.0
 13
-1.301960625
 23
-0.6509803125
 33
0.0
 40
0.0
 40
0.0
 40
0.0
 40
0.0
 40
0.1125283523
 40
0.2354661028
 40
0.3658134951
 40
0.4999999817
 40
0.6341864682
 40
0.7645338681
 40
0.8874716303
 40
1.0
 40
1.0
 40
1.0
 40
1.0
 10
-2.3909422372
 20
21.7629130381
 30
0.0
 10
-2.4397780651
 20
21.787330952
 30
0.0
 10
-2.5462042326
 20
21.8301156707
 30
0.0
 10
-2.7182210486
 20
21.8752991164
 30
0.0
 10
-2.9045066125
 20
21.9031279342
 30
0.0
 10
-3.0980489916
 20
21.9125202978
 30
0.0
 10
-3.2915913746
 20
21.9031279386
 30
0.0
 10
-3.4778769485
 20
21.8752991253
 30
0.0
 10
-3.6498937827
 20
21.8301156784
 30
0.0
 10
-3.756319964
 20
21.7873309558
 30
0.0
 10
-3.8051557995
 20
21.7629130381
 30
0.0
 11
-2.3909422372
 21
21.7629130381
 31
0.0
 11
-2.542480816
 21
21.8250951308
 31
0.0
 11
-2.7153658075
 21
21.8712993347
 31
0.0
 11
-2.9029586865
 21
21.8997522282
 31
0.0
 11
-3.0980489917
 21
21.9093593658
 31
0.0
 11
-3.2931392969
 21
21.8997522333
 31
0.0
 11
-3.4807321877
 21
21.8712993435
 31
0.0
 11
-3.6536171966
 21
21.8250951388
 31
0.0
 11
-3.8051557995
 21
21.7629130381
 31
0.0
  0
LINE
  5
3A4
100
AcDbEntity
  8
0
100
AcDbLine
 62
253
  6
CONTINUOUS
 10
-12.6641158686
 20
-9.4200252734
 11
-13.4853279334
 21
-9.8239649797
  0
LINE
  5
3A5
100
AcDbEntity
  8
0
100
AcDbLine
 62
253
  6
CONTINUOUS
 10
-9.800501947
 20
-10.4975612811
 11
-10.59285258
 21
-10.9172342718
  0
LINE
  5
3A6
100
AcDbEntity
  8
0
100
AcDbLine
 62
253
  6
CONTINUOUS
 10
-12.8004733887
 20
-8.9975755602
 11
-13.6225639219
 21
-9.4023786008
  0
SPLINE
  5
3A7
100
AcDbEntity
  8
RACCORDO
100
AcDbSpline
 62
253
  6
CONTINUOUS
 70
0
 71
3
 72
11
 73
7
 74
5
 42
0.0000001
 43
0.0000001
 44
0.0000000001
 12
-0.1026843522
 22
0.0513470349
 32
0.0
 13
-0.1029781204
 23
-0.0507553043
 33
0.0
 40
0.0
 40
0.0
 40
0.0
 40
0.0
 40
0.2274032722
 40
0.4651087917
 40
0.721101419
 40
1.0
 40
1.0
 40
1.0
 40
1.0
 10
1.0119959056
 20
18.0554063558
 30
0.0
 10
1.0042123197
 20
18.059298517
 30
0.0
 10
0.9870766913
 20
18.0650243805
 30
0.0
 10
0.9592393748
 20
18.0665116526
 30
0.0
 10
0.9299336222
 20
18.0611507686
 30
0.0
 10
0.9107945804
 20
18.0535352887
 30
0.0
 10
0.9012210965
 20
18.0488167613
 30
0.0
 11
1.0119959056
 21
18.0554063558
 31
0.0
 11
0.9872603783
 21
18.0637581131
 31
0.0
 11
0.960022283
 21
18.0654437351
 31
0.0
 11
0.9310659252
 21
18.0604155136
 31
0.0
 11
0.9012210965
 21
18.0488167613
 31
0.0
  0
SPLINE
  5
3A8
100
AcDbEntity
  8
RACCORDO
100
AcDbSpline
 62
7
  6
CONTINUOUS
 70
0
 71
3
 72
12
 73
8
 74
6
 42
0.0000001
 43
0.0000001
 44
0.0000000001
 12
-0.4345619355
 22
-0.032159537
 32
0.0
 13
-0.4201960756
 23
-0.1153844428
 33
0.0
 40
0.0
 40
0.0
 40
0.0
 40
0.0
 40
0.1460665466
 40
0.2901900051
 40
0.5606459046
 40
0.7988834635
 40
1.0
 40
1.0
 40
1.0
 40
1.0
 10
-3.1722642821
 20
18.3812245125
 30
0.0
 10
-3.1934226026
 20
18.3796587017
 30
0.0
 10
-3.2352917283
 20
18.3742495911
 30
0.0
 10
-3.315201644
 20
18.3584263613
 30
0.0
 10
-3.4069614112
 20
18.3342634915
 30
0.0
 10
-3.5057611679
 20
18.3048333433
 30
0.0
 10
-3.5669172022
 20
18.2865701879
 30
0.0
 10
-3.595086662
 20
18.2788349481
 30
0.0
 11
-3.1722642821
 21
18.3812245125
 31
0.0
 11
-3.2354434252
 21
18.3735087843
 31
0.0
 11
-3.2970964331
 21
18.3615514643
 31
0.0
 11
-3.4112933198
 21
18.332431286
 31
0.0
 11
-3.5109285613
 21
18.303280514
 31
0.0
 11
-3.595086662
 21
18.2788349481
 31
0.0
  0
SPLINE
  5
3A9
100
AcDbEntity
  8
RACCORDO
100
AcDbSpline
 62
7
  6
CONTINUOUS
 70
0
 71
3
 72
15
 73
11
 74
9
 42
0.0000001
 43
0.0000001
 44
0.0000000001
 12
0.6271739864
 22
-0.3539607568
 32
0.0
 13
0.0132597171
 23
-0.7200413922
 33
0.0
 40
0.0
 40
0.0
 40
0.0
 40
0.0
 40
0.1110347967
 40
0.2313523873
 40
0.3587689084
 40
0.4905634939
 40
0.6236594143
 40
0.7548811152
 40
0.8812008158
 40
1.0
 40
1.0
 40
1.0
 40
1.0
 10
1.8869485477
 20
15.2093552194
 30
0.0
 10
1.9101612597
 20
15.1962545659
 30
0.0
 10
1.9560937582
 20
15.1645317667
 30
0.0
 10
2.0192501047
 20
15.1056170805
 30
0.0
 10
2.0774641477
 20
15.0352278007
 30
0.0
 10
2.1286695515
 20
14.9559471923
 30
0.0
 10
2.1710382883
 20
14.8705965141
 30
0.0
 10
2.2030561158
 20
14.7822307348
 30
0.0
 10
2.2235824566
 20
14.6940309336
 30
0.0
 10
2.2293124567
 20
14.6352305343
 30
0.0
 10
2.2298375379
 20
14.606717091
 30
0.0
 11
1.8869485477
 21
15.2093552194
 31
0.0
 11
1.9530515889
 21
15.1643607526
 31
0.0
 11
2.0166768144
 21
15.1055409904
 31
0.0
 11
2.0753607644
 21
15.0349986305
 31
0.0
 11
2.1269546294
 21
14.9553326193
 31
0.0
 11
2.1695633689
 21
14.8694729952
 31
0.0
 11
2.2016245311
 21
14.7805767907
 31
0.0
 11
2.2219638379
 21
14.6919088411
 31
0.0
 11
2.2298375379
 21
14.606717091
 31
0.0
  0
SPLINE
  5
3AA
100
AcDbEntity
  8
RACCORDO
100
AcDbSpline
 62
7
  6
CONTINUOUS
 70
0
 71
3
 72
12
 73
8
 74
6
 42
0.0000001
 43
0.0000001
 44
0.0000000001
 12
-0.0057716671
 22
-0.318992024
 32
0.0
 13
-0.2861193449
 23
-0.1411557438
 33
0.0
 40
0.0
 40
0.0
 40
0.0
 40
0.0
 40
0.2898656106
 40
0.5500311809
 40
0.7831910579
 40
0.8928393341
 40
1.0
 40
1.0
 40
1.0
 40
1.0
 10
2.2298375379
 20
-23.3249976709
 30
0.0
 10
2.2292798686
 20
-23.3558192768
 30
0.0
 10
2.2233032339
 20
-23.4144384546
 30
0.0
 10
2.1972510125
 20
-23.4943223907
 30
0.0
 10
2.1610882295
 20
-23.5486269664
 30
0.0
 10
2.1251974442
 20
-23.5805999385
 30
0.0
 10
2.1054128395
 20
-23.5927307705
 30
0.0
 10
2.0951925929
 20
-23.597772885
 30
0.0
 11
2.2298375379
 21
-23.3249976709
 31
0.0
 11
2.219558992
 21
-23.4169046509
 31
0.0
 11
2.192687995
 21
-23.4954391499
 31
0.0
 11
2.1505425762
 21
-23.5567366621
 31
0.0
 11
2.1243618234
 21
-23.579939119
 31
0.0
 11
2.0951925929
 21
-23.597772885
 31
0.0
  0
LINE
  5
3AB
100
AcDbEntity
  8
RACCORDO
100
AcDbLine
 62
7
  6
CONTINUOUS
 10
0.9969936063
 20
14.7121250377
 11
1.887053789
 21
15.2094218486
  0
SPLINE
  5
3AC
100
AcDbEntity
  8
RACCORDO
100
AcDbSpline
 62
253
  6
CONTINUOUS
 70
0
 71
3
 72
15
 73
11
 74
9
 42
0.0000001
 43
0.0000001
 44
0.0000000001
 12
-1.2257468404
 22
-0.6692011747
 32
0.0
 13
-0.0469702942
 23
-1.3957361214
 33
0.0
 40
0.0
 40
0.0
 40
0.0
 40
0.0
 40
0.1125344619
 40
0.2331195696
 40
0.3599630726
 40
0.4907310907
 40
0.6227817409
 40
0.7533762873
 40
0.8798845414
 40
1.0
 40
1.0
 40
1.0
 40
1.0
 10
-3.2678517346
 20
11.6053669212
 30
0.0
 10
-3.3138313216
 20
11.5802641899
 30
0.0
 10
-3.4045685093
 20
11.519753452
 30
0.0
 10
-3.5293596407
 20
11.4072120471
 30
0.0
 10
-3.6441376955
 20
11.2731116761
 30
0.0
 10
-3.7450846886
 20
11.1219154905
 30
0.0
 10
-3.8288826748
 20
10.9586286792
 30
0.0
 10
-3.8927454549
 20
10.7886555922
 30
0.0
 10
-3.9345473001
 20
10.6176748292
 30
0.0
 10
-3.9471587744
 20
10.5031191384
 30
0.0
 10
-3.9490393939
 20
10.447235977
 30
0.0
 11
-3.2678517346
 21
11.6053669212
 31
0.0
 11
-3.3991233208
 21
11.5189597655
 31
0.0
 11
-3.5246518366
 21
11.4067045138
 31
0.0
 11
-3.640172069
 21
11.2724146979
 31
0.0
 11
-3.7417554914
 21
11.1206542739
 31
0.0
 11
-3.8259465871
 21
10.9565819788
 31
0.0
 11
-3.8898809899
 21
10.7857768672
 31
0.0
 11
-3.9313828935
 21
10.6140485308
 31
0.0
 11
-3.9490393939
 21
10.447235977
 31
0.0
  0
SPLINE
  5
3AD
100
AcDbEntity
  8
RACCORDO
100
AcDbSpline
 62
253
  6
CONTINUOUS
 70
0
 71
3
 72
15
 73
11
 74
9
 42
0.0000001
 43
0.0000001
 44
0.0000000001
 12
-1.8328740634
 22
-1.0116674781
 32
0.0
 13
-0.069987329
 23
-2.0923671265
 33
0.0
 40
0.0
 40
0.0
 40
0.0
 40
0.0
 40
0.1123063317
 40
0.2327572391
 40
0.3595516106
 40
0.4903413227
 40
0.6224664263
 40
0.7531670867
 40
0.8797892771
 40
1.0
 40
1.0
 40
1.0
 40
1.0
 10
-3.6336844746
 20
12.208369367
 30
0.0
 10
-3.7022989288
 20
12.1704971458
 30
0.0
 10
-3.8376825981
 20
12.0792863834
 30
0.0
 10
-4.0237818676
 20
11.9099332916
 30
0.0
 10
-4.1949462533
 20
11.7082911921
 30
0.0
 10
-4.3454823476
 20
11.481072273
 30
0.0
 10
-4.4704426882
 20
11.2357989619
 30
0.0
 10
-4.5656737276
 20
10.9805906847
 30
0.0
 10
-4.6280070485
 20
10.7239734885
 30
0.0
 10
-4.6468184587
 20
10.5520930576
 30
0.0
 10
-4.6496228678
 20
10.4682514026
 30
0.0
 11
-3.6336844746
 21
12.208369367
 31
0.0
 11
-3.8294737342
 21
12.078189484
 31
0.0
 11
-4.0166953184
 21
11.9092604625
 31
0.0
 11
-4.1889870026
 21
11.7073233132
 31
0.0
 11
-4.3404895528
 21
11.4792430354
 31
0.0
 11
-4.4660502003
 21
11.2327740313
 31
0.0
 11
-4.5613985388
 21
10.9762973865
 31
0.0
 11
-4.6232913589
 21
10.7185357249
 31
0.0
 11
-4.6496228678
 21
10.4682514026
 31
0.0
  0
SPLINE
  5
3AE
100
AcDbEntity
  8
RACCORDO
100
AcDbSpline
 62
253
  6
CONTINUOUS
 70
0
 71
3
 72
15
 73
11
 74
9
 42
0.0000001
 43
0.0000001
 44
0.0000000001
 12
-0.0325364716
 22
0.7318350036
 32
0.0
 13
-0.6502427749
 23
0.3373802427
 33
0.0
 40
0.0
 40
0.0
 40
0.0
 40
0.0
 40
0.1182341878
 40
0.2445920213
 40
0.3762598592
 40
0.5099675801
 40
0.6422895236
 40
0.7699078884
 40
0.8898863776
 40
1.0
 40
1.0
 40
1.0
 40
1.0
 10
-3.2678517346
 20
11.6053669212
 30
0.0
 10
-3.2691340424
 20
11.6342095603
 30
0.0
 10
-3.276623678
 20
11.6937142907
 30
0.0
 10
-3.300080516
 20
11.7827720981
 30
0.0
 10
-3.3353236353
 20
11.8719319342
 30
0.0
 10
-3.3810387039
 20
11.9578389647
 30
0.0
 10
-3.4355108907
 20
12.0372886083
 30
0.0
 10
-3.4967218983
 20
12.1073170815
 30
0.0
 10
-3.5623745798
 20
12.1653094448
 30
0.0
 10
-3.6098176121
 20
12.1959859801
 30
0.0
 10
-3.6336844746
 20
12.208369367
 30
0.0
 11
-3.2678517346
 21
11.6053669212
 31
0.0
 11
-3.2781879057
 21
11.6913613562
 31
0.0
 11
-3.3014588781
 21
11.7809528496
 31
0.0
 11
-3.3367721496
 21
11.8707103451
 31
0.0
 11
-3.3827724461
 21
11.9571852578
 31
0.0
 11
-3.4376933603
 21
12.0370588706
 31
0.0
 11
-3.499427535
 21
12.1072647709
 31
0.0
 11
-3.5656025018
 21
12.1651071024
 31
0.0
 11
-3.6336844746
 21
12.208369367
 31
0.0
  0
SPLINE
  5
3AF
100
AcDbEntity
  8
RACCORDO
100
AcDbSpline
 62
253
  6
CONTINUOUS
 70
0
 71
3
 72
15
 73
11
 74
9
 42
0.0000001
 43
0.0000001
 44
0.0000000001
 12
-0.6597277107
 22
-0.2858494006
 32
0.0
 13
-0.6428529925
 23
0.3220101895
 33
0.0
 40
0.0
 40
0.0
 40
0.0
 40
0.0
 40
0.111849354
 40
0.2344080018
 40
0.364618772
 40
0.4988638171
 40
0.6332637546
 40
0.7639293112
 40
0.8872119581
 40
1.0
 40
1.0
 40
1.0
 40
1.0
 10
-3.9490393939
 20
10.447235977
 30
0.0
 10
-3.9736361
 20
10.43657862
 30
0.0
 10
-4.026958577
 20
10.4182592391
 30
0.0
 10
-4.1125401973
 20
10.3998376957
 30
0.0
 10
-4.2048898602
 20
10.3896870959
 30
0.0
 10
-4.3006034395
 20
10.3882016322
 30
0.0
 10
-4.3961638175
 20
10.3954348651
 30
0.0
 10
-4.4880582069
 20
10.4111224775
 30
0.0
 10
-4.5728989554
 20
10.4346666907
 30
0.0
 10
-4.6254541576
 20
10.4561451031
 30
0.0
 10
-4.6496228677
 20
10.4682514027
 30
0.0
 11
-3.9490393939
 21
10.447235977
 31
0.0
 11
-4.0249087539
 21
10.4205707358
 31
0.0
 11
-4.1109761996
 21
10.4016680006
 31
0.0
 11
-4.2040137316
 21
10.3912356651
 31
0.0
 11
-4.3005221976
 21
10.3896672271
 31
0.0
 11
-4.3968745619
 21
10.3970209178
 31
0.0
 11
-4.4894496305
 21
10.4130210807
 31
0.0
 11
-4.5747656842
 21
10.4370648124
 31
0.0
 11
-4.6496228677
 21
10.4682514027
 31
0.0
  0
SPLINE
  5
3B0
100
AcDbEntity
  8
RACCORDO
100
AcDbSpline
 62
253
  6
CONTINUOUS
 70
0
 71
3
 72
18
 73
14
 74
12
 42
0.0000001
 43
0.0000001
 44
0.0000000001
 12
0.035807711
 22
-1.0294053606
 32
0.0
 13
0.9497563548
 23
0.3986482848
 33
0.0
 40
0.0
 40
0.0
 40
0.0
 40
0.0
 40
0.1464028953
 40
0.280415864
 40
0.4031528169
 40
0.4613353922
 40
0.5180567946
 40
0.5739992256
 40
0.6299000508
 40
0.6864996056
 40
0.7444881179
 40
0.8666676364
 40
1.0
 40
1.0
 40
1.0
 40
1.0
 10
-3.9490393939
 20
-25.1323886508
 30
0.0
 10
-3.9472919431
 20
-25.1826246259
 30
0.0
 10
-3.9366507032
 20
-25.2788680947
 30
0.0
 10
-3.8960470814
 20
-25.4121205958
 30
0.0
 10
-3.8416800932
 20
-25.5069991564
 30
0.0
 10
-3.7875576507
 20
-25.5683695254
 30
0.0
 10
-3.7428157294
 20
-25.6066232334
 30
0.0
 10
-3.6936171953
 20
-25.6375043842
 30
0.0
 10
-3.6404171173
 20
-25.6607231436
 30
0.0
 10
-3.5837122995
 20
-25.6760658209
 30
0.0
 10
-3.5027932448
 20
-25.6860484615
 30
0.0
 10
-3.3943110759
 20
-25.6772433005
 30
0.0
 10
-3.3100628211
 20
-25.6504218916
 30
0.0
 10
-3.2678517346
 20
-25.6327043189
 30
0.0
 11
-3.9490393939
 21
-25.1323886508
 31
0.0
 11
-3.9313828731
 21
-25.2821504892
 31
0.0
 11
-3.889880984
 21
-25.4138009177
 31
0.0
 11
-3.8259465845
 21
-25.5228652987
 31
0.0
 11
-3.7862192095
 21
-25.5677351339
 31
0.0
 11
-3.7417554954
 21
-25.6056352069
 31
0.0
 11
-3.69293441
 21
-25.6362428426
 31
0.0
 11
-3.640172078
 21
-25.6592976705
 31
0.0
 11
-3.5839180583
 21
-25.6746036529
 31
0.0
 11
-3.5246518482
 21
-25.6820308999
 31
0.0
 11
-3.3991233388
 21
-25.6730646933
 31
0.0
 11
-3.2678517346
 21
-25.6327043189
 31
0.0
  0
SPLINE
  5
3B1
100
AcDbEntity
  8
RACCORDO
100
AcDbSpline
 62
253
  6
CONTINUOUS
 70
0
 71
3
 72
14
 73
10
 74
8
 42
0.0000001
 43
0.0000001
 44
0.0000000001
 12
0.0310315636
 22
-0.8973847835
 32
0.0
 13
0.8030542656
 23
-0.4017041873
 33
0.0
 40
0.0
 40
0.0
 40
0.0
 40
0.0
 40
0.2861038283
 40
0.4187737279
 40
0.544688441
 40
0.6645185496
 40
0.7793312735
 40
0.8905740041
 40
1.0
 40
1.0
 40
1.0
 40
1.0
 10
-4.6496228678
 20
-25.146988465
 30
0.0
 10
-4.6466634514
 20
-25.2325702056
 30
0.0
 10
-4.6316061125
 20
-25.3581313904
 30
0.0
 10
-4.5854322052
 20
-25.5147952854
 30
0.0
 10
-4.5403454235
 20
-25.619046802
 30
0.0
 10
-4.4843868547
 20
-25.7117395928
 30
0.0
 10
-4.4180881266
 20
-25.7917975015
 30
0.0
 10
-4.3421817464
 20
-25.8581928736
 30
0.0
 10
-4.2855372934
 20
-25.8928900411
 30
0.0
 10
-4.2562456225
 20
-25.9075423346
 30
0.0
 11
-4.6496228678
 21
-25.146988465
 31
0.0
 11
-4.6165475889
 21
-25.4017490551
 31
0.0
 11
-4.5825197098
 21
-25.5159128487
 31
0.0
 11
-4.5372944224
 21
-25.6195351088
 31
0.0
 11
-4.4813758334
 21
-25.7114613774
 31
0.0
 11
-4.4153872104
 21
-25.7906675748
 31
0.0
 11
-4.3400640019
 21
-25.8562714414
 31
0.0
 11
-4.2562456225
 21
-25.9075423346
 31
0.0
  0
SPLINE
  5
3B2
100
AcDbEntity
  8
RACCORDO
100
AcDbSpline
 62
253
  6
CONTINUOUS
 70
0
 71
3
 72
15
 73
11
 74
9
 42
0.0000001
 43
0.0000001
 44
0.0000000001
 12
-0.6379205315
 22
-0.3396317062
 32
0.0
 13
-0.646620102
 23
0.3227611254
 33
0.0
 40
0.0
 40
0.0
 40
0.0
 40
0.0
 40
0.1147806334
 40
0.2389963615
 40
0.3697513051
 40
0.5036352202
 40
0.6370195587
 40
0.7663105315
 40
0.8882056496
 40
1.0
 40
1.0
 40
1.0
 40
1.0
 10
-3.9490393939
 20
-25.1323886508
 30
0.0
 10
-3.9734463681
 20
-25.1453830316
 30
0.0
 10
-4.0264557158
 20
-25.1684154714
 30
0.0
 10
-4.1121270705
 20
-25.1934572341
 30
0.0
 10
-4.2045652704
 20
-25.2097044476
 30
0.0
 10
-4.3003674456
 20
-25.2165440432
 30
0.0
 10
-4.3960209287
 20
-25.2137304698
 30
0.0
 10
-4.488022819
 20
-25.2013621562
 30
0.0
 10
-4.572990735
 20
-25.179909758
 30
0.0
 10
-4.6255265153
 20
-25.1590159814
 30
0.0
 10
-4.6496226734
 20
-25.1469883579
 30
0.0
 11
-3.9490393939
 21
-25.1323886508
 31
0.0
 11
-4.0249087548
 21
-25.165927121
 31
0.0
 11
-4.11097619
 21
-25.1914443751
 31
0.0
 11
-4.2040137011
 21
-25.2079845504
 31
0.0
 11
-4.3005221378
 21
-25.2149243144
 31
0.0
 11
-4.3968744672
 21
-25.212003643
 31
0.0
 11
-4.489449499
 21
-25.1993315131
 31
0.0
 11
-4.5747655181
 21
-25.1773857812
 31
0.0
 11
-4.6496226734
 21
-25.1469883579
 31
0.0
  0
SPLINE
  5
3B3
100
AcDbEntity
  8
RACCORDO
100
AcDbSpline
 62
253
  6
CONTINUOUS
 70
0
 71
3
 72
12
 73
8
 74
6
 42
0.0000001
 43
0.0000001
 44
0.0000000001
 12
-0.0143667242
 22
-0.337021057
 32
0.0
 13
-0.3110365509
 23
-0.1305597934
 33
0.0
 40
0.0
 40
0.0
 40
0.0
 40
0.0
 40
0.2890978441
 40
0.5488670609
 40
0.7821082425
 40
0.892142372
 40
1.0
 40
1.0
 40
1.0
 40
1.0
 10
-3.2678517346
 20
-25.6327043189
 30
0.0
 10
-3.2692361976
 20
-25.6651816726
 30
0.0
 10
-3.2772992597
 20
-25.7268623611
 30
0.0
 10
-3.307906831
 20
-25.8102012931
 30
0.0
 10
-3.3488590162
 20
-25.8658240241
 30
0.0
 10
-3.3887198767
 20
-25.8975825065
 30
0.0
 10
-3.4104766477
 20
-25.9092055306
 30
0.0
 10
-3.4216592026
 20
-25.9138994872
 30
0.0
 11
-3.2678517346
 21
-25.6327043189
 31
0.0
 11
-3.281452316
 21
-25.7292718152
 31
0.0
 11
-3.3128834439
 21
-25.8110679725
 31
0.0
 11
-3.3604664697
 21
-25.8737271659
 31
0.0
 11
-3.3895508715
 21
-25.8967880895
 31
0.0
 11
-3.4216592026
 21
-25.9138994872
 31
0.0
  0
SPLINE
  5
3B4
100
AcDbEntity
  8
RACCORDO
100
AcDbSpline
 62
253
  6
CONTINUOUS
 70
0
 71
3
 72
11
 73
7
 74
5
 42
0.0000001
 43
0.0000001
 44
0.0000000001
 12
-0.1076203225
 22
0.0538101613
 32
0.0
 13
0.0000013829
 23
0.1203231785
 33
0.0
 40
0.0
 40
0.0
 40
0.0
 40
0.0
 40
0.3025823249
 40
0.5654825874
 40
0.7934322572
 40
1.0
 40
1.0
 40
1.0
 40
1.0
 10
-14.7560518057
 20
23.3542674646
 30
0.0
 10
-14.7669064748
 20
23.3596947992
 30
0.0
 10
-14.7865249479
 20
23.3713345297
 30
0.0
 10
-14.8103363181
 20
23.3928551571
 30
0.0
 10
-14.8256155151
 20
23.416809442
 30
0.0
 10
-14.8292752035
 20
23.4343708498
 30
0.0
 10
-14.8292751083
 20
23.4426558123
 30
0.0
 11
-14.7560518057
 21
23.3542674646
 31
0.0
 11
-14.7871434787
 21
23.3732101702
 31
0.0
 11
-14.8102443153
 21
23.3948203006
 31
0.0
 11
-14.8244712755
 21
23.418269574
 31
0.0
 11
-14.8292751083
 21
23.4426558123
 31
0.0
  0
SPLINE
  5
3B5
100
AcDbEntity
  8
RACCORDO
100
AcDbSpline
 62
253
  6
CONTINUOUS
 70
0
 71
3
 72
11
 73
7
 74
5
 42
0.0000001
 43
0.0000001
 44
0.0000000001
 12
-0.1076203225
 22
0.0538101613
 32
0.0
 13
0.0000013829
 23
0.1203231785
 33
0.0
 40
0.0
 40
0.0
 40
0.0
 40
0.0
 40
0.3025823249
 40
0.5654825874
 40
0.7934322572
 40
1.0
 40
1.0
 40
1.0
 40
1.0
 10
-14.7560518057
 20
23.0142935305
 30
0.0
 10
-14.7669064748
 20
23.0197208651
 30
0.0
 10
-14.7865249479
 20
23.0313605955
 30
0.0
 10
-14.8103363181
 20
23.052881223
 30
0.0
 10
-14.8256155151
 20
23.0768355079
 30
0.0
 10
-14.8292752035
 20
23.0943969157
 30
0.0
 10
-14.8292751083
 20
23.1026818782
 30
0.0
 11
-14.7560518057
 21
23.0142935305
 31
0.0
 11
-14.7871434787
 21
23.0332362361
 31
0.0
 11
-14.8102443153
 21
23.0548463664
 31
0.0
 11
-14.8244712755
 21
23.0782956399
 31
0.0
 11
-14.8292751083
 21
23.1026818782
 31
0.0
  0
SPLINE
  5
3B6
100
AcDbEntity
  8
RACCORDO
100
AcDbSpline
 62
253
  6
CONTINUOUS
 70
0
 71
3
 72
13
 73
9
 74
7
 42
0.0000001
 43
0.0000001
 44
0.0000000001
 12
0.0395649606
 22
-0.0644099514
 32
0.0
 13
-0.0460053766
 23
-0.0599794404
 33
0.0
 40
0.0
 40
0.0
 40
0.0
 40
0.0
 40
0.343523616
 40
0.6193726266
 40
0.732864265
 40
0.8318563311
 40
0.9193403725
 40
1.0
 40
1.0
 40
1.0
 40
1.0
 10
-10.9489972037
 20
23.4098917077
 30
0.0
 10
-10.9444667042
 20
23.4025162612
 30
0.0
 10
-10.936913235
 20
23.3888271646
 30
0.0
 10
-10.9304000628
 20
23.3713968634
 30
0.0
 10
-10.92839648
 20
23.3592145569
 30
0.0
 10
-10.9284236354
 20
23.3516102097
 30
0.0
 10
-10.9299175279
 20
23.3449803192
 30
0.0
 10
-10.9319805847
 20
23.3411976384
 30
0.0
 10
-10.9332175102
 20
23.3395849987
 30
0.0
 11
-10.9489972037
 21
23.4098917077
 31
0.0
 11
-10.936718203
 21
23.3870109327
 31
0.0
 11
-10.9298922049
 21
23.3673081046
 31
0.0
 11
-10.9285911874
 21
23.3588283614
 31
0.0
 11
-10.9287137964
 21
23.351346438
 31
0.0
 11
-10.9302596271
 21
23.3449166263
 31
0.0
 11
-10.9332175102
 21
23.3395849987
 31
0.0
  0
SPLINE
  5
3B7
100
AcDbEntity
  8
RACCORDO
100
AcDbSpline
 62
7
  6
CONTINUOUS
 70
0
 71
3
 72
11
 73
7
 74
5
 42
0.0000001
 43
0.0000001
 44
0.0000000001
 12
0.0
 22
0.3670486434
 32
0.0
 13
-0.328298287
 23
0.1641491435
 33
0.0
 40
0.0
 40
0.0
 40
0.0
 40
0.0
 40
0.2467927921
 40
0.5117852903
 40
0.7703247525
 40
1.0
 40
1.0
 40
1.0
 40
1.0
 10
-11.4772643754
 20
23.4939844044
 30
0.0
 10
-11.4772643754
 20
23.5241793909
 30
0.0
 10
-11.4876843788
 20
23.5869037294
 30
0.0
 10
-11.5254181526
 20
23.6741375386
 30
0.0
 10
-11.5808767583
 20
23.7487336479
 30
0.0
 10
-11.6289040823
 20
23.7863069448
 30
0.0
 10
-11.6540380791
 20
23.7988739432
 30
0.0
 11
-11.4772643754
 21
23.4939844044
 31
0.0
 11
-11.4907203396
 21
23.5835643794
 31
0.0
 11
-11.529039963
 21
23.6729629998
 31
0.0
 11
-11.5863897101
 21
23.7485696356
 31
0.0
 11
-11.6540380791
 21
23.7988739432
 31
0.0
  0
SPLINE
  5
3B8
100
AcDbEntity
  8
RACCORDO
100
AcDbSpline
 62
253
  6
CONTINUOUS
 70
0
 71
3
 72
11
 73
7
 74
5
 42
0.0000001
 43
0.0000001
 44
0.0000000001
 12
-0.0017563531
 22
0.3667457897
 32
0.0
 13
-0.3272560829
 23
0.165556683
 33
0.0
 40
0.0
 40
0.0
 40
0.0
 40
0.0
 40
0.2466955157
 40
0.5118832147
 40
0.7705705489
 40
1.0
 40
1.0
 40
1.0
 40
1.0
 10
-13.0785451662
 20
22.6912624009
 30
0.0
 10
-13.0786895944
 20
22.7214205814
 30
0.0
 10
-13.0893425883
 20
22.7840496838
 30
0.0
 10
-13.1271610193
 20
22.8711759316
 30
0.0
 10
-13.1824764546
 20
22.945773791
 30
0.0
 10
-13.2302914754
 20
22.9834907467
 30
0.0
 10
-13.2553188699
 20
22.9961519397
 30
0.0
 11
-13.0785451662
 21
22.6912624009
 31
0.0
 11
-13.0923184652
 21
22.7806834648
 31
0.0
 11
-13.1307490248
 21
22.8700262339
 31
0.0
 11
-13.1879875461
 21
22.9456882957
 31
0.0
 11
-13.2553188699
 21
22.9961519397
 31
0.0
  0
SPLINE
  5
3B9
100
AcDbEntity
  8
RACCORDO
100
AcDbSpline
 62
253
  6
CONTINUOUS
 70
0
 71
3
 72
15
 73
11
 74
9
 42
0.0000001
 43
0.0000001
 44
0.0000000001
 12
0.0681959732
 22
2.0876384573
 32
0.0
 13
1.8094012684
 23
1.0435286623
 33
0.0
 40
0.0
 40
0.0
 40
0.0
 40
0.0
 40
0.1206003718
 40
0.2476870836
 40
0.378818603
 40
0.511243798
 40
0.6421179418
 40
0.7687096746
 40
0.8886154667
 40
1.0
 40
1.0
 40
1.0
 40
1.0
 10
-19.4744689454
 20
17.8806744414
 30
0.0
 10
-19.4717274588
 20
17.9645977662
 30
0.0
 10
-19.4533381571
 20
18.1366943992
 30
0.0
 10
-19.3924636711
 20
18.3939297161
 30
0.0
 10
-19.2994646545
 20
18.650152086
 30
0.0
 10
-19.1774335199
 20
18.8967985761
 30
0.0
 10
-19.030427805
 20
19.1256991099
 30
0.0
 10
-18.8632806051
 20
19.3292773119
 30
0.0
 10
-18.6815527558
 20
19.5007619363
 30
0.0
 10
-18.5490827073
 20
19.5937342797
 30
0.0
 10
-18.4819029354
 20
19.6324785973
 30
0.0
 11
-19.4744689454
 21
17.8806744414
 31
0.0
 11
-19.448743204
 21
18.1312616475
 31
0.0
 11
-19.3882742753
 21
18.3897352548
 31
0.0
 11
-19.295119496
 21
18.6473086791
 31
0.0
 11
-19.1724474672
 21
18.8952219926
 31
0.0
 11
-19.0244303484
 21
19.1250449861
 31
0.0
 11
-18.8561023606
 21
19.3289639836
 31
0.0
 11
-18.6731879592
 21
19.5000465965
 31
0.0
 11
-18.4819029354
 21
19.6324785973
 31
0.0
  0
SPLINE
  5
3BA
100
AcDbEntity
  8
RACCORDO
100
AcDbSpline
 62
253
  6
CONTINUOUS
 70
0
 71
3
 72
11
 73
7
 74
5
 42
0.0000001
 43
0.0000001
 44
0.0000000001
 12
0.0017306169
 22
0.3673419508
 32
0.0
 13
-0.3293172695
 23
0.1627674411
 33
0.0
 40
0.0
 40
0.0
 40
0.0
 40
0.0
 40
0.2468893536
 40
0.5116863499
 40
0.7700780422
 40
1.0
 40
1.0
 40
1.0
 40
1.0
 10
-10.9489972037
 20
23.7574232244
 30
0.0
 10
-10.94885478
 20
23.7876541633
 30
0.0
 10
-10.9590452335
 20
23.8504715878
 30
0.0
 10
-10.996693419
 20
23.9378127547
 30
0.0
 10
-11.0522958077
 20
24.012406205
 30
0.0
 10
-11.1005318169
 20
24.0498381603
 30
0.0
 10
-11.1257709073
 20
24.0623127632
 30
0.0
 11
-10.9489972037
 21
23.7574232244
 31
0.0
 11
-10.9621400309
 21
23.8471597034
 31
0.0
 11
-11.0003492138
 21
23.9366131806
 31
0.0
 11
-11.0578091731
 21
24.0121644899
 31
0.0
 11
-11.1257709073
 21
24.0623127632
 31
0.0
  0
SPLINE
  5
3BB
100
AcDbEntity
  8
RACCORDO
100
AcDbSpline
 62
253
  6
CONTINUOUS
 70
0
 71
3
 72
11
 73
7
 74
5
 42
0.0000001
 43
0.0000001
 44
0.0000000001
 12
-0.1022732388
 22
0.0517308249
 32
0.0
 13
-0.1030347983
 23
-0.0501968522
 33
0.0
 40
0.0
 40
0.0
 40
0.0
 40
0.0
 40
0.2789492198
 40
0.5349524055
 40
0.7726363297
 40
1.0
 40
1.0
 40
1.0
 40
1.0
 10
-12.4630970679
 20
24.7309758435
 30
0.0
 10
-12.472606748
 20
24.7357859346
 30
0.0
 10
-12.4916352337
 20
24.7435877284
 30
0.0
 10
-12.520835075
 20
24.7492456739
 30
0.0
 10
-12.548637272
 20
24.748051902
 30
0.0
 10
-12.5658002489
 20
24.7425146616
 30
0.0
 10
-12.5736090389
 20
24.7387103481
 30
0.0
 11
-12.4630970679
 21
24.7309758435
 31
0.0
 11
-12.4927746471
 21
24.7428661846
 31
0.0
 11
-12.5216290148
 21
24.7481879149
 31
0.0
 11
-12.5488345105
 21
24.7467895044
 31
0.0
 11
-12.5736090389
 21
24.7387103481
 31
0.0
  0
SPLINE
  5
3BC
100
AcDbEntity
  8
RACCORDO
100
AcDbSpline
 62
7
  6
CONTINUOUS
 70
0
 71
3
 72
11
 73
7
 74
5
 42
0.0000001
 43
0.0000001
 44
0.0000000001
 12
-0.1028463418
 22
0.0514231709
 32
0.0
 13
-0.1033748983
 23
-0.0503521891
 33
0.0
 40
0.0
 40
0.0
 40
0.0
 40
0.0
 40
0.2790833933
 40
0.5352290697
 40
0.7729212505
 40
1.0
 40
1.0
 40
1.0
 40
1.0
 10
-12.9975469466
 20
24.4706283769
 30
0.0
 10
-13.0071145153
 20
24.4754121613
 30
0.0
 10
-13.0262460287
 20
24.4831628937
 30
0.0
 10
-13.0555650072
 20
24.4887567171
 30
0.0
 10
-13.0834477767
 20
24.4875229603
 30
0.0
 10
-13.1006543151
 20
24.481969694
 30
0.0
 10
-13.1084790627
 20
24.4781583899
 30
0.0
 11
-12.9975469466
 21
24.4706283769
 31
0.0
 11
-13.0273843506
 21
24.4824409121
 31
0.0
 11
-13.056363864
 21
24.4877013684
 31
0.0
 11
-13.0836570541
 21
24.486260384
 31
0.0
 11
-13.1084790627
 21
24.4781583899
 31
0.0
  0
SPLINE
  5
3BD
100
AcDbEntity
  8
RACCORDO
100
AcDbSpline
 62
253
  6
CONTINUOUS
 70
0
 71
3
 72
11
 73
7
 74
5
 42
0.0000001
 43
0.0000001
 44
0.0000000001
 12
-0.1051368994
 22
0.0519560066
 32
0.0
 13
-0.104347279
 23
-0.0535241963
 33
0.0
 40
0.0
 40
0.0
 40
0.0
 40
0.0
 40
0.2795156184
 40
0.5356957389
 40
0.7731450427
 40
1.0
 40
1.0
 40
1.0
 40
1.0
 10
-14.5803035497
 20
23.6586442796
 30
0.0
 10
-14.5900993515
 20
23.663485118
 30
0.0
 10
-14.6096757356
 20
23.671289105
 30
0.0
 10
-14.6396419122
 20
23.6767422136
 30
0.0
 10
-14.6680553664
 20
23.6751213503
 30
0.0
 10
-14.685491317
 20
23.6691429951
 30
0.0
 10
-14.6933818829
 20
23.6650955854
 30
0.0
 11
-14.5803035497
 21
23.6586442796
 31
0.0
 11
-14.6108515464
 21
23.6705330538
 31
0.0
 11
-14.6404580096
 21
23.6756375086
 31
0.0
 11
-14.6682444214
 21
23.6738071309
 31
0.0
 11
-14.6933818829
 21
23.6650955854
 31
0.0
  0
SPLINE
  5
3BE
100
AcDbEntity
  8
0
100
AcDbSpline
 62
7
  6
CONTINUOUS
 70
0
 71
3
 72
16
 73
12
 74
10
 42
0.0000001
 43
0.0000001
 44
0.0000000001
 12
0.442522834
 22
-0.2212626783
 32
0.0
 13
-0.3525505412
 23
-0.3471192119
 33
0.0
 40
0.0
 40
0.0
 40
0.0
 40
0.0
 40
0.1201514451
 40
0.2533190028
 40
0.3941981653
 40
0.5360381628
 40
0.6719136498
 40
0.7959836029
 40
0.8525426102
 40
0.9052228681
 40
1.0
 40
1.0
 40
1.0
 40
1.0
 10
-12.8004734012
 20
-8.9975755653
 30
0.0
 10
-12.7827501485
 20
-9.0064372421
 30
0.0
 10
-12.7480457255
 20
-9.0305716333
 30
0.0
 10
-12.7034052056
 20
-9.0783217926
 30
0.0
 10
-12.6660963147
 20
-9.1362955565
 30
0.0
 10
-12.6389526862
 20
-9.2001407035
 30
0.0
 10
-12.6240020998
 20
-9.26505738
 30
0.0
 10
-12.6226116972
 20
-9.3177334248
 30
0.0
 10
-12.6291246945
 20
-9.3557953022
 30
0.0
 10
-12.639558124
 20
-9.3878320009
 30
0.0
 10
-12.652977878
 20
-9.4090589035
 30
0.0
 10
-12.6641157877
 20
-9.4200252246
 30
0.0
 11
-12.8004734012
 21
-8.9975755653
 31
0.0
 11
-12.7511826918
 21
-9.0308052657
 31
0.0
 11
-12.7058014239
 21
-9.0785696367
 31
0.0
 11
-12.6679280101
 21
-9.1370829701
 31
0.0
 11
-12.6405678345
 21
-9.2017058845
 31
0.0
 11
-12.6258936055
 21
-9.2673099897
 31
0.0
 11
-12.625068499
 21
-9.3286888144
 31
0.0
 11
-12.6299130678
 21
-9.3562491795
 31
0.0
 11
-12.6381556069
 21
-9.380975409
 31
0.0
 11
-12.6641157877
 21
-9.4200252246
 31
0.0
  0
SPLINE
  5
3BF
100
AcDbEntity
  8
0
100
AcDbSpline
 62
7
  6
CONTINUOUS
 70
0
 71
3
 72
11
 73
7
 74
5
 42
0.0000001
 43
0.0000001
 44
0.0000000001
 12
-0.1017907033
 22
0.0508950615
 32
0.0
 13
-0.1029412009
 23
-0.0485259079
 33
0.0
 40
0.0
 40
0.0
 40
0.0
 40
0.0
 40
0.2788845245
 40
0.5351038181
 40
0.7729532357
 40
1.0
 40
1.0
 40
1.0
 40
1.0
 10
-9.800501959
 20
-10.4975612874
 30
0.0
 10
-9.8099645763
 20
-10.4928300058
 30
0.0
 10
-9.8288856976
 20
-10.4851455374
 30
0.0
 10
-9.8578788075
 20
-10.4795067004
 30
0.0
 10
-9.885481994
 20
-10.4805314819
 30
0.0
 10
-9.902570909
 20
-10.4858339781
 30
0.0
 10
-9.9103617312
 20
-10.4895065282
 30
0.0
 11
-9.800501959
 21
-10.4975612874
 31
0.0
 11
-9.8299996051
 21
-10.485847012
 31
0.0
 11
-9.8586700226
 21
-10.4805308474
 31
0.0
 11
-9.8857105499
 21
-10.481761848
 31
0.0
 11
-9.9103617312
 21
-10.4895065282
 31
0.0
  0
SPLINE
  5
3C0
100
AcDbEntity
  8
RACCORDO
100
AcDbSpline
 62
253
  6
CONTINUOUS
 70
0
 71
3
 72
11
 73
7
 74
5
 42
0.0000001
 43
0.0000001
 44
0.0000000001
 12
0.0
 22
0.3659184282
 32
0.0
 13
0.3263519551
 23
0.1655013518
 33
0.0
 40
0.0
 40
0.0
 40
0.0
 40
0.0
 40
0.2465991784
 40
0.5114081618
 40
0.7699752382
 40
1.0
 40
1.0
 40
1.0
 40
1.0
 10
-13.4310671259
 20
22.6917751247
 30
0.0
 10
-13.4310671259
 20
22.7218535193
 30
0.0
 10
-13.4207243833
 20
22.7843385004
 30
0.0
 10
-13.3832407826
 20
22.8713089083
 30
0.0
 10
-13.328101431
 20
22.9458079343
 30
0.0
 10
-13.2803418802
 20
22.9834621367
 30
0.0
 10
-13.2553188699
 20
22.9961519397
 30
0.0
 11
-13.4310671259
 21
22.6917751247
 31
0.0
 11
-13.4177087973
 21
22.7810160539
 31
0.0
 11
-13.3796535545
 21
22.8701289894
 31
0.0
 11
-13.3226515169
 21
22.9456449705
 31
0.0
 11
-13.2553188699
 21
22.9961519397
 31
0.0
  0
SPLINE
  5
3C1
100
AcDbEntity
  8
RACCORDO
100
AcDbSpline
 62
253
  6
CONTINUOUS
 70
0
 71
3
 72
11
 73
7
 74
5
 42
0.0000001
 43
0.0000001
 44
0.0000000001
 12
0.0
 22
0.3659184282
 32
0.0
 13
0.3263519551
 23
0.1655013518
 33
0.0
 40
0.0
 40
0.0
 40
0.0
 40
0.0
 40
0.2465991784
 40
0.5114081618
 40
0.7699752382
 40
1.0
 40
1.0
 40
1.0
 40
1.0
 10
-14.7560518057
 20
23.3542674646
 30
0.0
 10
-14.7560518057
 20
23.3843458592
 30
0.0
 10
-14.7457090631
 20
23.4468308403
 30
0.0
 10
-14.7082254624
 20
23.5338012482
 30
0.0
 10
-14.6530861108
 20
23.6083002742
 30
0.0
 10
-14.60532656
 20
23.6459544766
 30
0.0
 10
-14.5803035497
 20
23.6586442796
 30
0.0
 11
-14.7560518057
 21
23.3542674646
 31
0.0
 11
-14.7426934771
 21
23.4435083938
 31
0.0
 11
-14.7046382343
 21
23.5326213293
 31
0.0
 11
-14.6476361967
 21
23.6081373104
 31
0.0
 11
-14.5803035497
 21
23.6586442796
 31
0.0
  0
SPLINE
  5
3C2
100
AcDbEntity
  8
0
100
AcDbSpline
 62
7
  6
CONTINUOUS
 70
0
 71
3
 72
12
 73
8
 74
6
 42
0.0000001
 43
0.0000001
 44
0.0000000001
 12
-0.4383446966
 22
-0.2281852062
 32
0.0
 13
-0.3993893073
 23
-0.291037356
 33
0.0
 40
0.0
 40
0.0
 40
0.0
 40
0.0
 40
0.1280725667
 40
0.269970234
 40
0.5513241395
 40
0.7987702065
 40
1.0
 40
1.0
 40
1.0
 40
1.0
 10
-15.2293022214
 20
-8.6023259781
 30
0.0
 10
-15.2480155315
 20
-8.6120673998
 30
0.0
 10
-15.2870586952
 20
-8.6333766928
 30
0.0
 10
-15.3657393651
 20
-8.6787413893
 30
0.0
 10
-15.4599869221
 20
-8.7364340936
 30
0.0
 10
-15.5608168681
 20
-8.8019855974
 30
0.0
 10
-15.6216118222
 20
-8.8440512973
 30
0.0
 10
-15.6484014982
 20
-8.863573093
 30
0.0
 11
-15.2293022214
 21
-8.6023259781
 31
0.0
 11
-15.2849433768
 21
-8.6324890562
 31
0.0
 11
-15.3457330545
 21
-8.667444207
 31
0.0
 11
-15.4643918215
 21
-8.7399157644
 31
0.0
 11
-15.5668427438
 21
-8.8066762145
 31
0.0
 11
-15.6484014982
 21
-8.863573093
 31
0.0
  0
SPLINE
  5
3C3
100
AcDbEntity
  8
0
100
AcDbSpline
 62
253
  6
CONTINUOUS
 70
0
 71
3
 72
16
 73
12
 74
10
 42
0.0000001
 43
0.0000001
 44
0.0000000001
 12
0.3433314991
 22
0.3514383599
 32
0.0
 13
-0.4361030608
 23
0.2262731965
 33
0.0
 40
0.0
 40
0.0
 40
0.0
 40
0.0
 40
0.0937708606
 40
0.1462527246
 40
0.2027816141
 40
0.3271591486
 40
0.4635838947
 40
0.6059786401
 40
0.7472200363
 40
0.8803792534
 40
1.0
 40
1.0
 40
1.0
 40
1.0
 10
-13.4853517471
 20
-9.8239767539
 30
0.0
 10
-13.4746202504
 20
-9.8129918614
 30
0.0
 10
-13.4618720634
 20
-9.7917962373
 30
0.0
 10
-13.4521638316
 20
-9.7599969602
 30
0.0
 10
-13.4462938562
 20
-9.7220933534
 30
0.0
 10
-13.4482623089
 20
-9.6696935535
 30
0.0
 10
-13.4634825085
 20
-9.6051001895
 30
0.0
 10
-13.4905019656
 20
-9.5414872117
 30
0.0
 10
-13.5273145948
 20
-9.4836104874
 30
0.0
 10
-13.571139056
 20
-9.4357904188
 30
0.0
 10
-13.605177609
 20
-9.4113995364
 30
0.0
 10
-13.6225666003
 20
-9.4023772135
 30
0.0
 11
-13.4853517471
 21
-9.8239767539
 31
0.0
 11
-13.4606352832
 21
-9.7850975516
 31
0.0
 11
-13.4529317504
 21
-9.7604903451
 31
0.0
 11
-13.4485541642
 21
-9.733064306
 31
0.0
 11
-13.4500587422
 21
-9.6719749148
 31
0.0
 11
-13.4650310065
 21
-9.6066417117
 31
0.0
 11
-13.4922918598
 21
-9.5422115895
 31
0.0
 11
-13.5296933237
 21
-9.483760238
 31
0.0
 11
-13.5742885921
 21
-9.4358921038
 31
0.0
 11
-13.6225666003
 21
-9.4023772135
 31
0.0
  0
SPLINE
  5
3C4
100
AcDbEntity
  8
0
100
AcDbSpline
 62
253
  6
CONTINUOUS
 70
0
 71
3
 72
15
 73
11
 74
9
 42
0.0000001
 43
0.0000001
 44
0.0000000001
 12
0.3375546937
 22
-0.2982944167
 32
0.0
 13
0.4041384912
 23
0.1989844472
 33
0.0
 40
0.0
 40
0.0
 40
0.0
 40
0.0
 40
0.1235985581
 40
0.1874988921
 40
0.25245166
 40
0.3842909739
 40
0.5166199922
 40
0.6467743227
 40
0.7721758201
 40
1.0
 40
1.0
 40
1.0
 40
1.0
 10
-13.9053445469
 20
-9.7351015639
 30
0.0
 10
-13.8914374558
 20
-9.7473911505
 30
0.0
 10
-13.8693273888
 20
-9.7649759161
 30
0.0
 10
-13.8373026265
 20
-9.7853048045
 30
0.0
 10
-13.8030328533
 20
-9.8042619238
 30
0.0
 10
-13.7576535095
 20
-9.8241804195
 30
0.0
 10
-13.7007714209
 20
-9.8411247822
 30
0.0
 10
-13.6430357035
 20
-9.8503757818
 30
0.0
 10
-13.5704056409
 20
-9.8515347656
 30
0.0
 10
-13.5169633647
 20
-9.8395440982
 30
0.0
 10
-13.4862725246
 20
-9.824432942
 30
0.0
 11
-13.9053445469
 21
-9.7351015639
 31
0.0
 11
-13.8615598095
 21
-9.7694943957
 31
0.0
 11
-13.8372903087
 21
-9.784972642
 31
0.0
 11
-13.8116878288
 21
-9.7991365409
 31
0.0
 11
-13.7573017513
 21
-9.8229960728
 31
0.0
 11
-13.7001511768
 21
-9.8399426207
 31
0.0
 11
-13.6422349885
 21
-9.8490671244
 31
0.0
 11
-13.5857486739
 21
-9.8496711689
 31
0.0
 11
-13.4862725246
 21
-9.824432942
 31
0.0
  0
SPLINE
  5
3C5
100
AcDbEntity
  8
0
100
AcDbSpline
 62
253
  6
CONTINUOUS
 70
0
 71
3
 72
18
 73
14
 74
12
 42
0.0000001
 43
0.0000001
 44
0.0000000001
 12
-0.3883865226
 22
-0.20653387
 32
0.0
 13
-0.1341785449
 23
-0.4189229625
 33
0.0
 40
0.0
 40
0.0
 40
0.0
 40
0.0
 40
0.0566122986
 40
0.116493091
 40
0.1792397063
 40
0.2441308402
 40
0.3781024724
 40
0.5140159136
 40
0.6476005454
 40
0.7751145732
 40
0.8355869803
 40
0.8934053228
 40
1.0
 40
1.0
 40
1.0
 40
1.0
 10
-13.6279656726
 20
-9.4051947934
 30
0.0
 10
-13.6352948239
 20
-9.4090922457
 30
0.0
 10
-13.6500452966
 20
-9.4177371313
 30
0.0
 10
-13.6719649299
 20
-9.4322516082
 30
0.0
 10
-13.6941758668
 20
-9.4484795642
 30
0.0
 10
-13.7239417994
 20
-9.4726979044
 30
0.0
 10
-13.7598079092
 20
-9.5063148834
 30
0.0
 10
-13.7994986037
 20
-9.5502681129
 30
0.0
 10
-13.8350104548
 20
-9.5964737254
 30
0.0
 10
-13.860501678
 20
-9.6362239446
 30
0.0
 10
-13.8777796659
 20
-9.6678667201
 30
0.0
 10
-13.8921934396
 20
-9.6975433878
 30
0.0
 10
-13.9005769786
 20
-9.7202165803
 30
0.0
 10
-13.9053445515
 20
-9.7351015663
 30
0.0
 11
-13.6279656726
 21
-9.4051947934
 31
0.0
 11
-13.649512345
 21
-9.4176807955
 31
0.0
 11
-13.6715020119
 21
-9.4321821914
 31
0.0
 11
-13.6937779105
 21
-9.448480099
 31
0.0
 11
-13.7159410997
 21
-9.466468865
 31
0.0
 11
-13.759017223
 21
-9.5066866296
 31
0.0
 11
-13.7991158981
 21
-9.5510321373
 31
0.0
 11
-13.8348579145
 21
-9.5976743218
 31
0.0
 11
-13.865039458
 21
-9.6449538774
 31
0.0
 11
-13.8777746261
 21
-9.6683083027
 31
0.0
 11
-13.8888007543
 21
-9.6912274759
 31
0.0
 11
-13.9053445515
 21
-9.7351015663
 31
0.0
  0
SPLINE
  5
3C6
100
AcDbEntity
  8
0
100
AcDbSpline
 62
253
  6
CONTINUOUS
 70
0
 71
3
 72
16
 73
12
 74
10
 42
0.0000001
 43
0.0000001
 44
0.0000000001
 12
0.4282072672
 22
-0.232159331
 32
0.0
 13
-0.3352271989
 23
-0.3533866774
 33
0.0
 40
0.0
 40
0.0
 40
0.0
 40
0.0
 40
0.1197240928
 40
0.2537384856
 40
0.3961714166
 40
0.5396794681
 40
0.6767487699
 40
0.800945331
 40
0.8569773536
 40
0.9086639171
 40
1.0
 40
1.0
 40
1.0
 40
1.0
 10
-13.6279655968
 20
-9.4051974795
 30
0.0
 10
-13.6108766879
 20
-9.4144625013
 30
0.0
 10
-13.5774026249
 20
-9.4392395632
 30
0.0
 10
-13.5340893295
 20
-9.487204352
 30
0.0
 10
-13.4973102459
 20
-9.5449820494
 30
0.0
 10
-13.4698523111
 20
-9.6082553361
 30
0.0
 10
-13.4537560534
 20
-9.6722860495
 30
0.0
 10
-13.450682607
 20
-9.7241526295
 30
0.0
 10
-13.4555428184
 20
-9.7616254249
 30
0.0
 10
-13.464194559
 20
-9.7927954306
 30
0.0
 10
-13.4760656182
 20
-9.8136747362
 30
0.0
 10
-13.4862717312
 20
-9.8244337212
 30
0.0
 11
-13.6279655968
 21
-9.4051974795
 31
0.0
 11
-13.5805641896
 21
-9.4391673118
 31
0.0
 11
-13.5364228238
 21
-9.4872576972
 31
0.0
 11
-13.499012651
 21
-9.5456853788
 31
0.0
 11
-13.471280008
 21
-9.609850432
 31
0.0
 11
-13.455407231
 21
-9.6747016723
 31
0.0
 11
-13.452644926
 21
-9.7351338274
 31
0.0
 11
-13.4562898875
 21
-9.7621821356
 31
0.0
 11
-13.463209735
 21
-9.7863886316
 31
0.0
 11
-13.4862717312
 21
-9.8244337212
 31
0.0
  0
SPLINE
  5
3C7
100
AcDbEntity
  8
0
100
AcDbSpline
 62
253
  6
CONTINUOUS
 70
0
 71
3
 72
11
 73
7
 74
5
 42
0.0000001
 43
0.0000001
 44
0.0000000001
 12
-0.1001615254
 22
0.0482569326
 32
0.0
 13
-0.1025018513
 23
-0.0430631301
 33
0.0
 40
0.0
 40
0.0
 40
0.0
 40
0.0
 40
0.2777782213
 40
0.5342928138
 40
0.7729557338
 40
1.0
 40
1.0
 40
1.0
 40
1.0
 10
-10.5928524237
 20
-10.9172363454
 30
0.0
 10
-10.6021266539
 20
-10.9127681037
 30
0.0
 10
-10.6206534863
 20
-10.9054819713
 30
0.0
 10
-10.6489483874
 20
-10.8999601213
 30
0.0
 10
-10.6759323867
 20
-10.9005139222
 30
0.0
 10
-10.6927989072
 20
-10.905101899
 30
0.0
 10
-10.7005563931
 20
-10.9083609779
 30
0.0
 11
-10.5928524237
 21
-10.9172363454
 31
0.0
 11
-10.6216696339
 21
-10.906129719
 31
0.0
 11
-10.6497023757
 21
-10.9008837634
 31
0.0
 11
-10.6762263869
 21
-10.9016339845
 31
0.0
 11
-10.7005563931
 21
-10.9083609779
 31
0.0
  0
SPLINE
  5
3C8
100
AcDbEntity
  8
0
100
AcDbSpline
 62
253
  6
CONTINUOUS
 70
0
 71
3
 72
9
 73
5
 74
3
 42
0.0000001
 43
0.0000001
 44
0.0000000001
 12
-0.0840417805
 22
0.0387037637
 32
0.0
 13
-0.0905777415
 23
-0.0188858399
 33
0.0
 40
0.0
 40
0.0
 40
0.0
 40
0.0
 40
0.531117669
 40
1.0
 40
1.0
 40
1.0
 40
1.0
 10
-10.5982013796
 20
-10.9201323327
 30
0.0
 10
-10.6130800711
 20
-10.9132802485
 30
0.0
 10
-10.6427427231
 20
-10.9034337164
 30
0.0
 10
-10.6743608177
 20
-10.9033806833
 30
0.0
 10
-10.6885175852
 20
-10.9063324288
 30
0.0
 11
-10.5982013796
 21
-10.9201323327
 31
0.0
 11
-10.6451403912
 21
-10.9055835229
 31
0.0
 11
-10.6885175852
 21
-10.9063324288
 31
0.0
  0
SPLINE
  5
3C9
100
AcDbEntity
  8
0
100
AcDbSpline
 62
253
  6
CONTINUOUS
 70
0
 71
3
 72
9
 73
5
 74
3
 42
0.0000001
 43
0.0000001
 44
0.0000000001
 12
-0.0265153208
 22
-0.0055285559
 32
0.0
 13
-0.0240426396
 23
-0.012473117
 33
0.0
 40
0.0
 40
0.0
 40
0.0
 40
0.0
 40
0.2536145362
 40
1.0
 40
1.0
 40
1.0
 40
1.0
 10
-10.6885175852
 20
-10.9063324288
 30
0.0
 10
-10.6907591421
 20
-10.9067998029
 30
0.0
 10
-10.699534796
 20
-10.9089294528
 30
0.0
 10
-10.7080272389
 20
-10.9122440387
 30
0.0
 10
-10.7140089311
 20
-10.9153472898
 30
0.0
 11
-10.6885175852
 21
-10.9063324288
 31
0.0
 11
-10.6951921927
 21
-10.9079562387
 31
0.0
 11
-10.7140089311
 21
-10.9153472898
 31
0.0
  0
SPLINE
  5
3CA
100
AcDbEntity
  8
0
100
AcDbSpline
 62
253
  6
CONTINUOUS
 70
0
 71
3
 72
17
 73
13
 74
11
 42
0.0000001
 43
0.0000001
 44
0.0000000001
 12
-0.1145172234
 22
0.4369712051
 32
0.0
 13
0.3951111864
 23
0.2189638759
 33
0.0
 40
0.0
 40
0.0
 40
0.0
 40
0.0
 40
0.1287369316
 40
0.2602480241
 40
0.3926230885
 40
0.5238041818
 40
0.6517204261
 40
0.7744215984
 40
0.8333822905
 40
0.8905548289
 40
0.9461035538
 40
1.0
 40
1.0
 40
1.0
 40
1.0
 10
-10.7305820213
 20
-11.3224828314
 30
0.0
 10
-10.7354962199
 20
-11.3037313874
 30
0.0
 10
-10.7420616094
 20
-11.2649270032
 30
0.0
 10
-10.7445682146
 20
-11.2057149534
 30
0.0
 10
-10.738875364
 20
-11.1463052583
 30
0.0
 10
-10.7253079523
 20
-11.0887405084
 30
0.0
 10
-10.7038973186
 20
-11.0351481222
 30
0.0
 10
-10.6797187129
 20
-10.9949915823
 30
0.0
 10
-10.6570514308
 20
-10.9670143443
 30
0.0
 10
-10.6388962164
 20
-10.9485411659
 30
0.0
 10
-10.6193059699
 20
-10.9327732048
 30
0.0
 10
-10.6053014314
 20
-10.9240098912
 30
0.0
 10
-10.5982030685
 20
-10.9200760996
 30
0.0
 11
-10.7305820213
 21
-11.3224828314
 31
0.0
 11
-10.7407916471
 21
-11.2652320012
 31
0.0
 11
-10.7431998494
 21
-11.2058736123
 31
0.0
 11
-10.7375119517
 21
-11.1463472414
 31
0.0
 11
-10.7237720838
 21
-11.0887039905
 31
0.0
 11
-10.7021669774
 21
-11.0351117126
 31
0.0
 11
-10.6733476249
 21
-10.9877655784
 31
0.0
 11
-10.6565571983
 21
-10.9670904388
 31
0.0
 11
-10.6383815422
 21
-10.9487424191
 31
0.0
 11
-10.6188189559
 21
-10.9330274872
 31
0.0
 11
-10.5982030685
 21
-10.9200760996
 31
0.0
  0
SPLINE
  5
3CB
100
AcDbEntity
  8
RACCORDO
100
AcDbSpline
 62
253
  6
CONTINUOUS
 70
0
 71
3
 72
13
 73
9
 74
7
 42
0.0000001
 43
0.0000001
 44
0.0000000001
 12
0.3242438589
 22
-0.1621219295
 32
0.0
 13
0.3249922968
 23
0.160616335
 33
0.0
 40
0.0
 40
0.0
 40
0.0
 40
0.0
 40
0.1125245356
 40
0.2354259129
 40
0.4995814041
 40
0.7639631741
 40
0.8871313456
 40
1.0
 40
1.0
 40
1.0
 40
1.0
 10
-13.4310671259
 20
22.3518011906
 30
0.0
 10
-13.4189053293
 20
22.3457202923
 30
0.0
 10
-13.3924085822
 20
22.335056178
 30
0.0
 10
-13.3339186521
 20
22.3196688684
 30
0.0
 10
-13.2549938286
 20
22.3122088821
 30
0.0
 10
-13.1760189441
 20
22.3194492802
 30
0.0
 10
-13.1173796633
 20
22.3346621291
 30
0.0
 10
-13.090772314
 20
22.3452456169
 30
0.0
 10
-13.0785451662
 20
22.3512884667
 30
0.0
 11
-13.4310671259
 21
22.3518011906
 31
0.0
 11
-13.3933328559
 21
22.3363058868
 31
0.0
 11
-13.3502972891
 21
22.3247746338
 31
0.0
 11
-13.2550176501
 21
22.3151900671
 31
0.0
 11
-13.1596281026
 21
22.324497316
 31
0.0
 11
-13.1164590927
 21
22.3359031891
 31
0.0
 11
-13.0785451662
 21
22.3512884667
 31
0.0
  0
SPLINE
  5
3CC
100
AcDbEntity
  8
RACCORDO
100
AcDbSpline
 62
253
  6
CONTINUOUS
 70
0
 71
3
 72
13
 73
9
 74
7
 42
0.0000001
 43
0.0000001
 44
0.0000000001
 12
0.3242438589
 22
-0.1621219295
 32
0.0
 13
0.3249922968
 23
0.160616335
 33
0.0
 40
0.0
 40
0.0
 40
0.0
 40
0.0
 40
0.1125245356
 40
0.2354259129
 40
0.4995814041
 40
0.7639631741
 40
0.8871313456
 40
1.0
 40
1.0
 40
1.0
 40
1.0
 10
-13.4310671259
 20
22.6917751247
 30
0.0
 10
-13.4189053293
 20
22.6856942265
 30
0.0
 10
-13.3924085822
 20
22.6750301121
 30
0.0
 10
-13.3339186521
 20
22.6596428025
 30
0.0
 10
-13.2549938286
 20
22.6521828162
 30
0.0
 10
-13.1760189441
 20
22.6594232143
 30
0.0
 10
-13.1173796633
 20
22.6746360632
 30
0.0
 10
-13.090772314
 20
22.685219551
 30
0.0
 10
-13.0785451662
 20
22.6912624009
 30
0.0
 11
-13.4310671259
 21
22.6917751247
 31
0.0
 11
-13.3933328559
 21
22.6762798209
 31
0.0
 11
-13.3502972891
 21
22.664748568
 31
0.0
 11
-13.2550176501
 21
22.6551640012
 31
0.0
 11
-13.1596281026
 21
22.6644712501
 31
0.0
 11
-13.1164590927
 21
22.6758771232
 31
0.0
 11
-13.0785451662
 21
22.6912624009
 31
0.0
  0
SPLINE
  5
3CD
100
AcDbEntity
  8
0
100
AcDbSpline
 62
7
  6
CONTINUOUS
 70
0
 71
3
 72
12
 73
8
 74
6
 42
0.0000001
 43
0.0000001
 44
0.0000000001
 12
-0.4436944094
 22
-0.2183086295
 32
0.0
 13
-0.4007712366
 23
-0.2896649834
 33
0.0
 40
0.0
 40
0.0
 40
0.0
 40
0.0
 40
0.1271071349
 40
0.2680152236
 40
0.5483574945
 40
0.7965069843
 40
1.0
 40
1.0
 40
1.0
 40
1.0
 10
-14.6868186506
 20
2.1017492333
 30
0.0
 10
-14.705617559
 20
2.0924997052
 30
0.0
 10
-14.7448173916
 20
2.0721043389
 30
0.0
 10
-14.8238626164
 20
2.0282585573
 30
0.0
 10
-14.918731399
 20
1.9718629635
 30
0.0
 10
-15.0205199179
 20
1.9070602218
 30
0.0
 10
-15.0820178017
 20
1.8650633062
 30
0.0
 10
-15.1092025176
 20
1.8454150392
 30
0.0
 11
-14.6868186506
 21
2.1017492333
 31
0.0
 11
-14.7426716358
 21
2.0729218403
 31
0.0
 11
-14.8036489181
 21
2.0392053049
 31
0.0
 11
-14.9228976816
 21
1.9685139845
 31
0.0
 11
-15.0263352904
 21
1.9024991106
 31
0.0
 11
-15.1092025176
 21
1.8454150392
 31
0.0
  0
SPLINE
  5
3CE
100
AcDbEntity
  8
0
100
AcDbSpline
 62
253
  6
CONTINUOUS
 70
0
 71
3
 72
13
 73
9
 74
7
 42
0.0000001
 43
0.0000001
 44
0.0000000001
 12
0.0562800751
 22
-0.2372258458
 32
0.0
 13
0.2180898361
 23
-0.10899712
 33
0.0
 40
0.0
 40
0.0
 40
0.0
 40
0.0
 40
0.1378935948
 40
0.2725398373
 40
0.4037717254
 40
0.5310598674
 40
0.7732058495
 40
1.0
 40
1.0
 40
1.0
 40
1.0
 10
-13.9053443722
 20
3.8002515178
 30
0.0
 10
-13.9027574849
 20
3.7893475429
 30
0.0
 10
-13.8969939022
 20
3.7679358137
 30
0.0
 10
-13.8856717614
 20
3.7370842266
 30
0.0
 10
-13.8717564187
 20
3.7082611757
 30
0.0
 10
-13.8505915172
 20
3.6734491214
 30
0.0
 10
-13.8189418317
 20
3.6361965838
 30
0.0
 10
-13.7873512622
 20
3.6138870466
 30
0.0
 10
-13.7708640959
 20
3.6056470769
 30
0.0
 11
-13.9053443722
 21
3.8002515178
 31
0.0
 11
-13.8964442961
 21
3.767831053
 31
0.0
 11
-13.8850746987
 21
3.7370346142
 31
0.0
 11
-13.8711584818
 21
3.7082237773
 31
0.0
 11
-13.8549728795
 21
3.6817446012
 31
0.0
 11
-13.8163410449
 21
3.6371011849
 31
0.0
 11
-13.7708640959
 21
3.6056470769
 31
0.0
  0
SPLINE
  5
3CF
100
AcDbEntity
  8
0
100
AcDbSpline
 62
253
  6
CONTINUOUS
 70
0
 71
3
 72
17
 73
13
 74
11
 42
0.0000001
 43
0.0000001
 44
0.0000000001
 12
-0.3908321347
 22
-0.1844902949
 32
0.0
 13
-0.4297817432
 23
0.0455420639
 33
0.0
 40
0.0
 40
0.0
 40
0.0
 40
0.0
 40
0.1176593855
 40
0.2473148827
 40
0.5215963245
 40
0.6561398058
 40
0.720777793
 40
0.7830040809
 40
0.8424052706
 40
0.8985937968
 40
0.9511720712
 40
1.0
 40
1.0
 40
1.0
 40
1.0
 10
-13.486272656
 20
3.8892290205
 30
0.0
 10
-13.5016010122
 20
3.8819933489
 30
0.0
 10
-13.5344283545
 20
3.8680586689
 30
0.0
 10
-13.6052307634
 20
3.8428190854
 30
0.0
 10
-13.6802627853
 20
3.8224716484
 30
0.0
 10
-13.7473086709
 20
3.809771431
 30
0.0
 10
-13.784595826
 20
3.8044503387
 30
0.0
 10
-13.8112669676
 20
3.8014575643
 30
0.0
 10
-13.8368187484
 20
3.7995376956
 30
0.0
 10
-13.861037781
 20
3.7987244717
 30
0.0
 10
-13.8837443769
 20
3.7987117655
 30
0.0
 10
-13.8983493385
 20
3.7995107123
 30
0.0
 10
-13.9053444559
 20
3.8002519539
 30
0.0
 11
-13.486272656
 21
3.8892290205
 31
0.0
 11
-13.5330043577
 21
3.8691798534
 31
0.0
 11
-13.5857487405
 21
3.8502586417
 31
0.0
 11
-13.7001511105
 21
3.8192087081
 31
0.0
 11
-13.7573016327
 21
3.808484154
 31
0.0
 11
-13.7849579125
 21
3.8045424746
 31
0.0
 11
-13.8116876946
 21
3.8015799575
 31
0.0
 11
-13.8372901401
 21
3.7996849794
 31
0.0
 11
-13.8615596139
 21
3.7988450403
 31
0.0
 11
-13.8842831576
 21
3.7989284449
 31
0.0
 11
-13.9053444559
 21
3.8002519539
 31
0.0
  0
SPLINE
  5
3D0
100
AcDbEntity
  8
RACCORDO
100
AcDbSpline
 62
253
  6
CONTINUOUS
 70
0
 71
3
 72
13
 73
9
 74
7
 42
0.0000001
 43
0.0000001
 44
0.0000000001
 12
-0.1069170157
 22
-0.2783410717
 32
0.0
 13
-0.2918756657
 23
0.0609392829
 33
0.0
 40
0.0
 40
0.0
 40
0.0
 40
0.0
 40
0.2769974725
 40
0.5361985654
 40
0.6582146203
 40
0.7753291389
 40
0.8886899808
 40
1.0
 40
1.0
 40
1.0
 40
1.0
 10
-13.0785451662
 20
22.3512884667
 30
0.0
 10
-13.0884170806
 20
22.3255885423
 30
0.0
 10
-13.1141540666
 20
22.2780534729
 30
0.0
 10
-13.1614806051
 20
22.231148355
 30
0.0
 10
-13.2047616703
 20
22.2065485011
 30
0.0
 10
-13.2381612715
 20
22.1952184758
 30
0.0
 10
-13.2721192184
 20
22.1910608601
 30
0.0
 10
-13.2945590335
 20
22.193206161
 30
0.0
 10
-13.3053885954
 20
22.195467212
 30
0.0
 11
-13.0785451662
 21
22.3512884667
 31
0.0
 11
-13.1184285998
 21
22.278964342
 31
0.0
 11
-13.1739792632
 21
22.2252314414
 31
0.0
 11
-13.2056792842
 21
22.2073787387
 31
0.0
 11
-13.2387907916
 21
22.19628675
 31
0.0
 11
-13.2723529502
 21
22.1922778515
 31
0.0
 11
-13.3053885954
 21
22.195467212
 31
0.0
  0
SPLINE
  5
3D1
100
AcDbEntity
  8
RACCORDO
100
AcDbSpline
 62
7
  6
CONTINUOUS
 70
0
 71
3
 72
12
 73
8
 74
6
 42
0.0000001
 43
0.0000001
 44
0.0000000001
 12
-0.2288947893
 22
-0.2740443819
 32
0.0
 13
-0.3495652491
 23
0.0727824462
 33
0.0
 40
0.0
 40
0.0
 40
0.0
 40
0.0
 40
0.2548335856
 40
0.5141953181
 40
0.6424651752
 40
0.7674743832
 40
1.0
 40
1.0
 40
1.0
 40
1.0
 10
-12.3673245581
 20
22.2027849439
 30
0.0
 10
-12.3867679181
 20
22.1795063731
 30
0.0
 10
-12.4313819524
 20
22.136836827
 30
0.0
 10
-12.4970454649
 20
22.0964008909
 30
0.0
 10
-12.5540269982
 20
22.074070843
 30
0.0
 10
-12.6102170938
 20
22.0602692588
 30
0.0
 10
-12.6540085106
 20
22.0594745883
 30
0.0
 10
-12.6811028023
 20
22.0651158493
 30
0.0
 11
-12.3673245581
 21
22.2027849439
 31
0.0
 11
-12.4329391601
 21
22.1397440923
 31
0.0
 11
-12.5119964874
 21
22.0915132634
 31
0.0
 11
-12.5546824676
 21
22.0749129085
 31
0.0
 11
-12.5980793056
 21
22.0644683701
 31
0.0
 11
-12.6811028023
 21
22.0651158493
 31
0.0
  0
SPLINE
  5
3D2
100
AcDbEntity
  8
RACCORDO
100
AcDbSpline
 62
253
  6
CONTINUOUS
 70
0
 71
3
 72
11
 73
7
 74
5
 42
0.0000001
 43
0.0000001
 44
0.0000000001
 12
0.0
 22
-0.1574304972
 32
0.0
 13
0.1408119364
 23
-0.0704014205
 33
0.0
 40
0.0
 40
0.0
 40
0.0
 40
0.0
 40
0.289749639
 40
0.5495875602
 40
0.7828489991
 40
1.0
 40
1.0
 40
1.0
 40
1.0
 10
-14.7560518057
 20
23.0142935305
 30
0.0
 10
-14.7560518057
 20
22.9990883873
 30
0.0
 10
-14.7535979443
 20
22.9701381638
 30
0.0
 10
-14.7412245708
 20
22.9305434751
 30
0.0
 10
-14.7205577442
 20
22.8988448353
 30
0.0
 10
-14.7012710248
 20
22.8841709257
 30
0.0
 10
-14.6910785405
 20
22.8790750127
 30
0.0
 11
-14.7560518057
 21
23.0142935305
 31
0.0
 11
-14.7517319956
 21
22.9688831058
 31
0.0
 11
-14.7389845064
 21
22.9300136299
 31
0.0
 11
-14.7184312909
 21
22.8995816613
 31
0.0
 11
-14.6910785405
 21
22.8790750127
 31
0.0
  0
SPLINE
  5
3D3
100
AcDbEntity
  8
0
100
AcDbSpline
 62
253
  6
CONTINUOUS
 70
0
 71
3
 72
14
 73
10
 74
8
 42
0.0000001
 43
0.0000001
 44
0.0000000001
 12
-0.2248408374
 22
0.2020367618
 32
0.0
 13
0.2118144283
 23
0.2156545924
 33
0.0
 40
0.0
 40
0.0
 40
0.0
 40
0.0
 40
0.1470460078
 40
0.2863681071
 40
0.5405715612
 40
0.658180903
 40
0.7717885481
 40
0.8845529458
 40
1.0
 40
1.0
 40
1.0
 40
1.0
 10
-10.7305818591
 20
2.2128705134
 30
0.0
 10
-10.7416025083
 20
2.2227734132
 30
0.0
 10
-10.7615527474
 20
2.2438072424
 30
0.0
 10
-10.7936333122
 20
2.2878876138
 30
0.0
 10
-10.8139699602
 20
2.3367376767
 30
0.0
 10
-10.8177347287
 20
2.3858720766
 30
0.0
 10
-10.8122519771
 20
2.4204529997
 30
0.0
 10
-10.7984329092
 20
2.4523885946
 30
0.0
 10
-10.7841512098
 20
2.4707549847
 30
0.0
 10
-10.7760000925
 20
2.4790538805
 30
0.0
 11
-10.7305818591
 21
2.2128705134
 31
0.0
 11
-10.7613115633
 21
2.2449856884
 31
0.0
 11
-10.7858508869
 21
2.2792116467
 31
0.0
 11
-10.8138377224
 21
2.3507739062
 31
0.0
 11
-10.8163482858
 21
2.3862359169
 31
0.0
 11
-10.8108422904
 21
2.4201327904
 31
0.0
 11
-10.7973070126
 21
2.4514164673
 31
0.0
 11
-10.7760000925
 21
2.4790538805
 31
0.0
  0
SPLINE
  5
3D4
100
AcDbEntity
  8
RACCORDO
100
AcDbSpline
 62
253
  6
CONTINUOUS
 70
0
 71
3
 72
11
 73
7
 74
5
 42
0.0000001
 43
0.0000001
 44
0.0000000001
 12
0.0
 22
-0.1574304972
 32
0.0
 13
0.1408119364
 23
-0.0704014205
 33
0.0
 40
0.0
 40
0.0
 40
0.0
 40
0.0
 40
0.289749639
 40
0.5495875602
 40
0.7828489991
 40
1.0
 40
1.0
 40
1.0
 40
1.0
 10
-13.4310671259
 20
22.3518011906
 30
0.0
 10
-13.4310671259
 20
22.3365960474
 30
0.0
 10
-13.4286132645
 20
22.3076458239
 30
0.0
 10
-13.416239891
 20
22.2680511352
 30
0.0
 10
-13.3955730644
 20
22.2363524954
 30
0.0
 10
-13.376286345
 20
22.2216785858
 30
0.0
 10
-13.3660938607
 20
22.2165826728
 30
0.0
 11
-13.4310671259
 21
22.3518011906
 31
0.0
 11
-13.4267473158
 21
22.3063907659
 31
0.0
 11
-13.4139998266
 21
22.26752129
 31
0.0
 11
-13.3934466111
 21
22.2370893214
 31
0.0
 11
-13.3660938607
 21
22.2165826728
 31
0.0
  0
SPLINE
  5
3D5
100
AcDbEntity
  8
RACCORDO
100
AcDbSpline
 62
253
  6
CONTINUOUS
 70
0
 71
3
 72
11
 73
7
 74
5
 42
0.0000001
 43
0.0000001
 44
0.0000000001
 12
0.0
 22
0.3659184285
 32
0.0
 13
0.3263519554
 23
0.165501352
 33
0.0
 40
0.0
 40
0.0
 40
0.0
 40
0.0
 40
0.2465996066
 40
0.5114086341
 40
0.7699756527
 40
1.0
 40
1.0
 40
1.0
 40
1.0
 10
-0.0667489615
 20
16.0096160425
 30
0.0
 10
-0.0667489615
 20
16.0396944893
 30
0.0
 10
-0.0564061894
 20
16.1021795281
 30
0.0
 10
-0.0189225371
 20
16.1891499676
 30
0.0
 10
0.0362168134
 20
16.2636489318
 30
0.0
 10
0.0839763293
 20
16.3013030773
 30
0.0
 10
0.1089992945
 20
16.3139928575
 30
0.0
 11
-0.0667489615
 21
16.0096160425
 31
0.0
 11
-0.0533905874
 21
16.0988571234
 31
0.0
 11
-0.0153353027
 21
16.1879700586
 31
0.0
 11
0.0416667541
 21
16.2634859988
 31
0.0
 11
0.1089992945
 21
16.3139928575
 31
0.0
  0
SPLINE
  5
3D6
100
AcDbEntity
  8
RACCORDO
100
AcDbSpline
 62
253
  6
CONTINUOUS
 70
0
 71
3
 72
11
 73
7
 74
5
 42
0.0000001
 43
0.0000001
 44
0.0000000001
 12
0.0
 22
0.365918428
 32
0.0
 13
0.3263519549
 23
0.1655013517
 33
0.0
 40
0.0
 40
0.0
 40
0.0
 40
0.0
 40
0.2465994894
 40
0.5114083944
 40
0.7699753467
 40
1.0
 40
1.0
 40
1.0
 40
1.0
 10
-1.3917336413
 20
16.6721083824
 30
0.0
 10
-1.3917336413
 20
16.7021868149
 30
0.0
 10
-1.3813908793
 20
16.7646718242
 30
0.0
 10
-1.3439072558
 20
16.851642235
 30
0.0
 10
-1.2887679146
 20
16.9261412212
 30
0.0
 10
-1.2410083837
 20
16.9637954004
 30
0.0
 10
-1.2159853853
 20
16.9764851974
 30
0.0
 11
-1.3917336413
 21
16.6721083824
 31
0.0
 11
-1.3783752796
 21
16.7613494217
 31
0.0
 11
-1.3403200269
 21
16.8504623217
 31
0.0
 11
-1.2833180043
 21
16.9259782572
 31
0.0
 11
-1.2159853853
 21
16.9764851974
 31
0.0
  0
SPLINE
  5
3D7
100
AcDbEntity
  8
RACCORDO
100
AcDbSpline
 62
253
  6
CONTINUOUS
 70
0
 71
3
 72
13
 73
9
 74
7
 42
0.0000001
 43
0.0000001
 44
0.0000000001
 12
0.3242438589
 22
-0.1621219295
 32
0.0
 13
0.3249922968
 23
0.160616335
 33
0.0
 40
0.0
 40
0.0
 40
0.0
 40
0.0
 40
0.1125245356
 40
0.2354259129
 40
0.4995814041
 40
0.7639631741
 40
0.8871313456
 40
1.0
 40
1.0
 40
1.0
 40
1.0
 10
-0.0667489615
 20
15.6696421084
 30
0.0
 10
-0.0545871649
 20
15.6635612101
 30
0.0
 10
-0.0280904178
 20
15.6528970958
 30
0.0
 10
0.0303995123
 20
15.6375097862
 30
0.0
 10
0.1093243358
 20
15.6300497999
 30
0.0
 10
0.1882992203
 20
15.637290198
 30
0.0
 10
0.2469385011
 20
15.6525030469
 30
0.0
 10
0.2735458505
 20
15.6630865347
 30
0.0
 10
0.2857729982
 20
15.6691293845
 30
0.0
 11
-0.0667489615
 21
15.6696421084
 31
0.0
 11
-0.0290146915
 21
15.6541468046
 31
0.0
 11
0.0140208753
 21
15.6426155516
 31
0.0
 11
0.1093005143
 21
15.6330309849
 31
0.0
 11
0.2046900618
 21
15.6423382338
 31
0.0
 11
0.2478590718
 21
15.6537441069
 31
0.0
 11
0.2857729982
 21
15.6691293845
 31
0.0
  0
SPLINE
  5
3D8
100
AcDbEntity
  8
RACCORDO
100
AcDbSpline
 62
253
  6
CONTINUOUS
 70
0
 71
3
 72
13
 73
9
 74
7
 42
0.0000001
 43
0.0000001
 44
0.0000000001
 12
0.3242438585
 22
-0.1621219293
 32
0.0
 13
0.3249922964
 23
0.1606163348
 33
0.0
 40
0.0
 40
0.0
 40
0.0
 40
0.0
 40
0.1125245899
 40
0.2354260292
 40
0.4995816495
 40
0.7639634918
 40
0.8871317035
 40
1.0
 40
1.0
 40
1.0
 40
1.0
 10
-0.0667489615
 20
16.0096160425
 30
0.0
 10
-0.0545871591
 20
16.0035351413
 30
0.0
 10
-0.0280903985
 20
15.9928710224
 30
0.0
 10
0.030399562
 20
15.9774837109
 30
0.0
 10
0.109324418
 20
15.9700237332
 30
0.0
 10
0.1882993323
 20
15.9772641434
 30
0.0
 10
0.2469385772
 20
15.9924770128
 30
0.0
 10
0.2735458892
 20
16.003060488
 30
0.0
 10
0.2857729982
 20
16.0091033187
 30
0.0
 11
-0.0667489615
 21
16.0096160425
 31
0.0
 11
-0.0290146729
 21
15.9941207324
 31
0.0
 11
0.0140209166
 21
15.9825894775
 31
0.0
 11
0.1093006034
 21
15.9730049189
 31
0.0
 11
0.2046901749
 21
15.9823121899
 31
0.0
 11
0.2478591943
 21
15.9937180841
 31
0.0
 11
0.2857729982
 21
16.0091033187
 31
0.0
  0
SPLINE
  5
3D9
100
AcDbEntity
  8
RACCORDO
100
AcDbSpline
 62
7
  6
CONTINUOUS
 70
0
 71
3
 72
11
 73
7
 74
5
 42
0.0000001
 43
0.0000001
 44
0.0000000001
 12
0.0
 22
0.3670486434
 32
0.0
 13
-0.328298287
 23
0.1641491435
 33
0.0
 40
0.0
 40
0.0
 40
0.0
 40
0.0
 40
0.2467927921
 40
0.5117852903
 40
0.7703247525
 40
1.0
 40
1.0
 40
1.0
 40
1.0
 10
1.887053789
 20
16.8118253222
 30
0.0
 10
1.887053789
 20
16.8420203087
 30
0.0
 10
1.8766337856
 20
16.9047446472
 30
0.0
 10
1.8389000119
 20
16.9919784564
 30
0.0
 10
1.7834414061
 20
17.0665745657
 30
0.0
 10
1.7354140821
 20
17.1041478626
 30
0.0
 10
1.7102800853
 20
17.116714861
 30
0.0
 11
1.887053789
 21
16.8118253222
 31
0.0
 11
1.8735978249
 21
16.9014052972
 31
0.0
 11
1.8352782015
 21
16.9908039176
 31
0.0
 11
1.7779284543
 21
17.0664105534
 31
0.0
 11
1.7102800853
 21
17.116714861
 31
0.0
  0
SPLINE
  5
3DA
100
AcDbEntity
  8
RACCORDO
100
AcDbSpline
 62
253
  6
CONTINUOUS
 70
0
 71
3
 72
11
 73
7
 74
5
 42
0.0000001
 43
0.0000001
 44
0.0000000001
 12
-0.0017563531
 22
0.3667457895
 32
0.0
 13
-0.3272560827
 23
0.1655566829
 33
0.0
 40
0.0
 40
0.0
 40
0.0
 40
0.0
 40
0.2466958371
 40
0.5118834552
 40
0.7705706608
 40
1.0
 40
1.0
 40
1.0
 40
1.0
 10
0.2857729982
 20
16.0091033187
 30
0.0
 10
0.2856285699
 20
16.0392615385
 30
0.0
 10
0.2749755559
 20
16.10189067
 30
0.0
 10
0.2371571013
 20
16.1890169208
 30
0.0
 10
0.181841677
 20
16.263614739
 30
0.0
 10
0.1340266768
 20
16.3013316707
 30
0.0
 10
0.1089992945
 20
16.3139928575
 30
0.0
 11
0.2857729982
 21
16.0091033187
 31
0.0
 11
0.2719996646
 21
16.0985244964
 31
0.0
 11
0.2335690949
 21
16.1878672288
 31
0.0
 11
0.1763305894
 21
16.2635292433
 31
0.0
 11
0.1089992945
 21
16.3139928575
 31
0.0
  0
SPLINE
  5
3DB
100
AcDbEntity
  8
RACCORDO
100
AcDbSpline
 62
253
  6
CONTINUOUS
 70
0
 71
3
 72
11
 73
7
 74
5
 42
0.0000001
 43
0.0000001
 44
0.0000000001
 12
0.0017306169
 22
0.3673419505
 32
0.0
 13
-0.3293172692
 23
0.162767441
 33
0.0
 40
0.0
 40
0.0
 40
0.0
 40
0.0
 40
0.2468889152
 40
0.5116858701
 40
0.7700776245
 40
1.0
 40
1.0
 40
1.0
 40
1.0
 10
2.4153209608
 20
17.0752641422
 30
0.0
 10
2.4154633841
 20
17.1054950274
 30
0.0
 10
2.4052729609
 20
17.1683123929
 30
0.0
 10
2.3676248285
 20
17.2556535283
 30
0.0
 10
2.3120224386
 20
17.3302470422
 30
0.0
 10
2.2637863934
 20
17.3676790555
 30
0.0
 10
2.2385472571
 20
17.380153681
 30
0.0
 11
2.4153209608
 21
17.0752641422
 31
0.0
 11
2.40217818
 21
17.1650004652
 31
0.0
 11
2.36396904
 21
17.2544539441
 31
0.0
 11
2.3065090998
 21
17.3300052964
 31
0.0
 11
2.2385472571
 21
17.380153681
 31
0.0
  0
SPLINE
  5
3DC
100
AcDbEntity
  8
RACCORDO
100
AcDbSpline
 62
253
  6
CONTINUOUS
 70
0
 71
3
 72
11
 73
7
 74
5
 42
0.0000001
 43
0.0000001
 44
0.0000000001
 12
-0.1022732405
 22
0.0517308258
 32
0.0
 13
-0.1030347895
 23
-0.0501968744
 33
0.0
 40
0.0
 40
0.0
 40
0.0
 40
0.0
 40
0.2789499081
 40
0.5349528633
 40
0.7726365704
 40
1.0
 40
1.0
 40
1.0
 40
1.0
 10
0.9012210965
 20
18.0488167613
 30
0.0
 10
0.8917113929
 20
18.0536268643
 30
0.0
 10
0.8726828882
 20
18.0614286616
 30
0.0
 10
0.8434830351
 20
18.0670865956
 30
0.0
 10
0.815680865
 20
18.0658928152
 30
0.0
 10
0.7985179056
 20
18.0603555779
 30
0.0
 10
0.7907091246
 20
18.0565512667
 30
0.0
 11
0.9012210965
 21
18.0488167613
 31
0.0
 11
0.8715434409
 21
18.0607071251
 31
0.0
 11
0.8426890963
 21
18.0660288378
 31
0.0
 11
0.8154836255
 21
18.0646304194
 31
0.0
 11
0.7907091246
 21
18.0565512667
 31
0.0
  0
SPLINE
  5
3DD
100
AcDbEntity
  8
RACCORDO
100
AcDbSpline
 62
7
  6
CONTINUOUS
 70
0
 71
3
 72
11
 73
7
 74
5
 42
0.0000001
 43
0.0000001
 44
0.0000000001
 12
-0.1028463418
 22
0.0514231709
 32
0.0
 13
-0.1033748983
 23
-0.0503521891
 33
0.0
 40
0.0
 40
0.0
 40
0.0
 40
0.0
 40
0.2790833933
 40
0.5352290697
 40
0.7729212505
 40
1.0
 40
1.0
 40
1.0
 40
1.0
 10
0.3667712178
 20
17.7884692947
 30
0.0
 10
0.3572036492
 20
17.7932530791
 30
0.0
 10
0.3380721357
 20
17.8010038115
 30
0.0
 10
0.3087531572
 20
17.8065976349
 30
0.0
 10
0.2808703877
 20
17.805363878
 30
0.0
 10
0.2636638493
 20
17.7998106118
 30
0.0
 10
0.2558391018
 20
17.7959993077
 30
0.0
 11
0.3667712178
 21
17.7884692947
 31
0.0
 11
0.3369338138
 21
17.8002818299
 31
0.0
 11
0.3079543005
 21
17.8055422861
 31
0.0
 11
0.2806611103
 21
17.8041013017
 31
0.0
 11
0.2558391018
 21
17.7959993077
 31
0.0
  0
SPLINE
  5
3DE
100
AcDbEntity
  8
RACCORDO
100
AcDbSpline
 62
253
  6
CONTINUOUS
 70
0
 71
3
 72
11
 73
7
 74
5
 42
0.0000001
 43
0.0000001
 44
0.0000000001
 12
-0.1051440438
 22
0.0519595372
 32
0.0
 13
-0.1043498228
 23
-0.0535366971
 33
0.0
 40
0.0
 40
0.0
 40
0.0
 40
0.0
 40
0.2795161735
 40
0.5356960478
 40
0.773144514
 40
1.0
 40
1.0
 40
1.0
 40
1.0
 10
-1.2159853853
 20
16.9764851974
 30
0.0
 10
-1.2257818722
 20
16.9813263744
 30
0.0
 10
-1.24535966
 20
16.9891307967
 30
0.0
 10
-1.2753280214
 20
16.9945835943
 30
0.0
 10
-1.3037433721
 20
16.9929612834
 30
0.0
 10
-1.3211800934
 20
16.9869811979
 30
0.0
 10
-1.32907087
 20
16.9829328334
 30
0.0
 11
-1.2159853853
 21
16.9764851974
 31
0.0
 11
-1.2465355987
 21
16.9883745969
 31
0.0
 11
-1.2761441699
 21
16.9934786712
 31
0.0
 11
-1.3039322841
 21
16.9916468446
 31
0.0
 11
-1.32907087
 21
16.9829328334
 31
0.0
  0
SPLINE
  5
3DF
100
AcDbEntity
  8
RACCORDO
100
AcDbSpline
 62
253
  6
CONTINUOUS
 70
0
 71
3
 72
11
 73
7
 74
5
 42
0.0000001
 43
0.0000001
 44
0.0000000001
 12
-0.1076200259
 22
0.053810013
 32
0.0
 13
0.0000008147
 23
0.1203228468
 33
0.0
 40
0.0
 40
0.0
 40
0.0
 40
0.0
 40
0.3025814593
 40
0.565482116
 40
0.7934320761
 40
1.0
 40
1.0
 40
1.0
 40
1.0
 10
-1.3917336413
 20
16.6721083824
 30
0.0
 10
-1.4025882494
 20
16.6775356865
 30
0.0
 10
-1.4222066505
 20
16.6891753722
 30
0.0
 10
-1.4460179898
 20
16.710695889
 30
0.0
 10
-1.461297225
 20
16.7346500908
 30
0.0
 10
-1.4649569997
 20
16.752211447
 30
0.0
 10
-1.4649569436
 20
16.7604963939
 30
0.0
 11
-1.3917336413
 21
16.6721083824
 31
0.0
 11
-1.4228251481
 21
16.6910509676
 31
0.0
 11
-1.4459259955
 21
16.7126610282
 31
0.0
 11
-1.4601530053
 21
16.736110224
 31
0.0
 11
-1.4649569436
 21
16.7604963939
 31
0.0
  0
SPLINE
  5
3E0
100
AcDbEntity
  8
RACCORDO
100
AcDbSpline
 62
253
  6
CONTINUOUS
 70
0
 71
3
 72
11
 73
7
 74
5
 42
0.0000001
 43
0.0000001
 44
0.0000000001
 12
-0.1076203225
 22
0.0538101613
 32
0.0
 13
0.0000013829
 23
0.1203231785
 33
0.0
 40
0.0
 40
0.0
 40
0.0
 40
0.0
 40
0.3025823249
 40
0.5654825874
 40
0.7934322572
 40
1.0
 40
1.0
 40
1.0
 40
1.0
 10
-1.3917336413
 20
16.3321344483
 30
0.0
 10
-1.4025883104
 20
16.3375617829
 30
0.0
 10
-1.4222067835
 20
16.3492015133
 30
0.0
 10
-1.4460181537
 20
16.3707221408
 30
0.0
 10
-1.4612973507
 20
16.3946764257
 30
0.0
 10
-1.4649570391
 20
16.4122378335
 30
0.0
 10
-1.4649569439
 20
16.4205227959
 30
0.0
 11
-1.3917336413
 21
16.3321344483
 31
0.0
 11
-1.4228253143
 21
16.3510771539
 31
0.0
 11
-1.4459261508
 21
16.3726872842
 31
0.0
 11
-1.460153111
 21
16.3961365577
 31
0.0
 11
-1.4649569439
 21
16.4205227959
 31
0.0
  0
SPLINE
  5
3E1
100
AcDbEntity
  8
RACCORDO
100
AcDbSpline
 62
253
  6
CONTINUOUS
 70
0
 71
3
 72
11
 73
7
 74
5
 42
0.0000001
 43
0.0000001
 44
0.0000000001
 12
-0.1076143396
 22
0.0538071698
 32
0.0
 13
-0.0000116247
 23
0.1203164888
 33
0.0
 40
0.0
 40
0.0
 40
0.0
 40
0.0
 40
0.3025789318
 40
0.5654800689
 40
0.7934320357
 40
1.0
 40
1.0
 40
1.0
 40
1.0
 10
-1.3917336413
 20
-25.3074436252
 30
0.0
 10
-1.4025875853
 20
-25.3020166532
 30
0.0
 10
-1.4222049114
 20
-25.2903777162
 30
0.0
 10
-1.446015391
 20
-25.268858852
 30
0.0
 10
-1.4612949792
 20
-25.2449066615
 30
0.0
 10
-1.4649561429
 20
-25.2273465743
 30
0.0
 10
-1.4649569433
 20
-25.2190620636
 30
0.0
 11
-1.3917336413
 21
-25.3074436252
 31
0.0
 11
-1.4228233564
 21
-25.2885023808
 31
0.0
 11
-1.4459235271
 21
-25.2668939589
 31
0.0
 11
-1.4601511174
 21
-25.243446528
 31
0.0
 11
-1.4649569433
 21
-25.2190620636
 31
0.0
  0
SPLINE
  5
3E2
100
AcDbEntity
  8
RACCORDO
100
AcDbSpline
 62
253
  6
CONTINUOUS
 70
0
 71
3
 72
11
 73
7
 74
5
 42
0.0000001
 43
0.0000001
 44
0.0000000001
 12
0.0
 22
0.2523287194
 32
0.0
 13
0.1609736043
 23
0.1943123294
 33
0.0
 40
0.0
 40
0.0
 40
0.0
 40
0.0
 40
0.2352285381
 40
0.4870811593
 40
0.7456475008
 40
1.0
 40
1.0
 40
1.0
 40
1.0
 10
-0.0667489615
 20
-25.629962031
 30
0.0
 10
-0.0667489615
 20
-25.6101770591
 30
0.0
 10
-0.0622181417
 20
-25.5691517142
 30
0.0
 10
-0.0444685096
 20
-25.5087219368
 30
0.0
 10
-0.0166440926
 20
-25.4504408615
 30
0.0
 10
0.0079913733
 20
-25.414742466
 30
0.0
 10
0.0216393862
 20
-25.3982678572
 30
0.0
 11
-0.0667489615
 21
-25.629962031
 31
0.0
 11
-0.0607253115
 21
-25.5709135622
 31
0.0
 11
-0.043065216
 21
-25.5098670311
 31
0.0
 11
-0.0149726121
 21
-25.4509811431
 31
0.0
 11
0.0216393862
 21
-25.3982678572
 31
0.0
  0
SPLINE
  5
3E3
100
AcDbEntity
  8
RACCORDO
100
AcDbSpline
 62
253
  6
CONTINUOUS
 70
0
 71
3
 72
13
 73
9
 74
7
 42
0.0000001
 43
0.0000001
 44
0.0000000001
 12
0.3242438587
 22
-0.1621219294
 32
0.0
 13
0.3249922966
 23
0.1606163349
 33
0.0
 40
0.0
 40
0.0
 40
0.0
 40
0.0
 40
0.1125245594
 40
0.2354259647
 40
0.4995815213
 40
0.7639633273
 40
0.8871315091
 40
1.0
 40
1.0
 40
1.0
 40
1.0
 10
-0.0667489615
 20
-25.629962031
 30
0.0
 10
-0.0545871623
 20
-25.6360429306
 30
0.0
 10
-0.0280904092
 20
-25.6467070469
 30
0.0
 10
0.0303995353
 20
-25.6620943576
 30
0.0
 10
0.1093243748
 20
-25.66955434
 30
0.0
 10
0.1882992731
 20
-25.662313936
 30
0.0
 10
0.2469385368
 20
-25.6471010777
 30
0.0
 10
0.2735458682
 20
-25.636517596
 30
0.0
 10
0.2857729982
 20
-25.6304747548
 30
0.0
 11
-0.0667489615
 21
-25.629962031
 31
0.0
 11
-0.0290146833
 21
-25.6454573376
 31
0.0
 11
0.0140208937
 21
-25.6569885914
 31
0.0
 11
0.1093005569
 21
-25.6665731546
 31
0.0
 11
0.2046901164
 21
-25.657265895
 31
0.0
 11
0.2478591277
 21
-25.6458600128
 31
0.0
 11
0.2857729982
 21
-25.6304747548
 31
0.0
  0
SPLINE
  5
3E4
100
AcDbEntity
  8
RACCORDO
100
AcDbSpline
 62
253
  6
CONTINUOUS
 70
0
 71
3
 72
13
 73
9
 74
7
 42
0.0000001
 43
0.0000001
 44
0.0000000001
 12
0.3242438585
 22
-0.1621219293
 32
0.0
 13
0.3249922964
 23
0.1606163348
 33
0.0
 40
0.0
 40
0.0
 40
0.0
 40
0.0
 40
0.1125245899
 40
0.2354260292
 40
0.4995816495
 40
0.7639634918
 40
0.8871317035
 40
1.0
 40
1.0
 40
1.0
 40
1.0
 10
-0.0667489615
 20
-25.9699359651
 30
0.0
 10
-0.0545871591
 20
-25.9760168663
 30
0.0
 10
-0.0280903985
 20
-25.9866809852
 30
0.0
 10
0.030399562
 20
-26.0020682967
 30
0.0
 10
0.109324418
 20
-26.0095282744
 30
0.0
 10
0.1882993323
 20
-26.0022878643
 30
0.0
 10
0.2469385772
 20
-25.9870749949
 30
0.0
 10
0.2735458892
 20
-25.9764915197
 30
0.0
 10
0.2857729982
 20
-25.970448689
 30
0.0
 11
-0.0667489615
 21
-25.9699359651
 31
0.0
 11
-0.0290146729
 21
-25.9854312753
 31
0.0
 11
0.0140209166
 21
-25.9969625301
 31
0.0
 11
0.1093006034
 21
-26.0065470888
 31
0.0
 11
0.2046901749
 21
-25.9972398177
 31
0.0
 11
0.2478591943
 21
-25.9858339235
 31
0.0
 11
0.2857729982
 21
-25.970448689
 31
0.0
  0
SPLINE
  5
3E5
100
AcDbEntity
  8
RACCORDO
100
AcDbSpline
 62
253
  6
CONTINUOUS
 70
0
 71
3
 72
11
 73
7
 74
5
 42
0.0000001
 43
0.0000001
 44
0.0000000001
 12
0.0
 22
-0.1574238334
 32
0.0
 13
0.1407964518
 23
-0.0704174871
 33
0.0
 40
0.0
 40
0.0
 40
0.0
 40
0.0
 40
0.2897495234
 40
0.549584515
 40
0.7828462997
 40
1.0
 40
1.0
 40
1.0
 40
1.0
 10
-0.0667489615
 20
-25.9699359651
 30
0.0
 10
-0.0667489615
 20
-25.9851404587
 30
0.0
 10
-0.0642954924
 20
-26.0140894017
 30
0.0
 10
-0.0519227621
 20
-26.0536819742
 30
0.0
 10
-0.0312592124
 20
-26.0853811685
 30
0.0
 10
-0.0119730113
 20
-26.1000539755
 30
0.0
 10
-0.0017815211
 20
-26.1051511148
 30
0.0
 11
-0.0667489615
 21
-25.9699359651
 31
0.0
 11
-0.0624295555
 21
-26.0153444704
 31
0.0
 11
-0.0496833287
 21
-26.0542120527
 31
0.0
 11
-0.0291325243
 21
-26.0846438397
 31
0.0
 11
-0.0017815211
 21
-26.1051511148
 31
0.0
  0
SPLINE
  5
3E6
100
AcDbEntity
  8
RACCORDO
100
AcDbSpline
 62
253
  6
CONTINUOUS
 70
0
 71
3
 72
11
 73
7
 74
5
 42
0.0000001
 43
0.0000001
 44
0.0000000001
 12
0.0
 22
-0.1574304607
 32
0.0
 13
0.1408074022
 23
-0.0704104071
 33
0.0
 40
0.0
 40
0.0
 40
0.0
 40
0.0
 40
0.2897508691
 40
0.5495855602
 40
0.7828462233
 40
1.0
 40
1.0
 40
1.0
 40
1.0
 10
-1.3917336413
 20
-25.3074436252
 30
0.0
 10
-1.3917336413
 20
-25.3226488295
 30
0.0
 10
-1.389279951
 20
-25.3515990589
 30
0.0
 10
-1.3769060293
 20
-25.3911931393
 30
0.0
 10
-1.3562404337
 20
-25.4228929257
 30
0.0
 10
-1.336952483
 20
-25.4375651502
 30
0.0
 10
-1.3267601966
 20
-25.4426617788
 30
0.0
 11
-1.3917336413
 21
-25.3074436252
 31
0.0
 11
-1.3874138097
 21
-25.3528542317
 31
0.0
 11
-1.374666348
 21
-25.3917231715
 31
0.0
 11
-1.3541136186
 21
-25.4221553108
 31
0.0
 11
-1.3267601966
 21
-25.4426617788
 31
0.0
  0
SPLINE
  5
3E7
100
AcDbEntity
  8
RACCORDO
100
AcDbSpline
 62
253
  6
CONTINUOUS
 70
0
 71
3
 72
11
 73
7
 74
5
 42
0.0000001
 43
0.0000001
 44
0.0000000001
 12
0.0
 22
-0.1574304972
 32
0.0
 13
0.1408119364
 23
-0.0704014205
 33
0.0
 40
0.0
 40
0.0
 40
0.0
 40
0.0
 40
0.289749639
 40
0.5495875602
 40
0.7828489991
 40
1.0
 40
1.0
 40
1.0
 40
1.0
 10
-1.3917336413
 20
16.3321344483
 30
0.0
 10
-1.3917336413
 20
16.316929305
 30
0.0
 10
-1.3892797798
 20
16.2879790816
 30
0.0
 10
-1.3769064064
 20
16.2483843929
 30
0.0
 10
-1.3562395798
 20
16.2166857531
 30
0.0
 10
-1.3369528604
 20
16.2020118435
 30
0.0
 10
-1.3267603761
 20
16.1969159305
 30
0.0
 11
-1.3917336413
 21
16.3321344483
 31
0.0
 11
-1.3874138312
 21
16.2867240236
 31
0.0
 11
-1.374666342
 21
16.2478545477
 31
0.0
 11
-1.3541131265
 21
16.2174225791
 31
0.0
 11
-1.3267603761
 21
16.1969159305
 31
0.0
  0
SPLINE
  5
3E8
100
AcDbEntity
  8
RACCORDO
100
AcDbSpline
 62
253
  6
CONTINUOUS
 70
0
 71
3
 72
11
 73
7
 74
5
 42
0.0000001
 43
0.0000001
 44
0.0000000001
 12
0.0
 22
-0.1574304972
 32
0.0
 13
0.1408119364
 23
-0.0704014205
 33
0.0
 40
0.0
 40
0.0
 40
0.0
 40
0.0
 40
0.289749639
 40
0.5495875602
 40
0.7828489991
 40
1.0
 40
1.0
 40
1.0
 40
1.0
 10
-0.0667489615
 20
15.6696421084
 30
0.0
 10
-0.0667489615
 20
15.6544369651
 30
0.0
 10
-0.0642951
 20
15.6254867417
 30
0.0
 10
-0.0519217266
 20
15.585892053
 30
0.0
 10
-0.0312549
 20
15.5541934132
 30
0.0
 10
-0.0119681806
 20
15.5395195036
 30
0.0
 10
-0.0017756962
 20
15.5344235906
 30
0.0
 11
-0.0667489615
 21
15.6696421084
 31
0.0
 11
-0.0624291514
 21
15.6242316837
 31
0.0
 11
-0.0496816622
 21
15.5853622078
 31
0.0
 11
-0.0291284467
 21
15.5549302392
 31
0.0
 11
-0.0017756962
 21
15.5344235906
 31
0.0
  0
SPLINE
  5
3E9
100
AcDbEntity
  8
RACCORDO
100
AcDbSpline
 62
7
  6
CONTINUOUS
 70
0
 71
3
 72
9
 73
5
 74
3
 42
0.0000001
 43
0.0000001
 44
0.0000000001
 12
-0.1029438807
 22
-0.0575384424
 32
0.0
 13
-0.1162019051
 23
-0.0201303799
 33
0.0
 40
0.0
 40
0.0
 40
0.0
 40
0.0
 40
0.4764818357
 40
1.0
 40
1.0
 40
1.0
 40
1.0
 10
0.9969936063
 20
14.7121250377
 30
0.0
 10
0.9806433099
 20
14.7029863635
 30
0.0
 10
0.9440451045
 20
14.6878318648
 30
0.0
 10
0.9056245998
 20
14.6789541684
 30
0.0
 10
0.8853466638
 20
14.6754412952
 30
0.0
 11
0.9969936063
 21
14.7121250377
 31
0.0
 11
0.9453528241
 21
14.6899697302
 31
0.0
 11
0.8853466638
 21
14.6754412952
 31
0.0
  0
SPLINE
  5
3EA
100
AcDbEntity
  8
RACCORDO
100
AcDbSpline
 62
253
  6
CONTINUOUS
 70
0
 71
3
 72
13
 73
9
 74
7
 42
0.0000001
 43
0.0000001
 44
0.0000000001
 12
-0.1069170157
 22
-0.2783410717
 32
0.0
 13
-0.2918756657
 23
0.0609392829
 33
0.0
 40
0.0
 40
0.0
 40
0.0
 40
0.0
 40
0.2769974725
 40
0.5361985654
 40
0.6582146203
 40
0.7753291389
 40
0.8886899808
 40
1.0
 40
1.0
 40
1.0
 40
1.0
 10
0.2857729982
 20
15.6691293845
 30
0.0
 10
0.2759010838
 20
15.6434294601
 30
0.0
 10
0.2501640979
 20
15.5958943907
 30
0.0
 10
0.2028375594
 20
15.5489892728
 30
0.0
 10
0.1595564941
 20
15.5243894189
 30
0.0
 10
0.1261568929
 20
15.5130593936
 30
0.0
 10
0.092198946
 20
15.5089017779
 30
0.0
 10
0.069759131
 20
15.5110470788
 30
0.0
 10
0.058929569
 20
15.5133081297
 30
0.0
 11
0.2857729982
 21
15.6691293845
 31
0.0
 11
0.2458895646
 21
15.5968052598
 31
0.0
 11
0.1903389012
 21
15.5430723592
 31
0.0
 11
0.1586388802
 21
15.5252196565
 31
0.0
 11
0.1255273728
 21
15.5141276678
 31
0.0
 11
0.0919652142
 21
15.5101187693
 31
0.0
 11
0.058929569
 21
15.5133081297
 31
0.0
  0
SPLINE
  5
3EB
100
AcDbEntity
  8
RACCORDO
100
AcDbSpline
 62
253
  6
CONTINUOUS
 70
0
 71
3
 72
13
 73
9
 74
7
 42
0.0000001
 43
0.0000001
 44
0.0000000001
 12
0.1276934635
 22
0.3370670904
 32
0.0
 13
-0.3225548801
 23
0.1608670051
 33
0.0
 40
0.0
 40
0.0
 40
0.0
 40
0.0
 40
0.2701264394
 40
0.5327826693
 40
0.6577241283
 40
0.7769941193
 40
0.8907279222
 40
1.0
 40
1.0
 40
1.0
 40
1.0
 10
2.4153209608
 20
-24.5718715139
 30
0.0
 10
2.4268187543
 20
-24.5415212696
 30
0.0
 10
2.4403023893
 20
-24.4777945751
 30
0.0
 10
2.4325134621
 20
-24.3976761759
 30
0.0
 10
2.4110994817
 20
-24.3403432688
 30
0.0
 10
2.3886003605
 20
-24.30334999
 30
0.0
 10
2.3602194399
 20
-24.273163198
 30
0.0
 10
2.3376559127
 20
-24.2581641319
 30
0.0
 10
2.3259071654
 20
-24.2523047079
 30
0.0
 11
2.4153209608
 21
-24.5718715139
 31
0.0
 11
2.4354034685
 21
-24.4765996809
 31
0.0
 11
2.4254707646
 21
-24.3824493228
 31
0.0
 11
2.4095425393
 21
-24.3403258348
 31
0.0
 11
2.3870275558
 21
-24.3037030513
 31
0.0
 11
2.3587902698
 21
-24.2739840682
 31
0.0
 11
2.3259071654
 21
-24.2523047079
 31
0.0
  0
SPLINE
  5
3EC
100
AcDbEntity
  8
RACCORDO
100
AcDbSpline
 62
253
  6
CONTINUOUS
 70
0
 71
3
 72
13
 73
9
 74
7
 42
0.0000001
 43
0.0000001
 44
0.0000000001
 12
-0.1868382045
 22
0.3017261023
 32
0.0
 13
-0.3164708648
 23
0.1606030733
 33
0.0
 40
0.0
 40
0.0
 40
0.0
 40
0.0
 40
0.1018788417
 40
0.2189946503
 40
0.483012367
 40
0.7559759138
 40
0.8838496473
 40
1.0
 40
1.0
 40
1.0
 40
1.0
 10
0.2857729982
 20
-25.6304747548
 30
0.0
 10
0.2794280449
 20
-25.6202282529
 30
0.0
 10
0.2644133648
 20
-25.5990523065
 30
0.0
 10
0.2276078541
 20
-25.5552946616
 30
0.0
 10
0.1719757515
 20
-25.5012367153
 30
0.0
 10
0.1101642396
 20
-25.4523512809
 30
0.0
 10
0.0590478975
 20
-25.4187159249
 30
0.0
 10
0.0338921204
 20
-25.4044858917
 30
0.0
 10
0.0216393862
 20
-25.3982678572
 30
0.0
 11
0.2857729982
 21
-25.6304747548
 31
0.0
 11
0.2650960313
 21
-25.6008149142
 31
0.0
 11
0.2384832134
 21
-25.568889011
 31
0.0
 11
0.1717087563
 21
-25.5031595426
 31
0.0
 11
0.0955778845
 21
-25.4432571278
 31
0.0
 11
0.0576064035
 21
-25.4184052527
 31
0.0
 11
0.0216393862
 21
-25.3982678572
 31
0.0
  0
SPLINE
  5
3ED
100
AcDbEntity
  8
RACCORDO
100
AcDbSpline
 62
7
  6
CONTINUOUS
 70
0
 71
3
 72
13
 73
9
 74
7
 42
0.0000001
 43
0.0000001
 44
0.0000000001
 12
-0.3676034061
 22
0.0767624926
 32
0.0
 13
-0.3358865814
 23
0.1679432907
 33
0.0
 40
0.0
 40
0.0
 40
0.0
 40
0.0
 40
0.0966834289
 40
0.2082492961
 40
0.4660034111
 40
0.7454687051
 40
0.8795048358
 40
1.0
 40
1.0
 40
1.0
 40
1.0
 10
0.9969936063
 20
-24.7789782777
 30
0.0
 10
0.9851465537
 20
-24.7765043907
 30
0.0
 10
0.9597719677
 20
-24.7704878336
 30
0.0
 10
0.9035305129
 20
-24.7549770644
 30
0.0
 10
0.826259966
 20
-24.7298413257
 30
0.0
 10
0.7476704167
 20
-24.7000012766
 30
0.0
 10
0.6862219562
 20
-24.673660198
 30
0.0
 10
0.6574483212
 20
-24.6599538911
 30
0.0
 10
0.6439574183
 20
-24.6532084397
 30
0.0
 11
0.9969936063
 21
-24.7789782777
 31
0.0
 11
0.96163734
 21
-24.7707205912
 31
0.0
 11
0.921227356
 21
-24.7596589411
 31
0.0
 11
0.8290958208
 21
-24.7299761668
 31
0.0
 11
0.7310226238
 21
-24.6926157528
 31
0.0
 11
0.6848068458
 21
-24.6726731376
 31
0.0
 11
0.6439574183
 21
-24.6532084397
 31
0.0
  0
SPLINE
  5
3EE
100
AcDbEntity
  8
0
100
AcDbSpline
 62
253
  6
CONTINUOUS
 70
0
 71
3
 72
15
 73
11
 74
9
 42
0.0000001
 43
0.0000001
 44
0.0000000001
 12
-1.2577629753
 22
2.6970167437
 32
0.0
 13
1.9609302455
 23
2.2384413305
 33
0.0
 40
0.0
 40
0.0
 40
0.0
 40
0.0
 40
0.1477041039
 40
0.2919259791
 40
0.4305886815
 40
0.5619450597
 40
0.6847274899
 40
0.7983236544
 40
0.9029793646
 40
1.0
 40
1.0
 40
1.0
 40
1.0
 10
-13.8939010207
 20
-12.5692257269
 30
0.0
 10
-13.9558266051
 20
-12.4364389131
 30
0.0
 10
-14.0658701136
 20
-12.1680097687
 30
0.0
 10
-14.1885289698
 20
-11.7581479545
 30
0.0
 10
-14.2647206219
 20
-11.3535232057
 30
0.0
 10
-14.2924966511
 20
-10.9639070974
 30
0.0
 10
-14.2710584531
 20
-10.598590157
 30
0.0
 10
-14.2005374881
 20
-10.2661692716
 30
0.0
 10
-14.0821531554
 20
-9.9747663748
 30
0.0
 10
-13.9687612524
 20
-9.8074933311
 30
0.0
 10
-13.9053443529
 20
-9.7351016644
 30
0.0
 11
-13.8939010207
 21
-12.5692257269
 31
0.0
 11
-14.0603003244
 21
-12.1623899923
 31
0.0
 11
-14.1826912106
 21
-11.7510239073
 31
0.0
 11
-14.2580025164
 21
-11.3453109324
 31
0.0
 11
-14.2843438936
 21
-10.9552985321
 31
0.0
 11
-14.2610528149
 21
-10.5906557318
 31
0.0
 11
-14.1887136234
 21
-10.2604377221
 31
0.0
 11
-14.0691440947
 21
-9.9728619503
 31
0.0
 11
-13.9053443529
 21
-9.7351016644
 31
0.0
  0
SPLINE
  5
3EF
100
AcDbEntity
  8
0
100
AcDbSpline
 62
253
  6
CONTINUOUS
 70
0
 71
3
 72
15
 73
11
 74
9
 42
0.0000001
 43
0.0000001
 44
0.0000000001
 12
1.2857355882
 22
-2.8277256761
 32
0.0
 13
-2.0735839439
 23
-2.3128765919
 33
0.0
 40
0.0
 40
0.0
 40
0.0
 40
0.0
 40
0.1456427824
 40
0.2886344671
 40
0.4268144739
 40
0.5583148083
 40
0.6817193824
 40
0.7962481391
 40
0.9019671773
 40
1.0
 40
1.0
 40
1.0
 40
1.0
 10
-10.6881648096
 20
5.1705071466
 30
0.0
 10
-10.6257454402
 20
5.0332278682
 30
0.0
 10
-10.5155076163
 20
4.7547993884
 30
0.0
 10
-10.3951099408
 20
4.3287897465
 30
0.0
 10
-10.3232379325
 20
3.9066853775
 30
0.0
 10
-10.3017593259
 20
3.4992237523
 30
0.0
 10
-10.3313211084
 20
3.1166241211
 30
0.0
 10
-10.4115800234
 20
2.7683460074
 30
0.0
 10
-10.5410380162
 20
2.4632765814
 30
0.0
 10
-10.6628222695
 20
2.28844962
 30
0.0
 10
-10.7305820319
 20
2.2128703464
 30
0.0
 11
-10.6881648096
 21
5.1705071466
 31
0.0
 11
-10.5218326831
 21
4.749782028
 31
0.0
 11
-10.4016006441
 21
4.3221878886
 31
0.0
 11
-10.3305368525
 21
3.8988818269
 31
0.0
 11
-10.3104521037
 21
3.4908953815
 31
0.0
 11
-10.3418577286
 21
3.1088514473
 31
0.0
 11
-10.4239521086
 21
2.7626913512
 31
0.0
 11
-10.5546395397
 21
2.461419632
 31
0.0
 11
-10.7305820319
 21
2.2128703464
 31
0.0
  0
SPLINE
  5
3F0
100
AcDbEntity
  8
CORPO
100
AcDbSpline
 62
7
  6
CONTINUOUS
 70
0
 71
3
 72
21
 73
17
 74
15
 42
0.0000001
 43
0.0000001
 44
0.0000000001
 12
3.436934277
 22
1.7184671385
 32
0.0
 13
3.5333185783
 23
-1.5103994023
 33
0.0
 40
0.0
 40
0.0
 40
0.0
 40
0.0
 40
0.0543869528
 40
0.1115325626
 40
0.1711753915
 40
0.2330028844
 40
0.2966625807
 40
0.3617704398
 40
0.4946462033
 40
0.6282501555
 40
0.6942569719
 40
0.7591553548
 40
0.8225409294
 40
0.8840342996
 40
0.9432886625
 40
1.0
 40
1.0
 40
1.0
 40
1.0
 10
7.2197736559
 20
22.9404722343
 30
0.0
 10
7.2820817833
 20
22.9716262981
 30
0.0
 10
7.4123329258
 20
23.0306510862
 30
0.0
 10
7.6177658912
 20
23.1076560724
 30
0.0
 10
7.8366166291
 20
23.1747945069
 30
0.0
 10
8.0669875843
 20
23.2314819381
 30
0.0
 10
8.3069029465
 20
23.2772337752
 30
0.0
 10
8.6389542286
 20
23.3234192801
 30
0.0
 10
9.0634334104
 20
23.3512853135
 30
0.0
 10
9.4898064253
 20
23.3398639611
 30
0.0
 10
9.8271029289
 20
23.3068092824
 30
0.0
 10
10.0734100653
 20
23.2705156707
 30
0.0
 10
10.3118998896
 20
23.2229480288
 30
0.0
 10
10.5405232839
 20
23.1645142488
 30
0.0
 10
10.757296248
 20
23.0957242234
 30
0.0
 10
10.8959445174
 20
23.0420861715
 30
0.0
 10
10.9627375915
 20
23.0135339148
 30
0.0
 11
7.2197736559
 21
22.9404722343
 31
0.0
 11
7.4099679268
 21
23.0270865819
 31
0.0
 11
7.6154715075
 21
23.1044640949
 31
0.0
 11
7.8344996368
 21
23.1719328006
 31
0.0
 11
8.0651461844
 21
23.2289056421
 31
0.0
 11
8.305405111
 21
23.2748868496
 31
0.0
 11
8.5531864882
 21
23.3094766826
 31
0.0
 11
9.0626492949
 21
23.3433800602
 31
0.0
 11
9.5758477633
 21
23.3294387634
 31
0.0
 11
9.8282682677
 21
23.3046127405
 31
0.0
 11
10.0749653624
 21
23.2681367874
 31
0.0
 11
10.3137931519
 21
23.2203279627
 31
0.0
 11
10.5426744019
 21
23.1616023315
 31
0.0
 11
10.7596172498
 21
23.0924708629
 31
0.0
 11
10.9627375915
 21
23.0135339148
 31
0.0
  0
SPLINE
  5
3F1
100
AcDbEntity
  8
CORPO
100
AcDbSpline
 62
7
  6
CONTINUOUS
 70
0
 71
3
 72
9
 73
5
 74
3
 42
0.0000001
 43
0.0000001
 44
0.0000000001
 12
0.3584852534
 22
-0.2096535863
 32
0.0
 13
0.3036455901
 23
-0.2833119461
 33
0.0
 40
0.0
 40
0.0
 40
0.0
 40
0.0
 40
0.5192072931
 40
1.0
 40
1.0
 40
1.0
 40
1.0
 10
11.2668569755
 20
22.8614742228
 30
0.0
 10
11.3288996948
 20
22.8251896658
 30
0.0
 10
11.4453084326
 20
22.7498127864
 30
0.0
 10
11.5528862238
 20
22.6620859805
 30
0.0
 10
11.6015497522
 20
22.616681208
 30
0.0
 11
11.2668569755
 21
22.8614742228
 31
0.0
 11
11.4473996129
 21
22.7435879683
 31
0.0
 11
11.6015497522
 21
22.616681208
 31
0.0
  0
SPLINE
  5
3F2
100
AcDbEntity
  8
CORPO
100
AcDbSpline
 62
253
  6
CONTINUOUS
 70
0
 71
3
 72
11
 73
7
 74
5
 42
0.0000001
 43
0.0000001
 44
0.0000000001
 12
0.0801403406
 22
0.0383569348
 32
0.0
 13
0.0800853416
 23
-0.0384716351
 33
0.0
 40
0.0
 40
0.0
 40
0.0
 40
0.0
 40
0.2780038676
 40
0.533887183
 40
0.7720591483
 40
1.0
 40
1.0
 40
1.0
 40
1.0
 10
-2.5303940959
 20
21.2609926233
 30
0.0
 10
-2.5229676543
 20
21.2645470821
 30
0.0
 10
-2.5081295448
 20
21.2702785085
 30
0.0
 10
-2.4854543703
 20
21.2743048762
 30
0.0
 10
-2.4638970196
 20
21.2731962547
 30
0.0
 10
-2.4505710096
 20
21.2689110485
 30
0.0
 10
-2.4444861027
 20
21.2659879628
 30
0.0
 11
-2.5303940959
 21
21.2609926233
 31
0.0
 11
-2.507286448
 21
21.2697168718
 31
0.0
 11
-2.4848694858
 21
21.273502598
 31
0.0
 11
-2.4637458936
 21
21.2722485669
 31
0.0
 11
-2.4444861027
 21
21.2659879628
 31
0.0
  0
SPLINE
  5
3F3
100
AcDbEntity
  8
CORPO
100
AcDbSpline
 62
253
  6
CONTINUOUS
 70
0
 71
3
 72
20
 73
16
 74
14
 42
0.0000001
 43
0.0000001
 44
0.0000000001
 12
0.8989912937
 22
0.4151827375
 32
0.0
 13
0.8856916894
 23
-0.4428456649
 33
0.0
 40
0.0
 40
0.0
 40
0.0
 40
0.0
 40
0.0542519385
 40
0.1085293984
 40
0.1639930115
 40
0.2212577954
 40
0.3420049951
 40
0.4707857852
 40
0.6058082669
 40
0.6747333947
 40
0.7438326204
 40
0.8122776473
 40
0.8789025872
 40
0.9421118314
 40
1.0
 40
1.0
 40
1.0
 40
1.0
 10
-3.484907939
 20
21.1509868937
 30
0.0
 10
-3.4686505989
 20
21.1584950498
 30
0.0
 10
-3.4364309734
 20
21.1741599631
 30
0.0
 10
-3.3876708301
 20
21.1976685569
 30
0.0
 10
-3.3372945851
 20
21.2200872403
 30
0.0
 10
-3.2655913944
 20
21.2483912147
 30
0.0
 10
-3.1687594268
 20
21.278630973
 30
0.0
 10
-3.0442832122
 20
21.3044308824
 30
0.0
 10
-2.9348861195
 20
21.3162047164
 30
0.0
 10
-2.8447622353
 20
21.3188803054
 30
0.0
 10
-2.7765940008
 20
21.3170450876
 30
0.0
 10
-2.7094270639
 20
21.3109557874
 30
0.0
 10
-2.6447934027
 20
21.3001771897
 30
0.0
 10
-2.584785715
 20
21.2843524828
 30
0.0
 10
-2.5474844525
 20
21.2695377982
 30
0.0
 10
-2.5303940959
 20
21.2609926233
 30
0.0
 11
-3.484907939
 21
21.1509868937
 31
0.0
 11
-3.436426184
 21
21.1741295183
 31
0.0
 11
-3.3879077265
 21
21.1972538974
 31
0.0
 11
-3.3376886668
 21
21.219490425
 31
0.0
 11
-3.2849307653
 21
21.2402778564
 31
0.0
 11
-3.1708237369
 21
21.2759999679
 31
0.0
 11
-3.0459832849
 21
21.3020189026
 31
0.0
 11
-2.9130397268
 21
21.3162563987
 31
0.0
 11
-2.8448164647
 21
21.3182353897
 31
0.0
 11
-2.7764191326
 21
21.3163124945
 31
0.0
 11
-2.7089324831
 21
21.3100505077
 31
0.0
 11
-2.6438957455
 21
21.2989679721
 31
0.0
 11
-2.5834686475
 21
21.2826489086
 31
0.0
 11
-2.5303940959
 21
21.2609926233
 31
0.0
  0
SPLINE
  5
3F4
100
AcDbEntity
  8
CORPO
100
AcDbSpline
 62
7
  6
CONTINUOUS
 70
0
 71
3
 72
12
 73
8
 74
6
 42
0.0000001
 43
0.0000001
 44
0.0000000001
 12
-0.1965345802
 22
0.0943931079
 32
0.0
 13
-0.1979377356
 23
-0.0914141829
 33
0.0
 40
0.0
 40
0.0
 40
0.0
 40
0.0
 40
0.2874404394
 40
0.5468905141
 40
0.781655202
 40
0.8922773457
 40
1.0
 40
1.0
 40
1.0
 40
1.0
 10
-3.5239718598
 20
21.1344736137
 30
0.0
 10
-3.5428025218
 20
21.1435177458
 30
0.0
 10
-3.5799004734
 20
21.1583183356
 30
0.0
 10
-3.6358501764
 20
21.1699129233
 30
0.0
 10
-3.6802914052
 20
21.1692499152
 30
0.0
 10
-3.7125351352
 20
21.1621281254
 30
0.0
 10
-3.7274560534
 20
21.1565350646
 30
0.0
 10
-3.7345635128
 20
21.1532526051
 30
0.0
 11
-3.5239718598
 21
21.1344736137
 31
0.0
 11
-3.5823648343
 21
21.1572282165
 31
0.0
 11
-3.6378756205
 21
21.1681094117
 31
0.0
 11
-3.6890434794
 21
21.1667806481
 31
0.0
 11
-3.7125831641
 21
21.1615278058
 31
0.0
 11
-3.7345635128
 21
21.1532526051
 31
0.0
  0
SPLINE
  5
3F5
100
AcDbEntity
  8
CORPO
100
AcDbSpline
 62
7
  6
CONTINUOUS
 70
0
 71
3
 72
15
 73
11
 74
9
 42
0.0000001
 43
0.0000001
 44
0.0000000001
 12
0.0166369848
 22
1.2989573468
 32
0.0
 13
1.1578122364
 23
0.5890991457
 33
0.0
 40
0.0
 40
0.0
 40
0.0
 40
0.0
 40
0.1023257254
 40
0.2075917134
 40
0.3182299021
 40
0.4361590441
 40
0.5627244497
 40
0.6987289458
 40
0.8445054284
 40
1.0
 40
1.0
 40
1.0
 40
1.0
 10
5.7485585832
 20
22.5041842932
 30
0.0
 10
5.749126047
 20
22.5484898774
 30
0.0
 10
5.7590834009
 20
22.6384858057
 30
0.0
 10
5.7998726825
 20
22.7708643773
 30
0.0
 10
5.8659044754
 20
22.9001941336
 30
0.0
 10
5.956284259
 20
23.025258186
 30
0.0
 10
6.0700135498
 20
23.1450590687
 30
0.0
 10
6.2059853617
 20
23.25863103
 30
0.0
 10
6.3629338066
 20
23.365031559
 30
0.0
 10
6.4770522854
 20
23.4285982593
 30
0.0
 10
6.5370634579
 20
23.4591321658
 30
0.0
 11
5.7485585832
 21
22.5041842932
 31
0.0
 11
5.76298799
 21
22.6363264648
 31
0.0
 11
5.8027573933
 21
22.767163016
 31
0.0
 11
5.8674987188
 21
22.8954819371
 31
0.0
 11
5.9566118767
 21
23.0200946003
 31
0.0
 11
6.0692717916
 21
23.1398466137
 31
0.0
 11
6.2044343993
 21
23.2536287393
 31
0.0
 11
6.3608470897
 21
23.3603863606
 31
0.0
 11
6.5370634579
 21
23.4591321658
 31
0.0
  0
SPLINE
  5
3F6
100
AcDbEntity
  8
CORPO
100
AcDbSpline
 62
253
  6
CONTINUOUS
 70
0
 71
3
 72
11
 73
7
 74
5
 42
0.0000001
 43
0.0000001
 44
0.0000000001
 12
0.2032260456
 22
0.0938534411
 32
0.0
 13
0.1988172049
 23
-0.1028640513
 33
0.0
 40
0.0
 40
0.0
 40
0.0
 40
0.0
 40
0.227865012
 40
0.4657801273
 40
0.7216148631
 40
1.0
 40
1.0
 40
1.0
 40
1.0
 10
-3.7007176277
 20
21.1688836951
 30
0.0
 10
-3.6852815926
 20
21.1760123336
 30
0.0
 10
-3.6515319096
 20
21.1862256375
 30
0.0
 10
-3.5971755761
 20
21.1877927629
 30
0.0
 10
-3.5403193814
 20
21.1761049406
 30
0.0
 10
-3.5033571906
 20
21.160532168
 30
0.0
 10
-3.484907939
 20
21.1509868937
 30
0.0
 11
-3.7007176277
 21
21.1688836951
 31
0.0
 11
-3.6519404649
 21
21.1838030246
 31
0.0
 11
-3.5987192358
 21
21.1857695721
 31
0.0
 11
-3.5425245887
 21
21.1747293873
 31
0.0
 11
-3.484907939
 21
21.1509868937
 31
0.0
  0
SPLINE
  5
3F7
100
AcDbEntity
  8
CORPO
100
AcDbSpline
 62
7
  6
CONTINUOUS
 70
0
 71
3
 72
9
 73
5
 74
3
 42
0.0000001
 43
0.0000001
 44
0.0000000001
 12
0.3127597767
 22
-0.1336964582
 32
0.0
 13
0.2936117959
 23
-0.1717135235
 33
0.0
 40
0.0
 40
0.0
 40
0.0
 40
0.0
 40
0.2587618223
 40
1.0
 40
1.0
 40
1.0
 40
1.0
 10
10.9627375915
 20
23.0135339148
 30
0.0
 10
10.9897143548
 20
23.0020020684
 30
0.0
 10
11.0933266595
 20
22.955967377
 30
0.0
 10
11.1943115513
 20
22.9039010959
 30
0.0
 10
11.2668569755
 20
22.8614742228
 30
0.0
 11
10.9627375915
 21
23.0135339148
 31
0.0
 11
11.0431602468
 21
22.9777741659
 31
0.0
 11
11.2668569755
 21
22.8614742228
 31
0.0
  0
SPLINE
  5
3F8
100
AcDbEntity
  8
CORPO
100
AcDbSpline
 62
253
  6
CONTINUOUS
 70
0
 71
3
 72
13
 73
9
 74
7
 42
0.0000001
 43
0.0000001
 44
0.0000000001
 12
0.406411618
 22
0.1945175409
 32
0.0
 13
0.4029948776
 23
-0.2015008824
 33
0.0
 40
0.0
 40
0.0
 40
0.0
 40
0.0
 40
0.2779538961
 40
0.533510032
 40
0.6544091175
 40
0.7717159429
 40
0.8865065418
 40
1.0
 40
1.0
 40
1.0
 40
1.0
 10
18.6059734541
 20
21.9129669469
 30
0.0
 10
18.6436280183
 20
21.9309892496
 30
0.0
 10
18.7188424267
 20
21.9599611468
 30
0.0
 10
18.8165009943
 20
21.9768375319
 30
0.0
 10
18.8908217243
 20
21.9764327932
 30
0.0
 10
18.9435418132
 20
21.9695800019
 30
0.0
 10
18.9938425556
 20
21.9562025993
 30
0.0
 10
19.0256005585
 20
21.9429532564
 30
0.0
 10
19.0408463193
 20
21.9353302458
 30
0.0
 11
18.6059734541
 21
21.9129669469
 31
0.0
 11
18.7231949622
 21
21.9570480593
 31
0.0
 11
18.8368194782
 21
21.9756940297
 31
0.0
 11
18.8912906882
 21
21.9752889303
 31
0.0
 11
18.9436923009
 21
21.9683871324
 31
0.0
 11
18.9936599861
 21
21.9550366299
 31
0.0
 11
19.0408463193
 21
21.9353302458
 31
0.0
  0
SPLINE
  5
3F9
100
AcDbEntity
  8
CORPO
100
AcDbSpline
 62
253
  6
CONTINUOUS
 70
0
 71
3
 72
11
 73
7
 74
5
 42
0.0000001
 43
0.0000001
 44
0.0000000001
 12
-0.3570947129
 22
0.6239892882
 32
0.0
 13
-0.6448435076
 23
0.3178932469
 33
0.0
 40
0.0
 40
0.0
 40
0.0
 40
0.0
 40
0.2691312001
 40
0.5287222304
 40
0.7735798097
 40
1.0
 40
1.0
 40
1.0
 40
1.0
 10
19.1058973017
 20
21.4093906876
 30
0.0
 10
19.0738621921
 20
21.4653690162
 30
0.0
 10
19.0041529422
 20
21.571640085
 30
0.0
 10
18.8830735905
 20
21.7127475489
 30
0.0
 10
18.7510188502
 20
21.8287315726
 30
0.0
 10
18.654641984
 20
21.8889744637
 30
0.0
 10
18.6059734541
 20
21.9129669469
 30
0.0
 11
19.1058973017
 21
21.4093906876
 31
0.0
 11
18.9995150084
 21
21.5710112351
 31
0.0
 11
18.8775396034
 21
21.7122670443
 31
0.0
 11
18.7446572904
 21
21.8277309274
 31
0.0
 11
18.6059734541
 21
21.9129669469
 31
0.0
  0
SPLINE
  5
3FA
100
AcDbEntity
  8
CORPO
100
AcDbSpline
 62
253
  6
CONTINUOUS
 70
0
 71
3
 72
22
 73
18
 74
16
 42
0.0000001
 43
0.0000001
 44
0.0000000001
 12
0.3424315269
 22
0.1702540101
 32
0.0
 13
0.1918305654
 23
-0.3308274667
 33
0.0
 40
0.0
 40
0.0
 40
0.0
 40
0.0
 40
0.2167515325
 40
0.4106483752
 40
0.5793694025
 40
0.6536580509
 40
0.7209437503
 40
0.7810472027
 40
0.8338225627
 40
0.8791674128
 40
0.9170389541
 40
0.947488417
 40
0.9707530251
 40
0.9798955193
 40
0.9875835342
 40
0.9941216066
 40
1.0
 40
1.0
 40
1.0
 40
1.0
 10
19.1058973017
 20
21.4093906876
 30
0.0
 10
19.1306381544
 20
21.4216916268
 30
0.0
 10
19.1776717429
 20
21.4446767204
 30
0.0
 10
19.2445862458
 20
21.4759414214
 30
0.0
 10
19.2955586652
 20
21.4984018985
 30
0.0
 10
19.3321246645
 20
21.5134891388
 30
0.0
 10
19.3560695696
 20
21.5228522753
 30
0.0
 10
19.3776457763
 20
21.5307276452
 30
0.0
 10
19.3967880276
 20
21.5370945936
 30
0.0
 10
19.4134374638
 20
21.5419381098
 30
0.0
 10
19.4275540572
 20
21.5452587179
 30
0.0
 10
19.4390981267
 20
21.5470520748
 30
0.0
 10
19.447153807
 20
21.5473404013
 30
0.0
 10
19.4522274797
 20
21.5466062328
 30
0.0
 10
19.4550840335
 20
21.5456981398
 30
0.0
 10
19.4573093193
 20
21.5443660282
 30
0.0
 10
19.4583646525
 20
21.5431372823
 30
0.0
 10
19.4587405376
 20
21.5424890376
 30
0.0
 11
19.1058973017
 21
21.4093906876
 31
0.0
 11
19.1803992873
 21
21.445726073
 31
0.0
 11
19.2476153707
 21
21.4770350543
 31
0.0
 11
19.3067135229
 21
21.5029301417
 31
0.0
 11
19.332984446
 21
21.5137440347
 31
0.0
 11
19.3569589076
 21
21.5230892614
 31
0.0
 11
19.3785625437
 21
21.5309368606
 31
0.0
 11
19.3977280766
 21
21.5372623439
 31
0.0
 11
19.414396006
 21
21.5420460851
 31
0.0
 11
19.4285147323
 21
21.5452733297
 31
0.0
 11
19.4400402268
 21
21.5469339457
 31
0.0
 11
19.4489366569
 21
21.5470227575
 31
0.0
 11
19.4523901667
 21
21.5464775485
 31
0.0
 11
19.4551766017
 21
21.5455396145
 31
0.0
 11
19.4572938883
 21
21.544209736
 31
0.0
 11
19.4587405376
 21
21.5424890376
 31
0.0
  0
SPLINE
  5
3FB
100
AcDbEntity
  8
CORPO
100
AcDbSpline
 62
253
  6
CONTINUOUS
 70
0
 71
3
 72
22
 73
18
 74
16
 42
0.0000001
 43
0.0000001
 44
0.0000000001
 12
0.3424314959
 22
0.1702539948
 32
0.0
 13
0.1918021942
 23
-0.3308438762
 33
0.0
 40
0.0
 40
0.0
 40
0.0
 40
0.0
 40
0.216751721
 40
0.4106478887
 40
0.5793692778
 40
0.6536576675
 40
0.7209437436
 40
0.7810469897
 40
0.8338221726
 40
0.8791675159
 40
0.9170387579
 40
0.9474880929
 40
0.9707532204
 40
0.9798952986
 40
0.9875834199
 40
0.9941217001
 40
1.0
 40
1.0
 40
1.0
 40
1.0
 10
19.2200292659
 20
21.2125421675
 30
0.0
 10
19.244770138
 20
21.2248431163
 30
0.0
 10
19.2918036614
 20
21.2478281921
 30
0.0
 10
19.3587181603
 20
21.2790928463
 30
0.0
 10
19.4096904876
 20
21.3015533412
 30
0.0
 10
19.4462565588
 20
21.3166405572
 30
0.0
 10
19.47020143
 20
21.3260037431
 30
0.0
 10
19.4917776421
 20
21.3338790912
 30
0.0
 10
19.51091992
 20
21.3402459998
 30
0.0
 10
19.5275693245
 20
21.3450896052
 30
0.0
 10
19.5416859451
 20
21.3484102108
 30
0.0
 10
19.5532300194
 20
21.3502033768
 30
0.0
 10
19.5612857117
 20
21.3504920935
 30
0.0
 10
19.5663593851
 20
21.349757624
 30
0.0
 10
19.5692158853
 20
21.34884955
 30
0.0
 10
19.5714414044
 20
21.3475177014
 30
0.0
 10
19.572496576
 20
21.3462887618
 30
0.0
 10
19.5728723996
 20
21.3456404953
 30
0.0
 11
19.2200292659
 21
21.2125421675
 31
0.0
 11
19.2945313091
 21
21.2488775823
 31
0.0
 11
19.3617471573
 21
21.2801864415
 31
0.0
 11
19.4208454254
 21
21.3060815947
 31
0.0
 11
19.4471162591
 21
21.3168954382
 31
0.0
 11
19.4710908421
 21
21.3262407435
 31
0.0
 11
19.4926944077
 21
21.3340882997
 31
0.0
 11
19.5118598786
 21
21.3404137488
 31
0.0
 11
19.528527973
 21
21.3451975935
 31
0.0
 11
19.5426465947
 21
21.3484247759
 31
0.0
 11
19.5541720422
 21
21.3500853675
 31
0.0
 11
19.563068669
 21
21.3501742983
 31
0.0
 11
19.5665220011
 21
21.3496289859
 31
0.0
 11
19.5693084894
 21
21.3486910834
 31
0.0
 11
19.5714259255
 21
21.3473612941
 31
0.0
 11
19.5728723996
 21
21.3456404953
 31
0.0
  0
SPLINE
  5
3FC
100
AcDbEntity
  8
CORPO
100
AcDbSpline
 62
253
  6
CONTINUOUS
 70
0
 71
3
 72
11
 73
7
 74
5
 42
0.0000001
 43
0.0000001
 44
0.0000000001
 12
0.0043594642
 22
1.506145898
 32
0.0
 13
-0.7591376368
 23
1.3008476158
 33
0.0
 40
0.0
 40
0.0
 40
0.0
 40
0.0
 40
0.2342472426
 40
0.482518626
 40
0.7397297627
 40
1.0
 40
1.0
 40
1.0
 40
1.0
 10
19.6341797416
 20
19.7809085929
 30
0.0
 10
19.6345201391
 20
19.8985121007
 30
0.0
 10
19.6150635886
 20
20.1410687563
 30
0.0
 10
19.5340304855
 20
20.5045366022
 30
0.0
 10
19.4032734748
 20
20.8670756491
 30
0.0
 10
19.2858895769
 20
21.0996848616
 30
0.0
 10
19.2200292659
 20
21.2125421675
 30
0.0
 11
19.6341797416
 21
19.7809085929
 31
0.0
 11
19.6077572722
 21
20.1327297996
 31
0.0
 11
19.5275455781
 21
20.4979599851
 31
0.0
 11
19.3966261703
 21
20.86256688
 31
0.0
 11
19.2200292659
 21
21.2125421675
 31
0.0
  0
SPLINE
  5
3FD
100
AcDbEntity
  8
CORPO
100
AcDbSpline
 62
253
  6
CONTINUOUS
 70
0
 71
3
 72
15
 73
11
 74
9
 42
0.0000001
 43
0.0000001
 44
0.0000000001
 12
0.41625429
 22
0.2155219678
 32
0.0
 13
0.000007322
 23
0.4687401759
 33
0.0
 40
0.0
 40
0.0
 40
0.0
 40
0.0
 40
0.155372104
 40
0.3009898184
 40
0.4368323155
 40
0.5632656294
 40
0.6811336055
 40
0.791823174
 40
0.8972921729
 40
1.0
 40
1.0
 40
1.0
 40
1.0
 10
19.6341797416
 20
19.7809085929
 30
0.0
 10
19.6557378432
 20
19.7920706267
 30
0.0
 10
19.6967075652
 20
19.8152889708
 30
0.0
 10
19.7529702074
 20
19.8541009671
 30
0.0
 10
19.8016100701
 20
19.8954759997
 30
0.0
 10
19.842175266
 20
19.9390742255
 30
0.0
 10
19.8742711137
 20
19.9845457289
 30
0.0
 10
19.897540467
 20
20.03152872
 30
0.0
 10
19.9116658396
 20
20.0795792963
 30
0.0
 10
19.9148396714
 20
20.1121880571
 30
0.0
 10
19.9148399221
 20
20.1282358188
 30
0.0
 11
19.6341797416
 21
19.7809085929
 31
0.0
 11
19.697448229
 21
19.81698051
 31
0.0
 11
19.7535097201
 21
19.8559177665
 31
0.0
 11
19.8018500516
 21
19.8973628758
 31
0.0
 11
19.8420229136
 21
19.9409335903
 31
0.0
 11
19.8736588497
 21
19.9862289534
 31
0.0
 11
19.8964664538
 21
20.0328318489
 31
0.0
 11
19.9102357463
 21
20.0803131994
 31
0.0
 11
19.9148399221
 21
20.1282358188
 31
0.0
  0
SPLINE
  5
3FE
100
AcDbEntity
  8
CORPO
100
AcDbSpline
 62
253
  6
CONTINUOUS
 70
0
 71
3
 72
15
 73
11
 74
9
 42
0.0000001
 43
0.0000001
 44
0.0000000001
 12
0.4162551036
 22
0.215522389
 32
0.0
 13
0.0000055978
 23
0.4687410921
 33
0.0
 40
0.0
 40
0.0
 40
0.0
 40
0.0
 40
0.1553721606
 40
0.3009899034
 40
0.4368324021
 40
0.5632656954
 40
0.6811336372
 40
0.7918231713
 40
0.8972921532
 40
1.0
 40
1.0
 40
1.0
 40
1.0
 10
19.6341797416
 20
-10.5266028234
 30
0.0
 10
19.6557378932
 20
-10.5154407636
 30
0.0
 10
19.6967077051
 20
-10.492222364
 30
0.0
 10
19.7529704564
 20
-10.4534102656
 30
0.0
 10
19.8016103898
 20
-10.41203512
 30
0.0
 10
19.8421756153
 20
-10.3684367726
 30
0.0
 10
19.8742714487
 20
-10.3229651414
 30
0.0
 10
19.8975407415
 20
-10.2759820188
 30
0.0
 10
19.9116660052
 20
-10.2279313116
 30
0.0
 10
19.9148397305
 20
-10.1953224743
 30
0.0
 10
19.9148399221
 20
-10.1792746782
 30
0.0
 11
19.6341797416
 21
-10.5266028234
 31
0.0
 11
19.6974483721
 21
-10.4905308163
 31
0.0
 11
19.7535099704
 21
-10.451593457
 31
0.0
 11
19.80185037
 21
-10.4101482347
 31
0.0
 11
19.842023258
 21
-10.3665773998
 31
0.0
 11
19.873659176
 21
-10.321281912
 31
0.0
 11
19.8964667169
 21
-10.2746788905
 31
0.0
 11
19.9102359005
 21
-10.2271974162
 31
0.0
 11
19.9148399221
 21
-10.1792746782
 31
0.0
  0
SPLINE
  5
3FF
100
AcDbEntity
  8
CORPO
100
AcDbSpline
 62
253
  6
CONTINUOUS
 70
0
 71
3
 72
13
 73
9
 74
7
 42
0.0000001
 43
0.0000001
 44
0.0000000001
 12
0.7802331111
 22
0.7065491186
 32
0.0
 13
-0.0030558629
 23
1.0525996515
 33
0.0
 40
0.0
 40
0.0
 40
0.0
 40
0.0
 40
0.1083039682
 40
0.2201389012
 40
0.3364211607
 40
0.4578338989
 40
0.7173257517
 40
1.0
 40
1.0
 40
1.0
 40
1.0
 10
19.2871256092
 20
-11.4896531679
 30
0.0
 10
19.3152930565
 20
-11.4641458101
 30
0.0
 10
19.3689388312
 20
-11.4081811645
 30
0.0
 10
19.4388496487
 20
-11.3126984765
 30
0.0
 10
19.4987804102
 20
-11.2053650809
 30
0.0
 10
19.5662373898
 20
-11.0441460044
 30
0.0
 10
19.621647806
 20
-10.8164425661
 30
0.0
 10
19.6344676795
 20
-10.6257837618
 30
0.0
 10
19.6341797416
 20
-10.5266028234
 30
0.0
 11
19.2871256092
 21
-11.4896531679
 31
0.0
 11
19.3661663926
 21
-11.4075019168
 31
0.0
 11
19.4359326857
 21
-11.3126854091
 31
0.0
 11
19.495865134
 21
-11.2059630531
 31
0.0
 11
19.5454840094
 21
-11.0881891561
 31
0.0
 11
19.6122779262
 21
-10.8233397162
 31
0.0
 11
19.6341797416
 21
-10.5266028234
 31
0.0
  0
SPLINE
  5
400
100
AcDbEntity
  8
CORPO
100
AcDbSpline
 62
253
  6
CONTINUOUS
 70
0
 71
3
 72
13
 73
9
 74
7
 42
0.0000001
 43
0.0000001
 44
0.0000000001
 12
-0.4061175693
 22
0.2059523326
 32
0.0
 13
-0.4118537678
 23
-0.1942274885
 33
0.0
 40
0.0
 40
0.0
 40
0.0
 40
0.0
 40
0.2776481467
 40
0.5331430789
 40
0.6540879816
 40
0.7714793583
 40
0.8863824325
 40
1.0
 40
1.0
 40
1.0
 40
1.0
 10
5.4867801739
 20
28.472563587
 30
0.0
 10
5.4491942437
 20
28.4916243481
 30
0.0
 10
5.3739108502
 20
28.5225958855
 30
0.0
 10
5.2756653502
 20
28.5418360243
 30
0.0
 10
5.2005536329
 20
28.5431023531
 30
0.0
 10
5.1470946928
 20
28.5373683508
 30
0.0
 10
5.0959196411
 20
28.5249889524
 30
0.0
 10
5.0634933524
 20
28.5123224325
 30
0.0
 10
5.0478954113
 20
28.5049665476
 30
0.0
 11
5.4867801739
 21
28.472563587
 31
0.0
 11
5.3694819801
 21
28.5197363184
 31
0.0
 11
5.2551265524
 21
28.5411376793
 31
0.0
 11
5.2000598375
 21
28.5419578217
 31
0.0
 11
5.1469196253
 21
28.536167865
 31
0.0
 11
5.0960787575
 21
28.523808215
 31
0.0
 11
5.0478954113
 21
28.5049665476
 31
0.0
  0
SPLINE
  5
401
100
AcDbEntity
  8
CORPO
100
AcDbSpline
 62
253
  6
CONTINUOUS
 70
0
 71
3
 72
13
 73
9
 74
7
 42
0.0000001
 43
0.0000001
 44
0.0000000001
 12
0.4064116186
 22
0.1945175412
 32
0.0
 13
0.4029948914
 23
-0.2015008564
 33
0.0
 40
0.0
 40
0.0
 40
0.0
 40
0.0
 40
0.277953898
 40
0.5335100316
 40
0.6544091169
 40
0.7717159426
 40
0.8865065416
 40
1.0
 40
1.0
 40
1.0
 40
1.0
 10
5.4867801739
 20
28.472563587
 30
0.0
 10
5.5244347384
 20
28.4905858899
 30
0.0
 10
5.5996491468
 20
28.5195577875
 30
0.0
 10
5.6973077144
 20
28.5364341725
 30
0.0
 10
5.7716284443
 20
28.536029434
 30
0.0
 10
5.8243485332
 20
28.529176643
 30
0.0
 10
5.8746492761
 20
28.5157992412
 30
0.0
 10
5.9064072786
 20
28.5025498971
 30
0.0
 10
5.9216530399
 20
28.4949268874
 30
0.0
 11
5.4867801739
 21
28.472563587
 31
0.0
 11
5.6040016829
 21
28.5166447
 31
0.0
 11
5.717626198
 21
28.5352906704
 31
0.0
 11
5.7720974081
 21
28.5348855712
 31
0.0
 11
5.824499021
 21
28.5279837736
 31
0.0
 11
5.8744667064
 21
28.5146332713
 31
0.0
 11
5.9216530399
 21
28.4949268874
 31
0.0
  0
ELLIPSE
  5
402
100
AcDbEntity
  8
ASSI
100
AcDbEllipse
 62
7
  6
CONTINUOUS
 10
-3.4207487071
 20
23.9085043904
 30
0.0
 11
0.2257019663
 21
0.4461636818
 31
0.0
 40
0.6159267166
 41
0.5380090616
 42
0.6817883054
  0
ELLIPSE
  5
403
100
AcDbEntity
  8
RACCORDO
100
AcDbEllipse
 62
7
  6
CONTINUOUS
 10
7.1437568196
 20
18.7862619793
 30
0.0
 11
0.499996712
 21
0.0035883639
 31
0.0
 40
0.5053247124
 41
-0.7715714568
 42
-0.0036478305
  0
ELLIPSE
  5
404
100
AcDbEntity
  8
RACCORDO
100
AcDbEllipse
 62
7
  6
CONTINUOUS
 10
-8.752840371
 20
21.3859847217
 30
0.0
 11
0.4999985559
 21
0.0023864752
 31
0.0
 40
0.5035541159
 41
2.3596088132
 42
3.0002042076
  0
ELLIPSE
  5
405
100
AcDbEntity
  8
RACCORDO
100
AcDbEllipse
 62
7
  6
CONTINUOUS
 10
2.5941067141
 20
15.1226681003
 30
0.0
 11
-0.2237046003
 21
0.4472532382
 31
0.0
 40
0.6122950388
 41
-2.2557482655
 42
-0.6847996396
  0
ELLIPSE
  5
406
100
AcDbEntity
  8
RACCORDO
100
AcDbEllipse
 62
7
  6
CONTINUOUS
 10
2.5941067141
 20
-22.7940962302
 30
0.0
 11
-0.2236445579
 21
0.4471998343
 31
0.0
 40
0.6124778111
 41
-3.1448859382
 42
-2.255529033
  0
ELLIPSE
  5
407
100
AcDbEntity
  8
RACCORDO
100
AcDbEllipse
 62
7
  6
CONTINUOUS
 10
7.2355318475
 20
-18.2497993731
 30
0.0
 11
0.9927147821
 21
0.620457446
 31
0.0
 40
0.0764819879
 41
-2.4014426144
 42
-1.2129139391
  0
ELLIPSE
  5
408
100
AcDbEntity
  8
RACCORDO
100
AcDbEllipse
 62
7
  6
CONTINUOUS
 10
-4.3806630851
 20
24.4729656374
 30
0.0
 11
1.004787277
 21
0.6140102217
 31
0.0
 40
0.0864918533
 41
0.0543487872
 42
0.7299997
  0
ELLIPSE
  5
409
100
AcDbEntity
  8
RACCORDO
100
AcDbEllipse
 62
7
  6
CONTINUOUS
 10
7.2355318475
 20
18.6648681711
 30
0.0
 11
-0.7356038977
 21
1.2035991204
 31
0.0
 40
0.5552491559
 41
5.0442332552
 42
6.2327619305
  0
ELLIPSE
  5
40A
100
AcDbEntity
  8
RACCORDO
100
AcDbEllipse
 62
7
  6
CONTINUOUS
 10
7.1437568196
 20
-18.390428072
 30
0.0
 11
0.499443764
 21
0.3120915671
 31
0.0
 40
0.0755486457
 41
5.9820458935
 42
7.0039564932
  0
ELLIPSE
  5
40B
100
AcDbEntity
  8
ASSI
100
AcDbEllipse
 62
7
  6
CONTINUOUS
 10
2.7400835637
 20
20.828088255
 30
0.0
 11
0.221538876
 21
0.4482453432
 31
0.0
 40
0.6088015717
 41
0.5323082896
 42
0.6760875334
  0
ELLIPSE
  5
40C
100
AcDbEntity
  8
0
100
AcDbEllipse
 62
7
  6
CONTINUOUS
 10
-15.2241552626
 20
-8.8595294812
 30
0.0
 11
0.1360559951
 21
0.2673790137
 31
0.0
 40
0.6176975122
 41
0.6978040307
 42
0.7131328781
  0
ELLIPSE
  5
40D
100
AcDbEntity
  8
RACCORDO
100
AcDbEllipse
 62
7
  6
CONTINUOUS
 10
-8.752840371
 20
20.1533751165
 30
0.0
 11
0.4998587701
 21
0.0223649649
 31
0.0
 40
0.5313301283
 41
3.1178197826
 42
3.9032222197
  0
ELLIPSE
  5
40E
100
AcDbEntity
  8
DRAFT
100
AcDbEllipse
 62
7
  6
CONTINUOUS
 10
-3.0668938761
 20
22.9836552134
 30
0.0
 11
0.4279673669
 21
-0.0030279657
 31
0.0
 40
0.4946372042
 41
-0.7818985079
 42
0.0034334386
  0
ELLIPSE
  5
40F
100
AcDbEntity
  8
RACCORDO
100
AcDbEllipse
 62
7
  6
CONTINUOUS
 10
-3.2415332714
 20
17.3977215667
 30
0.0
 11
0.4998587701
 21
0.0223649649
 31
0.0
 40
0.5313301283
 41
-2.3799630874
 42
-0.8149845248
  0
ELLIPSE
  5
410
100
AcDbEntity
  8
RACCORDO
100
AcDbEllipse
 62
7
  6
CONTINUOUS
 10
-3.2415332714
 20
18.6303311719
 30
0.0
 11
0.4999985559
 21
0.0023864752
 31
0.0
 40
0.5035541159
 41
-1.4342147631
 42
-0.7936193687
  0
ELLIPSE
  5
411
100
AcDbEntity
  8
DRAFT
100
AcDbEllipse
 62
7
  6
CONTINUOUS
 10
2.488094553
 20
20.2061609988
 30
0.0
 11
0.4279673669
 21
-0.0030279657
 31
0.0
 40
0.4946372042
 41
-0.7760807437
 42
0.0034304302
  0
ELLIPSE
  5
412
100
AcDbEntity
  8
RACCORDO
100
AcDbEllipse
 62
7
  6
CONTINUOUS
 10
-13.8762821561
 20
22.150726072
 30
0.0
 11
0.249929385
 21
0.0111824824
 31
0.0
 40
0.5313301283
 41
3.1179086008
 42
3.9032222197
  0
ELLIPSE
  5
413
100
AcDbEntity
  8
RACCORDO
100
AcDbEllipse
 62
7
  6
CONTINUOUS
 10
-12.5430698225
 20
21.4841199052
 30
0.0
 11
0.249929385
 21
0.0111824824
 31
0.0
 40
0.5313301283
 41
-2.3799630874
 42
-0.8149845248
  0
ELLIPSE
  5
414
100
AcDbEntity
  8
RACCORDO
100
AcDbEllipse
 62
7
  6
CONTINUOUS
 10
7.1437568196
 20
19.6043786792
 30
0.0
 11
-0.3739417019
 21
0.598522373
 31
0.0
 40
0.554557473
 41
-3.1836090632
 42
-2.1616984635
  0
ELLIPSE
  5
415
100
AcDbEntity
  8
RACCORDO
100
AcDbEllipse
 62
7
  6
CONTINUOUS
 10
-0.5119639917
 20
15.4685669898
 30
0.0
 11
0.249929385
 21
0.0111824824
 31
0.0
 40
0.5313301283
 41
3.1178369227
 42
3.9032222197
  0
ELLIPSE
  5
416
100
AcDbEntity
  8
RACCORDO
100
AcDbEllipse
 62
7
  6
CONTINUOUS
 10
0.8212483419
 20
14.801960823
 30
0.0
 11
0.249929385
 21
0.0111824824
 31
0.0
 40
0.5313301283
 41
-2.3799630874
 42
-1.3352760237
  0
ELLIPSE
  5
417
100
AcDbEntity
  8
CORPO
100
AcDbEllipse
 62
7
  6
CONTINUOUS
 10
8.4985021931
 20
22.0850419733
 30
0.0
 11
2.7499924258
 21
-0.0130015067
 31
0.0
 40
0.4964289597
 41
2.3672681657
 42
2.8836441294
  0
ELLIPSE
  5
418
100
AcDbEntity
  8
CORPO
100
AcDbEllipse
 62
7
  6
CONTINUOUS
 10
14.036639483
 20
23.3193997135
 30
0.0
 11
0.79574694
 21
0.7129684349
 31
0.0
 40
0.2882345029
 41
0.1136058831
 42
0.7807533904
  0
ELLIPSE
  5
419
100
AcDbEntity
  8
CORPO
100
AcDbEllipse
 62
7
  6
CONTINUOUS
 10
-4.7049645272
 20
20.1543420748
 30
0.0
 11
1.2141619185
 21
0.9541526469
 31
0.0
 40
0.2329077568
 41
0.1095198182
 42
0.114024621
  0
ELLIPSE
  5
41A
100
AcDbEntity
  8
CORPO
100
AcDbEllipse
 62
7
  6
CONTINUOUS
 10
10.0314327151
 20
25.3220030975
 30
0.0
 11
-0.3106730325
 21
1.1082908718
 31
0.0
 40
0.6760995073
 41
4.8467711056
 42
6.4001141399
  0
ELLIPSE
  5
41B
100
AcDbEntity
  8
CORPO
100
AcDbEllipse
 62
7
  6
CONTINUOUS
 10
8.4741559135
 20
23.4830217596
 30
0.0
 11
3.4163748636
 21
-0.0478993383
 31
0.0
 40
0.4892378494
 41
2.3616770883
 42
5.5059722822
  0
ELLIPSE
  5
41C
100
AcDbEntity
  8
CORPO
100
AcDbEllipse
 62
7
  6
CONTINUOUS
 10
9.1702536352
 20
22.4161312254
 30
0.0
 11
2.7583876426
 21
-0.0130411979
 31
0.0
 40
0.4964289597
 41
0.2445598596
 42
2.3585415194
  0
ENDSEC
  0
SECTION
  2
OBJECTS
  0
DICTIONARY
  5
C
100
AcDbDictionary
280
0
281
1
  3
ACAD_GROUP
350
D
  3
ACAD_MLINESTYLE
350
17
  3
ACAD_LAYOUT
350
1A
  3
ACAD_PLOTSETTINGS
350
19
  3
ACAD_PLOTSTYLENAME
350
E
  0
DICTIONARY
  5
D
102
{ACAD_REACTORS
330
C
102
}
100
AcDbDictionary
280
0
281
1
  0
ACDBDICTIONARYWDFLT
  5
E
102
{ACAD_REACTORS
330
C
102
}
100
AcDbDictionary
281
1
  3
Normal
350
F
100
AcDbDictionaryWithDefault
340
F
  0
DICTIONARY
  5
17
102
{ACAD_REACTORS
330
C
102
}
100
AcDbDictionary
280
0
281
1
  3
Standard
350
18
  0
DICTIONARY
  5
19
102
{ACAD_REACTORS
330
C
102
}
100
AcDbDictionary
281
1
  0
DICTIONARY
  5
1A
102
{ACAD_REACTORS
330
C
102
}
100
AcDbDictionary
281
1
  3
Model
350
41D
  3
Layout1
350
41E
  0
ACDBPLACEHOLDER
  5
F
102
{ACAD_REACTORS
330
E
102
}
  0
MLINESTYLE
  5
18
102
{ACAD_REACTORS
330
17
102
}
100
AcDbMlineStyle
  2
STANDARD
 70
0
  3

 62
256
 51
90.0
 52
90.0
 71
2
 49
0.5
 62
256
  6
BYLAYER
 49
-0.5
 62
256
  6
BYLAYER
  0
LAYOUT
  5
41D
102
{ACAD_REACTORS
330
1A
102
}
100
AcDbPlotSettings
  1

  2
none_device
  4
ISO_A4_(297.00_x_210.00_MM)
  6

 40
0.0
 41
0.0
 42
0.0
 43
0.0
 44
297.0
 45
210.0
 46
0.0
 47
0.0
 48
0.0
 49
0.0
140
0.0
141
0.0
142
1.0
143
1.0
 70
1024
 72
1
 73
0
 74
0
  7

 75
0
147
1.0
148
0.0
149
0.0
100
AcDbLayout
  1
Model
 70
0
 71
0
 10
0.0
 20
0.0
 11
297.0
 21
210.0
 12
0.0
 22
0.0
 32
0.0
 14
0.0
 24
0.0
 34
0.0
 15
0.0
 25
0.0
 35
0.0
146
0.0
 13
0.0
 23
0.0
 33
0.0
 16
1.0
 26
0.0
 36
0.0
 17
0.0
 27
1.0
 37
0.0
 76
0
330
211
345
0
346
0
  0
LAYOUT
  5
41E
102
{ACAD_REACTORS
330
1A
102
}
100
AcDbPlotSettings
  1

  2
none_device
  4
ISO_A4_(297.00_x_210.00_MM)
  6

 40
0.0
 41
0.0
 42
0.0
 43
0.0
 44
297.0
 45
210.0
 46
0.0
 47
0.0
 48
0.0
 49
0.0
140
0.0
141
0.0
142
1.0
143
1.0
 70
0
 72
1
 73
0
 74
0
  7

 75
0
147
1.0
148
0.0
149
0.0
100
AcDbLayout
  1
Layout1
 70
0
 71
1
 10
0.0
 20
0.0
 11
297.0
 21
210.0
 12
0.0
 22
0.0
 32
0.0
 14
0.0
 24
0.0
 34
0.0
 15
0.0
 25
0.0
 35
0.0
146
0.0
 13
0.0
 23
0.0
 33
0.0
 16
1.0
 26
0.0
 36
0.0
 17
0.0
 27
1.0
 37
0.0
 76
0
330
212
345
0
346
0
  0
ENDSEC
  0
EOF
