  0
SECTION
  2
HEADER
  9
$ACADVER
  1
AC1024
  9
$DWGCODEPAGE
  3
ANSI_1252
  9
$EXTMAX
 10
297.0
 20
210.0
 30
0.0
  9
$EXTMIN
 10
0.0
 20
0.0
 30
0.0
  9
$LIMMIN
 10
0.0
 20
0.0
  9
$LIMMAX
 10
297.0
 20
210.0
  9
$VIEWCTR
 10
148.5
 20
105.0
  9
$VIEWSIZE
 40
210.0
  9
$CLAYER
  8
0
  9
$LTSCALE
 40
16.335
  9
$CELTYPE
  6
BYLAYER
  9
$DIMSCALE
 40
1.0
  9
$DIMASZ
 40
3.0
  9
$DIMEXO
 40
0.5
  9
$DIMDLI
 40
11.286
  9
$DIMEXE
 40
1.5
  9
$DIMCEN
 40
2.673
  9
$DIMLFAC
 40
1.0
  9
$DIMBLK
  1
_FILLED
  9
$DIMALT
 70
0
  9
$DIMALTF
 40
0.0393700787
  9
$DIMTXT
 40
3.0
  9
$DIMTOL
 70
1
  9
$DIMLIM
 70
0
  9
$DIMTFAC
 40
1.0
  9
$DIMTP
 40
0.01
  9
$DIMTM
 40
0.01
  9
$DIMGAP
 40
0.625
  9
$DIMDSEP
 70
44
  9
$AUNITS
 70
0
  9
$PDMODE
 70
3
  9
$PDSIZE
 40
3.0
  9
$HANDSEED
  5
4CB
  9
$TILEMODE
 70
1
  9
$MEASUREMENT
 70
1
  9
$INSUNITS
 70
4
  0
ENDSEC
  0
SECTION
  2
CLASSES
  0
CLASS
  1
ACDBDICTIONARYWDFLT
  2
AcDbDictionaryWithDefault
  3
AutoCAD 2000
 90
0
 91
1
280
0
281
0
  0
CLASS
  1
ACDBPLACEHOLDER
  2
AcDbPlaceHolder
  3
AutoCAD 2000
 90
0
 91
1
280
0
281
0
  0
CLASS
  1
LAYOUT
  2
AcDbLayout
  3
AutoCAD 2000
 90
0
 91
0
280
0
281
0
  0
ENDSEC
  0
SECTION
  2
TABLES
  0
TABLE
  2
VPORT
  5
8
100
AcDbSymbolTable
 70
2
  0
VPORT
  5
1F4
100
AcDbSymbolTableRecord
100
AcDbViewportTableRecord
  2
*ACTIVE
 70
0
 10
0.0
 20
0.0
 11
1.0
 21
1.0
 12
148.5
 22
105.0
 13
0.0
 23
0.0
 14
1.0
 24
1.0
 15
0.0
 25
0.0
 16
0.0
 26
0.0
 36
1.0
 17
0.0
 27
0.0
 37
0.0
 40
210.0
 41
1.4142857143
 42
50.0
 43
0.0
 44
0.0
 50
0.0
 51
0.0
 71
0
 72
100
 73
1
 74
1
 75
0
 76
0
 77
0
 78
0
  0
ENDTAB
  0
TABLE
  2
LTYPE
  5
5
100
AcDbSymbolTable
 70
6
  0
LTYPE
  5
14
100
AcDbSymbolTableRecord
100
AcDbLinetypeTableRecord
  2
BYBLOCK
 70
0
  3

 72
65
 73
0
 40
0.0
  0
LTYPE
  5
15
100
AcDbSymbolTableRecord
100
AcDbLinetypeTableRecord
  2
BYLAYER
 70
0
  3

 72
65
 73
0
 40
0.0
  0
LTYPE
  5
16
100
AcDbSymbolTableRecord
100
AcDbLinetypeTableRecord
  2
CONTINUOUS
 70
64
  3
Solid line
 72
65
 73
0
 40
0.0
  0
LTYPE
  5
1F5
100
AcDbSymbolTableRecord
100
AcDbLinetypeTableRecord
  2
CENTER
 70
64
  3
____ _ ____ _ ____ _ ____ _ ____ _ ____ _ ____
 72
65
 73
4
 40
0.6
 49
0.375
 74
0
 49
-0.075
 74
0
 49
0.075
 74
0
 49
-0.075
 74
0
  0
LTYPE
  5
1F6
100
AcDbSymbolTableRecord
100
AcDbLinetypeTableRecord
  2
HIDDEN
 70
64
  3
- - - - - - - - - - - - - - - - - - - -
 72
65
 73
2
 40
0.2
 49
0.1
 74
0
 49
-0.1
 74
0
  0
LTYPE
  5
1F7
100
AcDbSymbolTableRecord
100
AcDbLinetypeTableRecord
  2
PHANTOM
 70
64
  3
_____ _ _ _____ _ _ _____ _ _ _____
 72
65
 73
6
 40
0.8
 49
0.45
 74
0
 49
-0.05
 74
0
 49
0.1
 74
0
 49
-0.05
 74
0
 49
0.1
 74
0
 49
-0.05
 74
0
  0
LTYPE
  5
1F8
100
AcDbSymbolTableRecord
100
AcDbLinetypeTableRecord
  2
DOT
 70
64
  3
. . . . . . . . . . . . . . . . . . . .
 72
65
 73
2
 40
0.2
 49
0.1
 74
0
 49
-0.1
 74
0
  0
LTYPE
  5
1F9
100
AcDbSymbolTableRecord
100
AcDbLinetypeTableRecord
  2
DASHED
 70
64
  3
- - - - - - - - - - - - - - - - - - - -
 72
65
 73
2
 40
0.2
 49
0.1
 74
0
 49
-0.1
 74
0
  0
ENDTAB
  0
TABLE
  2
LAYER
  5
2
100
AcDbSymbolTable
 70
36
  0
LAYER
  5
10
100
AcDbSymbolTableRecord
100
AcDbLayerTableRecord
  2
0
 70
0
 62
7
  6
CONTINUOUS
370
-3
390
F
  0
LAYER
  5
1FA
100
AcDbSymbolTableRecord
100
AcDbLayerTableRecord
  2
DEFAULT_1
 70
0
 62
7
  6
CENTER
370
-3
390
F
  0
LAYER
  5
1FB
100
AcDbSymbolTableRecord
100
AcDbLayerTableRecord
  2
DEFAULT_2
 70
0
 62
7
  6
HIDDEN
370
-3
390
F
  0
LAYER
  5
1FC
100
AcDbSymbolTableRecord
100
AcDbLayerTableRecord
  2
DEFAULT_3
 70
0
 62
7
  6
PHANTOM
370
-3
390
F
  0
LAYER
  5
1FD
100
AcDbSymbolTableRecord
100
AcDbLayerTableRecord
  2
ASSI
 70
0
 62
7
  6
CONTINUOUS
370
-3
390
F
  0
LAYER
  5
1FE
100
AcDbSymbolTableRecord
100
AcDbLayerTableRecord
  2
COORDINATE
 70
0
 62
7
  6
CONTINUOUS
370
-3
390
F
  0
LAYER
  5
1FF
100
AcDbSymbolTableRecord
100
AcDbLayerTableRecord
  2
COORD_ORIGINE
 70
0
 62
7
  6
CONTINUOUS
370
-3
390
F
  0
LAYER
  5
200
100
AcDbSymbolTableRecord
100
AcDbLayerTableRecord
  2
COPY_PUBLISH
 70
0
 62
7
  6
CONTINUOUS
370
-3
390
F
  0
LAYER
  5
201
100
AcDbSymbolTableRecord
100
AcDbLayerTableRecord
  2
COSMETIC
 70
0
 62
7
  6
CONTINUOUS
370
-3
390
F
  0
LAYER
  5
202
100
AcDbSymbolTableRecord
100
AcDbLayerTableRecord
  2
COSMETICHE
 70
0
 62
7
  6
CONTINUOUS
370
-3
390
F
  0
LAYER
  5
203
100
AcDbSymbolTableRecord
100
AcDbLayerTableRecord
  2
COSMETICI
 70
0
 62
7
  6
CONTINUOUS
370
-3
390
F
  0
LAYER
  5
204
100
AcDbSymbolTableRecord
100
AcDbLayerTableRecord
  2
CURVE
 70
0
 62
7
  6
CONTINUOUS
370
-3
390
F
  0
LAYER
  5
205
100
AcDbSymbolTableRecord
100
AcDbLayerTableRecord
  2
DRAFT
 70
0
 62
7
  6
CONTINUOUS
370
-3
390
F
  0
LAYER
  5
206
100
AcDbSymbolTableRecord
100
AcDbLayerTableRecord
  2
IMPORT
 70
0
 62
7
  6
CONTINUOUS
370
-3
390
F
  0
LAYER
  5
207
100
AcDbSymbolTableRecord
100
AcDbLayerTableRecord
  2
IMPORT_IGES
 70
0
 62
7
  6
CONTINUOUS
370
-3
390
F
  0
LAYER
  5
208
100
AcDbSymbolTableRecord
100
AcDbLayerTableRecord
  2
INTF_1
 70
0
 62
7
  6
CONTINUOUS
370
-3
390
F
  0
LAYER
  5
209
100
AcDbSymbolTableRecord
100
AcDbLayerTableRecord
  2
INTF_11
 70
0
 62
7
  6
CONTINUOUS
370
-3
390
F
  0
LAYER
  5
20A
100
AcDbSymbolTableRecord
100
AcDbLayerTableRecord
  2
INTF_12
 70
0
 62
7
  6
CONTINUOUS
370
-3
390
F
  0
LAYER
  5
20B
100
AcDbSymbolTableRecord
100
AcDbLayerTableRecord
  2
NOTE
 70
0
 62
7
  6
CONTINUOUS
370
-3
390
F
  0
LAYER
  5
20C
100
AcDbSymbolTableRecord
100
AcDbLayerTableRecord
  2
PIANI
 70
0
 62
7
  6
CONTINUOUS
370
-3
390
F
  0
LAYER
  5
20D
100
AcDbSymbolTableRecord
100
AcDbLayerTableRecord
  2
PIANI_DI_RIFERIMENTO
 70
0
 62
7
  6
CONTINUOUS
370
-3
390
F
  0
LAYER
  5
20E
100
AcDbSymbolTableRecord
100
AcDbLayerTableRecord
  2
PIANI_ORIGINE
 70
0
 62
7
  6
CONTINUOUS
370
-3
390
F
  0
LAYER
  5
20F
100
AcDbSymbolTableRecord
100
AcDbLayerTableRecord
  2
PIANI_RIFERIMENTO
 70
0
 62
7
  6
CONTINUOUS
370
-3
390
F
  0
LAYER
  5
210
100
AcDbSymbolTableRecord
100
AcDbLayerTableRecord
  2
PUNTI
 70
0
 62
7
  6
CONTINUOUS
370
-3
390
F
  0
LAYER
  5
211
100
AcDbSymbolTableRecord
100
AcDbLayerTableRecord
  2
RACCORDO
 70
0
 62
7
  6
CONTINUOUS
370
-3
390
F
  0
LAYER
  5
212
100
AcDbSymbolTableRecord
100
AcDbLayerTableRecord
  2
RGB____0____0____0__
 70
0
 62
7
  6
CONTINUOUS
370
-3
390
F
  0
LAYER
  5
213
100
AcDbSymbolTableRecord
100
AcDbLayerTableRecord
  2
SIMBOLI
 70
0
 62
7
  6
CONTINUOUS
370
-3
390
F
  0
LAYER
  5
214
100
AcDbSymbolTableRecord
100
AcDbLayerTableRecord
  2
SMUSSO
 70
0
 62
7
  6
CONTINUOUS
370
-3
390
F
  0
LAYER
  5
215
100
AcDbSymbolTableRecord
100
AcDbLayerTableRecord
  2
SNAPLINE
 70
0
 62
7
  6
CONTINUOUS
370
-3
390
F
  0
LAYER
  5
216
100
AcDbSymbolTableRecord
100
AcDbLayerTableRecord
  2
SUPERFICI
 70
0
 62
7
  6
CONTINUOUS
370
-3
390
F
  0
LAYER
  5
217
100
AcDbSymbolTableRecord
100
AcDbLayerTableRecord
  2
TRASH
 70
0
 62
7
  6
CONTINUOUS
370
-3
390
F
  0
LAYER
  5
218
100
AcDbSymbolTableRecord
100
AcDbLayerTableRecord
  2
XSEC_DATUMS
 70
0
 62
7
  6
CONTINUOUS
370
-3
390
F
  0
ENDTAB
  0
TABLE
  2
STYLE
  5
3
100
AcDbSymbolTable
 70
1
  0
STYLE
  5
11
100
AcDbSymbolTableRecord
100
AcDbTextStyleTableRecord
  2
STANDARD
 70
0
 40
0.0
 41
0.8
 50
0.0
 71
0
 42
0.2
  3
txt
  4

  0
STYLE
  5
219
100
AcDbSymbolTableRecord
100
AcDbTextStyleTableRecord
  2
TEXTSTYLE_1
 70
0
 40
0.0
 41
0.8
 50
0.0
 71
0
 42
0.2
  3
gdt
  4

  0
ENDTAB
  0
TABLE
  2
VIEW
  5
6
100
AcDbSymbolTable
 70
0
  0
ENDTAB
  0
TABLE
  2
UCS
  5
7
100
AcDbSymbolTable
 70
0
  0
ENDTAB
  0
TABLE
  2
APPID
  5
9
100
AcDbSymbolTable
 70
1
  0
APPID
  5
21A
100
AcDbSymbolTableRecord
100
AcDbRegAppTableRecord
  2
ACAD
 70
0
  0
ENDTAB
  0
TABLE
  2
BLOCK_RECORD
  5
1
100
AcDbSymbolTable
 70
0
  0
BLOCK_RECORD
  5
21B
100
AcDbSymbolTableRecord
100
AcDbBlockTableRecord
  2
*Model_Space
  0
BLOCK_RECORD
  5
21C
100
AcDbSymbolTableRecord
100
AcDbBlockTableRecord
  2
*Paper_Space
  0
BLOCK_RECORD
  5
21D
100
AcDbSymbolTableRecord
100
AcDbBlockTableRecord
  2
_FILLED
  0
ENDTAB
  0
TABLE
  2
DIMSTYLE
  5
A
100
AcDbSymbolTable
 70
1
100
AcDbDimStyleTable
 71
0
  0
DIMSTYLE
105
21E
100
AcDbSymbolTableRecord
100
AcDbDimStyleTableRecord
  2
STANDARD
 70
0
  3

  4

 40
1.0
 41
3.0
 42
0.5
 43
0.38
 44
1.5
 45
0.0
 46
0.0
 47
0.01
 48
0.01
140
3.0
141
0.09
142
0.0
143
25.4
144
1.0
145
0.0
146
1.0
147
0.625
 71
1.0
 72
0.0
 73
0
 74
0
 75
0
 76
0
 77
1
 78
8
 79
2
170
0
171
1
172
0
173
0
174
0
175
0
176
0
177
0
178
0
270
2
179
2
271
2
272
2
273
2
274
2
275
0
280
0
281
0
282
0
283
1
284
8
285
0
286
0
287
3
288
0
340
11
278
44
341
21D
342
21D
343
21D
344
21D
  0
ENDTAB
  0
ENDSEC
  0
SECTION
  2
BLOCKS
  0
BLOCK
  5
20
100
AcDbEntity
  8
0
100
AcDbBlockBegin
  2
*Model_Space
 70
0
 10
0.0
 20
0.0
 30
0.0
  3
*Model_Space
  1

  0
ENDBLK
  5
21
100
AcDbEntity
  8
0
100
AcDbBlockEnd
  0
BLOCK
  5
1C
100
AcDbEntity
  8
0
100
AcDbBlockBegin
  2
*Paper_Space
 70
0
 10
0.0
 20
0.0
 30
0.0
  3
*Paper_Space
  1

  0
ENDBLK
  5
1D
100
AcDbEntity
  8
0
100
AcDbBlockEnd
  0
BLOCK
  5
21F
100
AcDbEntity
  8
0
100
AcDbBlockBegin
  2
_FILLED
 70
64
 10
0.0
 20
0.0
  3
_FILLED
  1

  0
SOLID
  5
220
100
AcDbEntity
  8
0
  6
BYBLOCK
 62
0
100
AcDbTrace
 10
0.0
 20
0.0
 11
-1.0
 21
0.3166666667
 12
-1.0
 22
-0.3166666667
 13
-1.0
 23
-0.3166666667
  0
ENDBLK
  5
221
100
AcDbEntity
  8
0
  6
BYBLOCK
 62
0
100
AcDbBlockEnd
  0
ENDSEC
  0
SECTION
  2
ENTITIES
  0
LINE
  5
222
100
AcDbEntity
  8
RACCORDO
100
AcDbLine
 62
7
  6
CONTINUOUS
 10
-20.1961886712
 20
30.1608336755
 11
-18.2519330691
 21
30.9725370763
  0
LINE
  5
223
100
AcDbEntity
  8
RACCORDO
100
AcDbLine
 62
250
  6
CONTINUOUS
 10
-20.101007013
 20
30.106443248
 11
-18.1572102021
 21
30.917955109
  0
LINE
  5
224
100
AcDbEntity
  8
RACCORDO
100
AcDbLine
 62
7
  6
CONTINUOUS
 10
-18.2519281481
 20
30.9725391304
 11
-18.251471282
 21
30.9727256443
  0
LINE
  5
225
100
AcDbEntity
  8
RACCORDO
100
AcDbLine
 62
7
  6
CONTINUOUS
 10
-18.2514664344
 20
30.9727275789
 11
-17.5983845448
 21
31.2333492245
  0
LINE
  5
226
100
AcDbEntity
  8
RACCORDO
100
AcDbLine
 62
250
  6
CONTINUOUS
 10
-18.1572102021
 20
30.917955109
 11
-17.5045905896
 21
31.1783922764
  0
LINE
  5
227
100
AcDbEntity
  8
RACCORDO
100
AcDbLine
 62
250
  6
CONTINUOUS
 10
-17.0822084887
 20
28.8310083102
 11
-16.4335227567
 21
29.4057657626
  0
LINE
  5
228
100
AcDbEntity
  8
RACCORDO
100
AcDbLine
 62
7
  6
CONTINUOUS
 10
-17.0822084887
 20
28.7613786964
 11
-16.3938623556
 21
29.3712766027
  0
LWPOLYLINE
  5
229
100
AcDbEntity
  8
RACCORDO
100
AcDbPolyline
 62
7
  6
CONTINUOUS
 90
40
 70
0
 10
-25.0038873796
 20
26.545224777
 10
-25.0370363931
 20
26.5293153958
 10
-25.082413229
 20
26.5062545298
 10
-25.1272580193
 20
26.4819807828
 10
-25.1715324563
 20
26.456534899
 10
-25.2152140172
 20
26.4299489183
 10
-25.2582857732
 20
26.4022479004
 10
-25.3007172216
 20
26.3734647189
 10
-25.3424749644
 20
26.3436320875
 10
-25.383532649
 20
26.3127766436
 10
-25.4238572793
 20
26.2809297219
 10
-25.4634158319
 20
26.2481203065
 10
-25.5021812305
 20
26.2143727146
 10
-25.5401192737
 20
26.1797151057
 10
-25.5771944285
 20
26.1441756978
 10
-25.6133770039
 20
26.1077772523
 10
-25.648631306
 20
26.0705450817
 10
-25.6829198993
 20
26.0325068251
 10
-25.7162090877
 20
25.9936840387
 10
-25.7484668718
 20
25.954093112
 10
-25.7796475454
 20
25.9137671949
 10
-25.8096978823
 20
25.8727478513
 10
-25.8385841888
 20
25.8310515397
 10
-25.8662603936
 20
25.7887097129
 10
-25.8926624391
 20
25.745782
 10
-25.9177697692
 20
25.7022598521
 10
-25.9415207812
 20
25.6581979604
 10
-25.963810795
 20
25.6137482748
 10
-25.984622075
 20
25.5689068091
 10
-26.003906256
 20
25.5237268575
 10
-26.0215505394
 20
25.4784464652
 10
-26.0375408253
 20
25.4330938808
 10
-26.0518629776
 20
25.3876948938
 10
-26.0644476417
 20
25.3424858613
 10
-26.0753007148
 20
25.2974927789
 10
-26.0844273388
 20
25.2527455792
 10
-26.0918003256
 20
25.2084902913
 10
-26.0974398534
 20
25.1648298246
 10
-26.1013895686
 20
25.1217239985
 10
-26.1030299104
 20
25.0947409778
  0
LINE
  5
22A
100
AcDbEntity
  8
RACCORDO
100
AcDbLine
 62
7
  6
CONTINUOUS
 10
-25.003890537
 20
26.5452233916
 11
-19.8544022415
 21
28.9556937798
  0
LINE
  5
22B
100
AcDbEntity
  8
RACCORDO
100
AcDbLine
 62
250
  6
CONTINUOUS
 10
-19.737650257
 20
28.8127023856
 11
-24.8145774521
 21
26.4361977769
  0
LINE
  5
22C
100
AcDbEntity
  8
RACCORDO
100
AcDbLine
 62
7
  6
CONTINUOUS
 10
-17.0822084887
 20
28.0810726941
 11
-18.169149812
 21
27.5963094811
  0
LINE
  5
22D
100
AcDbEntity
  8
RACCORDO
100
AcDbLine
 62
250
  6
CONTINUOUS
 10
-16.5585210432
 20
30.0196984516
 11
-17.2072067752
 21
29.754443284
  0
LINE
  5
22E
100
AcDbEntity
  8
RACCORDO
100
AcDbLine
 62
250
  6
CONTINUOUS
 10
-16.4335227567
 20
29.6898331691
 11
-17.0822084887
 21
29.4245780016
  0
LINE
  5
22F
100
AcDbEntity
  8
RACCORDO
100
AcDbLine
 62
250
  6
CONTINUOUS
 10
-17.2072067752
 20
29.754443284
 11
-19.1627915201
 21
28.9573686348
  0
LINE
  5
230
100
AcDbEntity
  8
RACCORDO
100
AcDbLine
 62
250
  6
CONTINUOUS
 10
-17.0822084887
 20
29.4245780016
 11
-19.0377932336
 21
28.6275033524
  0
LINE
  5
231
100
AcDbEntity
  8
RACCORDO
100
AcDbLine
 62
7
  6
CONTINUOUS
 10
-15.591277423
 20
26.5670779321
 11
-15.1572084887
 21
26.7487436494
  0
LINE
  5
232
100
AcDbEntity
  8
DRAFT
100
AcDbLine
 62
7
  6
CONTINUOUS
 10
-15.7455465188
 20
27.8520455367
 11
-7.1289268199
 21
31.3793121016
  0
LINE
  5
233
100
AcDbEntity
  8
DRAFT
100
AcDbLine
 62
7
  6
CONTINUOUS
 10
-7.4686537224
 20
31.31494449
 11
-15.8080543238
 21
27.9286016503
  0
LINE
  5
234
100
AcDbEntity
  8
RACCORDO
100
AcDbLine
 62
7
  6
CONTINUOUS
 10
-8.1496381398
 20
28.843575321
 11
-13.8411830849
 21
26.547048021
  0
LINE
  5
235
100
AcDbEntity
  8
RACCORDO
100
AcDbLine
 62
7
  6
CONTINUOUS
 10
-15.1572084887
 20
26.7487436494
 11
-8.5754482636
 21
29.368594973
  0
LINE
  5
236
100
AcDbEntity
  8
RACCORDO
100
AcDbLine
 62
7
  6
CONTINUOUS
 10
-14.0925686896
 20
29.0510760997
 11
-9.120440714
 21
30.9766183989
  0
LINE
  5
237
100
AcDbEntity
  8
RACCORDO
100
AcDbLine
 62
7
  6
CONTINUOUS
 10
-16.1445917678
 20
28.3407741589
 11
-9.5292842891
 21
30.895018573
  0
LINE
  5
238
100
AcDbEntity
  8
RACCORDO
100
AcDbLine
 62
250
  6
CONTINUOUS
 10
-16.141789451
 20
28.3373420358
 11
-9.4852900113
 21
30.9074908801
  0
LINE
  5
239
100
AcDbEntity
  8
DRAFT
100
AcDbLine
 62
7
  6
CONTINUOUS
 10
-16.0970873041
 20
28.2825933107
 11
-14.0925686896
 21
29.0510760997
  0
LWPOLYLINE
  5
23A
100
AcDbEntity
  8
RACCORDO
100
AcDbPolyline
 62
7
  6
CONTINUOUS
 90
3
 70
0
 10
-9.4914340179
 20
30.9088589957
 10
-9.5155448771
 20
30.9002205894
 10
-9.5292981848
 20
30.8950131992
  0
LINE
  5
23B
100
AcDbEntity
  8
RACCORDO
100
AcDbLine
 62
7
  6
CONTINUOUS
 10
-9.4671189475
 20
30.9169509945
 11
-9.4914340179
 21
30.9088589957
  0
LWPOLYLINE
  5
23C
100
AcDbEntity
  8
RACCORDO
100
AcDbPolyline
 62
7
  6
CONTINUOUS
 90
22
 70
0
 10
-26.1030309061
 20
25.0947244136
 10
-26.1681056668
 20
23.6948575492
 10
-26.2271440799
 20
22.2868916771
 10
-26.2796244554
 20
20.8815277353
 10
-26.3255458298
 20
19.4787898014
 10
-26.3649075894
 20
18.07869875
 10
-26.397709209
 20
16.6812741647
 10
-26.4239501708
 20
15.286536689
 10
-26.4436301204
 20
13.8945077423
 10
-26.4567487518
 20
12.5052080816
 10
-26.4633057965
 20
11.1186586359
 10
-26.4633011861
 20
9.7348809703
 10
-26.4567349138
 20
8.353896796
 10
-26.4436070349
 20
6.9757276271
 10
-26.4239178049
 20
5.6003941729
 10
-26.3976675162
 20
4.2279169389
 10
-26.3648565101
 20
2.858317046
 10
-26.3254852912
 20
1.4916147104
 10
-26.279554372
 20
0.1278290918
 10
-26.2270643541
 20
-1.2330194337
 10
-26.1680161888
 20
-2.5909075905
 10
-26.1029786427
 20
-3.9346524928
  0
LINE
  5
23D
100
AcDbEntity
  8
ASSI
100
AcDbLine
 62
7
  6
CONTINUOUS
 10
-6.5964987161
 20
27.7570406817
 11
-9.2276611398
 21
26.6828731203
  0
LINE
  5
23E
100
AcDbEntity
  8
RACCORDO
100
AcDbLine
 62
7
  6
CONTINUOUS
 10
-10.2904789294
 20
26.9439546969
 11
-8.1496381398
 21
27.8026948189
  0
LINE
  5
23F
100
AcDbEntity
  8
ASSI
100
AcDbLine
 62
7
  6
CONTINUOUS
 10
-4.930929047
 20
28.6873256019
 11
-9.2904789294
 21
26.9386106036
  0
LINE
  5
240
100
AcDbEntity
  8
RACCORDO
100
AcDbLine
 62
7
  6
CONTINUOUS
 10
-10.2794349932
 20
26.7551247626
 11
-10.8936685845
 21
26.5230391292
  0
LINE
  5
241
100
AcDbEntity
  8
RACCORDO
100
AcDbLine
 62
250
  6
CONTINUOUS
 10
-10.2057208837
 20
26.7106684452
 11
-10.8333144829
 21
26.4735347878
  0
LINE
  5
242
100
AcDbEntity
  8
RACCORDO
100
AcDbLine
 62
250
  6
CONTINUOUS
 10
4.2664772433
 20
-29.6674386487
 11
3.6177915113
 21
-29.6287548788
  0
LINE
  5
243
100
AcDbEntity
  8
RACCORDO
100
AcDbLine
 62
250
  6
CONTINUOUS
 10
4.2485985128
 20
-29.3175231538
 11
3.6177915113
 21
-29.2799055653
  0
LWPOLYLINE
  5
244
100
AcDbEntity
  8
RACCORDO
100
AcDbPolyline
 62
7
  6
CONTINUOUS
 90
18
 70
0
 10
-26.1029775671
 20
-3.9346712929
 10
-26.1014807284
 20
-3.9586427587
 10
-26.0979557201
 20
-3.9966314554
 10
-26.0930479185
 20
-4.0341466233
 10
-26.0867662689
 20
-4.0711587524
 10
-26.0791242523
 20
-4.1076236356
 10
-26.0701439833
 20
-4.1434802069
 10
-26.0598452891
 20
-4.1786923553
 10
-26.0482499976
 20
-4.2132229511
 10
-26.0353944852
 20
-4.2470068334
 10
-26.0213105724
 20
-4.2800064936
 10
-26.0060306666
 20
-4.3121881461
 10
-25.9896032126
 20
-4.3434930488
 10
-25.9720695667
 20
-4.3738898581
 10
-25.9534726287
 20
-4.4033500222
 10
-25.9338731533
 20
-4.4318237462
 10
-25.9133254597
 20
-4.4592805192
 10
-25.9010811317
 20
-4.4746244537
  0
LINE
  5
245
100
AcDbEntity
  8
RACCORDO
100
AcDbLine
 62
7
  6
CONTINUOUS
 10
-12.5171224929
 20
24.9254116015
 11
-10.8959471265
 21
26.521562937
  0
LINE
  5
246
100
AcDbEntity
  8
RACCORDO
100
AcDbLine
 62
250
  6
CONTINUOUS
 10
-12.4684213132
 20
24.8657650815
 11
-10.834275225
 21
26.4746869262
  0
LINE
  5
247
100
AcDbEntity
  8
RACCORDO
100
AcDbLine
 62
250
  6
CONTINUOUS
 10
-7.5943448327
 20
24.614322976
 11
-8.8832840219
 21
24.0852449817
  0
LINE
  5
248
100
AcDbEntity
  8
RACCORDO
100
AcDbLine
 62
250
  6
CONTINUOUS
 10
-7.4943600632
 20
24.3504673252
 11
-8.7623013294
 21
23.8300084645
  0
LINE
  5
249
100
AcDbEntity
  8
RACCORDO
100
AcDbLine
 62
7
  6
CONTINUOUS
 10
-4.6496381398
 20
24.5569682711
 11
-10.3411830849
 21
22.2604409711
  0
LINE
  5
24A
100
AcDbEntity
  8
RACCORDO
100
AcDbLine
 62
250
  6
CONTINUOUS
 10
-8.8823457079
 20
24.0840712608
 11
-10.5497639259
 21
22.5158992864
  0
LINE
  5
24B
100
AcDbEntity
  8
RACCORDO
100
AcDbLine
 62
250
  6
CONTINUOUS
 10
-8.7832992524
 20
23.7935570148
 11
-10.3725696158
 21
22.2988814639
  0
LINE
  5
24C
100
AcDbEntity
  8
RACCORDO
100
AcDbLine
 62
7
  6
CONTINUOUS
 10
-10.7572084887
 20
20.3345613826
 11
-11.1942032612
 21
20.1399112061
  0
LINE
  5
24D
100
AcDbEntity
  8
RACCORDO
100
AcDbLine
 62
7
  6
CONTINUOUS
 10
-10.7572084887
 20
21.3598662153
 11
-4.2195155309
 21
24.0336886984
  0
LINE
  5
24E
100
AcDbEntity
  8
RACCORDO
100
AcDbLine
 62
7
  6
CONTINUOUS
 10
-11.1942032612
 20
21.1817839033
 11
-10.7572084887
 21
21.3598662153
  0
LINE
  5
24F
100
AcDbEntity
  8
RACCORDO
100
AcDbLine
 62
7
  6
CONTINUOUS
 10
-10.7572084887
 20
20.3345613826
 11
-4.2195155309
 21
22.9928030748
  0
LINE
  5
250
100
AcDbEntity
  8
ASSI
100
AcDbLine
 62
7
  6
CONTINUOUS
 10
-4.0076831583
 20
24.1800574957
 11
-1.930929047
 21
25.0130909878
  0
LINE
  5
251
100
AcDbEntity
  8
RACCORDO
100
AcDbLine
 62
7
  6
CONTINUOUS
 10
-22.2477366943
 20
15.1166810083
 11
-22.2469892624
 21
15.1169701249
  0
LWPOLYLINE
  5
252
100
AcDbEntity
  8
RACCORDO
100
AcDbPolyline
 62
7
  6
CONTINUOUS
 90
49
 70
0
 10
-22.2477350681
 20
15.1166811545
 10
-22.198777053
 20
15.1349782609
 10
-22.0832434221
 20
15.1731456566
 10
-21.9661267715
 20
15.2050211167
 10
-21.847606503
 20
15.2307266245
 10
-21.727622253
 20
15.2504378284
 10
-21.6058586087
 20
15.2643260441
 10
-21.4823366627
 20
15.2724756116
 10
-21.3571645336
 20
15.2749625113
 10
-21.2301466594
 20
15.2718583271
 10
-21.1013329715
 20
15.263212905
 10
-20.9708312818
 20
15.2490807198
 10
-20.8385243949
 20
15.2294875232
 10
-20.7044828118
 20
15.2044707668
 10
-20.5688096557
 20
15.1740763063
 10
-20.4314230822
 20
15.1383062005
 10
-20.2924093964
 20
15.0971959904
 10
-20.1518563883
 20
15.0507846086
 10
-20.0096658754
 20
14.9990454341
 10
-19.8659406531
 20
14.9420157297
 10
-19.7207413214
 20
14.879719355
 10
-19.5738838073
 20
14.8120652852
 10
-19.4254176624
 20
14.7390533698
 10
-19.2754374307
 20
14.6607071367
 10
-19.1238054478
 20
14.5769244074
 10
-18.9705146927
 20
14.4876611205
 10
-18.8157028229
 20
14.3929572951
 10
-18.6594376996
 20
14.2928180631
 10
-18.5017745948
 20
14.1872448057
 10
-18.3427885291
 20
14.0762538756
 10
-18.1825723159
 20
13.9598777241
 10
-18.0211918094
 20
13.8381355223
 10
-17.8587103311
 20
13.7110467969
 10
-17.6952131509
 20
13.5786503809
 10
-17.5307647559
 20
13.4409736311
 10
-17.3654280264
 20
13.2980451291
 10
-17.1992824862
 20
13.149909495
 10
-17.0323920253
 20
12.9966018701
 10
-16.8648178203
 20
12.8381578293
 10
-16.6966323937
 20
12.674624878
 10
-16.527898643
 20
12.5060447404
 10
-16.3586774603
 20
12.3324605377
 10
-16.1890360471
 20
12.1539228382
 10
-16.0190354646
 20
11.9704782128
 10
-15.8487337526
 20
11.7821733636
 10
-15.6781914268
 20
11.5890586302
 10
-15.5074689116
 20
11.3911863284
 10
-15.3366311079
 20
11.1886182489
 10
-15.1731177463
 20
10.9904537983
  0
LWPOLYLINE
  5
253
100
AcDbEntity
  8
RACCORDO
100
AcDbPolyline
 62
7
  6
CONTINUOUS
 90
36
 70
0
 10
-4.2166653873
 20
-31.0325014263
 10
-4.2037180556
 20
-31.0479972967
 10
-4.1804113123
 20
-31.0741825989
 10
-4.1560189979
 20
-31.0994911184
 10
-4.1305538046
 20
-31.1238968965
 10
-4.1039978342
 20
-31.1474005826
 10
-4.0763750866
 20
-31.1699612856
 10
-4.0477137626
 20
-31.1915373047
 10
-4.0179942351
 20
-31.2121217539
 10
-3.9872426802
 20
-31.2316734412
 10
-3.9554866937
 20
-31.2501532638
 10
-3.9227002343
 20
-31.2675512639
 10
-3.8888944724
 20
-31.2838324144
 10
-3.8541094632
 20
-31.2989508065
 10
-3.8183542141
 20
-31.3128763666
 10
-3.781640719
 20
-31.325576263
 10
-3.7440083321
 20
-31.3370100946
 10
-3.705502107
 20
-31.3471407201
 10
-3.6661476683
 20
-31.3559385222
 10
-3.6259709735
 20
-31.3633747713
 10
-3.5850135103
 20
-31.3694211314
 10
-3.5432741255
 20
-31.3740557349
 10
-3.5008021843
 20
-31.3772500707
 10
-3.4577133698
 20
-31.3789795228
 10
-3.4140179603
 20
-31.3792305015
 10
-3.3697549341
 20
-31.3779878604
 10
-3.3250852683
 20
-31.3752490626
 10
-3.2800359085
 20
-31.3710135232
 10
-3.2346311764
 20
-31.3652792241
 10
-3.189032658
 20
-31.3580686281
 10
-3.143267279
 20
-31.3493916744
 10
-3.0973619741
 20
-31.3392570918
 10
-3.0514820088
 20
-31.32771047
 10
-3.0057009368
 20
-31.3147848386
 10
-2.9600032034
 20
-31.3004896624
 10
-2.9276682329
 20
-31.2895345511
  0
LINE
  5
254
100
AcDbEntity
  8
RACCORDO
100
AcDbLine
 62
7
  6
CONTINUOUS
 10
-25.9011444283
 20
-4.4745474483
 11
-4.2165876744
 21
-31.032597121
  0
LINE
  5
255
100
AcDbEntity
  8
RACCORDO
100
AcDbLine
 62
7
  6
CONTINUOUS
 10
-25.9010775237
 20
-4.4746293769
 11
-25.9011366489
 21
-4.4745569761
  0
LINE
  5
256
100
AcDbEntity
  8
RACCORDO
100
AcDbLine
 62
250
  6
CONTINUOUS
 10
-26.0362721322
 20
-4.100389706
 11
-4.3535589686
 21
-30.656181451
  0
LINE
  5
257
100
AcDbEntity
  8
RACCORDO
100
AcDbLine
 62
250
  6
CONTINUOUS
 10
-20.3498733936
 20
29.9301316178
 11
-20.3498733877
 21
29.9300933358
  0
LINE
  5
258
100
AcDbEntity
  8
RACCORDO
100
AcDbLine
 62
7
  6
CONTINUOUS
 10
-20.3498733936
 20
29.6516180219
 11
-20.3498733936
 21
29.9301317741
  0
LINE
  5
259
100
AcDbEntity
  8
RACCORDO
100
AcDbLine
 62
250
  6
CONTINUOUS
 10
-20.3163797446
 20
29.5632296743
 11
-20.3163797446
 21
29.8417434265
  0
LINE
  5
25A
100
AcDbEntity
  8
RACCORDO
100
AcDbLine
 62
250
  6
CONTINUOUS
 10
-19.3781642517
 20
28.6926688133
 11
-19.3781642517
 21
28.4141550611
  0
LINE
  5
25B
100
AcDbEntity
  8
RACCORDO
100
AcDbLine
 62
250
  6
CONTINUOUS
 10
-19.0377932336
 20
28.6275033524
 11
-19.0377932336
 21
28.3489896002
  0
LINE
  5
25C
100
AcDbEntity
  8
DRAFT
100
AcDbLine
 62
7
  6
CONTINUOUS
 10
0.4817956283
 20
21.7544491178
 11
-6.9629299311
 21
18.4842066917
  0
LINE
  5
25D
100
AcDbEntity
  8
RACCORDO
100
AcDbLine
 62
7
  6
CONTINUOUS
 10
-10.7461886712
 20
18.5869946409
 11
-8.8019330691
 21
19.3986980416
  0
LINE
  5
25E
100
AcDbEntity
  8
RACCORDO
100
AcDbLine
 62
250
  6
CONTINUOUS
 10
-10.651007013
 20
18.5326042133
 11
-8.7072102021
 21
19.3441160743
  0
LINE
  5
25F
100
AcDbEntity
  8
RACCORDO
100
AcDbLine
 62
250
  6
CONTINUOUS
 10
-7.1085210432
 20
18.4458594169
 11
-7.7572067752
 21
18.1806042494
  0
LINE
  5
260
100
AcDbEntity
  8
RACCORDO
100
AcDbLine
 62
250
  6
CONTINUOUS
 10
-6.9835227567
 20
18.1159941345
 11
-7.6322084887
 21
17.850738967
  0
LINE
  5
261
100
AcDbEntity
  8
RACCORDO
100
AcDbLine
 62
7
  6
CONTINUOUS
 10
-8.8019281481
 20
19.3987000957
 11
-8.801471282
 21
19.3988866097
  0
LINE
  5
262
100
AcDbEntity
  8
RACCORDO
100
AcDbLine
 62
250
  6
CONTINUOUS
 10
-7.7572067752
 20
18.1806042494
 11
-9.7127915201
 21
17.3835296002
  0
LINE
  5
263
100
AcDbEntity
  8
RACCORDO
100
AcDbLine
 62
250
  6
CONTINUOUS
 10
-7.6322084887
 20
17.850738967
 11
-9.5877932336
 21
17.0536643177
  0
LINE
  5
264
100
AcDbEntity
  8
RACCORDO
100
AcDbLine
 62
7
  6
CONTINUOUS
 10
-8.8014664344
 20
19.3988885442
 11
-8.1483845448
 21
19.6595101899
  0
LINE
  5
265
100
AcDbEntity
  8
RACCORDO
100
AcDbLine
 62
250
  6
CONTINUOUS
 10
-8.7072102021
 20
19.3441160743
 11
-8.0545905896
 21
19.6045532418
  0
LINE
  5
266
100
AcDbEntity
  8
DRAFT
100
AcDbLine
 62
7
  6
CONTINUOUS
 10
-7.5784335048
 20
19.2380415368
 11
0.2670687258
 21
22.3211044881
  0
LINE
  5
267
100
AcDbEntity
  8
RACCORDO
100
AcDbLine
 62
250
  6
CONTINUOUS
 10
-18.5095208301
 20
28.208519022
 11
-18.5095208301
 21
27.6522589764
  0
LINE
  5
268
100
AcDbEntity
  8
RACCORDO
100
AcDbLine
 62
250
  6
CONTINUOUS
 10
-18.169149812
 20
28.2910882965
 11
-18.169149812
 21
27.5963094811
  0
LINE
  5
269
100
AcDbEntity
  8
RACCORDO
100
AcDbLine
 62
7
  6
CONTINUOUS
 10
-17.0822084887
 20
28.0810726941
 11
-17.0822084887
 21
29.4245780016
  0
LINE
  5
26A
100
AcDbEntity
  8
RACCORDO
100
AcDbLine
 62
250
  6
CONTINUOUS
 10
-16.4335227567
 20
29.4057657626
 11
-16.4335227567
 21
29.6898331691
  0
LINE
  5
26B
100
AcDbEntity
  8
RACCORDO
100
AcDbLine
 62
7
  6
CONTINUOUS
 10
-16.3096546627
 20
29.5583939747
 11
-16.3096546627
 21
29.8424613813
  0
LINE
  5
26C
100
AcDbEntity
  8
RACCORDO
100
AcDbLine
 62
250
  6
CONTINUOUS
 10
-7.6322084887
 20
17.2571692755
 11
-6.9835227567
 21
17.8319267279
  0
LINE
  5
26D
100
AcDbEntity
  8
RACCORDO
100
AcDbLine
 62
7
  6
CONTINUOUS
 10
-7.6322084887
 20
17.1875396617
 11
-6.9438623556
 21
17.797437568
  0
LINE
  5
26E
100
AcDbEntity
  8
RACCORDO
100
AcDbLine
 62
7
  6
CONTINUOUS
 10
-8.9461886712
 20
16.3824538724
 11
-7.0019330691
 21
17.1941572731
  0
LINE
  5
26F
100
AcDbEntity
  8
RACCORDO
100
AcDbLine
 62
250
  6
CONTINUOUS
 10
-8.851007013
 20
16.3280634448
 11
-6.9072102021
 21
17.1395753058
  0
LINE
  5
270
100
AcDbEntity
  8
RACCORDO
100
AcDbLine
 62
250
  6
CONTINUOUS
 10
-5.3085210432
 20
16.2413186484
 11
-5.9572067752
 21
15.9760634809
  0
LINE
  5
271
100
AcDbEntity
  8
RACCORDO
100
AcDbLine
 62
250
  6
CONTINUOUS
 10
-5.1835227567
 20
15.911453366
 11
-5.8322084887
 21
15.6461981984
  0
LINE
  5
272
100
AcDbEntity
  8
RACCORDO
100
AcDbLine
 62
7
  6
CONTINUOUS
 10
-7.0019281481
 20
17.1941593272
 11
-7.001471282
 21
17.1943458412
  0
LINE
  5
273
100
AcDbEntity
  8
RACCORDO
100
AcDbLine
 62
250
  6
CONTINUOUS
 10
-5.9572067752
 20
15.9760634809
 11
-7.9127915201
 21
15.1789888317
  0
LINE
  5
274
100
AcDbEntity
  8
RACCORDO
100
AcDbLine
 62
250
  6
CONTINUOUS
 10
-5.8322084887
 20
15.6461981984
 11
-7.7877932336
 21
14.8491235492
  0
LINE
  5
275
100
AcDbEntity
  8
RACCORDO
100
AcDbLine
 62
7
  6
CONTINUOUS
 10
-7.0014664344
 20
17.1943477757
 11
-6.3483845448
 21
17.4549694214
  0
LINE
  5
276
100
AcDbEntity
  8
RACCORDO
100
AcDbLine
 62
250
  6
CONTINUOUS
 10
-6.9072102021
 20
17.1395753058
 11
-6.2545905896
 21
17.4000124732
  0
LINE
  5
277
100
AcDbEntity
  8
RACCORDO
100
AcDbLine
 62
7
  6
CONTINUOUS
 10
2.4651324254
 20
18.5889161287
 11
10.8428901244
 21
21.8094662244
  0
LINE
  5
278
100
AcDbEntity
  8
RACCORDO
100
AcDbLine
 62
7
  6
CONTINUOUS
 10
0.5752663239
 20
-30.0649373455
 11
1.344692932
 21
-31.0072886377
  0
LINE
  5
279
100
AcDbEntity
  8
RACCORDO
100
AcDbLine
 62
250
  6
CONTINUOUS
 10
0.6017735612
 20
-30.0556706315
 11
1.3218357483
 21
-30.9375631023
  0
LINE
  5
27A
100
AcDbEntity
  8
RACCORDO
100
AcDbLine
 62
250
  6
CONTINUOUS
 10
0.7786821914
 20
-29.9938248169
 11
1.3218357483
 21
-30.6590493502
  0
LINE
  5
27B
100
AcDbEntity
  8
RACCORDO
100
AcDbLine
 62
250
  6
CONTINUOUS
 10
0.9882115764
 20
-29.9205750524
 11
1.4300889238
 21
-30.4617620674
  0
LINE
  5
27C
100
AcDbEntity
  8
RACCORDO
100
AcDbLine
 62
7
  6
CONTINUOUS
 10
2.1904791699
 20
-29.7983920004
 11
2.0011169501
 21
-29.5664715929
  0
LINE
  5
27D
100
AcDbEntity
  8
RACCORDO
100
AcDbLine
 62
7
  6
CONTINUOUS
 10
-15.8387625022
 20
26.22480814
 11
-15.8387625022
 21
25.2041165098
  0
LINE
  5
27E
100
AcDbEntity
  8
RACCORDO
100
AcDbLine
 62
250
  6
CONTINUOUS
 10
-15.7717752041
 20
25.9425027089
 11
-15.7717752041
 21
25.0248547911
  0
LINE
  5
27F
100
AcDbEntity
  8
RACCORDO
100
AcDbLine
 62
250
  6
CONTINUOUS
 10
-5.8322084887
 20
15.052628507
 11
-5.1835227567
 21
15.6273859594
  0
LINE
  5
280
100
AcDbEntity
  8
RACCORDO
100
AcDbLine
 62
7
  6
CONTINUOUS
 10
-5.8322084887
 20
14.9829988932
 11
-5.1438623556
 21
15.5928967995
  0
LINE
  5
281
100
AcDbEntity
  8
RACCORDO
100
AcDbLine
 62
7
  6
CONTINUOUS
 10
-5.8322084887
 20
14.302692891
 11
-6.919149812
 21
13.8179296779
  0
LINE
  5
282
100
AcDbEntity
  8
RACCORDO
100
AcDbLine
 62
7
  6
CONTINUOUS
 10
-4.341277423
 20
12.788698129
 11
-3.9072084887
 21
12.9703638463
  0
LINE
  5
283
100
AcDbEntity
  8
DRAFT
100
AcDbLine
 62
7
  6
CONTINUOUS
 10
-4.4955465188
 20
14.0736657336
 11
4.1210731801
 21
17.6009322984
  0
LINE
  5
284
100
AcDbEntity
  8
DRAFT
100
AcDbLine
 62
7
  6
CONTINUOUS
 10
3.9063462776
 20
17.5602482733
 11
-4.5414523931
 21
14.1298887178
  0
LINE
  5
285
100
AcDbEntity
  8
RACCORDO
100
AcDbLine
 62
7
  6
CONTINUOUS
 10
-3.9072084887
 20
12.9703638463
 11
2.6745517364
 21
15.5902151698
  0
LINE
  5
286
100
AcDbEntity
  8
RACCORDO
100
AcDbLine
 62
250
  6
CONTINUOUS
 10
3.0575288286
 20
17.8633816721
 11
11.5035664219
 21
21.1101797005
  0
LINE
  5
287
100
AcDbEntity
  8
RACCORDO
100
AcDbLine
 62
250
  6
CONTINUOUS
 10
3.9034335462
 20
-28.8947841312
 11
4.2485985128
 21
-29.3175231538
  0
LINE
  5
288
100
AcDbEntity
  8
RACCORDO
100
AcDbLine
 62
7
  6
CONTINUOUS
 10
3.9437197385
 20
-28.8787095353
 11
4.3339945046
 21
-29.3566965536
  0
LINE
  5
289
100
AcDbEntity
  8
RACCORDO
100
AcDbLine
 62
250
  6
CONTINUOUS
 10
-15.2142518626
 20
2.5019061626
 11
-15.2941410348
 21
2.7127303673
  0
LINE
  5
28A
100
AcDbEntity
  8
RACCORDO
100
AcDbLine
 62
250
  6
CONTINUOUS
 10
-10.8998733936
 20
18.3562925832
 11
-10.8998733877
 21
18.3562543012
  0
LINE
  5
28B
100
AcDbEntity
  8
RACCORDO
100
AcDbLine
 62
250
  6
CONTINUOUS
 10
-11.8746925808
 20
20.2519228347
 11
-11.8746925808
 21
21.1695707525
  0
LINE
  5
28C
100
AcDbEntity
  8
RACCORDO
100
AcDbLine
 62
250
  6
CONTINUOUS
 10
-11.1942032612
 20
20.1399112061
 11
-11.1942032612
 21
21.1817839033
  0
LINE
  5
28D
100
AcDbEntity
  8
RACCORDO
100
AcDbLine
 62
7
  6
CONTINUOUS
 10
-10.8998733936
 20
18.0777789873
 11
-10.8998733936
 21
18.3562927395
  0
LINE
  5
28E
100
AcDbEntity
  8
RACCORDO
100
AcDbLine
 62
250
  6
CONTINUOUS
 10
-10.8663797446
 20
17.9893906397
 11
-10.8663797446
 21
18.2679043918
  0
LINE
  5
28F
100
AcDbEntity
  8
DRAFT
100
AcDbLine
 62
7
  6
CONTINUOUS
 10
-10.7572084887
 20
21.3598662153
 11
-10.7572084887
 21
20.3345613826
  0
LINE
  5
290
100
AcDbEntity
  8
DRAFT
100
AcDbLine
 62
7
  6
CONTINUOUS
 10
-1.1709574236
 20
11.029254123
 11
0.9595210706
 21
11.9141989606
  0
LINE
  5
291
100
AcDbEntity
  8
RACCORDO
100
AcDbLine
 62
7
  6
CONTINUOUS
 10
-16.8697834715
 20
5.9702920209
 11
-16.7609089314
 21
6.0147398658
  0
LINE
  5
292
100
AcDbEntity
  8
ASSI
100
AcDbLine
 62
7
  6
CONTINUOUS
 10
4.6535012839
 20
13.9786608785
 11
1.9595210706
 21
12.8788480619
  0
LINE
  5
293
100
AcDbEntity
  8
DRAFT
100
AcDbLine
 62
7
  6
CONTINUOUS
 10
-16.7529956112
 20
6.2672576821
 11
-16.1295580154
 21
6.5210912372
  0
LINE
  5
294
100
AcDbEntity
  8
RACCORDO
100
AcDbLine
 62
7
  6
CONTINUOUS
 10
3.1003618602
 20
15.0651955178
 11
-2.5911830849
 21
12.7686682178
  0
LINE
  5
295
100
AcDbEntity
  8
RACCORDO
100
AcDbLine
 62
7
  6
CONTINUOUS
 10
0.9595210706
 20
13.1655748937
 11
3.1003618602
 21
14.0243150157
  0
LINE
  5
296
100
AcDbEntity
  8
ASSI
100
AcDbLine
 62
7
  6
CONTINUOUS
 10
6.319070953
 20
14.9089457988
 11
1.9595210706
 21
13.1602308005
  0
LINE
  5
297
100
AcDbEntity
  8
RACCORDO
100
AcDbLine
 62
7
  6
CONTINUOUS
 10
-14.9439725221
 20
2.3352724151
 11
-15.0868540556
 21
2.7123308428
  0
LINE
  5
298
100
AcDbEntity
  8
RACCORDO
100
AcDbLine
 62
250
  6
CONTINUOUS
 10
-9.0998733936
 20
16.1517518147
 11
-9.0998733877
 21
16.1517135326
  0
LINE
  5
299
100
AcDbEntity
  8
DRAFT
100
AcDbLine
 62
250
  6
CONTINUOUS
 10
-10.2904789294
 20
26.7509518568
 11
-10.2904789294
 21
26.9439546969
  0
LINE
  5
29A
100
AcDbEntity
  8
RACCORDO
100
AcDbLine
 62
250
  6
CONTINUOUS
 10
-9.9281642517
 20
17.1188297786
 11
-9.9281642517
 21
16.8403160265
  0
LINE
  5
29B
100
AcDbEntity
  8
RACCORDO
100
AcDbLine
 62
250
  6
CONTINUOUS
 10
-9.5877932336
 20
17.0536643177
 11
-9.5877932336
 21
16.7751505656
  0
LINE
  5
29C
100
AcDbEntity
  8
ASSI
100
AcDbLine
 62
7
  6
CONTINUOUS
 10
-9.2904789294
 20
26.7154306502
 11
-9.2904789294
 21
26.9386106036
  0
LINE
  5
29D
100
AcDbEntity
  8
RACCORDO
100
AcDbLine
 62
7
  6
CONTINUOUS
 10
-9.0998733936
 20
15.8732382188
 11
-9.0998733936
 21
16.1517519709
  0
LINE
  5
29E
100
AcDbEntity
  8
RACCORDO
100
AcDbLine
 62
250
  6
CONTINUOUS
 10
-9.0663797446
 20
15.7848498711
 11
-9.0663797446
 21
16.0633636233
  0
LINE
  5
29F
100
AcDbEntity
  8
RACCORDO
100
AcDbLine
 62
250
  6
CONTINUOUS
 10
-9.0595208301
 20
16.6346799873
 11
-9.0595208301
 21
16.287800491
  0
LINE
  5
2A0
100
AcDbEntity
  8
RACCORDO
100
AcDbLine
 62
7
  6
CONTINUOUS
 10
-8.7832992524
 20
23.7935570148
 11
-8.7832992524
 21
22.8890440633
  0
LINE
  5
2A1
100
AcDbEntity
  8
RACCORDO
100
AcDbLine
 62
250
  6
CONTINUOUS
 10
-8.719149812
 20
16.7172492618
 11
-8.719149812
 21
16.4772398737
  0
LINE
  5
2A2
100
AcDbEntity
  8
RACCORDO
100
AcDbLine
 62
250
  6
CONTINUOUS
 10
-8.1496381398
 20
28.843575321
 11
-8.1496381398
 21
27.8026948189
  0
LINE
  5
2A3
100
AcDbEntity
  8
RACCORDO
100
AcDbLine
 62
250
  6
CONTINUOUS
 10
-8.1281642517
 20
14.9142890101
 11
-8.1281642517
 21
14.635775258
  0
LINE
  5
2A4
100
AcDbEntity
  8
RACCORDO
100
AcDbLine
 62
7
  6
CONTINUOUS
 10
-7.9356531459
 20
29.1041306117
 11
-7.9356531459
 21
28.0624892169
  0
LINE
  5
2A5
100
AcDbEntity
  8
SMUSSO
100
AcDbLine
 62
7
  6
CONTINUOUS
 10
-0.970580301
 20
10.7838432697
 11
0.3917007476
 21
11.3822520687
  0
LINE
  5
2A6
100
AcDbEntity
  8
RACCORDO
100
AcDbLine
 62
7
  6
CONTINUOUS
 10
-15.3991100078
 20
2.6698769635
 11
-15.2941410348
 21
2.7127303673
  0
LINE
  5
2A7
100
AcDbEntity
  8
DRAFT
100
AcDbLine
 62
7
  6
CONTINUOUS
 10
0.3917007476
 20
11.3822520687
 11
1.8852935101
 21
11.9465999442
  0
LINE
  5
2A8
100
AcDbEntity
  8
RACCORDO
100
AcDbLine
 62
7
  6
CONTINUOUS
 10
2.9081541208
 20
11.7056165858
 11
1.6063314155
 21
11.2137282368
  0
LINE
  5
2A9
100
AcDbEntity
  8
RACCORDO
100
AcDbLine
 62
250
  6
CONTINUOUS
 10
2.9818682303
 20
11.6611602684
 11
1.6666855171
 21
11.1642238954
  0
LINE
  5
2AA
100
AcDbEntity
  8
RACCORDO
100
AcDbLine
 62
7
  6
CONTINUOUS
 10
-7.3668725316
 20
-5.5503506659
 11
-7.1734874802
 21
-5.7456411673
  0
LINE
  5
2AB
100
AcDbEntity
  8
RACCORDO
100
AcDbLine
 62
250
  6
CONTINUOUS
 10
-7.3555938874
 20
-5.5176799757
 11
-7.2006031072
 21
-5.6741979018
  0
LINE
  5
2AC
100
AcDbEntity
  8
DRAFT
100
AcDbLine
 62
7
  6
CONTINUOUS
 10
-15.0457886428
 20
2.6039609253
 11
-14.7920930883
 21
2.2932485961
  0
LINE
  5
2AD
100
AcDbEntity
  8
RACCORDO
100
AcDbLine
 62
250
  6
CONTINUOUS
 10
-16.7609089314
 20
6.0147398658
 11
-16.8856166425
 21
6.1674749954
  0
LINE
  5
2AE
100
AcDbEntity
  8
RACCORDO
100
AcDbLine
 62
7
  6
CONTINUOUS
 10
-16.5953517901
 20
6.0741842208
 11
-16.886709866
 21
6.43102353
  0
LINE
  5
2AF
100
AcDbEntity
  8
RACCORDO
100
AcDbLine
 62
250
  6
CONTINUOUS
 10
-6.8213353441
 20
-7.5366228252
 11
-7.1644250505
 21
-6.631223351
  0
LINE
  5
2B0
100
AcDbEntity
  8
RACCORDO
100
AcDbLine
 62
7
  6
CONTINUOUS
 10
-6.7771599861
 20
-7.1065775613
 11
-7.3760830006
 21
-5.5260446211
  0
LWPOLYLINE
  5
2B1
100
AcDbEntity
  8
RACCORDO
100
AcDbPolyline
 62
7
  6
CONTINUOUS
 90
63
 70
0
 10
-6.4830175256
 20
-8.4156075389
 10
-6.4176770416
 20
-8.7332921819
 10
-6.3551715021
 20
-9.0488806634
 10
-6.2955143298
 20
-9.3622674989
 10
-6.2387190447
 20
-9.6733444642
 10
-6.1848005173
 20
-9.9819875899
 10
-6.1337690245
 20
-10.288094401
 10
-6.0856348895
 20
-10.5915597575
 10
-6.0404100684
 20
-10.8922581141
 10
-5.9981016438
 20
-11.1900894545
 10
-5.9587163555
 20
-11.4849534276
 10
-5.9222623598
 20
-11.7767268697
 10
-5.8887431361
 20
-12.0653147594
 10
-5.8581620375
 20
-12.3506199316
 10
-5.8305234385
 20
-12.6325193333
 10
-5.8058270538
 20
-12.9109233463
 10
-5.7840725489
 20
-13.1857387047
 10
-5.7652601418
 20
-13.4568407957
 10
-5.7493855987
 20
-13.7241442161
 10
-5.7364443679
 20
-13.9875621404
 10
-5.7264316038
 20
-14.2469722536
 10
-5.7193387586
 20
-14.502295064
 10
-5.7151568885
 20
-14.7534495349
 10
-5.7138754891
 20
-15.0003158107
 10
-5.7154813609
 20
-15.2428209725
 10
-5.7199607886
 20
-15.4808901925
 10
-5.7272968257
 20
-15.7144058255
 10
-5.7374711915
 20
-15.9433023531
 10
-5.7504648775
 20
-16.1675114839
 10
-5.7662533529
 20
-16.3869167995
 10
-5.7848120162
 20
-16.6014540537
 10
-5.8061162927
 20
-16.8110693086
 10
-5.8301348562
 20
-17.0156660925
 10
-5.8568353601
 20
-17.2151758036
 10
-5.886188691
 20
-17.4095639252
 10
-5.9181630713
 20
-17.5987847337
 10
-5.9527236139
 20
-17.7827897323
 10
-5.9898342613
 20
-17.9615319902
 10
-6.0294566641
 20
-18.134963463
 10
-6.0715420351
 20
-18.3030106945
 10
-6.1160546169
 20
-18.4656631934
 10
-6.1629727515
 20
-18.6229539985
 10
-6.212227583
 20
-18.7747661517
 10
-6.263793854
 20
-18.9211322106
 10
-6.3177238063
 20
-19.062265686
 10
-6.3739742221
 20
-19.1980928905
 10
-6.4325035842
 20
-19.328555247
 10
-6.4933817766
 20
-19.4538207542
 10
-6.5565695713
 20
-19.5738002218
 10
-6.6220243267
 20
-19.6884097398
 10
-6.6898222539
 20
-19.7977580226
 10
-6.7599175106
 20
-19.9017327952
 10
-6.832275728
 20
-20.0002518084
 10
-6.9070041322
 20
-20.0934073986
 10
-6.9840489392
 20
-20.1810677999
 10
-7.0634057079
 20
-20.263170224
 10
-7.1452901284
 20
-20.3398462145
 10
-7.2296534946
 20
-20.4109418976
 10
-7.3165672906
 20
-20.4764141338
 10
-7.4065077892
 20
-20.5364582175
 10
-7.4997185443
 20
-20.5910069572
 10
-7.5961655316
 20
-20.6398116162
 10
-7.6463305527
 20
-20.6623109696
  0
LINE
  5
2B2
100
AcDbEntity
  8
RACCORDO
100
AcDbLine
 62
250
  6
CONTINUOUS
 10
-7.2006031072
 20
-5.6741979018
 11
-7.202726264
 21
-5.4559194538
  0
LINE
  5
2B3
100
AcDbEntity
  8
RACCORDO
100
AcDbLine
 62
250
  6
CONTINUOUS
 10
-7.7877932336
 20
14.8491235492
 11
-7.7877932336
 21
14.570609797
  0
LINE
  5
2B4
100
AcDbEntity
  8
RACCORDO
100
AcDbLine
 62
7
  6
CONTINUOUS
 10
-7.6322084887
 20
16.931024843
 11
-7.6322084887
 21
17.850738967
  0
LINE
  5
2B5
100
AcDbEntity
  8
RACCORDO
100
AcDbLine
 62
250
  6
CONTINUOUS
 10
-7.4943600632
 20
24.3504673252
 11
-7.4943600632
 21
23.4091285156
  0
LINE
  5
2B6
100
AcDbEntity
  8
RACCORDO
100
AcDbLine
 62
250
  6
CONTINUOUS
 10
-7.2595208301
 20
14.4301392188
 11
-7.2595208301
 21
13.8738791733
  0
LINE
  5
2B7
100
AcDbEntity
  8
RACCORDO
100
AcDbLine
 62
250
  6
CONTINUOUS
 10
-6.9835227567
 20
17.8319267279
 11
-6.9835227567
 21
18.1159941345
  0
LINE
  5
2B8
100
AcDbEntity
  8
RACCORDO
100
AcDbLine
 62
250
  6
CONTINUOUS
 10
-6.919149812
 20
14.5127084933
 11
-6.919149812
 21
13.8179296779
  0
LINE
  5
2B9
100
AcDbEntity
  8
RACCORDO
100
AcDbLine
 62
7
  6
CONTINUOUS
 10
-6.8596546627
 20
17.9845549401
 11
-6.8596546627
 21
18.2686223467
  0
LINE
  5
2BA
100
AcDbEntity
  8
RACCORDO
100
AcDbLine
 62
7
  6
CONTINUOUS
 10
-5.8322084887
 20
14.302692891
 11
-5.8322084887
 21
15.6461981984
  0
LINE
  5
2BB
100
AcDbEntity
  8
RACCORDO
100
AcDbLine
 62
250
  6
CONTINUOUS
 10
-5.1835227567
 20
15.6273859594
 11
-5.1835227567
 21
15.911453366
  0
LINE
  5
2BC
100
AcDbEntity
  8
RACCORDO
100
AcDbLine
 62
7
  6
CONTINUOUS
 10
-0.0171224929
 20
9.6161007091
 11
1.6040528735
 21
11.2122520446
  0
LINE
  5
2BD
100
AcDbEntity
  8
RACCORDO
100
AcDbLine
 62
250
  6
CONTINUOUS
 10
0.0315786868
 20
9.5564541891
 11
1.665724775
 21
11.1653760338
  0
LINE
  5
2BE
100
AcDbEntity
  8
RACCORDO
100
AcDbLine
 62
7
  6
CONTINUOUS
 10
0.4927915113
 20
6.5561815794
 11
0.0557967388
 21
6.361531403
  0
LINE
  5
2BF
100
AcDbEntity
  8
RACCORDO
100
AcDbLine
 62
7
  6
CONTINUOUS
 10
0.4927915113
 20
7.5814864121
 11
7.0304844691
 21
10.2553088953
  0
LINE
  5
2C0
100
AcDbEntity
  8
RACCORDO
100
AcDbLine
 62
7
  6
CONTINUOUS
 10
0.0557967388
 20
7.4034041002
 11
0.4927915113
 21
7.5814864121
  0
LINE
  5
2C1
100
AcDbEntity
  8
RACCORDO
100
AcDbLine
 62
7
  6
CONTINUOUS
 10
0.4927915113
 20
6.5561815794
 11
7.0304844691
 21
9.2144232716
  0
LINE
  5
2C2
100
AcDbEntity
  8
RACCORDO
100
AcDbLine
 62
7
  6
CONTINUOUS
 10
6.6003618602
 20
10.778588468
 11
0.9088169151
 21
8.482061168
  0
LINE
  5
2C3
100
AcDbEntity
  8
ASSI
100
AcDbLine
 62
7
  6
CONTINUOUS
 10
7.2423168417
 20
10.4016776926
 11
9.319070953
 21
11.2347111846
  0
LINE
  5
2C4
100
AcDbEntity
  8
RACCORDO
100
AcDbLine
 62
7
  6
CONTINUOUS
 10
-5.0596546627
 20
15.7800141716
 11
-5.0596546627
 21
16.0640815781
  0
LINE
  5
2C5
100
AcDbEntity
  8
DRAFT
100
AcDbLine
 62
7
  6
CONTINUOUS
 10
-4.930929047
 20
28.6873256019
 11
-4.930929047
 21
27.9420319049
  0
LINE
  5
2C6
100
AcDbEntity
  8
RACCORDO
100
AcDbLine
 62
7
  6
CONTINUOUS
 10
-4.5887625022
 20
12.4464283369
 11
-4.5887625022
 21
11.4257367066
  0
LINE
  5
2C7
100
AcDbEntity
  8
RACCORDO
100
AcDbLine
 62
250
  6
CONTINUOUS
 10
-4.5217752041
 20
12.1641229057
 11
-4.5217752041
 21
11.246474988
  0
LINE
  5
2C8
100
AcDbEntity
  8
RACCORDO
100
AcDbLine
 62
250
  6
CONTINUOUS
 10
-4.2195155309
 20
24.0336886984
 11
-4.2195155309
 21
22.9928030748
  0
LINE
  5
2C9
100
AcDbEntity
  8
RACCORDO
100
AcDbLine
 62
7
  6
CONTINUOUS
 10
-4.0076831583
 20
24.2933697189
 11
-4.0076831583
 21
23.2517284235
  0
LINE
  5
2CA
100
AcDbEntity
  8
RACCORDO
100
AcDbLine
 62
7
  6
CONTINUOUS
 10
0.5038113288
 20
4.8086148377
 11
2.4480669309
 21
5.6203182385
  0
LINE
  5
2CB
100
AcDbEntity
  8
RACCORDO
100
AcDbLine
 62
250
  6
CONTINUOUS
 10
0.598992987
 20
4.7542244102
 11
2.5427897979
 21
5.5657362712
  0
LINE
  5
2CC
100
AcDbEntity
  8
RACCORDO
100
AcDbLine
 62
250
  6
CONTINUOUS
 10
4.1414789568
 20
4.6674796138
 11
3.4927932248
 21
4.4022244462
  0
LINE
  5
2CD
100
AcDbEntity
  8
RACCORDO
100
AcDbLine
 62
250
  6
CONTINUOUS
 10
4.2664772433
 20
4.3376143313
 11
3.6177915113
 21
4.0723591638
  0
LINE
  5
2CE
100
AcDbEntity
  8
RACCORDO
100
AcDbLine
 62
7
  6
CONTINUOUS
 10
2.4480718519
 20
5.6203202925
 11
2.448528718
 21
5.6205068065
  0
LINE
  5
2CF
100
AcDbEntity
  8
RACCORDO
100
AcDbLine
 62
250
  6
CONTINUOUS
 10
3.4927932248
 20
4.4022244462
 11
1.5372084799
 21
3.605149797
  0
LINE
  5
2D0
100
AcDbEntity
  8
RACCORDO
100
AcDbLine
 62
250
  6
CONTINUOUS
 10
3.6177915113
 20
4.0723591638
 11
1.6622067664
 21
3.2752845146
  0
LINE
  5
2D1
100
AcDbEntity
  8
RACCORDO
100
AcDbLine
 62
7
  6
CONTINUOUS
 10
15.257725864
 20
11.6664012665
 11
15.6882356124
 21
11.8411882104
  0
LINE
  5
2D2
100
AcDbEntity
  8
RACCORDO
100
AcDbLine
 62
7
  6
CONTINUOUS
 10
2.4485335656
 20
5.620508741
 11
3.1016154552
 21
5.8811303867
  0
LINE
  5
2D3
100
AcDbEntity
  8
RACCORDO
100
AcDbLine
 62
250
  6
CONTINUOUS
 10
2.5427897979
 20
5.5657362712
 11
3.1954094104
 21
5.8261734386
  0
LINE
  5
2D4
100
AcDbEntity
  8
DRAFT
100
AcDbLine
 62
7
  6
CONTINUOUS
 10
3.6715664952
 20
5.4596617337
 11
11.5170687258
 21
8.542724685
  0
LINE
  5
2D5
100
AcDbEntity
  8
RACCORDO
100
AcDbLine
 62
250
  6
CONTINUOUS
 10
15.7197548688
 20
10.6429975402
 11
11.2337960833
 21
8.8896614011
  0
LINE
  5
2D6
100
AcDbEntity
  8
RACCORDO
100
AcDbLine
 62
250
  6
CONTINUOUS
 10
15.891805071
 20
10.4322855578
 11
11.4058428066
 21
8.6789480591
  0
LINE
  5
2D7
100
AcDbEntity
  8
RACCORDO
100
AcDbLine
 62
7
  6
CONTINUOUS
 10
16.7893578308
 20
10.4925944206
 11
16.3538421755
 21
10.3239384356
  0
LINE
  5
2D8
100
AcDbEntity
  8
RACCORDO
100
AcDbLine
 62
250
  6
CONTINUOUS
 10
-26.0362721322
 20
24.9082552953
 11
-4.3535589686
 21
-1.6475364496
  0
LINE
  5
2D9
100
AcDbEntity
  8
RACCORDO
100
AcDbLine
 62
250
  6
CONTINUOUS
 10
-24.8145774521
 20
26.4361977769
 11
-3.1153374458
 21
-0.139835134
  0
LWPOLYLINE
  5
2DA
100
AcDbEntity
  8
RACCORDO
100
AcDbPolyline
 62
7
  6
CONTINUOUS
 90
65
 70
0
 10
-15.1731172989
 20
10.9904532435
 10
-15.0063424799
 20
10.7840103244
 10
-14.8316078385
 20
10.5630144819
 10
-14.6570209372
 20
10.3373815822
 10
-14.4826471277
 20
10.1071839631
 10
-14.3085501485
 20
9.8724966366
 10
-14.1347965327
 20
9.6334005997
 10
-13.9614449028
 20
9.3899675612
 10
-13.7885553526
 20
9.1422751072
 10
-13.6161956404
 20
8.8904136757
 10
-13.4444244072
 20
8.6344619103
 10
-13.2733010728
 20
8.3745037941
 10
-13.1028935825
 20
8.1106386542
 10
-12.9332598336
 20
7.8429518948
 10
-12.7644561362
 20
7.5715303937
 10
-12.5965471242
 20
7.2964767658
 10
-12.4295888473
 20
7.0178809899
 10
-12.263636186
 20
6.735835017
 10
-12.0987511028
 20
6.4504454054
 10
-11.9349879883
 20
6.1618069344
 10
-11.7723996177
 20
5.87001534
 10
-11.6110446254
 20
5.5751795525
 10
-11.4509754404
 20
5.2773983474
 10
-11.2922429059
 20
4.9767712375
 10
-11.1349023756
 20
4.6734091037
 10
-10.9790039783
 20
4.367413804
 10
-10.8245967691
 20
4.0588886323
 10
-10.6717335636
 20
3.7479474222
 10
-10.5204623091
 20
3.4346951168
 10
-10.3708299607
 20
3.1192380053
 10
-10.2228868563
 20
2.8016927204
 10
-10.0766787083
 20
2.4821669713
 10
-9.9322502429
 20
2.1607695669
 10
-9.7896492529
 20
1.8376195312
 10
-9.6489191427
 20
1.5128269583
 10
-9.5101023188
 20
1.186502747
 10
-9.3732439274
 20
0.8587678019
 10
-9.2383849217
 20
0.529734018
 10
-9.1055653875
 20
0.1995141342
 10
-8.9748279261
 20
-0.1317690998
 10
-8.8462109556
 20
-0.4640024493
 10
-8.7197521807
 20
-0.7970717103
 10
-8.5954917705
 20
-1.1308522158
 10
-8.4734656786
 20
-1.4652294312
 10
-8.3537090001
 20
-1.8000884936
 10
-8.2362591379
 20
-2.1353039328
 10
-8.1211494596
 20
-2.4707605106
 10
-8.0084124566
 20
-2.8063429886
 10
-7.8980826366
 20
-3.1419257735
 10
-7.790190799
 20
-3.4773931541
 10
-7.6847667153
 20
-3.8126301682
 10
-7.5818416952
 20
-4.1475124327
 10
-7.481443775
 20
-4.4819247435
 10
-7.3836001687
 20
-4.8157522939
 10
-7.2883392258
 20
-5.1488716022
 10
-7.195686197
 20
-5.4811684044
 10
-7.1056656993
 20
-5.8125284545
 10
-7.0183033009
 20
-6.1428288528
 10
-6.933621334
 20
-6.4719570856
 10
-6.8516418557
 20
-6.799799525
 10
-6.7723880277
 20
-7.1262324389
 10
-6.6958794068
 20
-7.4511446207
 10
-6.6221351487
 20
-7.7744243958
 10
-6.5511756293
 20
-8.0959484922
 10
-6.4830175256
 20
-8.4156075389
  0
LINE
  5
2DB
100
AcDbEntity
  8
RACCORDO
100
AcDbLine
 62
250
  6
CONTINUOUS
 10
0.3501266064
 20
4.57791278
 11
0.3501266123
 21
4.577874498
  0
LINE
  5
2DC
100
AcDbEntity
  8
RACCORDO
100
AcDbLine
 62
250
  6
CONTINUOUS
 10
-0.6246925808
 20
6.4735430316
 11
-0.6246925808
 21
7.3911909493
  0
LINE
  5
2DD
100
AcDbEntity
  8
RACCORDO
100
AcDbLine
 62
250
  6
CONTINUOUS
 10
0.0557967388
 20
6.361531403
 11
0.0557967388
 21
7.4034041002
  0
LINE
  5
2DE
100
AcDbEntity
  8
RACCORDO
100
AcDbLine
 62
7
  6
CONTINUOUS
 10
0.3501266064
 20
4.2993991841
 11
0.3501266064
 21
4.5779129363
  0
LINE
  5
2DF
100
AcDbEntity
  8
RACCORDO
100
AcDbLine
 62
250
  6
CONTINUOUS
 10
3.6177915113
 20
3.4787894724
 11
4.2664772433
 21
4.0535469247
  0
LINE
  5
2E0
100
AcDbEntity
  8
RACCORDO
100
AcDbLine
 62
7
  6
CONTINUOUS
 10
3.6177915113
 20
3.4091598585
 11
4.3061376444
 21
4.0190577649
  0
LINE
  5
2E1
100
AcDbEntity
  8
DRAFT
100
AcDbLine
 62
7
  6
CONTINUOUS
 10
4.7088169151
 20
2.3653240533
 11
6.8759701849
 21
3.3699656526
  0
LINE
  5
2E2
100
AcDbEntity
  8
DRAFT
100
AcDbLine
 62
7
  6
CONTINUOUS
 10
11.8567956283
 20
7.6461995104
 11
4.3903453373
 21
4.3664140679
  0
LINE
  5
2E3
100
AcDbEntity
  8
DRAFT
100
AcDbLine
 62
7
  6
CONTINUOUS
 10
4.5013863036
 20
3.0495135586
 11
6.4417007476
 21
3.9018349187
  0
LINE
  5
2E4
100
AcDbEntity
  8
RACCORDO
100
AcDbLine
 62
250
  6
CONTINUOUS
 10
-3.1153374458
 20
-0.139835134
 11
2.3260354774
 21
2.2234594087
  0
LINE
  5
2E5
100
AcDbEntity
  8
RACCORDO
100
AcDbLine
 62
250
  6
CONTINUOUS
 10
3.8359764766
 20
2.1110906826
 11
-2.8502705018
 21
-0.7928769775
  0
LINE
  5
2E6
100
AcDbEntity
  8
DRAFT
100
AcDbLine
 62
7
  6
CONTINUOUS
 10
11.8567956283
 20
7.3016391241
 11
4.3377330137
 21
4.052873115
  0
LINE
  5
2E7
100
AcDbEntity
  8
RACCORDO
100
AcDbLine
 62
7
  6
CONTINUOUS
 10
6.8759701849
 20
3.3699656526
 11
11.806760267
 21
5.3461363248
  0
LINE
  5
2E8
100
AcDbEntity
  8
DRAFT
100
AcDbLine
 62
7
  6
CONTINUOUS
 10
3.6168574225
 20
2.7252364947
 11
3.6177915113
 21
2.7256078695
  0
LINE
  5
2E9
100
AcDbEntity
  8
RACCORDO
100
AcDbLine
 62
250
  6
CONTINUOUS
 10
12.1969062453
 20
6.0671281257
 11
20.9740270213
 21
9.5112816517
  0
LINE
  5
2EA
100
AcDbEntity
  8
RACCORDO
100
AcDbLine
 62
250
  6
CONTINUOUS
 10
12.6340606566
 20
4.9390951059
 11
21.6702852019
 21
8.4849212856
  0
LINE
  5
2EB
100
AcDbEntity
  8
0
100
AcDbLine
 62
250
  6
CONTINUOUS
 10
4.4587407526
 20
3.106948321
 11
3.6177915113
 21
2.7832658454
  0
LINE
  5
2EC
100
AcDbEntity
  8
RACCORDO
100
AcDbLine
 62
250
  6
CONTINUOUS
 10
4.7088169151
 20
2.4470481222
 11
3.8359764766
 21
2.1110906826
  0
LINE
  5
2ED
100
AcDbEntity
  8
RACCORDO
100
AcDbLine
 62
7
  6
CONTINUOUS
 10
6.4417007476
 20
3.9018349187
 11
12.1925352904
 21
6.0747640718
  0
LINE
  5
2EE
100
AcDbEntity
  8
RACCORDO
100
AcDbLine
 62
250
  6
CONTINUOUS
 10
0.3836202554
 20
4.2110108365
 11
0.3836202554
 21
4.4895245886
  0
LINE
  5
2EF
100
AcDbEntity
  8
DRAFT
100
AcDbLine
 62
7
  6
CONTINUOUS
 10
0.4817956283
 20
21.7544491178
 11
0.4817956283
 21
21.4649826856
  0
LINE
  5
2F0
100
AcDbEntity
  8
DRAFT
100
AcDbLine
 62
7
  6
CONTINUOUS
 10
0.4927915113
 20
7.5814864121
 11
0.4927915113
 21
6.5561815794
  0
LINE
  5
2F1
100
AcDbEntity
  8
DRAFT
100
AcDbLine
 62
250
  6
CONTINUOUS
 10
0.9595210706
 20
11.9141989606
 11
0.9595210706
 21
13.1655748937
  0
LINE
  5
2F2
100
AcDbEntity
  8
RACCORDO
100
AcDbLine
 62
250
  6
CONTINUOUS
 10
1.3218357483
 20
3.3404499755
 11
1.3218357483
 21
3.0619362233
  0
LINE
  5
2F3
100
AcDbEntity
  8
RACCORDO
100
AcDbLine
 62
250
  6
CONTINUOUS
 10
1.3218357483
 20
-30.6590493502
 11
1.3218357483
 21
-30.9375631023
  0
LINE
  5
2F4
100
AcDbEntity
  8
RACCORDO
100
AcDbLine
 62
250
  6
CONTINUOUS
 10
1.6622067664
 20
3.2752845146
 11
1.6622067664
 21
2.9967707624
  0
LINE
  5
2F5
100
AcDbEntity
  8
RACCORDO
100
AcDbLine
 62
250
  6
CONTINUOUS
 10
1.6622067664
 20
-30.7242148111
 11
1.6622067664
 21
-31.0027285632
  0
LINE
  5
2F6
100
AcDbEntity
  8
ASSI
100
AcDbLine
 62
7
  6
CONTINUOUS
 10
1.9595210706
 20
12.8788480619
 11
1.9595210706
 21
13.1602308005
  0
LINE
  5
2F7
100
AcDbEntity
  8
RACCORDO
100
AcDbLine
 62
250
  6
CONTINUOUS
 10
2.1904791699
 20
2.8563001842
 11
2.1904791699
 21
2.3000401386
  0
LINE
  5
2F8
100
AcDbEntity
  8
RACCORDO
100
AcDbLine
 62
250
  6
CONTINUOUS
 10
2.1904791699
 20
-29.5002721049
 11
2.1904791699
 21
-29.7983920004
  0
LINE
  5
2F9
100
AcDbEntity
  8
DRAFT
100
AcDbLine
 62
250
  6
CONTINUOUS
 10
2.3255464744
 20
11.6615507429
 11
2.3255464744
 21
12.6200290168
  0
LINE
  5
2FA
100
AcDbEntity
  8
DRAFT
100
AcDbLine
 62
7
  6
CONTINUOUS
 10
2.3548909129
 20
12.0891148195
 11
2.3548909129
 21
11.6256112924
  0
LINE
  5
2FB
100
AcDbEntity
  8
RACCORDO
100
AcDbLine
 62
250
  6
CONTINUOUS
 10
2.530850188
 20
2.9388694587
 11
2.530850188
 21
2.239254846
  0
LINE
  5
2FC
100
AcDbEntity
  8
RACCORDO
100
AcDbLine
 62
250
  6
CONTINUOUS
 10
2.530850188
 20
-29.3812811723
 11
2.530850188
 21
-29.9656195339
  0
LINE
  5
2FD
100
AcDbEntity
  8
RACCORDO
100
AcDbLine
 62
250
  6
CONTINUOUS
 10
3.1003618602
 20
15.0651955178
 11
3.1003618602
 21
14.0243150157
  0
LINE
  5
2FE
100
AcDbEntity
  8
RACCORDO
100
AcDbLine
 62
7
  6
CONTINUOUS
 10
16.2524022499
 20
11.9606204009
 11
15.9301747581
 21
11.70446198
  0
LINE
  5
2FF
100
AcDbEntity
  8
RACCORDO
100
AcDbLine
 62
250
  6
CONTINUOUS
 10
12.1716095643
 20
4.3833141946
 11
4.7088169151
 21
1.2570776728
  0
LINE
  5
300
100
AcDbEntity
  8
RACCORDO
100
AcDbLine
 62
250
  6
CONTINUOUS
 10
12.4644596679
 20
3.0247952918
 11
4.7338169151
 21
-0.2136392465
  0
LINE
  5
301
100
AcDbEntity
  8
RACCORDO
100
AcDbLine
 62
7
  6
CONTINUOUS
 10
-7.3819293453
 20
-5.5284313813
 11
-7.2743226115
 21
-5.4845011162
  0
LINE
  5
302
100
AcDbEntity
  8
RACCORDO
100
AcDbLine
 62
7
  6
CONTINUOUS
 10
1.5217147075
 20
2.9008781241
 11
2.3020151534
 21
2.8488655122
  0
LINE
  5
303
100
AcDbEntity
  8
RACCORDO
100
AcDbLine
 62
250
  6
CONTINUOUS
 10
1.6622067664
 20
2.9967707624
 11
2.530850188
 21
2.9388694587
  0
LINE
  5
304
100
AcDbEntity
  8
RACCORDO
100
AcDbLine
 62
7
  6
CONTINUOUS
 10
-20.2935225609
 20
29.4935041389
 11
-19.355307068
 21
28.3444295257
  0
LINE
  5
305
100
AcDbEntity
  8
RACCORDO
100
AcDbLine
 62
7
  6
CONTINUOUS
 10
-10.8435225609
 20
17.9196651043
 11
-9.905307068
 21
16.7705904911
  0
LINE
  5
306
100
AcDbEntity
  8
RACCORDO
100
AcDbLine
 62
7
  6
CONTINUOUS
 10
-9.0435225609
 20
15.7151243358
 11
-8.105307068
 21
14.5660497226
  0
LINE
  5
307
100
AcDbEntity
  8
RACCORDO
100
AcDbLine
 62
7
  6
CONTINUOUS
 10
0.4064774391
 20
4.1412853011
 11
1.344692932
 21
2.9922106879
  0
LINE
  5
308
100
AcDbEntity
  8
RACCORDO
100
AcDbLine
 62
250
  6
CONTINUOUS
 10
-20.3163797446
 20
29.5632296743
 11
-19.3781642517
 21
28.4141550611
  0
LINE
  5
309
100
AcDbEntity
  8
RACCORDO
100
AcDbLine
 62
250
  6
CONTINUOUS
 10
-10.8663797446
 20
17.9893906397
 11
-9.9281642517
 21
16.8403160265
  0
LINE
  5
30A
100
AcDbEntity
  8
RACCORDO
100
AcDbLine
 62
250
  6
CONTINUOUS
 10
-9.0663797446
 20
15.7848498711
 11
-8.1281642517
 21
14.635775258
  0
LINE
  5
30B
100
AcDbEntity
  8
RACCORDO
100
AcDbLine
 62
250
  6
CONTINUOUS
 10
0.3836202554
 20
4.2110108365
 11
1.3218357483
 21
3.0619362233
  0
LINE
  5
30C
100
AcDbEntity
  8
RACCORDO
100
AcDbLine
 62
7
  6
CONTINUOUS
 10
3.3143468541
 20
15.3257508085
 11
3.3143468541
 21
14.2841094138
  0
LINE
  5
30D
100
AcDbEntity
  8
RACCORDO
100
AcDbLine
 62
7
  6
CONTINUOUS
 10
3.6177915113
 20
-30.2223245702
 11
3.6177915113
 21
-29.0012953485
  0
LINE
  5
30E
100
AcDbEntity
  8
RACCORDO
100
AcDbLine
 62
7
  6
CONTINUOUS
 10
3.6177915113
 20
2.7256078695
 11
3.6177915113
 21
4.0723591638
  0
LINE
  5
30F
100
AcDbEntity
  8
RACCORDO
100
AcDbLine
 62
250
  6
CONTINUOUS
 10
4.2664772433
 20
-29.9515060553
 11
4.2664772433
 21
-29.6674386487
  0
LINE
  5
310
100
AcDbEntity
  8
RACCORDO
100
AcDbLine
 62
250
  6
CONTINUOUS
 10
4.2664772433
 20
4.0535469247
 11
4.2664772433
 21
4.3376143313
  0
LINE
  5
311
100
AcDbEntity
  8
RACCORDO
100
AcDbLine
 62
7
  6
CONTINUOUS
 10
4.3903453373
 20
-29.7988778431
 11
4.3903453373
 21
-29.5148104366
  0
LINE
  5
312
100
AcDbEntity
  8
RACCORDO
100
AcDbLine
 62
7
  6
CONTINUOUS
 10
4.3903453373
 20
4.2061751369
 11
4.3903453373
 21
4.4902425435
  0
LINE
  5
313
100
AcDbEntity
  8
RACCORDO
100
AcDbLine
 62
7
  6
CONTINUOUS
 10
4.7088169151
 20
2.4470481222
 11
4.7088169151
 21
-28.4410419396
  0
LINE
  5
314
100
AcDbEntity
  8
RACCORDO
100
AcDbLine
 62
7
  6
CONTINUOUS
 10
4.7338169151
 20
-25.8415918144
 11
4.7338169151
 21
-0.2136392465
  0
LINE
  5
315
100
AcDbEntity
  8
RACCORDO
100
AcDbLine
 62
7
  6
CONTINUOUS
 10
-10.2032093423
 20
-8.311702509
 11
-10.9170701771
 21
-8.6039258567
  0
LINE
  5
316
100
AcDbEntity
  8
DRAFT
100
AcDbLine
 62
7
  6
CONTINUOUS
 10
23.5876058028
 20
4.3715097811
 11
23.6319354031
 21
4.388649472
  0
LINE
  5
317
100
AcDbEntity
  8
RACCORDO
100
AcDbLine
 62
250
  6
CONTINUOUS
 10
-20.3163797446
 20
29.8417434265
 11
-19.3781642517
 21
28.6926688133
  0
LINE
  5
318
100
AcDbEntity
  8
RACCORDO
100
AcDbLine
 62
250
  6
CONTINUOUS
 10
-10.8663797446
 20
18.2679043918
 11
-9.9281642517
 21
17.1188297786
  0
LINE
  5
319
100
AcDbEntity
  8
RACCORDO
100
AcDbLine
 62
250
  6
CONTINUOUS
 10
-9.0663797446
 20
16.0633636233
 11
-8.1281642517
 21
14.9142890101
  0
LINE
  5
31A
100
AcDbEntity
  8
RACCORDO
100
AcDbLine
 62
250
  6
CONTINUOUS
 10
0.3836202554
 20
4.4895245886
 11
1.3218357483
 21
3.3404499755
  0
LINE
  5
31B
100
AcDbEntity
  8
RACCORDO
100
AcDbLine
 62
7
  6
CONTINUOUS
 10
2.1904791699
 20
2.3000401386
 11
1.710152818
 21
2.8883173748
  0
LINE
  5
31C
100
AcDbEntity
  8
RACCORDO
100
AcDbLine
 62
7
  6
CONTINUOUS
 10
-7.2595208301
 20
13.8738791733
 11
-7.739847182
 21
14.4621564094
  0
LINE
  5
31D
100
AcDbEntity
  8
RACCORDO
100
AcDbLine
 62
7
  6
CONTINUOUS
 10
-9.0998733936
 20
16.127841537
 11
-9.539847182
 21
16.6666971779
  0
LINE
  5
31E
100
AcDbEntity
  8
RACCORDO
100
AcDbLine
 62
7
  6
CONTINUOUS
 10
-18.5095208301
 20
27.6522589764
 11
-18.989847182
 21
28.2405362126
  0
LINE
  5
31F
100
AcDbEntity
  8
RACCORDO
100
AcDbLine
 62
250
  6
CONTINUOUS
 10
-20.101007013
 20
30.106443248
 11
-19.1627915201
 21
28.9573686348
  0
LINE
  5
320
100
AcDbEntity
  8
RACCORDO
100
AcDbLine
 62
250
  6
CONTINUOUS
 10
-10.651007013
 20
18.5326042133
 11
-9.7127915201
 21
17.3835296002
  0
LINE
  5
321
100
AcDbEntity
  8
RACCORDO
100
AcDbLine
 62
250
  6
CONTINUOUS
 10
-8.851007013
 20
16.3280634448
 11
-7.9127915201
 21
15.1789888317
  0
LINE
  5
322
100
AcDbEntity
  8
RACCORDO
100
AcDbLine
 62
250
  6
CONTINUOUS
 10
0.598992987
 20
4.7542244102
 11
1.5372084799
 21
3.605149797
  0
LINE
  5
323
100
AcDbEntity
  8
RACCORDO
100
AcDbLine
 62
7
  6
CONTINUOUS
 10
-0.6246925808
 20
6.4735430316
 11
-4.5217752041
 21
11.246474988
  0
LINE
  5
324
100
AcDbEntity
  8
RACCORDO
100
AcDbLine
 62
7
  6
CONTINUOUS
 10
-11.8746925808
 20
20.2519228347
 11
-15.7717752041
 21
25.0248547911
  0
LINE
  5
325
100
AcDbEntity
  8
RACCORDO
100
AcDbLine
 62
250
  6
CONTINUOUS
 10
-0.6246925808
 20
7.3911909493
 11
-4.5217752041
 21
12.1641229057
  0
LINE
  5
326
100
AcDbEntity
  8
RACCORDO
100
AcDbLine
 62
250
  6
CONTINUOUS
 10
-11.8746925808
 20
21.1695707525
 11
-15.7717752041
 21
25.9425027089
  0
LINE
  5
327
100
AcDbEntity
  8
RACCORDO
100
AcDbLine
 62
250
  6
CONTINUOUS
 10
-0.2529328155
 20
7.3584962559
 11
-4.5491401291
 21
12.6202541298
  0
LINE
  5
328
100
AcDbEntity
  8
RACCORDO
100
AcDbLine
 62
250
  6
CONTINUOUS
 10
-11.5029328155
 20
21.1368760591
 11
-15.7991401291
 21
26.3986339329
  0
LINE
  5
329
100
AcDbEntity
  8
DRAFT
100
AcDbLine
 62
7
  6
CONTINUOUS
 10
1.5597336022
 20
5.2494497256
 11
0.4927915113
 21
6.5561815794
  0
LINE
  5
32A
100
AcDbEntity
  8
DRAFT
100
AcDbLine
 62
7
  6
CONTINUOUS
 10
-4.5055219282
 20
12.6778403301
 11
-5.8322084887
 21
14.302692891
  0
LINE
  5
32B
100
AcDbEntity
  8
DRAFT
100
AcDbLine
 62
7
  6
CONTINUOUS
 10
-9.6902663978
 20
19.0278295287
 11
-10.7572084887
 21
20.3345613826
  0
LINE
  5
32C
100
AcDbEntity
  8
DRAFT
100
AcDbLine
 62
7
  6
CONTINUOUS
 10
-15.7555219282
 20
26.4562201332
 11
-17.0822084887
 21
28.0810726941
  0
LINE
  5
32D
100
AcDbEntity
  8
DRAFT
100
AcDbLine
 62
7
  6
CONTINUOUS
 10
-15.1572084887
 20
26.7487436494
 11
-10.7572084887
 21
21.3598662153
  0
LINE
  5
32E
100
AcDbEntity
  8
DRAFT
100
AcDbLine
 62
7
  6
CONTINUOUS
 10
-3.9072084887
 20
12.9703638463
 11
0.4927915113
 21
7.5814864121
  0
LINE
  5
32F
100
AcDbEntity
  8
RACCORDO
100
AcDbLine
 62
7
  6
CONTINUOUS
 10
4.4587407526
 20
3.106948321
 11
3.9625632108
 21
3.7146392207
  0
LINE
  5
330
100
AcDbEntity
  8
DRAFT
100
AcDbLine
 62
7
  6
CONTINUOUS
 10
-4.4955465188
 20
14.0736657336
 11
-5.4874367892
 21
15.2884782553
  0
LINE
  5
331
100
AcDbEntity
  8
DRAFT
100
AcDbLine
 62
7
  6
CONTINUOUS
 10
-7.032871109
 20
17.1812410125
 11
-7.2874367892
 21
17.4930190238
  0
LINE
  5
332
100
AcDbEntity
  8
RACCORDO
100
AcDbLine
 62
7
  6
CONTINUOUS
 10
-15.7455465188
 20
27.8520455367
 11
-16.7374367892
 21
29.0668580585
  0
LINE
  5
333
100
AcDbEntity
  8
RACCORDO
100
AcDbLine
 62
7
  6
CONTINUOUS
 10
3.4927932248
 20
4.4022244462
 11
2.5427897979
 21
5.5657362712
  0
LINE
  5
334
100
AcDbEntity
  8
RACCORDO
100
AcDbLine
 62
7
  6
CONTINUOUS
 10
-5.9572067752
 20
15.9760634809
 11
-6.9072102021
 21
17.1395753058
  0
LINE
  5
335
100
AcDbEntity
  8
RACCORDO
100
AcDbLine
 62
7
  6
CONTINUOUS
 10
-7.7572067752
 20
18.1806042494
 11
-8.7072102021
 21
19.3441160743
  0
LINE
  5
336
100
AcDbEntity
  8
RACCORDO
100
AcDbLine
 62
7
  6
CONTINUOUS
 10
-17.2072067752
 20
29.754443284
 11
-18.1572102021
 21
30.917955109
  0
LINE
  5
337
100
AcDbEntity
  8
DRAFT
100
AcDbLine
 62
7
  6
CONTINUOUS
 10
6.319070953
 20
14.9089457988
 11
6.319070953
 21
14.1636521017
  0
LINE
  5
338
100
AcDbEntity
  8
RACCORDO
100
AcDbLine
 62
250
  6
CONTINUOUS
 10
7.0304844691
 20
10.2553088953
 11
7.0304844691
 21
9.2144232716
  0
LINE
  5
339
100
AcDbEntity
  8
RACCORDO
100
AcDbLine
 62
7
  6
CONTINUOUS
 10
7.2423168417
 20
10.5149899158
 11
7.2423168417
 21
9.4733486203
  0
LINE
  5
33A
100
AcDbEntity
  8
DRAFT
100
AcDbLine
 62
7
  6
CONTINUOUS
 10
-2.5911830849
 20
12.7686682178
 11
0.9088169151
 21
8.482061168
  0
LINE
  5
33B
100
AcDbEntity
  8
DRAFT
100
AcDbLine
 62
7
  6
CONTINUOUS
 10
-10.3411830849
 20
22.2604409711
 11
-13.8411830849
 21
26.547048021
  0
LINE
  5
33C
100
AcDbEntity
  8
RACCORDO
100
AcDbLine
 62
250
  6
CONTINUOUS
 10
-17.5045905896
 20
31.1783922764
 11
-16.5585210432
 21
30.0196984516
  0
LINE
  5
33D
100
AcDbEntity
  8
RACCORDO
100
AcDbLine
 62
250
  6
CONTINUOUS
 10
-8.0545905896
 20
19.6045532418
 11
-7.1085210432
 21
18.4458594169
  0
LINE
  5
33E
100
AcDbEntity
  8
RACCORDO
100
AcDbLine
 62
250
  6
CONTINUOUS
 10
-6.2545905896
 20
17.4000124732
 11
-5.3085210432
 21
16.2413186484
  0
LINE
  5
33F
100
AcDbEntity
  8
RACCORDO
100
AcDbLine
 62
250
  6
CONTINUOUS
 10
3.1954094104
 20
5.8261734386
 11
4.1414789568
 21
4.6674796138
  0
LINE
  5
340
100
AcDbEntity
  8
RACCORDO
100
AcDbLine
 62
7
  6
CONTINUOUS
 10
-17.3120750417
 20
31.1592690891
 11
-16.3660054954
 21
30.0005752643
  0
LINE
  5
341
100
AcDbEntity
  8
RACCORDO
100
AcDbLine
 62
7
  6
CONTINUOUS
 10
-7.8620750417
 20
19.5854300545
 11
-6.9160054954
 21
18.4267362297
  0
LINE
  5
342
100
AcDbEntity
  8
RACCORDO
100
AcDbLine
 62
7
  6
CONTINUOUS
 10
-6.0620750417
 20
17.380889286
 11
-5.1160054954
 21
16.2221954612
  0
LINE
  5
343
100
AcDbEntity
  8
RACCORDO
100
AcDbLine
 62
7
  6
CONTINUOUS
 10
3.3879249583
 20
5.8070502513
 11
4.3339945046
 21
4.6483564265
  0
LINE
  5
344
100
AcDbEntity
  8
DRAFT
100
AcDbLine
 62
7
  6
CONTINUOUS
 10
-0.0906204536
 20
11.4779977395
 11
0.0942425686
 21
11.2515877011
  0
LINE
  5
345
100
AcDbEntity
  8
DRAFT
100
AcDbLine
 62
7
  6
CONTINUOUS
 10
5.5457863202
 20
4.5748374502
 11
6.1867365941
 21
3.7898368893
  0
LINE
  5
346
100
AcDbEntity
  8
DRAFT
100
AcDbLine
 62
7
  6
CONTINUOUS
 10
-14.0925686896
 20
29.0510760997
 11
-13.8314255589
 21
28.7312423897
  0
LINE
  5
347
100
AcDbEntity
  8
DRAFT
100
AcDbLine
 62
7
  6
CONTINUOUS
 10
6.4417007476
 20
3.9018349187
 11
6.8759701849
 21
3.3699656526
  0
LINE
  5
348
100
AcDbEntity
  8
DRAFT
100
AcDbLine
 62
7
  6
CONTINUOUS
 10
0.3917007476
 20
11.3822520687
 11
1.0089247396
 21
10.62631015
  0
LINE
  5
349
100
AcDbEntity
  8
DRAFT
100
AcDbLine
 62
7
  6
CONTINUOUS
 10
-5.4648263638
 20
18.9085570032
 11
-2.3046682618
 21
15.038169575
  0
LINE
  5
34A
100
AcDbEntity
  8
RACCORDO
100
AcDbLine
 62
7
  6
CONTINUOUS
 10
3.1261509249
 20
9.3767511222
 11
1.6666855171
 21
11.1642238954
  0
LINE
  5
34B
100
AcDbEntity
  8
RACCORDO
100
AcDbLine
 62
7
  6
CONTINUOUS
 10
-8.8832840219
 20
24.0852449817
 11
-10.8333144829
 21
26.4735347878
  0
LINE
  5
34C
100
AcDbEntity
  8
DRAFT
100
AcDbLine
 62
7
  6
CONTINUOUS
 10
0.4817956283
 20
21.7544491178
 11
0.2670687258
 21
22.3211044881
  0
LINE
  5
34D
100
AcDbEntity
  8
DRAFT
100
AcDbLine
 62
7
  6
CONTINUOUS
 10
25.3528100218
 20
-1.3556090803
 11
25.8837704025
 21
-1.1271972614
  0
LWPOLYLINE
  5
34E
100
AcDbEntity
  8
RACCORDO
100
AcDbPolyline
 62
7
  6
CONTINUOUS
 90
52
 70
0
 10
-8.9731570644
 20
26.4729077653
 10
-8.9835374042
 20
26.4853503676
 10
-9.0000465202
 20
26.5041067892
 10
-9.0172968145
 20
26.5224993505
 10
-9.0352839636
 20
26.5405178507
 10
-9.0539913696
 20
26.5581411717
 10
-9.0733877822
 20
26.5753373256
 10
-9.0934608438
 20
26.5920938332
 10
-9.1141974868
 20
26.6083986213
 10
-9.1355619206
 20
26.6242230878
 10
-9.1575383321
 20
26.6395559507
 10
-9.1801117201
 20
26.6543875628
 10
-9.2032443001
 20
26.6686942555
 10
-9.2269184702
 20
26.6824670539
 10
-9.2511169398
 20
26.695697952
 10
-9.2757994137
 20
26.7083670804
 10
-9.3009451398
 20
26.7204668388
 10
-9.3265363216
 20
26.7319916808
 10
-9.3525344429
 20
26.7429270443
 10
-9.3789151505
 20
26.7532663922
 10
-9.4056616241
 20
26.7630065815
 10
-9.4327447358
 20
26.7721397064
 10
-9.4601427984
 20
26.7806616343
 10
-9.4878351933
 20
26.7885686788
 10
-9.5157929915
 20
26.7958548093
 10
-9.5439935384
 20
26.8025169009
 10
-9.5724162335
 20
26.8085522312
 10
-9.6010340162
 20
26.813956813
 10
-9.6298236116
 20
26.8187284585
 10
-9.658764469
 20
26.8228652164
 10
-9.6878327556
 20
26.8263648686
 10
-9.7170063345
 20
26.8292260953
 10
-9.7462632555
 20
26.8314472936
 10
-9.7755794734
 20
26.8330272068
 10
-9.8049332131
 20
26.8339651805
 10
-9.8343019908
 20
26.8342602443
 10
-9.8636605566
 20
26.8339121509
 10
-9.8929870764
 20
26.8329209258
 10
-9.9222591079
 20
26.8312864179
 10
-9.9514506887
 20
26.8290095575
 10
-9.9805398564
 20
26.8260911085
 10
-10.0095044637
 20
26.8225318222
 10
-10.0383188091
 20
26.818333732
 10
-10.0669609152
 20
26.8134983164
 10
-10.0954090827
 20
26.8080272311
 10
-10.1236385552
 20
26.8019234477
 10
-10.1516270373
 20
26.7951892602
 10
-10.1793537885
 20
26.7878269298
 10
-10.2067972303
 20
26.7798392767
 10
-10.2339363177
 20
26.7712287077
 10
-10.2607482985
 20
26.7619990026
 10
-10.279435472
 20
26.7551245057
  0
LINE
  5
34F
100
AcDbEntity
  8
DRAFT
100
AcDbLine
 62
7
  6
CONTINUOUS
 10
2.3255464744
 20
11.6615507429
 11
2.3548909129
 21
11.6256112924
  0
LINE
  5
350
100
AcDbEntity
  8
ASSI
100
AcDbLine
 62
7
  6
CONTINUOUS
 10
-7.3973676782
 20
24.0331435134
 11
-7.0381591407
 21
23.5932046993
  0
LINE
  5
351
100
AcDbEntity
  8
ASSI
100
AcDbLine
 62
7
  6
CONTINUOUS
 10
2.3548909129
 20
12.0891148195
 11
2.7246337541
 21
11.6362741709
  0
LINE
  5
352
100
AcDbEntity
  8
RACCORDO
100
AcDbLine
 62
250
  6
CONTINUOUS
 10
2.9818682303
 20
11.6611602684
 11
4.4206135786
 21
9.8990642818
  0
LINE
  5
353
100
AcDbEntity
  8
RACCORDO
100
AcDbLine
 62
250
  6
CONTINUOUS
 10
-7.5943448327
 20
24.614322976
 11
-9.1250528645
 21
26.4890497875
  0
LINE
  5
354
100
AcDbEntity
  8
ASSI
100
AcDbLine
 62
7
  6
CONTINUOUS
 10
-7.4115236745
 20
24.5454557441
 11
-6.7341659591
 21
23.715865356
  0
LINE
  5
355
100
AcDbEntity
  8
ASSI
100
AcDbLine
 62
7
  6
CONTINUOUS
 10
2.3255464744
 20
12.6200290168
 11
3.0882809962
 21
11.685873823
  0
LINE
  5
356
100
AcDbEntity
  8
RACCORDO
100
AcDbLine
 62
7
  6
CONTINUOUS
 10
3.1337647186
 20
11.6450174862
 11
4.5249540676
 21
9.9411654659
  0
LINE
  5
357
100
AcDbEntity
  8
RACCORDO
100
AcDbLine
 62
7
  6
CONTINUOUS
 10
-7.4424483444
 20
24.5981801938
 11
-8.9731563761
 21
26.4729070054
  0
LWPOLYLINE
  5
358
100
AcDbEntity
  8
RACCORDO
100
AcDbPolyline
 62
7
  6
CONTINUOUS
 90
25
 70
0
 10
12.9494215839
 20
3.6309027279
 10
12.9491038196
 20
3.6667466718
 10
12.9478794304
 20
3.7103878534
 10
12.9457304528
 20
3.7546694991
 10
12.9426409073
 20
3.7997317513
 10
12.9386055657
 20
3.8454921548
 10
12.9336534831
 20
3.8916281826
 10
12.9277911318
 20
3.938157394
 10
12.9210224693
 20
3.9850955634
 10
12.9134123024
 20
4.032088102
 10
12.9049812644
 20
4.0791360994
 10
12.8957466209
 20
4.1262460359
 10
12.8858074979
 20
4.1730399676
 10
12.8751992438
 20
4.2195025012
 10
12.8639507446
 20
4.2656353774
 10
12.8521903415
 20
4.3110572071
 10
12.8399632861
 20
4.3557517247
 10
12.827309934
 20
4.3997129187
 10
12.8143856562
 20
4.4425534488
 10
12.801245048
 20
4.4842565567
 10
12.7879352639
 20
4.5248206141
 10
12.7746316179
 20
4.5638679154
 10
12.7614361052
 20
4.6012686958
 10
12.7483597702
 20
4.6371476599
 10
12.2458895339
 20
5.963462564
  0
LINE
  5
359
100
AcDbEntity
  8
DRAFT
100
AcDbLine
 62
7
  6
CONTINUOUS
 10
11.8567956283
 20
7.3016391241
 11
11.8567956283
 21
7.6461995104
  0
LINE
  5
35A
100
AcDbEntity
  8
RACCORDO
100
AcDbLine
 62
250
  6
CONTINUOUS
 10
12.4644596679
 20
3.0247952918
 11
12.4644596679
 21
-15.9093072672
  0
LINE
  5
35B
100
AcDbEntity
  8
RACCORDO
100
AcDbLine
 62
7
  6
CONTINUOUS
 10
12.949421593
 20
3.6309065354
 11
12.949421593
 21
-14.5936385057
  0
LINE
  5
35C
100
AcDbEntity
  8
RACCORDO
100
AcDbLine
 62
7
  6
CONTINUOUS
 10
13.3067956283
 20
-22.1480432007
 11
13.3067956283
 21
-21.9364446801
  0
LINE
  5
35D
100
AcDbEntity
  8
0
100
AcDbLine
 62
7
  6
CONTINUOUS
 10
6.319070953
 20
14.1636521017
 11
4.6535012839
 21
13.9786608785
  0
LINE
  5
35E
100
AcDbEntity
  8
RACCORDO
100
AcDbLine
 62
7
  6
CONTINUOUS
 10
-7.9282852925
 20
14.4747171588
 11
-7.1479848466
 21
14.4227045469
  0
LINE
  5
35F
100
AcDbEntity
  8
RACCORDO
100
AcDbLine
 62
250
  6
CONTINUOUS
 10
-7.7877932336
 20
14.570609797
 11
-6.919149812
 21
14.5127084933
  0
LINE
  5
360
100
AcDbEntity
  8
RACCORDO
100
AcDbLine
 62
250
  6
CONTINUOUS
 10
15.891805071
 20
10.4322855578
 11
16.3538421755
 21
10.3239384356
  0
LINE
  5
361
100
AcDbEntity
  8
RACCORDO
100
AcDbLine
 62
7
  6
CONTINUOUS
 10
16.3322088053
 20
10.4833379115
 11
16.6020520733
 21
10.4200591704
  0
LINE
  5
362
100
AcDbEntity
  8
RACCORDO
100
AcDbLine
 62
250
  6
CONTINUOUS
 10
16.7893578308
 20
10.4925944206
 11
20.9740270213
 21
9.5112816517
  0
LINE
  5
363
100
AcDbEntity
  8
0
100
AcDbLine
 62
7
  6
CONTINUOUS
 10
7.4922416096
 20
10.5019282234
 11
4.6535012839
 21
13.9786608785
  0
LINE
  5
364
100
AcDbEntity
  8
0
100
AcDbLine
 62
7
  6
CONTINUOUS
 10
-3.7577583904
 20
24.2803080266
 11
-6.5964987161
 21
27.7570406817
  0
LINE
  5
365
100
AcDbEntity
  8
RACCORDO
100
AcDbLine
 62
7
  6
CONTINUOUS
 10
11.214815587
 20
7.0242584128
 11
12.0378090443
 21
6.0163013968
  0
LINE
  5
366
100
AcDbEntity
  8
DRAFT
100
AcDbLine
 62
7
  6
CONTINUOUS
 10
0.2116504649
 20
21.3488566026
 11
3.4547601009
 21
17.3768747085
  0
LINE
  5
367
100
AcDbEntity
  8
0
100
AcDbLine
 62
7
  6
CONTINUOUS
 10
8.8606734492
 20
11.0508374794
 11
6.319070953
 21
14.1636521017
  0
LINE
  5
368
100
AcDbEntity
  8
0
100
AcDbLine
 62
7
  6
CONTINUOUS
 10
-2.3893265508
 20
24.8292172825
 11
-4.930929047
 21
27.9420319049
  0
LINE
  5
369
100
AcDbEntity
  8
RACCORDO
100
AcDbLine
 62
250
  6
CONTINUOUS
 10
11.806760267
 20
5.3461363248
 11
12.1716095643
 21
4.3833141946
  0
LINE
  5
36A
100
AcDbEntity
  8
DRAFT
100
AcDbLine
 62
7
  6
CONTINUOUS
 10
11.8567956283
 20
7.6461995104
 11
11.5170687258
 21
8.542724685
  0
LINE
  5
36B
100
AcDbEntity
  8
RACCORDO
100
AcDbLine
 62
250
  6
CONTINUOUS
 10
18.0322154128
 20
-13.0147446275
 11
16.61977474
 21
-8.4321498602
  0
LINE
  5
36C
100
AcDbEntity
  8
RACCORDO
100
AcDbLine
 62
7
  6
CONTINUOUS
 10
17.4299811637
 20
-8.9535834977
 11
18.5632250897
 21
-12.6303380583
  0
LWPOLYLINE
  5
36D
100
AcDbEntity
  8
RACCORDO
100
AcDbPolyline
 62
7
  6
CONTINUOUS
 90
64
 70
0
 10
25.6421942514
 20
-5.4045331609
 10
25.657341882
 20
-5.3977954074
 10
25.6844570115
 20
-5.3849796348
 10
25.7111219869
 20
-5.371397491
 10
25.7373016553
 20
-5.3570744122
 10
25.7629868449
 20
-5.3420233158
 10
25.7881922586
 20
-5.3262409702
 10
25.8128950959
 20
-5.3097452217
 10
25.837074145
 20
-5.2925541747
 10
25.8607433794
 20
-5.2746598922
 10
25.8838801605
 20
-5.2560794792
 10
25.906462457
 20
-5.2368309813
 10
25.9285012724
 20
-5.2169032164
 10
25.9499724601
 20
-5.1963140262
 10
25.9708537858
 20
-5.175081094
 10
25.9911544727
 20
-5.1531887889
 10
26.0108560097
 20
-5.1306475872
 10
26.0299273313
 20
-5.107483988
 10
26.0483556587
 20
-5.0837042979
 10
26.0662029051
 20
-5.0592077256
 10
26.0833517728
 20
-5.0341344296
 10
26.0995542151
 20
-5.0088718368
 10
26.1148034281
 20
-4.9834951311
 10
26.1291346541
 20
-4.9580132208
 10
26.1424235
 20
-4.9327412055
 10
26.1546431687
 20
-4.9078689093
 10
26.1659118898
 20
-4.8832980943
 10
26.1763359392
 20
-4.8589126115
 10
26.1859426091
 20
-4.8347531182
 10
26.1947665895
 20
-4.810841425
 10
26.2028992954
 20
-4.7870224138
 10
26.2103624701
 20
-4.7633069743
 10
26.2171702562
 20
-4.7397298147
 10
26.2233788113
 20
-4.7161648931
 10
26.2290119028
 20
-4.6925668023
 10
26.2340615757
 20
-4.6690188344
 10
26.2385302969
 20
-4.6455839728
 10
26.2424359818
 20
-4.6222567592
 10
26.2457893035
 20
-4.5990742795
 10
26.2485937081
 20
-4.5761579754
 10
26.2508723911
 20
-4.5535139929
 10
26.2526475292
 20
-4.5311550639
 10
26.2539358741
 20
-4.5092049849
 10
26.2547658628
 20
-4.4876838584
 10
26.2551666073
 20
-4.4665724511
 10
26.2551654077
 20
-4.4459293712
 10
26.2547934254
 20
-4.4258411973
 10
26.2540781864
 20
-4.406205157
 10
26.2530314952
 20
-4.3867989123
 10
26.251663077
 20
-4.3675767559
 10
26.2499867728
 20
-4.3485722466
 10
26.2480037713
 20
-4.3296890858
 10
26.2457181306
 20
-4.310905836
 10
26.2431361168
 20
-4.2922272826
 10
26.24025423
 20
-4.2735970227
 10
26.2370717652
 20
-4.2549970113
 10
26.2335892681
 20
-4.2364219399
 10
26.2297991563
 20
-4.2178312248
 10
26.2256947529
 20
-4.1992009592
 10
26.2212715875
 20
-4.1805234163
 10
26.2165201703
 20
-4.1617755156
 10
26.2114288089
 20
-4.1429326471
 10
26.2059847763
 20
-4.1239742381
 10
26.2018106815
 20
-4.1101502766
  0
LINE
  5
36E
100
AcDbEntity
  8
RACCORDO
100
AcDbLine
 62
250
  6
CONTINUOUS
 10
25.6707990376
 20
-4.4945504354
 11
16.61977474
 21
-8.4321498602
  0
LINE
  5
36F
100
AcDbEntity
  8
RACCORDO
100
AcDbLine
 62
7
  6
CONTINUOUS
 10
25.6422037642
 20
-5.4045290452
 11
17.4364019155
 21
-8.9744153134
  0
LINE
  5
370
100
AcDbEntity
  8
RACCORDO
100
AcDbLine
 62
7
  6
CONTINUOUS
 10
-7.6455026335
 20
-20.6619554089
 11
-7.6463395128
 21
-20.662315213
  0
LINE
  5
371
100
AcDbEntity
  8
DRAFT
100
AcDbLine
 62
7
  6
CONTINUOUS
 10
4.1210731801
 20
17.6009322984
 11
3.9063462776
 21
17.5602482733
  0
LINE
  5
372
100
AcDbEntity
  8
RACCORDO
100
AcDbLine
 62
7
  6
CONTINUOUS
 10
-9.7282852925
 20
16.6792579273
 11
-8.9479848466
 21
16.6272453154
  0
LINE
  5
373
100
AcDbEntity
  8
RACCORDO
100
AcDbLine
 62
250
  6
CONTINUOUS
 10
-9.5877932336
 20
16.7751505656
 11
-8.719149812
 21
16.7172492618
  0
LINE
  5
374
100
AcDbEntity
  8
RACCORDO
100
AcDbLine
 62
7
  6
CONTINUOUS
 10
17.289296555
 20
10.5296842737
 11
21.4739657455
 21
9.5483715049
  0
LINE
  5
375
100
AcDbEntity
  8
DRAFT
100
AcDbLine
 62
7
  6
CONTINUOUS
 10
-7.1289268199
 20
31.3793121016
 11
-4.930929047
 21
28.6873256019
  0
LINE
  5
376
100
AcDbEntity
  8
DRAFT
100
AcDbLine
 62
7
  6
CONTINUOUS
 10
-1.930929047
 20
25.0130909878
 11
0.2670687258
 21
22.3211044881
  0
LINE
  5
377
100
AcDbEntity
  8
DRAFT
100
AcDbLine
 62
7
  6
CONTINUOUS
 10
4.1210731801
 20
17.6009322984
 11
6.319070953
 21
14.9089457988
  0
LINE
  5
378
100
AcDbEntity
  8
DRAFT
100
AcDbLine
 62
7
  6
CONTINUOUS
 10
9.319070953
 20
11.2347111846
 11
11.5170687258
 21
8.542724685
  0
LINE
  5
379
100
AcDbEntity
  8
RACCORDO
100
AcDbLine
 62
250
  6
CONTINUOUS
 10
18.1226256186
 20
-19.8209964443
 11
18.1226256186
 21
-13.5309920793
  0
LINE
  5
37A
100
AcDbEntity
  8
RACCORDO
100
AcDbLine
 62
7
  6
CONTINUOUS
 10
18.6075875437
 20
-19.2148876334
 11
18.6075875437
 21
-12.9248832684
  0
LINE
  5
37B
100
AcDbEntity
  8
RACCORDO
100
AcDbLine
 62
250
  6
CONTINUOUS
 10
12.8629279825
 20
-15.1875679262
 11
18.0322154128
 21
-13.0147446275
  0
LINE
  5
37C
100
AcDbEntity
  8
RACCORDO
100
AcDbLine
 62
250
  6
CONTINUOUS
 10
18.1226256186
 20
-13.5309920793
 11
12.4644596679
 21
-15.9093072672
  0
LINE
  5
37D
100
AcDbEntity
  8
RACCORDO
100
AcDbLine
 62
250
  6
CONTINUOUS
 10
15.257725864
 20
11.6664012665
 11
15.7197548688
 21
10.6429975402
  0
LINE
  5
37E
100
AcDbEntity
  8
RACCORDO
100
AcDbLine
 62
250
  6
CONTINUOUS
 10
11.5035664219
 20
21.1101797005
 11
15.6882356124
 21
11.8411882104
  0
LINE
  5
37F
100
AcDbEntity
  8
RACCORDO
100
AcDbLine
 62
7
  6
CONTINUOUS
 10
15.8672866352
 20
11.8437584092
 11
16.4991494054
 21
10.4441900389
  0
LINE
  5
380
100
AcDbEntity
  8
RACCORDO
100
AcDbLine
 62
7
  6
CONTINUOUS
 10
12.1131271932
 20
21.2875368432
 11
16.2977963836
 21
12.0185453531
  0
LINE
  5
381
100
AcDbEntity
  8
RACCORDO
100
AcDbLine
 62
250
  6
CONTINUOUS
 10
2.1901519177
 20
-29.7979911999
 11
1.4300889238
 21
-30.4617620674
  0
LINE
  5
382
100
AcDbEntity
  8
RACCORDO
100
AcDbLine
 62
250
  6
CONTINUOUS
 10
2.530850188
 20
-29.9656195339
 11
1.6622067664
 21
-30.7242148111
  0
LINE
  5
383
100
AcDbEntity
  8
RACCORDO
100
AcDbLine
 62
250
  6
CONTINUOUS
 10
25.6707990376
 20
-4.4945504354
 11
21.6702852019
 21
8.4849212856
  0
LINE
  5
384
100
AcDbEntity
  8
RACCORDO
100
AcDbLine
 62
7
  6
CONTINUOUS
 10
22.2012948788
 20
8.8693278547
 11
24.0413412414
 21
2.8993873147
  0
LINE
  5
385
100
AcDbEntity
  8
RACCORDO
100
AcDbLine
 62
7
  6
CONTINUOUS
 10
25.2464424601
 20
-1.010504722
 11
26.201809817
 21
-4.1101474434
  0
LINE
  5
386
100
AcDbEntity
  8
RACCORDO
100
AcDbLine
 62
250
  6
CONTINUOUS
 10
13.3067956283
 20
-21.9364446801
 11
18.1226256186
 21
-19.8209964443
  0
LINE
  5
387
100
AcDbEntity
  8
RACCORDO
100
AcDbLine
 62
7
  6
CONTINUOUS
 10
13.3061160719
 20
-22.1966198633
 11
18.009765906
 21
-20.130448972
  0
LINE
  5
388
100
AcDbEntity
  8
RACCORDO
100
AcDbLine
 62
250
  6
CONTINUOUS
 10
4.7338169151
 20
-25.8415918144
 11
13.3067956283
 21
-22.1480432007
  0
LINE
  5
389
100
AcDbEntity
  8
RACCORDO
100
AcDbLine
 62
7
  6
CONTINUOUS
 10
4.7088169151
 20
-26.3740744544
 11
13.0671987557
 21
-22.7729819179
  0
LINE
  5
38A
100
AcDbEntity
  8
RACCORDO
100
AcDbLine
 62
7
  6
CONTINUOUS
 10
-19.1782852925
 20
28.2530969619
 11
-18.3979848466
 21
28.2010843501
  0
LINE
  5
38B
100
AcDbEntity
  8
RACCORDO
100
AcDbLine
 62
250
  6
CONTINUOUS
 10
-19.0377932336
 20
28.3489896002
 11
-18.169149812
 21
28.2910882965
  0
LINE
  5
38C
100
AcDbEntity
  8
RACCORDO
100
AcDbLine
 62
250
  6
CONTINUOUS
 10
3.6177915113
 20
-30.2223245702
 11
4.2664772433
 21
-29.9515060553
  0
LINE
  5
38D
100
AcDbEntity
  8
RACCORDO
100
AcDbLine
 62
7
  6
CONTINUOUS
 10
3.5875160918
 20
-30.3005897992
 11
4.2366606149
 21
-30.0295797445
  0
LINE
  5
38E
100
AcDbEntity
  8
RACCORDO
100
AcDbLine
 62
7
  6
CONTINUOUS
 10
3.5875112141
 20
-30.3005918356
 11
3.5870543446
 21
-30.300778351
  0
LINE
  5
38F
100
AcDbEntity
  8
RACCORDO
100
AcDbLine
 62
250
  6
CONTINUOUS
 10
3.8359764766
 20
-28.7893140511
 11
4.7088169151
 21
-28.4410419396
  0
LINE
  5
390
100
AcDbEntity
  8
RACCORDO
100
AcDbLine
 62
7
  6
CONTINUOUS
 10
3.7701011849
 20
-28.947985084
 11
4.6473209656
 21
-28.5979655709
  0
LINE
  5
391
100
AcDbEntity
  8
RACCORDO
100
AcDbLine
 62
250
  6
CONTINUOUS
 10
1.6622067664
 20
-31.0027285632
 11
3.6177915113
 21
-30.2223245702
  0
LINE
  5
392
100
AcDbEntity
  8
RACCORDO
100
AcDbLine
 62
7
  6
CONTINUOUS
 10
1.6310024351
 20
-31.0813687731
 11
3.5870494571
 21
-30.3007803018
  0
LINE
  5
393
100
AcDbEntity
  8
DRAFT
100
AcDbLine
 62
7
  6
CONTINUOUS
 10
3.770099857
 20
-28.9479856138
 11
3.7674977474
 21
-28.9489592528
  0
LINE
  5
394
100
AcDbEntity
  8
RACCORDO
100
AcDbLine
 62
250
  6
CONTINUOUS
 10
-2.8502705018
 20
-31.1267714757
 11
3.8359764766
 21
-28.7893140511
  0
LINE
  5
395
100
AcDbEntity
  8
RACCORDO
100
AcDbLine
 62
7
  6
CONTINUOUS
 10
-2.9276717312
 20
-31.2895359269
 11
3.7674816341
 21
-28.9489649022
  0
LINE
  5
396
100
AcDbEntity
  8
0
100
AcDbLine
 62
7
  6
CONTINUOUS
 10
-4.930929047
 20
27.9420319049
 11
-6.5964987161
 21
27.7570406817
  0
LWPOLYLINE
  5
397
100
AcDbEntity
  8
RACCORDO
100
AcDbPolyline
 62
7
  6
CONTINUOUS
 90
7
 70
0
 10
-9.3330961419
 20
30.9509633725
 10
-9.3429351107
 20
30.9490536849
 10
-9.3680729805
 20
30.9437613838
 10
-9.3930731081
 20
30.9379016003
 10
-9.417923726
 20
30.9314772194
 10
-9.4426109792
 20
30.9244920319
 10
-9.4671189475
 20
30.9169509945
  0
LINE
  5
398
100
AcDbEntity
  8
RACCORDO
100
AcDbLine
 62
250
  6
CONTINUOUS
 10
-9.4852900113
 20
30.9074908801
 11
-9.120440714
 21
30.9766183989
  0
LINE
  5
399
100
AcDbEntity
  8
RACCORDO
100
AcDbLine
 62
7
  6
CONTINUOUS
 10
-9.3330629776
 20
30.9509696909
 11
-8.9633761798
 21
31.0210137646
  0
LINE
  5
39A
100
AcDbEntity
  8
DRAFT
100
AcDbLine
 62
7
  6
CONTINUOUS
 10
-7.1289268199
 20
31.3793121016
 11
-7.4686537224
 21
31.31494449
  0
ARC
  5
39B
100
AcDbEntity
  8
RACCORDO
100
AcDbCircle
 62
7
  6
CONTINUOUS
 10
17.6075869888
 20
-19.214887207
 40
1.0000005633
100
AcDbArc
 50
293.714625518
 51
359.9998142118
  0
ARC
  5
39C
100
AcDbEntity
  8
RACCORDO
100
AcDbCircle
 62
7
  6
CONTINUOUS
 10
17.6075912388
 20
-12.924883398
 40
0.999996285
100
AcDbArc
 50
0.0002075702
 51
17.130357812
  0
ARC
  5
39D
100
AcDbEntity
  8
RACCORDO
100
AcDbCircle
 62
250
  6
CONTINUOUS
 10
-10.1975907544
 20
-10.0220561883
 40
0.3266362503
100
AcDbArc
 50
291.5021650498
 51
292.9279276482
  0
ARC
  5
39E
100
AcDbEntity
  8
RACCORDO
100
AcDbCircle
 62
7
  6
CONTINUOUS
 10
4.1403393348
 20
-29.5148126796
 40
0.2500060682
100
AcDbArc
 50
0.0020118806
 51
39.2310486355
  0
ARC
  5
39F
100
AcDbEntity
  8
RACCORDO
100
AcDbCircle
 62
7
  6
CONTINUOUS
 10
4.1403436618
 20
-29.7988772542
 40
0.250001245
100
AcDbArc
 50
292.6610743541
 51
0.0086871754
  0
ARC
  5
3A0
100
AcDbEntity
  8
RACCORDO
100
AcDbCircle
 62
7
  6
CONTINUOUS
 10
1.5383421321
 20
-30.8491746354
 40
0.2500001009
100
AcDbArc
 50
219.2315369024
 51
291.7545306012
  0
ARC
  5
3A1
100
AcDbEntity
  8
RACCORDO
100
AcDbCircle
 62
250
  6
CONTINUOUS
 10
-7.0559519792
 20
-5.5327962772
 40
0.2022828916
100
AcDbArc
 50
224.3491591173
 51
230.8127406283
  0
ARC
  5
3A2
100
AcDbEntity
  8
RACCORDO
100
AcDbCircle
 62
250
  6
CONTINUOUS
 10
-14.9507648299
 20
2.5207712538
 40
0.3254337944
100
AcDbArc
 50
291.5021591614
 51
292.894905025
  0
ARC
  5
3A3
100
AcDbEntity
  8
RACCORDO
100
AcDbCircle
 62
7
  6
CONTINUOUS
 10
-8.8488146872
 20
15.8738779576
 40
0.2512247371
100
AcDbArc
 50
203.0943419759
 51
219.1918267279
  0
ARC
  5
3A4
100
AcDbEntity
  8
RACCORDO
100
AcDbCircle
 62
7
  6
CONTINUOUS
 10
-8.849856909
 20
15.8732417485
 40
0.2500165503
100
AcDbArc
 50
180.0023066614
 51
203.0539131138
  0
ARC
  5
3A5
100
AcDbEntity
  8
RACCORDO
100
AcDbCircle
 62
7
  6
CONTINUOUS
 10
-9.7116564335
 20
16.9287072166
 40
0.2500029342
100
AcDbArc
 50
219.2318124218
 51
266.1866562882
  0
ARC
  5
3A6
100
AcDbEntity
  8
RACCORDO
100
AcDbCircle
 62
7
  6
CONTINUOUS
 10
-7.9116564335
 20
14.7241664481
 40
0.2500029342
100
AcDbArc
 50
219.2318124218
 51
266.1866562882
  0
ARC
  5
3A7
100
AcDbEntity
  8
RACCORDO
100
AcDbCircle
 62
7
  6
CONTINUOUS
 10
-5.3096572979
 20
16.0640812885
 40
0.2500022245
100
AcDbArc
 50
359.9973748744
 51
39.2311899324
  0
ARC
  5
3A8
100
AcDbEntity
  8
RACCORDO
100
AcDbCircle
 62
7
  6
CONTINUOUS
 10
-8.8498717181
 20
16.151751382
 40
0.250001245
100
AcDbArc
 50
112.6610743541
 51
180.0086871754
  0
ARC
  5
3A9
100
AcDbEntity
  8
RACCORDO
100
AcDbCircle
 62
7
  6
CONTINUOUS
 10
-5.3096544605
 20
15.7800132141
 40
0.2499991543
100
AcDbArc
 50
311.5421024579
 51
0.011149964
  0
ARC
  5
3AA
100
AcDbEntity
  8
RACCORDO
100
AcDbCircle
 62
250
  6
CONTINUOUS
 10
-8.9709904763
 20
15.7743486517
 40
0.0936398515
100
AcDbArc
 50
217.4678589983
 51
219.2325237537
  0
ARC
  5
3AB
100
AcDbEntity
  8
RACCORDO
100
AcDbCircle
 62
250
  6
CONTINUOUS
 10
0.4790095237
 20
4.200509617
 40
0.0936398515
100
AcDbArc
 50
217.4678589982
 51
219.2325237539
  0
ARC
  5
3AC
100
AcDbEntity
  8
RACCORDO
100
AcDbCircle
 62
250
  6
CONTINUOUS
 10
-9.1704662974
 20
30.0934585355
 40
0.8727904151
100
AcDbArc
 50
100.738872386
 51
111.1438747216
  0
ARC
  5
3AD
100
AcDbEntity
  8
RACCORDO
100
AcDbCircle
 62
7
  6
CONTINUOUS
 10
-20.0988146872
 20
29.6522577608
 40
0.2512247371
100
AcDbArc
 50
203.0943419759
 51
219.1918267279
  0
ARC
  5
3AE
100
AcDbEntity
  8
RACCORDO
100
AcDbCircle
 62
7
  6
CONTINUOUS
 10
-10.6488146872
 20
18.0784187261
 40
0.2512247371
100
AcDbArc
 50
203.0943419759
 51
219.1918267279
  0
ARC
  5
3AF
100
AcDbEntity
  8
RACCORDO
100
AcDbCircle
 62
7
  6
CONTINUOUS
 10
-20.099856909
 20
29.6516215517
 40
0.2500165503
100
AcDbArc
 50
180.0023066613
 51
203.0539131138
  0
ARC
  5
3B0
100
AcDbEntity
  8
RACCORDO
100
AcDbCircle
 62
7
  6
CONTINUOUS
 10
-10.649856909
 20
18.077782517
 40
0.2500165503
100
AcDbArc
 50
180.0023066614
 51
203.0539131138
  0
ARC
  5
3B1
100
AcDbEntity
  8
RACCORDO
100
AcDbCircle
 62
7
  6
CONTINUOUS
 10
-19.1616564335
 20
28.5025462512
 40
0.2500029342
100
AcDbArc
 50
219.2318124218
 51
266.1866562882
  0
ARC
  5
3B2
100
AcDbEntity
  8
RACCORDO
100
AcDbCircle
 62
7
  6
CONTINUOUS
 10
-16.5596572979
 20
29.8424610916
 40
0.2500022245
100
AcDbArc
 50
359.9973748744
 51
39.2311899324
  0
ARC
  5
3B3
100
AcDbEntity
  8
RACCORDO
100
AcDbCircle
 62
7
  6
CONTINUOUS
 10
-7.1096572979
 20
18.268622057
 40
0.2500022245
100
AcDbArc
 50
359.9973748744
 51
39.2311899324
  0
ARC
  5
3B4
100
AcDbEntity
  8
RACCORDO
100
AcDbCircle
 62
7
  6
CONTINUOUS
 10
-20.0998717181
 20
29.9301311852
 40
0.250001245
100
AcDbArc
 50
112.6610743541
 51
180.0086871754
  0
ARC
  5
3B5
100
AcDbEntity
  8
RACCORDO
100
AcDbCircle
 62
7
  6
CONTINUOUS
 10
-10.6498717181
 20
18.3562921505
 40
0.250001245
100
AcDbArc
 50
112.6610743541
 51
180.0086871754
  0
ARC
  5
3B6
100
AcDbEntity
  8
RACCORDO
100
AcDbCircle
 62
7
  6
CONTINUOUS
 10
-17.5057242418
 20
31.0011550868
 40
0.2500001009
100
AcDbArc
 50
39.2315369024
 51
111.7545306012
  0
ARC
  5
3B7
100
AcDbEntity
  8
RACCORDO
100
AcDbCircle
 62
7
  6
CONTINUOUS
 10
-8.0557242418
 20
19.4273160522
 40
0.2500001009
100
AcDbArc
 50
39.2315369024
 51
111.7545306011
  0
ARC
  5
3B8
100
AcDbEntity
  8
RACCORDO
100
AcDbCircle
 62
7
  6
CONTINUOUS
 10
-6.2557242418
 20
17.2227752837
 40
0.2500001009
100
AcDbArc
 50
39.2315369024
 51
111.7545306012
  0
ARC
  5
3B9
100
AcDbEntity
  8
RACCORDO
100
AcDbCircle
 62
7
  6
CONTINUOUS
 10
-16.5596544605
 20
29.5583930172
 40
0.2499991543
100
AcDbArc
 50
311.5421024579
 51
0.011149964
  0
ARC
  5
3BA
100
AcDbEntity
  8
RACCORDO
100
AcDbCircle
 62
7
  6
CONTINUOUS
 10
-7.1096544605
 20
17.9845539826
 40
0.2499991543
100
AcDbArc
 50
311.5421024579
 51
0.011149964
  0
ARC
  5
3BB
100
AcDbEntity
  8
RACCORDO
100
AcDbCircle
 62
250
  6
CONTINUOUS
 10
-9.4396445645
 20
30.6626567818
 40
0.2490526873
100
AcDbArc
 50
100.5606549715
 51
111.096266313
  0
ARC
  5
3BC
100
AcDbEntity
  8
RACCORDO
100
AcDbCircle
 62
7
  6
CONTINUOUS
 10
-7.5973718807
 20
24.4716876175
 40
0.2000042025
100
AcDbArc
 50
0.0004210899
 51
39.2324317955
  0
ARC
  5
3BD
100
AcDbEntity
  8
RACCORDO
100
AcDbCircle
 62
250
  6
CONTINUOUS
 10
-20.2209904763
 20
29.5527284549
 40
0.0936398515
100
AcDbArc
 50
217.4678589987
 51
219.2325237535
  0
ARC
  5
3BE
100
AcDbEntity
  8
RACCORDO
100
AcDbCircle
 62
250
  6
CONTINUOUS
 10
-10.7709904764
 20
17.9788894201
 40
0.0936398515
100
AcDbArc
 50
217.4678589978
 51
219.2325237543
  0
ARC
  5
3BF
100
AcDbEntity
  8
ASSI
100
AcDbCircle
 62
7
  6
CONTINUOUS
 10
10.4544383359
 20
16.405855954
 40
9.1780674698
100
AcDbArc
 50
208.0558658373
 51
211.5606486296
  0
ARC
  5
3C0
100
AcDbEntity
  8
RACCORDO
100
AcDbCircle
 62
7
  6
CONTINUOUS
 10
21.2456576131
 20
8.5747826945
 40
0.9999997174
100
AcDbArc
 50
17.1302059779
 51
76.8017885083
  0
ARC
  5
3C1
100
AcDbEntity
  8
RACCORDO
100
AcDbCircle
 62
7
  6
CONTINUOUS
 10
0.6011853128
 20
4.300038923
 40
0.2512247371
100
AcDbArc
 50
203.0943419759
 51
219.1918267279
  0
ARC
  5
3C2
100
AcDbEntity
  8
RACCORDO
100
AcDbCircle
 62
7
  6
CONTINUOUS
 10
0.600143091
 20
4.2994027139
 40
0.2500165503
100
AcDbArc
 50
180.0023066614
 51
203.0539131138
  0
ARC
  5
3C3
100
AcDbEntity
  8
RACCORDO
100
AcDbCircle
 62
7
  6
CONTINUOUS
 10
1.5383435665
 20
3.1503274134
 40
0.2500029342
100
AcDbArc
 50
219.2318124218
 51
266.1866562882
  0
ARC
  5
3C4
100
AcDbEntity
  8
RACCORDO
100
AcDbCircle
 62
7
  6
CONTINUOUS
 10
4.1403427021
 20
4.4902422538
 40
0.2500022245
100
AcDbArc
 50
359.9973748744
 51
39.2311899324
  0
ARC
  5
3C5
100
AcDbEntity
  8
RACCORDO
100
AcDbCircle
 62
7
  6
CONTINUOUS
 10
0.6001282819
 20
4.5779123474
 40
0.250001245
100
AcDbArc
 50
112.6610743541
 51
180.0086871754
  0
ARC
  5
3C6
100
AcDbEntity
  8
RACCORDO
100
AcDbCircle
 62
7
  6
CONTINUOUS
 10
3.1942757582
 20
5.648936249
 40
0.2500001009
100
AcDbArc
 50
39.2315369024
 51
111.7545306012
  0
ARC
  5
3C7
100
AcDbEntity
  8
RACCORDO
100
AcDbCircle
 62
7
  6
CONTINUOUS
 10
4.1403455395
 20
4.2061741794
 40
0.2499991543
100
AcDbArc
 50
311.5421024579
 51
0.011149964
  0
ARC
  5
3C8
100
AcDbEntity
  8
RACCORDO
100
AcDbCircle
 62
7
  6
CONTINUOUS
 10
2.9788451207
 20
11.5185261285
 40
0.2000001589
100
AcDbArc
 50
39.2274055747
 51
110.6982754551
  0
ARC
  5
3C9
100
AcDbEntity
  8
RACCORDO
100
AcDbCircle
 62
250
  6
CONTINUOUS
 10
3.0756308984
 20
11.5975522964
 40
0.0750497678
100
AcDbArc
 50
39.2309889336
 51
40.3789971014
  0
ARC
  5
3CA
100
AcDbEntity
  8
ASSI
100
AcDbCircle
 62
7
  6
CONTINUOUS
 10
0.9002056732
 20
31.4887863711
 40
11.3224335023
100
AcDbArc
 50
222.8722402282
 51
224.5765951417
  0
ARC
  5
3CB
100
AcDbEntity
  8
RACCORDO
100
AcDbCircle
 62
7
  6
CONTINUOUS
 10
11.2017076568
 20
20.8760587232
 40
0.9999997924
100
AcDbArc
 50
24.2977933554
 51
111.0275989594
  0
ARC
  5
3CC
100
AcDbEntity
  8
RACCORDO
100
AcDbCircle
 62
250
  6
CONTINUOUS
 10
10.8914904676
 20
21.6830378456
 40
0.1354479172
100
AcDbArc
 50
109.9207863873
 51
111.0272630615
  0
ARC
  5
3CD
100
AcDbEntity
  8
RACCORDO
100
AcDbCircle
 62
250
  6
CONTINUOUS
 10
281.1115975249
 20
-16.1518589503
 40
285.8333971793
100
AcDbArc
 50
177.0913352588
 51
182.9086647412
  0
ARC
  5
3CE
100
AcDbEntity
  8
RACCORDO
100
AcDbCircle
 62
250
  6
CONTINUOUS
 10
281.498338
 20
-16.2844558384
 40
285.5447201042
100
AcDbArc
 50
177.0913062672
 51
182.9086937328
  0
ARC
  5
3CF
100
AcDbEntity
  8
RACCORDO
100
AcDbCircle
 62
250
  6
CONTINUOUS
 10
265.238950843
 20
10.4039327947
 40
291.6361275467
100
AcDbArc
 50
177.149257714
 51
182.850742286
  0
SPLINE
  5
3D0
100
AcDbEntity
  8
RACCORDO
100
AcDbSpline
 62
7
  6
CONTINUOUS
 70
0
 71
3
 72
8
 73
4
 74
0
 42
0.0000001
 43
0.0000001
 44
0.0000000001
 40
0.0
 40
0.0
 40
0.0
 40
0.0
 40
1.0
 40
1.0
 40
1.0
 40
1.0
 10
-7.173651233
 20
-5.7454589092
 30
0.0
 10
-7.1555767842
 20
-5.7637268157
 30
0.0
 10
-7.1344353347
 20
-5.7793899804
 30
0.0
 10
-7.1116585483
 20
-5.7912904052
 30
0.0
  0
SPLINE
  5
3D1
100
AcDbEntity
  8
RACCORDO
100
AcDbSpline
 62
250
  6
CONTINUOUS
 70
0
 71
3
 72
9
 73
5
 74
0
 42
0.0000001
 43
0.0000001
 44
0.0000000001
 40
0.0
 40
0.0
 40
0.0
 40
0.0
 40
0.2579937175
 40
1.0
 40
1.0
 40
1.0
 40
1.0
 10
-7.1304002691
 20
-5.7224162376
 30
0.0
 10
-7.13531031
 20
-5.7201768969
 30
0.0
 10
-7.1540786566
 20
-5.7109395666
 30
0.0
 10
-7.171747483
 20
-5.6994040375
 30
0.0
 10
-7.1837658334
 20
-5.6895827146
 30
0.0
  0
SPLINE
  5
3D2
100
AcDbEntity
  8
RACCORDO
100
AcDbSpline
 62
250
  6
CONTINUOUS
 70
0
 71
3
 72
9
 73
5
 74
0
 42
0.0000001
 43
0.0000001
 44
0.0000000001
 40
0.0
 40
0.0
 40
0.0
 40
0.0
 40
0.5252032231
 40
1.0
 40
1.0
 40
1.0
 40
1.0
 10
-7.2006031072
 20
-5.6741979018
 30
0.0
 10
-7.2003256746
 20
-5.6877806133
 30
0.0
 10
-7.19623073
 20
-5.7138797812
 30
0.0
 10
-7.1822790289
 20
-5.7367180762
 30
0.0
 10
-7.1736574374
 20
-5.7454649374
 30
0.0
  0
LINE
  5
3D3
100
AcDbEntity
  8
RACCORDO
100
AcDbLine
 62
7
  6
CONTINUOUS
 10
-16.5951213451
 20
6.0736899466
 11
-16.595318166
 21
6.0741430602
  0
SPLINE
  5
3D4
100
AcDbEntity
  8
RACCORDO
100
AcDbSpline
 62
7
  6
CONTINUOUS
 70
0
 71
3
 72
9
 73
5
 74
0
 42
0.0000001
 43
0.0000001
 44
0.0000000001
 40
0.0
 40
0.0
 40
0.0
 40
0.0
 40
0.2533497949
 40
1.0
 40
1.0
 40
1.0
 40
1.0
 10
-15.0949610257
 20
2.7254423142
 30
0.0
 10
-15.0940776471
 20
2.7244834374
 30
0.0
 10
-15.090764767
 20
2.7205414664
 30
0.0
 10
-15.0882261156
 20
2.7159533567
 30
0.0
 10
-15.0868651528
 20
2.7123601186
 30
0.0
  0
SPLINE
  5
3D5
100
AcDbEntity
  8
RACCORDO
100
AcDbSpline
 62
7
  6
CONTINUOUS
 70
0
 71
3
 72
17
 73
13
 74
0
 42
0.0000001
 43
0.0000001
 44
0.0000000001
 40
0.0
 40
0.0
 40
0.0
 40
0.0
 40
0.0498977165
 40
0.1037186919
 40
0.1610017661
 40
0.2212845491
 40
0.3489292523
 40
0.482785019
 40
0.6188451779
 40
0.7530586468
 40
0.8814117076
 40
1.0
 40
1.0
 40
1.0
 40
1.0
 10
-15.0949601274
 20
2.7254418692
 30
0.0
 10
-15.136795522
 20
2.7708737942
 30
0.0
 10
-15.2208834804
 20
2.8679784014
 30
0.0
 10
-15.3435442453
 20
3.0251183289
 30
0.0
 10
-15.4664133933
 20
3.1981252304
 30
0.0
 10
-15.6318904613
 20
3.4526317374
 30
0.0
 10
-15.8297125171
 20
3.7987362116
 30
0.0
 10
-16.0452147618
 20
4.2414646052
 30
0.0
 10
-16.2356640493
 20
4.7043421554
 30
0.0
 10
-16.3946488953
 20
5.1717791982
 30
0.0
 10
-16.5169227766
 20
5.6277741896
 30
0.0
 10
-16.5743038247
 20
5.9283946907
 30
0.0
 10
-16.5951211301
 20
6.0736907668
 30
0.0
  0
SPLINE
  5
3D6
100
AcDbEntity
  8
DRAFT
100
AcDbSpline
 62
7
  6
CONTINUOUS
 70
0
 71
3
 72
22
 73
18
 74
0
 42
0.0000001
 43
0.0000001
 44
0.0000000001
 40
0.0
 40
0.0
 40
0.0
 40
0.0
 40
0.0530176523
 40
0.1107645101
 40
0.1726731592
 40
0.2380700393
 40
0.306204268
 40
0.3762676333
 40
0.5187421543
 40
0.5894445242
 40
0.6586298133
 40
0.7254686081
 40
0.7891794837
 40
0.8490484197
 40
0.9044516888
 40
0.9548844886
 40
1.0
 40
1.0
 40
1.0
 40
1.0
 10
-11.6632974019
 20
-6.026809317
 30
0.0
 10
-11.6632974019
 20
-6.1029014974
 30
0.0
 10
-11.6564033162
 20
-6.2619073337
 30
0.0
 10
-11.6287474078
 20
-6.508332885
 30
0.0
 10
-11.5836508853
 20
-6.7702089918
 30
0.0
 10
-11.5217122873
 20
-7.0438988877
 30
0.0
 10
-11.4437757905
 20
-7.3256289328
 30
0.0
 10
-11.3192532533
 20
-7.7088261759
 30
0.0
 10
-11.1691718735
 20
-8.0872376814
 30
0.0
 10
-10.9965131548
 20
-8.4539679279
 30
0.0
 10
-10.8585932817
 20
-8.7167789124
 30
0.0
 10
-10.7138912314
 20
-8.9643634534
 30
0.0
 10
-10.5644145581
 20
-9.1933044416
 30
0.0
 10
-10.4122492388
 20
-9.4004467095
 30
0.0
 10
-10.2594894536
 20
-9.5829758999
 30
0.0
 10
-10.1082584808
 20
-9.7384072519
 30
0.0
 10
-10.0038068056
 20
-9.8277299222
 30
0.0
 10
-9.9520853466
 20
-9.8666858235
 30
0.0
  0
SPLINE
  5
3D7
100
AcDbEntity
  8
RACCORDO
100
AcDbSpline
 62
7
  6
CONTINUOUS
 70
0
 71
3
 72
15
 73
11
 74
0
 42
0.0000001
 43
0.0000001
 44
0.0000000001
 40
0.0
 40
0.0
 40
0.0
 40
0.0
 40
0.0156637142
 40
0.0607591265
 40
0.1399356076
 40
0.2531395611
 40
0.3983537902
 40
0.5729428379
 40
0.7742941917
 40
1.0
 40
1.0
 40
1.0
 40
1.0
 10
-14.8248085732
 20
2.2204714404
 30
0.0
 10
-14.8223299046
 20
2.2223458716
 30
0.0
 10
-14.8139915422
 20
2.231176881
 30
0.0
 10
-14.7979793352
 20
2.253928987
 30
0.0
 10
-14.7766303253
 20
2.2961263242
 30
0.0
 10
-14.7537987351
 20
2.3592231262
 30
0.0
 10
-14.7329309275
 20
2.4426930323
 30
0.0
 10
-14.7164893624
 20
2.5448778048
 30
0.0
 10
-14.7060702195
 20
2.6638729855
 30
0.0
 10
-14.7039053762
 20
2.7486262004
 30
0.0
 10
-14.7039053762
 20
2.7934053283
 30
0.0
  0
SPLINE
  5
3D8
100
AcDbEntity
  8
RACCORDO
100
AcDbSpline
 62
7
  6
CONTINUOUS
 70
0
 71
3
 72
15
 73
11
 74
0
 42
0.0000001
 43
0.0000001
 44
0.0000000001
 40
0.0
 40
0.0
 40
0.0
 40
0.0
 40
0.3121656169
 40
0.5346409654
 40
0.6784769625
 40
0.7540202775
 40
0.7703471852
 40
0.8053326583
 40
0.8841850323
 40
1.0
 40
1.0
 40
1.0
 40
1.0
 10
-16.7831285413
 20
7.0433374284
 30
0.0
 10
-16.784599978
 20
7.0434611626
 30
0.0
 10
-16.787147432
 20
7.0436175166
 30
0.0
 10
-16.7902894447
 20
7.0436683402
 30
0.0
 10
-16.7925116631
 20
7.0435389508
 30
0.0
 10
-16.7934237172
 20
7.0434644627
 30
0.0
 10
-16.7942379595
 20
7.0433274652
 30
0.0
 10
-16.7931144069
 20
7.0435433087
 30
0.0
 10
-16.7924346194
 20
7.0437713246
 30
0.0
 10
-16.7914316025
 20
7.0440953011
 30
0.0
 10
-16.7909206291
 20
7.044292865
 30
0.0
  0
SPLINE
  5
3D9
100
AcDbEntity
  8
RACCORDO
100
AcDbSpline
 62
7
  6
CONTINUOUS
 70
0
 71
3
 72
27
 73
23
 74
0
 42
0.0000001
 43
0.0000001
 44
0.0000000001
 40
0.0
 40
0.0
 40
0.0
 40
0.0
 40
0.057532588
 40
0.1226950755
 40
0.1940043201
 40
0.2699944539
 40
0.3491862355
 40
0.4300811624
 40
0.5111676797
 40
0.5909326496
 40
0.6678733699
 40
0.7405056233
 40
0.8073616647
 40
0.8669678899
 40
0.8935852064
 40
0.917804596
 40
0.9394062555
 40
0.9581519942
 40
0.973787928
 40
0.9860646292
 40
0.9947996839
 40
1.0
 40
1.0
 40
1.0
 40
1.0
 10
-14.7039053762
 20
2.7934053283
 30
0.0
 10
-14.7039053762
 20
2.8873936519
 30
0.0
 10
-14.7145032734
 20
3.0878727723
 30
0.0
 10
-14.7558621495
 20
3.4023358079
 30
0.0
 10
-14.8237017225
 20
3.7429625359
 30
0.0
 10
-14.9168587073
 20
4.1012410099
 30
0.0
 10
-15.0335010496
 20
4.4690239851
 30
0.0
 10
-15.1712399048
 20
4.8383259653
 30
0.0
 10
-15.3272087049
 20
5.2013246255
 30
0.0
 10
-15.498092439
 20
5.5503750969
 30
0.0
 10
-15.6801276295
 20
5.8780428869
 30
0.0
 10
-15.8690569839
 20
6.1771573113
 30
0.0
 10
-16.0599815958
 20
6.4407608614
 30
0.0
 10
-16.2215110242
 20
6.6321099444
 30
0.0
 10
-16.3475414408
 20
6.7613181085
 30
0.0
 10
-16.4345891383
 20
6.841580058
 30
0.0
 10
-16.5163799497
 20
6.9083026264
 30
0.0
 10
-16.5912094245
 20
6.961040588
 30
0.0
 10
-16.6570078827
 20
6.999717829
 30
0.0
 10
-16.7114365736
 20
7.024938181
 30
0.0
 10
-16.7521889791
 20
7.0384085656
 30
0.0
 10
-16.7746629045
 20
7.0426255466
 30
0.0
 10
-16.7831285413
 20
7.0433374284
 30
0.0
  0
SPLINE
  5
3DA
100
AcDbEntity
  8
RACCORDO
100
AcDbSpline
 62
7
  6
CONTINUOUS
 70
0
 71
3
 72
15
 73
11
 74
0
 42
0.0000001
 43
0.0000001
 44
0.0000000001
 40
0.0
 40
0.0
 40
0.0
 40
0.0
 40
0.0160589699
 40
0.0614409582
 40
0.140774623
 40
0.2540083236
 40
0.3991381526
 40
0.5735447598
 40
0.7746305389
 40
1.0
 40
1.0
 40
1.0
 40
1.0
 10
-10.070901549
 20
-10.3233099787
 30
0.0
 10
-10.0683472823
 20
-10.3213781697
 30
0.0
 10
-10.0598593802
 20
-10.3124139609
 30
0.0
 10
-10.0436700207
 20
-10.2894023624
 30
0.0
 10
-10.0221640718
 20
-10.2469061664
 30
0.0
 10
-9.999209611
 20
-10.1834614447
 30
0.0
 10
-9.978245878
 20
-10.0996059119
 30
0.0
 10
-9.961737218
 20
-9.9969968342
 30
0.0
 10
-9.9512782101
 20
-9.8775417849
 30
0.0
 10
-9.9491052333
 20
-9.7924699901
 30
0.0
 10
-9.9491052333
 20
-9.7475261825
 30
0.0
  0
SPLINE
  5
3DB
100
AcDbEntity
  8
RACCORDO
100
AcDbSpline
 62
7
  6
CONTINUOUS
 70
0
 71
3
 72
17
 73
13
 74
0
 42
0.0000001
 43
0.0000001
 44
0.0000000001
 40
0.0
 40
0.0
 40
0.0
 40
0.0
 40
0.3141057956
 40
0.5394798204
 40
0.622340139
 40
0.6870631175
 40
0.7349045349
 40
0.7670558692
 40
0.788440053
 40
0.817833725
 40
0.8906326902
 40
1.0
 40
1.0
 40
1.0
 40
1.0
 10
-12.0361226569
 20
-5.482741928
 30
0.0
 10
-12.0376232551
 20
-5.4826154634
 30
0.0
 10
-12.040207813
 20
-5.4824508035
 30
0.0
 10
-12.0431868479
 20
-5.4824161134
 30
0.0
 10
-12.0449825528
 20
-5.4824852991
 30
0.0
 10
-12.0459009012
 20
-5.4825458156
 30
0.0
 10
-12.046631154
 20
-5.4826231096
 30
0.0
 10
-12.047027499
 20
-5.4826649234
 30
0.0
 10
-12.0476394723
 20
-5.4827704232
 30
0.0
 10
-12.0466290827
 20
-5.4825768444
 30
0.0
 10
-12.0459565452
 20
-5.4823570062
 30
0.0
 10
-12.0450174426
 20
-5.4820523778
 30
0.0
 10
-12.0445283852
 20
-5.4818632876
 30
0.0
  0
SPLINE
  5
3DC
100
AcDbEntity
  8
RACCORDO
100
AcDbSpline
 62
7
  6
CONTINUOUS
 70
0
 71
3
 72
27
 73
23
 74
0
 42
0.0000001
 43
0.0000001
 44
0.0000000001
 40
0.0
 40
0.0
 40
0.0
 40
0.0
 40
0.0575297175
 40
0.122682281
 40
0.1939769318
 40
0.2699494636
 40
0.3491218974
 40
0.4299967763
 40
0.5110634901
 40
0.5908098317
 40
0.6677341028
 40
0.7403532704
 40
0.8072011216
 40
0.866806224
 40
0.893426599
 40
0.917652191
 40
0.9392639321
 40
0.9580245489
 40
0.9736812461
 40
0.9859857216
 40
0.9947563836
 40
1.0
 40
1.0
 40
1.0
 40
1.0
 10
-9.9491052333
 20
-9.7475261825
 30
0.0
 10
-9.9491052333
 20
-9.6532061985
 30
0.0
 10
-9.9597385816
 20
-9.4520305446
 30
0.0
 10
-10.0012370217
 20
-9.1364863172
 30
0.0
 10
-10.0693027036
 20
-8.7947076979
 30
0.0
 10
-10.1627682368
 20
-8.435227915
 30
0.0
 10
-10.2797958958
 20
-8.0662166081
 30
0.0
 10
-10.4179896485
 20
-7.695682412
 30
0.0
 10
-10.5744743825
 20
-7.3314708979
 30
0.0
 10
-10.7459253928
 20
-6.9812497979
 30
0.0
 10
-10.9285685657
 20
-6.6524755803
 30
0.0
 10
-11.1181353386
 20
-6.352339464
 30
0.0
 10
-11.3097152967
 20
-6.0878177077
 30
0.0
 10
-11.4718100484
 20
-5.8957866259
 30
0.0
 10
-11.5982948874
 20
-5.7661007438
 30
0.0
 10
-11.6856729138
 20
-5.6855251763
 30
0.0
 10
-11.7677914225
 20
-5.6185258758
 30
0.0
 10
-11.8429454913
 20
-5.5655495936
 30
0.0
 10
-11.9090651416
 20
-5.52667437
 30
0.0
 10
-11.9638109408
 20
-5.5012991485
 30
0.0
 10
-12.0048741157
 20
-5.4877206227
 30
0.0
 10
-12.0275561147
 20
-5.4834638826
 30
0.0
 10
-12.0361226569
 20
-5.482741928
 30
0.0
  0
SPLINE
  5
3DD
100
AcDbEntity
  8
DRAFT
100
AcDbSpline
 62
7
  6
CONTINUOUS
 70
0
 71
3
 72
9
 73
5
 74
0
 42
0.0000001
 43
0.0000001
 44
0.0000000001
 40
0.0
 40
0.0
 40
0.0
 40
0.0
 40
0.4692463061
 40
1.0
 40
1.0
 40
1.0
 40
1.0
 10
-7.3517531974
 20
-4.927205544
 30
0.0
 10
-7.3651871995
 20
-4.9877470708
 30
0.0
 10
-7.3843532555
 20
-5.1189004723
 30
0.0
 10
-7.389611374
 20
-5.2511446763
 30
0.0
 10
-7.389611374
 20
-5.3212873997
 30
0.0
  0
SPLINE
  5
3DE
100
AcDbEntity
  8
DRAFT
100
AcDbSpline
 62
7
  6
CONTINUOUS
 70
0
 71
3
 72
13
 73
9
 74
0
 42
0.0000001
 43
0.0000001
 44
0.0000000001
 40
0.0
 40
0.0
 40
0.0
 40
0.0
 40
0.1950770511
 40
0.3052264034
 40
0.4246768584
 40
0.5538216034
 40
0.692814326
 40
1.0
 40
1.0
 40
1.0
 40
1.0
 10
-16.7117619714
 20
7.0241691008
 30
0.0
 10
-16.7428865978
 20
6.9870316526
 30
0.0
 10
-16.782242777
 20
6.9209167212
 30
0.0
 10
-16.8211516155
 20
6.8228387722
 30
0.0
 10
-16.846150797
 20
6.7371559697
 30
0.0
 10
-16.8656389687
 20
6.6427938392
 30
0.0
 10
-16.8848482264
 20
6.5010979426
 30
0.0
 10
-16.889611374
 20
6.3900911687
 30
0.0
 10
-16.889611374
 20
6.3137888786
 30
0.0
  0
SPLINE
  5
3DF
100
AcDbEntity
  8
DRAFT
100
AcDbSpline
 62
7
  6
CONTINUOUS
 70
0
 71
3
 72
9
 73
5
 74
0
 42
0.0000001
 43
0.0000001
 44
0.0000000001
 40
0.0
 40
0.0
 40
0.0
 40
0.0
 40
0.4781770092
 40
1.0
 40
1.0
 40
1.0
 40
1.0
 10
-11.642635014
 20
-5.7256333494
 30
0.0
 10
-11.6498353471
 20
-5.7732433411
 30
0.0
 10
-11.66027125
 20
-5.8735301288
 30
0.0
 10
-11.6632974019
 20
-5.974262874
 30
0.0
 10
-11.6632974019
 20
-6.026809317
 30
0.0
  0
SPLINE
  5
3E0
100
AcDbEntity
  8
RACCORDO
100
AcDbSpline
 62
7
  6
CONTINUOUS
 70
0
 71
3
 72
9
 73
5
 74
0
 42
0.0000001
 43
0.0000001
 44
0.0000000001
 40
0.0
 40
0.0
 40
0.0
 40
0.0
 40
0.2546467725
 40
1.0
 40
1.0
 40
1.0
 40
1.0
 10
-7.2743226115
 20
-5.4845011162
 30
0.0
 10
-7.2680377691
 20
-5.48193534
 30
0.0
 10
-7.2437704058
 20
-5.4708817247
 30
0.0
 10
-7.2213090131
 20
-5.455816677
 30
0.0
 10
-7.2063927903
 20
-5.4426899082
 30
0.0
  0
SPLINE
  5
3E1
100
AcDbEntity
  8
DRAFT
100
AcDbSpline
 62
7
  6
CONTINUOUS
 70
0
 71
3
 72
9
 73
5
 74
0
 42
0.0000001
 43
0.0000001
 44
0.0000000001
 40
0.0
 40
0.0
 40
0.0
 40
0.0
 40
0.2372677095
 40
1.0
 40
1.0
 40
1.0
 40
1.0
 10
-16.889611374
 20
6.3137888786
 30
0.0
 10
-16.889611374
 20
6.2860664724
 30
0.0
 10
-16.8877381649
 20
6.169227901
 30
0.0
 10
-16.8788956349
 20
6.0525509374
 30
0.0
 10
-16.8691653651
 20
5.9639659347
 30
0.0
  0
SPLINE
  5
3E2
100
AcDbEntity
  8
DRAFT
100
AcDbSpline
 62
7
  6
CONTINUOUS
 70
0
 71
3
 72
17
 73
13
 74
0
 42
0.0000001
 43
0.0000001
 44
0.0000000001
 40
0.0
 40
0.0
 40
0.0
 40
0.0
 40
0.1169374496
 40
0.244397828
 40
0.3784824538
 40
0.5149378843
 40
0.6493889229
 40
0.7775631461
 40
0.8380600326
 40
0.895552969
 40
0.9496457119
 40
1.0
 40
1.0
 40
1.0
 40
1.0
 10
-16.8691653651
 20
5.9639659347
 30
0.0
 10
-16.8536336353
 20
5.822564068
 30
0.0
 10
-16.8052927681
 20
5.5286993259
 30
0.0
 10
-16.6934547695
 20
5.0816611292
 30
0.0
 10
-16.5422924761
 20
4.6212821979
 30
0.0
 10
-16.3572265285
 20
4.164298263
 30
0.0
 10
-16.1449542213
 20
3.7272849117
 30
0.0
 10
-15.9482026899
 20
3.3865014212
 30
0.0
 10
-15.7825371965
 20
3.136948137
 30
0.0
 10
-15.6589536165
 20
2.9678827897
 30
0.0
 10
-15.534788104
 20
2.8148320674
 30
0.0
 10
-15.4491418015
 20
2.7208446336
 30
0.0
 10
-15.4063305032
 20
2.6770339146
 30
0.0
  0
SPLINE
  5
3E3
100
AcDbEntity
  8
DRAFT
100
AcDbSpline
 62
7
  6
CONTINUOUS
 70
0
 71
3
 72
13
 73
9
 74
0
 42
0.0000001
 43
0.0000001
 44
0.0000000001
 40
0.0
 40
0.0
 40
0.0
 40
0.0
 40
0.3073022968
 40
0.446335883
 40
0.5754968433
 40
0.6949408797
 40
0.8050592492
 40
1.0
 40
1.0
 40
1.0
 40
1.0
 10
-15.4063305032
 20
2.6770339146
 30
0.0
 10
-15.3527499207
 20
2.6222025048
 30
0.0
 10
-15.2713795548
 20
2.5457781373
 30
0.0
 10
-15.1580843251
 20
2.4574490989
 30
0.0
 10
-15.0778364972
 20
2.4033395399
 30
0.0
 10
-14.9997352658
 20
2.3593461405
 30
0.0
 10
-14.9029730501
 20
2.3162389503
 30
0.0
 10
-14.8283218043
 20
2.2964090019
 30
0.0
 10
-14.7799251703
 20
2.2916234163
 30
0.0
  0
SPLINE
  5
3E4
100
AcDbEntity
  8
DRAFT
100
AcDbSpline
 62
7
  6
CONTINUOUS
 70
0
 71
3
 72
9
 73
5
 74
0
 42
0.0000001
 43
0.0000001
 44
0.0000000001
 40
0.0
 40
0.0
 40
0.0
 40
0.0
 40
0.2418455477
 40
1.0
 40
1.0
 40
1.0
 40
1.0
 10
-7.389611374
 20
-5.3212873997
 30
0.0
 10
-7.389611374
 20
-5.337987314
 30
0.0
 10
-7.3889446459
 20
-5.4070386311
 30
0.0
 10
-7.3857219641
 20
-5.4760574309
 30
0.0
 10
-7.3820688354
 20
-5.5282818849
 30
0.0
  0
SPLINE
  5
3E5
100
AcDbEntity
  8
DRAFT
100
AcDbSpline
 62
7
  6
CONTINUOUS
 70
0
 71
3
 72
15
 73
11
 74
0
 42
0.0000001
 43
0.0000001
 44
0.0000000001
 40
0.0
 40
0.0
 40
0.0
 40
0.0
 40
0.1073162575
 40
0.2234700242
 40
0.3467668093
 40
0.4753035081
 40
0.607033666
 40
0.7398269142
 40
0.8715255595
 40
1.0
 40
1.0
 40
1.0
 40
1.0
 10
-7.3820688354
 20
-5.5282818849
 30
0.0
 10
-7.3754068048
 20
-5.623521047
 30
0.0
 10
-7.3532021066
 20
-5.8213015963
 30
0.0
 10
-7.2983202027
 20
-6.1250580716
 30
0.0
 10
-7.221341962
 20
-6.4434298299
 30
0.0
 10
-7.1236572895
 20
-6.7705323399
 30
0.0
 10
-7.0070460655
 20
-7.1003405207
 30
0.0
 10
-6.8736503193
 20
-7.4267644556
 30
0.0
 10
-6.7259398343
 20
-7.7437645873
 30
0.0
 10
-6.6178254157
 20
-7.9485583043
 30
0.0
 10
-6.561748408
 20
-8.0481508983
 30
0.0
  0
SPLINE
  5
3E6
100
AcDbEntity
  8
RACCORDO
100
AcDbSpline
 62
7
  6
CONTINUOUS
 70
0
 71
3
 72
10
 73
6
 74
0
 42
0.0000001
 43
0.0000001
 44
0.0000000001
 40
0.0
 40
0.0
 40
0.0
 40
0.0
 40
0.229953019
 40
0.476236682
 40
1.0
 40
1.0
 40
1.0
 40
1.0
 10
-4.5491401291
 20
12.6202541298
 30
0.0
 10
-4.5562002512
 20
12.6084126729
 30
0.0
 10
-4.568240298
 20
12.5823144664
 30
0.0
 10
-4.5846701787
 20
12.5245088812
 30
0.0
 10
-4.5887550924
 20
12.4780279075
 30
0.0
 10
-4.5887625282
 20
12.4466266161
 30
0.0
  0
SPLINE
  5
3E7
100
AcDbEntity
  8
RACCORDO
100
AcDbSpline
 62
7
  6
CONTINUOUS
 70
0
 71
3
 72
10
 73
6
 74
0
 42
0.0000001
 43
0.0000001
 44
0.0000000001
 40
0.0
 40
0.0
 40
0.0
 40
0.0
 40
0.229953019
 40
0.476236682
 40
1.0
 40
1.0
 40
1.0
 40
1.0
 10
-15.7991401291
 20
26.3986339329
 30
0.0
 10
-15.8062002512
 20
26.3867924761
 30
0.0
 10
-15.818240298
 20
26.3606942695
 30
0.0
 10
-15.8346701787
 20
26.3028886843
 30
0.0
 10
-15.8387550924
 20
26.2564077107
 30
0.0
 10
-15.8387625282
 20
26.2250064192
 30
0.0
  0
SPLINE
  5
3E8
100
AcDbEntity
  8
RACCORDO
100
AcDbSpline
 62
250
  6
CONTINUOUS
 70
0
 71
3
 72
15
 73
11
 74
0
 42
0.0000001
 43
0.0000001
 44
0.0000000001
 40
0.0
 40
0.0
 40
0.0
 40
0.0
 40
0.1027224676
 40
0.2151807342
 40
0.3365690436
 40
0.4651569518
 40
0.5985861375
 40
0.7341205917
 40
0.8688694037
 40
1.0
 40
1.0
 40
1.0
 40
1.0
 10
-26.0362721322
 20
24.9082552953
 30
0.0
 10
-26.0328584087
 20
24.9780184859
 30
0.0
 10
-26.0092651381
 20
25.1235566722
 30
0.0
 10
-25.9332098295
 20
25.3403538758
 30
0.0
 10
-25.81770987
 20
25.558969943
 30
0.0
 10
-25.6666323187
 20
25.7722370404
 30
0.0
 10
-25.4849850528
 20
25.9732297195
 30
0.0
 10
-25.2787769109
 20
26.1553015151
 30
0.0
 10
-25.0549067674
 20
26.3123905782
 30
0.0
 10
-24.8955078785
 20
26.3987773112
 30
0.0
 10
-24.8145774521
 20
26.4361977769
 30
0.0
  0
SPLINE
  5
3E9
100
AcDbEntity
  8
RACCORDO
100
AcDbSpline
 62
250
  6
CONTINUOUS
 70
0
 71
3
 72
9
 73
5
 74
0
 42
0.0000001
 43
0.0000001
 44
0.0000000001
 40
0.0
 40
0.0
 40
0.0
 40
0.0
 40
0.4850243756
 40
1.0
 40
1.0
 40
1.0
 40
1.0
 10
-20.3498731355
 20
29.6516114869
 30
0.0
 10
-20.3498727987
 20
29.6360996584
 30
0.0
 10
-20.3436870596
 20
29.6038791428
 30
0.0
 10
-20.3267961073
 20
29.5759870612
 30
0.0
 10
-20.3163797446
 20
29.5632296743
 30
0.0
  0
SPLINE
  5
3EA
100
AcDbEntity
  8
RACCORDO
100
AcDbSpline
 62
250
  6
CONTINUOUS
 70
0
 71
3
 72
9
 73
5
 74
0
 42
0.0000001
 43
0.0000001
 44
0.0000000001
 40
0.0
 40
0.0
 40
0.0
 40
0.0
 40
0.4850243756
 40
1.0
 40
1.0
 40
1.0
 40
1.0
 10
0.3501268645
 20
4.2993926491
 30
0.0
 10
0.3501272013
 20
4.2838808206
 30
0.0
 10
0.3563129404
 20
4.251660305
 30
0.0
 10
0.3732038927
 20
4.2237682234
 30
0.0
 10
0.3836202554
 20
4.2110108365
 30
0.0
  0
SPLINE
  5
3EB
100
AcDbEntity
  8
RACCORDO
100
AcDbSpline
 62
250
  6
CONTINUOUS
 70
0
 71
3
 72
10
 73
6
 74
0
 42
0.0000001
 43
0.0000001
 44
0.0000000001
 40
0.0
 40
0.0
 40
0.0
 40
0.0
 40
0.2326822515
 40
0.4732660169
 40
1.0
 40
1.0
 40
1.0
 40
1.0
 10
4.3339945001
 20
-29.3566965573
 30
0.0
 10
4.3292692919
 20
-29.3509095989
 30
0.0
 10
4.3181836499
 20
-29.3402641493
 30
0.0
 10
4.2903298461
 20
-29.3238499706
 30
0.0
 10
4.2654774419
 20
-29.3185891633
 30
0.0
 10
4.2485985128
 20
-29.3175231538
 30
0.0
  0
SPLINE
  5
3EC
100
AcDbEntity
  8
RACCORDO
100
AcDbSpline
 62
250
  6
CONTINUOUS
 70
0
 71
3
 72
12
 73
8
 74
0
 42
0.0000001
 43
0.0000001
 44
0.0000000001
 40
0.0
 40
0.0
 40
0.0
 40
0.0
 40
0.1027019971
 40
0.2085275634
 40
0.4384369939
 40
0.7024546953
 40
1.0
 40
1.0
 40
1.0
 40
1.0
 10
-16.3660055128
 20
30.0005752501
 30
0.0
 10
-16.3704648298
 20
30.0060371507
 30
0.0
 10
-16.3808241476
 20
30.0161250455
 30
0.0
 10
-16.4066362611
 20
30.0320134552
 30
0.0
 10
-16.4475745841
 20
30.0421092686
 30
0.0
 10
-16.5023571716
 20
30.0385891608
 30
0.0
 10
-16.539579981
 20
30.0273501309
 30
0.0
 10
-16.5585210432
 20
30.0196984516
 30
0.0
  0
SPLINE
  5
3ED
100
AcDbEntity
  8
RACCORDO
100
AcDbSpline
 62
250
  6
CONTINUOUS
 70
0
 71
3
 72
9
 73
5
 74
0
 42
0.0000001
 43
0.0000001
 44
0.0000000001
 40
0.0
 40
0.0
 40
0.0
 40
0.0
 40
0.4850257243
 40
1.0
 40
1.0
 40
1.0
 40
1.0
 10
-20.3498731289
 20
29.9300933358
 30
0.0
 10
-20.3498688351
 20
29.9145865407
 30
0.0
 10
-20.3436791118
 20
29.8823783668
 30
0.0
 10
-20.3267926716
 20
29.8544966054
 30
0.0
 10
-20.3163797446
 20
29.8417434265
 30
0.0
  0
SPLINE
  5
3EE
100
AcDbEntity
  8
RACCORDO
100
AcDbSpline
 62
250
  6
CONTINUOUS
 70
0
 71
3
 72
9
 73
5
 74
0
 42
0.0000001
 43
0.0000001
 44
0.0000000001
 40
0.0
 40
0.0
 40
0.0
 40
0.0
 40
0.4808074393
 40
1.0
 40
1.0
 40
1.0
 40
1.0
 10
-20.2953119311
 20
29.4957658079
 30
0.0
 10
-20.3022975288
 20
29.5048802176
 30
0.0
 10
-20.3133014498
 20
29.5267333554
 30
0.0
 10
-20.3163797446
 20
29.5508293799
 30
0.0
 10
-20.3163797446
 20
29.5632296743
 30
0.0
  0
SPLINE
  5
3EF
100
AcDbEntity
  8
RACCORDO
100
AcDbSpline
 62
250
  6
CONTINUOUS
 70
0
 71
3
 72
12
 73
8
 74
0
 42
0.0000001
 43
0.0000001
 44
0.0000000001
 40
0.0
 40
0.0
 40
0.0
 40
0.0
 40
0.1027019971
 40
0.2085275634
 40
0.4384369939
 40
0.7024546953
 40
1.0
 40
1.0
 40
1.0
 40
1.0
 10
-6.9160055128
 20
18.4267362154
 30
0.0
 10
-6.9204648298
 20
18.432198116
 30
0.0
 10
-6.9308241476
 20
18.4422860108
 30
0.0
 10
-6.9566362611
 20
18.4581744206
 30
0.0
 10
-6.9975745841
 20
18.468270234
 30
0.0
 10
-7.0523571716
 20
18.4647501261
 30
0.0
 10
-7.089579981
 20
18.4535110963
 30
0.0
 10
-7.1085210432
 20
18.4458594169
 30
0.0
  0
SPLINE
  5
3F0
100
AcDbEntity
  8
RACCORDO
100
AcDbSpline
 62
250
  6
CONTINUOUS
 70
0
 71
3
 72
12
 73
8
 74
0
 42
0.0000001
 43
0.0000001
 44
0.0000000001
 40
0.0
 40
0.0
 40
0.0
 40
0.0
 40
0.1027019971
 40
0.2085275634
 40
0.4384369939
 40
0.7024546953
 40
1.0
 40
1.0
 40
1.0
 40
1.0
 10
-5.1160055128
 20
16.2221954469
 30
0.0
 10
-5.1204648298
 20
16.2276573475
 30
0.0
 10
-5.1308241476
 20
16.2377452423
 30
0.0
 10
-5.1566362611
 20
16.2536336521
 30
0.0
 10
-5.1975745841
 20
16.2637294655
 30
0.0
 10
-5.2523571716
 20
16.2602093576
 30
0.0
 10
-5.289579981
 20
16.2489703278
 30
0.0
 10
-5.3085210432
 20
16.2413186484
 30
0.0
  0
SPLINE
  5
3F1
100
AcDbEntity
  8
RACCORDO
100
AcDbSpline
 62
250
  6
CONTINUOUS
 70
0
 71
3
 72
9
 73
5
 74
0
 42
0.0000001
 43
0.0000001
 44
0.0000000001
 40
0.0
 40
0.0
 40
0.0
 40
0.0
 40
0.4850257243
 40
1.0
 40
1.0
 40
1.0
 40
1.0
 10
0.3501268711
 20
4.577874498
 30
0.0
 10
0.3501311649
 20
4.5623677029
 30
0.0
 10
0.3563208882
 20
4.530159529
 30
0.0
 10
0.3732073284
 20
4.5022777676
 30
0.0
 10
0.3836202554
 20
4.4895245887
 30
0.0
  0
SPLINE
  5
3F2
100
AcDbEntity
  8
RACCORDO
100
AcDbSpline
 62
250
  6
CONTINUOUS
 70
0
 71
3
 72
13
 73
9
 74
0
 42
0.0000001
 43
0.0000001
 44
0.0000000001
 40
0.0
 40
0.0
 40
0.0
 40
0.0
 40
0.0827090433
 40
0.171693867
 40
0.2718132118
 40
0.3860958075
 40
0.6616879559
 40
1.0
 40
1.0
 40
1.0
 40
1.0
 10
-20.1961884937
 20
30.1608333041
 30
0.0
 10
-20.1932424585
 20
30.1620632834
 30
0.0
 10
-20.186686884
 20
30.1636558378
 30
0.0
 10
-20.1760966815
 20
30.1631231525
 30
0.0
 10
-20.164765494
 20
30.1598643901
 30
0.0
 10
-20.1477284696
 20
30.1514858972
 30
0.0
 10
-20.1254176092
 20
30.1339818806
 30
0.0
 10
-20.1093257611
 20
30.1165091844
 30
0.0
 10
-20.101007013
 20
30.106443248
 30
0.0
  0
SPLINE
  5
3F3
100
AcDbEntity
  8
RACCORDO
100
AcDbSpline
 62
250
  6
CONTINUOUS
 70
0
 71
3
 72
9
 73
5
 74
0
 42
0.0000001
 43
0.0000001
 44
0.0000000001
 40
0.0
 40
0.0
 40
0.0
 40
0.0
 40
0.4808074393
 40
1.0
 40
1.0
 40
1.0
 40
1.0
 10
-10.8453119311
 20
17.9219267732
 30
0.0
 10
-10.8522975288
 20
17.9310411829
 30
0.0
 10
-10.8633014498
 20
17.9528943207
 30
0.0
 10
-10.8663797446
 20
17.9769903452
 30
0.0
 10
-10.8663797446
 20
17.9893906397
 30
0.0
  0
SPLINE
  5
3F4
100
AcDbEntity
  8
RACCORDO
100
AcDbSpline
 62
250
  6
CONTINUOUS
 70
0
 71
3
 72
9
 73
5
 74
0
 42
0.0000001
 43
0.0000001
 44
0.0000000001
 40
0.0
 40
0.0
 40
0.0
 40
0.0
 40
0.4808074393
 40
1.0
 40
1.0
 40
1.0
 40
1.0
 10
-9.0453119311
 20
15.7173860047
 30
0.0
 10
-9.0522975288
 20
15.7265004144
 30
0.0
 10
-9.0633014498
 20
15.7483535522
 30
0.0
 10
-9.0663797446
 20
15.7724495767
 30
0.0
 10
-9.0663797446
 20
15.7848498711
 30
0.0
  0
SPLINE
  5
3F5
100
AcDbEntity
  8
RACCORDO
100
AcDbSpline
 62
250
  6
CONTINUOUS
 70
0
 71
3
 72
13
 73
9
 74
0
 42
0.0000001
 43
0.0000001
 44
0.0000000001
 40
0.0
 40
0.0
 40
0.0
 40
0.0
 40
0.0827090433
 40
0.171693867
 40
0.2718132118
 40
0.3860958075
 40
0.6616879559
 40
1.0
 40
1.0
 40
1.0
 40
1.0
 10
0.5038115063
 20
4.8086144662
 30
0.0
 10
0.5067575415
 20
4.8098444456
 30
0.0
 10
0.513313116
 20
4.811437
 30
0.0
 10
0.5239033185
 20
4.8109043147
 30
0.0
 10
0.535234506
 20
4.8076455523
 30
0.0
 10
0.5522715304
 20
4.7992670594
 30
0.0
 10
0.5745823908
 20
4.7817630428
 30
0.0
 10
0.5906742389
 20
4.7642903466
 30
0.0
 10
0.598992987
 20
4.7542244102
 30
0.0
  0
SPLINE
  5
3F6
100
AcDbEntity
  8
RACCORDO
100
AcDbSpline
 62
250
  6
CONTINUOUS
 70
0
 71
3
 72
12
 73
8
 74
0
 42
0.0000001
 43
0.0000001
 44
0.0000000001
 40
0.0
 40
0.0
 40
0.0
 40
0.0
 40
0.1027019971
 40
0.2085275634
 40
0.4384369939
 40
0.7024546953
 40
1.0
 40
1.0
 40
1.0
 40
1.0
 10
4.3339944872
 20
4.6483564123
 30
0.0
 10
4.3295351702
 20
4.6538183128
 30
0.0
 10
4.3191758524
 20
4.6639062077
 30
0.0
 10
4.2933637389
 20
4.6797946174
 30
0.0
 10
4.2524254159
 20
4.6898904308
 30
0.0
 10
4.1976428284
 20
4.686370323
 30
0.0
 10
4.160420019
 20
4.6751312931
 30
0.0
 10
4.1414789568
 20
4.6674796138
 30
0.0
  0
SPLINE
  5
3F7
100
AcDbEntity
  8
RACCORDO
100
AcDbSpline
 62
250
  6
CONTINUOUS
 70
0
 71
3
 72
9
 73
5
 74
0
 42
0.0000001
 43
0.0000001
 44
0.0000000001
 40
0.0
 40
0.0
 40
0.0
 40
0.0
 40
0.4808074393
 40
1.0
 40
1.0
 40
1.0
 40
1.0
 10
0.4046880689
 20
4.1435469701
 30
0.0
 10
0.3977024712
 20
4.1526613798
 30
0.0
 10
0.3866985502
 20
4.1745145176
 30
0.0
 10
0.3836202554
 20
4.1986105421
 30
0.0
 10
0.3836202554
 20
4.2110108365
 30
0.0
  0
SPLINE
  5
3F8
100
AcDbEntity
  8
RACCORDO
100
AcDbSpline
 62
7
  6
CONTINUOUS
 70
0
 71
3
 72
13
 73
9
 74
0
 42
0.0000001
 43
0.0000001
 44
0.0000000001
 40
0.0
 40
0.0
 40
0.0
 40
0.0
 40
0.0828861755
 40
0.1721070636
 40
0.2724247598
 40
0.3868105189
 40
0.6622562882
 40
1.0
 40
1.0
 40
1.0
 40
1.0
 10
2.448528848
 20
5.6205064281
 30
0.0
 10
2.451481534
 20
5.6216848433
 30
0.0
 10
2.4580316889
 20
5.6231751026
 30
0.0
 10
2.4685695405
 20
5.6225253157
 30
0.0
 10
2.479818339
 20
5.6191806972
 30
0.0
 10
2.4966891352
 20
5.6107254034
 30
0.0
 10
2.5187291137
 20
5.5932086607
 30
0.0
 10
2.5345963018
 20
5.5757703436
 30
0.0
 10
2.5427897979
 20
5.5657362712
 30
0.0
  0
SPLINE
  5
3F9
100
AcDbEntity
  8
RACCORDO
100
AcDbSpline
 62
7
  6
CONTINUOUS
 70
0
 71
3
 72
13
 73
9
 74
0
 42
0.0000001
 43
0.0000001
 44
0.0000000001
 40
0.0
 40
0.0
 40
0.0
 40
0.0
 40
0.0828861755
 40
0.1721070636
 40
0.2724247598
 40
0.3868105189
 40
0.6622562882
 40
1.0
 40
1.0
 40
1.0
 40
1.0
 10
-18.251471152
 20
30.9727252659
 30
0.0
 10
-18.248518466
 20
30.9739036811
 30
0.0
 10
-18.2419683111
 20
30.9753939404
 30
0.0
 10
-18.2314304595
 20
30.9747441535
 30
0.0
 10
-18.220181661
 20
30.971399535
 30
0.0
 10
-18.2033108648
 20
30.9629442412
 30
0.0
 10
-18.1812708863
 20
30.9454274985
 30
0.0
 10
-18.1654036982
 20
30.9279891814
 30
0.0
 10
-18.1572102021
 20
30.917955109
 30
0.0
  0
SPLINE
  5
3FA
100
AcDbEntity
  8
RACCORDO
100
AcDbSpline
 62
250
  6
CONTINUOUS
 70
0
 71
3
 72
13
 73
9
 74
0
 42
0.0000001
 43
0.0000001
 44
0.0000000001
 40
0.0
 40
0.0
 40
0.0
 40
0.0
 40
0.0830887484
 40
0.1723687973
 40
0.2726524774
 40
0.3869608981
 40
0.6622562544
 40
1.0
 40
1.0
 40
1.0
 40
1.0
 10
3.1016181493
 20
5.8811310306
 30
0.0
 10
3.1045717279
 20
5.8823095014
 30
0.0
 10
3.1111173798
 20
5.8838005611
 30
0.0
 10
3.1216418864
 20
5.8831451322
 30
0.0
 10
3.1328586528
 20
5.8797856591
 30
0.0
 10
3.1496575182
 20
5.8712986308
 30
0.0
 10
3.1715627986
 20
5.8537199836
 30
0.0
 10
3.187293538
 20
5.8362342849
 30
0.0
 10
3.1954094105
 20
5.8261734386
 30
0.0
  0
SPLINE
  5
3FB
100
AcDbEntity
  8
RACCORDO
100
AcDbSpline
 62
7
  6
CONTINUOUS
 70
0
 71
3
 72
17
 73
13
 74
0
 42
0.0000001
 43
0.0000001
 44
0.0000000001
 40
0.0
 40
0.0
 40
0.0
 40
0.0
 40
0.0075249049
 40
0.0205835845
 40
0.0402654866
 40
0.0670291344
 40
0.1430148694
 40
0.250593793
 40
0.3911398106
 40
0.564791469
 40
0.7694477711
 40
1.0
 40
1.0
 40
1.0
 40
1.0
 10
-16.595318166
 20
6.0741430602
 30
0.0
 10
-16.5955977475
 20
6.0744867915
 30
0.0
 10
-16.5968815417
 20
6.0748603833
 30
0.0
 10
-16.5992087852
 20
6.0747539214
 30
0.0
 10
-16.6026974044
 20
6.0742045631
 30
0.0
 10
-16.6096990727
 20
6.0725272455
 30
0.0
 10
-16.6215461371
 20
6.0688572945
 30
0.0
 10
-16.6395558988
 20
6.0625579987
 30
0.0
 10
-16.6628194548
 20
6.0538539582
 30
0.0
 10
-16.6912921709
 20
6.0427801636
 30
0.0
 10
-16.724593906
 20
6.0295023805
 30
0.0
 10
-16.7483407084
 20
6.0198708214
 30
0.0
 10
-16.7609089314
 20
6.0147398658
 30
0.0
  0
SPLINE
  5
3FC
100
AcDbEntity
  8
RACCORDO
100
AcDbSpline
 62
250
  6
CONTINUOUS
 70
0
 71
3
 72
13
 73
9
 74
0
 42
0.0000001
 43
0.0000001
 44
0.0000000001
 40
0.0
 40
0.0
 40
0.0
 40
0.0
 40
0.0830887484
 40
0.1723687973
 40
0.2726524774
 40
0.3869608981
 40
0.6622562544
 40
1.0
 40
1.0
 40
1.0
 40
1.0
 10
-17.5983818507
 20
31.2333498684
 30
0.0
 10
-17.5954282721
 20
31.2345283392
 30
0.0
 10
-17.5888826202
 20
31.2360193989
 30
0.0
 10
-17.5783581136
 20
31.2353639701
 30
0.0
 10
-17.5671413472
 20
31.2320044969
 30
0.0
 10
-17.5503424818
 20
31.2235174686
 30
0.0
 10
-17.5284372014
 20
31.2059388214
 30
0.0
 10
-17.512706462
 20
31.1884531227
 30
0.0
 10
-17.5045905895
 20
31.1783922764
 30
0.0
  0
SPLINE
  5
3FD
100
AcDbEntity
  8
RACCORDO
100
AcDbSpline
 62
7
  6
CONTINUOUS
 70
0
 71
3
 72
9
 73
5
 74
0
 42
0.0000001
 43
0.0000001
 44
0.0000000001
 40
0.0
 40
0.0
 40
0.0
 40
0.0
 40
0.4930080025
 40
1.0
 40
1.0
 40
1.0
 40
1.0
 10
-15.8387625282
 20
26.2250064192
 30
0.0
 10
-15.8387738929
 20
26.1770135782
 30
0.0
 10
-15.8256868556
 20
26.0795080301
 30
0.0
 10
-15.7928373311
 20
25.9871369799
 30
0.0
 10
-15.7717752041
 20
25.9425027089
 30
0.0
  0
SPLINE
  5
3FE
100
AcDbEntity
  8
RACCORDO
100
AcDbSpline
 62
7
  6
CONTINUOUS
 70
0
 71
3
 72
9
 73
5
 74
0
 42
0.0000001
 43
0.0000001
 44
0.0000000001
 40
0.0
 40
0.0
 40
0.0
 40
0.0
 40
0.4930080025
 40
1.0
 40
1.0
 40
1.0
 40
1.0
 10
-4.5887625282
 20
12.4466266161
 30
0.0
 10
-4.5887738929
 20
12.398633775
 30
0.0
 10
-4.5756868556
 20
12.301128227
 30
0.0
 10
-4.5428373311
 20
12.2087571768
 30
0.0
 10
-4.5217752041
 20
12.1641229057
 30
0.0
  0
SPLINE
  5
3FF
100
AcDbEntity
  8
RACCORDO
100
AcDbSpline
 62
250
  6
CONTINUOUS
 70
0
 71
3
 72
9
 73
5
 74
0
 42
0.0000001
 43
0.0000001
 44
0.0000000001
 40
0.0
 40
0.0
 40
0.0
 40
0.0
 40
0.4850243756
 40
1.0
 40
1.0
 40
1.0
 40
1.0
 10
-10.8998731355
 20
18.0777724522
 30
0.0
 10
-10.8998727987
 20
18.0622606238
 30
0.0
 10
-10.8936870596
 20
18.0300401082
 30
0.0
 10
-10.8767961073
 20
18.0021480265
 30
0.0
 10
-10.8663797446
 20
17.9893906397
 30
0.0
  0
SPLINE
  5
400
100
AcDbEntity
  8
DRAFT
100
AcDbSpline
 62
7
  6
CONTINUOUS
 70
0
 71
3
 72
32
 73
28
 74
0
 42
0.0000001
 43
0.0000001
 44
0.0000000001
 40
0.0
 40
0.0
 40
0.0
 40
0.0
 40
0.0170539635
 40
0.03547611
 40
0.0553453306
 40
0.0767042803
 40
0.0995663465
 40
0.1239211695
 40
0.1497389085
 40
0.1769735233
 40
0.2055653234
 40
0.2354429827
 40
0.266525166
 40
0.2987218833
 40
0.3319356487
 40
0.3660624943
 40
0.4366071973
 40
0.5094333859
 40
0.5835609876
 40
0.6579815141
 40
0.7316801643
 40
0.8036577501
 40
0.8729530567
 40
0.9063137395
 40
0.9386729832
 40
0.9699320075
 40
1.0
 40
1.0
 40
1.0
 40
1.0
 10
-20.1571283594
 20
15.0528534154
 30
0.0
 10
-20.2436674652
 20
14.8909650189
 30
0.0
 10
-20.4039495359
 20
14.5434354652
 30
0.0
 10
-20.6000970217
 20
13.9801487417
 30
0.0
 10
-20.7603362019
 20
13.3577216176
 30
0.0
 10
-20.8841212692
 20
12.6785449598
 30
0.0
 10
-20.9710549686
 20
11.945118146
 30
0.0
 10
-21.0208233886
 20
11.1602130608
 30
0.0
 10
-21.0332421165
 20
10.3268129354
 30
0.0
 10
-21.0082590727
 20
9.4481117588
 30
0.0
 10
-20.9459631498
 20
8.5274934549
 30
0.0
 10
-20.8465863524
 20
7.5685167314
 30
0.0
 10
-20.7105054412
 20
6.5748973182
 30
0.0
 10
-20.5382396313
 20
5.5504945907
 30
0.0
 10
-20.3304554827
 20
4.499282647
 30
0.0
 10
-20.0034858524
 20
3.0514117618
 30
0.0
 10
-19.510552185
 20
1.2046474826
 30
0.0
 10
-18.8006368324
 20
-1.0270813817
 30
0.0
 10
-17.9767830521
 20
-3.2638207068
 30
0.0
 10
-17.0517696255
 20
-5.4708172303
 30
0.0
 10
-16.0399440295
 20
-7.6138633209
 30
0.0
 10
-14.9570544625
 20
-9.6596883273
 30
0.0
 10
-13.9976542424
 20
-11.2772046611
 30
0.0
 10
-13.206242072
 20
-12.496294677
 30
0.0
 10
-12.6132124875
 20
-13.355542893
 30
0.0
 10
-12.0155417169
 20
-14.1679627283
 30
0.0
 10
-11.6072213046
 20
-14.6868356209
 30
0.0
 10
-11.4025278864
 20
-14.9375328351
 30
0.0
  0
SPLINE
  5
401
100
AcDbEntity
  8
RACCORDO
100
AcDbSpline
 62
250
  6
CONTINUOUS
 70
0
 71
3
 72
17
 73
13
 74
0
 42
0.0000001
 43
0.0000001
 44
0.0000000001
 40
0.0
 40
0.0
 40
0.0
 40
0.0
 40
0.1195744154
 40
0.2484479127
 40
0.3828887755
 40
0.5188898371
 40
0.6523692066
 40
0.779366276
 40
0.8392924996
 40
0.8962745944
 40
0.9499473756
 40
1.0
 40
1.0
 40
1.0
 40
1.0
 10
-6.4241705732
 20
-8.7019563639
 30
0.0
 10
-6.5084777584
 20
-8.5884083325
 30
0.0
 10
-6.6722472951
 20
-8.3439191014
 30
0.0
 10
-6.8949015264
 20
-7.9491765314
 30
0.0
 10
-7.098364588
 20
-7.5225733147
 30
0.0
 10
-7.2756708878
 20
-7.0786007115
 30
0.0
 10
-7.4207926332
 20
-6.6323424779
 30
0.0
 10
-7.5126290203
 20
-6.2642780134
 30
0.0
 10
-7.5652245534
 20
-5.9805615292
 30
0.0
 10
-7.5932002153
 20
-5.7806817761
 30
0.0
 10
-7.6102558071
 20
-5.5912954788
 30
0.0
 10
-7.6144062256
 20
-5.4685958186
 30
0.0
 10
-7.6144062256
 20
-5.4093970206
 30
0.0
  0
SPLINE
  5
402
100
AcDbEntity
  8
RACCORDO
100
AcDbSpline
 62
250
  6
CONTINUOUS
 70
0
 71
3
 72
28
 73
24
 74
0
 42
0.0000001
 43
0.0000001
 44
0.0000000001
 40
0.0
 40
0.0
 40
0.0
 40
0.0
 40
0.0142323133
 40
0.0290464643
 40
0.0449193817
 40
0.0622192644
 40
0.0812030659
 40
0.1020320686
 40
0.1247915127
 40
0.1495077286
 40
0.1761613576
 40
0.2046970837
 40
0.2670392501
 40
0.3356190559
 40
0.4092328553
 40
0.4864906179
 40
0.5658785639
 40
0.6458137924
 40
0.7246960584
 40
0.8009586968
 40
0.8731208214
 40
0.9398440078
 40
1.0
 40
1.0
 40
1.0
 40
1.0
 10
-14.8314815347
 20
2.2179864292
 30
0.0
 10
-14.8532391146
 20
2.2094149719
 30
0.0
 10
-14.899694942
 20
2.1967391776
 30
0.0
 10
-14.9738280082
 20
2.1924077678
 30
0.0
 10
-15.0524352368
 20
2.2023473028
 30
0.0
 10
-15.135022116
 20
2.2262797086
 30
0.0
 10
-15.2212178329
 20
2.2639261021
 30
0.0
 10
-15.3106228354
 20
2.3150204285
 30
0.0
 10
-15.4028007941
 20
2.3792634547
 30
0.0
 10
-15.4972716401
 20
2.4563000873
 30
0.0
 10
-15.5935291811
 20
2.5457040611
 30
0.0
 10
-15.7275109648
 20
2.6848956458
 30
0.0
 10
-15.8947692518
 20
2.8870636295
 30
0.0
 10
-16.0883259578
 20
3.1621224746
 30
0.0
 10
-16.275896272
 20
3.4703578435
 30
0.0
 10
-16.4531967635
 20
3.8048085754
 30
0.0
 10
-16.6161815688
 20
4.157923906
 30
0.0
 10
-16.7611344269
 20
4.521685854
 30
0.0
 10
-16.8847648439
 20
4.8878291196
 30
0.0
 10
-16.9842845058
 20
5.2480294736
 30
0.0
 10
-17.0574825947
 20
5.5941415215
 30
0.0
 10
-17.1027652691
 20
5.9183112945
 30
0.0
 10
-17.1144062256
 20
6.1268370726
 30
0.0
 10
-17.1144062256
 20
6.2256792576
 30
0.0
  0
SPLINE
  5
403
100
AcDbEntity
  8
RACCORDO
100
AcDbSpline
 62
250
  6
CONTINUOUS
 70
0
 71
3
 72
28
 73
24
 74
0
 42
0.0000001
 43
0.0000001
 44
0.0000000001
 40
0.0
 40
0.0
 40
0.0
 40
0.0
 40
0.0142323133
 40
0.0290464643
 40
0.0449193817
 40
0.0622192644
 40
0.0812030659
 40
0.1020320686
 40
0.1247915127
 40
0.1495077286
 40
0.1761613576
 40
0.2046970837
 40
0.2670392501
 40
0.3356190559
 40
0.4092328553
 40
0.4864906179
 40
0.5658785639
 40
0.6458137924
 40
0.7246960584
 40
0.8009586968
 40
0.8731208214
 40
0.9398440078
 40
1.0
 40
1.0
 40
1.0
 40
1.0
 10
-10.0778666842
 20
-10.3259597701
 30
0.0
 10
-10.0997044638
 20
-10.3345628223
 30
0.0
 10
-10.1463315301
 20
-10.3472853402
 30
0.0
 10
-10.2207378551
 20
-10.3516327159
 30
0.0
 10
-10.2996348344
 20
-10.3416565432
 30
0.0
 10
-10.3825261337
 20
-10.3176359211
 30
0.0
 10
-10.469039573
 20
-10.2798507609
 30
0.0
 10
-10.5587741276
 20
-10.2285680978
 30
0.0
 10
-10.6512918597
 20
-10.1640882681
 30
0.0
 10
-10.7461109307
 20
-10.0867676739
 30
0.0
 10
-10.8427232826
 20
-9.9970341519
 30
0.0
 10
-10.9771989309
 20
-9.8573294989
 30
0.0
 10
-11.1450737417
 20
-9.6544163122
 30
0.0
 10
-11.339343909
 20
-9.3783435842
 30
0.0
 10
-11.5276056183
 20
-9.0689720418
 30
0.0
 10
-11.7055596498
 20
-8.733288505
 30
0.0
 10
-11.8691452265
 20
-8.3788715708
 30
0.0
 10
-12.0146323893
 20
-8.013768775
 30
0.0
 10
-12.1387185152
 20
-7.646275884
 30
0.0
 10
-12.2386050124
 20
-7.2847478105
 30
0.0
 10
-12.3120729138
 20
-6.9373599734
 30
0.0
 10
-12.3575225028
 20
-6.6119952918
 30
0.0
 10
-12.3692063684
 20
-6.4027008755
 30
0.0
 10
-12.3692063684
 20
-6.3034943524
 30
0.0
  0
SPLINE
  5
404
100
AcDbEntity
  8
RACCORDO
100
AcDbSpline
 62
250
  6
CONTINUOUS
 70
0
 71
3
 72
18
 73
14
 74
0
 42
0.0000001
 43
0.0000001
 44
0.0000000001
 40
0.0
 40
0.0
 40
0.0
 40
0.0
 40
0.1797150464
 40
0.3389372597
 40
0.4777260055
 40
0.5399321263
 40
0.5977701769
 40
0.7024321862
 40
0.7511349955
 40
0.7987041162
 40
0.8462980638
 40
0.8950733719
 40
1.0
 40
1.0
 40
1.0
 40
1.0
 10
-8.1547402352
 20
-5.3034385665
 30
0.0
 10
-8.1547402352
 20
-5.223521593
 30
0.0
 10
-8.1488187877
 20
-5.0726575786
 30
0.0
 10
-8.1185448602
 20
-4.8619647326
 30
0.0
 10
-8.0746670379
 20
-4.7071386513
 30
0.0
 10
-8.0280892123
 20
-4.6016549744
 30
0.0
 10
-7.978342453
 20
-4.514891833
 30
0.0
 10
-7.917077271
 20
-4.4418135117
 30
0.0
 10
-7.8448567013
 20
-4.3885936443
 30
0.0
 10
-7.7875225257
 20
-4.3595227383
 30
0.0
 10
-7.7260505517
 20
-4.3405912228
 30
0.0
 10
-7.6370046732
 20
-4.3286477465
 30
0.0
 10
-7.567852177
 20
-4.3358424498
 30
0.0
 10
-7.5222870094
 20
-4.3458886782
 30
0.0
  0
SPLINE
  5
405
100
AcDbEntity
  8
RACCORDO
100
AcDbSpline
 62
250
  6
CONTINUOUS
 70
0
 71
3
 72
23
 73
19
 74
0
 42
0.0000001
 43
0.0000001
 44
0.0000000001
 40
0.0
 40
0.0
 40
0.0
 40
0.0
 40
0.0465777186
 40
0.0982386184
 40
0.1546012269
 40
0.2151493488
 40
0.2792642508
 40
0.3462487615
 40
0.4153473805
 40
0.4857636062
 40
0.5566760928
 40
0.6272543347
 40
0.6966739812
 40
0.7641324494
 40
0.8288648827
 40
0.8901613328
 40
0.9473852547
 40
1.0
 40
1.0
 40
1.0
 40
1.0
 10
-6.2348525855
 20
-9.6954918605
 30
0.0
 10
-6.29384416
 20
-9.6473908541
 30
0.0
 10
-6.4126561811
 20
-9.5389925258
 30
0.0
 10
-6.5845270647
 20
-9.3535228241
 30
0.0
 10
-6.7574067748
 20
-9.1387955243
 30
0.0
 10
-6.9289872691
 20
-8.8976247218
 30
0.0
 10
-7.096997207
 20
-8.6331634651
 30
0.0
 10
-7.2591918734
 20
-8.3489091828
 30
0.0
 10
-7.4134037433
 20
-8.0486325164
 30
0.0
 10
-7.557570702
 20
-7.736327828
 30
0.0
 10
-7.6897679644
 20
-7.4161558076
 30
0.0
 10
-7.808232526
 20
-7.0923846934
 30
0.0
 10
-7.911388278
 20
-6.7693313171
 30
0.0
 10
-7.997869753
 20
-6.4513003965
 30
0.0
 10
-8.0665391103
 20
-6.142526916
 30
0.0
 10
-8.1165029573
 20
-5.8471020048
 30
0.0
 10
-8.1471246717
 20
-5.5689545728
 30
0.0
 10
-8.1547402352
 20
-5.3894206049
 30
0.0
 10
-8.1547402352
 20
-5.3034385665
 30
0.0
  0
SPLINE
  5
406
100
AcDbEntity
  8
RACCORDO
100
AcDbSpline
 62
250
  6
CONTINUOUS
 70
0
 71
3
 72
35
 73
31
 74
0
 42
0.0000001
 43
0.0000001
 44
0.0000000001
 40
0.0
 40
0.0
 40
0.0
 40
0.0
 40
0.0295364444
 40
0.0563374847
 40
0.0803755003
 40
0.1017368898
 40
0.1206697253
 40
0.1376404579
 40
0.1533782809
 40
0.168838607
 40
0.1850363439
 40
0.2028356916
 40
0.2228426687
 40
0.2454157997
 40
0.270722303
 40
0.2987913001
 40
0.3295521294
 40
0.3628599926
 40
0.3985132218
 40
0.4362654269
 40
0.4758346252
 40
0.5169105486
 40
0.6022227624
 40
0.6893919168
 40
0.7754909784
 40
0.8576503648
 40
0.8964204548
 40
0.9332400413
 40
0.9678419313
 40
1.0
 40
1.0
 40
1.0
 40
1.0
 10
-12.909540378
 20
-6.1975358983
 30
0.0
 10
-12.909540378
 20
-6.1308215055
 30
0.0
 10
-12.9053591215
 20
-6.0035015746
 30
0.0
 10
-12.884484582
 20
-5.8229189962
 30
0.0
 10
-12.8494648308
 20
-5.663292203
 30
0.0
 10
-12.8004805302
 20
-5.5259716786
 30
0.0
 10
-12.7376331383
 20
-5.4121071383
 30
0.0
 10
-12.6608588172
 20
-5.3229286879
 30
0.0
 10
-12.5703028965
 20
-5.2602172451
 30
0.0
 10
-12.4673680554
 20
-5.22593392
 30
0.0
 10
-12.354565588
 20
-5.2206248545
 30
0.0
 10
-12.2338281004
 20
-5.2433280174
 30
0.0
 10
-12.106153346
 20
-5.2929465807
 30
0.0
 10
-11.9723463754
 20
-5.3686723899
 30
0.0
 10
-11.8333721462
 20
-5.469740802
 30
0.0
 10
-11.6903787405
 20
-5.5952399493
 30
0.0
 10
-11.5446417151
 20
-5.7440357351
 30
0.0
 10
-11.3975127076
 20
-5.9147587157
 30
0.0
 10
-11.2503824019
 20
-6.1058137384
 30
0.0
 10
-11.1046563088
 20
-6.3153970615
 30
0.0
 10
-10.9617264875
 20
-6.5415184635
 30
0.0
 10
-10.774373787
 20
-6.8662860332
 30
0.0
 10
-10.5573791862
 20
-7.2976054876
 30
0.0
 10
-10.3314695647
 20
-7.8366901126
 30
0.0
 10
-10.1454424164
 20
-8.3832937379
 30
0.0
 10
-10.0271801845
 20
-8.8362571685
 30
0.0
 10
-9.9592117291
 20
-9.1861274049
 30
0.0
 10
-9.9230145764
 20
-9.4324758506
 30
0.0
 10
-9.9009195135
 20
-9.665493149
 30
0.0
 10
-9.8955153949
 20
-9.8163116453
 30
0.0
 10
-9.8955153949
 20
-9.8889475387
 30
0.0
  0
SPLINE
  5
407
100
AcDbEntity
  8
RACCORDO
100
AcDbSpline
 62
250
  6
CONTINUOUS
 70
0
 71
3
 72
35
 73
31
 74
0
 42
0.0000001
 43
0.0000001
 44
0.0000000001
 40
0.0
 40
0.0
 40
0.0
 40
0.0
 40
0.0295364444
 40
0.0563374847
 40
0.0803755003
 40
0.1017368898
 40
0.1206697253
 40
0.1376404579
 40
0.1533782809
 40
0.168838607
 40
0.1850363439
 40
0.2028356916
 40
0.2228426687
 40
0.2454157997
 40
0.270722303
 40
0.2987913001
 40
0.3295521294
 40
0.3628599926
 40
0.3985132218
 40
0.4362654269
 40
0.4758346252
 40
0.5169105486
 40
0.6022227624
 40
0.6893919168
 40
0.7754909784
 40
0.8576503648
 40
0.8964204548
 40
0.9332400413
 40
0.9678419313
 40
1.0
 40
1.0
 40
1.0
 40
1.0
 10
-9.8955153949
 20
-9.8889475387
 30
0.0
 10
-9.8955153949
 20
-9.9556619315
 30
0.0
 10
-9.8996966513
 20
-10.0829818624
 30
0.0
 10
-9.9205711908
 20
-10.2635644409
 30
0.0
 10
-9.9555909421
 20
-10.4231912341
 30
0.0
 10
-10.0045752427
 20
-10.5605117584
 30
0.0
 10
-10.0674226346
 20
-10.6743762987
 30
0.0
 10
-10.1441969557
 20
-10.7635547491
 30
0.0
 10
-10.2347528764
 20
-10.8262661919
 30
0.0
 10
-10.3376877175
 20
-10.860549517
 30
0.0
 10
-10.4504901848
 20
-10.8658585825
 30
0.0
 10
-10.5712276725
 20
-10.8431554196
 30
0.0
 10
-10.6989024269
 20
-10.7935368563
 30
0.0
 10
-10.8327093975
 20
-10.7178110471
 30
0.0
 10
-10.9716836267
 20
-10.616742635
 30
0.0
 10
-11.1146770324
 20
-10.4912434877
 30
0.0
 10
-11.2604140578
 20
-10.3424477019
 30
0.0
 10
-11.4075430653
 20
-10.1717247213
 30
0.0
 10
-11.554673371
 20
-9.9806696987
 30
0.0
 10
-11.7003994641
 20
-9.7710863755
 30
0.0
 10
-11.8433292854
 20
-9.5449649736
 30
0.0
 10
-12.0306819859
 20
-9.2201974038
 30
0.0
 10
-12.2476765867
 20
-8.7888779494
 30
0.0
 10
-12.4735862082
 20
-8.2497933244
 30
0.0
 10
-12.6596133565
 20
-7.7031896991
 30
0.0
 10
-12.7778755883
 20
-7.2502262685
 30
0.0
 10
-12.8458440438
 20
-6.9003560321
 30
0.0
 10
-12.8820411965
 20
-6.6540075865
 30
0.0
 10
-12.9041362594
 20
-6.420990288
 30
0.0
 10
-12.909540378
 20
-6.2701717917
 30
0.0
 10
-12.909540378
 20
-6.1975358983
 30
0.0
  0
SPLINE
  5
408
100
AcDbEntity
  8
RACCORDO
100
AcDbSpline
 62
250
  6
CONTINUOUS
 70
0
 71
3
 72
35
 73
31
 74
0
 42
0.0000001
 43
0.0000001
 44
0.0000000001
 40
0.0
 40
0.0
 40
0.0
 40
0.0
 40
0.0295364444
 40
0.0563374847
 40
0.0803755003
 40
0.1017368898
 40
0.1206697253
 40
0.1376404579
 40
0.1533782809
 40
0.168838607
 40
0.1850363439
 40
0.2028356916
 40
0.2228426687
 40
0.2454157997
 40
0.270722303
 40
0.2987913001
 40
0.3295521294
 40
0.3628599926
 40
0.3985132218
 40
0.4362654269
 40
0.4758346252
 40
0.5169105486
 40
0.6022227624
 40
0.6893919168
 40
0.7754909784
 40
0.8576503648
 40
0.8964204548
 40
0.9332400413
 40
0.9678419313
 40
1.0
 40
1.0
 40
1.0
 40
1.0
 10
-17.6547402352
 20
6.3316377117
 30
0.0
 10
-17.6547402352
 20
6.3981396055
 30
0.0
 10
-17.6505722969
 20
6.5250539964
 30
0.0
 10
-17.629764247
 20
6.7050613824
 30
0.0
 10
-17.5948560408
 20
6.8641797317
 30
0.0
 10
-17.5460277653
 20
7.0010628621
 30
0.0
 10
-17.4833805551
 20
7.1145647206
 30
0.0
 10
-17.4068507759
 20
7.2034591194
 30
0.0
 10
-17.3165832944
 20
7.2659708134
 30
0.0
 10
-17.2139763218
 20
7.3001449391
 30
0.0
 10
-17.1015331533
 20
7.3054370942
 30
0.0
 10
-16.9811802393
 20
7.2828062454
 30
0.0
 10
-16.8539121551
 20
7.2333457274
 30
0.0
 10
-16.720531387
 20
7.1578611204
 30
0.0
 10
-16.5819998191
 20
7.0571146319
 30
0.0
 10
-16.4394618767
 20
6.932015225
 30
0.0
 10
-16.2941890535
 20
6.7836933842
 30
0.0
 10
-16.147528682
 20
6.6135141912
 30
0.0
 10
-16.0008670164
 20
6.4230677179
 30
0.0
 10
-15.8556050907
 20
6.2141519604
 30
0.0
 10
-15.7131305301
 20
5.9887508014
 30
0.0
 10
-15.5263745862
 20
5.6650176827
 30
0.0
 10
-15.3100711576
 20
5.235072069
 30
0.0
 10
-15.0848811044
 20
4.6977045387
 30
0.0
 10
-14.8994464906
 20
4.1528419577
 30
0.0
 10
-14.7815609481
 20
3.7013213082
 30
0.0
 10
-14.7138089861
 20
3.35256548
 30
0.0
 10
-14.6777271287
 20
3.1070017045
 30
0.0
 10
-14.6557024431
 20
2.8747266138
 30
0.0
 10
-14.6503155377
 20
2.7243885052
 30
0.0
 10
-14.6503155377
 20
2.651983972
 30
0.0
  0
SPLINE
  5
409
100
AcDbEntity
  8
RACCORDO
100
AcDbSpline
 62
250
  6
CONTINUOUS
 70
0
 71
3
 72
35
 73
31
 74
0
 42
0.0000001
 43
0.0000001
 44
0.0000000001
 40
0.0
 40
0.0
 40
0.0
 40
0.0
 40
0.0295364444
 40
0.0563374847
 40
0.0803755003
 40
0.1017368898
 40
0.1206697253
 40
0.1376404579
 40
0.1533782809
 40
0.168838607
 40
0.1850363439
 40
0.2028356916
 40
0.2228426687
 40
0.2454157997
 40
0.270722303
 40
0.2987913001
 40
0.3295521294
 40
0.3628599926
 40
0.3985132218
 40
0.4362654269
 40
0.4758346252
 40
0.5169105486
 40
0.6022227624
 40
0.6893919168
 40
0.7754909784
 40
0.8576503648
 40
0.8964204548
 40
0.9332400413
 40
0.9678419313
 40
1.0
 40
1.0
 40
1.0
 40
1.0
 10
-14.6503155377
 20
2.651983972
 30
0.0
 10
-14.6503155377
 20
2.5854820782
 30
0.0
 10
-14.654483476
 20
2.4585676873
 30
0.0
 10
-14.6752915259
 20
2.2785603013
 30
0.0
 10
-14.7101997321
 20
2.119441952
 30
0.0
 10
-14.7590280076
 20
1.9825588217
 30
0.0
 10
-14.8216752177
 20
1.8690569632
 30
0.0
 10
-14.898204997
 20
1.7801625643
 30
0.0
 10
-14.9884724785
 20
1.7176508703
 30
0.0
 10
-15.0910794511
 20
1.6834767446
 30
0.0
 10
-15.2035226195
 20
1.6781845896
 30
0.0
 10
-15.3238755336
 20
1.7008154383
 30
0.0
 10
-15.4511436178
 20
1.7502759563
 30
0.0
 10
-15.5845243859
 20
1.8257605633
 30
0.0
 10
-15.7230559538
 20
1.9265070519
 30
0.0
 10
-15.8655938962
 20
2.0516064587
 30
0.0
 10
-16.0108667194
 20
2.1999282996
 30
0.0
 10
-16.1575270909
 20
2.3701074925
 30
0.0
 10
-16.3041887565
 20
2.5605539659
 30
0.0
 10
-16.4494506822
 20
2.7694697233
 30
0.0
 10
-16.5919252428
 20
2.9948708824
 30
0.0
 10
-16.7786811867
 20
3.318604001
 30
0.0
 10
-16.9949846153
 20
3.7485496148
 30
0.0
 10
-17.2201746685
 20
4.2859171451
 30
0.0
 10
-17.4056092823
 20
4.830779726
 30
0.0
 10
-17.5234948248
 20
5.2823003755
 30
0.0
 10
-17.5912467868
 20
5.6310562037
 30
0.0
 10
-17.6273286442
 20
5.8766199792
 30
0.0
 10
-17.6493533298
 20
6.1088950699
 30
0.0
 10
-17.6547402352
 20
6.2592331785
 30
0.0
 10
-17.6547402352
 20
6.3316377117
 30
0.0
  0
SPLINE
  5
40A
100
AcDbEntity
  8
DRAFT
100
AcDbSpline
 62
7
  6
CONTINUOUS
 70
0
 71
3
 72
15
 73
11
 74
0
 42
0.0000001
 43
0.0000001
 44
0.0000000001
 40
0.0
 40
0.0
 40
0.0
 40
0.0
 40
0.1550900252
 40
0.3020671553
 40
0.4405384743
 40
0.57020901
 40
0.6909086578
 40
0.8026191066
 40
0.9055121477
 40
1.0
 40
1.0
 40
1.0
 40
1.0
 10
-11.4025278864
 20
-14.9375328351
 30
0.0
 10
-11.1856285317
 20
-15.2031792074
 30
0.0
 10
-10.7532569998
 20
-15.7126033241
 30
0.0
 10
-10.0911790846
 20
-16.4276312583
 30
0.0
 10
-9.4354026229
 20
-17.0705346639
 30
0.0
 10
-8.7890114169
 20
-17.6382889972
 30
0.0
 10
-8.1550100985
 20
-18.1282497161
 30
0.0
 10
-7.536225933
 20
-18.5381576781
 30
0.0
 10
-6.9355051001
 20
-18.8660435875
 30
0.0
 10
-6.5322277054
 20
-19.0357841627
 30
0.0
 10
-6.3349534136
 20
-19.1046211669
 30
0.0
  0
SPLINE
  5
40B
100
AcDbEntity
  8
RACCORDO
100
AcDbSpline
 62
250
  6
CONTINUOUS
 70
0
 71
3
 72
9
 73
5
 74
0
 42
0.0000001
 43
0.0000001
 44
0.0000000001
 40
0.0
 40
0.0
 40
0.0
 40
0.0
 40
0.4850257243
 40
1.0
 40
1.0
 40
1.0
 40
1.0
 10
-10.8998731289
 20
18.3562543012
 30
0.0
 10
-10.8998688351
 20
18.340747506
 30
0.0
 10
-10.8936791118
 20
18.3085393321
 30
0.0
 10
-10.8767926716
 20
18.2806575708
 30
0.0
 10
-10.8663797446
 20
18.2679043918
 30
0.0
  0
SPLINE
  5
40C
100
AcDbEntity
  8
RACCORDO
100
AcDbSpline
 62
250
  6
CONTINUOUS
 70
0
 71
3
 72
14
 73
10
 74
0
 42
0.0000001
 43
0.0000001
 44
0.0000000001
 40
0.0
 40
0.0
 40
0.0
 40
0.0
 40
0.0782580182
 40
0.1637312972
 40
0.2617711707
 40
0.3754979031
 40
0.5063189893
 40
0.6544691455
 40
1.0
 40
1.0
 40
1.0
 40
1.0
 10
-25.0038873691
 20
26.5452247546
 30
0.0
 10
-24.9984378879
 20
26.547775645
 30
0.0
 10
-24.9860235505
 20
26.5511276959
 30
0.0
 10
-24.965680241
 20
26.5501416137
 30
0.0
 10
-24.9436041138
 20
26.5436441074
 30
0.0
 10
-24.9199367604
 20
26.5318633428
 30
0.0
 10
-24.8948370693
 20
26.5149630521
 30
0.0
 10
-24.8578696631
 20
26.4842333259
 30
0.0
 10
-24.8317898119
 20
26.4564343196
 30
0.0
 10
-24.8145774521
 20
26.4361977769
 30
0.0
  0
SPLINE
  5
40D
100
AcDbEntity
  8
RACCORDO
100
AcDbSpline
 62
250
  6
CONTINUOUS
 70
0
 71
3
 72
11
 73
7
 74
0
 42
0.0000001
 43
0.0000001
 44
0.0000000001
 40
0.0
 40
0.0
 40
0.0
 40
0.0
 40
0.2386644393
 40
0.48223093
 40
0.7349588993
 40
1.0
 40
1.0
 40
1.0
 40
1.0
 10
-26.1030307085
 20
25.094724404
 30
0.0
 10
-26.1038144214
 20
25.0786441446
 30
0.0
 10
-26.1020818017
 20
25.0459006272
 30
0.0
 10
-26.0896416889
 20
24.9976019158
 30
0.0
 10
-26.0677003532
 20
24.9508703376
 30
0.0
 10
-26.0475854258
 20
24.9220991258
 30
0.0
 10
-26.0362719326
 20
24.9082553701
 30
0.0
  0
SPLINE
  5
40E
100
AcDbEntity
  8
RACCORDO
100
AcDbSpline
 62
250
  6
CONTINUOUS
 70
0
 71
3
 72
13
 73
9
 74
0
 42
0.0000001
 43
0.0000001
 44
0.0000000001
 40
0.0
 40
0.0
 40
0.0
 40
0.0
 40
0.0827090433
 40
0.171693867
 40
0.2718132118
 40
0.3860958075
 40
0.6616879559
 40
1.0
 40
1.0
 40
1.0
 40
1.0
 10
-10.7461884937
 20
18.5869942694
 30
0.0
 10
-10.7432424585
 20
18.5882242488
 30
0.0
 10
-10.736686884
 20
18.5898168031
 30
0.0
 10
-10.7260966815
 20
18.5892841178
 30
0.0
 10
-10.714765494
 20
18.5860253554
 30
0.0
 10
-10.6977284696
 20
18.5776468625
 30
0.0
 10
-10.6754176092
 20
18.5601428459
 30
0.0
 10
-10.6593257611
 20
18.5426701498
 30
0.0
 10
-10.651007013
 20
18.5326042133
 30
0.0
  0
SPLINE
  5
40F
100
AcDbEntity
  8
RACCORDO
100
AcDbSpline
 62
250
  6
CONTINUOUS
 70
0
 71
3
 72
10
 73
6
 74
0
 42
0.0000001
 43
0.0000001
 44
0.0000000001
 40
0.0
 40
0.0
 40
0.0
 40
0.0
 40
0.2427054849
 40
0.4886452839
 40
1.0
 40
1.0
 40
1.0
 40
1.0
 10
-26.1029772642
 20
-3.9346712775
 30
0.0
 10
-26.1022315784
 20
-3.9493157129
 30
0.0
 10
-26.0982066605
 20
-3.9787379303
 30
0.0
 10
-26.0801297314
 20
-4.0366002432
 30
0.0
 10
-26.0558024815
 20
-4.0764518727
 30
0.0
 10
-26.036272132
 20
-4.1003897059
 30
0.0
  0
SPLINE
  5
410
100
AcDbEntity
  8
RACCORDO
100
AcDbSpline
 62
7
  6
CONTINUOUS
 70
0
 71
3
 72
13
 73
9
 74
0
 42
0.0000001
 43
0.0000001
 44
0.0000000001
 40
0.0
 40
0.0
 40
0.0
 40
0.0
 40
0.0828861755
 40
0.1721070636
 40
0.2724247598
 40
0.3868105189
 40
0.6622562882
 40
1.0
 40
1.0
 40
1.0
 40
1.0
 10
-8.801471152
 20
19.3988862313
 30
0.0
 10
-8.798518466
 20
19.4000646465
 30
0.0
 10
-8.7919683111
 20
19.4015549058
 30
0.0
 10
-8.7814304595
 20
19.4009051188
 30
0.0
 10
-8.770181661
 20
19.3975605004
 30
0.0
 10
-8.7533108648
 20
19.3891052065
 30
0.0
 10
-8.7312708863
 20
19.3715884639
 30
0.0
 10
-8.7154036982
 20
19.3541501468
 30
0.0
 10
-8.7072102021
 20
19.3441160743
 30
0.0
  0
SPLINE
  5
411
100
AcDbEntity
  8
RACCORDO
100
AcDbSpline
 62
250
  6
CONTINUOUS
 70
0
 71
3
 72
23
 73
19
 74
0
 42
0.0000001
 43
0.0000001
 44
0.0000000001
 40
0.0
 40
0.0
 40
0.0
 40
0.0
 40
0.0396483605
 40
0.0800791571
 40
0.1221547199
 40
0.1666236231
 40
0.2140953634
 40
0.2650394733
 40
0.3197990169
 40
0.3786093976
 40
0.4416170288
 40
0.5088955257
 40
0.5804588847
 40
0.6562718523
 40
0.7362580895
 40
0.8203063418
 40
0.9082759211
 40
1.0
 40
1.0
 40
1.0
 40
1.0
 10
-7.6463368862
 20
-20.6623136891
 30
0.0
 10
-7.7533528164
 20
-20.7082965894
 30
0.0
 10
-7.9774629768
 20
-20.783723339
 30
0.0
 10
-8.3328319425
 20
-20.842750409
 30
0.0
 10
-8.7071035972
 20
-20.8482309669
 30
0.0
 10
-9.0989836717
 20
-20.8006030228
 30
0.0
 10
-9.5075186669
 20
-20.7004830683
 30
0.0
 10
-9.9317982318
 20
-20.5484923482
 30
0.0
 10
-10.370909049
 20
-20.3452790007
 30
0.0
 10
-10.8238671238
 20
-20.0915467319
 30
0.0
 10
-11.2896060293
 20
-19.7880915829
 30
0.0
 10
-11.7669772226
 20
-19.4358245235
 30
0.0
 10
-12.2547585013
 20
-19.0357837932
 30
0.0
 10
-12.7516634448
 20
-18.5891393205
 30
0.0
 10
-13.2563489505
 20
-18.0971934347
 30
0.0
 10
-13.7674255239
 20
-17.5613756557
 30
0.0
 10
-14.2834547499
 20
-16.9832487636
 30
0.0
 10
-14.6229535246
 20
-16.5788915322
 30
0.0
 10
-14.7933762788
 20
-16.3701672686
 30
0.0
  0
SPLINE
  5
412
100
AcDbEntity
  8
RACCORDO
100
AcDbSpline
 62
250
  6
CONTINUOUS
 70
0
 71
3
 72
13
 73
9
 74
0
 42
0.0000001
 43
0.0000001
 44
0.0000000001
 40
0.0
 40
0.0
 40
0.0
 40
0.0
 40
0.0830887484
 40
0.1723687973
 40
0.2726524774
 40
0.3869608981
 40
0.6622562544
 40
1.0
 40
1.0
 40
1.0
 40
1.0
 10
-8.1483818507
 20
19.6595108338
 30
0.0
 10
-8.1454282721
 20
19.6606893045
 30
0.0
 10
-8.1388826202
 20
19.6621803642
 30
0.0
 10
-8.1283581136
 20
19.6615249354
 30
0.0
 10
-8.1171413472
 20
19.6581654622
 30
0.0
 10
-8.1003424818
 20
19.649678434
 30
0.0
 10
-8.0784372014
 20
19.6320997867
 30
0.0
 10
-8.062706462
 20
19.6146140881
 30
0.0
 10
-8.0545905895
 20
19.6045532418
 30
0.0
  0
SPLINE
  5
413
100
AcDbEntity
  8
RACCORDO
100
AcDbSpline
 62
250
  6
CONTINUOUS
 70
0
 71
3
 72
54
 73
50
 74
0
 42
0.0000001
 43
0.0000001
 44
0.0000000001
 40
0.0
 40
0.0
 40
0.0
 40
0.0
 40
0.0354510289
 40
0.0730199156
 40
0.1124110287
 40
0.1533021208
 40
0.1953511053
 40
0.2382019662
 40
0.2814902718
 40
0.3248483444
 40
0.3679102144
 40
0.4103164572
 40
0.4517190028
 40
0.4917860664
 40
0.5302073225
 40
0.5666995646
 40
0.6010132126
 40
0.617288366
 40
0.632944877
 40
0.6479649349
 40
0.6623347907
 40
0.6760453124
 40
0.6890926512
 40
0.7014790469
 40
0.7132138038
 40
0.7243144525
 40
0.7348080998
 40
0.7447329316
 40
0.7541397534
 40
0.7630933332
 40
0.7716731537
 40
0.7799730495
 40
0.7880992034
 40
0.7961662627
 40
0.8042918946
 40
0.8125907332
 40
0.8211689387
 40
0.8395001984
 40
0.8494215434
 40
0.8599110143
 40
0.8710067732
 40
0.8827359099
 40
0.8951159466
 40
0.9081561901
 40
0.921858902
 40
0.9362202461
 40
0.9512311713
 40
0.966877848
 40
1.0
 40
1.0
 40
1.0
 40
1.0
 10
-15.2184909081
 20
-16.9112467911
 30
0.0
 10
-15.553854993
 20
-16.5005107061
 30
0.0
 10
-16.2224769264
 20
-15.6362634845
 30
0.0
 10
-17.1910282088
 20
-14.2612982844
 30
0.0
 10
-18.1471998431
 20
-12.7798658433
 30
0.0
 10
-19.0812863358
 20
-11.2060199745
 30
0.0
 10
-19.9836897014
 20
-9.5545966125
 30
0.0
 10
-20.8449828887
 20
-7.8411501057
 30
0.0
 10
-21.6560483379
 20
-6.0817803657
 30
0.0
 10
-22.4081927017
 20
-4.292992052
 30
0.0
 10
-23.0932653565
 20
-2.4915461531
 30
0.0
 10
-23.7037704871
 20
-0.6943150104
 30
0.0
 10
-24.2329761884
 20
1.081866747
 30
0.0
 10
-24.6750102165
 20
2.8203436864
 30
0.0
 10
-25.0249613022
 20
4.5048197598
 30
0.0
 10
-25.2789131378
 20
6.1194202777
 30
0.0
 10
-25.4104971746
 20
7.4161205668
 30
0.0
 10
-25.4630048135
 20
8.4057509499
 30
0.0
 10
-25.4762549885
 20
9.1080555781
 30
0.0
 10
-25.464058097
 20
9.7818914946
 30
0.0
 10
-25.426442531
 20
10.4256572376
 30
0.0
 10
-25.363513738
 20
11.0378161405
 30
0.0
 10
-25.275442852
 20
11.6169091146
 30
0.0
 10
-25.1624655826
 20
12.1615560961
 30
0.0
 10
-25.024877164
 20
12.6704591279
 30
0.0
 10
-24.8630267325
 20
13.1424028149
 30
0.0
 10
-24.6773106771
 20
13.5762516272
 30
0.0
 10
-24.4681671645
 20
13.9709424393
 30
0.0
 10
-24.236075029
 20
14.3254714215
 30
0.0
 10
-23.9815625774
 20
14.638876842
 30
0.0
 10
-23.7052322334
 20
14.910224966
 30
0.0
 10
-23.4078005465
 20
15.1386132049
 30
0.0
 10
-23.0901411483
 20
15.3232061942
 30
0.0
 10
-22.7532951221
 20
15.4633033261
 30
0.0
 10
-22.3984496411
 20
15.5584136956
 30
0.0
 10
-22.0268020743
 20
15.6082760955
 30
0.0
 10
-21.4991301855
 20
15.6145545754
 30
0.0
 10
-20.9507280703
 20
15.5257066908
 30
0.0
 10
-20.3960869547
 20
15.3566164571
 30
0.0
 10
-19.9577052337
 20
15.1821430436
 30
0.0
 10
-19.5093534839
 20
14.9638157191
 30
0.0
 10
-19.0519991799
 20
14.7021210622
 30
0.0
 10
-18.5868197156
 20
14.3976605947
 30
0.0
 10
-18.1149617985
 20
14.0511251
 30
0.0
 10
-17.6376049896
 20
13.6633074491
 30
0.0
 10
-17.1559398866
 20
13.2351037688
 30
0.0
 10
-16.6711520521
 20
12.7675065231
 30
0.0
 10
-16.0096500938
 20
12.0798960947
 30
0.0
 10
-15.5318246002
 20
11.5278246255
 30
0.0
 10
-15.2184909081
 20
11.1440714364
 30
0.0
  0
SPLINE
  5
414
100
AcDbEntity
  8
RACCORDO
100
AcDbSpline
 62
250
  6
CONTINUOUS
 70
0
 71
3
 72
55
 73
51
 74
0
 42
0.0000001
 43
0.0000001
 44
0.0000000001
 40
0.0
 40
0.0
 40
0.0
 40
0.0
 40
0.0358401004
 40
0.0737627222
 40
0.1134983603
 40
0.1547470593
 40
0.1971847437
 40
0.2404687035
 40
0.2842427413
 40
0.3281420663
 40
0.371798081
 40
0.4148431698
 40
0.4569155791
 40
0.4976645287
 40
0.5367556546
 40
0.5738769941
 40
0.608745842
 40
0.6252589046
 40
0.6411205614
 40
0.6563077792
 40
0.6708013831
 40
0.6845866361
 40
0.6976539481
 40
0.709999754
 40
0.7216276158
 40
0.732549598
 40
0.7427879663
 40
0.7523772385
 40
0.7613665338
 40
0.7698220046
 40
0.777828858
 40
0.7854921124
 40
0.7929349923
 40
0.8002941087
 40
0.8077115961
 40
0.8153258255
 40
0.823263106
 40
0.8316322251
 40
0.8405222697
 40
0.8500030116
 40
0.8601267535
 40
0.8709307213
 40
0.8824394399
 40
0.8946668395
 40
0.9076180159
 40
0.9212906661
 40
0.9356762041
 40
0.9507607528
 40
0.9665256451
 40
1.0
 40
1.0
 40
1.0
 40
1.0
 10
-15.2184909081
 20
11.1440714364
 30
0.0
 10
-14.8835256062
 20
10.7338236571
 30
0.0
 10
-14.2200204954
 20
9.8681295196
 30
0.0
 10
-13.2708312721
 20
8.4845604485
 30
0.0
 10
-12.3461801847
 20
6.9896545705
 30
0.0
 10
-11.454558088
 20
5.3979831282
 30
0.0
 10
-10.6039166825
 20
3.7250465207
 30
0.0
 10
-9.8016913783
 20
1.9872142843
 30
0.0
 10
-9.0547313023
 20
0.2015128
 30
0.0
 10
-8.3692732779
 20
-1.6145488973
 30
0.0
 10
-7.7509161923
 20
-3.4431663791
 30
0.0
 10
-7.2046059195
 20
-5.2664242348
 30
0.0
 10
-6.7346230636
 20
-7.066483927
 30
0.0
 10
-6.3445797311
 20
-8.8257644265
 30
0.0
 10
-6.0374031073
 20
-10.5271496673
 30
0.0
 10
-5.8153725018
 20
-12.1541030787
 30
0.0
 10
-5.7005523905
 20
-13.4575543753
 30
0.0
 10
-5.6547519857
 20
-14.4503113894
 30
0.0
 10
-5.64319214
 20
-15.153177046
 30
0.0
 10
-5.6537914033
 20
-15.8262238524
 30
0.0
 10
-5.686533176
 20
-16.4678551788
 30
0.0
 10
-5.7413539949
 20
-17.0765543895
 30
0.0
 10
-5.8181542359
 20
-17.6508960557
 30
0.0
 10
-5.9167984722
 20
-18.1895486392
 30
0.0
 10
-6.0371199699
 20
-18.6912784874
 30
0.0
 10
-6.1789263897
 20
-19.1549516696
 30
0.0
 10
-6.3420079203
 20
-19.5795325325
 30
0.0
 10
-6.5261466116
 20
-19.9640760982
 30
0.0
 10
-6.7311237716
 20
-20.3077106704
 30
0.0
 10
-6.9567171521
 20
-20.609608148
 30
0.0
 10
-7.202673922
 20
-20.8689469618
 30
0.0
 10
-7.4686467822
 20
-21.0848895459
 30
0.0
 10
-7.7541040879
 20
-21.2566136861
 30
0.0
 10
-8.0582698624
 20
-21.3834220137
 30
0.0
 10
-8.3801648429
 20
-21.4648834749
 30
0.0
 10
-8.7187460931
 20
-21.5009023089
 30
0.0
 10
-9.0730464867
 20
-21.4916634823
 30
0.0
 10
-9.4422257093
 20
-21.4375134641
 30
0.0
 10
-9.8255366133
 20
-21.3388651958
 30
0.0
 10
-10.222263027
 20
-21.1961605566
 30
0.0
 10
-10.6316701423
 20
-21.0098738912
 30
0.0
 10
-11.0529777955
 20
-20.7805307796
 30
0.0
 10
-11.4853511472
 20
-20.5087266558
 30
0.0
 10
-11.9279009169
 20
-20.1951398892
 30
0.0
 10
-12.3796873289
 20
-19.8405391749
 30
0.0
 10
-12.8397259244
 20
-19.4457865098
 30
0.0
 10
-13.3069897429
 20
-19.0118386768
 30
0.0
 10
-13.7804271779
 20
-18.5397427899
 30
0.0
 10
-14.4314974324
 20
-17.8470141616
 30
0.0
 10
-14.9056354969
 20
-17.294414295
 30
0.0
 10
-15.2184909081
 20
-16.9112467911
 30
0.0
  0
SPLINE
  5
415
100
AcDbEntity
  8
RACCORDO
100
AcDbSpline
 62
250
  6
CONTINUOUS
 70
0
 71
3
 72
11
 73
7
 74
0
 42
0.0000001
 43
0.0000001
 44
0.0000000001
 40
0.0
 40
0.0
 40
0.0
 40
0.0
 40
0.2390801177
 40
0.4829219523
 40
0.7354886476
 40
1.0
 40
1.0
 40
1.0
 40
1.0
 10
-25.9011364818
 20
-4.4745567505
 30
0.0
 10
-25.9215119317
 20
-4.4496026128
 30
0.0
 10
-25.9583207915
 20
-4.3954736327
 30
0.0
 10
-25.9994434611
 20
-4.304816594
 30
0.0
 10
-26.0263528776
 20
-4.2054597911
 30
0.0
 10
-26.0344557956
 20
-4.1359862037
 30
0.0
 10
-26.0362721322
 20
-4.100389706
 30
0.0
  0
SPLINE
  5
416
100
AcDbEntity
  8
RACCORDO
100
AcDbSpline
 62
7
  6
CONTINUOUS
 70
0
 71
3
 72
14
 73
10
 74
0
 42
0.0000001
 43
0.0000001
 44
0.0000000001
 40
0.0
 40
0.0
 40
0.0
 40
0.0
 40
0.3469813009
 40
0.4979578596
 40
0.6313976871
 40
0.7468177175
 40
0.8449548591
 40
0.9280037196
 40
1.0
 40
1.0
 40
1.0
 40
1.0
 10
-15.2941410348
 20
2.7127303673
 30
0.0
 10
-15.2718160568
 20
2.7218445014
 30
0.0
 10
-15.2389610623
 20
2.7331984228
 30
0.0
 10
-15.1959980155
 20
2.7423490189
 30
0.0
 10
-15.1683381712
 20
2.7455127474
 30
0.0
 10
-15.1441526405
 20
2.7453883106
 30
0.0
 10
-15.1236943416
 20
2.7420900383
 30
0.0
 10
-15.1071176789
 20
2.7357421028
 30
0.0
 10
-15.0983511532
 20
2.7291221804
 30
0.0
 10
-15.0949610257
 20
2.7254423142
 30
0.0
  0
SPLINE
  5
417
100
AcDbEntity
  8
RACCORDO
100
AcDbSpline
 62
250
  6
CONTINUOUS
 70
0
 71
3
 72
17
 73
13
 74
0
 42
0.0000001
 43
0.0000001
 44
0.0000000001
 40
0.0
 40
0.0
 40
0.0
 40
0.0
 40
0.0508038918
 40
0.1052190926
 40
0.1629131887
 40
0.2234990074
 40
0.3515731961
 40
0.4856717861
 40
0.6216876004
 40
0.7554188133
 40
0.8827766337
 40
1.0
 40
1.0
 40
1.0
 40
1.0
 10
-15.2941410348
 20
2.7127303673
 30
0.0
 10
-15.3369909686
 20
2.757578591
 30
0.0
 10
-15.4226614163
 20
2.853430207
 30
0.0
 10
-15.546876966
 20
3.0088846029
 30
0.0
 10
-15.67037416
 20
3.1798778996
 30
0.0
 10
-15.8356669043
 20
3.4312631029
 30
0.0
 10
-16.0319607957
 20
3.7734344726
 30
0.0
 10
-16.2439559918
 20
4.2113307422
 30
0.0
 10
-16.4291363226
 20
4.6686894168
 30
0.0
 10
-16.5810418594
 20
5.1295209365
 30
0.0
 10
-16.694418362
 20
5.5776790222
 30
0.0
 10
-16.744350618
 20
5.872579272
 30
0.0
 10
-16.7609089314
 20
6.0147398658
 30
0.0
  0
SPLINE
  5
418
100
AcDbEntity
  8
RACCORDO
100
AcDbSpline
 62
250
  6
CONTINUOUS
 70
0
 71
3
 72
9
 73
5
 74
0
 42
0.0000001
 43
0.0000001
 44
0.0000000001
 40
0.0
 40
0.0
 40
0.0
 40
0.0
 40
0.4850243756
 40
1.0
 40
1.0
 40
1.0
 40
1.0
 10
-9.0998731355
 20
15.8732316837
 30
0.0
 10
-9.0998727987
 20
15.8577198553
 30
0.0
 10
-9.0936870596
 20
15.8254993397
 30
0.0
 10
-9.0767961073
 20
15.797607258
 30
0.0
 10
-9.0663797446
 20
15.7848498711
 30
0.0
  0
SPLINE
  5
419
100
AcDbEntity
  8
RACCORDO
100
AcDbSpline
 62
250
  6
CONTINUOUS
 70
0
 71
3
 72
9
 73
5
 74
0
 42
0.0000001
 43
0.0000001
 44
0.0000000001
 40
0.0
 40
0.0
 40
0.0
 40
0.0
 40
0.2623976715
 40
1.0
 40
1.0
 40
1.0
 40
1.0
 10
-7.2743226115
 20
-5.4845011162
 30
0.0
 10
-7.2765549822
 20
-5.4566997425
 30
0.0
 10
-7.2838125958
 20
-5.350658262
 30
0.0
 10
-7.285937757
 20
-5.2442162179
 30
0.0
 10
-7.2837011349
 20
-5.1658466676
 30
0.0
  0
SPLINE
  5
41A
100
AcDbEntity
  8
RACCORDO
100
AcDbSpline
 62
7
  6
CONTINUOUS
 70
0
 71
3
 72
11
 73
7
 74
0
 42
0.0000001
 43
0.0000001
 44
0.0000000001
 40
0.0
 40
0.0
 40
0.0
 40
0.0
 40
0.2623024835
 40
0.4556898732
 40
0.6443121293
 40
1.0
 40
1.0
 40
1.0
 40
1.0
 10
-18.169149812
 20
28.2910882965
 30
0.0
 10
-18.1857081505
 20
28.2766275683
 30
0.0
 10
-18.2164893719
 20
28.253692901
 30
0.0
 10
-18.2641171946
 20
28.2278996797
 30
0.0
 10
-18.3219502219
 20
28.205882221
 30
0.0
 10
-18.3683142569
 20
28.1991122077
 30
0.0
 10
-18.3980592438
 20
28.2010893872
 30
0.0
  0
SPLINE
  5
41B
100
AcDbEntity
  8
RACCORDO
100
AcDbSpline
 62
250
  6
CONTINUOUS
 70
0
 71
3
 72
11
 73
7
 74
0
 42
0.0000001
 43
0.0000001
 44
0.0000000001
 40
0.0
 40
0.0
 40
0.0
 40
0.0
 40
0.2859832194
 40
0.5451611274
 40
0.7800140488
 40
1.0
 40
1.0
 40
1.0
 40
1.0
 10
-19.0377932336
 20
28.3489896002
 30
0.0
 10
-19.0460307113
 20
28.3340524462
 30
0.0
 10
-19.0644094882
 20
28.3068998186
 30
0.0
 10
-19.0989032167
 20
28.2749537238
 30
0.0
 10
-19.137570191
 20
28.2555527661
 30
0.0
 10
-19.1651907972
 20
28.2522240946
 30
0.0
 10
-19.178283194
 20
28.2530968414
 30
0.0
  0
SPLINE
  5
41C
100
AcDbEntity
  8
RACCORDO
100
AcDbSpline
 62
250
  6
CONTINUOUS
 70
0
 71
3
 72
12
 73
8
 74
0
 42
0.0000001
 43
0.0000001
 44
0.0000000001
 40
0.0
 40
0.0
 40
0.0
 40
0.0
 40
0.2583339999
 40
0.523106954
 40
0.652036588
 40
0.7755312223
 40
1.0
 40
1.0
 40
1.0
 40
1.0
 10
-19.0377932336
 20
28.3489896002
 30
0.0
 10
-19.0670833579
 20
28.3371761143
 30
0.0
 10
-19.1304593321
 20
28.3227514696
 30
0.0
 10
-19.2110929478
 20
28.3265503306
 30
0.0
 10
-19.272445624
 20
28.342833938
 30
0.0
 10
-19.3259729218
 20
28.3661482673
 30
0.0
 10
-19.3608080673
 20
28.3928981634
 30
0.0
 10
-19.3781642517
 20
28.4141550611
 30
0.0
  0
SPLINE
  5
41D
100
AcDbEntity
  8
RACCORDO
100
AcDbSpline
 62
250
  6
CONTINUOUS
 70
0
 71
3
 72
12
 73
8
 74
0
 42
0.0000001
 43
0.0000001
 44
0.0000000001
 40
0.0
 40
0.0
 40
0.0
 40
0.0
 40
0.2583340953
 40
0.5231071387
 40
0.6520368077
 40
0.7755314526
 40
1.0
 40
1.0
 40
1.0
 40
1.0
 10
-19.0377932336
 20
28.6275033524
 30
0.0
 10
-19.0670833688
 20
28.6156898621
 30
0.0
 10
-19.1304593672
 20
28.6012652162
 30
0.0
 10
-19.2110930104
 20
28.6050640898
 30
0.0
 10
-19.2724456992
 20
28.6213477153
 30
0.0
 10
-19.3259729707
 20
28.6446620501
 30
0.0
 10
-19.3608080851
 20
28.6714119373
 30
0.0
 10
-19.3781642517
 20
28.6926688133
 30
0.0
  0
SPLINE
  5
41E
100
AcDbEntity
  8
RACCORDO
100
AcDbSpline
 62
250
  6
CONTINUOUS
 70
0
 71
3
 72
13
 73
9
 74
0
 42
0.0000001
 43
0.0000001
 44
0.0000000001
 40
0.0
 40
0.0
 40
0.0
 40
0.0
 40
0.1046580527
 40
0.2232884322
 40
0.4874302302
 40
0.7582391518
 40
0.8848448714
 40
1.0
 40
1.0
 40
1.0
 40
1.0
 10
-19.0377932336
 20
28.6275033524
 30
0.0
 10
-19.0378737103
 20
28.6399827835
 30
0.0
 10
-19.0399514663
 20
28.6666012317
 30
0.0
 10
-19.0501872885
 20
28.7238768986
 30
0.0
 10
-19.0732490065
 20
28.7986286651
 30
0.0
 10
-19.106033791
 20
28.8706556947
 30
0.0
 10
-19.1373385577
 20
28.9232097324
 30
0.0
 10
-19.1541704652
 20
28.9466808642
 30
0.0
 10
-19.1627915201
 20
28.9573686348
 30
0.0
  0
SPLINE
  5
41F
100
AcDbEntity
  8
RACCORDO
100
AcDbSpline
 62
7
  6
CONTINUOUS
 70
0
 71
3
 72
13
 73
9
 74
0
 42
0.0000001
 43
0.0000001
 44
0.0000000001
 40
0.0
 40
0.0
 40
0.0
 40
0.0
 40
0.1047893778
 40
0.2234504741
 40
0.4874823723
 40
0.7581588951
 40
0.8847637088
 40
1.0
 40
1.0
 40
1.0
 40
1.0
 10
-17.0822084887
 20
29.4245780016
 30
0.0
 10
-17.0822079107
 20
29.4370802571
 30
0.0
 10
-17.0841452277
 20
29.4637460101
 30
0.0
 10
-17.0941792844
 20
29.521098685
 30
0.0
 10
-17.1171531476
 20
29.5959084612
 30
0.0
 10
-17.1500434517
 20
29.6679147205
 30
0.0
 10
-17.1815456571
 20
29.7203850641
 30
0.0
 10
-17.1985109043
 20
29.7437939888
 30
0.0
 10
-17.2072067752
 20
29.754443284
 30
0.0
  0
SPLINE
  5
420
100
AcDbEntity
  8
RACCORDO
100
AcDbSpline
 62
250
  6
CONTINUOUS
 70
0
 71
3
 72
13
 73
9
 74
0
 42
0.0000001
 43
0.0000001
 44
0.0000000001
 40
0.0
 40
0.0
 40
0.0
 40
0.0
 40
0.1049240549
 40
0.2236170148
 40
0.487536446
 40
0.7580770378
 40
0.8846811249
 40
1.0
 40
1.0
 40
1.0
 40
1.0
 10
-16.4335227567
 20
29.6898331691
 30
0.0
 10
-16.4334428918
 20
29.7023582416
 30
0.0
 10
-16.4352386872
 20
29.7290712333
 30
0.0
 10
-16.4450736021
 20
29.7865005497
 30
0.0
 10
-16.4679589473
 20
29.8613683593
 30
0.0
 10
-16.5009551879
 20
29.9333534016
 30
0.0
 10
-16.5326524926
 20
29.9857410202
 30
0.0
 10
-16.549751794
 20
30.0090867212
 30
0.0
 10
-16.5585210432
 20
30.0196984516
 30
0.0
  0
SPLINE
  5
421
100
AcDbEntity
  8
RACCORDO
100
AcDbSpline
 62
250
  6
CONTINUOUS
 70
0
 71
3
 72
11
 73
7
 74
0
 42
0.0000001
 43
0.0000001
 44
0.0000000001
 40
0.0
 40
0.0
 40
0.0
 40
0.0
 40
0.2818656372
 40
0.5404235067
 40
0.7770312718
 40
1.0
 40
1.0
 40
1.0
 40
1.0
 10
-16.4335227567
 20
29.6898331691
 30
0.0
 10
-16.4154907959
 20
29.6972839725
 30
0.0
 10
-16.3821996643
 20
29.7151285564
 30
0.0
 10
-16.3418560936
 20
29.7516400869
 30
0.0
 10
-16.3157918826
 20
29.7949464773
 30
0.0
 10
-16.3096568421
 20
29.8270158002
 30
0.0
 10
-16.3096549235
 20
29.8424496373
 30
0.0
  0
SPLINE
  5
422
100
AcDbEntity
  8
RACCORDO
100
AcDbSpline
 62
250
  6
CONTINUOUS
 70
0
 71
3
 72
11
 73
7
 74
0
 42
0.0000001
 43
0.0000001
 44
0.0000000001
 40
0.0
 40
0.0
 40
0.0
 40
0.0
 40
0.2818670787
 40
0.5404246556
 40
0.777031205
 40
1.0
 40
1.0
 40
1.0
 40
1.0
 10
-16.4335227567
 20
29.4057657626
 30
0.0
 10
-16.4154896966
 20
29.4132170201
 30
0.0
 10
-16.3821966976
 20
29.431062859
 30
0.0
 10
-16.341851674
 20
29.4675774565
 30
0.0
 10
-16.3157881333
 20
29.5108876156
 30
0.0
 10
-16.3096553901
 20
29.5429592873
 30
0.0
 10
-16.3096549208
 20
29.5583939911
 30
0.0
  0
SPLINE
  5
423
100
AcDbEntity
  8
RACCORDO
100
AcDbSpline
 62
250
  6
CONTINUOUS
 70
0
 71
3
 72
14
 73
10
 74
0
 42
0.0000001
 43
0.0000001
 44
0.0000000001
 40
0.0
 40
0.0
 40
0.0
 40
0.0
 40
0.4225553259
 40
0.5926268563
 40
0.7336854503
 40
0.8449204729
 40
0.9258278964
 40
0.9764985483
 40
1.0
 40
1.0
 40
1.0
 40
1.0
 10
-16.4335227567
 20
29.4057657626
 30
0.0
 10
-16.428260668
 20
29.4004755702
 30
0.0
 10
-16.4208187463
 20
29.3931112163
 30
0.0
 10
-16.4113991032
 20
29.3842266161
 30
0.0
 10
-16.4058416044
 20
29.3792266777
 30
0.0
 10
-16.4013961869
 20
29.3754377817
 30
0.0
 10
-16.397861126
 20
29.3728226859
 30
0.0
 10
-16.3957332852
 20
29.3714398769
 30
0.0
 10
-16.3941730923
 20
29.3710012864
 30
0.0
 10
-16.3938625877
 20
29.3712766201
 30
0.0
  0
LINE
  5
424
100
AcDbEntity
  8
RACCORDO
100
AcDbLine
 62
7
  6
CONTINUOUS
 10
-10.3887044606
 20
-7.7789686603
 11
-11.1593403736
 21
-8.0972570801
  0
SPLINE
  5
425
100
AcDbEntity
  8
RACCORDO
100
AcDbSpline
 62
7
  6
CONTINUOUS
 70
0
 71
3
 72
11
 73
7
 74
0
 42
0.0000001
 43
0.0000001
 44
0.0000000001
 40
0.0
 40
0.0
 40
0.0
 40
0.0
 40
0.2623024835
 40
0.4556898732
 40
0.6443121293
 40
1.0
 40
1.0
 40
1.0
 40
1.0
 10
-8.719149812
 20
16.7172492618
 30
0.0
 10
-8.7357081505
 20
16.7027885337
 30
0.0
 10
-8.7664893719
 20
16.6798538663
 30
0.0
 10
-8.8141171946
 20
16.6540606451
 30
0.0
 10
-8.8719502219
 20
16.6320431863
 30
0.0
 10
-8.9183142569
 20
16.625273173
 30
0.0
 10
-8.9480592438
 20
16.6272503525
 30
0.0
  0
SPLINE
  5
426
100
AcDbEntity
  8
RACCORDO
100
AcDbSpline
 62
250
  6
CONTINUOUS
 70
0
 71
3
 72
11
 73
7
 74
0
 42
0.0000001
 43
0.0000001
 44
0.0000000001
 40
0.0
 40
0.0
 40
0.0
 40
0.0
 40
0.2859832194
 40
0.5451611274
 40
0.7800140488
 40
1.0
 40
1.0
 40
1.0
 40
1.0
 10
-9.5877932336
 20
16.7751505656
 30
0.0
 10
-9.5960307113
 20
16.7602134115
 30
0.0
 10
-9.6144094882
 20
16.733060784
 30
0.0
 10
-9.6489032167
 20
16.7011146891
 30
0.0
 10
-9.687570191
 20
16.6817137315
 30
0.0
 10
-9.7151907972
 20
16.67838506
 30
0.0
 10
-9.728283194
 20
16.6792578067
 30
0.0
  0
SPLINE
  5
427
100
AcDbEntity
  8
RACCORDO
100
AcDbSpline
 62
250
  6
CONTINUOUS
 70
0
 71
3
 72
12
 73
8
 74
0
 42
0.0000001
 43
0.0000001
 44
0.0000000001
 40
0.0
 40
0.0
 40
0.0
 40
0.0
 40
0.2583339999
 40
0.523106954
 40
0.652036588
 40
0.7755312223
 40
1.0
 40
1.0
 40
1.0
 40
1.0
 10
-9.5877932336
 20
16.7751505656
 30
0.0
 10
-9.6170833579
 20
16.7633370797
 30
0.0
 10
-9.6804593321
 20
16.7489124349
 30
0.0
 10
-9.7610929478
 20
16.752711296
 30
0.0
 10
-9.822445624
 20
16.7689949033
 30
0.0
 10
-9.8759729218
 20
16.7923092327
 30
0.0
 10
-9.9108080673
 20
16.8190591287
 30
0.0
 10
-9.9281642517
 20
16.8403160265
 30
0.0
  0
SPLINE
  5
428
100
AcDbEntity
  8
RACCORDO
100
AcDbSpline
 62
250
  6
CONTINUOUS
 70
0
 71
3
 72
12
 73
8
 74
0
 42
0.0000001
 43
0.0000001
 44
0.0000000001
 40
0.0
 40
0.0
 40
0.0
 40
0.0
 40
0.2583340953
 40
0.5231071387
 40
0.6520368077
 40
0.7755314526
 40
1.0
 40
1.0
 40
1.0
 40
1.0
 10
-9.5877932336
 20
17.0536643177
 30
0.0
 10
-9.6170833688
 20
17.0418508274
 30
0.0
 10
-9.6804593672
 20
17.0274261815
 30
0.0
 10
-9.7610930104
 20
17.0312250551
 30
0.0
 10
-9.8224456992
 20
17.0475086806
 30
0.0
 10
-9.8759729707
 20
17.0708230154
 30
0.0
 10
-9.9108080851
 20
17.0975729026
 30
0.0
 10
-9.9281642517
 20
17.1188297786
 30
0.0
  0
SPLINE
  5
429
100
AcDbEntity
  8
RACCORDO
100
AcDbSpline
 62
250
  6
CONTINUOUS
 70
0
 71
3
 72
13
 73
9
 74
0
 42
0.0000001
 43
0.0000001
 44
0.0000000001
 40
0.0
 40
0.0
 40
0.0
 40
0.0
 40
0.1046580527
 40
0.2232884322
 40
0.4874302302
 40
0.7582391518
 40
0.8848448714
 40
1.0
 40
1.0
 40
1.0
 40
1.0
 10
-9.5877932336
 20
17.0536643177
 30
0.0
 10
-9.5878737103
 20
17.0661437488
 30
0.0
 10
-9.5899514663
 20
17.0927621971
 30
0.0
 10
-9.6001872885
 20
17.150037864
 30
0.0
 10
-9.6232490065
 20
17.2247896305
 30
0.0
 10
-9.656033791
 20
17.2968166601
 30
0.0
 10
-9.6873385577
 20
17.3493706978
 30
0.0
 10
-9.7041704652
 20
17.3728418295
 30
0.0
 10
-9.7127915201
 20
17.3835296002
 30
0.0
  0
SPLINE
  5
42A
100
AcDbEntity
  8
RACCORDO
100
AcDbSpline
 62
7
  6
CONTINUOUS
 70
0
 71
3
 72
13
 73
9
 74
0
 42
0.0000001
 43
0.0000001
 44
0.0000000001
 40
0.0
 40
0.0
 40
0.0
 40
0.0
 40
0.1047893778
 40
0.2234504741
 40
0.4874823723
 40
0.7581588951
 40
0.8847637088
 40
1.0
 40
1.0
 40
1.0
 40
1.0
 10
-7.6322084887
 20
17.850738967
 30
0.0
 10
-7.6322079107
 20
17.8632412224
 30
0.0
 10
-7.6341452277
 20
17.8899069754
 30
0.0
 10
-7.6441792844
 20
17.9472596503
 30
0.0
 10
-7.6671531476
 20
18.0220694266
 30
0.0
 10
-7.7000434517
 20
18.0940756859
 30
0.0
 10
-7.7315456571
 20
18.1465460294
 30
0.0
 10
-7.7485109043
 20
18.1699549542
 30
0.0
 10
-7.7572067752
 20
18.1806042494
 30
0.0
  0
SPLINE
  5
42B
100
AcDbEntity
  8
RACCORDO
100
AcDbSpline
 62
250
  6
CONTINUOUS
 70
0
 71
3
 72
13
 73
9
 74
0
 42
0.0000001
 43
0.0000001
 44
0.0000000001
 40
0.0
 40
0.0
 40
0.0
 40
0.0
 40
0.1049240549
 40
0.2236170148
 40
0.487536446
 40
0.7580770378
 40
0.8846811249
 40
1.0
 40
1.0
 40
1.0
 40
1.0
 10
-6.9835227567
 20
18.1159941345
 30
0.0
 10
-6.9834428918
 20
18.128519207
 30
0.0
 10
-6.9852386872
 20
18.1552321986
 30
0.0
 10
-6.9950736021
 20
18.212661515
 30
0.0
 10
-7.0179589473
 20
18.2875293247
 30
0.0
 10
-7.0509551879
 20
18.359514367
 30
0.0
 10
-7.0826524926
 20
18.4119019856
 30
0.0
 10
-7.099751794
 20
18.4352476866
 30
0.0
 10
-7.1085210432
 20
18.4458594169
 30
0.0
  0
SPLINE
  5
42C
100
AcDbEntity
  8
RACCORDO
100
AcDbSpline
 62
250
  6
CONTINUOUS
 70
0
 71
3
 72
11
 73
7
 74
0
 42
0.0000001
 43
0.0000001
 44
0.0000000001
 40
0.0
 40
0.0
 40
0.0
 40
0.0
 40
0.2818656372
 40
0.5404235067
 40
0.7770312718
 40
1.0
 40
1.0
 40
1.0
 40
1.0
 10
-6.9835227567
 20
18.1159941345
 30
0.0
 10
-6.9654907959
 20
18.1234449378
 30
0.0
 10
-6.9321996643
 20
18.1412895217
 30
0.0
 10
-6.8918560936
 20
18.1778010523
 30
0.0
 10
-6.8657918826
 20
18.2211074426
 30
0.0
 10
-6.8596568421
 20
18.2531767656
 30
0.0
 10
-6.8596549235
 20
18.2686106026
 30
0.0
  0
SPLINE
  5
42D
100
AcDbEntity
  8
RACCORDO
100
AcDbSpline
 62
250
  6
CONTINUOUS
 70
0
 71
3
 72
11
 73
7
 74
0
 42
0.0000001
 43
0.0000001
 44
0.0000000001
 40
0.0
 40
0.0
 40
0.0
 40
0.0
 40
0.2818670787
 40
0.5404246556
 40
0.777031205
 40
1.0
 40
1.0
 40
1.0
 40
1.0
 10
-6.9835227567
 20
17.8319267279
 30
0.0
 10
-6.9654896966
 20
17.8393779855
 30
0.0
 10
-6.9321966976
 20
17.8572238243
 30
0.0
 10
-6.891851674
 20
17.8937384218
 30
0.0
 10
-6.8657881333
 20
17.937048581
 30
0.0
 10
-6.8596553901
 20
17.9691202527
 30
0.0
 10
-6.8596549208
 20
17.9845549564
 30
0.0
  0
SPLINE
  5
42E
100
AcDbEntity
  8
RACCORDO
100
AcDbSpline
 62
250
  6
CONTINUOUS
 70
0
 71
3
 72
14
 73
10
 74
0
 42
0.0000001
 43
0.0000001
 44
0.0000000001
 40
0.0
 40
0.0
 40
0.0
 40
0.0
 40
0.4225553259
 40
0.5926268563
 40
0.7336854503
 40
0.8449204729
 40
0.9258278964
 40
0.9764985483
 40
1.0
 40
1.0
 40
1.0
 40
1.0
 10
-6.9835227567
 20
17.8319267279
 30
0.0
 10
-6.978260668
 20
17.8266365356
 30
0.0
 10
-6.9708187463
 20
17.8192721817
 30
0.0
 10
-6.9613991032
 20
17.8103875815
 30
0.0
 10
-6.9558416044
 20
17.805387643
 30
0.0
 10
-6.9513961869
 20
17.801598747
 30
0.0
 10
-6.947861126
 20
17.7989836513
 30
0.0
 10
-6.9457332852
 20
17.7976008423
 30
0.0
 10
-6.9441730923
 20
17.7971622518
 30
0.0
 10
-6.9438625877
 20
17.7974375855
 30
0.0
  0
SPLINE
  5
42F
100
AcDbEntity
  8
RACCORDO
100
AcDbSpline
 62
7
  6
CONTINUOUS
 70
0
 71
3
 72
11
 73
7
 74
0
 42
0.0000001
 43
0.0000001
 44
0.0000000001
 40
0.0
 40
0.0
 40
0.0
 40
0.0
 40
0.2623024835
 40
0.4556898732
 40
0.6443121293
 40
1.0
 40
1.0
 40
1.0
 40
1.0
 10
-6.919149812
 20
14.5127084933
 30
0.0
 10
-6.9357081505
 20
14.4982477652
 30
0.0
 10
-6.9664893719
 20
14.4753130978
 30
0.0
 10
-7.0141171946
 20
14.4495198766
 30
0.0
 10
-7.0719502219
 20
14.4275024178
 30
0.0
 10
-7.1183142569
 20
14.4207324045
 30
0.0
 10
-7.1480592438
 20
14.422709584
 30
0.0
  0
SPLINE
  5
430
100
AcDbEntity
  8
RACCORDO
100
AcDbSpline
 62
250
  6
CONTINUOUS
 70
0
 71
3
 72
11
 73
7
 74
0
 42
0.0000001
 43
0.0000001
 44
0.0000000001
 40
0.0
 40
0.0
 40
0.0
 40
0.0
 40
0.2859832194
 40
0.5451611274
 40
0.7800140488
 40
1.0
 40
1.0
 40
1.0
 40
1.0
 10
-7.7877932336
 20
14.570609797
 30
0.0
 10
-7.7960307113
 20
14.555672643
 30
0.0
 10
-7.8144094882
 20
14.5285200155
 30
0.0
 10
-7.8489032167
 20
14.4965739206
 30
0.0
 10
-7.887570191
 20
14.4771729629
 30
0.0
 10
-7.9151907972
 20
14.4738442915
 30
0.0
 10
-7.928283194
 20
14.4747170382
 30
0.0
  0
SPLINE
  5
431
100
AcDbEntity
  8
RACCORDO
100
AcDbSpline
 62
250
  6
CONTINUOUS
 70
0
 71
3
 72
12
 73
8
 74
0
 42
0.0000001
 43
0.0000001
 44
0.0000000001
 40
0.0
 40
0.0
 40
0.0
 40
0.0
 40
0.2583339999
 40
0.523106954
 40
0.652036588
 40
0.7755312223
 40
1.0
 40
1.0
 40
1.0
 40
1.0
 10
-7.7877932336
 20
14.570609797
 30
0.0
 10
-7.8170833579
 20
14.5587963112
 30
0.0
 10
-7.8804593321
 20
14.5443716664
 30
0.0
 10
-7.9610929478
 20
14.5481705275
 30
0.0
 10
-8.022445624
 20
14.5644541348
 30
0.0
 10
-8.0759729218
 20
14.5877684642
 30
0.0
 10
-8.1108080673
 20
14.6145183602
 30
0.0
 10
-8.1281642517
 20
14.635775258
 30
0.0
  0
SPLINE
  5
432
100
AcDbEntity
  8
RACCORDO
100
AcDbSpline
 62
250
  6
CONTINUOUS
 70
0
 71
3
 72
12
 73
8
 74
0
 42
0.0000001
 43
0.0000001
 44
0.0000000001
 40
0.0
 40
0.0
 40
0.0
 40
0.0
 40
0.2583340953
 40
0.5231071387
 40
0.6520368077
 40
0.7755314526
 40
1.0
 40
1.0
 40
1.0
 40
1.0
 10
-7.7877932336
 20
14.8491235492
 30
0.0
 10
-7.8170833688
 20
14.8373100589
 30
0.0
 10
-7.8804593672
 20
14.822885413
 30
0.0
 10
-7.9610930104
 20
14.8266842866
 30
0.0
 10
-8.0224456992
 20
14.8429679121
 30
0.0
 10
-8.0759729707
 20
14.8662822469
 30
0.0
 10
-8.1108080851
 20
14.8930321341
 30
0.0
 10
-8.1281642517
 20
14.9142890101
 30
0.0
  0
SPLINE
  5
433
100
AcDbEntity
  8
RACCORDO
100
AcDbSpline
 62
250
  6
CONTINUOUS
 70
0
 71
3
 72
13
 73
9
 74
0
 42
0.0000001
 43
0.0000001
 44
0.0000000001
 40
0.0
 40
0.0
 40
0.0
 40
0.0
 40
0.1046580527
 40
0.2232884322
 40
0.4874302302
 40
0.7582391518
 40
0.8848448714
 40
1.0
 40
1.0
 40
1.0
 40
1.0
 10
-7.7877932336
 20
14.8491235492
 30
0.0
 10
-7.7878737103
 20
14.8616029803
 30
0.0
 10
-7.7899514663
 20
14.8882214285
 30
0.0
 10
-7.8001872885
 20
14.9454970955
 30
0.0
 10
-7.8232490065
 20
15.020248862
 30
0.0
 10
-7.856033791
 20
15.0922758916
 30
0.0
 10
-7.8873385577
 20
15.1448299293
 30
0.0
 10
-7.9041704652
 20
15.168301061
 30
0.0
 10
-7.9127915201
 20
15.1789888317
 30
0.0
  0
SPLINE
  5
434
100
AcDbEntity
  8
RACCORDO
100
AcDbSpline
 62
7
  6
CONTINUOUS
 70
0
 71
3
 72
13
 73
9
 74
0
 42
0.0000001
 43
0.0000001
 44
0.0000000001
 40
0.0
 40
0.0
 40
0.0
 40
0.0
 40
0.1047893778
 40
0.2234504741
 40
0.4874823723
 40
0.7581588951
 40
0.8847637088
 40
1.0
 40
1.0
 40
1.0
 40
1.0
 10
-5.8322084887
 20
15.6461981984
 30
0.0
 10
-5.8322079107
 20
15.6587004539
 30
0.0
 10
-5.8341452277
 20
15.6853662069
 30
0.0
 10
-5.8441792844
 20
15.7427188818
 30
0.0
 10
-5.8671531476
 20
15.8175286581
 30
0.0
 10
-5.9000434517
 20
15.8895349174
 30
0.0
 10
-5.9315456571
 20
15.9420052609
 30
0.0
 10
-5.9485109043
 20
15.9654141857
 30
0.0
 10
-5.9572067752
 20
15.9760634809
 30
0.0
  0
SPLINE
  5
435
100
AcDbEntity
  8
RACCORDO
100
AcDbSpline
 62
250
  6
CONTINUOUS
 70
0
 71
3
 72
13
 73
9
 74
0
 42
0.0000001
 43
0.0000001
 44
0.0000000001
 40
0.0
 40
0.0
 40
0.0
 40
0.0
 40
0.1049240549
 40
0.2236170148
 40
0.487536446
 40
0.7580770378
 40
0.8846811249
 40
1.0
 40
1.0
 40
1.0
 40
1.0
 10
-5.1835227567
 20
15.911453366
 30
0.0
 10
-5.1834428918
 20
15.9239784385
 30
0.0
 10
-5.1852386872
 20
15.9506914301
 30
0.0
 10
-5.1950736021
 20
16.0081207465
 30
0.0
 10
-5.2179589473
 20
16.0829885562
 30
0.0
 10
-5.2509551879
 20
16.1549735985
 30
0.0
 10
-5.2826524926
 20
16.2073612171
 30
0.0
 10
-5.299751794
 20
16.2307069181
 30
0.0
 10
-5.3085210432
 20
16.2413186484
 30
0.0
  0
SPLINE
  5
436
100
AcDbEntity
  8
RACCORDO
100
AcDbSpline
 62
250
  6
CONTINUOUS
 70
0
 71
3
 72
11
 73
7
 74
0
 42
0.0000001
 43
0.0000001
 44
0.0000000001
 40
0.0
 40
0.0
 40
0.0
 40
0.0
 40
0.2818656372
 40
0.5404235067
 40
0.7770312718
 40
1.0
 40
1.0
 40
1.0
 40
1.0
 10
-5.1835227567
 20
15.911453366
 30
0.0
 10
-5.1654907959
 20
15.9189041693
 30
0.0
 10
-5.1321996643
 20
15.9367487532
 30
0.0
 10
-5.0918560936
 20
15.9732602838
 30
0.0
 10
-5.0657918826
 20
16.0165666741
 30
0.0
 10
-5.0596568421
 20
16.0486359971
 30
0.0
 10
-5.0596549235
 20
16.0640698341
 30
0.0
  0
SPLINE
  5
437
100
AcDbEntity
  8
RACCORDO
100
AcDbSpline
 62
250
  6
CONTINUOUS
 70
0
 71
3
 72
11
 73
7
 74
0
 42
0.0000001
 43
0.0000001
 44
0.0000000001
 40
0.0
 40
0.0
 40
0.0
 40
0.0
 40
0.2818670787
 40
0.5404246556
 40
0.777031205
 40
1.0
 40
1.0
 40
1.0
 40
1.0
 10
-5.1835227567
 20
15.6273859594
 30
0.0
 10
-5.1654896966
 20
15.634837217
 30
0.0
 10
-5.1321966976
 20
15.6526830558
 30
0.0
 10
-5.091851674
 20
15.6891976533
 30
0.0
 10
-5.0657881333
 20
15.7325078125
 30
0.0
 10
-5.0596553901
 20
15.7645794841
 30
0.0
 10
-5.0596549208
 20
15.7800141879
 30
0.0
  0
SPLINE
  5
438
100
AcDbEntity
  8
RACCORDO
100
AcDbSpline
 62
250
  6
CONTINUOUS
 70
0
 71
3
 72
14
 73
10
 74
0
 42
0.0000001
 43
0.0000001
 44
0.0000000001
 40
0.0
 40
0.0
 40
0.0
 40
0.0
 40
0.4225553259
 40
0.5926268563
 40
0.7336854503
 40
0.8449204729
 40
0.9258278964
 40
0.9764985483
 40
1.0
 40
1.0
 40
1.0
 40
1.0
 10
-5.1835227567
 20
15.6273859594
 30
0.0
 10
-5.178260668
 20
15.6220957671
 30
0.0
 10
-5.1708187463
 20
15.6147314132
 30
0.0
 10
-5.1613991032
 20
15.605846813
 30
0.0
 10
-5.1558416044
 20
15.6008468745
 30
0.0
 10
-5.1513961869
 20
15.5970579785
 30
0.0
 10
-5.147861126
 20
15.5944428828
 30
0.0
 10
-5.1457332852
 20
15.5930600738
 30
0.0
 10
-5.1441730923
 20
15.5926214833
 30
0.0
 10
-5.1438625877
 20
15.592896817
 30
0.0
  0
SPLINE
  5
439
100
AcDbEntity
  8
RACCORDO
100
AcDbSpline
 62
7
  6
CONTINUOUS
 70
0
 71
3
 72
10
 73
6
 74
0
 42
0.0000001
 43
0.0000001
 44
0.0000000001
 40
0.0
 40
0.0
 40
0.0
 40
0.0
 40
0.245382655
 40
0.4969562792
 40
1.0
 40
1.0
 40
1.0
 40
1.0
 10
2.530850188
 20
2.239254846
 30
0.0
 10
2.5152915513
 20
2.2322899951
 30
0.0
 10
2.4823087862
 20
2.2212771189
 30
0.0
 10
2.4133091978
 20
2.2112725236
 30
0.0
 10
2.3601917783
 20
2.2160732077
 30
0.0
 10
2.3260354774
 20
2.2234594087
 30
0.0
  0
SPLINE
  5
43A
100
AcDbEntity
  8
RACCORDO
100
AcDbSpline
 62
7
  6
CONTINUOUS
 70
0
 71
3
 72
11
 73
7
 74
0
 42
0.0000001
 43
0.0000001
 44
0.0000000001
 40
0.0
 40
0.0
 40
0.0
 40
0.0
 40
0.2623024835
 40
0.4556898732
 40
0.6443121293
 40
1.0
 40
1.0
 40
1.0
 40
1.0
 10
2.530850188
 20
2.9388694587
 30
0.0
 10
2.5142918495
 20
2.9244087305
 30
0.0
 10
2.4835106281
 20
2.9014740632
 30
0.0
 10
2.4358828054
 20
2.8756808419
 30
0.0
 10
2.3780497781
 20
2.8536633832
 30
0.0
 10
2.3316857431
 20
2.8468933699
 30
0.0
 10
2.3019407562
 20
2.8488705494
 30
0.0
  0
SPLINE
  5
43B
100
AcDbEntity
  8
RACCORDO
100
AcDbSpline
 62
250
  6
CONTINUOUS
 70
0
 71
3
 72
11
 73
7
 74
0
 42
0.0000001
 43
0.0000001
 44
0.0000000001
 40
0.0
 40
0.0
 40
0.0
 40
0.0
 40
0.2859832194
 40
0.5451611274
 40
0.7800140488
 40
1.0
 40
1.0
 40
1.0
 40
1.0
 10
1.6622067664
 20
2.9967707624
 30
0.0
 10
1.6539692887
 20
2.9818336084
 30
0.0
 10
1.6355905118
 20
2.9546809808
 30
0.0
 10
1.6010967833
 20
2.922734886
 30
0.0
 10
1.562429809
 20
2.9033339283
 30
0.0
 10
1.5348092028
 20
2.9000052568
 30
0.0
 10
1.521716806
 20
2.9008780036
 30
0.0
  0
SPLINE
  5
43C
100
AcDbEntity
  8
RACCORDO
100
AcDbSpline
 62
250
  6
CONTINUOUS
 70
0
 71
3
 72
12
 73
8
 74
0
 42
0.0000001
 43
0.0000001
 44
0.0000000001
 40
0.0
 40
0.0
 40
0.0
 40
0.0
 40
0.2583339999
 40
0.523106954
 40
0.652036588
 40
0.7755312223
 40
1.0
 40
1.0
 40
1.0
 40
1.0
 10
1.6622067664
 20
2.9967707624
 30
0.0
 10
1.6329166421
 20
2.9849572765
 30
0.0
 10
1.5695406679
 20
2.9705326317
 30
0.0
 10
1.4889070522
 20
2.9743314928
 30
0.0
 10
1.427554376
 20
2.9906151002
 30
0.0
 10
1.3740270782
 20
3.0139294295
 30
0.0
 10
1.3391919327
 20
3.0406793256
 30
0.0
 10
1.3218357483
 20
3.0619362233
 30
0.0
  0
SPLINE
  5
43D
100
AcDbEntity
  8
RACCORDO
100
AcDbSpline
 62
250
  6
CONTINUOUS
 70
0
 71
3
 72
12
 73
8
 74
0
 42
0.0000001
 43
0.0000001
 44
0.0000000001
 40
0.0
 40
0.0
 40
0.0
 40
0.0
 40
0.2583340953
 40
0.5231071387
 40
0.6520368077
 40
0.7755314526
 40
1.0
 40
1.0
 40
1.0
 40
1.0
 10
1.6622067664
 20
3.2752845146
 30
0.0
 10
1.6329166312
 20
3.2634710243
 30
0.0
 10
1.5695406328
 20
3.2490463783
 30
0.0
 10
1.4889069896
 20
3.2528452519
 30
0.0
 10
1.4275543008
 20
3.2691288775
 30
0.0
 10
1.3740270293
 20
3.2924432123
 30
0.0
 10
1.3391919149
 20
3.3191930995
 30
0.0
 10
1.3218357483
 20
3.3404499755
 30
0.0
  0
SPLINE
  5
43E
100
AcDbEntity
  8
RACCORDO
100
AcDbSpline
 62
250
  6
CONTINUOUS
 70
0
 71
3
 72
13
 73
9
 74
0
 42
0.0000001
 43
0.0000001
 44
0.0000000001
 40
0.0
 40
0.0
 40
0.0
 40
0.0
 40
0.1046580527
 40
0.2232884322
 40
0.4874302302
 40
0.7582391518
 40
0.8848448714
 40
1.0
 40
1.0
 40
1.0
 40
1.0
 10
1.6622067664
 20
3.2752845146
 30
0.0
 10
1.6621262897
 20
3.2877639457
 30
0.0
 10
1.6600485337
 20
3.3143823939
 30
0.0
 10
1.6498127115
 20
3.3716580608
 30
0.0
 10
1.6267509935
 20
3.4464098273
 30
0.0
 10
1.593966209
 20
3.5184368569
 30
0.0
 10
1.5626614423
 20
3.5709908946
 30
0.0
 10
1.5458295348
 20
3.5944620264
 30
0.0
 10
1.5372084799
 20
3.605149797
 30
0.0
  0
SPLINE
  5
43F
100
AcDbEntity
  8
RACCORDO
100
AcDbSpline
 62
7
  6
CONTINUOUS
 70
0
 71
3
 72
13
 73
9
 74
0
 42
0.0000001
 43
0.0000001
 44
0.0000000001
 40
0.0
 40
0.0
 40
0.0
 40
0.0
 40
0.1047893778
 40
0.2234504741
 40
0.4874823723
 40
0.7581588951
 40
0.8847637088
 40
1.0
 40
1.0
 40
1.0
 40
1.0
 10
3.6177915113
 20
4.0723591638
 30
0.0
 10
3.6177920893
 20
4.0848614193
 30
0.0
 10
3.6158547723
 20
4.1115271723
 30
0.0
 10
3.6058207156
 20
4.1688798472
 30
0.0
 10
3.5828468524
 20
4.2436896234
 30
0.0
 10
3.5499565483
 20
4.3156958827
 30
0.0
 10
3.5184543429
 20
4.3681662263
 30
0.0
 10
3.5014890957
 20
4.391575151
 30
0.0
 10
3.4927932248
 20
4.4022244462
 30
0.0
  0
SPLINE
  5
440
100
AcDbEntity
  8
RACCORDO
100
AcDbSpline
 62
250
  6
CONTINUOUS
 70
0
 71
3
 72
13
 73
9
 74
0
 42
0.0000001
 43
0.0000001
 44
0.0000000001
 40
0.0
 40
0.0
 40
0.0
 40
0.0
 40
0.1049240549
 40
0.2236170148
 40
0.487536446
 40
0.7580770378
 40
0.8846811249
 40
1.0
 40
1.0
 40
1.0
 40
1.0
 10
4.2664772433
 20
4.3376143313
 30
0.0
 10
4.2665571082
 20
4.3501394038
 30
0.0
 10
4.2647613128
 20
4.3768523955
 30
0.0
 10
4.2549263979
 20
4.4342817119
 30
0.0
 10
4.2320410527
 20
4.5091495215
 30
0.0
 10
4.1990448121
 20
4.5811345638
 30
0.0
 10
4.1673475074
 20
4.6335221824
 30
0.0
 10
4.150248206
 20
4.6568678834
 30
0.0
 10
4.1414789568
 20
4.6674796138
 30
0.0
  0
SPLINE
  5
441
100
AcDbEntity
  8
RACCORDO
100
AcDbSpline
 62
250
  6
CONTINUOUS
 70
0
 71
3
 72
11
 73
7
 74
0
 42
0.0000001
 43
0.0000001
 44
0.0000000001
 40
0.0
 40
0.0
 40
0.0
 40
0.0
 40
0.2818656372
 40
0.5404235067
 40
0.7770312718
 40
1.0
 40
1.0
 40
1.0
 40
1.0
 10
4.2664772433
 20
4.3376143313
 30
0.0
 10
4.2845092041
 20
4.3450651347
 30
0.0
 10
4.3178003357
 20
4.3629097185
 30
0.0
 10
4.3581439064
 20
4.3994212491
 30
0.0
 10
4.3842081174
 20
4.4427276395
 30
0.0
 10
4.3903431579
 20
4.4747969624
 30
0.0
 10
4.3903450765
 20
4.4902307995
 30
0.0
  0
SPLINE
  5
442
100
AcDbEntity
  8
RACCORDO
100
AcDbSpline
 62
250
  6
CONTINUOUS
 70
0
 71
3
 72
11
 73
7
 74
0
 42
0.0000001
 43
0.0000001
 44
0.0000000001
 40
0.0
 40
0.0
 40
0.0
 40
0.0
 40
0.2818670787
 40
0.5404246556
 40
0.777031205
 40
1.0
 40
1.0
 40
1.0
 40
1.0
 10
4.2664772433
 20
4.0535469247
 30
0.0
 10
4.2845103034
 20
4.0609981823
 30
0.0
 10
4.3178033024
 20
4.0788440212
 30
0.0
 10
4.358148326
 20
4.1153586187
 30
0.0
 10
4.3842118667
 20
4.1586687778
 30
0.0
 10
4.3903446099
 20
4.1907404495
 30
0.0
 10
4.3903450792
 20
4.2061751533
 30
0.0
  0
SPLINE
  5
443
100
AcDbEntity
  8
RACCORDO
100
AcDbSpline
 62
250
  6
CONTINUOUS
 70
0
 71
3
 72
14
 73
10
 74
0
 42
0.0000001
 43
0.0000001
 44
0.0000000001
 40
0.0
 40
0.0
 40
0.0
 40
0.0
 40
0.4225553259
 40
0.5926268563
 40
0.7336854503
 40
0.8449204729
 40
0.9258278964
 40
0.9764985483
 40
1.0
 40
1.0
 40
1.0
 40
1.0
 10
4.2664772433
 20
4.0535469247
 30
0.0
 10
4.271739332
 20
4.0482567324
 30
0.0
 10
4.2791812537
 20
4.0408923785
 30
0.0
 10
4.2886008968
 20
4.0320077783
 30
0.0
 10
4.2941583956
 20
4.0270078399
 30
0.0
 10
4.2986038131
 20
4.0232189439
 30
0.0
 10
4.302138874
 20
4.0206038481
 30
0.0
 10
4.3042667148
 20
4.0192210391
 30
0.0
 10
4.3058269077
 20
4.0187824486
 30
0.0
 10
4.3061374123
 20
4.0190577823
 30
0.0
  0
SPLINE
  5
444
100
AcDbEntity
  8
RACCORDO
100
AcDbSpline
 62
7
  6
CONTINUOUS
 70
0
 71
3
 72
11
 73
7
 74
0
 42
0.0000001
 43
0.0000001
 44
0.0000000001
 40
0.0
 40
0.0
 40
0.0
 40
0.0
 40
0.3282341659
 40
0.5988689407
 40
0.8167271856
 40
1.0
 40
1.0
 40
1.0
 40
1.0
 10
3.6177915113
 20
-30.2223245702
 30
0.0
 10
3.6177910685
 20
-30.2319611887
 30
0.0
 10
3.6168157877
 20
-30.24958738
 30
0.0
 10
3.6114019078
 20
-30.2731018603
 30
0.0
 10
3.6021327926
 20
-30.2908961112
 30
0.0
 10
3.5924763596
 20
-30.2985184197
 30
0.0
 10
3.5875110362
 20
-30.3005914649
 30
0.0
  0
SPLINE
  5
445
100
AcDbEntity
  8
RACCORDO
100
AcDbSpline
 62
250
  6
CONTINUOUS
 70
0
 71
3
 72
12
 73
8
 74
0
 42
0.0000001
 43
0.0000001
 44
0.0000000001
 40
0.0
 40
0.0
 40
0.0
 40
0.0
 40
0.3279605593
 40
0.5981570948
 40
0.8155727744
 40
0.9101657809
 40
1.0
 40
1.0
 40
1.0
 40
1.0
 10
4.2664772433
 20
-29.9515060553
 30
0.0
 10
4.2665388243
 20
-29.9611128135
 30
0.0
 10
4.2656622071
 20
-29.9786884037
 30
0.0
 10
4.2604428973
 20
-30.0021343125
 30
0.0
 10
4.2523665287
 20
-30.0175848893
 30
0.0
 10
4.2438274498
 20
-30.0258273864
 30
0.0
 10
4.2390919999
 20
-30.0285638596
 30
0.0
 10
4.236663747
 20
-30.0295779911
 30
0.0
  0
SPLINE
  5
446
100
AcDbEntity
  8
RACCORDO
100
AcDbSpline
 62
250
  6
CONTINUOUS
 70
0
 71
3
 72
11
 73
7
 74
0
 42
0.0000001
 43
0.0000001
 44
0.0000000001
 40
0.0
 40
0.0
 40
0.0
 40
0.0
 40
0.2818671084
 40
0.5404246775
 40
0.7770312105
 40
1.0
 40
1.0
 40
1.0
 40
1.0
 10
4.2664772433
 20
-29.9515060553
 30
0.0
 10
4.2845103172
 20
-29.944054792
 30
0.0
 10
4.3178033385
 20
-29.9262089377
 30
0.0
 10
4.3581483799
 20
-29.8896943038
 30
0.0
 10
4.3842119109
 20
-29.8463841003
 30
0.0
 10
4.3903446271
 20
-29.8143124011
 30
0.0
 10
4.3903450774
 20
-29.7988776875
 30
0.0
  0
SPLINE
  5
447
100
AcDbEntity
  8
RACCORDO
100
AcDbSpline
 62
250
  6
CONTINUOUS
 70
0
 71
3
 72
11
 73
7
 74
0
 42
0.0000001
 43
0.0000001
 44
0.0000000001
 40
0.0
 40
0.0
 40
0.0
 40
0.0
 40
0.2818670787
 40
0.5404246556
 40
0.777031205
 40
1.0
 40
1.0
 40
1.0
 40
1.0
 10
4.2664772433
 20
-29.6674386487
 30
0.0
 10
4.2845103034
 20
-29.6599873912
 30
0.0
 10
4.3178033024
 20
-29.6421415523
 30
0.0
 10
4.358148326
 20
-29.6056269548
 30
0.0
 10
4.3842118667
 20
-29.5623167956
 30
0.0
 10
4.3903446099
 20
-29.5302451239
 30
0.0
 10
4.3903450792
 20
-29.5148104201
 30
0.0
  0
SPLINE
  5
448
100
AcDbEntity
  8
RACCORDO
100
AcDbSpline
 62
250
  6
CONTINUOUS
 70
0
 71
3
 72
12
 73
8
 74
0
 42
0.0000001
 43
0.0000001
 44
0.0000000001
 40
0.0
 40
0.0
 40
0.0
 40
0.0
 40
0.2520253987
 40
0.5167542928
 40
0.6472215259
 40
0.7726826448
 40
1.0
 40
1.0
 40
1.0
 40
1.0
 10
4.2664772433
 20
-29.6674386487
 30
0.0
 10
4.2812818507
 20
-29.6403204504
 30
0.0
 10
4.3025260971
 20
-29.57956482
 30
0.0
 10
4.3088008577
 20
-29.499617543
 30
0.0
 10
4.3014044262
 20
-29.4360083769
 30
0.0
 10
4.286512946
 20
-29.3786100532
 30
0.0
 10
4.2662911907
 20
-29.3390533266
 30
0.0
 10
4.2485985128
 20
-29.3175231538
 30
0.0
  0
SPLINE
  5
449
100
AcDbEntity
  8
RACCORDO
100
AcDbSpline
 62
7
  6
CONTINUOUS
 70
0
 71
3
 72
12
 73
8
 74
0
 42
0.0000001
 43
0.0000001
 44
0.0000000001
 40
0.0
 40
0.0
 40
0.0
 40
0.0
 40
0.1082914444
 40
0.2268332388
 40
0.4867368984
 40
0.7570555819
 40
1.0
 40
1.0
 40
1.0
 40
1.0
 10
2.530850188
 20
-29.9656195339
 30
0.0
 10
2.5168821181
 20
-29.964688327
 30
0.0
 10
2.4877327262
 20
-29.960887054
 30
0.0
 10
2.4263884068
 20
-29.9465810193
 30
0.0
 10
2.3475555913
 20
-29.916635835
 30
0.0
 10
2.260692644
 20
-29.8665165872
 30
0.0
 10
2.2100147941
 20
-29.8223181558
 30
0.0
 10
2.1901519177
 20
-29.7979911999
 30
0.0
  0
SPLINE
  5
44A
100
AcDbEntity
  8
RACCORDO
100
AcDbSpline
 62
250
  6
CONTINUOUS
 70
0
 71
3
 72
11
 73
7
 74
0
 42
0.0000001
 43
0.0000001
 44
0.0000000001
 40
0.0
 40
0.0
 40
0.0
 40
0.0
 40
0.2104836347
 40
0.4742486863
 40
0.7514028318
 40
1.0
 40
1.0
 40
1.0
 40
1.0
 10
1.6622067664
 20
-30.7242148111
 30
0.0
 10
1.6448770475
 20
-30.7067696189
 30
0.0
 10
1.6068757723
 20
-30.6664324349
 30
0.0
 10
1.5481041061
 20
-30.6012245843
 30
0.0
 10
1.48767305
 20
-30.5315367112
 30
0.0
 10
1.4483278254
 20
-30.4843629228
 30
0.0
 10
1.4300889238
 20
-30.4617620674
 30
0.0
  0
SPLINE
  5
44B
100
AcDbEntity
  8
RACCORDO
100
AcDbSpline
 62
250
  6
CONTINUOUS
 70
0
 71
3
 72
12
 73
8
 74
0
 42
0.0000001
 43
0.0000001
 44
0.0000000001
 40
0.0
 40
0.0
 40
0.0
 40
0.0
 40
0.258334
 40
0.5231069539
 40
0.652036588
 40
0.7755312223
 40
1.0
 40
1.0
 40
1.0
 40
1.0
 10
1.6622067664
 20
-30.7242148111
 30
0.0
 10
1.6329166421
 20
-30.736028297
 30
0.0
 10
1.5695406679
 20
-30.7504529417
 30
0.0
 10
1.4889070522
 20
-30.7466540806
 30
0.0
 10
1.427554376
 20
-30.7303704733
 30
0.0
 10
1.3740270782
 20
-30.7070561439
 30
0.0
 10
1.3391919327
 20
-30.6803062479
 30
0.0
 10
1.3218357483
 20
-30.6590493502
 30
0.0
  0
SPLINE
  5
44C
100
AcDbEntity
  8
RACCORDO
100
AcDbSpline
 62
250
  6
CONTINUOUS
 70
0
 71
3
 72
12
 73
8
 74
0
 42
0.0000001
 43
0.0000001
 44
0.0000000001
 40
0.0
 40
0.0
 40
0.0
 40
0.0
 40
0.2583340954
 40
0.5231071389
 40
0.6520368078
 40
0.7755314526
 40
1.0
 40
1.0
 40
1.0
 40
1.0
 10
1.6622067664
 20
-31.0027285632
 30
0.0
 10
1.6329166312
 20
-31.0145420535
 30
0.0
 10
1.5695406328
 20
-31.0289666994
 30
0.0
 10
1.4889069895
 20
-31.0251678258
 30
0.0
 10
1.4275543008
 20
-31.0088842003
 30
0.0
 10
1.3740270293
 20
-30.9855698655
 30
0.0
 10
1.3391919149
 20
-30.9588199783
 30
0.0
 10
1.3218357483
 20
-30.9375631023
 30
0.0
  0
SPLINE
  5
44D
100
AcDbEntity
  8
RACCORDO
100
AcDbSpline
 62
250
  6
CONTINUOUS
 70
0
 71
3
 72
12
 73
8
 74
0
 42
0.0000001
 43
0.0000001
 44
0.0000000001
 40
0.0
 40
0.0
 40
0.0
 40
0.0
 40
0.3281925074
 40
0.598520473
 40
0.8158530122
 40
0.9103219229
 40
1.0
 40
1.0
 40
1.0
 40
1.0
 10
1.6622067664
 20
-31.0027285632
 30
0.0
 10
1.6621443178
 20
-31.0124627712
 30
0.0
 10
1.6610275409
 20
-31.0302570034
 30
0.0
 10
1.6554373229
 20
-31.0539351904
 30
0.0
 10
1.647057829
 20
-31.0694719977
 30
0.0
 10
1.6383024946
 20
-31.0776888118
 30
0.0
 10
1.6334727005
 20
-31.0803824638
 30
0.0
 10
1.6310022671
 20
-31.081368409
 30
0.0
  0
SPLINE
  5
44E
100
AcDbEntity
  8
RACCORDO
100
AcDbSpline
 62
250
  6
CONTINUOUS
 70
0
 71
3
 72
11
 73
7
 74
0
 42
0.0000001
 43
0.0000001
 44
0.0000000001
 40
0.0
 40
0.0
 40
0.0
 40
0.0
 40
0.279443398
 40
0.5446445207
 40
0.7864068927
 40
1.0
 40
1.0
 40
1.0
 40
1.0
 10
1.4300889238
 20
-30.4617620674
 30
0.0
 10
1.4139393491
 20
-30.4759680862
 30
0.0
 10
1.3845779395
 20
-30.5061888858
 30
0.0
 10
1.3500725935
 20
-30.5563099443
 30
0.0
 10
1.3277957337
 20
-30.6075081013
 30
0.0
 10
1.3218357483
 20
-30.6426092123
 30
0.0
 10
1.3218357483
 20
-30.6590493502
 30
0.0
  0
SPLINE
  5
44F
100
AcDbEntity
  8
RACCORDO
100
AcDbSpline
 62
250
  6
CONTINUOUS
 70
0
 71
3
 72
9
 73
5
 74
0
 42
0.0000001
 43
0.0000001
 44
0.0000000001
 40
0.0
 40
0.0
 40
0.0
 40
0.0
 40
0.5193641678
 40
1.0
 40
1.0
 40
1.0
 40
1.0
 10
1.3218357483
 20
-30.9375631023
 30
0.0
 10
1.3218357483
 20
-30.9504589524
 30
0.0
 10
1.3251657138
 20
-30.9755367039
 30
0.0
 10
1.337145395
 20
-30.9980441606
 30
0.0
 10
1.3446929494
 20
-31.0072886235
 30
0.0
  0
SPLINE
  5
450
100
AcDbEntity
  8
RACCORDO
100
AcDbSpline
 62
250
  6
CONTINUOUS
 70
0
 71
3
 72
12
 73
8
 74
0
 42
0.0000001
 43
0.0000001
 44
0.0000000001
 40
0.0
 40
0.0
 40
0.0
 40
0.0
 40
0.2975453047
 40
0.5615630061
 40
0.7914724366
 40
0.8972980029
 40
1.0
 40
1.0
 40
1.0
 40
1.0
 10
-17.5045905896
 20
31.1783922764
 30
0.0
 10
-17.4856495273
 20
31.1860439557
 30
0.0
 10
-17.4484267179
 20
31.1972829856
 30
0.0
 10
-17.3936441304
 20
31.2008030935
 30
0.0
 10
-17.3527058074
 20
31.1907072801
 30
0.0
 10
-17.3268936939
 20
31.1748188703
 30
0.0
 10
-17.3165343762
 20
31.1647309755
 30
0.0
 10
-17.3120750591
 20
31.1592690749
 30
0.0
  0
SPLINE
  5
451
100
AcDbEntity
  8
RACCORDO
100
AcDbSpline
 62
250
  6
CONTINUOUS
 70
0
 71
3
 72
9
 73
5
 74
0
 42
0.0000001
 43
0.0000001
 44
0.0000000001
 40
0.0
 40
0.0
 40
0.0
 40
0.0
 40
0.5193610885
 40
1.0
 40
1.0
 40
1.0
 40
1.0
 10
-19.3781642517
 20
28.4141550611
 30
0.0
 10
-19.3781642517
 20
28.4012592872
 30
0.0
 10
-19.3748340355
 20
28.3761817589
 30
0.0
 10
-19.3628551463
 20
28.35367366
 30
0.0
 10
-19.3553070635
 20
28.3444295295
 30
0.0
  0
SPLINE
  5
452
100
AcDbEntity
  8
RACCORDO
100
AcDbSpline
 62
250
  6
CONTINUOUS
 70
0
 71
3
 72
12
 73
8
 74
0
 42
0.0000001
 43
0.0000001
 44
0.0000000001
 40
0.0
 40
0.0
 40
0.0
 40
0.0
 40
0.2123755132
 40
0.3338637459
 40
0.4631571775
 40
0.7337755962
 40
1.0
 40
1.0
 40
1.0
 40
1.0
 10
-20.3163797446
 20
29.8417434265
 30
0.0
 10
-20.3163797446
 20
29.8670454607
 30
0.0
 10
-20.3061006553
 20
29.9068678838
 30
0.0
 10
-20.2805435012
 20
29.9557835331
 30
0.0
 10
-20.2442714313
 20
30.0064844785
 30
0.0
 10
-20.1861991318
 20
30.0616765676
 30
0.0
 10
-20.1303276456
 20
30.0943477982
 30
0.0
 10
-20.101007013
 20
30.106443248
 30
0.0
  0
SPLINE
  5
453
100
AcDbEntity
  8
RACCORDO
100
AcDbSpline
 62
250
  6
CONTINUOUS
 70
0
 71
3
 72
12
 73
8
 74
0
 42
0.0000001
 43
0.0000001
 44
0.0000000001
 40
0.0
 40
0.0
 40
0.0
 40
0.0
 40
0.2662244038
 40
0.5368428225
 40
0.6661362541
 40
0.7876244868
 40
1.0
 40
1.0
 40
1.0
 40
1.0
 10
-19.1627915201
 20
28.9573686348
 30
0.0
 10
-19.1921121527
 20
28.945273185
 30
0.0
 10
-19.2479836388
 20
28.9126019544
 30
0.0
 10
-19.3060559384
 20
28.8574098653
 30
0.0
 10
-19.3423280083
 20
28.80670892
 30
0.0
 10
-19.3678851624
 20
28.7577932706
 30
0.0
 10
-19.3781642517
 20
28.7179708475
 30
0.0
 10
-19.3781642517
 20
28.6926688133
 30
0.0
  0
SPLINE
  5
454
100
AcDbEntity
  8
RACCORDO
100
AcDbSpline
 62
250
  6
CONTINUOUS
 70
0
 71
3
 72
12
 73
8
 74
0
 42
0.0000001
 43
0.0000001
 44
0.0000000001
 40
0.0
 40
0.0
 40
0.0
 40
0.0
 40
0.2975453047
 40
0.5615630061
 40
0.7914724366
 40
0.8972980029
 40
1.0
 40
1.0
 40
1.0
 40
1.0
 10
-8.0545905896
 20
19.6045532418
 30
0.0
 10
-8.0356495273
 20
19.6122049211
 30
0.0
 10
-7.9984267179
 20
19.623443951
 30
0.0
 10
-7.9436441304
 20
19.6269640588
 30
0.0
 10
-7.9027058074
 20
19.6168682454
 30
0.0
 10
-7.8768936939
 20
19.6009798356
 30
0.0
 10
-7.8665343762
 20
19.5908919408
 30
0.0
 10
-7.8620750591
 20
19.5854300403
 30
0.0
  0
SPLINE
  5
455
100
AcDbEntity
  8
RACCORDO
100
AcDbSpline
 62
250
  6
CONTINUOUS
 70
0
 71
3
 72
12
 73
8
 74
0
 42
0.0000001
 43
0.0000001
 44
0.0000000001
 40
0.0
 40
0.0
 40
0.0
 40
0.0
 40
0.2975453047
 40
0.5615630061
 40
0.7914724366
 40
0.8972980029
 40
1.0
 40
1.0
 40
1.0
 40
1.0
 10
-6.2545905896
 20
17.4000124732
 30
0.0
 10
-6.2356495273
 20
17.4076641526
 30
0.0
 10
-6.1984267179
 20
17.4189031825
 30
0.0
 10
-6.1436441304
 20
17.4224232903
 30
0.0
 10
-6.1027058074
 20
17.4123274769
 30
0.0
 10
-6.0768936939
 20
17.3964390671
 30
0.0
 10
-6.0665343762
 20
17.3863511723
 30
0.0
 10
-6.0620750591
 20
17.3808892718
 30
0.0
  0
SPLINE
  5
456
100
AcDbEntity
  8
RACCORDO
100
AcDbSpline
 62
250
  6
CONTINUOUS
 70
0
 71
3
 72
9
 73
5
 74
0
 42
0.0000001
 43
0.0000001
 44
0.0000000001
 40
0.0
 40
0.0
 40
0.0
 40
0.0
 40
0.5193610885
 40
1.0
 40
1.0
 40
1.0
 40
1.0
 10
-9.9281642517
 20
16.8403160265
 30
0.0
 10
-9.9281642517
 20
16.8274202525
 30
0.0
 10
-9.9248340355
 20
16.8023427243
 30
0.0
 10
-9.9128551463
 20
16.7798346253
 30
0.0
 10
-9.9053070635
 20
16.7705904948
 30
0.0
  0
SPLINE
  5
457
100
AcDbEntity
  8
RACCORDO
100
AcDbSpline
 62
250
  6
CONTINUOUS
 70
0
 71
3
 72
12
 73
8
 74
0
 42
0.0000001
 43
0.0000001
 44
0.0000000001
 40
0.0
 40
0.0
 40
0.0
 40
0.0
 40
0.2123755132
 40
0.3338637459
 40
0.4631571775
 40
0.7337755962
 40
1.0
 40
1.0
 40
1.0
 40
1.0
 10
-10.8663797446
 20
18.2679043918
 30
0.0
 10
-10.8663797446
 20
18.293206426
 30
0.0
 10
-10.8561006553
 20
18.3330288492
 30
0.0
 10
-10.8305435012
 20
18.3819444985
 30
0.0
 10
-10.7942714313
 20
18.4326454439
 30
0.0
 10
-10.7361991318
 20
18.487837533
 30
0.0
 10
-10.6803276456
 20
18.5205087635
 30
0.0
 10
-10.651007013
 20
18.5326042133
 30
0.0
  0
SPLINE
  5
458
100
AcDbEntity
  8
RACCORDO
100
AcDbSpline
 62
250
  6
CONTINUOUS
 70
0
 71
3
 72
12
 73
8
 74
0
 42
0.0000001
 43
0.0000001
 44
0.0000000001
 40
0.0
 40
0.0
 40
0.0
 40
0.0
 40
0.2662244038
 40
0.5368428225
 40
0.6661362541
 40
0.7876244868
 40
1.0
 40
1.0
 40
1.0
 40
1.0
 10
-9.7127915201
 20
17.3835296002
 30
0.0
 10
-9.7421121527
 20
17.3714341503
 30
0.0
 10
-9.7979836389
 20
17.3387629198
 30
0.0
 10
-9.8560559384
 20
17.2835708307
 30
0.0
 10
-9.8923280083
 20
17.2328698853
 30
0.0
 10
-9.9178851624
 20
17.183954236
 30
0.0
 10
-9.9281642517
 20
17.1441318128
 30
0.0
 10
-9.9281642517
 20
17.1188297786
 30
0.0
  0
SPLINE
  5
459
100
AcDbEntity
  8
RACCORDO
100
AcDbSpline
 62
250
  6
CONTINUOUS
 70
0
 71
3
 72
9
 73
5
 74
0
 42
0.0000001
 43
0.0000001
 44
0.0000000001
 40
0.0
 40
0.0
 40
0.0
 40
0.0
 40
0.5193610885
 40
1.0
 40
1.0
 40
1.0
 40
1.0
 10
-8.1281642517
 20
14.635775258
 30
0.0
 10
-8.1281642517
 20
14.622879484
 30
0.0
 10
-8.1248340355
 20
14.5978019558
 30
0.0
 10
-8.1128551463
 20
14.5752938568
 30
0.0
 10
-8.1053070635
 20
14.5660497263
 30
0.0
  0
SPLINE
  5
45A
100
AcDbEntity
  8
RACCORDO
100
AcDbSpline
 62
250
  6
CONTINUOUS
 70
0
 71
3
 72
12
 73
8
 74
0
 42
0.0000001
 43
0.0000001
 44
0.0000000001
 40
0.0
 40
0.0
 40
0.0
 40
0.0
 40
0.2123755132
 40
0.3338637459
 40
0.4631571775
 40
0.7337755962
 40
1.0
 40
1.0
 40
1.0
 40
1.0
 10
-9.0663797446
 20
16.0633636233
 30
0.0
 10
-9.0663797446
 20
16.0886656575
 30
0.0
 10
-9.0561006553
 20
16.1284880806
 30
0.0
 10
-9.0305435012
 20
16.17740373
 30
0.0
 10
-8.9942714313
 20
16.2281046754
 30
0.0
 10
-8.9361991318
 20
16.2832967645
 30
0.0
 10
-8.8803276456
 20
16.315967995
 30
0.0
 10
-8.851007013
 20
16.3280634448
 30
0.0
  0
SPLINE
  5
45B
100
AcDbEntity
  8
RACCORDO
100
AcDbSpline
 62
250
  6
CONTINUOUS
 70
0
 71
3
 72
12
 73
8
 74
0
 42
0.0000001
 43
0.0000001
 44
0.0000000001
 40
0.0
 40
0.0
 40
0.0
 40
0.0
 40
0.2662244038
 40
0.5368428225
 40
0.6661362541
 40
0.7876244868
 40
1.0
 40
1.0
 40
1.0
 40
1.0
 10
-7.9127915201
 20
15.1789888317
 30
0.0
 10
-7.9421121527
 20
15.1668933818
 30
0.0
 10
-7.9979836389
 20
15.1342221513
 30
0.0
 10
-8.0560559384
 20
15.0790300622
 30
0.0
 10
-8.0923280083
 20
15.0283291168
 30
0.0
 10
-8.1178851624
 20
14.9794134675
 30
0.0
 10
-8.1281642517
 20
14.9395910443
 30
0.0
 10
-8.1281642517
 20
14.9142890101
 30
0.0
  0
SPLINE
  5
45C
100
AcDbEntity
  8
RACCORDO
100
AcDbSpline
 62
250
  6
CONTINUOUS
 70
0
 71
3
 72
12
 73
8
 74
0
 42
0.0000001
 43
0.0000001
 44
0.0000000001
 40
0.0
 40
0.0
 40
0.0
 40
0.0
 40
0.2975453047
 40
0.5615630061
 40
0.7914724366
 40
0.8972980029
 40
1.0
 40
1.0
 40
1.0
 40
1.0
 10
3.1954094104
 20
5.8261734386
 30
0.0
 10
3.2143504727
 20
5.8338251179
 30
0.0
 10
3.2515732821
 20
5.8450641478
 30
0.0
 10
3.3063558696
 20
5.8485842557
 30
0.0
 10
3.3472941926
 20
5.8384884422
 30
0.0
 10
3.3731063061
 20
5.8226000325
 30
0.0
 10
3.3834656238
 20
5.8125121377
 30
0.0
 10
3.3879249409
 20
5.8070502371
 30
0.0
  0
SPLINE
  5
45D
100
AcDbEntity
  8
RACCORDO
100
AcDbSpline
 62
250
  6
CONTINUOUS
 70
0
 71
3
 72
9
 73
5
 74
0
 42
0.0000001
 43
0.0000001
 44
0.0000000001
 40
0.0
 40
0.0
 40
0.0
 40
0.0
 40
0.5193610885
 40
1.0
 40
1.0
 40
1.0
 40
1.0
 10
1.3218357483
 20
3.0619362233
 30
0.0
 10
1.3218357483
 20
3.0490404494
 30
0.0
 10
1.3251659645
 20
3.0239629211
 30
0.0
 10
1.3371448537
 20
3.0014548221
 30
0.0
 10
1.3446929365
 20
2.9922106917
 30
0.0
  0
SPLINE
  5
45E
100
AcDbEntity
  8
RACCORDO
100
AcDbSpline
 62
250
  6
CONTINUOUS
 70
0
 71
3
 72
12
 73
8
 74
0
 42
0.0000001
 43
0.0000001
 44
0.0000000001
 40
0.0
 40
0.0
 40
0.0
 40
0.0
 40
0.2123755132
 40
0.3338637459
 40
0.4631571775
 40
0.7337755962
 40
1.0
 40
1.0
 40
1.0
 40
1.0
 10
0.3836202554
 20
4.4895245886
 30
0.0
 10
0.3836202554
 20
4.5148266229
 30
0.0
 10
0.3938993447
 20
4.554649046
 30
0.0
 10
0.4194564988
 20
4.6035646953
 30
0.0
 10
0.4557285687
 20
4.6542656407
 30
0.0
 10
0.5138008682
 20
4.7094577298
 30
0.0
 10
0.5696723544
 20
4.7421289604
 30
0.0
 10
0.598992987
 20
4.7542244102
 30
0.0
  0
SPLINE
  5
45F
100
AcDbEntity
  8
RACCORDO
100
AcDbSpline
 62
250
  6
CONTINUOUS
 70
0
 71
3
 72
12
 73
8
 74
0
 42
0.0000001
 43
0.0000001
 44
0.0000000001
 40
0.0
 40
0.0
 40
0.0
 40
0.0
 40
0.2662244038
 40
0.5368428225
 40
0.6661362541
 40
0.7876244868
 40
1.0
 40
1.0
 40
1.0
 40
1.0
 10
1.5372084799
 20
3.605149797
 30
0.0
 10
1.5078878473
 20
3.5930543472
 30
0.0
 10
1.4520163611
 20
3.5603831166
 30
0.0
 10
1.3939440616
 20
3.5051910275
 30
0.0
 10
1.3576719917
 20
3.4544900821
 30
0.0
 10
1.3321148376
 20
3.4055744328
 30
0.0
 10
1.3218357483
 20
3.3657520097
 30
0.0
 10
1.3218357483
 20
3.3404499755
 30
0.0
  0
SPLINE
  5
460
100
AcDbEntity
  8
RACCORDO
100
AcDbSpline
 62
7
  6
CONTINUOUS
 70
0
 71
3
 72
13
 73
9
 74
0
 42
0.0000001
 43
0.0000001
 44
0.0000000001
 40
0.0
 40
0.0
 40
0.0
 40
0.0
 40
0.081460779
 40
0.1748084026
 40
0.2805936788
 40
0.3992645768
 40
0.6760742854
 40
1.0
 40
1.0
 40
1.0
 40
1.0
 10
-0.6246925808
 20
7.3911909493
 30
0.0
 10
-0.6150496482
 20
7.3880057182
 30
0.0
 10
-0.5939109664
 20
7.3825158122
 30
0.0
 10
-0.5594161733
 20
7.3765755335
 30
0.0
 10
-0.5200294568
 20
7.372137746
 30
0.0
 10
-0.4576881757
 20
7.3676483956
 30
0.0
 10
-0.3680510289
 20
7.3646776523
 30
0.0
 10
-0.2931736903
 20
7.3618754182
 30
0.0
 10
-0.2529328155
 20
7.3584962559
 30
0.0
  0
SPLINE
  5
461
100
AcDbEntity
  8
RACCORDO
100
AcDbSpline
 62
7
  6
CONTINUOUS
 70
0
 71
3
 72
13
 73
9
 74
0
 42
0.0000001
 43
0.0000001
 44
0.0000000001
 40
0.0
 40
0.0
 40
0.0
 40
0.0
 40
0.081460779
 40
0.1748084026
 40
0.2805936788
 40
0.3992645768
 40
0.6760742854
 40
1.0
 40
1.0
 40
1.0
 40
1.0
 10
-11.8746925808
 20
21.1695707525
 30
0.0
 10
-11.8650496482
 20
21.1663855214
 30
0.0
 10
-11.8439109664
 20
21.1608956154
 30
0.0
 10
-11.8094161733
 20
21.1549553367
 30
0.0
 10
-11.7700294568
 20
21.1505175491
 30
0.0
 10
-11.7076881757
 20
21.1460281987
 30
0.0
 10
-11.6180510289
 20
21.1430574555
 30
0.0
 10
-11.5431736903
 20
21.1402552213
 30
0.0
 10
-11.5029328155
 20
21.1368760591
 30
0.0
  0
SPLINE
  5
462
100
AcDbEntity
  8
ASSI
100
AcDbSpline
 62
7
  6
CONTINUOUS
 70
0
 71
3
 72
9
 73
5
 74
0
 42
0.0000001
 43
0.0000001
 44
0.0000000001
 40
0.0
 40
0.0
 40
0.0
 40
0.0
 40
0.4783918458
 40
1.0
 40
1.0
 40
1.0
 40
1.0
 10
2.3255464744
 20
12.6200290168
 30
0.0
 10
2.2799873368
 20
12.6758273369
 30
0.0
 10
2.1664549013
 20
12.7779759362
 30
0.0
 10
2.0322375272
 20
12.8491616928
 30
0.0
 10
1.9595210706
 20
12.8788480619
 30
0.0
  0
SPLINE
  5
463
100
AcDbEntity
  8
DRAFT
100
AcDbSpline
 62
7
  6
CONTINUOUS
 70
0
 71
3
 72
14
 73
10
 74
0
 42
0.0000001
 43
0.0000001
 44
0.0000000001
 40
0.0
 40
0.0
 40
0.0
 40
0.0
 40
0.2519453996
 40
0.3869464995
 40
0.5227999737
 40
0.6556147949
 40
0.7816335215
 40
0.8974086534
 40
1.0
 40
1.0
 40
1.0
 40
1.0
 10
3.6168574225
 20
2.7252364947
 30
0.0
 10
3.6473401122
 20
2.6790563628
 30
0.0
 10
3.6898701953
 20
2.6051668961
 30
0.0
 10
3.7378613963
 20
2.5008070036
 30
0.0
 10
3.7702305983
 20
2.4182135083
 30
0.0
 10
3.7970484664
 20
2.3357288648
 30
0.0
 10
3.8175019329
 20
2.2559711496
 30
0.0
 10
3.8309669159
 20
2.1814755691
 30
0.0
 10
3.8353312416
 20
2.133613073
 30
0.0
 10
3.8359764766
 20
2.1110906826
 30
0.0
  0
SPLINE
  5
464
100
AcDbEntity
  8
RACCORDO
100
AcDbSpline
 62
250
  6
CONTINUOUS
 70
0
 71
3
 72
39
 73
35
 74
0
 42
0.0000001
 43
0.0000001
 44
0.0000000001
 40
0.0
 40
0.0
 40
0.0
 40
0.0
 40
0.0323025078
 40
0.066073515
 40
0.1011753641
 40
0.1374589185
 40
0.1747663724
 40
0.2129326456
 40
0.25178696
 40
0.2911542899
 40
0.3707088175
 40
0.4501681671
 40
0.4894207184
 40
0.5281213977
 40
0.5661021351
 40
0.6032009791
 40
0.6392634472
 40
0.6741439991
 40
0.7077076524
 40
0.7398317417
 40
0.7704079846
 40
0.79934497
 40
0.826571133
 40
0.8520385657
 40
0.8757280112
 40
0.897655346
 40
0.9178800448
 40
0.9365159311
 40
0.9537435615
 40
0.9698216371
 40
0.977540882
 40
0.9851074401
 40
0.9925750347
 40
1.0
 40
1.0
 40
1.0
 40
1.0
 10
-14.7933762788
 20
-16.3701672686
 30
0.0
 10
-15.0296348425
 20
-16.0808106139
 30
0.0
 10
-15.5016935811
 20
-15.4797303455
 30
0.0
 10
-16.1930555556
 20
-14.5355757129
 30
0.0
 10
-16.880758012
 20
-13.5324127338
 30
0.0
 10
-17.5611359024
 20
-12.4753135817
 30
0.0
 10
-18.2305297913
 20
-11.3695936758
 30
0.0
 10
-18.8852853452
 20
-10.2208074386
 30
0.0
 10
-19.521796947
 20
-9.0347054904
 30
0.0
 10
-20.3442009309
 20
-7.4058041689
 30
0.0
 10
-21.3019860875
 20
-5.320070445
 30
0.0
 10
-22.1550672083
 20
-3.190725405
 30
0.0
 10
-22.7657005772
 20
-1.4756285177
 30
0.0
 10
-23.1812909785
 20
-0.2007821623
 30
0.0
 10
-23.5538771322
 20
1.0613475999
 30
0.0
 10
-23.8812274833
 20
2.3044539941
 30
0.0
 10
-24.1613744055
 20
3.5223012275
 30
0.0
 10
-24.3926274185
 20
4.7087721766
 30
0.0
 10
-24.5735903842
 20
5.8578955147
 30
0.0
 10
-24.7031709136
 20
6.9638797294
 30
0.0
 10
-24.7805889022
 20
8.0211459913
 30
0.0
 10
-24.8053835836
 20
9.0243619925
 30
0.0
 10
-24.7774100182
 20
9.9684766643
 30
0.0
 10
-24.6968278922
 20
10.848754783
 30
0.0
 10
-24.5640847275
 20
11.660808457
 30
0.0
 10
-24.3798715466
 20
12.4006253032
 30
0.0
 10
-24.1450818614
 20
13.0645578597
 30
0.0
 10
-23.8606719121
 20
13.6493157984
 30
0.0
 10
-23.52783596
 20
14.151697862
 30
0.0
 10
-23.2064895632
 20
14.5039651585
 30
0.0
 10
-22.9284515707
 20
14.737545235
 30
0.0
 10
-22.7121046617
 20
14.888001494
 30
0.0
 10
-22.4855426957
 20
15.0157517279
 30
0.0
 10
-22.3278156804
 20
15.0856910403
 30
0.0
 10
-22.2477377952
 20
15.1166801037
 30
0.0
  0
SPLINE
  5
465
100
AcDbEntity
  8
DRAFT
100
AcDbSpline
 62
7
  6
CONTINUOUS
 70
0
 71
3
 72
13
 73
9
 74
0
 42
0.0000001
 43
0.0000001
 44
0.0000000001
 40
0.0
 40
0.0
 40
0.0
 40
0.0
 40
0.3268005606
 40
0.5969331435
 40
0.7120171372
 40
0.8155779304
 40
0.9103046506
 40
1.0
 40
1.0
 40
1.0
 40
1.0
 10
3.8359764766
 20
-28.7893140511
 30
0.0
 10
3.8354483295
 20
-28.8089694709
 30
0.0
 10
3.8324906136
 20
-28.8448682966
 30
0.0
 10
3.8217536312
 20
-28.8867370583
 30
0.0
 10
3.808773857
 20
-28.9132422047
 30
0.0
 10
3.7977389489
 20
-28.9286627322
 30
0.0
 10
3.7849259932
 20
-28.9405255805
 30
0.0
 10
3.7751120167
 20
-28.9459855631
 30
0.0
 10
3.7700996659
 20
-28.9479856704
 30
0.0
  0
SPLINE
  5
466
100
AcDbEntity
  8
RACCORDO
100
AcDbSpline
 62
250
  6
CONTINUOUS
 70
0
 71
3
 72
13
 73
9
 74
0
 42
0.0000001
 43
0.0000001
 44
0.0000000001
 40
0.0
 40
0.0
 40
0.0
 40
0.0
 40
0.1684136078
 40
0.3234077611
 40
0.5301237004
 40
0.7076016864
 40
0.8609033992
 40
1.0
 40
1.0
 40
1.0
 40
1.0
 10
-2.8502705018
 20
-31.1267714757
 30
0.0
 10
-2.8509419943
 20
-31.1373950887
 30
0.0
 10
-2.8528746799
 20
-31.157766801
 30
0.0
 10
-2.8585859191
 20
-31.190812109
 30
0.0
 10
-2.8680876968
 20
-31.2236848007
 30
0.0
 10
-2.8833500852
 20
-31.2543167563
 30
0.0
 10
-2.9029822907
 20
-31.2771298667
 30
0.0
 10
-2.9193689591
 20
-31.2866332311
 30
0.0
 10
-2.927668219
 20
-31.289534591
 30
0.0
  0
SPLINE
  5
467
100
AcDbEntity
  8
RACCORDO
100
AcDbSpline
 62
250
  6
CONTINUOUS
 70
0
 71
3
 72
18
 73
14
 74
0
 42
0.0000001
 43
0.0000001
 44
0.0000000001
 40
0.0
 40
0.0
 40
0.0
 40
0.0
 40
0.1156732333
 40
0.1708467143
 40
0.2249816479
 40
0.278789653
 40
0.3330071531
 40
0.3883402525
 40
0.4454172943
 40
0.5665319685
 40
0.6991927618
 40
0.8440092822
 40
1.0
 40
1.0
 40
1.0
 40
1.0
 10
-3.6785059908
 20
-30.7742740166
 30
0.0
 10
-3.6763878346
 20
-30.8151296565
 30
0.0
 10
-3.6662432808
 20
-30.8756092881
 30
0.0
 10
-3.6367998135
 20
-30.9497649062
 30
0.0
 10
-3.6078503986
 20
-30.9999206621
 30
0.0
 10
-3.5719502161
 20
-31.0449201955
 30
0.0
 10
-3.5294409504
 20
-31.0843578
 30
0.0
 10
-3.4807265864
 20
-31.1178766484
 30
0.0
 10
-3.4067097225
 20
-31.1550269356
 30
0.0
 10
-3.2996355121
 20
-31.1845947573
 30
0.0
 10
-3.1580366526
 20
-31.1924060965
 30
0.0
 10
-3.0052083278
 20
-31.173700999
 30
0.0
 10
-2.9023497476
 20
-31.1449772497
 30
0.0
 10
-2.8502705018
 20
-31.1267714757
 30
0.0
  0
SPLINE
  5
468
100
AcDbEntity
  8
RACCORDO
100
AcDbSpline
 62
250
  6
CONTINUOUS
 70
0
 71
3
 72
11
 73
7
 74
0
 42
0.0000001
 43
0.0000001
 44
0.0000000001
 40
0.0
 40
0.0
 40
0.0
 40
0.0
 40
0.2632794467
 40
0.5154289228
 40
0.7596965856
 40
1.0
 40
1.0
 40
1.0
 40
1.0
 10
-4.3535589686
 20
-30.656181451
 30
0.0
 10
-4.351716183
 20
-30.6918442693
 30
0.0
 10
-4.3434802076
 20
-30.7615451126
 30
0.0
 10
-4.3161906441
 20
-30.8613306096
 30
0.0
 10
-4.2745072665
 20
-30.9526339162
 30
0.0
 10
-4.2372714394
 20
-31.0072554552
 30
0.0
 10
-4.2166615377
 20
-31.0325062138
 30
0.0
  0
SPLINE
  5
469
100
AcDbEntity
  8
RACCORDO
100
AcDbSpline
 62
250
  6
CONTINUOUS
 70
0
 71
3
 72
13
 73
9
 74
0
 42
0.0000001
 43
0.0000001
 44
0.0000000001
 40
0.0
 40
0.0
 40
0.0
 40
0.0
 40
0.2604185957
 40
0.5247640489
 40
0.6529145074
 40
0.7755296626
 40
0.891348313
 40
1.0
 40
1.0
 40
1.0
 40
1.0
 10
-3.6785059908
 20
-30.7742740166
 30
0.0
 10
-3.7366370926
 20
-30.7989887814
 30
0.0
 10
-3.8620795311
 20
-30.8304513934
 30
0.0
 10
-4.0225176641
 20
-30.8260178323
 30
0.0
 10
-4.1441489472
 20
-30.7956604616
 30
0.0
 10
-4.22639611
 20
-30.7607877918
 30
0.0
 10
-4.2974668919
 20
-30.714845867
 30
0.0
 10
-4.3368832678
 20
-30.6765892424
 30
0.0
 10
-4.3535588488
 20
-30.6561813981
 30
0.0
  0
SPLINE
  5
46A
100
AcDbEntity
  8
RACCORDO
100
AcDbSpline
 62
250
  6
CONTINUOUS
 70
0
 71
3
 72
13
 73
9
 74
0
 42
0.0000001
 43
0.0000001
 44
0.0000000001
 40
0.0
 40
0.0
 40
0.0
 40
0.0
 40
0.2566258618
 40
0.3894999969
 40
0.5218180895
 40
0.651052441
 40
0.7749711358
 40
1.0
 40
1.0
 40
1.0
 40
1.0
 10
-3.6785059908
 20
-1.7946376603
 30
0.0
 10
-3.7371967361
 20
-1.8156932899
 30
0.0
 10
-3.8318776289
 20
-1.8335291222
 30
0.0
 10
-3.9588605877
 20
-1.8320305454
 30
0.0
 10
-4.0539959675
 20
-1.8181434428
 30
0.0
 10
-4.1442965192
 20
-1.7919190304
 30
0.0
 10
-4.2501095258
 20
-1.7436141445
 30
0.0
 10
-4.3189972915
 20
-1.6899035307
 30
0.0
 10
-4.3535589684
 20
-1.6475364495
 30
0.0
  0
SPLINE
  5
46B
100
AcDbEntity
  8
RACCORDO
100
AcDbSpline
 62
250
  6
CONTINUOUS
 70
0
 71
3
 72
15
 73
11
 74
0
 42
0.0000001
 43
0.0000001
 44
0.0000000001
 40
0.0
 40
0.0
 40
0.0
 40
0.0
 40
0.1319342653
 40
0.267123364
 40
0.4027724131
 40
0.5360511208
 40
0.6643070261
 40
0.7852896476
 40
0.8974025955
 40
1.0
 40
1.0
 40
1.0
 40
1.0
 10
-2.8502705018
 20
-0.7928769775
 30
0.0
 10
-2.9050468501
 20
-0.8166680879
 30
0.0
 10
-3.0129705279
 20
-0.8719609805
 30
0.0
 10
-3.164781329
 20
-0.9735888486
 30
0.0
 10
-3.3046228536
 20
-1.0921282779
 30
0.0
 10
-3.4278176949
 20
-1.223637266
 30
0.0
 10
-3.5302908079
 20
-1.3637735853
 30
0.0
 10
-3.6086413877
 20
-1.5079989468
 30
0.0
 10
-3.6602351538
 20
-1.6515940658
 30
0.0
 10
-3.6761950947
 20
-1.7482545968
 30
0.0
 10
-3.6785059908
 20
-1.7946376603
 30
0.0
  0
SPLINE
  5
46C
100
AcDbEntity
  8
RACCORDO
100
AcDbSpline
 62
250
  6
CONTINUOUS
 70
0
 71
3
 72
15
 73
11
 74
0
 42
0.0000001
 43
0.0000001
 44
0.0000000001
 40
0.0
 40
0.0
 40
0.0
 40
0.0
 40
0.1317751222
 40
0.2668776797
 40
0.4025047959
 40
0.5358137761
 40
0.6641354586
 40
0.7851980592
 40
0.8973787602
 40
1.0
 40
1.0
 40
1.0
 40
1.0
 10
-3.1153374458
 20
-0.139835134
 30
0.0
 10
-3.197258321
 20
-0.175869011
 30
0.0
 10
-3.3586520069
 20
-0.2595006551
 30
0.0
 10
-3.5856042625
 20
-0.4128774087
 30
0.0
 10
-3.7946576649
 20
-0.5915440974
 30
0.0
 10
-3.9788195713
 20
-0.7895562782
 30
0.0
 10
-4.1319988846
 20
-1.0003731505
 30
0.0
 10
-4.2491146795
 20
-1.2171635018
 30
0.0
 10
-4.3262337158
 20
-1.4328312581
 30
0.0
 10
-4.350103845
 20
-1.5779264874
 30
0.0
 10
-4.3535589686
 20
-1.6475364496
 30
0.0
  0
SPLINE
  5
46D
100
AcDbEntity
  8
RACCORDO
100
AcDbSpline
 62
250
  6
CONTINUOUS
 70
0
 71
3
 72
15
 73
11
 74
0
 42
0.0000001
 43
0.0000001
 44
0.0000000001
 40
0.0
 40
0.0
 40
0.0
 40
0.0
 40
0.1032598363
 40
0.2211965539
 40
0.3500869805
 40
0.485584867
 40
0.6230075728
 40
0.7575769273
 40
0.8846530598
 40
1.0
 40
1.0
 40
1.0
 40
1.0
 10
-2.8502705018
 20
-0.7928769775
 30
0.0
 10
-2.8518983379
 20
-0.7683992305
 30
0.0
 10
-2.8588491512
 20
-0.7161893349
 30
0.0
 10
-2.8770912598
 20
-0.6349697254
 30
0.0
 10
-2.903344991
 20
-0.5479412006
 30
0.0
 10
-2.936644947
 20
-0.4584165044
 30
0.0
 10
-2.9757425856
 20
-0.369792549
 30
0.0
 10
-3.0191520517
 20
-0.2854361026
 30
0.0
 10
-3.0652058146
 20
-0.2085484929
 30
0.0
 10
-3.0984408266
 20
-0.1614094282
 30
0.0
 10
-3.1153374458
 20
-0.139835134
 30
0.0
  0
SPLINE
  5
46E
100
AcDbEntity
  8
RACCORDO
100
AcDbSpline
 62
250
  6
CONTINUOUS
 70
0
 71
3
 72
9
 73
5
 74
0
 42
0.0000001
 43
0.0000001
 44
0.0000000001
 40
0.0
 40
0.0
 40
0.0
 40
0.0
 40
0.4850257243
 40
1.0
 40
1.0
 40
1.0
 40
1.0
 10
-9.0998731289
 20
16.1517135327
 30
0.0
 10
-9.0998688351
 20
16.1362067375
 30
0.0
 10
-9.0936791118
 20
16.1039985636
 30
0.0
 10
-9.0767926716
 20
16.0761168023
 30
0.0
 10
-9.0663797446
 20
16.0633636233
 30
0.0
  0
SPLINE
  5
46F
100
AcDbEntity
  8
RACCORDO
100
AcDbSpline
 62
250
  6
CONTINUOUS
 70
0
 71
3
 72
13
 73
9
 74
0
 42
0.0000001
 43
0.0000001
 44
0.0000000001
 40
0.0
 40
0.0
 40
0.0
 40
0.0
 40
0.0827090433
 40
0.171693867
 40
0.2718132118
 40
0.3860958075
 40
0.6616879559
 40
1.0
 40
1.0
 40
1.0
 40
1.0
 10
-8.9461884937
 20
16.3824535009
 30
0.0
 10
-8.9432424585
 20
16.3836834803
 30
0.0
 10
-8.936686884
 20
16.3852760346
 30
0.0
 10
-8.9260966815
 20
16.3847433493
 30
0.0
 10
-8.914765494
 20
16.3814845869
 30
0.0
 10
-8.8977284696
 20
16.373106094
 30
0.0
 10
-8.8754176092
 20
16.3556020774
 30
0.0
 10
-8.8593257611
 20
16.3381293813
 30
0.0
 10
-8.851007013
 20
16.3280634448
 30
0.0
  0
SPLINE
  5
470
100
AcDbEntity
  8
RACCORDO
100
AcDbSpline
 62
250
  6
CONTINUOUS
 70
0
 71
3
 72
15
 73
11
 74
0
 42
0.0000001
 43
0.0000001
 44
0.0000000001
 40
0.0
 40
0.0
 40
0.0
 40
0.0
 40
0.1714574159
 40
0.328440623
 40
0.4707507276
 40
0.5986759744
 40
0.7131645003
 40
0.816051561
 40
0.9102896175
 40
1.0
 40
1.0
 40
1.0
 40
1.0
 10
-12.3692063684
 20
-6.3034943524
 30
0.0
 10
-12.3692063684
 20
-6.250223646
 30
0.0
 10
-12.366113966
 20
-6.1481337618
 30
0.0
 10
-12.3508157807
 20
-6.0025206739
 30
0.0
 10
-12.3251627537
 20
-5.8720697954
 30
0.0
 10
-12.289290591
 20
-5.757738198
 30
0.0
 10
-12.2433295368
 20
-5.660342701
 30
0.0
 10
-12.1873141558
 20
-5.5806461652
 30
0.0
 10
-12.1213517314
 20
-5.5196089585
 30
0.0
 10
-12.0705253429
 20
-5.4919146926
 30
0.0
 10
-12.0445283836
 20
-5.4818632916
 30
0.0
  0
SPLINE
  5
471
100
AcDbEntity
  8
RACCORDO
100
AcDbSpline
 62
250
  6
CONTINUOUS
 70
0
 71
3
 72
15
 73
11
 74
0
 42
0.0000001
 43
0.0000001
 44
0.0000000001
 40
0.0
 40
0.0
 40
0.0
 40
0.0
 40
0.1714574159
 40
0.328440623
 40
0.4707507276
 40
0.5986759744
 40
0.7131645003
 40
0.816051561
 40
0.9102896175
 40
1.0
 40
1.0
 40
1.0
 40
1.0
 10
-17.1144062256
 20
6.2256792576
 30
0.0
 10
-17.1144062256
 20
6.2787543262
 30
0.0
 10
-17.11132518
 20
6.3804692832
 30
0.0
 10
-17.0960831776
 20
6.5255476039
 30
0.0
 10
-17.070524362
 20
6.6555193988
 30
0.0
 10
-17.0347839406
 20
6.769431111
 30
0.0
 10
-16.9889916793
 20
6.866468921
 30
0.0
 10
-16.9331820159
 20
6.9458727696
 30
0.0
 10
-16.8674618399
 20
7.0066858159
 30
0.0
 10
-16.8168221125
 20
7.034278374
 30
0.0
 10
-16.7909206275
 20
7.0442928611
 30
0.0
  0
SPLINE
  5
472
100
AcDbEntity
  8
RACCORDO
100
AcDbSpline
 62
250
  6
CONTINUOUS
 70
0
 71
3
 72
13
 73
9
 74
0
 42
0.0000001
 43
0.0000001
 44
0.0000000001
 40
0.0
 40
0.0
 40
0.0
 40
0.0
 40
0.3096831497
 40
0.449196927
 40
0.578387177
 40
0.6974523043
 40
0.8068711781
 40
1.0
 40
1.0
 40
1.0
 40
1.0
 10
-7.6144062256
 20
-5.4093970206
 30
0.0
 10
-7.6144062256
 20
-5.3302382616
 30
0.0
 10
-7.6093064182
 20
-5.2152124307
 30
0.0
 10
-7.5885579558
 20
-5.0687319359
 30
0.0
 10
-7.5675437061
 20
-4.9717727367
 30
0.0
 10
-7.5405853374
 20
-4.8842323622
 30
0.0
 10
-7.4987035699
 20
-4.7849005886
 30
0.0
 10
-7.4561899455
 20
-4.7186990332
 30
0.0
 10
-7.4227287053
 20
-4.6824036674
 30
0.0
  0
SPLINE
  5
473
100
AcDbEntity
  8
RACCORDO
100
AcDbSpline
 62
7
  6
CONTINUOUS
 70
0
 71
3
 72
13
 73
9
 74
0
 42
0.0000001
 43
0.0000001
 44
0.0000000001
 40
0.0
 40
0.0
 40
0.0
 40
0.0
 40
0.0828861755
 40
0.1721070636
 40
0.2724247598
 40
0.3868105189
 40
0.6622562882
 40
1.0
 40
1.0
 40
1.0
 40
1.0
 10
-7.001471152
 20
17.1943454628
 30
0.0
 10
-6.998518466
 20
17.195523878
 30
0.0
 10
-6.9919683111
 20
17.1970141373
 30
0.0
 10
-6.9814304595
 20
17.1963643503
 30
0.0
 10
-6.970181661
 20
17.1930197319
 30
0.0
 10
-6.9533108648
 20
17.184564438
 30
0.0
 10
-6.9312708863
 20
17.1670476954
 30
0.0
 10
-6.9154036982
 20
17.1496093783
 30
0.0
 10
-6.9072102021
 20
17.1395753058
 30
0.0
  0
SPLINE
  5
474
100
AcDbEntity
  8
RACCORDO
100
AcDbSpline
 62
250
  6
CONTINUOUS
 70
0
 71
3
 72
13
 73
9
 74
0
 42
0.0000001
 43
0.0000001
 44
0.0000000001
 40
0.0
 40
0.0
 40
0.0
 40
0.0
 40
0.0830887484
 40
0.1723687973
 40
0.2726524774
 40
0.3869608981
 40
0.6622562544
 40
1.0
 40
1.0
 40
1.0
 40
1.0
 10
-6.3483818507
 20
17.4549700653
 30
0.0
 10
-6.3454282721
 20
17.456148536
 30
0.0
 10
-6.3388826202
 20
17.4576395957
 30
0.0
 10
-6.3283581136
 20
17.4569841669
 30
0.0
 10
-6.3171413472
 20
17.4536246937
 30
0.0
 10
-6.3003424818
 20
17.4451376655
 30
0.0
 10
-6.2784372014
 20
17.4275590182
 30
0.0
 10
-6.262706462
 20
17.4100733195
 30
0.0
 10
-6.2545905895
 20
17.4000124732
 30
0.0
  0
SPLINE
  5
475
100
AcDbEntity
  8
RACCORDO
100
AcDbSpline
 62
7
  6
CONTINUOUS
 70
0
 71
3
 72
41
 73
37
 74
0
 42
0.0000001
 43
0.0000001
 44
0.0000000001
 40
0.0
 40
0.0
 40
0.0
 40
0.0
 40
0.0117306954
 40
0.0234307812
 40
0.0350910212
 40
0.0467217796
 40
0.0700340197
 40
0.0938746377
 40
0.1187799826
 40
0.1451880525
 40
0.1733822218
 40
0.2034980693
 40
0.2355496996
 40
0.2694562
 40
0.3050639523
 40
0.3421633997
 40
0.380502455
 40
0.4197973388
 40
0.5000010774
 40
0.5802047683
 40
0.6194995818
 40
0.657838567
 40
0.6949378892
 40
0.7305455335
 40
0.7644518791
 40
0.7965033351
 40
0.8266190558
 40
0.8548130191
 40
0.8812208923
 40
0.9061260179
 40
0.9299665027
 40
0.9532784098
 40
0.9649091684
 40
0.9765692275
 40
0.9882693549
 40
1.0
 40
1.0
 40
1.0
 40
1.0
 10
23.6319354031
 20
4.388649472
 30
0.0
 10
23.65725443
 20
4.3984388744
 30
0.0
 10
23.7091450182
 20
4.4147575887
 30
0.0
 10
23.7892589392
 20
4.4291777198
 30
0.0
 10
23.8702955439
 20
4.4337713621
 30
0.0
 10
23.978156639
 20
4.4275641549
 30
0.0
 10
24.1119453086
 20
4.3982229857
 30
0.0
 10
24.2667849797
 20
4.3346761905
 30
0.0
 10
24.4174286896
 20
4.2468898
 30
0.0
 10
24.5654223758
 20
4.1370795817
 30
0.0
 10
24.711894169
 20
4.0064503896
 30
0.0
 10
24.8572519558
 20
3.8559075963
 30
0.0
 10
25.0013290484
 20
3.6864214477
 30
0.0
 10
25.143548501
 20
3.4991734159
 30
0.0
 10
25.2830695053
 20
3.2955958462
 30
0.0
 10
25.4188885691
 20
3.0773641152
 30
0.0
 10
25.5499204772
 20
2.8463683549
 30
0.0
 10
25.7178599261
 20
2.5219368194
 30
0.0
 10
25.9075648834
 20
2.1000860833
 30
0.0
 10
26.0672945517
 20
1.6659981833
 30
0.0
 10
26.1743916335
 20
1.3167284091
 30
0.0
 10
26.2424602096
 20
1.0600286917
 30
0.0
 10
26.2981761905
 20
0.8090958808
 30
0.0
 10
26.3409922762
 20
0.5660397618
 30
0.0
 10
26.3704525468
 20
0.3327592135
 30
0.0
 10
26.3861553448
 20
0.11086573
 30
0.0
 10
26.387685409
 20
-0.0983929362
 30
0.0
 10
26.374483761
 20
-0.2942071145
 30
0.0
 10
26.3456252564
 20
-0.4762156214
 30
0.0
 10
26.2994584853
 20
-0.6443469776
 30
0.0
 10
26.2333332574
 20
-0.7981013807
 30
0.0
 10
26.1583047659
 20
-0.9126909145
 30
0.0
 10
26.0856056368
 20
-0.9926103682
 30
0.0
 10
26.0245079338
 20
-1.0460430475
 30
0.0
 10
25.9571918068
 20
-1.0918103934
 30
0.0
 10
25.9087064691
 20
-1.1164701101
 30
0.0
 10
25.8837704025
 20
-1.1271972614
 30
0.0
  0
SPLINE
  5
476
100
AcDbEntity
  8
RACCORDO
100
AcDbSpline
 62
7
  6
CONTINUOUS
 70
0
 71
3
 72
8
 73
4
 74
0
 42
0.0000001
 43
0.0000001
 44
0.0000000001
 40
0.0
 40
0.0
 40
0.0
 40
0.0
 40
1.0
 40
1.0
 40
1.0
 40
1.0
 10
-10.8959313492
 20
26.5215780857
 30
0.0
 10
-10.895317425
 20
26.5221920428
 30
0.0
 10
-10.8945635448
 20
26.5226944693
 30
0.0
 10
-10.8937534348
 20
26.5230068279
 30
0.0
  0
SPLINE
  5
477
100
AcDbEntity
  8
RACCORDO
100
AcDbSpline
 62
7
  6
CONTINUOUS
 70
0
 71
3
 72
8
 73
4
 74
0
 42
0.0000001
 43
0.0000001
 44
0.0000000001
 40
0.0
 40
0.0
 40
0.0
 40
0.0
 40
1.0
 40
1.0
 40
1.0
 40
1.0
 10
1.6040686508
 20
11.2122671933
 30
0.0
 10
1.604682575
 20
11.2128811504
 30
0.0
 10
1.6054364552
 20
11.2133835769
 30
0.0
 10
1.6062465652
 20
11.2136959355
 30
0.0
  0
SPLINE
  5
478
100
AcDbEntity
  8
RACCORDO
100
AcDbSpline
 62
7
  6
CONTINUOUS
 70
0
 71
3
 72
11
 73
7
 74
0
 42
0.0000001
 43
0.0000001
 44
0.0000000001
 40
0.0
 40
0.0
 40
0.0
 40
0.0
 40
0.2532233597
 40
0.5037666526
 40
0.7523865945
 40
1.0
 40
1.0
 40
1.0
 40
1.0
 10
16.7893578308
 20
10.4925944206
 30
0.0
 10
16.8293800832
 20
10.5080932719
 30
0.0
 10
16.9113479239
 20
10.5332467331
 30
0.0
 10
17.0378984143
 20
10.5523322506
 30
0.0
 10
17.1649377002
 20
10.552206416
 30
0.0
 10
17.2484342288
 20
10.5392663395
 30
0.0
 10
17.2892934804
 20
10.5296848502
 30
0.0
  0
SPLINE
  5
479
100
AcDbEntity
  8
RACCORDO
100
AcDbSpline
 62
7
  6
CONTINUOUS
 70
0
 71
3
 72
15
 73
11
 74
0
 42
0.0000001
 43
0.0000001
 44
0.0000000001
 40
0.0
 40
0.0
 40
0.0
 40
0.0
 40
0.2050173001
 40
0.3857819812
 40
0.542260822
 40
0.6747734716
 40
0.7840945577
 40
0.8718660236
 40
0.9415202407
 40
1.0
 40
1.0
 40
1.0
 40
1.0
 10
16.2524022499
 20
11.9606204009
 30
0.0
 10
16.2564986577
 20
11.9638768869
 30
0.0
 10
16.2641154648
 20
11.9701217464
 30
0.0
 10
16.2744599832
 20
11.9793249462
 30
0.0
 10
16.2829926646
 20
11.9877596664
 30
0.0
 10
16.2897045246
 20
11.9954112019
 30
0.0
 10
16.2946022784
 20
12.0022776853
 30
0.0
 10
16.2976913401
 20
12.0083856486
 30
0.0
 10
16.2989770582
 20
12.0138307485
 30
0.0
 10
16.298410873
 20
12.0171839117
 30
0.0
 10
16.2977967276
 20
12.0185444221
 30
0.0
  0
SPLINE
  5
47A
100
AcDbEntity
  8
RACCORDO
100
AcDbSpline
 62
250
  6
CONTINUOUS
 70
0
 71
3
 72
20
 73
16
 74
0
 42
0.0000001
 43
0.0000001
 44
0.0000000001
 40
0.0
 40
0.0
 40
0.0
 40
0.0
 40
0.0330699718
 40
0.0679237284
 40
0.1059260539
 40
0.1480487283
 40
0.1948924296
 40
0.2467614636
 40
0.3037367854
 40
0.365732062
 40
0.432533439
 40
0.5038275222
 40
0.6582206753
 40
0.8251182454
 40
1.0
 40
1.0
 40
1.0
 40
1.0
 10
10.8453405644
 20
21.8103811795
 30
0.0
 10
10.8559035796
 20
21.8142092815
 30
0.0
 10
10.8786824121
 20
21.8193389731
 30
0.0
 10
10.9149414332
 20
21.8187885797
 30
0.0
 10
10.9533028377
 20
21.8103232317
 30
0.0
 10
10.9934680689
 20
21.7941697003
 30
0.0
 10
11.035199912
 20
21.7705328824
 30
0.0
 10
11.0782214653
 20
21.7396187047
 30
0.0
 10
11.122223379
 20
21.7016720149
 30
0.0
 10
11.1668678937
 20
21.6569899966
 30
0.0
 10
11.2118036624
 20
21.6059272362
 30
0.0
 10
11.2732563195
 20
21.5277846047
 30
0.0
 10
11.3477696331
 20
21.4169223007
 30
0.0
 10
11.4304091534
 20
21.2698376098
 30
0.0
 10
11.4800037215
 20
21.1647225321
 30
0.0
 10
11.5035664219
 20
21.1101797005
 30
0.0
  0
SPLINE
  5
47B
100
AcDbEntity
  8
RACCORDO
100
AcDbSpline
 62
250
  6
CONTINUOUS
 70
0
 71
3
 72
24
 73
20
 74
0
 42
0.0000001
 43
0.0000001
 44
0.0000000001
 40
0.0
 40
0.0
 40
0.0
 40
0.0
 40
0.0040596022
 40
0.0091464942
 40
0.0158262812
 40
0.0243472387
 40
0.0348195853
 40
0.0472948884
 40
0.0617932052
 40
0.0783192221
 40
0.1174171221
 40
0.1644578716
 40
0.2192265076
 40
0.2814482134
 40
0.3507977505
 40
0.4269050923
 40
0.5977100063
 40
0.7901456197
 40
1.0
 40
1.0
 40
1.0
 40
1.0
 10
12.7381104135
 20
4.6645121189
 30
0.0
 10
12.7384160392
 20
4.6637056341
 30
0.0
 10
12.7385249469
 20
4.6616648189
 30
0.0
 10
12.737247878
 20
4.6584977603
 30
0.0
 10
12.7347744011
 20
4.6549462461
 30
0.0
 10
12.7310528648
 20
4.650942479
 30
0.0
 10
12.7260782174
 20
4.6464682073
 30
0.0
 10
12.7198394345
 20
4.6415259703
 30
0.0
 10
12.7123407962
 20
4.63612078
 30
0.0
 10
12.6999582042
 20
4.6278340916
 30
0.0
 10
12.6813309261
 20
4.6164717701
 30
0.0
 10
12.6552455759
 20
4.6017788088
 30
0.0
 10
12.6244533593
 20
4.5854557943
 30
0.0
 10
12.5891218469
 20
4.5675953602
 30
0.0
 10
12.5494423627
 20
4.5482999018
 30
0.0
 10
12.48864884
 20
4.5196868378
 30
0.0
 10
12.4035500123
 20
4.4813279713
 30
0.0
 10
12.2917687789
 20
4.4330628548
 30
0.0
 10
12.2128642486
 20
4.4002165733
 30
0.0
 10
12.1716110581
 20
4.3833102525
 30
0.0
  0
SPLINE
  5
47C
100
AcDbEntity
  8
RACCORDO
100
AcDbSpline
 62
250
  6
CONTINUOUS
 70
0
 71
3
 72
14
 73
10
 74
0
 42
0.0000001
 43
0.0000001
 44
0.0000000001
 40
0.0
 40
0.0
 40
0.0
 40
0.0
 40
0.1109861904
 40
0.2237641334
 40
0.3399288938
 40
0.4607305886
 40
0.5869953126
 40
0.7191109566
 40
1.0
 40
1.0
 40
1.0
 40
1.0
 10
12.9494214821
 20
3.6309027279
 30
0.0
 10
12.9494214956
 20
3.600522053
 30
0.0
 10
12.9437833708
 20
3.5391284908
 30
0.0
 10
12.9186672617
 20
3.4490549197
 30
0.0
 10
12.87739462
 20
3.362176679
 30
0.0
 10
12.820771226
 20
3.2799804358
 30
0.0
 10
12.7498040024
 20
3.2037543017
 30
0.0
 10
12.6354839284
 20
3.1098584067
 30
0.0
 10
12.5352260833
 20
3.0548644367
 30
0.0
 10
12.4644596679
 20
3.0247977245
 30
0.0
  0
SPLINE
  5
47D
100
AcDbEntity
  8
RACCORDO
100
AcDbSpline
 62
7
  6
CONTINUOUS
 70
0
 71
3
 72
13
 73
9
 74
0
 42
0.0000001
 43
0.0000001
 44
0.0000000001
 40
0.0
 40
0.0
 40
0.0
 40
0.0
 40
0.1151211771
 40
0.2040002583
 40
0.3168646004
 40
0.4539383265
 40
0.6144857589
 40
1.0
 40
1.0
 40
1.0
 40
1.0
 10
-10.8937534348
 20
26.5230068279
 30
0.0
 10
-10.8909425377
 20
26.5240906412
 30
0.0
 10
-10.885111744
 20
26.5223593281
 30
0.0
 10
-10.8781533039
 20
26.5181999723
 30
0.0
 10
-10.8710244174
 20
26.5127955798
 30
0.0
 10
-10.8630190068
 20
26.5056570525
 30
0.0
 10
-10.8503157714
 20
26.4930561581
 30
0.0
 10
-10.8408160977
 20
26.4823677624
 30
0.0
 10
-10.834275225
 20
26.4746869262
 30
0.0
  0
SPLINE
  5
47E
100
AcDbEntity
  8
RACCORDO
100
AcDbSpline
 62
250
  6
CONTINUOUS
 70
0
 71
3
 72
12
 73
8
 74
0
 42
0.0000001
 43
0.0000001
 44
0.0000000001
 40
0.0
 40
0.0
 40
0.0
 40
0.0
 40
0.111134065
 40
0.2240621582
 40
0.4605915143
 40
0.7187365131
 40
1.0
 40
1.0
 40
1.0
 40
1.0
 10
-7.3973676844
 20
24.4716890874
 30
0.0
 10
-7.3973677584
 20
24.4656129208
 30
0.0
 10
-7.3984971605
 20
24.4533330844
 30
0.0
 10
-7.4052817503
 20
24.4289626961
 30
0.0
 10
-7.4225136323
 20
24.3998168129
 30
0.0
 10
-7.4540968535
 20
24.3708029752
 30
0.0
 10
-7.4802066965
 20
24.3564807032
 30
0.0
 10
-7.4943600632
 20
24.3504673252
 30
0.0
  0
SPLINE
  5
47F
100
AcDbEntity
  8
RACCORDO
100
AcDbSpline
 62
250
  6
CONTINUOUS
 70
0
 71
3
 72
13
 73
9
 74
0
 42
0.0000001
 43
0.0000001
 44
0.0000000001
 40
0.0
 40
0.0
 40
0.0
 40
0.0
 40
0.1028367291
 40
0.2089209979
 40
0.4391995588
 40
0.566972079
 40
0.7034329129
 40
1.0
 40
1.0
 40
1.0
 40
1.0
 10
3.1328019981
 20
11.6461725906
 30
0.0
 10
3.1292240418
 20
11.6503797992
 30
0.0
 10
3.1209710489
 20
11.6581388665
 30
0.0
 10
3.1006142533
 20
11.6703460339
 30
0.0
 10
3.0758119735
 20
11.6763941274
 30
0.0
 10
3.049224074
 20
11.676942032
 30
0.0
 10
3.0192098649
 20
11.6736362384
 30
0.0
 10
2.9966868149
 20
11.6669987357
 30
0.0
 10
2.9818682303
 20
11.6611602684
 30
0.0
  0
SPLINE
  5
480
100
AcDbEntity
  8
RACCORDO
100
AcDbSpline
 62
7
  6
CONTINUOUS
 70
0
 71
3
 72
13
 73
9
 74
0
 42
0.0000001
 43
0.0000001
 44
0.0000000001
 40
0.0
 40
0.0
 40
0.0
 40
0.0
 40
0.1151211771
 40
0.2040002583
 40
0.3168646004
 40
0.4539383265
 40
0.6144857589
 40
1.0
 40
1.0
 40
1.0
 40
1.0
 10
1.6062465652
 20
11.2136959355
 30
0.0
 10
1.6090574623
 20
11.2147797488
 30
0.0
 10
1.614888256
 20
11.2130484357
 30
0.0
 10
1.6218466961
 20
11.2088890799
 30
0.0
 10
1.6289755826
 20
11.2034846874
 30
0.0
 10
1.6369809932
 20
11.1963461601
 30
0.0
 10
1.6496842286
 20
11.1837452657
 30
0.0
 10
1.6591839023
 20
11.17305687
 30
0.0
 10
1.665724775
 20
11.1653760338
 30
0.0
  0
SPLINE
  5
481
100
AcDbEntity
  8
RACCORDO
100
AcDbSpline
 62
250
  6
CONTINUOUS
 70
0
 71
3
 72
14
 73
10
 74
0
 42
0.0000001
 43
0.0000001
 44
0.0000000001
 40
0.0
 40
0.0
 40
0.0
 40
0.0
 40
0.110986219
 40
0.2237641054
 40
0.339928929
 40
0.4607305258
 40
0.5869953014
 40
0.719110771
 40
1.0
 40
1.0
 40
1.0
 40
1.0
 10
18.6075875342
 20
-19.2148904458
 30
0.0
 10
18.6075872357
 20
-19.2452711662
 30
0.0
 10
18.6019493441
 20
-19.306664738
 30
0.0
 10
18.5768338398
 20
-19.3967386846
 30
0.0
 10
18.5355605897
 20
-19.4836167248
 30
0.0
 10
18.478937802
 20
-19.5658135218
 30
0.0
 10
18.4079701647
 20
-19.6420394056
 30
0.0
 10
18.293650306
 20
-19.735935825
 30
0.0
 10
18.1933921685
 20
-19.790929675
 30
0.0
 10
18.1226256186
 20
-19.8209964443
 30
0.0
  0
SPLINE
  5
482
100
AcDbEntity
  8
RACCORDO
100
AcDbSpline
 62
250
  6
CONTINUOUS
 70
0
 71
3
 72
19
 73
15
 74
0
 42
0.0000001
 43
0.0000001
 44
0.0000000001
 40
0.0
 40
0.0
 40
0.0
 40
0.0
 40
0.0249797953
 40
0.0522670724
 40
0.0836228365
 40
0.1201544008
 40
0.1624752303
 40
0.2108770232
 40
0.2654442677
 40
0.3261219483
 40
0.4650843129
 40
0.6257414863
 40
0.8052037788
 40
1.0
 40
1.0
 40
1.0
 40
1.0
 10
18.5632249819
 20
-12.6303380915
 30
0.0
 10
18.5648981645
 20
-12.6357670333
 30
0.0
 10
18.566475463
 20
-12.6477902312
 30
0.0
 10
18.563179066
 20
-12.6667367142
 30
0.0
 10
18.5546444436
 20
-12.6867800526
 30
0.0
 10
18.5410431685
 20
-12.7079326717
 30
0.0
 10
18.522458627
 20
-12.7301889898
 30
0.0
 10
18.4989674843
 20
-12.7534778703
 30
0.0
 10
18.470676159
 20
-12.7776984904
 30
0.0
 10
18.4246082092
 20
-12.8126694529
 30
0.0
 10
18.3557719761
 20
-12.8573093327
 30
0.0
 10
18.2605308701
 20
-12.9103354415
 30
0.0
 10
18.1512081823
 20
-12.9638068987
 30
0.0
 10
18.0731528564
 20
-12.9978129638
 30
0.0
 10
18.0322154128
 20
-13.0147446275
 30
0.0
  0
SPLINE
  5
483
100
AcDbEntity
  8
RACCORDO
100
AcDbSpline
 62
7
  6
CONTINUOUS
 70
0
 71
3
 72
20
 73
16
 74
0
 42
0.0000001
 43
0.0000001
 44
0.0000000001
 40
0.0
 40
0.0
 40
0.0
 40
0.0
 40
0.0099676225
 40
0.0217283252
 40
0.0353693547
 40
0.0508947214
 40
0.0874104033
 40
0.1307697782
 40
0.1803546273
 40
0.2355599792
 40
0.3606586634
 40
0.5023090956
 40
0.6575620911
 40
0.8240898981
 40
1.0
 40
1.0
 40
1.0
 40
1.0
 10
17.4301509254
 20
-8.9541345637
 30
0.0
 10
17.4292043108
 20
-8.9510521593
 30
0.0
 10
17.4263615016
 20
-8.9445727846
 30
0.0
 10
17.4202930594
 20
-8.9348481742
 30
0.0
 10
17.4121811413
 20
-8.9243622319
 30
0.0
 10
17.39796771
 20
-8.9085506318
 30
0.0
 10
17.3754314233
 20
-8.8873983849
 30
0.0
 10
17.3430873608
 20
-8.8607730001
 30
0.0
 10
17.3047371516
 20
-8.8320079691
 30
0.0
 10
17.2438058034
 20
-8.7893548703
 30
0.0
 10
17.156247768
 20
-8.7328939855
 30
0.0
 10
17.0392872915
 20
-8.6624671801
 30
0.0
 10
16.9091413841
 20
-8.5880317092
 30
0.0
 10
16.7680233767
 20
-8.5105148857
 30
0.0
 10
16.670186834
 20
-8.458549365
 30
0.0
 10
16.61977474
 20
-8.4321498602
 30
0.0
  0
SPLINE
  5
484
100
AcDbEntity
  8
RACCORDO
100
AcDbSpline
 62
250
  6
CONTINUOUS
 70
0
 71
3
 72
41
 73
37
 74
0
 42
0.0000001
 43
0.0000001
 44
0.0000000001
 40
0.0
 40
0.0
 40
0.0
 40
0.0
 40
0.0077268974
 40
0.015597791
 40
0.0237313082
 40
0.0322327245
 40
0.0506570963
 40
0.0714149976
 40
0.0947935525
 40
0.1209097018
 40
0.1497577819
 40
0.1812429133
 40
0.2152030894
 40
0.2514243403
 40
0.2896516179
 40
0.3295970275
 40
0.3709467334
 40
0.4133667402
 40
0.5
 40
0.5866332572
 40
0.6290532687
 40
0.6704029653
 40
0.7103483887
 40
0.7485756503
 40
0.7847969189
 40
0.8187570797
 40
0.8502422214
 40
0.8790902973
 40
0.905206442
 40
0.9285850079
 40
0.949342893
 40
0.967767282
 40
0.9762686929
 40
0.9844022033
 40
0.9922731008
 40
1.0
 40
1.0
 40
1.0
 40
1.0
 10
23.6319354518
 20
4.3886493521
 30
0.0
 10
23.6479938641
 20
4.3948583064
 30
0.0
 10
23.6813281036
 20
4.4051442724
 30
0.0
 10
23.7336502841
 20
4.4137516901
 30
0.0
 10
23.7883665133
 20
4.4156132187
 30
0.0
 10
23.86635945
 20
4.408952767
 30
0.0
 10
23.9700068728
 20
4.3823850497
 30
0.0
 10
24.0976594146
 20
4.3251984921
 30
0.0
 10
24.2310991805
 20
4.2426546866
 30
0.0
 10
24.369249977
 20
4.1355306179
 30
0.0
 10
24.5109675202
 20
4.0047816854
 30
0.0
 10
24.6549711541
 20
3.8515862192
 30
0.0
 10
24.7999287661
 20
3.6773503097
 30
0.0
 10
24.9444756688
 20
3.483694494
 30
0.0
 10
25.0872415717
 20
3.272435548
 30
0.0
 10
25.226867096
 20
3.0455673502
 30
0.0
 10
25.3620250875
 20
2.805236325
 30
0.0
 10
25.5357492399
 20
2.4675399301
 30
0.0
 10
25.7326023278
 20
2.0286658922
 30
0.0
 10
25.8991407192
 20
1.5774159384
 30
0.0
 10
26.0113904824
 20
1.2146227211
 30
0.0
 10
26.0830455164
 20
0.9483667351
 30
0.0
 10
26.1420879308
 20
0.6886005958
 30
0.0
 10
26.1879624748
 20
0.4377859464
 30
0.0
 10
26.2202457887
 20
0.1982986713
 30
0.0
 10
26.2386441587
 20
-0.0276047935
 30
0.0
 10
26.2429990427
 20
-0.237811647
 30
0.0
 10
26.2332773958
 20
-0.4303853756
 30
0.0
 10
26.2095693648
 20
-0.6035879532
 30
0.0
 10
26.1720241389
 20
-0.7559362651
 30
0.0
 10
26.1208656177
 20
-0.8861218264
 30
0.0
 10
26.0654256445
 20
-0.9776370604
 30
0.0
 10
26.0143776228
 20
-1.0369781467
 30
0.0
 10
25.9739916589
 20
-1.0739416599
 30
0.0
 10
25.9305949001
 20
-1.1044116219
 30
0.0
 10
25.8995860442
 20
-1.1203936347
 30
0.0
 10
25.8837704011
 20
-1.1271972578
 30
0.0
  0
SPLINE
  5
485
100
AcDbEntity
  8
RACCORDO
100
AcDbSpline
 62
250
  6
CONTINUOUS
 70
0
 71
3
 72
9
 73
5
 74
0
 42
0.0000001
 43
0.0000001
 44
0.0000000001
 40
0.0
 40
0.0
 40
0.0
 40
0.0
 40
0.2397374991
 40
1.0
 40
1.0
 40
1.0
 40
1.0
 10
23.8331930128
 20
3.5748114453
 30
0.0
 10
23.8526351065
 20
3.5533909929
 30
0.0
 10
23.9326060434
 20
3.4630209412
 30
0.0
 10
24.0082505527
 20
3.3688592369
 30
0.0
 10
24.0636447495
 20
3.295734457
 30
0.0
  0
SPLINE
  5
486
100
AcDbEntity
  8
RACCORDO
100
AcDbSpline
 62
250
  6
CONTINUOUS
 70
0
 71
3
 72
9
 73
5
 74
0
 42
0.0000001
 43
0.0000001
 44
0.0000000001
 40
0.0
 40
0.0
 40
0.0
 40
0.0
 40
0.4892701782
 40
1.0
 40
1.0
 40
1.0
 40
1.0
 10
25.2863399532
 20
-1.1400552907
 30
0.0
 10
25.2994653278
 20
-1.1191431089
 30
0.0
 10
25.333623556
 20
-1.0806872068
 30
0.0
 10
25.3776184297
 20
-1.0544020828
 30
0.0
 10
25.4013105338
 20
-1.0442568375
 30
0.0
  0
SPLINE
  5
487
100
AcDbEntity
  8
RACCORDO
100
AcDbSpline
 62
250
  6
CONTINUOUS
 70
0
 71
3
 72
29
 73
25
 74
0
 42
0.0000001
 43
0.0000001
 44
0.0000000001
 40
0.0
 40
0.0
 40
0.0
 40
0.0
 40
0.065083228
 40
0.1314169577
 40
0.1987619945
 40
0.26689422
 40
0.335607874
 40
0.3701173417
 40
0.4046863348
 40
0.4392684214
 40
0.4737876223
 40
0.5081130257
 40
0.5420493598
 40
0.5753982697
 40
0.6080592461
 40
0.6400388687
 40
0.6713853949
 40
0.7021401194
 40
0.7323248183
 40
0.7909909295
 40
0.8472949671
 40
0.9010456648
 40
0.9520108329
 40
1.0
 40
1.0
 40
1.0
 40
1.0
 10
24.0410348658
 20
2.9003826462
 30
0.0
 10
24.0677180603
 20
2.8138120237
 30
0.0
 10
24.1128520717
 20
2.6362607176
 30
0.0
 10
24.1610063353
 20
2.3636609414
 30
0.0
 10
24.1943692081
 20
2.084634078
 30
0.0
 10
24.216572692
 20
1.8012379337
 30
0.0
 10
24.2290080942
 20
1.5630429559
 30
0.0
 10
24.2382558956
 20
1.371473971
 30
0.0
 10
24.2460230884
 20
1.227395414
 30
0.0
 10
24.2562427019
 20
1.083445561
 30
0.0
 10
24.2713199025
 20
0.940231303
 30
0.0
 10
24.2945138389
 20
0.7989408638
 30
0.0
 10
24.3292351479
 20
0.6616118168
 30
0.0
 10
24.3768151423
 20
0.5306381737
 30
0.0
 10
24.4350194746
 20
0.4071270771
 30
0.0
 10
24.5000060437
 20
0.290319914
 30
0.0
 10
24.5685349295
 20
0.1787052297
 30
0.0
 10
24.6384027646
 20
0.0709083125
 30
0.0
 10
24.73055072
 20
-0.0677431492
 30
0.0
 10
24.8428758502
 20
-0.2356857644
 30
0.0
 10
24.9692067945
 20
-0.43369439
 30
0.0
 10
25.0818542748
 20
-0.6275780981
 30
0.0
 10
25.176807582
 20
-0.8179238672
 30
0.0
 10
25.2267233878
 20
-0.9466925336
 30
0.0
 10
25.246444466
 20
-1.0105111875
 30
0.0
  0
LINE
  5
488
100
AcDbEntity
  8
RACCORDO
100
AcDbLine
 62
250
  6
CONTINUOUS
 10
25.246444466
 20
-1.0105111875
 11
25.2467436418
 21
-1.0114805816
  0
SPLINE
  5
489
100
AcDbEntity
  8
RACCORDO
100
AcDbSpline
 62
250
  6
CONTINUOUS
 70
0
 71
3
 72
9
 73
5
 74
0
 42
0.0000001
 43
0.0000001
 44
0.0000000001
 40
0.0
 40
0.0
 40
0.0
 40
0.0
 40
0.4651569297
 40
1.0
 40
1.0
 40
1.0
 40
1.0
 10
23.9264249623
 20
3.2721224682
 30
0.0
 10
23.9480492629
 20
3.2699113413
 30
0.0
 10
23.9953559555
 20
3.2730308918
 30
0.0
 10
24.0403999857
 20
3.2865498332
 30
0.0
 10
24.0636447495
 20
3.295734457
 30
0.0
  0
SPLINE
  5
48A
100
AcDbEntity
  8
RACCORDO
100
AcDbSpline
 62
250
  6
CONTINUOUS
 70
0
 71
3
 72
19
 73
15
 74
0
 42
0.0000001
 43
0.0000001
 44
0.0000000001
 40
0.0
 40
0.0
 40
0.0
 40
0.0
 40
0.0249798107
 40
0.0522672186
 40
0.0836231693
 40
0.1201549306
 40
0.1624759403
 40
0.2108778807
 40
0.265445232
 40
0.3261229746
 40
0.4650853258
 40
0.6257423098
 40
0.8052042622
 40
1.0
 40
1.0
 40
1.0
 40
1.0
 10
22.2012951012
 20
8.8693267506
 30
0.0
 10
22.202968165
 20
8.8638977782
 30
0.0
 10
22.20454521
 20
8.851874538
 30
0.0
 10
22.2012485039
 20
8.8329280725
 30
0.0
 10
22.1927136327
 20
8.8128847572
 30
0.0
 10
22.1791121556
 20
8.7917321678
 30
0.0
 10
22.1605274562
 20
8.76947589
 30
0.0
 10
22.1370361994
 20
8.7461870621
 30
0.0
 10
22.1087448045
 20
8.7219665071
 30
0.0
 10
22.0626768377
 20
8.6869956656
 30
0.0
 10
21.9938406971
 20
8.6423559515
 30
0.0
 10
21.8985998235
 20
8.5893300459
 30
0.0
 10
21.7892775063
 20
8.5358588086
 30
0.0
 10
21.7112224772
 20
8.5018528796
 30
0.0
 10
21.6702852019
 20
8.4849212856
 30
0.0
  0
SPLINE
  5
48B
100
AcDbEntity
  8
RACCORDO
100
AcDbSpline
 62
250
  6
CONTINUOUS
 70
0
 71
3
 72
11
 73
7
 74
0
 42
0.0000001
 43
0.0000001
 44
0.0000000001
 40
0.0
 40
0.0
 40
0.0
 40
0.0
 40
0.2476134182
 40
0.496233361
 40
0.746776659
 40
1.0
 40
1.0
 40
1.0
 40
1.0
 10
21.4739657037
 20
9.5483713702
 30
0.0
 10
21.4331062366
 20
9.5579530728
 30
0.0
 10
21.3496092338
 20
9.5708935068
 30
0.0
 10
21.2225691628
 20
9.571019638
 30
0.0
 10
21.0960178696
 20
9.5519341763
 30
0.0
 10
21.0140495151
 20
9.5267805966
 30
0.0
 10
20.9740270213
 20
9.5112816517
 30
0.0
  0
SPLINE
  5
48C
100
AcDbEntity
  8
RACCORDO
100
AcDbSpline
 62
250
  6
CONTINUOUS
 70
0
 71
3
 72
19
 73
15
 74
0
 42
0.0000001
 43
0.0000001
 44
0.0000000001
 40
0.0
 40
0.0
 40
0.0
 40
0.0
 40
0.0249798529
 40
0.0522675605
 40
0.0836238253
 40
0.1201557849
 40
0.1624769303
 40
0.2108791067
 40
0.2654467947
 40
0.3261247726
 40
0.4650869581
 40
0.6257435642
 40
0.8052044963
 40
1.0
 40
1.0
 40
1.0
 40
1.0
 10
26.2018106751
 20
-4.1101502785
 30
0.0
 10
26.2034835582
 20
-4.1155793005
 30
0.0
 10
26.2050600704
 20
-4.1276026641
 30
0.0
 10
26.2017627166
 20
-4.146549085
 30
0.0
 10
26.1932274447
 20
-4.1665923482
 30
0.0
 10
26.1796257581
 20
-4.1877448884
 30
0.0
 10
26.1610409166
 20
-4.2100011139
 30
0.0
 10
26.1375494702
 20
-4.2332898536
 30
0.0
 10
26.109257859
 20
-4.257510282
 30
0.0
 10
26.0631897935
 20
-4.2924808812
 30
0.0
 10
25.9943538828
 20
-4.3371203992
 30
0.0
 10
25.8991135241
 20
-4.3901458955
 30
0.0
 10
25.7897918093
 20
-4.4436167604
 30
0.0
 10
25.7117372548
 20
-4.4776224846
 30
0.0
 10
25.67080014
 20
-4.4945540123
 30
0.0
  0
SPLINE
  5
48D
100
AcDbEntity
  8
RACCORDO
100
AcDbSpline
 62
250
  6
CONTINUOUS
 70
0
 71
3
 72
14
 73
10
 74
0
 42
0.0000001
 43
0.0000001
 44
0.0000000001
 40
0.0
 40
0.0
 40
0.0
 40
0.0
 40
0.317508501
 40
0.4649834783
 40
0.6011690642
 40
0.7238141377
 40
0.8313269239
 40
0.9230859814
 40
1.0
 40
1.0
 40
1.0
 40
1.0
 10
15.719760658
 20
10.6429998029
 30
0.0
 10
15.7316041689
 20
10.6159482165
 30
0.0
 10
15.7511125881
 20
10.5771945022
 30
0.0
 10
15.7810340541
 20
10.5299206552
 30
0.0
 10
15.8035741099
 20
10.4995364226
 30
0.0
 10
15.8262393392
 20
10.4740262439
 30
0.0
 10
15.848553555
 20
10.4539345553
 30
0.0
 10
15.8700415643
 20
10.4396712409
 30
0.0
 10
15.8848190697
 20
10.4338151886
 30
0.0
 10
15.8918073814
 20
10.4322864608
 30
0.0
  0
SPLINE
  5
48E
100
AcDbEntity
  8
RACCORDO
100
AcDbSpline
 62
7
  6
CONTINUOUS
 70
0
 71
3
 72
22
 73
18
 74
0
 42
0.0000001
 43
0.0000001
 44
0.0000000001
 40
0.0
 40
0.0
 40
0.0
 40
0.0
 40
0.2077851093
 40
0.3984127779
 40
0.5677591135
 40
0.6433002621
 40
0.7122103536
 40
0.7741364066
 40
0.8287749009
 40
0.8758806605
 40
0.9152827894
 40
0.9469184038
 40
0.9709182939
 40
0.9802258729
 40
0.9879319192
 40
0.994345005
 40
1.0
 40
1.0
 40
1.0
 40
1.0
 10
15.257725864
 20
11.6664012665
 30
0.0
 10
15.2990094328
 20
11.6831623941
 30
0.0
 10
15.3784242904
 20
11.7146755673
 30
0.0
 10
15.4924192114
 20
11.7574461762
 30
0.0
 10
15.5805916252
 20
11.7882617555
 30
0.0
 10
15.6446183028
 20
11.8089691345
 30
0.0
 10
15.6869678854
 20
11.8218234908
 30
0.0
 10
15.7252731614
 20
11.8325391872
 30
0.0
 10
15.7593253329
 20
11.8410635395
 30
0.0
 10
15.7889370662
 20
11.8473568868
 30
0.0
 10
15.8139646698
 20
11.8514111094
 30
0.0
 10
15.8342749541
 20
11.8532110564
 30
0.0
 10
15.8482741851
 20
11.8528981721
 30
0.0
 10
15.856926154
 20
11.8511850125
 30
0.0
 10
15.8616611838
 20
11.8494172174
 30
0.0
 10
15.8652223256
 20
11.8470134809
 30
0.0
 10
15.8667880658
 20
11.8448627162
 30
0.0
 10
15.8672869792
 20
11.8437574782
 30
0.0
  0
SPLINE
  5
48F
100
AcDbEntity
  8
RACCORDO
100
AcDbSpline
 62
250
  6
CONTINUOUS
 70
0
 71
3
 72
20
 73
16
 74
0
 42
0.0000001
 43
0.0000001
 44
0.0000000001
 40
0.0
 40
0.0
 40
0.0
 40
0.0
 40
0.1780589844
 40
0.3454301205
 40
0.4985397801
 40
0.5688327995
 40
0.6345500148
 40
0.6954913329
 40
0.7515513284
 40
0.8027452246
 40
0.8492448688
 40
0.8914268037
 40
0.9299294469
 40
0.9657016205
 40
1.0
 40
1.0
 40
1.0
 40
1.0
 10
25.6707989853
 20
-4.4945504582
 30
0.0
 10
25.6885164499
 20
-4.5490937691
 30
0.0
 10
25.7196464881
 20
-4.6560053815
 30
0.0
 10
25.7538226575
 20
-4.8130256913
 30
0.0
 10
25.7707452281
 20
-4.9379346695
 30
0.0
 10
25.7762123362
 20
-5.0309331595
 30
0.0
 10
25.7763561106
 20
-5.0944055997
 30
0.0
 10
25.772669554
 20
-5.1531873887
 30
0.0
 10
25.7651722254
 20
-5.2069000558
 30
0.0
 10
25.7539040835
 20
-5.2552042691
 30
0.0
 10
25.7389129726
 20
-5.2978022946
 30
0.0
 10
25.7202469126
 20
-5.3344281727
 30
0.0
 10
25.6979362179
 20
-5.3648263313
 30
0.0
 10
25.6720537385
 20
-5.3886922842
 30
0.0
 10
25.6523329581
 20
-5.4001223409
 30
0.0
 10
25.6422033205
 20
-5.4045292363
 30
0.0
  0
SPLINE
  5
490
100
AcDbEntity
  8
RACCORDO
100
AcDbSpline
 62
250
  6
CONTINUOUS
 70
0
 71
3
 72
19
 73
15
 74
0
 42
0.0000001
 43
0.0000001
 44
0.0000000001
 40
0.0
 40
0.0
 40
0.0
 40
0.0
 40
0.0351480959
 40
0.0744814502
 40
0.1183934967
 40
0.1670152927
 40
0.2202870065
 40
0.2780055813
 40
0.3398586457
 40
0.405448178
 40
0.5458849963
 40
0.6950466494
 40
0.8481016536
 40
1.0
 40
1.0
 40
1.0
 40
1.0
 10
20.9740270213
 20
9.5112816517
 30
0.0
 10
20.988685203
 20
9.5081703913
 30
0.0
 10
21.0191023893
 20
9.4983981513
 30
0.0
 10
21.0643297489
 20
9.4756718126
 30
0.0
 10
21.1111892296
 20
9.4443983582
 30
0.0
 10
21.1592727855
 20
9.4048735323
 30
0.0
 10
21.208168665
 20
9.3574562169
 30
0.0
 10
21.2574252168
 20
9.3025822475
 30
0.0
 10
21.3065835016
 20
9.2407631809
 30
0.0
 10
21.3728804343
 20
9.1477180268
 30
0.0
 10
21.4517670061
 20
9.0182107527
 30
0.0
 10
21.5368486989
 20
8.8495662506
 30
0.0
 10
21.6111520745
 20
8.6706124246
 30
0.0
 10
21.6522380022
 20
8.5471147672
 30
0.0
 10
21.6702852019
 20
8.4849212856
 30
0.0
  0
SPLINE
  5
491
100
AcDbEntity
  8
RACCORDO
100
AcDbSpline
 62
7
  6
CONTINUOUS
 70
0
 71
3
 72
11
 73
7
 74
0
 42
0.0000001
 43
0.0000001
 44
0.0000000001
 40
0.0
 40
0.0
 40
0.0
 40
0.0
 40
0.25211355
 40
0.5036804784
 40
0.7533397474
 40
1.0
 40
1.0
 40
1.0
 40
1.0
 10
12.8629279825
 20
-15.1875679262
 30
0.0
 10
12.8409387101
 20
-15.2536201474
 30
0.0
 10
12.7901189039
 20
-15.3833689969
 30
0.0
 10
12.6966568613
 20
-15.569494619
 30
0.0
 10
12.5884200738
 20
-15.7456481288
 30
0.0
 10
12.5071060386
 20
-15.85620059
 30
0.0
 10
12.4644596679
 20
-15.9093072672
 30
0.0
  0
SPLINE
  5
492
100
AcDbEntity
  8
RACCORDO
100
AcDbSpline
 62
250
  6
CONTINUOUS
 70
0
 71
3
 72
13
 73
9
 74
0
 42
0.0000001
 43
0.0000001
 44
0.0000000001
 40
0.0
 40
0.0
 40
0.0
 40
0.0
 40
0.2970093969
 40
0.4335144035
 40
0.5612113137
 40
0.7911143501
 40
0.897089455
 40
1.0
 40
1.0
 40
1.0
 40
1.0
 10
-7.5943448327
 20
24.614322976
 30
0.0
 10
-7.5793675028
 20
24.6202239884
 30
0.0
 10
-7.5565999327
 20
24.6269113795
 30
0.0
 10
-7.5262734439
 20
24.6301467828
 30
0.0
 10
-7.4994651766
 20
24.629448956
 30
0.0
 10
-7.4745009106
 20
24.6231125229
 30
0.0
 10
-7.4541604515
 20
24.6104905132
 30
0.0
 10
-7.4459793163
 20
24.6025040796
 30
0.0
 10
-7.4424514094
 20
24.5981837617
 30
0.0
  0
SPLINE
  5
493
100
AcDbEntity
  8
RACCORDO
100
AcDbSpline
 62
250
  6
CONTINUOUS
 70
0
 71
3
 72
13
 73
9
 74
0
 42
0.0000001
 43
0.0000001
 44
0.0000000001
 40
0.0
 40
0.0
 40
0.0
 40
0.0
 40
0.2970104655
 40
0.433515573
 40
0.5612122902
 40
0.7911144023
 40
0.8970892519
 40
1.0
 40
1.0
 40
1.0
 40
1.0
 10
-9.1250528645
 20
26.4890497875
 30
0.0
 10
-9.1100751454
 20
26.4949509532
 30
0.0
 10
-9.0873069758
 20
26.5016384661
 30
0.0
 10
-9.056979722
 20
26.5048736937
 30
0.0
 10
-9.0301709166
 20
26.5041754952
 30
0.0
 10
-9.0052062573
 20
26.4978383476
 30
0.0
 10
-8.9848658484
 20
26.4852153136
 30
0.0
 10
-8.9766848962
 20
26.4772283199
 30
0.0
 10
-8.9731571148
 20
26.4729077242
 30
0.0
  0
SPLINE
  5
494
100
AcDbEntity
  8
RACCORDO
100
AcDbSpline
 62
250
  6
CONTINUOUS
 70
0
 71
3
 72
15
 73
11
 74
0
 42
0.0000001
 43
0.0000001
 44
0.0000000001
 40
0.0
 40
0.0
 40
0.0
 40
0.0
 40
0.1087560964
 40
0.2251633497
 40
0.3485079908
 40
0.4772325064
 40
0.609206046
 40
0.7419800667
 40
0.8730312741
 40
1.0
 40
1.0
 40
1.0
 40
1.0
 10
-9.1250528645
 20
26.4890497875
 30
0.0
 10
-9.1518280179
 20
26.5218417598
 30
0.0
 10
-9.2150279392
 20
26.5836073048
 30
0.0
 10
-9.3286326183
 20
26.6589306747
 30
0.0
 10
-9.4601223139
 20
26.7177188112
 30
0.0
 10
-9.6046497769
 20
26.7578863991
 30
0.0
 10
-9.7569618952
 20
26.7780511814
 30
0.0
 10
-9.9115081968
 20
26.7774876281
 30
0.0
 10
-10.0625994772
 20
26.7562334927
 30
0.0
 10
-10.1594868684
 20
26.728137305
 30
0.0
 10
-10.2057208837
 20
26.7106684452
 30
0.0
  0
SPLINE
  5
495
100
AcDbEntity
  8
RACCORDO
100
AcDbSpline
 62
250
  6
CONTINUOUS
 70
0
 71
3
 72
13
 73
9
 74
0
 42
0.0000001
 43
0.0000001
 44
0.0000000001
 40
0.0
 40
0.0
 40
0.0
 40
0.0
 40
0.3370887513
 40
0.6120499227
 40
0.7263842222
 40
0.8268542334
 40
0.9164733079
 40
1.0
 40
1.0
 40
1.0
 40
1.0
 10
-10.2057208837
 20
26.7106684452
 30
0.0
 10
-10.2120244988
 20
26.7187067787
 30
0.0
 10
-10.2242718768
 20
26.7326975562
 30
0.0
 10
-10.2414147247
 20
26.7468194226
 30
0.0
 10
-10.2546276919
 20
26.7537038715
 30
0.0
 10
-10.2634903489
 20
26.7564815266
 30
0.0
 10
-10.2718438151
 20
26.7571184093
 30
0.0
 10
-10.2770671229
 20
26.756019307
 30
0.0
 10
-10.2794349398
 20
26.7551246214
 30
0.0
  0
SPLINE
  5
496
100
AcDbEntity
  8
RACCORDO
100
AcDbSpline
 62
250
  6
CONTINUOUS
 70
0
 71
3
 72
15
 73
11
 74
0
 42
0.0000001
 43
0.0000001
 44
0.0000000001
 40
0.0
 40
0.0
 40
0.0
 40
0.0
 40
0.1052062742
 40
0.2239312016
 40
0.3527735062
 40
0.4876784885
 40
0.6242433337
 40
0.757972545
 40
0.884526976
 40
1.0
 40
1.0
 40
1.0
 40
1.0
 10
-7.4943600632
 20
24.3504673252
 30
0.0
 10
-7.4941491082
 20
24.3605283021
 30
0.0
 10
-7.4953279371
 20
24.3819825895
 30
0.0
 10
-7.5007418936
 20
24.4153329938
 30
0.0
 10
-7.5097476693
 20
24.4508355831
 30
0.0
 10
-7.5220158516
 20
24.4871447679
 30
0.0
 10
-7.537088663
 20
24.5228890909
 30
0.0
 10
-7.5543948168
 20
24.5567164381
 30
0.0
 10
-7.5732718742
 20
24.5873463831
 30
0.0
 10
-7.5871941818
 20
24.6059048322
 30
0.0
 10
-7.5943448327
 20
24.614322976
 30
0.0
  0
SPLINE
  5
497
100
AcDbEntity
  8
RACCORDO
100
AcDbSpline
 62
7
  6
CONTINUOUS
 70
0
 71
3
 72
20
 73
16
 74
0
 42
0.0000001
 43
0.0000001
 44
0.0000000001
 40
0.0
 40
0.0
 40
0.0
 40
0.0
 40
0.1156670489
 40
0.2434711488
 40
0.378023448
 40
0.5138895645
 40
0.5807111015
 40
0.6460094971
 40
0.7092734829
 40
0.7700784643
 40
0.8281654132
 40
0.8837435032
 40
0.9388199727
 40
0.9683258804
 40
1.0
 40
1.0
 40
1.0
 40
1.0
 10
-8.8823457079
 20
24.0840712608
 30
0.0
 10
-8.8754259518
 20
24.0752302488
 30
0.0
 10
-8.8612665404
 20
24.0563013781
 30
0.0
 10
-8.8402820749
 20
24.0261950603
 30
0.0
 10
-8.8191739575
 20
23.9938074471
 30
0.0
 10
-8.8021817239
 20
23.9658210231
 30
0.0
 10
-8.7893290049
 20
23.9432045907
 30
0.0
 10
-8.7803350007
 20
23.9265061721
 30
0.0
 10
-8.7720809279
 20
23.9100790345
 30
0.0
 10
-8.7647524335
 20
23.8939837628
 30
0.0
 10
-8.7586595988
 20
23.8781600845
 30
0.0
 10
-8.7543259431
 20
23.8623422047
 30
0.0
 10
-8.7538038804
 20
23.8484260839
 30
0.0
 10
-8.7573377179
 20
23.8375814051
 30
0.0
 10
-8.760479462
 20
23.8324848999
 30
0.0
 10
-8.7623013294
 20
23.8300084645
 30
0.0
  0
SPLINE
  5
498
100
AcDbEntity
  8
RACCORDO
100
AcDbSpline
 62
250
  6
CONTINUOUS
 70
0
 71
3
 72
13
 73
9
 74
0
 42
0.0000001
 43
0.0000001
 44
0.0000000001
 40
0.0
 40
0.0
 40
0.0
 40
0.0
 40
0.3370863221
 40
0.6120475375
 40
0.7263826215
 40
0.8268536272
 40
0.9164734467
 40
1.0
 40
1.0
 40
1.0
 40
1.0
 10
2.9818682303
 20
11.6611602684
 30
0.0
 10
2.9755647785
 20
11.6691983937
 30
0.0
 10
2.9633176956
 20
11.6831888699
 30
0.0
 10
2.9461753218
 20
11.6973105507
 30
0.0
 10
2.9329626895
 20
11.7041951443
 30
0.0
 10
2.9241002177
 20
11.7069730392
 30
0.0
 10
2.9157469013
 20
11.7076103042
 30
0.0
 10
2.9105236097
 20
11.706511558
 30
0.0
 10
2.9081557803
 20
11.7056170514
 30
0.0
  0
SPLINE
  5
499
100
AcDbEntity
  8
RACCORDO
100
AcDbSpline
 62
250
  6
CONTINUOUS
 70
0
 71
3
 72
14
 73
10
 74
0
 42
0.0000001
 43
0.0000001
 44
0.0000000001
 40
0.0
 40
0.0
 40
0.0
 40
0.0
 40
0.2770742449
 40
0.4114374858
 40
0.5415329384
 40
0.666331494
 40
0.7848846766
 40
0.8963457382
 40
1.0
 40
1.0
 40
1.0
 40
1.0
 10
12.1716095501
 20
4.3833141886
 30
0.0
 10
12.2177278939
 20
4.2628349273
 30
0.0
 10
12.2800087001
 20
4.0814390695
 30
0.0
 10
12.3482407017
 20
3.8386646452
 30
0.0
 10
12.390304784
 20
3.6623210899
 30
0.0
 10
12.4233868573
 20
3.491564536
 30
0.0
 10
12.4471763141
 20
3.3280169942
 30
0.0
 10
12.4614541887
 20
3.1732460262
 30
0.0
 10
12.4646707384
 20
3.073055765
 30
0.0
 10
12.4644596563
 20
3.0247952869
 30
0.0
  0
SPLINE
  5
49A
100
AcDbEntity
  8
RACCORDO
100
AcDbSpline
 62
250
  6
CONTINUOUS
 70
0
 71
3
 72
11
 73
7
 74
0
 42
0.0000001
 43
0.0000001
 44
0.0000000001
 40
0.0
 40
0.0
 40
0.0
 40
0.0
 40
0.2768500086
 40
0.5388976918
 40
0.7812988478
 40
1.0
 40
1.0
 40
1.0
 40
1.0
 10
18.0322154128
 20
-13.0147446275
 30
0.0
 10
18.0467542366
 20
-13.0610530225
 30
0.0
 10
18.0724586785
 20
-13.1520389462
 30
0.0
 10
18.1012040606
 20
-13.2860735399
 30
0.0
 10
18.1187084285
 20
-13.4117593004
 30
0.0
 10
18.1228806534
 20
-13.4926504765
 30
0.0
 10
18.1226256186
 20
-13.5309920793
 30
0.0
  0
SPLINE
  5
49B
100
AcDbEntity
  8
RACCORDO
100
AcDbSpline
 62
250
  6
CONTINUOUS
 70
0
 71
3
 72
14
 73
10
 74
0
 42
0.0000001
 43
0.0000001
 44
0.0000000001
 40
0.0
 40
0.0
 40
0.0
 40
0.0
 40
0.2808893081
 40
0.41300478
 40
0.539269535
 40
0.6600710971
 40
0.7762358864
 40
0.8890137574
 40
1.0
 40
1.0
 40
1.0
 40
1.0
 10
18.1226256186
 20
-13.5309920793
 30
0.0
 10
18.1933924295
 20
-13.5009251991
 30
0.0
 10
18.2936509183
 20
-13.4459311094
 30
0.0
 10
18.4079710684
 20
-13.3520342191
 30
0.0
 10
18.4789387979
 20
-13.2758079514
 30
0.0
 10
18.5355615503
 20
-13.1936107418
 30
0.0
 10
18.5768346288
 20
-13.1067322776
 30
0.0
 10
18.6019498198
 20
-13.0166579153
 30
0.0
 10
18.607587407
 20
-12.9552640988
 30
0.0
 10
18.6075875343
 20
-12.9248832684
 30
0.0
  0
SPLINE
  5
49C
100
AcDbEntity
  8
RACCORDO
100
AcDbSpline
 62
250
  6
CONTINUOUS
 70
0
 71
3
 72
15
 73
11
 74
0
 42
0.0000001
 43
0.0000001
 44
0.0000000001
 40
0.0
 40
0.0
 40
0.0
 40
0.0
 40
0.1708777789
 40
0.3274620481
 40
0.4695853522
 40
0.5975449602
 40
0.7122662568
 40
0.8155147676
 40
0.9101130954
 40
1.0
 40
1.0
 40
1.0
 40
1.0
 10
18.1226256186
 20
-19.8209964443
 30
0.0
 10
18.1230472094
 20
-19.8407449318
 30
0.0
 10
18.1227190276
 20
-19.8786307775
 30
0.0
 10
18.1182535691
 20
-19.9327860517
 30
0.0
 10
18.109864769
 20
-19.9814678913
 30
0.0
 10
18.0975929184
 20
-20.0243346133
 30
0.0
 10
18.08147833
 20
-20.0610936153
 30
0.0
 10
18.061529166
 20
-20.0914733908
 30
0.0
 10
18.0377774464
 20
-20.1151365663
 30
0.0
 10
18.0192819602
 20
-20.126268665
 30
0.0
 10
18.0097687297
 20
-20.1304477198
 30
0.0
  0
SPLINE
  5
49D
100
AcDbEntity
  8
RACCORDO
100
AcDbSpline
 62
250
  6
CONTINUOUS
 70
0
 71
3
 72
9
 73
5
 74
0
 42
0.0000001
 43
0.0000001
 44
0.0000000001
 40
0.0
 40
0.0
 40
0.0
 40
0.0
 40
0.5237352236
 40
1.0
 40
1.0
 40
1.0
 40
1.0
 10
25.4013105338
 20
-1.0442568375
 30
0.0
 10
25.3911091675
 20
-1.081604246
 30
0.0
 10
25.3683179353
 20
-1.1520779511
 30
0.0
 10
25.337396556
 20
-1.2194910159
 30
0.0
 10
25.3203866461
 20
-1.2503156629
 30
0.0
  0
SPLINE
  5
49E
100
AcDbEntity
  8
RACCORDO
100
AcDbSpline
 62
250
  6
CONTINUOUS
 70
0
 71
3
 72
40
 73
36
 74
0
 42
0.0000001
 43
0.0000001
 44
0.0000000001
 40
0.0
 40
0.0
 40
0.0
 40
0.0
 40
0.0313681826
 40
0.063190831
 40
0.0956189737
 40
0.1287153207
 40
0.1624862358
 40
0.1969047338
 40
0.2674809543
 40
0.3400523312
 40
0.3769571793
 40
0.4142074223
 40
0.4517492166
 40
0.4706067703
 40
0.4895014712
 40
0.508405298
 40
0.5272707292
 40
0.5460235699
 40
0.5645671445
 40
0.582808015
 40
0.6006900585
 40
0.6353522754
 40
0.6687418759
 40
0.7010131277
 40
0.7322286135
 40
0.7623892372
 40
0.8193881236
 40
0.8461160048
 40
0.8715793185
 40
0.895729535
 40
0.9185530812
 40
0.9401066547
 40
0.9605713521
 40
0.9803241228
 40
1.0
 40
1.0
 40
1.0
 40
1.0
 10
24.0636447495
 20
3.295734457
 30
0.0
 10
24.0934999792
 20
3.2563227948
 30
0.0
 10
24.1480772791
 20
3.1725902339
 30
0.0
 10
24.2144621195
 20
3.036953095
 30
0.0
 10
24.2673695779
 20
2.8926714604
 30
0.0
 10
24.3083093964
 20
2.7414416278
 30
0.0
 10
24.3387269053
 20
2.5845968326
 30
0.0
 10
24.3672126126
 20
2.3676269361
 30
0.0
 10
24.382328381
 20
2.0877605707
 30
0.0
 10
24.3780962737
 20
1.8038801601
 30
0.0
 10
24.3680669087
 20
1.5728224254
 30
0.0
 10
24.3588732118
 20
1.3970057454
 30
0.0
 10
24.3519645202
 20
1.2495465252
 30
0.0
 10
24.3490611956
 20
1.1308948439
 30
0.0
 10
24.3490692063
 20
1.0415795491
 30
0.0
 10
24.3523653579
 20
0.9522972699
 30
0.0
 10
24.3603418642
 20
0.8635080276
 30
0.0
 10
24.3745301775
 20
0.7760326101
 30
0.0
 10
24.3961736116
 20
0.6910747753
 30
0.0
 10
24.4255843769
 20
0.6099336808
 30
0.0
 10
24.4734430089
 20
0.5089850422
 30
0.0
 10
24.5460363266
 20
0.394121825
 30
0.0
 10
24.6427904772
 20
0.2689458715
 30
0.0
 10
24.7416331335
 20
0.1525228668
 30
0.0
 10
24.8391934337
 20
0.0417499406
 30
0.0
 10
24.9625303048
 20
-0.0982424722
 30
0.0
 10
25.0787789835
 20
-0.2351437956
 30
0.0
 10
25.1831017015
 20
-0.372090253
 30
0.0
 10
25.2514380547
 20
-0.4712043309
 30
0.0
 10
25.3103193001
 20
-0.5691376731
 30
0.0
 10
25.3583393069
 20
-0.6660611356
 30
0.0
 10
25.3938805182
 20
-0.7621438681
 30
0.0
 10
25.4150078669
 20
-0.8575852372
 30
0.0
 10
25.4193923225
 20
-0.9524202192
 30
0.0
 10
25.4094821898
 20
-1.0143393304
 30
0.0
 10
25.4013105338
 20
-1.0442568375
 30
0.0
  0
SPLINE
  5
49F
100
AcDbEntity
  8
RACCORDO
100
AcDbSpline
 62
250
  6
CONTINUOUS
 70
0
 71
3
 72
22
 73
18
 74
0
 42
0.0000001
 43
0.0000001
 44
0.0000000001
 40
0.0
 40
0.0
 40
0.0
 40
0.0
 40
0.0056551506
 40
0.0120687616
 40
0.0197755234
 40
0.0290838878
 40
0.0530853329
 40
0.0847223075
 40
0.1241255278
 40
0.1712320828
 40
0.2258710684
 40
0.2877973097
 40
0.3567072947
 40
0.432248054
 40
0.6015928322
 40
0.7922180513
 40
1.0
 40
1.0
 40
1.0
 40
1.0
 10
12.1131266335
 20
21.2875379136
 30
0.0
 10
12.1126274449
 20
21.2886430594
 30
0.0
 10
12.1110611189
 20
21.2907935519
 30
0.0
 10
12.1074993574
 20
21.2931968326
 30
0.0
 10
12.1027637558
 20
21.2949642557
 30
0.0
 10
12.0941110594
 20
21.2966769152
 30
0.0
 10
12.080111095
 20
21.2969893066
 30
0.0
 10
12.0598000599
 20
21.2951888656
 30
0.0
 10
12.0347719095
 20
21.2911342311
 30
0.0
 10
12.0051598295
 20
21.2848405553
 30
0.0
 10
11.9711075147
 20
21.2763159648
 30
0.0
 10
11.9328022922
 20
21.2656001212
 30
0.0
 10
11.8904529522
 20
21.2527457083
 30
0.0
 10
11.8264269522
 20
21.2320384046
 30
0.0
 10
11.7382557626
 20
21.2012231385
 30
0.0
 10
11.6242626897
 20
21.1584531507
 30
0.0
 10
11.5448492234
 20
21.1269405165
 30
0.0
 10
11.5035664219
 20
21.1101797005
 30
0.0
  0
SPLINE
  5
4A0
100
AcDbEntity
  8
RACCORDO
100
AcDbSpline
 62
7
  6
CONTINUOUS
 70
0
 71
3
 72
22
 73
18
 74
0
 42
0.0000001
 43
0.0000001
 44
0.0000000001
 40
0.0
 40
0.0
 40
0.0
 40
0.0
 40
0.005654995
 40
0.0120680808
 40
0.0197741271
 40
0.0290817061
 40
0.0530815962
 40
0.0847172106
 40
0.1241193395
 40
0.1712250991
 40
0.2258635934
 40
0.2877896464
 40
0.3566997379
 40
0.4322408865
 40
0.6015872221
 40
0.7922148907
 40
1.0
 40
1.0
 40
1.0
 40
1.0
 10
16.2977967276
 20
12.0185444221
 30
0.0
 10
16.2972978142
 20
12.0196496601
 30
0.0
 10
16.295732074
 20
12.0218004248
 30
0.0
 10
16.2921709322
 20
12.0242041612
 30
0.0
 10
16.2874359024
 20
12.0259719563
 30
0.0
 10
16.2787839335
 20
12.027685116
 30
0.0
 10
16.2647847025
 20
12.0279980003
 30
0.0
 10
16.2444744182
 20
12.0261980533
 30
0.0
 10
16.2194468146
 20
12.0221438307
 30
0.0
 10
16.1898350813
 20
12.0158504834
 30
0.0
 10
16.1557829098
 20
12.007326131
 30
0.0
 10
16.1174776338
 20
11.9966104347
 30
0.0
 10
16.0751280512
 20
11.9837560784
 30
0.0
 10
16.0111013737
 20
11.9630486994
 30
0.0
 10
15.9229289598
 20
11.93223312
 30
0.0
 10
15.8089340388
 20
11.8894625111
 30
0.0
 10
15.7295191812
 20
11.857949338
 30
0.0
 10
15.6882356124
 20
11.8411882104
 30
0.0
  0
SPLINE
  5
4A1
100
AcDbEntity
  8
RACCORDO
100
AcDbSpline
 62
250
  6
CONTINUOUS
 70
0
 71
3
 72
15
 73
11
 74
0
 42
0.0000001
 43
0.0000001
 44
0.0000000001
 40
0.0
 40
0.0
 40
0.0
 40
0.0
 40
0.1131890155
 40
0.2266695177
 40
0.3418112958
 40
0.4602768586
 40
0.5839057548
 40
0.7144411609
 40
0.8530821716
 40
1.0
 40
1.0
 40
1.0
 40
1.0
 10
16.4726395079
 20
10.4504311331
 30
0.0
 10
16.4532692104
 20
10.4753399572
 30
0.0
 10
16.4111502366
 20
10.5227548077
 30
0.0
 10
16.3380635691
 20
10.5844266438
 30
0.0
 10
16.2549791221
 20
10.6348345733
 30
0.0
 10
16.1620318069
 20
10.6719009519
 30
0.0
 10
16.0598574961
 20
10.6933574576
 30
0.0
 10
15.9498649684
 20
10.6969937679
 30
0.0
 10
15.8344411996
 20
10.6811430482
 30
0.0
 10
15.7579596542
 20
10.6577571897
 30
0.0
 10
15.7197547737
 20
10.6429977509
 30
0.0
  0
SPLINE
  5
4A2
100
AcDbEntity
  8
RACCORDO
100
AcDbSpline
 62
250
  6
CONTINUOUS
 70
0
 71
3
 72
11
 73
7
 74
0
 42
0.0000001
 43
0.0000001
 44
0.0000000001
 40
0.0
 40
0.0
 40
0.0
 40
0.0
 40
0.2124495984
 40
0.4492282037
 40
0.7122875718
 40
1.0
 40
1.0
 40
1.0
 40
1.0
 10
16.3322068728
 20
10.4833383379
 30
0.0
 10
16.3012090984
 20
10.4906003816
 30
0.0
 10
16.2340628591
 20
10.4995613677
 30
0.0
 10
16.1269678005
 20
10.4956957033
 30
0.0
 10
16.0105950928
 20
10.4738563784
 30
0.0
 10
15.9319476677
 20
10.4480190206
 30
0.0
 10
15.8918051089
 20
10.4322855489
 30
0.0
  0
ELLIPSE
  5
4A3
100
AcDbEntity
  8
RACCORDO
100
AcDbEllipse
 62
7
  6
CONTINUOUS
 10
-4.0887625022
 20
12.4835574986
 30
0.0
 11
0.4999935424
 21
0.0035834186
 31
0.0
 40
0.7091455877
 41
2.0951305137
 42
2.7357259081
  0
ELLIPSE
  5
4A4
100
AcDbEntity
  8
RACCORDO
100
AcDbEllipse
 62
7
  6
CONTINUOUS
 10
-15.3387625022
 20
26.2619373018
 30
0.0
 11
0.4999935424
 21
0.0035834186
 31
0.0
 40
0.7091455877
 41
2.0951305137
 42
2.7357259081
  0
ELLIPSE
  5
4A5
100
AcDbEntity
  8
RACCORDO
100
AcDbEllipse
 62
7
  6
CONTINUOUS
 10
4.4587788331
 20
2.7533348287
 30
0.0
 11
-0.1890330931
 21
0.4629858171
 31
0.0
 40
0.3534943301
 41
-2.4280031104
 42
-0.8570544845
  0
ELLIPSE
  5
4A6
100
AcDbEntity
  8
RACCORDO
100
AcDbEllipse
 62
7
  6
CONTINUOUS
 10
4.4587788331
 20
-28.1348629289
 30
0.0
 11
-0.1890127487
 21
0.4629127083
 31
0.0
 40
0.3536009133
 41
-3.1444158803
 42
-2.4278788125
  0
ELLIPSE
  5
4A7
100
AcDbEntity
  8
DRAFT
100
AcDbEllipse
 62
7
  6
CONTINUOUS
 10
16.3927224504
 20
15.4545380798
 30
0.0
 11
14.9995603257
 21
0.1617231153
 31
0.0
 40
0.7101512765
 41
-2.7891317843
 42
-2.7783343266
  0
ELLIPSE
  5
4A8
100
AcDbEntity
  8
DRAFT
100
AcDbEllipse
 62
7
  6
CONTINUOUS
 10
1.4595210706
 20
11.3018265249
 30
0.0
 11
0.9999706884
 21
0.010781541
 31
0.0
 40
0.7101512765
 41
0.5159421757
 42
2.0867385025
  0
ELLIPSE
  5
4A9
100
AcDbEntity
  8
DRAFT
100
AcDbEllipse
 62
7
  6
CONTINUOUS
 10
486.2497819239
 20
212.7116775627
 30
0.0
 11
1308.0130280274
 21
555.8121146796
 31
0.0
 40
0.0105617403
 41
1.9467976639
 42
1.9528525332
  0
ELLIPSE
  5
4AA
100
AcDbEntity
  8
RACCORDO
100
AcDbEllipse
 62
7
  6
CONTINUOUS
 10
-0.1916798789
 20
7.7106255423
 30
0.0
 11
0.4999935424
 21
0.0035834186
 31
0.0
 40
0.7091455877
 41
-1.6986930627
 42
-1.0580976682
  0
ELLIPSE
  5
4AB
100
AcDbEntity
  8
RACCORDO
100
AcDbEllipse
 62
7
  6
CONTINUOUS
 10
-8.3636231336
 20
28.0647718426
 30
0.0
 11
0.427958083
 21
-0.0045343569
 31
0.0
 40
0.7039815063
 41
-1.0397387734
 42
0.0074598284
  0
ELLIPSE
  5
4AC
100
AcDbEntity
  8
RACCORDO
100
AcDbEllipse
 62
7
  6
CONTINUOUS
 10
-4.4356531459
 20
23.2540107453
 30
0.0
 11
0.427958083
 21
-0.0045343569
 31
0.0
 40
0.7039815063
 41
-1.0339210093
 42
0.0074631211
  0
ELLIPSE
  5
4AD
100
AcDbEntity
  8
RACCORDO
100
AcDbEllipse
 62
7
  6
CONTINUOUS
 10
2.8863768664
 20
14.2863920395
 30
0.0
 11
0.427958083
 21
-0.0045343569
 31
0.0
 40
0.7039815063
 41
-1.0397387734
 42
0.0074598284
  0
ELLIPSE
  5
4AE
100
AcDbEntity
  8
RACCORDO
100
AcDbEllipse
 62
7
  6
CONTINUOUS
 10
6.8143468541
 20
9.4756309421
 30
0.0
 11
0.427958083
 21
-0.0045343569
 31
0.0
 40
0.7039815063
 41
-1.0339210093
 42
0.0074631211
  0
ELLIPSE
  5
4AF
100
AcDbEntity
  8
RACCORDO
100
AcDbEllipse
 62
7
  6
CONTINUOUS
 10
-11.4416798789
 20
21.4890053454
 30
0.0
 11
0.4999935424
 21
0.0035834186
 31
0.0
 40
0.7091455877
 41
-1.6986930627
 42
-1.0580976682
  0
ELLIPSE
  5
4B0
100
AcDbEntity
  8
RACCORDO
100
AcDbEllipse
 62
7
  6
CONTINUOUS
 10
-18.2930144791
 20
27.7499117981
 30
0.0
 11
0.2497008669
 21
0.0168853507
 31
0.0
 40
0.7240643587
 41
-2.666917715
 42
-1.101357376
  0
ELLIPSE
  5
4B1
100
AcDbEntity
  8
RACCORDO
100
AcDbEllipse
 62
7
  6
CONTINUOUS
 10
-7.0430144791
 20
13.971531995
 30
0.0
 11
0.2497008669
 21
0.0168853507
 31
0.0
 40
0.7240643587
 41
-2.666917715
 42
-1.101357376
  0
ELLIPSE
  5
4B2
100
AcDbEntity
  8
RACCORDO
100
AcDbEllipse
 62
7
  6
CONTINUOUS
 10
2.4069855209
 20
2.3976929603
 30
0.0
 11
0.2497008669
 21
0.0168853507
 31
0.0
 40
0.7240643587
 41
-2.666917715
 42
-1.9494634693
  0
ELLIPSE
  5
4B3
100
AcDbEntity
  8
RACCORDO
100
AcDbEllipse
 62
7
  6
CONTINUOUS
 10
-15.3387625022
 20
25.2201604345
 30
0.0
 11
0.4994017339
 21
0.0337707014
 31
0.0
 40
0.7240643587
 41
3.0926775922
 42
3.6162675922
  0
ELLIPSE
  5
4B4
100
AcDbEntity
  8
RACCORDO
100
AcDbEllipse
 62
7
  6
CONTINUOUS
 10
-11.4416798789
 20
20.4472284781
 30
0.0
 11
0.4994017339
 21
0.0337707014
 31
0.0
 40
0.7240643587
 41
-2.666917715
 42
-1.1019391524
  0
ELLIPSE
  5
4B5
100
AcDbEntity
  8
RACCORDO
100
AcDbEllipse
 62
7
  6
CONTINUOUS
 10
-4.0887625022
 20
11.4417806313
 30
0.0
 11
0.4994017339
 21
0.0337707014
 31
0.0
 40
0.7240643587
 41
3.0926775922
 42
3.6162675922
  0
ELLIPSE
  5
4B6
100
AcDbEntity
  8
RACCORDO
100
AcDbEllipse
 62
7
  6
CONTINUOUS
 10
-0.1916798789
 20
6.6688486749
 30
0.0
 11
0.4994017339
 21
0.0337707014
 31
0.0
 40
0.7240643587
 41
-2.666917715
 42
-1.1019391524
  0
ELLIPSE
  5
4B7
100
AcDbEntity
  8
ASSI
100
AcDbEllipse
 62
7
  6
CONTINUOUS
 10
-9.7904789294
 20
26.3315822612
 30
0.0
 11
0.9999721834
 21
-0.0105950349
 31
0.0
 40
0.7039815063
 41
1.054656329
 42
2.1018538802
  0
ELLIPSE
  5
4B8
100
AcDbEntity
  8
ASSI
100
AcDbEllipse
 62
7
  6
CONTINUOUS
 10
1.4595210706
 20
12.553202458
 30
0.0
 11
0.9999721834
 21
-0.0105950349
 31
0.0
 40
0.7039815063
 41
1.054656329
 42
2.1018538802
  0
ELLIPSE
  5
4B9
100
AcDbEntity
  8
RACCORDO
100
AcDbEllipse
 62
7
  6
CONTINUOUS
 10
-8.3636231336
 20
29.1056523448
 30
0.0
 11
0.42796465
 21
-0.0030317126
 31
0.0
 40
0.7050320741
 41
-1.0422031273
 42
2.0935717621
  0
ELLIPSE
  5
4BA
100
AcDbEntity
  8
RACCORDO
100
AcDbEllipse
 62
7
  6
CONTINUOUS
 10
-4.4356531459
 20
24.2948912474
 30
0.0
 11
0.42796465
 21
-0.0030317126
 31
0.0
 40
0.7050320741
 41
-1.0363853632
 42
2.0993895262
  0
ELLIPSE
  5
4BB
100
AcDbEntity
  8
RACCORDO
100
AcDbEllipse
 62
7
  6
CONTINUOUS
 10
8.4185458291
 20
4.5158959668
 30
0.0
 11
35.5498687769
 21
15.8558170944
 31
0.0
 40
0.0083065639
 41
1.7025737368
 42
1.7334748896
  0
ELLIPSE
  5
4BC
100
AcDbEntity
  8
RACCORDO
100
AcDbEllipse
 62
7
  6
CONTINUOUS
 10
6.8143468541
 20
10.5165114442
 30
0.0
 11
0.42796465
 21
-0.0030317126
 31
0.0
 40
0.7050320741
 41
-1.0363853632
 42
2.0993895262
  0
ELLIPSE
  5
4BD
100
AcDbEntity
  8
RACCORDO
100
AcDbEllipse
 62
7
  6
CONTINUOUS
 10
2.8863768664
 20
15.3272725416
 30
0.0
 11
0.42796465
 21
-0.0030317126
 31
0.0
 40
0.7050320741
 41
-1.0422031273
 42
2.0935717621
  0
ELLIPSE
  5
4BE
100
AcDbEntity
  8
RACCORDO
100
AcDbEllipse
 62
7
  6
CONTINUOUS
 10
11.4277924842
 20
5.300312681
 30
0.0
 11
0.5578532303
 21
0.9810453341
 31
0.0
 40
0.6868078488
 41
-0.5168669933
 42
-0.3723221523
  0
ELLIPSE
  5
4BF
100
AcDbEntity
  8
RACCORDO
100
AcDbEllipse
 62
7
  6
CONTINUOUS
 10
12.3066433003
 20
-20.9229333165
 30
0.0
 11
-0.7561303673
 21
1.8519051081
 31
0.0
 40
0.3535028648
 41
-3.1348284189
 42
-2.4280000474
  0
ELLIPSE
  5
4C0
100
AcDbEntity
  8
RACCORDO
100
AcDbEllipse
 62
7
  6
CONTINUOUS
 10
-8.4284035395
 20
30.1045833967
 30
0.0
 11
1.0305616595
 21
-0.5930322269
 31
0.0
 40
0.7011680174
 41
8.1449828599
 42
8.9097208631
  0
ELLIPSE
  5
4C1
100
AcDbEntity
  8
RACCORDO
100
AcDbEllipse
 62
7
  6
CONTINUOUS
 10
11.949421593
 20
-14.0702076139
 30
0.0
 11
-0.4542541205
 21
1.6373066656
 31
0.0
 40
0.5441083044
 41
-2.4613061785
 42
-2.0424401217
  0
ELLIPSE
  5
4C2
100
AcDbEntity
  8
RACCORDO
100
AcDbEllipse
 62
7
  6
CONTINUOUS
 10
11.0844946379
 20
6.206261428
 30
0.0
 11
1.0516050168
 21
-0.5814084415
 31
0.0
 40
0.6865200958
 41
-0.5107675381
 42
0.5356445293
  0
ELLIPSE
  5
4C3
100
AcDbEntity
  8
RACCORDO
100
AcDbEllipse
 62
7
  6
CONTINUOUS
 10
3.7336645871
 20
-24.6164819302
 30
0.0
 11
-0.7561303673
 21
1.8519051081
 31
0.0
 40
0.3535028648
 41
-2.6517626353
 42
-2.4280000474
  0
ELLIPSE
  5
4C4
100
AcDbEntity
  8
RACCORDO
100
AcDbEllipse
 62
7
  6
CONTINUOUS
 10
1.4153214735
 20
10.9277553077
 30
0.0
 11
0.2471009741
 21
0.2412419165
 31
0.0
 40
0.4565017896
 41
-0.0405675473
 42
-0.0310746859
  0
ELLIPSE
  5
4C5
100
AcDbEntity
  8
RACCORDO
100
AcDbEllipse
 62
7
  6
CONTINUOUS
 10
-11.0846785265
 20
26.2370662001
 30
0.0
 11
0.2471009741
 21
0.2412419165
 31
0.0
 40
0.4565017896
 41
-0.0405675473
 42
-0.0310746859
  0
ELLIPSE
  5
4C6
100
AcDbEntity
  8
RACCORDO
100
AcDbEllipse
 62
7
  6
CONTINUOUS
 10
-9.1296925957
 20
23.8427072077
 30
0.0
 11
0.2407223687
 21
0.2487268715
 31
0.0
 40
0.4543842591
 41
-0.0628635649
 42
-0.0533707036
  0
ELLIPSE
  5
4C7
100
AcDbEntity
  8
RACCORDO
100
AcDbEllipse
 62
7
  6
CONTINUOUS
 10
-3.8710948845
 20
28.6282630941
 30
0.0
 11
4.9114610509
 21
4.8369474301
 31
0.0
 40
0.0176665793
 41
3.0317005315
 42
3.1241958558
  0
ELLIPSE
  5
4C8
100
AcDbEntity
  8
RACCORDO
100
AcDbEllipse
 62
7
  6
CONTINUOUS
 10
3.7336645871
 20
1.0111137381
 30
0.0
 11
-0.7560629481
 21
1.8516628263
 31
0.0
 40
0.3535911687
 41
-2.4278970691
 42
-2.2041344812
  0
ENDSEC
  0
SECTION
  2
OBJECTS
  0
DICTIONARY
  5
C
100
AcDbDictionary
280
0
281
1
  3
ACAD_GROUP
350
D
  3
ACAD_MLINESTYLE
350
17
  3
ACAD_LAYOUT
350
1A
  3
ACAD_PLOTSETTINGS
350
19
  3
ACAD_PLOTSTYLENAME
350
E
  0
DICTIONARY
  5
D
102
{ACAD_REACTORS
330
C
102
}
100
AcDbDictionary
280
0
281
1
  0
ACDBDICTIONARYWDFLT
  5
E
102
{ACAD_REACTORS
330
C
102
}
100
AcDbDictionary
281
1
  3
Normal
350
F
100
AcDbDictionaryWithDefault
340
F
  0
DICTIONARY
  5
17
102
{ACAD_REACTORS
330
C
102
}
100
AcDbDictionary
280
0
281
1
  3
Standard
350
18
  0
DICTIONARY
  5
19
102
{ACAD_REACTORS
330
C
102
}
100
AcDbDictionary
281
1
  0
DICTIONARY
  5
1A
102
{ACAD_REACTORS
330
C
102
}
100
AcDbDictionary
281
1
  3
Model
350
4C9
  3
Layout1
350
4CA
  0
ACDBPLACEHOLDER
  5
F
102
{ACAD_REACTORS
330
E
102
}
  0
MLINESTYLE
  5
18
102
{ACAD_REACTORS
330
17
102
}
100
AcDbMlineStyle
  2
STANDARD
 70
0
  3

 62
256
 51
90.0
 52
90.0
 71
2
 49
0.5
 62
256
  6
BYLAYER
 49
-0.5
 62
256
  6
BYLAYER
  0
LAYOUT
  5
4C9
102
{ACAD_REACTORS
330
1A
102
}
100
AcDbPlotSettings
  1

  2
none_device
  4
ISO_A4_(297.00_x_210.00_MM)
  6

 40
0.0
 41
0.0
 42
0.0
 43
0.0
 44
297.0
 45
210.0
 46
0.0
 47
0.0
 48
0.0
 49
0.0
140
0.0
141
0.0
142
1.0
143
1.0
 70
1024
 72
1
 73
0
 74
0
  7

 75
0
147
1.0
148
0.0
149
0.0
100
AcDbLayout
  1
Model
 70
0
 71
0
 10
0.0
 20
0.0
 11
297.0
 21
210.0
 12
0.0
 22
0.0
 32
0.0
 14
0.0
 24
0.0
 34
0.0
 15
0.0
 25
0.0
 35
0.0
146
0.0
 13
0.0
 23
0.0
 33
0.0
 16
1.0
 26
0.0
 36
0.0
 17
0.0
 27
1.0
 37
0.0
 76
0
330
21B
345
0
346
0
  0
LAYOUT
  5
4CA
102
{ACAD_REACTORS
330
1A
102
}
100
AcDbPlotSettings
  1

  2
none_device
  4
ISO_A4_(297.00_x_210.00_MM)
  6

 40
0.0
 41
0.0
 42
0.0
 43
0.0
 44
297.0
 45
210.0
 46
0.0
 47
0.0
 48
0.0
 49
0.0
140
0.0
141
0.0
142
1.0
143
1.0
 70
0
 72
1
 73
0
 74
0
  7

 75
0
147
1.0
148
0.0
149
0.0
100
AcDbLayout
  1
Layout1
 70
0
 71
1
 10
0.0
 20
0.0
 11
297.0
 21
210.0
 12
0.0
 22
0.0
 32
0.0
 14
0.0
 24
0.0
 34
0.0
 15
0.0
 25
0.0
 35
0.0
146
0.0
 13
0.0
 23
0.0
 33
0.0
 16
1.0
 26
0.0
 36
0.0
 17
0.0
 27
1.0
 37
0.0
 76
0
330
21C
345
0
346
0
  0
ENDSEC
  0
EOF
