  0
SECTION
  2
HEADER
  9
$ACADVER
  1
AC1024
  9
$DWGCODEPAGE
  3
ANSI_1252
  9
$EXTMAX
 10
297.0
 20
210.0
 30
0.0
  9
$EXTMIN
 10
0.0
 20
0.0
 30
0.0
  9
$LIMMIN
 10
0.0
 20
0.0
  9
$LIMMAX
 10
297.0
 20
210.0
  9
$VIEWCTR
 10
148.5
 20
105.0
  9
$VIEWSIZE
 40
210.0
  9
$CLAYER
  8
0
  9
$LTSCALE
 40
16.335
  9
$CELTYPE
  6
BYLAYER
  9
$DIMSCALE
 40
1.0
  9
$DIMASZ
 40
3.0
  9
$DIMEXO
 40
0.5
  9
$DIMDLI
 40
11.286
  9
$DIMEXE
 40
1.5
  9
$DIMCEN
 40
2.673
  9
$DIMLFAC
 40
1.0
  9
$DIMBLK
  1
_FILLED
  9
$DIMALT
 70
0
  9
$DIMALTF
 40
0.0393700787
  9
$DIMTXT
 40
3.0
  9
$DIMTOL
 70
1
  9
$DIMLIM
 70
0
  9
$DIMTFAC
 40
1.0
  9
$DIMTP
 40
0.01
  9
$DIMTM
 40
0.01
  9
$DIMGAP
 40
0.625
  9
$DIMDSEP
 70
44
  9
$AUNITS
 70
0
  9
$PDMODE
 70
3
  9
$PDSIZE
 40
3.0
  9
$HANDSEED
  5
4B8
  9
$TILEMODE
 70
1
  9
$MEASUREMENT
 70
1
  9
$INSUNITS
 70
4
  0
ENDSEC
  0
SECTION
  2
CLASSES
  0
CLASS
  1
ACDBDICTIONARYWDFLT
  2
AcDbDictionaryWithDefault
  3
AutoCAD 2000
 90
0
 91
1
280
0
281
0
  0
CLASS
  1
ACDBPLACEHOLDER
  2
AcDbPlaceHolder
  3
AutoCAD 2000
 90
0
 91
1
280
0
281
0
  0
CLASS
  1
LAYOUT
  2
AcDbLayout
  3
AutoCAD 2000
 90
0
 91
0
280
0
281
0
  0
ENDSEC
  0
SECTION
  2
TABLES
  0
TABLE
  2
VPORT
  5
8
100
AcDbSymbolTable
 70
2
  0
VPORT
  5
1F4
100
AcDbSymbolTableRecord
100
AcDbViewportTableRecord
  2
*ACTIVE
 70
0
 10
0.0
 20
0.0
 11
1.0
 21
1.0
 12
148.5
 22
105.0
 13
0.0
 23
0.0
 14
1.0
 24
1.0
 15
0.0
 25
0.0
 16
0.0
 26
0.0
 36
1.0
 17
0.0
 27
0.0
 37
0.0
 40
210.0
 41
1.4142857143
 42
50.0
 43
0.0
 44
0.0
 50
0.0
 51
0.0
 71
0
 72
100
 73
1
 74
1
 75
0
 76
0
 77
0
 78
0
  0
ENDTAB
  0
TABLE
  2
LTYPE
  5
5
100
AcDbSymbolTable
 70
6
  0
LTYPE
  5
14
100
AcDbSymbolTableRecord
100
AcDbLinetypeTableRecord
  2
BYBLOCK
 70
0
  3

 72
65
 73
0
 40
0.0
  0
LTYPE
  5
15
100
AcDbSymbolTableRecord
100
AcDbLinetypeTableRecord
  2
BYLAYER
 70
0
  3

 72
65
 73
0
 40
0.0
  0
LTYPE
  5
16
100
AcDbSymbolTableRecord
100
AcDbLinetypeTableRecord
  2
CONTINUOUS
 70
64
  3
Solid line
 72
65
 73
0
 40
0.0
  0
LTYPE
  5
1F5
100
AcDbSymbolTableRecord
100
AcDbLinetypeTableRecord
  2
CENTER
 70
64
  3
____ _ ____ _ ____ _ ____ _ ____ _ ____ _ ____
 72
65
 73
4
 40
0.6
 49
0.375
 74
0
 49
-0.075
 74
0
 49
0.075
 74
0
 49
-0.075
 74
0
  0
LTYPE
  5
1F6
100
AcDbSymbolTableRecord
100
AcDbLinetypeTableRecord
  2
HIDDEN
 70
64
  3
- - - - - - - - - - - - - - - - - - - -
 72
65
 73
2
 40
0.2
 49
0.1
 74
0
 49
-0.1
 74
0
  0
LTYPE
  5
1F7
100
AcDbSymbolTableRecord
100
AcDbLinetypeTableRecord
  2
PHANTOM
 70
64
  3
_____ _ _ _____ _ _ _____ _ _ _____
 72
65
 73
6
 40
0.8
 49
0.45
 74
0
 49
-0.05
 74
0
 49
0.1
 74
0
 49
-0.05
 74
0
 49
0.1
 74
0
 49
-0.05
 74
0
  0
LTYPE
  5
1F8
100
AcDbSymbolTableRecord
100
AcDbLinetypeTableRecord
  2
DOT
 70
64
  3
. . . . . . . . . . . . . . . . . . . .
 72
65
 73
2
 40
0.2
 49
0.1
 74
0
 49
-0.1
 74
0
  0
LTYPE
  5
1F9
100
AcDbSymbolTableRecord
100
AcDbLinetypeTableRecord
  2
DASHED
 70
64
  3
- - - - - - - - - - - - - - - - - - - -
 72
65
 73
2
 40
0.2
 49
0.1
 74
0
 49
-0.1
 74
0
  0
ENDTAB
  0
TABLE
  2
LAYER
  5
2
100
AcDbSymbolTable
 70
36
  0
LAYER
  5
10
100
AcDbSymbolTableRecord
100
AcDbLayerTableRecord
  2
0
 70
0
 62
7
  6
CONTINUOUS
370
-3
390
F
  0
LAYER
  5
1FA
100
AcDbSymbolTableRecord
100
AcDbLayerTableRecord
  2
DEFAULT_1
 70
0
 62
7
  6
CENTER
370
-3
390
F
  0
LAYER
  5
1FB
100
AcDbSymbolTableRecord
100
AcDbLayerTableRecord
  2
DEFAULT_2
 70
0
 62
7
  6
HIDDEN
370
-3
390
F
  0
LAYER
  5
1FC
100
AcDbSymbolTableRecord
100
AcDbLayerTableRecord
  2
DEFAULT_3
 70
0
 62
7
  6
PHANTOM
370
-3
390
F
  0
LAYER
  5
1FD
100
AcDbSymbolTableRecord
100
AcDbLayerTableRecord
  2
ASSI
 70
0
 62
7
  6
CONTINUOUS
370
-3
390
F
  0
LAYER
  5
1FE
100
AcDbSymbolTableRecord
100
AcDbLayerTableRecord
  2
COORDINATE
 70
0
 62
7
  6
CONTINUOUS
370
-3
390
F
  0
LAYER
  5
1FF
100
AcDbSymbolTableRecord
100
AcDbLayerTableRecord
  2
COORD_ORIGINE
 70
0
 62
7
  6
CONTINUOUS
370
-3
390
F
  0
LAYER
  5
200
100
AcDbSymbolTableRecord
100
AcDbLayerTableRecord
  2
COSMETICHE
 70
0
 62
7
  6
CONTINUOUS
370
-3
390
F
  0
LAYER
  5
201
100
AcDbSymbolTableRecord
100
AcDbLayerTableRecord
  2
COSMETICI
 70
0
 62
7
  6
CONTINUOUS
370
-3
390
F
  0
LAYER
  5
202
100
AcDbSymbolTableRecord
100
AcDbLayerTableRecord
  2
CURVE
 70
0
 62
7
  6
CONTINUOUS
370
-3
390
F
  0
LAYER
  5
203
100
AcDbSymbolTableRecord
100
AcDbLayerTableRecord
  2
C_CONTATTI
 70
0
 62
7
  6
CONTINUOUS
370
-3
390
F
  0
LAYER
  5
204
100
AcDbSymbolTableRecord
100
AcDbLayerTableRecord
  2
C_COPERCHIO
 70
0
 62
7
  6
CONTINUOUS
370
-3
390
F
  0
LAYER
  5
205
100
AcDbSymbolTableRecord
100
AcDbLayerTableRecord
  2
C_CORPO
 70
0
 62
7
  6
CONTINUOUS
370
-3
390
F
  0
LAYER
  5
206
100
AcDbSymbolTableRecord
100
AcDbLayerTableRecord
  2
C_OTTURATORE
 70
0
 62
7
  6
CONTINUOUS
370
-3
390
F
  0
LAYER
  5
207
100
AcDbSymbolTableRecord
100
AcDbLayerTableRecord
  2
DRAFT
 70
0
 62
7
  6
CONTINUOUS
370
-3
390
F
  0
LAYER
  5
208
100
AcDbSymbolTableRecord
100
AcDbLayerTableRecord
  2
INTF_1
 70
0
 62
7
  6
CONTINUOUS
370
-3
390
F
  0
LAYER
  5
209
100
AcDbSymbolTableRecord
100
AcDbLayerTableRecord
  2
INTF_11
 70
0
 62
7
  6
CONTINUOUS
370
-3
390
F
  0
LAYER
  5
20A
100
AcDbSymbolTableRecord
100
AcDbLayerTableRecord
  2
INTF_12
 70
0
 62
7
  6
CONTINUOUS
370
-3
390
F
  0
LAYER
  5
20B
100
AcDbSymbolTableRecord
100
AcDbLayerTableRecord
  2
INTF_YELLOW
 70
0
 62
7
  6
CONTINUOUS
370
-3
390
F
  0
LAYER
  5
20C
100
AcDbSymbolTableRecord
100
AcDbLayerTableRecord
  2
NOTE
 70
0
 62
7
  6
CONTINUOUS
370
-3
390
F
  0
LAYER
  5
20D
100
AcDbSymbolTableRecord
100
AcDbLayerTableRecord
  2
PIANI
 70
0
 62
7
  6
CONTINUOUS
370
-3
390
F
  0
LAYER
  5
20E
100
AcDbSymbolTableRecord
100
AcDbLayerTableRecord
  2
PIANI_ORIGINE
 70
0
 62
7
  6
CONTINUOUS
370
-3
390
F
  0
LAYER
  5
20F
100
AcDbSymbolTableRecord
100
AcDbLayerTableRecord
  2
PIANI_SFORMO
 70
0
 62
7
  6
CONTINUOUS
370
-3
390
F
  0
LAYER
  5
210
100
AcDbSymbolTableRecord
100
AcDbLayerTableRecord
  2
PUNTI
 70
0
 62
7
  6
CONTINUOUS
370
-3
390
F
  0
LAYER
  5
211
100
AcDbSymbolTableRecord
100
AcDbLayerTableRecord
  2
RACCORDO
 70
0
 62
7
  6
CONTINUOUS
370
-3
390
F
  0
LAYER
  5
212
100
AcDbSymbolTableRecord
100
AcDbLayerTableRecord
  2
SCRITTE
 70
0
 62
7
  6
CONTINUOUS
370
-3
390
F
  0
LAYER
  5
213
100
AcDbSymbolTableRecord
100
AcDbLayerTableRecord
  2
SIMBOLI
 70
0
 62
7
  6
CONTINUOUS
370
-3
390
F
  0
LAYER
  5
214
100
AcDbSymbolTableRecord
100
AcDbLayerTableRecord
  2
SMUSSO
 70
0
 62
7
  6
CONTINUOUS
370
-3
390
F
  0
LAYER
  5
215
100
AcDbSymbolTableRecord
100
AcDbLayerTableRecord
  2
SUPERFICI
 70
0
 62
7
  6
CONTINUOUS
370
-3
390
F
  0
LAYER
  5
216
100
AcDbSymbolTableRecord
100
AcDbLayerTableRecord
  2
TRASH
 70
0
 62
7
  6
CONTINUOUS
370
-3
390
F
  0
LAYER
  5
217
100
AcDbSymbolTableRecord
100
AcDbLayerTableRecord
  2
XSEC_DATUMS
 70
0
 62
7
  6
CONTINUOUS
370
-3
390
F
  0
ENDTAB
  0
TABLE
  2
STYLE
  5
3
100
AcDbSymbolTable
 70
1
  0
STYLE
  5
11
100
AcDbSymbolTableRecord
100
AcDbTextStyleTableRecord
  2
STANDARD
 70
0
 40
0.0
 41
0.8
 50
0.0
 71
0
 42
0.2
  3
txt
  4

  0
STYLE
  5
218
100
AcDbSymbolTableRecord
100
AcDbTextStyleTableRecord
  2
TEXTSTYLE_1
 70
0
 40
0.0
 41
0.8
 50
0.0
 71
0
 42
0.2
  3
gdt
  4

  0
ENDTAB
  0
TABLE
  2
VIEW
  5
6
100
AcDbSymbolTable
 70
0
  0
ENDTAB
  0
TABLE
  2
UCS
  5
7
100
AcDbSymbolTable
 70
0
  0
ENDTAB
  0
TABLE
  2
APPID
  5
9
100
AcDbSymbolTable
 70
1
  0
APPID
  5
219
100
AcDbSymbolTableRecord
100
AcDbRegAppTableRecord
  2
ACAD
 70
0
  0
ENDTAB
  0
TABLE
  2
BLOCK_RECORD
  5
1
100
AcDbSymbolTable
 70
0
  0
BLOCK_RECORD
  5
21A
100
AcDbSymbolTableRecord
100
AcDbBlockTableRecord
  2
*Model_Space
  0
BLOCK_RECORD
  5
21B
100
AcDbSymbolTableRecord
100
AcDbBlockTableRecord
  2
*Paper_Space
  0
BLOCK_RECORD
  5
21C
100
AcDbSymbolTableRecord
100
AcDbBlockTableRecord
  2
_FILLED
  0
ENDTAB
  0
TABLE
  2
DIMSTYLE
  5
A
100
AcDbSymbolTable
 70
1
100
AcDbDimStyleTable
 71
0
  0
DIMSTYLE
105
21D
100
AcDbSymbolTableRecord
100
AcDbDimStyleTableRecord
  2
STANDARD
 70
0
  3

  4

 40
1.0
 41
3.0
 42
0.5
 43
0.38
 44
1.5
 45
0.0
 46
0.0
 47
0.01
 48
0.01
140
3.0
141
0.09
142
0.0
143
25.4
144
1.0
145
0.0
146
1.0
147
0.625
 71
1
 72
0
 73
0
 74
0
 75
0
 76
0
 77
1
 78
8
 79
2
170
0
171
1
172
0
173
0
174
0
175
0
176
0
177
0
178
0
270
2
179
2
271
2
272
2
273
2
274
2
275
0
280
0
281
0
282
0
283
1
284
8
285
0
286
0
287
3
288
0
340
11
278
44
341
21C
342
21C
343
21C
344
21C
  0
ENDTAB
  0
ENDSEC
  0
SECTION
  2
BLOCKS
  0
BLOCK
  5
20
100
AcDbEntity
  8
0
100
AcDbBlockBegin
  2
*Model_Space
 70
0
 10
0.0
 20
0.0
 30
0.0
  3
*Model_Space
  1

  0
ENDBLK
  5
21
100
AcDbEntity
  8
0
100
AcDbBlockEnd
  0
BLOCK
  5
1C
100
AcDbEntity
  8
0
100
AcDbBlockBegin
  2
*Paper_Space
 70
0
 10
0.0
 20
0.0
 30
0.0
  3
*Paper_Space
  1

  0
ENDBLK
  5
1D
100
AcDbEntity
  8
0
100
AcDbBlockEnd
  0
BLOCK
  5
21E
100
AcDbEntity
  8
0
100
AcDbBlockBegin
  2
_FILLED
 70
64
 10
0.0
 20
0.0
  3
_FILLED
  1

  0
SOLID
  5
21F
100
AcDbEntity
  8
0
  6
BYBLOCK
 62
0
100
AcDbTrace
 10
0.0
 20
0.0
 11
-1.0
 21
0.3166666667
 12
-1.0
 22
-0.3166666667
 13
-1.0
 23
-0.3166666667
  0
ENDBLK
  5
220
100
AcDbEntity
  8
0
  6
BYBLOCK
 62
0
100
AcDbBlockEnd
  0
ENDSEC
  0
SECTION
  2
ENTITIES
  0
LWPOLYLINE
  5
221
100
AcDbEntity
  8
C_COPERCHIO
100
AcDbPolyline
 62
250
  6
CONTINUOUS
 90
13
 70
0
 10
-21.6891768097
 20
-20.9327592557
 10
-21.7452227669
 20
-20.9004939067
 10
-21.7970413996
 20
-20.8620746334
 10
-21.8450594016
 20
-20.8173456239
 10
-21.8890428841
 20
-20.7665167614
 10
-21.9287602334
 20
-20.7098458521
 10
-21.9640098664
 20
-20.6476235945
 10
-21.9946137745
 20
-20.5801685168
 10
-22.0204238414
 20
-20.5078094008
 10
-22.0413191793
 20
-20.4308926637
 10
-22.0571964636
 20
-20.3497939472
 10
-22.0679727648
 20
-20.2649184488
 10
-22.073593243
 20
-20.1766857816
  0
LWPOLYLINE
  5
222
100
AcDbEntity
  8
C_COPERCHIO
100
AcDbPolyline
 62
250
  6
CONTINUOUS
 90
4
 70
0
 10
-21.2991405707
 20
17.0356994489
 10
-21.2273104556
 20
17.0931302562
 10
-21.1544845334
 20
17.1447680357
 10
-21.081027233
 20
17.1903582419
  0
LWPOLYLINE
  5
223
100
AcDbEntity
  8
C_COPERCHIO
100
AcDbPolyline
 62
7
  6
CONTINUOUS
 90
10
 70
0
 10
-17.3366374392
 20
20.562903843
 10
-17.3527040509
 20
20.551308435
 10
-17.3665854335
 20
20.5406790565
 10
-17.3783846192
 20
20.531120536
 10
-17.3882743037
 20
20.5227800205
 10
-17.3963170044
 20
20.5156388298
 10
-17.4024256817
 20
20.5095524992
 10
-17.4066817764
 20
20.5045646723
 10
-17.4091900868
 20
20.5007218034
 10
-17.4098709502
 20
20.4982041848
  0
LWPOLYLINE
  5
224
100
AcDbEntity
  8
C_COPERCHIO
100
AcDbPolyline
 62
250
  6
CONTINUOUS
 90
13
 70
0
 10
-17.1629459227
 20
21.1834917776
 10
-17.1852532284
 20
21.1701258806
 10
-17.2072999179
 20
21.1534062312
 10
-17.2287158686
 20
21.1335411961
 10
-17.2491730535
 20
21.1107469274
 10
-17.2682533945
 20
21.0853955108
 10
-17.2854926871
 20
21.0580602264
 10
-17.3005690122
 20
21.0292670525
 10
-17.3132656305
 20
20.9994476325
 10
-17.3233651225
 20
20.9691160146
 10
-17.3306988445
 20
20.9387882803
 10
-17.3351469991
 20
20.9089730432
 10
-17.3366374392
 20
20.8801726434
  0
LINE
  5
225
100
AcDbEntity
  8
C_COPERCHIO
100
AcDbLine
 62
7
  6
CONTINUOUS
 10
-17.278566699
 20
21.1885812088
 11
-15.7110752498
 21
22.0342788066
  0
LINE
  5
226
100
AcDbEntity
  8
C_COPERCHIO
100
AcDbLine
 62
250
  6
CONTINUOUS
 10
-17.1629459227
 20
21.1834917776
 11
-15.5966951765
 21
22.0285199876
  0
LINE
  5
227
100
AcDbEntity
  8
C_COPERCHIO
100
AcDbLine
 62
7
  6
CONTINUOUS
 10
-15.711075927
 20
22.0342784412
 11
-15.7058691158
 21
22.0368822126
  0
LWPOLYLINE
  5
228
100
AcDbEntity
  8
C_COPERCHIO
100
AcDbPolyline
 62
250
  6
CONTINUOUS
 90
7
 70
0
 10
-17.278566699
 20
21.1885812088
 10
-17.2717665258
 20
21.1919052185
 10
-17.2524339404
 20
21.1980832105
 10
-17.2315180153
 20
21.2003355344
 10
-17.2093764891
 20
21.1986236672
 10
-17.1863880629
 20
21.1929768881
 10
-17.1629459227
 20
21.1834917776
  0
LINE
  5
229
100
AcDbEntity
  8
C_COPERCHIO
100
AcDbLine
 62
7
  6
CONTINUOUS
 10
-15.7058678637
 20
22.0368828879
 11
-15.1618739701
 21
22.2881172953
  0
LINE
  5
22A
100
AcDbEntity
  8
C_COPERCHIO
100
AcDbLine
 62
250
  6
CONTINUOUS
 10
-15.5966951765
 20
22.0285199876
 11
-15.0539691138
 21
22.2791688687
  0
LWPOLYLINE
  5
22B
100
AcDbEntity
  8
C_COPERCHIO
100
AcDbPolyline
 62
7
  6
CONTINUOUS
 90
3
 70
0
 10
-0.1263195355
 20
-26.7678738617
 10
-0.1218581504
 20
-26.7673218003
 10
-0.1191560718
 20
-26.7678354441
  0
LWPOLYLINE
  5
22C
100
AcDbEntity
  8
C_COPERCHIO
100
AcDbPolyline
 62
7
  6
CONTINUOUS
 90
12
 70
0
 10
-6.8563118136
 20
-28.3491897048
 10
-6.8074807274
 20
-28.3718595711
 10
-6.7310058604
 20
-28.4005115466
 10
-6.6514690152
 20
-28.4222826866
 10
-6.5692949871
 20
-28.4369297672
 10
-6.4846560083
 20
-28.4442408164
 10
-6.3980211319
 20
-28.4439704502
 10
-6.3098991168
 20
-28.435952829
 10
-6.2203708065
 20
-28.4199754969
 10
-6.1296905863
 20
-28.3957801012
 10
-6.0384359205
 20
-28.3632538675
 10
-6.0210281263
 20
-28.3561063066
  0
LINE
  5
22D
100
AcDbEntity
  8
C_COPERCHIO
100
AcDbLine
 62
7
  6
CONTINUOUS
 10
-21.6891768097
 20
-20.9327592557
 11
-6.855278445
 21
-28.349708438
  0
LINE
  5
22E
100
AcDbEntity
  8
C_COPERCHIO
100
AcDbLine
 62
250
  6
CONTINUOUS
 10
-22.073593243
 20
-20.1766857816
 11
-7.2487471654
 21
-27.5891088204
  0
LINE
  5
22F
100
AcDbEntity
  8
C_COPERCHIO
100
AcDbLine
 62
7
  6
CONTINUOUS
 10
-2.6194386267
 20
-28.5153003049
 11
-3.9073459784
 21
-27.8713466291
  0
LINE
  5
230
100
AcDbEntity
  8
C_COPERCHIO
100
AcDbLine
 62
250
  6
CONTINUOUS
 10
-2.6844119231
 20
-28.3800818548
 11
-3.9723192748
 21
-27.736128179
  0
LINE
  5
231
100
AcDbEntity
  8
C_COPERCHIO
100
AcDbLine
 62
7
  6
CONTINUOUS
 10
-6.8563547919
 20
-28.3491688571
 11
-6.8552786505
 21
-28.3497083353
  0
LWPOLYLINE
  5
232
100
AcDbEntity
  8
C_COPERCHIO
100
AcDbPolyline
 62
250
  6
CONTINUOUS
 90
6
 70
0
 10
-16.8321788399
 20
19.7240171225
 10
-16.8485834576
 20
19.6946428219
 10
-16.8676578895
 20
19.667607906
 10
-16.8888604721
 20
19.6436800945
 10
-16.9115891083
 20
19.6235388738
 10
-16.935198365
 20
19.6077562007
  0
LWPOLYLINE
  5
233
100
AcDbEntity
  8
C_COPERCHIO
100
AcDbPolyline
 62
7
  6
CONTINUOUS
 90
13
 70
0
 10
-16.9471934764
 20
19.613585796
 10
-16.9293135242
 20
19.6255680385
 10
-16.9123458717
 20
19.639581347
 10
-16.8962905188
 20
19.6556257216
 10
-16.8809150127
 20
19.6740292723
 10
-16.8664518063
 20
19.6944638891
 10
-16.8535982577
 20
19.7159452421
 10
-16.8424417556
 20
19.7385216368
 10
-16.8328949114
 20
19.7621447676
 10
-16.8253929172
 20
19.7856853882
 10
-16.8200808372
 20
19.808767083
 10
-16.8168136073
 20
19.8317662676
 10
-16.8155912275
 20
19.8546829419
  0
LWPOLYLINE
  5
234
100
AcDbEntity
  8
C_COPERCHIO
100
AcDbPolyline
 62
250
  6
CONTINUOUS
 90
12
 70
0
 10
-15.875038571
 20
20.5395381018
 10
-15.8973458768
 20
20.5261722047
 10
-15.9193925663
 20
20.5094525554
 10
-15.9408085169
 20
20.4895875203
 10
-15.9612657018
 20
20.4667932516
 10
-15.9803460428
 20
20.441441835
 10
-15.9975853355
 20
20.4141065506
 10
-16.0126616605
 20
20.3853133767
 10
-16.0253582788
 20
20.3554939567
 10
-16.0354577708
 20
20.3251623388
 10
-16.0427914928
 20
20.2948346045
 10
-16.0472396475
 20
20.2650193674
  0
LWPOLYLINE
  5
235
100
AcDbEntity
  8
C_COPERCHIO
100
AcDbPolyline
 62
7
  6
CONTINUOUS
 90
19
 70
0
 10
-21.3141891967
 20
17.1992260576
 10
-21.3380904711
 20
17.1849629257
 10
-21.4287708845
 20
17.1247521469
 10
-21.5158938623
 20
17.0572714344
 10
-21.5992950465
 20
16.9829695864
 10
-21.6788054076
 20
16.9023040644
 10
-21.7540852231
 20
16.8158368253
 10
-21.8249364137
 20
16.7239960268
 10
-21.8911010761
 20
16.6272323354
 10
-21.952081611
 20
16.526327779
 10
-22.0076447109
 20
16.4217751441
 10
-22.0575130671
 20
16.3140449624
 10
-22.1012498952
 20
16.2040354298
 10
-22.1386298442
 20
16.0922610364
 10
-22.1693854156
 20
15.9792013854
 10
-22.1932049123
 20
15.8656457488
 10
-22.2098383973
 20
15.7520964366
 10
-22.2190433766
 20
15.6389228331
 10
-22.22006748
 20
15.6134549849
  0
LWPOLYLINE
  5
236
100
AcDbEntity
  8
C_COPERCHIO
100
AcDbPolyline
 62
250
  6
CONTINUOUS
 90
7
 70
0
 10
-13.5522842065
 20
21.3118530391
 10
-13.5317831905
 20
21.3239098368
 10
-13.5143875142
 20
21.3372586882
 10
-13.5004482715
 20
21.3517050176
 10
-13.4902509183
 20
21.3670635258
 10
-13.4840804058
 20
21.3830586105
 10
-13.4821191565
 20
21.3986853354
  0
LINE
  5
237
100
AcDbEntity
  8
C_COPERCHIO
100
AcDbLine
 62
7
  6
CONTINUOUS
 10
-21.3143812791
 20
17.1991256359
 11
-16.8183852187
 21
19.8207031408
  0
LINE
  5
238
100
AcDbEntity
  8
C_COPERCHIO
100
AcDbLine
 62
250
  6
CONTINUOUS
 10
-21.081027233
 20
17.1903582419
 11
-16.935198365
 21
19.6077562007
  0
LINE
  5
239
100
AcDbEntity
  8
C_COPERCHIO
100
AcDbLine
 62
250
  6
CONTINUOUS
 10
-14.2531384444
 20
21.3567416216
 11
-15.875038571
 21
20.5395381018
  0
LINE
  5
23A
100
AcDbEntity
  8
C_COPERCHIO
100
AcDbLine
 62
250
  6
CONTINUOUS
 10
-14.076388673
 20
21.0518933599
 11
-15.6982887996
 21
20.2346898401
  0
LINE
  5
23B
100
AcDbEntity
  8
C_COPERCHIO
100
AcDbLine
 62
250
  6
CONTINUOUS
 10
-13.7290339778
 20
21.6167013007
 11
-14.2531384444
 21
21.3567416216
  0
LINE
  5
23C
100
AcDbEntity
  8
C_COPERCHIO
100
AcDbLine
 62
250
  6
CONTINUOUS
 10
-13.5522842065
 20
21.3118530391
 11
-14.076388673
 21
21.0518933599
  0
LWPOLYLINE
  5
23D
100
AcDbEntity
  8
C_COPERCHIO
100
AcDbPolyline
 62
250
  6
CONTINUOUS
 90
8
 70
0
 10
-21.314194161
 20
17.19923459
 10
-21.2887898367
 20
17.2114304114
 10
-21.2582827765
 20
17.2203223327
 10
-21.2256334299
 20
17.2242554163
 10
-21.1911990948
 20
17.2231866202
 10
-21.1553566029
 20
17.2171276408
 10
-21.1184981959
 20
17.2061447845
 10
-21.081027233
 20
17.1903582419
  0
LWPOLYLINE
  5
23E
100
AcDbEntity
  8
C_COPERCHIO
100
AcDbPolyline
 62
250
  6
CONTINUOUS
 90
13
 70
0
 10
-15.6982887996
 20
20.2346898401
 10
-15.7224023952
 20
20.2244393322
 10
-15.749100098
 20
20.215741494
 10
-15.7779927566
 20
20.2087718727
 10
-15.8087097732
 20
20.2036731961
 10
-15.8406999426
 20
20.2005879398
 10
-15.8732204897
 20
20.1996089207
 10
-15.9056514589
 20
20.2007480803
 10
-15.937512159
 20
20.203981812
 10
-15.9682542129
 20
20.209253347
 10
-15.9973564468
 20
20.2164707419
 10
-16.0243326891
 20
20.2255107084
 10
-16.0487300876
 20
20.2362189675
  0
LWPOLYLINE
  5
23F
100
AcDbEntity
  8
C_COPERCHIO
100
AcDbPolyline
 62
7
  6
CONTINUOUS
 90
3
 70
0
 10
-15.7058691158
 20
22.0368822126
 10
-15.6850749723
 20
22.0437087017
 10
-15.664335974
 20
22.045864879
  0
LWPOLYLINE
  5
240
100
AcDbEntity
  8
C_COPERCHIO
100
AcDbPolyline
 62
250
  6
CONTINUOUS
 90
6
 70
0
 10
-15.1618739701
 20
22.2881172953
 10
-15.1411997927
 20
22.294888971
 10
-15.1206505766
 20
22.2969579404
 10
-15.0990136318
 20
22.2949937825
 10
-15.0766590291
 20
22.2890300916
 10
-15.0539691138
 20
22.2791688687
  0
LINE
  5
241
100
AcDbEntity
  8
C_COPERCHIO
100
AcDbLine
 62
7
  6
CONTINUOUS
 10
-0.187966042
 20
-26.7620353282
 11
-0.7120705086
 21
-26.6562168087
  0
LINE
  5
242
100
AcDbEntity
  8
C_COPERCHIO
100
AcDbLine
 62
250
  6
CONTINUOUS
 10
-1.8056573693
 20
-26.6405363073
 11
-1.7912445725
 21
-26.6476206765
  0
LINE
  5
243
100
AcDbEntity
  8
C_COPERCHIO
100
AcDbLine
 62
250
  6
CONTINUOUS
 10
-2.6844119231
 20
-28.0628130544
 11
-3.8882766294
 21
-27.4608807013
  0
LINE
  5
244
100
AcDbEntity
  8
C_COPERCHIO
100
AcDbLine
 62
250
  6
CONTINUOUS
 10
-2.4429304666
 20
-27.9076654351
 11
-3.5883195393
 21
-27.3349708987
  0
LINE
  5
245
100
AcDbEntity
  8
C_COPERCHIO
100
AcDbLine
 62
7
  6
CONTINUOUS
 10
-2.4399556792
 20
-26.8529343952
 11
-1.7912445725
 21
-27.1772899485
  0
LINE
  5
246
100
AcDbEntity
  8
C_COPERCHIO
100
AcDbLine
 62
250
  6
CONTINUOUS
 10
-1.8642102684
 20
-26.6112598578
 11
-1.8056573693
 21
-26.6405363073
  0
LINE
  5
247
100
AcDbEntity
  8
C_COPERCHIO
100
AcDbLine
 62
250
  6
CONTINUOUS
 10
-0.1263195355
 20
-26.7678738617
 11
-0.7120705086
 21
-26.4749983752
  0
LINE
  5
248
100
AcDbEntity
  8
C_COPERCHIO
100
AcDbLine
 62
7
  6
CONTINUOUS
 10
-0.1191560718
 20
-26.7678354441
 11
-0.7120705086
 21
-26.4713782257
  0
LWPOLYLINE
  5
249
100
AcDbEntity
  8
C_COPERCHIO
100
AcDbPolyline
 62
250
  6
CONTINUOUS
 90
8
 70
0
 10
-3.9073459784
 20
-27.8713466291
 10
-3.9211745227
 20
-27.8628710099
 10
-3.9362508477
 20
-27.8491541611
 10
-3.9489474661
 20
-27.8320313594
 10
-3.9590469581
 20
-27.8117992335
 10
-3.96638068
 20
-27.7888052212
 10
-3.9708288347
 20
-27.7634381387
 10
-3.9723192748
 20
-27.736128179
  0
LWPOLYLINE
  5
24A
100
AcDbEntity
  8
C_COPERCHIO
100
AcDbPolyline
 62
250
  6
CONTINUOUS
 90
8
 70
0
 10
-2.6195941138
 20
-28.515222381
 10
-2.633267171
 20
-28.5068246857
 10
-2.6483434961
 20
-28.4931078369
 10
-2.6610401144
 20
-28.4759850352
 10
-2.6711396064
 20
-28.4557529093
 10
-2.6784733284
 20
-28.432758897
 10
-2.682921483
 20
-28.4073918145
 10
-2.6844119231
 20
-28.3800818548
  0
LWPOLYLINE
  5
24B
100
AcDbEntity
  8
C_COPERCHIO
100
AcDbPolyline
 62
250
  6
CONTINUOUS
 90
7
 70
0
 10
-22.2200557139
 20
-19.9990781664
 10
-22.2153417232
 20
-20.0305853899
 10
-22.2022866978
 20
-20.0635506551
 10
-22.1811672375
 20
-20.0951555331
 10
-22.1523367343
 20
-20.1248711792
 10
-22.1162776092
 20
-20.1522003613
 10
-22.0735932398
 20
-20.1766857799
  0
LWPOLYLINE
  5
24C
100
AcDbEntity
  8
C_COPERCHIO
100
AcDbPolyline
 62
7
  6
CONTINUOUS
 90
14
 70
0
 10
-22.2200464988
 20
-19.9990778562
 10
-22.2186687516
 20
-20.0303170638
 10
-22.2089214132
 20
-20.1369273173
 10
-22.1917083407
 20
-20.2388612332
 10
-22.1672956291
 20
-20.3357286092
 10
-22.1359306148
 20
-20.42743371
 10
-22.0977563095
 20
-20.5139358651
 10
-22.0530103426
 20
-20.5948737443
 10
-22.0019924315
 20
-20.6699036379
 10
-21.9449512563
 20
-20.7387519276
 10
-21.8822948473
 20
-20.8009565926
 10
-21.8145478178
 20
-20.8560959298
 10
-21.7422706589
 20
-20.9038373819
 10
-21.6882071419
 20
-20.933242546
  0
LWPOLYLINE
  5
24D
100
AcDbEntity
  8
C_COPERCHIO
100
AcDbPolyline
 62
250
  6
CONTINUOUS
 90
10
 70
0
 10
-22.073593243
 20
-20.1766857816
 10
-22.189686436
 20
-16.2810873028
 10
-22.2767649692
 20
-12.3693088945
 10
-22.3348214378
 20
-8.4416775118
 10
-22.3638509056
 20
-4.4985214526
 10
-22.3638509055
 20
-0.5401702122
 10
-22.3348214377
 20
3.4330455454
 10
-22.2767649691
 20
7.420793858
 10
-22.189686436
 20
11.4227414915
 10
-22.073593243
 20
15.438554086
  0
LWPOLYLINE
  5
24E
100
AcDbEntity
  8
C_COPERCHIO
100
AcDbPolyline
 62
250
  6
CONTINUOUS
 90
8
 70
0
 10
-22.2200801891
 20
15.6134553916
 10
-22.2201008182
 20
15.6077827456
 10
-22.2153275384
 20
15.5770801225
 10
-22.2022717481
 20
15.5467171385
 10
-22.1811519019
 20
15.5172018387
 10
-22.1523213849
 20
15.4890280845
 10
-22.1162626003
 20
15.4626672897
 10
-22.0735788974
 20
15.4385605332
  0
LWPOLYLINE
  5
24F
100
AcDbEntity
  8
C_COPERCHIO
100
AcDbPolyline
 62
7
  6
CONTINUOUS
 90
10
 70
0
 10
-22.220075661
 20
15.6135976443
 10
-22.3346956633
 20
11.6556284896
 10
-22.4224950277
 20
7.6365669856
 10
-22.4810254028
 20
3.6317817418
 10
-22.5102790449
 20
-0.3583447774
 10
-22.5102542562
 20
-4.3334961293
 10
-22.4809504841
 20
-8.2933805958
 10
-22.4223683636
 20
-12.2376825934
 10
-22.3345145728
 20
-16.1660267372
 10
-22.2200570411
 20
-19.9990388284
  0
LWPOLYLINE
  5
250
100
AcDbEntity
  8
C_COPERCHIO
100
AcDbPolyline
 62
250
  6
CONTINUOUS
 90
19
 70
0
 10
-22.073593243
 20
15.438554086
 10
-22.0679731938
 20
15.5325376646
 10
-22.0571976148
 20
15.6284394422
 10
-22.0413210355
 20
15.7257851104
 10
-22.0204257906
 20
15.8240908441
 10
-21.9946150744
 20
15.9228735027
 10
-21.96401074
 20
16.0216531048
 10
-21.9287620026
 20
16.1199522887
 10
-21.8890465047
 20
16.2172750676
 10
-21.8450647491
 20
16.3131179521
 10
-21.797047727
 20
16.4069935762
 10
-21.7452295877
 20
16.4984560122
 10
-21.6898449362
 20
16.5870774032
 10
-21.631159078
 20
16.6724348357
 10
-21.569473177
 20
16.7540897189
 10
-21.5050992462
 20
16.8316149328
 10
-21.4383688913
 20
16.9046211288
 10
-21.3696084043
 20
16.9727598086
 10
-21.2991405707
 20
17.0356994489
  0
LINE
  5
251
100
AcDbEntity
  8
C_COPERCHIO
100
AcDbLine
 62
7
  6
CONTINUOUS
 10
-13.5522842065
 20
20.724090995
 11
-14.076388673
 21
20.0755464129
  0
LWPOLYLINE
  5
252
100
AcDbEntity
  8
C_COPERCHIO
100
AcDbPolyline
 62
250
  6
CONTINUOUS
 90
13
 70
0
 10
-11.5624025893
 20
18.8248563558
 10
-11.5806344019
 20
18.8139013756
 10
-11.5985198487
 20
18.8002526056
 10
-11.6157596578
 20
18.7841384264
 10
-11.6320653611
 20
18.7658284717
 10
-11.6471641201
 20
18.7456291161
 10
-11.6608032921
 20
18.7238783493
 10
-11.6727546571
 20
18.7009401199
 10
-11.6828182365
 20
18.6771982464
 10
-11.6908256396
 20
18.6530499941
 10
-11.696642881
 20
18.6288994282
 10
-11.7001726227
 20
18.6051506527
 10
-11.7013558025
 20
18.5822010483
  0
LWPOLYLINE
  5
253
100
AcDbEntity
  8
C_COPERCHIO
100
AcDbPolyline
 62
250
  6
CONTINUOUS
 90
6
 70
0
 10
-11.566072495
 20
19.0395769415
 10
-11.5812468803
 20
19.0310495805
 10
-11.5952014751
 20
19.0215807831
 10
-11.6079362793
 20
19.0111705492
 10
-11.6197646549
 20
18.9996911242
 10
-11.63037324
 20
18.9872702628
  0
LWPOLYLINE
  5
254
100
AcDbEntity
  8
C_COPERCHIO
100
AcDbPolyline
 62
7
  6
CONTINUOUS
 90
11
 70
0
 10
-11.6585876744
 20
19.0436381666
 10
-11.6677348274
 20
19.0385746466
 10
-11.7046648367
 20
19.0151981511
 10
-11.7377075465
 20
18.9892725181
 10
-11.7668139031
 20
18.9608378363
 10
-11.7918370372
 20
18.9300053918
 10
-11.8125866509
 20
18.8969207898
 10
-11.8287459902
 20
18.8619460994
 10
-11.8399918776
 20
18.8258569023
 10
-11.8462789672
 20
18.7893236495
 10
-11.8477996505
 20
18.7602859277
  0
LINE
  5
255
100
AcDbEntity
  8
C_COPERCHIO
100
AcDbLine
 62
7
  6
CONTINUOUS
 10
-14.076388673
 20
19.4497133879
 11
-15.2919219979
 21
18.7861180172
  0
LINE
  5
256
100
AcDbEntity
  8
C_COPERCHIO
100
AcDbLine
 62
7
  6
CONTINUOUS
 10
-11.304131807
 20
19.2348755461
 11
-11.6585691146
 21
19.0436484872
  0
LINE
  5
257
100
AcDbEntity
  8
C_COPERCHIO
100
AcDbLine
 62
250
  6
CONTINUOUS
 10
-11.2126277484
 20
19.2302684909
 11
-11.566072495
 21
19.0395769415
  0
LINE
  5
258
100
AcDbEntity
  8
C_COPERCHIO
100
AcDbLine
 62
7
  6
CONTINUOUS
 10
-11.2999668998
 20
19.2369582709
 11
-11.3041323487
 21
19.2348752538
  0
LINE
  5
259
100
AcDbEntity
  8
C_COPERCHIO
100
AcDbLine
 62
7
  6
CONTINUOUS
 10
-5.408160246
 20
21.5240000738
 11
-10.0105246812
 21
19.3212072089
  0
LINE
  5
25A
100
AcDbEntity
  8
C_COPERCHIO
100
AcDbLine
 62
7
  6
CONTINUOUS
 10
-6.2346594386
 20
22.4608281812
 11
-12.6570626405
 21
19.4320406232
  0
LINE
  5
25B
100
AcDbEntity
  8
C_COPERCHIO
100
AcDbLine
 62
7
  6
CONTINUOUS
 10
-5.8968032513
 20
21.732318376
 11
-11.2999658981
 21
19.2369588111
  0
LINE
  5
25C
100
AcDbEntity
  8
C_COPERCHIO
100
AcDbLine
 62
250
  6
CONTINUOUS
 10
-5.8104793672
 20
21.7251596344
 11
-11.2126277484
 21
19.2302684909
  0
LINE
  5
25D
100
AcDbEntity
  8
C_COPERCHIO
100
AcDbLine
 62
250
  6
CONTINUOUS
 10
-5.7871105981
 20
21.7351770502
 11
-5.8104793672
 21
21.7251596344
  0
LINE
  5
25E
100
AcDbEntity
  8
C_COPERCHIO
100
AcDbLine
 62
250
  6
CONTINUOUS
 10
-5.7638712308
 20
21.7432824513
 11
-5.7871105981
 21
21.7351770502
  0
LWPOLYLINE
  5
25F
100
AcDbEntity
  8
C_COPERCHIO
100
AcDbPolyline
 62
250
  6
CONTINUOUS
 90
6
 70
0
 10
-20.4391532559
 20
-2.3576824086
 10
-20.4345988064
 20
-1.0121574176
 10
-20.4266421053
 20
0.3350449322
 10
-20.4152832294
 20
1.6839116765
 10
-20.4005222878
 20
3.0344298349
 10
-20.3823594226
 20
4.3865864111
  0
LWPOLYLINE
  5
260
100
AcDbEntity
  8
C_COPERCHIO
100
AcDbPolyline
 62
250
  6
CONTINUOUS
 90
7
 70
0
 10
-20.0142700452
 20
-2.0982411218
 10
-20.0095002876
 20
-0.8399611698
 10
-20.0017547693
 20
0.4197471559
 10
-19.9910334903
 20
1.6808838552
 10
-19.9773364507
 20
2.9434489282
 10
-19.9606636504
 20
4.2074423748
 10
-19.9421124661
 20
5.4021900983
  0
LINE
  5
261
100
AcDbEntity
  8
C_COPERCHIO
100
AcDbLine
 62
250
  6
CONTINUOUS
 10
-20.3823594226
 20
4.3865864111
 11
-20.3607948087
 21
5.7403683931
  0
LWPOLYLINE
  5
262
100
AcDbEntity
  8
C_COPERCHIO
100
AcDbPolyline
 62
250
  6
CONTINUOUS
 90
4
 70
0
 10
-16.8031864269
 20
19.8176459908
 10
-16.8091533934
 20
19.7864045254
 10
-16.818909884
 20
19.754896656
 10
-16.8321788399
 20
19.7240171225
  0
LWPOLYLINE
  5
263
100
AcDbEntity
  8
C_COPERCHIO
100
AcDbPolyline
 62
250
  6
CONTINUOUS
 90
6
 70
0
 10
-11.63037324
 20
18.9872702628
 10
-11.6388219492
 20
18.9742912286
 10
-11.6449257495
 20
18.9606974594
 10
-11.6488696741
 20
18.9465455174
 10
-11.650268737
 20
18.9323883532
 10
-11.6489013374
 20
18.918225664
  0
LWPOLYLINE
  5
264
100
AcDbEntity
  8
C_CORPO
100
AcDbPolyline
 62
7
  6
CONTINUOUS
 90
7
 70
0
 10
-6.3336885564
 20
18.7111319065
 10
-6.3408292107
 20
18.7076144472
 10
-6.3485435581
 20
18.7032901156
 10
-6.3560093786
 20
18.6985354869
 10
-6.3632213667
 20
18.6933519949
 10
-6.3701675813
 20
18.6877464878
 10
-6.3716943031
 20
18.6864268299
  0
LINE
  5
265
100
AcDbEntity
  8
C_CORPO
100
AcDbLine
 62
250
  6
CONTINUOUS
 10
-6.0610395913
 20
18.7197042009
 11
-6.0147934436
 21
18.7420238644
  0
LINE
  5
266
100
AcDbEntity
  8
C_COPERCHIO
100
AcDbLine
 62
7
  6
CONTINUOUS
 10
-5.3319509089
 20
20.3480399738
 11
-5.6971733159
 21
20.1732364953
  0
LINE
  5
267
100
AcDbEntity
  8
C_COPERCHIO
100
AcDbLine
 62
7
  6
CONTINUOUS
 10
-3.280669545
 20
20.9838332344
 11
-5.3436199253
 21
19.9964598
  0
LINE
  5
268
100
AcDbEntity
  8
C_COPERCHIO
100
AcDbLine
 62
7
  6
CONTINUOUS
 10
-5.6971733159
 20
19.6743460732
 11
-6.4042800971
 21
19.3359092122
  0
LINE
  5
269
100
AcDbEntity
  8
C_COPERCHIO
100
AcDbLine
 62
7
  6
CONTINUOUS
 10
-5.3436199253
 20
19.4975693779
 11
-3.8754245928
 21
20.2002799625
  0
LINE
  5
26A
100
AcDbEntity
  8
C_CORPO
100
AcDbLine
 62
7
  6
CONTINUOUS
 10
2.8428236927
 20
22.7330184424
 11
-0.7299078996
 21
21.0277484134
  0
LINE
  5
26B
100
AcDbEntity
  8
C_CORPO
100
AcDbLine
 62
250
  6
CONTINUOUS
 10
-6.0147934436
 20
18.7420238644
 11
-6.0031461973
 21
18.7475771132
  0
LINE
  5
26C
100
AcDbEntity
  8
C_CORPO
100
AcDbLine
 62
250
  6
CONTINUOUS
 10
-6.0713464895
 20
18.7147980295
 11
-6.0610395913
 21
18.7197042009
  0
LINE
  5
26D
100
AcDbEntity
  8
C_CORPO
100
AcDbLine
 62
250
  6
CONTINUOUS
 10
-6.0031461973
 20
18.7475771132
 11
-5.9941747167
 21
18.7518047334
  0
LINE
  5
26E
100
AcDbEntity
  8
C_CORPO
100
AcDbLine
 62
250
  6
CONTINUOUS
 10
-6.0789807707
 20
18.711212089
 11
-6.0713464895
 21
18.7147980295
  0
LINE
  5
26F
100
AcDbEntity
  8
C_CORPO
100
AcDbLine
 62
250
  6
CONTINUOUS
 10
-5.9941747167
 20
18.7518047334
 11
-5.9849852286
 21
18.7560808415
  0
LINE
  5
270
100
AcDbEntity
  8
C_CORPO
100
AcDbLine
 62
7
  6
CONTINUOUS
 10
-2.8622019484
 20
21.014399206
 11
1.7031596235
 21
23.1228344708
  0
LINE
  5
271
100
AcDbEntity
  8
C_CORPO
100
AcDbLine
 62
250
  6
CONTINUOUS
 10
-2.6871867672
 20
20.8600971563
 11
2.1347790486
 21
23.0870407644
  0
LINE
  5
272
100
AcDbEntity
  8
C_CORPO
100
AcDbLine
 62
250
  6
CONTINUOUS
 10
-6.1214912325
 20
18.6915667325
 11
-6.0789807707
 21
18.711212089
  0
LINE
  5
273
100
AcDbEntity
  8
C_CORPO
100
AcDbLine
 62
7
  6
CONTINUOUS
 10
-6.2825509415
 20
18.7347084426
 11
-6.3336882982
 21
18.7111320257
  0
LINE
  5
274
100
AcDbEntity
  8
C_CORPO
100
AcDbLine
 62
250
  6
CONTINUOUS
 10
-5.9849852286
 20
18.7560808415
 11
-5.9755642566
 21
18.7604003523
  0
LINE
  5
275
100
AcDbEntity
  8
C_CORPO
100
AcDbLine
 62
250
  6
CONTINUOUS
 10
-5.9755642566
 20
18.7604003523
 11
-5.9691487065
 21
18.7633015534
  0
LWPOLYLINE
  5
276
100
AcDbEntity
  8
C_CORPO
100
AcDbPolyline
 62
250
  6
CONTINUOUS
 90
22
 70
0
 10
-6.2998419493
 20
18.7267633913
 10
-6.2967136362
 20
18.7281733233
 10
-6.2874651738
 20
18.7319472174
 10
-6.2780055595
 20
18.7352296728
 10
-6.2683449192
 20
18.738017176
 10
-6.2584935936
 20
18.7403067432
 10
-6.2484621276
 20
18.7420959236
 10
-6.2382612591
 20
18.7433828021
 10
-6.2279019072
 20
18.7441660011
 10
-6.2173951606
 20
18.7444446824
 10
-6.2067522659
 20
18.7442185475
 10
-6.1959846152
 20
18.7434878387
 10
-6.1851037345
 20
18.7422533379
 10
-6.1741212708
 20
18.7405163667
 10
-6.1630489796
 20
18.7382787844
 10
-6.1518987131
 20
18.7355429859
 10
-6.1406824065
 20
18.7323118999
 10
-6.1294120658
 20
18.7285889848
 10
-6.118099755
 20
18.7243782257
 10
-6.1067575829
 20
18.7196841298
 10
-6.0953976901
 20
18.7145117218
 10
-6.0840322366
 20
18.7088665382
  0
LINE
  5
277
100
AcDbEntity
  8
C_CORPO
100
AcDbLine
 62
250
  6
CONTINUOUS
 10
1.7031596235
 20
23.1228344708
 11
1.7064583703
 21
23.1243160598
  0
LINE
  5
278
100
AcDbEntity
  8
C_CORPO
100
AcDbLine
 62
250
  6
CONTINUOUS
 10
-5.9691487065
 20
18.7633015534
 11
-5.9626199919
 21
18.766217865
  0
LINE
  5
279
100
AcDbEntity
  8
C_CORPO
100
AcDbLine
 62
250
  6
CONTINUOUS
 10
-5.9626199919
 20
18.766217865
 11
-5.9559750587
 21
18.7691481108
  0
LINE
  5
27A
100
AcDbEntity
  8
C_CORPO
100
AcDbLine
 62
250
  6
CONTINUOUS
 10
-5.9559750587
 20
18.7691481108
 11
-5.9492090555
 21
18.7720906255
  0
LINE
  5
27B
100
AcDbEntity
  8
C_CORPO
100
AcDbLine
 62
250
  6
CONTINUOUS
 10
-5.9492090555
 20
18.7720906255
 11
-5.9423180264
 21
18.7750432901
  0
LWPOLYLINE
  5
27C
100
AcDbEntity
  8
C_CORPO
100
AcDbPolyline
 62
250
  6
CONTINUOUS
 90
25
 70
0
 10
1.7064583703
 20
23.1243160598
 10
1.7210441927
 20
23.1305336517
 10
1.736819465
 20
23.1364333844
 10
1.7528874651
 20
23.1416336324
 10
1.7692359959
 20
23.1461304479
 10
1.7858526469
 20
23.1499204174
 10
1.8027248042
 20
23.1530006634
 10
1.8198396599
 20
23.1553688475
 10
1.8371842221
 20
23.1570231721
 10
1.8547453241
 20
23.157962381
 10
1.8725096351
 20
23.1581857612
 10
1.8904636701
 20
23.1576931431
 10
1.9085937998
 20
23.1564849005
 10
1.9268862616
 20
23.1545619504
 10
1.9453271695
 20
23.1519257527
 10
1.9639025244
 20
23.1485783083
 10
1.9825982256
 20
23.1445221584
 10
2.001400081
 20
23.139760382
 10
2.0202938178
 20
23.1342965938
 10
2.0392650943
 20
23.1281349412
 10
2.0582995085
 20
23.1212801017
 10
2.0773826093
 20
23.1137372797
 10
2.0964999098
 20
23.1055122014
 10
2.1156368986
 20
23.0966111107
 10
2.8428236927
 20
22.7330184424
  0
LINE
  5
27D
100
AcDbEntity
  8
C_CORPO
100
AcDbLine
 62
250
  6
CONTINUOUS
 10
-5.9423180264
 20
18.7750432901
 11
-5.9352993083
 21
18.778004695
  0
LINE
  5
27E
100
AcDbEntity
  8
C_CORPO
100
AcDbLine
 62
250
  6
CONTINUOUS
 10
-5.9352993083
 20
18.778004695
 11
-5.928148996
 21
18.7809726721
  0
LINE
  5
27F
100
AcDbEntity
  8
C_CORPO
100
AcDbLine
 62
250
  6
CONTINUOUS
 10
-5.928148996
 20
18.7809726721
 11
-5.920863205
 21
18.7839449932
  0
LINE
  5
280
100
AcDbEntity
  8
C_CORPO
100
AcDbLine
 62
250
  6
CONTINUOUS
 10
-5.920863205
 20
18.7839449932
 11
-5.9134393948
 21
18.7869201408
  0
LINE
  5
281
100
AcDbEntity
  8
C_CORPO
100
AcDbLine
 62
250
  6
CONTINUOUS
 10
-5.9134393948
 20
18.7869201408
 11
-5.9058738336
 21
18.7898957898
  0
LINE
  5
282
100
AcDbEntity
  8
C_CORPO
100
AcDbLine
 62
250
  6
CONTINUOUS
 10
-5.9058738336
 20
18.7898957898
 11
-5.8981627853
 21
18.7928695554
  0
LINE
  5
283
100
AcDbEntity
  8
C_CORPO
100
AcDbLine
 62
250
  6
CONTINUOUS
 10
-5.8981627853
 20
18.7928695554
 11
-5.8903037822
 21
18.7958398229
  0
LINE
  5
284
100
AcDbEntity
  8
C_CORPO
100
AcDbLine
 62
250
  6
CONTINUOUS
 10
-5.8903037822
 20
18.7958398229
 11
-5.8822930755
 21
18.7988041648
  0
LINE
  5
285
100
AcDbEntity
  8
C_CORPO
100
AcDbLine
 62
250
  6
CONTINUOUS
 10
-5.8822930755
 20
18.7988041648
 11
-5.8741274286
 21
18.8017598905
  0
LINE
  5
286
100
AcDbEntity
  8
C_CORPO
100
AcDbLine
 62
250
  6
CONTINUOUS
 10
-5.8741274286
 20
18.8017598905
 11
-5.8658047488
 21
18.8047051713
  0
LINE
  5
287
100
AcDbEntity
  8
C_CORPO
100
AcDbLine
 62
250
  6
CONTINUOUS
 10
-5.8658047488
 20
18.8047051713
 11
-5.8573220166
 21
18.8076371986
  0
LINE
  5
288
100
AcDbEntity
  8
C_CORPO
100
AcDbLine
 62
250
  6
CONTINUOUS
 10
-5.8573220166
 20
18.8076371986
 11
-5.8486765443
 21
18.8105529882
  0
LINE
  5
289
100
AcDbEntity
  8
C_CORPO
100
AcDbLine
 62
250
  6
CONTINUOUS
 10
-5.8486765443
 20
18.8105529882
 11
-5.8398666413
 21
18.813450506
  0
LINE
  5
28A
100
AcDbEntity
  8
C_CORPO
100
AcDbLine
 62
250
  6
CONTINUOUS
 10
-5.8398666413
 20
18.813450506
 11
-5.8308899013
 21
18.8163266373
  0
LINE
  5
28B
100
AcDbEntity
  8
C_CORPO
100
AcDbLine
 62
250
  6
CONTINUOUS
 10
-5.8308899013
 20
18.8163266373
 11
-5.8217444251
 21
18.8191780565
  0
LINE
  5
28C
100
AcDbEntity
  8
C_CORPO
100
AcDbLine
 62
250
  6
CONTINUOUS
 10
-5.8217444251
 20
18.8191780565
 11
-5.8124289099
 21
18.8220025473
  0
LWPOLYLINE
  5
28D
100
AcDbEntity
  8
C_CORPO
100
AcDbPolyline
 62
250
  6
CONTINUOUS
 90
3
 70
0
 10
-5.8124289099
 20
18.8220025473
 10
-5.8029413408
 20
18.8247967878
 10
-5.7981325632
 20
18.8261813768
  0
LINE
  5
28E
100
AcDbEntity
  8
C_COPERCHIO
100
AcDbLine
 62
250
  6
CONTINUOUS
 10
-12.7822382058
 20
-15.0127124239
 11
-17.0248788929
 21
-12.8913920803
  0
LWPOLYLINE
  5
28F
100
AcDbEntity
  8
C_COPERCHIO
100
AcDbPolyline
 62
250
  6
CONTINUOUS
 90
7
 70
0
 10
-17.0248788929
 20
-12.8913920803
 10
-17.0310388121
 20
-12.4612162601
 10
-17.0368447241
 20
-12.0308561034
 10
-17.0422966231
 20
-11.6003120414
 10
-17.0473945038
 20
-11.1695845052
 10
-17.0521383609
 20
-10.7386739262
 10
-17.0565281897
 20
-10.3075807358
  0
LWPOLYLINE
  5
290
100
AcDbEntity
  8
C_COPERCHIO
100
AcDbPolyline
 62
250
  6
CONTINUOUS
 90
7
 70
0
 10
-16.6043873238
 20
-12.6288173606
 10
-16.6097515692
 20
-12.2418223641
 10
-16.6148295722
 20
-11.8546705214
 10
-16.6196213327
 20
-11.4673618325
 10
-16.6241268508
 20
-11.0798962973
 10
-16.6283461264
 20
-10.6922739159
 10
-16.6322791596
 20
-10.3044946882
  0
LINE
  5
291
100
AcDbEntity
  8
C_COPERCHIO
100
AcDbLine
 62
7
  6
CONTINUOUS
 10
-19.0261361413
 20
-1.6041741699
 11
-19.0261361413
 21
4.9442019359
  0
LINE
  5
292
100
AcDbEntity
  8
C_COPERCHIO
100
AcDbLine
 62
7
  6
CONTINUOUS
 10
-17.4098607439
 20
20.4981865817
 11
-17.4098607439
 21
20.968560991
  0
LINE
  5
293
100
AcDbEntity
  8
C_COPERCHIO
100
AcDbLine
 62
250
  6
CONTINUOUS
 10
-17.3366374392
 20
20.562903843
 11
-17.3366374392
 21
20.8801726434
  0
LINE
  5
294
100
AcDbEntity
  8
C_COPERCHIO
100
AcDbLine
 62
7
  6
CONTINUOUS
 10
-16.8155912275
 20
19.8546829419
 11
-16.8155912275
 21
20.1996489352
  0
LWPOLYLINE
  5
295
100
AcDbEntity
  8
C_COPERCHIO
100
AcDbPolyline
 62
7
  6
CONTINUOUS
 90
10
 70
0
 10
-18.5466995029
 20
-3.0573922869
 10
-18.5444641082
 20
-2.3448095687
 10
-18.5402938819
 20
-1.4472672874
 10
-18.5346116191
 20
-0.5489825666
 10
-18.5274173475
 20
0.3500407612
 10
-18.5187111012
 20
1.2497988482
 10
-18.508492921
 20
2.1502878306
 10
-18.4967628542
 20
3.0515038542
 10
-18.4835209544
 20
3.953443074
 10
-18.4719442445
 20
4.6692592169
  0
LWPOLYLINE
  5
296
100
AcDbEntity
  8
C_COPERCHIO
100
AcDbPolyline
 62
250
  6
CONTINUOUS
 90
7
 70
0
 10
-18.3808958214
 20
4.7504188995
 10
-18.4024604353
 20
3.3966369175
 10
-18.4206233005
 20
2.0444803413
 10
-18.435384242
 20
0.6939621829
 10
-18.446743118
 20
-0.6549045614
 10
-18.454699819
 20
-2.0021069113
 10
-18.4592542686
 20
-3.3476319023
  0
LWPOLYLINE
  5
297
100
AcDbEntity
  8
C_COPERCHIO
100
AcDbPolyline
 62
250
  6
CONTINUOUS
 90
45
 70
0
 10
-17.0565281897
 20
-10.3075807358
 10
-17.0528003503
 20
-10.1270812624
 10
-17.0388137954
 20
-9.954403323
 10
-17.014571379
 20
-9.7895484157
 10
-16.979811002
 20
-9.6317725625
 10
-16.9347997607
 20
-9.481822365
 10
-16.8803368421
 20
-9.3419364888
 10
-16.816317269
 20
-9.2123461954
 10
-16.7428563189
 20
-9.0928255412
 10
-16.6610878096
 20
-8.984929551
 10
-16.5709259297
 20
-8.8888158321
 10
-16.4724690534
 20
-8.8043332207
 10
-16.3671300549
 20
-8.732574995
 10
-16.2548386871
 20
-8.6736979423
 10
-16.1356780259
 20
-8.6275518257
 10
-16.0112924298
 20
-8.594770144
 10
-15.8815970263
 20
-8.5755230003
 10
-15.7466877633
 20
-8.5696459286
 10
-15.6084805636
 20
-8.5772707393
 10
-15.4669176521
 20
-8.5985954801
 10
-15.3220643594
 20
-8.6334259407
 10
-15.1760206405
 20
-8.6813052254
 10
-15.0287367465
 20
-8.7424568726
 10
-14.8802651182
 20
-8.8166587095
 10
-14.7328577916
 20
-8.9027846624
 10
-14.5865642621
 20
-9.00100545
 10
-14.4413323523
 20
-9.111148993
 10
-14.2992603864
 20
-9.2315744104
 10
-14.1604049454
 20
-9.3624142801
 10
-14.024701901
 20
-9.5035321911
 10
-13.8940678847
 20
-9.652883458
 10
-13.7685866826
 20
-9.8105418855
 10
-13.6481634357
 20
-9.9764280335
 10
-13.5344471348
 20
-10.1482675116
 10
-13.4275056155
 20
-10.3261364994
 10
-13.327258202
 20
-10.5099522612
 10
-13.2351326107
 20
-10.6972027883
 10
-13.1512131624
 20
-10.8879488419
 10
-13.075402953
 20
-11.0821232067
 10
-13.0088606388
 20
-11.2770233179
 10
-12.9516896042
 20
-11.4727558627
 10
-12.9037761487
 20
-11.6692088276
 10
-12.8659575234
 20
-11.863353751
 10
-12.8385120715
 20
-12.0541807449
 10
-12.8211563636
 20
-12.2426970278
  0
LINE
  5
298
100
AcDbEntity
  8
C_COPERCHIO
100
AcDbLine
 62
250
  6
CONTINUOUS
 10
-16.0472396475
 20
20.2650193674
 11
-16.0487300876
 21
20.2362189675
  0
LINE
  5
299
100
AcDbEntity
  8
C_COPERCHIO
100
AcDbLine
 62
250
  6
CONTINUOUS
 10
-16.8011784307
 20
19.8477338771
 11
-16.8031864269
 21
19.8176459908
  0
LWPOLYLINE
  5
29A
100
AcDbEntity
  8
C_COPERCHIO
100
AcDbPolyline
 62
7
  6
CONTINUOUS
 90
12
 70
0
 10
-18.47194574
 20
4.6692600916
 10
-18.4718824197
 20
4.6698075367
 10
-18.4703893067
 20
4.6738835991
 10
-18.4668758936
 20
4.6791341499
 10
-18.4612937072
 20
4.6853223548
 10
-18.454052407
 20
4.6925253365
 10
-18.4451808417
 20
4.7006138045
 10
-18.4346856486
 20
4.7093965056
 10
-18.4229322864
 20
4.7188956727
 10
-18.4100713836
 20
4.7290225347
 10
-18.396041012
 20
4.7395752905
 10
-18.3808958214
 20
4.7504188995
  0
LINE
  5
29B
100
AcDbEntity
  8
C_CORPO
100
AcDbLine
 62
7
  6
CONTINUOUS
 10
-7.2331258267
 20
17.9325077816
 11
-6.3716960397
 21
18.6864259987
  0
LINE
  5
29C
100
AcDbEntity
  8
C_CORPO
100
AcDbLine
 62
250
  6
CONTINUOUS
 10
-7.079223272
 20
17.8555565042
 11
-6.1230961573
 21
18.6923532582
  0
LWPOLYLINE
  5
29D
100
AcDbEntity
  8
C_COPERCHIO
100
AcDbPolyline
 62
250
  6
CONTINUOUS
 90
13
 70
0
 10
-6.059420003
 20
16.0733650626
 10
-6.077651796
 20
16.0624100963
 10
-6.0955372281
 20
16.0487613425
 10
-6.112777028
 20
16.0326471795
 10
-6.1290827276
 20
16.0143372384
 10
-6.144181488
 20
15.9941378924
 10
-6.157820665
 20
15.9723871304
 10
-6.1697720379
 20
15.9494488999
 10
-6.1798356267
 20
15.9257070192
 10
-6.1878430389
 20
15.9015587551
 10
-6.193660288
 20
15.877408174
 10
-6.1971900348
 20
15.85365938
 10
-6.1983732162
 20
15.8307097552
  0
LWPOLYLINE
  5
29E
100
AcDbEntity
  8
C_CORPO
100
AcDbPolyline
 62
7
  6
CONTINUOUS
 90
25
 70
0
 10
-0.3754122049
 20
20.1080459427
 10
-0.4167652442
 20
20.0865436955
 10
-0.4571756247
 20
20.0645979581
 10
-0.4966243262
 20
20.0422190599
 10
-0.5350927813
 20
20.0194175338
 10
-0.572562884
 20
19.996204112
 10
-0.6090169981
 20
19.9725897204
 10
-0.6444379657
 20
19.9485854736
 10
-0.6788091151
 20
19.9242026698
 10
-0.7121142687
 20
19.8994527852
 10
-0.7443377508
 20
19.8743474691
 10
-0.7754643947
 20
19.8488985376
 10
-0.8054795498
 20
19.8231179691
 10
-0.8343690889
 20
19.7970178976
 10
-0.8621194145
 20
19.7706106077
 10
-0.8887174652
 20
19.7439085287
 10
-0.9141507221
 20
19.7169242284
 10
-0.9384072144
 20
19.6896704077
 10
-0.9614755254
 20
19.6621598941
 10
-0.9833447973
 20
19.6344056361
 10
-1.0040047369
 20
19.6064206969
 10
-1.0234456201
 20
19.5782182481
 10
-1.0416582967
 20
19.549811564
 10
-1.0586341944
 20
19.5212140147
 10
-1.0649191887
 20
19.5097176736
  0
LINE
  5
29F
100
AcDbEntity
  8
C_CONTATTI
100
AcDbLine
 62
7
  6
CONTINUOUS
 10
0.0848104385
 20
19.1448003687
 11
-0.1227019906
 21
19.0386090745
  0
LINE
  5
2A0
100
AcDbEntity
  8
C_CORPO
100
AcDbLine
 62
7
  6
CONTINUOUS
 10
3.8287153176
 20
22.2471215666
 11
-0.3754122049
 21
20.1080459427
  0
LINE
  5
2A1
100
AcDbEntity
  8
C_CONTATTI
100
AcDbLine
 62
7
  6
CONTINUOUS
 10
0.266727944
 20
19.2373756322
 11
0.0848104385
 21
19.1448003687
  0
LINE
  5
2A2
100
AcDbEntity
  8
C_CONTATTI
100
AcDbLine
 62
7
  6
CONTINUOUS
 10
0.4411517602
 20
19.3255266555
 11
0.266727944
 21
19.2373756322
  0
LINE
  5
2A3
100
AcDbEntity
  8
C_COPERCHIO
100
AcDbLine
 62
250
  6
CONTINUOUS
 10
-5.6388904575
 20
16.0759859227
 11
-5.2728877081
 21
16.2603984708
  0
LINE
  5
2A4
100
AcDbEntity
  8
C_CONTATTI
100
AcDbLine
 62
7
  6
CONTINUOUS
 10
0.6081286382
 20
19.4092516203
 11
0.4411517602
 21
19.3255266555
  0
LINE
  5
2A5
100
AcDbEntity
  8
C_CORPO
100
AcDbLine
 62
7
  6
CONTINUOUS
 10
3.8470245597
 20
21.812088141
 11
-0.3754122049
 21
19.7092242114
  0
LINE
  5
2A6
100
AcDbEntity
  8
C_COPERCHIO
100
AcDbLine
 62
250
  6
CONTINUOUS
 10
-5.2728877081
 20
16.2603984708
 11
-0.0560936565
 21
18.8479667791
  0
LINE
  5
2A7
100
AcDbEntity
  8
C_COPERCHIO
100
AcDbLine
 62
7
  6
CONTINUOUS
 10
-5.0607772129
 20
16.8463334747
 11
-0.4584127777
 21
19.0491263396
  0
LWPOLYLINE
  5
2A8
100
AcDbEntity
  8
C_COPERCHIO
100
AcDbPolyline
 62
250
  6
CONTINUOUS
 90
7
 70
0
 10
0.0853061606
 20
18.6040881697
 10
0.0989091799
 20
18.6102909338
 10
0.1123729331
 20
18.6153218142
 10
0.1256974201
 20
18.6191808109
 10
0.1388826409
 20
18.621867924
 10
0.1519285955
 20
18.6233831534
 10
0.1648352839
 20
18.6237264991
  0
LWPOLYLINE
  5
2A9
100
AcDbEntity
  8
C_COPERCHIO
100
AcDbPolyline
 62
7
  6
CONTINUOUS
 90
7
 70
0
 10
-0.4584127777
 20
19.0491263396
 10
-0.4452359227
 20
19.0551026648
 10
-0.4322491872
 20
19.0604372578
 10
-0.4194525712
 20
19.0651301187
 10
-0.4068460748
 20
19.0691812474
 10
-0.3944296979
 20
19.0725906439
 10
-0.3822034405
 20
19.0753583084
  0
LWPOLYLINE
  5
2AA
100
AcDbEntity
  8
C_COPERCHIO
100
AcDbPolyline
 62
250
  6
CONTINUOUS
 90
7
 70
0
 10
-0.0560936565
 20
18.8479667791
 10
-0.0332126755
 20
18.8582280889
 10
-0.0104543607
 20
18.8665740162
 10
0.0120826609
 20
18.8729693821
 10
0.0343007342
 20
18.8773873681
 10
0.0561035946
 20
18.8798096308
 10
0.0773967806
 20
18.8802263789
  0
LWPOLYLINE
  5
2AB
100
AcDbEntity
  8
C_COPERCHIO
100
AcDbPolyline
 62
7
  6
CONTINUOUS
 90
9
 70
0
 10
0.9619711422
 20
18.8625128908
 10
1.0223796092
 20
18.8884144027
 10
1.0818706272
 20
18.9074946007
 10
1.1404441961
 20
18.9197534846
 10
1.1987861005
 20
18.9252106337
 10
1.2562105559
 20
18.9238464689
 10
1.3106602081
 20
18.9156022522
 10
1.3617013084
 20
18.9002770295
 10
1.3967960368
 20
18.8849002091
  0
LWPOLYLINE
  5
2AC
100
AcDbEntity
  8
C_CONTATTI
100
AcDbPolyline
 62
7
  6
CONTINUOUS
 90
3
 70
0
 10
0.6201693214
 20
19.4140694014
 10
0.6169768485
 20
19.4130188679
 10
0.6081286382
 20
19.4092516203
  0
LWPOLYLINE
  5
2AD
100
AcDbEntity
  8
C_CONTATTI
100
AcDbPolyline
 62
250
  6
CONTINUOUS
 90
46
 70
0
 10
0.7017652373
 20
19.4029556118
 10
0.7409227042
 20
19.4143858265
 10
0.7816287973
 20
19.4256745957
 10
0.8238835165
 20
19.4368219193
 10
0.8675432904
 20
19.4478446685
 10
0.9127516904
 20
19.4587259721
 10
0.9599394313
 20
19.4694152167
 10
1.0091029296
 20
19.4799350682
 10
1.0602457688
 20
19.4902628608
 10
1.113809413
 20
19.5002799837
 10
1.1697977216
 20
19.5100151705
 10
1.2282068354
 20
19.5194396876
 10
1.28946664
 20
19.5283487238
 10
1.3535911932
 20
19.5367767726
 10
1.4205664374
 20
19.5446893405
 10
1.4907800856
 20
19.5517781357
 10
1.5642640725
 20
19.5580839907
 10
1.6409864634
 20
19.563566073
 10
1.7212391675
 20
19.5677935934
 10
1.8051501075
 20
19.5708081646
 10
1.8925913608
 20
19.572568174
 10
1.983471069
 20
19.572517995
 10
2.0779417602
 20
19.5706798486
 10
2.1758509063
 20
19.5670315138
 10
2.2766490652
 20
19.5609507013
 10
2.3805938184
 20
19.552412191
 10
2.4874275843
 20
19.541441203
 10
2.5958281763
 20
19.5274911078
 10
2.7061430625
 20
19.5104275162
 10
2.8180247746
 20
19.4903848175
 10
2.9291087211
 20
19.4672195498
 10
3.0393991871
 20
19.4407613577
 10
3.1488918875
 20
19.4111805966
 10
3.2552093755
 20
19.3788448703
 10
3.35797934
 20
19.3437189295
 10
3.457574092
 20
19.3058380234
 10
3.5527331187
 20
19.2656755042
 10
3.6431950605
 20
19.2232867319
 10
3.7292212769
 20
19.1786163464
 10
3.8103353332
 20
19.1319716199
 10
3.8865313079
 20
19.0833466942
 10
3.9578151224
 20
19.0327474276
 10
4.0237281064
 20
18.9804986669
 10
4.0842771904
 20
18.9265571226
 10
4.1394554439
 20
18.8709660843
 10
4.1430720317
 20
18.8668027073
  0
LINE
  5
2AE
100
AcDbEntity
  8
C_COPERCHIO
100
AcDbLine
 62
250
  6
CONTINUOUS
 10
-12.8760671901
 20
-14.489238956
 11
-16.6006488524
 21
-12.6269481248
  0
LINE
  5
2AF
100
AcDbEntity
  8
C_COPERCHIO
100
AcDbLine
 62
7
  6
CONTINUOUS
 10
-15.7380896088
 20
-12.1956685031
 11
-12.8874363931
 21
-13.6209951109
  0
LWPOLYLINE
  5
2B0
100
AcDbEntity
  8
C_COPERCHIO
100
AcDbPolyline
 62
250
  6
CONTINUOUS
 90
7
 70
0
 10
-12.8138875026
 20
-12.4289010793
 10
-12.8397615989
 20
-12.4141228749
 10
-12.8615636017
 20
-12.3977299077
 10
-12.8789204727
 20
-12.3800026659
 10
-12.8915352308
 20
-12.3612444674
 10
-12.8991920343
 20
-12.3417762704
 10
-12.9017561889
 20
-12.3226799746
  0
LWPOLYLINE
  5
2B1
100
AcDbEntity
  8
C_COPERCHIO
100
AcDbPolyline
 62
7
  6
CONTINUOUS
 90
11
 70
0
 10
-12.7822382058
 20
-15.0127124239
 10
-12.7974973753
 20
-14.9859507633
 10
-12.811588387
 20
-14.9583865331
 10
-12.8244623033
 20
-14.9301055835
 10
-12.8361847909
 20
-14.9011643737
 10
-12.8466143951
 20
-14.8717168214
 10
-12.8553976376
 20
-14.8420136989
 10
-12.8625320019
 20
-14.8122403428
 10
-12.8679934261
 20
-14.7824990648
 10
-12.8713796452
 20
-14.7529430661
 10
-12.8727190919
 20
-14.7253322127
  0
LWPOLYLINE
  5
2B2
100
AcDbEntity
  8
C_COPERCHIO
100
AcDbPolyline
 62
7
  6
CONTINUOUS
 90
11
 70
0
 10
-18.4592542686
 20
-3.3476319023
 10
-18.4740107367
 20
-3.321076984
 10
-18.4876558244
 20
-3.2937006119
 10
-18.500136106
 20
-3.2655849864
 10
-18.5115153669
 20
-3.2367765812
 10
-18.5216439346
 20
-3.207434489
 10
-18.5301568545
 20
-3.177830301
 10
-18.5370505083
 20
-3.1481454604
 10
-18.5422976136
 20
-3.1184871757
 10
-18.5454883934
 20
-3.0890435082
 10
-18.5466896885
 20
-3.0573898841
  0
LWPOLYLINE
  5
2B3
100
AcDbEntity
  8
C_COPERCHIO
100
AcDbPolyline
 62
7
  6
CONTINUOUS
 90
3
 70
0
 10
-17.4098709502
 20
20.4982041848
 10
-17.4098485128
 20
20.4979286814
 10
-17.4085056605
 20
20.4961061517
  0
LWPOLYLINE
  5
2B4
100
AcDbEntity
  8
C_COPERCHIO
100
AcDbPolyline
 62
250
  6
CONTINUOUS
 90
13
 70
0
 10
-15.6982887996
 20
20.2346898401
 10
-15.700183471
 20
20.2635110626
 10
-15.7050160353
 20
20.293377254
 10
-15.712703838
 20
20.3237775936
 10
-15.7231153896
 20
20.3541921244
 10
-15.7360726146
 20
20.3841006469
 10
-15.7513538971
 20
20.4129916162
 10
-15.7686978713
 20
20.4403708912
 10
-15.7878078921
 20
20.4657701863
 10
-15.8083571082
 20
20.4887550808
 10
-15.829994053
 20
20.5089324491
 10
-15.8523486557
 20
20.5259571845
 10
-15.875038571
 20
20.5395381018
  0
LINE
  5
2B5
100
AcDbEntity
  8
C_COPERCHIO
100
AcDbLine
 62
250
  6
CONTINUOUS
 10
-16.0487300876
 20
20.2362189675
 11
-16.0487300876
 21
19.9189501672
  0
LINE
  5
2B6
100
AcDbEntity
  8
C_COPERCHIO
100
AcDbLine
 62
7
  6
CONTINUOUS
 10
-15.7380896088
 20
-9.8573999128
 11
-15.7380896088
 21
-12.1956685031
  0
LINE
  5
2B7
100
AcDbEntity
  8
C_COPERCHIO
100
AcDbLine
 62
250
  6
CONTINUOUS
 10
-15.6982887996
 20
20.2346898401
 11
-15.6982887996
 21
19.6696025906
  0
LINE
  5
2B8
100
AcDbEntity
  8
C_COPERCHIO
100
AcDbLine
 62
7
  6
CONTINUOUS
 10
-15.1555627369
 20
19.0249260302
 11
-15.1555627369
 21
19.554473273
  0
LWPOLYLINE
  5
2B9
100
AcDbEntity
  8
C_COPERCHIO
100
AcDbPolyline
 62
250
  6
CONTINUOUS
 90
14
 70
0
 10
-16.6322791596
 20
-10.3044946882
 10
-16.6292827932
 20
-10.1428238588
 10
-16.6167463999
 20
-9.9869325369
 10
-16.5947878025
 20
-9.8375690351
 10
-16.5635745792
 20
-9.6954503681
 10
-16.5233105037
 20
-9.5612356897
 10
-16.4742299868
 20
-9.4355270755
 10
-16.416625416
 20
-9.3189168545
 10
-16.3508200648
 20
-9.2119187775
 10
-16.2771366991
 20
-9.1149623784
 10
-16.1959630377
 20
-9.0284919827
 10
-16.1077187883
 20
-8.9528936598
 10
-16.0127992884
 20
-8.8884668092
 10
-15.9463143237
 20
-8.8520088099
  0
LINE
  5
2BA
100
AcDbEntity
  8
C_COPERCHIO
100
AcDbLine
 62
7
  6
CONTINUOUS
 10
-5.131487891
 20
14.9772629969
 11
-5.4974906404
 21
14.7774513379
  0
LINE
  5
2BB
100
AcDbEntity
  8
C_COPERCHIO
100
AcDbLine
 62
7
  6
CONTINUOUS
 10
-3.9142485346
 20
14.5064221266
 11
-2.3467570854
 21
15.3521197243
  0
LINE
  5
2BC
100
AcDbEntity
  8
C_COPERCHIO
100
AcDbLine
 62
250
  6
CONTINUOUS
 10
-3.7986277582
 20
14.5013326954
 11
-2.2323770121
 21
15.3463609054
  0
LINE
  5
2BD
100
AcDbEntity
  8
C_COPERCHIO
100
AcDbLine
 62
250
  6
CONTINUOUS
 10
-5.4974906404
 20
15.8321073134
 11
-5.131487891
 21
16.0165198614
  0
LINE
  5
2BE
100
AcDbEntity
  8
C_COPERCHIO
100
AcDbLine
 62
7
  6
CONTINUOUS
 10
-2.3467563863
 20
15.3521200471
 11
-2.3415484088
 21
15.3547244016
  0
LINE
  5
2BF
100
AcDbEntity
  8
C_CONTATTI
100
AcDbLine
 62
7
  6
CONTINUOUS
 10
3.1699457201
 20
19.2224544744
 11
2.46297678
 21
18.8689700043
  0
LINE
  5
2C0
100
AcDbEntity
  8
C_CONTATTI
100
AcDbLine
 62
7
  6
CONTINUOUS
 10
3.664920467
 20
18.974967101
 11
2.9579515268
 21
18.6214826309
  0
LINE
  5
2C1
100
AcDbEntity
  8
C_COPERCHIO
100
AcDbLine
 62
250
  6
CONTINUOUS
 10
-5.131487891
 20
16.0165198614
 11
0.0853061606
 21
18.6040881697
  0
LINE
  5
2C2
100
AcDbEntity
  8
C_COPERCHIO
100
AcDbLine
 62
7
  6
CONTINUOUS
 10
-5.131487891
 20
14.9772629969
 11
0.1648352839
 21
17.6042783367
  0
LWPOLYLINE
  5
2C3
100
AcDbEntity
  8
C_COPERCHIO
100
AcDbPolyline
 62
250
  6
CONTINUOUS
 90
7
 70
0
 10
-3.9142485346
 20
14.5064221266
 10
-3.9074483614
 20
14.5097461363
 10
-3.888115776
 20
14.5159241283
 10
-3.8671998508
 20
14.5181764522
 10
-3.8450583247
 20
14.516464585
 10
-3.8220698985
 20
14.5108178059
 10
-3.7986277582
 20
14.5013326954
  0
LINE
  5
2C4
100
AcDbEntity
  8
C_CORPO
100
AcDbLine
 62
7
  6
CONTINUOUS
 10
7.4249786096
 20
20.4419409839
 11
3.8618889561
 21
18.7318499856
  0
LINE
  5
2C5
100
AcDbEntity
  8
C_COPERCHIO
100
AcDbLine
 62
7
  6
CONTINUOUS
 10
0.9619711422
 20
18.8625128908
 11
0.2724677741
 21
18.5325014106
  0
LINE
  5
2C6
100
AcDbEntity
  8
C_COPERCHIO
100
AcDbLine
 62
7
  6
CONTINUOUS
 10
-2.3415496992
 20
15.3547238057
 11
-1.7975558056
 21
15.6059582131
  0
LINE
  5
2C7
100
AcDbEntity
  8
C_COPERCHIO
100
AcDbLine
 62
250
  6
CONTINUOUS
 10
-2.2323770121
 20
15.3463609054
 11
-1.6896509494
 21
15.5970097865
  0
LWPOLYLINE
  5
2C8
100
AcDbEntity
  8
C_COPERCHIO
100
AcDbPolyline
 62
250
  6
CONTINUOUS
 90
7
 70
0
 10
-1.6896509494
 20
15.5970097865
 10
-1.6673436436
 20
15.6059511952
 10
-1.6452969541
 20
15.6112782354
 10
-1.6238810034
 20
15.6128291509
 10
-1.6034238185
 20
15.6104920671
 10
-1.5843434776
 20
15.6042209915
 10
-1.5809327292
 20
15.6026006189
  0
LWPOLYLINE
  5
2C9
100
AcDbEntity
  8
C_COPERCHIO
100
AcDbPolyline
 62
7
  6
CONTINUOUS
 90
3
 70
0
 10
-2.3415484088
 20
15.3547244016
 10
-2.3207514316
 20
15.3615523076
 10
-2.3000178096
 20
15.3637057968
  0
LWPOLYLINE
  5
2CA
100
AcDbEntity
  8
C_COPERCHIO
100
AcDbPolyline
 62
250
  6
CONTINUOUS
 90
6
 70
0
 10
-1.7975558056
 20
15.6059582131
 10
-1.7768816283
 20
15.6127298888
 10
-1.7563324122
 20
15.6147988581
 10
-1.7346954674
 20
15.6128347003
 10
-1.7123408647
 20
15.6068710094
 10
-1.6896509494
 20
15.5970097865
  0
LWPOLYLINE
  5
2CB
100
AcDbEntity
  8
C_COPERCHIO
100
AcDbPolyline
 62
250
  6
CONTINUOUS
 90
13
 70
0
 10
-17.0565281897
 20
-10.3075807358
 10
-17.0270233871
 20
-10.3204918249
 10
-16.9943940728
 20
-10.3313141167
 10
-16.9591986561
 20
-10.3398624836
 10
-16.9220394495
 20
-10.3459907128
 10
-16.883552303
 20
-10.3495940152
 10
-16.8443957162
 20
-10.3506108035
 10
-16.8052396958
 20
-10.3490237377
 10
-16.7667541743
 20
-10.3448600298
 10
-16.7295974953
 20
-10.3381909503
 10
-16.6944053398
 20
-10.3291306241
 10
-16.6617798392
 20
-10.3178341034
 10
-16.6322791596
 20
-10.304494691
  0
LWPOLYLINE
  5
2CC
100
AcDbEntity
  8
C_COPERCHIO
100
AcDbPolyline
 62
7
  6
CONTINUOUS
 90
3
 70
0
 10
-0.1191560718
 20
-26.7678354441
 10
-0.117813223
 20
-26.7696579746
 10
-0.1177907864
 20
-26.769933475
  0
LWPOLYLINE
  5
2CD
100
AcDbEntity
  8
C_COPERCHIO
100
AcDbPolyline
 62
250
  6
CONTINUOUS
 90
7
 70
0
 10
-17.4098607439
 20
20.968560991
 10
-17.4075792138
 20
20.9517119577
 10
-17.4011117504
 20
20.9357816077
 10
-17.3905686804
 20
20.9204105807
 10
-17.3761338905
 20
20.9058594638
 10
-17.3580539575
 20
20.8923713426
 10
-17.3366374392
 20
20.8801726434
  0
LWPOLYLINE
  5
2CE
100
AcDbEntity
  8
C_COPERCHIO
100
AcDbPolyline
 62
7
  6
CONTINUOUS
 90
13
 70
0
 10
-14.076388673
 20
21.0518933599
 10
-14.0778931941
 20
21.0809091548
 10
-14.0824047317
 20
21.1109356605
 10
-14.0898408684
 20
21.1414621774
 10
-14.1000685337
 20
21.1719700115
 10
-14.112911702
 20
21.2019376894
 10
-14.1281542172
 20
21.2308499232
 10
-14.1455384925
 20
21.2582105791
 10
-14.1647640248
 20
21.283553228
 10
-14.1854976469
 20
21.3064457155
 10
-14.2073856726
 20
21.3264958974
 10
-14.2300600525
 20
21.3433581635
 10
-14.2531384444
 20
21.3567416216
  0
LWPOLYLINE
  5
2CF
100
AcDbEntity
  8
C_COPERCHIO
100
AcDbPolyline
 62
250
  6
CONTINUOUS
 90
13
 70
0
 10
-13.5522842065
 20
21.3118530391
 10
-13.5534266529
 20
21.3410503739
 10
-13.5576253936
 20
21.3712334772
 10
-13.564808615
 20
21.4018861074
 10
-13.5748534575
 20
21.4324839927
 10
-13.5875881179
 20
21.4625037976
 10
-13.6027947868
 20
21.4914320737
 10
-13.6202133746
 20
21.5187740419
 10
-13.6395459601
 20
21.5440620547
 10
-13.6604618852
 20
21.5668635947
 10
-13.6826034113
 20
21.5867886722
 10
-13.7055918376
 20
21.6034964959
 10
-13.7290339778
 20
21.6167013007
  0
LINE
  5
2D0
100
AcDbEntity
  8
C_COPERCHIO
100
AcDbLine
 62
250
  6
CONTINUOUS
 10
-12.8211563636
 20
-12.2426970278
 11
-12.8138875026
 21
-12.4289010793
  0
LWPOLYLINE
  5
2D1
100
AcDbEntity
  8
C_COPERCHIO
100
AcDbPolyline
 62
7
  6
CONTINUOUS
 90
5
 70
0
 10
-12.87274425
 20
-14.7253386988
 10
-12.8782420165
 20
-14.3328339186
 10
-12.8820732021
 20
-14.0459132775
 10
-12.8857470508
 20
-13.7589110196
 10
-12.889263561
 20
-13.4718272731
  0
LINE
  5
2D2
100
AcDbEntity
  8
C_COPERCHIO
100
AcDbLine
 62
7
  6
CONTINUOUS
 10
-12.889263561
 20
-13.4718272731
 11
-12.8958245602
 21
-12.8974158306
  0
LWPOLYLINE
  5
2D3
100
AcDbEntity
  8
C_COPERCHIO
100
AcDbPolyline
 62
250
  6
CONTINUOUS
 90
7
 70
0
 10
-12.8138875026
 20
-12.4289010793
 10
-12.8094976738
 20
-12.8599942697
 10
-12.8047538167
 20
-13.2909048488
 10
-12.799655936
 20
-13.721632385
 10
-12.794204037
 20
-14.152176447
 10
-12.788398125
 20
-14.5825366036
 10
-12.7822382058
 20
-15.0127124239
  0
LINE
  5
2D4
100
AcDbEntity
  8
C_COPERCHIO
100
AcDbLine
 62
7
  6
CONTINUOUS
 10
-12.8958245602
 20
-12.8974158306
 11
-12.9017561889
 21
-12.3226799746
  0
LINE
  5
2D5
100
AcDbEntity
  8
C_COPERCHIO
100
AcDbLine
 62
7
  6
CONTINUOUS
 10
-14.076388673
 20
21.0518933599
 11
-14.076388673
 21
19.4497133879
  0
LINE
  5
2D6
100
AcDbEntity
  8
C_COPERCHIO
100
AcDbLine
 62
250
  6
CONTINUOUS
 10
-13.5522842065
 20
20.724090995
 11
-13.5522842065
 21
21.3118530391
  0
LINE
  5
2D7
100
AcDbEntity
  8
C_COPERCHIO
100
AcDbLine
 62
7
  6
CONTINUOUS
 10
-13.4821191565
 20
20.9056361322
 11
-13.4821191565
 21
21.3986853354
  0
LINE
  5
2D8
100
AcDbEntity
  8
C_COPERCHIO
100
AcDbLine
 62
7
  6
CONTINUOUS
 10
-11.8478024119
 20
17.693127093
 11
-11.8478024119
 21
18.7603056464
  0
LWPOLYLINE
  5
2D9
100
AcDbEntity
  8
C_COPERCHIO
100
AcDbPolyline
 62
7
  6
CONTINUOUS
 90
5
 70
0
 10
-13.4821089508
 20
20.9056435287
 10
-13.4821313875
 20
20.902905319
 10
-13.4833106466
 20
20.8802286766
 10
-13.4861763149
 20
20.8588530767
 10
-13.4906377
 20
20.8388893599
  0
LWPOLYLINE
  5
2DA
100
AcDbEntity
  8
C_COPERCHIO
100
AcDbPolyline
 62
7
  6
CONTINUOUS
 90
10
 70
0
 10
-3.9723192748
 20
13.8807447608
 10
-3.9883856466
 20
13.8691495412
 10
-4.0022669172
 20
13.8585202571
 10
-4.0140660905
 20
13.8489617505
 10
-4.0239558603
 20
13.8406211699
 10
-4.0319986879
 20
13.8334798825
 10
-4.0381074542
 20
13.8273934841
 10
-4.0423635872
 20
13.8224056224
 10
-4.0448719152
 20
13.8185627329
 10
-4.0455527852
 20
13.8160451024
  0
LWPOLYLINE
  5
2DB
100
AcDbEntity
  8
C_COPERCHIO
100
AcDbPolyline
 62
250
  6
CONTINUOUS
 90
7
 70
0
 10
-0.187966042
 20
14.6296939568
 10
-0.1669749328
 20
14.6420801419
 10
-0.1493673249
 20
14.6557258974
 10
-0.1354431948
 20
14.6704018182
 10
-0.1254400154
 20
14.6858621171
 10
-0.1195313267
 20
14.7018448599
 10
-0.1178009921
 20
14.7165262532
  0
LINE
  5
2DC
100
AcDbEntity
  8
C_COPERCHIO
100
AcDbLine
 62
7
  6
CONTINUOUS
 10
4.8919598274
 20
16.1691565894
 11
-0.466192629
 21
13.3366056174
  0
LINE
  5
2DD
100
AcDbEntity
  8
C_COPERCHIO
100
AcDbLine
 62
7
  6
CONTINUOUS
 10
4.8919598274
 20
16.4645052032
 11
-0.4100840224
 21
13.767075616
  0
LINE
  5
2DE
100
AcDbEntity
  8
C_COPERCHIO
100
AcDbLine
 62
250
  6
CONTINUOUS
 10
-0.8888202799
 20
14.6745825393
 11
-2.5107204066
 21
13.8573790196
  0
LINE
  5
2DF
100
AcDbEntity
  8
C_COPERCHIO
100
AcDbLine
 62
250
  6
CONTINUOUS
 10
-0.7120705086
 20
14.3697342777
 11
-2.3339706352
 21
13.5525307579
  0
LINE
  5
2E0
100
AcDbEntity
  8
C_COPERCHIO
100
AcDbLine
 62
250
  6
CONTINUOUS
 10
-0.3647158134
 20
14.9345422185
 11
-0.8888202799
 21
14.6745825393
  0
LINE
  5
2E1
100
AcDbEntity
  8
C_COPERCHIO
100
AcDbLine
 62
250
  6
CONTINUOUS
 10
-0.187966042
 20
14.6296939568
 11
-0.7120705086
 21
14.3697342777
  0
LINE
  5
2E2
100
AcDbEntity
  8
C_COPERCHIO
100
AcDbLine
 62
7
  6
CONTINUOUS
 10
3.9159610358
 20
17.385517944
 11
-0.6809128189
 21
15.1525906637
  0
LINE
  5
2E3
100
AcDbEntity
  8
C_CORPO
100
AcDbLine
 62
7
  6
CONTINUOUS
 10
10.6209982857
 20
18.8439311459
 11
7.0482666935
 21
17.1386611169
  0
LINE
  5
2E4
100
AcDbEntity
  8
C_COPERCHIO
100
AcDbLine
 62
250
  6
CONTINUOUS
 10
-0.0051252875
 20
13.1060719467
 11
-0.7167447347
 21
12.7774225037
  0
LWPOLYLINE
  5
2E5
100
AcDbEntity
  8
C_COPERCHIO
100
AcDbPolyline
 62
250
  6
CONTINUOUS
 90
13
 70
0
 10
-2.3339706352
 20
13.5525307579
 10
-2.3580842308
 20
13.54228025
 10
-2.3847819335
 20
13.5335824118
 10
-2.4136745922
 20
13.5266127905
 10
-2.4443916088
 20
13.5215141139
 10
-2.4763817781
 20
13.5184288576
 10
-2.5089023253
 20
13.5174498385
 10
-2.5413332945
 20
13.5185889981
 10
-2.5731939946
 20
13.5218227298
 10
-2.6039360485
 20
13.5270942648
 10
-2.6330382824
 20
13.5343116597
 10
-2.6600145246
 20
13.5433516262
 10
-2.6844119231
 20
13.5540598853
  0
LWPOLYLINE
  5
2E6
100
AcDbEntity
  8
C_COPERCHIO
100
AcDbPolyline
 62
250
  6
CONTINUOUS
 90
7
 70
0
 10
-0.3647158134
 20
14.9345422185
 10
-0.3419260476
 20
14.9436382591
 10
-0.3195692392
 20
14.948934105
 10
-0.2980194777
 20
14.9503411426
 10
-0.2776373486
 20
14.9478358282
 10
-0.2587638998
 20
14.9414600825
 10
-0.2559975932
 20
14.9401330509
  0
LWPOLYLINE
  5
2E7
100
AcDbEntity
  8
C_CONTATTI
100
AcDbPolyline
 62
7
  6
CONTINUOUS
 90
3
 70
0
 10
8.3983439144
 20
15.5249821048
 10
8.3951514415
 20
15.5239315714
 10
8.3863032312
 20
15.5201643238
  0
LWPOLYLINE
  5
2E8
100
AcDbEntity
  8
C_CONTATTI
100
AcDbPolyline
 62
250
  6
CONTINUOUS
 90
46
 70
0
 10
8.4799398304
 20
15.5138683153
 10
8.5190972973
 20
15.52529853
 10
8.5598033903
 20
15.5365872992
 10
8.6020581096
 20
15.5477346228
 10
8.6457178834
 20
15.5587573719
 10
8.6909262835
 20
15.5696386755
 10
8.7381140243
 20
15.5803279202
 10
8.7872775227
 20
15.5908477717
 10
8.8384203618
 20
15.6011755643
 10
8.891984006
 20
15.6111926872
 10
8.9479723147
 20
15.620927874
 10
9.0063814284
 20
15.630352391
 10
9.0676412331
 20
15.6392614272
 10
9.1317657863
 20
15.647689476
 10
9.1987410304
 20
15.6556020439
 10
9.2689546786
 20
15.6626908392
 10
9.3424386655
 20
15.6689966941
 10
9.4191610564
 20
15.6744787764
 10
9.4994137606
 20
15.6787062969
 10
9.5833247006
 20
15.6817208681
 10
9.6707659538
 20
15.6834808775
 10
9.7616456621
 20
15.6834306985
 10
9.8561163532
 20
15.6815925521
 10
9.9540254993
 20
15.6779442173
 10
10.0548236582
 20
15.6718634047
 10
10.1587684114
 20
15.6633248945
 10
10.2656021774
 20
15.6523539065
 10
10.3740027693
 20
15.6384038113
 10
10.4843176555
 20
15.6213402197
 10
10.5961993676
 20
15.601297521
 10
10.7072833142
 20
15.5781322532
 10
10.8175737802
 20
15.5516740612
 10
10.9270664806
 20
15.5220933001
 10
11.0333839686
 20
15.4897575738
 10
11.136153933
 20
15.4546316329
 10
11.2357486851
 20
15.4167507269
 10
11.3309077117
 20
15.3765882077
 10
11.4213696536
 20
15.3341994353
 10
11.50739587
 20
15.2895290498
 10
11.5885099262
 20
15.2428843234
 10
11.6647059009
 20
15.1942593977
 10
11.7359897155
 20
15.143660131
 10
11.8019026994
 20
15.0914113704
 10
11.8624517835
 20
15.0374698261
 10
11.917630037
 20
14.9818787877
 10
11.9212466248
 20
14.9777154108
  0
LWPOLYLINE
  5
2E9
100
AcDbEntity
  8
C_COPERCHIO
100
AcDbPolyline
 62
250
  6
CONTINUOUS
 90
10
 70
0
 10
-11.8478024119
 20
18.7603059344
 10
-11.8456947322
 20
18.7370968569
 10
-11.839263562
 20
18.7137664238
 10
-11.8287376932
 20
18.6911749097
 10
-11.8143723041
 20
18.669490554
 10
-11.7964499534
 20
18.6488641896
 10
-11.7756676675
 20
18.6297540056
 10
-11.7526510045
 20
18.6123191232
 10
-11.7277380167
 20
18.5964687872
 10
-11.7013558025
 20
18.5822010483
  0
LINE
  5
2EA
100
AcDbEntity
  8
C_COPERCHIO
100
AcDbLine
 62
250
  6
CONTINUOUS
 10
-11.7013558025
 20
17.5097037033
 11
-11.7013558025
 21
18.5822010483
  0
LINE
  5
2EB
100
AcDbEntity
  8
C_COPERCHIO
100
AcDbLine
 62
7
  6
CONTINUOUS
 10
-10.0458800202
 20
-5.3581806372
 11
-10.0458800202
 21
-0.2942887829
  0
LWPOLYLINE
  5
2EC
100
AcDbEntity
  8
C_COPERCHIO
100
AcDbPolyline
 62
7
  6
CONTINUOUS
 90
10
 70
0
 10
-9.5641113196
 20
-6.809692713
 10
-9.5617144728
 20
-6.2608508627
 10
-9.5576290394
 20
-5.5270458652
 10
-9.5525338509
 20
-4.7927462255
 10
-9.5464289237
 20
-4.0579540353
 10
-9.5393142771
 20
-3.3226713954
 10
-9.5311899335
 20
-2.5869004161
 10
-9.5220559179
 20
-1.8506432012
 10
-9.5119122583
 20
-1.1139018478
 10
-9.5036767051
 20
-0.5632762924
  0
LWPOLYLINE
  5
2ED
100
AcDbEntity
  8
C_COPERCHIO
100
AcDbPolyline
 62
250
  6
CONTINUOUS
 90
7
 70
0
 10
-11.4568210405
 20
-6.1102088906
 10
-11.4518286853
 20
-5.0100175449
 10
-11.444564266
 20
-3.9087091946
 10
-11.4350278295
 20
-2.8062909173
 10
-11.4232194369
 20
-1.7027697976
 10
-11.4091391641
 20
-0.5981529275
 10
-11.3927871017
 20
0.5075525942
  0
LWPOLYLINE
  5
2EE
100
AcDbEntity
  8
C_COPERCHIO
100
AcDbPolyline
 62
250
  6
CONTINUOUS
 90
7
 70
0
 10
-11.031581351
 20
-5.8510313026
 10
-11.026574461
 20
-4.8381714025
 10
-11.0196407674
 20
-3.8243422987
 10
-11.01078027
 20
-2.809543991
 10
-10.9999929689
 20
-1.7937764796
 10
-10.987278864
 20
-0.7770397642
 10
-10.973660307
 20
0.1696013605
  0
LWPOLYLINE
  5
2EF
100
AcDbEntity
  8
C_COPERCHIO
100
AcDbPolyline
 62
250
  6
CONTINUOUS
 90
7
 70
0
 10
-9.4128881144
 20
-0.4823968994
 10
-9.4292401768
 20
-1.5881024212
 10
-9.4433204496
 20
-2.6927192913
 10
-9.4551288422
 20
-3.7962404109
 10
-9.4646652787
 20
-4.8986586882
 10
-9.471929698
 20
-5.9999670386
 10
-9.4769220532
 20
-7.1001583843
  0
LWPOLYLINE
  5
2F0
100
AcDbEntity
  8
C_OTTURATORE
100
AcDbPolyline
 62
7
  6
CONTINUOUS
 90
14
 70
0
 10
-9.6787302956
 20
-0.4778636452
 10
-9.6870835985
 20
-0.5676950108
 10
-9.6933573052
 20
-0.6775331915
 10
-9.6955958151
 20
-0.7869288865
 10
-9.6937274292
 20
-0.8956261149
 10
-9.687682976
 20
-1.0034133704
 10
-9.6774072876
 20
-1.1099513549
 10
-9.6628794163
 20
-1.2148115453
 10
-9.6440777031
 20
-1.3177529815
 10
-9.6209952328
 20
-1.4185028698
 10
-9.5936897648
 20
-1.5166210753
 10
-9.5622116434
 20
-1.611833126
 10
-9.526591944
 20
-1.7039648993
 10
-9.5202323082
 20
-1.7181931061
  0
LWPOLYLINE
  5
2F1
100
AcDbEntity
  8
C_COPERCHIO
100
AcDbPolyline
 62
7
  6
CONTINUOUS
 90
12
 70
0
 10
-9.5036770776
 20
-0.5632760748
 10
-9.5036189314
 20
-0.5627590773
 10
-9.5021489188
 20
-0.5587192163
 10
-9.4986596853
 20
-0.5535024712
 10
-9.4931024495
 20
-0.5473455023
 10
-9.4858867988
 20
-0.540171309
 10
-9.4770414191
 20
-0.532109156
 10
-9.4665726898
 20
-0.5233501853
 10
-9.4548458997
 20
-0.513872159
 10
-9.4420115071
 20
-0.5037638494
 10
-9.428007412
 20
-0.4932270697
 10
-9.4128881144
 20
-0.4823968994
  0
LINE
  5
2F2
100
AcDbEntity
  8
C_CONTATTI
100
AcDbLine
 62
7
  6
CONTINUOUS
 10
2.7144558605
 20
18.3966103002
 11
2.9579515268
 21
18.6214826309
  0
LINE
  5
2F3
100
AcDbEntity
  8
C_COPERCHIO
100
AcDbLine
 62
7
  6
CONTINUOUS
 10
-20.4391532559
 20
-2.3576824086
 11
-20.4061634012
 21
-2.3344468235
  0
LWPOLYLINE
  5
2F4
100
AcDbEntity
  8
C_COPERCHIO
100
AcDbPolyline
 62
7
  6
CONTINUOUS
 90
3
 70
0
 10
-20.4061634012
 20
-2.3344468235
 10
-20.3879008113
 20
-2.3217026338
 10
-20.3682865639
 20
-2.3083909827
  0
LWPOLYLINE
  5
2F5
100
AcDbEntity
  8
C_COPERCHIO
100
AcDbPolyline
 62
250
  6
CONTINUOUS
 90
22
 70
0
 10
-6.2328087722
 20
9.7662490115
 10
-6.3080098846
 20
9.7215307113
 10
-6.3825477848
 20
9.6707489208
 10
-6.456058044
 20
9.6141581855
 10
-6.5281820422
 20
9.5520466275
 10
-6.5985668599
 20
9.484720113
 10
-6.6668661481
 20
9.4124983837
 10
-6.732753066
 20
9.3357296634
 10
-6.7958965568
 20
9.2548035752
 10
-6.8559626907
 20
9.1701362805
 10
-6.912648865
 20
9.0821656509
 10
-6.965691213
 20
8.9913153192
 10
-7.0148375289
 20
8.898004342
 10
-7.0598524661
 20
8.8026780484
 10
-7.1005062309
 20
8.7058244028
 10
-7.1365843116
 20
8.6079398906
 10
-7.1679073704
 20
8.5095196507
 10
-7.1943278875
 20
8.4110418926
 10
-7.2157150878
 20
8.3129821366
 10
-7.2319628027
 20
8.2158220362
 10
-7.2429916718
 20
8.1200469036
 10
-7.2487471654
 20
8.0261310472
  0
LWPOLYLINE
  5
2F6
100
AcDbEntity
  8
C_COPERCHIO
100
AcDbPolyline
 62
250
  6
CONTINUOUS
 90
22
 70
0
 10
-5.8669760322
 20
9.1632465658
 10
-5.9175730008
 20
9.1334411364
 10
-5.9673171305
 20
9.0999091198
 10
-6.0162084214
 20
9.0626505158
 10
-6.0645010987
 20
9.021434965
 10
-6.1119409372
 20
8.9764928269
 10
-6.1577652606
 20
8.9285151804
 10
-6.2019346148
 20
8.877459687
 10
-6.2444884539
 20
8.8233686851
 10
-6.2847824636
 20
8.7670602693
 10
-6.3227747354
 20
8.7085117704
 10
-6.3585071778
 20
8.6477458576
 10
-6.3914612019
 20
8.5856486327
 10
-6.4215991358
 20
8.5221929098
 10
-6.4489586515
 20
8.4574058748
 10
-6.4731341761
 20
8.3922551878
 10
-6.4940775067
 20
8.3267128121
 10
-6.5118368464
 20
8.2608067844
 10
-6.526151231
 20
8.1955888745
 10
-6.5369336728
 20
8.1314096724
 10
-6.5442711596
 20
8.067918588
 10
-6.5481636915
 20
8.0051156215
  0
LINE
  5
2F7
100
AcDbEntity
  8
C_COPERCHIO
100
AcDbLine
 62
250
  6
CONTINUOUS
 10
-1.9396773036
 20
12.10999567
 11
-6.2328087722
 21
9.7662490115
  0
LINE
  5
2F8
100
AcDbEntity
  8
C_COPERCHIO
100
AcDbLine
 62
7
  6
CONTINUOUS
 10
-0.7120705086
 20
12.7673014757
 11
-1.9275226913
 21
12.1037504028
  0
LINE
  5
2F9
100
AcDbEntity
  8
C_COPERCHIO
100
AcDbLine
 62
250
  6
CONTINUOUS
 10
-0.370855886
 20
12.1637401034
 11
-5.8669760322
 21
9.1632465658
  0
LINE
  5
2FA
100
AcDbEntity
  8
C_CORPO
100
AcDbLine
 62
7
  6
CONTINUOUS
 10
-0.0186511739
 20
13.1128348899
 11
5.58340589
 21
16.0556513236
  0
LINE
  5
2FB
100
AcDbEntity
  8
C_CONTATTI
100
AcDbLine
 62
7
  6
CONTINUOUS
 10
7.7691421229
 20
15.2077692295
 11
7.5757191611
 21
15.10856791
  0
LINE
  5
2FC
100
AcDbEntity
  8
C_CONTATTI
100
AcDbLine
 62
7
  6
CONTINUOUS
 10
7.9548999751
 20
15.3025529763
 11
7.7691421229
 21
15.2077692295
  0
LINE
  5
2FD
100
AcDbEntity
  8
C_CORPO
100
AcDbLine
 62
7
  6
CONTINUOUS
 10
7.4027623882
 20
16.2189586461
 11
11.6068899106
 21
18.3580342701
  0
LINE
  5
2FE
100
AcDbEntity
  8
C_CONTATTI
100
AcDbLine
 62
7
  6
CONTINUOUS
 10
7.0884008086
 20
14.869131066
 11
7.1959089398
 21
14.9237882877
  0
LINE
  5
2FF
100
AcDbEntity
  8
C_CONTATTI
100
AcDbLine
 62
7
  6
CONTINUOUS
 10
8.1330394686
 20
15.392917332
 11
7.9548999751
 21
15.3025529763
  0
LINE
  5
300
100
AcDbEntity
  8
C_CONTATTI
100
AcDbLine
 62
7
  6
CONTINUOUS
 10
7.1959089398
 20
14.9237882877
 11
7.3704760112
 21
15.0120126409
  0
LINE
  5
301
100
AcDbEntity
  8
C_CORPO
100
AcDbLine
 62
7
  6
CONTINUOUS
 10
6.7621321245
 20
15.310019926
 11
7.8395103872
 21
15.8501096108
  0
LINE
  5
302
100
AcDbEntity
  8
C_CORPO
100
AcDbLine
 62
7
  6
CONTINUOUS
 10
9.4431595659
 20
16.0875980912
 11
7.0500373137
 21
14.8879259913
  0
LINE
  5
303
100
AcDbEntity
  8
C_CONTATTI
100
AcDbLine
 62
7
  6
CONTINUOUS
 10
7.3704760112
 20
15.0120126409
 11
7.5377750938
 21
15.0959002551
  0
LWPOLYLINE
  5
304
100
AcDbEntity
  8
C_CONTATTI
100
AcDbPolyline
 62
7
  6
CONTINUOUS
 90
3
 70
0
 10
8.3863032312
 20
15.5201643238
 10
8.3037476075
 20
15.4788550229
 10
8.1330394686
 20
15.392917332
  0
LINE
  5
305
100
AcDbEntity
  8
C_CORPO
100
AcDbLine
 62
7
  6
CONTINUOUS
 10
7.4027623882
 20
15.8201369149
 11
11.6251991527
 21
17.9230008444
  0
LINE
  5
306
100
AcDbEntity
  8
C_CORPO
100
AcDbLine
 62
250
  6
CONTINUOUS
 10
6.6666011595
 20
14.1874158378
 11
6.8685293159
 21
14.2855022554
  0
LINE
  5
307
100
AcDbEntity
  8
C_COPERCHIO
100
AcDbLine
 62
250
  6
CONTINUOUS
 10
0.3485896632
 20
12.4960038996
 11
-0.370855886
 21
12.1637401034
  0
LWPOLYLINE
  5
308
100
AcDbEntity
  8
C_CONTATTI
100
AcDbPolyline
 62
7
  6
CONTINUOUS
 90
10
 70
0
 10
7.5377750938
 20
15.0959002551
 10
7.5466233041
 20
15.0996675026
 10
7.5559325161
 20
15.1023175334
 10
7.5657027299
 20
15.1038503473
 10
7.5760289253
 20
15.1042657916
 10
7.5868161224
 20
15.1035640191
 10
7.5977793814
 20
15.1017454878
 10
7.6088237221
 20
15.0988103503
 10
7.6200441246
 20
15.0947584539
 10
7.6314405888
 20
15.0895897987
  0
LWPOLYLINE
  5
309
100
AcDbEntity
  8
C_COPERCHIO
100
AcDbPolyline
 62
250
  6
CONTINUOUS
 90
13
 70
0
 10
-6.5481636915
 20
8.0051156215
 10
-6.5974584215
 20
7.9865206916
 10
-6.651740164
 20
7.9712460902
 10
-6.7101006223
 20
7.9595474073
 10
-6.7715632502
 20
7.9516203971
 10
-6.8350995934
 20
7.9475977023
 10
-6.8996464977
 20
7.9475466347
 10
-6.9641238994
 20
7.9514680487
 10
-7.0274528977
 20
7.9592963274
 10
-7.0885738079
 20
7.9709004803
 10
-7.1464638936
 20
7.9860863351
 10
-7.2001544794
 20
8.0045997867
 10
-7.2487471605
 20
8.0261310494
  0
LINE
  5
30A
100
AcDbEntity
  8
C_COPERCHIO
100
AcDbLine
 62
250
  6
CONTINUOUS
 10
-18.4592542686
 20
-3.3476319023
 11
-20.4391532559
 21
-2.3576824086
  0
LINE
  5
30B
100
AcDbEntity
  8
C_COPERCHIO
100
AcDbLine
 62
250
  6
CONTINUOUS
 10
-18.5459955716
 20
-2.8329982185
 11
-20.014889905
 21
-2.0985510518
  0
LINE
  5
30C
100
AcDbEntity
  8
C_COPERCHIO
100
AcDbLine
 62
250
  6
CONTINUOUS
 10
-9.4769220532
 20
-7.1001583843
 11
-11.4568210405
 21
-6.1102088906
  0
LINE
  5
30D
100
AcDbEntity
  8
C_COPERCHIO
100
AcDbLine
 62
250
  6
CONTINUOUS
 10
-9.5631354438
 20
-6.5862318405
 11
-11.0325589353
 21
-5.8515200947
  0
LINE
  5
30E
100
AcDbEntity
  8
C_COPERCHIO
100
AcDbLine
 62
7
  6
CONTINUOUS
 10
-18.5421472862
 20
-1.8461685974
 11
-19.0261361413
 21
-1.6041741699
  0
LWPOLYLINE
  5
30F
100
AcDbEntity
  8
C_COPERCHIO
100
AcDbPolyline
 62
7
  6
CONTINUOUS
 90
12
 70
0
 10
-9.4769220532
 20
-7.1001583843
 10
-9.491693675
 20
-7.0735129181
 10
-9.5053347634
 20
-7.0460713442
 10
-9.5177951046
 20
-7.0179177793
 10
-9.5291396559
 20
-6.9891037798
 10
-9.5392244929
 20
-6.9597855626
 10
-9.547693623
 20
-6.930223733
 10
-9.5545452432
 20
-6.9006000952
 10
-9.5597543203
 20
-6.8710200446
 10
-9.5629180602
 20
-6.841657014
 10
-9.5640901258
 20
-6.8127184774
 10
-9.564104911
 20
-6.8096911506
  0
LWPOLYLINE
  5
310
100
AcDbEntity
  8
C_COPERCHIO
100
AcDbPolyline
 62
7
  6
CONTINUOUS
 90
4
 70
0
 10
-1.8013945194
 20
-26.5884636368
 10
-1.7958936995
 20
-26.6061388817
 10
-1.7925103839
 20
-26.6258127935
 10
-1.7912445725
 20
-26.6474853722
  0
LWPOLYLINE
  5
311
100
AcDbEntity
  8
C_COPERCHIO
100
AcDbPolyline
 62
250
  6
CONTINUOUS
 90
22
 70
0
 10
-6.5481636915
 20
-27.5745090063
 10
-6.5442671924
 20
-27.633584225
 10
-6.5369237449
 20
-27.6900156297
 10
-6.526133349
 20
-27.7438032203
 10
-6.5118095835
 20
-27.795212421
 10
-6.4940388696
 20
-27.8439778077
 10
-6.4730804712
 20
-27.8893031075
 10
-6.4488829357
 20
-27.9311167828
 10
-6.4214977157
 20
-27.9694903713
 10
-6.3913384328
 20
-28.0038422129
 10
-6.3583689477
 20
-28.0341049392
 10
-6.3226253996
 20
-28.0603459186
 10
-6.2846298281
 20
-28.0821855968
 10
-6.2443440841
 20
-28.0995607445
 10
-6.2018063166
 20
-28.1125345911
 10
-6.1576530122
 20
-28.1209172698
 10
-6.1118409201
 20
-28.1246304699
 10
-6.0644132912
 20
-28.1237525022
 10
-6.016136364
 20
-28.1183284323
 10
-5.9672655516
 20
-28.1083732819
 10
-5.917545441
 20
-28.0938720293
 10
-5.8669760322
 20
-28.0748246744
  0
LWPOLYLINE
  5
312
100
AcDbEntity
  8
C_COPERCHIO
100
AcDbPolyline
 62
250
  6
CONTINUOUS
 90
13
 70
0
 10
-7.2487471654
 20
-27.5891088204
 10
-7.2429912219
 20
-27.6774092202
 10
-7.2319616234
 20
-27.7624113673
 10
-7.2157132099
 20
-27.8436956484
 10
-7.1943259607
 20
-27.9208583411
 10
-7.1679061505
 20
-27.9935223288
 10
-7.1365835173
 20
-28.061336769
 10
-7.1005044266
 20
-28.1239737555
 10
-7.0598486378
 20
-28.1811138846
 10
-7.0148318361
 20
-28.2324594066
 10
-6.9656844673
 20
-28.2777530995
 10
-6.9126415882
 20
-28.316784496
 10
-6.8563547919
 20
-28.3491688571
  0
LWPOLYLINE
  5
313
100
AcDbEntity
  8
C_COPERCHIO
100
AcDbPolyline
 62
250
  6
CONTINUOUS
 90
8
 70
0
 10
-7.4591305045
 20
0.0119766258
 10
-7.519247434
 20
-3.9747414565
 10
-7.5493071321
 20
-7.9474420989
 10
-7.5493071321
 20
-11.9057933394
 10
-7.5192474339
 20
-15.8494645138
 10
-7.4591305044
 20
-19.7781261269
 10
-7.36896128
 20
-23.6914498809
 10
-7.2487471654
 20
-27.5891088204
  0
LINE
  5
314
100
AcDbEntity
  8
C_COPERCHIO
100
AcDbLine
 62
250
  6
CONTINUOUS
 10
-7.3689612801
 20
4.0123789136
 11
-7.4591305045
 21
0.0119766258
  0
LINE
  5
315
100
AcDbEntity
  8
C_COPERCHIO
100
AcDbLine
 62
250
  6
CONTINUOUS
 10
-7.2487471654
 20
8.0261310472
 11
-7.3689612801
 21
4.0123789136
  0
LWPOLYLINE
  5
316
100
AcDbEntity
  8
C_COPERCHIO
100
AcDbPolyline
 62
7
  6
CONTINUOUS
 90
9
 70
0
 10
-15.4478026489
 20
-8.7663828141
 10
-15.4823633059
 20
-8.8164670917
 10
-15.5490205291
 20
-8.9373977337
 10
-15.6059337888
 20
-9.068947406
 10
-15.6532632751
 20
-9.2109415326
 10
-15.6902222718
 20
-9.3610198708
 10
-15.7165485404
 20
-9.5183956731
 10
-15.7325043193
 20
-9.6838556872
 10
-15.7380896088
 20
-9.8573999128
  0
LINE
  5
317
100
AcDbEntity
  8
C_COPERCHIO
100
AcDbLine
 62
7
  6
CONTINUOUS
 10
-0.7120705086
 20
13.3933873306
 11
-0.187966042
 21
14.0419319128
  0
LWPOLYLINE
  5
318
100
AcDbEntity
  8
C_COPERCHIO
100
AcDbPolyline
 62
7
  6
CONTINUOUS
 90
3
 70
0
 10
-20.3682865639
 20
-2.3083909827
 10
-20.3255042799
 20
-2.2801565883
 10
-20.3026203769
 20
-2.2653605261
  0
LWPOLYLINE
  5
319
100
AcDbEntity
  8
C_COPERCHIO
100
AcDbPolyline
 62
7
  6
CONTINUOUS
 90
3
 70
0
 10
-20.3026203769
 20
-2.2653605261
 10
-20.2540537394
 20
-2.2347608352
 10
-20.2286079378
 20
-2.2190562726
  0
LWPOLYLINE
  5
31A
100
AcDbEntity
  8
C_COPERCHIO
100
AcDbPolyline
 62
7
  6
CONTINUOUS
 90
3
 70
0
 10
-20.2286079378
 20
-2.2190562726
 10
-20.1757728504
 20
-2.1873127513
 10
-20.1486422259
 20
-2.1713926727
  0
LINE
  5
31B
100
AcDbEntity
  8
C_CONTATTI
100
AcDbLine
 62
7
  6
CONTINUOUS
 10
7.5757191611
 20
15.10856791
 11
7.5679607324
 21
15.1039814379
  0
LWPOLYLINE
  5
31C
100
AcDbEntity
  8
C_COPERCHIO
100
AcDbPolyline
 62
7
  6
CONTINUOUS
 90
4
 70
0
 10
-20.1486422259
 20
-2.1713926727
 10
-20.0670020269
 20
-2.1251977471
 10
-20.0406106715
 20
-2.1111058275
 10
-20.014889905
 20
-2.0985510518
  0
LINE
  5
31D
100
AcDbEntity
  8
C_OTTURATORE
100
AcDbLine
 62
7
  6
CONTINUOUS
 10
-18.5404125734
 20
-1.4728128196
 11
-18.9042152279
 21
-1.6651346266
  0
LINE
  5
31E
100
AcDbEntity
  8
C_CORPO
100
AcDbLine
 62
250
  6
CONTINUOUS
 10
7.1599867262
 20
13.9571532855
 11
0.3485896632
 21
10.491836044
  0
LINE
  5
31F
100
AcDbEntity
  8
C_CORPO
100
AcDbLine
 62
250
  6
CONTINUOUS
 10
7.5741372019
 20
12.5255197109
 11
0.3485896632
 21
8.8495022605
  0
LINE
  5
320
100
AcDbEntity
  8
C_CONTATTI
100
AcDbLine
 62
7
  6
CONTINUOUS
 10
10.9481203132
 20
15.3333671779
 11
10.2411513731
 21
14.9798827078
  0
LINE
  5
321
100
AcDbEntity
  8
C_CONTATTI
100
AcDbLine
 62
7
  6
CONTINUOUS
 10
11.44309506
 20
15.0858798045
 11
10.7361261199
 21
14.7323953344
  0
LINE
  5
322
100
AcDbEntity
  8
C_COPERCHIO
100
AcDbLine
 62
7
  6
CONTINUOUS
 10
-20.014889905
 20
-2.0985510518
 11
-19.0261361413
 21
-1.6041741699
  0
LINE
  5
323
100
AcDbEntity
  8
C_CORPO
100
AcDbLine
 62
250
  6
CONTINUOUS
 10
15.9111978468
 20
16.1988313654
 11
7.5741372019
 21
12.0635878239
  0
LINE
  5
324
100
AcDbEntity
  8
C_CORPO
100
AcDbLine
 62
7
  6
CONTINUOUS
 10
15.2031532027
 20
16.5528536874
 11
11.6400635491
 21
14.842762689
  0
LINE
  5
325
100
AcDbEntity
  8
C_COPERCHIO
100
AcDbLine
 62
7
  6
CONTINUOUS
 10
-9.558046885
 20
-5.6020972048
 11
-10.0458800202
 21
-5.3581806372
  0
LWPOLYLINE
  5
326
100
AcDbEntity
  8
C_COPERCHIO
100
AcDbPolyline
 62
250
  6
CONTINUOUS
 90
7
 70
0
 10
-4.0455424212
 20
-27.6478804832
 10
-4.0432610494
 20
-27.6645888646
 10
-4.0367935859
 20
-27.6805192147
 10
-4.0262505159
 20
-27.6958902417
 10
-4.011815726
 20
-27.7104413586
 10
-3.9937357931
 20
-27.7239294797
 10
-3.9723192748
 20
-27.736128179
  0
LWPOLYLINE
  5
327
100
AcDbEntity
  8
C_COPERCHIO
100
AcDbPolyline
 62
250
  6
CONTINUOUS
 90
16
 70
0
 10
-5.8669760322
 20
9.1632465658
 10
-5.8708425882
 20
9.2084542781
 10
-5.8784677027
 20
9.2551353615
 10
-5.8897679654
 20
9.3027789897
 10
-5.9046197459
 20
9.3508637929
 10
-5.9228605484
 20
9.3988635717
 10
-5.9442907909
 20
9.4462530555
 10
-5.9686759884
 20
9.4925136454
 10
-5.9957493046
 20
9.5371390674
 10
-6.0252144706
 20
9.579640925
 10
-6.0567490564
 20
9.6195540855
 10
-6.0900079679
 20
9.6564417228
 10
-6.1246272028
 20
9.6899000893
 10
-6.1602278896
 20
9.7195629996
 10
-6.1964204393
 20
9.7451058254
 10
-6.2328087703
 20
9.7662490126
  0
LWPOLYLINE
  5
328
100
AcDbEntity
  8
C_COPERCHIO
100
AcDbPolyline
 62
250
  6
CONTINUOUS
 90
6
 70
0
 10
-6.8484239729
 20
-7.952357284
 10
-6.8484240303
 20
-11.906980794
 10
-6.8183980352
 20
-15.8466076126
 10
-6.7583459731
 20
-19.7709047686
 10
-6.6682678586
 20
-23.6802052331
 10
-6.5481636915
 20
-27.5745090063
  0
LINE
  5
329
100
AcDbEntity
  8
C_COPERCHIO
100
AcDbLine
 62
250
  6
CONTINUOUS
 10
-6.4042800971
 20
19.3359092122
 11
-6.4042800971
 21
18.6579086258
  0
LINE
  5
32A
100
AcDbEntity
  8
C_COPERCHIO
100
AcDbLine
 62
250
  6
CONTINUOUS
 10
-6.1983732163
 20
14.7582124102
 11
-6.1983732163
 21
15.8307097552
  0
LINE
  5
32B
100
AcDbEntity
  8
C_COPERCHIO
100
AcDbLine
 62
7
  6
CONTINUOUS
 10
-5.6971733159
 20
19.6743460732
 11
-5.6971733159
 21
20.1732364953
  0
LINE
  5
32C
100
AcDbEntity
  8
C_COPERCHIO
100
AcDbLine
 62
250
  6
CONTINUOUS
 10
-5.4974906404
 20
14.7774513379
 11
-5.4974906404
 21
15.8321073134
  0
LINE
  5
32D
100
AcDbEntity
  8
C_COPERCHIO
100
AcDbLine
 62
7
  6
CONTINUOUS
 10
-5.3436199253
 20
19.9964598
 11
-5.3436199253
 21
19.4975693779
  0
LINE
  5
32E
100
AcDbEntity
  8
C_COPERCHIO
100
AcDbLine
 62
250
  6
CONTINUOUS
 10
-5.3319509089
 20
20.3480399738
 11
-5.3319509089
 21
21.5502320425
  0
LINE
  5
32F
100
AcDbEntity
  8
C_COPERCHIO
100
AcDbLine
 62
7
  6
CONTINUOUS
 10
-5.2196270862
 20
20.4795276165
 11
-5.2196270862
 21
21.538204865
  0
LINE
  5
330
100
AcDbEntity
  8
C_COPERCHIO
100
AcDbLine
 62
7
  6
CONTINUOUS
 10
-5.131487891
 20
16.0165198614
 11
-5.131487891
 21
14.9772629969
  0
LINE
  5
331
100
AcDbEntity
  8
C_COPERCHIO
100
AcDbLine
 62
250
  6
CONTINUOUS
 10
-4.9900665348
 20
19.3207926826
 11
-4.9900665348
 21
18.7971062925
  0
LINE
  5
332
100
AcDbEntity
  8
C_COPERCHIO
100
AcDbLine
 62
250
  6
CONTINUOUS
 10
-6.818397906
 20
-3.9837359961
 11
-6.8484239729
 21
-7.952357284
  0
LWPOLYLINE
  5
333
100
AcDbEntity
  8
C_COPERCHIO
100
AcDbPolyline
 62
250
  6
CONTINUOUS
 90
4
 70
0
 10
-6.5481636915
 20
8.0051156215
 10
-6.6682677725
 20
3.9948339711
 10
-6.758345844
 20
-0.0014499015
 10
-6.818397906
 20
-3.9837359961
  0
LWPOLYLINE
  5
334
100
AcDbEntity
  8
C_COPERCHIO
100
AcDbPolyline
 62
250
  6
CONTINUOUS
 90
13
 70
0
 10
-3.9723192748
 20
14.1980135612
 10
-3.9708288347
 20
14.226813961
 10
-3.96638068
 20
14.2566291981
 10
-3.9590469581
 20
14.2869569324
 10
-3.9489474661
 20
14.3172885503
 10
-3.9362508477
 20
14.3471079703
 10
-3.9211745227
 20
14.3759011442
 10
-3.90393523
 20
14.4032364286
 10
-3.8848548891
 20
14.4285878452
 10
-3.8643977042
 20
14.4513821139
 10
-3.8429817535
 20
14.471247149
 10
-3.820935064
 20
14.4879667984
 10
-3.7986277582
 20
14.5013326954
  0
LINE
  5
335
100
AcDbEntity
  8
C_CONTATTI
100
AcDbLine
 62
7
  6
CONTINUOUS
 10
8.9428785743
 20
14.4338708059
 11
8.925707089
 21
14.4180126514
  0
LINE
  5
336
100
AcDbEntity
  8
C_CORPO
100
AcDbLine
 62
250
  6
CONTINUOUS
 10
16.6181969322
 20
14.9794383188
 11
7.9154566629
 21
10.6628149877
  0
LWPOLYLINE
  5
337
100
AcDbEntity
  8
C_CORPO
100
AcDbPolyline
 62
7
  6
CONTINUOUS
 90
7
 70
0
 10
18.4855725206
 20
11.4259428591
 10
18.3882875166
 20
11.3966851021
 10
18.2892407627
 20
11.3665810687
 10
18.1884322587
 20
11.3356307588
 10
18.0858620047
 20
11.3038341726
 10
17.9815300007
 20
11.2711913099
 10
17.8754362466
 20
11.2377021708
  0
LINE
  5
338
100
AcDbEntity
  8
C_COPERCHIO
100
AcDbLine
 62
7
  6
CONTINUOUS
 10
-11.1479871932
 20
0.2567648036
 11
-9.5018328793
 21
-0.5663123533
  0
LINE
  5
339
100
AcDbEntity
  8
C_COPERCHIO
100
AcDbLine
 62
250
  6
CONTINUOUS
 10
-11.3927871017
 20
0.5075525942
 11
-9.4128881144
 21
-0.4823968994
  0
LWPOLYLINE
  5
33A
100
AcDbEntity
  8
C_COPERCHIO
100
AcDbPolyline
 62
7
  6
CONTINUOUS
 90
13
 70
0
 10
-11.1479439749
 20
0.256743204
 10
-11.1594587794
 20
0.2627576571
 10
-11.185381222
 20
0.278122068
 10
-11.2105347844
 20
0.2954737164
 10
-11.2348912247
 20
0.3146132985
 10
-11.2584801677
 20
0.3353433568
 10
-11.2810436223
 20
0.3574071027
 10
-11.3026058512
 20
0.3806730601
 10
-11.3231776572
 20
0.4049522984
 10
-11.3424700211
 20
0.4299399017
 10
-11.3604152985
 20
0.4554380463
 10
-11.377169492
 20
0.4813539703
 10
-11.3927871017
 20
0.5075525942
  0
LWPOLYLINE
  5
33B
100
AcDbEntity
  8
C_COPERCHIO
100
AcDbPolyline
 62
250
  6
CONTINUOUS
 90
9
 70
0
 10
-11.6489013374
 20
18.918225664
 10
-11.6449890763
 20
18.9040577525
 10
-11.6388117703
 20
18.890438477
 10
-11.6301789523
 20
18.877422662
 10
-11.6192810894
 20
18.8649554829
 10
-11.6069693999
 20
18.8534263243
 10
-11.593527623
 20
18.842964981
 10
-11.5786720195
 20
18.8334416582
 10
-11.5624025893
 20
18.8248563558
  0
LWPOLYLINE
  5
33C
100
AcDbEntity
  8
C_COPERCHIO
100
AcDbPolyline
 62
7
  6
CONTINUOUS
 90
3
 70
0
 10
-4.0455527852
 20
13.8160451024
 10
-4.0455303486
 20
13.8157696019
 10
-4.0441874998
 20
13.8139470714
  0
LWPOLYLINE
  5
33D
100
AcDbEntity
  8
C_COPERCHIO
100
AcDbPolyline
 62
250
  6
CONTINUOUS
 90
3
 70
0
 10
-1.8056573693
 20
-26.6405363073
 10
-1.8076653655
 20
-26.6124564172
 10
-1.813020716
 20
-26.5897725629
  0
LINE
  5
33E
100
AcDbEntity
  8
C_COPERCHIO
100
AcDbLine
 62
250
  6
CONTINUOUS
 10
-4.0455425795
 20
-27.6477398313
 11
-4.0455424212
 21
-27.6478804832
  0
LINE
  5
33F
100
AcDbEntity
  8
C_COPERCHIO
100
AcDbLine
 62
7
  6
CONTINUOUS
 10
-4.0455425795
 20
-27.6477398313
 11
-4.0455425795
 21
-27.5268945592
  0
LINE
  5
340
100
AcDbEntity
  8
C_COPERCHIO
100
AcDbLine
 62
7
  6
CONTINUOUS
 10
-4.0455425795
 20
13.8160275001
 11
-4.0455425795
 21
14.2864019088
  0
LINE
  5
341
100
AcDbEntity
  8
C_COPERCHIO
100
AcDbLine
 62
250
  6
CONTINUOUS
 10
-3.9723192748
 20
-27.736128179
 11
-3.9723192748
 21
-27.4961583902
  0
LINE
  5
342
100
AcDbEntity
  8
C_COPERCHIO
100
AcDbLine
 62
250
  6
CONTINUOUS
 10
-3.9723192748
 20
13.8807447608
 11
-3.9723192748
 21
14.1980135612
  0
LINE
  5
343
100
AcDbEntity
  8
C_COPERCHIO
100
AcDbLine
 62
7
  6
CONTINUOUS
 10
-3.451273063
 20
13.517489853
 11
-3.451273063
 21
13.1727811933
  0
LINE
  5
344
100
AcDbEntity
  8
C_COPERCHIO
100
AcDbLine
 62
250
  6
CONTINUOUS
 10
-2.6844119231
 20
13.5540598853
 11
-2.6844119231
 21
13.236791085
  0
LINE
  5
345
100
AcDbEntity
  8
C_COPERCHIO
100
AcDbLine
 62
250
  6
CONTINUOUS
 10
-2.6844119231
 20
-28.0628130544
 11
-2.6844119231
 21
-28.3800818548
  0
LINE
  5
346
100
AcDbEntity
  8
C_COPERCHIO
100
AcDbLine
 62
7
  6
CONTINUOUS
 10
-2.5859034787
 20
20.4653227636
 11
-2.5859034787
 21
20.2702098185
  0
LINE
  5
347
100
AcDbEntity
  8
C_COPERCHIO
100
AcDbLine
 62
250
  6
CONTINUOUS
 10
-2.3339706352
 20
13.5525307579
 11
-2.3339706352
 21
12.9874435084
  0
LINE
  5
348
100
AcDbEntity
  8
C_COPERCHIO
100
AcDbLine
 62
250
  6
CONTINUOUS
 10
-2.3339706352
 20
-27.8165237326
 11
-2.3339706352
 21
-28.3816109822
  0
LWPOLYLINE
  5
349
100
AcDbEntity
  8
C_COPERCHIO
100
AcDbPolyline
 62
250
  6
CONTINUOUS
 90
13
 70
0
 10
-2.6844119231
 20
13.5540598853
 10
-2.682921483
 20
13.5828602852
 10
-2.6784733284
 20
13.6126755223
 10
-2.6711396064
 20
13.6430032566
 10
-2.6610401144
 20
13.6733348745
 10
-2.6483434961
 20
13.7031542945
 10
-2.633267171
 20
13.7319474683
 10
-2.6160278784
 20
13.7592827528
 10
-2.5969475374
 20
13.7846341694
 10
-2.5764903525
 20
13.8074284381
 10
-2.5550744019
 20
13.8272934732
 10
-2.5330277123
 20
13.8440131225
 10
-2.5107204066
 20
13.8573790196
  0
LWPOLYLINE
  5
34A
100
AcDbEntity
  8
C_COPERCHIO
100
AcDbPolyline
 62
7
  6
CONTINUOUS
 90
13
 70
0
 10
-1.7912445725
 20
12.3425096145
 10
-1.792510389
 20
12.3196146522
 10
-1.7958937077
 20
12.296673507
 10
-1.8013945285
 20
12.2736861789
 10
-1.8091630687
 20
12.2502788298
 10
-1.819049111
 20
12.2268252978
 10
-1.8306020036
 20
12.2044470974
 10
-1.843912241
 20
12.1831940849
 10
-1.8588893287
 20
12.163016404
 10
-1.8748111311
 20
12.1448860008
 10
-1.8914369364
 20
12.1291268572
 10
-1.9090074565
 20
12.1154149912
 10
-1.9275226913
 20
12.1037504028
  0
LWPOLYLINE
  5
34B
100
AcDbEntity
  8
C_COPERCHIO
100
AcDbPolyline
 62
250
  6
CONTINUOUS
 90
10
 70
0
 10
-1.8056573693
 20
12.3499733464
 10
-1.8076653651
 20
12.3198854628
 10
-1.8136323308
 20
12.2886439996
 10
-1.8233888204
 20
12.2571361314
 10
-1.8366577753
 20
12.2262565983
 10
-1.8530623926
 20
12.196882297
 10
-1.8721368245
 20
12.1698473798
 10
-1.8933394077
 20
12.1459195668
 10
-1.9160680451
 20
12.1257783445
 10
-1.9396773036
 20
12.10999567
  0
LWPOLYLINE
  5
34C
100
AcDbEntity
  8
C_COPERCHIO
100
AcDbPolyline
 62
250
  6
CONTINUOUS
 90
10
 70
0
 10
-5.8669760322
 20
-28.0748246744
 10
-5.8708426981
 20
-28.1199639723
 10
-5.8784680402
 20
-28.1626412684
 10
-5.8897686107
 20
-28.2023895243
 10
-5.9046207419
 20
-28.2387737558
 10
-5.9228618998
 20
-28.2713957926
 10
-5.9442924626
 20
-28.2998986359
 10
-5.9686779054
 20
-28.3239703656
 10
-5.9957513665
 20
-28.3433475529
 10
-6.0207832758
 20
-28.356020372
  0
LINE
  5
34D
100
AcDbEntity
  8
C_CONTATTI
100
AcDbLine
 62
7
  6
CONTINUOUS
 10
3.1699457201
 20
19.2224544744
 11
2.9684463622
 21
18.6267300486
  0
LINE
  5
34E
100
AcDbEntity
  8
C_CONTATTI
100
AcDbLine
 62
7
  6
CONTINUOUS
 10
10.4926304536
 20
14.5075230037
 11
10.7361261199
 21
14.7323953344
  0
LINE
  5
34F
100
AcDbEntity
  8
C_COPERCHIO
100
AcDbLine
 62
7
  6
CONTINUOUS
 10
-20.1157797
 20
5.4890237153
 11
-18.4700704846
 21
4.6661691076
  0
LINE
  5
350
100
AcDbEntity
  8
C_COPERCHIO
100
AcDbLine
 62
250
  6
CONTINUOUS
 10
-20.3607948087
 20
5.7403683931
 11
-18.3808958214
 21
4.7504188995
  0
LWPOLYLINE
  5
351
100
AcDbEntity
  8
C_COPERCHIO
100
AcDbPolyline
 62
7
  6
CONTINUOUS
 90
13
 70
0
 10
-20.1157368601
 20
5.4890023046
 10
-20.1277440468
 20
5.4952857718
 10
-20.1536447103
 20
5.510688682
 10
-20.1787751722
 20
5.5280765319
 10
-20.203107433
 20
5.5472499196
 10
-20.2266714254
 20
5.5680112139
 10
-20.2492092306
 20
5.5901037483
 10
-20.2707452739
 20
5.6133960206
 10
-20.2912906161
 20
5.6376989893
 10
-20.3105564078
 20
5.6627077334
 10
-20.328475175
 20
5.6882244304
 10
-20.345203092
 20
5.7141563305
 10
-20.3607948087
 20
5.7403683931
  0
LWPOLYLINE
  5
352
100
AcDbEntity
  8
C_COPERCHIO
100
AcDbPolyline
 62
250
  6
CONTINUOUS
 90
13
 70
0
 10
-2.3339706352
 20
13.5525307579
 10
-2.3358653066
 20
13.5813519804
 10
-2.3406978708
 20
13.6112181718
 10
-2.3483856735
 20
13.6416185114
 10
-2.3587972251
 20
13.6720330422
 10
-2.3717544501
 20
13.7019415647
 10
-2.3870357326
 20
13.730832534
 10
-2.4043797069
 20
13.758211809
 10
-2.4234897277
 20
13.7836111041
 10
-2.4440389438
 20
13.8065959986
 10
-2.4656758885
 20
13.8267733669
 10
-2.4880304913
 20
13.8437981023
 10
-2.5107204066
 20
13.8573790196
  0
LWPOLYLINE
  5
353
100
AcDbEntity
  8
C_COPERCHIO
100
AcDbPolyline
 62
7
  6
CONTINUOUS
 90
13
 70
0
 10
-0.7120705086
 20
14.3697342777
 10
-0.7135750297
 20
14.3987500726
 10
-0.7180865672
 20
14.4287765783
 10
-0.725522704
 20
14.4593030952
 10
-0.7357503693
 20
14.4898109293
 10
-0.7485935375
 20
14.5197786072
 10
-0.7638360528
 20
14.548690841
 10
-0.7812203281
 20
14.5760514968
 10
-0.8004458604
 20
14.6013941458
 10
-0.8211794824
 20
14.6242866333
 10
-0.8430675082
 20
14.6443368152
 10
-0.8657418881
 20
14.6611990813
 10
-0.8888202799
 20
14.6745825393
  0
LWPOLYLINE
  5
354
100
AcDbEntity
  8
C_COPERCHIO
100
AcDbPolyline
 62
7
  6
CONTINUOUS
 90
12
 70
0
 10
-2.5859034787
 20
20.4653227636
 10
-2.588371698
 20
20.5381458387
 10
-2.5960372715
 20
20.6073352232
 10
-2.6089001993
 20
20.672890917
 10
-2.6272080558
 20
20.7355190934
 10
-2.6507132665
 20
20.7945135791
 10
-2.6786731082
 20
20.8477558543
 10
-2.7110812463
 20
20.8947343179
 10
-2.7479440153
 20
20.9359605709
 10
-2.7885376951
 20
20.9708508968
 10
-2.8328730816
 20
20.9993920985
 10
-2.8458446504
 20
21.0062205527
  0
LINE
  5
355
100
AcDbEntity
  8
C_COPERCHIO
100
AcDbLine
 62
7
  6
CONTINUOUS
 10
-1.7912445725
 20
12.8723141908
 11
-1.7912445725
 21
12.3425096145
  0
LINE
  5
356
100
AcDbEntity
  8
C_COPERCHIO
100
AcDbLine
 62
7
  6
CONTINUOUS
 10
-1.7912445725
 20
-26.6474853722
 11
-1.7912445725
 21
-27.1772899485
  0
LINE
  5
357
100
AcDbEntity
  8
C_COPERCHIO
100
AcDbLine
 62
7
  6
CONTINUOUS
 10
-0.7120705086
 20
-27.6325637558
 11
-0.7120705086
 21
-26.1276383849
  0
LINE
  5
358
100
AcDbEntity
  8
C_COPERCHIO
100
AcDbLine
 62
7
  6
CONTINUOUS
 10
-0.7120705086
 20
12.7673014757
 11
-0.7120705086
 21
14.3697342777
  0
LINE
  5
359
100
AcDbEntity
  8
C_CORPO
100
AcDbLine
 62
250
  6
CONTINUOUS
 10
-0.3754122049
 20
19.7092242114
 11
-0.3754122049
 21
20.1080459427
  0
LINE
  5
35A
100
AcDbEntity
  8
C_COPERCHIO
100
AcDbLine
 62
250
  6
CONTINUOUS
 10
-0.187966042
 20
-27.3497973722
 11
-0.187966042
 21
-26.7620353282
  0
LINE
  5
35B
100
AcDbEntity
  8
C_COPERCHIO
100
AcDbLine
 62
250
  6
CONTINUOUS
 10
-0.187966042
 20
14.0419319128
 11
-0.187966042
 21
14.6296939568
  0
LINE
  5
35C
100
AcDbEntity
  8
C_COPERCHIO
100
AcDbLine
 62
7
  6
CONTINUOUS
 10
-0.1178009921
 20
-27.2629650759
 11
-0.1178009921
 21
-26.7699158727
  0
LINE
  5
35D
100
AcDbEntity
  8
C_COPERCHIO
100
AcDbLine
 62
7
  6
CONTINUOUS
 10
-0.1178009921
 20
14.2234770493
 11
-0.1178009921
 21
14.7165262532
  0
LINE
  5
35E
100
AcDbEntity
  8
C_COPERCHIO
100
AcDbLine
 62
250
  6
CONTINUOUS
 10
0.1648352839
 20
17.6042783367
 11
0.1648352839
 21
18.6237264991
  0
LINE
  5
35F
100
AcDbEntity
  8
C_COPERCHIO
100
AcDbLine
 62
7
  6
CONTINUOUS
 10
0.2724677741
 20
17.7334801864
 11
0.2724677741
 21
18.6671687966
  0
LINE
  5
360
100
AcDbEntity
  8
C_CORPO
100
AcDbLine
 62
7
  6
CONTINUOUS
 10
0.307297993
 20
19.6162158079
 11
0.307297993
 21
20.0492285098
  0
LWPOLYLINE
  5
361
100
AcDbEntity
  8
C_COPERCHIO
100
AcDbPolyline
 62
7
  6
CONTINUOUS
 90
5
 70
0
 10
-0.1177907859
 20
14.2234844463
 10
-0.1178132233
 20
14.220746209
 10
-0.1189924851
 20
14.1980696032
 10
-0.1218581524
 20
14.1766940116
 10
-0.1263195355
 20
14.1567302777
  0
LWPOLYLINE
  5
362
100
AcDbEntity
  8
C_COPERCHIO
100
AcDbPolyline
 62
250
  6
CONTINUOUS
 90
8
 70
0
 10
-2.3339706352
 20
-28.3816109822
 10
-2.3358653066
 20
-28.4092897582
 10
-2.3406978708
 20
-28.4349572089
 10
-2.3483856735
 20
-28.4581743271
 10
-2.3587972251
 20
-28.4785440154
 10
-2.3717544501
 20
-28.4957178776
 10
-2.3870357326
 20
-28.509402178
 10
-2.4028155503
 20
-28.5186578991
  0
LWPOLYLINE
  5
363
100
AcDbEntity
  8
C_CONTATTI
100
AcDbPolyline
 62
250
  6
CONTINUOUS
 90
13
 70
0
 10
7.2663448415
 20
14.7892145701
 10
7.2858824497
 20
14.821029783
 10
7.3063349992
 20
14.8515202897
 10
7.3275521286
 20
14.8807313104
 10
7.3493724987
 20
14.9086721112
 10
7.371642306
 20
14.9353553483
 10
7.3944021736
 20
14.9610010197
 10
7.4175377742
 20
14.9856194221
 10
7.4409397584
 20
15.0092228326
 10
7.4647166251
 20
15.0320244833
 10
7.4888650282
 20
15.0540985776
 10
7.5132418432
 20
15.0753871126
 10
7.5377750938
 20
15.0959002551
  0
LWPOLYLINE
  5
364
100
AcDbEntity
  8
C_COPERCHIO
100
AcDbPolyline
 62
7
  6
CONTINUOUS
 90
4
 70
0
 10
-11.4568210405
 20
-6.1102088906
 10
-11.4238141199
 20
-6.0869762875
 10
-11.4055407374
 20
-6.0742352868
 10
-11.3859132742
 20
-6.0609273668
  0
LWPOLYLINE
  5
365
100
AcDbEntity
  8
C_COPERCHIO
100
AcDbPolyline
 62
7
  6
CONTINUOUS
 90
3
 70
0
 10
-11.3859132742
 20
-6.0609273668
 10
-11.3430981907
 20
-6.0327032374
 10
-11.3201953436
 20
-6.0179143261
  0
LWPOLYLINE
  5
366
100
AcDbEntity
  8
C_COPERCHIO
100
AcDbPolyline
 62
7
  6
CONTINUOUS
 90
3
 70
0
 10
-11.3201953436
 20
-6.0179143261
 10
-11.2715875024
 20
-5.9873351171
 10
-11.2461219363
 20
-5.9716450346
  0
LWPOLYLINE
  5
367
100
AcDbEntity
  8
C_COPERCHIO
100
AcDbPolyline
 62
7
  6
CONTINUOUS
 90
3
 70
0
 10
-11.2461219363
 20
-5.9716450346
 10
-11.1932518391
 20
-5.9399424418
 10
-11.1661038273
 20
-5.9240430039
  0
LWPOLYLINE
  5
368
100
AcDbEntity
  8
C_CORPO
100
AcDbPolyline
 62
7
  6
CONTINUOUS
 90
24
 70
0
 10
18.4995839134
 20
11.4319625106
 10
18.5055277569
 20
11.4354402406
 10
18.5112350148
 20
11.4389534758
 10
18.5167005562
 20
11.4424983365
 10
18.5219194781
 20
11.4460704167
 10
18.5268871991
 20
11.4496661546
 10
18.5315994487
 20
11.4532828415
 10
18.5360521481
 20
11.4569162353
 10
18.5402414516
 20
11.4605622601
 10
18.5441638246
 20
11.464218381
 10
18.5478159919
 20
11.4678802075
 10
18.5511949324
 20
11.4715435313
 10
18.5542979041
 20
11.4752060317
 10
18.5571224612
 20
11.4788632082
 10
18.5596664274
 20
11.4825107583
 10
18.5619278946
 20
11.4861466151
 10
18.5639052629
 20
11.489766211
 10
18.5655972104
 20
11.4933651869
 10
18.5670026849
 20
11.496941767
 10
18.5681209383
 20
11.5004913577
 10
18.5689515039
 20
11.5040095836
 10
18.5694941899
 20
11.5074949955
 10
18.5697490959
 20
11.5109430165
 10
18.5697705805
 20
11.5122653859
  0
LWPOLYLINE
  5
369
100
AcDbEntity
  8
C_COPERCHIO
100
AcDbPolyline
 62
7
  6
CONTINUOUS
 90
4
 70
0
 10
-11.1661038273
 20
-5.9240430039
 10
-11.0845031089
 20
-5.8780053693
 10
-11.0581825332
 20
-5.8639974154
 10
-11.0325589353
 20
-5.8515200947
  0
LWPOLYLINE
  5
36A
100
AcDbEntity
  8
C_CORPO
100
AcDbPolyline
 62
7
  6
CONTINUOUS
 90
10
 70
0
 10
18.4995839134
 20
11.4319625106
 10
18.4980935517
 20
11.431135471
 10
18.4965870439
 20
11.4303478245
 10
18.4950644091
 20
11.4295996534
 10
18.4935263311
 20
11.4288911052
 10
18.4919721802
 20
11.4282221928
 10
18.4903999559
 20
11.4275928202
 10
18.4888089519
 20
11.4270030372
 10
18.4871998139
 20
11.426453014
 10
18.4855725206
 20
11.4259428591
  0
LINE
  5
36B
100
AcDbEntity
  8
C_COPERCHIO
100
AcDbLine
 62
7
  6
CONTINUOUS
 10
-11.0325589353
 20
-5.8515200947
 11
-10.0458800202
 21
-5.3581806372
  0
LWPOLYLINE
  5
36C
100
AcDbEntity
  8
C_COPERCHIO
100
AcDbPolyline
 62
250
  6
CONTINUOUS
 90
7
 70
0
 10
-4.0455425795
 20
14.2864019088
 10
-4.0432610494
 20
14.2695528755
 10
-4.0367935859
 20
14.2536225254
 10
-4.0262505159
 20
14.2382514985
 10
-4.011815726
 20
14.2237003816
 10
-3.9937357931
 20
14.2102122604
 10
-3.9723192748
 20
14.1980135612
  0
LWPOLYLINE
  5
36D
100
AcDbEntity
  8
C_COPERCHIO
100
AcDbPolyline
 62
250
  6
CONTINUOUS
 90
13
 70
0
 10
-0.187966042
 20
14.6296939568
 10
-0.1891193229
 20
14.6590114744
 10
-0.1933549397
 20
14.6893288646
 10
-0.2006022665
 20
14.7201237074
 10
-0.2107395578
 20
14.750867238
 10
-0.2235934717
 20
14.781025568
 10
-0.2389397424
 20
14.8100695962
 10
-0.2565522611
 20
14.8375528568
 10
-0.276095765
 20
14.8629359946
 10
-0.2970885605
 20
14.8856381776
 10
-0.3190939351
 20
14.9052835252
 10
-0.3417660148
 20
14.9216537525
 10
-0.3647158134
 20
14.9345422185
  0
LWPOLYLINE
  5
36E
100
AcDbEntity
  8
C_COPERCHIO
100
AcDbPolyline
 62
7
  6
CONTINUOUS
 90
10
 70
0
 10
0.2724743033
 20
18.6671480307
 10
0.27230392
 20
18.6759211297
 10
0.2691136268
 20
18.7058234528
 10
0.2619331119
 20
18.7348922161
 10
0.2507474115
 20
18.7629345227
 10
0.2356028753
 20
18.7894625305
 10
0.216637071
 20
18.8139297708
 10
0.1941611699
 20
18.8357236987
 10
0.1686105187
 20
18.8543218951
 10
0.1485050389
 20
18.8655544265
  0
LINE
  5
36F
100
AcDbEntity
  8
C_CORPO
100
AcDbLine
 62
7
  6
CONTINUOUS
 10
0.3485896632
 20
8.8495022605
 11
0.3485896632
 21
-21.758778348
  0
LINE
  5
370
100
AcDbEntity
  8
C_COPERCHIO
100
AcDbLine
 62
7
  6
CONTINUOUS
 10
0.3485896632
 20
12.4960038996
 11
0.3485896632
 21
-25.4052799871
  0
LINE
  5
371
100
AcDbEntity
  8
C_CORPO
100
AcDbLine
 62
7
  6
CONTINUOUS
 10
1.9395799209
 20
19.5993780336
 11
1.9395799209
 21
19.9979536468
  0
LINE
  5
372
100
AcDbEntity
  8
C_CONTATTI
100
AcDbLine
 62
7
  6
CONTINUOUS
 10
2.0132321187
 20
18.7472221712
 11
2.0132321187
 21
18.5766821725
  0
LINE
  5
373
100
AcDbEntity
  8
C_CONTATTI
100
AcDbLine
 62
7
  6
CONTINUOUS
 10
2.46297678
 20
18.3518098418
 11
2.46297678
 21
18.8689700043
  0
LINE
  5
374
100
AcDbEntity
  8
C_CONTATTI
100
AcDbLine
 62
7
  6
CONTINUOUS
 10
2.7144558605
 20
18.3966103002
 11
2.7144558605
 21
18.3806130898
  0
LWPOLYLINE
  5
375
100
AcDbEntity
  8
C_COPERCHIO
100
AcDbPolyline
 62
250
  6
CONTINUOUS
 90
8
 70
0
 10
-0.187966042
 20
-27.3497973722
 10
-0.1891084884
 20
-27.3771000358
 10
-0.1933072292
 20
-27.4024505747
 10
-0.2004904505
 20
-27.4254154023
 10
-0.2105352931
 20
-27.445601736
 10
-0.2232699534
 20
-27.4626643159
 10
-0.2384766223
 20
-27.4763113095
 10
-0.249095037
 20
-27.4829852937
  0
LWPOLYLINE
  5
376
100
AcDbEntity
  8
C_COPERCHIO
100
AcDbPolyline
 62
7
  6
CONTINUOUS
 90
8
 70
0
 10
-0.7120705086
 20
-27.6325637558
 10
-0.7135750297
 20
-27.6600607233
 10
-0.7180865672
 20
-27.6855793078
 10
-0.725522704
 20
-27.7086803779
 10
-0.7357503693
 20
-27.7289659229
 10
-0.7485935375
 20
-27.746087956
 10
-0.7638360528
 20
-27.7597547748
 10
-0.7744409057
 20
-27.7664213878
  0
LWPOLYLINE
  5
377
100
AcDbEntity
  8
C_COPERCHIO
100
AcDbPolyline
 62
7
  6
CONTINUOUS
 90
10
 70
0
 10
-0.370855886
 20
-25.7677766818
 10
-0.3732129364
 20
-25.8101827007
 10
-0.3789594455
 20
-25.8504311294
 10
-0.3880632076
 20
-25.8881211847
 10
-0.4004497047
 20
-25.9228330273
 10
-0.4160184584
 20
-25.954267421
 10
-0.4346891137
 20
-25.9821994288
 10
-0.4563121151
 20
-26.006269414
 10
-0.4807417815
 20
-26.0262009431
 10
-0.5029172074
 20
-26.0393596013
  0
LWPOLYLINE
  5
378
100
AcDbEntity
  8
C_CONTATTI
100
AcDbPolyline
 62
250
  6
CONTINUOUS
 90
15
 70
0
 10
7.3583691367
 20
14.7522654443
 10
7.3636576954
 20
14.7634666135
 10
7.3805144838
 20
14.7955539855
 10
7.3983357649
 20
14.826207859
 10
7.4171905525
 20
14.8554353887
 10
7.4366681801
 20
14.8834512469
 10
7.4567112236
 20
14.9102535387
 10
7.477377107
 20
14.935844159
 10
7.4984274365
 20
14.9604434652
 10
7.5198165148
 20
14.9840530376
 10
7.5415900391
 20
15.0066712959
 10
7.5636467063
 20
15.0285138558
 10
7.585952749
 20
15.0496525894
 10
7.6085419346
 20
15.0700156246
 10
7.6314142632
 20
15.0896029615
  0
LWPOLYLINE
  5
379
100
AcDbEntity
  8
C_COPERCHIO
100
AcDbPolyline
 62
7
  6
CONTINUOUS
 90
3
 70
0
 10
-17.0248788929
 20
-12.8913920803
 10
-16.9739707166
 20
-12.8553513768
 10
-16.9545175924
 20
-12.8419979729
  0
LWPOLYLINE
  5
37A
100
AcDbEntity
  8
C_COPERCHIO
100
AcDbPolyline
 62
7
  6
CONTINUOUS
 90
3
 70
0
 10
-16.9545175924
 20
-12.8419979729
 10
-16.9121336731
 20
-12.8136456811
 10
-16.8894797766
 20
-12.7987664554
  0
LINE
  5
37B
100
AcDbEntity
  8
C_CORPO
100
AcDbLine
 62
7
  6
CONTINUOUS
 10
17.2108032961
 20
8.2433447071
 11
18.0204328412
 21
8.7670062612
  0
LWPOLYLINE
  5
37C
100
AcDbEntity
  8
C_CORPO
100
AcDbPolyline
 62
7
  6
CONTINUOUS
 90
15
 70
0
 10
18.4995839134
 20
9.3513551247
 10
18.5055277569
 20
9.3551912969
 10
18.5112350148
 20
9.3591697514
 10
18.5167005562
 20
9.3632866083
 10
18.5219194781
 20
9.367538328
 10
18.5268871991
 20
9.3719204823
 10
18.5315994487
 20
9.3764277642
 10
18.5360521481
 20
9.3810561836
 10
18.5402414516
 20
9.3858014125
 10
18.5441638246
 20
9.3906575607
 10
18.5478159919
 20
9.3956204855
 10
18.5511949324
 20
9.4006857308
 10
18.5542979041
 20
9.4058468766
 10
18.5571224612
 20
9.4110996628
 10
18.5595508201
 20
9.4161814838
  0
LWPOLYLINE
  5
37D
100
AcDbEntity
  8
C_COPERCHIO
100
AcDbPolyline
 62
7
  6
CONTINUOUS
 90
4
 70
0
 10
-16.8894797766
 20
-12.7987664554
 10
-16.8414136275
 20
-12.767926075
 10
-16.8162081347
 20
-12.7520499836
 10
-16.7637996366
 20
-12.7198178132
  0
LWPOLYLINE
  5
37E
100
AcDbEntity
  8
C_CORPO
100
AcDbPolyline
 62
7
  6
CONTINUOUS
 90
10
 70
0
 10
18.4995839134
 20
9.3513551247
 10
18.4980935517
 20
9.3504198326
 10
18.4965870439
 20
9.3494536252
 10
18.4950644091
 20
9.3484565849
 10
18.4935263311
 20
9.3474294722
 10
18.4919721802
 20
9.346371687
 10
18.4903999559
 20
9.3452812941
 10
18.4888089519
 20
9.3441577303
 10
18.4871998139
 20
9.3430017788
 10
18.3882493953
 20
9.2703020207
  0
LWPOLYLINE
  5
37F
100
AcDbEntity
  8
C_COPERCHIO
100
AcDbPolyline
 62
7
  6
CONTINUOUS
 90
3
 70
0
 10
-16.7637996366
 20
-12.7198178132
 10
-16.7368795656
 20
-12.7036499475
 10
-16.7095486705
 20
-12.687747788
  0
LWPOLYLINE
  5
380
100
AcDbEntity
  8
C_COPERCHIO
100
AcDbPolyline
 62
7
  6
CONTINUOUS
 90
3
 70
0
 10
-16.7095486705
 20
-12.687747788
 10
-16.6547745241
 20
-12.6555498382
 10
-16.6275357168
 20
-12.6404386137
  0
LINE
  5
381
100
AcDbEntity
  8
C_COPERCHIO
100
AcDbLine
 62
250
  6
CONTINUOUS
 10
-14.5054485876
 20
-9.1703687241
 11
-15.7357766603
 21
-9.7855327605
  0
LINE
  5
382
100
AcDbEntity
  8
C_COPERCHIO
100
AcDbLine
 62
250
  6
CONTINUOUS
 10
-16.6322791596
 20
-10.3044946882
 11
-15.7380896088
 21
-9.8573999128
  0
LINE
  5
383
100
AcDbEntity
  8
C_COPERCHIO
100
AcDbLine
 62
7
  6
CONTINUOUS
 10
-15.9463143237
 20
-8.8520088099
 11
-15.9458503818
 21
-8.8517769894
  0
LWPOLYLINE
  5
384
100
AcDbEntity
  8
C_COPERCHIO
100
AcDbPolyline
 62
7
  6
CONTINUOUS
 90
34
 70
0
 10
-15.9459371377
 20
-8.8518341054
 10
-15.8562454638
 20
-8.8135646569
 10
-15.7604935384
 20
-8.7855391658
 10
-15.6591766039
 20
-8.768225485
 10
-15.5522884219
 20
-8.7618460692
 10
-15.4405244195
 20
-8.766698833
 10
-15.3241205685
 20
-8.7830353242
 10
-15.2036373252
 20
-8.8110115184
 10
-15.0799584254
 20
-8.850656393
 10
-14.9539193482
 20
-8.9018996168
 10
-14.8263438882
 20
-8.9645093361
 10
-14.6980461956
 20
-9.0381844071
 10
-14.569766342
 20
-9.1226027981
 10
-14.4423970724
 20
-9.2171942707
 10
-14.3165452558
 20
-9.3215169073
 10
-14.19242169
 20
-9.4354993885
 10
-14.0705664755
 20
-9.5587791609
 10
-13.9518199058
 20
-9.6906242146
 10
-13.8367907475
 20
-9.8304878745
 10
-13.7260811958
 20
-9.9777369787
 10
-13.6203168466
 20
-10.1316069789
 10
-13.5200890926
 20
-10.2913301415
 10
-13.4259241677
 20
-10.4561332139
 10
-13.3383195535
 20
-10.625158778
 10
-13.2577724029
 20
-10.7974828347
 10
-13.1846849198
 20
-10.9722582493
 10
-13.1194190063
 20
-11.1485381939
 10
-13.0623481329
 20
-11.3252163637
 10
-13.0137244099
 20
-11.5013752241
 10
-12.9737164965
 20
-11.6761129376
 10
-12.9424886362
 20
-11.8483201527
 10
-12.9201101534
 20
-12.0170283845
 10
-12.9065267822
 20
-12.1813953296
 10
-12.9017636587
 20
-12.3226713785
  0
LINE
  5
385
100
AcDbEntity
  8
C_CORPO
100
AcDbLine
 62
7
  6
CONTINUOUS
 10
3.8470245597
 20
22.0597905712
 11
3.8470245597
 21
21.812088141
  0
LINE
  5
386
100
AcDbEntity
  8
C_COPERCHIO
100
AcDbLine
 62
250
  6
CONTINUOUS
 10
4.8919598274
 20
16.4645052032
 11
4.8919598274
 21
16.1691565894
  0
LINE
  5
387
100
AcDbEntity
  8
C_COPERCHIO
100
AcDbLine
 62
250
  6
CONTINUOUS
 10
4.8919598274
 20
-20.4208315253
 11
4.8919598274
 21
-20.4697818974
  0
LINE
  5
388
100
AcDbEntity
  8
C_COPERCHIO
100
AcDbLine
 62
7
  6
CONTINUOUS
 10
5.0322899272
 20
16.7575586139
 11
5.0322899272
 21
16.3454272787
  0
LINE
  5
389
100
AcDbEntity
  8
C_COPERCHIO
100
AcDbLine
 62
7
  6
CONTINUOUS
 10
5.0322899272
 20
-20.3471147246
 11
5.0322899272
 21
-20.4155061229
  0
LWPOLYLINE
  5
38A
100
AcDbEntity
  8
C_CORPO
100
AcDbPolyline
 62
250
  6
CONTINUOUS
 90
18
 70
0
 10
17.3677325575
 20
8.4342198582
 10
17.3654576149
 20
8.4323186389
 10
17.3630206848
 20
8.4302100106
 10
17.3604229736
 20
8.4278927649
 10
17.3576740699
 20
8.4253764019
 10
17.354766857
 20
8.4226490421
 10
17.3516774178
 20
8.4196775351
 10
17.3484027879
 20
8.4164566387
 10
17.3449482773
 20
8.4129895945
 10
17.3413019861
 20
8.4092564765
 10
17.3374614177
 20
8.4052529057
 10
17.3334306467
 20
8.4009823661
 10
17.3292069058
 20
8.3964375744
 10
17.3247907644
 20
8.3916187106
 10
17.3201821203
 20
8.3865261502
 10
17.3153764868
 20
8.3811537255
 10
17.3103836156
 20
8.3755135038
 10
17.2997704589
 20
8.3633599944
  0
LWPOLYLINE
  5
38B
100
AcDbEntity
  8
C_CORPO
100
AcDbPolyline
 62
7
  6
CONTINUOUS
 90
21
 70
0
 10
17.8657917396
 20
8.8912698618
 10
17.8560966531
 20
8.8841782264
 10
17.846350864
 20
8.8769646805
 10
17.8365544363
 20
8.8696312734
 10
17.8267064528
 20
8.8621764202
 10
17.8168049881
 20
8.8545949178
 10
17.80684771
 20
8.8468859306
 10
17.796835857
 20
8.839051014
 10
17.7867727588
 20
8.8310886466
 10
17.7766559348
 20
8.8229978244
 10
17.7664865097
 20
8.8147805672
 10
17.7562731169
 20
8.8064400004
 10
17.7460135327
 20
8.7979755323
 10
17.7357083562
 20
8.7893890985
 10
17.7253703561
 20
8.7806877363
 10
17.714997378
 20
8.7718709425
 10
17.7045896836
 20
8.7629409192
 10
17.6941635861
 20
8.7539088795
 10
17.6837172174
 20
8.7447748183
 10
17.6732503128
 20
8.7355407967
 10
17.6523092406
 20
8.7168164377
  0
LWPOLYLINE
  5
38C
100
AcDbEntity
  8
C_CORPO
100
AcDbPolyline
 62
7
  6
CONTINUOUS
 90
6
 70
0
 10
17.8657917396
 20
8.8912698618
 10
17.9814917919
 20
8.9745860119
 10
18.0858009581
 20
9.0499654991
 10
18.1883636141
 20
9.1243779962
 10
18.2891797598
 20
9.1978235035
 10
18.3882493953
 20
9.2703020207
  0
LINE
  5
38D
100
AcDbEntity
  8
C_COPERCHIO
100
AcDbLine
 62
7
  6
CONTINUOUS
 10
-16.6275357168
 20
-12.6404386137
 11
-15.7380896088
 21
-12.1956685031
  0
LINE
  5
38E
100
AcDbEntity
  8
C_COPERCHIO
100
AcDbLine
 62
7
  6
CONTINUOUS
 10
-13.197620276
 20
-10.9413256989
 11
-15.7221977465
 21
-12.2036144342
  0
LINE
  5
38F
100
AcDbEntity
  8
C_COPERCHIO
100
AcDbLine
 62
250
  6
CONTINUOUS
 10
-22.073593243
 20
15.438554086
 11
-7.2487471654
 21
8.0261310472
  0
LWPOLYLINE
  5
390
100
AcDbEntity
  8
C_COPERCHIO
100
AcDbPolyline
 62
250
  6
CONTINUOUS
 90
6
 70
0
 10
0.1689036054
 20
18.75169453
 10
0.1732556887
 20
18.7263538972
 10
0.1750254531
 20
18.7004508273
 10
0.1741828648
 20
18.6744245281
 10
0.1707421901
 20
18.6487162967
 10
0.1647617483
 20
18.6237620372
  0
LINE
  5
391
100
AcDbEntity
  8
C_CORPO
100
AcDbLine
 62
250
  6
CONTINUOUS
 10
7.4027623882
 20
15.8201369149
 11
7.4027623882
 21
16.2189586461
  0
LINE
  5
392
100
AcDbEntity
  8
C_CORPO
100
AcDbLine
 62
7
  6
CONTINUOUS
 10
7.5741372019
 20
-17.9525222883
 11
7.5741372019
 21
-16.8745441316
  0
LINE
  5
393
100
AcDbEntity
  8
C_CORPO
100
AcDbLine
 62
7
  6
CONTINUOUS
 10
7.5741372019
 20
11.4475415541
 11
7.5741372019
 21
12.5255197109
  0
LWPOLYLINE
  5
394
100
AcDbEntity
  8
C_CORPO
100
AcDbPolyline
 62
7
  6
CONTINUOUS
 90
37
 70
0
 10
6.6142011233
 20
15.2552084077
 10
6.6146141648
 20
15.2790388371
 10
6.6162951831
 20
15.3088576004
 10
6.619269565
 20
15.3386511125
 10
6.6235359105
 20
15.3684053504
 10
6.6290922117
 20
15.3981063096
 10
6.6359358533
 20
15.4277400108
 10
6.6440636141
 20
15.457292506
 10
6.6534716688
 20
15.4867498858
 10
6.6641555891
 20
15.5160982855
 10
6.6761103465
 20
15.5453238915
 10
6.6893303142
 20
15.5744129481
 10
6.7038092698
 20
15.6033517639
 10
6.7195403986
 20
15.6321267182
 10
6.7365162963
 20
15.6607242675
 10
6.7547289729
 20
15.6891309516
 10
6.7741698562
 20
15.7173334003
 10
6.7948297958
 20
15.7453183396
 10
6.8166990677
 20
15.7730725976
 10
6.8397673786
 20
15.8005831111
 10
6.864023871
 20
15.8278369319
 10
6.8894571279
 20
15.8548212321
 10
6.9160551786
 20
15.8815233112
 10
6.9438055041
 20
15.907930601
 10
6.9726950432
 20
15.9340306725
 10
7.0027101984
 20
15.9598112411
 10
7.0338368422
 20
15.9852601725
 10
7.0660603243
 20
16.0103654887
 10
7.099365478
 20
16.0351153733
 10
7.1337366274
 20
16.0594981771
 10
7.169157595
 20
16.0835024239
 10
7.2056117091
 20
16.1071168155
 10
7.2430818118
 20
16.1303302373
 10
7.2815502669
 20
16.1531317633
 10
7.3209989684
 20
16.1755106616
 10
7.3614093488
 20
16.197456399
 10
7.4027623882
 20
16.2189586461
  0
LINE
  5
395
100
AcDbEntity
  8
C_CONTATTI
100
AcDbLine
 62
7
  6
CONTINUOUS
 10
10.9481203132
 20
15.3333671779
 11
10.7466209553
 21
14.7376427521
  0
LWPOLYLINE
  5
396
100
AcDbEntity
  8
C_CORPO
100
AcDbPolyline
 62
250
  6
CONTINUOUS
 90
3
 70
0
 10
17.2928492993
 20
8.3447793553
 10
17.2665511778
 20
8.3168592178
 10
17.2474044075
 20
8.2977087084
  0
LINE
  5
397
100
AcDbEntity
  8
C_CORPO
100
AcDbLine
 62
7
  6
CONTINUOUS
 10
17.404451293
 20
8.473156857
 11
17.3677325575
 21
8.4342198582
  0
LINE
  5
398
100
AcDbEntity
  8
C_CORPO
100
AcDbLine
 62
7
  6
CONTINUOUS
 10
17.4320653647
 20
8.5020730086
 11
17.404451293
 21
8.473156857
  0
LINE
  5
399
100
AcDbEntity
  8
C_CORPO
100
AcDbLine
 62
7
  6
CONTINUOUS
 10
17.4507463285
 20
8.5214136528
 11
17.4320653647
 21
8.5020730086
  0
LINE
  5
39A
100
AcDbEntity
  8
C_CORPO
100
AcDbLine
 62
7
  6
CONTINUOUS
 10
17.4697250781
 20
8.5408707639
 11
17.4507463285
 21
8.5214136528
  0
LINE
  5
39B
100
AcDbEntity
  8
C_CORPO
100
AcDbLine
 62
7
  6
CONTINUOUS
 10
17.4890132103
 20
8.5604394677
 11
17.4697250781
 21
8.5408707639
  0
LINE
  5
39C
100
AcDbEntity
  8
C_CORPO
100
AcDbLine
 62
7
  6
CONTINUOUS
 10
17.5086162047
 20
8.5801065852
 11
17.4890132103
 21
8.5604394677
  0
LINE
  5
39D
100
AcDbEntity
  8
C_CORPO
100
AcDbLine
 62
7
  6
CONTINUOUS
 10
17.5285219004
 20
8.5998436903
 11
17.5086162047
 21
8.5801065852
  0
LINE
  5
39E
100
AcDbEntity
  8
C_CORPO
100
AcDbLine
 62
7
  6
CONTINUOUS
 10
17.5486947463
 20
8.6195980942
 11
17.5285219004
 21
8.5998436903
  0
LINE
  5
39F
100
AcDbEntity
  8
C_CORPO
100
AcDbLine
 62
7
  6
CONTINUOUS
 10
17.569112295
 20
8.6393288479
 11
17.5486947463
 21
8.6195980942
  0
LINE
  5
3A0
100
AcDbEntity
  8
C_CORPO
100
AcDbLine
 62
7
  6
CONTINUOUS
 10
17.5897297891
 20
8.6589756465
 11
17.569112295
 21
8.6393288479
  0
LINE
  5
3A1
100
AcDbEntity
  8
C_CORPO
100
AcDbLine
 62
7
  6
CONTINUOUS
 10
17.6104938454
 20
8.6784730226
 11
17.5897297891
 21
8.6589756465
  0
LINE
  5
3A2
100
AcDbEntity
  8
C_CORPO
100
AcDbLine
 62
7
  6
CONTINUOUS
 10
17.631372192
 20
8.6977745496
 11
17.6104938454
 21
8.6784730226
  0
LINE
  5
3A3
100
AcDbEntity
  8
C_CORPO
100
AcDbLine
 62
7
  6
CONTINUOUS
 10
17.6523092406
 20
8.7168164377
 11
17.631372192
 21
8.6977745496
  0
LINE
  5
3A4
100
AcDbEntity
  8
C_COPERCHIO
100
AcDbLine
 62
250
  6
CONTINUOUS
 10
-21.081027233
 20
17.1903582419
 11
-6.2328087722
 21
9.7662490115
  0
LINE
  5
3A5
100
AcDbEntity
  8
C_CORPO
100
AcDbLine
 62
250
  6
CONTINUOUS
 10
-0.7299078996
 20
21.0277484134
 11
-0.3754122049
 21
20.1080459427
  0
LWPOLYLINE
  5
3A6
100
AcDbEntity
  8
C_CORPO
100
AcDbPolyline
 62
250
  6
CONTINUOUS
 90
43
 70
0
 10
7.9154566416
 20
10.6628149772
 10
7.9150913545
 20
10.6842858061
 10
7.9142958368
 20
10.7059958788
 10
7.9130682572
 20
10.7279326206
 10
7.9114063263
 20
10.7500883066
 10
7.9093092835
 20
10.7724448724
 10
7.9067789444
 20
10.7949735595
 10
7.9038155943
 20
10.8176605315
 10
7.9004196709
 20
10.8404919283
 10
7.8965954971
 20
10.8634381692
 10
7.8923453084
 20
10.8864838838
 10
7.8876711395
 20
10.909615608
 10
7.8825790713
 20
10.9328061703
 10
7.8770740059
 20
10.9560355134
 10
7.8711585429
 20
10.9792944424
 10
7.8648362427
 20
11.0025719856
 10
7.8581117752
 20
11.0258517407
 10
7.8509890063
 20
11.0491210007
 10
7.8434700125
 20
11.0723743589
 10
7.8355582431
 20
11.0956000466
 10
7.8272592025
 20
11.1187807801
 10
7.8185779259
 20
11.141902877
 10
7.8095189854
 20
11.1649533422
 10
7.8000882583
 20
11.1879162656
 10
7.7902932635
 20
11.2107736988
 10
7.7801404984
 20
11.2335104833
 10
7.7696358102
 20
11.2561133589
 10
7.7587863229
 20
11.2785674148
 10
7.747599141
 20
11.3008581029
 10
7.736080932
 20
11.3229721655
 10
7.7242384942
 20
11.344896789
 10
7.7120792453
 20
11.3666183158
 10
7.6996107108
 20
11.3881232747
 10
7.6868400742
 20
11.409399276
 10
7.6737752667
 20
11.4304331308
 10
7.6604244098
 20
11.4512116947
 10
7.6467951831
 20
11.4717228116
 10
7.6328956973
 20
11.4919542497
 10
7.6187349329
 20
11.5118928151
 10
7.6043221427
 20
11.5315251774
 10
7.5896657875
 20
11.5508399235
 10
7.5747755901
 20
11.5698242363
 10
7.5741372019
 20
11.5706115905
  0
LINE
  5
3A7
100
AcDbEntity
  8
C_CORPO
100
AcDbLine
 62
7
  6
CONTINUOUS
 10
8.0854725861
 20
16.1601412133
 11
8.0854725861
 21
15.7271285114
  0
LINE
  5
3A8
100
AcDbEntity
  8
C_CONTATTI
100
AcDbLine
 62
7
  6
CONTINUOUS
 10
8.9428785743
 20
14.4338708059
 11
8.9428785743
 21
14.4167494835
  0
LINE
  5
3A9
100
AcDbEntity
  8
C_CORPO
100
AcDbLine
 62
7
  6
CONTINUOUS
 10
9.7177545139
 20
16.1088663503
 11
9.7177545139
 21
15.7102907371
  0
LINE
  5
3AA
100
AcDbEntity
  8
C_CONTATTI
100
AcDbLine
 62
7
  6
CONTINUOUS
 10
9.7914067117
 20
14.8581348746
 11
9.7914067117
 21
14.4110841265
  0
LWPOLYLINE
  5
3AB
100
AcDbEntity
  8
C_CORPO
100
AcDbPolyline
 62
7
  6
CONTINUOUS
 90
27
 70
0
 10
7.5741372019
 20
-16.8745429863
 10
7.5745167196
 20
-16.8487121279
 10
7.5754722797
 20
-16.8227611219
 10
7.5770038823
 20
-16.7966899684
 10
7.5791391351
 20
-16.770474995
 10
7.5818504302
 20
-16.744139874
 10
7.5850549448
 20
-16.7177556223
 10
7.5887492689
 20
-16.6913286364
 10
7.5929368124
 20
-16.6648525198
 10
7.5975449816
 20
-16.6383790995
 10
7.6025708377
 20
-16.6119132138
 10
7.6080173195
 20
-16.5854500245
 10
7.6138206496
 20
-16.5590268439
 10
7.6199783429
 20
-16.5326473241
 10
7.6264928845
 20
-16.5063078131
 10
7.6333079523
 20
-16.4800346668
 10
7.640421426
 20
-16.4538307196
 10
7.647835426
 20
-16.4276931371
 10
7.6554999915
 20
-16.4016397717
 10
7.663413345
 20
-16.3756727271
 10
7.6715772641
 20
-16.3497898996
 10
7.6799471202
 20
-16.3240028295
 10
7.688521414
 20
-16.2983131151
 10
7.6973016448
 20
-16.2727191582
 10
7.7062476822
 20
-16.2472277037
 10
7.7153582752
 20
-16.2218398995
 10
7.7246346748
 20
-16.1965545978
  0
LWPOLYLINE
  5
3AC
100
AcDbEntity
  8
C_CORPO
100
AcDbPolyline
 62
250
  6
CONTINUOUS
 90
4
 70
0
 10
17.3677325575
 20
8.4342198582
 10
17.3434497014
 20
8.4034709403
 10
17.318485421
 20
8.3736536242
 10
17.2928492993
 20
8.3447793553
  0
LWPOLYLINE
  5
3AD
100
AcDbEntity
  8
C_CORPO
100
AcDbPolyline
 62
250
  6
CONTINUOUS
 90
3
 70
0
 10
17.2997704589
 20
8.3633599944
 10
17.2941220245
 20
8.3568169523
 10
17.2841999073
 20
8.3452258662
  0
LINE
  5
3AE
100
AcDbEntity
  8
C_COPERCHIO
100
AcDbLine
 62
250
  6
CONTINUOUS
 10
-1.9376806091
 20
12.1090041841
 11
-3.5829536707
 21
12.9316338536
  0
LWPOLYLINE
  5
3AF
100
AcDbEntity
  8
C_COPERCHIO
100
AcDbPolyline
 62
250
  6
CONTINUOUS
 90
7
 70
0
 10
-15.2919219979
 20
18.7861180172
 10
-16.9371697382
 20
19.6087488164
 10
-16.9391518766
 20
19.6097336483
 10
-16.9411447039
 20
19.6107104337
 10
-16.9431481414
 20
19.6116789076
 10
-16.945162108
 20
19.6126388032
 10
-16.9471865206
 20
19.6135898519
  0
LWPOLYLINE
  5
3B0
100
AcDbEntity
  8
C_COPERCHIO
100
AcDbPolyline
 62
250
  6
CONTINUOUS
 90
6
 70
0
 10
-1.9275149255
 20
12.1037546424
 10
-1.9295721669
 20
12.1048441692
 10
-1.9316174152
 20
12.105913686
 10
-1.93365061
 20
12.1069633934
 10
-1.9356716933
 20
12.1079934924
 10
-1.9376806091
 20
12.1090041841
  0
LWPOLYLINE
  5
3B1
100
AcDbEntity
  8
C_COPERCHIO
100
AcDbPolyline
 62
7
  6
CONTINUOUS
 90
11
 70
0
 10
-15.8469152734
 20
19.7153109582
 10
-15.8694804522
 20
19.7277446511
 10
-15.890517819
 20
19.7413856695
 10
-15.91155939
 20
19.7570034791
 10
-15.9324699267
 20
19.7745746217
 10
-15.9531554606
 20
19.794058058
 10
-15.9735237213
 20
19.8154047293
 10
-15.9933919196
 20
19.8386241861
 10
-16.0126075951
 20
19.8636901373
 10
-16.0310879952
 20
19.8905004071
 10
-16.0487300876
 20
19.9189501672
  0
LWPOLYLINE
  5
3B2
100
AcDbEntity
  8
C_CORPO
100
AcDbPolyline
 62
7
  6
CONTINUOUS
 90
6
 70
0
 10
6.622463921
 20
15.149642263
 10
6.620830415
 20
15.1597920089
 10
6.6173361581
 20
15.1895714085
 10
6.6151347748
 20
15.2193817017
 10
6.6142273014
 20
15.2492088575
 10
6.6142011233
 20
15.2552084077
  0
LINE
  5
3B3
100
AcDbEntity
  8
C_CONTATTI
100
AcDbLine
 62
7
  6
CONTINUOUS
 10
10.2411513731
 20
14.4531950273
 11
10.2411513731
 21
14.9798827078
  0
LINE
  5
3B4
100
AcDbEntity
  8
C_CONTATTI
100
AcDbLine
 62
7
  6
CONTINUOUS
 10
10.4926304536
 20
14.5075230037
 11
10.4926304536
 21
14.4915257917
  0
LINE
  5
3B5
100
AcDbEntity
  8
C_CORPO
100
AcDbLine
 62
7
  6
CONTINUOUS
 10
11.6251991527
 20
18.1707032747
 11
11.6251991527
 21
17.9230008444
  0
LINE
  5
3B6
100
AcDbEntity
  8
C_CONTATTI
100
AcDbLine
 62
7
  6
CONTINUOUS
 10
10.2411513731
 20
14.9798827078
 11
9.7914067117
 21
14.8581348746
  0
LINE
  5
3B7
100
AcDbEntity
  8
C_COPERCHIO
100
AcDbLine
 62
7
  6
CONTINUOUS
 10
-2.3339706352
 20
12.9874435084
 11
-1.7912445725
 21
12.8723141908
  0
LWPOLYLINE
  5
3B8
100
AcDbEntity
  8
C_COPERCHIO
100
AcDbPolyline
 62
7
  6
CONTINUOUS
 90
3
 70
0
 10
-2.4429304666
 20
13.0169387043
 10
-2.4634462448
 20
13.0244138395
 10
-2.4825971053
 20
13.0331518741
  0
LWPOLYLINE
  5
3B9
100
AcDbEntity
  8
C_COPERCHIO
100
AcDbPolyline
 62
250
  6
CONTINUOUS
 90
19
 70
0
 10
-6.1983732163
 20
15.8307097552
 10
-6.1715876235
 20
15.8182694734
 10
-6.1417087567
 20
15.8063758066
 10
-6.1086726134
 20
15.7952485363
 10
-6.072234243
 20
15.7850647397
 10
-6.0326524261
 20
15.7761573535
 10
-5.9907925687
 20
15.7689096129
 10
-5.9469177222
 20
15.7634965026
 10
-5.9013165901
 20
15.7600761364
 10
-5.85508228
 20
15.7588024262
 10
-5.8085835255
 20
15.7597132529
 10
-5.7622493182
 20
15.7628231012
 10
-5.7172810545
 20
15.7680088399
 10
-5.6740901913
 20
15.7751272387
 10
-5.6329036615
 20
15.7840422655
 10
-5.5944984281
 20
15.7944376536
 10
-5.5591747979
 20
15.8060301291
 10
-5.526829724
 20
15.818654552
 10
-5.4974906404
 20
15.8321073134
  0
LWPOLYLINE
  5
3BA
100
AcDbEntity
  8
C_COPERCHIO
100
AcDbPolyline
 62
250
  6
CONTINUOUS
 90
19
 70
0
 10
-6.059420003
 20
16.0733650626
 10
-6.0433508916
 20
16.0656640004
 10
-6.0254022247
 20
16.0585849948
 10
-6.0055740025
 20
16.0521280457
 10
-5.9836352918
 20
16.0461347427
 10
-5.9598170257
 20
16.0407634963
 10
-5.9348120036
 20
16.0364895379
 10
-5.9085009143
 20
16.03340401
 10
-5.881003069
 20
16.0314157701
 10
-5.853369201
 20
16.0307266228
 10
-5.8255697888
 20
16.0314526572
 10
-5.797634354
 20
16.0334777841
 10
-5.7707021944
 20
16.0366555414
 10
-5.7449147857
 20
16.041072237
 10
-5.7201306522
 20
16.046641563
 10
-5.6970646655
 20
16.0529581331
 10
-5.6759551161
 20
16.0598868188
 10
-5.6565637134
 20
16.0675627486
 10
-5.6388904575
 20
16.0759859227
  0
LINE
  5
3BB
100
AcDbEntity
  8
C_COPERCHIO
100
AcDbLine
 62
250
  6
CONTINUOUS
 10
-16.8011784307
 20
19.8477338771
 11
-16.8155912275
 21
19.8548182462
  0
LINE
  5
3BC
100
AcDbEntity
  8
C_COPERCHIO
100
AcDbLine
 62
250
  6
CONTINUOUS
 10
-1.8056573693
 20
12.3499733464
 11
-3.451273063
 21
13.1727811933
  0
LINE
  5
3BD
100
AcDbEntity
  8
C_COPERCHIO
100
AcDbLine
 62
250
  6
CONTINUOUS
 10
-15.1555627369
 20
19.0249260302
 11
-16.8011784307
 21
19.8477338771
  0
LINE
  5
3BE
100
AcDbEntity
  8
C_COPERCHIO
100
AcDbLine
 62
7
  6
CONTINUOUS
 10
-6.1983732163
 20
14.7582124102
 11
-11.7013558025
 21
17.5097037033
  0
LINE
  5
3BF
100
AcDbEntity
  8
C_COPERCHIO
100
AcDbLine
 62
7
  6
CONTINUOUS
 10
-17.4085056605
 20
20.4961061517
 11
-15.8469152734
 21
19.7153109582
  0
LINE
  5
3C0
100
AcDbEntity
  8
C_COPERCHIO
100
AcDbLine
 62
7
  6
CONTINUOUS
 10
-2.4825971053
 20
13.0331518741
 11
-4.0441874998
 21
13.8139470714
  0
LINE
  5
3C1
100
AcDbEntity
  8
C_COPERCHIO
100
AcDbLine
 62
250
  6
CONTINUOUS
 10
-17.3366374392
 20
20.562903843
 11
-16.0487300876
 21
19.9189501672
  0
LINE
  5
3C2
100
AcDbEntity
  8
C_COPERCHIO
100
AcDbLine
 62
250
  6
CONTINUOUS
 10
-2.6844119231
 20
13.236791085
 11
-3.9723192748
 21
13.8807447608
  0
LINE
  5
3C3
100
AcDbEntity
  8
C_COPERCHIO
100
AcDbLine
 62
250
  6
CONTINUOUS
 10
-17.3366374392
 20
20.8801726434
 11
-16.0487300876
 21
20.2362189675
  0
LINE
  5
3C4
100
AcDbEntity
  8
C_COPERCHIO
100
AcDbLine
 62
250
  6
CONTINUOUS
 10
-2.6844119231
 20
13.5540598853
 11
-3.9723192748
 21
14.1980135612
  0
LINE
  5
3C5
100
AcDbEntity
  8
C_COPERCHIO
100
AcDbLine
 62
7
  6
CONTINUOUS
 10
-4.0091883189
 20
14.4161132109
 11
-5.131487891
 21
14.9772629969
  0
LINE
  5
3C6
100
AcDbEntity
  8
C_COPERCHIO
100
AcDbLine
 62
7
  6
CONTINUOUS
 10
-11.8478024119
 20
18.3354202574
 11
-14.076388673
 21
19.4497133879
  0
LINE
  5
3C7
100
AcDbEntity
  8
C_COPERCHIO
100
AcDbLine
 62
250
  6
CONTINUOUS
 10
-17.1629459227
 20
21.1834917776
 11
-15.875038571
 21
20.5395381018
  0
LINE
  5
3C8
100
AcDbEntity
  8
C_COPERCHIO
100
AcDbLine
 62
250
  6
CONTINUOUS
 10
-2.5107204066
 20
13.8573790196
 11
-3.7986277582
 21
14.5013326954
  0
LINE
  5
3C9
100
AcDbEntity
  8
C_COPERCHIO
100
AcDbLine
 62
250
  6
CONTINUOUS
 10
-11.7013558025
 20
18.5822010483
 11
-6.1983732163
 21
15.8307097552
  0
LINE
  5
3CA
100
AcDbEntity
  8
C_COPERCHIO
100
AcDbLine
 62
250
  6
CONTINUOUS
 10
-11.5624025893
 20
18.8248563558
 11
-6.059420003
 21
16.0733650626
  0
LINE
  5
3CB
100
AcDbEntity
  8
C_COPERCHIO
100
AcDbLine
 62
7
  6
CONTINUOUS
 10
-0.0051252875
 20
13.1060719467
 11
-0.6739929562
 21
13.4405057811
  0
LINE
  5
3CC
100
AcDbEntity
  8
C_COPERCHIO
100
AcDbLine
 62
7
  6
CONTINUOUS
 10
-12.6570626405
 20
19.4320406232
 11
-14.0383111206
 21
20.1226648633
  0
LINE
  5
3CD
100
AcDbEntity
  8
C_COPERCHIO
100
AcDbLine
 62
7
  6
CONTINUOUS
 10
-11.2126277484
 20
19.2302684909
 11
-5.2728877081
 21
16.2603984708
  0
LINE
  5
3CE
100
AcDbEntity
  8
C_COPERCHIO
100
AcDbLine
 62
250
  6
CONTINUOUS
 10
-1.7912445725
 20
12.3426551274
 11
-1.8056573693
 21
12.3499733464
  0
LWPOLYLINE
  5
3CF
100
AcDbEntity
  8
C_COPERCHIO
100
AcDbPolyline
 62
7
  6
CONTINUOUS
 90
11
 70
0
 10
-2.4825971053
 20
13.0331518741
 10
-2.5051623128
 20
13.045585584
 10
-2.5261997344
 20
13.0592266426
 10
-2.5472413795
 20
13.0748445186
 10
-2.5681520154
 20
13.0924157648
 10
-2.5888377284
 20
13.1118994028
 10
-2.6092061758
 20
13.1332463276
 10
-2.6290744108
 20
13.1564659107
 10
-2.6482899503
 20
13.1815317736
 10
-2.6667701224
 20
13.2083417791
 10
-2.6844119231
 20
13.236791085
  0
LWPOLYLINE
  5
3D0
100
AcDbEntity
  8
C_COPERCHIO
100
AcDbPolyline
 62
7
  6
CONTINUOUS
 90
13
 70
0
 10
-5.2728877081
 20
16.2603984708
 10
-5.2544364397
 20
16.2496859818
 10
-5.2362940426
 20
16.2361976155
 10
-5.2187750701
 20
16.2201617459
 10
-5.2021838715
 20
16.2018499064
 10
-5.1868054269
 20
16.1815747966
 10
-5.1729003264
 20
16.1596851121
 10
-5.1607039944
 20
16.1365564849
 10
-5.1504274786
 20
16.1125833332
 10
-5.1422496473
 20
16.0881749155
 10
-5.1363092899
 20
16.063749426
 10
-5.1327029529
 20
16.0397267748
 10
-5.131487891
 20
16.0165198614
  0
LWPOLYLINE
  5
3D1
100
AcDbEntity
  8
C_COPERCHIO
100
AcDbPolyline
 62
250
  6
CONTINUOUS
 90
13
 70
0
 10
-5.6388904575
 20
16.0759859227
 10
-5.6207385253
 20
16.0651211888
 10
-5.6028548431
 20
16.0515014005
 10
-5.5855452873
 20
16.0353595059
 10
-5.5691059144
 20
16.0169715903
 10
-5.5538178978
 20
15.9966521542
 10
-5.5399427183
 20
15.9747487343
 10
-5.5277176923
 20
15.9516359588
 10
-5.5173519123
 20
15.9277091408
 10
-5.509022671
 20
15.9033775161
 10
-5.5028724289
 20
15.8790572445
 10
-5.4990063775
 20
15.8551642913
 10
-5.4974906404
 20
15.8321073134
  0
LWPOLYLINE
  5
3D2
100
AcDbEntity
  8
C_COPERCHIO
100
AcDbPolyline
 62
7
  6
CONTINUOUS
 90
16
 70
0
 10
-0.7127542089
 20
12.7675466492
 10
-0.6759279948
 20
12.7445166037
 10
-0.6396640068
 20
12.7170223309
 10
-0.6043621926
 20
12.6854060843
 10
-0.5702836171
 20
12.649937847
 10
-0.537924501
 20
12.6111347249
 10
-0.5079486789
 20
12.5698621665
 10
-0.4807417815
 20
12.5269283726
 10
-0.4563121151
 20
12.4826467693
 10
-0.4346891137
 20
12.4371874418
 10
-0.4160184584
 20
12.3909888198
 10
-0.4004497047
 20
12.3445774944
 10
-0.3880632076
 20
12.2982072171
 10
-0.3789594455
 20
12.2522708657
 10
-0.3732129364
 20
12.2072996872
 10
-0.370855886
 20
12.1637401034
  0
LWPOLYLINE
  5
3D3
100
AcDbEntity
  8
C_CORPO
100
AcDbPolyline
 62
7
  6
CONTINUOUS
 90
18
 70
0
 10
7.6476286074
 20
11.0775086418
 10
7.6404214259
 20
11.0954674659
 10
7.6333079522
 20
11.1143051954
 10
7.6264928844
 20
11.1335211324
 10
7.6199783428
 20
11.1531146381
 10
7.6138206495
 20
11.1731176798
 10
7.6080173194
 20
11.1935313362
 10
7.6025708376
 20
11.2143545285
 10
7.5975449815
 20
11.2356159879
 10
7.5929368124
 20
11.2573175092
 10
7.5887492689
 20
11.2794572976
 10
7.5850549447
 20
11.3020586988
 10
7.5818504302
 20
11.3251245786
 10
7.579139135
 20
11.3486520712
 10
7.5770038823
 20
11.3726559256
 10
7.5754722797
 20
11.3971410582
 10
7.5745167196
 20
11.4221025526
 10
7.5741372019
 20
11.4475404088
  0
LINE
  5
3D4
100
AcDbEntity
  8
C_CORPO
100
AcDbLine
 62
7
  6
CONTINUOUS
 10
7.7246346748
 20
-16.1965545978
 11
7.7351590581
 21
-16.1684074769
  0
LWPOLYLINE
  5
3D5
100
AcDbEntity
  8
C_CORPO
100
AcDbPolyline
 62
7
  6
CONTINUOUS
 90
5
 70
0
 10
7.7351590581
 20
-16.1684074769
 10
7.7435747407
 20
-16.1463021373
 10
7.753238407
 20
-16.1213349784
 10
7.7629981876
 20
-16.0964747311
 10
7.7728532423
 20
-16.0717218512
  0
LINE
  5
3D6
100
AcDbEntity
  8
C_CORPO
100
AcDbLine
 62
7
  6
CONTINUOUS
 10
7.7728532423
 20
-16.0717218512
 11
7.7928208992
 21
-16.022536566
  0
LINE
  5
3D7
100
AcDbEntity
  8
C_CORPO
100
AcDbLine
 62
7
  6
CONTINUOUS
 10
7.7928208992
 20
-16.022536566
 11
7.8130485307
 21
-15.9737780232
  0
LWPOLYLINE
  5
3D8
100
AcDbEntity
  8
C_CORPO
100
AcDbPolyline
 62
7
  6
CONTINUOUS
 90
10
 70
0
 10
18.5595508201
 20
9.4161814838
 10
18.5619278946
 20
9.4218596413
 10
18.5639052629
 20
9.427355609
 10
18.5655972104
 20
9.4329228609
 10
18.5670026849
 20
9.4385541125
 10
18.5681209383
 20
9.4442449861
 10
18.5689515039
 20
9.4499908905
 10
18.5694941899
 20
9.4557842201
 10
18.5697490959
 20
9.461620598
 10
18.5697705805
 20
9.4638885381
  0
LINE
  5
3D9
100
AcDbEntity
  8
C_CORPO
100
AcDbLine
 62
7
  6
CONTINUOUS
 10
7.8130485307
 20
-15.9737780232
 11
7.8334504347
 21
-15.9254445402
  0
LINE
  5
3DA
100
AcDbEntity
  8
C_CORPO
100
AcDbLine
 62
7
  6
CONTINUOUS
 10
7.8334504347
 20
-15.9254445402
 11
7.864243541
 21
-15.8537399453
  0
LWPOLYLINE
  5
3DB
100
AcDbEntity
  8
C_CORPO
100
AcDbPolyline
 62
7
  6
CONTINUOUS
 90
3
 70
0
 10
7.864243541
 20
-15.8537399453
 10
7.9052519128
 20
-15.7596291098
 10
7.9154566629
 20
-15.7363709166
  0
LWPOLYLINE
  5
3DC
100
AcDbEntity
  8
C_CORPO
100
AcDbPolyline
 62
250
  6
CONTINUOUS
 90
19
 70
0
 10
18.4995839134
 20
9.3513551247
 10
18.4810650688
 20
9.3111845576
 10
18.461691012
 20
9.2719357511
 10
18.4414705279
 20
9.2336265044
 10
18.4204127813
 20
9.196274184
 10
18.3985273243
 20
9.1598957364
 10
18.3758240936
 20
9.1245076785
 10
18.3523133929
 20
9.0901260685
 10
18.3280058771
 20
9.0567664851
 10
18.3029125588
 20
9.0244440416
 10
18.2770448104
 20
8.9931733886
 10
18.2504143679
 20
8.9629687154
 10
18.2230333156
 20
8.9338437281
 10
18.1949140747
 20
8.9058116382
 10
18.1660693928
 20
8.8788851526
 10
18.1365123458
 20
8.8530764775
 10
18.1062563352
 20
8.8283973152
 10
18.0753150831
 20
8.8048588588
 10
18.0437026212
 20
8.7824717833
  0
LWPOLYLINE
  5
3DD
100
AcDbEntity
  8
C_CORPO
100
AcDbPolyline
 62
7
  6
CONTINUOUS
 90
22
 70
0
 10
18.5595508301
 20
9.4161811927
 10
18.5433955183
 20
9.3812301261
 10
18.5238315969
 20
9.341357259
 10
18.5034804667
 20
9.3024015565
 10
18.4823528355
 20
9.2643664692
 10
18.4604648327
 20
9.2272648343
 10
18.4378392739
 20
9.1911181892
 10
18.4144948481
 20
9.1559382941
 10
18.3904439375
 20
9.1217264082
 10
18.3657015947
 20
9.0884876927
 10
18.3402843536
 20
9.0562287082
 10
18.3142086167
 20
9.024955084
 10
18.2874900609
 20
8.9946710044
 10
18.2601504589
 20
8.9653866099
 10
18.2322034758
 20
8.937102313
 10
18.2036525518
 20
8.9098092574
 10
18.1745177419
 20
8.8835154791
 10
18.1448148415
 20
8.858224234
 10
18.1145395105
 20
8.8339227756
 10
18.0837016424
 20
8.8106121929
 10
18.052326648
 20
8.7883048187
 10
18.0204328412
 20
8.7670062612
  0
LWPOLYLINE
  5
3DE
100
AcDbEntity
  8
C_CORPO
100
AcDbPolyline
 62
250
  6
CONTINUOUS
 90
118
 70
0
 10
17.8754361155
 20
8.8982395348
 10
17.860864462
 20
8.9032686889
 10
17.8466407078
 20
8.9077545022
 10
17.832764853
 20
8.9116969747
 10
17.8192531574
 20
8.9150604471
 10
17.8060893611
 20
8.9178805788
 10
17.7932246848
 20
8.9202643476
 10
17.7806635365
 20
8.9222211266
 10
17.7684015081
 20
8.9237415428
 10
17.7563765959
 20
8.9249044548
 10
17.7445886097
 20
8.9257185055
 10
17.7330377398
 20
8.926175052
 10
17.7216625529
 20
8.9263270239
 10
17.7104453184
 20
8.9261790834
 10
17.6994037671
 20
8.9257265682
 10
17.6885296583
 20
8.9250084217
 10
17.6778061362
 20
8.9240222269
 10
17.6672500567
 20
8.9227704006
 10
17.6569037469
 20
8.9212991365
 10
17.6467685431
 20
8.9196054762
 10
17.6368431089
 20
8.9176923781
 10
17.627165763
 20
8.9156149104
 10
17.6177427047
 20
8.9133728863
 10
17.6085677347
 20
8.9109664926
 10
17.5996605731
 20
8.9084513584
 10
17.5910313432
 20
8.90583134
 10
17.5826699218
 20
8.903102581
 10
17.574565659
 20
8.9003091419
 10
17.5667287291
 20
8.8974578609
 10
17.5591489579
 20
8.8945418997
 10
17.5517851734
 20
8.8915848033
 10
17.5446503312
 20
8.8885970608
 10
17.5377314757
 20
8.8855681832
 10
17.5309485687
 20
8.8824902484
 10
17.5243058681
 20
8.8793713425
 10
17.5177991159
 20
8.8762033793
 10
17.5113354995
 20
8.8729541788
 10
17.5049150641
 20
8.8696297685
 10
17.4985377644
 20
8.8662241208
 10
17.4921106517
 20
8.8626869731
 10
17.4856321181
 20
8.8590233199
 10
17.4791037716
 20
8.8552281668
 10
17.4724374866
 20
8.8512362675
 10
17.4656279388
 20
8.8470501736
 10
17.4586804525
 20
8.8426673336
 10
17.4515228759
 20
8.8380148476
 10
17.4441445917
 20
8.833090663
 10
17.4365562171
 20
8.8278968324
 10
17.4287174515
 20
8.8223666141
 10
17.4206185459
 20
8.8164963204
 10
17.4122692493
 20
8.8102896391
 10
17.4036585076
 20
8.8036908914
 10
17.3947751705
 20
8.796692274
 10
17.3856303882
 20
8.7893015902
 10
17.3762465578
 20
8.7814865717
 10
17.366616136
 20
8.7732388572
 10
17.356746666
 20
8.7645668079
 10
17.3466831751
 20
8.7554632387
 10
17.3364280464
 20
8.7459270796
 10
17.3259788967
 20
8.7359594006
 10
17.3153736038
 20
8.7255562264
 10
17.3046278365
 20
8.7147324037
 10
17.293725926
 20
8.7034730859
 10
17.2826587434
 20
8.6917297579
 10
17.2714457232
 20
8.6795286082
 10
17.2600674309
 20
8.6668434483
 10
17.2484564348
 20
8.6535471971
 10
17.2366090146
 20
8.6396446717
 10
17.2245288905
 20
8.6251310549
 10
17.2121597908
 20
8.6098648144
 10
17.1994956429
 20
8.593847629
 10
17.1865425194
 20
8.57707782
 10
17.1732623662
 20
8.5594088187
 10
17.1596315774
 20
8.540814284
 10
17.145673759
 20
8.521320557
 10
17.1314216748
 20
8.5008600929
 10
17.116850707
 20
8.4793933229
 10
17.1019854734
 20
8.4569598158
 10
17.086932591
 20
8.433610732
 10
17.0717459827
 20
8.4094360487
 10
17.0563717256
 20
8.3843457888
 10
17.0407546682
 20
8.3581211815
 10
17.0249018125
 20
8.33080199
 10
17.0088061565
 20
8.3023484512
 10
16.9923915431
 20
8.2724225045
 10
16.9756191955
 20
8.2409850772
 10
16.9585278904
 20
8.208075242
 10
16.9411578007
 20
8.1734721559
 10
16.9234279075
 20
8.1370147011
 10
16.9054192295
 20
8.0988639955
 10
16.8874149957
 20
8.0592825496
 10
16.8693783823
 20
8.0181325674
 10
16.851346213
 20
7.9755518449
 10
16.833712188
 20
7.9322162803
 10
16.8165163701
 20
7.8881377541
 10
16.7997186965
 20
7.8433043858
 10
16.7835926786
 20
7.7983564322
 10
16.7682079164
 20
7.7534347591
 10
16.7534948101
 20
7.7083985007
 10
16.7395180716
 20
7.6634653166
 10
16.7262927473
 20
7.6186711268
 10
16.713803791
 20
7.5739800112
 10
16.7020707761
 20
7.5295018694
 10
16.6910916158
 20
7.4852122127
 10
16.6808683968
 20
7.4411355297
 10
16.6714269535
 20
7.3974551857
 10
16.6627770569
 20
7.3541905895
 10
16.6549089359
 20
7.3113223322
 10
16.6478191111
 20
7.2689755527
 10
16.6415139966
 20
7.2271764515
 10
16.6359871781
 20
7.1858988281
 10
16.6312159343
 20
7.14518922
 10
16.6272005862
 20
7.1050466712
 10
16.6239408128
 20
7.0654721376
 10
16.6214129291
 20
7.0265150245
 10
16.6196090403
 20
6.9881918004
 10
16.6185370413
 20
6.9504859967
 10
16.6181969322
 20
6.9133976135
  0
LWPOLYLINE
  5
3DF
100
AcDbEntity
  8
C_COPERCHIO
100
AcDbPolyline
 62
7
  6
CONTINUOUS
 90
3
 70
0
 10
-15.807248631
 20
19.6990977865
 10
-15.8277644286
 20
19.7065729301
 10
-15.8469152734
 20
19.7153109582
  0
LWPOLYLINE
  5
3E0
100
AcDbEntity
  8
C_COPERCHIO
100
AcDbPolyline
 62
250
  6
CONTINUOUS
 90
7
 70
0
 10
-11.566072495
 20
19.0395769415
 10
-11.5848261836
 20
19.0471650225
 10
-11.603216907
 20
19.051682447
 10
-11.6209301167
 20
19.0530519481
 10
-11.6376628523
 20
19.0512501001
 10
-11.6531289221
 20
19.0463077187
 10
-11.6585691146
 20
19.0436484872
  0
LWPOLYLINE
  5
3E1
100
AcDbEntity
  8
C_COPERCHIO
100
AcDbPolyline
 62
7
  6
CONTINUOUS
 90
6
 70
0
 10
-11.2126277484
 20
19.2302684909
 10
-11.2310790167
 20
19.2380187154
 10
-11.2492214138
 20
19.242669853
 10
-11.2667403863
 20
19.244144404
 10
-11.283331585
 20
19.2424194622
 10
-11.2999668998
 20
19.2369582709
  0
LWPOLYLINE
  5
3E2
100
AcDbEntity
  8
C_CORPO
100
AcDbPolyline
 62
7
  6
CONTINUOUS
 90
22
 70
0
 10
-6.1230961573
 20
18.6923532582
 10
-6.1342952052
 20
18.697543042
 10
-6.1454354323
 20
18.7023250115
 10
-6.1565062156
 20
18.7066943148
 10
-6.167496237
 20
18.7106465936
 10
-6.1783956239
 20
18.7141778137
 10
-6.1891959469
 20
18.7172841366
 10
-6.1998865096
 20
18.7199623896
 10
-6.2104570173
 20
18.7222097067
 10
-6.2208996851
 20
18.7240231209
 10
-6.2312039842
 20
18.725400681
 10
-6.2413597836
 20
18.726340705
 10
-6.2513599587
 20
18.7268410519
 10
-6.2611941393
 20
18.7269010148
 10
-6.2708525063
 20
18.7265201347
 10
-6.2803288487
 20
18.7256970797
 10
-6.2896131352
 20
18.7244323946
 10
-6.2986958089
 20
18.7227268477
 10
-6.3075714954
 20
18.7205799295
 10
-6.3162305753
 20
18.7179934648
 10
-6.3246638498
 20
18.7149695229
 10
-6.3328667906
 20
18.7115086051
  0
LWPOLYLINE
  5
3E3
100
AcDbEntity
  8
C_COPERCHIO
100
AcDbPolyline
 62
250
  6
CONTINUOUS
 90
7
 70
0
 10
-13.6205001652
 20
21.6223840837
 10
-13.623726506
 20
21.6239125057
 10
-13.642806847
 20
21.6301835813
 10
-13.6632640319
 20
21.6325206651
 10
-13.6846799825
 20
21.6309697496
 10
-13.706726672
 20
21.6256427094
 10
-13.7290339778
 20
21.6167013007
  0
LWPOLYLINE
  5
3E4
100
AcDbEntity
  8
C_COPERCHIO
100
AcDbPolyline
 62
250
  6
CONTINUOUS
 90
7
 70
0
 10
-14.9452508937
 20
22.2847597011
 10
-14.948661642
 20
22.2863800737
 10
-14.9677419829
 20
22.2926511493
 10
-14.9881991678
 20
22.2949882331
 10
-15.0096151185
 20
22.2934373176
 10
-15.031661808
 20
22.2881102774
 10
-15.0539691138
 20
22.2791688687
  0
LWPOLYLINE
  5
3E5
100
AcDbEntity
  8
C_CORPO
100
AcDbPolyline
 62
7
  6
CONTINUOUS
 90
64
 70
0
 10
-5.0425404083
 20
18.8233432261
 10
-5.0535186164
 20
18.8286941
 10
-5.0709739152
 20
18.8366592273
 10
-5.0888978518
 20
18.8441963828
 10
-5.1072594653
 20
18.8512994607
 10
-5.1260496312
 20
18.8579739677
 10
-5.1452801604
 20
18.8642327883
 10
-5.1649285438
 20
18.8700772641
 10
-5.184972677
 20
18.8755105833
 10
-5.2054207578
 20
18.8805442316
 10
-5.2262214343
 20
18.8851751415
 10
-5.2473859507
 20
18.8894153544
 10
-5.269014672
 20
18.8932894415
 10
-5.2910598908
 20
18.8967904538
 10
-5.3135397783
 20
18.8999226572
 10
-5.3366542155
 20
18.9027079743
 10
-5.3604754894
 20
18.9051408501
 10
-5.3849079841
 20
18.9071972971
 10
-5.4098977941
 20
18.9088617704
 10
-5.4355459708
 20
18.9101277801
 10
-5.4617240422
 20
18.910975356
 10
-5.48803052
 20
18.911389921
 10
-5.5144318846
 20
18.9113784265
 10
-5.5409343972
 20
18.9109470962
 10
-5.5671969508
 20
18.9101137171
 10
-5.5931332328
 20
18.9089011338
 10
-5.6188110353
 20
18.9073247059
 10
-5.644122709
 20
18.9054086873
 10
-5.6690481012
 20
18.9031734394
 10
-5.6935959111
 20
18.9006358734
 10
-5.7177028811
 20
18.8978201297
 10
-5.7413488411
 20
18.894746773
 10
-5.7645486949
 20
18.8914312352
 10
-5.7872920292
 20
18.8878914798
 10
-5.8095702082
 20
18.884145002
 10
-5.8313901611
 20
18.8802062304
 10
-5.852763785
 20
18.876087767
 10
-5.8736914813
 20
18.8718036479
 10
-5.8941727533
 20
18.8673677474
 10
-5.9142165221
 20
18.8627914727
 10
-5.9338250031
 20
18.858087231
 10
-5.9529967071
 20
18.8532680943
 10
-5.9717333228
 20
18.848346202
 10
-5.9900455568
 20
18.8433309805
 10
-6.0079236212
 20
18.8382372498
 10
-6.0253376131
 20
18.8330862549
 10
-6.0422753378
 20
18.8278949425
 10
-6.0587518986
 20
18.8226719045
 10
-6.0747771175
 20
18.8174267969
 10
-6.090329635
 20
18.8121795043
 10
-6.1054324852
 20
18.8069350679
 10
-6.1201572284
 20
18.8016800238
 10
-6.1345024898
 20
18.7964252512
 10
-6.1484631759
 20
18.7911831369
 10
-6.162097599
 20
18.7859416346
 10
-6.1753887132
 20
18.7807166821
 10
-6.1883366684
 20
18.7755179333
 10
-6.2010154178
 20
18.770324618
 10
-6.2133876147
 20
18.7651607021
 10
-6.2254542941
 20
18.7600350661
 10
-6.2373292494
 20
18.754907714
 10
-6.2489662873
 20
18.7498066465
 10
-6.2603324653
 20
18.7447556423
 10
-6.2825509415
 20
18.7347084426
  0
LINE
  5
3E6
100
AcDbEntity
  8
C_COPERCHIO
100
AcDbLine
 62
7
  6
CONTINUOUS
 10
-2.2323770121
 20
15.3463609054
 11
-0.8888202799
 21
14.6745825393
  0
LINE
  5
3E7
100
AcDbEntity
  8
C_COPERCHIO
100
AcDbLine
 62
7
  6
CONTINUOUS
 10
-14.2531384444
 20
21.3567416216
 11
-15.5966951765
 21
22.0285199876
  0
LINE
  5
3E8
100
AcDbEntity
  8
C_COPERCHIO
100
AcDbLine
 62
7
  6
CONTINUOUS
 10
-10.0105246812
 20
19.3212072089
 11
-5.0607772129
 21
16.8463334747
  0
LINE
  5
3E9
100
AcDbEntity
  8
C_COPERCHIO
100
AcDbLine
 62
250
  6
CONTINUOUS
 10
-15.0539691138
 20
22.2791688687
 11
-13.7290339778
 21
21.6167013007
  0
LINE
  5
3EA
100
AcDbEntity
  8
C_COPERCHIO
100
AcDbLine
 62
250
  6
CONTINUOUS
 10
-0.3647158134
 20
14.9345422185
 11
-1.6896509494
 21
15.5970097865
  0
LINE
  5
3EB
100
AcDbEntity
  8
C_COPERCHIO
100
AcDbLine
 62
7
  6
CONTINUOUS
 10
-14.9452508937
 20
22.2847597011
 11
-13.6203157577
 21
21.6222921331
  0
LINE
  5
3EC
100
AcDbEntity
  8
C_COPERCHIO
100
AcDbLine
 62
7
  6
CONTINUOUS
 10
-0.2559975932
 20
14.9401330509
 11
-1.5809327292
 21
15.6026006189
  0
LINE
  5
3ED
100
AcDbEntity
  8
C_CORPO
100
AcDbLine
 62
7
  6
CONTINUOUS
 10
-3.7171774883
 20
17.4894098604
 11
-6.1214912325
 21
18.6915667325
  0
LINE
  5
3EE
100
AcDbEntity
  8
C_CORPO
100
AcDbLine
 62
250
  6
CONTINUOUS
 10
-5.1319759351
 20
18.8200884669
 11
-3.0802697183
 21
17.7942479303
  0
LINE
  5
3EF
100
AcDbEntity
  8
C_CORPO
100
AcDbLine
 62
7
  6
CONTINUOUS
 10
-5.0425438171
 20
18.8233449337
 11
-3.031262079
 21
17.8177040646
  0
LINE
  5
3F0
100
AcDbEntity
  8
C_CORPO
100
AcDbLine
 62
7
  6
CONTINUOUS
 10
7.9154566629
 20
10.6628149877
 11
7.8950299757
 21
10.6882866251
  0
LWPOLYLINE
  5
3F1
100
AcDbEntity
  8
C_CORPO
100
AcDbPolyline
 62
7
  6
CONTINUOUS
 90
26
 70
0
 10
7.8950299757
 20
10.6882866251
 10
7.8745257897
 20
10.714109337
 10
7.8642435407
 20
10.7271512767
 10
7.85397036
 20
10.7403087835
 10
7.8437058631
 20
10.7535809464
 10
7.8334504344
 20
10.7669686764
 10
7.8232314828
 20
10.7805003661
 10
7.8130485305
 20
10.7941753693
 10
7.8029020552
 20
10.8079943322
 10
7.792820899
 20
10.8219875866
 10
7.782804411
 20
10.8361545265
 10
7.7728532421
 20
10.8504957577
 10
7.7629981874
 20
10.8650434297
 10
7.7532384069
 20
10.8797971284
 10
7.7435747405
 20
10.8947572678
 10
7.7340405034
 20
10.909957239
 10
7.7246346746
 20
10.925396716
 10
7.715358275
 20
10.9410760247
 10
7.706247682
 20
10.9570295336
 10
7.6973016446
 20
10.9732570952
 10
7.6885214138
 20
10.9897588571
 10
7.6799471201
 20
11.0065696303
 10
7.671577264
 20
11.0236894607
 10
7.6634133449
 20
11.0411183025
 10
7.6554999913
 20
11.0588908295
 10
7.6476286074
 20
11.0775086418
  0
LINE
  5
3F2
100
AcDbEntity
  8
C_CORPO
100
AcDbLine
 62
7
  6
CONTINUOUS
 10
6.6666011595
 20
14.1874158378
 11
5.58340589
 21
16.0556513236
  0
LINE
  5
3F3
100
AcDbEntity
  8
C_CORPO
100
AcDbLine
 62
7
  6
CONTINUOUS
 10
7.1599867262
 20
13.9571532855
 11
7.028278811
 21
14.1843158367
  0
LINE
  5
3F4
100
AcDbEntity
  8
C_CORPO
100
AcDbLine
 62
250
  6
CONTINUOUS
 10
7.0482666935
 20
17.1386611169
 11
7.4027623882
 21
16.2189586461
  0
LWPOLYLINE
  5
3F5
100
AcDbEntity
  8
C_CORPO
100
AcDbPolyline
 62
250
  6
CONTINUOUS
 90
118
 70
0
 10
16.6181969322
 20
11.9203941584
 10
16.6185417316
 20
11.8836561919
 10
16.619618589
 20
11.8470587477
 10
16.6214275044
 20
11.8106018255
 10
16.6239605751
 20
11.774260767
 10
16.6272257037
 20
11.7380602307
 10
16.6312465977
 20
11.7020741921
 10
16.6360235846
 20
11.6663039179
 10
16.6415563369
 20
11.6307481414
 10
16.6478675802
 20
11.5954770374
 10
16.6549638022
 20
11.5604708656
 10
16.6628385152
 20
11.5257493662
 10
16.6714949813
 20
11.491441935
 10
16.6809428812
 20
11.4575396668
 10
16.6911725342
 20
11.4240514669
 10
16.7021581597
 20
11.3911334466
 10
16.7138976471
 20
11.3588078571
 10
16.726393107
 20
11.3270524472
 10
16.7396250913
 20
11.2959565746
 10
16.7536089152
 20
11.2654994403
 10
16.7683292634
 20
11.2357018433
 10
16.7837207416
 20
11.2067155378
 10
16.7998532751
 20
11.178471638
 10
16.8166569385
 20
11.1510390297
 10
16.8338565606
 20
11.124776124
 10
16.8514915691
 20
11.0997135628
 10
16.8695225363
 20
11.0758207043
 10
16.887556008
 20
11.0533640345
 10
16.905554685
 20
11.0324433389
 10
16.9235558665
 20
11.0129588321
 10
16.9412779965
 20
10.9948776443
 10
16.9586403811
 20
10.9782763566
 10
16.9757237142
 20
10.9630783879
 10
16.9924885214
 20
10.9490211253
 10
17.008896143
 20
10.9361033457
 10
17.0249852388
 20
10.9243262722
 10
17.0408323136
 20
10.9134309612
 10
17.0564448643
 20
10.9033846888
 10
17.0718153942
 20
10.8942201789
 10
17.0869979171
 20
10.8857766603
 10
17.1020459257
 20
10.878020329
 10
17.1169059273
 20
10.8709849889
 10
17.131471458
 20
10.8646112806
 10
17.1457177995
 20
10.8589132746
 10
17.15966967
 20
10.8538769004
 10
17.1732947601
 20
10.8494005865
 10
17.1865695379
 20
10.8454861656
 10
17.1995175354
 20
10.8421318051
 10
17.2121770391
 20
10.8392304362
 10
17.2245420512
 20
10.8367740705
 10
17.2366185696
 20
10.8347706965
 10
17.2484628744
 20
10.8331372095
 10
17.2600712574
 20
10.8318649476
 10
17.2714474268
 20
10.8309625729
 10
17.2826587875
 20
10.8303729664
 10
17.2937247826
 20
10.8300900731
 10
17.3046259691
 20
10.8301199481
 10
17.3153714225
 20
10.8304236379
 10
17.3259768597
 20
10.8310025392
 10
17.3364265638
 20
10.8318552553
 10
17.3466824594
 20
10.8329386421
 10
17.3567469456
 20
10.8342562635
 10
17.3666176233
 20
10.8358045556
 10
17.3762492196
 20
10.8375296836
 10
17.3856341519
 20
10.8394322073
 10
17.3947800028
 20
10.8415115669
 10
17.4036642472
 20
10.8437122472
 10
17.4122756712
 20
10.8460304902
 10
17.4206254887
 20
10.8484700541
 10
17.4287248161
 20
10.8509866975
 10
17.4365638897
 20
10.8535740003
 10
17.4441524732
 20
10.8562383827
 10
17.4515309747
 20
10.8589548643
 10
17.458688804
 20
10.8617145082
 10
17.4656365513
 20
10.8645262513
 10
17.4724463944
 20
10.8673919234
 10
17.4791130127
 20
10.8703034595
 10
17.4856417268
 20
10.8732689246
 10
17.4921206764
 20
10.8763143429
 10
17.4985482563
 20
10.8794330551
 10
17.5049260717
 20
10.8826317206
 10
17.5113470784
 20
10.8859563413
 10
17.5178113232
 20
10.8894009366
 10
17.5243187594
 20
10.892971487
 10
17.530962202
 20
10.8967319368
 10
17.5377459149
 20
10.900678612
 10
17.5446656342
 20
10.9048151864
 10
17.5518013842
 20
10.9092166257
 10
17.559166093
 20
10.9138858369
 10
17.5667468323
 20
10.9188199128
 10
17.574584842
 20
10.9240850976
 10
17.5826903002
 20
10.9296850855
 10
17.5910530286
 20
10.9356161823
 10
17.5996837326
 20
10.9419335494
 10
17.6085925963
 20
10.9486438611
 10
17.6177694356
 20
10.9557404431
 10
17.6271944034
 20
10.9632584333
 10
17.6368737421
 20
10.9712044916
 10
17.6468012092
 20
10.9795719582
 10
17.6569382307
 20
10.9883759912
 10
17.6672861213
 20
10.9976209379
 10
17.6778435661
 20
11.007302451
 10
17.688568046
 20
11.0174226462
 10
17.6994426543
 20
11.02796645
 10
17.7104842977
 20
11.038948936
 10
17.7217011761
 20
11.0504174399
 10
17.7330755401
 20
11.0623489224
 10
17.7446251392
 20
11.0747664228
 10
17.7564114222
 20
11.0877863949
 10
17.7684341999
 20
11.1014000035
 10
17.7806936615
 20
11.1156160839
 10
17.7932518239
 20
11.1305775953
 10
17.806113111
 20
11.1462797636
 10
17.8192730989
 20
11.1627273628
 10
17.8327805319
 20
11.180077675
 10
17.8466516583
 20
11.1983831274
 10
17.8608702299
 20
11.2175912926
 10
17.8754362466
 20
11.2377021708
  0
LINE
  5
3F6
100
AcDbEntity
  8
C_CORPO
100
AcDbLine
 62
250
  6
CONTINUOUS
 10
16.6181969322
 20
6.9133976135
 11
16.6182578986
 21
-11.0645870952
  0
LINE
  5
3F7
100
AcDbEntity
  8
C_CORPO
100
AcDbLine
 62
7
  6
CONTINUOUS
 10
16.8988571318
 20
15.326767504
 11
16.8988571318
 21
12.2678426535
  0
LINE
  5
3F8
100
AcDbEntity
  8
C_CORPO
100
AcDbLine
 62
7
  6
CONTINUOUS
 10
16.8988571318
 20
7.2607267986
 11
16.8988571318
 21
-10.6937137006
  0
LWPOLYLINE
  5
3F9
100
AcDbEntity
  8
C_CORPO
100
AcDbPolyline
 62
250
  6
CONTINUOUS
 90
58
 70
0
 10
16.6181969322
 20
11.9203941584
 10
16.6182578457
 20
15.0035978259
 10
16.6177726559
 20
15.0280026562
 10
16.6167417307
 20
15.052634284
 10
16.6151658526
 20
15.077474012
 10
16.6130462177
 20
15.1025029834
 10
16.6103844351
 20
15.1277021959
 10
16.6071825257
 20
15.1530525196
 10
16.6034429198
 20
15.1785347118
 10
16.5991684565
 20
15.2041294285
 10
16.5943623803
 20
15.2298172406
 10
16.5890283398
 20
15.255578648
 10
16.5831703842
 20
15.2813940947
 10
16.5767929604
 20
15.3072439836
 10
16.5699009096
 20
15.333108692
 10
16.5624994637
 20
15.3589685856
 10
16.5545942414
 20
15.3848040337
 10
16.5461912436
 20
15.4105954246
 10
16.5372968493
 20
15.4363231792
 10
16.5279178106
 20
15.4619677674
 10
16.5180612471
 20
15.4875097223
 10
16.5077346415
 20
15.5129296541
 10
16.4969458328
 20
15.5382082664
 10
16.485703011
 20
15.5633263701
 10
16.474014711
 20
15.5882648972
 10
16.4618898058
 20
15.6130049169
 10
16.4493374995
 20
15.6375276487
 10
16.4363673211
 20
15.6618144769
 10
16.4229891167
 20
15.6858469651
 10
16.4092130417
 20
15.7096068704
 10
16.3950495543
 20
15.733076156
 10
16.3805094061
 20
15.7562370063
 10
16.3656036349
 20
15.7790718401
 10
16.3503435557
 20
15.8015633234
 10
16.3347407529
 20
15.823694383
 10
16.3188070707
 20
15.8454482193
 10
16.302554604
 20
15.8668083197
 10
16.2859956909
 20
15.8877584691
 10
16.2691429009
 20
15.9082827649
 10
16.2520090242
 20
15.9283656306
 10
16.2346070664
 20
15.947991822
 10
16.2169502383
 20
15.9671464396
 10
16.199051943
 20
15.9858149431
 10
16.1809257692
 20
16.0039831591
 10
16.1625854747
 20
16.0216372981
 10
16.1440449751
 20
16.0387639643
 10
16.125318326
 20
16.0553501723
 10
16.1064197608
 20
16.0713833136
 10
16.0873636749
 20
16.0868511772
 10
16.0681645658
 20
16.1017420019
 10
16.048836978
 20
16.116044513
 10
16.029395541
 20
16.1297478869
 10
16.0098546041
 20
16.1428419882
 10
15.9902294057
 20
16.1553165845
 10
15.9705360352
 20
16.16716151
 10
15.9507898495
 20
16.1783676695
 10
15.9310054472
 20
16.1889269195
 10
15.2031532027
 20
16.5528536874
  0
LWPOLYLINE
  5
3FA
100
AcDbEntity
  8
C_CORPO
100
AcDbPolyline
 62
250
  6
CONTINUOUS
 90
30
 70
0
 10
16.8988571318
 20
15.326767504
 10
16.8988451679
 20
15.3243217093
 10
16.8983405745
 20
15.3106985296
 10
16.8970937458
 20
15.2970872811
 10
16.8951056073
 20
15.2834980718
 10
16.8923776354
 20
15.2699409938
 10
16.8889118554
 20
15.2564261147
 10
16.8847108411
 20
15.2429634709
 10
16.879777712
 20
15.2295630604
 10
16.8741161313
 20
15.2162348347
 10
16.8677303032
 20
15.2029886915
 10
16.86062497
 20
15.189834468
 10
16.8528054081
 20
15.1767819328
 10
16.8442774242
 20
15.1638407791
 10
16.8350473515
 20
15.1510206174
 10
16.8251220443
 20
15.1383309683
 10
16.8145088732
 20
15.1257812554
 10
16.8032157198
 20
15.1133807984
 10
16.7912509705
 20
15.1011388064
 10
16.7786235105
 20
15.0890643703
 10
16.7653427175
 20
15.0771664574
 10
16.7514184541
 20
15.0654539032
 10
16.7368610607
 20
15.0539354058
 10
16.7216813479
 20
15.042619519
 10
16.7058905877
 20
15.0315146458
 10
16.6895005074
 20
15.0206290334
 10
16.6725232811
 20
15.0099707673
 10
16.6549715177
 20
14.9995477631
 10
16.6368582509
 20
14.9893677603
 10
16.6181969322
 20
14.9794383188
  0
LWPOLYLINE
  5
3FB
100
AcDbEntity
  8
C_CORPO
100
AcDbPolyline
 62
250
  6
CONTINUOUS
 90
30
 70
0
 10
16.8988571318
 20
12.2678426535
 10
16.8988451308
 20
12.2653923051
 10
16.8983403385
 20
12.2517650104
 10
16.8970933245
 20
12.2381496433
 10
16.8951050149
 20
12.2245563116
 10
16.8923768862
 20
12.2109951098
 10
16.8889109642
 20
12.1974761054
 10
16.8847098229
 20
12.1840093343
 10
16.879776582
 20
12.1706047971
 10
16.874114905
 20
12.1572724449
 10
16.8677289962
 20
12.1440221751
 10
16.860623598
 20
12.1308638274
 10
16.8528039867
 20
12.1178071702
 10
16.8442759693
 20
12.1048618961
 10
16.8350458788
 20
12.0920376184
 10
16.8251205694
 20
12.0793438576
 10
16.8145074117
 20
12.0667900366
 10
16.8032142872
 20
12.0543854775
 10
16.7912495821
 20
12.0421393889
 10
16.7786221816
 20
12.0300608615
 10
16.7653414627
 20
12.0181588631
 10
16.7514172879
 20
12.0064422296
 10
16.7368599973
 20
11.9949196581
 10
16.7216804011
 20
11.9835997024
 10
16.705889772
 20
11.9724907663
 10
16.689499836
 20
11.9616010956
 10
16.6725227643
 20
11.9509387727
 10
16.6549711644
 20
11.940511712
 10
16.63685807
 20
11.930327654
 10
16.6181969322
 20
11.9203941584
  0
LWPOLYLINE
  5
3FC
100
AcDbEntity
  8
C_CORPO
100
AcDbPolyline
 62
250
  6
CONTINUOUS
 90
30
 70
0
 10
16.8988571318
 20
7.2607267986
 10
16.8988451308
 20
7.2582772152
 10
16.8983403388
 20
7.2446541586
 10
16.897093325
 20
7.2310430377
 10
16.8951050155
 20
7.2174539602
 10
16.892376887
 20
7.2038970174
 10
16.8889109652
 20
7.1903822767
 10
16.884709824
 20
7.1769197743
 10
16.8797765832
 20
7.1635195074
 10
16.8741149063
 20
7.1501914272
 10
16.8677289976
 20
7.1369454313
 10
16.8606235994
 20
7.1237913561
 10
16.8528039881
 20
7.1107389699
 10
16.8442759708
 20
7.0977979655
 10
16.8350458802
 20
7.084977953
 10
16.8251205708
 20
7.0722884525
 10
16.8145074131
 20
7.0597388875
 10
16.8032142885
 20
7.0473385771
 10
16.7912495834
 20
7.03509673
 10
16.7786221827
 20
7.023022437
 10
16.7653414638
 20
7.0111246646
 10
16.7514172889
 20
6.999412248
 10
16.7368599981
 20
6.9878938851
 10
16.7216804019
 20
6.9765781294
 10
16.7058897726
 20
6.965473384
 10
16.6894998364
 20
6.9545878953
 10
16.6725227647
 20
6.9439297471
 10
16.6549711646
 20
6.9335068541
 10
16.6368580702
 20
6.9233269563
 10
16.6181969322
 20
6.9133976135
  0
LWPOLYLINE
  5
3FD
100
AcDbEntity
  8
C_CORPO
100
AcDbPolyline
 62
7
  6
CONTINUOUS
 90
103
 70
0
 10
16.8988571463
 20
7.2607405169
 10
16.8989332491
 20
7.2726250596
 10
16.8992393323
 20
7.2876861763
 10
16.899774996
 20
7.3029527168
 10
16.9005343096
 20
7.3183878664
 10
16.9015103098
 20
7.3339517852
 10
16.9026953004
 20
7.349609253
 10
16.9040806384
 20
7.3653258563
 10
16.9056583282
 20
7.381080429
 10
16.9074224689
 20
7.3968706997
 10
16.909364816
 20
7.4126712571
 10
16.9114777689
 20
7.4284659395
 10
16.9137591356
 20
7.4442757707
 10
16.9162022043
 20
7.4600843972
 10
16.9188003886
 20
7.4758771681
 10
16.9215549893
 20
7.4916843502
 10
16.9244630174
 20
7.5075062745
 10
16.9275170181
 20
7.5233191825
 10
16.9307136234
 20
7.5391216034
 10
16.9340497757
 20
7.5549122509
 10
16.9375187872
 20
7.5706726162
 10
16.9411119662
 20
7.5863778365
 10
16.9448239799
 20
7.6020198509
 10
16.9486493515
 20
7.6175899429
 10
16.9525786224
 20
7.6330640328
 10
16.9566063156
 20
7.6484350048
 10
16.9607268663
 20
7.6636954677
 10
16.964930178
 20
7.6788225476
 10
16.9692105924
 20
7.6938105637
 10
16.9735623623
 20
7.7086533032
 10
16.977974881
 20
7.7233284794
 10
16.9824425775
 20
7.7378314275
 10
16.9869597524
 20
7.7521569336
 10
16.9915152316
 20
7.7662832188
 10
16.996108112
 20
7.7802208943
 10
17.0007281628
 20
7.793951695
 10
17.0053490776
 20
7.8074119302
 10
17.0099596996
 20
7.8205851405
 10
17.0145585572
 20
7.8334824805
 10
17.0191329017
 20
7.8460830764
 10
17.0236655372
 20
7.8583552836
 10
17.0281614617
 20
7.8703278133
 10
17.0326425442
 20
7.8820709458
 10
17.0371044289
 20
7.8935831477
 10
17.0415430766
 20
7.9048635214
 10
17.045983386
 20
7.9159829444
 10
17.0504226275
 20
7.9269403845
 10
17.054857858
 20
7.9377342374
 10
17.0593158166
 20
7.9484336976
 10
17.0638001359
 20
7.9590498508
 10
17.0683036304
 20
7.9695679723
 10
17.0728382025
 20
7.9800176999
 10
17.0774082415
 20
7.9904100445
 10
17.0820066048
 20
8.0007296362
 10
17.0866282114
 20
8.0109663481
 10
17.0912719551
 20
8.0211191357
 10
17.0959357715
 20
8.0311848968
 10
17.1006128929
 20
8.0411506751
 10
17.1053017701
 20
8.0510149765
 10
17.1100003558
 20
8.060775263
 10
17.1147009021
 20
8.0704174251
 10
17.1194016653
 20
8.0799400773
 10
17.124100489
 20
8.0893410377
 10
17.1287887871
 20
8.0986055708
 10
17.1334629415
 20
8.1077292533
 10
17.1381222974
 20
8.1167134743
 10
17.1427626022
 20
8.1255526893
 10
17.1473800961
 20
8.1342425061
 10
17.151974187
 20
8.1427845785
 10
17.1565454156
 20
8.1511825455
 10
17.1610919455
 20
8.1594355899
 10
17.1656113007
 20
8.1675417838
 10
17.1701030754
 20
8.1755028387
 10
17.17456436
 20
8.1833159858
 10
17.1789935551
 20
8.1909808397
 10
17.1833922401
 20
8.1985024491
 10
17.1877557855
 20
8.2058752174
 10
17.1920842305
 20
8.2131015903
 10
17.1963860985
 20
8.2201977935
 10
17.2006587128
 20
8.2271610058
 10
17.2048996051
 20
8.2339888494
 10
17.2091173497
 20
8.240696525
 10
17.2133094856
 20
8.2472812772
 10
17.2174726089
 20
8.2537390398
 10
17.221613437
 20
8.2600813496
 10
17.2257299534
 20
8.2663058524
 10
17.2298166667
 20
8.2724050297
 10
17.2338743803
 20
8.2783809402
 10
17.2379007728
 20
8.2842310129
 10
17.241888891
 20
8.2899462159
 10
17.2458319226
 20
8.2955181698
 10
17.249725233
 20
8.3009417173
 10
17.2535616902
 20
8.3062085031
 10
17.2573301147
 20
8.311305251
 10
17.2610253385
 20
8.3162274815
 10
17.264638834
 20
8.3209666775
 10
17.2681540709
 20
8.3255044249
 10
17.2715648434
 20
8.3298364612
 10
17.2748614783
 20
8.3339546798
 10
17.2780229565
 20
8.3378379008
 10
17.2810375026
 20
8.3414775876
 10
17.2839013521
 20
8.3448752488
 10
17.2841947067
 20
8.3452198443
  0
LINE
  5
3FE
100
AcDbEntity
  8
C_CORPO
100
AcDbLine
 62
250
  6
CONTINUOUS
 10
16.8988571318
 20
-10.6937137006
 11
16.8988123772
 21
-10.6970472168
  0
LWPOLYLINE
  5
3FF
100
AcDbEntity
  8
C_CORPO
100
AcDbPolyline
 62
250
  6
CONTINUOUS
 90
32
 70
0
 10
16.6182578986
 20
-11.0645870952
 10
16.6177729877
 20
-11.0878513078
 10
16.6167424686
 20
-11.1108178175
 10
16.6151669875
 20
-11.1334695916
 10
16.6130476568
 20
-11.1557889124
 10
16.6103861642
 20
-11.1777574588
 10
16.6071846023
 20
-11.1993581072
 10
16.6034453518
 20
-11.2205749228
 10
16.5991712409
 20
-11.2413918452
 10
16.5943655027
 20
-11.2617931018
 10
16.5890317881
 20
-11.2817631697
 10
16.5831741583
 20
-11.3012868364
 10
16.576797067
 20
-11.3203492634
 10
16.5699053504
 20
-11.3389360003
 10
16.5625042378
 20
-11.3570329444
 10
16.5545993467
 20
-11.3746263605
 10
16.5461966786
 20
-11.3917028911
 10
16.537302612
 20
-11.4082495737
 10
16.5279238991
 20
-11.4242538468
 10
16.5180676589
 20
-11.4397035624
 10
16.5077413716
 20
-11.454586995
 10
16.4969528754
 20
-11.4688928469
 10
16.4857103602
 20
-11.4826102577
 10
16.4740223597
 20
-11.4957288144
 10
16.461897746
 20
-11.5082385588
 10
16.4493457228
 20
-11.5201299941
 10
16.4363758183
 20
-11.5313940933
 10
16.4229978777
 20
-11.5420223054
 10
16.4092220561
 20
-11.5520065623
 10
16.395058811
 20
-11.5613392842
 10
16.3805188936
 20
-11.5700133864
 10
16.3736809523
 20
-11.5737945716
  0
LWPOLYLINE
  5
400
100
AcDbEntity
  8
C_CORPO
100
AcDbPolyline
 62
250
  6
CONTINUOUS
 90
29
 70
0
 10
16.8988123772
 20
-10.6970472168
 10
16.8983403393
 20
-10.7097863323
 10
16.897093326
 20
-10.7233974532
 10
16.8951050169
 20
-10.7369865308
 10
16.8923768888
 20
-10.7505434738
 10
16.8889109674
 20
-10.7640582147
 10
16.8847098265
 20
-10.7775207174
 10
16.8797765861
 20
-10.7909209845
 10
16.8741149095
 20
-10.804249065
 10
16.867729001
 20
-10.8174950613
 10
16.860623603
 20
-10.8306491368
 10
16.852803992
 20
-10.8437015234
 10
16.8442759747
 20
-10.8566425282
 10
16.8350458843
 20
-10.8694625411
 10
16.8251205749
 20
-10.882152042
 10
16.8145074172
 20
-10.8947016075
 10
16.8032142925
 20
-10.9071019183
 10
16.7912495873
 20
-10.9193437659
 10
16.7786221865
 20
-10.9314180593
 10
16.7653414673
 20
-10.9433158321
 10
16.7514172921
 20
-10.9550282491
 10
16.7368600011
 20
-10.9665466124
 10
16.7216804045
 20
-10.9778623685
 10
16.7058897748
 20
-10.9889671142
 10
16.6894998383
 20
-10.9998526031
 10
16.6725227661
 20
-11.0105107516
 10
16.6549711656
 20
-11.0209336449
 10
16.6368580707
 20
-11.0311135428
 10
16.6181969322
 20
-11.0410428858
  0
LINE
  5
401
100
AcDbEntity
  8
C_COPERCHIO
100
AcDbLine
 62
7
  6
CONTINUOUS
 10
-1.7912445725
 20
-27.1772899485
 11
-2.3339706352
 21
-27.8165237326
  0
LWPOLYLINE
  5
402
100
AcDbEntity
  8
C_COPERCHIO
100
AcDbPolyline
 62
7
  6
CONTINUOUS
 90
4
 70
0
 10
-2.3000178096
 20
15.3637057968
 10
-2.2781297838
 20
15.3618572631
 10
-2.2554554039
 20
15.3560415328
 10
-2.2323770121
 20
15.3463609054
  0
LINE
  5
403
100
AcDbEntity
  8
C_COPERCHIO
100
AcDbLine
 62
7
  6
CONTINUOUS
 10
-15.1555627369
 20
19.554473273
 11
-15.6982887996
 21
19.6696025906
  0
LWPOLYLINE
  5
404
100
AcDbEntity
  8
C_CORPO
100
AcDbPolyline
 62
250
  6
CONTINUOUS
 90
17
 70
0
 10
-5.0436103004
 20
18.8238647008
 10
-5.0481496001
 20
18.8258665014
 10
-5.0529047176
 20
18.8275939247
 10
-5.0577936617
 20
18.8290114381
 10
-5.0628081588
 20
18.830116643
 10
-5.0679397233
 20
18.830907669
 10
-5.0731796711
 20
18.8313831776
 10
-5.0785191351
 20
18.831542364
 10
-5.0839490794
 20
18.8313849588
 10
-5.0894603152
 20
18.8309112284
 10
-5.0950435162
 20
18.8301219746
 10
-5.100689234
 20
18.8290185328
 10
-5.1063879147
 20
18.8276027704
 10
-5.1121299147
 20
18.8258770833
 10
-5.1179055171
 20
18.8238443916
 10
-5.123704948
 20
18.8215081353
 10
-5.1295183934
 20
18.8188722679
  0
LWPOLYLINE
  5
405
100
AcDbEntity
  8
C_COPERCHIO
100
AcDbPolyline
 62
7
  6
CONTINUOUS
 90
6
 70
0
 10
-5.5806213089
 20
21.7301304069
 10
-5.5913726602
 20
21.7353224017
 10
-5.6323599169
 20
21.7517182133
 10
-5.6736381672
 20
21.7628315323
 10
-5.7148525976
 20
21.7683949563
 10
-5.7224620201
 20
21.7687960424
  0
LWPOLYLINE
  5
406
100
AcDbEntity
  8
C_COPERCHIO
100
AcDbPolyline
 62
7
  6
CONTINUOUS
 90
8
 70
0
 10
-0.2013122807
 20
19.0404759758
 10
-0.2119213524
 20
19.045617479
 10
-0.2425043388
 20
19.0585792273
 10
-0.2722986409
 20
19.0684322541
 10
-0.3012537386
 20
19.0751106409
 10
-0.3293021353
 20
19.0785178232
 10
-0.3563221534
 20
19.0786199577
 10
-0.3822034405
 20
19.0753785199
  0
LINE
  5
407
100
AcDbEntity
  8
C_COPERCHIO
100
AcDbLine
 62
7
  6
CONTINUOUS
 10
-5.6971733159
 20
19.6743460732
 11
-5.3436199253
 21
19.4975693779
  0
LINE
  5
408
100
AcDbEntity
  8
C_COPERCHIO
100
AcDbLine
 62
7
  6
CONTINUOUS
 10
-4.9900665348
 20
19.3207926826
 11
-2.4961357577
 21
18.0738272941
  0
LINE
  5
409
100
AcDbEntity
  8
C_COPERCHIO
100
AcDbLine
 62
7
  6
CONTINUOUS
 10
-5.6971733159
 20
20.1732364953
 11
-5.3436199253
 21
19.9964598
  0
LINE
  5
40A
100
AcDbEntity
  8
C_COPERCHIO
100
AcDbLine
 62
7
  6
CONTINUOUS
 10
-1.0279404251
 20
18.7765378787
 11
-3.8754245928
 21
20.2002799625
  0
LINE
  5
40B
100
AcDbEntity
  8
C_COPERCHIO
100
AcDbLine
 62
250
  6
CONTINUOUS
 10
-0.0560936565
 20
18.8479667791
 11
-0.4584127777
 21
19.0491263396
  0
LINE
  5
40C
100
AcDbEntity
  8
C_COPERCHIO
100
AcDbLine
 62
250
  6
CONTINUOUS
 10
-5.408160246
 20
21.5240000738
 11
-5.8104793672
 21
21.7251596344
  0
LINE
  5
40D
100
AcDbEntity
  8
C_CORPO
100
AcDbLine
 62
7
  6
CONTINUOUS
 10
5.0312735019
 20
16.3317175177
 11
5.58340589
 21
16.0556513236
  0
LINE
  5
40E
100
AcDbEntity
  8
C_CONTATTI
100
AcDbLine
 62
7
  6
CONTINUOUS
 10
7.6314142632
 20
15.0896029615
 11
8.9428785743
 21
14.4338708059
  0
LINE
  5
40F
100
AcDbEntity
  8
C_COPERCHIO
100
AcDbLine
 62
7
  6
CONTINUOUS
 10
0.1491499159
 20
18.8652448778
 11
-0.2012979518
 21
19.0404688117
  0
LINE
  5
410
100
AcDbEntity
  8
C_COPERCHIO
100
AcDbLine
 62
7
  6
CONTINUOUS
 10
-5.2304021913
 20
21.5550209314
 11
-5.5808537851
 21
21.7302467283
  0
LINE
  5
411
100
AcDbEntity
  8
C_COPERCHIO
100
AcDbLine
 62
7
  6
CONTINUOUS
 10
-2.5859034787
 20
20.2702098185
 11
0.5877302369
 21
18.6833929607
  0
LWPOLYLINE
  5
412
100
AcDbEntity
  8
C_COPERCHIO
100
AcDbPolyline
 62
250
  6
CONTINUOUS
 90
13
 70
0
 10
-0.0560936565
 20
18.8479667791
 10
-0.0373391428
 20
18.8374024246
 10
-0.0189477609
 20
18.8240355172
 10
-0.0012340836
 20
18.8080947475
 10
0.015498934
 20
18.7898528045
 10
0.0309650857
 20
18.7696217627
 10
0.044899822
 20
18.7477477613
 10
0.0570648448
 20
18.7246049843
 10
0.067252147
 20
18.7005892769
 10
0.075287539
 20
18.676111444
 10
0.0810336619
 20
18.6515901492
 10
0.084392323
 20
18.6274447512
 10
0.0853061606
 20
18.6040881697
  0
LWPOLYLINE
  5
413
100
AcDbEntity
  8
C_COPERCHIO
100
AcDbPolyline
 62
250
  6
CONTINUOUS
 90
8
 70
0
 10
0.0773894575
 20
18.8802020801
 10
0.0955442769
 20
18.869422927
 10
0.1124345854
 20
18.855655486
 10
0.1277739816
 20
18.8391331953
 10
0.1413023572
 20
18.8201362039
 10
0.1527903086
 20
18.7989866212
 10
0.1620430275
 20
18.7760430544
 10
0.1689036054
 20
18.75169453
  0
LWPOLYLINE
  5
414
100
AcDbEntity
  8
C_COPERCHIO
100
AcDbPolyline
 62
7
  6
CONTINUOUS
 90
5
 70
0
 10
-5.230376747
 20
21.5550082091
 10
-5.2268867635
 20
21.5529000645
 10
-5.2219896529
 20
21.5475420125
 10
-5.2197461991
 20
21.5405444519
 10
-5.2195997041
 20
21.5381872514
  0
LINE
  5
415
100
AcDbEntity
  8
C_CORPO
100
AcDbLine
 62
7
  6
CONTINUOUS
 10
7.028278811
 20
14.1843158367
 11
6.8685293159
 21
14.2855022554
  0
LWPOLYLINE
  5
416
100
AcDbEntity
  8
C_CORPO
100
AcDbPolyline
 62
7
  6
CONTINUOUS
 90
5
 70
0
 10
18.5697705805
 20
11.5122653859
 10
18.5697165994
 20
11.514349294
 10
18.5693973553
 20
11.5177127338
 10
18.5687922958
 20
11.5210288178
 10
18.5679535425
 20
11.52413223
  0
LINE
  5
417
100
AcDbEntity
  8
C_CORPO
100
AcDbLine
 62
250
  6
CONTINUOUS
 10
18.4855725206
 20
11.4259428591
 11
18.4855725206
 21
9.341813548
  0
LINE
  5
418
100
AcDbEntity
  8
C_CORPO
100
AcDbLine
 62
7
  6
CONTINUOUS
 10
18.5697705805
 20
11.5122653502
 11
18.5697705805
 21
9.463888568
  0
LWPOLYLINE
  5
419
100
AcDbEntity
  8
C_CORPO
100
AcDbPolyline
 62
250
  6
CONTINUOUS
 90
33
 70
0
 10
7.7067796362
 20
-16.2457453474
 10
7.7120792453
 20
-16.2419045183
 10
7.7242384942
 20
-16.2323314213
 10
7.736080932
 20
-16.2222275291
 10
7.747599141
 20
-16.2115991113
 10
7.7587863229
 20
-16.2004523138
 10
7.7696358102
 20
-16.1887936156
 10
7.7801404984
 20
-16.1766304595
 10
7.7902932635
 20
-16.1639709077
 10
7.8000882583
 20
-16.1508222055
 10
7.8095189854
 20
-16.1371929847
 10
7.8185779259
 20
-16.1230941253
 10
7.8272592025
 20
-16.1085354562
 10
7.8355582431
 20
-16.0935253035
 10
7.8434700125
 20
-16.0780728967
 10
7.8509890063
 20
-16.0621898181
 10
7.8581117752
 20
-16.045884208
 10
7.8648362427
 20
-16.0291600109
 10
7.8711585429
 20
-16.0120258361
 10
7.8770740059
 20
-15.9944932502
 10
7.8825790713
 20
-15.9765703907
 10
7.8876711396
 20
-15.9582635084
 10
7.8923453084
 20
-15.939587652
 10
7.8965954971
 20
-15.9205649543
 10
7.9004196709
 20
-15.9012064216
 10
7.9038155943
 20
-15.8815250187
 10
7.9067789444
 20
-15.8615473383
 10
7.9093092835
 20
-15.8412863314
 10
7.9114063263
 20
-15.8207552897
 10
7.9130682572
 20
-15.7999827227
 10
7.9142958368
 20
-15.7789876781
 10
7.9150913545
 20
-15.7577790895
 10
7.9154566416
 20
-15.7363709281
  0
LINE
  5
41A
100
AcDbEntity
  8
C_CORPO
100
AcDbLine
 62
7
  6
CONTINUOUS
 10
5.58340589
 20
-20.0576080142
 11
6.6666011595
 21
-19.2725677979
  0
LINE
  5
41B
100
AcDbEntity
  8
C_CORPO
100
AcDbLine
 62
7
  6
CONTINUOUS
 10
7.1599867262
 20
-18.9700053873
 11
7.028278811
 21
-19.0654600234
  0
LINE
  5
41C
100
AcDbEntity
  8
C_CORPO
100
AcDbLine
 62
250
  6
CONTINUOUS
 10
7.9154566629
 20
-15.7363709166
 11
16.6181969322
 21
-11.0410428858
  0
LINE
  5
41D
100
AcDbEntity
  8
C_CORPO
100
AcDbLine
 62
7
  6
CONTINUOUS
 10
7.7050156348
 20
-16.2507383842
 11
16.3736809523
 21
-11.5737945716
  0
LINE
  5
41E
100
AcDbEntity
  8
C_CORPO
100
AcDbLine
 62
250
  6
CONTINUOUS
 10
0.3485896632
 20
-21.758778348
 11
7.5741372019
 21
-17.9525222883
  0
LINE
  5
41F
100
AcDbEntity
  8
C_CORPO
100
AcDbLine
 62
250
  6
CONTINUOUS
 10
-5.7981325632
 20
18.8261813768
 11
-5.7883843169
 21
18.8289243819
  0
LWPOLYLINE
  5
420
100
AcDbEntity
  8
C_COPERCHIO
100
AcDbPolyline
 62
250
  6
CONTINUOUS
 90
9
 70
0
 10
0.1648352839
 20
18.6237264991
 10
0.1896527968
 20
18.6305420779
 10
0.2116846061
 20
18.6372781401
 10
0.2306626903
 20
18.6438027925
 10
0.2463257011
 20
18.6499345087
 10
0.2584833232
 20
18.6555445408
 10
0.2669744828
 20
18.6605656645
 10
0.2716067243
 20
18.6647858634
 10
0.2724677623
 20
18.667000798
  0
LINE
  5
421
100
AcDbEntity
  8
C_CONTATTI
100
AcDbLine
 62
7
  6
CONTINUOUS
 10
2.46297678
 20
18.8689700043
 11
2.0132321187
 21
18.7472221712
  0
LINE
  5
422
100
AcDbEntity
  8
C_CORPO
100
AcDbLine
 62
250
  6
CONTINUOUS
 10
-5.7883843169
 20
18.8289243819
 11
-5.7784614081
 21
18.831628617
  0
LINE
  5
423
100
AcDbEntity
  8
C_CORPO
100
AcDbLine
 62
250
  6
CONTINUOUS
 10
-5.7784614081
 20
18.831628617
 11
-5.7683635483
 21
18.8342915083
  0
LINE
  5
424
100
AcDbEntity
  8
C_CORPO
100
AcDbLine
 62
250
  6
CONTINUOUS
 10
-5.7683635483
 20
18.8342915083
 11
-5.7580904464
 21
18.8369091504
  0
LINE
  5
425
100
AcDbEntity
  8
C_CORPO
100
AcDbLine
 62
250
  6
CONTINUOUS
 10
-5.7580904464
 20
18.8369091504
 11
-5.7476423146
 21
18.8394774968
  0
LINE
  5
426
100
AcDbEntity
  8
C_CORPO
100
AcDbLine
 62
250
  6
CONTINUOUS
 10
-5.7476423146
 20
18.8394774968
 11
-5.7370195416
 21
18.8419937932
  0
LINE
  5
427
100
AcDbEntity
  8
C_CORPO
100
AcDbLine
 62
250
  6
CONTINUOUS
 10
-5.7370195416
 20
18.8419937932
 11
-5.7262229937
 21
18.8444538328
  0
LWPOLYLINE
  5
428
100
AcDbEntity
  8
C_CORPO
100
AcDbPolyline
 62
250
  6
CONTINUOUS
 90
4
 70
0
 10
-5.7262229937
 20
18.8444538328
 10
-5.7152547741
 20
18.8468531619
 10
-5.7097065271
 20
18.848029508
 10
-5.7041157272
 20
18.8491889297
  0
LWPOLYLINE
  5
429
100
AcDbEntity
  8
C_CORPO
100
AcDbPolyline
 62
250
  6
CONTINUOUS
 90
125
 70
0
 10
-5.7041157272
 20
18.8491889297
 10
-5.692804824
 20
18.8514573049
 10
-5.6870882537
 20
18.852564261
 10
-5.6813313016
 20
18.8536525001
 10
-5.6755345074
 20
18.85472197
 10
-5.6697022001
 20
18.8557706692
 10
-5.6638327059
 20
18.8567987844
 10
-5.6579276987
 20
18.857806129
 10
-5.6519965293
 20
18.858790141
 10
-5.6460382087
 20
18.8597507994
 10
-5.640053726
 20
18.8606881252
 10
-5.6340553987
 20
18.8615996189
 10
-5.6280421324
 20
18.8624852059
 10
-5.6220150217
 20
18.8633449609
 10
-5.6159896671
 20
18.8641766078
 10
-5.6099671164
 20
18.8649797689
 10
-5.6039463219
 20
18.865754822
 10
-5.5979397418
 20
18.8665006244
 10
-5.5919511485
 20
18.8672166176
 10
-5.5859767696
 20
18.8679033602
 10
-5.5800177451
 20
18.868561385
 10
-5.5740738353
 20
18.8691907173
 10
-5.5681452799
 20
18.8697913317
 10
-5.5622339386
 20
18.8703636856
 10
-5.5563397008
 20
18.870907779
 10
-5.5504626769
 20
18.8714236119
 10
-5.5446050575
 20
18.871911642
 10
-5.5387669178
 20
18.8723718513
 10
-5.5329481824
 20
18.8728042577
 10
-5.5271508164
 20
18.8732093727
 10
-5.5213748793
 20
18.8735871835
 10
-5.5156203114
 20
18.8739377029
 10
-5.5098888988
 20
18.8742614804
 10
-5.5041805101
 20
18.8745585119
 10
-5.4984952766
 20
18.8748288016
 10
-5.492835378
 20
18.8750729117
 10
-5.4872006713
 20
18.8752908285
 10
-5.4815912995
 20
18.8754825658
 10
-5.4760098717
 20
18.8756487267
 10
-5.4704564363
 20
18.8757892869
 10
-5.4649309449
 20
18.8759042707
 10
-5.4594358616
 20
18.8759943547
 10
-5.4539714383
 20
18.876059519
 10
-5.448537423
 20
18.8760997836
 10
-5.4431355234
 20
18.876115885
 10
-5.4377658568
 20
18.876107815
 10
-5.432428306
 20
18.8760755818
 10
-5.427124227
 20
18.8760199458
 10
-5.4218536392
 20
18.8759409014
 10
-5.4166165232
 20
18.8758384543
 10
-5.4114141772
 20
18.8757133816
 10
-5.4062466165
 20
18.8755656771
 10
-5.4011138257
 20
18.875395347
 10
-5.3960170573
 20
18.8752031867
 10
-5.3909563551
 20
18.8749891913
 10
-5.3859316754
 20
18.8747533656
 10
-5.380944139
 20
18.8744965197
 10
-5.3759937982
 20
18.8742186507
 10
-5.3710806009
 20
18.8739197615
 10
-5.3662055117
 20
18.8736006712
 10
-5.3613685242
 20
18.8732613729
 10
-5.3565696449
 20
18.8729018736
 10
-5.3518098581
 20
18.8725230131
 10
-5.3470891424
 20
18.8721247804
 10
-5.3424075192
 20
18.8717071865
 10
-5.3377660361
 20
18.8712711046
 10
-5.333164927
 20
18.870816552
 10
-5.328603958
 20
18.8703435114
 10
-5.3240834754
 20
18.8698528044
 10
-5.3196036096
 20
18.8693444489
 10
-5.3151642301
 20
18.8688184271
 10
-5.3107652919
 20
18.8682755067
 10
-5.3064068202
 20
18.8677156974
 10
-5.3020887898
 20
18.8671389896
 10
-5.2978110792
 20
18.8665461221
 10
-5.293573699
 20
18.8659371025
 10
-5.2893766387
 20
18.8653119232
 10
-5.2852197452
 20
18.8646713003
 10
-5.2811030364
 20
18.8640152422
 10
-5.2770264944
 20
18.8633437406
 10
-5.2729899116
 20
18.862657486
 10
-5.2689933342
 20
18.861956493
 10
-5.2650367161
 20
18.8612407472
 10
-5.2611197111
 20
18.8605108964
 10
-5.2572423856
 20
18.8597669621
 10
-5.2534046733
 20
18.8590089229
 10
-5.2496060285
 20
18.858237362
 10
-5.2458464819
 20
18.8574522972
 10
-5.2421260029
 20
18.8566537108
 10
-5.2384439536
 20
18.8558421328
 10
-5.2348003458
 20
18.8550175783
 10
-5.2311951677
 20
18.8541800322
 10
-5.2276277471
 20
18.85332998
 10
-5.224098111
 20
18.8524674416
 10
-5.2206062323
 20
18.851592397
 10
-5.217151357
 20
18.8507052714
 10
-5.2137334998
 20
18.8498060837
 10
-5.2103526459
 20
18.848894815
 10
-5.207007997
 20
18.8479718339
 10
-5.2036995534
 20
18.8470371564
 10
-5.2004273147
 20
18.8460907664
 10
-5.1971904807
 20
18.8451329842
 10
-5.1939890614
 20
18.8441638298
 10
-5.1908230468
 20
18.8431832831
 10
-5.1876916069
 20
18.8421916045
 10
-5.1845947459
 20
18.8411888138
 10
-5.1815324596
 20
18.8401748913
 10
-5.178503905
 20
18.8391500375
 10
-5.1755090734
 20
18.8381142692
 10
-5.1725479736
 20
18.8370675697
 10
-5.1696197888
 20
18.8360100895
 10
-5.1667244965
 20
18.8349418402
 10
-5.1638621193
 20
18.8338628102
 10
-5.1610319078
 20
18.8327731157
 10
-5.158233832
 20
18.8316727642
 10
-5.1554679218
 20
18.8305617481
 10
-5.1527335187
 20
18.8294401604
 10
-5.1500306031
 20
18.8283080108
 10
-5.1473591945
 20
18.8271652896
 10
-5.1447186927
 20
18.82601206
 10
-5.1421090878
 20
18.8248483382
 10
-5.1395303897
 20
18.8236741081
 10
-5.1369820283
 20
18.8224893845
 10
-5.1344638134
 20
18.8212941724
 10
-5.1319759351
 20
18.8200884669
  0
LWPOLYLINE
  5
42A
100
AcDbEntity
  8
C_COPERCHIO
100
AcDbPolyline
 62
250
  6
CONTINUOUS
 90
5
 70
0
 10
0.0773967806
 20
18.8802263789
 10
0.0977625471
 20
18.8789137023
 10
0.1166932879
 20
18.8760371378
 10
0.1340298521
 20
18.8714506694
 10
0.1484343887
 20
18.8655990501
  0
LWPOLYLINE
  5
42B
100
AcDbEntity
  8
C_COPERCHIO
100
AcDbPolyline
 62
250
  6
CONTINUOUS
 90
4
 70
0
 10
-5.6050428676
 20
21.7409715886
 10
-5.6290220856
 20
21.7488745755
 10
-5.6521149815
 20
21.753837683
 10
-5.6741632353
 20
21.7560063869
  0
LWPOLYLINE
  5
42C
100
AcDbEntity
  8
C_COPERCHIO
100
AcDbPolyline
 62
250
  6
CONTINUOUS
 90
4
 70
0
 10
-5.6741628389
 20
21.7560077
 10
-5.692747179
 20
21.7636005902
 10
-5.7119733439
 20
21.7678927528
 10
-5.7224614376
 20
21.7688082756
  0
LWPOLYLINE
  5
42D
100
AcDbEntity
  8
C_COPERCHIO
100
AcDbPolyline
 62
250
  6
CONTINUOUS
 90
6
 70
0
 10
-5.8104793672
 20
21.7251596344
 10
-5.828631299
 20
21.733048613
 10
-5.8465149809
 20
21.7378195659
 10
-5.8638245366
 20
21.7393908922
 10
-5.8802639095
 20
21.7377357166
 10
-5.896677828
 20
21.7323761597
  0
LWPOLYLINE
  5
42E
100
AcDbEntity
  8
C_CORPO
100
AcDbPolyline
 62
7
  6
CONTINUOUS
 90
10
 70
0
 10
11.8284365218
 20
15.7733603951
 10
11.8645421414
 20
15.7576526703
 10
11.9000767437
 20
15.7416441828
 10
11.9350403289
 20
15.7253349327
 10
11.9694430661
 20
15.7087198353
 10
12.0032747861
 20
15.6918039753
 10
12.0365049809
 20
15.6746026067
 10
12.069123481
 20
15.6571208141
 10
12.101140456
 20
15.639353513
 10
12.1325559057
 20
15.6213007032
  0
LWPOLYLINE
  5
42F
100
AcDbEntity
  8
C_COPERCHIO
100
AcDbPolyline
 62
7
  6
CONTINUOUS
 90
9
 70
0
 10
-2.8458446504
 20
21.0062205527
 10
-2.8809393787
 20
21.021597373
 10
-2.9319804791
 20
21.0369225958
 10
-2.9864301313
 20
21.0451668124
 10
-3.0438545866
 20
21.0465309773
 10
-3.102196491
 20
21.0410738281
 10
-3.1607700599
 20
21.0288149442
 10
-3.2202610779
 20
21.0097347463
 10
-3.280669545
 20
20.9838332344
  0
LINE
  5
430
100
AcDbEntity
  8
C_COPERCHIO
100
AcDbLine
 62
250
  6
CONTINUOUS
 10
-5.5808549678
 20
21.7302473196
 11
-5.6050428676
 21
21.7409715886
  0
LWPOLYLINE
  5
431
100
AcDbEntity
  8
C_CONTATTI
100
AcDbPolyline
 62
7
  6
CONTINUOUS
 90
9
 70
0
 10
8.4799687263
 20
15.5138538674
 10
8.468572262
 20
15.5190225226
 10
8.4573518595
 20
15.523074419
 10
8.4463075188
 20
15.5260095565
 10
8.4353442599
 20
15.5278280879
 10
8.4245570627
 20
15.5285298603
 10
8.4142308673
 20
15.528114416
 10
8.4044606535
 20
15.5265816021
 10
8.3983439144
 20
15.5249821048
  0
LWPOLYLINE
  5
432
100
AcDbEntity
  8
C_CONTATTI
100
AcDbPolyline
 62
7
  6
CONTINUOUS
 90
9
 70
0
 10
0.7017941332
 20
19.4029411639
 10
0.690397669
 20
19.4081098191
 10
0.6791772665
 20
19.4121617155
 10
0.6681329257
 20
19.415096853
 10
0.6571696668
 20
19.4169153844
 10
0.6463824697
 20
19.4176171569
 10
0.6360562742
 20
19.4172017125
 10
0.6262860605
 20
19.4156688986
 10
0.6201693214
 20
19.4140694014
  0
LINE
  5
433
100
AcDbEntity
  8
C_COPERCHIO
100
AcDbLine
 62
250
  6
CONTINUOUS
 10
-6.2346594386
 20
22.4608281812
 11
-3.280669545
 21
20.9838332344
  0
LINE
  5
434
100
AcDbEntity
  8
C_COPERCHIO
100
AcDbLine
 62
250
  6
CONTINUOUS
 10
0.9619711422
 20
18.8625128908
 11
3.9159610358
 21
17.385517944
  0
LINE
  5
435
100
AcDbEntity
  8
C_COPERCHIO
100
AcDbLine
 62
7
  6
CONTINUOUS
 10
-5.9483281664
 20
22.557462315
 11
-2.8457966644
 21
21.006196564
  0
LINE
  5
436
100
AcDbEntity
  8
C_COPERCHIO
100
AcDbLine
 62
7
  6
CONTINUOUS
 10
1.3968440227
 20
18.8848762204
 11
4.4993755247
 21
17.3336104694
  0
LINE
  5
437
100
AcDbEntity
  8
C_CONTATTI
100
AcDbLine
 62
7
  6
CONTINUOUS
 10
0.7017652373
 20
19.4029556118
 11
2.0132321187
 21
18.7472221712
  0
LINE
  5
438
100
AcDbEntity
  8
C_CONTATTI
100
AcDbLine
 62
7
  6
CONTINUOUS
 10
2.7144558605
 20
18.3966103002
 11
2.7381017204
 21
18.3847873703
  0
LINE
  5
439
100
AcDbEntity
  8
C_CONTATTI
100
AcDbLine
 62
7
  6
CONTINUOUS
 10
8.4799398304
 20
15.5138683153
 11
9.7914067117
 21
14.8581348746
  0
LINE
  5
43A
100
AcDbEntity
  8
C_CONTATTI
100
AcDbLine
 62
7
  6
CONTINUOUS
 10
10.4926304536
 20
14.5075230037
 11
10.5162763102
 21
14.4957000754
  0
LINE
  5
43B
100
AcDbEntity
  8
C_CORPO
100
AcDbLine
 62
7
  6
CONTINUOUS
 10
8.0854725861
 20
15.7271285114
 11
7.651601433
 21
15.9440640879
  0
LINE
  5
43C
100
AcDbEntity
  8
C_CORPO
100
AcDbLine
 62
7
  6
CONTINUOUS
 10
0.307297993
 20
19.6162158079
 11
-0.1265731601
 21
19.8331513844
  0
LINE
  5
43D
100
AcDbEntity
  8
C_CONTATTI
100
AcDbLine
 62
7
  6
CONTINUOUS
 10
11.44309506
 20
15.0858798045
 11
10.9481203132
 21
15.3333671779
  0
LINE
  5
43E
100
AcDbEntity
  8
C_CONTATTI
100
AcDbLine
 62
7
  6
CONTINUOUS
 10
3.664920467
 20
18.974967101
 11
3.1699457201
 21
19.2224544744
  0
LINE
  5
43F
100
AcDbEntity
  8
C_CORPO
100
AcDbLine
 62
7
  6
CONTINUOUS
 10
12.2866817988
 20
15.528577904
 11
11.6304296123
 21
15.8567039973
  0
LINE
  5
440
100
AcDbEntity
  8
C_CORPO
100
AcDbLine
 62
7
  6
CONTINUOUS
 10
4.5085072058
 20
19.4176652005
 11
3.8522550192
 21
19.7457912938
  0
LINE
  5
441
100
AcDbEntity
  8
C_CORPO
100
AcDbLine
 62
7
  6
CONTINUOUS
 10
11.8284365218
 20
15.7733603951
 11
12.1325559057
 21
15.6213007032
  0
LINE
  5
442
100
AcDbEntity
  8
C_CORPO
100
AcDbLine
 62
7
  6
CONTINUOUS
 10
4.3543813126
 20
19.5103879997
 11
4.0502619287
 21
19.6624476917
  0
LWPOLYLINE
  5
443
100
AcDbEntity
  8
C_CONTATTI
100
AcDbPolyline
 62
7
  6
CONTINUOUS
 90
28
 70
0
 10
3.7932078957
 20
19.1980588323
 10
3.698805368
 20
19.2453726515
 10
3.600419842
 20
19.2899078972
 10
3.498312349
 20
19.3316121072
 10
3.3927508049
 20
19.3704352425
 10
3.2839876043
 20
19.406337359
 10
3.1722729014
 20
19.4392816764
 10
3.0578985008
 20
19.4692233704
 10
2.9411246462
 20
19.4961316965
 10
2.8221723375
 20
19.5199862352
 10
2.7013277697
 20
19.5407548537
 10
2.5788710534
 20
19.5584122368
 10
2.4550227966
 20
19.5729443726
 10
2.3300668385
 20
19.5843310953
 10
2.2042950211
 20
19.5925572323
 10
2.0779445668
 20
19.5976152064
 10
1.9513061353
 20
19.5994978514
 10
1.8246695819
 20
19.5982038868
 10
1.6982720991
 20
19.5937353258
 10
1.5724016208
 20
19.5860984297
 10
1.4473491034
 20
19.5753054596
 10
1.3233536736
 20
19.5613683095
 10
1.2007076231
 20
19.5443077506
 10
1.0796890216
 20
19.5241485602
 10
0.960509762
 20
19.5009069331
 10
0.8434254598
 20
19.4746071559
 10
0.7287378961
 20
19.4452886595
 10
0.6201794576
 20
19.4140454489
  0
LWPOLYLINE
  5
444
100
AcDbEntity
  8
C_CONTATTI
100
AcDbPolyline
 62
7
  6
CONTINUOUS
 90
28
 70
0
 10
11.5713824888
 20
15.3089715358
 10
11.4769799611
 20
15.356285355
 10
11.378594435
 20
15.4008206007
 10
11.276486942
 20
15.4425248106
 10
11.170925398
 20
15.4813479459
 10
11.0621621973
 20
15.5172500625
 10
10.9504474944
 20
15.5501943799
 10
10.8360730939
 20
15.5801360739
 10
10.7192992392
 20
15.6070443999
 10
10.6003469305
 20
15.6308989387
 10
10.4795023627
 20
15.6516675572
 10
10.3570456465
 20
15.6693249403
 10
10.2331973896
 20
15.683857076
 10
10.1082414315
 20
15.6952437988
 10
9.9824696141
 20
15.7034699358
 10
9.8561191598
 20
15.7085279099
 10
9.7294807284
 20
15.7104105548
 10
9.602844175
 20
15.7091165903
 10
9.4764466921
 20
15.7046480293
 10
9.3505762139
 20
15.6970111331
 10
9.2255236965
 20
15.6862181631
 10
9.1015282667
 20
15.672281013
 10
8.9788822161
 20
15.6552204541
 10
8.8578636146
 20
15.6350612636
 10
8.7386843551
 20
15.6118196366
 10
8.6216000528
 20
15.5855198594
 10
8.5069124891
 20
15.556201363
 10
8.3983540506
 20
15.5249581524
  0
LINE
  5
445
100
AcDbEntity
  8
C_CONTATTI
100
AcDbLine
 62
7
  6
CONTINUOUS
 10
4.2887791895
 20
18.9367342901
 11
3.7932078957
 21
19.1980588323
  0
LINE
  5
446
100
AcDbEntity
  8
C_CONTATTI
100
AcDbLine
 62
7
  6
CONTINUOUS
 10
12.0669537826
 20
15.0476469935
 11
11.5713824888
 21
15.3089715358
  0
LWPOLYLINE
  5
447
100
AcDbEntity
  8
C_CONTATTI
100
AcDbPolyline
 62
250
  6
CONTINUOUS
 90
8
 70
0
 10
3.7932078957
 20
19.1980588323
 10
3.812953865
 20
19.1875278338
 10
3.900319814
 20
19.1378845129
 10
3.9823801052
 20
19.0860800434
 10
4.0589185934
 20
19.0322619771
 10
4.1298403989
 20
18.9764969954
 10
4.1949839314
 20
18.918892117
 10
4.213318777
 20
18.900517359
  0
LWPOLYLINE
  5
448
100
AcDbEntity
  8
C_CONTATTI
100
AcDbPolyline
 62
250
  6
CONTINUOUS
 90
8
 70
0
 10
11.5713824888
 20
15.3089715358
 10
11.5911284581
 20
15.2984405372
 10
11.678494407
 20
15.2487972163
 10
11.7605546982
 20
15.1969927469
 10
11.8370931865
 20
15.1431746806
 10
11.9080149919
 20
15.0874096989
 10
11.9731585245
 20
15.0298048205
 10
11.9914933701
 20
15.0114300625
  0
LWPOLYLINE
  5
449
100
AcDbEntity
  8
C_CORPO
100
AcDbPolyline
 62
7
  6
CONTINUOUS
 90
10
 70
0
 10
4.3543813126
 20
19.5103879997
 10
4.3229658629
 20
19.5284408095
 10
4.290948888
 20
19.5462081107
 10
4.2583303878
 20
19.5636899032
 10
4.225100193
 20
19.5808912719
 10
4.191268473
 20
19.5978071319
 10
4.1568657358
 20
19.6144222292
 10
4.1219021507
 20
19.6307314793
 10
4.0863675483
 20
19.6467399668
 10
4.0502619287
 20
19.6624476917
  0
LWPOLYLINE
  5
44A
100
AcDbEntity
  8
C_COPERCHIO
100
AcDbPolyline
 62
7
  6
CONTINUOUS
 90
7
 70
0
 10
-2.6844119231
 20
-28.0628130544
 10
-2.6482894306
 20
-28.0375010188
 10
-2.6290737552
 20
-28.0242342534
 10
-2.6092055569
 20
-28.010904481
 10
-2.5888372962
 20
-27.9976005104
 10
-2.5681517623
 20
-27.9842257515
 10
-2.5472412256
 20
-27.9709107036
  0
LINE
  5
44B
100
AcDbEntity
  8
C_CORPO
100
AcDbLine
 62
7
  6
CONTINUOUS
 10
6.8685293159
 20
-19.1657848625
 11
7.028278811
 21
-19.0654600234
  0
LINE
  5
44C
100
AcDbEntity
  8
C_CORPO
100
AcDbLine
 62
250
  6
CONTINUOUS
 10
6.8685293159
 20
-19.1657848625
 11
6.6666011595
 21
-19.2725677979
  0
LINE
  5
44D
100
AcDbEntity
  8
C_CORPO
100
AcDbLine
 62
7
  6
CONTINUOUS
 10
6.7829540098
 20
-19.2152885929
 11
6.6449090573
 21
-19.2882890377
  0
LINE
  5
44E
100
AcDbEntity
  8
C_COPERCHIO
100
AcDbLine
 62
7
  6
CONTINUOUS
 10
3.9159610358
 20
-21.1095619128
 11
0.3485896632
 21
-22.9960466584
  0
LINE
  5
44F
100
AcDbEntity
  8
C_CORPO
100
AcDbLine
 62
250
  6
CONTINUOUS
 10
0.3485896632
 20
-22.5580962838
 11
7.1599867262
 21
-18.9700053873
  0
LINE
  5
450
100
AcDbEntity
  8
C_COPERCHIO
100
AcDbLine
 62
7
  6
CONTINUOUS
 10
4.8919598274
 20
-20.4697818974
 11
0.3485896632
 21
-22.8631271942
  0
LINE
  5
451
100
AcDbEntity
  8
C_CORPO
100
AcDbLine
 62
7
  6
CONTINUOUS
 10
0.3485896632
 20
-22.8075091744
 11
5.58340589
 21
-20.0576080142
  0
LINE
  5
452
100
AcDbEntity
  8
C_COPERCHIO
100
AcDbLine
 62
7
  6
CONTINUOUS
 10
-3.8754245928
 20
20.2002799625
 11
-2.5859034787
 21
20.2702098185
  0
LWPOLYLINE
  5
453
100
AcDbEntity
  8
C_COPERCHIO
100
AcDbPolyline
 62
250
  6
CONTINUOUS
 90
5
 70
0
 10
-5.6741632353
 20
21.7560063869
 10
-5.6959105316
 20
21.7558166939
 10
-5.7181742377
 20
21.7536248541
 10
-5.7408598924
 20
21.7494406587
 10
-5.7638712308
 20
21.7432824513
  0
LWPOLYLINE
  5
454
100
AcDbEntity
  8
C_COPERCHIO
100
AcDbPolyline
 62
7
  6
CONTINUOUS
 90
7
 70
0
 10
-5.7224691965
 20
21.7688085893
 10
-5.7302651236
 20
21.7690382914
 10
-5.7694777687
 20
21.7675122173
 10
-5.809329611
 20
21.7614742716
 10
-5.8494629429
 20
21.7508452108
 10
-5.8896161935
 20
21.7355446372
 10
-5.8966716335
 20
21.7323627082
  0
LWPOLYLINE
  5
455
100
AcDbEntity
  8
C_COPERCHIO
100
AcDbPolyline
 62
7
  6
CONTINUOUS
 90
4
 70
0
 10
-15.664335974
 20
22.045864879
 10
-15.6424372583
 20
22.0440216903
 10
-15.6197592619
 20
22.0382077682
 10
-15.5966951765
 20
22.0285199876
  0
LWPOLYLINE
  5
456
100
AcDbEntity
  8
C_CORPO
100
AcDbPolyline
 62
250
  6
CONTINUOUS
 90
26
 70
0
 10
16.3460707273
 20
16.221194695
 10
16.338787237
 20
16.2247386434
 10
16.3235395354
 20
16.2315444675
 10
16.3079764623
 20
16.2376783992
 10
16.292109575
 20
16.2431358835
 10
16.2759506562
 20
16.2479128676
 10
16.2595117057
 20
16.2520058041
 10
16.2428049312
 20
16.2554116535
 10
16.2258427391
 20
16.2581278867
 10
16.2086377257
 20
16.2601524865
 10
16.1912026675
 20
16.2614839495
 10
16.1735505119
 20
16.262121287
 10
16.1556943675
 20
16.2620640256
 10
16.1376474944
 20
16.2613122078
 10
16.1194232942
 20
16.259866392
 10
16.1010353004
 20
16.2577276519
 10
16.082497168
 20
16.2548975756
 10
16.0638226635
 20
16.2513782649
 10
16.0450256546
 20
16.2471723331
 10
16.0261201002
 20
16.2422829036
 10
16.0071200397
 20
16.2367136073
 10
15.9880395825
 20
16.2304685801
 10
15.9688928979
 20
16.2235524595
 10
15.9496942044
 20
16.2159703815
 10
15.930457759
 20
16.2077279765
 10
15.9111978468
 20
16.1988313654
  0
LWPOLYLINE
  5
457
100
AcDbEntity
  8
C_CORPO
100
AcDbPolyline
 62
250
  6
CONTINUOUS
 90
26
 70
0
 10
2.5696519292
 20
23.1094040941
 10
2.5623720752
 20
23.1129463214
 10
2.5471243062
 20
23.1197523677
 10
2.5315611552
 20
23.1258865108
 10
2.5156941802
 20
23.131344195
 10
2.4995351641
 20
23.1361213671
 10
2.4830961069
 20
23.1402144793
 10
2.4663892168
 20
23.1436204918
 10
2.4494269007
 20
23.1463368751
 10
2.432221755
 20
23.1483616116
 10
2.4147865569
 20
23.1496931978
 10
2.3971342542
 20
23.1503306445
 10
2.3792779557
 20
23.1502734784
 10
2.3612309221
 20
23.1495217418
 10
2.3430065554
 20
23.1480759927
 10
2.3246183893
 20
23.1459373049
 10
2.3060800799
 20
23.1431072665
 10
2.287405394
 20
23.1395879791
 10
2.2686081999
 20
23.1353820562
 10
2.2497024568
 20
23.1304926213
 10
2.2307022035
 20
23.1249233049
 10
2.2116215509
 20
23.1186782431
 10
2.1924746717
 20
23.1117620748
 10
2.1732757857
 20
23.1041799368
 10
2.1540391495
 20
23.0959374595
 10
2.1347790486
 20
23.0870407644
  0
LINE
  5
458
100
AcDbEntity
  8
C_CORPO
100
AcDbLine
 62
7
  6
CONTINUOUS
 10
11.6251991527
 20
17.9230008444
 11
14.7757522812
 21
16.3477242802
  0
LINE
  5
459
100
AcDbEntity
  8
C_CORPO
100
AcDbLine
 62
7
  6
CONTINUOUS
 10
6.9975776882
 20
20.2368115767
 11
3.8470245597
 21
21.812088141
  0
LINE
  5
45A
100
AcDbEntity
  8
C_CORPO
100
AcDbLine
 62
250
  6
CONTINUOUS
 10
7.4249786096
 20
20.4419409839
 11
10.6209982857
 21
18.8439311459
  0
LINE
  5
45B
100
AcDbEntity
  8
C_CORPO
100
AcDbLine
 62
7
  6
CONTINUOUS
 10
2.5696519292
 20
23.1094040941
 11
3.365863343
 21
22.7112983872
  0
LINE
  5
45C
100
AcDbEntity
  8
C_CORPO
100
AcDbLine
 62
7
  6
CONTINUOUS
 10
7.7716847205
 20
20.5083876984
 11
11.144037936
 21
18.8222110906
  0
LINE
  5
45D
100
AcDbEntity
  8
C_CORPO
100
AcDbLine
 62
7
  6
CONTINUOUS
 10
15.5498593135
 20
16.6193004019
 11
16.3460707273
 21
16.221194695
  0
LWPOLYLINE
  5
45E
100
AcDbEntity
  8
C_CORPO
100
AcDbPolyline
 62
7
  6
CONTINUOUS
 90
51
 70
0
 10
16.8988571318
 20
13.7937465746
 10
16.9049595663
 20
13.7900894585
 10
16.9501031013
 20
13.7618321977
 10
16.9950991376
 20
13.732460184
 10
17.0399011767
 20
13.7020040671
 10
17.0844151745
 20
13.6705322724
 10
17.1285865012
 20
13.6380925431
 10
17.1724404242
 20
13.6046752418
 10
17.2160026886
 20
13.5702661351
 10
17.2592786685
 20
13.5348635847
 10
17.3022316822
 20
13.4985000156
 10
17.3448236045
 20
13.4612118128
 10
17.3870406513
 20
13.4230159135
 10
17.4288667431
 20
13.3839315658
 10
17.4702611351
 20
13.3440026086
 10
17.5111858515
 20
13.3032735748
 10
17.5516514985
 20
13.2617416715
 10
17.5916893045
 20
13.2193792065
 10
17.631310968
 20
13.1761745415
 10
17.6704741312
 20
13.1321744307
 10
17.7091285601
 20
13.0874388382
 10
17.7472474936
 20
13.0420046288
 10
17.7848311525
 20
12.9958773151
 10
17.8218708441
 20
12.9490722742
 10
17.8583484418
 20
12.9016170271
 10
17.8942559703
 20
12.8535264474
 10
17.9295989596
 20
12.8047961296
 10
17.9643750278
 20
12.7554304217
 10
17.9985591409
 20
12.705465765
 10
18.0321228616
 20
12.6549461794
 10
18.0650465898
 20
12.6039049975
 10
18.0973258121
 20
12.5523529359
 10
18.1289553231
 20
12.5003009052
 10
18.1599239313
 20
12.4477692177
 10
18.1902188011
 20
12.3947813955
 10
18.2198318435
 20
12.3413529568
 10
18.2487526386
 20
12.2875034878
 10
18.2769682753
 20
12.2332576401
 10
18.3044669936
 20
12.1786386135
 10
18.3312381095
 20
12.1236680361
 10
18.3572703651
 20
12.0683692343
 10
18.3825516382
 20
12.0127681713
 10
18.407069479
 20
11.9568926674
 10
18.4308161889
 20
11.900760492
 10
18.4537867882
 20
11.8443824625
 10
18.4759715358
 20
11.787780521
 10
18.4973602668
 20
11.7309783066
 10
18.5179468484
 20
11.6739889076
 10
18.5377226191
 20
11.616831861
 10
18.5566768087
 20
11.5595333649
 10
18.5679535336
 20
11.5241326829
  0
LWPOLYLINE
  5
45F
100
AcDbEntity
  8
C_CORPO
100
AcDbPolyline
 62
250
  6
CONTINUOUS
 90
49
 70
0
 10
16.8988571318
 20
13.7185949107
 10
16.9075601687
 20
13.7127443067
 10
16.9513910409
 20
13.6821096031
 10
16.9950604001
 20
13.6504145425
 10
17.0385484711
 20
13.6176734748
 10
17.0818355045
 20
13.5839012662
 10
17.1249018294
 20
13.5491132635
 10
17.16772789
 20
13.5133252664
 10
17.2102942927
 20
13.476553484
 10
17.2525817731
 20
13.4388145584
 10
17.2945711785
 20
13.4001255795
 10
17.3362434427
 20
13.3605041122
 10
17.377579634
 20
13.3199681565
 10
17.4185609864
 20
13.2785361173
 10
17.4591689378
 20
13.2362267635
 10
17.4993851032
 20
13.1930592505
 10
17.539191263
 20
13.1490531327
 10
17.5785693472
 20
13.1042283845
 10
17.6175014738
 20
13.0586053611
 10
17.655969974
 20
13.01220477
 10
17.6939574183
 20
12.9650476363
 10
17.7314466
 20
12.9171553205
 10
17.7684205291
 20
12.8685495254
 10
17.8048624272
 20
12.8192523065
 10
17.8407557544
 20
12.7692860382
 10
17.8760842267
 20
12.7186733902
 10
17.9108318314
 20
12.667437304
 10
17.9449828201
 20
12.6156010009
 10
17.9785217102
 20
12.5631879808
 10
18.011433288
 20
12.5102220182
 10
18.0437026249
 20
12.4567271381
 10
18.0753150865
 20
12.4027276009
 10
18.1062563385
 20
12.3482478926
 10
18.1365123489
 20
12.2933127199
 10
18.1660693955
 20
12.2379469982
 10
18.1949140771
 20
12.1821758312
 10
18.2230333177
 20
12.1260245009
 10
18.2504143698
 20
12.0695184615
 10
18.2770448121
 20
12.012683346
 10
18.3029125604
 20
11.9555449449
 10
18.3280058784
 20
11.8981291835
 10
18.3523133939
 20
11.8404620848
 10
18.3758240944
 20
11.7825697745
 10
18.398527325
 20
11.7244784862
 10
18.4204127818
 20
11.666214582
 10
18.4414705283
 20
11.6078045153
 10
18.4616910122
 20
11.5492747849
 10
18.4810650689
 20
11.4906519219
 10
18.4995839134
 20
11.4319625106
  0
LWPOLYLINE
  5
460
100
AcDbEntity
  8
C_CORPO
100
AcDbPolyline
 62
7
  6
CONTINUOUS
 90
52
 70
0
 10
17.3677325557
 20
11.4270960497
 10
17.3769290157
 20
11.4154762345
 10
17.3861148913
 20
11.4042771096
 10
17.3952930379
 20
11.3935000648
 10
17.4044512999
 20
11.3831721365
 10
17.4136075398
 20
11.373268854
 10
17.4228088522
 20
11.3637140859
 10
17.4320653791
 20
11.3544972632
 10
17.441370785
 20
11.3456307961
 10
17.4507463481
 20
11.3370727386
 10
17.460199153
 20
11.3288156275
 10
17.4697251028
 20
11.3208683782
 10
17.479328203
 20
11.3132134662
 10
17.4890132402
 20
11.3058470489
 10
17.4987780892
 20
11.2987741662
 10
17.5086162402
 20
11.2919905334
 10
17.5185311547
 20
11.2854946729
 10
17.5285219416
 20
11.2792890545
 10
17.5385755892
 20
11.2733752479
 10
17.5486947934
 20
11.2677531485
 10
17.5588794286
 20
11.2624236612
 10
17.5691123481
 20
11.2573898046
 10
17.5793956648
 20
11.2526523082
 10
17.5897298478
 20
11.2482110515
 10
17.6000953904
 20
11.2440677079
 10
17.6104939099
 20
11.2402234178
 10
17.6209263475
 20
11.2366774595
 10
17.6313722627
 20
11.2334286398
 10
17.6418328122
 20
11.2304782354
 10
17.6523093169
 20
11.2278252053
 10
17.6627816213
 20
11.2254648063
 10
17.6732503948
 20
11.223398317
 10
17.6837173025
 20
11.2216245268
 10
17.694163674
 20
11.2201348939
 10
17.7045897742
 20
11.2189303197
 10
17.7149974711
 20
11.2180098262
 10
17.7253704518
 20
11.2173619983
 10
17.7357084548
 20
11.2169876072
 10
17.7460136343
 20
11.2168856879
 10
17.7562732212
 20
11.2170421825
 10
17.7664866161
 20
11.2174570966
 10
17.7766560429
 20
11.2181301441
 10
17.7867728691
 20
11.2190468073
 10
17.7968359704
 20
11.220206843
 10
17.8068478268
 20
11.2216101545
 10
17.8168051075
 20
11.2232424369
 10
17.8267065736
 20
11.2251026241
 10
17.8365545578
 20
11.2271914084
 10
17.8463509867
 20
11.2294971271
 10
17.8560967781
 20
11.2320157666
 10
17.8657918673
 20
11.2347509516
 10
17.8754366389
 20
11.2377024788
  0
LINE
  5
461
100
AcDbEntity
  8
C_CORPO
100
AcDbLine
 62
250
  6
CONTINUOUS
 10
16.8988571318
 20
12.2723330818
 11
16.9032530325
 21
12.2660335562
  0
LWPOLYLINE
  5
462
100
AcDbEntity
  8
C_CORPO
100
AcDbPolyline
 62
250
  6
CONTINUOUS
 90
17
 70
0
 10
16.9032530325
 20
12.2660335562
 10
16.9366392833
 20
12.2169040832
 10
16.9695002521
 20
12.1672424018
 10
17.0018233315
 20
12.1170675658
 10
17.0335961239
 20
12.06639882
 10
17.0648064384
 20
12.0152556046
 10
17.0954422884
 20
11.9636575605
 10
17.1254919065
 20
11.9116245065
 10
17.1549437548
 20
11.8591764223
 10
17.1837865313
 20
11.8063334347
 10
17.2120091673
 20
11.7531158234
 10
17.2396008293
 20
11.6995440163
 10
17.2665509258
 20
11.6456385776
 10
17.292849114
 20
11.5914201947
 10
17.3184852998
 20
11.5369096779
 10
17.3434496414
 20
11.4821279534
 10
17.3677325557
 20
11.4270960497
  0
LWPOLYLINE
  5
463
100
AcDbEntity
  8
C_CORPO
100
AcDbPolyline
 62
250
  6
CONTINUOUS
 90
31
 70
0
 10
17.2111520113
 20
11.6085098159
 10
17.2206069934
 20
11.5944807748
 10
17.229663145
 20
11.5811906533
 10
17.2383061121
 20
11.5686552293
 10
17.2465127389
 20
11.5569093066
 10
17.254309467
 20
11.5459122279
 10
17.2617555801
 20
11.5355668002
 10
17.2688520383
 20
11.5258703621
 10
17.2755998008
 20
11.5168212851
 10
17.2820578514
 20
11.5083247128
 10
17.2882278282
 20
11.5003760119
 10
17.2941091569
 20
11.4929766968
 10
17.2997575538
 20
11.4860418546
 10
17.3051804637
 20
11.4795600434
 10
17.3103712399
 20
11.4735405863
 10
17.3153646455
 20
11.4679302505
 10
17.3201710064
 20
11.4627174796
 10
17.324780551
 20
11.4579122843
 10
17.3291976608
 20
11.4534939038
 10
17.33342244
 20
11.4494639964
 10
17.3374543215
 20
11.4458193406
 10
17.3412959648
 20
11.4425316897
 10
17.3449432819
 20
11.439605833
 10
17.3483987837
 20
11.437035366
 10
17.3516743015
 20
11.4347750922
 10
17.354764495
 20
11.43282796
 10
17.3576723565
 20
11.4311894779
 10
17.3604218198
 20
11.4298032601
 10
17.3630200066
 20
11.4286500801
 10
17.3654573211
 20
11.4277478736
 10
17.3677325557
 20
11.4270960497
  0
LINE
  5
464
100
AcDbEntity
  8
C_CORPO
100
AcDbLine
 62
250
  6
CONTINUOUS
 10
17.1910373036
 20
11.6387980846
 11
17.2111520113
 21
11.6085098159
  0
LINE
  5
465
100
AcDbEntity
  8
C_CORPO
100
AcDbLine
 62
250
  6
CONTINUOUS
 10
17.1693611174
 20
11.6719659845
 11
17.1910373036
 21
11.6387980846
  0
LINE
  5
466
100
AcDbEntity
  8
C_CORPO
100
AcDbLine
 62
250
  6
CONTINUOUS
 10
17.1460288202
 20
11.7081348094
 11
17.1693611174
 21
11.6719659845
  0
LINE
  5
467
100
AcDbEntity
  8
C_CORPO
100
AcDbLine
 62
250
  6
CONTINUOUS
 10
17.1072732096
 20
11.7689597719
 11
17.1460288202
 21
11.7081348094
  0
LINE
  5
468
100
AcDbEntity
  8
C_CORPO
100
AcDbLine
 62
250
  6
CONTINUOUS
 10
17.0470154596
 20
11.8646930016
 11
17.1072732096
 21
11.7689597719
  0
LWPOLYLINE
  5
469
100
AcDbEntity
  8
C_CORPO
100
AcDbPolyline
 62
250
  6
CONTINUOUS
 90
3
 70
0
 10
16.9417774912
 20
12.0339321371
 10
16.9597185939
 20
12.0049109583
 10
17.0470154596
 20
11.8646930016
  0
LWPOLYLINE
  5
46A
100
AcDbEntity
  8
C_CORPO
100
AcDbPolyline
 62
7
  6
CONTINUOUS
 90
28
 70
0
 10
16.941777021
 20
12.0339325461
 10
16.9414320434
 20
12.0345052196
 10
16.9406835297
 20
12.0358103391
 10
16.9396164564
 20
12.0377777004
 10
16.9382594752
 20
12.0404281868
 10
16.9366462538
 20
12.0437717107
 10
16.9348157508
 20
12.0478039241
 10
16.9327977139
 20
12.0525379797
 10
16.9306241702
 20
12.0579803513
 10
16.9283364529
 20
12.0641092846
 10
16.9259628686
 20
12.0709317013
 10
16.9235334486
 20
12.0784477558
 10
16.9210890636
 20
12.0866166142
 10
16.918655439
 20
12.0954376555
 10
16.9162588081
 20
12.1049051118
 10
16.9139357143
 20
12.1149617245
 10
16.9117078214
 20
12.1255991439
 10
16.9095962934
 20
12.1368067003
 10
16.9076300976
 20
12.1485169789
 10
16.9058251983
 20
12.1607185818
 10
16.9041976925
 20
12.173393659
 10
16.9027686553
 20
12.1864602762
 10
16.901547944
 20
12.1999028938
 10
16.900545279
 20
12.2136991623
 10
16.8997724664
 20
12.2277535239
 10
16.8992336204
 20
12.2420191489
 10
16.8989297904
 20
12.2564987762
 10
16.8988571522
 20
12.2678622987
  0
LWPOLYLINE
  5
46B
100
AcDbEntity
  8
C_COPERCHIO
100
AcDbPolyline
 62
7
  6
CONTINUOUS
 90
5
 70
0
 10
-2.5472412256
 20
-27.9709107036
 10
-2.5051622877
 20
-27.9448186119
 10
-2.4842204345
 20
-27.9320233019
 10
-2.4634462642
 20
-27.9196019618
 10
-2.4429304666
 20
-27.9076654351
  0
LWPOLYLINE
  5
46C
100
AcDbEntity
  8
C_COPERCHIO
100
AcDbPolyline
 62
250
  6
CONTINUOUS
 90
7
 70
0
 10
-0.187966042
 20
-27.3497973722
 10
-0.1674650261
 20
-27.3377405745
 10
-0.1500693498
 20
-27.3243917231
 10
-0.1361301071
 20
-27.3099453937
 10
-0.1259327539
 20
-27.2945868855
 10
-0.1197622413
 20
-27.2785918008
 10
-0.1178009926
 20
-27.2629727366
  0
LINE
  5
46D
100
AcDbEntity
  8
C_COPERCHIO
100
AcDbLine
 62
250
  6
CONTINUOUS
 10
-0.7120705086
 20
-27.6325637558
 11
-0.187966042
 21
-27.3497973722
  0
LINE
  5
46E
100
AcDbEntity
  8
C_COPERCHIO
100
AcDbLine
 62
7
  6
CONTINUOUS
 10
-0.7744402066
 20
-27.766421065
 11
-0.249095037
 21
-27.4829852937
  0
LINE
  5
46F
100
AcDbEntity
  8
C_COPERCHIO
100
AcDbLine
 62
250
  6
CONTINUOUS
 10
-0.370855886
 20
-25.7677766818
 11
0.3485896632
 21
-25.4052799871
  0
LINE
  5
470
100
AcDbEntity
  8
C_COPERCHIO
100
AcDbLine
 62
7
  6
CONTINUOUS
 10
-0.5029172074
 20
-26.0393596013
 11
0.2190896171
 21
-25.6755723936
  0
LINE
  5
471
100
AcDbEntity
  8
C_COPERCHIO
100
AcDbLine
 62
7
  6
CONTINUOUS
 10
-0.7744409057
 20
-27.7664213878
 11
-0.7796488832
 21
-27.7690257423
  0
LWPOLYLINE
  5
472
100
AcDbEntity
  8
C_COPERCHIO
100
AcDbPolyline
 62
7
  6
CONTINUOUS
 90
3
 70
0
 10
-0.5029172074
 20
-26.0393596013
 10
-0.5079486789
 20
-26.0418006531
 10
-0.5146305642
 20
-26.0447608335
  0
LWPOLYLINE
  5
473
100
AcDbEntity
  8
C_COPERCHIO
100
AcDbPolyline
 62
250
  6
CONTINUOUS
 90
13
 70
0
 10
-6.5481636916
 20
-27.5745090062
 10
-6.5974582992
 20
-27.5977010571
 10
-6.6517396605
 20
-27.6174958781
 10
-6.7100995093
 20
-27.633562251
 10
-6.771561336
 20
-27.6456313443
 10
-6.8350967269
 20
-27.653501211
 10
-6.8996425721
 20
-27.6570401683
 10
-6.9641188545
 20
-27.6561890002
 10
-7.0274467208
 20
-27.650961949
 10
-7.0885665336
 20
-27.6414464767
 10
-7.146455602
 20
-27.6278018017
 10
-7.2001452936
 20
-27.6102562342
 10
-7.2487372425
 20
-27.5891033565
  0
LINE
  5
474
100
AcDbEntity
  8
C_COPERCHIO
100
AcDbLine
 62
250
  6
CONTINUOUS
 10
-5.8669760322
 20
-28.0748246744
 11
-0.370855886
 21
-25.7677766818
  0
LINE
  5
475
100
AcDbEntity
  8
C_COPERCHIO
100
AcDbLine
 62
7
  6
CONTINUOUS
 10
-0.5146388318
 20
-26.0447645864
 11
-6.0210221916
 21
-28.356120474
  0
LWPOLYLINE
  5
476
100
AcDbEntity
  8
C_COPERCHIO
100
AcDbPolyline
 62
7
  6
CONTINUOUS
 90
7
 70
0
 10
-5.3319509089
 20
21.5502320425
 10
-5.3441771662
 20
21.5474643781
 10
-5.3565935431
 20
21.5440549815
 10
-5.3692000395
 20
21.5400038528
 10
-5.3819966555
 20
21.535310992
 10
-5.394983391
 20
21.5299763989
 10
-5.408160246
 20
21.5240000738
  0
LWPOLYLINE
  5
477
100
AcDbEntity
  8
C_COPERCHIO
100
AcDbPolyline
 62
7
  6
CONTINUOUS
 90
8
 70
0
 10
-5.3319509089
 20
21.550252254
 10
-5.3101737341
 20
21.554457552
 10
-5.2904418414
 20
21.5575244608
 10
-5.2728794694
 20
21.5593622353
 10
-5.2576430749
 20
21.5599102061
 10
-5.244842931
 20
21.5590699636
 10
-5.2345319829
 20
21.5567330423
 10
-5.230376747
 20
21.5550082091
  0
LINE
  5
478
100
AcDbEntity
  8
C_COPERCHIO
100
AcDbLine
 62
250
  6
CONTINUOUS
 10
-2.3339706352
 20
-28.3816109822
 11
-0.7120705086
 21
-27.6325637558
  0
LINE
  5
479
100
AcDbEntity
  8
C_COPERCHIO
100
AcDbLine
 62
7
  6
CONTINUOUS
 10
-2.4028155503
 20
-28.5186578991
 11
-0.7796475928
 21
-27.7690251463
  0
LWPOLYLINE
  5
47A
100
AcDbEntity
  8
C_COPERCHIO
100
AcDbPolyline
 62
250
  6
CONTINUOUS
 90
13
 70
0
 10
-2.3339706352
 20
-28.3816109822
 10
-2.3580842308
 20
-28.3918614902
 10
-2.3847819335
 20
-28.4005593283
 10
-2.4136745922
 20
-28.4075289496
 10
-2.4443916088
 20
-28.4126276263
 10
-2.4763817781
 20
-28.4157128825
 10
-2.5089023253
 20
-28.4166919016
 10
-2.5413332945
 20
-28.4155527421
 10
-2.5731939946
 20
-28.4123190104
 10
-2.6039360485
 20
-28.4070474754
 10
-2.6330382824
 20
-28.3998300804
 10
-2.6600145246
 20
-28.3907901139
 10
-2.6844119231
 20
-28.3800818548
  0
ARC
  5
47B
100
AcDbEntity
  8
C_CORPO
100
AcDbCircle
 62
7
  6
CONTINUOUS
 10
2.1224383337
 20
22.2149769031
 40
1.0
100
AcDbArc
 50
63.4349443607
 51
114.7890653212
  0
ARC
  5
47C
100
AcDbEntity
  8
C_CORPO
100
AcDbCircle
 62
7
  6
CONTINUOUS
 10
15.8988571318
 20
15.326767504
 40
1.0
100
AcDbArc
 50
0.0002095874
 51
63.4349488229
  0
ARC
  5
47D
100
AcDbEntity
  8
C_CORPO
100
AcDbCircle
 62
7
  6
CONTINUOUS
 10
15.8988571318
 20
-10.6937137006
 40
1.0
100
AcDbArc
 50
298.3476707551
 51
360.0
  0
ARC
  5
47E
100
AcDbEntity
  8
C_COPERCHIO
100
AcDbCircle
 62
7
  6
CONTINUOUS
 10
-1.6927361281
 20
15.3789938211
 40
0.25
100
AcDbArc
 50
63.3950891547
 51
114.7890578208
  0
ARC
  5
47F
100
AcDbEntity
  8
C_COPERCHIO
100
AcDbCircle
 62
7
  6
CONTINUOUS
 10
-0.3678009921
 20
14.7165262532
 40
0.25
100
AcDbArc
 50
0.0072930109
 51
63.4349488229
  0
ARC
  5
480
100
AcDbEntity
  8
C_COPERCHIO
100
AcDbCircle
 62
7
  6
CONTINUOUS
 10
-3.7955425795
 20
14.2864019088
 40
0.25
100
AcDbArc
 50
118.3478796169
 51
179.9982443039
  0
ARC
  5
481
100
AcDbEntity
  8
C_COPERCHIO
100
AcDbCircle
 62
7
  6
CONTINUOUS
 10
-17.1598607439
 20
20.968560991
 40
0.25
100
AcDbArc
 50
118.3478796169
 51
179.9982443039
  0
ARC
  5
482
100
AcDbEntity
  8
C_COPERCHIO
100
AcDbCircle
 62
7
  6
CONTINUOUS
 10
-13.7321191565
 20
21.3986853354
 40
0.25
100
AcDbArc
 50
0.032235045
 51
63.4821744686
  0
ARC
  5
483
100
AcDbEntity
  8
C_COPERCHIO
100
AcDbCircle
 62
7
  6
CONTINUOUS
 10
-15.0570542925
 20
22.0611529034
 40
0.25
100
AcDbArc
 50
63.3950891547
 51
114.7890578208
  0
ARC
  5
484
100
AcDbEntity
  8
C_COPERCHIO
100
AcDbCircle
 62
7
  6
CONTINUOUS
 10
-0.3678009921
 20
-27.2629650759
 40
0.25
100
AcDbArc
 50
298.3478796169
 51
359.9982443039
  0
ARC
  5
485
100
AcDbEntity
  8
C_COPERCHIO
100
AcDbCircle
 62
7
  6
CONTINUOUS
 10
-3.7955425795
 20
-27.6477398313
 40
0.25
100
AcDbArc
 50
180.032235045
 51
243.4821744686
  0
ARC
  5
486
100
AcDbEntity
  8
C_COPERCHIO
100
AcDbCircle
 62
7
  6
CONTINUOUS
 10
-2.5076352278
 20
-28.2916935072
 40
0.25
100
AcDbArc
 50
243.3950891547
 51
294.7890578208
  0
ELLIPSE
  5
487
100
AcDbEntity
  8
C_COPERCHIO
100
AcDbEllipse
 62
7
  6
CONTINUOUS
 10
4.5322899272
 20
16.342755232
 30
0.0
 11
0.499996712
 21
0.0035883639
 31
0.0
 40
0.5053247124
 41
-0.7715714568
 42
-0.003626605
  0
ELLIPSE
  5
488
100
AcDbEntity
  8
C_COPERCHIO
100
AcDbEllipse
 62
7
  6
CONTINUOUS
 10
-0.0050175835
 20
12.6729394328
 30
0.0
 11
-0.2237009107
 21
0.4473351135
 31
0.0
 40
0.6121897086
 41
-2.2557347926
 42
-0.6846338794
  0
ELLIPSE
  5
489
100
AcDbEntity
  8
C_COPERCHIO
100
AcDbEllipse
 62
7
  6
CONTINUOUS
 10
-0.0050175835
 20
-25.2286082737
 30
0.0
 11
-0.2235807756
 21
0.4472283268
 31
0.0
 40
0.6125552124
 41
-3.1396695462
 42
-2.255296188
  0
ELLIPSE
  5
48A
100
AcDbEntity
  8
C_COPERCHIO
100
AcDbEllipse
 62
7
  6
CONTINUOUS
 10
-13.7321191565
 20
20.8087417405
 30
0.0
 11
0.220014872
 21
0.1791173313
 31
0.0
 40
0.6627826692
 41
-1.262753738
 42
-0.756608255
  0
ELLIPSE
  5
48B
100
AcDbEntity
  8
C_COPERCHIO
100
AcDbEllipse
 62
7
  6
CONTINUOUS
 10
-15.8719533923
 20
19.7573385148
 30
0.0
 11
0.2497264901
 21
-0.0900037588
 31
0.0
 40
0.1298948903
 41
-1.2622157641
 42
-0.756070281
  0
ELLIPSE
  5
48C
100
AcDbEntity
  8
C_COPERCHIO
100
AcDbEllipse
 62
7
  6
CONTINUOUS
 10
-2.5076352278
 20
13.0751794326
 30
0.0
 11
0.2497264901
 21
-0.0900037588
 31
0.0
 40
0.1298948903
 41
-1.2622157641
 42
-0.756070281
  0
ELLIPSE
  5
48D
100
AcDbEntity
  8
C_COPERCHIO
100
AcDbEllipse
 62
7
  6
CONTINUOUS
 10
-0.3678009921
 20
14.1265826583
 30
0.0
 11
0.220014872
 21
0.1791173313
 31
0.0
 40
0.6627826692
 41
-1.262753738
 42
-0.756608255
  0
ELLIPSE
  5
48E
100
AcDbEntity
  8
C_COPERCHIO
100
AcDbEllipse
 62
7
  6
CONTINUOUS
 10
-3.5902259003
 20
13.1008362557
 30
0.0
 11
0.0869927845
 21
0.180102834
 31
0.0
 40
0.6016116119
 41
-2.4127428828
 42
-0.8943064336
  0
ELLIPSE
  5
48F
100
AcDbEntity
  8
C_COPERCHIO
100
AcDbEllipse
 62
7
  6
CONTINUOUS
 10
4.6109240391
 20
-20.6034906255
 30
0.0
 11
0.9867309946
 21
0.6236301469
 31
0.0
 40
0.0713777251
 41
-2.3963187117
 42
-1.1971239672
  0
ELLIPSE
  5
490
100
AcDbEntity
  8
C_COPERCHIO
100
AcDbEllipse
 62
7
  6
CONTINUOUS
 10
-6.9543038718
 20
21.9424161789
 30
0.0
 11
1.0108778265
 21
0.6107340099
 31
0.0
 40
0.091398456
 41
0.0577069892
 42
0.7249729241
  0
ELLIPSE
  5
491
100
AcDbEntity
  8
C_COPERCHIO
100
AcDbEllipse
 62
7
  6
CONTINUOUS
 10
4.5322899272
 20
-20.7292506056
 30
0.0
 11
0.4995166957
 21
0.3155787895
 31
0.0
 40
0.0696462212
 41
5.9573459303
 42
7.0071582689
  0
ELLIPSE
  5
492
100
AcDbEntity
  8
C_COPERCHIO
100
AcDbEllipse
 62
7
  6
CONTINUOUS
 10
-0.3678009921
 20
-26.6730214811
 30
0.0
 11
0.2497264901
 21
-0.0900037588
 31
0.0
 40
0.1298948903
 41
-0.721163696
 42
-0.2150182129
  0
ELLIPSE
  5
493
100
AcDbEntity
  8
C_COPERCHIO
100
AcDbEllipse
 62
7
  6
CONTINUOUS
 10
-2.5076352278
 20
-27.7244247068
 30
0.0
 11
0.220014872
 21
0.1791173313
 31
0.0
 40
0.6627826692
 41
-1.8038058062
 42
-1.2976603231
  0
ELLIPSE
  5
494
100
AcDbEntity
  8
C_COPERCHIO
100
AcDbEllipse
 62
7
  6
CONTINUOUS
 10
-15.2994526121
 20
18.9554496116
 30
0.0
 11
0.0919907694
 21
0.1776025845
 31
0.0
 40
0.6229838795
 41
-2.3956273539
 42
-0.8771909047
  0
ELLIPSE
  5
495
100
AcDbEntity
  8
C_COPERCHIO
100
AcDbEllipse
 62
7
  6
CONTINUOUS
 10
-11.3478024119
 20
17.7091736327
 30
0.0
 11
0.4998587701
 21
0.0223649649
 31
0.0
 40
0.5313301283
 41
3.1178240486
 42
3.9032222197
  0
ELLIPSE
  5
496
100
AcDbEntity
  8
C_COPERCHIO
100
AcDbEllipse
 62
7
  6
CONTINUOUS
 10
-5.8448198257
 20
14.9576823396
 30
0.0
 11
0.4998587701
 21
0.0223649649
 31
0.0
 40
0.5313301283
 41
-2.3799630874
 42
-0.8266200532
  0
ELLIPSE
  5
497
100
AcDbEntity
  8
C_COPERCHIO
100
AcDbEllipse
 62
7
  6
CONTINUOUS
 10
-5.6971733159
 20
18.9823558216
 30
0.0
 11
0.9999763657
 21
-0.0140528498
 31
0.0
 40
0.4892375088
 41
0.7922733988
 42
2.3630697256
  0
ELLIPSE
  5
498
100
AcDbEntity
  8
C_COPERCHIO
100
AcDbEllipse
 62
7
  6
CONTINUOUS
 10
4.5322899272
 20
17.0713030966
 30
0.0
 11
-0.3769154292
 21
0.5969964286
 31
0.0
 40
0.5503119334
 41
-3.1926141665
 42
-2.1428018279
  0
ELLIPSE
  5
499
100
AcDbEntity
  8
C_COPERCHIO
100
AcDbEllipse
 62
7
  6
CONTINUOUS
 10
-5.6031246048
 20
20.4836268218
 30
0.0
 11
0.3834884549
 21
-0.005389233
 31
0.0
 40
0.4892375088
 41
-0.778522928
 42
0.0068752897
  0
ELLIPSE
  5
49A
100
AcDbEntity
  8
C_COPERCHIO
100
AcDbEllipse
 62
7
  6
CONTINUOUS
 10
-0.1110297446
 20
17.7375793916
 30
0.0
 11
0.3834884549
 21
-0.005389233
 31
0.0
 40
0.4892375088
 41
-0.7610696355
 42
0.0068753252
  0
ELLIPSE
  5
49B
100
AcDbEntity
  8
C_COPERCHIO
100
AcDbEllipse
 62
7
  6
CONTINUOUS
 10
4.6109240391
 20
16.1598022235
 30
0.0
 11
-0.7295743011
 21
1.2069023924
 31
0.0
 40
0.551692038
 41
5.0333899064
 42
6.2325846508
  0
ELLIPSE
  5
49C
100
AcDbEntity
  8
C_CORPO
100
AcDbEllipse
 62
7
  6
CONTINUOUS
 10
6.1597082151
 20
-17.2450892395
 30
0.0
 11
-0.894811907
 21
1.788971565
 31
0.0
 40
0.6123121697
 41
-3.0410143285
 42
-2.2557423369
  0
ELLIPSE
  5
49D
100
AcDbEntity
  8
C_CORPO
100
AcDbEllipse
 62
7
  6
CONTINUOUS
 10
6.1597082151
 20
13.2325156487
 30
0.0
 11
-0.894612936
 21
1.7887945813
 31
0.0
 40
0.6124635976
 41
-2.2555607096
 42
-1.470288718
  0
ELLIPSE
  5
49E
100
AcDbEntity
  8
C_CORPO
100
AcDbEllipse
 62
7
  6
CONTINUOUS
 10
6.8562239909
 20
14.1598693968
 30
0.0
 11
0.9858079435
 21
-0.6309565609
 31
0.0
 40
0.0961895619
 41
1.6198246815
 42
2.0341892581
  0
ELLIPSE
  5
49F
100
AcDbEntity
  8
C_CORPO
100
AcDbEllipse
 62
7
  6
CONTINUOUS
 10
1.5628879897
 20
19.8783142563
 30
0.0
 11
3.2468997206
 21
-0.0455232094
 31
0.0
 40
0.4892378494
 41
-1.2781973662
 42
-0.7772130249
  0
ELLIPSE
  5
4A0
100
AcDbEntity
  8
C_CORPO
100
AcDbEllipse
 62
7
  6
CONTINUOUS
 10
1.5860265303
 20
18.7452926038
 30
0.0
 11
2.7499831596
 21
-0.0194567514
 31
0.0
 40
0.4946372042
 41
2.368420792
 42
2.6556495452
  0
ELLIPSE
  5
4A1
100
AcDbEntity
  8
C_CORPO
100
AcDbEllipse
 62
7
  6
CONTINUOUS
 10
2.2577779724
 20
18.6409758182
 30
0.0
 11
2.7583783481
 21
-0.0195161492
 31
0.0
 40
0.4946372042
 41
0.4161561927
 42
0.6784646295
  0
ELLIPSE
  5
4A2
100
AcDbEntity
  8
C_CORPO
100
AcDbEllipse
 62
7
  6
CONTINUOUS
 10
9.3642011233
 20
14.8562053072
 30
0.0
 11
2.7499831596
 21
-0.0194567514
 31
0.0
 40
0.4946372042
 41
2.368420792
 42
2.9601076467
  0
ELLIPSE
  5
4A3
100
AcDbEntity
  8
C_CORPO
100
AcDbEllipse
 62
7
  6
CONTINUOUS
 10
6.8562239909
 20
-18.0453274474
 30
0.0
 11
0.7161150534
 21
1.2164532487
 31
0.0
 40
0.559171377
 41
-2.4047356921
 42
-2.3180239248
  0
ELLIPSE
  5
4A4
100
AcDbEntity
  8
C_CORPO
100
AcDbEllipse
 62
7
  6
CONTINUOUS
 10
10.0359525655
 20
14.7518885217
 30
0.0
 11
2.7583783481
 21
-0.0195161492
 31
0.0
 40
0.4946372042
 41
0.8993310084
 42
2.3596941457
  0
ELLIPSE
  5
4A5
100
AcDbEntity
  8
C_CORPO
100
AcDbEllipse
 62
7
  6
CONTINUOUS
 10
10.0359525655
 20
14.7518885217
 30
0.0
 11
2.7583783481
 21
-0.0195161492
 31
0.0
 40
0.4946372042
 41
0.4161561927
 42
0.6784646295
  0
ELLIPSE
  5
4A6
100
AcDbEntity
  8
C_CORPO
100
AcDbEllipse
 62
7
  6
CONTINUOUS
 10
2.2577779724
 20
18.6409758182
 30
0.0
 11
2.7583783481
 21
-0.0195161492
 31
0.0
 40
0.4946372042
 41
0.8993310084
 42
2.3596941457
  0
ELLIPSE
  5
4A7
100
AcDbEntity
  8
C_CORPO
100
AcDbEllipse
 62
7
  6
CONTINUOUS
 10
3.1460886059
 20
21.7031517669
 30
0.0
 11
0.4410298232
 21
0.8975092442
 31
0.0
 40
0.607010042
 41
-0.8902711325
 42
-0.6612049761
  0
ELLIPSE
  5
4A8
100
AcDbEntity
  8
C_CORPO
100
AcDbEllipse
 62
7
  6
CONTINUOUS
 10
7.0043285436
 20
19.7740317981
 30
0.0
 11
0.79574694
 21
0.7129684349
 31
0.0
 40
0.2882345029
 41
0.1134874796
 42
0.7807533904
  0
ELLIPSE
  5
4A9
100
AcDbEntity
  8
C_CORPO
100
AcDbEllipse
 62
7
  6
CONTINUOUS
 10
10.924263199
 20
17.8140644704
 30
0.0
 11
0.4410298232
 21
0.8975092442
 31
0.0
 40
0.607010042
 41
-0.8902711325
 42
-0.6612049761
  0
ELLIPSE
  5
4AA
100
AcDbEntity
  8
C_CORPO
100
AcDbEllipse
 62
7
  6
CONTINUOUS
 10
14.7825031366
 20
15.8849445016
 30
0.0
 11
0.79574694
 21
0.7129684349
 31
0.0
 40
0.2882345029
 41
0.1134874796
 42
0.7807533904
  0
ELLIPSE
  5
4AB
100
AcDbEntity
  8
C_CORPO
100
AcDbEllipse
 62
7
  6
CONTINUOUS
 10
-7.3040888248
 20
17.7122217194
 30
0.0
 11
1.2141619185
 21
0.9541526469
 31
0.0
 40
0.2329077568
 41
0.1095198182
 42
0.114024621
  0
ELLIPSE
  5
4AC
100
AcDbEntity
  8
C_CORPO
100
AcDbEllipse
 62
7
  6
CONTINUOUS
 10
1.5628879897
 20
19.8783142563
 30
0.0
 11
3.2468997206
 21
-0.0455232094
 31
0.0
 40
0.4892378494
 41
2.3616770883
 42
3.2093200201
  0
ELLIPSE
  5
4AD
100
AcDbEntity
  8
C_CORPO
100
AcDbEllipse
 62
7
  6
CONTINUOUS
 10
9.3410625828
 20
15.9892269598
 30
0.0
 11
3.2468997206
 21
-0.0455232094
 31
0.0
 40
0.4892378494
 41
2.3616770883
 42
5.5059722822
  0
ELLIPSE
  5
4AE
100
AcDbEntity
  8
C_CORPO
100
AcDbEllipse
 62
7
  6
CONTINUOUS
 10
11.0169669219
 20
17.7677126089
 30
0.0
 11
-0.3106730325
 21
1.1082908718
 31
0.0
 40
0.6760995073
 41
5.075837262
 42
6.4001141399
  0
ELLIPSE
  5
4AF
100
AcDbEntity
  8
C_CORPO
100
AcDbEllipse
 62
7
  6
CONTINUOUS
 10
2.2577779724
 20
19.0739885201
 30
0.0
 11
2.7583783481
 21
-0.0195161492
 31
0.0
 40
0.4946372042
 41
0.1584376854
 42
2.3596941457
  0
ELLIPSE
  5
4B0
100
AcDbEntity
  8
C_CORPO
100
AcDbEllipse
 62
7
  6
CONTINUOUS
 10
10.0359525655
 20
16.7234331165
 30
0.0
 11
2.7583515655
 21
-1.4175703156
 31
0.0
 40
0.0109499087
 41
-0.7017315251
 42
-0.6693376631
  0
ELLIPSE
  5
4B1
100
AcDbEntity
  8
C_CORPO
100
AcDbEllipse
 62
7
  6
CONTINUOUS
 10
2.2577779724
 20
20.612520413
 30
0.0
 11
2.7583515655
 21
-1.4175703156
 31
0.0
 40
0.0109499087
 41
-0.7017315251
 42
-0.6693376631
  0
ELLIPSE
  5
4B2
100
AcDbEntity
  8
C_CORPO
100
AcDbEllipse
 62
7
  6
CONTINUOUS
 10
10.0359525655
 20
15.1849012236
 30
0.0
 11
2.7583783481
 21
-0.0195161492
 31
0.0
 40
0.4946372042
 41
0.1584376854
 42
2.3596941457
  0
ELLIPSE
  5
4B3
100
AcDbEntity
  8
C_CORPO
100
AcDbEllipse
 62
7
  6
CONTINUOUS
 10
10.0359525655
 20
16.7234331165
 30
0.0
 11
2.7583515655
 21
-1.4175703156
 31
0.0
 40
0.0109499087
 41
-0.890204042
 42
-0.85781018
  0
ELLIPSE
  5
4B4
100
AcDbEntity
  8
C_CORPO
100
AcDbEllipse
 62
7
  6
CONTINUOUS
 10
2.2577779724
 20
20.612520413
 30
0.0
 11
2.7583515655
 21
-1.4175703156
 31
0.0
 40
0.0109499087
 41
-0.890204042
 42
-0.85781018
  0
ELLIPSE
  5
4B5
100
AcDbEntity
  8
C_CORPO
100
AcDbEllipse
 62
7
  6
CONTINUOUS
 10
3.2387923289
 20
21.6567999055
 30
0.0
 11
-0.3106730325
 21
1.1082908718
 31
0.0
 40
0.6760995073
 41
5.075837262
 42
6.4001141399
  0
ENDSEC
  0
SECTION
  2
OBJECTS
  0
DICTIONARY
  5
C
100
AcDbDictionary
280
0
281
1
  3
ACAD_GROUP
350
D
  3
ACAD_MLINESTYLE
350
17
  3
ACAD_LAYOUT
350
1A
  3
ACAD_PLOTSETTINGS
350
19
  3
ACAD_PLOTSTYLENAME
350
E
  0
DICTIONARY
  5
D
102
{ACAD_REACTORS
330
C
102
}
100
AcDbDictionary
280
0
281
1
  0
ACDBDICTIONARYWDFLT
  5
E
102
{ACAD_REACTORS
330
C
102
}
100
AcDbDictionary
281
1
  3
Normal
350
F
100
AcDbDictionaryWithDefault
340
F
  0
DICTIONARY
  5
17
102
{ACAD_REACTORS
330
C
102
}
100
AcDbDictionary
280
0
281
1
  3
Standard
350
18
  0
DICTIONARY
  5
19
102
{ACAD_REACTORS
330
C
102
}
100
AcDbDictionary
281
1
  0
DICTIONARY
  5
1A
102
{ACAD_REACTORS
330
C
102
}
100
AcDbDictionary
281
1
  3
Model
350
4B6
  3
Layout1
350
4B7
  0
ACDBPLACEHOLDER
  5
F
102
{ACAD_REACTORS
330
E
102
}
  0
MLINESTYLE
  5
18
102
{ACAD_REACTORS
330
17
102
}
100
AcDbMlineStyle
  2
STANDARD
 70
0
  3

 62
256
 51
90.0
 52
90.0
 71
2
 49
0.5
 62
256
  6
BYLAYER
 49
-0.5
 62
256
  6
BYLAYER
  0
LAYOUT
  5
4B6
102
{ACAD_REACTORS
330
1A
102
}
100
AcDbPlotSettings
  1

  2
none_device
  4
ISO_A4_(297.00_x_210.00_MM)
  6

 40
0.0
 41
0.0
 42
0.0
 43
0.0
 44
297.0
 45
210.0
 46
0.0
 47
0.0
 48
0.0
 49
0.0
140
0.0
141
0.0
142
1.0
143
1.0
 70
1024
 72
1
 73
0
 74
0
  7

 75
0
147
1.0
148
0.0
149
0.0
100
AcDbLayout
  1
Model
 70
0
 71
0
 10
0.0
 20
0.0
 11
297.0
 21
210.0
 12
0.0
 22
0.0
 32
0.0
 14
0.0
 24
0.0
 34
0.0
 15
0.0
 25
0.0
 35
0.0
146
0.0
 13
0.0
 23
0.0
 33
0.0
 16
1.0
 26
0.0
 36
0.0
 17
0.0
 27
1.0
 37
0.0
 76
0
330
21A
345
0
346
0
  0
LAYOUT
  5
4B7
102
{ACAD_REACTORS
330
1A
102
}
100
AcDbPlotSettings
  1

  2
none_device
  4
ISO_A4_(297.00_x_210.00_MM)
  6

 40
0.0
 41
0.0
 42
0.0
 43
0.0
 44
297.0
 45
210.0
 46
0.0
 47
0.0
 48
0.0
 49
0.0
140
0.0
141
0.0
142
1.0
143
1.0
 70
0
 72
1
 73
0
 74
0
  7

 75
0
147
1.0
148
0.0
149
0.0
100
AcDbLayout
  1
Layout1
 70
0
 71
1
 10
0.0
 20
0.0
 11
297.0
 21
210.0
 12
0.0
 22
0.0
 32
0.0
 14
0.0
 24
0.0
 34
0.0
 15
0.0
 25
0.0
 35
0.0
146
0.0
 13
0.0
 23
0.0
 33
0.0
 16
1.0
 26
0.0
 36
0.0
 17
0.0
 27
1.0
 37
0.0
 76
0
330
21B
345
0
346
0
  0
ENDSEC
  0
EOF
