  0
SECTION
  2
HEADER
  9
$ACADVER
  1
AC1024
  9
$DWGCODEPAGE
  3
ANSI_1252
  9
$EXTMAX
 10
297.0
 20
210.0
 30
0.0
  9
$EXTMIN
 10
0.0
 20
0.0
 30
0.0
  9
$LIMMIN
 10
0.0
 20
0.0
  9
$LIMMAX
 10
297.0
 20
210.0
  9
$VIEWCTR
 10
148.5
 20
105.0
  9
$VIEWSIZE
 40
210.0
  9
$CLAYER
  8
0
  9
$LTSCALE
 40
16.335
  9
$CELTYPE
  6
BYLAYER
  9
$DIMSCALE
 40
1.0
  9
$DIMASZ
 40
3.0
  9
$DIMEXO
 40
0.5
  9
$DIMDLI
 40
11.286
  9
$DIMEXE
 40
1.5
  9
$DIMCEN
 40
2.673
  9
$DIMLFAC
 40
1.0
  9
$DIMBLK
  1
_FILLED
  9
$DIMALT
 70
0
  9
$DIMALTF
 40
0.0393700787
  9
$DIMTXT
 40
3.0
  9
$DIMTOL
 70
1
  9
$DIMLIM
 70
0
  9
$DIMTFAC
 40
1.0
  9
$DIMTP
 40
0.01
  9
$DIMTM
 40
0.01
  9
$DIMGAP
 40
0.625
  9
$DIMDSEP
 70
44
  9
$AUNITS
 70
0
  9
$PDMODE
 70
3
  9
$PDSIZE
 40
3.0
  9
$HANDSEED
  5
4B5
  9
$TILEMODE
 70
1
  9
$MEASUREMENT
 70
1
  9
$INSUNITS
 70
4
  0
ENDSEC
  0
SECTION
  2
CLASSES
  0
CLASS
  1
ACDBDICTIONARYWDFLT
  2
AcDbDictionaryWithDefault
  3
AutoCAD 2000
 90
0
 91
1
280
0
281
0
  0
CLASS
  1
ACDBPLACEHOLDER
  2
AcDbPlaceHolder
  3
AutoCAD 2000
 90
0
 91
1
280
0
281
0
  0
CLASS
  1
LAYOUT
  2
AcDbLayout
  3
AutoCAD 2000
 90
0
 91
0
280
0
281
0
  0
ENDSEC
  0
SECTION
  2
TABLES
  0
TABLE
  2
VPORT
  5
8
100
AcDbSymbolTable
 70
2
  0
VPORT
  5
1F4
100
AcDbSymbolTableRecord
100
AcDbViewportTableRecord
  2
*ACTIVE
 70
0
 10
0.0
 20
0.0
 11
1.0
 21
1.0
 12
148.5
 22
105.0
 13
0.0
 23
0.0
 14
1.0
 24
1.0
 15
0.0
 25
0.0
 16
0.0
 26
0.0
 36
1.0
 17
0.0
 27
0.0
 37
0.0
 40
210.0
 41
1.4142857143
 42
50.0
 43
0.0
 44
0.0
 50
0.0
 51
0.0
 71
0
 72
100
 73
1
 74
1
 75
0
 76
0
 77
0
 78
0
  0
ENDTAB
  0
TABLE
  2
LTYPE
  5
5
100
AcDbSymbolTable
 70
6
  0
LTYPE
  5
14
100
AcDbSymbolTableRecord
100
AcDbLinetypeTableRecord
  2
BYBLOCK
 70
0
  3

 72
65
 73
0
 40
0.0
  0
LTYPE
  5
15
100
AcDbSymbolTableRecord
100
AcDbLinetypeTableRecord
  2
BYLAYER
 70
0
  3

 72
65
 73
0
 40
0.0
  0
LTYPE
  5
16
100
AcDbSymbolTableRecord
100
AcDbLinetypeTableRecord
  2
CONTINUOUS
 70
64
  3
Solid line
 72
65
 73
0
 40
0.0
  0
LTYPE
  5
1F5
100
AcDbSymbolTableRecord
100
AcDbLinetypeTableRecord
  2
CENTER
 70
64
  3
____ _ ____ _ ____ _ ____ _ ____ _ ____ _ ____
 72
65
 73
4
 40
0.6
 49
0.375
 74
0
 49
-0.075
 74
0
 49
0.075
 74
0
 49
-0.075
 74
0
  0
LTYPE
  5
1F6
100
AcDbSymbolTableRecord
100
AcDbLinetypeTableRecord
  2
HIDDEN
 70
64
  3
- - - - - - - - - - - - - - - - - - - -
 72
65
 73
2
 40
0.2
 49
0.1
 74
0
 49
-0.1
 74
0
  0
LTYPE
  5
1F7
100
AcDbSymbolTableRecord
100
AcDbLinetypeTableRecord
  2
PHANTOM
 70
64
  3
_____ _ _ _____ _ _ _____ _ _ _____
 72
65
 73
6
 40
0.8
 49
0.45
 74
0
 49
-0.05
 74
0
 49
0.1
 74
0
 49
-0.05
 74
0
 49
0.1
 74
0
 49
-0.05
 74
0
  0
LTYPE
  5
1F8
100
AcDbSymbolTableRecord
100
AcDbLinetypeTableRecord
  2
DOT
 70
64
  3
. . . . . . . . . . . . . . . . . . . .
 72
65
 73
2
 40
0.2
 49
0.1
 74
0
 49
-0.1
 74
0
  0
LTYPE
  5
1F9
100
AcDbSymbolTableRecord
100
AcDbLinetypeTableRecord
  2
DASHED
 70
64
  3
- - - - - - - - - - - - - - - - - - - -
 72
65
 73
2
 40
0.2
 49
0.1
 74
0
 49
-0.1
 74
0
  0
ENDTAB
  0
TABLE
  2
LAYER
  5
2
100
AcDbSymbolTable
 70
36
  0
LAYER
  5
10
100
AcDbSymbolTableRecord
100
AcDbLayerTableRecord
  2
0
 70
0
 62
7
  6
CONTINUOUS
370
-3
390
F
  0
LAYER
  5
1FA
100
AcDbSymbolTableRecord
100
AcDbLayerTableRecord
  2
DEFAULT_1
 70
0
 62
7
  6
CENTER
370
-3
390
F
  0
LAYER
  5
1FB
100
AcDbSymbolTableRecord
100
AcDbLayerTableRecord
  2
DEFAULT_2
 70
0
 62
7
  6
HIDDEN
370
-3
390
F
  0
LAYER
  5
1FC
100
AcDbSymbolTableRecord
100
AcDbLayerTableRecord
  2
DEFAULT_3
 70
0
 62
7
  6
PHANTOM
370
-3
390
F
  0
LAYER
  5
1FD
100
AcDbSymbolTableRecord
100
AcDbLayerTableRecord
  2
ASSI
 70
0
 62
7
  6
CONTINUOUS
370
-3
390
F
  0
LAYER
  5
1FE
100
AcDbSymbolTableRecord
100
AcDbLayerTableRecord
  2
COORDINATE
 70
0
 62
7
  6
CONTINUOUS
370
-3
390
F
  0
LAYER
  5
1FF
100
AcDbSymbolTableRecord
100
AcDbLayerTableRecord
  2
COORD_ORIGINE
 70
0
 62
7
  6
CONTINUOUS
370
-3
390
F
  0
LAYER
  5
200
100
AcDbSymbolTableRecord
100
AcDbLayerTableRecord
  2
COSMETICHE
 70
0
 62
7
  6
CONTINUOUS
370
-3
390
F
  0
LAYER
  5
201
100
AcDbSymbolTableRecord
100
AcDbLayerTableRecord
  2
COSMETICI
 70
0
 62
7
  6
CONTINUOUS
370
-3
390
F
  0
LAYER
  5
202
100
AcDbSymbolTableRecord
100
AcDbLayerTableRecord
  2
CURVE
 70
0
 62
7
  6
CONTINUOUS
370
-3
390
F
  0
LAYER
  5
203
100
AcDbSymbolTableRecord
100
AcDbLayerTableRecord
  2
C_CONTATTI
 70
0
 62
7
  6
CONTINUOUS
370
-3
390
F
  0
LAYER
  5
204
100
AcDbSymbolTableRecord
100
AcDbLayerTableRecord
  2
C_COPERCHIO
 70
0
 62
7
  6
CONTINUOUS
370
-3
390
F
  0
LAYER
  5
205
100
AcDbSymbolTableRecord
100
AcDbLayerTableRecord
  2
C_CORPO
 70
0
 62
7
  6
CONTINUOUS
370
-3
390
F
  0
LAYER
  5
206
100
AcDbSymbolTableRecord
100
AcDbLayerTableRecord
  2
C_OTTURATORE
 70
0
 62
7
  6
CONTINUOUS
370
-3
390
F
  0
LAYER
  5
207
100
AcDbSymbolTableRecord
100
AcDbLayerTableRecord
  2
DRAFT
 70
0
 62
7
  6
CONTINUOUS
370
-3
390
F
  0
LAYER
  5
208
100
AcDbSymbolTableRecord
100
AcDbLayerTableRecord
  2
INTF_1
 70
0
 62
7
  6
CONTINUOUS
370
-3
390
F
  0
LAYER
  5
209
100
AcDbSymbolTableRecord
100
AcDbLayerTableRecord
  2
INTF_11
 70
0
 62
7
  6
CONTINUOUS
370
-3
390
F
  0
LAYER
  5
20A
100
AcDbSymbolTableRecord
100
AcDbLayerTableRecord
  2
INTF_12
 70
0
 62
7
  6
CONTINUOUS
370
-3
390
F
  0
LAYER
  5
20B
100
AcDbSymbolTableRecord
100
AcDbLayerTableRecord
  2
INTF_YELLOW
 70
0
 62
7
  6
CONTINUOUS
370
-3
390
F
  0
LAYER
  5
20C
100
AcDbSymbolTableRecord
100
AcDbLayerTableRecord
  2
NOTE
 70
0
 62
7
  6
CONTINUOUS
370
-3
390
F
  0
LAYER
  5
20D
100
AcDbSymbolTableRecord
100
AcDbLayerTableRecord
  2
PIANI
 70
0
 62
7
  6
CONTINUOUS
370
-3
390
F
  0
LAYER
  5
20E
100
AcDbSymbolTableRecord
100
AcDbLayerTableRecord
  2
PIANI_ORIGINE
 70
0
 62
7
  6
CONTINUOUS
370
-3
390
F
  0
LAYER
  5
20F
100
AcDbSymbolTableRecord
100
AcDbLayerTableRecord
  2
PIANI_SFORMO
 70
0
 62
7
  6
CONTINUOUS
370
-3
390
F
  0
LAYER
  5
210
100
AcDbSymbolTableRecord
100
AcDbLayerTableRecord
  2
PUNTI
 70
0
 62
7
  6
CONTINUOUS
370
-3
390
F
  0
LAYER
  5
211
100
AcDbSymbolTableRecord
100
AcDbLayerTableRecord
  2
RACCORDO
 70
0
 62
7
  6
CONTINUOUS
370
-3
390
F
  0
LAYER
  5
212
100
AcDbSymbolTableRecord
100
AcDbLayerTableRecord
  2
SCRITTE
 70
0
 62
7
  6
CONTINUOUS
370
-3
390
F
  0
LAYER
  5
213
100
AcDbSymbolTableRecord
100
AcDbLayerTableRecord
  2
SIMBOLI
 70
0
 62
7
  6
CONTINUOUS
370
-3
390
F
  0
LAYER
  5
214
100
AcDbSymbolTableRecord
100
AcDbLayerTableRecord
  2
SMUSSO
 70
0
 62
7
  6
CONTINUOUS
370
-3
390
F
  0
LAYER
  5
215
100
AcDbSymbolTableRecord
100
AcDbLayerTableRecord
  2
SUPERFICI
 70
0
 62
7
  6
CONTINUOUS
370
-3
390
F
  0
LAYER
  5
216
100
AcDbSymbolTableRecord
100
AcDbLayerTableRecord
  2
TRASH
 70
0
 62
7
  6
CONTINUOUS
370
-3
390
F
  0
LAYER
  5
217
100
AcDbSymbolTableRecord
100
AcDbLayerTableRecord
  2
XSEC_DATUMS
 70
0
 62
7
  6
CONTINUOUS
370
-3
390
F
  0
ENDTAB
  0
TABLE
  2
STYLE
  5
3
100
AcDbSymbolTable
 70
1
  0
STYLE
  5
11
100
AcDbSymbolTableRecord
100
AcDbTextStyleTableRecord
  2
STANDARD
 70
0
 40
0.0
 41
0.8
 50
0.0
 71
0
 42
0.2
  3
txt
  4

  0
STYLE
  5
218
100
AcDbSymbolTableRecord
100
AcDbTextStyleTableRecord
  2
TEXTSTYLE_1
 70
0
 40
0.0
 41
0.8
 50
0.0
 71
0
 42
0.2
  3
gdt
  4

  0
ENDTAB
  0
TABLE
  2
VIEW
  5
6
100
AcDbSymbolTable
 70
0
  0
ENDTAB
  0
TABLE
  2
UCS
  5
7
100
AcDbSymbolTable
 70
0
  0
ENDTAB
  0
TABLE
  2
APPID
  5
9
100
AcDbSymbolTable
 70
1
  0
APPID
  5
219
100
AcDbSymbolTableRecord
100
AcDbRegAppTableRecord
  2
ACAD
 70
0
  0
ENDTAB
  0
TABLE
  2
BLOCK_RECORD
  5
1
100
AcDbSymbolTable
 70
0
  0
BLOCK_RECORD
  5
21A
100
AcDbSymbolTableRecord
100
AcDbBlockTableRecord
  2
*Model_Space
  0
BLOCK_RECORD
  5
21B
100
AcDbSymbolTableRecord
100
AcDbBlockTableRecord
  2
*Paper_Space
  0
BLOCK_RECORD
  5
21C
100
AcDbSymbolTableRecord
100
AcDbBlockTableRecord
  2
_FILLED
  0
ENDTAB
  0
TABLE
  2
DIMSTYLE
  5
A
100
AcDbSymbolTable
 70
1
100
AcDbDimStyleTable
 71
0
  0
DIMSTYLE
105
21D
100
AcDbSymbolTableRecord
100
AcDbDimStyleTableRecord
  2
STANDARD
 70
0
  3

  4

 40
1.0
 41
3.0
 42
0.5
 43
0.38
 44
1.5
 45
0.0
 46
0.0
 47
0.01
 48
0.01
140
3.0
141
0.09
142
0.0
143
25.4
144
1.0
145
0.0
146
1.0
147
0.625
 71
1
 72
0
 73
0
 74
0
 75
0
 76
0
 77
1
 78
8
 79
2
170
0
171
1
172
0
173
0
174
0
175
0
176
0
177
0
178
0
270
2
179
2
271
2
272
2
273
2
274
2
275
0
280
0
281
0
282
0
283
1
284
8
285
0
286
0
287
3
288
0
340
11
278
44
341
21C
342
21C
343
21C
344
21C
  0
ENDTAB
  0
ENDSEC
  0
SECTION
  2
BLOCKS
  0
BLOCK
  5
20
100
AcDbEntity
  8
0
100
AcDbBlockBegin
  2
*Model_Space
 70
0
 10
0.0
 20
0.0
 30
0.0
  3
*Model_Space
  1

  0
ENDBLK
  5
21
100
AcDbEntity
  8
0
100
AcDbBlockEnd
  0
BLOCK
  5
1C
100
AcDbEntity
  8
0
100
AcDbBlockBegin
  2
*Paper_Space
 70
0
 10
0.0
 20
0.0
 30
0.0
  3
*Paper_Space
  1

  0
ENDBLK
  5
1D
100
AcDbEntity
  8
0
100
AcDbBlockEnd
  0
BLOCK
  5
21E
100
AcDbEntity
  8
0
100
AcDbBlockBegin
  2
_FILLED
 70
64
 10
0.0
 20
0.0
  3
_FILLED
  1

  0
SOLID
  5
21F
100
AcDbEntity
  8
0
  6
BYBLOCK
 62
0
100
AcDbTrace
 10
0.0
 20
0.0
 11
-1.0
 21
0.3166666667
 12
-1.0
 22
-0.3166666667
 13
-1.0
 23
-0.3166666667
  0
ENDBLK
  5
220
100
AcDbEntity
  8
0
  6
BYBLOCK
 62
0
100
AcDbBlockEnd
  0
ENDSEC
  0
SECTION
  2
ENTITIES
  0
LWPOLYLINE
  5
221
100
AcDbEntity
  8
C_COPERCHIO
100
AcDbPolyline
 62
250
  6
CONTINUOUS
 90
4
 70
0
 10
-19.3269244221
 20
19.6990577509
 10
-19.255094307
 20
19.7564885583
 10
-19.1822683848
 20
19.8081263378
 10
-19.1088110844
 20
19.8537165439
  0
LWPOLYLINE
  5
222
100
AcDbEntity
  8
C_COPERCHIO
100
AcDbPolyline
 62
7
  6
CONTINUOUS
 90
10
 70
0
 10
-15.3644212906
 20
23.226262145
 10
-15.3804879023
 20
23.214666737
 10
-15.3943692848
 20
23.2040373585
 10
-15.4061684706
 20
23.194478838
 10
-15.4160581551
 20
23.1861383225
 10
-15.4241008557
 20
23.1789971319
 10
-15.4302095331
 20
23.1729108013
 10
-15.4344656278
 20
23.1679229744
 10
-15.4369739382
 20
23.1640801055
 10
-15.4376548016
 20
23.1615624869
  0
LWPOLYLINE
  5
223
100
AcDbEntity
  8
C_COPERCHIO
100
AcDbPolyline
 62
7
  6
CONTINUOUS
 90
13
 70
0
 10
-14.9749773278
 20
22.2769440981
 10
-14.9570973756
 20
22.2889263405
 10
-14.9401297231
 20
22.3029396491
 10
-14.9240743701
 20
22.3189840237
 10
-14.9086988641
 20
22.3373875744
 10
-14.8942356576
 20
22.3578221912
 10
-14.881382109
 20
22.3793035441
 10
-14.870225607
 20
22.4018799388
 10
-14.8606787628
 20
22.4255030697
 10
-14.8531767686
 20
22.4490436903
 10
-14.8478646886
 20
22.4721253851
 10
-14.8445974587
 20
22.4951245697
 10
-14.8433750788
 20
22.518041244
  0
LWPOLYLINE
  5
224
100
AcDbEntity
  8
C_COPERCHIO
100
AcDbPolyline
 62
250
  6
CONTINUOUS
 90
13
 70
0
 10
-15.190729774
 20
23.8468500797
 10
-15.2130370798
 20
23.8334841826
 10
-15.2350837693
 20
23.8167645333
 10
-15.25649972
 20
23.7968994981
 10
-15.2769569049
 20
23.7741052295
 10
-15.2960372458
 20
23.7487538129
 10
-15.3132765385
 20
23.7214185284
 10
-15.3283528635
 20
23.6926253546
 10
-15.3410494819
 20
23.6628059345
 10
-15.3511489739
 20
23.6324743167
 10
-15.3584826958
 20
23.6021465824
 10
-15.3629308505
 20
23.5723313453
 10
-15.3644212906
 20
23.5435309454
  0
LWPOLYLINE
  5
225
100
AcDbEntity
  8
C_COPERCHIO
100
AcDbPolyline
 62
250
  6
CONTINUOUS
 90
12
 70
0
 10
-13.9028224224
 20
23.2028964039
 10
-13.9251297281
 20
23.1895305068
 10
-13.9471764177
 20
23.1728108574
 10
-13.9685923683
 20
23.1529458223
 10
-13.9890495532
 20
23.1301515536
 10
-14.0081298942
 20
23.104800137
 10
-14.0253691868
 20
23.0774648526
 10
-14.0404455119
 20
23.0486716787
 10
-14.0531421302
 20
23.0188522587
 10
-14.0632416222
 20
22.9885206408
 10
-14.0705753442
 20
22.9581929066
 10
-14.0750234988
 20
22.9283776694
  0
LWPOLYLINE
  5
226
100
AcDbEntity
  8
C_COPERCHIO
100
AcDbPolyline
 62
7
  6
CONTINUOUS
 90
19
 70
0
 10
-19.3419730481
 20
19.8625843596
 10
-19.3658743224
 20
19.8483212277
 10
-19.4565547359
 20
19.788110449
 10
-19.5436777137
 20
19.7206297365
 10
-19.6270788978
 20
19.6463278885
 10
-19.706589259
 20
19.5656623665
 10
-19.7818690744
 20
19.4791951273
 10
-19.852720265
 20
19.3873543289
 10
-19.9188849274
 20
19.2905906375
 10
-19.9798654624
 20
19.1896860811
 10
-20.0354285623
 20
19.0851334461
 10
-20.0852969185
 20
18.9774032644
 10
-20.1290337466
 20
18.8673937319
 10
-20.1664136955
 20
18.7556193385
 10
-20.197169267
 20
18.6425596874
 10
-20.2209887637
 20
18.5290040508
 10
-20.2376222486
 20
18.4154547387
 10
-20.2468272279
 20
18.3022811352
 10
-20.2478513314
 20
18.2768132869
  0
LWPOLYLINE
  5
227
100
AcDbEntity
  8
C_COPERCHIO
100
AcDbPolyline
 62
250
  6
CONTINUOUS
 90
7
 70
0
 10
-11.5800680578
 20
23.9752113411
 10
-11.5595670419
 20
23.9872681389
 10
-11.5421713656
 20
24.0006169903
 10
-11.5282321229
 20
24.0150633196
 10
-11.5180347697
 20
24.0304218279
 10
-11.5118642571
 20
24.0464169126
 10
-11.5099030079
 20
24.0620436374
  0
LINE
  5
228
100
AcDbEntity
  8
C_COPERCHIO
100
AcDbLine
 62
7
  6
CONTINUOUS
 10
-19.3421651304
 20
19.8624839379
 11
-14.84616907
 21
22.4840614428
  0
LINE
  5
229
100
AcDbEntity
  8
C_COPERCHIO
100
AcDbLine
 62
250
  6
CONTINUOUS
 10
-19.1088110844
 20
19.8537165439
 11
-14.9629822164
 21
22.2711145028
  0
LINE
  5
22A
100
AcDbEntity
  8
C_COPERCHIO
100
AcDbLine
 62
7
  6
CONTINUOUS
 10
-15.3063505504
 20
23.8519395108
 11
-13.7388591012
 21
24.6976371086
  0
LINE
  5
22B
100
AcDbEntity
  8
C_COPERCHIO
100
AcDbLine
 62
250
  6
CONTINUOUS
 10
-15.190729774
 20
23.8468500797
 11
-13.6244790279
 21
24.6918782897
  0
LINE
  5
22C
100
AcDbEntity
  8
C_COPERCHIO
100
AcDbLine
 62
250
  6
CONTINUOUS
 10
-12.2809222957
 20
24.0200999236
 11
-13.9028224224
 21
23.2028964039
  0
LINE
  5
22D
100
AcDbEntity
  8
C_COPERCHIO
100
AcDbLine
 62
250
  6
CONTINUOUS
 10
-12.1041725244
 20
23.715251662
 11
-13.726072651
 21
22.8980481422
  0
LINE
  5
22E
100
AcDbEntity
  8
C_COPERCHIO
100
AcDbLine
 62
7
  6
CONTINUOUS
 10
-13.7388597784
 20
24.6976367432
 11
-13.7336529672
 21
24.7002405146
  0
LINE
  5
22F
100
AcDbEntity
  8
C_COPERCHIO
100
AcDbLine
 62
250
  6
CONTINUOUS
 10
-11.7568178292
 20
24.2800596028
 11
-12.2809222957
 21
24.0200999236
  0
LINE
  5
230
100
AcDbEntity
  8
C_COPERCHIO
100
AcDbLine
 62
250
  6
CONTINUOUS
 10
-11.5800680578
 20
23.9752113411
 11
-12.1041725244
 21
23.715251662
  0
LWPOLYLINE
  5
231
100
AcDbEntity
  8
C_COPERCHIO
100
AcDbPolyline
 62
250
  6
CONTINUOUS
 90
7
 70
0
 10
-15.3063505504
 20
23.8519395108
 10
-15.2995503772
 20
23.8552635205
 10
-15.2802177918
 20
23.8614415125
 10
-15.2593018666
 20
23.8636938364
 10
-15.2371603405
 20
23.8619819692
 10
-15.2141719143
 20
23.8563351901
 10
-15.190729774
 20
23.8468500797
  0
LWPOLYLINE
  5
232
100
AcDbEntity
  8
C_COPERCHIO
100
AcDbPolyline
 62
250
  6
CONTINUOUS
 90
8
 70
0
 10
-19.3419780124
 20
19.8625928921
 10
-19.3165736881
 20
19.8747887135
 10
-19.2860666278
 20
19.8836806348
 10
-19.2534172812
 20
19.8876137183
 10
-19.2189829462
 20
19.8865449223
 10
-19.1831404543
 20
19.8804859429
 10
-19.1462820473
 20
19.8695030865
 10
-19.1088110844
 20
19.8537165439
  0
LINE
  5
233
100
AcDbEntity
  8
C_COPERCHIO
100
AcDbLine
 62
7
  6
CONTINUOUS
 10
-13.733651715
 20
24.7002411899
 11
-13.1896578214
 21
24.9514755973
  0
LINE
  5
234
100
AcDbEntity
  8
C_COPERCHIO
100
AcDbLine
 62
250
  6
CONTINUOUS
 10
-13.6244790279
 20
24.6918782897
 11
-13.0817529652
 21
24.9425271708
  0
LWPOLYLINE
  5
235
100
AcDbEntity
  8
C_COPERCHIO
100
AcDbPolyline
 62
250
  6
CONTINUOUS
 90
13
 70
0
 10
-13.726072651
 20
22.8980481422
 10
-13.7501862466
 20
22.8877976342
 10
-13.7768839493
 20
22.8790997961
 10
-13.805776608
 20
22.8721301747
 10
-13.8364936246
 20
22.8670314981
 10
-13.8684837939
 20
22.8639462419
 10
-13.9010043411
 20
22.8629672228
 10
-13.9334353103
 20
22.8641063823
 10
-13.9652960104
 20
22.867340114
 10
-13.9960380643
 20
22.872611649
 10
-14.0251402982
 20
22.879829044
 10
-14.0521165405
 20
22.8888690105
 10
-14.0765139389
 20
22.8995772696
  0
LWPOLYLINE
  5
236
100
AcDbEntity
  8
C_COPERCHIO
100
AcDbPolyline
 62
7
  6
CONTINUOUS
 90
3
 70
0
 10
-13.7336529672
 20
24.7002405146
 10
-13.7128588236
 20
24.7070670038
 10
-13.6921198254
 20
24.7092231811
  0
LWPOLYLINE
  5
237
100
AcDbEntity
  8
C_COPERCHIO
100
AcDbPolyline
 62
250
  6
CONTINUOUS
 90
6
 70
0
 10
-13.1896578214
 20
24.9514755973
 10
-13.1689836441
 20
24.958247273
 10
-13.148434428
 20
24.9603162424
 10
-13.1267974832
 20
24.9583520845
 10
-13.1044428805
 20
24.9523883937
 10
-13.0817529652
 20
24.9425271708
  0
LINE
  5
238
100
AcDbEntity
  8
C_COPERCHIO
100
AcDbLine
 62
7
  6
CONTINUOUS
 10
-12.1041725244
 20
22.11307169
 11
-13.3197058493
 21
21.4494763192
  0
LINE
  5
239
100
AcDbEntity
  8
C_COPERCHIO
100
AcDbLine
 62
7
  6
CONTINUOUS
 10
-4.26244329
 20
25.1241864832
 11
-10.6848464919
 21
22.0953989253
  0
LINE
  5
23A
100
AcDbEntity
  8
C_COPERCHIO
100
AcDbLine
 62
250
  6
CONTINUOUS
 10
-3.7916550822
 20
24.4066407533
 11
-3.8148944495
 21
24.3985353522
  0
LWPOLYLINE
  5
23B
100
AcDbEntity
  8
C_COPERCHIO
100
AcDbPolyline
 62
7
  6
CONTINUOUS
 90
3
 70
0
 10
1.8458966131
 20
-24.1045155597
 10
1.8503579982
 20
-24.1039634983
 10
1.8530600768
 20
-24.104477142
  0
LWPOLYLINE
  5
23C
100
AcDbEntity
  8
C_COPERCHIO
100
AcDbPolyline
 62
7
  6
CONTINUOUS
 90
12
 70
0
 10
-4.884095665
 20
-25.6858314028
 10
-4.8352645788
 20
-25.708501269
 10
-4.7587897117
 20
-25.7371532445
 10
-4.6792528666
 20
-25.7589243846
 10
-4.5970788385
 20
-25.7735714651
 10
-4.5124398597
 20
-25.7808825143
 10
-4.4258049832
 20
-25.7806121481
 10
-4.3376829682
 20
-25.772594527
 10
-4.2481546579
 20
-25.7566171948
 10
-4.1574744377
 20
-25.7324217992
 10
-4.0662197719
 20
-25.6998955655
 10
-4.0488119777
 20
-25.6927480046
  0
LINE
  5
23D
100
AcDbEntity
  8
C_COPERCHIO
100
AcDbLine
 62
7
  6
CONTINUOUS
 10
-19.716960661
 20
-18.2694009536
 11
-4.8830622963
 21
-25.686350136
  0
LINE
  5
23E
100
AcDbEntity
  8
C_COPERCHIO
100
AcDbLine
 62
250
  6
CONTINUOUS
 10
-20.1013770944
 20
-17.5133274796
 11
-5.2765310168
 21
-24.9257505184
  0
LINE
  5
23F
100
AcDbEntity
  8
C_COPERCHIO
100
AcDbLine
 62
7
  6
CONTINUOUS
 10
-4.8841386433
 20
-25.6858105551
 11
-4.8830625018
 21
-25.6863500332
  0
LWPOLYLINE
  5
240
100
AcDbEntity
  8
C_COPERCHIO
100
AcDbPolyline
 62
250
  6
CONTINUOUS
 90
13
 70
0
 10
-19.716960661
 20
-18.2694009536
 10
-19.7730066183
 20
-18.2371356046
 10
-19.824825251
 20
-18.1987163313
 10
-19.8728432529
 20
-18.1539873218
 10
-19.9168267355
 20
-18.1031584594
 10
-19.9565440848
 20
-18.0464875501
 10
-19.9917937178
 20
-17.9842652924
 10
-20.0223976259
 20
-17.9168102147
 10
-20.0482076927
 20
-17.8444510987
 10
-20.0691030307
 20
-17.7675343616
 10
-20.0849803149
 20
-17.6864356451
 10
-20.0957566162
 20
-17.6015601467
 10
-20.1013770944
 20
-17.5133274796
  0
LWPOLYLINE
  5
241
100
AcDbEntity
  8
C_COPERCHIO
100
AcDbPolyline
 62
250
  6
CONTINUOUS
 90
6
 70
0
 10
-14.8599626913
 20
22.3873754246
 10
-14.876367309
 20
22.3580011239
 10
-14.8954417408
 20
22.330966208
 10
-14.9166443235
 20
22.3070383966
 10
-14.9393729597
 20
22.2868971758
 10
-14.9629822164
 20
22.2711145028
  0
LINE
  5
242
100
AcDbEntity
  8
C_COPERCHIO
100
AcDbLine
 62
7
  6
CONTINUOUS
 10
-11.5800680578
 20
23.3874492971
 11
-12.1041725244
 21
22.7389047149
  0
LWPOLYLINE
  5
243
100
AcDbEntity
  8
C_COPERCHIO
100
AcDbPolyline
 62
250
  6
CONTINUOUS
 90
13
 70
0
 10
-9.5901864407
 20
21.4882146578
 10
-9.6084182533
 20
21.4772596776
 10
-9.6263037
 20
21.4636109076
 10
-9.6435435092
 20
21.4474967285
 10
-9.6598492124
 20
21.4291867737
 10
-9.6749479715
 20
21.4089874182
 10
-9.6885871435
 20
21.3872366513
 10
-9.7005385085
 20
21.364298422
 10
-9.7106020878
 20
21.3405565485
 10
-9.718609491
 20
21.3164082962
 10
-9.7244267324
 20
21.2922577303
 10
-9.7279564741
 20
21.2685089547
 10
-9.7291396539
 20
21.2455593504
  0
LWPOLYLINE
  5
244
100
AcDbEntity
  8
C_COPERCHIO
100
AcDbPolyline
 62
250
  6
CONTINUOUS
 90
6
 70
0
 10
-9.5938563464
 20
21.7029352435
 10
-9.6090307317
 20
21.6944078826
 10
-9.6229853264
 20
21.6849390852
 10
-9.6357201307
 20
21.6745288513
 10
-9.6475485063
 20
21.6630494263
 10
-9.6581570913
 20
21.6506285648
  0
LWPOLYLINE
  5
245
100
AcDbEntity
  8
C_COPERCHIO
100
AcDbPolyline
 62
7
  6
CONTINUOUS
 90
11
 70
0
 10
-9.6863715258
 20
21.7069964686
 10
-9.6955186788
 20
21.7019329486
 10
-9.7324486881
 20
21.6785564531
 10
-9.7654913979
 20
21.6526308202
 10
-9.7945977545
 20
21.6241961384
 10
-9.8196208886
 20
21.5933636938
 10
-9.8403705022
 20
21.5602790918
 10
-9.8565298416
 20
21.5253044015
 10
-9.867775729
 20
21.4892152043
 10
-9.8740628186
 20
21.4526819516
 10
-9.8755835019
 20
21.4236442297
  0
LINE
  5
246
100
AcDbEntity
  8
C_COPERCHIO
100
AcDbLine
 62
7
  6
CONTINUOUS
 10
-9.3319156584
 20
21.8982338481
 11
-9.686352966
 21
21.7070067893
  0
LINE
  5
247
100
AcDbEntity
  8
C_COPERCHIO
100
AcDbLine
 62
250
  6
CONTINUOUS
 10
-9.2404115997
 20
21.893626793
 11
-9.5938563464
 21
21.7029352435
  0
LINE
  5
248
100
AcDbEntity
  8
C_COPERCHIO
100
AcDbLine
 62
7
  6
CONTINUOUS
 10
-9.3277507512
 20
21.9003165729
 11
-9.3319162001
 21
21.8982335558
  0
LINE
  5
249
100
AcDbEntity
  8
C_COPERCHIO
100
AcDbLine
 62
7
  6
CONTINUOUS
 10
-3.4359440974
 20
24.1873583758
 11
-8.0383085326
 21
21.9845655109
  0
LINE
  5
24A
100
AcDbEntity
  8
C_COPERCHIO
100
AcDbLine
 62
7
  6
CONTINUOUS
 10
-3.3597347602
 20
23.0113982758
 11
-3.7249571673
 21
22.8365947973
  0
LINE
  5
24B
100
AcDbEntity
  8
C_COPERCHIO
100
AcDbLine
 62
7
  6
CONTINUOUS
 10
-1.3084533963
 20
23.6471915364
 11
-3.3714037767
 21
22.659818102
  0
LINE
  5
24C
100
AcDbEntity
  8
C_COPERCHIO
100
AcDbLine
 62
7
  6
CONTINUOUS
 10
-3.7249571673
 20
22.3377043752
 11
-4.4320639485
 21
21.9992675143
  0
LINE
  5
24D
100
AcDbEntity
  8
C_COPERCHIO
100
AcDbLine
 62
7
  6
CONTINUOUS
 10
-3.9245871027
 20
24.3956766781
 11
-9.3277497495
 21
21.9003171132
  0
LINE
  5
24E
100
AcDbEntity
  8
C_COPERCHIO
100
AcDbLine
 62
250
  6
CONTINUOUS
 10
-3.8382632185
 20
24.3885179364
 11
-9.2404115997
 21
21.893626793
  0
LINE
  5
24F
100
AcDbEntity
  8
C_CORPO
100
AcDbLine
 62
7
  6
CONTINUOUS
 10
-0.8899857997
 20
23.677757508
 11
3.6753757722
 21
25.7861927728
  0
LINE
  5
250
100
AcDbEntity
  8
C_CORPO
100
AcDbLine
 62
250
  6
CONTINUOUS
 10
3.6753757722
 20
25.7861927728
 11
3.6786745189
 21
25.7876743619
  0
LINE
  5
251
100
AcDbEntity
  8
C_COPERCHIO
100
AcDbLine
 62
250
  6
CONTINUOUS
 10
-3.8148944495
 20
24.3985353522
 11
-3.8382632185
 21
24.3885179364
  0
LWPOLYLINE
  5
252
100
AcDbEntity
  8
C_CORPO
100
AcDbPolyline
 62
250
  6
CONTINUOUS
 90
25
 70
0
 10
3.6786745189
 20
25.7876743619
 10
3.6932603413
 20
25.7938919537
 10
3.7090356136
 20
25.7997916864
 10
3.7251036138
 20
25.8049919344
 10
3.7414521445
 20
25.80948875
 10
3.7580687955
 20
25.8132787194
 10
3.7749409528
 20
25.8163589654
 10
3.7920558085
 20
25.8187271496
 10
3.8094003707
 20
25.8203814741
 10
3.8269614727
 20
25.8213206831
 10
3.8447257837
 20
25.8215440633
 10
3.8626798187
 20
25.8210514452
 10
3.8808099484
 20
25.8198432025
 10
3.8991024103
 20
25.8179202525
 10
3.9175433181
 20
25.8152840547
 10
3.9361186731
 20
25.8119366104
 10
3.9548143742
 20
25.8078804605
 10
3.9736162296
 20
25.8031186841
 10
3.9925099664
 20
25.7976548959
 10
4.0114812429
 20
25.7914932433
 10
4.0305156571
 20
25.7846384038
 10
4.0495987579
 20
25.7770955817
 10
4.0687160584
 20
25.7688705035
 10
4.0878530472
 20
25.7599694127
 10
4.8150398413
 20
25.3963767445
  0
LINE
  5
253
100
AcDbEntity
  8
C_COPERCHIO
100
AcDbLine
 62
7
  6
CONTINUOUS
 10
1.7842501066
 20
-24.0986770261
 11
1.26014564
 21
-23.9928585067
  0
LINE
  5
254
100
AcDbEntity
  8
C_COPERCHIO
100
AcDbLine
 62
7
  6
CONTINUOUS
 10
-0.6472224781
 20
-25.8519420029
 11
-1.9351298298
 21
-25.207988327
  0
LINE
  5
255
100
AcDbEntity
  8
C_COPERCHIO
100
AcDbLine
 62
250
  6
CONTINUOUS
 10
-0.7121957745
 20
-25.7167235528
 11
-2.0001031262
 21
-25.0727698769
  0
LINE
  5
256
100
AcDbEntity
  8
C_COPERCHIO
100
AcDbLine
 62
250
  6
CONTINUOUS
 10
-0.7121957745
 20
-25.3994547524
 11
-1.9160604808
 21
-24.7975223993
  0
LINE
  5
257
100
AcDbEntity
  8
C_COPERCHIO
100
AcDbLine
 62
250
  6
CONTINUOUS
 10
-0.4707143179
 20
-25.244307133
 11
-1.6161033906
 21
-24.6716125967
  0
LINE
  5
258
100
AcDbEntity
  8
C_COPERCHIO
100
AcDbLine
 62
7
  6
CONTINUOUS
 10
-0.4677395306
 20
-24.1895760932
 11
0.1809715761
 21
-24.5139316465
  0
LWPOLYLINE
  5
259
100
AcDbEntity
  8
C_COPERCHIO
100
AcDbPolyline
 62
250
  6
CONTINUOUS
 90
8
 70
0
 10
-1.9351298298
 20
-25.207988327
 10
-1.9489583741
 20
-25.1995127078
 10
-1.9640346991
 20
-25.185795859
 10
-1.9767313175
 20
-25.1686730573
 10
-1.9868308094
 20
-25.1484409314
 10
-1.9941645314
 20
-25.1254469191
 10
-1.9986126861
 20
-25.1000798367
 10
-2.0001031262
 20
-25.0727698769
  0
LWPOLYLINE
  5
25A
100
AcDbEntity
  8
C_COPERCHIO
100
AcDbPolyline
 62
250
  6
CONTINUOUS
 90
8
 70
0
 10
-0.6473779652
 20
-25.8518640789
 10
-0.6610510224
 20
-25.8434663837
 10
-0.6761273474
 20
-25.8297495348
 10
-0.6888239658
 20
-25.8126267332
 10
-0.6989234578
 20
-25.7923946073
 10
-0.7062571797
 20
-25.769400595
 10
-0.7107053344
 20
-25.7440335125
 10
-0.7121957745
 20
-25.7167235528
  0
LWPOLYLINE
  5
25B
100
AcDbEntity
  8
C_COPERCHIO
100
AcDbPolyline
 62
250
  6
CONTINUOUS
 90
7
 70
0
 10
-20.2478395653
 20
-17.3357198644
 10
-20.2431255746
 20
-17.3672270878
 10
-20.2300705492
 20
-17.4001923531
 10
-20.2089510889
 20
-17.4317972311
 10
-20.1801205857
 20
-17.4615128772
 10
-20.1440614606
 20
-17.4888420592
 10
-20.1013770912
 20
-17.5133274778
  0
LWPOLYLINE
  5
25C
100
AcDbEntity
  8
C_COPERCHIO
100
AcDbPolyline
 62
7
  6
CONTINUOUS
 90
14
 70
0
 10
-20.2478303502
 20
-17.3357195542
 10
-20.246452603
 20
-17.3669587618
 10
-20.2367052646
 20
-17.4735690153
 10
-20.2194921921
 20
-17.5755029312
 10
-20.1950794805
 20
-17.6723703072
 10
-20.1637144662
 20
-17.764075408
 10
-20.1255401609
 20
-17.850577563
 10
-20.080794194
 20
-17.9315154423
 10
-20.0297762829
 20
-18.0065453358
 10
-19.9727351077
 20
-18.0753936256
 10
-19.9100786987
 20
-18.1375982906
 10
-19.8423316691
 20
-18.1927376277
 10
-19.7700545103
 20
-18.2404790798
 10
-19.7159909933
 20
-18.269884244
  0
LWPOLYLINE
  5
25D
100
AcDbEntity
  8
C_COPERCHIO
100
AcDbPolyline
 62
250
  6
CONTINUOUS
 90
10
 70
0
 10
-20.1013770944
 20
-17.5133274796
 10
-20.2174702874
 20
-13.6177290008
 10
-20.3045488206
 20
-9.7059505924
 10
-20.3626052892
 20
-5.7783192097
 10
-20.391634757
 20
-1.8351631506
 10
-20.3916347569
 20
2.1231880898
 10
-20.3626052891
 20
6.0964038474
 10
-20.3045488205
 20
10.0841521601
 10
-20.2174702873
 20
14.0860997936
 10
-20.1013770944
 20
18.101912388
  0
LWPOLYLINE
  5
25E
100
AcDbEntity
  8
C_COPERCHIO
100
AcDbPolyline
 62
250
  6
CONTINUOUS
 90
8
 70
0
 10
-20.2478640405
 20
18.2768136936
 10
-20.2478846695
 20
18.2711410477
 10
-20.2431113897
 20
18.2404384246
 10
-20.2300555995
 20
18.2100754405
 10
-20.2089357532
 20
18.1805601408
 10
-20.1801052362
 20
18.1523863865
 10
-20.1440464517
 20
18.1260255918
 10
-20.1013627488
 20
18.1019188353
  0
LWPOLYLINE
  5
25F
100
AcDbEntity
  8
C_COPERCHIO
100
AcDbPolyline
 62
7
  6
CONTINUOUS
 90
10
 70
0
 10
-20.2478595124
 20
18.2769559464
 10
-20.3624795147
 20
14.3189867916
 10
-20.450278879
 20
10.2999252877
 10
-20.5088092542
 20
6.2951400439
 10
-20.5380628963
 20
2.3050135247
 10
-20.5380381075
 20
-1.6701378273
 10
-20.5087343355
 20
-5.6300222937
 10
-20.450152215
 20
-9.5743242914
 10
-20.3622984242
 20
-13.5026684351
 10
-20.2478408925
 20
-17.3356805264
  0
LWPOLYLINE
  5
260
100
AcDbEntity
  8
C_COPERCHIO
100
AcDbPolyline
 62
250
  6
CONTINUOUS
 90
19
 70
0
 10
-20.1013770944
 20
18.101912388
 10
-20.0957570452
 20
18.1958959666
 10
-20.0849814662
 20
18.2917977442
 10
-20.0691048869
 20
18.3891434125
 10
-20.048209642
 20
18.4874491461
 10
-20.0223989257
 20
18.5862318047
 10
-19.9917945914
 20
18.6850114068
 10
-19.956545854
 20
18.7833105908
 10
-19.916830356
 20
18.8806333697
 10
-19.8728486005
 20
18.9764762542
 10
-19.8248315784
 20
19.0703518782
 10
-19.7730134391
 20
19.1618143143
 10
-19.7176287876
 20
19.2504357053
 10
-19.6589429293
 20
19.3357931378
 10
-19.5972570283
 20
19.4174480209
 10
-19.5328830976
 20
19.4949732348
 10
-19.4661527427
 20
19.5679794308
 10
-19.3973922556
 20
19.6361181106
 10
-19.3269244221
 20
19.6990577509
  0
LWPOLYLINE
  5
261
100
AcDbEntity
  8
C_COPERCHIO
100
AcDbPolyline
 62
250
  6
CONTINUOUS
 90
6
 70
0
 10
-9.6581570913
 20
21.6506285648
 10
-9.6666058006
 20
21.6376495306
 10
-9.6727096009
 20
21.6240557614
 10
-9.6766535254
 20
21.6099038195
 10
-9.6780525884
 20
21.5957466552
 10
-9.6766851888
 20
21.5815839661
  0
LINE
  5
262
100
AcDbEntity
  8
C_CORPO
100
AcDbLine
 62
7
  6
CONTINUOUS
 10
5.8009314662
 20
24.9104798686
 11
1.5968039437
 21
22.7714042447
  0
LWPOLYLINE
  5
263
100
AcDbEntity
  8
C_CORPO
100
AcDbPolyline
 62
7
  6
CONTINUOUS
 90
7
 70
0
 10
-4.3614724078
 20
21.3744902085
 10
-4.3686130621
 20
21.3709727492
 10
-4.3763274095
 20
21.3666484177
 10
-4.38379323
 20
21.3618937889
 10
-4.3910052181
 20
21.3567102969
 10
-4.3979514327
 20
21.3511047898
 10
-4.3994781545
 20
21.3497851319
  0
LINE
  5
264
100
AcDbEntity
  8
C_CORPO
100
AcDbLine
 62
250
  6
CONTINUOUS
 10
-4.0888234427
 20
21.383062503
 11
-4.042577295
 21
21.4053821665
  0
LINE
  5
265
100
AcDbEntity
  8
C_COPERCHIO
100
AcDbLine
 62
7
  6
CONTINUOUS
 10
-3.3714037767
 20
22.1609276799
 11
-1.9032084441
 21
22.8636382646
  0
LINE
  5
266
100
AcDbEntity
  8
C_CORPO
100
AcDbLine
 62
7
  6
CONTINUOUS
 10
4.8150398413
 20
25.3963767445
 11
1.242308249
 21
23.6911067154
  0
LINE
  5
267
100
AcDbEntity
  8
C_CORPO
100
AcDbLine
 62
250
  6
CONTINUOUS
 10
-4.042577295
 20
21.4053821665
 11
-4.0309300487
 21
21.4109354152
  0
LINE
  5
268
100
AcDbEntity
  8
C_CORPO
100
AcDbLine
 62
250
  6
CONTINUOUS
 10
-4.0991303409
 20
21.3781563315
 11
-4.0888234427
 21
21.383062503
  0
LINE
  5
269
100
AcDbEntity
  8
C_CORPO
100
AcDbLine
 62
250
  6
CONTINUOUS
 10
-4.0309300487
 20
21.4109354152
 11
-4.0219585681
 21
21.4151630354
  0
LINE
  5
26A
100
AcDbEntity
  8
C_CORPO
100
AcDbLine
 62
250
  6
CONTINUOUS
 10
-4.1067646221
 20
21.3745703911
 11
-4.0991303409
 21
21.3781563315
  0
LINE
  5
26B
100
AcDbEntity
  8
C_CORPO
100
AcDbLine
 62
250
  6
CONTINUOUS
 10
-4.0219585681
 20
21.4151630354
 11
-4.01276908
 21
21.4194391435
  0
LINE
  5
26C
100
AcDbEntity
  8
C_CORPO
100
AcDbLine
 62
250
  6
CONTINUOUS
 10
-0.7149706186
 20
23.5234554583
 11
4.1069951972
 21
25.7503990665
  0
LINE
  5
26D
100
AcDbEntity
  8
C_CORPO
100
AcDbLine
 62
250
  6
CONTINUOUS
 10
-4.1492750839
 20
21.3549250346
 11
-4.1067646221
 21
21.3745703911
  0
LINE
  5
26E
100
AcDbEntity
  8
C_CORPO
100
AcDbLine
 62
7
  6
CONTINUOUS
 10
-4.3103347928
 20
21.3980667446
 11
-4.3614721496
 21
21.3744903278
  0
LINE
  5
26F
100
AcDbEntity
  8
C_CORPO
100
AcDbLine
 62
250
  6
CONTINUOUS
 10
-4.01276908
 20
21.4194391435
 11
-4.003348108
 21
21.4237586544
  0
LINE
  5
270
100
AcDbEntity
  8
C_CORPO
100
AcDbLine
 62
250
  6
CONTINUOUS
 10
-4.003348108
 20
21.4237586544
 11
-3.9969325579
 21
21.4266598554
  0
LWPOLYLINE
  5
271
100
AcDbEntity
  8
C_CORPO
100
AcDbPolyline
 62
250
  6
CONTINUOUS
 90
22
 70
0
 10
-4.3276258006
 20
21.3901216934
 10
-4.3244974876
 20
21.3915316253
 10
-4.3152490251
 20
21.3953055194
 10
-4.3057894109
 20
21.3985879749
 10
-4.2961287706
 20
21.4013754781
 10
-4.2862774449
 20
21.4036650453
 10
-4.276245979
 20
21.4054542257
 10
-4.2660451105
 20
21.4067411041
 10
-4.2556857586
 20
21.4075243032
 10
-4.245179012
 20
21.4078029844
 10
-4.2345361172
 20
21.4075768496
 10
-4.2237684666
 20
21.4068461407
 10
-4.2128875859
 20
21.40561164
 10
-4.2019051221
 20
21.4038746688
 10
-4.190832831
 20
21.4016370864
 10
-4.1796825645
 20
21.398901288
 10
-4.1684662578
 20
21.3956702019
 10
-4.1571959172
 20
21.3919472868
 10
-4.1458836064
 20
21.3877365277
 10
-4.1345414342
 20
21.3830424319
 10
-4.1231815415
 20
21.3778700238
 10
-4.111816088
 20
21.3722248403
  0
LINE
  5
272
100
AcDbEntity
  8
C_CORPO
100
AcDbLine
 62
250
  6
CONTINUOUS
 10
-3.9969325579
 20
21.4266598554
 11
-3.9904038433
 21
21.4295761671
  0
LINE
  5
273
100
AcDbEntity
  8
C_CORPO
100
AcDbLine
 62
250
  6
CONTINUOUS
 10
-3.9904038433
 20
21.4295761671
 11
-3.9837589101
 21
21.4325064129
  0
LINE
  5
274
100
AcDbEntity
  8
C_CORPO
100
AcDbLine
 62
250
  6
CONTINUOUS
 10
-3.9837589101
 20
21.4325064129
 11
-3.9769929069
 21
21.4354489275
  0
LINE
  5
275
100
AcDbEntity
  8
C_CORPO
100
AcDbLine
 62
250
  6
CONTINUOUS
 10
-3.9769929069
 20
21.4354489275
 11
-3.9701018778
 21
21.4384015922
  0
LINE
  5
276
100
AcDbEntity
  8
C_CORPO
100
AcDbLine
 62
250
  6
CONTINUOUS
 10
-3.9701018778
 20
21.4384015922
 11
-3.9630831597
 21
21.4413629971
  0
LINE
  5
277
100
AcDbEntity
  8
C_CORPO
100
AcDbLine
 62
250
  6
CONTINUOUS
 10
-3.9630831597
 20
21.4413629971
 11
-3.9559328473
 21
21.4443309741
  0
LINE
  5
278
100
AcDbEntity
  8
C_CORPO
100
AcDbLine
 62
250
  6
CONTINUOUS
 10
-3.9559328473
 20
21.4443309741
 11
-3.9486470564
 21
21.4473032952
  0
LINE
  5
279
100
AcDbEntity
  8
C_CORPO
100
AcDbLine
 62
250
  6
CONTINUOUS
 10
-3.9486470564
 20
21.4473032952
 11
-3.9412232462
 21
21.4502784429
  0
LINE
  5
27A
100
AcDbEntity
  8
C_CORPO
100
AcDbLine
 62
250
  6
CONTINUOUS
 10
-3.9412232462
 20
21.4502784429
 11
-3.933657685
 21
21.4532540918
  0
LINE
  5
27B
100
AcDbEntity
  8
C_CORPO
100
AcDbLine
 62
250
  6
CONTINUOUS
 10
-3.933657685
 20
21.4532540918
 11
-3.9259466367
 21
21.4562278574
  0
LINE
  5
27C
100
AcDbEntity
  8
C_CORPO
100
AcDbLine
 62
250
  6
CONTINUOUS
 10
-3.9259466367
 20
21.4562278574
 11
-3.9180876336
 21
21.4591981249
  0
LINE
  5
27D
100
AcDbEntity
  8
C_CORPO
100
AcDbLine
 62
250
  6
CONTINUOUS
 10
-3.9180876336
 20
21.4591981249
 11
-3.9100769268
 21
21.4621624668
  0
LINE
  5
27E
100
AcDbEntity
  8
C_CORPO
100
AcDbLine
 62
250
  6
CONTINUOUS
 10
-3.9100769268
 20
21.4621624668
 11
-3.90191128
 21
21.4651181926
  0
LINE
  5
27F
100
AcDbEntity
  8
C_CORPO
100
AcDbLine
 62
250
  6
CONTINUOUS
 10
-3.90191128
 20
21.4651181926
 11
-3.8935886002
 21
21.4680634733
  0
LINE
  5
280
100
AcDbEntity
  8
C_CORPO
100
AcDbLine
 62
250
  6
CONTINUOUS
 10
-3.8935886002
 20
21.4680634733
 11
-3.885105868
 21
21.4709955006
  0
LINE
  5
281
100
AcDbEntity
  8
C_CORPO
100
AcDbLine
 62
250
  6
CONTINUOUS
 10
-3.885105868
 20
21.4709955006
 11
-3.8764603956
 21
21.4739112902
  0
LWPOLYLINE
  5
282
100
AcDbEntity
  8
C_CONTATTI
100
AcDbPolyline
 62
7
  6
CONTINUOUS
 90
3
 70
0
 10
2.59238547
 20
22.0774277034
 10
2.5891929971
 20
22.0763771699
 10
2.5803447868
 20
22.0726099223
  0
LINE
  5
283
100
AcDbEntity
  8
C_CORPO
100
AcDbLine
 62
250
  6
CONTINUOUS
 10
-3.8764603956
 20
21.4739112902
 11
-3.8676504927
 21
21.476808808
  0
LINE
  5
284
100
AcDbEntity
  8
C_CORPO
100
AcDbLine
 62
250
  6
CONTINUOUS
 10
-3.8676504927
 20
21.476808808
 11
-3.8586737527
 21
21.4796849394
  0
LINE
  5
285
100
AcDbEntity
  8
C_CORPO
100
AcDbLine
 62
250
  6
CONTINUOUS
 10
-3.8586737527
 20
21.4796849394
 11
-3.8495282765
 21
21.4825363585
  0
LINE
  5
286
100
AcDbEntity
  8
C_CORPO
100
AcDbLine
 62
250
  6
CONTINUOUS
 10
-3.8495282765
 20
21.4825363585
 11
-3.8402127613
 21
21.4853608494
  0
LWPOLYLINE
  5
287
100
AcDbEntity
  8
C_CORPO
100
AcDbPolyline
 62
250
  6
CONTINUOUS
 90
3
 70
0
 10
-3.8402127613
 20
21.4853608494
 10
-3.8307251922
 20
21.4881550898
 10
-3.8259164146
 20
21.4895396789
  0
LWPOLYLINE
  5
288
100
AcDbEntity
  8
C_CONTATTI
100
AcDbPolyline
 62
250
  6
CONTINUOUS
 90
46
 70
0
 10
2.6739813859
 20
22.0663139139
 10
2.7131388528
 20
22.0777441286
 10
2.7538449459
 20
22.0890328977
 10
2.7960996651
 20
22.1001802213
 10
2.839759439
 20
22.1112029705
 10
2.8849678391
 20
22.1220842741
 10
2.9321555799
 20
22.1327735188
 10
2.9813190783
 20
22.1432933703
 10
3.0324619174
 20
22.1536211629
 10
3.0860255616
 20
22.1636382858
 10
3.1420138703
 20
22.1733734725
 10
3.200422984
 20
22.1827979896
 10
3.2616827886
 20
22.1917070258
 10
3.3258073419
 20
22.2001350746
 10
3.392782586
 20
22.2080476425
 10
3.4629962342
 20
22.2151364377
 10
3.5364802211
 20
22.2214422927
 10
3.613202612
 20
22.226924375
 10
3.6934553162
 20
22.2311518955
 10
3.7773662561
 20
22.2341664667
 10
3.8648075094
 20
22.2359264761
 10
3.9556872176
 20
22.2358762971
 10
4.0501579088
 20
22.2340381506
 10
4.1480670549
 20
22.2303898159
 10
4.2488652138
 20
22.2243090033
 10
4.352809967
 20
22.215770493
 10
4.459643733
 20
22.204799505
 10
4.5680443249
 20
22.1908494098
 10
4.6783592111
 20
22.1737858183
 10
4.7902409232
 20
22.1537431196
 10
4.9013248698
 20
22.1305778518
 10
5.0116153357
 20
22.1041196598
 10
5.1211080361
 20
22.0745388987
 10
5.2274255242
 20
22.0422031724
 10
5.3301954886
 20
22.0070772315
 10
5.4297902407
 20
21.9691963255
 10
5.5249492673
 20
21.9290338063
 10
5.6154112091
 20
21.8866450339
 10
5.7014374255
 20
21.8419746484
 10
5.7825514818
 20
21.7953299219
 10
5.8587474565
 20
21.7467049963
 10
5.9300312711
 20
21.6961057296
 10
5.995944255
 20
21.6438569689
 10
6.0564933391
 20
21.5899154246
 10
6.1116715925
 20
21.5343243863
 10
6.1152881804
 20
21.5301610094
  0
LINE
  5
289
100
AcDbEntity
  8
C_COPERCHIO
100
AcDbLine
 62
250
  6
CONTINUOUS
 10
0.1665587793
 20
-23.9771780053
 11
0.1809715761
 21
-23.9842623744
  0
LINE
  5
28A
100
AcDbEntity
  8
C_COPERCHIO
100
AcDbLine
 62
250
  6
CONTINUOUS
 10
0.1080058802
 20
-23.9479015557
 11
0.1665587793
 21
-23.9771780053
  0
LINE
  5
28B
100
AcDbEntity
  8
C_COPERCHIO
100
AcDbLine
 62
250
  6
CONTINUOUS
 10
1.8458966131
 20
-24.1045155597
 11
1.26014564
 21
-23.8116400732
  0
LINE
  5
28C
100
AcDbEntity
  8
C_COPERCHIO
100
AcDbLine
 62
7
  6
CONTINUOUS
 10
1.8530600768
 20
-24.104477142
 11
1.26014564
 21
-23.8080199236
  0
LWPOLYLINE
  5
28D
100
AcDbEntity
  8
C_COPERCHIO
100
AcDbPolyline
 62
250
  6
CONTINUOUS
 90
7
 70
0
 10
-18.4669371073
 20
0.3056758935
 10
-18.4623826577
 20
1.6512008844
 10
-18.4544259567
 20
2.9984032343
 10
-18.4430670807
 20
4.3472699786
 10
-18.4283061392
 20
5.697788137
 10
-18.410143274
 20
7.0499447132
 10
-18.3885786601
 20
8.4037266952
  0
LWPOLYLINE
  5
28E
100
AcDbEntity
  8
C_COPERCHIO
100
AcDbPolyline
 62
250
  6
CONTINUOUS
 90
7
 70
0
 10
-18.0420538966
 20
0.5651171802
 10
-18.0372841389
 20
1.8233971323
 10
-18.0295386206
 20
3.0831054579
 10
-18.0188173417
 20
4.3442421573
 10
-18.0051203021
 20
5.6068072303
 10
-17.9884475018
 20
6.8708006769
 10
-17.9698963175
 20
8.0655484004
  0
LWPOLYLINE
  5
28F
100
AcDbEntity
  8
C_COPERCHIO
100
AcDbPolyline
 62
250
  6
CONTINUOUS
 90
4
 70
0
 10
-14.8309702782
 20
22.4810042928
 10
-14.8369372448
 20
22.4497628275
 10
-14.8466937354
 20
22.418254958
 10
-14.8599626913
 20
22.3873754246
  0
LINE
  5
290
100
AcDbEntity
  8
C_CORPO
100
AcDbLine
 62
7
  6
CONTINUOUS
 10
-5.2609096781
 20
20.5958660837
 11
-4.3994798911
 21
21.3497843008
  0
LINE
  5
291
100
AcDbEntity
  8
C_CORPO
100
AcDbLine
 62
250
  6
CONTINUOUS
 10
-5.1070071233
 20
20.5189148063
 11
-4.1508800087
 21
21.3557115603
  0
LWPOLYLINE
  5
292
100
AcDbEntity
  8
C_COPERCHIO
100
AcDbPolyline
 62
250
  6
CONTINUOUS
 90
13
 70
0
 10
-4.0872038544
 20
18.7367233647
 10
-4.1054356474
 20
18.7257683983
 10
-4.1233210795
 20
18.7121196445
 10
-4.1405608794
 20
18.6960054815
 10
-4.156866579
 20
18.6776955405
 10
-4.1719653393
 20
18.6574961945
 10
-4.1856045164
 20
18.6357454324
 10
-4.1975558893
 20
18.612807202
 10
-4.2076194781
 20
18.5890653212
 10
-4.2156268903
 20
18.5649170572
 10
-4.2214441393
 20
18.5407664761
 10
-4.2249738861
 20
18.5170176821
 10
-4.2261570676
 20
18.4940680572
  0
LWPOLYLINE
  5
293
100
AcDbEntity
  8
C_CORPO
100
AcDbPolyline
 62
7
  6
CONTINUOUS
 90
25
 70
0
 10
1.5968039437
 20
22.7714042447
 10
1.5554509044
 20
22.7499019975
 10
1.5150405239
 20
22.7279562602
 10
1.4755918225
 20
22.7055773619
 10
1.4371233673
 20
22.6827758358
 10
1.3996532647
 20
22.659562414
 10
1.3631991506
 20
22.6359480224
 10
1.327778183
 20
22.6119437757
 10
1.2934070336
 20
22.5875609718
 10
1.2601018799
 20
22.5628110873
 10
1.2278783978
 20
22.5377057711
 10
1.1967517539
 20
22.5122568397
 10
1.1667365988
 20
22.4864762711
 10
1.1378470597
 20
22.4603761996
 10
1.1100967341
 20
22.4339689098
 10
1.0834986834
 20
22.4072668307
 10
1.0580654265
 20
22.3802825305
 10
1.0338089342
 20
22.3530287097
 10
1.0107406232
 20
22.3255181961
 10
0.9888713514
 20
22.2977639381
 10
0.9682114117
 20
22.2697789989
 10
0.9487705285
 20
22.2415765502
 10
0.9305578519
 20
22.213169866
 10
0.9135819542
 20
22.1845723168
 10
0.9072969599
 20
22.1730759756
  0
LINE
  5
294
100
AcDbEntity
  8
C_CONTATTI
100
AcDbLine
 62
7
  6
CONTINUOUS
 10
2.0570265871
 20
21.8081586707
 11
1.849514158
 21
21.7019673765
  0
LINE
  5
295
100
AcDbEntity
  8
C_CONTATTI
100
AcDbLine
 62
7
  6
CONTINUOUS
 10
2.2389440926
 20
21.9007339342
 11
2.0570265871
 21
21.8081586707
  0
LINE
  5
296
100
AcDbEntity
  8
C_CONTATTI
100
AcDbLine
 62
7
  6
CONTINUOUS
 10
2.4133679088
 20
21.9888849576
 11
2.2389440926
 21
21.9007339342
  0
LINE
  5
297
100
AcDbEntity
  8
C_COPERCHIO
100
AcDbLine
 62
250
  6
CONTINUOUS
 10
-3.6666743089
 20
18.7393442247
 11
-3.3006715594
 21
18.9237567728
  0
LINE
  5
298
100
AcDbEntity
  8
C_COPERCHIO
100
AcDbLine
 62
250
  6
CONTINUOUS
 10
-3.5252744918
 20
18.4954656154
 11
-3.1592717424
 21
18.6798781635
  0
LINE
  5
299
100
AcDbEntity
  8
C_CONTATTI
100
AcDbLine
 62
7
  6
CONTINUOUS
 10
2.5803447868
 20
22.0726099223
 11
2.4133679088
 21
21.9888849576
  0
LINE
  5
29A
100
AcDbEntity
  8
C_CORPO
100
AcDbLine
 62
7
  6
CONTINUOUS
 10
5.8192407083
 20
24.475446443
 11
1.5968039437
 21
22.3725825135
  0
LINE
  5
29B
100
AcDbEntity
  8
C_COPERCHIO
100
AcDbLine
 62
250
  6
CONTINUOUS
 10
-3.3006715594
 20
18.9237567728
 11
1.9161224921
 21
21.5113250811
  0
LINE
  5
29C
100
AcDbEntity
  8
C_COPERCHIO
100
AcDbLine
 62
250
  6
CONTINUOUS
 10
-3.1592717424
 20
18.6798781635
 11
2.0575223092
 21
21.2674464718
  0
LINE
  5
29D
100
AcDbEntity
  8
C_COPERCHIO
100
AcDbLine
 62
7
  6
CONTINUOUS
 10
-3.0885610642
 20
19.5096917768
 11
1.5138033709
 21
21.7124846417
  0
LINE
  5
29E
100
AcDbEntity
  8
C_COPERCHIO
100
AcDbLine
 62
7
  6
CONTINUOUS
 10
2.9341872908
 20
21.5258711929
 11
2.2446839227
 21
21.1958597127
  0
LWPOLYLINE
  5
29F
100
AcDbEntity
  8
C_COPERCHIO
100
AcDbPolyline
 62
250
  6
CONTINUOUS
 90
7
 70
0
 10
2.0575223092
 20
21.2674464718
 10
2.0711253286
 20
21.2736492358
 10
2.0845890817
 20
21.2786801162
 10
2.0979135687
 20
21.2825391129
 10
2.1110987895
 20
21.285226226
 10
2.1241447441
 20
21.2867414554
 10
2.1370514325
 20
21.2870848012
  0
LWPOLYLINE
  5
2A0
100
AcDbEntity
  8
C_COPERCHIO
100
AcDbPolyline
 62
7
  6
CONTINUOUS
 90
7
 70
0
 10
1.5138033709
 20
21.7124846417
 10
1.526980226
 20
21.7184609668
 10
1.5399669615
 20
21.7237955599
 10
1.5527635774
 20
21.7284884207
 10
1.5653700739
 20
21.7325395494
 10
1.5777864507
 20
21.735948946
 10
1.5900127081
 20
21.7387166104
  0
LWPOLYLINE
  5
2A1
100
AcDbEntity
  8
C_COPERCHIO
100
AcDbPolyline
 62
250
  6
CONTINUOUS
 90
7
 70
0
 10
1.9161224921
 20
21.5113250811
 10
1.9390034731
 20
21.5215863909
 10
1.9617617879
 20
21.5299323183
 10
1.9842988095
 20
21.5363276841
 10
2.0065168828
 20
21.5407456702
 10
2.0283197432
 20
21.5431679328
 10
2.0496129292
 20
21.5435846809
  0
LWPOLYLINE
  5
2A2
100
AcDbEntity
  8
C_COPERCHIO
100
AcDbPolyline
 62
7
  6
CONTINUOUS
 90
9
 70
0
 10
2.9341872908
 20
21.5258711929
 10
2.9945957579
 20
21.5517727048
 10
3.0540867759
 20
21.5708529027
 10
3.1126603447
 20
21.5831117866
 10
3.1710022492
 20
21.5885689358
 10
3.2284267045
 20
21.5872047709
 10
3.2828763567
 20
21.5789605543
 10
3.333917457
 20
21.5636353315
 10
3.3690121854
 20
21.5482585112
  0
LWPOLYLINE
  5
2A3
100
AcDbEntity
  8
C_COPERCHIO
100
AcDbPolyline
 62
250
  6
CONTINUOUS
 90
7
 70
0
 10
-15.0526627443
 20
-10.2280337783
 10
-15.0588226635
 20
-9.797857958
 10
-15.0646285755
 20
-9.3674978014
 10
-15.0700804745
 20
-8.9369537394
 10
-15.0751783551
 20
-8.5062262032
 10
-15.0799222123
 20
-8.0753156241
 10
-15.0843120411
 20
-7.6442224337
  0
LINE
  5
2A4
100
AcDbEntity
  8
C_COPERCHIO
100
AcDbLine
 62
7
  6
CONTINUOUS
 10
-17.1246306708
 20
7.642915577
 11
-17.1246306708
 21
1.0238287931
  0
LINE
  5
2A5
100
AcDbEntity
  8
C_COPERCHIO
100
AcDbLine
 62
7
  6
CONTINUOUS
 10
-15.4376445953
 20
23.1615448837
 11
-15.4376445953
 21
23.6319192931
  0
LINE
  5
2A6
100
AcDbEntity
  8
C_COPERCHIO
100
AcDbLine
 62
250
  6
CONTINUOUS
 10
-15.3644212906
 20
23.226262145
 11
-15.3644212906
 21
23.5435309454
  0
LWPOLYLINE
  5
2A7
100
AcDbEntity
  8
C_COPERCHIO
100
AcDbPolyline
 62
7
  6
CONTINUOUS
 90
10
 70
0
 10
-16.5744833543
 20
-0.3940339849
 10
-16.5722479596
 20
0.3185487334
 10
-16.5680777333
 20
1.2160910147
 10
-16.5623954705
 20
2.1143757354
 10
-16.5552011989
 20
3.0133990633
 10
-16.5464949525
 20
3.9131571502
 10
-16.5362767724
 20
4.8136461326
 10
-16.5245467056
 20
5.7148621562
 10
-16.5113048057
 20
6.616801376
 10
-16.4997280959
 20
7.332617519
  0
LWPOLYLINE
  5
2A8
100
AcDbEntity
  8
C_COPERCHIO
100
AcDbPolyline
 62
250
  6
CONTINUOUS
 90
7
 70
0
 10
-16.4086796728
 20
7.4137772015
 10
-16.4302442867
 20
6.0599952195
 10
-16.4484071518
 20
4.7078386433
 10
-16.4631680934
 20
3.3573204849
 10
-16.4745269694
 20
2.0084537406
 10
-16.4824836704
 20
0.6612513908
 10
-16.4870381199
 20
-0.6842736002
  0
LINE
  5
2A9
100
AcDbEntity
  8
C_COPERCHIO
100
AcDbLine
 62
250
  6
CONTINUOUS
 10
-14.0750234988
 20
22.9283776694
 11
-14.0765139389
 21
22.8995772696
  0
LINE
  5
2AA
100
AcDbEntity
  8
C_COPERCHIO
100
AcDbLine
 62
250
  6
CONTINUOUS
 10
-14.8289622821
 20
22.5110921791
 11
-14.8309702782
 21
22.4810042928
  0
LWPOLYLINE
  5
2AB
100
AcDbEntity
  8
C_COPERCHIO
100
AcDbPolyline
 62
7
  6
CONTINUOUS
 90
12
 70
0
 10
-16.4997295914
 20
7.3326183936
 10
-16.499666271
 20
7.3331658387
 10
-16.498173158
 20
7.3372419011
 10
-16.4946597449
 20
7.3424924519
 10
-16.4890775586
 20
7.3486806569
 10
-16.4818362584
 20
7.3558836386
 10
-16.4729646931
 20
7.3639721065
 10
-16.4624695
 20
7.3727548077
 10
-16.4507161378
 20
7.3822539747
 10
-16.4378552349
 20
7.3923808368
 10
-16.4238248633
 20
7.4029335925
 10
-16.4086796728
 20
7.4137772015
  0
LINE
  5
2AC
100
AcDbEntity
  8
C_COPERCHIO
100
AcDbLine
 62
7
  6
CONTINUOUS
 10
-3.1592717424
 20
17.640621299
 11
-3.5252744918
 21
17.44080964
  0
LINE
  5
2AD
100
AcDbEntity
  8
C_COPERCHIO
100
AcDbLine
 62
7
  6
CONTINUOUS
 10
-1.942032386
 20
17.1697804286
 11
-0.3745409367
 21
18.0154780264
  0
LINE
  5
2AE
100
AcDbEntity
  8
C_COPERCHIO
100
AcDbLine
 62
250
  6
CONTINUOUS
 10
-1.8264116096
 20
17.1646909975
 11
-0.2601608634
 21
18.0097192075
  0
LINE
  5
2AF
100
AcDbEntity
  8
C_COPERCHIO
100
AcDbLine
 62
7
  6
CONTINUOUS
 10
-0.3745402377
 20
18.0154783491
 11
-0.3693322602
 21
18.0180827037
  0
LINE
  5
2B0
100
AcDbEntity
  8
C_CONTATTI
100
AcDbLine
 62
7
  6
CONTINUOUS
 10
5.1421618688
 20
21.8858127764
 11
4.4351929286
 21
21.5323283064
  0
LINE
  5
2B1
100
AcDbEntity
  8
C_CONTATTI
100
AcDbLine
 62
7
  6
CONTINUOUS
 10
5.6371366156
 20
21.638325403
 11
4.9301676755
 21
21.284840933
  0
LINE
  5
2B2
100
AcDbEntity
  8
C_COPERCHIO
100
AcDbLine
 62
7
  6
CONTINUOUS
 10
-3.1592717424
 20
17.640621299
 11
2.1370514325
 21
20.2676366387
  0
LWPOLYLINE
  5
2B3
100
AcDbEntity
  8
C_COPERCHIO
100
AcDbPolyline
 62
250
  6
CONTINUOUS
 90
7
 70
0
 10
-1.942032386
 20
17.1697804286
 10
-1.9352322128
 20
17.1731044383
 10
-1.9158996274
 20
17.1792824303
 10
-1.8949837022
 20
17.1815347542
 10
-1.8728421761
 20
17.179822887
 10
-1.8498537499
 20
17.1741761079
 10
-1.8264116096
 20
17.1646909975
  0
LINE
  5
2B4
100
AcDbEntity
  8
C_COPERCHIO
100
AcDbLine
 62
7
  6
CONTINUOUS
 10
5.8881771844
 20
20.0488762461
 11
1.2913033297
 21
17.8159489658
  0
LINE
  5
2B5
100
AcDbEntity
  8
C_CORPO
100
AcDbLine
 62
7
  6
CONTINUOUS
 10
9.3971947583
 20
23.105299286
 11
5.8341051047
 21
21.3952082876
  0
LINE
  5
2B6
100
AcDbEntity
  8
C_COPERCHIO
100
AcDbLine
 62
7
  6
CONTINUOUS
 10
-0.3693335506
 20
18.0180821077
 11
0.174660343
 21
18.2693165151
  0
LINE
  5
2B7
100
AcDbEntity
  8
C_COPERCHIO
100
AcDbLine
 62
250
  6
CONTINUOUS
 10
-0.2601608634
 20
18.0097192075
 11
0.2825651993
 21
18.2603680885
  0
LWPOLYLINE
  5
2B8
100
AcDbEntity
  8
C_COPERCHIO
100
AcDbPolyline
 62
250
  6
CONTINUOUS
 90
7
 70
0
 10
0.2825651993
 20
18.2603680885
 10
0.304872505
 20
18.2693094972
 10
0.3269191945
 20
18.2746365374
 10
0.3483351452
 20
18.276187453
 10
0.3687923301
 20
18.2738503692
 10
0.3878726711
 20
18.2675792935
 10
0.3912834194
 20
18.2659589209
  0
LWPOLYLINE
  5
2B9
100
AcDbEntity
  8
C_COPERCHIO
100
AcDbPolyline
 62
250
  6
CONTINUOUS
 90
7
 70
0
 10
1.6075003352
 20
17.5979005205
 10
1.6302901011
 20
17.6069965611
 10
1.6526469095
 20
17.6122924071
 10
1.6741966709
 20
17.6136994446
 10
1.6945788
 20
17.6111941302
 10
1.7134522488
 20
17.6048183846
 10
1.7162185554
 20
17.603491353
  0
LWPOLYLINE
  5
2BA
100
AcDbEntity
  8
C_COPERCHIO
100
AcDbPolyline
 62
7
  6
CONTINUOUS
 90
3
 70
0
 10
-0.3693322602
 20
18.0180827037
 10
-0.348535283
 20
18.0249106097
 10
-0.3278016609
 20
18.0270640989
  0
LWPOLYLINE
  5
2BB
100
AcDbEntity
  8
C_COPERCHIO
100
AcDbPolyline
 62
250
  6
CONTINUOUS
 90
6
 70
0
 10
0.174660343
 20
18.2693165151
 10
0.1953345204
 20
18.2760881908
 10
0.2158837364
 20
18.2781571602
 10
0.2375206812
 20
18.2761930023
 10
0.2598752839
 20
18.2702293115
 10
0.2825651993
 20
18.2603680885
  0
LINE
  5
2BC
100
AcDbEntity
  8
C_COPERCHIO
100
AcDbLine
 62
250
  6
CONTINUOUS
 10
-10.8100220572
 20
-12.3493541218
 11
-15.0526627443
 21
-10.2280337783
  0
LINE
  5
2BD
100
AcDbEntity
  8
C_COPERCHIO
100
AcDbLine
 62
250
  6
CONTINUOUS
 10
-10.9038510415
 20
-11.8258806539
 11
-14.6284327038
 21
-9.9635898228
  0
LWPOLYLINE
  5
2BE
100
AcDbEntity
  8
C_COPERCHIO
100
AcDbPolyline
 62
7
  6
CONTINUOUS
 90
11
 70
0
 10
-10.8100220572
 20
-12.3493541218
 10
-10.8252812267
 20
-12.3225924613
 10
-10.8393722383
 20
-12.2950282311
 10
-10.8522461547
 20
-12.2667472814
 10
-10.8639686423
 20
-12.2378060717
 10
-10.8743982464
 20
-12.2083585193
 10
-10.883181489
 20
-12.1786553968
 10
-10.8903158533
 20
-12.1488820407
 10
-10.8957772775
 20
-12.1191407627
 10
-10.8991634966
 20
-12.0895847641
 10
-10.9005029433
 20
-12.0619739106
  0
LWPOLYLINE
  5
2BF
100
AcDbEntity
  8
C_COPERCHIO
100
AcDbPolyline
 62
7
  6
CONTINUOUS
 90
3
 70
0
 10
-15.4376548016
 20
23.1615624869
 10
-15.4376323641
 20
23.1612869835
 10
-15.4362895119
 20
23.1594644538
  0
LWPOLYLINE
  5
2C0
100
AcDbEntity
  8
C_COPERCHIO
100
AcDbPolyline
 62
250
  6
CONTINUOUS
 90
7
 70
0
 10
-14.6321711752
 20
-9.9654590585
 10
-14.6375354206
 20
-9.5784640621
 10
-14.6426134235
 20
-9.1913122194
 10
-14.6474051841
 20
-8.8040035305
 10
-14.6519107021
 20
-8.4165379953
 10
-14.6561299778
 20
-8.0289156139
 10
-14.660063011
 20
-7.6411363862
  0
LINE
  5
2C1
100
AcDbEntity
  8
C_COPERCHIO
100
AcDbLine
 62
7
  6
CONTINUOUS
 10
-14.8433750788
 20
22.518041244
 11
-14.8433750788
 21
22.8630072373
  0
LINE
  5
2C2
100
AcDbEntity
  8
C_COPERCHIO
100
AcDbLine
 62
250
  6
CONTINUOUS
 10
-14.0765139389
 20
22.8995772696
 11
-14.0765139389
 21
22.5823084692
  0
LINE
  5
2C3
100
AcDbEntity
  8
C_COPERCHIO
100
AcDbLine
 62
7
  6
CONTINUOUS
 10
-13.7658734602
 20
-7.1940416108
 11
-13.7658734602
 21
-9.532310201
  0
LINE
  5
2C4
100
AcDbEntity
  8
C_COPERCHIO
100
AcDbLine
 62
250
  6
CONTINUOUS
 10
-13.726072651
 20
22.8980481422
 11
-13.726072651
 21
22.3329608926
  0
LINE
  5
2C5
100
AcDbEntity
  8
C_COPERCHIO
100
AcDbLine
 62
7
  6
CONTINUOUS
 10
-13.1833465883
 20
21.6882843323
 11
-13.1833465883
 21
22.2178315751
  0
LWPOLYLINE
  5
2C6
100
AcDbEntity
  8
C_COPERCHIO
100
AcDbPolyline
 62
250
  6
CONTINUOUS
 90
14
 70
0
 10
-14.660063011
 20
-7.6411363862
 10
-14.6570666446
 20
-7.4794655567
 10
-14.6445302513
 20
-7.3235742349
 10
-14.6225716538
 20
-7.1742107331
 10
-14.5913584306
 20
-7.0320920661
 10
-14.551094355
 20
-6.8978773876
 10
-14.5020138382
 20
-6.7721687734
 10
-14.4444092674
 20
-6.6555585524
 10
-14.3786039161
 20
-6.5485604754
 10
-14.3049205505
 20
-6.4516040763
 10
-14.2237468891
 20
-6.3651336807
 10
-14.1355026397
 20
-6.2895353578
 10
-14.0405831398
 20
-6.2251085071
 10
-13.9740981751
 20
-6.1886505078
  0
LWPOLYLINE
  5
2C7
100
AcDbEntity
  8
C_COPERCHIO
100
AcDbPolyline
 62
250
  6
CONTINUOUS
 90
45
 70
0
 10
-15.0843120411
 20
-7.6442224337
 10
-15.0805842017
 20
-7.4637229603
 10
-15.0665976468
 20
-7.2910450209
 10
-15.0423552304
 20
-7.1261901137
 10
-15.0075948533
 20
-6.9684142604
 10
-14.962583612
 20
-6.818464063
 10
-14.9081206935
 20
-6.6785781868
 10
-14.8441011204
 20
-6.5489878933
 10
-14.7706401703
 20
-6.4294672392
 10
-14.6888716609
 20
-6.321571249
 10
-14.5987097811
 20
-6.22545753
 10
-14.5002529048
 20
-6.1409749187
 10
-14.3949139062
 20
-6.0692166929
 10
-14.2826225385
 20
-6.0103396403
 10
-14.1634618772
 20
-5.9641935236
 10
-14.0390762812
 20
-5.931411842
 10
-13.9093808776
 20
-5.9121646983
 10
-13.7744716147
 20
-5.9062876265
 10
-13.636264415
 20
-5.9139124372
 10
-13.4947015034
 20
-5.935237178
 10
-13.3498482107
 20
-5.9700676387
 10
-13.2038044918
 20
-6.0179469233
 10
-13.0565205979
 20
-6.0790985705
 10
-12.9080489696
 20
-6.1533004074
 10
-12.760641643
 20
-6.2394263604
 10
-12.6143481134
 20
-6.337647148
 10
-12.4691162037
 20
-6.447790691
 10
-12.3270442378
 20
-6.5682161084
 10
-12.1881887967
 20
-6.699055978
 10
-12.0524857524
 20
-6.840173889
 10
-11.9218517361
 20
-6.989525156
 10
-11.7963705339
 20
-7.1471835835
 10
-11.6759472871
 20
-7.3130697315
 10
-11.5622309861
 20
-7.4849092096
 10
-11.4552894668
 20
-7.6627781973
 10
-11.3550420534
 20
-7.8465939592
 10
-11.2629164621
 20
-8.0338444862
 10
-11.1789970137
 20
-8.2245905399
 10
-11.1031868043
 20
-8.4187649047
 10
-11.0366444902
 20
-8.6136650159
 10
-10.9794734556
 20
-8.8093975606
 10
-10.9315600001
 20
-9.0058505256
 10
-10.8937413748
 20
-9.1999954489
 10
-10.8662959229
 20
-9.3908224428
 10
-10.8489402149
 20
-9.5793387258
  0
LWPOLYLINE
  5
2C8
100
AcDbEntity
  8
C_COPERCHIO
100
AcDbPolyline
 62
7
  6
CONTINUOUS
 90
10
 70
0
 10
-2.0001031262
 20
16.5441030628
 10
-2.016169498
 20
16.5325078433
 10
-2.0300507686
 20
16.5218785591
 10
-2.0418499418
 20
16.5123200526
 10
-2.0517397117
 20
16.503979472
 10
-2.0597825393
 20
16.4968381846
 10
-2.0658913055
 20
16.4907517862
 10
-2.0701474385
 20
16.4857639245
 10
-2.0726557666
 20
16.481921035
 10
-2.0733366366
 20
16.4794034044
  0
LWPOLYLINE
  5
2C9
100
AcDbEntity
  8
C_COPERCHIO
100
AcDbPolyline
 62
250
  6
CONTINUOUS
 90
7
 70
0
 10
1.7842501066
 20
17.2930522589
 10
1.8052412158
 20
17.305438444
 10
1.8228488237
 20
17.3190841995
 10
1.8367729539
 20
17.3337601202
 10
1.8467761332
 20
17.3492204191
 10
1.8526848219
 20
17.365203162
 10
1.8544151565
 20
17.3798845552
  0
LINE
  5
2CA
100
AcDbEntity
  8
C_COPERCHIO
100
AcDbLine
 62
250
  6
CONTINUOUS
 10
0.032538845
 20
14.7733539721
 11
-4.2605926236
 21
12.4296073135
  0
LINE
  5
2CB
100
AcDbEntity
  8
C_COPERCHIO
100
AcDbLine
 62
7
  6
CONTINUOUS
 10
1.26014564
 20
15.4306597777
 11
0.0446934573
 21
14.7671087049
  0
LINE
  5
2CC
100
AcDbEntity
  8
C_COPERCHIO
100
AcDbLine
 62
7
  6
CONTINUOUS
 10
6.864175976
 20
18.8325148914
 11
1.5060235197
 21
15.9999639195
  0
LINE
  5
2CD
100
AcDbEntity
  8
C_CORPO
100
AcDbLine
 62
7
  6
CONTINUOUS
 10
1.9535649747
 20
15.776193192
 11
7.5556220386
 21
18.7190096257
  0
LINE
  5
2CE
100
AcDbEntity
  8
C_COPERCHIO
100
AcDbLine
 62
7
  6
CONTINUOUS
 10
6.864175976
 20
19.1278635053
 11
1.5621321262
 21
16.4304339181
  0
LINE
  5
2CF
100
AcDbEntity
  8
C_COPERCHIO
100
AcDbLine
 62
250
  6
CONTINUOUS
 10
1.0833958687
 20
17.3379408414
 11
-0.5385042579
 21
16.5207373216
  0
LINE
  5
2D0
100
AcDbEntity
  8
C_COPERCHIO
100
AcDbLine
 62
250
  6
CONTINUOUS
 10
1.26014564
 20
17.0330925797
 11
-0.3617544866
 21
16.21588906
  0
LINE
  5
2D1
100
AcDbEntity
  8
C_COPERCHIO
100
AcDbLine
 62
250
  6
CONTINUOUS
 10
1.6075003352
 20
17.5979005205
 11
1.0833958687
 21
17.3379408414
  0
LINE
  5
2D2
100
AcDbEntity
  8
C_COPERCHIO
100
AcDbLine
 62
250
  6
CONTINUOUS
 10
1.7842501066
 20
17.2930522589
 11
1.26014564
 21
17.0330925797
  0
LINE
  5
2D3
100
AcDbEntity
  8
C_CORPO
100
AcDbLine
 62
7
  6
CONTINUOUS
 10
12.5932144343
 20
21.5072894479
 11
9.0204828421
 21
19.8020194189
  0
LINE
  5
2D4
100
AcDbEntity
  8
C_COPERCHIO
100
AcDbLine
 62
250
  6
CONTINUOUS
 10
1.9670908611
 20
15.7694302488
 11
1.2554714139
 21
15.4407808058
  0
LWPOLYLINE
  5
2D5
100
AcDbEntity
  8
C_COPERCHIO
100
AcDbPolyline
 62
250
  6
CONTINUOUS
 90
13
 70
0
 10
-0.3617544866
 20
16.21588906
 10
-0.3858680822
 20
16.205638552
 10
-0.4125657849
 20
16.1969407139
 10
-0.4414584436
 20
16.1899710925
 10
-0.4721754602
 20
16.1848724159
 10
-0.5041656295
 20
16.1817871596
 10
-0.5366861767
 20
16.1808081406
 10
-0.5691171458
 20
16.1819473001
 10
-0.6009778459
 20
16.1851810318
 10
-0.6317198999
 20
16.1904525668
 10
-0.6608221337
 20
16.1976699618
 10
-0.687798376
 20
16.2067099282
 10
-0.7121957745
 20
16.2174181874
  0
LWPOLYLINE
  5
2D6
100
AcDbEntity
  8
C_CONTATTI
100
AcDbPolyline
 62
7
  6
CONTINUOUS
 90
3
 70
0
 10
10.370560063
 20
18.1883404069
 10
10.3673675901
 20
18.1872898734
 10
10.3585193798
 20
18.1835226258
  0
LWPOLYLINE
  5
2D7
100
AcDbEntity
  8
C_CONTATTI
100
AcDbPolyline
 62
250
  6
CONTINUOUS
 90
46
 70
0
 10
10.452155979
 20
18.1772266174
 10
10.4913134459
 20
18.1886568321
 10
10.532019539
 20
18.1999456012
 10
10.5742742582
 20
18.2110929248
 10
10.6179340321
 20
18.222115674
 10
10.6631424321
 20
18.2329969776
 10
10.7103301729
 20
18.2436862223
 10
10.7594936713
 20
18.2542060738
 10
10.8106365105
 20
18.2645338663
 10
10.8642001547
 20
18.2745509892
 10
10.9201884633
 20
18.284286176
 10
10.978597577
 20
18.2937106931
 10
11.0398573817
 20
18.3026197293
 10
11.1039819349
 20
18.3110477781
 10
11.1709571791
 20
18.318960346
 10
11.2411708273
 20
18.3260491412
 10
11.3146548141
 20
18.3323549962
 10
11.391377205
 20
18.3378370785
 10
11.4716299092
 20
18.342064599
 10
11.5555408492
 20
18.3450791702
 10
11.6429821025
 20
18.3468391795
 10
11.7338618107
 20
18.3467890005
 10
11.8283325018
 20
18.3449508541
 10
11.926241648
 20
18.3413025193
 10
12.0270398068
 20
18.3352217068
 10
12.13098456
 20
18.3266831965
 10
12.237818326
 20
18.3157122085
 10
12.346218918
 20
18.3017621133
 10
12.4565338041
 20
18.2846985218
 10
12.5684155163
 20
18.264655823
 10
12.6794994628
 20
18.2414905553
 10
12.7897899288
 20
18.2150323632
 10
12.8992826292
 20
18.1854516021
 10
13.0056001172
 20
18.1531158758
 10
13.1083700816
 20
18.117989935
 10
13.2079648337
 20
18.0801090289
 10
13.3031238604
 20
18.0399465098
 10
13.3935858022
 20
17.9975577374
 10
13.4796120186
 20
17.9528873519
 10
13.5607260749
 20
17.9062426254
 10
13.6369220496
 20
17.8576176997
 10
13.7082058641
 20
17.8070184331
 10
13.7741188481
 20
17.7547696724
 10
13.8346679321
 20
17.7008281281
 10
13.8898461856
 20
17.6452370898
 10
13.8934627734
 20
17.6410737128
  0
LWPOLYLINE
  5
2D8
100
AcDbEntity
  8
C_COPERCHIO
100
AcDbPolyline
 62
250
  6
CONTINUOUS
 90
13
 70
0
 10
-15.0843120411
 20
-7.6442224337
 10
-15.0548072385
 20
-7.6571335228
 10
-15.0221779242
 20
-7.6679558146
 10
-14.9869825074
 20
-7.6765041816
 10
-14.9498233009
 20
-7.6826324107
 10
-14.9113361543
 20
-7.6862357132
 10
-14.8721795676
 20
-7.6872525014
 10
-14.8330235472
 20
-7.6856654357
 10
-14.7945380256
 20
-7.6815017278
 10
-14.7573813467
 20
-7.6748326482
 10
-14.7221891912
 20
-7.6657723221
 10
-14.6895636905
 20
-7.6544758014
 10
-14.6600630109
 20
-7.6411363889
  0
LINE
  5
2D9
100
AcDbEntity
  8
C_COPERCHIO
100
AcDbLine
 62
7
  6
CONTINUOUS
 10
-13.7658734602
 20
-9.532310201
 11
-10.9152202445
 21
-10.9576368089
  0
LWPOLYLINE
  5
2DA
100
AcDbEntity
  8
C_COPERCHIO
100
AcDbPolyline
 62
250
  6
CONTINUOUS
 90
7
 70
0
 10
-10.841671354
 20
-9.7655427773
 10
-10.8675454503
 20
-9.7507645729
 10
-10.8893474531
 20
-9.7343716057
 10
-10.906704324
 20
-9.7166443638
 10
-10.9193190822
 20
-9.6978861654
 10
-10.9269758856
 20
-9.6784179684
 10
-10.9295400403
 20
-9.6593216725
  0
LWPOLYLINE
  5
2DB
100
AcDbEntity
  8
C_COPERCHIO
100
AcDbPolyline
 62
7
  6
CONTINUOUS
 90
11
 70
0
 10
-16.4870381199
 20
-0.6842736002
 10
-16.501794588
 20
-0.657718682
 10
-16.5154396757
 20
-0.6303423098
 10
-16.5279199574
 20
-0.6022266843
 10
-16.5392992183
 20
-0.5734182791
 10
-16.549427786
 20
-0.5440761869
 10
-16.5579407059
 20
-0.5144719989
 10
-16.5648343597
 20
-0.4847871583
 10
-16.5700814649
 20
-0.4551288737
 10
-16.5732722448
 20
-0.4256852062
 10
-16.5744735398
 20
-0.3940315821
  0
LWPOLYLINE
  5
2DC
100
AcDbEntity
  8
C_COPERCHIO
100
AcDbPolyline
 62
250
  6
CONTINUOUS
 90
13
 70
0
 10
-13.726072651
 20
22.8980481422
 10
-13.7279673224
 20
22.9268693646
 10
-13.7327998866
 20
22.9567355561
 10
-13.7404876893
 20
22.9871358956
 10
-13.7508992409
 20
23.0175504264
 10
-13.7638564659
 20
23.047458949
 10
-13.7791377484
 20
23.0763499183
 10
-13.7964817227
 20
23.1037291933
 10
-13.8155917435
 20
23.1291284884
 10
-13.8361409596
 20
23.1521133829
 10
-13.8577779044
 20
23.1722907512
 10
-13.8801325071
 20
23.1893154865
 10
-13.9028224224
 20
23.2028964039
  0
LWPOLYLINE
  5
2DD
100
AcDbEntity
  8
C_COPERCHIO
100
AcDbPolyline
 62
7
  6
CONTINUOUS
 90
13
 70
0
 10
-12.1041725244
 20
23.715251662
 10
-12.1056770455
 20
23.7442674569
 10
-12.110188583
 20
23.7742939626
 10
-12.1176247198
 20
23.8048204795
 10
-12.1278523851
 20
23.8353283135
 10
-12.1406955533
 20
23.8652959915
 10
-12.1559380686
 20
23.8942082252
 10
-12.1733223439
 20
23.9215688811
 10
-12.1925478762
 20
23.94691153
 10
-12.2132814982
 20
23.9698040175
 10
-12.235169524
 20
23.9898541995
 10
-12.2578439039
 20
24.0067164656
 10
-12.2809222957
 20
24.0200999236
  0
LINE
  5
2DE
100
AcDbEntity
  8
C_COPERCHIO
100
AcDbLine
 62
250
  6
CONTINUOUS
 10
-10.8489402149
 20
-9.5793387258
 11
-10.841671354
 21
-9.7655427773
  0
LWPOLYLINE
  5
2DF
100
AcDbEntity
  8
C_COPERCHIO
100
AcDbPolyline
 62
7
  6
CONTINUOUS
 90
5
 70
0
 10
-10.9005281014
 20
-12.0619803967
 10
-10.9060258678
 20
-11.6694756166
 10
-10.9098570535
 20
-11.3825549755
 10
-10.9135309022
 20
-11.0955527176
 10
-10.9170474124
 20
-10.8084689711
  0
LINE
  5
2E0
100
AcDbEntity
  8
C_COPERCHIO
100
AcDbLine
 62
7
  6
CONTINUOUS
 10
-10.9170474124
 20
-10.8084689711
 11
-10.9236084116
 21
-10.2340575286
  0
LWPOLYLINE
  5
2E1
100
AcDbEntity
  8
C_COPERCHIO
100
AcDbPolyline
 62
250
  6
CONTINUOUS
 90
7
 70
0
 10
-10.841671354
 20
-9.7655427773
 10
-10.8372815251
 20
-10.1966359677
 10
-10.832537668
 20
-10.6275465468
 10
-10.8274397874
 20
-11.058274083
 10
-10.8219878883
 20
-11.4888181449
 10
-10.8161819763
 20
-11.9191783016
 10
-10.8100220572
 20
-12.3493541218
  0
LINE
  5
2E2
100
AcDbEntity
  8
C_COPERCHIO
100
AcDbLine
 62
7
  6
CONTINUOUS
 10
-10.9236084116
 20
-10.2340575286
 11
-10.9295400403
 21
-9.6593216725
  0
LINE
  5
2E3
100
AcDbEntity
  8
C_COPERCHIO
100
AcDbLine
 62
7
  6
CONTINUOUS
 10
-12.1041725244
 20
23.715251662
 11
-12.1041725244
 21
22.11307169
  0
LINE
  5
2E4
100
AcDbEntity
  8
C_COPERCHIO
100
AcDbLine
 62
250
  6
CONTINUOUS
 10
-11.5800680578
 20
23.3874492971
 11
-11.5800680578
 21
23.9752113411
  0
LINE
  5
2E5
100
AcDbEntity
  8
C_COPERCHIO
100
AcDbLine
 62
7
  6
CONTINUOUS
 10
-11.5099030079
 20
23.5689944342
 11
-11.5099030079
 21
24.0620436374
  0
LWPOLYLINE
  5
2E6
100
AcDbEntity
  8
C_COPERCHIO
100
AcDbPolyline
 62
7
  6
CONTINUOUS
 90
5
 70
0
 10
-11.5098928022
 20
23.5690018308
 10
-11.5099152388
 20
23.566263621
 10
-11.511094498
 20
23.5435869787
 10
-11.5139601662
 20
23.5222113788
 10
-11.5184215513
 20
23.5022476619
  0
LINE
  5
2E7
100
AcDbEntity
  8
C_CONTATTI
100
AcDbLine
 62
7
  6
CONTINUOUS
 10
4.6866720091
 20
21.0599686023
 11
4.9301676755
 21
21.284840933
  0
LINE
  5
2E8
100
AcDbEntity
  8
C_COPERCHIO
100
AcDbLine
 62
7
  6
CONTINUOUS
 10
-18.4669371073
 20
0.3056758935
 11
-18.4339472526
 21
0.3289114786
  0
LWPOLYLINE
  5
2E9
100
AcDbEntity
  8
C_COPERCHIO
100
AcDbPolyline
 62
7
  6
CONTINUOUS
 90
3
 70
0
 10
-18.4339472526
 20
0.3289114786
 10
-18.4156846627
 20
0.3416556683
 10
-18.3960704153
 20
0.3549673194
  0
LWPOLYLINE
  5
2EA
100
AcDbEntity
  8
C_COPERCHIO
100
AcDbPolyline
 62
250
  6
CONTINUOUS
 90
22
 70
0
 10
-4.2605926236
 20
12.4296073135
 10
-4.3357937359
 20
12.3848890134
 10
-4.4103316361
 20
12.3341072229
 10
-4.4838418954
 20
12.2775164876
 10
-4.5559658935
 20
12.2154049296
 10
-4.6263507112
 20
12.1480784151
 10
-4.6946499995
 20
12.0758566858
 10
-4.7605369174
 20
11.9990879654
 10
-4.8236804082
 20
11.9181618772
 10
-4.8837465421
 20
11.8334945826
 10
-4.9404327164
 20
11.7455239529
 10
-4.9934750643
 20
11.6546736212
 10
-5.0426213803
 20
11.5613626441
 10
-5.0876363175
 20
11.4660363504
 10
-5.1282900822
 20
11.3691827049
 10
-5.164368163
 20
11.2712981927
 10
-5.1956912218
 20
11.1728779527
 10
-5.2221117389
 20
11.0744001946
 10
-5.2434989392
 20
10.9763404386
 10
-5.2597466541
 20
10.8791803382
 10
-5.2707755231
 20
10.7834052056
 10
-5.2765310168
 20
10.6894893492
  0
LWPOLYLINE
  5
2EB
100
AcDbEntity
  8
C_COPERCHIO
100
AcDbPolyline
 62
250
  6
CONTINUOUS
 90
22
 70
0
 10
-3.8947598836
 20
11.8266048678
 10
-3.9453568522
 20
11.7967994385
 10
-3.9951009819
 20
11.7632674218
 10
-4.0439922727
 20
11.7260088179
 10
-4.0922849501
 20
11.6847932671
 10
-4.1397247886
 20
11.639851129
 10
-4.1855491119
 20
11.5918734825
 10
-4.2297184662
 20
11.540817989
 10
-4.2722723053
 20
11.4867269871
 10
-4.312566315
 20
11.4304185713
 10
-4.3505585868
 20
11.3718700724
 10
-4.3862910291
 20
11.3111041596
 10
-4.4192450533
 20
11.2490069348
 10
-4.4493829872
 20
11.1855512118
 10
-4.4767425028
 20
11.1207641768
 10
-4.5009180275
 20
11.0556134898
 10
-4.5218613581
 20
10.9900711142
 10
-4.5396206977
 20
10.9241650865
 10
-4.5539350824
 20
10.8589471766
 10
-4.5647175242
 20
10.7947679744
 10
-4.572055011
 20
10.7312768901
 10
-4.5759475429
 20
10.6684739235
  0
LINE
  5
2EC
100
AcDbEntity
  8
C_COPERCHIO
100
AcDbLine
 62
250
  6
CONTINUOUS
 10
1.6013602626
 20
14.8270984054
 11
-3.8947598836
 21
11.8266048678
  0
LINE
  5
2ED
100
AcDbEntity
  8
C_CONTATTI
100
AcDbLine
 62
7
  6
CONTINUOUS
 10
9.7413582715
 20
17.8711275315
 11
9.5479353097
 21
17.7719262121
  0
LINE
  5
2EE
100
AcDbEntity
  8
C_CONTATTI
100
AcDbLine
 62
7
  6
CONTINUOUS
 10
9.9271161237
 20
17.9659112783
 11
9.7413582715
 21
17.8711275315
  0
LINE
  5
2EF
100
AcDbEntity
  8
C_CORPO
100
AcDbLine
 62
7
  6
CONTINUOUS
 10
9.3749785368
 20
18.8823169482
 11
13.5791060592
 21
21.0213925721
  0
LINE
  5
2F0
100
AcDbEntity
  8
C_CONTATTI
100
AcDbLine
 62
7
  6
CONTINUOUS
 10
9.0606169573
 20
17.5324893681
 11
9.1681250885
 21
17.5871465898
  0
LINE
  5
2F1
100
AcDbEntity
  8
C_CONTATTI
100
AcDbLine
 62
7
  6
CONTINUOUS
 10
10.1052556172
 20
18.056275634
 11
9.9271161237
 21
17.9659112783
  0
LINE
  5
2F2
100
AcDbEntity
  8
C_CONTATTI
100
AcDbLine
 62
7
  6
CONTINUOUS
 10
9.1681250885
 20
17.5871465898
 11
9.3426921599
 21
17.675370943
  0
LINE
  5
2F3
100
AcDbEntity
  8
C_CORPO
100
AcDbLine
 62
7
  6
CONTINUOUS
 10
8.7343482731
 20
17.9733782281
 11
9.8117265358
 21
18.5134679129
  0
LINE
  5
2F4
100
AcDbEntity
  8
C_CORPO
100
AcDbLine
 62
7
  6
CONTINUOUS
 10
11.4153757145
 20
18.7509563932
 11
9.0222534624
 21
17.5512842933
  0
LINE
  5
2F5
100
AcDbEntity
  8
C_CONTATTI
100
AcDbLine
 62
7
  6
CONTINUOUS
 10
9.3426921599
 20
17.675370943
 11
9.5099912424
 21
17.7592585571
  0
LWPOLYLINE
  5
2F6
100
AcDbEntity
  8
C_CONTATTI
100
AcDbPolyline
 62
7
  6
CONTINUOUS
 90
3
 70
0
 10
10.3585193798
 20
18.1835226258
 10
10.2759637561
 20
18.142213325
 10
10.1052556172
 20
18.056275634
  0
LINE
  5
2F7
100
AcDbEntity
  8
C_CORPO
100
AcDbLine
 62
7
  6
CONTINUOUS
 10
9.3749785368
 20
18.4834952169
 11
13.5974153014
 21
20.5863591465
  0
LINE
  5
2F8
100
AcDbEntity
  8
C_CORPO
100
AcDbLine
 62
250
  6
CONTINUOUS
 10
8.6388173082
 20
16.8507741398
 11
8.8407454645
 21
16.9488605575
  0
LINE
  5
2F9
100
AcDbEntity
  8
C_COPERCHIO
100
AcDbLine
 62
250
  6
CONTINUOUS
 10
2.3208058118
 20
15.1593622016
 11
1.6013602626
 21
14.8270984054
  0
LWPOLYLINE
  5
2FA
100
AcDbEntity
  8
C_CONTATTI
100
AcDbPolyline
 62
7
  6
CONTINUOUS
 90
10
 70
0
 10
9.5099912424
 20
17.7592585571
 10
9.5188394527
 20
17.7630258047
 10
9.5281486647
 20
17.7656758354
 10
9.5379188785
 20
17.7672086493
 10
9.5482450739
 20
17.7676240937
 10
9.5590322711
 20
17.7669223212
 10
9.56999553
 20
17.7651037899
 10
9.5810398707
 20
17.7621686523
 10
9.5922602732
 20
17.7581167559
 10
9.6036567375
 20
17.7529481007
  0
LWPOLYLINE
  5
2FB
100
AcDbEntity
  8
C_COPERCHIO
100
AcDbPolyline
 62
250
  6
CONTINUOUS
 90
13
 70
0
 10
-4.5759475429
 20
10.6684739235
 10
-4.6252422729
 20
10.6498789936
 10
-4.6795240154
 20
10.6346043922
 10
-4.7378844736
 20
10.6229057093
 10
-4.7993471016
 20
10.6149786991
 10
-4.8628834448
 20
10.6109560043
 10
-4.9274303491
 20
10.6109049367
 10
-4.9919077508
 20
10.6148263508
 10
-5.0552367491
 20
10.6226546295
 10
-5.1163576593
 20
10.6342587824
 10
-5.174247745
 20
10.6494446372
 10
-5.2279383308
 20
10.6679580887
 10
-5.2765310119
 20
10.6894893514
  0
LWPOLYLINE
  5
2FC
100
AcDbEntity
  8
C_COPERCHIO
100
AcDbPolyline
 62
7
  6
CONTINUOUS
 90
3
 70
0
 10
1.8530600768
 20
-24.104477142
 10
1.8544029256
 20
-24.1062996725
 10
1.8544253623
 20
-24.106575173
  0
LWPOLYLINE
  5
2FD
100
AcDbEntity
  8
C_COPERCHIO
100
AcDbPolyline
 62
250
  6
CONTINUOUS
 90
7
 70
0
 10
-15.4376445953
 20
23.6319192931
 10
-15.4353630652
 20
23.6150702598
 10
-15.4288956017
 20
23.5991399097
 10
-15.4183525318
 20
23.5837688827
 10
-15.4039177418
 20
23.5692177658
 10
-15.3858378089
 20
23.5557296447
 10
-15.3644212906
 20
23.5435309454
  0
LWPOLYLINE
  5
2FE
100
AcDbEntity
  8
C_COPERCHIO
100
AcDbPolyline
 62
250
  6
CONTINUOUS
 90
13
 70
0
 10
-11.5800680578
 20
23.9752113411
 10
-11.5812105042
 20
24.004408676
 10
-11.585409245
 20
24.0345917792
 10
-11.5925924663
 20
24.0652444094
 10
-11.6026373089
 20
24.0958422948
 10
-11.6153719692
 20
24.1258620996
 10
-11.6305786381
 20
24.1547903757
 10
-11.647997226
 20
24.1821323439
 10
-11.6673298114
 20
24.2074203567
 10
-11.6882457366
 20
24.2302218967
 10
-11.7103872627
 20
24.2501469743
 10
-11.7333756889
 20
24.2668547979
 10
-11.7568178292
 20
24.2800596028
  0
LINE
  5
2FF
100
AcDbEntity
  8
C_COPERCHIO
100
AcDbLine
 62
7
  6
CONTINUOUS
 10
-9.8755862633
 20
20.356485395
 11
-9.8755862633
 21
21.4236639484
  0
LINE
  5
300
100
AcDbEntity
  8
C_COPERCHIO
100
AcDbLine
 62
250
  6
CONTINUOUS
 10
-9.7291396539
 20
20.1730620054
 11
-9.7291396539
 21
21.2455593504
  0
LWPOLYLINE
  5
301
100
AcDbEntity
  8
C_COPERCHIO
100
AcDbPolyline
 62
250
  6
CONTINUOUS
 90
7
 70
0
 10
-9.4846048919
 20
-3.4468505886
 10
-9.4796125367
 20
-2.3466592428
 10
-9.4723481174
 20
-1.2453508925
 10
-9.4628116809
 20
-0.1429326152
 10
-9.4510032883
 20
0.9605885044
 10
-9.4369230155
 20
2.0652053745
 10
-9.4205709531
 20
3.1709108963
  0
LWPOLYLINE
  5
302
100
AcDbEntity
  8
C_COPERCHIO
100
AcDbPolyline
 62
250
  6
CONTINUOUS
 90
7
 70
0
 10
-9.0593652023
 20
-3.1876730005
 10
-9.0543583124
 20
-2.1748131005
 10
-9.0474246187
 20
-1.1609839967
 10
-9.0385641214
 20
-0.146185689
 10
-9.0277768202
 20
0.8695818225
 10
-9.0150627154
 20
1.8863185378
 10
-9.0014441584
 20
2.8329596625
  0
LINE
  5
303
100
AcDbEntity
  8
C_COPERCHIO
100
AcDbLine
 62
7
  6
CONTINUOUS
 10
1.26014564
 20
16.0567456327
 11
1.7842501066
 21
16.7052902148
  0
LWPOLYLINE
  5
304
100
AcDbEntity
  8
C_COPERCHIO
100
AcDbPolyline
 62
7
  6
CONTINUOUS
 90
3
 70
0
 10
-18.3960704153
 20
0.3549673194
 10
-18.3532881313
 20
0.3832017138
 10
-18.3304042283
 20
0.3979977759
  0
LWPOLYLINE
  5
305
100
AcDbEntity
  8
C_COPERCHIO
100
AcDbPolyline
 62
7
  6
CONTINUOUS
 90
3
 70
0
 10
-18.3304042283
 20
0.3979977759
 10
-18.2818375908
 20
0.4285974668
 10
-18.2563917892
 20
0.4443020294
  0
LWPOLYLINE
  5
306
100
AcDbEntity
  8
C_COPERCHIO
100
AcDbPolyline
 62
7
  6
CONTINUOUS
 90
3
 70
0
 10
-18.2563917892
 20
0.4443020294
 10
-18.2035567018
 20
0.4760455508
 10
-18.1764260772
 20
0.4919656293
  0
LINE
  5
307
100
AcDbEntity
  8
C_CONTATTI
100
AcDbLine
 62
7
  6
CONTINUOUS
 10
9.5479353097
 20
17.7719262121
 11
9.540176881
 21
17.76733974
  0
LWPOLYLINE
  5
308
100
AcDbEntity
  8
C_COPERCHIO
100
AcDbPolyline
 62
7
  6
CONTINUOUS
 90
4
 70
0
 10
-18.1764260772
 20
0.4919656293
 10
-18.0947858783
 20
0.5381605549
 10
-18.0683945228
 20
0.5522524746
 10
-18.0426737564
 20
0.5648072503
  0
LINE
  5
309
100
AcDbEntity
  8
C_CORPO
100
AcDbLine
 62
250
  6
CONTINUOUS
 10
9.1322028748
 20
16.6205115875
 11
2.3208058118
 21
13.155194346
  0
LINE
  5
30A
100
AcDbEntity
  8
C_CORPO
100
AcDbLine
 62
250
  6
CONTINUOUS
 10
9.5463533505
 20
15.1888780129
 11
2.3208058118
 21
11.5128605625
  0
LINE
  5
30B
100
AcDbEntity
  8
C_CONTATTI
100
AcDbLine
 62
7
  6
CONTINUOUS
 10
12.9203364618
 20
17.9967254799
 11
12.2133675217
 21
17.6432410099
  0
LINE
  5
30C
100
AcDbEntity
  8
C_CONTATTI
100
AcDbLine
 62
7
  6
CONTINUOUS
 10
13.4153112086
 20
17.7492381065
 11
12.7083422685
 21
17.3957536364
  0
LINE
  5
30D
100
AcDbEntity
  8
C_COPERCHIO
100
AcDbLine
 62
7
  6
CONTINUOUS
 10
-18.0426737564
 20
0.5648072503
 11
-17.1246306708
 21
1.0238287931
  0
LINE
  5
30E
100
AcDbEntity
  8
C_COPERCHIO
100
AcDbLine
 62
7
  6
CONTINUOUS
 10
-16.567632754
 20
1.2864358892
 11
-17.1087388085
 21
1.015882862
  0
LINE
  5
30F
100
AcDbEntity
  8
C_CORPO
100
AcDbLine
 62
250
  6
CONTINUOUS
 10
17.8834139954
 20
18.8621896674
 11
9.5463533505
 21
14.7269461259
  0
LINE
  5
310
100
AcDbEntity
  8
C_CORPO
100
AcDbLine
 62
7
  6
CONTINUOUS
 10
17.1753693513
 20
19.2162119895
 11
13.6122796977
 21
17.5061209911
  0
LWPOLYLINE
  5
311
100
AcDbEntity
  8
C_COPERCHIO
100
AcDbPolyline
 62
7
  6
CONTINUOUS
 90
12
 70
0
 10
-7.5047059046
 20
-4.4368000823
 10
-7.5194775264
 20
-4.4101546161
 10
-7.5331186148
 20
-4.3827130422
 10
-7.545578956
 20
-4.3545594772
 10
-7.5569235073
 20
-4.3257454777
 10
-7.5670083443
 20
-4.2964272605
 10
-7.5754774744
 20
-4.266865431
 10
-7.5823290946
 20
-4.2372417931
 10
-7.5875381717
 20
-4.2076617426
 10
-7.5907019116
 20
-4.178298712
 10
-7.5918739772
 20
-4.1493601753
 10
-7.5918887624
 20
-4.1463328486
  0
LWPOLYLINE
  5
312
100
AcDbEntity
  8
C_COPERCHIO
100
AcDbPolyline
 62
250
  6
CONTINUOUS
 90
10
 70
0
 10
-9.8755862633
 20
21.4236642364
 10
-9.8734785836
 20
21.4004551589
 10
-9.8670474134
 20
21.3771247258
 10
-9.8565215446
 20
21.3545332118
 10
-9.8421561555
 20
21.3328488561
 10
-9.8242338048
 20
21.3122224917
 10
-9.8034515189
 20
21.2931123077
 10
-9.7804348559
 20
21.2756774252
 10
-9.7555218681
 20
21.2598270892
 10
-9.7291396539
 20
21.2455593504
  0
LWPOLYLINE
  5
313
100
AcDbEntity
  8
C_COPERCHIO
100
AcDbPolyline
 62
250
  6
CONTINUOUS
 90
13
 70
0
 10
-5.2765310168
 20
-24.9257505184
 10
-5.2707750733
 20
-25.0140509181
 10
-5.2597454748
 20
-25.0990530652
 10
-5.2434970613
 20
-25.1803373463
 10
-5.2221098121
 20
-25.257500039
 10
-5.1956900019
 20
-25.3301640267
 10
-5.1643673686
 20
-25.397978467
 10
-5.128288278
 20
-25.4606154535
 10
-5.0876324891
 20
-25.5177555826
 10
-5.0426156875
 20
-25.5691011046
 10
-4.9934683186
 20
-25.6143947975
 10
-4.9404254395
 20
-25.653426194
 10
-4.8841386433
 20
-25.6858105551
  0
LINE
  5
314
100
AcDbEntity
  8
C_COPERCHIO
100
AcDbLine
 62
7
  6
CONTINUOUS
 10
-8.1443745497
 20
2.4044248582
 11
-8.1443745497
 21
-2.7301776742
  0
LWPOLYLINE
  5
315
100
AcDbEntity
  8
C_COPERCHIO
100
AcDbPolyline
 62
7
  6
CONTINUOUS
 90
10
 70
0
 10
-7.5918951709
 20
-4.146334411
 10
-7.5894983242
 20
-3.5974925607
 10
-7.5854128907
 20
-2.8636875631
 10
-7.5803177022
 20
-2.1293879234
 10
-7.5742127751
 20
-1.3945957332
 10
-7.5670981285
 20
-0.6593130933
 10
-7.5589737849
 20
0.0764578859
 10
-7.5498397693
 20
0.8127151008
 10
-7.5396961097
 20
1.5494564543
 10
-7.5314605564
 20
2.1000820096
  0
LWPOLYLINE
  5
316
100
AcDbEntity
  8
C_COPERCHIO
100
AcDbPolyline
 62
250
  6
CONTINUOUS
 90
7
 70
0
 10
-7.4406719658
 20
2.1809614026
 10
-7.4570240282
 20
1.0752558808
 10
-7.4711043009
 20
-0.0293609893
 10
-7.4829126935
 20
-1.1328821089
 10
-7.4924491301
 20
-2.2353003862
 10
-7.4997135493
 20
-3.3366087365
 10
-7.5047059046
 20
-4.4368000823
  0
LWPOLYLINE
  5
317
100
AcDbEntity
  8
C_COPERCHIO
100
AcDbPolyline
 62
7
  6
CONTINUOUS
 90
12
 70
0
 10
-7.531460929
 20
2.1000822272
 10
-7.5314027828
 20
2.1005992247
 10
-7.5299327702
 20
2.1046390857
 10
-7.5264435367
 20
2.1098558309
 10
-7.5208863009
 20
2.1160127998
 10
-7.5136706501
 20
2.123186993
 10
-7.5048252704
 20
2.1312491461
 10
-7.4943565411
 20
2.1400081168
 10
-7.482629751
 20
2.1494861431
 10
-7.4697953585
 20
2.1595944527
 10
-7.4557912634
 20
2.1701312323
 10
-7.4406719658
 20
2.1809614026
  0
LWPOLYLINE
  5
318
100
AcDbEntity
  8
C_COPERCHIO
100
AcDbPolyline
 62
7
  6
CONTINUOUS
 90
9
 70
0
 10
-13.4755865003
 20
-6.1030245121
 10
-13.5101471573
 20
-6.1531087897
 10
-13.5768043805
 20
-6.2740394316
 10
-13.6337176402
 20
-6.405589104
 10
-13.6810471265
 20
-6.5475832305
 10
-13.7180061232
 20
-6.6976615687
 10
-13.7443323917
 20
-6.8550373711
 10
-13.7602881707
 20
-7.0204973851
 10
-13.7658734602
 20
-7.1940416108
  0
LINE
  5
319
100
AcDbEntity
  8
C_CORPO
100
AcDbLine
 62
250
  6
CONTINUOUS
 10
18.5904130808
 20
17.6427966208
 11
9.8876728115
 21
13.3261732898
  0
LWPOLYLINE
  5
31A
100
AcDbEntity
  8
C_CORPO
100
AcDbPolyline
 62
7
  6
CONTINUOUS
 90
7
 70
0
 10
20.4577886692
 20
14.0893011611
 10
20.3605036653
 20
14.0600434041
 10
20.2614569113
 20
14.0299393707
 10
20.1606484073
 20
13.9989890609
 10
20.0580781533
 20
13.9671924746
 10
19.9537461493
 20
13.9345496119
 10
19.8476523953
 20
13.9010604728
  0
LINE
  5
31B
100
AcDbEntity
  8
C_COPERCHIO
100
AcDbLine
 62
250
  6
CONTINUOUS
 10
-16.4870381199
 20
-0.6842736002
 11
-18.4669371073
 21
0.3056758935
  0
LINE
  5
31C
100
AcDbEntity
  8
C_COPERCHIO
100
AcDbLine
 62
250
  6
CONTINUOUS
 10
-16.573779423
 20
-0.1696399164
 11
-18.0426737564
 21
0.5648072503
  0
LINE
  5
31D
100
AcDbEntity
  8
C_COPERCHIO
100
AcDbLine
 62
250
  6
CONTINUOUS
 10
-7.5047059046
 20
-4.4368000823
 11
-9.4846048919
 21
-3.4468505886
  0
LINE
  5
31E
100
AcDbEntity
  8
C_COPERCHIO
100
AcDbLine
 62
250
  6
CONTINUOUS
 10
-7.5909192951
 20
-3.9228735385
 11
-9.0603427867
 21
-3.1881617927
  0
LINE
  5
31F
100
AcDbEntity
  8
C_COPERCHIO
100
AcDbLine
 62
7
  6
CONTINUOUS
 10
-17.1246306708
 20
1.0238287931
 11
-16.5702589172
 21
0.7466429163
  0
LWPOLYLINE
  5
320
100
AcDbEntity
  8
C_COPERCHIO
100
AcDbPolyline
 62
7
  6
CONTINUOUS
 90
4
 70
0
 10
0.1708216292
 20
-23.9251053348
 10
0.1763224491
 20
-23.9427805797
 10
0.1797057647
 20
-23.9624544915
 10
0.1809715761
 20
-23.9841270701
  0
LWPOLYLINE
  5
321
100
AcDbEntity
  8
C_COPERCHIO
100
AcDbPolyline
 62
250
  6
CONTINUOUS
 90
22
 70
0
 10
-4.5759475429
 20
-24.9111507042
 10
-4.5720510438
 20
-24.970225923
 10
-4.5647075963
 20
-25.0266573276
 10
-4.5539172004
 20
-25.0804449182
 10
-4.5395934349
 20
-25.131854119
 10
-4.521822721
 20
-25.1806195056
 10
-4.5008643226
 20
-25.2259448054
 10
-4.4766667871
 20
-25.2677584808
 10
-4.4492815671
 20
-25.3061320692
 10
-4.4191222842
 20
-25.3404839109
 10
-4.386152799
 20
-25.3707466371
 10
-4.350409251
 20
-25.3969876166
 10
-4.3124136795
 20
-25.4188272948
 10
-4.2721279355
 20
-25.4362024425
 10
-4.229590168
 20
-25.449176289
 10
-4.1854368636
 20
-25.4575589677
 10
-4.1396247715
 20
-25.4612721679
 10
-4.0921971426
 20
-25.4603942002
 10
-4.0439202154
 20
-25.4549701302
 10
-3.995049403
 20
-25.4450149799
 10
-3.9453292924
 20
-25.4305137272
 10
-3.8947598836
 20
-25.4114663723
  0
LINE
  5
322
100
AcDbEntity
  8
C_COPERCHIO
100
AcDbLine
 62
250
  6
CONTINUOUS
 10
-4.4320639485
 20
21.9992675143
 11
-4.4320639485
 21
21.3212669279
  0
LINE
  5
323
100
AcDbEntity
  8
C_COPERCHIO
100
AcDbLine
 62
250
  6
CONTINUOUS
 10
-4.2261570676
 20
17.4215707122
 11
-4.2261570676
 21
18.4940680573
  0
LWPOLYLINE
  5
324
100
AcDbEntity
  8
C_COPERCHIO
100
AcDbPolyline
 62
250
  6
CONTINUOUS
 90
9
 70
0
 10
-5.3967451315
 20
6.6757372157
 10
-5.4869143559
 20
2.6753349278
 10
-5.5470312854
 20
-1.3113831544
 10
-5.5770909835
 20
-5.2840837969
 10
-5.5770909834
 20
-9.2424350373
 10
-5.5470312852
 20
-13.1861062117
 10
-5.4869143557
 20
-17.1147678248
 10
-5.3967451314
 20
-21.0280915788
 10
-5.2765310168
 20
-24.9257505184
  0
LWPOLYLINE
  5
325
100
AcDbEntity
  8
C_COPERCHIO
100
AcDbPolyline
 62
250
  6
CONTINUOUS
 90
9
 70
0
 10
-4.6960516239
 20
6.6581922731
 10
-4.7861296954
 20
2.6619084006
 10
-4.8461817574
 20
-1.3203776941
 10
-4.8762078243
 20
-5.288998982
 10
-4.8762078817
 20
-9.243622492
 10
-4.8461818865
 20
-13.1832493106
 10
-4.7861298245
 20
-17.1075464665
 10
-4.69605171
 20
-21.0168469311
 10
-4.5759475429
 20
-24.9111507042
  0
LINE
  5
326
100
AcDbEntity
  8
C_COPERCHIO
100
AcDbLine
 62
250
  6
CONTINUOUS
 10
-5.2765310168
 20
10.6894893492
 11
-5.3967451315
 21
6.6757372157
  0
LINE
  5
327
100
AcDbEntity
  8
C_COPERCHIO
100
AcDbLine
 62
250
  6
CONTINUOUS
 10
-4.5759475429
 20
10.6684739235
 11
-4.6960516239
 21
6.6581922731
  0
LINE
  5
328
100
AcDbEntity
  8
C_CONTATTI
100
AcDbLine
 62
7
  6
CONTINUOUS
 10
10.9150947229
 20
17.097229108
 11
10.8979232376
 21
17.0813709534
  0
LINE
  5
329
100
AcDbEntity
  8
C_CONTATTI
100
AcDbLine
 62
7
  6
CONTINUOUS
 10
12.4648466022
 20
17.1708813058
 11
12.7083422685
 21
17.3957536364
  0
LINE
  5
32A
100
AcDbEntity
  8
C_COPERCHIO
100
AcDbLine
 62
7
  6
CONTINUOUS
 10
-8.1443745497
 20
-2.7301776742
 11
-7.5862233228
 21
-3.0092532877
  0
LWPOLYLINE
  5
32B
100
AcDbEntity
  8
C_COPERCHIO
100
AcDbPolyline
 62
250
  6
CONTINUOUS
 90
7
 70
0
 10
-2.0733262726
 20
-24.9845221811
 10
-2.0710449007
 20
-25.0012305626
 10
-2.0645774373
 20
-25.0171609126
 10
-2.0540343673
 20
-25.0325319396
 10
-2.0395995774
 20
-25.0470830565
 10
-2.0215196444
 20
-25.0605711777
 10
-2.0001031262
 20
-25.0727698769
  0
LWPOLYLINE
  5
32C
100
AcDbEntity
  8
C_COPERCHIO
100
AcDbPolyline
 62
250
  6
CONTINUOUS
 90
16
 70
0
 10
-3.8947598836
 20
11.8266048678
 10
-3.8986264396
 20
11.8718125802
 10
-3.9062515541
 20
11.9184936635
 10
-3.9175518168
 20
11.9661372917
 10
-3.9324035973
 20
12.0142220949
 10
-3.9506443998
 20
12.0622218738
 10
-3.9720746423
 20
12.1096113575
 10
-3.9964598398
 20
12.1558719474
 10
-4.0235331559
 20
12.2004973695
 10
-4.052998322
 20
12.242999227
 10
-4.0845329078
 20
12.2829123875
 10
-4.1177918193
 20
12.3198000248
 10
-4.1524110542
 20
12.3532583914
 10
-4.188011741
 20
12.3829213016
 10
-4.2242042907
 20
12.4084641274
 10
-4.2605926216
 20
12.4296073146
  0
LINE
  5
32D
100
AcDbEntity
  8
C_COPERCHIO
100
AcDbLine
 62
250
  6
CONTINUOUS
 10
-2.0733264309
 20
-24.9843815293
 11
-2.0733262726
 21
-24.9845221811
  0
LINE
  5
32E
100
AcDbEntity
  8
C_COPERCHIO
100
AcDbLine
 62
7
  6
CONTINUOUS
 10
-3.7249571673
 20
22.3377043752
 11
-3.7249571673
 21
22.8365947973
  0
LINE
  5
32F
100
AcDbEntity
  8
C_COPERCHIO
100
AcDbLine
 62
250
  6
CONTINUOUS
 10
-3.5252744918
 20
17.44080964
 11
-3.5252744918
 21
18.4954656154
  0
LINE
  5
330
100
AcDbEntity
  8
C_COPERCHIO
100
AcDbLine
 62
7
  6
CONTINUOUS
 10
-3.3714037767
 20
22.659818102
 11
-3.3714037767
 21
22.1609276799
  0
LINE
  5
331
100
AcDbEntity
  8
C_COPERCHIO
100
AcDbLine
 62
250
  6
CONTINUOUS
 10
-3.3597347602
 20
23.0113982758
 11
-3.3597347602
 21
24.2135903446
  0
LINE
  5
332
100
AcDbEntity
  8
C_COPERCHIO
100
AcDbLine
 62
7
  6
CONTINUOUS
 10
-3.2474109376
 20
23.1428859186
 11
-3.2474109376
 21
24.201563167
  0
LINE
  5
333
100
AcDbEntity
  8
C_COPERCHIO
100
AcDbLine
 62
7
  6
CONTINUOUS
 10
-3.1592717424
 20
18.6798781635
 11
-3.1592717424
 21
17.640621299
  0
LINE
  5
334
100
AcDbEntity
  8
C_COPERCHIO
100
AcDbLine
 62
250
  6
CONTINUOUS
 10
-3.0178503861
 20
21.9841509846
 11
-3.0178503861
 21
21.4604645945
  0
LINE
  5
335
100
AcDbEntity
  8
C_COPERCHIO
100
AcDbLine
 62
7
  6
CONTINUOUS
 10
-2.0733264309
 20
-24.9843815293
 11
-2.0733264309
 21
-24.8635362572
  0
LINE
  5
336
100
AcDbEntity
  8
C_COPERCHIO
100
AcDbLine
 62
7
  6
CONTINUOUS
 10
-2.0733264309
 20
16.4793858021
 11
-2.0733264309
 21
16.9497602109
  0
LINE
  5
337
100
AcDbEntity
  8
C_COPERCHIO
100
AcDbLine
 62
250
  6
CONTINUOUS
 10
-2.0001031262
 20
-25.0727698769
 11
-2.0001031262
 21
-24.8328000881
  0
LINE
  5
338
100
AcDbEntity
  8
C_COPERCHIO
100
AcDbLine
 62
250
  6
CONTINUOUS
 10
-2.0001031262
 20
16.5441030628
 11
-2.0001031262
 21
16.8613718632
  0
LWPOLYLINE
  5
339
100
AcDbEntity
  8
C_COPERCHIO
100
AcDbPolyline
 62
250
  6
CONTINUOUS
 90
13
 70
0
 10
-2.0001031262
 20
16.8613718632
 10
-1.9986126861
 20
16.8901722631
 10
-1.9941645314
 20
16.9199875002
 10
-1.9868308094
 20
16.9503152345
 10
-1.9767313175
 20
16.9806468523
 10
-1.9640346991
 20
17.0104662724
 10
-1.9489583741
 20
17.0392594462
 10
-1.9317190814
 20
17.0665947307
 10
-1.9126387405
 20
17.0919461472
 10
-1.8921815556
 20
17.1147404159
 10
-1.8707656049
 20
17.1346054511
 10
-1.8487189154
 20
17.1513251004
 10
-1.8264116096
 20
17.1646909975
  0
LINE
  5
33A
100
AcDbEntity
  8
C_CONTATTI
100
AcDbLine
 62
7
  6
CONTINUOUS
 10
5.1421618688
 20
21.8858127764
 11
4.9406625108
 21
21.2900883506
  0
LWPOLYLINE
  5
33B
100
AcDbEntity
  8
C_COPERCHIO
100
AcDbPolyline
 62
7
  6
CONTINUOUS
 90
4
 70
0
 10
-9.4846048919
 20
-3.4468505886
 10
-9.4515979712
 20
-3.4236179854
 10
-9.4333245888
 20
-3.4108769848
 10
-9.4136971256
 20
-3.3975690647
  0
LWPOLYLINE
  5
33C
100
AcDbEntity
  8
C_COPERCHIO
100
AcDbPolyline
 62
7
  6
CONTINUOUS
 90
3
 70
0
 10
-9.4136971256
 20
-3.3975690647
 10
-9.3708820421
 20
-3.3693449354
 10
-9.3479791949
 20
-3.3545560241
  0
LWPOLYLINE
  5
33D
100
AcDbEntity
  8
C_COPERCHIO
100
AcDbPolyline
 62
7
  6
CONTINUOUS
 90
3
 70
0
 10
-9.3479791949
 20
-3.3545560241
 10
-9.2993713538
 20
-3.3239768151
 10
-9.2739057877
 20
-3.3082867326
  0
LWPOLYLINE
  5
33E
100
AcDbEntity
  8
C_COPERCHIO
100
AcDbPolyline
 62
7
  6
CONTINUOUS
 90
3
 70
0
 10
-9.2739057877
 20
-3.3082867326
 10
-9.2210356905
 20
-3.2765841397
 10
-9.1938876786
 20
-3.2606847019
  0
LWPOLYLINE
  5
33F
100
AcDbEntity
  8
C_CORPO
100
AcDbPolyline
 62
7
  6
CONTINUOUS
 90
10
 70
0
 10
20.471800062
 20
14.0953208127
 10
20.4703097003
 20
14.0944937731
 10
20.4688031926
 20
14.0937061266
 10
20.4672805577
 20
14.0929579555
 10
20.4657424797
 20
14.0922494073
 10
20.4641883289
 20
14.0915804949
 10
20.4626161045
 20
14.0909511222
 10
20.4610251005
 20
14.0903613392
 10
20.4594159625
 20
14.089811316
 10
20.4577886692
 20
14.0893011611
  0
LWPOLYLINE
  5
340
100
AcDbEntity
  8
C_COPERCHIO
100
AcDbPolyline
 62
250
  6
CONTINUOUS
 90
9
 70
0
 10
-9.6766851888
 20
21.5815839661
 10
-9.6727729277
 20
21.5674160546
 10
-9.6665956216
 20
21.5537967791
 10
-9.6579628037
 20
21.5407809641
 10
-9.6470649408
 20
21.528313785
 10
-9.6347532513
 20
21.5167846264
 10
-9.6213114744
 20
21.5063232831
 10
-9.6064558709
 20
21.4967999602
 10
-9.5901864407
 20
21.4882146578
  0
LWPOLYLINE
  5
341
100
AcDbEntity
  8
C_COPERCHIO
100
AcDbPolyline
 62
7
  6
CONTINUOUS
 90
3
 70
0
 10
-2.0733366366
 20
16.4794034044
 10
-2.0733142
 20
16.479127904
 10
-2.0719713512
 20
16.4773053735
  0
LWPOLYLINE
  5
342
100
AcDbEntity
  8
C_COPERCHIO
100
AcDbPolyline
 62
250
  6
CONTINUOUS
 90
3
 70
0
 10
0.1665587793
 20
-23.9771780053
 10
0.1645507832
 20
-23.9490981151
 10
0.1591954326
 20
-23.9264142608
  0
LWPOLYLINE
  5
343
100
AcDbEntity
  8
C_COPERCHIO
100
AcDbPolyline
 62
7
  6
CONTINUOUS
 90
12
 70
0
 10
-0.6136873301
 20
23.1286810656
 10
-0.6161555494
 20
23.2015041408
 10
-0.6238211229
 20
23.2706935253
 10
-0.6366840507
 20
23.3362492191
 10
-0.6549919072
 20
23.3988773955
 10
-0.6784971179
 20
23.4578718812
 10
-0.7064569596
 20
23.5111141564
 10
-0.7388650977
 20
23.5580926199
 10
-0.7757278667
 20
23.5993188729
 10
-0.8163215465
 20
23.6342091989
 10
-0.8606569329
 20
23.6627504005
 10
-0.8736285017
 20
23.6695788547
  0
LINE
  5
344
100
AcDbEntity
  8
C_COPERCHIO
100
AcDbLine
 62
7
  6
CONTINUOUS
 10
-1.4790569144
 20
16.1808481551
 11
-1.4790569144
 21
15.8361394953
  0
LINE
  5
345
100
AcDbEntity
  8
C_COPERCHIO
100
AcDbLine
 62
250
  6
CONTINUOUS
 10
-0.7121957745
 20
16.2174181874
 11
-0.7121957745
 21
15.900149387
  0
LINE
  5
346
100
AcDbEntity
  8
C_COPERCHIO
100
AcDbLine
 62
250
  6
CONTINUOUS
 10
-0.7121957745
 20
-25.3994547524
 11
-0.7121957745
 21
-25.7167235528
  0
LINE
  5
347
100
AcDbEntity
  8
C_COPERCHIO
100
AcDbLine
 62
7
  6
CONTINUOUS
 10
-0.6136873301
 20
23.1286810656
 11
-0.6136873301
 21
22.9335681206
  0
LINE
  5
348
100
AcDbEntity
  8
C_COPERCHIO
100
AcDbLine
 62
250
  6
CONTINUOUS
 10
-0.3617544866
 20
16.21588906
 11
-0.3617544866
 21
15.6508018104
  0
LINE
  5
349
100
AcDbEntity
  8
C_COPERCHIO
100
AcDbLine
 62
250
  6
CONTINUOUS
 10
-0.3617544866
 20
-25.1531654306
 11
-0.3617544866
 21
-25.7182526801
  0
LINE
  5
34A
100
AcDbEntity
  8
C_COPERCHIO
100
AcDbLine
 62
7
  6
CONTINUOUS
 10
0.1809715761
 20
15.5356724929
 11
0.1809715761
 21
15.0058679165
  0
LINE
  5
34B
100
AcDbEntity
  8
C_COPERCHIO
100
AcDbLine
 62
7
  6
CONTINUOUS
 10
0.1809715761
 20
-23.9841270701
 11
0.1809715761
 21
-24.5139316465
  0
LWPOLYLINE
  5
34C
100
AcDbEntity
  8
C_COPERCHIO
100
AcDbPolyline
 62
250
  6
CONTINUOUS
 90
13
 70
0
 10
-0.7121957745
 20
16.2174181874
 10
-0.7107053344
 20
16.2462185872
 10
-0.7062571797
 20
16.2760338244
 10
-0.6989234578
 20
16.3063615586
 10
-0.6888239658
 20
16.3366931765
 10
-0.6761273474
 20
16.3665125965
 10
-0.6610510224
 20
16.3953057704
 10
-0.6438117298
 20
16.4226410548
 10
-0.6247313888
 20
16.4479924714
 10
-0.6042742039
 20
16.4707867401
 10
-0.5828582532
 20
16.4906517752
 10
-0.5608115637
 20
16.5073714246
 10
-0.5385042579
 20
16.5207373216
  0
LWPOLYLINE
  5
34D
100
AcDbEntity
  8
C_COPERCHIO
100
AcDbPolyline
 62
7
  6
CONTINUOUS
 90
13
 70
0
 10
0.1809715761
 20
15.0058679165
 10
0.1797057596
 20
14.9829729542
 10
0.176322441
 20
14.960031809
 10
0.1708216202
 20
14.9370444809
 10
0.16305308
 20
14.9136371318
 10
0.1531670376
 20
14.8901835998
 10
0.141614145
 20
14.8678053995
 10
0.1283039076
 20
14.8465523869
 10
0.1133268199
 20
14.8263747061
 10
0.0974050175
 20
14.8082443028
 10
0.0807792122
 20
14.7924851592
 10
0.0632086921
 20
14.7787732932
 10
0.0446934573
 20
14.7671087049
  0
LWPOLYLINE
  5
34E
100
AcDbEntity
  8
C_COPERCHIO
100
AcDbPolyline
 62
250
  6
CONTINUOUS
 90
10
 70
0
 10
0.1665587793
 20
15.0133316484
 10
0.1645507835
 20
14.9832437649
 10
0.1585838178
 20
14.9520023017
 10
0.1488273283
 20
14.9204944335
 10
0.1355583733
 20
14.8896149003
 10
0.119153756
 20
14.860240599
 10
0.1000793241
 20
14.8332056819
 10
0.0788767409
 20
14.8092778689
 10
0.0561481035
 20
14.7891366465
 10
0.032538845
 20
14.7733539721
  0
LWPOLYLINE
  5
34F
100
AcDbEntity
  8
C_COPERCHIO
100
AcDbPolyline
 62
250
  6
CONTINUOUS
 90
10
 70
0
 10
-3.8947598836
 20
-25.4114663723
 10
-3.8986265495
 20
-25.4566056703
 10
-3.9062518916
 20
-25.4992829663
 10
-3.9175524621
 20
-25.5390312223
 10
-3.9324045933
 20
-25.5754154537
 10
-3.9506457512
 20
-25.6080374905
 10
-3.972076314
 20
-25.6365403339
 10
-3.9964617568
 20
-25.6606120635
 10
-4.0235352178
 20
-25.6799892508
 10
-4.0485671272
 20
-25.69266207
  0
LWPOLYLINE
  5
350
100
AcDbEntity
  8
C_CONTATTI
100
AcDbPolyline
 62
250
  6
CONTINUOUS
 90
13
 70
0
 10
9.2385609901
 20
17.4525728722
 10
9.2580985983
 20
17.4843880851
 10
9.2785511478
 20
17.5148785917
 10
9.2997682772
 20
17.5440896124
 10
9.3215886473
 20
17.5720304133
 10
9.3438584546
 20
17.5987136503
 10
9.3666183222
 20
17.6243593218
 10
9.3897539228
 20
17.6489777241
 10
9.413155907
 20
17.6725811347
 10
9.4369327737
 20
17.6953827853
 10
9.4610811769
 20
17.7174568797
 10
9.4854579918
 20
17.7387454147
 10
9.5099912424
 20
17.7592585571
  0
LWPOLYLINE
  5
351
100
AcDbEntity
  8
C_COPERCHIO
100
AcDbPolyline
 62
7
  6
CONTINUOUS
 90
3
 70
0
 10
-15.0526627443
 20
-10.2280337783
 10
-15.001754568
 20
-10.1919930748
 10
-14.9823014438
 20
-10.1786396709
  0
LWPOLYLINE
  5
352
100
AcDbEntity
  8
C_COPERCHIO
100
AcDbPolyline
 62
7
  6
CONTINUOUS
 90
3
 70
0
 10
-14.9823014438
 20
-10.1786396709
 10
-14.9399175244
 20
-10.1502873791
 10
-14.9172636279
 20
-10.1354081534
  0
LWPOLYLINE
  5
353
100
AcDbEntity
  8
C_CORPO
100
AcDbPolyline
 62
7
  6
CONTINUOUS
 90
24
 70
0
 10
20.471800062
 20
14.0953208127
 10
20.4777439055
 20
14.0987985427
 10
20.4834511634
 20
14.1023117779
 10
20.4889167048
 20
14.1058566386
 10
20.4941356267
 20
14.1094287188
 10
20.4991033477
 20
14.1130244567
 10
20.5038155973
 20
14.1166411436
 10
20.5082682967
 20
14.1202745374
 10
20.5124576002
 20
14.1239205621
 10
20.5163799732
 20
14.1275766831
 10
20.5200321406
 20
14.1312385095
 10
20.523411081
 20
14.1349018334
 10
20.5265140528
 20
14.1385643337
 10
20.5293386099
 20
14.1422215103
 10
20.531882576
 20
14.1458690603
 10
20.5341440432
 20
14.1495049172
 10
20.5361214115
 20
14.1531245131
 10
20.537813359
 20
14.156723489
 10
20.5392188335
 20
14.1603000691
 10
20.5403370869
 20
14.1638496597
 10
20.5411676525
 20
14.1673678857
 10
20.5417103385
 20
14.1708532975
 10
20.5419652445
 20
14.1743013186
 10
20.5419867291
 20
14.1756236879
  0
LWPOLYLINE
  5
354
100
AcDbEntity
  8
C_COPERCHIO
100
AcDbPolyline
 62
7
  6
CONTINUOUS
 90
4
 70
0
 10
-9.1938876786
 20
-3.2606847019
 10
-9.1122869603
 20
-3.2146470673
 10
-9.0859663845
 20
-3.2006391133
 10
-9.0603427867
 20
-3.1881617927
  0
LINE
  5
355
100
AcDbEntity
  8
C_COPERCHIO
100
AcDbLine
 62
7
  6
CONTINUOUS
 10
-9.0603427867
 20
-3.1881617927
 11
-8.1443745497
 21
-2.7301776742
  0
LINE
  5
356
100
AcDbEntity
  8
C_COPERCHIO
100
AcDbLine
 62
7
  6
CONTINUOUS
 10
-7.5826478919
 20
-2.4652062076
 11
-8.1284826875
 21
-2.7381236053
  0
LINE
  5
357
100
AcDbEntity
  8
C_COPERCHIO
100
AcDbLine
 62
250
  6
CONTINUOUS
 10
-12.5332324389
 20
-6.507010422
 11
-13.7635605117
 21
-7.1221744584
  0
LINE
  5
358
100
AcDbEntity
  8
C_COPERCHIO
100
AcDbLine
 62
250
  6
CONTINUOUS
 10
-14.660063011
 20
-7.6411363862
 11
-13.7658734602
 21
-7.1940416108
  0
LINE
  5
359
100
AcDbEntity
  8
C_COPERCHIO
100
AcDbLine
 62
7
  6
CONTINUOUS
 10
-13.9740981751
 20
-6.1886505078
 11
-13.9736342332
 21
-6.1884186873
  0
LWPOLYLINE
  5
35A
100
AcDbEntity
  8
C_COPERCHIO
100
AcDbPolyline
 62
7
  6
CONTINUOUS
 90
34
 70
0
 10
-13.9737209891
 20
-6.1884758033
 10
-13.8840293152
 20
-6.1502063548
 10
-13.7882773898
 20
-6.1221808638
 10
-13.6869604552
 20
-6.104867183
 10
-13.5800722733
 20
-6.0984877671
 10
-13.4683082709
 20
-6.1033405309
 10
-13.3519044199
 20
-6.1196770221
 10
-13.2314211766
 20
-6.1476532164
 10
-13.1077422768
 20
-6.1872980909
 10
-12.9817031996
 20
-6.2385413148
 10
-12.8541277395
 20
-6.3011510341
 10
-12.725830047
 20
-6.3748261051
 10
-12.5975501934
 20
-6.459244496
 10
-12.4701809237
 20
-6.5538359687
 10
-12.3443291072
 20
-6.6581586052
 10
-12.2202055414
 20
-6.7721410864
 10
-12.0983503269
 20
-6.8954208589
 10
-11.9796037572
 20
-7.0272659126
 10
-11.8645745989
 20
-7.1671295725
 10
-11.7538650471
 20
-7.3143786766
 10
-11.648100698
 20
-7.4682486769
 10
-11.5478729439
 20
-7.6279718394
 10
-11.4537080191
 20
-7.7927749118
 10
-11.3661034049
 20
-7.961800476
 10
-11.2855562543
 20
-8.1341245327
 10
-11.2124687711
 20
-8.3088999472
 10
-11.1472028577
 20
-8.4851798918
 10
-11.0901319843
 20
-8.6618580616
 10
-11.0415082613
 20
-8.838016922
 10
-11.0015003479
 20
-9.0127546356
 10
-10.9702724875
 20
-9.1849618507
 10
-10.9478940048
 20
-9.3536700824
 10
-10.9343106336
 20
-9.5180370275
 10
-10.9295475101
 20
-9.6593130764
  0
LINE
  5
35B
100
AcDbEntity
  8
C_COPERCHIO
100
AcDbLine
 62
7
  6
CONTINUOUS
 10
-9.1757710446
 20
2.9201231056
 11
-7.5296167307
 21
2.0970459487
  0
LINE
  5
35C
100
AcDbEntity
  8
C_COPERCHIO
100
AcDbLine
 62
250
  6
CONTINUOUS
 10
-9.4205709531
 20
3.1709108963
 11
-7.4406719658
 21
2.1809614026
  0
LINE
  5
35D
100
AcDbEntity
  8
C_COPERCHIO
100
AcDbLine
 62
7
  6
CONTINUOUS
 10
-18.1435635514
 20
8.1523820173
 11
-16.497854336
 21
7.3295274096
  0
LINE
  5
35E
100
AcDbEntity
  8
C_COPERCHIO
100
AcDbLine
 62
250
  6
CONTINUOUS
 10
-18.3885786601
 20
8.4037266952
 11
-16.4086796728
 21
7.4137772015
  0
LWPOLYLINE
  5
35F
100
AcDbEntity
  8
C_COPERCHIO
100
AcDbPolyline
 62
7
  6
CONTINUOUS
 90
13
 70
0
 10
-9.1757278263
 20
2.920101506
 10
-9.1872426307
 20
2.9261159592
 10
-9.2131650734
 20
2.94148037
 10
-9.2383186357
 20
2.9588320185
 10
-9.2626750761
 20
2.9779716006
 10
-9.2862640191
 20
2.9987016588
 10
-9.3088274737
 20
3.0207654048
 10
-9.3303897026
 20
3.0440313622
 10
-9.3509615086
 20
3.0683106005
 10
-9.3702538725
 20
3.0932982038
 10
-9.3881991499
 20
3.1187963484
 10
-9.4049533434
 20
3.1447122723
 10
-9.4205709531
 20
3.1709108963
  0
LWPOLYLINE
  5
360
100
AcDbEntity
  8
C_COPERCHIO
100
AcDbPolyline
 62
7
  6
CONTINUOUS
 90
13
 70
0
 10
-18.1435207115
 20
8.1523606066
 10
-18.1555278982
 20
8.1586440738
 10
-18.1814285616
 20
8.174046984
 10
-18.2065590236
 20
8.1914348339
 10
-18.2308912844
 20
8.2106082216
 10
-18.2544552768
 20
8.2313695159
 10
-18.2769930819
 20
8.2534620504
 10
-18.2985291253
 20
8.2767543226
 10
-18.3190744675
 20
8.3010572914
 10
-18.3383402592
 20
8.3260660354
 10
-18.3562590263
 20
8.3515827325
 10
-18.3729869433
 20
8.3775146326
 10
-18.3885786601
 20
8.4037266952
  0
LWPOLYLINE
  5
361
100
AcDbEntity
  8
C_COPERCHIO
100
AcDbPolyline
 62
250
  6
CONTINUOUS
 90
7
 70
0
 10
-2.0733264309
 20
16.9497602109
 10
-2.0710449007
 20
16.9329111775
 10
-2.0645774373
 20
16.9169808275
 10
-2.0540343673
 20
16.9016098005
 10
-2.0395995774
 20
16.8870586836
 10
-2.0215196444
 20
16.8735705625
 10
-2.0001031262
 20
16.8613718632
  0
LWPOLYLINE
  5
362
100
AcDbEntity
  8
C_COPERCHIO
100
AcDbPolyline
 62
250
  6
CONTINUOUS
 90
13
 70
0
 10
-0.3617544866
 20
16.21588906
 10
-0.3636491579
 20
16.2447102824
 10
-0.3684817222
 20
16.2745764739
 10
-0.3761695249
 20
16.3049768134
 10
-0.3865810765
 20
16.3353913442
 10
-0.3995383015
 20
16.3652998668
 10
-0.414819584
 20
16.3941908361
 10
-0.4321635583
 20
16.4215701111
 10
-0.451273579
 20
16.4469694062
 10
-0.4718227951
 20
16.4699543007
 10
-0.4934597399
 20
16.490131669
 10
-0.5158143426
 20
16.5071564043
 10
-0.5385042579
 20
16.5207373216
  0
LWPOLYLINE
  5
363
100
AcDbEntity
  8
C_COPERCHIO
100
AcDbPolyline
 62
7
  6
CONTINUOUS
 90
13
 70
0
 10
1.26014564
 20
17.0330925797
 10
1.258641119
 20
17.0621083746
 10
1.2541295814
 20
17.0921348804
 10
1.2466934446
 20
17.1226613973
 10
1.2364657794
 20
17.1531692313
 10
1.2236226111
 20
17.1831369092
 10
1.2083800958
 20
17.212049143
 10
1.1909958205
 20
17.2394097989
 10
1.1717702882
 20
17.2647524478
 10
1.1510366662
 20
17.2876449353
 10
1.1291486405
 20
17.3076951173
 10
1.1064742605
 20
17.3245573834
 10
1.0833958687
 20
17.3379408414
  0
LWPOLYLINE
  5
364
100
AcDbEntity
  8
C_COPERCHIO
100
AcDbPolyline
 62
250
  6
CONTINUOUS
 90
13
 70
0
 10
1.7842501066
 20
17.2930522589
 10
1.7830968257
 20
17.3223697764
 10
1.7788612089
 20
17.3526871667
 10
1.7716138821
 20
17.3834820094
 10
1.7614765909
 20
17.4142255401
 10
1.7486226769
 20
17.4443838701
 10
1.7332764063
 20
17.4734278983
 10
1.7156638875
 20
17.5009111588
 10
1.6961203836
 20
17.5262942967
 10
1.6751275881
 20
17.5489964796
 10
1.6531222135
 20
17.5686418273
 10
1.6304501338
 20
17.5850120545
 10
1.6075003352
 20
17.5979005205
  0
LINE
  5
365
100
AcDbEntity
  8
C_COPERCHIO
100
AcDbLine
 62
7
  6
CONTINUOUS
 10
1.26014564
 20
-24.9692054537
 11
1.26014564
 21
-23.4642800828
  0
LINE
  5
366
100
AcDbEntity
  8
C_COPERCHIO
100
AcDbLine
 62
7
  6
CONTINUOUS
 10
1.26014564
 20
15.4306597777
 11
1.26014564
 21
17.0330925797
  0
LINE
  5
367
100
AcDbEntity
  8
C_CORPO
100
AcDbLine
 62
250
  6
CONTINUOUS
 10
1.5968039437
 20
22.3725825135
 11
1.5968039437
 21
22.7714042447
  0
LINE
  5
368
100
AcDbEntity
  8
C_COPERCHIO
100
AcDbLine
 62
250
  6
CONTINUOUS
 10
1.7842501066
 20
-24.6864390702
 11
1.7842501066
 21
-24.0986770261
  0
LINE
  5
369
100
AcDbEntity
  8
C_COPERCHIO
100
AcDbLine
 62
250
  6
CONTINUOUS
 10
1.7842501066
 20
16.7052902148
 11
1.7842501066
 21
17.2930522589
  0
LINE
  5
36A
100
AcDbEntity
  8
C_COPERCHIO
100
AcDbLine
 62
7
  6
CONTINUOUS
 10
1.8544151565
 20
-24.5996067739
 11
1.8544151565
 21
-24.1065575707
  0
LINE
  5
36B
100
AcDbEntity
  8
C_COPERCHIO
100
AcDbLine
 62
7
  6
CONTINUOUS
 10
1.8544151565
 20
16.8868353514
 11
1.8544151565
 21
17.3798845552
  0
LINE
  5
36C
100
AcDbEntity
  8
C_COPERCHIO
100
AcDbLine
 62
250
  6
CONTINUOUS
 10
2.1370514325
 20
20.2676366387
 11
2.1370514325
 21
21.2870848012
  0
LINE
  5
36D
100
AcDbEntity
  8
C_COPERCHIO
100
AcDbLine
 62
7
  6
CONTINUOUS
 10
2.2446839227
 20
20.3968384885
 11
2.2446839227
 21
21.3305270986
  0
LINE
  5
36E
100
AcDbEntity
  8
C_CORPO
100
AcDbLine
 62
7
  6
CONTINUOUS
 10
2.2795141417
 20
22.2795741099
 11
2.2795141417
 21
22.7125868118
  0
LINE
  5
36F
100
AcDbEntity
  8
C_CORPO
100
AcDbLine
 62
7
  6
CONTINUOUS
 10
2.3208058118
 20
11.5128605625
 11
2.3208058118
 21
-19.0954200459
  0
LINE
  5
370
100
AcDbEntity
  8
C_COPERCHIO
100
AcDbLine
 62
7
  6
CONTINUOUS
 10
2.3208058118
 20
15.1593622016
 11
2.3208058118
 21
-22.741921685
  0
LWPOLYLINE
  5
371
100
AcDbEntity
  8
C_COPERCHIO
100
AcDbPolyline
 62
7
  6
CONTINUOUS
 90
5
 70
0
 10
1.8544253628
 20
16.8868427483
 10
1.8544029253
 20
16.8841045111
 10
1.8532236636
 20
16.8614279052
 10
1.8503579963
 20
16.8400523137
 10
1.8458966131
 20
16.8200885797
  0
LWPOLYLINE
  5
372
100
AcDbEntity
  8
C_COPERCHIO
100
AcDbPolyline
 62
250
  6
CONTINUOUS
 90
8
 70
0
 10
-0.3617544866
 20
-25.7182526801
 10
-0.3636491579
 20
-25.7459314562
 10
-0.3684817222
 20
-25.7715989068
 10
-0.3761695249
 20
-25.7948160251
 10
-0.3865810765
 20
-25.8151857133
 10
-0.3995383015
 20
-25.8323595755
 10
-0.414819584
 20
-25.8460438759
 10
-0.4305994017
 20
-25.855299597
  0
LWPOLYLINE
  5
373
100
AcDbEntity
  8
C_CONTATTI
100
AcDbPolyline
 62
250
  6
CONTINUOUS
 90
15
 70
0
 10
9.3305852853
 20
17.4156237464
 10
9.3358738441
 20
17.4268249155
 10
9.3527306324
 20
17.4589122876
 10
9.3705519135
 20
17.489566161
 10
9.3894067011
 20
17.5187936907
 10
9.4088843287
 20
17.546809549
 10
9.4289273722
 20
17.5736118407
 10
9.4495932557
 20
17.5992024611
 10
9.4706435851
 20
17.6238017672
 10
9.4920326634
 20
17.6474113397
 10
9.5138061877
 20
17.670029598
 10
9.535862855
 20
17.6918721579
 10
9.5581688976
 20
17.7130108914
 10
9.5807580832
 20
17.7333739266
 10
9.6036304119
 20
17.7529612635
  0
LWPOLYLINE
  5
374
100
AcDbEntity
  8
C_CORPO
100
AcDbPolyline
 62
7
  6
CONTINUOUS
 90
21
 70
0
 10
19.8380078882
 20
11.5546281639
 10
19.8283128017
 20
11.5475365284
 10
19.8185670126
 20
11.5403229825
 10
19.808770585
 20
11.5329895755
 10
19.7989226015
 20
11.5255347223
 10
19.7890211367
 20
11.5179532198
 10
19.7790638587
 20
11.5102442326
 10
19.7690520056
 20
11.5024093161
 10
19.7589889074
 20
11.4944469486
 10
19.7488720834
 20
11.4863561264
 10
19.7387026584
 20
11.4781388693
 10
19.7284892655
 20
11.4697983025
 10
19.7182296814
 20
11.4613338343
 10
19.7079245048
 20
11.4527474005
 10
19.6975865047
 20
11.4440460383
 10
19.6872135267
 20
11.4352292445
 10
19.6768058322
 20
11.4262992213
 10
19.6663797347
 20
11.4172671816
 10
19.655933366
 20
11.4081331203
 10
19.6454664614
 20
11.3988990988
 10
19.6245253892
 20
11.3801747398
  0
LWPOLYLINE
  5
375
100
AcDbEntity
  8
C_CORPO
100
AcDbPolyline
 62
7
  6
CONTINUOUS
 90
6
 70
0
 10
19.8380078882
 20
11.5546281639
 10
19.9537079405
 20
11.637944314
 10
20.0580171067
 20
11.7133238011
 10
20.1605797627
 20
11.7877362983
 10
20.2613959084
 20
11.8611818055
 10
20.3604655439
 20
11.9336603228
  0
LINE
  5
376
100
AcDbEntity
  8
C_CORPO
100
AcDbLine
 62
7
  6
CONTINUOUS
 10
19.1830194447
 20
10.9067030091
 11
19.9926489898
 21
11.4303645633
  0
LWPOLYLINE
  5
377
100
AcDbEntity
  8
C_CORPO
100
AcDbPolyline
 62
7
  6
CONTINUOUS
 90
15
 70
0
 10
20.471800062
 20
12.0147134267
 10
20.4777439055
 20
12.0185495989
 10
20.4834511634
 20
12.0225280534
 10
20.4889167048
 20
12.0266449104
 10
20.4941356267
 20
12.03089663
 10
20.4991033477
 20
12.0352787844
 10
20.5038155973
 20
12.0397860662
 10
20.5082682967
 20
12.0444144856
 10
20.5124576002
 20
12.0491597145
 10
20.5163799732
 20
12.0540158628
 10
20.5200321406
 20
12.0589787875
 10
20.523411081
 20
12.0640440328
 10
20.5265140528
 20
12.0692051786
 10
20.5293386099
 20
12.0744579648
 10
20.5317669688
 20
12.0795397859
  0
LWPOLYLINE
  5
378
100
AcDbEntity
  8
C_COPERCHIO
100
AcDbPolyline
 62
7
  6
CONTINUOUS
 90
4
 70
0
 10
-14.9172636279
 20
-10.1354081534
 10
-14.8691974789
 20
-10.1045677729
 10
-14.8439919861
 20
-10.0886916815
 10
-14.7915834879
 20
-10.0564595112
  0
LWPOLYLINE
  5
379
100
AcDbEntity
  8
C_CORPO
100
AcDbPolyline
 62
7
  6
CONTINUOUS
 90
10
 70
0
 10
20.471800062
 20
12.0147134267
 10
20.4703097003
 20
12.0137781346
 10
20.4688031926
 20
12.0128119272
 10
20.4672805577
 20
12.0118148869
 10
20.4657424797
 20
12.0107877743
 10
20.4641883289
 20
12.0097299891
 10
20.4626161045
 20
12.0086395962
 10
20.4610251005
 20
12.0075160324
 10
20.4594159625
 20
12.0063600808
 10
20.3604655439
 20
11.9336603228
  0
LWPOLYLINE
  5
37A
100
AcDbEntity
  8
C_COPERCHIO
100
AcDbPolyline
 62
7
  6
CONTINUOUS
 90
3
 70
0
 10
-14.7915834879
 20
-10.0564595112
 10
-14.764663417
 20
-10.0402916455
 10
-14.7373325219
 20
-10.024389486
  0
LWPOLYLINE
  5
37B
100
AcDbEntity
  8
C_COPERCHIO
100
AcDbPolyline
 62
7
  6
CONTINUOUS
 90
3
 70
0
 10
-14.7373325219
 20
-10.024389486
 10
-14.6825583754
 20
-9.9921915362
 10
-14.6553195682
 20
-9.9770803117
  0
LINE
  5
37C
100
AcDbEntity
  8
C_COPERCHIO
100
AcDbLine
 62
7
  6
CONTINUOUS
 10
-14.6553195682
 20
-9.9770803117
 11
-13.7658734602
 21
-9.532310201
  0
LINE
  5
37D
100
AcDbEntity
  8
C_COPERCHIO
100
AcDbLine
 62
7
  6
CONTINUOUS
 10
-11.2254041274
 20
-8.2779673969
 11
-13.7499815979
 21
-9.5402561321
  0
LWPOLYLINE
  5
37E
100
AcDbEntity
  8
C_COPERCHIO
100
AcDbPolyline
 62
7
  6
CONTINUOUS
 90
10
 70
0
 10
2.2446904519
 20
21.3305063327
 10
2.2445200687
 20
21.3392794318
 10
2.2413297754
 20
21.3691817548
 10
2.2341492605
 20
21.3982505181
 10
2.2229635602
 20
21.4262928248
 10
2.2078190239
 20
21.4528208325
 10
2.1888532196
 20
21.4772880729
 10
2.1663773185
 20
21.4990820007
 10
2.1408266673
 20
21.5176801971
 10
2.1207211875
 20
21.5289127286
  0
LINE
  5
37F
100
AcDbEntity
  8
C_CORPO
100
AcDbLine
 62
7
  6
CONTINUOUS
 10
3.9117960695
 20
22.2627363357
 11
3.9117960695
 21
22.6613119488
  0
LINE
  5
380
100
AcDbEntity
  8
C_CONTATTI
100
AcDbLine
 62
7
  6
CONTINUOUS
 10
3.9854482673
 20
21.4105804732
 11
3.9854482673
 21
21.2400404745
  0
LINE
  5
381
100
AcDbEntity
  8
C_CONTATTI
100
AcDbLine
 62
7
  6
CONTINUOUS
 10
4.4351929286
 20
21.0151681438
 11
4.4351929286
 21
21.5323283064
  0
LINE
  5
382
100
AcDbEntity
  8
C_CONTATTI
100
AcDbLine
 62
7
  6
CONTINUOUS
 10
4.6866720091
 20
21.0599686023
 11
4.6866720091
 21
21.0439713918
  0
LWPOLYLINE
  5
383
100
AcDbEntity
  8
C_COPERCHIO
100
AcDbPolyline
 62
250
  6
CONTINUOUS
 90
8
 70
0
 10
1.7842501066
 20
-24.6864390702
 10
1.7831076602
 20
-24.7137417337
 10
1.7789089194
 20
-24.7390922727
 10
1.7717256981
 20
-24.7620571002
 10
1.7616808555
 20
-24.7822434339
 10
1.7489461952
 20
-24.7993060138
 10
1.7337395263
 20
-24.8129530074
 10
1.7231211116
 20
-24.8196269916
  0
LWPOLYLINE
  5
384
100
AcDbEntity
  8
C_COPERCHIO
100
AcDbPolyline
 62
7
  6
CONTINUOUS
 90
8
 70
0
 10
1.26014564
 20
-24.9692054537
 10
1.258641119
 20
-24.9967024212
 10
1.2541295814
 20
-25.0222210058
 10
1.2466934446
 20
-25.0453220758
 10
1.2364657794
 20
-25.0656076209
 10
1.2236226111
 20
-25.082729654
 10
1.2083800958
 20
-25.0963964728
 10
1.197775243
 20
-25.1030630857
  0
LWPOLYLINE
  5
385
100
AcDbEntity
  8
C_COPERCHIO
100
AcDbPolyline
 62
7
  6
CONTINUOUS
 90
10
 70
0
 10
1.6013602626
 20
-23.1044183798
 10
1.5990032122
 20
-23.1468243987
 10
1.5932567032
 20
-23.1870728273
 10
1.584152941
 20
-23.2247628826
 10
1.5717664439
 20
-23.2594747253
 10
1.5561976903
 20
-23.290909119
 10
1.5375270349
 20
-23.3188411268
 10
1.5159040335
 20
-23.3429111119
 10
1.4914743672
 20
-23.362842641
 10
1.4692989412
 20
-23.3760012992
  0
LWPOLYLINE
  5
386
100
AcDbEntity
  8
C_CORPO
100
AcDbPolyline
 62
250
  6
CONTINUOUS
 90
19
 70
0
 10
19.3399487061
 20
11.0975781602
 10
19.3376737636
 20
11.0956769409
 10
19.3352368334
 20
11.0935683126
 10
19.3326391222
 20
11.0912510669
 10
19.3298902186
 20
11.088734704
 10
19.3269830057
 20
11.0860073442
 10
19.3238935664
 20
11.0830358372
 10
19.3206189365
 20
11.0798149407
 10
19.3171644259
 20
11.0763478965
 10
19.3135181348
 20
11.0726147785
 10
19.3096775663
 20
11.0686112078
 10
19.3056467953
 20
11.0643406681
 10
19.3014230544
 20
11.0597958764
 10
19.297006913
 20
11.0549770126
 10
19.292398269
 20
11.0498844522
 10
19.2875926354
 20
11.0445120275
 10
19.2825997642
 20
11.0388718058
 10
19.277409355
 20
11.0329536106
 10
19.2663381731
 20
11.0201752543
  0
LINE
  5
387
100
AcDbEntity
  8
C_CORPO
100
AcDbLine
 62
7
  6
CONTINUOUS
 10
5.8192407083
 20
24.7231488733
 11
5.8192407083
 21
24.475446443
  0
LINE
  5
388
100
AcDbEntity
  8
C_COPERCHIO
100
AcDbLine
 62
250
  6
CONTINUOUS
 10
6.864175976
 20
19.1278635053
 11
6.864175976
 21
18.8325148914
  0
LINE
  5
389
100
AcDbEntity
  8
C_COPERCHIO
100
AcDbLine
 62
250
  6
CONTINUOUS
 10
6.864175976
 20
-17.7574732232
 11
6.864175976
 21
-17.8064235954
  0
LINE
  5
38A
100
AcDbEntity
  8
C_CONTATTI
100
AcDbLine
 62
7
  6
CONTINUOUS
 10
12.9203364618
 20
17.9967254799
 11
12.7188371039
 21
17.4010010541
  0
LWPOLYLINE
  5
38B
100
AcDbEntity
  8
C_CORPO
100
AcDbPolyline
 62
250
  6
CONTINUOUS
 90
3
 70
0
 10
19.2650654479
 20
11.0081376573
 10
19.2387673265
 20
10.9802175198
 10
19.2196205561
 20
10.9610670105
  0
LINE
  5
38C
100
AcDbEntity
  8
C_CORPO
100
AcDbLine
 62
7
  6
CONTINUOUS
 10
19.3766674416
 20
11.136515159
 11
19.3399487061
 21
11.0975781602
  0
LINE
  5
38D
100
AcDbEntity
  8
C_CORPO
100
AcDbLine
 62
7
  6
CONTINUOUS
 10
19.4042815133
 20
11.1654313106
 11
19.3766674416
 21
11.136515159
  0
LINE
  5
38E
100
AcDbEntity
  8
C_CORPO
100
AcDbLine
 62
7
  6
CONTINUOUS
 10
19.4229624771
 20
11.1847719549
 11
19.4042815133
 21
11.1654313106
  0
LINE
  5
38F
100
AcDbEntity
  8
C_CORPO
100
AcDbLine
 62
7
  6
CONTINUOUS
 10
19.4419412268
 20
11.204229066
 11
19.4229624771
 21
11.1847719549
  0
LINE
  5
390
100
AcDbEntity
  8
C_CORPO
100
AcDbLine
 62
7
  6
CONTINUOUS
 10
19.4612293589
 20
11.2237977697
 11
19.4419412268
 21
11.204229066
  0
LINE
  5
391
100
AcDbEntity
  8
C_CORPO
100
AcDbLine
 62
7
  6
CONTINUOUS
 10
19.4808323533
 20
11.2434648873
 11
19.4612293589
 21
11.2237977697
  0
LINE
  5
392
100
AcDbEntity
  8
C_CORPO
100
AcDbLine
 62
7
  6
CONTINUOUS
 10
19.500738049
 20
11.2632019924
 11
19.4808323533
 21
11.2434648873
  0
LINE
  5
393
100
AcDbEntity
  8
C_CORPO
100
AcDbLine
 62
7
  6
CONTINUOUS
 10
19.5209108949
 20
11.2829563962
 11
19.500738049
 21
11.2632019924
  0
LINE
  5
394
100
AcDbEntity
  8
C_CORPO
100
AcDbLine
 62
7
  6
CONTINUOUS
 10
19.5413284436
 20
11.3026871499
 11
19.5209108949
 21
11.2829563962
  0
LINE
  5
395
100
AcDbEntity
  8
C_CORPO
100
AcDbLine
 62
7
  6
CONTINUOUS
 10
19.5619459377
 20
11.3223339485
 11
19.5413284436
 21
11.3026871499
  0
LINE
  5
396
100
AcDbEntity
  8
C_CORPO
100
AcDbLine
 62
7
  6
CONTINUOUS
 10
19.582709994
 20
11.3418313247
 11
19.5619459377
 21
11.3223339485
  0
LINE
  5
397
100
AcDbEntity
  8
C_CORPO
100
AcDbLine
 62
7
  6
CONTINUOUS
 10
19.6035883406
 20
11.3611328517
 11
19.582709994
 21
11.3418313247
  0
LINE
  5
398
100
AcDbEntity
  8
C_CORPO
100
AcDbLine
 62
7
  6
CONTINUOUS
 10
19.6245253892
 20
11.3801747398
 11
19.6035883406
 21
11.3611328517
  0
LWPOLYLINE
  5
399
100
AcDbEntity
  8
C_COPERCHIO
100
AcDbPolyline
 62
250
  6
CONTINUOUS
 90
6
 70
0
 10
2.1411197541
 20
21.415052832
 10
2.1454718373
 20
21.3897121992
 10
2.1472416017
 20
21.3638091293
 10
2.1463990134
 20
21.3377828301
 10
2.1429583388
 20
21.3120745987
 10
2.1369778969
 20
21.2871203393
  0
LINE
  5
39A
100
AcDbEntity
  8
C_COPERCHIO
100
AcDbLine
 62
7
  6
CONTINUOUS
 10
7.0045060758
 20
19.420916916
 11
7.0045060758
 21
19.0087855807
  0
LINE
  5
39B
100
AcDbEntity
  8
C_COPERCHIO
100
AcDbLine
 62
7
  6
CONTINUOUS
 10
7.0045060758
 20
-17.6837564226
 11
7.0045060758
 21
-17.7521478208
  0
LWPOLYLINE
  5
39C
100
AcDbEntity
  8
C_CORPO
100
AcDbPolyline
 62
7
  6
CONTINUOUS
 90
37
 70
0
 10
8.586417272
 20
17.9185667098
 10
8.5868303134
 20
17.9423971391
 10
8.5885113317
 20
17.9722159024
 10
8.5914857136
 20
18.0020094145
 10
8.5957520592
 20
18.0317636524
 10
8.6013083603
 20
18.0614646117
 10
8.6081520019
 20
18.0910983128
 10
8.6162797628
 20
18.1206508081
 10
8.6256878174
 20
18.1501081879
 10
8.6363717378
 20
18.1794565875
 10
8.6483264951
 20
18.2086821935
 10
8.6615464628
 20
18.2377712501
 10
8.6760254184
 20
18.2667100659
 10
8.6917565472
 20
18.2954850203
 10
8.708732445
 20
18.3240825695
 10
8.7269451216
 20
18.3524892536
 10
8.7463860048
 20
18.3806917024
 10
8.7670459444
 20
18.4086766416
 10
8.7889152163
 20
18.4364308996
 10
8.8119835272
 20
18.4639414132
 10
8.8362400196
 20
18.4911952339
 10
8.8616732765
 20
18.5181795342
 10
8.8882713272
 20
18.5448816132
 10
8.9160216528
 20
18.5712889031
 10
8.9449111919
 20
18.5973889746
 10
8.974926347
 20
18.6231695432
 10
9.0060529908
 20
18.6486184746
 10
9.0382764729
 20
18.6737237908
 10
9.0715816266
 20
18.6984736753
 10
9.105952776
 20
18.7228564791
 10
9.1413737436
 20
18.7468607259
 10
9.1778278577
 20
18.7704751175
 10
9.2152979604
 20
18.7936885393
 10
9.2537664155
 20
18.8164900654
 10
9.293215117
 20
18.8388689636
 10
9.3336254974
 20
18.860814701
 10
9.3749785368
 20
18.8823169482
  0
LWPOLYLINE
  5
39D
100
AcDbEntity
  8
C_CORPO
100
AcDbPolyline
 62
250
  6
CONTINUOUS
 90
4
 70
0
 10
19.3399487061
 20
11.0975781602
 10
19.31566585
 20
11.0668292423
 10
19.2907015696
 20
11.0370119262
 10
19.2650654479
 20
11.0081376573
  0
LINE
  5
39E
100
AcDbEntity
  8
C_CORPO
100
AcDbLine
 62
250
  6
CONTINUOUS
 10
19.2663381731
 20
11.0201752543
 11
19.2564160559
 21
11.0085841682
  0
LINE
  5
39F
100
AcDbEntity
  8
C_COPERCHIO
100
AcDbLine
 62
250
  6
CONTINUOUS
 10
-20.1013770944
 20
18.101912388
 11
-5.2765310168
 21
10.6894893492
  0
LWPOLYLINE
  5
3A0
100
AcDbEntity
  8
C_CORPO
100
AcDbPolyline
 62
250
  6
CONTINUOUS
 90
43
 70
0
 10
9.8876727902
 20
13.3261732792
 10
9.8873075031
 20
13.3476441082
 10
9.8865119854
 20
13.3693541808
 10
9.8852844058
 20
13.3912909226
 10
9.8836224749
 20
13.4134466086
 10
9.8815254322
 20
13.4358031745
 10
9.8789950931
 20
13.4583318616
 10
9.8760317429
 20
13.4810188335
 10
9.8726358195
 20
13.5038502303
 10
9.8688116457
 20
13.5267964713
 10
9.864561457
 20
13.5498421858
 10
9.8598872882
 20
13.5729739101
 10
9.8547952199
 20
13.5961644723
 10
9.8492901546
 20
13.6193938155
 10
9.8433746915
 20
13.6426527445
 10
9.8370523913
 20
13.6659302877
 10
9.8303279238
 20
13.6892100427
 10
9.823205155
 20
13.7124793027
 10
9.8156861611
 20
13.7357326609
 10
9.8077743918
 20
13.7589583486
 10
9.7994753512
 20
13.7821390822
 10
9.7907940746
 20
13.8052611791
 10
9.7817351341
 20
13.8283116443
 10
9.7723044069
 20
13.8512745677
 10
9.7625094121
 20
13.8741320008
 10
9.752356647
 20
13.8968687853
 10
9.7418519588
 20
13.9194716609
 10
9.7310024715
 20
13.9419257169
 10
9.7198152896
 20
13.964216405
 10
9.7082970806
 20
13.9863304676
 10
9.6964546428
 20
14.008255091
 10
9.6842953939
 20
14.0299766178
 10
9.6718268595
 20
14.0514815767
 10
9.6590562229
 20
14.072757578
 10
9.6459914154
 20
14.0937914328
 10
9.6326405585
 20
14.1145699968
 10
9.6190113317
 20
14.1350811137
 10
9.6051118459
 20
14.1553125517
 10
9.5909510815
 20
14.1752511171
 10
9.5765382914
 20
14.1948834795
 10
9.5618819361
 20
14.2141982256
 10
9.5469917387
 20
14.2331825384
 10
9.5463533505
 20
14.2339698926
  0
LINE
  5
3A1
100
AcDbEntity
  8
C_CORPO
100
AcDbLine
 62
250
  6
CONTINUOUS
 10
9.3749785368
 20
18.4834952169
 11
9.3749785368
 21
18.8823169482
  0
LINE
  5
3A2
100
AcDbEntity
  8
C_CORPO
100
AcDbLine
 62
7
  6
CONTINUOUS
 10
9.5463533505
 20
-15.2891639863
 11
9.5463533505
 21
-14.2111858295
  0
LINE
  5
3A3
100
AcDbEntity
  8
C_CORPO
100
AcDbLine
 62
7
  6
CONTINUOUS
 10
9.5463533505
 20
14.1108998561
 11
9.5463533505
 21
15.1888780129
  0
LINE
  5
3A4
100
AcDbEntity
  8
C_CORPO
100
AcDbLine
 62
7
  6
CONTINUOUS
 10
10.0576887347
 20
18.8234995153
 11
10.0576887347
 21
18.3904868134
  0
LINE
  5
3A5
100
AcDbEntity
  8
C_CONTATTI
100
AcDbLine
 62
7
  6
CONTINUOUS
 10
10.9150947229
 20
17.097229108
 11
10.9150947229
 21
17.0801077856
  0
LWPOLYLINE
  5
3A6
100
AcDbEntity
  8
C_CORPO
100
AcDbPolyline
 62
7
  6
CONTINUOUS
 90
27
 70
0
 10
9.5463533505
 20
-14.2111846842
 10
9.5467328682
 20
-14.1853538258
 10
9.5476884284
 20
-14.1594028199
 10
9.549220031
 20
-14.1333316664
 10
9.5513552837
 20
-14.107116693
 10
9.5540665789
 20
-14.080781572
 10
9.5572710934
 20
-14.0543973203
 10
9.5609654175
 20
-14.0279703344
 10
9.565152961
 20
-14.0014942178
 10
9.5697611302
 20
-13.9750207975
 10
9.5747869863
 20
-13.9485549118
 10
9.5802334681
 20
-13.9220917225
 10
9.5860367982
 20
-13.8956685418
 10
9.5921944915
 20
-13.8692890221
 10
9.5987090331
 20
-13.8429495111
 10
9.605524101
 20
-13.8166763647
 10
9.6126375747
 20
-13.7904724176
 10
9.6200515746
 20
-13.7643348351
 10
9.6277161401
 20
-13.7382814696
 10
9.6356294936
 20
-13.7123144251
 10
9.6437934127
 20
-13.6864315976
 10
9.6521632688
 20
-13.6606445274
 10
9.6607375626
 20
-13.6349548131
 10
9.6695177934
 20
-13.6093608561
 10
9.6784638308
 20
-13.5838694016
 10
9.6875744238
 20
-13.5584815974
 10
9.6968508234
 20
-13.5331962957
  0
LINE
  5
3A7
100
AcDbEntity
  8
C_COPERCHIO
100
AcDbLine
 62
250
  6
CONTINUOUS
 10
-19.1088110844
 20
19.8537165439
 11
-4.2605926236
 21
12.4296073135
  0
LINE
  5
3A8
100
AcDbEntity
  8
C_CORPO
100
AcDbLine
 62
250
  6
CONTINUOUS
 10
1.242308249
 20
23.6911067154
 11
1.5968039437
 21
22.7714042447
  0
LINE
  5
3A9
100
AcDbEntity
  8
C_CORPO
100
AcDbLine
 62
7
  6
CONTINUOUS
 10
11.6899706626
 20
18.7722246523
 11
11.6899706626
 21
18.3736490391
  0
LINE
  5
3AA
100
AcDbEntity
  8
C_CONTATTI
100
AcDbLine
 62
7
  6
CONTINUOUS
 10
11.7636228603
 20
17.5214931767
 11
11.7636228603
 21
17.0744424286
  0
LINE
  5
3AB
100
AcDbEntity
  8
C_CONTATTI
100
AcDbLine
 62
7
  6
CONTINUOUS
 10
12.2133675217
 20
17.1165533294
 11
12.2133675217
 21
17.6432410099
  0
LINE
  5
3AC
100
AcDbEntity
  8
C_CONTATTI
100
AcDbLine
 62
7
  6
CONTINUOUS
 10
12.4648466022
 20
17.1708813058
 11
12.4648466022
 21
17.1548840938
  0
LINE
  5
3AD
100
AcDbEntity
  8
C_COPERCHIO
100
AcDbLine
 62
250
  6
CONTINUOUS
 10
0.0345355395
 20
14.7723624862
 11
-1.6107375221
 21
15.5949921556
  0
LINE
  5
3AE
100
AcDbEntity
  8
C_COPERCHIO
100
AcDbLine
 62
250
  6
CONTINUOUS
 10
0.1665587793
 20
15.0133316484
 11
-1.4790569144
 21
15.8361394953
  0
LINE
  5
3AF
100
AcDbEntity
  8
C_COPERCHIO
100
AcDbLine
 62
250
  6
CONTINUOUS
 10
-13.1833465883
 20
21.6882843323
 11
-14.8289622821
 21
22.5110921791
  0
LWPOLYLINE
  5
3B0
100
AcDbEntity
  8
C_COPERCHIO
100
AcDbPolyline
 62
250
  6
CONTINUOUS
 90
7
 70
0
 10
-13.3197058493
 20
21.4494763192
 10
-14.9649535896
 20
22.2721071184
 10
-14.966935728
 20
22.2730919504
 10
-14.9689285553
 20
22.2740687357
 10
-14.9709319928
 20
22.2750372096
 10
-14.9729459594
 20
22.2759971053
 10
-14.9749703719
 20
22.276948154
  0
LINE
  5
3B1
100
AcDbEntity
  8
C_COPERCHIO
100
AcDbLine
 62
250
  6
CONTINUOUS
 10
0.1809715761
 20
15.0060134294
 11
0.1665587793
 21
15.0133316484
  0
LWPOLYLINE
  5
3B2
100
AcDbEntity
  8
C_COPERCHIO
100
AcDbPolyline
 62
250
  6
CONTINUOUS
 90
6
 70
0
 10
0.0447012231
 20
14.7671129444
 10
0.0426439817
 20
14.7682024712
 10
0.0405987334
 20
14.7692719881
 10
0.0385655386
 20
14.7703216955
 10
0.0365444553
 20
14.7713517945
 10
0.0345355395
 20
14.7723624862
  0
LWPOLYLINE
  5
3B3
100
AcDbEntity
  8
C_COPERCHIO
100
AcDbPolyline
 62
7
  6
CONTINUOUS
 90
11
 70
0
 10
-13.8746991248
 20
22.3786692603
 10
-13.8972643035
 20
22.3911029532
 10
-13.9183016704
 20
22.4047439716
 10
-13.9393432414
 20
22.4203617812
 10
-13.9602537781
 20
22.4379329237
 10
-13.980939312
 20
22.45741636
 10
-14.0013075727
 20
22.4787630313
 10
-14.021175771
 20
22.5019824882
 10
-14.0403914464
 20
22.5270484393
 10
-14.0588718466
 20
22.5538587092
 10
-14.0765139389
 20
22.5823084692
  0
LWPOLYLINE
  5
3B4
100
AcDbEntity
  8
C_COPERCHIO
100
AcDbPolyline
 62
7
  6
CONTINUOUS
 90
11
 70
0
 10
-0.5103809566
 20
15.6965101762
 10
-0.5329461642
 20
15.7089438861
 10
-0.5539835858
 20
15.7225849446
 10
-0.5750252309
 20
15.7382028207
 10
-0.5959358668
 20
15.7557740668
 10
-0.6166215797
 20
15.7752577048
 10
-0.6369900271
 20
15.7966046297
 10
-0.6568582622
 20
15.8198242127
 10
-0.6760738017
 20
15.8448900757
 10
-0.6945539737
 20
15.8717000812
 10
-0.7121957745
 20
15.900149387
  0
LWPOLYLINE
  5
3B5
100
AcDbEntity
  8
C_CORPO
100
AcDbPolyline
 62
7
  6
CONTINUOUS
 90
6
 70
0
 10
8.5946800696
 20
17.8130005651
 10
8.5930465636
 20
17.8231503109
 10
8.5895523067
 20
17.8529297106
 10
8.5873509234
 20
17.8827400037
 10
8.58644345
 20
17.9125671595
 10
8.586417272
 20
17.9185667098
  0
LINE
  5
3B6
100
AcDbEntity
  8
C_CORPO
100
AcDbLine
 62
7
  6
CONTINUOUS
 10
13.5974153014
 20
20.8340615768
 11
13.5974153014
 21
20.5863591465
  0
LINE
  5
3B7
100
AcDbEntity
  8
C_CORPO
100
AcDbLine
 62
7
  6
CONTINUOUS
 10
9.6968508234
 20
-13.5331962957
 11
9.7073752068
 21
-13.5050491749
  0
LWPOLYLINE
  5
3B8
100
AcDbEntity
  8
C_CORPO
100
AcDbPolyline
 62
7
  6
CONTINUOUS
 90
5
 70
0
 10
9.7073752068
 20
-13.5050491749
 10
9.7157908894
 20
-13.4829438352
 10
9.7254545557
 20
-13.4579766764
 10
9.7352143362
 20
-13.4331164291
 10
9.7450693909
 20
-13.4083635492
  0
LINE
  5
3B9
100
AcDbEntity
  8
C_CORPO
100
AcDbLine
 62
7
  6
CONTINUOUS
 10
9.7450693909
 20
-13.4083635492
 11
9.7650370478
 21
-13.359178264
  0
LINE
  5
3BA
100
AcDbEntity
  8
C_CORPO
100
AcDbLine
 62
7
  6
CONTINUOUS
 10
9.7650370478
 20
-13.359178264
 11
9.7852646793
 21
-13.3104197212
  0
LWPOLYLINE
  5
3BB
100
AcDbEntity
  8
C_CORPO
100
AcDbPolyline
 62
7
  6
CONTINUOUS
 90
10
 70
0
 10
20.5317669688
 20
12.0795397859
 10
20.5341440432
 20
12.0852179433
 10
20.5361214115
 20
12.090713911
 10
20.537813359
 20
12.0962811629
 10
20.5392188335
 20
12.1019124146
 10
20.5403370869
 20
12.1076032882
 10
20.5411676525
 20
12.1133491926
 10
20.5417103385
 20
12.1191425222
 10
20.5419652445
 20
12.1249789001
 10
20.5419867291
 20
12.1272468402
  0
LINE
  5
3BC
100
AcDbEntity
  8
C_CORPO
100
AcDbLine
 62
7
  6
CONTINUOUS
 10
9.7852646793
 20
-13.3104197212
 11
9.8056665833
 21
-13.2620862381
  0
LINE
  5
3BD
100
AcDbEntity
  8
C_CORPO
100
AcDbLine
 62
7
  6
CONTINUOUS
 10
9.8056665833
 20
-13.2620862381
 11
9.8364596896
 21
-13.1903816432
  0
LWPOLYLINE
  5
3BE
100
AcDbEntity
  8
C_CORPO
100
AcDbPolyline
 62
7
  6
CONTINUOUS
 90
3
 70
0
 10
9.8364596896
 20
-13.1903816432
 10
9.8774680615
 20
-13.0962708077
 10
9.8876728115
 20
-13.0730126146
  0
LWPOLYLINE
  5
3BF
100
AcDbEntity
  8
C_CORPO
100
AcDbPolyline
 62
250
  6
CONTINUOUS
 90
19
 70
0
 10
20.471800062
 20
12.0147134267
 10
20.4532812174
 20
11.9745428597
 10
20.4339071606
 20
11.9352940532
 10
20.4136866765
 20
11.8969848065
 10
20.3926289299
 20
11.8596324861
 10
20.3707434729
 20
11.8232540385
 10
20.3480402422
 20
11.7878659806
 10
20.3245295415
 20
11.7534843705
 10
20.3002220257
 20
11.7201247871
 10
20.2751287074
 20
11.6878023436
 10
20.249260959
 20
11.6565316907
 10
20.2226305165
 20
11.6263270174
 10
20.1952494642
 20
11.5972020301
 10
20.1671302233
 20
11.5691699402
 10
20.1382855415
 20
11.5422434547
 10
20.1087284945
 20
11.5164347795
 10
20.0784724839
 20
11.4917556172
 10
20.0475312317
 20
11.4682171609
 10
20.0159187698
 20
11.4458300854
  0
LWPOLYLINE
  5
3C0
100
AcDbEntity
  8
C_CORPO
100
AcDbPolyline
 62
7
  6
CONTINUOUS
 90
22
 70
0
 10
20.5317669787
 20
12.0795394947
 10
20.5156116669
 20
12.0445884281
 10
20.4960477455
 20
12.0047155611
 10
20.4756966153
 20
11.9657598585
 10
20.4545689841
 20
11.9277247713
 10
20.4326809813
 20
11.8906231363
 10
20.4100554225
 20
11.8544764912
 10
20.3867109967
 20
11.8192965962
 10
20.3626600862
 20
11.7850847102
 10
20.3379177433
 20
11.7518459947
 10
20.3125005022
 20
11.7195870102
 10
20.2864247653
 20
11.688313386
 10
20.2597062095
 20
11.6580293064
 10
20.2323666075
 20
11.6287449119
 10
20.2044196244
 20
11.600460615
 10
20.1758687004
 20
11.5731675594
 10
20.1467338905
 20
11.5468737812
 10
20.1170309901
 20
11.521582536
 10
20.0867556591
 20
11.4972810777
 10
20.055917791
 20
11.473970495
 10
20.0245427966
 20
11.4516631207
 10
19.9926489898
 20
11.4303645633
  0
LINE
  5
3C1
100
AcDbEntity
  8
C_CONTATTI
100
AcDbLine
 62
7
  6
CONTINUOUS
 10
12.2133675217
 20
17.6432410099
 11
11.7636228603
 21
17.5214931767
  0
LINE
  5
3C2
100
AcDbEntity
  8
C_COPERCHIO
100
AcDbLine
 62
7
  6
CONTINUOUS
 10
-0.3617544866
 20
15.6508018104
 11
0.1809715761
 21
15.5356724929
  0
LWPOLYLINE
  5
3C3
100
AcDbEntity
  8
C_COPERCHIO
100
AcDbPolyline
 62
7
  6
CONTINUOUS
 90
3
 70
0
 10
-0.4707143179
 20
15.6802970064
 10
-0.4912300962
 20
15.6877721415
 10
-0.5103809566
 20
15.6965101762
  0
LWPOLYLINE
  5
3C4
100
AcDbEntity
  8
C_COPERCHIO
100
AcDbPolyline
 62
250
  6
CONTINUOUS
 90
19
 70
0
 10
-4.2261570676
 20
18.4940680573
 10
-4.1993714749
 20
18.4816277754
 10
-4.1694926081
 20
18.4697341087
 10
-4.1364564648
 20
18.4586068383
 10
-4.1000180944
 20
18.4484230417
 10
-4.0604362774
 20
18.4395156555
 10
-4.0185764201
 20
18.4322679149
 10
-3.9747015736
 20
18.4268548046
 10
-3.9291004415
 20
18.4234344384
 10
-3.8828661314
 20
18.4221607283
 10
-3.8363673769
 20
18.423071555
 10
-3.7900331696
 20
18.4261814033
 10
-3.7450649059
 20
18.4313671419
 10
-3.7018740427
 20
18.4384855408
 10
-3.6606875129
 20
18.4474005676
 10
-3.6222822795
 20
18.4577959557
 10
-3.5869586493
 20
18.4693884312
 10
-3.5546135754
 20
18.4820128541
 10
-3.5252744918
 20
18.4954656154
  0
LWPOLYLINE
  5
3C5
100
AcDbEntity
  8
C_COPERCHIO
100
AcDbPolyline
 62
250
  6
CONTINUOUS
 90
19
 70
0
 10
-4.0872038544
 20
18.7367233647
 10
-4.0711347429
 20
18.7290223025
 10
-4.0531860761
 20
18.7219432969
 10
-4.0333578539
 20
18.7154863478
 10
-4.0114191432
 20
18.7094930448
 10
-3.9876008771
 20
18.7041217983
 10
-3.962595855
 20
18.69984784
 10
-3.9362847656
 20
18.696762312
 10
-3.9087869203
 20
18.6947740721
 10
-3.8811530524
 20
18.6940849249
 10
-3.8533536402
 20
18.6948109592
 10
-3.8254182054
 20
18.6968360862
 10
-3.7984860458
 20
18.7000138435
 10
-3.772698637
 20
18.7044305391
 10
-3.7479145036
 20
18.709999865
 10
-3.7248485169
 20
18.7163164352
 10
-3.7037389674
 20
18.7232451208
 10
-3.6843475648
 20
18.7309210507
 10
-3.6666743089
 20
18.7393442247
  0
LINE
  5
3C6
100
AcDbEntity
  8
C_COPERCHIO
100
AcDbLine
 62
250
  6
CONTINUOUS
 10
-14.8289622821
 20
22.5110921791
 11
-14.8433750788
 21
22.5181765483
  0
LINE
  5
3C7
100
AcDbEntity
  8
C_COPERCHIO
100
AcDbLine
 62
7
  6
CONTINUOUS
 10
-4.2261570676
 20
17.4215707122
 11
-9.7291396539
 21
20.1730620054
  0
LINE
  5
3C8
100
AcDbEntity
  8
C_COPERCHIO
100
AcDbLine
 62
7
  6
CONTINUOUS
 10
-15.4362895119
 20
23.1594644538
 11
-13.8746991248
 21
22.3786692603
  0
LINE
  5
3C9
100
AcDbEntity
  8
C_COPERCHIO
100
AcDbLine
 62
7
  6
CONTINUOUS
 10
-0.5103809566
 20
15.6965101762
 11
-2.0719713512
 21
16.4773053735
  0
LINE
  5
3CA
100
AcDbEntity
  8
C_COPERCHIO
100
AcDbLine
 62
250
  6
CONTINUOUS
 10
-15.3644212906
 20
23.226262145
 11
-14.0765139389
 21
22.5823084692
  0
LINE
  5
3CB
100
AcDbEntity
  8
C_COPERCHIO
100
AcDbLine
 62
250
  6
CONTINUOUS
 10
-0.7121957745
 20
15.900149387
 11
-2.0001031262
 21
16.5441030628
  0
LINE
  5
3CC
100
AcDbEntity
  8
C_COPERCHIO
100
AcDbLine
 62
250
  6
CONTINUOUS
 10
-15.3644212906
 20
23.5435309454
 11
-14.0765139389
 21
22.8995772696
  0
LINE
  5
3CD
100
AcDbEntity
  8
C_COPERCHIO
100
AcDbLine
 62
250
  6
CONTINUOUS
 10
-0.7121957745
 20
16.2174181874
 11
-2.0001031262
 21
16.8613718632
  0
LINE
  5
3CE
100
AcDbEntity
  8
C_COPERCHIO
100
AcDbLine
 62
7
  6
CONTINUOUS
 10
-2.0369721703
 20
17.0794715129
 11
-3.1592717424
 21
17.640621299
  0
LINE
  5
3CF
100
AcDbEntity
  8
C_COPERCHIO
100
AcDbLine
 62
7
  6
CONTINUOUS
 10
-9.8755862633
 20
20.9987785595
 11
-12.1041725244
 21
22.11307169
  0
LINE
  5
3D0
100
AcDbEntity
  8
C_COPERCHIO
100
AcDbLine
 62
250
  6
CONTINUOUS
 10
-15.190729774
 20
23.8468500797
 11
-13.9028224224
 21
23.2028964039
  0
LINE
  5
3D1
100
AcDbEntity
  8
C_COPERCHIO
100
AcDbLine
 62
250
  6
CONTINUOUS
 10
-0.5385042579
 20
16.5207373216
 11
-1.8264116096
 21
17.1646909975
  0
LINE
  5
3D2
100
AcDbEntity
  8
C_COPERCHIO
100
AcDbLine
 62
250
  6
CONTINUOUS
 10
-9.7291396539
 20
21.2455593504
 11
-4.2261570676
 21
18.4940680573
  0
LINE
  5
3D3
100
AcDbEntity
  8
C_COPERCHIO
100
AcDbLine
 62
250
  6
CONTINUOUS
 10
-9.5901864407
 20
21.4882146578
 11
-4.0872038544
 21
18.7367233647
  0
LINE
  5
3D4
100
AcDbEntity
  8
C_COPERCHIO
100
AcDbLine
 62
7
  6
CONTINUOUS
 10
1.9670908611
 20
15.7694302488
 11
1.2982231925
 21
16.1038640831
  0
LINE
  5
3D5
100
AcDbEntity
  8
C_COPERCHIO
100
AcDbLine
 62
7
  6
CONTINUOUS
 10
-10.6848464919
 20
22.0953989253
 11
-12.066094972
 21
22.7860231653
  0
LINE
  5
3D6
100
AcDbEntity
  8
C_COPERCHIO
100
AcDbLine
 62
7
  6
CONTINUOUS
 10
-9.2404115997
 20
21.893626793
 11
-3.3006715594
 21
18.9237567728
  0
LWPOLYLINE
  5
3D7
100
AcDbEntity
  8
C_COPERCHIO
100
AcDbPolyline
 62
7
  6
CONTINUOUS
 90
13
 70
0
 10
-3.3006715594
 20
18.9237567728
 10
-3.2822202911
 20
18.9130442839
 10
-3.264077894
 20
18.8995559175
 10
-3.2465589215
 20
18.8835200479
 10
-3.2299677228
 20
18.8652082085
 10
-3.2145892782
 20
18.8449330987
 10
-3.2006841778
 20
18.8230434141
 10
-3.1884878458
 20
18.799914787
 10
-3.1782113299
 20
18.7759416353
 10
-3.1700334987
 20
18.7515332175
 10
-3.1640931413
 20
18.727107728
 10
-3.1604868043
 20
18.7030850769
 10
-3.1592717424
 20
18.6798781635
  0
LWPOLYLINE
  5
3D8
100
AcDbEntity
  8
C_COPERCHIO
100
AcDbPolyline
 62
250
  6
CONTINUOUS
 90
13
 70
0
 10
-3.6666743089
 20
18.7393442247
 10
-3.6485223766
 20
18.7284794909
 10
-3.6306386945
 20
18.7148597026
 10
-3.6133291386
 20
18.698717808
 10
-3.5968897658
 20
18.6803298924
 10
-3.5816017491
 20
18.6600104563
 10
-3.5677265697
 20
18.6381070363
 10
-3.5555015437
 20
18.6149942609
 10
-3.5451357637
 20
18.5910674428
 10
-3.5368065224
 20
18.5667358182
 10
-3.5306562802
 20
18.5424155465
 10
-3.5267902289
 20
18.5185225934
 10
-3.5252744918
 20
18.4954656154
  0
LWPOLYLINE
  5
3D9
100
AcDbEntity
  8
C_COPERCHIO
100
AcDbPolyline
 62
7
  6
CONTINUOUS
 90
16
 70
0
 10
1.2594619397
 20
15.4309049512
 10
1.2962881538
 20
15.4078749057
 10
1.3325521418
 20
15.3803806329
 10
1.367853956
 20
15.3487643863
 10
1.4019325315
 20
15.313296149
 10
1.4342916476
 20
15.274493027
 10
1.4642674697
 20
15.2332204685
 10
1.4914743672
 20
15.1902866747
 10
1.5159040335
 20
15.1460050714
 10
1.5375270349
 20
15.1005457439
 10
1.5561976903
 20
15.0543471218
 10
1.5717664439
 20
15.0079357965
 10
1.584152941
 20
14.9615655192
 10
1.5932567032
 20
14.9156291677
 10
1.5990032122
 20
14.8706579893
 10
1.6013602626
 20
14.8270984054
  0
LWPOLYLINE
  5
3DA
100
AcDbEntity
  8
C_CORPO
100
AcDbPolyline
 62
7
  6
CONTINUOUS
 90
18
 70
0
 10
9.619844756
 20
13.7408669439
 10
9.6126375745
 20
13.758825768
 10
9.6055241008
 20
13.7776634975
 10
9.598709033
 20
13.7968794345
 10
9.5921944914
 20
13.8164729402
 10
9.5860367981
 20
13.8364759819
 10
9.580233468
 20
13.8568896383
 10
9.5747869863
 20
13.8777128306
 10
9.5697611302
 20
13.8989742899
 10
9.565152961
 20
13.9206758113
 10
9.5609654175
 20
13.9428155996
 10
9.5572710934
 20
13.9654170009
 10
9.5540665788
 20
13.9884828806
 10
9.5513552837
 20
14.0120103732
 10
9.549220031
 20
14.0360142277
 10
9.5476884284
 20
14.0604993602
 10
9.5467328682
 20
14.0854608546
 10
9.5463533505
 20
14.1108987108
  0
LINE
  5
3DB
100
AcDbEntity
  8
C_CORPO
100
AcDbLine
 62
250
  6
CONTINUOUS
 10
9.0204828421
 20
19.8020194189
 11
9.3749785368
 21
18.8823169482
  0
LINE
  5
3DC
100
AcDbEntity
  8
C_COPERCHIO
100
AcDbLine
 62
7
  6
CONTINUOUS
 10
0.1809715761
 20
-24.5139316465
 11
-0.3617544866
 21
-25.1531654306
  0
LWPOLYLINE
  5
3DD
100
AcDbEntity
  8
C_CORPO
100
AcDbPolyline
 62
250
  6
CONTINUOUS
 90
33
 70
0
 10
9.6789957848
 20
-13.5823870454
 10
9.6842953939
 20
-13.5785462162
 10
9.6964546428
 20
-13.5689731192
 10
9.7082970806
 20
-13.5588692271
 10
9.7198152896
 20
-13.5482408093
 10
9.7310024715
 20
-13.5370940117
 10
9.7418519588
 20
-13.5254353135
 10
9.752356647
 20
-13.5132721574
 10
9.7625094121
 20
-13.5006126056
 10
9.7723044069
 20
-13.4874639034
 10
9.7817351341
 20
-13.4738346827
 10
9.7907940746
 20
-13.4597358232
 10
9.7994753512
 20
-13.4451771542
 10
9.8077743918
 20
-13.4301670015
 10
9.8156861611
 20
-13.4147145946
 10
9.823205155
 20
-13.3988315161
 10
9.8303279238
 20
-13.3825259059
 10
9.8370523913
 20
-13.3658017088
 10
9.8433746915
 20
-13.348667534
 10
9.8492901546
 20
-13.3311349482
 10
9.8547952199
 20
-13.3132120886
 10
9.8598872882
 20
-13.2949052063
 10
9.864561457
 20
-13.27622935
 10
9.8688116457
 20
-13.2572066523
 10
9.8726358195
 20
-13.2378481196
 10
9.8760317429
 20
-13.2181667166
 10
9.8789950931
 20
-13.1981890363
 10
9.8815254322
 20
-13.1779280293
 10
9.8836224749
 20
-13.1573969877
 10
9.8852844058
 20
-13.1366244207
 10
9.8865119854
 20
-13.115629376
 10
9.8873075031
 20
-13.0944207875
 10
9.8876727902
 20
-13.0730126261
  0
LINE
  5
3DE
100
AcDbEntity
  8
C_CORPO
100
AcDbLine
 62
250
  6
CONTINUOUS
 10
9.8876728115
 20
-13.0730126146
 11
18.5904130808
 21
-8.3776845837
  0
LINE
  5
3DF
100
AcDbEntity
  8
C_CORPO
100
AcDbLine
 62
7
  6
CONTINUOUS
 10
9.6772317835
 20
-13.5873800821
 11
18.3458971009
 21
-8.9104362695
  0
LWPOLYLINE
  5
3E0
100
AcDbEntity
  8
C_CORPO
100
AcDbPolyline
 62
250
  6
CONTINUOUS
 90
118
 70
0
 10
19.8476522641
 20
11.5615978368
 10
19.8330806106
 20
11.5666269909
 10
19.8188568564
 20
11.5711128042
 10
19.8049810016
 20
11.5750552768
 10
19.791469306
 20
11.5784187492
 10
19.7783055098
 20
11.5812388808
 10
19.7654408334
 20
11.5836226496
 10
19.7528796851
 20
11.5855794287
 10
19.7406176567
 20
11.5870998449
 10
19.7285927445
 20
11.5882627568
 10
19.7168047583
 20
11.5890768076
 10
19.7052538884
 20
11.5895333541
 10
19.6938787016
 20
11.589685326
 10
19.6826614671
 20
11.5895373854
 10
19.6716199157
 20
11.5890848703
 10
19.6607458069
 20
11.5883667237
 10
19.6500222848
 20
11.5873805289
 10
19.6394662053
 20
11.5861287027
 10
19.6291198955
 20
11.5846574385
 10
19.6189846917
 20
11.5829637783
 10
19.6090592575
 20
11.5810506801
 10
19.5993819116
 20
11.5789732124
 10
19.5899588534
 20
11.5767311883
 10
19.5807838834
 20
11.5743247946
 10
19.5718767218
 20
11.5718096604
 10
19.5632474919
 20
11.569189642
 10
19.5548860704
 20
11.5664608831
 10
19.5467818076
 20
11.5636674439
 10
19.5389448777
 20
11.5608161629
 10
19.5313651065
 20
11.5579002017
 10
19.5240013221
 20
11.5549431053
 10
19.5168664798
 20
11.5519553629
 10
19.5099476244
 20
11.5489264853
 10
19.5031647173
 20
11.5458485505
 10
19.4965220167
 20
11.5427296445
 10
19.4900152645
 20
11.5395616814
 10
19.4835516481
 20
11.5363124809
 10
19.4771312127
 20
11.5329880705
 10
19.470753913
 20
11.5295824228
 10
19.4643268003
 20
11.5260452752
 10
19.4578482668
 20
11.522381622
 10
19.4513199202
 20
11.5185864688
 10
19.4446536353
 20
11.5145945696
 10
19.4378440874
 20
11.5104084756
 10
19.4308966012
 20
11.5060256356
 10
19.4237390245
 20
11.5013731497
 10
19.4163607403
 20
11.496448965
 10
19.4087723657
 20
11.4912551344
 10
19.4009336001
 20
11.4857249161
 10
19.3928346945
 20
11.4798546225
 10
19.384485398
 20
11.4736479411
 10
19.3758746563
 20
11.4670491934
 10
19.3669913191
 20
11.460050576
 10
19.3578465368
 20
11.4526598923
 10
19.3484627064
 20
11.4448448737
 10
19.3388322846
 20
11.4365971592
 10
19.3289628147
 20
11.42792511
 10
19.3188993238
 20
11.4188215407
 10
19.308644195
 20
11.4092853816
 10
19.2981950453
 20
11.3993177026
 10
19.2875897524
 20
11.3889145285
 10
19.2768439851
 20
11.3780907058
 10
19.2659420746
 20
11.366831388
 10
19.254874892
 20
11.3550880599
 10
19.2436618718
 20
11.3428869103
 10
19.2322835796
 20
11.3302017504
 10
19.2206725834
 20
11.3169054992
 10
19.2088251632
 20
11.3030029737
 10
19.1967450392
 20
11.288489357
 10
19.1843759394
 20
11.2732231165
 10
19.1717117915
 20
11.2572059311
 10
19.158758668
 20
11.240436122
 10
19.1454785148
 20
11.2227671207
 10
19.131847726
 20
11.204172586
 10
19.1178899076
 20
11.1846788591
 10
19.1036378234
 20
11.1642183949
 10
19.0890668556
 20
11.142751625
 10
19.074201622
 20
11.1203181178
 10
19.0591487396
 20
11.096969034
 10
19.0439621313
 20
11.0727943508
 10
19.0285878742
 20
11.0477040908
 10
19.0129708168
 20
11.0214794835
 10
18.9971179611
 20
10.9941602921
 10
18.9810223052
 20
10.9657067533
 10
18.9646076917
 20
10.9357808065
 10
18.9478353441
 20
10.9043433792
 10
18.9307440391
 20
10.871433544
 10
18.9133739493
 20
10.8368304579
 10
18.8956440561
 20
10.8003730032
 10
18.8776353782
 20
10.7622222976
 10
18.8596311444
 20
10.7226408516
 10
18.8415945309
 20
10.6814908695
 10
18.8235623617
 20
10.638910147
 10
18.8059283366
 20
10.5955745824
 10
18.7887325187
 20
10.5514960561
 10
18.7719348451
 20
10.5066626879
 10
18.7558088273
 20
10.4617147343
 10
18.7404240651
 20
10.4167930612
 10
18.7257109587
 20
10.3717568028
 10
18.7117342202
 20
10.3268236186
 10
18.698508896
 20
10.2820294288
 10
18.6860199396
 20
10.2373383133
 10
18.6742869247
 20
10.1928601714
 10
18.6633077644
 20
10.1485705147
 10
18.6530845454
 20
10.1044938318
 10
18.6436431021
 20
10.0608134878
 10
18.6349932055
 20
10.0175488915
 10
18.6271250846
 20
9.9746806343
 10
18.6200352598
 20
9.9323338548
 10
18.6137301452
 20
9.8905347536
 10
18.6082033268
 20
9.8492571302
 10
18.603432083
 20
9.808547522
 10
18.5994167349
 20
9.7684049732
 10
18.5961569614
 20
9.7288304397
 10
18.5936290777
 20
9.6898733266
 10
18.591825189
 20
9.6515501024
 10
18.59075319
 20
9.6138442988
 10
18.5904130808
 20
9.5767559156
  0
LWPOLYLINE
  5
3E1
100
AcDbEntity
  8
C_COPERCHIO
100
AcDbPolyline
 62
7
  6
CONTINUOUS
 90
3
 70
0
 10
-13.8350324824
 20
22.3624560886
 10
-13.85554828
 20
22.3699312321
 10
-13.8746991248
 20
22.3786692603
  0
LWPOLYLINE
  5
3E2
100
AcDbEntity
  8
C_COPERCHIO
100
AcDbPolyline
 62
250
  6
CONTINUOUS
 90
7
 70
0
 10
-9.5938563464
 20
21.7029352435
 10
-9.612610035
 20
21.7105233246
 10
-9.6310007583
 20
21.715040749
 10
-9.6487139681
 20
21.7164102502
 10
-9.6654467037
 20
21.7146084022
 10
-9.6809127734
 20
21.7096660208
 10
-9.686352966
 20
21.7070067893
  0
LWPOLYLINE
  5
3E3
100
AcDbEntity
  8
C_COPERCHIO
100
AcDbPolyline
 62
7
  6
CONTINUOUS
 90
6
 70
0
 10
-9.2404115997
 20
21.893626793
 10
-9.2588628681
 20
21.9013770174
 10
-9.2770052652
 20
21.9060281551
 10
-9.2945242377
 20
21.9075027061
 10
-9.3111154363
 20
21.9057777642
 10
-9.3277507512
 20
21.9003165729
  0
LWPOLYLINE
  5
3E4
100
AcDbEntity
  8
C_CORPO
100
AcDbPolyline
 62
7
  6
CONTINUOUS
 90
22
 70
0
 10
-4.1508800087
 20
21.3557115603
 10
-4.1620790566
 20
21.360901344
 10
-4.1732192837
 20
21.3656833135
 10
-4.184290067
 20
21.3700526168
 10
-4.1952800884
 20
21.3740048956
 10
-4.2061794753
 20
21.3775361157
 10
-4.2169797983
 20
21.3806424386
 10
-4.227670361
 20
21.3833206917
 10
-4.2382408687
 20
21.3855680088
 10
-4.2486835365
 20
21.387381423
 10
-4.2589878355
 20
21.388758983
 10
-4.269143635
 20
21.3896990071
 10
-4.2791438101
 20
21.3901993539
 10
-4.2889779907
 20
21.3902593168
 10
-4.2986363577
 20
21.3898784368
 10
-4.3081127001
 20
21.3890553818
 10
-4.3173969866
 20
21.3877906967
 10
-4.3264796602
 20
21.3860851497
 10
-4.3353553468
 20
21.3839382316
 10
-4.3440144266
 20
21.3813517669
 10
-4.3524477011
 20
21.378327825
 10
-4.360650642
 20
21.3748669072
  0
LWPOLYLINE
  5
3E5
100
AcDbEntity
  8
C_COPERCHIO
100
AcDbPolyline
 62
250
  6
CONTINUOUS
 90
7
 70
0
 10
-11.6482840165
 20
24.2857423857
 10
-11.6515103574
 20
24.2872708077
 10
-11.6705906983
 20
24.2935418834
 10
-11.6910478832
 20
24.2958789672
 10
-11.7124638339
 20
24.2943280516
 10
-11.7345105234
 20
24.2890010115
 10
-11.7568178292
 20
24.2800596028
  0
LWPOLYLINE
  5
3E6
100
AcDbEntity
  8
C_COPERCHIO
100
AcDbPolyline
 62
250
  6
CONTINUOUS
 90
7
 70
0
 10
-12.973034745
 20
24.9481180032
 10
-12.9764454934
 20
24.9497383757
 10
-12.9955258343
 20
24.9560094514
 10
-13.0159830192
 20
24.9583465352
 10
-13.0373989699
 20
24.9567956196
 10
-13.0594456594
 20
24.9514685794
 10
-13.0817529652
 20
24.9425271708
  0
LINE
  5
3E7
100
AcDbEntity
  8
C_COPERCHIO
100
AcDbLine
 62
7
  6
CONTINUOUS
 10
-0.2601608634
 20
18.0097192075
 11
1.0833958687
 21
17.3379408414
  0
LINE
  5
3E8
100
AcDbEntity
  8
C_COPERCHIO
100
AcDbLine
 62
7
  6
CONTINUOUS
 10
-12.2809222957
 20
24.0200999236
 11
-13.6244790279
 21
24.6918782897
  0
LINE
  5
3E9
100
AcDbEntity
  8
C_COPERCHIO
100
AcDbLine
 62
7
  6
CONTINUOUS
 10
-8.0383085326
 20
21.9845655109
 11
-3.0885610642
 21
19.5096917768
  0
LINE
  5
3EA
100
AcDbEntity
  8
C_COPERCHIO
100
AcDbLine
 62
250
  6
CONTINUOUS
 10
-13.0817529652
 20
24.9425271708
 11
-11.7568178292
 21
24.2800596028
  0
LINE
  5
3EB
100
AcDbEntity
  8
C_COPERCHIO
100
AcDbLine
 62
250
  6
CONTINUOUS
 10
1.6075003352
 20
17.5979005205
 11
0.2825651993
 21
18.2603680885
  0
LINE
  5
3EC
100
AcDbEntity
  8
C_COPERCHIO
100
AcDbLine
 62
7
  6
CONTINUOUS
 10
-12.973034745
 20
24.9481180032
 11
-11.648099609
 21
24.2856504352
  0
LINE
  5
3ED
100
AcDbEntity
  8
C_COPERCHIO
100
AcDbLine
 62
7
  6
CONTINUOUS
 10
1.7162185554
 20
17.603491353
 11
0.3912834194
 21
18.2659589209
  0
LINE
  5
3EE
100
AcDbEntity
  8
C_CORPO
100
AcDbLine
 62
7
  6
CONTINUOUS
 10
-1.7449613396
 20
20.1527681625
 11
-4.1492750839
 21
21.3549250346
  0
LINE
  5
3EF
100
AcDbEntity
  8
C_CORPO
100
AcDbLine
 62
250
  6
CONTINUOUS
 10
-3.1597597865
 20
21.4834467689
 11
-1.1080535697
 21
20.4576062323
  0
LINE
  5
3F0
100
AcDbEntity
  8
C_CORPO
100
AcDbLine
 62
7
  6
CONTINUOUS
 10
-3.0703276685
 20
21.4867032357
 11
-1.0590459303
 21
20.4810623666
  0
LINE
  5
3F1
100
AcDbEntity
  8
C_CORPO
100
AcDbLine
 62
7
  6
CONTINUOUS
 10
9.8876728115
 20
13.3261732898
 11
9.8672461243
 21
13.3516449271
  0
LWPOLYLINE
  5
3F2
100
AcDbEntity
  8
C_CORPO
100
AcDbPolyline
 62
7
  6
CONTINUOUS
 90
26
 70
0
 10
9.8672461243
 20
13.3516449271
 10
9.8467419383
 20
13.377467639
 10
9.8364596893
 20
13.3905095787
 10
9.8261865086
 20
13.4036670855
 10
9.8159220117
 20
13.4169392484
 10
9.8056665831
 20
13.4303269784
 10
9.7954476314
 20
13.4438586681
 10
9.7852646791
 20
13.4575336713
 10
9.7751182038
 20
13.4713526343
 10
9.7650370476
 20
13.4853458886
 10
9.7550205596
 20
13.4995128285
 10
9.7450693907
 20
13.5138540598
 10
9.735214336
 20
13.5284017317
 10
9.7254545555
 20
13.5431554305
 10
9.7157908892
 20
13.5581155699
 10
9.706256652
 20
13.573315541
 10
9.6968508233
 20
13.588755018
 10
9.6875744237
 20
13.6044343267
 10
9.6784638307
 20
13.6203878357
 10
9.6695177933
 20
13.6366153973
 10
9.6607375625
 20
13.6531171591
 10
9.6521632687
 20
13.6699279323
 10
9.6437934126
 20
13.6870477628
 10
9.6356294935
 20
13.7044766046
 10
9.6277161399
 20
13.7222491316
 10
9.619844756
 20
13.7408669439
  0
LINE
  5
3F3
100
AcDbEntity
  8
C_CORPO
100
AcDbLine
 62
7
  6
CONTINUOUS
 10
8.6388173082
 20
16.8507741398
 11
7.5556220386
 21
18.7190096257
  0
LINE
  5
3F4
100
AcDbEntity
  8
C_CORPO
100
AcDbLine
 62
7
  6
CONTINUOUS
 10
9.1322028748
 20
16.6205115875
 11
9.0004949597
 21
16.8476741388
  0
LWPOLYLINE
  5
3F5
100
AcDbEntity
  8
C_CORPO
100
AcDbPolyline
 62
250
  6
CONTINUOUS
 90
118
 70
0
 10
18.5904130808
 20
14.5837524604
 10
18.5907578803
 20
14.547014494
 10
18.5918347377
 20
14.5104170497
 10
18.593643653
 20
14.4739601276
 10
18.5961767237
 20
14.4376190691
 10
18.5994418523
 20
14.4014185328
 10
18.6034627464
 20
14.3654324941
 10
18.6082397332
 20
14.32966222
 10
18.6137724855
 20
14.2941064435
 10
18.6200837288
 20
14.2588353395
 10
18.6271799508
 20
14.2238291676
 10
18.6350546638
 20
14.1891076682
 10
18.6437111299
 20
14.154800237
 10
18.6531590298
 20
14.1208979689
 10
18.6633886828
 20
14.0874097689
 10
18.6743743083
 20
14.0544917486
 10
18.6861137957
 20
14.0221661591
 10
18.6986092556
 20
13.9904107492
 10
18.7118412399
 20
13.9593148766
 10
18.7258250638
 20
13.9288577424
 10
18.7405454121
 20
13.8990601454
 10
18.7559368902
 20
13.8700738398
 10
18.7720694237
 20
13.8418299401
 10
18.7888730871
 20
13.8143973317
 10
18.8060727092
 20
13.7881344261
 10
18.8237077177
 20
13.7630718649
 10
18.8417386849
 20
13.7391790063
 10
18.8597721567
 20
13.7167223366
 10
18.8777708336
 20
13.695801641
 10
18.8957720151
 20
13.6763171342
 10
18.9134941452
 20
13.6582359464
 10
18.9308565298
 20
13.6416346587
 10
18.9479398628
 20
13.62643669
 10
18.9647046701
 20
13.6123794274
 10
18.9811122917
 20
13.5994616477
 10
18.9972013874
 20
13.5876845742
 10
19.0130484622
 20
13.5767892633
 10
19.028661013
 20
13.5667429908
 10
19.0440315428
 20
13.557578481
 10
19.0592140657
 20
13.5491349624
 10
19.0742620743
 20
13.541378631
 10
19.0891220759
 20
13.534343291
 10
19.1036876066
 20
13.5279695826
 10
19.1179339481
 20
13.5222715766
 10
19.1318858186
 20
13.5172352024
 10
19.1455109087
 20
13.5127588886
 10
19.1587856865
 20
13.5088444677
 10
19.171733684
 20
13.5054901072
 10
19.1843931878
 20
13.5025887382
 10
19.1967581999
 20
13.5001323726
 10
19.2088347182
 20
13.4981289985
 10
19.220679023
 20
13.4964955115
 10
19.232287406
 20
13.4952232497
 10
19.2436635754
 20
13.4943208749
 10
19.2548749361
 20
13.4937312684
 10
19.2659409313
 20
13.4934483752
 10
19.2768421177
 20
13.4934782502
 10
19.2875875711
 20
13.49378194
 10
19.2981930083
 20
13.4943608413
 10
19.3086427124
 20
13.4952135573
 10
19.318898608
 20
13.4962969442
 10
19.3289630942
 20
13.4976145655
 10
19.338833772
 20
13.4991628577
 10
19.3484653683
 20
13.5008879856
 10
19.3578503005
 20
13.5027905094
 10
19.3669961514
 20
13.5048698689
 10
19.3758803958
 20
13.5070705492
 10
19.3844918198
 20
13.5093887923
 10
19.3928416373
 20
13.5118283561
 10
19.4009409648
 20
13.5143449995
 10
19.4087800383
 20
13.5169323023
 10
19.4163686219
 20
13.5195966848
 10
19.4237471233
 20
13.5223131663
 10
19.4309049526
 20
13.5250728103
 10
19.4378526999
 20
13.5278845534
 10
19.444662543
 20
13.5307502254
 10
19.4513291613
 20
13.5336617616
 10
19.4578578754
 20
13.5366272266
 10
19.4643368251
 20
13.5396726449
 10
19.4707644049
 20
13.5427913572
 10
19.4771422203
 20
13.5459900227
 10
19.483563227
 20
13.5493146434
 10
19.4900274719
 20
13.5527592386
 10
19.496534908
 20
13.5563297891
 10
19.5031783507
 20
13.5600902388
 10
19.5099620635
 20
13.564036914
 10
19.5168817828
 20
13.5681734885
 10
19.5240175328
 20
13.5725749278
 10
19.5313822416
 20
13.5772441389
 10
19.538962981
 20
13.5821782148
 10
19.5468009907
 20
13.5874433996
 10
19.5549064488
 20
13.5930433876
 10
19.5632691773
 20
13.5989744844
 10
19.5718998813
 20
13.6052918514
 10
19.580808745
 20
13.6120021632
 10
19.5899855842
 20
13.6190987451
 10
19.599410552
 20
13.6266167353
 10
19.6090898907
 20
13.6345627937
 10
19.6190173579
 20
13.6429302603
 10
19.6291543793
 20
13.6517342932
 10
19.6395022699
 20
13.6609792399
 10
19.6500597148
 20
13.670660753
 10
19.6607841946
 20
13.6807809482
 10
19.671658803
 20
13.6913247521
 10
19.6827004463
 20
13.7023072381
 10
19.6939173247
 20
13.7137757419
 10
19.7052916887
 20
13.7257072244
 10
19.7168412878
 20
13.7381247248
 10
19.7286275708
 20
13.7511446969
 10
19.7406503485
 20
13.7647583056
 10
19.7529098101
 20
13.778974386
 10
19.7654679725
 20
13.7939358974
 10
19.7783292596
 20
13.8096380656
 10
19.7914892475
 20
13.8260856649
 10
19.8049966805
 20
13.843435977
 10
19.8188678069
 20
13.8617414294
 10
19.8330863785
 20
13.8809495947
 10
19.8476523953
 20
13.9010604728
  0
LINE
  5
3F6
100
AcDbEntity
  8
C_CORPO
100
AcDbLine
 62
250
  6
CONTINUOUS
 10
18.5904130808
 20
9.5767559156
 11
18.5904740472
 21
-8.4012287932
  0
LINE
  5
3F7
100
AcDbEntity
  8
C_CORPO
100
AcDbLine
 62
7
  6
CONTINUOUS
 10
18.8710732804
 20
17.990125806
 11
18.8710732804
 21
14.9312009556
  0
LINE
  5
3F8
100
AcDbEntity
  8
C_CORPO
100
AcDbLine
 62
7
  6
CONTINUOUS
 10
18.8710732804
 20
9.9240851006
 11
18.8710732804
 21
-8.0303553985
  0
LWPOLYLINE
  5
3F9
100
AcDbEntity
  8
C_CORPO
100
AcDbPolyline
 62
250
  6
CONTINUOUS
 90
58
 70
0
 10
18.5904130808
 20
14.5837524604
 10
18.5904739944
 20
17.6669561279
 10
18.5899888045
 20
17.6913609583
 10
18.5889578793
 20
17.7159925861
 10
18.5873820012
 20
17.7408323141
 10
18.5852623663
 20
17.7658612854
 10
18.5826005837
 20
17.7910604979
 10
18.5793986743
 20
17.8164108217
 10
18.5756590685
 20
17.8418930139
 10
18.5713846051
 20
17.8674877306
 10
18.566578529
 20
17.8931755426
 10
18.5612444885
 20
17.9189369501
 10
18.5553865328
 20
17.9447523967
 10
18.549009109
 20
17.9706022856
 10
18.5421170582
 20
17.9964669941
 10
18.5347156123
 20
18.0223268876
 10
18.52681039
 20
18.0481623358
 10
18.5184073922
 20
18.0739537267
 10
18.509512998
 20
18.0996814813
 10
18.5001339592
 20
18.1253260695
 10
18.4902773958
 20
18.1508680243
 10
18.4799507901
 20
18.1762879561
 10
18.4691619814
 20
18.2015665684
 10
18.4579191596
 20
18.2266846721
 10
18.4462308597
 20
18.2516231993
 10
18.4341059544
 20
18.2763632189
 10
18.4215536481
 20
18.3008859508
 10
18.4085834698
 20
18.3251727789
 10
18.3952052653
 20
18.3492052672
 10
18.3814291904
 20
18.3729651724
 10
18.3672657029
 20
18.3964344581
 10
18.3527255547
 20
18.4195953084
 10
18.3378197835
 20
18.4424301421
 10
18.3225597043
 20
18.4649216255
 10
18.3069569016
 20
18.487052685
 10
18.2910232193
 20
18.5088065213
 10
18.2747707526
 20
18.5301666218
 10
18.2582118396
 20
18.5511167711
 10
18.2413590495
 20
18.571641067
 10
18.2242251729
 20
18.5917239326
 10
18.2068232151
 20
18.611350124
 10
18.1891663869
 20
18.6305047416
 10
18.1712680916
 20
18.6491732452
 10
18.1531419179
 20
18.6673414612
 10
18.1348016233
 20
18.6849956001
 10
18.1162611238
 20
18.7021222664
 10
18.0975344746
 20
18.7187084744
 10
18.0786359094
 20
18.7347416157
 10
18.0595798236
 20
18.7502094793
 10
18.0403807144
 20
18.765100304
 10
18.0210531267
 20
18.779402815
 10
18.0016116896
 20
18.7931061889
 10
17.9820707527
 20
18.8062002902
 10
17.9624455544
 20
18.8186748866
 10
17.9427521838
 20
18.8305198121
 10
17.9230059982
 20
18.8417259715
 10
17.9032215958
 20
18.8522852216
 10
17.1753693513
 20
19.2162119895
  0
LWPOLYLINE
  5
3FA
100
AcDbEntity
  8
C_CORPO
100
AcDbPolyline
 62
250
  6
CONTINUOUS
 90
30
 70
0
 10
18.8710732804
 20
17.990125806
 10
18.8710613165
 20
17.9876800114
 10
18.8705567231
 20
17.9740568316
 10
18.8693098944
 20
17.9604455831
 10
18.867321756
 20
17.9468563739
 10
18.864593784
 20
17.9332992958
 10
18.8611280041
 20
17.9197844167
 10
18.8569269897
 20
17.9063217729
 10
18.8519938606
 20
17.8929213624
 10
18.8463322799
 20
17.8795931367
 10
18.8399464519
 20
17.8663469935
 10
18.8328411187
 20
17.8531927701
 10
18.8250215567
 20
17.8401402349
 10
18.8164935728
 20
17.8271990811
 10
18.8072635001
 20
17.8143789194
 10
18.7973381929
 20
17.8016892703
 10
18.7867250218
 20
17.7891395574
 10
18.7754318684
 20
17.7767391005
 10
18.7634671191
 20
17.7644971084
 10
18.7508396591
 20
17.7524226724
 10
18.7375588661
 20
17.7405247594
 10
18.7236346027
 20
17.7288122053
 10
18.7090772093
 20
17.7172937079
 10
18.6938974966
 20
17.7059778211
 10
18.6781067364
 20
17.6948729479
 10
18.661716656
 20
17.6839873355
 10
18.6447394298
 20
17.6733290694
 10
18.6271876664
 20
17.6629060651
 10
18.6090743995
 20
17.6527260623
 10
18.5904130808
 20
17.6427966208
  0
LWPOLYLINE
  5
3FB
100
AcDbEntity
  8
C_CORPO
100
AcDbPolyline
 62
250
  6
CONTINUOUS
 90
30
 70
0
 10
18.8710732804
 20
14.9312009556
 10
18.8710612794
 20
14.9287506071
 10
18.8705564871
 20
14.9151233125
 10
18.8693094732
 20
14.9015079453
 10
18.8673211635
 20
14.8879146137
 10
18.8645930348
 20
14.8743534119
 10
18.8611271128
 20
14.8608344074
 10
18.8569259715
 20
14.8473676364
 10
18.8519927306
 20
14.8339630992
 10
18.8463310536
 20
14.8206307469
 10
18.8399451449
 20
14.8073804772
 10
18.8328397466
 20
14.7942221295
 10
18.8250201353
 20
14.7811654722
 10
18.8164921179
 20
14.7682201981
 10
18.8072620274
 20
14.7553959205
 10
18.797336718
 20
14.7427021596
 10
18.7867235603
 20
14.7301483387
 10
18.7754304358
 20
14.7177437795
 10
18.7634657307
 20
14.705497691
 10
18.7508383302
 20
14.6934191636
 10
18.7375576113
 20
14.6815171652
 10
18.7236334365
 20
14.6698005316
 10
18.7090761459
 20
14.6582779601
 10
18.6938965498
 20
14.6469580045
 10
18.6781059206
 20
14.6358490683
 10
18.6617159846
 20
14.6249593976
 10
18.644738913
 20
14.6142970748
 10
18.627187313
 20
14.6038700141
 10
18.6090742187
 20
14.5936859561
 10
18.5904130808
 20
14.5837524604
  0
LWPOLYLINE
  5
3FC
100
AcDbEntity
  8
C_CORPO
100
AcDbPolyline
 62
250
  6
CONTINUOUS
 90
30
 70
0
 10
18.8710732804
 20
9.9240851006
 10
18.8710612794
 20
9.9216355172
 10
18.8705564874
 20
9.9080124607
 10
18.8693094736
 20
9.8944013398
 10
18.8673211642
 20
9.8808122623
 10
18.8645930356
 20
9.8672553194
 10
18.8611271138
 20
9.8537405787
 10
18.8569259726
 20
9.8402780763
 10
18.8519927318
 20
9.8268778095
 10
18.8463310549
 20
9.8135497293
 10
18.8399451462
 20
9.8003037333
 10
18.832839748
 20
9.7871496581
 10
18.8250201367
 20
9.774097272
 10
18.8164921194
 20
9.7611562676
 10
18.8072620288
 20
9.7483362551
 10
18.7973367194
 20
9.7356467546
 10
18.7867235617
 20
9.7230971895
 10
18.7754304371
 20
9.7106968791
 10
18.763465732
 20
9.698455032
 10
18.7508383314
 20
9.686380739
 10
18.7375576124
 20
9.6744829666
 10
18.7236334375
 20
9.6627705501
 10
18.7090761467
 20
9.6512521871
 10
18.6938965505
 20
9.6399364314
 10
18.6781059212
 20
9.628831686
 10
18.6617159851
 20
9.6179461974
 10
18.6447389133
 20
9.6072880492
 10
18.6271873133
 20
9.5968651561
 10
18.6090742188
 20
9.5866852584
 10
18.5904130808
 20
9.5767559156
  0
LWPOLYLINE
  5
3FD
100
AcDbEntity
  8
C_CORPO
100
AcDbPolyline
 62
7
  6
CONTINUOUS
 90
103
 70
0
 10
18.8710732949
 20
9.924098819
 10
18.8711493978
 20
9.9359833617
 10
18.8714554809
 20
9.9510444783
 10
18.8719911446
 20
9.9663110188
 10
18.8727504582
 20
9.9817461684
 10
18.8737264585
 20
9.9973100873
 10
18.874911449
 20
10.0129675551
 10
18.8762967871
 20
10.0286841584
 10
18.8778744768
 20
10.044438731
 10
18.8796386175
 20
10.0602290018
 10
18.8815809647
 20
10.0760295592
 10
18.8836939176
 20
10.0918242416
 10
18.8859752842
 20
10.1076340728
 10
18.8884183529
 20
10.1234426993
 10
18.8910165372
 20
10.1392354702
 10
18.893771138
 20
10.1550426522
 10
18.896679166
 20
10.1708645766
 10
18.8997331667
 20
10.1866774845
 10
18.902929772
 20
10.2024799055
 10
18.9062659243
 20
10.2182705529
 10
18.9097349358
 20
10.2340309182
 10
18.9133281148
 20
10.2497361385
 10
18.9170401285
 20
10.2653781529
 10
18.9208655002
 20
10.2809482449
 10
18.9247947711
 20
10.2964223349
 10
18.9288224643
 20
10.3117933068
 10
18.9329430149
 20
10.3270537697
 10
18.9371463267
 20
10.3421808496
 10
18.941426741
 20
10.3571688658
 10
18.945778511
 20
10.3720116053
 10
18.9501910297
 20
10.3866867815
 10
18.9546587261
 20
10.4011897296
 10
18.959175901
 20
10.4155152357
 10
18.9637313802
 20
10.4296415208
 10
18.9683242606
 20
10.4435791963
 10
18.9729443115
 20
10.457309997
 10
18.9775652263
 20
10.4707702323
 10
18.9821758482
 20
10.4839434426
 10
18.9867747059
 20
10.4968407826
 10
18.9913490503
 20
10.5094413785
 10
18.9958816858
 20
10.5217135857
 10
19.0003776103
 20
10.5336861154
 10
19.0048586928
 20
10.5454292479
 10
19.0093205776
 20
10.5569414498
 10
19.0137592253
 20
10.5682218234
 10
19.0181995346
 20
10.5793412465
 10
19.0226387761
 20
10.5902986866
 10
19.0270740066
 20
10.6010925394
 10
19.0315319652
 20
10.6117919996
 10
19.0360162846
 20
10.6224081528
 10
19.040519779
 20
10.6329262743
 10
19.0450543511
 20
10.6433760019
 10
19.0496243901
 20
10.6537683466
 10
19.0542227535
 20
10.6640879382
 10
19.05884436
 20
10.6743246502
 10
19.0634881037
 20
10.6844774378
 10
19.0681519201
 20
10.6945431988
 10
19.0728290415
 20
10.7045089772
 10
19.0775179187
 20
10.7143732786
 10
19.0822165044
 20
10.7241335651
 10
19.0869170507
 20
10.7337757271
 10
19.0916178139
 20
10.7432983793
 10
19.0963166376
 20
10.7526993398
 10
19.1010049358
 20
10.7619638729
 10
19.1056790901
 20
10.7710875554
 10
19.110338446
 20
10.7800717763
 10
19.1149787508
 20
10.7889109913
 10
19.1195962447
 20
10.7976008081
 10
19.1241903357
 20
10.8061428805
 10
19.1287615643
 20
10.8145408476
 10
19.1333080941
 20
10.8227938919
 10
19.1378274493
 20
10.8309000859
 10
19.142319224
 20
10.8388611407
 10
19.1467805087
 20
10.8466742879
 10
19.1512097037
 20
10.8543391418
 10
19.1556083887
 20
10.8618607512
 10
19.1599719341
 20
10.8692335194
 10
19.1643003791
 20
10.8764598924
 10
19.1686022472
 20
10.8835560956
 10
19.1728748614
 20
10.8905193079
 10
19.1771157537
 20
10.8973471514
 10
19.1813334983
 20
10.904054827
 10
19.1855256342
 20
10.9106395793
 10
19.1896887575
 20
10.9170973419
 10
19.1938295856
 20
10.9234396517
 10
19.197946102
 20
10.9296641544
 10
19.2020328154
 20
10.9357633317
 10
19.206090529
 20
10.9417392422
 10
19.2101169214
 20
10.9475893149
 10
19.2141050396
 20
10.953304518
 10
19.2180480712
 20
10.9588764718
 10
19.2219413816
 20
10.9643000194
 10
19.2257778388
 20
10.9695668052
 10
19.2295462633
 20
10.9746635531
 10
19.2332414871
 20
10.9795857835
 10
19.2368549826
 20
10.9843249796
 10
19.2403702196
 20
10.9888627269
 10
19.243780992
 20
10.9931947632
 10
19.2470776269
 20
10.9973129819
 10
19.2502391051
 20
11.0011962028
 10
19.2532536512
 20
11.0048358896
 10
19.2561175007
 20
11.0082335508
 10
19.2564108553
 20
11.0085781463
  0
LINE
  5
3FE
100
AcDbEntity
  8
C_CORPO
100
AcDbLine
 62
250
  6
CONTINUOUS
 10
18.8710732804
 20
-8.0303553985
 11
18.8710285258
 21
-8.0336889148
  0
LWPOLYLINE
  5
3FF
100
AcDbEntity
  8
C_CORPO
100
AcDbPolyline
 62
250
  6
CONTINUOUS
 90
32
 70
0
 10
18.5904740472
 20
-8.4012287932
 10
18.5899891363
 20
-8.4244930058
 10
18.5889586172
 20
-8.4474595155
 10
18.5873831361
 20
-8.4701112896
 10
18.5852638055
 20
-8.4924306103
 10
18.5826023128
 20
-8.5143991567
 10
18.579400751
 20
-8.5359998052
 10
18.5756615004
 20
-8.5572166207
 10
18.5713873896
 20
-8.5780335431
 10
18.5665816513
 20
-8.5984347998
 10
18.5612479367
 20
-8.6184048677
 10
18.5553903069
 20
-8.6379285344
 10
18.5490132156
 20
-8.6569909614
 10
18.542121499
 20
-8.6755776982
 10
18.5347203864
 20
-8.6936746424
 10
18.5268154953
 20
-8.7112680584
 10
18.5184128272
 20
-8.7283445891
 10
18.5095187607
 20
-8.7448912717
 10
18.5001400477
 20
-8.7608955448
 10
18.4902838075
 20
-8.7763452604
 10
18.4799575202
 20
-8.791228693
 10
18.4691690241
 20
-8.8055345449
 10
18.4579265089
 20
-8.8192519556
 10
18.4462385084
 20
-8.8323705124
 10
18.4341138946
 20
-8.8448802568
 10
18.4215618715
 20
-8.8567716921
 10
18.4085919669
 20
-8.8680357912
 10
18.3952140263
 20
-8.8786640034
 10
18.3814382047
 20
-8.8886482602
 10
18.3672749596
 20
-8.8979809821
 10
18.3527350422
 20
-8.9066550844
 10
18.3458971009
 20
-8.9104362695
  0
LWPOLYLINE
  5
400
100
AcDbEntity
  8
C_CORPO
100
AcDbPolyline
 62
250
  6
CONTINUOUS
 90
29
 70
0
 10
18.8710285258
 20
-8.0336889148
 10
18.8705564879
 20
-8.0464280302
 10
18.8693094746
 20
-8.0600391512
 10
18.8673211656
 20
-8.0736282288
 10
18.8645930374
 20
-8.0871851718
 10
18.861127116
 20
-8.1006999127
 10
18.8569259752
 20
-8.1141624154
 10
18.8519927347
 20
-8.1275626825
 10
18.8463310581
 20
-8.1408907629
 10
18.8399451497
 20
-8.1541367592
 10
18.8328397517
 20
-8.1672908348
 10
18.8250201406
 20
-8.1803432213
 10
18.8164921234
 20
-8.1932842261
 10
18.8072620329
 20
-8.206104239
 10
18.7973367235
 20
-8.2187937399
 10
18.7867235658
 20
-8.2313433055
 10
18.7754304411
 20
-8.2437436163
 10
18.7634657359
 20
-8.2559854638
 10
18.7508383351
 20
-8.2680597572
 10
18.7375576159
 20
-8.2799575301
 10
18.7236334408
 20
-8.291669947
 10
18.7090761497
 20
-8.3031883103
 10
18.6938965531
 20
-8.3145040664
 10
18.6781059235
 20
-8.3256088122
 10
18.6617159869
 20
-8.3364943011
 10
18.6447389148
 20
-8.3471524496
 10
18.6271873142
 20
-8.3575753429
 10
18.6090742193
 20
-8.3677552408
 10
18.5904130808
 20
-8.3776845837
  0
LINE
  5
401
100
AcDbEntity
  8
C_CORPO
100
AcDbLine
 62
7
  6
CONTINUOUS
 10
7.5556220386
 20
-17.3942497121
 11
8.6388173082
 21
-16.6092094958
  0
LINE
  5
402
100
AcDbEntity
  8
C_CORPO
100
AcDbLine
 62
7
  6
CONTINUOUS
 10
9.1322028748
 20
-16.3066470853
 11
9.0004949597
 21
-16.4021017214
  0
LINE
  5
403
100
AcDbEntity
  8
C_CORPO
100
AcDbLine
 62
7
  6
CONTINUOUS
 10
8.8407454645
 20
-16.5024265605
 11
9.0004949597
 21
-16.4021017214
  0
LINE
  5
404
100
AcDbEntity
  8
C_CORPO
100
AcDbLine
 62
250
  6
CONTINUOUS
 10
8.8407454645
 20
-16.5024265605
 11
8.6388173082
 21
-16.6092094958
  0
LINE
  5
405
100
AcDbEntity
  8
C_CORPO
100
AcDbLine
 62
7
  6
CONTINUOUS
 10
8.7551701584
 20
-16.5519302909
 11
8.6171252059
 21
-16.6249307357
  0
LINE
  5
406
100
AcDbEntity
  8
C_COPERCHIO
100
AcDbLine
 62
7
  6
CONTINUOUS
 10
5.8881771844
 20
-18.4462036108
 11
2.3208058118
 21
-20.3326883564
  0
LINE
  5
407
100
AcDbEntity
  8
C_CORPO
100
AcDbLine
 62
250
  6
CONTINUOUS
 10
2.3208058118
 20
-19.0954200459
 11
9.5463533505
 21
-15.2891639863
  0
LINE
  5
408
100
AcDbEntity
  8
C_CORPO
100
AcDbLine
 62
250
  6
CONTINUOUS
 10
2.3208058118
 20
-19.8947379818
 11
9.1322028748
 21
-16.3066470853
  0
LINE
  5
409
100
AcDbEntity
  8
C_COPERCHIO
100
AcDbLine
 62
7
  6
CONTINUOUS
 10
6.864175976
 20
-17.8064235954
 11
2.3208058118
 21
-20.1997688922
  0
LINE
  5
40A
100
AcDbEntity
  8
C_CORPO
100
AcDbLine
 62
7
  6
CONTINUOUS
 10
2.3208058118
 20
-20.1441508724
 11
7.5556220386
 21
-17.3942497121
  0
LWPOLYLINE
  5
40B
100
AcDbEntity
  8
C_COPERCHIO
100
AcDbPolyline
 62
250
  6
CONTINUOUS
 90
9
 70
0
 10
2.1370514325
 20
21.2870848012
 10
2.1618689455
 20
21.2939003799
 10
2.1839007547
 20
21.3006364421
 10
2.2028788389
 20
21.3071610945
 10
2.2185418497
 20
21.3132928108
 10
2.2306994718
 20
21.3189028428
 10
2.2391906314
 20
21.3239239665
 10
2.2438228729
 20
21.3281441655
 10
2.2446839109
 20
21.3303591
  0
LINE
  5
40C
100
AcDbEntity
  8
C_CONTATTI
100
AcDbLine
 62
7
  6
CONTINUOUS
 10
4.4351929286
 20
21.5323283064
 11
3.9854482673
 21
21.4105804732
  0
LWPOLYLINE
  5
40D
100
AcDbEntity
  8
C_COPERCHIO
100
AcDbPolyline
 62
7
  6
CONTINUOUS
 90
4
 70
0
 10
-0.3278016609
 20
18.0270640989
 10
-0.3059136352
 20
18.0252155651
 10
-0.2832392553
 20
18.0193998349
 10
-0.2601608634
 20
18.0097192075
  0
LINE
  5
40E
100
AcDbEntity
  8
C_COPERCHIO
100
AcDbLine
 62
7
  6
CONTINUOUS
 10
-13.1833465883
 20
22.2178315751
 11
-13.726072651
 21
22.3329608926
  0
LWPOLYLINE
  5
40F
100
AcDbEntity
  8
C_CORPO
100
AcDbPolyline
 62
250
  6
CONTINUOUS
 90
17
 70
0
 10
-3.0713941518
 20
21.4872230028
 10
-3.0759334514
 20
21.4892248035
 10
-3.080688569
 20
21.4909522267
 10
-3.085577513
 20
21.4923697402
 10
-3.0905920102
 20
21.4934749451
 10
-3.0957235746
 20
21.4942659711
 10
-3.1009635225
 20
21.4947414796
 10
-3.1063029865
 20
21.494900666
 10
-3.1117329308
 20
21.4947432608
 10
-3.1172441666
 20
21.4942695305
 10
-3.1228273675
 20
21.4934802766
 10
-3.1284730853
 20
21.4923768348
 10
-3.1341717661
 20
21.4909610725
 10
-3.1399137661
 20
21.4892353853
 10
-3.1456893685
 20
21.4872026936
 10
-3.1514887994
 20
21.4848664373
 10
-3.1573022448
 20
21.4822305699
  0
LWPOLYLINE
  5
410
100
AcDbEntity
  8
C_CORPO
100
AcDbPolyline
 62
7
  6
CONTINUOUS
 90
64
 70
0
 10
-3.0703242597
 20
21.4867015281
 10
-3.0813024678
 20
21.4920524021
 10
-3.0987577666
 20
21.5000175293
 10
-3.1166817031
 20
21.5075546849
 10
-3.1350433167
 20
21.5146577628
 10
-3.1538334826
 20
21.5213322697
 10
-3.1730640117
 20
21.5275910903
 10
-3.1927123951
 20
21.5334355662
 10
-3.2127565283
 20
21.5388688854
 10
-3.2332046092
 20
21.5439025337
 10
-3.2540052857
 20
21.5485334436
 10
-3.2751698021
 20
21.5527736564
 10
-3.2967985234
 20
21.5566477435
 10
-3.3188437422
 20
21.5601487559
 10
-3.3413236297
 20
21.5632809593
 10
-3.3644380669
 20
21.5660662763
 10
-3.3882593408
 20
21.5684991521
 10
-3.4126918355
 20
21.5705555991
 10
-3.4376816455
 20
21.5722200724
 10
-3.4633298222
 20
21.5734860821
 10
-3.4895078936
 20
21.574333658
 10
-3.5158143714
 20
21.5747482231
 10
-3.542215736
 20
21.5747367286
 10
-3.5687182486
 20
21.5743053982
 10
-3.5949808022
 20
21.5734720191
 10
-3.6209170842
 20
21.5722594359
 10
-3.6465948867
 20
21.570683008
 10
-3.6719065604
 20
21.5687669893
 10
-3.6968319525
 20
21.5665317414
 10
-3.7213797625
 20
21.5639941754
 10
-3.7454867324
 20
21.5611784317
 10
-3.7691326925
 20
21.5581050751
 10
-3.7923325462
 20
21.5547895373
 10
-3.8150758805
 20
21.5512497818
 10
-3.8373540595
 20
21.5475033041
 10
-3.8591740125
 20
21.5435645324
 10
-3.8805476364
 20
21.5394460691
 10
-3.9014753326
 20
21.5351619499
 10
-3.9219566047
 20
21.5307260495
 10
-3.9420003734
 20
21.5261497748
 10
-3.9616088545
 20
21.521445533
 10
-3.9807805585
 20
21.5166263964
 10
-3.9995171742
 20
21.511704504
 10
-4.0178294082
 20
21.5066892826
 10
-4.0357074725
 20
21.5015955519
 10
-4.0531214645
 20
21.496444557
 10
-4.0700591892
 20
21.4912532445
 10
-4.08653575
 20
21.4860302066
 10
-4.1025609689
 20
21.4807850989
 10
-4.1181134864
 20
21.4755378064
 10
-4.1332163366
 20
21.4702933699
 10
-4.1479410798
 20
21.4650383258
 10
-4.1622863412
 20
21.4597835532
 10
-4.1762470273
 20
21.454541439
 10
-4.1898814503
 20
21.4492999366
 10
-4.2031725645
 20
21.4440749841
 10
-4.2161205198
 20
21.4388762353
 10
-4.2287992692
 20
21.43368292
 10
-4.241171466
 20
21.4285190041
 10
-4.2532381455
 20
21.4233933681
 10
-4.2651131007
 20
21.418266016
 10
-4.2767501387
 20
21.4131649485
 10
-4.2881163167
 20
21.4081139444
 10
-4.3103347928
 20
21.3980667446
  0
LINE
  5
411
100
AcDbEntity
  8
C_COPERCHIO
100
AcDbLine
 62
7
  6
CONTINUOUS
 10
-3.7249571673
 20
22.3377043752
 11
-3.3714037767
 21
22.1609276799
  0
LINE
  5
412
100
AcDbEntity
  8
C_COPERCHIO
100
AcDbLine
 62
7
  6
CONTINUOUS
 10
-3.0178503861
 20
21.9841509846
 11
-0.5239196091
 21
20.7371855961
  0
LINE
  5
413
100
AcDbEntity
  8
C_COPERCHIO
100
AcDbLine
 62
7
  6
CONTINUOUS
 10
-3.7249571673
 20
22.8365947973
 11
-3.3714037767
 21
22.659818102
  0
LINE
  5
414
100
AcDbEntity
  8
C_COPERCHIO
100
AcDbLine
 62
7
  6
CONTINUOUS
 10
0.9442757235
 20
21.4398961807
 11
-1.9032084441
 21
22.8636382646
  0
LINE
  5
415
100
AcDbEntity
  8
C_COPERCHIO
100
AcDbLine
 62
250
  6
CONTINUOUS
 10
1.9161224921
 20
21.5113250811
 11
1.5138033709
 21
21.7124846417
  0
LINE
  5
416
100
AcDbEntity
  8
C_COPERCHIO
100
AcDbLine
 62
250
  6
CONTINUOUS
 10
-3.4359440974
 20
24.1873583758
 11
-3.8382632185
 21
24.3885179364
  0
LWPOLYLINE
  5
417
100
AcDbEntity
  8
C_COPERCHIO
100
AcDbPolyline
 62
250
  6
CONTINUOUS
 90
13
 70
0
 10
1.9161224921
 20
21.5113250811
 10
1.9348770058
 20
21.5007607266
 10
1.9532683877
 20
21.4873938192
 10
1.970982065
 20
21.4714530496
 10
1.9877150826
 20
21.4532111066
 10
2.0031812343
 20
21.4329800647
 10
2.0171159707
 20
21.4111060634
 10
2.0292809934
 20
21.3879632864
 10
2.0394682956
 20
21.363947579
 10
2.0475036877
 20
21.339469746
 10
2.0532498105
 20
21.3149484513
 10
2.0566084717
 20
21.2908030532
 10
2.0575223092
 20
21.2674464718
  0
LWPOLYLINE
  5
418
100
AcDbEntity
  8
C_COPERCHIO
100
AcDbPolyline
 62
250
  6
CONTINUOUS
 90
8
 70
0
 10
2.0496056061
 20
21.5435603822
 10
2.0677604255
 20
21.532781229
 10
2.084650734
 20
21.519013788
 10
2.0999901303
 20
21.5024914973
 10
2.1135185058
 20
21.4834945059
 10
2.1250064572
 20
21.4623449232
 10
2.1342591761
 20
21.4394013565
 10
2.1411197541
 20
21.415052832
  0
LWPOLYLINE
  5
419
100
AcDbEntity
  8
C_COPERCHIO
100
AcDbPolyline
 62
7
  6
CONTINUOUS
 90
5
 70
0
 10
-3.2581605984
 20
24.2183665111
 10
-3.2546706148
 20
24.2162583665
 10
-3.2497735042
 20
24.2109003145
 10
-3.2475300505
 20
24.203902754
 10
-3.2473835555
 20
24.2015455535
  0
LINE
  5
41A
100
AcDbEntity
  8
C_CORPO
100
AcDbLine
 62
7
  6
CONTINUOUS
 10
9.0004949597
 20
16.8476741388
 11
8.8407454645
 21
16.9488605575
  0
LWPOLYLINE
  5
41B
100
AcDbEntity
  8
C_CORPO
100
AcDbPolyline
 62
7
  6
CONTINUOUS
 90
5
 70
0
 10
20.5419867291
 20
14.1756236879
 10
20.541932748
 20
14.177707596
 10
20.5416135039
 20
14.1810710358
 10
20.5410084444
 20
14.1843871198
 10
20.5401696911
 20
14.187490532
  0
LINE
  5
41C
100
AcDbEntity
  8
C_CORPO
100
AcDbLine
 62
250
  6
CONTINUOUS
 10
20.4577886692
 20
14.0893011611
 11
20.4577886692
 21
12.0051718501
  0
LINE
  5
41D
100
AcDbEntity
  8
C_CORPO
100
AcDbLine
 62
7
  6
CONTINUOUS
 10
20.5419867291
 20
14.1756236523
 11
20.5419867291
 21
12.12724687
  0
LWPOLYLINE
  5
41E
100
AcDbEntity
  8
C_COPERCHIO
100
AcDbPolyline
 62
7
  6
CONTINUOUS
 90
7
 70
0
 10
-0.7121957745
 20
-25.3994547524
 10
-0.676073282
 20
-25.3741427167
 10
-0.6568576065
 20
-25.3608759514
 10
-0.6369894083
 20
-25.347546179
 10
-0.6166211476
 20
-25.3342422083
 10
-0.5959356136
 20
-25.3208674494
 10
-0.575025077
 20
-25.3075524015
  0
LWPOLYLINE
  5
41F
100
AcDbEntity
  8
C_COPERCHIO
100
AcDbPolyline
 62
7
  6
CONTINUOUS
 90
5
 70
0
 10
-0.575025077
 20
-25.3075524015
 10
-0.5329461391
 20
-25.2814603099
 10
-0.5120042858
 20
-25.2686649998
 10
-0.4912301156
 20
-25.2562436598
 10
-0.4707143179
 20
-25.244307133
  0
LWPOLYLINE
  5
420
100
AcDbEntity
  8
C_COPERCHIO
100
AcDbPolyline
 62
250
  6
CONTINUOUS
 90
7
 70
0
 10
1.7842501066
 20
-24.6864390702
 10
1.8047511225
 20
-24.6743822724
 10
1.8221467989
 20
-24.661033421
 10
1.8360860415
 20
-24.6465870917
 10
1.8462833947
 20
-24.6312285834
 10
1.8524539073
 20
-24.6152334987
 10
1.854415156
 20
-24.5996144346
  0
LINE
  5
421
100
AcDbEntity
  8
C_COPERCHIO
100
AcDbLine
 62
250
  6
CONTINUOUS
 10
1.6013602626
 20
-23.1044183798
 11
2.3208058118
 21
-22.741921685
  0
LINE
  5
422
100
AcDbEntity
  8
C_COPERCHIO
100
AcDbLine
 62
7
  6
CONTINUOUS
 10
1.4692989412
 20
-23.3760012992
 11
2.1913057657
 21
-23.0122140915
  0
LWPOLYLINE
  5
423
100
AcDbEntity
  8
C_COPERCHIO
100
AcDbPolyline
 62
7
  6
CONTINUOUS
 90
3
 70
0
 10
1.4692989412
 20
-23.3760012992
 10
1.4642674697
 20
-23.378442351
 10
1.4575855845
 20
-23.3814025315
  0
LWPOLYLINE
  5
424
100
AcDbEntity
  8
C_COPERCHIO
100
AcDbPolyline
 62
250
  6
CONTINUOUS
 90
13
 70
0
 10
-4.575947543
 20
-24.9111507042
 10
-4.6252421506
 20
-24.9343427551
 10
-4.6795235119
 20
-24.954137576
 10
-4.7378833607
 20
-24.9702039489
 10
-4.7993451874
 20
-24.9822730422
 10
-4.8628805782
 20
-24.990142909
 10
-4.9274264235
 20
-24.9936818663
 10
-4.9919027059
 20
-24.9928306982
 10
-5.0552305721
 20
-24.987603647
 10
-5.1163503849
 20
-24.9780881747
 10
-5.1742394533
 20
-24.9644434997
 10
-5.227929145
 20
-24.9468979321
 10
-5.2765210939
 20
-24.9257450544
  0
LINE
  5
425
100
AcDbEntity
  8
C_COPERCHIO
100
AcDbLine
 62
250
  6
CONTINUOUS
 10
-3.8947598836
 20
-25.4114663723
 11
1.6013602626
 21
-23.1044183798
  0
LINE
  5
426
100
AcDbEntity
  8
C_COPERCHIO
100
AcDbLine
 62
7
  6
CONTINUOUS
 10
1.4575773168
 20
-23.3814062843
 11
-4.048806043
 21
-25.692762172
  0
LINE
  5
427
100
AcDbEntity
  8
C_CORPO
100
AcDbLine
 62
250
  6
CONTINUOUS
 10
-3.8259164146
 20
21.4895396789
 11
-3.8161681682
 21
21.492282684
  0
LINE
  5
428
100
AcDbEntity
  8
C_CORPO
100
AcDbLine
 62
250
  6
CONTINUOUS
 10
-3.8161681682
 20
21.492282684
 11
-3.8062452594
 21
21.4949869191
  0
LINE
  5
429
100
AcDbEntity
  8
C_CORPO
100
AcDbLine
 62
250
  6
CONTINUOUS
 10
-3.8062452594
 20
21.4949869191
 11
-3.7961473996
 21
21.4976498104
  0
LINE
  5
42A
100
AcDbEntity
  8
C_CORPO
100
AcDbLine
 62
250
  6
CONTINUOUS
 10
-3.7961473996
 20
21.4976498104
 11
-3.7858742978
 21
21.5002674524
  0
LINE
  5
42B
100
AcDbEntity
  8
C_CORPO
100
AcDbLine
 62
250
  6
CONTINUOUS
 10
-3.7858742978
 20
21.5002674524
 11
-3.775426166
 21
21.5028357989
  0
LINE
  5
42C
100
AcDbEntity
  8
C_CORPO
100
AcDbLine
 62
250
  6
CONTINUOUS
 10
-3.775426166
 20
21.5028357989
 11
-3.7648033929
 21
21.5053520952
  0
LINE
  5
42D
100
AcDbEntity
  8
C_CORPO
100
AcDbLine
 62
250
  6
CONTINUOUS
 10
-3.7648033929
 20
21.5053520952
 11
-3.7540068451
 21
21.5078121348
  0
LWPOLYLINE
  5
42E
100
AcDbEntity
  8
C_CORPO
100
AcDbPolyline
 62
250
  6
CONTINUOUS
 90
4
 70
0
 10
-3.7540068451
 20
21.5078121348
 10
-3.7430386255
 20
21.510211464
 10
-3.7374903785
 20
21.5113878101
 10
-3.7318995785
 20
21.5125472317
  0
LWPOLYLINE
  5
42F
100
AcDbEntity
  8
C_CORPO
100
AcDbPolyline
 62
250
  6
CONTINUOUS
 90
125
 70
0
 10
-3.7318995785
 20
21.5125472317
 10
-3.7205886754
 20
21.5148156069
 10
-3.714872105
 20
21.5159225631
 10
-3.709115153
 20
21.5170108022
 10
-3.7033183587
 20
21.518080272
 10
-3.6974860515
 20
21.5191289712
 10
-3.6916165573
 20
21.5201570865
 10
-3.6857115501
 20
21.5211644311
 10
-3.6797803807
 20
21.522148443
 10
-3.6738220601
 20
21.5231091014
 10
-3.6678375774
 20
21.5240464272
 10
-3.66183925
 20
21.5249579209
 10
-3.6558259838
 20
21.525843508
 10
-3.649798873
 20
21.5267032629
 10
-3.6437735185
 20
21.5275349098
 10
-3.6377509678
 20
21.5283380709
 10
-3.6317301733
 20
21.529113124
 10
-3.6257235932
 20
21.5298589264
 10
-3.6197349999
 20
21.5305749197
 10
-3.6137606209
 20
21.5312616623
 10
-3.6078015964
 20
21.5319196871
 10
-3.6018576866
 20
21.5325490193
 10
-3.5959291313
 20
21.5331496337
 10
-3.5900177899
 20
21.5337219877
 10
-3.5841235521
 20
21.5342660811
 10
-3.5782465283
 20
21.534781914
 10
-3.5723889089
 20
21.535269944
 10
-3.5665507691
 20
21.5357301533
 10
-3.5607320338
 20
21.5361625598
 10
-3.5549346678
 20
21.5365676748
 10
-3.5491587306
 20
21.5369454856
 10
-3.5434041628
 20
21.5372960049
 10
-3.5376727501
 20
21.5376197824
 10
-3.5319643614
 20
21.5379168139
 10
-3.5262791279
 20
21.5381871036
 10
-3.5206192294
 20
21.5384312137
 10
-3.5149845226
 20
21.5386491306
 10
-3.5093751508
 20
21.5388408678
 10
-3.503793723
 20
21.5390070288
 10
-3.4982402877
 20
21.5391475889
 10
-3.4927147963
 20
21.5392625727
 10
-3.487219713
 20
21.5393526567
 10
-3.4817552897
 20
21.5394178211
 10
-3.4763212743
 20
21.5394580857
 10
-3.4709193748
 20
21.539474187
 10
-3.4655497082
 20
21.5394661171
 10
-3.4602121574
 20
21.5394338838
 10
-3.4549080784
 20
21.5393782478
 10
-3.4496374906
 20
21.5392992035
 10
-3.4444003746
 20
21.5391967564
 10
-3.4391980286
 20
21.5390716836
 10
-3.4340304678
 20
21.5389239792
 10
-3.428897677
 20
21.5387536491
 10
-3.4238009087
 20
21.5385614887
 10
-3.4187402065
 20
21.5383474933
 10
-3.4137155267
 20
21.5381116676
 10
-3.4087279904
 20
21.5378548218
 10
-3.4037776496
 20
21.5375769528
 10
-3.3988644523
 20
21.5372780635
 10
-3.3939893631
 20
21.5369589732
 10
-3.3891523756
 20
21.536619675
 10
-3.3843534963
 20
21.5362601756
 10
-3.3795937094
 20
21.5358813151
 10
-3.3748729938
 20
21.5354830824
 10
-3.3701913706
 20
21.5350654885
 10
-3.3655498875
 20
21.5346294066
 10
-3.3609487784
 20
21.534174854
 10
-3.3563878094
 20
21.5337018134
 10
-3.3518673268
 20
21.5332111065
 10
-3.347387461
 20
21.532702751
 10
-3.3429480815
 20
21.5321767291
 10
-3.3385491432
 20
21.5316338087
 10
-3.3341906716
 20
21.5310739995
 10
-3.3298726412
 20
21.5304972917
 10
-3.3255949306
 20
21.5299044242
 10
-3.3213575504
 20
21.5292954046
 10
-3.3171604901
 20
21.5286702253
 10
-3.3130035965
 20
21.5280296024
 10
-3.3088868878
 20
21.5273735443
 10
-3.3048103458
 20
21.5267020426
 10
-3.300773763
 20
21.5260157881
 10
-3.2967771856
 20
21.5253147951
 10
-3.2928205675
 20
21.5245990492
 10
-3.2889035624
 20
21.5238691984
 10
-3.285026237
 20
21.5231252642
 10
-3.2811885247
 20
21.5223672249
 10
-3.2773898799
 20
21.5215956641
 10
-3.2736303333
 20
21.5208105993
 10
-3.2699098542
 20
21.5200120128
 10
-3.266227805
 20
21.5192004349
 10
-3.2625841971
 20
21.5183758804
 10
-3.2589790191
 20
21.5175383343
 10
-3.2554115984
 20
21.516688282
 10
-3.2518819624
 20
21.5158257436
 10
-3.2483900837
 20
21.514950699
 10
-3.2449352084
 20
21.5140635734
 10
-3.2415173512
 20
21.5131643857
 10
-3.2381364973
 20
21.5122531171
 10
-3.2347918483
 20
21.5113301359
 10
-3.2314834048
 20
21.5103954584
 10
-3.2282111661
 20
21.5094490685
 10
-3.2249743321
 20
21.5084912863
 10
-3.2217729128
 20
21.5075221318
 10
-3.2186068982
 20
21.5065415851
 10
-3.2154754583
 20
21.5055499065
 10
-3.2123785973
 20
21.5045471159
 10
-3.2093163109
 20
21.5035331933
 10
-3.2062877563
 20
21.5025083396
 10
-3.2032929248
 20
21.5014725713
 10
-3.2003318249
 20
21.5004258717
 10
-3.1974036401
 20
21.4993683916
 10
-3.1945083479
 20
21.4983001423
 10
-3.1916459707
 20
21.4972211123
 10
-3.1888157592
 20
21.4961314177
 10
-3.1860176833
 20
21.4950310662
 10
-3.1832517732
 20
21.4939200502
 10
-3.1805173701
 20
21.4927984624
 10
-3.1778144545
 20
21.4916663128
 10
-3.1751430459
 20
21.4905235916
 10
-3.1725025441
 20
21.489370362
 10
-3.1698929392
 20
21.4882066403
 10
-3.1673142411
 20
21.4870324101
 10
-3.1647658796
 20
21.4858476866
 10
-3.1622476647
 20
21.4846524745
 10
-3.1597597865
 20
21.4834467689
  0
LWPOLYLINE
  5
430
100
AcDbEntity
  8
C_COPERCHIO
100
AcDbPolyline
 62
250
  6
CONTINUOUS
 90
5
 70
0
 10
2.0496129292
 20
21.5435846809
 10
2.0699786957
 20
21.5422720043
 10
2.0889094365
 20
21.5393954399
 10
2.1062460007
 20
21.5348089715
 10
2.1206505374
 20
21.5289573521
  0
LWPOLYLINE
  5
431
100
AcDbEntity
  8
C_COPERCHIO
100
AcDbPolyline
 62
250
  6
CONTINUOUS
 90
4
 70
0
 10
-3.632826719
 20
24.4043298907
 10
-3.6568059369
 20
24.4122328776
 10
-3.6798988329
 20
24.4171959851
 10
-3.7019470867
 20
24.4193646889
  0
LWPOLYLINE
  5
432
100
AcDbEntity
  8
C_COPERCHIO
100
AcDbPolyline
 62
250
  6
CONTINUOUS
 90
4
 70
0
 10
-3.7019466903
 20
24.419366002
 10
-3.7205310303
 20
24.4269588923
 10
-3.7397571953
 20
24.4312510549
 10
-3.750245289
 20
24.4321665776
  0
LWPOLYLINE
  5
433
100
AcDbEntity
  8
C_COPERCHIO
100
AcDbPolyline
 62
250
  6
CONTINUOUS
 90
6
 70
0
 10
-3.8382632185
 20
24.3885179364
 10
-3.8564151504
 20
24.3964069151
 10
-3.8742988322
 20
24.4011778679
 10
-3.8916083879
 20
24.4027491943
 10
-3.9080477609
 20
24.4010940187
 10
-3.9244616794
 20
24.3957344617
  0
LWPOLYLINE
  5
434
100
AcDbEntity
  8
C_COPERCHIO
100
AcDbPolyline
 62
7
  6
CONTINUOUS
 90
9
 70
0
 10
-0.8736285017
 20
23.6695788547
 10
-0.9087232301
 20
23.6849556751
 10
-0.9597643304
 20
23.7002808978
 10
-1.0142139826
 20
23.7085251145
 10
-1.071638438
 20
23.7098892793
 10
-1.1299803424
 20
23.7044321302
 10
-1.1885539113
 20
23.6921732463
 10
-1.2480449292
 20
23.6730930484
 10
-1.3084533963
 20
23.6471915364
  0
LINE
  5
435
100
AcDbEntity
  8
C_COPERCHIO
100
AcDbLine
 62
250
  6
CONTINUOUS
 10
-3.6086388192
 20
24.3936056217
 11
-3.632826719
 21
24.4043298907
  0
LWPOLYLINE
  5
436
100
AcDbEntity
  8
C_CONTATTI
100
AcDbPolyline
 62
7
  6
CONTINUOUS
 90
9
 70
0
 10
10.4521848749
 20
18.1772121694
 10
10.4407884106
 20
18.1823808247
 10
10.4295680081
 20
18.186432721
 10
10.4185236674
 20
18.1893678586
 10
10.4075604085
 20
18.1911863899
 10
10.3967732113
 20
18.1918881624
 10
10.3864470159
 20
18.191472718
 10
10.3766768022
 20
18.1899399041
 10
10.370560063
 20
18.1883404069
  0
LWPOLYLINE
  5
437
100
AcDbEntity
  8
C_CONTATTI
100
AcDbPolyline
 62
7
  6
CONTINUOUS
 90
9
 70
0
 10
2.6740102818
 20
22.0662994659
 10
2.6626138176
 20
22.0714681212
 10
2.6513934151
 20
22.0755200176
 10
2.6403490744
 20
22.0784551551
 10
2.6293858154
 20
22.0802736864
 10
2.6185986183
 20
22.0809754589
 10
2.6082724228
 20
22.0805600145
 10
2.5985022091
 20
22.0790272007
 10
2.59238547
 20
22.0774277034
  0
LWPOLYLINE
  5
438
100
AcDbEntity
  8
C_COPERCHIO
100
AcDbPolyline
 62
7
  6
CONTINUOUS
 90
6
 70
0
 10
-3.6084051603
 20
24.3934887089
 10
-3.6191565116
 20
24.3986807038
 10
-3.6601437683
 20
24.4150765153
 10
-3.7014220186
 20
24.4261898343
 10
-3.742636449
 20
24.4317532584
 10
-3.7502458714
 20
24.4321543444
  0
LWPOLYLINE
  5
439
100
AcDbEntity
  8
C_COPERCHIO
100
AcDbPolyline
 62
7
  6
CONTINUOUS
 90
8
 70
0
 10
1.770903868
 20
21.7038342779
 10
1.7602947962
 20
21.708975781
 10
1.7297118098
 20
21.7219375293
 10
1.6999175077
 20
21.7317905561
 10
1.6709624101
 20
21.7384689429
 10
1.6429140133
 20
21.7418761253
 10
1.6158939952
 20
21.7419782598
 10
1.5900127081
 20
21.7387368219
  0
LINE
  5
43A
100
AcDbEntity
  8
C_CORPO
100
AcDbLine
 62
7
  6
CONTINUOUS
 10
7.0034896505
 20
18.9950758197
 11
7.5556220386
 21
18.7190096257
  0
LINE
  5
43B
100
AcDbEntity
  8
C_CONTATTI
100
AcDbLine
 62
7
  6
CONTINUOUS
 10
9.6036304119
 20
17.7529612635
 11
10.9150947229
 21
17.097229108
  0
LINE
  5
43C
100
AcDbEntity
  8
C_COPERCHIO
100
AcDbLine
 62
7
  6
CONTINUOUS
 10
2.1213660645
 20
21.5286031798
 11
1.7709181968
 21
21.7038271137
  0
LINE
  5
43D
100
AcDbEntity
  8
C_COPERCHIO
100
AcDbLine
 62
7
  6
CONTINUOUS
 10
-3.2581860427
 20
24.2183792334
 11
-3.6086376364
 21
24.3936050303
  0
LINE
  5
43E
100
AcDbEntity
  8
C_COPERCHIO
100
AcDbLine
 62
7
  6
CONTINUOUS
 10
-0.6136873301
 20
22.9335681206
 11
2.5599463855
 21
21.3467512628
  0
LINE
  5
43F
100
AcDbEntity
  8
C_COPERCHIO
100
AcDbLine
 62
250
  6
CONTINUOUS
 10
-4.26244329
 20
25.1241864832
 11
-1.3084533963
 21
23.6471915364
  0
LINE
  5
440
100
AcDbEntity
  8
C_COPERCHIO
100
AcDbLine
 62
250
  6
CONTINUOUS
 10
2.9341872908
 20
21.5258711929
 11
5.8881771844
 21
20.0488762461
  0
LINE
  5
441
100
AcDbEntity
  8
C_COPERCHIO
100
AcDbLine
 62
7
  6
CONTINUOUS
 10
-3.9761120178
 20
25.220820617
 11
-0.8735805158
 21
23.669554866
  0
LINE
  5
442
100
AcDbEntity
  8
C_COPERCHIO
100
AcDbLine
 62
7
  6
CONTINUOUS
 10
3.3690601713
 20
21.5482345225
 11
6.4715916734
 21
19.9969687715
  0
LINE
  5
443
100
AcDbEntity
  8
C_CONTATTI
100
AcDbLine
 62
7
  6
CONTINUOUS
 10
2.6739813859
 20
22.0663139139
 11
3.9854482673
 21
21.4105804732
  0
LINE
  5
444
100
AcDbEntity
  8
C_CONTATTI
100
AcDbLine
 62
7
  6
CONTINUOUS
 10
4.6866720091
 20
21.0599686023
 11
4.710317869
 21
21.0481456723
  0
LINE
  5
445
100
AcDbEntity
  8
C_CONTATTI
100
AcDbLine
 62
7
  6
CONTINUOUS
 10
10.452155979
 20
18.1772266174
 11
11.7636228603
 21
17.5214931767
  0
LINE
  5
446
100
AcDbEntity
  8
C_CONTATTI
100
AcDbLine
 62
7
  6
CONTINUOUS
 10
12.4648466022
 20
17.1708813058
 11
12.4884924588
 21
17.1590583775
  0
LINE
  5
447
100
AcDbEntity
  8
C_CORPO
100
AcDbLine
 62
7
  6
CONTINUOUS
 10
10.0576887347
 20
18.3904868134
 11
9.6238175816
 21
18.60742239
  0
LINE
  5
448
100
AcDbEntity
  8
C_CORPO
100
AcDbLine
 62
7
  6
CONTINUOUS
 10
2.2795141417
 20
22.2795741099
 11
1.8456429885
 21
22.4965096865
  0
LINE
  5
449
100
AcDbEntity
  8
C_CONTATTI
100
AcDbLine
 62
7
  6
CONTINUOUS
 10
13.4153112086
 20
17.7492381065
 11
12.9203364618
 21
17.9967254799
  0
LINE
  5
44A
100
AcDbEntity
  8
C_CONTATTI
100
AcDbLine
 62
7
  6
CONTINUOUS
 10
5.6371366156
 20
21.638325403
 11
5.1421618688
 21
21.8858127764
  0
LWPOLYLINE
  5
44B
100
AcDbEntity
  8
C_CONTATTI
100
AcDbPolyline
 62
7
  6
CONTINUOUS
 90
28
 70
0
 10
5.7654240444
 20
21.8614171344
 10
5.6710215167
 20
21.9087309536
 10
5.5726359906
 20
21.9532661993
 10
5.4705284976
 20
21.9949704092
 10
5.3649669536
 20
22.0337935445
 10
5.2562037529
 20
22.0696956611
 10
5.14448905
 20
22.1026399784
 10
5.0301146494
 20
22.1325816725
 10
4.9133407948
 20
22.1594899985
 10
4.7943884861
 20
22.1833445372
 10
4.6735439183
 20
22.2041131557
 10
4.5510872021
 20
22.2217705388
 10
4.4272389452
 20
22.2363026746
 10
4.3022829871
 20
22.2476893974
 10
4.1765111697
 20
22.2559155344
 10
4.0501607154
 20
22.2609735084
 10
3.923522284
 20
22.2628561534
 10
3.7968857305
 20
22.2615621889
 10
3.6704882477
 20
22.2570936279
 10
3.5446177694
 20
22.2494567317
 10
3.4195652521
 20
22.2386637616
 10
3.2955698223
 20
22.2247266116
 10
3.1729237717
 20
22.2076660527
 10
3.0519051702
 20
22.1875068622
 10
2.9327259107
 20
22.1642652352
 10
2.8156416084
 20
22.137965458
 10
2.7009540447
 20
22.1086469616
 10
2.5923956062
 20
22.077403751
  0
LWPOLYLINE
  5
44C
100
AcDbEntity
  8
C_CONTATTI
100
AcDbPolyline
 62
7
  6
CONTINUOUS
 90
28
 70
0
 10
13.5435986374
 20
17.9723298379
 10
13.4491961097
 20
18.0196436571
 10
13.3508105836
 20
18.0641789028
 10
13.2487030906
 20
18.1058831127
 10
13.1431415466
 20
18.144706248
 10
13.034378346
 20
18.1806083646
 10
12.922663643
 20
18.2135526819
 10
12.8082892425
 20
18.2434943759
 10
12.6915153878
 20
18.270402702
 10
12.5725630792
 20
18.2942572407
 10
12.4517185113
 20
18.3150258592
 10
12.3292617951
 20
18.3326832423
 10
12.2054135382
 20
18.3472153781
 10
12.0804575801
 20
18.3586021008
 10
11.9546857627
 20
18.3668282379
 10
11.8283353085
 20
18.3718862119
 10
11.701696877
 20
18.3737688569
 10
11.5750603236
 20
18.3724748924
 10
11.4486628407
 20
18.3680063313
 10
11.3227923625
 20
18.3603694352
 10
11.1977398451
 20
18.3495764651
 10
11.0737444153
 20
18.3356393151
 10
10.9510983648
 20
18.3185787561
 10
10.8300797633
 20
18.2984195657
 10
10.7109005037
 20
18.2751779386
 10
10.5938162015
 20
18.2488781614
 10
10.4791286378
 20
18.2195596651
 10
10.3705701993
 20
18.1883164544
  0
LINE
  5
44D
100
AcDbEntity
  8
C_CONTATTI
100
AcDbLine
 62
7
  6
CONTINUOUS
 10
6.2609953382
 20
21.6000925921
 11
5.7654240444
 21
21.8614171344
  0
LINE
  5
44E
100
AcDbEntity
  8
C_CONTATTI
100
AcDbLine
 62
7
  6
CONTINUOUS
 10
14.0391699312
 20
17.7110052956
 11
13.5435986374
 21
17.9723298379
  0
LWPOLYLINE
  5
44F
100
AcDbEntity
  8
C_CONTATTI
100
AcDbPolyline
 62
250
  6
CONTINUOUS
 90
8
 70
0
 10
5.7654240444
 20
21.8614171344
 10
5.7851700136
 20
21.8508861358
 10
5.8725359626
 20
21.8012428149
 10
5.9545962538
 20
21.7494383455
 10
6.0311347421
 20
21.6956202791
 10
6.1020565475
 20
21.6398552975
 10
6.1672000801
 20
21.5822504191
 10
6.1855349256
 20
21.5638756611
  0
LWPOLYLINE
  5
450
100
AcDbEntity
  8
C_CONTATTI
100
AcDbPolyline
 62
250
  6
CONTINUOUS
 90
8
 70
0
 10
13.5435986374
 20
17.9723298379
 10
13.5633446067
 20
17.9617988393
 10
13.6507105556
 20
17.9121555184
 10
13.7327708469
 20
17.8603510489
 10
13.8093093351
 20
17.8065329826
 10
13.8802311406
 20
17.750768001
 10
13.9453746731
 20
17.6931631225
 10
13.9637095187
 20
17.6747883646
  0
LINE
  5
451
100
AcDbEntity
  8
C_COPERCHIO
100
AcDbLine
 62
250
  6
CONTINUOUS
 10
1.26014564
 20
-24.9692054537
 11
1.7842501066
 21
-24.6864390702
  0
LINE
  5
452
100
AcDbEntity
  8
C_COPERCHIO
100
AcDbLine
 62
7
  6
CONTINUOUS
 10
1.197775942
 20
-25.103062763
 11
1.7231211116
 21
-24.8196269916
  0
LINE
  5
453
100
AcDbEntity
  8
C_COPERCHIO
100
AcDbLine
 62
7
  6
CONTINUOUS
 10
1.197775243
 20
-25.1030630857
 11
1.1925672654
 21
-25.1056674403
  0
LINE
  5
454
100
AcDbEntity
  8
C_COPERCHIO
100
AcDbLine
 62
250
  6
CONTINUOUS
 10
-0.3617544866
 20
-25.7182526801
 11
1.26014564
 21
-24.9692054537
  0
LINE
  5
455
100
AcDbEntity
  8
C_COPERCHIO
100
AcDbLine
 62
7
  6
CONTINUOUS
 10
-0.4305994017
 20
-25.855299597
 11
1.1925685559
 21
-25.1056668443
  0
LWPOLYLINE
  5
456
100
AcDbEntity
  8
C_COPERCHIO
100
AcDbPolyline
 62
250
  6
CONTINUOUS
 90
13
 70
0
 10
-0.3617544866
 20
-25.7182526801
 10
-0.3858680822
 20
-25.7285031881
 10
-0.4125657849
 20
-25.7372010263
 10
-0.4414584436
 20
-25.7441706476
 10
-0.4721754602
 20
-25.7492693242
 10
-0.5041656295
 20
-25.7523545805
 10
-0.5366861767
 20
-25.7533335996
 10
-0.5691171458
 20
-25.75219444
 10
-0.6009778459
 20
-25.7489607083
 10
-0.6317198999
 20
-25.7436891733
 10
-0.6608221337
 20
-25.7364717784
 10
-0.687798376
 20
-25.7274318119
 10
-0.7121957745
 20
-25.7167235528
  0
LWPOLYLINE
  5
457
100
AcDbEntity
  8
C_COPERCHIO
100
AcDbPolyline
 62
7
  6
CONTINUOUS
 90
7
 70
0
 10
-3.3597347602
 20
24.2135903446
 10
-3.3719610176
 20
24.2108226801
 10
-3.3843773945
 20
24.2074132836
 10
-3.3969838909
 20
24.2033621549
 10
-3.4097805068
 20
24.198669294
 10
-3.4227672423
 20
24.193334701
 10
-3.4359440974
 20
24.1873583758
  0
LWPOLYLINE
  5
458
100
AcDbEntity
  8
C_COPERCHIO
100
AcDbPolyline
 62
7
  6
CONTINUOUS
 90
8
 70
0
 10
-3.3597347602
 20
24.2136105561
 10
-3.3379575855
 20
24.2178158541
 10
-3.3182256928
 20
24.2208827628
 10
-3.3006633208
 20
24.2227205374
 10
-3.2854269263
 20
24.2232685081
 10
-3.2726267823
 20
24.2224282656
 10
-3.2623158342
 20
24.2200913443
 10
-3.2581605984
 20
24.2183665111
  0
LINE
  5
459
100
AcDbEntity
  8
C_COPERCHIO
100
AcDbLine
 62
7
  6
CONTINUOUS
 10
-1.9032084441
 20
22.8636382646
 11
-0.6136873301
 21
22.9335681206
  0
LWPOLYLINE
  5
45A
100
AcDbEntity
  8
C_COPERCHIO
100
AcDbPolyline
 62
250
  6
CONTINUOUS
 90
5
 70
0
 10
-3.7019470867
 20
24.4193646889
 10
-3.7236943829
 20
24.4191749959
 10
-3.7459580891
 20
24.4169831561
 10
-3.7686437437
 20
24.4127989607
 10
-3.7916550822
 20
24.4066407533
  0
LWPOLYLINE
  5
45B
100
AcDbEntity
  8
C_COPERCHIO
100
AcDbPolyline
 62
7
  6
CONTINUOUS
 90
7
 70
0
 10
-3.7502530479
 20
24.4321668913
 10
-3.758048975
 20
24.4323965934
 10
-3.7972616201
 20
24.4308705193
 10
-3.8371134623
 20
24.4248325737
 10
-3.8772467943
 20
24.4142035129
 10
-3.9174000449
 20
24.3989029392
 10
-3.9244554849
 20
24.3957210103
  0
LWPOLYLINE
  5
45C
100
AcDbEntity
  8
C_COPERCHIO
100
AcDbPolyline
 62
7
  6
CONTINUOUS
 90
4
 70
0
 10
-13.6921198254
 20
24.7092231811
 10
-13.6702211097
 20
24.7073799923
 10
-13.6475431133
 20
24.7015660703
 10
-13.6244790279
 20
24.6918782897
  0
LWPOLYLINE
  5
45D
100
AcDbEntity
  8
C_CORPO
100
AcDbPolyline
 62
7
  6
CONTINUOUS
 90
10
 70
0
 10
13.8006526704
 20
18.4367186972
 10
13.83675829
 20
18.4210109723
 10
13.8722928924
 20
18.4050024848
 10
13.9072564775
 20
18.3886932348
 10
13.9416592147
 20
18.3720781374
 10
13.9754909347
 20
18.3551622774
 10
14.0087211295
 20
18.3379609088
 10
14.0413396297
 20
18.3204791162
 10
14.0733566046
 20
18.302711815
 10
14.1047720543
 20
18.2846590052
  0
LINE
  5
45E
100
AcDbEntity
  8
C_CORPO
100
AcDbLine
 62
7
  6
CONTINUOUS
 10
14.2588979474
 20
18.1919362061
 11
13.6026457609
 21
18.5200622993
  0
LINE
  5
45F
100
AcDbEntity
  8
C_CORPO
100
AcDbLine
 62
7
  6
CONTINUOUS
 10
6.4807233544
 20
22.0810235026
 11
5.8244711678
 21
22.4091495959
  0
LINE
  5
460
100
AcDbEntity
  8
C_CORPO
100
AcDbLine
 62
7
  6
CONTINUOUS
 10
13.8006526704
 20
18.4367186972
 11
14.1047720543
 21
18.2846590052
  0
LINE
  5
461
100
AcDbEntity
  8
C_CORPO
100
AcDbLine
 62
7
  6
CONTINUOUS
 10
6.3265974613
 20
22.1737463017
 11
6.0224780773
 21
22.3258059937
  0
LINE
  5
462
100
AcDbEntity
  8
C_CORPO
100
AcDbLine
 62
7
  6
CONTINUOUS
 10
13.5974153014
 20
20.5863591465
 11
16.7479684299
 21
19.0110825822
  0
LINE
  5
463
100
AcDbEntity
  8
C_CORPO
100
AcDbLine
 62
7
  6
CONTINUOUS
 10
8.9697938368
 20
22.9001698788
 11
5.8192407083
 21
24.475446443
  0
LWPOLYLINE
  5
464
100
AcDbEntity
  8
C_CORPO
100
AcDbPolyline
 62
7
  6
CONTINUOUS
 90
10
 70
0
 10
6.3265974613
 20
22.1737463017
 10
6.2951820116
 20
22.1917991115
 10
6.2631650366
 20
22.2095664127
 10
6.2305465364
 20
22.2270482053
 10
6.1973163417
 20
22.2442495739
 10
6.1634846217
 20
22.2611654339
 10
6.1290818844
 20
22.2777805313
 10
6.0941182993
 20
22.2940897814
 10
6.0585836969
 20
22.3100982688
 10
6.0224780773
 20
22.3258059937
  0
LWPOLYLINE
  5
465
100
AcDbEntity
  8
C_CORPO
100
AcDbPolyline
 62
7
  6
CONTINUOUS
 90
51
 70
0
 10
18.8710732804
 20
16.4571048766
 10
18.8771757149
 20
16.4534477605
 10
18.9223192499
 20
16.4251904997
 10
18.9673152862
 20
16.395818486
 10
19.0121173253
 20
16.3653623692
 10
19.0566313232
 20
16.3338905745
 10
19.1008026499
 20
16.3014508452
 10
19.1446565728
 20
16.2680335439
 10
19.1882188372
 20
16.2336244372
 10
19.2314948171
 20
16.1982218868
 10
19.2744478308
 20
16.1618583177
 10
19.3170397531
 20
16.1245701149
 10
19.3592567999
 20
16.0863742155
 10
19.4010828917
 20
16.0472898679
 10
19.4424772837
 20
16.0073609106
 10
19.4834020002
 20
15.9666318768
 10
19.5238676471
 20
15.9250999735
 10
19.5639054531
 20
15.8827375086
 10
19.6035271166
 20
15.8395328436
 10
19.6426902798
 20
15.7955327327
 10
19.6813447087
 20
15.7507971403
 10
19.7194636423
 20
15.7053629309
 10
19.7570473011
 20
15.6592356172
 10
19.7940869927
 20
15.6124305763
 10
19.8305645904
 20
15.5649753291
 10
19.8664721189
 20
15.5168847495
 10
19.9018151083
 20
15.4681544317
 10
19.9365911764
 20
15.4187887237
 10
19.9707752896
 20
15.368824067
 10
20.0043390102
 20
15.3183044814
 10
20.0372627384
 20
15.2672632996
 10
20.0695419607
 20
15.215711238
 10
20.1011714717
 20
15.1636592072
 10
20.1321400799
 20
15.1111275198
 10
20.1624349497
 20
15.0581396976
 10
20.1920479921
 20
15.0047112589
 10
20.2209687873
 20
14.9508617899
 10
20.2491844239
 20
14.8966159421
 10
20.2766831422
 20
14.8419969155
 10
20.3034542582
 20
14.7870263382
 10
20.3294865138
 20
14.7317275363
 10
20.3547677868
 20
14.6761264733
 10
20.3792856276
 20
14.6202509695
 10
20.4030323375
 20
14.564118794
 10
20.4260029368
 20
14.5077407646
 10
20.4481876844
 20
14.4511388231
 10
20.4695764154
 20
14.3943366086
 10
20.4901629971
 20
14.3373472097
 10
20.5099387677
 20
14.2801901631
 10
20.5288929573
 20
14.222891667
 10
20.5401696822
 20
14.1874909849
  0
LWPOLYLINE
  5
466
100
AcDbEntity
  8
C_CORPO
100
AcDbPolyline
 62
250
  6
CONTINUOUS
 90
49
 70
0
 10
18.8710732804
 20
16.3819532128
 10
18.8797763174
 20
16.3761026088
 10
18.9236071895
 20
16.3454679051
 10
18.9672765487
 20
16.3137728445
 10
19.0107646197
 20
16.2810317769
 10
19.0540516532
 20
16.2472595682
 10
19.097117978
 20
16.2124715656
 10
19.1399440386
 20
16.1766835685
 10
19.1825104414
 20
16.1399117861
 10
19.2247979218
 20
16.1021728605
 10
19.2667873271
 20
16.0634838816
 10
19.3084595914
 20
16.0238624142
 10
19.3497957826
 20
15.9833264585
 10
19.390777135
 20
15.9418944194
 10
19.4313850864
 20
15.8995850656
 10
19.4716012518
 20
15.8564175525
 10
19.5114074116
 20
15.8124114348
 10
19.5507854958
 20
15.7675866866
 10
19.5897176225
 20
15.7219636632
 10
19.6281861226
 20
15.6755630721
 10
19.6661735669
 20
15.6284059384
 10
19.7036627486
 20
15.5805136225
 10
19.7406366777
 20
15.5319078274
 10
19.7770785758
 20
15.4826106086
 10
19.8129719031
 20
15.4326443402
 10
19.8483003753
 20
15.3820316922
 10
19.88304798
 20
15.330795606
 10
19.9171989687
 20
15.2789593029
 10
19.9507378588
 20
15.2265462829
 10
19.9836494366
 20
15.1735803203
 10
20.0159187735
 20
15.1200854401
 10
20.0475312352
 20
15.0660859029
 10
20.0784724871
 20
15.0116061946
 10
20.1087284975
 20
14.9566710219
 10
20.1382855442
 20
14.9013053002
 10
20.1671302257
 20
14.8455341333
 10
20.1952494663
 20
14.7893828029
 10
20.2226305184
 20
14.7328767635
 10
20.2492609608
 20
14.676041648
 10
20.275128709
 20
14.6189032469
 10
20.3002220271
 20
14.5614874856
 10
20.3245295426
 20
14.5038203868
 10
20.348040243
 20
14.4459280766
 10
20.3707434736
 20
14.3878367883
 10
20.3926289304
 20
14.329572884
 10
20.4136866769
 20
14.2711628174
 10
20.4339071609
 20
14.2126330869
 10
20.4532812176
 20
14.154010224
 10
20.471800062
 20
14.0953208127
  0
LWPOLYLINE
  5
467
100
AcDbEntity
  8
C_CORPO
100
AcDbPolyline
 62
7
  6
CONTINUOUS
 90
52
 70
0
 10
19.3399487044
 20
14.0904543518
 10
19.3491451644
 20
14.0788345366
 10
19.35833104
 20
14.0676354116
 10
19.3675091865
 20
14.0568583668
 10
19.3766674485
 20
14.0465304386
 10
19.3858236884
 20
14.0366271561
 10
19.3950250008
 20
14.0270723879
 10
19.4042815277
 20
14.0178555652
 10
19.4135869336
 20
14.0089890982
 10
19.4229624967
 20
14.0004310406
 10
19.4324153016
 20
13.9921739295
 10
19.4419412514
 20
13.9842266802
 10
19.4515443516
 20
13.9765717682
 10
19.4612293888
 20
13.9692053509
 10
19.4709942378
 20
13.9621324683
 10
19.4808323888
 20
13.9553488354
 10
19.4907473034
 20
13.948852975
 10
19.5007380902
 20
13.9426473565
 10
19.5107917378
 20
13.93673355
 10
19.520910942
 20
13.9311114506
 10
19.5310955772
 20
13.9257819632
 10
19.5413284967
 20
13.9207481066
 10
19.5516118134
 20
13.9160106102
 10
19.5619459964
 20
13.9115693535
 10
19.572311539
 20
13.90742601
 10
19.5827100585
 20
13.9035817199
 10
19.5931424961
 20
13.9000357616
 10
19.6035884113
 20
13.8967869418
 10
19.6140489608
 20
13.8938365375
 10
19.6245254655
 20
13.8911835073
 10
19.6349977699
 20
13.8888231084
 10
19.6454665435
 20
13.886756619
 10
19.6559334511
 20
13.8849828288
 10
19.6663798226
 20
13.8834931959
 10
19.6768059228
 20
13.8822886218
 10
19.6872136198
 20
13.8813681282
 10
19.6975866004
 20
13.8807203004
 10
19.7079246034
 20
13.8803459093
 10
19.7182297829
 20
13.8802439899
 10
19.7284893698
 20
13.8804004845
 10
19.7387027647
 20
13.8808153986
 10
19.7488721916
 20
13.8814884461
 10
19.7589890177
 20
13.8824051093
 10
19.769052119
 20
13.883565145
 10
19.7790639754
 20
13.8849684565
 10
19.7890212561
 20
13.8866007389
 10
19.7989227222
 20
13.8884609261
 10
19.8087707064
 20
13.8905497104
 10
19.8185671353
 20
13.8928554292
 10
19.8283129267
 20
13.8953740686
 10
19.838008016
 20
13.8981092536
 10
19.8476527876
 20
13.9010607809
  0
LINE
  5
468
100
AcDbEntity
  8
C_CORPO
100
AcDbLine
 62
250
  6
CONTINUOUS
 10
18.8710732804
 20
14.9356913839
 11
18.8754691811
 21
14.9293918582
  0
LWPOLYLINE
  5
469
100
AcDbEntity
  8
C_CORPO
100
AcDbPolyline
 62
250
  6
CONTINUOUS
 90
17
 70
0
 10
18.8754691811
 20
14.9293918582
 10
18.9088554319
 20
14.8802623853
 10
18.9417164007
 20
14.8306007038
 10
18.9740394801
 20
14.7804258678
 10
19.0058122725
 20
14.7297571221
 10
19.037022587
 20
14.6786139067
 10
19.067658437
 20
14.6270158625
 10
19.0977080551
 20
14.5749828086
 10
19.1271599034
 20
14.5225347243
 10
19.1560026799
 20
14.4696917368
 10
19.1842253159
 20
14.4164741254
 10
19.2118169779
 20
14.3629023183
 10
19.2387670744
 20
14.3089968797
 10
19.2650652627
 20
14.2547784967
 10
19.2907014485
 20
14.20026798
 10
19.31566579
 20
14.1454862555
 10
19.3399487044
 20
14.0904543518
  0
LWPOLYLINE
  5
46A
100
AcDbEntity
  8
C_CORPO
100
AcDbPolyline
 62
250
  6
CONTINUOUS
 90
31
 70
0
 10
19.18336816
 20
14.2718681179
 10
19.192823142
 20
14.2578390768
 10
19.2018792937
 20
14.2445489553
 10
19.2105222607
 20
14.2320135314
 10
19.2187288876
 20
14.2202676086
 10
19.2265256156
 20
14.2092705299
 10
19.2339717287
 20
14.1989251022
 10
19.2410681869
 20
14.1892286642
 10
19.2478159495
 20
14.1801795872
 10
19.2542740001
 20
14.1716830149
 10
19.2604439768
 20
14.163734314
 10
19.2663253056
 20
14.1563349989
 10
19.2719737024
 20
14.1494001566
 10
19.2773966124
 20
14.1429183454
 10
19.2825873885
 20
14.1368988884
 10
19.2875807941
 20
14.1312885525
 10
19.292387155
 20
14.1260757816
 10
19.2969966996
 20
14.1212705863
 10
19.3014138094
 20
14.1168522058
 10
19.3056385887
 20
14.1128222985
 10
19.3096704701
 20
14.1091776426
 10
19.3135121135
 20
14.1058899917
 10
19.3171594305
 20
14.102964135
 10
19.3206149324
 20
14.1003936681
 10
19.3238904501
 20
14.0981333943
 10
19.3269806437
 20
14.0961862621
 10
19.3298885051
 20
14.09454778
 10
19.3326379684
 20
14.0931615622
 10
19.3352361552
 20
14.0920083822
 10
19.3376734697
 20
14.0911061756
 10
19.3399487044
 20
14.0904543518
  0
LINE
  5
46B
100
AcDbEntity
  8
C_CORPO
100
AcDbLine
 62
250
  6
CONTINUOUS
 10
19.1632534522
 20
14.3021563867
 11
19.18336816
 21
14.2718681179
  0
LINE
  5
46C
100
AcDbEntity
  8
C_CORPO
100
AcDbLine
 62
250
  6
CONTINUOUS
 10
19.1415772661
 20
14.3353242866
 11
19.1632534522
 21
14.3021563867
  0
LINE
  5
46D
100
AcDbEntity
  8
C_CORPO
100
AcDbLine
 62
250
  6
CONTINUOUS
 10
19.1182449689
 20
14.3714931114
 11
19.1415772661
 21
14.3353242866
  0
LINE
  5
46E
100
AcDbEntity
  8
C_CORPO
100
AcDbLine
 62
250
  6
CONTINUOUS
 10
19.0794893582
 20
14.4323180739
 11
19.1182449689
 21
14.3714931114
  0
LINE
  5
46F
100
AcDbEntity
  8
C_CORPO
100
AcDbLine
 62
250
  6
CONTINUOUS
 10
19.0192316083
 20
14.5280513036
 11
19.0794893582
 21
14.4323180739
  0
LWPOLYLINE
  5
470
100
AcDbEntity
  8
C_CORPO
100
AcDbPolyline
 62
250
  6
CONTINUOUS
 90
3
 70
0
 10
18.9139936398
 20
14.6972904392
 10
18.9319347425
 20
14.6682692603
 10
19.0192316083
 20
14.5280513036
  0
LWPOLYLINE
  5
471
100
AcDbEntity
  8
C_CORPO
100
AcDbPolyline
 62
7
  6
CONTINUOUS
 90
28
 70
0
 10
18.9139931696
 20
14.6972908481
 10
18.913648192
 20
14.6978635217
 10
18.9128996783
 20
14.6991686412
 10
18.911832605
 20
14.7011360024
 10
18.9104756238
 20
14.7037864888
 10
18.9088624024
 20
14.7071300128
 10
18.9070318994
 20
14.7111622262
 10
18.9050138626
 20
14.7158962817
 10
18.9028403188
 20
14.7213386534
 10
18.9005526015
 20
14.7274675867
 10
18.8981790172
 20
14.7342900034
 10
18.8957495972
 20
14.7418060578
 10
18.8933052122
 20
14.7499749163
 10
18.8908715876
 20
14.7587959576
 10
18.8884749567
 20
14.7682634139
 10
18.886151863
 20
14.7783200266
 10
18.88392397
 20
14.788957446
 10
18.8818124421
 20
14.8001650024
 10
18.8798462462
 20
14.811875281
 10
18.8780413469
 20
14.8240768838
 10
18.8764138412
 20
14.8367519611
 10
18.8749848039
 20
14.8498185783
 10
18.8737640926
 20
14.8632611958
 10
18.8727614276
 20
14.8770574643
 10
18.8719886151
 20
14.891111826
 10
18.8714497691
 20
14.905377451
 10
18.871145939
 20
14.9198570783
 10
18.8710733008
 20
14.9312206008
  0
LWPOLYLINE
  5
472
100
AcDbEntity
  8
C_CORPO
100
AcDbPolyline
 62
250
  6
CONTINUOUS
 90
26
 70
0
 10
18.3182868759
 20
18.884552997
 10
18.3110033856
 20
18.8880969455
 10
18.295755684
 20
18.8949027695
 10
18.280192611
 20
18.9010367013
 10
18.2643257236
 20
18.9064941855
 10
18.2481668049
 20
18.9112711696
 10
18.2317278544
 20
18.9153641061
 10
18.2150210798
 20
18.9187699555
 10
18.1980588877
 20
18.9214861887
 10
18.1808538743
 20
18.9235107886
 10
18.1634188161
 20
18.9248422516
 10
18.1457666606
 20
18.925479589
 10
18.1279105162
 20
18.9254223276
 10
18.109863643
 20
18.9246705099
 10
18.0916394429
 20
18.9232246941
 10
18.0732514491
 20
18.9210859539
 10
18.0547133166
 20
18.9182558777
 10
18.0360388121
 20
18.9147365669
 10
18.0172418033
 20
18.9105306351
 10
17.9983362489
 20
18.9056412056
 10
17.9793361883
 20
18.9000719094
 10
17.9602557311
 20
18.8938268822
 10
17.9411090465
 20
18.8869107615
 10
17.921910353
 20
18.8793286835
 10
17.9026739076
 20
18.8710862785
 10
17.8834139954
 20
18.8621896674
  0
LWPOLYLINE
  5
473
100
AcDbEntity
  8
C_CORPO
100
AcDbPolyline
 62
250
  6
CONTINUOUS
 90
26
 70
0
 10
4.5418680778
 20
25.7727623961
 10
4.5345882239
 20
25.7763046235
 10
4.5193404548
 20
25.7831106698
 10
4.5037773038
 20
25.7892448128
 10
4.4879103288
 20
25.794702497
 10
4.4717513127
 20
25.7994796691
 10
4.4553122555
 20
25.8035727814
 10
4.4386053654
 20
25.8069787939
 10
4.4216430493
 20
25.8096951771
 10
4.4044379036
 20
25.8117199137
 10
4.3870027055
 20
25.8130514998
 10
4.3693504028
 20
25.8136889466
 10
4.3514941043
 20
25.8136317805
 10
4.3334470707
 20
25.8128800438
 10
4.315222704
 20
25.8114342948
 10
4.296834538
 20
25.8092956069
 10
4.2782962285
 20
25.8064655685
 10
4.2596215427
 20
25.8029462811
 10
4.2408243486
 20
25.7987403583
 10
4.2219186054
 20
25.7938509233
 10
4.2029183521
 20
25.7882816069
 10
4.1838376995
 20
25.7820365452
 10
4.1646908203
 20
25.7751203769
 10
4.1454919343
 20
25.7675382388
 10
4.1262552981
 20
25.7592957616
 10
4.1069951972
 20
25.7503990665
  0
LINE
  5
474
100
AcDbEntity
  8
C_CORPO
100
AcDbLine
 62
250
  6
CONTINUOUS
 10
9.3971947583
 20
23.105299286
 11
12.5932144343
 21
21.5072894479
  0
LINE
  5
475
100
AcDbEntity
  8
C_CORPO
100
AcDbLine
 62
7
  6
CONTINUOUS
 10
4.5418680778
 20
25.7727623961
 11
5.3380794916
 21
25.3746566892
  0
LINE
  5
476
100
AcDbEntity
  8
C_CORPO
100
AcDbLine
 62
7
  6
CONTINUOUS
 10
9.7439008691
 20
23.1717460005
 11
13.1162540847
 21
21.4855693927
  0
LINE
  5
477
100
AcDbEntity
  8
C_CORPO
100
AcDbLine
 62
7
  6
CONTINUOUS
 10
17.5220754621
 20
19.2826587039
 11
18.3182868759
 21
18.884552997
  0
ARC
  5
478
100
AcDbEntity
  8
C_CORPO
100
AcDbCircle
 62
7
  6
CONTINUOUS
 10
4.0946544823
 20
24.8783352051
 40
1.0
100
AcDbArc
 50
63.4349443607
 51
114.7890653212
  0
ARC
  5
479
100
AcDbEntity
  8
C_CORPO
100
AcDbCircle
 62
7
  6
CONTINUOUS
 10
17.8710732804
 20
17.990125806
 40
1.0
100
AcDbArc
 50
0.0002095874
 51
63.4349488229
  0
ARC
  5
47A
100
AcDbEntity
  8
C_CORPO
100
AcDbCircle
 62
7
  6
CONTINUOUS
 10
17.8710732804
 20
-8.0303553985
 40
1.0
100
AcDbArc
 50
298.3476707551
 51
360.0
  0
ARC
  5
47B
100
AcDbEntity
  8
C_COPERCHIO
100
AcDbCircle
 62
7
  6
CONTINUOUS
 10
0.2794800205
 20
18.0423521232
 40
0.25
100
AcDbArc
 50
63.3950891547
 51
114.7890578208
  0
ARC
  5
47C
100
AcDbEntity
  8
C_COPERCHIO
100
AcDbCircle
 62
7
  6
CONTINUOUS
 10
1.6044151565
 20
17.3798845552
 40
0.25
100
AcDbArc
 50
0.0072930109
 51
63.4349488229
  0
ARC
  5
47D
100
AcDbEntity
  8
C_COPERCHIO
100
AcDbCircle
 62
7
  6
CONTINUOUS
 10
-1.8233264309
 20
16.9497602109
 40
0.25
100
AcDbArc
 50
118.3478796169
 51
179.9982443039
  0
ARC
  5
47E
100
AcDbEntity
  8
C_COPERCHIO
100
AcDbCircle
 62
7
  6
CONTINUOUS
 10
-15.1876445953
 20
23.6319192931
 40
0.25
100
AcDbArc
 50
118.3478796169
 51
179.9982443039
  0
ARC
  5
47F
100
AcDbEntity
  8
C_COPERCHIO
100
AcDbCircle
 62
7
  6
CONTINUOUS
 10
-11.7599030079
 20
24.0620436374
 40
0.25
100
AcDbArc
 50
0.032235045
 51
63.4821744686
  0
ARC
  5
480
100
AcDbEntity
  8
C_COPERCHIO
100
AcDbCircle
 62
7
  6
CONTINUOUS
 10
-13.0848381439
 20
24.7245112054
 40
0.25
100
AcDbArc
 50
63.3950891547
 51
114.7890578208
  0
ARC
  5
481
100
AcDbEntity
  8
C_COPERCHIO
100
AcDbCircle
 62
7
  6
CONTINUOUS
 10
1.6044151565
 20
-24.5996067739
 40
0.25
100
AcDbArc
 50
298.3478796169
 51
359.9982443039
  0
ARC
  5
482
100
AcDbEntity
  8
C_COPERCHIO
100
AcDbCircle
 62
7
  6
CONTINUOUS
 10
-1.8233264309
 20
-24.9843815293
 40
0.25
100
AcDbArc
 50
180.032235045
 51
243.4821744686
  0
ARC
  5
483
100
AcDbEntity
  8
C_COPERCHIO
100
AcDbCircle
 62
7
  6
CONTINUOUS
 10
-0.5354190792
 20
-25.6283352051
 40
0.25
100
AcDbArc
 50
243.3950891547
 51
294.7890578208
  0
ELLIPSE
  5
484
100
AcDbEntity
  8
C_COPERCHIO
100
AcDbEllipse
 62
7
  6
CONTINUOUS
 10
6.5045060758
 20
19.0061135341
 30
0.0
 11
0.499996712
 21
0.0035883639
 31
0.0
 40
0.5053247124
 41
-0.7715714568
 42
-0.003626605
  0
ELLIPSE
  5
485
100
AcDbEntity
  8
C_COPERCHIO
100
AcDbEllipse
 62
7
  6
CONTINUOUS
 10
1.9671985651
 20
15.3362977349
 30
0.0
 11
-0.2237009107
 21
0.4473351135
 31
0.0
 40
0.6121897086
 41
-2.2557347926
 42
-0.6846338794
  0
ELLIPSE
  5
486
100
AcDbEntity
  8
C_COPERCHIO
100
AcDbEllipse
 62
7
  6
CONTINUOUS
 10
1.9671985651
 20
-22.5652499716
 30
0.0
 11
-0.2235807756
 21
0.4472283268
 31
0.0
 40
0.6125552124
 41
-3.1396695462
 42
-2.255296188
  0
ELLIPSE
  5
487
100
AcDbEntity
  8
C_COPERCHIO
100
AcDbEllipse
 62
7
  6
CONTINUOUS
 10
-1.6180097517
 20
15.7641945577
 30
0.0
 11
0.0869927845
 21
0.180102834
 31
0.0
 40
0.6016116119
 41
-2.4127428828
 42
-0.8943064336
  0
ELLIPSE
  5
488
100
AcDbEntity
  8
C_COPERCHIO
100
AcDbEllipse
 62
7
  6
CONTINUOUS
 10
-11.7599030079
 20
23.4721000426
 30
0.0
 11
0.220014872
 21
0.1791173313
 31
0.0
 40
0.6627826692
 41
-1.262753738
 42
-0.756608255
  0
ELLIPSE
  5
489
100
AcDbEntity
  8
C_COPERCHIO
100
AcDbEllipse
 62
7
  6
CONTINUOUS
 10
-13.8997372436
 20
22.4206968169
 30
0.0
 11
0.2497264901
 21
-0.0900037588
 31
0.0
 40
0.1298948903
 41
-1.2622157641
 42
-0.756070281
  0
ELLIPSE
  5
48A
100
AcDbEntity
  8
C_COPERCHIO
100
AcDbEllipse
 62
7
  6
CONTINUOUS
 10
-0.5354190792
 20
15.7385377347
 30
0.0
 11
0.2497264901
 21
-0.0900037588
 31
0.0
 40
0.1298948903
 41
-1.2622157641
 42
-0.756070281
  0
ELLIPSE
  5
48B
100
AcDbEntity
  8
C_COPERCHIO
100
AcDbEllipse
 62
7
  6
CONTINUOUS
 10
1.6044151565
 20
16.7899409603
 30
0.0
 11
0.220014872
 21
0.1791173313
 31
0.0
 40
0.6627826692
 41
-1.262753738
 42
-0.756608255
  0
ELLIPSE
  5
48C
100
AcDbEntity
  8
C_COPERCHIO
100
AcDbEllipse
 62
7
  6
CONTINUOUS
 10
6.5831401877
 20
-17.9401323235
 30
0.0
 11
0.9867309946
 21
0.6236301469
 31
0.0
 40
0.0713777251
 41
-2.3963187117
 42
-1.1971239672
  0
ELLIPSE
  5
48D
100
AcDbEntity
  8
C_COPERCHIO
100
AcDbEllipse
 62
7
  6
CONTINUOUS
 10
-4.9820877232
 20
24.605774481
 30
0.0
 11
1.0108778265
 21
0.6107340099
 31
0.0
 40
0.091398456
 41
0.0577069892
 42
0.7249729241
  0
ELLIPSE
  5
48E
100
AcDbEntity
  8
C_COPERCHIO
100
AcDbEllipse
 62
7
  6
CONTINUOUS
 10
-13.3272364635
 20
21.6188079136
 30
0.0
 11
0.0919907694
 21
0.1776025845
 31
0.0
 40
0.6229838795
 41
-2.3956273539
 42
-0.8771909047
  0
ELLIPSE
  5
48F
100
AcDbEntity
  8
C_COPERCHIO
100
AcDbEllipse
 62
7
  6
CONTINUOUS
 10
-9.3755862633
 20
20.3725319348
 30
0.0
 11
0.4998587701
 21
0.0223649649
 31
0.0
 40
0.5313301283
 41
3.1178240486
 42
3.9032222197
  0
ELLIPSE
  5
490
100
AcDbEntity
  8
C_COPERCHIO
100
AcDbEllipse
 62
7
  6
CONTINUOUS
 10
-3.872603677
 20
17.6210406416
 30
0.0
 11
0.4998587701
 21
0.0223649649
 31
0.0
 40
0.5313301283
 41
-2.3799630874
 42
-0.8266200532
  0
ELLIPSE
  5
491
100
AcDbEntity
  8
C_COPERCHIO
100
AcDbEllipse
 62
7
  6
CONTINUOUS
 10
1.6044151565
 20
-24.009663179
 30
0.0
 11
0.2497264901
 21
-0.0900037588
 31
0.0
 40
0.1298948903
 41
-0.721163696
 42
-0.2150182129
  0
ELLIPSE
  5
492
100
AcDbEntity
  8
C_COPERCHIO
100
AcDbEllipse
 62
7
  6
CONTINUOUS
 10
-0.5354190792
 20
-25.0610664047
 30
0.0
 11
0.220014872
 21
0.1791173313
 31
0.0
 40
0.6627826692
 41
-1.8038058062
 42
-1.2976603231
  0
ELLIPSE
  5
493
100
AcDbEntity
  8
C_COPERCHIO
100
AcDbEllipse
 62
7
  6
CONTINUOUS
 10
6.5831401877
 20
18.8231605255
 30
0.0
 11
-0.7295743011
 21
1.2069023924
 31
0.0
 40
0.551692038
 41
5.0333899064
 42
6.2325846508
  0
ELLIPSE
  5
494
100
AcDbEntity
  8
C_COPERCHIO
100
AcDbEllipse
 62
7
  6
CONTINUOUS
 10
-3.6309084562
 20
23.1469851238
 30
0.0
 11
0.3834884549
 21
-0.005389233
 31
0.0
 40
0.4892375088
 41
-0.778522928
 42
0.0068752897
  0
ELLIPSE
  5
495
100
AcDbEntity
  8
C_COPERCHIO
100
AcDbEllipse
 62
7
  6
CONTINUOUS
 10
1.8611864041
 20
20.4009376937
 30
0.0
 11
0.3834884549
 21
-0.005389233
 31
0.0
 40
0.4892375088
 41
-0.7610696355
 42
0.0068753252
  0
ELLIPSE
  5
496
100
AcDbEntity
  8
C_COPERCHIO
100
AcDbEllipse
 62
7
  6
CONTINUOUS
 10
6.5045060758
 20
-18.0658923035
 30
0.0
 11
0.4995166957
 21
0.3155787895
 31
0.0
 40
0.0696462212
 41
5.9573459303
 42
7.0071582689
  0
ELLIPSE
  5
497
100
AcDbEntity
  8
C_COPERCHIO
100
AcDbEllipse
 62
7
  6
CONTINUOUS
 10
-3.7249571673
 20
21.6457141237
 30
0.0
 11
0.9999763657
 21
-0.0140528498
 31
0.0
 40
0.4892375088
 41
0.7922733988
 42
2.3630697256
  0
ELLIPSE
  5
498
100
AcDbEntity
  8
C_COPERCHIO
100
AcDbEllipse
 62
7
  6
CONTINUOUS
 10
6.5045060758
 20
19.7346613987
 30
0.0
 11
-0.3769154292
 21
0.5969964286
 31
0.0
 40
0.5503119334
 41
-3.1926141665
 42
-2.1428018279
  0
ELLIPSE
  5
499
100
AcDbEntity
  8
C_CORPO
100
AcDbEllipse
 62
7
  6
CONTINUOUS
 10
8.1319243637
 20
-14.5817309374
 30
0.0
 11
-0.894811907
 21
1.788971565
 31
0.0
 40
0.6123121697
 41
-3.0410143285
 42
-2.2557423369
  0
ELLIPSE
  5
49A
100
AcDbEntity
  8
C_CORPO
100
AcDbEllipse
 62
7
  6
CONTINUOUS
 10
8.1319243637
 20
15.8958739508
 30
0.0
 11
-0.894612936
 21
1.7887945813
 31
0.0
 40
0.6124635976
 41
-2.2555607096
 42
-1.470288718
  0
ELLIPSE
  5
49B
100
AcDbEntity
  8
C_CORPO
100
AcDbEllipse
 62
7
  6
CONTINUOUS
 10
8.8284401396
 20
16.8232276988
 30
0.0
 11
0.9858079435
 21
-0.6309565609
 31
0.0
 40
0.0961895619
 41
1.6198246815
 42
2.0341892581
  0
ELLIPSE
  5
49C
100
AcDbEntity
  8
C_CORPO
100
AcDbEllipse
 62
7
  6
CONTINUOUS
 10
3.5351041383
 20
22.5416725583
 30
0.0
 11
3.2468997206
 21
-0.0455232094
 31
0.0
 40
0.4892378494
 41
-1.2781973662
 42
-0.7772130249
  0
ELLIPSE
  5
49D
100
AcDbEntity
  8
C_CORPO
100
AcDbEllipse
 62
7
  6
CONTINUOUS
 10
3.5582426789
 20
21.4086509058
 30
0.0
 11
2.7499831596
 21
-0.0194567514
 31
0.0
 40
0.4946372042
 41
2.368420792
 42
2.6556495452
  0
ELLIPSE
  5
49E
100
AcDbEntity
  8
C_CORPO
100
AcDbEllipse
 62
7
  6
CONTINUOUS
 10
4.229994121
 20
21.3043341203
 30
0.0
 11
2.7583783481
 21
-0.0195161492
 31
0.0
 40
0.4946372042
 41
0.4161561927
 42
0.6784646295
  0
ELLIPSE
  5
49F
100
AcDbEntity
  8
C_CORPO
100
AcDbEllipse
 62
7
  6
CONTINUOUS
 10
11.336417272
 20
17.5195636093
 30
0.0
 11
2.7499831596
 21
-0.0194567514
 31
0.0
 40
0.4946372042
 41
2.368420792
 42
2.9601076467
  0
ELLIPSE
  5
4A0
100
AcDbEntity
  8
C_CORPO
100
AcDbEllipse
 62
7
  6
CONTINUOUS
 10
8.8284401396
 20
-15.3819691453
 30
0.0
 11
0.7161150534
 21
1.2164532487
 31
0.0
 40
0.559171377
 41
-2.4047356921
 42
-2.3180239248
  0
ELLIPSE
  5
4A1
100
AcDbEntity
  8
C_CORPO
100
AcDbEllipse
 62
7
  6
CONTINUOUS
 10
12.0081687141
 20
17.4152468237
 30
0.0
 11
2.7583783481
 21
-0.0195161492
 31
0.0
 40
0.4946372042
 41
0.8993310084
 42
2.3596941457
  0
ELLIPSE
  5
4A2
100
AcDbEntity
  8
C_CORPO
100
AcDbEllipse
 62
7
  6
CONTINUOUS
 10
12.0081687141
 20
17.4152468237
 30
0.0
 11
2.7583783481
 21
-0.0195161492
 31
0.0
 40
0.4946372042
 41
0.4161561927
 42
0.6784646295
  0
ELLIPSE
  5
4A3
100
AcDbEntity
  8
C_CORPO
100
AcDbEllipse
 62
7
  6
CONTINUOUS
 10
4.229994121
 20
21.3043341203
 30
0.0
 11
2.7583783481
 21
-0.0195161492
 31
0.0
 40
0.4946372042
 41
0.8993310084
 42
2.3596941457
  0
ELLIPSE
  5
4A4
100
AcDbEntity
  8
C_CORPO
100
AcDbEllipse
 62
7
  6
CONTINUOUS
 10
5.1183047545
 20
24.366510069
 30
0.0
 11
0.4410298232
 21
0.8975092442
 31
0.0
 40
0.607010042
 41
-0.8902711325
 42
-0.6612049761
  0
ELLIPSE
  5
4A5
100
AcDbEntity
  8
C_CORPO
100
AcDbEllipse
 62
7
  6
CONTINUOUS
 10
8.9765446922
 20
22.4373901002
 30
0.0
 11
0.79574694
 21
0.7129684349
 31
0.0
 40
0.2882345029
 41
0.1134874796
 42
0.7807533904
  0
ELLIPSE
  5
4A6
100
AcDbEntity
  8
C_CORPO
100
AcDbEllipse
 62
7
  6
CONTINUOUS
 10
12.8964793476
 20
20.4774227725
 30
0.0
 11
0.4410298232
 21
0.8975092442
 31
0.0
 40
0.607010042
 41
-0.8902711325
 42
-0.6612049761
  0
ELLIPSE
  5
4A7
100
AcDbEntity
  8
C_CORPO
100
AcDbEllipse
 62
7
  6
CONTINUOUS
 10
16.7547192852
 20
18.5483028036
 30
0.0
 11
0.79574694
 21
0.7129684349
 31
0.0
 40
0.2882345029
 41
0.1134874796
 42
0.7807533904
  0
ELLIPSE
  5
4A8
100
AcDbEntity
  8
C_CORPO
100
AcDbEllipse
 62
7
  6
CONTINUOUS
 10
-5.3318726761
 20
20.3755800214
 30
0.0
 11
1.2141619185
 21
0.9541526469
 31
0.0
 40
0.2329077568
 41
0.1095198182
 42
0.114024621
  0
ELLIPSE
  5
4A9
100
AcDbEntity
  8
C_CORPO
100
AcDbEllipse
 62
7
  6
CONTINUOUS
 10
3.5351041383
 20
22.5416725583
 30
0.0
 11
3.2468997206
 21
-0.0455232094
 31
0.0
 40
0.4892378494
 41
2.3616770883
 42
3.2093200201
  0
ELLIPSE
  5
4AA
100
AcDbEntity
  8
C_CORPO
100
AcDbEllipse
 62
7
  6
CONTINUOUS
 10
11.3132787314
 20
18.6525852618
 30
0.0
 11
3.2468997206
 21
-0.0455232094
 31
0.0
 40
0.4892378494
 41
2.3616770883
 42
5.5059722822
  0
ELLIPSE
  5
4AB
100
AcDbEntity
  8
C_CORPO
100
AcDbEllipse
 62
7
  6
CONTINUOUS
 10
12.9891830705
 20
20.431070911
 30
0.0
 11
-0.3106730325
 21
1.1082908718
 31
0.0
 40
0.6760995073
 41
5.075837262
 42
6.4001141399
  0
ELLIPSE
  5
4AC
100
AcDbEntity
  8
C_CORPO
100
AcDbEllipse
 62
7
  6
CONTINUOUS
 10
4.229994121
 20
21.7373468221
 30
0.0
 11
2.7583783481
 21
-0.0195161492
 31
0.0
 40
0.4946372042
 41
0.1584376854
 42
2.3596941457
  0
ELLIPSE
  5
4AD
100
AcDbEntity
  8
C_CORPO
100
AcDbEllipse
 62
7
  6
CONTINUOUS
 10
12.0081687141
 20
19.3867914185
 30
0.0
 11
2.7583515655
 21
-1.4175703156
 31
0.0
 40
0.0109499087
 41
-0.7017315251
 42
-0.6693376631
  0
ELLIPSE
  5
4AE
100
AcDbEntity
  8
C_CORPO
100
AcDbEllipse
 62
7
  6
CONTINUOUS
 10
4.229994121
 20
23.2758787151
 30
0.0
 11
2.7583515655
 21
-1.4175703156
 31
0.0
 40
0.0109499087
 41
-0.7017315251
 42
-0.6693376631
  0
ELLIPSE
  5
4AF
100
AcDbEntity
  8
C_CORPO
100
AcDbEllipse
 62
7
  6
CONTINUOUS
 10
12.0081687141
 20
17.8482595256
 30
0.0
 11
2.7583783481
 21
-0.0195161492
 31
0.0
 40
0.4946372042
 41
0.1584376854
 42
2.3596941457
  0
ELLIPSE
  5
4B0
100
AcDbEntity
  8
C_CORPO
100
AcDbEllipse
 62
7
  6
CONTINUOUS
 10
12.0081687141
 20
19.3867914185
 30
0.0
 11
2.7583515655
 21
-1.4175703156
 31
0.0
 40
0.0109499087
 41
-0.890204042
 42
-0.85781018
  0
ELLIPSE
  5
4B1
100
AcDbEntity
  8
C_CORPO
100
AcDbEllipse
 62
7
  6
CONTINUOUS
 10
4.229994121
 20
23.2758787151
 30
0.0
 11
2.7583515655
 21
-1.4175703156
 31
0.0
 40
0.0109499087
 41
-0.890204042
 42
-0.85781018
  0
ELLIPSE
  5
4B2
100
AcDbEntity
  8
C_CORPO
100
AcDbEllipse
 62
7
  6
CONTINUOUS
 10
5.2110084775
 20
24.3201582075
 30
0.0
 11
-0.3106730325
 21
1.1082908718
 31
0.0
 40
0.6760995073
 41
5.075837262
 42
6.4001141399
  0
ENDSEC
  0
SECTION
  2
OBJECTS
  0
DICTIONARY
  5
C
100
AcDbDictionary
280
0
281
1
  3
ACAD_GROUP
350
D
  3
ACAD_MLINESTYLE
350
17
  3
ACAD_LAYOUT
350
1A
  3
ACAD_PLOTSETTINGS
350
19
  3
ACAD_PLOTSTYLENAME
350
E
  0
DICTIONARY
  5
D
102
{ACAD_REACTORS
330
C
102
}
100
AcDbDictionary
280
0
281
1
  0
ACDBDICTIONARYWDFLT
  5
E
102
{ACAD_REACTORS
330
C
102
}
100
AcDbDictionary
281
1
  3
Normal
350
F
100
AcDbDictionaryWithDefault
340
F
  0
DICTIONARY
  5
17
102
{ACAD_REACTORS
330
C
102
}
100
AcDbDictionary
280
0
281
1
  3
Standard
350
18
  0
DICTIONARY
  5
19
102
{ACAD_REACTORS
330
C
102
}
100
AcDbDictionary
281
1
  0
DICTIONARY
  5
1A
102
{ACAD_REACTORS
330
C
102
}
100
AcDbDictionary
281
1
  3
Model
350
4B3
  3
Layout1
350
4B4
  0
ACDBPLACEHOLDER
  5
F
102
{ACAD_REACTORS
330
E
102
}
  0
MLINESTYLE
  5
18
102
{ACAD_REACTORS
330
17
102
}
100
AcDbMlineStyle
  2
STANDARD
 70
0
  3

 62
256
 51
90.0
 52
90.0
 71
2
 49
0.5
 62
256
  6
BYLAYER
 49
-0.5
 62
256
  6
BYLAYER
  0
LAYOUT
  5
4B3
102
{ACAD_REACTORS
330
1A
102
}
100
AcDbPlotSettings
  1

  2
none_device
  4
ISO_A4_(297.00_x_210.00_MM)
  6

 40
0.0
 41
0.0
 42
0.0
 43
0.0
 44
297.0
 45
210.0
 46
0.0
 47
0.0
 48
0.0
 49
0.0
140
0.0
141
0.0
142
1.0
143
1.0
 70
1024
 72
1
 73
0
 74
0
  7

 75
0
147
1.0
148
0.0
149
0.0
100
AcDbLayout
  1
Model
 70
0
 71
0
 10
0.0
 20
0.0
 11
297.0
 21
210.0
 12
0.0
 22
0.0
 32
0.0
 14
0.0
 24
0.0
 34
0.0
 15
0.0
 25
0.0
 35
0.0
146
0.0
 13
0.0
 23
0.0
 33
0.0
 16
1.0
 26
0.0
 36
0.0
 17
0.0
 27
1.0
 37
0.0
 76
0
330
21A
345
0
346
0
  0
LAYOUT
  5
4B4
102
{ACAD_REACTORS
330
1A
102
}
100
AcDbPlotSettings
  1

  2
none_device
  4
ISO_A4_(297.00_x_210.00_MM)
  6

 40
0.0
 41
0.0
 42
0.0
 43
0.0
 44
297.0
 45
210.0
 46
0.0
 47
0.0
 48
0.0
 49
0.0
140
0.0
141
0.0
142
1.0
143
1.0
 70
0
 72
1
 73
0
 74
0
  7

 75
0
147
1.0
148
0.0
149
0.0
100
AcDbLayout
  1
Layout1
 70
0
 71
1
 10
0.0
 20
0.0
 11
297.0
 21
210.0
 12
0.0
 22
0.0
 32
0.0
 14
0.0
 24
0.0
 34
0.0
 15
0.0
 25
0.0
 35
0.0
146
0.0
 13
0.0
 23
0.0
 33
0.0
 16
1.0
 26
0.0
 36
0.0
 17
0.0
 27
1.0
 37
0.0
 76
0
330
21B
345
0
346
0
  0
ENDSEC
  0
EOF
