  0
SECTION
  2
HEADER
  9
$ACADVER
  1
AC1015
  9
$DWGCODEPAGE
  3
ANSI_1252
  9
$EXTMAX
 10
297.0
 20
210.0
 30
0.0
  9
$EXTMIN
 10
0.0
 20
0.0
 30
0.0
  9
$LIMMIN
 10
0.0
 20
0.0
  9
$LIMMAX
 10
297.0
 20
210.0
  9
$VIEWCTR
 10
148.5
 20
105.0
  9
$VIEWSIZE
 40
210.0
  9
$CLAYER
  8
0
  9
$LTSCALE
 40
16.335
  9
$CELTYPE
  6
BYLAYER
  9
$DIMSCALE
 40
1.0
  9
$DIMASZ
 40
3.0
  9
$DIMEXO
 40
1.85625
  9
$DIMDLI
 40
11.286
  9
$DIMEXE
 40
5.346
  9
$DIMCEN
 40
2.673
  9
$DIMLFAC
 40
1.0
  9
$DIMBLK
  1
_FILLED
  9
$DIMTXT
 40
3.0
  9
$DIMTOL
 70
1
  9
$DIMLIM
 70
0
  9
$DIMTFAC
 40
1.0
  9
$DIMTP
 40
0.01
  9
$DIMTM
 40
0.01
  9
$PDMODE
 70
3
  9
$PDSIZE
 40
3.0
  9
$HANDSEED
  5
588
  9
$TILEMODE
 70
1
  9
$MEASUREMENT
 70
1
  9
$INSUNITS
 70
4
  0
ENDSEC
  0
SECTION
  2
CLASSES
  0
CLASS
  1
ACDBDICTIONARYWDFLT
  2
AcDbDictionaryWithDefault
  3
AutoCAD 2000
 90
0
280
0
281
0
  0
CLASS
  1
ACDBPLACEHOLDER
  2
AcDbPlaceHolder
  3
AutoCAD 2000
 90
0
280
0
281
0
  0
CLASS
  1
LAYOUT
  2
AcDbLayout
  3
AutoCAD 2000
 90
0
280
0
281
0
  0
ENDSEC
  0
SECTION
  2
TABLES
  0
TABLE
  2
VPORT
  5
8
100
AcDbSymbolTable
 70
2
  0
VPORT
  5
1F4
100
AcDbSymbolTableRecord
100
AcDbViewportTableRecord
  2
*ACTIVE
 70
0
 10
0.0
 20
0.0
 11
1.0
 21
1.0
 12
148.5
 22
105.0
 13
0.0
 23
0.0
 14
1.0
 24
1.0
 15
0.0
 25
0.0
 16
0.0
 26
0.0
 36
1.0
 17
0.0
 27
0.0
 37
0.0
 40
210.0
 41
1.4142857143
 42
50.0
 43
0.0
 44
0.0
 50
0.0
 51
0.0
 71
0
 72
100
 73
1
 74
1
 75
0
 76
0
 77
0
 78
0
  0
ENDTAB
  0
TABLE
  2
LTYPE
  5
5
100
AcDbSymbolTable
 70
6
  0
LTYPE
  5
14
100
AcDbSymbolTableRecord
100
AcDbLinetypeTableRecord
  2
BYBLOCK
 70
0
  3

 72
65
 73
0
 40
0.0
  0
LTYPE
  5
15
100
AcDbSymbolTableRecord
100
AcDbLinetypeTableRecord
  2
BYLAYER
 70
0
  3

 72
65
 73
0
 40
0.0
  0
LTYPE
  5
16
100
AcDbSymbolTableRecord
100
AcDbLinetypeTableRecord
  2
CONTINUOUS
 70
64
  3
Solid line
 72
65
 73
0
 40
0.0
  0
LTYPE
  5
1F5
100
AcDbSymbolTableRecord
100
AcDbLinetypeTableRecord
  2
CENTER
 70
64
  3
____ _ ____ _ ____ _ ____ _ ____ _ ____ _ ____
 72
65
 73
4
 40
0.6
 49
0.375
 74
0
 49
-0.075
 74
0
 49
0.075
 74
0
 49
-0.075
 74
0
  0
LTYPE
  5
1F6
100
AcDbSymbolTableRecord
100
AcDbLinetypeTableRecord
  2
HIDDEN
 70
64
  3
- - - - - - - - - - - - - - - - - - - -
 72
65
 73
2
 40
0.2
 49
0.1
 74
0
 49
-0.1
 74
0
  0
LTYPE
  5
1F7
100
AcDbSymbolTableRecord
100
AcDbLinetypeTableRecord
  2
PHANTOM
 70
64
  3
_____ _ _ _____ _ _ _____ _ _ _____
 72
65
 73
6
 40
0.8
 49
0.45
 74
0
 49
-0.05
 74
0
 49
0.1
 74
0
 49
-0.05
 74
0
 49
0.1
 74
0
 49
-0.05
 74
0
  0
LTYPE
  5
1F8
100
AcDbSymbolTableRecord
100
AcDbLinetypeTableRecord
  2
DOT
 70
64
  3
. . . . . . . . . . . . . . . . . . . .
 72
65
 73
2
 40
0.2
 49
0.1
 74
0
 49
-0.1
 74
0
  0
LTYPE
  5
1F9
100
AcDbSymbolTableRecord
100
AcDbLinetypeTableRecord
  2
DASHED
 70
64
  3
- - - - - - - - - - - - - - - - - - - -
 72
65
 73
2
 40
0.2
 49
0.1
 74
0
 49
-0.1
 74
0
  0
ENDTAB
  0
TABLE
  2
LAYER
  5
2
100
AcDbSymbolTable
 70
36
  0
LAYER
  5
10
100
AcDbSymbolTableRecord
100
AcDbLayerTableRecord
  2
0
 70
0
 62
7
  6
CONTINUOUS
370
-3
390
F
  0
LAYER
  5
1FA
100
AcDbSymbolTableRecord
100
AcDbLayerTableRecord
  2
DEFAULT_1
 70
0
 62
7
  6
CENTER
370
-3
390
F
  0
LAYER
  5
1FB
100
AcDbSymbolTableRecord
100
AcDbLayerTableRecord
  2
DEFAULT_2
 70
0
 62
7
  6
HIDDEN
370
-3
390
F
  0
LAYER
  5
1FC
100
AcDbSymbolTableRecord
100
AcDbLayerTableRecord
  2
DEFAULT_3
 70
0
 62
7
  6
PHANTOM
370
-3
390
F
  0
LAYER
  5
1FD
100
AcDbSymbolTableRecord
100
AcDbLayerTableRecord
  2
ASSI
 70
0
 62
7
  6
CONTINUOUS
370
-3
390
F
  0
LAYER
  5
1FE
100
AcDbSymbolTableRecord
100
AcDbLayerTableRecord
  2
COLOR1
 70
0
 62
7
  6
CONTINUOUS
370
-3
390
F
  0
LAYER
  5
1FF
100
AcDbSymbolTableRecord
100
AcDbLayerTableRecord
  2
COLORE_EIKON
 70
0
 62
7
  6
CONTINUOUS
370
-3
390
F
  0
LAYER
  5
200
100
AcDbSymbolTableRecord
100
AcDbLayerTableRecord
  2
COORDINATE
 70
0
 62
7
  6
CONTINUOUS
370
-3
390
F
  0
LAYER
  5
201
100
AcDbSymbolTableRecord
100
AcDbLayerTableRecord
  2
COORD_ORIGINE
 70
0
 62
7
  6
CONTINUOUS
370
-3
390
F
  0
LAYER
  5
202
100
AcDbSymbolTableRecord
100
AcDbLayerTableRecord
  2
COPY_PUBLISH
 70
0
 62
7
  6
CONTINUOUS
370
-3
390
F
  0
LAYER
  5
203
100
AcDbSymbolTableRecord
100
AcDbLayerTableRecord
  2
COSMETICHE
 70
0
 62
7
  6
CONTINUOUS
370
-3
390
F
  0
LAYER
  5
204
100
AcDbSymbolTableRecord
100
AcDbLayerTableRecord
  2
COSMETICI
 70
0
 62
7
  6
CONTINUOUS
370
-3
390
F
  0
LAYER
  5
205
100
AcDbSymbolTableRecord
100
AcDbLayerTableRecord
  2
CURVE
 70
0
 62
7
  6
CONTINUOUS
370
-3
390
F
  0
LAYER
  5
206
100
AcDbSymbolTableRecord
100
AcDbLayerTableRecord
  2
DRAFT
 70
0
 62
7
  6
CONTINUOUS
370
-3
390
F
  0
LAYER
  5
207
100
AcDbSymbolTableRecord
100
AcDbLayerTableRecord
  2
IMPORT
 70
0
 62
7
  6
CONTINUOUS
370
-3
390
F
  0
LAYER
  5
208
100
AcDbSymbolTableRecord
100
AcDbLayerTableRecord
  2
IMPORT_IGES
 70
0
 62
7
  6
CONTINUOUS
370
-3
390
F
  0
LAYER
  5
209
100
AcDbSymbolTableRecord
100
AcDbLayerTableRecord
  2
INTF_1
 70
0
 62
7
  6
CONTINUOUS
370
-3
390
F
  0
LAYER
  5
20A
100
AcDbSymbolTableRecord
100
AcDbLayerTableRecord
  2
INTF_2
 70
0
 62
7
  6
CONTINUOUS
370
-3
390
F
  0
LAYER
  5
20B
100
AcDbSymbolTableRecord
100
AcDbLayerTableRecord
  2
NOTE
 70
0
 62
7
  6
CONTINUOUS
370
-3
390
F
  0
LAYER
  5
20C
100
AcDbSymbolTableRecord
100
AcDbLayerTableRecord
  2
PIANI
 70
0
 62
7
  6
CONTINUOUS
370
-3
390
F
  0
LAYER
  5
20D
100
AcDbSymbolTableRecord
100
AcDbLayerTableRecord
  2
PIANI_DI_RIFERIMENTO
 70
0
 62
7
  6
CONTINUOUS
370
-3
390
F
  0
LAYER
  5
20E
100
AcDbSymbolTableRecord
100
AcDbLayerTableRecord
  2
PIANI_ORIGINE
 70
0
 62
7
  6
CONTINUOUS
370
-3
390
F
  0
LAYER
  5
20F
100
AcDbSymbolTableRecord
100
AcDbLayerTableRecord
  2
PIANI_RIFERIMENTO
 70
0
 62
7
  6
CONTINUOUS
370
-3
390
F
  0
LAYER
  5
210
100
AcDbSymbolTableRecord
100
AcDbLayerTableRecord
  2
PUNTI
 70
0
 62
7
  6
CONTINUOUS
370
-3
390
F
  0
LAYER
  5
211
100
AcDbSymbolTableRecord
100
AcDbLayerTableRecord
  2
RACCORDO
 70
0
 62
7
  6
CONTINUOUS
370
-3
390
F
  0
LAYER
  5
212
100
AcDbSymbolTableRecord
100
AcDbLayerTableRecord
  2
RGB__255__255__255__
 70
0
 62
7
  6
CONTINUOUS
370
-3
390
F
  0
LAYER
  5
213
100
AcDbSymbolTableRecord
100
AcDbLayerTableRecord
  2
RGB____0____0____0__
 70
0
 62
7
  6
CONTINUOUS
370
-3
390
F
  0
LAYER
  5
214
100
AcDbSymbolTableRecord
100
AcDbLayerTableRecord
  2
SCRITTE
 70
0
 62
7
  6
CONTINUOUS
370
-3
390
F
  0
LAYER
  5
215
100
AcDbSymbolTableRecord
100
AcDbLayerTableRecord
  2
SIMBOLI
 70
0
 62
7
  6
CONTINUOUS
370
-3
390
F
  0
LAYER
  5
216
100
AcDbSymbolTableRecord
100
AcDbLayerTableRecord
  2
SMUSSO
 70
0
 62
7
  6
CONTINUOUS
370
-3
390
F
  0
LAYER
  5
217
100
AcDbSymbolTableRecord
100
AcDbLayerTableRecord
  2
SNAPLINE
 70
0
 62
7
  6
CONTINUOUS
370
-3
390
F
  0
LAYER
  5
218
100
AcDbSymbolTableRecord
100
AcDbLayerTableRecord
  2
SUPERFICI
 70
0
 62
7
  6
CONTINUOUS
370
-3
390
F
  0
LAYER
  5
219
100
AcDbSymbolTableRecord
100
AcDbLayerTableRecord
  2
TRASH
 70
0
 62
7
  6
CONTINUOUS
370
-3
390
F
  0
LAYER
  5
21A
100
AcDbSymbolTableRecord
100
AcDbLayerTableRecord
  2
XSEC_DATUMS
 70
0
 62
7
  6
CONTINUOUS
370
-3
390
F
  0
ENDTAB
  0
TABLE
  2
STYLE
  5
3
100
AcDbSymbolTable
 70
1
  0
STYLE
  5
11
100
AcDbSymbolTableRecord
100
AcDbTextStyleTableRecord
  2
STANDARD
 70
0
 40
0.0
 41
0.8
 50
0.0
 71
0
 42
0.2
  3
txt
  4

  0
STYLE
  5
21B
100
AcDbSymbolTableRecord
100
AcDbTextStyleTableRecord
  2
TEXTSTYLE_1
 70
0
 40
0.0
 41
0.8
 50
0.0
 71
0
 42
0.2
  3
gdt
  4

  0
ENDTAB
  0
TABLE
  2
VIEW
  5
6
100
AcDbSymbolTable
 70
0
  0
ENDTAB
  0
TABLE
  2
UCS
  5
7
100
AcDbSymbolTable
 70
0
  0
ENDTAB
  0
TABLE
  2
APPID
  5
9
100
AcDbSymbolTable
 70
1
  0
APPID
  5
21C
100
AcDbSymbolTableRecord
100
AcDbRegAppTableRecord
  2
ACAD
 70
0
  0
ENDTAB
  0
TABLE
  2
BLOCK_RECORD
  5
1
100
AcDbSymbolTable
 70
0
  0
BLOCK_RECORD
  5
21D
100
AcDbSymbolTableRecord
100
AcDbBlockTableRecord
  2
*Model_Space
  0
BLOCK_RECORD
  5
21E
100
AcDbSymbolTableRecord
100
AcDbBlockTableRecord
  2
*Paper_Space
  0
ENDTAB
  0
TABLE
  2
DIMSTYLE
  5
A
100
AcDbSymbolTable
 70
1
100
AcDbDimStyleTable
 71
0
  0
DIMSTYLE
105
21F
100
AcDbSymbolTableRecord
100
AcDbDimStyleTableRecord
  2
STANDARD
 70
0
  3

  4

 40
1.0
 41
3.0
 42
0.0625
 43
0.38
 44
0.18
 45
0.0
 46
0.0
 47
0.01
 48
0.01
140
3.0
141
0.09
142
0.0
143
25.4
144
1.0
145
0.0
146
1.0
147
0.09
 71
1.0
 72
0.0
 73
0
 74
0
 75
0
 76
0
 77
1
 78
8
170
0
171
2
172
0
173
0
174
0
175
0
176
0
177
0
178
0
270
2
271
2
272
2
273
2
274
2
275
0
280
0
281
0
282
0
283
1
284
8
285
0
286
0
287
3
288
0
340
11
  0
ENDTAB
  0
ENDSEC
  0
SECTION
  2
BLOCKS
  0
BLOCK
  5
20
100
AcDbEntity
  8
0
100
AcDbBlockBegin
  2
*Model_Space
 70
0
 10
0.0
 20
0.0
 30
0.0
  3
*Model_Space
  1

  0
ENDBLK
  5
21
100
AcDbEntity
  8
0
100
AcDbBlockEnd
  0
BLOCK
  5
1C
100
AcDbEntity
  8
0
100
AcDbBlockBegin
  2
*Paper_Space
 70
0
 10
0.0
 20
0.0
 30
0.0
  3
*Paper_Space
  1

  0
ENDBLK
  5
1D
100
AcDbEntity
  8
0
100
AcDbBlockEnd
  0
ENDSEC
  0
SECTION
  2
ENTITIES
  0
LINE
  5
220
100
AcDbEntity
  8
RACCORDO
100
AcDbLine
 62
7
  6
CONTINUOUS
 10
51.6959539344
 20
177.4821867117
 11
53.28029449
 21
178.4162242566
  0
LINE
  5
221
100
AcDbEntity
  8
RACCORDO
100
AcDbLine
 62
253
  6
CONTINUOUS
 10
51.8219926066
 20
177.4704067187
 11
53.4055731326
 21
178.4039961932
  0
LINE
  5
222
100
AcDbEntity
  8
RACCORDO
100
AcDbLine
 62
7
  6
CONTINUOUS
 10
53.2803011923
 20
178.4162188877
 11
53.2816100063
 21
178.4169745804
  0
LINE
  5
223
100
AcDbEntity
  8
RACCORDO
100
AcDbLine
 62
7
  6
CONTINUOUS
 10
53.2816100063
 20
178.4169745804
 11
53.8156473623
 21
178.718896953
  0
LINE
  5
224
100
AcDbEntity
  8
RACCORDO
100
AcDbLine
 62
253
  6
CONTINUOUS
 10
53.4055731326
 20
178.4039961932
 11
53.9396104885
 21
178.7059185658
  0
LWPOLYLINE
  5
225
100
AcDbEntity
  8
RACCORDO
100
AcDbPolyline
 62
253
  6
CONTINUOUS
 90
12
 70
0
 10
53.0772341152
 20
176.6450049671
 10
53.0608330151
 20
176.6257983101
 10
53.0453996919
 20
176.6052304607
 10
53.0311021115
 20
176.5835252665
 10
53.0180958796
 20
176.5609189542
 10
53.0065225515
 20
176.5376575662
 10
52.9965080844
 20
176.513994273
 10
52.9881614627
 20
176.4901866033
 10
52.9815735193
 20
176.4664936508
 10
52.9768159526
 20
176.4431732692
 10
52.9739405422
 20
176.4204792665
 10
52.9729785822
 20
176.3986586293
  0
LWPOLYLINE
  5
226
100
AcDbEntity
  8
RACCORDO
100
AcDbPolyline
 62
7
  6
CONTINUOUS
 90
19
 70
0
 10
47.6985621883
 20
173.23458831
 10
47.6654420126
 20
173.2121191474
 10
47.5784391945
 20
173.1469600071
 10
47.4949995569
 20
173.0756129834
 10
47.4152795743
 20
172.9985817448
 10
47.3393773477
 20
172.9163039032
 10
47.2675118856
 20
172.8292497192
 10
47.1998816108
 20
172.7378701527
 10
47.1367193696
 20
172.6426037363
 10
47.0783824846
 20
172.5440456878
 10
47.0250984023
 20
172.4426495625
 10
46.9771345365
 20
172.338846748
 10
46.9348197821
 20
172.233247899
 10
46.8984002304
 20
172.1262788182
 10
46.8681682991
 20
172.0183552656
 10
46.844415405
 20
171.9099227176
 10
46.8274612299
 20
171.801294756
 10
46.8176655435
 20
171.6928544006
 10
46.8161219523
 20
171.6587790147
  0
LINE
  5
227
100
AcDbEntity
  8
RACCORDO
100
AcDbLine
 62
7
  6
CONTINUOUS
 10
47.6983713441
 20
173.2344712613
 11
52.2763225479
 21
176.2535870261
  0
LINE
  5
228
100
AcDbEntity
  8
RACCORDO
100
AcDbLine
 62
253
  6
CONTINUOUS
 10
52.276899373
 20
176.0642199339
 11
47.9551407652
 21
173.2140607767
  0
LWPOLYLINE
  5
229
100
AcDbEntity
  8
RACCORDO
100
AcDbPolyline
 62
253
  6
CONTINUOUS
 90
9
 70
0
 10
55.454329144
 20
177.6272242269
 10
55.4717646064
 20
177.6385252178
 10
55.4870516583
 20
177.650815256
 10
55.5000238396
 20
177.6639586643
 10
55.5105346165
 20
177.6778018554
 10
55.5184791407
 20
177.6922004289
 10
55.5237793951
 20
177.7070238101
 10
55.5263668314
 20
177.7221446839
 10
55.5266292445
 20
177.7286852225
  0
LWPOLYLINE
  5
22A
100
AcDbEntity
  8
RACCORDO
100
AcDbPolyline
 62
253
  6
CONTINUOUS
 90
9
 70
0
 10
55.454329144
 20
177.2992220068
 10
55.4717193263
 20
177.3104903623
 10
55.4869733811
 20
177.322742629
 10
55.4999261452
 20
177.3358442831
 10
55.5104359492
 20
177.3496488961
 10
55.5183926052
 20
177.3640078811
 10
55.5237134675
 20
177.3787731022
 10
55.5263383302
 20
177.3937928669
 10
55.5266292754
 20
177.4007588408
  0
LWPOLYLINE
  5
22B
100
AcDbEntity
  8
RACCORDO
100
AcDbPolyline
 62
253
  6
CONTINUOUS
 90
5
 70
0
 10
53.1488296811
 20
176.7043076211
 10
53.1304181364
 20
176.6924549541
 10
53.1122170423
 20
176.6785156428
 10
53.094424488
 20
176.6626413929
 10
53.0772341152
 20
176.6450049671
  0
LINE
  5
22C
100
AcDbEntity
  8
RACCORDO
100
AcDbLine
 62
253
  6
CONTINUOUS
 10
55.2775548719
 20
177.9334062473
 11
53.1488296811
 21
176.7043076211
  0
LINE
  5
22D
100
AcDbEntity
  8
RACCORDO
100
AcDbLine
 62
253
  6
CONTINUOUS
 10
55.454329144
 20
177.6272242269
 11
53.3256039532
 21
176.3981256007
  0
LWPOLYLINE
  5
22E
100
AcDbEntity
  8
RACCORDO
100
AcDbPolyline
 62
253
  6
CONTINUOUS
 90
9
 70
0
 10
47.6985582321
 20
173.2345943183
 10
47.719347241
 20
173.2460883512
 10
47.7473781612
 20
173.2559315545
 10
47.7778852213
 20
173.2609720712
 10
47.8105345679
 20
173.2611547403
 10
47.8449689029
 20
173.2564775627
 10
47.8808113948
 20
173.2469917228
 10
47.917669802
 20
173.232801029
 10
47.9551407652
 20
173.2140607767
  0
LWPOLYLINE
  5
22F
100
AcDbEntity
  8
RACCORDO
100
AcDbPolyline
 62
253
  6
CONTINUOUS
 90
9
 70
0
 10
51.6959641891
 20
177.4821927563
 10
51.7039683916
 20
177.4863448187
 10
51.7185295153
 20
177.4914106304
 10
51.7341816096
 20
177.4939742563
 10
51.7507552085
 20
177.4940382909
 10
51.7680248231
 20
177.491634067
 10
51.7857802687
 20
177.4868308457
 10
51.8038348614
 20
177.4797175868
 10
51.8219926066
 20
177.4704067187
  0
LWPOLYLINE
  5
230
100
AcDbEntity
  8
RACCORDO
100
AcDbPolyline
 62
253
  6
CONTINUOUS
 90
16
 70
0
 10
53.3256039532
 20
176.3981256007
 10
53.3060313246
 20
176.3880585836
 10
53.284745726
 20
176.3792320315
 10
53.2619821416
 20
176.3717420565
 10
53.2380065749
 20
176.3656732653
 10
53.2130691189
 20
176.3610861963
 10
53.1873959224
 20
176.3580258958
 10
53.1612074879
 20
176.3565319427
 10
53.134849921
 20
176.3566371952
 10
53.1087437628
 20
176.358335924
 10
53.083199131
 20
176.3615897409
 10
53.0584640873
 20
176.3663485858
 10
53.0348450738
 20
176.3725321173
 10
53.0125929325
 20
176.3800457123
 10
52.9919066121
 20
176.3887918172
 10
52.9729785822
 20
176.3986586293
  0
LWPOLYLINE
  5
231
100
AcDbEntity
  8
RACCORDO
100
AcDbPolyline
 62
253
  6
CONTINUOUS
 90
16
 70
0
 10
53.3256039532
 20
176.0765359817
 10
53.3060879145
 20
176.06649514
 10
53.284867788
 20
176.057687654
 10
53.2621765541
 20
176.0502088905
 10
53.2382678089
 20
176.0441406512
 10
53.2133988956
 20
176.0395465633
 10
53.1878263863
 20
176.0364743514
 10
53.1618129981
 20
176.0349587808
 10
53.1356582854
 20
176.0350204575
 10
53.1096802241
 20
176.0366574414
 10
53.0841641911
 20
176.0398474237
 10
53.0593845769
 20
176.0445517039
 10
53.0356311498
 20
176.0507086135
 10
53.0131624615
 20
176.0582409358
 10
52.9922060005
 20
176.0670616696
 10
52.9729785822
 20
176.0770690065
  0
LWPOLYLINE
  5
232
100
AcDbEntity
  8
RACCORDO
100
AcDbPolyline
 62
253
  6
CONTINUOUS
 90
9
 70
0
 10
53.9396104885
 20
178.7059185658
 10
53.9580220375
 20
178.7153270911
 10
53.9762231355
 20
178.7224059478
 10
53.994015693
 20
178.7270780932
 10
54.0112060701
 20
178.7292926777
 10
54.0276071735
 20
178.7290255973
 10
54.0430404946
 20
178.7262797599
 10
54.0573380642
 20
178.7210850548
 10
54.0636909322
 20
178.7177722305
  0
LWPOLYLINE
  5
233
100
AcDbEntity
  8
RACCORDO
100
AcDbPolyline
 62
7
  6
CONTINUOUS
 90
7
 70
0
 10
53.2816100063
 20
178.4169745804
 10
53.2983335547
 20
178.4241631412
 10
53.3175261715
 20
178.4278765558
 10
53.3382094072
 20
178.4276799025
 10
53.360029378
 20
178.423576546
 10
53.3826127512
 20
178.4156366935
 10
53.4055731326
 20
178.4039961932
  0
LWPOLYLINE
  5
234
100
AcDbEntity
  8
RACCORDO
100
AcDbPolyline
 62
7
  6
CONTINUOUS
 90
3
 70
0
 10
53.8620147619
 20
178.7392224933
 10
53.8373832934
 20
178.7298256752
 10
53.8155851347
 20
178.7188617369
  0
LWPOLYLINE
  5
235
100
AcDbEntity
  8
RACCORDO
100
AcDbPolyline
 62
253
  6
CONTINUOUS
 90
8
 70
0
 10
53.8225624301
 20
178.722371145
 10
53.8368795722
 20
178.7273452268
 10
53.8524729721
 20
178.7298749625
 10
53.868960383
 20
178.7298892313
 10
53.8861177788
 20
178.7274202119
 10
53.9037367028
 20
178.7225381642
 10
53.9216322556
 20
178.7153330789
 10
53.9396104885
 20
178.7059185658
  0
LINE
  5
236
100
AcDbEntity
  8
RACCORDO
100
AcDbLine
 62
253
  6
CONTINUOUS
 10
55.4721062846
 20
177.2449066538
 11
55.4720665134
 21
177.2448565087
  0
LINE
  5
237
100
AcDbEntity
  8
RACCORDO
100
AcDbLine
 62
253
  6
CONTINUOUS
 10
54.9258551354
 20
176.6367164856
 11
55.454329144
 21
177.2992220068
  0
LINE
  5
238
100
AcDbEntity
  8
RACCORDO
100
AcDbLine
 62
7
  6
CONTINUOUS
 10
54.9435925025
 20
176.5823509846
 11
55.4720665111
 21
177.2448565058
  0
LINE
  5
239
100
AcDbEntity
  8
RACCORDO
100
AcDbLine
 62
7
  6
CONTINUOUS
 10
54.9258551354
 20
176.560459832
 11
54.9435147004
 21
176.5822613653
  0
LWPOLYLINE
  5
23A
100
AcDbEntity
  8
RACCORDO
100
AcDbPolyline
 62
7
  6
CONTINUOUS
 90
13
 70
0
 10
54.0364131707
 20
176.0112835007
 10
54.0186059833
 20
175.9905740653
 10
53.9991363143
 20
175.9710227778
 10
53.9781426935
 20
175.9527417823
 10
53.9558051268
 20
175.9357269776
 10
53.9322937018
 20
175.9201856514
 10
53.9077615587
 20
175.9065449467
 10
53.8824415301
 20
175.8948864888
 10
53.8565806524
 20
175.8852923517
 10
53.8303821305
 20
175.8781936443
 10
53.8041301585
 20
175.8736504845
 10
53.7781579963
 20
175.8717012802
 10
53.754328953
 20
175.8725765355
  0
LINE
  5
23B
100
AcDbEntity
  8
RACCORDO
100
AcDbLine
 62
7
  6
CONTINUOUS
 10
54.9258551354
 20
175.7707933233
 11
54.0364131707
 21
175.2090478741
  0
LINE
  5
23C
100
AcDbEntity
  8
RACCORDO
100
AcDbLine
 62
7
  6
CONTINUOUS
 10
57.2946748537
 20
175.1739097224
 11
57.6482162429
 21
175.3828180403
  0
LINE
  5
23D
100
AcDbEntity
  8
RACCORDO
100
AcDbLine
 62
7
  6
CONTINUOUS
 10
56.2985425313
 20
175.7876447832
 11
62.8998471998
 21
179.5991846301
  0
LINE
  5
23E
100
AcDbEntity
  8
RACCORDO
100
AcDbLine
 62
7
  6
CONTINUOUS
 10
63.6388461151
 20
178.0708705932
 11
58.9917191272
 21
175.4188954146
  0
LINE
  5
23F
100
AcDbEntity
  8
RACCORDO
100
AcDbLine
 62
7
  6
CONTINUOUS
 10
57.6482162429
 20
175.3828180403
 11
63.0353708401
 21
178.4213308828
  0
LINE
  5
240
100
AcDbEntity
  8
0
100
AcDbLine
 62
7
  6
CONTINUOUS
 10
63.1159902289
 20
179.4743693228
 11
63.9191860901
 21
179.9153946797
  0
LINE
  5
241
100
AcDbEntity
  8
0
100
AcDbLine
 62
253
  6
CONTINUOUS
 10
63.403734506
 20
179.3082293835
 11
64.4128318051
 21
179.8623127871
  0
LWPOLYLINE
  5
242
100
AcDbEntity
  8
0
100
AcDbPolyline
 62
7
  6
CONTINUOUS
 90
37
 70
0
 10
63.9191860901
 20
179.9153946797
 10
63.9448698282
 20
179.9290152156
 10
63.9708771943
 20
179.9418541683
 10
63.9971777418
 20
179.9539034226
 10
64.0237585434
 20
179.9651635644
 10
64.0505722234
 20
179.9756214983
 10
64.0775334832
 20
179.9852549205
 10
64.1045209572
 20
179.9940386831
 10
64.1315882734
 20
180.0020088028
 10
64.1589167193
 20
180.0092237964
 10
64.1865325318
 20
180.0156842268
 10
64.2143582021
 20
180.0213660674
 10
64.2424261105
 20
180.0262702011
 10
64.2707437048
 20
180.0303885707
 10
64.2992501311
 20
180.0337034228
 10
64.3278744694
 20
180.0362014168
 10
64.3565580392
 20
180.037875966
 10
64.3853010082
 20
180.0387261126
 10
64.4141195858
 20
180.0387486163
 10
64.4429886858
 20
180.0379380577
 10
64.4718736946
 20
180.0362904967
 10
64.5007759627
 20
180.0338002537
 10
64.5296908213
 20
180.0304600793
 10
64.5585607541
 20
180.0262694512
 10
64.5873078965
 20
180.0212362569
 10
64.6158348256
 20
180.015379801
 10
64.6441789789
 20
180.0086951955
 10
64.672462356
 20
180.0011468614
 10
64.7007499817
 20
179.9926992337
 10
64.7289060459
 20
179.9833750331
 10
64.756752349
 20
179.973227873
 10
64.7841689332
 20
179.9623084954
 10
64.8112201709
 20
179.9505989246
 10
64.8380052196
 20
179.9380530246
 10
64.8645388781
 20
179.9246516547
 10
64.8907379402
 20
179.9104251197
 10
64.9005091991
 20
179.9048564368
  0
LWPOLYLINE
  5
243
100
AcDbEntity
  8
0
100
AcDbPolyline
 62
253
  6
CONTINUOUS
 90
27
 70
0
 10
63.9278476215
 20
179.9199880415
 10
63.9431003808
 20
179.9273287025
 10
63.9587833722
 20
179.9339387231
 10
63.9748399724
 20
179.9397916454
 10
63.9912566002
 20
179.9448825187
 10
64.0080193701
 20
179.9492070372
 10
64.0251141035
 20
179.952761543
 10
64.0425263413
 20
179.9555430296
 10
64.0602413557
 20
179.9575491443
 10
64.0782441628
 20
179.9587781903
 10
64.0965195355
 20
179.9592291281
 10
64.1150520158
 20
179.9589015762
 10
64.1338259285
 20
179.9577958117
 10
64.1528253941
 20
179.9559127699
 10
64.1720343422
 20
179.9532540434
 10
64.1914365255
 20
179.9498218813
 10
64.2110155329
 20
179.9456191863
 10
64.2307548042
 20
179.9406495134
 10
64.2506376431
 20
179.9349170659
 10
64.2706472322
 20
179.9284266927
 10
64.290766647
 20
179.9211838833
 10
64.3109788697
 20
179.913194764
 10
64.3312668044
 20
179.9044660922
 10
64.351613291
 20
179.8950052508
 10
64.3720011197
 20
179.8848202421
 10
64.3924130461
 20
179.8739196809
 10
64.4128318051
 20
179.8623127871
  0
LWPOLYLINE
  5
244
100
AcDbEntity
  8
RACCORDO
100
AcDbPolyline
 62
7
  6
CONTINUOUS
 90
14
 70
0
 10
46.8161531705
 20
138.1623076999
 10
46.8222413518
 20
138.073442278
 10
46.8344734113
 20
137.984686274
 10
46.8523949263
 20
137.9004705177
 10
46.8756351002
 20
137.8210473821
 10
46.9038960317
 20
137.7462882135
 10
46.9370500713
 20
137.6758899004
 10
46.9748144771
 20
137.6100564759
 10
47.0168851374
 20
137.5489295944
 10
47.0631944617
 20
137.4923547848
 10
47.1134111426
 20
137.4405923546
 10
47.1671906134
 20
137.3938578275
 10
47.2244908135
 20
137.3520999158
 10
47.2691051354
 20
137.324442364
  0
LWPOLYLINE
  5
245
100
AcDbEntity
  8
RACCORDO
100
AcDbPolyline
 62
7
  6
CONTINUOUS
 90
10
 70
0
 10
46.8161187349
 20
171.6590036134
 10
46.7018580959
 20
167.9168272248
 10
46.6145731401
 20
164.1292634196
 10
46.5563845443
 20
160.3582633222
 10
46.5273001394
 20
156.6041851652
 10
46.5273217844
 20
152.867324613
 10
46.556450214
 20
149.1479538305
 10
46.6146850027
 20
145.4463673787
 10
46.7020197559
 20
141.7629152998
 10
46.8161442095
 20
138.1623474442
  0
LWPOLYLINE
  5
246
100
AcDbEntity
  8
RACCORDO
100
AcDbPolyline
 62
253
  6
CONTINUOUS
 90
22
 70
0
 10
46.9625704233
 20
171.4546839505
 10
46.9681841286
 20
171.5439077006
 10
46.9789544456
 20
171.6354978972
 10
46.994826499
 20
171.7290013149
 10
47.0157172273
 20
171.823951618
 10
47.0415233143
 20
171.9198834383
 10
47.0721241993
 20
172.0163350611
 10
47.1073726306
 20
172.1128448568
 10
47.1470900933
 20
172.2089219292
 10
47.1910727556
 20
172.3040611822
 10
47.2390858433
 20
172.3977731159
 10
47.2908971836
 20
172.4896185612
 10
47.3462777325
 20
172.5791772233
 10
47.404966535
 20
172.6660273482
 10
47.4666595258
 20
172.7497170987
 10
47.5310397255
 20
172.8298013632
 10
47.5977722062
 20
172.9058748689
 10
47.6665332499
 20
172.9775783215
 10
47.7370036222
 20
173.0445661601
 10
47.8088395916
 20
173.1065095186
 10
47.8816734684
 20
173.1631007649
 10
47.9551407652
 20
173.2140607767
  0
LWPOLYLINE
  5
247
100
AcDbEntity
  8
RACCORDO
100
AcDbPolyline
 62
253
  6
CONTINUOUS
 90
13
 70
0
 10
53.3256039532
 20
176.0765359817
 10
53.315346301
 20
176.0532995965
 10
53.3032751745
 20
176.0314486735
 10
53.2895241768
 20
176.0112217384
 10
53.2742483616
 20
175.9928427265
 10
53.2576134397
 20
175.9765072874
 10
53.2397913545
 20
175.962384905
 10
53.2209643236
 20
175.9506263053
 10
53.2013485929
 20
175.9413725528
 10
53.1811841108
 20
175.9347346347
 10
53.1606951475
 20
175.9307786403
 10
53.1401045503
 20
175.9295399957
 10
53.1269754534
 20
175.9301776696
  0
LWPOLYLINE
  5
248
100
AcDbEntity
  8
0
100
AcDbPolyline
 62
7
  6
CONTINUOUS
 90
8
 70
0
 10
62.2681944971
 20
175.408366672
 10
62.2611094123
 20
175.4037756378
 10
62.2542124502
 20
175.3988808192
 10
62.2475196152
 20
175.3936915192
 10
62.2410500061
 20
175.3882213538
 10
62.2348143848
 20
175.3824787474
 10
62.2288163997
 20
175.3764652272
 10
62.2234154438
 20
175.3705846171
  0
LINE
  5
249
100
AcDbEntity
  8
0
100
AcDbLine
 62
7
  6
CONTINUOUS
 10
62.2681944971
 20
175.408366672
 11
62.6372865133
 21
175.6366187113
  0
LWPOLYLINE
  5
24A
100
AcDbEntity
  8
0
100
AcDbPolyline
 62
7
  6
CONTINUOUS
 90
3
 70
0
 10
62.6372898058
 20
175.6366207474
 10
62.6405172747
 20
175.6384884796
 10
62.6446530405
 20
175.6405332645
  0
LINE
  5
24B
100
AcDbEntity
  8
ASSI
100
AcDbLine
 62
7
  6
CONTINUOUS
 10
65.0564083895
 20
176.9657529521
 11
63.5638895375
 21
176.1039912726
  0
LINE
  5
24C
100
AcDbEntity
  8
RACCORDO
100
AcDbLine
 62
7
  6
CONTINUOUS
 10
62.5979637112
 20
176.2785001325
 11
63.6388461151
 21
176.8690040375
  0
LINE
  5
24D
100
AcDbEntity
  8
RACCORDO
100
AcDbLine
 62
7
  6
CONTINUOUS
 10
63.5638895375
 20
176.4217683768
 11
65.7154041409
 21
177.6423460042
  0
LWPOLYLINE
  5
24E
100
AcDbEntity
  8
0
100
AcDbPolyline
 62
253
  6
CONTINUOUS
 90
52
 70
0
 10
62.7399720205
 20
175.6276096077
 10
62.7580782915
 20
175.6352388398
 10
62.7765363643
 20
175.6425581404
 10
62.7953462389
 20
175.6495675094
 10
62.8145234042
 20
175.6562719761
 10
62.8340523713
 20
175.6626665113
 10
62.8538866734
 20
175.6687360274
 10
62.8740272344
 20
175.674479833
 10
62.8944731305
 20
175.6798986195
 10
62.915175124
 20
175.6849793742
 10
62.9361338612
 20
175.6897212948
 10
62.9573486958
 20
175.6941251837
 10
62.9787684512
 20
175.6981804346
 10
63.0003936224
 20
175.7018862089
 10
63.0222237144
 20
175.7052433453
 10
63.0442060658
 20
175.7082437538
 10
63.0663410678
 20
175.7108865763
 10
63.0886283292
 20
175.713172671
 10
63.1110140153
 20
175.7150965221
 10
63.1334983631
 20
175.7166572528
 10
63.1560811355
 20
175.7178557401
 10
63.1787077869
 20
175.7186890986
 10
63.2013784146
 20
175.7191564454
 10
63.2240929214
 20
175.7192586635
 10
63.2467964704
 20
175.7189955171
 10
63.2694890292
 20
175.7183661243
 10
63.2921706303
 20
175.7173713671
 10
63.3147865337
 20
175.7160136556
 10
63.337336581
 20
175.7142921141
 10
63.3598209307
 20
175.7122076185
 10
63.382185318
 20
175.7097652067
 10
63.4044294568
 20
175.7069640142
 10
63.4265536331
 20
175.7038049056
 10
63.4485044401
 20
175.7002955128
 10
63.4702814809
 20
175.6964349837
 10
63.4918851523
 20
175.6922241705
 10
63.5132632384
 20
175.6876732622
 10
63.5344151106
 20
175.6827814601
 10
63.5553413974
 20
175.6775495628
 10
63.5759917687
 20
175.6719901557
 10
63.5963663146
 20
175.6661021548
 10
63.616464945
 20
175.6598866441
 10
63.6362370595
 20
175.6533594615
 10
63.6556646524
 20
175.6465280133
 10
63.6747657292
 20
175.6393848932
 10
63.6935437065
 20
175.6319237197
 10
63.712016921
 20
175.6241385875
 10
63.7301670359
 20
175.6160354018
 10
63.7479424572
 20
175.6076254968
 10
63.7653259867
 20
175.5989126507
 10
63.7823348227
 20
175.5898930853
 10
63.798968965
 20
175.5805668007
  0
LWPOLYLINE
  5
24F
100
AcDbEntity
  8
0
100
AcDbPolyline
 62
7
  6
CONTINUOUS
 90
20
 70
0
 10
62.6446530405
 20
175.6405332645
 10
62.649235105
 20
175.6423890916
 10
62.6538410403
 20
175.6438653966
 10
62.6585982874
 20
175.6450201153
 10
62.6634899821
 20
175.645851753
 10
62.6685106815
 20
175.6463605851
 10
62.6736461925
 20
175.6465472631
 10
62.6788629988
 20
175.6464197023
 10
62.6841574833
 20
175.6459836059
 10
62.6895097965
 20
175.645248002
 10
62.6948571655
 20
175.6442424925
 10
62.7001793594
 20
175.6429860371
 10
62.7054702447
 20
175.6414981712
 10
62.7106848989
 20
175.6398273288
 10
62.7158152813
 20
175.6379949938
 10
62.7208474618
 20
175.6360295199
 10
62.725726948
 20
175.6340052075
 10
62.7304301378
 20
175.6319709073
 10
62.7349654779
 20
175.6299397767
 10
62.7393278096
 20
175.6279388545
  0
LINE
  5
250
100
AcDbEntity
  8
RACCORDO
100
AcDbLine
 62
253
  6
CONTINUOUS
 10
84.7285498851
 20
121.460268056
 11
84.2000758765
 21
121.5060806246
  0
LINE
  5
251
100
AcDbEntity
  8
RACCORDO
100
AcDbLine
 62
253
  6
CONTINUOUS
 10
84.6392383643
 20
121.7896062019
 11
84.2000758765
 21
121.8276764973
  0
LWPOLYLINE
  5
252
100
AcDbEntity
  8
RACCORDO
100
AcDbPolyline
 62
253
  6
CONTINUOUS
 90
8
 70
0
 10
46.8169568723
 20
138.1505050242
 10
46.8227756326
 20
138.1197174137
 10
46.8338771876
 20
138.08957761
 10
46.8501425895
 20
138.0604085463
 10
46.8713975626
 20
138.0325227546
 10
46.8974143702
 20
138.0062190175
 10
46.9279142551
 20
137.9817791668
 10
46.9625704259
 20
137.9594650633
  0
LWPOLYLINE
  5
253
100
AcDbEntity
  8
RACCORDO
100
AcDbPolyline
 62
253
  6
CONTINUOUS
 90
9
 70
0
 10
46.8161219523
 20
171.6587790147
 10
46.8169683519
 20
171.6369174499
 10
46.8227878066
 20
171.6083392153
 10
46.8338898512
 20
171.5801206276
 10
46.8501555365
 20
171.5525640253
 10
46.8714105893
 20
171.5259646548
 10
46.8974272794
 20
171.500607506
 10
46.9279268597
 20
171.4767642598
 10
46.9625825525
 20
171.4546903765
  0
LWPOLYLINE
  5
254
100
AcDbEntity
  8
RACCORDO
100
AcDbPolyline
 62
253
  6
CONTINUOUS
 90
10
 70
0
 10
46.9625704233
 20
137.9594650616
 10
46.847044236
 20
141.6106405522
 10
46.7603910413
 20
145.2801621493
 10
46.7026181718
 20
148.9677246305
 10
46.6737305156
 20
152.6730212613
 10
46.6737305156
 20
156.3957439299
 10
46.7026181719
 20
160.1355831755
 10
46.7603910414
 20
163.8922280655
 10
46.847044236
 20
167.6653662204
 10
46.9625704233
 20
171.4546839505
  0
LINE
  5
255
100
AcDbEntity
  8
0
100
AcDbLine
 62
7
  6
CONTINUOUS
 10
62.2234147025
 20
175.3705837769
 11
61.1609789475
 21
174.1663919815
  0
LINE
  5
256
100
AcDbEntity
  8
0
100
AcDbLine
 62
253
  6
CONTINUOUS
 10
62.3147443345
 20
175.3529985582
 11
61.2317643315
 21
174.1255213879
  0
LWPOLYLINE
  5
257
100
AcDbEntity
  8
0
100
AcDbPolyline
 62
253
  6
CONTINUOUS
 90
13
 70
0
 10
62.3147443345
 20
175.3529985582
 10
62.3191823353
 20
175.3577910777
 10
62.3236868115
 20
175.3624466139
 10
62.3282526003
 20
175.3669594244
 10
62.3328773589
 20
175.3713266007
 10
62.3375528987
 20
175.3755398234
 10
62.3422649094
 20
175.3795863662
 10
62.3470064326
 20
175.3834610562
 10
62.3517730378
 20
175.3871610684
 10
62.3565538601
 20
175.3906789941
 10
62.3613414428
 20
175.3940107793
 10
62.366131846
 20
175.3971551057
 10
62.7393278096
 20
175.6279388545
  0
LWPOLYLINE
  5
258
100
AcDbEntity
  8
0
100
AcDbPolyline
 62
253
  6
CONTINUOUS
 90
23
 70
0
 10
62.2234154438
 20
175.3705846171
 10
62.2240552333
 20
175.3712714629
 10
62.2259948797
 20
175.3729758327
 10
62.2282125767
 20
175.3744260769
 10
62.2307041406
 20
175.3756194596
 10
62.2334648711
 20
175.3765537295
 10
62.2364895603
 20
175.3772271242
 10
62.2397725023
 20
175.3776383733
 10
62.2433075046
 20
175.3777867011
 10
62.247087898
 20
175.3776718275
 10
62.251106548
 20
175.3772939698
 10
62.2553558712
 20
175.3766538415
 10
62.2598278526
 20
175.3757526507
 10
62.2645140589
 20
175.374592097
 10
62.2694056723
 20
175.373174363
 10
62.2744934443
 20
175.3715021277
 10
62.2797677087
 20
175.3695785717
 10
62.285218664
 20
175.3674072692
 10
62.2908358754
 20
175.3649923759
 10
62.2966081752
 20
175.3623387245
 10
62.3025244344
 20
175.3594514943
 10
62.3085736358
 20
175.3563361233
 10
62.3147443345
 20
175.3529985582
  0
LWPOLYLINE
  5
259
100
AcDbEntity
  8
0
100
AcDbPolyline
 62
253
  6
CONTINUOUS
 90
19
 70
0
 10
66.1272828622
 20
174.0729583522
 10
66.1331347
 20
174.0766115208
 10
66.1387102676
 20
174.0804081015
 10
66.1439989323
 20
174.0843411735
 10
66.1489910954
 20
174.0884039914
 10
66.1536765946
 20
174.0925887011
 10
66.1580450566
 20
174.0968862286
 10
66.1620879156
 20
174.1012880766
 10
66.1657981487
 20
174.1057865223
 10
66.1691688911
 20
174.1103732529
 10
66.1721938813
 20
174.1150397784
 10
66.1748674388
 20
174.1197773695
 10
66.1771845378
 20
174.1245771323
 10
66.1791408545
 20
174.1294300968
 10
66.1807327662
 20
174.1343272599
 10
66.1819573163
 20
174.1392595266
 10
66.1828122236
 20
174.1442177238
 10
66.183295891
 20
174.149192611
 10
66.1834149021
 20
174.1531757577
  0
LWPOLYLINE
  5
25A
100
AcDbEntity
  8
0
100
AcDbPolyline
 62
253
  6
CONTINUOUS
 90
12
 70
0
 10
65.1155880618
 20
173.8153723648
 10
65.1108397963
 20
173.8124429129
 10
65.1060779915
 20
173.8093194596
 10
65.1013082205
 20
173.8060031116
 10
65.0965323862
 20
173.8024923957
 10
65.0917601732
 20
173.7987916108
 10
65.0870088203
 20
173.7949122035
 10
65.0822828765
 20
173.7908565699
 10
65.0775894572
 20
173.786629485
 10
65.0729490604
 20
173.7822491017
 10
65.0683718429
 20
173.7777259838
 10
65.0638580924
 20
173.7730614016
  0
LINE
  5
25B
100
AcDbEntity
  8
0
100
AcDbLine
 62
253
  6
CONTINUOUS
 10
65.1155880618
 20
173.8153723648
 11
65.9858830451
 21
174.3178700193
  0
LINE
  5
25C
100
AcDbEntity
  8
0
100
AcDbLine
 62
253
  6
CONTINUOUS
 10
65.2569878789
 20
173.5704606976
 11
66.1272828622
 21
174.0729583522
  0
LINE
  5
25D
100
AcDbEntity
  8
RACCORDO
100
AcDbLine
 62
7
  6
CONTINUOUS
 10
68.5885935834
 20
175.2129484399
 11
63.9414665955
 21
172.5609732613
  0
LWPOLYLINE
  5
25E
100
AcDbEntity
  8
RACCORDO
100
AcDbPolyline
 62
7
  6
CONTINUOUS
 90
12
 70
0
 10
69.958044828
 20
175.1926984442
 10
70.009986759
 20
175.2200830481
 10
70.0614608385
 20
175.2427020392
 10
70.1124670666
 20
175.2605554176
 10
70.1634575912
 20
175.2737656546
 10
70.2139802644
 20
175.2822102789
 10
70.2626786425
 20
175.2855218768
 10
70.3093997844
 20
175.2834604102
 10
70.3542966313
 20
175.2762659172
 10
70.3964715634
 20
175.2642910984
 10
70.435655091
 20
175.2476329897
 10
70.4519761501
 20
175.238821553
  0
LWPOLYLINE
  5
25F
100
AcDbEntity
  8
RACCORDO
100
AcDbPolyline
 62
7
  6
CONTINUOUS
 90
14
 70
0
 10
77.9394263475
 20
119.6157833209
 10
77.9845836145
 20
119.5914668283
 10
78.0533653232
 20
119.5608065781
 10
78.1259411065
 20
119.5359255383
 10
78.2015949467
 20
119.5173267958
 10
78.2799062196
 20
119.5052829571
 10
78.3604234727
 20
119.5000229493
 10
78.4424060111
 20
119.5017097628
 10
78.5254741786
 20
119.5103914931
 10
78.6092998745
 20
119.5260735476
 10
78.6933743733
 20
119.5486963046
 10
78.7774118751
 20
119.578208437
 10
78.8612313796
 20
119.6145522956
 10
78.8838818547
 20
119.6255719664
  0
LWPOLYLINE
  5
260
100
AcDbEntity
  8
RACCORDO
100
AcDbPolyline
 62
253
  6
CONTINUOUS
 90
12
 70
0
 10
47.2686960165
 20
137.3246687574
 10
47.239093337
 20
137.3432011571
 10
47.1910791285
 20
137.3801643336
 10
47.1470945183
 20
137.423321068
 10
47.1073749627
 20
137.472451514
 10
47.072125479
 20
137.5273006157
 10
47.0415249916
 20
137.5875837446
 10
47.0157195501
 20
137.6530082699
 10
46.9948286546
 20
137.7232647332
 10
46.9789557693
 20
137.7980118893
 10
46.9681846179
 20
137.8768752145
 10
46.9625704233
 20
137.9594650616
  0
LINE
  5
261
100
AcDbEntity
  8
RACCORDO
100
AcDbLine
 62
7
  6
CONTINUOUS
 10
51.572918203
 20
176.9452367563
 11
51.572918203
 21
177.2668263753
  0
LWPOLYLINE
  5
262
100
AcDbEntity
  8
RACCORDO
100
AcDbPolyline
 62
7
  6
CONTINUOUS
 90
12
 70
0
 10
51.572918203
 20
177.2668251725
 10
51.5731897793
 20
177.2784760276
 10
51.5757053229
 20
177.3040526011
 10
51.5808478776
 20
177.3292920261
 10
51.5885951325
 20
177.3539624679
 10
51.5988996344
 20
177.3778024128
 10
51.6116755222
 20
177.4005295158
 10
51.6268130224
 20
177.4218836489
 10
51.6441822038
 20
177.4416218059
 10
51.6636080217
 20
177.4594925792
 10
51.6848642271
 20
177.475251661
 10
51.6959526826
 20
177.4821859737
  0
LWPOLYLINE
  5
263
100
AcDbEntity
  8
RACCORDO
100
AcDbPolyline
 62
253
  6
CONTINUOUS
 90
16
 70
0
 10
51.6461415077
 20
177.1647577269
 10
51.6471034708
 20
177.1865784003
 10
51.6499788911
 20
177.209272445
 10
51.654736475
 20
177.2325928735
 10
51.6613244463
 20
177.2562858858
 10
51.6696711053
 20
177.2800936172
 10
51.6796856065
 20
177.3037569452
 10
51.6912589525
 20
177.3270183268
 10
51.704265187
 20
177.3496246075
 10
51.7185627606
 20
177.3713297619
 10
51.7339960675
 20
177.3918975663
 10
51.7503971409
 20
177.4111041747
 10
51.7675874855
 20
177.4287405595
 10
51.7853800144
 20
177.444614779
 10
51.8035810842
 20
177.4585540675
 10
51.8219926066
 20
177.4704067187
  0
LINE
  5
264
100
AcDbEntity
  8
0
100
AcDbLine
 62
253
  6
CONTINUOUS
 10
63.9385727622
 20
172.5636658869
 11
65.0638580924
 21
173.7730614016
  0
LINE
  5
265
100
AcDbEntity
  8
0
100
AcDbLine
 62
253
  6
CONTINUOUS
 10
64.7436335415
 20
173.0187457378
 11
65.2569878789
 21
173.5704606976
  0
LINE
  5
266
100
AcDbEntity
  8
RACCORDO
100
AcDbLine
 62
7
  6
CONTINUOUS
 10
63.8707559174
 20
170.6061197177
 11
63.5130767681
 21
170.3804701849
  0
LINE
  5
267
100
AcDbEntity
  8
RACCORDO
100
AcDbLine
 62
7
  6
CONTINUOUS
 10
65.0602720988
 20
169.7657968978
 11
66.6446126544
 21
170.6998344427
  0
LINE
  5
268
100
AcDbEntity
  8
RACCORDO
100
AcDbLine
 62
253
  6
CONTINUOUS
 10
65.1863107711
 20
169.7540169048
 11
66.769891297
 21
170.6876063793
  0
LINE
  5
269
100
AcDbEntity
  8
RACCORDO
100
AcDbLine
 62
7
  6
CONTINUOUS
 10
63.5130767681
 20
171.5834823919
 11
69.1955899876
 21
174.8644975527
  0
LINE
  5
26A
100
AcDbEntity
  8
RACCORDO
100
AcDbLine
 62
7
  6
CONTINUOUS
 10
66.6446193567
 20
170.6998290738
 11
66.6459281707
 21
170.7005847665
  0
LINE
  5
26B
100
AcDbEntity
  8
RACCORDO
100
AcDbLine
 62
7
  6
CONTINUOUS
 10
63.8707559174
 20
170.6061197177
 11
69.1955899876
 21
173.6626250833
  0
LINE
  5
26C
100
AcDbEntity
  8
RACCORDO
100
AcDbLine
 62
7
  6
CONTINUOUS
 10
69.958044828
 20
175.1926984442
 11
69.3191840515
 21
174.8302657795
  0
LINE
  5
26D
100
AcDbEntity
  8
RACCORDO
100
AcDbLine
 62
7
  6
CONTINUOUS
 10
66.6459281707
 20
170.7005847665
 11
67.1799655267
 21
171.0025071391
  0
LINE
  5
26E
100
AcDbEntity
  8
RACCORDO
100
AcDbLine
 62
253
  6
CONTINUOUS
 10
66.769891297
 20
170.6876063793
 11
67.303928653
 21
170.9895287519
  0
LWPOLYLINE
  5
26F
100
AcDbEntity
  8
RACCORDO
100
AcDbPolyline
 62
253
  6
CONTINUOUS
 90
9
 70
0
 10
65.0602823535
 20
169.7658029424
 10
65.068286556
 20
169.7699550048
 10
65.0828476797
 20
169.7750208165
 10
65.0984997741
 20
169.7775844424
 10
65.1150733729
 20
169.777648477
 10
65.1323429875
 20
169.7752442531
 10
65.1500984331
 20
169.7704410318
 10
65.1681530258
 20
169.7633277729
 10
65.1863107711
 20
169.7540169048
  0
LWPOLYLINE
  5
270
100
AcDbEntity
  8
RACCORDO
100
AcDbPolyline
 62
253
  6
CONTINUOUS
 90
9
 70
0
 10
67.303928653
 20
170.9895287519
 10
67.322340202
 20
170.9989372772
 10
67.3405413
 20
171.0060161339
 10
67.3583338575
 20
171.0106882793
 10
67.3755242346
 20
171.0129028639
 10
67.3919253379
 20
171.0126357834
 10
67.407358659
 20
171.009889946
 10
67.4216562287
 20
171.0046952409
 10
67.4280090966
 20
171.0013824166
  0
LWPOLYLINE
  5
271
100
AcDbEntity
  8
RACCORDO
100
AcDbPolyline
 62
7
  6
CONTINUOUS
 90
7
 70
0
 10
66.6459281707
 20
170.7005847665
 10
66.6626517191
 20
170.7077733273
 10
66.681844336
 20
170.7114867419
 10
66.7025275716
 20
170.7112900886
 10
66.7243475424
 20
170.7071867321
 10
66.7469309156
 20
170.6992468796
 10
66.769891297
 20
170.6876063793
  0
LWPOLYLINE
  5
272
100
AcDbEntity
  8
RACCORDO
100
AcDbPolyline
 62
7
  6
CONTINUOUS
 90
3
 70
0
 10
67.2263329263
 20
171.0228326794
 10
67.2017014578
 20
171.0134358613
 10
67.1799032991
 20
171.002471923
  0
LWPOLYLINE
  5
273
100
AcDbEntity
  8
RACCORDO
100
AcDbPolyline
 62
253
  6
CONTINUOUS
 90
8
 70
0
 10
67.1868805945
 20
171.0059813312
 10
67.2011977367
 20
171.0109554129
 10
67.2167911366
 20
171.0134851486
 10
67.2332785474
 20
171.0134994174
 10
67.2504359433
 20
171.011030398
 10
67.2680548672
 20
171.0061483503
 10
67.2859504201
 20
170.998943265
 10
67.303928653
 20
170.9895287519
  0
LWPOLYLINE
  5
274
100
AcDbEntity
  8
RACCORDO
100
AcDbPolyline
 62
7
  6
CONTINUOUS
 90
11
 70
0
 10
82.2989699786
 20
119.8020912253
 10
82.3216354104
 20
119.7905013422
 10
82.3456269872
 20
119.7811886026
 10
82.3706653247
 20
119.7743442785
 10
82.3964231646
 20
119.770117054
 10
82.4225791762
 20
119.7685980021
 10
82.4488563922
 20
119.7698352358
 10
82.4750204881
 20
119.7738606544
 10
82.5006461489
 20
119.7806409625
 10
82.5252776174
 20
119.7900377806
 10
82.5470757761
 20
119.8010017189
  0
LINE
  5
275
100
AcDbEntity
  8
RACCORDO
100
AcDbLine
 62
7
  6
CONTINUOUS
 10
47.2686960165
 20
137.3246687574
 11
77.9399413216
 21
119.6154761192
  0
LINE
  5
276
100
AcDbEntity
  8
RACCORDO
100
AcDbLine
 62
253
  6
CONTINUOUS
 10
46.9625704233
 20
137.9594650616
 11
77.6265574483
 21
120.2544632634
  0
LINE
  5
277
100
AcDbEntity
  8
RACCORDO
100
AcDbLine
 62
7
  6
CONTINUOUS
 10
80.9721329041
 20
120.568190323
 11
82.2989699786
 21
119.8020912253
  0
LINE
  5
278
100
AcDbEntity
  8
RACCORDO
100
AcDbLine
 62
253
  6
CONTINUOUS
 10
80.9600575887
 20
120.6597049465
 11
82.2471993233
 21
119.9165254406
  0
LINE
  5
279
100
AcDbEntity
  8
RACCORDO
100
AcDbLine
 62
7
  6
CONTINUOUS
 10
77.9394313013
 20
119.6157709198
 11
77.9398927144
 21
119.6155041844
  0
LINE
  5
27A
100
AcDbEntity
  8
RACCORDO
100
AcDbLine
 62
7
  6
CONTINUOUS
 10
52.276899373
 20
176.0642199339
 11
52.2763225628
 21
176.0741781665
  0
LWPOLYLINE
  5
27B
100
AcDbEntity
  8
RACCORDO
100
AcDbPolyline
 62
253
  6
CONTINUOUS
 90
9
 70
0
 10
51.572918204
 20
177.266813732
 10
51.5733629376
 20
177.258220212
 10
51.5763050325
 20
177.2431468423
 10
51.5819404462
 20
177.22839769
 10
51.5901824779
 20
177.2141159834
 10
51.6008919803
 20
177.20047866
 10
51.6139050706
 20
177.187630553
 10
51.6290527916
 20
177.1756865322
 10
51.6461415077
 20
177.1647577269
  0
LWPOLYLINE
  5
27C
100
AcDbEntity
  8
RACCORDO
100
AcDbPolyline
 62
253
  6
CONTINUOUS
 90
9
 70
0
 10
51.5729182031
 20
176.9452327437
 10
51.5733159665
 20
176.9370973642
 10
51.5761511051
 20
176.9220979985
 10
51.5816759314
 20
176.9073653918
 10
51.5898234232
 20
176.8930579739
 10
51.6004867916
 20
176.87934304
 10
51.6135323185
 20
176.8663698735
 10
51.6288093297
 20
176.8542698322
 10
51.6461415077
 20
176.843168108
  0
LINE
  5
27D
100
AcDbEntity
  8
RACCORDO
100
AcDbLine
 62
253
  6
CONTINUOUS
 10
51.6461415077
 20
176.843168108
 11
51.6461415077
 21
177.1647577269
  0
LINE
  5
27E
100
AcDbEntity
  8
RACCORDO
100
AcDbLine
 62
7
  6
CONTINUOUS
 10
52.2763225479
 20
176.0741698472
 11
52.2763225479
 21
176.3947669856
  0
LINE
  5
27F
100
AcDbEntity
  8
RACCORDO
100
AcDbLine
 62
253
  6
CONTINUOUS
 10
52.3495458526
 20
175.9693141433
 11
52.3495458526
 21
176.3524887672
  0
LINE
  5
280
100
AcDbEntity
  8
RACCORDO
100
AcDbLine
 62
253
  6
CONTINUOUS
 10
52.9729785822
 20
176.3986586293
 11
52.9729785822
 21
176.0770690104
  0
LINE
  5
281
100
AcDbEntity
  8
RACCORDO
100
AcDbLine
 62
253
  6
CONTINUOUS
 10
53.3256039532
 20
176.3981256007
 11
53.3256039532
 21
176.0765359817
  0
LINE
  5
282
100
AcDbEntity
  8
RACCORDO
100
AcDbLine
 62
253
  6
CONTINUOUS
 10
53.6837877997
 20
175.8790621255
 11
53.6837877997
 21
175.1989395651
  0
LINE
  5
283
100
AcDbEntity
  8
RACCORDO
100
AcDbLine
 62
253
  6
CONTINUOUS
 10
54.0364131707
 20
176.0112835007
 11
54.0364131707
 21
175.2090478741
  0
LWPOLYLINE
  5
284
100
AcDbEntity
  8
RACCORDO
100
AcDbPolyline
 62
7
  6
CONTINUOUS
 90
6
 70
0
 10
55.5260307662
 20
177.3834682352
 10
55.5222271789
 20
177.3540464796
 10
55.5149460638
 20
177.3252226863
 10
55.5042676695
 20
177.2974070843
 10
55.4902969979
 20
177.2709622845
 10
55.4721062846
 20
177.2449066538
  0
LWPOLYLINE
  5
285
100
AcDbEntity
  8
RACCORDO
100
AcDbPolyline
 62
7
  6
CONTINUOUS
 90
4
 70
0
 10
57.1551005789
 20
175.0095418075
 10
57.1521835412
 20
174.9933313863
 10
57.1505763323
 20
174.9749046758
 10
57.1503054122
 20
174.9638687303
  0
LWPOLYLINE
  5
286
100
AcDbEntity
  8
RACCORDO
100
AcDbPolyline
 62
253
  6
CONTINUOUS
 90
9
 70
0
 10
68.8186473084
 20
169.910834413
 10
68.8360827709
 20
169.9221354039
 10
68.8513698227
 20
169.9344254421
 10
68.864342004
 20
169.9475688504
 10
68.8748527809
 20
169.9614120415
 10
68.8827973051
 20
169.975810615
 10
68.8880975596
 20
169.9906339962
 10
68.8906849958
 20
170.00575487
 10
68.890947409
 20
170.0122954086
  0
LWPOLYLINE
  5
287
100
AcDbEntity
  8
RACCORDO
100
AcDbPolyline
 62
253
  6
CONTINUOUS
 90
9
 70
0
 10
68.8186473084
 20
169.5828321929
 10
68.8360374907
 20
169.5941005484
 10
68.8512915455
 20
169.6063528151
 10
68.8642443096
 20
169.6194544692
 10
68.8747541136
 20
169.6332590822
 10
68.8827107696
 20
169.6476180672
 10
68.8880316319
 20
169.6623832884
 10
68.8906564947
 20
169.677403053
 10
68.8909474398
 20
169.6843690269
  0
LWPOLYLINE
  5
288
100
AcDbEntity
  8
RACCORDO
100
AcDbPolyline
 62
253
  6
CONTINUOUS
 90
16
 70
0
 10
66.5131478455
 20
168.9879178072
 10
66.4947363009
 20
168.9760651403
 10
66.4765352067
 20
168.9621258289
 10
66.4587426524
 20
168.946251579
 10
66.4415522796
 20
168.9286151532
 10
66.4251511795
 20
168.9094084962
 10
66.4097178564
 20
168.8888406468
 10
66.3954202759
 20
168.8671354526
 10
66.382414044
 20
168.8445291403
 10
66.3708407159
 20
168.8212677523
 10
66.3608262488
 20
168.7976044591
 10
66.3524796271
 20
168.7737967894
 10
66.3458916838
 20
168.7501038369
 10
66.341134117
 20
168.7267834553
 10
66.3382587066
 20
168.7040894526
 10
66.3372967466
 20
168.6822688154
  0
LINE
  5
289
100
AcDbEntity
  8
0
100
AcDbLine
 62
7
  6
CONTINUOUS
 10
68.8745346919
 20
170.1004938642
 11
71.0125344073
 21
171.4226649589
  0
LINE
  5
28A
100
AcDbEntity
  8
RACCORDO
100
AcDbLine
 62
7
  6
CONTINUOUS
 10
67.6058565111
 20
168.2960083618
 11
69.1901970667
 21
169.2300459067
  0
LINE
  5
28B
100
AcDbEntity
  8
RACCORDO
100
AcDbLine
 62
253
  6
CONTINUOUS
 10
67.7318951833
 20
168.2842283688
 11
69.3154757093
 21
169.2178178433
  0
LINE
  5
28C
100
AcDbEntity
  8
RACCORDO
100
AcDbLine
 62
253
  6
CONTINUOUS
 10
68.6418730363
 20
170.2170164334
 11
66.5131478455
 21
168.9879178072
  0
LINE
  5
28D
100
AcDbEntity
  8
RACCORDO
100
AcDbLine
 62
253
  6
CONTINUOUS
 10
68.8186473084
 20
169.910834413
 11
66.6899221176
 21
168.6817357868
  0
LINE
  5
28E
100
AcDbEntity
  8
RACCORDO
100
AcDbLine
 62
7
  6
CONTINUOUS
 10
69.190203769
 20
169.2300405379
 11
69.191512583
 21
169.2307962305
  0
LINE
  5
28F
100
AcDbEntity
  8
RACCORDO
100
AcDbLine
 62
7
  6
CONTINUOUS
 10
69.191512583
 20
169.2307962305
 11
69.7255499389
 21
169.5327186031
  0
LINE
  5
290
100
AcDbEntity
  8
RACCORDO
100
AcDbLine
 62
253
  6
CONTINUOUS
 10
69.3154757093
 20
169.2178178433
 11
69.8495130652
 21
169.5197402159
  0
LINE
  5
291
100
AcDbEntity
  8
RACCORDO
100
AcDbLine
 62
7
  6
CONTINUOUS
 10
73.060366111
 20
173.4014570166
 11
68.079619554
 21
170.6251507051
  0
LINE
  5
292
100
AcDbEntity
  8
0
100
AcDbLine
 62
7
  6
CONTINUOUS
 10
71.0125344073
 20
171.4226649589
 11
74.6097812872
 21
173.3571479194
  0
LWPOLYLINE
  5
293
100
AcDbEntity
  8
RACCORDO
100
AcDbPolyline
 62
253
  6
CONTINUOUS
 90
9
 70
0
 10
67.6058667658
 20
168.2960144064
 10
67.6138709683
 20
168.3001664688
 10
67.628432092
 20
168.3052322805
 10
67.6440841863
 20
168.3077959064
 10
67.6606577852
 20
168.307859941
 10
67.6779273998
 20
168.3054557172
 10
67.6956828454
 20
168.3006524958
 10
67.7137374381
 20
168.2935392369
 10
67.7318951833
 20
168.2842283688
  0
LWPOLYLINE
  5
294
100
AcDbEntity
  8
RACCORDO
100
AcDbPolyline
 62
253
  6
CONTINUOUS
 90
16
 70
0
 10
66.6899221176
 20
168.6817357868
 10
66.670349489
 20
168.6716687697
 10
66.6490638904
 20
168.6628422176
 10
66.626300306
 20
168.6553522426
 10
66.6023247393
 20
168.6492834514
 10
66.5773872833
 20
168.6446963824
 10
66.5517140868
 20
168.6416360819
 10
66.5255256523
 20
168.6401421288
 10
66.4991680854
 20
168.6402473813
 10
66.4730619272
 20
168.6419461101
 10
66.4475172955
 20
168.645199927
 10
66.4227822517
 20
168.6499587719
 10
66.3991632382
 20
168.6561423034
 10
66.376911097
 20
168.6636558984
 10
66.3562247765
 20
168.6724020033
 10
66.3372967466
 20
168.6822688154
  0
LWPOLYLINE
  5
295
100
AcDbEntity
  8
RACCORDO
100
AcDbPolyline
 62
253
  6
CONTINUOUS
 90
16
 70
0
 10
66.6899221176
 20
168.3601461678
 10
66.670406079
 20
168.3501053261
 10
66.6491859525
 20
168.3412978401
 10
66.6264947185
 20
168.3338190766
 10
66.6025859734
 20
168.3277508374
 10
66.57771706
 20
168.3231567494
 10
66.5521445508
 20
168.3200845375
 10
66.5261311626
 20
168.3185689669
 10
66.4999764498
 20
168.3186306436
 10
66.4739983885
 20
168.3202676275
 10
66.4484823556
 20
168.3234576098
 10
66.4237027413
 20
168.32816189
 10
66.3999493142
 20
168.3343187996
 10
66.377480626
 20
168.3418511219
 10
66.3565241649
 20
168.3506718557
 10
66.3372967466
 20
168.3606791926
  0
LWPOLYLINE
  5
296
100
AcDbEntity
  8
RACCORDO
100
AcDbPolyline
 62
253
  6
CONTINUOUS
 90
9
 70
0
 10
69.8495130652
 20
169.5197402159
 10
69.8679246142
 20
169.5291487413
 10
69.8861257122
 20
169.536227598
 10
69.9039182697
 20
169.5408997433
 10
69.9211086468
 20
169.5431143279
 10
69.9375097502
 20
169.5428472474
 10
69.9529430713
 20
169.54010141
 10
69.9672406409
 20
169.5349067049
 10
69.9735935089
 20
169.5315938806
  0
LWPOLYLINE
  5
297
100
AcDbEntity
  8
RACCORDO
100
AcDbPolyline
 62
7
  6
CONTINUOUS
 90
7
 70
0
 10
69.191512583
 20
169.2307962305
 10
69.2082361314
 20
169.2379847913
 10
69.2274287482
 20
169.2416982059
 10
69.2481119839
 20
169.2415015526
 10
69.2699319547
 20
169.2373981961
 10
69.2925153279
 20
169.2294583436
 10
69.3154757093
 20
169.2178178433
  0
LWPOLYLINE
  5
298
100
AcDbEntity
  8
RACCORDO
100
AcDbPolyline
 62
7
  6
CONTINUOUS
 90
3
 70
0
 10
69.7719173386
 20
169.5530441434
 10
69.7472858701
 20
169.5436473254
 10
69.7254877114
 20
169.532683387
  0
LWPOLYLINE
  5
299
100
AcDbEntity
  8
RACCORDO
100
AcDbPolyline
 62
253
  6
CONTINUOUS
 90
8
 70
0
 10
69.7324650068
 20
169.5361927952
 10
69.7467821489
 20
169.5411668769
 10
69.7623755488
 20
169.5436966126
 10
69.7788629597
 20
169.5437108814
 10
69.7960203555
 20
169.541241862
 10
69.8136392795
 20
169.5363598144
 10
69.8315348323
 20
169.529154729
 10
69.8495130652
 20
169.519740216
  0
LWPOLYLINE
  5
29A
100
AcDbEntity
  8
RACCORDO
100
AcDbPolyline
 62
253
  6
CONTINUOUS
 90
4
 70
0
 10
84.6758560565
 20
121.7783037411
 10
84.6721615448
 20
121.7803143738
 10
84.6564137385
 20
121.7864794842
 10
84.6392383643
 20
121.7896062019
  0
LINE
  5
29B
100
AcDbEntity
  8
RACCORDO
100
AcDbLine
 62
253
  6
CONTINUOUS
 10
81.2590747422
 20
120.8086458086
 11
82.2471993233
 21
120.2381150596
  0
LINE
  5
29C
100
AcDbEntity
  8
RACCORDO
100
AcDbLine
 62
253
  6
CONTINUOUS
 10
81.5183425578
 20
120.9377874699
 11
82.335587671
 21
120.465920384
  0
LINE
  5
29D
100
AcDbEntity
  8
RACCORDO
100
AcDbLine
 62
7
  6
CONTINUOUS
 10
82.5661880935
 20
121.4597207958
 11
83.1338620503
 21
121.1319529678
  0
LWPOLYLINE
  5
29E
100
AcDbEntity
  8
RACCORDO
100
AcDbPolyline
 62
7
  6
CONTINUOUS
 90
3
 70
0
 10
80.9721329041
 20
120.568190323
 10
80.9507269194
 20
120.5820520754
 10
80.9306367715
 20
120.5982073642
  0
LWPOLYLINE
  5
29F
100
AcDbEntity
  8
0
100
AcDbPolyline
 62
253
  6
CONTINUOUS
 90
19
 70
0
 10
56.9321331018
 20
142.838743707
 10
56.9304223921
 20
142.8643768424
 10
56.9260832149
 20
142.891181274
 10
56.9191813006
 20
142.918750962
 10
56.9098212002
 20
142.9466682744
 10
56.8981447025
 20
142.9745103132
 10
56.884328686
 20
143.0018553215
 10
56.868582439
 20
143.0282890711
 10
56.8511444889
 20
143.0534111374
 10
56.8322789897
 20
143.076840966
 10
56.8122717203
 20
143.0982236366
 10
56.7914257551
 20
143.1172352397
 10
56.7700568734
 20
143.1335877833
 10
56.748488776
 20
143.1470335556
 10
56.7270481811
 20
143.157368877
 10
56.7060598748
 20
143.1644371855
 10
56.6858417928
 20
143.1681314089
 10
56.6667002038
 20
143.1683955863
 10
56.6489250695
 20
143.1652257163
  0
LWPOLYLINE
  5
2A0
100
AcDbEntity
  8
RACCORDO
100
AcDbPolyline
 62
7
  6
CONTINUOUS
 90
13
 70
0
 10
54.9258551354
 20
177.3220896472
 10
54.9242293363
 20
177.3495398613
 10
54.9196226394
 20
177.3782758928
 10
54.9121138638
 20
177.4078060777
 10
54.9018314822
 20
177.4376251636
 10
54.888951423
 20
177.4672229558
 10
54.8736940598
 20
177.4960930453
 10
54.8563204412
 20
177.5237414741
 10
54.8371278243
 20
177.5496951864
 10
54.8164445887
 20
177.5735101226
 10
54.7946246179
 20
177.5947788166
 10
54.7720412447
 20
177.613137368
 10
54.7490808633
 20
177.6282716676
  0
LWPOLYLINE
  5
2A1
100
AcDbEntity
  8
RACCORDO
100
AcDbPolyline
 62
253
  6
CONTINUOUS
 90
8
 70
0
 10
52.9729785822
 20
176.0770690104
 10
52.974173883
 20
176.0540625585
 10
52.977743621
 20
176.0327475328
 10
52.9836395215
 20
176.0134121824
 10
52.9917818529
 20
175.9963179847
 10
53.0020605038
 20
175.9816961095
 10
53.0143364732
 20
175.9697442928
 10
53.0247492375
 20
175.9626347951
  0
LWPOLYLINE
  5
2A2
100
AcDbEntity
  8
RACCORDO
100
AcDbPolyline
 62
253
  6
CONTINUOUS
 90
16
 70
0
 10
53.3256039532
 20
176.3981256007
 10
53.3245331769
 20
176.4200803167
 10
53.3215291047
 20
176.4429221348
 10
53.316626301
 20
176.4663978553
 10
53.3098849832
 20
176.4902328191
 10
53.3013783797
 20
176.5141780505
 10
53.2911812392
 20
176.5380130747
 10
53.2793703886
 20
176.5615248754
 10
53.2660914292
 20
176.5843945536
 10
53.2515605965
 20
176.6062576969
 10
53.2359671977
 20
176.6268620797
 10
53.2194797885
 20
176.6460151266
 10
53.2023223936
 20
176.6634886266
 10
53.1847034695
 20
176.6791101227
 10
53.1668079157
 20
176.6927540275
 10
53.1488296811
 20
176.7043076211
  0
LWPOLYLINE
  5
2A3
100
AcDbEntity
  8
RACCORDO
100
AcDbPolyline
 62
253
  6
CONTINUOUS
 90
16
 70
0
 10
55.454329144
 20
177.6272242269
 10
55.4534425921
 20
177.6492853108
 10
55.4506001843
 20
177.6722204712
 10
55.4458347126
 20
177.6957754857
 10
55.439204833
 20
177.7196747938
 10
55.4307826543
 20
177.743668773
 10
55.4206420915
 20
177.7675364659
 10
55.4088592391
 20
177.7910644325
 10
55.3955790869
 20
177.8139334213
 10
55.3810179632
 20
177.8357790738
 10
55.3653658689
 20
177.8563495646
 10
55.34879227
 20
177.8754528447
 10
55.3315226554
 20
177.8928615495
 10
55.3137672098
 20
177.9084042202
 10
55.2957126171
 20
177.9219562991
 10
55.2775548719
 20
177.9334062473
  0
LINE
  5
2A4
100
AcDbEntity
  8
0
100
AcDbLine
 62
253
  6
CONTINUOUS
 10
56.5968742821
 20
141.6636902327
 11
56.5911456893
 21
142.0422860414
  0
LINE
  5
2A5
100
AcDbEntity
  8
0
100
AcDbLine
 62
253
  6
CONTINUOUS
 10
56.945750305
 20
141.868707383
 11
56.9388709972
 21
142.34039731
  0
LINE
  5
2A6
100
AcDbEntity
  8
0
100
AcDbLine
 62
253
  6
CONTINUOUS
 10
56.5911456893
 20
142.0422860414
 11
56.5855976617
 21
142.4305431119
  0
LINE
  5
2A7
100
AcDbEntity
  8
0
100
AcDbLine
 62
253
  6
CONTINUOUS
 10
56.5855976617
 20
142.4305431119
 11
56.5801464463
 21
142.836776568
  0
LINE
  5
2A8
100
AcDbEntity
  8
0
100
AcDbLine
 62
253
  6
CONTINUOUS
 10
56.9388709972
 20
142.34039731
 11
56.9321309357
 21
142.8387421563
  0
LINE
  5
2A9
100
AcDbEntity
  8
0
100
AcDbLine
 62
253
  6
CONTINUOUS
 10
56.5463446464
 20
146.6847054968
 11
56.5447575079
 21
147.0618490706
  0
LINE
  5
2AA
100
AcDbEntity
  8
0
100
AcDbLine
 62
253
  6
CONTINUOUS
 10
56.8983424801
 20
146.6855851266
 11
56.8964063584
 21
147.1574324943
  0
LINE
  5
2AB
100
AcDbEntity
  8
0
100
AcDbLine
 62
253
  6
CONTINUOUS
 10
56.5447575079
 20
147.0618490706
 11
56.5434280674
 21
147.4554261591
  0
LINE
  5
2AC
100
AcDbEntity
  8
0
100
AcDbLine
 62
253
  6
CONTINUOUS
 10
56.8964063584
 20
147.1574324943
 11
56.8950960815
 21
147.5777570904
  0
LINE
  5
2AD
100
AcDbEntity
  8
0
100
AcDbLine
 62
253
  6
CONTINUOUS
 10
56.5434280674
 20
147.4554261591
 11
56.5423971988
 21
147.8654601757
  0
LINE
  5
2AE
100
AcDbEntity
  8
RACCORDO
100
AcDbLine
 62
7
  6
CONTINUOUS
 10
54.9258551354
 20
175.7707933233
 11
54.9258551354
 21
177.3220896472
  0
LINE
  5
2AF
100
AcDbEntity
  8
RACCORDO
100
AcDbLine
 62
253
  6
CONTINUOUS
 10
55.454329144
 20
177.2992220068
 11
55.454329144
 21
177.6272242269
  0
LINE
  5
2B0
100
AcDbEntity
  8
RACCORDO
100
AcDbLine
 62
7
  6
CONTINUOUS
 10
55.5266292755
 20
177.4007548282
 11
55.5266292755
 21
177.7287570483
  0
LINE
  5
2B1
100
AcDbEntity
  8
0
100
AcDbLine
 62
7
  6
CONTINUOUS
 10
56.0334354189
 20
145.9146185455
 11
56.0334354189
 21
147.2330969271
  0
LINE
  5
2B2
100
AcDbEntity
  8
RACCORDO
100
AcDbLine
 62
7
  6
CONTINUOUS
 10
56.2447298682
 20
146.0905507259
 11
56.2447298682
 21
147.0017772768
  0
LINE
  5
2B3
100
AcDbEntity
  8
RACCORDO
100
AcDbLine
 62
7
  6
CONTINUOUS
 10
56.6256120566
 20
145.4923882287
 11
56.6256120566
 21
144.9408219836
  0
LINE
  5
2B4
100
AcDbEntity
  8
RACCORDO
100
AcDbLine
 62
253
  6
CONTINUOUS
 10
56.6813255662
 20
145.4526637085
 11
56.6813255662
 21
144.8850863663
  0
LINE
  5
2B5
100
AcDbEntity
  8
RACCORDO
100
AcDbLine
 62
7
  6
CONTINUOUS
 10
55.5266289228
 20
177.400997279
 11
55.5260307662
 21
177.3834682352
  0
LWPOLYLINE
  5
2B6
100
AcDbEntity
  8
0
100
AcDbPolyline
 62
253
  6
CONTINUOUS
 90
37
 70
0
 10
55.2782668074
 20
147.8176967387
 10
55.2774119545
 20
147.8031040798
 10
55.2771732664
 20
147.6605667911
 10
55.2847642171
 20
147.513777975
 10
55.300154305
 20
147.3633275082
 10
55.3232816838
 20
147.209820015
 10
55.354053407
 20
147.0538724222
 10
55.3923458016
 20
146.8961114643
 10
55.4380049864
 20
146.7371710964
 10
55.4908474933
 20
146.5776899789
 10
55.5506609879
 20
146.4183089729
 10
55.6172050936
 20
146.259668616
 10
55.6902123738
 20
146.1024064807
 10
55.7693894691
 20
145.9471544885
 10
55.8544181645
 20
145.794536609
 10
55.9449566153
 20
145.6451663874
 10
56.0406406476
 20
145.4996445219
 10
56.1410859949
 20
145.3585553184
 10
56.2458898231
 20
145.2224646911
 10
56.3546320542
 20
145.0919184699
 10
56.4668748051
 20
144.967442673
 10
56.5821647563
 20
144.8495399195
 10
56.7000372404
 20
144.7386848672
 10
56.8200196712
 20
144.6353214391
 10
56.9416312352
 20
144.5398636357
 10
57.0643817285
 20
144.4526960158
 10
57.1877793815
 20
144.3741675744
 10
57.3113343072
 20
144.3045906709
 10
57.4344799363
 20
144.2442778879
 10
57.5567922501
 20
144.1934304123
 10
57.6779913841
 20
144.1521899169
 10
57.7975980598
 20
144.1207715445
 10
57.9150991371
 20
144.0993630393
 10
58.0301514039
 20
144.0880977904
 10
58.1423042765
 20
144.0871185718
 10
58.2510131867
 20
144.0965320284
 10
58.3557911872
 20
144.1163948411
  0
LWPOLYLINE
  5
2B7
100
AcDbEntity
  8
0
100
AcDbPolyline
 62
7
  6
CONTINUOUS
 90
38
 70
0
 10
54.8673592068
 20
147.9884100034
 10
54.853580634
 20
147.9455988675
 10
54.8234298059
 20
147.8186291416
 10
54.8018833492
 20
147.6846519241
 10
54.7888256723
 20
147.5437613554
 10
54.7844337791
 20
147.3978672718
 10
54.7888256723
 20
147.24690154
 10
54.8018833492
 20
147.0909322934
 10
54.8234298059
 20
146.9320737677
 10
54.853580634
 20
146.7702866212
 10
54.8922202419
 20
146.6056101958
 10
54.938824851
 20
146.4402767523
 10
54.9935029202
 20
146.2742773445
 10
55.0561459906
 20
146.1076209187
 10
55.1259049063
 20
145.9425665749
 10
55.2028765634
 20
145.7791361287
 10
55.2869640659
 20
145.6173077644
 10
55.3770275699
 20
145.4592751345
 10
55.47314845
 20
145.3050899257
 10
55.5752453317
 20
145.1547004514
 10
55.6819342466
 20
145.0101453041
 10
55.7932777239
 20
144.8715039299
 10
55.9092132345
 20
144.7386968827
 10
56.0281692221
 20
144.6135244172
 10
56.1501868162
 20
144.4960904932
 10
56.2752248872
 20
144.3862911508
 10
56.4015884907
 20
144.2856147646
 10
56.529295676
 20
144.1941855618
 10
56.6583283938
 20
144.1118793152
 10
56.7869375508
 20
144.0398117184
 10
56.9151173793
 20
143.9781221908
 10
57.0428736472
 20
143.9266713131
 10
57.1684745649
 20
143.886156521
 10
57.2918907828
 20
143.8567267306
 10
57.4131516505
 20
143.8382330258
 10
57.530613427
 20
143.8309260939
 10
57.6437281985
 20
143.8348894972
 10
57.7530438789
 20
143.8500396735
  0
LWPOLYLINE
  5
2B8
100
AcDbEntity
  8
RACCORDO
100
AcDbPolyline
 62
7
  6
CONTINUOUS
 90
13
 70
0
 10
67.4007313351
 20
168.2948936868
 10
67.3829241477
 20
168.2741842514
 10
67.3634544787
 20
168.2546329639
 10
67.3424608579
 20
168.2363519684
 10
67.3201232912
 20
168.2193371637
 10
67.2966118662
 20
168.2037958375
 10
67.2720797231
 20
168.1901551328
 10
67.2467596946
 20
168.1784966749
 10
67.2208988168
 20
168.1689025378
 10
67.1947002949
 20
168.1618038304
 10
67.168448323
 20
168.1572606706
 10
67.1424761608
 20
168.1553114663
 10
67.1186471174
 20
168.1561867216
  0
LWPOLYLINE
  5
2B9
100
AcDbEntity
  8
RACCORDO
100
AcDbPolyline
 62
253
  6
CONTINUOUS
 90
9
 70
0
 10
71.3642317207
 20
168.441045877
 10
71.3816671831
 20
168.452346868
 10
71.396954235
 20
168.4646369061
 10
71.4099264163
 20
168.4777803144
 10
71.4204371932
 20
168.4916235055
 10
71.4283817174
 20
168.506022079
 10
71.4336819718
 20
168.5208454602
 10
71.4362694081
 20
168.5359663341
 10
71.4365318212
 20
168.5425068726
  0
LWPOLYLINE
  5
2BA
100
AcDbEntity
  8
RACCORDO
100
AcDbPolyline
 62
253
  6
CONTINUOUS
 90
9
 70
0
 10
71.3642317207
 20
168.1130436569
 10
71.381621903
 20
168.1243120124
 10
71.3968759578
 20
168.1365642791
 10
71.4098287219
 20
168.1496659333
 10
71.4203385259
 20
168.1634705462
 10
71.4282951819
 20
168.1778295312
 10
71.4336160442
 20
168.1925947524
 10
71.4362409069
 20
168.207614517
 10
71.4365318521
 20
168.2145804909
  0
LWPOLYLINE
  5
2BB
100
AcDbEntity
  8
RACCORDO
100
AcDbPolyline
 62
253
  6
CONTINUOUS
 90
16
 70
0
 10
69.0587322578
 20
167.5181292712
 10
69.0403207131
 20
167.5062766043
 10
69.022119619
 20
167.492337293
 10
69.0043270647
 20
167.476463043
 10
68.9871366919
 20
167.4588266173
 10
68.9707355918
 20
167.4396199602
 10
68.9553022686
 20
167.4190521108
 10
68.9410046882
 20
167.3973469166
 10
68.9279984563
 20
167.3747406043
 10
68.9164251282
 20
167.3514792164
 10
68.9064106611
 20
167.3278159231
 10
68.8980640394
 20
167.3040082535
 10
68.891476096
 20
167.2803153009
 10
68.8867185293
 20
167.2569949193
 10
68.8838431189
 20
167.2343009166
 10
68.8828811589
 20
167.2124802794
  0
LINE
  5
2BC
100
AcDbEntity
  8
RACCORDO
100
AcDbLine
 62
7
  6
CONTINUOUS
 10
67.5512887215
 20
167.5877456882
 11
67.4007313351
 21
167.4926580602
  0
LINE
  5
2BD
100
AcDbEntity
  8
RACCORDO
100
AcDbLine
 62
253
  6
CONTINUOUS
 10
71.1874574486
 20
168.7472278974
 11
69.0587322578
 21
167.5181292712
  0
LINE
  5
2BE
100
AcDbEntity
  8
RACCORDO
100
AcDbLine
 62
253
  6
CONTINUOUS
 10
71.3642317207
 20
168.441045877
 11
69.2355065299
 21
167.2119472508
  0
LINE
  5
2BF
100
AcDbEntity
  8
0
100
AcDbLine
 62
7
  6
CONTINUOUS
 10
71.3245533876
 20
167.1118144349
 11
78.3754426359
 21
171.1829022514
  0
LINE
  5
2C0
100
AcDbEntity
  8
0
100
AcDbLine
 62
7
  6
CONTINUOUS
 10
81.3965782336
 20
174.4211059178
 11
77.7729809635
 21
172.4724525701
  0
LWPOLYLINE
  5
2C1
100
AcDbEntity
  8
RACCORDO
100
AcDbPolyline
 62
253
  6
CONTINUOUS
 90
16
 70
0
 10
69.2355065299
 20
167.2119472508
 10
69.2159339013
 20
167.2018802337
 10
69.1946483026
 20
167.1930536816
 10
69.1718847183
 20
167.1855637066
 10
69.1479091516
 20
167.1794949154
 10
69.1229716956
 20
167.1749078465
 10
69.0972984991
 20
167.1718475459
 10
69.0711100646
 20
167.1703535929
 10
69.0447524976
 20
167.1704588453
 10
69.0186463395
 20
167.1721575741
 10
68.9931017077
 20
167.175411391
 10
68.968366664
 20
167.1801702359
 10
68.9447476505
 20
167.1863537674
 10
68.9224955092
 20
167.1938673624
 10
68.9018091888
 20
167.2026134673
 10
68.8828811589
 20
167.2124802794
  0
LWPOLYLINE
  5
2C2
100
AcDbEntity
  8
RACCORDO
100
AcDbPolyline
 62
253
  6
CONTINUOUS
 90
16
 70
0
 10
69.2355065299
 20
166.8903576319
 10
69.2159904912
 20
166.8803167901
 10
69.1947703647
 20
166.8715093041
 10
69.1720791308
 20
166.8640305406
 10
69.1481703856
 20
166.8579623014
 10
69.1233014723
 20
166.8533682134
 10
69.097728963
 20
166.8502960015
 10
69.0717155748
 20
166.8487804309
 10
69.0455608621
 20
166.8488421076
 10
69.0195828008
 20
166.8504790915
 10
68.9940667678
 20
166.8536690738
 10
68.9692871536
 20
166.858373354
 10
68.9455337265
 20
166.8645302636
 10
68.9230650382
 20
166.8720625859
 10
68.9021085772
 20
166.8808833197
 10
68.8828811589
 20
166.8908906566
  0
LWPOLYLINE
  5
2C3
100
AcDbEntity
  8
0
100
AcDbPolyline
 62
253
  6
CONTINUOUS
 90
29
 70
0
 10
81.3965720092
 20
174.4211025705
 10
81.4088763027
 20
174.4273943597
 10
81.423376432
 20
174.434012833
 10
81.4382224605
 20
174.4399566006
 10
81.4534031206
 20
174.4452211465
 10
81.468906939
 20
174.4498024943
 10
81.4847221464
 20
174.4536971645
 10
81.5008366724
 20
174.4569021643
 10
81.5172383295
 20
174.4594150849
 10
81.5339147007
 20
174.4612340321
 10
81.5508530526
 20
174.4623575747
 10
81.5680406119
 20
174.462784891
 10
81.5854643568
 20
174.4625156731
 10
81.6031109044
 20
174.4615500594
 10
81.6209669072
 20
174.4598888298
 10
81.6390188972
 20
174.4575332743
 10
81.65725308
 20
174.4544850905
 10
81.6756557257
 20
174.4507466317
 10
81.6942129197
 20
174.4463207702
 10
81.7129104072
 20
174.4412107641
 10
81.7317341375
 20
174.435420533
 10
81.7506698715
 20
174.4289545182
 10
81.7697029327
 20
174.421817548
 10
81.7888187951
 20
174.4140151874
 10
81.8080032391
 20
174.4055533486
 10
81.8272419627
 20
174.396438102
 10
81.8465205311
 20
174.3866762403
 10
81.8658243839
 20
174.3762753288
 10
81.8851389917
 20
174.3652432871
  0
LINE
  5
2C4
100
AcDbEntity
  8
RACCORDO
100
AcDbLine
 62
253
  6
CONTINUOUS
 10
84.2000758765
 20
122.0431731183
 11
84.6392383643
 21
121.7896062019
  0
LINE
  5
2C5
100
AcDbEntity
  8
RACCORDO
100
AcDbLine
 62
7
  6
CONTINUOUS
 10
84.2000758765
 20
122.0530132541
 11
84.6758560566
 21
121.778303741
  0
LWPOLYLINE
  5
2C6
100
AcDbEntity
  8
RACCORDO
100
AcDbPolyline
 62
7
  6
CONTINUOUS
 90
3
 70
0
 10
84.6758560566
 20
121.778303741
 10
84.6992922463
 20
121.7629593776
 10
84.7210614789
 20
121.744907273
  0
LINE
  5
2C7
100
AcDbEntity
  8
RACCORDO
100
AcDbLine
 62
253
  6
CONTINUOUS
 10
84.6571443876
 20
121.7778028794
 11
84.6392383643
 21
121.7896062019
  0
LWPOLYLINE
  5
2C8
100
AcDbEntity
  8
RACCORDO
100
AcDbPolyline
 62
253
  6
CONTINUOUS
 90
6
 70
0
 10
80.9653144879
 20
120.5726056862
 10
80.9539062314
 20
120.5823613228
 10
80.9438917623
 20
120.5944601578
 10
80.9355451359
 20
120.6086293606
 10
80.9289571891
 20
120.6247147253
 10
80.924363846
 20
120.6419258434
  0
LWPOLYLINE
  5
2C9
100
AcDbEntity
  8
0
100
AcDbPolyline
 62
7
  6
CONTINUOUS
 90
11
 70
0
 10
58.4513655027
 20
140.793078615
 10
58.4525552853
 20
140.7687225149
 10
58.4554209876
 20
140.7434602129
 10
58.4599943105
 20
140.7181261789
 10
58.4659462773
 20
140.6928569761
 10
58.4732571643
 20
140.6677300691
 10
58.4819249391
 20
140.642887995
 10
58.4916612864
 20
140.61854579
 10
58.5023512706
 20
140.5948277614
 10
58.5140488631
 20
140.5717664882
 10
58.5267144832
 20
140.5494246871
  0
LWPOLYLINE
  5
2CA
100
AcDbEntity
  8
RACCORDO
100
AcDbPolyline
 62
7
  6
CONTINUOUS
 90
14
 70
0
 10
57.1503054122
 20
174.9638687303
 10
57.1504292642
 20
174.9544017425
 10
57.1519322072
 20
174.9319869136
 10
57.1551692925
 20
174.9078150856
 10
57.1601295501
 20
174.8820095324
 10
57.1669432518
 20
174.8547605012
 10
57.1757219277
 20
174.82621572
 10
57.186452357
 20
174.7964142485
 10
57.1993045268
 20
174.7654852169
 10
57.2143654871
 20
174.7336734039
 10
57.2315361532
 20
174.7011957371
 10
57.2508750925
 20
174.6682813138
 10
57.2725714643
 20
174.6351701492
 10
57.2967257491
 20
174.6021181727
  0
LWPOLYLINE
  5
2CB
100
AcDbEntity
  8
0
100
AcDbPolyline
 62
7
  6
CONTINUOUS
 90
10
 70
0
 10
58.4002715704
 20
146.70868785
 10
58.4016921116
 20
146.2129276529
 10
58.4046072917
 20
145.5080463294
 10
58.4085724007
 20
144.8037879478
 10
58.4135874298
 20
144.1001546013
 10
58.4196523652
 20
143.3971483925
 10
58.4267671927
 20
142.6947714327
 10
58.4349318933
 20
141.9930258271
 10
58.4441464438
 20
141.2919136746
 10
58.4513475567
 20
140.793074875
  0
LWPOLYLINE
  5
2CC
100
AcDbEntity
  8
0
100
AcDbPolyline
 62
253
  6
CONTINUOUS
 90
13
 70
0
 10
58.4731795354
 20
146.7506506529
 10
58.4743801809
 20
146.277550012
 10
58.4760797403
 20
145.7980088695
 10
58.4782988123
 20
145.312039883
 10
58.4810523337
 20
144.820665394
 10
58.4843652782
 20
144.3228877908
 10
58.4882834091
 20
143.8156958147
 10
58.4928408357
 20
143.2988637504
 10
58.4980679947
 20
142.7726569325
 10
58.5040234835
 20
142.2348116068
 10
58.5107583597
 20
141.6845925317
 10
58.5183075244
 20
141.1227878951
 10
58.5267144832
 20
140.5494246871
  0
LINE
  5
2CD
100
AcDbEntity
  8
RACCORDO
100
AcDbLine
 62
7
  6
CONTINUOUS
 10
57.1502791397
 20
174.9626854474
 11
57.1502791397
 21
173.7529536396
  0
LINE
  5
2CE
100
AcDbEntity
  8
RACCORDO
100
AcDbLine
 62
253
  6
CONTINUOUS
 10
57.2967257491
 20
174.6021181727
 11
57.2967257491
 21
173.5425437642
  0
LINE
  5
2CF
100
AcDbEntity
  8
0
100
AcDbLine
 62
7
  6
CONTINUOUS
 10
58.1431909898
 20
143.5503250891
 11
58.1431909898
 21
142.5600934708
  0
LINE
  5
2D0
100
AcDbEntity
  8
RACCORDO
100
AcDbLine
 62
253
  6
CONTINUOUS
 10
58.3898500982
 20
144.5202261533
 11
58.3898500982
 21
144.1329128658
  0
LINE
  5
2D1
100
AcDbEntity
  8
RACCORDO
100
AcDbLine
 62
253
  6
CONTINUOUS
 10
68.8364244491
 20
169.5285168399
 11
68.8363846779
 21
169.5284666948
  0
LINE
  5
2D2
100
AcDbEntity
  8
RACCORDO
100
AcDbLine
 62
253
  6
CONTINUOUS
 10
68.2901732998
 20
168.9203266717
 11
68.8186473084
 21
169.5828321929
  0
LINE
  5
2D3
100
AcDbEntity
  8
RACCORDO
100
AcDbLine
 62
7
  6
CONTINUOUS
 10
68.3079106669
 20
168.8659611707
 11
68.8363846755
 21
169.5284666919
  0
LINE
  5
2D4
100
AcDbEntity
  8
RACCORDO
100
AcDbLine
 62
7
  6
CONTINUOUS
 10
68.2901732998
 20
168.8440700181
 11
68.3078328648
 21
168.8658715514
  0
LWPOLYLINE
  5
2D5
100
AcDbEntity
  8
RACCORDO
100
AcDbPolyline
 62
7
  6
CONTINUOUS
 90
13
 70
0
 10
69.9463157474
 20
166.8251051508
 10
69.92850856
 20
166.8043957154
 10
69.909038891
 20
166.784844428
 10
69.8880452702
 20
166.7665634325
 10
69.8657077035
 20
166.7495486277
 10
69.8421962785
 20
166.7340073015
 10
69.8176641354
 20
166.7203665968
 10
69.7923441068
 20
166.7087081389
 10
69.7664832291
 20
166.6991140019
 10
69.7402847072
 20
166.6920152945
 10
69.7140327352
 20
166.6874721346
 10
69.688060573
 20
166.6855229303
 10
69.6642315297
 20
166.6863981856
  0
LINE
  5
2D6
100
AcDbEntity
  8
RACCORDO
100
AcDbLine
 62
7
  6
CONTINUOUS
 10
70.8357577121
 20
166.5846149734
 11
69.9463157474
 21
166.0228695242
  0
LINE
  5
2D7
100
AcDbEntity
  8
RACCORDO
100
AcDbLine
 62
7
  6
CONTINUOUS
 10
73.2045774304
 20
165.9877313725
 11
73.5581188196
 21
166.1966396905
  0
LINE
  5
2D8
100
AcDbEntity
  8
0
100
AcDbLine
 62
7
  6
CONTINUOUS
 10
84.0196580821
 20
172.3129306078
 11
81.0607479868
 21
170.5741370963
  0
LINE
  5
2D9
100
AcDbEntity
  8
0
100
AcDbLine
 62
7
  6
CONTINUOUS
 10
79.6649202019
 20
171.3800705654
 11
83.3600921351
 21
173.513623854
  0
LINE
  5
2DA
100
AcDbEntity
  8
RACCORDO
100
AcDbLine
 62
7
  6
CONTINUOUS
 10
78.5229854346
 20
170.2474090819
 11
72.208445108
 21
166.6014664333
  0
LINE
  5
2DB
100
AcDbEntity
  8
RACCORDO
100
AcDbLine
 62
7
  6
CONTINUOUS
 10
78.5229854346
 20
170.2474090819
 11
78.8097497765
 21
170.4130062802
  0
LINE
  5
2DC
100
AcDbEntity
  8
0
100
AcDbLine
 62
7
  6
CONTINUOUS
 10
80.5346225653
 20
170.8779153208
 11
84.0196580821
 21
172.8901380596
  0
LINE
  5
2DD
100
AcDbEntity
  8
RACCORDO
100
AcDbLine
 62
7
  6
CONTINUOUS
 10
79.5487486918
 20
168.8846922434
 11
74.9016217039
 21
166.2327170647
  0
LINE
  5
2DE
100
AcDbEntity
  8
RACCORDO
100
AcDbLine
 62
7
  6
CONTINUOUS
 10
73.5581188196
 20
166.1966396905
 11
78.9452734168
 21
169.2351525329
  0
LWPOLYLINE
  5
2DF
100
AcDbEntity
  8
0
100
AcDbPolyline
 62
253
  6
CONTINUOUS
 90
21
 70
0
 10
70.005271258
 20
135.0766676995
 10
69.895627202
 20
135.0522371971
 10
69.7816685068
 20
135.0388678247
 10
69.6633370319
 20
135.0366926439
 10
69.5406824852
 20
135.0455735818
 10
69.4152075581
 20
135.0653979839
 10
69.2868743102
 20
135.0962986356
 10
69.1557148008
 20
135.138139251
 10
69.0233371733
 20
135.1904038371
 10
68.8897325469
 20
135.2532131093
 10
68.7549073334
 20
135.3264448814
 10
68.6204934518
 20
135.4092193061
 10
68.4865035415
 20
135.5016385871
 10
68.3529262677
 20
135.6036012977
 10
68.2213584858
 20
135.7139226798
 10
68.0918516814
 20
135.832627478
 10
67.9643592731
 20
135.9596938674
 10
67.8403317189
 20
136.0938676525
 10
67.7202551068
 20
136.2347323155
 10
67.6036513192
 20
136.3827091134
 10
67.4905251736
 20
136.5378009082
  0
LINE
  5
2E0
100
AcDbEntity
  8
0
100
AcDbLine
 62
7
  6
CONTINUOUS
 10
67.9969508883
 20
137.4853281146
 11
68.3224601828
 21
137.333133265
  0
LWPOLYLINE
  5
2E1
100
AcDbEntity
  8
0
100
AcDbPolyline
 62
253
  6
CONTINUOUS
 90
13
 70
0
 10
56.5801483025
 20
142.8366326011
 10
56.6044433739
 20
142.8235847366
 10
56.6314735909
 20
142.813326706
 10
56.6607489524
 20
142.8056981615
 10
56.6915170923
 20
142.7996782058
 10
56.7232645427
 20
142.7956800091
 10
56.7558284892
 20
142.795242383
 10
56.7887054022
 20
142.7968311469
 10
56.8206935982
 20
142.7999973615
 10
56.851070238
 20
142.8068396541
 10
56.8798041026
 20
142.8169274926
 10
56.90684233
 20
142.8279277941
 10
56.9321331018
 20
142.838743707
  0
LINE
  5
2E2
100
AcDbEntity
  8
0
100
AcDbLine
 62
253
  6
CONTINUOUS
 10
67.517652911
 20
134.6967973741
 11
65.5880007025
 21
135.8109543751
  0
LINE
  5
2E3
100
AcDbEntity
  8
0
100
AcDbLine
 62
253
  6
CONTINUOUS
 10
67.4386490916
 20
135.1527780325
 11
65.939971826
 21
136.0180955028
  0
LINE
  5
2E4
100
AcDbEntity
  8
0
100
AcDbLine
 62
253
  6
CONTINUOUS
 10
58.5267144832
 20
140.5494246871
 11
56.5968742821
 21
141.6636902327
  0
LINE
  5
2E5
100
AcDbEntity
  8
0
100
AcDbLine
 62
253
  6
CONTINUOUS
 10
58.4482920262
 20
141.0047389881
 11
56.9488507937
 21
141.8704975633
  0
LINE
  5
2E6
100
AcDbEntity
  8
0
100
AcDbLine
 62
7
  6
CONTINUOUS
 10
67.1234471108
 20
136.7014181572
 11
67.4187073833
 21
136.5309385764
  0
LINE
  5
2E7
100
AcDbEntity
  8
0
100
AcDbLine
 62
253
  6
CONTINUOUS
 10
67.6153229227
 20
136.9854255498
 11
67.684722702
 21
136.9453549871
  0
LINE
  5
2E8
100
AcDbEntity
  8
0
100
AcDbLine
 62
7
  6
CONTINUOUS
 10
67.6860124718
 20
137.0273988662
 11
67.7545643976
 21
136.9878178434
  0
LINE
  5
2E9
100
AcDbEntity
  8
0
100
AcDbLine
 62
7
  6
CONTINUOUS
 10
58.1431909898
 20
142.5600934708
 11
58.4302626435
 21
142.3943418958
  0
LWPOLYLINE
  5
2EA
100
AcDbEntity
  8
RACCORDO
100
AcDbPolyline
 62
7
  6
CONTINUOUS
 90
3
 70
0
 10
80.9306367715
 20
120.5982073642
 10
80.912169056
 20
120.6165083464
 10
80.9009271937
 20
120.6302520141
  0
LINE
  5
2EB
100
AcDbEntity
  8
0
100
AcDbLine
 62
7
  6
CONTINUOUS
 10
56.458482278
 20
146.7293873881
 11
56.5176426793
 21
146.646126444
  0
LWPOLYLINE
  5
2EC
100
AcDbEntity
  8
0
100
AcDbPolyline
 62
7
  6
CONTINUOUS
 90
30
 70
0
 10
61.5373035394
 20
153.2148411993
 10
61.5414091082
 20
153.070174616
 10
61.5533964088
 20
152.9226349103
 10
61.5732654412
 20
152.7722220822
 10
61.6012094085
 20
152.6181295153
 10
61.6370351076
 20
152.461163826
 10
61.6801629295
 20
152.3037448632
 10
61.7305664822
 20
152.146210771
 10
61.7882721576
 20
151.9882234054
 10
61.8527795226
 20
151.8311881831
 10
61.9243710957
 20
151.6746856932
 10
62.0027643585
 20
151.5191353466
 10
62.0866113229
 20
151.3672007926
 10
62.1757249947
 20
151.2193722611
 10
62.2702923682
 20
151.0751595223
 10
62.3695264383
 20
150.9357555355
 10
62.4737626927
 20
150.8008357751
 10
62.5826656437
 20
150.6707247667
 10
62.694441823
 20
150.5475890475
 10
62.8088901947
 20
150.4317923366
 10
62.9262117947
 20
150.3229709147
 10
63.0452162623
 20
150.2222001615
 10
63.1660677664
 20
150.1294365299
 10
63.288602138
 20
150.0447235669
 10
63.4111365096
 20
149.9692672935
 10
63.5336708812
 20
149.903223946
 10
63.6562052528
 20
149.8464372881
 10
63.7770567569
 20
149.7996446321
 10
63.8960612245
 20
149.762992009
 10
63.9536903429
 20
149.7498971243
  0
LINE
  5
2ED
100
AcDbEntity
  8
0
100
AcDbLine
 62
7
  6
CONTINUOUS
 10
61.5373035394
 20
153.9554539271
 11
61.5373035394
 21
153.2148411993
  0
LINE
  5
2EE
100
AcDbEntity
  8
0
100
AcDbLine
 62
253
  6
CONTINUOUS
 10
59.9695022072
 20
152.5287065643
 11
59.9745472422
 21
152.9353274776
  0
LINE
  5
2EF
100
AcDbEntity
  8
0
100
AcDbLine
 62
253
  6
CONTINUOUS
 10
60.3214909436
 20
152.5251152879
 11
60.3276925027
 21
153.0207449493
  0
LINE
  5
2F0
100
AcDbEntity
  8
0
100
AcDbLine
 62
253
  6
CONTINUOUS
 10
59.9745472422
 20
152.9353274776
 11
59.9798142905
 21
153.3328683845
  0
LINE
  5
2F1
100
AcDbEntity
  8
0
100
AcDbLine
 62
253
  6
CONTINUOUS
 10
60.3276925027
 20
153.0207449493
 11
60.3342087532
 21
153.503401515
  0
LINE
  5
2F2
100
AcDbEntity
  8
0
100
AcDbLine
 62
253
  6
CONTINUOUS
 10
59.9798142905
 20
153.3328683845
 11
59.9853157394
 21
153.7237704603
  0
LINE
  5
2F3
100
AcDbEntity
  8
0
100
AcDbLine
 62
253
  6
CONTINUOUS
 10
60.3342087532
 20
153.503401515
 11
60.3411192106
 21
153.9786721451
  0
LINE
  5
2F4
100
AcDbEntity
  8
0
100
AcDbLine
 62
253
  6
CONTINUOUS
 10
59.9853157394
 20
153.7237704603
 11
59.991163813
 21
154.1164721825
  0
LINE
  5
2F5
100
AcDbEntity
  8
0
100
AcDbLine
 62
253
  6
CONTINUOUS
 10
59.991163813
 20
154.1164721825
 11
59.9974692973
 21
154.5175867051
  0
LWPOLYLINE
  5
2F6
100
AcDbEntity
  8
0
100
AcDbPolyline
 62
253
  6
CONTINUOUS
 90
3
 70
0
 10
60.3411192106
 20
153.9786721451
 10
60.3487419369
 20
154.4689054796
 10
60.3515287142
 20
154.64010545
  0
LINE
  5
2F7
100
AcDbEntity
  8
0
100
AcDbLine
 62
253
  6
CONTINUOUS
 10
59.9974692973
 20
154.5175867051
 11
60.0042879052
 21
154.9291884022
  0
LWPOLYLINE
  5
2F8
100
AcDbEntity
  8
RACCORDO
100
AcDbPolyline
 62
253
  6
CONTINUOUS
 90
13
 70
0
 10
66.6899221176
 20
168.3601461678
 10
66.6796644654
 20
168.3369097827
 10
66.667593339
 20
168.3150588596
 10
66.6538423412
 20
168.2948319246
 10
66.638566526
 20
168.2764529126
 10
66.6219316041
 20
168.2601174735
 10
66.6041095189
 20
168.2459950911
 10
66.585282488
 20
168.2342364914
 10
66.5656667573
 20
168.2249827389
 10
66.5455022753
 20
168.2183448208
 10
66.525013312
 20
168.2143888264
 10
66.5044227147
 20
168.2131501818
 10
66.4912936178
 20
168.2137878557
  0
LINE
  5
2F9
100
AcDbEntity
  8
RACCORDO
100
AcDbLine
 62
253
  6
CONTINUOUS
 10
71.3820088613
 20
168.058728304
 11
71.3819690901
 21
168.0586781588
  0
LINE
  5
2FA
100
AcDbEntity
  8
RACCORDO
100
AcDbLine
 62
253
  6
CONTINUOUS
 10
70.8357577121
 20
167.4505381357
 11
71.3642317207
 21
168.1130436569
  0
LINE
  5
2FB
100
AcDbEntity
  8
RACCORDO
100
AcDbLine
 62
7
  6
CONTINUOUS
 10
70.8534950792
 20
167.3961726347
 11
71.3819690878
 21
168.0586781559
  0
LINE
  5
2FC
100
AcDbEntity
  8
RACCORDO
100
AcDbLine
 62
7
  6
CONTINUOUS
 10
70.8357577121
 20
167.3742814821
 11
70.8534172771
 21
167.3960830154
  0
LINE
  5
2FD
100
AcDbEntity
  8
DRAFT
100
AcDbLine
 62
7
  6
CONTINUOUS
 10
77.5610481553
 20
164.697197562
 11
78.5078662879
 21
165.2534191876
  0
LINE
  5
2FE
100
AcDbEntity
  8
RACCORDO
100
AcDbLine
 62
7
  6
CONTINUOUS
 10
83.3872783243
 20
169.5455207898
 11
83.1147636179
 21
169.3881742137
  0
LINE
  5
2FF
100
AcDbEntity
  8
ASSI
100
AcDbLine
 62
7
  6
CONTINUOUS
 10
80.9663109662
 20
167.7795746022
 11
79.4737921142
 21
166.9178129227
  0
LINE
  5
300
100
AcDbEntity
  8
RACCORDO
100
AcDbLine
 62
7
  6
CONTINUOUS
 10
84.235809032
 20
169.0555927618
 11
83.9632917553
 21
168.8982447017
  0
LINE
  5
301
100
AcDbEntity
  8
RACCORDO
100
AcDbLine
 62
7
  6
CONTINUOUS
 10
78.5078662879
 20
167.0923217826
 11
79.5487486918
 21
167.6828256876
  0
LINE
  5
302
100
AcDbEntity
  8
RACCORDO
100
AcDbLine
 62
7
  6
CONTINUOUS
 10
79.4737921142
 20
167.2355900269
 11
81.6253067176
 21
168.4561676543
  0
LINE
  5
303
100
AcDbEntity
  8
0
100
AcDbLine
 62
7
  6
CONTINUOUS
 10
88.0222488138
 20
170.8217530183
 11
84.1957862623
 21
168.7640052873
  0
LINE
  5
304
100
AcDbEntity
  8
0
100
AcDbLine
 62
7
  6
CONTINUOUS
 10
78.6139323051
 20
164.9925373886
 11
79.4043643954
 21
165.4176061874
  0
LWPOLYLINE
  5
305
100
AcDbEntity
  8
RACCORDO
100
AcDbPolyline
 62
7
  6
CONTINUOUS
 90
10
 70
0
 10
84.2357801361
 20
169.0555760777
 10
84.2471766004
 20
169.0616569796
 10
84.2583970029
 20
169.0666663628
 10
84.2694413436
 20
169.0706042273
 10
84.2804046025
 20
169.0734807848
 10
84.2911917997
 20
169.0752858237
 10
84.3015179951
 20
169.0759887091
 10
84.3112882088
 20
169.0755792292
 10
84.3205974209
 20
169.0740675959
 10
84.3294456312
 20
169.071453809
  0
LWPOLYLINE
  5
306
100
AcDbEntity
  8
0
100
AcDbPolyline
 62
7
  6
CONTINUOUS
 90
19
 70
0
 10
80.3188006149
 20
165.4319882704
 10
80.3215016579
 20
165.4333627308
 10
80.3261394747
 20
165.4353811987
 10
80.3309502867
 20
165.4370617003
 10
80.3359250163
 20
165.4384010719
 10
80.3410542045
 20
165.439396763
 10
80.3463279947
 20
165.4400468143
 10
80.35173646
 20
165.4403500389
 10
80.3572693604
 20
165.440305877
 10
80.3629160062
 20
165.4399143014
 10
80.3686658054
 20
165.4391761206
 10
80.3745078973
 20
165.4380927721
 10
80.3804309131
 20
165.4366661652
 10
80.3864237507
 20
165.4348990987
 10
80.3924751364
 20
165.4327949853
 10
80.3985732616
 20
165.4303576286
 10
80.4047065445
 20
165.4275916505
 10
80.410863651
 20
165.4245024887
 10
80.417033058
 20
165.4210961103
  0
LWPOLYLINE
  5
307
100
AcDbEntity
  8
0
100
AcDbPolyline
 62
253
  6
CONTINUOUS
 90
19
 70
0
 10
80.825967535
 20
165.7047262274
 10
80.8286720357
 20
165.7061020695
 10
80.8333007353
 20
165.7081147379
 10
80.8380957391
 20
165.7097857222
 10
80.8430479113
 20
165.7111118427
 10
80.8481478349
 20
165.7120905815
 10
80.8533858273
 20
165.7127200803
 10
80.8587519569
 20
165.7129991395
 10
80.8642359776
 20
165.7129272205
 10
80.8698273661
 20
165.7125044669
 10
80.8755154228
 20
165.7117317061
 10
80.8812893722
 20
165.7106104204
 10
80.8871383
 20
165.7091427358
 10
80.8930517235
 20
165.7073312296
 10
80.8990177533
 20
165.7051794911
 10
80.905023143
 20
165.7026924492
 10
80.9110558027
 20
165.6998754613
 10
80.9171048708
 20
165.6967339479
 10
80.9231588457
 20
165.6932741801
  0
LINE
  5
308
100
AcDbEntity
  8
0
100
AcDbLine
 62
7
  6
CONTINUOUS
 10
68.5454288702
 20
137.4687313931
 11
67.9969508883
 21
137.4853281146
  0
LINE
  5
309
100
AcDbEntity
  8
0
100
AcDbLine
 62
7
  6
CONTINUOUS
 10
69.8398831801
 20
137.42956173
 11
70.6442957617
 21
137.4052205311
  0
LWPOLYLINE
  5
30A
100
AcDbEntity
  8
0
100
AcDbPolyline
 62
7
  6
CONTINUOUS
 90
18
 70
0
 10
57.9250941352
 20
143.8747149546
 10
57.9433430449
 20
143.8681016334
 10
57.961780226
 20
143.8591166929
 10
57.9805022174
 20
143.8476606379
 10
57.9994124803
 20
143.8338329636
 10
58.0178051018
 20
143.8180299204
 10
58.0356916793
 20
143.8000963498
 10
58.0530606155
 20
143.7801874103
 10
58.0691712056
 20
143.7591648276
 10
58.0839060165
 20
143.737038948
 10
58.0973824814
 20
143.7137994252
 10
58.1092121943
 20
143.6902769463
 10
58.1193264598
 20
143.6665460471
 10
58.1277939733
 20
143.6425321918
 10
58.134432415
 20
143.6188424604
 10
58.1391810117
 20
143.5956792128
 10
58.1421005366
 20
143.572840089
 10
58.1431909898
 20
143.5503250891
  0
LWPOLYLINE
  5
30B
100
AcDbEntity
  8
0
100
AcDbPolyline
 62
7
  6
CONTINUOUS
 90
3
 70
0
 10
68.8215558461
 20
137.5849711592
 10
68.8402023755
 20
137.577287787
 10
68.8588418072
 20
137.567331215
  0
LWPOLYLINE
  5
30C
100
AcDbEntity
  8
RACCORDO
100
AcDbPolyline
 62
253
  6
CONTINUOUS
 90
3
 70
0
 10
58.4106861029
 20
144.5072250982
 10
58.4085983253
 20
144.5082878512
 10
58.3898500982
 20
144.5202261533
  0
LWPOLYLINE
  5
30D
100
AcDbEntity
  8
0
100
AcDbPolyline
 62
7
  6
CONTINUOUS
 90
11
 70
0
 10
70.7552412661
 20
136.6241797495
 10
70.7080392397
 20
136.6518215866
 10
70.5829090263
 20
136.7343726484
 10
70.4576557728
 20
136.8263834351
 10
70.3329029069
 20
136.9275399199
 10
70.2092523423
 20
137.0374915725
 10
70.0873546206
 20
137.15578746
 10
69.9678529412
 20
137.2819141538
 10
69.8513445763
 20
137.4153386856
 10
69.7383982052
 20
137.5554997281
 10
69.6295752757
 20
137.7017833093
  0
LWPOLYLINE
  5
30E
100
AcDbEntity
  8
0
100
AcDbPolyline
 62
7
  6
CONTINUOUS
 90
7
 70
0
 10
68.8588418072
 20
137.567331215
 10
68.8774774328
 20
137.5550236973
 10
68.8961059607
 20
137.5404429799
 10
68.9141058868
 20
137.5240447789
 10
68.9312700433
 20
137.5059809996
 10
68.9478055981
 20
137.4860997366
 10
68.9637125512
 20
137.46440099
  0
LWPOLYLINE
  5
30F
100
AcDbEntity
  8
0
100
AcDbPolyline
 62
253
  6
CONTINUOUS
 90
7
 70
0
 10
67.4573116863
 20
140.3855413132
 10
67.4359783569
 20
140.4003280636
 10
67.4178447421
 20
140.4158320283
 10
67.4033275667
 20
140.4321648367
 10
67.3927954976
 20
140.450102164
 10
67.3863630412
 20
140.4690055381
 10
67.3840900211
 20
140.4872984824
  0
LINE
  5
310
100
AcDbEntity
  8
RACCORDO
100
AcDbLine
 62
7
  6
CONTINUOUS
 10
56.0334354189
 20
145.9146185455
 11
56.6813255662
 21
145.4526637085
  0
LINE
  5
311
100
AcDbEntity
  8
RACCORDO
100
AcDbLine
 62
253
  6
CONTINUOUS
 10
56.2447298682
 20
146.0905507259
 11
58.358210755
 21
144.5836089663
  0
LINE
  5
312
100
AcDbEntity
  8
RACCORDO
100
AcDbLine
 62
253
  6
CONTINUOUS
 10
56.5963464563
 20
146.2733301372
 11
58.4075695822
 21
144.9819024354
  0
LWPOLYLINE
  5
313
100
AcDbEntity
  8
RACCORDO
100
AcDbPolyline
 62
253
  6
CONTINUOUS
 90
16
 70
0
 10
58.358210755
 20
144.5836089663
 10
58.361557793
 20
144.5809856691
 10
58.3648049174
 20
144.5780093005
 10
58.3679521282
 20
144.5746798605
 10
58.3710336715
 20
144.5709519241
 10
58.3740153013
 20
144.5668709162
 10
58.3767942793
 20
144.5625731124
 10
58.379362127
 20
144.5580523506
 10
58.381727323
 20
144.5533147928
 10
58.3838125652
 20
144.5485152011
 10
58.385608393
 20
144.5436495442
 10
58.3871242671
 20
144.5387218533
 10
58.3883112667
 20
144.5338989833
 10
58.389153085
 20
144.5292365524
 10
58.3896660288
 20
144.5246789424
 10
58.3898500982
 20
144.5202261533
  0
LWPOLYLINE
  5
314
100
AcDbEntity
  8
0
100
AcDbPolyline
 62
7
  6
CONTINUOUS
 90
3
 70
0
 10
69.5755668749
 20
137.756879445
 10
69.5981116615
 20
137.7379133108
 10
69.6182267036
 20
137.7164770847
  0
LWPOLYLINE
  5
315
100
AcDbEntity
  8
0
100
AcDbPolyline
 62
7
  6
CONTINUOUS
 90
9
 70
0
 10
67.4698085001
 20
140.3002348694
 10
67.4486518305
 20
140.3210107075
 10
67.4298273137
 20
140.3445364019
 10
67.41384543
 20
140.3703868461
 10
67.401512685
 20
140.3969792532
 10
67.392783154
 20
140.4233156408
 10
67.3872008966
 20
140.4493419154
 10
67.3844747803
 20
140.4747454172
 10
67.3840887917
 20
140.4874891829
  0
LWPOLYLINE
  5
316
100
AcDbEntity
  8
RACCORDO
100
AcDbPolyline
 62
7
  6
CONTINUOUS
 90
9
 70
0
 10
84.7210614789
 20
121.744907273
 10
84.7407701905
 20
121.7243749453
 10
84.7580034993
 20
121.7017559769
 10
84.7725627388
 20
121.6773147611
 10
84.7843556584
 20
121.6511043782
 10
84.7931368418
 20
121.6234213946
 10
84.7986623698
 20
121.5948012455
 10
84.8008208692
 20
121.5656183208
 10
84.8008500059
 20
121.5617586899
  0
LWPOLYLINE
  5
317
100
AcDbEntity
  8
0
100
AcDbPolyline
 62
253
  6
CONTINUOUS
 90
13
 70
0
 10
67.7721867911
 20
136.7427938043
 10
67.753674624
 20
136.7669155087
 10
67.7338539051
 20
136.7891476807
 10
67.7130248826
 20
136.8091535421
 10
67.6915030785
 20
136.8266300392
 10
67.6696145097
 20
136.8413124344
 10
67.6476907491
 20
136.8529783161
 10
67.6260639029
 20
136.8614509673
 10
67.605061579
 20
136.866602042
 10
67.5850019254
 20
136.8683535106
 10
67.5661888104
 20
136.8666788416
 10
67.548907219
 20
136.8616034032
 10
67.5374205712
 20
136.8557994444
  0
LWPOLYLINE
  5
318
100
AcDbEntity
  8
0
100
AcDbPolyline
 62
253
  6
CONTINUOUS
 90
11
 70
0
 10
60.6535612764
 20
151.0589480676
 10
60.5905615472
 20
151.2083076783
 10
60.53371269
 20
151.3585605805
 10
60.4832314979
 20
151.5091490801
 10
60.4392970321
 20
151.6595597899
 10
60.4020750039
 20
151.8093073903
 10
60.3717474215
 20
151.9577379561
 10
60.3484613823
 20
152.10409408
 10
60.3322974939
 20
152.2477644869
 10
60.3232992395
 20
152.3882786889
 10
60.3214909175
 20
152.5251152696
  0
LINE
  5
319
100
AcDbEntity
  8
DRAFT
100
AcDbLine
 62
253
  6
CONTINUOUS
 10
62.5979637112
 20
175.6123009006
 11
62.5979637112
 21
176.2785001325
  0
LINE
  5
31A
100
AcDbEntity
  8
RACCORDO
100
AcDbLine
 62
253
  6
CONTINUOUS
 10
62.8080328488
 20
170.3603841177
 11
62.8080328488
 21
171.4199585262
  0
LINE
  5
31B
100
AcDbEntity
  8
RACCORDO
100
AcDbLine
 62
253
  6
CONTINUOUS
 10
63.5130767681
 20
170.3804701849
 11
63.5130767681
 21
171.5834823919
  0
LINE
  5
31C
100
AcDbEntity
  8
DRAFT
100
AcDbLine
 62
7
  6
CONTINUOUS
 10
63.5638895375
 20
176.1039912726
 11
63.5638895375
 21
176.4217683768
  0
LINE
  5
31D
100
AcDbEntity
  8
RACCORDO
100
AcDbLine
 62
253
  6
CONTINUOUS
 10
63.6388461151
 20
178.0708705932
 11
63.6388461151
 21
176.8690040375
  0
LINE
  5
31E
100
AcDbEntity
  8
RACCORDO
100
AcDbLine
 62
7
  6
CONTINUOUS
 10
63.7641956223
 20
178.2441805435
 11
63.7641956223
 21
177.0416028696
  0
LINE
  5
31F
100
AcDbEntity
  8
DRAFT
100
AcDbLine
 62
7
  6
CONTINUOUS
 10
63.8707559174
 20
171.7900016191
 11
63.8707559174
 21
170.6061197177
  0
LINE
  5
320
100
AcDbEntity
  8
DRAFT
100
AcDbLine
 62
253
  6
CONTINUOUS
 10
64.0121772736
 20
175.5222874885
 11
64.0121772736
 21
175.9545523997
  0
LINE
  5
321
100
AcDbEntity
  8
RACCORDO
100
AcDbLine
 62
7
  6
CONTINUOUS
 10
64.9372363674
 20
169.2288469424
 11
64.9372363674
 21
169.5504365614
  0
LINE
  5
322
100
AcDbEntity
  8
0
100
AcDbLine
 62
7
  6
CONTINUOUS
 10
64.0246703978
 20
150.75112791
 11
64.0185221551
 21
150.250758805
  0
LINE
  5
323
100
AcDbEntity
  8
0
100
AcDbLine
 62
253
  6
CONTINUOUS
 10
64.0997070998
 20
150.7890486202
 11
64.0917449885
 21
150.1485752462
  0
LINE
  5
324
100
AcDbEntity
  8
0
100
AcDbLine
 62
7
  6
CONTINUOUS
 10
64.0321831233
 20
151.3126493421
 11
64.0246703978
 21
150.75112791
  0
LINE
  5
325
100
AcDbEntity
  8
0
100
AcDbLine
 62
253
  6
CONTINUOUS
 10
64.1079876742
 20
151.393001155
 11
64.0997070998
 21
150.7890486202
  0
LINE
  5
326
100
AcDbEntity
  8
0
100
AcDbLine
 62
7
  6
CONTINUOUS
 10
64.0403485933
 20
151.8745413098
 11
64.0321831233
 21
151.3126493421
  0
LINE
  5
327
100
AcDbEntity
  8
0
100
AcDbLine
 62
253
  6
CONTINUOUS
 10
64.1166520945
 20
151.9735150214
 11
64.1079876742
 21
151.393001155
  0
LINE
  5
328
100
AcDbEntity
  8
0
100
AcDbLine
 62
7
  6
CONTINUOUS
 10
64.0502723278
 20
152.5045117854
 11
64.0403485933
 21
151.8745413098
  0
LINE
  5
329
100
AcDbEntity
  8
0
100
AcDbLine
 62
253
  6
CONTINUOUS
 10
64.1259290971
 20
152.5494044343
 11
64.1166520945
 21
151.9735150214
  0
LWPOLYLINE
  5
32A
100
AcDbEntity
  8
RACCORDO
100
AcDbPolyline
 62
7
  6
CONTINUOUS
 90
12
 70
0
 10
64.9372363674
 20
169.5504353586
 10
64.9375079437
 20
169.5620862137
 10
64.9400234873
 20
169.5876627872
 10
64.945166042
 20
169.6129022122
 10
64.9529132969
 20
169.637572654
 10
64.9632177988
 20
169.6614125989
 10
64.9759936866
 20
169.6841397019
 10
64.9911311868
 20
169.705493835
 10
65.0085003682
 20
169.725231992
 10
65.0279261861
 20
169.7431027653
 10
65.0491823916
 20
169.7588618471
 10
65.060270847
 20
169.7657961598
  0
LWPOLYLINE
  5
32B
100
AcDbEntity
  8
0
100
AcDbPolyline
 62
7
  6
CONTINUOUS
 90
13
 70
0
 10
64.0185149576
 20
150.2507189569
 10
64.0151971348
 20
150.1487204362
 10
64.0044672818
 20
150.0188936665
 10
63.9864672735
 20
149.8943641811
 10
63.9612083438
 20
149.7758315813
 10
63.9288138292
 20
149.6640819084
 10
63.8895520321
 20
149.5600640323
 10
63.8437752602
 20
149.4644706146
 10
63.7917773085
 20
149.3776252849
 10
63.7338077074
 20
149.2998028241
 10
63.6703644247
 20
149.2314281634
 10
63.6015598202
 20
149.1723943246
 10
63.5295234912
 20
149.1239095175
  0
LWPOLYLINE
  5
32C
100
AcDbEntity
  8
0
100
AcDbPolyline
 62
253
  6
CONTINUOUS
 90
52
 70
0
 10
64.0917449885
 20
150.1485752462
 10
64.0860903694
 20
150.002960828
 10
64.0727986402
 20
149.8632522773
 10
64.0518684814
 20
149.729448871
 10
64.0231477034
 20
149.6009937272
 10
63.9867862771
 20
149.4784425149
 10
63.9432344268
 20
149.3634623796
 10
63.8924217029
 20
149.2562517468
 10
63.8344126636
 20
149.1566088998
 10
63.7698572392
 20
149.0655991851
 10
63.698678993
 20
148.9833033725
 10
63.6209467963
 20
148.9096364412
 10
63.5375265881
 20
148.8454139443
 10
63.4483439522
 20
148.7907342085
 10
63.3534649206
 20
148.7454941772
 10
63.2539647729
 20
148.7102065707
 10
63.1497878484
 20
148.6849840886
 10
63.0409816944
 20
148.6697094409
 10
62.9287757572
 20
148.6645499942
 10
62.8131301258
 20
148.6696177989
 10
62.6940779827
 20
148.68479699
 10
62.5729584049
 20
148.7099130533
 10
62.4497433863
 20
148.7450772742
 10
62.3244564968
 20
148.7901758488
 10
62.1985146396
 20
148.8446968916
 10
62.0719112346
 20
148.9087454883
 10
61.9446513127
 20
148.9822156733
 10
61.8181699106
 20
149.0642793908
 10
61.6924741809
 20
149.1550357171
 10
61.5675585183
 20
149.2543864551
 10
61.4448395387
 20
149.3612080465
 10
61.3243461982
 20
149.4755841549
 10
61.206053976
 20
149.5974336347
 10
61.0912997353
 20
149.7253859769
 10
60.9801244391
 20
149.8595143652
 10
60.8724938529
 20
149.9997494307
 10
60.7696320337
 20
150.1445068279
 10
60.6715958592
 20
150.2938433622
 10
60.5783365654
 20
150.4477068188
 10
60.4909191026
 20
150.6043489536
 10
60.4094188413
 20
150.7637906167
 10
60.333768796
 20
150.9260156883
 10
60.2648190518
 20
151.0892197122
 10
60.2026458128
 20
151.2534053999
 10
60.1471804457
 20
151.4185742941
 10
60.0990538263
 20
151.5829190783
 10
60.058340338
 20
151.7465577241
 10
60.0249714879
 20
151.9093755505
 10
59.9993610363
 20
152.0692146807
 10
59.9816470159
 20
152.225355873
 10
59.9716936303
 20
152.3785195916
 10
59.9695022072
 20
152.5287065643
  0
LWPOLYLINE
  5
32D
100
AcDbEntity
  8
RACCORDO
100
AcDbPolyline
 62
253
  6
CONTINUOUS
 90
16
 70
0
 10
65.0104596721
 20
169.448367913
 10
65.0114216352
 20
169.4701885864
 10
65.0142970555
 20
169.4928826311
 10
65.0190546395
 20
169.5162030596
 10
65.0256426107
 20
169.5398960719
 10
65.0339892697
 20
169.5637038033
 10
65.0440037709
 20
169.5873671313
 10
65.0555771169
 20
169.6106285129
 10
65.0685833514
 20
169.6332347936
 10
65.082880925
 20
169.654939948
 10
65.0983142319
 20
169.6755077524
 10
65.1147153053
 20
169.6947143608
 10
65.1319056499
 20
169.7123507456
 10
65.1496981788
 20
169.7282249651
 10
65.1678992486
 20
169.7421642536
 10
65.1863107711
 20
169.7540169048
  0
LWPOLYLINE
  5
32E
100
AcDbEntity
  8
RACCORDO
100
AcDbPolyline
 62
253
  6
CONTINUOUS
 90
13
 70
0
 10
69.2355065299
 20
166.8903576319
 10
69.2252488777
 20
166.8671212467
 10
69.2131777512
 20
166.8452703236
 10
69.1994267535
 20
166.8250433886
 10
69.1841509383
 20
166.8066643766
 10
69.1675160164
 20
166.7903289375
 10
69.1496939312
 20
166.7762065552
 10
69.1308669003
 20
166.7644479554
 10
69.1112511696
 20
166.7551942029
 10
69.0910866875
 20
166.7485562848
 10
69.0705977242
 20
166.7446002904
 10
69.050007127
 20
166.7433616458
 10
69.0368780301
 20
166.7439993197
  0
LWPOLYLINE
  5
32F
100
AcDbEntity
  8
RACCORDO
100
AcDbPolyline
 62
253
  6
CONTINUOUS
 90
7
 70
0
 10
58.4089959938
 20
144.744355743
 10
58.3983564018
 20
144.72663443
 10
58.3842379738
 20
144.6978331822
 10
58.3729984956
 20
144.6686321238
 10
58.3648301753
 20
144.6395308396
 10
58.3598726874
 20
144.6110272423
 10
58.358210755
 20
144.5836089663
  0
LWPOLYLINE
  5
330
100
AcDbEntity
  8
0
100
AcDbPolyline
 62
7
  6
CONTINUOUS
 90
5
 70
0
 10
64.0502740284
 20
152.5045107904
 10
64.0503208047
 20
152.5045569609
 10
64.0515382975
 20
152.5055130488
 10
64.0544607736
 20
152.5074734298
 10
64.0591256186
 20
152.5102485652
  0
LWPOLYLINE
  5
331
100
AcDbEntity
  8
0
100
AcDbPolyline
 62
253
  6
CONTINUOUS
 90
6
 70
0
 10
56.5463414492
 20
146.6853987815
 10
56.5336486095
 20
146.674060805
 10
56.524665821
 20
146.6636771326
 10
56.519350544
 20
146.654882299
 10
56.5170007581
 20
146.6491087185
 10
56.5172480031
 20
146.6467017314
  0
LINE
  5
332
100
AcDbEntity
  8
0
100
AcDbLine
 62
7
  6
CONTINUOUS
 10
77.8585718141
 20
164.5254111303
 11
78.6139323051
 21
164.9925373886
  0
LINE
  5
333
100
AcDbEntity
  8
0
100
AcDbLine
 62
7
  6
CONTINUOUS
 10
80.3153081365
 20
165.429971618
 11
79.9458640267
 21
165.2015018388
  0
LWPOLYLINE
  5
334
100
AcDbEntity
  8
0
100
AcDbPolyline
 62
7
  6
CONTINUOUS
 90
3
 70
0
 10
80.3153115362
 20
165.4299737202
 10
80.3170456763
 20
165.4310101504
 10
80.3188006149
 20
165.4319882704
  0
LINE
  5
335
100
AcDbEntity
  8
0
100
AcDbLine
 62
253
  6
CONTINUOUS
 10
62.1376993557
 20
153.6087929076
 11
61.5373035394
 21
153.2560280912
  0
LINE
  5
336
100
AcDbEntity
  8
0
100
AcDbLine
 62
253
  6
CONTINUOUS
 10
89.4972015003
 20
169.9701338226
 11
85.8020296064
 21
167.8365805114
  0
LINE
  5
337
100
AcDbEntity
  8
RACCORDO
100
AcDbLine
 62
7
  6
CONTINUOUS
 10
84.4984961601
 20
166.0267700901
 11
79.8513691722
 21
163.3747949114
  0
LINE
  5
338
100
AcDbEntity
  8
0
100
AcDbLine
 62
253
  6
CONTINUOUS
 10
61.5373035394
 20
153.2148411993
 11
60.3214909436
 21
152.5251152879
  0
LINE
  5
339
100
AcDbEntity
  8
0
100
AcDbLine
 62
7
  6
CONTINUOUS
 10
80.8259655059
 20
165.7047251363
 11
80.3188041124
 21
165.4319901512
  0
LWPOLYLINE
  5
33A
100
AcDbEntity
  8
0
100
AcDbPolyline
 62
253
  6
CONTINUOUS
 90
19
 70
0
 10
80.417033058
 20
165.4210961103
 10
80.9292558339
 20
165.6965196126
 10
80.935336878
 20
165.699452426
 10
80.9413906584
 20
165.7020671606
 10
80.9474059058
 20
165.7043589492
 10
80.953371423
 20
165.7063235257
 10
80.9592761051
 20
165.707957233
 10
80.9651089606
 20
165.70925703
 10
80.9708591316
 20
165.710220497
 10
80.9765159143
 20
165.7108458406
 10
80.9820687785
 20
165.7111318967
 10
80.9875073875
 20
165.7110781329
 10
80.9928216175
 20
165.7106846491
 10
80.998001576
 20
165.709952178
 10
81.0030376206
 20
165.7088820829
 10
81.0079203766
 20
165.7074763558
 10
81.0126407548
 20
165.7057376135
 10
81.0171899682
 20
165.7036690928
 10
81.0206955348
 20
165.7017822113
  0
LWPOLYLINE
  5
33B
100
AcDbEntity
  8
RACCORDO
100
AcDbPolyline
 62
7
  6
CONTINUOUS
 90
12
 70
0
 10
85.8679474047
 20
166.0065200943
 10
85.9198893357
 20
166.0339046982
 10
85.9713634152
 20
166.0565236893
 10
86.0223696433
 20
166.0743770678
 10
86.0733601679
 20
166.0875873047
 10
86.1238828411
 20
166.096031929
 10
86.1725812192
 20
166.0993435269
 10
86.2193023611
 20
166.0972820603
 10
86.264199208
 20
166.0900875673
 10
86.3063741401
 20
166.0781127486
 10
86.3455576677
 20
166.0614546398
 10
86.3618787268
 20
166.0526432031
  0
LWPOLYLINE
  5
33C
100
AcDbEntity
  8
RACCORDO
100
AcDbPolyline
 62
253
  6
CONTINUOUS
 90
8
 70
0
 10
83.0967831712
 20
161.8198029813
 10
83.1111003134
 20
161.824777063
 10
83.1266937133
 20
161.8273067987
 10
83.1431811241
 20
161.8273210675
 10
83.1603385199
 20
161.8248520481
 10
83.1779574439
 20
161.8199700005
 10
83.1958529968
 20
161.8127649151
 10
83.2138312297
 20
161.8033504021
  0
LINE
  5
33D
100
AcDbEntity
  8
0
100
AcDbLine
 62
7
  6
CONTINUOUS
 10
67.7017949654
 20
140.2480313195
 11
67.7006353204
 21
140.2477044831
  0
LWPOLYLINE
  5
33E
100
AcDbEntity
  8
0
100
AcDbPolyline
 62
7
  6
CONTINUOUS
 90
12
 70
0
 10
67.7006353204
 20
140.2477044831
 10
67.6969251258
 20
140.2467105913
 10
67.6776235008
 20
140.2425042457
 10
67.657081226
 20
140.2397433979
 10
67.6355875153
 20
140.2386881911
 10
67.6132380713
 20
140.2395543697
 10
67.5899468894
 20
140.2426109431
 10
67.5659229675
 20
140.2481554153
 10
67.5415731257
 20
140.2564307486
 10
67.5171964997
 20
140.2676929503
 10
67.4930143401
 20
140.2822888078
 10
67.4698085001
 20
140.3002348694
  0
LWPOLYLINE
  5
33F
100
AcDbEntity
  8
0
100
AcDbPolyline
 62
7
  6
CONTINUOUS
 90
46
 70
0
 10
67.7041251952
 20
140.2486924485
 10
67.7657245195
 20
140.2640497266
 10
67.868614225
 20
140.2791534619
 10
67.9761158446
 20
140.2827197609
 10
68.0871636424
 20
140.2750441431
 10
68.2011279135
 20
140.2565429171
 10
68.318076903
 20
140.2273926805
 10
68.437228058
 20
140.1879083766
 10
68.5577585334
 20
140.1385183668
 10
68.6799579854
 20
140.0791366977
 10
68.8032779452
 20
140.0099804355
 10
68.926910191
 20
139.9314783776
 10
69.0509348023
 20
139.8434780392
 10
69.1749850382
 20
139.7460653297
 10
69.2981522007
 20
139.6397981896
 10
69.4197717194
 20
139.5251113031
 10
69.539250902
 20
139.4024604904
 10
69.6559766025
 20
139.2723901462
 10
69.7693059904
 20
139.1355194509
 10
69.8786858802
 20
138.9924595906
 10
69.9835892673
 20
138.8438619402
 10
70.0834635813
 20
138.6904523726
 10
70.1778454652
 20
138.5329253544
 10
70.2662880719
 20
138.3720319514
 10
70.3483198044
 20
138.2086216663
 10
70.4235810827
 20
138.0434583127
 10
70.4917477109
 20
137.8773341413
 10
70.5524715533
 20
137.7111727446
 10
70.6055264439
 20
137.545759248
 10
70.6507330823
 20
137.3818852541
 10
70.6879008993
 20
137.2205038954
 10
70.7169132198
 20
137.0626804664
 10
70.737839858
 20
136.9088316712
 10
70.7507355689
 20
136.7590146476
 10
70.7555711882
 20
136.6143066911
 10
70.7524222698
 20
136.4751067796
 10
70.7412005202
 20
136.3407858176
 10
70.7216997873
 20
136.2116945021
 10
70.6939510884
 20
136.089431613
 10
70.6581966694
 20
135.9754642117
 10
70.614785042
 20
135.8706920229
 10
70.5640332852
 20
135.7756022866
 10
70.5063657325
 20
135.690785455
 10
70.4424416789
 20
135.6167654861
 10
70.37240243
 20
135.5533387161
 10
70.2907532807
 20
135.4970798978
  0
LWPOLYLINE
  5
340
100
AcDbEntity
  8
0
100
AcDbPolyline
 62
253
  6
CONTINUOUS
 90
50
 70
0
 10
67.457312345
 20
140.3853959904
 10
67.5678475318
 20
140.4112907527
 10
67.6821900006
 20
140.4260666401
 10
67.8003351086
 20
140.429720942
 10
67.922788237
 20
140.4221677577
 10
68.0490363089
 20
140.4034884991
 10
68.1775475461
 20
140.3739317484
 10
68.3083537125
 20
140.3333695097
 10
68.4414181315
 20
140.2819269173
 10
68.5751069766
 20
140.2202326065
 10
68.7094279333
 20
140.1481592369
 10
68.8443719791
 20
140.0658333705
 10
68.9782811145
 20
139.974265014
 10
69.1111427017
 20
139.8733414874
 10
69.2429718173
 20
139.7631768905
 10
69.3721528737
 20
139.6451218882
 10
69.498656789
 20
139.5190801375
 10
69.6225185048
 20
139.385151396
 10
69.7422189285
 20
139.244980748
 10
69.8577109589
 20
139.0984930063
 10
69.9690501219
 20
138.9457682749
 10
70.0748710662
 20
138.7886844622
 10
70.1751104633
 20
138.6271898086
 10
70.2698413979
 20
138.4613417808
 10
70.3579021006
 20
138.293181525
 10
70.4392147025
 20
138.1226824334
 10
70.5138667288
 20
137.9498767809
 10
70.580942565
 20
137.7768929109
 10
70.6403520291
 20
137.603730335
 10
70.6921934404
 20
137.4303943393
 10
70.7358311773
 20
137.2590203175
 10
70.7711656824
 20
137.0896336645
 10
70.7983019341
 20
136.9222122071
 10
70.816907727
 20
136.7588180008
 10
70.826877558
 20
136.5995012871
 10
70.8283188367
 20
136.4442129905
 10
70.8212149996
 20
136.2948639999
 10
70.8054585123
 20
136.1515273216
 10
70.7811550211
 20
136.0141288805
 10
70.7486040063
 20
135.8843567436
 10
70.7077001292
 20
135.7623038748
 10
70.6585433251
 20
135.6478741572
 10
70.6017375978
 20
135.5424700326
 10
70.5371840145
 20
135.446200728
 10
70.4649733865
 20
135.3589522391
 10
70.3859915741
 20
135.2817905226
 10
70.3001501227
 20
135.2148371065
 10
70.2075278418
 20
135.157964763
 10
70.109259551
 20
135.1118651605
 10
70.005271258
 20
135.0766676995
  0
LWPOLYLINE
  5
341
100
AcDbEntity
  8
0
100
AcDbPolyline
 62
253
  6
CONTINUOUS
 90
12
 70
0
 10
67.7006353204
 20
140.2477044831
 10
67.6881776875
 20
140.2447882355
 10
67.6635564826
 20
140.2422098613
 10
67.6376706158
 20
140.2434520103
 10
67.6103310764
 20
140.2485286112
 10
67.5837032004
 20
140.2579556497
 10
67.5584947909
 20
140.2713385606
 10
67.5339954462
 20
140.2880331752
 10
67.5113422028
 20
140.308243381
 10
67.491156353
 20
140.3317624542
 10
67.4731330763
 20
140.3577393262
 10
67.4573116863
 20
140.3855413132
  0
LINE
  5
342
100
AcDbEntity
  8
0
100
AcDbLine
 62
7
  6
CONTINUOUS
 10
56.7178587212
 20
147.6800917209
 11
58.4012560905
 21
146.7081191779
  0
LINE
  5
343
100
AcDbEntity
  8
0
100
AcDbLine
 62
253
  6
CONTINUOUS
 10
56.5423971988
 20
147.8654601757
 11
58.4731795354
 21
146.7506506529
  0
LINE
  5
344
100
AcDbEntity
  8
0
100
AcDbLine
 62
7
  6
CONTINUOUS
 10
65.6974031642
 20
143.1679714017
 11
67.3804224088
 21
142.196217183
  0
LINE
  5
345
100
AcDbEntity
  8
0
100
AcDbLine
 62
253
  6
CONTINUOUS
 10
65.5217435626
 20
143.3537906711
 11
67.4525416327
 21
142.238972064
  0
LWPOLYLINE
  5
346
100
AcDbEntity
  8
0
100
AcDbPolyline
 62
7
  6
CONTINUOUS
 90
11
 70
0
 10
56.718248283
 20
147.6798675833
 10
56.6958243639
 20
147.694037851
 10
56.6753945504
 20
147.7090062817
 10
56.6555942306
 20
147.7254096401
 10
56.6366365637
 20
147.7430119129
 10
56.6185033717
 20
147.7617085863
 10
56.6011875152
 20
147.7813545874
 10
56.5849270157
 20
147.8016830849
 10
56.5697787653
 20
147.8225283509
 10
56.5556165868
 20
147.8438238684
 10
56.5423971988
 20
147.8654601757
  0
LWPOLYLINE
  5
347
100
AcDbEntity
  8
0
100
AcDbPolyline
 62
7
  6
CONTINUOUS
 90
11
 70
0
 10
65.6977963926
 20
143.1677451633
 10
65.6750616195
 20
143.1821306314
 10
65.6546484555
 20
143.1971214153
 10
65.6348650216
 20
143.2135461349
 10
65.615922769
 20
143.2311704442
 10
65.5978035214
 20
143.249890248
 10
65.5805004223
 20
143.2695604229
 10
65.564250682
 20
143.2899155524
 10
65.5491112173
 20
143.3107905841
 10
65.5349565041
 20
143.3321187465
 10
65.5217435626
 20
143.3537906711
  0
LINE
  5
348
100
AcDbEntity
  8
0
100
AcDbLine
 62
7
  6
CONTINUOUS
 10
69.6182267036
 20
137.7164770847
 11
69.6295961201
 21
137.7017538997
  0
LWPOLYLINE
  5
349
100
AcDbEntity
  8
RACCORDO
100
AcDbPolyline
 62
253
  6
CONTINUOUS
 90
16
 70
0
 10
82.5998246943
 20
120.2375820309
 10
82.5895670394
 20
120.2513243081
 10
82.5774959097
 20
120.2660377818
 10
82.5637449086
 20
120.2815604846
 10
82.5484690905
 20
120.2977184838
 10
82.5318341662
 20
120.3143374879
 10
82.5140120777
 20
120.3312455503
 10
82.4951850405
 20
120.3482681186
 10
82.4755693024
 20
120.3652080767
 10
82.4554048162
 20
120.3818587902
 10
82.4349158546
 20
120.398037122
 10
82.4143252628
 20
120.4135691289
 10
82.3938772659
 20
120.428273508
 10
82.3737995057
 20
120.4419908646
 10
82.3543006537
 20
120.4545829983
 10
82.3355876681
 20
120.4659203804
  0
LWPOLYLINE
  5
34A
100
AcDbEntity
  8
0
100
AcDbPolyline
 62
253
  6
CONTINUOUS
 90
12
 70
0
 10
69.5123490571
 20
137.6882710709
 10
69.6331423283
 20
137.5259658256
 10
69.7401805175
 20
137.3928303102
 10
69.8509107421
 20
137.2655429859
 10
69.9648844594
 20
137.1446169945
 10
70.0816455732
 20
137.0305338543
 10
70.2007328892
 20
136.9237431961
 10
70.3216702652
 20
136.8246723015
 10
70.4439694279
 20
136.7337214598
 10
70.5671404622
 20
136.6512552081
 10
70.6906897701
 20
136.5776045376
 10
70.7539921781
 20
136.5445055598
  0
LWPOLYLINE
  5
34B
100
AcDbEntity
  8
0
100
AcDbPolyline
 62
7
  6
CONTINUOUS
 90
16
 70
0
 10
68.9637125512
 20
137.46440099
 10
69.0692291403
 20
137.3162161286
 10
69.1785448207
 20
137.1748309448
 10
69.2916595922
 20
137.0402454386
 10
69.4091213687
 20
136.9119104553
 10
69.5303822364
 20
136.7903751496
 10
69.6537984543
 20
136.6772869851
 10
69.779399372
 20
136.5727609858
 10
69.9071556398
 20
136.4766821277
 10
70.0353354684
 20
136.3903528022
 10
70.1639446254
 20
136.3139057681
 10
70.2929773431
 20
136.2472082666
 10
70.4206845285
 20
136.191164413
 10
70.5470481319
 20
136.1459192773
 10
70.672086203
 20
136.1113277894
 10
70.6977982104
 20
136.1063823269
  0
LINE
  5
34C
100
AcDbEntity
  8
0
100
AcDbLine
 62
253
  6
CONTINUOUS
 10
60.7224608461
 20
150.9110550761
 11
60.6535612764
 21
151.0589480676
  0
LWPOLYLINE
  5
34D
100
AcDbEntity
  8
RACCORDO
100
AcDbPolyline
 62
253
  6
CONTINUOUS
 90
8
 70
0
 10
66.3372967466
 20
168.3606791965
 10
66.3384920474
 20
168.3376727446
 10
66.3420617854
 20
168.3163577189
 10
66.347957686
 20
168.2970223685
 10
66.3561000173
 20
168.2799281708
 10
66.3663786683
 20
168.2653062956
 10
66.3786546376
 20
168.2533544789
 10
66.3890674019
 20
168.2462449812
  0
LWPOLYLINE
  5
34E
100
AcDbEntity
  8
RACCORDO
100
AcDbPolyline
 62
253
  6
CONTINUOUS
 90
9
 70
0
 10
64.9372363684
 20
169.5504239181
 10
64.937681102
 20
169.5418303981
 10
64.9406231969
 20
169.5267570284
 10
64.9462586107
 20
169.5120078761
 10
64.9545006424
 20
169.4977261695
 10
64.9652101448
 20
169.4840888461
 10
64.978223235
 20
169.4712407391
 10
64.993370956
 20
169.4592967183
 10
65.0104596721
 20
169.448367913
  0
LWPOLYLINE
  5
34F
100
AcDbEntity
  8
0
100
AcDbPolyline
 62
7
  6
CONTINUOUS
 90
11
 70
0
 10
67.4421047576
 20
134.9401766432
 10
67.443299284
 20
134.9161557425
 10
67.4461779472
 20
134.8908885182
 10
67.4507654671
 20
134.8655514214
 10
67.4567334083
 20
134.8402785996
 10
67.4640622732
 20
134.8151472114
 10
67.472750108
 20
134.7903000835
 10
67.4825094056
 20
134.7659508485
 10
67.4932258022
 20
134.742223502
 10
67.5049533942
 20
134.7191513446
 10
67.517652911
 20
134.6967973741
  0
LWPOLYLINE
  5
350
100
AcDbEntity
  8
RACCORDO
100
AcDbPolyline
 62
253
  6
CONTINUOUS
 90
9
 70
0
 10
64.9372363675
 20
169.2288429298
 10
64.9376341309
 20
169.2207075503
 10
64.9404692695
 20
169.2057081846
 10
64.9459940958
 20
169.1909755779
 10
64.9541415876
 20
169.17666816
 10
64.964804956
 20
169.1629532261
 10
64.9778504829
 20
169.1499800596
 10
64.9931274941
 20
169.1378800183
 10
65.0104596721
 20
169.1267782941
  0
LWPOLYLINE
  5
351
100
AcDbEntity
  8
0
100
AcDbPolyline
 62
253
  6
CONTINUOUS
 90
37
 70
0
 10
65.2569878789
 20
173.5704606976
 10
65.2567462145
 20
173.5775990056
 10
65.2562406481
 20
173.5848817931
 10
65.2554721418
 20
173.5922952023
 10
65.2544421578
 20
173.599825127
 10
65.2531526561
 20
173.6074572391
 10
65.2516060904
 20
173.6151770159
 10
65.2498054034
 20
173.6229697681
 10
65.2477540215
 20
173.6308206676
 10
65.2454558482
 20
173.6387147756
 10
65.2429152565
 20
173.6466370709
 10
65.2401370806
 20
173.6545724789
 10
65.2371266069
 20
173.6625058999
 10
65.2338895638
 20
173.6704222381
 10
65.2304321109
 20
173.6783064301
 10
65.2267608269
 20
173.6861434737
 10
65.2228826978
 20
173.6939184565
 10
65.2188051028
 20
173.7016165841
 10
65.2145358009
 20
173.7092232082
 10
65.2100829159
 20
173.716723855
 10
65.2054549206
 20
173.7241042519
 10
65.2006606215
 20
173.7313503556
 10
65.1957091411
 20
173.7384483779
 10
65.1906099013
 20
173.7453848125
 10
65.1853726049
 20
173.7521464608
 10
65.1800072176
 20
173.7587204566
 10
65.1745239488
 20
173.7650942906
 10
65.168933232
 20
173.7712558346
 10
65.1632457055
 20
173.7771933644
 10
65.1574721916
 20
173.782895582
 10
65.1516236762
 20
173.7883516369
 10
65.145711288
 20
173.7935511474
 10
65.1397462771
 20
173.7984842196
 10
65.133739994
 20
173.803141467
 10
65.1277038675
 20
173.8075140275
 10
65.1216493832
 20
173.811593581
 10
65.1155880618
 20
173.8153723648
  0
LWPOLYLINE
  5
352
100
AcDbEntity
  8
RACCORDO
100
AcDbPolyline
 62
7
  6
CONTINUOUS
 90
12
 70
0
 10
66.4163403296
 20
177.2306185867
 10
66.4145308262
 20
177.2895810608
 10
66.4088306135
 20
177.3457814825
 10
66.3992396914
 20
177.3992198519
 10
66.3856418636
 20
177.4503466142
 10
66.3681533264
 20
177.4987113242
 10
66.347122669
 20
177.5429626461
 10
66.3224224027
 20
177.5828519163
 10
66.2941800161
 20
177.6186277985
 10
66.2631265647
 20
177.6496849482
 10
66.2294760168
 20
177.6758421152
 10
66.209335463
 20
177.6884691129
  0
LWPOLYLINE
  5
353
100
AcDbEntity
  8
0
100
AcDbPolyline
 62
7
  6
CONTINUOUS
 90
37
 70
0
 10
65.6385228703
 20
173.7907534895
 10
65.6383879741
 20
173.7979542686
 10
65.637984502
 20
173.8052967603
 10
65.6373130486
 20
173.8127668756
 10
65.6363745722
 20
173.8203501854
 10
65.6351708612
 20
173.8280322595
 10
65.6337045266
 20
173.8357986956
 10
65.6319782502
 20
173.8436346569
 10
65.6299951594
 20
173.8515251216
 10
65.6277592859
 20
173.8594552239
 10
65.6252748155
 20
173.8674098181
 10
65.6225463445
 20
173.8753736977
 10
65.6195792418
 20
173.8833318477
 10
65.6163791127
 20
173.8912691051
 10
65.6129519492
 20
173.8991703054
 10
65.6093043768
 20
173.9070205015
 10
65.6054433344
 20
173.9148047501
 10
65.6013761011
 20
173.9225082077
 10
65.5971104349
 20
173.9301162747
 10
65.5926544826
 20
173.937614494
 10
65.5880166909
 20
173.944988582
 10
65.5832058245
 20
173.9522245201
 10
65.5782310986
 20
173.9593085826
 10
65.5731019854
 20
173.9662272884
 10
65.5678281166
 20
173.9729674258
 10
65.5624196292
 20
173.9795162234
 10
65.5568868523
 20
173.9858612449
 10
65.551240105
 20
173.9919903329
 10
65.5454902585
 20
173.9978919033
 10
65.5396483367
 20
174.003554758
 10
65.5337251981
 20
174.0089679721
 10
65.5277322886
 20
174.0141213258
 10
65.5216811166
 20
174.0190050775
 10
65.5155828496
 20
174.0236097647
 10
65.5094490908
 20
174.0279266229
 10
65.5032918571
 20
174.0319476068
 10
65.4971230532
 20
174.0356651566
  0
LWPOLYLINE
  5
354
100
AcDbEntity
  8
0
100
AcDbPolyline
 62
253
  6
CONTINUOUS
 90
10
 70
0
 10
65.5880007025
 20
135.8109543751
 10
65.5756975159
 20
136.5712964085
 10
65.5644312753
 20
137.3488348669
 10
65.5542847763
 20
138.1436162338
 10
65.5453701963
 20
138.9528623149
 10
65.5377361626
 20
139.7794403355
 10
65.5314179409
 20
140.6318925066
 10
65.5265402361
 20
141.5131298456
 10
65.5232670018
 20
142.4204025384
 10
65.5217435626
 20
143.3537906711
  0
LINE
  5
355
100
AcDbEntity
  8
0
100
AcDbLine
 62
253
  6
CONTINUOUS
 10
67.5105938315
 20
135.1310689348
 11
67.517652911
 21
134.6967973741
  0
LWPOLYLINE
  5
356
100
AcDbEntity
  8
0
100
AcDbPolyline
 62
253
  6
CONTINUOUS
 90
10
 70
0
 10
65.9365769681
 20
136.0161353577
 10
65.9250610205
 20
136.7382605283
 10
65.9146284298
 20
137.4760886977
 10
65.905279196
 20
138.2296198658
 10
65.8969397564
 20
138.996318199
 10
65.8896836738
 20
139.778719531
 10
65.8837316359
 20
140.5844313625
 10
65.8791572053
 20
141.4159895273
 10
65.8758868194
 20
142.2708581917
 10
65.874106531
 20
143.0659450923
  0
LINE
  5
357
100
AcDbEntity
  8
0
100
AcDbLine
 62
7
  6
CONTINUOUS
 10
67.434866119
 20
135.3934360353
 11
67.4420856415
 21
134.9401726405
  0
LINE
  5
358
100
AcDbEntity
  8
0
100
AcDbLine
 62
7
  6
CONTINUOUS
 10
67.4283303214
 20
135.8301470585
 11
67.434866119
 21
135.3934360353
  0
LINE
  5
359
100
AcDbEntity
  8
0
100
AcDbLine
 62
253
  6
CONTINUOUS
 10
67.5011725051
 20
135.7545408252
 11
67.5105938315
 21
135.1310689348
  0
LINE
  5
35A
100
AcDbEntity
  8
0
100
AcDbLine
 62
7
  6
CONTINUOUS
 10
67.4222027273
 20
136.2671055502
 11
67.4283303214
 21
135.8301470585
  0
LINE
  5
35B
100
AcDbEntity
  8
0
100
AcDbLine
 62
7
  6
CONTINUOUS
 10
67.4173117053
 20
136.6389906464
 11
67.4222027273
 21
136.2671055502
  0
LWPOLYLINE
  5
35C
100
AcDbEntity
  8
0
100
AcDbPolyline
 62
253
  6
CONTINUOUS
 90
3
 70
0
 10
67.4905251736
 20
136.5378009082
 10
67.4929974405
 20
136.3469782707
 10
67.5011725051
 20
135.7545408252
  0
LINE
  5
35D
100
AcDbEntity
  8
0
100
AcDbLine
 62
7
  6
CONTINUOUS
 10
67.3823917133
 20
140.9019457324
 11
67.3840884993
 21
140.4875507994
  0
LINE
  5
35E
100
AcDbEntity
  8
0
100
AcDbLine
 62
253
  6
CONTINUOUS
 10
67.4555389367
 20
140.8208248608
 11
67.457312345
 21
140.3853959904
  0
LINE
  5
35F
100
AcDbEntity
  8
0
100
AcDbLine
 62
7
  6
CONTINUOUS
 10
67.3810161514
 20
141.3316236915
 11
67.3823917133
 21
140.9019457324
  0
LINE
  5
360
100
AcDbEntity
  8
0
100
AcDbLine
 62
253
  6
CONTINUOUS
 10
67.453697117
 20
141.4448019903
 11
67.4555389367
 21
140.8208248608
  0
LINE
  5
361
100
AcDbEntity
  8
0
100
AcDbLine
 62
7
  6
CONTINUOUS
 10
67.3800302964
 20
141.7615317597
 11
67.3810161514
 21
141.3316236915
  0
LINE
  5
362
100
AcDbEntity
  8
0
100
AcDbLine
 62
7
  6
CONTINUOUS
 10
67.3794294002
 20
142.1967905583
 11
67.3800302964
 21
141.7615317597
  0
LWPOLYLINE
  5
363
100
AcDbEntity
  8
0
100
AcDbPolyline
 62
253
  6
CONTINUOUS
 90
3
 70
0
 10
67.4525416327
 20
142.238972064
 10
67.4527023892
 20
142.04384289
 10
67.453697117
 20
141.4448019903
  0
LINE
  5
364
100
AcDbEntity
  8
RACCORDO
100
AcDbLine
 62
253
  6
CONTINUOUS
 10
65.0104596721
 20
169.1267782941
 11
65.0104596721
 21
169.448367913
  0
LINE
  5
365
100
AcDbEntity
  8
0
100
AcDbLine
 62
7
  6
CONTINUOUS
 10
65.6385228703
 20
173.7907534895
 11
65.6385228703
 21
173.529432081
  0
LINE
  5
366
100
AcDbEntity
  8
RACCORDO
100
AcDbLine
 62
7
  6
CONTINUOUS
 10
65.6406407123
 20
168.358218818
 11
65.6406407123
 21
168.6783771717
  0
LINE
  5
367
100
AcDbEntity
  8
RACCORDO
100
AcDbLine
 62
253
  6
CONTINUOUS
 10
65.713864017
 20
168.2529243295
 11
65.713864017
 21
168.6360989533
  0
LINE
  5
368
100
AcDbEntity
  8
0
100
AcDbLine
 62
253
  6
CONTINUOUS
 10
66.1272517119
 20
174.0802182083
 11
66.1272828622
 21
173.8083526636
  0
LINE
  5
369
100
AcDbEntity
  8
0
100
AcDbLine
 62
7
  6
CONTINUOUS
 10
66.1834149021
 20
174.1531757596
 11
66.1834149021
 21
173.8403855254
  0
LINE
  5
36A
100
AcDbEntity
  8
RACCORDO
100
AcDbLine
 62
253
  6
CONTINUOUS
 10
66.3372967466
 20
168.6822688154
 11
66.3372967466
 21
168.3606791965
  0
LINE
  5
36B
100
AcDbEntity
  8
RACCORDO
100
AcDbLine
 62
7
  6
CONTINUOUS
 10
66.4163403296
 20
177.2306185867
 11
66.4163403296
 21
177.1794314166
  0
LINE
  5
36C
100
AcDbEntity
  8
RACCORDO
100
AcDbLine
 62
253
  6
CONTINUOUS
 10
66.6899221176
 20
168.6817357868
 11
66.6899221176
 21
168.3601461678
  0
LINE
  5
36D
100
AcDbEntity
  8
RACCORDO
100
AcDbLine
 62
253
  6
CONTINUOUS
 10
67.0481059641
 20
168.1626723116
 11
67.0481059641
 21
167.4825497512
  0
LINE
  5
36E
100
AcDbEntity
  8
0
100
AcDbLine
 62
7
  6
CONTINUOUS
 10
67.1234471108
 20
142.3445914994
 11
67.1234471108
 21
136.7014181572
  0
LINE
  5
36F
100
AcDbEntity
  8
RACCORDO
100
AcDbLine
 62
253
  6
CONTINUOUS
 10
67.4007313351
 20
168.2948936868
 11
67.4007313351
 21
167.4926580602
  0
LINE
  5
370
100
AcDbEntity
  8
RACCORDO
100
AcDbLine
 62
7
  6
CONTINUOUS
 10
67.4828207797
 20
167.7590584064
 11
67.4828207797
 21
168.0806480254
  0
LINE
  5
371
100
AcDbEntity
  8
RACCORDO
100
AcDbLine
 62
253
  6
CONTINUOUS
 10
67.5560440844
 20
167.6569897581
 11
67.5560440844
 21
167.9785793771
  0
LWPOLYLINE
  5
372
100
AcDbEntity
  8
RACCORDO
100
AcDbPolyline
 62
7
  6
CONTINUOUS
 90
12
 70
0
 10
67.4828207797
 20
168.0806468226
 10
67.483092356
 20
168.0922976777
 10
67.4856078996
 20
168.1178742512
 10
67.4907504543
 20
168.1431136762
 10
67.4984977092
 20
168.167784118
 10
67.5088022111
 20
168.1916240629
 10
67.5215780989
 20
168.214351166
 10
67.536715599
 20
168.2357052991
 10
67.5540847805
 20
168.255443456
 10
67.5735105984
 20
168.2733142293
 10
67.5947668038
 20
168.2890733111
 10
67.6058552593
 20
168.2960076238
  0
LWPOLYLINE
  5
373
100
AcDbEntity
  8
RACCORDO
100
AcDbPolyline
 62
253
  6
CONTINUOUS
 90
16
 70
0
 10
67.5560440844
 20
167.9785793771
 10
67.5570060475
 20
168.0004000504
 10
67.5598814678
 20
168.0230940951
 10
67.5646390517
 20
168.0464145236
 10
67.571227023
 20
168.0701075359
 10
67.579573682
 20
168.0939152673
 10
67.5895881832
 20
168.1175785953
 10
67.6011615292
 20
168.1408399769
 10
67.6141677637
 20
168.1634462576
 10
67.6284653373
 20
168.185151412
 10
67.6438986442
 20
168.2057192164
 10
67.6602997176
 20
168.2249258248
 10
67.6774900622
 20
168.2425622096
 10
67.6952825911
 20
168.2584364292
 10
67.7134836609
 20
168.2723757176
 10
67.7318951833
 20
168.2842283688
  0
LWPOLYLINE
  5
374
100
AcDbEntity
  8
RACCORDO
100
AcDbPolyline
 62
7
  6
CONTINUOUS
 90
6
 70
0
 10
68.8903489306
 20
169.6670784213
 10
68.8865453433
 20
169.6376566657
 10
68.8792642282
 20
169.6088328724
 10
68.8685858339
 20
169.5810172704
 10
68.8546151623
 20
169.5545724706
 10
68.8364244491
 20
169.5285168399
  0
LWPOLYLINE
  5
375
100
AcDbEntity
  8
0
100
AcDbPolyline
 62
7
  6
CONTINUOUS
 90
9
 70
0
 10
79.9010842321
 20
165.1637189437
 10
79.9063215049
 20
165.1694281837
 10
79.9117755702
 20
165.1749299107
 10
79.9174376265
 20
165.1802154013
 10
79.9232967528
 20
165.1852749112
 10
79.9293449763
 20
165.1901021126
 10
79.9355777501
 20
165.1946933801
 10
79.9419860072
 20
165.1990416157
 10
79.9458642133
 20
165.2015019542
  0
LWPOLYLINE
  5
376
100
AcDbEntity
  8
0
100
AcDbPolyline
 62
253
  6
CONTINUOUS
 90
13
 70
0
 10
79.9924138641
 20
165.146133725
 10
79.9967719394
 20
165.1508417659
 10
80.0012111319
 20
165.1554348942
 10
80.0057271696
 20
165.1599060309
 10
80.0103192014
 20
165.1642514606
 10
80.0149790126
 20
165.1684605565
 10
80.0196906765
 20
165.1725170275
 10
80.0244500297
 20
165.1764160184
 10
80.0292505289
 20
165.1801509053
 10
80.0340719335
 20
165.1837056507
 10
80.0389035383
 20
165.1870732623
 10
80.0437444719
 20
165.1902540282
 10
80.417033058
 20
165.4210961103
  0
LWPOLYLINE
  5
377
100
AcDbEntity
  8
0
100
AcDbPolyline
 62
253
  6
CONTINUOUS
 90
23
 70
0
 10
79.9010842321
 20
165.1637189437
 10
79.9017265452
 20
165.1644084425
 10
79.9036662482
 20
165.1661123947
 10
79.9058839392
 20
165.1675622725
 10
79.9083754355
 20
165.1687553414
 10
79.9111360381
 20
165.1696893512
 10
79.9141605402
 20
165.1703625403
 10
79.9174432374
 20
165.170773639
 10
79.9209779384
 20
165.170921872
 10
79.9247579766
 20
165.1708069597
 10
79.9287762225
 20
165.1704291187
 10
79.9330250976
 20
165.1697890619
 10
79.9374965881
 20
165.1688879962
 10
79.9421822606
 20
165.1677276213
 10
79.9470732776
 20
165.1663101256
 10
79.9521604144
 20
165.1646381826
 10
79.9574340763
 20
165.1627149458
 10
79.9628843169
 20
165.1605440423
 10
79.9685008567
 20
165.1581295668
 10
79.9742731026
 20
165.155476073
 10
79.9801901678
 20
165.1525885655
 10
79.9862408923
 20
165.1494724905
 10
79.9924138641
 20
165.146133725
  0
LINE
  5
378
100
AcDbEntity
  8
RACCORDO
100
AcDbLine
 62
7
  6
CONTINUOUS
 10
79.7806584941
 20
161.4199413678
 11
79.4229793448
 21
161.194291835
  0
LWPOLYLINE
  5
379
100
AcDbEntity
  8
0
100
AcDbPolyline
 62
253
  6
CONTINUOUS
 90
8
 70
0
 10
56.8431503935
 20
146.5692429285
 10
56.8505505095
 20
146.5738004849
 10
56.8643632678
 20
146.5856024729
 10
56.8760369159
 20
146.600477845
 10
56.8853946633
 20
146.6182013227
 10
56.8922947926
 20
146.6385044944
 10
56.896632805
 20
146.6610798804
 10
56.8983430037
 20
146.68558559
  0
LINE
  5
37A
100
AcDbEntity
  8
0
100
AcDbLine
 62
7
  6
CONTINUOUS
 10
62.7689031835
 20
151.5992444498
 11
63.3499804077
 21
151.9547015279
  0
LINE
  5
37B
100
AcDbEntity
  8
0
100
AcDbLine
 62
7
  6
CONTINUOUS
 10
63.3499804077
 20
151.9547015279
 11
64.0482869162
 21
152.3817108838
  0
LINE
  5
37C
100
AcDbEntity
  8
0
100
AcDbLine
 62
253
  6
CONTINUOUS
 10
63.9645984606
 20
152.5539642608
 11
62.5997604249
 21
151.7223883981
  0
LINE
  5
37D
100
AcDbEntity
  8
0
100
AcDbLine
 62
253
  6
CONTINUOUS
 10
55.591005066
 20
147.6181394913
 11
55.3702873106
 21
147.4840821531
  0
LWPOLYLINE
  5
37E
100
AcDbEntity
  8
0
100
AcDbPolyline
 62
7
  6
CONTINUOUS
 90
7
 70
0
 10
64.0591256186
 20
152.5102485652
 10
64.0725870746
 20
152.5183752875
 10
64.0813465373
 20
152.523461057
 10
64.0911329649
 20
152.5292130946
 10
64.1018093555
 20
152.5355613331
 10
64.1134253118
 20
152.5423297301
 10
64.1259290971
 20
152.5494044343
  0
LINE
  5
37F
100
AcDbEntity
  8
RACCORDO
100
AcDbLine
 62
7
  6
CONTINUOUS
 10
80.9701746755
 20
160.5796185479
 11
82.5545152311
 21
161.5136560928
  0
LINE
  5
380
100
AcDbEntity
  8
RACCORDO
100
AcDbLine
 62
253
  6
CONTINUOUS
 10
81.0962133478
 20
160.5678385549
 11
82.6797938737
 21
161.5014280294
  0
LWPOLYLINE
  5
381
100
AcDbEntity
  8
0
100
AcDbPolyline
 62
253
  6
CONTINUOUS
 90
13
 70
0
 10
56.8983430037
 20
146.68558559
 10
56.8731843495
 20
146.6708224588
 10
56.8461162421
 20
146.6608741237
 10
56.8172737443
 20
146.6544152469
 10
56.7868361155
 20
146.6491052879
 10
56.7548778874
 20
146.6446215579
 10
56.722026582
 20
146.6434406268
 10
56.6894514322
 20
146.6452685738
 10
56.6577098394
 20
146.6484063848
 10
56.6269434141
 20
146.6543142396
 10
56.5976585626
 20
146.6632721064
 10
56.5706255422
 20
146.6738467058
 10
56.5463414492
 20
146.6853987815
  0
LINE
  5
382
100
AcDbEntity
  8
0
100
AcDbLine
 62
253
  6
CONTINUOUS
 10
90.2042035753
 20
168.7455708091
 11
87.2159638198
 21
167.0201926173
  0
LINE
  5
383
100
AcDbEntity
  8
RACCORDO
100
AcDbLine
 62
7
  6
CONTINUOUS
 10
79.4229793448
 20
162.397304042
 11
85.1054925643
 21
165.6783192028
  0
LINE
  5
384
100
AcDbEntity
  8
0
100
AcDbLine
 62
7
  6
CONTINUOUS
 10
56.0334354189
 20
146.2822678101
 11
55.7873198135
 21
146.1401639817
  0
LINE
  5
385
100
AcDbEntity
  8
RACCORDO
100
AcDbLine
 62
7
  6
CONTINUOUS
 10
82.5545219334
 20
161.513650724
 11
82.5558307474
 21
161.5144064166
  0
LINE
  5
386
100
AcDbEntity
  8
RACCORDO
100
AcDbLine
 62
7
  6
CONTINUOUS
 10
79.7806584941
 20
161.4199413678
 11
85.1054925643
 21
164.4764467334
  0
LINE
  5
387
100
AcDbEntity
  8
RACCORDO
100
AcDbLine
 62
7
  6
CONTINUOUS
 10
85.2290866282
 20
165.6440874296
 11
85.8679474047
 21
166.0065200943
  0
LINE
  5
388
100
AcDbEntity
  8
0
100
AcDbLine
 62
7
  6
CONTINUOUS
 10
54.1077868572
 20
147.9377907741
 11
54.1112853587
 21
147.9397715724
  0
LINE
  5
389
100
AcDbEntity
  8
RACCORDO
100
AcDbLine
 62
7
  6
CONTINUOUS
 10
82.5558307474
 20
161.5144064166
 11
83.0898681034
 21
161.8163287892
  0
LINE
  5
38A
100
AcDbEntity
  8
RACCORDO
100
AcDbLine
 62
253
  6
CONTINUOUS
 10
82.6797938737
 20
161.5014280294
 11
83.2138312297
 21
161.8033504021
  0
LINE
  5
38B
100
AcDbEntity
  8
RACCORDO
100
AcDbLine
 62
253
  6
CONTINUOUS
 10
64.0122421613
 20
150.986497572
 11
64.0278667865
 21
150.9952989567
  0
LWPOLYLINE
  5
38C
100
AcDbEntity
  8
0
100
AcDbPolyline
 62
7
  6
CONTINUOUS
 90
23
 70
0
 10
54.1078054185
 20
147.9377893959
 10
54.1528047376
 20
147.9614231534
 10
54.2389238606
 20
147.9964395526
 10
54.3293806825
 20
148.0209906313
 10
54.4240658884
 20
148.0354827002
 10
54.5235395405
 20
148.0401316912
 10
54.6275337165
 20
148.0348826947
 10
54.7351901586
 20
148.0197819114
 10
54.8462099454
 20
147.9948505239
 10
54.9599590558
 20
147.9602108518
 10
55.0757271805
 20
147.9160995158
 10
55.1932211711
 20
147.8626042667
 10
55.3118405231
 20
147.7999684619
 10
55.4309430937
 20
147.7285366012
 10
55.5503087145
 20
147.6483983752
 10
55.6693869101
 20
147.559860382
 10
55.78760001
 20
147.4633253211
 10
55.9047569309
 20
147.3588720598
 10
56.0203114244
 20
147.2468772633
 10
56.133744049
 20
147.1277717812
 10
56.2449038806
 20
147.0015797326
 10
56.3533697642
 20
146.8685716925
 10
56.458482278
 20
146.7293873881
  0
LWPOLYLINE
  5
38D
100
AcDbEntity
  8
RACCORDO
100
AcDbPolyline
 62
253
  6
CONTINUOUS
 90
9
 70
0
 10
80.9701849302
 20
160.5796245925
 10
80.9781891327
 20
160.5837766549
 10
80.9927502564
 20
160.5888424667
 10
81.0084023508
 20
160.5914060926
 10
81.0249759496
 20
160.5914701271
 10
81.0422455642
 20
160.5890659033
 10
81.0600010098
 20
160.5842626819
 10
81.0780556025
 20
160.577149423
 10
81.0962133478
 20
160.5678385549
  0
LWPOLYLINE
  5
38E
100
AcDbEntity
  8
RACCORDO
100
AcDbPolyline
 62
253
  6
CONTINUOUS
 90
9
 70
0
 10
83.2138312297
 20
161.8033504021
 10
83.2322427787
 20
161.8127589274
 10
83.2504438767
 20
161.8198377841
 10
83.2682364342
 20
161.8245099294
 10
83.2854268113
 20
161.826724514
 10
83.3018279146
 20
161.8264574335
 10
83.3172612357
 20
161.8237115961
 10
83.3315588054
 20
161.818516891
 10
83.3379116733
 20
161.8152040667
  0
LWPOLYLINE
  5
38F
100
AcDbEntity
  8
RACCORDO
100
AcDbPolyline
 62
7
  6
CONTINUOUS
 90
7
 70
0
 10
82.5558307474
 20
161.5144064166
 10
82.5725542958
 20
161.5215949774
 10
82.5917469127
 20
161.525308392
 10
82.6124301483
 20
161.5251117387
 10
82.6342501191
 20
161.5210083822
 10
82.6568334923
 20
161.5130685297
 10
82.6797938737
 20
161.5014280294
  0
LWPOLYLINE
  5
390
100
AcDbEntity
  8
RACCORDO
100
AcDbPolyline
 62
7
  6
CONTINUOUS
 90
3
 70
0
 10
83.136235503
 20
161.8366543295
 10
83.1116040345
 20
161.8272575115
 10
83.0898058758
 20
161.8162935731
  0
LWPOLYLINE
  5
391
100
AcDbEntity
  8
0
100
AcDbPolyline
 62
7
  6
CONTINUOUS
 90
5
 70
0
 10
63.5767000805
 20
150.9858059823
 10
63.4176129872
 20
151.2109153005
 10
63.2509408494
 20
151.4245336769
 10
63.0766836671
 20
151.6266611116
 10
62.9796713357
 20
151.7281878849
  0
LWPOLYLINE
  5
392
100
AcDbEntity
  8
0
100
AcDbPolyline
 62
7
  6
CONTINUOUS
 90
3
 70
0
 10
62.8593722803
 20
151.4581734696
 10
62.762426757
 20
151.6097672286
 10
62.7495930014
 20
151.6308076366
  0
LWPOLYLINE
  5
393
100
AcDbEntity
  8
0
100
AcDbPolyline
 62
253
  6
CONTINUOUS
 90
14
 70
0
 10
62.5997604249
 20
151.7223883981
 10
62.6803038795
 20
151.584896823
 10
62.7653953422
 20
151.4503610913
 10
62.8547472178
 20
151.3192536755
 10
62.9480785163
 20
151.192007216
 10
63.0450506277
 20
151.0691028691
 10
63.1452603739
 20
150.9510578492
 10
63.2483282723
 20
150.8383124125
 10
63.3539225116
 20
150.7312229511
 10
63.4616905178
 20
150.6301458549
 10
63.5712827609
 20
150.5354122927
 10
63.6822934953
 20
150.4473762837
 10
63.794275412
 20
150.3663867631
 10
63.9067124015
 20
150.2927920586
  0
LWPOLYLINE
  5
394
100
AcDbEntity
  8
0
100
AcDbPolyline
 62
253
  6
CONTINUOUS
 90
7
 70
0
 10
67.417312397
 20
136.6389368694
 10
67.4195924502
 20
136.6197539645
 10
67.4260170824
 20
136.6017121131
 10
67.4365483795
 20
136.5838863471
 10
67.4510784425
 20
136.5662222622
 10
67.4692152675
 20
136.550401502
 10
67.4905338785
 20
136.5371127088
  0
LWPOLYLINE
  5
395
100
AcDbEntity
  8
RACCORDO
100
AcDbPolyline
 62
7
  6
CONTINUOUS
 90
13
 70
0
 10
68.2901732998
 20
169.6056998333
 10
68.2885475007
 20
169.6331500474
 10
68.2839408038
 20
169.661886079
 10
68.2764320282
 20
169.6914162638
 10
68.2661496466
 20
169.7212353498
 10
68.2532695874
 20
169.7508331419
 10
68.2380122242
 20
169.7797032314
 10
68.2206386056
 20
169.8073516602
 10
68.2014459887
 20
169.8333053725
 10
68.1807627531
 20
169.8571203087
 10
68.1589427823
 20
169.8783890027
 10
68.1363594091
 20
169.8967475541
 10
68.1133990277
 20
169.9118818537
  0
LWPOLYLINE
  5
396
100
AcDbEntity
  8
RACCORDO
100
AcDbPolyline
 62
253
  6
CONTINUOUS
 90
8
 70
0
 10
68.8828811589
 20
166.8908906605
 10
68.8840764597
 20
166.8678842087
 10
68.8876461976
 20
166.846569183
 10
68.8935420982
 20
166.8272338326
 10
68.9016844295
 20
166.8101396348
 10
68.9119630805
 20
166.7955177596
 10
68.9242390499
 20
166.7835659429
 10
68.9346518142
 20
166.7764564452
  0
LWPOLYLINE
  5
397
100
AcDbEntity
  8
RACCORDO
100
AcDbPolyline
 62
253
  6
CONTINUOUS
 90
9
 70
0
 10
67.4828207807
 20
168.0806353821
 10
67.4832655143
 20
168.0720418622
 10
67.4862076092
 20
168.0569684924
 10
67.4918430229
 20
168.0422193401
 10
67.5000850546
 20
168.0279376336
 10
67.510794557
 20
168.0143003101
 10
67.5238076473
 20
168.0014522031
 10
67.5389553683
 20
167.9895081823
 10
67.5560440844
 20
167.9785793771
  0
LWPOLYLINE
  5
398
100
AcDbEntity
  8
RACCORDO
100
AcDbPolyline
 62
253
  6
CONTINUOUS
 90
9
 70
0
 10
67.4828207798
 20
167.7590543938
 10
67.4832185431
 20
167.7509190144
 10
67.4860536818
 20
167.7359196487
 10
67.491578508
 20
167.721187042
 10
67.4997259999
 20
167.706879624
 10
67.5103893683
 20
167.6931646902
 10
67.5234348952
 20
167.6801915236
 10
67.5387119064
 20
167.6680914823
 10
67.5560440844
 20
167.6569897581
  0
LWPOLYLINE
  5
399
100
AcDbEntity
  8
RACCORDO
100
AcDbPolyline
 62
253
  6
CONTINUOUS
 90
16
 70
0
 10
66.6899221176
 20
168.6817357868
 10
66.6888513413
 20
168.7036905028
 10
66.6858472692
 20
168.7265323209
 10
66.6809444654
 20
168.7500080414
 10
66.6742031476
 20
168.7738430053
 10
66.6656965441
 20
168.7977882366
 10
66.6554994037
 20
168.8216232608
 10
66.643688553
 20
168.8451350615
 10
66.6304095936
 20
168.8680047397
 10
66.6158787609
 20
168.889867883
 10
66.6002853622
 20
168.9104722658
 10
66.5837979529
 20
168.9296253127
 10
66.566640558
 20
168.9470988127
 10
66.5490216339
 20
168.9627203088
 10
66.5311260801
 20
168.9763642136
 10
66.5131478455
 20
168.9879178072
  0
LWPOLYLINE
  5
39A
100
AcDbEntity
  8
RACCORDO
100
AcDbPolyline
 62
253
  6
CONTINUOUS
 90
16
 70
0
 10
69.2355065299
 20
167.2119472508
 10
69.2344357536
 20
167.2339019668
 10
69.2314316814
 20
167.2567437849
 10
69.2265288777
 20
167.2802195054
 10
69.2197875599
 20
167.3040544693
 10
69.2112809563
 20
167.3279997007
 10
69.2010838159
 20
167.3518347248
 10
69.1892729653
 20
167.3753465255
 10
69.1759940059
 20
167.3982162037
 10
69.1614631732
 20
167.420079347
 10
69.1458697744
 20
167.4406837298
 10
69.1293823652
 20
167.4598367767
 10
69.1122249703
 20
167.4773102767
 10
69.0946060462
 20
167.4929317728
 10
69.0767104924
 20
167.5065756776
 10
69.0587322578
 20
167.5181292712
  0
LWPOLYLINE
  5
39B
100
AcDbEntity
  8
RACCORDO
100
AcDbPolyline
 62
253
  6
CONTINUOUS
 90
16
 70
0
 10
68.8186473084
 20
169.910834413
 10
68.8177607565
 20
169.9328954969
 10
68.8149183487
 20
169.9558306573
 10
68.810152877
 20
169.9793856718
 10
68.8035229975
 20
170.0032849799
 10
68.7951008187
 20
170.0272789592
 10
68.784960256
 20
170.051146652
 10
68.7731774035
 20
170.0746746186
 10
68.7598972514
 20
170.0975436074
 10
68.7453361277
 20
170.1193892599
 10
68.7296840333
 20
170.1399597507
 10
68.7131104344
 20
170.1590630308
 10
68.6958408199
 20
170.1764717356
 10
68.6780853743
 20
170.1920144063
 10
68.6600307815
 20
170.2055664852
 10
68.6418730363
 20
170.2170164334
  0
LINE
  5
39C
100
AcDbEntity
  8
0
100
AcDbLine
 62
253
  6
CONTINUOUS
 10
67.6153229227
 20
140.2394735688
 11
67.6153229227
 21
136.9854255498
  0
LINE
  5
39D
100
AcDbEntity
  8
0
100
AcDbLine
 62
7
  6
CONTINUOUS
 10
67.6870103104
 20
140.2477044831
 11
67.6870103104
 21
137.0256702855
  0
LINE
  5
39E
100
AcDbEntity
  8
0
100
AcDbLine
 62
7
  6
CONTINUOUS
 10
67.9969508883
 20
137.4853281146
 11
67.9969508883
 21
140.2812796438
  0
LINE
  5
39F
100
AcDbEntity
  8
RACCORDO
100
AcDbLine
 62
7
  6
CONTINUOUS
 10
68.1862251246
 20
166.888430282
 11
68.1862251246
 21
167.2085886358
  0
LINE
  5
3A0
100
AcDbEntity
  8
RACCORDO
100
AcDbLine
 62
253
  6
CONTINUOUS
 10
68.2594484293
 20
166.7831357935
 11
68.2594484293
 21
167.1663104173
  0
LINE
  5
3A1
100
AcDbEntity
  8
RACCORDO
100
AcDbLine
 62
7
  6
CONTINUOUS
 10
68.2901732998
 20
168.6994428197
 11
68.2901732998
 21
169.6056998333
  0
LINE
  5
3A2
100
AcDbEntity
  8
RACCORDO
100
AcDbLine
 62
253
  6
CONTINUOUS
 10
68.8186473084
 20
169.5828321929
 11
68.8186473084
 21
169.910834413
  0
LINE
  5
3A3
100
AcDbEntity
  8
RACCORDO
100
AcDbLine
 62
253
  6
CONTINUOUS
 10
68.8828811589
 20
167.2124802794
 11
68.8828811589
 21
166.8908906605
  0
LINE
  5
3A4
100
AcDbEntity
  8
RACCORDO
100
AcDbLine
 62
7
  6
CONTINUOUS
 10
68.8909474399
 20
169.6843650143
 11
68.8909474399
 21
170.0123672344
  0
LINE
  5
3A5
100
AcDbEntity
  8
RACCORDO
100
AcDbLine
 62
253
  6
CONTINUOUS
 10
69.1955899876
 20
174.8644975527
 11
69.1955899876
 21
173.6626250833
  0
LINE
  5
3A6
100
AcDbEntity
  8
RACCORDO
100
AcDbLine
 62
253
  6
CONTINUOUS
 10
69.2355065299
 20
167.2119472508
 11
69.2355065299
 21
166.8903576319
  0
LINE
  5
3A7
100
AcDbEntity
  8
RACCORDO
100
AcDbLine
 62
7
  6
CONTINUOUS
 10
69.3191840515
 20
175.0367997626
 11
69.3191840515
 21
173.8342223694
  0
LINE
  5
3A8
100
AcDbEntity
  8
RACCORDO
100
AcDbLine
 62
253
  6
CONTINUOUS
 10
69.5936903764
 20
166.6928837756
 11
69.5936903764
 21
166.0127612152
  0
LINE
  5
3A9
100
AcDbEntity
  8
RACCORDO
100
AcDbLine
 62
253
  6
CONTINUOUS
 10
69.9463157474
 20
166.8251051508
 11
69.9463157474
 21
166.0228695242
  0
LINE
  5
3AA
100
AcDbEntity
  8
RACCORDO
100
AcDbLine
 62
7
  6
CONTINUOUS
 10
68.8909470873
 20
169.6846074651
 11
68.8903489306
 21
169.6670784213
  0
LWPOLYLINE
  5
3AB
100
AcDbEntity
  8
RACCORDO
100
AcDbPolyline
 62
7
  6
CONTINUOUS
 90
6
 70
0
 10
71.4359333429
 20
168.1972898853
 10
71.4321297556
 20
168.1678681297
 10
71.4248486405
 20
168.1390443365
 10
71.4141702462
 20
168.1112287344
 10
71.4001995746
 20
168.0847839346
 10
71.3820088613
 20
168.058728304
  0
LWPOLYLINE
  5
3AC
100
AcDbEntity
  8
RACCORDO
100
AcDbPolyline
 62
7
  6
CONTINUOUS
 90
4
 70
0
 10
73.0650031556
 20
165.8233634576
 10
73.0620861179
 20
165.8071530364
 10
73.060478909
 20
165.788726326
 10
73.0602079889
 20
165.7776903805
  0
LINE
  5
3AD
100
AcDbEntity
  8
0
100
AcDbLine
 62
7
  6
CONTINUOUS
 10
79.9010842321
 20
165.1637189437
 11
78.8386484771
 21
163.9595271483
  0
LINE
  5
3AE
100
AcDbEntity
  8
0
100
AcDbLine
 62
253
  6
CONTINUOUS
 10
79.9924138641
 20
165.146133725
 11
78.9094338612
 21
163.9186565548
  0
LWPOLYLINE
  5
3AF
100
AcDbEntity
  8
0
100
AcDbPolyline
 62
253
  6
CONTINUOUS
 90
13
 70
0
 10
56.6489250695
 20
143.1652257163
 10
56.6276539023
 20
143.1496565569
 10
56.6075022194
 20
143.1304738366
 10
56.5891741892
 20
143.1080937571
 10
56.5743469883
 20
143.0830951958
 10
56.5633969598
 20
143.0555584793
 10
56.555110646
 20
143.0255483495
 10
56.5500568465
 20
142.9942339241
 10
56.5493539966
 20
142.9625008715
 10
56.5519404348
 20
142.930204299
 10
56.5575807352
 20
142.8977939642
 10
56.5669733243
 20
142.8663720089
 10
56.5801483025
 20
142.8366326011
  0
LWPOLYLINE
  5
3B0
100
AcDbEntity
  8
RACCORDO
100
AcDbPolyline
 62
253
  6
CONTINUOUS
 90
9
 70
0
 10
84.7285498851
 20
160.7246560631
 10
84.7459853476
 20
160.7359570541
 10
84.7612723994
 20
160.7482470922
 10
84.7742445807
 20
160.7613905005
 10
84.7847553576
 20
160.7752336916
 10
84.7926998818
 20
160.7896322651
 10
84.7980001363
 20
160.8044556463
 10
84.8005875725
 20
160.8195765202
 10
84.8008499857
 20
160.8261170587
  0
LWPOLYLINE
  5
3B1
100
AcDbEntity
  8
RACCORDO
100
AcDbPolyline
 62
253
  6
CONTINUOUS
 90
9
 70
0
 10
84.7285498851
 20
160.396653843
 10
84.7459400674
 20
160.4079221985
 10
84.7611941222
 20
160.4201744653
 10
84.7741468863
 20
160.4332761194
 10
84.7846566903
 20
160.4470807323
 10
84.7926133463
 20
160.4614397173
 10
84.7979342086
 20
160.4762049385
 10
84.8005590713
 20
160.4912247031
 10
84.8008500165
 20
160.498190677
  0
LWPOLYLINE
  5
3B2
100
AcDbEntity
  8
RACCORDO
100
AcDbPolyline
 62
253
  6
CONTINUOUS
 90
16
 70
0
 10
82.4230504222
 20
159.8017394573
 10
82.4046388776
 20
159.7898867904
 10
82.3864377834
 20
159.7759474791
 10
82.3686452291
 20
159.7600732291
 10
82.3514548563
 20
159.7424368034
 10
82.3350537562
 20
159.7232301463
 10
82.3196204331
 20
159.7026622969
 10
82.3053228526
 20
159.6809571027
 10
82.2923166207
 20
159.6583507904
 10
82.2807432926
 20
159.6350894025
 10
82.2707288255
 20
159.6114261092
 10
82.2623822038
 20
159.5876184396
 10
82.2557942605
 20
159.563925487
 10
82.2510366937
 20
159.5406051054
 10
82.2481612833
 20
159.5179111028
 10
82.2471993233
 20
159.4960904655
  0
LINE
  5
3B3
100
AcDbEntity
  8
RACCORDO
100
AcDbLine
 62
7
  6
CONTINUOUS
 10
89.8164488072
 20
163.566160898
 11
84.7978865807
 21
160.4626067372
  0
LINE
  5
3B4
100
AcDbEntity
  8
RACCORDO
100
AcDbLine
 62
7
  6
CONTINUOUS
 10
89.8164488072
 20
163.1718106231
 11
84.3528695792
 21
159.8490921275
  0
LINE
  5
3B5
100
AcDbEntity
  8
RACCORDO
100
AcDbLine
 62
7
  6
CONTINUOUS
 10
89.4087706364
 20
162.5871398686
 11
84.3735455865
 21
159.5774898816
  0
LINE
  5
3B6
100
AcDbEntity
  8
0
100
AcDbLine
 62
7
  6
CONTINUOUS
 10
63.5296143258
 20
149.1239544599
 11
63.5294708948
 21
149.1238696054
  0
LINE
  5
3B7
100
AcDbEntity
  8
0
100
AcDbLine
 62
253
  6
CONTINUOUS
 10
56.6489200986
 20
143.1652228664
 11
57.8585604679
 21
143.8763766226
  0
LINE
  5
3B8
100
AcDbEntity
  8
0
100
AcDbLine
 62
253
  6
CONTINUOUS
 10
55.9978124296
 20
145.7576325003
 11
56.138057564
 21
145.8400214765
  0
LINE
  5
3B9
100
AcDbEntity
  8
RACCORDO
100
AcDbLine
 62
253
  6
CONTINUOUS
 10
84.551775613
 20
161.0308380835
 11
82.4230504222
 21
159.8017394573
  0
LINE
  5
3BA
100
AcDbEntity
  8
RACCORDO
100
AcDbLine
 62
253
  6
CONTINUOUS
 10
84.7285498851
 20
160.7246560631
 11
82.5998246943
 21
159.4955574369
  0
LWPOLYLINE
  5
3BB
100
AcDbEntity
  8
0
100
AcDbPolyline
 62
7
  6
CONTINUOUS
 90
6
 70
0
 10
58.4212873061
 20
146.7207614477
 10
58.4297045638
 20
146.7255394153
 10
58.4391618664
 20
146.7310153184
 10
58.4495405202
 20
146.7371282703
 10
58.4608936048
 20
146.7437096046
 10
58.4731795354
 20
146.7506506529
  0
LWPOLYLINE
  5
3BC
100
AcDbEntity
  8
0
100
AcDbPolyline
 62
253
  6
CONTINUOUS
 90
29
 70
0
 10
63.5294708948
 20
149.1238696054
 10
63.5000483556
 20
149.1071990506
 10
63.4134553496
 20
149.065996355
 10
63.3222893407
 20
149.0337905935
 10
63.2268961801
 20
149.0107019872
 10
63.1276334519
 20
148.9968147164
 10
63.0248724479
 20
148.9921765853
 10
62.919003136
 20
148.996802533
 10
62.8104239967
 20
149.0106726733
 10
62.6995367595
 20
149.03373115
 10
62.5867579851
 20
149.0658901185
 10
62.4725169374
 20
149.1070269873
 10
62.3572451808
 20
149.1569832259
 10
62.2413803055
 20
149.2155673233
 10
62.1253603833
 20
149.2825577803
 10
62.0096214211
 20
149.3577028435
 10
61.8945999322
 20
149.4407190202
 10
61.7807350622
 20
149.5312915881
 10
61.6684630451
 20
149.6290780054
 10
61.5582120566
 20
149.7337057578
 10
61.4503997348
 20
149.8447810281
 10
61.3454357351
 20
149.9618912349
 10
61.243718142
 20
150.0845964445
 10
61.1456373378
 20
150.2124310806
 10
61.0515737278
 20
150.3449130461
 10
60.9618859415
 20
150.4815443717
 10
60.876918684
 20
150.6218062268
 10
60.79700605
 20
150.7651609399
 10
60.7224608461
 20
150.9110550761
  0
LWPOLYLINE
  5
3BD
100
AcDbEntity
  8
0
100
AcDbPolyline
 62
7
  6
CONTINUOUS
 90
5
 70
0
 10
58.4002834997
 20
146.7086815343
 10
58.401358032
 20
146.7092835207
 10
58.4040622338
 20
146.7108885524
 10
58.4084545251
 20
146.7133126557
 10
58.4212873061
 20
146.7207614477
  0
LINE
  5
3BE
100
AcDbEntity
  8
RACCORDO
100
AcDbLine
 62
7
  6
CONTINUOUS
 10
88.9702686877
 20
164.2152786668
 11
83.9895221307
 21
161.4389723552
  0
LINE
  5
3BF
100
AcDbEntity
  8
0
100
AcDbLine
 62
253
  6
CONTINUOUS
 10
84.8717196085
 20
159.2898504449
 11
84.2000758765
 21
158.9220093935
  0
LINE
  5
3C0
100
AcDbEntity
  8
0
100
AcDbLine
 62
253
  6
CONTINUOUS
 10
57.6899553221
 20
147.1188153269
 11
56.8983424801
 21
146.6855851266
  0
LINE
  5
3C1
100
AcDbEntity
  8
0
100
AcDbLine
 62
7
  6
CONTINUOUS
 10
56.8431503935
 20
146.5692429285
 11
56.942640814
 21
146.6236988378
  0
LINE
  5
3C2
100
AcDbEntity
  8
0
100
AcDbLine
 62
7
  6
CONTINUOUS
 10
56.942640814
 20
146.6236988378
 11
57.7665561095
 21
147.0745869922
  0
LINE
  5
3C3
100
AcDbEntity
  8
0
100
AcDbLine
 62
7
  6
CONTINUOUS
 10
90.7671712373
 20
162.2422281721
 11
87.1699243575
 21
160.3077452116
  0
LWPOLYLINE
  5
3C4
100
AcDbEntity
  8
RACCORDO
100
AcDbPolyline
 62
253
  6
CONTINUOUS
 90
16
 70
0
 10
82.5998246943
 20
159.4955574369
 10
82.5802520657
 20
159.4854904198
 10
82.5589664671
 20
159.4766638677
 10
82.5362028827
 20
159.4691738927
 10
82.512227316
 20
159.4631051015
 10
82.48728986
 20
159.4585180326
 10
82.4616166635
 20
159.455457732
 10
82.435428229
 20
159.453963779
 10
82.4090706621
 20
159.4540690314
 10
82.3829645039
 20
159.4557677602
 10
82.3574198722
 20
159.4590215771
 10
82.3326848284
 20
159.463780422
 10
82.3090658149
 20
159.4699639535
 10
82.2868136736
 20
159.4774775485
 10
82.2661273532
 20
159.4862236534
 10
82.2471993233
 20
159.4960904655
  0
LWPOLYLINE
  5
3C5
100
AcDbEntity
  8
RACCORDO
100
AcDbPolyline
 62
253
  6
CONTINUOUS
 90
16
 70
0
 10
82.5998246943
 20
159.173967818
 10
82.5803086557
 20
159.1639269762
 10
82.5590885292
 20
159.1551194902
 10
82.5363972952
 20
159.1476407267
 10
82.5124885501
 20
159.1415724875
 10
82.4876196367
 20
159.1369783995
 10
82.4620471275
 20
159.1339061876
 10
82.4360337393
 20
159.132390617
 10
82.4098790265
 20
159.1324522937
 10
82.3839009652
 20
159.1340892776
 10
82.3583849323
 20
159.1372792599
 10
82.333605318
 20
159.1419835401
 10
82.3098518909
 20
159.1481404497
 10
82.2873832027
 20
159.155672772
 10
82.2664267416
 20
159.1644935058
 10
82.2471993233
 20
159.1745008427
  0
LWPOLYLINE
  5
3C6
100
AcDbEntity
  8
0
100
AcDbPolyline
 62
7
  6
CONTINUOUS
 90
14
 70
0
 10
56.8431503867
 20
146.5692429248
 10
56.8179337871
 20
146.557220159
 10
56.7913422458
 20
146.5480311273
 10
56.7637800893
 20
146.5418704139
 10
56.7358590633
 20
146.5388660666
 10
56.7078350265
 20
146.5390085139
 10
56.6795991281
 20
146.542357571
 10
56.6514639288
 20
146.549029011
 10
56.6240863464
 20
146.5589911231
 10
56.597878332
 20
146.5721719175
 10
56.5732536436
 20
146.5884376972
 10
56.5506947277
 20
146.6075134266
 10
56.5305718343
 20
146.6290830237
 10
56.5172480031
 20
146.6467017314
  0
LWPOLYLINE
  5
3C7
100
AcDbEntity
  8
0
100
AcDbPolyline
 62
253
  6
CONTINUOUS
 90
48
 70
0
 10
56.6489200986
 20
143.1652228664
 10
56.5492731345
 20
143.1420609584
 10
56.4451836191
 20
143.1289955342
 10
56.3370877382
 20
143.1260769853
 10
56.2254511172
 20
143.1333162303
 10
56.1107259134
 20
143.1506753506
 10
55.9933469303
 20
143.1780748374
 10
55.8737895467
 20
143.2154045828
 10
55.7525585947
 20
143.2625126066
 10
55.6301438427
 20
143.3192017998
 10
55.5070461059
 20
143.3852384173
 10
55.3837773086
 20
143.4603530722
 10
55.2608472593
 20
143.5442374402
 10
55.1387591701
 20
143.636543412
 10
55.0180175941
 20
143.736893008
 10
54.8991285168
 20
143.8448808561
 10
54.7825761502
 20
143.9600603681
 10
54.668842142
 20
144.0819570652
 10
54.558413703
 20
144.2100790623
 10
54.4517403467
 20
144.3438954836
 10
54.3492606079
 20
144.4828538026
 10
54.251421498
 20
144.6263937403
 10
54.1586207006
 20
144.7739202523
 10
54.0712376052
 20
144.9248226142
 10
53.9896600935
 20
145.0784916678
 10
53.9142191367
 20
145.2342902635
 10
53.8452206591
 20
145.3915721578
 10
53.782976457
 20
145.5497008559
 10
53.7277382789
 20
145.7080207117
 10
53.6797270589
 20
145.8658742563
 10
53.63916452
 20
146.0226208571
 10
53.6062135085
 20
146.1776109434
 10
53.5810019146
 20
146.3302004056
 10
53.5636515791
 20
146.47976777
 10
53.5542301304
 20
146.6256936889
 10
53.5527679079
 20
146.7673716564
 10
53.5592816366
 20
146.904222328
 10
53.5737410059
 20
147.0356796022
 10
53.5960780669
 20
147.1611972534
 10
53.6262040697
 20
147.2802595604
 10
53.663991722
 20
147.392374483
 10
53.7092777289
 20
147.4970765523
 10
53.761872354
 20
147.593933265
 10
53.821556037
 20
147.68254476
 10
53.8880765733
 20
147.7625434541
 10
53.9611520391
 20
147.8335964586
 10
54.0404786821
 20
147.8954105983
 10
54.1077868572
 20
147.9377907741
  0
LWPOLYLINE
  5
3C8
100
AcDbEntity
  8
0
100
AcDbPolyline
 62
253
  6
CONTINUOUS
 90
50
 70
0
 10
56.5801464463
 20
142.836776568
 10
56.4703892031
 20
142.8112906223
 10
56.3567786068
 20
142.7968955401
 10
56.2393100142
 20
142.7935885629
 10
56.1174722081
 20
142.8014516863
 10
55.9917687085
 20
142.8203983382
 10
55.8637175283
 20
142.8501732341
 10
55.7332803622
 20
142.8909002628
 10
55.6004906001
 20
142.9424526092
 10
55.4669744094
 20
143.0041992962
 10
55.3327207103
 20
143.0762656714
 10
55.1977392413
 20
143.1585255883
 10
55.0636882871
 20
143.2499713586
 10
54.9305807672
 20
143.3507161524
 10
54.7984061963
 20
143.4606482497
 10
54.6687885928
 20
143.5784231264
 10
54.5417609215
 20
143.7041399056
 10
54.4172960744
 20
143.8377029503
 10
54.296928421
 20
143.977475869
 10
54.180711924
 20
144.1235383208
 10
54.0686010449
 20
144.2758156529
 10
53.9619807028
 20
144.4324398868
 10
53.860922947
 20
144.5934680809
 10
53.7653654856
 20
144.7588489619
 10
53.6764906887
 20
144.9265514321
 10
53.5943855309
 20
145.0966072984
 10
53.5189726952
 20
145.2689904615
 10
53.451186178
 20
145.4415818116
 10
53.3911240724
 20
145.6143861233
 10
53.3386964228
 20
145.7874034091
 10
53.2945523913
 20
145.9585057763
 10
53.2587968559
 20
146.1276706057
 10
53.2313303591
 20
146.2949236798
 10
53.2124921717
 20
146.4582077042
 10
53.2023895736
 20
146.6174733463
 10
53.2009171914
 20
146.7727710183
 10
53.2080915909
 20
146.9221908451
 10
53.2240181871
 20
147.0656587255
 10
53.2485896791
 20
147.2032476069
 10
53.281499834
 20
147.3332659971
 10
53.3228482477
 20
147.4556178934
 10
53.3725299254
 20
147.5703960898
 10
53.4299283629
 20
147.6761903051
 10
53.4951339282
 20
147.7728865895
 10
53.5680481368
 20
147.8605941071
 10
53.6477684458
 20
147.9382356354
 10
53.7343730786
 20
148.0056837206
 10
53.8277741701
 20
148.0630601577
 10
53.926818106
 20
148.1096604687
 10
54.0315683004
 20
148.1453488322
  0
LWPOLYLINE
  5
3C9
100
AcDbEntity
  8
0
100
AcDbPolyline
 62
7
  6
CONTINUOUS
 90
5
 70
0
 10
57.858560468
 20
143.8763766226
 10
57.8742523422
 20
143.8796734304
 10
57.8905487839
 20
143.8805008531
 10
57.9074497931
 20
143.8788588907
 10
57.9250941352
 20
143.8747149546
  0
LINE
  5
3CA
100
AcDbEntity
  8
0
100
AcDbLine
 62
7
  6
CONTINUOUS
 10
58.4133303515
 20
144.1362239486
 11
58.3975256139
 21
144.1329128658
  0
LINE
  5
3CB
100
AcDbEntity
  8
0
100
AcDbLine
 62
7
  6
CONTINUOUS
 10
58.3973850923
 20
144.132878579
 11
58.297874656
 21
144.1146551479
  0
LWPOLYLINE
  5
3CC
100
AcDbEntity
  8
0
100
AcDbPolyline
 62
253
  6
CONTINUOUS
 90
4
 70
0
 10
58.3557912115
 20
144.116394847
 10
58.3738215844
 20
144.1189504494
 10
58.3937260629
 20
144.1184356365
 10
58.4134822563
 20
144.114910962
  0
LWPOLYLINE
  5
3CD
100
AcDbEntity
  8
0
100
AcDbPolyline
 62
7
  6
CONTINUOUS
 90
34
 70
0
 10
58.297874656
 20
144.1146551479
 10
58.1937298973
 20
144.1073402905
 10
58.0855697345
 20
144.1107744288
 10
57.9745311926
 20
144.124652145
 10
57.8610155669
 20
144.1486372932
 10
57.7444535083
 20
144.1827592852
 10
57.6253157132
 20
144.2269479991
 10
57.5044855263
 20
144.2809182255
 10
57.3817721824
 20
144.3448467581
 10
57.2575186583
 20
144.41875429
 10
57.1326581357
 20
144.5022686439
 10
57.0077760372
 20
144.5951397549
 10
56.8834895874
 20
144.6970446563
 10
56.7604357467
 20
144.8075858601
 10
56.6391756749
 20
144.9263786235
 10
56.5202604143
 20
145.053006776
 10
56.4043343385
 20
145.186900251
 10
56.292049871
 20
145.3273961314
 10
56.1839513839
 20
145.4738852226
 10
56.0805652972
 20
145.6257186755
 10
55.9824558548
 20
145.7821119483
 10
55.8900918732
 20
145.9423381981
 10
55.8038933804
 20
146.1056789803
 10
55.7242866534
 20
146.2713185261
 10
55.651619875
 20
146.4385027418
 10
55.5862161892
 20
146.6064404768
 10
55.5283903487
 20
146.7742305213
 10
55.4783661472
 20
146.9410721671
 10
55.4363135161
 20
147.1061993364
 10
55.4023800825
 20
147.2687431648
 10
55.376649024
 20
147.4278398526
 10
55.3591146826
 20
147.5828565336
 10
55.3497399297
 20
147.7332360084
 10
55.3493506107
 20
147.7774717573
  0
LINE
  5
3CE
100
AcDbEntity
  8
RACCORDO
100
AcDbLine
 62
7
  6
CONTINUOUS
 10
58.4018954593
 20
146.1637588284
 11
56.5963464563
 21
146.2733301372
  0
LWPOLYLINE
  5
3CF
100
AcDbEntity
  8
0
100
AcDbPolyline
 62
253
  6
CONTINUOUS
 90
13
 70
0
 10
59.9695022072
 20
152.5287065643
 10
59.9939441826
 20
152.5162939308
 10
60.0209635252
 20
152.5057705805
 10
60.0501030412
 20
152.4973145789
 10
60.0808696617
 20
152.4910690098
 10
60.1127427852
 20
152.4871395543
 10
60.1451830876
 20
152.4855927026
 10
60.1776416471
 20
152.4864546289
 10
60.2095692332
 20
152.4897107487
 10
60.2404255999
 20
152.4953059651
 10
60.2696886274
 20
152.5031456017
 10
60.2968631567
 20
152.5130970041
 10
60.3214893682
 20
152.524991785
  0
LINE
  5
3D0
100
AcDbEntity
  8
0
100
AcDbLine
 62
7
  6
CONTINUOUS
 10
63.7128057557
 20
150.7341227618
 11
63.1646872189
 21
151.0505995354
  0
LINE
  5
3D1
100
AcDbEntity
  8
0
100
AcDbLine
 62
253
  6
CONTINUOUS
 10
63.9067124015
 20
150.2927920586
 11
64.0193381003
 21
150.2267417379
  0
LWPOLYLINE
  5
3D2
100
AcDbEntity
  8
0
100
AcDbPolyline
 62
7
  6
CONTINUOUS
 90
11
 70
0
 10
64.0176872959
 20
150.2944703027
 10
63.894895125
 20
150.3743258399
 10
63.7721009744
 20
150.4633632562
 10
63.6498801354
 20
150.5612786806
 10
63.5288030251
 20
150.6677254091
 10
63.4094854683
 20
150.7822641219
 10
63.2925261966
 20
150.9044088708
 10
63.1784702021
 20
151.0336721381
 10
63.0678823197
 20
151.1694892529
 10
62.9613443805
 20
151.3112045378
 10
62.8593722803
 20
151.4581734696
  0
LWPOLYLINE
  5
3D3
100
AcDbEntity
  8
0
100
AcDbPolyline
 62
253
  6
CONTINUOUS
 90
7
 70
0
 10
64.0917461922
 20
150.1485759221
 10
64.0702934911
 20
150.1626611957
 10
64.0521947761
 20
150.1781875324
 10
64.0377563128
 20
150.1948921963
 10
64.0272224278
 20
150.2124925121
 10
64.0207713751
 20
150.2306906483
 10
64.0185149576
 20
150.2507189569
  0
LWPOLYLINE
  5
3D4
100
AcDbEntity
  8
0
100
AcDbPolyline
 62
7
  6
CONTINUOUS
 90
4
 70
0
 10
64.0213402522
 20
150.4850053784
 10
63.9538676055
 20
150.5336805563
 10
63.8330055895
 20
150.6297173901
 10
63.7128057557
 20
150.7341227618
  0
LWPOLYLINE
  5
3D5
100
AcDbEntity
  8
0
100
AcDbPolyline
 62
7
  6
CONTINUOUS
 90
28
 70
0
 10
64.0122421613
 20
150.986497572
 10
64.0028823632
 20
150.9939274072
 10
63.9926011954
 20
151.0004945248
 10
63.9813976244
 20
151.006196144
 10
63.969131836
 20
151.0109696566
 10
63.9559416457
 20
151.0148725045
 10
63.9422423987
 20
151.0180815486
 10
63.9281529779
 20
151.0205901663
 10
63.9135523277
 20
151.0223988365
 10
63.8984962141
 20
151.0236956988
 10
63.8829592284
 20
151.0245067306
 10
63.8669656486
 20
151.0248028813
 10
63.8506462526
 20
151.0246909957
 10
63.834032072
 20
151.0241802206
 10
63.8170911026
 20
151.0232587023
 10
63.7998597875
 20
151.0220023044
 10
63.7823290219
 20
151.0204164011
 10
63.7645072317
 20
151.0184937621
 10
63.74645733
 20
151.0162917755
 10
63.728176001
 20
151.0138120153
 10
63.7096659919
 20
151.0110513383
 10
63.6909993891
 20
151.0080602134
 10
63.6721682897
 20
151.0048376339
 10
63.6531800952
 20
151.0013831974
 10
63.6341298834
 20
150.9977483033
 10
63.6150491892
 20
150.9939496079
 10
63.5959059999
 20
150.989969058
 10
63.5767000805
 20
150.9858059823
  0
LINE
  5
3D6
100
AcDbEntity
  8
0
100
AcDbLine
 62
7
  6
CONTINUOUS
 10
64.0122421613
 20
150.986497572
 11
64.0275691628
 21
150.9725635854
  0
LWPOLYLINE
  5
3D7
100
AcDbEntity
  8
RACCORDO
100
AcDbPolyline
 62
7
  6
CONTINUOUS
 90
13
 70
0
 10
70.8357577121
 20
168.1359112973
 10
70.834131913
 20
168.1633615114
 10
70.8295252161
 20
168.192097543
 10
70.8220164405
 20
168.2216277278
 10
70.8117340589
 20
168.2514468138
 10
70.7988539997
 20
168.2810446059
 10
70.7835966365
 20
168.3099146954
 10
70.7662230179
 20
168.3375631242
 10
70.747030401
 20
168.3635168366
 10
70.7263471654
 20
168.3873317727
 10
70.7045271946
 20
168.4086004668
 10
70.6819438214
 20
168.4269590181
 10
70.65898344
 20
168.4420933177
  0
LWPOLYLINE
  5
3D8
100
AcDbEntity
  8
RACCORDO
100
AcDbPolyline
 62
253
  6
CONTINUOUS
 90
16
 70
0
 10
71.3642317207
 20
168.441045877
 10
71.3633451688
 20
168.4631069609
 10
71.360502761
 20
168.4860421214
 10
71.3557372893
 20
168.5095971358
 10
71.3491074097
 20
168.5334964439
 10
71.340685231
 20
168.5574904232
 10
71.3305446682
 20
168.581358116
 10
71.3187618158
 20
168.6048860826
 10
71.3054816636
 20
168.6277550714
 10
71.2909205399
 20
168.6496007239
 10
71.2752684456
 20
168.6701712147
 10
71.2586948467
 20
168.6892744948
 10
71.2414252321
 20
168.7066831996
 10
71.2236697865
 20
168.7222258703
 10
71.2056151938
 20
168.7357779492
 10
71.1874574486
 20
168.7472278974
  0
LINE
  5
3D9
100
AcDbEntity
  8
RACCORDO
100
AcDbLine
 62
7
  6
CONTINUOUS
 10
70.8357577121
 20
166.5846149734
 11
70.8357577121
 21
168.1359112973
  0
LINE
  5
3DA
100
AcDbEntity
  8
RACCORDO
100
AcDbLine
 62
253
  6
CONTINUOUS
 10
71.3642317207
 20
168.1130436569
 11
71.3642317207
 21
168.441045877
  0
LINE
  5
3DB
100
AcDbEntity
  8
RACCORDO
100
AcDbLine
 62
7
  6
CONTINUOUS
 10
71.4365318522
 20
168.2145764783
 11
71.4365318522
 21
168.5425786984
  0
LINE
  5
3DC
100
AcDbEntity
  8
0
100
AcDbLine
 62
7
  6
CONTINUOUS
 10
71.4601383209
 20
167.0335293937
 11
71.4601383209
 21
167.1900919109
  0
LINE
  5
3DD
100
AcDbEntity
  8
RACCORDO
100
AcDbLine
 62
7
  6
CONTINUOUS
 10
71.4365314995
 20
168.2148189291
 11
71.4359333429
 21
168.1972898853
  0
LWPOLYLINE
  5
3DE
100
AcDbEntity
  8
RACCORDO
100
AcDbPolyline
 62
253
  6
CONTINUOUS
 90
22
 70
0
 10
78.6425002753
 20
155.4955639985
 10
78.5672889122
 20
155.4456109888
 10
78.4927428566
 20
155.390008333
 10
78.4192265963
 20
155.3290351534
 10
78.3470999924
 20
155.2630036022
 10
78.2767146049
 20
155.1922380254
 10
78.208413153
 20
155.117070424
 10
78.1425198431
 20
155.0378598103
 10
78.0793691149
 20
154.9550117392
 10
78.0192999667
 20
154.8689586085
 10
77.9626179802
 20
154.7801513802
 10
77.9095825942
 20
154.6890126836
 10
77.8604403237
 20
154.5959527258
 10
77.815424463
 20
154.5014100286
 10
77.7747686648
 20
154.4058747394
 10
77.7386908685
 20
154.3098438087
 10
77.7073713301
 20
154.2138071274
 10
77.6809555601
 20
154.1182273304
 10
77.6595730028
 20
154.0235610032
 10
77.6433299358
 20
153.9302718041
 10
77.6323064592
 20
153.8388277786
 10
77.6265574483
 20
153.7496821523
  0
LWPOLYLINE
  5
3DF
100
AcDbEntity
  8
RACCORDO
100
AcDbPolyline
 62
253
  6
CONTINUOUS
 90
22
 70
0
 10
79.0083330153
 20
154.8909031602
 10
78.9577069666
 20
154.8576005256
 10
78.9079419561
 20
154.8208773646
 10
78.8590379837
 20
154.7807336769
 10
78.8107434815
 20
154.7369278842
 10
78.7633100174
 20
154.689701565
 10
78.7174922955
 20
154.6397794547
 10
78.6733267218
 20
154.5871231331
 10
78.6307768901
 20
154.5317710206
 10
78.5904882858
 20
154.4745631134
 10
78.5525046352
 20
154.4154859496
 10
78.5167822119
 20
154.3545529912
 10
78.4838353216
 20
154.2926446203
 10
78.4536990667
 20
154.2297346083
 10
78.4263383448
 20
154.1658491838
 10
78.4021621542
 20
154.101947414
 10
78.3812200046
 20
154.0380112319
 10
78.3634623863
 20
153.9740587045
 10
78.349149768
 20
153.9111031001
 10
78.3383689729
 20
153.8494821747
 10
78.3310331779
 20
153.7888581722
 10
78.3271423831
 20
153.7292310927
  0
LINE
  5
3E0
100
AcDbEntity
  8
RACCORDO
100
AcDbLine
 62
7
  6
CONTINUOUS
 10
83.3106339118
 20
158.3008959925
 11
84.2000758765
 21
158.8644771375
  0
LINE
  5
3E1
100
AcDbEntity
  8
RACCORDO
100
AcDbLine
 62
253
  6
CONTINUOUS
 10
78.6425002753
 20
155.4955639985
 11
83.1178123226
 21
158.2570633242
  0
LINE
  5
3E2
100
AcDbEntity
  8
RACCORDO
100
AcDbLine
 62
253
  6
CONTINUOUS
 10
84.5075042863
 20
158.2841766563
 11
79.0083330153
 21
154.8909031602
  0
LWPOLYLINE
  5
3E3
100
AcDbEntity
  8
0
100
AcDbPolyline
 62
7
  6
CONTINUOUS
 90
4
 70
0
 10
56.638625873
 20
141.6878888004
 10
56.6237109372
 20
141.6790987359
 10
56.6098106805
 20
141.6710143078
 10
56.5968742821
 20
141.6636902327
  0
LINE
  5
3E4
100
AcDbEntity
  8
0
100
AcDbLine
 62
253
  6
CONTINUOUS
 10
94.2026699721
 20
162.2428903922
 11
85.2253807092
 21
156.9516216036
  0
LINE
  5
3E5
100
AcDbEntity
  8
0
100
AcDbLine
 62
253
  6
CONTINUOUS
 10
56.9321309357
 20
142.8387421563
 11
58.1431909898
 21
143.5503250891
  0
LWPOLYLINE
  5
3E6
100
AcDbEntity
  8
0
100
AcDbPolyline
 62
7
  6
CONTINUOUS
 90
3
 70
0
 10
56.7917292047
 20
141.777373765
 10
56.7700068967
 20
141.7647301582
 10
56.7285245868
 20
141.740297504
  0
LWPOLYLINE
  5
3E7
100
AcDbEntity
  8
0
100
AcDbPolyline
 62
7
  6
CONTINUOUS
 90
3
 70
0
 10
56.7285245868
 20
141.740297504
 10
56.7087635647
 20
141.7288236068
 10
56.6718675292
 20
141.7071944149
  0
LINE
  5
3E8
100
AcDbEntity
  8
0
100
AcDbLine
 62
7
  6
CONTINUOUS
 10
56.6718675292
 20
141.7071944149
 11
56.638625873
 21
141.6878888004
  0
LINE
  5
3E9
100
AcDbEntity
  8
0
100
AcDbLine
 62
7
  6
CONTINUOUS
 10
85.0749365327
 20
159.0981213446
 11
87.1699243575
 21
160.3077452116
  0
LINE
  5
3EA
100
AcDbEntity
  8
0
100
AcDbLine
 62
7
  6
CONTINUOUS
 10
56.9488507937
 20
141.8704975633
 11
58.4264745406
 21
142.7236621013
  0
LINE
  5
3EB
100
AcDbEntity
  8
0
100
AcDbLine
 62
253
  6
CONTINUOUS
 10
94.4005057049
 20
162.7172412529
 11
94.0467448638
 21
162.5129606017
  0
LINE
  5
3EC
100
AcDbEntity
  8
0
100
AcDbLine
 62
253
  6
CONTINUOUS
 10
94.5564328981
 20
162.4471674323
 11
94.202672057
 21
162.242886781
  0
LINE
  5
3ED
100
AcDbEntity
  8
0
100
AcDbLine
 62
253
  6
CONTINUOUS
 10
58.1431909898
 20
143.5095726594
 11
58.4173396158
 21
143.6652266314
  0
LINE
  5
3EE
100
AcDbEntity
  8
0
100
AcDbLine
 62
253
  6
CONTINUOUS
 10
57.928008477
 20
143.8736588105
 11
58.3557911872
 21
144.1163948411
  0
LWPOLYLINE
  5
3EF
100
AcDbEntity
  8
0
100
AcDbPolyline
 62
7
  6
CONTINUOUS
 90
7
 70
0
 10
56.9488507937
 20
141.8704975633
 10
56.9267734519
 20
141.857979207
 10
56.9043363806
 20
141.8445175438
 10
56.8817264499
 20
141.8306071628
 10
56.8589859148
 20
141.8169453343
 10
56.8362504401
 20
141.8037137274
 10
56.7917292047
 20
141.777373765
  0
LWPOLYLINE
  5
3F0
100
AcDbEntity
  8
RACCORDO
100
AcDbPolyline
 62
7
  6
CONTINUOUS
 90
10
 70
0
 10
83.3106339118
 20
158.3008959925
 10
83.2930423842
 20
158.2909460578
 10
83.2740361704
 20
158.2822022484
 10
83.2537862726
 20
158.2747369045
 10
83.2324440293
 20
158.2686963394
 10
83.2102292144
 20
158.2640527072
 10
83.1874392392
 20
158.2605864806
 10
83.1643174283
 20
158.2582234089
 10
83.141040146
 20
158.2570518047
 10
83.1178123226
 20
158.2570633242
  0
LINE
  5
3F1
100
AcDbEntity
  8
0
100
AcDbLine
 62
7
  6
CONTINUOUS
 10
91.0078869525
 20
162.103241935
 11
85.205839242
 21
158.8222075521
  0
LINE
  5
3F2
100
AcDbEntity
  8
0
100
AcDbLine
 62
253
  6
CONTINUOUS
 10
93.5468210162
 20
163.0407125513
 11
91.2247644864
 21
161.7275990277
  0
LINE
  5
3F3
100
AcDbEntity
  8
0
100
AcDbLine
 62
253
  6
CONTINUOUS
 10
94.0467448638
 20
162.5129606017
 11
91.5775132851
 21
161.1166201866
  0
LINE
  5
3F4
100
AcDbEntity
  8
RACCORDO
100
AcDbLine
 62
253
  6
CONTINUOUS
 10
85.2253807092
 20
158.6773380982
 11
84.5075042863
 21
158.2841766563
  0
LWPOLYLINE
  5
3F5
100
AcDbEntity
  8
RACCORDO
100
AcDbPolyline
 62
253
  6
CONTINUOUS
 90
16
 70
0
 10
78.3271423831
 20
153.7292310927
 10
78.288133097
 20
153.7113619637
 10
78.2458203145
 20
153.6959093639
 10
78.2006573964
 20
153.6830388604
 10
78.153128241
 20
153.6728883543
 10
78.1037421001
 20
153.6655666032
 10
78.0530281218
 20
153.6611520563
 10
78.0015296815
 20
153.6596920131
 10
77.9497985598
 20
153.6612021174
 10
77.8983890303
 20
153.665666189
 10
77.8478519208
 20
153.6730363977
 10
77.7987287117
 20
153.6832337752
 10
77.7515457341
 20
153.6961490619
 10
77.7068085304
 20
153.7116438769
 10
77.6649964377
 20
153.7295522007
 10
77.6265574523
 20
153.7496821544
  0
LINE
  5
3F6
100
AcDbEntity
  8
0
100
AcDbLine
 62
7
  6
CONTINUOUS
 10
57.7530438789
 20
143.8500396735
 11
57.858560468
 21
143.8763766226
  0
LWPOLYLINE
  5
3F7
100
AcDbEntity
  8
0
100
AcDbPolyline
 62
7
  6
CONTINUOUS
 90
13
 70
0
 10
62.5997604249
 20
151.7223883981
 10
62.616304841
 20
151.7161246553
 10
62.6324691649
 20
151.7096643988
 10
62.6481773446
 20
151.7029457117
 10
62.6634004809
 20
151.6958123965
 10
62.6780116631
 20
151.6882912265
 10
62.6917798356
 20
151.6805907538
 10
62.7046102516
 20
151.672634794
 10
62.7164291256
 20
151.6643664481
 10
62.7270081669
 20
151.6560119201
 10
62.7362516715
 20
151.6474712045
 10
62.7440471431
 20
151.6387026037
 10
62.7496031585
 20
151.6307908897
  0
LINE
  5
3F8
100
AcDbEntity
  8
0
100
AcDbLine
 62
7
  6
CONTINUOUS
 10
60.1823399273
 20
154.7377929351
 11
64.0513696093
 21
152.5038636871
  0
LINE
  5
3F9
100
AcDbEntity
  8
0
100
AcDbLine
 62
253
  6
CONTINUOUS
 10
60.0042879052
 20
154.9291884022
 11
64.1259290971
 21
152.5494044343
  0
LWPOLYLINE
  5
3FA
100
AcDbEntity
  8
0
100
AcDbPolyline
 62
7
  6
CONTINUOUS
 90
12
 70
0
 10
60.1827703019
 20
154.7375454443
 10
60.177109964
 20
154.740905589
 10
60.156245658
 20
154.7546010491
 10
60.1360393188
 20
154.7698661184
 10
60.1164654881
 20
154.7865526917
 10
60.0977145742
 20
154.8044475064
 10
60.0797684355
 20
154.823451764
 10
60.0626238272
 20
154.8434195839
 10
60.0465082185
 20
154.8641030651
 10
60.0314789686
 20
154.8853454342
 10
60.0174185992
 20
154.9070766567
 10
60.0042879052
 20
154.9291884022
  0
LWPOLYLINE
  5
3FB
100
AcDbEntity
  8
RACCORDO
100
AcDbPolyline
 62
7
  6
CONTINUOUS
 90
6
 70
0
 10
54.9258551354
 20
176.6367164856
 10
54.9357972374
 20
176.6212320734
 10
54.9425394112
 20
176.6077431996
 10
54.9459666798
 20
176.596479895
 10
54.9460205969
 20
176.5876342368
 10
54.9435925025
 20
176.5823509846
  0
LWPOLYLINE
  5
3FC
100
AcDbEntity
  8
RACCORDO
100
AcDbPolyline
 62
253
  6
CONTINUOUS
 90
6
 70
0
 10
84.7264062783
 20
121.6866933017
 10
84.7158221035
 20
121.7085905366
 10
84.7034444819
 20
121.7288646176
 10
84.6894272298
 20
121.7472820377
 10
84.6739367125
 20
121.7636480206
 10
84.6571443876
 20
121.7778028794
  0
LWPOLYLINE
  5
3FD
100
AcDbEntity
  8
RACCORDO
100
AcDbPolyline
 62
253
  6
CONTINUOUS
 90
12
 70
0
 10
77.6265574483
 20
120.2544632634
 10
77.6323069796
 20
120.1717952745
 10
77.6433313069
 20
120.0927857689
 10
77.659575207
 20
120.0178243934
 10
77.6809578952
 20
119.9472839751
 10
77.7073729686
 20
119.881507456
 10
77.7386921105
 20
119.820809385
 10
77.7747710631
 20
119.7654813584
 10
77.8154291103
 20
119.7158090391
 10
77.8604470432
 20
119.6720556771
 10
77.9095905003
 20
119.6344404866
 10
77.9394313013
 20
119.6157709198
  0
LINE
  5
3FE
100
AcDbEntity
  8
RACCORDO
100
AcDbLine
 62
7
  6
CONTINUOUS
 10
74.0467642035
 20
173.0718470674
 11
74.0454863944
 21
173.1162124782
  0
LWPOLYLINE
  5
3FF
100
AcDbEntity
  8
RACCORDO
100
AcDbPolyline
 62
7
  6
CONTINUOUS
 90
14
 70
0
 10
73.0602079889
 20
165.7776903805
 10
73.0603318409
 20
165.7682233926
 10
73.0618347839
 20
165.7458085637
 10
73.0650718692
 20
165.7216367357
 10
73.0700321268
 20
165.6958311825
 10
73.0768458285
 20
165.6685821513
 10
73.0856245044
 20
165.6400373701
 10
73.0963549337
 20
165.6102358986
 10
73.1092071035
 20
165.579306867
 10
73.1242680638
 20
165.547495054
 10
73.1414387299
 20
165.5150173872
 10
73.1607776692
 20
165.4821029639
 10
73.182474041
 20
165.4489917993
 10
73.2066283258
 20
165.4159398228
  0
LINE
  5
400
100
AcDbEntity
  8
RACCORDO
100
AcDbLine
 62
7
  6
CONTINUOUS
 10
73.0601817164
 20
165.7765070976
 11
73.0601817164
 21
164.5667752897
  0
LINE
  5
401
100
AcDbEntity
  8
RACCORDO
100
AcDbLine
 62
253
  6
CONTINUOUS
 10
73.2066283258
 20
165.4159398228
 11
73.2066283258
 21
164.3563654143
  0
LINE
  5
402
100
AcDbEntity
  8
RACCORDO
100
AcDbLine
 62
7
  6
CONTINUOUS
 10
74.0468763303
 20
173.0739686784
 11
74.0468763303
 21
173.0544358499
  0
LINE
  5
403
100
AcDbEntity
  8
0
100
AcDbLine
 62
7
  6
CONTINUOUS
 10
74.9016217039
 20
168.1564754923
 11
74.9016217039
 21
169.1771546956
  0
LINE
  5
404
100
AcDbEntity
  8
RACCORDO
100
AcDbLine
 62
253
  6
CONTINUOUS
 10
84.7463270258
 20
160.3423384901
 11
84.7462872546
 21
160.3422883449
  0
LINE
  5
405
100
AcDbEntity
  8
RACCORDO
100
AcDbLine
 62
253
  6
CONTINUOUS
 10
84.2000758765
 20
159.7341483218
 11
84.7285498851
 21
160.396653843
  0
LINE
  5
406
100
AcDbEntity
  8
RACCORDO
100
AcDbLine
 62
7
  6
CONTINUOUS
 10
84.2178132436
 20
159.6797828208
 11
84.7462872522
 21
160.342288342
  0
LINE
  5
407
100
AcDbEntity
  8
RACCORDO
100
AcDbLine
 62
7
  6
CONTINUOUS
 10
84.2000758765
 20
159.6578916682
 11
84.2177354415
 21
159.6796932015
  0
LWPOLYLINE
  5
408
100
AcDbEntity
  8
RACCORDO
100
AcDbPolyline
 62
7
  6
CONTINUOUS
 90
13
 70
0
 10
83.3106339118
 20
159.1087153369
 10
83.2928267244
 20
159.0880059015
 10
83.2733570554
 20
159.0684546141
 10
83.2523634346
 20
159.0501736186
 10
83.2300258679
 20
159.0331588138
 10
83.2065144429
 20
159.0176174876
 10
83.1819822998
 20
159.0039767829
 10
83.1566622713
 20
158.992318325
 10
83.1308013935
 20
158.982724188
 10
83.1046028716
 20
158.9756254806
 10
83.0783508997
 20
158.9710823207
 10
83.0523787374
 20
158.9691331164
 10
83.0285496941
 20
158.9700083717
  0
LINE
  5
409
100
AcDbEntity
  8
0
100
AcDbLine
 62
253
  6
CONTINUOUS
 10
94.6168225327
 20
160.8492712398
 11
85.2253807092
 21
155.3139060271
  0
LWPOLYLINE
  5
40A
100
AcDbEntity
  8
0
100
AcDbPolyline
 62
253
  6
CONTINUOUS
 90
3
 70
0
 10
58.3971895523
 20
144.1328305315
 10
58.3764883103
 20
144.1262833737
 10
58.3557912115
 20
144.116394847
  0
LWPOLYLINE
  5
40B
100
AcDbEntity
  8
0
100
AcDbPolyline
 62
253
  6
CONTINUOUS
 90
21
 70
0
 10
54.0315683004
 20
148.1453488322
 10
54.1419515862
 20
148.1702553641
 10
54.2566084328
 20
148.1840738874
 10
54.3755873809
 20
148.1866653022
 10
54.4988314543
 20
148.1781637852
 10
54.6248226412
 20
148.1586729558
 10
54.7535914139
 20
148.1280552673
 10
54.8851014147
 20
148.0864448368
 10
55.0177348387
 20
148.0343530447
 10
55.1514961997
 20
147.971656438
 10
55.286378511
 20
147.8984770297
 10
55.420747554
 20
147.815694887
 10
55.5545898928
 20
147.7232076724
 10
55.6879202646
 20
147.6211184807
 10
55.8191476085
 20
147.5106160506
 10
55.948223791
 20
147.3916785237
 10
56.0752018464
 20
147.2643306131
 10
56.1986431679
 20
147.1298313239
 10
56.3180708213
 20
146.9886018419
 10
56.4339697088
 20
146.840225629
 10
56.5463446464
 20
146.6847054968
  0
LWPOLYLINE
  5
40C
100
AcDbEntity
  8
RACCORDO
100
AcDbPolyline
 62
253
  6
CONTINUOUS
 90
7
 70
0
 10
55.454329144
 20
177.2992220068
 10
55.4625507319
 20
177.2866553573
 10
55.4687315445
 20
177.2753428975
 10
55.4728052778
 20
177.2654077366
 10
55.4747286241
 20
177.2569592855
 10
55.47448308
 20
177.2500868423
 10
55.4721062846
 20
177.2449066538
  0
LWPOLYLINE
  5
40D
100
AcDbEntity
  8
RACCORDO
100
AcDbPolyline
 62
253
  6
CONTINUOUS
 90
22
 70
0
 10
78.3271423831
 20
120.2675074227
 10
78.3310399231
 20
120.2121784611
 10
78.3383837403
 20
120.1597034283
 10
78.3491738346
 20
120.1100823242
 10
78.3634965037
 20
120.0630767091
 10
78.38126545
 20
120.0189250227
 10
78.4022217801
 20
119.9783425844
 10
78.4264176645
 20
119.9413990134
 10
78.4538009327
 20
119.9080246904
 10
78.4839561798
 20
119.8787260771
 10
78.5169172712
 20
119.8535712137
 10
78.5526503416
 20
119.8324920601
 10
78.5906383892
 20
119.8157909579
 10
78.6309221945
 20
119.8035299373
 10
78.6734609772
 20
119.7956469681
 10
78.7176153937
 20
119.792258302
 10
78.7634263482
 20
119.7934423896
 10
78.8108529366
 20
119.7991207802
 10
78.8591331031
 20
119.8091743729
 10
78.9080128291
 20
119.8235634674
 10
78.9577461332
 20
119.842327764
 10
79.0083330153
 20
119.8654672627
  0
LWPOLYLINE
  5
40E
100
AcDbEntity
  8
RACCORDO
100
AcDbPolyline
 62
253
  6
CONTINUOUS
 90
10
 70
0
 10
77.6265574483
 20
153.7496821523
 10
77.5069304675
 20
149.9627321689
 10
77.4172016778
 20
146.1913698241
 10
77.3573784116
 20
142.4359088074
 10
77.3274655571
 20
138.6966614985
 10
77.3274655571
 20
134.9739388298
 10
77.3573784117
 20
131.2680502624
 10
77.417201678
 20
127.5793039078
 10
77.5069304676
 20
123.9080065006
 10
77.6265574483
 20
120.2544632634
  0
LWPOLYLINE
  5
40F
100
AcDbEntity
  8
RACCORDO
100
AcDbPolyline
 62
253
  6
CONTINUOUS
 90
10
 70
0
 10
78.3271423831
 20
153.7292310927
 10
78.2076249255
 20
149.9455577325
 10
78.1179868231
 20
146.1780769075
 10
78.0582280757
 20
142.4267886178
 10
78.0283486711
 20
138.6913815559
 10
78.0283486216
 20
134.9721670291
 10
78.0582279643
 20
131.2700789602
 10
78.1179867117
 20
127.5854286566
 10
78.2076248513
 20
123.9179048107
 10
78.3271423831
 20
120.2675074227
  0
LWPOLYLINE
  5
410
100
AcDbEntity
  8
RACCORDO
100
AcDbPolyline
 62
253
  6
CONTINUOUS
 90
13
 70
0
 10
82.5998246943
 20
159.173967818
 10
82.5895670421
 20
159.1507314328
 10
82.5774959157
 20
159.1288805097
 10
82.5637449179
 20
159.1086535747
 10
82.5484691027
 20
159.0902745627
 10
82.5318341808
 20
159.0739391236
 10
82.5140120956
 20
159.0598167413
 10
82.4951850647
 20
159.0480581415
 10
82.475569334
 20
159.038804389
 10
82.455404852
 20
159.0321664709
 10
82.4349158887
 20
159.0282104765
 10
82.4143252914
 20
159.0269718319
 10
82.4011961945
 20
159.0276095058
  0
LWPOLYLINE
  5
411
100
AcDbEntity
  8
0
100
AcDbPolyline
 62
7
  6
CONTINUOUS
 90
5
 70
0
 10
67.3794393296
 20
142.1967856091
 10
67.3805288266
 20
142.1974150278
 10
67.3832491736
 20
142.1990465353
 10
67.3876616593
 20
142.2014968422
 10
67.4005411375
 20
142.2089964398
  0
LWPOLYLINE
  5
412
100
AcDbEntity
  8
0
100
AcDbPolyline
 62
7
  6
CONTINUOUS
 90
6
 70
0
 10
67.4005411375
 20
142.2089964398
 10
67.4089838704
 20
142.2137975724
 10
67.4184657141
 20
142.2192943343
 10
67.4288666087
 20
142.2254251371
 10
67.4402393656
 20
142.2320207391
 10
67.4525416327
 20
142.238972064
  0
LWPOLYLINE
  5
413
100
AcDbEntity
  8
RACCORDO
100
AcDbPolyline
 62
253
  6
CONTINUOUS
 90
16
 70
0
 10
79.0083330153
 20
154.8909031602
 10
79.0044664372
 20
154.9335315344
 10
78.9968412778
 20
154.9779660765
 10
78.9855409544
 20
155.0237205419
 10
78.9706891044
 20
155.0702942337
 10
78.9524482312
 20
155.1171774885
 10
78.9310179248
 20
155.1638572531
 10
78.9066326781
 20
155.2098226969
 10
78.8795593325
 20
155.2545707835
 10
78.8500941588
 20
155.297611784
 10
78.8185595916
 20
155.3384746712
 10
78.7853007256
 20
155.3767122356
 10
78.7506815559
 20
155.4119059707
 10
78.7150809501
 20
155.4436707072
 10
78.6788884975
 20
155.4716588195
 10
78.6425002769
 20
155.4955639995
  0
LWPOLYLINE
  5
414
100
AcDbEntity
  8
RACCORDO
100
AcDbPolyline
 62
253
  6
CONTINUOUS
 90
9
 70
0
 10
82.2471993233
 20
119.9165254406
 10
82.2481612859
 20
119.8958156228
 10
82.251036705
 20
119.8764420451
 10
82.255794287
 20
119.8586155579
 10
82.2623822549
 20
119.8425301727
 10
82.27072891
 20
119.8283609555
 10
82.2807434098
 20
119.8162621192
 10
82.2923167626
 20
119.8063653389
 10
82.2989699786
 20
119.8020912253
  0
LINE
  5
415
100
AcDbEntity
  8
0
100
AcDbLine
 62
7
  6
CONTINUOUS
 10
78.3754426359
 20
170.1622195741
 11
78.3754426359
 21
171.1829022514
  0
LINE
  5
416
100
AcDbEntity
  8
DRAFT
100
AcDbLine
 62
253
  6
CONTINUOUS
 10
78.5078662879
 20
165.2534191876
 11
78.5078662879
 21
167.0923217826
  0
LINE
  5
417
100
AcDbEntity
  8
RACCORDO
100
AcDbLine
 62
253
  6
CONTINUOUS
 10
78.7179354255
 20
161.1742057679
 11
78.7179354255
 21
162.2337801763
  0
LINE
  5
418
100
AcDbEntity
  8
RACCORDO
100
AcDbLine
 62
253
  6
CONTINUOUS
 10
79.4229793448
 20
161.194291835
 11
79.4229793448
 21
162.397304042
  0
LINE
  5
419
100
AcDbEntity
  8
DRAFT
100
AcDbLine
 62
7
  6
CONTINUOUS
 10
79.4737921142
 20
166.9178129227
 11
79.4737921142
 21
167.2355900269
  0
LINE
  5
41A
100
AcDbEntity
  8
RACCORDO
100
AcDbLine
 62
253
  6
CONTINUOUS
 10
79.5487486918
 20
168.8846922434
 11
79.5487486918
 21
167.6828256876
  0
LINE
  5
41B
100
AcDbEntity
  8
RACCORDO
100
AcDbLine
 62
7
  6
CONTINUOUS
 10
79.674098199
 20
169.0580021936
 11
79.674098199
 21
167.8554245197
  0
LINE
  5
41C
100
AcDbEntity
  8
DRAFT
100
AcDbLine
 62
7
  6
CONTINUOUS
 10
79.7806584941
 20
162.6038232692
 11
79.7806584941
 21
161.4199413678
  0
LINE
  5
41D
100
AcDbEntity
  8
DRAFT
100
AcDbLine
 62
253
  6
CONTINUOUS
 10
79.9220798503
 20
165.2605444157
 11
79.9220798503
 21
166.7683740499
  0
LINE
  5
41E
100
AcDbEntity
  8
DRAFT
100
AcDbLine
 62
7
  6
CONTINUOUS
 10
79.9635791531
 20
166.1728836788
 11
79.9635791531
 21
165.2365832384
  0
LINE
  5
41F
100
AcDbEntity
  8
RACCORDO
100
AcDbLine
 62
7
  6
CONTINUOUS
 10
80.8471389441
 20
160.0426685926
 11
80.8471389441
 21
160.3642582115
  0
LINE
  5
420
100
AcDbEntity
  8
RACCORDO
100
AcDbLine
 62
253
  6
CONTINUOUS
 10
80.9203622488
 20
159.9405999442
 11
80.9203622488
 21
160.2621895632
  0
LWPOLYLINE
  5
421
100
AcDbEntity
  8
RACCORDO
100
AcDbPolyline
 62
7
  6
CONTINUOUS
 90
12
 70
0
 10
80.8471389441
 20
160.3642570087
 10
80.8474105204
 20
160.3759078639
 10
80.849926064
 20
160.4014844373
 10
80.8550686187
 20
160.4267238623
 10
80.8628158736
 20
160.4513943041
 10
80.8731203755
 20
160.475234249
 10
80.8858962633
 20
160.4979613521
 10
80.9010337635
 20
160.5193154852
 10
80.9184029449
 20
160.5390536421
 10
80.9378287628
 20
160.5569244154
 10
80.9590849683
 20
160.5726834973
 10
80.9701734237
 20
160.5796178099
  0
LWPOLYLINE
  5
422
100
AcDbEntity
  8
RACCORDO
100
AcDbPolyline
 62
253
  6
CONTINUOUS
 90
16
 70
0
 10
80.9203622488
 20
160.2621895632
 10
80.9213242119
 20
160.2840102366
 10
80.9241996322
 20
160.3067042812
 10
80.9289572162
 20
160.3300247097
 10
80.9355451874
 20
160.353717722
 10
80.9438918464
 20
160.3775254534
 10
80.9539063476
 20
160.4011887814
 10
80.9654796936
 20
160.424450163
 10
80.9784859281
 20
160.4470564437
 10
80.9927835017
 20
160.4687615981
 10
81.0082168086
 20
160.4893294025
 10
81.024617882
 20
160.5085360109
 10
81.0418082266
 20
160.5261723957
 10
81.0596007555
 20
160.5420466153
 10
81.0778018253
 20
160.5559859037
 10
81.0962133478
 20
160.5678385549
  0
LWPOLYLINE
  5
423
100
AcDbEntity
  8
0
100
AcDbPolyline
 62
253
  6
CONTINUOUS
 90
11
 70
0
 10
67.506183256
 20
136.5502090673
 10
67.5441629882
 20
136.5834322406
 10
67.5667916939
 20
136.6011698102
 10
67.5913164284
 20
136.6191483425
 10
67.6165530147
 20
136.6388094593
 10
67.6432577462
 20
136.6581850847
 10
67.6707074851
 20
136.6761951527
 10
67.6966407175
 20
136.6947812334
 10
67.7212584833
 20
136.7135296939
 10
67.746152719
 20
136.7299742727
 10
67.7721867911
 20
136.7427938043
  0
LINE
  5
424
100
AcDbEntity
  8
0
100
AcDbLine
 62
253
  6
CONTINUOUS
 10
67.4905338785
 20
136.5371127088
 11
67.506183256
 21
136.5502090673
  0
LWPOLYLINE
  5
425
100
AcDbEntity
  8
0
100
AcDbPolyline
 62
7
  6
CONTINUOUS
 90
10
 70
0
 10
67.5374205724
 20
136.8557994451
 10
67.514095368
 20
136.8397411083
 10
67.4925898034
 20
136.8210064769
 10
67.4732294734
 20
136.7997863218
 10
67.4561325741
 20
136.7760146448
 10
67.4418380313
 20
136.7502106751
 10
67.4308796426
 20
136.72347808
 10
67.4231167724
 20
136.6958331813
 10
67.418568288
 20
136.6674143016
 10
67.4173068844
 20
136.639394121
  0
LINE
  5
426
100
AcDbEntity
  8
RACCORDO
100
AcDbLine
 62
253
  6
CONTINUOUS
 10
46.9625704233
 20
171.4546839505
 11
77.6265574483
 21
153.7496821523
  0
LINE
  5
427
100
AcDbEntity
  8
RACCORDO
100
AcDbLine
 62
253
  6
CONTINUOUS
 10
47.9551407652
 20
173.2140607767
 11
78.6425002753
 21
155.4955639985
  0
LWPOLYLINE
  5
428
100
AcDbEntity
  8
RACCORDO
100
AcDbPolyline
 62
253
  6
CONTINUOUS
 90
7
 70
0
 10
68.8186473084
 20
169.5828321929
 10
68.8268688963
 20
169.5702655434
 10
68.8330497089
 20
169.5589530836
 10
68.8371234423
 20
169.5490179227
 10
68.8390467885
 20
169.5405694716
 10
68.8388012444
 20
169.5336970284
 10
68.8364244491
 20
169.5285168399
  0
LWPOLYLINE
  5
429
100
AcDbEntity
  8
RACCORDO
100
AcDbPolyline
 62
7
  6
CONTINUOUS
 90
6
 70
0
 10
68.2901732998
 20
168.9203266717
 10
68.3001154018
 20
168.9048422595
 10
68.3068575756
 20
168.8913533857
 10
68.3102848442
 20
168.8800900811
 10
68.3103387613
 20
168.8712444229
 10
68.3079106669
 20
168.8659611707
  0
LWPOLYLINE
  5
42A
100
AcDbEntity
  8
RACCORDO
100
AcDbPolyline
 62
7
  6
CONTINUOUS
 90
6
 70
0
 10
70.8357577121
 20
167.4505381357
 10
70.8456998141
 20
167.4350537235
 10
70.8524419878
 20
167.4215648497
 10
70.8558692565
 20
167.4103015451
 10
70.8559231736
 20
167.401455887
 10
70.8534950792
 20
167.3961726347
  0
LWPOLYLINE
  5
42B
100
AcDbEntity
  8
RACCORDO
100
AcDbPolyline
 62
253
  6
CONTINUOUS
 90
8
 70
0
 10
82.2471993233
 20
159.1745008466
 10
82.2483946241
 20
159.1514943948
 10
82.2519643621
 20
159.1301793691
 10
82.2578602627
 20
159.1108440187
 10
82.266002594
 20
159.093749821
 10
82.276281245
 20
159.0791279457
 10
82.2885572143
 20
159.067176129
 10
82.2989699786
 20
159.0600666313
  0
LWPOLYLINE
  5
42C
100
AcDbEntity
  8
RACCORDO
100
AcDbPolyline
 62
253
  6
CONTINUOUS
 90
9
 70
0
 10
80.8471389451
 20
160.3642455682
 10
80.8475836787
 20
160.3556520483
 10
80.8505257736
 20
160.3405786785
 10
80.8561611874
 20
160.3258295262
 10
80.8644032191
 20
160.3115478197
 10
80.8751127215
 20
160.2979104962
 10
80.8881258117
 20
160.2850623892
 10
80.9032735327
 20
160.2731183684
 10
80.9203622488
 20
160.2621895632
  0
LWPOLYLINE
  5
42D
100
AcDbEntity
  8
RACCORDO
100
AcDbPolyline
 62
253
  6
CONTINUOUS
 90
9
 70
0
 10
80.8471389442
 20
160.04266458
 10
80.8475367076
 20
160.0345292005
 10
80.8503718462
 20
160.0195298348
 10
80.8558966725
 20
160.0047972281
 10
80.8640441643
 20
159.9904898101
 10
80.8747075327
 20
159.9767748763
 10
80.8877530596
 20
159.9638017097
 10
80.9030300708
 20
159.9517016684
 10
80.9203622488
 20
159.9405999442
  0
LWPOLYLINE
  5
42E
100
AcDbEntity
  8
RACCORDO
100
AcDbPolyline
 62
253
  6
CONTINUOUS
 90
16
 70
0
 10
82.5998246943
 20
159.4955574369
 10
82.598753918
 20
159.5175121529
 10
82.5957498459
 20
159.540353971
 10
82.5908470421
 20
159.5638296915
 10
82.5841057243
 20
159.5876646554
 10
82.5755991208
 20
159.6116098868
 10
82.5654019804
 20
159.6354449109
 10
82.5535911297
 20
159.6589567116
 10
82.5403121703
 20
159.6818263898
 10
82.5257813376
 20
159.7036895331
 10
82.5101879389
 20
159.7242939159
 10
82.4937005296
 20
159.7434469629
 10
82.4765431347
 20
159.7609204629
 10
82.4589242106
 20
159.7765419589
 10
82.4410286568
 20
159.7901858637
 10
82.4230504222
 20
159.8017394573
  0
LWPOLYLINE
  5
42F
100
AcDbEntity
  8
RACCORDO
100
AcDbPolyline
 62
7
  6
CONTINUOUS
 90
12
 70
0
 10
82.3262429063
 20
168.0444402368
 10
82.3244334029
 20
168.1034027109
 10
82.3187331902
 20
168.1596031327
 10
82.3091422681
 20
168.2130415021
 10
82.2955444402
 20
168.2641682644
 10
82.2780559031
 20
168.3125329743
 10
82.2570252457
 20
168.3567842962
 10
82.2323249794
 20
168.3966735664
 10
82.2040825928
 20
168.4324494486
 10
82.1730291414
 20
168.4635065984
 10
82.1393785934
 20
168.4896637653
 10
82.1192380397
 20
168.5022907631
  0
LINE
  5
430
100
AcDbEntity
  8
RACCORDO
100
AcDbLine
 62
7
  6
CONTINUOUS
 10
81.550543289
 20
159.1720404681
 11
81.550543289
 21
159.4921988219
  0
LINE
  5
431
100
AcDbEntity
  8
RACCORDO
100
AcDbLine
 62
253
  6
CONTINUOUS
 10
81.6237665937
 20
159.0667459796
 11
81.6237665937
 21
159.4499206034
  0
LINE
  5
432
100
AcDbEntity
  8
RACCORDO
100
AcDbLine
 62
253
  6
CONTINUOUS
 10
82.2471993233
 20
159.4960904655
 11
82.2471993233
 21
159.1745008466
  0
LINE
  5
433
100
AcDbEntity
  8
RACCORDO
100
AcDbLine
 62
253
  6
CONTINUOUS
 10
82.2471993233
 20
120.2381150596
 11
82.2471993233
 21
119.9165254406
  0
LINE
  5
434
100
AcDbEntity
  8
RACCORDO
100
AcDbLine
 62
7
  6
CONTINUOUS
 10
82.3262429063
 20
168.0444402368
 11
82.3262429063
 21
167.9932530668
  0
LINE
  5
435
100
AcDbEntity
  8
RACCORDO
100
AcDbLine
 62
253
  6
CONTINUOUS
 10
82.5998246943
 20
159.4955574369
 11
82.5998246943
 21
159.173967818
  0
LINE
  5
436
100
AcDbEntity
  8
RACCORDO
100
AcDbLine
 62
253
  6
CONTINUOUS
 10
82.5998246943
 20
120.2375820309
 11
82.5998246943
 21
119.915992412
  0
LINE
  5
437
100
AcDbEntity
  8
RACCORDO
100
AcDbLine
 62
253
  6
CONTINUOUS
 10
82.9580085408
 20
158.9764939617
 11
82.9580085408
 21
158.2963714013
  0
LINE
  5
438
100
AcDbEntity
  8
RACCORDO
100
AcDbLine
 62
253
  6
CONTINUOUS
 10
82.9580085408
 20
121.6548871083
 11
82.9580085408
 21
121.2334885802
  0
LINE
  5
439
100
AcDbEntity
  8
RACCORDO
100
AcDbLine
 62
7
  6
CONTINUOUS
 10
83.1338620503
 20
120.8968753451
 11
83.1338620503
 21
121.1319529678
  0
LINE
  5
43A
100
AcDbEntity
  8
RACCORDO
100
AcDbLine
 62
253
  6
CONTINUOUS
 10
83.3106339118
 20
159.1087153369
 11
83.3106339118
 21
158.3008959925
  0
LINE
  5
43B
100
AcDbEntity
  8
RACCORDO
100
AcDbLine
 62
253
  6
CONTINUOUS
 10
83.3106339118
 20
121.8305302984
 11
83.3106339118
 21
121.3501858407
  0
LWPOLYLINE
  5
43C
100
AcDbEntity
  8
RACCORDO
100
AcDbPolyline
 62
253
  6
CONTINUOUS
 90
9
 70
0
 10
79.0083330153
 20
119.8654672627
 10
79.0044663494
 20
119.8229182424
 10
78.9968410073
 20
119.7831074776
 10
78.9855404368
 20
119.7464706367
 10
78.9706883056
 20
119.7134086544
 10
78.9524471477
 20
119.6842833439
 10
78.9310165848
 20
119.6594134375
 10
78.906631142
 20
119.6390710985
 10
78.8839305909
 20
119.6255831871
  0
LWPOLYLINE
  5
43D
100
AcDbEntity
  8
RACCORDO
100
AcDbPolyline
 62
7
  6
CONTINUOUS
 90
6
 70
0
 10
84.8002515073
 20
160.4809000714
 10
84.79644792
 20
160.4514783158
 10
84.7891668049
 20
160.4226545226
 10
84.7784884106
 20
160.3948389205
 10
84.764517739
 20
160.3683941207
 10
84.7463270258
 20
160.3423384901
  0
LWPOLYLINE
  5
43E
100
AcDbEntity
  8
0
100
AcDbPolyline
 62
253
  6
CONTINUOUS
 90
11
 70
0
 10
69.5302272757
 20
137.6644155122
 10
69.5464320652
 20
137.6747230951
 10
69.5615747304
 20
137.6824898667
 10
69.5755326919
 20
137.6885184465
 10
69.5877667318
 20
137.6937346267
 10
69.5983619159
 20
137.6984034175
 10
69.608034478
 20
137.7017223552
 10
69.6164551708
 20
137.7036163386
 10
69.6229460045
 20
137.7044168222
 10
69.6277089789
 20
137.703350441
 10
69.6296666304
 20
137.7016553951
  0
LINE
  5
43F
100
AcDbEntity
  8
0
100
AcDbLine
 62
7
  6
CONTINUOUS
 10
68.7292172782
 20
137.5805097345
 11
67.7220448937
 21
136.9680464016
  0
LINE
  5
440
100
AcDbEntity
  8
0
100
AcDbLine
 62
7
  6
CONTINUOUS
 10
67.7220448937
 20
136.9680464016
 11
67.5374205577
 21
136.8557994361
  0
LINE
  5
441
100
AcDbEntity
  8
0
100
AcDbLine
 62
253
  6
CONTINUOUS
 10
67.7721794455
 20
136.7427888557
 11
68.9637125512
 21
137.4644009899
  0
LWPOLYLINE
  5
442
100
AcDbEntity
  8
0
100
AcDbPolyline
 62
7
  6
CONTINUOUS
 90
4
 70
0
 10
65.6296821472
 20
135.8351196877
 10
65.6147880203
 20
135.8263371316
 10
65.6009113976
 20
135.818263956
 10
65.5880007025
 20
135.8109543751
  0
LWPOLYLINE
  5
443
100
AcDbEntity
  8
0
100
AcDbPolyline
 62
7
  6
CONTINUOUS
 90
3
 70
0
 10
65.7827461276
 20
135.9246926485
 10
65.7610202533
 20
135.9120254584
 10
65.7195362911
 20
135.8875548809
  0
LINE
  5
444
100
AcDbEntity
  8
0
100
AcDbLine
 62
7
  6
CONTINUOUS
 10
65.7195362911
 20
135.8875548809
 11
65.6296821472
 21
135.8351196877
  0
LINE
  5
445
100
AcDbEntity
  8
0
100
AcDbLine
 62
7
  6
CONTINUOUS
 10
65.939971826
 20
136.0180955028
 11
67.6153229227
 21
136.9854255498
  0
LINE
  5
446
100
AcDbEntity
  8
0
100
AcDbLine
 62
253
  6
CONTINUOUS
 10
97.1339547371
 20
153.8852432565
 11
94.8974827323
 21
152.5939278893
  0
LINE
  5
447
100
AcDbEntity
  8
RACCORDO
100
AcDbLine
 62
7
  6
CONTINUOUS
 10
70.05897784
 20
137.4229320143
 11
69.9165325519
 21
137.3406858902
  0
LINE
  5
448
100
AcDbEntity
  8
RACCORDO
100
AcDbLine
 62
253
  6
CONTINUOUS
 10
70.1703085391
 20
137.4195631925
 11
69.9558049019
 21
137.2957114807
  0
LINE
  5
449
100
AcDbEntity
  8
0
100
AcDbLine
 62
253
  6
CONTINUOUS
 10
97.8409568121
 20
152.660680243
 11
94.8974827323
 21
150.9611492814
  0
LWPOLYLINE
  5
44A
100
AcDbEntity
  8
0
100
AcDbPolyline
 62
7
  6
CONTINUOUS
 90
7
 70
0
 10
65.939971826
 20
136.0180955028
 10
65.9178471669
 20
136.0055210555
 10
65.8953748765
 20
135.9920010176
 10
65.8727426486
 20
135.9780367504
 10
65.8499964822
 20
135.9643358213
 10
65.8272663239
 20
135.9510801347
 10
65.7827461276
 20
135.9246926485
  0
LINE
  5
44B
100
AcDbEntity
  8
0
100
AcDbLine
 62
253
  6
CONTINUOUS
 10
69.0208516176
 20
137.3841563127
 11
69.5302273
 21
137.6644154781
  0
LWPOLYLINE
  5
44C
100
AcDbEntity
  8
0
100
AcDbPolyline
 62
7
  6
CONTINUOUS
 90
9
 70
0
 10
67.6153229227
 20
136.9854255498
 10
67.6338588181
 20
136.9955952357
 10
67.6493484149
 20
137.0046463302
 10
67.6618921062
 20
137.0123150976
 10
67.6716047845
 20
137.0180798543
 10
67.6787404875
 20
137.0220209338
 10
67.6835789415
 20
137.0248393852
 10
67.6862771983
 20
137.0265035387
 10
67.687009603
 20
137.026812873
  0
LINE
  5
44D
100
AcDbEntity
  8
0
100
AcDbLine
 62
7
  6
CONTINUOUS
 10
69.3060318106
 20
137.7756583656
 11
68.8881538372
 21
137.546667179
  0
LWPOLYLINE
  5
44E
100
AcDbEntity
  8
0
100
AcDbPolyline
 62
7
  6
CONTINUOUS
 90
7
 70
0
 10
68.7292315562
 20
137.5804854064
 10
68.7391291153
 20
137.5856339904
 10
68.7536266621
 20
137.5905253865
 10
68.769298811
 20
137.5928851353
 10
68.7861040638
 20
137.5927698333
 10
68.8035138472
 20
137.5901588531
 10
68.8215558461
 20
137.5849711592
  0
LINE
  5
44F
100
AcDbEntity
  8
0
100
AcDbLine
 62
253
  6
CONTINUOUS
 10
69.3060318106
 20
137.7756583656
 11
69.3129815182
 21
137.7790641853
  0
LWPOLYLINE
  5
450
100
AcDbEntity
  8
0
100
AcDbPolyline
 62
7
  6
CONTINUOUS
 90
11
 70
0
 10
69.3060318107
 20
137.7756583656
 10
69.3311964307
 20
137.7876752681
 10
69.3577374767
 20
137.7968706962
 10
69.3852541315
 20
137.8030494071
 10
69.4131432132
 20
137.806081739
 10
69.4411449184
 20
137.8059734618
 10
69.4693525727
 20
137.8026657122
 10
69.4974538987
 20
137.7960463079
 10
69.5247976057
 20
137.7861485395
 10
69.5509691052
 20
137.7730492429
 10
69.5755668749
 20
137.756879445
  0
LWPOLYLINE
  5
451
100
AcDbEntity
  8
0
100
AcDbPolyline
 62
253
  6
CONTINUOUS
 90
11
 70
0
 10
69.3129815182
 20
137.7790641853
 10
69.3300498312
 20
137.7844771584
 10
69.3485383729
 20
137.7865208036
 10
69.3681739905
 20
137.7851649277
 10
69.3886665839
 20
137.7804295627
 10
69.4097133922
 20
137.7723846696
 10
69.4310034661
 20
137.761149105
 10
69.4522222626
 20
137.7468888652
 10
69.4730562916
 20
137.7298146332
 10
69.4931977475
 20
137.7101786668
 10
69.5123490571
 20
137.6882710709
  0
LINE
  5
452
100
AcDbEntity
  8
RACCORDO
100
AcDbLine
 62
7
  6
CONTINUOUS
 10
78.8555788228
 20
162.2614441356
 11
78.9141076574
 21
162.2747632969
  0
LWPOLYLINE
  5
453
100
AcDbEntity
  8
RACCORDO
100
AcDbPolyline
 62
7
  6
CONTINUOUS
 90
8
 70
0
 10
78.9141076574
 20
162.2747632969
 10
78.9727488072
 20
162.2876917323
 10
79.0019133302
 20
162.2937935814
 10
79.0307930178
 20
162.2994213665
 10
79.0592542973
 20
162.3045335215
 10
79.0871647541
 20
162.3090027146
 10
79.1143826791
 20
162.3126377289
 10
79.1407578053
 20
162.3152988699
  0
LINE
  5
454
100
AcDbEntity
  8
RACCORDO
100
AcDbLine
 62
7
  6
CONTINUOUS
 10
82.4011220466
 20
159.0276162946
 11
83.0286006427
 21
158.9700135874
  0
LINE
  5
455
100
AcDbEntity
  8
RACCORDO
100
AcDbLine
 62
253
  6
CONTINUOUS
 10
82.5998246943
 20
159.173967818
 11
83.3106339118
 21
159.1087153369
  0
LWPOLYLINE
  5
456
100
AcDbEntity
  8
RACCORDO
100
AcDbPolyline
 62
253
  6
CONTINUOUS
 90
8
 70
0
 10
51.697912163
 20
176.7287338927
 10
51.6874993987
 20
176.7358433904
 10
51.6752234294
 20
176.7477952072
 10
51.6649447784
 20
176.7624170824
 10
51.656802447
 20
176.7795112801
 10
51.6509065465
 20
176.7988466305
 10
51.6473368085
 20
176.8201616562
 10
51.6461415077
 20
176.843168108
  0
LWPOLYLINE
  5
457
100
AcDbEntity
  8
RACCORDO
100
AcDbPolyline
 62
253
  6
CONTINUOUS
 90
7
 70
0
 10
71.3642317207
 20
168.1130436569
 10
71.3724533086
 20
168.1004770074
 10
71.3786341212
 20
168.0891645476
 10
71.3827078545
 20
168.0792293868
 10
71.3846312008
 20
168.0707809356
 10
71.3843856567
 20
168.0639084924
 10
71.3820088613
 20
168.058728304
  0
LWPOLYLINE
  5
458
100
AcDbEntity
  8
RACCORDO
100
AcDbPolyline
 62
7
  6
CONTINUOUS
 90
13
 70
0
 10
84.2000758765
 20
160.4195214834
 10
84.1984500774
 20
160.4469716975
 10
84.1938433805
 20
160.4757077291
 10
84.1863346049
 20
160.5052379139
 10
84.1760522233
 20
160.5350569999
 10
84.1631721641
 20
160.564654792
 10
84.1479148009
 20
160.5935248815
 10
84.1305411823
 20
160.6211733103
 10
84.1113485654
 20
160.6471270227
 10
84.0906653298
 20
160.6709419588
 10
84.068845359
 20
160.6922106529
 10
84.0462619858
 20
160.7105692042
 10
84.0233016044
 20
160.7257035038
  0
LWPOLYLINE
  5
459
100
AcDbEntity
  8
RACCORDO
100
AcDbPolyline
 62
253
  6
CONTINUOUS
 90
16
 70
0
 10
84.7285498851
 20
160.7246560631
 10
84.7276633332
 20
160.746717147
 10
84.7248209254
 20
160.7696523075
 10
84.7200554537
 20
160.7932073219
 10
84.7134255741
 20
160.81710663
 10
84.7050033954
 20
160.8411006093
 10
84.6948628327
 20
160.8649683021
 10
84.6830799802
 20
160.8884962687
 10
84.6697998281
 20
160.9113652575
 10
84.6552387044
 20
160.93321091
 10
84.63958661
 20
160.9537814009
 10
84.6230130111
 20
160.9728846809
 10
84.6057433966
 20
160.9902933857
 10
84.587987951
 20
161.0058360564
 10
84.5699333582
 20
161.0193881353
 10
84.551775613
 20
161.0308380835
  0
LWPOLYLINE
  5
45A
100
AcDbEntity
  8
RACCORDO
100
AcDbPolyline
 62
7
  6
CONTINUOUS
 90
13
 70
0
 10
84.3426913973
 20
169.1637252648
 10
84.3423238011
 20
169.1753223181
 10
84.3412117692
 20
169.1863581146
 10
84.3393553015
 20
169.1968326544
 10
84.3367378449
 20
169.2068130189
 10
84.3333759526
 20
169.2162321266
 10
84.329319284
 20
169.2248887329
 10
84.3245468634
 20
169.2327584951
 10
84.3190796665
 20
169.2398657559
 10
84.3130302795
 20
169.2460822984
 10
84.3064362311
 20
169.2513653839
 10
84.2992599926
 20
169.2557577512
 10
84.2934456125
 20
169.2584882702
  0
LINE
  5
45B
100
AcDbEntity
  8
0
100
AcDbLine
 62
7
  6
CONTINUOUS
 10
84.0196580821
 20
172.8901380596
 11
84.0196580821
 21
172.3129306078
  0
LINE
  5
45C
100
AcDbEntity
  8
RACCORDO
100
AcDbLine
 62
7
  6
CONTINUOUS
 10
84.2000758765
 20
120.820707463
 11
84.2000758765
 21
122.2735625842
  0
LINE
  5
45D
100
AcDbEntity
  8
RACCORDO
100
AcDbLine
 62
7
  6
CONTINUOUS
 10
84.2000758765
 20
158.8644771375
 11
84.2000758765
 21
160.4195214834
  0
LINE
  5
45E
100
AcDbEntity
  8
RACCORDO
100
AcDbLine
 62
7
  6
CONTINUOUS
 10
84.3426913973
 20
169.1637252648
 11
84.3426913973
 21
169.0666091594
  0
LINE
  5
45F
100
AcDbEntity
  8
RACCORDO
100
AcDbLine
 62
253
  6
CONTINUOUS
 10
84.7285498851
 20
121.1322658359
 11
84.7285498851
 21
121.460268056
  0
LINE
  5
460
100
AcDbEntity
  8
RACCORDO
100
AcDbLine
 62
253
  6
CONTINUOUS
 10
84.7285498851
 20
160.396653843
 11
84.7285498851
 21
160.7246560631
  0
LINE
  5
461
100
AcDbEntity
  8
RACCORDO
100
AcDbLine
 62
7
  6
CONTINUOUS
 10
84.8008500166
 20
121.2337986573
 11
84.8008500166
 21
121.5618008774
  0
LINE
  5
462
100
AcDbEntity
  8
RACCORDO
100
AcDbLine
 62
7
  6
CONTINUOUS
 10
84.8008500166
 20
160.4981866644
 11
84.8008500166
 21
160.8261888845
  0
LINE
  5
463
100
AcDbEntity
  8
RACCORDO
100
AcDbLine
 62
253
  6
CONTINUOUS
 10
85.1054925643
 20
165.6783192028
 11
85.1054925643
 21
164.4764467334
  0
LINE
  5
464
100
AcDbEntity
  8
RACCORDO
100
AcDbLine
 62
7
  6
CONTINUOUS
 10
85.2253807092
 20
158.6773380982
 11
85.2253807092
 21
123.0119929009
  0
LINE
  5
465
100
AcDbEntity
  8
0
100
AcDbLine
 62
7
  6
CONTINUOUS
 10
85.2253807092
 20
126.375424972
 11
85.2253807092
 21
155.3139060271
  0
LINE
  5
466
100
AcDbEntity
  8
RACCORDO
100
AcDbLine
 62
7
  6
CONTINUOUS
 10
85.2290866282
 20
165.8506214127
 11
85.2290866282
 21
164.6480440195
  0
LWPOLYLINE
  5
467
100
AcDbEntity
  8
RACCORDO
100
AcDbPolyline
 62
7
  6
CONTINUOUS
 90
12
 70
0
 10
84.8008500166
 20
121.2337998601
 10
84.8005784403
 20
121.222149005
 10
84.7980628968
 20
121.1965724315
 10
84.7929203421
 20
121.1713330065
 10
84.7851730871
 20
121.1466625647
 10
84.7748685853
 20
121.1228226198
 10
84.7620926974
 20
121.1000955168
 10
84.7469551973
 20
121.0787413837
 10
84.7295860159
 20
121.0590032267
 10
84.7101601979
 20
121.0411324534
 10
84.6889039925
 20
121.0253733715
 10
84.677815537
 20
121.0184390589
  0
LINE
  5
468
100
AcDbEntity
  8
RACCORDO
100
AcDbLine
 62
7
  6
CONTINUOUS
 10
84.800849664
 20
160.4984291152
 11
84.8002515073
 21
160.4809000714
  0
LWPOLYLINE
  5
469
100
AcDbEntity
  8
RACCORDO
100
AcDbPolyline
 62
253
  6
CONTINUOUS
 90
9
 70
0
 10
84.7285498851
 20
121.1322658359
 10
84.7276633331
 20
121.1114412567
 10
84.7248209252
 20
121.0919751229
 10
84.7200554534
 20
121.0740817435
 10
84.7134255741
 20
121.0579671413
 10
84.705003396
 20
121.0437963763
 10
84.6948628338
 20
121.0317040866
 10
84.6830799816
 20
121.0218149943
 10
84.677815537
 20
121.0184390589
  0
LWPOLYLINE
  5
46A
100
AcDbEntity
  8
RACCORDO
100
AcDbPolyline
 62
253
  6
CONTINUOUS
 90
9
 70
0
 10
82.5998246943
 20
119.915992412
 10
82.5987539181
 20
119.8950614648
 10
82.5957498461
 20
119.8755019885
 10
82.5908470424
 20
119.8575293151
 10
82.5841057244
 20
119.8413503689
 10
82.5755991202
 20
119.8271308567
 10
82.5654019792
 20
119.8150058991
 10
82.5535911283
 20
119.8051006412
 10
82.5470757761
 20
119.8010017189
  0
LWPOLYLINE
  5
46B
100
AcDbEntity
  8
RACCORDO
100
AcDbPolyline
 62
7
  6
CONTINUOUS
 90
7
 70
0
 10
84.2000758765
 20
120.820707463
 10
84.1986758591
 20
120.7950043175
 10
84.1942594075
 20
120.7714781387
 10
84.1869020857
 20
120.7505314522
 10
84.1767297753
 20
120.732522649
 10
84.1639165213
 20
120.717759854
 10
84.1493402766
 20
120.706879948
  0
LWPOLYLINE
  5
46C
100
AcDbEntity
  8
DRAFT
100
AcDbPolyline
 62
7
  6
CONTINUOUS
 90
10
 70
0
 10
84.5075042863
 20
122.6046121588
 10
84.5052578245
 20
122.56716345
 10
84.5000381116
 20
122.531811323
 10
84.4918729597
 20
122.4988637212
 10
84.4808221084
 20
122.4686376769
 10
84.4669655345
 20
122.4413643295
 10
84.4503709803
 20
122.4172220663
 10
84.4311723527
 20
122.3964908622
 10
84.4094746624
 20
122.3793572261
 10
84.3993201131
 20
122.3730926121
  0
LINE
  5
46D
100
AcDbEntity
  8
0
100
AcDbLine
 62
7
  6
CONTINUOUS
 10
70.2910086614
 20
135.4972188981
 11
70.2907529301
 21
135.497067635
  0
LWPOLYLINE
  5
46E
100
AcDbEntity
  8
0
100
AcDbPolyline
 62
253
  6
CONTINUOUS
 90
24
 70
0
 10
70.2907529301
 20
135.497067635
 10
70.2600425383
 20
135.4797332683
 10
70.1700112584
 20
135.4376264085
 10
70.074784783
 20
135.4054006664
 10
69.9747619884
 20
135.3831911431
 10
69.8703307289
 20
135.3710745759
 10
69.7619230448
 20
135.3691015882
 10
69.6499925702
 20
135.3772834528
 10
69.5349830031
 20
135.3955756505
 10
69.4173683152
 20
135.4239023402
 10
69.2976386748
 20
135.4621495746
 10
69.176277226
 20
135.5101535281
 10
69.0537891558
 20
135.5677112775
 10
68.930676279
 20
135.6345903895
 10
68.8074226201
 20
135.7105283691
 10
68.6845415256
 20
135.7952080839
 10
68.5625332903
 20
135.8882915592
 10
68.4418612946
 20
135.9894449315
 10
68.3230576994
 20
136.098227293
 10
68.2065802321
 20
136.2142314603
 10
68.0927829228
 20
136.3371617164
 10
67.9821112293
 20
136.466602865
 10
67.875087828
 20
136.6019914326
 10
67.7721794455
 20
136.7427888557
  0
LWPOLYLINE
  5
46F
100
AcDbEntity
  8
RACCORDO
100
AcDbPolyline
 62
7
  6
CONTINUOUS
 90
5
 70
0
 10
78.7179354255
 20
162.2337801763
 10
78.7438407915
 20
162.2379346454
 10
78.7706561399
 20
162.2430415041
 10
78.798280572
 20
162.2488445061
 10
78.8555788228
 20
162.2614441356
  0
LWPOLYLINE
  5
470
100
AcDbEntity
  8
RACCORDO
100
AcDbPolyline
 62
7
  6
CONTINUOUS
 90
9
 70
0
 10
82.2989699786
 20
159.0600666313
 10
82.3114957203
 20
159.0533024377
 10
82.3244190463
 20
159.0472478716
 10
82.337693365
 20
159.0419308287
 10
82.3512716363
 20
159.0373748615
 10
82.3651005123
 20
159.0336010307
 10
82.3791257275
 20
159.0306254944
 10
82.3932993755
 20
159.0284587506
 10
82.4011961945
 20
159.0276095058
  0
LWPOLYLINE
  5
471
100
AcDbEntity
  8
RACCORDO
100
AcDbPolyline
 62
7
  6
CONTINUOUS
 90
9
 70
0
 10
68.9346518142
 20
166.7764564452
 10
68.9471775559
 20
166.7696922516
 10
68.9601008819
 20
166.7636376855
 10
68.9733752006
 20
166.7583206426
 10
68.9869534719
 20
166.7537646754
 10
69.0007823478
 20
166.7499908445
 10
69.0148075631
 20
166.7470153083
 10
69.0289812111
 20
166.7448485645
 10
69.0368780301
 20
166.7439993197
  0
LWPOLYLINE
  5
472
100
AcDbEntity
  8
RACCORDO
100
AcDbPolyline
 62
7
  6
CONTINUOUS
 90
9
 70
0
 10
66.3890674019
 20
168.2462449812
 10
66.4015931436
 20
168.2394807876
 10
66.4145164696
 20
168.2334262215
 10
66.4277907883
 20
168.2281091786
 10
66.4413690596
 20
168.2235532114
 10
66.4551979356
 20
168.2197793805
 10
66.4692231508
 20
168.2168038443
 10
66.4833967988
 20
168.2146371005
 10
66.4912936178
 20
168.2137878557
  0
LINE
  5
473
100
AcDbEntity
  8
RACCORDO
100
AcDbLine
 62
7
  6
CONTINUOUS
 10
82.9580085408
 20
158.2963714013
 11
81.6237665937
 21
159.0667459796
  0
LINE
  5
474
100
AcDbEntity
  8
RACCORDO
100
AcDbLine
 62
7
  6
CONTINUOUS
 10
69.5936903764
 20
166.0127612152
 11
68.2594484293
 21
166.7831357935
  0
LINE
  5
475
100
AcDbEntity
  8
RACCORDO
100
AcDbLine
 62
7
  6
CONTINUOUS
 10
67.0481059641
 20
167.4825497512
 11
65.713864017
 21
168.2529243295
  0
LINE
  5
476
100
AcDbEntity
  8
RACCORDO
100
AcDbLine
 62
7
  6
CONTINUOUS
 10
53.6837877997
 20
175.1989395651
 11
52.3495458526
 21
175.9693141433
  0
LINE
  5
477
100
AcDbEntity
  8
RACCORDO
100
AcDbLine
 62
7
  6
CONTINUOUS
 10
51.697912163
 20
176.7287338927
 11
53.0247492375
 21
175.9626347951
  0
LINE
  5
478
100
AcDbEntity
  8
RACCORDO
100
AcDbLine
 62
7
  6
CONTINUOUS
 10
65.0622303274
 20
169.0123440788
 11
66.3890674019
 21
168.2462449812
  0
LINE
  5
479
100
AcDbEntity
  8
RACCORDO
100
AcDbLine
 62
7
  6
CONTINUOUS
 10
67.6078147397
 20
167.5425555428
 11
68.9346518142
 21
166.7764564452
  0
LINE
  5
47A
100
AcDbEntity
  8
RACCORDO
100
AcDbLine
 62
7
  6
CONTINUOUS
 10
80.9721329041
 20
159.8261657289
 11
82.2989699786
 21
159.0600666313
  0
LINE
  5
47B
100
AcDbEntity
  8
RACCORDO
100
AcDbLine
 62
7
  6
CONTINUOUS
 10
78.7179354255
 20
161.1742057679
 11
73.2066283258
 21
164.3563654143
  0
LINE
  5
47C
100
AcDbEntity
  8
RACCORDO
100
AcDbLine
 62
7
  6
CONTINUOUS
 10
62.8080328488
 20
170.3603841177
 11
57.2967257491
 21
173.5425437642
  0
LINE
  5
47D
100
AcDbEntity
  8
RACCORDO
100
AcDbLine
 62
253
  6
CONTINUOUS
 10
51.6461415077
 20
176.843168108
 11
52.9729785822
 21
176.0770690104
  0
LINE
  5
47E
100
AcDbEntity
  8
RACCORDO
100
AcDbLine
 62
253
  6
CONTINUOUS
 10
65.0104596721
 20
169.1267782941
 11
66.3372967466
 21
168.3606791965
  0
LINE
  5
47F
100
AcDbEntity
  8
RACCORDO
100
AcDbLine
 62
253
  6
CONTINUOUS
 10
67.5560440844
 20
167.6569897581
 11
68.8828811589
 21
166.8908906605
  0
LINE
  5
480
100
AcDbEntity
  8
RACCORDO
100
AcDbLine
 62
253
  6
CONTINUOUS
 10
80.9203622488
 20
159.9405999442
 11
82.2471993233
 21
159.1745008466
  0
LINE
  5
481
100
AcDbEntity
  8
RACCORDO
100
AcDbLine
 62
253
  6
CONTINUOUS
 10
51.6461415077
 20
177.1647577269
 11
52.9729785822
 21
176.3986586293
  0
LINE
  5
482
100
AcDbEntity
  8
RACCORDO
100
AcDbLine
 62
253
  6
CONTINUOUS
 10
65.0104596721
 20
169.448367913
 11
66.3372967466
 21
168.6822688154
  0
LINE
  5
483
100
AcDbEntity
  8
RACCORDO
100
AcDbLine
 62
253
  6
CONTINUOUS
 10
67.5560440844
 20
167.9785793771
 11
68.8828811589
 21
167.2124802794
  0
LINE
  5
484
100
AcDbEntity
  8
RACCORDO
100
AcDbLine
 62
253
  6
CONTINUOUS
 10
80.9203622488
 20
160.2621895632
 11
82.2471993233
 21
159.4960904655
  0
LINE
  5
485
100
AcDbEntity
  8
RACCORDO
100
AcDbLine
 62
253
  6
CONTINUOUS
 10
51.8219926066
 20
177.4704067187
 11
53.1488296811
 21
176.7043076211
  0
LINE
  5
486
100
AcDbEntity
  8
RACCORDO
100
AcDbLine
 62
253
  6
CONTINUOUS
 10
65.1863107711
 20
169.7540169048
 11
66.5131478455
 21
168.9879178072
  0
LINE
  5
487
100
AcDbEntity
  8
RACCORDO
100
AcDbLine
 62
253
  6
CONTINUOUS
 10
67.7318951833
 20
168.2842283688
 11
69.0587322578
 21
167.5181292712
  0
LINE
  5
488
100
AcDbEntity
  8
RACCORDO
100
AcDbLine
 62
253
  6
CONTINUOUS
 10
81.0962133478
 20
160.5678385549
 11
82.4230504222
 21
159.8017394573
  0
LWPOLYLINE
  5
489
100
AcDbEntity
  8
RACCORDO
100
AcDbPolyline
 62
7
  6
CONTINUOUS
 90
11
 70
0
 10
51.697912163
 20
176.7287338927
 10
51.6744759733
 20
176.7440782561
 10
51.6527067407
 20
176.7621303608
 10
51.6329980291
 20
176.7826626885
 10
51.6157647203
 20
176.8052816568
 10
51.6012054809
 20
176.8297228726
 10
51.5894125612
 20
176.8559332555
 10
51.5806313778
 20
176.8836162391
 10
51.5751058498
 20
176.9122363882
 10
51.5729473505
 20
176.941419313
 10
51.5729182137
 20
176.9452789438
  0
LWPOLYLINE
  5
48A
100
AcDbEntity
  8
RACCORDO
100
AcDbPolyline
 62
7
  6
CONTINUOUS
 90
11
 70
0
 10
65.0622303274
 20
169.0123440788
 10
65.0387941377
 20
169.0276884422
 10
65.0170249051
 20
169.0457405469
 10
64.9973161935
 20
169.0662728746
 10
64.9800828847
 20
169.0888918429
 10
64.9655236453
 20
169.1133330587
 10
64.9537307256
 20
169.1395434417
 10
64.9449495422
 20
169.1672264252
 10
64.9394240143
 20
169.1958465743
 10
64.9372655149
 20
169.2250294991
 10
64.9372363781
 20
169.2288891299
  0
LWPOLYLINE
  5
48B
100
AcDbEntity
  8
RACCORDO
100
AcDbPolyline
 62
7
  6
CONTINUOUS
 90
11
 70
0
 10
67.6078147397
 20
167.5425555428
 10
67.58437855
 20
167.5578999062
 10
67.5626093174
 20
167.5759520109
 10
67.5429006058
 20
167.5964843386
 10
67.525667297
 20
167.6191033069
 10
67.5111080575
 20
167.6435445227
 10
67.4993151379
 20
167.6697549057
 10
67.4905339545
 20
167.6974378892
 10
67.4850084265
 20
167.7260580384
 10
67.4828499272
 20
167.7552409631
 10
67.4828207904
 20
167.759100594
  0
LWPOLYLINE
  5
48C
100
AcDbEntity
  8
RACCORDO
100
AcDbPolyline
 62
7
  6
CONTINUOUS
 90
11
 70
0
 10
80.9721329041
 20
159.8261657289
 10
80.9486967144
 20
159.8415100924
 10
80.9269274818
 20
159.859562197
 10
80.9072187702
 20
159.8800945247
 10
80.8899854614
 20
159.902713493
 10
80.875426222
 20
159.9271547088
 10
80.8636333023
 20
159.9533650918
 10
80.8548521189
 20
159.9810480753
 10
80.849326591
 20
160.0096682245
 10
80.8471680916
 20
160.0388511492
 10
80.8471389548
 20
160.0427107801
  0
LWPOLYLINE
  5
48D
100
AcDbEntity
  8
RACCORDO
100
AcDbPolyline
 62
253
  6
CONTINUOUS
 90
8
 70
0
 10
65.0622303274
 20
169.0123440788
 10
65.0518175631
 20
169.0194535765
 10
65.0395415938
 20
169.0314053933
 10
65.0292629428
 20
169.0460272685
 10
65.0211206115
 20
169.0631214662
 10
65.0152247109
 20
169.0824568166
 10
65.0116549729
 20
169.1037718423
 10
65.0104596721
 20
169.1267782941
  0
LWPOLYLINE
  5
48E
100
AcDbEntity
  8
RACCORDO
100
AcDbPolyline
 62
253
  6
CONTINUOUS
 90
8
 70
0
 10
67.6078147397
 20
167.5425555428
 10
67.5974019754
 20
167.5496650405
 10
67.585126006
 20
167.5616168573
 10
67.5748473551
 20
167.5762387325
 10
67.5667050237
 20
167.5933329302
 10
67.5608091232
 20
167.6126682806
 10
67.5572393852
 20
167.6339833063
 10
67.5560440844
 20
167.6569897581
  0
LWPOLYLINE
  5
48F
100
AcDbEntity
  8
RACCORDO
100
AcDbPolyline
 62
253
  6
CONTINUOUS
 90
8
 70
0
 10
80.9721329041
 20
159.8261657289
 10
80.9617201398
 20
159.8332752266
 10
80.9494441705
 20
159.8452270434
 10
80.9391655195
 20
159.8598489186
 10
80.9310231882
 20
159.8769431163
 10
80.9251272876
 20
159.8962784667
 10
80.9215575496
 20
159.9175934924
 10
80.9203622488
 20
159.9405999442
  0
LWPOLYLINE
  5
490
100
AcDbEntity
  8
RACCORDO
100
AcDbPolyline
 62
7
  6
CONTINUOUS
 90
9
 70
0
 10
83.3379116733
 20
161.8152040667
 10
83.3152462415
 20
161.8267939498
 10
83.2912546647
 20
161.8361066894
 10
83.2662163272
 20
161.8429510136
 10
83.2404584873
 20
161.8471782381
 10
83.2143024757
 20
161.84869729
 10
83.1880252597
 20
161.8474600562
 10
83.1618611638
 20
161.8434346377
 10
83.136235503
 20
161.8366543295
  0
LWPOLYLINE
  5
491
100
AcDbEntity
  8
RACCORDO
100
AcDbPolyline
 62
253
  6
CONTINUOUS
 90
9
 70
0
 10
84.6758560516
 20
161.0426917511
 10
84.669503025
 20
161.0460046491
 10
84.6552054408
 20
161.0511993252
 10
84.6397721326
 20
161.0539451306
 10
84.6233710639
 20
161.0542121878
 10
84.6061807244
 20
161.0519975925
 10
84.5883881988
 20
161.0473254455
 10
84.5701871323
 20
161.0402465954
 10
84.551775613
 20
161.0308380835
  0
LWPOLYLINE
  5
492
100
AcDbEntity
  8
RACCORDO
100
AcDbPolyline
 62
253
  6
CONTINUOUS
 90
9
 70
0
 10
71.3115378871
 20
168.759081565
 10
71.3051848606
 20
168.762394463
 10
71.2908872764
 20
168.767589139
 10
71.2754539682
 20
168.7703349445
 10
71.2590528995
 20
168.7706020017
 10
71.24186256
 20
168.7683874064
 10
71.2240700344
 20
168.7637152594
 10
71.2058689678
 20
168.7566364093
 10
71.1874574486
 20
168.7472278974
  0
LWPOLYLINE
  5
493
100
AcDbEntity
  8
RACCORDO
100
AcDbPolyline
 62
7
  6
CONTINUOUS
 90
9
 70
0
 10
53.0247492375
 20
175.9626347951
 10
53.0372749792
 20
175.9558706015
 10
53.0501983052
 20
175.9498160354
 10
53.0634726239
 20
175.9444989925
 10
53.0770508952
 20
175.9399430253
 10
53.0908797711
 20
175.9361691944
 10
53.1049049864
 20
175.9331936582
 10
53.1190786344
 20
175.9310269144
 10
53.1269754534
 20
175.9301776696
  0
LWPOLYLINE
  5
494
100
AcDbEntity
  8
0
100
AcDbPolyline
 62
253
  6
CONTINUOUS
 90
24
 70
0
 10
97.37779688
 20
153.9065130918
 10
97.3756451246
 20
153.907734232
 10
97.366796198
 20
153.9123285829
 10
97.3576625103
 20
153.9164001095
 10
97.3482549436
 20
153.919943961
 10
97.3385847064
 20
153.9229559152
 10
97.3286633199
 20
153.9254323835
 10
97.3185026049
 20
153.9273704154
 10
97.3081146669
 20
153.9287677018
 10
97.2975118824
 20
153.929622578
 10
97.2867068839
 20
153.9299340254
 10
97.2757125447
 20
153.9297016731
 10
97.2645419638
 20
153.9289257977
 10
97.25320845
 20
153.9276073237
 10
97.2417255063
 20
153.925747822
 10
97.2301068139
 20
153.923349508
 10
97.2183662155
 20
153.9204152391
 10
97.2065176993
 20
153.9169485113
 10
97.1945753817
 20
153.9129534549
 10
97.1825534912
 20
153.9084348298
 10
97.1704663509
 20
153.9033980194
 10
97.1583283619
 20
153.8978490249
 10
97.1461539855
 20
153.8917944573
 10
97.1339577267
 20
153.8852415304
  0
LINE
  5
495
100
AcDbEntity
  8
DRAFT
100
AcDbLine
 62
7
  6
CONTINUOUS
 10
81.1017258128
 20
160.6571736549
 11
79.7806584941
 21
161.4199413678
  0
LINE
  5
496
100
AcDbEntity
  8
DRAFT
100
AcDbLine
 62
7
  6
CONTINUOUS
 10
73.0601817164
 20
165.3002604319
 11
70.8357577121
 21
166.5846149734
  0
LINE
  5
497
100
AcDbEntity
  8
DRAFT
100
AcDbLine
 62
7
  6
CONTINUOUS
 10
65.1918232361
 20
169.8433520047
 11
63.8707559174
 21
170.6061197177
  0
LINE
  5
498
100
AcDbEntity
  8
DRAFT
100
AcDbLine
 62
7
  6
CONTINUOUS
 10
57.1502791397
 20
174.4864387818
 11
54.9258551354
 21
175.7707933233
  0
LINE
  5
499
100
AcDbEntity
  8
RACCORDO
100
AcDbLine
 62
253
  6
CONTINUOUS
 10
78.7179354255
 20
162.2337801763
 11
73.2066283258
 21
165.4159398228
  0
LINE
  5
49A
100
AcDbEntity
  8
RACCORDO
100
AcDbLine
 62
253
  6
CONTINUOUS
 10
62.8080328488
 20
171.4199585262
 11
57.2967257491
 21
174.6021181727
  0
LINE
  5
49B
100
AcDbEntity
  8
RACCORDO
100
AcDbLine
 62
253
  6
CONTINUOUS
 10
79.1407578053
 20
162.3152988699
 11
73.0650031556
 21
165.8233634576
  0
LINE
  5
49C
100
AcDbEntity
  8
RACCORDO
100
AcDbLine
 62
253
  6
CONTINUOUS
 10
63.2308552286
 20
171.5014772198
 11
57.1551005789
 21
175.0095418075
  0
LINE
  5
49D
100
AcDbEntity
  8
RACCORDO
100
AcDbLine
 62
7
  6
CONTINUOUS
 10
84.8717196085
 20
159.2898504449
 11
84.2124545231
 21
159.6705018426
  0
LINE
  5
49E
100
AcDbEntity
  8
DRAFT
100
AcDbLine
 62
7
  6
CONTINUOUS
 10
72.208445108
 20
166.6014664333
 11
70.8481363587
 21
167.3868916565
  0
LINE
  5
49F
100
AcDbEntity
  8
DRAFT
100
AcDbLine
 62
7
  6
CONTINUOUS
 10
68.4310425238
 20
168.7824913434
 11
68.3025519464
 21
168.8566801925
  0
LINE
  5
4A0
100
AcDbEntity
  8
RACCORDO
100
AcDbLine
 62
7
  6
CONTINUOUS
 10
56.2985425313
 20
175.7876447832
 11
54.938233782
 21
176.5730700064
  0
LINE
  5
4A1
100
AcDbEntity
  8
0
100
AcDbLine
 62
7
  6
CONTINUOUS
 10
71.4601383209
 20
167.1900919109
 11
70.9322427049
 21
167.4948922235
  0
LINE
  5
4A2
100
AcDbEntity
  8
0
100
AcDbLine
 62
7
  6
CONTINUOUS
 10
68.5652085823
 20
168.86158806
 11
68.3866582926
 21
168.9646807595
  0
LINE
  5
4A3
100
AcDbEntity
  8
DRAFT
100
AcDbLine
 62
7
  6
CONTINUOUS
 10
57.6482162429
 20
175.3828180403
 11
63.8707559174
 21
171.7900016191
  0
LINE
  5
4A4
100
AcDbEntity
  8
DRAFT
100
AcDbLine
 62
7
  6
CONTINUOUS
 10
73.5581188196
 20
166.1966396905
 11
79.7806584941
 21
162.6038232692
  0
LINE
  5
4A5
100
AcDbEntity
  8
RACCORDO
100
AcDbLine
 62
7
  6
CONTINUOUS
 10
84.0233016044
 20
160.7257035038
 11
82.6797938737
 21
161.5014280294
  0
LINE
  5
4A6
100
AcDbEntity
  8
RACCORDO
100
AcDbLine
 62
7
  6
CONTINUOUS
 10
70.65898344
 20
168.4420933177
 11
69.3154757093
 21
169.2178178433
  0
LINE
  5
4A7
100
AcDbEntity
  8
RACCORDO
100
AcDbLine
 62
7
  6
CONTINUOUS
 10
68.1133990277
 20
169.9118818537
 11
66.769891297
 21
170.6876063793
  0
LINE
  5
4A8
100
AcDbEntity
  8
RACCORDO
100
AcDbLine
 62
7
  6
CONTINUOUS
 10
54.7490808633
 20
177.6282716676
 11
53.4055731326
 21
178.4039961932
  0
LINE
  5
4A9
100
AcDbEntity
  8
DRAFT
100
AcDbLine
 62
7
  6
CONTINUOUS
 10
74.9016217039
 20
166.2327170647
 11
79.8513691722
 21
163.3747949114
  0
LINE
  5
4AA
100
AcDbEntity
  8
DRAFT
100
AcDbLine
 62
7
  6
CONTINUOUS
 10
63.9414665955
 20
172.5609732613
 11
58.9917191272
 21
175.4188954146
  0
LINE
  5
4AB
100
AcDbEntity
  8
RACCORDO
100
AcDbLine
 62
253
  6
CONTINUOUS
 10
53.9396104885
 20
178.7059185658
 11
55.2775548719
 21
177.9334062473
  0
LINE
  5
4AC
100
AcDbEntity
  8
RACCORDO
100
AcDbLine
 62
253
  6
CONTINUOUS
 10
67.303928653
 20
170.9895287519
 11
68.6418730363
 21
170.2170164334
  0
LINE
  5
4AD
100
AcDbEntity
  8
RACCORDO
100
AcDbLine
 62
253
  6
CONTINUOUS
 10
69.8495130652
 20
169.5197402159
 11
71.1874574486
 21
168.7472278974
  0
LINE
  5
4AE
100
AcDbEntity
  8
RACCORDO
100
AcDbLine
 62
253
  6
CONTINUOUS
 10
83.2138312297
 20
161.8033504021
 11
84.551775613
 21
161.0308380835
  0
LINE
  5
4AF
100
AcDbEntity
  8
RACCORDO
100
AcDbLine
 62
7
  6
CONTINUOUS
 10
54.0636909322
 20
178.7177722305
 11
55.4016353155
 21
177.9452599119
  0
LINE
  5
4B0
100
AcDbEntity
  8
RACCORDO
100
AcDbLine
 62
7
  6
CONTINUOUS
 10
67.4280090966
 20
171.0013824166
 11
68.7659534799
 21
170.228870098
  0
LINE
  5
4B1
100
AcDbEntity
  8
RACCORDO
100
AcDbLine
 62
7
  6
CONTINUOUS
 10
69.9735935089
 20
169.5315938806
 11
71.3115378922
 21
168.7590815621
  0
LINE
  5
4B2
100
AcDbEntity
  8
RACCORDO
100
AcDbLine
 62
7
  6
CONTINUOUS
 10
83.3379116733
 20
161.8152040667
 11
84.6758560566
 21
161.0426917482
  0
LINE
  5
4B3
100
AcDbEntity
  8
0
100
AcDbLine
 62
253
  6
CONTINUOUS
 10
94.8974827323
 20
155.1765522865
 11
97.1339547371
 21
153.8852432565
  0
LINE
  5
4B4
100
AcDbEntity
  8
0
100
AcDbLine
 62
7
  6
CONTINUOUS
 10
94.8974827323
 20
155.338615395
 11
97.3777994494
 21
153.9065116083
  0
LINE
  5
4B5
100
AcDbEntity
  8
0
100
AcDbLine
 62
7
  6
CONTINUOUS
 10
86.8074089213
 20
160.0984326235
 11
86.0127373385
 21
160.5572660358
  0
LINE
  5
4B6
100
AcDbEntity
  8
0
100
AcDbLine
 62
7
  6
CONTINUOUS
 10
78.4773762603
 20
164.9080890821
 11
78.1962946786
 21
165.0703820646
  0
LINE
  5
4B7
100
AcDbEntity
  8
0
100
AcDbLine
 62
7
  6
CONTINUOUS
 10
78.6139323051
 20
164.9925373886
 11
79.3666208196
 21
164.5579444738
  0
LWPOLYLINE
  5
4B8
100
AcDbEntity
  8
0
100
AcDbPolyline
 62
253
  6
CONTINUOUS
 90
58
 70
0
 10
97.1339547104
 20
153.8852432411
 10
97.153604304
 20
153.8737778537
 10
97.173233954
 20
153.861699052
 10
97.1928286383
 20
153.8490159829
 10
97.2123730818
 20
153.8357383131
 10
97.2318526246
 20
153.8218760521
 10
97.2512532263
 20
153.8074394916
 10
97.2705602696
 20
153.7924393671
 10
97.2897587772
 20
153.7768871502
 10
97.3088342773
 20
153.7607948422
 10
97.3277721763
 20
153.74417465
 10
97.3465580314
 20
153.7270391056
 10
97.3651777615
 20
153.7094013109
 10
97.3836171498
 20
153.6912746354
 10
97.401862128
 20
153.6726727764
 10
97.4198990472
 20
153.6536098829
 10
97.4377141929
 20
153.6341003598
 10
97.4552939334
 20
153.6141590044
 10
97.4726250036
 20
153.5938010648
 10
97.4896941925
 20
153.5730419954
 10
97.5064884998
 20
153.5518974993
 10
97.5229952819
 20
153.5303836598
 10
97.5392019919
 20
153.5085167852
 10
97.5550962728
 20
153.4863134557
 10
97.5706661149
 20
153.4637905674
 10
97.5858996788
 20
153.4409652306
 10
97.6007853809
 20
153.4178547347
 10
97.6153119831
 20
153.3944765908
 10
97.6294684796
 20
153.3708485182
 10
97.6432440863
 20
153.3469884682
 10
97.6566283256
 20
153.3229145888
 10
97.6696110428
 20
153.2986451953
 10
97.682182396
 20
153.2741986782
 10
97.6943328396
 20
153.2495935246
 10
97.7060531925
 20
153.2248484101
 10
97.7173345563
 20
153.1999821435
 10
97.7281683031
 20
153.1750135744
 10
97.7385462526
 20
153.1499616943
 10
97.7484605549
 20
153.1248455229
 10
97.7579036036
 20
153.0996840515
 10
97.7668682994
 20
153.0744963904
 10
97.7753478643
 20
153.0493017069
 10
97.7833357261
 20
153.0241191129
 10
97.7908258857
 20
152.9989678129
 10
97.7978127258
 20
152.9738668849
 10
97.8042908185
 20
152.9488352204
 10
97.8102553365
 20
152.9238918485
 10
97.8157018094
 20
152.8990557681
 10
97.8206259306
 20
152.8743457287
 10
97.8250240688
 20
152.8497805056
 10
97.82889295
 20
152.8253788378
 10
97.832229417
 20
152.8011592569
 10
97.8350310256
 20
152.7771404513
 10
97.8372957855
 20
152.7533404646
 10
97.8390218022
 20
152.7297766496
 10
97.8402077408
 20
152.7064667206
 10
97.840852872
 20
152.6834287206
 10
97.8409567892
 20
152.6606802299
  0
LWPOLYLINE
  5
4B9
100
AcDbEntity
  8
RACCORDO
100
AcDbPolyline
 62
7
  6
CONTINUOUS
 90
11
 70
0
 10
55.4016353155
 20
177.9452599119
 10
55.4230413002
 20
177.9313981595
 10
55.4431314482
 20
177.9152428707
 10
55.4615991636
 20
177.8969418885
 10
55.4781494866
 20
177.8767083958
 10
55.4925447016
 20
177.8547749963
 10
55.5046079334
 20
177.8313520361
 10
55.5141922791
 20
177.8066275255
 10
55.5211118158
 20
177.7809900519
 10
55.5252584072
 20
177.7549019307
 10
55.5266292445
 20
177.7286852225
  0
LWPOLYLINE
  5
4BA
100
AcDbEntity
  8
RACCORDO
100
AcDbPolyline
 62
7
  6
CONTINUOUS
 90
11
 70
0
 10
68.7659534799
 20
170.228870098
 10
68.7873594647
 20
170.2150083456
 10
68.8074496126
 20
170.1988530568
 10
68.8259173281
 20
170.1805520746
 10
68.842467651
 20
170.1603185819
 10
68.8568628661
 20
170.1383851824
 10
68.8689260979
 20
170.1149622222
 10
68.8785104435
 20
170.0902377116
 10
68.8854299802
 20
170.064600238
 10
68.8895765716
 20
170.0385121168
 10
68.890947409
 20
170.0122954086
  0
LWPOLYLINE
  5
4BB
100
AcDbEntity
  8
RACCORDO
100
AcDbPolyline
 62
7
  6
CONTINUOUS
 90
11
 70
0
 10
71.3115378922
 20
168.7590815621
 10
71.3329438769
 20
168.7452198096
 10
71.3530340249
 20
168.7290645208
 10
71.3715017403
 20
168.7107635386
 10
71.3880520633
 20
168.6905300459
 10
71.4024472783
 20
168.6685966464
 10
71.4145105101
 20
168.6451736863
 10
71.4240948557
 20
168.6204491757
 10
71.4310143925
 20
168.594811702
 10
71.4351609839
 20
168.5687235809
 10
71.4365318212
 20
168.5425068726
  0
LWPOLYLINE
  5
4BC
100
AcDbEntity
  8
RACCORDO
100
AcDbPolyline
 62
7
  6
CONTINUOUS
 90
11
 70
0
 10
84.6758560566
 20
161.0426917482
 10
84.6972620413
 20
161.0288299957
 10
84.7173521893
 20
161.012674707
 10
84.7358199048
 20
160.9943737248
 10
84.7523702277
 20
160.974140232
 10
84.7667654428
 20
160.9522068325
 10
84.7788286745
 20
160.9287838724
 10
84.7884130202
 20
160.9040593618
 10
84.7953325569
 20
160.8784218881
 10
84.7994791483
 20
160.852333767
 10
84.8008499857
 20
160.8261170587
  0
LWPOLYLINE
  5
4BD
100
AcDbEntity
  8
DRAFT
100
AcDbPolyline
 62
7
  6
CONTINUOUS
 90
16
 70
0
 10
84.2000758765
 20
158.8644771375
 10
84.2338505606
 20
158.8365468139
 10
84.2668589256
 20
158.8053739458
 10
84.2987879016
 20
158.7713033241
 10
84.3294621512
 20
158.7346268021
 10
84.358479072
 20
158.6957956354
 10
84.3852597236
 20
158.6554738695
 10
84.4094763829
 20
158.6143109186
 10
84.4311736553
 20
158.5725488959
 10
84.4503719111
 20
158.5302509686
 10
84.4669661467
 20
158.4877390897
 10
84.4808224614
 20
158.4454543824
 10
84.4918731179
 20
158.4036087356
 10
84.5000381441
 20
158.3625167732
 10
84.5052578036
 20
158.3225904115
 10
84.5075042863
 20
158.2841766563
  0
LWPOLYLINE
  5
4BE
100
AcDbEntity
  8
RACCORDO
100
AcDbPolyline
 62
253
  6
CONTINUOUS
 90
7
 70
0
 10
84.7285498851
 20
160.396653843
 10
84.736771473
 20
160.3840871935
 10
84.7429522856
 20
160.3727747337
 10
84.747026019
 20
160.3628395729
 10
84.7489493652
 20
160.3543911217
 10
84.7487038211
 20
160.3475186785
 10
84.7463270258
 20
160.3423384901
  0
LWPOLYLINE
  5
4BF
100
AcDbEntity
  8
RACCORDO
100
AcDbPolyline
 62
7
  6
CONTINUOUS
 90
6
 70
0
 10
84.2000758765
 20
159.7341483218
 10
84.2100179785
 20
159.7186639096
 10
84.2167601523
 20
159.7051750358
 10
84.2201874209
 20
159.6939117312
 10
84.220241338
 20
159.6850660731
 10
84.2178132436
 20
159.6797828208
  0
LINE
  5
4C0
100
AcDbEntity
  8
RACCORDO
100
AcDbLine
 62
7
  6
CONTINUOUS
 10
89.9566667802
 20
163.8856687175
 11
89.9553889711
 21
163.9300341283
  0
LWPOLYLINE
  5
4C1
100
AcDbEntity
  8
0
100
AcDbPolyline
 62
7
  6
CONTINUOUS
 90
46
 70
0
 10
90.3445336487
 20
168.9461141362
 10
90.344343038
 20
168.9654082466
 10
90.3434095986
 20
168.9931516559
 10
90.3417067295
 20
169.0209748031
 10
90.3392402096
 20
169.0488957594
 10
90.3360187537
 20
169.0768835378
 10
90.3320605397
 20
169.1048537158
 10
90.3273776511
 20
169.1327966278
 10
90.321979145
 20
169.1607107207
 10
90.3158899045
 20
169.1885199313
 10
90.3091241706
 20
169.2162124397
 10
90.3016915338
 20
169.2437897387
 10
90.2936186395
 20
169.2711923773
 10
90.2849191089
 20
169.2984110631
 10
90.2756033438
 20
169.3254442509
 10
90.2656985155
 20
169.3522411882
 10
90.2552223222
 20
169.3787829342
 10
90.2441810265
 20
169.4050772502
 10
90.2325878303
 20
169.4311107641
 10
90.22045452
 20
169.4568729089
 10
90.2077877057
 20
169.4823610373
 10
90.1945935381
 20
169.5075713854
 10
90.1808786941
 20
169.532495977
 10
90.1666490171
 20
169.5571268912
 10
90.1519076493
 20
169.581458695
 10
90.1366584257
 20
169.6054823951
 10
90.1209049517
 20
169.6291881542
 10
90.1046475087
 20
169.6525685474
 10
90.0878850786
 20
169.675616486
 10
90.0706209094
 20
169.6983165106
 10
90.052860023
 20
169.7206503622
 10
90.0345926783
 20
169.7426164019
 10
90.0158263095
 20
169.7641899085
 10
89.9965910739
 20
169.7853222695
 10
89.9768830501
 20
169.8060036796
 10
89.9567034616
 20
169.8262176466
 10
89.9360902845
 20
169.8459115687
 10
89.9150369763
 20
169.8650781437
 10
89.8935470189
 20
169.8836987479
 10
89.8716748495
 20
169.9017129002
 10
89.8494170521
 20
169.9191122348
 10
89.8267762707
 20
169.9358812384
 10
89.803818528
 20
169.9519606864
 10
89.7805670475
 20
169.9673273952
 10
89.7570025347
 20
169.9819861089
 10
89.7410436209
 20
169.9914036192
  0
LINE
  5
4C2
100
AcDbEntity
  8
RACCORDO
100
AcDbLine
 62
7
  6
CONTINUOUS
 10
89.5477344786
 20
162.8320764336
 11
89.5477344786
 21
163.0083898997
  0
LINE
  5
4C3
100
AcDbEntity
  8
RACCORDO
100
AcDbLine
 62
253
  6
CONTINUOUS
 10
89.8164488072
 20
163.566160898
 11
89.8164488072
 21
163.1718106231
  0
LINE
  5
4C4
100
AcDbEntity
  8
RACCORDO
100
AcDbLine
 62
253
  6
CONTINUOUS
 10
89.8164488072
 20
128.4950404756
 11
89.8164488072
 21
128.3502050354
  0
LINE
  5
4C5
100
AcDbEntity
  8
RACCORDO
100
AcDbLine
 62
7
  6
CONTINUOUS
 10
89.956778907
 20
163.8877903286
 11
89.956778907
 21
163.3747808457
  0
LINE
  5
4C6
100
AcDbEntity
  8
RACCORDO
100
AcDbLine
 62
7
  6
CONTINUOUS
 10
89.956778907
 20
128.580136493
 11
89.956778907
 21
128.4296574308
  0
LINE
  5
4C7
100
AcDbEntity
  8
0
100
AcDbLine
 62
253
  6
CONTINUOUS
 10
90.2042035753
 20
168.7455708091
 11
90.2042043402
 21
165.2948199923
  0
LINE
  5
4C8
100
AcDbEntity
  8
0
100
AcDbLine
 62
7
  6
CONTINUOUS
 10
90.3445336751
 20
168.9461172794
 11
90.3445336751
 21
165.213795593
  0
LWPOLYLINE
  5
4C9
100
AcDbEntity
  8
0
100
AcDbPolyline
 62
253
  6
CONTINUOUS
 90
24
 70
0
 10
90.3445336751
 20
168.9461141362
 10
90.3445154734
 20
168.9436539663
 10
90.3440703897
 20
168.9336924331
 10
90.3430301457
 20
168.9237457031
 10
90.3413959806
 20
168.9138256273
 10
90.3391698416
 20
168.9039440245
 10
90.3363543808
 20
168.8941126679
 10
90.3329529526
 20
168.884343271
 10
90.3289696097
 20
168.8746474731
 10
90.3244090978
 20
168.8650368261
 10
90.3192768506
 20
168.8555227803
 10
90.3135789825
 20
168.8461166711
 10
90.3073222823
 20
168.8368297051
 10
90.3005142044
 20
168.827672947
 10
90.2931628599
 20
168.8186573064
 10
90.2852770076
 20
168.8097935247
 10
90.2768660428
 20
168.8010921626
 10
90.2679399865
 20
168.7925635869
 10
90.2585094735
 20
168.7842179589
 10
90.2485857395
 20
168.7760652218
 10
90.2381806079
 20
168.7681150888
 10
90.2273064757
 20
168.7603770321
 10
90.2159762984
 20
168.7528602709
 10
90.2042035753
 20
168.7455737609
  0
LINE
  5
4CA
100
AcDbEntity
  8
0
100
AcDbLine
 62
7
  6
CONTINUOUS
 10
97.9812869119
 20
146.4342589282
 11
98.0498138962
 21
146.4842830481
  0
LINE
  5
4CB
100
AcDbEntity
  8
0
100
AcDbLine
 62
7
  6
CONTINUOUS
 10
82.3262429063
 20
167.9932530668
 11
80.9663109662
 21
167.7795746022
  0
LINE
  5
4CC
100
AcDbEntity
  8
RACCORDO
100
AcDbLine
 62
7
  6
CONTINUOUS
 10
69.0368038821
 20
166.7440061085
 11
69.6642824783
 21
166.6864034013
  0
LINE
  5
4CD
100
AcDbEntity
  8
RACCORDO
100
AcDbLine
 62
253
  6
CONTINUOUS
 10
69.2355065299
 20
166.8903576319
 11
69.9463157474
 21
166.8251051508
  0
LINE
  5
4CE
100
AcDbEntity
  8
RACCORDO
100
AcDbLine
 62
7
  6
CONTINUOUS
 10
66.4912194699
 20
168.2137946444
 11
67.118698066
 21
168.1561919373
  0
LINE
  5
4CF
100
AcDbEntity
  8
RACCORDO
100
AcDbLine
 62
253
  6
CONTINUOUS
 10
66.6899221176
 20
168.3601461678
 11
67.4007313351
 21
168.2948936868
  0
LWPOLYLINE
  5
4D0
100
AcDbEntity
  8
ASSI
100
AcDbPolyline
 62
7
  6
CONTINUOUS
 90
3
 70
0
 10
66.3143484043
 20
173.9151053251
 10
66.2319751797
 20
173.9562113832
 10
66.1834149021
 20
173.9822861966
  0
LINE
  5
4D1
100
AcDbEntity
  8
0
100
AcDbLine
 62
7
  6
CONTINUOUS
 10
62.7399720205
 20
175.6276096078
 11
62.7393278096
 21
175.6279388545
  0
LWPOLYLINE
  5
4D2
100
AcDbEntity
  8
RACCORDO
100
AcDbPolyline
 62
7
  6
CONTINUOUS
 90
9
 70
0
 10
69.9735935089
 20
169.5315938806
 10
69.9509280771
 20
169.5431837637
 10
69.9269365002
 20
169.5524965033
 10
69.9018981628
 20
169.5593408275
 10
69.8761403229
 20
169.563568052
 10
69.8499843112
 20
169.5650871038
 10
69.8237070952
 20
169.5638498701
 10
69.7975429994
 20
169.5598244516
 10
69.7719173386
 20
169.5530441434
  0
LWPOLYLINE
  5
4D3
100
AcDbEntity
  8
RACCORDO
100
AcDbPolyline
 62
7
  6
CONTINUOUS
 90
9
 70
0
 10
67.4280090966
 20
171.0013824166
 10
67.4053436649
 20
171.0129722997
 10
67.381352088
 20
171.0222850393
 10
67.3563137505
 20
171.0291293634
 10
67.3305559106
 20
171.0333565879
 10
67.304399899
 20
171.0348756398
 10
67.278122683
 20
171.0336384061
 10
67.2519585872
 20
171.0296129875
 10
67.2263329263
 20
171.0228326794
  0
LWPOLYLINE
  5
4D4
100
AcDbEntity
  8
RACCORDO
100
AcDbPolyline
 62
7
  6
CONTINUOUS
 90
9
 70
0
 10
54.0636909322
 20
178.7177722305
 10
54.0410255004
 20
178.7293621136
 10
54.0170339236
 20
178.7386748532
 10
53.9919955861
 20
178.7455191773
 10
53.9662377462
 20
178.7497464018
 10
53.9400817345
 20
178.7512654537
 10
53.9138045185
 20
178.75002822
 10
53.8876404227
 20
178.7460028014
 10
53.8620147619
 20
178.7392224933
  0
LWPOLYLINE
  5
4D5
100
AcDbEntity
  8
RACCORDO
100
AcDbPolyline
 62
253
  6
CONTINUOUS
 90
9
 70
0
 10
68.7659534749
 20
170.228870101
 10
68.7596004483
 20
170.232182999
 10
68.7453028641
 20
170.237377675
 10
68.7298695559
 20
170.2401234805
 10
68.7134684872
 20
170.2403905377
 10
68.6962781477
 20
170.2381759424
 10
68.6784856221
 20
170.2335037954
 10
68.6602845556
 20
170.2264249453
 10
68.6418730363
 20
170.2170164334
  0
LWPOLYLINE
  5
4D6
100
AcDbEntity
  8
RACCORDO
100
AcDbPolyline
 62
253
  6
CONTINUOUS
 90
9
 70
0
 10
55.4016353104
 20
177.9452599149
 10
55.3952822839
 20
177.9485728129
 10
55.3809846997
 20
177.9537674889
 10
55.3655513915
 20
177.9565132943
 10
55.3491503228
 20
177.9567803516
 10
55.3319599833
 20
177.9545657563
 10
55.3141674577
 20
177.9498936093
 10
55.2959663911
 20
177.9428147592
 10
55.2775548719
 20
177.9334062473
  0
LWPOLYLINE
  5
4D7
100
AcDbEntity
  8
0
100
AcDbPolyline
 62
253
  6
CONTINUOUS
 90
20
 70
0
 10
80.0485889995
 20
165.1932447778
 10
80.0423197931
 20
165.1965856673
 10
80.036066441
 20
165.1996128514
 10
80.0298408432
 20
165.202320458
 10
80.0236546331
 20
165.2047032992
 10
80.0175198223
 20
165.2067566188
 10
80.011448758
 20
165.2084762211
 10
80.0054531848
 20
165.2098587815
 10
79.999544325
 20
165.2109017142
 10
79.9937335065
 20
165.2116030131
 10
79.9880318156
 20
165.2119613428
 10
79.9824500759
 20
165.2119760253
 10
79.9769989068
 20
165.2116470323
 10
79.9716886807
 20
165.2109749888
 10
79.9665295074
 20
165.2099611731
 10
79.9615312098
 20
165.2086075153
 10
79.9567033021
 20
165.206916592
 10
79.9520549716
 20
165.2048916212
 10
79.9475950652
 20
165.2025364568
 10
79.9458642133
 20
165.2015019542
  0
LWPOLYLINE
  5
4D8
100
AcDbEntity
  8
0
100
AcDbPolyline
 62
253
  6
CONTINUOUS
 90
20
 70
0
 10
62.3709194698
 20
175.400109611
 10
62.3646476343
 20
175.4034518374
 10
62.3583924294
 20
175.4064797442
 10
62.3521657577
 20
175.4091875697
 10
62.3459794672
 20
175.4115701616
 10
62.3398453295
 20
175.413622986
 10
62.3337750167
 20
175.415342137
 10
62.3277800795
 20
175.4167243431
 10
62.3218719251
 20
175.4177669745
 10
62.3160617958
 20
175.4184680471
 10
62.3103607471
 20
175.4188262268
 10
62.3047796271
 20
175.4188408323
 10
62.2993290557
 20
175.4185118355
 10
62.2940194042
 20
175.4178398627
 10
62.2888607762
 20
175.4168261924
 10
62.2838629873
 20
175.4154727535
 10
62.2790355476
 20
175.4137821213
 10
62.2743876428
 20
175.4117575127
 10
62.269928117
 20
175.4094027803
 10
62.2681944971
 20
175.408366672
  0
LWPOLYLINE
  5
4D9
100
AcDbEntity
  8
0
100
AcDbPolyline
 62
253
  6
CONTINUOUS
 90
19
 70
0
 10
66.0834197325
 20
174.3263780514
 10
66.0799061109
 20
174.3282689629
 10
66.0753561761
 20
174.3303370575
 10
66.0706350744
 20
174.3320753055
 10
66.0657516062
 20
174.3334804707
 10
66.060714856
 20
174.3345499431
 10
66.0555341778
 20
174.3352817363
 10
66.0502191796
 20
174.3356744872
 10
66.0447797909
 20
174.3357274563
 10
66.0392262266
 20
174.3354405497
 10
66.0335688861
 20
174.3348143232
 10
66.0278182523
 20
174.3338499552
 10
66.0219849562
 20
174.3325492352
 10
66.0160791969
 20
174.3309143846
 10
66.0101126159
 20
174.3289485738
 10
66.0040982575
 20
174.32665625
 10
65.9980480043
 20
174.324042288
 10
65.991972497
 20
174.3211116283
 10
65.9858830451
 20
174.3178700193
  0
LWPOLYLINE
  5
4DA
100
AcDbEntity
  8
0
100
AcDbPolyline
 62
253
  6
CONTINUOUS
 90
19
 70
0
 10
63.8965056541
 20
175.5890748319
 10
63.8930000875
 20
175.5909617134
 10
63.8884508741
 20
175.5930302342
 10
63.8837304959
 20
175.5947689764
 10
63.8788477399
 20
175.5961747035
 10
63.8738116953
 20
175.5972447986
 10
63.8686317368
 20
175.5979772697
 10
63.8633175068
 20
175.5983707535
 10
63.8578788977
 20
175.5984245173
 10
63.8523260336
 20
175.5981384612
 10
63.8466692509
 20
175.5975131176
 10
63.8409190799
 20
175.5965496506
 10
63.8350862244
 20
175.5952498536
 10
63.8291815423
 20
175.5936161464
 10
63.8232160251
 20
175.5916515699
 10
63.8172007777
 20
175.5893597812
 10
63.8111469973
 20
175.5867450466
 10
63.8050659532
 20
175.5838122333
 10
63.798968965
 20
175.5805668007
  0
LWPOLYLINE
  5
4DB
100
AcDbEntity
  8
ASSI
100
AcDbPolyline
 62
7
  6
CONTINUOUS
 90
10
 70
0
 10
79.9220798503
 20
166.7683740499
 10
79.8790826938
 20
166.7917033345
 10
79.8343320305
 20
166.8133650051
 10
79.7878278603
 20
166.8333590619
 10
79.7395030382
 20
166.8517036745
 10
79.6894247093
 20
166.8683806731
 10
79.6377943089
 20
166.8833355482
 10
79.5846789822
 20
166.8965501299
 10
79.5300115839
 20
166.9080425881
 10
79.4737921142
 20
166.9178129227
  0
LWPOLYLINE
  5
4DC
100
AcDbEntity
  8
ASSI
100
AcDbPolyline
 62
7
  6
CONTINUOUS
 90
10
 70
0
 10
64.0121772736
 20
175.9545523997
 10
63.9691801171
 20
175.9778816844
 10
63.9244294538
 20
175.999543355
 10
63.8779252836
 20
176.0195374117
 10
63.8296004615
 20
176.0378820243
 10
63.7795221326
 20
176.054559023
 10
63.7278917322
 20
176.0695138981
 10
63.6747764055
 20
176.0827284798
 10
63.6201090072
 20
176.094220938
 10
63.5638895375
 20
176.1039912726
  0
LWPOLYLINE
  5
4DD
100
AcDbEntity
  8
0
100
AcDbPolyline
 62
7
  6
CONTINUOUS
 90
25
 70
0
 10
81.0206955348
 20
165.7017822113
 10
81.0132965572
 20
165.7058485173
 10
81.0057152258
 20
165.7096070739
 10
80.9979671163
 20
165.7130476842
 10
80.990085281
 20
165.716154952
 10
80.9820702968
 20
165.7189284045
 10
80.9738877813
 20
165.7213753322
 10
80.9655215995
 20
165.7234906453
 10
80.9570211854
 20
165.7252524808
 10
80.9484502525
 20
165.7266440701
 10
80.9398508105
 20
165.7276600305
 10
80.9312193549
 20
165.7283025968
 10
80.9225512839
 20
165.7285712658
 10
80.9138676481
 20
165.7284635013
 10
80.9051854621
 20
165.7279779833
 10
80.8964934225
 20
165.7271107533
 10
80.8877763382
 20
165.7258529407
 10
80.8790892564
 20
165.724205378
 10
80.8705219061
 20
165.7221854261
 10
80.8621264088
 20
165.719813347
 10
80.8538774833
 20
165.7170898503
 10
80.8457445835
 20
165.7140066693
 10
80.8377207716
 20
165.710557915
 10
80.8298419286
 20
165.7067553963
 10
80.825967535
 20
165.7047262274
  0
LWPOLYLINE
  5
4DE
100
AcDbEntity
  8
0
100
AcDbPolyline
 62
7
  6
CONTINUOUS
 90
49
 70
0
 10
63.8965083857
 20
175.5890732049
 10
63.8806907977
 20
175.5980107632
 10
63.8580166142
 20
175.6101722596
 10
63.8348818881
 20
175.6218440911
 10
63.8113084143
 20
175.6330252458
 10
63.7873146565
 20
175.6437168528
 10
63.7629183149
 20
175.6539196792
 10
63.7381379426
 20
175.6636338592
 10
63.7129936579
 20
175.6728590008
 10
63.687507259
 20
175.6815936278
 10
63.661698597
 20
175.6898372746
 10
63.6355873461
 20
175.6975896356
 10
63.609196905
 20
175.7048489742
 10
63.5825476872
 20
175.7116149613
 10
63.5556594907
 20
175.7178873439
 10
63.5285566927
 20
175.7236646516
 10
63.5012626427
 20
175.7289464221
 10
63.4737947314
 20
175.733733197
 10
63.446169815
 20
175.7380253208
 10
63.4184101135
 20
175.7418226552
 10
63.3905340323
 20
175.7451253467
 10
63.362553536
 20
175.7479341554
 10
63.3344889047
 20
175.7502489894
 10
63.3063602458
 20
175.7520694939
 10
63.2781797028
 20
175.7533959545
 10
63.249967334
 20
175.7542281311
 10
63.2217433961
 20
175.754565537
 10
63.1935204582
 20
175.7544080513
 10
63.1653186074
 20
175.7537552968
 10
63.1371581085
 20
175.752606744
 10
63.1090516357
 20
175.7509618829
 10
63.0810184278
 20
175.7488201032
 10
63.0530797232
 20
175.7461809043
 10
63.0252507792
 20
175.7430436139
 10
62.9975502677
 20
175.7394074185
 10
62.9700000951
 20
175.7352720293
 10
62.9426196746
 20
175.7306371882
 10
62.9154291348
 20
175.725502379
 10
62.8884487435
 20
175.719867392
 10
62.8616972091
 20
175.7137318027
 10
62.835194542
 20
175.7070950367
 10
62.8089608741
 20
175.6999569423
 10
62.7830141112
 20
175.6923165885
 10
62.7573743058
 20
175.6841732112
 10
62.73206137
 20
175.6755264157
 10
62.707091983
 20
175.6663741865
 10
62.6824847124
 20
175.6567146732
 10
62.6582609213
 20
175.6465473552
 10
62.6446535584
 20
175.6405335836
  0
LINE
  5
4DF
100
AcDbEntity
  8
0
100
AcDbLine
 62
253
  6
CONTINUOUS
 10
81.4652052169
 20
164.2957624563
 11
79.9924138641
 21
165.146133725
  0
LINE
  5
4E0
100
AcDbEntity
  8
0
100
AcDbLine
 62
253
  6
CONTINUOUS
 10
65.0594129264
 20
173.768261312
 11
62.3147443345
 21
175.3529985582
  0
LINE
  5
4E1
100
AcDbEntity
  8
DRAFT
100
AcDbLine
 62
7
  6
CONTINUOUS
 10
79.9220798503
 20
165.2605444157
 11
79.9635791531
 21
165.2365832384
  0
LINE
  5
4E2
100
AcDbEntity
  8
0
100
AcDbLine
 62
253
  6
CONTINUOUS
 10
81.5344925878
 20
164.3353026686
 11
80.0485889995
 21
165.1932447778
  0
LINE
  5
4E3
100
AcDbEntity
  8
0
100
AcDbLine
 62
253
  6
CONTINUOUS
 10
65.1155880618
 20
173.8153723648
 11
62.3709194698
 21
175.400109611
  0
LINE
  5
4E4
100
AcDbEntity
  8
0
100
AcDbLine
 62
7
  6
CONTINUOUS
 10
81.9182594211
 20
164.554306823
 11
80.417033058
 21
165.4210961103
  0
LINE
  5
4E5
100
AcDbEntity
  8
0
100
AcDbLine
 62
7
  6
CONTINUOUS
 10
65.4971230532
 20
174.0356651566
 11
62.7399720205
 21
175.6276096077
  0
LINE
  5
4E6
100
AcDbEntity
  8
ASSI
100
AcDbLine
 62
7
  6
CONTINUOUS
 10
66.1834149021
 20
174.1293778113
 11
66.4351377787
 21
173.9840361771
  0
LINE
  5
4E7
100
AcDbEntity
  8
ASSI
100
AcDbLine
 62
7
  6
CONTINUOUS
 10
79.9635791531
 20
166.1728836788
 11
80.7992673998
 21
165.6903677588
  0
LINE
  5
4E8
100
AcDbEntity
  8
0
100
AcDbLine
 62
253
  6
CONTINUOUS
 10
82.4098801413
 20
164.834859937
 11
80.9231588457
 21
165.6932741801
  0
LINE
  5
4E9
100
AcDbEntity
  8
0
100
AcDbLine
 62
7
  6
CONTINUOUS
 10
74.9016217039
 20
169.1771546956
 11
71.0125344073
 21
171.4226649589
  0
LINE
  5
4EA
100
AcDbEntity
  8
0
100
AcDbLine
 62
7
  6
CONTINUOUS
 10
63.8965056541
 20
175.5890748319
 11
66.0834197342
 21
174.3263780505
  0
LINE
  5
4EB
100
AcDbEntity
  8
0
100
AcDbLine
 62
7
  6
CONTINUOUS
 10
82.4663446515
 20
164.8670825295
 11
81.0206955348
 21
165.7017822113
  0
LINE
  5
4EC
100
AcDbEntity
  8
ASSI
100
AcDbLine
 62
7
  6
CONTINUOUS
 10
64.0121772736
 20
175.9545523997
 11
66.932960661
 21
174.2681286779
  0
LINE
  5
4ED
100
AcDbEntity
  8
ASSI
100
AcDbLine
 62
7
  6
CONTINUOUS
 10
79.9220798503
 20
166.7683740499
 11
82.8428632377
 21
165.081950328
  0
LWPOLYLINE
  5
4EE
100
AcDbEntity
  8
0
100
AcDbPolyline
 62
253
  6
CONTINUOUS
 90
36
 70
0
 10
63.798968965
 20
175.5805668007
 10
65.9921548806
 20
174.3142127837
 10
65.9984100855
 20
174.3102491238
 10
66.0046367573
 20
174.3059865817
 10
66.0108230478
 20
174.3014332684
 10
66.0169571855
 20
174.2965978478
 10
66.0230274983
 20
174.291489521
 10
66.0290224355
 20
174.2861180082
 10
66.0349305899
 20
174.2804935304
 10
66.0407407192
 20
174.2746267899
 10
66.0464417679
 20
174.2685289502
 10
66.0520228879
 20
174.2622116142
 10
66.0574734593
 20
174.2556868027
 10
66.0627831107
 20
174.2489669313
 10
66.0679417388
 20
174.2420647867
 10
66.0729395277
 20
174.2349935023
 10
66.0777669673
 20
174.2277665336
 10
66.0824148722
 20
174.2203976322
 10
66.086874398
 20
174.2129008197
 10
66.0911370591
 20
174.2052903613
 10
66.0951947445
 20
174.1975807382
 10
66.0990397331
 20
174.1897866205
 10
66.1026647086
 20
174.1819228389
 10
66.1060627733
 20
174.1740043569
 10
66.1092274613
 20
174.1660462418
 10
66.1121527509
 20
174.1580636365
 10
66.1148330756
 20
174.1500717305
 10
66.1172633354
 20
174.1420857309
 10
66.1194389059
 20
174.1341208336
 10
66.1213556473
 20
174.1261921944
 10
66.1230099125
 20
174.1183149
 10
66.1243985536
 20
174.1105039395
 10
66.1255189285
 20
174.1027741758
 10
66.1263689051
 20
174.0951403171
 10
66.1269468661
 20
174.0876168894
 10
66.1272517119
 20
174.0802182083
  0
LWPOLYLINE
  5
4EF
100
AcDbEntity
  8
0
100
AcDbPolyline
 62
253
  6
CONTINUOUS
 90
37
 70
0
 10
65.0594129264
 20
173.768261312
 10
65.0655167362
 20
173.7645117298
 10
65.071720249
 20
173.7605525372
 10
65.0780118011
 20
173.7563911301
 10
65.0843797632
 20
173.7520351465
 10
65.0908119463
 20
173.7474928703
 10
65.0972956067
 20
173.7427732753
 10
65.1038183319
 20
173.7378853973
 10
65.1103679991
 20
173.7328383211
 10
65.11693217
 20
173.7276416289
 10
65.1234984319
 20
173.7223051484
 10
65.1300544273
 20
173.7168389236
 10
65.1365877931
 20
173.7112532624
 10
65.1430862075
 20
173.705558699
 10
65.1495374082
 20
173.6997659784
 10
65.1559292208
 20
173.693886032
 10
65.1622495861
 20
173.6879299537
 10
65.1684865823
 20
173.6819089779
 10
65.1746284436
 20
173.675834463
 10
65.1806635836
 20
173.6697178684
 10
65.1865806173
 20
173.6635707327
 10
65.1923683825
 20
173.6574046523
 10
65.1980159627
 20
173.6512312569
 10
65.2035127019
 20
173.6450621947
 10
65.208848225
 20
173.6389091102
 10
65.2140124655
 20
173.6327836129
 10
65.2189956837
 20
173.6266972561
 10
65.2237884792
 20
173.6206615217
 10
65.2283818394
 20
173.6146877586
 10
65.2327670694
 20
173.6087872736
 10
65.2369358208
 20
173.6029713064
 10
65.2408804981
 20
173.5972504449
 10
65.2445933882
 20
173.5916358663
 10
65.2480667676
 20
173.5861393447
 10
65.2512940337
 20
173.5807715438
 10
65.2542695449
 20
173.5755420788
 10
65.2569878789
 20
173.5704606976
  0
LWPOLYLINE
  5
4F0
100
AcDbEntity
  8
ASSI
100
AcDbPolyline
 62
7
  6
CONTINUOUS
 90
4
 70
0
 10
80.6929875949
 20
165.6332139191
 10
80.630775527
 20
165.6747752625
 10
80.289814445
 20
165.9200180289
 10
79.9635791531
 20
166.1728836788
  0
LWPOLYLINE
  5
4F1
100
AcDbEntity
  8
RACCORDO
100
AcDbPolyline
 62
7
  6
CONTINUOUS
 90
9
 70
0
 10
84.2000758765
 20
121.5048465359
 10
84.2101827833
 20
121.5354760511
 10
84.2170973426
 20
121.5673411319
 10
84.2207008501
 20
121.5998947419
 10
84.2209314439
 20
121.632578024
 10
84.2177851646
 20
121.6648298955
 10
84.2113160229
 20
121.6960966796
 10
84.2016350762
 20
121.7258416109
 10
84.2000758765
 20
121.7292368129
  0
LWPOLYLINE
  5
4F2
100
AcDbEntity
  8
RACCORDO
100
AcDbPolyline
 62
253
  6
CONTINUOUS
 90
10
 70
0
 10
84.7285498851
 20
121.460268056
 10
84.7367714972
 20
121.4846800252
 10
84.7429523145
 20
121.509931939
 10
84.7470260394
 20
121.53574641
 10
84.7489493709
 20
121.5618349788
 10
84.7487038137
 20
121.5879169949
 10
84.7462915015
 20
121.6137224647
 10
84.7417330688
 20
121.638983538
 10
84.7350770529
 20
121.6634062678
 10
84.7264062783
 20
121.6866933017
  0
LWPOLYLINE
  5
4F3
100
AcDbEntity
  8
0
100
AcDbPolyline
 62
7
  6
CONTINUOUS
 90
34
 70
0
 10
97.6450560003
 20
141.2975034019
 10
97.6527027471
 20
141.3023037569
 10
97.6709130426
 20
141.3143314391
 10
97.6887403751
 20
141.326962643
 10
97.7061562931
 20
141.340178026
 10
97.7231509776
 20
141.3539705439
 10
97.7397311868
 20
141.3683485991
 10
97.7558777777
 20
141.3833004617
 10
97.771571294
 20
141.3988123381
 10
97.7868153217
 20
141.4148935989
 10
97.8015906443
 20
141.431531932
 10
97.8158782859
 20
141.448713868
 10
97.8296796293
 20
141.466450881
 10
97.8429749089
 20
141.4847293046
 10
97.8557464283
 20
141.503536685
 10
97.8679956918
 20
141.5228905812
 10
97.8797030921
 20
141.5427784879
 10
97.89085035
 20
141.5631877537
 10
97.9014371027
 20
141.5841408754
 10
97.9114451837
 20
141.6056309477
 10
97.9208532182
 20
141.6276416694
 10
97.9296526794
 20
141.6501868037
 10
97.9378275851
 20
141.67326715
 10
97.9453542265
 20
141.696860405
 10
97.9522130564
 20
141.7209499442
 10
97.9583876061
 20
141.7455275703
 10
97.9638606868
 20
141.7705807125
 10
97.968615117
 20
141.7960899506
 10
97.9726365638
 20
141.8220478516
 10
97.9759101717
 20
141.848443532
 10
97.9784210444
 20
141.8752570439
 10
97.9801557516
 20
141.9024783875
 10
97.9811013753
 20
141.9301024609
 10
97.9812868672
 20
141.9490212455
  0
LINE
  5
4F4
100
AcDbEntity
  8
0
100
AcDbLine
 62
253
  6
CONTINUOUS
 10
97.8527295359
 20
141.7557710986
 11
94.8974827323
 21
139.92819948
  0
LINE
  5
4F5
100
AcDbEntity
  8
0
100
AcDbLine
 62
7
  6
CONTINUOUS
 10
97.6450799828
 20
141.2975181197
 11
94.8974827323
 21
139.5983627651
  0
LWPOLYLINE
  5
4F6
100
AcDbEntity
  8
RACCORDO
100
AcDbPolyline
 62
253
  6
CONTINUOUS
 90
17
 70
0
 10
82.5334915186
 20
169.7237934388
 10
82.5977116631
 20
169.7174390151
 10
82.6679781968
 20
169.7092562409
 10
82.7350056283
 20
169.7001200763
 10
82.7991803725
 20
169.6903871779
 10
82.8604881193
 20
169.6800973936
 10
82.9189431787
 20
169.6692108755
 10
82.9749748952
 20
169.6579647375
 10
83.0285794788
 20
169.6463921354
 10
83.0797607194
 20
169.6344599132
 10
83.1289593317
 20
169.6223057168
 10
83.1761784766
 20
169.6099559311
 10
83.2214149932
 20
169.5973841711
 10
83.2651001131
 20
169.5846489278
 10
83.3073775802
 20
169.5717696984
 10
83.3481036506
 20
169.5587269857
 10
83.3872783243
 20
169.5455207898
  0
LWPOLYLINE
  5
4F7
100
AcDbEntity
  8
RACCORDO
100
AcDbPolyline
 62
7
  6
CONTINUOUS
 90
12
 70
0
 10
82.1192380397
 20
168.5022907631
 10
82.1029169806
 20
168.5111021998
 10
82.063733453
 20
168.5277603085
 10
82.0215585209
 20
168.5397351273
 10
81.976661674
 20
168.5469296203
 10
81.9299405321
 20
168.5489910869
 10
81.881242154
 20
168.545679489
 10
81.8307194808
 20
168.5372348647
 10
81.7797289562
 20
168.5240246277
 10
81.7287227281
 20
168.5061712493
 10
81.6772486485
 20
168.4835522581
 10
81.6253067176
 20
168.4561676543
  0
LWPOLYLINE
  5
4F8
100
AcDbEntity
  8
RACCORDO
100
AcDbPolyline
 62
7
  6
CONTINUOUS
 90
12
 70
0
 10
66.209335463
 20
177.6884691129
 10
66.1930144039
 20
177.6972805497
 10
66.1538308763
 20
177.7139386584
 10
66.1116559442
 20
177.7259134771
 10
66.0667590973
 20
177.7331079701
 10
66.0200379554
 20
177.7351694367
 10
65.9713395773
 20
177.7318578388
 10
65.9208169041
 20
177.7234132146
 10
65.8698263795
 20
177.7102029776
 10
65.8188201514
 20
177.6923495992
 10
65.7673460718
 20
177.669730608
 10
65.7154041409
 20
177.6423460042
  0
LINE
  5
4F9
100
AcDbEntity
  8
0
100
AcDbLine
 62
7
  6
CONTINUOUS
 10
84.2488266094
 20
165.8842912095
 11
80.9663109662
 21
167.7795746022
  0
LINE
  5
4FA
100
AcDbEntity
  8
0
100
AcDbLine
 62
7
  6
CONTINUOUS
 10
68.3389240327
 20
175.0704695593
 11
65.0564083895
 21
176.9657529521
  0
LINE
  5
4FB
100
AcDbEntity
  8
0
100
AcDbLine
 62
7
  6
CONTINUOUS
 10
90.7671712373
 20
162.2422281721
 11
91.0078869525
 21
162.103241935
  0
LINE
  5
4FC
100
AcDbEntity
  8
0
100
AcDbLine
 62
7
  6
CONTINUOUS
 10
85.8171018544
 20
165.9776748609
 11
82.3262429063
 21
167.9932530668
  0
LINE
  5
4FD
100
AcDbEntity
  8
0
100
AcDbLine
 62
7
  6
CONTINUOUS
 10
69.9071992777
 20
175.1638532107
 11
66.4163403296
 21
177.1794314166
  0
LINE
  5
4FE
100
AcDbEntity
  8
RACCORDO
100
AcDbLine
 62
253
  6
CONTINUOUS
 10
62.6130828579
 20
179.4335874318
 11
65.7154041409
 21
177.6423460042
  0
LINE
  5
4FF
100
AcDbEntity
  8
RACCORDO
100
AcDbLine
 62
253
  6
CONTINUOUS
 10
69.958044828
 20
175.1926984442
 11
73.060366111
 21
173.4014570166
  0
LINE
  5
500
100
AcDbEntity
  8
RACCORDO
100
AcDbLine
 62
253
  6
CONTINUOUS
 10
78.5229854346
 20
170.2474090819
 11
81.6253067176
 21
168.4561676543
  0
LINE
  5
501
100
AcDbEntity
  8
RACCORDO
100
AcDbLine
 62
253
  6
CONTINUOUS
 10
85.8679474047
 20
166.0065200943
 11
88.9702686877
 21
164.2152786668
  0
LINE
  5
502
100
AcDbEntity
  8
RACCORDO
100
AcDbLine
 62
7
  6
CONTINUOUS
 10
62.8976669318
 20
179.6004264584
 11
66.2092577086
 21
177.6883554478
  0
LINE
  5
503
100
AcDbEntity
  8
RACCORDO
100
AcDbLine
 62
7
  6
CONTINUOUS
 10
70.4518983957
 20
175.2387078878
 11
73.7634886931
 21
173.3266371541
  0
LINE
  5
504
100
AcDbEntity
  8
RACCORDO
100
AcDbLine
 62
7
  6
CONTINUOUS
 10
78.8075695085
 20
170.4142481085
 11
82.1191602853
 21
168.5021770979
  0
LINE
  5
505
100
AcDbEntity
  8
RACCORDO
100
AcDbLine
 62
7
  6
CONTINUOUS
 10
86.3618009724
 20
166.052529538
 11
89.6733912698
 21
164.1404588042
  0
LINE
  5
506
100
AcDbEntity
  8
0
100
AcDbLine
 62
7
  6
CONTINUOUS
 10
78.3754426359
 20
171.1829022514
 11
74.6097812872
 21
173.3571479194
  0
LINE
  5
507
100
AcDbEntity
  8
0
100
AcDbLine
 62
7
  6
CONTINUOUS
 10
83.9018979801
 20
173.1937682065
 11
84.0196580821
 21
172.8901380596
  0
LWPOLYLINE
  5
508
100
AcDbEntity
  8
0
100
AcDbPolyline
 62
7
  6
CONTINUOUS
 90
28
 70
0
 10
94.8974827195
 20
161.2503594138
 10
94.8971207506
 20
161.2879551935
 10
94.8956997806
 20
161.3340722907
 10
94.8932100202
 20
161.3803427388
 10
94.8896558888
 20
161.4267888358
 10
94.8850452491
 20
161.4733726261
 10
94.8793958317
 20
161.5199916702
 10
94.8727180968
 20
161.5666406906
 10
94.8650213748
 20
161.6133116382
 10
94.856333925
 20
161.6598947394
 10
94.8466694918
 20
161.7063832235
 10
94.8360397598
 20
161.7527716883
 10
94.8244830071
 20
161.798949357
 10
94.8120191831
 20
161.8448959707
 10
94.7986594441
 20
161.89062007
 10
94.784438236
 20
161.9360510448
 10
94.7693775315
 20
161.9811652337
 10
94.7534870099
 20
162.0259745874
 10
94.7367856917
 20
162.0704586205
 10
94.7192878273
 20
162.1146091478
 10
94.7010052534
 20
162.1584211949
 10
94.6819545565
 20
162.201875869
 10
94.6621480319
 20
162.244964158
 10
94.6415952888
 20
162.2876795319
 10
94.6203101833
 20
162.3300055823
 10
94.5983028761
 20
162.3719318823
 10
94.5755806418
 20
162.4134519754
 10
94.5564328832
 20
162.4471674237
  0
LINE
  5
509
100
AcDbEntity
  8
0
100
AcDbLine
 62
253
  6
CONTINUOUS
 10
94.6168225327
 20
160.8492712398
 11
94.6168225327
 21
132.0703876826
  0
LINE
  5
50A
100
AcDbEntity
  8
0
100
AcDbLine
 62
7
  6
CONTINUOUS
 10
94.8974827323
 20
161.250361046
 11
94.8974827323
 21
132.4714719503
  0
LWPOLYLINE
  5
50B
100
AcDbEntity
  8
0
100
AcDbPolyline
 62
253
  6
CONTINUOUS
 90
33
 70
0
 10
94.6168225234
 20
132.070387677
 10
94.6165380601
 20
132.0318327125
 10
94.6154460708
 20
131.9937584431
 10
94.6135471366
 20
131.9561863768
 10
94.6108422615
 20
131.9191378375
 10
94.6073329912
 20
131.8826336521
 10
94.6030213843
 20
131.8466941579
 10
94.597909823
 20
131.8113395406
 10
94.5920011644
 20
131.7765899367
 10
94.5852988425
 20
131.7424651301
 10
94.5778066442
 20
131.7089844659
 10
94.5695287654
 20
131.6761668346
 10
94.5604699307
 20
131.6440307954
 10
94.5506352543
 20
131.6125945218
 10
94.54003028
 20
131.5818758156
 10
94.5286610389
 20
131.55189209
 10
94.5165339715
 20
131.5226603237
 10
94.503655928
 20
131.4941970605
 10
94.4900342043
 20
131.4665184262
 10
94.4756765314
 20
131.4396401044
 10
94.4605910344
 20
131.4135773099
 10
94.4447862324
 20
131.3883447878
 10
94.4282711139
 20
131.3639568564
 10
94.4110550306
 20
131.3404273142
 10
94.3931476524
 20
131.3177694179
 10
94.3745591375
 20
131.2959960021
 10
94.3553000486
 20
131.2751194373
 10
94.3353812469
 20
131.255151536
 10
94.3148141624
 20
131.2361037219
 10
94.2936103848
 20
131.217986705
 10
94.2717815528
 20
131.2008104784
 10
94.2493399164
 20
131.1845847401
 10
94.2262983563
 20
131.1693188483
  0
LWPOLYLINE
  5
50C
100
AcDbEntity
  8
0
100
AcDbPolyline
 62
253
  6
CONTINUOUS
 90
28
 70
0
 10
94.8974827323
 20
161.2503594138
 10
94.897281959
 20
161.2387915728
 10
94.8962920253
 20
161.22219308
 10
94.8944756735
 20
161.2056178935
 10
94.8918344064
 20
161.1890797276
 10
94.8883704093
 20
161.1725922661
 10
94.8840865485
 20
161.1561691507
 10
94.8789863683
 20
161.1398239701
 10
94.8730740887
 20
161.1235702481
 10
94.8663546016
 20
161.1074214333
 10
94.8588334666
 20
161.0913908873
 10
94.8505169068
 20
161.0754918736
 10
94.8414118033
 20
161.0597375473
 10
94.8315256897
 20
161.0441409436
 10
94.8208667458
 20
161.028714967
 10
94.8094437909
 20
161.0134723812
 10
94.7972662763
 20
160.9984257978
 10
94.7843442778
 20
160.9835876665
 10
94.7706884871
 20
160.9689702644
 10
94.756310203
 20
160.9545856859
 10
94.7412213222
 20
160.940445833
 10
94.7254343292
 20
160.926562405
 10
94.7089622863
 20
160.9129468891
 10
94.6918188225
 20
160.8996105508
 10
94.6740181223
 20
160.8865644246
 10
94.6555749141
 20
160.873819305
 10
94.6365044579
 20
160.8613857372
 10
94.6168225327
 20
160.849274009
  0
LWPOLYLINE
  5
50D
100
AcDbEntity
  8
0
100
AcDbPolyline
 62
253
  6
CONTINUOUS
 90
28
 70
0
 10
94.8974827323
 20
132.4714671778
 10
94.8972819591
 20
132.4599024794
 10
94.8962920255
 20
132.4433039866
 10
94.8944756738
 20
132.4267288
 10
94.8918344068
 20
132.4101906341
 10
94.8883704098
 20
132.3937031725
 10
94.884086549
 20
132.3772800571
 10
94.878986369
 20
132.3609348764
 10
94.8730740895
 20
132.3446811544
 10
94.8663546024
 20
132.3285323395
 10
94.8588334674
 20
132.3125017933
 10
94.8505169077
 20
132.2966027796
 10
94.8414118042
 20
132.2808484532
 10
94.8315256906
 20
132.2652518494
 10
94.8208667468
 20
132.2498258727
 10
94.8094437918
 20
132.2345832868
 10
94.7972662773
 20
132.2195367033
 10
94.7843442788
 20
132.2046985719
 10
94.770688488
 20
132.1900811697
 10
94.7563102039
 20
132.1756965911
 10
94.741221323
 20
132.1615567381
 10
94.7254343299
 20
132.14767331
 10
94.7089622869
 20
132.134057794
 10
94.691818823
 20
132.1207214556
 10
94.6740181227
 20
132.1076753293
 10
94.6555749144
 20
132.0949302096
 10
94.6365044581
 20
132.0824966418
 10
94.6168225327
 20
132.0703849134
  0
LINE
  5
50E
100
AcDbEntity
  8
RACCORDO
100
AcDbLine
 62
7
  6
CONTINUOUS
 10
62.9456762461
 20
171.4476224855
 11
63.0042050807
 21
171.4609416468
  0
LWPOLYLINE
  5
50F
100
AcDbEntity
  8
RACCORDO
100
AcDbPolyline
 62
7
  6
CONTINUOUS
 90
8
 70
0
 10
63.0042050807
 20
171.4609416468
 10
63.0628462305
 20
171.4738700821
 10
63.0920107535
 20
171.4799719313
 10
63.1208904411
 20
171.4855997163
 10
63.1493517206
 20
171.4907118714
 10
63.1772621774
 20
171.4951810644
 10
63.2044801024
 20
171.4988160787
 10
63.2308552286
 20
171.5014772198
  0
LWPOLYLINE
  5
510
100
AcDbEntity
  8
RACCORDO
100
AcDbPolyline
 62
7
  6
CONTINUOUS
 90
5
 70
0
 10
62.8080328488
 20
171.4199585262
 10
62.8339382148
 20
171.4241129953
 10
62.8607535632
 20
171.429219854
 10
62.8883779953
 20
171.435022856
 10
62.9456762461
 20
171.4476224855
  0
LINE
  5
511
100
AcDbEntity
  8
RACCORDO
100
AcDbLine
 62
7
  6
CONTINUOUS
 10
53.1269013054
 20
175.9301844583
 11
53.7543799016
 21
175.8725817512
  0
LWPOLYLINE
  5
512
100
AcDbEntity
  8
RACCORDO
100
AcDbPolyline
 62
7
  6
CONTINUOUS
 90
10
 70
0
 10
83.4802261356
 20
169.5616331489
 10
83.4720692834
 20
169.5639971079
 10
83.4627600714
 20
169.5655087412
 10
83.4529898577
 20
169.5659182211
 10
83.4426636622
 20
169.5652153357
 10
83.4318764651
 20
169.5634102968
 10
83.4209132062
 20
169.5605337393
 10
83.4098688654
 20
169.5565958747
 10
83.398648463
 20
169.5515864916
 10
83.3872519987
 20
169.5455055897
  0
LWPOLYLINE
  5
513
100
AcDbEntity
  8
RACCORDO
100
AcDbPolyline
 62
7
  6
CONTINUOUS
 90
10
 70
0
 10
83.4802252898
 20
169.5616314518
 10
83.3613149596
 20
169.6010890433
 10
83.2391418098
 20
169.6367757972
 10
83.1142307458
 20
169.6685586752
 10
82.986916423
 20
169.6963814405
 10
82.8575241377
 20
169.7201983265
 10
82.7263749518
 20
169.7399712059
 10
82.593817904
 20
169.7556652581
 10
82.4601868992
 20
169.7672561785
 10
82.4580067784
 20
169.7673773818
  0
LINE
  5
514
100
AcDbEntity
  8
RACCORDO
100
AcDbLine
 62
7
  6
CONTINUOUS
 10
83.5636567343
 20
169.5311207047
 11
83.4802261356
 21
169.5616331489
  0
LINE
  5
515
100
AcDbEntity
  8
RACCORDO
100
AcDbLine
 62
7
  6
CONTINUOUS
 10
84.3294456312
 20
169.071453809
 11
84.4964225091
 21
169.0102189355
  0
LINE
  5
516
100
AcDbEntity
  8
0
100
AcDbLine
 62
7
  6
CONTINUOUS
 10
84.1294885878
 20
169.3225674352
 11
84.1277311905
 21
169.323215497
  0
LINE
  5
517
100
AcDbEntity
  8
RACCORDO
100
AcDbLine
 62
7
  6
CONTINUOUS
 10
83.7345970197
 20
169.4681089815
 11
83.5636567343
 21
169.5311207047
  0
LINE
  5
518
100
AcDbEntity
  8
RACCORDO
100
AcDbLine
 62
7
  6
CONTINUOUS
 10
84.1503856486
 20
169.3148043698
 11
84.1294870226
 21
169.3225632194
  0
LINE
  5
519
100
AcDbEntity
  8
RACCORDO
100
AcDbLine
 62
7
  6
CONTINUOUS
 10
84.4964225091
 20
169.0102189355
 11
84.5895877826
 21
168.975779001
  0
LINE
  5
51A
100
AcDbEntity
  8
RACCORDO
100
AcDbLine
 62
7
  6
CONTINUOUS
 10
83.9127908771
 20
169.4017761957
 11
83.7345970197
 21
169.4681089815
  0
LINE
  5
51B
100
AcDbEntity
  8
RACCORDO
100
AcDbLine
 62
7
  6
CONTINUOUS
 10
84.2915015639
 20
169.2592594003
 11
83.9127908771
 21
169.4017761957
  0
LINE
  5
51C
100
AcDbEntity
  8
RACCORDO
100
AcDbLine
 62
253
  6
CONTINUOUS
 10
84.2915015639
 20
169.2592594003
 11
84.1294885808
 21
169.3225674378
  0
LINE
  5
51D
100
AcDbEntity
  8
RACCORDO
100
AcDbLine
 62
7
  6
CONTINUOUS
 10
84.293446187
 20
169.2584893746
 11
84.1503856486
 21
169.3148043698
  0
LWPOLYLINE
  5
51E
100
AcDbEntity
  8
0
100
AcDbPolyline
 62
253
  6
CONTINUOUS
 90
28
 70
0
 10
94.0345044615
 20
163.0832527072
 10
94.0243608371
 20
163.0888765405
 10
94.0094920601
 20
163.0963168679
 10
93.9942302558
 20
163.1030298442
 10
93.978588052
 20
163.1090099148
 10
93.9625783909
 20
163.1142521319
 10
93.9462145189
 20
163.1187521579
 10
93.9295099756
 20
163.1225062695
 10
93.9124785823
 20
163.1255113604
 10
93.8951344312
 20
163.1277649441
 10
93.8774918727
 20
163.129265156
 10
93.8595655046
 20
163.1300107548
 10
93.8413701593
 20
163.1300011235
 10
93.8229208918
 20
163.12923627
 10
93.8042329672
 20
163.1277168273
 10
93.7853218478
 20
163.1254440525
 10
93.7662031798
 20
163.1224198259
 10
93.7468927831
 20
163.11864665
 10
93.7274066384
 20
163.1141276474
 10
93.7077608709
 20
163.1088665581
 10
93.6879717334
 20
163.1028677352
 10
93.6680555964
 20
163.0961361412
 10
93.6480289085
 20
163.0886773342
 10
93.6279082696
 20
163.0804974952
 10
93.6077104161
 20
163.0716034325
 10
93.5874520899
 20
163.0620025289
 10
93.5671500239
 20
163.0517027249
 10
93.5468210162
 20
163.0407125513
  0
LWPOLYLINE
  5
51F
100
AcDbEntity
  8
0
100
AcDbPolyline
 62
253
  6
CONTINUOUS
 90
28
 70
0
 10
64.9005091991
 20
179.9048564368
 10
64.8903716262
 20
179.9104767762
 10
64.8755028492
 20
179.9179171037
 10
64.8602410448
 20
179.92463008
 10
64.8445988408
 20
179.9306101507
 10
64.8285891796
 20
179.9358523678
 10
64.8122253076
 20
179.9403523938
 10
64.7955207642
 20
179.9441065054
 10
64.7784893708
 20
179.9471115963
 10
64.7611452197
 20
179.94936518
 10
64.7435026613
 20
179.9508653919
 10
64.7255762932
 20
179.9516109907
 10
64.707380948
 20
179.9516013593
 10
64.6889316807
 20
179.9508365059
 10
64.6702437561
 20
179.9493170632
 10
64.6513326369
 20
179.9470442884
 10
64.632213969
 20
179.9440200619
 10
64.6129035725
 20
179.940246886
 10
64.5934174279
 20
179.9357278834
 10
64.5737716603
 20
179.9304667942
 10
64.5539825227
 20
179.9244679712
 10
64.5340663857
 20
179.9177363772
 10
64.5140396977
 20
179.9102775702
 10
64.4939190588
 20
179.9020977311
 10
64.4737212051
 20
179.8932036685
 10
64.4534628789
 20
179.8836027648
 10
64.4331608128
 20
179.8733029607
 10
64.4128318051
 20
179.8623127871
  0
LINE
  5
520
100
AcDbEntity
  8
0
100
AcDbLine
 62
253
  6
CONTINUOUS
 10
64.4128318051
 20
179.8623127871
 11
93.5468210162
 21
163.0407125513
  0
LINE
  5
521
100
AcDbEntity
  8
0
100
AcDbLine
 62
7
  6
CONTINUOUS
 10
94.0345044614
 20
163.0832527072
 11
66.9798456388
 21
178.7042250417
  0
LINE
  5
522
100
AcDbEntity
  8
0
100
AcDbLine
 62
7
  6
CONTINUOUS
 10
66.9798456388
 20
178.7042250417
 11
64.9005152503
 21
179.9048529431
  0
LWPOLYLINE
  5
523
100
AcDbEntity
  8
0
100
AcDbPolyline
 62
7
  6
CONTINUOUS
 90
21
 70
0
 10
94.0345050163
 20
163.0832523868
 10
94.0443216101
 20
163.0775097223
 10
94.0677076268
 20
163.0632132495
 10
94.0907290117
 20
163.0482571203
 10
94.1133505344
 20
163.0326609319
 10
94.1355475639
 20
163.0164396923
 10
94.1572945286
 20
162.9996110107
 10
94.1785795094
 20
162.9821832179
 10
94.1993983396
 20
162.9641575816
 10
94.2197363564
 20
162.9455434832
 10
94.2395710539
 20
162.9263583309
 10
94.2588860696
 20
162.9066150866
 10
94.277663883
 20
162.8863288134
 10
94.2958875953
 20
162.8655150626
 10
94.3135422441
 20
162.8441882116
 10
94.330609328
 20
162.8223681591
 10
94.3470759108
 20
162.800069165
 10
94.3629350823
 20
162.7772972105
 10
94.3781753499
 20
162.7540640028
 10
94.3927776486
 20
162.7303939234
 10
94.4005057049
 20
162.7172412529
  0
LWPOLYLINE
  5
524
100
AcDbEntity
  8
0
100
AcDbPolyline
 62
253
  6
CONTINUOUS
 90
27
 70
0
 10
93.5468210162
 20
163.0407125513
 10
93.5675265805
 20
163.0285747762
 10
93.5882041933
 20
163.0157507524
 10
93.608836365
 20
163.002251327
 10
93.6294056442
 20
162.988087918
 10
93.6498946329
 20
162.9732725053
 10
93.6702860009
 20
162.9578176202
 10
93.6905625006
 20
162.9417363348
 10
93.7107069817
 20
162.9250422512
 10
93.7307024053
 20
162.9077494897
 10
93.7505318587
 20
162.8898726769
 10
93.7701785697
 20
162.8714269336
 10
93.7896259205
 20
162.8524278618
 10
93.8088574619
 20
162.8328915313
 10
93.8278569275
 20
162.8128344665
 10
93.8466082468
 20
162.7922736323
 10
93.8650955597
 20
162.7712264196
 10
93.8833032288
 20
162.7497106307
 10
93.9012158538
 20
162.7277444643
 10
93.9188182835
 20
162.7053465
 10
93.9360956294
 20
162.6825356825
 10
93.9530332778
 20
162.659331306
 10
93.9696169024
 20
162.6357529974
 10
93.9858324762
 20
162.6118206997
 10
94.0016662837
 20
162.5875546558
 10
94.0171049322
 20
162.5629753903
 10
94.0321353633
 20
162.5381036933
  0
LWPOLYLINE
  5
525
100
AcDbEntity
  8
RACCORDO
100
AcDbPolyline
 62
253
  6
CONTINUOUS
 90
8
 70
0
 10
84.3294456312
 20
169.071453809
 10
84.3539686215
 20
169.0477758668
 10
84.3783343832
 20
169.0232042604
 10
84.4024711333
 20
168.9977272956
 10
84.4262360183
 20
168.9714119145
 10
84.4496258341
 20
168.9441725483
 10
84.47274914
 20
168.9157632521
 10
84.4742808123
 20
168.9137706439
  0
LWPOLYLINE
  5
526
100
AcDbEntity
  8
RACCORDO
100
AcDbPolyline
 62
253
  6
CONTINUOUS
 90
9
 70
0
 10
84.235809032
 20
169.0555927618
 10
84.2586694614
 20
169.0329837312
 10
84.2812469997
 20
169.0094805433
 10
84.3035416469
 20
168.9850831979
 10
84.3255871452
 20
168.9598745917
 10
84.3473497525
 20
168.9337718281
 10
84.3687282418
 20
168.906526218
 10
84.3897679448
 20
168.8781398302
 10
84.3947580996
 20
168.8710059024
  0
LWPOLYLINE
  5
527
100
AcDbEntity
  8
0
100
AcDbPolyline
 62
7
  6
CONTINUOUS
 90
71
 70
0
 10
97.9812869119
 20
150.0053494207
 10
98.0111627364
 20
149.9563182148
 10
98.0443675467
 20
149.9001490431
 10
98.0768159667
 20
149.8435487175
 10
98.1084973542
 20
149.7865364535
 10
98.1394003124
 20
149.7291325382
 10
98.1695067213
 20
149.671370162
 10
98.1987964705
 20
149.6132880687
 10
98.2272518016
 20
149.5549224158
 10
98.2548640951
 20
149.4962915873
 10
98.2816273023
 20
149.4374076105
 10
98.3075271313
 20
149.3783001134
 10
98.3325518123
 20
149.3189937787
 10
98.3566979327
 20
149.2594926528
 10
98.3799538019
 20
149.1998193769
 10
98.4023044788
 20
149.1400055225
 10
98.4237407135
 20
149.0800680442
 10
98.4442571852
 20
149.0200110253
 10
98.4638326534
 20
148.9598849043
 10
98.4824368992
 20
148.899775767
 10
98.5000520526
 20
148.8397406761
 10
98.5166785804
 20
148.7797768108
 10
98.5323156972
 20
148.7198797861
 10
98.5469532658
 20
148.6600772709
 10
98.5605818037
 20
148.6003953777
 10
98.5731988039
 20
148.5408269704
 10
98.5847957003
 20
148.4813865402
 10
98.5953590523
 20
148.4221136755
 10
98.6048779862
 20
148.3630382159
 10
98.6133484327
 20
148.3041427623
 10
98.6207529704
 20
148.2454988238
 10
98.6270687512
 20
148.187266133
 10
98.6322886121
 20
148.1295330793
 10
98.636418567
 20
148.072257782
 10
98.6394599114
 20
148.0154018687
 10
98.6414080274
 20
147.9589844467
 10
98.6422580391
 20
147.9030344957
 10
98.6420048923
 20
147.8475295609
 10
98.6406409377
 20
147.7924758742
 10
98.6381592025
 20
147.7379171329
 10
98.6345536067
 20
147.6838866516
 10
98.6298126602
 20
147.6303546512
 10
98.6239334756
 20
147.5774009363
 10
98.6169343145
 20
147.5252153536
 10
98.6088315177
 20
147.4738819303
 10
98.5996219112
 20
147.4233497877
 10
98.5893029229
 20
147.3736002147
 10
98.5778667014
 20
147.3246076694
 10
98.5653252746
 20
147.2764360845
 10
98.5517102224
 20
147.2291972145
 10
98.5370398315
 20
147.182929099
 10
98.5213175365
 20
147.1376198693
 10
98.5045608519
 20
147.0933003921
 10
98.4867738742
 20
147.0499640117
 10
98.4679763671
 20
147.0076429522
 10
98.4482168527
 20
146.9664210791
 10
98.4275254443
 20
146.926326973
 10
98.4059113207
 20
146.8873461762
 10
98.3833987546
 20
146.8494933575
 10
98.3600179383
 20
146.8127893344
 10
98.3357818458
 20
146.7772258807
 10
98.3106882837
 20
146.7427771404
 10
98.2847440435
 20
146.7094356084
 10
98.2579824593
 20
146.677227818
 10
98.2304419341
 20
146.6461806381
 10
98.2021675668
 20
146.6163220115
 10
98.1731642808
 20
146.5876347867
 10
98.143409683
 20
146.5600814762
 10
98.1129099019
 20
146.533658379
 10
98.0817034264
 20
146.508389446
 10
98.0498138962
 20
146.4842830481
  0
LINE
  5
528
100
AcDbEntity
  8
0
100
AcDbLine
 62
7
  6
CONTINUOUS
 10
91.5775132851
 20
161.1166201866
 11
91.0078869525
 21
162.103241935
  0
LWPOLYLINE
  5
529
100
AcDbEntity
  8
0
100
AcDbPolyline
 62
253
  6
CONTINUOUS
 90
69
 70
0
 10
97.9812869119
 20
149.7967518112
 10
98.0034082126
 20
149.7575097986
 10
98.0348727609
 20
149.699977151
 10
98.0655710686
 20
149.6420884127
 10
98.0954879406
 20
149.5838722376
 10
98.1246085684
 20
149.5253574422
 10
98.1529185378
 20
149.4665729902
 10
98.1804038357
 20
149.4075479792
 10
98.2070508573
 20
149.3483116257
 10
98.2328464127
 20
149.2888932509
 10
98.2577777335
 20
149.2293222658
 10
98.2818324791
 20
149.1696281575
 10
98.3049987426
 20
149.1098404735
 10
98.3272650571
 20
149.049988808
 10
98.3486204011
 20
148.9901027866
 10
98.3690542041
 20
148.930212052
 10
98.3885563515
 20
148.8703462493
 10
98.4071171901
 20
148.8105350112
 10
98.4247275326
 20
148.7508079435
 10
98.4413786621
 20
148.6911946101
 10
98.4570623365
 20
148.6317245188
 10
98.4717707926
 20
148.5724271064
 10
98.48549675
 20
148.5133317243
 10
98.4982334145
 20
148.4544676239
 10
98.5099744816
 20
148.395863942
 10
98.5207141397
 20
148.3375496866
 10
98.5304470728
 20
148.2795537224
 10
98.5391684632
 20
148.2219047567
 10
98.546873994
 20
148.1646313247
 10
98.5535598511
 20
148.1077617761
 10
98.559222725
 20
148.0513242604
 10
98.5638598127
 20
147.9953467134
 10
98.5674688189
 20
147.9398568431
 10
98.5700479572
 20
147.8848821163
 10
98.571595951
 20
147.8304497447
 10
98.5721120341
 20
147.7765866715
 10
98.5715959509
 20
147.7233195581
 10
98.570047957
 20
147.670674771
 10
98.5674688185
 20
147.6186783686
 10
98.5638598122
 20
147.5673560883
 10
98.5592227243
 20
147.5167333341
 10
98.5535598503
 20
147.4668351633
 10
98.5468739931
 20
147.4176862749
 10
98.5391684622
 20
147.3693109969
 10
98.5304470716
 20
147.3217332742
 10
98.5207141384
 20
147.2749766574
 10
98.5099744802
 20
147.2290642901
 10
98.498233413
 20
147.1840188983
 10
98.4854967483
 20
147.1398627788
 10
98.4717707908
 20
147.0966177883
 10
98.4570623346
 20
147.0543053325
 10
98.4413786601
 20
147.0129463554
 10
98.4247275305
 20
146.9725613291
 10
98.4071171879
 20
146.9331702435
 10
98.3885563491
 20
146.8947925968
 10
98.3690542016
 20
146.8574473853
 10
98.3486203985
 20
146.8211530943
 10
98.3272650544
 20
146.785927689
 10
98.3049987398
 20
146.7517886055
 10
98.2818324761
 20
146.7187527421
 10
98.2577777305
 20
146.686836451
 10
98.2328464096
 20
146.6560555305
 10
98.2070508541
 20
146.6264252166
 10
98.1804038324
 20
146.5979601758
 10
98.1529185344
 20
146.5706744981
 10
98.1246085649
 20
146.5445816893
 10
98.095487937
 20
146.519694665
 10
98.0655710648
 20
146.4960257441
 10
98.0498138962
 20
146.4842830481
  0
LWPOLYLINE
  5
52A
100
AcDbEntity
  8
0
100
AcDbPolyline
 62
253
  6
CONTINUOUS
 90
48
 70
0
 10
90.3445336751
 20
167.5145829309
 10
90.3666549768
 20
167.4753409166
 10
90.3981195249
 20
167.4178082691
 10
90.4288178326
 20
167.3599195308
 10
90.4587347045
 20
167.3017033559
 10
90.4878553322
 20
167.2431885606
 10
90.5161653015
 20
167.1844041087
 10
90.5436505994
 20
167.1253790979
 10
90.5702976209
 20
167.0661427445
 10
90.5960931762
 20
167.0067243698
 10
90.621024497
 20
166.9471533849
 10
90.6450792424
 20
166.8874592767
 10
90.6682455059
 20
166.8276715928
 10
90.6905118203
 20
166.7678199275
 10
90.7118671643
 20
166.7079339062
 10
90.7323009672
 20
166.6480431717
 10
90.7518031146
 20
166.5881773692
 10
90.7703639532
 20
166.5283661313
 10
90.7879742957
 20
166.4686390636
 10
90.8046254251
 20
166.4090257304
 10
90.8203090995
 20
166.3495556392
 10
90.8350175556
 20
166.290258227
 10
90.8487435129
 20
166.231162845
 10
90.8614801774
 20
166.1722987447
 10
90.8732212445
 20
166.1136950629
 10
90.8839609026
 20
166.0553808076
 10
90.8936938357
 20
165.9973848436
 10
90.9024152261
 20
165.939735878
 10
90.910120757
 20
165.8824624461
 10
90.916806614
 20
165.8255928976
 10
90.922469488
 20
165.769155382
 10
90.9271065757
 20
165.7131778351
 10
90.930715582
 20
165.657687965
 10
90.9332947203
 20
165.6027132383
 10
90.9348427142
 20
165.5482808668
 10
90.9353587973
 20
165.4944177936
 10
90.9348427141
 20
165.4411506803
 10
90.9332947203
 20
165.3885058933
 10
90.9307155819
 20
165.336509491
 10
90.9271065756
 20
165.2851872108
 10
90.9224694878
 20
165.2345644566
 10
90.9168066138
 20
165.1846662859
 10
90.9101207567
 20
165.1355173976
 10
90.9024152259
 20
165.0871421196
 10
90.8936938354
 20
165.0395643971
 10
90.8839609023
 20
164.9928077802
 10
90.8732212442
 20
164.946895413
 10
90.8645312144
 20
164.9135555309
  0
LWPOLYLINE
  5
52B
100
AcDbEntity
  8
0
100
AcDbPolyline
 62
7
  6
CONTINUOUS
 90
46
 70
0
 10
97.9812868855
 20
152.8612235701
 10
97.9810962748
 20
152.8805176805
 10
97.9801628354
 20
152.9082610898
 10
97.9784599663
 20
152.936084237
 10
97.9759934464
 20
152.9640051933
 10
97.9727719905
 20
152.9919929717
 10
97.9688137765
 20
153.0199631497
 10
97.9641308879
 20
153.0479060617
 10
97.9587323818
 20
153.0758201546
 10
97.9526431413
 20
153.1036293652
 10
97.9458774074
 20
153.1313218736
 10
97.9384447706
 20
153.1588991726
 10
97.9303718763
 20
153.1863018112
 10
97.9216723457
 20
153.213520497
 10
97.9123565806
 20
153.2405536849
 10
97.9024517524
 20
153.2673506221
 10
97.891975559
 20
153.2938923681
 10
97.8809342633
 20
153.3201866841
 10
97.8693410672
 20
153.346220198
 10
97.8572077568
 20
153.3719823428
 10
97.8445409425
 20
153.3974704712
 10
97.8313467749
 20
153.4226808193
 10
97.8176319309
 20
153.4476054109
 10
97.8034022539
 20
153.4722363251
 10
97.7886608862
 20
153.4965681289
 10
97.7734116626
 20
153.520591829
 10
97.7576581886
 20
153.5442975881
 10
97.7414007456
 20
153.5676779813
 10
97.7246383154
 20
153.5907259199
 10
97.7073741463
 20
153.6134259445
 10
97.6896132598
 20
153.6357597961
 10
97.6713459151
 20
153.6577258358
 10
97.6525795463
 20
153.6792993424
 10
97.6333443108
 20
153.7004317034
 10
97.6136362869
 20
153.7211131135
 10
97.5934566984
 20
153.7413270806
 10
97.5728435213
 20
153.7610210027
 10
97.5517902131
 20
153.7801875776
 10
97.5303002557
 20
153.7988081818
 10
97.5084280863
 20
153.8168223341
 10
97.4861702889
 20
153.8342216687
 10
97.4635295075
 20
153.8509906723
 10
97.4405717648
 20
153.8670701203
 10
97.4173202843
 20
153.8824368292
 10
97.3937557715
 20
153.8970955428
 10
97.3777968577
 20
153.9065130532
  0
LINE
  5
52C
100
AcDbEntity
  8
0
100
AcDbLine
 62
253
  6
CONTINUOUS
 10
97.8409568121
 20
152.660680243
 11
97.8409568121
 21
141.7484880401
  0
LINE
  5
52D
100
AcDbEntity
  8
0
100
AcDbLine
 62
7
  6
CONTINUOUS
 10
97.9812869119
 20
152.8612267133
 11
97.9812869119
 21
141.9490281065
  0
LWPOLYLINE
  5
52E
100
AcDbEntity
  8
0
100
AcDbPolyline
 62
253
  6
CONTINUOUS
 90
29
 70
0
 10
97.8409567854
 20
141.7484880236
 10
97.8408528789
 20
141.7262459811
 10
97.8402077506
 20
141.7043288967
 10
97.8390218105
 20
141.6827533099
 10
97.8372957921
 20
141.6615356248
 10
97.8350310336
 20
141.6406917206
 10
97.8322294273
 20
141.6202369744
 10
97.8288929613
 20
141.6001866421
 10
97.8250240813
 20
141.5805560994
 10
97.8206259445
 20
141.5613604704
 10
97.8157018251
 20
141.5426143077
 10
97.8102553546
 20
141.5243317365
 10
97.8042908385
 20
141.5065267269
 10
97.7978127466
 20
141.4892127629
 10
97.7908259067
 20
141.4724029122
 10
97.7833357472
 20
141.4561099711
 10
97.7753478858
 20
141.4403462476
 10
97.7668683214
 20
141.425123689
 10
97.7579036262
 20
141.4104539537
 10
97.7484605785
 20
141.3963481635
 10
97.7385462773
 20
141.3828169686
 10
97.7281683291
 20
141.3698706793
 10
97.7173345838
 20
141.3575191009
 10
97.7060532217
 20
141.3457715825
 10
97.69433287
 20
141.3346370792
 10
97.6821824272
 20
141.3241240425
 10
97.6696110743
 20
141.3142404195
 10
97.6566283574
 20
141.3049937097
 10
97.6450739863
 20
141.2975144113
  0
LWPOLYLINE
  5
52F
100
AcDbEntity
  8
0
100
AcDbPolyline
 62
253
  6
CONTINUOUS
 90
24
 70
0
 10
97.9812869119
 20
152.8612235701
 10
97.9812687102
 20
152.8587634002
 10
97.9808236265
 20
152.848801867
 10
97.9797833825
 20
152.8388551371
 10
97.9781492175
 20
152.8289350612
 10
97.9759230784
 20
152.8190534584
 10
97.9731076176
 20
152.8092221018
 10
97.9697061894
 20
152.7994527049
 10
97.9657228465
 20
152.789756907
 10
97.9611623347
 20
152.78014626
 10
97.9560300874
 20
152.7706322143
 10
97.9503322193
 20
152.761226105
 10
97.9440755191
 20
152.751939139
 10
97.9372674412
 20
152.7427823809
 10
97.9299160967
 20
152.7337667403
 10
97.9220302444
 20
152.7249029586
 10
97.9136192796
 20
152.7162015965
 10
97.9046932233
 20
152.7076730208
 10
97.8952627103
 20
152.6993273928
 10
97.8853389764
 20
152.6911746557
 10
97.8749338448
 20
152.6832245228
 10
97.8640597125
 20
152.675486466
 10
97.8527295352
 20
152.6679697048
 10
97.8409568121
 20
152.6606831948
  0
LWPOLYLINE
  5
530
100
AcDbEntity
  8
0
100
AcDbPolyline
 62
253
  6
CONTINUOUS
 90
22
 70
0
 10
97.9812687103
 20
141.9465648016
 10
97.9808236271
 20
141.9366032683
 10
97.9797833836
 20
141.9266565382
 10
97.978149219
 20
141.9167364621
 10
97.9759230803
 20
141.9068548591
 10
97.9731076199
 20
141.8970235023
 10
97.9697061921
 20
141.887254105
 10
97.9657228495
 20
141.8775583068
 10
97.9611623378
 20
141.8679476595
 10
97.9560300907
 20
141.8584336134
 10
97.9503322229
 20
141.8490275037
 10
97.9440755227
 20
141.8397405373
 10
97.9372674448
 20
141.8305837787
 10
97.9299161003
 20
141.8215681377
 10
97.9220302478
 20
141.8127043556
 10
97.9136192828
 20
141.8040029929
 10
97.9046932263
 20
141.7954744168
 10
97.895262713
 20
141.7871287883
 10
97.8853389786
 20
141.7789760507
 10
97.8749338465
 20
141.7710259174
 10
97.8640597137
 20
141.7632878602
 10
97.8527295359
 20
141.7557710986
  0
LWPOLYLINE
  5
531
100
AcDbEntity
  8
RACCORDO
100
AcDbPolyline
 62
253
  6
CONTINUOUS
 90
10
 70
0
 10
82.335587671
 20
120.465920384
 10
82.3184122962
 20
120.4429599738
 10
82.3026644896
 20
120.4186096909
 10
82.2885572133
 20
120.393198831
 10
82.276281244
 20
120.3670710323
 10
82.2660025932
 20
120.3405796285
 10
82.2578602621
 20
120.314082871
 10
82.2519643618
 20
120.2879390828
 10
82.248394624
 20
120.2625018139
 10
82.2471993233
 20
120.2381150596
  0
LINE
  5
532
100
AcDbEntity
  8
RACCORDO
100
AcDbLine
 62
253
  6
CONTINUOUS
 10
82.9575457363
 20
121.2337557977
 11
82.335587671
 21
120.465920384
  0
LINE
  5
533
100
AcDbEntity
  8
RACCORDO
100
AcDbLine
 62
7
  6
CONTINUOUS
 10
83.1338620503
 20
121.1319529678
 11
83.3106339118
 21
121.3501858407
  0
LINE
  5
534
100
AcDbEntity
  8
RACCORDO
100
AcDbLine
 62
253
  6
CONTINUOUS
 10
83.1338620503
 20
120.8968753451
 11
82.5998246943
 21
120.2375820309
  0
LINE
  5
535
100
AcDbEntity
  8
0
100
AcDbLine
 62
253
  6
CONTINUOUS
 10
85.2253807092
 20
126.375424972
 11
94.6168225327
 21
132.0703876826
  0
LINE
  5
536
100
AcDbEntity
  8
RACCORDO
100
AcDbLine
 62
253
  6
CONTINUOUS
 10
53.3256039532
 20
176.0765359817
 11
54.0364131707
 21
176.0112835007
  0
LWPOLYLINE
  5
537
100
AcDbEntity
  8
0
100
AcDbPolyline
 62
253
  6
CONTINUOUS
 90
23
 70
0
 10
82.1268238464
 20
174.3877374834
 10
82.1179749195
 20
174.3923318335
 10
82.1088412317
 20
174.3964033595
 10
82.0994336649
 20
174.3999472103
 10
82.0897634276
 20
174.4029591638
 10
82.0798420412
 20
174.4054356314
 10
82.0696813263
 20
174.4073736626
 10
82.0592933885
 20
174.4087709484
 10
82.0486906043
 20
174.4096258241
 10
82.0378856062
 20
174.409937271
 10
82.0268912674
 20
174.4097049182
 10
82.015720687
 20
174.4089290424
 10
82.0043871738
 20
174.4076105681
 10
81.9929042308
 20
174.4057510661
 10
81.9812855391
 20
174.4033527519
 10
81.9695449415
 20
174.4004184829
 10
81.957696426
 20
174.3969517551
 10
81.9457541093
 20
174.3929566988
 10
81.9337322196
 20
174.3884380737
 10
81.9216450803
 20
174.3834012636
 10
81.9095070922
 20
174.3778522694
 10
81.8973327168
 20
174.3717977023
 10
78.0586765541
 20
172.3074955167
  0
LWPOLYLINE
  5
538
100
AcDbEntity
  8
0
100
AcDbPolyline
 62
7
  6
CONTINUOUS
 90
34
 70
0
 10
82.1289728907
 20
174.3865178781
 10
82.111867367
 20
174.3961636277
 10
82.087490498
 20
174.4091242506
 10
82.0630678144
 20
174.4212021069
 10
82.0386104062
 20
174.4324055739
 10
82.0141336416
 20
174.4427412512
 10
81.9896621338
 20
174.4522120771
 10
81.9652125976
 20
174.4608254164
 10
81.9407986539
 20
174.4685899431
 10
81.9164457958
 20
174.4755107582
 10
81.8921735258
 20
174.4815963577
 10
81.8679970992
 20
174.4868569242
 10
81.8439406421
 20
174.4913010606
 10
81.8200353065
 20
174.4949380552
 10
81.7962883362
 20
174.4977821386
 10
81.7726919831
 20
174.4998475659
 10
81.7492709695
 20
174.5011446105
 10
81.726040369
 20
174.5016854933
 10
81.702980936
 20
174.5014817516
 10
81.6801127083
 20
174.5005428708
 10
81.657456311
 20
174.498879482
 10
81.6349958792
 20
174.4964990397
 10
81.6127509724
 20
174.493410638
 10
81.5907432911
 20
174.489624547
 10
81.5689623977
 20
174.4851452564
 10
81.5474294444
 20
174.4799824741
 10
81.5261646053
 20
174.4741466851
 10
81.5051579836
 20
174.4676394834
 10
81.48443116
 20
174.4604707357
 10
81.4640038941
 20
174.4526511532
 10
81.4438657398
 20
174.4441791964
 10
81.4240277303
 20
174.4350599128
 10
81.4045207107
 20
174.4253082225
 10
81.396554488
 20
174.421093056
  0
LWPOLYLINE
  5
539
100
AcDbEntity
  8
0
100
AcDbPolyline
 62
253
  6
CONTINUOUS
 90
24
 70
0
 10
89.7410436432
 20
169.9914036579
 10
89.7388918878
 20
169.9926247981
 10
89.7300429612
 20
169.9972191489
 10
89.7209092735
 20
170.0012906756
 10
89.7115017068
 20
170.0048345271
 10
89.7018314696
 20
170.0078464813
 10
89.6919100831
 20
170.0103229496
 10
89.681749368
 20
170.0122609814
 10
89.6713614301
 20
170.0136582679
 10
89.6607586456
 20
170.0145131441
 10
89.6499536471
 20
170.0148245915
 10
89.6389593079
 20
170.0145922391
 10
89.627788727
 20
170.0138163638
 10
89.6164552132
 20
170.0124978898
 10
89.6049722695
 20
170.0106383881
 10
89.5933535771
 20
170.0082400741
 10
89.5816129787
 20
170.0053058052
 10
89.5697644624
 20
170.0018390774
 10
89.5578221449
 20
169.997844021
 10
89.5458002544
 20
169.9933253958
 10
89.5337131141
 20
169.9882885855
 10
89.5215751251
 20
169.9827395909
 10
89.5094007487
 20
169.9766850234
 10
89.4972044899
 20
169.9701320964
  0
LINE
  5
53A
100
AcDbEntity
  8
0
100
AcDbLine
 62
7
  6
CONTINUOUS
 10
87.2870433428
 20
170.4263833082
 11
84.0196580821
 21
172.3129306078
  0
LINE
  5
53B
100
AcDbEntity
  8
0
100
AcDbLine
 62
253
  6
CONTINUOUS
 10
81.8851390154
 20
174.3652432998
 11
83.3600921351
 21
173.513623854
  0
LINE
  5
53C
100
AcDbEntity
  8
0
100
AcDbLine
 62
253
  6
CONTINUOUS
 10
88.0222488138
 20
170.8217530183
 11
89.4972015003
 21
169.9701338226
  0
LINE
  5
53D
100
AcDbEntity
  8
0
100
AcDbLine
 62
7
  6
CONTINUOUS
 10
82.1289781816
 20
174.3865148538
 11
83.6571164085
 21
173.5041869937
  0
LINE
  5
53E
100
AcDbEntity
  8
0
100
AcDbLine
 62
7
  6
CONTINUOUS
 10
88.2129079856
 20
170.8737300345
 11
89.7410462126
 21
169.9914021743
  0
LWPOLYLINE
  5
53F
100
AcDbEntity
  8
0
100
AcDbPolyline
 62
253
  6
CONTINUOUS
 90
58
 70
0
 10
89.4972014736
 20
169.9701338071
 10
89.5168510672
 20
169.9586684198
 10
89.5364807172
 20
169.9465896181
 10
89.5560754015
 20
169.933906549
 10
89.575619845
 20
169.9206288792
 10
89.5950993878
 20
169.9067666182
 10
89.6144999895
 20
169.8923300577
 10
89.6338070327
 20
169.8773299332
 10
89.6530055404
 20
169.8617777162
 10
89.6720810405
 20
169.8456854083
 10
89.6910189395
 20
169.829065216
 10
89.7098047946
 20
169.8119296716
 10
89.7284245247
 20
169.794291877
 10
89.746863913
 20
169.7761652015
 10
89.7651088912
 20
169.7575633425
 10
89.7831458104
 20
169.738500449
 10
89.800960956
 20
169.7189909258
 10
89.8185406966
 20
169.6990495705
 10
89.8358717668
 20
169.6786916309
 10
89.8529409557
 20
169.6579325615
 10
89.869735263
 20
169.6367880654
 10
89.8862420451
 20
169.6152742259
 10
89.902448755
 20
169.5934073513
 10
89.918343036
 20
169.5712040218
 10
89.933912878
 20
169.5486811335
 10
89.9491464419
 20
169.5258557967
 10
89.9640321441
 20
169.5027453007
 10
89.9785587462
 20
169.4793671569
 10
89.9927152428
 20
169.4557390843
 10
90.0064908495
 20
169.4318790343
 10
90.0198750887
 20
169.4078051549
 10
90.032857806
 20
169.3835357614
 10
90.0454291592
 20
169.3590892443
 10
90.0575796027
 20
169.3344840906
 10
90.0692999557
 20
169.3097389761
 10
90.0805813195
 20
169.2848727095
 10
90.0914150663
 20
169.2599041405
 10
90.1017930158
 20
169.2348522603
 10
90.1117073181
 20
169.209736089
 10
90.1211503667
 20
169.1845746176
 10
90.1301150626
 20
169.1593869564
 10
90.1385946275
 20
169.134192273
 10
90.1465824893
 20
169.109009679
 10
90.1540726489
 20
169.0838583789
 10
90.1610594889
 20
169.058757451
 10
90.1675375817
 20
169.0337257865
 10
90.1735020997
 20
169.0087824146
 10
90.1789485726
 20
168.9839463342
 10
90.1838726938
 20
168.9592362947
 10
90.188270832
 20
168.9346710717
 10
90.1921397132
 20
168.9102694039
 10
90.1954761802
 20
168.8860498229
 10
90.1982777888
 20
168.8620310174
 10
90.2005425487
 20
168.8382310307
 10
90.2022685654
 20
168.8146672157
 10
90.203454504
 20
168.7913572867
 10
90.2040996352
 20
168.7683192867
 10
90.2042035524
 20
168.7455707959
  0
LWPOLYLINE
  5
540
100
AcDbEntity
  8
0
100
AcDbPolyline
 62
7
  6
CONTINUOUS
 90
52
 70
0
 10
90.3445336751
 20
167.7231805403
 10
90.3744094991
 20
167.6741493352
 10
90.4076143099
 20
167.6179801628
 10
90.4400627303
 20
167.5613798365
 10
90.4717441181
 20
167.5043675718
 10
90.5026470767
 20
167.4469636557
 10
90.532753486
 20
167.3892012788
 10
90.5620432355
 20
167.3311191847
 10
90.5904985669
 20
167.2727535311
 10
90.6181108607
 20
167.2141227017
 10
90.6448740682
 20
167.1552387242
 10
90.6707738974
 20
167.0961312264
 10
90.6957985786
 20
167.0368248909
 10
90.7199446992
 20
166.9773237642
 10
90.7432005685
 20
166.9176504875
 10
90.7655512456
 20
166.8578366324
 10
90.7869874804
 20
166.7978991533
 10
90.8075039521
 20
166.7378421337
 10
90.8270794204
 20
166.6777160119
 10
90.8456836662
 20
166.6176068738
 10
90.8632988196
 20
166.5575717822
 10
90.8799253474
 20
166.4976079161
 10
90.8955624642
 20
166.4377108907
 10
90.9102000327
 20
166.3779083748
 10
90.9238285705
 20
166.3182264809
 10
90.9364455706
 20
166.2586580729
 10
90.9480424669
 20
166.199217642
 10
90.9586058186
 20
166.1399447766
 10
90.9681247523
 20
166.0808693163
 10
90.9765951986
 20
166.0219738621
 10
90.983999736
 20
165.963329923
 10
90.9903155165
 20
165.9050972315
 10
90.9955353771
 20
165.8473641772
 10
90.9996653316
 20
165.7900888794
 10
91.0027066756
 20
165.7332329656
 10
91.0046547912
 20
165.6768155431
 10
91.0055048024
 20
165.6208655916
 10
91.0052516551
 20
165.5653606563
 10
91.0038877
 20
165.5103069691
 10
91.0014059643
 20
165.4557482274
 10
90.9978003679
 20
165.4017177458
 10
90.9930594208
 20
165.348185745
 10
90.9871802356
 20
165.2952320298
 10
90.9801810739
 20
165.2430464468
 10
90.9720782763
 20
165.1917130232
 10
90.9628686691
 20
165.1411808804
 10
90.9525496801
 20
165.0914313073
 10
90.9411134579
 20
165.0424387618
 10
90.9285720302
 20
164.9942671769
 10
90.9149569773
 20
164.9470283068
 10
90.9002865856
 20
164.9007601913
 10
90.8980174805
 20
164.8942209806
  0
LINE
  5
541
100
AcDbEntity
  8
0
100
AcDbLine
 62
253
  6
CONTINUOUS
 10
94.0321353633
 20
162.5381036933
 11
94.2026699721
 21
162.2428903922
  0
LINE
  5
542
100
AcDbEntity
  8
0
100
AcDbLine
 62
7
  6
CONTINUOUS
 10
94.4005057048
 20
162.7172412531
 11
94.5564328981
 21
162.4471674323
  0
LWPOLYLINE
  5
543
100
AcDbEntity
  8
0
100
AcDbPolyline
 62
253
  6
CONTINUOUS
 90
34
 70
0
 10
94.2026699607
 20
162.2428903855
 10
94.2262983563
 20
162.201580146
 10
94.2493399164
 20
162.1599629859
 10
94.2717815528
 20
162.1180624457
 10
94.2936103848
 20
162.0759023716
 10
94.3148141624
 20
162.0335064714
 10
94.3353812469
 20
161.9908982921
 10
94.3553000486
 20
161.9481017378
 10
94.3745591375
 20
161.9051412088
 10
94.3931476524
 20
161.8620411525
 10
94.4110550306
 20
161.8188260108
 10
94.4282711139
 20
161.77552018
 10
94.4447862324
 20
161.732148141
 10
94.4605910344
 20
161.6887344217
 10
94.4756765314
 20
161.6453036122
 10
94.4900342043
 20
161.6018803252
 10
94.503655928
 20
161.5584891483
 10
94.5165339715
 20
161.5151546432
 10
94.5286610389
 20
161.4719013606
 10
94.54003028
 20
161.4287538045
 10
94.5506352543
 20
161.3857364007
 10
94.5604699307
 20
161.3428734971
 10
94.5695287654
 20
161.300189405
 10
94.5778066442
 20
161.2577082737
 10
94.5852988425
 20
161.2154540606
 10
94.5920011644
 20
161.17345067
 10
94.597909823
 20
161.131721946
 10
94.6030213843
 20
161.090291546
 10
94.6073329912
 20
161.0491831272
 10
94.6108422615
 20
161.0084198162
 10
94.6135471366
 20
160.9680242146
 10
94.6154460708
 20
160.9280190709
 10
94.6165380601
 20
160.8884272546
 10
94.6168225234
 20
160.8492712343
  0
LWPOLYLINE
  5
544
100
AcDbEntity
  8
0
100
AcDbPolyline
 62
7
  6
CONTINUOUS
 90
40
 70
0
 10
94.2150739632
 20
131.1623621062
 10
94.2344958778
 20
131.1743674572
 10
94.2653330356
 20
131.1943945112
 10
94.2956357879
 20
131.2152837068
 10
94.3253698456
 20
131.2370131767
 10
94.3545216694
 20
131.2595742609
 10
94.3830969805
 20
131.2829743366
 10
94.4110722494
 20
131.3071987063
 10
94.4384246906
 20
131.3322319823
 10
94.4651587242
 20
131.3580843491
 10
94.4912511223
 20
131.3847409615
 10
94.5166790887
 20
131.4121857834
 10
94.5414451023
 20
131.4404308687
 10
94.5655272643
 20
131.4694630442
 10
94.588901533
 20
131.4992646486
 10
94.6115649436
 20
131.5298446326
 10
94.6334952987
 20
131.5611880845
 10
94.6546703598
 20
131.5932785085
 10
94.675085364
 20
131.6261259743
 10
94.6947180448
 20
131.6597139122
 10
94.7135479928
 20
131.6940272129
 10
94.7315711821
 20
131.7290821832
 10
94.7487611036
 20
131.7648531674
 10
94.7651027588
 20
131.8013351953
 10
94.7806039758
 20
131.8385818745
 10
94.7952477612
 20
131.8766004953
 10
94.8090023694
 20
131.9153583047
 10
94.8218492752
 20
131.9548550968
 10
94.8337687171
 20
131.9950900229
 10
94.8447347498
 20
132.0360394342
 10
94.8547219997
 20
132.0776731103
 10
94.8637112122
 20
132.1199810229
 10
94.8716829092
 20
132.162949803
 10
94.878615817
 20
132.2065481321
 10
94.8844932221
 20
132.2507670984
 10
94.8892981443
 20
132.2955948725
 10
94.8930126606
 20
132.3410003695
 10
94.895621224
 20
132.3869689017
 10
94.8971093217
 20
132.4334965287
 10
94.8974827194
 20
132.4714671778
  0
LINE
  5
545
100
AcDbEntity
  8
0
100
AcDbLine
 62
7
  6
CONTINUOUS
 10
85.2253807092
 20
125.7110218555
 11
94.2151123535
 21
131.1623851882
  0
LINE
  5
546
100
AcDbEntity
  8
RACCORDO
100
AcDbLine
 62
7
  6
CONTINUOUS
 10
89.9566576627
 20
128.4311713975
 11
85.2253807092
 21
125.6993707534
  0
LINE
  5
547
100
AcDbEntity
  8
RACCORDO
100
AcDbLine
 62
253
  6
CONTINUOUS
 10
84.5075042863
 20
122.6046121588
 11
85.2253807092
 21
123.0119929009
  0
LWPOLYLINE
  5
548
100
AcDbEntity
  8
RACCORDO
100
AcDbPolyline
 62
253
  6
CONTINUOUS
 90
16
 70
0
 10
78.327142383
 20
120.2675074227
 10
78.288133149
 20
120.2461760262
 10
78.2458205577
 20
120.2272982424
 10
78.2006579578
 20
120.2110763331
 10
78.1531292338
 20
120.1976841045
 10
78.1037436215
 20
120.1872650444
 10
78.0530302518
 20
120.1799307856
 10
78.0015324818
 20
120.1757599094
 10
77.9498020726
 20
120.1747971036
 10
77.8983932781
 20
120.177052684
 10
77.8478569062
 20
120.1825024838
 10
77.7987344174
 20
120.1910881123
 10
77.7515521235
 20
120.2027175805
 10
77.7068155487
 20
120.2172662872
 10
77.6650040127
 20
120.2345783536
 10
77.626565496
 20
120.2544682934
  0
LINE
  5
549
100
AcDbEntity
  8
RACCORDO
100
AcDbLine
 62
253
  6
CONTINUOUS
 10
79.0083330153
 20
119.8654672627
 11
84.5075042863
 21
122.6046121588
  0
LINE
  5
54A
100
AcDbEntity
  8
0
100
AcDbLine
 62
7
  6
CONTINUOUS
 10
66.4163403296
 20
177.1794314166
 11
65.0564083895
 21
176.9657529521
  0
LWPOLYLINE
  5
54B
100
AcDbEntity
  8
RACCORDO
100
AcDbPolyline
 62
253
  6
CONTINUOUS
 90
9
 70
0
 10
84.7285498851
 20
121.1322658359
 10
84.7459853469
 20
121.1435668263
 10
84.7612723986
 20
121.1558568642
 10
84.7742445801
 20
121.1690002725
 10
84.7847553575
 20
121.1828434643
 10
84.7926998822
 20
121.1972420388
 10
84.7980001367
 20
121.2120654207
 10
84.8005875726
 20
121.2271862946
 10
84.8008500166
 20
121.2337998601
  0
LWPOLYLINE
  5
54C
100
AcDbEntity
  8
RACCORDO
100
AcDbPolyline
 62
253
  6
CONTINUOUS
 90
9
 70
0
 10
84.7285498851
 20
121.460268056
 10
84.7459400128
 20
121.4715363721
 10
84.7611940432
 20
121.4837886072
 10
84.7741468069
 20
121.4968902413
 10
84.7846566285
 20
121.5106948511
 10
84.7926133097
 20
121.52505385
 10
84.7979341939
 20
121.5398190963
 10
84.8005590701
 20
121.5548389006
 10
84.8008500059
 20
121.5617586899
  0
LINE
  5
54D
100
AcDbEntity
  8
RACCORDO
100
AcDbLine
 62
253
  6
CONTINUOUS
 10
84.2000758765
 20
120.820707463
 11
84.7285498851
 21
121.1322658359
  0
LINE
  5
54E
100
AcDbEntity
  8
RACCORDO
100
AcDbLine
 62
7
  6
CONTINUOUS
 10
84.1493402766
 20
120.706879948
 11
84.6778142852
 21
121.0184383209
  0
LINE
  5
54F
100
AcDbEntity
  8
RACCORDO
100
AcDbLine
 62
7
  6
CONTINUOUS
 10
84.1493402766
 20
120.706879948
 11
84.1480314638
 21
120.7061242558
  0
LINE
  5
550
100
AcDbEntity
  8
RACCORDO
100
AcDbLine
 62
7
  6
CONTINUOUS
 10
84.3991905416
 20
122.3730189423
 11
85.1207385238
 21
122.7824832219
  0
LINE
  5
551
100
AcDbEntity
  8
RACCORDO
100
AcDbLine
 62
253
  6
CONTINUOUS
 10
82.5998246943
 20
119.915992412
 11
84.2000758765
 21
120.820707463
  0
LINE
  5
552
100
AcDbEntity
  8
RACCORDO
100
AcDbLine
 62
7
  6
CONTINUOUS
 10
82.5470135485
 20
119.8009665028
 11
84.1480328106
 21
120.7061157941
  0
LINE
  5
553
100
AcDbEntity
  8
DRAFT
100
AcDbLine
 62
7
  6
CONTINUOUS
 10
84.3993201131
 20
122.3730926121
 11
84.3912216905
 21
122.3687724168
  0
LWPOLYLINE
  5
554
100
AcDbEntity
  8
RACCORDO
100
AcDbPolyline
 62
253
  6
CONTINUOUS
 90
16
 70
0
 10
82.5998246943
 20
120.2375820309
 10
82.5803085875
 20
120.2275411576
 10
82.5590884061
 20
120.2187336576
 10
82.5363971375
 20
120.2112548939
 10
82.5124883869
 20
120.2051866648
 10
82.4876194976
 20
120.2005925913
 10
82.462047032
 20
120.1975203921
 10
82.4360337125
 20
120.1960048293
 10
82.4098790861
 20
120.1960665048
 10
82.3839010964
 20
120.1977034783
 10
82.358385117
 20
120.2008934437
 10
82.3336055387
 20
120.2055977034
 10
82.3098521068
 20
120.2117545987
 10
82.287383371
 20
120.2192869224
 10
82.2664268348
 20
120.2281076772
 10
82.2471993233
 20
120.2381150596
  0
LWPOLYLINE
  5
555
100
AcDbEntity
  8
RACCORDO
100
AcDbPolyline
 62
253
  6
CONTINUOUS
 90
16
 70
0
 10
82.5998246943
 20
119.915992412
 10
82.5802520648
 20
119.9059253945
 10
82.5589664658
 20
119.8970988423
 10
82.5362028814
 20
119.8896088674
 10
82.5122273158
 20
119.8835400766
 10
82.4872898616
 20
119.8789530079
 10
82.4616166663
 20
119.8758927074
 10
82.4354282318
 20
119.8743987541
 10
82.4090706643
 20
119.8745040065
 10
82.3829645052
 20
119.8762027352
 10
82.3574198718
 20
119.8794565523
 10
82.3326848263
 20
119.8842153976
 10
82.3090658119
 20
119.8903989295
 10
82.286813671
 20
119.8979125246
 10
82.2661273517
 20
119.9066586292
 10
82.2471993233
 20
119.9165254406
  0
LINE
  5
556
100
AcDbEntity
  8
RACCORDO
100
AcDbLine
 62
7
  6
CONTINUOUS
 10
78.8839305909
 20
119.6255831871
 11
84.3911081898
 21
122.3687160464
  0
ARC
  5
557
100
AcDbEntity
  8
0
100
AcDbCircle
 62
7
  6
CONTINUOUS
 10
65.9834149021
 20
174.1531757596
 40
0.2
100
AcDbArc
 50
0.0243100061
 51
59.975690084
  0
ELLIPSE
  5
558
100
AcDbEntity
  8
RACCORDO
100
AcDbEllipse
 62
7
  6
CONTINUOUS
 10
56.5963464563
 20
146.069212568
 30
0.0
 11
0.3511294281
 21
-0.0320496276
 31
0.0
 40
0.5773139436
 41
1.62344244
 42
3.1942387668
  0
ELLIPSE
  5
559
100
AcDbEntity
  8
0
100
AcDbEllipse
 62
7
  6
CONTINUOUS
 10
66.1347591209
 20
153.6661321861
 30
0.0
 11
1.953187346
 21
3.3831286526
 31
0.0
 40
0.5772716074
 41
-3.5401758827
 42
-3.4254304106
  0
ELLIPSE
  5
55A
100
AcDbEntity
  8
0
100
AcDbEllipse
 62
7
  6
CONTINUOUS
 10
82.4676642626
 20
170.5719364467
 30
0.0
 11
2.7651420136
 21
-1.3489686084
 31
0.0
 40
0.0751809742
 41
0.6651405815
 42
0.9789766346
  0
ELLIPSE
  5
55B
100
AcDbEntity
  8
0
100
AcDbEllipse
 62
7
  6
CONTINUOUS
 10
82.4676642626
 20
168.7385046724
 30
0.0
 11
2.7669029404
 21
-0.0411129114
 31
0.0
 40
0.5672251703
 41
0.3493132504
 42
0.6369082337
  0
ELLIPSE
  5
55C
100
AcDbEntity
  8
0
100
AcDbEllipse
 62
7
  6
CONTINUOUS
 10
82.4676642626
 20
168.7385046724
 30
0.0
 11
2.7669029404
 21
-0.0411129114
 31
0.0
 40
0.5672251703
 41
0.9507442869
 42
1.8855241063
  0
ELLIPSE
  5
55D
100
AcDbEntity
  8
0
100
AcDbEllipse
 62
7
  6
CONTINUOUS
 10
87.8119232267
 20
170.5278940399
 30
0.0
 11
0.4092805487
 21
0.3389487381
 31
0.0
 40
0.230212582
 41
0.085463658
 42
0.8532562794
  0
ELLIPSE
  5
55E
100
AcDbEntity
  8
0
100
AcDbEllipse
 62
7
  6
CONTINUOUS
 10
83.5580770072
 20
172.9840115338
 30
0.0
 11
-0.1173025292
 21
0.5606356438
 31
0.0
 40
0.681723502
 41
4.9501376441
 42
6.5034806784
  0
ELLIPSE
  5
55F
100
AcDbEntity
  8
0
100
AcDbEllipse
 62
7
  6
CONTINUOUS
 10
82.4676642626
 20
169.1214413977
 30
0.0
 11
2.7669757726
 21
-0.0207320779
 31
0.0
 40
0.5723275643
 41
0.1326816274
 42
2.0705053209
  0
ELLIPSE
  5
560
100
AcDbEntity
  8
RACCORDO
100
AcDbEllipse
 62
7
  6
CONTINUOUS
 10
73.5601817164
 20
165.7847989638
 30
0.0
 11
0.4999978344
 21
0.0025340295
 31
0.0
 40
0.5807363987
 41
2.3590690438
 42
2.9996644382
  0
ELLIPSE
  5
561
100
AcDbEntity
  8
RACCORDO
100
AcDbEllipse
 62
7
  6
CONTINUOUS
 10
57.6502791397
 20
174.9709773137
 30
0.0
 11
0.4999978344
 21
0.0025340295
 31
0.0
 40
0.5807363987
 41
2.3590690438
 42
2.9996644382
  0
ELLIPSE
  5
562
100
AcDbEntity
  8
DRAFT
100
AcDbEllipse
 62
7
  6
CONTINUOUS
 10
92.1550271648
 20
170.3877752904
 30
0.0
 11
14.9998521099
 21
0.1143681643
 31
0.0
 40
0.5824033911
 41
-2.5241163716
 42
-2.522186932
  0
ELLIPSE
  5
563
100
AcDbEntity
  8
DRAFT
100
AcDbEllipse
 62
7
  6
CONTINUOUS
 10
79.2149730691
 20
164.8451445943
 30
0.0
 11
0.9999901407
 21
0.0076245443
 31
0.0
 40
0.5824033911
 41
0.7809575884
 42
2.3517539151
  0
ELLIPSE
  5
564
100
AcDbEntity
  8
RACCORDO
100
AcDbEllipse
 62
7
  6
CONTINUOUS
 10
89.4075472879
 20
162.7497089232
 30
0.0
 11
0.0987061723
 21
0.1739499978
 31
0.0
 40
0.5722717666
 41
-2.3517073555
 42
-0.7896376749
  0
ELLIPSE
  5
565
100
AcDbEntity
  8
RACCORDO
100
AcDbEllipse
 62
7
  6
CONTINUOUS
 10
89.456778907
 20
163.3722919654
 30
0.0
 11
0.4999950703
 21
0.0038122721
 31
0.0
 40
0.5824033911
 41
-0.7723854459
 42
-0.0044589575
  0
ELLIPSE
  5
566
100
AcDbEntity
  8
RACCORDO
100
AcDbEllipse
 62
7
  6
CONTINUOUS
 10
84.8717734625
 20
158.8815686669
 30
0.0
 11
-0.2500977477
 21
0.4330552017
 31
0.0
 40
0.5772437351
 41
-2.3564331449
 42
-0.7854845191
  0
ELLIPSE
  5
567
100
AcDbEntity
  8
RACCORDO
100
AcDbEllipse
 62
7
  6
CONTINUOUS
 10
84.8717734625
 20
123.2160991172
 30
0.0
 11
-0.250059698
 21
0.4329892314
 31
0.0
 40
0.5774195892
 41
-3.1459335242
 42
-2.3562809449
  0
ELLIPSE
  5
568
100
AcDbEntity
  8
RACCORDO
100
AcDbEllipse
 62
7
  6
CONTINUOUS
 10
73.5468763303
 20
173.3610557286
 30
0.0
 11
-0.3535448484
 21
0.612377367
 31
0.0
 40
0.5773595689
 41
-2.388311726
 42
-2.3571482419
  0
ELLIPSE
  5
569
100
AcDbEntity
  8
RACCORDO
100
AcDbEllipse
 62
7
  6
CONTINUOUS
 10
63.3362256346
 20
178.2455998659
 30
0.0
 11
0.4279682183
 21
-0.0021438841
 31
0.0
 40
0.5740189913
 41
-0.7825226537
 42
2.3532522358
  0
ELLIPSE
  5
56A
100
AcDbEntity
  8
RACCORDO
100
AcDbEllipse
 62
7
  6
CONTINUOUS
 10
68.8912140638
 20
175.0382191673
 30
0.0
 11
0.4279682183
 21
-0.0021438841
 31
0.0
 40
0.5740189913
 41
-0.7767048895
 42
2.3590699999
  0
ELLIPSE
  5
56B
100
AcDbEntity
  8
RACCORDO
100
AcDbEllipse
 62
7
  6
CONTINUOUS
 10
89.456778907
 20
164.1748773787
 30
0.0
 11
-0.3535448484
 21
0.612377367
 31
0.0
 40
0.5773595689
 41
-3.1241152003
 42
-2.3571482419
  0
ELLIPSE
  5
56C
100
AcDbEntity
  8
RACCORDO
100
AcDbEllipse
 62
7
  6
CONTINUOUS
 10
84.8011166405
 20
165.8520408174
 30
0.0
 11
0.4279682183
 21
-0.0021438841
 31
0.0
 40
0.5740189913
 41
-0.7767048895
 42
2.3590699999
  0
ELLIPSE
  5
56D
100
AcDbEntity
  8
RACCORDO
100
AcDbEllipse
 62
7
  6
CONTINUOUS
 10
79.2461282113
 20
169.059421516
 30
0.0
 11
0.4279682183
 21
-0.0021438841
 31
0.0
 40
0.5740189913
 41
-0.7825226537
 42
2.3532522358
  0
ELLIPSE
  5
56E
100
AcDbEntity
  8
RACCORDO
100
AcDbEllipse
 62
7
  6
CONTINUOUS
 10
79.0714888161
 20
162.6026393174
 30
0.0
 11
0.4999978344
 21
0.0025340295
 31
0.0
 40
0.5807363987
 41
-1.4347545326
 42
-0.7941591381
  0
ELLIPSE
  5
56F
100
AcDbEntity
  8
RACCORDO
100
AcDbEllipse
 62
7
  6
CONTINUOUS
 10
63.1615862394
 20
171.7888176673
 30
0.0
 11
0.4999978344
 21
0.0025340295
 31
0.0
 40
0.5807363987
 41
-1.4347545326
 42
-0.7941591381
  0
ELLIPSE
  5
570
100
AcDbEntity
  8
DRAFT
100
AcDbEllipse
 62
7
  6
CONTINUOUS
 10
79.2149730691
 20
166.6840471893
 30
0.0
 11
0.9999908055
 21
-0.0074926161
 31
0.0
 40
0.5723275643
 41
1.3132851829
 42
2.3604827341
  0
ELLIPSE
  5
571
100
AcDbEntity
  8
DRAFT
100
AcDbEllipse
 62
7
  6
CONTINUOUS
 10
63.3050704924
 20
175.8702255392
 30
0.0
 11
0.9999908055
 21
-0.0074926161
 31
0.0
 40
0.5723275643
 41
1.3132851829
 42
2.3604827341
  0
ELLIPSE
  5
572
100
AcDbEntity
  8
RACCORDO
100
AcDbEllipse
 62
7
  6
CONTINUOUS
 10
73.7612753753
 20
172.1731959583
 30
0.0
 11
-0.7070896968
 21
1.224754734
 31
0.0
 40
0.5773595689
 41
5.2096278933
 42
6.2744828216
  0
ELLIPSE
  5
573
100
AcDbEntity
  8
RACCORDO
100
AcDbEllipse
 62
7
  6
CONTINUOUS
 10
89.671177952
 20
162.9870176084
 30
0.0
 11
-0.7070896968
 21
1.224754734
 31
0.0
 40
0.5773595689
 41
5.2096278933
 42
6.2744828216
  0
ELLIPSE
  5
574
100
AcDbEntity
  8
RACCORDO
100
AcDbEllipse
 62
7
  6
CONTINUOUS
 10
63.3362256346
 20
177.0437333101
 30
0.0
 11
0.4279660527
 21
-0.0032066148
 31
0.0
 40
0.5723275643
 41
-0.7811099195
 42
0.0043041481
  0
ELLIPSE
  5
575
100
AcDbEntity
  8
RACCORDO
100
AcDbEllipse
 62
7
  6
CONTINUOUS
 10
68.8912140638
 20
173.8363526115
 30
0.0
 11
0.4279660527
 21
-0.0032066148
 31
0.0
 40
0.5723275643
 41
-0.7752921553
 42
0.0042513256
  0
ELLIPSE
  5
576
100
AcDbEntity
  8
RACCORDO
100
AcDbEllipse
 62
7
  6
CONTINUOUS
 10
79.2461282113
 20
167.8575549603
 30
0.0
 11
0.4279660527
 21
-0.0032066148
 31
0.0
 40
0.5723275643
 41
-0.7811099195
 42
0.0043041481
  0
ELLIPSE
  5
577
100
AcDbEntity
  8
RACCORDO
100
AcDbEllipse
 62
7
  6
CONTINUOUS
 10
84.8011166405
 20
164.6501742616
 30
0.0
 11
0.4279660527
 21
-0.0032066148
 31
0.0
 40
0.5723275643
 41
-0.7752921553
 42
0.0042513256
  0
ELLIPSE
  5
578
100
AcDbEntity
  8
RACCORDO
100
AcDbEllipse
 62
7
  6
CONTINUOUS
 10
83.1347852361
 20
158.4091373982
 30
0.0
 11
0.249894357
 21
0.0119767658
 31
0.0
 40
0.6067642562
 41
-2.385266879
 42
-1.6678126333
  0
ELLIPSE
  5
579
100
AcDbEntity
  8
RACCORDO
100
AcDbEllipse
 62
7
  6
CONTINUOUS
 10
81.800543289
 20
159.1795119764
 30
0.0
 11
0.249894357
 21
0.0119767658
 31
0.0
 40
0.6067642562
 41
3.1125113595
 42
3.8979184282
  0
ELLIPSE
  5
57A
100
AcDbEntity
  8
RACCORDO
100
AcDbEllipse
 62
7
  6
CONTINUOUS
 10
69.7704670717
 20
166.1255272121
 30
0.0
 11
0.249894357
 21
0.0119767658
 31
0.0
 40
0.6067642562
 41
-2.385266879
 42
-0.8197065399
  0
ELLIPSE
  5
57B
100
AcDbEntity
  8
RACCORDO
100
AcDbEllipse
 62
7
  6
CONTINUOUS
 10
68.4362251246
 20
166.8959017903
 30
0.0
 11
0.249894357
 21
0.0119767658
 31
0.0
 40
0.6067642562
 41
3.1125113595
 42
3.8979184282
  0
ELLIPSE
  5
57C
100
AcDbEntity
  8
RACCORDO
100
AcDbEllipse
 62
7
  6
CONTINUOUS
 10
67.2248826594
 20
167.595315748
 30
0.0
 11
0.249894357
 21
0.0119767658
 31
0.0
 40
0.6067642562
 41
-2.385266879
 42
-0.8197065399
  0
ELLIPSE
  5
57D
100
AcDbEntity
  8
RACCORDO
100
AcDbEllipse
 62
7
  6
CONTINUOUS
 10
65.8906407123
 20
168.3656903263
 30
0.0
 11
0.249894357
 21
0.0119767658
 31
0.0
 40
0.6067642562
 41
3.1125113595
 42
3.8979184282
  0
ELLIPSE
  5
57E
100
AcDbEntity
  8
RACCORDO
100
AcDbEllipse
 62
7
  6
CONTINUOUS
 10
53.860564495
 20
175.3117055619
 30
0.0
 11
0.249894357
 21
0.0119767658
 31
0.0
 40
0.6067642562
 41
-2.385266879
 42
-0.8197065399
  0
ELLIPSE
  5
57F
100
AcDbEntity
  8
RACCORDO
100
AcDbEllipse
 62
7
  6
CONTINUOUS
 10
52.5263225479
 20
176.0820801402
 30
0.0
 11
0.249894357
 21
0.0119767658
 31
0.0
 40
0.6067642562
 41
-3.1027211247
 42
-2.385266879
  0
ELLIPSE
  5
580
100
AcDbEntity
  8
RACCORDO
100
AcDbEllipse
 62
7
  6
CONTINUOUS
 10
82.9570829317
 20
120.9983283482
 30
0.0
 11
-0.1059864734
 21
0.2494613504
 31
0.0
 40
0.5671580254
 41
-2.2137248257
 42
-0.6455464839
  0
ELLIPSE
  5
581
100
AcDbEntity
  8
RACCORDO
100
AcDbEllipse
 62
7
  6
CONTINUOUS
 10
83.1347852361
 20
121.453404562
 30
0.0
 11
0.2107210073
 21
0.1927502658
 31
0.0
 40
0.6979176686
 41
-2.9243701816
 42
-1.3588098425
  0
ELLIPSE
  5
582
100
AcDbEntity
  8
RACCORDO
100
AcDbEllipse
 62
7
  6
CONTINUOUS
 10
79.0714888161
 20
161.3997377616
 30
0.0
 11
0.4997887139
 21
0.0239535316
 31
0.0
 40
0.6067642562
 41
-2.385266879
 42
-0.8202883164
  0
ELLIPSE
  5
583
100
AcDbEntity
  8
RACCORDO
100
AcDbEllipse
 62
7
  6
CONTINUOUS
 10
73.5601817164
 20
164.581897408
 30
0.0
 11
0.4997887139
 21
0.0239535316
 31
0.0
 40
0.6067642562
 41
3.1125605013
 42
3.8979184282
  0
ELLIPSE
  5
584
100
AcDbEntity
  8
RACCORDO
100
AcDbEllipse
 62
7
  6
CONTINUOUS
 10
63.1615862394
 20
170.5859161114
 30
0.0
 11
0.4997887139
 21
0.0239535316
 31
0.0
 40
0.6067642562
 41
-2.385266879
 42
-0.8202883164
  0
ELLIPSE
  5
585
100
AcDbEntity
  8
RACCORDO
100
AcDbEllipse
 62
7
  6
CONTINUOUS
 10
57.6502791397
 20
173.7680757579
 30
0.0
 11
0.4997887139
 21
0.0239535316
 31
0.0
 40
0.6067642562
 41
3.1125605013
 42
3.8979184282
  0
ENDSEC
  0
SECTION
  2
OBJECTS
  0
DICTIONARY
  5
C
100
AcDbDictionary
280
0
281
1
  3
ACAD_GROUP
350
D
  3
ACAD_MLINESTYLE
350
17
  3
ACAD_LAYOUT
350
1A
  3
ACAD_PLOTSETTINGS
350
19
  3
ACAD_PLOTSTYLENAME
350
E
  0
DICTIONARY
  5
D
102
{ACAD_REACTORS
330
C
102
}
100
AcDbDictionary
280
0
281
1
  0
ACDBDICTIONARYWDFLT
  5
E
102
{ACAD_REACTORS
330
C
102
}
100
AcDbDictionary
281
1
  3
Normal
350
F
100
AcDbDictionaryWithDefault
340
F
  0
DICTIONARY
  5
17
102
{ACAD_REACTORS
330
C
102
}
100
AcDbDictionary
280
0
281
1
  3
Standard
350
18
  0
DICTIONARY
  5
19
102
{ACAD_REACTORS
330
C
102
}
100
AcDbDictionary
281
1
  0
DICTIONARY
  5
1A
102
{ACAD_REACTORS
330
C
102
}
100
AcDbDictionary
281
1
  3
Model
350
586
  3
Layout1
350
587
  0
ACDBPLACEHOLDER
  5
F
102
{ACAD_REACTORS
330
E
102
}
  0
MLINESTYLE
  5
18
102
{ACAD_REACTORS
330
17
102
}
100
AcDbMlineStyle
  2
STANDARD
 70
0
  3

 62
256
 51
90.0
 52
90.0
 71
2
 49
0.5
 62
256
  6
BYLAYER
 49
-0.5
 62
256
  6
BYLAYER
  0
LAYOUT
  5
586
102
{ACAD_REACTORS
330
1A
102
}
100
AcDbPlotSettings
  1

  2
none_device
  4
ISO_A4_(297.00_x_210.00_MM)
  6

 40
0.0
 41
0.0
 42
0.0
 43
0.0
 44
297.0
 45
210.0
 46
0.0
 47
0.0
 48
0.0
 49
0.0
140
0.0
141
0.0
142
1.0
143
1.0
 70
1024
 72
1
 73
0
 74
0
  7

 75
0
147
1.0
148
0.0
149
0.0
100
AcDbLayout
  1
Model
 70
0
 71
0
 10
0.0
 20
0.0
 11
297.0
 21
210.0
 12
0.0
 22
0.0
 32
0.0
 14
0.0
 24
0.0
 34
0.0
 15
0.0
 25
0.0
 35
0.0
146
0.0
 13
0.0
 23
0.0
 33
0.0
 16
1.0
 26
0.0
 36
0.0
 17
0.0
 27
1.0
 37
0.0
 76
0
330
21D
345
0
346
0
  0
LAYOUT
  5
587
102
{ACAD_REACTORS
330
1A
102
}
100
AcDbPlotSettings
  1

  2
none_device
  4
ISO_A4_(297.00_x_210.00_MM)
  6

 40
0.0
 41
0.0
 42
0.0
 43
0.0
 44
297.0
 45
210.0
 46
0.0
 47
0.0
 48
0.0
 49
0.0
140
0.0
141
0.0
142
1.0
143
1.0
 70
0
 72
1
 73
0
 74
0
  7

 75
0
147
1.0
148
0.0
149
0.0
100
AcDbLayout
  1
Layout1
 70
0
 71
1
 10
0.0
 20
0.0
 11
297.0
 21
210.0
 12
0.0
 22
0.0
 32
0.0
 14
0.0
 24
0.0
 34
0.0
 15
0.0
 25
0.0
 35
0.0
146
0.0
 13
0.0
 23
0.0
 33
0.0
 16
1.0
 26
0.0
 36
0.0
 17
0.0
 27
1.0
 37
0.0
 76
0
330
21E
345
0
346
0
  0
ENDSEC
  0
EOF
