  0
SECTION
  2
HEADER
  9
$ACADVER
  1
AC1015
  9
$DWGCODEPAGE
  3
ANSI_1252
  9
$EXTMAX
 10
558.8
 20
431.8
 30
0.0
  9
$EXTMIN
 10
0.0
 20
0.0
 30
0.0
  9
$LIMMIN
 10
0.0
 20
0.0
  9
$LIMMAX
 10
558.8
 20
431.8
  9
$VIEWCTR
 10
279.4
 20
215.9
  9
$VIEWSIZE
 40
431.8
  9
$CLAYER
  8
0
  9
$LTSCALE
 40
30.734
  9
$CELTYPE
  6
BYLAYER
  9
$DIMSCALE
 40
1.0
  9
$DIMASZ
 40
3.0
  9
$DIMEXO
 40
3.4925
  9
$DIMDLI
 40
21.2344
  9
$DIMEXE
 40
10.0584
  9
$DIMCEN
 40
5.0292
  9
$DIMLFAC
 40
1.0
  9
$DIMBLK
  1
_FILLED
  9
$DIMTXT
 40
3.0
  9
$DIMTOL
 70
1
  9
$DIMLIM
 70
0
  9
$DIMTFAC
 40
1.0
  9
$DIMTP
 40
0.01
  9
$DIMTM
 40
0.01
  9
$PDMODE
 70
3
  9
$PDSIZE
 40
3.0
  9
$HANDSEED
  5
6A6
  9
$TILEMODE
 70
1
  9
$MEASUREMENT
 70
1
  9
$INSUNITS
 70
4
  0
ENDSEC
  0
SECTION
  2
CLASSES
  0
CLASS
  1
ACDBDICTIONARYWDFLT
  2
AcDbDictionaryWithDefault
  3
AutoCAD 2000
 90
0
280
0
281
0
  0
CLASS
  1
ACDBPLACEHOLDER
  2
AcDbPlaceHolder
  3
AutoCAD 2000
 90
0
280
0
281
0
  0
CLASS
  1
LAYOUT
  2
AcDbLayout
  3
AutoCAD 2000
 90
0
280
0
281
0
  0
ENDSEC
  0
SECTION
  2
TABLES
  0
TABLE
  2
VPORT
  5
8
100
AcDbSymbolTable
 70
2
  0
VPORT
  5
1F4
100
AcDbSymbolTableRecord
100
AcDbViewportTableRecord
  2
*ACTIVE
 70
0
 10
0.0
 20
0.0
 11
1.0
 21
1.0
 12
279.4
 22
215.9
 13
0.0
 23
0.0
 14
1.0
 24
1.0
 15
0.0
 25
0.0
 16
0.0
 26
0.0
 36
1.0
 17
0.0
 27
0.0
 37
0.0
 40
431.8
 41
1.2941176471
 42
50.0
 43
0.0
 44
0.0
 50
0.0
 51
0.0
 71
0
 72
100
 73
1
 74
1
 75
0
 76
0
 77
0
 78
0
  0
ENDTAB
  0
TABLE
  2
LTYPE
  5
5
100
AcDbSymbolTable
 70
6
  0
LTYPE
  5
14
100
AcDbSymbolTableRecord
100
AcDbLinetypeTableRecord
  2
BYBLOCK
 70
0
  3

 72
65
 73
0
 40
0.0
  0
LTYPE
  5
15
100
AcDbSymbolTableRecord
100
AcDbLinetypeTableRecord
  2
BYLAYER
 70
0
  3

 72
65
 73
0
 40
0.0
  0
LTYPE
  5
16
100
AcDbSymbolTableRecord
100
AcDbLinetypeTableRecord
  2
CONTINUOUS
 70
64
  3
Solid line
 72
65
 73
0
 40
0.0
  0
LTYPE
  5
1F5
100
AcDbSymbolTableRecord
100
AcDbLinetypeTableRecord
  2
CENTER
 70
64
  3
____ _ ____ _ ____ _ ____ _ ____ _ ____ _ ____
 72
65
 73
4
 40
0.6
 49
0.375
 74
0
 49
-0.075
 74
0
 49
0.075
 74
0
 49
-0.075
 74
0
  0
LTYPE
  5
1F6
100
AcDbSymbolTableRecord
100
AcDbLinetypeTableRecord
  2
HIDDEN
 70
64
  3
- - - - - - - - - - - - - - - - - - - -
 72
65
 73
2
 40
0.2
 49
0.1
 74
0
 49
-0.1
 74
0
  0
LTYPE
  5
1F7
100
AcDbSymbolTableRecord
100
AcDbLinetypeTableRecord
  2
PHANTOM
 70
64
  3
_____ _ _ _____ _ _ _____ _ _ _____
 72
65
 73
6
 40
0.8
 49
0.45
 74
0
 49
-0.05
 74
0
 49
0.1
 74
0
 49
-0.05
 74
0
 49
0.1
 74
0
 49
-0.05
 74
0
  0
LTYPE
  5
1F8
100
AcDbSymbolTableRecord
100
AcDbLinetypeTableRecord
  2
DOT
 70
64
  3
. . . . . . . . . . . . . . . . . . . .
 72
65
 73
2
 40
0.2
 49
0.1
 74
0
 49
-0.1
 74
0
  0
LTYPE
  5
1F9
100
AcDbSymbolTableRecord
100
AcDbLinetypeTableRecord
  2
DASHED
 70
64
  3
- - - - - - - - - - - - - - - - - - - -
 72
65
 73
2
 40
0.2
 49
0.1
 74
0
 49
-0.1
 74
0
  0
ENDTAB
  0
TABLE
  2
LAYER
  5
2
100
AcDbSymbolTable
 70
36
  0
LAYER
  5
10
100
AcDbSymbolTableRecord
100
AcDbLayerTableRecord
  2
0
 70
0
 62
7
  6
CONTINUOUS
370
-3
390
F
  0
LAYER
  5
1FA
100
AcDbSymbolTableRecord
100
AcDbLayerTableRecord
  2
DEFAULT_1
 70
0
 62
7
  6
CENTER
370
-3
390
F
  0
LAYER
  5
1FB
100
AcDbSymbolTableRecord
100
AcDbLayerTableRecord
  2
DEFAULT_2
 70
0
 62
7
  6
HIDDEN
370
-3
390
F
  0
LAYER
  5
1FC
100
AcDbSymbolTableRecord
100
AcDbLayerTableRecord
  2
DEFAULT_3
 70
0
 62
7
  6
PHANTOM
370
-3
390
F
  0
LAYER
  5
1FD
100
AcDbSymbolTableRecord
100
AcDbLayerTableRecord
  2
ASSI
 70
0
 62
7
  6
CONTINUOUS
370
-3
390
F
  0
LAYER
  5
1FE
100
AcDbSymbolTableRecord
100
AcDbLayerTableRecord
  2
COLORE_EIKON
 70
0
 62
7
  6
CONTINUOUS
370
-3
390
F
  0
LAYER
  5
1FF
100
AcDbSymbolTableRecord
100
AcDbLayerTableRecord
  2
COORDINATE
 70
0
 62
7
  6
CONTINUOUS
370
-3
390
F
  0
LAYER
  5
200
100
AcDbSymbolTableRecord
100
AcDbLayerTableRecord
  2
COORD_ORIGINE
 70
0
 62
7
  6
CONTINUOUS
370
-3
390
F
  0
LAYER
  5
201
100
AcDbSymbolTableRecord
100
AcDbLayerTableRecord
  2
COPY_PUBLISH
 70
0
 62
7
  6
CONTINUOUS
370
-3
390
F
  0
LAYER
  5
202
100
AcDbSymbolTableRecord
100
AcDbLayerTableRecord
  2
COSMETICHE
 70
0
 62
7
  6
CONTINUOUS
370
-3
390
F
  0
LAYER
  5
203
100
AcDbSymbolTableRecord
100
AcDbLayerTableRecord
  2
COSMETICI
 70
0
 62
7
  6
CONTINUOUS
370
-3
390
F
  0
LAYER
  5
204
100
AcDbSymbolTableRecord
100
AcDbLayerTableRecord
  2
CURVE
 70
0
 62
7
  6
CONTINUOUS
370
-3
390
F
  0
LAYER
  5
205
100
AcDbSymbolTableRecord
100
AcDbLayerTableRecord
  2
DRAFT
 70
0
 62
7
  6
CONTINUOUS
370
-3
390
F
  0
LAYER
  5
206
100
AcDbSymbolTableRecord
100
AcDbLayerTableRecord
  2
IGES
 70
0
 62
7
  6
CONTINUOUS
370
-3
390
F
  0
LAYER
  5
207
100
AcDbSymbolTableRecord
100
AcDbLayerTableRecord
  2
IMPORT_IGES
 70
0
 62
7
  6
CONTINUOUS
370
-3
390
F
  0
LAYER
  5
208
100
AcDbSymbolTableRecord
100
AcDbLayerTableRecord
  2
INTF_1
 70
0
 62
7
  6
CONTINUOUS
370
-3
390
F
  0
LAYER
  5
209
100
AcDbSymbolTableRecord
100
AcDbLayerTableRecord
  2
NOTE
 70
0
 62
7
  6
CONTINUOUS
370
-3
390
F
  0
LAYER
  5
20A
100
AcDbSymbolTableRecord
100
AcDbLayerTableRecord
  2
PIANI
 70
0
 62
7
  6
CONTINUOUS
370
-3
390
F
  0
LAYER
  5
20B
100
AcDbSymbolTableRecord
100
AcDbLayerTableRecord
  2
PIANI_ORIGINE
 70
0
 62
7
  6
CONTINUOUS
370
-3
390
F
  0
LAYER
  5
20C
100
AcDbSymbolTableRecord
100
AcDbLayerTableRecord
  2
PIANI_RIFERIMENTO
 70
0
 62
7
  6
CONTINUOUS
370
-3
390
F
  0
LAYER
  5
20D
100
AcDbSymbolTableRecord
100
AcDbLayerTableRecord
  2
PIANI_SEDI_CONTATTI
 70
0
 62
7
  6
CONTINUOUS
370
-3
390
F
  0
LAYER
  5
20E
100
AcDbSymbolTableRecord
100
AcDbLayerTableRecord
  2
PIANI_SFORMI
 70
0
 62
7
  6
CONTINUOUS
370
-3
390
F
  0
LAYER
  5
20F
100
AcDbSymbolTableRecord
100
AcDbLayerTableRecord
  2
PUNTI
 70
0
 62
7
  6
CONTINUOUS
370
-3
390
F
  0
LAYER
  5
210
100
AcDbSymbolTableRecord
100
AcDbLayerTableRecord
  2
RACCORDO
 70
0
 62
7
  6
CONTINUOUS
370
-3
390
F
  0
LAYER
  5
211
100
AcDbSymbolTableRecord
100
AcDbLayerTableRecord
  2
SIMBOLI
 70
0
 62
7
  6
CONTINUOUS
370
-3
390
F
  0
LAYER
  5
212
100
AcDbSymbolTableRecord
100
AcDbLayerTableRecord
  2
SMUSSO
 70
0
 62
7
  6
CONTINUOUS
370
-3
390
F
  0
LAYER
  5
213
100
AcDbSymbolTableRecord
100
AcDbLayerTableRecord
  2
SNAPLINE
 70
0
 62
7
  6
CONTINUOUS
370
-3
390
F
  0
LAYER
  5
214
100
AcDbSymbolTableRecord
100
AcDbLayerTableRecord
  2
SUPERFICI
 70
0
 62
7
  6
CONTINUOUS
370
-3
390
F
  0
LAYER
  5
215
100
AcDbSymbolTableRecord
100
AcDbLayerTableRecord
  2
TRASH
 70
0
 62
7
  6
CONTINUOUS
370
-3
390
F
  0
LAYER
  5
216
100
AcDbSymbolTableRecord
100
AcDbLayerTableRecord
  2
XSEC_DATUMS
 70
0
 62
7
  6
CONTINUOUS
370
-3
390
F
  0
ENDTAB
  0
TABLE
  2
STYLE
  5
3
100
AcDbSymbolTable
 70
1
  0
STYLE
  5
11
100
AcDbSymbolTableRecord
100
AcDbTextStyleTableRecord
  2
STANDARD
 70
0
 40
0.0
 41
0.8
 50
0.0
 71
0
 42
0.2
  3
txt
  4

  0
STYLE
  5
217
100
AcDbSymbolTableRecord
100
AcDbTextStyleTableRecord
  2
TEXTSTYLE_1
 70
0
 40
0.0
 41
0.8
 50
0.0
 71
0
 42
0.2
  3
gdt
  4

  0
ENDTAB
  0
TABLE
  2
VIEW
  5
6
100
AcDbSymbolTable
 70
0
  0
ENDTAB
  0
TABLE
  2
UCS
  5
7
100
AcDbSymbolTable
 70
0
  0
ENDTAB
  0
TABLE
  2
APPID
  5
9
100
AcDbSymbolTable
 70
1
  0
APPID
  5
218
100
AcDbSymbolTableRecord
100
AcDbRegAppTableRecord
  2
ACAD
 70
0
  0
ENDTAB
  0
TABLE
  2
BLOCK_RECORD
  5
1
100
AcDbSymbolTable
 70
0
  0
BLOCK_RECORD
  5
219
100
AcDbSymbolTableRecord
100
AcDbBlockTableRecord
  2
*Model_Space
  0
BLOCK_RECORD
  5
21A
100
AcDbSymbolTableRecord
100
AcDbBlockTableRecord
  2
*Paper_Space
  0
ENDTAB
  0
TABLE
  2
DIMSTYLE
  5
A
100
AcDbSymbolTable
 70
1
100
AcDbDimStyleTable
 71
0
  0
DIMSTYLE
105
21B
100
AcDbSymbolTableRecord
100
AcDbDimStyleTableRecord
  2
STANDARD
 70
0
  3

  4

 40
1.0
 41
3.0
 42
0.0625
 43
0.38
 44
0.18
 45
0.0
 46
0.0
 47
0.01
 48
0.01
140
3.0
141
0.09
142
0.0
143
25.4
144
1.0
145
0.0
146
1.0
147
0.09
 71
1.0
 72
0.0
 73
0
 74
0
 75
0
 76
0
 77
1
 78
8
170
0
171
2
172
0
173
0
174
0
175
0
176
0
177
0
178
0
270
2
271
2
272
2
273
2
274
2
275
0
280
0
281
0
282
0
283
1
284
8
285
0
286
0
287
3
288
0
340
11
  0
ENDTAB
  0
ENDSEC
  0
SECTION
  2
BLOCKS
  0
BLOCK
  5
20
100
AcDbEntity
  8
0
100
AcDbBlockBegin
  2
*Model_Space
 70
0
 10
0.0
 20
0.0
 30
0.0
  3
*Model_Space
  1

  0
ENDBLK
  5
21
100
AcDbEntity
  8
0
100
AcDbBlockEnd
  0
BLOCK
  5
1C
100
AcDbEntity
  8
0
100
AcDbBlockBegin
  2
*Paper_Space
 70
0
 10
0.0
 20
0.0
 30
0.0
  3
*Paper_Space
  1

  0
ENDBLK
  5
1D
100
AcDbEntity
  8
0
100
AcDbBlockEnd
  0
ENDSEC
  0
SECTION
  2
ENTITIES
  0
LWPOLYLINE
  5
21C
100
AcDbEntity
  8
RACCORDO
100
AcDbPolyline
 62
253
  6
CONTINUOUS
 90
4
 70
0
 10
-29.7284382062
 20
30.8432326375
 10
-29.6652790184
 20
30.8919289336
 10
-29.6014195448
 20
30.9361422093
 10
-29.5371043638
 20
30.975704276
  0
LWPOLYLINE
  5
21D
100
AcDbEntity
  8
RACCORDO
100
AcDbPolyline
 62
7
  6
CONTINUOUS
 90
12
 70
0
 10
-25.7485906443
 20
35.0083179334
 10
-25.7712510894
 20
34.9951483064
 10
-25.7926334858
 20
34.9794952819
 10
-25.8123938649
 20
34.9615101477
 10
-25.8301741109
 20
34.9414528809
 10
-25.8457441361
 20
34.9195452184
 10
-25.8589624931
 20
34.8959090163
 10
-25.8696256514
 20
34.8707630982
 10
-25.8774977652
 20
34.8445387834
 10
-25.8824526308
 20
34.8176282677
 10
-25.8844390304
 20
34.7902099002
 10
-25.8844764988
 20
34.7858107583
  0
LINE
  5
21E
100
AcDbEntity
  8
RACCORDO
100
AcDbLine
 62
253
  6
CONTINUOUS
 10
-22.5324658039
 20
34.1101652305
 11
-22.0041986321
 21
34.7531173863
  0
LINE
  5
21F
100
AcDbEntity
  8
RACCORDO
100
AcDbLine
 62
7
  6
CONTINUOUS
 10
-22.5324658039
 20
34.0206347642
 11
-21.9888380597
 21
34.6822822197
  0
LWPOLYLINE
  5
220
100
AcDbEntity
  8
RACCORDO
100
AcDbPolyline
 62
7
  6
CONTINUOUS
 90
15
 70
0
 10
-23.4225259866
 20
33.5460106225
 10
-23.44043489
 20
33.526138328
 10
-23.4598414179
 20
33.5070106201
 10
-23.4806948591
 20
33.4888611878
 10
-23.5030032525
 20
33.4719547035
 10
-23.5265925907
 20
33.4564943775
 10
-23.5511136376
 20
33.4426293823
 10
-23.5764367957
 20
33.4305964499
 10
-23.6024047561
 20
33.4206162915
 10
-23.6286030633
 20
33.4128246934
 10
-23.6548219043
 20
33.4074337473
 10
-23.6808498712
 20
33.404629073
 10
-23.7062400901
 20
33.4045196011
 10
-23.7306548643
 20
33.4072531913
 10
-23.7358357471
 20
33.4082442221
  0
LWPOLYLINE
  5
221
100
AcDbEntity
  8
RACCORDO
100
AcDbPolyline
 62
7
  6
CONTINUOUS
 90
22
 70
0
 10
-29.7703346058
 20
30.9845373588
 10
-29.7894441572
 20
30.9731861349
 10
-29.8668538473
 20
30.9228415301
 10
-29.9416883952
 20
30.8671996855
 10
-30.013841265
 20
30.806560279
 10
-30.0832261481
 20
30.741211687
 10
-30.1496756752
 20
30.6714762238
 10
-30.2130817502
 20
30.5976129056
 10
-30.2733042065
 20
30.5198962012
 10
-30.3300644486
 20
30.4387540638
 10
-30.3832217138
 20
30.3544787447
 10
-30.4326196958
 20
30.2673481222
 10
-30.4779795235
 20
30.1778627837
 10
-30.5191608271
 20
30.0863240499
 10
-30.5559950861
 20
29.993026728
 10
-30.5882468578
 20
29.8985025069
 10
-30.615777034
 20
29.8030566102
 10
-30.6384266981
 20
29.7069742608
 10
-30.6560170969
 20
29.6106970732
 10
-30.6683888539
 20
29.5145167103
 10
-30.6753854927
 20
29.4186704722
 10
-30.6761486393
 20
29.3988501661
  0
LINE
  5
222
100
AcDbEntity
  8
RACCORDO
100
AcDbLine
 62
7
  6
CONTINUOUS
 10
-29.7704584109
 20
30.9844716694
 11
-25.1814835846
 21
33.660264311
  0
LINE
  5
223
100
AcDbEntity
  8
RACCORDO
100
AcDbLine
 62
253
  6
CONTINUOUS
 10
-25.1814835846
 20
33.5154301345
 11
-29.5371043638
 21
30.975704276
  0
LINE
  5
224
100
AcDbEntity
  8
RACCORDO
100
AcDbLine
 62
7
  6
CONTINUOUS
 10
-22.5324658039
 20
33.235059422
 11
-23.4225259866
 21
32.7383785007
  0
LINE
  5
225
100
AcDbEntity
  8
RACCORDO
100
AcDbLine
 62
7
  6
CONTINUOUS
 10
-24.1658339876
 20
35.8203020582
 11
-25.7485906443
 21
35.0083179334
  0
LINE
  5
226
100
AcDbEntity
  8
RACCORDO
100
AcDbLine
 62
253
  6
CONTINUOUS
 10
-24.052748375
 20
35.8138540555
 11
-25.6355049782
 21
35.0018699582
  0
LINE
  5
227
100
AcDbEntity
  8
RACCORDO
100
AcDbLine
 62
253
  6
CONTINUOUS
 10
-22.7092395075
 20
35.1420996218
 11
-24.3105202984
 21
34.3393776183
  0
LINE
  5
228
100
AcDbEntity
  8
RACCORDO
100
AcDbLine
 62
253
  6
CONTINUOUS
 10
-22.5324658039
 20
34.837210083
 11
-24.1337465947
 21
34.0344880795
  0
LINE
  5
229
100
AcDbEntity
  8
RACCORDO
100
AcDbLine
 62
7
  6
CONTINUOUS
 10
-24.164096287
 20
35.821170954
 11
-24.1658339856
 21
35.8203020592
  0
LINE
  5
22A
100
AcDbEntity
  8
RACCORDO
100
AcDbLine
 62
253
  6
CONTINUOUS
 10
-22.1809723358
 20
35.4055384418
 11
-22.7092395075
 21
35.1420996218
  0
LINE
  5
22B
100
AcDbEntity
  8
RACCORDO
100
AcDbLine
 62
253
  6
CONTINUOUS
 10
-22.0041986321
 20
35.100648903
 11
-22.5324658039
 21
34.837210083
  0
LINE
  5
22C
100
AcDbEntity
  8
RACCORDO
100
AcDbLine
 62
7
  6
CONTINUOUS
 10
-23.6288106074
 20
36.0819363132
 11
-24.1640813056
 21
35.8211889994
  0
LINE
  5
22D
100
AcDbEntity
  8
RACCORDO
100
AcDbLine
 62
253
  6
CONTINUOUS
 10
-23.5182984963
 20
36.0742015221
 11
-24.052748375
 21
35.8138540555
  0
LWPOLYLINE
  5
22E
100
AcDbEntity
  8
RACCORDO
100
AcDbPolyline
 62
253
  6
CONTINUOUS
 90
8
 70
0
 10
-29.7703374026
 20
30.9845421644
 10
-29.7448669685
 20
30.9967764449
 10
-29.7143599085
 20
31.005668366
 10
-29.6817105622
 20
31.0096014494
 10
-29.6472762271
 20
31.0085326534
 10
-29.611433735
 20
31.0024736741
 10
-29.5745753275
 20
30.9914908181
 10
-29.5371043638
 20
30.975704276
  0
LINE
  5
22F
100
AcDbEntity
  8
RACCORDO
100
AcDbLine
 62
7
  6
CONTINUOUS
 10
-23.6033137248
 20
36.0926548242
 11
-23.6288225138
 21
36.0819305121
  0
LWPOLYLINE
  5
230
100
AcDbEntity
  8
RACCORDO
100
AcDbPolyline
 62
253
  6
CONTINUOUS
 90
3
 70
0
 10
-23.6058486291
 20
36.089667516
 10
-23.6214158375
 20
36.0851523741
 10
-23.6288100581
 20
36.0819365808
  0
LWPOLYLINE
  5
231
100
AcDbEntity
  8
RACCORDO
100
AcDbPolyline
 62
253
  6
CONTINUOUS
 90
12
 70
0
 10
-24.47109676
 20
34.1303408114
 10
-24.4627560875
 20
34.1546463986
 10
-24.4527486242
 20
34.1786120547
 10
-24.4411832041
 20
34.2019771465
 10
-24.4281856043
 20
34.2244875721
 10
-24.4138971772
 20
34.2458985245
 10
-24.3984733135
 20
34.2659771536
 10
-24.3820817519
 20
34.2845050989
 10
-24.3649007552
 20
34.3012808637
 10
-24.3471171714
 20
34.3161220072
 10
-24.328924402
 20
34.3288671276
 10
-24.3105202984
 20
34.3393776183
  0
LWPOLYLINE
  5
232
100
AcDbEntity
  8
RACCORDO
100
AcDbPolyline
 62
253
  6
CONTINUOUS
 90
14
 70
0
 10
-24.1337465947
 20
33.6945141454
 10
-24.1439812153
 20
33.6708522831
 10
-24.1560225013
 20
33.6484191246
 10
-24.1697390136
 20
33.6274595437
 10
-24.1849810267
 20
33.6082023289
 10
-24.2015821635
 20
33.5908576865
 10
-24.2193612107
 20
33.5756149453
 10
-24.2381240975
 20
33.5626404906
 10
-24.2576660137
 20
33.5520759478
 10
-24.2777736456
 20
33.5440366364
 10
-24.2982275042
 20
33.5386103109
 10
-24.3188043212
 20
33.5358562037
 10
-24.339279486
 20
33.5358043778
 10
-24.3605900882
 20
33.5386929846
  0
LWPOLYLINE
  5
233
100
AcDbEntity
  8
RACCORDO
100
AcDbPolyline
 62
7
  6
CONTINUOUS
 90
3
 70
0
 10
-21.9673128236
 20
34.712892076
 10
-21.9794718605
 20
34.6944224956
 10
-21.988827419
 20
34.6822951815
  0
LINE
  5
234
100
AcDbEntity
  8
RACCORDO
100
AcDbLine
 62
7
  6
CONTINUOUS
 10
-20.1636460855
 20
32.9049410087
 11
-19.8101046963
 21
33.0863144335
  0
LINE
  5
235
100
AcDbEntity
  8
RACCORDO
100
AcDbLine
 62
7
  6
CONTINUOUS
 10
-13.8194748242
 20
35.4070824383
 11
-18.466601812
 21
33.1166313842
  0
LINE
  5
236
100
AcDbEntity
  8
DRAFT
100
AcDbLine
 62
7
  6
CONTINUOUS
 10
-14.1532504468
 20
34.0122502966
 11
-13.8194748242
 21
34.1755706518
  0
LINE
  5
237
100
AcDbEntity
  8
RACCORDO
100
AcDbLine
 62
7
  6
CONTINUOUS
 10
-11.7429167983
 20
34.8418804791
 11
-13.7996970562
 21
33.8354736013
  0
LINE
  5
238
100
AcDbEntity
  8
RACCORDO
100
AcDbLine
 62
7
  6
CONTINUOUS
 10
-19.8101046963
 20
33.0863144335
 11
-14.4229500991
 21
35.7105680957
  0
LINE
  5
239
100
AcDbEntity
  8
0
100
AcDbLine
 62
7
  6
CONTINUOUS
 10
-14.7312647768
 20
36.3360544683
 11
-21.1244230689
 21
33.2305871465
  0
LINE
  5
23A
100
AcDbEntity
  8
0
100
AcDbLine
 62
7
  6
CONTINUOUS
 10
-13.7736206211
 20
36.1031033586
 11
-9.5382541323
 21
38.1004904615
  0
LINE
  5
23B
100
AcDbEntity
  8
0
100
AcDbLine
 62
253
  6
CONTINUOUS
 10
-13.527243048
 20
35.9799145721
 11
-9.0993693819
 21
38.0680875265
  0
LINE
  5
23C
100
AcDbEntity
  8
0
100
AcDbLine
 62
253
  6
CONTINUOUS
 10
-9.5382541325
 20
38.1004904614
 11
-9.5291970439
 21
38.1046177144
  0
LWPOLYLINE
  5
23D
100
AcDbEntity
  8
0
100
AcDbPolyline
 62
7
  6
CONTINUOUS
 90
14
 70
0
 10
-9.5382541323
 20
38.1004904615
 10
-9.47431953
 20
38.1279647729
 10
-9.4084790794
 20
38.1509729106
 10
-9.3411270257
 20
38.1693519102
 10
-9.2728461511
 20
38.1829558636
 10
-9.2038772882
 20
38.1917672078
 10
-9.1341021158
 20
38.1957729324
 10
-9.0638456204
 20
38.1948775017
 10
-8.9936341391
 20
38.1890282261
 10
-8.923656949
 20
38.1781825186
 10
-8.8543213865
 20
38.1623316108
 10
-8.7861199137
 20
38.1415346488
 10
-8.7193689596
 20
38.1158434475
 10
-8.6642584583
 20
38.0903317289
  0
LWPOLYLINE
  5
23E
100
AcDbEntity
  8
0
100
AcDbPolyline
 62
253
  6
CONTINUOUS
 90
11
 70
0
 10
-9.5291970439
 20
38.1046177144
 10
-9.4913911032
 20
38.1189137039
 10
-9.4519598321
 20
38.1292590058
 10
-9.4110720271
 20
38.1356093342
 10
-9.3689027201
 20
38.1379375045
 10
-9.3256324285
 20
38.1362335505
 10
-9.2814463829
 20
38.1305047664
 10
-9.2365337338
 20
38.1207756758
 10
-9.1910867426
 20
38.107087927
 10
-9.1452999576
 20
38.089500114
 10
-9.0993693819
 20
38.0680875265
  0
LWPOLYLINE
  5
23F
100
AcDbEntity
  8
RACCORDO
100
AcDbPolyline
 62
253
  6
CONTINUOUS
 90
9
 70
0
 10
-30.6761341725
 20
-6.213692793
 10
-30.6752843266
 20
-6.2250360077
 10
-30.6694654693
 20
-6.2519150176
 10
-30.6583638292
 20
-6.2782046218
 10
-30.642098355
 20
-6.3036231403
 10
-30.6208433232
 20
-6.3278982259
 10
-30.5948264711
 20
-6.3507697832
 10
-30.5643265566
 20
-6.3719927545
 10
-30.5296703712
 20
-6.3913397461
  0
LWPOLYLINE
  5
240
100
AcDbEntity
  8
RACCORDO
100
AcDbPolyline
 62
253
  6
CONTINUOUS
 90
9
 70
0
 10
-30.6761486393
 20
29.3988501661
 10
-30.6752767111
 20
29.3808386333
 10
-30.6694573914
 20
29.3563085434
 10
-30.6583554244
 20
29.3320614587
 10
-30.6420897598
 20
29.3083571694
 10
-30.6208346725
 20
29.2854496499
 10
-30.5948178955
 20
29.263584338
 10
-30.5643181801
 20
29.2429955049
 10
-30.5296623088
 20
29.2239037452
  0
LWPOLYLINE
  5
241
100
AcDbEntity
  8
RACCORDO
100
AcDbPolyline
 62
7
  6
CONTINUOUS
 90
17
 70
0
 10
-30.6761292504
 20
-6.2136846358
 10
-30.6753019403
 20
-6.2341439374
 10
-30.6686032942
 20
-6.3212101861
 10
-30.6569072522
 20
-6.4055541225
 10
-30.6402819915
 20
-6.4870064074
 10
-30.6188142867
 20
-6.565413198
 10
-30.5926044821
 20
-6.6405587192
 10
-30.5617354997
 20
-6.7122762083
 10
-30.526327949
 20
-6.7803643041
 10
-30.4866012838
 20
-6.8444872688
 10
-30.4427574108
 20
-6.9044064337
 10
-30.3950180879
 20
-6.959916404
 10
-30.343767601
 20
-7.0107133042
 10
-30.2893338104
 20
-7.0566279883
 10
-30.2320875149
 20
-7.0974983544
 10
-30.1726087546
 20
-7.1331123291
 10
-30.1450198839
 20
-7.1475236838
  0
LWPOLYLINE
  5
242
100
AcDbEntity
  8
RACCORDO
100
AcDbPolyline
 62
253
  6
CONTINUOUS
 90
10
 70
0
 10
-30.5296703739
 20
-6.3913397475
 10
-30.6457635669
 20
-2.4957412683
 10
-30.7328421
 20
1.4160371403
 10
-30.7908985687
 20
5.343668523
 10
-30.8199280364
 20
9.2868245819
 10
-30.8199280364
 20
13.2451758218
 10
-30.7908985686
 20
17.218391579
 10
-30.7328421
 20
21.2061398917
 10
-30.6457635668
 20
25.2080875253
 10
-30.5296703739
 20
29.2239001201
  0
LWPOLYLINE
  5
243
100
AcDbEntity
  8
RACCORDO
100
AcDbPolyline
 62
7
  6
CONTINUOUS
 90
10
 70
0
 10
-30.6761527927
 20
29.3989436758
 10
-30.7909655531
 20
25.4333962742
 10
-30.8786681895
 20
21.4166459829
 10
-30.9371351539
 20
17.4141560447
 10
-30.9663587172
 20
13.4263083065
 10
-30.9663371821
 20
9.4534186989
 10
-30.9370699971
 20
5.4957784304
 10
-30.8785577927
 20
1.5537025248
 10
-30.7908072288
 20
-2.3724342837
 10
-30.6761341725
 20
-6.213692793
  0
LWPOLYLINE
  5
244
100
AcDbEntity
  8
RACCORDO
100
AcDbPolyline
 62
253
  6
CONTINUOUS
 90
22
 70
0
 10
-30.5296703739
 20
29.2239001201
 10
-30.5250344741
 20
29.3060288643
 10
-30.5164473887
 20
29.3896663506
 10
-30.5039431903
 20
29.4744955413
 10
-30.4875734207
 20
29.5601881118
 10
-30.4674001188
 20
29.6464266474
 10
-30.4434922597
 20
29.732906193
 10
-30.4159342668
 20
29.8193171908
 10
-30.3848339092
 20
29.9053152711
 10
-30.3503167689
 20
29.9905443756
 10
-30.3125242139
 20
30.0746685731
 10
-30.2715965888
 20
30.1573854081
 10
-30.2276784105
 20
30.238395484
 10
-30.1809379389
 20
30.3173935394
 10
-30.1315539181
 20
30.3940809851
 10
-30.0796997354
 20
30.4681777576
 10
-30.0255631419
 20
30.5394155985
 10
-29.969359306
 20
30.6075103105
 10
-29.9113169034
 20
30.6721762674
 10
-29.8516738196
 20
30.7331578988
 10
-29.7906458154
 20
30.7902431888
 10
-29.7284382062
 20
30.8432326375
  0
LINE
  5
245
100
AcDbEntity
  8
RACCORDO
100
AcDbLine
 62
7
  6
CONTINUOUS
 10
-15.6818744345
 20
31.7242676954
 11
-14.8278693272
 21
32.4716878771
  0
LINE
  5
246
100
AcDbEntity
  8
RACCORDO
100
AcDbLine
 62
253
  6
CONTINUOUS
 10
-15.5279718797
 20
31.647316418
 11
-14.5791616995
 21
32.4777094347
  0
LWPOLYLINE
  5
247
100
AcDbEntity
  8
RACCORDO
100
AcDbPolyline
 62
7
  6
CONTINUOUS
 90
5
 70
0
 10
-14.8280638302
 20
32.4715170123
 10
-14.8211447502
 20
32.4772696656
 10
-14.8090525535
 20
32.4858847906
 10
-14.7957434705
 20
32.4935673601
 10
-14.7901565315
 20
32.49630082
  0
LINE
  5
248
100
AcDbEntity
  8
RACCORDO
100
AcDbLine
 62
7
  6
CONTINUOUS
 10
-13.9452441711
 20
29.7957400515
 11
-13.5875650218
 21
29.9750445963
  0
LINE
  5
249
100
AcDbEntity
  8
0
100
AcDbLine
 62
7
  6
CONTINUOUS
 10
-14.860357228
 20
33.1061387167
 11
-14.1532504468
 21
33.4596921073
  0
LINE
  5
24A
100
AcDbEntity
  8
0
100
AcDbLine
 62
7
  6
CONTINUOUS
 10
-12.4019125497
 20
33.9818076652
 11
-13.7996970562
 21
33.282915412
  0
LINE
  5
24B
100
AcDbEntity
  8
RACCORDO
100
AcDbLine
 62
7
  6
CONTINUOUS
 10
-13.5875650218
 20
29.9750445963
 11
-8.2627309516
 21
32.630458522
  0
LINE
  5
24C
100
AcDbEntity
  8
RACCORDO
100
AcDbLine
 62
7
  6
CONTINUOUS
 10
-8.8697273558
 20
32.9322087041
 11
-13.5168543437
 21
30.64175765
  0
LINE
  5
24D
100
AcDbEntity
  8
RACCORDO
100
AcDbLine
 62
253
  6
CONTINUOUS
 10
-14.5177210331
 20
32.5047589267
 11
-14.4699787754
 21
32.5277965003
  0
LWPOLYLINE
  5
24E
100
AcDbEntity
  8
RACCORDO
100
AcDbPolyline
 62
253
  6
CONTINUOUS
 90
69
 70
0
 10
-14.4699787754
 20
32.5277965003
 10
-14.4527843555
 20
32.5359656612
 10
-14.4438822439
 20
32.5401207277
 10
-14.4347640727
 20
32.544318718
 10
-14.4254301073
 20
32.5485591639
 10
-14.4158435636
 20
32.5528270547
 10
-14.4060040949
 20
32.557122927
 10
-14.3959120479
 20
32.5614462442
 10
-14.385531679
 20
32.5657803862
 10
-14.3748615129
 20
32.5701263851
 10
-14.3639030249
 20
32.5744832088
 10
-14.3526248978
 20
32.5788311405
 10
-14.3410253453
 20
32.5831712755
 10
-14.3291061536
 20
32.5875025186
 10
-14.3168413644
 20
32.5918018675
 10
-14.304227978
 20
32.5960706829
 10
-14.2912689941
 20
32.6003076041
 10
-14.2779474534
 20
32.6044855469
 10
-14.264260754
 20
32.6086055333
 10
-14.250211498
 20
32.6126665412
 10
-14.2357905318
 20
32.6166384205
 10
-14.2209965233
 20
32.6205218497
 10
-14.2058308047
 20
32.6243161503
 10
-14.1902882193
 20
32.6279891356
 10
-14.1743388441
 20
32.6315460064
 10
-14.1580126022
 20
32.6349815621
 10
-14.1413941058
 20
32.6382480138
 10
-14.1244392999
 20
32.6413465947
 10
-14.1071922395
 20
32.6442760716
 10
-14.0898697022
 20
32.6469849569
 10
-14.0724922976
 20
32.649461655
 10
-14.0550394162
 20
32.6517177614
 10
-14.0376660065
 20
32.6537365749
 10
-14.0203867274
 20
32.6555112102
 10
-14.00318692
 20
32.6570485525
 10
-13.9861775567
 20
32.6583525571
 10
-13.9693826547
 20
32.6594194012
 10
-13.9527781967
 20
32.6602529076
 10
-13.9364031026
 20
32.6608684995
 10
-13.9202593363
 20
32.6612658493
 10
-13.904344934
 20
32.6614452846
 10
-13.8886929244
 20
32.6614232121
 10
-13.8732979535
 20
32.6611987851
 10
-13.8581653753
 20
32.6607728502
 10
-13.8433442799
 20
32.6601643539
 10
-13.8288409393
 20
32.6593724952
 10
-13.8146490816
 20
32.658398075
 10
-13.8007989816
 20
32.6572624428
 10
-13.7872994736
 20
32.6559661009
 10
-13.7741417233
 20
32.6545085469
 10
-13.761329502
 20
32.6529096244
 10
-13.7488670627
 20
32.6511703688
 10
-13.7367501525
 20
32.6492897447
 10
-13.7249697836
 20
32.647284488
 10
-13.7135277621
 20
32.6451557009
 10
-13.7024222821
 20
32.6429022812
 10
-13.6916389376
 20
32.6405376593
 10
-13.6811794703
 20
32.6380632508
 10
-13.6710421386
 20
32.63547764
 10
-13.6612073125
 20
32.6327900101
 10
-13.6516748201
 20
32.6300015551
 10
-13.6424448334
 20
32.6271110811
 10
-13.6334982377
 20
32.6241241897
 10
-13.6248337034
 20
32.6210416735
 10
-13.6164525602
 20
32.61786274
 10
-13.6083396832
 20
32.6145906137
 10
-13.6004900307
 20
32.6112263693
 10
-13.5929086444
 20
32.607768932
 10
-13.5855955243
 20
32.6042183019
  0
LINE
  5
24F
100
AcDbEntity
  8
RACCORDO
100
AcDbLine
 62
253
  6
CONTINUOUS
 10
-14.5327422919
 20
32.4976534082
 11
-14.5177210331
 21
32.5047589267
  0
LINE
  5
250
100
AcDbEntity
  8
RACCORDO
100
AcDbLine
 62
253
  6
CONTINUOUS
 10
-14.5775683634
 20
32.4769127666
 11
-14.5327422919
 21
32.4976534082
  0
LWPOLYLINE
  5
251
100
AcDbEntity
  8
RACCORDO
100
AcDbPolyline
 62
7
  6
CONTINUOUS
 90
3
 70
0
 10
-14.7069448135
 20
32.534312267
 10
-14.7304168655
 20
32.5237921815
 10
-14.7563500734
 20
32.5119093129
  0
LINE
  5
252
100
AcDbEntity
  8
RACCORDO
100
AcDbLine
 62
7
  6
CONTINUOUS
 10
-14.7901565315
 20
32.49630082
 11
-14.7811188719
 21
32.5001676612
  0
LWPOLYLINE
  5
253
100
AcDbEntity
  8
RACCORDO
100
AcDbPolyline
 62
7
  6
CONTINUOUS
 90
3
 70
0
 10
-14.6572427149
 20
32.5556088479
 10
-14.682698165
 20
32.544880912
 10
-14.7069448135
 20
32.534312267
  0
LINE
  5
254
100
AcDbEntity
  8
RACCORDO
100
AcDbLine
 62
253
  6
CONTINUOUS
 10
-14.7559144712
 20
32.512111554
 11
-14.7404075641
 21
32.5184442741
  0
LINE
  5
255
100
AcDbEntity
  8
RACCORDO
100
AcDbLine
 62
7
  6
CONTINUOUS
 10
-14.6306411296
 20
32.5663903088
 11
-14.6572427149
 21
32.5556088479
  0
LWPOLYLINE
  5
256
100
AcDbEntity
  8
RACCORDO
100
AcDbPolyline
 62
7
  6
CONTINUOUS
 90
4
 70
0
 10
-14.5454042793
 20
32.597868456
 10
-14.5748322332
 20
32.5875327323
 10
-14.603238304
 20
32.5770234748
 10
-14.6306411296
 20
32.5663903088
  0
LWPOLYLINE
  5
257
100
AcDbEntity
  8
RACCORDO
100
AcDbPolyline
 62
7
  6
CONTINUOUS
 90
5
 70
0
 10
-14.7811188719
 20
32.5001676612
 10
-14.7651086155
 20
32.5055231406
 10
-14.7476498997
 20
32.5094594786
 10
-14.7286333506
 20
32.5117516025
 10
-14.708002037
 20
32.5121969825
  0
LINE
  5
258
100
AcDbEntity
  8
0
100
AcDbLine
 62
253
  6
CONTINUOUS
 10
-26.9411947341
 20
2.6540640094
 11
-26.9503742688
 21
3.4049917265
  0
LINE
  5
259
100
AcDbEntity
  8
0
100
AcDbLine
 62
253
  6
CONTINUOUS
 10
-26.5239701811
 20
2.9143587739
 11
-26.5310107358
 21
3.5073038108
  0
LINE
  5
25A
100
AcDbEntity
  8
0
100
AcDbLine
 62
253
  6
CONTINUOUS
 10
-26.9503742688
 20
3.4049917265
 11
-26.956821672
 21
3.9956775213
  0
LINE
  5
25B
100
AcDbEntity
  8
0
100
AcDbLine
 62
253
  6
CONTINUOUS
 10
-26.5310107358
 20
3.5073038108
 11
-26.5377191339
 21
4.1352893702
  0
LINE
  5
25C
100
AcDbEntity
  8
0
100
AcDbLine
 62
253
  6
CONTINUOUS
 10
-26.956821672
 20
3.9956775213
 11
-26.9629270847
 21
4.6232498347
  0
LINE
  5
25D
100
AcDbEntity
  8
0
100
AcDbLine
 62
253
  6
CONTINUOUS
 10
-26.5377191339
 20
4.1352893702
 11
-26.5433268304
 21
4.7274278511
  0
LINE
  5
25E
100
AcDbEntity
  8
0
100
AcDbLine
 62
253
  6
CONTINUOUS
 10
-26.9629270847
 20
4.6232498347
 11
-26.9667228947
 21
5.0598385259
  0
LINE
  5
25F
100
AcDbEntity
  8
RACCORDO
100
AcDbLine
 62
7
  6
CONTINUOUS
 10
-25.8844765389
 20
34.7858814909
 11
-25.8844765389
 21
34.4459075568
  0
LINE
  5
260
100
AcDbEntity
  8
RACCORDO
100
AcDbLine
 62
253
  6
CONTINUOUS
 10
-25.8112532342
 20
34.6974931432
 11
-25.8112532342
 21
34.3575192091
  0
LINE
  5
261
100
AcDbEntity
  8
0
100
AcDbLine
 62
7
  6
CONTINUOUS
 10
-25.6967686497
 20
4.3041487607
 11
-25.6967686497
 21
3.3311489276
  0
LINE
  5
262
100
AcDbEntity
  8
0
100
AcDbLine
 62
253
  6
CONTINUOUS
 10
-26.3833598003
 20
13.3546453942
 11
-26.3765825014
 21
14.1140991175
  0
LINE
  5
263
100
AcDbEntity
  8
0
100
AcDbLine
 62
253
  6
CONTINUOUS
 10
-25.9606357543
 20
13.6111082976
 11
-25.9550920233
 21
14.2093883431
  0
LINE
  5
264
100
AcDbEntity
  8
0
100
AcDbLine
 62
253
  6
CONTINUOUS
 10
-26.3765825014
 20
14.1140991175
 11
-26.3704785786
 21
14.712030921
  0
LINE
  5
265
100
AcDbEntity
  8
0
100
AcDbLine
 62
253
  6
CONTINUOUS
 10
-25.9550920233
 20
14.2093883431
 11
-25.948470081
 21
14.8440981517
  0
LINE
  5
266
100
AcDbEntity
  8
0
100
AcDbLine
 62
253
  6
CONTINUOUS
 10
-26.3704785786
 20
14.712030921
 11
-26.3632795104
 21
15.3451245305
  0
LINE
  5
267
100
AcDbEntity
  8
0
100
AcDbLine
 62
253
  6
CONTINUOUS
 10
-25.948470081
 20
14.8440981517
 11
-25.9414309985
 21
15.4495419144
  0
LINE
  5
268
100
AcDbEntity
  8
0
100
AcDbLine
 62
253
  6
CONTINUOUS
 10
-26.3632795104
 20
15.3451245305
 11
-26.3578316396
 21
15.7850726855
  0
LWPOLYLINE
  5
269
100
AcDbEntity
  8
RACCORDO
100
AcDbPolyline
 62
253
  6
CONTINUOUS
 90
5
 70
0
 10
-24.4862685543
 20
34.0350008033
 10
-24.4853073067
 20
34.0580289894
 10
-24.4824340175
 20
34.0817679853
 10
-24.4776799346
 20
34.1059596229
 10
-24.47109676
 20
34.1303408114
  0
LWPOLYLINE
  5
26A
100
AcDbEntity
  8
RACCORDO
100
AcDbPolyline
 62
253
  6
CONTINUOUS
 90
16
 70
0
 10
-25.8112532342
 20
34.6974931432
 10
-25.8102858114
 20
34.7205965256
 10
-25.8073941315
 20
34.7444144628
 10
-25.8026098439
 20
34.7686862642
 10
-25.7959843253
 20
34.7931494834
 10
-25.7875906164
 20
34.8175331343
 10
-25.7775248927
 20
34.8415609017
 10
-25.7659024508
 20
34.8649644067
 10
-25.7528495899
 20
34.8874952489
 10
-25.7385044315
 20
34.9089169557
 10
-25.7229991633
 20
34.9290251344
 10
-25.7065244763
 20
34.9475659997
 10
-25.6893340942
 20
34.9642705281
 10
-25.6716484605
 20
34.9789612391
 10
-25.6536402357
 20
34.9915300518
 10
-25.6355049782
 20
35.0018699582
  0
LINE
  5
26B
100
AcDbEntity
  8
0
100
AcDbLine
 62
7
  6
CONTINUOUS
 10
-24.1375030101
 20
15.6464973837
 11
-24.1402753481
 21
15.6243426511
  0
LWPOLYLINE
  5
26C
100
AcDbEntity
  8
0
100
AcDbPolyline
 62
7
  6
CONTINUOUS
 90
9
 70
0
 10
-24.1402753481
 20
15.6243426511
 10
-24.1448955486
 20
15.6032946027
 10
-24.1513043033
 20
15.5834102413
 10
-24.1593598128
 20
15.5653471015
 10
-24.1691535723
 20
15.54918513
 10
-24.1805940866
 20
15.53484438
 10
-24.1932650702
 20
15.5227425468
 10
-24.2071397529
 20
15.5129978881
 10
-24.2189199438
 20
15.506909506
  0
LWPOLYLINE
  5
26D
100
AcDbEntity
  8
0
100
AcDbPolyline
 62
253
  6
CONTINUOUS
 90
30
 70
0
 10
-23.6389725062
 20
18.4939396386
 10
-23.6394071011
 20
18.4923772918
 10
-23.6569164465
 20
18.418694253
 10
-23.6716704856
 20
18.3450579982
 10
-23.6838249416
 20
18.2717396701
 10
-23.6935515427
 20
18.1989091173
 10
-23.7011014632
 20
18.1257599455
 10
-23.7065580783
 20
18.0523751009
 10
-23.7099973808
 20
17.978930636
 10
-23.7115089278
 20
17.9046538386
 10
-23.7111058209
 20
17.8294721485
 10
-23.7088007528
 20
17.7536178271
 10
-23.7045830317
 20
17.6767204162
 10
-23.6984221858
 20
17.5986450655
 10
-23.6903165912
 20
17.5196618477
 10
-23.680279532
 20
17.4399993331
 10
-23.6682937895
 20
17.3595962743
 10
-23.654382119
 20
17.2786687287
 10
-23.6386726148
 20
17.1978752876
 10
-23.6212154045
 20
17.1172987937
 10
-23.602062907
 20
17.0370257147
 10
-23.5814282577
 20
16.9577285362
 10
-23.5594303708
 20
16.8795796934
 10
-23.5361357879
 20
16.802556472
 10
-23.5117360039
 20
16.7270325723
 10
-23.486375094
 20
16.6531753012
 10
-23.460121054
 20
16.5809250337
 10
-23.4330650847
 20
16.5103041031
 10
-23.4052998086
 20
16.4413430211
 10
-23.376920524
 20
16.3740805597
  0
LINE
  5
26E
100
AcDbEntity
  8
0
100
AcDbLine
 62
7
  6
CONTINUOUS
 10
-23.5146993741
 20
15.9562604106
 11
-24.1569190334
 21
14.7615924944
  0
LINE
  5
26F
100
AcDbEntity
  8
0
100
AcDbLine
 62
7
  6
CONTINUOUS
 10
-23.2816494553
 20
16.3897838271
 11
-22.5895917598
 21
17.6771613046
  0
LWPOLYLINE
  5
270
100
AcDbEntity
  8
0
100
AcDbPolyline
 62
7
  6
CONTINUOUS
 90
22
 70
0
 10
-24.1775860723
 20
18.6110364279
 10
-24.2235514446
 20
18.5554158339
 10
-24.2858416289
 20
18.4650392836
 10
-24.3417659001
 20
18.3675320308
 10
-24.3912529602
 20
18.2628139974
 10
-24.4343741073
 20
18.1509652616
 10
-24.4706478639
 20
18.0332357411
 10
-24.4999974037
 20
17.9095597362
 10
-24.5224995531
 20
17.7800029466
 10
-24.5379033138
 20
17.6460123892
 10
-24.5461291289
 20
17.5075381865
 10
-24.5472565554
 20
17.3646302159
 10
-24.541273266
 20
17.2188851261
 10
-24.5280995593
 20
17.070271343
 10
-24.5078151368
 20
16.9188204407
 10
-24.4806467748
 20
16.7662237904
 10
-24.4465172873
 20
16.6124684198
 10
-24.4055038605
 20
16.4575673013
 10
-24.3580648298
 20
16.3032507231
 10
-24.3043529737
 20
16.1500954481
 10
-24.2442155137
 20
15.9975247135
 10
-24.1776524498
 20
15.8455385193
  0
LINE
  5
271
100
AcDbEntity
  8
RACCORDO
100
AcDbLine
 62
7
  6
CONTINUOUS
 10
-13.5875650218
 20
28.762609031
 11
-13.9452441711
 21
28.5630130792
  0
LINE
  5
272
100
AcDbEntity
  8
RACCORDO
100
AcDbLine
 62
7
  6
CONTINUOUS
 10
-10.8015158232
 20
29.138142976
 11
-12.3842724799
 21
28.3261588511
  0
LINE
  5
273
100
AcDbEntity
  8
RACCORDO
100
AcDbLine
 62
253
  6
CONTINUOUS
 10
-10.6884302106
 20
29.1316949733
 11
-12.2711868138
 21
28.319710876
  0
LINE
  5
274
100
AcDbEntity
  8
RACCORDO
100
AcDbLine
 62
253
  6
CONTINUOUS
 10
-9.3449213431
 20
28.4599405396
 11
-10.9462021339
 21
27.6572185361
  0
LINE
  5
275
100
AcDbEntity
  8
RACCORDO
100
AcDbLine
 62
7
  6
CONTINUOUS
 10
-10.7997781226
 20
29.1390118718
 11
-10.8015158212
 21
29.138142977
  0
LINE
  5
276
100
AcDbEntity
  8
RACCORDO
100
AcDbLine
 62
253
  6
CONTINUOUS
 10
-8.8166541714
 20
28.7233793596
 11
-9.3449213431
 21
28.4599405396
  0
LINE
  5
277
100
AcDbEntity
  8
DRAFT
100
AcDbLine
 62
7
  6
CONTINUOUS
 10
-13.5875650218
 20
28.762609031
 11
-8.2627309516
 21
31.3989404629
  0
LINE
  5
278
100
AcDbEntity
  8
0
100
AcDbLine
 62
7
  6
CONTINUOUS
 10
-4.5119281327
 20
31.2263861463
 11
-9.1381624885
 21
28.9461108891
  0
LINE
  5
279
100
AcDbEntity
  8
RACCORDO
100
AcDbLine
 62
7
  6
CONTINUOUS
 10
-7.5002761112
 20
32.7205601355
 11
-8.1391368877
 21
32.4079580104
  0
LINE
  5
27A
100
AcDbEntity
  8
RACCORDO
100
AcDbLine
 62
7
  6
CONTINUOUS
 10
-10.264492443
 20
29.399777231
 11
-10.7997631412
 21
29.1390299172
  0
LINE
  5
27B
100
AcDbEntity
  8
RACCORDO
100
AcDbLine
 62
253
  6
CONTINUOUS
 10
-10.1539803319
 20
29.3920424399
 11
-10.6884302106
 21
29.1316949733
  0
LWPOLYLINE
  5
27C
100
AcDbEntity
  8
RACCORDO
100
AcDbPolyline
 62
7
  6
CONTINUOUS
 90
10
 70
0
 10
-7.5002761112
 20
32.7205601355
 10
-7.447389267
 20
32.7439778147
 10
-7.395329251
 20
32.7623069841
 10
-7.3440960633
 20
32.7755476437
 10
-7.2933543441
 20
32.7837112841
 10
-7.2434394532
 20
32.7867864147
 10
-7.1953574697
 20
32.7847385638
 10
-7.149282242
 20
32.7775154628
 10
-7.1050399216
 20
32.7651693802
 10
-7.059282352
 20
32.7459248182
  0
LWPOLYLINE
  5
27D
100
AcDbEntity
  8
RACCORDO
100
AcDbPolyline
 62
7
  6
CONTINUOUS
 90
9
 70
0
 10
-10.264492443
 20
29.399777231
 10
-10.2421755765
 20
29.4093369391
 10
-10.2186936505
 20
29.4167778076
 10
-10.1942938644
 20
29.4219196026
 10
-10.169201482
 20
29.4246223305
 10
-10.1437830091
 20
29.4247733644
 10
-10.1184883929
 20
29.4223436724
 10
-10.0935342872
 20
29.4173494452
 10
-10.0692411645
 20
29.4098529541
  0
LINE
  5
27E
100
AcDbEntity
  8
RACCORDO
100
AcDbLine
 62
7
  6
CONTINUOUS
 10
-14.5088581402
 20
29.663477995
 11
-14.607805644
 21
29.6340596183
  0
LWPOLYLINE
  5
27F
100
AcDbEntity
  8
RACCORDO
100
AcDbPolyline
 62
7
  6
CONTINUOUS
 90
3
 70
0
 10
-14.607805644
 20
29.6340596183
 10
-14.6296106467
 20
29.6277270245
 10
-14.6502880904
 20
29.6220606267
  0
LINE
  5
280
100
AcDbEntity
  8
RACCORDO
100
AcDbLine
 62
253
  6
CONTINUOUS
 10
23.1799246857
 20
-29.138548412
 11
22.651657514
 21
-29.0300461349
  0
LINE
  5
281
100
AcDbEntity
  8
RACCORDO
100
AcDbLine
 62
253
  6
CONTINUOUS
 10
23.0905108904
 20
-28.818981606
 11
22.651657514
 21
-28.7288442793
  0
LWPOLYLINE
  5
282
100
AcDbEntity
  8
RACCORDO
100
AcDbPolyline
 62
7
  6
CONTINUOUS
 90
16
 70
0
 10
21.7615973312
 20
-29.3456551758
 10
21.7437827334
 20
-29.341492474
 10
21.7243079943
 20
-29.3367388026
 10
21.703311903
 20
-29.3312972786
 10
21.6809748579
 20
-29.3249511036
 10
21.6574668428
 20
-29.3177416746
 10
21.6329403258
 20
-29.3099611419
 10
21.6076280587
 20
-29.3015255921
 10
21.5817768256
 20
-29.2923775714
 10
21.5555887433
 20
-29.2828458411
 10
21.5293464535
 20
-29.2728790451
 10
21.5033842551
 20
-29.2624431373
 10
21.4780155722
 20
-29.2519018027
 10
21.4535897413
 20
-29.2413817693
 10
21.4304845282
 20
-29.2307794882
 10
21.4090753716
 20
-29.2201424519
  0
LINE
  5
283
100
AcDbEntity
  8
RACCORDO
100
AcDbLine
 62
7
  6
CONTINUOUS
 10
-24.0844342202
 20
3.4096374233
 11
-24.0927273646
 21
3.5021281182
  0
LINE
  5
284
100
AcDbEntity
  8
0
100
AcDbLine
 62
7
  6
CONTINUOUS
 10
-22.9098097608
 20
-0.6514710095
 11
-22.9692656948
 21
0.0116213465
  0
LINE
  5
285
100
AcDbEntity
  8
RACCORDO
100
AcDbLine
 62
253
  6
CONTINUOUS
 10
-22.6517832809
 20
-0.5161251354
 11
-22.9000086063
 21
2.2522497731
  0
LINE
  5
286
100
AcDbEntity
  8
RACCORDO
100
AcDbLine
 62
253
  6
CONTINUOUS
 10
-22.3176764879
 20
-0.2878970515
 11
-22.5474236169
 21
2.2743966486
  0
LINE
  5
287
100
AcDbEntity
  8
RACCORDO
100
AcDbLine
 62
7
  6
CONTINUOUS
 10
-25.8825203964
 20
34.4146946627
 11
-25.8844765327
 21
34.4459353324
  0
LWPOLYLINE
  5
288
100
AcDbEntity
  8
RACCORDO
100
AcDbPolyline
 62
253
  6
CONTINUOUS
 90
16
 70
0
 10
-22.5474236169
 20
2.2743966486
 10
-22.5489813459
 20
2.3019359192
 10
-22.5528378801
 20
2.3303401807
 10
-22.5589553117
 20
2.3592961884
 10
-22.567274534
 20
2.3884822782
 10
-22.5777047163
 20
2.4175791012
 10
-22.590124592
 20
2.4462731067
 10
-22.6044024992
 20
2.4742513534
 10
-22.6203855146
 20
2.5012017575
 10
-22.6378887114
 20
2.5268247261
 10
-22.6567175787
 20
2.550834899
 10
-22.6766714901
 20
2.5729738774
 10
-22.6975341045
 20
2.593008432
 10
-22.719079134
 20
2.6107203243
 10
-22.741071708
 20
2.6259108611
 10
-22.7632716472
 20
2.638412289
  0
LINE
  5
289
100
AcDbEntity
  8
RACCORDO
100
AcDbLine
 62
253
  6
CONTINUOUS
 10
-25.8841062303
 20
34.4391065065
 11
-25.8844765389
 21
34.4459080032
  0
LWPOLYLINE
  5
28A
100
AcDbEntity
  8
RACCORDO
100
AcDbPolyline
 62
253
  6
CONTINUOUS
 90
16
 70
0
 10
-24.1337465947
 20
34.0344880795
 10
-24.134823927
 20
34.0576268464
 10
-24.1378271158
 20
34.081490698
 10
-24.1427230491
 20
34.1058165161
 10
-24.1494587414
 20
34.1303392895
 10
-24.1579593908
 20
34.1547854137
 10
-24.1681269519
 20
34.1788759482
 10
-24.1798442074
 20
34.2023399025
 10
-24.1929829106
 20
34.2249263015
 10
-24.2074029571
 20
34.2463962144
 10
-24.2229701656
 20
34.2665429243
 10
-24.2394918697
 20
34.2851106503
 10
-24.2567126854
 20
34.3018287995
 10
-24.2744107965
 20
34.3165185722
 10
-24.292412218
 20
34.3290707548
 10
-24.3105202984
 20
34.3393776183
  0
LWPOLYLINE
  5
28B
100
AcDbEntity
  8
RACCORDO
100
AcDbPolyline
 62
253
  6
CONTINUOUS
 90
16
 70
0
 10
-22.9390799412
 20
2.3113707149
 10
-22.9400440345
 20
2.3350312315
 10
-22.9388048082
 20
2.3597745686
 10
-22.9353777083
 20
2.385292321
 10
-22.9298054506
 20
2.4112664313
 10
-22.9221574887
 20
2.4373731542
 10
-22.912529148
 20
2.4632870912
 10
-22.9010404378
 20
2.4886852469
 10
-22.8878345551
 20
2.5132510545
 10
-22.8730761001
 20
2.5366783219
 10
-22.8569490246
 20
2.5586750479
 10
-22.8396543391
 20
2.5789670616
 10
-22.8214076072
 20
2.5973014401
 10
-22.8024362592
 20
2.6134496606
 10
-22.7829767571
 20
2.6272104492
 10
-22.7632716472
 20
2.638412289
  0
LWPOLYLINE
  5
28C
100
AcDbEntity
  8
RACCORDO
100
AcDbPolyline
 62
253
  6
CONTINUOUS
 90
10
 70
0
 10
-25.8112532342
 20
34.3575192091
 10
-25.8105744242
 20
34.3389033468
 10
-25.8085435585
 20
34.3211115124
 10
-25.8051767526
 20
34.3042799629
 10
-25.8005007122
 20
34.288538488
 10
-25.7945516422
 20
34.2740062912
 10
-25.7873741395
 20
34.2607919006
 10
-25.7790055998
 20
34.2489753649
 10
-25.7695231024
 20
34.2386751539
 10
-25.759061785
 20
34.230015537
  0
LWPOLYLINE
  5
28D
100
AcDbEntity
  8
RACCORDO
100
AcDbPolyline
 62
253
  6
CONTINUOUS
 90
12
 70
0
 10
-24.4862685543
 20
33.6950268692
 10
-24.4855897444
 20
33.6764110069
 10
-24.4835588787
 20
33.6586191725
 10
-24.4801920728
 20
33.641787623
 10
-24.4755160324
 20
33.6260461481
 10
-24.4695669624
 20
33.6115139513
 10
-24.4623894597
 20
33.5982995607
 10
-24.45402092
 20
33.586483025
 10
-24.4445384226
 20
33.576182814
 10
-24.4340771052
 20
33.5675231971
 10
-24.4227557941
 20
33.5605547273
 10
-24.4213031145
 20
33.5598123479
  0
LWPOLYLINE
  5
28E
100
AcDbEntity
  8
0
100
AcDbPolyline
 62
253
  6
CONTINUOUS
 90
6
 70
0
 10
-23.313198672
 20
2.7747320066
 10
-23.3124509321
 20
2.7477424012
 10
-23.3144009145
 20
2.7220483995
 10
-23.3190198126
 20
2.6980295716
 10
-23.3262393927
 20
2.6760407407
 10
-23.3359530021
 20
2.6564067414
  0
LWPOLYLINE
  5
28F
100
AcDbEntity
  8
0
100
AcDbPolyline
 62
253
  6
CONTINUOUS
 90
11
 70
0
 10
-25.3945151027
 20
15.303414417
 10
-25.3938604472
 20
15.2789269008
 10
-25.391270518
 20
15.2555674423
 10
-25.3867620998
 20
15.2335544297
 10
-25.3803373975
 20
15.2130085177
 10
-25.3720650753
 20
15.1942270431
 10
-25.3621591207
 20
15.1775996694
 10
-25.3507485438
 20
15.1631808217
 10
-25.3380078836
 20
15.1510533636
 10
-25.3243811925
 20
15.1414114275
 10
-25.3166881832
 20
15.1371705897
  0
LINE
  5
290
100
AcDbEntity
  8
RACCORDO
100
AcDbLine
 62
7
  6
CONTINUOUS
 10
-25.1814835846
 20
33.4859305489
 11
-25.1814835846
 21
33.9399025824
  0
LINE
  5
291
100
AcDbEntity
  8
0
100
AcDbLine
 62
7
  6
CONTINUOUS
 10
-25.1134055552
 20
15.11377475
 11
-25.1134055552
 21
14.0379900084
  0
LINE
  5
292
100
AcDbEntity
  8
RACCORDO
100
AcDbLine
 62
253
  6
CONTINUOUS
 10
-25.1082602799
 20
33.3942167859
 11
-25.1082602799
 21
33.9032909301
  0
LINE
  5
293
100
AcDbEntity
  8
0
100
AcDbLine
 62
253
  6
CONTINUOUS
 10
-24.860637429
 20
3.8860831504
 11
-24.860637429
 21
3.7377890852
  0
LINE
  5
294
100
AcDbEntity
  8
0
100
AcDbLine
 62
7
  6
CONTINUOUS
 10
-24.7904723791
 20
3.8510006254
 11
-24.7904723791
 21
3.7610971897
  0
LINE
  5
295
100
AcDbEntity
  8
RACCORDO
100
AcDbLine
 62
253
  6
CONTINUOUS
 10
-24.4862685543
 20
33.6950268692
 11
-24.4862685543
 21
34.0350008033
  0
LINE
  5
296
100
AcDbEntity
  8
0
100
AcDbLine
 62
253
  6
CONTINUOUS
 10
-24.2772743345
 20
15.4808713295
 11
-24.2772743345
 21
14.444630166
  0
LINE
  5
297
100
AcDbEntity
  8
0
100
AcDbLine
 62
7
  6
CONTINUOUS
 10
-24.2071092846
 20
15.513019287
 11
-24.2071092846
 21
14.4679382706
  0
LINE
  5
298
100
AcDbEntity
  8
RACCORDO
100
AcDbLine
 62
253
  6
CONTINUOUS
 10
-24.1337465947
 20
33.6945141454
 11
-24.1337465947
 21
34.0344880795
  0
LINE
  5
299
100
AcDbEntity
  8
RACCORDO
100
AcDbLine
 62
253
  6
CONTINUOUS
 10
-23.7750479462
 20
33.416431242
 11
-23.7750479462
 21
32.7276106191
  0
LINE
  5
29A
100
AcDbEntity
  8
RACCORDO
100
AcDbLine
 62
253
  6
CONTINUOUS
 10
-23.4225259866
 20
33.5460106225
 11
-23.4225259866
 21
32.7383785007
  0
LINE
  5
29B
100
AcDbEntity
  8
RACCORDO
100
AcDbLine
 62
7
  6
CONTINUOUS
 10
-22.603176482
 20
-1.157200249
 11
-22.603176482
 21
-0.8047876489
  0
LINE
  5
29C
100
AcDbEntity
  8
RACCORDO
100
AcDbLine
 62
7
  6
CONTINUOUS
 10
-22.5324658039
 20
33.235059422
 11
-22.5324658039
 21
34.837210083
  0
LINE
  5
29D
100
AcDbEntity
  8
RACCORDO
100
AcDbLine
 62
253
  6
CONTINUOUS
 10
-22.0041986321
 20
35.100648903
 11
-22.0041986321
 21
34.7531173863
  0
LINE
  5
29E
100
AcDbEntity
  8
RACCORDO
100
AcDbLine
 62
7
  6
CONTINUOUS
 10
-21.9320007751
 20
35.1885215352
 11
-21.9320007751
 21
34.8409900185
  0
LWPOLYLINE
  5
29F
100
AcDbEntity
  8
RACCORDO
100
AcDbPolyline
 62
7
  6
CONTINUOUS
 90
8
 70
0
 10
-21.932000792
 20
34.8410360163
 10
-21.9320150367
 20
34.8383207045
 10
-21.933204922
 20
34.8164823976
 10
-21.9363042459
 20
34.7948032781
 10
-21.9412975094
 20
34.7734479001
 10
-21.9481599692
 20
34.7525678635
 10
-21.9568515633
 20
34.7323261683
 10
-21.9673128236
 20
34.712892076
  0
LWPOLYLINE
  5
2A0
100
AcDbEntity
  8
0
100
AcDbPolyline
 62
253
  6
CONTINUOUS
 90
19
 70
0
 10
-21.918931483
 20
0.1429323838
 10
-21.9182768276
 20
0.1680745555
 10
-21.9156868984
 20
0.1940239432
 10
-21.9111784802
 20
0.2205453739
 10
-21.9047537779
 20
0.2475159883
 10
-21.8964814557
 20
0.2745697851
 10
-21.8865755011
 20
0.3011031134
 10
-21.8751649242
 20
0.326932538
 10
-21.862424264
 20
0.3518006562
 10
-21.8487975729
 20
0.3750692835
 10
-21.8346379154
 20
0.3964601671
 10
-21.8200488695
 20
0.4161060035
 10
-21.8051441293
 20
0.434070162
 10
-21.7902779397
 20
0.4501444829
 10
-21.7754174915
 20
0.4645669356
 10
-21.7600021126
 20
0.4779358656
 10
-21.743875929
 20
0.4903010316
 10
-21.7273520764
 20
0.5013372822
 10
-21.7105271444
 20
0.5109294114
  0
LWPOLYLINE
  5
2A1
100
AcDbEntity
  8
0
100
AcDbPolyline
 62
7
  6
CONTINUOUS
 90
8
 70
0
 10
-24.1365197121
 20
2.2925997698
 10
-24.1372955335
 20
2.2693778156
 10
-24.1398410483
 20
2.2472342178
 10
-24.1441365455
 20
2.226180043
 10
-24.1500760334
 20
2.2066937284
 10
-24.1576241815
 20
2.1889347529
 10
-24.1668163203
 20
2.1727436375
 10
-24.1776524498
 20
2.1581203822
  0
LWPOLYLINE
  5
2A2
100
AcDbEntity
  8
RACCORDO
100
AcDbPolyline
 62
253
  6
CONTINUOUS
 90
9
 70
0
 10
-21.9320008136
 20
35.1884521707
 10
-21.9322771712
 20
35.1826452763
 10
-21.9348679575
 20
35.1696444958
 10
-21.9401629028
 20
35.1568417171
 10
-21.9481068789
 20
35.1443807226
 10
-21.9586113835
 20
35.132402956
 10
-21.9715595883
 20
35.1210409697
 10
-21.9868109779
 20
35.1104175291
 10
-22.0041986321
 20
35.100648903
  0
LWPOLYLINE
  5
2A3
100
AcDbEntity
  8
RACCORDO
100
AcDbPolyline
 62
253
  6
CONTINUOUS
 90
9
 70
0
 10
-21.9320007751
 20
34.8409901658
 10
-21.932297583
 20
34.8349007689
 10
-21.9349263657
 20
34.8219227939
 10
-21.9402460106
 20
34.809152015
 10
-21.9481987313
 20
34.7967277199
 10
-21.9586978301
 20
34.784785493
 10
-21.9716288612
 20
34.7734554757
 10
-21.986851057
 20
34.7628609785
 10
-22.0041986321
 20
34.7531173863
  0
LINE
  5
2A4
100
AcDbEntity
  8
0
100
AcDbLine
 62
7
  6
CONTINUOUS
 10
-24.1569190334
 20
14.7615924944
 11
-24.0847656492
 21
15.6384486941
  0
LWPOLYLINE
  5
2A5
100
AcDbEntity
  8
RACCORDO
100
AcDbPolyline
 62
7
  6
CONTINUOUS
 90
3
 70
0
 10
-20.3032203603
 20
32.762327516
 10
-20.3063432195
 20
32.7434191346
 10
-20.3076885945
 20
32.7209625322
  0
LWPOLYLINE
  5
2A6
100
AcDbEntity
  8
0
100
AcDbPolyline
 62
7
  6
CONTINUOUS
 90
9
 70
0
 10
-21.0457689436
 20
13.0037398677
 10
-21.0451275457
 20
13.0065430783
 10
-21.0428389612
 20
13.0104348456
 10
-21.0391833785
 20
13.0151775851
 10
-21.034184705
 20
13.0206746885
 10
-21.0278335066
 20
13.0267949723
 10
-21.0203690732
 20
13.0335755457
 10
-21.0118129261
 20
13.0409328815
 10
-21.002178164
 20
13.0487542801
  0
LWPOLYLINE
  5
2A7
100
AcDbEntity
  8
0
100
AcDbPolyline
 62
7
  6
CONTINUOUS
 90
9
 70
0
 10
-21.9369237103
 20
13.8601434785
 10
-21.9508743086
 20
13.842118612
 10
-21.9652569316
 20
13.8200068809
 10
-21.9780304477
 20
13.7958969355
 10
-21.9887980989
 20
13.7700753004
 10
-21.9971434179
 20
13.7432478568
 10
-22.0029220961
 20
13.7158823896
 10
-22.0061324144
 20
13.6880213493
 10
-22.0067223102
 20
13.6598029772
  0
LINE
  5
2A8
100
AcDbEntity
  8
0
100
AcDbLine
 62
7
  6
CONTINUOUS
 10
-21.9373584287
 20
13.8596238269
 11
-21.9369237103
 21
13.8601434785
  0
LWPOLYLINE
  5
2A9
100
AcDbEntity
  8
RACCORDO
100
AcDbPolyline
 62
7
  6
CONTINUOUS
 90
15
 70
0
 10
-10.0582078222
 20
26.8638515403
 10
-10.0761167256
 20
26.8439792458
 10
-10.0955232535
 20
26.8248515379
 10
-10.1163766947
 20
26.8067021056
 10
-10.1386850881
 20
26.7897956213
 10
-10.1622744262
 20
26.7743352953
 10
-10.1867954732
 20
26.7604703001
 10
-10.2121186312
 20
26.7484373677
 10
-10.2380865916
 20
26.7384572093
 10
-10.2642848988
 20
26.7306656112
 10
-10.2905037399
 20
26.7252746651
 10
-10.3165317068
 20
26.7224699908
 10
-10.3419219256
 20
26.7223605189
 10
-10.3663366998
 20
26.725094109
 10
-10.3715175826
 20
26.7260851399
  0
LWPOLYLINE
  5
2AA
100
AcDbEntity
  8
0
100
AcDbPolyline
 62
7
  6
CONTINUOUS
 90
4
 70
0
 10
-26.3238494373
 20
13.3961222453
 10
-26.340059158
 20
13.3850755354
 10
-26.3553358104
 20
13.3744242754
 10
-26.3833598003
 20
13.3546453942
  0
LINE
  5
2AB
100
AcDbEntity
  8
RACCORDO
100
AcDbLine
 62
7
  6
CONTINUOUS
 10
-9.1681476394
 20
26.5529003398
 11
-10.0582078222
 21
26.0562194185
  0
LINE
  5
2AC
100
AcDbEntity
  8
DRAFT
100
AcDbLine
 62
7
  6
CONTINUOUS
 10
-8.5676826107
 20
28.2923435527
 11
-6.51649721
 21
29.3990051341
  0
LINE
  5
2AD
100
AcDbEntity
  8
RACCORDO
100
AcDbLine
 62
253
  6
CONTINUOUS
 10
-9.1681476394
 20
28.1550510008
 11
-10.7694284303
 21
27.3523289973
  0
LINE
  5
2AE
100
AcDbEntity
  8
RACCORDO
100
AcDbLine
 62
253
  6
CONTINUOUS
 10
-8.6398804677
 20
28.4184898208
 11
-9.1681476394
 21
28.1550510008
  0
LINE
  5
2AF
100
AcDbEntity
  8
0
100
AcDbLine
 62
7
  6
CONTINUOUS
 10
-24.5866722897
 20
18.5246250693
 11
-24.5864560364
 21
18.5247272538
  0
LINE
  5
2B0
100
AcDbEntity
  8
DRAFT
100
AcDbLine
 62
7
  6
CONTINUOUS
 10
-6.51649721
 20
29.3990051341
 11
-2.8473053926
 21
31.0935595082
  0
LWPOLYLINE
  5
2B1
100
AcDbEntity
  8
0
100
AcDbPolyline
 62
7
  6
CONTINUOUS
 90
27
 70
0
 10
-24.5865154415
 20
18.5246977269
 10
-24.4997678523
 20
18.5601424148
 10
-24.4105536641
 20
18.5861014898
 10
-24.3174356627
 20
18.6032144807
 10
-24.2204829385
 20
18.6114001213
 10
-24.1201382165
 20
18.6105493665
 10
-24.0164704155
 20
18.6005507471
 10
-23.9098195189
 20
18.5813180523
 10
-23.8007837908
 20
18.5528403403
 10
-23.6899055054
 20
18.5151626519
 10
-23.5777028808
 20
18.468409509
 10
-23.4647713304
 20
18.4127743074
 10
-23.3517443093
 20
18.348545481
 10
-23.2392020664
 20
18.2760830383
 10
-23.1276143285
 20
18.1957130565
 10
-23.0173708264
 20
18.1077417687
 10
-22.9090825854
 20
18.012720764
 10
-22.803041702
 20
17.9109615834
 10
-22.6991178141
 20
17.8023223538
 10
-22.5975855332
 20
17.687009412
 10
-22.4990317155
 20
17.5655938372
 10
-22.4037856083
 20
17.4384056828
 10
-22.3121882887
 20
17.3058333851
 10
-22.2246761343
 20
17.1684244188
 10
-22.1416720244
 20
17.0267891215
 10
-22.0635029458
 20
16.8814765808
 10
-21.9904743433
 20
16.7330284033
  0
LWPOLYLINE
  5
2B2
100
AcDbEntity
  8
RACCORDO
100
AcDbPolyline
 62
7
  6
CONTINUOUS
 90
10
 70
0
 10
20.7628284108
 20
-30.6718314888
 10
20.783311765
 20
-30.6809490599
 10
20.8077336798
 20
-30.6891076556
 10
20.8329641119
 20
-30.6947277249
 10
20.8587531602
 20
-30.6977197653
 10
20.8848136402
 20
-30.6980170759
 10
20.9108656801
 20
-30.6955847412
 10
20.9366341397
 20
-30.6904138373
 10
20.9618141677
 20
-30.6825302459
 10
20.984115394
 20
-30.6729760849
  0
LWPOLYLINE
  5
2B3
100
AcDbEntity
  8
RACCORDO
100
AcDbPolyline
 62
253
  6
CONTINUOUS
 90
16
 70
0
 10
20.6978547635
 20
-30.5366128632
 10
20.7172260187
 20
-30.5453372431
 10
20.7383091014
 20
-30.5530054953
 10
20.7608747274
 20
-30.5595342255
 10
20.7846774893
 20
-30.5648524318
 10
20.8094585254
 20
-30.5689022773
 10
20.8349483352
 20
-30.5716397189
 10
20.8608697098
 20
-30.5730349861
 10
20.8869407473
 20
-30.573072905
 10
20.9128779179
 20
-30.5717530632
 10
20.9383991476
 20
-30.5690898144
 10
20.9632268862
 20
-30.5651121221
 10
20.987091125
 20
-30.5598632448
 10
21.009732334
 20
-30.5534002655
 10
21.0309042836
 20
-30.545793471
 10
21.0503767231
 20
-30.5371255871
  0
LWPOLYLINE
  5
2B4
100
AcDbEntity
  8
RACCORDO
100
AcDbPolyline
 62
7
  6
CONTINUOUS
 90
12
 70
0
 10
16.5073429285
 20
-30.4737036933
 10
16.5633167717
 20
-30.4994026101
 10
16.6383560599
 20
-30.5268825377
 10
16.7170463716
 20
-30.5479151921
 10
16.7988225489
 20
-30.5620533035
 10
16.8828852735
 20
-30.5689446804
 10
16.9687603317
 20
-30.568380469
 10
17.0559630298
 20
-30.5602194002
 10
17.1437829805
 20
-30.5444369133
 10
17.2317812423
 20
-30.5210443277
 10
17.3196699346
 20
-30.490062144
 10
17.342785403
 20
-30.4806343581
  0
LINE
  5
2B5
100
AcDbEntity
  8
RACCORDO
100
AcDbLine
 62
7
  6
CONTINUOUS
 10
-30.1452601753
 20
-7.1474101042
 11
16.5084822535
 21
-30.4742813186
  0
LINE
  5
2B6
100
AcDbEntity
  8
RACCORDO
100
AcDbLine
 62
253
  6
CONTINUOUS
 10
-30.5296703739
 20
-6.3913397475
 11
16.1149808571
 21
-29.713665363
  0
LINE
  5
2B7
100
AcDbEntity
  8
RACCORDO
100
AcDbLine
 62
7
  6
CONTINUOUS
 10
16.5073461097
 20
-30.4737117661
 11
16.5084442092
 21
-30.4742622964
  0
LWPOLYLINE
  5
2B8
100
AcDbEntity
  8
RACCORDO
100
AcDbPolyline
 62
253
  6
CONTINUOUS
 90
15
 70
0
 10
-30.1452601753
 20
-7.1474101042
 10
-30.1809270806
 20
-7.1278966285
 10
-30.2276676504
 20
-7.0967400897
 10
-30.2715870372
 20
-7.0606813941
 10
-30.3125164314
 20
-7.0198582682
 10
-30.3503107023
 20
-6.9744152027
 10
-30.3848296826
 20
-6.9245131796
 10
-30.4159316978
 20
-6.8703477956
 10
-30.4434902897
 20
-6.8121429733
 10
-30.4673972051
 20
-6.7501369424
 10
-30.4875694511
 20
-6.6845541431
 10
-30.5039395272
 20
-6.6156200548
 10
-30.5164451095
 20
-6.5435859055
 10
-30.52503361
 20
-6.4687315845
 10
-30.5296703739
 20
-6.3913397475
  0
LWPOLYLINE
  5
2B9
100
AcDbEntity
  8
0
100
AcDbPolyline
 62
253
  6
CONTINUOUS
 90
35
 70
0
 10
-25.3882123531
 20
-1.0456157663
 10
-25.4463755232
 20
-0.9097813135
 10
-25.4983498597
 20
-0.7775619801
 10
-25.5443475321
 20
-0.6485840921
 10
-25.5852312588
 20
-0.5239478138
 10
-25.6209225607
 20
-0.4040633235
 10
-25.6515022499
 20
-0.2885216829
 10
-25.6780731488
 20
-0.1771949947
 10
-25.7006940689
 20
-0.0703509023
 10
-25.719308838
 20
0.0322768409
 10
-25.734847754
 20
0.1316169938
 10
-25.7474394337
 20
0.2276035746
 10
-25.7569571787
 20
0.3203015504
 10
-25.7639475937
 20
0.4108364816
 10
-25.7685362057
 20
0.499329549
 10
-25.7705983934
 20
0.5856590902
 10
-25.7703047543
 20
0.6705868112
 10
-25.7677162783
 20
0.7543518834
 10
-25.762772143
 20
0.8367150411
 10
-25.7554598645
 20
0.9177205246
 10
-25.7457556408
 20
0.9975541177
 10
-25.7336833943
 20
1.0760299671
 10
-25.7193024702
 20
1.1526347321
 10
-25.7025510911
 20
1.2273964961
 10
-25.6834917255
 20
1.3002868087
 10
-25.6623706952
 20
1.370707212
 10
-25.6391430359
 20
1.4385808445
 10
-25.6138550846
 20
1.5039838469
 10
-25.5868906959
 20
1.5665469618
 10
-25.5582379132
 20
1.6261763918
 10
-25.5279104741
 20
1.6829650032
 10
-25.4963311182
 20
1.7368233554
 10
-25.4636414272
 20
1.7877212865
 10
-25.429701686
 20
1.8356879851
 10
-25.3945127672
 20
1.8807229966
  0
LWPOLYLINE
  5
2BA
100
AcDbEntity
  8
0
100
AcDbPolyline
 62
7
  6
CONTINUOUS
 90
20
 70
0
 10
-23.3264944309
 20
0.0392374047
 10
-23.3872001424
 20
0.194405124
 10
-23.4417634697
 20
0.3504582083
 10
-23.4899848122
 20
0.5067531794
 10
-23.5317252799
 20
0.6627427055
 10
-23.5668668402
 20
0.8178773963
 10
-23.5953160319
 20
0.9716229023
 10
-23.6169854031
 20
1.1233270654
 10
-23.631823137
 20
1.2722566007
 10
-23.6398375688
 20
1.4176910861
 10
-23.6410953377
 20
1.5592416656
 10
-23.635660428
 20
1.6966476915
 10
-23.6236200768
 20
1.8292819057
 10
-23.6050866277
 20
1.9567158079
 10
-23.5801077935
 20
2.0788903612
 10
-23.5488145165
 20
2.1952341507
 10
-23.5113636916
 20
2.3052681607
 10
-23.4677679335
 20
2.4089244066
 10
-23.4181324718
 20
2.5057943132
 10
-23.3627180366
 20
2.5952624571
  0
LWPOLYLINE
  5
2BB
100
AcDbEntity
  8
RACCORDO
100
AcDbPolyline
 62
253
  6
CONTINUOUS
 90
16
 70
0
 10
-22.9000086063
 20
2.2522497731
 10
-22.9006117197
 20
2.2567547086
 10
-22.9015700011
 20
2.2613077994
 10
-22.9028834506
 20
2.2659090455
 10
-22.9045742994
 20
2.2706111262
 10
-22.9066203164
 20
2.2753613623
 10
-22.9089548074
 20
2.2800017157
 10
-22.9115873557
 20
2.2845274458
 10
-22.9145083781
 20
2.2889432933
 10
-22.9176224311
 20
2.2931054416
 10
-22.9209380542
 20
2.2970064074
 10
-22.9244467078
 20
2.300653674
 10
-22.9280273296
 20
2.3039258747
 10
-22.9316395653
 20
2.306782554
 10
-22.9353237692
 20
2.3092641674
 10
-22.9390799412
 20
2.3113707149
  0
LWPOLYLINE
  5
2BC
100
AcDbEntity
  8
0
100
AcDbPolyline
 62
7
  6
CONTINUOUS
 90
12
 70
0
 10
-22.0067223102
 20
13.6598029772
 10
-22.0046350183
 20
13.6314669116
 10
-21.9998418913
 20
13.6032980087
 10
-21.9923255242
 20
13.5755110788
 10
-21.9820948258
 20
13.5483742502
 10
-21.9691958325
 20
13.5221791282
 10
-21.9536892703
 20
13.4971850118
 10
-21.9356031224
 20
13.4735858433
 10
-21.915130481
 20
13.45175841
 10
-21.8926923467
 20
13.4321638259
 10
-21.8684067737
 20
13.4148817771
 10
-21.8408396447
 20
13.3992463759
  0
LWPOLYLINE
  5
2BD
100
AcDbEntity
  8
RACCORDO
100
AcDbPolyline
 62
7
  6
CONTINUOUS
 90
16
 70
0
 10
-22.5324658039
 20
34.837210083
 10
-22.5335366239
 20
34.8602738488
 10
-22.5365211317
 20
34.8840589106
 10
-22.5413866295
 20
34.9083046858
 10
-22.5480798113
 20
34.9327455443
 10
-22.5565273492
 20
34.9571137183
 10
-22.5666366963
 20
34.9811422352
 10
-22.5782970982
 20
35.0045678445
 10
-22.5913808057
 20
35.0271339018
 10
-22.605744477
 20
35.0485931793
 10
-22.6212307484
 20
35.0687105743
 10
-22.6376699556
 20
35.0872656863
 10
-22.6548819928
 20
35.1040552316
 10
-22.6726782885
 20
35.1188952686
 10
-22.6908638722
 20
35.1316232134
 10
-22.7092395075
 20
35.1420996218
  0
LWPOLYLINE
  5
2BE
100
AcDbEntity
  8
RACCORDO
100
AcDbPolyline
 62
253
  6
CONTINUOUS
 90
16
 70
0
 10
-22.0041986321
 20
35.100648903
 10
-22.0050716287
 20
35.1238898377
 10
-22.0078954136
 20
35.1478433914
 10
-22.0126388527
 20
35.1722454565
 10
-22.0192506278
 20
35.1968301885
 10
-22.0276573253
 20
35.2213232887
 10
-22.0377619544
 20
35.2454452892
 10
-22.0494479586
 20
35.2689248692
 10
-22.0625873772
 20
35.2915109105
 10
-22.0770400799
 20
35.3129644953
 10
-22.0926716478
 20
35.3330790254
 10
-22.1092886802
 20
35.3515990874
 10
-22.1266341615
 20
35.3682549037
 10
-22.144484319
 20
35.3828686532
 10
-22.1626633351
 20
35.3953320385
 10
-22.1809723358
 20
35.4055384418
  0
LWPOLYLINE
  5
2BF
100
AcDbEntity
  8
0
100
AcDbPolyline
 62
7
  6
CONTINUOUS
 90
13
 70
0
 10
-20.462397087
 20
-0.3426751765
 10
-20.4617587477
 20
-0.360965648
 10
-20.4594902318
 20
-0.3858998527
 10
-20.4558733576
 20
-0.4110333223
 10
-20.4509315132
 20
-0.4362738786
 10
-20.4446517959
 20
-0.4615060909
 10
-20.4372537133
 20
-0.48663572
 10
-20.4287520499
 20
-0.5116008676
 10
-20.4191553244
 20
-0.5363028481
 10
-20.4086662929
 20
-0.560603001
 10
-20.3973664199
 20
-0.584413783
 10
-20.3852189662
 20
-0.6076993581
 10
-20.3722518516
 20
-0.6304074319
  0
LWPOLYLINE
  5
2C0
100
AcDbEntity
  8
RACCORDO
100
AcDbPolyline
 62
7
  6
CONTINUOUS
 90
14
 70
0
 10
-20.3076885945
 20
32.7209625322
 10
-20.3069906839
 20
32.6985995884
 10
-20.3039576736
 20
32.6738540318
 10
-20.2987045525
 20
32.6481624601
 10
-20.2917436217
 20
32.6216359387
 10
-20.2830962236
 20
32.5945097797
 10
-20.2726851982
 20
32.5670945599
 10
-20.2608150828
 20
32.5394564664
 10
-20.2474919768
 20
32.51174848
 10
-20.2327060187
 20
32.4841828903
 10
-20.2166907951
 20
32.4568636757
 10
-20.1995217653
 20
32.429917679
 10
-20.1811463081
 20
32.4034948552
 10
-20.1615951901
 20
32.3777141765
  0
LWPOLYLINE
  5
2C1
100
AcDbEntity
  8
0
100
AcDbPolyline
 62
7
  6
CONTINUOUS
 90
13
 70
0
 10
-21.0666459203
 20
10.9442855243
 10
-21.0661719228
 20
10.9210769151
 10
-21.0640963453
 20
10.8962567777
 10
-21.0606907771
 20
10.871222787
 10
-21.0559766706
 20
10.8460697357
 10
-21.0499420884
 20
10.8209124155
 10
-21.0428159702
 20
10.7958711125
 10
-21.0346166367
 20
10.7710099467
 10
-21.0253539672
 20
10.7464252896
 10
-21.0152416546
 20
10.7222738837
 10
-21.004368661
 20
10.6986475422
 10
-20.9926999837
 20
10.6755730424
 10
-20.9802677208
 20
10.6530993545
  0
LINE
  5
2C2
100
AcDbEntity
  8
0
100
AcDbLine
 62
7
  6
CONTINUOUS
 10
-20.4723680706
 20
0.5396826468
 11
-20.4623613493
 21
-0.3426663647
  0
LINE
  5
2C3
100
AcDbEntity
  8
0
100
AcDbLine
 62
253
  6
CONTINUOUS
 10
-20.3865495317
 20
0.6320769151
 11
-20.3722518516
 21
-0.6304074319
  0
LINE
  5
2C4
100
AcDbEntity
  8
0
100
AcDbLine
 62
7
  6
CONTINUOUS
 10
-20.4805886308
 20
1.386047404
 11
-20.4723680706
 21
0.5396826468
  0
LINE
  5
2C5
100
AcDbEntity
  8
0
100
AcDbLine
 62
7
  6
CONTINUOUS
 10
-20.4832865151
 20
1.6989119316
 11
-20.4805886308
 21
1.386047404
  0
LINE
  5
2C6
100
AcDbEntity
  8
0
100
AcDbLine
 62
253
  6
CONTINUOUS
 10
-20.3969046263
 20
1.7749293917
 11
-20.3865495317
 21
0.6320769151
  0
LINE
  5
2C7
100
AcDbEntity
  8
RACCORDO
100
AcDbLine
 62
7
  6
CONTINUOUS
 10
-20.3080417995
 20
32.7189030844
 11
-20.3080417995
 21
31.4805603334
  0
LINE
  5
2C8
100
AcDbEntity
  8
RACCORDO
100
AcDbLine
 62
253
  6
CONTINUOUS
 10
-20.1615951901
 20
32.3777141765
 11
-20.1615951901
 21
31.2971308657
  0
LINE
  5
2C9
100
AcDbEntity
  8
0
100
AcDbLine
 62
7
  6
CONTINUOUS
 10
-21.0585632824
 20
11.8340462422
 11
-21.0666371366
 21
10.9442875263
  0
LINE
  5
2CA
100
AcDbEntity
  8
0
100
AcDbLine
 62
253
  6
CONTINUOUS
 10
-20.9686753627
 20
11.9286777837
 11
-20.9802677208
 21
10.6530993545
  0
LINE
  5
2CB
100
AcDbEntity
  8
0
100
AcDbLine
 62
7
  6
CONTINUOUS
 10
-21.049440004
 20
12.6893617581
 11
-21.0585632824
 21
11.8340462422
  0
LINE
  5
2CC
100
AcDbEntity
  8
0
100
AcDbLine
 62
7
  6
CONTINUOUS
 10
-21.0457518776
 20
13.0037299519
 11
-21.049440004
 21
12.6893617581
  0
LINE
  5
2CD
100
AcDbEntity
  8
0
100
AcDbLine
 62
253
  6
CONTINUOUS
 10
-20.9556149461
 20
13.0839643387
 11
-20.9686753627
 21
11.9286777837
  0
LINE
  5
2CE
100
AcDbEntity
  8
RACCORDO
100
AcDbLine
 62
7
  6
CONTINUOUS
 10
-21.8727853351
 20
-1.7650432018
 11
-21.8257549437
 21
-1.1934984181
  0
LWPOLYLINE
  5
2CF
100
AcDbEntity
  8
0
100
AcDbPolyline
 62
7
  6
CONTINUOUS
 90
10
 70
0
 10
-20.4833102418
 20
1.6989254569
 10
-20.4828055483
 20
1.7012097865
 10
-20.4807423397
 20
1.7046588628
 10
-20.4773615197
 20
1.7089576981
 10
-20.4726842545
 20
1.7140176541
 10
-20.4666963302
 20
1.7197147312
 10
-20.4596137242
 20
1.7260917684
 10
-20.4514503358
 20
1.7330728174
 10
-20.4422130019
 20
1.7405535343
 10
-20.4321005835
 20
1.7485515931
  0
LWPOLYLINE
  5
2D0
100
AcDbEntity
  8
RACCORDO
100
AcDbPolyline
 62
253
  6
CONTINUOUS
 90
14
 70
0
 10
-10.7694284303
 20
27.0123550631
 10
-10.7796630508
 20
26.9886932008
 10
-10.7917043368
 20
26.9662600424
 10
-10.8054208491
 20
26.9453004615
 10
-10.8206628623
 20
26.9260432467
 10
-10.8372639991
 20
26.9086986043
 10
-10.8550430462
 20
26.8934558631
 10
-10.873805933
 20
26.8804814084
 10
-10.8933478493
 20
26.8699168656
 10
-10.9134554812
 20
26.8618775541
 10
-10.9339093398
 20
26.8564512287
 10
-10.9544861567
 20
26.8536971215
 10
-10.9749613216
 20
26.8536452955
 10
-10.9962719238
 20
26.8565339024
  0
LWPOLYLINE
  5
2D1
100
AcDbEntity
  8
0
100
AcDbPolyline
 62
7
  6
CONTINUOUS
 90
16
 70
0
 10
-23.2747401596
 20
2.7173075209
 10
-23.2636314629
 20
2.7409045093
 10
-23.2548753501
 20
2.7661025744
 10
-23.2488302422
 20
2.7922261591
 10
-23.2456225814
 20
2.8187753667
 10
-23.2452730632
 20
2.8456132954
 10
-23.2478346168
 20
2.8725468159
 10
-23.2533511831
 20
2.8992716781
 10
-23.2618182225
 20
2.9254192694
 10
-23.2732111144
 20
2.950685212
 10
-23.2874926763
 20
2.9747763056
 10
-23.3045157609
 20
2.9972797506
 10
-23.3239927002
 20
3.0177464794
 10
-23.3458825844
 20
3.0360546112
 10
-23.3697077514
 20
3.0517437703
 10
-23.3834073329
 20
3.0591238241
  0
LWPOLYLINE
  5
2D2
100
AcDbEntity
  8
0
100
AcDbPolyline
 62
253
  6
CONTINUOUS
 90
22
 70
0
 10
-25.0135055333
 20
1.7516850225
 10
-25.0023545412
 20
1.7682110331
 10
-24.9931605827
 20
1.7871564427
 10
-24.9860235883
 20
1.8083153306
 10
-24.9810211311
 20
1.831457718
 10
-24.9782075836
 20
1.8563320666
 10
-24.9776135266
 20
1.8826680136
 10
-24.9792454169
 20
1.9101793097
 10
-24.9830855174
 20
1.9385669304
 10
-24.9890920895
 20
1.9675223266
 10
-24.9971998467
 20
1.9967307778
 10
-25.0073206647
 20
2.0258748129
 10
-25.0193445388
 20
2.0546376612
 10
-25.0331407798
 20
2.0827066951
 10
-25.0485594342
 20
2.1097768279
 10
-25.0654329145
 20
2.1355538305
 10
-25.0835778203
 20
2.1597575288
 10
-25.1027969318
 20
2.1821248492
 10
-25.1228813539
 20
2.202412678
 10
-25.1436127858
 20
2.2204005038
 10
-25.1647658946
 20
2.2358928143
 10
-25.186110764
 20
2.2487212212
  0
LINE
  5
2D3
100
AcDbEntity
  8
RACCORDO
100
AcDbLine
 62
7
  6
CONTINUOUS
 10
-8.6130570631
 20
28.0152050845
 11
-8.6245330978
 21
28.0001070857
  0
LINE
  5
2D4
100
AcDbEntity
  8
RACCORDO
100
AcDbLine
 62
253
  6
CONTINUOUS
 10
-9.1681476394
 20
27.4280061483
 11
-8.6398804677
 21
28.0709583041
  0
LINE
  5
2D5
100
AcDbEntity
  8
RACCORDO
100
AcDbLine
 62
7
  6
CONTINUOUS
 10
-9.1681476394
 20
27.338475682
 11
-8.6245198953
 21
28.0001231375
  0
LWPOLYLINE
  5
2D6
100
AcDbEntity
  8
0
100
AcDbPolyline
 62
7
  6
CONTINUOUS
 90
5
 70
0
 10
-21.002178164
 20
13.0487542801
 10
-20.9916899882
 20
13.0570470146
 10
-20.9804442104
 20
13.0657540719
 10
-20.9684071922
 20
13.074754179
 10
-20.9556149461
 20
13.0839643387
  0
LWPOLYLINE
  5
2D7
100
AcDbEntity
  8
0
100
AcDbPolyline
 62
7
  6
CONTINUOUS
 90
3
 70
0
 10
-26.2703149124
 20
13.4314866467
 10
-26.2889029438
 20
13.4193568968
 10
-26.3238494373
 20
13.3961222453
  0
LWPOLYLINE
  5
2D8
100
AcDbEntity
  8
0
100
AcDbPolyline
 62
7
  6
CONTINUOUS
 90
3
 70
0
 10
-26.2104031748
 20
13.4694753792
 10
-26.2310004547
 20
13.456568314
 10
-26.2703149124
 20
13.4314866467
  0
LWPOLYLINE
  5
2D9
100
AcDbEntity
  8
0
100
AcDbPolyline
 62
7
  6
CONTINUOUS
 90
3
 70
0
 10
-26.1452508883
 20
13.5091411704
 10
-26.1674687341
 20
13.4957843637
 10
-26.2104031748
 20
13.4694753792
  0
LWPOLYLINE
  5
2DA
100
AcDbEntity
  8
0
100
AcDbPolyline
 62
7
  6
CONTINUOUS
 90
17
 70
0
 10
-23.3733222124
 20
16.0350408335
 10
-23.3636402837
 20
16.0407277295
 10
-23.3441851376
 20
16.0540585128
 10
-23.3260374438
 20
16.0691956462
 10
-23.309332268
 20
16.086053975
 10
-23.2942322391
 20
16.1045130978
 10
-23.2809088803
 20
16.1244115482
 10
-23.2695046435
 20
16.1455893434
 10
-23.2601500582
 20
16.1678703383
 10
-23.2529644408
 20
16.1910509206
 10
-23.248046365
 20
16.2149082112
 10
-23.2454677614
 20
16.2392304161
 10
-23.245281759
 20
16.2637741478
 10
-23.2475085224
 20
16.2882544512
 10
-23.2521327822
 20
16.3124144006
 10
-23.2591172827
 20
16.3360267525
 10
-23.2671322117
 20
16.3560888931
  0
LWPOLYLINE
  5
2DB
100
AcDbEntity
  8
0
100
AcDbPolyline
 62
7
  6
CONTINUOUS
 90
3
 70
0
 10
-26.0762561866
 20
13.5493257859
 10
-26.0995868134
 20
13.5359230658
 10
-26.1452508883
 20
13.5091411704
  0
LINE
  5
2DC
100
AcDbEntity
  8
0
100
AcDbLine
 62
7
  6
CONTINUOUS
 10
-24.1444912575
 20
15.6051364142
 11
-23.3733849143
 21
16.0350058806
  0
LINE
  5
2DD
100
AcDbEntity
  8
0
100
AcDbLine
 62
253
  6
CONTINUOUS
 10
-24.179206644
 20
15.849087275
 11
-23.3480168555
 21
16.3085426439
  0
LWPOLYLINE
  5
2DE
100
AcDbEntity
  8
0
100
AcDbPolyline
 62
253
  6
CONTINUOUS
 90
16
 70
0
 10
-25.0135055333
 20
15.4682526962
 10
-25.0368102189
 20
15.4555765905
 10
-25.0614858187
 20
15.4444107643
 10
-25.0873558489
 20
15.4337504795
 10
-25.1140174341
 20
15.4219361234
 10
-25.1415912753
 20
15.4089171153
 10
-25.1702022019
 20
15.3965688486
 10
-25.1987403559
 20
15.3846407204
 10
-25.2265567798
 20
15.3720797924
 10
-25.254203789
 20
15.3602267749
 10
-25.2812423438
 20
15.3491453655
 10
-25.3068998922
 20
15.3381839622
 10
-25.3314104536
 20
15.3281637811
 10
-25.3545698501
 20
15.3193165053
 10
-25.3757228332
 20
15.3111196264
 10
-25.3945151027
 20
15.303414417
  0
LINE
  5
2DF
100
AcDbEntity
  8
0
100
AcDbLine
 62
253
  6
CONTINUOUS
 10
-23.3302455985
 20
16.3180631177
 11
-23.3480171445
 21
16.3085432855
  0
LWPOLYLINE
  5
2E0
100
AcDbEntity
  8
0
100
AcDbPolyline
 62
253
  6
CONTINUOUS
 90
16
 70
0
 10
-25.0600920949
 20
15.1315089882
 10
-25.0485594416
 20
15.1375140651
 10
-25.0331407877
 20
15.1486465834
 10
-25.019344547
 20
15.1625702371
 10
-25.0073206731
 20
15.1791336877
 10
-24.9971998551
 20
15.1981569049
 10
-24.9890920977
 20
15.2194331223
 10
-24.9830855253
 20
15.2427310857
 10
-24.9792454243
 20
15.267797566
 10
-24.9776135333
 20
15.2943601119
 10
-24.9782075895
 20
15.3221300113
 10
-24.9810211362
 20
15.3508054289
 10
-24.9860235922
 20
15.3800746874
 10
-24.9931605852
 20
15.409619655
 10
-25.0023545424
 20
15.4391192029
 10
-25.0135055333
 20
15.4682526962
  0
LINE
  5
2E1
100
AcDbEntity
  8
0
100
AcDbLine
 62
7
  6
CONTINUOUS
 10
-25.9628406817
 20
13.6099973325
 11
-25.1134055552
 21
14.0379900084
  0
LINE
  5
2E2
100
AcDbEntity
  8
RACCORDO
100
AcDbLine
 62
7
  6
CONTINUOUS
 10
-22.6931843914
 20
17.484456532
 11
-23.519999887
 21
17.0710487842
  0
LINE
  5
2E3
100
AcDbEntity
  8
0
100
AcDbLine
 62
7
  6
CONTINUOUS
 10
-22.8725056042
 20
17.1508801668
 11
-23.4581911206
 21
16.8580374086
  0
LINE
  5
2E4
100
AcDbEntity
  8
0
100
AcDbLine
 62
7
  6
CONTINUOUS
 10
-24.2772743345
 20
14.444630166
 11
-25.1052860452
 21
14.0339302534
  0
LWPOLYLINE
  5
2E5
100
AcDbEntity
  8
0
100
AcDbPolyline
 62
7
  6
CONTINUOUS
 90
5
 70
0
 10
-25.9628406817
 20
13.6099973325
 10
-25.9844673586
 20
13.5994031992
 10
-26.0067118791
 20
13.587742632
 10
-26.0294394438
 20
13.5752980985
 10
-26.0762561866
 20
13.5493257859
  0
LINE
  5
2E6
100
AcDbEntity
  8
0
100
AcDbLine
 62
7
  6
CONTINUOUS
 10
-24.2772743345
 20
14.444630166
 11
-24.247858665
 21
14.458216773
  0
LINE
  5
2E7
100
AcDbEntity
  8
0
100
AcDbLine
 62
253
  6
CONTINUOUS
 10
-24.1776524499
 20
15.8455385193
 11
-25.013504817
 21
15.4682523994
  0
LWPOLYLINE
  5
2E8
100
AcDbEntity
  8
0
100
AcDbPolyline
 62
7
  6
CONTINUOUS
 90
7
 70
0
 10
-24.247858665
 20
14.458216773
 10
-24.2364357045
 20
14.4633257929
 10
-24.227117426
 20
14.4669375647
 10
-24.2197602068
 20
14.4691281626
 10
-24.2141926035
 20
14.4703845182
 10
-24.2103098797
 20
14.4706806411
 10
-24.2083217059
 20
14.4701047207
  0
LINE
  5
2E9
100
AcDbEntity
  8
0
100
AcDbLine
 62
7
  6
CONTINUOUS
 10
-25.0600920949
 20
15.1315089882
 11
-24.2189161055
 21
15.5069014943
  0
LWPOLYLINE
  5
2EA
100
AcDbEntity
  8
0
100
AcDbPolyline
 62
7
  6
CONTINUOUS
 90
10
 70
0
 10
-25.0600920963
 20
15.1315089875
 10
-25.0893744557
 20
15.1202319053
 10
-25.1199683485
 20
15.1120113278
 10
-25.1515783926
 20
15.1070292557
 10
-25.1844061893
 20
15.1054477332
 10
-25.2175803278
 20
15.1075098293
 10
-25.2494824192
 20
15.1130351821
 10
-25.2803204258
 20
15.1218686203
 10
-25.3101550076
 20
15.1339988092
 10
-25.3166881832
 20
15.1371705897
  0
LWPOLYLINE
  5
2EB
100
AcDbEntity
  8
RACCORDO
100
AcDbPolyline
 62
253
  6
CONTINUOUS
 90
3
 70
0
 10
23.113794722
 20
-28.8270035005
 10
23.1035752312
 20
-28.8226473544
 10
23.0905108904
 20
-28.818981606
  0
LWPOLYLINE
  5
2EC
100
AcDbEntity
  8
RACCORDO
100
AcDbPolyline
 62
253
  6
CONTINUOUS
 90
16
 70
0
 10
20.6978547635
 20
-30.1966389291
 10
20.7172260187
 20
-30.205363309
 10
20.7383091014
 20
-30.2130315612
 10
20.7608747274
 20
-30.2195602913
 10
20.7846774893
 20
-30.2248784977
 10
20.8094585254
 20
-30.2289283432
 10
20.8349483352
 20
-30.2316657848
 10
20.8608697098
 20
-30.233061052
 10
20.8869407473
 20
-30.2330989709
 10
20.9128779179
 20
-30.2317791291
 10
20.9383991476
 20
-30.2291158803
 10
20.9632268862
 20
-30.225138188
 10
20.987091125
 20
-30.2198893107
 10
21.009732334
 20
-30.2134263314
 10
21.0309042836
 20
-30.2058195368
 10
21.0503767231
 20
-30.1971516529
  0
LINE
  5
2ED
100
AcDbEntity
  8
RACCORDO
100
AcDbLine
 62
7
  6
CONTINUOUS
 10
19.4378433801
 20
-30.0093389734
 11
20.7628280599
 21
-30.6718313133
  0
LINE
  5
2EE
100
AcDbEntity
  8
RACCORDO
100
AcDbLine
 62
253
  6
CONTINUOUS
 10
19.3728700837
 20
-29.8741205233
 11
20.6978547635
 21
-30.5366128632
  0
LINE
  5
2EF
100
AcDbEntity
  8
RACCORDO
100
AcDbLine
 62
253
  6
CONTINUOUS
 10
20.6978547635
 20
-30.1966389291
 11
19.4754513932
 21
-29.5854372439
  0
LINE
  5
2F0
100
AcDbEntity
  8
RACCORDO
100
AcDbLine
 62
253
  6
CONTINUOUS
 10
20.7862431111
 20
-29.9649447553
 11
19.7754084833
 21
-29.4595274413
  0
LINE
  5
2F1
100
AcDbEntity
  8
RACCORDO
100
AcDbLine
 62
7
  6
CONTINUOUS
 10
20.9237723433
 20
-28.9774909378
 11
21.4085611432
 21
-29.2198853378
  0
LWPOLYLINE
  5
2F2
100
AcDbEntity
  8
RACCORDO
100
AcDbPolyline
 62
253
  6
CONTINUOUS
 90
8
 70
0
 10
19.3728700837
 20
-29.8741205233
 10
19.3554213238
 20
-29.8644348957
 10
19.3400848194
 20
-29.8538933543
 10
19.3270273592
 20
-29.8426105413
 10
19.3163909465
 20
-29.8307091604
 10
19.3082912554
 20
-29.8183186423
 10
19.3028163722
 20
-29.8055737375
 10
19.3000258378
 20
-29.7926130501
  0
LWPOLYLINE
  5
2F3
100
AcDbEntity
  8
0
100
AcDbPolyline
 62
7
  6
CONTINUOUS
 90
13
 70
0
 10
-24.2551043365
 20
2.5836930879
 10
-24.2381682955
 20
2.5638677249
 10
-24.2221719338
 20
2.542657842
 10
-24.2070816092
 20
2.5200530434
 10
-24.1932268756
 20
2.4964595649
 10
-24.1805857368
 20
2.4717566029
 10
-24.1691801891
 20
2.4460649611
 10
-24.1594057747
 20
2.4201532863
 10
-24.1513391056
 20
2.3939897209
 10
-24.1449035698
 20
2.3676061226
 10
-24.140264874
 20
2.3418667109
 10
-24.137493873
 20
2.316911147
 10
-24.1365197121
 20
2.2925997698
  0
LWPOLYLINE
  5
2F4
100
AcDbEntity
  8
0
100
AcDbPolyline
 62
253
  6
CONTINUOUS
 90
16
 70
0
 10
-25.3945151027
 20
1.8807241936
 10
-25.3757227234
 20
1.8568578942
 10
-25.3545696476
 20
1.8345998779
 10
-25.3314101744
 20
1.8141063248
 10
-25.30689955
 20
1.7953398567
 10
-25.2812419532
 20
1.7785425657
 10
-25.2542033676
 20
1.7642116018
 10
-25.2265563424
 20
1.7521358054
 10
-25.198739916
 20
1.7424088587
 10
-25.1702017744
 20
1.7357622044
 10
-25.1415908945
 20
1.7316927051
 10
-25.1140171117
 20
1.7299944539
 10
-25.0873555592
 20
1.7314506608
 10
-25.0614855603
 20
1.7359597505
 10
-25.0368100458
 20
1.7427665329
 10
-25.0135055333
 20
1.7516850225
  0
LWPOLYLINE
  5
2F5
100
AcDbEntity
  8
0
100
AcDbPolyline
 62
253
  6
CONTINUOUS
 90
8
 70
0
 10
-21.979082066
 20
0.1270122698
 10
-21.9786323986
 20
0.126425225
 10
-21.9753828016
 20
0.1256121555
 10
-21.969546842
 20
0.1266627644
 10
-21.9608004538
 20
0.1288008589
 10
-21.9491540474
 20
0.1318916397
 10
-21.935092754
 20
0.1365426737
 10
-21.918931483
 20
0.1429323838
  0
LWPOLYLINE
  5
2F6
100
AcDbEntity
  8
0
100
AcDbPolyline
 62
253
  6
CONTINUOUS
 90
8
 70
0
 10
-23.3881823024
 20
2.965547498
 10
-23.3709983444
 20
2.9409651432
 10
-23.3556472045
 20
2.9148239686
 10
-23.3423556609
 20
2.8875101502
 10
-23.3313200657
 20
2.859427187
 10
-23.3227034444
 20
2.8309899406
 10
-23.316633088
 20
2.8026185061
 10
-23.313198672
 20
2.7747320066
  0
LWPOLYLINE
  5
2F7
100
AcDbEntity
  8
0
100
AcDbPolyline
 62
7
  6
CONTINUOUS
 90
6
 70
0
 10
-22.9400486737
 20
-0.7016009546
 10
-23.0274390621
 20
-0.5599737086
 10
-23.1100843283
 20
-0.4145349989
 10
-23.1876742489
 20
-0.2658069851
 10
-23.2598992805
 20
-0.1143668741
 10
-23.3264944309
 20
0.0392374047
  0
LINE
  5
2F8
100
AcDbEntity
  8
0
100
AcDbLine
 62
7
  6
CONTINUOUS
 10
-21.9804101839
 20
0.1299226272
 11
-21.946536586
 21
0.0552045638
  0
LWPOLYLINE
  5
2F9
100
AcDbEntity
  8
0
100
AcDbPolyline
 62
253
  6
CONTINUOUS
 90
66
 70
0
 10
-21.9189583325
 20
0.1429458085
 10
-21.8784843357
 20
0.0534078253
 10
-21.8397885454
 20
-0.0370807478
 10
-21.8028701977
 20
-0.1285195119
 10
-21.7675997474
 20
-0.2212256301
 10
-21.7341050773
 20
-0.3148810711
 10
-21.7027718747
 20
-0.4085328055
 10
-21.6736992577
 20
-0.5020009824
 10
-21.6467871546
 20
-0.5954649513
 10
-21.6221229679
 20
-0.6885107432
 10
-21.5997539752
 20
-0.7808668547
 10
-21.5796323
 20
-0.8728044713
 10
-21.5617026039
 20
-0.9647236517
 10
-21.5459060247
 20
-1.0563870675
 10
-21.5323004515
 20
-1.1480315329
 10
-21.5210049035
 20
-1.240767919
 10
-21.5118396707
 20
-1.3345862982
 10
-21.5049821723
 20
-1.4294953938
 10
-21.5010857115
 20
-1.5266333153
 10
-21.4999257957
 20
-1.626373117
 10
-21.5017225914
 20
-1.7283394711
 10
-21.5077950778
 20
-1.8325472255
 10
-21.5180682209
 20
-1.9396605101
 10
-21.5326111413
 20
-2.049012081
 10
-21.5529592986
 20
-2.1586198534
 10
-21.5793291742
 20
-2.2689495481
 10
-21.6114994774
 20
-2.3795328987
 10
-21.6503519174
 20
-2.4869883651
 10
-21.6962453906
 20
-2.5912392251
 10
-21.7488205845
 20
-2.6923619588
 10
-21.8078864818
 20
-2.7872072427
 10
-21.873719281
 20
-2.8753888907
 10
-21.9460472259
 20
-2.9572954102
 10
-22.0238614257
 20
-3.0309416589
 10
-22.1072259695
 20
-3.0959291831
 10
-22.1960840004
 20
-3.1526602419
 10
-22.2892474847
 20
-3.2003519682
 10
-22.3866475123
 20
-3.2388007754
 10
-22.4883604101
 20
-3.2682141657
 10
-22.5934167125
 20
-3.2884262842
 10
-22.7018251655
 20
-3.2993793503
 10
-22.8135831441
 20
-3.3011343838
 10
-22.9277041
 20
-3.2937037169
 10
-23.0442620381
 20
-3.2770065797
 10
-23.1631872617
 20
-3.2511260256
 10
-23.2832773367
 20
-3.216319947
 10
-23.4045252477
 20
-3.1725055471
 10
-23.5269400854
 20
-3.1197667238
 10
-23.6493430321
 20
-3.0586111225
 10
-23.771689388
 20
-2.9890057275
 10
-23.8940234354
 20
-2.9109833329
 10
-24.0152992135
 20
-2.8251499732
 10
-24.1356002837
 20
-2.7313653387
 10
-24.2548401806
 20
-2.6297681987
 10
-24.3717173899
 20
-2.5213829331
 10
-24.4863643042
 20
-2.4058650622
 10
-24.5986433955
 20
-2.283556345
 10
-24.7068482682
 20
-2.1565105205
 10
-24.8108980131
 20
-2.0244480429
 10
-24.9108673494
 20
-1.8876451849
 10
-25.0052844845
 20
-1.7489900297
 10
-25.0938709824
 20
-1.6084852772
 10
-25.176900137
 20
-1.4661255174
 10
-25.2537301695
 20
-1.32478795
 10
-25.324072063
 20
-1.1846914107
 10
-25.3882123531
 20
-1.0456157663
  0
LWPOLYLINE
  5
2FA
100
AcDbEntity
  8
0
100
AcDbPolyline
 62
253
  6
CONTINUOUS
 90
65
 70
0
 10
-25.3944882684
 20
15.3034010299
 10
-25.4331761347
 20
15.3938320583
 10
-25.4700187927
 20
15.4852471825
 10
-25.5050154785
 20
15.5776467675
 10
-25.5382873931
 20
15.6713521502
 10
-25.5697116732
 20
15.7660427879
 10
-25.5989217677
 20
15.860756078
 10
-25.6258211644
 20
15.9553108651
 10
-25.650505422
 20
16.0498887567
 10
-25.6728965965
 20
16.1440710547
 10
-25.6929538245
 20
16.2375830486
 10
-25.7107173704
 20
16.3306997298
 10
-25.7262309711
 20
16.4238269579
 10
-25.7395603198
 20
16.5167239889
 10
-25.7506387503
 20
16.6096320257
 10
-25.7593106912
 20
16.7036802154
 10
-25.7657565787
 20
16.7988582673
 10
-25.7697936859
 20
16.8951775584
 10
-25.770720287
 20
16.9938004098
 10
-25.7687483793
 20
17.0951061233
 10
-25.7636616396
 20
17.1987174494
 10
-25.7541145483
 20
17.3046625062
 10
-25.7401558186
 20
17.4136185841
 10
-25.721730824
 20
17.5249111921
 10
-25.6973392841
 20
17.6365406558
 10
-25.6667403805
 20
17.7489848644
 10
-25.6301701223
 20
17.8617681926
 10
-25.586846378
 20
17.9714593111
 10
-25.5364061816
 20
18.0779835327
 10
-25.4792120831
 20
18.1814157187
 10
-25.4155748119
 20
18.2785466895
 10
-25.3452319323
 20
18.3689833778
 10
-25.2684503224
 20
18.4531167297
 10
-25.1863387407
 20
18.5289116694
 10
-25.0988547338
 20
18.5959589251
 10
-25.0060479874
 20
18.6546643418
 10
-24.9091677453
 20
18.7042144469
 10
-24.8083002049
 20
18.7443970105
 10
-24.7033665855
 20
18.7754207617
 10
-24.5953693755
 20
18.7971033339
 10
-24.4843085863
 20
18.8093825682
 10
-24.3701903275
 20
18.8123177417
 10
-24.2540262082
 20
18.8059086565
 10
-24.1357488161
 20
18.7900712463
 10
-24.0154298717
 20
18.7648875527
 10
-23.8942893504
 20
18.7306066971
 10
-23.772340406
 20
18.687142814
 10
-23.6495719602
 20
18.6345807947
 10
-23.5271670974
 20
18.5734261515
 10
-23.4051728327
 20
18.5036447108
 10
-23.2835417334
 20
18.4252708423
 10
-23.1633145975
 20
18.3389131614
 10
-23.0444094153
 20
18.244430583
 10
-22.9269052923
 20
18.141965556
 10
-22.812084185
 20
18.0325522394
 10
-22.6998202754
 20
17.9158428661
 10
-22.5902342461
 20
17.7921876179
 10
-22.4849778037
 20
17.6636675783
 10
-22.3841387109
 20
17.5299997746
 10
-22.2876230152
 20
17.3914700964
 10
-22.1968110103
 20
17.251012376
 10
-22.1119813738
 20
17.1086291928
 10
-22.0328502861
 20
16.9643203996
 10
-21.9599567148
 20
16.8210146015
 10
-21.8935843445
 20
16.6789333006
  0
LWPOLYLINE
  5
2FB
100
AcDbEntity
  8
0
100
AcDbPolyline
 62
7
  6
CONTINUOUS
 90
27
 70
0
 10
-21.946536586
 20
0.0552045638
 10
-21.8849570469
 20
-0.0903896355
 10
-21.8291961164
 20
-0.2358524252
 10
-21.7793642693
 20
-0.3804653404
 10
-21.7354064183
 20
-0.5239034498
 10
-21.6971773084
 20
-0.6662290562
 10
-21.6647036693
 20
-0.8069715965
 10
-21.6379918407
 20
-0.9456641798
 10
-21.6169510442
 20
-1.0823668825
 10
-21.6015993906
 20
-1.2166299711
 10
-21.5919286189
 20
-1.3480002726
 10
-21.5879041329
 20
-1.4764684285
 10
-21.5895217973
 20
-1.601583136
 10
-21.596755806
 20
-1.7228719512
 10
-21.6095863258
 20
-1.8402058271
 10
-21.6279789593
 20
-1.9531497731
 10
-21.651849108
 20
-2.0611750557
 10
-21.6811019446
 20
-2.1639200981
 10
-21.7156053116
 20
-2.2609334355
 10
-21.7551727606
 20
-2.351786958
 10
-21.799592755
 20
-2.4361236114
 10
-21.8485778191
 20
-2.5135250666
 10
-21.9019236455
 20
-2.5838515527
 10
-21.9596134738
 20
-2.647167852
 10
-22.0213755577
 20
-2.7031933598
 10
-22.0871985281
 20
-2.7519701032
 10
-22.1560973375
 20
-2.7929612517
  0
LWPOLYLINE
  5
2FC
100
AcDbEntity
  8
0
100
AcDbPolyline
 62
7
  6
CONTINUOUS
 90
7
 70
0
 10
-24.1576216763
 20
15.7946957962
 10
-24.1500722573
 20
15.7693745639
 10
-24.1441306667
 20
15.743916615
 10
-24.1398330545
 20
15.718525419
 10
-24.1372878716
 20
15.6938113837
 10
-24.1365192262
 20
15.6698158033
 10
-24.1375030101
 20
15.6464973837
  0
LWPOLYLINE
  5
2FD
100
AcDbEntity
  8
0
100
AcDbPolyline
 62
253
  6
CONTINUOUS
 90
9
 70
0
 10
-23.2671315036
 20
16.3560873214
 10
-23.2670759227
 20
16.3556875975
 10
-23.2679526859
 20
16.3540330801
 10
-23.2705582139
 20
16.3516498004
 10
-23.2750217392
 20
16.3484845638
 10
-23.2814283532
 20
16.3442551457
 10
-23.2900931106
 20
16.3389995498
 10
-23.3011596005
 20
16.3329811705
 10
-23.3302455985
 20
16.3180631177
  0
LWPOLYLINE
  5
2FE
100
AcDbEntity
  8
0
100
AcDbPolyline
 62
253
  6
CONTINUOUS
 90
10
 70
0
 10
-15.2783729088
 20
6.0721433705
 10
-15.2773586638
 20
6.0456835806
 10
-15.2740651459
 20
6.0206378966
 10
-15.2685279132
 20
5.9972767217
 10
-15.2608067481
 20
5.9758522729
 10
-15.2509850112
 20
5.956595857
 10
-15.2391687422
 20
5.9397153742
 10
-15.2254855141
 20
5.925393073
 10
-15.2100830568
 20
5.9137835827
 10
-15.2004759529
 20
5.90836839
  0
LWPOLYLINE
  5
2FF
100
AcDbEntity
  8
0
100
AcDbPolyline
 62
253
  6
CONTINUOUS
 90
16
 70
0
 10
-15.2783729088
 20
0.9234124222
 10
-15.2773586592
 20
0.9508865164
 10
-15.2740651286
 20
0.9792257706
 10
-15.2685278779
 20
1.0081242211
 10
-15.2608066919
 20
1.0372698669
 10
-15.2509849341
 20
1.0663480391
 10
-15.2391686461
 20
1.0950447987
 10
-15.2254854035
 20
1.1230503237
 10
-15.2100829376
 20
1.1500622562
 10
-15.1931275399
 20
1.1757889675
 10
-15.1748022689
 20
1.1999527026
 10
-15.1553049721
 20
1.222292582
 10
-15.1348461483
 20
1.2425674193
 10
-15.1136466782
 20
1.260558321
 10
-15.0919354405
 20
1.2760710507
 10
-15.069946838
 20
1.2889381281
  0
LWPOLYLINE
  5
300
100
AcDbEntity
  8
0
100
AcDbPolyline
 62
253
  6
CONTINUOUS
 90
22
 70
0
 10
-15.1960355595
 20
5.857491404
 10
-15.2117827248
 20
5.7415782134
 10
-15.2220968076
 20
5.6227960882
 10
-15.2270398156
 20
5.5014863948
 10
-15.2266830319
 20
5.3780785684
 10
-15.2211644607
 20
5.253691656
 10
-15.2106739605
 20
5.1287004753
 10
-15.1954156152
 20
5.0035292885
 10
-15.1757543803
 20
4.8794194907
 10
-15.1520222083
 20
4.7568304613
 10
-15.1245188523
 20
4.636007687
 10
-15.0937225373
 20
4.5178599611
 10
-15.060046449
 20
4.4028158636
 10
-15.0238052493
 20
4.2909477435
 10
-14.9853885553
 20
4.1825796413
 10
-14.9451774903
 20
4.0779737673
 10
-14.9034613873
 20
3.9771513454
 10
-14.8604679768
 20
3.8800288294
 10
-14.8164846628
 20
3.7866919166
 10
-14.771772143
 20
3.6971753351
 10
-14.7264676922
 20
3.6112935724
 10
-14.6807558291
 20
3.5289909949
  0
LINE
  5
301
100
AcDbEntity
  8
0
100
AcDbLine
 62
7
  6
CONTINUOUS
 10
-15.1503880328
 20
5.854775073
 11
-15.1462494179
 21
5.8812550944
  0
LINE
  5
302
100
AcDbEntity
  8
0
100
AcDbLine
 62
253
  6
CONTINUOUS
 10
-15.1869360561
 20
5.9058189903
 11
-15.1960355595
 21
5.857491404
  0
LINE
  5
303
100
AcDbEntity
  8
RACCORDO
100
AcDbLine
 62
7
  6
CONTINUOUS
 10
-21.1624223485
 20
2.0369756101
 11
-22.3176764879
 21
-0.2878970515
  0
LINE
  5
304
100
AcDbEntity
  8
0
100
AcDbLine
 62
253
  6
CONTINUOUS
 10
-23.3359530021
 20
2.6564067414
 11
-23.3480171445
 21
2.6394176211
  0
LWPOLYLINE
  5
305
100
AcDbEntity
  8
0
100
AcDbPolyline
 62
7
  6
CONTINUOUS
 90
3
 70
0
 10
-23.3627180366
 20
2.5952624571
 10
-23.2878134753
 20
2.6956381567
 10
-23.2747401596
 20
2.7173075209
  0
LWPOLYLINE
  5
306
100
AcDbEntity
  8
0
100
AcDbPolyline
 62
7
  6
CONTINUOUS
 90
44
 70
0
 10
-24.1776524498
 20
2.1581203822
 10
-24.2442155137
 20
2.0726972518
 10
-24.3043529737
 20
1.9802639772
 10
-24.3580648298
 20
1.8808205583
 10
-24.4055038605
 20
1.7739430108
 10
-24.4465172873
 20
1.6600553191
 10
-24.4806467748
 20
1.5404294361
 10
-24.5078151368
 20
1.4150011477
 10
-24.5280995593
 20
1.283834668
 10
-24.541273266
 20
1.1483945916
 10
-24.5472565554
 20
1.0086327912
 10
-24.5461291289
 20
0.8645973941
 10
-24.5379033138
 20
0.7178973763
 10
-24.5224995531
 20
0.5685030581
 10
-24.4999974037
 20
0.4164441191
 10
-24.4706478639
 20
0.2634185745
 10
-24.4343741073
 20
0.1094152973
 10
-24.3912529602
 20
-0.0455545856
 10
-24.3417659001
 20
-0.199759679
 10
-24.2858416289
 20
-0.3531912031
 10
-24.2235514446
 20
-0.5058579376
 10
-24.1555907192
 20
-0.6560548276
 10
-24.0818957498
 20
-0.8037544588
 10
-24.0025302394
 20
-0.9489842453
 10
-23.9183806682
 20
-1.0901213747
 10
-23.8293934886
 20
-1.2271198107
 10
-23.7356222483
 20
-1.3600255896
 10
-23.63811407
 20
-1.4873540072
 10
-23.5368269088
 20
-1.6090427217
 10
-23.4318028097
 20
-1.7251540748
 10
-23.3242150309
 20
-1.8343903875
 10
-23.2140348727
 20
-1.9366745175
 10
-23.101291035
 20
-2.0320836071
 10
-22.9872428751
 20
-2.1195514044
 10
-22.8718754051
 20
-2.1989890136
 10
-22.7552036131
 20
-2.2704853304
 10
-22.638531821
 20
-2.3332407898
 10
-22.521860029
 20
-2.3871571225
 10
-22.4051882369
 20
-2.4323325977
 10
-22.2898207669
 20
-2.4682624585
 10
-22.1757726071
 20
-2.4948428211
 10
-22.0630287693
 20
-2.5121775692
 10
-21.9528486111
 20
-2.5200735974
 10
-21.8523774044
 20
-2.5185341084
  0
LWPOLYLINE
  5
307
100
AcDbEntity
  8
0
100
AcDbPolyline
 62
253
  6
CONTINUOUS
 90
53
 70
0
 10
-23.3480168555
 20
2.6394179736
 10
-23.3810409365
 20
2.597325474
 10
-23.4130696846
 20
2.5527038454
 10
-23.4440115159
 20
2.5055126026
 10
-23.4738772968
 20
2.4555323727
 10
-23.5024552828
 20
2.4029005234
 10
-23.5293721035
 20
2.3481808848
 10
-23.5545488469
 20
2.2915012908
 10
-23.577988744
 20
2.2328195075
 10
-23.5995306548
 20
2.1725431297
 10
-23.6191206118
 20
2.1109163742
 10
-23.6368167732
 20
2.0478577663
 10
-23.6526503779
 20
1.983309525
 10
-23.6665727394
 20
1.9175429394
 10
-23.6786277528
 20
1.8504329372
 10
-23.688914281
 20
1.7812719603
 10
-23.697345444
 20
1.7102775706
 10
-23.7038850931
 20
1.6372995538
 10
-23.708534142
 20
1.5609687754
 10
-23.7111116201
 20
1.481259528
 10
-23.7114329829
 20
1.3981679282
 10
-23.7092549837
 20
1.3102448717
 10
-23.704245438
 20
1.217249579
 10
-23.6960792661
 20
1.1193782779
 10
-23.6843109141
 20
1.0157862823
 10
-23.6684583333
 20
0.9061396351
 10
-23.6481254111
 20
0.7908816656
 10
-23.6229293466
 20
0.6703785049
 10
-23.5923606819
 20
0.5444424927
 10
-23.5560875816
 20
0.4137103983
 10
-23.5141731948
 20
0.2798837148
 10
-23.4663467502
 20
0.1432228538
 10
-23.4124374738
 20
0.0042743534
 10
-23.3530212519
 20
-0.1347925612
 10
-23.2881984367
 20
-0.273364667
 10
-23.2179581828
 20
-0.4111117143
 10
-23.143051225
 20
-0.5463629141
 10
-23.0638517758
 20
-0.6784305757
 10
-22.9804482283
 20
-0.8071559335
 10
-22.8933423135
 20
-0.931767676
 10
-22.8029378053
 20
-1.0517493238
 10
-22.7094241845
 20
-1.1669080443
 10
-22.6130207306
 20
-1.2770029696
 10
-22.5140275219
 20
-1.3817085044
 10
-22.4127576043
 20
-1.480710169
 10
-22.3094470456
 20
-1.5737846723
 10
-22.2043792884
 20
-1.6606713231
 10
-22.0979102916
 20
-1.7410705125
 10
-21.9903886819
 20
-1.8147196391
 10
-21.8821741195
 20
-1.8813781162
 10
-21.7735716557
 20
-1.9408637665
 10
-21.6648513187
 20
-1.9930249725
 10
-21.6391298382
 20
-2.0036135072
  0
LINE
  5
308
100
AcDbEntity
  8
0
100
AcDbLine
 62
253
  6
CONTINUOUS
 10
-23.302393683
 20
2.6761437315
 11
-23.3018082118
 21
2.6768531553
  0
LINE
  5
309
100
AcDbEntity
  8
RACCORDO
100
AcDbLine
 62
253
  6
CONTINUOUS
 10
22.651657514
 20
-28.5995549178
 11
23.0905108904
 21
-28.818981606
  0
LINE
  5
30A
100
AcDbEntity
  8
RACCORDO
100
AcDbLine
 62
7
  6
CONTINUOUS
 10
22.651657514
 20
-28.5959347683
 11
23.1139259416
 21
-28.8270689821
  0
LINE
  5
30B
100
AcDbEntity
  8
RACCORDO
100
AcDbLine
 62
253
  6
CONTINUOUS
 10
23.1085684373
 20
-28.8294952316
 11
23.0905108904
 21
-28.818981606
  0
LINE
  5
30C
100
AcDbEntity
  8
0
100
AcDbLine
 62
253
  6
CONTINUOUS
 10
-23.376920524
 20
16.3740805597
 11
-23.3480168555
 21
16.3085426439
  0
LWPOLYLINE
  5
30D
100
AcDbEntity
  8
0
100
AcDbPolyline
 62
7
  6
CONTINUOUS
 90
17
 70
0
 10
-23.2671332806
 20
16.3560912779
 10
-23.3278975107
 20
16.4971271816
 10
-23.3836765798
 20
16.6394062088
 10
-23.4343036211
 20
16.782471114
 10
-23.4796360598
 20
16.9258768484
 10
-23.5195425452
 20
17.069150506
 10
-23.5539070934
 20
17.2117866421
 10
-23.5826475795
 20
17.3533125533
 10
-23.6057102586
 20
17.4932881494
 10
-23.6230586221
 20
17.6312503378
 10
-23.6346804405
 20
17.7667290951
 10
-23.64059295
 20
17.8993192194
 10
-23.640832273
 20
18.028645268
 10
-23.635457669
 20
18.1542309627
 10
-23.6245509356
 20
18.2757380235
 10
-23.6081867245
 20
18.3929679661
 10
-23.59244868
 20
18.4745538613
  0
LWPOLYLINE
  5
30E
100
AcDbEntity
  8
0
100
AcDbPolyline
 62
253
  6
CONTINUOUS
 90
37
 70
0
 10
-25.013504817
 20
15.4682523994
 10
-25.0481399871
 20
15.5495677429
 10
-25.0812463094
 20
15.6319356532
 10
-25.1127555723
 20
15.7152773369
 10
-25.1426677127
 20
15.7997095256
 10
-25.1708387772
 20
15.8849479891
 10
-25.1970257585
 20
15.9703020064
 10
-25.2211581706
 20
16.0555092358
 10
-25.2432680913
 20
16.140642599
 10
-25.2633168849
 20
16.2255101626
 10
-25.2812442052
 20
16.3097699339
 10
-25.2971045562
 20
16.3935833748
 10
-25.3109951222
 20
16.4775085896
 10
-25.3228335031
 20
16.5611952167
 10
-25.3326152724
 20
16.6447981321
 10
-25.3404041131
 20
16.7295916367
 10
-25.3460400449
 20
16.8153170742
 10
-25.3493780976
 20
16.9019315999
 10
-25.3502535374
 20
16.9909238354
 10
-25.3483511862
 20
17.0821866947
 10
-25.343349718
 20
17.1752654776
 10
-25.334805687
 20
17.2709549638
 10
-25.3222043012
 20
17.3692079502
 10
-25.3051129938
 20
17.4690970844
 10
-25.2830934219
 20
17.5699559997
 10
-25.2555762804
 20
17.6715104886
 10
-25.2221780571
 20
17.7727001811
 10
-25.1829152083
 20
17.8717384601
 10
-25.1374761243
 20
17.9680504771
 10
-25.0856410718
 20
18.0608767814
 10
-25.0279512033
 20
18.1484662887
 10
-24.9644645504
 20
18.2302508227
 10
-24.8951533736
 20
18.3058216299
 10
-24.8208032008
 20
18.3740868475
 10
-24.7417721833
 20
18.4346734599
 10
-24.6581577537
 20
18.4874645617
 10
-24.5866722897
 20
18.5246250693
  0
LWPOLYLINE
  5
30F
100
AcDbEntity
  8
0
100
AcDbPolyline
 62
7
  6
CONTINUOUS
 90
3
 70
0
 10
-24.1776524498
 20
15.8455385193
 10
-24.1668150738
 20
15.8200837814
 10
-24.1576216763
 20
15.7946957962
  0
LWPOLYLINE
  5
310
100
AcDbEntity
  8
0
100
AcDbPolyline
 62
253
  6
CONTINUOUS
 90
14
 70
0
 10
-23.3480171445
 20
16.3085432855
 10
-23.3364395786
 20
16.2808494824
 10
-23.3266159107
 20
16.2528005068
 10
-23.3190198126
 20
16.2247960045
 10
-23.3143046347
 20
16.1971908918
 10
-23.3125219684
 20
16.1703736282
 10
-23.313198672
 20
16.1448136883
 10
-23.316580386
 20
16.120853413
 10
-23.3228054444
 20
16.0988087376
 10
-23.3313200657
 20
16.0791258665
 10
-23.3423221483
 20
16.061973897
 10
-23.355789981
 20
16.047575003
 10
-23.3709983444
 20
16.036380224
 10
-23.3733222124
 20
16.0350408335
  0
LWPOLYLINE
  5
311
100
AcDbEntity
  8
0
100
AcDbPolyline
 62
7
  6
CONTINUOUS
 90
22
 70
0
 10
-21.9229031872
 20
16.5820922734
 10
-21.8610364236
 20
16.4292632785
 10
-21.805096081
 20
16.2751202943
 10
-21.7552873338
 20
16.1203127974
 10
-21.7117756819
 20
15.9654647416
 10
-21.674683064
 20
15.811151271
 10
-21.6441042548
 20
15.6579613777
 10
-21.6201299163
 20
15.5066306379
 10
-21.6027624902
 20
15.3575951847
 10
-21.591987466
 20
15.2110285711
 10
-21.5878303638
 20
15.0675405374
 10
-21.5902811366
 20
14.9276959602
 10
-21.5993315173
 20
14.7916866001
 10
-21.6149561402
 20
14.6601031548
 10
-21.6370867275
 20
14.5335694933
 10
-21.6656715572
 20
14.4124372462
 10
-21.7005822729
 20
14.2973304388
 10
-21.7416482092
 20
14.1888155432
 10
-21.7887392258
 20
14.0872516885
 10
-21.8416488823
 20
13.9931282822
 10
-21.9000826363
 20
13.9069628573
 10
-21.9373260308
 20
13.8596629491
  0
LWPOLYLINE
  5
312
100
AcDbEntity
  8
0
100
AcDbPolyline
 62
7
  6
CONTINUOUS
 90
6
 70
0
 10
-14.6851406742
 20
5.6507007226
 10
-14.6794097569
 20
5.5560200887
 10
-14.666639328
 20
5.4273025699
 10
-14.6488069982
 20
5.2970075333
 10
-14.6259588944
 20
5.1654720137
 10
-14.5981541179
 20
5.0330362543
  0
LWPOLYLINE
  5
313
100
AcDbEntity
  8
0
100
AcDbPolyline
 62
7
  6
CONTINUOUS
 90
13
 70
0
 10
-13.2664118988
 20
0.1621390483
 10
-13.2658180854
 20
0.1419627261
 10
-13.2636223735
 20
0.1170707011
 10
-13.2600852368
 20
0.0919739696
 10
-13.2552293456
 20
0.0667656894
 10
-13.2490421623
 20
0.041561037
 10
-13.2417467917
 20
0.016463994
 10
-13.2333593444
 20
-0.0084627726
 10
-13.223888865
 20
-0.0331214344
 10
-13.2135423162
 20
-0.0573664974
 10
-13.2024040318
 20
-0.0811088396
 10
-13.1904379161
 20
-0.1043161022
 10
-13.1776734775
 20
-0.1269372934
  0
LINE
  5
314
100
AcDbEntity
  8
0
100
AcDbLine
 62
253
  6
CONTINUOUS
 10
-13.1813510945
 20
0.8151578114
 11
-13.1776734775
 21
-0.1269372934
  0
LINE
  5
315
100
AcDbEntity
  8
0
100
AcDbLine
 62
253
  6
CONTINUOUS
 10
-13.1833230686
 20
1.7175153133
 11
-13.1813510945
 21
0.8151578114
  0
LINE
  5
316
100
AcDbEntity
  8
0
100
AcDbLine
 62
253
  6
CONTINUOUS
 10
-13.1837953126
 20
2.5819084915
 11
-13.1833230686
 21
1.7175153133
  0
LINE
  5
317
100
AcDbEntity
  8
0
100
AcDbLine
 62
7
  6
CONTINUOUS
 10
-14.9664232452
 20
4.3496246432
 11
-14.9664232452
 21
4.9285337539
  0
LINE
  5
318
100
AcDbEntity
  8
DRAFT
100
AcDbLine
 62
253
  6
CONTINUOUS
 10
-14.860357228
 20
32.4432546599
 11
-14.860357228
 21
33.1061387167
  0
LINE
  5
319
100
AcDbEntity
  8
RACCORDO
100
AcDbLine
 62
253
  6
CONTINUOUS
 10
-14.6502880904
 20
28.5414773159
 11
-14.6502880904
 21
29.6220606267
  0
LINE
  5
31A
100
AcDbEntity
  8
DRAFT
100
AcDbLine
 62
7
  6
CONTINUOUS
 10
-14.1532504468
 20
33.4596921073
 11
-14.1532504468
 21
34.0122502966
  0
LINE
  5
31B
100
AcDbEntity
  8
RACCORDO
100
AcDbLine
 62
253
  6
CONTINUOUS
 10
-13.9452441711
 20
28.5630130792
 11
-13.9452441711
 21
29.7957400515
  0
LINE
  5
31C
100
AcDbEntity
  8
DRAFT
100
AcDbLine
 62
253
  6
CONTINUOUS
 10
-13.8194748242
 20
34.1755706518
 11
-13.8194748242
 21
35.4070824383
  0
LINE
  5
31D
100
AcDbEntity
  8
DRAFT
100
AcDbLine
 62
7
  6
CONTINUOUS
 10
-13.7996970562
 20
33.282915412
 11
-13.7996970562
 21
33.8354736013
  0
LINE
  5
31E
100
AcDbEntity
  8
RACCORDO
100
AcDbLine
 62
7
  6
CONTINUOUS
 10
-13.6941253169
 20
34.3246098752
 11
-13.6941253169
 21
35.5568786639
  0
LINE
  5
31F
100
AcDbEntity
  8
DRAFT
100
AcDbLine
 62
7
  6
CONTINUOUS
 10
-13.5875650218
 20
29.9750445963
 11
-13.5875650218
 21
28.762609031
  0
LINE
  5
320
100
AcDbEntity
  8
DRAFT
100
AcDbLine
 62
253
  6
CONTINUOUS
 10
-13.4461436656
 20
32.5824523266
 11
-13.4461436656
 21
33.1061387167
  0
LINE
  5
321
100
AcDbEntity
  8
RACCORDO
100
AcDbLine
 62
7
  6
CONTINUOUS
 10
-12.5201583744
 20
28.1037224087
 11
-12.5201583744
 21
27.7637484746
  0
LINE
  5
322
100
AcDbEntity
  8
RACCORDO
100
AcDbLine
 62
253
  6
CONTINUOUS
 10
-12.4469350697
 20
28.015334061
 11
-12.4469350697
 21
27.6753601269
  0
LINE
  5
323
100
AcDbEntity
  8
RACCORDO
100
AcDbLine
 62
7
  6
CONTINUOUS
 10
-11.8171654202
 20
26.8037712334
 11
-11.8171654202
 21
27.2577435002
  0
LINE
  5
324
100
AcDbEntity
  8
RACCORDO
100
AcDbLine
 62
253
  6
CONTINUOUS
 10
-11.7439421155
 20
26.7120577037
 11
-11.7439421155
 21
27.2211318479
  0
LINE
  5
325
100
AcDbEntity
  8
0
100
AcDbLine
 62
253
  6
CONTINUOUS
 10
-13.1829438029
 20
3.4132599251
 11
-13.1837953126
 21
2.5819084915
  0
LWPOLYLINE
  5
326
100
AcDbEntity
  8
0
100
AcDbPolyline
 62
7
  6
CONTINUOUS
 90
7
 70
0
 10
-13.269678417
 20
4.0215589791
 10
-13.2709580723
 20
3.4339698762
 10
-13.2715994705
 20
2.8467090863
 10
-13.2716026097
 20
2.2597776857
 10
-13.2709674882
 20
1.6731767559
 10
-13.2696941063
 20
1.0869073764
 10
-13.2663851072
 20
0.1621454659
  0
LINE
  5
327
100
AcDbEntity
  8
0
100
AcDbLine
 62
253
  6
CONTINUOUS
 10
-13.1808790349
 20
4.2253132649
 11
-13.1829438029
 21
3.4132599251
  0
LINE
  5
328
100
AcDbEntity
  8
0
100
AcDbLine
 62
7
  6
CONTINUOUS
 10
-13.2663887398
 20
4.9431443301
 11
-13.269678417
 21
4.0215589791
  0
LINE
  5
329
100
AcDbEntity
  8
0
100
AcDbLine
 62
253
  6
CONTINUOUS
 10
-13.1776734775
 20
5.0217936548
 11
-13.1808790349
 21
4.2253132649
  0
LWPOLYLINE
  5
32A
100
AcDbEntity
  8
RACCORDO
100
AcDbPolyline
 62
253
  6
CONTINUOUS
 90
16
 70
0
 10
-12.4469350697
 20
28.015334061
 10
-12.4460015822
 20
28.0380212778
 10
-12.4431953442
 20
28.0615018996
 10
-12.4385229266
 20
28.085533059
 10
-12.4320013292
 20
28.1098944843
 10
-12.4236843131
 20
28.134289208
 10
-12.4136863088
 20
28.158349098
 10
-12.4021354257
 20
28.1817758453
 10
-12.3891439175
 20
28.2043504066
 10
-12.3748477439
 20
28.2258346066
 10
-12.3593974925
 20
28.2459973914
 10
-12.34296451
 20
28.2646107496
 10
-12.3257344911
 20
28.2814627982
 10
-12.3078984023
 20
28.2963672534
 10
-12.289649267
 20
28.3091632948
 10
-12.2711868138
 20
28.319710876
  0
LWPOLYLINE
  5
32B
100
AcDbEntity
  8
RACCORDO
100
AcDbPolyline
 62
253
  6
CONTINUOUS
 90
16
 70
0
 10
-11.1219503899
 20
27.3528417211
 10
-11.1209829672
 20
27.3759451035
 10
-11.1180912873
 20
27.3997630407
 10
-11.1133069997
 20
27.4240348421
 10
-11.1066814811
 20
27.4484980613
 10
-11.0982877721
 20
27.4728817122
 10
-11.0882220484
 20
27.4969094795
 10
-11.0765996066
 20
27.5203129846
 10
-11.0635467456
 20
27.5428438268
 10
-11.0492015872
 20
27.5642655336
 10
-11.0336963191
 20
27.5843737123
 10
-11.017221632
 20
27.6029145775
 10
-11.00003125
 20
27.619619106
 10
-10.9823456162
 20
27.634309817
 10
-10.9643373914
 20
27.6468786297
 10
-10.9462021339
 20
27.6572185361
  0
LWPOLYLINE
  5
32C
100
AcDbEntity
  8
RACCORDO
100
AcDbPolyline
 62
7
  6
CONTINUOUS
 90
12
 70
0
 10
-12.5201583744
 20
28.1037224087
 10
-12.518842511
 20
28.1293374832
 10
-12.5148698134
 20
28.1548718732
 10
-12.5082381757
 20
28.179998278
 10
-12.4990048029
 20
28.20436688
 10
-12.4872603091
 20
28.2276850923
 10
-12.4730899967
 20
28.2497318491
 10
-12.4565665349
 20
28.2703117002
 10
-12.4379220963
 20
28.2890743265
 10
-12.4175076581
 20
28.3056832678
 10
-12.3954878162
 20
28.3200382105
 10
-12.3842368285
 20
28.3261771314
  0
LWPOLYLINE
  5
32D
100
AcDbEntity
  8
RACCORDO
100
AcDbPolyline
 62
253
  6
CONTINUOUS
 90
8
 70
0
 10
-8.5679858317
 20
28.152676292
 10
-8.5706255153
 20
28.1397077067
 10
-8.575952013
 20
28.1269470918
 10
-8.5839073976
 20
28.1145332225
 10
-8.5944051522
 20
28.1026011031
 10
-8.6073311107
 20
28.0912804987
 10
-8.6225446999
 20
28.0806945238
 10
-8.6398804677
 20
28.0709583041
  0
LWPOLYLINE
  5
32E
100
AcDbEntity
  8
0
100
AcDbPolyline
 62
7
  6
CONTINUOUS
 90
9
 70
0
 10
-13.2664082768
 20
4.9431556002
 10
-13.2658200884
 20
4.9457609271
 10
-13.2636171561
 20
4.9494854362
 10
-13.2600659066
 20
4.9540606444
 10
-13.2551891902
 20
4.9593929696
 10
-13.2489757462
 20
4.9653539367
 10
-13.241655957
 20
4.9719828731
 10
-13.2332484134
 20
4.9791991077
 10
-13.2237638537
 20
4.9868930557
  0
LWPOLYLINE
  5
32F
100
AcDbEntity
  8
0
100
AcDbPolyline
 62
7
  6
CONTINUOUS
 90
37
 70
0
 10
-15.7817997998
 20
6.078661442
 10
-15.7857770322
 20
6.0737603288
 10
-15.8468746372
 20
5.9834434555
 10
-15.9015470367
 20
5.886241053
 10
-15.9496205997
 20
5.782281651
 10
-15.9912689572
 20
5.6714367198
 10
-16.0261495865
 20
5.5546081483
 10
-16.0542514038
 20
5.4314690659
 10
-16.0755854929
 20
5.3023463433
 10
-16.0898425824
 20
5.1691224807
 10
-16.096919582
 20
5.0320498847
 10
-16.096919582
 20
4.8908761489
 10
-16.0898425824
 20
4.7467265534
 10
-16.0755854929
 20
4.5992456013
 10
-16.0542514038
 20
4.4487887895
 10
-16.0261495865
 20
4.2975478899
 10
-15.9912689572
 20
4.1458386891
 10
-15.9496205997
 20
3.9933454003
 10
-15.9015470367
 20
3.8413124353
 10
-15.8468746372
 20
3.6894376333
 10
-15.7857770322
 20
3.5380231551
 10
-15.7191176376
 20
3.3892198947
 10
-15.6469567901
 20
3.2433289477
 10
-15.569234153
 20
3.1000492186
 10
-15.4866321322
 20
2.9606283146
 10
-15.3989646873
 20
2.8248887821
 10
-15.3064178587
 20
2.6930080747
 10
-15.2102321742
 20
2.5667661604
 10
-15.1104869022
 20
2.4463892965
 10
-15.0071027742
 20
2.3316512258
 10
-14.9010825124
 20
2.2236531437
 10
-14.7923028186
 20
2.1223691651
 10
-14.6808869911
 20
2.0278251752
 10
-14.5682076462
 20
1.9412000254
 10
-14.454722323
 20
1.8628866662
 10
-14.3399734826
 20
1.7924921472
 10
-14.2239611249
 20
1.7300164683
  0
LWPOLYLINE
  5
330
100
AcDbEntity
  8
0
100
AcDbPolyline
 62
7
  6
CONTINUOUS
 90
4
 70
0
 10
-26.8831300323
 20
2.6950248099
 10
-26.8990529547
 20
2.6840147022
 10
-26.9139824667
 20
2.6734657777
 10
-26.9411947341
 20
2.6540640094
  0
LWPOLYLINE
  5
331
100
AcDbEntity
  8
0
100
AcDbPolyline
 62
7
  6
CONTINUOUS
 90
3
 70
0
 10
-26.8301265791
 20
2.730658173
 10
-26.8485880748
 20
2.7183790685
 10
-26.8831300323
 20
2.6950248099
  0
LWPOLYLINE
  5
332
100
AcDbEntity
  8
0
100
AcDbPolyline
 62
7
  6
CONTINUOUS
 90
3
 70
0
 10
-26.7703205233
 20
2.7694186003
 10
-26.7909166731
 20
2.7562055773
 10
-26.8301265791
 20
2.730658173
  0
LWPOLYLINE
  5
333
100
AcDbEntity
  8
0
100
AcDbPolyline
 62
7
  6
CONTINUOUS
 90
3
 70
0
 10
-26.7050408205
 20
2.8102269566
 10
-26.7273058868
 20
2.7964576722
 10
-26.7703205233
 20
2.7694186003
  0
LWPOLYLINE
  5
334
100
AcDbEntity
  8
0
100
AcDbPolyline
 62
7
  6
CONTINUOUS
 90
3
 70
0
 10
-26.6360750034
 20
2.8516489296
 10
-26.6593001219
 20
2.8378888365
 10
-26.7050408205
 20
2.8102269566
  0
LWPOLYLINE
  5
335
100
AcDbEntity
  8
0
100
AcDbPolyline
 62
253
  6
CONTINUOUS
 90
4
 70
0
 10
9.7357339103
 20
25.0742902761
 10
9.607429524
 20
25.0072891124
 10
9.4846708755
 20
24.9358180588
 10
9.4775041193
 20
24.9311547523
  0
LWPOLYLINE
  5
336
100
AcDbEntity
  8
0
100
AcDbPolyline
 62
253
  6
CONTINUOUS
 90
4
 70
0
 10
9.5933262349
 20
25.2139864003
 10
9.4574055861
 20
25.1433264165
 10
9.3287697953
 20
25.0681988139
 10
9.2745467757
 20
25.032633424
  0
LINE
  5
337
100
AcDbEntity
  8
0
100
AcDbLine
 62
253
  6
CONTINUOUS
 10
13.1151408445
 20
26.9608324133
 11
9.5933262349
 21
25.2139864003
  0
LINE
  5
338
100
AcDbEntity
  8
0
100
AcDbLine
 62
253
  6
CONTINUOUS
 10
13.2565287385
 20
26.820530879
 11
9.7358323878
 21
25.0742395266
  0
LINE
  5
339
100
AcDbEntity
  8
0
100
AcDbLine
 62
253
  6
CONTINUOUS
 10
10.7807968063
 20
24.2795084088
 11
14.1891078197
 21
25.970055803
  0
LINE
  5
33A
100
AcDbEntity
  8
0
100
AcDbLine
 62
253
  6
CONTINUOUS
 10
11.0109041073
 20
24.1644547583
 11
14.2456796696
 21
25.7689272842
  0
LINE
  5
33B
100
AcDbEntity
  8
0
100
AcDbLine
 62
7
  6
CONTINUOUS
 10
11.261967133
 20
24.0389232454
 11
14.2456796696
 21
25.5188666599
  0
LINE
  5
33C
100
AcDbEntity
  8
0
100
AcDbLine
 62
253
  6
CONTINUOUS
 10
11.959538833
 20
23.6901373954
 11
12.3778870249
 21
23.8912595071
  0
LINE
  5
33D
100
AcDbEntity
  8
0
100
AcDbLine
 62
7
  6
CONTINUOUS
 10
12.1716058002
 20
23.5841039118
 11
12.4781536839
 21
23.7314776997
  0
LWPOLYLINE
  5
33E
100
AcDbEntity
  8
0
100
AcDbPolyline
 62
7
  6
CONTINUOUS
 90
9
 70
0
 10
14.2456796696
 20
25.5188666599
 10
14.2981436443
 20
25.5433894011
 10
14.319294839
 20
25.5529563638
 10
14.3371654598
 20
25.5602036036
 10
14.3519356201
 20
25.565237372
 10
14.3638316649
 20
25.5687377013
 10
14.3729936602
 20
25.5706468553
 10
14.3795901476
 20
25.5707848706
 10
14.3834891178
 20
25.5698376145
  0
LWPOLYLINE
  5
33F
100
AcDbEntity
  8
0
100
AcDbPolyline
 62
253
  6
CONTINUOUS
 90
3
 70
0
 10
14.6825873973
 20
22.3286131133
 10
14.7572720589
 20
22.3546495239
 10
14.913285434
 20
22.4158142088
  0
LWPOLYLINE
  5
340
100
AcDbEntity
  8
RACCORDO
100
AcDbPolyline
 62
253
  6
CONTINUOUS
 90
3
 70
0
 10
8.2139565243
 20
20.1797649393
 10
8.1983893158
 20
20.1752497974
 10
8.1909950953
 20
20.1720340041
  0
LWPOLYLINE
  5
341
100
AcDbEntity
  8
0
100
AcDbPolyline
 62
7
  6
CONTINUOUS
 90
8
 70
0
 10
18.793198976
 20
24.2551400076
 10
18.7733423516
 20
24.2494715441
 10
18.7528649345
 20
24.2429720792
 10
18.7316566016
 20
24.2356440752
 10
18.7090421117
 20
24.2272659921
 10
18.6847570951
 20
24.2177287877
 10
18.65872511
 20
24.2069851124
 10
18.6306732375
 20
24.1948972474
  0
LWPOLYLINE
  5
342
100
AcDbEntity
  8
0
100
AcDbPolyline
 62
253
  6
CONTINUOUS
 90
8
 70
0
 10
5.8666373219
 20
-13.2776528217
 10
5.8438359611
 20
-13.268408115
 10
5.8213226715
 20
-13.2620672279
 10
5.7993421533
 20
-13.2586990804
 10
5.7781333164
 20
-13.2583402812
 10
5.7579266828
 20
-13.2609947301
 10
5.7389418812
 20
-13.2666335757
 10
5.7243108035
 20
-13.2735094498
  0
LWPOLYLINE
  5
343
100
AcDbEntity
  8
0
100
AcDbPolyline
 62
7
  6
CONTINUOUS
 90
14
 70
0
 10
5.9492273585
 20
-15.7414750075
 10
5.9089765531
 20
-15.7221343143
 10
5.7967326267
 20
-15.6601878729
 10
5.6840764682
 20
-15.5899432261
 10
5.5716578181
 20
-15.5117068782
 10
5.4597739599
 20
-15.4255965447
 10
5.3488349296
 20
-15.3318216199
 10
5.2393582115
 20
-15.2307208069
 10
5.1317697065
 20
-15.1225991385
 10
5.026496123
 20
-15.0077983859
 10
4.92398381
 20
-14.8867239411
 10
4.8246563739
 20
-14.7598030827
 10
4.7288983568
 20
-14.6274573944
 10
4.6371157926
 20
-14.4901831877
  0
LWPOLYLINE
  5
344
100
AcDbEntity
  8
0
100
AcDbPolyline
 62
7
  6
CONTINUOUS
 90
14
 70
0
 10
-21.6279371077
 20
-1.9528927743
 10
-21.6681879132
 20
-1.9335520811
 10
-21.7804318396
 20
-1.8716056398
 10
-21.893087998
 20
-1.8013609929
 10
-22.0055066481
 20
-1.7231246451
 10
-22.1173905064
 20
-1.6370143116
 10
-22.2283295367
 20
-1.5432393868
 10
-22.3378062548
 20
-1.4421385737
 10
-22.4453947598
 20
-1.3340169054
 10
-22.5506683433
 20
-1.2192161528
 10
-22.6531806563
 20
-1.098141708
 10
-22.7525080924
 20
-0.9712208496
 10
-22.8482661095
 20
-0.8388751612
 10
-22.9400486737
 20
-0.7016009546
  0
LINE
  5
345
100
AcDbEntity
  8
0
100
AcDbLine
 62
7
  6
CONTINUOUS
 10
5.9823630303
 20
-15.0975574051
 11
4.6673547055
 21
-14.4400532426
  0
LINE
  5
346
100
AcDbEntity
  8
0
100
AcDbLine
 62
7
  6
CONTINUOUS
 10
-21.5948014359
 20
-1.3089751719
 11
-22.9098097608
 21
-0.6514710095
  0
LINE
  5
347
100
AcDbEntity
  8
RACCORDO
100
AcDbLine
 62
7
  6
CONTINUOUS
 10
5.9520717883
 20
-14.81805267
 11
4.9253811853
 21
-14.3047073685
  0
LINE
  5
348
100
AcDbEntity
  8
RACCORDO
100
AcDbLine
 62
7
  6
CONTINUOUS
 10
-21.625092678
 20
-1.0294704368
 11
-22.6517832809
 21
-0.5161251354
  0
LINE
  5
349
100
AcDbEntity
  8
RACCORDO
100
AcDbLine
 62
7
  6
CONTINUOUS
 10
-23.3982946535
 20
0.2261358259
 11
-22.9692656948
 21
0.0116213465
  0
LINE
  5
34A
100
AcDbEntity
  8
RACCORDO
100
AcDbLine
 62
7
  6
CONTINUOUS
 10
4.1788698128
 20
-13.5624464072
 11
4.6078987715
 21
-13.7769608866
  0
LINE
  5
34B
100
AcDbEntity
  8
0
100
AcDbLine
 62
253
  6
CONTINUOUS
 10
-25.3945127672
 20
1.8807229966
 11
-26.9411947341
 21
2.6540640094
  0
LINE
  5
34C
100
AcDbEntity
  8
0
100
AcDbLine
 62
253
  6
CONTINUOUS
 10
7.2049126147
 20
-14.418989665
 11
5.6582061491
 21
-13.6456364603
  0
LINE
  5
34D
100
AcDbEntity
  8
0
100
AcDbLine
 62
253
  6
CONTINUOUS
 10
2.1826517144
 20
-11.9078592149
 11
0.6359697322
 21
-11.1345182238
  0
LINE
  5
34E
100
AcDbEntity
  8
0
100
AcDbLine
 62
253
  6
CONTINUOUS
 10
-20.3722518516
 20
-0.6304074319
 11
-21.9189583325
 21
0.1429458085
  0
LINE
  5
34F
100
AcDbEntity
  8
0
100
AcDbLine
 62
253
  6
CONTINUOUS
 10
7.1120588257
 20
-13.9003635736
 11
5.8666374085
 21
-13.277652865
  0
LINE
  5
350
100
AcDbEntity
  8
0
100
AcDbLine
 62
253
  6
CONTINUOUS
 10
2.391054012
 20
-11.5398611668
 11
1.0564737965
 21
-10.872571059
  0
LINE
  5
351
100
AcDbEntity
  8
0
100
AcDbLine
 62
253
  6
CONTINUOUS
 10
-20.4651056406
 20
-0.1117813405
 11
-21.7105270578
 21
0.5109293681
  0
LINE
  5
352
100
AcDbEntity
  8
0
100
AcDbLine
 62
253
  6
CONTINUOUS
 10
-25.1861104543
 20
2.2487210664
 11
-26.5206906698
 21
2.9160111741
  0
LWPOLYLINE
  5
353
100
AcDbEntity
  8
0
100
AcDbPolyline
 62
7
  6
CONTINUOUS
 90
6
 70
0
 10
-24.3486398069
 20
2.6570845062
 10
-24.3290389981
 20
2.6461292244
 10
-24.3099137454
 20
2.6333416033
 10
-24.2912640488
 20
2.6187216428
 10
-24.2729464146
 20
2.602123535
 10
-24.2551043365
 20
2.5836930879
  0
LWPOLYLINE
  5
354
100
AcDbEntity
  8
0
100
AcDbPolyline
 62
253
  6
CONTINUOUS
 90
5
 70
0
 10
-23.4698442132
 20
3.0414808273
 10
-23.4480800167
 20
3.0264570716
 10
-23.4270099333
 20
3.0086115485
 10
-23.4069452252
 20
2.9882078848
 10
-23.3881823024
 20
2.965547498
  0
LWPOLYLINE
  5
355
100
AcDbEntity
  8
RACCORDO
100
AcDbPolyline
 62
7
  6
CONTINUOUS
 90
4
 70
0
 10
19.3821302955
 20
-29.9713075714
 10
19.4026085322
 20
-29.9879195986
 10
19.4246974899
 20
-30.0022677851
 10
19.4378755078
 20
-30.0093550296
  0
LWPOLYLINE
  5
356
100
AcDbEntity
  8
0
100
AcDbPolyline
 62
253
  6
CONTINUOUS
 90
13
 70
0
 10
-21.918931483
 20
13.5656226072
 10
-21.9350928748
 20
13.5908044004
 10
-21.9491542785
 20
13.6166082527
 10
-21.9608007821
 20
13.6428582906
 10
-21.969547256
 20
13.6695068341
 10
-21.9753832867
 20
13.6962149081
 10
-21.9786329317
 20
13.7224403423
 10
-21.9788557594
 20
13.7482282374
 10
-21.9760217836
 20
13.7732803852
 10
-21.9707402543
 20
13.796836875
 10
-21.9624613812
 20
13.8193512508
 10
-21.9511404883
 20
13.8404968398
 10
-21.9373584287
 20
13.8596238269
  0
LWPOLYLINE
  5
357
100
AcDbEntity
  8
0
100
AcDbPolyline
 62
253
  6
CONTINUOUS
 90
3
 70
0
 10
-14.6807558291
 20
3.5289909949
 10
-14.6348844666
 20
3.4503355498
 10
-14.5890519312
 20
3.3753082166
  0
LWPOLYLINE
  5
358
100
AcDbEntity
  8
0
100
AcDbPolyline
 62
7
  6
CONTINUOUS
 90
18
 70
0
 10
-14.5916130468
 20
3.5233096331
 10
-14.6697294303
 20
3.6634889447
 10
-14.7398612622
 20
3.8002079747
 10
-14.805333763
 20
3.9391553651
 10
-14.8659320915
 20
4.0798716698
 10
-14.9214553836
 20
4.2218765804
 10
-14.9717321895
 20
4.364706689
 10
-15.0166089121
 20
4.5078901084
 10
-15.055945143
 20
4.6509234629
 10
-15.0896317378
 20
4.793327489
 10
-15.1175854561
 20
4.9346411196
 10
-15.1397406204
 20
5.074381934
 10
-15.1560567294
 20
5.2120692271
 10
-15.1665224291
 20
5.3472710896
 10
-15.1711468248
 20
5.4795721436
 10
-15.1699605832
 20
5.6084902708
 10
-15.1630204222
 20
5.7336494914
 10
-15.1503880328
 20
5.854775073
  0
LWPOLYLINE
  5
359
100
AcDbEntity
  8
0
100
AcDbPolyline
 62
7
  6
CONTINUOUS
 90
13
 70
0
 10
-14.591649983
 20
3.5233732375
 10
-14.5902944989
 20
3.5208780672
 10
-14.5866311637
 20
3.5121448259
 10
-14.5838565703
 20
3.5022017693
 10
-14.5818811015
 20
3.4911154008
 10
-14.5805749089
 20
3.4789099527
 10
-14.5800230209
 20
3.4658878016
 10
-14.5801410747
 20
3.452082163
 10
-14.5808186127
 20
3.4375292833
 10
-14.5821242926
 20
3.4225170775
 10
-14.5840206242
 20
3.4071618386
 10
-14.5863597241
 20
3.3914138995
 10
-14.5890519312
 20
3.3753082166
  0
LINE
  5
35A
100
AcDbEntity
  8
0
100
AcDbLine
 62
7
  6
CONTINUOUS
 10
-21.9904743433
 20
16.7330284033
 11
-21.9229031872
 21
16.5820922734
  0
LWPOLYLINE
  5
35B
100
AcDbEntity
  8
0
100
AcDbPolyline
 62
253
  6
CONTINUOUS
 90
36
 70
0
 10
-21.8935843445
 20
16.6789333006
 10
-21.8334470091
 20
16.5378561789
 10
-21.7792318347
 20
16.4000477282
 10
-21.7311411437
 20
16.2658865721
 10
-21.6889730694
 20
16.1349938851
 10
-21.6518108634
 20
16.0084968465
 10
-21.6197222304
 20
15.8868110217
 10
-21.5926417988
 20
15.7695197522
 10
-21.5694543734
 20
15.6565013273
 10
-21.5500936674
 20
15.5480271279
 10
-21.5346286068
 20
15.4438245304
 10
-21.5221467656
 20
15.3429558401
 10
-21.5125171716
 20
15.2454882165
 10
-21.5058727154
 20
15.1513535962
 10
-21.5016960449
 20
15.0594117928
 10
-21.4998644368
 20
14.9695402234
 10
-21.5005015202
 20
14.8818610467
 10
-21.5034586876
 20
14.7956015616
 10
-21.5086816177
 20
14.7105192623
 10
-21.5162247994
 20
14.6268565815
 10
-21.5261024772
 20
14.5445683982
 10
-21.538344533
 20
14.4634658891
 10
-21.5529212053
 20
14.3837378268
 10
-21.5697575157
 20
14.3059053686
 10
-21.5889176643
 20
14.2299392199
 10
-21.6103381423
 20
14.1558683511
 10
-21.6337530151
 20
14.0843010266
 10
-21.6592071207
 20
14.0153141709
 10
-21.686656994
 20
13.9488302075
 10
-21.715704827
 20
13.8852253705
 10
-21.7463620132
 20
13.8245937392
 10
-21.7786189401
 20
13.7668403845
 10
-21.812046635
 20
13.7120578617
 10
-21.8465027757
 20
13.6602767026
 10
-21.8821315511
 20
13.6114654823
 10
-21.9189338338
 20
13.5656237826
  0
LWPOLYLINE
  5
35C
100
AcDbEntity
  8
0
100
AcDbPolyline
 62
7
  6
CONTINUOUS
 90
5
 70
0
 10
-14.4416113248
 20
3.6172335121
 10
-14.5115512232
 20
3.8708954003
 10
-14.5994630958
 20
4.1381507981
 10
-14.701118961
 20
4.4045328939
 10
-14.816518819
 20
4.6700416877
  0
LWPOLYLINE
  5
35D
100
AcDbEntity
  8
0
100
AcDbPolyline
 62
7
  6
CONTINUOUS
 90
7
 70
0
 10
-14.9664232452
 20
4.9285337539
 10
-14.9967381369
 20
5.0909053298
 10
-15.0194743057
 20
5.2502985484
 10
-15.0346317515
 20
5.4067134096
 10
-15.0422104744
 20
5.560690583
 10
-15.0422104744
 20
5.7116893991
 10
-15.0362788995
 20
5.8262698352
  0
LINE
  5
35E
100
AcDbEntity
  8
RACCORDO
100
AcDbLine
 62
7
  6
CONTINUOUS
 10
-12.5182022319
 20
27.7325355805
 11
-12.5201583683
 21
27.7637762502
  0
LINE
  5
35F
100
AcDbEntity
  8
RACCORDO
100
AcDbLine
 62
253
  6
CONTINUOUS
 10
-12.5197880659
 20
27.7569474243
 11
-12.5201583744
 21
27.763748921
  0
LWPOLYLINE
  5
360
100
AcDbEntity
  8
RACCORDO
100
AcDbPolyline
 62
253
  6
CONTINUOUS
 90
16
 70
0
 10
-10.7694284303
 20
27.3523289973
 10
-10.7704992604
 20
27.3753927581
 10
-10.7734837778
 20
27.3991778152
 10
-10.7783492848
 20
27.4234235858
 10
-10.7850424763
 20
27.4478644395
 10
-10.7934900234
 20
27.4722326088
 10
-10.803599377
 20
27.4962611224
 10
-10.8152597817
 20
27.5196867302
 10
-10.8283434891
 20
27.5422527874
 10
-10.8427071575
 20
27.5637120663
 10
-10.8581934225
 20
27.5838294645
 10
-10.8746326205
 20
27.6023845812
 10
-10.891844648
 20
27.6191741313
 10
-10.9096409345
 20
27.634014173
 10
-10.9278265086
 20
27.6467421226
 10
-10.9462021339
 20
27.6572185361
  0
LWPOLYLINE
  5
361
100
AcDbEntity
  8
RACCORDO
100
AcDbPolyline
 62
253
  6
CONTINUOUS
 90
10
 70
0
 10
-12.4469350697
 20
27.6753601269
 10
-12.4462562598
 20
27.6567442646
 10
-12.4442253941
 20
27.6389524302
 10
-12.4408585882
 20
27.6221208807
 10
-12.4361825478
 20
27.6063794058
 10
-12.4302334778
 20
27.591847209
 10
-12.4230559751
 20
27.5786328184
 10
-12.4146874354
 20
27.5668162827
 10
-12.405204938
 20
27.5565160717
 10
-12.3947436206
 20
27.5478564548
  0
LWPOLYLINE
  5
362
100
AcDbEntity
  8
RACCORDO
100
AcDbPolyline
 62
253
  6
CONTINUOUS
 90
12
 70
0
 10
-11.1219503899
 20
27.012867787
 10
-11.12127158
 20
26.9942519247
 10
-11.1192407142
 20
26.9764600903
 10
-11.1158739083
 20
26.9596285407
 10
-11.111197868
 20
26.9438870659
 10
-11.105248798
 20
26.9293548691
 10
-11.0980712953
 20
26.9161404785
 10
-11.0897027556
 20
26.9043239428
 10
-11.0802202581
 20
26.8940237318
 10
-11.0697589408
 20
26.8853641149
 10
-11.0584376297
 20
26.8783956451
 10
-11.05698495
 20
26.8776532656
  0
LWPOLYLINE
  5
363
100
AcDbEntity
  8
RACCORDO
100
AcDbPolyline
 62
7
  6
CONTINUOUS
 90
13
 70
0
 10
-11.0419806096
 20
34.3263561453
 10
-11.0439895054
 20
34.3901485265
 10
-11.0498226708
 20
34.4510569553
 10
-11.0594801058
 20
34.5090814314
 10
-11.073086407
 20
34.5645717342
 10
-11.0905169778
 20
34.6171780844
 10
-11.1113980285
 20
34.6658511448
 10
-11.1357027808
 20
34.71039109
 10
-11.1634580129
 20
34.7509977453
 10
-11.1943702693
 20
34.7872212495
 10
-11.2286215928
 20
34.8191174808
 10
-11.2660299406
 20
34.846630561
 10
-11.3019230391
 20
34.8672451618
  0
LINE
  5
364
100
AcDbEntity
  8
RACCORDO
100
AcDbLine
 62
253
  6
CONTINUOUS
 10
-11.1219503899
 20
27.012867787
 11
-11.1219503899
 21
27.3528417211
  0
LINE
  5
365
100
AcDbEntity
  8
RACCORDO
100
AcDbLine
 62
7
  6
CONTINUOUS
 10
-11.0419806096
 20
34.3263561453
 11
-11.0419806096
 21
34.0555558526
  0
LINE
  5
366
100
AcDbEntity
  8
RACCORDO
100
AcDbLine
 62
253
  6
CONTINUOUS
 10
-10.7694284303
 20
27.0123550631
 11
-10.7694284303
 21
27.3523289973
  0
LINE
  5
367
100
AcDbEntity
  8
RACCORDO
100
AcDbLine
 62
253
  6
CONTINUOUS
 10
-10.4107297818
 20
26.7342721598
 11
-10.4107297818
 21
26.0454515369
  0
LINE
  5
368
100
AcDbEntity
  8
RACCORDO
100
AcDbLine
 62
253
  6
CONTINUOUS
 10
-10.0582078222
 20
26.8638515403
 11
-10.0582078222
 21
26.0562194185
  0
LINE
  5
369
100
AcDbEntity
  8
RACCORDO
100
AcDbLine
 62
7
  6
CONTINUOUS
 10
-9.1681476394
 20
26.5529003398
 11
-9.1681476394
 21
28.1550510008
  0
LINE
  5
36A
100
AcDbEntity
  8
RACCORDO
100
AcDbLine
 62
253
  6
CONTINUOUS
 10
-8.6398804677
 20
28.4184898208
 11
-8.6398804677
 21
28.0709583041
  0
LINE
  5
36B
100
AcDbEntity
  8
RACCORDO
100
AcDbLine
 62
7
  6
CONTINUOUS
 10
-8.5676826107
 20
28.506362453
 11
-8.5676826107
 21
28.1588309362
  0
LINE
  5
36C
100
AcDbEntity
  8
DRAFT
100
AcDbLine
 62
253
  6
CONTINUOUS
 10
-8.2627309516
 20
31.3989404629
 11
-8.2627309516
 21
32.630458522
  0
LWPOLYLINE
  5
36D
100
AcDbEntity
  8
RACCORDO
100
AcDbPolyline
 62
7
  6
CONTINUOUS
 90
7
 70
0
 10
-8.5676826107
 20
28.1588309362
 10
-8.5689504412
 20
28.1336864123
 10
-8.5727775877
 20
28.1086164903
 10
-8.5791664792
 20
28.0839306356
 10
-8.5880708947
 20
28.0599448536
 10
-8.5994035514
 20
28.0369529232
 10
-8.6130570631
 20
28.0152050845
  0
LWPOLYLINE
  5
36E
100
AcDbEntity
  8
RACCORDO
100
AcDbPolyline
 62
253
  6
CONTINUOUS
 90
9
 70
0
 10
-8.5676826107
 20
28.5063596094
 10
-8.5680166779
 20
28.4999025376
 10
-8.5707274724
 20
28.4869127765
 10
-8.5761444806
 20
28.4741160124
 10
-8.5842063774
 20
28.4616722738
 10
-8.5947755132
 20
28.4497664596
 10
-8.6076863614
 20
28.4385362499
 10
-8.6227840206
 20
28.4280768547
 10
-8.6398804677
 20
28.4184898208
  0
LWPOLYLINE
  5
36F
100
AcDbEntity
  8
0
100
AcDbPolyline
 62
7
  6
CONTINUOUS
 90
28
 70
0
 10
-14.816518819
 20
4.6700416877
 10
-14.8046423
 20
4.6822468417
 10
-14.7927333732
 20
4.6947101657
 10
-14.7807910029
 20
4.7074315437
 10
-14.7687583355
 20
4.7204463511
 10
-14.7566900085
 20
4.7337189484
 10
-14.7447522831
 20
4.7471427224
 10
-14.732949705
 20
4.7607120667
 10
-14.721275571
 20
4.7744323615
 10
-14.7098794289
 20
4.7882135341
 10
-14.698767423
 20
4.8020454476
 10
-14.6879312631
 20
4.8159380417
 10
-14.6774988796
 20
4.8298314077
 10
-14.6674680623
 20
4.8437210961
 10
-14.6578386755
 20
4.8576113627
 10
-14.6487416037
 20
4.8714553856
 10
-14.6401767971
 20
4.8852259361
 10
-14.6321416634
 20
4.8989500461
 10
-14.6247625082
 20
4.9126622539
 10
-14.6179958115
 20
4.9263745659
 10
-14.6118808441
 20
4.9400746242
 10
-14.6066665399
 20
4.9537603332
 10
-14.6023022306
 20
4.9675241229
 10
-14.5988316486
 20
4.9812729759
 10
-14.5966450101
 20
4.9947267411
 10
-14.5958707693
 20
5.007792012
 10
-14.5963748184
 20
5.0205619155
 10
-14.5981541179
 20
5.0330362543
  0
LWPOLYLINE
  5
370
100
AcDbEntity
  8
0
100
AcDbPolyline
 62
7
  6
CONTINUOUS
 90
5
 70
0
 10
-13.2237638537
 20
4.9868930557
 10
-13.2134175244
 20
4.9950758685
 10
-13.2022990662
 20
5.0036936926
 10
-13.1903735453
 20
5.012626812
 10
-13.1776734775
 20
5.0217936548
  0
LWPOLYLINE
  5
371
100
AcDbEntity
  8
0
100
AcDbPolyline
 62
7
  6
CONTINUOUS
 90
4
 70
0
 10
-20.4321005835
 20
1.7485515931
 10
-20.4211925078
 20
1.7570185647
 10
-20.4094516377
 20
1.7658375031
 10
-20.3969046263
 20
1.7749293917
  0
LWPOLYLINE
  5
372
100
AcDbEntity
  8
0
100
AcDbPolyline
 62
253
  6
CONTINUOUS
 90
6
 70
0
 10
-23.3480171445
 20
2.6394176211
 10
-23.3347813352
 20
2.6473544098
 10
-23.3231979393
 20
2.6557526806
 10
-23.3128783779
 20
2.6648177657
 10
-23.3035276743
 20
2.674795015
 10
-23.302393683
 20
2.6761437315
  0
LWPOLYLINE
  5
373
100
AcDbEntity
  8
0
100
AcDbPolyline
 62
253
  6
CONTINUOUS
 90
19
 70
0
 10
14.1891078197
 20
25.970055803
 10
14.2006388262
 20
25.976766926
 10
14.2110613937
 20
25.9851141452
 10
14.2203755223
 20
25.9950974608
 10
14.2286661827
 20
26.0067491573
 10
14.2358484042
 20
26.0200369501
 10
14.241667274
 20
26.0348639853
 10
14.2460920843
 20
26.0513810256
 10
14.249153543
 20
26.0694373084
 10
14.2506888607
 20
26.0884836917
 10
14.2505592706
 20
26.1086711587
 10
14.2489035396
 20
26.1298487262
 10
14.2459751788
 20
26.1510143029
 10
14.24168468
 20
26.1720659585
 10
14.2361215514
 20
26.1931056233
 10
14.229807829
 20
26.2134369973
 10
14.2229175248
 20
26.2328279804
 10
14.2152766267
 20
26.2515106727
 10
14.2068851349
 20
26.2694850741
  0
LWPOLYLINE
  5
374
100
AcDbEntity
  8
RACCORDO
100
AcDbPolyline
 62
7
  6
CONTINUOUS
 90
12
 70
0
 10
6.0712145091
 20
19.0984153567
 10
6.048554064
 20
19.0852457297
 10
6.0271716675
 20
19.0695927052
 10
6.0074112884
 20
19.051607571
 10
5.9896310425
 20
19.0315503042
 10
5.9740610173
 20
19.0096426417
 10
5.9608426603
 20
18.9860064396
 10
5.950179502
 20
18.9608605215
 10
5.9423073882
 20
18.9346362067
 10
5.9373525226
 20
18.907725691
 10
5.935366123
 20
18.8803073235
 10
5.9353286546
 20
18.8759081817
  0
LWPOLYLINE
  5
375
100
AcDbEntity
  8
0
100
AcDbPolyline
 62
253
  6
CONTINUOUS
 90
10
 70
0
 10
14.2456796696
 20
25.7689272842
 10
14.2726248122
 20
25.7844329442
 10
14.2972645458
 20
25.8024384405
 10
14.3193532319
 20
25.8228645477
 10
14.3386436832
 20
25.8455925894
 10
14.3549239232
 20
25.8705427778
 10
14.3680015676
 20
25.8976782454
 10
14.3777086353
 20
25.9271154052
 10
14.38376555
 20
25.9584700343
 10
14.3860097688
 20
25.9937601
  0
LWPOLYLINE
  5
376
100
AcDbEntity
  8
0
100
AcDbPolyline
 62
253
  6
CONTINUOUS
 90
19
 70
0
 10
-25.186110764
 20
2.2487212212
 10
-25.2022267689
 20
2.2395664982
 10
-25.2181151209
 20
2.2290516771
 10
-25.2336885217
 20
2.2172665456
 10
-25.2486475376
 20
2.2045017087
 10
-25.2631438309
 20
2.1906921704
 10
-25.2777221557
 20
2.1752529992
 10
-25.2923894078
 20
2.1579766628
 10
-25.3068327992
 20
2.1390153192
 10
-25.32101551
 20
2.1181786192
 10
-25.3348250467
 20
2.0952997006
 10
-25.3478840709
 20
2.0706296666
 10
-25.359761482
 20
2.0446722111
 10
-25.3702644209
 20
2.0175629498
 10
-25.3791493118
 20
1.9895915449
 10
-25.3860843963
 20
1.9615902077
 10
-25.3909654299
 20
1.9340236419
 10
-25.3937881315
 20
1.9069778913
 10
-25.3945151027
 20
1.8807241936
  0
LWPOLYLINE
  5
377
100
AcDbEntity
  8
0
100
AcDbPolyline
 62
7
  6
CONTINUOUS
 90
3
 70
0
 10
-26.5432465669
 20
2.9045297006
 10
-26.5661721898
 20
2.8919377559
 10
-26.6360750034
 20
2.8516489296
  0
LINE
  5
378
100
AcDbEntity
  8
0
100
AcDbLine
 62
253
  6
CONTINUOUS
 10
-24.1432868398
 20
2.2303448348
 11
-23.3480168555
 21
2.6394179736
  0
LINE
  5
379
100
AcDbEntity
  8
RACCORDO
100
AcDbLine
 62
7
  6
CONTINUOUS
 10
7.6539711658
 20
19.9103994815
 11
6.0712145091
 21
19.0984153567
  0
LINE
  5
37A
100
AcDbEntity
  8
RACCORDO
100
AcDbLine
 62
253
  6
CONTINUOUS
 10
7.7670567784
 20
19.9039514789
 11
6.1843001752
 21
19.0919673815
  0
LINE
  5
37B
100
AcDbEntity
  8
0
100
AcDbLine
 62
253
  6
CONTINUOUS
 10
-24.3102005897
 20
2.6335333946
 11
-23.4919806248
 21
3.0534606831
  0
LINE
  5
37C
100
AcDbEntity
  8
0
100
AcDbLine
 62
7
  6
CONTINUOUS
 10
-26.5432465669
 20
2.9045297006
 11
-25.6967686497
 21
3.3311489276
  0
LINE
  5
37D
100
AcDbEntity
  8
RACCORDO
100
AcDbLine
 62
253
  6
CONTINUOUS
 10
9.1105656459
 20
19.2321970451
 11
7.509284855
 21
18.4294750416
  0
LINE
  5
37E
100
AcDbEntity
  8
RACCORDO
100
AcDbLine
 62
253
  6
CONTINUOUS
 10
9.2873393495
 20
18.9273075063
 11
7.6860585587
 21
18.1245855028
  0
LINE
  5
37F
100
AcDbEntity
  8
RACCORDO
100
AcDbLine
 62
7
  6
CONTINUOUS
 10
13.8839086734
 20
23.1688064654
 11
13.4430546832
 21
22.9483794703
  0
LINE
  5
380
100
AcDbEntity
  8
RACCORDO
100
AcDbLine
 62
7
  6
CONTINUOUS
 10
7.6557088664
 20
19.9112683773
 11
7.6539711678
 21
19.9103994825
  0
LINE
  5
381
100
AcDbEntity
  8
RACCORDO
100
AcDbLine
 62
7
  6
CONTINUOUS
 10
14.7324393812
 20
22.7445436818
 11
14.2915828207
 21
22.5241154016
  0
LINE
  5
382
100
AcDbEntity
  8
RACCORDO
100
AcDbLine
 62
7
  6
CONTINUOUS
 10
-23.7486433102
 20
3.2417419683
 11
-23.6602991875
 21
3.2859140297
  0
LINE
  5
383
100
AcDbEntity
  8
RACCORDO
100
AcDbLine
 62
253
  6
CONTINUOUS
 10
-22.7632716472
 20
2.638412289
 11
-22.5642836767
 21
2.7379062742
  0
LINE
  5
384
100
AcDbEntity
  8
RACCORDO
100
AcDbLine
 62
253
  6
CONTINUOUS
 10
9.6388328176
 20
19.4956358651
 11
9.1105656459
 21
19.2321970451
  0
LINE
  5
385
100
AcDbEntity
  8
RACCORDO
100
AcDbLine
 62
253
  6
CONTINUOUS
 10
9.8156065213
 20
19.1907463263
 11
9.2873393495
 21
18.9273075063
  0
LINE
  5
386
100
AcDbEntity
  8
0
100
AcDbLine
 62
7
  6
CONTINUOUS
 10
-24.860637429
 20
3.7377890852
 11
-25.6886491396
 21
3.3270891725
  0
LINE
  5
387
100
AcDbEntity
  8
0
100
AcDbLine
 62
253
  6
CONTINUOUS
 10
-24.3486398069
 20
2.6570845062
 11
-25.1861104543
 21
2.2487210664
  0
LINE
  5
388
100
AcDbEntity
  8
RACCORDO
100
AcDbLine
 62
7
  6
CONTINUOUS
 10
8.190994546
 20
20.1720337365
 11
7.6557238478
 21
19.9112864227
  0
LINE
  5
389
100
AcDbEntity
  8
RACCORDO
100
AcDbLine
 62
253
  6
CONTINUOUS
 10
8.3015066571
 20
20.1642989454
 11
7.7670567784
 21
19.9039514789
  0
LINE
  5
38A
100
AcDbEntity
  8
0
100
AcDbLine
 62
253
  6
CONTINUOUS
 10
-24.1776524499
 20
2.1581203822
 11
-25.0135058121
 21
1.7516850547
  0
LINE
  5
38B
100
AcDbEntity
  8
0
100
AcDbLine
 62
7
  6
CONTINUOUS
 10
14.9404183441
 20
22.4910952853
 11
18.5862628859
 21
24.1748671343
  0
LINE
  5
38C
100
AcDbEntity
  8
0
100
AcDbLine
 62
253
  6
CONTINUOUS
 10
15.0602391119
 20
22.4805961491
 11
18.7071160926
 21
24.1648447892
  0
LINE
  5
38D
100
AcDbEntity
  8
0
100
AcDbLine
 62
7
  6
CONTINUOUS
 10
-24.860637429
 20
3.7377890852
 11
-24.8312217595
 21
3.7513756922
  0
LWPOLYLINE
  5
38E
100
AcDbEntity
  8
RACCORDO
100
AcDbPolyline
 62
7
  6
CONTINUOUS
 90
10
 70
0
 10
14.7324104853
 20
22.7445292339
 10
14.7438069495
 20
22.7496978891
 10
14.755027352
 20
22.7537497855
 10
14.7660716927
 20
22.756684923
 10
14.7770349517
 20
22.7585034544
 10
14.7878221488
 20
22.7592052269
 10
14.7981483443
 20
22.7587897825
 10
14.807918558
 20
22.7572569686
 10
14.81722777
 20
22.7546069379
 10
14.8260759803
 20
22.7508396903
  0
LWPOLYLINE
  5
38F
100
AcDbEntity
  8
0
100
AcDbPolyline
 62
253
  6
CONTINUOUS
 90
10
 70
0
 10
18.7071160926
 20
24.1648447892
 10
18.7497263217
 20
24.1839408191
 10
18.7906892306
 20
24.2009725112
 10
18.829827858
 20
24.2157353188
 10
18.8669499578
 20
24.2279764889
 10
18.9018591632
 20
24.2375769273
 10
18.934339091
 20
24.2444793258
 10
18.964181616
 20
24.2484602431
 10
18.9910812916
 20
24.24927487
 10
19.0146339285
 20
24.2467842457
  0
LWPOLYLINE
  5
390
100
AcDbEntity
  8
0
100
AcDbPolyline
 62
7
  6
CONTINUOUS
 90
3
 70
0
 10
18.6306732375
 20
24.1948972474
 10
18.600470315
 20
24.1813790725
 10
18.5861897191
 20
24.1748297641
  0
LWPOLYLINE
  5
391
100
AcDbEntity
  8
0
100
AcDbPolyline
 62
7
  6
CONTINUOUS
 90
7
 70
0
 10
-24.8312217595
 20
3.7513756922
 10
-24.819798799
 20
3.7564847121
 10
-24.8104805205
 20
3.7600964839
 10
-24.8031233013
 20
3.7622870817
 10
-24.7975556979
 20
3.7635434374
 10
-24.7936729742
 20
3.7638395602
 10
-24.7916848004
 20
3.7632636399
  0
LWPOLYLINE
  5
392
100
AcDbEntity
  8
0
100
AcDbPolyline
 62
7
  6
CONTINUOUS
 90
4
 70
0
 10
14.9404727705
 20
22.4910349369
 10
14.8470327099
 20
22.4494331045
 10
14.6942990391
 20
22.3876144037
 10
14.6188834926
 20
22.3604650656
  0
LINE
  5
393
100
AcDbEntity
  8
0
100
AcDbLine
 62
253
  6
CONTINUOUS
 10
14.913285434
 20
22.4158142088
 11
15.0602391119
 21
22.4805961491
  0
LINE
  5
394
100
AcDbEntity
  8
RACCORDO
100
AcDbLine
 62
7
  6
CONTINUOUS
 10
8.2164914286
 20
20.1827522475
 11
8.1909826395
 21
20.1720279354
  0
LWPOLYLINE
  5
395
100
AcDbEntity
  8
0
100
AcDbPolyline
 62
253
  6
CONTINUOUS
 90
9
 70
0
 10
18.5862628078
 20
24.1748670982
 10
18.5949459963
 20
24.1784132087
 10
18.6094168969
 20
24.1824512628
 10
18.6246048231
 20
24.1844978198
 10
18.640394262
 20
24.1845372585
 10
18.6566651444
 20
24.182569216
 10
18.6732937108
 20
24.1786085924
 10
18.6901534495
 20
24.1726854522
 10
18.7071160934
 20
24.164844792
  0
LWPOLYLINE
  5
396
100
AcDbEntity
  8
0
100
AcDbPolyline
 62
253
  6
CONTINUOUS
 90
9
 70
0
 10
14.9404748133
 20
22.4911213851
 10
14.9491587379
 20
22.4946677331
 10
14.9636298885
 20
22.4987056611
 10
14.9788180071
 20
22.500752024
 10
14.9946075476
 20
22.5007912535
 10
15.0108783888
 20
22.4988230513
 10
15.0275067475
 20
22.4948623908
 10
15.0443661211
 20
22.4889394033
 10
15.0613282493
 20
22.4810991489
  0
LWPOLYLINE
  5
397
100
AcDbEntity
  8
0
100
AcDbPolyline
 62
253
  6
CONTINUOUS
 90
8
 70
0
 10
-21.7105271444
 20
0.5109294114
 10
-21.7333285052
 20
0.5201741181
 10
-21.7558417948
 20
0.5265150052
 10
-21.777822313
 20
0.5298831527
 10
-21.7990311499
 20
0.5302419519
 10
-21.8192377835
 20
0.527587503
 10
-21.8382225851
 20
0.5219486574
 10
-21.8528536628
 20
0.5150727834
  0
LWPOLYLINE
  5
398
100
AcDbEntity
  8
RACCORDO
100
AcDbPolyline
 62
253
  6
CONTINUOUS
 90
13
 70
0
 10
4.67715586
 20
-11.53633246
 10
4.7017327016
 20
-11.5469234242
 10
4.7288971365
 20
-11.5554421273
 10
4.7581844659
 20
-11.5617427732
 10
4.7890936246
 20
-11.5657175067
 10
4.8210958295
 20
-11.5672982734
 10
4.8536436334
 20
-11.5664579659
 10
4.8861802105
 20
-11.5632108767
 10
4.9181487725
 20
-11.5576124912
 10
4.9490021869
 20
-11.549758563
 10
4.9782124573
 20
-11.5397834471
 10
5.0052797498
 20
-11.5278577774
 10
5.0297408489
 20
-11.5141855801
  0
LWPOLYLINE
  5
399
100
AcDbEntity
  8
RACCORDO
100
AcDbPolyline
 62
253
  6
CONTINUOUS
 90
13
 70
0
 10
-22.9000086063
 20
2.2522497731
 10
-22.8754317647
 20
2.2416588089
 10
-22.8482673298
 20
2.2331401058
 10
-22.8189800004
 20
2.2268394599
 10
-22.7880708417
 20
2.2228647264
 10
-22.7560686368
 20
2.2212839597
 10
-22.7235208329
 20
2.2221242673
 10
-22.6909842558
 20
2.2253713564
 10
-22.6590156937
 20
2.230969742
 10
-22.6281622793
 20
2.2388236701
 10
-22.5989520089
 20
2.248798786
 10
-22.5718847164
 20
2.2607244557
 10
-22.5474236173
 20
2.274396653
  0
LINE
  5
39A
100
AcDbEntity
  8
0
100
AcDbLine
 62
7
  6
CONTINUOUS
 10
6.6291398223
 20
-12.8329601858
 11
6.6487406311
 21
-12.8416057128
  0
LINE
  5
39B
100
AcDbEntity
  8
0
100
AcDbLine
 62
7
  6
CONTINUOUS
 10
-20.9480246439
 20
0.9556220474
 11
-20.9284238352
 21
0.9469765203
  0
LWPOLYLINE
  5
39C
100
AcDbEntity
  8
0
100
AcDbPolyline
 62
253
  6
CONTINUOUS
 90
10
 70
0
 10
4.1936608181
 20
-10.7294105276
 10
4.1876280188
 20
-10.7266767111
 10
4.1755722814
 20
-10.7226371156
 10
4.1632658177
 20
-10.7202185711
 10
4.1509913778
 20
-10.7193026826
 10
4.1387233354
 20
-10.7197262726
 10
4.1260012009
 20
-10.7214627126
 10
4.1126965935
 20
-10.724599769
 10
4.0990646883
 20
-10.7291472496
 10
4.0851834597
 20
-10.7351213591
  0
LWPOLYLINE
  5
39D
100
AcDbEntity
  8
0
100
AcDbPolyline
 62
253
  6
CONTINUOUS
 90
10
 70
0
 10
-23.3835036481
 20
3.0591717055
 10
-23.3895364475
 20
3.0619055221
 10
-23.4015921849
 20
3.0659451176
 10
-23.4138986485
 20
3.0683636621
 10
-23.4261730884
 20
3.0692795505
 10
-23.4384411309
 20
3.0688559605
 10
-23.4511632654
 20
3.0671195205
 10
-23.4644678728
 20
3.0639824642
 10
-23.478099778
 20
3.0594349835
 10
-23.4919810066
 20
3.053460874
  0
LINE
  5
39E
100
AcDbEntity
  8
0
100
AcDbLine
 62
253
  6
CONTINUOUS
 10
4.1937571333
 20
-10.7294584091
 11
4.1936608181
 21
-10.7294105276
  0
LINE
  5
39F
100
AcDbEntity
  8
0
100
AcDbLine
 62
253
  6
CONTINUOUS
 10
-23.3834073329
 20
3.0591238241
 11
-23.3835036481
 21
3.0591717055
  0
LINE
  5
3A0
100
AcDbEntity
  8
0
100
AcDbLine
 62
7
  6
CONTINUOUS
 10
-25.6967686497
 20
3.3311489276
 11
-24.3486398069
 21
2.6570845062
  0
LINE
  5
3A1
100
AcDbEntity
  8
0
100
AcDbLine
 62
7
  6
CONTINUOUS
 10
-20.9284238352
 20
0.9469765203
 11
-20.4742138686
 21
0.719871537
  0
LINE
  5
3A2
100
AcDbEntity
  8
0
100
AcDbLine
 62
7
  6
CONTINUOUS
 10
1.8803958166
 20
-10.4574333056
 11
3.2285246594
 21
-11.131497727
  0
LINE
  5
3A3
100
AcDbEntity
  8
0
100
AcDbLine
 62
7
  6
CONTINUOUS
 10
6.6487406311
 20
-12.8416057128
 11
7.1029505977
 21
-13.0687106961
  0
LINE
  5
3A4
100
AcDbEntity
  8
RACCORDO
100
AcDbLine
 62
253
  6
CONTINUOUS
 10
4.638084525
 20
-11.4772115183
 11
4.1803618951
 21
-11.2483502033
  0
LINE
  5
3A5
100
AcDbEntity
  8
RACCORDO
100
AcDbLine
 62
253
  6
CONTINUOUS
 10
-22.9390799412
 20
2.3113707149
 11
-23.3968025712
 21
2.5402320298
  0
LINE
  5
3A6
100
AcDbEntity
  8
RACCORDO
100
AcDbLine
 62
253
  6
CONTINUOUS
 10
4.8138928191
 20
-11.1501699441
 11
4.3274546034
 21
-10.9069508363
  0
LINE
  5
3A7
100
AcDbEntity
  8
RACCORDO
100
AcDbLine
 62
253
  6
CONTINUOUS
 10
-22.7632716472
 20
2.638412289
 11
-23.2497098629
 21
2.8816313969
  0
LINE
  5
3A8
100
AcDbEntity
  8
0
100
AcDbLine
 62
253
  6
CONTINUOUS
 10
-24.860637429
 20
3.7377890852
 11
-23.4919806248
 21
3.0534606831
  0
LINE
  5
3A9
100
AcDbEntity
  8
0
100
AcDbLine
 62
253
  6
CONTINUOUS
 10
2.7165270373
 20
-10.0507931479
 11
4.0851838415
 21
-10.73512155
  0
LINE
  5
3AA
100
AcDbEntity
  8
0
100
AcDbLine
 62
7
  6
CONTINUOUS
 10
-24.7926054153
 20
3.7637230209
 11
-23.3832627864
 21
3.0590517064
  0
LINE
  5
3AB
100
AcDbEntity
  8
0
100
AcDbLine
 62
7
  6
CONTINUOUS
 10
2.784559051
 20
-10.0248592123
 11
4.1939016799
 21
-10.7295305267
  0
LINE
  5
3AC
100
AcDbEntity
  8
0
100
AcDbLine
 62
7
  6
CONTINUOUS
 10
-26.7267862207
 20
4.8191575462
 11
-20.4809305727
 21
1.6962297222
  0
LINE
  5
3AD
100
AcDbEntity
  8
0
100
AcDbLine
 62
7
  6
CONTINUOUS
 10
0.8503782456
 20
-8.9694246869
 11
7.0962338936
 21
-12.0923525109
  0
LINE
  5
3AE
100
AcDbEntity
  8
0
100
AcDbLine
 62
253
  6
CONTINUOUS
 10
-26.9667228947
 20
5.0598385259
 11
-20.3969046263
 21
1.7749293917
  0
LINE
  5
3AF
100
AcDbEntity
  8
0
100
AcDbLine
 62
253
  6
CONTINUOUS
 10
0.6104415715
 20
-8.7287437072
 11
7.18025984
 21
-12.0136528414
  0
LINE
  5
3B0
100
AcDbEntity
  8
0
100
AcDbLine
 62
253
  6
CONTINUOUS
 10
14.3994909888
 20
-13.9155195266
 11
12.2987915575
 21
-12.8651698109
  0
LINE
  5
3B1
100
AcDbEntity
  8
0
100
AcDbLine
 62
253
  6
CONTINUOUS
 10
-13.1776734775
 20
-0.1269372934
 11
-15.2783729088
 21
0.9234124222
  0
LWPOLYLINE
  5
3B2
100
AcDbEntity
  8
0
100
AcDbPolyline
 62
253
  6
CONTINUOUS
 90
88
 70
0
 10
-15.2783729088
 20
0.9234124222
 10
-15.3378405478
 20
0.9540524629
 10
-15.3978692896
 20
0.9872086369
 10
-15.458459094
 20
1.0228809646
 10
-15.5197266397
 20
1.0610789016
 10
-15.5815550841
 20
1.1017930756
 10
-15.6435940541
 20
1.1449952906
 10
-15.7058424571
 20
1.1907134718
 10
-15.7683010201
 20
1.2389198795
 10
-15.8306220369
 20
1.2895028526
 10
-15.8928058037
 20
1.3424929032
 10
-15.9548514451
 20
1.3978598128
 10
-16.0164094447
 20
1.4554008516
 10
-16.0774751486
 20
1.5151443891
 10
-16.1380524351
 20
1.5770624485
 10
-16.1978045617
 20
1.6408677935
 10
-16.2567274198
 20
1.706593052
 10
-16.3148241929
 20
1.7742060641
 10
-16.3717691013
 20
1.843322399
 10
-16.4275136817
 20
1.9139117871
 10
-16.4821054111
 20
1.9860049965
 10
-16.5353624833
 20
2.0593091202
 10
-16.5871280547
 20
2.1335623289
 10
-16.6375579864
 20
2.2090269478
 10
-16.6869394509
 20
2.2861963402
 10
-16.7351957264
 20
2.3647680799
 10
-16.7824022333
 20
2.4450452493
 10
-16.8290738445
 20
2.528429734
 10
-16.8753603307
 20
2.6148993794
 10
-16.9211095776
 20
2.7044775209
 10
-16.9663826157
 20
2.7986347919
 10
-17.0114088529
 20
2.8974973514
 10
-17.0559548328
 20
3.0009410779
 10
-17.0993858911
 20
3.1100618876
 10
-17.1419920335
 20
3.2252755524
 10
-17.1834767494
 20
3.3461695687
 10
-17.2223242702
 20
3.4725981073
 10
-17.2586978548
 20
3.6049573511
 10
-17.2924255317
 20
3.7428554832
 10
-17.3214881647
 20
3.8849649337
 10
-17.3458583881
 20
4.0323877662
 10
-17.3655533053
 20
4.1840270418
 10
-17.3786232684
 20
4.3352552851
 10
-17.3843704352
 20
4.4866238954
 10
-17.3834873985
 20
4.6375840675
 10
-17.3761184217
 20
4.7818538839
 10
-17.3616234836
 20
4.9180893863
 10
-17.3406489153
 20
5.0476313493
 10
-17.3152764049
 20
5.1682210134
 10
-17.2855566127
 20
5.2787764584
 10
-17.2514493266
 20
5.3803743764
 10
-17.2149021264
 20
5.4739928347
 10
-17.1760967321
 20
5.5594820869
 10
-17.1348598099
 20
5.6369876965
 10
-17.0926055666
 20
5.7079310926
 10
-17.0496376389
 20
5.7722056173
 10
-17.005658553
 20
5.8299148621
 10
-16.9611794746
 20
5.8827963156
 10
-16.916414262
 20
5.9309803787
 10
-16.8711528104
 20
5.974334786
 10
-16.8252689703
 20
6.0142037054
 10
-16.7788989462
 20
6.0507639031
 10
-16.7319087003
 20
6.0838375379
 10
-16.6837657657
 20
6.1142373403
 10
-16.6343621794
 20
6.1421922616
 10
-16.583807113
 20
6.1674727511
 10
-16.5318933554
 20
6.1902040081
 10
-16.4784732463
 20
6.2104707762
 10
-16.4236954241
 20
6.2281878274
 10
-16.3677970933
 20
6.2432254193
 10
-16.3107507157
 20
6.2555559511
 10
-16.2525848301
 20
6.2652065287
 10
-16.1936208269
 20
6.2721294359
 10
-16.1338513414
 20
6.2762889024
 10
-16.0732846634
 20
6.2777202414
 10
-16.0122656848
 20
6.2764823515
 10
-15.950790325
 20
6.272541382
 10
-15.8888634363
 20
6.2659308028
 10
-15.8268432822
 20
6.2568105069
 10
-15.76473138
 20
6.2451496028
 10
-15.702526785
 20
6.2309786996
 10
-15.6405840124
 20
6.214549969
 10
-15.5789017162
 20
6.1958333439
 10
-15.5174816008
 20
6.1748587147
 10
-15.4566826932
 20
6.1519682215
 10
-15.3966247187
 20
6.1272758865
 10
-15.337188111
 20
6.1006676092
 10
-15.2783729088
 20
6.0721433705
  0
LWPOLYLINE
  5
3B3
100
AcDbEntity
  8
0
100
AcDbPolyline
 62
253
  6
CONTINUOUS
 90
88
 70
0
 10
12.2987915575
 20
-12.8651698109
 10
12.2393239185
 20
-12.8345297703
 10
12.1792951767
 20
-12.8013735963
 10
12.1187053722
 20
-12.7657012686
 10
12.0574378265
 20
-12.7275033315
 10
11.9956093822
 20
-12.6867891575
 10
11.9335704121
 20
-12.6435869425
 10
11.8713220091
 20
-12.5978687613
 10
11.8088634462
 20
-12.5496623536
 10
11.7465424294
 20
-12.4990793805
 10
11.6843586626
 20
-12.4460893299
 10
11.6223130211
 20
-12.3907224203
 10
11.5607550215
 20
-12.3331813815
 10
11.4996893177
 20
-12.2734378441
 10
11.4391120311
 20
-12.2115197846
 10
11.3793599046
 20
-12.1477144396
 10
11.3204370464
 20
-12.0819891811
 10
11.2623402733
 20
-12.014376169
 10
11.205395365
 20
-11.9452598341
 10
11.1496507846
 20
-11.874670446
 10
11.0950590552
 20
-11.8025772366
 10
11.041801983
 20
-11.729273113
 10
10.9900364116
 20
-11.6550199042
 10
10.9396064798
 20
-11.5795552854
 10
10.8902250153
 20
-11.5023858929
 10
10.8419687399
 20
-11.4238141532
 10
10.794762233
 20
-11.3435369839
 10
10.7480906217
 20
-11.2601524991
 10
10.7018041356
 20
-11.1736828537
 10
10.6560548887
 20
-11.0841047122
 10
10.6107818505
 20
-10.9899474413
 10
10.5657556134
 20
-10.8910848818
 10
10.5212096335
 20
-10.7876411553
 10
10.4777785752
 20
-10.6785203455
 10
10.4351724327
 20
-10.5633066807
 10
10.3936877169
 20
-10.4424126644
 10
10.3548401961
 20
-10.3159841258
 10
10.3184666115
 20
-10.183624882
 10
10.2847389346
 20
-10.0457267499
 10
10.2556763015
 20
-9.9036172995
 10
10.2313060781
 20
-9.756194467
 10
10.211611161
 20
-9.6045551913
 10
10.1985411979
 20
-9.453326948
 10
10.1927940311
 20
-9.3019583377
 10
10.1936770678
 20
-9.1509981656
 10
10.2010460446
 20
-9.0067283493
 10
10.2155409827
 20
-8.8704928468
 10
10.236515551
 20
-8.7409508838
 10
10.2618880613
 20
-8.6203612198
 10
10.2916078536
 20
-8.5098057748
 10
10.3257151397
 20
-8.4082078567
 10
10.3622623398
 20
-8.3145893984
 10
10.4010677342
 20
-8.2291001462
 10
10.4423046564
 20
-8.1515945366
 10
10.4845588997
 20
-8.0806511406
 10
10.5275268274
 20
-8.0163766159
 10
10.5715059132
 20
-7.958667371
 10
10.6159849917
 20
-7.9057859176
 10
10.6607502043
 20
-7.8576018544
 10
10.7060116559
 20
-7.8142474472
 10
10.751895496
 20
-7.7743785277
 10
10.7982655201
 20
-7.7378183301
 10
10.845255766
 20
-7.7047446953
 10
10.8933987006
 20
-7.6743448928
 10
10.9428022869
 20
-7.6463899716
 10
10.9933573533
 20
-7.6211094821
 10
11.0452711109
 20
-7.598378225
 10
11.09869122
 20
-7.5781114569
 10
11.1534690422
 20
-7.5603944057
 10
11.209367373
 20
-7.5453568139
 10
11.2664137506
 20
-7.5330262821
 10
11.3245796362
 20
-7.5233757044
 10
11.3835436394
 20
-7.5164527973
 10
11.4433131249
 20
-7.5122933307
 10
11.5038798028
 20
-7.5108619918
 10
11.5648987814
 20
-7.5120998817
 10
11.6263741413
 20
-7.5160408511
 10
11.68830103
 20
-7.5226514303
 10
11.7503211841
 20
-7.5317717262
 10
11.8124330863
 20
-7.5434326304
 10
11.8746376813
 20
-7.5576035336
 10
11.9365804539
 20
-7.5740322641
 10
11.9982627501
 20
-7.5927488893
 10
12.0596828655
 20
-7.6137235185
 10
12.1204817731
 20
-7.6366140117
 10
12.1805397476
 20
-7.6613063467
 10
12.2399763553
 20
-7.687914624
 10
12.2987915575
 20
-7.7164388627
  0
LWPOLYLINE
  5
3B4
100
AcDbEntity
  8
0
100
AcDbPolyline
 62
253
  6
CONTINUOUS
 90
66
 70
0
 10
-15.0699452047
 20
1.2889373119
 10
-15.1233633736
 20
1.3165669587
 10
-15.1773759573
 20
1.346376192
 10
-15.2319364498
 20
1.378405341
 10
-15.287042828
 20
1.4127227975
 10
-15.3425944703
 20
1.4493361598
 10
-15.3983939649
 20
1.4881756757
 10
-15.4543828034
 20
1.5292539063
 10
-15.5105037526
 20
1.5725834799
 10
-15.5665621641
 20
1.6180617016
 10
-15.6224984666
 20
1.6656799228
 10
-15.678250293
 20
1.7154259425
 10
-15.7336232635
 20
1.7671603763
 10
-15.7885583398
 20
1.8208526621
 10
-15.8429944409
 20
1.8764687056
 10
-15.8967424914
 20
1.9338344375
 10
-15.9497536644
 20
1.9929060856
 10
-16.0019666243
 20
2.0536243312
 10
-16.0531866728
 20
2.1157638541
 10
-16.1033359637
 20
2.1792145219
 10
-16.1524038822
 20
2.243947263
 10
-16.200308387
 20
2.3098412229
 10
-16.2468581713
 20
2.3765994345
 10
-16.2921767263
 20
2.4443644886
 10
-16.3366275889
 20
2.513702685
 10
-16.3800050357
 20
2.5843377631
 10
-16.422388476
 20
2.6564455448
 10
-16.4644627019
 20
2.7313508487
 10
-16.506084202
 20
2.8090550488
 10
-16.5470904037
 20
2.8895295912
 10
-16.5879671691
 20
2.9741357722
 10
-16.6284871957
 20
3.0629519029
 10
-16.6683217043
 20
3.1558613008
 10
-16.7076080663
 20
3.2539677437
 10
-16.7460248784
 20
3.3574650751
 10
-16.7830147079
 20
3.4659797143
 10
-16.8181996385
 20
3.5797292969
 10
-16.8510814865
 20
3.6986635977
 10
-16.8810298887
 20
3.8223341398
 10
-16.9074027645
 20
3.9502688704
 10
-16.9297076723
 20
4.0828757912
 10
-16.9471136232
 20
4.2187900641
 10
-16.9587866454
 20
4.3548595794
 10
-16.9644202534
 20
4.4912266798
 10
-16.9636421686
 20
4.6266048254
 10
-16.9565161891
 20
4.7560741252
 10
-16.9435049611
 20
4.8787056495
 10
-16.924971844
 20
4.995078675
 10
-16.90178329
 20
5.1031550165
 10
-16.8747962336
 20
5.2024496512
 10
-16.8445106661
 20
5.293891831
 10
-16.8114999637
 20
5.3778498836
 10
-16.776359129
 20
5.4545489313
 10
-16.7395840749
 20
5.5243981553
 10
-16.7014977741
 20
5.5880290833
 10
-16.6626372796
 20
5.6456109283
 10
-16.623301165
 20
5.69765075
 10
-16.5832831077
 20
5.7451420124
 10
-16.5428740636
 20
5.7882891764
 10
-16.5022952954
 20
5.8273606349
 10
-16.4610387454
 20
5.863207923
 10
-16.4192436274
 20
5.8959498425
 10
-16.3770466401
 20
5.9257055875
 10
-16.3337715713
 20
5.9530812397
 10
-16.289308144
 20
5.9781692669
 10
-16.2469689034
 20
5.9994123008
  0
LINE
  5
3B5
100
AcDbEntity
  8
0
100
AcDbLine
 62
253
  6
CONTINUOUS
 10
-23.4919810066
 20
3.053460874
 11
-23.4698442132
 21
3.0414808273
  0
LINE
  5
3B6
100
AcDbEntity
  8
0
100
AcDbLine
 62
253
  6
CONTINUOUS
 10
4.0851834597
 20
-10.7351213591
 11
4.1073202531
 21
-10.7471014059
  0
LWPOLYLINE
  5
3B7
100
AcDbEntity
  8
0
100
AcDbPolyline
 62
7
  6
CONTINUOUS
 90
14
 70
0
 10
-26.7264025053
 20
4.8189663652
 10
-26.7506433983
 20
4.8322290357
 10
-26.7724749933
 20
4.846032815
 10
-26.7938259323
 20
4.8612152717
 10
-26.8145322906
 20
4.8775988674
 10
-26.8345920473
 20
4.8950790936
 10
-26.8540167385
 20
4.9135413592
 10
-26.8726485838
 20
4.9328297987
 10
-26.8905038228
 20
4.9528630117
 10
-26.9075944159
 20
4.9735337071
 10
-26.9237535809
 20
4.9946616868
 10
-26.9389434549
 20
5.016129588
 10
-26.9532558601
 20
5.0378822239
 10
-26.9667228947
 20
5.0598385259
  0
LWPOLYLINE
  5
3B8
100
AcDbEntity
  8
0
100
AcDbPolyline
 62
7
  6
CONTINUOUS
 90
14
 70
0
 10
0.850761961
 20
-8.9696158679
 10
0.8265210679
 20
-8.9563531974
 10
0.8046894729
 20
-8.9425494181
 10
0.783338534
 20
-8.9273669614
 10
0.7626321757
 20
-8.9109833657
 10
0.742572419
 20
-8.8935031395
 10
0.7231477278
 20
-8.8750408739
 10
0.7045158824
 20
-8.8557524344
 10
0.6866606435
 20
-8.8357192214
 10
0.6695700504
 20
-8.8150485261
 10
0.6534108854
 20
-8.7939205463
 10
0.6382210114
 20
-8.7724526451
 10
0.6239086062
 20
-8.7507000093
 10
0.6104415715
 20
-8.7287437072
  0
LWPOLYLINE
  5
3B9
100
AcDbEntity
  8
0
100
AcDbPolyline
 62
7
  6
CONTINUOUS
 90
6
 70
0
 10
3.2285246594
 20
-11.131497727
 10
3.2481254682
 20
-11.1424530087
 10
3.2672507209
 20
-11.1552406298
 10
3.2859004175
 20
-11.1698605903
 10
3.3042180516
 20
-11.1864586981
 10
3.3220601297
 20
-11.2048891453
  0
LWPOLYLINE
  5
3BA
100
AcDbEntity
  8
0
100
AcDbPolyline
 62
253
  6
CONTINUOUS
 90
5
 70
0
 10
4.1073202531
 20
-10.7471014059
 10
4.1290844496
 20
-10.7621251616
 10
4.150154533
 20
-10.7799706846
 10
4.1702192411
 20
-10.8003743483
 10
4.1889821638
 20
-10.8230347352
  0
LWPOLYLINE
  5
3BB
100
AcDbEntity
  8
RACCORDO
100
AcDbPolyline
 62
7
  6
CONTINUOUS
 90
4
 70
0
 10
23.1727136421
 20
-28.8679227326
 10
23.1530196553
 20
-28.8513517687
 10
23.1317841865
 20
-28.8369286483
 10
23.113794722
 20
-28.8270035005
  0
LWPOLYLINE
  5
3BC
100
AcDbEntity
  8
RACCORDO
100
AcDbPolyline
 62
7
  6
CONTINUOUS
 90
16
 70
0
 10
-9.1681476394
 20
28.1550510008
 10
-9.1692184595
 20
28.1781147665
 10
-9.1722029672
 20
28.2018998284
 10
-9.177068465
 20
28.2261456036
 10
-9.1837616469
 20
28.2505864621
 10
-9.1922091847
 20
28.2749546361
 10
-9.2023185319
 20
28.2989831529
 10
-9.2139789338
 20
28.3224087623
 10
-9.2270626412
 20
28.3449748196
 10
-9.2414263126
 20
28.3664340971
 10
-9.256912584
 20
28.3865514921
 10
-9.2733517912
 20
28.4051066041
 10
-9.2905638283
 20
28.4218961494
 10
-9.3083601241
 20
28.4367361864
 10
-9.3265457078
 20
28.4494641312
 10
-9.3449213431
 20
28.4599405396
  0
LWPOLYLINE
  5
3BD
100
AcDbEntity
  8
RACCORDO
100
AcDbPolyline
 62
253
  6
CONTINUOUS
 90
16
 70
0
 10
-8.6398804677
 20
28.4184898208
 10
-8.6407475746
 20
28.4416554432
 10
-8.6435531354
 20
28.4655299786
 10
-8.648266413
 20
28.4898518639
 10
-8.65483577
 20
28.5143546349
 10
-8.6631892343
 20
28.5387698456
 10
-8.6732352874
 20
28.5628300094
 10
-8.6848638675
 20
28.5862715295
 10
-8.6979475749
 20
28.6088375868
 10
-8.712343068
 20
28.6302809533
 10
-8.7278926334
 20
28.6503667013
 10
-8.7444259142
 20
28.6688747766
 10
-8.7617617762
 20
28.6856024094
 10
-8.7797102921
 20
28.7003663364
 10
-8.7980748229
 20
28.7130048077
 10
-8.8166541714
 20
28.7233793596
  0
LINE
  5
3BE
100
AcDbEntity
  8
RACCORDO
100
AcDbLine
 62
7
  6
CONTINUOUS
 10
-8.1391368877
 20
31.5471166143
 11
-8.1391368877
 21
32.7793850871
  0
LWPOLYLINE
  5
3BF
100
AcDbEntity
  8
0
100
AcDbPolyline
 62
7
  6
CONTINUOUS
 90
16
 70
0
 10
-21.8528536715
 20
0.5150727785
 10
-21.877497433
 20
0.49973247
 10
-21.9005346857
 20
0.4820898422
 10
-21.9216943868
 20
0.4623712899
 10
-21.9405983601
 20
0.4410283607
 10
-21.9572632263
 20
0.4181810371
 10
-21.971911592
 20
0.3934726453
 10
-21.9843533996
 20
0.366933258
 10
-21.9942346426
 20
0.3390104024
 10
-22.0013816718
 20
0.3099011816
 10
-22.0056141731
 20
0.2799380057
 10
-22.0068045025
 20
0.2495141138
 10
-22.0048814625
 20
0.2189198969
 10
-21.9997978452
 20
0.1884612642
 10
-21.991594816
 20
0.1586403081
 10
-21.9804101839
 20
0.1299226272
  0
LINE
  5
3C0
100
AcDbEntity
  8
RACCORDO
100
AcDbLine
 62
7
  6
CONTINUOUS
 10
9.2873393495
 20
17.3251568453
 11
8.3972791668
 21
16.828475924
  0
LINE
  5
3C1
100
AcDbEntity
  8
0
100
AcDbLine
 62
253
  6
CONTINUOUS
 10
-21.7105270578
 20
0.5109293681
 11
-20.9284238352
 21
0.9469765203
  0
LINE
  5
3C2
100
AcDbEntity
  8
0
100
AcDbLine
 62
7
  6
CONTINUOUS
 10
-21.067130353
 20
0.9531392948
 11
-21.8528536628
 21
0.5150727834
  0
LINE
  5
3C3
100
AcDbEntity
  8
RACCORDO
100
AcDbLine
 62
7
  6
CONTINUOUS
 10
11.6561590679
 20
16.995038432
 11
12.0097004571
 21
17.1764118568
  0
LINE
  5
3C4
100
AcDbEntity
  8
RACCORDO
100
AcDbLine
 62
253
  6
CONTINUOUS
 10
-14.0303879866
 20
5.3233243787
 11
-14.5981541179
 21
5.0330362543
  0
LINE
  5
3C5
100
AcDbEntity
  8
DRAFT
100
AcDbLine
 62
7
  6
CONTINUOUS
 10
9.823448561
 20
17.7566513316
 11
13.2824926632
 21
19.4995101975
  0
LINE
  5
3C6
100
AcDbEntity
  8
RACCORDO
100
AcDbLine
 62
253
  6
CONTINUOUS
 10
-22.5474236169
 20
2.2743966486
 11
-22.0923440212
 21
2.5019364465
  0
LINE
  5
3C7
100
AcDbEntity
  8
DRAFT
100
AcDbLine
 62
7
  6
CONTINUOUS
 10
13.2824926632
 20
19.4995101975
 11
16.8257900139
 21
21.2570118049
  0
LINE
  5
3C8
100
AcDbEntity
  8
RACCORDO
100
AcDbLine
 62
7
  6
CONTINUOUS
 10
18.0003303292
 20
19.4971798616
 11
13.3532033414
 21
17.2067288075
  0
LINE
  5
3C9
100
AcDbEntity
  8
RACCORDO
100
AcDbLine
 62
7
  6
CONTINUOUS
 10
12.0097004571
 20
17.1764118568
 11
17.3968550543
 21
19.800665519
  0
LINE
  5
3CA
100
AcDbEntity
  8
0
100
AcDbLine
 62
7
  6
CONTINUOUS
 10
17.0885403766
 20
20.4261518916
 11
10.6953820845
 21
17.3206845698
  0
LWPOLYLINE
  5
3CB
100
AcDbEntity
  8
0
100
AcDbPolyline
 62
7
  6
CONTINUOUS
 90
8
 70
0
 10
-21.0671319242
 20
0.9531423125
 10
-21.0548917082
 20
0.9590177292
 10
-21.0388953465
 20
0.9642312504
 10
-21.0219593055
 20
0.9671205723
 10
-21.0041172274
 20
0.9677089414
 10
-20.9857995932
 20
0.965989415
 10
-20.9671498966
 20
0.9619596789
 10
-20.9480246439
 20
0.9556220474
  0
LINE
  5
3CC
100
AcDbEntity
  8
0
100
AcDbLine
 62
7
  6
CONTINUOUS
 10
-16.2469689034
 20
5.9994123008
 11
-16.2468133529
 21
5.9994858162
  0
LINE
  5
3CD
100
AcDbEntity
  8
0
100
AcDbLine
 62
7
  6
CONTINUOUS
 10
-20.4785269959
 20
1.1615219531
 11
-20.9439706979
 21
0.9538339324
  0
LINE
  5
3CE
100
AcDbEntity
  8
0
100
AcDbLine
 62
253
  6
CONTINUOUS
 10
-20.8321195996
 20
0.946621265
 11
-20.4780045415
 21
1.104623266
  0
LINE
  5
3CF
100
AcDbEntity
  8
0
100
AcDbLine
 62
253
  6
CONTINUOUS
 10
-20.8826423931
 20
0.9240857993
 11
-20.8321195996
 21
0.946621265
  0
LWPOLYLINE
  5
3D0
100
AcDbEntity
  8
0
100
AcDbPolyline
 62
7
  6
CONTINUOUS
 90
11
 70
0
 10
-16.2468124785
 20
5.9994855901
 10
-16.1742038983
 20
6.0296519549
 10
-16.0932478487
 20
6.0543731751
 10
-16.0089042556
 20
6.0713463184
 10
-15.9212083926
 20
6.0805668895
 10
-15.830575873
 20
6.0819878284
 10
-15.7373712192
 20
6.0756315419
 10
-15.64189724
 20
6.0615449845
 10
-15.5446819292
 20
6.0398447887
 10
-15.4465146969
 20
6.0108097265
 10
-15.3479621698
 20
5.9747657008
  0
LWPOLYLINE
  5
3D1
100
AcDbEntity
  8
RACCORDO
100
AcDbPolyline
 62
7
  6
CONTINUOUS
 90
4
 70
0
 10
17.2744008741
 20
16.6879658793
 10
17.2449729202
 20
16.6776301556
 10
17.2165668494
 20
16.6671208981
 10
17.1891640238
 20
16.6564877321
  0
LWPOLYLINE
  5
3D2
100
AcDbEntity
  8
RACCORDO
100
AcDbPolyline
 62
7
  6
CONTINUOUS
 90
5
 70
0
 10
17.0386862815
 20
16.5902650845
 10
17.0546965379
 20
16.5956205639
 10
17.0721552537
 20
16.5995569019
 10
17.0911718028
 20
16.6018490258
 10
17.1118031163
 20
16.6022944058
  0
LWPOLYLINE
  5
3D3
100
AcDbEntity
  8
0
100
AcDbPolyline
 62
7
  6
CONTINUOUS
 90
3
 70
0
 10
12.2292022965
 20
-7.8138165324
 10
12.3278011031
 20
-7.8565751555
 10
12.3766882848
 20
-7.8802143005
  0
LINE
  5
3D4
100
AcDbEntity
  8
0
100
AcDbLine
 62
253
  6
CONTINUOUS
 10
14.3098494641
 20
-13.4009600229
 11
12.5072192611
 21
-12.4996449214
  0
LINE
  5
3D5
100
AcDbEntity
  8
0
100
AcDbLine
 62
253
  6
CONTINUOUS
 10
-13.2673150022
 20
0.3876222102
 11
-15.0699452052
 21
1.2889373117
  0
LINE
  5
3D6
100
AcDbEntity
  8
0
100
AcDbLine
 62
7
  6
CONTINUOUS
 10
-14.2239611249
 20
1.7300164683
 11
-13.2700549986
 21
1.2530634051
  0
LINE
  5
3D7
100
AcDbEntity
  8
0
100
AcDbLine
 62
7
  6
CONTINUOUS
 10
13.3532033414
 20
-12.0585657649
 11
14.3071094677
 21
-12.5355188281
  0
LWPOLYLINE
  5
3D8
100
AcDbEntity
  8
0
100
AcDbPolyline
 62
253
  6
CONTINUOUS
 90
66
 70
0
 10
12.5072192616
 20
-12.4996449212
 10
12.4538010927
 20
-12.4720152745
 10
12.399788509
 20
-12.4422060412
 10
12.3452280165
 20
-12.4101768921
 10
12.2901216383
 20
-12.3758594356
 10
12.234569996
 20
-12.3392460733
 10
12.1787705013
 20
-12.3004065574
 10
12.1227816628
 20
-12.2593283268
 10
12.0666607137
 20
-12.2159987533
 10
12.0106023021
 20
-12.1705205315
 10
11.9546659997
 20
-12.1229023103
 10
11.8989141733
 20
-12.0731562906
 10
11.8435412027
 20
-12.0214218568
 10
11.7886061265
 20
-11.9677295711
 10
11.7341700254
 20
-11.9121135275
 10
11.6804219749
 20
-11.8547477957
 10
11.6274108018
 20
-11.7956761476
 10
11.5751978419
 20
-11.7349579019
 10
11.5239777935
 20
-11.672818379
 10
11.4738285026
 20
-11.6093677113
 10
11.4247605841
 20
-11.5446349701
 10
11.3768560793
 20
-11.4787410102
 10
11.330306295
 20
-11.4119827986
 10
11.28498774
 20
-11.3442177445
 10
11.2405368774
 20
-11.2748795482
 10
11.1971594306
 20
-11.2042444701
 10
11.1547759903
 20
-11.1321366883
 10
11.1127017643
 20
-11.0572313844
 10
11.0710802643
 20
-10.9795271843
 10
11.0300740625
 20
-10.8990526419
 10
10.9891972971
 20
-10.8144464609
 10
10.9486772706
 20
-10.7256303303
 10
10.908842762
 20
-10.6327209324
 10
10.8695564
 20
-10.5346144895
 10
10.8311395879
 20
-10.431117158
 10
10.7941497584
 20
-10.3226025188
 10
10.7589648278
 20
-10.2088529362
 10
10.7260829798
 20
-10.0899186355
 10
10.6961345776
 20
-9.9662480933
 10
10.6697617017
 20
-9.8383133627
 10
10.647456794
 20
-9.7057064419
 10
10.6300508431
 20
-9.569792169
 10
10.6183778209
 20
-9.4337226538
 10
10.6127442128
 20
-9.2973555533
 10
10.6135222976
 20
-9.1619774077
 10
10.6206482771
 20
-9.0325081079
 10
10.6336595051
 20
-8.9098765836
 10
10.6521926222
 20
-8.7935035582
 10
10.6753811763
 20
-8.6854272166
 10
10.7023682327
 20
-8.5861325819
 10
10.7326538002
 20
-8.4946904021
 10
10.7656645026
 20
-8.4107323495
 10
10.8008053372
 20
-8.3340333018
 10
10.8375803914
 20
-8.2641840779
 10
10.8756666922
 20
-8.2005531499
 10
10.9145271866
 20
-8.1429713048
 10
10.9538633012
 20
-8.0909314831
 10
10.9938813586
 20
-8.0434402207
 10
11.0342904027
 20
-8.0002930567
 10
11.0748691709
 20
-7.9612215982
 10
11.1161257209
 20
-7.9253743101
 10
11.1579208389
 20
-7.8926323906
 10
11.2001178261
 20
-7.8628766456
 10
11.2433928949
 20
-7.8355009934
 10
11.2878563223
 20
-7.8104129662
 10
11.3301955628
 20
-7.7891699324
  0
LWPOLYLINE
  5
3D9
100
AcDbEntity
  8
0
100
AcDbPolyline
 62
7
  6
CONTINUOUS
 90
13
 70
0
 10
3.3220601297
 20
-11.2048891453
 10
3.3389961708
 20
-11.2247145082
 10
3.3549925324
 20
-11.2459243911
 10
3.3700828571
 20
-11.2685291897
 10
3.3839375907
 20
-11.2921226682
 10
3.3965787294
 20
-11.3168256302
 10
3.4079842771
 20
-11.342517272
 10
3.4177586915
 20
-11.3684289468
 10
3.4258253607
 20
-11.3945925122
 10
3.4322608965
 20
-11.4209761106
 10
3.4368995923
 20
-11.4467155222
 10
3.4396705932
 20
-11.4716710862
 10
3.4406447542
 20
-11.4959824634
  0
LWPOLYLINE
  5
3DA
100
AcDbEntity
  8
0
100
AcDbPolyline
 62
253
  6
CONTINUOUS
 90
16
 70
0
 10
2.1826493636
 20
-11.9078580395
 10
2.2014417429
 20
-11.931724339
 10
2.2225948187
 20
-11.9539823552
 10
2.2457542918
 20
-11.9744759083
 10
2.2702649163
 20
-11.9932423765
 10
2.2959225131
 20
-12.0100396675
 10
2.3229610986
 20
-12.0243706314
 10
2.3506081238
 20
-12.0364464278
 10
2.3784245503
 20
-12.0461733745
 10
2.4069626919
 20
-12.0528200287
 10
2.4355735718
 20
-12.0568895281
 10
2.4631473546
 20
-12.0585877792
 10
2.4898089071
 20
-12.0571315723
 10
2.515678906
 20
-12.0526224827
 10
2.5403544205
 20
-12.0458157002
 10
2.563658933
 20
-12.0368972107
  0
LWPOLYLINE
  5
3DB
100
AcDbEntity
  8
0
100
AcDbPolyline
 62
253
  6
CONTINUOUS
 90
8
 70
0
 10
5.5980824002
 20
-13.6615699633
 10
5.5985320677
 20
-13.6621570082
 10
5.6017816647
 20
-13.6629700776
 10
5.6076176243
 20
-13.6619194687
 10
5.6163640125
 20
-13.6597813742
 10
5.6280104188
 20
-13.6566905934
 10
5.6420717123
 20
-13.6520395594
 10
5.6582329832
 20
-13.6456498493
  0
LWPOLYLINE
  5
3DC
100
AcDbEntity
  8
0
100
AcDbPolyline
 62
7
  6
CONTINUOUS
 90
25
 70
0
 10
4.6371157926
 20
-14.4901831877
 10
4.5497254042
 20
-14.3485559417
 10
4.4670801379
 20
-14.203117232
 10
4.3894902173
 20
-14.0543892182
 10
4.3172651858
 20
-13.9029491072
 10
4.2506700354
 20
-13.7493448285
 10
4.1899643238
 20
-13.5941771092
 10
4.1354009965
 20
-13.4381240248
 10
4.0871796541
 20
-13.2818290537
 10
4.0454391864
 20
-13.1258395277
 10
4.010297626
 20
-12.9707048368
 10
3.9818484344
 20
-12.8169593308
 10
3.9601790632
 20
-12.6652551678
 10
3.9453413293
 20
-12.5163256325
 10
3.9373268974
 20
-12.370891147
 10
3.9360691286
 20
-12.2293405675
 10
3.9415040383
 20
-12.0919345417
 10
3.9535443895
 20
-11.9593003274
 10
3.9720778386
 20
-11.8318664252
 10
3.9970566728
 20
-11.7096918719
 10
4.0283499498
 20
-11.5933480824
 10
4.0658007747
 20
-11.4833140724
 10
4.1093965328
 20
-11.3796578266
 10
4.1590319944
 20
-11.28278792
 10
4.2144464297
 20
-11.1933197761
  0
LWPOLYLINE
  5
3DD
100
AcDbEntity
  8
0
100
AcDbPolyline
 62
253
  6
CONTINUOUS
 90
35
 70
0
 10
2.1889521132
 20
-14.8341979994
 10
2.130788943
 20
-14.6983635466
 10
2.0788146066
 20
-14.5661442132
 10
2.0328169341
 20
-14.4371663253
 10
1.9919332075
 20
-14.312530047
 10
1.9562419056
 20
-14.1926455567
 10
1.9256622164
 20
-14.077103916
 10
1.8990913174
 20
-13.9657772278
 10
1.8764703974
 20
-13.8589331355
 10
1.8578556283
 20
-13.7563053922
 10
1.8423167123
 20
-13.6569652394
 10
1.8297250326
 20
-13.5609786586
 10
1.8202072875
 20
-13.4682806827
 10
1.8132168726
 20
-13.3777457515
 10
1.8086282606
 20
-13.2892526841
 10
1.8065660729
 20
-13.202923143
 10
1.806859712
 20
-13.117995422
 10
1.809448188
 20
-13.0342303497
 10
1.8143923233
 20
-12.9518671921
 10
1.8217046017
 20
-12.8708617085
 10
1.8314088255
 20
-12.7910281154
 10
1.8434810719
 20
-12.712552266
 10
1.8578619961
 20
-12.635947501
 10
1.8746133752
 20
-12.561185737
 10
1.8936727408
 20
-12.4882954244
 10
1.914793771
 20
-12.4178750212
 10
1.9380214303
 20
-12.3500013886
 10
1.9633093817
 20
-12.2845983862
 10
1.9902737704
 20
-12.2220352713
 10
2.0189265525
 20
-12.1624058421
 10
2.049253991
 20
-12.1056172316
 10
2.0808333481
 20
-12.0517588777
 10
2.1135230425
 20
-12.0008609418
 10
2.1474627888
 20
-11.952894236
 10
2.1826517144
 20
-11.9078592149
  0
LINE
  5
3DE
100
AcDbEntity
  8
RACCORDO
100
AcDbLine
 62
253
  6
CONTINUOUS
 10
9.2873393495
 20
18.2002626538
 11
9.8156065213
 21
18.8432148096
  0
LINE
  5
3DF
100
AcDbEntity
  8
RACCORDO
100
AcDbLine
 62
7
  6
CONTINUOUS
 10
9.2873393495
 20
18.1107321875
 11
9.8309670937
 21
18.772379643
  0
LWPOLYLINE
  5
3E0
100
AcDbEntity
  8
RACCORDO
100
AcDbPolyline
 62
7
  6
CONTINUOUS
 90
15
 70
0
 10
8.3972791668
 20
17.6361080458
 10
8.3793702634
 20
17.6162357513
 10
8.3599637355
 20
17.5971080434
 10
8.3391102943
 20
17.5789586111
 10
8.3168019009
 20
17.5620521268
 10
8.2932125627
 20
17.5465918008
 10
8.2686915157
 20
17.5327268056
 10
8.2433683577
 20
17.5206938732
 10
8.2174003973
 20
17.5107137148
 10
8.1912020901
 20
17.5029221167
 10
8.1649832491
 20
17.4975311706
 10
8.1389552821
 20
17.4947264963
 10
8.1135650633
 20
17.4946170244
 10
8.0891502891
 20
17.4973506146
 10
8.0839694063
 20
17.4983416454
  0
LINE
  5
3E1
100
AcDbEntity
  8
0
100
AcDbLine
 62
7
  6
CONTINUOUS
 10
-22.1560756589
 20
-2.792949904
 11
-22.1562613629
 21
-2.7930479501
  0
LINE
  5
3E2
100
AcDbEntity
  8
0
100
AcDbLine
 62
253
  6
CONTINUOUS
 10
-14.2239611249
 20
1.7300164683
 11
-15.0699452052
 21
1.2889373117
  0
LINE
  5
3E3
100
AcDbEntity
  8
0
100
AcDbLine
 62
7
  6
CONTINUOUS
 10
16.9594479254
 20
17.19623614
 11
17.6665547066
 21
17.5497895306
  0
LINE
  5
3E4
100
AcDbEntity
  8
0
100
AcDbLine
 62
7
  6
CONTINUOUS
 10
18.0201080972
 20
17.3730128353
 11
19.4178926037
 21
18.0719050885
  0
LINE
  5
3E5
100
AcDbEntity
  8
DRAFT
100
AcDbLine
 62
7
  6
CONTINUOUS
 10
17.6665547066
 20
18.1023477199
 11
18.0003303292
 21
18.2656680751
  0
LINE
  5
3E6
100
AcDbEntity
  8
RACCORDO
100
AcDbLine
 62
7
  6
CONTINUOUS
 10
20.0768883551
 20
18.9319779024
 11
18.0201080972
 21
17.9255710246
  0
LWPOLYLINE
  5
3E7
100
AcDbEntity
  8
0
100
AcDbPolyline
 62
253
  6
CONTINUOUS
 90
65
 70
0
 10
-22.1562613629
 20
-2.7930479501
 10
-22.2111043306
 20
-2.8198392932
 10
-22.2987576323
 20
-2.8543781207
 10
-22.3899920544
 20
-2.8806948844
 10
-22.4845827211
 20
-2.8987641123
 10
-22.5821963066
 20
-2.9085455896
 10
-22.6825074746
 20
-2.9100278774
 10
-22.7853073661
 20
-2.9032237016
 10
-22.8903078252
 20
-2.8881403808
 10
-22.997111501
 20
-2.8648205434
 10
-23.1053421086
 20
-2.8333518213
 10
-23.2146251318
 20
-2.7938483698
 10
-23.324615194
 20
-2.746435664
 10
-23.4349744323
 20
-2.6912614867
 10
-23.5452985924
 20
-2.628532481
 10
-23.6552662975
 20
-2.5584313946
 10
-23.764661751
 20
-2.4810729323
 10
-23.8732042188
 20
-2.3966169889
 10
-23.9804443182
 20
-2.3053680291
 10
-24.0859164604
 20
-2.2076826502
 10
-24.1894490379
 20
-2.1036945575
 10
-24.2905068305
 20
-1.9939030292
 10
-24.3881449308
 20
-1.8793646354
 10
-24.4821832204
 20
-1.7604403989
 10
-24.5722815065
 20
-1.6376984667
 10
-24.6574346819
 20
-1.5127271547
 10
-24.7375186633
 20
-1.3861412219
 10
-24.8125021449
 20
-1.2584283165
 10
-24.8817621323
 20
-1.1311300496
 10
-24.94533593
 20
-1.0048985977
 10
-25.0034215928
 20
-0.8800943196
 10
-25.0558482477
 20
-0.7578420744
 10
-25.102783912
 20
-0.6387380368
 10
-25.1445842638
 20
-0.5229310453
 10
-25.1814673103
 20
-0.4108191656
 10
-25.2136631862
 20
-0.3028813169
 10
-25.2415644427
 20
-0.1990766226
 10
-25.2656013122
 20
-0.0989594527
 10
-25.2859996694
 20
-0.0028161833
 10
-25.3030649876
 20
0.0894255367
 10
-25.3172047292
 20
0.1787709865
 10
-25.3285839186
 20
0.2651104619
 10
-25.337382556
 20
0.3484378806
 10
-25.3438448021
 20
0.4298841029
 10
-25.3480515694
 20
0.509474182
 10
-25.3500741444
 20
0.5870667995
 10
-25.3499766949
 20
0.6634848744
 10
-25.3477623406
 20
0.7388357828
 10
-25.3434418819
 20
0.8128494337
 10
-25.3369975192
 20
0.8857354126
 10
-25.3283998834
 20
0.9575693481
 10
-25.3176575684
 20
1.0280878734
 10
-25.3048081399
 20
1.0969918687
 10
-25.2898563511
 20
1.1642682808
 10
-25.2728358534
 20
1.229781365
 10
-25.2538860935
 20
1.2930962531
 10
-25.2330733365
 20
1.354163136
 10
-25.2104559928
 20
1.4129686942
 10
-25.1862282185
 20
1.469199514
 10
-25.160499129
 20
1.5228295904
 10
-25.1333446386
 20
1.5739115857
 10
-25.1049537023
 20
1.6223061481
 10
-25.0754652545
 20
1.668006081
 10
-25.0449496098
 20
1.7111148613
 10
-25.0135058121
 20
1.7516850547
  0
LINE
  5
3E8
100
AcDbEntity
  8
RACCORDO
100
AcDbLine
 62
253
  6
CONTINUOUS
 10
17.3020841203
 20
16.59485635
 11
17.349826378
 21
16.6178939236
  0
LINE
  5
3E9
100
AcDbEntity
  8
0
100
AcDbLine
 62
253
  6
CONTINUOUS
 10
-13.271475735
 20
2.1425956592
 11
-14.1797139383
 21
1.707892875
  0
LWPOLYLINE
  5
3EA
100
AcDbEntity
  8
RACCORDO
100
AcDbPolyline
 62
253
  6
CONTINUOUS
 90
69
 70
0
 10
17.349826378
 20
16.6178939236
 10
17.3670207979
 20
16.6260630845
 10
17.3759229095
 20
16.630218151
 10
17.3850410807
 20
16.6344161413
 10
17.3943750461
 20
16.6386565872
 10
17.4039615898
 20
16.642924478
 10
17.4138010585
 20
16.6472203503
 10
17.4238931055
 20
16.6515436675
 10
17.4342734744
 20
16.6558778095
 10
17.4449436405
 20
16.6602238084
 10
17.4559021284
 20
16.6645806321
 10
17.4671802556
 20
16.6689285638
 10
17.4787798081
 20
16.6732686988
 10
17.4906989998
 20
16.6775999419
 10
17.502963789
 20
16.6818992908
 10
17.5155771754
 20
16.6861681062
 10
17.5285361593
 20
16.6904050274
 10
17.5418577
 20
16.6945829702
 10
17.5555443994
 20
16.6987029566
 10
17.5695936554
 20
16.7027639645
 10
17.5840146216
 20
16.7067358438
 10
17.5988086301
 20
16.710619273
 10
17.6139743487
 20
16.7144135736
 10
17.6295169341
 20
16.7180865589
 10
17.6454663093
 20
16.7216434297
 10
17.6617925512
 20
16.7250789854
 10
17.6784110476
 20
16.7283454371
 10
17.6953658535
 20
16.731444018
 10
17.7126129139
 20
16.7343734949
 10
17.7299354512
 20
16.7370823802
 10
17.7473128558
 20
16.7395590783
 10
17.7647657372
 20
16.7418151847
 10
17.7821391469
 20
16.7438339982
 10
17.799418426
 20
16.7456086335
 10
17.8166182334
 20
16.7471459758
 10
17.8336275967
 20
16.7484499804
 10
17.8504224987
 20
16.7495168245
 10
17.8670269567
 20
16.7503503309
 10
17.8834020508
 20
16.7509659228
 10
17.8995458171
 20
16.7513632726
 10
17.9154602194
 20
16.7515427079
 10
17.931112229
 20
16.7515206354
 10
17.9465071999
 20
16.7512962084
 10
17.9616397781
 20
16.7508702735
 10
17.9764608735
 20
16.7502617772
 10
17.9909642141
 20
16.7494699185
 10
18.0051560718
 20
16.7484954983
 10
18.0190061718
 20
16.7473598661
 10
18.0325056798
 20
16.7460635242
 10
18.0456634301
 20
16.7446059702
 10
18.0584756514
 20
16.7430070477
 10
18.0709380906
 20
16.7412677921
 10
18.0830550009
 20
16.739387168
 10
18.0948353698
 20
16.7373819113
 10
18.1062773913
 20
16.7352531242
 10
18.1173828713
 20
16.7329997045
 10
18.1281662157
 20
16.7306350826
 10
18.1386256831
 20
16.7281606741
 10
18.1487630148
 20
16.7255750633
 10
18.1585978409
 20
16.7228874334
 10
18.1681303333
 20
16.7200989784
 10
18.17736032
 20
16.7172085044
 10
18.1863069156
 20
16.714221613
 10
18.19497145
 20
16.7111390968
 10
18.2033525932
 20
16.7079601633
 10
18.2114654702
 20
16.704688037
 10
18.2193151227
 20
16.7013237926
 10
18.226896509
 20
16.6978663553
 10
18.2342096291
 20
16.6943157252
  0
LINE
  5
3EB
100
AcDbEntity
  8
RACCORDO
100
AcDbLine
 62
253
  6
CONTINUOUS
 10
17.2870628615
 20
16.5877508315
 11
17.3020841203
 21
16.59485635
  0
LINE
  5
3EC
100
AcDbEntity
  8
RACCORDO
100
AcDbLine
 62
253
  6
CONTINUOUS
 10
17.24223679
 20
16.5670101899
 11
17.2870628615
 21
16.5877508315
  0
LWPOLYLINE
  5
3ED
100
AcDbEntity
  8
RACCORDO
100
AcDbPolyline
 62
7
  6
CONTINUOUS
 90
3
 70
0
 10
17.1128603399
 20
16.6244096903
 10
17.0893882879
 20
16.6138896048
 10
17.06345508
 20
16.6020067363
  0
LINE
  5
3EE
100
AcDbEntity
  8
0
100
AcDbLine
 62
253
  6
CONTINUOUS
 10
-13.2698205921
 20
3.9562753635
 11
-14.5890519312
 21
3.3753082166
  0
LINE
  5
3EF
100
AcDbEntity
  8
0
100
AcDbLine
 62
7
  6
CONTINUOUS
 10
-13.2693271233
 20
4.1292446692
 11
-14.0075667248
 21
3.8066230104
  0
LINE
  5
3F0
100
AcDbEntity
  8
0
100
AcDbLine
 62
7
  6
CONTINUOUS
 10
-14.0075667248
 20
3.8066230104
 11
-14.6020626485
 21
3.5472765441
  0
LINE
  5
3F1
100
AcDbEntity
  8
RACCORDO
100
AcDbLine
 62
7
  6
CONTINUOUS
 10
17.0296486219
 20
16.5863982433
 11
17.0386862815
 21
16.5902650845
  0
LWPOLYLINE
  5
3F2
100
AcDbEntity
  8
RACCORDO
100
AcDbPolyline
 62
7
  6
CONTINUOUS
 90
3
 70
0
 10
17.1625624385
 20
16.6457062712
 10
17.1371069884
 20
16.6349783353
 10
17.1128603399
 20
16.6244096903
  0
LINE
  5
3F3
100
AcDbEntity
  8
RACCORDO
100
AcDbLine
 62
253
  6
CONTINUOUS
 10
17.0638906822
 20
16.6022089773
 11
17.0793975892
 21
16.6085416974
  0
LINE
  5
3F4
100
AcDbEntity
  8
RACCORDO
100
AcDbLine
 62
7
  6
CONTINUOUS
 10
17.1891640238
 20
16.6564877321
 11
17.1625624385
 21
16.6457062712
  0
LWPOLYLINE
  5
3F5
100
AcDbEntity
  8
RACCORDO
100
AcDbPolyline
 62
7
  6
CONTINUOUS
 90
8
 70
0
 10
21.5776295769
 20
13.4994343624
 10
21.6011115029
 20
13.5068752309
 10
21.625511289
 20
13.5120170259
 10
21.6506036713
 20
13.5147197538
 10
21.6760221443
 20
13.5148707877
 10
21.7013167605
 20
13.5124410957
 10
21.7262708662
 20
13.5074468685
 10
21.7505639889
 20
13.4999503774
  0
LINE
  5
3F6
100
AcDbEntity
  8
RACCORDO
100
AcDbLine
 62
7
  6
CONTINUOUS
 10
17.3109470132
 20
13.7535754183
 11
17.2119995094
 21
13.7241570416
  0
LWPOLYLINE
  5
3F7
100
AcDbEntity
  8
RACCORDO
100
AcDbPolyline
 62
253
  6
CONTINUOUS
 90
3
 70
0
 10
21.57781611
 20
13.4975123296
 10
21.5623298451
 20
13.4929444968
 10
21.5553127104
 20
13.4898746543
  0
LWPOLYLINE
  5
3F8
100
AcDbEntity
  8
RACCORDO
100
AcDbPolyline
 62
7
  6
CONTINUOUS
 90
3
 70
0
 10
17.2119995094
 20
13.7241570416
 10
17.1901945067
 20
13.7178244478
 10
17.169517063
 20
13.71215805
  0
LWPOLYLINE
  5
3F9
100
AcDbEntity
  8
0
100
AcDbPolyline
 62
7
  6
CONTINUOUS
 90
3
 70
0
 10
-15.3479621698
 20
5.9747657008
 10
-15.2493633631
 20
5.9320070777
 10
-15.2004761815
 20
5.9083679326
  0
LINE
  5
3FA
100
AcDbEntity
  8
0
100
AcDbLine
 62
7
  6
CONTINUOUS
 10
-15.2004087021
 20
5.9083347365
 11
-13.263709463
 21
4.9399851169
  0
LINE
  5
3FB
100
AcDbEntity
  8
0
100
AcDbLine
 62
7
  6
CONTINUOUS
 10
12.3767557641
 20
-7.8802474966
 11
14.3134550033
 21
-8.8485971162
  0
LINE
  5
3FC
100
AcDbEntity
  8
0
100
AcDbLine
 62
253
  6
CONTINUOUS
 10
-15.2783729088
 20
6.0721433705
 11
-13.1776734775
 21
5.0217936548
  0
LINE
  5
3FD
100
AcDbEntity
  8
0
100
AcDbLine
 62
253
  6
CONTINUOUS
 10
12.2987915575
 20
-7.7164388627
 11
14.3994909888
 21
-8.7667885783
  0
LINE
  5
3FE
100
AcDbEntity
  8
0
100
AcDbLine
 62
253
  6
CONTINUOUS
 10
6.5968967455
 20
-3.1354828787
 11
1.193804666
 21
-0.4339368389
  0
LINE
  5
3FF
100
AcDbEntity
  8
0
100
AcDbLine
 62
253
  6
CONTINUOUS
 10
-20.9802677208
 20
10.6530993545
 11
-26.3833598003
 21
13.3546453942
  0
LINE
  5
400
100
AcDbEntity
  8
0
100
AcDbLine
 62
253
  6
CONTINUOUS
 10
6.5123774243
 20
-2.6276117205
 11
1.6143237846
 21
-0.1785849006
  0
LINE
  5
401
100
AcDbEntity
  8
0
100
AcDbLine
 62
253
  6
CONTINUOUS
 10
-21.064787042
 20
11.1609705127
 11
-25.9628406817
 21
13.6099973325
  0
LWPOLYLINE
  5
402
100
AcDbEntity
  8
0
100
AcDbPolyline
 62
253
  6
CONTINUOUS
 90
8
 70
0
 10
4.1889821638
 20
-10.8230347352
 10
4.2061661219
 20
-10.8476170899
 10
4.2215172617
 20
-10.8737582645
 10
4.2348088053
 20
-10.9010720829
 10
4.2458444006
 20
-10.9291550461
 10
4.2544610219
 20
-10.9575922926
 10
4.2605313783
 20
-10.985963727
 10
4.2639657943
 20
-11.0138502266
  0
LWPOLYLINE
  5
403
100
AcDbEntity
  8
RACCORDO
100
AcDbPolyline
 62
253
  6
CONTINUOUS
 90
8
 70
0
 10
-22.0041986321
 20
34.7531173863
 10
-21.9959956076
 20
34.7386614118
 10
-21.9898259589
 20
34.7253240756
 10
-21.9857571314
 20
34.713251179
 10
-21.983833598
 20
34.7025746185
 10
-21.9840764291
 20
34.6934112158
 10
-21.9864828836
 20
34.6858613128
 10
-21.988827419
 20
34.6822951815
  0
LINE
  5
404
100
AcDbEntity
  8
0
100
AcDbLine
 62
7
  6
CONTINUOUS
 10
5.5967542823
 20
-13.6586596059
 11
5.6306278803
 21
-13.7333776694
  0
LWPOLYLINE
  5
405
100
AcDbEntity
  8
0
100
AcDbPolyline
 62
253
  6
CONTINUOUS
 90
66
 70
0
 10
5.6582061491
 20
-13.6456364603
 10
5.698680139
 20
-13.7351744277
 10
5.7373759243
 20
-13.8256629888
 10
5.7742942685
 20
-13.9171017451
 10
5.8095647177
 20
-14.0098078606
 10
5.8430593884
 20
-14.1034633029
 10
5.8743925916
 20
-14.1971150386
 10
5.9034652086
 20
-14.2905832155
 10
5.9303773117
 20
-14.3840471844
 10
5.9550414984
 20
-14.4770929763
 10
5.9774104911
 20
-14.5694490878
 10
5.9975321662
 20
-14.6613867045
 10
6.0154618624
 20
-14.7533058848
 10
6.0312584416
 20
-14.8449693006
 10
6.0448640148
 20
-14.9366137661
 10
6.0561595628
 20
-15.0293501522
 10
6.0653247956
 20
-15.1231685314
 10
6.072182294
 20
-15.2180776269
 10
6.0760787547
 20
-15.3152155485
 10
6.0772386706
 20
-15.4149553502
 10
6.0754418749
 20
-15.5169217043
 10
6.0693693884
 20
-15.6211294586
 10
6.0590962454
 20
-15.7282427432
 10
6.044553325
 20
-15.8375943142
 10
6.0242051677
 20
-15.9472020866
 10
5.997835292
 20
-16.0575317812
 10
5.9656649888
 20
-16.1681151318
 10
5.9268125489
 20
-16.2755705982
 10
5.8809190757
 20
-16.3798214582
 10
5.8283438817
 20
-16.480944192
 10
5.7692779845
 20
-16.5757894758
 10
5.7034451853
 20
-16.6639711239
 10
5.6311172403
 20
-16.7458776433
 10
5.5533030405
 20
-16.819523892
 10
5.4699384968
 20
-16.8845114162
 10
5.3810804659
 20
-16.9412424751
 10
5.2879169815
 20
-16.9889342013
 10
5.190516954
 20
-17.0273830085
 10
5.0888040562
 20
-17.0567963989
 10
4.9837477538
 20
-17.0770085173
 10
4.8753393008
 20
-17.0879615835
 10
4.7635813222
 20
-17.0897166169
 10
4.6494603663
 20
-17.0822859501
 10
4.5329024282
 20
-17.0655888128
 10
4.4139772046
 20
-17.0397082587
 10
4.2938871296
 20
-17.0049021801
 10
4.1726392186
 20
-16.9610877803
 10
4.0502243809
 20
-16.9083489569
 10
3.9278214342
 20
-16.8471933556
 10
3.8054750783
 20
-16.7775879606
 10
3.6831410309
 20
-16.6995655661
 10
3.5618652528
 20
-16.6137322063
 10
3.4415641826
 20
-16.5199475719
 10
3.3223242857
 20
-16.4183504318
 10
3.2054470764
 20
-16.3099651662
 10
3.0908001621
 20
-16.1944472953
 10
2.9785210708
 20
-16.0721385781
 10
2.870316198
 20
-15.9450927536
 10
2.7662664532
 20
-15.813030276
 10
2.6662971169
 20
-15.6762274181
 10
2.5718799818
 20
-15.5375722629
 10
2.4832934839
 20
-15.3970675103
 10
2.4002643293
 20
-15.2547077505
 10
2.3234342968
 20
-15.1133701831
 10
2.2530924033
 20
-14.9732736438
 10
2.1889521132
 20
-14.8341979994
  0
LWPOLYLINE
  5
406
100
AcDbEntity
  8
0
100
AcDbPolyline
 62
7
  6
CONTINUOUS
 90
27
 70
0
 10
5.6306278803
 20
-13.7333776694
 10
5.6922074194
 20
-13.8789718687
 10
5.7479683499
 20
-14.0244346584
 10
5.7978001969
 20
-14.1690475735
 10
5.841758048
 20
-14.3124856829
 10
5.8799871579
 20
-14.4548112894
 10
5.9124607969
 20
-14.5955538297
 10
5.9391726256
 20
-14.7342464129
 10
5.9602134221
 20
-14.8709491157
 10
5.9755650757
 20
-15.0052122042
 10
5.9852358474
 20
-15.1365825057
 10
5.9892603334
 20
-15.2650506616
 10
5.987642669
 20
-15.3901653692
 10
5.9804086603
 20
-15.5114541843
 10
5.9675781405
 20
-15.6287880602
 10
5.9491855069
 20
-15.7417320063
 10
5.9253153583
 20
-15.8497572888
 10
5.8960625216
 20
-15.9525023312
 10
5.8615591547
 20
-16.0495156687
 10
5.8219917056
 20
-16.1403691912
 10
5.7775717113
 20
-16.2247058445
 10
5.7285866471
 20
-16.3021072997
 10
5.6752408208
 20
-16.3724337858
 10
5.6175509924
 20
-16.4357500851
 10
5.5557889086
 20
-16.4917755929
 10
5.4899659382
 20
-16.5405523363
 10
5.4210671288
 20
-16.5815434849
  0
LINE
  5
407
100
AcDbEntity
  8
0
100
AcDbLine
 62
253
  6
CONTINUOUS
 10
0.6359697322
 20
-11.1345182238
 11
0.6267670308
 21
-10.3815741758
  0
LINE
  5
408
100
AcDbEntity
  8
0
100
AcDbLine
 62
253
  6
CONTINUOUS
 10
1.0531942852
 20
-10.8742234593
 11
1.0461405835
 21
-10.2801143271
  0
LINE
  5
409
100
AcDbEntity
  8
0
100
AcDbLine
 62
253
  6
CONTINUOUS
 10
0.6267670308
 20
-10.3815741758
 11
0.6203293019
 21
-9.7916002555
  0
LINE
  5
40A
100
AcDbEntity
  8
0
100
AcDbLine
 62
253
  6
CONTINUOUS
 10
1.0461405835
 20
-10.2801143271
 11
1.0394756479
 21
-9.6563023843
  0
LINE
  5
40B
100
AcDbEntity
  8
0
100
AcDbLine
 62
253
  6
CONTINUOUS
 10
0.6203293019
 20
-9.7916002555
 11
0.6142396652
 21
-9.1655821811
  0
LINE
  5
40C
100
AcDbEntity
  8
0
100
AcDbLine
 62
253
  6
CONTINUOUS
 10
1.0394756479
 20
-9.6563023843
 11
1.0338383011
 21
-9.0611547147
  0
LINE
  5
40D
100
AcDbEntity
  8
0
100
AcDbLine
 62
253
  6
CONTINUOUS
 10
0.6142396652
 20
-9.1655821811
 11
0.6104415715
 21
-8.7287437072
  0
LINE
  5
40E
100
AcDbEntity
  8
0
100
AcDbLine
 62
7
  6
CONTINUOUS
 10
1.8803958166
 20
-9.4844334724
 11
1.8803958166
 21
-10.4574333056
  0
LINE
  5
40F
100
AcDbEntity
  8
0
100
AcDbLine
 62
253
  6
CONTINUOUS
 10
1.193804666
 20
-0.4339368389
 11
1.2005878376
 21
0.3261263184
  0
LINE
  5
410
100
AcDbEntity
  8
0
100
AcDbLine
 62
253
  6
CONTINUOUS
 10
1.616528712
 20
-0.1774739355
 11
1.6220996341
 21
0.4235707587
  0
LINE
  5
411
100
AcDbEntity
  8
0
100
AcDbLine
 62
253
  6
CONTINUOUS
 10
1.2005878376
 20
0.3261263184
 11
1.2066765946
 21
0.9225862891
  0
LINE
  5
412
100
AcDbEntity
  8
0
100
AcDbLine
 62
253
  6
CONTINUOUS
 10
1.6220996341
 20
0.4235707587
 11
1.6286905085
 21
1.0551645243
  0
LINE
  5
413
100
AcDbEntity
  8
0
100
AcDbLine
 62
253
  6
CONTINUOUS
 10
1.2066765946
 20
0.9225862891
 11
1.2138701159
 21
1.5553016113
  0
LINE
  5
414
100
AcDbEntity
  8
0
100
AcDbLine
 62
253
  6
CONTINUOUS
 10
1.6286905085
 20
1.0551645243
 11
1.6357337281
 21
1.6609595511
  0
LINE
  5
415
100
AcDbEntity
  8
0
100
AcDbLine
 62
253
  6
CONTINUOUS
 10
1.2138701159
 20
1.5553016113
 11
1.2193328267
 21
1.9964904524
  0
LWPOLYLINE
  5
416
100
AcDbEntity
  8
RACCORDO
100
AcDbPolyline
 62
253
  6
CONTINUOUS
 90
14
 70
0
 10
7.6860585587
 20
17.7846115687
 10
7.6758239381
 20
17.7609497064
 10
7.6637826521
 20
17.7385165479
 10
7.6500661398
 20
17.717556967
 10
7.6348241267
 20
17.6982997523
 10
7.6182229899
 20
17.6809551098
 10
7.6004439427
 20
17.6657123686
 10
7.5816810559
 20
17.6527379139
 10
7.5621391397
 20
17.6421733711
 10
7.5420315078
 20
17.6341340597
 10
7.5215776492
 20
17.6287077342
 10
7.5010008322
 20
17.625953627
 10
7.4805256674
 20
17.6259018011
 10
7.4592150652
 20
17.6287904079
  0
LWPOLYLINE
  5
417
100
AcDbEntity
  8
RACCORDO
100
AcDbPolyline
 62
7
  6
CONTINUOUS
 90
3
 70
0
 10
9.8524923298
 20
18.8029894993
 10
9.8403332929
 20
18.7845199189
 10
9.8309777344
 20
18.7723926048
  0
LWPOLYLINE
  5
418
100
AcDbEntity
  8
RACCORDO
100
AcDbPolyline
 62
7
  6
CONTINUOUS
 90
5
 70
0
 10
16.9917413232
 20
16.5616144356
 10
16.9986604032
 20
16.567367089
 10
17.0107525999
 20
16.5759822139
 10
17.0240616829
 20
16.5836647834
 10
17.0296486219
 20
16.5863982433
  0
LINE
  5
419
100
AcDbEntity
  8
RACCORDO
100
AcDbLine
 62
7
  6
CONTINUOUS
 10
18.2322401316
 20
12.8527064543
 11
17.8745609823
 21
12.6531105025
  0
LINE
  5
41A
100
AcDbEntity
  8
RACCORDO
100
AcDbLine
 62
7
  6
CONTINUOUS
 10
21.0182893302
 20
13.2282403993
 11
19.4355326735
 21
12.4162562744
  0
LINE
  5
41B
100
AcDbEntity
  8
RACCORDO
100
AcDbLine
 62
7
  6
CONTINUOUS
 10
17.8745609823
 20
13.8858374748
 11
18.2322401316
 21
14.0651420196
  0
LINE
  5
41C
100
AcDbEntity
  8
RACCORDO
100
AcDbLine
 62
7
  6
CONTINUOUS
 10
21.0200270308
 20
13.2291092951
 11
21.0182893322
 21
13.2282404003
  0
LINE
  5
41D
100
AcDbEntity
  8
RACCORDO
100
AcDbLine
 62
7
  6
CONTINUOUS
 10
18.2322401316
 20
14.0651420196
 11
23.5570742018
 21
16.7205559453
  0
LINE
  5
41E
100
AcDbEntity
  8
DRAFT
100
AcDbLine
 62
7
  6
CONTINUOUS
 10
18.2322401316
 20
12.8527064543
 11
23.5570742018
 21
15.4890378862
  0
LINE
  5
41F
100
AcDbEntity
  8
RACCORDO
100
AcDbLine
 62
7
  6
CONTINUOUS
 10
22.9500777975
 20
17.0223061274
 11
18.3029508097
 21
14.7318550733
  0
LINE
  5
420
100
AcDbEntity
  8
RACCORDO
100
AcDbLine
 62
7
  6
CONTINUOUS
 10
24.3195290422
 20
16.8106575588
 11
23.6806682656
 21
16.4980554337
  0
LINE
  5
421
100
AcDbEntity
  8
RACCORDO
100
AcDbLine
 62
7
  6
CONTINUOUS
 10
21.5553127104
 20
13.4898746543
 11
21.0200420122
 21
13.2291273405
  0
LINE
  5
422
100
AcDbEntity
  8
RACCORDO
100
AcDbLine
 62
253
  6
CONTINUOUS
 10
21.6658248215
 20
13.4821398632
 11
21.1313749428
 21
13.2217923966
  0
LINE
  5
423
100
AcDbEntity
  8
0
100
AcDbLine
 62
7
  6
CONTINUOUS
 10
2.9904921765
 20
4.7360428362
 11
2.9907084299
 21
4.7361450207
  0
LWPOLYLINE
  5
424
100
AcDbEntity
  8
RACCORDO
100
AcDbPolyline
 62
7
  6
CONTINUOUS
 90
10
 70
0
 10
24.3195290422
 20
16.8106575588
 10
24.3724158864
 20
16.834075238
 10
24.4244759024
 20
16.8524044074
 10
24.4757090901
 20
16.865645067
 10
24.5264508093
 20
16.8738087074
 10
24.5763657002
 20
16.876883838
 10
24.6244476837
 20
16.8748359871
 10
24.6705229114
 20
16.8676128861
 10
24.7147652318
 20
16.8552668035
 10
24.7605228014
 20
16.8360222415
  0
LINE
  5
425
100
AcDbEntity
  8
RACCORDO
100
AcDbLine
 62
7
  6
CONTINUOUS
 10
21.5553127104
 20
13.4898746543
 11
21.5776295769
 21
13.4994343624
  0
LWPOLYLINE
  5
426
100
AcDbEntity
  8
0
100
AcDbPolyline
 62
7
  6
CONTINUOUS
 90
27
 70
0
 10
2.9906490248
 20
4.7361154937
 10
3.077396614
 20
4.7715601816
 10
3.1666108021
 20
4.7975192566
 10
3.2597288036
 20
4.8146322475
 10
3.3566815278
 20
4.8228178882
 10
3.4570262498
 20
4.8219671333
 10
3.5606940508
 20
4.811968514
 10
3.6673449474
 20
4.7927358192
 10
3.7763806755
 20
4.7642581072
 10
3.8872589608
 20
4.7265804188
 10
3.9994615854
 20
4.6798272759
 10
4.1123931359
 20
4.6241920742
 10
4.225420157
 20
4.5599632479
 10
4.3379623998
 20
4.4875008052
 10
4.4495501378
 20
4.4071308234
 10
4.5597936399
 20
4.3191595356
 10
4.6680818808
 20
4.2241385308
 10
4.7741227643
 20
4.1223793503
 10
4.8780466522
 20
4.0137401207
 10
4.9795789331
 20
3.8984271789
 10
5.0781327508
 20
3.7770116041
 10
5.173378858
 20
3.6498234496
 10
5.2649761776
 20
3.517251152
 10
5.352488332
 20
3.3798421857
 10
5.4354924418
 20
3.2382068884
 10
5.5136615205
 20
3.0928943477
 10
5.586690123
 20
2.9444461702
  0
LINE
  5
427
100
AcDbEntity
  8
RACCORDO
100
AcDbLine
 62
253
  6
CONTINUOUS
 10
-21.9210343943
 20
-1.7819120494
 11
-21.8727853351
 21
-1.7650432018
  0
LINE
  5
428
100
AcDbEntity
  8
0
100
AcDbLine
 62
7
  6
CONTINUOUS
 10
-25.1134055552
 20
14.0379900084
 11
-21.0567811927
 21
12.0096778271
  0
LINE
  5
429
100
AcDbEntity
  8
0
100
AcDbLine
 62
7
  6
CONTINUOUS
 10
2.4637589111
 20
0.2494077752
 11
6.5203832736
 21
-1.778904406
  0
LINE
  5
42A
100
AcDbEntity
  8
0
100
AcDbLine
 62
253
  6
CONTINUOUS
 10
-24.2772743345
 20
14.444630166
 11
-21.0477950613
 21
12.8298905294
  0
LINE
  5
42B
100
AcDbEntity
  8
0
100
AcDbLine
 62
253
  6
CONTINUOUS
 10
3.2998901318
 20
0.6560479329
 11
6.529369405
 21
-0.9586917037
  0
LINE
  5
42C
100
AcDbEntity
  8
0
100
AcDbLine
 62
7
  6
CONTINUOUS
 10
-24.2092423208
 20
14.4705641017
 11
-21.0470974075
 21
12.889491645
  0
LINE
  5
42D
100
AcDbEntity
  8
0
100
AcDbLine
 62
7
  6
CONTINUOUS
 10
3.3679221454
 20
0.6819818685
 11
6.5300670587
 21
-0.8990905881
  0
LINE
  5
42E
100
AcDbEntity
  8
0
100
AcDbLine
 62
7
  6
CONTINUOUS
 10
-26.1146735977
 20
15.536163214
 11
-25.3165726282
 21
15.1371127292
  0
LINE
  5
42F
100
AcDbEntity
  8
0
100
AcDbLine
 62
7
  6
CONTINUOUS
 10
-21.8409890086
 20
13.3993209194
 11
-21.0465629168
 21
13.0021078735
  0
LINE
  5
430
100
AcDbEntity
  8
0
100
AcDbLine
 62
7
  6
CONTINUOUS
 10
1.4624908686
 20
1.7475809808
 11
2.2605918381
 21
1.3485304961
  0
LINE
  5
431
100
AcDbEntity
  8
0
100
AcDbLine
 62
7
  6
CONTINUOUS
 10
5.7361754577
 20
-0.3892613137
 11
6.5306015495
 21
-0.7864743596
  0
LINE
  5
432
100
AcDbEntity
  8
0
100
AcDbLine
 62
253
  6
CONTINUOUS
 10
-21.9189338338
 20
13.5656237826
 11
-20.9556149461
 21
13.0839643387
  0
LINE
  5
433
100
AcDbEntity
  8
0
100
AcDbLine
 62
253
  6
CONTINUOUS
 10
1.2193328267
 20
1.9964904524
 11
2.182676213
 21
1.5148187592
  0
LINE
  5
434
100
AcDbEntity
  8
0
100
AcDbLine
 62
253
  6
CONTINUOUS
 10
5.6582306477
 20
-0.2229584297
 11
6.6215495202
 21
-0.7046178944
  0
LINE
  5
435
100
AcDbEntity
  8
0
100
AcDbLine
 62
253
  6
CONTINUOUS
 10
-26.3578316396
 20
15.7850726855
 11
-25.3944882684
 21
15.3034010299
  0
LINE
  5
436
100
AcDbEntity
  8
0
100
AcDbLine
 62
7
  6
CONTINUOUS
 10
5.5709943542
 20
-0.1023641993
 11
3.4202454329
 21
0.9730102613
  0
LINE
  5
437
100
AcDbEntity
  8
0
100
AcDbLine
 62
7
  6
CONTINUOUS
 10
-22.0061701121
 20
13.6862180338
 11
-24.1569190334
 21
14.7615924944
  0
LWPOLYLINE
  5
438
100
AcDbEntity
  8
0
100
AcDbPolyline
 62
7
  6
CONTINUOUS
 90
15
 70
0
 10
-26.1142594868
 20
15.535957077
 10
-26.1221206951
 20
15.5400253176
 10
-26.1442196882
 20
15.5527183041
 10
-26.1657942765
 20
15.5668961351
 10
-26.1868700338
 20
15.5824267191
 10
-26.2073064889
 20
15.5991503983
 10
-26.2271018243
 20
15.6169642091
 10
-26.2462683428
 20
15.6357530208
 10
-26.2646664471
 20
15.655382639
 10
-26.2823112503
 20
15.6757762167
 10
-26.2992109423
 20
15.696826714
 10
-26.3152081875
 20
15.71837276
 10
-26.3302644198
 20
15.7403053624
 10
-26.3444629306
 20
15.7625654089
 10
-26.3578316396
 20
15.7850726855
  0
LWPOLYLINE
  5
439
100
AcDbEntity
  8
0
100
AcDbPolyline
 62
7
  6
CONTINUOUS
 90
15
 70
0
 10
1.4629049794
 20
1.7473748438
 10
1.4550437712
 20
1.7514430845
 10
1.4329447781
 20
1.7641360709
 10
1.4113701897
 20
1.778313902
 10
1.3902944325
 20
1.793844486
 10
1.3698579774
 20
1.8105681652
 10
1.350062642
 20
1.828381976
 10
1.3308961234
 20
1.8471707876
 10
1.3124980191
 20
1.8668004059
 10
1.294853216
 20
1.8871939836
 10
1.277953524
 20
1.9082444808
 10
1.2619562788
 20
1.9297905269
 10
1.2469000465
 20
1.9517231292
 10
1.2327015357
 20
1.9739831758
 10
1.2193328267
 20
1.9964904524
  0
LWPOLYLINE
  5
43A
100
AcDbEntity
  8
0
100
AcDbPolyline
 62
253
  6
CONTINUOUS
 90
11
 70
0
 10
-21.8408396447
 20
13.3992463759
 10
-21.8454318904
 20
13.4016677743
 10
-21.8592414271
 20
13.4107371561
 10
-21.8723004513
 20
13.422348166
 10
-21.8841778624
 20
13.4364282104
 10
-21.8946808013
 20
13.4530345329
 10
-21.9035656922
 20
13.4721210469
 10
-21.9105007767
 20
13.4931872995
 10
-21.9153818103
 20
13.5158728317
 10
-21.9182045119
 20
13.5400958807
 10
-21.918931483
 20
13.5656226072
  0
LWPOLYLINE
  5
43B
100
AcDbEntity
  8
0
100
AcDbPolyline
 62
253
  6
CONTINUOUS
 90
11
 70
0
 10
5.7363248216
 20
-0.3893358572
 10
5.7317325758
 20
-0.3869144589
 10
5.7179230391
 20
-0.377845077
 10
5.704864015
 20
-0.3662340671
 10
5.6929866038
 20
-0.3521540227
 10
5.682483665
 20
-0.3355477003
 10
5.6735987741
 20
-0.3164611863
 10
5.6666636896
 20
-0.2953949336
 10
5.661782656
 20
-0.2727094014
 10
5.6589599544
 20
-0.2484863524
 10
5.6582329832
 20
-0.2229596259
  0
LWPOLYLINE
  5
43C
100
AcDbEntity
  8
RACCORDO
100
AcDbPolyline
 62
7
  6
CONTINUOUS
 90
7
 70
0
 10
-25.8094051924
 20
34.2673019404
 10
-25.8279451786
 20
34.2875729806
 10
-25.8441743517
 20
34.3097942684
 10
-25.8579817977
 20
34.3339013102
 10
-25.8691200602
 20
34.3596381351
 10
-25.8773499107
 20
34.3866410775
 10
-25.8825203964
 20
34.4146946627
  0
LWPOLYLINE
  5
43D
100
AcDbEntity
  8
RACCORDO
100
AcDbPolyline
 62
253
  6
CONTINUOUS
 90
16
 70
0
 10
21.0503767231
 20
-30.1971516529
 10
21.0401923189
 20
-30.1817590465
 10
21.0282001303
 20
-30.1655496143
 10
21.0145234517
 20
-30.1486963883
 10
20.9992978423
 20
-30.131372958
 10
20.9826894199
 20
-30.113774227
 10
20.9648987987
 20
-30.0961150908
 10
20.946129375
 20
-30.0785966783
 10
20.9265784634
 20
-30.0614024285
 10
20.9064584677
 20
-30.0447192345
 10
20.8859883855
 20
-30.0287289321
 10
20.8653928369
 20
-30.013607226
 10
20.8448983184
 20
-29.9995205053
 10
20.8247293663
 20
-29.9866230726
 10
20.8051061025
 20
-29.9750556586
 10
20.7862431111
 20
-29.9649447553
  0
LWPOLYLINE
  5
43E
100
AcDbEntity
  8
0
100
AcDbPolyline
 62
253
  6
CONTINUOUS
 90
65
 70
0
 10
2.182676213
 20
1.5148187592
 10
2.14398834
 20
1.6052498043
 10
2.107145677
 20
1.696664941
 10
2.0721489877
 20
1.7890645344
 10
2.038877072
 20
1.8827699198
 10
2.0074527926
 20
1.9774605561
 10
1.9782426986
 20
2.0721738449
 10
1.9513433019
 20
2.1667286319
 10
1.9266590443
 20
2.2613065236
 10
1.9042678698
 20
2.3554888215
 10
1.8842106418
 20
2.4490008154
 10
1.8664470958
 20
2.5421174967
 10
1.8509334952
 20
2.6352447248
 10
1.8376041464
 20
2.7281417558
 10
1.826525716
 20
2.8210497926
 10
1.8178537751
 20
2.9150979823
 10
1.8114078876
 20
3.0102760341
 10
1.8073707804
 20
3.1065953253
 10
1.8064441792
 20
3.2052181766
 10
1.808416087
 20
3.3065238901
 10
1.8135028267
 20
3.4101352162
 10
1.823049918
 20
3.516080273
 10
1.8370086477
 20
3.6250363509
 10
1.8554336423
 20
3.736328959
 10
1.8798251822
 20
3.8479584227
 10
1.9104240858
 20
3.9604026313
 10
1.946994344
 20
4.0731859594
 10
1.9903180883
 20
4.1828770779
 10
2.0407582847
 20
4.2894012995
 10
2.0979523831
 20
4.3928334856
 10
2.1615896543
 20
4.4899644564
 10
2.231932534
 20
4.5804011446
 10
2.3087141439
 20
4.6645344966
 10
2.3908257255
 20
4.7403294362
 10
2.4783097324
 20
4.807376692
 10
2.5711164788
 20
4.8660821086
 10
2.667996721
 20
4.9156322137
 10
2.7688642613
 20
4.9558147774
 10
2.8737978808
 20
4.9868385285
 10
2.9817950908
 20
5.0085211007
 10
3.09285588
 20
5.020800335
 10
3.2069741388
 20
5.0237355086
 10
3.323138258
 20
5.0173264234
 10
3.4414156502
 20
5.0014890131
 10
3.5617345946
 20
4.9763053195
 10
3.6828751159
 20
4.942024464
 10
3.8048240602
 20
4.8985605809
 10
3.927592506
 20
4.8459985616
 10
4.0499973689
 20
4.7848439183
 10
4.1719916336
 20
4.7150624777
 10
4.2936227329
 20
4.6366886091
 10
4.4138498688
 20
4.5503309283
 10
4.532755051
 20
4.4558483498
 10
4.6502591739
 20
4.3533833228
 10
4.7650802812
 20
4.2439700062
 10
4.8773441908
 20
4.127260633
 10
4.9869302202
 20
4.0036053848
 10
5.0921866626
 20
3.8750853451
 10
5.1930257554
 20
3.7414175415
 10
5.2895414511
 20
3.6028878632
 10
5.380353456
 20
3.4624301429
 10
5.4651830925
 20
3.3200469597
 10
5.5443141802
 20
3.1757381664
 10
5.6172077515
 20
3.0324323684
 10
5.6835801218
 20
2.8903510675
  0
LWPOLYLINE
  5
43F
100
AcDbEntity
  8
0
100
AcDbPolyline
 62
253
  6
CONTINUOUS
 90
37
 70
0
 10
2.5636596493
 20
1.6796701662
 10
2.5290244792
 20
1.7609855098
 10
2.4959181569
 20
1.8433534201
 10
2.464408894
 20
1.9266951037
 10
2.4344967536
 20
2.0111272925
 10
2.406325689
 20
2.0963657559
 10
2.3801387077
 20
2.1817197732
 10
2.3560062957
 20
2.2669270026
 10
2.333896375
 20
2.3520603658
 10
2.3138475814
 20
2.4369279294
 10
2.2959202611
 20
2.5211877008
 10
2.2800599101
 20
2.6050011416
 10
2.2661693441
 20
2.6889263564
 10
2.2543309632
 20
2.7726129836
 10
2.2445491939
 20
2.856215899
 10
2.2367603532
 20
2.9410094036
 10
2.2311244214
 20
3.0267348411
 10
2.2277863687
 20
3.1133493667
 10
2.2269109289
 20
3.2023416023
 10
2.2288132801
 20
3.2936044616
 10
2.2338147483
 20
3.3866832445
 10
2.2423587793
 20
3.4823727307
 10
2.2549601651
 20
3.580625717
 10
2.2720514724
 20
3.6805148512
 10
2.2940710444
 20
3.7813737666
 10
2.3215881859
 20
3.8829282555
 10
2.3549864092
 20
3.9841179479
 10
2.394249258
 20
4.0831562269
 10
2.439688342
 20
4.1794682439
 10
2.4915233945
 20
4.2722945482
 10
2.549213263
 20
4.3598840556
 10
2.6126999159
 20
4.4416685895
 10
2.6820110927
 20
4.5172393968
 10
2.7563612655
 20
4.5855046144
 10
2.8353922829
 20
4.6460912268
 10
2.9190067125
 20
4.6988823286
 10
2.9904921765
 20
4.7360428362
  0
LINE
  5
440
100
AcDbEntity
  8
RACCORDO
100
AcDbLine
 62
7
  6
CONTINUOUS
 10
3.4927302461
 20
-10.3789448098
 11
3.4844371017
 21
-10.286454115
  0
LINE
  5
441
100
AcDbEntity
  8
0
100
AcDbLine
 62
7
  6
CONTINUOUS
 10
4.6673547055
 20
-14.4400532426
 11
4.6078987715
 21
-13.7769608866
  0
LINE
  5
442
100
AcDbEntity
  8
RACCORDO
100
AcDbLine
 62
253
  6
CONTINUOUS
 10
4.9253811853
 20
-14.3047073685
 11
4.67715586
 21
-11.53633246
  0
LINE
  5
443
100
AcDbEntity
  8
RACCORDO
100
AcDbLine
 62
253
  6
CONTINUOUS
 10
5.2594879784
 20
-14.0764792846
 11
5.0297408493
 21
-11.5141855845
  0
LWPOLYLINE
  5
444
100
AcDbEntity
  8
0
100
AcDbPolyline
 62
7
  6
CONTINUOUS
 90
12
 70
0
 10
5.570442156
 20
-0.1287792559
 10
5.572529448
 20
-0.1571153215
 10
5.577322575
 20
-0.1852842244
 10
5.5848389421
 20
-0.2130711543
 10
5.5950696405
 20
-0.2402079829
 10
5.6079686338
 20
-0.266403105
 10
5.6234751959
 20
-0.2913972213
 10
5.6415613439
 20
-0.3149963898
 10
5.6620339853
 20
-0.3368238231
 10
5.6844721195
 20
-0.3564184072
 10
5.7087576926
 20
-0.3737004561
 10
5.7363248216
 20
-0.3893358572
  0
LWPOLYLINE
  5
445
100
AcDbEntity
  8
RACCORDO
100
AcDbPolyline
 62
253
  6
CONTINUOUS
 90
16
 70
0
 10
5.0297408493
 20
-11.5141855845
 10
5.0281831204
 20
-11.4866463139
 10
5.0243265862
 20
-11.4582420524
 10
5.0182091546
 20
-11.4292860448
 10
5.0098899323
 20
-11.4000999549
 10
4.99945975
 20
-11.3710031319
 10
4.9870398742
 20
-11.3423091264
 10
4.9727619671
 20
-11.3143308798
 10
4.9567789517
 20
-11.2873804756
 10
4.9392757548
 20
-11.2617575071
 10
4.9204468876
 20
-11.2377473342
 10
4.9004929762
 20
-11.2156083558
 10
4.8796303617
 20
-11.1955738011
 10
4.8580853322
 20
-11.1778619088
 10
4.8360927583
 20
-11.162671372
 10
4.8138928191
 20
-11.1501699441
  0
LWPOLYLINE
  5
446
100
AcDbEntity
  8
RACCORDO
100
AcDbPolyline
 62
253
  6
CONTINUOUS
 90
16
 70
0
 10
4.638084525
 20
-11.4772115183
 10
4.6371204317
 20
-11.4535510016
 10
4.638359658
 20
-11.4288076646
 10
4.641786758
 20
-11.4032899122
 10
4.6473590157
 20
-11.3773158018
 10
4.6550069776
 20
-11.3512090789
 10
4.6646353182
 20
-11.3252951419
 10
4.6761240285
 20
-11.2998969862
 10
4.6893299112
 20
-11.2753311786
 10
4.7040883662
 20
-11.2519039112
 10
4.7202154416
 20
-11.2299071853
 10
4.7375101272
 20
-11.2096151715
 10
4.755756859
 20
-11.191280793
 10
4.774728207
 20
-11.1751325725
 10
4.7941877092
 20
-11.161371784
 10
4.8138928191
 20
-11.1501699441
  0
LWPOLYLINE
  5
447
100
AcDbEntity
  8
0
100
AcDbPolyline
 62
253
  6
CONTINUOUS
 90
6
 70
0
 10
4.2639657943
 20
-11.0138502266
 10
4.2647135341
 20
-11.040839832
 10
4.2627635518
 20
-11.0665338337
 10
4.2581446537
 20
-11.0905526615
 10
4.2509250736
 20
-11.1125414924
 10
4.2412114641
 20
-11.1321754917
  0
LWPOLYLINE
  5
448
100
AcDbEntity
  8
0
100
AcDbPolyline
 62
253
  6
CONTINUOUS
 90
11
 70
0
 10
2.1826493636
 20
1.5148321839
 10
2.1833040191
 20
1.4903446677
 10
2.1858939483
 20
1.4669852091
 10
2.1904023664
 20
1.4449721966
 10
2.1968270688
 20
1.4244262846
 10
2.205099391
 20
1.40564481
 10
2.2150053456
 20
1.3890174363
 10
2.2264159225
 20
1.3745985886
 10
2.2391565826
 20
1.3624711305
 10
2.2527832738
 20
1.3528291943
 10
2.2604762831
 20
1.3485883566
  0
LINE
  5
449
100
AcDbEntity
  8
0
100
AcDbLine
 62
7
  6
CONTINUOUS
 10
2.4637589111
 20
1.3251925169
 11
2.4637589111
 21
0.2494077752
  0
LINE
  5
44A
100
AcDbEntity
  8
0
100
AcDbLine
 62
253
  6
CONTINUOUS
 10
2.7165270373
 20
-9.9024990828
 11
2.7165270373
 21
-10.0507931479
  0
LINE
  5
44B
100
AcDbEntity
  8
0
100
AcDbLine
 62
7
  6
CONTINUOUS
 10
2.7866920872
 20
-9.9375816077
 11
2.7866920872
 21
-10.0274850434
  0
LINE
  5
44C
100
AcDbEntity
  8
0
100
AcDbLine
 62
253
  6
CONTINUOUS
 10
3.2998901318
 20
1.6922890964
 11
3.2998901318
 21
0.6560479329
  0
LINE
  5
44D
100
AcDbEntity
  8
0
100
AcDbLine
 62
7
  6
CONTINUOUS
 10
3.3700551817
 20
1.7244370539
 11
3.3700551817
 21
0.6793560374
  0
LINE
  5
44E
100
AcDbEntity
  8
RACCORDO
100
AcDbLine
 62
7
  6
CONTINUOUS
 10
4.9739879843
 20
-14.9457824821
 11
4.9739879843
 21
-14.593369882
  0
LWPOLYLINE
  5
44F
100
AcDbEntity
  8
0
100
AcDbPolyline
 62
7
  6
CONTINUOUS
 90
8
 70
0
 10
3.4406447542
 20
-11.4959824634
 10
3.4398689328
 20
-11.5192044175
 10
3.4373234179
 20
-11.5413480154
 10
3.4330279208
 20
-11.5624021901
 10
3.4270884329
 20
-11.5818885047
 10
3.4195402848
 20
-11.5996474803
 10
3.410348146
 20
-11.6158385957
 10
3.3995120164
 20
-11.6304618509
  0
LWPOLYLINE
  5
450
100
AcDbEntity
  8
RACCORDO
100
AcDbPolyline
 62
253
  6
CONTINUOUS
 90
16
 70
0
 10
6.0085519192
 20
18.7875905666
 10
6.009519342
 20
18.8106939489
 10
6.0124110219
 20
18.8345118861
 10
6.0171953095
 20
18.8587836875
 10
6.0238208281
 20
18.8832469067
 10
6.032214537
 20
18.9076305576
 10
6.0422802607
 20
18.931658325
 10
6.0539027026
 20
18.95506183
 10
6.0669555635
 20
18.9775926722
 10
6.0813007219
 20
18.999014379
 10
6.0968059901
 20
19.0191225577
 10
6.1132806771
 20
19.037663423
 10
6.1304710592
 20
19.0543679514
 10
6.1481566929
 20
19.0690586624
 10
6.1661649177
 20
19.0816274751
 10
6.1843001752
 20
19.0919673815
  0
LINE
  5
451
100
AcDbEntity
  8
0
100
AcDbLine
 62
7
  6
CONTINUOUS
 10
3.4202454329
 20
0.9730102613
 11
3.492398817
 21
1.849866461
  0
LINE
  5
452
100
AcDbEntity
  8
0
100
AcDbLine
 62
7
  6
CONTINUOUS
 10
3.4396614562
 20
1.8579151505
 11
3.4368891181
 21
1.8357604179
  0
LWPOLYLINE
  5
453
100
AcDbEntity
  8
0
100
AcDbPolyline
 62
7
  6
CONTINUOUS
 90
9
 70
0
 10
3.4368891181
 20
1.8357604179
 10
3.4322689176
 20
1.8147123695
 10
3.4258601629
 20
1.7948280081
 10
3.4178046535
 20
1.7767648684
 10
3.4080108939
 20
1.7606028968
 10
3.3965703797
 20
1.7462621469
 10
3.3838993961
 20
1.7341603137
 10
3.3700247134
 20
1.724415655
 10
3.3582445224
 20
1.7183272729
  0
LWPOLYLINE
  5
454
100
AcDbEntity
  8
0
100
AcDbPolyline
 62
253
  6
CONTINUOUS
 90
30
 70
0
 10
3.93819196
 20
4.7053574055
 10
3.9377573652
 20
4.7037950586
 10
3.9202480198
 20
4.6301120199
 10
3.9054939807
 20
4.5564757651
 10
3.8933395247
 20
4.483157437
 10
3.8836129236
 20
4.4103268841
 10
3.876063003
 20
4.3371777123
 10
3.870606388
 20
4.2637928678
 10
3.8671670855
 20
4.1903484029
 10
3.8656555385
 20
4.1160716055
 10
3.8660586453
 20
4.0408899153
 10
3.8683637135
 20
3.965035594
 10
3.8725814345
 20
3.888138183
 10
3.8787422805
 20
3.8100628323
 10
3.8868478751
 20
3.7310796146
 10
3.8968849342
 20
3.6514171
 10
3.9088706768
 20
3.5710140411
 10
3.9227823472
 20
3.4900864955
 10
3.9384918515
 20
3.4092930545
 10
3.9559490617
 20
3.3287165605
 10
3.9751015593
 20
3.2484434816
 10
3.9957362085
 20
3.1691463031
 10
4.0177340955
 20
3.0909974603
 10
4.0410286784
 20
3.0139742389
 10
4.0654284624
 20
2.9384503392
 10
4.0907893723
 20
2.864593068
 10
4.1170434123
 20
2.7923428006
 10
4.1440993816
 20
2.72172187
 10
4.1718646577
 20
2.652760788
 10
4.2002439422
 20
2.5854983266
  0
LINE
  5
455
100
AcDbEntity
  8
0
100
AcDbLine
 62
7
  6
CONTINUOUS
 10
4.0624650922
 20
2.1676781775
 11
3.4202454329
 21
0.9730102613
  0
LINE
  5
456
100
AcDbEntity
  8
0
100
AcDbLine
 62
7
  6
CONTINUOUS
 10
4.295515011
 20
2.601201594
 11
4.9875727065
 21
3.8885790714
  0
LWPOLYLINE
  5
457
100
AcDbEntity
  8
0
100
AcDbPolyline
 62
7
  6
CONTINUOUS
 90
22
 70
0
 10
3.3995783939
 20
4.8224541947
 10
3.3536130217
 20
4.7668336007
 10
3.2913228374
 20
4.6764570504
 10
3.2353985661
 20
4.5789497977
 10
3.1859115061
 20
4.4742317643
 10
3.142790359
 20
4.3623830285
 10
3.1065166024
 20
4.244653508
 10
3.0771670626
 20
4.1209775031
 10
3.0546649132
 20
3.9914207135
 10
3.0392611525
 20
3.857430156
 10
3.0310353373
 20
3.7189559533
 10
3.0299079108
 20
3.5760479827
 10
3.0358912003
 20
3.430302893
 10
3.0490649069
 20
3.2816891098
 10
3.0693493295
 20
3.1302382075
 10
3.0965176914
 20
2.9776415573
 10
3.130647179
 20
2.8238861867
 10
3.1716606058
 20
2.6689850682
 10
3.2190996365
 20
2.51466849
 10
3.2728114926
 20
2.361513215
 10
3.3329489526
 20
2.2089424804
 10
3.3995120164
 20
2.0569562862
  0
LINE
  5
458
100
AcDbEntity
  8
RACCORDO
100
AcDbLine
 62
7
  6
CONTINUOUS
 10
16.1379307189
 20
15.8143651187
 11
16.9919358262
 21
16.5617853004
  0
LINE
  5
459
100
AcDbEntity
  8
RACCORDO
100
AcDbLine
 62
253
  6
CONTINUOUS
 10
16.2918332736
 20
15.7374138413
 11
17.2406434539
 21
16.567806858
  0
LWPOLYLINE
  5
45A
100
AcDbEntity
  8
0
100
AcDbPolyline
 62
7
  6
CONTINUOUS
 90
4
 70
0
 10
1.2533150289
 20
-0.3924599878
 10
1.2371053083
 20
-0.4035066978
 10
1.2218286558
 20
-0.4141579577
 10
1.193804666
 20
-0.4339368389
  0
LWPOLYLINE
  5
45B
100
AcDbEntity
  8
0
100
AcDbPolyline
 62
7
  6
CONTINUOUS
 90
3
 70
0
 10
1.3068495539
 20
-0.3570955864
 10
1.2882615225
 20
-0.3692253363
 10
1.2533150289
 20
-0.3924599878
  0
LWPOLYLINE
  5
45C
100
AcDbEntity
  8
0
100
AcDbPolyline
 62
7
  6
CONTINUOUS
 90
3
 70
0
 10
1.3667612915
 20
-0.3191068539
 10
1.3461640116
 20
-0.3320139191
 10
1.3068495539
 20
-0.3570955864
  0
LWPOLYLINE
  5
45D
100
AcDbEntity
  8
0
100
AcDbPolyline
 62
7
  6
CONTINUOUS
 90
3
 70
0
 10
1.431913578
 20
-0.2794410628
 10
1.4096957321
 20
-0.2927978695
 10
1.3667612915
 20
-0.3191068539
  0
LWPOLYLINE
  5
45E
100
AcDbEntity
  8
0
100
AcDbPolyline
 62
7
  6
CONTINUOUS
 90
17
 70
0
 10
4.2038422539
 20
2.2464586004
 10
4.2135241826
 20
2.2521454963
 10
4.2329793287
 20
2.2654762797
 10
4.2511270225
 20
2.280613413
 10
4.2678321983
 20
2.2974717419
 10
4.2829322271
 20
2.3159308647
 10
4.296255586
 20
2.3358293151
 10
4.3076598228
 20
2.3570071102
 10
4.317014408
 20
2.3792881051
 10
4.3242000254
 20
2.4024686874
 10
4.3291181013
 20
2.426325978
 10
4.3316967049
 20
2.450648183
 10
4.3318827073
 20
2.4751919147
 10
4.3296559438
 20
2.4996722181
 10
4.3250316841
 20
2.5238321674
 10
4.3180471835
 20
2.5474445194
 10
4.3100322546
 20
2.56750666
  0
LWPOLYLINE
  5
45F
100
AcDbEntity
  8
0
100
AcDbPolyline
 62
7
  6
CONTINUOUS
 90
3
 70
0
 10
1.5009082797
 20
-0.2392564472
 10
1.4775776529
 20
-0.2526591673
 10
1.431913578
 20
-0.2794410628
  0
LINE
  5
460
100
AcDbEntity
  8
0
100
AcDbLine
 62
7
  6
CONTINUOUS
 10
3.4326732088
 20
1.8165541811
 11
4.2037795519
 21
2.2464236475
  0
LINE
  5
461
100
AcDbEntity
  8
0
100
AcDbLine
 62
253
  6
CONTINUOUS
 10
3.3979578223
 20
2.0605050419
 11
4.2291476108
 21
2.5199604108
  0
LWPOLYLINE
  5
462
100
AcDbEntity
  8
0
100
AcDbPolyline
 62
253
  6
CONTINUOUS
 90
16
 70
0
 10
2.563658933
 20
1.679670463
 10
2.5403542474
 20
1.6669943574
 10
2.5156786476
 20
1.6558285312
 10
2.4898086174
 20
1.6451682464
 10
2.4631470322
 20
1.6333538902
 10
2.435573191
 20
1.6203348822
 10
2.4069622644
 20
1.6079866155
 10
2.3784241104
 20
1.5960584873
 10
2.3506076865
 20
1.5834975593
 10
2.3229606772
 20
1.5716445418
 10
2.2959221225
 20
1.5605631324
 10
2.270264574
 20
1.5496017291
 10
2.2457540126
 20
1.5395815479
 10
2.2225946162
 20
1.5307342721
 10
2.2014416331
 20
1.5225373933
 10
2.1826493636
 20
1.5148321839
  0
LINE
  5
463
100
AcDbEntity
  8
0
100
AcDbLine
 62
7
  6
CONTINUOUS
 10
28.2680304447
 20
14.1319543287
 11
22.883258532
 21
11.2267463461
  0
LINE
  5
464
100
AcDbEntity
  8
0
100
AcDbLine
 62
253
  6
CONTINUOUS
 10
4.2469188678
 20
2.5294808846
 11
4.2291473217
 21
2.5199610524
  0
LWPOLYLINE
  5
465
100
AcDbEntity
  8
RACCORDO
100
AcDbPolyline
 62
7
  6
CONTINUOUS
 90
10
 70
0
 10
21.7615973312
 20
10.1454481396
 10
21.7510334455
 20
10.1398897095
 10
21.7399157035
 20
10.1346789449
 10
21.7282809304
 20
10.1298314534
 10
21.7161655065
 20
10.1253741075
 10
21.7036117212
 20
10.1213080855
 10
21.6906683841
 20
10.1176081752
 10
21.677381561
 20
10.1142722115
 10
21.6637936816
 20
10.1113216941
 10
21.6499503887
 20
10.1087643971
  0
LINE
  5
466
100
AcDbEntity
  8
0
100
AcDbLine
 62
7
  6
CONTINUOUS
 10
28.2680304447
 20
14.4416853558
 11
22.7517386207
 21
11.5503814757
  0
LWPOLYLINE
  5
467
100
AcDbEntity
  8
0
100
AcDbPolyline
 62
253
  6
CONTINUOUS
 90
16
 70
0
 10
2.5170723714
 20
1.342926755
 10
2.5286050246
 20
1.3489318319
 10
2.5440236786
 20
1.3600643503
 10
2.5578199192
 20
1.3739880039
 10
2.5698437932
 20
1.3905514546
 10
2.5799646112
 20
1.4095746718
 10
2.5880723686
 20
1.4308508892
 10
2.5940789409
 20
1.4541488526
 10
2.5979190419
 20
1.4792153329
 10
2.599550933
 20
1.5057778788
 10
2.5989568767
 20
1.5335477781
 10
2.5961433301
 20
1.5622231957
 10
2.5911408741
 20
1.5914924543
 10
2.5840038811
 20
1.6210374219
 10
2.5748099239
 20
1.6505369698
 10
2.563658933
 20
1.679670463
  0
LINE
  5
468
100
AcDbEntity
  8
RACCORDO
100
AcDbLine
 62
253
  6
CONTINUOUS
 10
21.1313749428
 20
13.2217923966
 11
19.5486183396
 21
12.4098082993
  0
LINE
  5
469
100
AcDbEntity
  8
0
100
AcDbLine
 62
7
  6
CONTINUOUS
 10
1.6143237846
 20
-0.1785849006
 11
2.4637589111
 21
0.2494077752
  0
LINE
  5
46A
100
AcDbEntity
  8
RACCORDO
100
AcDbLine
 62
253
  6
CONTINUOUS
 10
22.4748838103
 20
12.5500379629
 11
20.8736030195
 21
11.7473159594
  0
LINE
  5
46B
100
AcDbEntity
  8
RACCORDO
100
AcDbLine
 62
253
  6
CONTINUOUS
 10
22.651657514
 20
12.2451484241
 11
21.0503767231
 21
11.4424264206
  0
LINE
  5
46C
100
AcDbEntity
  8
RACCORDO
100
AcDbLine
 62
7
  6
CONTINUOUS
 10
4.8839800749
 20
3.6958742989
 11
4.0571645793
 21
3.2824665511
  0
LINE
  5
46D
100
AcDbEntity
  8
0
100
AcDbLine
 62
7
  6
CONTINUOUS
 10
4.704658862
 20
3.3622979336
 11
4.1189733456
 21
3.0694551754
  0
LINE
  5
46E
100
AcDbEntity
  8
RACCORDO
100
AcDbLine
 62
253
  6
CONTINUOUS
 10
23.003150982
 20
12.8134767829
 11
22.4748838103
 21
12.5500379629
  0
LINE
  5
46F
100
AcDbEntity
  8
RACCORDO
100
AcDbLine
 62
253
  6
CONTINUOUS
 10
23.1799246857
 20
12.5085872441
 11
22.651657514
 21
12.2451484241
  0
LINE
  5
470
100
AcDbEntity
  8
0
100
AcDbLine
 62
7
  6
CONTINUOUS
 10
3.2998901318
 20
0.6560479329
 11
2.4718784211
 21
0.2453480202
  0
LINE
  5
471
100
AcDbEntity
  8
0
100
AcDbLine
 62
7
  6
CONTINUOUS
 10
27.3078770207
 20
15.3164835696
 11
22.6816426649
 21
13.0362083124
  0
LWPOLYLINE
  5
472
100
AcDbEntity
  8
0
100
AcDbPolyline
 62
7
  6
CONTINUOUS
 90
5
 70
0
 10
1.6143237846
 20
-0.1785849006
 10
1.5926971077
 20
-0.189179034
 10
1.5704525871
 20
-0.2008396011
 10
1.5477250224
 20
-0.2132841346
 10
1.5009082797
 20
-0.2392564472
  0
LINE
  5
473
100
AcDbEntity
  8
DRAFT
100
AcDbLine
 62
7
  6
CONTINUOUS
 10
23.269074742
 20
11.0338382411
 11
29.0100811459
 21
13.8225268631
  0
LINE
  5
474
100
AcDbEntity
  8
RACCORDO
100
AcDbLine
 62
253
  6
CONTINUOUS
 10
23.358656585
 20
10.9890473196
 11
22.651657514
 21
10.6551036872
  0
LINE
  5
475
100
AcDbEntity
  8
RACCORDO
100
AcDbLine
 62
253
  6
CONTINUOUS
 10
23.7123176857
 20
10.379121629
 11
22.9944412628
 21
10.0400401929
  0
LINE
  5
476
100
AcDbEntity
  8
0
100
AcDbLine
 62
7
  6
CONTINUOUS
 10
3.2998901318
 20
0.6560479329
 11
3.3293058013
 21
0.6696345399
  0
LINE
  5
477
100
AcDbEntity
  8
0
100
AcDbLine
 62
253
  6
CONTINUOUS
 10
3.3995120164
 20
2.0569562862
 11
2.5636596493
 21
1.6796701662
  0
LWPOLYLINE
  5
478
100
AcDbEntity
  8
0
100
AcDbPolyline
 62
7
  6
CONTINUOUS
 90
7
 70
0
 10
3.3293058013
 20
0.6696345399
 10
3.3407287618
 20
0.6747435598
 10
3.3500470403
 20
0.6783553316
 10
3.3574042595
 20
0.6805459294
 10
3.3629718628
 20
0.6818022851
 10
3.3668545866
 20
0.6820984079
 10
3.3688427603
 20
0.6815224876
  0
LINE
  5
479
100
AcDbEntity
  8
0
100
AcDbLine
 62
7
  6
CONTINUOUS
 10
2.5170723714
 20
1.342926755
 11
3.3582483608
 21
1.7183192612
  0
LWPOLYLINE
  5
47A
100
AcDbEntity
  8
RACCORDO
100
AcDbPolyline
 62
253
  6
CONTINUOUS
 90
16
 70
0
 10
16.815564331
 20
5.8805590789
 10
16.7765551967
 20
5.8654266956
 10
16.7342425641
 20
5.8523832919
 10
16.6890797923
 20
5.8415686214
 10
16.6415507783
 20
5.8330985581
 10
16.5921647721
 20
5.8270638543
 10
16.5414509208
 20
5.8235291692
 10
16.4899525983
 20
5.8225323751
 10
16.438221584
 20
5.8240841521
 10
16.3868121504
 20
5.8281678738
 10
16.3362751243
 20
5.8347397851
 10
16.2871519853
 20
5.843729471
 10
16.2399690637
 20
5.8550406117
 10
16.1952319015
 20
5.8685520138
 10
16.1534198354
 20
5.8841189093
 10
16.1149808612
 20
5.9015745064
  0
LWPOLYLINE
  5
47B
100
AcDbEntity
  8
0
100
AcDbPolyline
 62
7
  6
CONTINUOUS
 90
10
 70
0
 10
2.5170723699
 20
1.3429267544
 10
2.4877900106
 20
1.3316496721
 10
2.4571961178
 20
1.3234290947
 10
2.4255860737
 20
1.3184470225
 10
2.392758277
 20
1.3168655001
 10
2.3595841385
 20
1.3189275962
 10
2.327682047
 20
1.3244529489
 10
2.2968440405
 20
1.3332863871
 10
2.2670094587
 20
1.345416576
 10
2.2604762831
 20
1.3485883566
  0
LWPOLYLINE
  5
47C
100
AcDbEntity
  8
0
100
AcDbPolyline
 62
253
  6
CONTINUOUS
 90
10
 70
0
 10
37.3871299633
 20
14.8338653939
 10
37.3676343547
 20
14.8291216689
 10
37.3436815888
 20
14.8216451732
 10
37.3154047796
 20
14.8114775568
 10
37.2829582012
 20
14.7986744428
 10
37.2465210011
 20
14.7833066522
 10
37.2063006343
 20
14.7654620777
 10
37.162522299
 20
14.7452412742
 10
37.1154253881
 20
14.7227554037
 10
37.0652693893
 20
14.6981288423
  0
LINE
  5
47D
100
AcDbEntity
  8
RACCORDO
100
AcDbLine
 62
7
  6
CONTINUOUS
 10
4.8487302771
 20
3.6303020265
 11
4.8007829035
 21
3.6542757132
  0
LINE
  5
47E
100
AcDbEntity
  8
RACCORDO
100
AcDbLine
 62
7
  6
CONTINUOUS
 10
-22.7284341892
 20
17.4188842596
 11
-22.7763815627
 21
17.4428579464
  0
LWPOLYLINE
  5
47F
100
AcDbEntity
  8
0
100
AcDbPolyline
 62
253
  6
CONTINUOUS
 90
13
 70
0
 10
5.6582329832
 20
-0.2229596259
 10
5.6420715914
 20
-0.1977778327
 10
5.6280101878
 20
-0.1719739804
 10
5.6163636842
 20
-0.1457239425
 10
5.6076172103
 20
-0.1190753991
 10
5.6017811796
 20
-0.092367325
 10
5.5985315346
 20
-0.0661418909
 10
5.5983087069
 20
-0.0403539957
 10
5.6011426827
 20
-0.0153018479
 10
5.606424212
 20
0.0082546418
 10
5.6147030851
 20
0.0307690177
 10
5.6260239779
 20
0.0519146067
 10
5.6398060376
 20
0.0710415937
  0
LINE
  5
480
100
AcDbEntity
  8
0
100
AcDbLine
 62
253
  6
CONTINUOUS
 10
12.9072674556
 20
-10.2785516653
 11
12.988112535
 21
-10.4132740166
  0
LWPOLYLINE
  5
481
100
AcDbEntity
  8
RACCORDO
100
AcDbPolyline
 62
253
  6
CONTINUOUS
 90
8
 70
0
 10
-8.6398804677
 20
28.0709583041
 10
-8.6317151738
 20
28.0565752528
 10
-8.6255549215
 20
28.0432817887
 10
-8.6214745509
 20
28.0312267167
 10
-8.6195263089
 20
28.0205419701
 10
-8.6197420883
 20
28.01135534
 10
-8.6221234656
 20
28.0037822032
 10
-8.6245198587
 20
28.0001231821
  0
LWPOLYLINE
  5
482
100
AcDbEntity
  8
0
100
AcDbPolyline
 62
7
  6
CONTINUOUS
 90
18
 70
0
 10
12.9855514195
 20
-10.2652726
 10
12.9074350359
 20
-10.1250932884
 10
12.8373032041
 20
-9.9883742584
 10
12.7718307033
 20
-9.849426868
 10
12.7112323748
 20
-9.7087105633
 10
12.6557090827
 20
-9.5667056527
 10
12.6054322768
 20
-9.4238755441
 10
12.5605555541
 20
-9.2806921248
 10
12.5212193233
 20
-9.1376587703
 10
12.4875327284
 20
-8.9952547441
 10
12.4595790102
 20
-8.8539411135
 10
12.4374238459
 20
-8.7142002992
 10
12.4211077369
 20
-8.576513006
 10
12.4106420372
 20
-8.4413111435
 10
12.4060176414
 20
-8.3090100896
 10
12.407203883
 20
-8.1800919624
 10
12.414144044
 20
-8.0549327417
 10
12.4267764334
 20
-7.9338071602
  0
LWPOLYLINE
  5
483
100
AcDbEntity
  8
0
100
AcDbPolyline
 62
7
  6
CONTINUOUS
 90
13
 70
0
 10
12.9855144833
 20
-10.2652089956
 10
12.9868699674
 20
-10.267704166
 10
12.9905333026
 20
-10.2764374072
 10
12.993307896
 20
-10.2863804638
 10
12.9952833647
 20
-10.2974668323
 10
12.9965895573
 20
-10.3096722804
 10
12.9971414454
 20
-10.3226944315
 10
12.9970233916
 20
-10.3365000701
 10
12.9963458536
 20
-10.3510529498
 10
12.9950401737
 20
-10.3660651556
 10
12.993143842
 20
-10.3814203945
 10
12.9908047422
 20
-10.3971683336
 10
12.988112535
 20
-10.4132740166
  0
LINE
  5
484
100
AcDbEntity
  8
0
100
AcDbLine
 62
7
  6
CONTINUOUS
 10
5.586690123
 20
2.9444461702
 11
5.654261279
 21
2.7935100402
  0
LINE
  5
485
100
AcDbEntity
  8
0
100
AcDbLine
 62
253
  6
CONTINUOUS
 10
4.2002439422
 20
2.5854983266
 11
4.2291476108
 21
2.5199604108
  0
LWPOLYLINE
  5
486
100
AcDbEntity
  8
0
100
AcDbPolyline
 62
7
  6
CONTINUOUS
 90
17
 70
0
 10
4.3100311857
 20
2.5675090447
 10
4.2492669556
 20
2.7085449485
 10
4.1934878865
 20
2.8508239757
 10
4.1428608452
 20
2.9938888809
 10
4.0975284064
 20
3.1372946153
 10
4.0576219211
 20
3.2805682728
 10
4.0232573729
 20
3.4232044089
 10
3.9945168868
 20
3.5647303201
 10
3.9714542076
 20
3.7047059162
 10
3.9541058442
 20
3.8426681047
 10
3.9424840258
 20
3.9781468619
 10
3.9365715163
 20
4.1107369862
 10
3.9363321933
 20
4.2400630348
 10
3.9417067972
 20
4.3656487296
 10
3.9526135307
 20
4.4871557904
 10
3.9689777418
 20
4.6043857329
 10
3.9847157863
 20
4.6859716282
  0
LWPOLYLINE
  5
487
100
AcDbEntity
  8
0
100
AcDbPolyline
 62
253
  6
CONTINUOUS
 90
36
 70
0
 10
5.6835801218
 20
2.8903510675
 10
5.7437174571
 20
2.7492739458
 10
5.7979326316
 20
2.6114654951
 10
5.8460233226
 20
2.477304339
 10
5.8881913969
 20
2.3464116519
 10
5.9253536029
 20
2.2199146133
 10
5.9574422358
 20
2.0982287886
 10
5.9845226674
 20
1.9809375191
 10
6.0077100929
 20
1.8679190942
 10
6.0270707989
 20
1.7594448947
 10
6.0425358594
 20
1.6552422972
 10
6.0550177006
 20
1.554373607
 10
6.0646472947
 20
1.4569059833
 10
6.0712917509
 20
1.3627713631
 10
6.0754684213
 20
1.2708295597
 10
6.0773000294
 20
1.1809579903
 10
6.0766629461
 20
1.0932788136
 10
6.0737057787
 20
1.0070193284
 10
6.0684828485
 20
0.9219370291
 10
6.0609396669
 20
0.8382743483
 10
6.051061989
 20
0.7559861651
 10
6.0388199332
 20
0.6748836559
 10
6.0242432609
 20
0.5951555936
 10
6.0074069506
 20
0.5173231355
 10
5.988246802
 20
0.4413569868
 10
5.966826324
 20
0.3672861179
 10
5.9434114512
 20
0.2957187935
 10
5.9179573456
 20
0.2267319377
 10
5.8905074723
 20
0.1602479743
 10
5.8614596393
 20
0.0966431373
 10
5.8308024525
 20
0.0360115053
 10
5.7985455251
 20
-0.0217418502
 10
5.7651178312
 20
-0.0765243714
 10
5.7306616939
 20
-0.1283055259
 10
5.6950329236
 20
-0.1771167393
 10
5.6582306477
 20
-0.2229584297
  0
LWPOLYLINE
  5
488
100
AcDbEntity
  8
0
100
AcDbPolyline
 62
7
  6
CONTINUOUS
 90
3
 70
0
 10
3.3995120164
 20
2.0569562862
 10
3.4103493925
 20
2.0315015482
 10
3.41954279
 20
2.0061135631
  0
LWPOLYLINE
  5
489
100
AcDbEntity
  8
0
100
AcDbPolyline
 62
253
  6
CONTINUOUS
 90
14
 70
0
 10
4.2291473217
 20
2.5199610524
 10
4.2407248876
 20
2.4922672493
 10
4.2505485555
 20
2.4642182737
 10
4.2581446537
 20
2.4362137713
 10
4.2628598315
 20
2.4086086587
 10
4.2646424979
 20
2.3817913951
 10
4.2639657943
 20
2.3562314552
 10
4.2605840803
 20
2.3322711799
 10
4.2543590219
 20
2.3102265045
 10
4.2458444006
 20
2.2905436334
 10
4.234842318
 20
2.2733916639
 10
4.2213744853
 20
2.2589927699
 10
4.2061661219
 20
2.2477979908
 10
4.2038422539
 20
2.2464586004
  0
LWPOLYLINE
  5
48A
100
AcDbEntity
  8
0
100
AcDbPolyline
 62
7
  6
CONTINUOUS
 90
22
 70
0
 10
5.654261279
 20
2.7935100402
 10
5.7161280427
 20
2.6406810454
 10
5.7720683853
 20
2.4865380612
 10
5.8218771324
 20
2.3317305642
 10
5.8653887844
 20
2.1768825084
 10
5.9024814023
 20
2.0225690378
 10
5.9330602114
 20
1.8693791445
 10
5.9570345499
 20
1.7180484048
 10
5.9744019761
 20
1.5690129516
 10
5.9851770002
 20
1.4224463379
 10
5.9893341025
 20
1.2789583043
 10
5.9868833297
 20
1.1391137271
 10
5.977832949
 20
1.003104367
 10
5.962208326
 20
0.8715209216
 10
5.9400777387
 20
0.7449872602
 10
5.9114929091
 20
0.6238550131
 10
5.8765821934
 20
0.5087482057
 10
5.835516257
 20
0.4002333101
 10
5.7884252405
 20
0.2986694554
 10
5.735515584
 20
0.2045460491
 10
5.67708183
 20
0.1183806242
 10
5.6398384355
 20
0.071080716
  0
LWPOLYLINE
  5
48B
100
AcDbEntity
  8
0
100
AcDbPolyline
 62
7
  6
CONTINUOUS
 90
7
 70
0
 10
3.41954279
 20
2.0061135631
 10
3.4270922089
 20
1.9807923308
 10
3.4330337996
 20
1.9553343819
 10
3.4373314117
 20
1.9299431858
 10
3.4398765947
 20
1.9052291506
 10
3.44064524
 20
1.8812335702
 10
3.4396614562
 20
1.8579151505
  0
LWPOLYLINE
  5
48C
100
AcDbEntity
  8
0
100
AcDbPolyline
 62
253
  6
CONTINUOUS
 90
9
 70
0
 10
4.3100329627
 20
2.5675050883
 10
4.3100885436
 20
2.5671053644
 10
4.3092117803
 20
2.565450847
 10
4.3066062524
 20
2.5630675673
 10
4.302142727
 20
2.5599023307
 10
4.2957361131
 20
2.5556729126
 10
4.2870713557
 20
2.5504173167
 10
4.2760048658
 20
2.5443989374
 10
4.2469188678
 20
2.5294808846
  0
LWPOLYLINE
  5
48D
100
AcDbEntity
  8
RACCORDO
100
AcDbPolyline
 62
253
  6
CONTINUOUS
 90
16
 70
0
 10
4.67715586
 20
-11.53633246
 10
4.6765527466
 20
-11.5318275246
 10
4.6755944652
 20
-11.5272744338
 10
4.6742810157
 20
-11.5226731877
 10
4.6725901668
 20
-11.5179711069
 10
4.6705441499
 20
-11.5132208709
 10
4.6682096589
 20
-11.5085805175
 10
4.6655771105
 20
-11.5040547873
 10
4.6626560881
 20
-11.4996389398
 10
4.6595420352
 20
-11.4954767915
 10
4.6562264121
 20
-11.4915758257
 10
4.6527177585
 20
-11.4879285591
 10
4.6491371367
 20
-11.4846563584
 10
4.6455249009
 20
-11.4817996792
 10
4.6418406971
 20
-11.4793180658
 10
4.638084525
 20
-11.4772115183
  0
LINE
  5
48E
100
AcDbEntity
  8
RACCORDO
100
AcDbLine
 62
7
  6
CONTINUOUS
 10
5.937284757
 20
18.504792086
 11
5.9353286207
 21
18.5360327557
  0
LINE
  5
48F
100
AcDbEntity
  8
RACCORDO
100
AcDbLine
 62
253
  6
CONTINUOUS
 10
5.9356989231
 20
18.5292039298
 11
5.9353286145
 21
18.5360054265
  0
LWPOLYLINE
  5
490
100
AcDbEntity
  8
RACCORDO
100
AcDbPolyline
 62
253
  6
CONTINUOUS
 90
16
 70
0
 10
7.6860585587
 20
18.1245855028
 10
7.6849812264
 20
18.1477242697
 10
7.6819780376
 20
18.1715881213
 10
7.6770821043
 20
18.1959139394
 10
7.670346412
 20
18.2204367128
 10
7.6618457625
 20
18.244882837
 10
7.6516782015
 20
18.2689733715
 10
7.639960946
 20
18.2924373258
 10
7.6268222428
 20
18.3150237248
 10
7.6124021962
 20
18.3364936377
 10
7.5968349878
 20
18.3566403476
 10
7.5803132837
 20
18.3752080736
 10
7.563092468
 20
18.3919262228
 10
7.5453943569
 20
18.4066159955
 10
7.5273929354
 20
18.4191681781
 10
7.509284855
 20
18.4294750416
  0
LWPOLYLINE
  5
491
100
AcDbEntity
  8
RACCORDO
100
AcDbPolyline
 62
253
  6
CONTINUOUS
 90
10
 70
0
 10
6.0085519192
 20
18.4476166324
 10
6.0092307292
 20
18.4290007701
 10
6.0112615949
 20
18.4112089357
 10
6.0146284008
 20
18.3943773862
 10
6.0193044412
 20
18.3786359113
 10
6.0252535112
 20
18.3641037145
 10
6.0324310139
 20
18.3508893239
 10
6.0407995536
 20
18.3390727882
 10
6.050282051
 20
18.3287725772
 10
6.0607433684
 20
18.3201129603
  0
LWPOLYLINE
  5
492
100
AcDbEntity
  8
RACCORDO
100
AcDbPolyline
 62
253
  6
CONTINUOUS
 90
12
 70
0
 10
7.3335365991
 20
17.7851242925
 10
7.334215409
 20
17.7665084302
 10
7.3362462747
 20
17.7487165958
 10
7.3396130806
 20
17.7318850463
 10
7.344289121
 20
17.7161435714
 10
7.350238191
 20
17.7016113746
 10
7.3574156937
 20
17.688396984
 10
7.3657842334
 20
17.6765804483
 10
7.3752667308
 20
17.6662802373
 10
7.3857280482
 20
17.6576206204
 10
7.3970493593
 20
17.6506521506
 10
7.3985020389
 20
17.6499097712
  0
LWPOLYLINE
  5
493
100
AcDbEntity
  8
0
100
AcDbPolyline
 62
7
  6
CONTINUOUS
 90
13
 70
0
 10
7.1147673792
 20
-14.1312574097
 10
7.1154057186
 20
-14.1495478812
 10
7.1176742345
 20
-14.1744820858
 10
7.1212911087
 20
-14.1996155554
 10
7.1262329531
 20
-14.2248561118
 10
7.1325126704
 20
-14.250088324
 10
7.1399107529
 20
-14.2752179532
 10
7.1484124163
 20
-14.3001831007
 10
7.1580091418
 20
-14.3248850812
 10
7.1684981733
 20
-14.3491852342
 10
7.1797980464
 20
-14.3729960161
 10
7.1919455
 20
-14.3962815912
 10
7.2049126147
 20
-14.418989665
  0
LWPOLYLINE
  5
494
100
AcDbEntity
  8
0
100
AcDbPolyline
 62
7
  6
CONTINUOUS
 90
13
 70
0
 10
6.510518546
 20
-2.8442967088
 10
6.5109925435
 20
-2.867505318
 10
6.513068121
 20
-2.8923254554
 10
6.5164736892
 20
-2.9173594462
 10
6.5211877957
 20
-2.9425124975
 10
6.5272223778
 20
-2.9676698176
 10
6.5343484961
 20
-2.9927111206
 10
6.5425478295
 20
-3.0175722864
 10
6.5518104991
 20
-3.0421569435
 10
6.5619228117
 20
-3.0663083494
 10
6.5727958052
 20
-3.0899346909
 10
6.5844644826
 20
-3.1130091907
 10
6.5968967455
 20
-3.1354828787
  0
LINE
  5
495
100
AcDbEntity
  8
0
100
AcDbLine
 62
7
  6
CONTINUOUS
 10
7.1047963957
 20
-13.2488995864
 11
7.114803117
 21
-14.1312485979
  0
LINE
  5
496
100
AcDbEntity
  8
0
100
AcDbLine
 62
253
  6
CONTINUOUS
 10
7.1906189934
 20
-13.1569057646
 11
7.2049126147
 21
-14.418989665
  0
LINE
  5
497
100
AcDbEntity
  8
0
100
AcDbLine
 62
7
  6
CONTINUOUS
 10
7.0965758355
 20
-12.4025348291
 11
7.1047963957
 21
-13.2488995864
  0
LINE
  5
498
100
AcDbEntity
  8
0
100
AcDbLine
 62
7
  6
CONTINUOUS
 10
7.0938779512
 20
-12.0896703015
 11
7.0965758355
 21
-12.4025348291
  0
LINE
  5
499
100
AcDbEntity
  8
0
100
AcDbLine
 62
253
  6
CONTINUOUS
 10
7.18025984
 20
-12.0136528414
 11
7.1906189934
 21
-13.1569057646
  0
LINE
  5
49A
100
AcDbEntity
  8
RACCORDO
100
AcDbLine
 62
7
  6
CONTINUOUS
 10
5.9353286145
 20
18.8759789142
 11
5.9353286145
 21
18.5360049801
  0
LINE
  5
49B
100
AcDbEntity
  8
RACCORDO
100
AcDbLine
 62
253
  6
CONTINUOUS
 10
6.0085519192
 20
18.7875905666
 11
6.0085519192
 21
18.4476166324
  0
LINE
  5
49C
100
AcDbEntity
  8
RACCORDO
100
AcDbLine
 62
7
  6
CONTINUOUS
 10
6.6383215688
 20
17.5760277389
 11
6.6383215688
 21
18.0300000057
  0
LINE
  5
49D
100
AcDbEntity
  8
RACCORDO
100
AcDbLine
 62
253
  6
CONTINUOUS
 10
6.7115448735
 20
17.4843142092
 11
6.7115448735
 21
17.9933883534
  0
LINE
  5
49E
100
AcDbEntity
  8
RACCORDO
100
AcDbLine
 62
253
  6
CONTINUOUS
 10
7.3335365991
 20
17.7851242925
 11
7.3335365991
 21
18.1250982266
  0
LINE
  5
49F
100
AcDbEntity
  8
RACCORDO
100
AcDbLine
 62
253
  6
CONTINUOUS
 10
7.6860585587
 20
17.7846115687
 11
7.6860585587
 21
18.1245855028
  0
LINE
  5
4A0
100
AcDbEntity
  8
RACCORDO
100
AcDbLine
 62
253
  6
CONTINUOUS
 10
8.0447572072
 20
17.5065286653
 11
8.0447572072
 21
16.8177080424
  0
LINE
  5
4A1
100
AcDbEntity
  8
RACCORDO
100
AcDbLine
 62
253
  6
CONTINUOUS
 10
8.3972791668
 20
17.6361080458
 11
8.3972791668
 21
16.828475924
  0
LINE
  5
4A2
100
AcDbEntity
  8
0
100
AcDbLine
 62
7
  6
CONTINUOUS
 10
6.5186011839
 20
-1.9545359909
 11
6.5105273297
 21
-2.8442947068
  0
LINE
  5
4A3
100
AcDbEntity
  8
0
100
AcDbLine
 62
253
  6
CONTINUOUS
 10
6.6085084569
 20
-1.8580171007
 11
6.5968967455
 21
-3.1354828787
  0
LINE
  5
4A4
100
AcDbEntity
  8
0
100
AcDbLine
 62
7
  6
CONTINUOUS
 10
6.5277244623
 20
-1.0992204751
 11
6.5186011839
 21
-1.9545359909
  0
LINE
  5
4A5
100
AcDbEntity
  8
0
100
AcDbLine
 62
7
  6
CONTINUOUS
 10
6.5314125887
 20
-0.7848522812
 11
6.5277244623
 21
-1.0992204751
  0
LINE
  5
4A6
100
AcDbEntity
  8
0
100
AcDbLine
 62
253
  6
CONTINUOUS
 10
6.6215495202
 20
-0.7046178944
 11
6.6085084569
 21
-1.8580171007
  0
LWPOLYLINE
  5
4A7
100
AcDbEntity
  8
0
100
AcDbPolyline
 62
253
  6
CONTINUOUS
 90
19
 70
0
 10
5.6582329832
 20
-13.6456498493
 10
5.6588876387
 20
-13.6205076776
 10
5.6614775679
 20
-13.5945582899
 10
5.6659859861
 20
-13.5680368592
 10
5.6724106884
 20
-13.5410662448
 10
5.6806830106
 20
-13.514012448
 10
5.6905889652
 20
-13.4874791197
 10
5.7019995421
 20
-13.4616496951
 10
5.7147402022
 20
-13.4367815769
 10
5.7283668934
 20
-13.4135129496
 10
5.7425265508
 20
-13.392122066
 10
5.7571155968
 20
-13.3724762297
 10
5.772020337
 20
-13.3545120712
 10
5.7868865266
 20
-13.3384377502
 10
5.8017469747
 20
-13.3240152976
 10
5.8171623537
 20
-13.3106463675
 10
5.8332885372
 20
-13.2982812015
 10
5.8498123899
 20
-13.2872449509
 10
5.8666373219
 20
-13.2776528217
  0
LWPOLYLINE
  5
4A8
100
AcDbEntity
  8
RACCORDO
100
AcDbPolyline
 62
253
  6
CONTINUOUS
 90
16
 70
0
 10
7.3335365991
 20
18.1250982266
 10
7.3344978467
 20
18.1481264127
 10
7.3373711359
 20
18.1718654086
 10
7.3421252188
 20
18.1960570462
 10
7.3487083934
 20
18.2204382347
 10
7.3570490659
 20
18.2447438219
 10
7.3670565292
 20
18.268709478
 10
7.3786219493
 20
18.2920745698
 10
7.3916195491
 20
18.3145849954
 10
7.4059079762
 20
18.3359959478
 10
7.4213318399
 20
18.3560745769
 10
7.4377234015
 20
18.3746025222
 10
7.4549043982
 20
18.391378287
 10
7.472687982
 20
18.4062194305
 10
7.4908807514
 20
18.4189645509
 10
7.509284855
 20
18.4294750416
  0
LINE
  5
4A9
100
AcDbEntity
  8
RACCORDO
100
AcDbLine
 62
7
  6
CONTINUOUS
 10
5.7043791311
 20
-15.553625435
 11
5.7514095226
 21
-14.9820806512
  0
LWPOLYLINE
  5
4AA
100
AcDbEntity
  8
0
100
AcDbPolyline
 62
7
  6
CONTINUOUS
 90
9
 70
0
 10
6.5313955226
 20
-0.7848423654
 10
6.5320369206
 20
-0.7820391548
 10
6.5343255051
 20
-0.7781473875
 10
6.5379810878
 20
-0.773404648
 10
6.5429797613
 20
-0.7679075447
 10
6.5493309596
 20
-0.7617872608
 10
6.5567953931
 20
-0.7550066875
 10
6.5653515401
 20
-0.7476493516
 10
6.5749863022
 20
-0.739827953
  0
LWPOLYLINE
  5
4AB
100
AcDbEntity
  8
0
100
AcDbPolyline
 62
7
  6
CONTINUOUS
 90
9
 70
0
 10
5.640240756
 20
0.0715612454
 10
5.6262901576
 20
0.0535363788
 10
5.6119075346
 20
0.0314246477
 10
5.5991340185
 20
0.0073147023
 10
5.5883663674
 20
-0.0185069327
 10
5.5800210484
 20
-0.0453343764
 10
5.5742423701
 20
-0.0726998436
 10
5.5710320519
 20
-0.1005608839
 10
5.570442156
 20
-0.1287792559
  0
LINE
  5
4AC
100
AcDbEntity
  8
0
100
AcDbLine
 62
7
  6
CONTINUOUS
 10
5.6398060376
 20
0.0710415937
 11
5.640240756
 21
0.0715612454
  0
LWPOLYLINE
  5
4AD
100
AcDbEntity
  8
0
100
AcDbPolyline
 62
7
  6
CONTINUOUS
 90
5
 70
0
 10
6.5749863022
 20
-0.739827953
 10
6.5854744781
 20
-0.7315352186
 10
6.5967202559
 20
-0.7228281612
 10
6.6087572741
 20
-0.7138280542
 10
6.6215495202
 20
-0.7046178944
  0
LWPOLYLINE
  5
4AE
100
AcDbEntity
  8
RACCORDO
100
AcDbPolyline
 62
253
  6
CONTINUOUS
 90
25
 70
0
 10
17.1309192503
 20
7.6416924689
 10
17.0650801414
 20
7.6028923662
 10
16.9997188819
 20
7.5594299834
 10
16.9350800505
 20
7.5114735091
 10
16.8714096986
 20
7.4592154318
 10
16.808941094
 20
7.402850442
 10
16.7478952757
 20
7.3425701778
 10
16.6884880653
 20
7.2785866249
 10
16.6309572876
 20
7.2111553838
 10
16.5755471606
 20
7.1405543096
 10
16.5224737334
 20
7.0670671594
 10
16.4719238762
 20
6.9909626319
 10
16.4240838771
 20
6.9125143402
 10
16.379133184
 20
6.8320205216
 10
16.337239353
 20
6.7497867896
 10
16.2985576892
 20
6.6661071465
 10
16.2632292967
 20
6.5812836682
 10
16.231394784
 20
6.4956526655
 10
16.2031882429
 20
6.4095659417
 10
16.1787185292
 20
6.3233673234
 10
16.1580689797
 20
6.2373669116
 10
16.1413138197
 20
6.1518670363
 10
16.1285168379
 20
6.0671842373
 10
16.1197278262
 20
5.9836477142
 10
16.1149808571
 20
5.9015745046
  0
LWPOLYLINE
  5
4AF
100
AcDbEntity
  8
RACCORDO
100
AcDbPolyline
 62
253
  6
CONTINUOUS
 90
25
 70
0
 10
17.4967519904
 20
7.0386900231
 10
17.4524885219
 20
7.0128571792
 10
17.408822356
 20
6.9841254458
 10
17.3657534929
 20
6.952494823
 10
17.3231131036
 20
6.9178202254
 10
17.2810700169
 20
6.8802467383
 10
17.2401307196
 20
6.8402096182
 10
17.200312778
 20
6.7976789231
 10
17.1615986259
 20
6.752684595
 10
17.1244420515
 20
6.7057517156
 10
17.08886734
 20
6.6568641285
 10
17.0548502064
 20
6.6060379902
 10
17.022771584
 20
6.5538468524
 10
16.9926538038
 20
6.5002782036
 10
16.964474535
 20
6.4453445554
 10
16.9385477176
 20
6.3896569942
 10
16.9148956466
 20
6.3331975021
 10
16.893496027
 20
6.2759840971
 10
16.8745959152
 20
6.2186819196
 10
16.858226355
 20
6.1612821586
 10
16.8443563026
 20
6.1037936252
 10
16.8331396815
 20
6.0469078931
 10
16.8246277999
 20
5.990855487
 10
16.8187693497
 20
5.9354058822
 10
16.815564331
 20
5.8805590789
  0
LINE
  5
4B0
100
AcDbEntity
  8
RACCORDO
100
AcDbLine
 62
7
  6
CONTINUOUS
 10
22.651657514
 20
10.6427449505
 11
21.7615973312
 21
10.1454481396
  0
LINE
  5
4B1
100
AcDbEntity
  8
RACCORDO
100
AcDbLine
 62
253
  6
CONTINUOUS
 10
17.1309192503
 20
7.6416924689
 11
21.6499503887
 21
10.1087643971
  0
LINE
  5
4B2
100
AcDbEntity
  8
RACCORDO
100
AcDbLine
 62
253
  6
CONTINUOUS
 10
22.9944412628
 20
10.0400401929
 11
17.4967519904
 21
7.0386900231
  0
LINE
  5
4B3
100
AcDbEntity
  8
0
100
AcDbLine
 62
253
  6
CONTINUOUS
 10
37.0652693899
 20
14.6981288413
 11
23.7123176857
 21
7.9047774425
  0
LINE
  5
4B4
100
AcDbEntity
  8
0
100
AcDbLine
 62
253
  6
CONTINUOUS
 10
37.2723446277
 20
13.9823120539
 11
23.7123176857
 21
7.0836105508
  0
LINE
  5
4B5
100
AcDbEntity
  8
0
100
AcDbLine
 62
253
  6
CONTINUOUS
 10
36.5375642757
 20
15.2496206977
 11
30.0186223445
 21
12.0830506032
  0
LINE
  5
4B6
100
AcDbEntity
  8
0
100
AcDbLine
 62
253
  6
CONTINUOUS
 10
37.0876441434
 20
14.7706710107
 11
30.3562906784
 21
11.5006588761
  0
LWPOLYLINE
  5
4B7
100
AcDbEntity
  8
RACCORDO
100
AcDbPolyline
 62
7
  6
CONTINUOUS
 90
7
 70
0
 10
-12.4450870279
 20
27.5851428582
 10
-12.4636270142
 20
27.6054138984
 10
-12.4798561873
 20
27.6276351862
 10
-12.4936636333
 20
27.651742228
 10
-12.5048018957
 20
27.6774790529
 10
-12.5130317462
 20
27.7044819953
 10
-12.5182022319
 20
27.7325355805
  0
LWPOLYLINE
  5
4B8
100
AcDbEntity
  8
RACCORDO
100
AcDbPolyline
 62
253
  6
CONTINUOUS
 90
6
 70
0
 10
23.1779336192
 20
-28.9151523992
 10
23.1673873155
 20
-28.8942002075
 10
23.155033136
 20
-28.8749578168
 10
23.141006782
 20
-28.8576370139
 10
23.1254619791
 20
-28.8424275065
 10
23.1085684373
 20
-28.8294952316
  0
LWPOLYLINE
  5
4B9
100
AcDbEntity
  8
0
100
AcDbPolyline
 62
7
  6
CONTINUOUS
 90
6
 70
0
 10
12.8920237921
 20
-8.1378815106
 10
12.8977547094
 20
-8.2325621445
 10
12.9105251382
 20
-8.3612796632
 10
12.928357468
 20
-8.4915746998
 10
12.9512055718
 20
-8.6231102195
 10
12.9790103483
 20
-8.7555459788
  0
LWPOLYLINE
  5
4BA
100
AcDbEntity
  8
RACCORDO
100
AcDbPolyline
 62
7
  6
CONTINUOUS
 90
16
 70
0
 10
9.2873393495
 20
18.9273075063
 10
9.2862685295
 20
18.9503712721
 10
9.2832840217
 20
18.9741563339
 10
9.2784185239
 20
18.9984021091
 10
9.2717253421
 20
19.0228429677
 10
9.2632778042
 20
19.0472111416
 10
9.2531684571
 20
19.0712396585
 10
9.2415080552
 20
19.0946652678
 10
9.2284243477
 20
19.1172313251
 10
9.2140606764
 20
19.1386906026
 10
9.198574405
 20
19.1588079976
 10
9.1821351977
 20
19.1773631096
 10
9.1649231606
 20
19.1941526549
 10
9.1471268649
 20
19.2089926919
 10
9.1289412812
 20
19.2217206367
 10
9.1105656459
 20
19.2321970451
  0
LWPOLYLINE
  5
4BB
100
AcDbEntity
  8
0
100
AcDbPolyline
 62
253
  6
CONTINUOUS
 90
10
 70
0
 10
12.2987915575
 20
-7.7164388627
 10
12.2998058025
 20
-7.7428986526
 10
12.3030993204
 20
-7.7679443366
 10
12.308636553
 20
-7.7913055114
 10
12.3163577182
 20
-7.8127299603
 10
12.326179455
 20
-7.8319863762
 10
12.3379957241
 20
-7.848866859
 10
12.3516789522
 20
-7.8631891602
 10
12.3670814095
 20
-7.8747986504
 10
12.3766885134
 20
-7.8802138431
  0
LWPOLYLINE
  5
4BC
100
AcDbEntity
  8
RACCORDO
100
AcDbPolyline
 62
253
  6
CONTINUOUS
 90
16
 70
0
 10
9.8156065213
 20
19.1907463263
 10
9.8147335247
 20
19.213987261
 10
9.8119097398
 20
19.2379408147
 10
9.8071663007
 20
19.2623428798
 10
9.8005545256
 20
19.2869276118
 10
9.7921478281
 20
19.311420712
 10
9.782043199
 20
19.3355427125
 10
9.7703571948
 20
19.3590222925
 10
9.7572177762
 20
19.3816083338
 10
9.7427650735
 20
19.4030619186
 10
9.7271335056
 20
19.4231764487
 10
9.7105164732
 20
19.4416965107
 10
9.6931709919
 20
19.458352327
 10
9.6753208344
 20
19.4729660765
 10
9.6571418183
 20
19.4854294618
 10
9.6388328176
 20
19.4956358651
  0
LWPOLYLINE
  5
4BD
100
AcDbEntity
  8
RACCORDO
100
AcDbPolyline
 62
7
  6
CONTINUOUS
 90
14
 70
0
 10
11.5121165589
 20
16.8110599555
 10
11.5128144695
 20
16.7886970117
 10
11.5158474798
 20
16.7639514551
 10
11.5211006009
 20
16.7382598834
 10
11.5280615317
 20
16.711733362
 10
11.5367089298
 20
16.684607203
 10
11.5471199552
 20
16.6571919832
 10
11.5589900706
 20
16.6295538897
 10
11.5723131766
 20
16.6018459033
 10
11.5870991347
 20
16.5742803136
 10
11.6031143582
 20
16.546961099
 10
11.6202833881
 20
16.5200151023
 10
11.6386588453
 20
16.4935922785
 10
11.6582099633
 20
16.4678115998
  0
LINE
  5
4BE
100
AcDbEntity
  8
RACCORDO
100
AcDbLine
 62
7
  6
CONTINUOUS
 10
9.2873393495
 20
17.3251568453
 11
9.2873393495
 21
18.9273075063
  0
LINE
  5
4BF
100
AcDbEntity
  8
RACCORDO
100
AcDbLine
 62
253
  6
CONTINUOUS
 10
9.8156065213
 20
19.1907463263
 11
9.8156065213
 21
18.8432148096
  0
LINE
  5
4C0
100
AcDbEntity
  8
RACCORDO
100
AcDbLine
 62
7
  6
CONTINUOUS
 10
9.8878043783
 20
19.2786189585
 11
9.8878043783
 21
18.9310874418
  0
LINE
  5
4C1
100
AcDbEntity
  8
RACCORDO
100
AcDbLine
 62
7
  6
CONTINUOUS
 10
11.5117633539
 20
16.8090005077
 11
11.5117633539
 21
15.5706577567
  0
LINE
  5
4C2
100
AcDbEntity
  8
RACCORDO
100
AcDbLine
 62
253
  6
CONTINUOUS
 10
11.6582099633
 20
16.4678115998
 11
11.6582099633
 21
15.387228289
  0
LWPOLYLINE
  5
4C3
100
AcDbEntity
  8
RACCORDO
100
AcDbPolyline
 62
7
  6
CONTINUOUS
 90
8
 70
0
 10
9.8878043614
 20
18.9311334396
 10
9.8877901167
 20
18.9284181278
 10
9.8866002314
 20
18.9065798209
 10
9.8835009075
 20
18.8849007014
 10
9.878507644
 20
18.8635453234
 10
9.8716451842
 20
18.8426652868
 10
9.8629535901
 20
18.8224235916
 10
9.8524923298
 20
18.8029894993
  0
LWPOLYLINE
  5
4C4
100
AcDbEntity
  8
RACCORDO
100
AcDbPolyline
 62
253
  6
CONTINUOUS
 90
9
 70
0
 10
9.8878043398
 20
19.278549594
 10
9.8875279821
 20
19.2727426996
 10
9.8849371959
 20
19.2597419191
 10
9.8796422506
 20
19.2469391404
 10
9.8716982745
 20
19.2344781459
 10
9.8611937699
 20
19.2225003793
 10
9.8482455651
 20
19.211138393
 10
9.8329941755
 20
19.2005149524
 10
9.8156065213
 20
19.1907463263
  0
LWPOLYLINE
  5
4C5
100
AcDbEntity
  8
RACCORDO
100
AcDbPolyline
 62
253
  6
CONTINUOUS
 90
9
 70
0
 10
9.8878043783
 20
18.9310875891
 10
9.8875075704
 20
18.9249981922
 10
9.8848787877
 20
18.9120202172
 10
9.8795591428
 20
18.8992494383
 10
9.8716064221
 20
18.8868251432
 10
9.8611073233
 20
18.8748829163
 10
9.8481762922
 20
18.863552899
 10
9.8329540964
 20
18.8529584018
 10
9.8156065213
 20
18.8432148096
  0
LWPOLYLINE
  5
4C6
100
AcDbEntity
  8
RACCORDO
100
AcDbPolyline
 62
7
  6
CONTINUOUS
 90
3
 70
0
 10
11.516584793
 20
16.8524249393
 10
11.5134619339
 20
16.8335165579
 10
11.5121165589
 20
16.8110599555
  0
LWPOLYLINE
  5
4C7
100
AcDbEntity
  8
0
100
AcDbPolyline
 62
7
  6
CONTINUOUS
 90
10
 70
0
 10
7.0938542245
 20
-12.0896567762
 10
7.094358918
 20
-12.0873724466
 10
7.0964221266
 20
-12.0839233704
 10
7.0998029466
 20
-12.0796245351
 10
7.1044802117
 20
-12.074564579
 10
7.110468136
 20
-12.068867502
 10
7.117550742
 20
-12.0624904648
 10
7.1257141305
 20
-12.0555094157
 10
7.1349514644
 20
-12.0480286988
 10
7.1450638828
 20
-12.04003064
  0
LWPOLYLINE
  5
4C8
100
AcDbEntity
  8
0
100
AcDbPolyline
 62
7
  6
CONTINUOUS
 90
16
 70
0
 10
4.3024243067
 20
-11.0712747123
 10
4.3135330034
 20
-11.0476777238
 10
4.3222891162
 20
-11.0224796587
 10
4.3283342241
 20
-10.996356074
 10
4.3315418848
 20
-10.9698068664
 10
4.331891403
 20
-10.9429689377
 10
4.3293298495
 20
-10.9160354172
 10
4.3238132831
 20
-10.889310555
 10
4.3153462438
 20
-10.8631629637
 10
4.3039533519
 20
-10.8378970211
 10
4.28967179
 20
-10.8138059275
 10
4.2726487053
 20
-10.7913024826
 10
4.2531717661
 20
-10.7708357537
 10
4.2312818818
 20
-10.752527622
 10
4.2074567149
 20
-10.7368384628
 10
4.1937571333
 20
-10.7294584091
  0
LWPOLYLINE
  5
4C9
100
AcDbEntity
  8
0
100
AcDbPolyline
 62
253
  6
CONTINUOUS
 90
22
 70
0
 10
2.563658933
 20
-12.0368972107
 10
2.5748099251
 20
-12.0203712
 10
2.5840038836
 20
-12.0014257905
 10
2.591140878
 20
-11.9802669025
 10
2.5961433351
 20
-11.9571245152
 10
2.5989568827
 20
-11.9322501665
 10
2.5995509397
 20
-11.9059142195
 10
2.5979190493
 20
-11.8784029235
 10
2.5940789488
 20
-11.8500153027
 10
2.5880723768
 20
-11.8210599065
 10
2.5799646196
 20
-11.7918514554
 10
2.5698438016
 20
-11.7627074202
 10
2.5578199274
 20
-11.7339445719
 10
2.5440236865
 20
-11.7058755381
 10
2.528605032
 20
-11.6788054052
 10
2.5117315518
 20
-11.6530284026
 10
2.493586646
 20
-11.6288247043
 10
2.4743675344
 20
-11.6064573839
 10
2.4542831124
 20
-11.5861695551
 10
2.4335516805
 20
-11.5681817293
 10
2.4123985717
 20
-11.5526894188
 10
2.3910537023
 20
-11.5398610119
  0
LWPOLYLINE
  5
4CA
100
AcDbEntity
  8
RACCORDO
100
AcDbPolyline
 62
7
  6
CONTINUOUS
 90
15
 70
0
 10
21.7615973312
 20
10.9539489636
 10
21.7436884278
 20
10.9340766691
 10
21.7242818999
 20
10.9149489612
 10
21.7034284587
 20
10.8967995289
 10
21.6811200653
 20
10.8798930446
 10
21.6575307272
 20
10.8644327186
 10
21.6330096802
 20
10.8505677234
 10
21.6076865222
 20
10.838534791
 10
21.5817185617
 20
10.8285546326
 10
21.5555202546
 20
10.8207630345
 10
21.5293014135
 20
10.8153720884
 10
21.5032734466
 20
10.8125674141
 10
21.4778832277
 20
10.8124579422
 10
21.4534684536
 20
10.8151915323
 10
21.4482875708
 20
10.8161825632
  0
LWPOLYLINE
  5
4CB
100
AcDbEntity
  8
RACCORDO
100
AcDbPolyline
 62
253
  6
CONTINUOUS
 90
8
 70
0
 10
17.0793975892
 20
16.6085416974
 10
17.1052387014
 20
16.6157521807
 10
17.1323599804
 20
16.6194062347
 10
17.1605550955
 20
16.61947606
 10
17.1896095325
 20
16.615961118
 10
17.2193022463
 20
16.6088881454
 10
17.2494073429
 20
16.5983109498
 10
17.2796957859
 20
16.5843099956
  0
LWPOLYLINE
  5
4CC
100
AcDbEntity
  8
RACCORDO
100
AcDbPolyline
 62
7
  6
CONTINUOUS
 90
10
 70
0
 10
17.5923394428
 20
13.8145476145
 10
17.5578668886
 20
13.8113140806
 10
17.5239013563
 20
13.8062008037
 10
17.4906665835
 20
13.7997709547
 10
17.4583264129
 20
13.7927119886
 10
17.4269218695
 20
13.7853492491
 10
17.3964507585
 20
13.7775387486
 10
17.3669398016
 20
13.7694917671
 10
17.3384180946
 20
13.7615429135
 10
17.3109470132
 20
13.7535754183
  0
LINE
  5
4CD
100
AcDbEntity
  8
RACCORDO
100
AcDbLine
 62
253
  6
CONTINUOUS
 10
-30.5296703739
 20
29.2239001201
 11
16.1149808571
 21
5.9015745046
  0
LINE
  5
4CE
100
AcDbEntity
  8
RACCORDO
100
AcDbLine
 62
253
  6
CONTINUOUS
 10
-29.5371043638
 20
30.975704276
 11
17.1309192503
 21
7.6416924689
  0
LWPOLYLINE
  5
4CF
100
AcDbEntity
  8
0
100
AcDbPolyline
 62
7
  6
CONTINUOUS
 90
5
 70
0
 10
13.1355531415
 20
-10.171348721
 10
13.0656132431
 20
-9.9176868329
 10
12.9777013705
 20
-9.650431435
 10
12.8760455052
 20
-9.3840493392
 10
12.7606456473
 20
-9.1185405454
  0
LWPOLYLINE
  5
4D0
100
AcDbEntity
  8
0
100
AcDbPolyline
 62
7
  6
CONTINUOUS
 90
7
 70
0
 10
12.6107412211
 20
-8.8600484792
 10
12.5804263294
 20
-8.6976769033
 10
12.5576901606
 20
-8.5382836848
 10
12.5425327148
 20
-8.3818688235
 10
12.5349539918
 20
-8.2278916501
 10
12.5349539918
 20
-8.076892834
 10
12.5408855668
 20
-7.9623123979
  0
LWPOLYLINE
  5
4D1
100
AcDbEntity
  8
RACCORDO
100
AcDbPolyline
 62
253
  6
CONTINUOUS
 90
25
 70
0
 10
16.815564331
 20
-29.6990655489
 10
16.8187723956
 20
-29.7508401992
 10
16.8246345264
 20
-29.8006505933
 10
16.8331507234
 20
-29.8484967314
 10
16.8443718182
 20
-29.8945579326
 10
16.8582469792
 20
-29.9386548778
 10
16.8746237121
 20
-29.9802496087
 10
16.8935341363
 20
-30.0193059867
 10
16.9149461325
 20
-30.0558601505
 10
16.9386108482
 20
-30.0894825579
 10
16.9645517407
 20
-30.1201330049
 10
16.9927453527
 20
-30.1478516953
 10
17.0228724596
 20
-30.1723296987
 10
17.0549526676
 20
-30.1935309347
 10
17.0889663704
 20
-30.2114914836
 10
17.1245355243
 20
-30.2260106555
 10
17.1616843189
 20
-30.2370502818
 10
17.2003885645
 20
-30.244648531
 10
17.2401976486
 20
-30.248719219
 10
17.2811317575
 20
-30.2492155055
 10
17.3231707048
 20
-30.2461842308
 10
17.365803319
 20
-30.239679731
 10
17.4088592093
 20
-30.2297201181
 10
17.4525087665
 20
-30.2162872801
 10
17.4967519904
 20
-30.199381217
  0
LWPOLYLINE
  5
4D2
100
AcDbEntity
  8
RACCORDO
100
AcDbPolyline
 62
253
  6
CONTINUOUS
 90
15
 70
0
 10
16.1149808571
 20
-29.713665363
 10
16.1197287318
 20
-29.7911127555
 10
16.1285191821
 20
-29.8660680513
 10
16.141317553
 20
-29.9382485949
 10
16.158072988
 20
-30.0073753627
 10
16.1787214317
 20
-30.0731962608
 10
16.2031901898
 20
-30.135483213
 10
16.2313973889
 20
-30.1940123389
 10
16.2632336561
 20
-30.248544849
 10
16.2985639803
 20
-30.298852544
 10
16.337247439
 20
-30.3447402033
 10
16.3791431126
 20
-30.386046469
 10
16.4240950615
 20
-30.4226214456
 10
16.4719351714
 20
-30.4543277545
 10
16.5073461097
 20
-30.4737117661
  0
LWPOLYLINE
  5
4D3
100
AcDbEntity
  8
0
100
AcDbPolyline
 62
7
  6
CONTINUOUS
 90
8
 70
0
 10
14.3860359299
 20
25.9939446503
 10
14.3849577946
 20
26.0280858713
 10
14.3801673776
 20
26.0749896762
 10
14.3715561377
 20
26.1228002585
 10
14.3590755545
 20
26.1713030924
 10
14.3428196848
 20
26.2200596693
 10
14.3227751237
 20
26.2688865857
 10
14.3065678821
 20
26.3028160124
  0
LWPOLYLINE
  5
4D4
100
AcDbEntity
  8
0
100
AcDbPolyline
 62
7
  6
CONTINUOUS
 90
13
 70
0
 10
14.3107525674
 20
-13.6264431849
 10
14.3113463809
 20
-13.6466195071
 10
14.3135420928
 20
-13.671511532
 10
14.3170792295
 20
-13.6966082635
 10
14.3219351207
 20
-13.7218165437
 10
14.328122304
 20
-13.7470211962
 10
14.3354176746
 20
-13.7721182391
 10
14.3438051219
 20
-13.7970450057
 10
14.3532756012
 20
-13.8217036675
 10
14.3636221501
 20
-13.8459487306
 10
14.3747604345
 20
-13.8696910727
 10
14.3867265502
 20
-13.8928983354
 10
14.3994909888
 20
-13.9155195266
  0
LINE
  5
4D5
100
AcDbEntity
  8
0
100
AcDbLine
 62
253
  6
CONTINUOUS
 10
14.3958133718
 20
-12.9734244217
 11
14.3994909888
 21
-13.9155195266
  0
LINE
  5
4D6
100
AcDbEntity
  8
0
100
AcDbLine
 62
253
  6
CONTINUOUS
 10
14.3938413977
 20
-12.0710669198
 11
14.3958133718
 21
-12.9734244217
  0
LINE
  5
4D7
100
AcDbEntity
  8
0
100
AcDbLine
 62
253
  6
CONTINUOUS
 10
14.3933691537
 20
-11.2066737416
 11
14.3938413977
 21
-12.0710669198
  0
LINE
  5
4D8
100
AcDbEntity
  8
0
100
AcDbLine
 62
7
  6
CONTINUOUS
 10
12.6107412211
 20
-9.43895759
 11
12.6107412211
 21
-8.8600484792
  0
LINE
  5
4D9
100
AcDbEntity
  8
DRAFT
100
AcDbLine
 62
7
  6
CONTINUOUS
 10
13.2824926632
 20
18.5773697625
 11
13.2824926632
 21
19.4995101975
  0
LINE
  5
4DA
100
AcDbEntity
  8
0
100
AcDbLine
 62
253
  6
CONTINUOUS
 10
14.2456796696
 20
25.5188666599
 11
14.2456796696
 21
25.7689272842
  0
LINE
  5
4DB
100
AcDbEntity
  8
0
100
AcDbLine
 62
7
  6
CONTINUOUS
 10
14.3860097695
 20
25.5699675207
 11
14.3860097695
 21
25.9938709706
  0
LINE
  5
4DC
100
AcDbEntity
  8
0
100
AcDbLine
 62
253
  6
CONTINUOUS
 10
14.3942206633
 20
-10.375322308
 11
14.3933691537
 21
-11.2066737416
  0
LWPOLYLINE
  5
4DD
100
AcDbEntity
  8
0
100
AcDbPolyline
 62
7
  6
CONTINUOUS
 90
7
 70
0
 10
14.3074860493
 20
-9.767023254
 10
14.306206394
 20
-10.3546123569
 10
14.3055649957
 20
-10.9418731468
 10
14.3055618566
 20
-11.5288045474
 10
14.3061969781
 20
-12.1154054772
 10
14.30747036
 20
-12.7016748567
 10
14.3107793591
 20
-13.6264367672
  0
LINE
  5
4DE
100
AcDbEntity
  8
0
100
AcDbLine
 62
253
  6
CONTINUOUS
 10
14.3962854313
 20
-9.5632689683
 11
14.3942206633
 21
-10.375322308
  0
LINE
  5
4DF
100
AcDbEntity
  8
0
100
AcDbLine
 62
7
  6
CONTINUOUS
 10
14.3107757265
 20
-8.8454379031
 11
14.3074860493
 21
-9.767023254
  0
LINE
  5
4E0
100
AcDbEntity
  8
0
100
AcDbLine
 62
253
  6
CONTINUOUS
 10
14.3994909888
 20
-8.7667885783
 11
14.3962854313
 21
-9.5632689683
  0
LWPOLYLINE
  5
4E1
100
AcDbEntity
  8
0
100
AcDbPolyline
 62
253
  6
CONTINUOUS
 90
16
 70
0
 10
12.2987915575
 20
-12.8651698109
 10
12.2998058071
 20
-12.8376957168
 10
12.3030993376
 20
-12.8093564625
 10
12.3086365884
 20
-12.780458012
 10
12.3163577744
 20
-12.7513123663
 10
12.3261795321
 20
-12.7222341941
 10
12.3379958202
 20
-12.6935374345
 10
12.3516790628
 20
-12.6655319095
 10
12.3670815287
 20
-12.638519977
 10
12.3840369264
 20
-12.6127932656
 10
12.4023621974
 20
-12.5886295305
 10
12.4218594942
 20
-12.5662896511
 10
12.442318318
 20
-12.5460148139
 10
12.463517788
 20
-12.5280239122
 10
12.4852290258
 20
-12.5125111825
 10
12.5072176283
 20
-12.499644105
  0
LWPOLYLINE
  5
4E2
100
AcDbEntity
  8
0
100
AcDbPolyline
 62
253
  6
CONTINUOUS
 90
18
 70
0
 10
12.3784907977
 20
-7.9478098346
 10
12.3629102029
 20
-8.0703043793
 10
12.3532873481
 20
-8.1967309637
 10
12.3496651005
 20
-8.3266201347
 10
12.3520610441
 20
-8.4596927847
 10
12.3604751067
 20
-8.5954128696
 10
12.3748224925
 20
-8.7328791952
 10
12.3949332905
 20
-8.8712499155
 10
12.4207186901
 20
-9.010468929
 10
12.4522148989
 20
-9.1508102884
 10
12.4893330136
 20
-9.291776349
 10
12.5320010012
 20
-9.4330071883
 10
12.5804464589
 20
-9.5749880847
 10
12.6348365722
 20
-9.7177276071
 10
12.6949735207
 20
-9.860268909
 10
12.7605548934
 20
-10.0016330167
 10
12.8313516035
 20
-10.1411718095
 10
12.9072674556
 20
-10.2785516653
  0
LINE
  5
4E3
100
AcDbEntity
  8
0
100
AcDbLine
 62
7
  6
CONTINUOUS
 10
12.4267764334
 20
-7.9338071602
 11
12.4309150484
 21
-7.9073271387
  0
LINE
  5
4E4
100
AcDbEntity
  8
0
100
AcDbLine
 62
253
  6
CONTINUOUS
 10
12.3895997396
 20
-7.8866694843
 11
12.3784907977
 21
-7.9478098346
  0
LINE
  5
4E5
100
AcDbEntity
  8
RACCORDO
100
AcDbLine
 62
7
  6
CONTINUOUS
 10
6.4147421178
 20
-11.751606623
 11
5.2594879784
 21
-14.0764792846
  0
LINE
  5
4E6
100
AcDbEntity
  8
0
100
AcDbLine
 62
253
  6
CONTINUOUS
 10
4.2412114641
 20
-11.1321754917
 11
4.2291473217
 21
-11.149164612
  0
LWPOLYLINE
  5
4E7
100
AcDbEntity
  8
0
100
AcDbPolyline
 62
7
  6
CONTINUOUS
 90
3
 70
0
 10
4.2144464297
 20
-11.1933197761
 10
4.2893509909
 20
-11.0929440765
 10
4.3024243067
 20
-11.0712747123
  0
LINE
  5
4E8
100
AcDbEntity
  8
RACCORDO
100
AcDbLine
 62
7
  6
CONTINUOUS
 10
23.2067480902
 20
12.1053025078
 11
23.1952720556
 21
12.090204509
  0
LWPOLYLINE
  5
4E9
100
AcDbEntity
  8
0
100
AcDbPolyline
 62
7
  6
CONTINUOUS
 90
44
 70
0
 10
3.3995120164
 20
-11.6304618509
 10
3.3329489526
 20
-11.7158849813
 10
3.2728114926
 20
-11.808318256
 10
3.2190996365
 20
-11.9077616749
 10
3.1716606058
 20
-12.0146392223
 10
3.130647179
 20
-12.128526914
 10
3.0965176914
 20
-12.2481527971
 10
3.0693493295
 20
-12.3735810854
 10
3.0490649069
 20
-12.5047475651
 10
3.0358912003
 20
-12.6401876416
 10
3.0299079108
 20
-12.7799494419
 10
3.0310353373
 20
-12.923984839
 10
3.0392611525
 20
-13.0706848568
 10
3.0546649132
 20
-13.220079175
 10
3.0771670626
 20
-13.372138114
 10
3.1065166024
 20
-13.5251636587
 10
3.142790359
 20
-13.6791669358
 10
3.1859115061
 20
-13.8341368187
 10
3.2353985661
 20
-13.9883419122
 10
3.2913228374
 20
-14.1417734362
 10
3.3536130217
 20
-14.2944401708
 10
3.4215737471
 20
-14.4446370608
 10
3.4952687164
 20
-14.5923366919
 10
3.5746342269
 20
-14.7375664784
 10
3.6587837981
 20
-14.8787036078
 10
3.7477709777
 20
-15.0157020439
 10
3.841542218
 20
-15.1486078228
 10
3.9390503962
 20
-15.2759362403
 10
4.0403375575
 20
-15.3976249548
 10
4.1453616566
 20
-15.5137363079
 10
4.2529494354
 20
-15.6229726207
 10
4.3631295935
 20
-15.7252567507
 10
4.4758734313
 20
-15.8206658403
 10
4.5899215911
 20
-15.9081336375
 10
4.7052890612
 20
-15.9875712467
 10
4.8219608532
 20
-16.0590675636
 10
4.9386326452
 20
-16.121823023
 10
5.0553044373
 20
-16.1757393556
 10
5.1719762293
 20
-16.2209148308
 10
5.2873436994
 20
-16.2568446916
 10
5.4013918592
 20
-16.2834250542
 10
5.514135697
 20
-16.3007598024
 10
5.6243158551
 20
-16.3086558305
 10
5.7247870619
 20
-16.3071163416
  0
LWPOLYLINE
  5
4EA
100
AcDbEntity
  8
0
100
AcDbPolyline
 62
253
  6
CONTINUOUS
 90
53
 70
0
 10
4.2291476108
 20
-11.1491642595
 10
4.1961235298
 20
-11.1912567592
 10
4.1640947817
 20
-11.2358783877
 10
4.1331529504
 20
-11.2830696305
 10
4.1032871695
 20
-11.3330498604
 10
4.0747091835
 20
-11.3856817098
 10
4.0477923628
 20
-11.4404013484
 10
4.0226156194
 20
-11.4970809423
 10
3.9991757223
 20
-11.5557627257
 10
3.9776338115
 20
-11.6160391034
 10
3.9580438545
 20
-11.677665859
 10
3.940347693
 20
-11.7407244669
 10
3.9245140884
 20
-11.8052727082
 10
3.9105917269
 20
-11.8710392937
 10
3.8985367135
 20
-11.9381492959
 10
3.8882501853
 20
-12.0073102728
 10
3.8798190223
 20
-12.0783046626
 10
3.8732793732
 20
-12.1512826793
 10
3.8686303243
 20
-12.2276134578
 10
3.8660528462
 20
-12.3073227051
 10
3.8657314834
 20
-12.3904143049
 10
3.8679094826
 20
-12.4783373614
 10
3.8729190283
 20
-12.5713326542
 10
3.8810852001
 20
-12.6692039552
 10
3.8928535522
 20
-12.7727959508
 10
3.9087061329
 20
-12.882442598
 10
3.9290390552
 20
-12.9977005675
 10
3.9542351197
 20
-13.1182037282
 10
3.9848037844
 20
-13.2441397404
 10
4.0210768846
 20
-13.3748718349
 10
4.0629912715
 20
-13.5086985184
 10
4.1108177161
 20
-13.6453593793
 10
4.1647269924
 20
-13.7843078797
 10
4.2241432144
 20
-13.9233747943
 10
4.2889660296
 20
-14.0619469001
 10
4.3592062835
 20
-14.1996939474
 10
4.4341132412
 20
-14.3349451472
 10
4.5133126905
 20
-14.4670128088
 10
4.596716238
 20
-14.5957381666
 10
4.6838221528
 20
-14.7203499092
 10
4.7742266609
 20
-14.840331557
 10
4.8677402818
 20
-14.9554902774
 10
4.9641437356
 20
-15.0655852028
 10
5.0631369444
 20
-15.1702907375
 10
5.164406862
 20
-15.2692924021
 10
5.2677174207
 20
-15.3623669054
 10
5.3727851779
 20
-15.4492535563
 10
5.4792541747
 20
-15.5296527457
 10
5.5867757843
 20
-15.6033018723
 10
5.6949903468
 20
-15.6699603494
 10
5.8035928106
 20
-15.7294459996
 10
5.9123131476
 20
-15.7816072056
 10
5.9380346281
 20
-15.7921957404
  0
LINE
  5
4EB
100
AcDbEntity
  8
RACCORDO
100
AcDbLine
 62
253
  6
CONTINUOUS
 10
22.651657514
 20
11.5181035716
 11
23.1799246857
 21
12.1610557274
  0
LINE
  5
4EC
100
AcDbEntity
  8
RACCORDO
100
AcDbLine
 62
7
  6
CONTINUOUS
 10
22.651657514
 20
11.4285731053
 11
23.1952852581
 21
12.0902205608
  0
LINE
  5
4ED
100
AcDbEntity
  8
0
100
AcDbLine
 62
253
  6
CONTINUOUS
 10
4.2747707833
 20
-11.1124385016
 11
4.2753562545
 21
-11.1117290779
  0
LWPOLYLINE
  5
4EE
100
AcDbEntity
  8
0
100
AcDbPolyline
 62
7
  6
CONTINUOUS
 90
4
 70
0
 10
0.694034434
 20
-11.0935574232
 10
0.6781115115
 20
-11.104567531
 10
0.6631819995
 20
-11.1151164555
 10
0.6359697322
 20
-11.1345182238
  0
LWPOLYLINE
  5
4EF
100
AcDbEntity
  8
0
100
AcDbPolyline
 62
7
  6
CONTINUOUS
 90
3
 70
0
 10
0.7470378871
 20
-11.0579240602
 10
0.7285763914
 20
-11.0702031646
 10
0.694034434
 20
-11.0935574232
  0
LWPOLYLINE
  5
4F0
100
AcDbEntity
  8
0
100
AcDbPolyline
 62
7
  6
CONTINUOUS
 90
3
 70
0
 10
0.806843943
 20
-11.0191636328
 10
0.7862477932
 20
-11.0323766558
 10
0.7470378871
 20
-11.0579240602
  0
LWPOLYLINE
  5
4F1
100
AcDbEntity
  8
0
100
AcDbPolyline
 62
7
  6
CONTINUOUS
 90
3
 70
0
 10
0.8721236457
 20
-10.9783552765
 10
0.8498585794
 20
-10.9921245609
 10
0.806843943
 20
-11.0191636328
  0
LWPOLYLINE
  5
4F2
100
AcDbEntity
  8
0
100
AcDbPolyline
 62
7
  6
CONTINUOUS
 90
3
 70
0
 10
0.9410894629
 20
-10.9369333036
 10
0.9178643443
 20
-10.9506933966
 10
0.8721236457
 20
-10.9783552765
  0
LWPOLYLINE
  5
4F3
100
AcDbEntity
  8
0
100
AcDbPolyline
 62
253
  6
CONTINUOUS
 90
19
 70
0
 10
2.3910537023
 20
-11.5398610119
 10
2.3749376974
 20
-11.5490157349
 10
2.3590493453
 20
-11.559530556
 10
2.3434759446
 20
-11.5713156875
 10
2.3285169287
 20
-11.5840805244
 10
2.3140206354
 20
-11.5978900628
 10
2.2994423106
 20
-11.613329234
 10
2.2847750584
 20
-11.6306055704
 10
2.2703316671
 20
-11.6495669139
 10
2.2561489562
 20
-11.6704036139
 10
2.2423394195
 20
-11.6932825325
 10
2.2292803954
 20
-11.7179525665
 10
2.2174029842
 20
-11.743910022
 10
2.2069000454
 20
-11.7710192834
 10
2.1980151545
 20
-11.7989906882
 10
2.1910800699
 20
-11.8269920255
 10
2.1861990364
 20
-11.8545585912
 10
2.1833763348
 20
-11.8816043418
 10
2.1826493636
 20
-11.9078580395
  0
LWPOLYLINE
  5
4F4
100
AcDbEntity
  8
0
100
AcDbPolyline
 62
7
  6
CONTINUOUS
 90
3
 70
0
 10
1.0339178994
 20
-10.8840525325
 10
1.0109922764
 20
-10.8966444772
 10
0.9410894629
 20
-10.9369333036
  0
LINE
  5
4F5
100
AcDbEntity
  8
0
100
AcDbLine
 62
253
  6
CONTINUOUS
 10
3.2669638766
 20
-11.1550488386
 11
4.0851838415
 21
-10.73512155
  0
LINE
  5
4F6
100
AcDbEntity
  8
0
100
AcDbLine
 62
7
  6
CONTINUOUS
 10
1.0339178994
 20
-10.8840525325
 11
1.8803958166
 21
-10.4574333056
  0
LINE
  5
4F7
100
AcDbEntity
  8
RACCORDO
100
AcDbLine
 62
7
  6
CONTINUOUS
 10
3.8285211561
 20
-10.5468402648
 11
3.9168652787
 21
-10.5026682035
  0
LINE
  5
4F8
100
AcDbEntity
  8
0
100
AcDbLine
 62
7
  6
CONTINUOUS
 10
2.7165270373
 20
-10.0507931479
 11
1.8885153266
 21
-10.4614930606
  0
LINE
  5
4F9
100
AcDbEntity
  8
0
100
AcDbLine
 62
253
  6
CONTINUOUS
 10
3.2285246594
 20
-11.131497727
 11
2.391054012
 21
-11.5398611668
  0
LINE
  5
4FA
100
AcDbEntity
  8
0
100
AcDbLine
 62
7
  6
CONTINUOUS
 10
2.7165270373
 20
-10.0507931479
 11
2.7459427068
 21
-10.037206541
  0
LWPOLYLINE
  5
4FB
100
AcDbEntity
  8
0
100
AcDbPolyline
 62
7
  6
CONTINUOUS
 90
7
 70
0
 10
2.7459427068
 20
-10.037206541
 10
2.7573656673
 20
-10.032097521
 10
2.7666839458
 20
-10.0284857493
 10
2.774041165
 20
-10.0262951514
 10
2.7796087683
 20
-10.0250387958
 10
2.7834914921
 20
-10.0247426729
 10
2.7854796659
 20
-10.0253185932
  0
LINE
  5
4FC
100
AcDbEntity
  8
0
100
AcDbLine
 62
7
  6
CONTINUOUS
 10
20.7778245438
 20
18.1456532759
 11
19.4178926037
 21
18.0719050885
  0
LWPOLYLINE
  5
4FD
100
AcDbEntity
  8
RACCORDO
100
AcDbPolyline
 62
7
  6
CONTINUOUS
 90
3
 70
0
 10
17.1118031163
 20
16.6022944058
 10
17.1340852621
 20
16.6006760337
 10
17.1581099616
 20
16.5966747357
  0
LINE
  5
4FE
100
AcDbEntity
  8
RACCORDO
100
AcDbLine
 62
7
  6
CONTINUOUS
 10
20.8235332296
 20
10.9466313257
 11
21.4489562729
 21
10.8160424139
  0
LINE
  5
4FF
100
AcDbEntity
  8
RACCORDO
100
AcDbLine
 62
253
  6
CONTINUOUS
 10
21.0503767231
 20
11.1024524864
 11
21.7615973312
 21
10.9539489636
  0
LWPOLYLINE
  5
500
100
AcDbEntity
  8
RACCORDO
100
AcDbPolyline
 62
7
  6
CONTINUOUS
 90
10
 70
0
 10
20.8235332296
 20
10.9466313257
 10
20.8159733101
 20
10.9483325281
 10
20.8084473405
 20
10.9502733595
 10
20.8009662997
 20
10.9524530675
 10
20.7935128101
 20
10.9548799553
 10
20.7861281789
 20
10.9575434439
 10
20.7789058116
 20
10.9604063768
 10
20.771877399
 20
10.9634465526
 10
20.765019502
 20
10.9666643977
 10
20.7628202033
 20
10.9677506889
  0
LWPOLYLINE
  5
501
100
AcDbEntity
  8
RACCORDO
100
AcDbPolyline
 62
253
  6
CONTINUOUS
 90
8
 70
0
 10
-25.8112532342
 20
34.3575192091
 10
-25.8287167223
 20
34.3672139243
 10
-25.8440640074
 20
34.377765989
 10
-25.8571278842
 20
34.3890604407
 10
-25.8677662227
 20
34.400974486
 10
-25.8758628155
 20
34.4133780876
 10
-25.8813291868
 20
34.4261352897
 10
-25.884025266
 20
34.4387283323
  0
LWPOLYLINE
  5
502
100
AcDbEntity
  8
RACCORDO
100
AcDbPolyline
 62
253
  6
CONTINUOUS
 90
9
 70
0
 10
-25.8112532342
 20
34.6974931432
 10
-25.8287546955
 20
34.7072112966
 10
-25.8441297565
 20
34.717790507
 10
-25.8572101345
 20
34.7291149837
 10
-25.8678538941
 20
34.7410623821
 10
-25.8759426354
 20
34.7535004617
 10
-25.8813861871
 20
34.7662879612
 10
-25.8841277851
 20
34.779281202
 10
-25.8844764988
 20
34.7858107583
  0
LWPOLYLINE
  5
503
100
AcDbEntity
  8
RACCORDO
100
AcDbPolyline
 62
253
  6
CONTINUOUS
 90
8
 70
0
 10
-12.4469350697
 20
27.6753601269
 10
-12.4643985579
 20
27.6850548421
 10
-12.479745843
 20
27.6956069068
 10
-12.4928097198
 20
27.7069013585
 10
-12.5034480583
 20
27.7188154038
 10
-12.5115446511
 20
27.7312190054
 10
-12.5170110224
 20
27.7439762075
 10
-12.5197071015
 20
27.75656925
  0
LWPOLYLINE
  5
504
100
AcDbEntity
  8
RACCORDO
100
AcDbPolyline
 62
7
  6
CONTINUOUS
 90
4
 70
0
 10
-25.746167942
 20
34.2222448546
 10
-25.7664257871
 20
34.2335660214
 10
-25.7887656588
 20
34.2491981916
 10
-25.8094051924
 20
34.2673019404
  0
LWPOLYLINE
  5
505
100
AcDbEntity
  8
RACCORDO
100
AcDbPolyline
 62
7
  6
CONTINUOUS
 90
4
 70
0
 10
-12.3818497775
 20
27.5400857724
 10
-12.4021076227
 20
27.5514069391
 10
-12.4244474944
 20
27.5670391094
 10
-12.4450870279
 20
27.5851428582
  0
LWPOLYLINE
  5
506
100
AcDbEntity
  8
RACCORDO
100
AcDbPolyline
 62
253
  6
CONTINUOUS
 90
3
 70
0
 10
-25.759061785
 20
34.230015537
 10
-25.7477404739
 20
34.2230470672
 10
-25.7462089126
 20
34.2222652841
  0
LWPOLYLINE
  5
507
100
AcDbEntity
  8
RACCORDO
100
AcDbPolyline
 62
253
  6
CONTINUOUS
 90
3
 70
0
 10
-12.3947436206
 20
27.5478564548
 10
-12.3834223095
 20
27.540887985
 10
-12.3818907482
 20
27.5401062018
  0
LWPOLYLINE
  5
508
100
AcDbEntity
  8
0
100
AcDbPolyline
 62
7
  6
CONTINUOUS
 90
15
 70
0
 10
37.2723446277
 20
-6.5962170609
 10
37.3111711912
 20
-6.6242127415
 10
37.3474274103
 20
-6.6506077061
 10
37.3810045971
 20
-6.6754806003
 10
37.4118569115
 20
-6.6990961398
 10
37.439831751
 20
-6.721351636
 10
37.4647219003
 20
-6.7417911942
 10
37.4864973584
 20
-6.7604613001
 10
37.5051633735
 20
-6.7775107596
 10
37.5206666518
 20
-6.7926544112
 10
37.5330563634
 20
-6.8059326015
 10
37.5423992857
 20
-6.817494327
 10
37.5487506701
 20
-6.8272196942
 10
37.5521897501
 20
-6.8351603458
 10
37.5530046881
 20
-6.840198662
  0
LWPOLYLINE
  5
509
100
AcDbEntity
  8
RACCORDO
100
AcDbPolyline
 62
7
  6
CONTINUOUS
 90
7
 70
0
 10
6.010399961
 20
18.3573993638
 10
5.9918599748
 20
18.3776704039
 10
5.9756308017
 20
18.3998916917
 10
5.9618233557
 20
18.4239987335
 10
5.9506850932
 20
18.4497355584
 10
5.9424552427
 20
18.4767385008
 10
5.937284757
 20
18.504792086
  0
LWPOLYLINE
  5
50A
100
AcDbEntity
  8
RACCORDO
100
AcDbPolyline
 62
253
  6
CONTINUOUS
 90
16
 70
0
 10
17.4967519904
 20
7.0386900231
 10
17.4928853866
 20
7.0838981278
 10
17.4852601729
 20
7.1305795641
 10
17.4739597759
 20
7.1782234902
 10
17.4591078422
 20
7.2263085252
 10
17.4408668844
 20
7.2743084604
 10
17.4194365018
 20
7.3216980172
 10
17.3950511969
 20
7.3679585927
 10
17.3679778172
 20
7.4125839228
 10
17.3385126355
 20
7.455085629
 10
17.3069780913
 20
7.4949985865
 10
17.2737192801
 20
7.5318859876
 10
17.2391001884
 20
7.5653441173
 10
17.2034996788
 20
7.5950068076
 10
17.1673073412
 20
7.6205494384
 10
17.130919251
 20
7.6416924693
  0
LWPOLYLINE
  5
50B
100
AcDbEntity
  8
RACCORDO
100
AcDbPolyline
 62
7
  6
CONTINUOUS
 90
9
 70
0
 10
19.299646779
 20
-29.7857321756
 10
19.3009670394
 20
-29.8113898952
 10
19.3049528694
 20
-29.8369654309
 10
19.3116059284
 20
-29.8621295149
 10
19.3208669567
 20
-29.8865279613
 10
19.3326446182
 20
-29.9098694348
 10
19.3468565161
 20
-29.9319378845
 10
19.3634298428
 20
-29.9525351943
 10
19.3821302955
 20
-29.9713075714
  0
LWPOLYLINE
  5
50C
100
AcDbEntity
  8
RACCORDO
100
AcDbPolyline
 62
253
  6
CONTINUOUS
 90
10
 70
0
 10
19.3728700837
 20
-29.8741205233
 10
19.3738035712
 20
-29.8958742525
 10
19.3766098092
 20
-29.9165486363
 10
19.3812822268
 20
-29.9359073782
 10
19.3878038242
 20
-29.953747206
 10
19.3961208403
 20
-29.9698249136
 10
19.4061188446
 20
-29.9838867994
 10
19.4176697277
 20
-29.9957626636
 10
19.4306612359
 20
-30.0053457167
 10
19.4378405327
 20
-30.0093375496
  0
LINE
  5
50D
100
AcDbEntity
  8
DRAFT
100
AcDbLine
 62
7
  6
CONTINUOUS
 10
16.8257900139
 20
20.298521286
 11
16.8257900139
 21
21.2570118049
  0
LINE
  5
50E
100
AcDbEntity
  8
DRAFT
100
AcDbLine
 62
253
  6
CONTINUOUS
 10
16.9594479254
 20
16.5333520832
 11
16.9594479254
 21
17.19623614
  0
LINE
  5
50F
100
AcDbEntity
  8
RACCORDO
100
AcDbLine
 62
253
  6
CONTINUOUS
 10
17.169517063
 20
12.6315747392
 11
17.169517063
 21
13.71215805
  0
LINE
  5
510
100
AcDbEntity
  8
DRAFT
100
AcDbLine
 62
7
  6
CONTINUOUS
 10
17.6665547066
 20
17.5497895306
 11
17.6665547066
 21
18.1023477199
  0
LINE
  5
511
100
AcDbEntity
  8
RACCORDO
100
AcDbLine
 62
253
  6
CONTINUOUS
 10
17.8745609823
 20
12.6531105025
 11
17.8745609823
 21
13.8858374748
  0
LINE
  5
512
100
AcDbEntity
  8
DRAFT
100
AcDbLine
 62
253
  6
CONTINUOUS
 10
18.0003303292
 20
18.2656680751
 11
18.0003303292
 21
19.4971798616
  0
LINE
  5
513
100
AcDbEntity
  8
DRAFT
100
AcDbLine
 62
7
  6
CONTINUOUS
 10
18.0201080972
 20
17.3730128353
 11
18.0201080972
 21
17.9255710246
  0
LINE
  5
514
100
AcDbEntity
  8
RACCORDO
100
AcDbLine
 62
7
  6
CONTINUOUS
 10
18.1256798365
 20
18.4147072985
 11
18.1256798365
 21
19.6469760872
  0
LINE
  5
515
100
AcDbEntity
  8
DRAFT
100
AcDbLine
 62
7
  6
CONTINUOUS
 10
18.2322401316
 20
14.0651420196
 11
18.2322401316
 21
12.8527064543
  0
LINE
  5
516
100
AcDbEntity
  8
DRAFT
100
AcDbLine
 62
253
  6
CONTINUOUS
 10
18.3736614878
 20
16.6725497499
 11
18.3736614878
 21
17.19623614
  0
LWPOLYLINE
  5
517
100
AcDbEntity
  8
RACCORDO
100
AcDbPolyline
 62
253
  6
CONTINUOUS
 90
7
 70
0
 10
16.5453300915
 20
-6.1082948682
 10
16.5153040275
 20
-10.0769153902
 10
16.5153039776
 20
-14.031537534
 10
16.5453299793
 20
-17.9711634106
 10
16.605382045
 20
-21.8954603905
 10
16.6954601622
 20
-25.8047611032
 10
16.815564331
 20
-29.6990655489
  0
LINE
  5
518
100
AcDbEntity
  8
RACCORDO
100
AcDbLine
 62
253
  6
CONTINUOUS
 10
16.6053821572
 20
-2.1260085974
 11
16.5453300915
 21
-6.1082948682
  0
LWPOLYLINE
  5
519
100
AcDbEntity
  8
RACCORDO
100
AcDbPolyline
 62
253
  6
CONTINUOUS
 90
10
 70
0
 10
16.1149808571
 20
5.9015745046
 10
15.9947667424
 20
1.8878223707
 10
15.904597518
 20
-2.1125799173
 10
15.8444805886
 20
-6.0992979995
 10
15.8144208904
 20
-10.0719986416
 10
15.8144208905
 20
-14.0303498816
 10
15.8444805887
 20
-17.9740210557
 10
15.9045975182
 20
-21.9026826688
 10
15.9947667425
 20
-25.816006423
 10
16.1149808571
 20
-29.713665363
  0
LWPOLYLINE
  5
51A
100
AcDbEntity
  8
RACCORDO
100
AcDbPolyline
 62
253
  6
CONTINUOUS
 90
3
 70
0
 10
16.815564331
 20
5.8805590789
 10
16.6954602371
 20
1.8702760516
 10
16.6053821572
 20
-2.1260085974
  0
LWPOLYLINE
  5
51B
100
AcDbEntity
  8
RACCORDO
100
AcDbPolyline
 62
253
  6
CONTINUOUS
 90
16
 70
0
 10
19.3728700837
 20
12.1054314843
 10
19.3738035712
 20
12.1281187011
 10
19.3766098092
 20
12.1515993229
 10
19.3812822268
 20
12.1756304823
 10
19.3878038242
 20
12.1999919076
 10
19.3961208403
 20
12.2243866313
 10
19.4061188446
 20
12.2484465213
 10
19.4176697277
 20
12.2718732686
 10
19.4306612359
 20
12.2944478299
 10
19.4449574095
 20
12.3159320299
 10
19.4604076609
 20
12.3360948147
 10
19.4768406434
 20
12.3547081729
 10
19.4940706623
 20
12.3715602215
 10
19.5119067511
 20
12.3864646767
 10
19.5301558864
 20
12.3992607181
 10
19.5486183396
 20
12.4098082993
  0
LWPOLYLINE
  5
51C
100
AcDbEntity
  8
RACCORDO
100
AcDbPolyline
 62
7
  6
CONTINUOUS
 90
12
 70
0
 10
19.299646779
 20
12.193819832
 10
19.3009626424
 20
12.2194349065
 10
19.30493534
 20
12.2449692965
 10
19.3115669777
 20
12.2700957013
 10
19.3208003504
 20
12.2944643033
 10
19.3325448443
 20
12.3177825156
 10
19.3467151567
 20
12.3398292724
 10
19.3632386185
 20
12.3604091235
 10
19.3818830571
 20
12.3791717498
 10
19.4022974953
 20
12.3957806911
 10
19.4243173372
 20
12.4101356338
 10
19.4355683249
 20
12.4162745547
  0
LWPOLYLINE
  5
51D
100
AcDbEntity
  8
0
100
AcDbPolyline
 62
7
  6
CONTINUOUS
 90
9
 70
0
 10
14.3107561895
 20
-8.845426633
 10
14.3113443779
 20
-8.842821306
 10
14.3135473102
 20
-8.8390967969
 10
14.3170985597
 20
-8.8345215888
 10
14.3219752761
 20
-8.8291892636
 10
14.3281887201
 20
-8.8232282965
 10
14.3355085093
 20
-8.81659936
 10
14.3439160529
 20
-8.8093831254
 10
14.3534006126
 20
-8.8016891774
  0
LWPOLYLINE
  5
51E
100
AcDbEntity
  8
RACCORDO
100
AcDbPolyline
 62
253
  6
CONTINUOUS
 90
14
 70
0
 10
21.0503767231
 20
11.1024524864
 10
21.0401421026
 20
11.0787906242
 10
21.0281008166
 20
11.0563574657
 10
21.0143843043
 20
11.0353978848
 10
20.9991422911
 20
11.01614067
 10
20.9825411543
 20
10.9987960276
 10
20.9647621071
 20
10.9835532864
 10
20.9459992204
 20
10.9705788317
 10
20.9264573041
 20
10.9600142889
 10
20.9063496722
 20
10.9519749774
 10
20.8858958136
 20
10.946548652
 10
20.8653189967
 20
10.9437945448
 10
20.8448438318
 20
10.9437427189
 10
20.8235332296
 20
10.9466313257
  0
LWPOLYLINE
  5
51F
100
AcDbEntity
  8
0
100
AcDbPolyline
 62
7
  6
CONTINUOUS
 90
37
 70
0
 10
11.7953646665
 20
-7.7099207911
 10
11.7913874341
 20
-7.7148219044
 10
11.7302898291
 20
-7.8051387776
 10
11.6756174296
 20
-7.9023411801
 10
11.6275438666
 20
-8.0063005821
 10
11.5858955091
 20
-8.1171455133
 10
11.5510148798
 20
-8.2339740849
 10
11.5229130625
 20
-8.3571131672
 10
11.5015789734
 20
-8.4862358899
 10
11.4873218839
 20
-8.6194597525
 10
11.4802448843
 20
-8.7565323484
 10
11.4802448843
 20
-8.8977060843
 10
11.4873218839
 20
-9.0418556797
 10
11.5015789734
 20
-9.1893366319
 10
11.5229130625
 20
-9.3397934436
 10
11.5510148798
 20
-9.4910343432
 10
11.5858955091
 20
-9.6427435441
 10
11.6275438666
 20
-9.7952368328
 10
11.6756174296
 20
-9.9472697978
 10
11.7302898291
 20
-10.0991445998
 10
11.7913874341
 20
-10.2505590781
 10
11.8580468287
 20
-10.3993623385
 10
11.9302076762
 20
-10.5452532854
 10
12.0079303133
 20
-10.6885330146
 10
12.090532334
 20
-10.8279539186
 10
12.178199779
 20
-10.9636934511
 10
12.2707466075
 20
-11.0955741584
 10
12.3669322921
 20
-11.2218160728
 10
12.4666775641
 20
-11.3421929366
 10
12.5700616921
 20
-11.4569310074
 10
12.6760819539
 20
-11.5649290894
 10
12.7848616476
 20
-11.6662130681
 10
12.8962774752
 20
-11.7607570579
 10
13.00895682
 20
-11.8473822077
 10
13.1224421432
 20
-11.9256955669
 10
13.2371909837
 20
-11.996090086
 10
13.3532033414
 20
-12.0585657649
  0
LWPOLYLINE
  5
520
100
AcDbEntity
  8
0
100
AcDbPolyline
 62
7
  6
CONTINUOUS
 90
28
 70
0
 10
12.7606456473
 20
-9.1185405454
 10
12.7725221662
 20
-9.1063353914
 10
12.784431093
 20
-9.0938720674
 10
12.7963734634
 20
-9.0811506895
 10
12.8084061308
 20
-9.0681358821
 10
12.8204744578
 20
-9.0548632847
 10
12.8324121832
 20
-9.0414395107
 10
12.8442147613
 20
-9.0278701664
 10
12.8558888953
 20
-9.0141498717
 10
12.8672850373
 20
-9.000368699
 10
12.8783970433
 20
-8.9865367856
 10
12.8892332032
 20
-8.9726441914
 10
12.8996655867
 20
-8.9587508255
 10
12.909696404
 20
-8.944861137
 10
12.9193257908
 20
-8.9309708705
 10
12.9284228626
 20
-8.9171268476
 10
12.9369876692
 20
-8.903356297
 10
12.9450228029
 20
-8.8896321871
 10
12.9524019581
 20
-8.8759199793
 10
12.9591686548
 20
-8.8622076672
 10
12.9652836222
 20
-8.848507609
 10
12.9704979264
 20
-8.8348219
 10
12.9748622357
 20
-8.8210581102
 10
12.9783328176
 20
-8.8073092572
 10
12.9805194562
 20
-8.793855492
 10
12.9812936969
 20
-8.7807902211
 10
12.9807896479
 20
-8.7680203176
 10
12.9790103483
 20
-8.7555459788
  0
LWPOLYLINE
  5
521
100
AcDbEntity
  8
0
100
AcDbPolyline
 62
7
  6
CONTINUOUS
 90
4
 70
0
 10
7.1450638828
 20
-12.04003064
 10
7.1559719585
 20
-12.0315636685
 10
7.1677128286
 20
-12.02274473
 10
7.18025984
 20
-12.0136528414
  0
LWPOLYLINE
  5
522
100
AcDbEntity
  8
0
100
AcDbPolyline
 62
7
  6
CONTINUOUS
 90
16
 70
0
 10
5.7243107948
 20
-13.2735094546
 10
5.6996670333
 20
-13.2888497631
 10
5.6766297806
 20
-13.306492391
 10
5.6554700795
 20
-13.3262109433
 10
5.6365661061
 20
-13.3475538725
 10
5.61990124
 20
-13.3704011961
 10
5.6052528742
 20
-13.3951095878
 10
5.5928110666
 20
-13.4216489751
 10
5.5829298237
 20
-13.4495718307
 10
5.5757827945
 20
-13.4786810515
 10
5.5715502932
 20
-13.5086442274
 10
5.5703599638
 20
-13.5390681193
 10
5.5722830038
 20
-13.5696623362
 10
5.5773666211
 20
-13.6001209689
 10
5.5855696503
 20
-13.629941925
 10
5.5967542823
 20
-13.6586596059
  0
LWPOLYLINE
  5
523
100
AcDbEntity
  8
0
100
AcDbPolyline
 62
253
  6
CONTINUOUS
 90
6
 70
0
 10
4.2291473217
 20
-11.149164612
 10
4.2423831311
 20
-11.1412278234
 10
4.2539665269
 20
-11.1328295526
 10
4.2642860884
 20
-11.1237644675
 10
4.2736367919
 20
-11.1137872182
 10
4.2747707833
 20
-11.1124385016
  0
LINE
  5
524
100
AcDbEntity
  8
0
100
AcDbLine
 62
253
  6
CONTINUOUS
 10
5.8666374085
 20
-13.277652865
 11
6.6487406311
 21
-12.8416057128
  0
LINE
  5
525
100
AcDbEntity
  8
0
100
AcDbLine
 62
7
  6
CONTINUOUS
 10
6.5100341132
 20
-12.8354429383
 11
5.7243108035
 21
-13.2735094498
  0
LINE
  5
526
100
AcDbEntity
  8
0
100
AcDbLine
 62
253
  6
CONTINUOUS
 10
3.4338776264
 20
-11.5582373983
 11
4.2291476108
 21
-11.1491642595
  0
LINE
  5
527
100
AcDbEntity
  8
RACCORDO
100
AcDbLine
 62
253
  6
CONTINUOUS
 10
13.5467764797
 20
-8.4652578544
 11
12.9790103484
 21
-8.7555459789
  0
LINE
  5
528
100
AcDbEntity
  8
RACCORDO
100
AcDbLine
 62
253
  6
CONTINUOUS
 10
4.8138928191
 20
-11.1501699441
 11
5.0128807896
 21
-11.0506759589
  0
LINE
  5
529
100
AcDbEntity
  8
RACCORDO
100
AcDbLine
 62
253
  6
CONTINUOUS
 10
5.0297408493
 20
-11.5141855845
 11
5.4848204451
 21
-11.2866457866
  0
LINE
  5
52A
100
AcDbEntity
  8
0
100
AcDbLine
 62
253
  6
CONTINUOUS
 10
37.5530048274
 20
5.1889261755
 11
38.4412088456
 21
5.6294819165
  0
LINE
  5
52B
100
AcDbEntity
  8
0
100
AcDbLine
 62
253
  6
CONTINUOUS
 10
39.148207931
 20
4.4100888699
 11
37.2723446277
 21
3.4796468424
  0
LINE
  5
52C
100
AcDbEntity
  8
0
100
AcDbLine
 62
253
  6
CONTINUOUS
 10
3.3995120164
 20
-11.630461851
 11
2.5636586542
 21
-12.0368971784
  0
LWPOLYLINE
  5
52D
100
AcDbEntity
  8
0
100
AcDbPolyline
 62
7
  6
CONTINUOUS
 90
8
 70
0
 10
6.5100325421
 20
-12.8354399206
 10
6.5222727581
 20
-12.8295645039
 10
6.5382691197
 20
-12.8243509827
 10
6.5552051608
 20
-12.8214616608
 10
6.5730472389
 20
-12.8208732917
 10
6.591364873
 20
-12.8225928181
 10
6.6100145696
 20
-12.8266225542
 10
6.6291398223
 20
-12.8329601858
  0
LINE
  5
52E
100
AcDbEntity
  8
0
100
AcDbLine
 62
7
  6
CONTINUOUS
 10
11.3301955628
 20
-7.7891699324
 11
11.3303511133
 21
-7.7890964169
  0
LINE
  5
52F
100
AcDbEntity
  8
0
100
AcDbLine
 62
7
  6
CONTINUOUS
 10
7.0986374703
 20
-12.62706028
 11
6.6331937684
 21
-12.8347483008
  0
LINE
  5
530
100
AcDbEntity
  8
0
100
AcDbLine
 62
253
  6
CONTINUOUS
 10
6.6945220732
 20
-12.8644964339
 11
7.0991599248
 21
-12.6839589672
  0
LINE
  5
531
100
AcDbEntity
  8
0
100
AcDbLine
 62
7
  6
CONTINUOUS
 10
14.307837343
 20
-9.659337564
 11
13.5695977415
 21
-9.9819592227
  0
LINE
  5
532
100
AcDbEntity
  8
0
100
AcDbLine
 62
7
  6
CONTINUOUS
 10
13.5695977415
 20
-9.9819592227
 11
12.9751018177
 21
-10.241305689
  0
LWPOLYLINE
  5
533
100
AcDbEntity
  8
0
100
AcDbPolyline
 62
7
  6
CONTINUOUS
 90
11
 70
0
 10
11.3303519878
 20
-7.7890966431
 10
11.4029605679
 20
-7.7589302783
 10
11.4839166175
 20
-7.734209058
 10
11.5682602107
 20
-7.7172359148
 10
11.6559560737
 20
-7.7080153437
 10
11.7465885932
 20
-7.7065944047
 10
11.839793247
 20
-7.7129506912
 10
11.9352672263
 20
-7.7270372487
 10
12.032482537
 20
-7.7487374444
 10
12.1306497694
 20
-7.7777725066
 10
12.2292022965
 20
-7.8138165324
  0
LWPOLYLINE
  5
534
100
AcDbEntity
  8
RACCORDO
100
AcDbPolyline
 62
7
  6
CONTINUOUS
 90
24
 70
0
 10
18.1507407636
 20
16.7577274766
 10
18.1090587669
 20
16.766213659
 10
18.0670709485
 20
16.7730541487
 10
18.0248790051
 20
16.7783938516
 10
17.9825578054
 20
16.7823541079
 10
17.9402340919
 20
16.7850310361
 10
17.8981302295
 20
16.7865071059
 10
17.8563246478
 20
16.7868661726
 10
17.8148520044
 20
16.7861808069
 10
17.7738878677
 20
16.7845198798
 10
17.7335097218
 20
16.781948997
 10
17.6937113842
 20
16.778523127
 10
17.6545495713
 20
16.7742959727
 10
17.6160516998
 20
16.7693154714
 10
17.5782410565
 20
16.7636264608
 10
17.5411735173
 20
16.7572768715
 10
17.504871546
 20
16.7503098303
 10
17.4693519621
 20
16.7427660229
 10
17.4346702655
 20
16.7346952173
 10
17.4008824927
 20
16.7261507851
 10
17.367969667
 20
16.7171680772
 10
17.3358934962
 20
16.7077758044
 10
17.3046968925
 20
16.6980254837
 10
17.2744008741
 20
16.6879658793
  0
LINE
  5
535
100
AcDbEntity
  8
RACCORDO
100
AcDbLine
 62
7
  6
CONTINUOUS
 10
7.4592150652
 20
17.6287904079
 11
8.0846381085
 21
17.4982014962
  0
LINE
  5
536
100
AcDbEntity
  8
RACCORDO
100
AcDbLine
 62
253
  6
CONTINUOUS
 10
7.6860585587
 20
17.7846115687
 11
8.3972791668
 21
17.6361080458
  0
LWPOLYLINE
  5
537
100
AcDbEntity
  8
RACCORDO
100
AcDbPolyline
 62
7
  6
CONTINUOUS
 90
10
 70
0
 10
7.4592150652
 20
17.6287904079
 10
7.4516551457
 20
17.6304916103
 10
7.4441291761
 20
17.6324324418
 10
7.4366481353
 20
17.6346121497
 10
7.4291946456
 20
17.6370390375
 10
7.4218100144
 20
17.6397025261
 10
7.4145876472
 20
17.642565459
 10
7.4075592346
 20
17.6456056348
 10
7.4007013376
 20
17.6488234799
 10
7.3985020389
 20
17.6499097712
  0
LINE
  5
538
100
AcDbEntity
  8
RACCORDO
100
AcDbLine
 62
7
  6
CONTINUOUS
 10
18.1919500694
 20
16.7474352956
 11
18.1507407636
 21
16.7577274766
  0
LWPOLYLINE
  5
539
100
AcDbEntity
  8
RACCORDO
100
AcDbPolyline
 62
7
  6
CONTINUOUS
 90
4
 70
0
 10
17.1581099616
 20
16.5966747357
 10
17.183912991
 20
16.5900029318
 10
17.2114456276
 20
16.5804547016
 10
17.2406434539
 20
16.567806858
  0
LINE
  5
53A
100
AcDbEntity
  8
RACCORDO
100
AcDbLine
 62
7
  6
CONTINUOUS
 10
18.2324363762
 20
16.7351787969
 11
18.1919500694
 21
16.7474352956
  0
LWPOLYLINE
  5
53B
100
AcDbEntity
  8
RACCORDO
100
AcDbPolyline
 62
7
  6
CONTINUOUS
 90
3
 70
0
 10
21.7505639889
 20
13.4999503774
 10
21.7737496491
 20
13.4901322578
 10
21.7766150994
 20
13.4887220934
  0
LWPOLYLINE
  5
53C
100
AcDbEntity
  8
0
100
AcDbPolyline
 62
253
  6
CONTINUOUS
 90
10
 70
0
 10
38.8760470978
 20
5.6518625581
 10
38.8326017996
 20
5.670269198
 10
38.7885084661
 20
5.6828844148
 10
38.7424742512
 20
5.6904149067
 10
38.694744186
 20
5.6928303096
 10
38.6455936315
 20
5.6901260523
 10
38.595375441
 20
5.6823444337
 10
38.5443977361
 20
5.6695711569
 10
38.492915282
 20
5.6519072499
 10
38.4412088449
 20
5.6294819168
  0
LWPOLYLINE
  5
53D
100
AcDbEntity
  8
RACCORDO
100
AcDbPolyline
 62
253
  6
CONTINUOUS
 90
8
 70
0
 10
19.5486183396
 20
12.4098082993
 10
19.5299798471
 20
12.4178310501
 10
19.5115581972
 20
12.4233838949
 10
19.4935565038
 20
12.4264056086
 10
19.4761710304
 20
12.4268627656
 10
19.4595958975
 20
12.4247497629
 10
19.4440197899
 20
12.4200922202
 10
19.4355683249
 20
12.4162745547
  0
LWPOLYLINE
  5
53E
100
AcDbEntity
  8
RACCORDO
100
AcDbPolyline
 62
253
  6
CONTINUOUS
 90
8
 70
0
 10
-12.2711868138
 20
28.319710876
 10
-12.2898253063
 20
28.3277336268
 10
-12.3082469562
 20
28.3332864716
 10
-12.3262486496
 20
28.3363081853
 10
-12.343634123
 20
28.3367653423
 10
-12.3602092559
 20
28.3346523396
 10
-12.3757853634
 20
28.3299947969
 10
-12.3842368285
 20
28.3261771314
  0
LWPOLYLINE
  5
53F
100
AcDbEntity
  8
RACCORDO
100
AcDbPolyline
 62
253
  6
CONTINUOUS
 90
8
 70
0
 10
6.1843001752
 20
19.0919673815
 10
6.1657208267
 20
19.0999684549
 10
6.147356296
 20
19.1055155577
 10
6.12940778
 20
19.1085479173
 10
6.1120719181
 20
19.1090323119
 10
6.0955386372
 20
19.1069634346
 10
6.0799890718
 20
19.1023639516
 10
6.0712145091
 20
19.0984153567
  0
LWPOLYLINE
  5
540
100
AcDbEntity
  8
RACCORDO
100
AcDbPolyline
 62
7
  6
CONTINUOUS
 90
8
 70
0
 10
21.1313749428
 20
13.2217923966
 10
21.1127956043
 20
13.2297934751
 10
21.0944310831
 20
13.2353405828
 10
21.0764825763
 20
13.2383729471
 10
21.0591467239
 20
13.2388573466
 10
21.0426134521
 20
13.236788474
 10
21.0270638931
 20
13.2321889942
 10
21.0200270308
 20
13.2291092951
  0
LWPOLYLINE
  5
541
100
AcDbEntity
  8
RACCORDO
100
AcDbPolyline
 62
7
  6
CONTINUOUS
 90
8
 70
0
 10
7.7670567784
 20
19.9039514789
 10
7.7484774399
 20
19.9119525573
 10
7.7301129187
 20
19.917499665
 10
7.7121644119
 20
19.9205320293
 10
7.6948285594
 20
19.9210164288
 10
7.6782952877
 20
19.9189475562
 10
7.6627457286
 20
19.9143480765
 10
7.6557088664
 20
19.9112683773
  0
LWPOLYLINE
  5
542
100
AcDbEntity
  8
RACCORDO
100
AcDbPolyline
 62
253
  6
CONTINUOUS
 90
6
 70
0
 10
21.6658248215
 20
13.4821398632
 10
21.6474491961
 20
13.4902427982
 10
21.629263622
 20
13.4958793793
 10
21.6114673355
 20
13.4989878536
 10
21.594255308
 20
13.4995341654
 10
21.57781611
 20
13.4975123296
  0
LWPOLYLINE
  5
543
100
AcDbEntity
  8
RACCORDO
100
AcDbPolyline
 62
253
  6
CONTINUOUS
 90
8
 70
0
 10
23.1138371497
 20
12.8201110112
 10
23.1061504353
 20
12.8235232337
 10
23.0906451672
 20
12.8281261443
 10
23.0741704801
 20
12.8301923225
 10
23.0569800981
 20
12.8297064689
 10
23.0392944643
 20
12.8267115461
 10
23.0212862395
 20
12.821272134
 10
23.003150982
 20
12.8134767829
  0
LWPOLYLINE
  5
544
100
AcDbEntity
  8
RACCORDO
100
AcDbPolyline
 62
253
  6
CONTINUOUS
 90
8
 70
0
 10
21.7765991709
 20
13.4887300594
 10
21.7688242748
 20
13.492186314
 10
21.7533190066
 20
13.4967892245
 10
21.7368443196
 20
13.4988554028
 10
21.7196539375
 20
13.4983695491
 10
21.7019683038
 20
13.4953746264
 10
21.683960079
 20
13.4899352143
 10
21.6658248215
 20
13.4821398632
  0
LWPOLYLINE
  5
545
100
AcDbEntity
  8
RACCORDO
100
AcDbPolyline
 62
253
  6
CONTINUOUS
 90
16
 70
0
 10
20.6978547635
 20
11.4429391444
 10
20.7172910703
 20
11.4341884138
 10
20.738449491
 20
11.4265008833
 10
20.7610984443
 20
11.4199606943
 10
20.7849932411
 20
11.4146388145
 10
20.8098694003
 20
11.4105944438
 10
20.8354443994
 20
11.407872668
 10
20.8614308811
 20
11.406501869
 10
20.8875512895
 20
11.4064945257
 10
20.9135308118
 20
11.4078499229
 10
20.9391243399
 20
11.410558427
 10
20.9640118172
 20
11.4145893754
 10
20.9878234456
 20
11.4198739433
 10
21.0102838649
 20
11.4263293674
 10
21.0312026553
 20
11.433878197
 10
21.0503767231
 20
11.4424264206
  0
LWPOLYLINE
  5
546
100
AcDbEntity
  8
RACCORDO
100
AcDbPolyline
 62
253
  6
CONTINUOUS
 90
16
 70
0
 10
-11.1219503899
 20
27.3528417211
 10
-11.1025140831
 20
27.3440909905
 10
-11.0813556624
 20
27.33640346
 10
-11.0587067091
 20
27.329863271
 10
-11.0348119123
 20
27.3245413912
 10
-11.0099357531
 20
27.3204970205
 10
-10.984360754
 20
27.3177752447
 10
-10.9583742723
 20
27.3164044457
 10
-10.9322538639
 20
27.3163971024
 10
-10.9062743416
 20
27.3177524996
 10
-10.8806808135
 20
27.3204610037
 10
-10.8557933362
 20
27.3244919521
 10
-10.8319817078
 20
27.32977652
 10
-10.8095212885
 20
27.3362319441
 10
-10.7886024981
 20
27.3437807737
 10
-10.7694284303
 20
27.3523289973
  0
LWPOLYLINE
  5
547
100
AcDbEntity
  8
RACCORDO
100
AcDbPolyline
 62
253
  6
CONTINUOUS
 90
16
 70
0
 10
20.6978547635
 20
11.1029652103
 10
20.7172441939
 20
11.0942334662
 10
20.7383483233
 20
11.0865598237
 10
20.7609372267
 20
11.0800278853
 10
20.7847653172
 20
11.074708716
 10
20.8095725205
 20
11.0706604196
 10
20.8350869247
 20
11.067927234
 10
20.8610293583
 20
11.0665387122
 10
20.8871182898
 20
11.0665095763
 10
20.9130712775
 20
11.0678400158
 10
20.9386172381
 20
11.0705170775
 10
20.9634657784
 20
11.0745112886
 10
20.9873155524
 20
11.0797714189
 10
21.0099019861
 20
11.0862323369
 10
21.0309962916
 20
11.0938214619
 10
21.0503767231
 20
11.1024524864
  0
LWPOLYLINE
  5
548
100
AcDbEntity
  8
RACCORDO
100
AcDbPolyline
 62
253
  6
CONTINUOUS
 90
16
 70
0
 10
7.3335365991
 20
17.7851242925
 10
7.3529260295
 20
17.7763925484
 10
7.3740301588
 20
17.7687189059
 10
7.3966190623
 20
17.7621869675
 10
7.4204471528
 20
17.7568677982
 10
7.445254356
 20
17.7528195018
 10
7.4707687602
 20
17.7500863162
 10
7.4967111939
 20
17.7486977944
 10
7.5228001254
 20
17.7486686585
 10
7.5487531131
 20
17.7499990981
 10
7.5742990736
 20
17.7526761597
 10
7.599147614
 20
17.7566703708
 10
7.6229973879
 20
17.7619305011
 10
7.6455838217
 20
17.7683914191
 10
7.6666781272
 20
17.7759805441
 10
7.6860585587
 20
17.7846115687
  0
LWPOLYLINE
  5
549
100
AcDbEntity
  8
RACCORDO
100
AcDbPolyline
 62
253
  6
CONTINUOUS
 90
16
 70
0
 10
-11.1219503899
 20
27.012867787
 10
-11.1025609595
 20
27.0041360429
 10
-11.0814568301
 20
26.9964624004
 10
-11.0588679267
 20
26.989930462
 10
-11.0350398362
 20
26.9846112927
 10
-11.0102326329
 20
26.9805629963
 10
-10.9847182287
 20
26.9778298106
 10
-10.9587757951
 20
26.9764412889
 10
-10.9326868636
 20
26.976412153
 10
-10.9067338759
 20
26.9777425925
 10
-10.8811879153
 20
26.9804196542
 10
-10.856339375
 20
26.9844138653
 10
-10.832489601
 20
26.9896739956
 10
-10.8099031673
 20
26.9961349136
 10
-10.7888088618
 20
27.0037240386
 10
-10.7694284303
 20
27.0123550631
  0
LWPOLYLINE
  5
54A
100
AcDbEntity
  8
RACCORDO
100
AcDbPolyline
 62
253
  6
CONTINUOUS
 90
16
 70
0
 10
-24.4862685543
 20
33.6950268692
 10
-24.4668791239
 20
33.6862951251
 10
-24.4457749946
 20
33.6786214826
 10
-24.4231860911
 20
33.6720895442
 10
-24.3993580006
 20
33.6667703749
 10
-24.3745507974
 20
33.6627220785
 10
-24.3490363931
 20
33.6599888929
 10
-24.3230939595
 20
33.6586003711
 10
-24.297005028
 20
33.6585712352
 10
-24.2710520403
 20
33.6599016748
 10
-24.2455060798
 20
33.6625787364
 10
-24.2206575394
 20
33.6665729475
 10
-24.1968077655
 20
33.6718330778
 10
-24.1742213317
 20
33.6782939958
 10
-24.1531270262
 20
33.6858831208
 10
-24.1337465947
 20
33.6945141454
  0
LWPOLYLINE
  5
54B
100
AcDbEntity
  8
RACCORDO
100
AcDbPolyline
 62
253
  6
CONTINUOUS
 90
16
 70
0
 10
7.3335365991
 20
18.1250982266
 10
7.3526130268
 20
18.1164935003
 10
7.3734454704
 20
18.1088835165
 10
7.3958317409
 20
18.1023627988
 10
7.4195819278
 20
18.0970093028
 10
7.4444217448
 20
18.0929064104
 10
7.4699828989
 20
18.0901238376
 10
7.4959460127
 20
18.0886931638
 10
7.5220658121
 20
18.0886247724
 10
7.5480673731
 20
18.0899201655
 10
7.5736729306
 20
18.0925676381
 10
7.5985949195
 20
18.0965396262
 10
7.6225504527
 20
18.1017918785
 10
7.6452744254
 20
18.1082659809
 10
7.6665213065
 20
18.1158916757
 10
7.6860585587
 20
18.1245855028
  0
LWPOLYLINE
  5
54C
100
AcDbEntity
  8
RACCORDO
100
AcDbPolyline
 62
253
  6
CONTINUOUS
 90
4
 70
0
 10
-24.4862685543
 20
34.0350008033
 10
-24.4671921266
 20
34.026396077
 10
-24.446359683
 20
34.0187860932
 10
-24.4239734125
 20
34.0122653755
  0
LINE
  5
54D
100
AcDbEntity
  8
RACCORDO
100
AcDbLine
 62
7
  6
CONTINUOUS
 10
-25.1082602799
 20
33.3942167859
 11
-23.7750479462
 21
32.7276106191
  0
LINE
  5
54E
100
AcDbEntity
  8
RACCORDO
100
AcDbLine
 62
7
  6
CONTINUOUS
 10
-11.7439421155
 20
26.7120577037
 11
-10.4107297818
 21
26.0454515369
  0
LINE
  5
54F
100
AcDbEntity
  8
RACCORDO
100
AcDbLine
 62
7
  6
CONTINUOUS
 10
6.7115448735
 20
17.4843142092
 11
8.0447572072
 21
16.8177080424
  0
LINE
  5
550
100
AcDbEntity
  8
RACCORDO
100
AcDbLine
 62
7
  6
CONTINUOUS
 10
20.0758630379
 20
10.802155127
 11
21.4090753716
 21
10.1355489602
  0
LINE
  5
551
100
AcDbEntity
  8
RACCORDO
100
AcDbLine
 62
7
  6
CONTINUOUS
 10
17.169517063
 20
12.6315747392
 11
11.6582099633
 21
15.387228289
  0
LINE
  5
552
100
AcDbEntity
  8
RACCORDO
100
AcDbLine
 62
7
  6
CONTINUOUS
 10
-14.6502880904
 20
28.5414773159
 11
-20.1615951901
 21
31.2971308657
  0
LINE
  5
553
100
AcDbEntity
  8
RACCORDO
100
AcDbLine
 62
7
  6
CONTINUOUS
 10
-25.7462799377
 20
34.222300759
 11
-24.4212952579
 21
33.5598084191
  0
LINE
  5
554
100
AcDbEntity
  8
RACCORDO
100
AcDbLine
 62
7
  6
CONTINUOUS
 10
-12.3819617733
 20
27.5401416768
 11
-11.0569770935
 21
26.8776493369
  0
LINE
  5
555
100
AcDbEntity
  8
RACCORDO
100
AcDbLine
 62
7
  6
CONTINUOUS
 10
6.0735252157
 20
18.3123981823
 11
7.3985098955
 21
17.6499058424
  0
LINE
  5
556
100
AcDbEntity
  8
RACCORDO
100
AcDbLine
 62
7
  6
CONTINUOUS
 10
19.4378433801
 20
11.6302391001
 11
20.7628280599
 21
10.9677467602
  0
LINE
  5
557
100
AcDbEntity
  8
RACCORDO
100
AcDbLine
 62
253
  6
CONTINUOUS
 10
-25.8112532342
 20
34.3575192091
 11
-24.4862685543
 21
33.6950268692
  0
LINE
  5
558
100
AcDbEntity
  8
RACCORDO
100
AcDbLine
 62
253
  6
CONTINUOUS
 10
-12.4469350697
 20
27.6753601269
 11
-11.1219503899
 21
27.012867787
  0
LINE
  5
559
100
AcDbEntity
  8
RACCORDO
100
AcDbLine
 62
253
  6
CONTINUOUS
 10
6.0085519192
 20
18.4476166324
 11
7.3335365991
 21
17.7851242925
  0
LINE
  5
55A
100
AcDbEntity
  8
RACCORDO
100
AcDbLine
 62
253
  6
CONTINUOUS
 10
19.3728700837
 20
11.7654575502
 11
20.6978547635
 21
11.1029652103
  0
LINE
  5
55B
100
AcDbEntity
  8
RACCORDO
100
AcDbLine
 62
253
  6
CONTINUOUS
 10
20.6978547635
 20
11.4429391444
 11
19.3728700837
 21
12.1054314843
  0
LINE
  5
55C
100
AcDbEntity
  8
RACCORDO
100
AcDbLine
 62
253
  6
CONTINUOUS
 10
7.3335365991
 20
18.1250982266
 11
6.0085519192
 21
18.7875905666
  0
LINE
  5
55D
100
AcDbEntity
  8
RACCORDO
100
AcDbLine
 62
253
  6
CONTINUOUS
 10
-11.1219503899
 20
27.3528417211
 11
-12.4469350697
 21
28.015334061
  0
LINE
  5
55E
100
AcDbEntity
  8
RACCORDO
100
AcDbLine
 62
253
  6
CONTINUOUS
 10
-24.4862685543
 20
34.0350008033
 11
-25.8112532342
 21
34.6974931432
  0
LINE
  5
55F
100
AcDbEntity
  8
DRAFT
100
AcDbLine
 62
7
  6
CONTINUOUS
 10
19.3264178404
 20
12.3056175999
 11
18.2322401316
 21
12.8527064543
  0
LINE
  5
560
100
AcDbEntity
  8
DRAFT
100
AcDbLine
 62
7
  6
CONTINUOUS
 10
11.5117633539
 20
16.2129448431
 11
9.2873393495
 21
17.3251568453
  0
LINE
  5
561
100
AcDbEntity
  8
DRAFT
100
AcDbLine
 62
7
  6
CONTINUOUS
 10
5.9618910035
 20
18.9878810184
 11
-9.1681476394
 21
26.5529003398
  0
LINE
  5
562
100
AcDbEntity
  8
DRAFT
100
AcDbLine
 62
7
  6
CONTINUOUS
 10
-12.493387313
 20
28.2155201766
 11
-13.5875650218
 21
28.762609031
  0
LINE
  5
563
100
AcDbEntity
  8
DRAFT
100
AcDbLine
 62
7
  6
CONTINUOUS
 10
-20.3080417995
 20
32.1228474198
 11
-22.5324658039
 21
33.235059422
  0
LINE
  5
564
100
AcDbEntity
  8
RACCORDO
100
AcDbLine
 62
253
  6
CONTINUOUS
 10
20.8736030195
 20
11.7473159594
 11
19.5486183396
 21
12.4098082993
  0
LINE
  5
565
100
AcDbEntity
  8
RACCORDO
100
AcDbLine
 62
253
  6
CONTINUOUS
 10
7.509284855
 20
18.4294750416
 11
6.1843001752
 21
19.0919673815
  0
LINE
  5
566
100
AcDbEntity
  8
RACCORDO
100
AcDbLine
 62
253
  6
CONTINUOUS
 10
-10.9462021339
 20
27.6572185361
 11
-12.2711868138
 21
28.319710876
  0
LINE
  5
567
100
AcDbEntity
  8
RACCORDO
100
AcDbLine
 62
253
  6
CONTINUOUS
 10
-24.3105202984
 20
34.3393776183
 11
-25.6355049782
 21
35.0018699582
  0
LINE
  5
568
100
AcDbEntity
  8
RACCORDO
100
AcDbLine
 62
253
  6
CONTINUOUS
 10
17.169517063
 20
13.71215805
 11
11.6582099633
 21
16.4678115998
  0
LINE
  5
569
100
AcDbEntity
  8
RACCORDO
100
AcDbLine
 62
253
  6
CONTINUOUS
 10
-14.6502880904
 20
29.6220606267
 11
-20.1615951901
 21
32.3777141765
  0
LINE
  5
56A
100
AcDbEntity
  8
RACCORDO
100
AcDbLine
 62
253
  6
CONTINUOUS
 10
17.5923394428
 20
13.8145476145
 11
11.516584793
 21
16.8524249393
  0
LINE
  5
56B
100
AcDbEntity
  8
RACCORDO
100
AcDbLine
 62
253
  6
CONTINUOUS
 10
-14.2274657106
 20
29.7244501912
 11
-20.3032203603
 21
32.762327516
  0
LINE
  5
56C
100
AcDbEntity
  8
0
100
AcDbLine
 62
7
  6
CONTINUOUS
 10
-22.5324658039
 20
33.934608514
 11
-21.1244230689
 21
33.2305871465
  0
LINE
  5
56D
100
AcDbEntity
  8
0
100
AcDbLine
 62
7
  6
CONTINUOUS
 10
-9.1681476394
 20
27.2524494318
 11
6.5987002111
 21
19.3690255065
  0
LINE
  5
56E
100
AcDbEntity
  8
0
100
AcDbLine
 62
7
  6
CONTINUOUS
 10
9.2873393495
 20
18.0247059373
 11
10.6953820845
 21
17.3206845698
  0
LINE
  5
56F
100
AcDbEntity
  8
0
100
AcDbLine
 62
7
  6
CONTINUOUS
 10
22.651657514
 20
11.3425468551
 11
23.358656585
 21
10.9890473196
  0
LINE
  5
570
100
AcDbEntity
  8
DRAFT
100
AcDbLine
 62
7
  6
CONTINUOUS
 10
-19.8101046963
 20
33.0863144335
 11
-13.5875650218
 21
29.9750445963
  0
LINE
  5
571
100
AcDbEntity
  8
DRAFT
100
AcDbLine
 62
7
  6
CONTINUOUS
 10
12.0097004571
 20
17.1764118568
 11
18.2322401316
 21
14.0651420196
  0
LINE
  5
572
100
AcDbEntity
  8
RACCORDO
100
AcDbLine
 62
7
  6
CONTINUOUS
 10
-24.052748375
 20
35.8138540555
 11
-22.7092395075
 21
35.1420996218
  0
LINE
  5
573
100
AcDbEntity
  8
RACCORDO
100
AcDbLine
 62
7
  6
CONTINUOUS
 10
-10.6884302106
 20
29.1316949733
 11
-9.3449213431
 21
28.4599405396
  0
LINE
  5
574
100
AcDbEntity
  8
RACCORDO
100
AcDbLine
 62
7
  6
CONTINUOUS
 10
7.7670567784
 20
19.9039514789
 11
9.1105656459
 21
19.2321970451
  0
LINE
  5
575
100
AcDbEntity
  8
RACCORDO
100
AcDbLine
 62
7
  6
CONTINUOUS
 10
21.1313749428
 20
13.2217923966
 11
22.4748838103
 21
12.5500379629
  0
LINE
  5
576
100
AcDbEntity
  8
DRAFT
100
AcDbLine
 62
7
  6
CONTINUOUS
 10
18.3029508097
 20
14.7318550733
 11
13.3532033414
 21
17.2067288075
  0
LINE
  5
577
100
AcDbEntity
  8
DRAFT
100
AcDbLine
 62
7
  6
CONTINUOUS
 10
-13.5168543437
 20
30.64175765
 11
-18.466601812
 21
33.1166313842
  0
LWPOLYLINE
  5
578
100
AcDbEntity
  8
RACCORDO
100
AcDbPolyline
 62
253
  6
CONTINUOUS
 90
9
 70
0
 10
-12.4469350697
 20
28.015334061
 10
-12.4643838296
 20
28.0250196886
 10
-12.479720334
 20
28.03556123
 10
-12.4927777942
 20
28.046844043
 10
-12.5034142069
 20
28.0587454239
 10
-12.511513898
 20
28.071135942
 10
-12.5169887812
 20
28.0838808469
 10
-12.5197793156
 20
28.0968415342
 10
-12.5201583744
 20
28.1037224087
  0
LWPOLYLINE
  5
579
100
AcDbEntity
  8
RACCORDO
100
AcDbPolyline
 62
253
  6
CONTINUOUS
 90
8
 70
0
 10
6.0085519192
 20
18.4476166324
 10
5.9910884311
 20
18.4573113477
 10
5.975741146
 20
18.4678634123
 10
5.9626772692
 20
18.479157864
 10
5.9520389307
 20
18.4910719093
 10
5.9439423379
 20
18.5034755109
 10
5.9384759665
 20
18.516232713
 10
5.9357798874
 20
18.5288257556
  0
LWPOLYLINE
  5
57A
100
AcDbEntity
  8
RACCORDO
100
AcDbPolyline
 62
253
  6
CONTINUOUS
 90
9
 70
0
 10
6.0085519192
 20
18.7875905666
 10
5.9910504579
 20
18.7973087199
 10
5.9756753969
 20
18.8078879303
 10
5.9625950189
 20
18.819212407
 10
5.9519512593
 20
18.8311598054
 10
5.943862518
 20
18.843597885
 10
5.9384189663
 20
18.8563853845
 10
5.9356773683
 20
18.8693786253
 10
5.9353286546
 20
18.8759081817
  0
LWPOLYLINE
  5
57B
100
AcDbEntity
  8
RACCORDO
100
AcDbPolyline
 62
253
  6
CONTINUOUS
 90
8
 70
0
 10
19.3728700837
 20
11.7654575502
 10
19.3554065955
 20
11.7751522654
 10
19.3400593104
 20
11.7857043301
 10
19.3269954336
 20
11.7969987818
 10
19.3163570951
 20
11.8089128271
 10
19.3082605023
 20
11.8213164287
 10
19.302794131
 20
11.8340736308
 10
19.3000980519
 20
11.8466666734
  0
LWPOLYLINE
  5
57C
100
AcDbEntity
  8
RACCORDO
100
AcDbPolyline
 62
253
  6
CONTINUOUS
 90
9
 70
0
 10
19.3728700837
 20
12.1054314843
 10
19.3554213238
 20
12.1151171119
 10
19.3400848194
 20
12.1256586533
 10
19.3270273592
 20
12.1369414663
 10
19.3163909465
 20
12.1488428472
 10
19.3082912554
 20
12.1612333653
 10
19.3028163722
 20
12.1739782702
 10
19.3000258378
 20
12.1869389575
 10
19.299646779
 20
12.193819832
  0
LWPOLYLINE
  5
57D
100
AcDbEntity
  8
RACCORDO
100
AcDbPolyline
 62
7
  6
CONTINUOUS
 90
4
 70
0
 10
6.0736372114
 20
18.3123422779
 10
6.0533793663
 20
18.3236634447
 10
6.0310394946
 20
18.3392956149
 10
6.010399961
 20
18.3573993638
  0
LWPOLYLINE
  5
57E
100
AcDbEntity
  8
RACCORDO
100
AcDbPolyline
 62
7
  6
CONTINUOUS
 90
4
 70
0
 10
19.4379553759
 20
11.6301831957
 10
19.4176975307
 20
11.6415043624
 10
19.395357659
 20
11.6571365327
 10
19.3747181255
 20
11.6752402815
  0
LWPOLYLINE
  5
57F
100
AcDbEntity
  8
RACCORDO
100
AcDbPolyline
 62
7
  6
CONTINUOUS
 90
12
 70
0
 10
-8.7059680037
 20
28.7300135879
 10
-8.6835408574
 20
28.7173268813
 10
-8.6624434674
 20
28.7023236881
 10
-8.6429723549
 20
28.6851817095
 10
-8.6253159
 20
28.6660341431
 10
-8.6096826645
 20
28.6450564403
 10
-8.5962807822
 20
28.622471152
 10
-8.5852824449
 20
28.5985045333
 10
-8.5768378399
 20
28.5733982371
 10
-8.5710800018
 20
28.5474373822
 10
-8.5681080794
 20
28.5209416619
 10
-8.5676826294
 20
28.5064108686
  0
LWPOLYLINE
  5
580
100
AcDbEntity
  8
RACCORDO
100
AcDbPolyline
 62
7
  6
CONTINUOUS
 90
12
 70
0
 10
-22.0701973762
 20
35.4121283329
 10
-22.0472834215
 20
35.3991185669
 10
-22.0256408565
 20
35.383589457
 10
-22.0056196077
 20
35.3656928754
 10
-21.9875872146
 20
35.3456945754
 10
-21.9717734659
 20
35.3238155402
 10
-21.9583150015
 20
35.3001668426
 10
-21.9474220713
 20
35.2749670331
 10
-21.9393403883
 20
35.2486541438
 10
-21.934201461
 20
35.2216198723
 10
-21.9320619359
 20
35.1940494999
 10
-21.9320008136
 20
35.1884521707
  0
LWPOLYLINE
  5
581
100
AcDbEntity
  8
RACCORDO
100
AcDbPolyline
 62
253
  6
CONTINUOUS
 90
3
 70
0
 10
6.0607433684
 20
18.3201129603
 10
6.0720646795
 20
18.3131444905
 10
6.0735962408
 20
18.3123627074
  0
LWPOLYLINE
  5
582
100
AcDbEntity
  8
RACCORDO
100
AcDbPolyline
 62
253
  6
CONTINUOUS
 90
3
 70
0
 10
19.4250615328
 20
11.6379538781
 10
19.4363828439
 20
11.6309854083
 10
19.4379144052
 20
11.6302036251
  0
LWPOLYLINE
  5
583
100
AcDbEntity
  8
RACCORDO
100
AcDbPolyline
 62
7
  6
CONTINUOUS
 90
19
 70
0
 10
22.6515522726
 20
10.6426783214
 10
22.6819026307
 20
10.6239823435
 10
22.7120627983
 20
10.6021357639
 10
22.7417979641
 20
10.5772869437
 10
22.7709917893
 20
10.5495030341
 10
22.7992883352
 20
10.5190701772
 10
22.8261380481
 20
10.4865874695
 10
22.8512801074
 20
10.4525029913
 10
22.8746767672
 20
10.4170112093
 10
22.8961851897
 20
10.3804186695
 10
22.9156527613
 20
10.3431389823
 10
22.9330653408
 20
10.3053673853
 10
22.94846946
 20
10.2670535236
 10
22.9618064737
 20
10.2283583913
 10
22.9729527606
 20
10.1896604969
 10
22.981829492
 20
10.151216974
 10
22.98838441
 20
10.1132903073
 10
22.992592909
 20
10.0761464927
 10
22.9944412628
 20
10.0400401929
  0
LWPOLYLINE
  5
584
100
AcDbEntity
  8
RACCORDO
100
AcDbPolyline
 62
253
  6
CONTINUOUS
 90
8
 70
0
 10
9.8156065213
 20
18.8432148096
 10
9.8238095458
 20
18.8287588351
 10
9.8299791945
 20
18.8154214989
 10
9.834048022
 20
18.8033486023
 10
9.8359715554
 20
18.7926720418
 10
9.8357287242
 20
18.7835086391
 10
9.8333222698
 20
18.7759587361
 10
9.8309777344
 20
18.7723926048
  0
LINE
  5
585
100
AcDbEntity
  8
RACCORDO
100
AcDbLine
 62
7
  6
CONTINUOUS
 10
19.3016029215
 20
11.8226330038
 11
19.2996467851
 21
11.8538736735
  0
LINE
  5
586
100
AcDbEntity
  8
RACCORDO
100
AcDbLine
 62
253
  6
CONTINUOUS
 10
19.3000170875
 20
11.8470448476
 11
19.299646779
 21
11.8538463443
  0
LWPOLYLINE
  5
587
100
AcDbEntity
  8
RACCORDO
100
AcDbPolyline
 62
7
  6
CONTINUOUS
 90
9
 70
0
 10
23.2521225427
 20
-29.0506757798
 10
23.2508497528
 20
-29.0254822559
 10
23.2470075737
 20
-29.0003639313
 10
23.2405937196
 20
-28.9756324738
 10
23.2316558935
 20
-28.9516079327
 10
23.2202820682
 20
-28.9285839327
 10
23.2065778692
 20
-28.9068077171
 10
23.1906539359
 20
-28.8864932294
 10
23.1727136421
 20
-28.8679227326
  0
LWPOLYLINE
  5
588
100
AcDbEntity
  8
RACCORDO
100
AcDbPolyline
 62
253
  6
CONTINUOUS
 90
16
 70
0
 10
21.0503767231
 20
11.4424264206
 10
21.049305893
 20
11.4654901814
 10
21.0463213756
 20
11.4892752385
 10
21.0414558686
 20
11.5135210091
 10
21.0347626771
 20
11.5379618628
 10
21.02631513
 20
11.5623300321
 10
21.0162057764
 20
11.5863585457
 10
21.0045453717
 20
11.6097841535
 10
20.9914616643
 20
11.6323502107
 10
20.9770979959
 20
11.6538094896
 10
20.9616117309
 20
11.6739268878
 10
20.9451725329
 20
11.6924820045
 10
20.9279605054
 20
11.7092715546
 10
20.9101642189
 20
11.7241115963
 10
20.8919786448
 20
11.7368395459
 10
20.8736030195
 20
11.7473159594
  0
LWPOLYLINE
  5
589
100
AcDbEntity
  8
RACCORDO
100
AcDbPolyline
 62
253
  6
CONTINUOUS
 90
10
 70
0
 10
20.6978547635
 20
-30.5366128632
 10
20.698788251
 20
-30.5583665924
 10
20.701594489
 20
-30.5790409762
 10
20.7062669066
 20
-30.5983997181
 10
20.712788504
 20
-30.6162395459
 10
20.7211055201
 20
-30.6323172535
 10
20.7311035244
 20
-30.6463791393
 10
20.7426544075
 20
-30.6582550035
 10
20.7556459157
 20
-30.6678380566
 10
20.7628252125
 20
-30.6718298895
  0
LWPOLYLINE
  5
58A
100
AcDbEntity
  8
RACCORDO
100
AcDbPolyline
 62
253
  6
CONTINUOUS
 90
10
 70
0
 10
19.3728700837
 20
11.7654575502
 10
19.3735488936
 20
11.7468416879
 10
19.3755797593
 20
11.7290498535
 10
19.3789465652
 20
11.712218304
 10
19.3836226056
 20
11.6964768291
 10
19.3895716756
 20
11.6819446323
 10
19.3967491783
 20
11.6687302417
 10
19.405117718
 20
11.656913706
 10
19.4146002154
 20
11.646613495
 10
19.4250615328
 20
11.6379538781
  0
LWPOLYLINE
  5
58B
100
AcDbEntity
  8
RACCORDO
100
AcDbPolyline
 62
253
  6
CONTINUOUS
 90
12
 70
0
 10
20.6978547635
 20
11.1029652103
 10
20.6985335734
 20
11.084349348
 10
20.7005644392
 20
11.0665575136
 10
20.7039312451
 20
11.049725964
 10
20.7086072854
 20
11.0339844892
 10
20.7145563554
 20
11.0194522924
 10
20.7217338581
 20
11.0062379018
 10
20.7301023978
 20
10.9944213661
 10
20.7395848953
 20
10.9841211551
 10
20.7500462126
 20
10.9754615382
 10
20.7613675237
 20
10.9684930684
 10
20.7628202033
 20
10.9677506889
  0
LWPOLYLINE
  5
58C
100
AcDbEntity
  8
RACCORDO
100
AcDbPolyline
 62
7
  6
CONTINUOUS
 90
13
 70
0
 10
20.7778245438
 20
18.4164535686
 10
20.775815648
 20
18.4802459498
 10
20.7699824826
 20
18.5411543786
 10
20.7603250476
 20
18.5991788547
 10
20.7467187464
 20
18.6546691575
 10
20.7292881756
 20
18.7072755077
 10
20.7084071249
 20
18.7559485681
 10
20.6841023726
 20
18.8004885133
 10
20.6563471405
 20
18.8410951686
 10
20.6254348841
 20
18.8773186728
 10
20.5911835606
 20
18.9092149041
 10
20.5537752128
 20
18.9367279843
 10
20.5178821143
 20
18.9573425851
  0
LINE
  5
58D
100
AcDbEntity
  8
RACCORDO
100
AcDbLine
 62
7
  6
CONTINUOUS
 10
19.299646779
 20
12.193819832
 11
19.299646779
 21
11.8538458979
  0
LINE
  5
58E
100
AcDbEntity
  8
RACCORDO
100
AcDbLine
 62
7
  6
CONTINUOUS
 10
19.299646779
 20
-29.65923288
 11
19.299646779
 21
-29.7857321756
  0
LINE
  5
58F
100
AcDbEntity
  8
RACCORDO
100
AcDbLine
 62
253
  6
CONTINUOUS
 10
19.3728700837
 20
12.1054314843
 11
19.3728700837
 21
11.7654575502
  0
LINE
  5
590
100
AcDbEntity
  8
RACCORDO
100
AcDbLine
 62
253
  6
CONTINUOUS
 10
19.3728700837
 20
-29.6284967109
 11
19.3728700837
 21
-29.8741205233
  0
LINE
  5
591
100
AcDbEntity
  8
RACCORDO
100
AcDbLine
 62
7
  6
CONTINUOUS
 10
20.0026397332
 20
10.8938686567
 11
20.0026397332
 21
11.3478409235
  0
LINE
  5
592
100
AcDbEntity
  8
RACCORDO
100
AcDbLine
 62
253
  6
CONTINUOUS
 10
20.0758630379
 20
10.802155127
 11
20.0758630379
 21
11.3112292712
  0
LINE
  5
593
100
AcDbEntity
  8
RACCORDO
100
AcDbLine
 62
253
  6
CONTINUOUS
 10
20.6978547635
 20
-30.5366128632
 11
20.6978547635
 21
-30.1966389291
  0
LINE
  5
594
100
AcDbEntity
  8
RACCORDO
100
AcDbLine
 62
253
  6
CONTINUOUS
 10
20.6978547635
 20
11.1029652103
 11
20.6978547635
 21
11.4429391444
  0
LINE
  5
595
100
AcDbEntity
  8
RACCORDO
100
AcDbLine
 62
7
  6
CONTINUOUS
 10
20.7778245438
 20
18.4164535686
 11
20.7778245438
 21
18.1456532759
  0
LINE
  5
596
100
AcDbEntity
  8
RACCORDO
100
AcDbLine
 62
253
  6
CONTINUOUS
 10
21.0503767231
 20
-30.5371255871
 11
21.0503767231
 21
-30.1971516529
  0
LINE
  5
597
100
AcDbEntity
  8
RACCORDO
100
AcDbLine
 62
253
  6
CONTINUOUS
 10
21.0503767231
 20
11.1024524864
 11
21.0503767231
 21
11.4424264206
  0
LINE
  5
598
100
AcDbEntity
  8
RACCORDO
100
AcDbLine
 62
253
  6
CONTINUOUS
 10
21.4090753716
 20
10.8243695831
 11
21.4090753716
 21
10.1355489602
  0
LINE
  5
599
100
AcDbEntity
  8
RACCORDO
100
AcDbLine
 62
253
  6
CONTINUOUS
 10
21.4090753716
 20
-28.7737804389
 11
21.4090753716
 21
-29.2201424519
  0
LINE
  5
59A
100
AcDbEntity
  8
RACCORDO
100
AcDbLine
 62
253
  6
CONTINUOUS
 10
21.7615973312
 20
10.9539489636
 11
21.7615973312
 21
10.1454481396
  0
LINE
  5
59B
100
AcDbEntity
  8
RACCORDO
100
AcDbLine
 62
253
  6
CONTINUOUS
 10
21.7615973312
 20
-28.6258060392
 11
21.7615973312
 21
-29.3456551758
  0
LWPOLYLINE
  5
59C
100
AcDbEntity
  8
RACCORDO
100
AcDbPolyline
 62
253
  6
CONTINUOUS
 90
13
 70
0
 10
20.6978547635
 20
-30.1966389291
 10
20.6985027453
 20
-30.1777942893
 10
20.7004569823
 20
-30.1583259616
 10
20.7037255017
 20
-30.1383706516
 10
20.70831617
 20
-30.1180335909
 10
20.7142109027
 20
-30.0975055529
 10
20.7213412295
 20
-30.077061757
 10
20.729634377
 20
-30.0568993366
 10
20.7390393798
 20
-30.0371323229
 10
20.7494859504
 20
-30.017908645
 10
20.7608950428
 20
-29.999374886
 10
20.7731787703
 20
-29.9816748445
 10
20.7862431111
 20
-29.9649447553
  0
LWPOLYLINE
  5
59D
100
AcDbEntity
  8
RACCORDO
100
AcDbPolyline
 62
253
  6
CONTINUOUS
 90
16
 70
0
 10
20.6978547635
 20
11.4429391444
 10
20.6988221862
 20
11.4660425268
 10
20.7017138661
 20
11.489860464
 10
20.7064981537
 20
11.5141322654
 10
20.7131236723
 20
11.5385954846
 10
20.7215173813
 20
11.5629791355
 10
20.731583105
 20
11.5870069028
 10
20.7432055468
 20
11.6104104079
 10
20.7562584078
 20
11.6329412501
 10
20.7706035662
 20
11.6543629569
 10
20.7861088343
 20
11.6744711356
 10
20.8025835214
 20
11.6930120008
 10
20.8197739034
 20
11.7097165293
 10
20.8374595372
 20
11.7244072403
 10
20.855467762
 20
11.736976053
 10
20.8736030195
 20
11.7473159594
  0
LWPOLYLINE
  5
59E
100
AcDbEntity
  8
RACCORDO
100
AcDbPolyline
 62
253
  6
CONTINUOUS
 90
10
 70
0
 10
17.4967519904
 20
-30.199381217
 10
17.4928853244
 20
-30.244520515
 10
17.4852599822
 20
-30.2871978111
 10
17.4739594117
 20
-30.3269460671
 10
17.4591072803
 20
-30.3633302987
 10
17.4408661222
 20
-30.3959523355
 10
17.4194355591
 20
-30.424455179
 10
17.3950501161
 20
-30.4485269087
 10
17.3679766549
 20
-30.467904096
 10
17.3429447456
 20
-30.4805769151
  0
LWPOLYLINE
  5
59F
100
AcDbEntity
  8
RACCORDO
100
AcDbPolyline
 62
253
  6
CONTINUOUS
 90
8
 70
0
 10
23.2518193217
 20
12.2427737153
 10
23.2491796381
 20
12.22980513
 10
23.2438531404
 20
12.2170445151
 10
23.2358977558
 20
12.2046306458
 10
23.2254000012
 20
12.1926985264
 10
23.2124740427
 20
12.181377922
 10
23.1972604535
 20
12.1707919471
 10
23.1799246857
 20
12.1610557274
  0
LWPOLYLINE
  5
5A0
100
AcDbEntity
  8
0
100
AcDbPolyline
 62
7
  6
CONTINUOUS
 90
5
 70
0
 10
14.3534006126
 20
-8.8016891774
 10
14.3637469418
 20
-8.7935063647
 10
14.3748654
 20
-8.7848885405
 10
14.3867909209
 20
-8.7759554212
 10
14.3994909888
 20
-8.7667885783
  0
LINE
  5
5A1
100
AcDbEntity
  8
0
100
AcDbLine
 62
7
  6
CONTINUOUS
 10
5.4210888074
 20
-16.5815321371
 11
5.4209031034
 21
-16.5816301832
  0
LINE
  5
5A2
100
AcDbEntity
  8
0
100
AcDbLine
 62
253
  6
CONTINUOUS
 10
13.3532033414
 20
-12.0585657649
 11
12.5072192611
 21
-12.4996449214
  0
LWPOLYLINE
  5
5A3
100
AcDbEntity
  8
0
100
AcDbPolyline
 62
253
  6
CONTINUOUS
 90
65
 70
0
 10
5.4209031034
 20
-16.5816301832
 10
5.3660601357
 20
-16.6084215263
 10
5.278406834
 20
-16.6429603538
 10
5.1871724119
 20
-16.6692771176
 10
5.0925817452
 20
-16.6873463455
 10
4.9949681596
 20
-16.6971278227
 10
4.8946569917
 20
-16.6986101105
 10
4.7918571002
 20
-16.6918059347
 10
4.686856641
 20
-16.676722614
 10
4.5800529653
 20
-16.6534027765
 10
4.4718223576
 20
-16.6219340544
 10
4.3625393344
 20
-16.582430603
 10
4.2525492723
 20
-16.5350178971
 10
4.142190034
 20
-16.4798437199
 10
4.0318658739
 20
-16.4171147141
 10
3.9218981688
 20
-16.3470136278
 10
3.8125027153
 20
-16.2696551654
 10
3.7039602474
 20
-16.185199222
 10
3.5967201481
 20
-16.0939502623
 10
3.4912480059
 20
-15.9962648833
 10
3.3877154284
 20
-15.8922767907
 10
3.2866576357
 20
-15.7824852623
 10
3.1890195355
 20
-15.6679468685
 10
3.0949812459
 20
-15.5490226321
 10
3.0048829597
 20
-15.4262806999
 10
2.9197297844
 20
-15.3013093878
 10
2.839645803
 20
-15.1747234551
 10
2.7646623214
 20
-15.0470105496
 10
2.695402334
 20
-14.9197122827
 10
2.6318285363
 20
-14.7934808308
 10
2.5737428735
 20
-14.6686765527
 10
2.5213162186
 20
-14.5464243076
 10
2.4743805542
 20
-14.4273202699
 10
2.4325802025
 20
-14.3115132785
 10
2.395697156
 20
-14.1994013988
 10
2.3635012801
 20
-14.09146355
 10
2.3356000236
 20
-13.9876588557
 10
2.3115631541
 20
-13.8875416858
 10
2.2911647969
 20
-13.7913984164
 10
2.2740994787
 20
-13.6991566964
 10
2.259959737
 20
-13.6098112466
 10
2.2485805477
 20
-13.5234717712
 10
2.2397819103
 20
-13.4401443525
 10
2.2333196642
 20
-13.3586981302
 10
2.2291128969
 20
-13.2791080511
 10
2.2270903219
 20
-13.2015154336
 10
2.2271877714
 20
-13.1250973587
 10
2.2294021256
 20
-13.0497464503
 10
2.2337225844
 20
-12.9757327994
 10
2.240166947
 20
-12.9028468206
 10
2.2487645828
 20
-12.831012885
 10
2.2595068978
 20
-12.7604943597
 10
2.2723563264
 20
-12.6915903644
 10
2.2873081152
 20
-12.6243139523
 10
2.3043286129
 20
-12.5588008681
 10
2.3232783728
 20
-12.49548598
 10
2.3440911297
 20
-12.4344190971
 10
2.3667084735
 20
-12.375613539
 10
2.3909362478
 20
-12.3193827191
 10
2.4166653373
 20
-12.2657526428
 10
2.4438198277
 20
-12.2146706474
 10
2.472210764
 20
-12.166276085
 10
2.5016992117
 20
-12.1205761521
 10
2.5322148565
 20
-12.0774673718
 10
2.5636586542
 20
-12.0368971784
  0
LINE
  5
5A4
100
AcDbEntity
  8
0
100
AcDbLine
 62
253
  6
CONTINUOUS
 10
14.3056887313
 20
-11.645986574
 11
13.397450528
 21
-12.0806893582
  0
LINE
  5
5A5
100
AcDbEntity
  8
0
100
AcDbLine
 62
253
  6
CONTINUOUS
 10
14.3073438742
 20
-9.8323068696
 11
12.988112535
 21
-10.4132740166
  0
LINE
  5
5A6
100
AcDbEntity
  8
RACCORDO
100
AcDbLine
 62
253
  6
CONTINUOUS
 10
5.656130072
 20
-15.5704942825
 11
5.7043791311
 21
-15.553625435
  0
LWPOLYLINE
  5
5A7
100
AcDbEntity
  8
RACCORDO
100
AcDbPolyline
 62
253
  6
CONTINUOUS
 90
22
 70
0
 10
12.6629994147
 20
23.3384071045
 10
12.6922862922
 20
23.3384283216
 10
12.7797669604
 20
23.3366815741
 10
12.8637213838
 20
23.3336780287
 10
12.9440254572
 20
23.3294592281
 10
13.0208032858
 20
23.3239836296
 10
13.0943420122
 20
23.317682424
 10
13.1646085459
 20
23.3105963902
 10
13.2316359775
 20
23.3026847493
 10
13.2958107216
 20
23.2942563551
 10
13.3571184684
 20
23.2853457146
 10
13.4155735279
 20
23.2759183208
 10
13.4716052444
 20
23.266179507
 10
13.5252098279
 20
23.2561579852
 10
13.5763910686
 20
23.2458250435
 10
13.6255896809
 20
23.2352998788
 10
13.6728088258
 20
23.2246053396
 10
13.7180453423
 20
23.2137185775
 10
13.7617304622
 20
23.2026902439
 10
13.8040079293
 20
23.1915372225
 10
13.8447339997
 20
23.1802426297
 10
13.8839086734
 20
23.1688064654
  0
LINE
  5
5A8
100
AcDbEntity
  8
RACCORDO
100
AcDbLine
 62
7
  6
CONTINUOUS
 10
-10.9962719238
 20
26.8565339024
 11
-10.3708488805
 21
26.7259449906
  0
LINE
  5
5A9
100
AcDbEntity
  8
RACCORDO
100
AcDbLine
 62
253
  6
CONTINUOUS
 10
-10.7694284303
 20
27.0123550631
 11
-10.0582078222
 21
26.8638515403
  0
LWPOLYLINE
  5
5AA
100
AcDbEntity
  8
RACCORDO
100
AcDbPolyline
 62
7
  6
CONTINUOUS
 90
10
 70
0
 10
-10.9962719238
 20
26.8565339024
 10
-11.0038318433
 20
26.8582351048
 10
-11.0113578129
 20
26.8601759362
 10
-11.0188388537
 20
26.8623556442
 10
-11.0262923433
 20
26.864782532
 10
-11.0336769745
 20
26.8674460206
 10
-11.0408993418
 20
26.8703089535
 10
-11.0479277544
 20
26.8733491293
 10
-11.0547856514
 20
26.8765669744
 10
-11.05698495
 20
26.8776532656
  0
LWPOLYLINE
  5
5AB
100
AcDbEntity
  8
RACCORDO
100
AcDbPolyline
 62
253
  6
CONTINUOUS
 90
7
 70
0
 10
18.3211842048
 20
16.6987883914
 10
18.3108232693
 20
16.7030373937
 10
18.2968235306
 20
16.7062181319
 10
18.2819611662
 20
16.7069293631
 10
18.2664331683
 20
16.705161661
 10
18.2504453527
 20
16.7009384561
 10
18.2342096291
 20
16.6943157252
  0
LWPOLYLINE
  5
5AC
100
AcDbEntity
  8
RACCORDO
100
AcDbPolyline
 62
7
  6
CONTINUOUS
 90
3
 70
0
 10
-10.0692411645
 20
29.4098529541
 10
-10.0460555043
 20
29.4000348345
 10
-10.043190054
 20
29.3986246701
  0
LWPOLYLINE
  5
5AD
100
AcDbEntity
  8
RACCORDO
100
AcDbPolyline
 62
253
  6
CONTINUOUS
 90
8
 70
0
 10
-25.6355049782
 20
35.0018699582
 10
-25.6540843267
 20
35.0098710316
 10
-25.6724488574
 20
35.0154181344
 10
-25.6903973734
 20
35.018450494
 10
-25.7077332353
 20
35.0189348886
 10
-25.7242665162
 20
35.0168660113
 10
-25.7398160816
 20
35.0122665283
 10
-25.7485906443
 20
35.0083179334
  0
LWPOLYLINE
  5
5AE
100
AcDbEntity
  8
RACCORDO
100
AcDbPolyline
 62
7
  6
CONTINUOUS
 90
8
 70
0
 10
-10.6884302106
 20
29.1316949733
 10
-10.7070095491
 20
29.1396960518
 10
-10.7253740703
 20
29.1452431595
 10
-10.7433225771
 20
29.1482755238
 10
-10.7606584295
 20
29.1487599233
 10
-10.7771917013
 20
29.1466910507
 10
-10.7927412603
 20
29.1420915709
 10
-10.7997781226
 20
29.1390118718
  0
LWPOLYLINE
  5
5AF
100
AcDbEntity
  8
RACCORDO
100
AcDbPolyline
 62
7
  6
CONTINUOUS
 90
8
 70
0
 10
-24.052748375
 20
35.8138540555
 10
-24.0713277135
 20
35.821855134
 10
-24.0896922347
 20
35.8274022417
 10
-24.1076407415
 20
35.830434606
 10
-24.1249765939
 20
35.8309190055
 10
-24.1415098657
 20
35.8288501329
 10
-24.1570594248
 20
35.8242506532
 10
-24.164096287
 20
35.821170954
  0
LWPOLYLINE
  5
5B0
100
AcDbEntity
  8
RACCORDO
100
AcDbPolyline
 62
7
  6
CONTINUOUS
 90
9
 70
0
 10
8.4122816166
 20
20.1708888365
 10
8.3899888231
 20
20.1807081223
 10
8.366501592
 20
20.1884061536
 10
8.3420680352
 20
20.1937983406
 10
8.316916189
 20
20.196741028
 10
8.2914139319
 20
20.1971176557
 10
8.2660115147
 20
20.1948947331
 10
8.2409287515
 20
20.1900861808
 10
8.2164914286
 20
20.1827522475
  0
LWPOLYLINE
  5
5B1
100
AcDbEntity
  8
RACCORDO
100
AcDbPolyline
 62
7
  6
CONTINUOUS
 90
9
 70
0
 10
-23.4075235368
 20
36.0807914132
 10
-23.4298163303
 20
36.090610699
 10
-23.4533035614
 20
36.0983087303
 10
-23.4777371182
 20
36.1037009173
 10
-23.5028889644
 20
36.1066436047
 10
-23.5283912215
 20
36.1070202324
 10
-23.5537936387
 20
36.1047973098
 10
-23.5788764019
 20
36.0999887575
 10
-23.6033137248
 20
36.0926548242
  0
LWPOLYLINE
  5
5B2
100
AcDbEntity
  8
RACCORDO
100
AcDbPolyline
 62
253
  6
CONTINUOUS
 90
8
 70
0
 10
-10.1539803319
 20
29.3920424399
 10
-10.1723559572
 20
29.4001453749
 10
-10.1905415314
 20
29.405781956
 10
-10.2083378179
 20
29.4088904303
 10
-10.2255498454
 20
29.4094367421
 10
-10.2419890434
 20
29.4074149063
 10
-10.2574753083
 20
29.4028470735
 10
-10.264492443
 20
29.399777231
  0
LWPOLYLINE
  5
5B3
100
AcDbEntity
  8
RACCORDO
100
AcDbPolyline
 62
253
  6
CONTINUOUS
 90
6
 70
0
 10
8.3015066571
 20
20.1642989454
 10
8.2833985767
 20
20.1723010826
 10
8.2653971552
 20
20.1779279162
 10
8.2476990441
 20
20.1810883009
 10
8.2304782284
 20
20.1817156331
 10
8.2139565243
 20
20.1797649393
  0
LWPOLYLINE
  5
5B4
100
AcDbEntity
  8
RACCORDO
100
AcDbPolyline
 62
253
  6
CONTINUOUS
 90
6
 70
0
 10
-23.5182984963
 20
36.0742015221
 10
-23.5364065767
 20
36.0822036593
 10
-23.5544079982
 20
36.0878304929
 10
-23.5721061093
 20
36.0909908776
 10
-23.589326925
 20
36.0916182098
 10
-23.6058486291
 20
36.089667516
  0
LWPOLYLINE
  5
5B5
100
AcDbEntity
  8
RACCORDO
100
AcDbPolyline
 62
253
  6
CONTINUOUS
 90
8
 70
0
 10
-8.7059680037
 20
28.7300135879
 10
-8.7136547181
 20
28.7334258104
 10
-8.7291599862
 20
28.738028721
 10
-8.7456346733
 20
28.7400948992
 10
-8.7628250553
 20
28.7396090456
 10
-8.7805106891
 20
28.7366141228
 10
-8.7985189139
 20
28.7311747107
 10
-8.8166541714
 20
28.7233793596
  0
LWPOLYLINE
  5
5B6
100
AcDbEntity
  8
RACCORDO
100
AcDbPolyline
 62
253
  6
CONTINUOUS
 90
8
 70
0
 10
-10.0432059825
 20
29.3986326361
 10
-10.0509808786
 20
29.4020888907
 10
-10.0664861468
 20
29.4066918012
 10
-10.0829608338
 20
29.4087579795
 10
-10.1001512159
 20
29.4082721258
 10
-10.1178368496
 20
29.4052772031
 10
-10.1358450744
 20
29.399837791
 10
-10.1539803319
 20
29.3920424399
  0
LWPOLYLINE
  5
5B7
100
AcDbEntity
  8
RACCORDO
100
AcDbPolyline
 62
253
  6
CONTINUOUS
 90
8
 70
0
 10
9.7496077772
 20
19.5022257563
 10
9.7422096964
 20
19.5055336501
 10
9.7267858327
 20
19.5101884155
 10
9.7103942711
 20
19.5123247992
 10
9.6932132744
 20
19.5119195674
 10
9.6754296907
 20
19.5089771271
 10
9.6572369213
 20
19.5035294781
 10
9.6388328176
 20
19.4956358651
  0
LWPOLYLINE
  5
5B8
100
AcDbEntity
  8
RACCORDO
100
AcDbPolyline
 62
253
  6
CONTINUOUS
 90
8
 70
0
 10
8.4122816166
 20
20.1708888365
 10
8.4048835359
 20
20.1741967304
 10
8.3894596722
 20
20.1788514958
 10
8.3730681106
 20
20.1809878795
 10
8.3558871139
 20
20.1805826477
 10
8.3381035301
 20
20.1776402073
 10
8.3199107607
 20
20.1721925584
 10
8.3015066571
 20
20.1642989454
  0
LWPOLYLINE
  5
5B9
100
AcDbEntity
  8
RACCORDO
100
AcDbPolyline
 62
253
  6
CONTINUOUS
 90
8
 70
0
 10
-22.0701973762
 20
35.4121283329
 10
-22.077595457
 20
35.4154362268
 10
-22.0930193207
 20
35.4200909922
 10
-22.1094108823
 20
35.4222273759
 10
-22.126591879
 20
35.4218221441
 10
-22.1443754627
 20
35.4188797038
 10
-22.1625682321
 20
35.4134320548
 10
-22.1809723358
 20
35.4055384418
  0
LWPOLYLINE
  5
5BA
100
AcDbEntity
  8
RACCORDO
100
AcDbPolyline
 62
253
  6
CONTINUOUS
 90
8
 70
0
 10
-23.4075235368
 20
36.0807914132
 10
-23.4149216175
 20
36.0840993071
 10
-23.4303454812
 20
36.0887540725
 10
-23.4467370428
 20
36.0908904562
 10
-23.4639180395
 20
36.0904852244
 10
-23.4817016233
 20
36.087542784
 10
-23.4998943927
 20
36.0820951351
 10
-23.5182984963
 20
36.0742015221
  0
LWPOLYLINE
  5
5BB
100
AcDbEntity
  8
0
100
AcDbPolyline
 62
7
  6
CONTINUOUS
 90
22
 70
0
 10
18.3736614878
 20
17.19623614
 10
18.3182988254
 20
17.2218523371
 10
18.2599694082
 20
17.2451128521
 10
18.198673236
 20
17.2660176849
 10
18.1340377954
 20
17.2846574282
 10
18.0664355998
 20
17.3009414893
 10
17.9969841905
 20
17.3145980904
 10
17.9256486295
 20
17.3255838109
 10
17.8524638548
 20
17.3339420714
 10
17.7786522209
 20
17.3395313549
 10
17.7042041352
 20
17.3423045911
 10
17.6291291903
 20
17.3423088503
 10
17.5546785191
 20
17.3395438262
 10
17.4808634826
 20
17.3339630401
 10
17.4076727198
 20
17.3256129708
 10
17.3363232795
 20
17.3146327479
 10
17.2668460515
 20
17.3009783891
 10
17.1992101461
 20
17.2846938768
 10
17.1345399428
 20
17.266050288
 10
17.0732102349
 20
17.2451379818
 10
17.0148462291
 20
17.2218665991
 10
16.9594479254
 20
17.19623614
  0
LWPOLYLINE
  5
5BC
100
AcDbEntity
  8
0
100
AcDbPolyline
 62
7
  6
CONTINUOUS
 90
22
 70
0
 10
-13.4461436656
 20
33.1061387167
 10
-13.501506328
 20
33.1317549138
 10
-13.5598357452
 20
33.1550154288
 10
-13.6211319174
 20
33.1759202616
 10
-13.685767358
 20
33.1945600049
 10
-13.7533695536
 20
33.210844066
 10
-13.8228209629
 20
33.2245006671
 10
-13.8941565239
 20
33.2354863876
 10
-13.9673412986
 20
33.2438446481
 10
-14.0411529325
 20
33.2494339316
 10
-14.1156010182
 20
33.2522071678
 10
-14.190675963
 20
33.252211427
 10
-14.2651266343
 20
33.2494464029
 10
-14.3389416707
 20
33.2438656168
 10
-14.4121324336
 20
33.2355155475
 10
-14.4834818739
 20
33.2245353246
 10
-14.5529591019
 20
33.2108809658
 10
-14.6205950073
 20
33.1945964535
 10
-14.6852652106
 20
33.1759528647
 10
-14.7465949185
 20
33.1550405585
 10
-14.8049589243
 20
33.1317691758
 10
-14.860357228
 20
33.1061387167
  0
LWPOLYLINE
  5
5BD
100
AcDbEntity
  8
RACCORDO
100
AcDbPolyline
 62
7
  6
CONTINUOUS
 90
4
 70
0
 10
18.3213371107
 20
16.6987117239
 10
18.3105024283
 20
16.7039980136
 10
18.2720328368
 20
16.7207609751
 10
18.2324363762
 20
16.7351787969
  0
LWPOLYLINE
  5
5BE
100
AcDbEntity
  8
RACCORDO
100
AcDbPolyline
 62
7
  6
CONTINUOUS
 90
4
 70
0
 10
-13.4984680427
 20
32.6086143006
 10
-13.5093027251
 20
32.6139005903
 10
-13.5477723166
 20
32.6306635518
 10
-13.5873687772
 20
32.6450813736
  0
LINE
  5
5BF
100
AcDbEntity
  8
RACCORDO
100
AcDbLine
 62
253
  6
CONTINUOUS
 10
23.1139253315
 20
12.8200669791
 11
23.1138371497
 21
12.8201110112
  0
LINE
  5
5C0
100
AcDbEntity
  8
RACCORDO
100
AcDbLine
 62
253
  6
CONTINUOUS
 10
-8.7058798219
 20
28.7299695558
 11
-8.7059680037
 21
28.7300135879
  0
LINE
  5
5C1
100
AcDbEntity
  8
RACCORDO
100
AcDbLine
 62
253
  6
CONTINUOUS
 10
-23.5182984963
 20
36.0742015221
 11
-22.1809723358
 21
35.4055384418
  0
LINE
  5
5C2
100
AcDbEntity
  8
RACCORDO
100
AcDbLine
 62
253
  6
CONTINUOUS
 10
-10.1539803319
 20
29.3920424399
 11
-8.8166541714
 21
28.7233793596
  0
LINE
  5
5C3
100
AcDbEntity
  8
RACCORDO
100
AcDbLine
 62
253
  6
CONTINUOUS
 10
8.3015066571
 20
20.1642989454
 11
9.6388328176
 21
19.4956358651
  0
LINE
  5
5C4
100
AcDbEntity
  8
RACCORDO
100
AcDbLine
 62
253
  6
CONTINUOUS
 10
21.6658248215
 20
13.4821398632
 11
23.003150982
 21
12.8134767829
  0
LINE
  5
5C5
100
AcDbEntity
  8
RACCORDO
100
AcDbLine
 62
7
  6
CONTINUOUS
 10
-23.4075235368
 20
36.0807914132
 11
-22.0701973762
 21
35.4121283329
  0
LINE
  5
5C6
100
AcDbEntity
  8
RACCORDO
100
AcDbLine
 62
7
  6
CONTINUOUS
 10
-10.0432053724
 20
29.398632331
 11
-8.7058792118
 21
28.7299692507
  0
LINE
  5
5C7
100
AcDbEntity
  8
RACCORDO
100
AcDbLine
 62
7
  6
CONTINUOUS
 10
8.4122816166
 20
20.1708888365
 11
9.7496077772
 21
19.5022257563
  0
LINE
  5
5C8
100
AcDbEntity
  8
RACCORDO
100
AcDbLine
 62
7
  6
CONTINUOUS
 10
21.776599781
 20
13.4887297543
 11
23.1139259416
 21
12.820066674
  0
LINE
  5
5C9
100
AcDbEntity
  8
0
100
AcDbLine
 62
253
  6
CONTINUOUS
 10
37.5530048274
 20
6.0735839256
 11
38.4412088456
 21
5.6294819165
  0
LINE
  5
5CA
100
AcDbEntity
  8
0
100
AcDbLine
 62
7
  6
CONTINUOUS
 10
37.5530048274
 20
6.3133836955
 11
38.8760817262
 21
5.6518452461
  0
LINE
  5
5CB
100
AcDbEntity
  8
RACCORDO
100
AcDbLine
 62
7
  6
CONTINUOUS
 10
19.61711279
 20
15.3795721899
 11
17.24223679
 21
16.5670101899
  0
LINE
  5
5CC
100
AcDbEntity
  8
RACCORDO
100
AcDbLine
 62
7
  6
CONTINUOUS
 10
-12.2026923634
 20
31.2894747666
 11
-14.5775683634
 21
32.4769127666
  0
LINE
  5
5CD
100
AcDbEntity
  8
RACCORDO
100
AcDbLine
 62
253
  6
CONTINUOUS
 10
-13.5855955243
 20
32.6042183019
 11
-11.5749273586
 21
31.5988842191
  0
LINE
  5
5CE
100
AcDbEntity
  8
RACCORDO
100
AcDbLine
 62
253
  6
CONTINUOUS
 10
18.2342096291
 20
16.6943157252
 11
20.2448777948
 21
15.6889816424
  0
LINE
  5
5CF
100
AcDbEntity
  8
RACCORDO
100
AcDbLine
 62
7
  6
CONTINUOUS
 10
-13.498620948
 20
32.6086909678
 11
-11.5266232204
 21
31.622692104
  0
LINE
  5
5D0
100
AcDbEntity
  8
RACCORDO
100
AcDbLine
 62
7
  6
CONTINUOUS
 10
18.3211842054
 20
16.6987883911
 11
20.293181933
 21
15.7127895273
  0
LINE
  5
5D1
100
AcDbEntity
  8
DRAFT
100
AcDbLine
 62
7
  6
CONTINUOUS
 10
13.2824926632
 20
19.4995101975
 11
-6.51649721
 21
29.3990051341
  0
LINE
  5
5D2
100
AcDbEntity
  8
ASSI
100
AcDbLine
 62
7
  6
CONTINUOUS
 10
-13.4461436656
 20
33.1061387167
 11
-10.999178599
 21
31.8826561834
  0
LINE
  5
5D3
100
AcDbEntity
  8
ASSI
100
AcDbLine
 62
7
  6
CONTINUOUS
 10
18.3736614878
 20
17.19623614
 11
20.8206265544
 21
15.9727536067
  0
LINE
  5
5D4
100
AcDbEntity
  8
0
100
AcDbLine
 62
7
  6
CONTINUOUS
 10
18.0201080972
 20
17.3730128353
 11
17.6665547066
 21
17.5497895306
  0
LINE
  5
5D5
100
AcDbEntity
  8
0
100
AcDbLine
 62
7
  6
CONTINUOUS
 10
-13.7996970562
 20
33.282915412
 11
-14.1532504468
 21
33.4596921073
  0
LINE
  5
5D6
100
AcDbEntity
  8
DRAFT
100
AcDbLine
 62
7
  6
CONTINUOUS
 10
-14.1532504468
 20
34.0122502966
 11
-13.7996970562
 21
33.8354736013
  0
LINE
  5
5D7
100
AcDbEntity
  8
DRAFT
100
AcDbLine
 62
7
  6
CONTINUOUS
 10
17.6665547066
 20
18.1023477199
 11
18.0201080972
 21
17.9255710246
  0
LINE
  5
5D8
100
AcDbEntity
  8
0
100
AcDbLine
 62
7
  6
CONTINUOUS
 10
22.2284422507
 20
16.666630265
 11
19.4178926037
 21
18.0719050885
  0
LINE
  5
5D9
100
AcDbEntity
  8
0
100
AcDbLine
 62
7
  6
CONTINUOUS
 10
-9.5913629027
 20
32.5765328417
 11
-12.4019125497
 21
33.9818076652
  0
LWPOLYLINE
  5
5DA
100
AcDbEntity
  8
0
100
AcDbPolyline
 62
7
  6
CONTINUOUS
 90
17
 70
0
 10
38.8760470978
 20
5.6518625581
 10
38.8888578934
 20
5.6453422738
 10
38.9530570673
 20
5.6090200453
 10
39.0144509568
 20
5.5680306344
 10
39.0727930519
 20
5.52250674
 10
39.1277558291
 20
5.4726494743
 10
39.1789852197
 20
5.4187230926
 10
39.2261958214
 20
5.3609647008
 10
39.2690908704
 20
5.2996594655
 10
39.307383321
 20
5.2351324673
 10
39.3408230235
 20
5.1677085295
 10
39.3691788119
 20
5.0977352934
 10
39.3922340172
 20
5.0256085958
 10
39.409802726
 20
4.9517562131
 10
39.4217428226
 20
4.876581162
 10
39.4279382467
 20
4.8005329276
 10
39.4288681257
 20
4.7573680761
  0
LWPOLYLINE
  5
5DB
100
AcDbEntity
  8
0
100
AcDbPolyline
 62
253
  6
CONTINUOUS
 90
22
 70
0
 10
38.4412088456
 20
5.6294819165
 10
38.4949199996
 20
5.6010736284
 10
38.548261908
 20
5.5679491048
 10
38.6009363768
 20
5.5302935196
 10
38.6526489433
 20
5.4883173766
 10
38.7031105218
 20
5.4422553322
 10
38.7520390201
 20
5.3923648844
 10
38.7991609162
 20
5.3389249328
 10
38.8442127874
 20
5.2822342192
 10
38.8869427832
 20
5.2226096583
 10
38.9271120325
 20
5.1603845656
 10
38.9644959799
 20
5.0959067942
 10
38.99888564
 20
5.0295367901
 10
39.0300887666
 20
4.9616455775
 10
39.0579309267
 20
4.8926126845
 10
39.082256476
 20
4.8228240213
 10
39.1029294288
 20
4.7526697231
 10
39.1198342186
 20
4.6825419694
 10
39.1328763434
 20
4.6128327907
 10
39.1419828947
 20
4.5439318782
 10
39.1471029647
 20
4.4762244043
 10
39.148207931
 20
4.4100888699
  0
LWPOLYLINE
  5
5DC
100
AcDbEntity
  8
RACCORDO
100
AcDbPolyline
 62
7
  6
CONTINUOUS
 90
12
 70
0
 10
23.1138371497
 20
12.8201110112
 10
23.136264296
 20
12.8074243046
 10
23.157361686
 20
12.7924211114
 10
23.1768327985
 20
12.7752791328
 10
23.1944892534
 20
12.7561315664
 10
23.2101224889
 20
12.7351538636
 10
23.2235243712
 20
12.7125685754
 10
23.2345227085
 20
12.6886019566
 10
23.2429673135
 20
12.6634956604
 10
23.2487251516
 20
12.6375348056
 10
23.251697074
 20
12.6110390852
 10
23.252122524
 20
12.5965082919
  0
LWPOLYLINE
  5
5DD
100
AcDbEntity
  8
RACCORDO
100
AcDbPolyline
 62
7
  6
CONTINUOUS
 90
12
 70
0
 10
9.7496077772
 20
19.5022257563
 10
9.7725217319
 20
19.4892159902
 10
9.7941642969
 20
19.4736868803
 10
9.8141855457
 20
19.4557902987
 10
9.8322179388
 20
19.4357919987
 10
9.8480316875
 20
19.4139129635
 10
9.8614901519
 20
19.3902642659
 10
9.8723830821
 20
19.3650644564
 10
9.880464765
 20
19.3387515671
 10
9.8856036924
 20
19.3117172956
 10
9.8877432175
 20
19.2841469232
 10
9.8878043398
 20
19.278549594
  0
LWPOLYLINE
  5
5DE
100
AcDbEntity
  8
RACCORDO
100
AcDbPolyline
 62
7
  6
CONTINUOUS
 90
7
 70
0
 10
19.3747181255
 20
11.6752402815
 10
19.3561781392
 20
11.6955113217
 10
19.3399489661
 20
11.7177326095
 10
19.3261415201
 20
11.7418396513
 10
19.3150032576
 20
11.7675764762
 10
19.3067734072
 20
11.7945794186
 10
19.3016029215
 20
11.8226330038
  0
LWPOLYLINE
  5
5DF
100
AcDbEntity
  8
0
100
AcDbPolyline
 62
253
  6
CONTINUOUS
 90
10
 70
0
 10
9.7358323803
 20
25.0742395228
 10
9.7230581435
 20
25.0949299977
 10
9.7092821367
 20
25.1146595913
 10
9.694610931
 20
25.1332792345
 10
9.6791600627
 20
25.1506462064
 10
9.6630461337
 20
25.1666330272
 10
9.6463849766
 20
25.1811262737
 10
9.6293008173
 20
25.1940176788
 10
9.61192622
 20
25.2052071085
 10
9.5943934433
 20
25.2146096583
  0
LINE
  5
5E0
100
AcDbEntity
  8
0
100
AcDbLine
 62
7
  6
CONTINUOUS
 10
9.9581226062
 20
24.6908455088
 11
9.7358323878
 21
25.0742395266
  0
LWPOLYLINE
  5
5E1
100
AcDbEntity
  8
RACCORDO
100
AcDbPolyline
 62
7
  6
CONTINUOUS
 90
16
 70
0
 10
22.651657514
 20
12.2451484241
 10
22.6505866939
 20
12.2682121898
 10
22.6476021862
 20
12.2919972517
 10
22.6427366884
 20
12.3162430269
 10
22.6360435065
 20
12.3406838854
 10
22.6275959687
 20
12.3650520594
 10
22.6174866215
 20
12.3890805763
 10
22.6058262196
 20
12.4125061856
 10
22.5927425121
 20
12.4350722429
 10
22.5783788408
 20
12.4565315204
 10
22.5628925694
 20
12.4766489154
 10
22.5464533622
 20
12.4952040274
 10
22.5292413251
 20
12.5119935727
 10
22.5114450293
 20
12.5268336097
 10
22.4932594456
 20
12.5395615545
 10
22.4748838103
 20
12.5500379629
  0
LWPOLYLINE
  5
5E2
100
AcDbEntity
  8
RACCORDO
100
AcDbPolyline
 62
253
  6
CONTINUOUS
 90
16
 70
0
 10
23.1799246857
 20
12.5085872441
 10
23.1790575788
 20
12.5317528665
 10
23.176252018
 20
12.5556274019
 10
23.1715387404
 20
12.5799492872
 10
23.1649693834
 20
12.6044520582
 10
23.1566159191
 20
12.6288672689
 10
23.146569866
 20
12.6529274327
 10
23.1349412858
 20
12.6763689528
 10
23.1218575785
 20
12.6989350101
 10
23.1074620854
 20
12.7203783766
 10
23.09191252
 20
12.7404641246
 10
23.0753792392
 20
12.7589721999
 10
23.0580433772
 20
12.7756998327
 10
23.0400948612
 20
12.7904637597
 10
23.0217303305
 20
12.803102231
 10
23.003150982
 20
12.8134767829
  0
LINE
  5
5E3
100
AcDbEntity
  8
RACCORDO
100
AcDbLine
 62
7
  6
CONTINUOUS
 10
22.651657514
 20
-28.2521949275
 11
22.651657514
 21
-29.7570909874
  0
LINE
  5
5E4
100
AcDbEntity
  8
RACCORDO
100
AcDbLine
 62
7
  6
CONTINUOUS
 10
22.651657514
 20
10.6427292675
 11
22.651657514
 21
12.2451484241
  0
LINE
  5
5E5
100
AcDbEntity
  8
RACCORDO
100
AcDbLine
 62
253
  6
CONTINUOUS
 10
23.1799246857
 20
12.5085872441
 11
23.1799246857
 21
12.1610557274
  0
LINE
  5
5E6
100
AcDbEntity
  8
RACCORDO
100
AcDbLine
 62
253
  6
CONTINUOUS
 10
23.1799246857
 20
-29.138548412
 11
23.1799246857
 21
-29.4860799288
  0
LINE
  5
5E7
100
AcDbEntity
  8
RACCORDO
100
AcDbLine
 62
7
  6
CONTINUOUS
 10
23.2521225427
 20
12.5964598763
 11
23.2521225427
 21
12.2489283595
  0
LINE
  5
5E8
100
AcDbEntity
  8
RACCORDO
100
AcDbLine
 62
7
  6
CONTINUOUS
 10
23.2521225427
 20
-29.0506757798
 11
23.2521225427
 21
-29.3982072966
  0
LINE
  5
5E9
100
AcDbEntity
  8
DRAFT
100
AcDbLine
 62
253
  6
CONTINUOUS
 10
23.5570742018
 20
15.4890378862
 11
23.5570742018
 21
16.7205559453
  0
LINE
  5
5EA
100
AcDbEntity
  8
RACCORDO
100
AcDbLine
 62
7
  6
CONTINUOUS
 10
23.6806682656
 20
15.6372140376
 11
23.6806682656
 21
16.8694825104
  0
LINE
  5
5EB
100
AcDbEntity
  8
RACCORDO
100
AcDbLine
 62
7
  6
CONTINUOUS
 10
23.7123176857
 20
10.379121629
 11
23.7123176857
 21
-27.5375108017
  0
LINE
  5
5EC
100
AcDbEntity
  8
0
100
AcDbLine
 62
7
  6
CONTINUOUS
 10
23.7123176857
 20
7.0836105508
 11
23.7123176857
 21
-24.2419997235
  0
LWPOLYLINE
  5
5ED
100
AcDbEntity
  8
RACCORDO
100
AcDbPolyline
 62
253
  6
CONTINUOUS
 90
9
 70
0
 10
23.2521225255
 20
-29.3982537118
 10
23.2518461466
 20
-29.4040835555
 10
23.2492553603
 20
-29.4170843359
 10
23.243960415
 20
-29.4298871147
 10
23.2360164389
 20
-29.4423481091
 10
23.2255119343
 20
-29.4543258757
 10
23.2125637295
 20
-29.4656878621
 10
23.1973123399
 20
-29.4763113027
 10
23.1799246857
 20
-29.4860799288
  0
LWPOLYLINE
  5
5EE
100
AcDbEntity
  8
RACCORDO
100
AcDbPolyline
 62
253
  6
CONTINUOUS
 90
9
 70
0
 10
23.2521225427
 20
-29.0506757798
 10
23.2518193217
 20
-29.0568304241
 10
23.2491796381
 20
-29.0697990094
 10
23.2438531404
 20
-29.0825596243
 10
23.2358977558
 20
-29.0949734935
 10
23.2254000012
 20
-29.106905613
 10
23.2124740427
 20
-29.1182262174
 10
23.1972604535
 20
-29.1288121922
 10
23.1799246857
 20
-29.138548412
  0
LWPOLYLINE
  5
5EF
100
AcDbEntity
  8
RACCORDO
100
AcDbPolyline
 62
7
  6
CONTINUOUS
 90
7
 70
0
 10
23.2521225427
 20
12.2489283595
 10
23.2508547122
 20
12.2237838356
 10
23.2470275657
 20
12.1987139136
 10
23.2406386742
 20
12.1740280589
 10
23.2317342587
 20
12.1500422769
 10
23.220401602
 20
12.1270503465
 10
23.2067480902
 20
12.1053025078
  0
LWPOLYLINE
  5
5F0
100
AcDbEntity
  8
RACCORDO
100
AcDbPolyline
 62
253
  6
CONTINUOUS
 90
9
 70
0
 10
23.2521225426
 20
12.5964570327
 10
23.2517884755
 20
12.5899999609
 10
23.249077681
 20
12.5770101998
 10
23.2436606728
 20
12.5642134357
 10
23.235598776
 20
12.5517696971
 10
23.2250296402
 20
12.5398638829
 10
23.212118792
 20
12.5286336733
 10
23.1970211328
 20
12.5181742781
 10
23.1799246857
 20
12.5085872441
  0
LWPOLYLINE
  5
5F1
100
AcDbEntity
  8
RACCORDO
100
AcDbPolyline
 62
7
  6
CONTINUOUS
 90
12
 70
0
 10
22.9944412628
 20
-27.891674569
 10
22.992592909
 20
-27.9271860631
 10
22.98838441
 20
-27.9612590304
 10
22.981829492
 20
-27.9936565871
 10
22.9729527606
 20
-28.0241536264
 10
22.9618064737
 20
-28.0525334056
 10
22.94846946
 20
-28.0785882475
 10
22.9330653408
 20
-28.1020682632
 10
22.9156527613
 20
-28.1228789912
 10
22.8961851897
 20
-28.1409987026
 10
22.8746767672
 20
-28.1562539827
 10
22.8600468651
 20
-28.164325944
  0
LINE
  5
5F2
100
AcDbEntity
  8
RACCORDO
100
AcDbLine
 62
7
  6
CONTINUOUS
 10
-24.3605900882
 20
33.5386929846
 11
-23.7351670449
 21
33.4081040728
  0
LINE
  5
5F3
100
AcDbEntity
  8
RACCORDO
100
AcDbLine
 62
253
  6
CONTINUOUS
 10
-24.1337465947
 20
33.6945141454
 11
-23.4225259866
 21
33.5460106225
  0
LWPOLYLINE
  5
5F4
100
AcDbEntity
  8
RACCORDO
100
AcDbPolyline
 62
7
  6
CONTINUOUS
 90
10
 70
0
 10
-24.3605900882
 20
33.5386929846
 10
-24.3681500077
 20
33.540394187
 10
-24.3756759773
 20
33.5423350185
 10
-24.3831570181
 20
33.5445147264
 10
-24.3906105077
 20
33.5469416142
 10
-24.3979951389
 20
33.5496051028
 10
-24.4052175062
 20
33.5524680357
 10
-24.4122459188
 20
33.5555082115
 10
-24.4191038158
 20
33.5587260566
 10
-24.4213031145
 20
33.5598123479
  0
LWPOLYLINE
  5
5F5
100
AcDbEntity
  8
RACCORDO
100
AcDbPolyline
 62
253
  6
CONTINUOUS
 90
13
 70
0
 10
-24.4239734125
 20
34.0122653755
 10
-24.4002232256
 20
34.0069118795
 10
-24.3753834085
 20
34.0028089871
 10
-24.3498222545
 20
34.0000264143
 10
-24.3238591407
 20
33.9985957405
 10
-24.2977393413
 20
33.9985273491
 10
-24.2717377803
 20
33.9998227422
 10
-24.2461322228
 20
34.0024702148
 10
-24.2212102339
 20
34.0064422029
 10
-24.1972547007
 20
34.0116944552
 10
-24.174530728
 20
34.0181685576
 10
-24.1532838469
 20
34.0257942524
 10
-24.1337465947
 20
34.0344880795
  0
LWPOLYLINE
  5
5F6
100
AcDbEntity
  8
RACCORDO
100
AcDbPolyline
 62
7
  6
CONTINUOUS
 90
4
 70
0
 10
-14.6616951918
 20
32.5065773124
 10
-14.6358921624
 20
32.4999055085
 10
-14.6083595258
 20
32.4903572783
 10
-14.5791616995
 20
32.4777094347
  0
LWPOLYLINE
  5
5F7
100
AcDbEntity
  8
RACCORDO
100
AcDbPolyline
 62
7
  6
CONTINUOUS
 90
9
 70
0
 10
13.9655071611
 20
23.1799215396
 10
13.9593904206
 20
23.1815210373
 10
13.9496202068
 20
23.1830538512
 10
13.9392940114
 20
23.1834692956
 10
13.9285068142
 20
23.1827675231
 10
13.9175435553
 20
23.1809489918
 10
13.9064992146
 20
23.1780138542
 10
13.8952788121
 20
23.1739619578
 10
13.8838823478
 20
23.1687933026
  0
LWPOLYLINE
  5
5F8
100
AcDbEntity
  8
RACCORDO
100
AcDbPolyline
 62
7
  6
CONTINUOUS
 90
13
 70
0
 10
13.9654970249
 20
23.1798975872
 10
13.8567816783
 20
23.211183433
 10
13.7419266354
 20
23.24053711
 10
13.6246652114
 20
23.2668641802
 10
13.5052920466
 20
23.2901262719
 10
13.3840716749
 20
23.3102968247
 10
13.2612423055
 20
23.3273561
 10
13.1370935081
 20
23.3412799415
 10
13.011910045
 20
23.3520506105
 10
12.8859295275
 20
23.3596580102
 10
12.7594431414
 20
23.3640913889
 10
12.6327404184
 20
23.3653459436
 10
12.6098182838
 20
23.36499767
  0
LINE
  5
5F9
100
AcDbEntity
  8
RACCORDO
100
AcDbLine
 62
7
  6
CONTINUOUS
 10
-13.5873687772
 20
32.6450813736
 11
-13.627855084
 21
32.6573378723
  0
LWPOLYLINE
  5
5FA
100
AcDbEntity
  8
RACCORDO
100
AcDbPolyline
 62
253
  6
CONTINUOUS
 90
7
 70
0
 10
-13.4986209486
 20
32.608690968
 10
-13.5089818841
 20
32.6129399704
 10
-13.5229816228
 20
32.6161207086
 10
-13.5378439872
 20
32.6168319398
 10
-13.5533719851
 20
32.6150642377
 10
-13.5693598007
 20
32.6108410328
 10
-13.5855955243
 20
32.6042183019
  0
LWPOLYLINE
  5
5FB
100
AcDbEntity
  8
RACCORDO
100
AcDbPolyline
 62
7
  6
CONTINUOUS
 90
10
 70
0
 10
20.5178821143
 20
18.9573425851
 10
20.4721245447
 20
18.9765871471
 10
20.4278822243
 20
18.9889332297
 10
20.3818069966
 20
18.9961563307
 10
20.333725013
 20
18.9982041816
 10
20.2838101222
 20
18.9951290509
 10
20.233068403
 20
18.9869654105
 10
20.1818352153
 20
18.9737247509
 10
20.1297751993
 20
18.9553955815
 10
20.0768883551
 20
18.9319779024
  0
LWPOLYLINE
  5
5FC
100
AcDbEntity
  8
RACCORDO
100
AcDbPolyline
 62
7
  6
CONTINUOUS
 90
10
 70
0
 10
-11.3019230391
 20
34.8672451618
 10
-11.3476806087
 20
34.8864897238
 10
-11.3919229291
 20
34.8988358064
 10
-11.4379981568
 20
34.9060589074
 10
-11.4860801404
 20
34.9081067583
 10
-11.5359950312
 20
34.9050316276
 10
-11.5867367504
 20
34.8968679872
 10
-11.6379699381
 20
34.8836273276
 10
-11.6900299541
 20
34.8652981582
 10
-11.7429167983
 20
34.8418804791
  0
LWPOLYLINE
  5
5FD
100
AcDbEntity
  8
RACCORDO
100
AcDbPolyline
 62
7
  6
CONTINUOUS
 90
3
 70
0
 10
13.9775478429
 20
23.175103759
 10
13.9686996326
 20
23.1788710066
 10
13.9655071611
 20
23.1799215396
  0
LINE
  5
5FE
100
AcDbEntity
  8
DRAFT
100
AcDbLine
 62
7
  6
CONTINUOUS
 10
28.3220398434
 20
14.1665475144
 11
29.0100811459
 21
13.8225268631
  0
LINE
  5
5FF
100
AcDbEntity
  8
0
100
AcDbLine
 62
7
  6
CONTINUOUS
 10
23.8789636652
 20
16.5950837153
 11
23.6806682656
 21
16.694231415
  0
LINE
  5
600
100
AcDbEntity
  8
0
100
AcDbLine
 62
7
  6
CONTINUOUS
 10
22.990216331
 20
17.0394573823
 11
20.7778245438
 21
18.1456532759
  0
LINE
  5
601
100
AcDbEntity
  8
0
100
AcDbLine
 62
7
  6
CONTINUOUS
 10
-7.9408414882
 20
32.504986292
 11
-8.1391368877
 21
32.6041339917
  0
LINE
  5
602
100
AcDbEntity
  8
0
100
AcDbLine
 62
7
  6
CONTINUOUS
 10
-8.8295888224
 20
32.949359959
 11
-11.0419806096
 21
34.0555558526
  0
LINE
  5
603
100
AcDbEntity
  8
0
100
AcDbLine
 62
253
  6
CONTINUOUS
 10
-14.7312647768
 20
36.3360544683
 11
-11.7429167983
 21
34.8418804791
  0
LINE
  5
604
100
AcDbEntity
  8
0
100
AcDbLine
 62
253
  6
CONTINUOUS
 10
-7.5002761112
 20
32.7205601355
 11
-4.5119281327
 21
31.2263861463
  0
LINE
  5
605
100
AcDbEntity
  8
0
100
AcDbLine
 62
253
  6
CONTINUOUS
 10
17.0885403766
 20
20.4261518916
 11
20.0768883551
 21
18.9319779024
  0
LINE
  5
606
100
AcDbEntity
  8
0
100
AcDbLine
 62
253
  6
CONTINUOUS
 10
24.3195290422
 20
16.8106575588
 11
27.3078770207
 21
15.3164835696
  0
LINE
  5
607
100
AcDbEntity
  8
RACCORDO
100
AcDbLine
 62
7
  6
CONTINUOUS
 10
-14.4466436725
 20
36.4396148843
 11
-11.3018737953
 21
34.8672299457
  0
LINE
  5
608
100
AcDbEntity
  8
RACCORDO
100
AcDbLine
 62
7
  6
CONTINUOUS
 10
-7.0592331081
 20
32.7459096021
 11
-3.9144632309
 21
31.1735246635
  0
LINE
  5
609
100
AcDbEntity
  8
RACCORDO
100
AcDbLine
 62
7
  6
CONTINUOUS
 10
17.3731614809
 20
20.5297123076
 11
20.5179313581
 21
18.957327369
  0
LINE
  5
60A
100
AcDbEntity
  8
RACCORDO
100
AcDbLine
 62
7
  6
CONTINUOUS
 10
24.7605720453
 20
16.8360070254
 11
27.9053419225
 21
15.2636220868
  0
LINE
  5
60B
100
AcDbEntity
  8
DRAFT
100
AcDbLine
 62
7
  6
CONTINUOUS
 10
16.8257900139
 20
21.2570118049
 11
-2.8473053926
 21
31.0935595082
  0
LINE
  5
60C
100
AcDbEntity
  8
0
100
AcDbLine
 62
7
  6
CONTINUOUS
 10
15.2088058521
 20
23.3785805704
 11
14.7182881365
 21
23.6238394282
  0
LINE
  5
60D
100
AcDbEntity
  8
RACCORDO
100
AcDbLine
 62
7
  6
CONTINUOUS
 10
14.8260759803
 20
22.7508396903
 11
14.9930528583
 21
22.6671147255
  0
LINE
  5
60E
100
AcDbEntity
  8
RACCORDO
100
AcDbLine
 62
7
  6
CONTINUOUS
 10
14.2312273688
 20
23.0476465947
 11
13.9775478429
 21
23.175103759
  0
LINE
  5
60F
100
AcDbEntity
  8
RACCORDO
100
AcDbLine
 62
7
  6
CONTINUOUS
 10
14.9930528583
 20
22.6671147255
 11
15.1499237005
 21
22.5878518221
  0
LINE
  5
610
100
AcDbEntity
  8
RACCORDO
100
AcDbLine
 62
7
  6
CONTINUOUS
 10
14.5950416575
 20
22.8625386526
 11
14.2312273688
 21
23.0476465947
  0
LINE
  5
611
100
AcDbEntity
  8
RACCORDO
100
AcDbLine
 62
7
  6
CONTINUOUS
 10
14.788131913
 20
22.7635073453
 11
14.5950416575
 21
22.8625386526
  0
LINE
  5
612
100
AcDbEntity
  8
RACCORDO
100
AcDbLine
 62
7
  6
CONTINUOUS
 10
14.7958903417
 20
22.7589208732
 11
14.788131913
 21
22.7635073453
  0
LWPOLYLINE
  5
613
100
AcDbEntity
  8
RACCORDO
100
AcDbPolyline
 62
253
  6
CONTINUOUS
 90
11
 70
0
 10
14.8260759803
 20
22.7508396903
 10
14.8505989706
 20
22.7303353119
 10
14.8749647323
 20
22.7090570475
 10
14.8991014825
 20
22.6869947702
 10
14.9228663674
 20
22.6642064499
 10
14.9462561832
 20
22.6406179866
 10
14.9693794891
 20
22.6160163993
 10
14.9921270626
 20
22.5903896351
 10
15.0143850603
 20
22.5637272463
 10
15.0361947444
 20
22.5358089181
 10
15.0364563768
 20
22.5354488518
  0
LWPOLYLINE
  5
614
100
AcDbEntity
  8
RACCORDO
100
AcDbPolyline
 62
253
  6
CONTINUOUS
 90
10
 70
0
 10
14.7324393812
 20
22.7445436818
 10
14.7552998106
 20
22.7249649484
 10
14.7778773489
 20
22.7046119019
 10
14.8001719961
 20
22.6834845422
 10
14.8222174944
 20
22.6616546553
 10
14.8439801016
 20
22.6390504553
 10
14.865358591
 20
22.6154565849
 10
14.886398294
 20
22.5908748357
 10
14.9070538791
 20
22.5653034161
 10
14.9270881249
 20
22.538521594
  0
LWPOLYLINE
  5
615
100
AcDbEntity
  8
0
100
AcDbPolyline
 62
7
  6
CONTINUOUS
 90
9
 70
0
 10
14.3064743184
 20
26.3029805841
 10
14.3061525106
 20
26.3033814248
 10
14.3020645634
 20
26.3045636783
 10
14.294331578
 20
26.3036475159
 10
14.2830725958
 20
26.3006513411
 10
14.268456645
 20
26.2956334916
 10
14.2507033481
 20
26.2886827221
 10
14.2300777673
 20
26.2799166885
 10
14.2068851349
 20
26.2694850741
  0
LWPOLYLINE
  5
616
100
AcDbEntity
  8
RACCORDO
100
AcDbPolyline
 62
253
  6
CONTINUOUS
 90
3
 70
0
 10
14.9270881249
 20
22.538521594
 10
14.9465584984
 20
22.5105274397
 10
14.9548103847
 20
22.497742027
  0
LWPOLYLINE
  5
617
100
AcDbEntity
  8
0
100
AcDbPolyline
 62
253
  6
CONTINUOUS
 90
25
 70
0
 10
14.2068851349
 20
26.2694850741
 10
14.1668653961
 20
26.3291320772
 10
14.1259009074
 20
26.3857589205
 10
14.0839916686
 20
26.439365604
 10
14.0408770662
 20
26.4900713845
 10
13.9968177137
 20
26.5377570052
 10
13.9525954526
 20
26.5820646959
 10
13.9082773244
 20
26.6228886546
 10
13.8637962875
 20
26.6603346834
 10
13.8197330585
 20
26.6943624177
 10
13.7761557286
 20
26.7249104743
 10
13.7329962066
 20
26.7520402365
 10
13.6906309356
 20
26.7758954893
 10
13.6491057618
 20
26.7964580853
 10
13.608374839
 20
26.8137461719
 10
13.5686770719
 20
26.8279579765
 10
13.530137265
 20
26.8391136211
 10
13.4926306137
 20
26.8471929837
 10
13.4560216095
 20
26.8523339261
 10
13.420206506
 20
26.8546274988
 10
13.3852890495
 20
26.8539826513
 10
13.3514449714
 20
26.8502640945
 10
13.3187328488
 20
26.843426732
 10
13.2870941044
 20
26.8335156602
 10
13.2565287385
 20
26.820530879
  0
LWPOLYLINE
  5
618
100
AcDbEntity
  8
0
100
AcDbPolyline
 62
7
  6
CONTINUOUS
 90
13
 70
0
 10
14.3064736857
 20
26.302981591
 10
14.2524280098
 20
26.3847332954
 10
14.2010025784
 20
26.4555038512
 10
14.1478327057
 20
26.5225482996
 10
14.0931217813
 20
26.5858275754
 10
14.0370400493
 20
26.645273873
 10
13.9797327959
 20
26.7008581744
 10
13.9213564226
 20
26.7525116367
 10
13.8620667279
 20
26.8001126368
 10
13.8019912674
 20
26.8435905263
 10
13.7412512061
 20
26.8828645854
 10
13.6799627855
 20
26.9178052514
 10
13.6546231974
 20
26.9308925445
  0
LWPOLYLINE
  5
619
100
AcDbEntity
  8
0
100
AcDbPolyline
 62
253
  6
CONTINUOUS
 90
10
 70
0
 10
13.2565287385
 20
26.820530879
 10
13.2437783356
 20
26.8411766798
 10
13.2300230157
 20
26.8608751591
 10
13.2153674244
 20
26.8794764577
 10
13.1999230564
 20
26.8968390634
 10
13.1838074072
 20
26.9128308873
 10
13.1671430789
 20
26.9273302694
 10
13.1500568482
 20
26.9402269032
 10
13.1326787011
 20
26.9514226757
 10
13.1151408445
 20
26.9608324133
  0
LINE
  5
61A
100
AcDbEntity
  8
0
100
AcDbLine
 62
7
  6
CONTINUOUS
 10
14.3065684382
 20
26.3028151279
 11
14.3064743184
 21
26.3029805841
  0
LWPOLYLINE
  5
61B
100
AcDbEntity
  8
RACCORDO
100
AcDbPolyline
 62
253
  6
CONTINUOUS
 90
8
 70
0
 10
23.1799246857
 20
12.1610557274
 10
23.1880899796
 20
12.1466726761
 10
23.1942502319
 20
12.133379212
 10
23.1983306025
 20
12.12132414
 10
23.2002788445
 20
12.1106393934
 10
23.2000630651
 20
12.1014527633
 10
23.1976816878
 20
12.0938796265
 10
23.1952852947
 20
12.0902206054
  0
LWPOLYLINE
  5
61C
100
AcDbEntity
  8
0
100
AcDbPolyline
 62
253
  6
CONTINUOUS
 90
10
 70
0
 10
14.1891078197
 20
25.970055803
 10
14.200756832
 20
25.9486222308
 10
14.2112153301
 20
25.9265609917
 10
14.2204037013
 20
25.9040398736
 10
14.2282519628
 20
25.8812302489
 10
14.2347003712
 20
25.8583055544
 10
14.2396998331
 20
25.8354399709
 10
14.2432121982
 20
25.8128073966
 10
14.2452105966
 20
25.7905801242
 10
14.2456796895
 20
25.7689273119
  0
LINE
  5
61D
100
AcDbEntity
  8
0
100
AcDbLine
 62
253
  6
CONTINUOUS
 10
28.2680304447
 20
14.4416853558
 11
28.2680304447
 21
14.1319543287
  0
LINE
  5
61E
100
AcDbEntity
  8
0
100
AcDbLine
 62
253
  6
CONTINUOUS
 10
28.2680304447
 20
-22.5289525065
 11
28.2680304447
 21
-22.70841773
  0
LINE
  5
61F
100
AcDbEntity
  8
RACCORDO
100
AcDbLine
 62
7
  6
CONTINUOUS
 10
28.4083605445
 20
14.7391379493
 11
28.4083605445
 21
14.3108261487
  0
LINE
  5
620
100
AcDbEntity
  8
RACCORDO
100
AcDbLine
 62
7
  6
CONTINUOUS
 10
28.4083605445
 20
-22.4547436382
 11
28.4083605445
 21
-22.6585411383
  0
LWPOLYLINE
  5
621
100
AcDbEntity
  8
0
100
AcDbPolyline
 62
7
  6
CONTINUOUS
 90
16
 70
0
 10
38.9036919511
 20
-6.1168974591
 10
38.9674707631
 20
-6.079376367
 10
39.0286722132
 20
-6.0369633981
 10
39.0868245369
 20
-5.9898726069
 10
39.1413765949
 20
-5.9384800989
 10
39.1920345233
 20
-5.8830186004
 10
39.2386897063
 20
-5.8234928324
 10
39.2809963795
 20
-5.760149597
 10
39.3184979746
 20
-5.6934988886
 10
39.3509092231
 20
-5.6239085977
 10
39.3779455992
 20
-5.5518593591
 10
39.3993899369
 20
-5.4778298767
 10
39.4151091836
 20
-5.4021301853
 10
39.4249785739
 20
-5.3249298791
 10
39.4288161658
 20
-5.2470110098
 10
39.4288681289
 20
-5.2368466311
  0
LINE
  5
622
100
AcDbEntity
  8
0
100
AcDbLine
 62
253
  6
CONTINUOUS
 10
37.2723446277
 20
-6.5962170609
 11
39.148207931
 21
-5.5841457733
  0
LINE
  5
623
100
AcDbEntity
  8
0
100
AcDbLine
 62
7
  6
CONTINUOUS
 10
37.556037279
 20
-6.8439880722
 11
38.9036919511
 21
-6.1168974591
  0
LWPOLYLINE
  5
624
100
AcDbEntity
  8
RACCORDO
100
AcDbPolyline
 62
7
  6
CONTINUOUS
 90
10
 70
0
 10
-14.2274657106
 20
29.7244501912
 10
-14.2619382648
 20
29.7212166573
 10
-14.2959037971
 20
29.7161033804
 10
-14.3291385699
 20
29.7096735314
 10
-14.3614787405
 20
29.7026145653
 10
-14.3928832839
 20
29.6952518258
 10
-14.4233543949
 20
29.6874413253
 10
-14.4528653518
 20
29.6793943438
 10
-14.4813870588
 20
29.6714454902
 10
-14.5088581402
 20
29.663477995
  0
LWPOLYLINE
  5
625
100
AcDbEntity
  8
RACCORDO
100
AcDbPolyline
 62
7
  6
CONTINUOUS
 90
3
 70
0
 10
-14.708002037
 20
32.5121969825
 10
-14.6857198912
 20
32.5105786104
 10
-14.6616951918
 20
32.5065773124
  0
LWPOLYLINE
  5
626
100
AcDbEntity
  8
RACCORDO
100
AcDbPolyline
 62
7
  6
CONTINUOUS
 90
24
 70
0
 10
-13.6690643898
 20
32.6676300533
 10
-13.7107463865
 20
32.6761162357
 10
-13.7527342049
 20
32.6829567254
 10
-13.7949261483
 20
32.6882964283
 10
-13.837247348
 20
32.6922566846
 10
-13.8795710615
 20
32.6949336128
 10
-13.9216749239
 20
32.6964096826
 10
-13.9634805056
 20
32.6967687493
 10
-14.004953149
 20
32.6960833836
 10
-14.0459172857
 20
32.6944224565
 10
-14.0862954316
 20
32.6918515737
 10
-14.1260937692
 20
32.6884257037
 10
-14.1652555821
 20
32.6841985494
 10
-14.2037534536
 20
32.6792180481
 10
-14.2415640969
 20
32.6735290375
 10
-14.2786316361
 20
32.6671794482
 10
-14.3149336074
 20
32.660212407
 10
-14.3504531913
 20
32.6526685996
 10
-14.3851348879
 20
32.644597794
 10
-14.4189226607
 20
32.6360533618
 10
-14.4518354864
 20
32.6270706539
 10
-14.4839116572
 20
32.6176783811
 10
-14.5151082609
 20
32.6079280604
 10
-14.5454042793
 20
32.597868456
  0
LINE
  5
627
100
AcDbEntity
  8
RACCORDO
100
AcDbLine
 62
7
  6
CONTINUOUS
 10
-13.627855084
 20
32.6573378723
 11
-13.6690643898
 21
32.6676300533
  0
LWPOLYLINE
  5
628
100
AcDbEntity
  8
0
100
AcDbPolyline
 62
253
  6
CONTINUOUS
 90
3
 70
0
 10
19.0146339285
 20
24.2467842457
 10
19.0344955945
 20
24.2408266721
 10
19.0379018179
 20
24.2392507586
  0
LWPOLYLINE
  5
629
100
AcDbEntity
  8
0
100
AcDbPolyline
 62
253
  6
CONTINUOUS
 90
10
 70
0
 10
36.97213179
 20
15.2721365368
 10
36.929762746
 20
15.2901236001
 10
36.8857877572
 20
15.302815572
 10
36.8398429693
 20
15.3104449967
 10
36.7921784003
 20
15.3129710806
 10
36.7430566254
 20
15.3103806048
 10
36.6927555114
 20
15.3026904889
 10
36.6415538296
 20
15.2899472941
 10
36.5897289605
 20
15.2722239266
 10
36.5375642749
 20
15.2496206981
  0
LWPOLYLINE
  5
62A
100
AcDbEntity
  8
0
100
AcDbPolyline
 62
253
  6
CONTINUOUS
 90
10
 70
0
 10
-8.6644964865
 20
38.0904508487
 10
-8.707170906
 20
38.1085904269
 10
-8.7511458936
 20
38.1212823992
 10
-8.7970906809
 20
38.1289118247
 10
-8.8447552499
 20
38.1314379093
 10
-8.8938770253
 20
38.1288474343
 10
-8.9441781403
 20
38.1211573188
 10
-8.9953798234
 20
38.1084141241
 10
-9.0472046942
 20
38.0906907561
 10
-9.0993693819
 20
38.0680875265
  0
LWPOLYLINE
  5
62B
100
AcDbEntity
  8
0
100
AcDbPolyline
 62
7
  6
CONTINUOUS
 90
11
 70
0
 10
19.0381608539
 20
24.2391272083
 10
19.0120509406
 20
24.2506251189
 10
18.9839775076
 20
24.2598243135
 10
18.9558887674
 20
24.2660925003
 10
18.928175006
 20
24.2696395914
 10
18.901988891
 20
24.270745051
 10
18.8776850493
 20
24.2699340774
 10
18.8547856512
 20
24.2676518115
 10
18.8330999707
 20
24.2642327261
 10
18.812751616
 20
24.2600137774
 10
18.793198976
 20
24.2551400076
  0
LWPOLYLINE
  5
62C
100
AcDbEntity
  8
0
100
AcDbPolyline
 62
253
  6
CONTINUOUS
 90
13
 70
0
 10
13.6533156372
 20
26.9315446327
 10
13.6296766609
 20
26.9429220525
 10
13.5790547683
 20
26.9644269062
 10
13.529096728
 20
26.9818181134
 10
13.4801026895
 20
26.9951389353
 10
13.4320982465
 20
27.0045171021
 10
13.3846404531
 20
27.0100781833
 10
13.3377036893
 20
27.0118266256
 10
13.2915471759
 20
27.0097169521
 10
13.2461077405
 20
27.0036290892
 10
13.2014416712
 20
26.993461711
 10
13.1577399606
 20
26.9792059174
 10
13.1151408445
 20
26.9608324133
  0
LINE
  5
62D
100
AcDbEntity
  8
0
100
AcDbLine
 62
253
  6
CONTINUOUS
 10
36.9724371711
 20
15.2719840199
 11
36.97213179
 21
15.2721365368
  0
LINE
  5
62E
100
AcDbEntity
  8
0
100
AcDbLine
 62
253
  6
CONTINUOUS
 10
14.2456796696
 20
25.5188666599
 11
17.7271823977
 21
23.7781152958
  0
LINE
  5
62F
100
AcDbEntity
  8
0
100
AcDbLine
 62
7
  6
CONTINUOUS
 10
14.3832777178
 20
25.5699675207
 11
17.8518400749
 21
23.8356863422
  0
LINE
  5
630
100
AcDbEntity
  8
0
100
AcDbLine
 62
253
  6
CONTINUOUS
 10
-9.0993693819
 20
38.0680875265
 11
13.1151408445
 21
26.9608324133
  0
LINE
  5
631
100
AcDbEntity
  8
0
100
AcDbLine
 62
253
  6
CONTINUOUS
 10
18.7071160926
 20
24.1648447892
 11
36.5375642757
 21
15.2496206977
  0
LINE
  5
632
100
AcDbEntity
  8
0
100
AcDbLine
 62
7
  6
CONTINUOUS
 10
-8.6644965013
 20
38.0904508561
 11
13.654723694
 21
26.9308407584
  0
LINE
  5
633
100
AcDbEntity
  8
0
100
AcDbLine
 62
7
  6
CONTINUOUS
 10
19.0360300274
 20
24.2401875918
 11
36.9724371562
 21
15.2719840273
  0
LWPOLYLINE
  5
634
100
AcDbEntity
  8
0
100
AcDbPolyline
 62
7
  6
CONTINUOUS
 90
9
 70
0
 10
36.97213179
 20
15.2721365368
 10
37.0080846575
 20
15.2532537269
 10
37.0684935848
 20
15.2171148635
 10
37.1262613678
 20
15.1767774224
 10
37.1811064133
 20
15.1324195253
 10
37.2328470254
 20
15.0841465562
 10
37.281179856
 20
15.0321789228
 10
37.3257881513
 20
14.9768033
 10
37.3664599009
 20
14.9182244051
  0
LWPOLYLINE
  5
635
100
AcDbEntity
  8
0
100
AcDbPolyline
 62
253
  6
CONTINUOUS
 90
13
 70
0
 10
36.5375642757
 20
15.2496206977
 10
36.5841104382
 20
15.2247949161
 10
36.6304045191
 20
15.1963422961
 10
36.6762483437
 20
15.1643846371
 10
36.7214456648
 20
15.1290587425
 10
36.7658030026
 20
15.0905158349
 10
36.8091304732
 20
15.0489209079
 10
36.8512426012
 20
15.00445202
 10
36.891959114
 20
14.9572995328
 10
36.9311057131
 20
14.9076652958
 10
36.9685148204
 20
14.8557617823
 10
37.0040262961
 20
14.8018111796
 10
37.0374881232
 20
14.7460444384
  0
LWPOLYLINE
  5
636
100
AcDbEntity
  8
RACCORDO
100
AcDbPolyline
 62
253
  6
CONTINUOUS
 90
10
 70
0
 10
23.1799246857
 20
-29.138548412
 10
23.1880899796
 20
-29.1139809565
 10
23.1942502319
 20
-29.0886953039
 10
23.1983306025
 20
-29.0629635532
 10
23.2002788445
 20
-29.0370531972
 10
23.2000630651
 20
-29.0112581447
 10
23.1976816878
 20
-28.9858943866
 10
23.1931633169
 20
-28.9612504477
 10
23.186556758
 20
-28.9375840216
 10
23.1779336192
 20
-28.9151523992
  0
LINE
  5
637
100
AcDbEntity
  8
0
100
AcDbLine
 62
7
  6
CONTINUOUS
 10
-11.0419806096
 20
34.0555558526
 11
-12.4019125497
 21
33.9818076652
  0
LWPOLYLINE
  5
638
100
AcDbEntity
  8
0
100
AcDbPolyline
 62
253
  6
CONTINUOUS
 90
4
 70
0
 10
37.4181126373
 20
14.8312272011
 10
37.4123481785
 20
14.8350663195
 10
37.4020615287
 20
14.835850471
 10
37.3871299633
 20
14.8338653939
  0
LWPOLYLINE
  5
639
100
AcDbEntity
  8
0
100
AcDbPolyline
 62
253
  6
CONTINUOUS
 90
12
 70
0
 10
37.3903313707
 20
14.8791427981
 10
37.3845669129
 20
14.8829819163
 10
37.3742802425
 20
14.8837660672
 10
37.3593486478
 20
14.8817809815
 10
37.3398530118
 20
14.8770372446
 10
37.3159002233
 20
14.8695607369
 10
37.2876234045
 20
14.8593931129
 10
37.255176847
 20
14.8465900042
 10
37.2187396953
 20
14.8312222324
 10
37.1785193711
 20
14.8133776764
 10
37.1347410539
 20
14.7931568812
 10
37.0876441434
 20
14.7706710107
  0
LINE
  5
63A
100
AcDbEntity
  8
0
100
AcDbLine
 62
7
  6
CONTINUOUS
 10
30.3562906784
 20
11.5006588761
 11
29.0100811459
 21
13.8225268631
  0
LWPOLYLINE
  5
63B
100
AcDbEntity
  8
RACCORDO
100
AcDbPolyline
 62
253
  6
CONTINUOUS
 90
8
 70
0
 10
-14.7404075641
 20
32.5184442741
 10
-14.714566452
 20
32.5256547574
 10
-14.687445173
 20
32.5293088114
 10
-14.6592500579
 20
32.5293786367
 10
-14.6301956209
 20
32.5258636947
 10
-14.6005029071
 20
32.5187907221
 10
-14.5703978105
 20
32.5082135265
 10
-14.5401093675
 20
32.4942125723
  0
LWPOLYLINE
  5
63C
100
AcDbEntity
  8
0
100
AcDbPolyline
 62
7
  6
CONTINUOUS
 90
9
 70
0
 10
37.5530047937
 20
14.3295115846
 10
37.5529387005
 20
14.3411394657
 10
37.5499240646
 20
14.4080761454
 10
37.5424253851
 20
14.4747169317
 10
37.5304639029
 20
14.540766212
 10
37.5140673649
 20
14.6059721981
 10
37.4932900184
 20
14.670028898
 10
37.4682154245
 20
14.7326171182
 10
37.4389316431
 20
14.7934662893
  0
LINE
  5
63D
100
AcDbEntity
  8
0
100
AcDbLine
 62
253
  6
CONTINUOUS
 10
37.2723446277
 20
13.9823120539
 11
37.2723446277
 21
3.4796468424
  0
LINE
  5
63E
100
AcDbEntity
  8
0
100
AcDbLine
 62
253
  6
CONTINUOUS
 10
37.2723446277
 20
-6.5962170609
 11
37.2723446277
 21
-17.0988822725
  0
LINE
  5
63F
100
AcDbEntity
  8
0
100
AcDbLine
 62
7
  6
CONTINUOUS
 10
37.5530048274
 20
14.3296412392
 11
37.5530048274
 21
4.4164708035
  0
LINE
  5
640
100
AcDbEntity
  8
0
100
AcDbLine
 62
7
  6
CONTINUOUS
 10
37.5530048274
 20
-6.8383674556
 11
37.5530048274
 21
-16.7515530872
  0
LINE
  5
641
100
AcDbEntity
  8
0
100
AcDbLine
 62
253
  6
CONTINUOUS
 10
39.148207931
 20
4.4100888699
 11
39.148207931
 21
-5.5841457733
  0
LINE
  5
642
100
AcDbEntity
  8
0
100
AcDbLine
 62
7
  6
CONTINUOUS
 10
39.4288681307
 20
4.7574180551
 11
39.4288681307
 21
-5.2368165881
  0
LINE
  5
643
100
AcDbEntity
  8
0
100
AcDbLine
 62
253
  6
CONTINUOUS
 10
37.5530048274
 20
14.3296413788
 11
37.5530047937
 21
14.3295115846
  0
LWPOLYLINE
  5
644
100
AcDbEntity
  8
0
100
AcDbPolyline
 62
253
  6
CONTINUOUS
 90
12
 70
0
 10
39.148207931
 20
-5.5841457733
 10
39.1471029647
 20
-5.6474018017
 10
39.1419828947
 20
-5.7083625612
 10
39.1328763435
 20
-5.7666872666
 10
39.1198342187
 20
-5.8220498688
 10
39.102929429
 20
-5.8741408778
 10
39.0822564761
 20
-5.9226690922
 10
39.0579309269
 20
-5.9673632279
 10
39.0300887669
 20
-6.0079734339
 10
38.9988856403
 20
-6.0442726896
 10
38.9644959802
 20
-6.0760580734
 10
38.9271120329
 20
-6.1031518975
  0
LWPOLYLINE
  5
645
100
AcDbEntity
  8
0
100
AcDbPolyline
 62
7
  6
CONTINUOUS
 90
15
 70
0
 10
37.553004652
 20
4.4176869264
 10
37.5521042257
 20
4.3705317084
 10
37.5485557489
 20
4.3107338922
 10
37.5421021496
 20
4.2479216009
 10
37.5326755334
 20
4.1829746415
 10
37.5202260054
 20
4.1163576826
 10
37.5046962194
 20
4.0481063783
 10
37.4860422161
 20
3.9783708698
 10
37.4643048849
 20
3.9077862387
 10
37.4394760152
 20
3.8363690088
 10
37.4115857095
 20
3.7642960433
 10
37.3808201891
 20
3.6924285464
 10
37.3473183149
 20
3.621104324
 10
37.3111255437
 20
3.550150304
 10
37.2723446277
 20
3.4796468424
  0
LWPOLYLINE
  5
646
100
AcDbEntity
  8
0
100
AcDbPolyline
 62
253
  6
CONTINUOUS
 90
9
 70
0
 10
37.2723446277
 20
-17.0988822725
 10
37.2711333344
 20
-17.1545990373
 10
37.2668478921
 20
-17.2085904521
 10
37.259506646
 20
-17.2606253914
 10
37.2491410222
 20
-17.3104811053
 10
37.2357953937
 20
-17.3579441724
 10
37.21952689
 20
-17.4028114137
 10
37.2004051532
 20
-17.4448907624
 10
37.1785120391
 20
-17.4840020862
  0
LWPOLYLINE
  5
647
100
AcDbEntity
  8
0
100
AcDbPolyline
 62
253
  6
CONTINUOUS
 90
12
 70
0
 10
37.5530047937
 20
14.3295115846
 10
37.5526025748
 20
14.3154607649
 10
37.5477721453
 20
14.278558015
 10
37.537499226
 20
14.2419332306
 10
37.5218399039
 20
14.2057879041
 10
37.5008813973
 20
14.1703223701
 10
37.4747383466
 20
14.1357293265
 10
37.443555338
 20
14.1021990553
 10
37.4075106142
 20
14.0699203023
 10
37.3668071557
 20
14.0390703484
 10
37.3216686305
 20
14.0098147402
 10
37.2723446277
 20
13.9823120539
  0
LWPOLYLINE
  5
648
100
AcDbEntity
  8
0
100
AcDbPolyline
 62
253
  6
CONTINUOUS
 90
12
 70
0
 10
39.4288681257
 20
4.7573680761
 10
39.4284312498
 20
4.742639939
 10
39.4235048232
 20
4.7057028495
 10
39.4131180566
 20
4.6690267613
 10
39.3973260229
 20
4.632829421
 10
39.3762338109
 20
4.5973413017
 10
39.3499616421
 20
4.562747344
 10
39.3186687274
 20
4.5292432876
 10
39.2825983846
 20
4.4970602948
 10
39.2420029069
 20
4.4663803275
 10
39.1971155442
 20
4.4373415363
 10
39.148207931
 20
4.4100888699
  0
LINE
  5
649
100
AcDbEntity
  8
RACCORDO
100
AcDbLine
 62
253
  6
CONTINUOUS
 10
21.4085611432
 20
-29.2198853378
 11
20.7862431111
 21
-29.9649447553
  0
LINE
  5
64A
100
AcDbEntity
  8
RACCORDO
100
AcDbLine
 62
253
  6
CONTINUOUS
 10
21.7615973312
 20
-29.3456551758
 11
21.0503767231
 21
-30.1971516529
  0
LINE
  5
64B
100
AcDbEntity
  8
0
100
AcDbLine
 62
7
  6
CONTINUOUS
 10
29.0100811459
 20
-22.1365438723
 11
30.3562906784
 21
-21.1608854178
  0
LINE
  5
64C
100
AcDbEntity
  8
0
100
AcDbLine
 62
253
  6
CONTINUOUS
 10
37.1120430844
 20
-17.581405175
 11
37.0876441282
 21
-17.5982113795
  0
LINE
  5
64D
100
AcDbEntity
  8
0
100
AcDbLine
 62
253
  6
CONTINUOUS
 10
37.1397659929
 20
-17.5613131319
 11
37.11542541
 21
-17.5780770391
  0
LWPOLYLINE
  5
64E
100
AcDbEntity
  8
0
100
AcDbPolyline
 62
7
  6
CONTINUOUS
 90
3
 70
0
 10
37.0767097128
 20
-17.6058714646
 10
37.0902292346
 20
-17.5967744365
 10
37.1035977769
 20
-17.5874589949
  0
LWPOLYLINE
  5
64F
100
AcDbEntity
  8
0
100
AcDbPolyline
 62
253
  6
CONTINUOUS
 90
3
 70
0
 10
37.0374881232
 20
-17.6277581525
 10
37.0040262961
 20
-17.6494474797
 10
36.9927001933
 20
-17.6556928465
  0
LWPOLYLINE
  5
650
100
AcDbEntity
  8
0
100
AcDbPolyline
 62
7
  6
CONTINUOUS
 90
3
 70
0
 10
37.0492325863
 20
-17.6234001282
 10
37.0630423494
 20
-17.6147478845
 10
37.0767097128
 20
-17.6058714646
  0
LINE
  5
651
100
AcDbEntity
  8
0
100
AcDbLine
 62
253
  6
CONTINUOUS
 10
37.11542541
 20
-17.5780770391
 11
37.0652693899
 21
-17.607623822
  0
LINE
  5
652
100
AcDbEntity
  8
0
100
AcDbLine
 62
253
  6
CONTINUOUS
 10
37.0876441282
 20
-17.5982113795
 11
37.0374881242
 21
-17.6277581518
  0
LWPOLYLINE
  5
653
100
AcDbEntity
  8
0
100
AcDbPolyline
 62
7
  6
CONTINUOUS
 90
5
 70
0
 10
36.9927001933
 20
-17.6556928465
 10
37.0070180421
 20
-17.6479716625
 10
37.0212157054
 20
-17.6400144255
 10
37.0352884073
 20
-17.6318233677
 10
37.0492325863
 20
-17.6234001282
  0
LINE
  5
654
100
AcDbEntity
  8
0
100
AcDbLine
 62
253
  6
CONTINUOUS
 10
30.3562906784
 20
-21.1608854178
 11
37.0374881232
 21
-17.6277581525
  0
LINE
  5
655
100
AcDbEntity
  8
0
100
AcDbLine
 62
7
  6
CONTINUOUS
 10
30.3345985761
 20
-21.1766066576
 11
36.9927001933
 21
-17.6556928465
  0
LINE
  5
656
100
AcDbEntity
  8
DRAFT
100
AcDbLine
 62
7
  6
CONTINUOUS
 10
23.7123176857
 20
-24.9380884577
 11
29.0100811459
 21
-22.1365438723
  0
LINE
  5
657
100
AcDbEntity
  8
0
100
AcDbLine
 62
253
  6
CONTINUOUS
 10
23.7123176857
 20
-24.2419997235
 11
37.2723446277
 21
-17.0988822725
  0
LINE
  5
658
100
AcDbEntity
  8
0
100
AcDbLine
 62
253
  6
CONTINUOUS
 10
23.7123176857
 20
-24.6416586914
 11
37.0652693899
 21
-17.607623822
  0
LINE
  5
659
100
AcDbEntity
  8
0
100
AcDbLine
 62
7
  6
CONTINUOUS
 10
27.3078770207
 20
-23.330168831
 11
23.7123176857
 21
-25.1795622614
  0
LINE
  5
65A
100
AcDbEntity
  8
0
100
AcDbLine
 62
7
  6
CONTINUOUS
 10
28.2680304447
 20
-22.70841773
 11
23.7123176857
 21
-25.038169498
  0
LINE
  5
65B
100
AcDbEntity
  8
RACCORDO
100
AcDbLine
 62
253
  6
CONTINUOUS
 10
22.9944412628
 20
-27.891674569
 11
23.7123176857
 21
-27.5375108017
  0
LWPOLYLINE
  5
65C
100
AcDbEntity
  8
RACCORDO
100
AcDbPolyline
 62
253
  6
CONTINUOUS
 90
16
 70
0
 10
16.815564331
 20
-29.6990655489
 10
16.7765552393
 20
-29.7178796735
 10
16.7342427447
 20
-29.734565378
 10
16.6890801979
 20
-29.7489438858
 10
16.6415514863
 20
-29.7608611406
 10
16.592165849
 20
-29.7701894567
 10
16.5414524211
 20
-29.7768288872
 10
16.4899545639
 20
-29.7807082951
 10
16.4382240435
 20
-29.781786115
 10
16.3868151186
 20
-29.7800507987
 10
16.3362786024
 20
-29.775520939
 10
16.2871559609
 20
-29.7682450705
 10
16.2399735111
 20
-29.7583011492
 10
16.1952367823
 20
-29.7457957181
 10
16.1534250994
 20
-29.7308627644
 10
16.1149864474
 20
-29.7136622852
  0
LINE
  5
65D
100
AcDbEntity
  8
RACCORDO
100
AcDbLine
 62
7
  6
CONTINUOUS
 10
22.8600468651
 20
-28.164325944
 11
22.849627663
 21
-28.1690950735
  0
LINE
  5
65E
100
AcDbEntity
  8
RACCORDO
100
AcDbLine
 62
253
  6
CONTINUOUS
 10
17.4967519904
 20
-30.199381217
 11
22.9944412628
 21
-27.891674569
  0
LINE
  5
65F
100
AcDbEntity
  8
RACCORDO
100
AcDbLine
 62
7
  6
CONTINUOUS
 10
17.3429447456
 20
-30.4805769151
 11
22.8493467409
 21
-28.1692130199
  0
LINE
  5
660
100
AcDbEntity
  8
0
100
AcDbLine
 62
7
  6
CONTINUOUS
 10
37.3664599009
 20
14.9182244051
 11
37.3903414538
 21
14.8791253433
  0
LINE
  5
661
100
AcDbEntity
  8
0
100
AcDbLine
 62
253
  6
CONTINUOUS
 10
37.0374881232
 20
14.7460444384
 11
37.0652693899
 21
14.6981288413
  0
LINE
  5
662
100
AcDbEntity
  8
0
100
AcDbLine
 62
7
  6
CONTINUOUS
 10
37.390331372
 20
14.8791427959
 11
37.4181126387
 21
14.8312271987
  0
LWPOLYLINE
  5
663
100
AcDbEntity
  8
0
100
AcDbPolyline
 62
253
  6
CONTINUOUS
 90
13
 70
0
 10
37.0652693899
 20
14.6981288413
 10
37.0971984911
 20
14.6411129141
 10
37.1267980199
 20
14.5827636456
 10
37.1539412673
 20
14.5233308161
 10
37.1785120391
 20
14.4630688444
 10
37.2004051532
 20
14.4022356987
 10
37.21952689
 20
14.3410917921
 10
37.2357953937
 20
14.2798988682
 10
37.2491410222
 20
14.2189188803
 10
37.259506646
 20
14.1584128706
 10
37.2668478921
 20
14.0986398518
 10
37.2711333344
 20
14.039855699
 10
37.2723446277
 20
13.9823120539
  0
LINE
  5
664
100
AcDbEntity
  8
0
100
AcDbLine
 62
7
  6
CONTINUOUS
 10
37.4389316431
 20
14.7934662893
 11
37.4181183515
 21
14.8312173251
  0
LWPOLYLINE
  5
665
100
AcDbEntity
  8
0
100
AcDbPolyline
 62
253
  6
CONTINUOUS
 90
12
 70
0
 10
39.4288681289
 20
-5.2368466311
 10
39.4284312487
 20
-5.2515947234
 10
39.4235048201
 20
-5.2885318083
 10
39.4131180565
 20
-5.3252078821
 10
39.3973260325
 20
-5.3614052035
 10
39.376233828
 20
-5.3968933162
 10
39.3499616485
 20
-5.4314872917
 10
39.318668707
 20
-5.4649913755
 10
39.282598342
 20
-5.4971743834
 10
39.2420028611
 20
-5.5278543475
 10
39.1971155113
 20
-5.5568931262
 10
39.148207931
 20
-5.5841457724
  0
LWPOLYLINE
  5
666
100
AcDbEntity
  8
0
100
AcDbPolyline
 62
253
  6
CONTINUOUS
 90
11
 70
0
 10
37.5526025746
 20
-16.7657335644
 10
37.5477721447
 20
-16.8026363145
 10
37.5374992248
 20
-16.8392610992
 10
37.5218399019
 20
-16.8754064262
 10
37.5008813946
 20
-16.9108719603
 10
37.4747383434
 20
-16.9454650038
 10
37.4435553346
 20
-16.9789952745
 10
37.407510611
 20
-17.0112740268
 10
37.3668071531
 20
-17.0421239795
 10
37.3216686289
 20
-17.0713795862
 10
37.2723446277
 20
-17.0988822708
  0
LWPOLYLINE
  5
667
100
AcDbEntity
  8
0
100
AcDbPolyline
 62
253
  6
CONTINUOUS
 90
4
 70
0
 10
37.1785120391
 20
-17.4840020862
 10
37.1539412673
 20
-17.5199779582
 10
37.1267980199
 20
-17.5526643736
 10
37.0971984911
 20
-17.5819214091
  0
LWPOLYLINE
  5
668
100
AcDbEntity
  8
RACCORDO
100
AcDbPolyline
 62
7
  6
CONTINUOUS
 90
9
 70
0
 10
23.177354425
 20
-29.5765154215
 10
23.1948915914
 20
-29.5573930178
 10
23.2104158426
 20
-29.536460329
 10
23.2237223803
 20
-29.5139376368
 10
23.2346414469
 20
-29.4900493306
 10
23.2430252063
 20
-29.4650347361
 10
23.2487429238
 20
-29.4391753879
 10
23.251697065
 20
-29.4127866589
 10
23.2521225255
 20
-29.3982537118
  0
LINE
  5
669
100
AcDbEntity
  8
0
100
AcDbLine
 62
253
  6
CONTINUOUS
 10
37.0971984911
 20
-17.5819214091
 11
37.0652693899
 21
-17.607623822
  0
LWPOLYLINE
  5
66A
100
AcDbEntity
  8
0
100
AcDbPolyline
 62
7
  6
CONTINUOUS
 90
14
 70
0
 10
37.1397659929
 20
-17.5613131319
 10
37.1939591043
 20
-17.5191319306
 10
37.2488650507
 20
-17.4697301797
 10
37.2999891807
 20
-17.4163947043
 10
37.34682911
 20
-17.3597002645
 10
37.3892718715
 20
-17.2998754597
 10
37.427441479
 20
-17.2366928013
 10
37.4610514545
 20
-17.1704221773
 10
37.489740984
 20
-17.1015893101
 10
37.5133743194
 20
-17.0302831335
 10
37.5316953912
 20
-16.9568937127
 10
37.5444594035
 20
-16.8820053749
 10
37.5515212257
 20
-16.8060049209
 10
37.5530047222
 20
-16.7513238223
  0
LINE
  5
66B
100
AcDbEntity
  8
0
100
AcDbLine
 62
253
  6
CONTINUOUS
 10
37.0652693899
 20
-17.607623822
 11
37.0374881232
 21
-17.6277581525
  0
LINE
  5
66C
100
AcDbEntity
  8
0
100
AcDbLine
 62
7
  6
CONTINUOUS
 10
37.1398369839
 20
-17.5612616892
 11
37.1120557178
 21
-17.5813960193
  0
LWPOLYLINE
  5
66D
100
AcDbEntity
  8
RACCORDO
100
AcDbPolyline
 62
253
  6
CONTINUOUS
 90
9
 70
0
 10
23.1215359406
 20
-29.6177056203
 10
23.1346753593
 20
-29.6082582822
 10
23.1463613635
 20
-29.5964959577
 10
23.1564659925
 20
-29.5825415183
 10
23.16487269
 20
-29.5665490676
 10
23.1714844651
 20
-29.5487000279
 10
23.1762279042
 20
-29.5291938959
 10
23.1790516891
 20
-29.5082435312
 10
23.1799246857
 20
-29.4860799288
  0
LINE
  5
66E
100
AcDbEntity
  8
0
100
AcDbLine
 62
7
  6
CONTINUOUS
 10
37.1035977769
 20
-17.5874589949
 11
37.1120590004
 21
-17.5813936402
  0
LWPOLYLINE
  5
66F
100
AcDbEntity
  8
RACCORDO
100
AcDbPolyline
 62
7
  6
CONTINUOUS
 90
4
 70
0
 10
23.1161562886
 20
-29.6206849162
 10
23.1370449629
 20
-29.6086733046
 10
23.1580099693
 20
-29.5936532169
 10
23.177354425
 20
-29.5765154215
  0
LWPOLYLINE
  5
670
100
AcDbEntity
  8
RACCORDO
100
AcDbPolyline
 62
7
  6
CONTINUOUS
 90
10
 70
0
 10
22.5871310126
 20
-29.892074024
 10
22.5927425121
 20
-29.8889476426
 10
22.6058262196
 20
-29.8794652927
 10
22.6174866215
 20
-29.8676682663
 10
22.6275959687
 20
-29.8536858089
 10
22.6360435065
 20
-29.8376711084
 10
22.6427366884
 20
-29.8197996163
 10
22.6476021862
 20
-29.8002671279
 10
22.6505866939
 20
-29.7792876363
 10
22.651657514
 20
-29.7570909874
  0
LINE
  5
671
100
AcDbEntity
  8
RACCORDO
100
AcDbLine
 62
253
  6
CONTINUOUS
 10
23.1162358352
 20
-29.6206441561
 11
23.1215359406
 21
-29.6177056203
  0
LWPOLYLINE
  5
672
100
AcDbEntity
  8
RACCORDO
100
AcDbPolyline
 62
253
  6
CONTINUOUS
 90
10
 70
0
 10
20.9841179115
 20
-30.6729748585
 10
20.9917563558
 20
-30.6688038858
 10
21.0048342859
 20
-30.6592504957
 10
21.0164804332
 20
-30.6473763655
 10
21.0265807718
 20
-30.6332890844
 10
21.0350050457
 20
-30.6171603085
 10
21.041636427
 20
-30.5992462188
 10
21.0464193032
 20
-30.5797928539
 10
21.0493353623
 20
-30.5590061835
 10
21.0503767231
 20
-30.5371255871
  0
LINE
  5
673
100
AcDbEntity
  8
RACCORDO
100
AcDbLine
 62
253
  6
CONTINUOUS
 10
23.1799246857
 20
-29.4860799288
 11
22.651657514
 21
-29.7570909874
  0
LINE
  5
674
100
AcDbEntity
  8
RACCORDO
100
AcDbLine
 62
7
  6
CONTINUOUS
 10
23.1162366482
 20
-29.620643739
 11
22.5871581525
 21
-29.8920710222
  0
LINE
  5
675
100
AcDbEntity
  8
RACCORDO
100
AcDbLine
 62
7
  6
CONTINUOUS
 10
22.5853959773
 20
-29.8929415864
 11
22.5871310126
 21
-29.892074024
  0
LINE
  5
676
100
AcDbEntity
  8
RACCORDO
100
AcDbLine
 62
7
  6
CONTINUOUS
 10
22.8598665687
 20
-28.164415125
 11
23.5814339979
 21
-27.8084304027
  0
LINE
  5
677
100
AcDbEntity
  8
RACCORDO
100
AcDbLine
 62
253
  6
CONTINUOUS
 10
22.651657514
 20
-29.7570909874
 11
21.0503767231
 21
-30.5371255871
  0
LINE
  5
678
100
AcDbEntity
  8
RACCORDO
100
AcDbLine
 62
7
  6
CONTINUOUS
 10
22.5853959756
 20
-29.8929415872
 11
20.9841151306
 21
-30.6729762132
  0
ELLIPSE
  5
679
100
AcDbEntity
  8
RACCORDO
100
AcDbEllipse
 62
7
  6
CONTINUOUS
 10
-22.0142066914
 20
-1.6943325237
 30
0.0
 11
-0.0695872779
 21
0.1875252868
 31
0.0
 40
0.661248485
 41
-2.4456690409
 42
-2.1863515627
  0
ELLIPSE
  5
67A
100
AcDbEntity
  8
RACCORDO
100
AcDbEllipse
 62
7
  6
CONTINUOUS
 10
-22.4944531832
 20
-0.1995087038
 30
0.0
 11
0.1569740969
 21
0.3167936318
 31
0.0
 40
0.5590165794
 41
-3.1436046984
 42
-1.5728083716
  0
ELLIPSE
  5
67B
100
AcDbEntity
  8
RACCORDO
100
AcDbEllipse
 62
7
  6
CONTINUOUS
 10
5.5629577749
 20
-15.4829147568
 30
0.0
 11
-0.0695872779
 21
0.1875252868
 31
0.0
 40
0.661248485
 41
-2.4456690409
 42
-2.1863515627
  0
ELLIPSE
  5
67C
100
AcDbEntity
  8
RACCORDO
100
AcDbEllipse
 62
7
  6
CONTINUOUS
 10
5.0827112831
 20
-13.988090937
 30
0.0
 11
0.1569740969
 21
0.3167936318
 31
0.0
 40
0.5590165794
 41
-3.1436046984
 42
-1.5728083716
  0
ELLIPSE
  5
67D
100
AcDbEntity
  8
0
100
AcDbEllipse
 62
7
  6
CONTINUOUS
 10
-11.2162342974
 20
5.5982963764
 30
0.0
 11
3.9064690331
 21
0.0
 31
0.0
 40
0.61227914
 41
-2.8577790499
 42
-2.7430335779
  0
ELLIPSE
  5
67E
100
AcDbEntity
  8
0
100
AcDbEllipse
 62
7
  6
CONTINUOUS
 10
16.3609301689
 20
-8.1902858567
 30
0.0
 11
3.9064690331
 21
-0.0
 31
0.0
 40
0.61227914
 41
-2.8577790499
 42
-2.7430335779
  0
ELLIPSE
  5
67F
100
AcDbEntity
  8
0
100
AcDbEllipse
 62
7
  6
CONTINUOUS
 10
13.0350052898
 20
22.5781675124
 30
0.0
 11
2.7499350056
 21
-0.0386453369
 31
0.0
 40
0.4892375088
 41
6.5144445661
 42
8.3396071599
  0
ELLIPSE
  5
680
100
AcDbEntity
  8
0
100
AcDbEllipse
 62
7
  6
CONTINUOUS
 10
13.0350052898
 20
22.9696097577
 30
0.0
 11
2.7499350056
 21
-0.0386453369
 31
0.0
 40
0.4892375088
 41
6.2451510995
 42
8.5500020353
  0
ELLIPSE
  5
681
100
AcDbEntity
  8
0
100
AcDbEllipse
 62
7
  6
CONTINUOUS
 10
12.2571743678
 20
24.180021243
 30
0.0
 11
-0.2236303276
 21
0.4472439726
 31
0.0
 40
0.6123267458
 41
-3.1509867977
 42
-2.4810527805
  0
ELLIPSE
  5
682
100
AcDbEntity
  8
RACCORDO
100
AcDbEllipse
 62
7
  6
CONTINUOUS
 10
23.3587104391
 20
10.5559912022
 30
0.0
 11
-0.2237046003
 21
0.4472532382
 31
0.0
 40
0.6122950388
 41
-2.2557482655
 42
-0.6847996396
  0
ELLIPSE
  5
683
100
AcDbEntity
  8
RACCORDO
100
AcDbEllipse
 62
7
  6
CONTINUOUS
 10
23.3587104391
 20
-27.3607731283
 30
0.0
 11
-0.2236445579
 21
0.4471998343
 31
0.0
 40
0.6124778111
 41
-3.1447613139
 42
-2.255529033
  0
ELLIPSE
  5
684
100
AcDbEntity
  8
0
100
AcDbEllipse
 62
7
  6
CONTINUOUS
 10
28.0088624403
 20
-22.8208397051
 30
0.0
 11
0.9927147821
 21
0.620457446
 31
0.0
 40
0.0764819879
 41
-2.4014426144
 42
-1.220907601
  0
ELLIPSE
  5
685
100
AcDbEntity
  8
RACCORDO
100
AcDbEllipse
 62
7
  6
CONTINUOUS
 10
-19.8080417995
 20
32.7292104003
 30
0.0
 11
0.4999985559
 21
0.0023864752
 31
0.0
 40
0.5035541159
 41
2.3596088132
 42
3.0002042076
  0
ELLIPSE
  5
686
100
AcDbEntity
  8
RACCORDO
100
AcDbEllipse
 62
7
  6
CONTINUOUS
 10
12.0117633539
 20
16.8193078236
 30
0.0
 11
0.4999985559
 21
0.0023864752
 31
0.0
 40
0.5035541159
 41
2.3596088132
 42
3.0002042076
  0
ELLIPSE
  5
687
100
AcDbEntity
  8
0
100
AcDbEllipse
 62
7
  6
CONTINUOUS
 10
16.3752137721
 20
19.9106521732
 30
0.0
 11
1.004787277
 21
0.6140102217
 31
0.0
 40
0.0864918533
 41
0.0551436128
 42
0.7299997
  0
ELLIPSE
  5
688
100
AcDbEntity
  8
0
100
AcDbEllipse
 62
7
  6
CONTINUOUS
 10
-15.4445913813
 20
35.8205547499
 30
0.0
 11
1.004787277
 21
0.6140102217
 31
0.0
 40
0.0864918533
 41
0.0551436128
 42
0.7299997
  0
ELLIPSE
  5
689
100
AcDbEntity
  8
0
100
AcDbEllipse
 62
7
  6
CONTINUOUS
 10
27.9083605445
 20
14.3054870114
 30
0.0
 11
0.4999863728
 21
0.0072295547
 31
0.0
 40
0.5106100819
 41
-0.775327905
 42
-0.0072947751
  0
ELLIPSE
  5
68A
100
AcDbEntity
  8
RACCORDO
100
AcDbEllipse
 62
7
  6
CONTINUOUS
 10
-24.9314835846
 20
33.4939517506
 30
0.0
 11
0.249929385
 21
0.0111824824
 31
0.0
 40
0.5313301283
 41
3.1178506709
 42
3.9032222197
  0
ELLIPSE
  5
68B
100
AcDbEntity
  8
RACCORDO
100
AcDbEllipse
 62
7
  6
CONTINUOUS
 10
-23.5982712509
 20
32.8273455838
 30
0.0
 11
0.249929385
 21
0.0111824824
 31
0.0
 40
0.5313301283
 41
-2.3799630874
 42
-0.8149845248
  0
ELLIPSE
  5
68C
100
AcDbEntity
  8
RACCORDO
100
AcDbEllipse
 62
7
  6
CONTINUOUS
 10
-11.5671654202
 20
26.8117926684
 30
0.0
 11
0.249929385
 21
0.0111824824
 31
0.0
 40
0.5313301283
 41
3.1178391771
 42
3.9032222197
  0
ELLIPSE
  5
68D
100
AcDbEntity
  8
RACCORDO
100
AcDbEllipse
 62
7
  6
CONTINUOUS
 10
-10.2339530865
 20
26.1451865016
 30
0.0
 11
0.249929385
 21
0.0111824824
 31
0.0
 40
0.5313301283
 41
-2.3799630874
 42
-0.8149845248
  0
ELLIPSE
  5
68E
100
AcDbEntity
  8
RACCORDO
100
AcDbEllipse
 62
7
  6
CONTINUOUS
 10
6.8883215688
 20
17.5840491739
 30
0.0
 11
0.249929385
 21
0.0111824824
 31
0.0
 40
0.5313301283
 41
3.1178391771
 42
3.9032222197
  0
ELLIPSE
  5
68F
100
AcDbEntity
  8
RACCORDO
100
AcDbEllipse
 62
7
  6
CONTINUOUS
 10
8.2215339025
 20
16.9174430071
 30
0.0
 11
0.249929385
 21
0.0111824824
 31
0.0
 40
0.5313301283
 41
-2.3799630874
 42
-0.8149845248
  0
ELLIPSE
  5
690
100
AcDbEntity
  8
RACCORDO
100
AcDbEllipse
 62
7
  6
CONTINUOUS
 10
20.2526397332
 20
10.9018900917
 30
0.0
 11
0.249929385
 21
0.0111824824
 31
0.0
 40
0.5313301283
 41
3.1178391771
 42
3.9032222197
  0
ELLIPSE
  5
691
100
AcDbEntity
  8
RACCORDO
100
AcDbEllipse
 62
7
  6
CONTINUOUS
 10
21.5858520669
 20
10.2352839249
 30
0.0
 11
0.249929385
 21
0.0111824824
 31
0.0
 40
0.5313301283
 41
-2.3799630874
 42
-1.3352760237
  0
ELLIPSE
  5
692
100
AcDbEntity
  8
RACCORDO
100
AcDbEllipse
 62
7
  6
CONTINUOUS
 10
-19.8080417995
 20
31.4966007951
 30
0.0
 11
0.4998587701
 21
0.0223649649
 31
0.0
 40
0.5313301283
 41
3.1178597451
 42
3.9032222197
  0
ELLIPSE
  5
693
100
AcDbEntity
  8
RACCORDO
100
AcDbEllipse
 62
7
  6
CONTINUOUS
 10
-14.2967346998
 20
29.9735568505
 30
0.0
 11
0.4999985559
 21
0.0023864752
 31
0.0
 40
0.5035541159
 41
-1.4342147631
 42
-0.7936193687
  0
ELLIPSE
  5
694
100
AcDbEntity
  8
RACCORDO
100
AcDbEllipse
 62
7
  6
CONTINUOUS
 10
-14.2967346998
 20
28.7409472453
 30
0.0
 11
0.4998587701
 21
0.0223649649
 31
0.0
 40
0.5313301283
 41
-2.3799630874
 42
-0.8149845248
  0
ELLIPSE
  5
695
100
AcDbEntity
  8
RACCORDO
100
AcDbEllipse
 62
7
  6
CONTINUOUS
 10
12.0117633539
 20
15.5866982184
 30
0.0
 11
0.4998587701
 21
0.0223649649
 31
0.0
 40
0.5313301283
 41
3.1178597451
 42
3.9032222197
  0
ELLIPSE
  5
696
100
AcDbEntity
  8
RACCORDO
100
AcDbEllipse
 62
7
  6
CONTINUOUS
 10
17.5230704536
 20
14.0636542738
 30
0.0
 11
0.4999985559
 21
0.0023864752
 31
0.0
 40
0.5035541159
 41
-1.4342147631
 42
-0.7936193687
  0
ELLIPSE
  5
697
100
AcDbEntity
  8
RACCORDO
100
AcDbEllipse
 62
7
  6
CONTINUOUS
 10
17.5230704536
 20
12.8310446686
 30
0.0
 11
0.4998587701
 21
0.0223649649
 31
0.0
 40
0.5313301283
 41
-2.3799630874
 42
-0.8149845248
  0
ELLIPSE
  5
698
100
AcDbEntity
  8
RACCORDO
100
AcDbEllipse
 62
7
  6
CONTINUOUS
 10
-14.1220953046
 20
35.5583926785
 30
0.0
 11
0.4279688089
 21
-0.0020233653
 31
0.0
 40
0.4964289597
 41
-0.7830511342
 42
2.3527237553
  0
ELLIPSE
  5
699
100
AcDbEntity
  8
RACCORDO
100
AcDbEllipse
 62
7
  6
CONTINUOUS
 10
-8.5671068754
 20
32.7808984639
 30
0.0
 11
0.4279688089
 21
-0.0020233653
 31
0.0
 40
0.4964289597
 41
-0.77723337
 42
2.3585415194
  0
ELLIPSE
  5
69A
100
AcDbEntity
  8
0
100
AcDbEllipse
 62
7
  6
CONTINUOUS
 10
28.0088624403
 20
14.0938278392
 30
0.0
 11
-0.7356038977
 21
1.2035991204
 31
0.0
 40
0.5552491559
 41
5.0522269171
 42
6.2327619305
  0
ELLIPSE
  5
69B
100
AcDbEntity
  8
RACCORDO
100
AcDbEllipse
 62
7
  6
CONTINUOUS
 10
17.6977098488
 20
19.6484901018
 30
0.0
 11
0.4279688089
 21
-0.0020233653
 31
0.0
 40
0.4964289597
 41
-0.7830511342
 42
2.3527237553
  0
ELLIPSE
  5
69C
100
AcDbEntity
  8
0
100
AcDbEllipse
 62
7
  6
CONTINUOUS
 10
-3.8109427131
 20
30.0037304159
 30
0.0
 11
-0.7356038977
 21
1.2035991204
 31
0.0
 40
0.5552491559
 41
5.0780934938
 42
6.2327619305
  0
ELLIPSE
  5
69D
100
AcDbEntity
  8
RACCORDO
100
AcDbEllipse
 62
7
  6
CONTINUOUS
 10
23.252698278
 20
16.8709958872
 30
0.0
 11
0.4279688089
 21
-0.0020233653
 31
0.0
 40
0.4964289597
 41
-0.77723337
 42
2.3585415194
  0
ELLIPSE
  5
69E
100
AcDbEntity
  8
0
100
AcDbEllipse
 62
7
  6
CONTINUOUS
 10
27.9083605445
 20
-22.9677931566
 30
0.0
 11
0.499443764
 21
0.3120915671
 31
0.0
 40
0.0755486457
 41
5.9935627714
 42
7.0039564932
  0
ELLIPSE
  5
69F
100
AcDbEntity
  8
0
100
AcDbEllipse
 62
7
  6
CONTINUOUS
 10
27.9083605445
 20
15.0483899677
 30
0.0
 11
-0.3739417019
 21
0.598522373
 31
0.0
 40
0.554557473
 41
-3.1836090632
 42
-2.1732153414
  0
ELLIPSE
  5
6A0
100
AcDbEntity
  8
DRAFT
100
AcDbEllipse
 62
7
  6
CONTINUOUS
 10
23.252698278
 20
15.6394841007
 30
0.0
 11
0.4279673669
 21
-0.0030279657
 31
0.0
 40
0.4946372042
 41
-0.7760807437
 42
0.0037000959
  0
ELLIPSE
  5
6A1
100
AcDbEntity
  8
DRAFT
100
AcDbEllipse
 62
7
  6
CONTINUOUS
 10
17.6977098488
 20
18.4169783153
 30
0.0
 11
0.4279673669
 21
-0.0030279657
 31
0.0
 40
0.4946372042
 41
-0.7818985079
 42
0.0037086477
  0
ELLIPSE
  5
6A2
100
AcDbEntity
  8
DRAFT
100
AcDbEllipse
 62
7
  6
CONTINUOUS
 10
-8.5671068754
 20
31.5493866774
 30
0.0
 11
0.4279673669
 21
-0.0030279657
 31
0.0
 40
0.4946372042
 41
-0.7760807437
 42
0.0037000959
  0
ELLIPSE
  5
6A3
100
AcDbEntity
  8
DRAFT
100
AcDbEllipse
 62
7
  6
CONTINUOUS
 10
-14.1220953046
 20
34.326880892
 30
0.0
 11
0.4279673669
 21
-0.0030279657
 31
0.0
 40
0.4946372042
 41
-0.7818985079
 42
0.0037086477
  0
ENDSEC
  0
SECTION
  2
OBJECTS
  0
DICTIONARY
  5
C
100
AcDbDictionary
280
0
281
1
  3
ACAD_GROUP
350
D
  3
ACAD_MLINESTYLE
350
17
  3
ACAD_LAYOUT
350
1A
  3
ACAD_PLOTSETTINGS
350
19
  3
ACAD_PLOTSTYLENAME
350
E
  0
DICTIONARY
  5
D
102
{ACAD_REACTORS
330
C
102
}
100
AcDbDictionary
280
0
281
1
  0
ACDBDICTIONARYWDFLT
  5
E
102
{ACAD_REACTORS
330
C
102
}
100
AcDbDictionary
281
1
  3
Normal
350
F
100
AcDbDictionaryWithDefault
340
F
  0
DICTIONARY
  5
17
102
{ACAD_REACTORS
330
C
102
}
100
AcDbDictionary
280
0
281
1
  3
Standard
350
18
  0
DICTIONARY
  5
19
102
{ACAD_REACTORS
330
C
102
}
100
AcDbDictionary
281
1
  0
DICTIONARY
  5
1A
102
{ACAD_REACTORS
330
C
102
}
100
AcDbDictionary
281
1
  3
Model
350
6A4
  3
Layout1
350
6A5
  0
ACDBPLACEHOLDER
  5
F
102
{ACAD_REACTORS
330
E
102
}
  0
MLINESTYLE
  5
18
102
{ACAD_REACTORS
330
17
102
}
100
AcDbMlineStyle
  2
STANDARD
 70
0
  3

 62
256
 51
90.0
 52
90.0
 71
2
 49
0.5
 62
256
  6
BYLAYER
 49
-0.5
 62
256
  6
BYLAYER
  0
LAYOUT
  5
6A4
102
{ACAD_REACTORS
330
1A
102
}
100
AcDbPlotSettings
  1

  2
none_device
  4
ANSI_C_(22.00_x_17.00_Inches)
  6

 40
0.0
 41
0.0
 42
0.0
 43
0.0
 44
558.8
 45
431.8
 46
0.0
 47
0.0
 48
0.0
 49
0.0
140
0.0
141
0.0
142
1.0
143
1.0
 70
1024
 72
1
 73
0
 74
0
  7

 75
0
147
1.0
148
0.0
149
0.0
100
AcDbLayout
  1
Model
 70
0
 71
0
 10
0.0
 20
0.0
 11
558.8
 21
431.8
 12
0.0
 22
0.0
 32
0.0
 14
0.0
 24
0.0
 34
0.0
 15
0.0
 25
0.0
 35
0.0
146
0.0
 13
0.0
 23
0.0
 33
0.0
 16
1.0
 26
0.0
 36
0.0
 17
0.0
 27
1.0
 37
0.0
 76
0
330
219
345
0
346
0
  0
LAYOUT
  5
6A5
102
{ACAD_REACTORS
330
1A
102
}
100
AcDbPlotSettings
  1

  2
none_device
  4
ANSI_C_(22.00_x_17.00_Inches)
  6

 40
0.0
 41
0.0
 42
0.0
 43
0.0
 44
558.8
 45
431.8
 46
0.0
 47
0.0
 48
0.0
 49
0.0
140
0.0
141
0.0
142
1.0
143
1.0
 70
0
 72
1
 73
0
 74
0
  7

 75
0
147
1.0
148
0.0
149
0.0
100
AcDbLayout
  1
Layout1
 70
0
 71
1
 10
0.0
 20
0.0
 11
558.8
 21
431.8
 12
0.0
 22
0.0
 32
0.0
 14
0.0
 24
0.0
 34
0.0
 15
0.0
 25
0.0
 35
0.0
146
0.0
 13
0.0
 23
0.0
 33
0.0
 16
1.0
 26
0.0
 36
0.0
 17
0.0
 27
1.0
 37
0.0
 76
0
330
21A
345
0
346
0
  0
ENDSEC
  0
EOF
