  0
SECTION
  2
HEADER
  9
$ACADVER
  1
AC1024
  9
$DWGCODEPAGE
  3
ANSI_1252
  9
$EXTMAX
 10
297.0
 20
210.0
 30
0.0
  9
$EXTMIN
 10
0.0
 20
0.0
 30
0.0
  9
$LIMMIN
 10
0.0
 20
0.0
  9
$LIMMAX
 10
297.0
 20
210.0
  9
$VIEWCTR
 10
148.5
 20
105.0
  9
$VIEWSIZE
 40
210.0
  9
$CLAYER
  8
0
  9
$LTSCALE
 40
16.335
  9
$CELTYPE
  6
BYLAYER
  9
$DIMSCALE
 40
1.0
  9
$DIMASZ
 40
3.0
  9
$DIMEXO
 40
0.5
  9
$DIMDLI
 40
11.286
  9
$DIMEXE
 40
1.5
  9
$DIMCEN
 40
2.673
  9
$DIMLFAC
 40
1.0
  9
$DIMBLK
  1
_FILLED
  9
$DIMALT
 70
0
  9
$DIMALTF
 40
0.0393700787
  9
$DIMTXT
 40
3.0
  9
$DIMTOL
 70
1
  9
$DIMLIM
 70
0
  9
$DIMTFAC
 40
1.0
  9
$DIMTP
 40
0.01
  9
$DIMTM
 40
0.01
  9
$DIMGAP
 40
0.625
  9
$DIMDSEP
 70
44
  9
$AUNITS
 70
0
  9
$PDMODE
 70
3
  9
$PDSIZE
 40
3.0
  9
$HANDSEED
  5
46A
  9
$TILEMODE
 70
1
  9
$MEASUREMENT
 70
1
  9
$INSUNITS
 70
4
  0
ENDSEC
  0
SECTION
  2
CLASSES
  0
CLASS
  1
ACDBDICTIONARYWDFLT
  2
AcDbDictionaryWithDefault
  3
AutoCAD 2000
 90
0
 91
1
280
0
281
0
  0
CLASS
  1
ACDBPLACEHOLDER
  2
AcDbPlaceHolder
  3
AutoCAD 2000
 90
0
 91
1
280
0
281
0
  0
CLASS
  1
LAYOUT
  2
AcDbLayout
  3
AutoCAD 2000
 90
0
 91
0
280
0
281
0
  0
ENDSEC
  0
SECTION
  2
TABLES
  0
TABLE
  2
VPORT
  5
8
100
AcDbSymbolTable
 70
2
  0
VPORT
  5
1F4
100
AcDbSymbolTableRecord
100
AcDbViewportTableRecord
  2
*ACTIVE
 70
0
 10
0.0
 20
0.0
 11
1.0
 21
1.0
 12
148.5
 22
105.0
 13
0.0
 23
0.0
 14
1.0
 24
1.0
 15
0.0
 25
0.0
 16
0.0
 26
0.0
 36
1.0
 17
0.0
 27
0.0
 37
0.0
 40
210.0
 41
1.4142857143
 42
50.0
 43
0.0
 44
0.0
 50
0.0
 51
0.0
 71
0
 72
100
 73
1
 74
1
 75
0
 76
0
 77
0
 78
0
  0
ENDTAB
  0
TABLE
  2
LTYPE
  5
5
100
AcDbSymbolTable
 70
6
  0
LTYPE
  5
14
100
AcDbSymbolTableRecord
100
AcDbLinetypeTableRecord
  2
BYBLOCK
 70
0
  3

 72
65
 73
0
 40
0.0
  0
LTYPE
  5
15
100
AcDbSymbolTableRecord
100
AcDbLinetypeTableRecord
  2
BYLAYER
 70
0
  3

 72
65
 73
0
 40
0.0
  0
LTYPE
  5
16
100
AcDbSymbolTableRecord
100
AcDbLinetypeTableRecord
  2
CONTINUOUS
 70
64
  3
Solid line
 72
65
 73
0
 40
0.0
  0
LTYPE
  5
1F5
100
AcDbSymbolTableRecord
100
AcDbLinetypeTableRecord
  2
CENTER
 70
64
  3
____ _ ____ _ ____ _ ____ _ ____ _ ____ _ ____
 72
65
 73
4
 40
0.6
 49
0.375
 74
0
 49
-0.075
 74
0
 49
0.075
 74
0
 49
-0.075
 74
0
  0
LTYPE
  5
1F6
100
AcDbSymbolTableRecord
100
AcDbLinetypeTableRecord
  2
HIDDEN
 70
64
  3
- - - - - - - - - - - - - - - - - - - -
 72
65
 73
2
 40
0.2
 49
0.1
 74
0
 49
-0.1
 74
0
  0
LTYPE
  5
1F7
100
AcDbSymbolTableRecord
100
AcDbLinetypeTableRecord
  2
PHANTOM
 70
64
  3
_____ _ _ _____ _ _ _____ _ _ _____
 72
65
 73
6
 40
0.8
 49
0.45
 74
0
 49
-0.05
 74
0
 49
0.1
 74
0
 49
-0.05
 74
0
 49
0.1
 74
0
 49
-0.05
 74
0
  0
LTYPE
  5
1F8
100
AcDbSymbolTableRecord
100
AcDbLinetypeTableRecord
  2
DOT
 70
64
  3
. . . . . . . . . . . . . . . . . . . .
 72
65
 73
2
 40
0.2
 49
0.1
 74
0
 49
-0.1
 74
0
  0
LTYPE
  5
1F9
100
AcDbSymbolTableRecord
100
AcDbLinetypeTableRecord
  2
DASHED
 70
64
  3
- - - - - - - - - - - - - - - - - - - -
 72
65
 73
2
 40
0.2
 49
0.1
 74
0
 49
-0.1
 74
0
  0
ENDTAB
  0
TABLE
  2
LAYER
  5
2
100
AcDbSymbolTable
 70
36
  0
LAYER
  5
10
100
AcDbSymbolTableRecord
100
AcDbLayerTableRecord
  2
0
 70
0
 62
7
  6
CONTINUOUS
370
-3
390
F
  0
LAYER
  5
1FA
100
AcDbSymbolTableRecord
100
AcDbLayerTableRecord
  2
DEFAULT_1
 70
0
 62
7
  6
CENTER
370
-3
390
F
  0
LAYER
  5
1FB
100
AcDbSymbolTableRecord
100
AcDbLayerTableRecord
  2
DEFAULT_2
 70
0
 62
7
  6
HIDDEN
370
-3
390
F
  0
LAYER
  5
1FC
100
AcDbSymbolTableRecord
100
AcDbLayerTableRecord
  2
DEFAULT_3
 70
0
 62
7
  6
PHANTOM
370
-3
390
F
  0
LAYER
  5
1FD
100
AcDbSymbolTableRecord
100
AcDbLayerTableRecord
  2
ASSI
 70
0
 62
7
  6
CONTINUOUS
370
-3
390
F
  0
LAYER
  5
1FE
100
AcDbSymbolTableRecord
100
AcDbLayerTableRecord
  2
COORDINATE
 70
0
 62
7
  6
CONTINUOUS
370
-3
390
F
  0
LAYER
  5
1FF
100
AcDbSymbolTableRecord
100
AcDbLayerTableRecord
  2
COORD_ORIGINE
 70
0
 62
7
  6
CONTINUOUS
370
-3
390
F
  0
LAYER
  5
200
100
AcDbSymbolTableRecord
100
AcDbLayerTableRecord
  2
COSMETICHE
 70
0
 62
7
  6
CONTINUOUS
370
-3
390
F
  0
LAYER
  5
201
100
AcDbSymbolTableRecord
100
AcDbLayerTableRecord
  2
CURVE
 70
0
 62
7
  6
CONTINUOUS
370
-3
390
F
  0
LAYER
  5
202
100
AcDbSymbolTableRecord
100
AcDbLayerTableRecord
  2
DRAFT
 70
0
 62
7
  6
CONTINUOUS
370
-3
390
F
  0
LAYER
  5
203
100
AcDbSymbolTableRecord
100
AcDbLayerTableRecord
  2
IMPORT_INC
 70
0
 62
7
  6
CONTINUOUS
370
-3
390
F
  0
LAYER
  5
204
100
AcDbSymbolTableRecord
100
AcDbLayerTableRecord
  2
INTF_1
 70
0
 62
7
  6
CONTINUOUS
370
-3
390
F
  0
LAYER
  5
205
100
AcDbSymbolTableRecord
100
AcDbLayerTableRecord
  2
INTF_11
 70
0
 62
7
  6
CONTINUOUS
370
-3
390
F
  0
LAYER
  5
206
100
AcDbSymbolTableRecord
100
AcDbLayerTableRecord
  2
INTF_GREEN
 70
0
 62
7
  6
CONTINUOUS
370
-3
390
F
  0
LAYER
  5
207
100
AcDbSymbolTableRecord
100
AcDbLayerTableRecord
  2
NOTE
 70
0
 62
7
  6
CONTINUOUS
370
-3
390
F
  0
LAYER
  5
208
100
AcDbSymbolTableRecord
100
AcDbLayerTableRecord
  2
PIANI
 70
0
 62
7
  6
CONTINUOUS
370
-3
390
F
  0
LAYER
  5
209
100
AcDbSymbolTableRecord
100
AcDbLayerTableRecord
  2
PIANI_ORIGINE
 70
0
 62
7
  6
CONTINUOUS
370
-3
390
F
  0
LAYER
  5
20A
100
AcDbSymbolTableRecord
100
AcDbLayerTableRecord
  2
PIANI_RIFERIMENTO
 70
0
 62
7
  6
CONTINUOUS
370
-3
390
F
  0
LAYER
  5
20B
100
AcDbSymbolTableRecord
100
AcDbLayerTableRecord
  2
PIANI_SFORMO
 70
0
 62
7
  6
CONTINUOUS
370
-3
390
F
  0
LAYER
  5
20C
100
AcDbSymbolTableRecord
100
AcDbLayerTableRecord
  2
PUNTI
 70
0
 62
7
  6
CONTINUOUS
370
-3
390
F
  0
LAYER
  5
20D
100
AcDbSymbolTableRecord
100
AcDbLayerTableRecord
  2
RACCORDO
 70
0
 62
7
  6
CONTINUOUS
370
-3
390
F
  0
LAYER
  5
20E
100
AcDbSymbolTableRecord
100
AcDbLayerTableRecord
  2
SMUSSO
 70
0
 62
7
  6
CONTINUOUS
370
-3
390
F
  0
LAYER
  5
20F
100
AcDbSymbolTableRecord
100
AcDbLayerTableRecord
  2
SUPERFICI
 70
0
 62
7
  6
CONTINUOUS
370
-3
390
F
  0
LAYER
  5
210
100
AcDbSymbolTableRecord
100
AcDbLayerTableRecord
  2
TRASH
 70
0
 62
7
  6
CONTINUOUS
370
-3
390
F
  0
LAYER
  5
211
100
AcDbSymbolTableRecord
100
AcDbLayerTableRecord
  2
XSEC_DATUMS
 70
0
 62
7
  6
CONTINUOUS
370
-3
390
F
  0
ENDTAB
  0
TABLE
  2
STYLE
  5
3
100
AcDbSymbolTable
 70
1
  0
STYLE
  5
11
100
AcDbSymbolTableRecord
100
AcDbTextStyleTableRecord
  2
STANDARD
 70
0
 40
0.0
 41
0.8
 50
0.0
 71
0
 42
0.2
  3
txt
  4

  0
STYLE
  5
212
100
AcDbSymbolTableRecord
100
AcDbTextStyleTableRecord
  2
TEXTSTYLE_1
 70
0
 40
0.0
 41
0.8
 50
0.0
 71
0
 42
0.2
  3
gdt
  4

  0
ENDTAB
  0
TABLE
  2
VIEW
  5
6
100
AcDbSymbolTable
 70
0
  0
ENDTAB
  0
TABLE
  2
UCS
  5
7
100
AcDbSymbolTable
 70
0
  0
ENDTAB
  0
TABLE
  2
APPID
  5
9
100
AcDbSymbolTable
 70
1
  0
APPID
  5
213
100
AcDbSymbolTableRecord
100
AcDbRegAppTableRecord
  2
ACAD
 70
0
  0
ENDTAB
  0
TABLE
  2
BLOCK_RECORD
  5
1
100
AcDbSymbolTable
 70
0
  0
BLOCK_RECORD
  5
214
100
AcDbSymbolTableRecord
100
AcDbBlockTableRecord
  2
*Model_Space
  0
BLOCK_RECORD
  5
215
100
AcDbSymbolTableRecord
100
AcDbBlockTableRecord
  2
*Paper_Space
  0
BLOCK_RECORD
  5
216
100
AcDbSymbolTableRecord
100
AcDbBlockTableRecord
  2
_FILLED
  0
ENDTAB
  0
TABLE
  2
DIMSTYLE
  5
A
100
AcDbSymbolTable
 70
1
100
AcDbDimStyleTable
 71
0
  0
DIMSTYLE
105
217
100
AcDbSymbolTableRecord
100
AcDbDimStyleTableRecord
  2
STANDARD
 70
0
  3

  4

 40
1.0
 41
3.0
 42
0.5
 43
0.38
 44
1.5
 45
0.0
 46
0.0
 47
0.01
 48
0.01
140
3.0
141
0.09
142
0.0
143
25.4
144
1.0
145
0.0
146
1.0
147
0.625
 71
1
 72
0
 73
0
 74
0
 75
0
 76
0
 77
1
 78
8
 79
2
170
0
171
1
172
0
173
0
174
0
175
0
176
0
177
0
178
0
270
2
179
2
271
2
272
2
273
2
274
2
275
0
280
0
281
0
282
0
283
1
284
8
285
0
286
0
287
3
288
0
340
11
278
44
341
216
342
216
343
216
344
216
  0
ENDTAB
  0
ENDSEC
  0
SECTION
  2
BLOCKS
  0
BLOCK
  5
20
100
AcDbEntity
  8
0
100
AcDbBlockBegin
  2
*Model_Space
 70
0
 10
0.0
 20
0.0
 30
0.0
  3
*Model_Space
  1

  0
ENDBLK
  5
21
100
AcDbEntity
  8
0
100
AcDbBlockEnd
  0
BLOCK
  5
1C
100
AcDbEntity
  8
0
100
AcDbBlockBegin
  2
*Paper_Space
 70
0
 10
0.0
 20
0.0
 30
0.0
  3
*Paper_Space
  1

  0
ENDBLK
  5
1D
100
AcDbEntity
  8
0
100
AcDbBlockEnd
  0
BLOCK
  5
218
100
AcDbEntity
  8
0
100
AcDbBlockBegin
  2
_FILLED
 70
64
 10
0.0
 20
0.0
  3
_FILLED
  1

  0
SOLID
  5
219
100
AcDbEntity
  8
0
  6
BYBLOCK
 62
0
100
AcDbTrace
 10
0.0
 20
0.0
 11
-1.0
 21
0.3166666667
 12
-1.0
 22
-0.3166666667
 13
-1.0
 23
-0.3166666667
  0
ENDBLK
  5
21A
100
AcDbEntity
  8
0
  6
BYBLOCK
 62
0
100
AcDbBlockEnd
  0
ENDSEC
  0
SECTION
  2
ENTITIES
  0
LINE
  5
21B
100
AcDbEntity
  8
RACCORDO
100
AcDbLine
 62
7
  6
CONTINUOUS
 10
-12.552279306
 20
30.9212800287
 11
-14.1354529714
 21
30.1090819705
  0
LINE
  5
21C
100
AcDbEntity
  8
RACCORDO
100
AcDbLine
 62
250
  6
CONTINUOUS
 10
-12.4396107021
 20
30.9146180927
 11
-14.0223673053
 21
30.1026339954
  0
LINE
  5
21D
100
AcDbEntity
  8
RACCORDO
100
AcDbLine
 62
7
  6
CONTINUOUS
 10
-12.550542893
 20
30.9221482496
 11
-12.5522793041
 21
30.9212800297
  0
LINE
  5
21E
100
AcDbEntity
  8
RACCORDO
100
AcDbLine
 62
7
  6
CONTINUOUS
 10
-12.0156729345
 20
31.1827003504
 11
-12.5505428922
 21
30.92214825
  0
LINE
  5
21F
100
AcDbEntity
  8
RACCORDO
100
AcDbLine
 62
250
  6
CONTINUOUS
 10
-11.9051608234
 20
31.1749655593
 11
-12.4396107021
 21
30.9146180927
  0
LWPOLYLINE
  5
220
100
AcDbEntity
  8
RACCORDO
100
AcDbPolyline
 62
7
  6
CONTINUOUS
 90
37
 70
0
 10
-18.1573090138
 20
26.0852425392
 10
-18.1889803845
 20
26.0662000862
 10
-18.2318912666
 20
26.0385314133
 10
-18.2739820163
 20
26.0092400259
 10
-18.3152391697
 20
25.9783850231
 10
-18.3556518861
 20
25.9460203787
 10
-18.3952045013
 20
25.9122008392
 10
-18.4338820963
 20
25.8769779687
 10
-18.4716700667
 20
25.8404002765
 10
-18.5085439095
 20
25.8025237888
 10
-18.5444859737
 20
25.763396204
 10
-18.5794777356
 20
25.7230637767
 10
-18.6134863064
 20
25.6815882836
 10
-18.6464905097
 20
25.6390173504
 10
-18.678469318
 20
25.5953964243
 10
-18.7093859421
 20
25.5507920053
 10
-18.7392172837
 20
25.5052518436
 10
-18.7679398119
 20
25.4588225953
 10
-18.7955148212
 20
25.4115756491
 10
-18.8219182273
 20
25.3635591275
 10
-18.847125017
 20
25.3148211214
 10
-18.8710963801
 20
25.2654371495
 10
-18.8938076956
 20
25.215456059
 10
-18.9152336785
 20
25.164926227
 10
-18.9353376898
 20
25.1139235996
 10
-18.9540952606
 20
25.0624959874
 10
-18.9714806135
 20
25.010692118
 10
-18.9874593919
 20
24.9585869941
 10
-19.0020067931
 20
24.9062272469
 10
-19.0150965852
 20
24.8536604162
 10
-19.0266966881
 20
24.8009570199
 10
-19.0367809349
 20
24.7481624664
 10
-19.0453216857
 20
24.6953220912
 10
-19.052287873
 20
24.6424972755
 10
-19.0576499934
 20
24.5897346584
 10
-19.0613773197
 20
24.5370739336
 10
-19.0630154431
 20
24.499697863
  0
LINE
  5
221
100
AcDbEntity
  8
RACCORDO
100
AcDbLine
 62
250
  6
CONTINUOUS
 10
-16.5223246867
 20
26.9046703291
 11
-15.5190091397
 21
27.5040484154
  0
LINE
  5
222
100
AcDbEntity
  8
RACCORDO
100
AcDbLine
 62
250
  6
CONTINUOUS
 10
-15.5190091397
 20
27.5040484154
 11
-15.250905516
 21
27.6638851894
  0
LINE
  5
223
100
AcDbEntity
  8
RACCORDO
100
AcDbLine
 62
250
  6
CONTINUOUS
 10
-16.9735820258
 20
26.6361420489
 11
-16.5223246867
 21
26.9046703291
  0
LWPOLYLINE
  5
224
100
AcDbEntity
  8
RACCORDO
100
AcDbPolyline
 62
250
  6
CONTINUOUS
 90
4
 70
0
 10
-15.250905516
 20
27.6638851894
 10
-14.6967386167
 20
27.9930549487
 10
-14.4122714261
 20
28.1610297329
 10
-14.1230800066
 20
28.3306567104
  0
LWPOLYLINE
  5
225
100
AcDbEntity
  8
RACCORDO
100
AcDbPolyline
 62
7
  6
CONTINUOUS
 90
3
 70
0
 10
-16.5554983527
 20
27.0276666676
 10
-17.1089358168
 20
26.7005834266
 10
-17.6444723213
 20
26.3853317498
  0
LWPOLYLINE
  5
226
100
AcDbEntity
  8
RACCORDO
100
AcDbPolyline
 62
250
  6
CONTINUOUS
 90
4
 70
0
 10
-17.7517807372
 20
26.1770223946
 10
-17.5744029014
 20
26.2810739763
 10
-17.3857926533
 20
26.3921452406
 10
-16.9735820258
 20
26.6361420489
  0
LINE
  5
227
100
AcDbEntity
  8
RACCORDO
100
AcDbLine
 62
250
  6
CONTINUOUS
 10
-14.1230800066
 20
28.3306567104
 11
-13.5683459117
 21
28.6544494451
  0
LWPOLYLINE
  5
228
100
AcDbEntity
  8
RACCORDO
100
AcDbPolyline
 62
7
  6
CONTINUOUS
 90
5
 70
0
 10
-13.5683459117
 20
28.7847931089
 10
-14.154180276
 20
28.4431915164
 10
-14.7836776632
 20
28.0746958087
 10
-15.3934674452
 20
27.7152827867
 10
-16.5554983527
 20
27.0276666676
  0
LINE
  5
229
100
AcDbEntity
  8
RACCORDO
100
AcDbLine
 62
7
  6
CONTINUOUS
 10
-18.1573207384
 20
26.0852357063
 11
-17.6444723213
 21
26.3853317498
  0
LINE
  5
22A
100
AcDbEntity
  8
RACCORDO
100
AcDbLine
 62
250
  6
CONTINUOUS
 10
-17.9351707008
 20
26.0699322175
 11
-17.7517807372
 21
26.1770223946
  0
LWPOLYLINE
  5
22B
100
AcDbEntity
  8
RACCORDO
100
AcDbPolyline
 62
250
  6
CONTINUOUS
 90
3
 70
0
 10
-18.1573090151
 20
26.0852425415
 10
-18.1548620765
 20
26.0866431729
 10
-18.1422256053
 20
26.0930949327
  0
LINE
  5
22C
100
AcDbEntity
  8
RACCORDO
100
AcDbLine
 62
250
  6
CONTINUOUS
 10
-11.0961018346
 20
30.242863659
 11
-12.6973826254
 21
29.4401416555
  0
LINE
  5
22D
100
AcDbEntity
  8
RACCORDO
100
AcDbLine
 62
250
  6
CONTINUOUS
 10
-10.9193281309
 20
29.9379741202
 11
-12.5206089218
 21
29.1352521167
  0
LINE
  5
22E
100
AcDbEntity
  8
RACCORDO
100
AcDbLine
 62
250
  6
CONTINUOUS
 10
-10.5678346629
 20
30.506302479
 11
-11.0961018346
 21
30.242863659
  0
LINE
  5
22F
100
AcDbEntity
  8
RACCORDO
100
AcDbLine
 62
250
  6
CONTINUOUS
 10
-10.3910609592
 20
30.2014129402
 11
-10.9193281309
 21
29.9379741202
  0
LINE
  5
230
100
AcDbEntity
  8
RACCORDO
100
AcDbLine
 62
250
  6
CONTINUOUS
 10
2.9732572052
 20
-18.1278817981
 11
2.4449900335
 21
-18.019379521
  0
LWPOLYLINE
  5
231
100
AcDbEntity
  8
RACCORDO
100
AcDbPolyline
 62
7
  6
CONTINUOUS
 90
34
 70
0
 10
1.5549298508
 20
-18.3349885619
 10
1.5470363884
 20
-18.3332729137
 10
1.5387890081
 20
-18.33140549
 10
1.5301993411
 20
-18.3293771154
 10
1.5212810379
 20
-18.3271677952
 10
1.5120467375
 20
-18.324779748
 10
1.5025077576
 20
-18.3222372012
 10
1.4926796765
 20
-18.3195310523
 10
1.4825785713
 20
-18.316653549
 10
1.4722174654
 20
-18.3136308514
 10
1.4616147166
 20
-18.3104545258
 10
1.4507891247
 20
-18.3071173939
 10
1.4397553872
 20
-18.3036473667
 10
1.428534639
 20
-18.3000368211
 10
1.4171485087
 20
-18.2962793232
 10
1.4056135629
 20
-18.2924044078
 10
1.3939537322
 20
-18.2884054559
 10
1.3821935904
 20
-18.2842769644
 10
1.3703519791
 20
-18.2800499964
 10
1.3584556449
 20
-18.2757192171
 10
1.3465322041
 20
-18.2712802667
 10
1.3346033273
 20
-18.2667656147
 10
1.3226985661
 20
-18.2621716089
 10
1.3108485882
 20
-18.2574952783
 10
1.29907844
 20
-18.2527702473
 10
1.287420441
 20
-18.2479950934
 10
1.2759080673
 20
-18.2431685021
 10
1.2645698681
 20
-18.2383246716
 10
1.2534290756
 20
-18.2334616431
 10
1.2425338412
 20
-18.2285828679
 10
1.2319485194
 20
-18.2237340304
 10
1.2217153868
 20
-18.2189355888
 10
1.2118576517
 20
-18.2141802569
 10
1.2024078911
 20
-18.2094758381
  0
LWPOLYLINE
  5
232
100
AcDbEntity
  8
RACCORDO
100
AcDbPolyline
 62
7
  6
CONTINUOUS
 90
21
 70
0
 10
-3.6925471787
 20
-19.4664085077
 10
-3.6564987519
 20
-19.4831230727
 10
-3.6195545983
 20
-19.4982829298
 10
-3.5817883995
 20
-19.5118357377
 10
-3.5432403411
 20
-19.5237468452
 10
-3.5039123596
 20
-19.5339916606
 10
-3.4638587989
 20
-19.5425293117
 10
-3.4231444135
 20
-19.549320934
 10
-3.3817811489
 20
-19.5543379906
 10
-3.3398271248
 20
-19.5575448665
 10
-3.2973440904
 20
-19.5589095508
 10
-3.2543415612
 20
-19.5584023983
 10
-3.2108793967
 20
-19.5559925664
 10
-3.1670123944
 20
-19.5516522687
 10
-3.1227326873
 20
-19.5453461468
 10
-3.0780881878
 20
-19.5370421633
 10
-3.0331378257
 20
-19.5267123853
 10
-2.9878804275
 20
-19.5143142489
 10
-2.9423469756
 20
-19.4998083899
 10
-2.8966067503
 20
-19.4831680528
 10
-2.8639661035
 20
-19.4700122385
  0
LWPOLYLINE
  5
233
100
AcDbEntity
  8
RACCORDO
100
AcDbPolyline
 62
250
  6
CONTINUOUS
 90
31
 70
0
 10
0.491187283
 20
-19.5259462493
 10
0.5006453012
 20
-19.5304347829
 10
0.5105585382
 20
-19.5346706292
 10
0.5209000234
 20
-19.5386422639
 10
0.531641621
 20
-19.5423388814
 10
0.5427541066
 20
-19.5457504246
 10
0.554207247
 20
-19.5488676116
 10
0.5659698818
 20
-19.5516819617
 10
0.5780100088
 20
-19.5541858179
 10
0.5902948709
 20
-19.5563723681
 10
0.6027910449
 20
-19.5582356635
 10
0.615464533
 20
-19.5597706345
 10
0.6282808547
 20
-19.560973105
 10
0.641205141
 20
-19.5618398036
 10
0.6542022293
 20
-19.5623683723
 10
0.6672367588
 20
-19.5625573728
 10
0.6802732668
 20
-19.5624062911
 10
0.6932762853
 20
-19.5619155383
 10
0.7062104374
 20
-19.5610864494
 10
0.7190405335
 20
-19.5599212801
 10
0.7317316672
 20
-19.5584232005
 10
0.74424931
 20
-19.5565962864
 10
0.7565594057
 20
-19.5544455082
 10
0.7686284625
 20
-19.5519767175
 10
0.7804236446
 20
-19.5491966309
 10
0.791912861
 20
-19.5461128123
 10
0.8030648535
 20
-19.5427336516
 10
0.8138492812
 20
-19.5390683425
 10
0.8242368031
 20
-19.5351268571
 10
0.8341991584
 20
-19.5309199187
 10
0.8437092427
 20
-19.5264589732
  0
LINE
  5
234
100
AcDbEntity
  8
RACCORDO
100
AcDbLine
 62
7
  6
CONTINUOUS
 10
-3.6983368219
 20
-19.4635388902
 11
-3.6982181436
 21
-19.4635982464
  0
LINE
  5
235
100
AcDbEntity
  8
RACCORDO
100
AcDbLine
 62
250
  6
CONTINUOUS
 10
-18.9165327009
 20
-11.2905757104
 11
-4.0916866233
 21
-18.7029987492
  0
LINE
  5
236
100
AcDbEntity
  8
RACCORDO
100
AcDbLine
 62
250
  6
CONTINUOUS
 10
-18.5321162428
 20
-12.0466491968
 11
-18.5389290275
 21
-12.0431710692
  0
LWPOLYLINE
  5
237
100
AcDbEntity
  8
RACCORDO
100
AcDbPolyline
 62
250
  6
CONTINUOUS
 90
3
 70
0
 10
-18.5389290275
 20
-12.0431710692
 10
-18.5460256341
 20
-12.0394449454
 10
-18.554375087
 20
-12.0348750749
  0
LWPOLYLINE
  5
238
100
AcDbEntity
  8
RACCORDO
100
AcDbPolyline
 62
250
  6
CONTINUOUS
 90
79
 70
0
 10
-18.554375087
 20
-12.0348750749
 10
-18.5626493125
 20
-12.0301587923
 10
-18.5708473906
 20
-12.0252966217
 10
-18.578968443
 20
-12.0202890861
 10
-18.587011569
 20
-12.0151367397
 10
-18.5949758742
 20
-12.0098401543
 10
-18.6028605026
 20
-12.0043999029
 10
-18.6106645795
 20
-11.9988165874
 10
-18.6183872374
 20
-11.9930908265
 10
-18.6260276451
 20
-11.987223242
 10
-18.6335849542
 20
-11.9812144835
 10
-18.6410583257
 20
-11.9750652159
 10
-18.6484469567
 20
-11.9687761068
 10
-18.6557500262
 20
-11.9623478527
 10
-18.6629667242
 20
-11.9557811639
 10
-18.6700962781
 20
-11.9490767519
 10
-18.6771378956
 20
-11.9422353588
 10
-18.6840907959
 20
-11.9352577398
 10
-18.6909542376
 20
-11.9281446486
 10
-18.6977274587
 20
-11.9208968709
 10
-18.7044097071
 20
-11.9135152069
 10
-18.7110002709
 20
-11.9060004539
 10
-18.7174984197
 20
-11.8983534394
 10
-18.7239034304
 20
-11.8905750087
 10
-18.7302146166
 20
-11.8826660072
 10
-18.736431279
 20
-11.8746273056
 10
-18.7425527256
 20
-11.8664597918
 10
-18.7485782974
 20
-11.8581643588
 10
-18.7545073258
 20
-11.849741921
 10
-18.7603391521
 20
-11.8411934072
 10
-18.7660731491
 20
-11.8325197522
 10
-18.7717086802
 20
-11.8237219125
 10
-18.7772451198
 20
-11.8148008576
 10
-18.7826818734
 20
-11.8057575624
 10
-18.7880183375
 20
-11.7965930242
 10
-18.7932539199
 20
-11.7873082524
 10
-18.7983880601
 20
-11.7779042594
 10
-18.8034201874
 20
-11.7683820834
 10
-18.8083497443
 20
-11.7587427713
 10
-18.813176206
 20
-11.7489873686
 10
-18.8178990365
 20
-11.7391169502
 10
-18.8225177118
 20
-11.7291326021
 10
-18.8270317413
 20
-11.7190354044
 10
-18.831440626
 20
-11.7088264635
 10
-18.8357438736
 20
-11.6985069073
 10
-18.8399410214
 20
-11.6880778667
 10
-18.8440316037
 20
-11.6775404886
 10
-18.8480151657
 20
-11.6668959328
 10
-18.8518912788
 20
-11.656145367
 10
-18.8556595132
 20
-11.6452899738
 10
-18.8593194499
 20
-11.6343309474
 10
-18.8628706955
 20
-11.6232694909
 10
-18.8663128562
 20
-11.6121068207
 10
-18.8696455496
 20
-11.6008441647
 10
-18.8728684174
 20
-11.58948276
 10
-18.8759811021
 20
-11.5780238572
 10
-18.8789832585
 20
-11.5664687154
 10
-18.8818745649
 20
-11.5548186005
 10
-18.8846546995
 20
-11.5430748004
 10
-18.8873233552
 20
-11.5312385995
 10
-18.8898802508
 20
-11.5193112734
 10
-18.8923251038
 20
-11.507294127
 10
-18.8946576408
 20
-11.4951884866
 10
-18.8968776124
 20
-11.4829956745
 10
-18.8989847726
 20
-11.4707170268
 10
-18.9009788863
 20
-11.4583538959
 10
-18.9028597385
 20
-11.4459076425
 10
-18.9046271208
 20
-11.4333796341
 10
-18.9062808364
 20
-11.4207712468
 10
-18.9078207072
 20
-11.4080838686
 10
-18.9092465628
 20
-11.3953188931
 10
-18.9105582445
 20
-11.3824777225
 10
-18.9117556113
 20
-11.369561771
 10
-18.9128385311
 20
-11.3565724572
 10
-18.9138068833
 20
-11.3435112079
 10
-18.914660564
 20
-11.3303794621
 10
-18.91539948
 20
-11.3171786637
 10
-18.9160235486
 20
-11.3039102607
 10
-18.9165327009
 20
-11.2905757104
  0
LINE
  5
239
100
AcDbEntity
  8
RACCORDO
100
AcDbLine
 62
250
  6
CONTINUOUS
 10
-10.3752999292
 20
29.7835586477
 11
-10.3757003868
 21
29.7830462569
  0
LINE
  5
23A
100
AcDbEntity
  8
RACCORDO
100
AcDbLine
 62
250
  6
CONTINUOUS
 10
-10.9193281309
 20
29.2109292677
 11
-10.3910609592
 21
29.8538814235
  0
LINE
  5
23B
100
AcDbEntity
  8
RACCORDO
100
AcDbLine
 62
7
  6
CONTINUOUS
 10
-10.9193281309
 20
29.1213988014
 11
-10.3757003868
 21
29.7830462569
  0
LWPOLYLINE
  5
23C
100
AcDbEntity
  8
RACCORDO
100
AcDbPolyline
 62
7
  6
CONTINUOUS
 90
30
 70
0
 10
-11.8093883137
 20
28.6467746597
 10
-11.8172674367
 20
28.6376402564
 10
-11.8254876857
 20
28.6286428155
 10
-11.8340455469
 20
28.6198038289
 10
-11.8429439775
 20
28.611147299
 10
-11.8521704125
 20
28.6026926198
 10
-11.8616969868
 20
28.5944547271
 10
-11.8715171751
 20
28.5864559735
 10
-11.8816230733
 20
28.5787180967
 10
-11.8919838563
 20
28.5712555569
 10
-11.9025903776
 20
28.564090779
 10
-11.913432289
 20
28.5572454737
 10
-11.924476066
 20
28.5507335021
 10
-11.9357099145
 20
28.544576983
 10
-11.9471208653
 20
28.5387973191
 10
-11.9586726857
 20
28.5334077956
 10
-11.9703508176
 20
28.5284298379
 10
-11.9821395491
 20
28.5238841406
 10
-11.9939998631
 20
28.5197833555
 10
-12.0059143108
 20
28.51614773
 10
-12.0178643241
 20
28.5129967449
 10
-12.0298080017
 20
28.5103422087
 10
-12.0417248513
 20
28.5082025763
 10
-12.0535934185
 20
28.5065954388
 10
-12.0653689972
 20
28.505531278
 10
-12.0770278177
 20
28.5050259727
 10
-12.0885457548
 20
28.5050943388
 10
-12.0998761075
 20
28.5057447372
 10
-12.1109813699
 20
28.50698813
 10
-12.1218457216
 20
28.5088356254
  0
LINE
  5
23D
100
AcDbEntity
  8
RACCORDO
100
AcDbLine
 62
7
  6
CONTINUOUS
 10
-10.9193281309
 20
28.3358234592
 11
-11.8093883137
 21
27.8391425379
  0
LINE
  5
23E
100
AcDbEntity
  8
RACCORDO
100
AcDbLine
 62
7
  6
CONTINUOUS
 10
-8.5505084126
 20
28.0057050459
 11
-8.1969670234
 21
28.1870784707
  0
LINE
  5
23F
100
AcDbEntity
  8
RACCORDO
100
AcDbLine
 62
7
  6
CONTINUOUS
 10
-3.1967450693
 20
31.4761274882
 11
-9.5112853959
 21
28.3313511837
  0
LINE
  5
240
100
AcDbEntity
  8
ASSI
100
AcDbLine
 62
7
  6
CONTINUOUS
 10
-8.1969670234
 20
28.1870784707
 11
-2.8607436174
 21
30.7865219362
  0
LINE
  5
241
100
AcDbEntity
  8
RACCORDO
100
AcDbLine
 62
7
  6
CONTINUOUS
 10
4.8936124166
 20
34.6130756119
 11
-2.2454115395
 21
31.2463316915
  0
LINE
  5
242
100
AcDbEntity
  8
RACCORDO
100
AcDbLine
 62
250
  6
CONTINUOUS
 10
5.332497167
 20
34.5806726769
 11
-1.9990339665
 21
31.1231429049
  0
LWPOLYLINE
  5
243
100
AcDbEntity
  8
RACCORDO
100
AcDbPolyline
 62
250
  6
CONTINUOUS
 90
9
 70
0
 10
5.332497167
 20
34.5806726769
 10
5.3933928036
 20
34.606594889
 10
5.4537539032
 20
34.6258354225
 10
5.5131305777
 20
34.6382474133
 10
5.5710826076
 20
34.6437348458
 10
5.6271743584
 20
34.6422523774
 10
5.6809790159
 20
34.6338090717
 10
5.7320934762
 20
34.6184678249
 10
5.7672661462
 20
34.6030879371
  0
LWPOLYLINE
  5
244
100
AcDbEntity
  8
RACCORDO
100
AcDbPolyline
 62
250
  6
CONTINUOUS
 90
15
 70
0
 10
-18.1422256053
 20
26.0930949327
 10
-18.1290534144
 20
26.0985515755
 10
-18.1153753085
 20
26.1030007545
 10
-18.1012222366
 20
26.1064324027
 10
-18.0866262229
 20
26.1088387553
 10
-18.0716202937
 20
26.1102143675
 10
-18.0562384025
 20
26.1105561267
 10
-18.0405153539
 20
26.1098632596
 10
-18.0244867242
 20
26.1081373339
 10
-18.0081887811
 20
26.105382255
 10
-17.991658402
 20
26.1016042566
 10
-17.9749329898
 20
26.0968118872
 10
-17.958050389
 20
26.0910159904
 10
-17.9410487996
 20
26.0842296807
 10
-17.9239666909
 20
26.0764683131
  0
LINE
  5
245
100
AcDbEntity
  8
RACCORDO
100
AcDbLine
 62
250
  6
CONTINUOUS
 10
2.8838434099
 20
-17.8083149921
 11
2.4449900335
 21
-17.7181776654
  0
LWPOLYLINE
  5
246
100
AcDbEntity
  8
RACCORDO
100
AcDbPolyline
 62
250
  6
CONTINUOUS
 90
31
 70
0
 10
0.491187283
 20
-19.1859723152
 10
0.5006453012
 20
-19.1904608488
 10
0.5105585382
 20
-19.1946966951
 10
0.5209000234
 20
-19.1986683298
 10
0.531641621
 20
-19.2023649473
 10
0.5427541066
 20
-19.2057764904
 10
0.554207247
 20
-19.2088936774
 10
0.5659698818
 20
-19.2117080275
 10
0.5780100088
 20
-19.2142118838
 10
0.5902948709
 20
-19.216398434
 10
0.6027910449
 20
-19.2182617293
 10
0.615464533
 20
-19.2197967004
 10
0.6282808547
 20
-19.2209991709
 10
0.641205141
 20
-19.2218658695
 10
0.6542022293
 20
-19.2223944381
 10
0.6672367588
 20
-19.2225834387
 10
0.6802732668
 20
-19.222432357
 10
0.6932762853
 20
-19.2219416041
 10
0.7062104374
 20
-19.2211125152
 10
0.7190405335
 20
-19.219947346
 10
0.7317316672
 20
-19.2184492664
 10
0.74424931
 20
-19.2166223523
 10
0.7565594057
 20
-19.2144715741
 10
0.7686284625
 20
-19.2120027833
 10
0.7804236446
 20
-19.2092226968
 10
0.791912861
 20
-19.2061388782
 10
0.8030648535
 20
-19.2027597175
 10
0.8138492812
 20
-19.1990944084
 10
0.8242368031
 20
-19.1951529229
 10
0.8341991584
 20
-19.1909459846
 10
0.8437092427
 20
-19.186485039
  0
LINE
  5
247
100
AcDbEntity
  8
RACCORDO
100
AcDbLine
 62
7
  6
CONTINUOUS
 10
-0.7688241004
 20
-18.9986723595
 11
0.5561605794
 21
-19.6611646994
  0
LINE
  5
248
100
AcDbEntity
  8
RACCORDO
100
AcDbLine
 62
250
  6
CONTINUOUS
 10
-0.8337973968
 20
-18.8634539094
 11
0.491187283
 21
-19.5259462493
  0
LINE
  5
249
100
AcDbEntity
  8
RACCORDO
100
AcDbLine
 62
250
  6
CONTINUOUS
 10
0.491187283
 20
-19.1859723152
 11
-0.7188696246
 21
-18.5809438614
  0
LINE
  5
24A
100
AcDbEntity
  8
RACCORDO
100
AcDbLine
 62
250
  6
CONTINUOUS
 10
0.5795756307
 20
-18.9542781414
 11
-0.4164469219
 21
-18.4562668651
  0
LINE
  5
24B
100
AcDbEntity
  8
RACCORDO
100
AcDbLine
 62
7
  6
CONTINUOUS
 10
0.7393523598
 20
-17.9779480724
 11
1.2018936628
 21
-18.2092187239
  0
LWPOLYLINE
  5
24C
100
AcDbEntity
  8
RACCORDO
100
AcDbPolyline
 62
250
  6
CONTINUOUS
 90
16
 70
0
 10
-0.8337973968
 20
-18.8634539094
 10
-0.842774464
 20
-18.8587249003
 10
-0.8512461566
 20
-18.8537682818
 10
-0.859189426
 20
-18.8485975392
 10
-0.866582661
 20
-18.8432267404
 10
-0.8734057473
 20
-18.8376704976
 10
-0.8796401213
 20
-18.8319439274
 10
-0.8852688215
 20
-18.82606261
 10
-0.890276534
 20
-18.8200425465
 10
-0.8946496344
 20
-18.8139001155
 10
-0.8983762251
 20
-18.8076520284
 10
-0.9014461671
 20
-18.8013152844
 10
-0.9038511083
 20
-18.7949071236
 10
-0.9055845054
 20
-18.7884449804
 10
-0.9066416427
 20
-18.7819464362
 10
-0.9070207015
 20
-18.7750655618
  0
LWPOLYLINE
  5
24D
100
AcDbEntity
  8
RACCORDO
100
AcDbPolyline
 62
250
  6
CONTINUOUS
 90
17
 70
0
 10
-19.0628072072
 20
-11.1168768014
 10
-19.0614851877
 20
-11.1291899826
 10
-19.0590594846
 20
-11.14142995
 10
-19.0555354717
 20
-11.153569588
 10
-19.0509209557
 20
-11.1655820037
 10
-19.0452261592
 20
-11.1774405858
 10
-19.0384636981
 20
-11.1891190638
 10
-19.0306485531
 20
-11.2005915663
 10
-19.0217980375
 20
-11.211832678
 10
-19.0119317577
 20
-11.2228174964
 10
-19.0010715707
 20
-11.2335216867
 10
-18.9892415351
 20
-11.2439215358
 10
-18.9764678583
 20
-11.2539940047
 10
-18.9627788379
 20
-11.2637167798
 10
-18.9482047993
 20
-11.2730683221
 10
-18.9327780286
 20
-11.2820279151
 10
-18.9165327009
 20
-11.2905757104
  0
LWPOLYLINE
  5
24E
100
AcDbEntity
  8
RACCORDO
100
AcDbPolyline
 62
7
  6
CONTINUOUS
 90
28
 70
0
 10
-19.0629965801
 20
-11.1129264388
 10
-19.0612625213
 20
-11.1505578513
 10
-19.0574098539
 20
-11.2011939085
 10
-19.0518575058
 20
-11.2509360331
 10
-19.0446154349
 20
-11.2997838373
 10
-19.035700195
 20
-11.3476779173
 10
-19.0251457166
 20
-11.3945028055
 10
-19.0129729788
 20
-11.4402348878
 10
-18.9992048933
 20
-11.484841774
 10
-18.9838995193
 20
-11.5281992195
 10
-18.9670921856
 20
-11.5702796311
 10
-18.9488186788
 20
-11.6110570067
 10
-18.9291642252
 20
-11.6504134143
 10
-18.9081968692
 20
-11.6882977454
 10
-18.8859565135
 20
-11.7247171525
 10
-18.8625057304
 20
-11.759641013
 10
-18.83792926
 20
-11.7930172772
 10
-18.8122694768
 20
-11.824859554
 10
-18.7855254615
 20
-11.8552232701
 10
-18.7577603146
 20
-11.8840804527
 10
-18.729034237
 20
-11.9114118127
 10
-18.6993313658
 20
-11.9372653989
 10
-18.6687135739
 20
-11.9616115808
 10
-18.6372410764
 20
-11.9844274955
 10
-18.6048846553
 20
-12.0057507694
 10
-18.5716717267
 20
-12.0255691014
 10
-18.5376940561
 20
-12.0438349707
 10
-3.6925471787
 20
-19.4664085077
  0
LWPOLYLINE
  5
24F
100
AcDbEntity
  8
RACCORDO
100
AcDbPolyline
 62
250
  6
CONTINUOUS
 90
67
 70
0
 10
-18.9165327009
 20
-11.2905757104
 10
-18.9340717996
 20
-10.7603223673
 10
-18.9510715162
 20
-10.2297629293
 10
-18.9675318239
 20
-9.6988982211
 10
-18.9834526963
 20
-9.1677290681
 10
-18.9988341086
 20
-8.6362562957
 10
-19.0136760377
 20
-8.1044807293
 10
-19.0279784603
 20
-7.5724031953
 10
-19.0417413537
 20
-7.0400245209
 10
-19.0549646973
 20
-6.5073455329
 10
-19.0676484703
 20
-5.9743670591
 10
-19.0797926524
 20
-5.441089928
 10
-19.0913972256
 20
-4.9075149679
 10
-19.1024621715
 20
-4.3736430081
 10
-19.1129874726
 20
-3.8394748784
 10
-19.1229731131
 20
-3.3050114082
 10
-19.1324190774
 20
-2.7702534285
 10
-19.1413253503
 20
-2.2352017702
 10
-19.1496919187
 20
-1.6998572634
 10
-19.1575187693
 20
-1.1642207399
 10
-19.1648058896
 20
-0.6282930324
 10
-19.1715532689
 20
-0.0920749733
 10
-19.1777608964
 20
0.4444326044
 10
-19.1834287623
 20
0.9812288666
 10
-19.1885568582
 20
1.5183129797
 10
-19.1931451758
 20
2.0556841089
 10
-19.1971937081
 20
2.5933414192
 10
-19.2007024488
 20
3.1312840755
 10
-19.2036713925
 20
3.6695112417
 10
-19.2061005345
 20
4.2080220816
 10
-19.2079898711
 20
4.7468157586
 10
-19.2093393994
 20
5.2858914356
 10
-19.2101491171
 20
5.8252482747
 10
-19.2104190232
 20
6.3648854386
 10
-19.2101491171
 20
6.9048020887
 10
-19.2093393994
 20
7.444997386
 10
-19.2079898711
 20
7.9854704917
 10
-19.2061005345
 20
8.5262205659
 10
-19.2036713925
 20
9.0672467684
 10
-19.2007024488
 20
9.6085482586
 10
-19.1971937081
 20
10.1501241955
 10
-19.1931451758
 20
10.6919737375
 10
-19.1885568582
 20
11.2340960427
 10
-19.1834287623
 20
11.776490269
 10
-19.1777608964
 20
12.3191555734
 10
-19.1715532689
 20
12.8620911127
 10
-19.1648058896
 20
13.4052960435
 10
-19.1575187693
 20
13.9487695216
 10
-19.1496919187
 20
14.4925107028
 10
-19.1413253503
 20
15.0365187421
 10
-19.1324190774
 20
15.5807927944
 10
-19.1229731131
 20
16.1253320146
 10
-19.1129874726
 20
16.6701355571
 10
-19.1024621715
 20
17.2152025751
 10
-19.0913972256
 20
17.7605322216
 10
-19.0797926524
 20
18.3061236493
 10
-19.0676484703
 20
18.8519760106
 10
-19.0549646973
 20
19.3980884569
 10
-19.0417413537
 20
19.9444601398
 10
-19.0279784603
 20
20.4910902105
 10
-19.0136760377
 20
21.0379778192
 10
-18.9988341085
 20
21.5851221163
 10
-18.9834526963
 20
22.1325222518
 10
-18.9675318239
 20
22.6801773747
 10
-18.9510715162
 20
23.228086634
 10
-18.9340717996
 20
23.7762491787
 10
-18.9165327009
 20
24.3246641573
  0
LWPOLYLINE
  5
250
100
AcDbEntity
  8
RACCORDO
100
AcDbPolyline
 62
7
  6
CONTINUOUS
 90
22
 70
0
 10
-19.0630151234
 20
24.4997077247
 10
-19.1159703542
 20
22.7888645876
 10
-19.1640127788
 20
21.0675152094
 10
-19.2067189511
 20
19.3487006514
 10
-19.2440881765
 20
17.6324473719
 10
-19.2761198452
 20
15.918781669
 10
-19.3028134293
 20
14.2077297266
 10
-19.3241684796
 20
12.4993178041
 10
-19.3401846285
 20
10.7935721452
 10
-19.3508615906
 20
9.0905188436
 10
-19.3561991608
 20
7.3901839901
 10
-19.3561972153
 20
5.692593752
 10
-19.3508557128
 20
3.9977742731
 10
-19.3401746943
 20
2.3057516356
 10
-19.3241542821
 20
0.6165517603
 10
-19.3027946788
 20
-1.0697995163
 10
-19.2760961694
 20
-2.7532762887
 10
-19.2440591201
 20
-4.4338527202
 10
-19.2066839757
 20
-6.1115031397
 10
-19.163971263
 20
-7.7862018416
 10
-19.1159215936
 20
-9.4579230423
 10
-19.0629965024
 20
-11.11292875
  0
LWPOLYLINE
  5
251
100
AcDbEntity
  8
RACCORDO
100
AcDbPolyline
 62
250
  6
CONTINUOUS
 90
138
 70
0
 10
-18.9165327009
 20
24.3246641573
 10
-18.9160112033
 20
24.3388216492
 10
-18.9153697402
 20
24.3530328371
 10
-18.9146083854
 20
24.3672960932
 10
-18.9137272282
 20
24.3816097868
 10
-18.9127263688
 20
24.3959722754
 10
-18.9116059197
 20
24.4103819052
 10
-18.9103660108
 20
24.4248370263
 10
-18.9090067851
 20
24.4393359828
 10
-18.9075283954
 20
24.4538771047
 10
-18.9059310132
 20
24.4684587271
 10
-18.9042148234
 20
24.4830791798
 10
-18.9023800186
 20
24.4977367786
 10
-18.9004268123
 20
24.5124298451
 10
-18.8983554305
 20
24.5271566969
 10
-18.896166106
 20
24.5419156366
 10
-18.8938590946
 20
24.5567049678
 10
-18.8914346624
 20
24.571523004
 10
-18.8888930785
 20
24.5863680585
 10
-18.8862346379
 20
24.601238432
 10
-18.8834596483
 20
24.6161324223
 10
-18.880568417
 20
24.6310483339
 10
-18.877561278
 20
24.6459844663
 10
-18.8744385803
 20
24.6609391035
 10
-18.8712006738
 20
24.6759105231
 10
-18.867847934
 20
24.6908970123
 10
-18.8643807489
 20
24.7058968556
 10
-18.8607995072
 20
24.7209083246
 10
-18.8571046244
 20
24.7359297018
 10
-18.8532965282
 20
24.7509592681
 10
-18.849375646
 20
24.7659952909
 10
-18.8453424326
 20
24.7810360499
 10
-18.8411973552
 20
24.7960798242
 10
-18.8369408788
 20
24.8111248794
 10
-18.8325734981
 20
24.8261694919
 10
-18.8280957185
 20
24.8412119431
 10
-18.82350804
 20
24.8562505061
 10
-18.8188109957
 20
24.8712834585
 10
-18.8140051289
 20
24.886309083
 10
-18.8090909739
 20
24.9013256616
 10
-18.8040691004
 20
24.916331478
 10
-18.7989400902
 20
24.9313248148
 10
-18.7937045143
 20
24.9463039541
 10
-18.7883629791
 20
24.9612671855
 10
-18.7829161037
 20
24.9762127952
 10
-18.7773644973
 20
24.991139063
 10
-18.7717088029
 20
25.0060442843
 10
-18.7659496759
 20
25.0209267525
 10
-18.7600877627
 20
25.0357847493
 10
-18.7541237429
 20
25.0506165759
 10
-18.7480583074
 20
25.0654205364
 10
-18.7418921367
 20
25.0801949211
 10
-18.7356259462
 20
25.0949380406
 10
-18.7292604617
 20
25.10964821
 10
-18.7227963966
 20
25.1243237317
 10
-18.7162345009
 20
25.1389629279
 10
-18.7095755348
 20
25.153564126
 10
-18.7028202438
 20
25.168125642
 10
-18.6959694141
 20
25.182645807
 10
-18.6890238371
 20
25.1971229665
 10
-18.6819842832
 20
25.2115554657
 10
-18.6748515673
 20
25.2259416581
 10
-18.667626517
 20
25.240279897
 10
-18.6603099374
 20
25.2545685351
 10
-18.652902675
 20
25.2688059433
 10
-18.6454055896
 20
25.2829904912
 10
-18.6378195222
 20
25.2971205381
 10
-18.6301453523
 20
25.3111944702
 10
-18.622383969
 20
25.325210679
 10
-18.6145362433
 20
25.339167543
 10
-18.6066030852
 20
25.353063468
 10
-18.5985854139
 20
25.3668968665
 10
-18.5904841296
 20
25.380666137
 10
-18.5823001717
 20
25.3943697071
 10
-18.5740344887
 20
25.4080060115
 10
-18.5656880088
 20
25.4215734708
 10
-18.5572617029
 20
25.4350705314
 10
-18.548756545
 20
25.4484956565
 10
-18.5401734818
 20
25.4618473036
 10
-18.5315135094
 20
25.4751239475
 10
-18.5227776309
 20
25.4883240731
 10
-18.5139668168
 20
25.5014461657
 10
-18.5050820856
 20
25.5144887318
 10
-18.49612447
 20
25.5274502776
 10
-18.4870949746
 20
25.5403293015
 10
-18.4779946463
 20
25.5531243338
 10
-18.46882454
 20
25.5658339137
 10
-18.4595856847
 20
25.5784565675
 10
-18.450279152
 20
25.5909908546
 10
-18.4409060203
 20
25.6034353447
 10
-18.4314673409
 20
25.6157885957
 10
-18.4219642084
 20
25.6280491979
 10
-18.4123977244
 20
25.6402157525
 10
-18.4027689612
 20
25.6522868496
 10
-18.3930790365
 20
25.6642611112
 10
-18.3833290727
 20
25.6761371724
 10
-18.3735201598
 20
25.6879136599
 10
-18.3636534366
 20
25.6995892295
 10
-18.3537300458
 20
25.7111625509
 10
-18.3437510936
 20
25.7226322887
 10
-18.3337177363
 20
25.7339971361
 10
-18.3236311379
 20
25.745255796
 10
-18.3134924257
 20
25.7564069658
 10
-18.3033027744
 20
25.767449375
 10
-18.2930633661
 20
25.7783817636
 10
-18.2827753473
 20
25.7892028639
 10
-18.2724399104
 20
25.799911443
 10
-18.262058254
 20
25.8105062796
 10
-18.2516315425
 20
25.8209861426
 10
-18.2411609849
 20
25.8313498378
 10
-18.2306477952
 20
25.8415961843
 10
-18.220093152
 20
25.8517239912
 10
-18.2094982797
 20
25.8617321045
 10
-18.1988644062
 20
25.8716193845
 10
-18.1881927228
 20
25.8813846823
 10
-18.1774844675
 20
25.8910268858
 10
-18.1667408812
 20
25.9005448971
 10
-18.1559631667
 20
25.9099376106
 10
-18.1451525746
 20
25.9192039564
 10
-18.1343103575
 20
25.9283428803
 10
-18.1234377258
 20
25.9373533226
 10
-18.1125359397
 20
25.9462342583
 10
-18.1016062639
 20
25.9549846762
 10
-18.0906499208
 20
25.9636035589
 10
-18.0796681798
 20
25.9720899268
 10
-18.0686623152
 20
25.9804428135
 10
-18.0576335605
 20
25.9886612453
 10
-18.0465831948
 20
25.9967442875
 10
-18.0355124991
 20
26.004691021
 10
-18.0244227141
 20
26.012500519
 10
-18.0133151262
 20
26.0201718935
 10
-18.0021910228
 20
26.0277042729
 10
-17.9910516497
 20
26.0350967783
 10
-17.9798982988
 20
26.0423485697
 10
-17.968732263
 20
26.0494588236
 10
-17.9575547922
 20
26.05642671
 10
-17.9463671674
 20
26.0632514303
 10
-17.9351707008
 20
26.0699322175
  0
LWPOLYLINE
  5
252
100
AcDbEntity
  8
RACCORDO
100
AcDbPolyline
 62
250
  6
CONTINUOUS
 90
27
 70
0
 10
-12.5206089218
 20
28.7952781825
 10
-12.5254929389
 20
28.7833095243
 10
-12.5308435423
 20
28.7716163203
 10
-12.5366461207
 20
28.760230502
 10
-12.5428848283
 20
28.7491831618
 10
-12.5495426287
 20
28.7385044676
 10
-12.5566013406
 20
28.7282235809
 10
-12.5640416884
 20
28.7183685764
 10
-12.5718433538
 20
28.7089663661
 10
-12.5799850323
 20
28.7000426256
 10
-12.5884444906
 20
28.6916217237
 10
-12.5971986276
 20
28.683726656
 10
-12.6062235377
 20
28.6763789825
 10
-12.6154945758
 20
28.669598768
 10
-12.6249864245
 20
28.6634045278
 10
-12.6346731637
 20
28.6578131772
 10
-12.6445283408
 20
28.652839985
 10
-12.6545250434
 20
28.6484985319
 10
-12.6646359727
 20
28.6448006735
 10
-12.6748335178
 20
28.6417565079
 10
-12.6850898313
 20
28.6393743481
 10
-12.6953769054
 20
28.6376606992
 10
-12.7056666482
 20
28.6366202409
 10
-12.7159309607
 20
28.6362558144
 10
-12.7261418131
 20
28.636568415
 10
-12.7362713217
 20
28.6375571888
 10
-12.746291825
 20
28.639219436
  0
LINE
  5
253
100
AcDbEntity
  8
0
100
AcDbLine
 62
7
  6
CONTINUOUS
 10
-3.2472195551
 20
28.2069027539
 11
-2.5401127739
 21
28.5604561445
  0
LINE
  5
254
100
AcDbEntity
  8
0
100
AcDbLine
 62
7
  6
CONTINUOUS
 10
-0.7887748768
 20
29.0825717024
 11
-2.1865593833
 21
28.3836794492
  0
LINE
  5
255
100
AcDbEntity
  8
ASSI
100
AcDbLine
 62
7
  6
CONTINUOUS
 10
-2.2552131827
 20
30.4837567189
 11
-6.8534641391
 21
28.2173954214
  0
LINE
  5
256
100
AcDbEntity
  8
DRAFT
100
AcDbLine
 62
7
  6
CONTINUOUS
 10
-2.5401127739
 20
29.1130143338
 11
-2.2007015189
 21
29.2790922704
  0
LINE
  5
257
100
AcDbEntity
  8
RACCORDO
100
AcDbLine
 62
7
  6
CONTINUOUS
 10
-0.1297791254
 20
29.9426445163
 11
-2.1865593833
 21
28.9362376385
  0
LWPOLYLINE
  5
258
100
AcDbEntity
  8
ASSI
100
AcDbPolyline
 62
7
  6
CONTINUOUS
 90
7
 70
0
 10
-2.2552131827
 20
30.4837567189
 10
-2.246047273
 20
30.4881263022
 10
-2.2369136162
 20
30.4921936964
 10
-2.2278122124
 20
30.4959589015
 10
-2.2187430616
 20
30.4994219176
 10
-2.2097061638
 20
30.5025827445
 10
-2.2007015189
 20
30.5054413823
  0
LINE
  5
259
100
AcDbEntity
  8
RACCORDO
100
AcDbLine
 62
250
  6
CONTINUOUS
 10
-3.1427740029
 20
27.6128768822
 11
-3.132264333
 21
27.617345038
  0
LWPOLYLINE
  5
25A
100
AcDbEntity
  8
RACCORDO
100
AcDbPolyline
 62
7
  6
CONTINUOUS
 90
5
 70
0
 10
-3.176625139
 20
27.5972444751
 10
-3.1586684272
 20
27.6042648964
 10
-3.140604938
 20
27.6090625088
 10
-3.1209028823
 20
27.6120556735
 10
-3.099534326
 20
27.6130326813
  0
LWPOLYLINE
  5
25B
100
AcDbEntity
  8
RACCORDO
100
AcDbPolyline
 62
250
  6
CONTINUOUS
 90
7
 70
0
 10
-3.132264333
 20
27.617345038
 10
-3.1014262801
 20
27.6264199671
 10
-3.0687453957
 20
27.6303750183
 10
-3.0345796372
 20
27.6291668589
 10
-2.9993032085
 20
27.6228087107
 10
-2.9633024616
 20
27.6113702057
 10
-2.9269716945
 20
27.5949766095
  0
LWPOLYLINE
  5
25C
100
AcDbEntity
  8
RACCORDO
100
AcDbPolyline
 62
250
  6
CONTINUOUS
 90
5
 70
0
 10
2.9072521352
 20
-17.8163992055
 10
2.9056784357
 20
-17.8156307905
 10
2.8986507359
 20
-17.812624585
 10
2.8913663543
 20
-17.810183962
 10
2.8838434099
 20
-17.8083149921
  0
LINE
  5
25D
100
AcDbEntity
  8
RACCORDO
100
AcDbLine
 62
250
  6
CONTINUOUS
 10
2.4449900335
 20
-17.5888883039
 11
2.8838434099
 21
-17.8083149921
  0
LINE
  5
25E
100
AcDbEntity
  8
RACCORDO
100
AcDbLine
 62
7
  6
CONTINUOUS
 10
2.4449900335
 20
-17.5852681544
 11
2.9072584611
 21
-17.8164023682
  0
LWPOLYLINE
  5
25F
100
AcDbEntity
  8
RACCORDO
100
AcDbPolyline
 62
250
  6
CONTINUOUS
 90
7
 70
0
 10
-16.0461437699
 20
-4.1775885202
 10
-16.5320120798
 20
-2.9538316638
 10
-17.016008106
 20
-1.7290823954
 10
-17.4981317065
 20
-0.5033459286
 10
-17.9783827496
 20
0.7233725174
 10
-18.4567611132
 20
1.951067718
 10
-18.9332666852
 20
3.1797344429
  0
LWPOLYLINE
  5
260
100
AcDbEntity
  8
RACCORDO
100
AcDbPolyline
 62
250
  6
CONTINUOUS
 90
18
 70
0
 10
-19.0630154431
 20
24.499697863
 10
-19.0628072067
 20
24.4883058645
 10
-19.0614851871
 20
24.4771318634
 10
-19.059059484
 20
24.4659719334
 10
-19.0555354711
 20
24.4548507974
 10
-19.0509209551
 20
24.443793092
 10
-19.0452261587
 20
24.4328233136
 10
-19.0384636976
 20
24.4219657636
 10
-19.0306485527
 20
24.4112444949
 10
-19.021798037
 20
24.4006832585
 10
-19.0119317573
 20
24.3903054507
 10
-19.0010715703
 20
24.3801340617
 10
-18.9892415349
 20
24.3701916242
 10
-18.9764678581
 20
24.3605001639
 10
-18.9627788377
 20
24.3510811504
 10
-18.9482047992
 20
24.3419554497
 10
-18.9327780286
 20
24.3331432781
 10
-18.9165327009
 20
24.3246641573
  0
LINE
  5
261
100
AcDbEntity
  8
RACCORDO
100
AcDbLine
 62
7
  6
CONTINUOUS
 10
-4.0687367616
 20
26.8250317326
 11
-3.2146354976
 21
27.57253607
  0
LWPOLYLINE
  5
262
100
AcDbEntity
  8
RACCORDO
100
AcDbPolyline
 62
7
  6
CONTINUOUS
 90
4
 70
0
 10
-3.2146369344
 20
27.5725348125
 10
-3.2035777559
 20
27.5813893016
 10
-3.1900760548
 20
27.5902352106
 10
-3.176625139
 20
27.5972444751
  0
LINE
  5
263
100
AcDbEntity
  8
RACCORDO
100
AcDbLine
 62
250
  6
CONTINUOUS
 10
-2.9016122782
 20
27.6069470882
 11
-2.8564480592
 21
27.6287548696
  0
LWPOLYLINE
  5
264
100
AcDbEntity
  8
RACCORDO
100
AcDbPolyline
 62
250
  6
CONTINUOUS
 90
61
 70
0
 10
-2.8564480592
 20
27.6287548696
 10
-2.8368927295
 20
27.6380137642
 10
-2.8267437126
 20
27.6427415043
 10
-2.8162946819
 20
27.6475132167
 10
-2.8055461227
 20
27.6523292729
 10
-2.7944975498
 20
27.6571893015
 10
-2.7830947992
 20
27.6620710025
 10
-2.7713361889
 20
27.6669758348
 10
-2.7592234009
 20
27.6719023396
 10
-2.7467073172
 20
27.6768238399
 10
-2.7337831999
 20
27.6817428056
 10
-2.720455787
 20
27.6866567668
 10
-2.7066901743
 20
27.6915316374
 10
-2.6924831602
 20
27.6963689762
 10
-2.6778379464
 20
27.7011672244
 10
-2.6627292339
 20
27.7058876194
 10
-2.6471540677
 20
27.7105315728
 10
-2.6311154027
 20
27.715097673
 10
-2.6145968043
 20
27.7195429226
 10
-2.5975815349
 20
27.7238712382
 10
-2.580086332
 20
27.7280787032
 10
-2.5621449739
 20
27.7321105705
 10
-2.5436981395
 20
27.7359732886
 10
-2.52480515
 20
27.739660409
 10
-2.5056777475
 20
27.7430978393
 10
-2.4863082947
 20
27.7462752868
 10
-2.4667044288
 20
27.7492030442
 10
-2.4471008039
 20
27.7518378959
 10
-2.4275131544
 20
27.7541678185
 10
-2.4079257458
 20
27.7562048356
 10
-2.3885260285
 20
27.7579418026
 10
-2.369337844
 20
27.7593706708
 10
-2.3503373508
 20
27.7604994889
 10
-2.3316404751
 20
27.7613452586
 10
-2.3132718556
 20
27.7619050753
 10
-2.2952068536
 20
27.7621818436
 10
-2.27748748
 20
27.7622012786
 10
-2.260112036
 20
27.7619629296
 10
-2.2430822203
 20
27.7614672474
 10
-2.2264451396
 20
27.7607412995
 10
-2.2102026561
 20
27.7597841123
 10
-2.1943529075
 20
27.7585966593
 10
-2.1789374134
 20
27.7572089292
 10
-2.1639691739
 20
27.7556217798
 10
-2.1494351889
 20
27.7538343533
 10
-2.1353379782
 20
27.7518740648
 10
-2.1216837369
 20
27.7497426741
 10
-2.1084662699
 20
27.7474384214
 10
-2.0956695112
 20
27.7449834424
 10
-2.0832968849
 20
27.7423799182
 10
-2.0713449668
 20
27.7396256676
 10
-2.0597874185
 20
27.7367362826
 10
-2.0486248042
 20
27.7337138787
 10
-2.0378565597
 20
27.7305563404
 10
-2.0274546535
 20
27.7272729137
 10
-2.0174179791
 20
27.7238653784
 10
-2.0077476431
 20
27.7203319547
 10
-1.9984189335
 20
27.7166765483
 10
-1.9894236131
 20
27.7129004612
 10
-1.980769919
 20
27.7090023915
 10
-1.9724578514
 20
27.7049823391
  0
LWPOLYLINE
  5
265
100
AcDbEntity
  8
RACCORDO
100
AcDbPolyline
 62
250
  6
CONTINUOUS
 90
3
 70
0
 10
-2.9269716945
 20
27.5949766095
 10
-2.9186501578
 20
27.5988714349
 10
-2.9016122782
 20
27.6069470882
  0
LINE
  5
266
100
AcDbEntity
  8
RACCORDO
100
AcDbLine
 62
250
  6
CONTINUOUS
 10
-2.9644306905
 20
27.5776768038
 11
-2.9269716945
 21
27.5949766095
  0
LINE
  5
267
100
AcDbEntity
  8
0
100
AcDbLine
 62
7
  6
CONTINUOUS
 10
-15.057607352
 20
-2.0900827866
 11
-15.3056566174
 21
-1.8394523633
  0
LINE
  5
268
100
AcDbEntity
  8
RACCORDO
100
AcDbLine
 62
7
  6
CONTINUOUS
 10
-14.7096544398
 20
-3.2761498671
 11
-15.0718056527
 21
-2.8975733362
  0
LWPOLYLINE
  5
269
100
AcDbEntity
  8
RACCORDO
100
AcDbPolyline
 62
7
  6
CONTINUOUS
 90
21
 70
0
 10
-14.4410664394
 20
-3.6541657737
 10
-14.4369260899
 20
-3.6640233348
 10
-14.4327413243
 20
-3.673043517
 10
-14.4281930413
 20
-3.6820330459
 10
-14.4232870036
 20
-3.6909768496
 10
-14.4180501354
 20
-3.6998783912
 10
-14.4124887247
 20
-3.7087267868
 10
-14.4066088756
 20
-3.7175087146
 10
-14.4004359556
 20
-3.7262249487
 10
-14.393976192
 20
-3.734865713
 10
-14.3872358618
 20
-3.7434194737
 10
-14.3802396782
 20
-3.7518850591
 10
-14.3729934466
 20
-3.7602543845
 10
-14.3655041721
 20
-3.7685167978
 10
-14.3577982001
 20
-3.7766678897
 10
-14.3498815817
 20
-3.7847007912
 10
-14.3417618489
 20
-3.7926061766
 10
-14.3334680197
 20
-3.8003766847
 10
-14.3250148264
 20
-3.8080054515
 10
-14.316402358
 20
-3.8154859973
 10
-14.3076380523
 20
-3.822812297
  0
LWPOLYLINE
  5
26A
100
AcDbEntity
  8
RACCORDO
100
AcDbPolyline
 62
250
  6
CONTINUOUS
 90
7
 70
0
 10
-15.7620577158
 20
-3.752930302
 10
-16.2110222555
 20
-2.6216539161
 10
-16.6583882702
 20
-1.4895336391
 10
-17.1041557599
 20
-0.3565694713
 10
-17.5483247246
 20
0.7772385875
 10
-17.9908951644
 20
1.9118905373
 10
-18.4295416269
 20
3.0413983749
  0
LWPOLYLINE
  5
26B
100
AcDbEntity
  8
RACCORDO
100
AcDbPolyline
 62
7
  6
CONTINUOUS
 90
10
 70
0
 10
-17.1820128311
 20
3.3705422029
 10
-16.9363331852
 20
2.7332042215
 10
-16.618315816
 20
1.910498219
 10
-16.2994729348
 20
1.0882310895
 10
-15.9798050987
 20
0.2664042191
 10
-15.6593128903
 20
-0.5549809413
 10
-15.3379969176
 20
-1.3759228756
 10
-15.0158577635
 20
-2.1964201331
 10
-14.6928959853
 20
-3.0164713288
 10
-14.4410631334
 20
-3.6541617154
  0
LWPOLYLINE
  5
26C
100
AcDbEntity
  8
RACCORDO
100
AcDbPolyline
 62
250
  6
CONTINUOUS
 90
7
 70
0
 10
-17.1799136382
 20
3.5419942502
 10
-16.7058021565
 20
2.3120610127
 10
-16.2298501196
 20
1.0831069356
 10
-15.7520576139
 20
-0.1448627359
 10
-15.2724247355
 20
-1.3718427617
 10
-14.7909515905
 20
-2.5978279076
 10
-14.3076382952
 20
-3.8228129444
  0
LINE
  5
26D
100
AcDbEntity
  8
DRAFT
100
AcDbLine
 62
7
  6
CONTINUOUS
 10
-14.911440728
 20
-3.3179411757
 11
-17.4170736155
 21
3.2501252859
  0
LINE
  5
26E
100
AcDbEntity
  8
DRAFT
100
AcDbLine
 62
7
  6
CONTINUOUS
 10
-15.304209667
 20
-2.2883679654
 11
-15.3068953396
 21
-1.4551394474
  0
LWPOLYLINE
  5
26F
100
AcDbEntity
  8
RACCORDO
100
AcDbPolyline
 62
250
  6
CONTINUOUS
 90
31
 70
0
 10
-14.1981155612
 20
29.7982571804
 10
-14.19787498
 20
29.8096690898
 10
-14.1971538888
 20
29.8212905465
 10
-14.195954247
 20
29.8330899196
 10
-14.1942793145
 20
29.8450351062
 10
-14.192133648
 20
29.8570935813
 10
-14.1895230934
 20
29.8692324851
 10
-14.1864547599
 20
29.8814187672
 10
-14.1829369986
 20
29.8936192666
 10
-14.1789793894
 20
29.9058007635
 10
-14.1745927075
 20
29.9179300992
 10
-14.1697888944
 20
29.9299742613
 10
-14.1645810298
 20
29.9419004633
 10
-14.1589832845
 20
29.953676258
 10
-14.1530109028
 20
29.9652695804
 10
-14.1466801686
 20
29.9766488326
 10
-14.1400083476
 20
29.9877830003
 10
-14.1330135793
 20
29.9986418319
 10
-14.1257148424
 20
30.0091958679
 10
-14.1181318998
 20
30.0194165107
 10
-14.1102854815
 20
30.0292757996
 10
-14.1021971902
 20
30.0387466158
 10
-14.0938892224
 20
30.0478030438
 10
-14.0853840501
 20
30.0564206604
 10
-14.0767045873
 20
30.0645762743
 10
-14.0678724968
 20
30.0722493228
 10
-14.0589137138
 20
30.0794170704
 10
-14.0498583769
 20
30.086055977
 10
-14.0407332082
 20
30.0921477743
 10
-14.0315612036
 20
30.0976784217
 10
-14.0223673053
 20
30.1026339954
  0
LWPOLYLINE
  5
270
100
AcDbEntity
  8
RACCORDO
100
AcDbPolyline
 62
250
  6
CONTINUOUS
 90
27
 70
0
 10
-12.8692963446
 20
29.1825320225
 10
-12.8671516448
 20
29.1945876222
 10
-12.8645422617
 20
29.2067236601
 10
-12.8614752944
 20
29.2189071179
 10
-12.8579590871
 20
29.2311048486
 10
-12.8540032063
 20
29.2432836661
 10
-12.8496184146
 20
29.2554104358
 10
-12.8448166416
 20
29.267452165
 10
-12.8396109513
 20
29.2793760919
 10
-12.8340155067
 20
29.2911497756
 10
-12.8280455312
 20
29.3027411836
 10
-12.821717267
 20
29.3141187798
 10
-12.8150479313
 20
29.3252516093
 10
-12.8080556692
 20
29.3361093834
 10
-12.8007595043
 20
29.3466625616
 10
-12.7931792869
 20
29.3568824324
 10
-12.7853356405
 20
29.3667411908
 10
-12.777249905
 20
29.3762120143
 10
-12.7689440789
 20
29.3852691361
 10
-12.7604407598
 20
29.3938879145
 10
-12.7517630822
 20
29.4020449009
 10
-12.7429346554
 20
29.4097179028
 10
-12.7339794985
 20
29.4168860444
 10
-12.7249219756
 20
29.4235298235
 10
-12.7157867291
 20
29.4296311648
 10
-12.7065986131
 20
29.4351734684
 10
-12.6973826254
 20
29.4401416555
  0
LWPOLYLINE
  5
271
100
AcDbEntity
  8
RACCORDO
100
AcDbPolyline
 62
7
  6
CONTINUOUS
 90
22
 70
0
 10
-17.1799247094
 20
3.5420067446
 10
-17.1821477797
 20
3.5324342715
 10
-17.1841935918
 20
3.5229142204
 10
-17.1860523317
 20
3.5134499259
 10
-17.1877108018
 20
3.5040338023
 10
-17.1891623128
 20
3.4946800207
 10
-17.1904070904
 20
3.4854243151
 10
-17.1914350143
 20
3.4762702152
 10
-17.1922370927
 20
3.4672200117
 10
-17.1928156311
 20
3.4583073015
 10
-17.1931607335
 20
3.4495352418
 10
-17.1932635049
 20
3.4409059714
 10
-17.1931274674
 20
3.4324515882
 10
-17.1927426261
 20
3.4241743808
 10
-17.1920999799
 20
3.4160770535
 10
-17.1912036051
 20
3.4081926228
 10
-17.1900432244
 20
3.4005231322
 10
-17.1886096304
 20
3.3930713017
 10
-17.1869068792
 20
3.3858717118
 10
-17.184924031
 20
3.3789257137
 10
-17.1826514699
 20
3.372236646
 10
-17.1820108335
 20
3.3705370147
  0
LINE
  5
272
100
AcDbEntity
  8
RACCORDO
100
AcDbLine
 62
250
  6
CONTINUOUS
 10
-3.9148342068
 20
26.7480804552
 11
-2.9660240266
 21
27.5784734719
  0
LINE
  5
273
100
AcDbEntity
  8
RACCORDO
100
AcDbLine
 62
7
  6
CONTINUOUS
 10
-1.9744273489
 20
23.8633730682
 11
-2.3321064982
 21
23.6637771163
  0
LINE
  5
274
100
AcDbEntity
  8
RACCORDO
100
AcDbLine
 62
7
  6
CONTINUOUS
 10
-2.3321064982
 20
24.8965040887
 11
-1.9744273489
 21
25.0758086335
  0
LINE
  5
275
100
AcDbEntity
  8
ASSI
100
AcDbLine
 62
7
  6
CONTINUOUS
 10
-1.9744273489
 20
25.0758086335
 11
3.3000647202
 21
27.7061177674
  0
LINE
  5
276
100
AcDbEntity
  8
DRAFT
100
AcDbLine
 62
7
  6
CONTINUOUS
 10
-1.9744273489
 20
23.8633730682
 11
3.3559769706
 21
26.5024623369
  0
LINE
  5
277
100
AcDbEntity
  8
ASSI
100
AcDbLine
 62
7
  6
CONTINUOUS
 10
2.6945342856
 20
28.0088829847
 11
-1.9037166708
 21
25.7425216872
  0
LINE
  5
278
100
AcDbEntity
  8
RACCORDO
100
AcDbLine
 62
7
  6
CONTINUOUS
 10
4.1128615617
 20
27.8213241727
 11
3.4772693704
 21
27.510321405
  0
LINE
  5
279
100
AcDbEntity
  8
RACCORDO
100
AcDbLine
 62
7
  6
CONTINUOUS
 10
12.8805252847
 20
30.8066586181
 11
12.5183185452
 21
30.6296899669
  0
LWPOLYLINE
  5
27A
100
AcDbEntity
  8
ASSI
100
AcDbPolyline
 62
7
  6
CONTINUOUS
 90
7
 70
0
 10
2.6945342856
 20
28.0088829847
 10
2.7037001953
 20
28.013252568
 10
2.7128338521
 20
28.0173199623
 10
2.7219352559
 20
28.0210851674
 10
2.7310044067
 20
28.0245481834
 10
2.7400413046
 20
28.0277090103
 10
2.7490459494
 20
28.0305676482
  0
LWPOLYLINE
  5
27B
100
AcDbEntity
  8
RACCORDO
100
AcDbPolyline
 62
7
  6
CONTINUOUS
 90
18
 70
0
 10
4.1128615617
 20
27.8213241727
 10
4.1412360825
 20
27.8345061295
 10
4.1694705345
 20
27.8462405213
 10
4.1975649177
 20
27.8565273479
 10
4.2255692308
 20
27.8653794825
 10
4.253433475
 20
27.8727840521
 10
4.2810076547
 20
27.8787024377
 10
4.3082767833
 20
27.883125859
 10
4.3352558473
 20
27.8860630963
 10
4.3618398099
 20
27.8875018723
 10
4.3880447688
 20
27.8874347357
 10
4.4138546263
 20
27.8858691377
 10
4.4391160526
 20
27.8828151543
 10
4.4638058059
 20
27.8782693699
 10
4.487947128
 20
27.8722352001
 10
4.5114564143
 20
27.8647329673
 10
4.5343521945
 20
27.8557475527
 10
4.5538952465
 20
27.8466782983
  0
LINE
  5
27C
100
AcDbEntity
  8
RACCORDO
100
AcDbLine
 62
7
  6
CONTINUOUS
 10
-2.8957738009
 20
24.7642264244
 11
-2.9947321644
 21
24.7349147664
  0
LWPOLYLINE
  5
27D
100
AcDbEntity
  8
RACCORDO
100
AcDbPolyline
 62
7
  6
CONTINUOUS
 90
4
 70
0
 10
-2.9947321644
 20
24.7349147664
 10
-3.0165517212
 20
24.7285874151
 10
-3.0270011536
 20
24.7256272798
 10
-3.0371504175
 20
24.7228246639
  0
LINE
  5
27E
100
AcDbEntity
  8
RACCORDO
100
AcDbLine
 62
250
  6
CONTINUOUS
 10
-7.4062614512
 20
-8.4975398682
 11
-8.2956128745
 21
-7.4412108765
  0
LINE
  5
27F
100
AcDbEntity
  8
RACCORDO
100
AcDbLine
 62
250
  6
CONTINUOUS
 10
-7.2949534586
 20
-7.9717449798
 11
-8.2136757305
 21
-6.8806048191
  0
LINE
  5
280
100
AcDbEntity
  8
RACCORDO
100
AcDbLine
 62
250
  6
CONTINUOUS
 10
-8.2136757305
 20
-6.8806048191
 11
-8.6822824575
 21
-6.3235422575
  0
LINE
  5
281
100
AcDbEntity
  8
RACCORDO
100
AcDbLine
 62
250
  6
CONTINUOUS
 10
-8.2956128745
 20
-7.4412108765
 11
-9.1842475324
 21
-6.3845171625
  0
LWPOLYLINE
  5
282
100
AcDbEntity
  8
RACCORDO
100
AcDbPolyline
 62
250
  6
CONTINUOUS
 90
19
 70
0
 10
-14.1981155612
 20
29.4582832463
 10
-14.1978957066
 20
29.4475985898
 10
-14.1972366893
 20
29.4371603633
 10
-14.1961401485
 20
29.4269945309
 10
-14.1946088176
 20
29.4171264123
 10
-14.1926465024
 20
29.4075805176
 10
-14.1902580565
 20
29.3983804972
 10
-14.1874493864
 20
29.3895491853
 10
-14.1842274809
 20
29.3811086283
 10
-14.1806003833
 20
29.3730799199
 10
-14.1765771037
 20
29.365483009
 10
-14.1721676612
 20
29.3583368182
 10
-14.1673831246
 20
29.3516592529
 10
-14.1622354912
 20
29.3454669756
 10
-14.1567375232
 20
29.3397752632
 10
-14.1509027895
 20
29.334598137
 10
-14.1447445731
 20
29.3299476219
 10
-14.1382792988
 20
29.3258363482
 10
-14.1331422648
 20
29.3230647962
  0
LWPOLYLINE
  5
283
100
AcDbEntity
  8
RACCORDO
100
AcDbPolyline
 62
250
  6
CONTINUOUS
 90
19
 70
0
 10
-12.8731308814
 20
28.7957909064
 10
-12.8729110267
 20
28.7851062499
 10
-12.8722520095
 20
28.7746680234
 10
-12.8711554687
 20
28.7645021909
 10
-12.8696241378
 20
28.7546340724
 10
-12.8676618225
 20
28.7450881777
 10
-12.8652733767
 20
28.7358881573
 10
-12.8624647066
 20
28.7270568454
 10
-12.8592428011
 20
28.7186162883
 10
-12.8556157035
 20
28.71058758
 10
-12.8515924239
 20
28.7029906691
 10
-12.8471829813
 20
28.6958444783
 10
-12.8423984448
 20
28.689166913
 10
-12.8372508114
 20
28.6829746357
 10
-12.8317528434
 20
28.6772829233
 10
-12.8259181097
 20
28.6721057971
 10
-12.8197598932
 20
28.667455282
 10
-12.813294619
 20
28.6633440083
 10
-12.8081682018
 20
28.6605777655
  0
LINE
  5
284
100
AcDbEntity
  8
RACCORDO
100
AcDbLine
 62
7
  6
CONTINUOUS
 10
-14.2713388659
 20
29.8866455281
 11
-14.2713388659
 21
29.546671594
  0
LINE
  5
285
100
AcDbEntity
  8
RACCORDO
100
AcDbLine
 62
250
  6
CONTINUOUS
 10
-14.1981155612
 20
29.7982571804
 11
-14.1981155612
 21
29.4582832463
  0
LINE
  5
286
100
AcDbEntity
  8
RACCORDO
100
AcDbLine
 62
7
  6
CONTINUOUS
 10
-13.5683459117
 20
28.586692518
 11
-13.5683459117
 21
29.0406666196
  0
LINE
  5
287
100
AcDbEntity
  8
RACCORDO
100
AcDbLine
 62
250
  6
CONTINUOUS
 10
-13.495122607
 20
28.4949808231
 11
-13.495122607
 21
29.0040549673
  0
LINE
  5
288
100
AcDbEntity
  8
RACCORDO
100
AcDbLine
 62
250
  6
CONTINUOUS
 10
-12.8731308814
 20
28.7957909064
 11
-12.8731308814
 21
29.1357648405
  0
LINE
  5
289
100
AcDbEntity
  8
RACCORDO
100
AcDbLine
 62
250
  6
CONTINUOUS
 10
-12.5206089218
 20
28.7952781825
 11
-12.5206089218
 21
29.1352521167
  0
LWPOLYLINE
  5
28A
100
AcDbEntity
  8
RACCORDO
100
AcDbPolyline
 62
250
  6
CONTINUOUS
 90
7
 70
0
 10
-12.8073637626
 20
6.652889564
 10
-12.7984856879
 20
7.8086121368
 10
-12.7870861042
 20
8.9655409315
 10
-12.7731650914
 20
10.1236677677
 10
-12.7567227469
 20
11.2829844562
 10
-12.7377591861
 20
12.4434827995
 10
-12.7162745419
 20
13.6051545913
  0
LWPOLYLINE
  5
28B
100
AcDbEntity
  8
RACCORDO
100
AcDbPolyline
 62
250
  6
CONTINUOUS
 90
7
 70
0
 10
-12.3831825535
 20
6.9105705315
 10
-12.3745386524
 20
7.9789181694
 10
-12.3637399766
 20
9.0482760781
 10
-12.3507865259
 20
10.1186442577
 10
-12.3356783005
 20
11.1900227081
 10
-12.3184153002
 20
12.2624114293
 10
-12.3002321236
 20
13.267562815
  0
LWPOLYLINE
  5
28C
100
AcDbEntity
  8
RACCORDO
100
AcDbPolyline
 62
250
  6
CONTINUOUS
 90
5
 70
0
 10
-12.8731308814
 20
29.1357648405
 10
-12.8728904059
 20
29.1471742164
 10
-12.8721696337
 20
29.1587930266
 10
-12.8709705258
 20
29.1705896603
 10
-12.8692963446
 20
29.1825320225
  0
LWPOLYLINE
  5
28D
100
AcDbEntity
  8
RACCORDO
100
AcDbPolyline
 62
7
  6
CONTINUOUS
 90
5
 70
0
 10
-8.6900826874
 20
27.8630915532
 10
-8.6921192307
 20
27.8539701552
 10
-8.6936335896
 20
27.8441365577
 10
-8.6945899733
 20
27.8336783978
 10
-8.6949219595
 20
27.8221325795
  0
LINE
  5
28E
100
AcDbEntity
  8
RACCORDO
100
AcDbLine
 62
7
  6
CONTINUOUS
 10
0.8120388584
 20
24.2391209465
 11
-0.771134807
 21
23.4269228883
  0
LINE
  5
28F
100
AcDbEntity
  8
RACCORDO
100
AcDbLine
 62
250
  6
CONTINUOUS
 10
0.9247074623
 20
24.2324590105
 11
-0.6580491408
 21
23.4204749132
  0
LINE
  5
290
100
AcDbEntity
  8
0
100
AcDbLine
 62
7
  6
CONTINUOUS
 10
8.9641771599
 20
27.4784305025
 11
13.1915941691
 21
29.6470955664
  0
LINE
  5
291
100
AcDbEntity
  8
DRAFT
100
AcDbLine
 62
7
  6
CONTINUOUS
 10
8.7618064445
 20
27.1503227446
 11
12.9768326112
 21
29.2988982835
  0
LINE
  5
292
100
AcDbEntity
  8
RACCORDO
100
AcDbLine
 62
250
  6
CONTINUOUS
 10
2.2682163298
 20
23.5607045768
 11
0.666935539
 21
22.7579825733
  0
LINE
  5
293
100
AcDbEntity
  8
RACCORDO
100
AcDbLine
 62
250
  6
CONTINUOUS
 10
2.4449900335
 20
23.255815038
 11
0.8437092427
 21
22.4530930345
  0
LINE
  5
294
100
AcDbEntity
  8
RACCORDO
100
AcDbLine
 62
7
  6
CONTINUOUS
 10
0.8137752714
 20
24.2399891674
 11
0.8120388604
 21
24.2391209475
  0
LINE
  5
295
100
AcDbEntity
  8
0
100
AcDbLine
 62
7
  6
CONTINUOUS
 10
9.1907936094
 20
26.4856250605
 11
9.6857683562
 21
26.7331124339
  0
LINE
  5
296
100
AcDbEntity
  8
RACCORDO
100
AcDbLine
 62
250
  6
CONTINUOUS
 10
2.7964835016
 20
23.8241433968
 11
2.2682163298
 21
23.5607045768
  0
LINE
  5
297
100
AcDbEntity
  8
RACCORDO
100
AcDbLine
 62
250
  6
CONTINUOUS
 10
2.9732572052
 20
23.519253858
 11
2.4449900335
 21
23.255815038
  0
LINE
  5
298
100
AcDbEntity
  8
DRAFT
100
AcDbLine
 62
7
  6
CONTINUOUS
 10
8.2865436359
 20
26.7882594353
 11
9.3229355484
 21
27.3025387365
  0
LINE
  5
299
100
AcDbEntity
  8
RACCORDO
100
AcDbLine
 62
7
  6
CONTINUOUS
 10
1.3486452299
 20
24.5005412681
 11
0.8137752722
 21
24.2399891678
  0
LINE
  5
29A
100
AcDbEntity
  8
RACCORDO
100
AcDbLine
 62
250
  6
CONTINUOUS
 10
1.459157341
 20
24.4928064771
 11
0.9247074623
 21
24.2324590105
  0
LINE
  5
29B
100
AcDbEntity
  8
0
100
AcDbLine
 62
7
  6
CONTINUOUS
 10
8.961480362
 20
28.2369120299
 11
13.1915854729
 21
30.2930565031
  0
LINE
  5
29C
100
AcDbEntity
  8
RACCORDO
100
AcDbLine
 62
7
  6
CONTINUOUS
 10
7.1798275056
 20
26.2878412008
 11
2.4962906261
 21
24.0362172054
  0
LINE
  5
29D
100
AcDbEntity
  8
0
100
AcDbLine
 62
7
  6
CONTINUOUS
 10
8.088556921
 20
27.559571373
 11
6.5478678404
 21
26.8496920015
  0
LINE
  5
29E
100
AcDbEntity
  8
0
100
AcDbLine
 62
7
  6
CONTINUOUS
 10
-6.8752044236
 20
-7.0228367367
 11
-6.7325348719
 21
-7.0392981809
  0
LINE
  5
29F
100
AcDbEntity
  8
DRAFT
100
AcDbLine
 62
7
  6
CONTINUOUS
 10
-6.7869591772
 20
-7.129358172
 11
-7.8100787674
 21
-5.8943435768
  0
LWPOLYLINE
  5
2A0
100
AcDbEntity
  8
RACCORDO
100
AcDbPolyline
 62
250
  6
CONTINUOUS
 90
31
 70
0
 10
0.8437092427
 20
-19.186485039
 10
0.8388307429
 20
-19.1788722787
 10
0.8334851013
 20
-19.1710358136
 10
0.8276865112
 20
-19.1629968339
 10
0.821449826
 20
-19.1547763448
 10
0.8147922318
 20
-19.1463973829
 10
0.8077335827
 20
-19.1378850899
 10
0.800293927
 20
-19.1292635899
 10
0.7924928909
 20
-19.1205555766
 10
0.7843515715
 20
-19.1117846118
 10
0.7758920361
 20
-19.1029744993
 10
0.7671374993
 20
-19.0941494448
 10
0.7581120791
 20
-19.0853337713
 10
0.7488405127
 20
-19.0765516374
 10
0.7393480434
 20
-19.06782695
 10
0.7296605751
 20
-19.0591835189
 10
0.7198045505
 20
-19.0506449396
 10
0.7098069047
 20
-19.042234549
 10
0.6996949687
 20
-19.03397534
 10
0.6894963707
 20
-19.0258898783
 10
0.679238959
 20
-19.018000242
 10
0.6689507509
 20
-19.0103279808
 10
0.6586598324
 20
-19.00289404
 10
0.6483943274
 20
-18.9957187362
 10
0.6381823215
 20
-18.9888216988
 10
0.6280517364
 20
-18.9822217814
 10
0.6180302106
 20
-18.9759369856
 10
0.6081450721
 20
-18.9699844478
 10
0.5984233065
 20
-18.9643804183
 10
0.5888914813
 20
-18.959140212
 10
0.5795756307
 20
-18.9542781414
  0
LINE
  5
2A1
100
AcDbEntity
  8
DRAFT
100
AcDbLine
 62
7
  6
CONTINUOUS
 10
-7.6105476043
 20
-6.1351989968
 11
-7.7444822316
 21
-5.8610136094
  0
LWPOLYLINE
  5
2A2
100
AcDbEntity
  8
RACCORDO
100
AcDbPolyline
 62
250
  6
CONTINUOUS
 90
31
 70
0
 10
-12.5206089218
 20
29.1352521167
 10
-12.5209040162
 20
29.1466803558
 10
-12.5216801998
 20
29.1583210512
 10
-12.5229353472
 20
29.1701422849
 10
-12.5246660216
 20
29.1821116551
 10
-12.5268674794
 20
29.1941963309
 10
-12.5295336787
 20
29.2063631409
 10
-12.5326573054
 20
29.2185787149
 10
-12.5362297949
 20
29.230809565
 10
-12.5402413462
 20
29.2430221421
 10
-12.5446809564
 20
29.2551829568
 10
-12.5495364505
 20
29.2672586664
 10
-12.5547945105
 20
29.2792161552
 10
-12.5604407232
 20
29.2910226502
 10
-12.5664595984
 20
29.3026457649
 10
-12.5728346046
 20
29.3140535864
 10
-12.579548227
 20
29.325214793
 10
-12.5865820774
 20
29.3360988344
 10
-12.5939169292
 20
29.3466759632
 10
-12.6015327731
 20
29.3569173053
 10
-12.6094086363
 20
29.366794638
 10
-12.6175226783
 20
29.376280596
 10
-12.6258524702
 20
29.3853490324
 10
-12.6343753129
 20
29.3939753078
 10
-12.6430680714
 20
29.4021360318
 10
-12.6519088594
 20
29.409810452
 10
-12.6608715497
 20
29.416975686
 10
-12.6699258549
 20
29.4236080896
 10
-12.6790448994
 20
29.4296892905
 10
-12.6882055179
 20
29.4352051438
 10
-12.6973826254
 20
29.4401416555
  0
LWPOLYLINE
  5
2A3
100
AcDbEntity
  8
RACCORDO
100
AcDbPolyline
 62
7
  6
CONTINUOUS
 90
34
 70
0
 10
-10.9193281309
 20
29.9379741202
 10
-10.919528187
 20
29.9483759288
 10
-10.9201284244
 20
29.9589542969
 10
-10.9211273824
 20
29.969685315
 10
-10.922522618
 20
29.9805447681
 10
-10.9243109662
 20
29.9915080605
 10
-10.9264885475
 20
30.0025502715
 10
-10.929050372
 20
30.0136464184
 10
-10.9319905463
 20
30.0247714118
 10
-10.9353025413
 20
30.0358999822
 10
-10.9389788184
 20
30.0470069401
 10
-10.9430109787
 20
30.0580671613
 10
-10.947389976
 20
30.0690555425
 10
-10.9521058765
 20
30.0799472001
 10
-10.9571479466
 20
30.0907174872
 10
-10.9625048072
 20
30.1013419785
 10
-10.9681643314
 20
30.111796603
 10
-10.9741136694
 20
30.1220576931
 10
-10.9803393411
 20
30.1321019995
 10
-10.9868272736
 20
30.1419067544
 10
-10.9935627625
 20
30.1514497515
 10
-11.0005305017
 20
30.1607093917
 10
-11.0077147588
 20
30.1696646742
 10
-11.0150992744
 20
30.1782953061
 10
-11.0226672288
 20
30.1865817789
 10
-11.0304015503
 20
30.1945052862
 10
-11.0382847562
 20
30.2020478623
 10
-11.0462988557
 20
30.209192486
 10
-11.0544257861
 20
30.2159229288
 10
-11.0626471971
 20
30.2222239173
 10
-11.0709442938
 20
30.2280812646
 10
-11.0792982872
 20
30.2334817014
 10
-11.0876904363
 20
30.238412906
 10
-11.0961018346
 20
30.242863659
  0
LWPOLYLINE
  5
2A4
100
AcDbEntity
  8
RACCORDO
100
AcDbPolyline
 62
7
  6
CONTINUOUS
 90
25
 70
0
 10
-10.8628892171
 20
5.9282816417
 10
-10.8628260139
 20
5.918274712
 10
-10.8623824842
 20
5.9059786535
 10
-10.8615732383
 20
5.8935996187
 10
-10.8604000126
 20
5.8811525368
 10
-10.8588612383
 20
5.868652948
 10
-10.8569900679
 20
5.8561126001
 10
-10.8547881651
 20
5.8435439351
 10
-10.852255097
 20
5.8309607109
 10
-10.8494197816
 20
5.8183752588
 10
-10.8462838481
 20
5.8057980311
 10
-10.8428478413
 20
5.7932414461
 10
-10.8391383149
 20
5.7807198681
 10
-10.8351572031
 20
5.7682426592
 10
-10.8309058064
 20
5.7558205932
 10
-10.8264093568
 20
5.7434694969
 10
-10.8216698843
 20
5.7311967924
 10
-10.8166897073
 20
5.7190127633
 10
-10.8114945587
 20
5.7069369503
 10
-10.8060870592
 20
5.6949755884
 10
-10.8004704275
 20
5.6831377473
 10
-10.7946719141
 20
5.6714465264
 10
-10.7887033194
 20
5.6599137944
 10
-10.7825606598
 20
5.6485402952
 10
-10.776248082
 20
5.6373317238
  0
LINE
  5
2A5
100
AcDbEntity
  8
RACCORDO
100
AcDbLine
 62
250
  6
CONTINUOUS
 10
-12.1619102733
 20
28.5171952792
 11
-12.1619102733
 21
27.8283746563
  0
LINE
  5
2A6
100
AcDbEntity
  8
RACCORDO
100
AcDbLine
 62
250
  6
CONTINUOUS
 10
-11.8093883137
 20
28.6467746597
 11
-11.8093883137
 21
27.8391425379
  0
LINE
  5
2A7
100
AcDbEntity
  8
DRAFT
100
AcDbLine
 62
7
  6
CONTINUOUS
 10
-11.4673358863
 20
7.3702745921
 11
-11.4673358863
 21
12.8511146964
  0
LINE
  5
2A8
100
AcDbEntity
  8
RACCORDO
100
AcDbLine
 62
7
  6
CONTINUOUS
 10
-10.9193281309
 20
28.3358234592
 11
-10.9193281309
 21
29.9379741202
  0
LINE
  5
2A9
100
AcDbEntity
  8
RACCORDO
100
AcDbLine
 62
250
  6
CONTINUOUS
 10
-10.3910609592
 20
30.2014129402
 11
-10.3910609592
 21
29.8538814235
  0
LINE
  5
2AA
100
AcDbEntity
  8
RACCORDO
100
AcDbLine
 62
7
  6
CONTINUOUS
 10
-10.3188631022
 20
30.2892855724
 11
-10.3188631022
 21
29.9417540556
  0
LWPOLYLINE
  5
2AB
100
AcDbEntity
  8
RACCORDO
100
AcDbPolyline
 62
250
  6
CONTINUOUS
 90
7
 70
0
 10
-10.6867340179
 20
12.5903843293
 10
-10.7078471363
 20
11.4285267746
 10
-10.7264827712
 20
10.2678644684
 10
-10.7426407896
 20
9.1084056169
 10
-10.7563210763
 20
7.9501584176
 10
-10.7675235336
 20
6.7931310596
 10
-10.7762480817
 20
5.6373317236
  0
LWPOLYLINE
  5
2AC
100
AcDbEntity
  8
RACCORDO
100
AcDbPolyline
 62
7
  6
CONTINUOUS
 90
10
 70
0
 10
-10.778175228
 20
12.508755378
 10
-10.7887597728
 20
11.9323774316
 10
-10.8020736176
 20
11.1552379952
 10
-10.8142778604
 20
10.3786344774
 10
-10.8253724567
 20
9.6025692426
 10
-10.8353573704
 20
8.8270447172
 10
-10.8442325754
 20
8.0520633988
 10
-10.8519980462
 20
7.277627771
 10
-10.8586537577
 20
6.5037403004
 10
-10.862885907
 20
5.9282824188
  0
LWPOLYLINE
  5
2AD
100
AcDbEntity
  8
RACCORDO
100
AcDbPolyline
 62
250
  6
CONTINUOUS
 90
16
 70
0
 10
-10.3188631022
 20
30.2892855724
 10
-10.3191643727
 20
30.2831507435
 10
-10.3201440913
 20
30.2766477953
 10
-10.3218007803
 20
30.2701792311
 10
-10.3241299318
 20
30.2637626644
 10
-10.3271252121
 20
30.2574155533
 10
-10.330778471
 20
30.2511551765
 10
-10.335079769
 20
30.2449985733
 10
-10.3400174016
 20
30.2389625028
 10
-10.3455779269
 20
30.2330634004
 10
-10.351746216
 20
30.227317319
 10
-10.3585054773
 20
30.2217399033
 10
-10.3658372911
 20
30.216346351
 10
-10.3737216893
 20
30.2111513466
 10
-10.382137215
 20
30.2061690231
 10
-10.3910609592
 20
30.2014129402
  0
LWPOLYLINE
  5
2AE
100
AcDbEntity
  8
RACCORDO
100
AcDbPolyline
 62
250
  6
CONTINUOUS
 90
16
 70
0
 10
-10.3188631022
 20
29.9417517435
 10
-10.3191660254
 20
29.9356024327
 10
-10.3201472625
 20
29.9291006858
 10
-10.3218052202
 20
29.9226333668
 10
-10.3241353866
 20
29.9162180749
 10
-10.3271314222
 20
29.9098722627
 10
-10.3307851787
 20
29.9036131906
 10
-10.3350867233
 20
29.89745788
 10
-10.340024349
 20
29.8914230884
 10
-10.3455846021
 20
29.8855252566
 10
-10.3517523355
 20
29.8797804423
 10
-10.3585107742
 20
29.8742042627
 10
-10.3658415448
 20
29.8688118743
 10
-10.3737247089
 20
29.8636179445
 10
-10.3821388115
 20
29.8586366097
 10
-10.3910609592
 20
29.8538814235
  0
LWPOLYLINE
  5
2AF
100
AcDbEntity
  8
RACCORDO
100
AcDbPolyline
 62
7
  6
CONTINUOUS
 90
25
 70
0
 10
-10.7781775724
 20
12.5087567502
 10
-10.777999394
 20
12.510086552
 10
-10.7774091654
 20
12.5117966824
 10
-10.7764449894
 20
12.5137271085
 10
-10.77510899
 20
12.5158633679
 10
-10.7733999607
 20
12.5181884269
 10
-10.7713517025
 20
12.520708947
 10
-10.7689662247
 20
12.523411955
 10
-10.7662434448
 20
12.5262822715
 10
-10.7632128821
 20
12.529325745
 10
-10.7598764798
 20
12.5325305367
 10
-10.7562351299
 20
12.5358828252
 10
-10.7523160095
 20
12.5393871429
 10
-10.7481213625
 20
12.5430323361
 10
-10.7436528276
 20
12.546805662
 10
-10.7389362962
 20
12.5507102937
 10
-10.7339740853
 20
12.5547359502
 10
-10.7287688707
 20
12.5588704189
 10
-10.7233471647
 20
12.5631144883
 10
-10.717711888
 20
12.5674583873
 10
-10.7118666159
 20
12.5718903994
 10
-10.7058394953
 20
12.5764084811
 10
-10.6996428618
 20
12.581004989
 10
-10.6932728778
 20
12.5856669122
 10
-10.6867340173
 20
12.590384329
  0
LWPOLYLINE
  5
2B0
100
AcDbEntity
  8
RACCORDO
100
AcDbPolyline
 62
250
  6
CONTINUOUS
 90
139
 70
0
 10
-3.0757482301
 20
18.6523590828
 10
-3.0872159502
 20
18.64595498
 10
-3.0986758915
 20
18.6394060849
 10
-3.1101267558
 20
18.6327131562
 10
-3.1215672446
 20
18.6258769963
 10
-3.1329960633
 20
18.61889837
 10
-3.1444119208
 20
18.6117780013
 10
-3.1558135522
 20
18.6045166774
 10
-3.1671996369
 20
18.5971152688
 10
-3.1785688025
 20
18.5895746477
 10
-3.1899197642
 20
18.5818956904
 10
-3.2012512326
 20
18.5740792793
 10
-3.212561833
 20
18.5661263235
 10
-3.2238502772
 20
18.558037746
 10
-3.2351152935
 20
18.5498144795
 10
-3.246355535
 20
18.5414574739
 10
-3.2575697113
 20
18.53296771
 10
-3.2687565701
 20
18.524346157
 10
-3.2799148261
 20
18.5155937697
 10
-3.2910431993
 20
18.5067115721
 10
-3.3021404457
 20
18.4977005785
 10
-3.3132053381
 20
18.4885617468
 10
-3.3242366503
 20
18.4792961066
 10
-3.3352331045
 20
18.4699047486
 10
-3.3461934009
 20
18.4603887421
 10
-3.357116301
 20
18.4507491806
 10
-3.3680005636
 20
18.4409871783
 10
-3.3788448915
 20
18.4311038575
 10
-3.3896480551
 20
18.4211003587
 10
-3.4004088315
 20
18.4109778344
 10
-3.4111259418
 20
18.4007374466
 10
-3.42179817
 20
18.3903803782
 10
-3.4324243091
 20
18.3799078217
 10
-3.4430031025
 20
18.3693209748
 10
-3.4535333541
 20
18.3586210558
 10
-3.464013869
 20
18.3478093009
 10
-3.4744434007
 20
18.3368869555
 10
-3.4848207694
 20
18.3258552774
 10
-3.4951447987
 20
18.3147155408
 10
-3.5054142566
 20
18.3034690345
 10
-3.5156279591
 20
18.2921170795
 10
-3.5257847719
 20
18.2806609623
 10
-3.5358835457
 20
18.2691019376
 10
-3.5459231297
 20
18.2574413448
 10
-3.5559023942
 20
18.2456805199
 10
-3.5658202289
 20
18.2338207264
 10
-3.5756755094
 20
18.2218633285
 10
-3.5854671187
 20
18.2098097019
 10
-3.5951939659
 20
18.1976611412
 10
-3.6048549644
 20
18.1854190196
 10
-3.6144490002
 20
18.1730847657
 10
-3.623974951
 20
18.1606597717
 10
-3.6334317701
 20
18.1481454185
 10
-3.6428183486
 20
18.1355431895
 10
-3.6521334856
 20
18.1228546489
 10
-3.6613761431
 20
18.1100812321
 10
-3.6705452562
 20
18.0972244339
 10
-3.6796396016
 20
18.0842859281
 10
-3.6886581131
 20
18.0712672645
 10
-3.6975998129
 20
18.0581698887
 10
-3.7064636277
 20
18.0449953369
 10
-3.7152484859
 20
18.0317452381
 10
-3.7239534705
 20
18.0184210131
 10
-3.7325777491
 20
18.0050238945
 10
-3.7411203604
 20
17.9915553971
 10
-3.7495803201
 20
17.9780170949
 10
-3.7579567671
 20
17.9644103131
 10
-3.7662488556
 20
17.9507364336
 10
-3.7744555322
 20
17.9369972032
 10
-3.7825756403
 20
17.9231945075
 10
-3.7906082336
 20
17.9093299823
 10
-3.7985524322
 20
17.8954051758
 10
-3.8064072034
 20
17.8814218597
 10
-3.8141715807
 20
17.8673817926
 10
-3.8218447734
 20
17.853286445
 10
-3.8294260258
 20
17.8391371648
 10
-3.8369144669
 20
17.8249356017
 10
-3.8443092616
 20
17.8106833648
 10
-3.8516097121
 20
17.7963817439
 10
-3.8588150541
 20
17.7820322405
 10
-3.8659243944
 20
17.7676366385
 10
-3.8729368535
 20
17.7531966571
 10
-3.8798516589
 20
17.7387138958
 10
-3.8866679948
 20
17.7241900744
 10
-3.8933849399
 20
17.7096271026
 10
-3.9000017267
 20
17.6950266679
 10
-3.9065176126
 20
17.6803904343
 10
-3.9129317406
 20
17.6657202867
 10
-3.919243359
 20
17.6510179808
 10
-3.9254517881
 20
17.6362851387
 10
-3.931556301
 20
17.6215234516
 10
-3.9375561872
 20
17.6067346757
 10
-3.9434507969
 20
17.5919204519
 10
-3.9492395097
 20
17.5770823023
 10
-3.9549216768
 20
17.5622219158
 10
-3.9604966505
 20
17.5473410147
 10
-3.9659638235
 20
17.5324411738
 10
-3.9713225882
 20
17.5175240666
 10
-3.9765723233
 20
17.502591443
 10
-3.9817124163
 20
17.4876449948
 10
-3.9867422974
 20
17.4726863948
 10
-3.991661381
 20
17.4577174034
 10
-3.9964690519
 20
17.4427398462
 10
-4.0011647492
 20
17.4277554978
 10
-4.0057479605
 20
17.4127660234
 10
-4.0102181641
 20
17.3977730858
 10
-4.0145748448
 20
17.3827784357
 10
-4.0188175186
 20
17.3677837645
 10
-4.0229457258
 20
17.3527906465
 10
-4.0269590009
 20
17.3378007813
 10
-4.0308568808
 20
17.3228159107
 10
-4.0346389238
 20
17.3078376722
 10
-4.0383047354
 20
17.2928676224
 10
-4.0418538544
 20
17.2779076426
 10
-4.0452857669
 20
17.2629598546
 10
-4.0486000823
 20
17.2480259999
 10
-4.0517964369
 20
17.2331077647
 10
-4.0548743942
 20
17.2182071828
 10
-4.0578335789
 20
17.2033261601
 10
-4.0606737109
 20
17.1884662025
 10
-4.063394518
 20
17.1736287397
 10
-4.0659956736
 20
17.1588156155
 10
-4.0684769165
 20
17.1440283834
 10
-4.0708380708
 20
17.1292680382
 10
-4.073078884
 20
17.1145361006
 10
-4.0751990635
 20
17.0998344377
 10
-4.0771983723
 20
17.0851645648
 10
-4.0790765884
 20
17.0705280102
 10
-4.0808334625
 20
17.0559266156
 10
-4.0824687407
 20
17.04136236
 10
-4.0839822297
 20
17.0268369181
 10
-4.0853737515
 20
17.0123519561
 10
-4.0866431111
 20
16.9979094284
 10
-4.0877901647
 20
16.9835109829
 10
-4.0888147824
 20
16.969158279
 10
-4.0897168257
 20
16.9548532757
 10
-4.0904961938
 20
16.940597714
 10
-4.0911528151
 20
16.92639312
 10
-4.0916866233
 20
16.9122411184
  0
LINE
  5
2B1
100
AcDbEntity
  8
RACCORDO
100
AcDbLine
 62
7
  6
CONTINUOUS
 10
2.4449900335
 20
21.653664377
 11
1.5549298508
 21
21.1569834557
  0
LWPOLYLINE
  5
2B2
100
AcDbEntity
  8
RACCORDO
100
AcDbPolyline
 62
250
  6
CONTINUOUS
 90
3
 70
0
 10
1.0978729281
 20
20.1705626769
 10
0.9105737329
 20
20.0672366013
 10
0.5204006312
 20
19.8509033099
  0
LINE
  5
2B3
100
AcDbEntity
  8
RACCORDO
100
AcDbLine
 62
250
  6
CONTINUOUS
 10
1.4574993282
 20
20.3678347662
 11
1.0978729281
 21
20.1705626769
  0
LINE
  5
2B4
100
AcDbEntity
  8
RACCORDO
100
AcDbLine
 62
250
  6
CONTINUOUS
 10
2.4682485532
 20
21.6420351171
 11
1.3139417402
 21
21.0117125642
  0
LWPOLYLINE
  5
2B5
100
AcDbEntity
  8
RACCORDO
100
AcDbPolyline
 62
250
  6
CONTINUOUS
 90
3
 70
0
 10
2.7875599514
 20
21.09391532
 10
1.9991497813
 20
20.6635523335
 10
1.4574993282
 20
20.3678347662
  0
LINE
  5
2B6
100
AcDbEntity
  8
RACCORDO
100
AcDbLine
 62
250
  6
CONTINUOUS
 10
1.3139417402
 20
21.0117125642
 11
0.9563478453
 21
20.8168421703
  0
LINE
  5
2B7
100
AcDbEntity
  8
RACCORDO
100
AcDbLine
 62
250
  6
CONTINUOUS
 10
0.9563478453
 20
20.8168421703
 11
0.5852343398
 21
20.6156976951
  0
LINE
  5
2B8
100
AcDbEntity
  8
RACCORDO
100
AcDbLine
 62
7
  6
CONTINUOUS
 10
8.0613629642
 20
25.5539830094
 11
2.569819636
 21
22.5911693985
  0
LWPOLYLINE
  5
2B9
100
AcDbEntity
  8
RACCORDO
100
AcDbPolyline
 62
250
  6
CONTINUOUS
 90
5
 70
0
 10
-2.226274424
 20
19.1122079044
 10
-2.4364526676
 20
18.9990786707
 10
-2.6488120978
 20
18.884310491
 10
-2.8619106187
 20
18.768737295
 10
-3.0757482301
 20
18.6523590828
  0
LINE
  5
2BA
100
AcDbEntity
  8
RACCORDO
100
AcDbLine
 62
250
  6
CONTINUOUS
 10
0.5852343398
 20
20.6156976951
 11
0.1920257863
 21
20.4038533984
  0
LINE
  5
2BB
100
AcDbEntity
  8
RACCORDO
100
AcDbLine
 62
250
  6
CONTINUOUS
 10
-1.8038089207
 20
19.3385531121
 11
-2.226274424
 21
19.1122079044
  0
LINE
  5
2BC
100
AcDbEntity
  8
RACCORDO
100
AcDbLine
 62
250
  6
CONTINUOUS
 10
0.1920257863
 20
20.4038533984
 11
-0.234536796
 21
20.1754750872
  0
LWPOLYLINE
  5
2BD
100
AcDbEntity
  8
RACCORDO
100
AcDbPolyline
 62
250
  6
CONTINUOUS
 90
3
 70
0
 10
-0.234536796
 20
20.1754750872
 10
-0.6812984075
 20
19.9370664124
 10
-1.8038089207
 20
19.3385531121
  0
LINE
  5
2BE
100
AcDbEntity
  8
RACCORDO
100
AcDbLine
 62
7
  6
CONTINUOUS
 10
8.0613629642
 20
25.0566530524
 11
2.7032116271
 21
22.2241026722
  0
LINE
  5
2BF
100
AcDbEntity
  8
DRAFT
100
AcDbLine
 62
7
  6
CONTINUOUS
 10
3.1457816172
 20
22.0028176771
 11
8.7404664321
 21
24.9417613949
  0
LINE
  5
2C0
100
AcDbEntity
  8
RACCORDO
100
AcDbLine
 62
7
  6
CONTINUOUS
 10
12.0127920939
 20
26.3390004477
 11
10.7013277829
 21
25.6832682922
  0
LINE
  5
2C1
100
AcDbEntity
  8
RACCORDO
100
AcDbLine
 62
7
  6
CONTINUOUS
 10
10.000104041
 20
25.3326564213
 11
8.8478602196
 21
24.7565345106
  0
LINE
  5
2C2
100
AcDbEntity
  8
0
100
AcDbLine
 62
7
  6
CONTINUOUS
 10
12.5085857592
 20
26.0715166881
 11
10.2417083751
 21
24.9380779961
  0
LINE
  5
2C3
100
AcDbEntity
  8
0
100
AcDbLine
 62
7
  6
CONTINUOUS
 10
9.5404846333
 20
24.5874661252
 11
9.1215659161
 21
24.3780067666
  0
LINE
  5
2C4
100
AcDbEntity
  8
0
100
AcDbLine
 62
7
  6
CONTINUOUS
 10
11.063727219
 20
25.0877411336
 11
10.8150738457
 21
24.963414447
  0
LWPOLYLINE
  5
2C5
100
AcDbEntity
  8
RACCORDO
100
AcDbPolyline
 62
7
  6
CONTINUOUS
 90
10
 70
0
 10
12.7476126912
 20
25.4519485812
 10
12.7587929566
 20
25.4572962858
 10
12.7693771838
 20
25.4618750431
 10
12.7793653728
 20
25.4656848531
 10
12.7888331781
 20
25.4687418733
 10
12.7977049453
 20
25.4710299463
 10
12.8057537105
 20
25.4725006
 10
12.812903819
 20
25.4731376771
 10
12.8192309256
 20
25.4729573348
 10
12.8247350301
 20
25.4719595733
  0
LINE
  5
2C6
100
AcDbEntity
  8
RACCORDO
100
AcDbLine
 62
250
  6
CONTINUOUS
 10
3.1873552146
 20
21.9820308784
 11
2.4679058387
 21
21.6422064744
  0
LINE
  5
2C7
100
AcDbEntity
  8
RACCORDO
100
AcDbLine
 62
250
  6
CONTINUOUS
 10
3.5056502053
 20
21.4330977569
 11
2.7875599514
 21
21.09391532
  0
LINE
  5
2C8
100
AcDbEntity
  8
0
100
AcDbLine
 62
7
  6
CONTINUOUS
 10
12.2454851374
 20
23.6432609494
 11
11.6887557604
 21
23.4703180087
  0
LWPOLYLINE
  5
2C9
100
AcDbEntity
  8
RACCORDO
100
AcDbPolyline
 62
7
  6
CONTINUOUS
 90
22
 70
0
 10
-4.7908026782
 20
-3.9029531119
 10
-4.7875844185
 20
-3.9065474078
 10
-4.7838287156
 20
-3.9102118038
 10
-4.7797021657
 20
-3.9137617524
 10
-4.7752115013
 20
-3.9172053078
 10
-4.7703622484
 20
-3.9205528636
 10
-4.7651817393
 20
-3.9237848376
 10
-4.7596761017
 20
-3.9269089774
 10
-4.7538512396
 20
-3.9299345588
 10
-4.7477328875
 20
-3.9328430683
 10
-4.7413271315
 20
-3.9356419302
 10
-4.7346400774
 20
-3.9383398136
 10
-4.7276967787
 20
-3.940919329
 10
-4.7205029175
 20
-3.9433878312
 10
-4.7130653521
 20
-3.9457533757
 10
-4.7054107524
 20
-3.9479992989
 10
-4.6975450664
 20
-3.9501328055
 10
-4.6894757019
 20
-3.9521617525
 10
-4.6812319899
 20
-3.9540705175
 10
-4.6728287092
 20
-3.9558589393
 10
-4.664265721
 20
-3.9575421064
 10
-4.6555503791
 20
-3.9591272736
  0
LINE
  5
2CA
100
AcDbEntity
  8
RACCORDO
100
AcDbLine
 62
250
  6
CONTINUOUS
 10
-5.832381906
 20
-2.5450729997
 11
-4.6555606277
 21
-3.959119171
  0
LINE
  5
2CB
100
AcDbEntity
  8
RACCORDO
100
AcDbLine
 62
7
  6
CONTINUOUS
 10
-6.3218533518
 20
-2.0632028667
 11
-4.7908021601
 21
-3.9029537338
  0
LINE
  5
2CC
100
AcDbEntity
  8
RACCORDO
100
AcDbLine
 62
250
  6
CONTINUOUS
 10
-6.4203275492
 20
-1.8377995708
 11
-5.832381906
 21
-2.5450729997
  0
LWPOLYLINE
  5
2CD
100
AcDbEntity
  8
RACCORDO
100
AcDbPolyline
 62
7
  6
CONTINUOUS
 90
27
 70
0
 10
-8.6949219595
 20
27.8221325795
 10
-8.6946457232
 20
27.8112407584
 10
-8.6938545391
 20
27.7993809084
 10
-8.6925427687
 20
27.7871680918
 10
-8.6906900109
 20
27.7746622867
 10
-8.6883671812
 20
27.761885339
 10
-8.6855726449
 20
27.7488803827
 10
-8.6822949469
 20
27.7356934041
 10
-8.6785871971
 20
27.7223358915
 10
-8.674449182
 20
27.7088403279
 10
-8.6698749782
 20
27.695242877
 10
-8.6649054861
 20
27.6815516891
 10
-8.6595410181
 20
27.667792518
 10
-8.6537789734
 20
27.6539945137
 10
-8.6476524193
 20
27.6401657336
 10
-8.6411618742
 20
27.6263274136
 10
-8.6343068285
 20
27.6125038796
 10
-8.627115817
 20
27.5987049195
 10
-8.6195895187
 20
27.5849486333
 10
-8.6117288793
 20
27.571256006
 10
-8.6035604398
 20
27.5576396413
 10
-8.5950849116
 20
27.5441149838
 10
-8.5863046404
 20
27.5307010044
 10
-8.5772469555
 20
27.5174148534
 10
-8.5679221138
 20
27.5042726114
 10
-8.5583245165
 20
27.4912889613
 10
-8.5484575172
 20
27.4784782137
  0
LWPOLYLINE
  5
2CE
100
AcDbEntity
  8
RACCORDO
100
AcDbPolyline
 62
250
  6
CONTINUOUS
 90
31
 70
0
 10
-10.3910609592
 20
30.2014129402
 10
-10.3912512073
 20
30.2128936025
 10
-10.3919284718
 20
30.2245837574
 10
-10.3930908987
 20
30.2364513514
 10
-10.3947353053
 20
30.2484638555
 10
-10.3968571848
 20
30.2605883204
 10
-10.3994507138
 20
30.2727914656
 10
-10.4025087773
 20
30.2850398213
 10
-10.4060229904
 20
30.2972998095
 10
-10.4099837121
 20
30.3095378014
 10
-10.4143800788
 20
30.3217202378
 10
-10.4192000339
 20
30.3338137169
 10
-10.424430357
 20
30.3457850742
 10
-10.4300567108
 20
30.3576014987
 10
-10.4360636594
 20
30.3692305766
 10
-10.4424347042
 20
30.3806403788
 10
-10.449152341
 20
30.3917995782
 10
-10.4561981705
 20
30.4026776301
 10
-10.463552933
 20
30.4132448035
 10
-10.4711965654
 20
30.4234722514
 10
-10.4791080185
 20
30.4333317892
 10
-10.4872653527
 20
30.442796101
 10
-10.4956460189
 20
30.4518391003
 10
-10.5042271786
 20
30.4604362172
 10
-10.5129855382
 20
30.4685641406
 10
-10.5218990483
 20
30.4762021998
 10
-10.5309413688
 20
30.4833276187
 10
-10.5400819375
 20
30.4899168905
 10
-10.5492936104
 20
30.4959517773
 10
-10.5585529742
 20
30.5014182579
 10
-10.5678346629
 20
30.506302479
  0
LINE
  5
2CF
100
AcDbEntity
  8
RACCORDO
100
AcDbLine
 62
7
  6
CONTINUOUS
 10
-8.6949041266
 20
27.8221351828
 11
-8.6949041266
 21
26.5813182926
  0
LINE
  5
2D0
100
AcDbEntity
  8
RACCORDO
100
AcDbLine
 62
250
  6
CONTINUOUS
 10
-8.5484575172
 20
27.4784782137
 11
-8.5484575172
 21
26.3978949029
  0
LWPOLYLINE
  5
2D1
100
AcDbEntity
  8
RACCORDO
100
AcDbPolyline
 62
7
  6
CONTINUOUS
 90
30
 70
0
 10
1.5549298508
 20
21.9646155775
 10
1.5470507278
 20
21.9554811742
 10
1.5388304787
 20
21.9464837333
 10
1.5302726175
 20
21.9376447467
 10
1.521374187
 20
21.9289882168
 10
1.512147752
 20
21.9205335376
 10
1.5026211777
 20
21.9122956449
 10
1.4928009894
 20
21.9042968913
 10
1.4826950911
 20
21.8965590145
 10
1.4723343082
 20
21.8890964747
 10
1.4617277869
 20
21.8819316968
 10
1.4508858755
 20
21.8750863915
 10
1.4398420984
 20
21.8685744199
 10
1.42860825
 20
21.8624179008
 10
1.4171972992
 20
21.8566382369
 10
1.4056454787
 20
21.8512487134
 10
1.3939673468
 20
21.8462707557
 10
1.3821786153
 20
21.8417250584
 10
1.3703183013
 20
21.8376242732
 10
1.3584038536
 20
21.8339886478
 10
1.3464538403
 20
21.8308376627
 10
1.3345101627
 20
21.8281831264
 10
1.3225933131
 20
21.826043494
 10
1.3107247459
 20
21.8244363566
 10
1.2989491673
 20
21.8233721958
 10
1.2872903468
 20
21.8228668905
 10
1.2757724096
 20
21.8229352566
 10
1.264442057
 20
21.823585655
 10
1.2533367946
 20
21.8248290478
 10
1.2424724428
 20
21.8266765432
  0
LWPOLYLINE
  5
2D2
100
AcDbEntity
  8
RACCORDO
100
AcDbPolyline
 62
250
  6
CONTINUOUS
 90
138
 70
0
 10
-2.7176052814
 20
18.045108882
 10
-2.7252883109
 20
18.0407654716
 10
-2.7329645785
 20
18.0363264059
 10
-2.7406350132
 20
18.031791117
 10
-2.748298686
 20
18.0271601728
 10
-2.7559528107
 20
18.022435277
 10
-2.7635973456
 20
18.0176164341
 10
-2.7712323324
 20
18.0127036397
 10
-2.7788551105
 20
18.0076985849
 10
-2.7864656728
 20
18.0026012307
 10
-2.7940640264
 20
17.9974116162
 10
-2.8016475311
 20
17.9921315503
 10
-2.8092161784
 20
17.986761005
 10
-2.8167699768
 20
17.9813000082
 10
-2.8243063119
 20
17.9757504526
 10
-2.8318251657
 20
17.970112316
 10
-2.839326556
 20
17.9643856206
 10
-2.8468079229
 20
17.9585723249
 10
-2.8542692489
 20
17.9526724092
 10
-2.8617105513
 20
17.9466858934
 10
-2.8691293217
 20
17.9406147948
 10
-2.8765255713
 20
17.9344590701
 10
-2.8838992889
 20
17.9282187627
 10
-2.8912479322
 20
17.9218960211
 10
-2.898571495
 20
17.9154908143
 10
-2.9058699836
 20
17.9090031733
 10
-2.9131408747
 20
17.9024353392
 10
-2.920384158
 20
17.8957872846
 10
-2.927599844
 20
17.8890590369
 10
-2.9347854405
 20
17.8822529197
 10
-2.9419409357
 20
17.875368907
 10
-2.9490663416
 20
17.8684070249
 10
-2.9561592015
 20
17.8613696746
 10
-2.9632195058
 20
17.8542568282
 10
-2.9702472641
 20
17.8470685135
 10
-2.9772400493
 20
17.8398072161
 10
-2.98419785
 20
17.832472909
 10
-2.9911206776
 20
17.8250656191
 10
-2.9980061387
 20
17.8175879117
 10
-3.0048542064
 20
17.8100397785
 10
-3.0116649076
 20
17.8024212278
 10
-3.0184359299
 20
17.7947348501
 10
-3.025167256
 20
17.7869806286
 10
-3.0318589031
 20
17.7791585802
 10
-3.0385086109
 20
17.7712713457
 10
-3.0451163661
 20
17.7633189042
 10
-3.051682182
 20
17.7553012766
 10
-3.0582038379
 20
17.7472211669
 10
-3.0646813314
 20
17.7390785396
 10
-3.0711146649
 20
17.7308734302
 10
-3.077501626
 20
17.7226086494
 10
-3.0838422212
 20
17.7142841448
 10
-3.090136444
 20
17.7058999689
 10
-3.0963820616
 20
17.6974590897
 10
-3.1025790668
 20
17.6889614681
 10
-3.1087274669
 20
17.6804071433
 10
-3.1148250506
 20
17.6717992006
 10
-3.1208717718
 20
17.6631376573
 10
-3.1268676767
 20
17.6544224963
 10
-3.1328106925
 20
17.6456567509
 10
-3.138700754
 20
17.6368404782
 10
-3.1445379264
 20
17.6279736211
 10
-3.1503203324
 20
17.6190590418
 10
-3.1560479681
 20
17.6100967107
 10
-3.1617208373
 20
17.6010866575
 10
-3.1673370747
 20
17.5920318335
 10
-3.1728967328
 20
17.582932104
 10
-3.1783997589
 20
17.5737876036
 10
-3.1838441294
 20
17.5646016885
 10
-3.189229801
 20
17.5553743729
 10
-3.1945568168
 20
17.5461056424
 10
-3.1998232824
 20
17.5367988098
 10
-3.2050291223
 20
17.5274539608
 10
-3.210174412
 20
17.5180710097
 10
-3.215257483
 20
17.5086530126
 10
-3.2202783107
 20
17.4991999758
 10
-3.2252369198
 20
17.4897118931
 10
-3.2301317153
 20
17.4801918014
 10
-3.2349627244
 20
17.4706395985
 10
-3.23972992
 20
17.4610553866
 10
-3.2444316249
 20
17.4514425089
 10
-3.2490678324
 20
17.4418009159
 10
-3.2536385493
 20
17.4321306572
 10
-3.2581421194
 20
17.4224352247
 10
-3.2625785111
 20
17.4127146176
 10
-3.2669477561
 20
17.4029688367
 10
-3.2712482932
 20
17.3932013772
 10
-3.2754800768
 20
17.3834122767
 10
-3.2796431526
 20
17.3736014975
 10
-3.2837360968
 20
17.363772421
 10
-3.2877588704
 20
17.353925081
 10
-3.2917115125
 20
17.3440594438
 10
-3.2955927162
 20
17.3341787896
 10
-3.2994024635
 20
17.3242831039
 10
-3.3031407723
 20
17.3143724012
 10
-3.3068063892
 20
17.3044500061
 10
-3.3103992994
 20
17.2945158901
 10
-3.3139195176
 20
17.2845700817
 10
-3.3173658342
 20
17.2746159908
 10
-3.3207382327
 20
17.2646535859
 10
-3.3240367295
 20
17.2546828985
 10
-3.3272601652
 20
17.2447074333
 10
-3.3304085015
 20
17.2347272254
 10
-3.3334817765
 20
17.2247422397
 10
-3.3364789454
 20
17.2147558756
 10
-3.3393999779
 20
17.2047681525
 10
-3.3422449043
 20
17.194779051
 10
-3.3450127699
 20
17.1847919125
 10
-3.3477035544
 20
17.1748067232
 10
-3.3503172782
 20
17.1648234967
 10
-3.3528530479
 20
17.1548456152
 10
-3.3553108603
 20
17.1448729726
 10
-3.3576907187
 20
17.1349056749
 10
-3.3599917394
 20
17.1249474224
 10
-3.3622138834
 20
17.1149982376
 10
-3.3643571898
 20
17.105058098
 10
-3.3664208921
 20
17.0951306372
 10
-3.3684049353
 20
17.0852159925
 10
-3.3703093744
 20
17.0753140267
 10
-3.3721336085
 20
17.065427961
 10
-3.3738776031
 20
17.0555578948
 10
-3.3755413927
 20
17.0457037288
 10
-3.3771244796
 20
17.0358683865
 10
-3.3786268637
 20
17.0260517555
 10
-3.3800485452
 20
17.0162539482
 10
-3.3813890262
 20
17.0064782255
 10
-3.3826482916
 20
16.9967244895
 10
-3.3838263566
 20
16.9869928381
 10
-3.3849227691
 20
16.977286826
 10
-3.3859374939
 20
16.9676064653
 10
-3.3868705664
 20
16.9579517439
 10
-3.3877216399
 20
16.9483261794
 10
-3.388490683
 20
16.9387297011
 10
-3.3891777271
 20
16.9291623797
 10
-3.389782521
 20
16.9196279452
 10
-3.3903049808
 20
16.9101276408
 10
-3.3907451903
 20
16.9006602234
 10
-3.3911031494
 20
16.8912256928
  0
LINE
  5
2D3
100
AcDbEntity
  8
RACCORDO
100
AcDbLine
 62
250
  6
CONTINUOUS
 10
0.0986193987
 20
19.6153593375
 11
-1.2326855456
 21
18.8683848841
  0
LWPOLYLINE
  5
2D4
100
AcDbEntity
  8
RACCORDO
100
AcDbPolyline
 62
250
  6
CONTINUOUS
 90
7
 70
0
 10
-1.2326855456
 20
18.8683848841
 10
-1.6586892042
 20
18.6301690735
 10
-1.8657736858
 20
18.5147605665
 10
-2.0739943733
 20
18.39920123
 10
-2.2848318731
 20
18.2827371953
 10
-2.4968055787
 20
18.166122331
 10
-2.7176052814
 20
18.045108882
  0
LINE
  5
2D5
100
AcDbEntity
  8
RACCORDO
100
AcDbLine
 62
250
  6
CONTINUOUS
 10
0.5204006312
 20
19.8509033099
 11
0.0986193987
 21
19.6153593375
  0
LINE
  5
2D6
100
AcDbEntity
  8
0
100
AcDbLine
 62
250
  6
CONTINUOUS
 10
10.0391415937
 20
22.7018780702
 11
3.5056502053
 21
19.3779461152
  0
LINE
  5
2D7
100
AcDbEntity
  8
0
100
AcDbLine
 62
7
  6
CONTINUOUS
 10
10.640064923
 20
24.63804202
 11
10.6029418113
 21
24.6194804642
  0
LINE
  5
2D8
100
AcDbEntity
  8
RACCORDO
100
AcDbLine
 62
7
  6
CONTINUOUS
 10
12.7476415871
 20
25.4519630292
 11
11.4361747057
 21
24.7962295885
  0
LINE
  5
2D9
100
AcDbEntity
  8
RACCORDO
100
AcDbLine
 62
7
  6
CONTINUOUS
 10
10.7349509639
 20
24.4456177176
 11
9.7156684646
 21
23.9359764679
  0
LINE
  5
2DA
100
AcDbEntity
  8
0
100
AcDbLine
 62
7
  6
CONTINUOUS
 10
11.7505103906
 20
23.3957735759
 11
12.2454851374
 21
23.6432609494
  0
LINE
  5
2DB
100
AcDbEntity
  8
0
100
AcDbLine
 62
7
  6
CONTINUOUS
 10
17.2795963632
 20
25.6397175238
 11
13.0091413309
 21
23.5522257661
  0
LINE
  5
2DC
100
AcDbEntity
  8
0
100
AcDbLine
 62
7
  6
CONTINUOUS
 10
16.6238999347
 20
25.5039360017
 11
12.3320971919
 21
23.4129911911
  0
LWPOLYLINE
  5
2DD
100
AcDbEntity
  8
RACCORDO
100
AcDbPolyline
 62
7
  6
CONTINUOUS
 90
11
 70
0
 10
18.0417054917
 20
25.3274036789
 10
18.1022419903
 20
25.3558783797
 10
18.1588142323
 20
25.3794967141
 10
18.2114222178
 20
25.3982586819
 10
18.2604012197
 20
25.4122323618
 10
18.3054159651
 20
25.4213496751
 10
18.345460635
 20
25.4254063865
 10
18.3804244298
 20
25.4242885377
 10
18.4104181492
 20
25.4181100869
 10
18.4347683734
 20
25.4070086733
 10
18.454157113
 20
25.3900409154
  0
LWPOLYLINE
  5
2DE
100
AcDbEntity
  8
0
100
AcDbPolyline
 62
7
  6
CONTINUOUS
 90
3
 70
0
 10
12.3320971919
 20
23.4129911911
 10
12.1818908285
 20
23.3477016087
 10
12.0649234143
 20
23.3081410978
  0
LWPOLYLINE
  5
2DF
100
AcDbEntity
  8
RACCORDO
100
AcDbPolyline
 62
250
  6
CONTINUOUS
 90
34
 70
0
 10
-3.3911031494
 20
16.8912256928
 10
-3.4083974807
 20
16.8840982261
 10
-3.4264229422
 20
16.8773849396
 10
-3.4451396019
 20
16.8711007053
 10
-3.4645059966
 20
16.8652594446
 10
-3.4844792236
 20
16.8598740978
 10
-3.5050150361
 20
16.8549565952
 10
-3.5260679407
 20
16.8505178304
 10
-3.5475912987
 20
16.8465676369
 10
-3.5695374293
 20
16.8431147654
 10
-3.5918577147
 20
16.8401668653
 10
-3.6145027088
 20
16.8377304669
 10
-3.6374222456
 20
16.8358109677
 10
-3.6605655513
 20
16.83441262
 10
-3.6838813562
 20
16.8335385215
 10
-3.7073180086
 20
16.8331906086
 10
-3.7308235889
 20
16.8333696522
 10
-3.754346025
 20
16.8340752555
 10
-3.7778332073
 20
16.8353058554
 10
-3.8012331043
 20
16.8370587258
 10
-3.824493878
 20
16.8393299834
 10
-3.8475639986
 20
16.8421145968
 10
-3.8703923584
 20
16.8454063972
 10
-3.8929283856
 20
16.8491980922
 10
-3.9151221558
 20
16.8534812819
 10
-3.9369245029
 20
16.8582464779
 10
-3.9582871279
 20
16.8634831237
 10
-3.9791627059
 20
16.8691796185
 10
-3.999504991
 20
16.8753233428
 10
-4.0192689186
 20
16.8819006864
 10
-4.0384107055
 20
16.8888970782
 10
-4.0568879467
 20
16.8962970193
 10
-4.0746597093
 20
16.9040841163
 10
-4.0916866233
 20
16.9122411185
  0
LWPOLYLINE
  5
2E0
100
AcDbEntity
  8
RACCORDO
100
AcDbPolyline
 62
7
  6
CONTINUOUS
 90
22
 70
0
 10
-6.4203160694
 20
-1.8377975905
 10
-6.417802665
 20
-1.8497519898
 10
-6.4150843846
 20
-1.861670549
 10
-6.4121538589
 20
-1.87354599
 10
-6.4089970576
 20
-1.8853802105
 10
-6.4056133451
 20
-1.8971563393
 10
-6.4020158454
 20
-1.9088389481
 10
-6.3981978334
 20
-1.9204193121
 10
-6.3941526624
 20
-1.9318910475
 10
-6.3898940441
 20
-1.9432222973
 10
-6.3854156894
 20
-1.9544042719
 10
-6.3807113344
 20
-1.965430302
 10
-6.3757945691
 20
-1.9762713796
 10
-6.3706589483
 20
-1.9869191924
 10
-6.3652987034
 20
-1.9973659014
 10
-6.3597277082
 20
-2.0075824534
 10
-6.3539395965
 20
-2.0175600583
 10
-6.3479286647
 20
-2.0272904103
 10
-6.3417084889
 20
-2.0367439383
 10
-6.3352722373
 20
-2.0459117226
 10
-6.3286144178
 20
-2.0547841368
 10
-6.3218532334
 20
-2.0632030091
  0
LINE
  5
2E1
100
AcDbEntity
  8
0
100
AcDbLine
 62
7
  6
CONTINUOUS
 10
-7.6171386932
 20
-6.1217059943
 11
-7.6171386932
 21
-5.7249389759
  0
LINE
  5
2E2
100
AcDbEntity
  8
RACCORDO
100
AcDbLine
 62
250
  6
CONTINUOUS
 10
2.4449900335
 20
22.5287701855
 11
2.9732572052
 21
23.1717223413
  0
LINE
  5
2E3
100
AcDbEntity
  8
RACCORDO
100
AcDbLine
 62
7
  6
CONTINUOUS
 10
2.4449900335
 20
22.4392397192
 11
2.9886177776
 21
23.1008871747
  0
LWPOLYLINE
  5
2E4
100
AcDbEntity
  8
RACCORDO
100
AcDbPolyline
 62
7
  6
CONTINUOUS
 90
4
 70
0
 10
-12.7795134111
 20
6.6726592391
 10
-12.7868341628
 20
6.6675276508
 10
-12.7939093497
 20
6.6625168096
 10
-12.8073637623
 20
6.6528895639
  0
LINE
  5
2E5
100
AcDbEntity
  8
RACCORDO
100
AcDbLine
 62
7
  6
CONTINUOUS
 10
-12.7641696366
 20
6.6832744892
 11
-12.7795134111
 21
6.6726592391
  0
LINE
  5
2E6
100
AcDbEntity
  8
RACCORDO
100
AcDbLine
 62
7
  6
CONTINUOUS
 10
-12.7479355637
 20
6.6943296321
 11
-12.7641696366
 21
6.6832744892
  0
LINE
  5
2E7
100
AcDbEntity
  8
RACCORDO
100
AcDbLine
 62
7
  6
CONTINUOUS
 10
-12.7308582047
 20
6.7057967924
 11
-12.7479355637
 21
6.6943296321
  0
LINE
  5
2E8
100
AcDbEntity
  8
RACCORDO
100
AcDbLine
 62
7
  6
CONTINUOUS
 10
-12.7129639507
 20
6.717632686
 11
-12.7308582047
 21
6.7057967924
  0
LINE
  5
2E9
100
AcDbEntity
  8
RACCORDO
100
AcDbLine
 62
7
  6
CONTINUOUS
 10
-12.6943005062
 20
6.7298063601
 11
-12.7129639507
 21
6.717632686
  0
LINE
  5
2EA
100
AcDbEntity
  8
RACCORDO
100
AcDbLine
 62
7
  6
CONTINUOUS
 10
-12.6749168732
 20
6.742291599
 11
-12.6943005062
 21
6.7298063601
  0
LINE
  5
2EB
100
AcDbEntity
  8
RACCORDO
100
AcDbLine
 62
7
  6
CONTINUOUS
 10
-12.654843296
 20
6.7550392142
 11
-12.6749168732
 21
6.742291599
  0
LINE
  5
2EC
100
AcDbEntity
  8
RACCORDO
100
AcDbLine
 62
7
  6
CONTINUOUS
 10
-12.634129281
 20
6.768017171
 11
-12.654843296
 21
6.7550392142
  0
LINE
  5
2ED
100
AcDbEntity
  8
RACCORDO
100
AcDbLine
 62
7
  6
CONTINUOUS
 10
-12.6128264072
 20
6.781200615
 11
-12.634129281
 21
6.768017171
  0
LINE
  5
2EE
100
AcDbEntity
  8
0
100
AcDbLine
 62
250
  6
CONTINUOUS
 10
10.4532920694
 20
21.2702444956
 11
3.5056502053
 21
17.7356123317
  0
LINE
  5
2EF
100
AcDbEntity
  8
RACCORDO
100
AcDbLine
 62
7
  6
CONTINUOUS
 10
18.0417054917
 20
25.3274036789
 11
17.6850787671
 21
25.1502569644
  0
LINE
  5
2F0
100
AcDbEntity
  8
DRAFT
100
AcDbLine
 62
7
  6
CONTINUOUS
 10
-14.5993657414
 20
-3.2533083298
 11
-14.911440728
 21
-3.3179411757
  0
LWPOLYLINE
  5
2F1
100
AcDbEntity
  8
RACCORDO
100
AcDbPolyline
 62
250
  6
CONTINUOUS
 90
3
 70
0
 10
-14.3076382952
 20
-3.8228129444
 10
-15.7565965686
 20
-4.1185635085
 10
-16.0461437699
 20
-4.1775885202
  0
LWPOLYLINE
  5
2F2
100
AcDbEntity
  8
RACCORDO
100
AcDbPolyline
 62
250
  6
CONTINUOUS
 90
3
 70
0
 10
-14.5034649619
 20
-3.4961479938
 10
-15.5313931881
 20
-3.7054973526
 10
-15.7604669305
 20
-3.7521075021
  0
LINE
  5
2F3
100
AcDbEntity
  8
RACCORDO
100
AcDbLine
 62
250
  6
CONTINUOUS
 10
-10.7762480817
 20
5.6373317236
 11
-12.8073637626
 21
6.652889564
  0
LINE
  5
2F4
100
AcDbEntity
  8
RACCORDO
100
AcDbLine
 62
250
  6
CONTINUOUS
 10
-10.8612712789
 20
6.1478281882
 11
-12.3849731575
 21
6.9096791276
  0
LWPOLYLINE
  5
2F5
100
AcDbEntity
  8
RACCORDO
100
AcDbPolyline
 62
250
  6
CONTINUOUS
 90
139
 70
0
 10
-3.3911031494
 20
-18.688398935
 10
-3.3907454177
 20
-18.6974837038
 10
-3.3903054003
 20
-18.7065229588
 10
-3.3897830974
 20
-18.7155167001
 10
-3.3891784281
 20
-18.7244663096
 10
-3.3884914732
 20
-18.7333704052
 10
-3.3877224751
 20
-18.7422248411
 10
-3.3868713876
 20
-18.7510294453
 10
-3.3859382569
 20
-18.7597843897
 10
-3.3849234634
 20
-18.7684860439
 10
-3.3838269743
 20
-18.7771342752
 10
-3.3826488224
 20
-18.7857292163
 10
-3.3813894873
 20
-18.7942676348
 10
-3.3800489619
 20
-18.8027493564
 10
-3.3786272532
 20
-18.8111745553
 10
-3.377124862
 20
-18.8195405219
 10
-3.3755417917
 20
-18.8278471409
 10
-3.3738780388
 20
-18.8360945274
 10
-3.3721340935
 20
-18.8442803173
 10
-3.3703099192
 20
-18.8524045963
 10
-3.3684055524
 20
-18.8604672786
 10
-3.3664215937
 20
-18.8684657424
 10
-3.3643579904
 20
-18.876400067
 10
-3.362214795
 20
-18.8842701731
 10
-3.359992766
 20
-18.8920732018
 10
-3.3576918646
 20
-18.8998091414
 10
-3.3553121295
 20
-18.9074780035
 10
-3.3528544349
 20
-18.9150769649
 10
-3.3503187789
 20
-18.9226059163
 10
-3.3477051635
 20
-18.930064967
 10
-3.3450144688
 20
-18.9374516201
 10
-3.3422466673
 20
-18.944765861
 10
-3.3394017866
 20
-18.9520077043
 10
-3.3364807889
 20
-18.959174698
 10
-3.3334836413
 20
-18.966266834
 10
-3.3304103767
 20
-18.9732841203
 10
-3.3272620559
 20
-18.9802241289
 10
-3.3240386396
 20
-18.9870868555
 10
-3.3207401671
 20
-18.9938723045
 10
-3.3173678168
 20
-19.0005780614
 10
-3.3139215811
 20
-19.0072040601
 10
-3.3104014676
 20
-19.0137503667
 10
-3.3068086776
 20
-19.0202147647
 10
-3.3031432024
 20
-19.0265972054
 10
-3.2994050506
 20
-19.0328977376
 10
-3.2955954494
 20
-19.0391142915
 10
-3.2917143831
 20
-19.0452468376
 10
-3.2877618674
 20
-19.0512954054
 10
-3.2837391767
 20
-19.0572580142
 10
-3.2796462608
 20
-19.0631346783
 10
-3.2754831699
 20
-19.0689253834
 10
-3.2712513287
 20
-19.0746281053
 10
-3.2669506767
 20
-19.0802428527
 10
-3.2625812743
 20
-19.0857696168
 10
-3.258144728
 20
-19.0912063475
 10
-3.2536410016
 20
-19.0965530107
 10
-3.2490701311
 20
-19.1018096404
 10
-3.2444338314
 20
-19.1069742883
 10
-3.239732117
 20
-19.1120468715
 10
-3.2349649732
 20
-19.1170274728
 10
-3.2301340707
 20
-19.1219143927
 10
-3.2252394851
 20
-19.1267075178
 10
-3.2202811407
 20
-19.1314069615
 10
-3.2152604814
 20
-19.1360113644
 10
-3.2101774229
 20
-19.14052077
 10
-3.2050320496
 20
-19.1449351347
 10
-3.199826058
 20
-19.1492529687
 10
-3.1945593492
 20
-19.1534742963
 10
-3.1892320222
 20
-19.1575990931
 10
-3.183846071
 20
-19.1616257954
 10
-3.1784014686
 20
-19.1655543566
 10
-3.172898242
 20
-19.1693848233
 10
-3.167338467
 20
-19.1731157717
 10
-3.1617222232
 20
-19.1767470996
 10
-3.156049431
 20
-19.1802789092
 10
-3.1503219269
 20
-19.1837100834
 10
-3.1445397153
 20
-19.187040588
 10
-3.1387027919
 20
-19.1902704572
 10
-3.13281298
 20
-19.1933986765
 10
-3.1268702073
 20
-19.1964252476
 10
-3.1208745461
 20
-19.1993501688
 10
-3.1148280369
 20
-19.2021724205
 10
-3.1087306218
 20
-19.204891982
 10
-3.1025823588
 20
-19.2075088741
 10
-3.0963854617
 20
-19.2100221396
 10
-3.0901399198
 20
-19.2124317331
 10
-3.0838457439
 20
-19.2147377
 10
-3.0775051798
 20
-19.2169392195
 10
-3.0711182325
 20
-19.219036245
 10
-3.0646848971
 20
-19.2210288231
 10
-3.0582074048
 20
-19.222916273
 10
-3.0516857551
 20
-19.2246985548
 10
-3.0451199486
 20
-19.2263757085
 10
-3.0385122176
 20
-19.2279471727
 10
-3.0318625502
 20
-19.2294129128
 10
-3.0251709584
 20
-19.2307729636
 10
-3.0184397108
 20
-19.2320268681
 10
-3.0116687926
 20
-19.2331745922
 10
-3.0048582186
 20
-19.2342161701
 10
-2.998010301
 20
-19.2351512477
 10
-2.9911250216
 20
-19.2359797903
 10
-2.9842023986
 20
-19.2367018327
 10
-2.9772447992
 20
-19.2373171245
 10
-2.9702522134
 20
-19.2378256298
 10
-2.9632246511
 20
-19.2382273846
 10
-2.9561645088
 20
-19.2385222465
 10
-2.9490717759
 20
-19.23871018
 10
-2.9419464628
 20
-19.2387912206
 10
-2.9347909978
 20
-19.238765333
 10
-2.9276053504
 20
-19.2386324797
 10
-2.920389551
 20
-19.2383926982
 10
-2.9131461189
 20
-19.238046066
 10
-2.9058750295
 20
-19.237592542
 10
-2.8985763073
 20
-19.2370321673
 10
-2.8912525456
 20
-19.2363651429
 10
-2.8839037332
 20
-19.2355914271
 10
-2.8765298812
 20
-19.2347110616
 10
-2.8691336163
 20
-19.2337243728
 10
-2.8617149761
 20
-19.2326313293
 10
-2.854273923
 20
-19.2314319626
 10
-2.8468129699
 20
-19.2301266932
 10
-2.8393321502
 20
-19.228715498
 10
-2.8318314305
 20
-19.2271984
 10
-2.8243132237
 20
-19.225575889
 10
-2.8167775316
 20
-19.2238479389
 10
-2.8092243522
 20
-19.2220145756
 10
-2.801656093
 20
-19.2200763665
 10
-2.7940726942
 20
-19.2180332701
 10
-2.7864742155
 20
-19.2158853279
 10
-2.7788632439
 20
-19.2136332318
 10
-2.7712396831
 20
-19.2112769
 10
-2.7636036293
 20
-19.2088164143
 10
-2.755957958
 20
-19.2062527126
 10
-2.7483025989
 20
-19.2035857459
 10
-2.7406376224
 20
-19.2008155632
 10
-2.7329661147
 20
-19.1979432492
 10
-2.7252891044
 20
-19.1949691652
 10
-2.7176055629
 20
-19.1918929499
 10
-2.4701536493
 20
-19.0886314746
  0
LWPOLYLINE
  5
2F6
100
AcDbEntity
  8
RACCORDO
100
AcDbPolyline
 62
250
  6
CONTINUOUS
 90
80
 70
0
 10
-4.0916866233
 20
-18.7029987492
 10
-4.0911530814
 20
-18.7166231602
 10
-4.0904967555
 20
-18.7301817314
 10
-4.0897176716
 20
-18.7436728828
 10
-4.0888158393
 20
-18.7570954452
 10
-4.0877913352
 20
-18.7704474438
 10
-4.086644339
 20
-18.7837261207
 10
-4.0853749731
 20
-18.7969298578
 10
-4.0839833597
 20
-18.8100572203
 10
-4.0824697572
 20
-18.8231057749
 10
-4.0808343664
 20
-18.8360738804
 10
-4.0790773664
 20
-18.8489602129
 10
-4.0771990414
 20
-18.861762854
 10
-4.075199663
 20
-18.8744801268
 10
-4.0730794483
 20
-18.8871108211
 10
-4.0708386256
 20
-18.8996537384
 10
-4.0684774942
 20
-18.9121073012
 10
-4.0659963102
 20
-18.9244702519
 10
-4.0633952315
 20
-18.9367418671
 10
-4.0606745148
 20
-18.9489208848
 10
-4.0578344947
 20
-18.9610057605
 10
-4.0548754391
 20
-18.972995342
 10
-4.0517976317
 20
-18.9848883979
 10
-4.0486014469
 20
-18.9966834058
 10
-4.0452873081
 20
-19.0083787926
 10
-4.0418555776
 20
-19.0199732412
 10
-4.0383066469
 20
-19.0314653951
 10
-4.0346410175
 20
-19.0428536527
 10
-4.0308591496
 20
-19.0541365919
 10
-4.0269614361
 20
-19.0653130505
 10
-4.0229483029
 20
-19.0763818395
 10
-4.0188202
 20
-19.0873417061
 10
-4.0145776004
 20
-19.0981913851
 10
-4.010220979
 20
-19.1089296837
 10
-4.0057508167
 20
-19.1195553986
 10
-4.0011676295
 20
-19.1300672878
 10
-3.9964719631
 20
-19.1404641185
 10
-3.9916643313
 20
-19.1507447381
 10
-3.986745295
 20
-19.160907934
 10
-3.9817154945
 20
-19.1709524083
 10
-3.9765755318
 20
-19.1808769627
 10
-3.9713259654
 20
-19.1906805234
 10
-3.9659673921
 20
-19.2003620039
 10
-3.960500441
 20
-19.2099202659
 10
-3.9549257144
 20
-19.2193542564
 10
-3.9492437803
 20
-19.2286630312
 10
-3.9434552853
 20
-19.2378455146
 10
-3.9375608769
 20
-19.246900665
 10
-3.9315611316
 20
-19.2558275974
 10
-3.9254566777
 20
-19.2646253431
 10
-3.9192482399
 20
-19.2732928251
 10
-3.9129365526
 20
-19.2818290115
 10
-3.9065222729
 20
-19.2902329832
 10
-3.900006169
 20
-19.2985037046
 10
-3.8933891676
 20
-19.3066400037
 10
-3.8866720098
 20
-19.3146409626
 10
-3.8798554656
 20
-19.3225056587
 10
-3.8729405385
 20
-19.3302329582
 10
-3.8659280824
 20
-19.3378219264
 10
-3.8588188405
 20
-19.3452717793
 10
-3.8516136749
 20
-19.3525816467
 10
-3.8443135482
 20
-19.3597505773
 10
-3.8369191631
 20
-19.3667779061
 10
-3.8294309941
 20
-19.3736631954
 10
-3.8218497766
 20
-19.3804057462
 10
-3.8141764684
 20
-19.3870046845
 10
-3.8064118757
 20
-19.393459307
 10
-3.7985567551
 20
-19.3997689556
 10
-3.7906121002
 20
-19.4059328041
 10
-3.7825790934
 20
-19.4119499309
 10
-3.7744586451
 20
-19.4178196519
 10
-3.7662516753
 20
-19.4235413001
 10
-3.7579594123
 20
-19.4291140341
 10
-3.7495829542
 20
-19.4345371396
 10
-3.7411231104
 20
-19.4398101163
 10
-3.732580693
 20
-19.4449324741
 10
-3.7239566981
 20
-19.4499036218
 10
-3.7152520795
 20
-19.454723016
 10
-3.7064675872
 20
-19.4593902399
 10
-3.6983368219
 20
-19.4635388902
  0
LWPOLYLINE
  5
2F7
100
AcDbEntity
  8
RACCORDO
100
AcDbPolyline
 62
250
  6
CONTINUOUS
 90
40
 70
0
 10
-4.3859427365
 20
2.2011682661
 10
-4.3890170601
 20
1.6599194701
 10
-4.3915324224
 20
1.1189363829
 10
-4.3934888193
 20
0.5782198402
 10
-4.3948862477
 20
0.0377706808
 10
-4.3957247056
 20
-0.502410254
 10
-4.3960041916
 20
-1.0423221246
 10
-4.3957247053
 20
-1.5819640955
 10
-4.394886247
 20
-2.1213353248
 10
-4.3934888183
 20
-2.6604349642
 10
-4.3915324211
 20
-3.1992621692
 10
-4.3890170585
 20
-3.7378161094
 10
-4.3859427346
 20
-4.2760959575
 10
-4.3823094539
 20
-4.8141008806
 10
-4.3781172222
 20
-5.3518300392
 10
-4.373366046
 20
-5.889282597
 10
-4.3680559326
 20
-6.4264577181
 10
-4.3621868902
 20
-6.9633545686
 10
-4.3557589282
 20
-7.4999723153
 10
-4.3487720562
 20
-8.0363101252
 10
-4.3412262852
 20
-8.5723671641
 10
-4.333121627
 20
-9.1081425978
 10
-4.3244580942
 20
-9.6436355926
 10
-4.3152357
 20
-10.1788453177
 10
-4.3054544591
 20
-10.7137709433
 10
-4.2951143866
 20
-11.2484116342
 10
-4.2842154981
 20
-11.7827665638
 10
-4.2727578108
 20
-12.3168349158
 10
-4.2607413409
 20
-12.8506159173
 10
-4.2481661078
 20
-13.3841086821
 10
-4.2350321357
 20
-13.9173122246
 10
-4.2213394324
 20
-14.4502261972
 10
-4.2070880308
 20
-14.9828492912
 10
-4.1922779997
 20
-15.5151790834
 10
-4.1769094369
 20
-16.0472123779
 10
-4.1609823062
 20
-16.5789507256
 10
-4.1444964646
 20
-17.1103988179
 10
-4.1274518661
 20
-17.6415576598
 10
-4.1098485806
 20
-18.1724245806
 10
-4.0916866233
 20
-18.7029987492
  0
LWPOLYLINE
  5
2F8
100
AcDbEntity
  8
RACCORDO
100
AcDbPolyline
 62
250
  6
CONTINUOUS
 90
52
 70
0
 10
-3.6046608841
 20
8.703754816
 10
-3.6144325056
 20
8.1599279361
 10
-3.6236458454
 20
7.6163555259
 10
-3.6323008601
 20
7.0730401462
 10
-3.640397547
 20
6.5299818124
 10
-3.6479359089
 20
5.9871805093
 10
-3.6549159109
 20
5.4446387525
 10
-3.6613375505
 20
4.902356538
 10
-3.6672008303
 20
4.3603338699
 10
-3.6725057227
 20
3.8185732766
 10
-3.6772522254
 20
3.2770747601
 10
-3.6814403408
 20
2.7358383184
 10
-3.6850700495
 20
2.1948664744
 10
-3.6881413488
 20
1.6541592308
 10
-3.6906542414
 20
1.1137165849
 10
-3.6926087156
 20
0.5735410513
 10
-3.6940047688
 20
0.0336326299
 10
-3.6948424035
 20
-0.5060086791
 10
-3.6951216158
 20
-1.04538036
 10
-3.6948424032
 20
-1.584482415
 10
-3.6940047682
 20
-2.1233148418
 10
-3.6926087147
 20
-2.6618751185
 10
-3.6906542403
 20
-3.2001632371
 10
-3.6881413474
 20
-3.7381792056
 10
-3.6850700478
 20
-4.2759205256
 10
-3.6814403388
 20
-4.8133871993
 10
-3.6772522231
 20
-5.3505792245
 10
-3.6725057202
 20
-5.8874940963
 10
-3.6672008275
 20
-6.4241318126
 10
-3.6613375475
 20
-6.9604923755
 10
-3.6549159076
 20
-7.4965732858
 10
-3.6479359051
 20
-8.032374543
 10
-3.6403975427
 20
-8.5678961476
 10
-3.6323008556
 20
-9.103135602
 10
-3.623645841
 20
-9.6380929038
 10
-3.6144325016
 20
-10.1727680553
 10
-3.6046608804
 20
-10.7071585662
 10
-3.5943309747
 20
-11.2412644311
 10
-3.5834427871
 20
-11.7750856554
 10
-3.5719963679
 20
-12.3086197648
 10
-3.5599917131
 20
-12.8418668147
 10
-3.5474288267
 20
-13.3748267497
 10
-3.5343077716
 20
-13.9074969295
 10
-3.5206285293
 20
-14.439877831
 10
-3.5063911183
 20
-14.9719689772
 10
-3.4915956564
 20
-15.5037662975
 10
-3.4762422164
 20
-16.0352674273
 10
-3.4603307256
 20
-16.5664747311
 10
-3.4438610835
 20
-17.0973912315
 10
-3.4268332567
 20
-17.628017936
 10
-3.4092472787
 20
-18.1583538372
 10
-3.3911031494
 20
-18.688398935
  0
LWPOLYLINE
  5
2F9
100
AcDbEntity
  8
RACCORDO
100
AcDbPolyline
 62
250
  6
CONTINUOUS
 90
28
 70
0
 10
-4.0916866233
 20
16.9122411184
 10
-4.1098482444
 20
16.3641378527
 10
-4.1274513426
 20
15.8162772919
 10
-4.1444958904
 20
15.2686602876
 10
-4.1609818635
 20
14.7212876345
 10
-4.1769092341
 20
14.1741602405
 10
-4.1922779713
 20
13.6272791268
 10
-4.2070880503
 20
13.080645192
 10
-4.2213394502
 20
12.5342592372
 10
-4.2350321473
 20
11.9881221362
 10
-4.2481661204
 20
11.4422347593
 10
-4.2607413501
 20
10.8965979334
 10
-4.2727578172
 20
10.3512124672
 10
-4.2842155035
 20
9.8060792012
 10
-4.2951143914
 20
9.2611989897
 10
-4.3054544636
 20
8.7165726612
 10
-4.3152357047
 20
8.172201047
 10
-4.3244580993
 20
7.6280850082
 10
-4.3331216322
 20
7.0842254173
 10
-4.34122629
 20
6.5406231333
 10
-4.3487720605
 20
5.9972789871
 10
-4.355758932
 20
5.4541938082
 10
-4.3621868937
 20
4.9113684351
 10
-4.3680559358
 20
4.3688037169
 10
-4.3733660489
 20
3.8265004982
 10
-4.3781172247
 20
3.2844596224
 10
-4.3823094562
 20
2.7426819312
 10
-4.3859427365
 20
2.2011682661
  0
LWPOLYLINE
  5
2FA
100
AcDbEntity
  8
RACCORDO
100
AcDbPolyline
 62
250
  6
CONTINUOUS
 90
16
 70
0
 10
-3.3911031494
 20
16.8912256928
 10
-3.4092469626
 20
16.3436693233
 10
-3.426832749
 20
15.7963570979
 10
-3.4438605086
 20
15.2492890164
 10
-3.4603302683
 20
14.7024641676
 10
-3.4762420011
 20
14.1558834627
 10
-3.491595627
 20
13.609549636
 10
-3.5063911413
 20
13.0634627421
 10
-3.5206285486
 20
12.5176227264
 10
-3.5343077822
 20
11.9720321585
 10
-3.5474288389
 20
11.4266910612
 10
-3.5599917218
 20
10.8815994117
 10
-3.5719963735
 20
10.3367597122
 10
-3.5834427917
 20
9.792171957
 10
-3.5943309788
 20
9.2478361517
 10
-3.6046608841
 20
8.703754816
  0
LWPOLYLINE
  5
2FB
100
AcDbEntity
  8
RACCORDO
100
AcDbPolyline
 62
250
  6
CONTINUOUS
 90
27
 70
0
 10
0.8437092427
 20
22.1131191003
 10
0.8388252255
 20
22.1011504421
 10
0.8334746221
 20
22.089457238
 10
0.8276720437
 20
22.0780714198
 10
0.8214333361
 20
22.0670240796
 10
0.8147755358
 20
22.0563453854
 10
0.8077168238
 20
22.0460644987
 10
0.8002764761
 20
22.0362094942
 10
0.7924748106
 20
22.0268072839
 10
0.7843331321
 20
22.0178835434
 10
0.7758736739
 20
22.0094626415
 10
0.7671195368
 20
22.0015675738
 10
0.7580946267
 20
21.9942199003
 10
0.7488235886
 20
21.9874396857
 10
0.7393317399
 20
21.9812454456
 10
0.7296450007
 20
21.975654095
 10
0.7197898236
 20
21.9706809028
 10
0.709793121
 20
21.9663394497
 10
0.6996821917
 20
21.9626415913
 10
0.6894846467
 20
21.9595974257
 10
0.6792283332
 20
21.9572152659
 10
0.668941259
 20
21.955501617
 10
0.6586515162
 20
21.9544611587
 10
0.6483872037
 20
21.9540967322
 10
0.6381763513
 20
21.9544093327
 10
0.6280468427
 20
21.9553981066
 10
0.6180263394
 20
21.9570603538
  0
LWPOLYLINE
  5
2FC
100
AcDbEntity
  8
0
100
AcDbPolyline
 62
7
  6
CONTINUOUS
 90
7
 70
0
 10
8.3245063097
 20
26.8978336853
 10
8.3791766838
 20
26.9802726424
 10
8.4731686964
 20
27.0992613907
 10
8.5792831517
 20
27.2091521533
 10
8.6969331871
 20
27.3093371826
 10
8.8254681427
 20
27.3992624086
 10
8.9641771599
 20
27.4784305025
  0
LINE
  5
2FD
100
AcDbEntity
  8
0
100
AcDbLine
 62
7
  6
CONTINUOUS
 10
9.5727556297
 20
24.5196817469
 11
9.3037007701
 21
24.2257373943
  0
LINE
  5
2FE
100
AcDbEntity
  8
0
100
AcDbLine
 62
7
  6
CONTINUOUS
 10
11.063727219
 20
25.0877411336
 11
10.640064923
 21
24.63804202
  0
LINE
  5
2FF
100
AcDbEntity
  8
RACCORDO
100
AcDbLine
 62
7
  6
CONTINUOUS
 10
-12.5909718209
 20
6.7945285765
 11
-12.6128264072
 21
6.781200615
  0
LINE
  5
300
100
AcDbEntity
  8
RACCORDO
100
AcDbLine
 62
7
  6
CONTINUOUS
 10
-12.5686245098
 20
6.8079612506
 11
-12.5909718209
 21
6.7945285765
  0
LINE
  5
301
100
AcDbEntity
  8
RACCORDO
100
AcDbLine
 62
7
  6
CONTINUOUS
 10
-12.545858138
 20
6.8214638785
 11
-12.5686245098
 21
6.8079612506
  0
LWPOLYLINE
  5
302
100
AcDbEntity
  8
RACCORDO
100
AcDbPolyline
 62
7
  6
CONTINUOUS
 90
3
 70
0
 10
-12.511073204
 20
6.8416689994
 10
-12.5227353187
 20
6.8349465001
 10
-12.545858138
 20
6.8214638785
  0
LWPOLYLINE
  5
303
100
AcDbEntity
  8
RACCORDO
100
AcDbPolyline
 62
7
  6
CONTINUOUS
 90
3
 70
0
 10
-12.4758619413
 20
6.8615796205
 10
-12.487614799
 20
6.8549921
 10
-12.511073204
 20
6.8416689994
  0
LWPOLYLINE
  5
304
100
AcDbEntity
  8
RACCORDO
100
AcDbPolyline
 62
7
  6
CONTINUOUS
 90
3
 70
0
 10
-12.4407775741
 20
6.8807972218
 10
-12.4524103687
 20
6.8744929983
 10
-12.4758619413
 20
6.8615796205
  0
LINE
  5
305
100
AcDbEntity
  8
RACCORDO
100
AcDbLine
 62
250
  6
CONTINUOUS
 10
19.135673164
 20
24.0068678833
 11
10.4532920694
 21
19.4750712837
  0
LINE
  5
306
100
AcDbEntity
  8
RACCORDO
100
AcDbLine
 62
250
  6
CONTINUOUS
 10
19.4973517997
 20
23.0842682154
 11
10.4532920694
 21
18.3636922944
  0
LINE
  5
307
100
AcDbEntity
  8
DRAFT
100
AcDbLine
 62
7
  6
CONTINUOUS
 10
-10.8479760978
 20
7.67872903
 11
-11.4673358863
 21
7.3702745921
  0
LINE
  5
308
100
AcDbEntity
  8
RACCORDO
100
AcDbLine
 62
7
  6
CONTINUOUS
 10
-12.3849731575
 20
6.9096791276
 11
-11.4673358863
 21
7.3702745921
  0
LWPOLYLINE
  5
309
100
AcDbEntity
  8
RACCORDO
100
AcDbPolyline
 62
7
  6
CONTINUOUS
 90
5
 70
0
 10
-12.3849731575
 20
6.9096791276
 10
-12.3957119715
 20
6.9043636839
 10
-12.4066766187
 20
6.8987727651
 10
-12.4178462073
 20
6.8929488613
 10
-12.4407775741
 20
6.8807972218
  0
LINE
  5
30A
100
AcDbEntity
  8
DRAFT
100
AcDbLine
 62
7
  6
CONTINUOUS
 10
-10.8538393957
 20
7.0635263468
 11
-11.4673358863
 21
7.3702745921
  0
LWPOLYLINE
  5
30B
100
AcDbEntity
  8
RACCORDO
100
AcDbPolyline
 62
250
  6
CONTINUOUS
 90
34
 70
0
 10
-2.7099154932
 20
18.0493566386
 10
-2.711203048
 20
18.0696915683
 10
-2.7132736806
 20
18.0903873431
 10
-2.7161227125
 20
18.1113971309
 10
-2.719743729
 20
18.1326733753
 10
-2.7241285206
 20
18.154167944
 10
-2.729267097
 20
18.1758322403
 10
-2.7351478244
 20
18.197617249
 10
-2.7417574089
 20
18.2194736701
 10
-2.7490808482
 20
18.2413520763
 10
-2.757101564
 20
18.2632029678
 10
-2.7658014158
 20
18.2849768986
 10
-2.7751606903
 20
18.306624617
 10
-2.7851582032
 20
18.3280971452
 10
-2.795771338
 20
18.3493458949
 10
-2.8069760688
 20
18.3703227934
 10
-2.8187470361
 20
18.3909803802
 10
-2.8310576093
 20
18.4112719119
 10
-2.8438799363
 20
18.4311514733
 10
-2.8571849986
 20
18.4505740862
 10
-2.8709426939
 20
18.4694958018
 10
-2.8851219094
 20
18.4878737969
 10
-2.8996905573
 20
18.5056664902
 10
-2.9146156767
 20
18.5228336209
 10
-2.9298635263
 20
18.5393363285
 10
-2.9453996013
 20
18.5551372746
 10
-2.9611887524
 20
18.5702007047
 10
-2.9771952969
 20
18.5844925112
 10
-2.9933830133
 20
18.5979803582
 10
-3.009715279
 20
18.6106337244
 10
-3.0261551967
 20
18.622423948
 10
-3.0426655878
 20
18.6333243408
 10
-3.0592090763
 20
18.6433102486
 10
-3.0757482298
 20
18.6523590761
  0
LWPOLYLINE
  5
30C
100
AcDbEntity
  8
ASSI
100
AcDbPolyline
 62
7
  6
CONTINUOUS
 90
6
 70
0
 10
-2.077686367
 20
30.5109479572
 10
-2.077704141
 20
30.5117231283
 10
-2.0783637719
 20
30.5153981903
 10
-2.0799325973
 20
30.5184546179
 10
-2.0823652573
 20
30.5209511733
 10
-2.0850904386
 20
30.5226571971
  0
LWPOLYLINE
  5
30D
100
AcDbEntity
  8
RACCORDO
100
AcDbPolyline
 62
250
  6
CONTINUOUS
 90
18
 70
0
 10
-0.8337973968
 20
-18.8634539094
 10
-0.8335580419
 20
-18.8745970546
 10
-0.8328400367
 20
-18.8854772751
 10
-0.8316444466
 20
-18.8960645459
 10
-0.8299732491
 20
-18.9063316159
 10
-0.8278303142
 20
-18.9162477319
 10
-0.8252223587
 20
-18.9257794804
 10
-0.8221571867
 20
-18.9348990092
 10
-0.8186426324
 20
-18.9435835803
 10
-0.8146881512
 20
-18.9518097711
 10
-0.8103043874
 20
-18.9595552951
 10
-0.8055033078
 20
-18.9667988793
 10
-0.8002981023
 20
-18.9735205846
 10
-0.7947030133
 20
-18.9797020472
 10
-0.7887332104
 20
-18.985326534
 10
-0.7824048885
 20
-18.9903787825
 10
-0.7757352374
 20
-18.994845049
 10
-0.7688241004
 20
-18.9986723595
  0
LINE
  5
30E
100
AcDbEntity
  8
DRAFT
100
AcDbLine
 62
250
  6
CONTINUOUS
 10
-3.2472195551
 20
27.5440186971
 11
-3.2472195551
 21
28.2069027539
  0
LINE
  5
30F
100
AcDbEntity
  8
RACCORDO
100
AcDbLine
 62
250
  6
CONTINUOUS
 10
-3.0371504175
 20
23.6422413531
 11
-3.0371504175
 21
24.7228246639
  0
LINE
  5
310
100
AcDbEntity
  8
DRAFT
100
AcDbLine
 62
7
  6
CONTINUOUS
 10
-2.5401127739
 20
28.5604561445
 11
-2.5401127739
 21
29.1130143338
  0
LINE
  5
311
100
AcDbEntity
  8
RACCORDO
100
AcDbLine
 62
250
  6
CONTINUOUS
 10
-2.3321064982
 20
23.6637771163
 11
-2.3321064982
 21
24.8965040887
  0
LINE
  5
312
100
AcDbEntity
  8
ASSI
100
AcDbLine
 62
250
  6
CONTINUOUS
 10
-2.2007015189
 20
30.5054413823
 11
-2.2007015189
 21
29.2790922704
  0
LINE
  5
313
100
AcDbEntity
  8
DRAFT
100
AcDbLine
 62
7
  6
CONTINUOUS
 10
-2.1865593833
 20
28.3836794492
 11
-2.1865593833
 21
28.9362376385
  0
LINE
  5
314
100
AcDbEntity
  8
RACCORDO
100
AcDbLine
 62
7
  6
CONTINUOUS
 10
-2.077686367
 20
30.5109496285
 11
-2.077686367
 21
29.4253401753
  0
LINE
  5
315
100
AcDbEntity
  8
DRAFT
100
AcDbLine
 62
7
  6
CONTINUOUS
 10
-1.9744273489
 20
25.0758086335
 11
-1.9744273489
 21
23.8633730682
  0
LINE
  5
316
100
AcDbEntity
  8
DRAFT
100
AcDbLine
 62
250
  6
CONTINUOUS
 10
-1.8330059927
 20
27.6832163638
 11
-1.8330059927
 21
28.2069027539
  0
LWPOLYLINE
  5
317
100
AcDbEntity
  8
RACCORDO
100
AcDbPolyline
 62
250
  6
CONTINUOUS
 90
31
 70
0
 10
-0.8337973968
 20
23.1160980982
 10
-0.8335580419
 20
23.1274805984
 10
-0.8328400367
 20
23.1390788241
 10
-0.8316444466
 20
23.150861685
 10
-0.8299732491
 20
23.1627999524
 10
-0.8278303142
 20
23.1748590034
 10
-0.8252223587
 20
23.1869987073
 10
-0.8221571867
 20
23.1991834081
 10
-0.8186426324
 20
23.2113825335
 10
-0.8146881512
 20
23.2235632055
 10
-0.8103043874
 20
23.2356924933
 10
-0.8055033078
 20
23.2477371572
 10
-0.8002981023
 20
23.259664068
 10
-0.7947030133
 20
23.2714406195
 10
-0.7887332104
 20
23.2830349092
 10
-0.7824048885
 20
23.2944154797
 10
-0.7757352374
 20
23.3055513973
 10
-0.7687424299
 20
23.3164123008
 10
-0.7614455212
 20
23.3269685854
 10
-0.7538643787
 20
23.3371915056
 10
-0.7460196274
 20
23.347053246
 10
-0.7379326212
 20
23.3565269584
 10
-0.729625369
 20
23.3655868562
 10
-0.7211204823
 20
23.3742082759
 10
-0.7124411172
 20
23.3823677415
 10
-0.7036108912
 20
23.390043048
 10
-0.6946538449
 20
23.3972132971
 10
-0.6855943857
 20
23.4038589515
 10
-0.6764571822
 20
23.4099619202
 10
-0.6672670958
 20
23.4155056025
 10
-0.6580491408
 20
23.4204749132
  0
LWPOLYLINE
  5
318
100
AcDbEntity
  8
RACCORDO
100
AcDbPolyline
 62
250
  6
CONTINUOUS
 90
21
 70
0
 10
-2.7099147904
 20
-19.1887149654
 10
-2.711224477
 20
-19.2095157718
 10
-2.7133161385
 20
-19.2298621632
 10
-2.7161850379
 20
-19.2497081059
 10
-2.7198246988
 20
-19.2690087057
 10
-2.7242268637
 20
-19.2877202897
 10
-2.7293815137
 20
-19.3058005055
 10
-2.7352769819
 20
-19.3232084472
 10
-2.7418999288
 20
-19.339904732
 10
-2.7492353175
 20
-19.3558515691
 10
-2.7572665457
 20
-19.3710128787
 10
-2.7659754452
 20
-19.3853543621
 10
-2.7753422732
 20
-19.3988435607
 10
-2.7853458303
 20
-19.4114499542
 10
-2.7959634882
 20
-19.4231450247
 10
-2.8071712043
 20
-19.4339023072
 10
-2.8189436135
 20
-19.4436974614
 10
-2.831254087
 20
-19.4525083295
 10
-2.8440747736
 20
-19.460314979
 10
-2.8573766588
 20
-19.4670997443
 10
-2.8639680854
 20
-19.4700074886
  0
LINE
  5
319
100
AcDbEntity
  8
0
100
AcDbLine
 62
7
  6
CONTINUOUS
 10
-7.4055666082
 20
-6.3826329472
 11
-6.836403421
 21
-4.8906739057
  0
LINE
  5
31A
100
AcDbEntity
  8
0
100
AcDbLine
 62
250
  6
CONTINUOUS
 10
8.7618064445
 20
27.1503227446
 11
8.9641771599
 21
27.4784305025
  0
LINE
  5
31B
100
AcDbEntity
  8
DRAFT
100
AcDbLine
 62
250
  6
CONTINUOUS
 10
9.4433184502
 20
27.4977179842
 11
9.3229355484
 21
27.3025387365
  0
LINE
  5
31C
100
AcDbEntity
  8
DRAFT
100
AcDbLine
 62
7
  6
CONTINUOUS
 10
9.3229355484
 20
27.3025387365
 11
9.2665417549
 21
27.2111063319
  0
LINE
  5
31D
100
AcDbEntity
  8
0
100
AcDbLine
 62
7
  6
CONTINUOUS
 10
11.0331040553
 20
24.2158598851
 11
11.1714079785
 21
24.3669579073
  0
LWPOLYLINE
  5
31E
100
AcDbEntity
  8
RACCORDO
100
AcDbPolyline
 62
250
  6
CONTINUOUS
 90
31
 70
0
 10
0.8437092427
 20
22.4530930345
 10
0.8434142658
 20
22.4645187422
 10
0.8426384125
 20
22.4761567953
 10
0.8413838095
 20
22.4879752961
 10
0.8396538952
 20
22.4999418524
 10
0.837453411
 20
22.512023666
 10
0.8347883881
 20
22.524187623
 10
0.8316661308
 20
22.5364003841
 10
0.8280951966
 20
22.5486284767
 10
0.8240853728
 20
22.5608383856
 10
0.8196476495
 20
22.572996646
 10
0.8147941898
 20
22.5850699342
 10
0.8095382959
 20
22.5970251596
 10
0.8038943734
 20
22.6088295552
 10
0.7978778913
 20
22.6204507674
 10
0.7915053394
 20
22.6318569446
 10
0.7847941839
 20
22.6430168246
 10
0.7777628186
 20
22.6538998203
 10
0.7704305154
 20
22.6644761035
 10
0.7628173706
 20
22.6747166864
 10
0.7549442504
 20
22.6845935017
 10
0.7468327337
 20
22.6940794788
 10
0.7385050525
 20
22.7031486184
 10
0.7299840314
 20
22.7117760637
 10
0.721293025
 20
22.7199381685
 10
0.7124558536
 20
22.727612562
 10
0.7034967384
 20
22.7347782102
 10
0.6944402346
 20
22.7414154732
 10
0.6853111643
 20
22.7475061598
 10
0.6761345487
 20
22.7530335763
 10
0.666935539
 20
22.7579825733
  0
LWPOLYLINE
  5
31F
100
AcDbEntity
  8
RACCORDO
100
AcDbPolyline
 62
250
  6
CONTINUOUS
 90
18
 70
0
 10
0.491187283
 20
-19.5259462493
 10
0.4914266379
 20
-19.5370893946
 10
0.4921446431
 20
-19.547969615
 10
0.4933402332
 20
-19.5585568858
 10
0.4950114307
 20
-19.5688239558
 10
0.4971543656
 20
-19.5787400718
 10
0.4997623211
 20
-19.5882718203
 10
0.5028274931
 20
-19.5973913491
 10
0.5063420474
 20
-19.6060759202
 10
0.5102965286
 20
-19.614302111
 10
0.5146802924
 20
-19.622047635
 10
0.5194813721
 20
-19.6292912193
 10
0.5246865775
 20
-19.6360129245
 10
0.5302816665
 20
-19.6421943871
 10
0.5362514694
 20
-19.6478188739
 10
0.5425797914
 20
-19.6528711224
 10
0.5492494424
 20
-19.6573373889
 10
0.5561605794
 20
-19.6611646994
  0
LWPOLYLINE
  5
320
100
AcDbEntity
  8
RACCORDO
100
AcDbPolyline
 62
250
  6
CONTINUOUS
 90
19
 70
0
 10
-0.8337973968
 20
22.7761241641
 10
-0.8335775421
 20
22.7654395076
 10
-0.8329185249
 20
22.7550012811
 10
-0.8318219841
 20
22.7448354486
 10
-0.8302906532
 20
22.7349673301
 10
-0.8283283379
 20
22.7254214354
 10
-0.8259398921
 20
22.716221415
 10
-0.823131222
 20
22.7073901031
 10
-0.8199093165
 20
22.698949546
 10
-0.8162822189
 20
22.6909208377
 10
-0.8122589393
 20
22.6833239268
 10
-0.8078494967
 20
22.676177736
 10
-0.8030649602
 20
22.6695001707
 10
-0.7979173268
 20
22.6633078934
 10
-0.7924193588
 20
22.657616181
 10
-0.7865846251
 20
22.6524390547
 10
-0.7804264086
 20
22.6477885397
 10
-0.7739611344
 20
22.643677266
 10
-0.7688241004
 20
22.640905714
  0
LWPOLYLINE
  5
321
100
AcDbEntity
  8
RACCORDO
100
AcDbPolyline
 62
250
  6
CONTINUOUS
 90
19
 70
0
 10
0.491187283
 20
22.1136318242
 10
0.4914071377
 20
22.1029471676
 10
0.4920661549
 20
22.0925089412
 10
0.4931626957
 20
22.0823431087
 10
0.4946940266
 20
22.0724749902
 10
0.4966563419
 20
22.0629290955
 10
0.4990447877
 20
22.0537290751
 10
0.5018534578
 20
22.0448977632
 10
0.5050753633
 20
22.0364572061
 10
0.5087024609
 20
22.0284284978
 10
0.5127257405
 20
22.0208315869
 10
0.5171351831
 20
22.0136853961
 10
0.5219197196
 20
22.0070078308
 10
0.5270673531
 20
22.0008155535
 10
0.532565321
 20
21.995123841
 10
0.5384000547
 20
21.9899467148
 10
0.5445582712
 20
21.9852961998
 10
0.5510235454
 20
21.9811849261
 10
0.5561499627
 20
21.9784186833
  0
LWPOLYLINE
  5
322
100
AcDbEntity
  8
RACCORDO
100
AcDbPolyline
 62
7
  6
CONTINUOUS
 90
24
 70
0
 10
0.5711570634
 20
29.4271201825
 10
0.5705838789
 20
29.4615925886
 10
0.5688847659
 20
29.4953425096
 10
0.5660597244
 20
29.5283699454
 10
0.5620992898
 20
29.5607315028
 10
0.5570129267
 20
29.592370575
 10
0.5508290283
 20
29.6231173415
 10
0.5435464129
 20
29.6529528689
 10
0.5351662622
 20
29.6818960907
 10
0.525720515
 20
29.7098339866
 10
0.5151966565
 20
29.7367801494
 10
0.5036072014
 20
29.7627209864
 10
0.4910216327
 20
29.7875026993
 10
0.4774464468
 20
29.8111000007
 10
0.4628751473
 20
29.833538178
 10
0.4473577272
 20
29.8547392952
 10
0.4308744399
 20
29.8747163852
 10
0.413445032
 20
29.893456415
 10
0.3951787374
 20
29.9108423506
 10
0.3760900815
 20
29.9268512769
 10
0.3561645388
 20
29.941506109
 10
0.3354677663
 20
29.9547585573
 10
0.3139752517
 20
29.9666144186
 10
0.3112545594
 20
29.9679986419
  0
LINE
  5
323
100
AcDbEntity
  8
RACCORDO
100
AcDbLine
 62
7
  6
CONTINUOUS
 10
-0.9070207015
 20
23.2044864459
 11
-0.9070207015
 21
22.8645125117
  0
LINE
  5
324
100
AcDbEntity
  8
RACCORDO
100
AcDbLine
 62
7
  6
CONTINUOUS
 10
-0.9070207015
 20
-18.6584679995
 11
-0.9070207015
 21
-18.7750655618
  0
LINE
  5
325
100
AcDbEntity
  8
RACCORDO
100
AcDbLine
 62
250
  6
CONTINUOUS
 10
-0.8337973968
 20
23.1160980982
 11
-0.8337973968
 21
22.7761241641
  0
LINE
  5
326
100
AcDbEntity
  8
RACCORDO
100
AcDbLine
 62
250
  6
CONTINUOUS
 10
-0.8337973968
 20
-18.628297704
 11
-0.8337973968
 21
-18.8634539094
  0
LINE
  5
327
100
AcDbEntity
  8
RACCORDO
100
AcDbLine
 62
7
  6
CONTINUOUS
 10
-0.2040277472
 20
21.9045334357
 11
-0.2040277472
 21
22.3585075374
  0
LINE
  5
328
100
AcDbEntity
  8
RACCORDO
100
AcDbLine
 62
250
  6
CONTINUOUS
 10
-0.1308044425
 20
21.8128217409
 11
-0.1308044425
 21
22.3218958851
  0
LINE
  5
329
100
AcDbEntity
  8
RACCORDO
100
AcDbLine
 62
250
  6
CONTINUOUS
 10
0.491187283
 20
-19.5259462493
 11
0.491187283
 21
-19.1859723152
  0
LINE
  5
32A
100
AcDbEntity
  8
RACCORDO
100
AcDbLine
 62
250
  6
CONTINUOUS
 10
0.491187283
 20
22.1136318242
 11
0.491187283
 21
22.4536057583
  0
LINE
  5
32B
100
AcDbEntity
  8
RACCORDO
100
AcDbLine
 62
7
  6
CONTINUOUS
 10
0.5711570634
 20
29.4271201825
 11
0.5711570634
 21
29.1563198898
  0
LINE
  5
32C
100
AcDbEntity
  8
RACCORDO
100
AcDbLine
 62
250
  6
CONTINUOUS
 10
0.8437092427
 20
-19.5264589732
 11
0.8437092427
 21
-19.186485039
  0
LINE
  5
32D
100
AcDbEntity
  8
RACCORDO
100
AcDbLine
 62
250
  6
CONTINUOUS
 10
0.8437092427
 20
22.1131191003
 11
0.8437092427
 21
22.4530930345
  0
LINE
  5
32E
100
AcDbEntity
  8
RACCORDO
100
AcDbLine
 62
250
  6
CONTINUOUS
 10
1.2024078911
 20
21.835036197
 11
1.2024078911
 21
21.1462155741
  0
LINE
  5
32F
100
AcDbEntity
  8
RACCORDO
100
AcDbLine
 62
250
  6
CONTINUOUS
 10
1.2024078911
 20
-17.7845796748
 11
1.2024078911
 21
-18.2094758381
  0
LWPOLYLINE
  5
330
100
AcDbEntity
  8
RACCORDO
100
AcDbPolyline
 62
250
  6
CONTINUOUS
 90
22
 70
0
 10
0.491187283
 20
-19.1859723152
 10
0.4914061542
 20
-19.1750924518
 10
0.4920627099
 20
-19.1640144795
 10
0.4931560476
 20
-19.1527655645
 10
0.4946844974
 20
-19.1413712606
 10
0.496644816
 20
-19.1298617453
 10
0.4990313991
 20
-19.1182719262
 10
0.5018377319
 20
-19.1066328668
 10
0.5050572489
 20
-19.0949713089
 10
0.5086820181
 20
-19.0833160252
 10
0.5127031012
 20
-19.0716958568
 10
0.5171104743
 20
-19.0601398619
 10
0.5218931022
 20
-19.0486770064
 10
0.5270390751
 20
-19.0373358325
 10
0.532535604
 20
-19.0261445233
 10
0.5383689473
 20
-19.0151310437
 10
0.5445245361
 20
-19.0043228635
 10
0.5509870913
 20
-18.9937467758
 10
0.5577406048
 20
-18.9834289656
 10
0.5647683047
 20
-18.9733950602
 10
0.5720526863
 20
-18.9636700557
 10
0.5795756307
 20
-18.9542781414
  0
LWPOLYLINE
  5
331
100
AcDbEntity
  8
RACCORDO
100
AcDbPolyline
 62
250
  6
CONTINUOUS
 90
31
 70
0
 10
0.491187283
 20
22.4536057583
 10
0.4914278643
 20
22.4650176677
 10
0.4921489554
 20
22.4766391244
 10
0.4933485972
 20
22.4884384975
 10
0.4950235297
 20
22.5003836841
 10
0.4971691963
 20
22.5124421592
 10
0.4997797509
 20
22.5245810629
 10
0.5028480844
 20
22.5367673451
 10
0.5063658456
 20
22.5489678445
 10
0.5103234549
 20
22.5611493414
 10
0.5147101368
 20
22.573278677
 10
0.5195139498
 20
22.5853228392
 10
0.5247218144
 20
22.5972490411
 10
0.5303195598
 20
22.6090248359
 10
0.5362919414
 20
22.6206181583
 10
0.5426226757
 20
22.6319974105
 10
0.5492944966
 20
22.6431315782
 10
0.556289265
 20
22.6539904098
 10
0.5635880018
 20
22.6645444458
 10
0.5711709444
 20
22.6747650886
 10
0.5790173628
 20
22.6846243774
 10
0.5871056541
 20
22.6940951937
 10
0.5954136218
 20
22.7031516217
 10
0.6039187942
 20
22.7117692383
 10
0.6125982569
 20
22.7199248522
 10
0.6214303474
 20
22.7275979007
 10
0.6303891304
 20
22.7347656483
 10
0.6394444673
 20
22.7414045548
 10
0.6485696361
 20
22.7474963522
 10
0.6577416406
 20
22.7530269995
 10
0.666935539
 20
22.7579825733
  0
LWPOLYLINE
  5
332
100
AcDbEntity
  8
RACCORDO
100
AcDbPolyline
 62
250
  6
CONTINUOUS
 90
6
 70
0
 10
-9.1842475324
 20
-6.3845171625
 10
-8.7283663807
 20
-5.6291253345
 10
-8.2705764942
 20
-4.8727687498
 10
-7.8108777628
 20
-4.1154526408
 10
-7.3492700866
 20
-3.357182245
 10
-6.8857533754
 20
-2.5979628055
  0
LWPOLYLINE
  5
333
100
AcDbEntity
  8
RACCORDO
100
AcDbPolyline
 62
250
  6
CONTINUOUS
 90
7
 70
0
 10
-8.6875590122
 20
-6.3261745328
 10
-8.2656477149
 20
-5.6280072097
 10
-7.8421020404
 20
-4.9290210787
 10
-7.4169219885
 20
-4.2292161399
 10
-6.9901075594
 20
-3.5285923933
 10
-6.561658753
 20
-2.8271498389
 10
-6.1905269069
 20
-2.2211471732
  0
LINE
  5
334
100
AcDbEntity
  8
RACCORDO
100
AcDbLine
 62
250
  6
CONTINUOUS
 10
-6.8857533754
 20
-2.5979628055
 11
-6.4203275492
 21
-1.8377995708
  0
LINE
  5
335
100
AcDbEntity
  8
0
100
AcDbLine
 62
7
  6
CONTINUOUS
 10
10.298021418
 20
25.9940576111
 11
9.9521750892
 21
25.4333299225
  0
LINE
  5
336
100
AcDbEntity
  8
RACCORDO
100
AcDbLine
 62
7
  6
CONTINUOUS
 10
13.1671052387
 20
30.4922412034
 11
13.078978717
 21
30.349359881
  0
LINE
  5
337
100
AcDbEntity
  8
0
100
AcDbLine
 62
7
  6
CONTINUOUS
 10
10.000104041
 20
25.3326564213
 11
9.5404846333
 21
24.5874661252
  0
LINE
  5
338
100
AcDbEntity
  8
0
100
AcDbLine
 62
7
  6
CONTINUOUS
 10
9.5727556297
 20
24.5196817469
 11
9.3629195406
 21
24.1794702267
  0
LINE
  5
339
100
AcDbEntity
  8
0
100
AcDbLine
 62
7
  6
CONTINUOUS
 10
10.7013277829
 20
25.6832682922
 11
10.2417083751
 21
24.9380779961
  0
LINE
  5
33A
100
AcDbEntity
  8
0
100
AcDbLine
 62
7
  6
CONTINUOUS
 10
13.1915941691
 20
29.6470955664
 11
12.9768326112
 21
29.2988982835
  0
LINE
  5
33B
100
AcDbEntity
  8
0
100
AcDbLine
 62
7
  6
CONTINUOUS
 10
10.3077556297
 20
24.8871817469
 11
10.0956235954
 21
24.543247764
  0
LINE
  5
33C
100
AcDbEntity
  8
0
100
AcDbLine
 62
7
  6
CONTINUOUS
 10
10.6029418113
 20
24.6194804642
 11
10.8150738457
 21
24.963414447
  0
LINE
  5
33D
100
AcDbEntity
  8
DRAFT
100
AcDbLine
 62
7
  6
CONTINUOUS
 10
-7.8100787674
 20
-5.8943435768
 11
-5.8195958822
 21
-2.6671331815
  0
LINE
  5
33E
100
AcDbEntity
  8
0
100
AcDbLine
 62
7
  6
CONTINUOUS
 10
11.4361747057
 20
24.7962295885
 11
11.0636806727
 21
24.192297435
  0
LINE
  5
33F
100
AcDbEntity
  8
RACCORDO
100
AcDbLine
 62
7
  6
CONTINUOUS
 10
12.5640011761
 20
26.1613628309
 11
12.5085857592
 21
26.0715166881
  0
LINE
  5
340
100
AcDbEntity
  8
0
100
AcDbLine
 62
7
  6
CONTINUOUS
 10
11.3344883889
 20
23.8979565553
 11
11.6332320756
 21
24.3823157721
  0
LINE
  5
341
100
AcDbEntity
  8
RACCORDO
100
AcDbLine
 62
250
  6
CONTINUOUS
 10
-18.9332666852
 20
3.1797344429
 11
-17.1799136382
 21
3.5419942502
  0
LWPOLYLINE
  5
342
100
AcDbEntity
  8
RACCORDO
100
AcDbPolyline
 62
7
  6
CONTINUOUS
 90
3
 70
0
 10
-18.4817118421
 20
3.0306495141
 10
-18.2768678236
 20
3.0728544354
 10
-17.1563326552
 20
3.303923125
  0
LWPOLYLINE
  5
343
100
AcDbEntity
  8
RACCORDO
100
AcDbPolyline
 62
7
  6
CONTINUOUS
 90
39
 70
0
 10
-18.4817076231
 20
3.0306503833
 10
-18.4921397434
 20
3.0287247281
 10
-18.504693158
 20
3.0269620585
 10
-18.517435989
 20
3.0257337512
 10
-18.5303518025
 20
3.0250094418
 10
-18.5433774767
 20
3.0247728594
 10
-18.5564885061
 20
3.0249972286
 10
-18.5696726149
 20
3.0256541028
 10
-18.5828878544
 20
3.026730493
 10
-18.5961159684
 20
3.0282023454
 10
-18.6093478309
 20
3.0300441849
 10
-18.6225568876
 20
3.0322475077
 10
-18.6357309197
 20
3.0347917384
 10
-18.6488615426
 20
3.037654495
 10
-18.661928684
 20
3.0408305885
 10
-18.6749234184
 20
3.0443022179
 10
-18.6878388805
 20
3.0480497775
 10
-18.7006582087
 20
3.0520701585
 10
-18.7133747977
 20
3.0563477817
 10
-18.7259829306
 20
3.0608653035
 10
-18.7384668756
 20
3.0656206024
 10
-18.7508218222
 20
3.0705998525
 10
-18.7630428629
 20
3.0757874435
 10
-18.7751138163
 20
3.0811812007
 10
-18.7870313514
 20
3.0867686473
 10
-18.7987912048
 20
3.0925354236
 10
-18.8103755815
 20
3.0984782785
 10
-18.8217819398
 20
3.1045854737
 10
-18.833007203
 20
3.1108437489
 10
-18.8440327473
 20
3.117248655
 10
-18.854857659
 20
3.1237895391
 10
-18.865479128
 20
3.1304535118
 10
-18.8758759841
 20
3.1372333165
 10
-18.8860483738
 20
3.1441188475
 10
-18.8959946144
 20
3.1510977026
 10
-18.9056915817
 20
3.1581592773
 10
-18.9151320616
 20
3.165292736
 10
-18.9243244333
 20
3.1724872494
 10
-18.9332697204
 20
3.1797323975
  0
LINE
  5
344
100
AcDbEntity
  8
RACCORDO
100
AcDbLine
 62
7
  6
CONTINUOUS
 10
-12.470945789
 20
13.3529196477
 11
-10.7782156433
 21
12.5065545749
  0
LINE
  5
345
100
AcDbEntity
  8
RACCORDO
100
AcDbLine
 62
250
  6
CONTINUOUS
 10
-12.7162745419
 20
13.6051545913
 11
-10.6867340179
 21
12.5903843293
  0
LWPOLYLINE
  5
346
100
AcDbEntity
  8
RACCORDO
100
AcDbPolyline
 62
7
  6
CONTINUOUS
 90
28
 70
0
 10
-12.4709452879
 20
13.3529193972
 10
-12.4815776211
 20
13.3584536236
 10
-12.492701792
 20
13.364706329
 10
-12.5036993486
 20
13.3713516021
 10
-12.5145684158
 20
13.3783710629
 10
-12.5253103889
 20
13.3857472941
 10
-12.5359053058
 20
13.3934572667
 10
-12.5463526501
 20
13.401485198
 10
-12.5566538557
 20
13.4098153744
 10
-12.5667904804
 20
13.4184283359
 10
-12.5767630573
 20
13.4273103714
 10
-12.58657298
 20
13.4364470391
 10
-12.5962019523
 20
13.4458202801
 10
-12.6056514072
 20
13.4554180003
 10
-12.6149227468
 20
13.4652266337
 10
-12.6239968639
 20
13.4752275701
 10
-12.6328756224
 20
13.485409466
 10
-12.6415610408
 20
13.4957597686
 10
-12.6500338661
 20
13.5062590786
 10
-12.6582970864
 20
13.5168974507
 10
-12.6663527062
 20
13.5276623367
 10
-12.6741800796
 20
13.5385309458
 10
-12.681782915
 20
13.5494939008
 10
-12.6891639999
 20
13.5605390914
 10
-12.6963019597
 20
13.5716397133
 10
-12.703192623
 20
13.5827798696
 10
-12.7098486592
 20
13.5939548029
 10
-12.7162745424
 20
13.6051545916
  0
LWPOLYLINE
  5
347
100
AcDbEntity
  8
RACCORDO
100
AcDbPolyline
 62
7
  6
CONTINUOUS
 90
34
 70
0
 10
2.7875572813
 20
21.0939140588
 10
2.786865039
 20
21.1124838151
 10
2.7854687579
 20
21.1313776319
 10
2.7833707376
 20
21.1505521197
 10
2.7805740175
 20
21.1699626908
 10
2.7770849496
 20
21.1895654171
 10
2.7729131252
 20
21.2093171466
 10
2.7680669707
 20
21.2291725919
 10
2.7625567151
 20
21.2490863809
 10
2.7563968493
 20
21.2690149325
 10
2.749600497
 20
21.2889127321
 10
2.7421820852
 20
21.3087342685
 10
2.7341601447
 20
21.3284360942
 10
2.7255520311
 20
21.3479732571
 10
2.7163762896
 20
21.3673011048
 10
2.7066551712
 20
21.3863771972
 10
2.6964099347
 20
21.4051580323
 10
2.6856628666
 20
21.4236006905
 10
2.6744395085
 20
21.4416645818
 10
2.6627646072
 20
21.4593085122
 10
2.6506637518
 20
21.4764921393
 10
2.6381652749
 20
21.4931775306
 10
2.6252969269
 20
21.509326613
 10
2.6120870982
 20
21.524902419
 10
2.5985663553
 20
21.5398704295
 10
2.5847649103
 20
21.5541964455
 10
2.5707133969
 20
21.5678476087
 10
2.556444011
 20
21.5807935065
 10
2.5419949267
 20
21.5929996225
 10
2.5273924582
 20
21.6044433865
 10
2.5126511236
 20
21.6151117626
 10
2.4977975805
 20
21.6249811516
 10
2.4828712194
 20
21.6340208005
 10
2.4679058387
 20
21.6422064744
  0
LWPOLYLINE
  5
348
100
AcDbEntity
  8
RACCORDO
100
AcDbPolyline
 62
7
  6
CONTINUOUS
 90
34
 70
0
 10
2.4449900335
 20
23.255815038
 10
2.4447899775
 20
23.2662168466
 10
2.44418974
 20
23.2767952146
 10
2.443190782
 20
23.2875262327
 10
2.4417955465
 20
23.2983856859
 10
2.4400071982
 20
23.3093489783
 10
2.4378296169
 20
23.3203911893
 10
2.4352677924
 20
23.3314873362
 10
2.4323276181
 20
23.3426123296
 10
2.4290156231
 20
23.3537409
 10
2.425339346
 20
23.3648478578
 10
2.4213071858
 20
23.375908079
 10
2.4169281884
 20
23.3868964603
 10
2.4122122879
 20
23.3977881179
 10
2.4071702179
 20
23.408558405
 10
2.4018133572
 20
23.4191828963
 10
2.396153833
 20
23.4296375208
 10
2.3902044951
 20
23.4398986108
 10
2.3839788233
 20
23.4499429172
 10
2.3774908908
 20
23.4597476722
 10
2.3707554019
 20
23.4692906693
 10
2.3637876627
 20
23.4785503095
 10
2.3566034057
 20
23.4875055919
 10
2.34921889
 20
23.4961362239
 10
2.3416509357
 20
23.5044226967
 10
2.3339166141
 20
23.512346204
 10
2.3260334082
 20
23.51988878
 10
2.3180193087
 20
23.5270334038
 10
2.3098923784
 20
23.5337638466
 10
2.3016709673
 20
23.5400648351
 10
2.2933738706
 20
23.5459221824
 10
2.2850198772
 20
23.5513226192
 10
2.2766277281
 20
23.5562538238
 10
2.2682163298
 20
23.5607045768
  0
LWPOLYLINE
  5
349
100
AcDbEntity
  8
RACCORDO
100
AcDbPolyline
 62
250
  6
CONTINUOUS
 90
31
 70
0
 10
2.9732572052
 20
23.519253858
 10
2.9730670523
 20
23.5307319777
 10
2.9723900983
 20
23.5424194804
 10
2.9712281985
 20
23.5542843329
 10
2.9695845375
 20
23.5662940158
 10
2.9674636203
 20
23.5784156129
 10
2.9648712599
 20
23.5906159011
 10
2.9618145615
 20
23.6028614417
 10
2.9583019029
 20
23.6151186721
 10
2.9543429116
 20
23.6273539973
 10
2.9499484386
 20
23.6395338828
 10
2.9451305282
 20
23.6516249457
 10
2.9399023855
 20
23.6635940466
 10
2.9342783397
 20
23.6754083806
 10
2.9282738054
 20
23.6870355667
 10
2.9219052398
 20
23.6984437371
 10
2.915190098
 20
23.7096016239
 10
2.9081467849
 20
23.7204786457
 10
2.900794605
 20
23.7310449905
 10
2.8931537091
 20
23.7412716979
 10
2.8852450395
 20
23.7511307385
 10
2.8770902725
 20
23.7605950904
 10
2.8687117587
 20
23.7696388137
 10
2.860132462
 20
23.7782371213
 10
2.8513758967
 20
23.7863664466
 10
2.8424660629
 20
23.7940045089
 10
2.8334273808
 20
23.8011303736
 10
2.8242846236
 20
23.80772451
 10
2.8150628501
 20
23.8137688449
 10
2.8057873352
 20
23.8192468119
 10
2.7964835016
 20
23.8241433968
  0
LINE
  5
34A
100
AcDbEntity
  8
RACCORDO
100
AcDbLine
 62
250
  6
CONTINUOUS
 10
1.5549298508
 20
21.9646155775
 11
1.5549298508
 21
21.1569834557
  0
LINE
  5
34B
100
AcDbEntity
  8
RACCORDO
100
AcDbLine
 62
250
  6
CONTINUOUS
 10
1.5549298508
 20
-17.6368133065
 11
1.5549298508
 21
-18.3349885619
  0
LINE
  5
34C
100
AcDbEntity
  8
RACCORDO
100
AcDbLine
 62
7
  6
CONTINUOUS
 10
2.4449900335
 20
-18.7464243735
 11
2.4449900335
 21
-17.2631829993
  0
LINE
  5
34D
100
AcDbEntity
  8
RACCORDO
100
AcDbLine
 62
7
  6
CONTINUOUS
 10
2.4449900335
 20
21.653664377
 11
2.4449900335
 21
23.255815038
  0
LINE
  5
34E
100
AcDbEntity
  8
RACCORDO
100
AcDbLine
 62
250
  6
CONTINUOUS
 10
2.9732572052
 20
23.519253858
 11
2.9732572052
 21
23.1717223413
  0
LINE
  5
34F
100
AcDbEntity
  8
RACCORDO
100
AcDbLine
 62
250
  6
CONTINUOUS
 10
2.9732572052
 20
-18.1278817981
 11
2.9732572052
 21
-18.4754133149
  0
LINE
  5
350
100
AcDbEntity
  8
RACCORDO
100
AcDbLine
 62
7
  6
CONTINUOUS
 10
3.0454550622
 20
23.6071264902
 11
3.0454550622
 21
23.2595949734
  0
LINE
  5
351
100
AcDbEntity
  8
RACCORDO
100
AcDbLine
 62
7
  6
CONTINUOUS
 10
3.0454550622
 20
-18.0400091659
 11
3.0454550622
 21
-18.3875406827
  0
LINE
  5
352
100
AcDbEntity
  8
ASSI
100
AcDbLine
 62
250
  6
CONTINUOUS
 10
3.3559769706
 20
27.7284815429
 11
3.3559769706
 21
26.5024623369
  0
LINE
  5
353
100
AcDbEntity
  8
RACCORDO
100
AcDbLine
 62
7
  6
CONTINUOUS
 10
3.4772693704
 20
27.7334717599
 11
3.4772693704
 21
26.6478623066
  0
LINE
  5
354
100
AcDbEntity
  8
RACCORDO
100
AcDbLine
 62
7
  6
CONTINUOUS
 10
3.5056502053
 20
21.4330977569
 11
3.5056502053
 21
-16.5701537018
  0
LWPOLYLINE
  5
355
100
AcDbEntity
  8
RACCORDO
100
AcDbPolyline
 62
250
  6
CONTINUOUS
 90
16
 70
0
 10
3.0454550622
 20
23.2595949734
 10
3.0451518412
 20
23.2534403292
 10
3.0441703354
 20
23.2469388199
 10
3.0425121576
 20
23.2404717439
 10
3.0401818191
 20
23.2340566958
 10
3.0371856599
 20
23.227711129
 10
3.0335318317
 20
23.2214523076
 10
3.0292302753
 20
23.2152972597
 10
3.0242926938
 20
23.2092627313
 10
3.0187325207
 20
23.2033651403
 10
3.0125648835
 20
23.1976205321
 10
3.0058065622
 20
23.1920445358
 10
2.998475944
 20
23.186652322
 10
2.990592973
 20
23.181458561
 10
2.9821790963
 20
23.1764773834
 10
2.9732572052
 20
23.1717223413
  0
LWPOLYLINE
  5
356
100
AcDbEntity
  8
RACCORDO
100
AcDbPolyline
 62
250
  6
CONTINUOUS
 90
16
 70
0
 10
3.0454550622
 20
23.6071261408
 10
3.0451495572
 20
23.6009487244
 10
3.0441653856
 20
23.5944460419
 10
3.0425042862
 20
23.5879778547
 10
3.0401707401
 20
23.5815616851
 10
3.0371711105
 20
23.5752150816
 10
3.0335136772
 20
23.568955507
 10
3.0292085384
 20
23.5628001086
 10
3.0242673984
 20
23.5567655062
 10
3.0187035907
 20
23.5508679474
 10
3.0125308322
 20
23.5451222361
 10
3.0057670828
 20
23.5395453278
 10
2.9984355646
 20
23.53415575
 10
2.990558993
 20
23.528968867
 10
2.9821582879
 20
23.523997215
 10
2.9732572052
 20
23.519253858
  0
LWPOLYLINE
  5
357
100
AcDbEntity
  8
RACCORDO
100
AcDbPolyline
 62
7
  6
CONTINUOUS
 90
11
 70
0
 10
12.5640011761
 20
26.1613628309
 10
12.568747321
 20
26.1694700453
 10
12.5726921179
 20
26.1771127689
 10
12.5758355669
 20
26.1842910016
 10
12.5781943015
 20
26.1910502734
 10
12.5797516882
 20
26.1973450543
 10
12.580457826
 20
26.203038755
 10
12.5802864427
 20
26.2081122999
 10
12.5792638105
 20
26.2125847646
 10
12.577418845
 20
26.2163767852
 10
12.5750238189
 20
26.2192216875
  0
LWPOLYLINE
  5
358
100
AcDbEntity
  8
RACCORDO
100
AcDbPolyline
 62
7
  6
CONTINUOUS
 90
41
 70
0
 10
-7.3581234402
 20
-8.076654022
 10
-7.3614876936
 20
-8.0823645328
 10
-7.3666808948
 20
-8.0917454336
 10
-7.3715937877
 20
-8.1013462791
 10
-7.3762581333
 20
-8.1111331498
 10
-7.3806676719
 20
-8.1210934796
 10
-7.3848137008
 20
-8.131219378
 10
-7.3887250469
 20
-8.1414855578
 10
-7.3923972691
 20
-8.1518822162
 10
-7.3958230357
 20
-8.1624020304
 10
-7.3990271858
 20
-8.173024704
 10
-7.4020062522
 20
-8.1837422095
 10
-7.4047543278
 20
-8.1945480943
 10
-7.4072926834
 20
-8.2054253435
 10
-7.4096185162
 20
-8.2163673067
 10
-7.4117270722
 20
-8.2273682459
 10
-7.4136366303
 20
-8.2384131586
 10
-7.4153448727
 20
-8.2494964948
 10
-7.4168479682
 20
-8.2606130762
 10
-7.4181617847
 20
-8.2717488959
 10
-7.419284387
 20
-8.282899311
 10
-7.4202126991
 20
-8.294059573
 10
-7.420960727
 20
-8.3052158134
 10
-7.4215268721
 20
-8.3163641538
 10
-7.4219087069
 20
-8.3275001912
 10
-7.4221188937
 20
-8.338609483
 10
-7.4221561792
 20
-8.3496885076
 10
-7.422018729
 20
-8.3607334781
 10
-7.4217183097
 20
-8.3717297269
 10
-7.4212540227
 20
-8.3826745946
 10
-7.4206245745
 20
-8.3935643226
 10
-7.4198412348
 20
-8.4043827755
 10
-7.4189035335
 20
-8.4151277486
 10
-7.417810744
 20
-8.4257959224
 10
-7.4165740273
 20
-8.4363697261
 10
-7.4151934466
 20
-8.4468474595
 10
-7.4136688655
 20
-8.4572262531
 10
-7.4120116291
 20
-8.4674871158
 10
-7.4102260168
 20
-8.4776225936
 10
-7.4083090351
 20
-8.4876366751
 10
-7.4062615239
 20
-8.4975278425
  0
LWPOLYLINE
  5
359
100
AcDbEntity
  8
RACCORDO
100
AcDbPolyline
 62
7
  6
CONTINUOUS
 90
7
 70
0
 10
-5.3134766868
 20
-4.7005893882
 10
-5.6221040506
 20
-5.2074929184
 10
-5.9298954817
 20
-5.7139644957
 10
-6.2368504169
 20
-6.2200031986
 10
-6.5429684352
 20
-6.7256083418
 10
-6.8482489709
 20
-7.2307790028
 10
-7.3581294802
 20
-8.0766508368
  0
LWPOLYLINE
  5
35A
100
AcDbEntity
  8
RACCORDO
100
AcDbPolyline
 62
250
  6
CONTINUOUS
 90
7
 70
0
 10
-4.6555606277
 20
-3.959119171
 10
-5.118697479
 20
-4.7179614821
 10
-5.5799595
 20
-5.4758352241
 10
-6.0393467917
 20
-6.2327351614
 10
-6.4968594652
 20
-6.9886560635
 10
-6.9524976414
 20
-7.7435927056
 10
-7.4062614512
 20
-8.4975398682
  0
LINE
  5
35B
100
AcDbEntity
  8
RACCORDO
100
AcDbLine
 62
7
  6
CONTINUOUS
 10
-4.8114901611
 20
-3.8781183721
 11
-5.3134766868
 21
-4.7005893882
  0
LWPOLYLINE
  5
35C
100
AcDbEntity
  8
RACCORDO
100
AcDbPolyline
 62
7
  6
CONTINUOUS
 90
52
 70
0
 10
-15.762057506
 20
-3.7529301927
 10
-15.7706874422
 20
-3.7577096412
 10
-15.7793180277
 20
-3.7628821262
 10
-15.7879240069
 20
-3.7684384514
 10
-15.7964733767
 20
-3.7743899079
 10
-15.8049503904
 20
-3.7807084412
 10
-15.8133555342
 20
-3.7873266385
 10
-15.8216650853
 20
-3.7942350398
 10
-15.8298607105
 20
-3.8014295418
 10
-15.8379528143
 20
-3.8088515612
 10
-15.8459225609
 20
-3.8164923945
 10
-15.8537534857
 20
-3.8243502276
 10
-15.861461794
 20
-3.8323774822
 10
-15.8690330857
 20
-3.8405670767
 10
-15.8764528331
 20
-3.848918102
 10
-15.8837390814
 20
-3.8573926753
 10
-15.8908805293
 20
-3.865985034
 10
-15.8978649313
 20
-3.8746949036
 10
-15.904710491
 20
-3.8834928354
 10
-15.911408608
 20
-3.8923748042
 10
-15.9179486564
 20
-3.9013402287
 10
-15.9243468923
 20
-3.9103648506
 10
-15.9305963159
 20
-3.9194456735
 10
-15.9366880455
 20
-3.9285821429
 10
-15.9426362009
 20
-3.9377535848
 10
-15.948434953
 20
-3.9469577826
 10
-15.9540768431
 20
-3.9561941893
 10
-15.9595739448
 20
-3.9654445016
 10
-15.9649213263
 20
-3.9747071244
 10
-15.970112668
 20
-3.9839814936
 10
-15.97515817
 20
-3.9932507037
 10
-15.9800536232
 20
-4.0025136798
 10
-15.9847936278
 20
-4.0117698268
 10
-15.989386704
 20
-4.0210028255
 10
-15.9938292596
 20
-4.0302120507
 10
-15.9981166672
 20
-4.0393968881
 10
-16.0022559755
 20
-4.0485409428
 10
-16.0062440601
 20
-4.0576437368
 10
-16.0100770915
 20
-4.0667049315
 10
-16.0137611635
 20
-4.0757083007
 10
-16.0172938043
 20
-4.0846539409
 10
-16.0206717137
 20
-4.0935413486
 10
-16.0238999281
 20
-4.1023534296
 10
-16.0269765406
 20
-4.1110905355
 10
-16.0298989342
 20
-4.1197523772
 10
-16.0326714199
 20
-4.1283210305
 10
-16.0352927453
 20
-4.1367971444
 10
-16.0377610113
 20
-4.1451806712
 10
-16.0400800944
 20
-4.1534528838
 10
-16.042250841
 20
-4.1616079953
 10
-16.0442708721
 20
-4.1696530496
 10
-16.0461396941
 20
-4.1775887633
  0
LINE
  5
35D
100
AcDbEntity
  8
RACCORDO
100
AcDbLine
 62
7
  6
CONTINUOUS
 10
-15.7620577158
 20
-3.752930302
 11
-15.7604669086
 21
-3.752107491
  0
LINE
  5
35E
100
AcDbEntity
  8
RACCORDO
100
AcDbLine
 62
7
  6
CONTINUOUS
 10
-14.911440728
 20
-3.3179411757
 11
-15.7604669086
 21
-3.752107491
  0
LWPOLYLINE
  5
35F
100
AcDbEntity
  8
RACCORDO
100
AcDbPolyline
 62
250
  6
CONTINUOUS
 90
14
 70
0
 10
-10.3910609592
 20
29.8538814235
 10
-10.3867132685
 20
29.8465283259
 10
-10.3828630223
 20
29.8394352864
 10
-10.3795207355
 20
29.8326216756
 10
-10.3766955378
 20
29.8261061065
 10
-10.3743951418
 20
29.8199063672
 10
-10.3726258261
 20
29.8140393751
 10
-10.3713924248
 20
29.808521145
 10
-10.3706983141
 20
29.8033667614
 10
-10.3705453931
 20
29.7985903189
 10
-10.3709340771
 20
29.7942048668
 10
-10.3718633025
 20
29.7902223737
 10
-10.3733305316
 20
29.7866537117
 10
-10.3752999292
 20
29.7835586477
  0
LWPOLYLINE
  5
360
100
AcDbEntity
  8
ASSI
100
AcDbPolyline
 62
7
  6
CONTINUOUS
 90
6
 70
0
 10
3.4772693704
 20
27.7334706066
 10
3.4772608024
 20
27.7340109899
 10
3.4766605818
 20
27.7377083211
 10
3.4751551309
 20
27.7407904965
 10
3.4727897031
 20
27.7433152416
 10
3.4698652818
 20
27.7451791685
  0
LWPOLYLINE
  5
361
100
AcDbEntity
  8
RACCORDO
100
AcDbPolyline
 62
7
  6
CONTINUOUS
 90
20
 70
0
 10
2.7875688592
 20
-16.9244185678
 10
2.7868779352
 20
-16.9429237404
 10
2.7854843816
 20
-16.9610224176
 10
2.7833900191
 20
-16.9786740475
 10
2.7805973214
 20
-16.9958396417
 10
2.777112221
 20
-17.0124801109
 10
2.7729441516
 20
-17.028556395
 10
2.7681012047
 20
-17.0440324912
 10
2.7625932168
 20
-17.0588736313
 10
2.7564346479
 20
-17.0730446863
 10
2.7496383783
 20
-17.0865138538
 10
2.7422186107
 20
-17.0992509651
 10
2.7341940818
 20
-17.1112257854
 10
2.7255820362
 20
-17.122411467
 10
2.7164009177
 20
-17.1327830058
 10
2.7066733909
 20
-17.1423156911
 10
2.6964207194
 20
-17.1509881969
 10
2.6856651965
 20
-17.1587812224
 10
2.6744329484
 20
-17.1656761103
 10
2.6664075828
 20
-17.1699068011
  0
LWPOLYLINE
  5
362
100
AcDbEntity
  8
RACCORDO
100
AcDbPolyline
 62
250
  6
CONTINUOUS
 90
16
 70
0
 10
3.0454550622
 20
-18.3875406827
 10
3.0451537917
 20
-18.3936755116
 10
3.0441740731
 20
-18.4001784597
 10
3.0425173841
 20
-18.406647024
 10
3.0401882326
 20
-18.4130635907
 10
3.0371929524
 20
-18.4194107018
 10
3.0335396935
 20
-18.4256710786
 10
3.0292383954
 20
-18.4318276818
 10
3.0243007628
 20
-18.4378637522
 10
3.0187402376
 20
-18.4437628547
 10
3.0125719485
 20
-18.4495089361
 10
3.0058126872
 20
-18.4550863518
 10
2.9984808733
 20
-18.460479904
 10
2.9905964751
 20
-18.4656749085
 10
2.9821809494
 20
-18.470657232
 10
2.9732572052
 20
-18.4754133149
  0
LWPOLYLINE
  5
363
100
AcDbEntity
  8
RACCORDO
100
AcDbPolyline
 62
250
  6
CONTINUOUS
 90
16
 70
0
 10
3.0454550622
 20
-18.0400091659
 10
3.0451518412
 20
-18.0461638102
 10
3.0441703354
 20
-18.0526653194
 10
3.0425121576
 20
-18.0591323955
 10
3.0401818191
 20
-18.0655474435
 10
3.0371856599
 20
-18.0718930104
 10
3.0335318317
 20
-18.0781518318
 10
3.0292302753
 20
-18.0843068796
 10
3.0242926938
 20
-18.0903414081
 10
3.0187325207
 20
-18.0962389991
 10
3.0125648835
 20
-18.1019836073
 10
3.0058065622
 20
-18.1075596035
 10
2.998475944
 20
-18.1129518174
 10
2.990592973
 20
-18.1181455784
 10
2.9821790963
 20
-18.123126756
 10
2.9732572052
 20
-18.1278817981
  0
LINE
  5
364
100
AcDbEntity
  8
DRAFT
100
AcDbLine
 62
7
  6
CONTINUOUS
 10
-7.7444822316
 20
-5.8610136094
 11
-5.3187524105
 21
-3.2689677118
  0
LINE
  5
365
100
AcDbEntity
  8
RACCORDO
100
AcDbLine
 62
250
  6
CONTINUOUS
 10
-18.9165327009
 20
24.3246641573
 11
-4.0916866233
 21
16.9122411184
  0
LWPOLYLINE
  5
366
100
AcDbEntity
  8
0
100
AcDbPolyline
 62
7
  6
CONTINUOUS
 90
8
 70
0
 10
8.0946748368
 20
26.0204941875
 10
8.0938835493
 20
26.1151766774
 10
8.1067504035
 20
26.2734415417
 10
8.1337661653
 20
26.4271755911
 10
8.1747814249
 20
26.5755286042
 10
8.2295693487
 20
26.7176801192
 10
8.2978269338
 20
26.8528439718
 10
8.3245063097
 20
26.8978336853
  0
LINE
  5
367
100
AcDbEntity
  8
0
100
AcDbLine
 62
250
  6
CONTINUOUS
 10
8.9641771599
 20
27.4784305025
 11
8.961480362
 21
28.2369120299
  0
LINE
  5
368
100
AcDbEntity
  8
RACCORDO
100
AcDbLine
 62
250
  6
CONTINUOUS
 10
8.0613629642
 20
25.5539830094
 11
8.0613629642
 21
25.0566530524
  0
LINE
  5
369
100
AcDbEntity
  8
RACCORDO
100
AcDbLine
 62
250
  6
CONTINUOUS
 10
8.0613629642
 20
-11.5282377659
 11
8.0613629642
 21
-11.7993821558
  0
LINE
  5
36A
100
AcDbEntity
  8
RACCORDO
100
AcDbLine
 62
7
  6
CONTINUOUS
 10
8.201693064
 20
25.8544081361
 11
8.201693064
 21
25.2329237418
  0
LINE
  5
36B
100
AcDbEntity
  8
RACCORDO
100
AcDbLine
 62
7
  6
CONTINUOUS
 10
8.201693064
 20
-11.4545209652
 11
8.201693064
 21
-11.7524780973
  0
LINE
  5
36C
100
AcDbEntity
  8
0
100
AcDbLine
 62
7
  6
CONTINUOUS
 10
9.6450103597
 20
25.9373369409
 11
9.6857683562
 21
26.7331124339
  0
LINE
  5
36D
100
AcDbEntity
  8
DRAFT
100
AcDbLine
 62
7
  6
CONTINUOUS
 10
-7.7444822316
 20
-5.8610136094
 11
-7.8100787674
 21
-5.8943435768
  0
LINE
  5
36E
100
AcDbEntity
  8
RACCORDO
100
AcDbLine
 62
7
  6
CONTINUOUS
 10
-8.6875590122
 20
-6.3261745328
 11
-8.6822824749
 21
-6.323542266
  0
LINE
  5
36F
100
AcDbEntity
  8
RACCORDO
100
AcDbLine
 62
7
  6
CONTINUOUS
 10
-7.8100787674
 20
-5.8943435768
 11
-8.6822824749
 21
-6.323542266
  0
LWPOLYLINE
  5
370
100
AcDbEntity
  8
RACCORDO
100
AcDbPolyline
 62
7
  6
CONTINUOUS
 90
43
 70
0
 10
-8.6875590366
 20
-6.3261745451
 10
-8.6984404871
 20
-6.3313799998
 10
-8.7097209786
 20
-6.3364219014
 10
-8.7213671641
 20
-6.3412683601
 10
-8.7333689945
 20
-6.3458600783
 10
-8.7456762531
 20
-6.3501953183
 10
-8.7581987286
 20
-6.3543304737
 10
-8.7709048424
 20
-6.3582387512
 10
-8.7837789059
 20
-6.3618932926
 10
-8.7967579636
 20
-6.3653537338
 10
-8.8098181907
 20
-6.3686007093
 10
-8.8229479576
 20
-6.3716092383
 10
-8.836105301
 20
-6.3744344813
 10
-8.8492725182
 20
-6.3770620156
 10
-8.8624410274
 20
-6.3794703758
 10
-8.8755841198
 20
-6.3817075954
 10
-8.8886899997
 20
-6.3837626456
 10
-8.9017507555
 20
-6.3856176027
 10
-8.9147461335
 20
-6.3873127191
 10
-8.9276675516
 20
-6.3888388414
 10
-8.9405085425
 20
-6.3901813966
 10
-8.9532520711
 20
-6.3913742242
 10
-8.9658918171
 20
-6.3924094623
 10
-8.9784224024
 20
-6.3932751786
 10
-8.9908279489
 20
-6.3940002047
 10
-9.0031038867
 20
-6.3945776232
 10
-9.0152456014
 20
-6.3949975507
 10
-9.0272368079
 20
-6.3952850549
 10
-9.03907438
 20
-6.3954339591
 10
-9.0507543122
 20
-6.3954359964
 10
-9.0622587597
 20
-6.3953135466
 10
-9.0735853637
 20
-6.3950611271
 10
-9.084731268
 20
-6.3946717706
 10
-9.0956778353
 20
-6.3941659806
 10
-9.1064242998
 20
-6.3935389579
 10
-9.1169680532
 20
-6.3927848572
 10
-9.1272879726
 20
-6.3919230034
 10
-9.1373843286
 20
-6.3909494177
 10
-9.1472556099
 20
-6.389859296
 10
-9.1568787878
 20
-6.3886713007
 10
-9.1662467563
 20
-6.3873894868
 10
-9.1753680219
 20
-6.386003166
 10
-9.1842437148
 20
-6.3845094669
  0
LINE
  5
371
100
AcDbEntity
  8
RACCORDO
100
AcDbLine
 62
250
  6
CONTINUOUS
 10
-17.9239666909
 20
26.0764683131
 11
-3.0757482301
 21
18.6523590828
  0
LINE
  5
372
100
AcDbEntity
  8
RACCORDO
100
AcDbLine
 62
7
  6
CONTINUOUS
 10
10.4532920694
 20
18.3636922944
 11
10.4532920694
 21
21.2702444956
  0
LWPOLYLINE
  5
373
100
AcDbEntity
  8
RACCORDO
100
AcDbPolyline
 62
250
  6
CONTINUOUS
 90
31
 70
0
 10
2.9732572052
 20
-18.1278817981
 10
2.9776003465
 20
-18.1156582172
 10
2.9814481555
 20
-18.1032250268
 10
2.9847897242
 20
-18.0906159677
 10
2.9876157485
 20
-18.0778641239
 10
2.9899177485
 20
-18.0650053649
 10
2.9916885809
 20
-18.0520783312
 10
2.9929233119
 20
-18.0391196378
 10
2.9936187748
 20
-18.026163375
 10
2.9937730676
 20
-18.0132446041
 10
2.9933857178
 20
-18.0003983988
 10
2.992457736
 20
-17.9876600669
 10
2.9909916597
 20
-17.9750647214
 10
2.988991514
 20
-17.962646877
 10
2.9864627511
 20
-17.9504403365
 10
2.9834122699
 20
-17.9384784119
 10
2.9798483926
 20
-17.9267937589
 10
2.9757808542
 20
-17.9154183145
 10
2.9712207729
 20
-17.9043831783
 10
2.9661806084
 20
-17.8937184999
 10
2.9606741237
 20
-17.8834533999
 10
2.9547163596
 20
-17.8736159169
 10
2.9483235792
 20
-17.8642329069
 10
2.9415132524
 20
-17.8553300141
 10
2.9343040145
 20
-17.8469315927
 10
2.926715585
 20
-17.8390605974
 10
2.918768675
 20
-17.8317384937
 10
2.9104849581
 20
-17.8249852452
 10
2.9018870475
 20
-17.8188192881
 10
2.8929984388
 20
-17.8132574736
 10
2.8838434099
 20
-17.8083149921
  0
LWPOLYLINE
  5
374
100
AcDbEntity
  8
RACCORDO
100
AcDbPolyline
 62
7
  6
CONTINUOUS
 90
31
 70
0
 10
19.7780119993
 20
5.0060518003
 10
19.8866752931
 20
4.9132517293
 10
20.0319286185
 20
4.7742479276
 10
20.1717890407
 20
4.6251310065
 10
20.3054119731
 20
4.4670349667
 10
20.4324624683
 20
4.3005704179
 10
20.5523130039
 20
4.1267240578
 10
20.6643859548
 20
3.9465061713
 10
20.768239465
 20
3.7607834494
 10
20.8634715818
 20
3.5703800505
 10
20.9496369296
 20
3.3762476364
 10
21.0263197253
 20
3.1793576533
 10
21.0931813366
 20
2.9805576731
 10
21.1498831055
 20
2.7807392518
 10
21.1960753214
 20
2.5809441952
 10
21.2314609688
 20
2.3822023072
 10
21.2558352693
 20
2.1850950494
 10
21.2689144411
 20
1.9909321488
 10
21.2705456672
 20
1.8016872175
 10
21.2608086223
 20
1.6185467051
 10
21.2397921463
 20
1.4418671151
 10
21.2075525455
 20
1.2721932438
 10
21.163996873
 20
1.1096755956
 10
21.1093235646
 20
0.9556339234
 10
21.0443340725
 20
0.8120910258
 10
20.9699702214
 20
0.6802250655
 10
20.8863984376
 20
0.5595835969
 10
20.7934278834
 20
0.4497445688
 10
20.6913331213
 20
0.3512074437
 10
20.5807992665
 20
0.2647814548
 10
20.5420313196
 20
0.2386645732
  0
LWPOLYLINE
  5
375
100
AcDbEntity
  8
RACCORDO
100
AcDbPolyline
 62
250
  6
CONTINUOUS
 90
30
 70
0
 10
19.7780119993
 20
4.9041144441
 10
19.8186796377
 20
4.8679513059
 10
19.958336294
 20
4.7298358766
 10
20.0936384043
 20
4.5817312438
 10
20.2238984788
 20
4.4243776822
 10
20.3484142582
 20
4.2586107746
 10
20.4665179012
 20
4.0853132026
 10
20.5775927835
 20
3.9053864913
 10
20.681058952
 20
3.7197666096
 10
20.7763636561
 20
3.5294452956
 10
20.8630072539
 20
3.3354264771
 10
20.9405461808
 20
3.1387101863
 10
21.0085813482
 20
2.9403124742
 10
21.0667590552
 20
2.7412669748
 10
21.1147772442
 20
2.5426097065
 10
21.1523882755
 20
2.3453650038
 10
21.1793960153
 20
2.1505551308
 10
21.1956578585
 20
1.9591999037
 10
21.2010882465
 20
1.7723010231
 10
21.1956588689
 20
1.5908317404
 10
21.1793979722
 20
1.4157372613
 10
21.1523911254
 20
1.2479340694
 10
21.1147809405
 20
1.0882993619
 10
21.0667635639
 20
0.9376592801
 10
21.0085867784
 20
0.7967907981
 10
20.9405528604
 20
0.6664280542
 10
20.8630154668
 20
0.5472505958
 10
20.7763733796
 20
0.4398748836
 10
20.6810701783
 20
0.3448574914
 10
20.5776053996
 20
0.2627026814
  0
LWPOLYLINE
  5
376
100
AcDbEntity
  8
RACCORDO
100
AcDbPolyline
 62
250
  6
CONTINUOUS
 90
15
 70
0
 10
2.9732572052
 20
23.1717223413
 10
2.9776003465
 20
23.1643772602
 10
2.9814481555
 20
23.1572897114
 10
2.9847897242
 20
23.1504792423
 10
2.9876157485
 20
23.1439640836
 10
2.9899177485
 20
23.1377629189
 10
2.9916885809
 20
23.1318945343
 10
2.9929233119
 20
23.1263754966
 10
2.9936187748
 20
23.12122027
 10
2.9937730676
 20
23.1164428184
 10
2.9933857178
 20
23.1120561485
 10
2.992457736
 20
23.1080723534
 10
2.9909916597
 20
23.1045024281
 10
2.988991514
 20
23.1013561502
 10
2.9886177776
 20
23.1008871747
  0
LWPOLYLINE
  5
377
100
AcDbEntity
  8
RACCORDO
100
AcDbPolyline
 62
250
  6
CONTINUOUS
 90
58
 70
0
 10
8.3348680581
 20
25.3129640628
 10
8.3276153509
 20
25.3582045293
 10
8.3167435918
 20
25.464927812
 10
8.3122766327
 20
25.5704979736
 10
8.3142252242
 20
25.6746271778
 10
8.3225827791
 20
25.7770407883
 10
8.3373274308
 20
25.8774729512
 10
8.3584197457
 20
25.9756517083
 10
8.3858040186
 20
26.0713154201
 10
8.419413019
 20
26.1642209823
 10
8.4591663948
 20
26.2541304674
 10
8.5049561587
 20
26.3407862681
 10
8.5566463575
 20
26.4239293208
 10
8.6141024311
 20
26.5033453695
 10
8.6771629974
 20
26.5788133142
 10
8.745613387
 20
26.6500894407
 10
8.8192136662
 20
26.716953616
 10
8.8977943113
 20
26.7792793973
 10
8.9812333751
 20
26.8369737302
 10
9.0692849275
 20
26.8898600485
 10
9.1617450321
 20
26.9378096844
 10
9.2585792732
 20
26.9807725864
 10
9.3598067474
 20
27.0186790309
 10
9.4649505093
 20
27.0512749932
 10
9.5731828378
 20
27.0783050707
 10
9.6845134015
 20
27.0997940776
 10
9.7983049543
 20
27.1156407588
 10
9.9125911885
 20
27.1257426084
 10
10.0268007174
 20
27.1303464279
 10
10.1407048599
 20
27.1297300168
 10
10.2527350234
 20
27.1242475287
 10
10.3622233314
 20
27.1143606172
 10
10.4691613318
 20
27.1004825416
 10
10.5729825884
 20
27.083082745
 10
10.673350337
 20
27.0626210829
 10
10.7701754042
 20
27.0395042023
 10
10.8633176237
 20
27.0141337284
 10
10.9525641066
 20
26.9869262395
 10
11.0379152314
 20
26.9582272345
 10
11.1195928828
 20
26.9282779447
 10
11.1975093118
 20
26.8974045595
 10
11.2716850379
 20
26.8658829302
 10
11.3425224584
 20
26.8337972257
 10
11.4100223648
 20
26.8013770726
 10
11.4741968095
 20
26.7688395288
 10
11.5354642239
 20
26.7361727392
 10
11.5938464314
 20
26.7035441214
 10
11.6493724303
 20
26.6711115192
 10
11.7024596589
 20
26.6387859444
 10
11.7531362154
 20
26.6066870091
 10
11.8014360194
 20
26.5749266536
 10
11.8477668717
 20
26.543353505
 10
11.8921556446
 20
26.5120502876
 10
11.9346325726
 20
26.481094799
 10
11.9755882839
 20
26.4502869094
 10
12.0151614684
 20
26.4195887348
 10
12.0532534786
 20
26.3891425004
 10
12.0898881073
 20
26.358998277
  0
LINE
  5
378
100
AcDbEntity
  8
0
100
AcDbLine
 62
7
  6
CONTINUOUS
 10
13.1915854729
 20
30.2930565031
 11
13.1915941691
 21
29.6470955664
  0
LINE
  5
379
100
AcDbEntity
  8
0
100
AcDbLine
 62
250
  6
CONTINUOUS
 10
12.3320971736
 20
23.4129911822
 11
13.0091413279
 21
23.5522257646
  0
LWPOLYLINE
  5
37A
100
AcDbEntity
  8
RACCORDO
100
AcDbPolyline
 62
250
  6
CONTINUOUS
 90
15
 70
0
 10
-0.6580491408
 20
23.4204749132
 10
-0.6673550137
 20
23.4247782161
 10
-0.6766325692
 20
23.4284774827
 10
-0.6858563675
 20
23.4315625658
 10
-0.6950011251
 20
23.4340250041
 10
-0.704041757
 20
23.4358580383
 10
-0.7129534472
 20
23.4370566356
 10
-0.721711754
 20
23.4376175107
 10
-0.7302926679
 20
23.4375391282
 10
-0.7386726523
 20
23.4368217053
 10
-0.7468287286
 20
23.435467213
 10
-0.7547385352
 20
23.4334793684
 10
-0.7623803819
 20
23.4308636265
 10
-0.7697333249
 20
23.4276271596
 10
-0.771127649
 20
23.4269265601
  0
LWPOLYLINE
  5
37B
100
AcDbEntity
  8
RACCORDO
100
AcDbPolyline
 62
250
  6
CONTINUOUS
 90
31
 70
0
 10
0.491187283
 20
22.1136318242
 10
0.5006462533
 20
22.1091428618
 10
0.5105605297
 20
22.1049066373
 10
0.5209031335
 20
22.1009346784
 10
0.5316459039
 20
22.097237799
 10
0.5427596231
 20
22.093826053
 10
0.5542141005
 20
22.090708711
 10
0.5659782059
 20
22.0878942521
 10
0.5780198963
 20
22.0853903492
 10
0.5903063505
 20
22.0832038295
 10
0.6028041149
 20
22.0813406456
 10
0.6154791977
 20
22.0798058644
 10
0.6282971061
 20
22.0786036624
 10
0.6412229695
 20
22.0777373105
 10
0.6542216026
 20
22.0772091676
 10
0.6672576009
 20
22.0770206708
 10
0.6802954688
 20
22.0771723301
 10
0.693299748
 20
22.0776637297
 10
0.7062350825
 20
22.0784935324
 10
0.7190663881
 20
22.0796594922
 10
0.7317586293
 20
22.0811584301
 10
0.7442769584
 20
22.0829862176
 10
0.7565871227
 20
22.0851378183
 10
0.7686558535
 20
22.0876073816
 10
0.7804506244
 20
22.0903882382
 10
0.7919404869
 20
22.0934731483
 10
0.8030929687
 20
22.0968534519
 10
0.8138747786
 20
22.1005188931
 10
0.8242559677
 20
22.104458891
 10
0.8342096798
 20
22.1086628385
 10
0.8437092427
 20
22.1131191003
  0
LWPOLYLINE
  5
37C
100
AcDbEntity
  8
RACCORDO
100
AcDbPolyline
 62
250
  6
CONTINUOUS
 90
31
 70
0
 10
-12.8731308814
 20
28.7957909064
 10
-12.8636719111
 20
28.791301944
 10
-12.8537576347
 20
28.7870657195
 10
-12.843415031
 20
28.7830937606
 10
-12.8326722605
 20
28.7793968813
 10
-12.8215585413
 20
28.7759851352
 10
-12.810104064
 20
28.7728677932
 10
-12.7983399586
 20
28.7700533343
 10
-12.7862982682
 20
28.7675494314
 10
-12.7740118139
 20
28.7653629117
 10
-12.7615140495
 20
28.7634997278
 10
-12.7488389667
 20
28.7619649466
 10
-12.7360210583
 20
28.7607627446
 10
-12.723095195
 20
28.7598963928
 10
-12.7100965618
 20
28.7593682498
 10
-12.6970605635
 20
28.759179753
 10
-12.6840226956
 20
28.7593314123
 10
-12.6710184164
 20
28.7598228119
 10
-12.6580830819
 20
28.7606526146
 10
-12.6452517763
 20
28.7618185744
 10
-12.6325595351
 20
28.7633175123
 10
-12.620041206
 20
28.7651452998
 10
-12.6077310417
 20
28.7672969005
 10
-12.5956623109
 20
28.7697664638
 10
-12.58386754
 20
28.7725473204
 10
-12.5723776775
 20
28.7756322305
 10
-12.5612251957
 20
28.7790125341
 10
-12.5504433859
 20
28.7826779753
 10
-12.5400621968
 20
28.7866179732
 10
-12.5301084846
 20
28.7908219207
 10
-12.5206089218
 20
28.7952781825
  0
LWPOLYLINE
  5
37D
100
AcDbEntity
  8
RACCORDO
100
AcDbPolyline
 62
250
  6
CONTINUOUS
 90
31
 70
0
 10
0.491187283
 20
22.4536057583
 10
0.5006474324
 20
22.4491162649
 10
0.510563019
 20
22.4448795628
 10
0.5209070568
 20
22.4409071856
 10
0.531651405
 20
22.437209944
 10
0.5427668106
 20
22.4337979078
 10
0.5542229841
 20
22.4306803756
 10
0.5659887334
 20
22.4278658345
 10
0.5780320407
 20
22.4253619421
 10
0.5903201133
 20
22.423175515
 10
0.6028195009
 20
22.4213125031
 10
0.6154961827
 20
22.4197779753
 10
0.6283156486
 20
22.4185761069
 10
0.6412430201
 20
22.4177101665
 10
0.6542430952
 20
22.4171825106
 10
0.6672804386
 20
22.4169945732
 10
0.68031951
 20
22.4171468585
 10
0.6933248749
 20
22.4176389443
 10
0.7062612492
 20
22.418469494
 10
0.7190935884
 20
22.419636267
 10
0.7317867955
 20
22.4211360818
 10
0.7443059448
 20
22.4229647985
 10
0.7566167414
 20
22.4251173679
 10
0.7686859462
 20
22.4275879379
 10
0.7804810639
 20
22.4303698418
 10
0.7919724865
 20
22.433456221
 10
0.803126303
 20
22.4368380957
 10
0.8139054586
 20
22.4405038548
 10
0.8242792246
 20
22.4444421406
 10
0.8342225286
 20
22.4486424931
 10
0.8437092427
 20
22.4530930345
  0
LWPOLYLINE
  5
37E
100
AcDbEntity
  8
RACCORDO
100
AcDbPolyline
 62
250
  6
CONTINUOUS
 90
31
 70
0
 10
-12.8731308814
 20
29.1357648405
 10
-12.8636954703
 20
29.1312864899
 10
-12.8538006778
 20
29.1270570989
 10
-12.8434725197
 20
29.1230886099
 10
-12.8327360312
 20
29.1193915631
 10
-12.8216217719
 20
29.1159773684
 10
-12.8101664831
 20
29.1128576794
 10
-12.7984038958
 20
29.1100415578
 10
-12.7863636081
 20
29.1075359682
 10
-12.77407806
 20
29.1053476754
 10
-12.7615804382
 20
29.1034826283
 10
-12.7489049643
 20
29.101945971
 10
-12.7360864932
 20
29.1007419409
 10
-12.7231600757
 20
29.0998738211
 10
-12.7101607367
 20
29.0993439546
 10
-12.6971237445
 20
29.0991537804
 10
-12.6840845284
 20
29.0993038234
 10
-12.671078632
 20
29.0997936827
 10
-12.6581415035
 20
29.1006220272
 10
-12.6453083701
 20
29.101786603
 10
-12.6326141478
 20
29.1032842431
 10
-12.6200933943
 20
29.1051108726
 10
-12.607780188
 20
29.1072615216
 10
-12.595708047
 20
29.1097303379
 10
-12.5839098422
 20
29.1125106005
 10
-12.5724176793
 20
29.1155947451
 10
-12.561262848
 20
29.1189743757
 10
-12.5504757434
 20
29.1226402827
 10
-12.5400857345
 20
29.1265824817
 10
-12.5301210875
 20
29.1307902446
 10
-12.5206089218
 20
29.1352521167
  0
LINE
  5
37F
100
AcDbEntity
  8
RACCORDO
100
AcDbLine
 62
7
  6
CONTINUOUS
 10
-13.495122607
 20
28.4949808231
 11
-12.1619102733
 21
27.8283746563
  0
LINE
  5
380
100
AcDbEntity
  8
RACCORDO
100
AcDbLine
 62
7
  6
CONTINUOUS
 10
-0.1308044425
 20
21.8128217409
 11
1.2024078911
 21
21.1462155741
  0
LINE
  5
381
100
AcDbEntity
  8
RACCORDO
100
AcDbLine
 62
7
  6
CONTINUOUS
 10
-3.0371504175
 20
23.6422413531
 11
-8.5484575172
 21
26.3978949029
  0
LINE
  5
382
100
AcDbEntity
  8
RACCORDO
100
AcDbLine
 62
7
  6
CONTINUOUS
 10
-14.1331422648
 20
29.3230647962
 11
-12.808157585
 21
28.6605724563
  0
LINE
  5
383
100
AcDbEntity
  8
RACCORDO
100
AcDbLine
 62
7
  6
CONTINUOUS
 10
-0.7688241004
 20
22.640905714
 11
0.5561605794
 21
21.9784133741
  0
LINE
  5
384
100
AcDbEntity
  8
RACCORDO
100
AcDbLine
 62
250
  6
CONTINUOUS
 10
-14.1981155612
 20
29.4582832463
 11
-12.8731308814
 21
28.7957909064
  0
LINE
  5
385
100
AcDbEntity
  8
RACCORDO
100
AcDbLine
 62
250
  6
CONTINUOUS
 10
-0.8337973968
 20
22.7761241641
 11
0.491187283
 21
22.1136318242
  0
LINE
  5
386
100
AcDbEntity
  8
RACCORDO
100
AcDbLine
 62
250
  6
CONTINUOUS
 10
0.491187283
 20
22.4536057583
 11
-0.8337973968
 21
23.1160980982
  0
LINE
  5
387
100
AcDbEntity
  8
RACCORDO
100
AcDbLine
 62
250
  6
CONTINUOUS
 10
-12.8731308814
 20
29.1357648405
 11
-14.1981155612
 21
29.7982571804
  0
LINE
  5
388
100
AcDbEntity
  8
RACCORDO
100
AcDbLine
 62
7
  6
CONTINUOUS
 10
2.4679058387
 20
21.6422064744
 11
2.4449900335
 21
21.653664377
  0
LINE
  5
389
100
AcDbEntity
  8
DRAFT
100
AcDbLine
 62
7
  6
CONTINUOUS
 10
-0.8805336236
 20
23.3164262055
 11
-1.9744273489
 21
23.8633730682
  0
LINE
  5
38A
100
AcDbEntity
  8
DRAFT
100
AcDbLine
 62
7
  6
CONTINUOUS
 10
-8.6949041266
 20
27.223611457
 11
-10.9193281309
 21
28.3358234592
  0
LINE
  5
38B
100
AcDbEntity
  8
RACCORDO
100
AcDbLine
 62
250
  6
CONTINUOUS
 10
0.666935539
 20
22.7579825733
 11
-0.6580491408
 21
23.4204749132
  0
LINE
  5
38C
100
AcDbEntity
  8
RACCORDO
100
AcDbLine
 62
250
  6
CONTINUOUS
 10
-12.6973826254
 20
29.4401416555
 11
-14.0223673053
 21
30.1026339954
  0
LINE
  5
38D
100
AcDbEntity
  8
RACCORDO
100
AcDbLine
 62
250
  6
CONTINUOUS
 10
-3.0371504175
 20
24.7228246639
 11
-8.5484575172
 21
27.4784782137
  0
LWPOLYLINE
  5
38E
100
AcDbEntity
  8
RACCORDO
100
AcDbPolyline
 62
250
  6
CONTINUOUS
 90
16
 70
0
 10
-14.1981155612
 20
29.4582832463
 10
-14.2070934861
 20
29.4630127315
 10
-14.215565935
 20
29.4679698697
 10
-14.2235098528
 20
29.4731411715
 10
-14.2309036115
 20
29.4785125568
 10
-14.2377271037
 20
29.4840694164
 10
-14.2439617877
 20
29.489796655
 10
-14.2495907054
 20
29.4956787077
 10
-14.2545985112
 20
29.5016995529
 10
-14.2589715506
 20
29.5078427801
 10
-14.2626979184
 20
29.5140916623
 10
-14.2657674809
 20
29.5204292036
 10
-14.2681718849
 20
29.5268381579
 10
-14.2699045885
 20
29.5333010895
 10
-14.2709608744
 20
29.5398004061
 10
-14.2713388659
 20
29.546671594
  0
LWPOLYLINE
  5
38F
100
AcDbEntity
  8
RACCORDO
100
AcDbPolyline
 62
250
  6
CONTINUOUS
 90
16
 70
0
 10
-14.1981155612
 20
29.7982571804
 10
-14.2070945481
 20
29.8029872551
 10
-14.2155679523
 20
29.8079450484
 10
-14.2235127066
 20
29.8131170673
 10
-14.2309071898
 20
29.8184892414
 10
-14.2377312622
 20
29.8240469442
 10
-14.2439663266
 20
29.829775031
 10
-14.2495954089
 20
29.8356579056
 10
-14.2546031937
 20
29.8416795593
 10
-14.2589760478
 20
29.8478235956
 10
-14.2627020716
 20
29.8540732894
 10
-14.2657711274
 20
29.8604116303
 10
-14.268174864
 20
29.8668213632
 10
-14.2699067448
 20
29.873285049
 10
-14.2709620567
 20
29.8797850866
 10
-14.2713388659
 20
29.8866455281
  0
LWPOLYLINE
  5
390
100
AcDbEntity
  8
RACCORDO
100
AcDbPolyline
 62
250
  6
CONTINUOUS
 90
16
 70
0
 10
-0.8337973968
 20
22.7761241641
 10
-0.8427753217
 20
22.7808536493
 10
-0.8512477706
 20
22.7858107875
 10
-0.8591916883
 20
22.7909820893
 10
-0.8665854471
 20
22.7963534746
 10
-0.8734089393
 20
22.8019103342
 10
-0.8796436233
 20
22.8076375728
 10
-0.885272541
 20
22.8135196255
 10
-0.8902803468
 20
22.8195404707
 10
-0.8946533862
 20
22.8256836978
 10
-0.898379754
 20
22.83193258
 10
-0.9014493164
 20
22.8382701214
 10
-0.9038537205
 20
22.8446790756
 10
-0.9055864241
 20
22.8511420073
 10
-0.90664271
 20
22.8576413239
 10
-0.9070207015
 20
22.8645125117
  0
LWPOLYLINE
  5
391
100
AcDbEntity
  8
RACCORDO
100
AcDbPolyline
 62
250
  6
CONTINUOUS
 90
16
 70
0
 10
-0.8337973968
 20
23.1160980982
 10
-0.842774464
 20
23.1208271073
 10
-0.8512461566
 20
23.1257837258
 10
-0.859189426
 20
23.1309544684
 10
-0.866582661
 20
23.1363252672
 10
-0.8734057473
 20
23.14188151
 10
-0.8796401213
 20
23.1476080802
 10
-0.8852688215
 20
23.1534893976
 10
-0.890276534
 20
23.1595094611
 10
-0.8946496344
 20
23.1656518922
 10
-0.8983762251
 20
23.1718999792
 10
-0.9014461671
 20
23.1782367232
 10
-0.9038511083
 20
23.1846448841
 10
-0.9055845054
 20
23.1911070272
 10
-0.9066416427
 20
23.1976055714
 10
-0.9070207015
 20
23.2044864459
  0
LWPOLYLINE
  5
392
100
AcDbEntity
  8
RACCORDO
100
AcDbPolyline
 62
250
  6
CONTINUOUS
 90
61
 70
0
 10
8.536794437
 20
25.0435973924
 10
8.5249940348
 20
25.0803681567
 10
8.4980832257
 20
25.1819796236
 10
8.4770049073
 20
25.2830204908
 10
8.4618040192
 20
25.3834865823
 10
8.4524356219
 20
25.4833820741
 10
8.4489709846
 20
25.5819253398
 10
8.4514555586
 20
25.6791013335
 10
8.4598438928
 20
25.774925101
 10
8.4740709029
 20
25.8686601534
 10
8.4941790967
 20
25.9602899302
 10
8.5201259664
 20
26.0498309919
 10
8.5517189049
 20
26.1365965308
 10
8.5890093621
 20
26.2205772639
 10
8.631945888
 20
26.3017824743
 10
8.6801815258
 20
26.379553203
 10
8.7337705628
 20
26.4538620506
 10
8.7926587116
 20
26.5247364164
 10
8.8563361531
 20
26.5915995398
 10
8.924796455
 20
26.6543874933
 10
8.9980460494
 20
26.7131642042
 10
9.0755944137
 20
26.7675446935
 10
9.1574308906
 20
26.8175098811
 10
9.2435661373
 20
26.8630788471
 10
9.3335416029
 20
26.9039238523
 10
9.427605034
 20
26.9400657749
 10
9.525508684
 20
26.9714837368
 10
9.6260507621
 20
26.9977873641
 10
9.7296059353
 20
27.0188250465
 10
9.8357995367
 20
27.0347483944
 10
9.9423057746
 20
27.0456218644
 10
10.0490758296
 20
27.0511764861
 10
10.1561585211
 20
27.0516812299
 10
10.2613745166
 20
27.0480074642
 10
10.3643763675
 20
27.0400452341
 10
10.4655115224
 20
27.0279044944
 10
10.5636429951
 20
27.012786478
 10
10.6585416987
 20
26.9947201155
 10
10.75043672
 20
26.9736764764
 10
10.838878333
 20
26.9507700016
 10
10.9237182961
 20
26.9260781115
 10
11.0051048509
 20
26.8995233857
 10
11.0830329955
 20
26.871988004
 10
11.1573925039
 20
26.8435700081
 10
11.2282936021
 20
26.8141713563
 10
11.2960619665
 20
26.7843801026
 10
11.3606721864
 20
26.7542682897
 10
11.4221496725
 20
26.7237638749
 10
11.4808963332
 20
26.693238784
 10
11.5369034403
 20
26.6627502456
 10
11.5901797219
 20
26.632241031
 10
11.6411532715
 20
26.6019113802
 10
11.6898243995
 20
26.5718066979
 10
11.7361927954
 20
26.5418815793
 10
11.7806856209
 20
26.5122000502
 10
11.8233088863
 20
26.4827965584
 10
11.8640565813
 20
26.4536366561
 10
11.9033378365
 20
26.4246810256
 10
11.9412890288
 20
26.3959165611
 10
11.9777737813
 20
26.3673563685
 10
12.0127920939
 20
26.3390004477
  0
LINE
  5
393
100
AcDbEntity
  8
0
100
AcDbLine
 62
7
  6
CONTINUOUS
 10
16.6238999347
 20
25.5039360017
 11
17.2795963632
 21
25.6397175238
  0
LINE
  5
394
100
AcDbEntity
  8
0
100
AcDbLine
 62
7
  6
CONTINUOUS
 10
10.6029418113
 20
24.6194804642
 11
10.0956235954
 21
24.543247764
  0
LINE
  5
395
100
AcDbEntity
  8
0
100
AcDbLine
 62
7
  6
CONTINUOUS
 10
10.8150738457
 20
24.963414447
 11
10.3077556297
 21
24.8871817469
  0
LINE
  5
396
100
AcDbEntity
  8
RACCORDO
100
AcDbLine
 62
7
  6
CONTINUOUS
 10
0.6168657492
 20
21.9572979395
 11
1.2424724428
 21
21.8266765432
  0
LINE
  5
397
100
AcDbEntity
  8
RACCORDO
100
AcDbLine
 62
250
  6
CONTINUOUS
 10
0.8437092427
 20
22.1131191003
 11
1.5549298508
 21
21.9646155775
  0
LWPOLYLINE
  5
398
100
AcDbEntity
  8
RACCORDO
100
AcDbPolyline
 62
250
  6
CONTINUOUS
 90
14
 70
0
 10
2.9072584611
 20
23.8307332879
 10
2.8998310387
 20
23.8340528065
 10
2.8922480961
 20
23.8366905067
 10
2.8844016778
 20
23.8387033772
 10
2.8763133865
 20
23.8400859021
 10
2.8680054187
 20
23.8408343624
 10
2.8595002464
 20
23.8409468067
 10
2.8508207836
 20
23.8404229578
 10
2.8419886931
 20
23.8392639158
 10
2.8330299101
 20
23.8374728804
 10
2.8239745733
 20
23.8350564501
 10
2.8148494045
 20
23.8320230787
 10
2.8056773999
 20
23.8283817214
 10
2.7964835016
 20
23.8241433968
  0
LWPOLYLINE
  5
399
100
AcDbEntity
  8
RACCORDO
100
AcDbPolyline
 62
250
  6
CONTINUOUS
 90
14
 70
0
 10
1.5699323006
 20
24.4993963682
 10
1.5625048782
 20
24.5027158868
 10
1.5549219356
 20
24.5053535869
 10
1.5470755173
 20
24.5073664575
 10
1.538987226
 20
24.5087489824
 10
1.5306792582
 20
24.5094974427
 10
1.5221740858
 20
24.5096098869
 10
1.5134946231
 20
24.509086038
 10
1.5046625326
 20
24.5079269961
 10
1.4957037496
 20
24.5061359607
 10
1.4866484127
 20
24.5037195303
 10
1.4775232439
 20
24.5006861589
 10
1.4683512394
 20
24.4970448017
 10
1.459157341
 20
24.4928064771
  0
LWPOLYLINE
  5
39A
100
AcDbEntity
  8
RACCORDO
100
AcDbPolyline
 62
250
  6
CONTINUOUS
 90
15
 70
0
 10
-14.0223673053
 20
30.1026339954
 10
-14.0316711389
 20
30.1069364201
 10
-14.0409466537
 20
30.1106350688
 10
-14.0501684273
 20
30.1137198042
 10
-14.0593111845
 20
30.1161821716
 10
-14.0683498666
 20
30.1180154221
 10
-14.0772597004
 20
30.1192145312
 10
-14.0860162657
 20
30.1197762122
 10
-14.0945955624
 20
30.1196989258
 10
-14.1029740762
 20
30.1189828837
 10
-14.1111288432
 20
30.1176300485
 10
-14.1190375128
 20
30.1156441281
 10
-14.1266784086
 20
30.1130305655
 10
-14.1340305886
 20
30.109796524
 10
-14.1354529714
 20
30.1090819705
  0
LWPOLYLINE
  5
39B
100
AcDbEntity
  8
RACCORDO
100
AcDbPolyline
 62
7
  6
CONTINUOUS
 90
16
 70
0
 10
0.9247074623
 20
24.2324590105
 10
0.9162963869
 20
24.2364194944
 10
0.9079041693
 20
24.2398804731
 10
0.8995499216
 20
24.2428341569
 10
0.8912527476
 20
24.245273945
 10
0.8830314492
 20
24.2471943111
 10
0.8749044834
 20
24.2485908164
 10
0.866890318
 20
24.2494603251
 10
0.8590071987
 20
24.2498009117
 10
0.8512728565
 20
24.2496117362
 10
0.843704849
 20
24.2488932444
 10
0.836320392
 20
24.2476470988
 10
0.8291361295
 20
24.2458760761
 10
0.8221683508
 20
24.2435841949
 10
0.8154328916
 20
24.2407766718
 10
0.8137752714
 20
24.2399891674
  0
LWPOLYLINE
  5
39C
100
AcDbEntity
  8
RACCORDO
100
AcDbPolyline
 62
7
  6
CONTINUOUS
 90
16
 70
0
 10
-12.4396107021
 20
30.9146180927
 10
-12.4480217775
 20
30.9185785766
 10
-12.4564139951
 20
30.9220395553
 10
-12.4647682429
 20
30.9249932391
 10
-12.4730654168
 20
30.9274330272
 10
-12.4812867152
 20
30.9293533934
 10
-12.489413681
 20
30.9307498987
 10
-12.4974278464
 20
30.9316194073
 10
-12.5053109657
 20
30.9319599939
 10
-12.5130453079
 20
30.9317708185
 10
-12.5206133155
 20
30.9310523267
 10
-12.5279977724
 20
30.929806181
 10
-12.535182035
 20
30.9280351584
 10
-12.5421498136
 20
30.9257432771
 10
-12.5488852728
 20
30.922935754
 10
-12.550542893
 20
30.9221482496
  0
LWPOLYLINE
  5
39D
100
AcDbEntity
  8
RACCORDO
100
AcDbPolyline
 62
250
  6
CONTINUOUS
 90
14
 70
0
 10
1.459157341
 20
24.4928064771
 10
1.4499583313
 20
24.4971613138
 10
1.4407817157
 20
24.5009094121
 10
1.4316526454
 20
24.5040404991
 10
1.4225961416
 20
24.5065459932
 10
1.4136370264
 20
24.5084190272
 10
1.404799855
 20
24.5096544675
 10
1.3961088486
 20
24.510248928
 10
1.3875878276
 20
24.5102007793
 10
1.3792601463
 20
24.5095101535
 10
1.3711486296
 20
24.5081789435
 10
1.3632755094
 20
24.5062107978
 10
1.3556623646
 20
24.5036111107
 10
1.3486452299
 20
24.5005412681
  0
LWPOLYLINE
  5
39E
100
AcDbEntity
  8
RACCORDO
100
AcDbPolyline
 62
250
  6
CONTINUOUS
 90
14
 70
0
 10
-11.9051608234
 20
31.1749655593
 10
-11.9143379309
 20
31.1793107363
 10
-11.9234985494
 20
31.1830542468
 10
-11.932617594
 20
31.1861847187
 10
-11.9416718992
 20
31.1886928839
 10
-11.9506345895
 20
31.1905699703
 10
-11.9594753775
 20
31.1918090602
 10
-11.9681681359
 20
31.1924066958
 10
-11.9766909786
 20
31.1923615802
 10
-11.9850207705
 20
31.1916738099
 10
-11.9931348125
 20
31.1903451862
 10
-12.0010106757
 20
31.1883793066
 10
-12.0086265197
 20
31.1857815969
 10
-12.0156729345
 20
31.1827003504
  0
LINE
  5
39F
100
AcDbEntity
  8
RACCORDO
100
AcDbLine
 62
250
  6
CONTINUOUS
 10
-2.6143280377
 20
24.8252142283
 11
-8.6900826874
 21
27.8630915532
  0
LINE
  5
3A0
100
AcDbEntity
  8
RACCORDO
100
AcDbLine
 62
7
  6
CONTINUOUS
 10
-10.9193281309
 20
29.0353725512
 11
-9.5112853959
 21
28.3313511837
  0
LINE
  5
3A1
100
AcDbEntity
  8
RACCORDO
100
AcDbLine
 62
7
  6
CONTINUOUS
 10
2.4449900335
 20
22.353213469
 11
3.1873552146
 21
21.9820308784
  0
LINE
  5
3A2
100
AcDbEntity
  8
DRAFT
100
AcDbLine
 62
7
  6
CONTINUOUS
 10
-8.1969670234
 20
28.1870784707
 11
-1.9744273489
 21
25.0758086335
  0
LINE
  5
3A3
100
AcDbEntity
  8
RACCORDO
100
AcDbLine
 62
7
  6
CONTINUOUS
 10
-12.4396107021
 20
30.9146180927
 11
-11.0961018346
 21
30.242863659
  0
LINE
  5
3A4
100
AcDbEntity
  8
RACCORDO
100
AcDbLine
 62
7
  6
CONTINUOUS
 10
0.9247074623
 20
24.2324590105
 11
2.2682163298
 21
23.5607045768
  0
LINE
  5
3A5
100
AcDbEntity
  8
DRAFT
100
AcDbLine
 62
7
  6
CONTINUOUS
 10
-1.9037166708
 20
25.7425216872
 11
-6.8534641391
 21
28.2173954214
  0
LINE
  5
3A6
100
AcDbEntity
  8
RACCORDO
100
AcDbLine
 62
250
  6
CONTINUOUS
 10
-11.9051608234
 20
31.1749655593
 11
-10.5678346629
 21
30.506302479
  0
LINE
  5
3A7
100
AcDbEntity
  8
RACCORDO
100
AcDbLine
 62
250
  6
CONTINUOUS
 10
1.459157341
 20
24.4928064771
 11
2.7964835016
 21
23.8241433968
  0
LINE
  5
3A8
100
AcDbEntity
  8
RACCORDO
100
AcDbLine
 62
7
  6
CONTINUOUS
 10
-11.7943858639
 20
31.1815554504
 11
-10.4570597033
 21
30.5128923701
  0
LINE
  5
3A9
100
AcDbEntity
  8
RACCORDO
100
AcDbLine
 62
7
  6
CONTINUOUS
 10
1.5699323006
 20
24.4993963682
 11
2.9072584611
 21
23.8307332879
  0
LINE
  5
3AA
100
AcDbEntity
  8
0
100
AcDbLine
 62
7
  6
CONTINUOUS
 10
10.0391415937
 20
22.7018780702
 11
8.7404664321
 21
24.9417613949
  0
LINE
  5
3AB
100
AcDbEntity
  8
0
100
AcDbLine
 62
7
  6
CONTINUOUS
 10
9.5727556297
 20
24.5196817469
 11
9.5404846333
 21
24.5874661252
  0
LINE
  5
3AC
100
AcDbEntity
  8
0
100
AcDbLine
 62
7
  6
CONTINUOUS
 10
9.8030466712
 20
25.7465702377
 11
10.000104041
 21
25.3326564213
  0
LWPOLYLINE
  5
3AD
100
AcDbEntity
  8
RACCORDO
100
AcDbPolyline
 62
250
  6
CONTINUOUS
 90
10
 70
0
 10
19.7780119942
 20
23.4315466535
 10
19.7750333896
 20
23.393034636
 10
19.7646676647
 20
23.3501870236
 10
19.746950455
 20
23.3079464108
 10
19.7220146579
 20
23.2666284789
 10
19.6900459275
 20
23.2265400221
 10
19.651282434
 20
23.1879794888
 10
19.6060129903
 20
23.1512340833
 10
19.5545750106
 20
23.1165776038
 10
19.4973517997
 20
23.0842682154
  0
LINE
  5
3AE
100
AcDbEntity
  8
RACCORDO
100
AcDbLine
 62
250
  6
CONTINUOUS
 10
1.2018936628
 20
-18.2092187239
 11
0.5795756307
 21
-18.9542781414
  0
LINE
  5
3AF
100
AcDbEntity
  8
RACCORDO
100
AcDbLine
 62
250
  6
CONTINUOUS
 10
1.5549298508
 20
-18.3349885619
 11
0.8437092427
 21
-19.186485039
  0
LINE
  5
3B0
100
AcDbEntity
  8
RACCORDO
100
AcDbLine
 62
250
  6
CONTINUOUS
 10
20.542031445
 20
0.2386646543
 11
20.5410974058
 21
0.2380598665
  0
LINE
  5
3B1
100
AcDbEntity
  8
DRAFT
100
AcDbLine
 62
7
  6
CONTINUOUS
 10
19.7780119993
 20
-0.2554973317
 11
20.5410972802
 21
0.2380597853
  0
LWPOLYLINE
  5
3B2
100
AcDbEntity
  8
RACCORDO
100
AcDbPolyline
 62
7
  6
CONTINUOUS
 90
18
 70
0
 10
-2.6143280377
 20
24.8252142283
 10
-2.6316227056
 20
24.8237218927
 10
-2.6488171039
 20
24.8217283148
 10
-2.6658754416
 20
24.8193211319
 10
-2.6827662751
 20
24.8166101783
 10
-2.6994705378
 20
24.8136531658
 10
-2.7159773578
 20
24.8104423177
 10
-2.7322707647
 20
24.8070320898
 10
-2.7483405576
 20
24.8034875601
 10
-2.7641837114
 20
24.7997936041
 10
-2.7797925231
 20
24.7959903218
 10
-2.7951616058
 20
24.7921267336
 10
-2.8102883338
 20
24.7881864599
 10
-2.8251693514
 20
24.7842004126
 10
-2.8398018774
 20
24.7802063266
 10
-2.8541805023
 20
24.7761891972
 10
-2.8683040553
 20
24.7721740366
 10
-2.8957738009
 20
24.7642264244
  0
LINE
  5
3B3
100
AcDbEntity
  8
RACCORDO
100
AcDbLine
 62
7
  6
CONTINUOUS
 10
-12.7474524153
 20
28.6394570218
 11
-12.1218457216
 21
28.5088356254
  0
LINE
  5
3B4
100
AcDbEntity
  8
RACCORDO
100
AcDbLine
 62
250
  6
CONTINUOUS
 10
-12.5206089218
 20
28.7952781825
 11
-11.8093883137
 21
28.6467746597
  0
LWPOLYLINE
  5
3B5
100
AcDbEntity
  8
RACCORDO
100
AcDbPolyline
 62
7
  6
CONTINUOUS
 90
3
 70
0
 10
-3.0247935938
 20
27.6012751775
 10
-2.9962608801
 20
27.5915234794
 10
-2.9660240266
 20
27.5784734719
  0
LWPOLYLINE
  5
3B6
100
AcDbEntity
  8
RACCORDO
100
AcDbPolyline
 62
250
  6
CONTINUOUS
 90
7
 70
0
 10
-1.8854832769
 20
27.7094550059
 10
-1.8958445238
 20
27.7137041095
 10
-1.9098442386
 20
27.7168847836
 10
-1.9247065582
 20
27.7175959659
 10
-1.9402344935
 20
27.7158282373
 10
-1.956222227
 20
27.7116050341
 10
-1.9724578514
 20
27.7049823391
  0
LWPOLYLINE
  5
3B7
100
AcDbEntity
  8
RACCORDO
100
AcDbPolyline
 62
250
  6
CONTINUOUS
 90
14
 70
0
 10
-10.4570597033
 20
30.5128923701
 10
-10.464457784
 20
30.516200264
 10
-10.4720380014
 20
30.5188399175
 10
-10.4798816478
 20
30.5208550294
 10
-10.4879673833
 20
30.5222401174
 10
-10.4962732094
 20
30.5229914131
 10
-10.5047765285
 20
30.5231068724
 10
-10.5134542061
 20
30.5225861813
 10
-10.5222826329
 20
30.5214307563
 10
-10.5312377898
 20
30.5196437409
 10
-10.5402953127
 20
30.5172299972
 10
-10.5494305592
 20
30.514196092
 10
-10.5586186752
 20
30.5105502796
 10
-10.5678346629
 20
30.506302479
  0
LWPOLYLINE
  5
3B8
100
AcDbEntity
  8
RACCORDO
100
AcDbPolyline
 62
250
  6
CONTINUOUS
 90
14
 70
0
 10
-11.7943858639
 20
31.1815554504
 10
-11.8017839446
 20
31.1848633443
 10
-11.8093641619
 20
31.1875029977
 10
-11.8172078083
 20
31.1895181097
 10
-11.8252935439
 20
31.1909031977
 10
-11.8335993699
 20
31.1916544934
 10
-11.8421026891
 20
31.1917699527
 10
-11.8507803666
 20
31.1912492616
 10
-11.8596087935
 20
31.1900938365
 10
-11.8685639504
 20
31.1883068212
 10
-11.8776214733
 20
31.1858930775
 10
-11.8867567198
 20
31.1828591722
 10
-11.8959448357
 20
31.1792133598
 10
-11.9051608234
 20
31.1749655593
  0
LWPOLYLINE
  5
3B9
100
AcDbEntity
  8
RACCORDO
100
AcDbPolyline
 62
7
  6
CONTINUOUS
 90
39
 70
0
 10
-1.8853464762
 20
27.7093863819
 10
-1.9257709875
 20
27.7278247422
 10
-1.9638593172
 20
27.742318588
 10
-2.0025933846
 20
27.7546703624
 10
-2.0418850814
 20
27.7651136102
 10
-2.0815024953
 20
27.773813504
 10
-2.1212633424
 20
27.7809314156
 10
-2.1611092768
 20
27.786625271
 10
-2.2009730281
 20
27.7910213881
 10
-2.2407276425
 20
27.7942194699
 10
-2.2801910584
 20
27.7963066956
 10
-2.3192743126
 20
27.797368941
 10
-2.3579642411
 20
27.7974835068
 10
-2.3961795954
 20
27.7967165836
 10
-2.4338799622
 20
27.7951286472
 10
-2.4710439305
 20
27.7927729485
 10
-2.5076099479
 20
27.78970114
 10
-2.5435437063
 20
27.7859604487
 10
-2.5788396516
 20
27.7815925345
 10
-2.613476002
 20
27.7766372007
 10
-2.6474113945
 20
27.7711370558
 10
-2.6806594999
 20
27.7651235306
 10
-2.713273212
 20
27.7586181021
 10
-2.745239785
 20
27.7516503668
 10
-2.7765434373
 20
27.7442517513
 10
-2.8072193047
 20
27.7364395519
 10
-2.8372681947
 20
27.7282387036
 10
-2.8666496975
 20
27.7196858158
 10
-2.8953222189
 20
27.7108214542
 10
-2.9231880526
 20
27.7017087567
 10
-2.9502899703
 20
27.6923686959
 10
-2.9767603982
 20
27.6827883194
 10
-3.0023928835
 20
27.67307778
 10
-3.0272600335
 20
27.6632523609
 10
-3.0518021494
 20
27.653170434
 10
-3.075750262
 20
27.642978471
 10
-3.0989030615
 20
27.6328151575
 10
-3.1215653651
 20
27.6226080746
 10
-3.1432141647
 20
27.6126726439
  0
LWPOLYLINE
  5
3BA
100
AcDbEntity
  8
0
100
AcDbPolyline
 62
7
  6
CONTINUOUS
 90
40
 70
0
 10
-1.8330059927
 20
28.2069027539
 10
-1.862132413
 20
28.22088498
 10
-1.8922583209
 20
28.2342297666
 10
-1.9233837164
 20
28.2469371138
 10
-1.9555622962
 20
28.259025584
 10
-1.9887403636
 20
28.2704766148
 10
-2.0227568278
 20
28.2812345187
 10
-2.0576157893
 20
28.2912959133
 10
-2.0933131476
 20
28.3006641811
 10
-2.1296755107
 20
28.3092937823
 10
-2.1667057835
 20
28.3171810787
 10
-2.2044010611
 20
28.3243297085
 10
-2.2425792365
 20
28.3307050467
 10
-2.2812431219
 20
28.3363034147
 10
-2.3203899052
 20
28.3411284911
 10
-2.3598290437
 20
28.3451566875
 10
-2.3995618598
 20
28.3483840844
 10
-2.4395870311
 20
28.3508146011
 10
-2.4797100481
 20
28.3524364075
 10
-2.5199313021
 20
28.3532455586
 10
-2.5602504017
 20
28.3532459994
 10
-2.6004716631
 20
28.3524377333
 10
-2.6405946098
 20
28.3508168289
 10
-2.6806197182
 20
28.3483872177
 10
-2.720352734
 20
28.3451606982
 10
-2.7597922362
 20
28.3411333962
 10
-2.7989396458
 20
28.3363091859
 10
-2.8376049713
 20
28.330711488
 10
-2.875785868
 20
28.3243365424
 10
-2.9134846806
 20
28.3171881094
 10
-2.9505184519
 20
28.3093008901
 10
-2.9868839477
 20
28.3006712934
 10
-3.0225844021
 20
28.2913029104
 10
-3.0574465603
 20
28.2812412168
 10
-3.0914663455
 20
28.2704828425
 10
-3.1246478345
 20
28.2590311575
 10
-3.1568300024
 20
28.2469417476
 10
-3.1879591744
 20
28.2342331413
 10
-3.2180890252
 20
28.22088681
 10
-3.2472195551
 20
28.2069027539
  0
LINE
  5
3BB
100
AcDbEntity
  8
RACCORDO
100
AcDbLine
 62
7
  6
CONTINUOUS
 10
-0.5895546905
 20
26.3902388038
 11
-2.9644306905
 21
27.5776768038
  0
LINE
  5
3BC
100
AcDbEntity
  8
RACCORDO
100
AcDbLine
 62
250
  6
CONTINUOUS
 10
-1.9724578514
 20
27.7049823391
 11
0.0382103143
 21
26.6996482563
  0
LINE
  5
3BD
100
AcDbEntity
  8
RACCORDO
100
AcDbLine
 62
7
  6
CONTINUOUS
 10
-1.8854832769
 20
27.7094550059
 11
0.0865144525
 21
26.7234561412
  0
LINE
  5
3BE
100
AcDbEntity
  8
ASSI
100
AcDbLine
 62
7
  6
CONTINUOUS
 10
-1.8330059927
 20
28.2069027539
 11
0.613959074
 21
26.9834202205
  0
LINE
  5
3BF
100
AcDbEntity
  8
0
100
AcDbLine
 62
7
  6
CONTINUOUS
 10
-2.1865593833
 20
28.3836794492
 11
-2.5401127739
 21
28.5604561445
  0
LINE
  5
3C0
100
AcDbEntity
  8
DRAFT
100
AcDbLine
 62
7
  6
CONTINUOUS
 10
-2.5401127739
 20
29.1130143338
 11
-2.1865593833
 21
28.9362376385
  0
LINE
  5
3C1
100
AcDbEntity
  8
0
100
AcDbLine
 62
7
  6
CONTINUOUS
 10
10.640064923
 20
24.63804202
 11
10.8099264801
 21
24.4330009825
  0
LINE
  5
3C2
100
AcDbEntity
  8
0
100
AcDbLine
 62
7
  6
CONTINUOUS
 10
10.8988640708
 20
24.3256438137
 11
10.9133842824
 21
24.3081163679
  0
LWPOLYLINE
  5
3C3
100
AcDbEntity
  8
0
100
AcDbPolyline
 62
7
  6
CONTINUOUS
 90
7
 70
0
 10
10.8988640708
 20
24.3256438137
 10
10.8849466503
 20
24.3439894307
 10
10.8706670252
 20
24.3621539456
 10
10.8560251957
 20
24.3801373582
 10
10.8410211617
 20
24.3979396685
 10
10.8256549231
 20
24.4155608766
 10
10.8099264801
 20
24.4330009825
  0
LINE
  5
3C4
100
AcDbEntity
  8
0
100
AcDbLine
 62
7
  6
CONTINUOUS
 10
11.6332320756
 20
24.3823157721
 11
11.4361747057
 21
24.7962295885
  0
LWPOLYLINE
  5
3C5
100
AcDbEntity
  8
RACCORDO
100
AcDbPolyline
 62
250
  6
CONTINUOUS
 90
36
 70
0
 10
19.7780119993
 20
2.9871824572
 10
19.7819499013
 20
2.9720262931
 10
19.796766937
 20
2.9082039061
 10
19.8104637233
 20
2.8415471913
 10
19.8228971667
 20
2.7716075417
 10
19.8339565888
 20
2.6983589136
 10
19.8435401114
 20
2.6218042722
 10
19.8514821767
 20
2.5415339486
 10
19.8576053472
 20
2.4574871674
 10
19.8618037406
 20
2.3697289714
 10
19.8639813714
 20
2.2780429832
 10
19.8638387915
 20
2.182127809
 10
19.8613079477
 20
2.0823434504
 10
19.8566391393
 20
1.979488874
 10
19.8493621863
 20
1.8737047652
 10
19.839598017
 20
1.7650004948
 10
19.8284827653
 20
1.6540220639
 10
19.8149538884
 20
1.5412935703
 10
19.7996862178
 20
1.4265549424
 10
19.7861891865
 20
1.3094092237
 10
19.7732796579
 20
1.1879067722
 10
19.7611089005
 20
1.064686411
 10
19.7551995628
 20
0.9463916627
 10
19.7583440157
 20
0.8351747933
 10
19.7672763946
 20
0.7298129705
 10
19.7789992735
 20
0.6316911874
 10
19.7944109154
 20
0.5427814465
 10
19.8129281026
 20
0.4615158945
 10
19.8294939761
 20
0.3837713005
 10
19.8432291334
 20
0.308922227
 10
19.8549436464
 20
0.2381186534
 10
19.8619615784
 20
0.1699157312
 10
19.8638404998
 20
0.1038609591
 10
19.8609721271
 20
0.0409001824
 10
19.8521270272
 20
-0.0185977252
 10
19.8371773394
 20
-0.0748357178
  0
LWPOLYLINE
  5
3C6
100
AcDbEntity
  8
RACCORDO
100
AcDbPolyline
 62
250
  6
CONTINUOUS
 90
13
 70
0
 10
19.4973517997
 20
23.0842682154
 10
19.4943962964
 20
23.1611662053
 10
19.4859627094
 20
23.2401152989
 10
19.4721191662
 20
23.3205106
 10
19.4529773688
 20
23.4017281842
 10
19.428685841
 20
23.4831557823
 10
19.3994233383
 20
23.5641974419
 10
19.365374
 20
23.6443169688
 10
19.3268251297
 20
23.722815752
 10
19.2841964323
 20
23.7988814459
 10
19.2378906627
 20
23.8718879497
 10
19.1882495651
 20
23.9413811107
 10
19.135673164
 20
24.0068678833
  0
LINE
  5
3C7
100
AcDbEntity
  8
RACCORDO
100
AcDbLine
 62
250
  6
CONTINUOUS
 10
19.4973517997
 20
-4.4485992672
 11
19.4973517997
 21
23.0842682154
  0
LINE
  5
3C8
100
AcDbEntity
  8
RACCORDO
100
AcDbLine
 62
7
  6
CONTINUOUS
 10
19.7780119979
 20
-0.0331709372
 11
19.7780119993
 21
-4.1012700854
  0
LINE
  5
3C9
100
AcDbEntity
  8
RACCORDO
100
AcDbLine
 62
250
  6
CONTINUOUS
 10
19.7780119993
 20
23.4315974007
 11
19.7780119942
 21
23.4315466535
  0
LINE
  5
3CA
100
AcDbEntity
  8
RACCORDO
100
AcDbLine
 62
7
  6
CONTINUOUS
 10
19.7780119993
 20
23.4315974007
 11
19.7780115756
 21
2.1434744497
  0
LWPOLYLINE
  5
3CB
100
AcDbEntity
  8
RACCORDO
100
AcDbPolyline
 62
250
  6
CONTINUOUS
 90
22
 70
0
 10
19.7780115756
 20
2.1434744497
 10
19.7777068684
 20
2.0881090706
 10
19.7756694802
 20
1.9834262578
 10
19.771711839
 20
1.8755742019
 10
19.765857668
 20
1.7645398373
 10
19.7584057234
 20
1.6508881721
 10
19.7493337632
 20
1.5350129463
 10
19.7389830681
 20
1.4165640623
 10
19.7288485433
 20
1.2949044159
 10
19.7191817084
 20
1.1674052938
 10
19.7107364482
 20
1.036570269
 10
19.7065473403
 20
0.9093099095
 10
19.7082675773
 20
0.787032818
 10
19.7145078638
 20
0.6682804813
 10
19.7236493367
 20
0.5556662143
 10
19.7351403663
 20
0.4511841393
 10
19.7476994282
 20
0.353107354
 10
19.7590129141
 20
0.2583655949
 10
19.7682181449
 20
0.1660330755
 10
19.7747879973
 20
0.0770145641
 10
19.7778495681
 20
-0.0091757507
 10
19.7780119979
 20
-0.0331709372
  0
LWPOLYLINE
  5
3CC
100
AcDbEntity
  8
RACCORDO
100
AcDbPolyline
 62
250
  6
CONTINUOUS
 90
10
 70
0
 10
19.4973517997
 20
-4.4485992672
 10
19.494624671
 20
-4.5602066422
 10
19.4858032292
 20
-4.668328303
 10
19.4709250666
 20
-4.772502429
 10
19.4500539504
 20
-4.8722827457
 10
19.4232796618
 20
-4.9672445998
 10
19.3907166794
 20
-5.0569859957
 10
19.3525049806
 20
-5.1411225579
 10
19.308807555
 20
-5.2192945037
 10
19.2598083281
 20
-5.2911708629
  0
LWPOLYLINE
  5
3CD
100
AcDbEntity
  8
RACCORDO
100
AcDbPolyline
 62
250
  6
CONTINUOUS
 90
9
 70
0
 10
19.7780119706
 20
-4.1013900061
 10
19.7770855192
 20
-4.122788112
 10
19.7672846222
 20
-4.1743106175
 10
19.7468843118
 20
-4.2250505777
 10
19.7161031426
 20
-4.2744643437
 10
19.675270904
 20
-4.3220224657
 10
19.6248250778
 20
-4.367215382
 10
19.5653061441
 20
-4.4095588784
 10
19.4973517997
 20
-4.4485992656
  0
LINE
  5
3CE
100
AcDbEntity
  8
RACCORDO
100
AcDbLine
 62
250
  6
CONTINUOUS
 10
19.8371773394
 20
-0.0748357178
 11
19.8166591784
 21
-0.1277196714
  0
LWPOLYLINE
  5
3CF
100
AcDbEntity
  8
RACCORDO
100
AcDbPolyline
 62
250
  6
CONTINUOUS
 90
3
 70
0
 10
19.8166591784
 20
-0.1277196714
 10
19.7906704988
 20
-0.1769104234
 10
19.7780119993
 20
-0.1954526071
  0
LINE
  5
3D0
100
AcDbEntity
  8
RACCORDO
100
AcDbLine
 62
7
  6
CONTINUOUS
 10
8.7404664321
 20
-11.1714979429
 11
9.8236617016
 21
-10.3864577266
  0
LINE
  5
3D1
100
AcDbEntity
  8
RACCORDO
100
AcDbLine
 62
250
  6
CONTINUOUS
 10
18.9170513051
 20
-5.5819736117
 11
18.9618392351
 21
-5.5540389177
  0
LINE
  5
3D2
100
AcDbEntity
  8
RACCORDO
100
AcDbLine
 62
250
  6
CONTINUOUS
 10
19.1577689178
 20
-5.4197202336
 11
19.083201324
 21
-5.4660823662
  0
LINE
  5
3D3
100
AcDbEntity
  8
RACCORDO
100
AcDbLine
 62
250
  6
CONTINUOUS
 10
18.9618392351
 20
-5.5540389177
 11
9.8236617016
 21
-10.3864577266
  0
LINE
  5
3D4
100
AcDbEntity
  8
RACCORDO
100
AcDbLine
 62
7
  6
CONTINUOUS
 10
18.9170513051
 20
-5.5819736117
 11
9.8019695994
 21
-10.4021789665
  0
LINE
  5
3D5
100
AcDbEntity
  8
RACCORDO
100
AcDbLine
 62
250
  6
CONTINUOUS
 10
3.5056502053
 20
-12.8726682767
 11
19.4973517997
 21
-4.4485992672
  0
LINE
  5
3D6
100
AcDbEntity
  8
RACCORDO
100
AcDbLine
 62
250
  6
CONTINUOUS
 10
3.5056502053
 20
-13.6719862126
 11
19.083201324
 21
-5.4660823662
  0
LINE
  5
3D7
100
AcDbEntity
  8
DRAFT
100
AcDbLine
 62
7
  6
CONTINUOUS
 10
3.5056502053
 20
-13.9213991031
 11
8.7404664321
 21
-11.1714979429
  0
LINE
  5
3D8
100
AcDbEntity
  8
RACCORDO
100
AcDbLine
 62
7
  6
CONTINUOUS
 10
7.1798275056
 20
-12.3588111999
 11
3.5056502053
 21
-14.2030437392
  0
LINE
  5
3D9
100
AcDbEntity
  8
RACCORDO
100
AcDbLine
 62
7
  6
CONTINUOUS
 10
8.0613629642
 20
-11.7993821558
 11
3.5056502053
 21
-14.0590492694
  0
LWPOLYLINE
  5
3DA
100
AcDbEntity
  8
ASSI
100
AcDbPolyline
 62
7
  6
CONTINUOUS
 90
15
 70
0
 10
2.7490459494
 20
28.0305676482
 10
2.7609195411
 20
28.0337602777
 10
2.7734226533
 20
28.0362044165
 10
2.7865553667
 20
28.0378800509
 10
2.80034173
 20
28.0387853808
 10
2.8147524697
 20
28.0388794901
 10
2.829697201
 20
28.0380879448
 10
2.8451522696
 20
28.0363801819
 10
2.8611068223
 20
28.0337540769
 10
2.8774756007
 20
28.0301870048
 10
2.8941826795
 20
28.0256766526
 10
2.9112495518
 20
28.0202042624
 10
2.9287348073
 20
28.0137217526
 10
2.9465980831
 20
28.006226771
 10
2.9648241749
 20
27.9976905291
  0
LWPOLYLINE
  5
3DB
100
AcDbEntity
  8
RACCORDO
100
AcDbPolyline
 62
7
  6
CONTINUOUS
 90
4
 70
0
 10
-3.099534326
 20
27.6130326813
 10
-3.0764459144
 20
27.6117749297
 10
-3.0515429925
 20
27.6079550563
 10
-3.0247935938
 20
27.6012751775
  0
LWPOLYLINE
  5
3DC
100
AcDbEntity
  8
RACCORDO
100
AcDbPolyline
 62
7
  6
CONTINUOUS
 90
10
 70
0
 10
12.0898881073
 20
26.358998277
 10
12.0843840028
 20
26.3599960385
 10
12.0780568962
 20
26.3601763807
 10
12.0709067876
 20
26.3595393037
 10
12.0628580225
 20
26.35806865
 10
12.0539862553
 20
26.355780577
 10
12.0445184499
 20
26.3527235568
 10
12.0345302609
 20
26.3489137468
 10
12.0239460337
 20
26.3443349895
 10
12.0127657683
 20
26.3389872849
  0
LWPOLYLINE
  5
3DD
100
AcDbEntity
  8
RACCORDO
100
AcDbPolyline
 62
7
  6
CONTINUOUS
 90
6
 70
0
 10
15.9301205226
 20
25.7339644189
 10
15.9772895246
 20
25.7253052562
 10
16.131805913
 20
25.6829461155
 10
16.2867751407
 20
25.6266697384
 10
16.4414783421
 20
25.5568277615
 10
16.5794980514
 20
25.4823036264
  0
LINE
  5
3DE
100
AcDbEntity
  8
RACCORDO
100
AcDbLine
 62
7
  6
CONTINUOUS
 10
12.8247350301
 20
25.4719595733
 11
12.9234473219
 21
25.4447692499
  0
LINE
  5
3DF
100
AcDbEntity
  8
RACCORDO
100
AcDbLine
 62
7
  6
CONTINUOUS
 10
12.9234473219
 20
25.4447692499
 11
13.0262795211
 21
25.415908213
  0
LINE
  5
3E0
100
AcDbEntity
  8
RACCORDO
100
AcDbLine
 62
7
  6
CONTINUOUS
 10
13.0262795211
 20
25.415908213
 11
13.1883838916
 21
25.3695155642
  0
LINE
  5
3E1
100
AcDbEntity
  8
RACCORDO
100
AcDbLine
 62
7
  6
CONTINUOUS
 10
13.1883838916
 20
25.3695155642
 11
13.3018257876
 21
25.336552116
  0
LWPOLYLINE
  5
3E2
100
AcDbEntity
  8
ASSI
100
AcDbPolyline
 62
7
  6
CONTINUOUS
 90
15
 70
0
 10
3.4698652818
 20
27.7451791685
 10
3.4656728613
 20
27.7467655916
 10
3.4609792647
 20
27.7477495514
 10
3.4555605356
 20
27.7482770345
 10
3.4494520256
 20
27.7483530245
 10
3.4426508939
 20
27.7479991205
 10
3.4351572818
 20
27.7472240642
 10
3.4270138109
 20
27.7460457775
 10
3.4182792743
 20
27.7444985906
 10
3.4089812198
 20
27.742576427
 10
3.3991567201
 20
27.7403024269
 10
3.3888963129
 20
27.7377480253
 10
3.3782618343
 20
27.7349367346
 10
3.367275568
 20
27.731847879
 10
3.3559769706
 20
27.7284815429
  0
LWPOLYLINE
  5
3E3
100
AcDbEntity
  8
RACCORDO
100
AcDbPolyline
 62
7
  6
CONTINUOUS
 90
18
 70
0
 10
0.3112545594
 20
29.9679986419
 10
0.2917115073
 20
29.9770678962
 10
0.2688157271
 20
29.9860533109
 10
0.2453064409
 20
29.9935555437
 10
0.2211651188
 20
29.9995897135
 10
0.1964753654
 20
30.0041354979
 10
0.1712139392
 20
30.0071894813
 10
0.1454040817
 20
30.0087550793
 10
0.1191991228
 20
30.0088222159
 10
0.0926151602
 20
30.0073834399
 10
0.0656360962
 20
30.0044462025
 10
0.0383669676
 20
30.0000227813
 10
0.0107927879
 20
29.9941043957
 10
-0.0170714564
 20
29.9866998261
 10
-0.0450757694
 20
29.9778476915
 10
-0.0731701526
 20
29.9675608648
 10
-0.1014046046
 20
29.9558264731
 10
-0.1297791254
 20
29.9426445163
  0
LWPOLYLINE
  5
3E4
100
AcDbEntity
  8
ASSI
100
AcDbPolyline
 62
7
  6
CONTINUOUS
 90
16
 70
0
 10
-2.0850904386
 20
30.5226571971
 10
-2.0856117567
 20
30.5229084949
 10
-2.0896261566
 20
30.5243388909
 10
-2.0943978218
 20
30.5252880672
 10
-2.0998999723
 20
30.5257790244
 10
-2.1060971063
 20
30.5258165455
 10
-2.1129927933
 20
30.5254212018
 10
-2.1205880729
 20
30.5246015245
 10
-2.1288397633
 20
30.5233761984
 10
-2.1376866795
 20
30.521779885
 10
-2.1471006641
 20
30.519806057
 10
-2.1570444991
 20
30.5174784954
 10
-2.1674251055
 20
30.514870287
 10
-2.178179247
 20
30.5120053667
 10
-2.1892847272
 20
30.5088624118
 10
-2.2007015189
 20
30.5054413823
  0
LINE
  5
3E5
100
AcDbEntity
  8
0
100
AcDbLine
 62
7
  6
CONTINUOUS
 10
2.0217747702
 20
27.6772968789
 11
-0.7887748768
 21
29.0825717024
  0
LINE
  5
3E6
100
AcDbEntity
  8
DRAFT
100
AcDbLine
 62
7
  6
CONTINUOUS
 10
8.199852818
 20
25.2120682019
 11
8.7404664321
 21
24.9417613949
  0
LINE
  5
3E7
100
AcDbEntity
  8
ASSI
100
AcDbLine
 62
250
  6
CONTINUOUS
 10
3.3000647202
 20
27.7061177674
 11
2.6945342856
 21
28.0088829847
  0
LINE
  5
3E8
100
AcDbEntity
  8
ASSI
100
AcDbLine
 62
250
  6
CONTINUOUS
 10
-2.2552131827
 20
30.4837567189
 11
-2.8607436174
 21
30.7865219362
  0
LINE
  5
3E9
100
AcDbEntity
  8
0
100
AcDbLine
 62
7
  6
CONTINUOUS
 10
3.6722961847
 20
27.6057503292
 11
3.4772693704
 21
27.7032637363
  0
LINE
  5
3EA
100
AcDbEntity
  8
0
100
AcDbLine
 62
7
  6
CONTINUOUS
 10
2.8061502167
 20
28.0388233131
 11
0.5711570634
 21
29.1563198898
  0
LINE
  5
3EB
100
AcDbEntity
  8
ASSI
100
AcDbLine
 62
7
  6
CONTINUOUS
 10
3.469864587
 20
27.7451725758
 11
2.9648241749
 21
27.9976905291
  0
LINE
  5
3EC
100
AcDbEntity
  8
ASSI
100
AcDbLine
 62
7
  6
CONTINUOUS
 10
-2.0850911504
 20
30.5226504445
 11
-2.587443646
 21
30.7738266923
  0
LINE
  5
3ED
100
AcDbEntity
  8
RACCORDO
100
AcDbLine
 62
250
  6
CONTINUOUS
 10
-3.1967450693
 20
31.4761274882
 11
-0.1297791254
 21
29.9426445163
  0
LINE
  5
3EE
100
AcDbEntity
  8
RACCORDO
100
AcDbLine
 62
250
  6
CONTINUOUS
 10
4.1128615617
 20
27.8213241727
 11
7.1798275056
 21
26.2878412008
  0
LINE
  5
3EF
100
AcDbEntity
  8
RACCORDO
100
AcDbLine
 62
7
  6
CONTINUOUS
 10
-2.9150593655
 20
31.5811556044
 11
0.3112638777
 21
29.9679939829
  0
LINE
  5
3F0
100
AcDbEntity
  8
RACCORDO
100
AcDbLine
 62
7
  6
CONTINUOUS
 10
4.5539045648
 20
27.8466736393
 11
7.7802278079
 21
26.2335120177
  0
LINE
  5
3F1
100
AcDbEntity
  8
0
100
AcDbLine
 62
7
  6
CONTINUOUS
 10
10.0956235954
 20
24.543247764
 11
9.7008466319
 21
24.8474642959
  0
LINE
  5
3F2
100
AcDbEntity
  8
0
100
AcDbLine
 62
7
  6
CONTINUOUS
 10
10.7349509639
 20
24.4456177176
 11
11.1382573287
 21
24.1348283987
  0
LINE
  5
3F3
100
AcDbEntity
  8
0
100
AcDbLine
 62
7
  6
CONTINUOUS
 10
10.3077556297
 20
24.8871817469
 11
10.2417083751
 21
24.9380779961
  0
LINE
  5
3F4
100
AcDbEntity
  8
0
100
AcDbLine
 62
7
  6
CONTINUOUS
 10
10.7013277829
 20
25.6832682922
 11
10.298021418
 21
25.9940576111
  0
LINE
  5
3F5
100
AcDbEntity
  8
0
100
AcDbLine
 62
7
  6
CONTINUOUS
 10
11.7505103906
 20
23.3957735759
 11
11.1382573287
 21
24.1348283987
  0
LINE
  5
3F6
100
AcDbEntity
  8
0
100
AcDbLine
 62
7
  6
CONTINUOUS
 10
9.8030466712
 20
25.7465702377
 11
9.1907936094
 21
26.4856250605
  0
LINE
  5
3F7
100
AcDbEntity
  8
DRAFT
100
AcDbLine
 62
7
  6
CONTINUOUS
 10
9.2665417549
 20
27.2111063319
 11
9.2292919475
 21
27.256070827
  0
LINE
  5
3F8
100
AcDbEntity
  8
0
100
AcDbLine
 62
7
  6
CONTINUOUS
 10
12.2454851374
 20
23.6432609494
 11
11.6332320756
 21
24.3823157721
  0
LINE
  5
3F9
100
AcDbEntity
  8
0
100
AcDbLine
 62
7
  6
CONTINUOUS
 10
10.298021418
 20
25.9940576111
 11
9.6857683562
 21
26.7331124339
  0
LINE
  5
3FA
100
AcDbEntity
  8
0
100
AcDbLine
 62
7
  6
CONTINUOUS
 10
11.3802876933
 20
24.7056188384
 11
11.063727219
 21
25.0877411336
  0
LINE
  5
3FB
100
AcDbEntity
  8
0
100
AcDbLine
 62
7
  6
CONTINUOUS
 10
10.368679633
 20
27.4247053521
 11
10.3876944034
 21
27.4017524937
  0
LINE
  5
3FC
100
AcDbEntity
  8
RACCORDO
100
AcDbLine
 62
250
  6
CONTINUOUS
 10
13.3869879528
 20
25.1926748409
 11
13.3018257876
 21
25.336552116
  0
LWPOLYLINE
  5
3FD
100
AcDbEntity
  8
RACCORDO
100
AcDbPolyline
 62
7
  6
CONTINUOUS
 90
3
 70
0
 10
13.4667565969
 20
25.0575472553
 10
13.3934993966
 20
25.1929628865
 10
13.312499694
 20
25.3289735322
  0
LWPOLYLINE
  5
3FE
100
AcDbEntity
  8
RACCORDO
100
AcDbPolyline
 62
250
  6
CONTINUOUS
 90
31
 70
0
 10
12.8247350301
 20
25.4719595733
 10
12.8448682258
 20
25.4335851744
 10
12.864751044
 20
25.3940576987
 10
12.8843151538
 20
25.3533810709
 10
12.9034350373
 20
25.3116838318
 10
12.9220977777
 20
25.2688523423
 10
12.9403761281
 20
25.2245278613
 10
12.9581665677
 20
25.1787215466
 10
12.9753614795
 20
25.1314482965
 10
12.9919698451
 20
25.0823563882
 10
13.0078467915
 20
25.0314680512
 10
13.022840828
 20
24.9788129633
 10
13.0368837881
 20
24.9240586246
 10
13.0497790415
 20
24.8672499203
 10
13.0613217942
 20
24.8084404734
 10
13.0713531916
 20
24.7473285386
 10
13.0796141694
 20
24.6839961312
 10
13.0858358581
 20
24.6185367199
 10
13.0897535586
 20
24.5506970965
 10
13.0910355673
 20
24.48057362
 10
13.0893357326
 20
24.4083664296
 10
13.0842800695
 20
24.3340243963
 10
13.0754655612
 20
24.25769816
 10
13.062492686
 20
24.1797016216
 10
13.0449451882
 20
24.1002812655
 10
13.0223773351
 20
24.0196558388
 10
12.9943900372
 20
23.9382684367
 10
12.960674441
 20
23.8567355152
 10
12.920753189
 20
23.7752371324
 10
12.8743615489
 20
23.6944317833
 10
12.8573012558
 20
23.6688679818
  0
LWPOLYLINE
  5
3FF
100
AcDbEntity
  8
RACCORDO
100
AcDbPolyline
 62
250
  6
CONTINUOUS
 90
34
 70
0
 10
12.7476415871
 20
25.4519630292
 10
12.7663476052
 20
25.4154724763
 10
12.784685944
 20
25.3778624538
 10
12.8026566035
 20
25.3391329616
 10
12.8203006832
 20
25.2993857352
 10
12.8375770836
 20
25.2585190392
 10
12.8543625064
 20
25.2162276673
 10
12.8706994867
 20
25.1725020268
 10
12.8865454894
 20
25.1273517105
 10
12.9016496114
 20
25.0805002907
 10
12.9160652116
 20
25.0319291145
 10
12.9297389313
 20
24.9816568348
 10
12.9422597903
 20
24.9294629831
 10
12.9536912129
 20
24.8753178848
 10
12.963969775
 20
24.8192512144
 10
12.9724942244
 20
24.7611315266
 10
12.9793386162
 20
24.7009118765
 10
12.9844288954
 20
24.6386392089
 10
12.9869416442
 20
24.574322914
 10
12.9869459434
 20
24.5078414519
 10
12.9843727124
 20
24.4393163623
 10
12.978191291
 20
24.369121654
 10
12.9684329267
 20
24.2971273507
 10
12.9550663721
 20
24.2234634287
 10
12.9369672252
 20
24.1488938251
 10
12.9140711699
 20
24.0732332633
 10
12.8864425222
 20
23.9966670201
 10
12.8531498275
 20
23.9205148628
 10
12.813919036
 20
23.8445815993
 10
12.7690241974
 20
23.7690624217
 10
12.7183560058
 20
23.6958626745
 10
12.661596287
 20
23.6250719557
 10
12.5990632152
 20
23.5566006672
 10
12.5701911215
 20
23.5289893617
  0
LWPOLYLINE
  5
400
100
AcDbEntity
  8
RACCORDO
100
AcDbPolyline
 62
250
  6
CONTINUOUS
 90
3
 70
0
 10
13.474959651
 20
25.0258469558
 10
13.4647943113
 20
25.0471023056
 10
13.3869879528
 20
25.1926748409
  0
LWPOLYLINE
  5
401
100
AcDbEntity
  8
RACCORDO
100
AcDbPolyline
 62
250
  6
CONTINUOUS
 90
3
 70
0
 10
19.2598083281
 20
-5.2911708629
 10
19.2057156809
 20
-5.3564439419
 10
19.1467624082
 20
-5.4148316047
  0
LINE
  5
402
100
AcDbEntity
  8
RACCORDO
100
AcDbLine
 62
250
  6
CONTINUOUS
 10
19.1467624082
 20
-5.4148316047
 11
19.083201324
 21
-5.4660823662
  0
LWPOLYLINE
  5
403
100
AcDbEntity
  8
RACCORDO
100
AcDbPolyline
 62
7
  6
CONTINUOUS
 90
13
 70
0
 10
19.1588343657
 20
-5.4189263442
 10
19.1721630954
 20
-5.4091219583
 10
19.2695933561
 20
-5.3294658159
 10
19.3606330632
 20
-5.2401880203
 10
19.4442493833
 20
-5.141910693
 10
19.519736845
 20
-5.0351305862
 10
19.586705375
 20
-4.9199990471
 10
19.6445499152
 20
-4.7969239131
 10
19.6925922011
 20
-4.6666142684
 10
19.730430351
 20
-4.5293357744
 10
19.7575984479
 20
-4.3853376901
 10
19.7735655098
 20
-4.2351662282
 10
19.7780053221
 20
-4.1013900012
  0
LINE
  5
404
100
AcDbEntity
  8
RACCORDO
100
AcDbLine
 62
250
  6
CONTINUOUS
 10
19.083201324
 20
-5.4660823662
 11
18.9618392351
 21
-5.5540389177
  0
LINE
  5
405
100
AcDbEntity
  8
RACCORDO
100
AcDbLine
 62
7
  6
CONTINUOUS
 10
19.1588439001
 20
-5.4189393837
 11
19.0364068292
 21
-5.5076767849
  0
LINE
  5
406
100
AcDbEntity
  8
RACCORDO
100
AcDbLine
 62
250
  6
CONTINUOUS
 10
19.0364068292
 20
-5.5076767849
 11
19.0363094451
 21
-5.507747349
  0
LWPOLYLINE
  5
407
100
AcDbEntity
  8
RACCORDO
100
AcDbPolyline
 62
250
  6
CONTINUOUS
 90
3
 70
0
 10
19.0363094451
 20
-5.507747349
 10
19.0201220117
 20
-5.5190845826
 10
18.9618392351
 20
-5.5540389177
  0
LWPOLYLINE
  5
408
100
AcDbEntity
  8
RACCORDO
100
AcDbPolyline
 62
250
  6
CONTINUOUS
 90
34
 70
0
 10
-3.3911031525
 20
-18.6883989334
 10
-3.4083974838
 20
-18.6972024966
 10
-3.4264229452
 20
-18.7055881666
 10
-3.4451396049
 20
-18.7135373665
 10
-3.4645059995
 20
-18.7210324865
 10
-3.4844792264
 20
-18.7280569223
 10
-3.5050150387
 20
-18.7345951128
 10
-3.5260679432
 20
-18.7406325737
 10
-3.5475913011
 20
-18.7461559303
 10
-3.5695374314
 20
-18.7511529466
 10
-3.5918577166
 20
-18.7556125525
 10
-3.6145027104
 20
-18.7595248688
 10
-3.6374222469
 20
-18.7628812284
 10
-3.6605655523
 20
-18.7656741959
 10
-3.683881357
 20
-18.767897584
 10
-3.707318009
 20
-18.7695464672
 10
-3.730823589
 20
-18.7706171928
 10
-3.7543460248
 20
-18.7711073887
 10
-3.7778332067
 20
-18.7710159691
 10
-3.8012331034
 20
-18.7703431363
 10
-3.8244938768
 20
-18.769090381
 10
-3.847563997
 20
-18.7672604784
 10
-3.8703923565
 20
-18.7648574823
 10
-3.8929283833
 20
-18.7618867162
 10
-3.9151221532
 20
-18.7583547611
 10
-3.9369244999
 20
-18.7542694414
 10
-3.9582871246
 20
-18.7496398075
 10
-3.9791627022
 20
-18.7444761154
 10
-3.9995049869
 20
-18.7387898042
 10
-4.0192689142
 20
-18.732593471
 10
-4.0384107009
 20
-18.7259008425
 10
-4.0568879418
 20
-18.7187267451
 10
-4.0746597041
 20
-18.7110870715
 10
-4.0916866178
 20
-18.7029987461
  0
LINE
  5
409
100
AcDbEntity
  8
RACCORDO
100
AcDbLine
 62
250
  6
CONTINUOUS
 10
2.7875657542
 20
-16.9244200996
 11
3.5056502053
 21
-16.5701537018
  0
LINE
  5
40A
100
AcDbEntity
  8
RACCORDO
100
AcDbLine
 62
7
  6
CONTINUOUS
 10
2.6664072588
 20
-17.1699069609
 11
3.3878651643
 21
-16.813976272
  0
LINE
  5
40B
100
AcDbEntity
  8
0
100
AcDbLine
 62
7
  6
CONTINUOUS
 10
0.5711570634
 20
29.1563198898
 11
-0.7887748768
 21
29.0825717024
  0
LINE
  5
40C
100
AcDbEntity
  8
RACCORDO
100
AcDbLine
 62
7
  6
CONTINUOUS
 10
12.1887904326
 20
26.3317547642
 11
12.0898881073
 21
26.358998277
  0
LWPOLYLINE
  5
40D
100
AcDbEntity
  8
RACCORDO
100
AcDbPolyline
 62
250
  6
CONTINUOUS
 90
6
 70
0
 10
15.9614936212
 20
25.6960937389
 10
16.035155238
 20
25.6756421632
 10
16.1846899449
 20
25.6206310112
 10
16.3349794991
 20
25.5519903737
 10
16.4852703845
 20
25.4700656249
 10
16.5153002442
 20
25.4510267761
  0
LINE
  5
40E
100
AcDbEntity
  8
RACCORDO
100
AcDbLine
 62
7
  6
CONTINUOUS
 10
12.2917067084
 20
26.3028694074
 11
12.1887904326
 21
26.3317547642
  0
LINE
  5
40F
100
AcDbEntity
  8
RACCORDO
100
AcDbLine
 62
7
  6
CONTINUOUS
 10
12.4537323545
 20
26.2564979804
 11
12.2917067084
 21
26.3028694074
  0
LINE
  5
410
100
AcDbEntity
  8
RACCORDO
100
AcDbLine
 62
7
  6
CONTINUOUS
 10
12.5669788647
 20
26.2235908197
 11
12.4537323545
 21
26.2564979804
  0
LWPOLYLINE
  5
411
100
AcDbEntity
  8
RACCORDO
100
AcDbPolyline
 62
7
  6
CONTINUOUS
 90
5
 70
0
 10
13.3018257876
 20
25.336552116
 10
13.3061281142
 20
25.3348278818
 10
13.3096081076
 20
25.3324232037
 10
13.3122657678
 20
25.3293380815
 10
13.3124983723
 20
25.3289724616
  0
LWPOLYLINE
  5
412
100
AcDbEntity
  8
RACCORDO
100
AcDbPolyline
 62
7
  6
CONTINUOUS
 90
3
 70
0
 10
12.5750238189
 20
26.2192216875
 10
12.5712811914
 20
26.2218665855
 10
12.5669788647
 20
26.2235908197
  0
LWPOLYLINE
  5
413
100
AcDbEntity
  8
RACCORDO
100
AcDbPolyline
 62
250
  6
CONTINUOUS
 90
16
 70
0
 10
12.5669788647
 20
26.2235908197
 10
12.4336914871
 20
26.343405473
 10
12.2953711123
 20
26.4587209879
 10
12.1523547716
 20
26.5692563876
 10
12.0049908777
 20
26.6747423847
 10
11.8536385548
 20
26.7749219071
 10
11.6986667795
 20
26.8695507462
 10
11.5404534086
 20
26.9583982221
 10
11.3793837214
 20
27.0412480208
 10
11.2158496413
 20
27.1178985388
 10
11.0502495261
 20
27.1881630098
 10
10.8829869545
 20
27.251870144
 10
10.7144691928
 20
27.3088647597
 10
10.545106262
 20
27.3590080677
 10
10.3753114096
 20
27.402177603
 10
10.255304283
 20
27.4276828304
  0
LWPOLYLINE
  5
414
100
AcDbEntity
  8
RACCORDO
100
AcDbPolyline
 62
7
  6
CONTINUOUS
 90
17
 70
0
 10
12.5750182664
 20
26.2192169929
 10
12.4512175495
 20
26.3309861625
 10
12.3169016277
 20
26.443902387
 10
12.1781693511
 20
26.5522907145
 10
12.0353234328
 20
26.6559202481
 10
11.8886743559
 20
26.7545692335
 10
11.7385401502
 20
26.8480252575
 10
11.5852318957
 20
26.9360933805
 10
11.4290933446
 20
27.0185730707
 10
11.2705026548
 20
27.0952635085
 10
11.1098200198
 20
27.1659916032
 10
10.9473746552
 20
27.2306117908
 10
10.7835043912
 20
27.2889854972
 10
10.6185370088
 20
27.3409879193
 10
10.4528495924
 20
27.3864904604
 10
10.2868549127
 20
27.4253732625
 10
10.272386846
 20
27.4281784565
  0
LWPOLYLINE
  5
415
100
AcDbEntity
  8
0
100
AcDbPolyline
 62
7
  6
CONTINUOUS
 90
8
 70
0
 10
12.5085857592
 20
26.0715166881
 10
12.6034121427
 20
25.9800841534
 10
12.6950232736
 20
25.886774513
 10
12.7834191517
 20
25.791587767
 10
12.8687050152
 20
25.6943968817
 10
12.9507756261
 20
25.5953288909
 10
13.0293152696
 20
25.4947648956
 10
13.1034101472
 20
25.3939322658
  0
LWPOLYLINE
  5
416
100
AcDbEntity
  8
RACCORDO
100
AcDbPolyline
 62
7
  6
CONTINUOUS
 90
19
 70
0
 10
2.3839788233
 20
-18.8795410426
 10
2.3902044951
 20
-18.8757224328
 10
2.396153833
 20
-18.8714106807
 10
2.4018133572
 20
-18.8666155556
 10
2.4071702179
 20
-18.8613479347
 10
2.4122122879
 20
-18.8556197473
 10
2.4169281884
 20
-18.8494439508
 10
2.4213071858
 20
-18.8428345613
 10
2.425339346
 20
-18.8358065591
 10
2.4290156231
 20
-18.8283758252
 10
2.4323276181
 20
-18.8205592291
 10
2.4352677924
 20
-18.8123744965
 10
2.4378296169
 20
-18.8038401082
 10
2.4400071982
 20
-18.7949754432
 10
2.4417955465
 20
-18.7858006116
 10
2.443190782
 20
-18.7763363168
 10
2.44418974
 20
-18.7666040023
 10
2.4447899775
 20
-18.7566258033
 10
2.4449900335
 20
-18.7464243735
  0
LWPOLYLINE
  5
417
100
AcDbEntity
  8
RACCORDO
100
AcDbPolyline
 62
250
  6
CONTINUOUS
 90
18
 70
0
 10
2.9095747154
 20
-18.6099742788
 10
2.9151658234
 20
-18.6068606476
 10
2.9218834602
 20
-18.6024150707
 10
2.928254505
 20
-18.5973802747
 10
2.9342614536
 20
-18.5917700718
 10
2.9398878074
 20
-18.5855998601
 10
2.9451181305
 20
-18.5788865628
 10
2.9499380857
 20
-18.5716485779
 10
2.9543344523
 20
-18.5639057516
 10
2.958295174
 20
-18.555679311
 10
2.9618093872
 20
-18.5469918122
 10
2.9648674507
 20
-18.5378670833
 10
2.9674609796
 20
-18.5283301374
 10
2.9695828591
 20
-18.5184071303
 10
2.9712272658
 20
-18.5081253006
 10
2.9723896927
 20
-18.4975128541
 10
2.9730669572
 20
-18.4865988828
 10
2.9732572052
 20
-18.4754133149
  0
LWPOLYLINE
  5
418
100
AcDbEntity
  8
RACCORDO
100
AcDbPolyline
 62
250
  6
CONTINUOUS
 90
18
 70
0
 10
0.7774477074
 20
-19.6623095714
 10
0.7848156168
 20
-19.6583027317
 10
0.7915271152
 20
-19.6538551313
 10
0.7978997457
 20
-19.6488145065
 10
0.8039160699
 20
-19.6431946712
 10
0.8095596456
 20
-19.6370109888
 10
0.8148150608
 20
-19.6302803194
 10
0.8196678269
 20
-19.6230211903
 10
0.8241045075
 20
-19.6152537422
 10
0.8281128994
 20
-19.606999477
 10
0.8316821384
 20
-19.5982809184
 10
0.8348025569
 20
-19.5891217434
 10
0.8374661306
 20
-19.5795449264
 10
0.8396648229
 20
-19.5695786852
 10
0.8413916679
 20
-19.5592569366
 10
0.8426426122
 20
-19.5486108685
 10
0.8434155407
 20
-19.5376680708
 10
0.8437092427
 20
-19.5264589732
  0
LINE
  5
419
100
AcDbEntity
  8
RACCORDO
100
AcDbLine
 62
7
  6
CONTINUOUS
 10
2.3808849358
 20
-18.8812021436
 11
2.3839788233
 21
-18.8795410426
  0
LINE
  5
41A
100
AcDbEntity
  8
RACCORDO
100
AcDbLine
 62
250
  6
CONTINUOUS
 10
2.9732572052
 20
-18.4754133149
 11
2.4449900335
 21
-18.7464243735
  0
LINE
  5
41B
100
AcDbEntity
  8
RACCORDO
100
AcDbLine
 62
7
  6
CONTINUOUS
 10
2.9095691677
 20
-18.6099771251
 11
2.3808849338
 21
-18.8812021446
  0
LINE
  5
41C
100
AcDbEntity
  8
RACCORDO
100
AcDbLine
 62
7
  6
CONTINUOUS
 10
2.3791485191
 20
-18.8820703663
 11
2.3808849358
 21
-18.8812021436
  0
LINE
  5
41D
100
AcDbEntity
  8
RACCORDO
100
AcDbLine
 62
250
  6
CONTINUOUS
 10
2.4449900335
 20
-18.7464243735
 11
0.8437092427
 21
-19.5264589732
  0
LINE
  5
41E
100
AcDbEntity
  8
RACCORDO
100
AcDbLine
 62
7
  6
CONTINUOUS
 10
2.3791485199
 20
-18.8820703659
 11
0.7774476501
 21
-19.6623095994
  0
LWPOLYLINE
  5
41F
100
AcDbEntity
  8
RACCORDO
100
AcDbPolyline
 62
7
  6
CONTINUOUS
 90
3
 70
0
 10
2.6664075828
 20
-17.1699068011
 10
2.6627488165
 20
-17.1716575107
 10
2.6570522394
 20
-17.1741729828
  0
LINE
  5
420
100
AcDbEntity
  8
RACCORDO
100
AcDbLine
 62
7
  6
CONTINUOUS
 10
1.3066180037
 20
-17.7410623402
 11
2.6570521506
 21
-17.1741730267
  0
LWPOLYLINE
  5
421
100
AcDbEntity
  8
RACCORDO
100
AcDbPolyline
 62
7
  6
CONTINUOUS
 90
5
 70
0
 10
-2.8639881484
 20
-19.4700159019
 10
-2.3373715437
 20
-19.2498954455
 10
-1.7790600437
 20
-19.0182597243
 10
-1.2004896395
 20
-18.7793863958
 10
0.0156525022
 20
-18.2780669137
  0
LWPOLYLINE
  5
422
100
AcDbEntity
  8
RACCORDO
100
AcDbPolyline
 62
250
  6
CONTINUOUS
 90
4
 70
0
 10
-2.4701536493
 20
-19.0886314746
 10
-2.23190735
 20
-18.9897410137
 10
-1.9951765924
 20
-18.8920432203
 10
-1.7620518463
 20
-18.7964906587
  0
LWPOLYLINE
  5
423
100
AcDbEntity
  8
RACCORDO
100
AcDbPolyline
 62
7
  6
CONTINUOUS
 90
3
 70
0
 10
0.0156525022
 20
-18.2780669137
 10
0.6521926758
 20
-18.0143452802
 10
1.3066180037
 20
-17.7410623402
  0
LWPOLYLINE
  5
424
100
AcDbEntity
  8
RACCORDO
100
AcDbPolyline
 62
250
  6
CONTINUOUS
 90
7
 70
0
 10
0.2076065141
 20
-17.9983174694
 10
0.4438676212
 20
-17.9019725602
 10
0.6719722294
 20
-17.8085837293
 10
0.8919802709
 20
-17.7180564014
 10
1.1011156157
 20
-17.6314401151
 10
1.3021543938
 20
-17.5476853318
 10
2.7875657542
 20
-16.9244200996
  0
LINE
  5
425
100
AcDbEntity
  8
RACCORDO
100
AcDbLine
 62
250
  6
CONTINUOUS
 10
-1.7620518463
 20
-18.7964906587
 11
-1.2940775692
 21
-18.6061058453
  0
LINE
  5
426
100
AcDbEntity
  8
RACCORDO
100
AcDbLine
 62
250
  6
CONTINUOUS
 10
-0.2958909965
 20
-18.2023495267
 11
0.2076065141
 21
-17.9983174694
  0
LINE
  5
427
100
AcDbEntity
  8
RACCORDO
100
AcDbLine
 62
250
  6
CONTINUOUS
 10
-1.2940775692
 20
-18.6061058453
 11
-0.2958909965
 21
-18.2023495267
  0
LWPOLYLINE
  5
428
100
AcDbEntity
  8
ASSI
100
AcDbPolyline
 62
7
  6
CONTINUOUS
 90
15
 70
0
 10
-2.804176984
 20
30.8085585202
 10
-2.792290706
 20
30.811631016
 10
-2.7797825373
 20
30.8139589204
 10
-2.766652647
 20
30.8155225052
 10
-2.7528778864
 20
30.8163197302
 10
-2.7384870774
 20
30.8163105756
 10
-2.7235684799
 20
30.8154224677
 10
-2.708146045
 20
30.8136257055
 10
-2.6922299491
 20
30.8109176797
 10
-2.6759012296
 20
30.8072751823
 10
-2.6592338384
 20
30.8026959565
 10
-2.6422071507
 20
30.7971608776
 10
-2.6247624175
 20
30.7906203925
 10
-2.6069381462
 20
30.7830710953
 10
-2.5874399949
 20
30.7738318069
  0
LINE
  5
429
100
AcDbEntity
  8
RACCORDO
100
AcDbLine
 62
7
  6
CONTINUOUS
 10
13.032593805
 20
29.3893050415
 11
13.0651000213
 21
29.3804781847
  0
LINE
  5
42A
100
AcDbEntity
  8
RACCORDO
100
AcDbLine
 62
250
  6
CONTINUOUS
 10
13.0128274614
 20
29.3572574665
 11
13.0450926328
 21
29.3468918477
  0
LWPOLYLINE
  5
42B
100
AcDbEntity
  8
RACCORDO
100
AcDbPolyline
 62
7
  6
CONTINUOUS
 90
21
 70
0
 10
13.0651000213
 20
29.3804781847
 10
13.2202220025
 20
29.3245689779
 10
13.3760400092
 20
29.2545911614
 10
13.5323981592
 20
29.1703780175
 10
13.6881428214
 20
29.0722850636
 10
13.8411159019
 20
28.9616454519
 10
13.9902970858
 20
28.8394040328
 10
14.1354414048
 20
28.705941657
 10
14.275586581
 20
28.5622931206
 10
14.4100855889
 20
28.4093102278
 10
14.5384095161
 20
28.2477630296
 10
14.659810343
 20
28.0787716578
 10
14.7736515153
 20
27.9034536928
 10
14.8796071954
 20
27.7225299173
 10
14.9774079927
 20
27.536582095
 10
15.0666091988
 20
27.3465005666
 10
15.1467781732
 20
27.1532266217
 10
15.2176257073
 20
26.9573930956
 10
15.2787822444
 20
26.7598225114
 10
15.3298405599
 20
26.5615500189
 10
15.3579187302
 20
26.4246730827
  0
LWPOLYLINE
  5
42C
100
AcDbEntity
  8
RACCORDO
100
AcDbPolyline
 62
250
  6
CONTINUOUS
 90
20
 70
0
 10
13.0450926328
 20
29.3468918477
 10
13.1951871274
 20
29.2852374386
 10
13.3456489189
 20
29.2101076294
 10
13.495672493
 20
29.121915656
 10
13.6445000438
 20
29.0211180492
 10
13.7914020791
 20
28.908211031
 10
13.9356080489
 20
28.7837837544
 10
14.0763728395
 20
28.6484759719
 10
14.2130192872
 20
28.502925541
 10
14.3448650202
 20
28.3478304133
 10
14.4711749244
 20
28.1840254533
 10
14.5912305167
 20
28.0124281573
 10
14.7044129516
 20
27.8339165005
 10
14.8101176968
 20
27.6494366389
 10
14.9077249044
 20
27.4600847255
 10
14.9967059468
 20
27.2669358261
 10
15.0766544549
 20
27.0709271223
 10
15.147205207
 20
26.8729812744
 10
15.2080036261
 20
26.6740944252
 10
15.2332492286
 20
26.5751624835
  0
LWPOLYLINE
  5
42D
100
AcDbEntity
  8
RACCORDO
100
AcDbPolyline
 62
250
  6
CONTINUOUS
 90
11
 70
0
 10
19.5480881517
 20
24.0695493734
 10
19.5287360457
 20
24.0864728777
 10
19.5043815163
 20
24.0976526595
 10
19.4745397236
 20
24.1038008142
 10
19.4394361036
 20
24.1048708964
 10
19.3993358419
 20
24.1008548223
 10
19.3545418708
 20
24.0917829308
 10
19.3053925804
 20
24.0777237543
 10
19.2522592626
 20
24.058783501
 10
19.195543306
 20
24.0351052526
 10
19.135673164
 20
24.0068678833
  0
LINE
  5
42E
100
AcDbEntity
  8
DRAFT
100
AcDbLine
 62
7
  6
CONTINUOUS
 10
12.9768326112
 20
29.2988982835
 11
16.2653820929
 21
25.3292679039
  0
LINE
  5
42F
100
AcDbEntity
  8
0
100
AcDbLine
 62
7
  6
CONTINUOUS
 10
17.2795963632
 20
25.6397175238
 11
17.6850787671
 21
25.1502569644
  0
LINE
  5
430
100
AcDbEntity
  8
RACCORDO
100
AcDbLine
 62
250
  6
CONTINUOUS
 10
18.0417054917
 20
25.3274036789
 11
19.135673164
 21
24.0068678833
  0
LINE
  5
431
100
AcDbEntity
  8
RACCORDO
100
AcDbLine
 62
7
  6
CONTINUOUS
 10
18.4541204794
 20
25.390085169
 11
19.5480881517
 21
24.0695493734
  0
LWPOLYLINE
  5
432
100
AcDbEntity
  8
RACCORDO
100
AcDbPolyline
 62
250
  6
CONTINUOUS
 90
9
 70
0
 10
5.332497167
 20
34.5806726769
 10
5.2712786529
 20
34.608376902
 10
5.2104320089
 20
34.6292355473
 10
5.1504201661
 20
34.6430899168
 10
5.0916997042
 20
34.6498346043
 10
5.0347173778
 20
34.649418295
 10
4.9799067176
 20
34.6418441564
 10
4.927684732
 20
34.6271698137
 10
4.8936124166
 20
34.6130756119
  0
LINE
  5
433
100
AcDbEntity
  8
RACCORDO
100
AcDbLine
 62
250
  6
CONTINUOUS
 10
5.7672661462
 20
34.6030879371
 11
5.7673700476
 21
34.6030360065
  0
LINE
  5
434
100
AcDbEntity
  8
0
100
AcDbLine
 62
7
  6
CONTINUOUS
 10
13.1915854729
 20
30.2930565031
 11
12.5183185452
 21
30.6296899669
  0
LINE
  5
435
100
AcDbEntity
  8
RACCORDO
100
AcDbLine
 62
250
  6
CONTINUOUS
 10
12.8805252847
 20
30.8066586181
 11
5.332497167
 21
34.5806726769
  0
LINE
  5
436
100
AcDbEntity
  8
RACCORDO
100
AcDbLine
 62
7
  6
CONTINUOUS
 10
13.223439819
 20
30.8750011208
 11
5.7673700476
 21
34.6030360065
  0
ARC
  5
437
100
AcDbEntity
  8
RACCORDO
100
AcDbCircle
 62
7
  6
CONTINUOUS
 10
18.7780119993
 20
23.4315974007
 40
1.0
100
AcDbArc
 50
359.9970924022
 51
39.6392722378
  0
ARC
  5
438
100
AcDbEntity
  8
RACCORDO
100
AcDbCircle
 62
7
  6
CONTINUOUS
 10
18.4495746726
 20
-4.6979681829
 40
1.0
100
AcDbArc
 50
297.8650645335
 51
305.9256386936
  0
ARC
  5
439
100
AcDbEntity
  8
RACCORDO
100
AcDbCircle
 62
7
  6
CONTINUOUS
 10
5.3201564521
 20
33.7086088155
 40
1.0
100
AcDbArc
 50
63.4416040875
 51
115.2616240239
  0
ARC
  5
43A
100
AcDbEntity
  8
RACCORDO
100
AcDbCircle
 62
7
  6
CONTINUOUS
 10
2.7954550622
 20
-18.0400091659
 40
0.25
100
AcDbArc
 50
0.0
 51
63.4365697055
  0
ARC
  5
43B
100
AcDbEntity
  8
RACCORDO
100
AcDbCircle
 62
7
  6
CONTINUOUS
 10
2.7954550622
 20
-18.3875406827
 40
0.25
100
AcDbArc
 50
297.1601112192
 51
0.0000770431
  0
ARC
  5
43C
100
AcDbEntity
  8
RACCORDO
100
AcDbCircle
 62
7
  6
CONTINUOUS
 10
0.6679639783
 20
-19.4375579017
 40
0.25
100
AcDbArc
 50
243.4349674165
 51
295.972194747
  0
ARC
  5
43D
100
AcDbEntity
  8
RACCORDO
100
AcDbCircle
 62
7
  6
CONTINUOUS
 10
-0.6570207015
 20
-18.7750655618
 40
0.25
100
AcDbArc
 50
180.0
 51
243.4367685863
  0
ARC
  5
43E
100
AcDbEntity
  8
RACCORDO
100
AcDbCircle
 62
7
  6
CONTINUOUS
 10
0.6679639783
 20
22.2020201718
 40
0.25
100
AcDbArc
 50
243.4322283503
 51
258.2060367178
  0
ARC
  5
43F
100
AcDbEntity
  8
RACCORDO
100
AcDbCircle
 62
7
  6
CONTINUOUS
 10
2.7954550622
 20
23.6071264902
 40
0.25
100
AcDbArc
 50
359.9999199295
 51
63.4333238367
  0
ARC
  5
440
100
AcDbEntity
  8
RACCORDO
100
AcDbCircle
 62
7
  6
CONTINUOUS
 10
2.7954550622
 20
23.2595949734
 40
0.25
100
AcDbArc
 50
320.5924423202
 51
360.0
  0
ARC
  5
441
100
AcDbEntity
  8
RACCORDO
100
AcDbCircle
 62
7
  6
CONTINUOUS
 10
1.4581289017
 20
24.2757895705
 40
0.25
100
AcDbArc
 50
63.433410125
 51
115.9721801256
  0
ARC
  5
442
100
AcDbEntity
  8
RACCORDO
100
AcDbCircle
 62
7
  6
CONTINUOUS
 10
-0.6570207015
 20
23.2044864459
 40
0.25
100
AcDbArc
 50
117.1568384573
 51
180.0
  0
ARC
  5
443
100
AcDbEntity
  8
RACCORDO
100
AcDbCircle
 62
7
  6
CONTINUOUS
 10
-0.6570207015
 20
22.8645125117
 40
0.25
100
AcDbArc
 50
179.9972491626
 51
243.4450187847
  0
ARC
  5
444
100
AcDbEntity
  8
RACCORDO
100
AcDbCircle
 62
7
  6
CONTINUOUS
 10
-10.5688631022
 20
30.2892855724
 40
0.25
100
AcDbArc
 50
0.0015552359
 51
63.4349488229
  0
ARC
  5
445
100
AcDbEntity
  8
RACCORDO
100
AcDbCircle
 62
7
  6
CONTINUOUS
 10
-10.5688631022
 20
29.9417540556
 40
0.25
100
AcDbArc
 50
320.5921470107
 51
359.9994700897
  0
ARC
  5
446
100
AcDbEntity
  8
RACCORDO
100
AcDbCircle
 62
7
  6
CONTINUOUS
 10
-11.9061892627
 20
30.9579486527
 40
0.25
100
AcDbArc
 50
63.4349488229
 51
115.9738727385
  0
ARC
  5
447
100
AcDbEntity
  8
RACCORDO
100
AcDbCircle
 62
7
  6
CONTINUOUS
 10
-14.0213388659
 20
29.8866455281
 40
0.25
100
AcDbArc
 50
117.1586821941
 51
179.9985339793
  0
ARC
  5
448
100
AcDbEntity
  8
RACCORDO
100
AcDbCircle
 62
7
  6
CONTINUOUS
 10
-14.0213388659
 20
29.546671594
 40
0.25
100
AcDbArc
 50
179.9972491626
 51
243.4450187847
  0
ARC
  5
449
100
AcDbEntity
  8
RACCORDO
100
AcDbCircle
 62
7
  6
CONTINUOUS
 10
-12.6963541861
 20
28.8841792541
 40
0.25
100
AcDbArc
 50
243.4322283503
 51
258.2060367178
  0
ELLIPSE
  5
44A
100
AcDbEntity
  8
0
100
AcDbEllipse
 62
7
  6
CONTINUOUS
 10
9.236081924
 20
22.6615531119
 30
0.0
 11
1.5665774194
 21
1.7779781672
 31
0.0
 40
0.4593369217
 41
-0.1359031814
 42
-0.0089756569
  0
ELLIPSE
  5
44B
100
AcDbEntity
  8
RACCORDO
100
AcDbEllipse
 62
7
  6
CONTINUOUS
 10
3.1874036833
 20
-16.4110897958
 30
0.0
 11
-0.2012801021
 21
0.4024798509
 31
0.0
 40
0.6124778111
 41
-3.1449090127
 42
-2.255529033
  0
ELLIPSE
  5
44C
100
AcDbEntity
  8
RACCORDO
100
AcDbEllipse
 62
7
  6
CONTINUOUS
 10
3.1874036833
 20
21.5922803728
 30
0.0
 11
-0.2013341403
 21
0.4025279144
 31
0.0
 40
0.6122950388
 41
-2.2557482655
 42
-0.6847996396
  0
ELLIPSE
  5
44D
100
AcDbEntity
  8
ASSI
100
AcDbEllipse
 62
7
  6
CONTINUOUS
 10
-2.8628124626
 20
30.3524941062
 30
0.0
 11
0.2257019663
 21
0.4461636818
 31
0.0
 40
0.6159267166
 41
0.5219627347
 42
0.6817883054
  0
ELLIPSE
  5
44E
100
AcDbEntity
  8
RACCORDO
100
AcDbEllipse
 62
7
  6
CONTINUOUS
 10
7.701693064
 20
25.2302516951
 30
0.0
 11
0.499996712
 21
0.0035883639
 31
0.0
 40
0.5053247124
 41
-0.7715714568
 42
-0.0036265884
  0
ELLIPSE
  5
44F
100
AcDbEntity
  8
RACCORDO
100
AcDbEllipse
 62
7
  6
CONTINUOUS
 10
-3.9099955185
 20
30.9605896922
 30
0.0
 11
0.9987332359
 21
0.6172510855
 31
0.0
 40
0.0815198604
 41
0.0503395054
 42
0.7263320369
  0
ELLIPSE
  5
450
100
AcDbEntity
  8
RACCORDO
100
AcDbEllipse
 62
7
  6
CONTINUOUS
 10
7.8807367699
 20
-11.8494439962
 30
0.0
 11
0.9987332359
 21
0.6172510855
 31
0.0
 40
0.0815198604
 41
-2.3978073241
 42
-1.2985018509
  0
ELLIPSE
  5
451
100
AcDbEntity
  8
RACCORDO
100
AcDbEllipse
 62
7
  6
CONTINUOUS
 10
-8.1949041266
 20
27.8299744375
 30
0.0
 11
0.4999985559
 21
0.0023864752
 31
0.0
 40
0.5035541159
 41
2.3596088132
 42
3.0002042076
  0
ELLIPSE
  5
452
100
AcDbEntity
  8
ASSI
100
AcDbEllipse
 62
7
  6
CONTINUOUS
 10
3.2980198081
 20
27.2720779708
 30
0.0
 11
0.221538876
 21
0.4482453432
 31
0.0
 40
0.6088015717
 41
0.5162619627
 42
0.6760875334
  0
ELLIPSE
  5
453
100
AcDbEntity
  8
RACCORDO
100
AcDbEllipse
 62
7
  6
CONTINUOUS
 10
7.8807367699
 20
25.065223548
 30
0.0
 11
-0.7417913999
 21
1.2002436976
 31
0.0
 40
0.5587454355
 41
5.1248137075
 42
6.2241191807
  0
ELLIPSE
  5
454
100
AcDbEntity
  8
RACCORDO
100
AcDbEllipse
 62
7
  6
CONTINUOUS
 10
7.701693064
 20
-12.0586643151
 30
0.0
 11
0.499366618
 21
0.3086255427
 31
0.0
 40
0.0815198604
 41
6.1080157147
 42
7.0007906979
  0
ELLIPSE
  5
455
100
AcDbEntity
  8
DRAFT
100
AcDbEllipse
 62
7
  6
CONTINUOUS
 10
3.0572693704
 20
26.6501068258
 30
0.0
 11
0.419997428
 21
-0.0029715766
 31
0.0
 40
0.4946372042
 41
-0.7760807437
 42
0.0034996546
  0
ELLIPSE
  5
456
100
AcDbEntity
  8
DRAFT
100
AcDbEllipse
 62
7
  6
CONTINUOUS
 10
-2.497686367
 20
29.4275846945
 30
0.0
 11
0.419997428
 21
-0.0029715766
 31
0.0
 40
0.4946372042
 41
-0.7818985079
 42
0.0034996555
  0
ELLIPSE
  5
457
100
AcDbEntity
  8
RACCORDO
100
AcDbEllipse
 62
7
  6
CONTINUOUS
 10
7.701693064
 20
26.160594354
 30
0.0
 11
-0.3708957
 21
0.6001218488
 31
0.0
 40
0.5587454355
 41
-3.1744788413
 42
-2.2817038581
  0
ELLIPSE
  5
458
100
AcDbEntity
  8
RACCORDO
100
AcDbEllipse
 62
7
  6
CONTINUOUS
 10
-13.3183459117
 20
28.5947157878
 30
0.0
 11
0.249929385
 21
0.0111824824
 31
0.0
 40
0.5313301283
 41
3.1178240563
 42
3.9032222197
  0
ELLIPSE
  5
459
100
AcDbEntity
  8
RACCORDO
100
AcDbEllipse
 62
7
  6
CONTINUOUS
 10
-11.985133578
 20
27.928109621
 30
0.0
 11
0.249929385
 21
0.0111824824
 31
0.0
 40
0.5313301283
 41
-2.3799630874
 42
-0.8149845248
  0
ELLIPSE
  5
45A
100
AcDbEntity
  8
RACCORDO
100
AcDbEllipse
 62
7
  6
CONTINUOUS
 10
0.0459722528
 20
21.9125567056
 30
0.0
 11
0.249929385
 21
0.0111824824
 31
0.0
 40
0.5313301283
 41
3.1178240563
 42
3.9032222197
  0
ELLIPSE
  5
45B
100
AcDbEntity
  8
RACCORDO
100
AcDbEllipse
 62
7
  6
CONTINUOUS
 10
1.3791845864
 20
21.2459505388
 30
0.0
 11
0.249929385
 21
0.0111824824
 31
0.0
 40
0.5313301283
 41
-2.3799630874
 42
-0.8149845248
  0
ELLIPSE
  5
45C
100
AcDbEntity
  8
RACCORDO
100
AcDbEllipse
 62
7
  6
CONTINUOUS
 10
-2.6835970269
 20
23.8417112825
 30
0.0
 11
0.4998587701
 21
0.0223649649
 31
0.0
 40
0.5313301283
 41
-2.3799630874
 42
-0.8149845248
  0
ELLIPSE
  5
45D
100
AcDbEntity
  8
RACCORDO
100
AcDbEllipse
 62
7
  6
CONTINUOUS
 10
-2.6835970269
 20
25.0743208877
 30
0.0
 11
0.4999985559
 21
0.0023864752
 31
0.0
 40
0.5035541159
 41
-1.4342147631
 42
-0.7936193687
  0
ELLIPSE
  5
45E
100
AcDbEntity
  8
RACCORDO
100
AcDbEllipse
 62
7
  6
CONTINUOUS
 10
-8.1949041266
 20
26.5973648323
 30
0.0
 11
0.4998587701
 21
0.0223649649
 31
0.0
 40
0.5313301283
 41
3.1178240551
 42
3.9032222197
  0
ELLIPSE
  5
45F
100
AcDbEntity
  8
0
100
AcDbEllipse
 62
7
  6
CONTINUOUS
 10
9.0388630826
 20
21.9772404335
 30
0.0
 11
-0.894612936
 21
1.7887945813
 31
0.0
 40
0.6124635976
 41
-2.2555607096
 42
-1.470288718
  0
ELLIPSE
  5
460
100
AcDbEntity
  8
0
100
AcDbEllipse
 62
7
  6
CONTINUOUS
 10
10.9974615704
 20
26.0018532787
 30
0.0
 11
2.8072689689
 21
-1.7452486865
 31
0.0
 40
0.735634705
 41
-2.2760536301
 42
-2.0844734703
  0
ELLIPSE
  5
461
100
AcDbEntity
  8
DRAFT
100
AcDbEllipse
 62
7
  6
CONTINUOUS
 10
10.4626862876
 20
25.1260076514
 30
0.0
 11
2.335460794
 21
-1.4519527261
 31
0.0
 40
0.7356319767
 41
2.7236315065
 42
3.0534417194
  0
ELLIPSE
  5
462
100
AcDbEntity
  8
DRAFT
100
AcDbEllipse
 62
7
  6
CONTINUOUS
 10
10.9557069667
 20
25.1721035503
 30
0.0
 11
2.3425905227
 21
-1.4563852685
 31
0.0
 40
0.7356319767
 41
0.1225540232
 42
2.7149048602
  0
ELLIPSE
  5
463
100
AcDbEntity
  8
RACCORDO
100
AcDbEllipse
 62
7
  6
CONTINUOUS
 10
12.4599984575
 20
30.1386878128
 30
0.0
 11
0.7906817197
 21
0.7158929559
 31
0.0
 40
0.2845239558
 41
5.5074570422
 42
7.0608000765
  0
ELLIPSE
  5
464
100
AcDbEntity
  8
0
100
AcDbEllipse
 62
7
  6
CONTINUOUS
 10
10.9974615704
 20
26.0018532787
 30
0.0
 11
2.8072689689
 21
-1.7452486865
 31
0.0
 40
0.735634705
 41
-3.0539180183
 42
-2.4753896934
  0
ELLIPSE
  5
465
100
AcDbEntity
  8
0
100
AcDbEllipse
 62
7
  6
CONTINUOUS
 10
10.9974615704
 20
26.0018532787
 30
0.0
 11
2.8072689689
 21
-1.7452486865
 31
0.0
 40
0.735634705
 41
4.4409044707
 42
5.8511225255
  0
ELLIPSE
  5
466
100
AcDbEntity
  8
DRAFT
100
AcDbEllipse
 62
7
  6
CONTINUOUS
 10
11.1324836619
 20
25.4587152026
 30
0.0
 11
2.3425905227
 21
-1.4563852685
 31
0.0
 40
0.7356319767
 41
6.2543604285
 42
8.9980901674
  0
ELLIPSE
  5
467
100
AcDbEntity
  8
0
100
AcDbEllipse
 62
7
  6
CONTINUOUS
 10
12.8473247388
 20
26.2747273546
 30
0.0
 11
4.9998954516
 21
-0.7143478698
 31
0.0
 40
0.4777652804
 41
2.526268096
 42
2.89079222
  0
ENDSEC
  0
SECTION
  2
OBJECTS
  0
DICTIONARY
  5
C
100
AcDbDictionary
280
0
281
1
  3
ACAD_GROUP
350
D
  3
ACAD_MLINESTYLE
350
17
  3
ACAD_LAYOUT
350
1A
  3
ACAD_PLOTSETTINGS
350
19
  3
ACAD_PLOTSTYLENAME
350
E
  0
DICTIONARY
  5
D
102
{ACAD_REACTORS
330
C
102
}
100
AcDbDictionary
280
0
281
1
  0
ACDBDICTIONARYWDFLT
  5
E
102
{ACAD_REACTORS
330
C
102
}
100
AcDbDictionary
281
1
  3
Normal
350
F
100
AcDbDictionaryWithDefault
340
F
  0
DICTIONARY
  5
17
102
{ACAD_REACTORS
330
C
102
}
100
AcDbDictionary
280
0
281
1
  3
Standard
350
18
  0
DICTIONARY
  5
19
102
{ACAD_REACTORS
330
C
102
}
100
AcDbDictionary
281
1
  0
DICTIONARY
  5
1A
102
{ACAD_REACTORS
330
C
102
}
100
AcDbDictionary
281
1
  3
Model
350
468
  3
Layout1
350
469
  0
ACDBPLACEHOLDER
  5
F
102
{ACAD_REACTORS
330
E
102
}
  0
MLINESTYLE
  5
18
102
{ACAD_REACTORS
330
17
102
}
100
AcDbMlineStyle
  2
STANDARD
 70
0
  3

 62
256
 51
90.0
 52
90.0
 71
2
 49
0.5
 62
256
  6
BYLAYER
 49
-0.5
 62
256
  6
BYLAYER
  0
LAYOUT
  5
468
102
{ACAD_REACTORS
330
1A
102
}
100
AcDbPlotSettings
  1

  2
none_device
  4
ISO_A4_(297.00_x_210.00_MM)
  6

 40
0.0
 41
0.0
 42
0.0
 43
0.0
 44
297.0
 45
210.0
 46
0.0
 47
0.0
 48
0.0
 49
0.0
140
0.0
141
0.0
142
1.0
143
1.0
 70
1024
 72
1
 73
0
 74
0
  7

 75
0
147
1.0
148
0.0
149
0.0
100
AcDbLayout
  1
Model
 70
0
 71
0
 10
0.0
 20
0.0
 11
297.0
 21
210.0
 12
0.0
 22
0.0
 32
0.0
 14
0.0
 24
0.0
 34
0.0
 15
0.0
 25
0.0
 35
0.0
146
0.0
 13
0.0
 23
0.0
 33
0.0
 16
1.0
 26
0.0
 36
0.0
 17
0.0
 27
1.0
 37
0.0
 76
0
330
214
345
0
346
0
  0
LAYOUT
  5
469
102
{ACAD_REACTORS
330
1A
102
}
100
AcDbPlotSettings
  1

  2
none_device
  4
ISO_A4_(297.00_x_210.00_MM)
  6

 40
0.0
 41
0.0
 42
0.0
 43
0.0
 44
297.0
 45
210.0
 46
0.0
 47
0.0
 48
0.0
 49
0.0
140
0.0
141
0.0
142
1.0
143
1.0
 70
0
 72
1
 73
0
 74
0
  7

 75
0
147
1.0
148
0.0
149
0.0
100
AcDbLayout
  1
Layout1
 70
0
 71
1
 10
0.0
 20
0.0
 11
297.0
 21
210.0
 12
0.0
 22
0.0
 32
0.0
 14
0.0
 24
0.0
 34
0.0
 15
0.0
 25
0.0
 35
0.0
146
0.0
 13
0.0
 23
0.0
 33
0.0
 16
1.0
 26
0.0
 36
0.0
 17
0.0
 27
1.0
 37
0.0
 76
0
330
215
345
0
346
0
  0
ENDSEC
  0
EOF
