  0
SECTION
  2
HEADER
  9
$ACADVER
  1
AC1024
  9
$DWGCODEPAGE
  3
ANSI_1252
  9
$EXTMAX
 10
297.0
 20
210.0
 30
0.0
  9
$EXTMIN
 10
0.0
 20
0.0
 30
0.0
  9
$LIMMIN
 10
0.0
 20
0.0
  9
$LIMMAX
 10
297.0
 20
210.0
  9
$VIEWCTR
 10
148.5
 20
105.0
  9
$VIEWSIZE
 40
210.0
  9
$CLAYER
  8
0
  9
$LTSCALE
 40
16.335
  9
$CELTYPE
  6
BYLAYER
  9
$DIMSCALE
 40
1.0
  9
$DIMASZ
 40
3.0
  9
$DIMEXO
 40
0.5
  9
$DIMDLI
 40
11.286
  9
$DIMEXE
 40
1.5
  9
$DIMCEN
 40
2.673
  9
$DIMLFAC
 40
1.0
  9
$DIMBLK
  1
_FILLED
  9
$DIMALT
 70
0
  9
$DIMALTF
 40
0.0393700787
  9
$DIMTXT
 40
3.0
  9
$DIMTOL
 70
1
  9
$DIMLIM
 70
0
  9
$DIMTFAC
 40
1.0
  9
$DIMTP
 40
0.01
  9
$DIMTM
 40
0.01
  9
$DIMGAP
 40
0.625
  9
$DIMDSEP
 70
44
  9
$AUNITS
 70
0
  9
$PDMODE
 70
3
  9
$PDSIZE
 40
3.0
  9
$HANDSEED
  5
573
  9
$TILEMODE
 70
1
  9
$MEASUREMENT
 70
1
  9
$INSUNITS
 70
4
  0
ENDSEC
  0
SECTION
  2
CLASSES
  0
CLASS
  1
ACDBDICTIONARYWDFLT
  2
AcDbDictionaryWithDefault
  3
AutoCAD 2000
 90
0
 91
1
280
0
281
0
  0
CLASS
  1
ACDBPLACEHOLDER
  2
AcDbPlaceHolder
  3
AutoCAD 2000
 90
0
 91
1
280
0
281
0
  0
CLASS
  1
LAYOUT
  2
AcDbLayout
  3
AutoCAD 2000
 90
0
 91
0
280
0
281
0
  0
ENDSEC
  0
SECTION
  2
TABLES
  0
TABLE
  2
VPORT
  5
8
100
AcDbSymbolTable
 70
2
  0
VPORT
  5
1F4
100
AcDbSymbolTableRecord
100
AcDbViewportTableRecord
  2
*ACTIVE
 70
0
 10
0.0
 20
0.0
 11
1.0
 21
1.0
 12
148.5
 22
105.0
 13
0.0
 23
0.0
 14
1.0
 24
1.0
 15
0.0
 25
0.0
 16
0.0
 26
0.0
 36
1.0
 17
0.0
 27
0.0
 37
0.0
 40
210.0
 41
1.4142857143
 42
50.0
 43
0.0
 44
0.0
 50
0.0
 51
0.0
 71
0
 72
100
 73
1
 74
1
 75
0
 76
0
 77
0
 78
0
  0
ENDTAB
  0
TABLE
  2
LTYPE
  5
5
100
AcDbSymbolTable
 70
6
  0
LTYPE
  5
14
100
AcDbSymbolTableRecord
100
AcDbLinetypeTableRecord
  2
BYBLOCK
 70
0
  3

 72
65
 73
0
 40
0.0
  0
LTYPE
  5
15
100
AcDbSymbolTableRecord
100
AcDbLinetypeTableRecord
  2
BYLAYER
 70
0
  3

 72
65
 73
0
 40
0.0
  0
LTYPE
  5
16
100
AcDbSymbolTableRecord
100
AcDbLinetypeTableRecord
  2
CONTINUOUS
 70
64
  3
Solid line
 72
65
 73
0
 40
0.0
  0
LTYPE
  5
1F5
100
AcDbSymbolTableRecord
100
AcDbLinetypeTableRecord
  2
CENTER
 70
64
  3
____ _ ____ _ ____ _ ____ _ ____ _ ____ _ ____
 72
65
 73
4
 40
0.6
 49
0.375
 74
0
 49
-0.075
 74
0
 49
0.075
 74
0
 49
-0.075
 74
0
  0
LTYPE
  5
1F6
100
AcDbSymbolTableRecord
100
AcDbLinetypeTableRecord
  2
HIDDEN
 70
64
  3
- - - - - - - - - - - - - - - - - - - -
 72
65
 73
2
 40
0.2
 49
0.1
 74
0
 49
-0.1
 74
0
  0
LTYPE
  5
1F7
100
AcDbSymbolTableRecord
100
AcDbLinetypeTableRecord
  2
PHANTOM
 70
64
  3
_____ _ _ _____ _ _ _____ _ _ _____
 72
65
 73
6
 40
0.8
 49
0.45
 74
0
 49
-0.05
 74
0
 49
0.1
 74
0
 49
-0.05
 74
0
 49
0.1
 74
0
 49
-0.05
 74
0
  0
LTYPE
  5
1F8
100
AcDbSymbolTableRecord
100
AcDbLinetypeTableRecord
  2
DOT
 70
64
  3
. . . . . . . . . . . . . . . . . . . .
 72
65
 73
2
 40
0.2
 49
0.1
 74
0
 49
-0.1
 74
0
  0
LTYPE
  5
1F9
100
AcDbSymbolTableRecord
100
AcDbLinetypeTableRecord
  2
DASHED
 70
64
  3
- - - - - - - - - - - - - - - - - - - -
 72
65
 73
2
 40
0.2
 49
0.1
 74
0
 49
-0.1
 74
0
  0
ENDTAB
  0
TABLE
  2
LAYER
  5
2
100
AcDbSymbolTable
 70
36
  0
LAYER
  5
10
100
AcDbSymbolTableRecord
100
AcDbLayerTableRecord
  2
0
 70
0
 62
7
  6
CONTINUOUS
370
-3
390
F
  0
LAYER
  5
1FA
100
AcDbSymbolTableRecord
100
AcDbLayerTableRecord
  2
DEFAULT_1
 70
0
 62
7
  6
CENTER
370
-3
390
F
  0
LAYER
  5
1FB
100
AcDbSymbolTableRecord
100
AcDbLayerTableRecord
  2
DEFAULT_2
 70
0
 62
7
  6
HIDDEN
370
-3
390
F
  0
LAYER
  5
1FC
100
AcDbSymbolTableRecord
100
AcDbLayerTableRecord
  2
DEFAULT_3
 70
0
 62
7
  6
PHANTOM
370
-3
390
F
  0
LAYER
  5
1FD
100
AcDbSymbolTableRecord
100
AcDbLayerTableRecord
  2
ASSI
 70
0
 62
7
  6
CONTINUOUS
370
-3
390
F
  0
LAYER
  5
1FE
100
AcDbSymbolTableRecord
100
AcDbLayerTableRecord
  2
COORDINATE
 70
0
 62
7
  6
CONTINUOUS
370
-3
390
F
  0
LAYER
  5
1FF
100
AcDbSymbolTableRecord
100
AcDbLayerTableRecord
  2
COORD_ORIGINE
 70
0
 62
7
  6
CONTINUOUS
370
-3
390
F
  0
LAYER
  5
200
100
AcDbSymbolTableRecord
100
AcDbLayerTableRecord
  2
COSMETICHE
 70
0
 62
7
  6
CONTINUOUS
370
-3
390
F
  0
LAYER
  5
201
100
AcDbSymbolTableRecord
100
AcDbLayerTableRecord
  2
CURVE
 70
0
 62
7
  6
CONTINUOUS
370
-3
390
F
  0
LAYER
  5
202
100
AcDbSymbolTableRecord
100
AcDbLayerTableRecord
  2
C_CONTATTI
 70
0
 62
7
  6
CONTINUOUS
370
-3
390
F
  0
LAYER
  5
203
100
AcDbSymbolTableRecord
100
AcDbLayerTableRecord
  2
C_COPERCHIO
 70
0
 62
7
  6
CONTINUOUS
370
-3
390
F
  0
LAYER
  5
204
100
AcDbSymbolTableRecord
100
AcDbLayerTableRecord
  2
C_CORPO
 70
0
 62
7
  6
CONTINUOUS
370
-3
390
F
  0
LAYER
  5
205
100
AcDbSymbolTableRecord
100
AcDbLayerTableRecord
  2
C_MOLLA_OTTURATORE
 70
0
 62
7
  6
CONTINUOUS
370
-3
390
F
  0
LAYER
  5
206
100
AcDbSymbolTableRecord
100
AcDbLayerTableRecord
  2
C_MOLLE_IDEA
 70
0
 62
7
  6
CONTINUOUS
370
-3
390
F
  0
LAYER
  5
207
100
AcDbSymbolTableRecord
100
AcDbLayerTableRecord
  2
C_OTTURATORE
 70
0
 62
7
  6
CONTINUOUS
370
-3
390
F
  0
LAYER
  5
208
100
AcDbSymbolTableRecord
100
AcDbLayerTableRecord
  2
C_SCATOLINO
 70
0
 62
7
  6
CONTINUOUS
370
-3
390
F
  0
LAYER
  5
209
100
AcDbSymbolTableRecord
100
AcDbLayerTableRecord
  2
DRAFT
 70
0
 62
7
  6
CONTINUOUS
370
-3
390
F
  0
LAYER
  5
20A
100
AcDbSymbolTableRecord
100
AcDbLayerTableRecord
  2
IMPORTED
 70
0
 62
7
  6
CONTINUOUS
370
-3
390
F
  0
LAYER
  5
20B
100
AcDbSymbolTableRecord
100
AcDbLayerTableRecord
  2
INCISIONI
 70
0
 62
7
  6
CONTINUOUS
370
-3
390
F
  0
LAYER
  5
20C
100
AcDbSymbolTableRecord
100
AcDbLayerTableRecord
  2
INTF_1
 70
0
 62
7
  6
CONTINUOUS
370
-3
390
F
  0
LAYER
  5
20D
100
AcDbSymbolTableRecord
100
AcDbLayerTableRecord
  2
INTF_11
 70
0
 62
7
  6
CONTINUOUS
370
-3
390
F
  0
LAYER
  5
20E
100
AcDbSymbolTableRecord
100
AcDbLayerTableRecord
  2
INTF_YELLOW
 70
0
 62
7
  6
CONTINUOUS
370
-3
390
F
  0
LAYER
  5
20F
100
AcDbSymbolTableRecord
100
AcDbLayerTableRecord
  2
NOTE
 70
0
 62
7
  6
CONTINUOUS
370
-3
390
F
  0
LAYER
  5
210
100
AcDbSymbolTableRecord
100
AcDbLayerTableRecord
  2
PIANI
 70
0
 62
7
  6
CONTINUOUS
370
-3
390
F
  0
LAYER
  5
211
100
AcDbSymbolTableRecord
100
AcDbLayerTableRecord
  2
PIANI_ORIGINE
 70
0
 62
7
  6
CONTINUOUS
370
-3
390
F
  0
LAYER
  5
212
100
AcDbSymbolTableRecord
100
AcDbLayerTableRecord
  2
PIANI_RIFERIMENTO
 70
0
 62
7
  6
CONTINUOUS
370
-3
390
F
  0
LAYER
  5
213
100
AcDbSymbolTableRecord
100
AcDbLayerTableRecord
  2
PIANI_SFORMO
 70
0
 62
7
  6
CONTINUOUS
370
-3
390
F
  0
LAYER
  5
214
100
AcDbSymbolTableRecord
100
AcDbLayerTableRecord
  2
PUNTI
 70
0
 62
7
  6
CONTINUOUS
370
-3
390
F
  0
LAYER
  5
215
100
AcDbSymbolTableRecord
100
AcDbLayerTableRecord
  2
RACCORDO
 70
0
 62
7
  6
CONTINUOUS
370
-3
390
F
  0
LAYER
  5
216
100
AcDbSymbolTableRecord
100
AcDbLayerTableRecord
  2
SMUSSO
 70
0
 62
7
  6
CONTINUOUS
370
-3
390
F
  0
LAYER
  5
217
100
AcDbSymbolTableRecord
100
AcDbLayerTableRecord
  2
SUPERFICI
 70
0
 62
7
  6
CONTINUOUS
370
-3
390
F
  0
LAYER
  5
218
100
AcDbSymbolTableRecord
100
AcDbLayerTableRecord
  2
TRASH
 70
0
 62
7
  6
CONTINUOUS
370
-3
390
F
  0
LAYER
  5
219
100
AcDbSymbolTableRecord
100
AcDbLayerTableRecord
  2
VARIANTE_COLORE
 70
0
 62
7
  6
CONTINUOUS
370
-3
390
F
  0
LAYER
  5
21A
100
AcDbSymbolTableRecord
100
AcDbLayerTableRecord
  2
XSEC_DATUMS
 70
0
 62
7
  6
CONTINUOUS
370
-3
390
F
  0
ENDTAB
  0
TABLE
  2
STYLE
  5
3
100
AcDbSymbolTable
 70
1
  0
STYLE
  5
11
100
AcDbSymbolTableRecord
100
AcDbTextStyleTableRecord
  2
STANDARD
 70
0
 40
0.0
 41
0.8
 50
0.0
 71
0
 42
0.2
  3
txt
  4

  0
STYLE
  5
21B
100
AcDbSymbolTableRecord
100
AcDbTextStyleTableRecord
  2
TEXTSTYLE_1
 70
0
 40
0.0
 41
0.8
 50
0.0
 71
0
 42
0.2
  3
gdt
  4

  0
ENDTAB
  0
TABLE
  2
VIEW
  5
6
100
AcDbSymbolTable
 70
0
  0
ENDTAB
  0
TABLE
  2
UCS
  5
7
100
AcDbSymbolTable
 70
0
  0
ENDTAB
  0
TABLE
  2
APPID
  5
9
100
AcDbSymbolTable
 70
1
  0
APPID
  5
21C
100
AcDbSymbolTableRecord
100
AcDbRegAppTableRecord
  2
ACAD
 70
0
  0
ENDTAB
  0
TABLE
  2
BLOCK_RECORD
  5
1
100
AcDbSymbolTable
 70
0
  0
BLOCK_RECORD
  5
21D
100
AcDbSymbolTableRecord
100
AcDbBlockTableRecord
  2
*Model_Space
  0
BLOCK_RECORD
  5
21E
100
AcDbSymbolTableRecord
100
AcDbBlockTableRecord
  2
*Paper_Space
  0
BLOCK_RECORD
  5
21F
100
AcDbSymbolTableRecord
100
AcDbBlockTableRecord
  2
_FILLED
  0
ENDTAB
  0
TABLE
  2
DIMSTYLE
  5
A
100
AcDbSymbolTable
 70
1
100
AcDbDimStyleTable
 71
0
  0
DIMSTYLE
105
220
100
AcDbSymbolTableRecord
100
AcDbDimStyleTableRecord
  2
STANDARD
 70
0
  3

  4

 40
1.0
 41
3.0
 42
0.5
 43
0.38
 44
1.5
 45
0.0
 46
0.0
 47
0.01
 48
0.01
140
3.0
141
0.09
142
0.0
143
25.4
144
1.0
145
0.0
146
1.0
147
0.625
 71
1
 72
0
 73
0
 74
0
 75
0
 76
0
 77
1
 78
8
 79
2
170
0
171
1
172
0
173
0
174
0
175
0
176
0
177
0
178
0
270
2
179
2
271
2
272
2
273
2
274
2
275
0
280
0
281
0
282
0
283
1
284
8
285
0
286
0
287
3
288
0
340
11
278
44
341
21F
342
21F
343
21F
344
21F
  0
ENDTAB
  0
ENDSEC
  0
SECTION
  2
BLOCKS
  0
BLOCK
  5
20
100
AcDbEntity
  8
0
100
AcDbBlockBegin
  2
*Model_Space
 70
0
 10
0.0
 20
0.0
 30
0.0
  3
*Model_Space
  1

  0
ENDBLK
  5
21
100
AcDbEntity
  8
0
100
AcDbBlockEnd
  0
BLOCK
  5
1C
100
AcDbEntity
  8
0
100
AcDbBlockBegin
  2
*Paper_Space
 70
0
 10
0.0
 20
0.0
 30
0.0
  3
*Paper_Space
  1

  0
ENDBLK
  5
1D
100
AcDbEntity
  8
0
100
AcDbBlockEnd
  0
BLOCK
  5
221
100
AcDbEntity
  8
0
100
AcDbBlockBegin
  2
_FILLED
 70
64
 10
0.0
 20
0.0
  3
_FILLED
  1

  0
SOLID
  5
222
100
AcDbEntity
  8
0
  6
BYBLOCK
 62
0
100
AcDbTrace
 10
0.0
 20
0.0
 11
-1.0
 21
0.3166666667
 12
-1.0
 22
-0.3166666667
 13
-1.0
 23
-0.3166666667
  0
ENDBLK
  5
223
100
AcDbEntity
  8
0
  6
BYBLOCK
 62
0
100
AcDbBlockEnd
  0
ENDSEC
  0
SECTION
  2
ENTITIES
  0
LINE
  5
224
100
AcDbEntity
  8
RACCORDO
100
AcDbLine
 62
7
  6
CONTINUOUS
 10
-26.4182750036
 20
27.1486189957
 11
-28.0014486689
 21
26.3364209376
  0
LWPOLYLINE
  5
225
100
AcDbEntity
  8
RACCORDO
100
AcDbPolyline
 62
250
  6
CONTINUOUS
 90
17
 70
0
 10
-32.9288029047
 20
-14.8895378343
 10
-32.9274808851
 20
-14.9018510156
 10
-32.925055182
 20
-14.9140909829
 10
-32.9215311691
 20
-14.926230621
 10
-32.9169166531
 20
-14.9382430367
 10
-32.9112218566
 20
-14.9501016187
 10
-32.9044593955
 20
-14.9617800967
 10
-32.8966442506
 20
-14.9732525991
 10
-32.8877937349
 20
-14.9844937108
 10
-32.8779274551
 20
-14.9954785292
 10
-32.8670672681
 20
-15.0061827195
 10
-32.8552372326
 20
-15.0165825686
 10
-32.8424635558
 20
-15.0266550375
 10
-32.8287745353
 20
-15.0363778126
 10
-32.8142004967
 20
-15.045729355
 10
-32.798773726
 20
-15.0546889479
 10
-32.7825283984
 20
-15.0632367432
  0
LWPOLYLINE
  5
226
100
AcDbEntity
  8
RACCORDO
100
AcDbPolyline
 62
7
  6
CONTINUOUS
 90
30
 70
0
 10
-32.9289921516
 20
-14.8855884408
 10
-32.9275257031
 20
-14.9185266323
 10
-32.9242424247
 20
-14.9646002948
 10
-32.9195551269
 20
-15.0099552726
 10
-32.9134701598
 20
-15.0545866656
 10
-32.9059994218
 20
-15.0984516975
 10
-32.8971654123
 20
-15.1414651944
 10
-32.8869818256
 20
-15.1836099029
 10
-32.8754641842
 20
-15.2248617976
 10
-32.8626503809
 20
-15.2651273015
 10
-32.8485619537
 20
-15.3043877876
 10
-32.8332229628
 20
-15.3426212047
 10
-32.816692025
 20
-15.3797308673
 10
-32.7990069774
 20
-15.4156893924
 10
-32.7801994427
 20
-15.4504879084
 10
-32.7603359805
 20
-15.484058991
 10
-32.7394813747
 20
-15.5163554953
 10
-32.7176630747
 20
-15.5473963424
 10
-32.6948973088
 20
-15.5772078008
 10
-32.671235881
 20
-15.605764503
 10
-32.6467196005
 20
-15.6330589168
 10
-32.6213429849
 20
-15.6591314691
 10
-32.5951525682
 20
-15.6839610906
 10
-32.568193316
 20
-15.7075311363
 10
-32.5404502914
 20
-15.7298747888
 10
-32.5119696523
 20
-15.7509701129
 10
-32.4827966827
 20
-15.7707988032
 10
-32.4529081385
 20
-15.7893857329
 10
-32.4223244148
 20
-15.8067207538
 10
-32.3980130328
 20
-15.8193592352
  0
LWPOLYLINE
  5
227
100
AcDbEntity
  8
RACCORDO
100
AcDbPolyline
 62
250
  6
CONTINUOUS
 90
22
 70
0
 10
-32.7825283985
 20
-15.0632367433
 10
-32.8358349389
 20
-13.3956965985
 10
-32.8838131783
 20
-11.7251504324
 10
-32.9264623674
 20
-10.0516238926
 10
-32.9637818313
 20
-8.3751426799
 10
-32.9957709962
 20
-6.6957325235
 10
-33.0224293888
 20
-5.0134191805
 10
-33.0437565972
 20
-3.3282284722
 10
-33.059752284
 20
-1.6401862713
 10
-33.0704162125
 20
0.0506815217
 10
-33.0757482205
 20
1.7443489517
 10
-33.0757482205
 20
3.4407900228
 10
-33.0704162125
 20
5.1399787109
 10
-33.059752284
 20
6.8418889415
 10
-33.0437565972
 20
8.5464945884
 10
-33.0224293888
 20
10.2537694886
 10
-32.9957709962
 20
11.9636874402
 10
-32.9637818313
 20
13.6762222017
 10
-32.9264623674
 20
15.3913474903
 10
-32.8838131783
 20
17.1090369855
 10
-32.8358349389
 20
18.8292643291
 10
-32.7825283985
 20
20.5520031243
  0
LWPOLYLINE
  5
228
100
AcDbEntity
  8
RACCORDO
100
AcDbPolyline
 62
7
  6
CONTINUOUS
 90
22
 70
0
 10
-32.9290108214
 20
20.7270466733
 10
-32.9819660426
 20
19.0162027841
 10
-33.0300085735
 20
17.2948492249
 10
-33.0727148591
 20
15.576030592
 10
-33.110084074
 20
13.859776488
 10
-33.1421156784
 20
12.1461126264
 10
-33.1688092046
 20
10.4350631631
 10
-33.1901641924
 20
8.7266535222
 10
-33.206180315
 20
7.0209100985
 10
-33.216857285
 20
5.3178585116
 10
-33.2221948463
 20
3.6175245624
 10
-33.2221929068
 20
1.9199348513
 10
-33.2168514244
 20
0.2251161953
 10
-33.2061704085
 20
-1.4669048555
 10
-33.1901500317
 20
-3.1561027232
 10
-33.1687904977
 20
-4.8424520509
 10
-33.1420920499
 20
-6.5259267416
 10
-33.1100550652
 20
-8.2065018079
 10
-33.072679927
 20
-9.8841535477
 10
-33.0299670919
 20
-11.5588567597
 10
-32.9819173021
 20
-13.2305826406
 10
-32.9289921999
 20
-14.8855897818
  0
LWPOLYLINE
  5
229
100
AcDbEntity
  8
RACCORDO
100
AcDbPolyline
 62
250
  6
CONTINUOUS
 90
46
 70
0
 10
-32.7825283985
 20
20.5520031243
 10
-32.7805490895
 20
20.5955889287
 10
-32.7774431329
 20
20.6396473383
 10
-32.7732139497
 20
20.6841308826
 10
-32.7678663081
 20
20.7289913734
 10
-32.7614059658
 20
20.7741807601
 10
-32.7538395867
 20
20.8196512019
 10
-32.7451753182
 20
20.8653543189
 10
-32.7354226125
 20
20.9112403696
 10
-32.7245918643
 20
20.9572591151
 10
-32.7126950381
 20
21.0033606759
 10
-32.699744993
 20
21.0494958062
 10
-32.6857552246
 20
21.0956150884
 10
-32.6707409413
 20
21.1416691248
 10
-32.6547185121
 20
21.1876081706
 10
-32.6377048235
 20
21.2333824024
 10
-32.6197184613
 20
21.2789425965
 10
-32.6007789815
 20
21.3242397719
 10
-32.5809063269
 20
21.3692248254
 10
-32.5601221835
 20
21.4138494418
 10
-32.5384491806
 20
21.4580656235
 10
-32.5159101756
 20
21.5018253376
 10
-32.4925298426
 20
21.5450814655
 10
-32.46833358
 20
21.5877876501
 10
-32.4433466981
 20
21.6298978149
 10
-32.4175963797
 20
21.6713668631
 10
-32.3911107313
 20
21.7121501188
 10
-32.3639176892
 20
21.7522031732
 10
-32.336046935
 20
21.7914830242
 10
-32.3075288149
 20
21.8299475151
 10
-32.2783933791
 20
21.8675547693
 10
-32.2486724004
 20
21.904264469
 10
-32.2183982756
 20
21.9400372062
 10
-32.1876029557
 20
21.9748339363
 10
-32.1563201685
 20
22.0086172314
 10
-32.1245838831
 20
22.0413510236
 10
-32.0924272015
 20
22.0729999294
 10
-32.0598849235
 20
22.1035302761
 10
-32.0269927723
 20
22.1329090656
 10
-31.9937858701
 20
22.1611037596
 10
-31.9603008467
 20
22.1880838951
 10
-31.9265738124
 20
22.213820983
 10
-31.8926395647
 20
22.2382873885
 10
-31.8585344354
 20
22.2614568531
 10
-31.8242962665
 20
22.2833046107
 10
-31.7899623884
 20
22.3038072802
  0
LWPOLYLINE
  5
22A
100
AcDbEntity
  8
RACCORDO
100
AcDbPolyline
 62
250
  6
CONTINUOUS
 90
27
 70
0
 10
-26.3866046193
 20
25.0226171496
 10
-26.3914886364
 20
25.0106484914
 10
-26.3968392399
 20
24.9989552873
 10
-26.4026418182
 20
24.987569469
 10
-26.4088805259
 20
24.9765221288
 10
-26.4155383262
 20
24.9658434347
 10
-26.4225970382
 20
24.9555625479
 10
-26.4300373859
 20
24.9457075434
 10
-26.4378390514
 20
24.9363053332
 10
-26.4459807298
 20
24.9273815927
 10
-26.4544401881
 20
24.9189606907
 10
-26.4631943252
 20
24.9110656231
 10
-26.4722192353
 20
24.9037179495
 10
-26.4814902733
 20
24.896937735
 10
-26.4909821221
 20
24.8907434949
 10
-26.5006688612
 20
24.8851521443
 10
-26.5105240383
 20
24.8801789521
 10
-26.520520741
 20
24.875837499
 10
-26.5306316702
 20
24.8721396406
 10
-26.5408292153
 20
24.869095475
 10
-26.5510855288
 20
24.8667133152
 10
-26.5613726029
 20
24.8649996663
 10
-26.5716623458
 20
24.863959208
 10
-26.5819266582
 20
24.8635947815
 10
-26.5921375106
 20
24.863907382
 10
-26.6022670193
 20
24.8648961559
 10
-26.6122875225
 20
24.866558403
  0
LINE
  5
22B
100
AcDbEntity
  8
RACCORDO
100
AcDbLine
 62
250
  6
CONTINUOUS
 10
-24.2412955899
 20
26.0108976609
 11
-24.2416960843
 21
26.0103852239
  0
LINE
  5
22C
100
AcDbEntity
  8
RACCORDO
100
AcDbLine
 62
250
  6
CONTINUOUS
 10
-24.7853238285
 20
25.4382682348
 11
-24.2570566567
 21
26.0812203905
  0
LINE
  5
22D
100
AcDbEntity
  8
RACCORDO
100
AcDbLine
 62
7
  6
CONTINUOUS
 10
-24.7853238285
 20
25.3487377684
 11
-24.2416960843
 21
26.0103852239
  0
LWPOLYLINE
  5
22E
100
AcDbEntity
  8
RACCORDO
100
AcDbPolyline
 62
7
  6
CONTINUOUS
 90
36
 70
0
 10
-25.6753840112
 20
24.8741136267
 10
-25.682024613
 20
24.8663749446
 10
-25.6889122203
 20
24.8587327062
 10
-25.6960448027
 20
24.8511998957
 10
-25.7034243015
 20
24.8437909689
 10
-25.7110434045
 20
24.8365176733
 10
-25.7188856536
 20
24.8293891173
 10
-25.7269475032
 20
24.8224187681
 10
-25.7352246792
 20
24.8156197891
 10
-25.7436991709
 20
24.8090010595
 10
-25.7523661179
 20
24.8025761422
 10
-25.7612200047
 20
24.7963582548
 10
-25.7702413816
 20
24.7903559925
 10
-25.7794240417
 20
24.7845828657
 10
-25.7887611717
 20
24.7790520165
 10
-25.7982319463
 20
24.773771736
 10
-25.8078287832
 20
24.7687553208
 10
-25.8175435061
 20
24.7640156956
 10
-25.8273539041
 20
24.7595608491
 10
-25.8372509726
 20
24.7554036861
 10
-25.847225115
 20
24.7515567354
 10
-25.8572526884
 20
24.7480276573
 10
-25.8673232084
 20
24.7448287519
 10
-25.8774256114
 20
24.7419719275
 10
-25.8875347745
 20
24.7394644273
 10
-25.8976386673
 20
24.7373176839
 10
-25.9077247419
 20
24.7355426995
 10
-25.9177664177
 20
24.7341461106
 10
-25.9277500438
 20
24.7331381596
 10
-25.9376616317
 20
24.7325285853
 10
-25.9474733594
 20
24.7323231111
 10
-25.957169914
 20
24.7325303995
 10
-25.9667359696
 20
24.7331585169
 10
-25.9761429248
 20
24.734211892
 10
-25.9853634572
 20
24.7356952535
 10
-25.9892532766
 20
24.7364635279
  0
LWPOLYLINE
  5
22F
100
AcDbEntity
  8
RACCORDO
100
AcDbPolyline
 62
7
  6
CONTINUOUS
 90
40
 70
0
 10
-32.0233092513
 20
22.3125787472
 10
-32.0514835904
 20
22.2956951758
 10
-32.0910808417
 20
22.2704043005
 10
-32.1300708474
 20
22.2436690657
 10
-32.16845083
 20
22.2155166496
 10
-32.2061938018
 20
22.1859915819
 10
-32.2432415491
 20
22.155164335
 10
-32.279581118
 20
22.1230722833
 10
-32.3151988016
 20
22.0897512808
 10
-32.3500327096
 20
22.0552826439
 10
-32.3840691583
 20
22.0197067092
 10
-32.4172949671
 20
21.9830599949
 10
-32.4496496523
 20
21.9454335667
 10
-32.4811118467
 20
21.9068801487
 10
-32.5116768808
 20
21.8674288557
 10
-32.5413103492
 20
21.8271481606
 10
-32.5699927916
 20
21.7860880547
 10
-32.597716317
 20
21.7442802504
 10
-32.6244627466
 20
21.7017718152
 10
-32.6502140167
 20
21.658607176
 10
-32.6749579185
 20
21.6148214797
 10
-32.6986815135
 20
21.570448757
 10
-32.72136524
 20
21.5255320436
 10
-32.7429949149
 20
21.4801054998
 10
-32.7635606987
 20
21.4341880122
 10
-32.7830448087
 20
21.3878122418
 10
-32.8014254272
 20
21.3410199298
 10
-32.8186835233
 20
21.2938410647
 10
-32.8348005009
 20
21.2463040281
 10
-32.8497505315
 20
21.1984535343
 10
-32.8635058388
 20
21.1503410083
 10
-32.8760446015
 20
21.1020007273
 10
-32.8873418418
 20
21.0534703866
 10
-32.897370187
 20
21.0048017918
 10
-32.9061052156
 20
20.9560314913
 10
-32.9135207489
 20
20.9071945974
 10
-32.9195897825
 20
20.8583321104
 10
-32.924284126
 20
20.8094776091
 10
-32.9275747216
 20
20.7606683444
 10
-32.9290109304
 20
20.727038749
  0
LINE
  5
230
100
AcDbEntity
  8
RACCORDO
100
AcDbLine
 62
7
  6
CONTINUOUS
 10
-32.023316436
 20
22.3125746733
 11
-27.4343416092
 21
24.9883673152
  0
LINE
  5
231
100
AcDbEntity
  8
RACCORDO
100
AcDbLine
 62
250
  6
CONTINUOUS
 10
-27.4343416092
 20
24.8435331388
 11
-31.7899623884
 21
22.3038072802
  0
LWPOLYLINE
  5
232
100
AcDbEntity
  8
RACCORDO
100
AcDbPolyline
 62
250
  6
CONTINUOUS
 90
17
 70
0
 10
-32.0233093014
 20
22.3125788332
 10
-32.0208577737
 20
22.3139821401
 10
-32.0082213025
 20
22.3204338999
 10
-31.9950491117
 20
22.3258905426
 10
-31.9813710057
 20
22.3303397217
 10
-31.9672179339
 20
22.3337713698
 10
-31.9526219202
 20
22.3361777224
 10
-31.9376159909
 20
22.3375533346
 10
-31.9222340998
 20
22.3378950938
 10
-31.9065110511
 20
22.3372022267
 10
-31.8904824214
 20
22.3354763011
 10
-31.8741844785
 20
22.3327212221
 10
-31.8576540993
 20
22.3289432237
 10
-31.8409286872
 20
22.3241508543
 10
-31.8240460864
 20
22.3183549575
 10
-31.8070444971
 20
22.3115686477
 10
-31.7899623884
 20
22.3038072802
  0
LINE
  5
233
100
AcDbEntity
  8
RACCORDO
100
AcDbLine
 62
7
  6
CONTINUOUS
 10
-24.6837982858
 20
24.6198167975
 11
-25.6753840112
 21
24.066481505
  0
LINE
  5
234
100
AcDbEntity
  8
RACCORDO
100
AcDbLine
 62
250
  6
CONTINUOUS
 10
-26.3056063996
 20
27.1419570598
 11
-27.8883630028
 21
26.3299729625
  0
LINE
  5
235
100
AcDbEntity
  8
RACCORDO
100
AcDbLine
 62
250
  6
CONTINUOUS
 10
-24.9620975321
 20
26.470202626
 11
-26.563378323
 21
25.6674806225
  0
LINE
  5
236
100
AcDbEntity
  8
RACCORDO
100
AcDbLine
 62
250
  6
CONTINUOUS
 10
-24.7853238285
 20
26.1653130872
 11
-26.3866046193
 21
25.3625910837
  0
LINE
  5
237
100
AcDbEntity
  8
RACCORDO
100
AcDbLine
 62
7
  6
CONTINUOUS
 10
-26.4165386131
 20
27.1494872051
 11
-26.4182750267
 21
27.1486189839
  0
LINE
  5
238
100
AcDbEntity
  8
RACCORDO
100
AcDbLine
 62
250
  6
CONTINUOUS
 10
-24.4338303604
 20
26.7336414461
 11
-24.9620975321
 21
26.470202626
  0
LINE
  5
239
100
AcDbEntity
  8
RACCORDO
100
AcDbLine
 62
250
  6
CONTINUOUS
 10
-24.2570566567
 20
26.4287519073
 11
-24.7853238285
 21
26.1653130872
  0
LINE
  5
23A
100
AcDbEntity
  8
RACCORDO
100
AcDbLine
 62
7
  6
CONTINUOUS
 10
-25.8816686321
 20
27.4100393174
 11
-26.4165385898
 21
27.149487217
  0
LINE
  5
23B
100
AcDbEntity
  8
RACCORDO
100
AcDbLine
 62
250
  6
CONTINUOUS
 10
-25.771156521
 20
27.4023045264
 11
-26.3056063996
 21
27.1419570598
  0
LWPOLYLINE
  5
23C
100
AcDbEntity
  8
RACCORDO
100
AcDbPolyline
 62
250
  6
CONTINUOUS
 90
18
 70
0
 10
-32.9290109304
 20
20.727038749
 10
-32.9288027504
 20
20.7156448406
 10
-32.9274807259
 20
20.7044708427
 10
-32.9250550185
 20
20.6933109162
 10
-32.9215310019
 20
20.6821897837
 10
-32.9169164828
 20
20.671132082
 10
-32.9112216838
 20
20.6601623075
 10
-32.9044592208
 20
20.6493047614
 10
-32.8966440745
 20
20.6385834968
 10
-32.8877935581
 20
20.6280222645
 10
-32.8779272782
 20
20.617644461
 10
-32.8670670916
 20
20.6074730762
 10
-32.855237057
 20
20.5975306431
 10
-32.8424633818
 20
20.5878391871
 10
-32.8287743634
 20
20.5784201779
 10
-32.8142003274
 20
20.5692944815
 10
-32.7987735597
 20
20.5604823141
 10
-32.7825282355
 20
20.5520031975
  0
LINE
  5
23D
100
AcDbEntity
  8
RACCORDO
100
AcDbLine
 62
7
  6
CONTINUOUS
 10
-22.4165041101
 20
24.2330440129
 11
-22.0629627209
 21
24.4144174378
  0
LINE
  5
23E
100
AcDbEntity
  8
RACCORDO
100
AcDbLine
 62
7
  6
CONTINUOUS
 10
-17.0565699395
 20
27.7079387308
 11
-23.3711102661
 21
24.5631624263
  0
LINE
  5
23F
100
AcDbEntity
  8
ASSI
100
AcDbLine
 62
7
  6
CONTINUOUS
 10
-16.1212088803
 20
26.7110956859
 11
-20.7194598366
 21
24.4447343884
  0
LINE
  5
240
100
AcDbEntity
  8
ASSI
100
AcDbLine
 62
7
  6
CONTINUOUS
 10
-22.0629627209
 20
24.4144174378
 11
-16.7267393149
 21
27.0138609033
  0
LINE
  5
241
100
AcDbEntity
  8
DRAFT
100
AcDbLine
 62
7
  6
CONTINUOUS
 10
-24.7853238285
 20
24.5707201155
 11
-24.6837982858
 21
24.6198167975
  0
LWPOLYLINE
  5
242
100
AcDbEntity
  8
ASSI
100
AcDbPolyline
 62
7
  6
CONTINUOUS
 90
7
 70
0
 10
-16.1212088803
 20
26.7110956859
 10
-16.1129996209
 20
26.715023171
 10
-16.1048156632
 20
26.7187082332
 10
-16.0966570071
 20
26.7221508725
 10
-16.0885236527
 20
26.7253510889
 10
-16.0804155999
 20
26.7283088824
 10
-16.0723328488
 20
26.731024253
  0
LINE
  5
243
100
AcDbEntity
  8
C_CORPO
100
AcDbLine
 62
7
  6
CONTINUOUS
 10
-14.3968444339
 20
27.7976621076
 11
-15.6171342264
 21
27.2340918424
  0
LINE
  5
244
100
AcDbEntity
  8
C_CORPO
100
AcDbLine
 62
250
  6
CONTINUOUS
 10
-14.4016960522
 20
27.5602916093
 11
-15.3726740901
 21
27.1118617742
  0
LWPOLYLINE
  5
245
100
AcDbEntity
  8
RACCORDO
100
AcDbPolyline
 62
250
  6
CONTINUOUS
 90
19
 70
0
 10
-28.0641112588
 20
25.6856222134
 10
-28.0638914041
 20
25.6749375568
 10
-28.0632323868
 20
25.6644993304
 10
-28.0621358461
 20
25.6543334979
 10
-28.0606045152
 20
25.6444653794
 10
-28.0586421999
 20
25.6349194847
 10
-28.0562537541
 20
25.6257194643
 10
-28.053445084
 20
25.6168881524
 10
-28.0502231785
 20
25.6084475953
 10
-28.0465960809
 20
25.600418887
 10
-28.0425728013
 20
25.5928219761
 10
-28.0381633587
 20
25.5856757853
 10
-28.0333788222
 20
25.5789982199
 10
-28.0282311887
 20
25.5728059427
 10
-28.0227332208
 20
25.5671142302
 10
-28.016898487
 20
25.561937104
 10
-28.0107402706
 20
25.557286589
 10
-28.0042749964
 20
25.5531753153
 10
-27.9991379623
 20
25.5504037633
  0
LINE
  5
246
100
AcDbEntity
  8
RACCORDO
100
AcDbLine
 62
7
  6
CONTINUOUS
 10
-28.1373345635
 20
26.1139844951
 11
-28.1373345635
 21
25.774010561
  0
LINE
  5
247
100
AcDbEntity
  8
RACCORDO
100
AcDbLine
 62
250
  6
CONTINUOUS
 10
-28.0641112588
 20
26.0255961475
 11
-28.0641112588
 21
25.6856222134
  0
LINE
  5
248
100
AcDbEntity
  8
RACCORDO
100
AcDbLine
 62
7
  6
CONTINUOUS
 10
-27.4343416092
 20
25.2680055867
 11
-27.4343416092
 21
24.814031485
  0
LINE
  5
249
100
AcDbEntity
  8
RACCORDO
100
AcDbLine
 62
250
  6
CONTINUOUS
 10
-27.3611183045
 20
25.2313939343
 11
-27.3611183045
 21
24.7223197902
  0
LWPOLYLINE
  5
24A
100
AcDbEntity
  8
RACCORDO
100
AcDbPolyline
 62
250
  6
CONTINUOUS
 90
31
 70
0
 10
-28.0641112588
 20
26.0255961475
 10
-28.0638706775
 20
26.0370080569
 10
-28.0631495863
 20
26.0486295135
 10
-28.0619499445
 20
26.0604288866
 10
-28.060275012
 20
26.0723740733
 10
-28.0581293455
 20
26.0844325483
 10
-28.0555187909
 20
26.0965714521
 10
-28.0524504574
 20
26.1087577342
 10
-28.0489326961
 20
26.1209582337
 10
-28.0449750869
 20
26.1331397306
 10
-28.040588405
 20
26.1452690662
 10
-28.035784592
 20
26.1573132284
 10
-28.0305767274
 20
26.1692394303
 10
-28.024978982
 20
26.181015225
 10
-28.0190066004
 20
26.1926085474
 10
-28.0126758661
 20
26.2039877996
 10
-28.0060040452
 20
26.2151219674
 10
-27.9990092768
 20
26.225980799
 10
-27.99171054
 20
26.236534835
 10
-27.9841275974
 20
26.2467554777
 10
-27.976281179
 20
26.2566147666
 10
-27.9681928877
 20
26.2660855828
 10
-27.95988492
 20
26.2751420109
 10
-27.9513797476
 20
26.2837596275
 10
-27.9427002849
 20
26.2919152413
 10
-27.9338681944
 20
26.2995882899
 10
-27.9249094114
 20
26.3067560374
 10
-27.9158540745
 20
26.313394944
 10
-27.9067289057
 20
26.3194867414
 10
-27.8975569011
 20
26.3250173887
 10
-27.8883630028
 20
26.3299729625
  0
LWPOLYLINE
  5
24B
100
AcDbEntity
  8
RACCORDO
100
AcDbPolyline
 62
250
  6
CONTINUOUS
 90
31
 70
0
 10
-26.7391265789
 20
25.3631038076
 10
-26.7388861035
 20
25.3745131835
 10
-26.7381653313
 20
25.3861319937
 10
-26.7369662234
 20
25.3979286273
 10
-26.7352920421
 20
25.4098709896
 10
-26.7331473424
 20
25.4219265893
 10
-26.7305379592
 20
25.4340626271
 10
-26.7274709919
 20
25.446246085
 10
-26.7239547846
 20
25.4584438156
 10
-26.7199989038
 20
25.4706226331
 10
-26.7156141121
 20
25.4827494029
 10
-26.7108123391
 20
25.494791132
 10
-26.7056066488
 20
25.5067150589
 10
-26.7000112043
 20
25.5184887426
 10
-26.6940412287
 20
25.5300801507
 10
-26.6877129645
 20
25.5414577468
 10
-26.6810436289
 20
25.5525905763
 10
-26.6740513667
 20
25.5634483504
 10
-26.6667552018
 20
25.5740015287
 10
-26.6591749845
 20
25.5842213995
 10
-26.6513313381
 20
25.5940801578
 10
-26.6432456025
 20
25.6035509814
 10
-26.6349397765
 20
25.6126081031
 10
-26.6264364573
 20
25.6212268816
 10
-26.6177587798
 20
25.629383868
 10
-26.6089303529
 20
25.6370568698
 10
-26.599975196
 20
25.6442250114
 10
-26.5909176731
 20
25.6508687906
 10
-26.5817824266
 20
25.6569701318
 10
-26.5725943107
 20
25.6625124354
 10
-26.563378323
 20
25.6674806225
  0
LWPOLYLINE
  5
24C
100
AcDbEntity
  8
RACCORDO
100
AcDbPolyline
 62
7
  6
CONTINUOUS
 90
5
 70
0
 10
-22.556078385
 20
24.0904305203
 10
-22.5581149283
 20
24.0813091223
 10
-22.5596292871
 20
24.0714755248
 10
-22.5605856708
 20
24.0610173648
 10
-22.5609176571
 20
24.0494715465
  0
LINE
  5
24D
100
AcDbEntity
  8
C_CORPO
100
AcDbLine
 62
7
  6
CONTINUOUS
 10
-18.2618626103
 20
23.2159357753
 11
-17.4833722114
 21
24.0612141764
  0
LINE
  5
24E
100
AcDbEntity
  8
C_CORPO
100
AcDbLine
 62
250
  6
CONTINUOUS
 10
-18.1967465826
 20
23.1833777614
 11
-17.3949016557
 21
24.0540143147
  0
LWPOLYLINE
  5
24F
100
AcDbEntity
  8
C_CORPO
100
AcDbPolyline
 62
250
  6
CONTINUOUS
 90
12
 70
0
 10
-17.3949016557
 20
24.0540143147
 10
-17.3904597433
 20
24.0586026852
 10
-17.3859541828
 20
24.0630351914
 10
-17.3813902588
 20
24.0673066272
 10
-17.3767733761
 20
24.0714119304
 10
-17.3721089003
 20
24.0753463263
 10
-17.3674021464
 20
24.0791053141
 10
-17.3626534381
 20
24.0826882651
 10
-17.357873471
 20
24.0860867414
 10
-17.3530834545
 20
24.0892866386
 10
-17.3482944179
 20
24.0922828822
 10
-17.3435069
 20
24.0950774114
  0
LWPOLYLINE
  5
250
100
AcDbEntity
  8
C_CORPO
100
AcDbPolyline
 62
250
  6
CONTINUOUS
 90
21
 70
0
 10
-17.4833722114
 20
24.0612141764
 10
-17.4814334088
 20
24.0631099589
 10
-17.4789418448
 20
24.0650543129
 10
-17.4761811142
 20
24.0667358264
 10
-17.473156425
 20
24.0681513273
 10
-17.4698734832
 20
24.0692981453
 10
-17.4663384811
 20
24.0701741171
 10
-17.462558088
 20
24.0707775899
 10
-17.4585394383
 20
24.0711074253
 10
-17.4542901157
 20
24.0711630015
 10
-17.4498181348
 20
24.0709442145
 10
-17.445131929
 20
24.0704514772
 10
-17.4402403163
 20
24.0696857151
 10
-17.4351525451
 20
24.0686483744
 10
-17.4298782814
 20
24.0673414302
 10
-17.4244273267
 20
24.0657673105
 10
-17.4188101157
 20
24.0639290278
 10
-17.4130378162
 20
24.0618302752
 10
-17.4071215569
 20
24.0594751759
 10
-17.401072355
 20
24.0568681903
 10
-17.3949016557
 20
24.0540143147
  0
LINE
  5
251
100
AcDbEntity
  8
C_CORPO
100
AcDbLine
 62
7
  6
CONTINUOUS
 10
-17.4312231414
 20
24.1017404254
 11
-17.1340301723
 21
24.2620828503
  0
LINE
  5
252
100
AcDbEntity
  8
C_CORPO
100
AcDbLine
 62
250
  6
CONTINUOUS
 10
-17.3435069
 20
24.0950774114
 11
-17.0425261136
 21
24.2574757952
  0
LWPOLYLINE
  5
253
100
AcDbEntity
  8
C_CORPO
100
AcDbPolyline
 62
250
  6
CONTINUOUS
 90
18
 70
0
 10
-17.4312231414
 20
24.1017404254
 10
-17.4306104425
 20
24.1020673583
 10
-17.4257830028
 20
24.1043996331
 10
-17.420785214
 20
24.1063919211
 10
-17.4156265859
 20
24.1080404312
 10
-17.4103169345
 20
24.1093420267
 10
-17.4048663631
 20
24.1102942309
 10
-17.3992852431
 20
24.1108952318
 10
-17.3935841944
 20
24.1111438858
 10
-17.3877740651
 20
24.11103972
 10
-17.3818659107
 20
24.1105829323
 10
-17.3758709735
 20
24.1097743921
 10
-17.3698006607
 20
24.1086156378
 10
-17.3636665229
 20
24.1071088743
 10
-17.3574802325
 20
24.1052569688
 10
-17.3512535607
 20
24.1030634451
 10
-17.3449983558
 20
24.1005324769
 10
-17.3387265203
 20
24.0976688804
  0
LINE
  5
254
100
AcDbEntity
  8
C_CORPO
100
AcDbLine
 62
7
  6
CONTINUOUS
 10
-17.1340301447
 20
24.2620828631
 11
-17.1298642507
 21
24.2641661212
  0
LINE
  5
255
100
AcDbEntity
  8
0
100
AcDbLine
 62
7
  6
CONTINUOUS
 10
-17.1132152526
 20
24.4342417209
 11
-16.4061084714
 21
24.7877951115
  0
LINE
  5
256
100
AcDbEntity
  8
0
100
AcDbLine
 62
7
  6
CONTINUOUS
 10
-14.6547705743
 20
25.3099106695
 11
-16.0525550808
 21
24.6110184162
  0
LINE
  5
257
100
AcDbEntity
  8
DRAFT
100
AcDbLine
 62
7
  6
CONTINUOUS
 10
-16.4061084714
 20
25.34791099
 11
-16.0723328488
 21
25.5112313452
  0
LINE
  5
258
100
AcDbEntity
  8
RACCORDO
100
AcDbLine
 62
7
  6
CONTINUOUS
 10
-13.9957748229
 20
26.1775411725
 11
-16.0525550808
 21
25.1711342947
  0
LINE
  5
259
100
AcDbEntity
  8
C_CORPO
100
AcDbLine
 62
7
  6
CONTINUOUS
 10
-17.1298642634
 20
24.2641661154
 11
-17.1162938757
 21
24.2704333701
  0
LINE
  5
25A
100
AcDbEntity
  8
C_CORPO
100
AcDbLine
 62
250
  6
CONTINUOUS
 10
-17.0425261136
 20
24.2574757952
 11
-17.0299699907
 21
24.2632746288
  0
LINE
  5
25B
100
AcDbEntity
  8
C_CORPO
100
AcDbLine
 62
7
  6
CONTINUOUS
 10
-17.1298642507
 20
24.2641661212
 11
-17.1286088849
 21
24.2647319807
  0
LWPOLYLINE
  5
25C
100
AcDbEntity
  8
C_CORPO
100
AcDbPolyline
 62
250
  6
CONTINUOUS
 90
55
 70
0
 10
-17.0299699907
 20
24.2632746288
 10
-17.0131700937
 20
24.2708070904
 10
-16.9959516023
 20
24.2780844661
 10
-16.9783145166
 20
24.2851067559
 10
-16.960243028
 20
24.2918795935
 10
-16.9417529451
 20
24.2983973452
 10
-16.9228916936
 20
24.3046431102
 10
-16.9036588211
 20
24.3106159869
 10
-16.8840547801
 20
24.3163168769
 10
-16.8641283543
 20
24.3217315851
 10
-16.8438788198
 20
24.3268593731
 10
-16.8233069004
 20
24.3317009793
 10
-16.802463551
 20
24.3362444233
 10
-16.7813480909
 20
24.3404889707
 10
-16.7599612009
 20
24.344435356
 10
-16.7383558784
 20
24.3480738019
 10
-16.7165315503
 20
24.3514035481
 10
-16.6944887897
 20
24.354425355
 10
-16.6722823141
 20
24.3571317273
 10
-16.6499117369
 20
24.3595218781
 10
-16.6273774446
 20
24.3615965943
 10
-16.6047353139
 20
24.363350742
 10
-16.5819850889
 20
24.3647835253
 10
-16.5591270255
 20
24.3658957401
 10
-16.5362177681
 20
24.3666846395
 10
-16.513257178
 20
24.367149422
 10
-16.4902453938
 20
24.3672908891
 10
-16.4672394755
 20
24.3671086984
 10
-16.4442394365
 20
24.3666020462
 10
-16.4212452634
 20
24.3657717363
 10
-16.3983139761
 20
24.3646198382
 10
-16.3754457479
 20
24.3631455555
 10
-16.3526404055
 20
24.3613496846
 10
-16.329954449
 20
24.3592366848
 10
-16.3073881663
 20
24.3568057694
 10
-16.2849412696
 20
24.3540577252
 10
-16.2626693955
 20
24.3509993715
 10
-16.240572962
 20
24.3476299347
 10
-16.218651551
 20
24.3439501884
 10
-16.1969595447
 20
24.3399692726
 10
-16.1754975454
 20
24.3356864461
 10
-16.1542649507
 20
24.3311024502
 10
-16.1333143367
 20
24.3262286484
 10
-16.1126464093
 20
24.3210643285
 10
-16.0922604626
 20
24.3156102026
 10
-16.0722069542
 20
24.3098797717
 10
-16.0524866335
 20
24.3038723212
 10
-16.0330987511
 20
24.2975885656
 10
-16.0140915168
 20
24.291044149
 10
-15.995465455
 20
24.2842382049
 10
-15.9772200412
 20
24.2771715999
 10
-15.9594019121
 20
24.2698625779
 10
-15.9420266132
 20
24.2623172201
 10
-15.925078599
 20
24.2545294452
 10
-15.9085578694
 20
24.2464992533
  0
LWPOLYLINE
  5
25D
100
AcDbEntity
  8
C_CORPO
100
AcDbPolyline
 62
7
  6
CONTINUOUS
 90
4
 70
0
 10
-17.1286088849
 20
24.2647319807
 10
-17.1236341553
 20
24.2667119611
 10
-17.1185049671
 20
24.2683447595
 10
-17.1132311769
 20
24.2696272149
  0
LWPOLYLINE
  5
25E
100
AcDbEntity
  8
C_CORPO
100
AcDbPolyline
 62
250
  6
CONTINUOUS
 90
16
 70
0
 10
-17.1150425428
 20
24.2709973463
 10
-17.1100910623
 20
24.2729664794
 10
-17.1049918224
 20
24.2745852949
 10
-17.099754526
 20
24.2758507123
 10
-17.0943891388
 20
24.2767603238
 10
-17.0889058702
 20
24.2773123986
 10
-17.0833151537
 20
24.2775058862
 10
-17.0776276276
 20
24.2773404185
 10
-17.0718541142
 20
24.2768163102
 10
-17.0660055994
 20
24.2759345589
 10
-17.0600932119
 20
24.2746968421
 10
-17.0541282019
 20
24.2731055152
 10
-17.0481219197
 20
24.271163606
 10
-17.0420857941
 20
24.2688748099
 10
-17.036031311
 20
24.2662434818
 10
-17.0299699907
 20
24.2632746288
  0
LINE
  5
25F
100
AcDbEntity
  8
RACCORDO
100
AcDbLine
 62
250
  6
CONTINUOUS
 10
5.0171640844
 20
-29.8554941194
 11
4.4888969127
 21
-29.7469918423
  0
LINE
  5
260
100
AcDbEntity
  8
RACCORDO
100
AcDbLine
 62
250
  6
CONTINUOUS
 10
4.927750289
 20
-29.5359273134
 11
4.4888969127
 21
-29.4457899867
  0
LWPOLYLINE
  5
261
100
AcDbEntity
  8
RACCORDO
100
AcDbPolyline
 62
7
  6
CONTINUOUS
 90
40
 70
0
 10
3.5988367299
 20
-30.0626008832
 10
3.5921805212
 20
-30.0611648164
 10
3.5852699324
 20
-30.0596175195
 10
3.5781118994
 20
-30.0579534273
 10
3.5707144439
 20
-30.0561604748
 10
3.5630849617
 20
-30.0542398776
 10
3.5552300677
 20
-30.0522060326
 10
3.5471587078
 20
-30.0500533805
 10
3.5388800966
 20
-30.0477770706
 10
3.5304017381
 20
-30.0453925214
 10
3.5217339986
 20
-30.042894486
 10
3.512887477
 20
-30.0402783806
 10
3.5038705268
 20
-30.0375605607
 10
3.4946949375
 20
-30.0347361499
 10
3.4853727277
 20
-30.0318009015
 10
3.4759131318
 20
-30.0287720403
 10
3.4663293689
 20
-30.0256451294
 10
3.4566349224
 20
-30.0224163347
 10
3.4468400187
 20
-30.0191037016
 10
3.4369593183
 20
-30.0157033222
 10
3.4270078176
 20
-30.0122118592
 10
3.4169969262
 20
-30.0086481396
 10
3.406942757
 20
-30.0050089069
 10
3.3968618582
 20
-30.0012914162
 10
3.3867670654
 20
-29.9975152264
 10
3.3766759443
 20
-29.9936778962
 10
3.3666066014
 20
-29.989777383
 10
3.3565735406
 20
-29.9858338821
 10
3.3465957596
 20
-29.9818459799
 10
3.3366928598
 20
-29.9778124593
 10
3.326881156
 20
-29.9737539588
 10
3.3171810111
 20
-29.9696703444
 10
3.3076133606
 20
-29.9655613611
 10
3.2981962766
 20
-29.9614477527
 10
3.2889399996
 20
-29.9573273291
 10
3.2798785262
 20
-29.9532040638
 10
3.2710634723
 20
-29.9491105659
 10
3.2625236118
 20
-29.9450617217
 10
3.2542678145
 20
-29.9410524579
 10
3.2463147703
 20
-29.9370881594
  0
LWPOLYLINE
  5
262
100
AcDbEntity
  8
RACCORDO
100
AcDbPolyline
 62
250
  6
CONTINUOUS
 90
31
 70
0
 10
2.5350941622
 20
-31.2535585706
 10
2.5445521804
 20
-31.2580471042
 10
2.5544654173
 20
-31.2622829505
 10
2.5648069025
 20
-31.2662545852
 10
2.5755485001
 20
-31.2699512027
 10
2.5866609858
 20
-31.2733627459
 10
2.5981141261
 20
-31.2764799329
 10
2.609876761
 20
-31.279294283
 10
2.621916888
 20
-31.2817981392
 10
2.6342017501
 20
-31.2839846894
 10
2.6466979241
 20
-31.2858479848
 10
2.6593714122
 20
-31.2873829558
 10
2.6721877338
 20
-31.2885854264
 10
2.6851120202
 20
-31.2894521249
 10
2.6981091085
 20
-31.2899806936
 10
2.711143638
 20
-31.2901696941
 10
2.724180146
 20
-31.2900186124
 10
2.7371831645
 20
-31.2895278596
 10
2.7501173165
 20
-31.2886987707
 10
2.7629474126
 20
-31.2875336014
 10
2.7756385463
 20
-31.2860355218
 10
2.7881561892
 20
-31.2842086077
 10
2.8004662849
 20
-31.2820578295
 10
2.8125353417
 20
-31.2795890388
 10
2.8243305237
 20
-31.2768089522
 10
2.8358197402
 20
-31.2737251336
 10
2.8469717326
 20
-31.2703459729
 10
2.8577561603
 20
-31.2666806638
 10
2.8681436823
 20
-31.2627391784
 10
2.8781060375
 20
-31.25853224
 10
2.8876161218
 20
-31.2540712945
  0
LWPOLYLINE
  5
263
100
AcDbEntity
  8
RACCORDO
100
AcDbPolyline
 62
7
  6
CONTINUOUS
 90
24
 70
0
 10
-1.65440122
 20
-31.1911651428
 10
-1.6313513717
 20
-31.2022813703
 10
-1.5988988241
 20
-31.21658051
 10
-1.56579545
 20
-31.2296158104
 10
-1.532069269
 20
-31.2413655588
 10
-1.4977198918
 20
-31.2518165477
 10
-1.4627870836
 20
-31.2609409046
 10
-1.4273148869
 20
-31.2687120871
 10
-1.3913059739
 20
-31.2751141209
 10
-1.354801081
 20
-31.2801226364
 10
-1.3178443945
 20
-31.2837146432
 10
-1.2804391324
 20
-31.2858713725
 10
-1.24262759
 20
-31.2865714526
 10
-1.2044502285
 20
-31.2857954226
 10
-1.1659018617
 20
-31.2835215692
 10
-1.1270191369
 20
-31.2797287182
 10
-1.087843844
 20
-31.2743986066
 10
-1.0483722243
 20
-31.2675054255
 10
-1.0086405318
 20
-31.2590273802
 10
-0.9686849919
 20
-31.2489450119
 10
-0.9284956666
 20
-31.2372250666
 10
-0.8880911007
 20
-31.2238374419
 10
-0.8475256109
 20
-31.2087657678
 10
-0.8198275775
 20
-31.1975273504
  0
LINE
  5
264
100
AcDbEntity
  8
RACCORDO
100
AcDbLine
 62
7
  6
CONTINUOUS
 10
-32.3981120172
 20
-15.8193101913
 11
-1.6543112487
 21
-31.1912105756
  0
LINE
  5
265
100
AcDbEntity
  8
RACCORDO
100
AcDbLine
 62
7
  6
CONTINUOUS
 10
-1.6544026625
 20
-31.1911648585
 11
-1.654311181
 21
-31.1912106094
  0
LINE
  5
266
100
AcDbEntity
  8
RACCORDO
100
AcDbLine
 62
250
  6
CONTINUOUS
 10
-32.7825283985
 20
-15.0632367433
 11
-2.0477797442
 21
-30.4306110705
  0
LWPOLYLINE
  5
267
100
AcDbEntity
  8
RACCORDO
100
AcDbPolyline
 62
250
  6
CONTINUOUS
 90
26
 70
0
 10
-32.4175962644
 20
-15.8090755116
 10
-32.4433465811
 20
-15.7939629516
 10
-32.4683334649
 20
-15.7774278139
 10
-32.4925297316
 20
-15.7594880728
 10
-32.5159100705
 20
-15.740162658
 10
-32.5384490843
 20
-15.7194724644
 10
-32.5601220972
 20
-15.6974399996
 10
-32.5809062484
 20
-15.6740887935
 10
-32.6007789075
 20
-15.6494441466
 10
-32.61971839
 20
-15.6235327566
 10
-32.6377047538
 20
-15.5963823443
 10
-32.6547184423
 20
-15.5680222623
 10
-32.6707408708
 20
-15.5384832212
 10
-32.6857551552
 20
-15.5077969344
 10
-32.6997449273
 20
-15.4759966965
 10
-32.7126949773
 20
-15.4431167773
 10
-32.7245918093
 20
-15.4091921186
 10
-32.7354225644
 20
-15.3742590249
 10
-32.7451752771
 20
-15.3383554926
 10
-32.7538395507
 20
-15.3015206311
 10
-32.7614059307
 20
-15.2637946607
 10
-32.7678662744
 20
-15.225217885
 10
-32.7732139228
 20
-15.1858309534
 10
-32.7774431166
 20
-15.1456759808
 10
-32.7805490831
 20
-15.1047965615
 10
-32.7825283985
 20
-15.0632367433
  0
LWPOLYLINE
  5
268
100
AcDbEntity
  8
RACCORDO
100
AcDbPolyline
 62
250
  6
CONTINUOUS
 90
31
 70
0
 10
-26.3866046193
 20
25.3625910837
 10
-26.3868997086
 20
25.3740192126
 10
-26.3876758777
 20
25.3856597917
 10
-26.388931001
 20
25.397480904
 10
-26.3906616416
 20
25.4094501479
 10
-26.3928630557
 20
25.421534694
 10
-26.395529202
 20
25.433701374
 10
-26.3986527666
 20
25.4459168191
 10
-26.4022251853
 20
25.458147542
 10
-26.406236658
 20
25.4703599968
 10
-26.4106761836
 20
25.4825206974
 10
-26.4155315868
 20
25.4945962997
 10
-26.4207895479
 20
25.5065536834
 10
-26.4264356513
 20
25.5183600717
 10
-26.4324544092
 20
25.5299830843
 10
-26.438829296
 20
25.5413908186
 10
-26.4455427997
 20
25.5525519562
 10
-26.4525765317
 20
25.5634359445
 10
-26.4599112667
 20
25.5740130364
 10
-26.4675270011
 20
25.5842543639
 10
-26.475402759
 20
25.5941316979
 10
-26.4835166862
 20
25.6036176564
 10
-26.4918463461
 20
25.6126860868
 10
-26.500369047
 20
25.6213123602
 10
-26.5090616615
 20
25.6294730955
 10
-26.5179022015
 20
25.6371474557
 10
-26.5268646409
 20
25.6443126571
 10
-26.5359190179
 20
25.6509452836
 10
-26.5450385738
 20
25.6570269741
 10
-26.5542000382
 20
25.6625434399
 10
-26.563378323
 20
25.6674806225
  0
LWPOLYLINE
  5
269
100
AcDbEntity
  8
RACCORDO
100
AcDbPolyline
 62
7
  6
CONTINUOUS
 90
31
 70
0
 10
-24.7853238285
 20
26.1653130872
 10
-24.7855658704
 20
26.1767652027
 10
-24.7862920178
 20
26.1884280579
 10
-24.7875001469
 20
26.200269757
 10
-24.7891867125
 20
26.2122579652
 10
-24.7913470854
 20
26.2243598298
 10
-24.7939755645
 20
26.2365420702
 10
-24.7970648773
 20
26.2487713338
 10
-24.8006064391
 20
26.2610141619
 10
-24.8045907033
 20
26.2732369137
 10
-24.8090067126
 20
26.2854061086
 10
-24.813842274
 20
26.2974884378
 10
-24.8190842301
 20
26.3094507296
 10
-24.8247182085
 20
26.3212602002
 10
-24.8307287082
 20
26.332884511
 10
-24.8370992846
 20
26.3442917779
 10
-24.8438125044
 20
26.3554507215
 10
-24.8508499403
 20
26.3663307705
 10
-24.8581922663
 20
26.3769021143
 10
-24.8658194173
 20
26.387135749
 10
-24.8737104939
 20
26.3970036237
 10
-24.8818437656
 20
26.4064787366
 10
-24.8901970298
 20
26.4155350737
 10
-24.8987474303
 20
26.4241477954
 10
-24.9074713676
 20
26.4322933744
 10
-24.9163450493
 20
26.4399494269
 10
-24.9253442251
 20
26.4470949367
 10
-24.9344440091
 20
26.4537104297
 10
-24.9436194687
 20
26.459777772
 10
-24.9528456934
 20
26.4652802195
 10
-24.9620975321
 20
26.470202626
  0
LWPOLYLINE
  5
26A
100
AcDbEntity
  8
RACCORDO
100
AcDbPolyline
 62
250
  6
CONTINUOUS
 90
19
 70
0
 10
-26.7391265789
 20
25.0231298734
 10
-26.7389067243
 20
25.0124452169
 10
-26.738247707
 20
25.0020069905
 10
-26.7371511662
 20
24.991841158
 10
-26.7356198353
 20
24.9819730395
 10
-26.7336575201
 20
24.9724271448
 10
-26.7312690742
 20
24.9632271244
 10
-26.7284604042
 20
24.9543958125
 10
-26.7252384986
 20
24.9459552554
 10
-26.7216114011
 20
24.9379265471
 10
-26.7175881214
 20
24.9303296362
 10
-26.7131786789
 20
24.9231834454
 10
-26.7083941423
 20
24.91650588
 10
-26.7032465089
 20
24.9103136027
 10
-26.6977485409
 20
24.9046218903
 10
-26.6919138072
 20
24.8994447641
 10
-26.6857555908
 20
24.8947942491
 10
-26.6792903166
 20
24.8906829754
 10
-26.6741641117
 20
24.8879168388
  0
LINE
  5
26B
100
AcDbEntity
  8
RACCORDO
100
AcDbLine
 62
250
  6
CONTINUOUS
 10
-26.7391265789
 20
25.0231298734
 11
-26.7391265789
 21
25.3631038076
  0
LINE
  5
26C
100
AcDbEntity
  8
RACCORDO
100
AcDbLine
 62
250
  6
CONTINUOUS
 10
-26.3866046193
 20
25.0226171496
 11
-26.3866046193
 21
25.3625910837
  0
LINE
  5
26D
100
AcDbEntity
  8
RACCORDO
100
AcDbLine
 62
250
  6
CONTINUOUS
 10
-26.0279059708
 20
24.7445342463
 11
-26.0279059708
 21
24.0557136233
  0
LINE
  5
26E
100
AcDbEntity
  8
RACCORDO
100
AcDbLine
 62
250
  6
CONTINUOUS
 10
-25.6753840112
 20
24.8741136267
 11
-25.6753840112
 21
24.066481505
  0
LINE
  5
26F
100
AcDbEntity
  8
RACCORDO
100
AcDbLine
 62
7
  6
CONTINUOUS
 10
-24.7853238285
 20
24.5707201155
 11
-24.7853238285
 21
26.1653130872
  0
LINE
  5
270
100
AcDbEntity
  8
RACCORDO
100
AcDbLine
 62
250
  6
CONTINUOUS
 10
-24.2570566567
 20
26.4287519073
 11
-24.2570566567
 21
26.0812203905
  0
LINE
  5
271
100
AcDbEntity
  8
RACCORDO
100
AcDbLine
 62
7
  6
CONTINUOUS
 10
-24.1848587997
 20
26.5166245394
 11
-24.1848587997
 21
26.1690930227
  0
LWPOLYLINE
  5
272
100
AcDbEntity
  8
RACCORDO
100
AcDbPolyline
 62
250
  6
CONTINUOUS
 90
16
 70
0
 10
-24.1848587997
 20
26.5166245394
 10
-24.1851600703
 20
26.5104897106
 10
-24.1861397889
 20
26.5039867624
 10
-24.1877964778
 20
26.4975181982
 10
-24.1901256294
 20
26.4911016314
 10
-24.1931209096
 20
26.4847545203
 10
-24.1967741685
 20
26.4784941435
 10
-24.2010754666
 20
26.4723375404
 10
-24.2060130991
 20
26.4663014699
 10
-24.2115736244
 20
26.4604023675
 10
-24.2177419135
 20
26.454656286
 10
-24.2245011748
 20
26.4490788704
 10
-24.2318329887
 20
26.4436853181
 10
-24.2397173868
 20
26.4384903136
 10
-24.2481329126
 20
26.4335079901
 10
-24.2570566567
 20
26.4287519073
  0
LWPOLYLINE
  5
273
100
AcDbEntity
  8
RACCORDO
100
AcDbPolyline
 62
250
  6
CONTINUOUS
 90
16
 70
0
 10
-24.1848587998
 20
26.1690907104
 10
-24.185161723
 20
26.1629413997
 10
-24.18614296
 20
26.1564396528
 10
-24.1878009178
 20
26.1499723338
 10
-24.1901310842
 20
26.143557042
 10
-24.1931271197
 20
26.1372112297
 10
-24.1967808762
 20
26.1309521577
 10
-24.2010824209
 20
26.1247968471
 10
-24.2060200466
 20
26.1187620554
 10
-24.2115802996
 20
26.1128642236
 10
-24.2177480331
 20
26.1071194093
 10
-24.2245064717
 20
26.1015432298
 10
-24.2318372424
 20
26.0961508414
 10
-24.2397204065
 20
26.0909569115
 10
-24.248134509
 20
26.0859755768
 10
-24.2570566567
 20
26.0812203905
  0
LINE
  5
274
100
AcDbEntity
  8
C_CORPO
100
AcDbLine
 62
250
  6
CONTINUOUS
 10
-14.9401563375
 20
22.3787277866
 11
-14.6432345779
 21
22.6849746185
  0
LWPOLYLINE
  5
275
100
AcDbEntity
  8
C_CORPO
100
AcDbPolyline
 62
250
  6
CONTINUOUS
 90
12
 70
0
 10
-14.6432345779
 20
22.6849746185
 10
-14.6387396138
 20
22.6893974517
 10
-14.634186582
 20
22.6936599327
 10
-14.6295808003
 20
22.6977570831
 10
-14.6249276481
 20
22.7016841175
 10
-14.6202325601
 20
22.7054364492
 10
-14.6155010201
 20
22.7090096957
 10
-14.6107385545
 20
22.7123996834
 10
-14.6059507256
 20
22.715602453
 10
-14.6011431254
 20
22.7186142637
 10
-14.5963213693
 20
22.7214315978
 10
-14.5914910888
 20
22.7240511647
  0
LINE
  5
276
100
AcDbEntity
  8
DRAFT
100
AcDbLine
 62
7
  6
CONTINUOUS
 10
-15.7400719875
 20
20.1479536484
 11
-15.8404230465
 21
20.0907120353
  0
LINE
  5
277
100
AcDbEntity
  8
RACCORDO
100
AcDbLine
 62
7
  6
CONTINUOUS
 10
-15.8404230465
 20
20.0907120353
 11
-16.1981021957
 21
19.8911160834
  0
LINE
  5
278
100
AcDbEntity
  8
RACCORDO
100
AcDbLine
 62
7
  6
CONTINUOUS
 10
-13.0539568392
 20
20.4664599135
 11
-14.6371305045
 21
19.6542618554
  0
LINE
  5
279
100
AcDbEntity
  8
RACCORDO
100
AcDbLine
 62
250
  6
CONTINUOUS
 10
-12.9412882352
 20
20.4597979776
 11
-14.5240448384
 21
19.6478138802
  0
LINE
  5
27A
100
AcDbEntity
  8
C_CORPO
100
AcDbLine
 62
250
  6
CONTINUOUS
 10
-14.5914910888
 20
22.7240511647
 11
-14.2847665887
 21
22.8785960327
  0
LINE
  5
27B
100
AcDbEntity
  8
RACCORDO
100
AcDbLine
 62
7
  6
CONTINUOUS
 10
-16.1981021957
 20
21.1238430557
 11
-15.8404230465
 21
21.3031476005
  0
LINE
  5
27C
100
AcDbEntity
  8
RACCORDO
100
AcDbLine
 62
7
  6
CONTINUOUS
 10
-13.0522204487
 20
20.4673281229
 11
-13.0539568623
 21
20.4664599016
  0
LINE
  5
27D
100
AcDbEntity
  8
ASSI
100
AcDbLine
 62
7
  6
CONTINUOUS
 10
-15.8404230465
 20
21.3031476005
 11
-10.5659309773
 21
23.9334567344
  0
LINE
  5
27E
100
AcDbEntity
  8
C_CORPO
100
AcDbLine
 62
250
  6
CONTINUOUS
 10
-14.2847665887
 20
22.8785960327
 11
-13.7265301782
 21
23.1554854077
  0
LINE
  5
27F
100
AcDbEntity
  8
DRAFT
100
AcDbLine
 62
7
  6
CONTINUOUS
 10
-15.7400719875
 20
20.1479536484
 11
-10.5155889762
 21
22.7346011564
  0
LINE
  5
280
100
AcDbEntity
  8
ASSI
100
AcDbLine
 62
7
  6
CONTINUOUS
 10
-11.171461412
 20
24.2362219518
 11
-15.7697123683
 21
21.9698606543
  0
LINE
  5
281
100
AcDbEntity
  8
RACCORDO
100
AcDbLine
 62
7
  6
CONTINUOUS
 10
-9.7531341358
 20
24.056220829
 11
-10.3919949124
 21
23.7436187039
  0
LINE
  5
282
100
AcDbEntity
  8
RACCORDO
100
AcDbLine
 62
7
  6
CONTINUOUS
 10
-12.5173504676
 20
20.7278802352
 11
-13.0522204253
 21
20.4673281348
  0
LINE
  5
283
100
AcDbEntity
  8
RACCORDO
100
AcDbLine
 62
250
  6
CONTINUOUS
 10
-12.4068383565
 20
20.7201454441
 11
-12.9412882352
 21
20.4597979776
  0
LWPOLYLINE
  5
284
100
AcDbEntity
  8
ASSI
100
AcDbPolyline
 62
7
  6
CONTINUOUS
 90
7
 70
0
 10
-11.171461412
 20
24.2362219518
 10
-11.1632521526
 20
24.2401494369
 10
-11.1550681949
 20
24.2438344991
 10
-11.1469095388
 20
24.2472771384
 10
-11.1387761844
 20
24.2504773548
 10
-11.1306681316
 20
24.2534351483
 10
-11.1225853805
 20
24.2561505189
  0
LWPOLYLINE
  5
285
100
AcDbEntity
  8
RACCORDO
100
AcDbPolyline
 62
7
  6
CONTINUOUS
 90
20
 70
0
 10
-9.7531341358
 20
24.056220829
 10
-9.7267863769
 20
24.0685072909
 10
-9.7005558707
 20
24.0795470793
 10
-9.6744426171
 20
24.0893401941
 10
-9.648410822
 20
24.0978967261
 10
-9.6224962795
 20
24.1052065845
 10
-9.5968063725
 20
24.1112394967
 10
-9.5713420671
 20
24.1159901508
 10
-9.5461023971
 20
24.1194638587
 10
-9.5211918473
 20
24.1216462839
 10
-9.4966119108
 20
24.1225321063
 10
-9.4723610944
 20
24.1221266458
 10
-9.4485394039
 20
24.1204315257
 10
-9.4251483336
 20
24.1174413623
 10
-9.4021863892
 20
24.1131615392
 10
-9.379749093
 20
24.1076098297
 10
-9.3578388836
 20
24.1007810218
 10
-9.3364533225
 20
24.0926803275
 10
-9.3156806162
 20
24.083341156
 10
-9.3120849519
 20
24.0815672051
  0
LINE
  5
286
100
AcDbEntity
  8
RACCORDO
100
AcDbLine
 62
7
  6
CONTINUOUS
 10
-16.7617694985
 20
20.9915653915
 11
-16.8607278619
 21
20.9622537334
  0
LWPOLYLINE
  5
287
100
AcDbEntity
  8
ASSI
100
AcDbPolyline
 62
7
  6
CONTINUOUS
 90
17
 70
0
 10
-11.1225853805
 20
24.2561505189
 10
-11.1115526557
 20
24.2593674166
 10
-11.099955508
 20
24.2619512319
 10
-11.0877909676
 20
24.2638848401
 10
-11.0750321885
 20
24.26516936
 10
-11.0617040518
 20
24.2657668468
 10
-11.0478903693
 20
24.2656052945
 10
-11.0336026171
 20
24.2646564083
 10
-11.0188523559
 20
24.2629198698
 10
-11.0037375955
 20
24.2603748589
 10
-10.9883133899
 20
24.2570117951
 10
-10.972567263
 20
24.2528235556
 10
-10.9565017462
 20
24.2477971757
 10
-10.9401754526
 20
24.2419413319
 10
-10.9235760366
 20
24.235230632
 10
-10.9065960668
 20
24.2275925985
 10
-10.8958132251
 20
24.2223510442
  0
LWPOLYLINE
  5
288
100
AcDbEntity
  8
RACCORDO
100
AcDbPolyline
 62
7
  6
CONTINUOUS
 90
4
 70
0
 10
-16.8607278619
 20
20.9622537334
 10
-16.8825474187
 20
20.9559263822
 10
-16.8929968511
 20
20.9529662469
 10
-16.903146115
 20
20.9501636309
  0
LWPOLYLINE
  5
289
100
AcDbEntity
  8
RACCORDO
100
AcDbPolyline
 62
250
  6
CONTINUOUS
 90
31
 70
0
 10
2.5350941622
 20
-30.9135846365
 10
2.5445521804
 20
-30.9180731701
 10
2.5544654173
 20
-30.9223090164
 10
2.5648069025
 20
-30.9262806511
 10
2.5755485001
 20
-30.9299772686
 10
2.5866609858
 20
-30.9333888117
 10
2.5981141261
 20
-30.9365059987
 10
2.609876761
 20
-30.9393203488
 10
2.621916888
 20
-30.9418242051
 10
2.6342017501
 20
-30.9440107553
 10
2.6466979241
 20
-30.9458740506
 10
2.6593714122
 20
-30.9474090217
 10
2.6721877338
 20
-30.9486114922
 10
2.6851120202
 20
-30.9494781908
 10
2.6981091085
 20
-30.9500067594
 10
2.711143638
 20
-30.95019576
 10
2.724180146
 20
-30.9500446783
 10
2.7371831645
 20
-30.9495539254
 10
2.7501173165
 20
-30.9487248365
 10
2.7629474126
 20
-30.9475596673
 10
2.7756385463
 20
-30.9460615877
 10
2.7881561892
 20
-30.9442346736
 10
2.8004662849
 20
-30.9420838954
 10
2.8125353417
 20
-30.9396151046
 10
2.8243305237
 20
-30.9368350181
 10
2.8358197402
 20
-30.9337511995
 10
2.8469717326
 20
-30.9303720388
 10
2.8577561603
 20
-30.9267067297
 10
2.8681436823
 20
-30.9227652442
 10
2.8781060375
 20
-30.9185583059
 10
2.8876161218
 20
-30.9140973603
  0
LWPOLYLINE
  5
28A
100
AcDbEntity
  8
RACCORDO
100
AcDbPolyline
 62
250
  6
CONTINUOUS
 90
5
 70
0
 10
4.9511590144
 20
-29.5440115268
 10
4.9495853149
 20
-29.5432431118
 10
4.942557615
 20
-29.5402369063
 10
4.9352732335
 20
-29.5377962833
 10
4.927750289
 20
-29.5359273134
  0
LINE
  5
28B
100
AcDbEntity
  8
RACCORDO
100
AcDbLine
 62
7
  6
CONTINUOUS
 10
1.2750827788
 20
-30.7262846808
 11
2.6000674586
 21
-31.3887770207
  0
LINE
  5
28C
100
AcDbEntity
  8
RACCORDO
100
AcDbLine
 62
250
  6
CONTINUOUS
 10
1.2101094824
 20
-30.5910662307
 11
2.5350941622
 21
-31.2535585706
  0
LINE
  5
28D
100
AcDbEntity
  8
RACCORDO
100
AcDbLine
 62
250
  6
CONTINUOUS
 10
2.5350941622
 20
-30.9135846365
 11
1.3126907918
 21
-30.3023829513
  0
LINE
  5
28E
100
AcDbEntity
  8
RACCORDO
100
AcDbLine
 62
250
  6
CONTINUOUS
 10
2.6234825098
 20
-30.6818904627
 11
1.612647882
 21
-30.1764731487
  0
LINE
  5
28F
100
AcDbEntity
  8
RACCORDO
100
AcDbLine
 62
7
  6
CONTINUOUS
 10
2.761011742
 20
-29.6944366452
 11
3.2458005419
 21
-29.9368310452
  0
LINE
  5
290
100
AcDbEntity
  8
RACCORDO
100
AcDbLine
 62
250
  6
CONTINUOUS
 10
4.4888969127
 20
-29.3165006252
 11
4.927750289
 21
-29.5359273134
  0
LINE
  5
291
100
AcDbEntity
  8
RACCORDO
100
AcDbLine
 62
7
  6
CONTINUOUS
 10
4.4888969127
 20
-29.3128804757
 11
4.9511653403
 21
-29.5440146895
  0
LWPOLYLINE
  5
292
100
AcDbEntity
  8
RACCORDO
100
AcDbPolyline
 62
250
  6
CONTINUOUS
 90
16
 70
0
 10
1.2101094824
 20
-30.5910662307
 10
1.2011324151
 20
-30.5863372216
 10
1.1926607225
 20
-30.5813806031
 10
1.1847174532
 20
-30.5762098605
 10
1.1773242181
 20
-30.5708390617
 10
1.1705011319
 20
-30.5652828189
 10
1.1642667578
 20
-30.5595562487
 10
1.1586380577
 20
-30.5536749313
 10
1.1536303452
 20
-30.5476548678
 10
1.1492572447
 20
-30.5415124368
 10
1.1455306541
 20
-30.5352643497
 10
1.142460712
 20
-30.5289276057
 10
1.1400557709
 20
-30.5225194449
 10
1.1383223737
 20
-30.5160573017
 10
1.1372652365
 20
-30.5095587575
 10
1.1368861777
 20
-30.5026778831
  0
LWPOLYLINE
  5
293
100
AcDbEntity
  8
RACCORDO
100
AcDbPolyline
 62
7
  6
CONTINUOUS
 90
23
 70
0
 10
-20.9271348223
 20
-12.9718172526
 10
-20.9255155683
 20
-12.9757816912
 10
-20.9218189826
 20
-12.9842176221
 10
-20.9177950411
 20
-12.9926375491
 10
-20.9134608904
 20
-13.001018913
 10
-20.9088244277
 20
-13.0093630518
 10
-20.9038936289
 20
-13.0176722945
 10
-20.8986841558
 20
-13.0259250031
 10
-20.8932033294
 20
-13.0341229367
 10
-20.8874590331
 20
-13.0422680931
 10
-20.8814667307
 20
-13.0503388302
 10
-20.8752337052
 20
-13.0583368867
 10
-20.8687676235
 20
-13.0662644985
 10
-20.8620839269
 20
-13.0741005801
 10
-20.8551893311
 20
-13.081847586
 10
-20.8480919449
 20
-13.0895072832
 10
-20.8408091333
 20
-13.0970575542
 10
-20.8333477218
 20
-13.1045009944
 10
-20.8257159831
 20
-13.1118396577
 10
-20.8179337641
 20
-13.1190508428
 10
-20.8100130132
 20
-13.1261287861
 10
-20.8019574762
 20
-13.1330845113
 10
-20.7937749123
 20
-13.1399206872
  0
LWPOLYLINE
  5
294
100
AcDbEntity
  8
RACCORDO
100
AcDbPolyline
 62
250
  6
CONTINUOUS
 90
7
 70
0
 10
-22.6480564385
 20
-13.5168208115
 10
-23.2417929193
 20
-12.0343237097
 10
-23.8327707729
 20
-10.5503695905
 10
-24.4209898278
 20
-9.0649678072
 10
-25.0064499339
 20
-7.5781277246
 10
-25.5891509627
 20
-6.0898587187
 10
-26.1690928071
 20
-4.600170177
  0
LWPOLYLINE
  5
295
100
AcDbEntity
  8
RACCORDO
100
AcDbPolyline
 62
250
  6
CONTINUOUS
 90
7
 70
0
 10
-22.3648307703
 20
-13.0914343059
 10
-22.9213180884
 20
-11.7013604745
 10
-23.4753815637
 20
-10.3100166584
 10
-24.0270211961
 20
-8.9174028575
 10
-24.5762369857
 20
-7.5235190719
 10
-25.1230289324
 20
-6.1283653016
 10
-25.665011295
 20
-4.7380614972
  0
LWPOLYLINE
  5
296
100
AcDbEntity
  8
RACCORDO
100
AcDbPolyline
 62
7
  6
CONTINUOUS
 90
10
 70
0
 10
-24.297271628
 20
-4.384582279
 10
-23.983283874
 20
-5.1965259285
 10
-23.5964688698
 20
-6.1933627172
 10
-23.2084422834
 20
-7.1895494198
 10
-22.8192051808
 20
-8.1850834032
 10
-22.4287586158
 20
-9.1799620646
 10
-22.0371036306
 20
-10.1741828316
 10
-21.6442412784
 20
-11.167743102
 10
-21.2501726171
 20
-12.1606402622
 10
-20.9271358627
 20
-12.9718146441
  0
LWPOLYLINE
  5
297
100
AcDbEntity
  8
RACCORDO
100
AcDbPolyline
 62
250
  6
CONTINUOUS
 90
7
 70
0
 10
-24.2953600931
 20
-4.2135008536
 10
-23.7185264298
 20
-5.7048832827
 10
-23.1389862598
 20
-7.1948215232
 10
-22.5567397204
 20
-8.6833061993
 10
-21.9717869701
 20
-10.1703279465
 10
-21.384128189
 20
-11.6558774117
 10
-20.7937635791
 20
-13.1399452538
  0
LINE
  5
298
100
AcDbEntity
  8
DRAFT
100
AcDbLine
 62
7
  6
CONTINUOUS
 10
-24.6577534313
 20
-4.5306741896
 11
-21.5507504471
 21
-12.6751243197
  0
LWPOLYLINE
  5
299
100
AcDbEntity
  8
RACCORDO
100
AcDbPolyline
 62
7
  6
CONTINUOUS
 90
27
 70
0
 10
-22.5609176571
 20
24.0494715465
 10
-22.5606414207
 20
24.0385797255
 10
-22.5598502366
 20
24.0267198754
 10
-22.5585384662
 20
24.0145070589
 10
-22.5566857084
 20
24.0020012538
 10
-22.5543628787
 20
23.989224306
 10
-22.5515683425
 20
23.9762193498
 10
-22.5482906444
 20
23.9630323712
 10
-22.5445828947
 20
23.9496748586
 10
-22.5404448796
 20
23.9361792949
 10
-22.5358706758
 20
23.9225818441
 10
-22.5309011836
 20
23.9088906561
 10
-22.5255367156
 20
23.8951314851
 10
-22.519774671
 20
23.8813334808
 10
-22.5136481168
 20
23.8675047006
 10
-22.5071575718
 20
23.8536663807
 10
-22.5003025261
 20
23.8398428466
 10
-22.4931115145
 20
23.8260438866
 10
-22.4855852162
 20
23.8122876004
 10
-22.4777245768
 20
23.798594973
 10
-22.4695561374
 20
23.7849786084
 10
-22.4610806091
 20
23.7714539509
 10
-22.452300338
 20
23.7580399715
 10
-22.4432426531
 20
23.7447538205
 10
-22.4339178113
 20
23.7316115785
 10
-22.424320214
 20
23.7186279283
 10
-22.4144532147
 20
23.7058171808
  0
LWPOLYLINE
  5
29A
100
AcDbEntity
  8
RACCORDO
100
AcDbPolyline
 62
250
  6
CONTINUOUS
 90
31
 70
0
 10
-24.2570566567
 20
26.4287519073
 10
-24.2572469007
 20
26.4402324588
 10
-24.2579241516
 20
26.451922497
 10
-24.2590865551
 20
26.4637899692
 10
-24.2607309286
 20
26.4758023466
 10
-24.2628527649
 20
26.4879266816
 10
-24.2654462412
 20
26.5001296967
 10
-24.2685042428
 20
26.5123779232
 10
-24.2720183852
 20
26.5246377843
 10
-24.2759790282
 20
26.536875654
 10
-24.2803753099
 20
26.5490579765
 10
-24.2851951737
 20
26.5611513485
 10
-24.2904253973
 20
26.573122601
 10
-24.296051641
 20
26.5849389191
 10
-24.3020584714
 20
26.5965678955
 10
-24.3084293957
 20
26.607977611
 10
-24.3151469124
 20
26.6191367421
 10
-24.322192622
 20
26.6300147416
 10
-24.3295472661
 20
26.6405818789
 10
-24.3371907874
 20
26.650809313
 10
-24.3451021334
 20
26.660668853
 10
-24.3532593509
 20
26.6701331663
 10
-24.361639883
 20
26.6791761606
 10
-24.3702208985
 20
26.6877732766
 10
-24.3789791117
 20
26.6959012126
 10
-24.3878923703
 20
26.7035392136
 10
-24.396934436
 20
26.7106646018
 10
-24.4060750757
 20
26.717254097
 10
-24.4152872636
 20
26.7232894714
 10
-24.4245474814
 20
26.7287565605
 10
-24.4338303604
 20
26.7336414461
  0
LINE
  5
29B
100
AcDbEntity
  8
RACCORDO
100
AcDbLine
 62
7
  6
CONTINUOUS
 10
-22.5608998241
 20
24.0494741498
 11
-22.5608998241
 21
22.8086572597
  0
LINE
  5
29C
100
AcDbEntity
  8
RACCORDO
100
AcDbLine
 62
250
  6
CONTINUOUS
 10
-22.4144532147
 20
23.7058171808
 11
-22.4144532147
 21
22.62523387
  0
LWPOLYLINE
  5
29D
100
AcDbEntity
  8
RACCORDO
100
AcDbPolyline
 62
7
  6
CONTINUOUS
 90
23
 70
0
 10
-24.2953750053
 20
-4.2134716033
 10
-24.29746015
 20
-4.2224039078
 10
-24.299375251
 20
-4.2313015547
 10
-24.3011194817
 20
-4.2401560714
 10
-24.302697417
 20
-4.2489611028
 10
-24.3041034914
 20
-4.2577054325
 10
-24.3053222562
 20
-4.2663731698
 10
-24.3063544072
 20
-4.2749542167
 10
-24.3072003265
 20
-4.28344047
 10
-24.3078447306
 20
-4.2918189871
 10
-24.3082892575
 20
-4.3000792556
 10
-24.3085350345
 20
-4.3082128387
 10
-24.3085662751
 20
-4.3162095453
 10
-24.3083854771
 20
-4.3240589058
 10
-24.3079943314
 20
-4.3317513806
 10
-24.3073758611
 20
-4.339277456
 10
-24.3065335078
 20
-4.3466257889
 10
-24.3054695074
 20
-4.3537864571
 10
-24.3041649443
 20
-4.3607509313
 10
-24.3026242866
 20
-4.3675071423
 10
-24.3008502662
 20
-4.3740441207
 10
-24.298821125
 20
-4.3803532435
 10
-24.2972677777
 20
-4.3845831828
  0
LWPOLYLINE
  5
29E
100
AcDbEntity
  8
RACCORDO
100
AcDbPolyline
 62
7
  6
CONTINUOUS
 90
36
 70
0
 10
-12.3110658468
 20
18.1919545445
 10
-12.3177064486
 20
18.1842158624
 10
-12.3245940559
 20
18.176573624
 10
-12.3317266383
 20
18.1690408135
 10
-12.3391061371
 20
18.1616318867
 10
-12.3467252401
 20
18.1543585911
 10
-12.3545674892
 20
18.1472300351
 10
-12.3626293388
 20
18.1402596859
 10
-12.3709065148
 20
18.1334607069
 10
-12.3793810064
 20
18.1268419772
 10
-12.3880479535
 20
18.1204170599
 10
-12.3969018403
 20
18.1141991726
 10
-12.4059232172
 20
18.1081969103
 10
-12.4151058773
 20
18.1024237835
 10
-12.4244430072
 20
18.0968929343
 10
-12.4339137819
 20
18.0916126538
 10
-12.4435106188
 20
18.0865962386
 10
-12.4532253416
 20
18.0818566134
 10
-12.4630357397
 20
18.0774017669
 10
-12.4729328082
 20
18.0732446039
 10
-12.4829069506
 20
18.0693976532
 10
-12.492934524
 20
18.0658685751
 10
-12.503005044
 20
18.0626696697
 10
-12.513107447
 20
18.0598128452
 10
-12.52321661
 20
18.0573053451
 10
-12.5333205029
 20
18.0551586017
 10
-12.5434065775
 20
18.0533836173
 10
-12.5534482533
 20
18.0519870284
 10
-12.5634318793
 20
18.0509790774
 10
-12.5733434673
 20
18.0503695031
 10
-12.5831551949
 20
18.0501640289
 10
-12.5928517496
 20
18.0503713173
 10
-12.6024178052
 20
18.0509994347
 10
-12.6118247604
 20
18.0520528098
 10
-12.6210452928
 20
18.0535361713
 10
-12.6249351122
 20
18.0543044457
  0
LINE
  5
29F
100
AcDbEntity
  8
RACCORDO
100
AcDbLine
 62
7
  6
CONTINUOUS
 10
-12.0066840573
 20
17.5541768107
 11
-12.3110658468
 21
17.3843224228
  0
LINE
  5
2A0
100
AcDbEntity
  8
C_CORPO
100
AcDbLine
 62
7
  6
CONTINUOUS
 10
-10.8205406353
 20
19.620446557
 11
-8.7693552346
 21
20.7271081383
  0
LINE
  5
2A1
100
AcDbEntity
  8
RACCORDO
100
AcDbLine
 62
7
  6
CONTINUOUS
 10
-10.5083724269
 20
19.1936677074
 11
-12.0915460922
 21
18.3814696492
  0
LINE
  5
2A2
100
AcDbEntity
  8
RACCORDO
100
AcDbLine
 62
250
  6
CONTINUOUS
 10
-10.3957038229
 20
19.1870057714
 11
-11.9784604261
 21
18.3750216741
  0
LINE
  5
2A3
100
AcDbEntity
  8
RACCORDO
100
AcDbLine
 62
250
  6
CONTINUOUS
 10
-11.5977793677
 20
19.7880435438
 11
-13.1990601585
 21
18.9853215403
  0
LINE
  5
2A4
100
AcDbEntity
  8
RACCORDO
100
AcDbLine
 62
250
  6
CONTINUOUS
 10
-11.421005664
 20
19.483154005
 11
-13.0222864549
 21
18.6804320015
  0
LINE
  5
2A5
100
AcDbEntity
  8
RACCORDO
100
AcDbLine
 62
7
  6
CONTINUOUS
 10
-10.5066360364
 20
19.1945359167
 11
-10.50837245
 21
19.1936676955
  0
LINE
  5
2A6
100
AcDbEntity
  8
RACCORDO
100
AcDbLine
 62
250
  6
CONTINUOUS
 10
-11.069512196
 20
20.0514823639
 11
-11.5977793677
 21
19.7880435438
  0
LINE
  5
2A7
100
AcDbEntity
  8
RACCORDO
100
AcDbLine
 62
250
  6
CONTINUOUS
 10
-10.8927384923
 20
19.746592825
 11
-11.421005664
 21
19.483154005
  0
LINE
  5
2A8
100
AcDbEntity
  8
RACCORDO
100
AcDbLine
 62
7
  6
CONTINUOUS
 10
-9.9717660554
 20
19.4550880291
 11
-10.5066360131
 21
19.1945359287
  0
LINE
  5
2A9
100
AcDbEntity
  8
RACCORDO
100
AcDbLine
 62
250
  6
CONTINUOUS
 10
-9.8612539443
 20
19.447353238
 11
-10.3957038229
 21
19.1870057714
  0
LINE
  5
2AA
100
AcDbEntity
  8
RACCORDO
100
AcDbLine
 62
7
  6
CONTINUOUS
 10
-6.6923390193
 20
22.5258232707
 11
-11.3835819063
 21
20.2704945899
  0
LINE
  5
2AB
100
AcDbEntity
  8
C_CORPO
100
AcDbLine
 62
7
  6
CONTINUOUS
 10
-8.7693552346
 20
20.7271081383
 11
-5.1001634172
 21
22.4216625124
  0
LINE
  5
2AC
100
AcDbEntity
  8
C_CORPO
100
AcDbLine
 62
250
  6
CONTINUOUS
 10
3.8504991458
 20
24.6495123883
 11
3.8439055616
 21
24.6464884302
  0
LINE
  5
2AD
100
AcDbEntity
  8
RACCORDO
100
AcDbLine
 62
250
  6
CONTINUOUS
 10
-12.5518758071
 20
-18.5649043142
 11
-13.1876277699
 21
-17.8127435657
  0
LINE
  5
2AE
100
AcDbEntity
  8
RACCORDO
100
AcDbLine
 62
250
  6
CONTINUOUS
 10
-12.4414198724
 20
-18.0378904991
 11
-13.189074004
 21
-17.1533217142
  0
LINE
  5
2AF
100
AcDbEntity
  8
RACCORDO
100
AcDbLine
 62
250
  6
CONTINUOUS
 10
-13.1876277699
 20
-17.8127435657
 11
-13.82302136
 21
-17.0603698218
  0
LWPOLYLINE
  5
2B0
100
AcDbEntity
  8
RACCORDO
100
AcDbPolyline
 62
250
  6
CONTINUOUS
 90
3
 70
0
 10
-13.189074004
 20
-17.1533217142
 10
-13.700180682
 20
-16.5481141992
 10
-13.9556480668
 20
-16.2454593203
  0
LINE
  5
2B1
100
AcDbEntity
  8
RACCORDO
100
AcDbLine
 62
250
  6
CONTINUOUS
 10
-13.82302136
 20
-17.0603698218
 11
-14.4580565416
 21
-16.3077835289
  0
LWPOLYLINE
  5
2B2
100
AcDbEntity
  8
RACCORDO
100
AcDbPolyline
 62
250
  6
CONTINUOUS
 90
7
 70
0
 10
-18.7930170274
 20
-1.7137574607
 10
-18.7836464189
 20
-0.3122452519
 10
-18.7705641482
 20
1.0910467258
 10
-18.75377035
 20
2.4961038665
 10
-18.7332651978
 20
3.9029115457
 10
-18.7090489031
 20
5.3114551207
 10
-18.6811217158
 20
6.7217199304
  0
LWPOLYLINE
  5
2B3
100
AcDbEntity
  8
RACCORDO
100
AcDbPolyline
 62
250
  6
CONTINUOUS
 90
7
 70
0
 10
-18.3691548059
 20
-1.4558466417
 10
-18.3598306566
 20
-0.1417611737
 10
-18.3472432638
 20
1.1738594597
 10
-18.3313926275
 20
2.4910152586
 10
-18.3122787477
 20
3.809706223
 10
-18.2899016245
 20
5.1299323528
 10
-18.2655768847
 20
6.3838730674
  0
LWPOLYLINE
  5
2B4
100
AcDbEntity
  8
RACCORDO
100
AcDbPolyline
 62
250
  6
CONTINUOUS
 90
27
 70
0
 10
-13.0222864549
 20
18.3404580674
 10
-13.027170472
 20
18.3284894092
 10
-13.0325210754
 20
18.3167962051
 10
-13.0383236538
 20
18.3054103868
 10
-13.0445623615
 20
18.2943630466
 10
-13.0512201618
 20
18.2836843525
 10
-13.0582788737
 20
18.2734034657
 10
-13.0657192215
 20
18.2635484612
 10
-13.0735208869
 20
18.254146251
 10
-13.0816625654
 20
18.2452225104
 10
-13.0901220237
 20
18.2368016085
 10
-13.0988761607
 20
18.2289065409
 10
-13.1079010709
 20
18.2215588673
 10
-13.1171721089
 20
18.2147786528
 10
-13.1266639577
 20
18.2085844127
 10
-13.1363506968
 20
18.2029930621
 10
-13.1462058739
 20
18.1980198699
 10
-13.1562025765
 20
18.1936784168
 10
-13.1663135058
 20
18.1899805584
 10
-13.1765110509
 20
18.1869363928
 10
-13.1867673644
 20
18.1845542329
 10
-13.1970544385
 20
18.1828405841
 10
-13.2073441813
 20
18.1818001257
 10
-13.2176084938
 20
18.1814356993
 10
-13.2278193462
 20
18.1817482998
 10
-13.2379488548
 20
18.1827370737
 10
-13.2479693581
 20
18.1843993208
  0
LINE
  5
2B5
100
AcDbEntity
  8
RACCORDO
100
AcDbLine
 62
250
  6
CONTINUOUS
 10
-11.421005664
 20
18.7561091525
 11
-10.8927384923
 21
19.3990613083
  0
LINE
  5
2B6
100
AcDbEntity
  8
RACCORDO
100
AcDbLine
 62
7
  6
CONTINUOUS
 10
-11.3373630471
 20
18.7683798273
 11
-10.8773779199
 21
19.3282261417
  0
LINE
  5
2B7
100
AcDbEntity
  8
RACCORDO
100
AcDbLine
 62
250
  6
CONTINUOUS
 10
-8.8754212518
 20
17.4833169464
 11
-8.34715408
 21
18.1262691022
  0
LINE
  5
2B8
100
AcDbEntity
  8
RACCORDO
100
AcDbLine
 62
7
  6
CONTINUOUS
 10
-8.8754212518
 20
17.3937864801
 11
-8.3317935076
 21
18.0554339356
  0
LWPOLYLINE
  5
2B9
100
AcDbEntity
  8
RACCORDO
100
AcDbPolyline
 62
7
  6
CONTINUOUS
 90
36
 70
0
 10
-9.7654814345
 20
16.9191623384
 10
-9.7721220363
 20
16.9114236562
 10
-9.7790096436
 20
16.9037814179
 10
-9.786142226
 20
16.8962486074
 10
-9.7935217248
 20
16.8888396805
 10
-9.8011408278
 20
16.881566385
 10
-9.8089830769
 20
16.8744378289
 10
-9.8170449265
 20
16.8674674798
 10
-9.8253221025
 20
16.8606685007
 10
-9.8337965942
 20
16.8540497711
 10
-9.8424635412
 20
16.8476248538
 10
-9.851317428
 20
16.8414069665
 10
-9.8603388049
 20
16.8354047042
 10
-9.869521465
 20
16.8296315773
 10
-9.878858595
 20
16.8241007281
 10
-9.8883293696
 20
16.8188204477
 10
-9.8979262065
 20
16.8138040325
 10
-9.9076409294
 20
16.8090644073
 10
-9.9174513274
 20
16.8046095607
 10
-9.9273483959
 20
16.8004523978
 10
-9.9373225383
 20
16.796605447
 10
-9.9473501117
 20
16.793076369
 10
-9.9574206317
 20
16.7898774635
 10
-9.9675230347
 20
16.7870206391
 10
-9.9776321978
 20
16.7845131389
 10
-9.9877360906
 20
16.7823663956
 10
-9.9978221652
 20
16.7805914111
 10
-10.007863841
 20
16.7791948223
 10
-10.0178474671
 20
16.7781868713
 10
-10.027759055
 20
16.7775772969
 10
-10.0375707827
 20
16.7773718228
 10
-10.0472673373
 20
16.7775791111
 10
-10.0568333929
 20
16.7782072286
 10
-10.0662403481
 20
16.7792606037
 10
-10.0754608805
 20
16.7807439652
 10
-10.0793506999
 20
16.7815122395
  0
LINE
  5
2BA
100
AcDbEntity
  8
RACCORDO
100
AcDbLine
 62
7
  6
CONTINUOUS
 10
-8.7738957092
 20
16.6648655092
 11
-9.7654814345
 21
16.1115302166
  0
LINE
  5
2BB
100
AcDbEntity
  8
C_CORPO
100
AcDbLine
 62
7
  6
CONTINUOUS
 10
1.7496407182
 20
21.4831999728
 11
5.9720774828
 21
23.6315914068
  0
LINE
  5
2BC
100
AcDbEntity
  8
C_CORPO
100
AcDbLine
 62
7
  6
CONTINUOUS
 10
-8.3317833789
 20
17.0434989826
 11
-4.8802679381
 21
18.7825644901
  0
LINE
  5
2BD
100
AcDbEntity
  8
RACCORDO
100
AcDbLine
 62
250
  6
CONTINUOUS
 10
-9.0521949554
 20
18.5152513377
 11
-10.6534757463
 21
17.7125293342
  0
LINE
  5
2BE
100
AcDbEntity
  8
RACCORDO
100
AcDbLine
 62
250
  6
CONTINUOUS
 10
-8.8754212518
 20
18.2103617989
 11
-10.4767020426
 21
17.4076397954
  0
LINE
  5
2BF
100
AcDbEntity
  8
RACCORDO
100
AcDbLine
 62
250
  6
CONTINUOUS
 10
-8.5239277837
 20
18.7786901577
 11
-9.0521949554
 21
18.5152513377
  0
LINE
  5
2C0
100
AcDbEntity
  8
RACCORDO
100
AcDbLine
 62
250
  6
CONTINUOUS
 10
-8.34715408
 20
18.4738006189
 11
-8.8754212518
 21
18.2103617989
  0
LINE
  5
2C1
100
AcDbEntity
  8
RACCORDO
100
AcDbLine
 62
7
  6
CONTINUOUS
 10
-1.1466673628
 20
19.7529874424
 11
-7.4612076894
 21
16.6082111379
  0
LINE
  5
2C2
100
AcDbEntity
  8
C_CORPO
100
AcDbLine
 62
7
  6
CONTINUOUS
 10
1.7496407182
 20
21.0843782415
 11
5.9720774828
 21
23.1872421711
  0
LINE
  5
2C3
100
AcDbEntity
  8
C_CORPO
100
AcDbLine
 62
7
  6
CONTINUOUS
 10
-4.8802679381
 20
18.7825644901
 11
-1.3369705874
 21
20.5400660975
  0
LINE
  5
2C4
100
AcDbEntity
  8
DRAFT
100
AcDbLine
 62
7
  6
CONTINUOUS
 10
-8.8754212518
 20
16.6157688271
 11
-8.7738957092
 21
16.6648655092
  0
LINE
  5
2C5
100
AcDbEntity
  8
C_CORPO
100
AcDbLine
 62
7
  6
CONTINUOUS
 10
4.807008321
 20
24.5298468122
 11
1.2328709389
 21
22.8239057977
  0
LWPOLYLINE
  5
2C6
100
AcDbEntity
  8
C_CORPO
100
AcDbPolyline
 62
250
  6
CONTINUOUS
 90
23
 70
0
 10
-2.1225533549
 20
21.4207202606
 10
4.7337402348
 20
24.5871434984
 10
4.7552333395
 20
24.5962257721
 10
4.7766750937
 20
24.604481511
 10
4.7980456081
 20
24.6119030569
 10
4.8193250595
 20
24.6184835257
 10
4.840493709
 20
24.6242168132
 10
4.8615319205
 20
24.6290976013
 10
4.882420179
 20
24.6331213626
 10
4.9031391086
 20
24.6362843646
 10
4.9236694904
 20
24.6385836733
 10
4.9439922803
 20
24.6400171559
 10
4.964088627
 20
24.6405834827
 10
4.9839398891
 20
24.6402821284
 10
5.0035276526
 20
24.6391133724
 10
5.0228337478
 20
24.637078299
 10
5.0418402663
 20
24.6341787959
 10
5.0605295779
 20
24.6304175526
 10
5.0788843462
 20
24.6257980581
 10
5.0968875453
 20
24.6203245974
 10
5.1145224755
 20
24.6140022477
 10
5.1317727787
 20
24.6068368737
 10
5.1470821488
 20
24.5996096682
  0
LWPOLYLINE
  5
2C7
100
AcDbEntity
  8
C_CORPO
100
AcDbPolyline
 62
250
  6
CONTINUOUS
 90
23
 70
0
 10
-2.1799122384
 20
21.8644897477
 10
-2.1789979764
 20
21.8648880765
 10
-2.1748748852
 20
21.8660495677
 10
-2.1709257516
 20
21.8660541336
 10
-2.167147833
 20
21.8648515947
 10
-2.1635321255
 20
21.8623958894
 10
-2.1600899675
 20
21.8586338064
 10
-2.1568256855
 20
21.8535140891
 10
-2.1537316769
 20
21.8469915332
 10
-2.1508044632
 20
21.8390243961
 10
-2.1480537533
 20
21.8295583339
 10
-2.1454758529
 20
21.8185522195
 10
-2.1430515204
 20
21.8059907262
 10
-2.14079846
 20
21.7918292123
 10
-2.1387173705
 20
21.7760283894
 10
-2.1367683112
 20
21.7585904135
 10
-2.1349735195
 20
21.7394622232
 10
-2.1333399495
 20
21.7186216654
 10
-2.1318101827
 20
21.6961330672
 10
-2.1304138262
 20
21.6719836838
 10
-2.1291637653
 20
21.6461408427
 10
-2.1279820267
 20
21.6186550604
 10
-2.1268981452
 20
21.5894639626
  0
LINE
  5
2C8
100
AcDbEntity
  8
C_OTTURATORE
100
AcDbLine
 62
7
  6
CONTINUOUS
 10
-11.6349013612
 20
-16.6942711077
 11
-12.8699087333
 21
-15.4340419382
  0
LINE
  5
2C9
100
AcDbEntity
  8
DRAFT
100
AcDbLine
 62
7
  6
CONTINUOUS
 10
-13.1153323538
 20
-15.8319522468
 11
-11.9570449958
 21
-17.2301287711
  0
LWPOLYLINE
  5
2CA
100
AcDbEntity
  8
RACCORDO
100
AcDbPolyline
 62
7
  6
CONTINUOUS
 90
27
 70
0
 10
-16.707276028
 20
-2.5093044965
 10
-16.7072621462
 20
-2.5148202422
 10
-16.7069897796
 20
-2.5262786586
 10
-16.7063843893
 20
-2.5378140067
 10
-16.7054443063
 20
-2.5494127824
 10
-16.7041988856
 20
-2.5610651161
 10
-16.7026494536
 20
-2.5727598191
 10
-16.7007952747
 20
-2.5844849861
 10
-16.6986616724
 20
-2.5962309904
 10
-16.696249949
 20
-2.6079883356
 10
-16.6935601387
 20
-2.6197463304
 10
-16.6906149294
 20
-2.6314944461
 10
-16.6874156501
 20
-2.6432245843
 10
-16.6839630347
 20
-2.6549269946
 10
-16.6802784228
 20
-2.6665892825
 10
-16.6763635024
 20
-2.6782039572
 10
-16.672219508
 20
-2.6897626567
 10
-16.6678669006
 20
-2.7012521466
 10
-16.6633073949
 20
-2.7126666082
 10
-16.6585430648
 20
-2.7239978334
 10
-16.6535950272
 20
-2.7352294462
 10
-16.648465526
 20
-2.7463564419
 10
-16.6431572844
 20
-2.7573716444
 10
-16.6376926629
 20
-2.768255968
 10
-16.6320813746
 20
-2.7789997147
 10
-16.6263202058
 20
-2.7896024815
 10
-16.6204125815
 20
-2.8000596837
  0
LINE
  5
2CB
100
AcDbEntity
  8
DRAFT
100
AcDbLine
 62
7
  6
CONTINUOUS
 10
-17.4490909737
 20
-0.9940257988
 11
-17.4490909737
 21
5.9756301119
  0
LINE
  5
2CC
100
AcDbEntity
  8
DRAFT
100
AcDbLine
 62
250
  6
CONTINUOUS
 10
-17.1132152526
 20
24.2718217535
 11
-17.1132152526
 21
24.4342417209
  0
LINE
  5
2CD
100
AcDbEntity
  8
RACCORDO
100
AcDbLine
 62
250
  6
CONTINUOUS
 10
-16.903146115
 20
19.8695803201
 11
-16.903146115
 21
20.9501636309
  0
LINE
  5
2CE
100
AcDbEntity
  8
DRAFT
100
AcDbLine
 62
7
  6
CONTINUOUS
 10
-16.4061084714
 20
24.7877951115
 11
-16.4061084714
 21
25.34791099
  0
LINE
  5
2CF
100
AcDbEntity
  8
RACCORDO
100
AcDbLine
 62
250
  6
CONTINUOUS
 10
-16.1981021957
 20
19.8911160834
 11
-16.1981021957
 21
21.1238430557
  0
LINE
  5
2D0
100
AcDbEntity
  8
ASSI
100
AcDbLine
 62
250
  6
CONTINUOUS
 10
-16.0723328488
 20
25.5112313452
 11
-16.0723328488
 21
26.731024253
  0
LINE
  5
2D1
100
AcDbEntity
  8
DRAFT
100
AcDbLine
 62
7
  6
CONTINUOUS
 10
-16.0525550808
 20
24.6110184162
 11
-16.0525550808
 21
25.1711342947
  0
LINE
  5
2D2
100
AcDbEntity
  8
ASSI
100
AcDbLine
 62
7
  6
CONTINUOUS
 10
-15.9469833415
 20
25.6602544739
 11
-15.9469833415
 21
26.740592393
  0
LINE
  5
2D3
100
AcDbEntity
  8
DRAFT
100
AcDbLine
 62
7
  6
CONTINUOUS
 10
-15.8404230465
 20
21.3031476005
 11
-15.8404230465
 21
20.0907120353
  0
LINE
  5
2D4
100
AcDbEntity
  8
DRAFT
100
AcDbLine
 62
250
  6
CONTINUOUS
 10
-15.6990016902
 20
24.1896811177
 11
-15.6990016902
 21
24.4342417209
  0
LWPOLYLINE
  5
2D5
100
AcDbEntity
  8
RACCORDO
100
AcDbPolyline
 62
250
  6
CONTINUOUS
 90
7
 70
0
 10
-16.5104522189
 20
5.636385182
 10
-16.5378964685
 20
4.2258789027
 10
-16.5616940039
 20
2.8171259476
 10
-16.5818445754
 20
1.4101409779
 10
-16.5983479713
 20
0.0049386362
 10
-16.6112040184
 20
-1.3984664529
 10
-16.6204125817
 20
-2.8000596836
  0
LWPOLYLINE
  5
2D6
100
AcDbEntity
  8
RACCORDO
100
AcDbPolyline
 62
7
  6
CONTINUOUS
 90
10
 70
0
 10
-16.6021824003
 20
5.5544421369
 10
-16.6168158557
 20
4.8125196181
 10
-16.6339666111
 20
3.8698056862
 10
-16.6494863015
 20
2.9278774285
 10
-16.6633748482
 20
1.9867390459
 10
-16.6756321809
 20
1.0463948394
 10
-16.6862582512
 20
0.1068492782
 10
-16.6952530145
 20
-0.8318932017
 10
-16.7026164271
 20
-1.7698282147
 10
-16.707274889
 20
-2.5093042256
  0
LINE
  5
2D7
100
AcDbEntity
  8
C_CORPO
100
AcDbLine
 62
7
  6
CONTINUOUS
 10
-14.4016960522
 20
27.5602916093
 11
-14.3981312577
 21
27.7501998271
  0
LWPOLYLINE
  5
2D8
100
AcDbEntity
  8
RACCORDO
100
AcDbPolyline
 62
250
  6
CONTINUOUS
 90
31
 70
0
 10
-14.6997930943
 20
19.3434370653
 10
-14.6995537394
 20
19.3548195654
 10
-14.6988357342
 20
19.3664177911
 10
-14.6976401441
 20
19.378200652
 10
-14.6959689466
 20
19.3901389194
 10
-14.6938260117
 20
19.4021979704
 10
-14.6912180563
 20
19.4143376743
 10
-14.6881528843
 20
19.4265223751
 10
-14.68463833
 20
19.4387215005
 10
-14.6806838487
 20
19.4509021725
 10
-14.6763000849
 20
19.4630314604
 10
-14.6714990053
 20
19.4750761243
 10
-14.6662937998
 20
19.487003035
 10
-14.6606987109
 20
19.4987795865
 10
-14.6547289079
 20
19.5103738762
 10
-14.648400586
 20
19.5217544467
 10
-14.6417309349
 20
19.5328903643
 10
-14.6347381274
 20
19.5437512678
 10
-14.6274412187
 20
19.5543075524
 10
-14.6198600762
 20
19.5645304726
 10
-14.612015325
 20
19.574392213
 10
-14.6039283187
 20
19.5838659254
 10
-14.5956210665
 20
19.5929258233
 10
-14.5871161798
 20
19.601547243
 10
-14.5784368147
 20
19.6097067085
 10
-14.5696065887
 20
19.6173820151
 10
-14.5606495424
 20
19.6245522641
 10
-14.5515900832
 20
19.6311979185
 10
-14.5424528797
 20
19.6373008873
 10
-14.5332627933
 20
19.6428445696
 10
-14.5240448384
 20
19.6478138802
  0
LWPOLYLINE
  5
2D9
100
AcDbEntity
  8
C_CORPO
100
AcDbPolyline
 62
7
  6
CONTINUOUS
 90
3
 70
0
 10
-14.3981312577
 20
27.7501998271
 10
-14.3973466312
 20
27.7841395638
 10
-14.3972327416
 20
27.788379728
  0
LWPOLYLINE
  5
2DA
100
AcDbEntity
  8
C_CORPO
100
AcDbPolyline
 62
7
  6
CONTINUOUS
 90
5
 70
0
 10
-14.3972327416
 20
27.788379728
 10
-14.397035839
 20
27.7944379406
 10
-14.3969652598
 20
27.7962789351
 10
-14.3969006201
 20
27.7973480762
 10
-14.3968444339
 20
27.7976621076
  0
LWPOLYLINE
  5
2DB
100
AcDbEntity
  8
RACCORDO
100
AcDbPolyline
 62
7
  6
CONTINUOUS
 90
27
 70
0
 10
-16.602184638
 20
5.5544434492
 10
-16.6020972582
 20
5.5552828256
 10
-16.6016826977
 20
5.5568269086
 10
-16.6009283537
 20
5.5585601838
 10
-16.599832876
 20
5.5604680143
 10
-16.5984260947
 20
5.5625560238
 10
-16.5967096368
 20
5.5648129837
 10
-16.5946830663
 20
5.5672258587
 10
-16.5923721306
 20
5.5697998323
 10
-16.5897784027
 20
5.5725246918
 10
-16.5869022047
 20
5.5753886345
 10
-16.5837666406
 20
5.5783960853
 10
-16.5803732884
 20
5.5815376138
 10
-16.5767231651
 20
5.5848023191
 10
-16.572838061
 20
5.5881934859
 10
-16.5687199146
 20
5.5917021026
 10
-16.5643702294
 20
5.5953180511
 10
-16.5598099428
 20
5.5990436204
 10
-16.5550409958
 20
5.6028705256
 10
-16.5500657472
 20
5.6067889462
 10
-16.5449058862
 20
5.6107991983
 10
-16.5395638911
 20
5.6148933468
 10
-16.5340427641
 20
5.6190619622
 10
-16.5283655257
 20
5.6233031562
 10
-16.5225422886
 20
5.6276106617
 10
-16.5165699603
 20
5.6319740199
 10
-16.510452216
 20
5.6363851805
  0
LWPOLYLINE
  5
2DC
100
AcDbEntity
  8
RACCORDO
100
AcDbPolyline
 62
250
  6
CONTINUOUS
 90
27
 70
0
 10
-10.4767020426
 20
17.0676658612
 10
-10.4815860597
 20
17.055697203
 10
-10.4869366632
 20
17.0440039989
 10
-10.4927392415
 20
17.0326181807
 10
-10.4989779492
 20
17.0215708405
 10
-10.5056357495
 20
17.0108921463
 10
-10.5126944615
 20
17.0006112596
 10
-10.5201348092
 20
16.9907562551
 10
-10.5279364747
 20
16.9813540448
 10
-10.5360781531
 20
16.9724303043
 10
-10.5445376114
 20
16.9640094024
 10
-10.5532917485
 20
16.9561143347
 10
-10.5623166586
 20
16.9487666612
 10
-10.5715876967
 20
16.9419864467
 10
-10.5810795454
 20
16.9357922065
 10
-10.5907662845
 20
16.9302008559
 10
-10.6006214616
 20
16.9252276637
 10
-10.6106181643
 20
16.9208862106
 10
-10.6207290935
 20
16.9171883522
 10
-10.6309266386
 20
16.9141441866
 10
-10.6411829521
 20
16.9117620268
 10
-10.6514700262
 20
16.9100483779
 10
-10.6617597691
 20
16.9090079196
 10
-10.6720240815
 20
16.9086434931
 10
-10.6822349339
 20
16.9089560937
 10
-10.6923644426
 20
16.9099448675
 10
-10.7023849458
 20
16.9116071147
  0
LINE
  5
2DD
100
AcDbEntity
  8
RACCORDO
100
AcDbLine
 62
250
  6
CONTINUOUS
 10
-8.3313930133
 20
18.0559463725
 11
-8.3317935076
 21
18.0554339356
  0
LINE
  5
2DE
100
AcDbEntity
  8
C_CONTATTI
100
AcDbLine
 62
7
  6
CONTINUOUS
 10
1.4566164853
 20
20.3139730155
 11
2.2110048691
 21
20.711776927
  0
LINE
  5
2DF
100
AcDbEntity
  8
RACCORDO
100
AcDbLine
 62
7
  6
CONTINUOUS
 10
-6.5066015334
 20
16.2780927246
 11
-6.1530601442
 21
16.4594661494
  0
LINE
  5
2E0
100
AcDbEntity
  8
C_CORPO
100
AcDbLine
 62
7
  6
CONTINUOUS
 10
3.203023092
 20
21.0372974746
 11
3.7817901315
 21
21.3278063204
  0
LINE
  5
2E1
100
AcDbEntity
  8
C_CORPO
100
AcDbLine
 62
7
  6
CONTINUOUS
 10
3.9141814909
 20
21.1108667574
 11
4.0646328439
 21
21.1863849642
  0
LINE
  5
2E2
100
AcDbEntity
  8
C_CONTATTI
100
AcDbLine
 62
7
  6
CONTINUOUS
 10
2.3392922979
 20
20.4886851957
 11
2.8342670447
 21
20.7361725691
  0
LINE
  5
2E3
100
AcDbEntity
  8
C_CONTATTI
100
AcDbLine
 62
7
  6
CONTINUOUS
 10
5.3024449572
 20
20.9166724214
 11
3.9909806462
 21
20.2609402659
  0
LINE
  5
2E4
100
AcDbEntity
  8
C_CONTATTI
100
AcDbLine
 62
7
  6
CONTINUOUS
 10
3.2897569043
 20
19.9103283949
 11
3.287797247
 21
19.9093485663
  0
LINE
  5
2E5
100
AcDbEntity
  8
C_CONTATTI
100
AcDbLine
 62
7
  6
CONTINUOUS
 10
6.1509756649
 20
20.4924096378
 11
5.3166542898
 21
20.0752489503
  0
LINE
  5
2E6
100
AcDbEntity
  8
0
100
AcDbLine
 62
7
  6
CONTINUOUS
 10
-1.2033126759
 20
16.4792904326
 11
-0.4962058947
 21
16.8328438232
  0
LINE
  5
2E7
100
AcDbEntity
  8
0
100
AcDbLine
 62
7
  6
CONTINUOUS
 10
-0.1426525041
 20
16.6560671279
 11
1.2551320024
 21
17.3549593811
  0
LINE
  5
2E8
100
AcDbEntity
  8
C_CORPO
100
AcDbLine
 62
250
  6
CONTINUOUS
 10
3.2054326608
 20
18.7567272528
 11
9.8056924317
 21
22.0305047569
  0
LINE
  5
2E9
100
AcDbEntity
  8
ASSI
100
AcDbLine
 62
7
  6
CONTINUOUS
 10
-0.2113063036
 20
18.7561443976
 11
-4.8095572599
 21
16.4897831001
  0
LINE
  5
2EA
100
AcDbEntity
  8
DRAFT
100
AcDbLine
 62
7
  6
CONTINUOUS
 10
-0.4962058947
 20
17.3929597017
 11
-0.1624302721
 21
17.5562800569
  0
LINE
  5
2EB
100
AcDbEntity
  8
RACCORDO
100
AcDbLine
 62
7
  6
CONTINUOUS
 10
1.9141277538
 20
18.2225898842
 11
-0.1426525041
 21
17.2161830064
  0
LWPOLYLINE
  5
2EC
100
AcDbEntity
  8
C_CORPO
100
AcDbPolyline
 62
7
  6
CONTINUOUS
 90
67
 70
0
 10
2.4323509161
 20
20.9645400413
 10
2.4770008225
 20
20.9863640014
 10
2.5225781977
 20
21.0076565974
 10
2.5690830417
 20
21.0284178292
 10
2.6165400823
 20
21.0486577691
 10
2.6649245918
 20
21.068366345
 10
2.7141623867
 20
21.0875133401
 10
2.764254778
 20
21.1060978938
 10
2.8152004548
 20
21.1241208667
 10
2.8669213006
 20
21.1415546242
 10
2.919418504
 20
21.158398262
 10
2.9726908764
 20
21.1746526843
 10
3.0266567354
 20
21.1902929687
 10
3.081317145
 20
21.2053181731
 10
3.1366710413
 20
21.2197292396
 10
3.1926335503
 20
21.2335040722
 10
3.2492056059
 20
21.246641695
 10
3.3063862743
 20
21.2591430839
 10
3.3640878809
 20
21.2709890711
 10
3.4223112248
 20
21.2821786511
 10
3.4810555068
 20
21.2927128294
 10
3.5402306549
 20
21.3025754544
 10
3.59983733
 20
21.311765496
 10
3.6598748712
 20
21.3202839842
 10
3.7202512235
 20
21.3281178583
 10
3.7809669067
 20
21.335266068
 10
3.842021401
 20
21.3417296634
 10
3.9033210924
 20
21.3474987345
 10
3.9648663568
 20
21.3525722158
 10
4.0266568183
 20
21.3569511727
 10
4.0885977343
 20
21.3606288914
 10
4.1506893355
 20
21.3636042961
 10
4.2129313913
 20
21.3658784627
 10
4.2752284668
 20
21.3674479045
 10
4.3375806463
 20
21.3683115404
 10
4.3999878455
 20
21.3684704515
 10
4.4623543764
 20
21.3679243946
 10
4.5246801766
 20
21.3666722881
 10
4.5869653085
 20
21.3647152135
 10
4.6491142714
 20
21.3620561719
 10
4.7111268564
 20
21.3586940866
 10
4.7730032724
 20
21.3546300342
 10
4.8346486454
 20
21.3498702465
 10
4.896062621
 20
21.3444136562
 10
4.9572455536
 20
21.3382613307
 10
5.0181036327
 20
21.3314227034
 10
5.0786363598
 20
21.3238967215
 10
5.1388442333
 20
21.315684438
 10
5.1986349379
 20
21.3067984448
 10
5.2580078334
 20
21.2972377085
 10
5.3169635598
 20
21.2870032625
 10
5.3754117218
 20
21.2761107995
 10
5.4333515405
 20
21.26455931
 10
5.4907837947
 20
21.2523498034
 10
5.5476204248
 20
21.2395010007
 10
5.603860517
 20
21.2260119211
 10
5.6595049852
 20
21.2118835454
 10
5.714468511
 20
21.1971375366
 10
5.7687500499
 20
21.1817729472
 10
5.8223506463
 20
21.1657907247
 10
5.8751881159
 20
21.1492153747
 10
5.9272612881
 20
21.1320459871
 10
5.9785713335
 20
21.1142834719
 10
6.0290395798
 20
21.0959550642
 10
6.0786398029
 20
21.0770698425
 10
6.1273982269
 20
21.0576187284
 10
6.1753148518
 20
21.0376017217
  0
LINE
  5
2ED
100
AcDbEntity
  8
ASSI
100
AcDbLine
 62
7
  6
CONTINUOUS
 10
-6.1530601442
 20
16.4594661494
 11
-0.8168367383
 21
19.0589096149
  0
LINE
  5
2EE
100
AcDbEntity
  8
C_CORPO
100
AcDbLine
 62
7
  6
CONTINUOUS
 10
9.7108998274
 20
22.077901059
 11
6.1464081779
 21
20.3671371782
  0
LWPOLYLINE
  5
2EF
100
AcDbEntity
  8
ASSI
100
AcDbPolyline
 62
7
  6
CONTINUOUS
 90
7
 70
0
 10
-0.2113063036
 20
18.7561443976
 10
-0.2030970442
 20
18.7600718827
 10
-0.1949130865
 20
18.7637569449
 10
-0.1867544304
 20
18.7671995842
 10
-0.178621076
 20
18.7703998006
 10
-0.1705130232
 20
18.7733575941
 10
-0.1624302721
 20
18.7760729647
  0
LWPOLYLINE
  5
2F0
100
AcDbEntity
  8
C_CORPO
100
AcDbPolyline
 62
250
  6
CONTINUOUS
 90
23
 70
0
 10
9.8056924317
 20
22.0305047569
 10
9.8272169495
 20
22.0404051408
 10
9.848710054
 20
22.0494874146
 10
9.870151808
 20
22.0577431534
 10
9.8915223223
 20
22.0651646993
 10
9.9128017735
 20
22.071745168
 10
9.9339704229
 20
22.0774784555
 10
9.9550086342
 20
22.0823592436
 10
9.9758968926
 20
22.0863830049
 10
9.9966158221
 20
22.089546007
 10
10.0171462037
 20
22.0918453157
 10
10.0374689936
 20
22.0932787984
 10
10.0575653402
 20
22.0938451253
 10
10.0774166022
 20
22.093543771
 10
10.0970043655
 20
22.0923750151
 10
10.1163104606
 20
22.0903399418
 10
10.1353169792
 20
22.0874404388
 10
10.1540062906
 20
22.0836791956
 10
10.1723610589
 20
22.0790597012
 10
10.190364258
 20
22.0735862407
 10
10.2079991882
 20
22.0672638911
 10
10.2252494913
 20
22.0600985172
 10
10.2405653122
 20
22.0528680865
  0
LWPOLYLINE
  5
2F1
100
AcDbEntity
  8
C_CONTATTI
100
AcDbPolyline
 62
7
  6
CONTINUOUS
 90
10
 70
0
 10
6.150946769
 20
20.4923951899
 10
6.1623432333
 20
20.4975638451
 10
6.1735636358
 20
20.5016157415
 10
6.1846079765
 20
20.504550879
 10
6.1955712354
 20
20.5063694104
 10
6.2063584326
 20
20.5070711829
 10
6.216684628
 20
20.5066557385
 10
6.2264548418
 20
20.5051229246
 10
6.2357640538
 20
20.5024728939
 10
6.2446122641
 20
20.4987056463
  0
LWPOLYLINE
  5
2F2
100
AcDbEntity
  8
RACCORDO
100
AcDbPolyline
 62
7
  6
CONTINUOUS
 90
24
 70
0
 10
-9.3679358064
 20
-13.0120890228
 10
-9.3666167955
 20
-13.0136224226
 10
-9.3633252407
 20
-13.0170952998
 10
-9.3596977441
 20
-13.0204759665
 10
-9.3557386822
 20
-13.0237733733
 10
-9.3514716735
 20
-13.0269709851
 10
-9.3469019303
 20
-13.0300752715
 10
-9.3420340586
 20
-13.0330942039
 10
-9.3368895265
 20
-13.0360122996
 10
-9.3314731757
 20
-13.0388358158
 10
-9.3257899005
 20
-13.0415719968
 10
-9.3198604524
 20
-13.0442060562
 10
-9.3136898147
 20
-13.0467439837
 10
-9.3072829562
 20
-13.0491926889
 10
-9.3006601772
 20
-13.0515382905
 10
-9.2938260699
 20
-13.0537867609
 10
-9.2867862877
 20
-13.0559445437
 10
-9.2795626802
 20
-13.0579982675
 10
-9.2721601325
 20
-13.0599537765
 10
-9.2645846643
 20
-13.0618174069
 10
-9.2568602314
 20
-13.063576601
 10
-9.2489988817
 20
-13.0652312584
 10
-9.241000459
 20
-13.066793565
 10
-9.2328709305
 20
-13.0682694032
  0
LINE
  5
2F3
100
AcDbEntity
  8
RACCORDO
100
AcDbLine
 62
250
  6
CONTINUOUS
 10
-9.8629652468
 20
-12.3124162212
 11
-9.2328634421
 21
-13.0682624283
  0
LINE
  5
2F4
100
AcDbEntity
  8
RACCORDO
100
AcDbLine
 62
7
  6
CONTINUOUS
 10
-10.3026623165
 20
-11.8907996585
 11
-9.3679354948
 21
-13.0120893963
  0
LINE
  5
2F5
100
AcDbEntity
  8
RACCORDO
100
AcDbLine
 62
250
  6
CONTINUOUS
 10
-10.4927045471
 20
-11.5563653495
 11
-9.8629652468
 21
-12.3124162212
  0
LINE
  5
2F6
100
AcDbEntity
  8
RACCORDO
100
AcDbLine
 62
7
  6
CONTINUOUS
 10
-11.0235732899
 20
-11.0250587703
 11
-10.3026623165
 21
-11.8907996585
  0
LINE
  5
2F7
100
AcDbEntity
  8
RACCORDO
100
AcDbLine
 62
250
  6
CONTINUOUS
 10
-11.1220813124
 20
-10.8001102636
 11
-10.4927045471
 21
-11.5563653495
  0
LWPOLYLINE
  5
2F8
100
AcDbEntity
  8
ASSI
100
AcDbPolyline
 62
7
  6
CONTINUOUS
 90
6
 70
0
 10
-15.9469833415
 20
26.7405924063
 10
-15.9472405018
 20
26.7433007929
 10
-15.9482814805
 20
26.7462644287
 10
-15.9500807473
 20
26.7487207747
 10
-15.952595537
 20
26.7506845241
 10
-15.9537581969
 20
26.7513234988
  0
LWPOLYLINE
  5
2F9
100
AcDbEntity
  8
RACCORDO
100
AcDbPolyline
 62
250
  6
CONTINUOUS
 90
31
 70
0
 10
-13.0222864549
 20
18.6804320015
 10
-13.0225814318
 20
18.6918577092
 10
-13.023357285
 20
18.7034957623
 10
-13.0246118881
 20
18.7153142632
 10
-13.0263418024
 20
18.7272808194
 10
-13.0285422865
 20
18.739362633
 10
-13.0312073094
 20
18.75152659
 10
-13.0343295667
 20
18.7637393512
 10
-13.0379005009
 20
18.7759674437
 10
-13.0419103247
 20
18.7881773527
 10
-13.046348048
 20
18.800335613
 10
-13.0512015078
 20
18.8124089012
 10
-13.0564574016
 20
18.8243641266
 10
-13.0621013241
 20
18.8361685223
 10
-13.0681178063
 20
18.8477897345
 10
-13.0744903581
 20
18.8591959117
 10
-13.0812015137
 20
18.8703557917
 10
-13.0882328789
 20
18.8812387874
 10
-13.0955651821
 20
18.8918150705
 10
-13.1031783269
 20
18.9020556535
 10
-13.1110514471
 20
18.9119324687
 10
-13.1191629639
 20
18.9214184458
 10
-13.1274906451
 20
18.9304875854
 10
-13.1360116662
 20
18.9391150307
 10
-13.1447026726
 20
18.9472771355
 10
-13.1535398439
 20
18.9549515291
 10
-13.1624989591
 20
18.9621171772
 10
-13.1715554629
 20
18.9687544403
 10
-13.1806845332
 20
18.9748451268
 10
-13.1898611489
 20
18.9803725434
 10
-13.1990601585
 20
18.9853215403
  0
LWPOLYLINE
  5
2FA
100
AcDbEntity
  8
RACCORDO
100
AcDbPolyline
 62
250
  6
CONTINUOUS
 90
19
 70
0
 10
-14.6997930943
 20
19.0034631311
 10
-14.6995732397
 20
18.9927784746
 10
-14.6989142224
 20
18.9823402482
 10
-14.6978176816
 20
18.9721744157
 10
-14.6962863507
 20
18.9623062972
 10
-14.6943240355
 20
18.9527604025
 10
-14.6919355896
 20
18.9435603821
 10
-14.6891269195
 20
18.9347290702
 10
-14.685905014
 20
18.9262885131
 10
-14.6822779164
 20
18.9182598048
 10
-14.6782546368
 20
18.9106628939
 10
-14.6738451943
 20
18.9035167031
 10
-14.6690606577
 20
18.8968391377
 10
-14.6639130243
 20
18.8906468604
 10
-14.6584150563
 20
18.884955148
 10
-14.6525803226
 20
18.8797780218
 10
-14.6464221062
 20
18.8751275068
 10
-14.639956832
 20
18.8710162331
 10
-14.6348197979
 20
18.868244681
  0
LWPOLYLINE
  5
2FB
100
AcDbEntity
  8
RACCORDO
100
AcDbPolyline
 62
250
  6
CONTINUOUS
 90
19
 70
0
 10
-13.3748084145
 20
18.3409707912
 10
-13.3745885599
 20
18.3302861347
 10
-13.3739295426
 20
18.3198479083
 10
-13.3728330018
 20
18.3096820758
 10
-13.3713016709
 20
18.2998139572
 10
-13.3693393557
 20
18.2902680626
 10
-13.3669509098
 20
18.2810680422
 10
-13.3641422397
 20
18.2722367303
 10
-13.3609203342
 20
18.2637961732
 10
-13.3572932366
 20
18.2557674648
 10
-13.353269957
 20
18.248170554
 10
-13.3488605145
 20
18.2410243632
 10
-13.3440759779
 20
18.2343467978
 10
-13.3389283445
 20
18.2281545205
 10
-13.3334303765
 20
18.2224628081
 10
-13.3275956428
 20
18.2172856819
 10
-13.3214374263
 20
18.2126351668
 10
-13.3149721521
 20
18.2085238932
 10
-13.3098459473
 20
18.2057577566
  0
LWPOLYLINE
  5
2FC
100
AcDbEntity
  8
RACCORDO
100
AcDbPolyline
 62
250
  6
CONTINUOUS
 90
19
 70
0
 10
-12.1542086821
 20
17.730670925
 10
-12.1539888274
 20
17.7199862685
 10
-12.1533298101
 20
17.709548042
 10
-12.1522332694
 20
17.6993822096
 10
-12.1507019385
 20
17.689514091
 10
-12.1487396232
 20
17.6799681963
 10
-12.1463511774
 20
17.6707681759
 10
-12.1435425073
 20
17.661936864
 10
-12.1403206018
 20
17.6534963069
 10
-12.1366935042
 20
17.6454675986
 10
-12.1326702246
 20
17.6378706877
 10
-12.128260782
 20
17.6307244969
 10
-12.1234762455
 20
17.6240469316
 10
-12.118328612
 20
17.6178546543
 10
-12.1128306441
 20
17.6121629419
 10
-12.1069959103
 20
17.6069858157
 10
-12.1008376939
 20
17.6023353006
 10
-12.0943724197
 20
17.5982240269
 10
-12.0892353856
 20
17.5954524749
  0
LWPOLYLINE
  5
2FD
100
AcDbEntity
  8
RACCORDO
100
AcDbPolyline
 62
7
  6
CONTINUOUS
 90
25
 70
0
 10
-13.2948386342
 20
25.6620168387
 10
-13.2953332553
 20
25.6940453261
 10
-13.2967988992
 20
25.7254550705
 10
-13.2992355659
 20
25.7562460719
 10
-13.3026493166
 20
25.786459205
 10
-13.3070340901
 20
25.816053595
 10
-13.3123717029
 20
25.844906618
 10
-13.3186661059
 20
25.8730151573
 10
-13.3259133481
 20
25.9003823295
 10
-13.3340833926
 20
25.92689486
 10
-13.3431799865
 20
25.9525490867
 10
-13.3531993827
 20
25.9773486717
 10
-13.3641003031
 20
26.0011913268
 10
-13.3758865461
 20
26.0240733631
 10
-13.3885543134
 20
26.0459984695
 10
-13.4020509318
 20
26.0668754245
 10
-13.4163796825
 20
26.0866996359
 10
-13.4315372844
 20
26.1054756959
 10
-13.4474612208
 20
26.1231261599
 10
-13.4641547834
 20
26.1396465109
 10
-13.4816146806
 20
26.1550412659
 10
-13.4997685204
 20
26.1692465316
 10
-13.5186192013
 20
26.1822573395
 10
-13.5381638249
 20
26.1940786581
 10
-13.554725639
 20
26.2028875486
  0
LINE
  5
2FE
100
AcDbEntity
  8
RACCORDO
100
AcDbLine
 62
7
  6
CONTINUOUS
 10
-14.773016399
 20
19.4318254129
 11
-14.773016399
 21
19.0918514788
  0
LINE
  5
2FF
100
AcDbEntity
  8
RACCORDO
100
AcDbLine
 62
250
  6
CONTINUOUS
 10
-14.6997930943
 20
19.3434370653
 11
-14.6997930943
 21
19.0034631311
  0
LINE
  5
300
100
AcDbEntity
  8
RACCORDO
100
AcDbLine
 62
7
  6
CONTINUOUS
 10
-14.0700234448
 20
18.1318724028
 11
-14.0700234448
 21
18.5858465045
  0
LINE
  5
301
100
AcDbEntity
  8
RACCORDO
100
AcDbLine
 62
250
  6
CONTINUOUS
 10
-13.9968001401
 20
18.040160708
 11
-13.9968001401
 21
18.5492348521
  0
LINE
  5
302
100
AcDbEntity
  8
RACCORDO
100
AcDbLine
 62
250
  6
CONTINUOUS
 10
-13.3748084145
 20
18.3409707912
 11
-13.3748084145
 21
18.6809447254
  0
LINE
  5
303
100
AcDbEntity
  8
RACCORDO
100
AcDbLine
 62
7
  6
CONTINUOUS
 10
-13.2948386342
 20
25.6620168387
 11
-13.2948386342
 21
25.3836588569
  0
LINE
  5
304
100
AcDbEntity
  8
RACCORDO
100
AcDbLine
 62
250
  6
CONTINUOUS
 10
-13.0222864549
 20
18.3404580674
 11
-13.0222864549
 21
18.6804320015
  0
LINE
  5
305
100
AcDbEntity
  8
RACCORDO
100
AcDbLine
 62
250
  6
CONTINUOUS
 10
-12.6635878064
 20
18.0623751641
 11
-12.6635878064
 21
17.3735545411
  0
LINE
  5
306
100
AcDbEntity
  8
RACCORDO
100
AcDbLine
 62
250
  6
CONTINUOUS
 10
-12.3110658468
 20
18.1919545445
 11
-12.3110658468
 21
17.3843224228
  0
LINE
  5
307
100
AcDbEntity
  8
RACCORDO
100
AcDbLine
 62
7
  6
CONTINUOUS
 10
-12.2274319868
 20
18.1590332068
 11
-12.2274319868
 21
17.8190592727
  0
LINE
  5
308
100
AcDbEntity
  8
RACCORDO
100
AcDbLine
 62
250
  6
CONTINUOUS
 10
-12.1542086821
 20
18.0706448591
 11
-12.1542086821
 21
17.730670925
  0
LWPOLYLINE
  5
309
100
AcDbEntity
  8
RACCORDO
100
AcDbPolyline
 62
250
  6
CONTINUOUS
 90
31
 70
0
 10
-13.3748084145
 20
18.6809447254
 10
-13.3745678333
 20
18.6923566348
 10
-13.3738467421
 20
18.7039780914
 10
-13.3726471003
 20
18.7157774645
 10
-13.3709721678
 20
18.7277226511
 10
-13.3688265013
 20
18.7397811262
 10
-13.3662159466
 20
18.75192003
 10
-13.3631476132
 20
18.7641063121
 10
-13.3596298519
 20
18.7763068116
 10
-13.3556722427
 20
18.7884883085
 10
-13.3512855608
 20
18.8006176441
 10
-13.3464817477
 20
18.8126618062
 10
-13.3412738831
 20
18.8245880082
 10
-13.3356761377
 20
18.8363638029
 10
-13.3297037561
 20
18.8479571253
 10
-13.3233730219
 20
18.8593363775
 10
-13.3167012009
 20
18.8704705453
 10
-13.3097064326
 20
18.8813293768
 10
-13.3024076957
 20
18.8918834128
 10
-13.2948247531
 20
18.9021040556
 10
-13.2869783348
 20
18.9119633445
 10
-13.2788900435
 20
18.9214341607
 10
-13.2705820757
 20
18.9304905887
 10
-13.2620769034
 20
18.9391082054
 10
-13.2533974406
 20
18.9472638192
 10
-13.2445653501
 20
18.9549368677
 10
-13.2356065671
 20
18.9621046153
 10
-13.2265512302
 20
18.9687435219
 10
-13.2174260615
 20
18.9748353193
 10
-13.2082540569
 20
18.9803659666
 10
-13.1990601585
 20
18.9853215403
  0
LWPOLYLINE
  5
30A
100
AcDbEntity
  8
RACCORDO
100
AcDbPolyline
 62
250
  6
CONTINUOUS
 90
31
 70
0
 10
-12.1542086821
 20
18.0706448591
 10
-12.1539681008
 20
18.0820567685
 10
-12.1532470096
 20
18.0936782252
 10
-12.1520473678
 20
18.1054775983
 10
-12.1503724353
 20
18.1174227849
 10
-12.1482267688
 20
18.12948126
 10
-12.1456162142
 20
18.1416201638
 10
-12.1425478807
 20
18.1538064459
 10
-12.1390301194
 20
18.1660069453
 10
-12.1350725102
 20
18.1781884422
 10
-12.1306858283
 20
18.1903177779
 10
-12.1258820153
 20
18.20236194
 10
-12.1206741507
 20
18.214288142
 10
-12.1150764053
 20
18.2260639367
 10
-12.1091040237
 20
18.2376572591
 10
-12.1027732894
 20
18.2490365113
 10
-12.0961014685
 20
18.260170679
 10
-12.0891067001
 20
18.2710295106
 10
-12.0818079633
 20
18.2815835466
 10
-12.0742250207
 20
18.2918041894
 10
-12.0663786023
 20
18.3016634783
 10
-12.058290311
 20
18.3111342945
 10
-12.0499823433
 20
18.3201907225
 10
-12.0414771709
 20
18.3288083391
 10
-12.0327977082
 20
18.336963953
 10
-12.0239656177
 20
18.3446370015
 10
-12.0150068347
 20
18.3518047491
 10
-12.0059514978
 20
18.3584436557
 10
-11.996826329
 20
18.364535453
 10
-11.9876543245
 20
18.3700661004
 10
-11.9784604261
 20
18.3750216741
  0
LWPOLYLINE
  5
30B
100
AcDbEntity
  8
RACCORDO
100
AcDbPolyline
 62
250
  6
CONTINUOUS
 90
16
 70
0
 10
-10.8205406353
 20
19.8344651081
 10
-10.8208461403
 20
19.8282876914
 10
-10.821830312
 20
19.8217850089
 10
-10.8234914114
 20
19.8153168218
 10
-10.8258249575
 20
19.8089006522
 10
-10.828824587
 20
19.8025540486
 10
-10.8324820203
 20
19.796294474
 10
-10.8367871592
 20
19.7901390757
 10
-10.8417282991
 20
19.7841044733
 10
-10.8472921069
 20
19.7782069144
 10
-10.8534648653
 20
19.7724612031
 10
-10.8602286148
 20
19.7668842949
 10
-10.867560133
 20
19.7614947171
 10
-10.8754367046
 20
19.7563078341
 10
-10.8838374097
 20
19.7513361821
 10
-10.8927384923
 20
19.746592825
  0
LINE
  5
30C
100
AcDbEntity
  8
C_CORPO
100
AcDbLine
 62
7
  6
CONTINUOUS
 10
-1.2568082296
 20
14.7134085849
 11
-1.1679573368
 21
14.76134568
  0
LINE
  5
30D
100
AcDbEntity
  8
C_CORPO
100
AcDbLine
 62
7
  6
CONTINUOUS
 10
0.5436393574
 20
15.4232480855
 11
0.2464463882
 21
15.2629056605
  0
LINE
  5
30E
100
AcDbEntity
  8
C_CORPO
100
AcDbLine
 62
250
  6
CONTINUOUS
 10
0.635143416
 20
15.4186410304
 11
0.3341626297
 21
15.2562426466
  0
LWPOLYLINE
  5
30F
100
AcDbEntity
  8
C_CORPO
100
AcDbPolyline
 62
250
  6
CONTINUOUS
 90
27
 70
0
 10
11.2196906025
 20
19.5917186637
 10
11.2405114025
 20
19.6028327817
 10
11.2606456294
 20
19.6142587729
 10
11.2800746067
 20
19.6259860385
 10
11.298780312
 20
19.6380037003
 10
11.316745394
 20
19.6503006107
 10
11.3339531882
 20
19.6628653631
 10
11.3503877327
 20
19.6756863024
 10
11.3660337827
 20
19.688751536
 10
11.380876825
 20
19.7020489444
 10
11.3949030912
 20
19.7155661931
 10
11.4080995706
 20
19.7292907434
 10
11.420454022
 20
19.7432098644
 10
11.4319549855
 20
19.7573106447
 10
11.4425917927
 20
19.7715800046
 10
11.4523545771
 20
19.7860047076
 10
11.4612342825
 20
19.8005713735
 10
11.4692226723
 20
19.8152664901
 10
11.4763123363
 20
19.8300764264
 10
11.4824966983
 20
19.8449874446
 10
11.4877700215
 20
19.8599857132
 10
11.4921274144
 20
19.8750573198
 10
11.4955648352
 20
19.8901882841
 10
11.4980790953
 20
19.9053645705
 10
11.4996678624
 20
19.9205721016
 10
11.5003296629
 20
19.9357967707
 10
11.5003508021
 20
19.9390449391
  0
LINE
  5
310
100
AcDbEntity
  8
DRAFT
100
AcDbLine
 62
7
  6
CONTINUOUS
 10
-1.5584475808
 20
14.8642282605
 11
-1.2033126759
 21
15.0455914611
  0
LINE
  5
311
100
AcDbEntity
  8
RACCORDO
100
AcDbLine
 62
7
  6
CONTINUOUS
 10
-0.288199619
 20
13.1688917674
 11
0.0694795302
 21
13.3481963122
  0
LINE
  5
312
100
AcDbEntity
  8
C_CORPO
100
AcDbLine
 62
7
  6
CONTINUOUS
 10
0.5478052789
 20
15.4253313564
 11
0.543639385
 21
15.4232480982
  0
LINE
  5
313
100
AcDbEntity
  8
ASSI
100
AcDbLine
 62
7
  6
CONTINUOUS
 10
0.0694795302
 20
13.3481963122
 11
5.3439715994
 21
15.9785054461
  0
LINE
  5
314
100
AcDbEntity
  8
C_CORPO
100
AcDbLine
 62
250
  6
CONTINUOUS
 10
6.5989209769
 20
17.2997828646
 11
11.2196906025
 21
19.5917186637
  0
LINE
  5
315
100
AcDbEntity
  8
ASSI
100
AcDbLine
 62
7
  6
CONTINUOUS
 10
4.7384411647
 20
16.2812706634
 11
0.1401902084
 21
14.0149093659
  0
LWPOLYLINE
  5
316
100
AcDbEntity
  8
ASSI
100
AcDbPolyline
 62
7
  6
CONTINUOUS
 90
7
 70
0
 10
4.7384411647
 20
16.2812706634
 10
4.7466504241
 20
16.2851981485
 10
4.7548343818
 20
16.2888832107
 10
4.7629930379
 20
16.29232585
 10
4.7711263923
 20
16.2955260664
 10
4.7792344451
 20
16.2984838599
 10
4.7873171962
 20
16.3011992305
  0
LWPOLYLINE
  5
317
100
AcDbEntity
  8
RACCORDO
100
AcDbPolyline
 62
7
  6
CONTINUOUS
 90
20
 70
0
 10
6.1567684409
 20
16.1012695406
 10
6.1831161998
 20
16.1135560026
 10
6.209346706
 20
16.124595791
 10
6.2354599596
 20
16.1343889057
 10
6.2614917547
 20
16.1429454377
 10
6.2874062972
 20
16.1502552961
 10
6.3130962042
 20
16.1562882083
 10
6.3385605096
 20
16.1610388624
 10
6.3638001796
 20
16.1645125704
 10
6.3887107294
 20
16.1666949955
 10
6.4132906659
 20
16.1675808179
 10
6.4375414823
 20
16.1671753575
 10
6.4613631728
 20
16.1654802373
 10
6.4847542431
 20
16.162490074
 10
6.5077161875
 20
16.1582102509
 10
6.5301534837
 20
16.1526585414
 10
6.5520636931
 20
16.1458297335
 10
6.5734492542
 20
16.1377290391
 10
6.5942219605
 20
16.1283898677
 10
6.5978176248
 20
16.1266159167
  0
LINE
  5
318
100
AcDbEntity
  8
C_CORPO
100
AcDbLine
 62
7
  6
CONTINUOUS
 10
-1.1679573368
 20
14.76134568
 11
-0.2538305666
 21
15.1835197156
  0
LINE
  5
319
100
AcDbEntity
  8
C_CORPO
100
AcDbLine
 62
7
  6
CONTINUOUS
 10
1.1268902564
 20
15.6927719892
 11
0.5478052663
 21
15.4253313506
  0
LINE
  5
31A
100
AcDbEntity
  8
C_CORPO
100
AcDbLine
 62
250
  6
CONTINUOUS
 10
1.2132141414
 20
15.6856132479
 11
0.635143416
 21
15.4186410304
  0
LWPOLYLINE
  5
31B
100
AcDbEntity
  8
C_CORPO
100
AcDbPolyline
 62
250
  6
CONTINUOUS
 90
17
 70
0
 10
1.2132141414
 20
15.6856132479
 10
1.219311644
 20
15.6883703847
 10
1.2253932039
 20
15.6907976662
 10
1.2314474983
 20
15.6928905727
 10
1.2374632572
 20
15.6946452071
 10
1.243429278
 20
15.6960583012
 10
1.2493344467
 20
15.6971272221
 10
1.2551677673
 20
15.6978499799
 10
1.2609183809
 20
15.6982252295
 10
1.2665755801
 20
15.6982522726
 10
1.2721288328
 20
15.6979310593
 10
1.2775677994
 20
15.697262188
 10
1.282882352
 20
15.696246905
 10
1.2880625963
 20
15.6948871013
 10
1.2930988878
 20
15.6931853093
 10
1.2979818486
 20
15.6911446992
 10
1.3001886357
 20
15.6900859548
  0
LINE
  5
31C
100
AcDbEntity
  8
RACCORDO
100
AcDbLine
 62
7
  6
CONTINUOUS
 10
-0.8518669218
 20
13.0366141031
 11
-0.9508252852
 21
13.0073024451
  0
LWPOLYLINE
  5
31D
100
AcDbEntity
  8
ASSI
100
AcDbPolyline
 62
7
  6
CONTINUOUS
 90
17
 70
0
 10
4.7873171962
 20
16.3011992305
 10
4.798349921
 20
16.3044161283
 10
4.8099470687
 20
16.3069999435
 10
4.8221116091
 20
16.3089335517
 10
4.8348703882
 20
16.3102180717
 10
4.8481985249
 20
16.3108155584
 10
4.8620122073
 20
16.3106540061
 10
4.8762999596
 20
16.30970512
 10
4.8910502208
 20
16.3079685815
 10
4.9061649812
 20
16.3054235706
 10
4.9215891868
 20
16.3020605068
 10
4.9373353137
 20
16.2978722672
 10
4.9534008305
 20
16.2928458874
 10
4.9697271241
 20
16.2869900435
 10
4.9863265401
 20
16.2802793436
 10
5.0033065099
 20
16.2726413101
 10
5.0140893516
 20
16.2673997558
  0
LWPOLYLINE
  5
31E
100
AcDbEntity
  8
RACCORDO
100
AcDbPolyline
 62
7
  6
CONTINUOUS
 90
4
 70
0
 10
-0.9508252852
 20
13.0073024451
 10
-0.972644842
 20
13.0009750938
 10
-0.9830942744
 20
12.9980149585
 10
-0.9932435383
 20
12.9952123426
  0
LWPOLYLINE
  5
31F
100
AcDbEntity
  8
RACCORDO
100
AcDbPolyline
 62
250
  6
CONTINUOUS
 90
31
 70
0
 10
2.8876161218
 20
-30.9140973603
 10
2.8827376076
 20
-30.9064845782
 10
2.8773919546
 20
-30.8986480981
 10
2.8715933575
 20
-30.8906091109
 10
2.8653566734
 20
-30.8823886252
 10
2.8586990876
 20
-30.8740096754
 10
2.8516404481
 20
-30.8654973949
 10
2.8442008011
 20
-30.8568759054
 10
2.8363997744
 20
-30.8481679027
 10
2.8282584626
 20
-30.8393969457
 10
2.8197989304
 20
-30.8305868361
 10
2.811044394
 20
-30.8217617816
 10
2.8020189745
 20
-30.8129461083
 10
2.7927474106
 20
-30.8041639762
 10
2.7832549442
 20
-30.7954392909
 10
2.773567478
 20
-30.7867958612
 10
2.7637114541
 20
-30.7782572817
 10
2.7537138079
 20
-30.7698468903
 10
2.7436018717
 20
-30.7615876805
 10
2.7334032739
 20
-30.7535022184
 10
2.7231458623
 20
-30.7456125816
 10
2.7128576542
 20
-30.7379403198
 10
2.702566735
 20
-30.730506378
 10
2.6923012292
 20
-30.7233310731
 10
2.6820892225
 20
-30.7164340347
 10
2.6719586378
 20
-30.7098341169
 10
2.6619371125
 20
-30.7035493209
 10
2.6520519722
 20
-30.6975967814
 10
2.6423302017
 20
-30.6919927485
 10
2.6327983693
 20
-30.6867525381
 10
2.6234825098
 20
-30.6818904627
  0
LWPOLYLINE
  5
320
100
AcDbEntity
  8
RACCORDO
100
AcDbPolyline
 62
7
  6
CONTINUOUS
 90
24
 70
0
 10
-11.1220876288
 20
-10.8001152668
 10
-11.1197560142
 20
-10.8112370672
 10
-11.1172309539
 20
-10.8223347345
 10
-11.1145133325
 20
-10.8334011098
 10
-11.111606692
 20
-10.8444352546
 10
-11.1085101535
 20
-10.8554232947
 10
-11.1052186809
 20
-10.8663386115
 10
-11.1017354345
 20
-10.8771726358
 10
-11.0980624452
 20
-10.8879187506
 10
-11.0941937457
 20
-10.8985532974
 10
-11.090133661
 20
-10.9090674238
 10
-11.0858851823
 20
-10.9194542984
 10
-11.0814407588
 20
-10.9296930364
 10
-11.0768054917
 20
-10.939775165
 10
-11.0719835005
 20
-10.9496927101
 10
-11.0669659871
 20
-10.9594249664
 10
-11.061759367
 20
-10.9689627782
 10
-11.0563684631
 20
-10.978297946
 10
-11.0507822427
 20
-10.9874102675
 10
-11.0450083239
 20
-10.9962902643
 10
-11.0390524963
 20
-11.00492874
 10
-11.0329011515
 20
-11.0133044897
 10
-11.0265633574
 20
-11.0214075138
 10
-11.0235739473
 20
-11.0250589592
  0
LWPOLYLINE
  5
321
100
AcDbEntity
  8
RACCORDO
100
AcDbPolyline
 62
250
  6
CONTINUOUS
 90
31
 70
0
 10
-10.4767020426
 20
17.4076397954
 10
-10.4769971319
 20
17.4190679243
 10
-10.477773301
 20
17.4307085034
 10
-10.4790284243
 20
17.4425296157
 10
-10.4807590649
 20
17.4544988595
 10
-10.482960479
 20
17.4665834056
 10
-10.4856266253
 20
17.4787500857
 10
-10.4887501899
 20
17.4909655307
 10
-10.4923226086
 20
17.5031962537
 10
-10.4963340813
 20
17.5154087085
 10
-10.5007736069
 20
17.5275694091
 10
-10.5056290101
 20
17.5396450114
 10
-10.5108869712
 20
17.5516023951
 10
-10.5165330746
 20
17.5634087834
 10
-10.5225518325
 20
17.575031796
 10
-10.5289267193
 20
17.5864395302
 10
-10.535640223
 20
17.5976006679
 10
-10.542673955
 20
17.6084846561
 10
-10.55000869
 20
17.619061748
 10
-10.5576244245
 20
17.6293030756
 10
-10.5655001823
 20
17.6391804096
 10
-10.5736141095
 20
17.6486663681
 10
-10.5819437694
 20
17.6577347985
 10
-10.5904664703
 20
17.6663610718
 10
-10.5991590848
 20
17.6745218072
 10
-10.6079996248
 20
17.6821961674
 10
-10.6169620642
 20
17.6893613688
 10
-10.6260164412
 20
17.6959939953
 10
-10.6351359971
 20
17.7020756857
 10
-10.6442974615
 20
17.7075921515
 10
-10.6534757463
 20
17.7125293342
  0
LWPOLYLINE
  5
322
100
AcDbEntity
  8
RACCORDO
100
AcDbPolyline
 62
7
  6
CONTINUOUS
 90
31
 70
0
 10
-11.421005664
 20
19.483154005
 10
-11.421247706
 20
19.4946061205
 10
-11.4219738534
 20
19.5062689757
 10
-11.4231819824
 20
19.5181106748
 10
-11.4248685481
 20
19.5300988829
 10
-11.427028921
 20
19.5422007476
 10
-11.4296574001
 20
19.554382988
 10
-11.4327467129
 20
19.5666122516
 10
-11.4362882747
 20
19.5788550796
 10
-11.4402725388
 20
19.5910778315
 10
-11.4446885481
 20
19.6032470264
 10
-11.4495241096
 20
19.6153293556
 10
-11.4547660657
 20
19.6272916473
 10
-11.4604000441
 20
19.6391011179
 10
-11.4664105437
 20
19.6507254288
 10
-11.4727811202
 20
19.6621326957
 10
-11.47949434
 20
19.6732916393
 10
-11.4865317758
 20
19.6841716883
 10
-11.4938741018
 20
19.6947430321
 10
-11.5015012528
 20
19.7049766668
 10
-11.5093923295
 20
19.7148445415
 10
-11.5175256011
 20
19.7243196544
 10
-11.5258788654
 20
19.7333759915
 10
-11.5344292658
 20
19.7419887132
 10
-11.5431532031
 20
19.7501342921
 10
-11.5520268849
 20
19.7577903447
 10
-11.5610260607
 20
19.7649358545
 10
-11.5701258447
 20
19.7715513475
 10
-11.5793013043
 20
19.7776186898
 10
-11.588527529
 20
19.7831211373
 10
-11.5977793677
 20
19.7880435438
  0
LWPOLYLINE
  5
323
100
AcDbEntity
  8
RACCORDO
100
AcDbPolyline
 62
250
  6
CONTINUOUS
 90
19
 70
0
 10
-10.8292240022
 20
17.0681785851
 10
-10.8290041476
 20
17.0574939286
 10
-10.8283451303
 20
17.0470557021
 10
-10.8272485895
 20
17.0368898696
 10
-10.8257172586
 20
17.0270217511
 10
-10.8237549434
 20
17.0174758564
 10
-10.8213664975
 20
17.008275836
 10
-10.8185578275
 20
16.9994445241
 10
-10.8153359219
 20
16.991003967
 10
-10.8117088244
 20
16.9829752587
 10
-10.8076855447
 20
16.9753783478
 10
-10.8032761022
 20
16.968232157
 10
-10.7984915656
 20
16.9615545917
 10
-10.7933439322
 20
16.9553623144
 10
-10.7878459642
 20
16.949670602
 10
-10.7820112305
 20
16.9444934758
 10
-10.7758530141
 20
16.9398429607
 10
-10.7693877399
 20
16.935731687
 10
-10.764261535
 20
16.9329655505
  0
LWPOLYLINE
  5
324
100
AcDbEntity
  8
RACCORDO
100
AcDbPolyline
 62
250
  6
CONTINUOUS
 90
31
 70
0
 10
-10.8927384923
 20
19.746592825
 10
-10.8929286452
 20
19.7580709447
 10
-10.8936055993
 20
19.7697584474
 10
-10.894767499
 20
19.7816232999
 10
-10.89641116
 20
19.7936329829
 10
-10.8985320772
 20
19.8057545799
 10
-10.9011244376
 20
19.8179548681
 10
-10.9041811361
 20
19.8302004088
 10
-10.9076937947
 20
19.8424576391
 10
-10.9116527859
 20
19.8546929644
 10
-10.9160472589
 20
19.8668728498
 10
-10.9208651693
 20
19.8789639127
 10
-10.9260933121
 20
19.8909330137
 10
-10.9317173578
 20
19.9027473476
 10
-10.9377218922
 20
19.9143745338
 10
-10.9440904577
 20
19.9257827041
 10
-10.9508055996
 20
19.936940591
 10
-10.9578489126
 20
19.9478176128
 10
-10.9652010926
 20
19.9583839576
 10
-10.9728419885
 20
19.968610665
 10
-10.980750658
 20
19.9784697055
 10
-10.988905425
 20
19.9879340575
 10
-10.9972839388
 20
19.9969777808
 10
-11.0058632355
 20
20.0055760883
 10
-11.0146198008
 20
20.0137054137
 10
-11.0235296346
 20
20.0213434759
 10
-11.0325683168
 20
20.0284693406
 10
-11.0417110739
 20
20.0350634771
 10
-11.0509328475
 20
20.0411078119
 10
-11.0602083623
 20
20.0465857789
 10
-11.069512196
 20
20.0514823639
  0
LINE
  5
325
100
AcDbEntity
  8
RACCORDO
100
AcDbLine
 62
7
  6
CONTINUOUS
 10
-11.5244390325
 20
16.8590801967
 11
-11.5244390325
 21
17.3130542983
  0
LINE
  5
326
100
AcDbEntity
  8
RACCORDO
100
AcDbLine
 62
250
  6
CONTINUOUS
 10
-11.4512157278
 20
16.7673685018
 11
-11.4512157278
 21
17.276442646
  0
LINE
  5
327
100
AcDbEntity
  8
RACCORDO
100
AcDbLine
 62
7
  6
CONTINUOUS
 10
-11.421005664
 20
18.7254695815
 11
-11.421005664
 21
19.483154005
  0
LINE
  5
328
100
AcDbEntity
  8
RACCORDO
100
AcDbLine
 62
250
  6
CONTINUOUS
 10
-10.8927384923
 20
19.746592825
 11
-10.8927384923
 21
19.3990613083
  0
LINE
  5
329
100
AcDbEntity
  8
RACCORDO
100
AcDbLine
 62
250
  6
CONTINUOUS
 10
-10.8292240022
 20
17.0681785851
 11
-10.8292240022
 21
17.4081525192
  0
LINE
  5
32A
100
AcDbEntity
  8
RACCORDO
100
AcDbLine
 62
7
  6
CONTINUOUS
 10
-10.8205406353
 20
19.8344654572
 11
-10.8205406353
 21
19.4869339405
  0
LINE
  5
32B
100
AcDbEntity
  8
ASSI
100
AcDbLine
 62
250
  6
CONTINUOUS
 10
-10.5155889762
 20
22.7346011564
 11
-10.5155889762
 21
23.9540934344
  0
LINE
  5
32C
100
AcDbEntity
  8
RACCORDO
100
AcDbLine
 62
250
  6
CONTINUOUS
 10
-10.4767020426
 20
17.0676658612
 11
-10.4767020426
 21
17.4076397954
  0
LINE
  5
32D
100
AcDbEntity
  8
ASSI
100
AcDbLine
 62
7
  6
CONTINUOUS
 10
-10.3919949124
 20
22.8827602593
 11
-10.3919949124
 21
23.9630981785
  0
LINE
  5
32E
100
AcDbEntity
  8
RACCORDO
100
AcDbLine
 62
250
  6
CONTINUOUS
 10
-10.1180033942
 20
16.7895829579
 11
-10.1180033942
 21
16.100762335
  0
LINE
  5
32F
100
AcDbEntity
  8
RACCORDO
100
AcDbLine
 62
250
  6
CONTINUOUS
 10
-9.7654814345
 20
16.9191623384
 11
-9.7654814345
 21
16.1115302166
  0
LINE
  5
330
100
AcDbEntity
  8
RACCORDO
100
AcDbLine
 62
7
  6
CONTINUOUS
 10
-8.8754212518
 20
16.6157688271
 11
-8.8754212518
 21
18.2103617989
  0
LWPOLYLINE
  5
331
100
AcDbEntity
  8
RACCORDO
100
AcDbPolyline
 62
250
  6
CONTINUOUS
 90
31
 70
0
 10
-10.8292240022
 20
17.4081525192
 10
-10.8289835268
 20
17.4195618951
 10
-10.8282627546
 20
17.4311807053
 10
-10.8270636467
 20
17.4429773389
 10
-10.8253894654
 20
17.4549197012
 10
-10.8232447657
 20
17.4669753009
 10
-10.8206353825
 20
17.4791113388
 10
-10.8175684152
 20
17.4912947966
 10
-10.8140522079
 20
17.5034925273
 10
-10.8100963271
 20
17.5156713448
 10
-10.8057115354
 20
17.5277981145
 10
-10.8009097624
 20
17.5398398437
 10
-10.7957040721
 20
17.5517637706
 10
-10.7901086276
 20
17.5635374543
 10
-10.784138652
 20
17.5751288623
 10
-10.7778103879
 20
17.5865064585
 10
-10.7711410522
 20
17.597639288
 10
-10.76414879
 20
17.6084970621
 10
-10.7568526251
 20
17.6190502403
 10
-10.7492724078
 20
17.6292701111
 10
-10.7414287614
 20
17.6391288695
 10
-10.7333430258
 20
17.648599693
 10
-10.7250371998
 20
17.6576568148
 10
-10.7165338806
 20
17.6662755932
 10
-10.7078562031
 20
17.6744325796
 10
-10.6990277762
 20
17.6821055815
 10
-10.6900726193
 20
17.689273723
 10
-10.6810150964
 20
17.6959175022
 10
-10.6718798499
 20
17.7020188435
 10
-10.662691734
 20
17.7075611471
 10
-10.6534757463
 20
17.7125293342
  0
LWPOLYLINE
  5
332
100
AcDbEntity
  8
RACCORDO
100
AcDbPolyline
 62
250
  6
CONTINUOUS
 90
16
 70
0
 10
-8.274956223
 20
18.5616732511
 10
-8.2752574936
 20
18.5555384222
 10
-8.2762372122
 20
18.549035474
 10
-8.2778939012
 20
18.5425669098
 10
-8.2802230527
 20
18.5361503431
 10
-8.2832183329
 20
18.529803232
 10
-8.2868715918
 20
18.5235428552
 10
-8.2911728899
 20
18.517386252
 10
-8.2961105224
 20
18.5113501815
 10
-8.3016710477
 20
18.5054510791
 10
-8.3078393368
 20
18.4997049977
 10
-8.3145985981
 20
18.494127582
 10
-8.321930412
 20
18.4887340297
 10
-8.3298148101
 20
18.4835390253
 10
-8.3382303359
 20
18.4785567018
 10
-8.34715408
 20
18.4738006189
  0
LWPOLYLINE
  5
333
100
AcDbEntity
  8
RACCORDO
100
AcDbPolyline
 62
250
  6
CONTINUOUS
 90
16
 70
0
 10
-10.8205406353
 20
19.4869339405
 10
-10.8208438564
 20
19.4807792962
 10
-10.8218253621
 20
19.474277787
 10
-10.8234835399
 20
19.4678107109
 10
-10.8258138785
 20
19.4613956629
 10
-10.8288100376
 20
19.4550500961
 10
-10.8324638658
 20
19.4487912746
 10
-10.8367654222
 20
19.4426362268
 10
-10.8417030037
 20
19.4366016984
 10
-10.8472631768
 20
19.4307041074
 10
-10.853430814
 20
19.4249594991
 10
-10.8601891354
 20
19.4193835029
 10
-10.8675197536
 20
19.4139912891
 10
-10.8754027245
 20
19.4087975281
 10
-10.8838166012
 20
19.4038163504
 10
-10.8927384923
 20
19.3990613083
  0
LWPOLYLINE
  5
334
100
AcDbEntity
  8
RACCORDO
100
AcDbPolyline
 62
250
  6
CONTINUOUS
 90
16
 70
0
 10
-8.2749562231
 20
18.2141394221
 10
-8.2752591463
 20
18.2079901114
 10
-8.2762403833
 20
18.2014883645
 10
-8.2778983411
 20
18.1950210455
 10
-8.2802285075
 20
18.1886057536
 10
-8.283224543
 20
18.1822599414
 10
-8.2868782995
 20
18.1760008693
 10
-8.2911798442
 20
18.1698455587
 10
-8.2961174699
 20
18.1638107671
 10
-8.3016777229
 20
18.1579129353
 10
-8.3078454564
 20
18.152168121
 10
-8.314603895
 20
18.1465919414
 10
-8.3219346657
 20
18.141199553
 10
-8.3298178298
 20
18.1360056232
 10
-8.3382319323
 20
18.1310242884
 10
-8.34715408
 20
18.1262691022
  0
LWPOLYLINE
  5
335
100
AcDbEntity
  8
RACCORDO
100
AcDbPolyline
 62
7
  6
CONTINUOUS
 90
5
 70
0
 10
-6.6461758083
 20
16.1354792319
 10
-6.6482123516
 20
16.1263578339
 10
-6.6497267104
 20
16.1165242364
 10
-6.6506830941
 20
16.1060660765
 10
-6.6510150804
 20
16.0945202582
  0
LWPOLYLINE
  5
336
100
AcDbEntity
  8
C_CONTATTI
100
AcDbPolyline
 62
250
  6
CONTINUOUS
 90
11
 70
0
 10
1.6441033816
 20
20.2403476043
 10
1.6503666627
 20
20.2502304083
 10
1.6968644363
 20
20.3122360842
 10
1.7497270874
 20
20.3729531822
 10
1.8088059579
 20
20.4322123994
 10
1.8738987373
 20
20.4898203326
 10
1.9447745691
 20
20.5455938003
 10
2.0212677069
 20
20.5994217358
 10
2.1032591107
 20
20.6512229195
 10
2.1905077076
 20
20.7008405588
 10
2.2110048691
 20
20.711776927
  0
LINE
  5
337
100
AcDbEntity
  8
C_CORPO
100
AcDbLine
 62
7
  6
CONTINUOUS
 10
0.1942973183
 20
15.2223794115
 11
-0.5841930807
 21
14.3771010104
  0
LINE
  5
338
100
AcDbEntity
  8
C_CORPO
100
AcDbLine
 62
250
  6
CONTINUOUS
 10
0.282767874
 20
15.2151795499
 11
-0.519077053
 21
14.3445429966
  0
LWPOLYLINE
  5
339
100
AcDbEntity
  8
C_CORPO
100
AcDbPolyline
 62
250
  6
CONTINUOUS
 90
12
 70
0
 10
0.282767874
 20
15.2151795499
 10
0.2872097863
 20
15.2197679203
 10
0.2917153468
 20
15.2242004266
 10
0.2962792709
 20
15.2284718624
 10
0.3008961535
 20
15.2325771656
 10
0.3055606293
 20
15.2365115614
 10
0.3102673833
 20
15.2402705493
 10
0.3150160916
 20
15.2438535002
 10
0.3197960587
 20
15.2472519766
 10
0.3245860752
 20
15.2504518737
 10
0.3293751117
 20
15.2534481174
 10
0.3341626297
 20
15.2562426466
  0
LWPOLYLINE
  5
33A
100
AcDbEntity
  8
RACCORDO
100
AcDbPolyline
 62
7
  6
CONTINUOUS
 90
3
 70
0
 10
-18.7739378242
 20
-1.7001333873
 10
-18.7805009413
 20
-1.7047899313
 10
-18.7930170272
 20
-1.7137574608
  0
LINE
  5
33B
100
AcDbEntity
  8
RACCORDO
100
AcDbLine
 62
7
  6
CONTINUOUS
 10
-18.7601714651
 20
-1.6905034723
 11
-18.7739378242
 21
-1.7001333873
  0
LINE
  5
33C
100
AcDbEntity
  8
RACCORDO
100
AcDbLine
 62
7
  6
CONTINUOUS
 10
-18.7456109722
 20
-1.6804638797
 11
-18.7601714651
 21
-1.6905034723
  0
LINE
  5
33D
100
AcDbEntity
  8
RACCORDO
100
AcDbLine
 62
7
  6
CONTINUOUS
 10
-18.7302755877
 20
-1.670047803
 11
-18.7456109722
 21
-1.6804638797
  0
LINE
  5
33E
100
AcDbEntity
  8
RACCORDO
100
AcDbLine
 62
7
  6
CONTINUOUS
 10
-18.7142061529
 20
-1.6592826319
 11
-18.7302755877
 21
-1.670047803
  0
LINE
  5
33F
100
AcDbEntity
  8
RACCORDO
100
AcDbLine
 62
7
  6
CONTINUOUS
 10
-18.6974391907
 20
-1.6481889166
 11
-18.7142061529
 21
-1.6592826319
  0
LWPOLYLINE
  5
340
100
AcDbEntity
  8
RACCORDO
100
AcDbPolyline
 62
7
  6
CONTINUOUS
 90
3
 70
0
 10
-18.6710390276
 20
-1.6310068859
 10
-18.6799970911
 20
-1.6368033652
 10
-18.6974391907
 20
-1.6481889166
  0
LINE
  5
341
100
AcDbEntity
  8
DRAFT
100
AcDbLine
 62
7
  6
CONTINUOUS
 10
0.1698305891
 20
12.19300236
 11
0.0694795302
 21
12.1357607469
  0
LINE
  5
342
100
AcDbEntity
  8
RACCORDO
100
AcDbLine
 62
7
  6
CONTINUOUS
 10
0.0694795302
 20
12.1357607469
 11
-0.288199619
 21
11.936164795
  0
LINE
  5
343
100
AcDbEntity
  8
RACCORDO
100
AcDbLine
 62
7
  6
CONTINUOUS
 10
2.8559457375
 20
12.5115086252
 11
1.2727720722
 21
11.699310567
  0
LINE
  5
344
100
AcDbEntity
  8
RACCORDO
100
AcDbLine
 62
250
  6
CONTINUOUS
 10
2.9686143415
 20
12.5048466892
 11
1.3858577383
 21
11.6928625919
  0
LINE
  5
345
100
AcDbEntity
  8
RACCORDO
100
AcDbLine
 62
7
  6
CONTINUOUS
 10
2.857682128
 20
12.5123768345
 11
2.8559457144
 21
12.5115086133
  0
LINE
  5
346
100
AcDbEntity
  8
DRAFT
100
AcDbLine
 62
7
  6
CONTINUOUS
 10
0.1698305891
 20
12.19300236
 11
5.3943136005
 21
14.779649868
  0
LINE
  5
347
100
AcDbEntity
  8
RACCORDO
100
AcDbLine
 62
7
  6
CONTINUOUS
 10
6.1567684409
 20
16.1012695406
 11
5.5179076643
 21
15.7886674155
  0
LINE
  5
348
100
AcDbEntity
  8
RACCORDO
100
AcDbLine
 62
7
  6
CONTINUOUS
 10
3.3925521091
 20
12.7729289468
 11
2.8576821514
 21
12.5123768465
  0
LINE
  5
349
100
AcDbEntity
  8
RACCORDO
100
AcDbLine
 62
250
  6
CONTINUOUS
 10
3.5030642202
 20
12.7651941558
 11
2.9686143415
 21
12.5048466892
  0
LINE
  5
34A
100
AcDbEntity
  8
RACCORDO
100
AcDbLine
 62
7
  6
CONTINUOUS
 10
9.2175635574
 20
14.5708719824
 11
4.5263206704
 21
12.3155433015
  0
LINE
  5
34B
100
AcDbEntity
  8
RACCORDO
100
AcDbLine
 62
250
  6
CONTINUOUS
 10
-21.7213375706
 20
-13.3285913038
 11
-22.6480564385
 21
-13.5168208115
  0
LINE
  5
34C
100
AcDbEntity
  8
RACCORDO
100
AcDbLine
 62
250
  6
CONTINUOUS
 10
-16.6204125817
 20
-2.8000596836
 11
-18.7930170274
 21
-1.7137574607
  0
LINE
  5
34D
100
AcDbEntity
  8
RACCORDO
100
AcDbLine
 62
250
  6
CONTINUOUS
 10
-16.7058866994
 20
-2.2889454698
 11
-18.370621689
 21
-1.456577975
  0
LWPOLYLINE
  5
34E
100
AcDbEntity
  8
ASSI
100
AcDbPolyline
 62
7
  6
CONTINUOUS
 90
6
 70
0
 10
-10.3919949124
 20
23.9630978215
 10
-10.3922161522
 20
23.9656201738
 10
-10.3932061345
 20
23.9686019747
 10
-10.3949506584
 20
23.9710792471
 10
-10.3974075738
 20
23.9730668849
 10
-10.3987697865
 20
23.9738290955
  0
LWPOLYLINE
  5
34F
100
AcDbEntity
  8
RACCORDO
100
AcDbPolyline
 62
7
  6
CONTINUOUS
 90
27
 70
0
 10
-6.6510150804
 20
16.0945202582
 10
-6.650738844
 20
16.0836284371
 10
-6.6499476599
 20
16.0717685871
 10
-6.6486358895
 20
16.0595557705
 10
-6.6467831317
 20
16.0470499654
 10
-6.644460302
 20
16.0342730177
 10
-6.6416657658
 20
16.0212680614
 10
-6.6383880677
 20
16.0080810828
 10
-6.634680318
 20
15.9947235702
 10
-6.6305423029
 20
15.9812280066
 10
-6.6259680991
 20
15.9676305557
 10
-6.6209986069
 20
15.9539393678
 10
-6.6156341389
 20
15.9401801967
 10
-6.6098720943
 20
15.9263821924
 10
-6.6037455401
 20
15.9125534123
 10
-6.5972549951
 20
15.8987150923
 10
-6.5903999494
 20
15.8848915583
 10
-6.5832089378
 20
15.8710925982
 10
-6.5756826395
 20
15.857336312
 10
-6.5678220001
 20
15.8436436847
 10
-6.5596535607
 20
15.83002732
 10
-6.5511780324
 20
15.8165026625
 10
-6.5423977613
 20
15.8030886831
 10
-6.5333400764
 20
15.7898025321
 10
-6.5240152346
 20
15.7766602901
 10
-6.5144176373
 20
15.76367664
 10
-6.504550638
 20
15.7508658924
  0
LWPOLYLINE
  5
350
100
AcDbEntity
  8
RACCORDO
100
AcDbPolyline
 62
7
  6
CONTINUOUS
 90
31
 70
0
 10
-8.8754212518
 20
18.2103617989
 10
-8.8756632937
 20
18.2218139144
 10
-8.8763894411
 20
18.2334767695
 10
-8.8775975702
 20
18.2453184686
 10
-8.8792841358
 20
18.2573066768
 10
-8.8814445087
 20
18.2694085414
 10
-8.8840729878
 20
18.2815907818
 10
-8.8871623007
 20
18.2938200454
 10
-8.8907038624
 20
18.3060628735
 10
-8.8946881266
 20
18.3182856253
 10
-8.8991041359
 20
18.3304548203
 10
-8.9039396973
 20
18.3425371494
 10
-8.9091816534
 20
18.3544994412
 10
-8.9148156318
 20
18.3663089118
 10
-8.9208261315
 20
18.3779332227
 10
-8.9271967079
 20
18.3893404896
 10
-8.9339099277
 20
18.4004994331
 10
-8.9409473636
 20
18.4113794821
 10
-8.9482896896
 20
18.421950826
 10
-8.9559168406
 20
18.4321844607
 10
-8.9638079172
 20
18.4420523353
 10
-8.9719411889
 20
18.4515274483
 10
-8.9802944531
 20
18.4605837853
 10
-8.9888448536
 20
18.4691965071
 10
-8.9975687909
 20
18.477342086
 10
-9.0064424726
 20
18.4849981386
 10
-9.0154416484
 20
18.4921436484
 10
-9.0245414324
 20
18.4987591414
 10
-9.0337168921
 20
18.5048264837
 10
-9.0429431167
 20
18.5103289311
 10
-9.0521949554
 20
18.5152513377
  0
LWPOLYLINE
  5
351
100
AcDbEntity
  8
RACCORDO
100
AcDbPolyline
 62
250
  6
CONTINUOUS
 90
31
 70
0
 10
-8.34715408
 20
18.4738006189
 10
-8.347344324
 20
18.4852811705
 10
-8.3480215749
 20
18.4969712087
 10
-8.3491839784
 20
18.5088386808
 10
-8.3508283519
 20
18.5208510583
 10
-8.3529501882
 20
18.5329753932
 10
-8.3555436645
 20
18.5451784083
 10
-8.3586016661
 20
18.5574266349
 10
-8.3621158085
 20
18.569686496
 10
-8.3660764515
 20
18.5819243656
 10
-8.3704727332
 20
18.5941066882
 10
-8.375292597
 20
18.6062000601
 10
-8.3805228206
 20
18.6181713126
 10
-8.3861490643
 20
18.6299876308
 10
-8.3921558947
 20
18.6416166071
 10
-8.398526819
 20
18.6530263227
 10
-8.4052443357
 20
18.6641854538
 10
-8.4122900453
 20
18.6750634532
 10
-8.4196446894
 20
18.6856305905
 10
-8.4272882107
 20
18.6958580247
 10
-8.4351995567
 20
18.7057175647
 10
-8.4433567742
 20
18.715181878
 10
-8.4517373063
 20
18.7242248723
 10
-8.4603183218
 20
18.7328219883
 10
-8.4690765351
 20
18.7409499243
 10
-8.4779897936
 20
18.7485879252
 10
-8.4870318593
 20
18.7557133135
 10
-8.496172499
 20
18.7623028086
 10
-8.5053846869
 20
18.7683381831
 10
-8.5146449047
 20
18.7738052722
 10
-8.5239277837
 20
18.7786901577
  0
LINE
  5
352
100
AcDbEntity
  8
RACCORDO
100
AcDbLine
 62
250
  6
CONTINUOUS
 10
-8.34715408
 20
18.4738006189
 11
-8.34715408
 21
18.1262691022
  0
LINE
  5
353
100
AcDbEntity
  8
RACCORDO
100
AcDbLine
 62
7
  6
CONTINUOUS
 10
-8.274956223
 20
18.5616732511
 11
-8.274956223
 21
18.2141417343
  0
LINE
  5
354
100
AcDbEntity
  8
RACCORDO
100
AcDbLine
 62
7
  6
CONTINUOUS
 10
-6.6509972474
 20
16.0945228615
 11
-6.6509972474
 21
14.8537059713
  0
LINE
  5
355
100
AcDbEntity
  8
RACCORDO
100
AcDbLine
 62
250
  6
CONTINUOUS
 10
-6.504550638
 20
15.7508658924
 11
-6.504550638
 21
14.6702825816
  0
LWPOLYLINE
  5
356
100
AcDbEntity
  8
C_CONTATTI
100
AcDbPolyline
 62
250
  6
CONTINUOUS
 90
49
 70
0
 10
1.73337928
 20
20.2087336216
 10
1.7342597847
 20
20.2104143257
 10
1.7717828602
 20
20.2695824075
 10
1.815156392
 20
20.3275604262
 10
1.8644396103
 20
20.3843411036
 10
1.919573285
 20
20.439931718
 10
1.9800767633
 20
20.4938742403
 10
2.0459491149
 20
20.5461271398
 10
2.1171912702
 20
20.5967319472
 10
2.1933253679
 20
20.6453552257
 10
2.2743419969
 20
20.6919829683
 10
2.3602505683
 20
20.7366291819
 10
2.450601454
 20
20.779002451
 10
2.5456517342
 20
20.819161649
 10
2.6451443287
 20
20.8570479025
 10
2.7478583691
 20
20.8921931756
 10
2.8541992378
 20
20.9245708955
 10
2.9637615524
 20
20.9542076351
 10
3.0741082968
 20
20.9807150773
 10
3.1852128137
 20
21.0039144707
 10
3.2971017605
 20
21.0239845668
 10
3.4074180926
 20
21.0410733025
 10
3.5158085825
 20
21.0550471984
 10
3.6226264577
 20
21.066039734
 10
3.7265743569
 20
21.0745992852
 10
3.8274101913
 20
21.0807018547
 10
3.9253760496
 20
21.0843714399
 10
4.0199008359
 20
21.0862284087
 10
4.110822576
 20
21.0862942776
 10
4.1983032442
 20
21.0845475301
 10
4.2822576675
 20
21.0815439847
 10
4.3625617409
 20
21.0773251841
 10
4.4393395695
 20
21.0718495856
 10
4.512878296
 20
21.06554838
 10
4.5831448297
 20
21.0584623462
 10
4.6501722612
 20
21.0505507053
 10
4.7143470054
 20
21.0421223111
 10
4.7756547522
 20
21.0332116706
 10
4.8341098116
 20
21.0237842768
 10
4.8901415281
 20
21.014045463
 10
4.9437461117
 20
21.0040239412
 10
4.9949273523
 20
20.9936909995
 10
5.0441259646
 20
20.9831658348
 10
5.0913451095
 20
20.9724712956
 10
5.1365816261
 20
20.9615845335
 10
5.180266746
 20
20.9505561998
 10
5.2225442131
 20
20.9394031785
 10
5.2632702835
 20
20.9281085857
 10
5.3024449572
 20
20.9166724214
  0
LINE
  5
357
100
AcDbEntity
  8
RACCORDO
100
AcDbLine
 62
7
  6
CONTINUOUS
 10
-18.6526593253
 20
-1.6192321639
 11
-18.6710390276
 21
-1.6310068859
  0
LINE
  5
358
100
AcDbEntity
  8
RACCORDO
100
AcDbLine
 62
7
  6
CONTINUOUS
 10
-18.6336980238
 20
-1.6072355341
 11
-18.6526593253
 21
-1.6192321639
  0
LINE
  5
359
100
AcDbEntity
  8
RACCORDO
100
AcDbLine
 62
7
  6
CONTINUOUS
 10
-18.6141957461
 20
-1.5950370624
 11
-18.6336980238
 21
-1.6072355341
  0
LINE
  5
35A
100
AcDbEntity
  8
RACCORDO
100
AcDbLine
 62
7
  6
CONTINUOUS
 10
-18.5941805054
 20
-1.5826832958
 11
-18.6141957461
 21
-1.5950370624
  0
LINE
  5
35B
100
AcDbEntity
  8
RACCORDO
100
AcDbLine
 62
7
  6
CONTINUOUS
 10
-18.5736969389
 20
-1.5702036716
 11
-18.5941805054
 21
-1.5826832958
  0
LINE
  5
35C
100
AcDbEntity
  8
RACCORDO
100
AcDbLine
 62
7
  6
CONTINUOUS
 10
-18.5527976928
 20
-1.5576232028
 11
-18.5736969389
 21
-1.5702036716
  0
LWPOLYLINE
  5
35D
100
AcDbEntity
  8
RACCORDO
100
AcDbPolyline
 62
7
  6
CONTINUOUS
 90
3
 70
0
 10
-18.5207716035
 20
-1.5386911715
 10
-18.5315248876
 20
-1.5450059958
 10
-18.5527976928
 20
-1.5576232028
  0
LWPOLYLINE
  5
35E
100
AcDbEntity
  8
RACCORDO
100
AcDbPolyline
 62
7
  6
CONTINUOUS
 90
3
 70
0
 10
-18.4881447913
 20
-1.519837524
 10
-18.499069073
 20
-1.5261039528
 10
-18.5207716035
 20
-1.5386911715
  0
LWPOLYLINE
  5
35F
100
AcDbEntity
  8
RACCORDO
100
AcDbPolyline
 62
250
  6
CONTINUOUS
 90
46
 70
0
 10
-1.031841351
 20
6.9247467615
 10
-1.0669851715
 20
6.9046490632
 10
-1.1020292716
 20
6.8832042712
 10
-1.1369363208
 20
6.8604357665
 10
-1.171669322
 20
6.8363687378
 10
-1.2061910985
 20
6.811029021
 10
-1.240464318
 20
6.7844429836
 10
-1.2744528667
 20
6.7566391128
 10
-1.3081201181
 20
6.7276478734
 10
-1.3414284257
 20
6.6975005415
 10
-1.3743420255
 20
6.6662300949
 10
-1.4068261586
 20
6.6338702264
 10
-1.438845321
 20
6.6004551189
 10
-1.4703655117
 20
6.5660208243
 10
-1.5013530349
 20
6.5306047863
 10
-1.5317736335
 20
6.4942448965
 10
-1.5615948649
 20
6.45698054
 10
-1.5907850019
 20
6.4188520576
 10
-1.6193118254
 20
6.3799002413
 10
-1.6471449382
 20
6.3401672223
 10
-1.6742547098
 20
6.2996960282
 10
-1.7006111882
 20
6.2585300599
 10
-1.7261862073
 20
6.2167139638
 10
-1.7509526442
 20
6.1742928662
 10
-1.7748833523
 20
6.1313119259
 10
-1.797952871
 20
6.0878174687
 10
-1.8201365885
 20
6.0438566443
 10
-1.8414099982
 20
5.999476661
 10
-1.8617504008
 20
5.9547254816
 10
-1.8811361802
 20
5.9096514559
 10
-1.8995459537
 20
5.8643029675
 10
-1.9169600917
 20
5.8187289604
 10
-1.9333600819
 20
5.7729786951
 10
-1.948727819
 20
5.7271013856
 10
-1.9630468548
 20
5.6811467371
 10
-1.9763020602
 20
5.6351641869
 10
-1.9884789588
 20
5.5892026623
 10
-1.9995646127
 20
5.5433113697
 10
-2.0095471364
 20
5.4975402279
 10
-2.01841539
 20
5.4519391035
 10
-2.0261598355
 20
5.406557695
 10
-2.0327724116
 20
5.3614444252
 10
-2.0382459665
 20
5.316646891
 10
-2.0425745798
 20
5.2722130617
 10
-2.0457536461
 20
5.228191207
 10
-2.0477797442
 20
5.1846287971
  0
LWPOLYLINE
  5
360
100
AcDbEntity
  8
RACCORDO
100
AcDbPolyline
 62
250
  6
CONTINUOUS
 90
46
 70
0
 10
-0.666008611
 20
6.3217443157
 10
-0.6896023979
 20
6.3083933392
 10
-0.7130827674
 20
6.2941747675
 10
-0.7364497197
 20
6.2790886004
 10
-0.7597291135
 20
6.2631162244
 10
-0.7828950899
 20
6.246276253
 10
-0.8058700724
 20
6.2286245274
 10
-0.8286526262
 20
6.210158829
 10
-0.851244186
 20
6.1908813763
 10
-0.8735714786
 20
6.1708546655
 10
-0.8956334624
 20
6.1500764268
 10
-0.917431179
 20
6.1285489299
 10
-0.93889448
 20
6.10634148
 10
-0.9600223764
 20
6.083451799
 10
-0.9808158572
 20
6.0598821649
 10
-1.0012077411
 20
6.0357087176
 10
-1.0211967197
 20
6.0109295072
 10
-1.0407841014
 20
5.9855464835
 10
-1.0599066302
 20
5.9596416356
 10
-1.0785628093
 20
5.9332132559
 10
-1.0967541355
 20
5.906263052
 10
-1.1144218424
 20
5.8788781353
 10
-1.1315641817
 20
5.8510571956
 10
-1.1481829017
 20
5.8228015431
 10
-1.1642244807
 20
5.7942022194
 10
-1.1796871014
 20
5.7652580375
 10
-1.1945725812
 20
5.7359701844
 10
-1.208832851
 20
5.7064332625
 10
-1.2224658797
 20
5.6766464802
 10
-1.2354736986
 20
5.6466106291
 10
-1.2478143317
 20
5.616422686
 10
-1.2594856228
 20
5.5860821461
 10
-1.2704897282
 20
5.5555895142
 10
-1.2807911415
 20
5.5250432813
 10
-1.290387565
 20
5.4944434026
 10
-1.2992812964
 20
5.4637899229
 10
-1.3074437229
 20
5.4331814674
 10
-1.3148725279
 20
5.4026179364
 10
-1.3215700279
 20
5.3720994297
 10
-1.3275145606
 20
5.3417248721
 10
-1.3327037141
 20
5.3114933469
 10
-1.3371399003
 20
5.2814057708
 10
-1.3408086917
 20
5.2515638178
 10
-1.3437052793
 20
5.2220013793
 10
-1.3458344722
 20
5.1926845638
 10
-1.3471962703
 20
5.1636133715
  0
LWPOLYLINE
  5
361
100
AcDbEntity
  8
RACCORDO
100
AcDbPolyline
 62
7
  6
CONTINUOUS
 90
3
 70
0
 10
-18.4552422738
 20
-1.5013093353
 10
-18.4662114879
 20
-1.5074341169
 10
-18.4881447913
 20
-1.519837524
  0
LINE
  5
362
100
AcDbEntity
  8
RACCORDO
100
AcDbLine
 62
250
  6
CONTINUOUS
 10
-1.031841351
 20
6.9247467615
 11
3.4871897874
 21
9.3918186897
  0
LINE
  5
363
100
AcDbEntity
  8
RACCORDO
100
AcDbLine
 62
250
  6
CONTINUOUS
 10
4.9343808469
 20
9.3791615354
 11
-0.666008611
 21
6.3217443157
  0
LWPOLYLINE
  5
364
100
AcDbEntity
  8
RACCORDO
100
AcDbPolyline
 62
7
  6
CONTINUOUS
 90
3
 70
0
 10
-18.4225593635
 20
-1.483458378
 10
-18.4333871199
 20
-1.4893118473
 10
-18.4552422738
 20
-1.5013093353
  0
LINE
  5
365
100
AcDbEntity
  8
RACCORDO
100
AcDbLine
 62
7
  6
CONTINUOUS
 10
10.1052698434
 20
13.8263706881
 11
4.6137265151
 21
10.8635570772
  0
LWPOLYLINE
  5
366
100
AcDbEntity
  8
RACCORDO
100
AcDbPolyline
 62
7
  6
CONTINUOUS
 90
13
 70
0
 10
3.5988367299
 20
9.4285024322
 10
3.5909664383
 20
9.424295124
 10
3.5827795692
 20
9.4202847147
 10
3.5742913804
 20
9.4164779522
 10
3.5655171572
 20
9.4128850275
 10
3.5564738002
 20
9.409508254
 10
3.5471799547
 20
9.4063419341
 10
3.5376530499
 20
9.403394315
 10
3.5279111173
 20
9.4006672178
 10
3.5179746305
 20
9.3981444852
 10
3.5078631324
 20
9.3958231379
 10
3.4975950533
 20
9.3937135166
 10
3.4871897874
 20
9.3918186897
  0
LINE
  5
367
100
AcDbEntity
  8
RACCORDO
100
AcDbLine
 62
7
  6
CONTINUOUS
 10
10.1052698434
 20
13.3214830419
 11
4.7618129874
 21
10.4967007995
  0
LINE
  5
368
100
AcDbEntity
  8
RACCORDO
100
AcDbLine
 62
7
  6
CONTINUOUS
 10
9.7173448936
 20
12.6605175321
 11
5.1354140401
 21
10.3099002731
  0
LINE
  5
369
100
AcDbEntity
  8
RACCORDO
100
AcDbLine
 62
250
  6
CONTINUOUS
 10
4.312123209
 20
11.8330922555
 11
2.7108424182
 21
11.030370252
  0
LINE
  5
36A
100
AcDbEntity
  8
RACCORDO
100
AcDbLine
 62
250
  6
CONTINUOUS
 10
4.4888969127
 20
11.5282027167
 11
2.8876161218
 21
10.7254807132
  0
LINE
  5
36B
100
AcDbEntity
  8
RACCORDO
100
AcDbLine
 62
250
  6
CONTINUOUS
 10
4.8403903807
 20
12.0965310755
 11
4.312123209
 21
11.8330922555
  0
LINE
  5
36C
100
AcDbEntity
  8
RACCORDO
100
AcDbLine
 62
250
  6
CONTINUOUS
 10
5.0171640844
 20
11.7916415367
 11
4.4888969127
 21
11.5282027167
  0
LINE
  5
36D
100
AcDbEntity
  8
DRAFT
100
AcDbLine
 62
7
  6
CONTINUOUS
 10
-16.693562278
 20
-0.6554387337
 11
-17.4113338635
 21
-1.0129043538
  0
LWPOLYLINE
  5
36E
100
AcDbEntity
  8
RACCORDO
100
AcDbPolyline
 62
7
  6
CONTINUOUS
 90
5
 70
0
 10
-17.4490909737
 20
-0.9940257988
 10
-18.380625667
 20
-1.4615460229
 10
-18.3908336321
 20
-1.4667547326
 10
-18.4012283492
 20
-1.4721694823
 10
-18.4225593635
 20
-1.483458378
  0
LINE
  5
36F
100
AcDbEntity
  8
C_CORPO
100
AcDbLine
 62
7
  6
CONTINUOUS
 10
7.3880347155
 20
10.75568882
 11
5.5270950784
 21
9.832649041
  0
LINE
  5
370
100
AcDbEntity
  8
C_CORPO
100
AcDbLine
 62
7
  6
CONTINUOUS
 10
11.2967079887
 20
12.3305024663
 11
5.5495570844
 21
9.5388291588
  0
LINE
  5
371
100
AcDbEntity
  8
RACCORDO
100
AcDbLine
 62
7
  6
CONTINUOUS
 10
4.4888969127
 20
9.9333412493
 11
4.5902317315
 21
9.9823938986
  0
LINE
  5
372
100
AcDbEntity
  8
RACCORDO
100
AcDbLine
 62
250
  6
CONTINUOUS
 10
5.1958959837
 20
10.2796593014
 11
4.4888969127
 21
9.9457156689
  0
LINE
  5
373
100
AcDbEntity
  8
RACCORDO
100
AcDbLine
 62
250
  6
CONTINUOUS
 10
5.5495570844
 20
9.6697336107
 11
4.9343808469
 21
9.3791615354
  0
LINE
  5
374
100
AcDbEntity
  8
C_CORPO
100
AcDbLine
 62
7
  6
CONTINUOUS
 10
11.0572265329
 20
12.4502431941
 11
7.3880347155
 21
10.75568882
  0
LINE
  5
375
100
AcDbEntity
  8
DRAFT
100
AcDbLine
 62
7
  6
CONTINUOUS
 10
-21.5507504471
 20
-12.6751243197
 11
-21.0838004308
 21
-12.5784158049
  0
LWPOLYLINE
  5
376
100
AcDbEntity
  8
RACCORDO
100
AcDbPolyline
 62
250
  6
CONTINUOUS
 90
3
 70
0
 10
-20.7937635791
 20
-13.1399452538
 10
-21.4122412526
 20
-13.2657554914
 10
-21.7213375706
 20
-13.3285913038
  0
LINE
  5
377
100
AcDbEntity
  8
RACCORDO
100
AcDbLine
 62
250
  6
CONTINUOUS
 10
-20.9907302476
 20
-12.8121234165
 11
-22.3628867176
 21
-13.0904262504
  0
LINE
  5
378
100
AcDbEntity
  8
DRAFT
100
AcDbLine
 62
7
  6
CONTINUOUS
 10
-16.6994683806
 20
-1.3688370953
 11
-17.4490909737
 21
-0.9940257988
  0
LWPOLYLINE
  5
379
100
AcDbEntity
  8
RACCORDO
100
AcDbPolyline
 62
250
  6
CONTINUOUS
 90
14
 70
0
 10
-24.2570566567
 20
26.0812203905
 10
-24.252708972
 20
26.0738673035
 10
-24.2488587303
 20
26.0667742737
 10
-24.2455164465
 20
26.0599606718
 10
-24.2426912502
 20
26.0534451106
 10
-24.2403908541
 20
26.0472453782
 10
-24.2386215368
 20
26.0413783919
 10
-24.2373881322
 20
26.0358601666
 10
-24.2366940166
 20
26.0307057865
 10
-24.2365410891
 20
26.0259293462
 10
-24.236929765
 20
26.0215438947
 10
-24.2378589809
 20
26.0175614009
 10
-24.239326199
 20
26.0139927371
 10
-24.2412955899
 20
26.0108976609
  0
LWPOLYLINE
  5
37A
100
AcDbEntity
  8
RACCORDO
100
AcDbPolyline
 62
250
  6
CONTINUOUS
 90
46
 70
0
 10
-1.3471962703
 20
-30.4160112563
 10
-1.3458340123
 20
-30.4437719377
 10
-1.3437043967
 20
-30.4710360204
 10
-1.3408074234
 20
-30.4978035041
 10
-1.3371383002
 20
-30.5241032553
 10
-1.3327018193
 20
-30.5499064076
 10
-1.3275123575
 20
-30.5751263624
 10
-1.3215674828
 20
-30.5997602559
 10
-1.3148696272
 20
-30.6238109518
 10
-1.3074404634
 20
-30.6472004426
 10
-1.2992776785
 20
-30.6699263917
 10
-1.2903835855
 20
-30.6919911358
 10
-1.2807867954
 20
-30.713323677
 10
-1.2704850098
 20
-30.7339217493
 10
-1.2594805271
 20
-30.7537876189
 10
-1.2478088545
 20
-30.7728570862
 10
-1.2354678325
 20
-30.7911275686
 10
-1.2224596207
 20
-30.8086016488
 10
-1.2088262042
 20
-30.8252228762
 10
-1.194565546
 20
-30.8409884984
 10
-1.1796796831
 20
-30.8559012678
 10
-1.164216713
 20
-30.8699129911
 10
-1.1481748242
 20
-30.883020717
 10
-1.131555828
 20
-30.8952273968
 10
-1.114413256
 20
-30.9064936903
 10
-1.0967453696
 20
-30.9168165964
 10
-1.0785539074
 20
-30.9261991162
 10
-1.0598976156
 20
-30.9346109129
 10
-1.0407749949
 20
-30.9420488399
 10
-1.0211875447
 20
-30.9485160438
 10
-1.0011985096
 20
-30.9539916275
 10
-0.9808065764
 20
-30.9584723792
 10
-0.9600130582
 20
-30.9619615106
 10
-0.938885139
 20
-30.9644477605
 10
-0.9174218314
 20
-30.9659278972
 10
-0.8956241229
 20
-30.9664051524
 10
-0.8735621596
 20
-30.9658779593
 10
-0.8512349013
 20
-30.9643430382
 10
-0.8286433883
 20
-30.9618036688
 10
-0.8058608883
 20
-30.9582681238
 10
-0.7828856414
 20
-30.9537326712
 10
-0.7597194075
 20
-30.948201043
 10
-0.7364407329
 20
-30.9416927074
 10
-0.7130757996
 20
-30.9342141538
 10
-0.6895984256
 20
-30.9257588928
 10
-0.666008611
 20
-30.9163269244
  0
LWPOLYLINE
  5
37B
100
AcDbEntity
  8
RACCORDO
100
AcDbPolyline
 62
250
  6
CONTINUOUS
 90
27
 70
0
 10
-2.0477797442
 20
-30.4306110705
 10
-2.0457536385
 20
-30.4721942838
 10
-2.0425745616
 20
-30.5131102583
 10
-2.0382459374
 20
-30.5533149461
 10
-2.0327723763
 20
-30.5927648341
 10
-2.0261597999
 20
-30.6314177262
 10
-2.0184153537
 20
-30.6692327296
 10
-2.0095470942
 20
-30.706169584
 10
-1.999564562
 20
-30.742188026
 10
-1.9884788999
 20
-30.7772485733
 10
-1.9763019951
 20
-30.8113132685
 10
-1.9630467845
 20
-30.8443457679
 10
-1.9487277447
 20
-30.8763106397
 10
-1.9333600058
 20
-30.9071736537
 10
-1.9169600156
 20
-30.9369014756
 10
-1.8995458771
 20
-30.9654617827
 10
-1.8811361013
 20
-30.992823901
 10
-1.8617503184
 20
-31.0189584411
 10
-1.8414099106
 20
-31.0438369624
 10
-1.8201364923
 20
-31.0674328021
 10
-1.7979527638
 20
-31.0897206247
 10
-1.7748832354
 20
-31.1106760755
 10
-1.7509525209
 20
-31.1302766782
 10
-1.7261860795
 20
-31.1485015066
 10
-1.7006110581
 20
-31.1653307131
 10
-1.6742545813
 20
-31.1807463531
 10
-1.6544026625
 20
-31.1911648585
  0
LINE
  5
37C
100
AcDbEntity
  8
C_CORPO
100
AcDbLine
 62
7
  6
CONTINUOUS
 10
-4.8802679381
 20
18.7825644901
 11
-4.8802679381
 21
17.8935744033
  0
LWPOLYLINE
  5
37D
100
AcDbEntity
  8
C_SCATOLINO
100
AcDbPolyline
 62
250
  6
CONTINUOUS
 90
29
 70
0
 10
-11.3026061651
 20
-13.5472029987
 10
-11.3177928738
 20
-13.579651322
 10
-11.3289609163
 20
-13.6142693709
 10
-11.3359185255
 20
-13.650712228
 10
-11.3385453886
 20
-13.6883907627
 10
-11.3368780156
 20
-13.726784247
 10
-11.330983101
 20
-13.7656983467
 10
-11.3208642269
 20
-13.8050019392
 10
-11.3065016714
 20
-13.8444994224
 10
-11.2880251982
 20
-13.8836672392
 10
-11.2657209867
 20
-13.9218925197
 10
-11.2399467439
 20
-13.958676709
 10
-11.2108832121
 20
-13.9938617578
 10
-11.1786088777
 20
-14.0273509428
 10
-11.143217631
 20
-14.058960918
 10
-11.1051548335
 20
-14.0882160228
 10
-11.0650658822
 20
-14.1146284276
 10
-11.02351862
 20
-14.1378915477
 10
-10.9807511474
 20
-14.1579525614
 10
-10.9369602098
 20
-14.174764501
 10
-10.8924676496
 20
-14.1882013741
 10
-10.8477406852
 20
-14.1980897769
 10
-10.8031864177
 20
-14.2043145003
 10
-10.7591798878
 20
-14.2067938308
 10
-10.7161434506
 20
-14.2055179728
 10
-10.6745428984
 20
-14.20054649
 10
-10.6347712595
 20
-14.1919514896
 10
-10.5971505392
 20
-14.1798015827
 10
-10.5620082658
 20
-14.1642133338
  0
LWPOLYLINE
  5
37E
100
AcDbEntity
  8
C_SCATOLINO
100
AcDbPolyline
 62
7
  6
CONTINUOUS
 90
28
 70
0
 10
-11.2950665516
 20
-13.5342925528
 10
-11.3137953731
 20
-13.5672922852
 10
-11.3345436563
 20
-13.6126113635
 10
-11.3507198
 20
-13.6597515819
 10
-11.3621828689
 20
-13.7083881035
 10
-11.3687828184
 20
-13.7582744824
 10
-11.3703627662
 20
-13.8081095817
 10
-11.3670296716
 20
-13.8572063887
 10
-11.3587306208
 20
-13.9063146528
 10
-11.3455319524
 20
-13.9545594486
 10
-11.3278086457
 20
-14.0007184462
 10
-11.3053399722
 20
-14.0452203139
 10
-11.2784415056
 20
-14.0872617382
 10
-11.24783041
 20
-14.1260481744
 10
-11.2132738605
 20
-14.1619508746
 10
-11.1753623236
 20
-14.1941688307
 10
-11.1348193809
 20
-14.2220755323
 10
-11.0912167477
 20
-14.2460559076
 10
-11.0453558633
 20
-14.2656407971
 10
-10.998155908
 20
-14.2804772501
 10
-10.9492803347
 20
-14.290596173
 10
-10.8994701713
 20
-14.2957613833
 10
-10.8497431904
 20
-14.2959440519
 10
-10.8001559449
 20
-14.291210563
 10
-10.7513016124
 20
-14.2815877233
 10
-10.7038398236
 20
-14.2672551891
 10
-10.6578493853
 20
-14.2482850716
 10
-10.6468612548
 20
-14.2429520655
  0
LINE
  5
37F
100
AcDbEntity
  8
C_SCATOLINO
100
AcDbLine
 62
250
  6
CONTINUOUS
 10
-11.2952345149
 20
-13.5345278859
 11
-11.3026061651
 21
-13.5472029987
  0
LWPOLYLINE
  5
380
100
AcDbEntity
  8
RACCORDO
100
AcDbPolyline
 62
250
  6
CONTINUOUS
 90
7
 70
0
 10
-14.4580565416
 20
-16.3077835289
 10
-13.9091018093
 20
-15.3933826683
 10
-13.3573309049
 20
-14.4775514864
 10
-12.8027435995
 20
-13.5602993103
 10
-12.2453396858
 20
-12.6416354787
 10
-11.6851189782
 20
-11.7215693424
 10
-11.1220813124
 20
-10.8001102636
  0
LWPOLYLINE
  5
381
100
AcDbEntity
  8
RACCORDO
100
AcDbPolyline
 62
250
  6
CONTINUOUS
 90
7
 70
0
 10
-13.9622188291
 20
-16.2487479841
 10
-13.4468836734
 20
-15.391507287
 10
-12.9290739232
 20
-14.5330273833
 10
-12.4087895785
 20
-13.6733082732
 10
-11.8860306393
 20
-12.8123499565
 10
-11.3607971057
 20
-11.9501524334
 10
-10.8920049951
 20
-11.1831141687
  0
LINE
  5
382
100
AcDbEntity
  8
DRAFT
100
AcDbLine
 62
7
  6
CONTINUOUS
 10
-10.5220543629
 20
-11.6274178837
 11
-13.1153323538
 21
-15.8319522468
  0
LINE
  5
383
100
AcDbEntity
  8
RACCORDO
100
AcDbLine
 62
250
  6
CONTINUOUS
 10
4.4888969127
 20
10.8011578642
 11
5.0171640844
 21
11.44411002
  0
LINE
  5
384
100
AcDbEntity
  8
RACCORDO
100
AcDbLine
 62
7
  6
CONTINUOUS
 10
4.4888969127
 20
10.7116273979
 11
5.0325246568
 21
11.3732748534
  0
LWPOLYLINE
  5
385
100
AcDbEntity
  8
RACCORDO
100
AcDbPolyline
 62
7
  6
CONTINUOUS
 90
36
 70
0
 10
3.5988367299
 20
10.2370032562
 10
3.5921961281
 20
10.229264574
 10
3.5853085208
 20
10.2216223356
 10
3.5781759384
 20
10.2140895251
 10
3.5707964396
 20
10.2066805983
 10
3.5631773366
 20
10.1994073027
 10
3.5553350875
 20
10.1922787467
 10
3.5472732379
 20
10.1853083976
 10
3.5389960619
 20
10.1785094185
 10
3.5305215702
 20
10.1718906889
 10
3.5218546232
 20
10.1654657716
 10
3.5130007364
 20
10.1592478843
 10
3.5039793595
 20
10.153245622
 10
3.4947966994
 20
10.1474724951
 10
3.4854595694
 20
10.1419416459
 10
3.4759887948
 20
10.1366613654
 10
3.4663919579
 20
10.1316449503
 10
3.4566772351
 20
10.1269053251
 10
3.446866837
 20
10.1224504785
 10
3.4369697685
 20
10.1182933156
 10
3.4269956261
 20
10.1144463648
 10
3.4169680527
 20
10.1109172868
 10
3.4068975327
 20
10.1077183813
 10
3.3967951297
 20
10.1048615569
 10
3.3866859667
 20
10.1023540567
 10
3.3765820738
 20
10.1002073134
 10
3.3664959992
 20
10.0984323289
 10
3.3564543234
 20
10.0970357401
 10
3.3464706974
 20
10.0960277891
 10
3.3365591094
 20
10.0954182147
 10
3.3267473818
 20
10.0952127406
 10
3.3170508271
 20
10.0954200289
 10
3.3074847715
 20
10.0960481464
 10
3.2980778163
 20
10.0971015215
 10
3.2888572839
 20
10.098584883
 10
3.2849674645
 20
10.0993531573
  0
LINE
  5
386
100
AcDbEntity
  8
C_CORPO
100
AcDbLine
 62
250
  6
CONTINUOUS
 10
12.0830484729
 20
10.9742657489
 11
5.5495570844
 21
7.6503337939
  0
LINE
  5
387
100
AcDbEntity
  8
C_SCATOLINO
100
AcDbLine
 62
250
  6
CONTINUOUS
 10
-22.9578017493
 20
-7.8306012815
 11
-23.3271771544
 21
-8.018540853
  0
LINE
  5
388
100
AcDbEntity
  8
C_SCATOLINO
100
AcDbLine
 62
250
  6
CONTINUOUS
 10
-22.8032362355
 20
-8.225773127
 11
-23.1758044471
 21
-8.4153372103
  0
LINE
  5
389
100
AcDbEntity
  8
C_CORPO
100
AcDbLine
 62
250
  6
CONTINUOUS
 10
14.277698212
 20
10.4484661374
 11
5.5495570844
 21
6.0080000104
  0
LINE
  5
38A
100
AcDbEntity
  8
C_CORPO
100
AcDbLine
 62
250
  6
CONTINUOUS
 10
14.277698212
 20
10.4484661374
 11
16.1915744435
 21
11.3977628575
  0
LINE
  5
38B
100
AcDbEntity
  8
C_CORPO
100
AcDbLine
 62
250
  6
CONTINUOUS
 10
12.1026968491
 20
10.9398848815
 11
15.4845753581
 21
12.6171559041
  0
LWPOLYLINE
  5
38C
100
AcDbEntity
  8
C_CORPO
100
AcDbPolyline
 62
250
  6
CONTINUOUS
 90
3
 70
0
 10
12.6332890371
 20
9.6541959147
 10
12.9071860231
 20
9.7864352813
 10
14.277698212
 20
10.4484661374
  0
LWPOLYLINE
  5
38D
100
AcDbEntity
  8
RACCORDO
100
AcDbPolyline
 62
250
  6
CONTINUOUS
 90
34
 70
0
 10
-1.3471962703
 20
5.1636133715
 10
-1.3644906016
 20
5.1564859048
 10
-1.3825160631
 20
5.1497726183
 10
-1.4012327228
 20
5.143488384
 10
-1.4205991174
 20
5.1376471233
 10
-1.4405723445
 20
5.1322617765
 10
-1.4611081569
 20
5.1273442739
 10
-1.4821610615
 20
5.1229055092
 10
-1.5036844196
 20
5.1189553156
 10
-1.5256305501
 20
5.1155024442
 10
-1.5479508356
 20
5.112554544
 10
-1.5705958296
 20
5.1101181456
 10
-1.5935153664
 20
5.1081986464
 10
-1.6166586721
 20
5.1068002987
 10
-1.639974477
 20
5.1059262002
 10
-1.6634111294
 20
5.1055782874
 10
-1.6869167097
 20
5.105757331
 10
-1.7104391458
 20
5.1064629343
 10
-1.733926328
 20
5.1076935342
 10
-1.7573262251
 20
5.1094464045
 10
-1.7805869988
 20
5.1117176622
 10
-1.8036571194
 20
5.1145022756
 10
-1.8264854792
 20
5.117794076
 10
-1.8490215064
 20
5.1215857709
 10
-1.8712152766
 20
5.1258689607
 10
-1.8930176237
 20
5.1306341567
 10
-1.9143802487
 20
5.1358708025
 10
-1.9352558266
 20
5.1415672973
 10
-1.9555981117
 20
5.1477110216
 10
-1.9753620393
 20
5.1542883651
 10
-1.9945038262
 20
5.161284757
 10
-2.0129810674
 20
5.168684698
 10
-2.03075283
 20
5.1764717951
 10
-2.047779744
 20
5.1846287972
  0
LWPOLYLINE
  5
38E
100
AcDbEntity
  8
RACCORDO
100
AcDbPolyline
 62
7
  6
CONTINUOUS
 90
30
 70
0
 10
-18.4355564942
 20
6.4688628721
 10
-18.4452512488
 20
6.4738915691
 10
-18.4556361074
 20
6.4796787866
 10
-18.4659166524
 20
6.4858135977
 10
-18.4760939047
 20
6.4922811488
 10
-18.4861506866
 20
6.499060903
 10
-18.4960861986
 20
6.5061391062
 10
-18.5059015554
 20
6.513502354
 10
-18.5155813212
 20
6.5211336371
 10
-18.5251255529
 20
6.5290209418
 10
-18.5345353846
 20
6.5371520179
 10
-18.5437960073
 20
6.5455117707
 10
-18.5529081821
 20
6.5540895816
 10
-18.5618730433
 20
6.5628740538
 10
-18.5706755741
 20
6.571850552
 10
-18.5793171779
 20
6.5810095585
 10
-18.5877990463
 20
6.5903402597
 10
-18.5961053737
 20
6.5998271422
 10
-18.6042377668
 20
6.6094610287
 10
-18.612198061
 20
6.6192319669
 10
-18.6199705923
 20
6.6291239451
 10
-18.6275579537
 20
6.6391290046
 10
-18.634961852
 20
6.6492369986
 10
-18.6421654193
 20
6.6594289649
 10
-18.6491717406
 20
6.6696972715
 10
-18.6559832112
 20
6.6800321858
 10
-18.6625824747
 20
6.6904116307
 10
-18.6689661845
 20
6.7008226097
 10
-18.6751447073
 20
6.7112613934
 10
-18.6811217184
 20
6.7217199317
  0
LWPOLYLINE
  5
38F
100
AcDbEntity
  8
RACCORDO
100
AcDbPolyline
 62
250
  6
CONTINUOUS
 90
34
 70
0
 10
-0.666008611
 20
6.3217443157
 10
-0.6672965693
 20
6.3420790075
 10
-0.6693675109
 20
6.3627745989
 10
-0.6722167499
 20
6.3837842621
 10
-0.6758378392
 20
6.4050604588
 10
-0.6802225857
 20
6.4265550477
 10
-0.6853610679
 20
6.4482193933
 10
-0.6912416592
 20
6.4700044759
 10
-0.6978510536
 20
6.4918610027
 10
-0.7051742961
 20
6.5137395192
 10
-0.7131948167
 20
6.5355905211
 10
-0.7218944672
 20
6.5573645664
 10
-0.7312535633
 20
6.5790123873
 10
-0.7412509282
 20
6.6004850014
 10
-0.751863941
 20
6.621733823
 10
-0.7630685877
 20
6.6427107725
 10
-0.7748395158
 20
6.6633683856
 10
-0.7871500914
 20
6.6836599207
 10
-0.7999724595
 20
6.7035394641
 10
-0.813277607
 20
6.7229620347
 10
-0.8270354285
 20
6.7418836853
 10
-0.8412147945
 20
6.760261602
 10
-0.8557836214
 20
6.7780542012
 10
-0.8707089444
 20
6.7952212239
 10
-0.8859569923
 20
6.8117238264
 10
-0.9014932634
 20
6.8275246684
 10
-0.9172826041
 20
6.8425879974
 10
-0.9332892878
 20
6.8568797298
 10
-0.9494770965
 20
6.8703675279
 10
-0.9658094021
 20
6.883020873
 10
-0.9822492498
 20
6.8948111344
 10
-0.9987594412
 20
6.9057116344
 10
-1.015302619
 20
6.9156977085
 10
-1.031841351
 20
6.9247467615
  0
LINE
  5
390
100
AcDbEntity
  8
C_CORPO
100
AcDbLine
 62
250
  6
CONTINUOUS
 10
-2.1268981452
 20
21.5894639626
 11
-2.1240843501
 21
21.4925210229
  0
LINE
  5
391
100
AcDbEntity
  8
C_CORPO
100
AcDbLine
 62
250
  6
CONTINUOUS
 10
-2.1240843501
 20
21.4925210229
 11
-2.1225533377
 21
21.4207202685
  0
LINE
  5
392
100
AcDbEntity
  8
C_CORPO
100
AcDbLine
 62
7
  6
CONTINUOUS
 10
-1.3369705874
 20
20.5400660975
 11
-1.3369705874
 21
19.6582123614
  0
LINE
  5
393
100
AcDbEntity
  8
DRAFT
100
AcDbLine
 62
250
  6
CONTINUOUS
 10
-1.2033126759
 20
15.0455914611
 11
-1.2033126759
 21
16.4792904326
  0
LINE
  5
394
100
AcDbEntity
  8
RACCORDO
100
AcDbLine
 62
250
  6
CONTINUOUS
 10
-0.9932435383
 20
11.9146290318
 11
-0.9932435383
 21
12.9952123426
  0
LINE
  5
395
100
AcDbEntity
  8
DRAFT
100
AcDbLine
 62
7
  6
CONTINUOUS
 10
-0.4962058947
 20
16.8328438232
 11
-0.4962058947
 21
17.3929597017
  0
LINE
  5
396
100
AcDbEntity
  8
RACCORDO
100
AcDbLine
 62
250
  6
CONTINUOUS
 10
-0.288199619
 20
11.936164795
 11
-0.288199619
 21
13.1688917674
  0
LINE
  5
397
100
AcDbEntity
  8
ASSI
100
AcDbLine
 62
250
  6
CONTINUOUS
 10
-0.1624302721
 20
17.5562800569
 11
-0.1624302721
 21
18.7760729647
  0
LINE
  5
398
100
AcDbEntity
  8
DRAFT
100
AcDbLine
 62
7
  6
CONTINUOUS
 10
-0.1426525041
 20
16.6560671279
 11
-0.1426525041
 21
17.2161830064
  0
LINE
  5
399
100
AcDbEntity
  8
ASSI
100
AcDbLine
 62
7
  6
CONTINUOUS
 10
-0.0370807648
 20
17.7053031855
 11
-0.0370807648
 21
18.7856411047
  0
LINE
  5
39A
100
AcDbEntity
  8
DRAFT
100
AcDbLine
 62
7
  6
CONTINUOUS
 10
0.0694795302
 20
13.3481963122
 11
0.0694795302
 21
12.1357607469
  0
LINE
  5
39B
100
AcDbEntity
  8
DRAFT
100
AcDbLine
 62
250
  6
CONTINUOUS
 10
0.2109008865
 20
15.2384082845
 11
0.2109008865
 21
16.4792904326
  0
LINE
  5
39C
100
AcDbEntity
  8
DRAFT
100
AcDbLine
 62
7
  6
CONTINUOUS
 10
0.2524001893
 20
15.6791179178
 11
0.2524001893
 21
15.2661178728
  0
LWPOLYLINE
  5
39D
100
AcDbEntity
  8
RACCORDO
100
AcDbPolyline
 62
250
  6
CONTINUOUS
 90
22
 70
0
 10
-2.0477797442
 20
5.1846287971
 10
-2.1029783945
 20
3.4628360569
 10
-2.152659572
 20
1.7434601823
 10
-2.1968225274
 20
0.0265275703
 10
-2.2354666032
 20
-1.6879354124
 10
-2.2685912083
 20
-3.3999024538
 10
-2.2961958169
 20
-5.1093472974
 10
-2.3182800087
 20
-6.8162437058
 10
-2.3348434547
 20
-8.5205654731
 10
-2.3458858923
 20
-10.2222864492
 10
-2.3514071505
 20
-11.9213805122
 10
-2.3514071505
 20
-13.6178215833
 10
-2.3458858923
 20
-15.3115836384
 10
-2.3348434547
 20
-17.002640686
 10
-2.3182800087
 20
-18.6909667664
 10
-2.2961958169
 20
-20.3765359665
 10
-2.2685912082
 20
-22.0593224174
 10
-2.2354666032
 20
-23.7393002939
 10
-2.1968225274
 20
-25.4164438126
 10
-2.152659572
 20
-27.0907272356
 10
-2.1029783945
 20
-28.7621248707
 10
-2.0477797442
 20
-30.4306110705
  0
LWPOLYLINE
  5
39E
100
AcDbEntity
  8
RACCORDO
100
AcDbPolyline
 62
250
  6
CONTINUOUS
 90
22
 70
0
 10
-1.3471962703
 20
5.1636133715
 10
-1.4023417648
 20
3.4434994875
 10
-1.4519738552
 20
1.725852536
 10
-1.4960925413
 20
0.0106725168
 10
-1.5346983326
 20
-1.7020668651
 10
-1.5677907197
 20
-3.4123393145
 10
-1.5953681747
 20
-5.1200659466
 10
-1.6174304423
 20
-6.8252465975
 10
-1.6339777779
 20
-8.527881431
 10
-1.6450094197
 20
-10.2278920536
 10
-1.650525114
 20
-11.9252783416
 10
-1.6505251147
 20
-13.6200404188
 10
-1.6450094216
 20
-15.3121002634
 10
-1.633977781
 20
-17.0014577542
 10
-1.6174304467
 20
-18.6881130123
 10
-1.5953681804
 20
-20.3719883799
 10
-1.567790727
 20
-22.0530837601
 10
-1.5346983416
 20
-23.7313992498
 10
-1.4960925506
 20
-25.406857481
 10
-1.4519738628
 20
-27.0794326645
 10
-1.4023417693
 20
-28.7491505896
 10
-1.3471962703
 20
-30.4160112563
  0
LWPOLYLINE
  5
39F
100
AcDbEntity
  8
C_CORPO
100
AcDbPolyline
 62
7
  6
CONTINUOUS
 90
34
 70
0
 10
0.9628730445
 20
20.5673352781
 10
0.9648300522
 20
20.5912380114
 10
0.9687838704
 20
20.6223027066
 10
0.9741430833
 20
20.653314691
 10
0.9809049445
 20
20.684258071
 10
0.9890659886
 20
20.7151169887
 10
0.9986220331
 20
20.7458756292
 10
1.0095681807
 20
20.7765182291
 10
1.0218988216
 20
20.8070290843
 10
1.0356076365
 20
20.8373925584
 10
1.0506875998
 20
20.8675930905
 10
1.0671309832
 20
20.8976152031
 10
1.0849293596
 20
20.9274435104
 10
1.1040736076
 20
20.9570627255
 10
1.1245539159
 20
20.986457669
 10
1.1463597887
 20
21.0156132763
 10
1.1694800506
 20
21.0445146056
 10
1.1939028529
 20
21.0731468452
 10
1.2196156791
 20
21.1014953214
 10
1.2466053517
 20
21.129545506
 10
1.2748580388
 20
21.1572830236
 10
1.3043592612
 20
21.1846936589
 10
1.3350938999
 20
21.2117633645
 10
1.3670462037
 20
21.2384782673
 10
1.4001997975
 20
21.2648246763
 10
1.4345376904
 20
21.2907890892
 10
1.4700422846
 20
21.3163581997
 10
1.5066953845
 20
21.3415189037
 10
1.5444782058
 20
21.3662583069
 10
1.5833713851
 20
21.3905637304
 10
1.6233549902
 20
21.414422718
 10
1.66440853
 20
21.4378230424
 10
1.706510965
 20
21.460752711
 10
1.7496407182
 20
21.4831999728
  0
LWPOLYLINE
  5
3A0
100
AcDbEntity
  8
RACCORDO
100
AcDbPolyline
 62
250
  6
CONTINUOUS
 90
27
 70
0
 10
2.8876161218
 20
10.385506779
 10
2.8827321047
 20
10.3735381208
 10
2.8773815012
 20
10.3618449167
 10
2.8715789229
 20
10.3504590985
 10
2.8653402152
 20
10.3394117583
 10
2.8586824149
 20
10.3287330641
 10
2.8516237029
 20
10.3184521774
 10
2.8441833552
 20
10.3085971729
 10
2.8363816898
 20
10.2991949626
 10
2.8282400113
 20
10.2902712221
 10
2.819780553
 20
10.2818503202
 10
2.811026416
 20
10.2739552525
 10
2.8020015058
 20
10.266607579
 10
2.7927304678
 20
10.2598273644
 10
2.783238619
 20
10.2536331243
 10
2.7735518799
 20
10.2480417737
 10
2.7636967028
 20
10.2430685815
 10
2.7537000002
 20
10.2387271284
 10
2.7435890709
 20
10.23502927
 10
2.7333915258
 20
10.2319851044
 10
2.7231352123
 20
10.2296029446
 10
2.7128481382
 20
10.2278892957
 10
2.7025583954
 20
10.2268488374
 10
2.6922940829
 20
10.2264844109
 10
2.6820832305
 20
10.2267970114
 10
2.6719537219
 20
10.2277857853
 10
2.6619332186
 20
10.2294480324
  0
LWPOLYLINE
  5
3A1
100
AcDbEntity
  8
RACCORDO
100
AcDbPolyline
 62
7
  6
CONTINUOUS
 90
36
 70
0
 10
-12.5049077577
 20
-18.1438696899
 10
-12.5105276347
 20
-18.1536772015
 10
-12.5162453632
 20
-18.1644689545
 10
-12.5216243893
 20
-18.1755127679
 10
-12.5266508555
 20
-18.1867970503
 10
-12.5313693456
 20
-18.1982811277
 10
-12.5357730725
 20
-18.2099494136
 10
-12.5398502715
 20
-18.2217909985
 10
-12.5436388184
 20
-18.2337745351
 10
-12.547133678
 20
-18.2458876785
 10
-12.5503256126
 20
-18.2581209403
 10
-12.5532464175
 20
-18.2704488798
 10
-12.5558921565
 20
-18.2828615814
 10
-12.5582556102
 20
-18.2953507028
 10
-12.5603635564
 20
-18.3078942488
 10
-12.5622128143
 20
-18.3204841883
 10
-12.5637977412
 20
-18.3331130456
 10
-12.5651411877
 20
-18.3457603607
 10
-12.5662405525
 20
-18.3584196267
 10
-12.5670914565
 20
-18.3710840025
 10
-12.5677138495
 20
-18.383732981
 10
-12.5681056505
 20
-18.3963613316
 10
-12.5682635587
 20
-18.4089627063
 10
-12.5682055876
 20
-18.4215152493
 10
-12.5679302494
 20
-18.4340141484
 10
-12.5674352294
 20
-18.4464542082
 10
-12.5667373612
 20
-18.4588132883
 10
-12.5658357501
 20
-18.4710882151
 10
-12.5647290074
 20
-18.4832736181
 10
-12.563433551
 20
-18.4953444099
 10
-12.5619492876
 20
-18.5072980695
 10
-12.560275831
 20
-18.5191301309
 10
-12.55842988
 20
-18.5308131058
 10
-12.5564176764
 20
-18.5423361496
 10
-12.5542346997
 20
-18.5537049233
 10
-12.5518821435
 20
-18.5649171945
  0
LWPOLYLINE
  5
3A2
100
AcDbEntity
  8
RACCORDO
100
AcDbPolyline
 62
250
  6
CONTINUOUS
 90
7
 70
0
 10
-9.2328634421
 20
-13.0682624283
 10
-9.7929338372
 20
-13.9879556158
 10
-10.350243371
 20
-14.9062268105
 10
-10.9047921732
 20
-15.8230666364
 10
-11.4565803946
 20
-16.7384657291
 10
-12.0056082079
 20
-17.6524147356
 10
-12.5518758071
 20
-18.5649043142
  0
LWPOLYLINE
  5
3A3
100
AcDbEntity
  8
RACCORDO
100
AcDbPolyline
 62
7
  6
CONTINUOUS
 90
10
 70
0
 10
-9.3887625138
 20
-12.9871194314
 10
-9.646235901
 20
-13.4094667407
 10
-10.0200530028
 20
-14.0238545098
 10
-10.3926402167
 20
-14.6376055129
 10
-10.7639965636
 20
-15.2507181405
 10
-11.1341210596
 20
-15.8631907752
 10
-11.5030127165
 20
-16.4750217925
 10
-11.870670568
 20
-17.0862096048
 10
-12.2370936721
 20
-17.6967526669
 10
-12.5048992917
 20
-18.1438741246
  0
LINE
  5
3A4
100
AcDbEntity
  8
C_SCATOLINO
100
AcDbLine
 62
7
  6
CONTINUOUS
 10
-11.2952361045
 20
-13.5345304631
 11
-10.2904521603
 21
-11.9054538134
  0
LINE
  5
3A5
100
AcDbEntity
  8
C_SCATOLINO
100
AcDbLine
 62
250
  6
CONTINUOUS
 10
-10.5620082658
 20
-14.1642133338
 11
-9.6458568378
 21
-12.6788383857
  0
LWPOLYLINE
  5
3A6
100
AcDbEntity
  8
C_CORPO
100
AcDbPolyline
 62
250
  6
CONTINUOUS
 90
90
 70
0
 10
12.6664816528
 20
14.2660025267
 10
12.6762156225
 20
14.2770919228
 10
12.7038010838
 20
14.3106693385
 10
12.7305240696
 20
14.3454138908
 10
12.7563714856
 20
14.3813085543
 10
12.7813306697
 20
14.418335742
 10
12.805389413
 20
14.4564773387
 10
12.8285359518
 20
14.4957146948
 10
12.8507589632
 20
14.5360286208
 10
12.8720475563
 20
14.5773993643
 10
12.8923912931
 20
14.6198066408
 10
12.9117802052
 20
14.6632296647
 10
12.930204813
 20
14.7076471989
 10
12.9476561123
 20
14.7530375373
 10
12.9641255684
 20
14.7993784887
 10
12.9796051058
 20
14.84664734
 10
12.9940871314
 20
14.8948209038
 10
13.007564548
 20
14.9438755612
 10
13.0200307694
 20
14.9937873281
 10
13.0314797059
 20
15.0445318233
 10
13.0419057583
 20
15.0960842442
 10
13.0513038118
 20
15.1484193168
 10
13.0596692547
 20
15.20151136
 10
13.0669979883
 20
15.2553343383
 10
13.0732864333
 20
15.309861942
 10
13.0785315187
 20
15.3650675421
 10
13.0827306779
 20
15.4209241589
 10
13.0858818484
 20
15.4774044037
 10
13.0879834838
 20
15.5344805567
 10
13.0890345567
 20
15.5921246267
 10
13.0890345566
 20
15.6503084392
 10
13.0879834836
 20
15.7090035821
 10
13.085881848
 20
15.7681813705
 10
13.0827306773
 20
15.827812786
 10
13.0785315179
 20
15.887868562
 10
13.0732864323
 20
15.9483192476
 10
13.0669979871
 20
16.0091352965
 10
13.0596692534
 20
16.0702870084
 10
13.0513038103
 20
16.1317444945
 10
13.0419057567
 20
16.1934776206
 10
13.0314797041
 20
16.2554560939
 10
13.0200307674
 20
16.3176495258
 10
13.0075645458
 20
16.3800275142
 10
12.9940871291
 20
16.4425595882
 10
12.9796051033
 20
16.5052151776
 10
12.9641255657
 20
16.5679635663
 10
12.9476561096
 20
16.6307739737
 10
12.93020481
 20
16.6936156115
 10
12.9117802021
 20
16.7564577536
 10
12.8923912898
 20
16.8192696897
 10
12.8720475528
 20
16.882020703
 10
12.8507589597
 20
16.9446800394
 10
12.8285359481
 20
17.0072169767
 10
12.8053894092
 20
17.0696008717
 10
12.7813306656
 20
17.1318012118
 10
12.7563714813
 20
17.1937875838
 10
12.7305240653
 20
17.255529663
 10
12.7038010793
 20
17.3169972011
 10
12.6762156178
 20
17.3781600781
 10
12.6477811934
 20
17.438988336
 10
12.61851172
 20
17.4994522114
 10
12.5884215183
 20
17.5595221213
 10
12.5575253147
 20
17.619168666
 10
12.5258382385
 20
17.6783626364
 10
12.4933758067
 20
17.7370750457
 10
12.4601539124
 20
17.795277149
 10
12.426188819
 20
17.8529404545
 10
12.3914971558
 20
17.9100367307
 10
12.3560959093
 20
17.9665380211
 10
12.320002408
 20
18.0224166695
 10
12.2832343146
 20
18.0776453312
 10
12.2458096218
 20
18.1321969783
 10
12.2077466579
 20
18.1860448937
 10
12.1690640707
 20
18.2391626963
 10
12.1297808097
 20
18.291524367
 10
12.0899160957
 20
18.3431042879
 10
12.0494894242
 20
18.3938772337
 10
12.0085205701
 20
18.4438183666
 10
11.9670296052
 20
18.4929032167
 10
11.925036869
 20
18.5411077221
 10
11.8825629404
 20
18.5884082624
 10
11.8396285935
 20
18.6347817054
 10
11.7962548138
 20
18.6802053844
 10
11.7524628102
 20
18.7246570852
 10
11.7082740452
 20
18.7681150192
 10
11.6637101913
 20
18.8105578722
 10
11.6187930943
 20
18.8519648417
 10
11.5735447162
 20
18.8923156849
 10
11.5279871639
 20
18.9315906878
 10
11.5003508021
 20
18.9546066699
  0
LWPOLYLINE
  5
3A7
100
AcDbEntity
  8
C_CORPO
100
AcDbPolyline
 62
7
  6
CONTINUOUS
 90
121
 70
0
 10
12.1550951889
 20
14.5216957586
 10
12.1744802477
 20
14.5394436372
 10
12.2123249037
 20
14.5744738617
 10
12.2488424862
 20
14.6086369509
 10
12.2840382027
 20
14.6419365073
 10
12.3179068457
 20
14.6743689284
 10
12.350554924
 20
14.7060013146
 10
12.3819858148
 20
14.7368357617
 10
12.4121961408
 20
14.7668701739
 10
12.4412822793
 20
14.7961653649
 10
12.4692473876
 20
14.8247233679
 10
12.4960883082
 20
14.8525421497
 10
12.5218919463
 20
14.8796764242
 10
12.5466612203
 20
14.9061281712
 10
12.5703932117
 20
14.9318954108
 10
12.5931660699
 20
14.9570269174
 10
12.6149825035
 20
14.9815246975
 10
12.6358398038
 20
15.0053867444
 10
12.6558079939
 20
15.0286558129
 10
12.6748895972
 20
15.0513340626
 10
12.6930820902
 20
15.0734193338
 10
12.710447926
 20
15.0949479026
 10
12.7269893001
 20
15.1159220653
 10
12.7427040168
 20
15.1363395258
 10
12.7576479428
 20
15.156229671
 10
12.771822803
 20
15.1755949571
 10
12.7852268723
 20
15.1944329281
 10
12.797910842
 20
15.2127656033
 10
12.8098758127
 20
15.2305956809
 10
12.8211206837
 20
15.2479204628
 10
12.8316928439
 20
15.2647538732
 10
12.8415921707
 20
15.281098151
 10
12.8508187868
 20
15.2969510574
 10
12.8594204487
 20
15.3123198
 10
12.8673963496
 20
15.3272074065
 10
12.8747472964
 20
15.3416108493
 10
12.8815234653
 20
15.355528253
 10
12.8877210248
 20
15.3689575035
 10
12.8933438065
 20
15.3819007149
 10
12.8984534811
 20
15.3943623545
 10
12.9030433643
 20
15.4063248702
 10
12.9071201403
 20
15.4178058141
 10
12.9107655334
 20
15.4288623099
 10
12.9139810919
 20
15.4394809917
 10
12.9167652674
 20
15.4496752254
 10
12.9191951389
 20
15.4595422318
 10
12.9212798757
 20
15.4690853761
 10
12.9230103086
 20
15.478301293
 10
12.9244360093
 20
15.4872771083
 10
12.9255658688
 20
15.4960193544
 10
12.9263909961
 20
15.5045214988
 10
12.9269342891
 20
15.5128510696
 10
12.9272034939
 20
15.5210123283
 10
12.9271908645
 20
15.5290010132
 10
12.9268960608
 20
15.5368718677
 10
12.9263268386
 20
15.5446286441
 10
12.925475442
 20
15.55226759
 10
12.924318264
 20
15.5598321918
 10
12.9228642835
 20
15.5673250156
 10
12.9211045215
 20
15.5747434953
 10
12.9189884339
 20
15.5821234185
 10
12.9165250294
 20
15.5894713616
 10
12.9137052993
 20
15.5967807482
 10
12.9104516731
 20
15.6040676359
 10
12.9067651911
 20
15.6113472211
 10
12.902644813
 20
15.6186043074
 10
12.898009847
 20
15.6258093631
 10
12.8928538618
 20
15.6329721585
 10
12.8871832888
 20
15.6400829232
 10
12.8809367305
 20
15.6470828145
 10
12.8741104074
 20
15.6539700027
 10
12.8667080991
 20
15.6607463174
 10
12.8586797461
 20
15.6673584045
 10
12.8500245476
 20
15.6738024733
 10
12.8407433045
 20
15.6800823145
 10
12.8307883607
 20
15.6861559466
 10
12.8201596441
 20
15.6920210233
 10
12.8088572268
 20
15.6976798907
 10
12.7968336695
 20
15.7030976056
 10
12.7840900938
 20
15.7082726421
 10
12.7706253781
 20
15.713206526
 10
12.7563887179
 20
15.717868891
 10
12.741381857
 20
15.7222590903
 10
12.7256030516
 20
15.7263777707
 10
12.7089962668
 20
15.7301965068
 10
12.6915636952
 20
15.7337152942
 10
12.6733031442
 20
15.7369341373
 10
12.6541520003
 20
15.7398246239
 10
12.6341127496
 20
15.7423872179
 10
12.6131829061
 20
15.7446214554
 10
12.5912923982
 20
15.7464975324
 10
12.5684439542
 20
15.7480162464
 10
12.5446348458
 20
15.7491767998
 10
12.5197868171
 20
15.7499469963
 10
12.4939027871
 20
15.7503278799
 10
12.4669798368
 20
15.7503184066
 10
12.4389309529
 20
15.7498832473
 10
12.4097593506
 20
15.749023645
 10
12.3794618149
 20
15.7477383567
 10
12.3479416875
 20
15.7459883254
 10
12.3152021451
 20
15.7437749346
 10
12.2812400111
 20
15.7410968007
 10
12.245949098
 20
15.737910715
 10
12.2093341236
 20
15.7342183785
 10
12.1713903702
 20
15.7300180902
 10
12.1319974967
 20
15.7252615395
 10
12.0911542561
 20
15.719949611
 10
12.0488618955
 20
15.7140814201
 10
12.0050038146
 20
15.7076060014
 10
11.9595815169
 20
15.7005243021
 10
11.912593499
 20
15.692835375
 10
11.8639186503
 20
15.6844854137
 10
11.8135717183
 20
15.6754781308
 10
11.7615379555
 20
15.6658098138
 10
11.7076520098
 20
15.6554155183
 10
11.6519203778
 20
15.6442981037
 10
11.5943365629
 20
15.6324547106
 10
11.5347157228
 20
15.6198118171
 10
11.4729962434
 20
15.6063449156
 10
11.4092397389
 20
15.5920785136
 10
11.3434462092
 20
15.5770126111
  0
LINE
  5
3A8
100
AcDbEntity
  8
C_SCATOLINO
100
AcDbLine
 62
250
  6
CONTINUOUS
 10
-22.7271012007
 20
-8.4197692542
 11
-23.102507367
 21
-8.6074723374
  0
LINE
  5
3A9
100
AcDbEntity
  8
C_SCATOLINO
100
AcDbLine
 62
7
  6
CONTINUOUS
 10
-21.7476786252
 20
-10.9061470553
 11
-22.1490361557
 21
-11.1068258205
  0
LWPOLYLINE
  5
3AA
100
AcDbEntity
  8
RACCORDO
100
AcDbPolyline
 62
7
  6
CONTINUOUS
 90
42
 70
0
 10
-25.717845052
 20
-4.7489340006
 10
-25.7240216106
 20
-4.7501144847
 10
-25.7356633888
 20
-4.7519618628
 10
-25.7474850755
 20
-4.7533375753
 10
-25.7594641594
 20
-4.7542320964
 10
-25.7715605554
 20
-4.7547199575
 10
-25.7837475325
 20
-4.7547978183
 10
-25.7960062679
 20
-4.7544560705
 10
-25.8083120232
 20
-4.7537607514
 10
-25.8206435671
 20
-4.7527108964
 10
-25.832985937
 20
-4.7512980122
 10
-25.8453266219
 20
-4.7495773187
 10
-25.8576504501
 20
-4.7475485989
 10
-25.8699438833
 20
-4.7452051018
 10
-25.8821988079
 20
-4.7425923649
 10
-25.8944034232
 20
-4.7397102837
 10
-25.9065464283
 20
-4.7365537626
 10
-25.9186216344
 20
-4.7331607653
 10
-25.9306196585
 20
-4.7295311321
 10
-25.9425309855
 20
-4.7256610897
 10
-25.9543498668
 20
-4.7215829866
 10
-25.9660687468
 20
-4.717296553
 10
-25.9776794771
 20
-4.7127990637
 10
-25.989175724
 20
-4.7081189596
 10
-26.0005513956
 20
-4.7032558535
 10
-26.0117993909
 20
-4.6982078788
 10
-26.0229120018
 20
-4.6930010617
 10
-26.0338843804
 20
-4.6876349332
 10
-26.0447102852
 20
-4.6821083604
 10
-26.0553800439
 20
-4.6764462601
 10
-26.0658894062
 20
-4.6706484769
 10
-26.0762334844
 20
-4.6647142253
 10
-26.0864018456
 20
-4.6586674559
 10
-26.0963918122
 20
-4.6525078098
 10
-26.1061987606
 20
-4.6462353437
 10
-26.1158097226
 20
-4.6398747457
 10
-26.1252229222
 20
-4.6334260223
 10
-26.1344348889
 20
-4.6268896426
 10
-26.1434308367
 20
-4.6202912971
 10
-26.1522049872
 20
-4.6136400752
 10
-26.1607603227
 20
-4.6069283296
 10
-26.1690958842
 20
-4.6001569241
  0
LINE
  5
3AB
100
AcDbEntity
  8
RACCORDO
100
AcDbLine
 62
7
  6
CONTINUOUS
 10
-18.435558602
 20
6.468863926
 11
-16.6022266638
 21
5.5521979569
  0
LINE
  5
3AC
100
AcDbEntity
  8
RACCORDO
100
AcDbLine
 62
250
  6
CONTINUOUS
 10
-18.6811217158
 20
6.7217199304
 11
-16.5104522189
 21
5.636385182
  0
LWPOLYLINE
  5
3AD
100
AcDbEntity
  8
ASSI
100
AcDbPolyline
 62
7
  6
CONTINUOUS
 90
6
 70
0
 10
-0.0370807648
 20
18.785641118
 10
-0.0373379251
 20
18.7883495046
 10
-0.0383789038
 20
18.7913131403
 10
-0.0401781706
 20
18.7937694863
 10
-0.0426929603
 20
18.7957332358
 10
-0.0438556202
 20
18.7963722105
  0
LWPOLYLINE
  5
3AE
100
AcDbEntity
  8
RACCORDO
100
AcDbPolyline
 62
250
  6
CONTINUOUS
 90
31
 70
0
 10
2.8876161218
 20
10.7254807132
 10
2.8873211449
 20
10.7369064209
 10
2.8865452917
 20
10.748544474
 10
2.8852906886
 20
10.7603629748
 10
2.8835607743
 20
10.7723295311
 10
2.8813602902
 20
10.7844113447
 10
2.8786952673
 20
10.7965753017
 10
2.87557301
 20
10.8087880628
 10
2.8720020758
 20
10.8210161554
 10
2.867992252
 20
10.8332260643
 10
2.8635545287
 20
10.8453843247
 10
2.8587010689
 20
10.8574576129
 10
2.8534451751
 20
10.8694128383
 10
2.8478012526
 20
10.8812172339
 10
2.8417847704
 20
10.8928384461
 10
2.8354122186
 20
10.9042446233
 10
2.828701063
 20
10.9154045033
 10
2.8216696978
 20
10.926287499
 10
2.8143373946
 20
10.9368637822
 10
2.8067242498
 20
10.9471043651
 10
2.7988511296
 20
10.9569811804
 10
2.7907396128
 20
10.9664671575
 10
2.7824119316
 20
10.9755362971
 10
2.7738909105
 20
10.9841637424
 10
2.7651999041
 20
10.9923258472
 10
2.7563627328
 20
11.0000002407
 10
2.7474036176
 20
11.0071658889
 10
2.7383471138
 20
11.0138031519
 10
2.7292180435
 20
11.0198938385
 10
2.7200414278
 20
11.025421255
 10
2.7108424182
 20
11.030370252
  0
LWPOLYLINE
  5
3AF
100
AcDbEntity
  8
RACCORDO
100
AcDbPolyline
 62
250
  6
CONTINUOUS
 90
18
 70
0
 10
1.2101094824
 20
-30.5910662307
 10
1.2103488373
 20
-30.6022093759
 10
1.2110668425
 20
-30.6130895964
 10
1.2122624326
 20
-30.6236768672
 10
1.2139336301
 20
-30.6339439372
 10
1.216076565
 20
-30.6438600532
 10
1.2186845204
 20
-30.6533918017
 10
1.2217496924
 20
-30.6625113305
 10
1.2252642467
 20
-30.6711959016
 10
1.229218728
 20
-30.6794220924
 10
1.2336024918
 20
-30.6871676164
 10
1.2384035714
 20
-30.6944112006
 10
1.2436087769
 20
-30.7011329059
 10
1.2492038658
 20
-30.7073143685
 10
1.2551736688
 20
-30.7129388553
 10
1.2615019907
 20
-30.7179911038
 10
1.2681716418
 20
-30.7224573703
 10
1.2750827788
 20
-30.7262846808
  0
LWPOLYLINE
  5
3B0
100
AcDbEntity
  8
RACCORDO
100
AcDbPolyline
 62
250
  6
CONTINUOUS
 90
18
 70
0
 10
2.5350941622
 20
-31.2535585706
 10
2.5353335171
 20
-31.2647017159
 10
2.5360515223
 20
-31.2755819363
 10
2.5372471124
 20
-31.2861692071
 10
2.5389183099
 20
-31.2964362771
 10
2.5410612448
 20
-31.3063523931
 10
2.5436692002
 20
-31.3158841416
 10
2.5467343723
 20
-31.3250036704
 10
2.5502489265
 20
-31.3336882415
 10
2.5542034078
 20
-31.3419144323
 10
2.5585871716
 20
-31.3496599563
 10
2.5633882512
 20
-31.3569035406
 10
2.5685934567
 20
-31.3636252458
 10
2.5741885456
 20
-31.3698067084
 10
2.5801583486
 20
-31.3754311952
 10
2.5864866705
 20
-31.3804834437
 10
2.5931563216
 20
-31.3849497102
 10
2.6000674586
 20
-31.3887770207
  0
LWPOLYLINE
  5
3B1
100
AcDbEntity
  8
RACCORDO
100
AcDbPolyline
 62
250
  6
CONTINUOUS
 90
19
 70
0
 10
1.2101094824
 20
11.0485118428
 10
1.210329337
 20
11.0378271862
 10
1.2109883543
 20
11.0273889598
 10
1.2120848951
 20
11.0172231273
 10
1.213616226
 20
11.0073550088
 10
1.2155785412
 20
10.9978091141
 10
1.2179669871
 20
10.9886090937
 10
1.2207756572
 20
10.9797777818
 10
1.2239975627
 20
10.9713372247
 10
1.2276246602
 20
10.9633085164
 10
1.2316479399
 20
10.9557116055
 10
1.2360573824
 20
10.9485654147
 10
1.240841919
 20
10.9418878494
 10
1.2459895524
 20
10.9356955721
 10
1.2514875204
 20
10.9300038597
 10
1.2573222541
 20
10.9248267334
 10
1.2634804705
 20
10.9201762184
 10
1.2699457447
 20
10.9160649447
 10
1.2750827788
 20
10.9132933927
  0
LWPOLYLINE
  5
3B2
100
AcDbEntity
  8
RACCORDO
100
AcDbPolyline
 62
250
  6
CONTINUOUS
 90
19
 70
0
 10
2.5350941622
 20
10.3860195029
 10
2.5353140168
 20
10.3753348463
 10
2.5359730341
 20
10.3648966199
 10
2.5370695749
 20
10.3547307874
 10
2.5386009058
 20
10.3448626689
 10
2.540563221
 20
10.3353167742
 10
2.5429516669
 20
10.3261167538
 10
2.545760337
 20
10.3172854419
 10
2.5489822425
 20
10.3088448848
 10
2.5526093401
 20
10.3008161765
 10
2.5566326197
 20
10.2932192656
 10
2.5610420622
 20
10.2860730748
 10
2.5658265988
 20
10.2793955095
 10
2.5709742322
 20
10.2732032322
 10
2.5764722002
 20
10.2675115197
 10
2.5823069339
 20
10.2623343935
 10
2.5884651504
 20
10.2576838785
 10
2.5949304246
 20
10.2535726048
 10
2.6000566294
 20
10.2508064682
  0
LWPOLYLINE
  5
3B3
100
AcDbEntity
  8
RACCORDO
100
AcDbPolyline
 62
7
  6
CONTINUOUS
 90
25
 70
0
 10
2.6150639425
 20
17.7070655504
 10
2.6145693214
 20
17.7390940378
 10
2.6131036775
 20
17.7705037822
 10
2.6106670108
 20
17.8012947836
 10
2.6072532601
 20
17.8315079166
 10
2.6028684866
 20
17.8611023067
 10
2.5975308738
 20
17.8899553296
 10
2.5912364708
 20
17.918063869
 10
2.5839892286
 20
17.9454310412
 10
2.5758191841
 20
17.9719435717
 10
2.5667225902
 20
17.9975977983
 10
2.556703194
 20
18.0223973833
 10
2.5458022736
 20
18.0462400385
 10
2.5340160306
 20
18.0691220748
 10
2.5213482633
 20
18.0910471812
 10
2.5078516449
 20
18.1119241362
 10
2.4935228942
 20
18.1317483476
 10
2.4783652923
 20
18.1505244076
 10
2.4624413559
 20
18.1681748716
 10
2.4457477933
 20
18.1846952226
 10
2.4282878961
 20
18.2000899776
 10
2.4101340563
 20
18.2142952433
 10
2.3912833754
 20
18.2273060512
 10
2.3717387518
 20
18.2391273698
 10
2.3551769377
 20
18.2479362603
  0
LINE
  5
3B4
100
AcDbEntity
  8
RACCORDO
100
AcDbLine
 62
7
  6
CONTINUOUS
 10
1.1368861777
 20
11.4768741246
 11
1.1368861777
 21
11.1369001904
  0
LINE
  5
3B5
100
AcDbEntity
  8
RACCORDO
100
AcDbLine
 62
7
  6
CONTINUOUS
 10
1.1368861777
 20
-30.3761785874
 11
1.1368861777
 21
-30.5026778831
  0
LINE
  5
3B6
100
AcDbEntity
  8
RACCORDO
100
AcDbLine
 62
250
  6
CONTINUOUS
 10
1.2101094824
 20
11.3884857769
 11
1.2101094824
 21
11.0485118428
  0
LINE
  5
3B7
100
AcDbEntity
  8
RACCORDO
100
AcDbLine
 62
250
  6
CONTINUOUS
 10
1.2101094824
 20
-30.3454424183
 11
1.2101094824
 21
-30.5910662307
  0
LINE
  5
3B8
100
AcDbEntity
  8
C_CORPO
100
AcDbLine
 62
250
  6
CONTINUOUS
 10
1.7496407182
 20
21.0843782415
 11
1.7496407182
 21
21.4831999728
  0
LINE
  5
3B9
100
AcDbEntity
  8
RACCORDO
100
AcDbLine
 62
7
  6
CONTINUOUS
 10
1.8398791319
 20
10.1769211144
 11
1.8398791319
 21
10.6308952161
  0
LINE
  5
3BA
100
AcDbEntity
  8
RACCORDO
100
AcDbLine
 62
250
  6
CONTINUOUS
 10
1.9131024366
 20
10.0852094196
 11
1.9131024366
 21
10.5942835638
  0
LINE
  5
3BB
100
AcDbEntity
  8
C_CORPO
100
AcDbLine
 62
7
  6
CONTINUOUS
 10
2.4323509161
 20
21.4243825399
 11
2.4323509161
 21
20.9645400413
  0
LINE
  5
3BC
100
AcDbEntity
  8
RACCORDO
100
AcDbLine
 62
250
  6
CONTINUOUS
 10
2.5350941622
 20
-31.2535585706
 11
2.5350941622
 21
-30.9135846365
  0
LINE
  5
3BD
100
AcDbEntity
  8
RACCORDO
100
AcDbLine
 62
250
  6
CONTINUOUS
 10
2.5350941622
 20
10.3860195029
 11
2.5350941622
 21
10.725993437
  0
LINE
  5
3BE
100
AcDbEntity
  8
RACCORDO
100
AcDbLine
 62
7
  6
CONTINUOUS
 10
2.6150639425
 20
17.7070655504
 11
2.6150639425
 21
17.4287075685
  0
LINE
  5
3BF
100
AcDbEntity
  8
RACCORDO
100
AcDbLine
 62
250
  6
CONTINUOUS
 10
2.8876161218
 20
-31.2540712945
 11
2.8876161218
 21
-30.9140973603
  0
LINE
  5
3C0
100
AcDbEntity
  8
RACCORDO
100
AcDbLine
 62
250
  6
CONTINUOUS
 10
2.8876161218
 20
10.385506779
 11
2.8876161218
 21
10.7254807132
  0
LINE
  5
3C1
100
AcDbEntity
  8
RACCORDO
100
AcDbLine
 62
250
  6
CONTINUOUS
 10
3.2463147703
 20
10.1074238757
 11
3.2463147703
 21
9.4186032528
  0
LINE
  5
3C2
100
AcDbEntity
  8
RACCORDO
100
AcDbLine
 62
250
  6
CONTINUOUS
 10
3.2463147703
 20
-29.4907261463
 11
3.2463147703
 21
-29.9370881594
  0
LWPOLYLINE
  5
3C3
100
AcDbEntity
  8
RACCORDO
100
AcDbPolyline
 62
250
  6
CONTINUOUS
 90
22
 70
0
 10
2.5350941622
 20
-30.9135846365
 10
2.5353130334
 20
-30.9027047731
 10
2.5359695891
 20
-30.8916268008
 10
2.5370629267
 20
-30.8803778858
 10
2.5385913766
 20
-30.8689835819
 10
2.5405516952
 20
-30.8574740666
 10
2.5429382782
 20
-30.8458842475
 10
2.545744611
 20
-30.8342451881
 10
2.5489641281
 20
-30.8225836302
 10
2.5525888972
 20
-30.8109283465
 10
2.5566099804
 20
-30.7993081781
 10
2.5610173535
 20
-30.7877521832
 10
2.5657999813
 20
-30.7762893277
 10
2.5709459542
 20
-30.7649481538
 10
2.5764424831
 20
-30.7537568446
 10
2.5822758264
 20
-30.742743365
 10
2.5884314153
 20
-30.7319351848
 10
2.5948939705
 20
-30.7213590971
 10
2.601647484
 20
-30.7110412869
 10
2.6086751839
 20
-30.7010073815
 10
2.6159595654
 20
-30.691282377
 10
2.6234825098
 20
-30.6818904627
  0
LWPOLYLINE
  5
3C4
100
AcDbEntity
  8
RACCORDO
100
AcDbPolyline
 62
250
  6
CONTINUOUS
 90
31
 70
0
 10
1.2101094824
 20
11.3884857769
 10
1.2103488373
 20
11.3998682771
 10
1.2110668425
 20
11.4114665028
 10
1.2122624326
 20
11.4232493637
 10
1.2139336301
 20
11.4351876311
 10
1.216076565
 20
11.4472466821
 10
1.2186845204
 20
11.459386386
 10
1.2217496924
 20
11.4715710868
 10
1.2252642467
 20
11.4837702122
 10
1.229218728
 20
11.4959508842
 10
1.2336024918
 20
11.508080172
 10
1.2384035714
 20
11.5201248359
 10
1.2436087769
 20
11.5320517467
 10
1.2492038658
 20
11.5438282982
 10
1.2551736688
 20
11.5554225879
 10
1.2615019907
 20
11.5668031584
 10
1.2681716418
 20
11.577939076
 10
1.2751644493
 20
11.5887999795
 10
1.282461358
 20
11.5993562641
 10
1.2900425005
 20
11.6095791843
 10
1.2978872517
 20
11.6194409247
 10
1.305974258
 20
11.6289146371
 10
1.3142815102
 20
11.6379745349
 10
1.3227863969
 20
11.6465959546
 10
1.331465762
 20
11.6547554202
 10
1.340295988
 20
11.6624307267
 10
1.3492530343
 20
11.6696009758
 10
1.3583124935
 20
11.6762466302
 10
1.367449697
 20
11.6823495989
 10
1.3766397834
 20
11.6878932812
 10
1.3858577383
 20
11.6928625919
  0
LWPOLYLINE
  5
3C5
100
AcDbEntity
  8
RACCORDO
100
AcDbPolyline
 62
250
  6
CONTINUOUS
 90
31
 70
0
 10
2.5350941622
 20
10.725993437
 10
2.5353347434
 20
10.7374053464
 10
2.5360558346
 20
10.7490268031
 10
2.5372554764
 20
10.7608261762
 10
2.5389304089
 20
10.7727713628
 10
2.5410760754
 20
10.7848298379
 10
2.54368663
 20
10.7969687416
 10
2.5467549635
 20
10.8091550238
 10
2.5502727248
 20
10.8213555232
 10
2.554230334
 20
10.8335370201
 10
2.5586170159
 20
10.8456663557
 10
2.563420829
 20
10.8577105179
 10
2.5686286936
 20
10.8696367198
 10
2.574226439
 20
10.8814125146
 10
2.5801988206
 20
10.893005837
 10
2.5865295548
 20
10.9043850892
 10
2.5932013758
 20
10.9155192569
 10
2.6001961441
 20
10.9263780885
 10
2.607494881
 20
10.9369321245
 10
2.6150778236
 20
10.9471527672
 10
2.6229242419
 20
10.9570120561
 10
2.6310125332
 20
10.9664828724
 10
2.639320501
 20
10.9755393004
 10
2.6478256733
 20
10.984156917
 10
2.6565051361
 20
10.9923125309
 10
2.6653372266
 20
10.9999855794
 10
2.6742960096
 20
11.007153327
 10
2.6833513465
 20
11.0137922335
 10
2.6924765152
 20
11.0198840309
 10
2.7016485198
 20
11.0254146782
 10
2.7108424182
 20
11.030370252
  0
LWPOLYLINE
  5
3C6
100
AcDbEntity
  8
RACCORDO
100
AcDbPolyline
 62
250
  6
CONTINUOUS
 90
21
 70
0
 10
-0.666008611
 20
-30.9163269244
 10
-0.6672965696
 20
-30.9371190105
 10
-0.6693675118
 20
-30.9574571402
 10
-0.6722167515
 20
-30.9772952945
 10
-0.6758378419
 20
-30.996588586
 10
-0.6802225895
 20
-31.0152933598
 10
-0.685361073
 20
-31.033367293
 10
-0.6912416656
 20
-31.0507694899
 10
-0.6978510614
 20
-31.0674605746
 10
-0.7051743054
 20
-31.0834027806
 10
-0.7131948274
 20
-31.0985600354
 10
-0.7218944794
 20
-31.1128980431
 10
-0.7312535768
 20
-31.1263843611
 10
-0.7412509429
 20
-31.1389884742
 10
-0.7518639568
 20
-31.150681863
 10
-0.7630686044
 20
-31.1614380693
 10
-0.7748395333
 20
-31.1712327549
 10
-0.7871501095
 20
-31.1800437575
 10
-0.7999724779
 20
-31.1878511407
 10
-0.8132776255
 20
-31.1946372388
 10
-0.8198158564
 20
-31.1975226228
  0
LWPOLYLINE
  5
3C7
100
AcDbEntity
  8
RACCORDO
100
AcDbPolyline
 62
7
  6
CONTINUOUS
 90
46
 70
0
 10
-22.3648309321
 20
-13.0914343905
 10
-22.3746673362
 20
-13.0968863585
 10
-22.3844421383
 20
-13.1028810181
 10
-22.3941483165
 20
-13.1093806093
 10
-22.4037993792
 20
-13.1163513545
 10
-22.4133738471
 20
-13.1237530626
 10
-22.4228150034
 20
-13.1315394747
 10
-22.432118831
 20
-13.1396723884
 10
-22.4412918946
 20
-13.1481209544
 10
-22.4502944649
 20
-13.1568530328
 10
-22.4591263726
 20
-13.1658361629
 10
-22.4677962773
 20
-13.1750428802
 10
-22.4762767009
 20
-13.1844532857
 10
-22.4845694288
 20
-13.1940402482
 10
-22.4926840518
 20
-13.2037804522
 10
-22.500602514
 20
-13.2136645435
 10
-22.5083286705
 20
-13.2236716146
 10
-22.5158706318
 20
-13.2337808184
 10
-22.52321398
 20
-13.2439869544
 10
-22.5303631569
 20
-13.254272939
 10
-22.5373255743
 20
-13.2646209595
 10
-22.5440887325
 20
-13.2750277223
 10
-22.5506573147
 20
-13.2854790023
 10
-22.557038083
 20
-13.2959594665
 10
-22.5632194815
 20
-13.3064662863
 10
-22.569206315
 20
-13.316987438
 10
-22.5750047783
 20
-13.327509527
 10
-22.5806036485
 20
-13.3380291303
 10
-22.5860078491
 20
-13.3485359784
 10
-22.5912231332
 20
-13.3590181642
 10
-22.5962382268
 20
-13.3694707924
 10
-22.6010582261
 20
-13.3798850438
 10
-22.6056886204
 20
-13.3902501755
 10
-22.6101179143
 20
-13.400559086
 10
-22.6143512222
 20
-13.4108036621
 10
-22.6183942508
 20
-13.4209746975
 10
-22.6222359812
 20
-13.4310639783
 10
-22.6258819808
 20
-13.4410650998
 10
-22.6293378179
 20
-13.4509692128
 10
-22.6325924769
 20
-13.460764947
 10
-22.6356518154
 20
-13.4704468055
 10
-22.6385218174
 20
-13.4800071376
 10
-22.6411921325
 20
-13.4894319797
 10
-22.6436637199
 20
-13.4987131286
 10
-22.6459485009
 20
-13.5078480244
 10
-22.6480529141
 20
-13.5168318122
  0
LINE
  5
3C8
100
AcDbEntity
  8
RACCORDO
100
AcDbLine
 62
7
  6
CONTINUOUS
 10
-22.3648307703
 20
-13.0914343059
 11
-22.3628871219
 21
-13.0904264571
  0
LINE
  5
3C9
100
AcDbEntity
  8
RACCORDO
100
AcDbLine
 62
7
  6
CONTINUOUS
 10
-21.5507504471
 20
-12.6751243197
 11
-22.3628867176
 21
-13.0904262504
  0
LINE
  5
3CA
100
AcDbEntity
  8
C_SCATOLINO
100
AcDbLine
 62
7
  6
CONTINUOUS
 10
-21.5319238351
 20
-11.4507386341
 11
-21.939999946
 21
-11.6547766896
  0
LWPOLYLINE
  5
3CB
100
AcDbEntity
  8
RACCORDO
100
AcDbPolyline
 62
250
  6
CONTINUOUS
 90
3
 70
0
 10
-26.1690928071
 20
-4.600170177
 10
-25.8570467875
 20
-4.5358279385
 10
-24.2953600931
 20
-4.2135008536
  0
LINE
  5
3CC
100
AcDbEntity
  8
RACCORDO
100
AcDbLine
 62
7
  6
CONTINUOUS
 10
-25.7178452547
 20
-4.7489328952
 11
-24.2715540789
 21
-4.4510855116
  0
LWPOLYLINE
  5
3CD
100
AcDbEntity
  8
RACCORDO
100
AcDbPolyline
 62
250
  6
CONTINUOUS
 90
15
 70
0
 10
-10.8927384923
 20
19.3990613083
 10
-10.8883953395
 20
19.3917162069
 10
-10.8845475253
 20
19.3846286462
 10
-10.8812059565
 20
19.3778181731
 10
-10.8783799364
 20
19.3713030194
 10
-10.8760779422
 20
19.3651018654
 10
-10.8743071138
 20
19.3592334905
 10
-10.873072385
 20
19.3537144601
 10
-10.872376923
 20
19.3485592397
 10
-10.8722226298
 20
19.343781792
 10
-10.8726099786
 20
19.3393951229
 10
-10.8735379595
 20
19.335411327
 10
-10.8750040347
 20
19.3318414011
 10
-10.877004179
 20
19.3286951231
 10
-10.8773779199
 20
19.3282261417
  0
LWPOLYLINE
  5
3CE
100
AcDbEntity
  8
RACCORDO
100
AcDbPolyline
 62
250
  6
CONTINUOUS
 90
14
 70
0
 10
-8.34715408
 20
18.1262691022
 10
-8.3428063953
 20
18.1189160152
 10
-8.3389561536
 20
18.1118229853
 10
-8.3356138698
 20
18.1050093834
 10
-8.3327886735
 20
18.0984938222
 10
-8.3304882774
 20
18.0922940898
 10
-8.3287189601
 20
18.0864271036
 10
-8.3274855555
 20
18.0809088782
 10
-8.3267914399
 20
18.0757544981
 10
-8.3266385124
 20
18.0709780578
 10
-8.3270271883
 20
18.0665926064
 10
-8.3279564042
 20
18.0626101126
 10
-8.3294236223
 20
18.0590414488
 10
-8.3313930133
 20
18.0559463725
  0
LWPOLYLINE
  5
3CF
100
AcDbEntity
  8
RACCORDO
100
AcDbPolyline
 62
7
  6
CONTINUOUS
 90
31
 70
0
 10
4.4888969127
 20
11.5282027167
 10
4.4886548707
 20
11.5396548321
 10
4.4879287233
 20
11.5513176873
 10
4.4867205942
 20
11.5631593864
 10
4.4850340286
 20
11.5751475946
 10
4.4828736557
 20
11.5872494592
 10
4.4802451766
 20
11.5994316996
 10
4.4771558638
 20
11.6116609632
 10
4.473614302
 20
11.6239037913
 10
4.4696300379
 20
11.6361265431
 10
4.4652140285
 20
11.6482957381
 10
4.4603784671
 20
11.6603780672
 10
4.455136511
 20
11.672340359
 10
4.4495025326
 20
11.6841498296
 10
4.443492033
 20
11.6957741405
 10
4.4371214565
 20
11.7071814073
 10
4.4304082367
 20
11.7183403509
 10
4.4233708009
 20
11.7292203999
 10
4.4160284749
 20
11.7397917438
 10
4.4084013239
 20
11.7500253784
 10
4.4005102472
 20
11.7598932531
 10
4.3923769756
 20
11.7693683661
 10
4.3840237113
 20
11.7784247031
 10
4.3754733109
 20
11.7870374249
 10
4.3667493736
 20
11.7951830038
 10
4.3578756918
 20
11.8028390564
 10
4.348876516
 20
11.8099845661
 10
4.339776732
 20
11.8166000591
 10
4.3306012724
 20
11.8226674015
 10
4.3213750477
 20
11.8281698489
 10
4.312123209
 20
11.8330922555
  0
LWPOLYLINE
  5
3D0
100
AcDbEntity
  8
RACCORDO
100
AcDbPolyline
 62
250
  6
CONTINUOUS
 90
31
 70
0
 10
5.0171640844
 20
11.7916415367
 10
5.0169739315
 20
11.8031196564
 10
5.0162969774
 20
11.8148071591
 10
5.0151350776
 20
11.8266720116
 10
5.0134914167
 20
11.8386816945
 10
5.0113704995
 20
11.8508032916
 10
5.0087781391
 20
11.8630035798
 10
5.0057214406
 20
11.8752491204
 10
5.002208782
 20
11.8875063508
 10
4.9982497908
 20
11.899741676
 10
4.9938553178
 20
11.9119215615
 10
4.9890374074
 20
11.9240126244
 10
4.9838092646
 20
11.9359817253
 10
4.9781852189
 20
11.9477960593
 10
4.9721806845
 20
11.9594232454
 10
4.9658121189
 20
11.9708314158
 10
4.9590969771
 20
11.9819893026
 10
4.9520536641
 20
11.9928663244
 10
4.9447014841
 20
12.0034326692
 10
4.9370605882
 20
12.0136593766
 10
4.9291519187
 20
12.0235184172
 10
4.9209971517
 20
12.0329827691
 10
4.9126186379
 20
12.0420264924
 10
4.9040393412
 20
12.0506248
 10
4.8952827759
 20
12.0587541253
 10
4.8863729421
 20
12.0663921876
 10
4.8773342599
 20
12.0735180523
 10
4.8681915028
 20
12.0801121887
 10
4.8589697292
 20
12.0861565236
 10
4.8496942144
 20
12.0916344906
 10
4.8403903807
 20
12.0965310755
  0
LINE
  5
3D1
100
AcDbEntity
  8
C_CONTATTI
100
AcDbLine
 62
7
  6
CONTINUOUS
 10
3.5412359848
 20
20.382688099
 11
3.5412359848
 21
19.8969346608
  0
LINE
  5
3D2
100
AcDbEntity
  8
RACCORDO
100
AcDbLine
 62
250
  6
CONTINUOUS
 10
3.5988367299
 20
10.2370032562
 11
3.5988367299
 21
9.4285024322
  0
LINE
  5
3D3
100
AcDbEntity
  8
RACCORDO
100
AcDbLine
 62
250
  6
CONTINUOUS
 10
3.5988367299
 20
-29.3427517466
 11
3.5988367299
 21
-30.0626008832
  0
LINE
  5
3D4
100
AcDbEntity
  8
C_CORPO
100
AcDbLine
 62
7
  6
CONTINUOUS
 10
3.7817901315
 20
21.3353532195
 11
3.7817901315
 21
21.3278063204
  0
LINE
  5
3D5
100
AcDbEntity
  8
C_CONTATTI
100
AcDbLine
 62
7
  6
CONTINUOUS
 10
3.9909806462
 20
20.2609402659
 11
3.9909806462
 21
19.8972134268
  0
LINE
  5
3D6
100
AcDbEntity
  8
C_CORPO
100
AcDbLine
 62
7
  6
CONTINUOUS
 10
4.0646328439
 20
21.113079653
 11
4.0646328439
 21
21.1863849642
  0
LINE
  5
3D7
100
AcDbEntity
  8
RACCORDO
100
AcDbLine
 62
7
  6
CONTINUOUS
 10
4.4888969127
 20
-28.9691406349
 11
4.4888969127
 21
-30.4740366948
  0
LINE
  5
3D8
100
AcDbEntity
  8
RACCORDO
100
AcDbLine
 62
7
  6
CONTINUOUS
 10
4.4888969127
 20
9.9333412493
 11
4.4888969127
 21
11.5282027167
  0
LINE
  5
3D9
100
AcDbEntity
  8
RACCORDO
100
AcDbLine
 62
250
  6
CONTINUOUS
 10
5.0171640844
 20
11.7916415367
 11
5.0171640844
 21
11.44411002
  0
LINE
  5
3DA
100
AcDbEntity
  8
RACCORDO
100
AcDbLine
 62
250
  6
CONTINUOUS
 10
5.0171640844
 20
-29.8554941194
 11
5.0171640844
 21
-30.2030256362
  0
LINE
  5
3DB
100
AcDbEntity
  8
RACCORDO
100
AcDbLine
 62
7
  6
CONTINUOUS
 10
5.0893619414
 20
11.8795141689
 11
5.0893619414
 21
11.5319826521
  0
LINE
  5
3DC
100
AcDbEntity
  8
RACCORDO
100
AcDbLine
 62
7
  6
CONTINUOUS
 10
5.0893619414
 20
-29.7676214872
 11
5.0893619414
 21
-30.115153004
  0
LINE
  5
3DD
100
AcDbEntity
  8
ASSI
100
AcDbLine
 62
250
  6
CONTINUOUS
 10
5.3943136005
 20
14.779649868
 11
5.3943136005
 21
15.9991421461
  0
LINE
  5
3DE
100
AcDbEntity
  8
ASSI
100
AcDbLine
 62
7
  6
CONTINUOUS
 10
5.5179076643
 20
14.927808971
 11
5.5179076643
 21
16.0081468901
  0
LINE
  5
3DF
100
AcDbEntity
  8
RACCORDO
100
AcDbLine
 62
7
  6
CONTINUOUS
 10
5.5495570844
 20
9.6697336107
 11
5.5495570844
 21
-28.2620141983
  0
LINE
  5
3E0
100
AcDbEntity
  8
C_CORPO
100
AcDbLine
 62
7
  6
CONTINUOUS
 10
5.5495570844
 20
6.0080000104
 11
5.5495570844
 21
-24.600280598
  0
LINE
  5
3E1
100
AcDbEntity
  8
C_CORPO
100
AcDbLine
 62
7
  6
CONTINUOUS
 10
5.9720774828
 20
23.6315914068
 11
5.9720774828
 21
23.1872421711
  0
LWPOLYLINE
  5
3E2
100
AcDbEntity
  8
RACCORDO
100
AcDbPolyline
 62
7
  6
CONTINUOUS
 90
22
 70
0
 10
4.9343808469
 20
-28.5655109101
 10
4.9337594185
 20
-28.5833948459
 10
4.9325456767
 20
-28.6009725187
 10
4.9307376877
 20
-28.6182123083
 10
4.9283341726
 20
-28.6350806932
 10
4.9253358375
 20
-28.6515490744
 10
4.921744464
 20
-28.6675931444
 10
4.9175630433
 20
-28.6831768323
 10
4.9127929943
 20
-28.6982756199
 10
4.9074319148
 20
-28.7128802036
 10
4.9014810848
 20
-28.7269607836
 10
4.8949446569
 20
-28.7404839562
 10
4.8878218676
 20
-28.7534312388
 10
4.8801100104
 20
-28.7657804734
 10
4.8718203995
 20
-28.7774883572
 10
4.8629758877
 20
-28.78850659
 10
4.8535832204
 20
-28.7988118444
 10
4.8436575796
 20
-28.8083732365
 10
4.8332428709
 20
-28.8171420144
 10
4.8223553429
 20
-28.8251019788
 10
4.8110158966
 20
-28.8322353698
 10
4.7997362254
 20
-28.8382859647
  0
LWPOLYLINE
  5
3E3
100
AcDbEntity
  8
RACCORDO
100
AcDbPolyline
 62
250
  6
CONTINUOUS
 90
16
 70
0
 10
5.0893619414
 20
11.5319826521
 10
5.0890587203
 20
11.5258280079
 10
5.0880772146
 20
11.5193264986
 10
5.0864190368
 20
11.5128594226
 10
5.0840886982
 20
11.5064443745
 10
5.0810925391
 20
11.5000988077
 10
5.0774387109
 20
11.4938399863
 10
5.0731371545
 20
11.4876849384
 10
5.068199573
 20
11.48165041
 10
5.0626393999
 20
11.475752819
 10
5.0564717626
 20
11.4700082108
 10
5.0497134413
 20
11.4644322145
 10
5.0423828231
 20
11.4590400007
 10
5.0344998522
 20
11.4538462397
 10
5.0260859755
 20
11.4488650621
 10
5.0171640844
 20
11.44411002
  0
LWPOLYLINE
  5
3E4
100
AcDbEntity
  8
RACCORDO
100
AcDbPolyline
 62
250
  6
CONTINUOUS
 90
16
 70
0
 10
5.0893619414
 20
11.8795138197
 10
5.0890564364
 20
11.8733364031
 10
5.0880722647
 20
11.8668337206
 10
5.0864111653
 20
11.8603655334
 10
5.0840776192
 20
11.8539493638
 10
5.0810779897
 20
11.8476027603
 10
5.0774205564
 20
11.8413431857
 10
5.0731154175
 20
11.8351877873
 10
5.0681742776
 20
11.8291531849
 10
5.0626104698
 20
11.8232556261
 10
5.0564377114
 20
11.8175099148
 10
5.0496739619
 20
11.8119330065
 10
5.0423424437
 20
11.8065434287
 10
5.0344658721
 20
11.8013565457
 10
5.026065167
 20
11.7963848937
 10
5.0171640844
 20
11.7916415367
  0
LWPOLYLINE
  5
3E5
100
AcDbEntity
  8
C_CORPO
100
AcDbPolyline
 62
7
  6
CONTINUOUS
 90
16
 70
0
 10
23.1330988581
 20
-3.2211348943
 10
23.1774938814
 20
-3.2346862064
 10
23.2214353906
 20
-3.2489496877
 10
23.2648969641
 20
-3.2638982911
 10
23.3078568277
 20
-3.279480372
 10
23.3502854474
 20
-3.295689736
 10
23.392142504
 20
-3.3125687466
 10
23.4334002859
 20
-3.3300866926
 10
23.4740308222
 20
-3.3482157337
 10
23.5139875607
 20
-3.3670058555
 10
23.5532404621
 20
-3.3864233034
 10
23.5917580391
 20
-3.4064394631
 10
23.6294840462
 20
-3.4271141884
 10
23.6663744903
 20
-3.4484452597
 10
23.7024024536
 20
-3.4703659995
 10
23.7375330505
 20
-3.4928385661
  0
LINE
  5
3E6
100
AcDbEntity
  8
RACCORDO
100
AcDbLine
 62
250
  6
CONTINUOUS
 10
-32.7825283985
 20
20.5520031243
 11
-2.0477797442
 21
5.1846287971
  0
LINE
  5
3E7
100
AcDbEntity
  8
RACCORDO
100
AcDbLine
 62
250
  6
CONTINUOUS
 10
-31.7899623884
 20
22.3038072802
 11
-1.031841351
 21
6.9247467615
  0
LWPOLYLINE
  5
3E8
100
AcDbEntity
  8
ASSI
100
AcDbPolyline
 62
7
  6
CONTINUOUS
 90
6
 70
0
 10
5.5179076643
 20
16.0081465332
 10
5.5176864245
 20
16.0106688855
 10
5.5166964422
 20
16.0136506864
 10
5.5149519183
 20
16.0161279587
 10
5.5124950029
 20
16.0181155965
 10
5.5111327902
 20
16.0188778071
  0
LWPOLYLINE
  5
3E9
100
AcDbEntity
  8
RACCORDO
100
AcDbPolyline
 62
250
  6
CONTINUOUS
 90
16
 70
0
 10
5.0893619414
 20
-30.115153004
 10
5.0890606709
 20
-30.1212878329
 10
5.0880809523
 20
-30.127790781
 10
5.0864242633
 20
-30.1342593453
 10
5.0840951117
 20
-30.140675912
 10
5.0810998315
 20
-30.1470230231
 10
5.0774465726
 20
-30.1532833999
 10
5.0731452745
 20
-30.1594400031
 10
5.068207642
 20
-30.1654760735
 10
5.0626471167
 20
-30.171375176
 10
5.0564788276
 20
-30.1771212574
 10
5.0497195663
 20
-30.1826986731
 10
5.0423877524
 20
-30.1880922253
 10
5.0345033543
 20
-30.1932872298
 10
5.0260878286
 20
-30.1982695533
 10
5.0171640844
 20
-30.2030256362
  0
LWPOLYLINE
  5
3EA
100
AcDbEntity
  8
RACCORDO
100
AcDbPolyline
 62
250
  6
CONTINUOUS
 90
16
 70
0
 10
5.0893619414
 20
-29.7676214872
 10
5.0890587203
 20
-29.7737761315
 10
5.0880772146
 20
-29.7802776407
 10
5.0864190368
 20
-29.7867447168
 10
5.0840886982
 20
-29.7931597648
 10
5.0810925391
 20
-29.7995053317
 10
5.0774387109
 20
-29.8057641531
 10
5.0731371545
 20
-29.8119192009
 10
5.068199573
 20
-29.8179537294
 10
5.0626393999
 20
-29.8238513204
 10
5.0564717626
 20
-29.8295959286
 10
5.0497134413
 20
-29.8351719248
 10
5.0423828231
 20
-29.8405641387
 10
5.0344998522
 20
-29.8457578997
 10
5.0260859755
 20
-29.8507390773
 10
5.0171640844
 20
-29.8554941194
  0
LWPOLYLINE
  5
3EB
100
AcDbEntity
  8
C_CORPO
100
AcDbPolyline
 62
7
  6
CONTINUOUS
 90
15
 70
0
 10
16.2111780757
 20
11.4325868495
 10
16.2124047751
 20
11.4348397328
 10
16.2136467151
 20
11.4371696068
 10
16.2149035811
 20
11.439576605
 10
16.216173498
 20
11.4420596768
 10
16.2174576764
 20
11.4446201506
 10
16.218760406
 20
11.4472617366
 10
16.2200819056
 20
11.4499851958
 10
16.2214212012
 20
11.4527900733
 10
16.222780765
 20
11.4556782651
 10
16.2241597306
 20
11.4586485008
 10
16.2255581354
 20
11.4617023747
 10
16.2269797609
 20
11.4648460942
 10
16.2284239981
 20
11.4680791386
 10
16.2313833327
 20
11.474824194
  0
LINE
  5
3EC
100
AcDbEntity
  8
C_CORPO
100
AcDbLine
 62
7
  6
CONTINUOUS
 10
16.2047187311
 20
11.4209643082
 11
16.2111780757
 21
11.4325868495
  0
LINE
  5
3ED
100
AcDbEntity
  8
C_CORPO
100
AcDbLine
 62
7
  6
CONTINUOUS
 10
16.1981802467
 20
11.409349159
 11
16.2047187311
 21
11.4209643082
  0
LINE
  5
3EE
100
AcDbEntity
  8
C_CORPO
100
AcDbLine
 62
7
  6
CONTINUOUS
 10
16.1915744435
 20
11.3977628575
 11
16.1981802467
 21
11.409349159
  0
LWPOLYLINE
  5
3EF
100
AcDbEntity
  8
C_SCATOLINO
100
AcDbPolyline
 62
250
  6
CONTINUOUS
 90
5
 70
0
 10
-10.6470055862
 20
-14.2430364019
 10
-10.6258845126
 20
-14.2307796492
 10
-10.6020973442
 20
-14.2122491158
 10
-10.5807460538
 20
-14.1899904525
 10
-10.5620082658
 20
-14.1642133338
  0
LINE
  5
3F0
100
AcDbEntity
  8
RACCORDO
100
AcDbLine
 62
7
  6
CONTINUOUS
 10
-13.9622188291
 20
-16.2487479841
 11
-13.9556484322
 21
-16.2454595001
  0
LINE
  5
3F1
100
AcDbEntity
  8
C_OTTURATORE
100
AcDbLine
 62
7
  6
CONTINUOUS
 10
-11.0559928044
 20
-13.1466404335
 11
-11.6388211605
 21
-13.4380546116
  0
LINE
  5
3F2
100
AcDbEntity
  8
C_SCATOLINO
100
AcDbLine
 62
250
  6
CONTINUOUS
 10
-10.5620082658
 20
-14.1642133338
 11
-9.9058309729
 21
-13.8361246873
  0
LINE
  5
3F3
100
AcDbEntity
  8
C_SCATOLINO
100
AcDbLine
 62
7
  6
CONTINUOUS
 10
-10.6470749379
 20
-14.2430710954
 11
-9.9375955381
 21
-13.8883313955
  0
LINE
  5
3F4
100
AcDbEntity
  8
C_CORPO
100
AcDbLine
 62
7
  6
CONTINUOUS
 10
19.3014848548
 20
1.404032352
 11
16.4722346431
 21
0.011663844
  0
LINE
  5
3F5
100
AcDbEntity
  8
RACCORDO
100
AcDbLine
 62
7
  6
CONTINUOUS
 10
-13.1153323538
 20
-15.8319522468
 11
-13.9556480668
 21
-16.2454593203
  0
LINE
  5
3F6
100
AcDbEntity
  8
C_CORPO
100
AcDbLine
 62
7
  6
CONTINUOUS
 10
19.401972023
 20
1.6181585136
 11
16.4722346431
 21
0.1908051291
  0
LWPOLYLINE
  5
3F7
100
AcDbEntity
  8
RACCORDO
100
AcDbPolyline
 62
7
  6
CONTINUOUS
 90
46
 70
0
 10
-13.9622188544
 20
-16.2487479969
 10
-13.9723622359
 20
-16.2536548435
 10
-13.9828558771
 20
-16.2584150745
 10
-13.993672749
 20
-16.2630027824
 10
-14.0048051794
 20
-16.2673699115
 10
-14.0162116377
 20
-16.2715147945
 10
-14.0278168336
 20
-16.2754824784
 10
-14.0395949776
 20
-16.2792504398
 10
-14.051532454
 20
-16.2827968467
 10
-14.0635748348
 20
-16.2861701778
 10
-14.0757021639
 20
-16.2893536465
 10
-14.0879041656
 20
-16.292326706
 10
-14.1001431118
 20
-16.2951351784
 10
-14.1124034373
 20
-16.2977662554
 10
-14.1246778574
 20
-16.3002020159
 10
-14.1369424525
 20
-16.3024833601
 10
-14.1491867562
 20
-16.3046005219
 10
-14.161403855
 20
-16.3065382002
 10
-14.1735758159
 20
-16.3083311538
 10
-14.185694897
 20
-16.3099712968
 10
-14.1977554206
 20
-16.3114460179
 10
-14.2097427157
 20
-16.3127848008
 10
-14.2216509659
 20
-16.3139807311
 10
-14.2334754542
 20
-16.3150233765
 10
-14.2452030373
 20
-16.3159379567
 10
-14.2568293481
 20
-16.3167184145
 10
-14.2683503784
 20
-16.3173560388
 10
-14.279753272
 20
-16.3178727224
 10
-14.2910348332
 20
-16.3182630667
 10
-14.3021915846
 20
-16.3185197237
 10
-14.3132099961
 20
-16.3186620834
 10
-14.3240878843
 20
-16.3186852939
 10
-14.3348222294
 20
-16.3185831127
 10
-14.345398108
 20
-16.3183731419
 10
-14.3558137454
 20
-16.3180510786
 10
-14.3660671569
 20
-16.3176115888
 10
-14.3761431171
 20
-16.3170709853
 10
-14.3860412174
 20
-16.3164254934
 10
-14.3957594901
 20
-16.3156705984
 10
-14.4052806246
 20
-16.3148218084
 10
-14.4146049277
 20
-16.3138759605
 10
-14.4237313564
 20
-16.3128293507
 10
-14.4326411909
 20
-16.3116971284
 10
-14.4413286952
 20
-16.3104826376
 10
-14.4498008689
 20
-16.3091773048
 10
-14.4580586634
 20
-16.3077788502
  0
LWPOLYLINE
  5
3F8
100
AcDbEntity
  8
C_CORPO
100
AcDbPolyline
 62
250
  6
CONTINUOUS
 90
22
 70
0
 10
16.4722346431
 20
-6.3712151923
 10
16.4791435908
 20
-6.3779781086
 10
16.4871920309
 20
-6.3850113454
 10
16.4958059588
 20
-6.3917541498
 10
16.504973967
 20
-6.3981975924
 10
16.5146839145
 20
-6.40433314
 10
16.5249229422
 20
-6.4101526673
 10
16.5356774905
 20
-6.4156484676
 10
16.5469333173
 20
-6.4208132626
 10
16.5586755163
 20
-6.4256402126
 10
16.5708885373
 20
-6.4301229254
 10
16.5835562066
 20
-6.4342554643
 10
16.5966617483
 20
-6.4380323567
 10
16.6101878068
 20
-6.4414486008
 10
16.6241164693
 20
-6.4444996724
 10
16.6384292902
 20
-6.4471815311
 10
16.653107315
 20
-6.4494906252
 10
16.6681311054
 20
-6.4514238968
 10
16.6834807654
 20
-6.4529787855
 10
16.6991359674
 20
-6.4541532324
 10
16.7150759792
 20
-6.454945682
 10
16.7312796914
 20
-6.4553550849
  0
LINE
  5
3F9
100
AcDbEntity
  8
C_CORPO
100
AcDbLine
 62
250
  6
CONTINUOUS
 10
1.7496407182
 20
21.4831999728
 11
1.2328709389
 21
22.8239057977
  0
LINE
  5
3FA
100
AcDbEntity
  8
C_CONTATTI
100
AcDbLine
 62
7
  6
CONTINUOUS
 10
3.0357664026
 20
20.1404481433
 11
2.8342670447
 21
20.7361725691
  0
LWPOLYLINE
  5
3FB
100
AcDbEntity
  8
C_CORPO
100
AcDbPolyline
 62
250
  6
CONTINUOUS
 90
66
 70
0
 10
11.2195748799
 20
19.633278694
 10
11.218651777
 20
19.6752118091
 10
11.2169216755
 20
19.7174941801
 10
11.2143852835
 20
19.7601016021
 10
11.2110440433
 20
19.8030100496
 10
11.2069001096
 20
19.8461956969
 10
11.2019556729
 20
19.8896342041
 10
11.1962134004
 20
19.9333007302
 10
11.1896768401
 20
19.977170491
 10
11.1823496061
 20
20.0212185007
 10
11.1742357038
 20
20.0654198377
 10
11.1653399529
 20
20.1097496635
 10
11.1556672924
 20
20.1541828381
 10
11.1452230832
 20
20.1986941337
 10
11.1340134374
 20
20.2432584977
 10
11.1220446115
 20
20.2878506886
 10
11.1093232827
 20
20.3324453731
 10
11.0958568465
 20
20.3770173407
 10
11.0816528695
 20
20.4215413039
 10
11.066719299
 20
20.4659920259
 10
11.0510647376
 20
20.5103444171
 10
11.0346980047
 20
20.5545733298
 10
11.0176282882
 20
20.5986536956
 10
10.9998653543
 20
20.6425606527
 10
10.9814192221
 20
20.6862693333
 10
10.962300278
 20
20.7297549516
 10
10.9425194242
 20
20.7729929408
 10
10.9220878404
 20
20.8159588144
 10
10.9010170502
 20
20.8586282206
 10
10.8793190316
 20
20.9009770298
 10
10.8570060696
 20
20.9429812601
 10
10.8340907657
 20
20.9846171196
 10
10.8105861017
 20
21.0258610598
 10
10.7865053991
 20
21.0666897364
 10
10.7618622779
 20
21.1070800265
 10
10.736670664
 20
21.1470090695
 10
10.710944847
 20
21.1864542772
 10
10.684699397
 20
21.2253933135
 10
10.6579491211
 20
21.2638041103
 10
10.630709212
 20
21.3016649404
 10
10.6029951093
 20
21.3389543793
 10
10.5748224131
 20
21.3756512835
 10
10.5462071412
 20
21.4117348988
 10
10.517165524
 20
21.447184819
 10
10.4877138635
 20
21.4819809453
 10
10.4578689031
 20
21.5161036207
 10
10.4276475979
 20
21.5495335391
 10
10.3970669074
 20
21.5822517013
 10
10.3661442249
 20
21.614239638
 10
10.334897137
 20
21.6454792545
 10
10.3033431922
 20
21.6759527386
 10
10.271500387
 20
21.7056428682
 10
10.2393868106
 20
21.7345328945
 10
10.207020404
 20
21.7626063847
 10
10.1744196202
 20
21.7898474943
 10
10.1416030092
 20
21.8162408505
 10
10.1085888616
 20
21.8417714318
 10
10.0753959393
 20
21.8664248918
 10
10.0420432123
 20
21.8901872649
 10
10.0085494433
 20
21.9130448552
 10
9.9749338785
 20
21.9349847087
 10
9.941215548
 20
21.9559945653
 10
9.9074130005
 20
21.9760625432
 10
9.8735452932
 20
21.9951773119
 10
9.8396319839
 20
22.0133281228
 10
9.8056924317
 20
22.0305047569
  0
LWPOLYLINE
  5
3FC
100
AcDbEntity
  8
C_CORPO
100
AcDbPolyline
 62
7
  6
CONTINUOUS
 90
55
 70
0
 10
11.5003507896
 20
19.9390449391
 10
11.4999963823
 20
19.9773494824
 10
11.4985705613
 20
20.0251437601
 10
11.4960657675
 20
20.0729757091
 10
11.4924938763
 20
20.1208463549
 10
11.487867522
 20
20.1687336559
 10
11.4822025608
 20
20.2165873258
 10
11.4755114956
 20
20.2643979412
 10
11.4678052985
 20
20.3121554501
 10
11.4591027102
 20
20.3598049141
 10
11.4494154201
 20
20.4073375822
 10
11.4387538163
 20
20.4547436356
 10
11.4271403141
 20
20.5019639327
 10
11.4145862203
 20
20.5489885409
 10
11.4011018395
 20
20.595808475
 10
11.3867123812
 20
20.6423640363
 10
11.3714301855
 20
20.6886421247
 10
11.3552645451
 20
20.7346367947
 10
11.3382398874
 20
20.7802977119
 10
11.3203716534
 20
20.8256039533
 10
11.3016651616
 20
20.8705571606
 10
11.2821324521
 20
20.9151398677
 10
11.2617830498
 20
20.9593392134
 10
11.2406230575
 20
21.0031470045
 10
11.2186594203
 20
21.0465518756
 10
11.1958968945
 20
21.089543632
 10
11.1723412059
 20
21.13210908
 10
11.1479988719
 20
21.1742316016
 10
11.1228710417
 20
21.2159022244
 10
11.0969627051
 20
21.2571040139
 10
11.0702849277
 20
21.2978090753
 10
11.042839048
 20
21.3380048183
 10
11.0146266575
 20
21.3776756595
 10
10.9856591141
 20
21.4167920095
 10
10.955930639
 20
21.4553465199
 10
10.9254463375
 20
21.4933153286
 10
10.8942339838
 20
21.5306480332
 10
10.8622806426
 20
21.5673429559
 10
10.8295974091
 20
21.6033691826
 10
10.7962503911
 20
21.6386388203
 10
10.7622394313
 20
21.6731397343
 10
10.7275670823
 20
21.7068556028
 10
10.6923084275
 20
21.7397021037
 10
10.6564672647
 20
21.7716679987
 10
10.6200466189
 20
21.8027407154
 10
10.5831261201
 20
21.8328455429
 10
10.5457138432
 20
21.8619721788
 10
10.5078134412
 20
21.8901122303
 10
10.4695038864
 20
21.917204677
 10
10.4307945211
 20
21.9432426231
 10
10.3916933019
 20
21.9682193581
 10
10.352283067
 20
21.9920834752
 10
10.3126008086
 20
22.0148175739
 10
10.2726362083
 20
22.0364324869
 10
10.2405676673
 20
22.0528668913
  0
LINE
  5
3FD
100
AcDbEntity
  8
RACCORDO
100
AcDbLine
 62
7
  6
CONTINUOUS
 10
9.8571255196
 20
12.9044279735
 11
9.8571255196
 21
13.1903032274
  0
LINE
  5
3FE
100
AcDbEntity
  8
RACCORDO
100
AcDbLine
 62
250
  6
CONTINUOUS
 10
10.1052698434
 20
13.8263706881
 11
10.1052698434
 21
13.3214830419
  0
LINE
  5
3FF
100
AcDbEntity
  8
RACCORDO
100
AcDbLine
 62
250
  6
CONTINUOUS
 10
10.1052698434
 20
-23.1578504516
 11
10.1052698434
 21
-23.5269944771
  0
LINE
  5
400
100
AcDbEntity
  8
RACCORDO
100
AcDbLine
 62
7
  6
CONTINUOUS
 10
10.2455999432
 20
14.1267958148
 11
10.2455999432
 21
13.4977537313
  0
LINE
  5
401
100
AcDbEntity
  8
RACCORDO
100
AcDbLine
 62
7
  6
CONTINUOUS
 10
10.2455999432
 20
-23.0836415832
 11
10.2455999432
 21
-23.4800904186
  0
LINE
  5
402
100
AcDbEntity
  8
C_CORPO
100
AcDbLine
 62
250
  6
CONTINUOUS
 10
11.2196906025
 20
15.591505324
 11
11.2195748799
 21
19.633278694
  0
LINE
  5
403
100
AcDbEntity
  8
C_CORPO
100
AcDbLine
 62
7
  6
CONTINUOUS
 10
11.5003508021
 20
16.5114912998
 11
11.5003508021
 21
19.939047849
  0
LWPOLYLINE
  5
404
100
AcDbEntity
  8
C_CORPO
100
AcDbPolyline
 62
250
  6
CONTINUOUS
 90
55
 70
0
 10
11.5003508021
 20
16.5114919
 10
11.5001202811
 20
16.4744259489
 10
11.4992666811
 20
16.4311607555
 10
11.4978399166
 20
16.3894342918
 10
11.4958891198
 20
16.3491037893
 10
11.4934752313
 20
16.3103219549
 10
11.4906457618
 20
16.2730670935
 10
11.4874534153
 20
16.2373844537
 10
11.483943813
 20
16.2032322839
 10
11.4801410693
 20
16.1704577549
 10
11.4760839607
 20
16.1390701804
 10
11.471808926
 20
16.1090603747
 10
11.4673214464
 20
16.080248182
 10
11.4626472393
 20
16.0526197931
 10
11.4578159151
 20
16.0261877632
 10
11.4528265073
 20
16.0008123056
 10
11.4477012411
 20
15.976495179
 10
11.4424601359
 20
15.9532326953
 10
11.4370890552
 20
15.9308779305
 10
11.4316030215
 20
15.9094245452
 10
11.4260172254
 20
15.8888772276
 10
11.4203087528
 20
15.8691069083
 10
11.4144618709
 20
15.8500342606
 10
11.4085110793
 20
15.831738097
 10
11.4025083354
 20
15.8143263209
 10
11.3964766104
 20
15.7978372625
 10
11.3904198775
 20
15.7822291666
 10
11.3843660132
 20
15.7674884795
 10
11.3783419507
 20
15.7536479404
 10
11.3723475039
 20
15.7406701872
 10
11.3663686339
 20
15.7284365775
 10
11.3604217918
 20
15.7169511581
 10
11.3545109764
 20
15.7062059434
 10
11.348598611
 20
15.6960654331
 10
11.3426939245
 20
15.686521847
 10
11.3368011396
 20
15.6775804061
 10
11.3308694578
 20
15.6691267581
 10
11.3248893848
 20
15.6611354281
 10
11.3188770531
 20
15.6536311377
 10
11.3128163352
 20
15.6465760048
 10
11.3066995638
 20
15.6399593071
 10
11.3005391647
 20
15.6337914619
 10
11.2943486835
 20
15.6280664038
 10
11.2881305102
 20
15.6227875581
 10
11.2818879751
 20
15.617950649
 10
11.2756369076
 20
15.6135376711
 10
11.26938302
 20
15.6095527826
 10
11.2631270418
 20
15.6059904533
 10
11.2568779219
 20
15.6028178431
 10
11.2506417313
 20
15.6000364562
 10
11.2444188392
 20
15.5976431556
 10
11.2382096534
 20
15.5955980717
 10
11.232016208
 20
15.5938873966
 10
11.2258422558
 20
15.5925233436
 10
11.2196906025
 20
15.5915050964
  0
LWPOLYLINE
  5
405
100
AcDbEntity
  8
C_CORPO
100
AcDbPolyline
 62
7
  6
CONTINUOUS
 90
46
 70
0
 10
16.2889155216
 20
11.6340254912
 10
16.2912561804
 20
11.6417703537
 10
16.2936284508
 20
11.6497482915
 10
16.2960400286
 20
11.6579982755
 10
16.2984876791
 20
11.6665207441
 10
16.3009677978
 20
11.675316014
 10
16.3034863623
 20
11.6844230194
 10
16.3060392953
 20
11.6938420929
 10
16.3086220975
 20
11.7035735381
 10
16.3112388032
 20
11.7136563451
 10
16.3138845259
 20
11.7240912936
 10
16.3165535477
 20
11.7348779362
 10
16.3192472092
 20
11.746053446
 10
16.3219603799
 20
11.7576220711
 10
16.3246852791
 20
11.7695793157
 10
16.3274179128
 20
11.7819491345
 10
16.3301520079
 20
11.794735016
 10
16.3328788791
 20
11.8079322315
 10
16.3355898905
 20
11.8215521493
 10
16.3382749488
 20
11.8355814869
 10
16.3409277377
 20
11.8500308485
 10
16.3435436571
 20
11.8649470255
 10
16.3461105189
 20
11.8803092481
 10
16.3486209117
 20
11.8961336323
 10
16.3510735356
 20
11.9125215656
 10
16.3534561132
 20
11.92946684
 10
16.3557546787
 20
11.9469677598
 10
16.3579595623
 20
11.9651310671
 10
16.3600550017
 20
11.9839459686
 10
16.3620227646
 20
12.0034100297
 10
16.3638423496
 20
12.0236400402
 10
16.3654939781
 20
12.0446173973
 10
16.3669539058
 20
12.066338895
 10
16.3681865373
 20
12.0889401163
 10
16.3691680965
 20
12.1124214979
 10
16.369866065
 20
12.1367466092
 10
16.3702224979
 20
12.1619894122
 10
16.3702085482
 20
12.1881562665
 10
16.3697871683
 20
12.2151847108
 10
16.368883528
 20
12.2430386499
 10
16.3674644337
 20
12.2717349974
 10
16.3654963732
 20
12.3011767679
 10
16.362909834
 20
12.3311542322
 10
16.3596679928
 20
12.3615671125
 10
16.3557607042
 20
12.3924201504
 10
16.3511661855
 20
12.4236589047
  0
LINE
  5
406
100
AcDbEntity
  8
C_CORPO
100
AcDbLine
 62
7
  6
CONTINUOUS
 10
16.284340166
 20
11.6192339222
 11
16.2889155216
 21
11.6340254912
  0
LINE
  5
407
100
AcDbEntity
  8
C_CORPO
100
AcDbLine
 62
7
  6
CONTINUOUS
 10
16.2798863592
 20
11.6052517245
 11
16.284340166
 21
11.6192339222
  0
LINE
  5
408
100
AcDbEntity
  8
C_CORPO
100
AcDbLine
 62
7
  6
CONTINUOUS
 10
16.2755475539
 20
11.5920019925
 11
16.2798863592
 21
11.6052517245
  0
LINE
  5
409
100
AcDbEntity
  8
C_CORPO
100
AcDbLine
 62
7
  6
CONTINUOUS
 10
16.2713001325
 20
11.5793662272
 11
16.2755475539
 21
11.5920019925
  0
LINE
  5
40A
100
AcDbEntity
  8
C_CORPO
100
AcDbLine
 62
7
  6
CONTINUOUS
 10
16.2671407471
 20
11.5672981307
 11
16.2713001325
 21
11.5793662272
  0
LINE
  5
40B
100
AcDbEntity
  8
C_CORPO
100
AcDbLine
 62
7
  6
CONTINUOUS
 10
16.2630725979
 20
11.5557748432
 11
16.2671407471
 21
11.5672981307
  0
LINE
  5
40C
100
AcDbEntity
  8
C_CORPO
100
AcDbLine
 62
7
  6
CONTINUOUS
 10
16.2591028371
 20
11.5447875464
 11
16.2630725979
 21
11.5557748432
  0
LINE
  5
40D
100
AcDbEntity
  8
C_CORPO
100
AcDbLine
 62
7
  6
CONTINUOUS
 10
16.2552370105
 20
11.5343254024
 11
16.2591028371
 21
11.5447875464
  0
LINE
  5
40E
100
AcDbEntity
  8
C_CORPO
100
AcDbLine
 62
7
  6
CONTINUOUS
 10
16.2514810277
 20
11.5243799175
 11
16.2552370105
 21
11.5343254024
  0
LINE
  5
40F
100
AcDbEntity
  8
C_CORPO
100
AcDbLine
 62
7
  6
CONTINUOUS
 10
16.2478386734
 20
11.5149391425
 11
16.2514810277
 21
11.5243799175
  0
LINE
  5
410
100
AcDbEntity
  8
C_CORPO
100
AcDbLine
 62
7
  6
CONTINUOUS
 10
16.2443129366
 20
11.5059913974
 11
16.2478386734
 21
11.5149391425
  0
LINE
  5
411
100
AcDbEntity
  8
C_CORPO
100
AcDbLine
 62
7
  6
CONTINUOUS
 10
16.2409067767
 20
11.4975258939
 11
16.2443129366
 21
11.5059913974
  0
LINE
  5
412
100
AcDbEntity
  8
C_CORPO
100
AcDbLine
 62
7
  6
CONTINUOUS
 10
16.2376197009
 20
11.4895256658
 11
16.2409067767
 21
11.4975258939
  0
LINE
  5
413
100
AcDbEntity
  8
C_CORPO
100
AcDbLine
 62
7
  6
CONTINUOUS
 10
16.2344460466
 20
11.4819643075
 11
16.2376197009
 21
11.4895256658
  0
LINE
  5
414
100
AcDbEntity
  8
C_CORPO
100
AcDbLine
 62
7
  6
CONTINUOUS
 10
16.2313833327
 20
11.474824194
 11
16.2344460466
 21
11.4819643075
  0
LINE
  5
415
100
AcDbEntity
  8
RACCORDO
100
AcDbLine
 62
7
  6
CONTINUOUS
 10
2.6607726283
 20
10.2296856182
 11
3.2849682254
 21
10.0993529984
  0
LINE
  5
416
100
AcDbEntity
  8
RACCORDO
100
AcDbLine
 62
250
  6
CONTINUOUS
 10
2.8876161218
 20
10.385506779
 11
3.5988367299
 21
10.2370032562
  0
LWPOLYLINE
  5
417
100
AcDbEntity
  8
RACCORDO
100
AcDbPolyline
 62
250
  6
CONTINUOUS
 90
15
 70
0
 10
1.3858577383
 20
11.6928625919
 10
1.3765519542
 20
11.6971658565
 10
1.3672744886
 20
11.7008650959
 10
1.3580507803
 20
11.7039501634
 10
1.3489061127
 20
11.7064125981
 10
1.3398655693
 20
11.7082456415
 10
1.3309539638
 20
11.7094442613
 10
1.3221957371
 20
11.7100051724
 10
1.3136148982
 20
11.7099268391
 10
1.3052349815
 20
11.7092094786
 10
1.2970789636
 20
11.7078550608
 10
1.289169207
 20
11.7058673026
 10
1.2815274051
 20
11.7032516596
 10
1.274174504
 20
11.7000153056
 10
1.2727720722
 20
11.699310567
  0
LWPOLYLINE
  5
418
100
AcDbEntity
  8
RACCORDO
100
AcDbPolyline
 62
250
  6
CONTINUOUS
 90
15
 70
0
 10
-11.9784604261
 20
18.3750216741
 10
-11.9877642598
 20
18.3793240988
 10
-11.9970397746
 20
18.3830227475
 10
-12.0062615482
 20
18.3861074829
 10
-12.0154043053
 20
18.3885698503
 10
-12.0244429875
 20
18.3904031008
 10
-12.0333528213
 20
18.3916022099
 10
-12.0421093866
 20
18.3921638909
 10
-12.0506886832
 20
18.3920866045
 10
-12.0590671971
 20
18.3913705624
 10
-12.0672219641
 20
18.3900177272
 10
-12.0751306336
 20
18.3880318068
 10
-12.0827715295
 20
18.3854182442
 10
-12.0901237094
 20
18.3821842027
 10
-12.0915460922
 20
18.3814696492
  0
LWPOLYLINE
  5
419
100
AcDbEntity
  8
RACCORDO
100
AcDbPolyline
 62
250
  6
CONTINUOUS
 90
15
 70
0
 10
-14.5240448384
 20
19.6478138802
 10
-14.5333506225
 20
19.6521171449
 10
-14.5426280881
 20
19.6558163843
 10
-14.5518517964
 20
19.6589014517
 10
-14.560996464
 20
19.6613638864
 10
-14.5700370074
 20
19.6631969298
 10
-14.5789486129
 20
19.6643955497
 10
-14.5877068396
 20
19.6649564607
 10
-14.5962876785
 20
19.6648781274
 10
-14.6046675952
 20
19.6641607669
 10
-14.6128236131
 20
19.6628063492
 10
-14.6207333697
 20
19.6608185909
 10
-14.6283751716
 20
19.6582029479
 10
-14.6357280727
 20
19.654966594
 10
-14.6371305045
 20
19.6542618554
  0
LWPOLYLINE
  5
41A
100
AcDbEntity
  8
RACCORDO
100
AcDbPolyline
 62
250
  6
CONTINUOUS
 90
15
 70
0
 10
-27.8883630028
 20
26.3299729625
 10
-27.8976668365
 20
26.3342753872
 10
-27.9069423513
 20
26.3379740359
 10
-27.9161641249
 20
26.3410587713
 10
-27.925306882
 20
26.3435211387
 10
-27.9343455642
 20
26.3453543892
 10
-27.943255398
 20
26.3465534982
 10
-27.9520119633
 20
26.3471151793
 10
-27.9605912599
 20
26.3470378928
 10
-27.9689697738
 20
26.3463218508
 10
-27.9771245408
 20
26.3449690156
 10
-27.9850332103
 20
26.3429830952
 10
-27.9926741062
 20
26.3403695325
 10
-28.0000262861
 20
26.337135491
 10
-28.0014486689
 20
26.3364209376
  0
LWPOLYLINE
  5
41B
100
AcDbEntity
  8
RACCORDO
100
AcDbPolyline
 62
7
  6
CONTINUOUS
 90
14
 70
0
 10
2.9686143415
 20
12.5048466892
 10
2.9593629258
 20
12.5091759099
 10
2.9501366108
 20
12.5128997323
 10
2.9409608184
 20
12.5160080159
 10
2.9318609311
 20
12.5184923586
 10
2.9228619
 20
12.5203459523
 10
2.9139881769
 20
12.5215636021
 10
2.905264153
 20
12.5221420038
 10
2.8967138586
 20
12.5220796295
 10
2.8883605749
 20
12.5213765664
 10
2.8802272356
 20
12.5200347589
 10
2.8723362236
 20
12.5180579286
 10
2.8647090756
 20
12.5154514434
 10
2.857682128
 20
12.5123768345
  0
LWPOLYLINE
  5
41C
100
AcDbEntity
  8
RACCORDO
100
AcDbPolyline
 62
250
  6
CONTINUOUS
 90
31
 70
0
 10
2.5350941622
 20
10.3860195029
 10
2.5445531325
 20
10.3815305405
 10
2.5544674089
 20
10.377294316
 10
2.5648100126
 20
10.3733223571
 10
2.5755527831
 20
10.3696254777
 10
2.5866665023
 20
10.3662137317
 10
2.5981209796
 20
10.3630963897
 10
2.609885085
 20
10.3602819308
 10
2.6219267754
 20
10.3577780279
 10
2.6342132297
 20
10.3555915082
 10
2.6467109941
 20
10.3537283243
 10
2.6593860768
 20
10.3521935431
 10
2.6722039853
 20
10.3509913411
 10
2.6851298486
 20
10.3501249892
 10
2.6981284818
 20
10.3495968463
 10
2.7111644801
 20
10.3494083495
 10
2.724202348
 20
10.3495600088
 10
2.7372066272
 20
10.3500514084
 10
2.7501419617
 20
10.3508812111
 10
2.7629732673
 20
10.3520471709
 10
2.7756655085
 20
10.3535461088
 10
2.7881838376
 20
10.3553738963
 10
2.8004940019
 20
10.357525497
 10
2.8125627327
 20
10.3599950603
 10
2.8243575035
 20
10.3627759169
 10
2.8358473661
 20
10.365860827
 10
2.8469998479
 20
10.3692411306
 10
2.8577816577
 20
10.3729065718
 10
2.8681628468
 20
10.3768465697
 10
2.878116559
 20
10.3810505172
 10
2.8876161218
 20
10.385506779
  0
LWPOLYLINE
  5
41D
100
AcDbEntity
  8
RACCORDO
100
AcDbPolyline
 62
250
  6
CONTINUOUS
 90
31
 70
0
 10
-10.8292240022
 20
17.0681785851
 10
-10.8197650319
 20
17.0636896227
 10
-10.8098507555
 20
17.0594533982
 10
-10.7995081518
 20
17.0554814393
 10
-10.7887653813
 20
17.0517845599
 10
-10.7776516621
 20
17.0483728139
 10
-10.7661971848
 20
17.0452554719
 10
-10.7544330794
 20
17.042441013
 10
-10.742391389
 20
17.0399371101
 10
-10.7301049347
 20
17.0377505904
 10
-10.7176071704
 20
17.0358874065
 10
-10.7049320876
 20
17.0343526253
 10
-10.6921141792
 20
17.0331504233
 10
-10.6791883158
 20
17.0322840715
 10
-10.6661896826
 20
17.0317559285
 10
-10.6531536843
 20
17.0315674317
 10
-10.6401158165
 20
17.031719091
 10
-10.6271115372
 20
17.0322104906
 10
-10.6141762028
 20
17.0330402933
 10
-10.6013448972
 20
17.0342062531
 10
-10.5886526559
 20
17.035705191
 10
-10.5761343269
 20
17.0375329785
 10
-10.5638241625
 20
17.0396845792
 10
-10.5517554317
 20
17.0421541425
 10
-10.5399606609
 20
17.0449349991
 10
-10.5284707983
 20
17.0480199092
 10
-10.5173183166
 20
17.0514002128
 10
-10.5065365067
 20
17.055065654
 10
-10.4961553176
 20
17.0590056519
 10
-10.4862016055
 20
17.0632095994
 10
-10.4767020426
 20
17.0676658612
  0
LWPOLYLINE
  5
41E
100
AcDbEntity
  8
RACCORDO
100
AcDbPolyline
 62
250
  6
CONTINUOUS
 90
31
 70
0
 10
2.5350941622
 20
10.725993437
 10
2.5445543115
 20
10.7215039436
 10
2.5544698981
 20
10.7172672415
 10
2.564813936
 20
10.7132948643
 10
2.5755582842
 20
10.7095976227
 10
2.5866736897
 20
10.7061855865
 10
2.5981298633
 20
10.7030680543
 10
2.6098956126
 20
10.7002535132
 10
2.6219389199
 20
10.6977496208
 10
2.6342269925
 20
10.6955631937
 10
2.6467263801
 20
10.6937001818
 10
2.6594030619
 20
10.692165654
 10
2.6722225278
 20
10.6909637856
 10
2.6851498993
 20
10.6900978452
 10
2.6981499744
 20
10.6895701893
 10
2.7111873178
 20
10.6893822519
 10
2.7242263891
 20
10.6895345372
 10
2.7372317541
 20
10.690026623
 10
2.7501681284
 20
10.6908571727
 10
2.7630004675
 20
10.6920239457
 10
2.7756936747
 20
10.6935237605
 10
2.7882128239
 20
10.6953524772
 10
2.8005236206
 20
10.6975050466
 10
2.8125928254
 20
10.6999756166
 10
2.8243879431
 20
10.7027575205
 10
2.8358793656
 20
10.7058438997
 10
2.8470331822
 20
10.7092257744
 10
2.8578123378
 20
10.7128915335
 10
2.8681861037
 20
10.7168298193
 10
2.8781294077
 20
10.7210301718
 10
2.8876161218
 20
10.7254807132
  0
LWPOLYLINE
  5
41F
100
AcDbEntity
  8
RACCORDO
100
AcDbPolyline
 62
250
  6
CONTINUOUS
 90
31
 70
0
 10
-13.3748084145
 20
18.3409707912
 10
-13.3653494442
 20
18.3364818288
 10
-13.3554351678
 20
18.3322456043
 10
-13.3450925641
 20
18.3282736455
 10
-13.3343497936
 20
18.3245767661
 10
-13.3232360744
 20
18.32116502
 10
-13.3117815971
 20
18.318047678
 10
-13.3000174917
 20
18.3152332192
 10
-13.2879758013
 20
18.3127293163
 10
-13.275689347
 20
18.3105427965
 10
-13.2631915826
 20
18.3086796127
 10
-13.2505164999
 20
18.3071448314
 10
-13.2376985914
 20
18.3059426294
 10
-13.2247727281
 20
18.3050762776
 10
-13.2117740949
 20
18.3045481347
 10
-13.1987380966
 20
18.3043596379
 10
-13.1857002287
 20
18.3045112972
 10
-13.1726959495
 20
18.3050026968
 10
-13.159760615
 20
18.3058324995
 10
-13.1469293094
 20
18.3069984592
 10
-13.1342370682
 20
18.3084973971
 10
-13.1217187391
 20
18.3103251846
 10
-13.1094085748
 20
18.3124767854
 10
-13.097339844
 20
18.3149463487
 10
-13.0855450732
 20
18.3177272052
 10
-13.0740552106
 20
18.3208121153
 10
-13.0629027288
 20
18.3241924189
 10
-13.052120919
 20
18.3278578601
 10
-13.0417397299
 20
18.3317978581
 10
-13.0317860177
 20
18.3360018056
 10
-13.0222864549
 20
18.3404580674
  0
LWPOLYLINE
  5
420
100
AcDbEntity
  8
RACCORDO
100
AcDbPolyline
 62
250
  6
CONTINUOUS
 90
31
 70
0
 10
-10.8292240022
 20
17.4081525192
 10
-10.8197885911
 20
17.4036741686
 10
-10.8098937987
 20
17.3994447776
 10
-10.7995656406
 20
17.3954762886
 10
-10.7888291521
 20
17.3917792418
 10
-10.7777148928
 20
17.3883650471
 10
-10.7662596039
 20
17.3852453581
 10
-10.7544970166
 20
17.3824292365
 10
-10.7424567289
 20
17.3799236469
 10
-10.7301711808
 20
17.3777353541
 10
-10.7176735591
 20
17.375870307
 10
-10.7049980851
 20
17.3743336497
 10
-10.692179614
 20
17.3731296196
 10
-10.6792531965
 20
17.3722614998
 10
-10.6662538575
 20
17.3717316333
 10
-10.6532168653
 20
17.3715414591
 10
-10.6401776492
 20
17.3716915021
 10
-10.6271717529
 20
17.3721813614
 10
-10.6142346244
 20
17.3730097059
 10
-10.601401491
 20
17.3741742817
 10
-10.5887072687
 20
17.3756719218
 10
-10.5761865151
 20
17.3774985513
 10
-10.5638733088
 20
17.3796492003
 10
-10.5518011679
 20
17.3821180166
 10
-10.540002963
 20
17.3848982792
 10
-10.5285108001
 20
17.3879824238
 10
-10.5173559688
 20
17.3913620544
 10
-10.5065688642
 20
17.3950279614
 10
-10.4961788553
 20
17.3989701604
 10
-10.4862142084
 20
17.4031779233
 10
-10.4767020426
 20
17.4076397954
  0
LWPOLYLINE
  5
421
100
AcDbEntity
  8
RACCORDO
100
AcDbPolyline
 62
250
  6
CONTINUOUS
 90
31
 70
0
 10
-26.7391265789
 20
25.0231298734
 10
-26.7296676086
 20
25.018640911
 10
-26.7197533322
 20
25.0144046865
 10
-26.7094107285
 20
25.0104327277
 10
-26.698667958
 20
25.0067358483
 10
-26.6875542388
 20
25.0033241022
 10
-26.6760997615
 20
25.0002067602
 10
-26.6643356561
 20
24.9973923014
 10
-26.6522939657
 20
24.9948883985
 10
-26.6400075114
 20
24.9927018787
 10
-26.6275097471
 20
24.9908386949
 10
-26.6148346643
 20
24.9893039136
 10
-26.6020167559
 20
24.9881017116
 10
-26.5890908925
 20
24.9872353598
 10
-26.5760922593
 20
24.9867072169
 10
-26.563056261
 20
24.9865187201
 10
-26.5500183932
 20
24.9866703794
 10
-26.5370141139
 20
24.987161779
 10
-26.5240787795
 20
24.9879915817
 10
-26.5112474739
 20
24.9891575414
 10
-26.4985552326
 20
24.9906564793
 10
-26.4860369036
 20
24.9924842668
 10
-26.4737267392
 20
24.9946358676
 10
-26.4616580084
 20
24.9971054309
 10
-26.4498632376
 20
24.9998862874
 10
-26.438373375
 20
25.0029711975
 10
-26.4272208933
 20
25.0063515011
 10
-26.4164390834
 20
25.0100169423
 10
-26.4060578943
 20
25.0139569403
 10
-26.3961041822
 20
25.0181608878
 10
-26.3866046193
 20
25.0226171496
  0
LWPOLYLINE
  5
422
100
AcDbEntity
  8
RACCORDO
100
AcDbPolyline
 62
250
  6
CONTINUOUS
 90
31
 70
0
 10
-13.3748084145
 20
18.6809447254
 10
-13.3653482651
 20
18.6764552319
 10
-13.3554326786
 20
18.6722185298
 10
-13.3450886407
 20
18.6682461527
 10
-13.3343442925
 20
18.6645489111
 10
-13.323228887
 20
18.6611368749
 10
-13.3117727134
 20
18.6580193427
 10
-13.3000069641
 20
18.6552048015
 10
-13.2879636568
 20
18.6527009091
 10
-13.2756755842
 20
18.6505144821
 10
-13.2631761966
 20
18.6486514702
 10
-13.2504995148
 20
18.6471169423
 10
-13.2376800489
 20
18.645915074
 10
-13.2247526774
 20
18.6450491336
 10
-13.2117526023
 20
18.6445214776
 10
-13.1987152589
 20
18.6443335402
 10
-13.1856761876
 20
18.6444858255
 10
-13.1726708226
 20
18.6449779114
 10
-13.1597344483
 20
18.6458084611
 10
-13.1469021092
 20
18.6469752341
 10
-13.134208902
 20
18.6484750489
 10
-13.1216897528
 20
18.6503037655
 10
-13.1093789561
 20
18.652456335
 10
-13.0973097513
 20
18.6549269049
 10
-13.0855146336
 20
18.6577088088
 10
-13.0740232111
 20
18.660795188
 10
-13.0628693945
 20
18.6641770627
 10
-13.0520902389
 20
18.6678428218
 10
-13.041716473
 20
18.6717811076
 10
-13.031773169
 20
18.6759814602
 10
-13.0222864549
 20
18.6804320015
  0
LWPOLYLINE
  5
423
100
AcDbEntity
  8
RACCORDO
100
AcDbPolyline
 62
250
  6
CONTINUOUS
 90
31
 70
0
 10
-26.7391265789
 20
25.3631038076
 10
-26.7296911678
 20
25.3586254569
 10
-26.7197963754
 20
25.3543960659
 10
-26.7094682173
 20
25.350427577
 10
-26.6987317288
 20
25.3467305302
 10
-26.6876174695
 20
25.3433163354
 10
-26.6761621806
 20
25.3401966465
 10
-26.6643995933
 20
25.3373805248
 10
-26.6523593056
 20
25.3348749353
 10
-26.6400737575
 20
25.3326866425
 10
-26.6275761357
 20
25.3308215954
 10
-26.6149006618
 20
25.3292849381
 10
-26.6020821907
 20
25.328080908
 10
-26.5891557732
 20
25.3272127882
 10
-26.5761564342
 20
25.3266829216
 10
-26.563119442
 20
25.3264927474
 10
-26.5500802259
 20
25.3266427905
 10
-26.5370743296
 20
25.3271326498
 10
-26.5241372011
 20
25.3279609943
 10
-26.5113040677
 20
25.32912557
 10
-26.4986098454
 20
25.3306232102
 10
-26.4860890918
 20
25.3324498396
 10
-26.4737758855
 20
25.3346004887
 10
-26.4617037446
 20
25.3370693049
 10
-26.4499055397
 20
25.3398495676
 10
-26.4384133768
 20
25.3429337121
 10
-26.4272585455
 20
25.3463133428
 10
-26.4164714409
 20
25.3499792497
 10
-26.406081432
 20
25.3539214488
 10
-26.3961167851
 20
25.3581292116
 10
-26.3866046193
 20
25.3625910837
  0
LINE
  5
424
100
AcDbEntity
  8
RACCORDO
100
AcDbLine
 62
7
  6
CONTINUOUS
 10
-27.3611183045
 20
24.7223197902
 11
-26.0279059708
 21
24.0557136233
  0
LINE
  5
425
100
AcDbEntity
  8
RACCORDO
100
AcDbLine
 62
7
  6
CONTINUOUS
 10
-13.9968001401
 20
18.040160708
 11
-12.6635878064
 21
17.3735545411
  0
LINE
  5
426
100
AcDbEntity
  8
RACCORDO
100
AcDbLine
 62
7
  6
CONTINUOUS
 10
-11.4512157278
 20
16.7673685018
 11
-10.1180033942
 21
16.100762335
  0
LINE
  5
427
100
AcDbEntity
  8
RACCORDO
100
AcDbLine
 62
7
  6
CONTINUOUS
 10
1.9131024366
 20
10.0852094196
 11
3.2463147703
 21
9.4186032528
  0
LINE
  5
428
100
AcDbEntity
  8
RACCORDO
100
AcDbLine
 62
7
  6
CONTINUOUS
 10
-0.9932435383
 20
11.9146290318
 11
-6.504550638
 21
14.6702825816
  0
LINE
  5
429
100
AcDbEntity
  8
RACCORDO
100
AcDbLine
 62
7
  6
CONTINUOUS
 10
-16.903146115
 20
19.8695803201
 11
-22.4144532147
 21
22.62523387
  0
LINE
  5
42A
100
AcDbEntity
  8
RACCORDO
100
AcDbLine
 62
7
  6
CONTINUOUS
 10
-27.9991379623
 20
25.5504037633
 11
-26.6741532825
 21
24.8879114233
  0
LINE
  5
42B
100
AcDbEntity
  8
RACCORDO
100
AcDbLine
 62
7
  6
CONTINUOUS
 10
-14.6348197979
 20
18.868244681
 11
-13.3098351181
 21
18.2057523411
  0
LINE
  5
42C
100
AcDbEntity
  8
RACCORDO
100
AcDbLine
 62
7
  6
CONTINUOUS
 10
-12.0892353856
 20
17.5954524749
 11
-10.7642507058
 21
16.932960135
  0
LINE
  5
42D
100
AcDbEntity
  8
RACCORDO
100
AcDbLine
 62
7
  6
CONTINUOUS
 10
1.2750827788
 20
10.9132933927
 11
2.6000674586
 21
10.2508010528
  0
LINE
  5
42E
100
AcDbEntity
  8
RACCORDO
100
AcDbLine
 62
250
  6
CONTINUOUS
 10
-28.0641112588
 20
25.6856222134
 11
-26.7391265789
 21
25.0231298734
  0
LINE
  5
42F
100
AcDbEntity
  8
RACCORDO
100
AcDbLine
 62
250
  6
CONTINUOUS
 10
-14.6997930943
 20
19.0034631311
 11
-13.3748084145
 21
18.3409707912
  0
LINE
  5
430
100
AcDbEntity
  8
RACCORDO
100
AcDbLine
 62
250
  6
CONTINUOUS
 10
-12.1542086821
 20
17.730670925
 11
-10.8292240022
 21
17.0681785851
  0
LINE
  5
431
100
AcDbEntity
  8
RACCORDO
100
AcDbLine
 62
250
  6
CONTINUOUS
 10
1.2101094824
 20
11.0485118428
 11
2.5350941622
 21
10.3860195029
  0
LINE
  5
432
100
AcDbEntity
  8
RACCORDO
100
AcDbLine
 62
250
  6
CONTINUOUS
 10
2.5350941622
 20
10.725993437
 11
1.2101094824
 21
11.3884857769
  0
LINE
  5
433
100
AcDbEntity
  8
RACCORDO
100
AcDbLine
 62
250
  6
CONTINUOUS
 10
-10.8292240022
 20
17.4081525192
 11
-12.1542086821
 21
18.0706448591
  0
LINE
  5
434
100
AcDbEntity
  8
RACCORDO
100
AcDbLine
 62
250
  6
CONTINUOUS
 10
-13.3748084145
 20
18.6809447254
 11
-14.6997930943
 21
19.3434370653
  0
LINE
  5
435
100
AcDbEntity
  8
RACCORDO
100
AcDbLine
 62
250
  6
CONTINUOUS
 10
-26.7391265789
 20
25.3631038076
 11
-28.0641112588
 21
26.0255961475
  0
LINE
  5
436
100
AcDbEntity
  8
DRAFT
100
AcDbLine
 62
7
  6
CONTINUOUS
 10
1.2236359465
 20
11.6660996813
 11
0.1698305891
 21
12.19300236
  0
LINE
  5
437
100
AcDbEntity
  8
DRAFT
100
AcDbLine
 62
7
  6
CONTINUOUS
 10
-6.6509972474
 20
15.6034162783
 11
-8.7738957092
 21
16.6648655092
  0
LINE
  5
438
100
AcDbEntity
  8
DRAFT
100
AcDbLine
 62
7
  6
CONTINUOUS
 10
-14.6862666302
 20
19.6210509697
 11
-15.7400719875
 21
20.1479536484
  0
LINE
  5
439
100
AcDbEntity
  8
DRAFT
100
AcDbLine
 62
7
  6
CONTINUOUS
 10
-22.5608998241
 20
23.5583675667
 11
-24.6837982858
 21
24.6198167975
  0
LINE
  5
43A
100
AcDbEntity
  8
RACCORDO
100
AcDbLine
 62
250
  6
CONTINUOUS
 10
2.7108424182
 20
11.030370252
 11
1.3858577383
 21
11.6928625919
  0
LINE
  5
43B
100
AcDbEntity
  8
RACCORDO
100
AcDbLine
 62
250
  6
CONTINUOUS
 10
-10.6534757463
 20
17.7125293342
 11
-11.9784604261
 21
18.3750216741
  0
LINE
  5
43C
100
AcDbEntity
  8
RACCORDO
100
AcDbLine
 62
250
  6
CONTINUOUS
 10
-13.1990601585
 20
18.9853215403
 11
-14.5240448384
 21
19.6478138802
  0
LINE
  5
43D
100
AcDbEntity
  8
RACCORDO
100
AcDbLine
 62
250
  6
CONTINUOUS
 10
-26.563378323
 20
25.6674806225
 11
-27.8883630028
 21
26.3299729625
  0
LINE
  5
43E
100
AcDbEntity
  8
RACCORDO
100
AcDbLine
 62
250
  6
CONTINUOUS
 10
-0.9932435383
 20
12.9952123426
 11
-6.504550638
 21
15.7508658924
  0
LINE
  5
43F
100
AcDbEntity
  8
RACCORDO
100
AcDbLine
 62
250
  6
CONTINUOUS
 10
-16.903146115
 20
20.9501636309
 11
-22.4144532147
 21
23.7058171808
  0
LINE
  5
440
100
AcDbEntity
  8
RACCORDO
100
AcDbLine
 62
250
  6
CONTINUOUS
 10
-0.5704211585
 20
13.097601907
 11
-6.6461758083
 21
16.1354792319
  0
LINE
  5
441
100
AcDbEntity
  8
RACCORDO
100
AcDbLine
 62
250
  6
CONTINUOUS
 10
-16.4803237352
 20
21.0525531954
 11
-22.556078385
 21
24.0904305203
  0
LINE
  5
442
100
AcDbEntity
  8
RACCORDO
100
AcDbLine
 62
7
  6
CONTINUOUS
 10
-24.7853238285
 20
25.2702692074
 11
-23.3711102661
 21
24.5631624263
  0
LINE
  5
443
100
AcDbEntity
  8
DRAFT
100
AcDbLine
 62
7
  6
CONTINUOUS
 10
-8.8754212518
 20
17.3153179191
 11
-7.4612076894
 21
16.6082111379
  0
LINE
  5
444
100
AcDbEntity
  8
RACCORDO
100
AcDbLine
 62
7
  6
CONTINUOUS
 10
4.4888969127
 20
10.6331588369
 11
5.1958959837
 21
10.2796593014
  0
LINE
  5
445
100
AcDbEntity
  8
DRAFT
100
AcDbLine
 62
7
  6
CONTINUOUS
 10
-22.0629627209
 20
24.4144174378
 11
-15.8404230465
 21
21.3031476005
  0
LINE
  5
446
100
AcDbEntity
  8
DRAFT
100
AcDbLine
 62
7
  6
CONTINUOUS
 10
-6.1530601442
 20
16.4594661494
 11
0.0694795302
 21
13.3481963122
  0
LINE
  5
447
100
AcDbEntity
  8
RACCORDO
100
AcDbLine
 62
7
  6
CONTINUOUS
 10
-26.3056063996
 20
27.1419570598
 11
-24.9620975321
 21
26.470202626
  0
LINE
  5
448
100
AcDbEntity
  8
RACCORDO
100
AcDbLine
 62
7
  6
CONTINUOUS
 10
-12.9412882352
 20
20.4597979776
 11
-11.5977793677
 21
19.7880435438
  0
LINE
  5
449
100
AcDbEntity
  8
RACCORDO
100
AcDbLine
 62
7
  6
CONTINUOUS
 10
-10.3957038229
 20
19.1870057714
 11
-9.0521949554
 21
18.5152513377
  0
LINE
  5
44A
100
AcDbEntity
  8
RACCORDO
100
AcDbLine
 62
7
  6
CONTINUOUS
 10
2.9686143415
 20
12.5048466892
 11
4.312123209
 21
11.8330922555
  0
LINE
  5
44B
100
AcDbEntity
  8
C_CORPO
100
AcDbLine
 62
7
  6
CONTINUOUS
 10
6.2474906316
 20
10.880416615
 11
6.9407044452
 21
10.5338097082
  0
LINE
  5
44C
100
AcDbEntity
  8
DRAFT
100
AcDbLine
 62
7
  6
CONTINUOUS
 10
0.1401902084
 20
14.0149093659
 11
-4.8095572599
 21
16.4897831001
  0
LINE
  5
44D
100
AcDbEntity
  8
DRAFT
100
AcDbLine
 62
7
  6
CONTINUOUS
 10
-15.7697123683
 20
21.9698606543
 11
-20.7194598366
 21
24.4447343884
  0
LWPOLYLINE
  5
44E
100
AcDbEntity
  8
RACCORDO
100
AcDbPolyline
 62
250
  6
CONTINUOUS
 90
16
 70
0
 10
-28.0641112588
 20
25.6856222134
 10
-28.0730891836
 20
25.6903516985
 10
-28.0815616326
 20
25.6953088367
 10
-28.0895055503
 20
25.7004801386
 10
-28.0968993091
 20
25.7058515238
 10
-28.1037228012
 20
25.7114083834
 10
-28.1099574852
 20
25.7171356221
 10
-28.1155864029
 20
25.7230176748
 10
-28.1205942087
 20
25.72903852
 10
-28.1249672482
 20
25.7351817471
 10
-28.1286936159
 20
25.7414306293
 10
-28.1317631784
 20
25.7477681707
 10
-28.1341675824
 20
25.7541771249
 10
-28.1359002861
 20
25.7606400566
 10
-28.1369565719
 20
25.7671393732
 10
-28.1373345635
 20
25.774009776
  0
LWPOLYLINE
  5
44F
100
AcDbEntity
  8
RACCORDO
100
AcDbPolyline
 62
250
  6
CONTINUOUS
 90
16
 70
0
 10
-28.0641112588
 20
26.0255961475
 10
-28.0730902456
 20
26.0303262222
 10
-28.0815636498
 20
26.0352840155
 10
-28.0895084041
 20
26.0404560344
 10
-28.0969028873
 20
26.0458282085
 10
-28.1037269598
 20
26.0513859113
 10
-28.1099620241
 20
26.057113998
 10
-28.1155911065
 20
26.0629968727
 10
-28.1205988912
 20
26.0690185263
 10
-28.1249717454
 20
26.0751625626
 10
-28.1286977692
 20
26.0814122564
 10
-28.1317668249
 20
26.0877505973
 10
-28.1341705616
 20
26.0941603303
 10
-28.1359024423
 20
26.100624016
 10
-28.1369577542
 20
26.1071240536
 10
-28.1373345635
 20
26.1139844951
  0
LWPOLYLINE
  5
450
100
AcDbEntity
  8
RACCORDO
100
AcDbPolyline
 62
250
  6
CONTINUOUS
 90
16
 70
0
 10
-14.6997930943
 20
19.0034631311
 10
-14.7087710192
 20
19.0081926163
 10
-14.7172434681
 20
19.0131497545
 10
-14.7251873859
 20
19.0183210564
 10
-14.7325811446
 20
19.0236924416
 10
-14.7394046368
 20
19.0292493012
 10
-14.7456393208
 20
19.0349765399
 10
-14.7512682385
 20
19.0408585926
 10
-14.7562760443
 20
19.0468794378
 10
-14.7606490838
 20
19.0530226649
 10
-14.7643754515
 20
19.0592715471
 10
-14.767445014
 20
19.0656090885
 10
-14.769849418
 20
19.0720180427
 10
-14.7715821216
 20
19.0784809744
 10
-14.7726384075
 20
19.0849802909
 10
-14.773016399
 20
19.0918506938
  0
LWPOLYLINE
  5
451
100
AcDbEntity
  8
RACCORDO
100
AcDbPolyline
 62
250
  6
CONTINUOUS
 90
16
 70
0
 10
-12.1542086821
 20
17.730670925
 10
-12.1631866069
 20
17.7354004102
 10
-12.1716590559
 20
17.7403575484
 10
-12.1796029736
 20
17.7455288502
 10
-12.1869967324
 20
17.7509002355
 10
-12.1938202245
 20
17.7564570951
 10
-12.2000549085
 20
17.7621843337
 10
-12.2056838262
 20
17.7680663864
 10
-12.210691632
 20
17.7740872316
 10
-12.2150646715
 20
17.7802304588
 10
-12.2187910392
 20
17.786479341
 10
-12.2218606017
 20
17.7928168823
 10
-12.2242650057
 20
17.7992258366
 10
-12.2259977094
 20
17.8056887682
 10
-12.2270539952
 20
17.8121880848
 10
-12.2274319868
 20
17.8190584876
  0
LWPOLYLINE
  5
452
100
AcDbEntity
  8
RACCORDO
100
AcDbPolyline
 62
250
  6
CONTINUOUS
 90
16
 70
0
 10
-14.6997930943
 20
19.3434370653
 10
-14.7087701616
 20
19.3481660744
 10
-14.7172418542
 20
19.3531226929
 10
-14.7251851235
 20
19.3582934354
 10
-14.7325783586
 20
19.3636642342
 10
-14.7394014448
 20
19.3692204771
 10
-14.7456358188
 20
19.3749470473
 10
-14.751264519
 20
19.3808283647
 10
-14.7562722315
 20
19.3868484282
 10
-14.7606453319
 20
19.3929908592
 10
-14.7643719226
 20
19.3992389462
 10
-14.7674418647
 20
19.4055756903
 10
-14.7698468058
 20
19.4119838511
 10
-14.771580203
 20
19.4184459943
 10
-14.7726373402
 20
19.4249445384
 10
-14.773016399
 20
19.4318254129
  0
LWPOLYLINE
  5
453
100
AcDbEntity
  8
RACCORDO
100
AcDbPolyline
 62
250
  6
CONTINUOUS
 90
16
 70
0
 10
-12.1542086821
 20
18.0706448591
 10
-12.1631876689
 20
18.0753749338
 10
-12.1716610731
 20
18.0803327271
 10
-12.1796058274
 20
18.085504746
 10
-12.1870003106
 20
18.0908769201
 10
-12.1938243831
 20
18.0964346229
 10
-12.2000594474
 20
18.1021627097
 10
-12.2056885298
 20
18.1080455843
 10
-12.2106963145
 20
18.114067238
 10
-12.2150691687
 20
18.1202112743
 10
-12.2187951925
 20
18.1264609681
 10
-12.2218642482
 20
18.132799309
 10
-12.2242679849
 20
18.1392090419
 10
-12.2259998656
 20
18.1456727277
 10
-12.2270551775
 20
18.1521727653
 10
-12.2274319868
 20
18.1590332068
  0
LWPOLYLINE
  5
454
100
AcDbEntity
  8
RACCORDO
100
AcDbPolyline
 62
250
  6
CONTINUOUS
 90
16
 70
0
 10
1.2101094824
 20
11.0485118428
 10
1.2011315575
 20
11.053241328
 10
1.1926591085
 20
11.0581984662
 10
1.1847151908
 20
11.063369768
 10
1.1773214321
 20
11.0687411533
 10
1.1704979399
 20
11.0742980129
 10
1.1642632559
 20
11.0800252515
 10
1.1586343382
 20
11.0859073042
 10
1.1536265324
 20
11.0919281494
 10
1.1492534929
 20
11.0980713765
 10
1.1455271252
 20
11.1043202587
 10
1.1424575627
 20
11.1106578001
 10
1.1400531587
 20
11.1170667543
 10
1.1383204551
 20
11.123529686
 10
1.1372641692
 20
11.1300290026
 10
1.1368861777
 20
11.1368994054
  0
LWPOLYLINE
  5
455
100
AcDbEntity
  8
RACCORDO
100
AcDbPolyline
 62
250
  6
CONTINUOUS
 90
16
 70
0
 10
1.2101094824
 20
11.3884857769
 10
1.2011324151
 20
11.393214786
 10
1.1926607225
 20
11.3981714045
 10
1.1847174532
 20
11.4033421471
 10
1.1773242181
 20
11.4087129459
 10
1.1705011319
 20
11.4142691887
 10
1.1642667578
 20
11.4199957589
 10
1.1586380577
 20
11.4258770763
 10
1.1536303452
 20
11.4318971398
 10
1.1492572447
 20
11.4380395709
 10
1.1455306541
 20
11.4442876579
 10
1.142460712
 20
11.4506244019
 10
1.1400557709
 20
11.4570325628
 10
1.1383223737
 20
11.4634947059
 10
1.1372652365
 20
11.4699932501
 10
1.1368861777
 20
11.4768741246
  0
LWPOLYLINE
  5
456
100
AcDbEntity
  8
RACCORDO
100
AcDbPolyline
 62
7
  6
CONTINUOUS
 90
37
 70
0
 10
4.5902317315
 20
9.9823938986
 10
4.6052097031
 20
9.9736613854
 10
4.6201813451
 20
9.9641392197
 10
4.6351184105
 20
9.9538409512
 10
4.650008627
 20
9.9427695745
 10
4.6648070369
 20
9.9309525306
 10
4.6794376949
 20
9.9184494578
 10
4.6938635536
 20
9.9052972044
 10
4.7080693788
 20
9.8915142219
 10
4.7220149923
 20
9.8771430651
 10
4.7356563941
 20
9.8622378481
 10
4.7489917262
 20
9.846809555
 10
4.7620427951
 20
9.8308331962
 10
4.7747926418
 20
9.814326212
 10
4.7872087605
 20
9.797327617
 10
4.7992853158
 20
9.7798384072
 10
4.8110158966
 20
9.7618584443
 10
4.8223553429
 20
9.7434466468
 10
4.8332428709
 20
9.7246959588
 10
4.8436575796
 20
9.7056465561
 10
4.8535832204
 20
9.6863314686
 10
4.8629758877
 20
9.6668394123
 10
4.8718203995
 20
9.6472175068
 10
4.8801100104
 20
9.6274965081
 10
4.8878218676
 20
9.6077428703
 10
4.8949446569
 20
9.588011636
 10
4.9014810848
 20
9.5683231583
 10
4.9074319148
 20
9.5486910876
 10
4.9127929943
 20
9.5291534277
 10
4.9175630433
 20
9.5097419683
 10
4.921744464
 20
9.4904599957
 10
4.9253358375
 20
9.4713341187
 10
4.9283341726
 20
9.4524038031
 10
4.9307376877
 20
9.4336911657
 10
4.9325456767
 20
9.4152244917
 10
4.9337594185
 20
9.3970379267
 10
4.9343808469
 20
9.3791615354
  0
LWPOLYLINE
  5
457
100
AcDbEntity
  8
C_CORPO
100
AcDbPolyline
 62
250
  6
CONTINUOUS
 90
17
 70
0
 10
16.4722346431
 20
-5.9323052554
 10
16.4937679138
 20
-5.9639719453
 10
16.5151755847
 20
-5.9966931438
 10
16.5358315985
 20
-6.0295441788
 10
16.5557049211
 20
-6.062453809
 10
16.5747929253
 20
-6.0954217719
 10
16.5930982383
 20
-6.12844833
 10
16.6105977079
 20
-6.16146303
 10
16.6272886831
 20
-6.194465451
 10
16.643173815
 20
-6.2274560138
 10
16.6582379049
 20
-6.2603655281
 10
16.6724784947
 20
-6.2931941608
 10
16.6858980426
 20
-6.325941745
 10
16.6984887242
 20
-6.3585385897
 10
16.7102479314
 20
-6.3909614648
 10
16.7211782724
 20
-6.4232336004
 10
16.7312797471
 20
-6.4553549966
  0
LWPOLYLINE
  5
458
100
AcDbEntity
  8
RACCORDO
100
AcDbPolyline
 62
250
  6
CONTINUOUS
 90
15
 70
0
 10
5.0171640844
 20
11.44411002
 10
5.0215072372
 20
11.4367649185
 10
5.0253550514
 20
11.4296773578
 10
5.0286966202
 20
11.4228668847
 10
5.0315226403
 20
11.416351731
 10
5.0338246345
 20
11.410150577
 10
5.0355954629
 20
11.4042822021
 10
5.0368301917
 20
11.3987631718
 10
5.0375256537
 20
11.3936079514
 10
5.0376799469
 20
11.3888305036
 10
5.0372925981
 20
11.3844438345
 10
5.0363646172
 20
11.3804600387
 10
5.034898542
 20
11.3768901128
 10
5.0328983977
 20
11.3737438347
 10
5.0325246568
 20
11.3732748534
  0
LWPOLYLINE
  5
459
100
AcDbEntity
  8
C_CORPO
100
AcDbPolyline
 62
250
  6
CONTINUOUS
 90
38
 70
0
 10
12.6332884379
 20
9.6541956081
 10
12.6325076609
 20
9.6778431181
 10
12.6312140067
 20
9.7017555113
 10
12.629405558
 20
9.7259162872
 10
12.6270797508
 20
9.7503153325
 10
12.6242361856
 20
9.7749288946
 10
12.6208781013
 20
9.799719145
 10
12.6170065714
 20
9.8246680162
 10
12.6126228735
 20
9.8497572873
 10
12.607733763
 20
9.8749479577
 10
12.602343407
 20
9.9002183846
 10
12.5964550334
 20
9.9255526665
 10
12.5900765906
 20
9.9509200018
 10
12.5832152169
 20
9.9762951219
 10
12.5758749826
 20
10.0016656054
 10
12.5680600944
 20
10.027019909
 10
12.5597768834
 20
10.0523382174
 10
12.551031304
 20
10.0776029594
 10
12.5418265329
 20
10.1028059521
 10
12.5321675557
 20
10.127932231
 10
12.522062429
 20
10.1529594861
 10
12.5115189249
 20
10.1778685227
 10
12.5005439304
 20
10.2026423358
 10
12.4891458309
 20
10.2272611035
 10
12.4773354579
 20
10.2517016644
 10
12.4651224934
 20
10.2759442748
 10
12.4525150929
 20
10.2999728636
 10
12.4395225068
 20
10.3237701123
 10
12.4261549081
 20
10.3473176202
 10
12.4124216681
 20
10.3705990005
 10
12.3983310979
 20
10.3936001261
 10
12.383892676
 20
10.4163053342
 10
12.3691177696
 20
10.4386964581
 10
12.3540178305
 20
10.4607558792
 10
12.3386031808
 20
10.482468543
 10
12.3228859948
 20
10.5038171908
 10
12.3068811151
 20
10.5247815737
 10
12.2920085127
 20
10.5435681439
  0
LWPOLYLINE
  5
45A
100
AcDbEntity
  8
RACCORDO
100
AcDbPolyline
 62
250
  6
CONTINUOUS
 90
31
 70
0
 10
5.0171640844
 20
-29.8554941194
 10
5.0215072372
 20
-29.8432705038
 10
5.0253550514
 20
-29.8308372901
 10
5.0286966202
 20
-29.8182282199
 10
5.0315226403
 20
-29.8054763821
 10
5.0338246345
 20
-29.7926176423
 10
5.0355954629
 20
-29.7796906279
 10
5.0368301917
 20
-29.7667319505
 10
5.0375256537
 20
-29.7537757035
 10
5.0376799469
 20
-29.7408569439
 10
5.0372925981
 20
-29.7280107426
 10
5.0363646172
 20
-29.7152724103
 10
5.034898542
 20
-29.7026770649
 10
5.0328983977
 20
-29.690259223
 10
5.0303696366
 20
-29.6780526851
 10
5.0273191571
 20
-29.666090762
 10
5.0237552811
 20
-29.6544061086
 10
5.0196877437
 20
-29.6430306627
 10
5.0151276634
 20
-29.631995525
 10
5.0100874999
 20
-29.6213308457
 10
5.0045810164
 20
-29.6110657449
 10
4.9986232533
 20
-29.6012282607
 10
4.9922304734
 20
-29.5918452491
 10
4.985420147
 20
-29.5829423545
 10
4.9782109096
 20
-29.5745439315
 10
4.9706224814
 20
-29.5666729355
 10
4.9626755727
 20
-29.5593508312
 10
4.9543918552
 20
-29.5525975803
 10
4.9457939412
 20
-29.5464316192
 10
4.9369053265
 20
-29.5408697998
 10
4.927750289
 20
-29.5359273134
  0
LINE
  5
45B
100
AcDbEntity
  8
C_CORPO
100
AcDbLine
 62
250
  6
CONTINUOUS
 10
23.1330988581
 20
-3.2211348943
 11
16.7312797471
 21
-6.4553549966
  0
LINE
  5
45C
100
AcDbEntity
  8
C_CORPO
100
AcDbLine
 62
250
  6
CONTINUOUS
 10
23.4865984008
 20
-4.147770437
 11
16.1915744435
 21
-7.8332405699
  0
LWPOLYLINE
  5
45D
100
AcDbEntity
  8
C_CORPO
100
AcDbPolyline
 62
7
  6
CONTINUOUS
 90
16
 70
0
 10
11.3434462092
 20
15.5770126111
 10
11.3340347402
 20
15.575027555
 10
11.3247660938
 20
15.573475928
 10
11.3156402699
 20
15.5723577302
 10
11.3066461948
 20
15.5716741451
 10
11.2977949422
 20
15.5714239892
 10
11.2891197338
 20
15.5716037113
 10
11.2806243815
 20
15.5722203434
 10
11.2723050734
 20
15.5732668535
 10
11.2641835952
 20
15.574718594
 10
11.2562658059
 20
15.5765815808
 10
11.2485458465
 20
15.5788497981
 10
11.2410279256
 20
15.5814805506
 10
11.2337134461
 20
15.5844596065
 10
11.226601005
 20
15.5878011977
 10
11.2196906025
 20
15.591505324
  0
LWPOLYLINE
  5
45E
100
AcDbEntity
  8
RACCORDO
100
AcDbPolyline
 62
7
  6
CONTINUOUS
 90
18
 70
0
 10
-0.5704211585
 20
13.097601907
 10
-0.5877158265
 20
13.0961095714
 10
-0.6049102247
 20
13.0941159935
 10
-0.6219685625
 20
13.0917088106
 10
-0.6388593959
 20
13.088997857
 10
-0.6555636587
 20
13.0860408445
 10
-0.6720704786
 20
13.0828299964
 10
-0.6883638855
 20
13.0794197685
 10
-0.7044336785
 20
13.0758752388
 10
-0.7202768323
 20
13.0721812828
 10
-0.735885644
 20
13.0683780005
 10
-0.7512547266
 20
13.0645144123
 10
-0.7663814546
 20
13.0605741386
 10
-0.7812624723
 20
13.0565880913
 10
-0.7958949982
 20
13.0525940053
 10
-0.8102736231
 20
13.0485768759
 10
-0.8243971761
 20
13.0445617153
 10
-0.8518669218
 20
13.0366141031
  0
LINE
  5
45F
100
AcDbEntity
  8
RACCORDO
100
AcDbLine
 62
7
  6
CONTINUOUS
 10
-10.7035455361
 20
16.9118447005
 11
-10.0793499391
 21
16.7815120806
  0
LINE
  5
460
100
AcDbEntity
  8
RACCORDO
100
AcDbLine
 62
250
  6
CONTINUOUS
 10
-10.4767020426
 20
17.0676658612
 11
-9.7654814345
 21
16.9191623384
  0
LINE
  5
461
100
AcDbEntity
  8
RACCORDO
100
AcDbLine
 62
7
  6
CONTINUOUS
 10
-13.2491299484
 20
18.1846369066
 11
-12.6249343513
 21
18.0543042868
  0
LINE
  5
462
100
AcDbEntity
  8
RACCORDO
100
AcDbLine
 62
250
  6
CONTINUOUS
 10
-13.0222864549
 20
18.3404580674
 11
-12.3110658468
 21
18.1919545445
  0
LWPOLYLINE
  5
463
100
AcDbEntity
  8
RACCORDO
100
AcDbPolyline
 62
250
  6
CONTINUOUS
 90
14
 70
0
 10
4.9511653403
 20
12.1031209666
 10
4.9437379179
 20
12.1064404852
 10
4.9361549753
 20
12.1090781854
 10
4.928308557
 20
12.1110910559
 10
4.9202202657
 20
12.1124735808
 10
4.9119122979
 20
12.1132220411
 10
4.9034071255
 20
12.1133344854
 10
4.8947276628
 20
12.1128106365
 10
4.8858955723
 20
12.1116515945
 10
4.8769367893
 20
12.1098605591
 10
4.8678814524
 20
12.1074441288
 10
4.8587562836
 20
12.1044107574
 10
4.8495842791
 20
12.1007694001
 10
4.8403903807
 20
12.0965310755
  0
LWPOLYLINE
  5
464
100
AcDbEntity
  8
RACCORDO
100
AcDbPolyline
 62
250
  6
CONTINUOUS
 90
14
 70
0
 10
3.6138391797
 20
12.7717840469
 10
3.6064117573
 20
12.7751035655
 10
3.5988288147
 20
12.7777412656
 10
3.5909823964
 20
12.7797541362
 10
3.5828941051
 20
12.7811366611
 10
3.5745861374
 20
12.7818851214
 10
3.566080965
 20
12.7819975656
 10
3.5574015022
 20
12.7814737167
 10
3.5485694117
 20
12.7803146748
 10
3.5396106288
 20
12.7785236394
 10
3.5305552919
 20
12.776107209
 10
3.5214301231
 20
12.7730738376
 10
3.5122581185
 20
12.7694324804
 10
3.5030642202
 20
12.7651941558
  0
LWPOLYLINE
  5
465
100
AcDbEntity
  8
RACCORDO
100
AcDbPolyline
 62
250
  6
CONTINUOUS
 90
14
 70
0
 10
-10.9587372364
 20
20.058072255
 10
-10.9661646588
 20
20.0613917735
 10
-10.9737476014
 20
20.0640294737
 10
-10.9815940197
 20
20.0660423443
 10
-10.989682311
 20
20.0674248692
 10
-10.9979902788
 20
20.0681733295
 10
-11.0064954512
 20
20.0682857737
 10
-11.0151749139
 20
20.0677619248
 10
-11.0240070044
 20
20.0666028828
 10
-11.0329657874
 20
20.0648118474
 10
-11.0420211243
 20
20.0623954171
 10
-11.0511462931
 20
20.0593620457
 10
-11.0603182976
 20
20.0557206885
 10
-11.069512196
 20
20.0514823639
  0
LWPOLYLINE
  5
466
100
AcDbEntity
  8
RACCORDO
100
AcDbPolyline
 62
250
  6
CONTINUOUS
 90
14
 70
0
 10
-12.296063397
 20
20.7267353353
 10
-12.3034908194
 20
20.7300548538
 10
-12.311073762
 20
20.732692554
 10
-12.3189201803
 20
20.7347054245
 10
-12.3270084716
 20
20.7360879495
 10
-12.3353164393
 20
20.7368364097
 10
-12.3438216117
 20
20.736948854
 10
-12.3525010745
 20
20.7364250051
 10
-12.361333165
 20
20.7352659631
 10
-12.3702919479
 20
20.7334749277
 10
-12.3793472848
 20
20.7310584974
 10
-12.3884724536
 20
20.728025126
 10
-12.3976444582
 20
20.7243837688
 10
-12.4068383565
 20
20.7201454441
  0
LWPOLYLINE
  5
467
100
AcDbEntity
  8
RACCORDO
100
AcDbPolyline
 62
250
  6
CONTINUOUS
 90
14
 70
0
 10
-8.4131528242
 20
18.7852800488
 10
-8.4205509049
 20
18.7885879427
 10
-8.4281311222
 20
18.7912275962
 10
-8.4359747686
 20
18.7932427081
 10
-8.4440605041
 20
18.7946277961
 10
-8.4523663302
 20
18.7953790918
 10
-8.4608696494
 20
18.7954945511
 10
-8.4695473269
 20
18.79497386
 10
-8.4783757537
 20
18.793818435
 10
-8.4873309106
 20
18.7920314196
 10
-8.4963884336
 20
18.7896176759
 10
-8.50552368
 20
18.7865837707
 10
-8.514711796
 20
18.7829379583
 10
-8.5239277837
 20
18.7786901577
  0
LWPOLYLINE
  5
468
100
AcDbEntity
  8
RACCORDO
100
AcDbPolyline
 62
250
  6
CONTINUOUS
 90
14
 70
0
 10
-9.7504789847
 20
19.4539431291
 10
-9.7578770654
 20
19.457251023
 10
-9.7654572827
 20
19.4598906764
 10
-9.7733009292
 20
19.4619057884
 10
-9.7813866647
 20
19.4632908764
 10
-9.7896924907
 20
19.4640421721
 10
-9.7981958099
 20
19.4641576314
 10
-9.8068734875
 20
19.4636369403
 10
-9.8157019143
 20
19.4624815152
 10
-9.8246570712
 20
19.4606944999
 10
-9.8337145941
 20
19.4582807562
 10
-9.8428498406
 20
19.4552468509
 10
-9.8520379566
 20
19.4516010385
 10
-9.8612539443
 20
19.447353238
  0
LWPOLYLINE
  5
469
100
AcDbEntity
  8
RACCORDO
100
AcDbPolyline
 62
250
  6
CONTINUOUS
 90
14
 70
0
 10
-24.3230554008
 20
26.7402313372
 10
-24.3304534816
 20
26.7435392311
 10
-24.3380336989
 20
26.7461788845
 10
-24.3458773453
 20
26.7481939965
 10
-24.3539630808
 20
26.7495790845
 10
-24.3622689069
 20
26.7503303802
 10
-24.3707722261
 20
26.7504458395
 10
-24.3794499036
 20
26.7499251483
 10
-24.3882783304
 20
26.7487697233
 10
-24.3972334873
 20
26.746982708
 10
-24.4062910103
 20
26.7445689642
 10
-24.4154262567
 20
26.741535059
 10
-24.4246143727
 20
26.7378892466
 10
-24.4338303604
 20
26.7336414461
  0
LWPOLYLINE
  5
46A
100
AcDbEntity
  8
RACCORDO
100
AcDbPolyline
 62
250
  6
CONTINUOUS
 90
14
 70
0
 10
-25.6603815614
 20
27.4088944175
 10
-25.6677796421
 20
27.4122023113
 10
-25.6753598594
 20
27.4148419648
 10
-25.6832035059
 20
27.4168570768
 10
-25.6912892414
 20
27.4182421648
 10
-25.6995950674
 20
27.4189934604
 10
-25.7080983866
 20
27.4191089198
 10
-25.7167760641
 20
27.4185882286
 10
-25.725604491
 20
27.4174328036
 10
-25.7345596479
 20
27.4156457883
 10
-25.7436171708
 20
27.4132320445
 10
-25.7527524173
 20
27.4101981393
 10
-25.7619405333
 20
27.4065523269
 10
-25.771156521
 20
27.4023045264
  0
LWPOLYLINE
  5
46B
100
AcDbEntity
  8
C_CORPO
100
AcDbPolyline
 62
250
  6
CONTINUOUS
 90
18
 70
0
 10
0.3389430094
 20
15.2588341156
 10
0.3326711739
 20
15.2616977121
 10
0.3264159689
 20
15.2642286802
 10
0.3201892972
 20
15.266422204
 10
0.3140030067
 20
15.2682741095
 10
0.307868869
 20
15.269780873
 10
0.3017985562
 20
15.2709396273
 10
0.295803619
 20
15.2717481675
 10
0.2898954646
 20
15.2722049551
 10
0.2840853353
 20
15.272309121
 10
0.2783842866
 20
15.2720604669
 10
0.2728031666
 20
15.271459466
 10
0.2673525952
 20
15.2705072619
 10
0.2620429438
 20
15.2692056664
 10
0.2568843157
 20
15.2675571563
 10
0.2518865268
 20
15.2655648683
 10
0.2470590871
 20
15.2632325934
 10
0.2464463882
 20
15.2629056605
  0
LWPOLYLINE
  5
46C
100
AcDbEntity
  8
C_CORPO
100
AcDbPolyline
 62
250
  6
CONTINUOUS
 90
21
 70
0
 10
0.282767874
 20
15.2151795499
 10
0.2765971746
 20
15.2180334255
 10
0.2705479728
 20
15.220640411
 10
0.2646317135
 20
15.2229955104
 10
0.258859414
 20
15.225094263
 10
0.2532422029
 20
15.2269325457
 10
0.2477912482
 20
15.2285066654
 10
0.2425169845
 20
15.2298136095
 10
0.2374292133
 20
15.2308509503
 10
0.2325376007
 20
15.2316167124
 10
0.2278513949
 20
15.2321094497
 10
0.223379414
 20
15.2323282366
 10
0.2191300913
 20
15.2322726604
 10
0.2151114417
 20
15.2319428251
 10
0.2113310486
 20
15.2313393522
 10
0.2077960464
 20
15.2304633804
 10
0.2045131046
 20
15.2293165625
 10
0.2014884154
 20
15.2279010616
 10
0.1987276848
 20
15.2262195481
 10
0.1962361208
 20
15.2242751941
 10
0.1942973183
 20
15.2223794115
  0
LWPOLYLINE
  5
46D
100
AcDbEntity
  8
RACCORDO
100
AcDbPolyline
 62
7
  6
CONTINUOUS
 90
14
 70
0
 10
-10.3957038229
 20
19.1870057714
 10
-10.4049552386
 20
19.1913349921
 10
-10.4141815536
 20
19.1950588145
 10
-10.423357346
 20
19.1981670982
 10
-10.4324572334
 20
19.2006514408
 10
-10.4414562644
 20
19.2025050345
 10
-10.4503299875
 20
19.2037226843
 10
-10.4590540115
 20
19.204301086
 10
-10.4676043058
 20
19.2042387117
 10
-10.4759575895
 20
19.2035356486
 10
-10.4840909289
 20
19.2021938412
 10
-10.4919819408
 20
19.2002170108
 10
-10.4996090888
 20
19.1976105256
 10
-10.5066360364
 20
19.1945359167
  0
LWPOLYLINE
  5
46E
100
AcDbEntity
  8
RACCORDO
100
AcDbPolyline
 62
7
  6
CONTINUOUS
 90
14
 70
0
 10
-12.9412882352
 20
20.4597979776
 10
-12.9505396509
 20
20.4641271982
 10
-12.9597659659
 20
20.4678510206
 10
-12.9689417583
 20
20.4709593043
 10
-12.9780416456
 20
20.473443647
 10
-12.9870406767
 20
20.4752972406
 10
-12.9959143998
 20
20.4765148905
 10
-13.0046384237
 20
20.4770932922
 10
-13.0131887181
 20
20.4770309178
 10
-13.0215420018
 20
20.4763278548
 10
-13.0296753411
 20
20.4749860473
 10
-13.0375663531
 20
20.4730092169
 10
-13.0451935011
 20
20.4704027318
 10
-13.0522204487
 20
20.4673281229
  0
LWPOLYLINE
  5
46F
100
AcDbEntity
  8
RACCORDO
100
AcDbPolyline
 62
7
  6
CONTINUOUS
 90
14
 70
0
 10
-26.3056063996
 20
27.1419570598
 10
-26.3148578153
 20
27.1462862805
 10
-26.3240841303
 20
27.1500101028
 10
-26.3332599227
 20
27.1531183865
 10
-26.3423598101
 20
27.1556027292
 10
-26.3513588411
 20
27.1574563228
 10
-26.3602325642
 20
27.1586739727
 10
-26.3689565882
 20
27.1592523744
 10
-26.3775068825
 20
27.1591900001
 10
-26.3858601662
 20
27.158486937
 10
-26.3939935056
 20
27.1571451295
 10
-26.4018845175
 20
27.1551682991
 10
-26.4095116655
 20
27.152561814
 10
-26.4165386131
 20
27.1494872051
  0
LWPOLYLINE
  5
470
100
AcDbEntity
  8
C_CORPO
100
AcDbPolyline
 62
7
  6
CONTINUOUS
 90
17
 70
0
 10
0.635143416
 20
15.4186410304
 10
0.6289740091
 20
15.4215605881
 10
0.6228169026
 20
15.4241449767
 10
0.6166836196
 20
15.4263892056
 10
0.6105854944
 20
15.4282888581
 10
0.6045341088
 20
15.4298403361
 10
0.5985412712
 20
15.431040861
 10
0.5926182554
 20
15.4318881069
 10
0.5867761635
 20
15.4323803917
 10
0.5810263643
 20
15.4325169114
 10
0.5753797185
 20
15.4322973805
 10
0.5698468181
 20
15.4317221637
 10
0.5644383527
 20
15.4307924501
 10
0.5591645625
 20
15.4295099947
 10
0.5540353744
 20
15.4278771963
 10
0.5490606448
 20
15.4258972159
 10
0.5478052789
 20
15.4253313564
  0
LWPOLYLINE
  5
471
100
AcDbEntity
  8
RACCORDO
100
AcDbPolyline
 62
250
  6
CONTINUOUS
 90
14
 70
0
 10
3.5030642202
 20
12.7651941558
 10
3.4938652105
 20
12.7695489925
 10
3.4846885948
 20
12.7732970908
 10
3.4755595246
 20
12.7764281778
 10
3.4665030207
 20
12.7789336719
 10
3.4575439055
 20
12.7808067059
 10
3.4487067342
 20
12.7820421462
 10
3.4400157278
 20
12.7826366067
 10
3.4314947067
 20
12.782588458
 10
3.4231670255
 20
12.7818978322
 10
3.4150555087
 20
12.7805666222
 10
3.4071823886
 20
12.7785984765
 10
3.3995692438
 20
12.7759987894
 10
3.3925521091
 20
12.7729289468
  0
LWPOLYLINE
  5
472
100
AcDbEntity
  8
RACCORDO
100
AcDbPolyline
 62
250
  6
CONTINUOUS
 90
14
 70
0
 10
-9.8612539443
 20
19.447353238
 10
-9.870432229
 20
19.4516989343
 10
-9.8795936935
 20
19.4554426863
 10
-9.8887132493
 20
19.4585731838
 10
-9.8977676263
 20
19.461081197
 10
-9.9067300657
 20
19.4629580613
 10
-9.9155706057
 20
19.4641969596
 10
-9.9242632203
 20
19.4647944375
 10
-9.9327859211
 20
19.4647491797
 10
-9.9411155811
 20
19.4640612814
 10
-9.9492295082
 20
19.4627325404
 10
-9.9571052661
 20
19.4607665524
 10
-9.9647210006
 20
19.4581687461
 10
-9.9717660554
 20
19.4550880291
  0
LWPOLYLINE
  5
473
100
AcDbEntity
  8
RACCORDO
100
AcDbPolyline
 62
250
  6
CONTINUOUS
 90
14
 70
0
 10
-12.4068383565
 20
20.7201454441
 10
-12.4160373662
 20
20.7245002808
 10
-12.4252139819
 20
20.7282483791
 10
-12.4343430521
 20
20.7313794662
 10
-12.443399556
 20
20.7338849602
 10
-12.4523586712
 20
20.7357579942
 10
-12.4611958425
 20
20.7369934345
 10
-12.4698868489
 20
20.737587895
 10
-12.47840787
 20
20.7375397464
 10
-12.4867355512
 20
20.7368491206
 10
-12.494847068
 20
20.7355179105
 10
-12.5027201881
 20
20.7335497648
 10
-12.5103333329
 20
20.7309500777
 10
-12.5173504676
 20
20.7278802352
  0
LWPOLYLINE
  5
474
100
AcDbEntity
  8
RACCORDO
100
AcDbPolyline
 62
250
  6
CONTINUOUS
 90
14
 70
0
 10
-25.771156521
 20
27.4023045264
 10
-25.7803348057
 20
27.4066502227
 10
-25.7894962701
 20
27.4103939747
 10
-25.798615826
 20
27.4135244722
 10
-25.807670203
 20
27.4160324853
 10
-25.8166326424
 20
27.4179093496
 10
-25.8254731824
 20
27.419148248
 10
-25.834165797
 20
27.4197457259
 10
-25.8426884978
 20
27.419700468
 10
-25.8510181578
 20
27.4190125698
 10
-25.8591320849
 20
27.4176838288
 10
-25.8670078428
 20
27.4157178407
 10
-25.8746235773
 20
27.4131200344
 10
-25.8816686321
 20
27.4100393174
  0
LWPOLYLINE
  5
475
100
AcDbEntity
  8
C_CORPO
100
AcDbPolyline
 62
250
  6
CONTINUOUS
 90
17
 70
0
 10
-13.639558949
 20
23.159959747
 10
-13.6417624709
 20
23.161016859
 10
-13.6466454317
 20
23.1630574691
 10
-13.6516817233
 20
23.164759261
 10
-13.6568619675
 20
23.1661190648
 10
-13.6621765202
 20
23.1671343478
 10
-13.6676154868
 20
23.1678032191
 10
-13.6731687394
 20
23.1681244324
 10
-13.6788259386
 20
23.1680973893
 10
-13.6845765523
 20
23.1677221397
 10
-13.6904098728
 20
23.1669993819
 10
-13.6963150415
 20
23.165930461
 10
-13.7022810624
 20
23.1645173669
 10
-13.7082968213
 20
23.1627627324
 10
-13.7143511156
 20
23.160669826
 10
-13.7204326755
 20
23.1582425444
 10
-13.7265301782
 20
23.1554854077
  0
LWPOLYLINE
  5
476
100
AcDbEntity
  8
C_CORPO
100
AcDbPolyline
 62
250
  6
CONTINUOUS
 90
17
 70
0
 10
-15.8215832933
 20
24.2509719192
 10
-15.8237963385
 20
24.2520335445
 10
-15.8286790945
 20
24.2540735674
 10
-15.8337151391
 20
24.2557748219
 10
-15.8388950976
 20
24.2571341411
 10
-15.8442093276
 20
24.2581489945
 10
-15.8496479367
 20
24.2588174932
 10
-15.8552008008
 20
24.2591383926
 10
-15.8608575835
 20
24.2591110954
 10
-15.8666077545
 20
24.2587356524
 10
-15.87244061
 20
24.2580127625
 10
-15.8783452921
 20
24.2569437714
 10
-15.8843108093
 20
24.255530669
 10
-15.8903260567
 20
24.2537760858
 10
-15.8963798371
 20
24.2516832879
 10
-15.9024608813
 20
24.249256171
 10
-15.9085578694
 20
24.2464992533
  0
LWPOLYLINE
  5
477
100
AcDbEntity
  8
0
100
AcDbPolyline
 62
7
  6
CONTINUOUS
 90
43
 70
0
 10
0.2109008865
 20
16.4792904326
 10
0.1839005378
 20
16.4922904251
 10
0.1560289173
 20
16.5047442605
 10
0.127286025
 20
16.5166519387
 10
0.0976292675
 20
16.5280285795
 10
0.0671012382
 20
16.5388590631
 10
0.0358297175
 20
16.5490980308
 10
0.0038115845
 20
16.5587430022
 10
-0.02895004
 20
16.5677964576
 10
-0.0623180133
 20
16.5762204785
 10
-0.0962948803
 20
16.5840124253
 10
-0.1308780961
 20
16.5911749377
 10
-0.1659228834
 20
16.5976780161
 10
-0.2014311795
 20
16.603518895
 10
-0.2374010472
 20
16.6087003399
 10
-0.2736818969
 20
16.6132006484
 10
-0.3102750341
 20
16.6170169636
 10
-0.3471791534
 20
16.6201521424
 10
-0.3842397489
 20
16.6225930528
 10
-0.4214574771
 20
16.6243367828
 10
-0.4588316814
 20
16.6253862445
 10
-0.4962058857
 20
16.625737042
 10
-0.53358009
 20
16.6253862448
 10
-0.5709542943
 20
16.6243367835
 10
-0.6081720224
 20
16.6225930539
 10
-0.6452326175
 20
16.6201521438
 10
-0.6821367364
 20
16.6170169654
 10
-0.7187298736
 20
16.6132006506
 10
-0.7550107236
 20
16.6087003424
 10
-0.7909805919
 20
16.6035188978
 10
-0.8264888887
 20
16.5976780192
 10
-0.8615336768
 20
16.5911749409
 10
-0.8961168935
 20
16.5840124287
 10
-0.9300937615
 20
16.576220482
 10
-0.9634617359
 20
16.5677964611
 10
-0.9962233615
 20
16.5587430058
 10
-1.0282414958
 20
16.5490980343
 10
-1.0595130178
 20
16.5388590665
 10
-1.0900410485
 20
16.5280285827
 10
-1.1196978076
 20
16.5166519414
 10
-1.1484407019
 20
16.5047442625
 10
-1.1763123246
 20
16.4922904262
 10
-1.2033126759
 20
16.4792904326
  0
LWPOLYLINE
  5
478
100
AcDbEntity
  8
0
100
AcDbPolyline
 62
7
  6
CONTINUOUS
 90
43
 70
0
 10
-15.6990016902
 20
24.4342417209
 10
-15.7260020389
 20
24.4472417134
 10
-15.7538736594
 20
24.4596955488
 10
-15.7826165517
 20
24.4716032271
 10
-15.8122733092
 20
24.4829798679
 10
-15.8428013384
 20
24.4938103515
 10
-15.8740728592
 20
24.5040493191
 10
-15.9060909922
 20
24.5136942905
 10
-15.9388526167
 20
24.5227477459
 10
-15.97222059
 20
24.5311717668
 10
-16.006197457
 20
24.5389637137
 10
-16.0407806728
 20
24.546126226
 10
-16.0758254601
 20
24.5526293045
 10
-16.1113337562
 20
24.5584701833
 10
-16.1473036239
 20
24.5636516283
 10
-16.1835844736
 20
24.5681519367
 10
-16.2201776108
 20
24.571968252
 10
-16.2570817301
 20
24.5751034308
 10
-16.2941423255
 20
24.5775443412
 10
-16.3313600538
 20
24.5792880712
 10
-16.3687342581
 20
24.5803375328
 10
-16.4061084624
 20
24.5806883303
 10
-16.4434826667
 20
24.5803375332
 10
-16.480856871
 20
24.5792880719
 10
-16.5180745991
 20
24.5775443422
 10
-16.5551351942
 20
24.5751034322
 10
-16.5920393131
 20
24.5719682538
 10
-16.6286324503
 20
24.5681519389
 10
-16.6649133003
 20
24.5636516307
 10
-16.7008831686
 20
24.5584701861
 10
-16.7363914654
 20
24.5526293075
 10
-16.7714362535
 20
24.5461262293
 10
-16.8060194702
 20
24.5389637171
 10
-16.8399963382
 20
24.5311717704
 10
-16.8733643126
 20
24.5227477495
 10
-16.9061259382
 20
24.5136942941
 10
-16.9381440725
 20
24.5040493226
 10
-16.9694155945
 20
24.4938103549
 10
-16.9999436252
 20
24.482979871
 10
-17.0296003843
 20
24.4716032298
 10
-17.0583432786
 20
24.4596955508
 10
-17.0862149013
 20
24.4472417145
 10
-17.1132152526
 20
24.4342417209
  0
LWPOLYLINE
  5
479
100
AcDbEntity
  8
C_CORPO
100
AcDbPolyline
 62
7
  6
CONTINUOUS
 90
49
 70
0
 10
-15.8215779205
 20
24.2509691941
 10
-15.8386478099
 20
24.2593062545
 10
-15.8627214021
 20
24.2704234179
 10
-15.8872350839
 20
24.2810278007
 10
-15.9121562655
 20
24.2911218789
 10
-15.9374664538
 20
24.3007139784
 10
-15.9631577585
 20
24.309814466
 10
-15.9892063583
 20
24.3184269729
 10
-16.0155874338
 20
24.3265543409
 10
-16.0422886929
 20
24.3342024059
 10
-16.0692858833
 20
24.3413732718
 10
-16.0965557007
 20
24.3480688115
 10
-16.1240847427
 20
24.3542929918
 10
-16.1518491624
 20
24.3600470873
 10
-16.1798257353
 20
24.3653320868
 10
-16.2079998464
 20
24.370150706
 10
-16.2363465012
 20
24.3745034712
 10
-16.2648440243
 20
24.3783912677
 10
-16.2934815362
 20
24.3818165249
 10
-16.3222350658
 20
24.3847793698
 10
-16.351082367
 20
24.3872802625
 10
-16.380014676
 20
24.3893207771
 10
-16.409008991
 20
24.3909006506
 10
-16.4380424123
 20
24.3920200281
 10
-16.4671062237
 20
24.3926793512
 10
-16.4961775487
 20
24.3928780386
 10
-16.5252334628
 20
24.3926160168
 10
-16.5542652
 20
24.3918926099
 10
-16.5832498842
 20
24.3907070226
 10
-16.6121645049
 20
24.3890588638
 10
-16.6410002418
 20
24.3869463358
 10
-16.6697348433
 20
24.3843683579
 10
-16.6983443825
 20
24.3813241249
 10
-16.72681803
 20
24.3778109254
 10
-16.755134102
 20
24.3738272783
 10
-16.7832676772
 20
24.3693719506
 10
-16.8112043215
 20
24.3644418203
 10
-16.8389208452
 20
24.3590352496
 10
-16.8663934467
 20
24.3531502983
 10
-16.8936089193
 20
24.3467826313
 10
-16.9205440144
 20
24.3399297283
 10
-16.9471745429
 20
24.3325888143
 10
-16.9734884322
 20
24.3247537287
 10
-16.9994609438
 20
24.3164209466
 10
-17.0250683603
 20
24.30758619
 10
-17.0503031126
 20
24.2982389221
 10
-17.0751469506
 20
24.2883703449
 10
-17.0995673491
 20
24.2779770919
 10
-17.1162996963
 20
24.2704306392
  0
LWPOLYLINE
  5
47A
100
AcDbEntity
  8
C_CORPO
100
AcDbPolyline
 62
250
  6
CONTINUOUS
 90
17
 70
0
 10
1.2132141414
 20
15.6856132479
 10
1.2071522538
 20
15.6885823632
 10
1.2010972017
 20
15.6912138913
 10
1.1950605091
 20
15.6935028235
 10
1.1890536631
 20
15.6954448033
 10
1.1830880978
 20
15.6970361334
 10
1.1771751718
 20
15.6982737835
 10
1.17132614
 20
15.6991553983
 10
1.1655521328
 20
15.6996793005
 10
1.1598641399
 20
15.6998444931
 10
1.1542729864
 20
15.6996506623
 10
1.1487893134
 20
15.6990981774
 10
1.1434235589
 20
15.6981880906
 10
1.1381859345
 20
15.6969221348
 10
1.1330864081
 20
15.69530272
 10
1.1281346866
 20
15.6933329301
 10
1.1268902564
 20
15.6927719892
  0
LINE
  5
47B
100
AcDbEntity
  8
C_CORPO
100
AcDbLine
 62
7
  6
CONTINUOUS
 10
-1.1679573368
 20
14.76134568
 11
-0.5259492758
 21
14.4403416494
  0
LINE
  5
47C
100
AcDbEntity
  8
RACCORDO
100
AcDbLine
 62
250
  6
CONTINUOUS
 10
-25.771156521
 20
27.4023045264
 11
-24.4338303604
 21
26.7336414461
  0
LINE
  5
47D
100
AcDbEntity
  8
RACCORDO
100
AcDbLine
 62
250
  6
CONTINUOUS
 10
-12.4068383565
 20
20.7201454441
 11
-11.069512196
 21
20.0514823639
  0
LINE
  5
47E
100
AcDbEntity
  8
RACCORDO
100
AcDbLine
 62
250
  6
CONTINUOUS
 10
-9.8612539443
 20
19.447353238
 11
-8.5239277837
 21
18.7786901577
  0
LINE
  5
47F
100
AcDbEntity
  8
RACCORDO
100
AcDbLine
 62
250
  6
CONTINUOUS
 10
3.5030642202
 20
12.7651941558
 11
4.8403903807
 21
12.0965310755
  0
LINE
  5
480
100
AcDbEntity
  8
RACCORDO
100
AcDbLine
 62
7
  6
CONTINUOUS
 10
-25.6603815614
 20
27.4088944175
 11
-24.3230554008
 21
26.7402313372
  0
LINE
  5
481
100
AcDbEntity
  8
RACCORDO
100
AcDbLine
 62
7
  6
CONTINUOUS
 10
-12.296063397
 20
20.7267353353
 11
-10.9587372364
 21
20.058072255
  0
LINE
  5
482
100
AcDbEntity
  8
RACCORDO
100
AcDbLine
 62
7
  6
CONTINUOUS
 10
-9.7504789847
 20
19.4539431291
 11
-8.4131528242
 21
18.7852800488
  0
LINE
  5
483
100
AcDbEntity
  8
RACCORDO
100
AcDbLine
 62
7
  6
CONTINUOUS
 10
3.6138391797
 20
12.7717840469
 11
4.9511653403
 21
12.1031209666
  0
LINE
  5
484
100
AcDbEntity
  8
C_CORPO
100
AcDbLine
 62
250
  6
CONTINUOUS
 10
1.4208745586
 20
14.6461262076
 11
0.282767874
 21
15.2151795499
  0
LINE
  5
485
100
AcDbEntity
  8
C_CORPO
100
AcDbLine
 62
250
  6
CONTINUOUS
 10
-14.6476662241
 20
22.680396599
 11
-17.3949016557
 21
24.0540143147
  0
LINE
  5
486
100
AcDbEntity
  8
C_CORPO
100
AcDbLine
 62
250
  6
CONTINUOUS
 10
1.4931315489
 20
14.6817398458
 11
0.3389430094
 21
15.2588341156
  0
LINE
  5
487
100
AcDbEntity
  8
C_CORPO
100
AcDbLine
 62
250
  6
CONTINUOUS
 10
-14.5914910888
 20
22.7240511647
 11
-17.3387265203
 21
24.0976688804
  0
LINE
  5
488
100
AcDbEntity
  8
C_CORPO
100
AcDbLine
 62
7
  6
CONTINUOUS
 10
-17.0425261136
 20
24.2574757952
 11
-14.2847665887
 21
22.8785960327
  0
LINE
  5
489
100
AcDbEntity
  8
C_CORPO
100
AcDbLine
 62
7
  6
CONTINUOUS
 10
0.635143416
 20
15.4186410304
 11
1.8032483601
 21
14.8345885583
  0
LINE
  5
48A
100
AcDbEntity
  8
ASSI
100
AcDbLine
 62
7
  6
CONTINUOUS
 10
0.2524001893
 20
15.6791179178
 11
0.6580988551
 21
15.4762685849
  0
LINE
  5
48B
100
AcDbEntity
  8
C_CORPO
100
AcDbLine
 62
250
  6
CONTINUOUS
 10
-15.9085578694
 20
24.2464992533
 11
-13.7265301782
 21
23.1554854077
  0
LINE
  5
48C
100
AcDbEntity
  8
C_CORPO
100
AcDbLine
 62
250
  6
CONTINUOUS
 10
2.3632461244
 20
15.1105972564
 11
1.2132141414
 21
15.6856132479
  0
LINE
  5
48D
100
AcDbEntity
  8
C_CORPO
100
AcDbLine
 62
7
  6
CONTINUOUS
 10
-15.8215832933
 20
24.2509719192
 11
-13.6395556021
 21
23.1599580736
  0
LINE
  5
48E
100
AcDbEntity
  8
C_CORPO
100
AcDbLine
 62
7
  6
CONTINUOUS
 10
2.4115502626
 20
15.1344051413
 11
1.3001887175
 21
15.6900859139
  0
LINE
  5
48F
100
AcDbEntity
  8
C_CORPO
100
AcDbLine
 62
7
  6
CONTINUOUS
 10
-8.7693552346
 20
20.7271081383
 11
-4.8802679381
 21
18.7825644901
  0
LINE
  5
490
100
AcDbEntity
  8
ASSI
100
AcDbLine
 62
7
  6
CONTINUOUS
 10
-15.6990016902
 20
24.4342417209
 11
-13.2520366236
 21
23.2107591876
  0
LINE
  5
491
100
AcDbEntity
  8
ASSI
100
AcDbLine
 62
7
  6
CONTINUOUS
 10
0.2109008865
 20
16.4792904326
 11
2.6578659531
 21
15.2558078992
  0
LINE
  5
492
100
AcDbEntity
  8
0
100
AcDbLine
 62
7
  6
CONTINUOUS
 10
-0.1426525041
 20
16.6560671279
 11
-0.4962058947
 21
16.8328438232
  0
LINE
  5
493
100
AcDbEntity
  8
0
100
AcDbLine
 62
7
  6
CONTINUOUS
 10
-16.0525550808
 20
24.6110184162
 11
-16.4061084714
 21
24.7877951115
  0
LINE
  5
494
100
AcDbEntity
  8
DRAFT
100
AcDbLine
 62
7
  6
CONTINUOUS
 10
-16.4061084714
 20
25.34791099
 11
-16.0525550808
 21
25.1711342947
  0
LINE
  5
495
100
AcDbEntity
  8
DRAFT
100
AcDbLine
 62
7
  6
CONTINUOUS
 10
-0.4962058947
 20
17.3929597017
 11
-0.1426525041
 21
17.2161830064
  0
LWPOLYLINE
  5
496
100
AcDbEntity
  8
C_CORPO
100
AcDbPolyline
 62
250
  6
CONTINUOUS
 90
22
 70
0
 10
-13.7265301782
 20
23.1554854077
 10
-13.7202577573
 20
23.1522873687
 10
-13.7140019671
 20
23.1487634757
 10
-13.7077747136
 20
23.1449204349
 10
-13.7015878466
 20
23.1407655582
 10
-13.6954531428
 20
23.1363067537
 10
-13.689382283
 20
23.131552511
 10
-13.6833868226
 20
23.1265118797
 10
-13.6774781706
 20
23.1211944521
 10
-13.6716675731
 20
23.1156103496
 10
-13.6659660884
 20
23.1097701997
 10
-13.6603845676
 20
23.1036851179
 10
-13.6549336349
 20
23.0973666875
 10
-13.649623664
 20
23.090826934
 10
-13.6444647606
 20
23.0840783044
 10
-13.6394667444
 20
23.0771336456
 10
-13.6346391274
 20
23.0700061758
 10
-13.6299910963
 20
23.0627094597
 10
-13.6255314968
 20
23.0552573856
 10
-13.6212688142
 20
23.0476641338
 10
-13.6172111617
 20
23.0399441585
 10
-13.6135863597
 20
23.0325604906
  0
LWPOLYLINE
  5
497
100
AcDbEntity
  8
C_CORPO
100
AcDbPolyline
 62
7
  6
CONTINUOUS
 90
22
 70
0
 10
-14.2847665887
 20
22.8785960327
 10
-14.2785971817
 20
22.8753467866
 10
-14.2724400752
 20
22.8717739415
 10
-14.2663067923
 20
22.8678844116
 10
-14.2602086671
 20
22.8636857971
 10
-14.2541572814
 20
22.8591861031
 10
-14.2481644438
 20
22.8543937185
 10
-14.242241428
 20
22.8493178258
 10
-14.2363993362
 20
22.8439681888
 10
-14.2306495369
 20
22.838354862
 10
-14.2250028912
 20
22.8324885839
 10
-14.2194699907
 20
22.8263805902
 10
-14.2140615254
 20
22.8200423891
 10
-14.2087877352
 20
22.8134860649
 10
-14.203658547
 20
22.8067241532
 10
-14.1986838174
 20
22.799769447
 10
-14.1938730054
 20
22.7926351886
 10
-14.1892351887
 20
22.785334985
 10
-14.184779207
 20
22.777882674
 10
-14.1805135702
 20
22.7702924182
 10
-14.1764463619
 20
22.7625786746
 10
-14.173493609
 20
22.7565964051
  0
LWPOLYLINE
  5
498
100
AcDbEntity
  8
C_CORPO
100
AcDbPolyline
 62
250
  6
CONTINUOUS
 90
21
 70
0
 10
-14.6476662241
 20
22.680396599
 10
-14.6415601684
 20
22.6771119785
 10
-14.6353550129
 20
22.6735915863
 10
-14.6290624603
 20
22.6698420604
 10
-14.6226943738
 20
22.6658704685
 10
-14.6162627679
 20
22.6616843024
 10
-14.6097797859
 20
22.6572914654
 10
-14.6032576595
 20
22.6527002458
 10
-14.5967086855
 20
22.6479193
 10
-14.5901452158
 20
22.6429576453
 10
-14.5835796294
 20
22.6378246396
 10
-14.5770243094
 20
22.632529964
 10
-14.5704916196
 20
22.6270836048
 10
-14.5639938811
 20
22.621495834
 10
-14.557543349
 20
22.6157771906
 10
-14.5511521894
 20
22.6099384602
 10
-14.5448324565
 20
22.6039906551
 10
-14.5385960696
 20
22.5979449933
 10
-14.5324547911
 20
22.5918128773
 10
-14.5264202041
 20
22.5856058729
 10
-14.5245150522
 20
22.5835868366
  0
LWPOLYLINE
  5
499
100
AcDbEntity
  8
C_CORPO
100
AcDbPolyline
 62
250
  6
CONTINUOUS
 90
22
 70
0
 10
-14.5914910888
 20
22.7240511647
 10
-14.5854298889
 20
22.7207482522
 10
-14.5793754939
 20
22.7171244381
 10
-14.5733394239
 20
22.7131866125
 10
-14.5673331543
 20
22.7089422557
 10
-14.5613681249
 20
22.7043994458
 10
-14.5554557179
 20
22.6995668485
 10
-14.5496071943
 20
22.694453669
 10
-14.5438336719
 20
22.6890696283
 10
-14.5381461353
 20
22.6834249697
 10
-14.5325554058
 20
22.6775304327
 10
-14.5270721229
 20
22.6713972346
 10
-14.5217067216
 20
22.6650370469
 10
-14.5164694117
 20
22.6584619727
 10
-14.5113701585
 20
22.6516845227
 10
-14.5064186652
 20
22.6447175933
 10
-14.5016243535
 20
22.6375744415
 10
-14.4969963462
 20
22.6302686593
 10
-14.4925434495
 20
22.6228141486
 10
-14.4882741367
 20
22.615225094
 10
-14.4841965314
 20
22.6075159362
 10
-14.4825788015
 20
22.6042561512
  0
LWPOLYLINE
  5
49A
100
AcDbEntity
  8
ASSI
100
AcDbPolyline
 62
7
  6
CONTINUOUS
 90
3
 70
0
 10
0.5976529462
 20
15.448352661
 10
0.4459298165
 20
15.5471939115
 10
0.2524001893
 20
15.6791179178
  0
LINE
  5
49B
100
AcDbEntity
  8
C_CORPO
100
AcDbLine
 62
7
  6
CONTINUOUS
 10
12.5157707297
 20
9.9739687885
 11
12.4341903597
 21
10.1747857369
  0
LINE
  5
49C
100
AcDbEntity
  8
C_CORPO
100
AcDbLine
 62
7
  6
CONTINUOUS
 10
12.4341903597
 20
10.1747857369
 11
12.4084893176
 21
10.2385817022
  0
LINE
  5
49D
100
AcDbEntity
  8
C_CORPO
100
AcDbLine
 62
7
  6
CONTINUOUS
 10
12.4084893176
 20
10.2385817022
 11
12.3838869128
 21
10.3006533211
  0
LWPOLYLINE
  5
49E
100
AcDbEntity
  8
C_CORPO
100
AcDbPolyline
 62
7
  6
CONTINUOUS
 90
5
 70
0
 10
12.3838869128
 20
10.3006533211
 10
12.3605992583
 20
10.3608454959
 10
12.3495090725
 20
10.3901310938
 10
12.338826237
 20
10.4188820823
 10
12.3152955288
 20
10.4832913758
  0
LINE
  5
49F
100
AcDbEntity
  8
C_CORPO
100
AcDbLine
 62
7
  6
CONTINUOUS
 10
5.903912911
 20
23.8102670796
 11
5.9720774828
 21
23.6315914068
  0
LWPOLYLINE
  5
4A0
100
AcDbEntity
  8
C_CORPO
100
AcDbPolyline
 62
7
  6
CONTINUOUS
 90
15
 70
0
 10
12.3152955288
 20
10.4832913758
 10
12.3015571022
 20
10.5193738697
 10
12.2873627442
 20
10.5553396205
 10
12.2727068561
 20
10.5912018326
 10
12.2575950366
 20
10.6269473018
 10
12.2420440819
 20
10.6625364148
 10
12.2260533574
 20
10.6979693511
 10
12.2096234977
 20
10.7332459313
 10
12.192773202
 20
10.7683260041
 10
12.1755024515
 20
10.8032085461
 10
12.1578112652
 20
10.8378945808
 10
12.1397183986
 20
10.8723470265
 10
12.1212301036
 20
10.9065535229
 10
12.1023401284
 20
10.9405264303
 10
12.0830484729
 20
10.9742657489
  0
LWPOLYLINE
  5
4A1
100
AcDbEntity
  8
C_CORPO
100
AcDbPolyline
 62
7
  6
CONTINUOUS
 90
9
 70
0
 10
12.6332890371
 20
9.6541959147
 10
12.6217703728
 20
9.6898740083
 10
12.6097581438
 20
9.7256397166
 10
12.5972745413
 20
9.761462423
 10
12.5842751791
 20
9.7973862729
 10
12.5708455539
 20
9.8333104638
 10
12.5572193297
 20
9.8689832356
 10
12.5434922554
 20
9.9042802658
 10
12.5157707297
 20
9.9739687885
  0
LWPOLYLINE
  5
4A2
100
AcDbEntity
  8
C_CORPO
100
AcDbPolyline
 62
250
  6
CONTINUOUS
 90
34
 70
0
 10
16.7312797471
 20
-6.4553549966
 10
16.7334378902
 20
-6.4795738398
 10
16.7348457762
 20
-6.5048741356
 10
16.7354814296
 20
-6.531263383
 10
16.7353439021
 20
-6.558708621
 10
16.7343874237
 20
-6.5872536241
 10
16.7325184869
 20
-6.617022126
 10
16.7297021951
 20
-6.6480640509
 10
16.7259123305
 20
-6.6803391363
 10
16.7210650528
 20
-6.7138349928
 10
16.7151328176
 20
-6.748505243
 10
16.7080786537
 20
-6.7843905191
 10
16.6998005095
 20
-6.8216071187
 10
16.6902353133
 20
-6.8602205749
 10
16.6793630623
 20
-6.9001524338
 10
16.6671445864
 20
-6.9412993905
 10
16.6535457748
 20
-6.9836010373
 10
16.6385209829
 20
-7.027082875
 10
16.6220144612
 20
-7.0717648717
 10
16.6039458969
 20
-7.1176889874
 10
16.5843025786
 20
-7.1647625025
 10
16.5631332649
 20
-7.2127980527
 10
16.5403875715
 20
-7.2617565501
 10
16.5160337089
 20
-7.3116051276
 10
16.490159485
 20
-7.3621603546
 10
16.4627196326
 20
-7.41337937
 10
16.4336871498
 20
-7.4652168598
 10
16.4031873821
 20
-7.5174826106
 10
16.3711246837
 20
-7.57021979
 10
16.3375310599
 20
-7.6232840338
 10
16.3027481597
 20
-7.6762068526
 10
16.2668930955
 20
-7.7288026895
 10
16.2298371751
 20
-7.7811630637
 10
16.1915744838
 20
-7.8332405496
  0
LWPOLYLINE
  5
4A3
100
AcDbEntity
  8
C_CORPO
100
AcDbPolyline
 62
7
  6
CONTINUOUS
 90
14
 70
0
 10
16.4722346296
 20
11.7694824369
 10
16.4718596004
 20
11.8088855384
 10
16.4703958239
 20
11.856987677
 10
16.4678402304
 20
11.9051155323
 10
16.4642060267
 20
11.9532664835
 10
16.459506684
 20
12.0014218632
 10
16.4537576781
 20
12.0495416349
 10
16.4469716782
 20
12.0976167129
 10
16.4391599085
 20
12.1456363763
 10
16.4303396627
 20
12.1935542648
 10
16.4205223749
 20
12.2413608621
 10
16.4097179477
 20
12.2890466563
 10
16.3979458354
 20
12.3365625539
 10
16.3853487367
 20
12.3834243212
  0
LINE
  5
4A4
100
AcDbEntity
  8
C_CORPO
100
AcDbLine
 62
250
  6
CONTINUOUS
 10
16.1915744435
 20
11.3977628575
 11
16.1915744435
 21
-7.8332405699
  0
LINE
  5
4A5
100
AcDbEntity
  8
C_CORPO
100
AcDbLine
 62
7
  6
CONTINUOUS
 10
16.4722346431
 20
11.7694851901
 11
16.4722346431
 21
-6.5925736297
  0
LWPOLYLINE
  5
4A6
100
AcDbEntity
  8
C_CORPO
100
AcDbPolyline
 62
250
  6
CONTINUOUS
 90
24
 70
0
 10
16.472234643
 20
-6.5925879923
 10
16.4721649745
 20
-6.6094483795
 10
16.4713805177
 20
-6.6522218884
 10
16.4696799081
 20
-6.6966673006
 10
16.4670130182
 20
-6.7426838235
 10
16.4633399134
 20
-6.7901675873
 10
16.4586239243
 20
-6.8390562876
 10
16.4528191283
 20
-6.8893752173
 10
16.4458771089
 20
-6.9411497805
 10
16.4377431546
 20
-6.9944409216
 10
16.428383556
 20
-7.0491403497
 10
16.4177898723
 20
-7.1050182826
 10
16.4059356276
 20
-7.1620533605
 10
16.3927905521
 20
-7.2202138428
 10
16.3783601673
 20
-7.2792552788
 10
16.3626300283
 20
-7.3391576641
 10
16.3455842808
 20
-7.3998839505
 10
16.3272427714
 20
-7.4611656909
 10
16.3075687428
 20
-7.5230897209
 10
16.2865908213
 20
-7.585509171
 10
16.2644588196
 20
-7.6478132956
 10
16.2412502864
 20
-7.7097871997
 10
16.2169457632
 20
-7.7716034047
 10
16.1915744435
 20
-7.8332405196
  0
LWPOLYLINE
  5
4A7
100
AcDbEntity
  8
C_CORPO
100
AcDbPolyline
 62
250
  6
CONTINUOUS
 90
27
 70
0
 10
16.4722346431
 20
11.7694824369
 10
16.4722184145
 20
11.766636641
 10
16.4716207915
 20
11.7519685802
 10
16.4701627317
 20
11.7373156005
 10
16.4678454907
 20
11.7226903178
 10
16.4646710633
 20
11.7081053238
 10
16.4606421827
 20
11.6935731757
 10
16.4557623177
 20
11.6791063853
 10
16.4500356695
 20
11.6647174078
 10
16.4434671687
 20
11.6504186318
 10
16.4360624705
 20
11.6362223679
 10
16.4278279502
 20
11.6221408386
 10
16.4187706972
 20
11.6081861678
 10
16.4088985096
 20
11.5943703697
 10
16.3982198871
 20
11.5807053395
 10
16.3867440235
 20
11.5672028421
 10
16.3744807992
 20
11.5538745028
 10
16.3614407723
 20
11.5407317967
 10
16.3476351699
 20
11.5277860394
 10
16.3330758782
 20
11.5150483766
 10
16.3177754321
 20
11.5025297751
 10
16.3017469974
 20
11.4902410074
 10
16.2850043808
 20
11.4781926595
 10
16.2675620212
 20
11.4663951202
 10
16.2494349469
 20
11.4548585511
 10
16.2306387597
 20
11.4435928781
 10
16.211189645
 20
11.4326077995
  0
LWPOLYLINE
  5
4A8
100
AcDbEntity
  8
ASSI
100
AcDbPolyline
 62
7
  6
CONTINUOUS
 90
17
 70
0
 10
-0.765905547
 20
19.0792517198
 10
-0.7548587613
 20
19.0823549219
 10
-0.7432569004
 20
19.0848279718
 10
-0.7310975168
 20
19.086654136
 10
-0.7183554779
 20
19.0878341545
 10
-0.7050549523
 20
19.0883313873
 10
-0.6912761554
 20
19.0880765503
 10
-0.6770307389
 20
19.087042365
 10
-0.6623299298
 20
19.0852280083
 10
-0.6472665268
 20
19.0826125527
 10
-0.6318945935
 20
19.0791870672
 10
-0.6162015928
 20
19.0749435843
 10
-0.6001857025
 20
19.0698662331
 10
-0.5839010769
 20
19.0639618483
 10
-0.5673386149
 20
19.0572059858
 10
-0.5503983259
 20
19.0495276831
 10
-0.5408991872
 20
19.0448938167
  0
LINE
  5
4A9
100
AcDbEntity
  8
0
100
AcDbLine
 62
7
  6
CONTINUOUS
 10
2.6150639425
 20
17.4287075685
 11
1.2551320024
 21
17.3549593811
  0
LWPOLYLINE
  5
4AA
100
AcDbEntity
  8
ASSI
100
AcDbPolyline
 62
7
  6
CONTINUOUS
 90
17
 70
0
 10
-0.0438556202
 20
18.7963722105
 10
-0.0458993568
 20
18.7972498069
 10
-0.0497620344
 20
18.7983384844
 10
-0.0542508413
 20
18.7990032657
 10
-0.0593770239
 20
18.7992679112
 10
-0.0651369883
 20
18.79914986
 10
-0.071501618
 20
18.7986549337
 10
-0.0784611764
 20
18.7977913161
 10
-0.0860161967
 20
18.7965599526
 10
-0.0941335318
 20
18.7949814332
 10
-0.1027445716
 20
18.7930905203
 10
-0.1118218664
 20
18.790878996
 10
-0.1213361499
 20
18.7883668781
 10
-0.1311972106
 20
18.7856241252
 10
-0.1413468712
 20
18.7826724939
 10
-0.151769347
 20
18.7794892638
 10
-0.1624302721
 20
18.7760729647
  0
LWPOLYLINE
  5
4AB
100
AcDbEntity
  8
ASSI
100
AcDbPolyline
 62
7
  6
CONTINUOUS
 90
17
 70
0
 10
-15.9537581969
 20
26.7513234988
 10
-15.9558019335
 20
26.7522010953
 10
-15.9596646111
 20
26.7532897727
 10
-15.964153418
 20
26.7539545541
 10
-15.9692796006
 20
26.7542191995
 10
-15.975039565
 20
26.7541011483
 10
-15.9814041947
 20
26.7536062221
 10
-15.9883637531
 20
26.7527426044
 10
-15.9959187734
 20
26.7515112409
 10
-16.0040361085
 20
26.7499327216
 10
-16.0126471483
 20
26.7480418086
 10
-16.0217244431
 20
26.7458302844
 10
-16.0312387266
 20
26.7433181664
 10
-16.0410997873
 20
26.7405754136
 10
-16.0512494479
 20
26.7376237823
 10
-16.0616719237
 20
26.7344405521
 10
-16.0723328488
 20
26.731024253
  0
LWPOLYLINE
  5
4AC
100
AcDbEntity
  8
ASSI
100
AcDbPolyline
 62
7
  6
CONTINUOUS
 90
17
 70
0
 10
5.5111327902
 20
16.0188778071
 10
5.5093499736
 20
16.0196582177
 10
5.5055515696
 20
16.0207744367
 10
5.5011300571
 20
16.0214687801
 10
5.4960770646
 20
16.021765806
 10
5.4903985239
 20
16.021682444
 10
5.4841230258
 20
16.0212244127
 10
5.4772593926
 20
16.0204011777
 10
5.4698077689
 20
16.0192142023
 10
5.4618010764
 20
16.0176830127
 10
5.4533045321
 20
16.0158415491
 10
5.4443449252
 20
16.0136822817
 10
5.4349511601
 20
16.0112244513
 10
5.4252093651
 20
16.0085354364
 10
5.4151755428
 20
16.0056363814
 10
5.4048657647
 20
16.0025056864
 10
5.3943136005
 20
15.9991421461
  0
LWPOLYLINE
  5
4AD
100
AcDbEntity
  8
ASSI
100
AcDbPolyline
 62
7
  6
CONTINUOUS
 90
17
 70
0
 10
-10.3987697865
 20
23.9738290955
 10
-10.4005526031
 20
23.974609506
 10
-10.404351007
 20
23.9757257251
 10
-10.4087725196
 20
23.9764200685
 10
-10.4138255121
 20
23.9767170944
 10
-10.4195040528
 20
23.9766337323
 10
-10.4257795509
 20
23.976175701
 10
-10.4326431841
 20
23.975352466
 10
-10.4400948078
 20
23.9741654906
 10
-10.4481015003
 20
23.972634301
 10
-10.4565980446
 20
23.9707928374
 10
-10.4655576515
 20
23.96863357
 10
-10.4749514166
 20
23.9661757397
 10
-10.4846932116
 20
23.9634867247
 10
-10.4947270339
 20
23.9605876698
 10
-10.505036812
 20
23.9574569747
 10
-10.5155889762
 20
23.9540934344
  0
LWPOLYLINE
  5
4AE
100
AcDbEntity
  8
C_CORPO
100
AcDbPolyline
 62
7
  6
CONTINUOUS
 90
25
 70
0
 10
16.3494633797
 20
12.4245107016
 10
16.3223884035
 20
12.4377038872
 10
16.292871292
 20
12.4513614615
 10
16.2626200202
 20
12.4646113272
 10
16.2316470819
 20
12.4774245772
 10
16.1999521782
 20
12.4897890031
 10
16.1675210877
 20
12.50170746
 10
16.1343610945
 20
12.5131561928
 10
16.1004784338
 20
12.5241127891
 10
16.0658562576
 20
12.5345782614
 10
16.0304884807
 20
12.5445293317
 10
15.9943968342
 20
12.5539367509
 10
15.9576061697
 20
12.5627896289
 10
15.9200853628
 20
12.5710669773
 10
15.8818855499
 20
12.5787331609
 10
15.843157568
 20
12.5857591661
 10
15.8038622739
 20
12.5921270986
 10
15.764066498
 20
12.5978064549
 10
15.7240851864
 20
12.6027667683
 10
15.6839375609
 20
12.6069963428
 10
15.6436398548
 20
12.610487379
 10
15.6035067824
 20
12.6132413801
 10
15.5636560443
 20
12.615267921
 10
15.5240065439
 20
12.6165706033
 10
15.4845753581
 20
12.6171559041
  0
LWPOLYLINE
  5
4AF
100
AcDbEntity
  8
C_CORPO
100
AcDbPolyline
 62
7
  6
CONTINUOUS
 90
25
 70
0
 10
-2.5438512146
 20
21.8711693799
 10
-2.5370768168
 20
21.8678598278
 10
-2.5236844241
 20
21.8617592596
 10
-2.5096302899
 20
21.8559592143
 10
-2.494869496
 20
21.8504972858
 10
-2.4794575901
 20
21.8454507357
 10
-2.4635572499
 20
21.8409173947
 10
-2.4471829935
 20
21.8369370031
 10
-2.4303630155
 20
21.8335520644
 10
-2.4132946273
 20
21.8308269654
 10
-2.3960063813
 20
21.8287804456
 10
-2.3785336143
 20
21.8274307888
 10
-2.3610916606
 20
21.8267973461
 10
-2.3437172456
 20
21.8268728891
 10
-2.3264432753
 20
21.827648647
 10
-2.309479187
 20
21.8290959334
 10
-2.2928639923
 20
21.831181022
 10
-2.2766171475
 20
21.8338712105
 10
-2.2609112558
 20
21.8370994302
 10
-2.2457801382
 20
21.840810873
 10
-2.2312250033
 20
21.844957903
 10
-2.2173583102
 20
21.849456544
 10
-2.2042023413
 20
21.8542414325
 10
-2.1917428885
 20
21.8592604971
 10
-2.1799085659
 20
21.8644912572
  0
LWPOLYLINE
  5
4B0
100
AcDbEntity
  8
RACCORDO
100
AcDbPolyline
 62
7
  6
CONTINUOUS
 90
20
 70
0
 10
2.3551769377
 20
18.2479362603
 10
2.3515812734
 20
18.2497102112
 10
2.3308085671
 20
18.2590493827
 10
2.309423006
 20
18.267150077
 10
2.2875127966
 20
18.2739788849
 10
2.2650755004
 20
18.2795305944
 10
2.2421135559
 20
18.2838104175
 10
2.2187224857
 20
18.2868005809
 10
2.1949007951
 20
18.2884957011
 10
2.1706499788
 20
18.2889011615
 10
2.1460700422
 20
18.2880153391
 10
2.1211594925
 20
18.285832914
 10
2.0959198225
 20
18.282359206
 10
2.0704555171
 20
18.2776085519
 10
2.0447656101
 20
18.2715756397
 10
2.0188510676
 20
18.2642657813
 10
1.9928192724
 20
18.2557092493
 10
1.9667060189
 20
18.2459161345
 10
1.9404755127
 20
18.2348763462
 10
1.9141277538
 20
18.2225898842
  0
LWPOLYLINE
  5
4B1
100
AcDbEntity
  8
RACCORDO
100
AcDbPolyline
 62
7
  6
CONTINUOUS
 90
20
 70
0
 10
-13.554725639
 20
26.2028875486
 10
-13.5583213033
 20
26.2046614996
 10
-13.5790940096
 20
26.214000671
 10
-13.6004795707
 20
26.2221013654
 10
-13.6223897801
 20
26.2289301733
 10
-13.6448270763
 20
26.2344818828
 10
-13.6677890208
 20
26.2387617059
 10
-13.691180091
 20
26.2417518692
 10
-13.7150017816
 20
26.2434469894
 10
-13.7392525979
 20
26.2438524498
 10
-13.7638325345
 20
26.2429666274
 10
-13.7887430842
 20
26.2407842023
 10
-13.8139827542
 20
26.2373104944
 10
-13.8394470596
 20
26.2325598402
 10
-13.8651369666
 20
26.226526928
 10
-13.8910515091
 20
26.2192170696
 10
-13.9170833043
 20
26.2106605376
 10
-13.9431965578
 20
26.2008674229
 10
-13.969427064
 20
26.1898276345
 10
-13.9957748229
 20
26.1775411725
  0
LINE
  5
4B2
100
AcDbEntity
  8
C_CORPO
100
AcDbLine
 62
7
  6
CONTINUOUS
 10
9.7304687817
 20
12.6680778228
 11
10.5940024778
 21
12.2363109747
  0
LINE
  5
4B3
100
AcDbEntity
  8
C_CORPO
100
AcDbLine
 62
7
  6
CONTINUOUS
 10
11.2967079887
 20
12.3305024663
 11
11.0572265329
 21
12.4502431941
  0
LINE
  5
4B4
100
AcDbEntity
  8
0
100
AcDbLine
 62
7
  6
CONTINUOUS
 10
4.0656816494
 20
15.9496845576
 11
1.2551320024
 21
17.3549593811
  0
LINE
  5
4B5
100
AcDbEntity
  8
0
100
AcDbLine
 62
7
  6
CONTINUOUS
 10
-11.8442209273
 20
23.904635846
 11
-14.6547705743
 21
25.3099106695
  0
LINE
  5
4B6
100
AcDbEntity
  8
ASSI
100
AcDbLine
 62
250
  6
CONTINUOUS
 10
5.3439715994
 20
15.9785054461
 11
4.7384411647
 21
16.2812706634
  0
LINE
  5
4B7
100
AcDbEntity
  8
ASSI
100
AcDbLine
 62
250
  6
CONTINUOUS
 10
-0.2113063036
 20
18.7561443976
 11
-0.8168367383
 21
19.0589096149
  0
LINE
  5
4B8
100
AcDbEntity
  8
ASSI
100
AcDbLine
 62
250
  6
CONTINUOUS
 10
-10.5659309773
 20
23.9334567344
 11
-11.171461412
 21
24.2362219518
  0
LINE
  5
4B9
100
AcDbEntity
  8
ASSI
100
AcDbLine
 62
250
  6
CONTINUOUS
 10
-16.1212088803
 20
26.7110956859
 11
-16.7267393149
 21
27.0138609033
  0
LINE
  5
4BA
100
AcDbEntity
  8
0
100
AcDbLine
 62
7
  6
CONTINUOUS
 10
5.708563724
 20
15.8819576778
 11
5.5179076643
 21
15.9772857076
  0
LINE
  5
4BB
100
AcDbEntity
  8
0
100
AcDbLine
 62
7
  6
CONTINUOUS
 10
4.8509114177
 20
16.3107838309
 11
2.6150639425
 21
17.4287075685
  0
LINE
  5
4BC
100
AcDbEntity
  8
0
100
AcDbLine
 62
7
  6
CONTINUOUS
 10
-10.2013388527
 20
23.8369089661
 11
-10.3919949124
 21
23.932236996
  0
LINE
  5
4BD
100
AcDbEntity
  8
0
100
AcDbLine
 62
7
  6
CONTINUOUS
 10
-11.058991159
 20
24.2657351193
 11
-13.2948386342
 21
25.3836588569
  0
LINE
  5
4BE
100
AcDbEntity
  8
ASSI
100
AcDbLine
 62
7
  6
CONTINUOUS
 10
5.5111329591
 20
16.018879508
 11
5.0140901694
 21
16.2674009029
  0
LINE
  5
4BF
100
AcDbEntity
  8
ASSI
100
AcDbLine
 62
7
  6
CONTINUOUS
 10
-0.04385547
 20
18.7963737226
 11
-0.5408982598
 21
19.0448951175
  0
LINE
  5
4C0
100
AcDbEntity
  8
ASSI
100
AcDbLine
 62
7
  6
CONTINUOUS
 10
-10.3987696176
 20
23.9738307963
 11
-10.8958124073
 21
24.2223521912
  0
LINE
  5
4C1
100
AcDbEntity
  8
ASSI
100
AcDbLine
 62
7
  6
CONTINUOUS
 10
-15.9537580467
 20
26.7513250109
 11
-16.4508008365
 21
26.9998464058
  0
LINE
  5
4C2
100
AcDbEntity
  8
RACCORDO
100
AcDbLine
 62
250
  6
CONTINUOUS
 10
-17.0565699395
 20
27.7079387308
 11
-13.9957748229
 21
26.1775411725
  0
LINE
  5
4C3
100
AcDbEntity
  8
RACCORDO
100
AcDbLine
 62
250
  6
CONTINUOUS
 10
-9.7531341358
 20
24.056220829
 11
-6.6923390193
 21
22.5258232707
  0
LINE
  5
4C4
100
AcDbEntity
  8
RACCORDO
100
AcDbLine
 62
250
  6
CONTINUOUS
 10
-1.1466673628
 20
19.7529874424
 11
1.9141277538
 21
18.2225898842
  0
LINE
  5
4C5
100
AcDbEntity
  8
RACCORDO
100
AcDbLine
 62
250
  6
CONTINUOUS
 10
6.1567684409
 20
16.1012695406
 11
9.2175635574
 21
14.5708719824
  0
LINE
  5
4C6
100
AcDbEntity
  8
RACCORDO
100
AcDbLine
 62
7
  6
CONTINUOUS
 10
-16.7748842356
 20
27.812966847
 11
-13.5547318199
 21
26.2028906391
  0
LINE
  5
4C7
100
AcDbEntity
  8
RACCORDO
100
AcDbLine
 62
7
  6
CONTINUOUS
 10
-9.3120911328
 20
24.0815702956
 11
-6.091938717
 21
22.4714940877
  0
LINE
  5
4C8
100
AcDbEntity
  8
RACCORDO
100
AcDbLine
 62
7
  6
CONTINUOUS
 10
-0.8649816589
 20
19.8580155586
 11
2.3551707568
 21
18.2479393508
  0
LINE
  5
4C9
100
AcDbEntity
  8
RACCORDO
100
AcDbLine
 62
7
  6
CONTINUOUS
 10
6.5978114439
 20
16.1266190072
 11
9.8179638597
 21
14.5165427993
  0
LINE
  5
4CA
100
AcDbEntity
  8
C_CORPO
100
AcDbLine
 62
7
  6
CONTINUOUS
 10
-5.1001634172
 20
22.4216625124
 11
-1.3369705874
 21
20.5400660975
  0
LINE
  5
4CB
100
AcDbEntity
  8
C_CORPO
100
AcDbLine
 62
250
  6
CONTINUOUS
 10
-14.4016960522
 20
27.5602916093
 11
-2.1225533549
 21
21.4207202606
  0
LINE
  5
4CC
100
AcDbEntity
  8
C_CORPO
100
AcDbLine
 62
250
  6
CONTINUOUS
 10
3.2054326608
 20
18.7567272528
 11
15.4845753581
 21
12.6171559041
  0
LINE
  5
4CD
100
AcDbEntity
  8
C_CORPO
100
AcDbLine
 62
7
  6
CONTINUOUS
 10
-14.3968382825
 20
27.7976624943
 11
-2.5438575143
 21
21.8711721102
  0
LINE
  5
4CE
100
AcDbEntity
  8
C_CORPO
100
AcDbLine
 62
7
  6
CONTINUOUS
 10
16.3511661855
 20
12.4236589047
 11
4.4964825814
 21
18.3510020624
  0
LWPOLYLINE
  5
4CF
100
AcDbEntity
  8
C_CORPO
100
AcDbPolyline
 62
250
  6
CONTINUOUS
 90
55
 70
0
 10
13.5706991266
 20
11.6678591841
 10
13.5916115396
 20
11.6573826627
 10
13.6124958281
 20
11.6461774352
 10
13.6333343286
 20
11.6342529785
 10
13.6541094167
 20
11.6216193779
 10
13.6748035212
 20
11.6082873187
 10
13.6953991398
 20
11.5942680768
 10
13.7158788532
 20
11.5795735091
 10
13.7362253402
 20
11.5642160439
 10
13.7564213924
 20
11.5482086702
 10
13.7764499286
 20
11.5315649265
 10
13.7962940091
 20
11.5142988897
 10
13.8159368504
 20
11.4964251628
 10
13.8353618391
 20
11.4779588631
 10
13.8545525461
 20
11.4589156086
 10
13.8734927405
 20
11.4393115057
 10
13.8921664032
 20
11.4191631351
 10
13.9105577405
 20
11.3984875375
 10
13.9286511976
 20
11.3773021999
 10
13.9464314714
 20
11.3556250401
 10
13.9638835241
 20
11.3334743922
 10
13.9809925951
 20
11.3108689906
 10
13.9977442139
 20
11.2878279541
 10
14.0141242127
 20
11.2643707704
 10
14.0301187377
 20
11.2405172788
 10
14.0457142611
 20
11.2162876539
 10
14.0608975926
 20
11.1917023884
 10
14.0756558908
 20
11.166782276
 10
14.0899766733
 20
11.1415483933
 10
14.1038478281
 20
11.1160220823
 10
14.1172576233
 20
11.0902249326
 10
14.1301947174
 20
11.0641787627
 10
14.1426481685
 20
11.0379056017
 10
14.1546074438
 20
11.0114276706
 10
14.1660624285
 20
10.9847673637
 10
14.1770034344
 20
10.9579472296
 10
14.1874212077
 20
10.9309899521
 10
14.1973069375
 20
10.9039183307
 10
14.2066522626
 20
10.8767552619
 10
14.2154492791
 20
10.8495237195
 10
14.2236905467
 20
10.8222467352
 10
14.2313690952
 20
10.794947379
 10
14.2384784303
 20
10.7676487399
 10
14.245012539
 20
10.7403739065
 10
14.2509658951
 20
10.7131459469
 10
14.2563334633
 20
10.6859878898
 10
14.2611107039
 20
10.6589227047
 10
14.2652935765
 20
10.6319732827
 10
14.2688785433
 20
10.6051624167
 10
14.2718625722
 20
10.5785127826
 10
14.2742431395
 20
10.55204692
 10
14.2760182316
 20
10.5257872129
 10
14.2771863474
 20
10.499755871
 10
14.2777464988
 20
10.4739749109
 10
14.277698212
 20
10.4484661374
  0
LWPOLYLINE
  5
4D0
100
AcDbEntity
  8
C_CORPO
100
AcDbPolyline
 62
250
  6
CONTINUOUS
 90
21
 70
0
 10
-2.5438479701
 20
21.871167338
 10
-2.5347550098
 20
21.8664940999
 10
-2.5154328842
 20
21.855730817
 10
-2.4957568571
 20
21.8436260337
 10
-2.4757362772
 20
21.8301477539
 10
-2.4554174061
 20
21.8152899461
 10
-2.4347848773
 20
21.7990157055
 10
-2.4138333582
 20
21.7812929538
 10
-2.3926192526
 20
21.7621299573
 10
-2.3711061003
 20
21.7414797939
 10
-2.3492985897
 20
21.7193282761
 10
-2.3273091377
 20
21.6957449201
 10
-2.3051212606
 20
21.6707226534
 10
-2.2827053176
 20
21.6442332171
 10
-2.2601492418
 20
21.6163264968
 10
-2.2373883363
 20
21.5869444179
 10
-2.2144335683
 20
21.5561175875
 10
-2.1914818749
 20
21.5240497217
 10
-2.168576852
 20
21.4908220995
 10
-2.1456113065
 20
21.4563751893
 10
-2.1225533549
 20
21.4207202606
  0
LINE
  5
4D1
100
AcDbEntity
  8
C_CONTATTI
100
AcDbLine
 62
7
  6
CONTINUOUS
 10
3.046261238
 20
20.1352007256
 11
3.2897569043
 21
19.9103283949
  0
LINE
  5
4D2
100
AcDbEntity
  8
C_CORPO
100
AcDbLine
 62
7
  6
CONTINUOUS
 10
16.4722346431
 20
4.6583167792
 11
19.1090209088
 21
1.4754341974
  0
LINE
  5
4D3
100
AcDbEntity
  8
C_CORPO
100
AcDbLine
 62
250
  6
CONTINUOUS
 10
19.3014848548
 20
1.404032352
 11
23.1330988581
 21
-3.2211348943
  0
LINE
  5
4D4
100
AcDbEntity
  8
C_CORPO
100
AcDbLine
 62
7
  6
CONTINUOUS
 10
19.5817885092
 20
1.6122774149
 11
23.7628848358
 21
-3.4347523137
  0
LWPOLYLINE
  5
4D5
100
AcDbEntity
  8
C_CORPO
100
AcDbPolyline
 62
7
  6
CONTINUOUS
 90
6
 70
0
 10
23.7628831472
 20
-3.4347502754
 10
23.7632189884
 20
-3.4351661943
 10
23.7650497303
 20
-3.4379394686
 10
23.7663327822
 20
-3.440914954
 10
23.7670670671
 20
-3.4440984075
 10
23.7672596933
 20
-3.4468890889
  0
LINE
  5
4D6
100
AcDbEntity
  8
C_CORPO
100
AcDbLine
 62
7
  6
CONTINUOUS
 10
12.0830484729
 20
10.9742657489
 11
11.2967079887
 21
12.3305024663
  0
LWPOLYLINE
  5
4D7
100
AcDbEntity
  8
C_CORPO
100
AcDbPolyline
 62
250
  6
CONTINUOUS
 90
55
 70
0
 10
11.5003508021
 20
17.2102051581
 10
11.5075194528
 20
17.1874843699
 10
11.5206518299
 20
17.1422175292
 10
11.5329039379
 20
17.0958744251
 10
11.5442697199
 20
17.0484098415
 10
11.554724514
 20
16.9998637732
 10
11.5641719735
 20
16.9503755689
 10
11.5726005334
 20
16.8999080949
 10
11.5799969358
 20
16.848500286
 10
11.586272505
 20
16.7964118947
 10
11.5914237049
 20
16.7431250977
 10
11.5954342165
 20
16.6891642973
 10
11.5982457268
 20
16.6363781342
 10
11.5998259361
 20
16.5851936465
 10
11.6002864432
 20
16.5352348186
 10
11.5998385767
 20
16.48717028
 10
11.5985420389
 20
16.4413837346
 10
11.5964314219
 20
16.3975385429
 10
11.5936799903
 20
16.3552221411
 10
11.5903288662
 20
16.3143375936
 10
11.5863979293
 20
16.2750086845
 10
11.5820147003
 20
16.2371484555
 10
11.5772150967
 20
16.2007822593
 10
11.5720145185
 20
16.1659038658
 10
11.5665028151
 20
16.1323764877
 10
11.5607113217
 20
16.1002227106
 10
11.5546491022
 20
16.0694329204
 10
11.5483657973
 20
16.0398199522
 10
11.5418813245
 20
16.0113754615
 10
11.5352059746
 20
15.9841162597
 10
11.5283693019
 20
15.9578913775
 10
11.5213890072
 20
15.9327024424
 10
11.5142704483
 20
15.9085535179
 10
11.5070205076
 20
15.8852962507
 10
11.4996542897
 20
15.8629304487
 10
11.4921740317
 20
15.8414601071
 10
11.4845640822
 20
15.8207423784
 10
11.476806144
 20
15.8007119027
 10
11.4689312485
 20
15.7814364957
 10
11.4609963285
 20
15.7629728033
 10
11.4530013494
 20
15.7453284096
 10
11.4449578749
 20
15.728497972
 10
11.4369398834
 20
15.7125188357
 10
11.4289725167
 20
15.6974392736
 10
11.4210401162
 20
15.6832130489
 10
11.4131543519
 20
15.6697356446
 10
11.4053309734
 20
15.657019254
 10
11.3975606349
 20
15.645053203
 10
11.3898159303
 20
15.6336983923
 10
11.3821066609
 20
15.6229510221
 10
11.3744270933
 20
15.6128159827
 10
11.3667254794
 20
15.6031669415
 10
11.3589853075
 20
15.5939620074
 10
11.3512256177
 20
15.5852438582
 10
11.3434475067
 20
15.5770128976
  0
LINE
  5
4D8
100
AcDbEntity
  8
RACCORDO
100
AcDbLine
 62
250
  6
CONTINUOUS
 10
3.2458005419
 20
-29.9368310452
 11
2.6234825098
 21
-30.6818904627
  0
LWPOLYLINE
  5
4D9
100
AcDbEntity
  8
C_CORPO
100
AcDbPolyline
 62
250
  6
CONTINUOUS
 90
43
 70
0
 10
3.2054326771
 20
18.7567272609
 10
3.2816118399
 20
18.7549052148
 10
3.3575437369
 20
18.7517069508
 10
3.4331982855
 20
18.747152407
 10
3.5087121813
 20
18.7412704448
 10
3.5838887654
 20
18.7340704761
 10
3.6582006656
 20
18.7255636867
 10
3.7315111776
 20
18.715803346
 10
3.803907021
 20
18.7048232372
 10
3.8752007209
 20
18.6926275946
 10
3.9454058516
 20
18.6792487461
 10
4.0144667643
 20
18.6647420644
 10
4.0820972293
 20
18.6491576282
 10
4.1482340508
 20
18.6325526655
 10
4.2129127789
 20
18.6149735814
 10
4.2760013158
 20
18.5964642984
 10
4.3374894863
 20
18.5770695416
 10
4.3973710811
 20
18.5568459099
 10
4.4555251298
 20
18.5358595942
 10
4.5119225295
 20
18.5141644259
 10
4.5665889739
 20
18.4918067564
 10
4.6194903077
 20
18.468843667
 10
4.6706207952
 20
18.4453194282
 10
4.7199922744
 20
18.421281541
 10
4.7676001594
 20
18.3967911789
 10
4.8134328305
 20
18.3718957114
 10
4.8575166494
 20
18.3466307658
 10
4.8999057133
 20
18.3210374325
 10
4.9406099259
 20
18.2951481883
 10
4.9796386798
 20
18.2690017049
 10
5.0170458964
 20
18.2426451299
 10
5.0528302115
 20
18.2161173935
 10
5.0870169084
 20
18.1894410049
 10
5.1196993752
 20
18.1626349834
 10
5.1508922153
 20
18.1357229506
 10
5.1806053336
 20
18.1087318124
 10
5.2089234562
 20
18.0816818727
 10
5.2358550281
 20
18.0545997316
 10
5.2614168692
 20
18.0275006447
 10
5.2857041691
 20
18.0003847046
 10
5.30873437
 20
17.97326472
 10
5.3305137388
 20
17.9461616152
 10
5.3454691345
 20
17.9265087858
  0
LWPOLYLINE
  5
4DA
100
AcDbEntity
  8
C_CORPO
100
AcDbPolyline
 62
250
  6
CONTINUOUS
 90
21
 70
0
 10
3.2054326608
 20
18.7567272528
 10
3.2789235764
 20
18.7441077483
 10
3.3521976724
 20
18.730434838
 10
3.4252230651
 20
18.7156972525
 10
3.4981222701
 20
18.6998396689
 10
3.5707091747
 20
18.6828956627
 10
3.6424915898
 20
18.6650060811
 10
3.7133351562
 20
18.6462129802
 10
3.7833205035
 20
18.6265017712
 10
3.852282418
 20
18.6059491422
 10
3.9202321039
 20
18.5845629292
 10
3.9871122325
 20
18.5623706275
 10
4.0526595384
 20
18.5394905618
 10
4.1168112821
 20
18.5159706337
 10
4.1795984312
 20
18.4918240513
 10
4.2409039913
 20
18.4671292473
 10
4.3007166815
 20
18.4419212745
 10
4.3590270835
 20
18.4162340634
 10
4.4157259062
 20
18.3901514218
 10
4.47078362
 20
18.363724785
 10
4.4964760756
 20
18.3510053153
  0
LINE
  5
4DB
100
AcDbEntity
  8
RACCORDO
100
AcDbLine
 62
7
  6
CONTINUOUS
 10
-26.6134481128
 20
24.8667959888
 11
-25.9892525158
 21
24.736463369
  0
LINE
  5
4DC
100
AcDbEntity
  8
RACCORDO
100
AcDbLine
 62
250
  6
CONTINUOUS
 10
-26.3866046193
 20
25.0226171496
 11
-25.6753840112
 21
24.8741136267
  0
LWPOLYLINE
  5
4DD
100
AcDbEntity
  8
C_CONTATTI
100
AcDbPolyline
 62
7
  6
CONTINUOUS
 90
9
 70
0
 10
5.3840434449
 20
20.9277874956
 10
5.3779267043
 20
20.9293869933
 10
5.3681564906
 20
20.9309198072
 10
5.3578302952
 20
20.9313352516
 10
5.347043098
 20
20.9306334791
 10
5.3360798391
 20
20.9288149477
 10
5.3250354984
 20
20.9258798102
 10
5.3138150959
 20
20.9218279138
 10
5.3024186316
 20
20.9166592586
  0
LINE
  5
4DE
100
AcDbEntity
  8
C_CONTATTI
100
AcDbLine
 62
7
  6
CONTINUOUS
 10
3.9909806462
 20
20.2609402659
 11
3.5412359848
 21
20.382688099
  0
LWPOLYLINE
  5
4DF
100
AcDbEntity
  8
C_CONTATTI
100
AcDbPolyline
 62
7
  6
CONTINUOUS
 90
28
 70
0
 10
5.3840333087
 20
20.9277635432
 10
5.2753179621
 20
20.959049389
 10
5.1604629191
 20
20.988403066
 10
5.0432014952
 20
21.0147301362
 10
4.9238283304
 20
21.0379922279
 10
4.8026079587
 20
21.0581627807
 10
4.6797785892
 20
21.075222056
 10
4.5556297919
 20
21.0891458975
 10
4.4304463288
 20
21.0999165665
 10
4.3044658113
 20
21.1075239662
 10
4.1779794251
 20
21.1119573449
 10
4.0512767022
 20
21.1132118996
 10
3.9245949567
 20
21.1112871265
 10
3.798223687
 20
21.1061857915
 10
3.6724540964
 20
21.0979165794
 10
3.547524497
 20
21.0864887039
 10
3.4237256224
 20
21.0719188717
 10
3.30134087
 20
21.0542288501
 10
3.1805924339
 20
21.0334346748
 10
3.0617575128
 20
21.0095630747
 10
2.9451216893
 20
20.982648023
 10
2.8309101163
 20
20.9527132557
 10
2.7193949381
 20
20.9197961518
 10
2.6108487417
 20
20.8839395169
 10
2.5054818501
 20
20.8451678994
 10
2.4035350677
 20
20.803515091
 10
2.3052889303
 20
20.7590343165
 10
2.2110048691
 20
20.711776927
  0
LWPOLYLINE
  5
4E0
100
AcDbEntity
  8
C_CONTATTI
100
AcDbPolyline
 62
7
  6
CONTINUOUS
 90
3
 70
0
 10
5.3960841267
 20
20.922969715
 10
5.3872359164
 20
20.9267369626
 10
5.3840434449
 20
20.9277874956
  0
LINE
  5
4E1
100
AcDbEntity
  8
C_CONTATTI
100
AcDbLine
 62
7
  6
CONTINUOUS
 10
3.046261238
 20
20.1352007256
 11
2.3392922979
 21
20.4886851957
  0
LINE
  5
4E2
100
AcDbEntity
  8
C_CONTATTI
100
AcDbLine
 62
7
  6
CONTINUOUS
 10
3.5412359848
 20
20.382688099
 11
2.8342670447
 21
20.7361725691
  0
LINE
  5
4E3
100
AcDbEntity
  8
C_CORPO
100
AcDbLine
 62
7
  6
CONTINUOUS
 10
1.971596776
 20
21.1949171114
 11
2.4323509161
 21
20.9645400413
  0
LINE
  5
4E4
100
AcDbEntity
  8
C_CORPO
100
AcDbLine
 62
7
  6
CONTINUOUS
 10
3.7817901315
 20
21.3278063204
 11
4.0646328439
 21
21.1863849642
  0
LINE
  5
4E5
100
AcDbEntity
  8
C_CORPO
100
AcDbLine
 62
7
  6
CONTINUOUS
 10
6.0226408322
 20
21.0982788789
 11
6.6007885501
 21
20.80920502
  0
LINE
  5
4E6
100
AcDbEntity
  8
C_CORPO
100
AcDbLine
 62
7
  6
CONTINUOUS
 10
6.1753148518
 20
21.0376017217
 11
6.4794342357
 21
20.8855420298
  0
LINE
  5
4E7
100
AcDbEntity
  8
C_CONTATTI
100
AcDbLine
 62
7
  6
CONTINUOUS
 10
6.2446122641
 20
20.4987056463
 11
6.3307350076
 21
20.455604122
  0
LINE
  5
4E8
100
AcDbEntity
  8
C_CONTATTI
100
AcDbLine
 62
7
  6
CONTINUOUS
 10
5.5633832092
 20
20.8390821008
 11
5.3960841267
 21
20.922969715
  0
LINE
  5
4E9
100
AcDbEntity
  8
C_CONTATTI
100
AcDbLine
 62
7
  6
CONTINUOUS
 10
5.7379502806
 20
20.7508577477
 11
5.5633832092
 21
20.8390821008
  0
LINE
  5
4EA
100
AcDbEntity
  8
C_CONTATTI
100
AcDbLine
 62
7
  6
CONTINUOUS
 10
5.9198285913
 20
20.6583009282
 11
5.7379502806
 21
20.7508577477
  0
LWPOLYLINE
  5
4EB
100
AcDbEntity
  8
C_CONTATTI
100
AcDbPolyline
 62
7
  6
CONTINUOUS
 90
3
 70
0
 10
6.2066681968
 20
20.5113733013
 10
6.1091911431
 20
20.5614287329
 10
5.9198285913
 20
20.6583009282
  0
LINE
  5
4EC
100
AcDbEntity
  8
C_CONTATTI
100
AcDbLine
 62
7
  6
CONTINUOUS
 10
6.2144266255
 20
20.5067868292
 11
6.2066681968
 21
20.5113733013
  0
LWPOLYLINE
  5
4ED
100
AcDbEntity
  8
C_CORPO
100
AcDbPolyline
 62
7
  6
CONTINUOUS
 90
10
 70
0
 10
6.4794342357
 20
20.8855420298
 10
6.5194682489
 20
20.8615837173
 10
6.5583704773
 20
20.8372045053
 10
6.5961409207
 20
20.8124043938
 10
6.632797736
 20
20.7871702706
 10
6.6683227664
 20
20.7615152479
 10
6.7026615415
 20
20.7354786619
 10
6.7358122417
 20
20.709059927
 10
6.7677766867
 20
20.6822596288
 10
6.7801735599
 20
20.6713104043
  0
LWPOLYLINE
  5
4EE
100
AcDbEntity
  8
C_CONTATTI
100
AcDbPolyline
 62
250
  6
CONTINUOUS
 90
4
 70
0
 10
6.2446122641
 20
20.4987056463
 10
6.2691352544
 20
20.4782012679
 10
6.2935010161
 20
20.4569230035
 10
6.3072665815
 20
20.4443405423
  0
LWPOLYLINE
  5
4EF
100
AcDbEntity
  8
C_CONTATTI
100
AcDbPolyline
 62
250
  6
CONTINUOUS
 90
5
 70
0
 10
6.1509756649
 20
20.4924096378
 10
6.1738360943
 20
20.4728309044
 10
6.1964136326
 20
20.4524778578
 10
6.2187082798
 20
20.4313504982
 10
6.2387830003
 20
20.4114721143
  0
LWPOLYLINE
  5
4F0
100
AcDbEntity
  8
C_CORPO
100
AcDbPolyline
 62
7
  6
CONTINUOUS
 90
9
 70
0
 10
16.3853504804
 20
12.3834232287
 10
16.3831354248
 20
12.3899888765
 10
16.3803141161
 20
12.3960887885
 10
16.3768874901
 20
12.4017611475
 10
16.3728660756
 20
12.4070060561
 10
16.3682710794
 20
12.4118188075
 10
16.3631169375
 20
12.4161976325
 10
16.3574115631
 20
12.4201441289
 10
16.3511661855
 20
12.4236589047
  0
LINE
  5
4F1
100
AcDbEntity
  8
C_CORPO
100
AcDbLine
 62
250
  6
CONTINUOUS
 10
23.4865984008
 20
-4.147770437
 11
23.4865984008
 21
-15.1514503416
  0
LINE
  5
4F2
100
AcDbEntity
  8
C_CORPO
100
AcDbLine
 62
7
  6
CONTINUOUS
 10
23.7672586004
 20
-3.4468878612
 11
23.7672586004
 21
-14.8041211565
  0
LWPOLYLINE
  5
4F3
100
AcDbEntity
  8
C_CORPO
100
AcDbPolyline
 62
250
  6
CONTINUOUS
 90
31
 70
0
 10
23.4865984008
 20
-15.1514503416
 10
23.4863138993
 20
-15.1924026856
 10
23.4852219088
 20
-15.2329346884
 10
23.4833229937
 20
-15.2730234358
 10
23.4806181352
 20
-15.3126462293
 10
23.4771088653
 20
-15.3517807015
 10
23.4727972543
 20
-15.3904048216
 10
23.4676856907
 20
-15.4284968351
 10
23.4617770236
 20
-15.4660350967
 10
23.455074696
 20
-15.5029981866
 10
23.4475825034
 20
-15.5393651163
 10
23.4393046377
 20
-15.5751153954
 10
23.4302458142
 20
-15.6102288542
 10
23.4204111412
 20
-15.6446856495
 10
23.4098061654
 20
-15.6784662478
 10
23.3984369199
 20
-15.7115514943
 10
23.3863098441
 20
-15.7439226559
 10
23.3734317883
 20
-15.7755614074
 10
23.3598100537
 20
-15.8064498109
 10
23.3454523725
 20
-15.8365703656
 10
23.3303668696
 20
-15.8659060225
 10
23.314562069
 20
-15.8944401734
 10
23.2980469684
 20
-15.9221566191
 10
23.280830913
 20
-15.949039694
 10
23.2629235526
 20
-15.9750742752
 10
23.2443350268
 20
-16.0002456437
 10
23.2250759126
 20
-16.0245394774
 10
23.2051571012
 20
-16.0479419799
 10
23.1845899801
 20
-16.0704398189
 10
23.163386182
 20
-16.0920203022
 10
23.1415575201
 20
-16.112671355
  0
LWPOLYLINE
  5
4F4
100
AcDbEntity
  8
C_CORPO
100
AcDbPolyline
 62
7
  6
CONTINUOUS
 90
12
 70
0
 10
23.7672596933
 20
-3.4468890889
 10
23.7672516861
 20
-3.4474953328
 10
23.766872226
 20
-3.4510950475
 10
23.7659282554
 20
-3.4549029875
 10
23.7644195717
 20
-3.4589243544
 10
23.7623321977
 20
-3.4631481741
 10
23.7596664001
 20
-3.467579505
 10
23.7564227395
 20
-3.4722231967
 10
23.7525878088
 20
-3.4770679979
 10
23.7481578705
 20
-3.4821132493
 10
23.7431390467
 20
-3.4873687012
 10
23.7375330505
 20
-3.4928385661
  0
LWPOLYLINE
  5
4F5
100
AcDbEntity
  8
C_CORPO
100
AcDbPolyline
 62
250
  6
CONTINUOUS
 90
26
 70
0
 10
23.7672374612
 20
-14.807372235
 10
23.7665756607
 20
-14.8225969042
 10
23.7649868936
 20
-14.8378044352
 10
23.7624726335
 20
-14.8529807216
 10
23.7590352127
 20
-14.8681116859
 10
23.7546778197
 20
-14.8831832925
 10
23.7494044965
 20
-14.8981815611
 10
23.7432201345
 20
-14.9130925793
 10
23.7361304705
 20
-14.9279025155
 10
23.7281420807
 20
-14.9425976322
 10
23.7192623753
 20
-14.957164298
 10
23.7094995909
 20
-14.971589001
 10
23.6988627836
 20
-14.9858583608
 10
23.6873618202
 20
-14.9999591412
 10
23.6750073687
 20
-15.0138782622
 10
23.6618108894
 20
-15.0276028125
 10
23.6477846232
 20
-15.0411200611
 10
23.6329415809
 20
-15.0544174695
 10
23.6172955309
 20
-15.067482703
 10
23.6008609864
 20
-15.0803036423
 10
23.5836531922
 20
-15.0928683947
 10
23.5656881103
 20
-15.1051653051
 10
23.546982405
 20
-15.1171829669
 10
23.5275534277
 20
-15.1289102325
 10
23.5074192008
 20
-15.1403362236
 10
23.4865984008
 20
-15.1514503416
  0
LWPOLYLINE
  5
4F6
100
AcDbEntity
  8
C_CORPO
100
AcDbPolyline
 62
7
  6
CONTINUOUS
 90
16
 70
0
 10
23.7375330505
 20
-3.4928385661
 10
23.7280542525
 20
-3.5376075819
 10
23.7174636047
 20
-3.5823661947
 10
23.7057640366
 20
-3.6270684789
 10
23.6929351936
 20
-3.6716571967
 10
23.6790090447
 20
-3.7161030476
 10
23.6640641036
 20
-3.7604045504
 10
23.6481065004
 20
-3.8045238501
 10
23.6311383553
 20
-3.8484215167
 10
23.6132242585
 20
-3.8920948472
 10
23.5943680808
 20
-3.9355085083
 10
23.5745719317
 20
-3.9786261001
 10
23.5538904576
 20
-4.0214428149
 10
23.5323412095
 20
-4.0639334358
 10
23.509909405
 20
-4.1060537809
 10
23.4865984008
 20
-4.147770437
  0
LINE
  5
4F7
100
AcDbEntity
  8
RACCORDO
100
AcDbLine
 62
250
  6
CONTINUOUS
 10
3.5988367299
 20
-30.0626008832
 11
2.8876161218
 21
-30.9140973603
  0
LINE
  5
4F8
100
AcDbEntity
  8
C_CORPO
100
AcDbLine
 62
250
  6
CONTINUOUS
 10
5.5495570844
 20
-24.600280598
 11
23.4865984008
 21
-15.1514503416
  0
LWPOLYLINE
  5
4F9
100
AcDbEntity
  8
RACCORDO
100
AcDbPolyline
 62
7
  6
CONTINUOUS
 90
18
 70
0
 10
-16.4803237352
 20
21.0525531954
 10
-16.4976184032
 20
21.0510608597
 10
-16.5148128014
 20
21.0490672819
 10
-16.5318711391
 20
21.046660099
 10
-16.5487619726
 20
21.0439491454
 10
-16.5654662354
 20
21.0409921328
 10
-16.5819730553
 20
21.0377812847
 10
-16.5982664622
 20
21.0343710569
 10
-16.6143362552
 20
21.0308265272
 10
-16.630179409
 20
21.0271325712
 10
-16.6457882207
 20
21.0233292889
 10
-16.6611573033
 20
21.0194657006
 10
-16.6762840313
 20
21.0155254269
 10
-16.691165049
 20
21.0115393796
 10
-16.7057975749
 20
21.0075452937
 10
-16.7201761998
 20
21.0035281643
 10
-16.7342997528
 20
20.9995130037
 10
-16.7617694985
 20
20.9915653915
  0
LWPOLYLINE
  5
4FA
100
AcDbEntity
  8
C_CORPO
100
AcDbPolyline
 62
7
  6
CONTINUOUS
 90
10
 70
0
 10
6.1753148518
 20
21.0376017217
 10
6.2114156487
 20
21.021896326
 10
6.2469478192
 20
21.0058889928
 10
6.2819113632
 20
20.9895797222
 10
6.3163180302
 20
20.9729626393
 10
6.3501560708
 20
20.956043619
 10
6.3833902365
 20
20.9388402855
 10
6.4160087778
 20
20.9213585135
 10
6.4480234442
 20
20.9035924282
 10
6.4794342357
 20
20.8855420298
  0
LWPOLYLINE
  5
4FB
100
AcDbEntity
  8
C_CORPO
100
AcDbPolyline
 62
7
  6
CONTINUOUS
 90
37
 70
0
 10
5.1470821417
 20
24.599609654
 10
5.1168359335
 20
24.6143804812
 10
5.0776679831
 20
24.6324741219
 10
5.0384645118
 20
24.6494348153
 10
4.9992524882
 20
24.6652674511
 10
4.9600442705
 20
24.6799839363
 10
4.9208408272
 20
24.6935993914
 10
4.8816618616
 20
24.7061212912
 10
4.8425267291
 20
24.717558017
 10
4.8034385795
 20
24.7279223512
 10
4.7644200961
 20
24.7372210512
 10
4.7254901251
 20
24.7454626606
 10
4.6866485363
 20
24.7526596244
 10
4.6479175957
 20
24.7588192851
 10
4.6093180292
 20
24.7639498386
 10
4.5708496423
 20
24.7680624429
 10
4.5325356973
 20
24.7711650663
 10
4.4943971954
 20
24.7732664651
 10
4.4564325201
 20
24.7743764722
 10
4.418667661
 20
24.7745038599
 10
4.3811215347
 20
24.7736582484
 10
4.343783561
 20
24.7718477657
 10
4.3066770839
 20
24.7690809912
 10
4.2698240157
 20
24.7653676065
 10
4.2332132298
 20
24.760713395
 10
4.1968680652
 20
24.755127088
 10
4.1608106595
 20
24.7486181699
 10
4.125029542
 20
24.7411898957
 10
4.0895482919
 20
24.7328514273
 10
4.0543887937
 20
24.7236123823
 10
4.0195386541
 20
24.7134727325
 10
3.9850209413
 20
24.7024415466
 10
3.9508581088
 20
24.6905287902
 10
3.9170385199
 20
24.6777318979
 10
3.883574137
 20
24.6640550696
 10
3.8504991458
 20
24.6495123883
 10
-2.1799069225
 20
21.8644922028
  0
LWPOLYLINE
  5
4FC
100
AcDbEntity
  8
C_CORPO
100
AcDbPolyline
 62
250
  6
CONTINUOUS
 90
28
 70
0
 10
4.7122157168
 20
24.5772431144
 10
4.6788557365
 20
24.5937162465
 10
4.6455083246
 20
24.6091957962
 10
4.6121922001
 20
24.6236729433
 10
4.578926006
 20
24.6371393363
 10
4.5457284841
 20
24.6495874059
 10
4.5126184668
 20
24.6610103435
 10
4.4796144317
 20
24.6714016552
 10
4.4467350502
 20
24.6807553364
 10
4.4139993616
 20
24.6890661818
 10
4.3814258509
 20
24.6963294297
 10
4.349032749
 20
24.7025409299
 10
4.3168385826
 20
24.7076972954
 10
4.2848614688
 20
24.7117955654
 10
4.2531193927
 20
24.7148333654
 10
4.2216305069
 20
24.7168090813
 10
4.1904125314
 20
24.7177215573
 10
4.159483051
 20
24.717570225
 10
4.128859793
 20
24.7163552585
 10
4.0985600363
 20
24.7140773199
 10
4.0686008251
 20
24.7107376596
 10
4.0389992675
 20
24.7063382433
 10
4.0097720749
 20
24.7008815436
 10
3.980935705
 20
24.6943706169
 10
3.9525065757
 20
24.6868092022
 10
3.9245007397
 20
24.6782015641
 10
3.896933993
 20
24.66855255
 10
3.8698220193
 20
24.6578676612
  0
LINE
  5
4FD
100
AcDbEntity
  8
C_CORPO
100
AcDbLine
 62
7
  6
CONTINUOUS
 10
5.9720774828
 20
23.1872421711
 11
8.9352754773
 21
21.7056431738
  0
LINE
  5
4FE
100
AcDbEntity
  8
C_CORPO
100
AcDbLine
 62
250
  6
CONTINUOUS
 10
9.8056924317
 20
22.0305047569
 11
9.7108998274
 21
22.077901059
  0
LINE
  5
4FF
100
AcDbEntity
  8
C_CORPO
100
AcDbLine
 62
250
  6
CONTINUOUS
 10
4.807008321
 20
24.5298468122
 11
4.7122157168
 21
24.5772431144
  0
LINE
  5
500
100
AcDbEntity
  8
C_CORPO
100
AcDbLine
 62
7
  6
CONTINUOUS
 10
10.2405653122
 20
22.0528680865
 11
10.0576059383
 21
22.1443477735
  0
LINE
  5
501
100
AcDbEntity
  8
C_CORPO
100
AcDbLine
 62
7
  6
CONTINUOUS
 10
5.3300479713
 20
24.508126757
 11
5.1470885973
 21
24.599606444
  0
LWPOLYLINE
  5
502
100
AcDbEntity
  8
C_CORPO
100
AcDbPolyline
 62
7
  6
CONTINUOUS
 90
92
 70
0
 10
11.5003508021
 20
19.047463183
 10
11.5099080408
 20
19.0403239844
 10
11.5578449822
 20
19.0030993376
 10
11.6053749687
 20
18.9647724521
 10
11.6525024693
 20
18.9253480795
 10
11.699236403
 20
18.8848245946
 10
11.7455809457
 20
18.8432016307
 10
11.7914932985
 20
18.800520651
 10
11.8369119093
 20
18.7568448282
 10
11.8817918187
 20
18.7122265478
 10
11.9261433476
 20
18.6666645202
 10
11.9699875409
 20
18.6201426127
 10
12.0133303815
 20
18.5726565291
 10
12.0561283853
 20
18.524255752
 10
12.0983282075
 20
18.4750054575
 10
12.1398919849
 20
18.4249576237
 10
12.1808249449
 20
18.3741136036
 10
12.2211385143
 20
18.3224638703
 10
12.260829904
 20
18.2700139598
 10
12.2998669617
 20
18.2168081266
 10
12.3382166725
 20
18.1628948907
 10
12.3758542139
 20
18.1083141578
 10
12.4127731948
 20
18.0530800619
 10
12.4489686612
 20
17.997203366
 10
12.4844285718
 20
17.9407047979
 10
12.5191335504
 20
17.8836171809
 10
12.5530673468
 20
17.8259693755
 10
12.5862143311
 20
17.7677900182
 10
12.6185605982
 20
17.7091054052
 10
12.6500928182
 20
17.6499412506
 10
12.6807959732
 20
17.5903270355
 10
12.7106570925
 20
17.5302890251
 10
12.7396659547
 20
17.4698481571
 10
12.7678100669
 20
17.4090300763
 10
12.7950749857
 20
17.3478653179
 10
12.8214477293
 20
17.2863821538
 10
12.8469153891
 20
17.2246095309
 10
12.8714658461
 20
17.1625753427
 10
12.8950877357
 20
17.1003062695
 10
12.9177680633
 20
17.0378342
 10
12.9394966056
 20
16.9751844686
 10
12.9602660713
 20
16.9123736915
 10
12.9800682652
 20
16.8494199848
 10
12.9988885203
 20
16.786362541
 10
13.0167107573
 20
16.7232493421
 10
13.0335204508
 20
16.6601283931
 10
13.0493139695
 20
16.5970091586
 10
13.0640911995
 20
16.5338814647
 10
13.0778484808
 20
16.4707415319
 10
13.0905677206
 20
16.4076507777
 10
13.1022287386
 20
16.3446961085
 10
13.1128183553
 20
16.2819465908
 10
13.1223381866
 20
16.2193894133
 10
13.1307904336
 20
16.1569881374
 10
13.1381710713
 20
16.0947258377
 10
13.1444647204
 20
16.0326771028
 10
13.1496575209
 20
15.9709416765
 10
13.1537427862
 20
15.909586654
 10
13.1567201494
 20
15.8485989815
 10
13.1585868532
 20
15.7879569325
 10
13.1593367813
 20
15.7276499895
 10
13.1589623927
 20
15.6677446731
 10
13.1574601937
 20
15.6083332016
 10
13.1548297039
 20
15.5494657001
 10
13.1510689711
 20
15.4911429078
 10
13.1461757446
 20
15.4333803951
 10
13.1401461524
 20
15.3761845867
 10
13.1329801802
 20
15.3196000459
 10
13.1246838134
 20
15.2636971268
 10
13.1152585265
 20
15.2084975686
 10
13.104706485
 20
15.1540258949
 10
13.0930406697
 20
15.1003520354
 10
13.0802701341
 20
15.047511107
 10
13.0663973852
 20
14.9955085148
 10
13.0514289147
 20
14.9443666536
 10
13.0353582306
 20
14.8940673307
 10
13.0182027869
 20
14.8446696409
 10
13.0000131243
 20
14.7963052904
 10
12.9808278107
 20
14.749044349
 10
12.9606403954
 20
14.7028407692
 10
12.9394378461
 20
14.6576491727
 10
12.917198721
 20
14.6134224976
 10
12.8939648216
 20
14.570242905
 10
12.8698241365
 20
14.5282537576
 10
12.844842491
 20
14.4875307771
 10
12.8190020852
 20
14.448007943
 10
12.7922698219
 20
14.4096133361
 10
12.7646385035
 20
14.3723267312
 10
12.7361493844
 20
14.3361942661
 10
12.7068392476
 20
14.3012483825
 10
12.6767355075
 20
14.2675053416
 10
12.6724683169
 20
14.2630091946
  0
LWPOLYLINE
  5
503
100
AcDbEntity
  8
C_CORPO
100
AcDbPolyline
 62
250
  6
CONTINUOUS
 90
4
 70
0
 10
23.1415575201
 20
-16.112671355
 10
23.1191163196
 20
-16.1323813011
 10
23.0960754204
 20
-16.151138884
 10
23.0724479251
 20
-16.1689334406
  0
LWPOLYLINE
  5
504
100
AcDbEntity
  8
C_CORPO
100
AcDbPolyline
 62
7
  6
CONTINUOUS
 90
37
 70
0
 10
23.1470303843
 20
-16.1225604913
 10
23.1687016739
 20
-16.1065298237
 10
23.1991233884
 20
-16.0828956254
 10
23.2289620377
 20
-16.0583579794
 10
23.2581817027
 20
-16.0329398149
 10
23.2867662143
 20
-16.006648861
 10
23.3147181124
 20
-15.9794745747
 10
23.3420120985
 20
-15.9514315269
 10
23.3686236622
 20
-15.9225349012
 10
23.3945543014
 20
-15.8927708315
 10
23.4197799901
 20
-15.8621527603
 10
23.4442751136
 20
-15.8306976931
 10
23.4680364423
 20
-15.7983932148
 10
23.4910401052
 20
-15.7652526004
 10
23.513261256
 20
-15.7312930437
 10
23.534693154
 20
-15.6965036595
 10
23.5553113981
 20
-15.6608996569
 10
23.5750931441
 20
-15.6244959378
 10
23.5940319841
 20
-15.5872765653
 10
23.6121034483
 20
-15.5492573519
 10
23.6292852927
 20
-15.5104512581
 10
23.6455716474
 20
-15.4708328136
 10
23.6609469315
 20
-15.4303913663
 10
23.6753774008
 20
-15.3891632858
 10
23.6888316831
 20
-15.3471900937
 10
23.7012918118
 20
-15.3044784509
 10
23.7127357528
 20
-15.2610485586
 10
23.7231341805
 20
-15.2169607398
 10
23.7324726012
 20
-15.172226391
 10
23.7407354977
 20
-15.1268604642
 10
23.747901106
 20
-15.0809274437
 10
23.7539588526
 20
-15.0344389003
 10
23.7588974549
 20
-14.9874082786
 10
23.7627023944
 20
-14.9399008931
 10
23.7653651958
 20
-14.8919451246
 10
23.766879556
 20
-14.8435365493
 10
23.7672585869
 20
-14.804122654
  0
LINE
  5
505
100
AcDbEntity
  8
C_CORPO
100
AcDbLine
 62
7
  6
CONTINUOUS
 10
11.2967079887
 20
-22.5277983343
 11
11.8675685808
 21
-22.1140700479
  0
LINE
  5
506
100
AcDbEntity
  8
C_CORPO
100
AcDbLine
 62
250
  6
CONTINUOUS
 10
23.0724479251
 20
-16.1689334406
 11
22.9713301852
 21
-16.2422180041
  0
LINE
  5
507
100
AcDbEntity
  8
C_CORPO
100
AcDbLine
 62
7
  6
CONTINUOUS
 10
23.1470155192
 20
-16.1225713078
 11
23.0458977792
 21
-16.1958558713
  0
LWPOLYLINE
  5
508
100
AcDbEntity
  8
C_CORPO
100
AcDbPolyline
 62
250
  6
CONTINUOUS
 90
5
 70
0
 10
23.1470155192
 20
-16.1225713078
 10
23.1340255779
 20
-16.1317335144
 10
23.114007072
 20
-16.1449091315
 10
23.0934748392
 20
-16.1573129422
 10
23.0724479251
 20
-16.1689334406
  0
LWPOLYLINE
  5
509
100
AcDbEntity
  8
C_CORPO
100
AcDbPolyline
 62
250
  6
CONTINUOUS
 90
5
 70
0
 10
23.045895055
 20
-16.1958578456
 10
23.0296430523
 20
-16.2072433014
 10
23.0106569863
 20
-16.2195952376
 10
22.991213994
 20
-16.2312566909
 10
22.9713301852
 20
-16.2422180041
  0
LWPOLYLINE
  5
50A
100
AcDbEntity
  8
C_CORPO
100
AcDbPolyline
 62
250
  6
CONTINUOUS
 90
4
 70
0
 10
22.9265422552
 20
-16.2701526981
 10
22.9416902536
 20
-16.261681401
 10
22.9567206847
 20
-16.2523160175
 10
22.9713301852
 20
-16.2422180041
  0
LINE
  5
50B
100
AcDbEntity
  8
C_CORPO
100
AcDbLine
 62
250
  6
CONTINUOUS
 10
22.9713301852
 20
-16.2422180041
 11
11.8675685808
 21
-22.1140700479
  0
LINE
  5
50C
100
AcDbEntity
  8
C_CORPO
100
AcDbLine
 62
7
  6
CONTINUOUS
 10
22.9265422552
 20
-16.2701526981
 11
11.8458764785
 21
-22.1297912878
  0
LINE
  5
50D
100
AcDbEntity
  8
C_CORPO
100
AcDbLine
 62
7
  6
CONTINUOUS
 10
11.2967079887
 20
-22.5277983343
 11
5.5495570844
 21
-25.5669864028
  0
LINE
  5
50E
100
AcDbEntity
  8
C_CORPO
100
AcDbLine
 62
250
  6
CONTINUOUS
 10
5.5495570844
 20
-25.3995985339
 11
23.0724479251
 21
-16.1689334406
  0
LWPOLYLINE
  5
50F
100
AcDbEntity
  8
RACCORDO
100
AcDbPolyline
 62
250
  6
CONTINUOUS
 90
34
 70
0
 10
-1.3471962703
 20
-30.4160112563
 10
-1.364490602
 20
-30.424814816
 10
-1.3825160635
 20
-30.4332004825
 10
-1.4012327228
 20
-30.4411496791
 10
-1.4205991167
 20
-30.4486447956
 10
-1.4405723426
 20
-30.4556692281
 10
-1.4611081536
 20
-30.4622074154
 10
-1.4821610564
 20
-30.4682448732
 10
-1.5036844123
 20
-30.4737682268
 10
-1.5256305404
 20
-30.4787652401
 10
-1.5479508232
 20
-30.4832248433
 10
-1.5705958143
 20
-30.4871371569
 10
-1.5935153479
 20
-30.4904935139
 10
-1.6166586502
 20
-30.493286479
 10
-1.6399744515
 20
-30.4955098649
 10
-1.6634111002
 20
-30.497158746
 10
-1.6869166766
 20
-30.4982294697
 10
-1.7104391087
 20
-30.4987196638
 10
-1.7339262868
 20
-30.4986282426
 10
-1.7573261797
 20
-30.4979554084
 10
-1.7805869492
 20
-30.4967026518
 10
-1.8036570655
 20
-30.4948727482
 10
-1.8264854212
 20
-30.4924697512
 10
-1.8490214441
 20
-30.4894989843
 10
-1.8712152102
 20
-30.4859670287
 10
-1.8930175532
 20
-30.4818817087
 10
-1.9143801742
 20
-30.4772520746
 10
-1.9352557484
 20
-30.4720883825
 10
-1.9555980297
 20
-30.4664020715
 10
-1.9753619538
 20
-30.4602057386
 10
-1.9945037374
 20
-30.4535131106
 10
-2.0129809754
 20
-30.4463390139
 10
-2.0307527351
 20
-30.4386993411
 10
-2.0477796464
 20
-30.4306110166
  0
LINE
  5
510
100
AcDbEntity
  8
RACCORDO
100
AcDbLine
 62
7
  6
CONTINUOUS
 10
9.2175635574
 20
-24.0908957967
 11
5.5495570844
 21
-25.9320309241
  0
LINE
  5
511
100
AcDbEntity
  8
RACCORDO
100
AcDbLine
 62
7
  6
CONTINUOUS
 10
10.1052698434
 20
-23.5269944771
 11
5.5495570844
 21
-25.7866615907
  0
LINE
  5
512
100
AcDbEntity
  8
RACCORDO
100
AcDbLine
 62
250
  6
CONTINUOUS
 10
4.9343808469
 20
-28.5655109101
 11
5.5495570844
 21
-28.2620141983
  0
LWPOLYLINE
  5
513
100
AcDbEntity
  8
C_CORPO
100
AcDbPolyline
 62
7
  6
CONTINUOUS
 90
3
 70
0
 10
-17.1132311769
 20
24.2696272149
 10
-17.1078227116
 20
24.2705569286
 10
-17.1022898112
 20
24.2711321454
  0
LINE
  5
514
100
AcDbEntity
  8
0
100
AcDbLine
 62
7
  6
CONTINUOUS
 10
-13.2948386342
 20
25.3836588569
 11
-14.6547705743
 21
25.3099106695
  0
LWPOLYLINE
  5
515
100
AcDbEntity
  8
C_CORPO
100
AcDbPolyline
 62
7
  6
CONTINUOUS
 90
11
 70
0
 10
-17.1022898112
 20
24.2711321454
 10
-17.0966431654
 20
24.2713516762
 10
-17.0908933662
 20
24.2712151566
 10
-17.0850512743
 20
24.2707228717
 10
-17.0791282585
 20
24.2698756259
 10
-17.0731354209
 20
24.268675101
 10
-17.0670840352
 20
24.2671236229
 10
-17.06098591
 20
24.2652239704
 10
-17.0548526271
 20
24.2629797416
 10
-17.0486955206
 20
24.2603953529
 10
-17.0425261136
 20
24.2574757952
  0
LWPOLYLINE
  5
516
100
AcDbEntity
  8
RACCORDO
100
AcDbPolyline
 62
7
  6
CONTINUOUS
 90
17
 70
0
 10
4.4304082367
 20
-30.6056856785
 10
4.4371214565
 20
-30.6012399293
 10
4.443492033
 20
-30.5962032643
 10
4.4495025326
 20
-30.5905894748
 10
4.455136511
 20
-30.5844139355
 10
4.4603784671
 20
-30.5776936028
 10
4.4652140285
 20
-30.5704468998
 10
4.4696300379
 20
-30.5626936465
 10
4.473614302
 20
-30.5544551394
 10
4.4771558638
 20
-30.5457539791
 10
4.4802451766
 20
-30.5366139417
 10
4.4828736557
 20
-30.527060139
 10
4.4850340286
 20
-30.5171187921
 10
4.4867205942
 20
-30.5068170462
 10
4.4879287233
 20
-30.4961831434
 10
4.4886548707
 20
-30.4852463453
 10
4.4888969127
 20
-30.4740366948
  0
LINE
  5
517
100
AcDbEntity
  8
RACCORDO
100
AcDbLine
 62
7
  6
CONTINUOUS
 10
4.4247917895
 20
-30.6088144773
 11
4.4304082367
 21
-30.6056856785
  0
LWPOLYLINE
  5
518
100
AcDbEntity
  8
RACCORDO
100
AcDbPolyline
 62
250
  6
CONTINUOUS
 90
18
 70
0
 10
4.9534815992
 20
-30.3375865978
 10
4.9590738287
 20
-30.3344722906
 10
4.9657913455
 20
-30.3300266632
 10
4.9721622697
 20
-30.3249918344
 10
4.9781691002
 20
-30.3193816161
 10
4.9837953439
 20
-30.3132114013
 10
4.9890255674
 20
-30.3064981099
 10
4.9938454312
 20
-30.2992601411
 10
4.9982417129
 20
-30.2915173441
 10
5.0022023559
 20
-30.2832909472
 10
5.0057164983
 20
-30.2746035048
 10
5.0087744999
 20
-30.2654788429
 10
5.0113679762
 20
-30.2559419741
 10
5.0134898125
 20
-30.2460190533
 10
5.015134186
 20
-30.2357373164
 10
5.0162965896
 20
-30.2251249676
 10
5.0169738405
 20
-30.2142110984
 10
5.0171640844
 20
-30.2030256362
  0
LWPOLYLINE
  5
519
100
AcDbEntity
  8
RACCORDO
100
AcDbPolyline
 62
250
  6
CONTINUOUS
 90
18
 70
0
 10
2.8213545866
 20
-31.3899218927
 10
2.8287215128
 20
-31.3859156461
 10
2.8354329886
 20
-31.381468182
 10
2.8418056111
 20
-31.3764277
 10
2.8478219402
 20
-31.3708080138
 10
2.8534655333
 20
-31.3646244849
 10
2.8587209811
 20
-31.3578939678
 10
2.8635737911
 20
-31.3506349915
 10
2.8680105189
 20
-31.3428677098
 10
2.8720189595
 20
-31.3346136329
 10
2.8755882546
 20
-31.3258952787
 10
2.8787087408
 20
-31.3167363166
 10
2.8813723665
 20
-31.3071598333
 10
2.8835711342
 20
-31.2971939413
 10
2.8852981318
 20
-31.2868721822
 10
2.8865492674
 20
-31.2762255793
 10
2.8873223514
 20
-31.2652818142
 10
2.8876161218
 20
-31.2540712945
  0
LINE
  5
51A
100
AcDbEntity
  8
RACCORDO
100
AcDbLine
 62
250
  6
CONTINUOUS
 10
5.0171640844
 20
-30.2030256362
 11
4.4888969127
 21
-30.4740366948
  0
LINE
  5
51B
100
AcDbEntity
  8
RACCORDO
100
AcDbLine
 62
7
  6
CONTINUOUS
 10
4.9534760469
 20
-30.3375894465
 11
4.4247918129
 21
-30.6088144659
  0
LINE
  5
51C
100
AcDbEntity
  8
RACCORDO
100
AcDbLine
 62
7
  6
CONTINUOUS
 10
4.4230553755
 20
-30.6096826987
 11
4.4247917895
 21
-30.6088144773
  0
LINE
  5
51D
100
AcDbEntity
  8
RACCORDO
100
AcDbLine
 62
7
  6
CONTINUOUS
 10
4.7997362254
 20
-28.8382859647
 11
5.4186848167
 21
-28.5329281652
  0
LINE
  5
51E
100
AcDbEntity
  8
RACCORDO
100
AcDbLine
 62
250
  6
CONTINUOUS
 10
4.4888969127
 20
-30.4740366948
 11
2.8876161218
 21
-31.2540712945
  0
LINE
  5
51F
100
AcDbEntity
  8
RACCORDO
100
AcDbLine
 62
7
  6
CONTINUOUS
 10
4.4230553991
 20
-30.6096826872
 11
2.8213545293
 21
-31.3899219207
  0
LINE
  5
520
100
AcDbEntity
  8
RACCORDO
100
AcDbLine
 62
7
  6
CONTINUOUS
 10
4.7997362254
 20
-28.8382859647
 11
4.7893473948
 21
-28.8430237138
  0
LINE
  5
521
100
AcDbEntity
  8
RACCORDO
100
AcDbLine
 62
250
  6
CONTINUOUS
 10
-0.666008611
 20
-30.9163269244
 11
4.9343808469
 21
-28.5655109101
  0
LINE
  5
522
100
AcDbEntity
  8
RACCORDO
100
AcDbLine
 62
7
  6
CONTINUOUS
 10
-0.8198158564
 20
-31.1975226228
 11
4.7893470526
 21
-28.84302387
  0
LWPOLYLINE
  5
523
100
AcDbEntity
  8
ASSI
100
AcDbPolyline
 62
7
  6
CONTINUOUS
 90
17
 70
0
 10
-16.6758081237
 20
27.0342030081
 10
-16.664761338
 20
27.0373062102
 10
-16.6531594771
 20
27.0397792602
 10
-16.6410000934
 20
27.0416054244
 10
-16.6282580546
 20
27.0427854428
 10
-16.614957529
 20
27.0432826756
 10
-16.6011787321
 20
27.0430278387
 10
-16.5869333156
 20
27.0419936533
 10
-16.5722325065
 20
27.0401792966
 10
-16.5571691035
 20
27.0375638411
 10
-16.5417971702
 20
27.0341383555
 10
-16.5261041695
 20
27.0298948726
 10
-16.5100882792
 20
27.0248175215
 10
-16.4938036536
 20
27.0189131366
 10
-16.4772411916
 20
27.0121572742
 10
-16.4603009026
 20
27.0044789715
 10
-16.4508017639
 20
26.9998451051
  0
ARC
  5
524
100
AcDbEntity
  8
C_CORPO
100
AcDbCircle
 62
7
  6
CONTINUOUS
 10
22.4590656226
 20
-15.3861472693
 40
1.0
100
AcDbArc
 50
297.8706209239
 51
305.9323364298
  0
ARC
  5
525
100
AcDbEntity
  8
RACCORDO
100
AcDbCircle
 62
7
  6
CONTINUOUS
 10
4.8393619414
 20
-29.7676214872
 40
0.25
100
AcDbArc
 50
0.0
 51
63.4365697055
  0
ARC
  5
526
100
AcDbEntity
  8
RACCORDO
100
AcDbCircle
 62
7
  6
CONTINUOUS
 10
4.8393619414
 20
-30.115153004
 40
0.25
100
AcDbArc
 50
297.1601123922
 51
0.000076993
  0
ARC
  5
527
100
AcDbEntity
  8
RACCORDO
100
AcDbCircle
 62
7
  6
CONTINUOUS
 10
2.7118708575
 20
-31.165170223
 40
0.25
100
AcDbArc
 50
243.4349674083
 51
295.9721947495
  0
ARC
  5
528
100
AcDbEntity
  8
RACCORDO
100
AcDbCircle
 62
7
  6
CONTINUOUS
 10
1.3868861777
 20
-30.5026778831
 40
0.25
100
AcDbArc
 50
180.0
 51
243.4353081232
  0
ARC
  5
529
100
AcDbEntity
  8
RACCORDO
100
AcDbCircle
 62
7
  6
CONTINUOUS
 10
1.3868861777
 20
11.1369001904
 40
0.25
100
AcDbArc
 50
180.0001799146
 51
243.4432178827
  0
ARC
  5
52A
100
AcDbEntity
  8
RACCORDO
100
AcDbCircle
 62
7
  6
CONTINUOUS
 10
2.7118708575
 20
10.4744078505
 40
0.25
100
AcDbArc
 50
243.4321739261
 51
258.2060367178
  0
ARC
  5
52B
100
AcDbEntity
  8
RACCORDO
100
AcDbCircle
 62
7
  6
CONTINUOUS
 10
1.3868861777
 20
11.4768741246
 40
0.25
100
AcDbArc
 50
117.1587468545
 51
180.0
  0
ARC
  5
52C
100
AcDbEntity
  8
RACCORDO
100
AcDbCircle
 62
7
  6
CONTINUOUS
 10
3.5020357808
 20
12.5481772492
 40
0.25
100
AcDbArc
 50
63.433410125
 51
115.9721801256
  0
ARC
  5
52D
100
AcDbEntity
  8
RACCORDO
100
AcDbCircle
 62
7
  6
CONTINUOUS
 10
4.8393619414
 20
11.8795141689
 40
0.25
100
AcDbArc
 50
359.9999199818
 51
63.4333226918
  0
ARC
  5
52E
100
AcDbEntity
  8
RACCORDO
100
AcDbCircle
 62
7
  6
CONTINUOUS
 10
4.8393619414
 20
11.5319826521
 40
0.25
100
AcDbArc
 50
320.5924423202
 51
360.0
  0
ARC
  5
52F
100
AcDbEntity
  8
RACCORDO
100
AcDbCircle
 62
7
  6
CONTINUOUS
 10
-8.524956223
 20
18.5616732511
 40
0.25
100
AcDbArc
 50
0.0015552359
 51
63.4349488229
  0
ARC
  5
530
100
AcDbEntity
  8
RACCORDO
100
AcDbCircle
 62
7
  6
CONTINUOUS
 10
-8.524956223
 20
18.2141417343
 40
0.25
100
AcDbArc
 50
320.5921470261
 51
359.9994700706
  0
ARC
  5
531
100
AcDbEntity
  8
RACCORDO
100
AcDbCircle
 62
7
  6
CONTINUOUS
 10
-9.8622823836
 20
19.2303363314
 40
0.25
100
AcDbArc
 50
63.4349488229
 51
115.9738727385
  0
ARC
  5
532
100
AcDbEntity
  8
RACCORDO
100
AcDbCircle
 62
7
  6
CONTINUOUS
 10
-11.9774319868
 20
18.1590332068
 40
0.25
100
AcDbArc
 50
117.1586821941
 51
179.9985339793
  0
ARC
  5
533
100
AcDbEntity
  8
RACCORDO
100
AcDbCircle
 62
7
  6
CONTINUOUS
 10
-11.9774319868
 20
17.8190592727
 40
0.25
100
AcDbArc
 50
180.0001799146
 51
243.4432178827
  0
ARC
  5
534
100
AcDbEntity
  8
RACCORDO
100
AcDbCircle
 62
7
  6
CONTINUOUS
 10
-10.652447307
 20
17.1565669327
 40
0.25
100
AcDbArc
 50
243.4321739261
 51
258.2060367178
  0
ARC
  5
535
100
AcDbEntity
  8
RACCORDO
100
AcDbCircle
 62
7
  6
CONTINUOUS
 10
-13.1980317192
 20
18.4293591389
 40
0.25
100
AcDbArc
 50
243.4321739261
 51
258.2060367178
  0
ARC
  5
536
100
AcDbEntity
  8
RACCORDO
100
AcDbCircle
 62
7
  6
CONTINUOUS
 10
-11.0705406353
 20
19.8344654572
 40
0.25
100
AcDbArc
 50
359.9999199818
 51
63.4333226918
  0
ARC
  5
537
100
AcDbEntity
  8
RACCORDO
100
AcDbCircle
 62
7
  6
CONTINUOUS
 10
-11.0705406353
 20
19.4869339405
 40
0.25
100
AcDbArc
 50
320.5924423202
 51
360.0
  0
ARC
  5
538
100
AcDbEntity
  8
RACCORDO
100
AcDbCircle
 62
7
  6
CONTINUOUS
 10
-12.4078667958
 20
20.5031285375
 40
0.25
100
AcDbArc
 50
63.433410125
 51
115.9721801256
  0
ARC
  5
539
100
AcDbEntity
  8
RACCORDO
100
AcDbCircle
 62
7
  6
CONTINUOUS
 10
-14.523016399
 20
19.4318254129
 40
0.25
100
AcDbArc
 50
117.1587468545
 51
180.0
  0
ARC
  5
53A
100
AcDbEntity
  8
RACCORDO
100
AcDbCircle
 62
7
  6
CONTINUOUS
 10
-14.523016399
 20
19.0918514788
 40
0.25
100
AcDbArc
 50
180.0001799146
 51
243.4432178827
  0
ARC
  5
53B
100
AcDbEntity
  8
RACCORDO
100
AcDbCircle
 62
7
  6
CONTINUOUS
 10
-24.4348587997
 20
26.5166245394
 40
0.25
100
AcDbArc
 50
0.0015552359
 51
63.4349488229
  0
ARC
  5
53C
100
AcDbEntity
  8
RACCORDO
100
AcDbCircle
 62
7
  6
CONTINUOUS
 10
-24.4348587997
 20
26.1690930227
 40
0.25
100
AcDbArc
 50
320.5921470261
 51
359.9994700706
  0
ARC
  5
53D
100
AcDbEntity
  8
RACCORDO
100
AcDbCircle
 62
7
  6
CONTINUOUS
 10
-25.7721849603
 20
27.1852876197
 40
0.25
100
AcDbArc
 50
63.4349488229
 51
115.9738727385
  0
ARC
  5
53E
100
AcDbEntity
  8
RACCORDO
100
AcDbCircle
 62
7
  6
CONTINUOUS
 10
-27.8873345635
 20
26.1139844951
 40
0.25
100
AcDbArc
 50
117.1586821941
 51
179.9985339793
  0
ARC
  5
53F
100
AcDbEntity
  8
RACCORDO
100
AcDbCircle
 62
7
  6
CONTINUOUS
 10
-27.8873345635
 20
25.774010561
 40
0.25
100
AcDbArc
 50
180.0001799146
 51
243.4432178827
  0
ARC
  5
540
100
AcDbEntity
  8
RACCORDO
100
AcDbCircle
 62
7
  6
CONTINUOUS
 10
-26.5623498836
 20
25.1115182211
 40
0.25
100
AcDbArc
 50
243.4321739261
 51
258.2060367178
  0
ARC
  5
541
100
AcDbEntity
  8
C_CORPO
100
AcDbCircle
 62
7
  6
CONTINUOUS
 10
-13.7289983212
 20
22.9810726354
 40
0.2
100
AcDbArc
 50
24.8507925409
 51
63.4360208217
  0
ARC
  5
542
100
AcDbEntity
  8
C_CORPO
100
AcDbCircle
 62
7
  6
CONTINUOUS
 10
-17.3362583773
 20
23.9257242512
 40
0.2
100
AcDbArc
 50
118.3478796169
 51
137.3554650755
  0
ARC
  5
543
100
AcDbEntity
  8
C_CORPO
100
AcDbCircle
 62
7
  6
CONTINUOUS
 10
1.2107459984
 20
15.5112004757
 40
0.2
100
AcDbArc
 50
63.4349750243
 51
114.789066583
  0
ARC
  5
544
100
AcDbEntity
  8
C_CORPO
100
AcDbCircle
 62
7
  6
CONTINUOUS
 10
0.3414111523
 20
15.0868894863
 40
0.2
100
AcDbArc
 50
118.3478796169
 51
137.3554650755
  0
ELLIPSE
  5
545
100
AcDbEntity
  8
C_CORPO
100
AcDbEllipse
 62
7
  6
CONTINUOUS
 10
3.7110794534
 20
20.1204466339
 30
0.0
 11
2.7499831596
 21
-0.0194567514
 31
0.0
 40
0.4946372042
 41
2.368420792
 42
2.8686753519
  0
ELLIPSE
  5
546
100
AcDbEntity
  8
C_CORPO
100
AcDbEllipse
 62
7
  6
CONTINUOUS
 10
9.2902497614
 20
21.4099918732
 30
0.0
 11
0.79574694
 21
0.7129684349
 31
0.0
 40
0.2882345029
 41
0.1134874798
 42
0.7807533904
  0
ELLIPSE
  5
547
100
AcDbEntity
  8
C_CORPO
100
AcDbEllipse
 62
7
  6
CONTINUOUS
 10
5.2029769572
 20
23.4536282753
 30
0.0
 11
-0.3106730325
 21
1.1082908718
 31
0.0
 40
0.6760995073
 41
4.8467711056
 42
6.4001141399
  0
ELLIPSE
  5
548
100
AcDbEntity
  8
C_CORPO
100
AcDbEllipse
 62
7
  6
CONTINUOUS
 10
3.6863196296
 20
21.593932497
 30
0.0
 11
3.4744051599
 21
-0.048712953
 31
0.0
 40
0.4892378494
 41
2.3616770883
 42
5.5059722822
  0
ELLIPSE
  5
549
100
AcDbEntity
  8
C_CORPO
100
AcDbEllipse
 62
7
  6
CONTINUOUS
 10
4.3828308955
 20
20.4491425502
 30
0.0
 11
2.7583783481
 21
-0.0195161492
 31
0.0
 40
0.4946372042
 41
0.272125319
 42
2.3596941457
  0
ELLIPSE
  5
54A
100
AcDbEntity
  8
C_CORPO
100
AcDbEllipse
 62
7
  6
CONTINUOUS
 10
13.9589881935
 20
1.6402550487
 30
0.0
 11
2.340051103
 21
-1.4604806797
 31
0.0
 40
0.733845309
 41
0.2121322929
 42
0.646762192
  0
ELLIPSE
  5
54B
100
AcDbEntity
  8
C_CORPO
100
AcDbEllipse
 62
7
  6
CONTINUOUS
 10
18.5820383264
 20
1.2515665217
 30
0.0
 11
1.0028172176
 21
0.355375244
 31
0.0
 40
0.1246704976
 41
-0.8158515838
 42
0.5707443566
  0
ELLIPSE
  5
54C
100
AcDbEntity
  8
ASSI
100
AcDbEllipse
 62
7
  6
CONTINUOUS
 10
-16.7288081602
 20
26.5798330733
 30
0.0
 11
0.2257019663
 21
0.4461636818
 31
0.0
 40
0.6159267166
 41
0.5380090616
 42
0.6817883054
  0
ELLIPSE
  5
54D
100
AcDbEntity
  8
RACCORDO
100
AcDbEllipse
 62
7
  6
CONTINUOUS
 10
9.7455999432
 20
13.4950816846
 30
0.0
 11
0.499996712
 21
0.0035883639
 31
0.0
 40
0.5053247124
 41
-0.7715714568
 42
-0.0036265858
  0
ELLIPSE
  5
54E
100
AcDbEntity
  8
DRAFT
100
AcDbEllipse
 62
7
  6
CONTINUOUS
 10
-0.4962058947
 20
14.6920380705
 30
0.0
 11
0.9999934239
 21
0.0071767279
 31
0.0
 40
0.5053247124
 41
0.9446554461
 42
2.3525679043
  0
ELLIPSE
  5
54F
100
AcDbEntity
  8
ASSI
100
AcDbEllipse
 62
7
  6
CONTINUOUS
 10
-0.8189055835
 20
18.6248817849
 30
0.0
 11
0.2257019663
 21
0.4461636818
 31
0.0
 40
0.6159267166
 41
0.5380090616
 42
0.6817883054
  0
ELLIPSE
  5
550
100
AcDbEntity
  8
RACCORDO
100
AcDbEllipse
 62
7
  6
CONTINUOUS
 10
5.1959498377
 20
9.846603184
 30
0.0
 11
-0.2237046003
 21
0.4472532382
 31
0.0
 40
0.6122950388
 41
-2.2557482655
 42
-0.6847996396
  0
ELLIPSE
  5
551
100
AcDbEntity
  8
RACCORDO
100
AcDbEllipse
 62
7
  6
CONTINUOUS
 10
5.1959498377
 20
-28.0852765249
 30
0.0
 11
-0.2236445579
 21
0.4471998343
 31
0.0
 40
0.6124778111
 41
-3.1449090135
 42
-2.255529033
  0
ELLIPSE
  5
552
100
AcDbEntity
  8
RACCORDO
100
AcDbEllipse
 62
7
  6
CONTINUOUS
 10
-17.7698203886
 20
27.1924009347
 30
0.0
 11
0.9987332359
 21
0.6172510855
 31
0.0
 40
0.0815198604
 41
0.0503394717
 42
0.7263320369
  0
ELLIPSE
  5
553
100
AcDbEntity
  8
RACCORDO
100
AcDbEllipse
 62
7
  6
CONTINUOUS
 10
-1.8599178119
 20
19.2374496464
 30
0.0
 11
0.9987332359
 21
0.6172510855
 31
0.0
 40
0.0815198604
 41
0.0503394717
 42
0.7263320369
  0
ELLIPSE
  5
554
100
AcDbEntity
  8
RACCORDO
100
AcDbEllipse
 62
7
  6
CONTINUOUS
 10
9.9184728217
 20
-23.5815285931
 30
0.0
 11
0.9987332359
 21
0.6172510855
 31
0.0
 40
0.0815198604
 41
-2.3978073241
 42
-1.2925747589
  0
ELLIPSE
  5
555
100
AcDbEntity
  8
RACCORDO
100
AcDbEllipse
 62
7
  6
CONTINUOUS
 10
-6.1509972474
 20
16.1023621162
 30
0.0
 11
0.4999985559
 21
0.0023864752
 31
0.0
 40
0.5035541159
 41
2.3596088132
 42
3.0002042076
  0
ELLIPSE
  5
556
100
AcDbEntity
  8
RACCORDO
100
AcDbEllipse
 62
7
  6
CONTINUOUS
 10
-22.0608998241
 20
24.0573134046
 30
0.0
 11
0.4999985559
 21
0.0023864752
 31
0.0
 40
0.5035541159
 41
2.3596088132
 42
3.0002042076
  0
ELLIPSE
  5
557
100
AcDbEntity
  8
RACCORDO
100
AcDbEllipse
 62
7
  6
CONTINUOUS
 10
9.7165269288
 20
12.8333059126
 30
0.0
 11
0.0886155504
 21
0.1792981373
 31
0.0
 40
0.6088015717
 41
-2.4538695918
 42
-0.8888910292
  0
ELLIPSE
  5
558
100
AcDbEntity
  8
DRAFT
100
AcDbEllipse
 62
7
  6
CONTINUOUS
 10
-16.3749533292
 20
25.6625415854
 30
0.0
 11
0.4279673669
 21
-0.0030279657
 31
0.0
 40
0.4946372042
 41
-0.7818985079
 42
0.0034996556
  0
ELLIPSE
  5
559
100
AcDbEntity
  8
DRAFT
100
AcDbEllipse
 62
7
  6
CONTINUOUS
 10
5.0899376767
 20
14.9300960825
 30
0.0
 11
0.4279673669
 21
-0.0030279657
 31
0.0
 40
0.4946372042
 41
-0.7760807437
 42
0.0034996552
  0
ELLIPSE
  5
55A
100
AcDbEntity
  8
RACCORDO
100
AcDbEllipse
 62
7
  6
CONTINUOUS
 10
9.9184728217
 20
13.3482543296
 30
0.0
 11
-0.7417913999
 21
1.2002436976
 31
0.0
 40
0.5587454355
 41
5.1188866155
 42
6.2241191807
  0
ELLIPSE
  5
55B
100
AcDbEntity
  8
RACCORDO
100
AcDbEllipse
 62
7
  6
CONTINUOUS
 10
-5.991429755
 20
21.3032056179
 30
0.0
 11
-0.7417913999
 21
1.2002436976
 31
0.0
 40
0.5587454355
 41
5.1188866155
 42
6.2241191807
  0
ELLIPSE
  5
55C
100
AcDbEntity
  8
RACCORDO
100
AcDbEllipse
 62
7
  6
CONTINUOUS
 10
9.7455999432
 20
-23.7862766364
 30
0.0
 11
0.499366618
 21
0.3086255427
 31
0.0
 40
0.0815198604
 41
6.0993940912
 42
7.0007906979
  0
ELLIPSE
  5
55D
100
AcDbEntity
  8
DRAFT
100
AcDbEllipse
 62
7
  6
CONTINUOUS
 10
-0.4650507525
 20
17.7075902971
 30
0.0
 11
0.4279673669
 21
-0.0030279657
 31
0.0
 40
0.4946372042
 41
-0.7818985079
 42
0.0034996556
  0
ELLIPSE
  5
55E
100
AcDbEntity
  8
DRAFT
100
AcDbEllipse
 62
7
  6
CONTINUOUS
 10
-10.8199649
 20
22.8850473708
 30
0.0
 11
0.4279673669
 21
-0.0030279657
 31
0.0
 40
0.4946372042
 41
-0.7760807437
 42
0.0034996552
  0
ELLIPSE
  5
55F
100
AcDbEntity
  8
ASSI
100
AcDbEllipse
 62
7
  6
CONTINUOUS
 10
5.3419266873
 20
15.5444656495
 30
0.0
 11
0.221538876
 21
0.4482453432
 31
0.0
 40
0.6088015717
 41
0.5323082896
 42
0.6760875334
  0
ELLIPSE
  5
560
100
AcDbEntity
  8
RACCORDO
100
AcDbEllipse
 62
7
  6
CONTINUOUS
 10
5.560334517
 20
10.0903402043
 30
0.0
 11
30.5620697111
 21
17.056795564
 31
0.0
 40
0.0108183174
 41
1.5965054654
 42
1.6289824221
  0
ELLIPSE
  5
561
100
AcDbEntity
  8
RACCORDO
100
AcDbEllipse
 62
7
  6
CONTINUOUS
 10
9.7455999432
 20
14.4329820327
 30
0.0
 11
-0.3708957
 21
0.6001218488
 31
0.0
 40
0.5587454355
 41
-3.1744788413
 42
-2.2730822346
  0
ELLIPSE
  5
562
100
AcDbEntity
  8
ASSI
100
AcDbEllipse
 62
7
  6
CONTINUOUS
 10
-10.5679758894
 20
23.4994169379
 30
0.0
 11
0.221538876
 21
0.4482453432
 31
0.0
 40
0.6088015717
 41
0.5323082896
 42
0.6760875334
  0
ELLIPSE
  5
563
100
AcDbEntity
  8
RACCORDO
100
AcDbEllipse
 62
7
  6
CONTINUOUS
 10
-0.6396901477
 20
12.1140989612
 30
0.0
 11
0.4998587701
 21
0.0223649649
 31
0.0
 40
0.5313301283
 41
-2.3799630874
 42
-0.8149845248
  0
ELLIPSE
  5
564
100
AcDbEntity
  8
RACCORDO
100
AcDbEllipse
 62
7
  6
CONTINUOUS
 10
-0.6396901477
 20
13.3467085664
 30
0.0
 11
0.4999985559
 21
0.0023864752
 31
0.0
 40
0.5035541159
 41
-1.4342147631
 42
-0.7936193687
  0
ELLIPSE
  5
565
100
AcDbEntity
  8
RACCORDO
100
AcDbEllipse
 62
7
  6
CONTINUOUS
 10
-6.1509972474
 20
14.869752511
 30
0.0
 11
0.4998587701
 21
0.0223649649
 31
0.0
 40
0.5313301283
 41
3.1178240563
 42
3.9032222197
  0
ELLIPSE
  5
566
100
AcDbEntity
  8
RACCORDO
100
AcDbEllipse
 62
7
  6
CONTINUOUS
 10
-16.5495927244
 20
20.0690502495
 30
0.0
 11
0.4998587701
 21
0.0223649649
 31
0.0
 40
0.5313301283
 41
-2.3799630874
 42
-0.8149845248
  0
ELLIPSE
  5
567
100
AcDbEntity
  8
RACCORDO
100
AcDbEllipse
 62
7
  6
CONTINUOUS
 10
-16.5495927244
 20
21.3016598547
 30
0.0
 11
0.4999985559
 21
0.0023864752
 31
0.0
 40
0.5035541159
 41
-1.4342147631
 42
-0.7936193687
  0
ELLIPSE
  5
568
100
AcDbEntity
  8
RACCORDO
100
AcDbEllipse
 62
7
  6
CONTINUOUS
 10
-27.1843416092
 20
24.8220547549
 30
0.0
 11
0.249929385
 21
0.0111824824
 31
0.0
 40
0.5313301283
 41
3.1178240624
 42
3.9032222197
  0
ELLIPSE
  5
569
100
AcDbEntity
  8
RACCORDO
100
AcDbEllipse
 62
7
  6
CONTINUOUS
 10
-25.8511292756
 20
24.155448588
 30
0.0
 11
0.249929385
 21
0.0111824824
 31
0.0
 40
0.5313301283
 41
-2.3799630874
 42
-0.8149845248
  0
ELLIPSE
  5
56A
100
AcDbEntity
  8
RACCORDO
100
AcDbEllipse
 62
7
  6
CONTINUOUS
 10
-22.0608998241
 20
22.8247037994
 30
0.0
 11
0.4998587701
 21
0.0223649649
 31
0.0
 40
0.5313301283
 41
3.1178240563
 42
3.9032222197
  0
ELLIPSE
  5
56B
100
AcDbEntity
  8
RACCORDO
100
AcDbEllipse
 62
7
  6
CONTINUOUS
 10
-13.8200234448
 20
18.1398956727
 30
0.0
 11
0.249929385
 21
0.0111824824
 31
0.0
 40
0.5313301283
 41
3.1178240564
 42
3.9032222197
  0
ELLIPSE
  5
56C
100
AcDbEntity
  8
RACCORDO
100
AcDbEllipse
 62
7
  6
CONTINUOUS
 10
-12.4868111111
 20
17.4732895058
 30
0.0
 11
0.249929385
 21
0.0111824824
 31
0.0
 40
0.5313301283
 41
-2.3799630874
 42
-0.8149845248
  0
ELLIPSE
  5
56D
100
AcDbEntity
  8
RACCORDO
100
AcDbEllipse
 62
7
  6
CONTINUOUS
 10
3.4230914656
 20
9.5183382175
 30
0.0
 11
0.249929385
 21
0.0111824824
 31
0.0
 40
0.5313301283
 41
-2.3799630874
 42
-1.3352760237
  0
ELLIPSE
  5
56E
100
AcDbEntity
  8
RACCORDO
100
AcDbEllipse
 62
7
  6
CONTINUOUS
 10
2.0898791319
 20
10.1849443843
 30
0.0
 11
0.249929385
 21
0.0111824824
 31
0.0
 40
0.5313301283
 41
3.1178240564
 42
3.9032222197
  0
ELLIPSE
  5
56F
100
AcDbEntity
  8
RACCORDO
100
AcDbEllipse
 62
7
  6
CONTINUOUS
 10
-9.9412266989
 20
16.2004972997
 30
0.0
 11
0.249929385
 21
0.0111824824
 31
0.0
 40
0.5313301283
 41
-2.3799630874
 42
-0.8149845248
  0
ELLIPSE
  5
570
100
AcDbEntity
  8
RACCORDO
100
AcDbEllipse
 62
7
  6
CONTINUOUS
 10
-11.2744390325
 20
16.8671034665
 30
0.0
 11
0.249929385
 21
0.0111824824
 31
0.0
 40
0.5313301283
 41
3.1178240564
 42
3.9032222197
  0
ENDSEC
  0
SECTION
  2
OBJECTS
  0
DICTIONARY
  5
C
100
AcDbDictionary
280
0
281
1
  3
ACAD_GROUP
350
D
  3
ACAD_MLINESTYLE
350
17
  3
ACAD_LAYOUT
350
1A
  3
ACAD_PLOTSETTINGS
350
19
  3
ACAD_PLOTSTYLENAME
350
E
  0
DICTIONARY
  5
D
102
{ACAD_REACTORS
330
C
102
}
100
AcDbDictionary
280
0
281
1
  0
ACDBDICTIONARYWDFLT
  5
E
102
{ACAD_REACTORS
330
C
102
}
100
AcDbDictionary
281
1
  3
Normal
350
F
100
AcDbDictionaryWithDefault
340
F
  0
DICTIONARY
  5
17
102
{ACAD_REACTORS
330
C
102
}
100
AcDbDictionary
280
0
281
1
  3
Standard
350
18
  0
DICTIONARY
  5
19
102
{ACAD_REACTORS
330
C
102
}
100
AcDbDictionary
281
1
  0
DICTIONARY
  5
1A
102
{ACAD_REACTORS
330
C
102
}
100
AcDbDictionary
281
1
  3
Model
350
571
  3
Layout1
350
572
  0
ACDBPLACEHOLDER
  5
F
102
{ACAD_REACTORS
330
E
102
}
  0
MLINESTYLE
  5
18
102
{ACAD_REACTORS
330
17
102
}
100
AcDbMlineStyle
  2
STANDARD
 70
0
  3

 62
256
 51
90.0
 52
90.0
 71
2
 49
0.5
 62
256
  6
BYLAYER
 49
-0.5
 62
256
  6
BYLAYER
  0
LAYOUT
  5
571
102
{ACAD_REACTORS
330
1A
102
}
100
AcDbPlotSettings
  1

  2
none_device
  4
ISO_A4_(297.00_x_210.00_MM)
  6

 40
0.0
 41
0.0
 42
0.0
 43
0.0
 44
297.0
 45
210.0
 46
0.0
 47
0.0
 48
0.0
 49
0.0
140
0.0
141
0.0
142
1.0
143
1.0
 70
1024
 72
1
 73
0
 74
0
  7

 75
0
147
1.0
148
0.0
149
0.0
100
AcDbLayout
  1
Model
 70
0
 71
0
 10
0.0
 20
0.0
 11
297.0
 21
210.0
 12
0.0
 22
0.0
 32
0.0
 14
0.0
 24
0.0
 34
0.0
 15
0.0
 25
0.0
 35
0.0
146
0.0
 13
0.0
 23
0.0
 33
0.0
 16
1.0
 26
0.0
 36
0.0
 17
0.0
 27
1.0
 37
0.0
 76
0
330
21D
345
0
346
0
  0
LAYOUT
  5
572
102
{ACAD_REACTORS
330
1A
102
}
100
AcDbPlotSettings
  1

  2
none_device
  4
ISO_A4_(297.00_x_210.00_MM)
  6

 40
0.0
 41
0.0
 42
0.0
 43
0.0
 44
297.0
 45
210.0
 46
0.0
 47
0.0
 48
0.0
 49
0.0
140
0.0
141
0.0
142
1.0
143
1.0
 70
0
 72
1
 73
0
 74
0
  7

 75
0
147
1.0
148
0.0
149
0.0
100
AcDbLayout
  1
Layout1
 70
0
 71
1
 10
0.0
 20
0.0
 11
297.0
 21
210.0
 12
0.0
 22
0.0
 32
0.0
 14
0.0
 24
0.0
 34
0.0
 15
0.0
 25
0.0
 35
0.0
146
0.0
 13
0.0
 23
0.0
 33
0.0
 16
1.0
 26
0.0
 36
0.0
 17
0.0
 27
1.0
 37
0.0
 76
0
330
21E
345
0
346
0
  0
ENDSEC
  0
EOF
