  0
SECTION
  2
HEADER
  9
$ACADVER
  1
AC1015
  9
$DWGCODEPAGE
  3
ANSI_1252
  9
$EXTMAX
 10
558.8
 20
431.8
 30
0.0
  9
$EXTMIN
 10
0.0
 20
0.0
 30
0.0
  9
$LIMMIN
 10
0.0
 20
0.0
  9
$LIMMAX
 10
558.8
 20
431.8
  9
$VIEWCTR
 10
279.4
 20
215.9
  9
$VIEWSIZE
 40
431.8
  9
$CLAYER
  8
0
  9
$LTSCALE
 40
30.734
  9
$CELTYPE
  6
BYLAYER
  9
$DIMSCALE
 40
1.0
  9
$DIMASZ
 40
3.0
  9
$DIMEXO
 40
3.4925
  9
$DIMDLI
 40
21.2344
  9
$DIMEXE
 40
10.0584
  9
$DIMCEN
 40
5.0292
  9
$DIMLFAC
 40
1.0
  9
$DIMBLK
  1
_FILLED
  9
$DIMTXT
 40
3.0
  9
$DIMTOL
 70
1
  9
$DIMLIM
 70
0
  9
$DIMTFAC
 40
1.0
  9
$DIMTP
 40
0.01
  9
$DIMTM
 40
0.01
  9
$PDMODE
 70
3
  9
$PDSIZE
 40
3.0
  9
$HANDSEED
  5
4D5
  9
$TILEMODE
 70
1
  9
$MEASUREMENT
 70
1
  9
$INSUNITS
 70
4
  0
ENDSEC
  0
SECTION
  2
CLASSES
  0
CLASS
  1
ACDBDICTIONARYWDFLT
  2
AcDbDictionaryWithDefault
  3
AutoCAD 2000
 90
0
280
0
281
0
  0
CLASS
  1
ACDBPLACEHOLDER
  2
AcDbPlaceHolder
  3
AutoCAD 2000
 90
0
280
0
281
0
  0
CLASS
  1
LAYOUT
  2
AcDbLayout
  3
AutoCAD 2000
 90
0
280
0
281
0
  0
ENDSEC
  0
SECTION
  2
TABLES
  0
TABLE
  2
VPORT
  5
8
100
AcDbSymbolTable
 70
2
  0
VPORT
  5
1F4
100
AcDbSymbolTableRecord
100
AcDbViewportTableRecord
  2
*ACTIVE
 70
0
 10
0.0
 20
0.0
 11
1.0
 21
1.0
 12
279.4
 22
215.9
 13
0.0
 23
0.0
 14
1.0
 24
1.0
 15
0.0
 25
0.0
 16
0.0
 26
0.0
 36
1.0
 17
0.0
 27
0.0
 37
0.0
 40
431.8
 41
1.2941176471
 42
50.0
 43
0.0
 44
0.0
 50
0.0
 51
0.0
 71
0
 72
100
 73
1
 74
1
 75
0
 76
0
 77
0
 78
0
  0
ENDTAB
  0
TABLE
  2
LTYPE
  5
5
100
AcDbSymbolTable
 70
6
  0
LTYPE
  5
14
100
AcDbSymbolTableRecord
100
AcDbLinetypeTableRecord
  2
BYBLOCK
 70
0
  3

 72
65
 73
0
 40
0.0
  0
LTYPE
  5
15
100
AcDbSymbolTableRecord
100
AcDbLinetypeTableRecord
  2
BYLAYER
 70
0
  3

 72
65
 73
0
 40
0.0
  0
LTYPE
  5
16
100
AcDbSymbolTableRecord
100
AcDbLinetypeTableRecord
  2
CONTINUOUS
 70
64
  3
Solid line
 72
65
 73
0
 40
0.0
  0
LTYPE
  5
1F5
100
AcDbSymbolTableRecord
100
AcDbLinetypeTableRecord
  2
CENTER
 70
64
  3
____ _ ____ _ ____ _ ____ _ ____ _ ____ _ ____
 72
65
 73
4
 40
0.6
 49
0.375
 74
0
 49
-0.075
 74
0
 49
0.075
 74
0
 49
-0.075
 74
0
  0
LTYPE
  5
1F6
100
AcDbSymbolTableRecord
100
AcDbLinetypeTableRecord
  2
HIDDEN
 70
64
  3
- - - - - - - - - - - - - - - - - - - -
 72
65
 73
2
 40
0.2
 49
0.1
 74
0
 49
-0.1
 74
0
  0
LTYPE
  5
1F7
100
AcDbSymbolTableRecord
100
AcDbLinetypeTableRecord
  2
PHANTOM
 70
64
  3
_____ _ _ _____ _ _ _____ _ _ _____
 72
65
 73
6
 40
0.8
 49
0.45
 74
0
 49
-0.05
 74
0
 49
0.1
 74
0
 49
-0.05
 74
0
 49
0.1
 74
0
 49
-0.05
 74
0
  0
LTYPE
  5
1F8
100
AcDbSymbolTableRecord
100
AcDbLinetypeTableRecord
  2
DOT
 70
64
  3
. . . . . . . . . . . . . . . . . . . .
 72
65
 73
2
 40
0.2
 49
0.1
 74
0
 49
-0.1
 74
0
  0
LTYPE
  5
1F9
100
AcDbSymbolTableRecord
100
AcDbLinetypeTableRecord
  2
DASHED
 70
64
  3
- - - - - - - - - - - - - - - - - - - -
 72
65
 73
2
 40
0.2
 49
0.1
 74
0
 49
-0.1
 74
0
  0
ENDTAB
  0
TABLE
  2
LAYER
  5
2
100
AcDbSymbolTable
 70
36
  0
LAYER
  5
10
100
AcDbSymbolTableRecord
100
AcDbLayerTableRecord
  2
0
 70
0
 62
7
  6
CONTINUOUS
370
-3
390
F
  0
LAYER
  5
1FA
100
AcDbSymbolTableRecord
100
AcDbLayerTableRecord
  2
DEFAULT_1
 70
0
 62
7
  6
CENTER
370
-3
390
F
  0
LAYER
  5
1FB
100
AcDbSymbolTableRecord
100
AcDbLayerTableRecord
  2
DEFAULT_2
 70
0
 62
7
  6
HIDDEN
370
-3
390
F
  0
LAYER
  5
1FC
100
AcDbSymbolTableRecord
100
AcDbLayerTableRecord
  2
DEFAULT_3
 70
0
 62
7
  6
PHANTOM
370
-3
390
F
  0
LAYER
  5
1FD
100
AcDbSymbolTableRecord
100
AcDbLayerTableRecord
  2
ASSI
 70
0
 62
7
  6
CONTINUOUS
370
-3
390
F
  0
LAYER
  5
1FE
100
AcDbSymbolTableRecord
100
AcDbLayerTableRecord
  2
COORDINATE
 70
0
 62
7
  6
CONTINUOUS
370
-3
390
F
  0
LAYER
  5
1FF
100
AcDbSymbolTableRecord
100
AcDbLayerTableRecord
  2
COORD_ORIGINE
 70
0
 62
7
  6
CONTINUOUS
370
-3
390
F
  0
LAYER
  5
200
100
AcDbSymbolTableRecord
100
AcDbLayerTableRecord
  2
COPY_PUBLISH
 70
0
 62
7
  6
CONTINUOUS
370
-3
390
F
  0
LAYER
  5
201
100
AcDbSymbolTableRecord
100
AcDbLayerTableRecord
  2
COSMETIC
 70
0
 62
7
  6
CONTINUOUS
370
-3
390
F
  0
LAYER
  5
202
100
AcDbSymbolTableRecord
100
AcDbLayerTableRecord
  2
CURVE
 70
0
 62
7
  6
CONTINUOUS
370
-3
390
F
  0
LAYER
  5
203
100
AcDbSymbolTableRecord
100
AcDbLayerTableRecord
  2
DRAFT
 70
0
 62
7
  6
CONTINUOUS
370
-3
390
F
  0
LAYER
  5
204
100
AcDbSymbolTableRecord
100
AcDbLayerTableRecord
  2
IMPORT_IGES
 70
0
 62
7
  6
CONTINUOUS
370
-3
390
F
  0
LAYER
  5
205
100
AcDbSymbolTableRecord
100
AcDbLayerTableRecord
  2
IMPORT_SCRITTE
 70
0
 62
7
  6
CONTINUOUS
370
-3
390
F
  0
LAYER
  5
206
100
AcDbSymbolTableRecord
100
AcDbLayerTableRecord
  2
NOTE
 70
0
 62
7
  6
CONTINUOUS
370
-3
390
F
  0
LAYER
  5
207
100
AcDbSymbolTableRecord
100
AcDbLayerTableRecord
  2
PIANI
 70
0
 62
7
  6
CONTINUOUS
370
-3
390
F
  0
LAYER
  5
208
100
AcDbSymbolTableRecord
100
AcDbLayerTableRecord
  2
PIANI_ORIGINE
 70
0
 62
7
  6
CONTINUOUS
370
-3
390
F
  0
LAYER
  5
209
100
AcDbSymbolTableRecord
100
AcDbLayerTableRecord
  2
PIANI_RIFERIMENTO
 70
0
 62
7
  6
CONTINUOUS
370
-3
390
F
  0
LAYER
  5
20A
100
AcDbSymbolTableRecord
100
AcDbLayerTableRecord
  2
PUNTI
 70
0
 62
7
  6
CONTINUOUS
370
-3
390
F
  0
LAYER
  5
20B
100
AcDbSymbolTableRecord
100
AcDbLayerTableRecord
  2
RACCORDO
 70
0
 62
7
  6
CONTINUOUS
370
-3
390
F
  0
LAYER
  5
20C
100
AcDbSymbolTableRecord
100
AcDbLayerTableRecord
  2
SMUSSO
 70
0
 62
7
  6
CONTINUOUS
370
-3
390
F
  0
LAYER
  5
20D
100
AcDbSymbolTableRecord
100
AcDbLayerTableRecord
  2
SUPERFICI
 70
0
 62
7
  6
CONTINUOUS
370
-3
390
F
  0
LAYER
  5
20E
100
AcDbSymbolTableRecord
100
AcDbLayerTableRecord
  2
TRASH
 70
0
 62
7
  6
CONTINUOUS
370
-3
390
F
  0
LAYER
  5
20F
100
AcDbSymbolTableRecord
100
AcDbLayerTableRecord
  2
XSEC_DATUMS
 70
0
 62
7
  6
CONTINUOUS
370
-3
390
F
  0
ENDTAB
  0
TABLE
  2
STYLE
  5
3
100
AcDbSymbolTable
 70
1
  0
STYLE
  5
11
100
AcDbSymbolTableRecord
100
AcDbTextStyleTableRecord
  2
STANDARD
 70
0
 40
0.0
 41
0.8
 50
0.0
 71
0
 42
0.2
  3
txt
  4

  0
STYLE
  5
210
100
AcDbSymbolTableRecord
100
AcDbTextStyleTableRecord
  2
TEXTSTYLE_1
 70
0
 40
0.0
 41
0.8
 50
0.0
 71
0
 42
0.2
  3
gdt
  4

  0
ENDTAB
  0
TABLE
  2
VIEW
  5
6
100
AcDbSymbolTable
 70
0
  0
ENDTAB
  0
TABLE
  2
UCS
  5
7
100
AcDbSymbolTable
 70
0
  0
ENDTAB
  0
TABLE
  2
APPID
  5
9
100
AcDbSymbolTable
 70
1
  0
APPID
  5
211
100
AcDbSymbolTableRecord
100
AcDbRegAppTableRecord
  2
ACAD
 70
0
  0
ENDTAB
  0
TABLE
  2
BLOCK_RECORD
  5
1
100
AcDbSymbolTable
 70
0
  0
BLOCK_RECORD
  5
212
100
AcDbSymbolTableRecord
100
AcDbBlockTableRecord
  2
*Model_Space
  0
BLOCK_RECORD
  5
213
100
AcDbSymbolTableRecord
100
AcDbBlockTableRecord
  2
*Paper_Space
  0
ENDTAB
  0
TABLE
  2
DIMSTYLE
  5
A
100
AcDbSymbolTable
 70
1
100
AcDbDimStyleTable
 71
0
  0
DIMSTYLE
105
214
100
AcDbSymbolTableRecord
100
AcDbDimStyleTableRecord
  2
STANDARD
 70
0
  3

  4

 40
1.0
 41
3.0
 42
0.0625
 43
0.38
 44
0.18
 45
0.0
 46
0.0
 47
0.01
 48
0.01
140
3.0
141
0.09
142
0.0
143
25.4
144
1.0
145
0.0
146
1.0
147
0.09
 71
1.0
 72
0.0
 73
0
 74
0
 75
0
 76
0
 77
1
 78
8
170
0
171
2
172
0
173
0
174
0
175
0
176
0
177
0
178
0
270
2
271
2
272
2
273
2
274
2
275
0
280
0
281
0
282
0
283
1
284
8
285
0
286
0
287
3
288
0
340
11
  0
ENDTAB
  0
ENDSEC
  0
SECTION
  2
BLOCKS
  0
BLOCK
  5
20
100
AcDbEntity
  8
0
100
AcDbBlockBegin
  2
*Model_Space
 70
0
 10
0.0
 20
0.0
 30
0.0
  3
*Model_Space
  1

  0
ENDBLK
  5
21
100
AcDbEntity
  8
0
100
AcDbBlockEnd
  0
BLOCK
  5
1C
100
AcDbEntity
  8
0
100
AcDbBlockBegin
  2
*Paper_Space
 70
0
 10
0.0
 20
0.0
 30
0.0
  3
*Paper_Space
  1

  0
ENDBLK
  5
1D
100
AcDbEntity
  8
0
100
AcDbBlockEnd
  0
ENDSEC
  0
SECTION
  2
ENTITIES
  0
LINE
  5
215
100
AcDbEntity
  8
RACCORDO
100
AcDbLine
 62
7
  6
CONTINUOUS
 10
-11.0693327887
 20
24.9734780601
 11
-12.6525044837
 21
24.1612810129
  0
LINE
  5
216
100
AcDbEntity
  8
RACCORDO
100
AcDbLine
 62
253
  6
CONTINUOUS
 10
-10.9566622144
 20
24.9668171351
 11
-12.5394188176
 21
24.1548330377
  0
LINE
  5
217
100
AcDbEntity
  8
RACCORDO
100
AcDbLine
 62
7
  6
CONTINUOUS
 10
-11.0675944032
 20
24.9743472929
 11
-11.069330815
 21
24.9734790727
  0
LINE
  5
218
100
AcDbEntity
  8
RACCORDO
100
AcDbLine
 62
7
  6
CONTINUOUS
 10
-10.5327244468
 20
25.2348993927
 11
-11.0675916376
 21
24.9743486401
  0
LINE
  5
219
100
AcDbEntity
  8
RACCORDO
100
AcDbLine
 62
253
  6
CONTINUOUS
 10
-10.4222123357
 20
25.2271646016
 11
-10.9566622144
 21
24.9668171351
  0
LWPOLYLINE
  5
21A
100
AcDbEntity
  8
RACCORDO
100
AcDbPolyline
 62
7
  6
CONTINUOUS
 90
37
 70
0
 10
-16.6743593703
 20
20.1374422584
 10
-16.7049489207
 20
20.1190694075
 10
-16.7478700475
 20
20.0914488267
 10
-16.7899726004
 20
20.0622041683
 10
-16.8312431179
 20
20.031394445
 10
-16.8716707777
 20
19.9990735339
 10
-16.9112399879
 20
19.965296009
 10
-16.9499358233
 20
19.9301133218
 10
-16.9877436333
 20
19.8935739207
 10
-17.0246389254
 20
19.8557336961
 10
-17.0606040531
 20
19.8166401993
 10
-17.0956204167
 20
19.7763396437
 10
-17.129655
 20
19.7348938168
 10
-17.1626866169
 20
19.6923502212
 10
-17.1946941619
 20
19.6487542747
 10
-17.225640618
 20
19.6041726607
 10
-17.255502832
 20
19.5586531126
 10
-17.2842572471
 20
19.5122422157
 10
-17.3118649913
 20
19.465011512
 10
-17.3383019487
 20
19.4170091025
 10
-17.3635430568
 20
19.3682830627
 10
-17.3875493391
 20
19.3189091266
 10
-17.4102961471
 20
19.2689361522
 10
-17.4317581601
 20
19.2184125183
 10
-17.4518985974
 20
19.1674144213
 10
-17.4706929786
 20
19.1159896987
 10
-17.4881155075
 20
19.0641871001
 10
-17.5041317172
 20
19.012081913
 10
-17.5187168193
 20
18.959720795
 10
-17.5318445869
 20
18.9071513272
 10
-17.543482869
 20
18.8544443686
 10
-17.5536055436
 20
18.8016453623
 10
-17.5621850176
 20
18.7487996713
 10
-17.5691902214
 20
18.6959690268
 10
-17.5745917261
 20
18.643200203
 10
-17.5783589165
 20
18.5905327986
 10
-17.5800669328
 20
18.5518976053
  0
LWPOLYLINE
  5
21B
100
AcDbEntity
  8
RACCORDO
100
AcDbPolyline
 62
7
  6
CONTINUOUS
 90
3
 70
0
 10
-15.0716411557
 20
21.0803811124
 10
-15.6250421771
 20
20.7533430181
 10
-16.1605943977
 20
20.4380762334
  0
LWPOLYLINE
  5
21C
100
AcDbEntity
  8
RACCORDO
100
AcDbPolyline
 62
7
  6
CONTINUOUS
 90
5
 70
0
 10
-12.085397424
 20
22.8370242318
 10
-12.6703493599
 20
22.4957742153
 10
-13.2998300123
 20
22.1273219381
 10
-13.9096352203
 20
21.7680856804
 10
-15.0716411557
 20
21.0803811124
  0
LINE
  5
21D
100
AcDbEntity
  8
RACCORDO
100
AcDbLine
 62
7
  6
CONTINUOUS
 10
-16.1605943977
 20
20.4380762334
 11
-16.6743722648
 21
20.1374347404
  0
LINE
  5
21E
100
AcDbEntity
  8
RACCORDO
100
AcDbLine
 62
253
  6
CONTINUOUS
 10
-16.434977673
 20
20.1321895378
 11
-16.4410182032
 21
20.1286673555
  0
LINE
  5
21F
100
AcDbEntity
  8
RACCORDO
100
AcDbLine
 62
7
  6
CONTINUOUS
 10
-15.6301216314
 20
19.6428095294
 11
-13.7595528228
 21
20.6981585606
  0
LINE
  5
220
100
AcDbEntity
  8
RACCORDO
100
AcDbLine
 62
253
  6
CONTINUOUS
 10
-15.5165293045
 20
19.6366564498
 11
-13.6436649913
 21
20.6933005728
  0
LINE
  5
221
100
AcDbEntity
  8
RACCORDO
100
AcDbLine
 62
253
  6
CONTINUOUS
 10
-15.8282869032
 20
19.8223017055
 11
-13.9332660108
 21
20.8739994383
  0
LINE
  5
222
100
AcDbEntity
  8
RACCORDO
100
AcDbLine
 62
253
  6
CONTINUOUS
 10
-15.7544952658
 20
19.7020056839
 11
-13.8625849358
 21
20.7519771184
  0
LINE
  5
223
100
AcDbEntity
  8
RACCORDO
100
AcDbLine
 62
253
  6
CONTINUOUS
 10
-9.6131533469
 20
24.2950627013
 11
-11.2144341377
 21
23.4923406978
  0
LINE
  5
224
100
AcDbEntity
  8
RACCORDO
100
AcDbLine
 62
253
  6
CONTINUOUS
 10
-9.4363796432
 20
23.9901731625
 11
-11.0376604341
 21
23.187451159
  0
LINE
  5
225
100
AcDbEntity
  8
RACCORDO
100
AcDbLine
 62
253
  6
CONTINUOUS
 10
-9.0848861752
 20
24.5585015213
 11
-9.6131533469
 21
24.2950627013
  0
LINE
  5
226
100
AcDbEntity
  8
RACCORDO
100
AcDbLine
 62
253
  6
CONTINUOUS
 10
-8.9081124715
 20
24.2536119825
 11
-9.4363796432
 21
23.9901731625
  0
LINE
  5
227
100
AcDbEntity
  8
RACCORDO
100
AcDbLine
 62
7
  6
CONTINUOUS
 10
-9.4363796432
 20
22.3880225015
 11
-10.326439826
 21
21.8913415802
  0
LINE
  5
228
100
AcDbEntity
  8
RACCORDO
100
AcDbLine
 62
7
  6
CONTINUOUS
 10
-7.0675599249
 20
22.0579040882
 11
-6.7140185357
 21
22.239277513
  0
LINE
  5
229
100
AcDbEntity
  8
RACCORDO
100
AcDbLine
 62
7
  6
CONTINUOUS
 10
-1.7137965816
 20
25.5283265305
 11
-8.0283369082
 21
22.383550226
  0
LINE
  5
22A
100
AcDbEntity
  8
ASSI
100
AcDbLine
 62
7
  6
CONTINUOUS
 10
-6.7140185357
 20
22.239277513
 11
-1.3777951297
 21
24.8387209785
  0
LINE
  5
22B
100
AcDbEntity
  8
RACCORDO
100
AcDbLine
 62
253
  6
CONTINUOUS
 10
4.4562056929
 20
-24.0756827558
 11
3.9279385212
 21
-23.9671804787
  0
LWPOLYLINE
  5
22C
100
AcDbEntity
  8
RACCORDO
100
AcDbPolyline
 62
7
  6
CONTINUOUS
 90
21
 70
0
 10
-2.2095993262
 20
-25.4142091523
 10
-2.1735471514
 20
-25.4309253881
 10
-2.1365944284
 20
-25.4460883767
 10
-2.0988135602
 20
-25.4596454906
 10
-2.0602455888
 20
-25.471560971
 10
-2.0208955994
 20
-25.4818087787
 10
-1.9808179739
 20
-25.4903477997
 10
-1.9400775306
 20
-25.4971389319
 10
-1.8986896527
 20
-25.5021530685
 10
-1.8567126495
 20
-25.5053548129
 10
-1.81420835
 20
-25.5067123909
 10
-1.771189646
 20
-25.506196495
 10
-1.7277165188
 20
-25.5037769533
 10
-1.6838437849
 20
-25.4994266464
 10
-1.6395667985
 20
-25.4931113931
 10
-1.5949336585
 20
-25.4848002763
 10
-1.5500029129
 20
-25.4744663871
 10
-1.5047757413
 20
-25.4620689362
 10
-1.4592837403
 20
-25.4475702122
 10
-1.4135950356
 20
-25.4309445322
 10
-1.3810108762
 20
-25.4178104242
  0
LINE
  5
22D
100
AcDbEntity
  8
RACCORDO
100
AcDbLine
 62
7
  6
CONTINUOUS
 10
-17.0490498011
 20
-17.9945091138
 11
-17.0491677553
 21
-17.9944501544
  0
LINE
  5
22E
100
AcDbEntity
  8
RACCORDO
100
AcDbLine
 62
7
  6
CONTINUOUS
 10
-2.2095993262
 20
-25.4142091523
 11
-17.0491686088
 21
-17.9944497276
  0
LINE
  5
22F
100
AcDbEntity
  8
RACCORDO
100
AcDbLine
 62
7
  6
CONTINUOUS
 10
-2.2153884035
 20
-25.4113398132
 11
-2.2152698154
 21
-25.4113991244
  0
LINE
  5
230
100
AcDbEntity
  8
RACCORDO
100
AcDbLine
 62
253
  6
CONTINUOUS
 10
-2.6087381356
 20
-24.6507997068
 11
-17.4335842132
 21
-17.238376668
  0
LINE
  5
231
100
AcDbEntity
  8
RACCORDO
100
AcDbLine
 62
253
  6
CONTINUOUS
 10
-9.4363796432
 20
23.26312831
 11
-8.9081124715
 21
23.9060804658
  0
LINE
  5
232
100
AcDbEntity
  8
RACCORDO
100
AcDbLine
 62
7
  6
CONTINUOUS
 10
-9.4363796432
 20
23.1735978437
 11
-8.8927518991
 21
23.8352452992
  0
LINE
  5
233
100
AcDbEntity
  8
DRAFT
100
AcDbLine
 62
7
  6
CONTINUOUS
 10
-9.2663908581
 20
18.5405618619
 11
-8.4817854886
 21
18.9760017516
  0
LINE
  5
234
100
AcDbEntity
  8
ASSI
100
AcDbLine
 62
7
  6
CONTINUOUS
 10
-0.772264695
 20
24.5359557612
 11
-5.3705156514
 21
22.2695944637
  0
LINE
  5
235
100
AcDbEntity
  8
RACCORDO
100
AcDbLine
 62
7
  6
CONTINUOUS
 10
0.9996159717
 20
24.1716202539
 11
-0.7233886635
 21
23.3285337313
  0
LINE
  5
236
100
AcDbEntity
  8
RACCORDO
100
AcDbLine
 62
253
  6
CONTINUOUS
 10
4.3667918976
 20
-23.7561159498
 11
3.9279385212
 21
-23.6659786231
  0
LINE
  5
237
100
AcDbEntity
  8
RACCORDO
100
AcDbLine
 62
7
  6
CONTINUOUS
 10
0.7141243873
 20
-24.9464733172
 11
2.0391090671
 21
-25.6089656571
  0
LINE
  5
238
100
AcDbEntity
  8
RACCORDO
100
AcDbLine
 62
253
  6
CONTINUOUS
 10
0.6491510909
 20
-24.8112548671
 11
1.9741357707
 21
-25.473747207
  0
LINE
  5
239
100
AcDbEntity
  8
RACCORDO
100
AcDbLine
 62
253
  6
CONTINUOUS
 10
1.9741357707
 20
-25.1337732729
 11
0.7640825339
 21
-24.5287466545
  0
LINE
  5
23A
100
AcDbEntity
  8
RACCORDO
100
AcDbLine
 62
253
  6
CONTINUOUS
 10
2.0625241184
 20
-24.9020790991
 11
1.066503353
 21
-24.4040687164
  0
LINE
  5
23B
100
AcDbEntity
  8
RACCORDO
100
AcDbLine
 62
7
  6
CONTINUOUS
 10
-16.8305669232
 20
13.6168810805
 11
-16.7193242851
 21
13.6727186942
  0
LINE
  5
23C
100
AcDbEntity
  8
ASSI
100
AcDbLine
 62
7
  6
CONTINUOUS
 10
-1.7642710674
 20
21.6528840135
 11
1.7005521605
 21
23.3852956274
  0
LINE
  5
23D
100
AcDbEntity
  8
SMUSSO
100
AcDbLine
 62
7
  6
CONTINUOUS
 10
-8.4817854886
 20
18.2003810334
 11
-8.5715330803
 21
18.1572346173
  0
LINE
  5
23E
100
AcDbEntity
  8
RACCORDO
100
AcDbLine
 62
7
  6
CONTINUOUS
 10
2.6853563788
 20
-24.1572767957
 11
2.2223053178
 21
-23.9257512652
  0
LINE
  5
23F
100
AcDbEntity
  8
RACCORDO
100
AcDbLine
 62
253
  6
CONTINUOUS
 10
3.9279385212
 20
-23.5366892616
 11
4.3667918976
 21
-23.7561159498
  0
LINE
  5
240
100
AcDbEntity
  8
RACCORDO
100
AcDbLine
 62
7
  6
CONTINUOUS
 10
3.9279385212
 20
-23.5330691121
 11
4.3902069488
 21
-23.7642033259
  0
LWPOLYLINE
  5
241
100
AcDbEntity
  8
RACCORDO
100
AcDbPolyline
 62
7
  6
CONTINUOUS
 90
27
 70
0
 10
-17.580048101
 20
-17.0607271394
 10
-17.5783764988
 20
-17.0972879082
 10
-17.5745446552
 20
-17.1481033357
 10
-17.5690014257
 20
-17.1980236035
 10
-17.5617564073
 20
-17.2470485702
 10
-17.5528259183
 20
-17.2951176806
 10
-17.5422440483
 20
-17.3421130656
 10
-17.5300316735
 20
-17.3880108373
 10
-17.5162116663
 20
-17.4327780279
 10
-17.5008428788
 20
-17.4762877298
 10
-17.4839609233
 20
-17.5185119244
 10
-17.4656018493
 20
-17.559424283
 10
-17.4458522889
 20
-17.598904563
 10
-17.4247816867
 20
-17.6369001598
 10
-17.4024299731
 20
-17.6734193144
 10
-17.3788592472
 20
-17.7084328988
 10
-17.3541546556
 20
-17.7418887837
 10
-17.3283593293
 20
-17.7737999275
 10
-17.3014722002
 20
-17.8042220579
 10
-17.2735568914
 20
-17.8331268627
 10
-17.2446743186
 20
-17.8604945796
 10
-17.2148086804
 20
-17.8863731276
 10
-17.1840225123
 20
-17.9107324885
 10
-17.1523767408
 20
-17.9335494436
 10
-17.1198422394
 20
-17.9548613709
 10
-17.0864469227
 20
-17.9746556245
 10
-17.0490500209
 20
-17.9945090021
  0
LWPOLYLINE
  5
242
100
AcDbEntity
  8
RACCORDO
100
AcDbPolyline
 62
7
  6
CONTINUOUS
 90
22
 70
0
 10
-17.5800666363
 20
18.5519067492
 10
-17.6329873683
 20
16.8422354781
 10
-17.6810334226
 20
15.1208843912
 10
-17.7237432251
 20
13.4020681064
 10
-17.7611160813
 20
11.6858130819
 10
-17.7931513811
 20
9.9721456157
 10
-17.8198485967
 20
8.2610918913
 10
-17.8412072789
 20
6.5526781683
 10
-17.8572270599
 20
4.8469306905
 10
-17.8679076543
 20
3.143875551
 10
-17.873248857
 20
1.4435388408
 10
-17.873250544
 20
-0.2540532729
 10
-17.8679126739
 20
-1.9488746461
 10
-17.8572352878
 20
-3.6408991967
 10
-17.841218508
 20
-5.3301010038
 10
-17.8198625368
 20
-7.0164542305
 10
-17.7931676592
 20
-8.6999329712
 10
-17.7611342414
 20
-10.3805113894
 10
-17.7237627282
 20
-12.0581638133
 10
-17.6810536462
 20
-13.7328645375
 10
-17.6330076071
 20
-15.4045877779
 10
-17.5800480142
 20
-17.0607297249
  0
LINE
  5
243
100
AcDbEntity
  8
DRAFT
100
AcDbLine
 62
7
  6
CONTINUOUS
 10
-5.0101743507
 20
16.4124536082
 11
-4.2391448015
 21
16.854681408
  0
LINE
  5
244
100
AcDbEntity
  8
RACCORDO
100
AcDbLine
 62
7
  6
CONTINUOUS
 10
-0.8491580105
 20
18.948703131
 11
-0.4914788612
 21
19.1280076758
  0
LINE
  5
245
100
AcDbEntity
  8
ASSI
100
AcDbLine
 62
7
  6
CONTINUOUS
 10
-0.4914788612
 20
19.1280076758
 11
4.7830132079
 21
21.7583168097
  0
LINE
  5
246
100
AcDbEntity
  8
ASSI
100
AcDbLine
 62
7
  6
CONTINUOUS
 10
4.1774827733
 20
22.061082027
 11
-0.4207681831
 21
19.7947207295
  0
LINE
  5
247
100
AcDbEntity
  8
RACCORDO
100
AcDbLine
 62
7
  6
CONTINUOUS
 10
4.9569492729
 20
21.2111465439
 11
5.94936344
 21
21.6967465197
  0
LINE
  5
248
100
AcDbEntity
  8
0
100
AcDbLine
 62
7
  6
CONTINUOUS
 10
7.2996446523
 20
22.950783381
 11
4.8132223081
 21
21.8671670014
  0
LINE
  5
249
100
AcDbEntity
  8
0
100
AcDbLine
 62
253
  6
CONTINUOUS
 10
7.5992669146
 20
22.9387277312
 11
4.9572471866
 21
21.7872989306
  0
LINE
  5
24A
100
AcDbEntity
  8
RACCORDO
100
AcDbLine
 62
7
  6
CONTINUOUS
 10
-0.4914788612
 20
17.9155721105
 11
-0.8491580105
 21
17.7159761587
  0
LINE
  5
24B
100
AcDbEntity
  8
RACCORDO
100
AcDbLine
 62
7
  6
CONTINUOUS
 10
2.2949853757
 20
18.2913189779
 11
0.7118136807
 21
17.4791219306
  0
LINE
  5
24C
100
AcDbEntity
  8
RACCORDO
100
AcDbLine
 62
253
  6
CONTINUOUS
 10
2.40765595
 20
18.2846580528
 11
0.8248993469
 21
17.4726739555
  0
LINE
  5
24D
100
AcDbEntity
  8
RACCORDO
100
AcDbLine
 62
7
  6
CONTINUOUS
 10
2.2967237612
 20
18.2921882107
 11
2.2949873494
 21
18.2913199905
  0
LINE
  5
24E
100
AcDbEntity
  8
DRAFT
100
AcDbLine
 62
7
  6
CONTINUOUS
 10
-0.4914788612
 20
17.9155721105
 11
4.833355209
 21
20.5519035424
  0
LINE
  5
24F
100
AcDbEntity
  8
RACCORDO
100
AcDbLine
 62
7
  6
CONTINUOUS
 10
2.8315937176
 20
18.5527403105
 11
2.2967265268
 21
18.2921895579
  0
LINE
  5
250
100
AcDbEntity
  8
RACCORDO
100
AcDbLine
 62
253
  6
CONTINUOUS
 10
2.9421058287
 20
18.5450055194
 11
2.40765595
 21
18.2846580528
  0
LINE
  5
251
100
AcDbEntity
  8
RACCORDO
100
AcDbLine
 62
7
  6
CONTINUOUS
 10
8.6627759933
 20
20.3400402431
 11
3.9792391138
 21
18.0884162478
  0
LINE
  5
252
100
AcDbEntity
  8
0
100
AcDbLine
 62
7
  6
CONTINUOUS
 10
8.2145309478
 20
20.810033734
 11
10.3568881888
 21
21.7437474744
  0
LINE
  5
253
100
AcDbEntity
  8
SMUSSO
100
AcDbLine
 62
7
  6
CONTINUOUS
 10
-13.8625849358
 20
20.6400292685
 11
-13.8625849358
 21
20.7519771184
  0
LINE
  5
254
100
AcDbEntity
  8
RACCORDO
100
AcDbLine
 62
7
  6
CONTINUOUS
 10
-12.7883903782
 20
23.9388445704
 11
-12.7883903782
 21
23.5988706363
  0
LINE
  5
255
100
AcDbEntity
  8
RACCORDO
100
AcDbLine
 62
253
  6
CONTINUOUS
 10
-12.7151670735
 20
23.8504562228
 11
-12.7151670735
 21
23.5104822886
  0
LINE
  5
256
100
AcDbEntity
  8
0
100
AcDbLine
 62
7
  6
CONTINUOUS
 10
-1.5080323793
 20
20.3383528276
 11
-0.7967857856
 21
21.2372579462
  0
LINE
  5
257
100
AcDbEntity
  8
0
100
AcDbLine
 62
253
  6
CONTINUOUS
 10
-1.4242716452
 20
20.2964724606
 11
-0.6756673652
 21
21.2425918868
  0
LWPOLYLINE
  5
258
100
AcDbEntity
  8
RACCORDO
100
AcDbPolyline
 62
7
  6
CONTINUOUS
 90
43
 70
0
 10
-2.2515811664
 20
13.0130360321
 10
-2.2776753969
 20
12.9976704747
 10
-2.3151864088
 20
12.9741772805
 10
-2.3524380511
 20
12.949185845
 10
-2.3893864281
 20
12.9227327369
 10
-2.4259937324
 20
12.8948544059
 10
-2.462222856
 20
12.8655873576
 10
-2.4980371682
 20
12.8349678129
 10
-2.533398449
 20
12.8030363646
 10
-2.5682656779
 20
12.7698366286
 10
-2.6026009795
 20
12.7354098954
 10
-2.6363677059
 20
12.6998001051
 10
-2.6695256067
 20
12.6630558406
 10
-2.7020375651
 20
12.6252231904
 10
-2.733869762
 20
12.586348368
 10
-2.7649861193
 20
12.5464808739
 10
-2.7953508662
 20
12.5056706252
 10
-2.8249326226
 20
12.4639660311
 10
-2.8537009978
 20
12.4214143423
 10
-2.8816233169
 20
12.3780663778
 10
-2.9086692234
 20
12.3339740534
 10
-2.9348107476
 20
12.2891858494
 10
-2.9600171053
 20
12.2437552647
 10
-2.9842607223
 20
12.1977352745
 10
-3.0075172439
 20
12.1511729986
 10
-3.0297586855
 20
12.1041225749
 10
-3.0509593988
 20
12.0566390964
 10
-3.0710971457
 20
12.0087704601
 10
-3.0901472517
 20
11.9605698039
 10
-3.1080856998
 20
11.9120953823
 10
-3.1248902334
 20
11.8634022484
 10
-3.1405388327
 20
11.8145452271
 10
-3.1550110612
 20
11.7655823291
 10
-3.1682867429
 20
11.7165728717
 10
-3.1803469573
 20
11.6675732092
 10
-3.1911752909
 20
11.6186407202
 10
-3.2007553302
 20
11.5698354791
 10
-3.209071382
 20
11.5212160199
 10
-3.2161112054
 20
11.4728347882
 10
-3.2218629788
 20
11.4247417339
 10
-3.2263145013
 20
11.376990397
 10
-3.2294559184
 20
11.3296430281
 10
-3.2308989572
 20
11.2959096382
  0
LINE
  5
259
100
AcDbEntity
  8
RACCORDO
100
AcDbLine
 62
7
  6
CONTINUOUS
 10
-0.389871302
 20
14.0808290673
 11
-2.251583209
 21
13.0130350232
  0
LINE
  5
25A
100
AcDbEntity
  8
RACCORDO
100
AcDbLine
 62
253
  6
CONTINUOUS
 10
-0.3432991979
 20
14.0790160319
 11
-2.2055310424
 21
13.0109237751
  0
LINE
  5
25B
100
AcDbEntity
  8
RACCORDO
100
AcDbLine
 62
253
  6
CONTINUOUS
 10
-0.6329002175
 20
14.1879181859
 11
-2.5057645307
 21
13.1312740629
  0
LINE
  5
25C
100
AcDbEntity
  8
RACCORDO
100
AcDbLine
 62
7
  6
CONTINUOUS
 10
9.5443114519
 20
19.6061820517
 11
4.0527681237
 21
16.6433684408
  0
LINE
  5
25D
100
AcDbEntity
  8
RACCORDO
100
AcDbLine
 62
7
  6
CONTINUOUS
 10
9.5443114519
 20
19.1088520948
 11
4.1861601148
 21
16.2763017145
  0
LINE
  5
25E
100
AcDbEntity
  8
RACCORDO
100
AcDbLine
 62
253
  6
CONTINUOUS
 10
3.7511648175
 20
17.6129036191
 11
2.1498840267
 21
16.8101816156
  0
LINE
  5
25F
100
AcDbEntity
  8
RACCORDO
100
AcDbLine
 62
253
  6
CONTINUOUS
 10
3.9279385212
 20
17.3080140803
 11
2.3266577304
 21
16.5052920768
  0
LINE
  5
260
100
AcDbEntity
  8
RACCORDO
100
AcDbLine
 62
253
  6
CONTINUOUS
 10
4.2794319893
 20
17.8763424391
 11
3.7511648175
 21
17.6129036191
  0
LINE
  5
261
100
AcDbEntity
  8
RACCORDO
100
AcDbLine
 62
253
  6
CONTINUOUS
 10
4.4562056929
 20
17.5714529003
 11
3.9279385212
 21
17.3080140803
  0
LINE
  5
262
100
AcDbEntity
  8
RACCORDO
100
AcDbLine
 62
253
  6
CONTINUOUS
 10
4.6703037023
 20
16.0342299207
 11
3.9508543264
 21
15.6944055167
  0
LINE
  5
263
100
AcDbEntity
  8
0
100
AcDbLine
 62
253
  6
CONTINUOUS
 10
9.3174782786
 20
18.5403521344
 11
13.0995004641
 21
20.188608394
  0
LINE
  5
264
100
AcDbEntity
  8
0
100
AcDbLine
 62
253
  6
CONTINUOUS
 10
13.5742828258
 20
19.2756896553
 11
6.7033689771
 21
16.2812527628
  0
LINE
  5
265
100
AcDbEntity
  8
RACCORDO
100
AcDbLine
 62
7
  6
CONTINUOUS
 10
-12.085397424
 20
22.638893469
 11
-12.085397424
 21
23.0928656619
  0
LINE
  5
266
100
AcDbEntity
  8
RACCORDO
100
AcDbLine
 62
253
  6
CONTINUOUS
 10
-12.0121741193
 20
22.5471798654
 11
-12.0121741193
 21
23.0562540096
  0
LINE
  5
267
100
AcDbEntity
  8
RACCORDO
100
AcDbLine
 62
253
  6
CONTINUOUS
 10
-11.3901823937
 20
22.8479899487
 11
-11.3901823937
 21
23.1879638828
  0
LINE
  5
268
100
AcDbEntity
  8
RACCORDO
100
AcDbLine
 62
253
  6
CONTINUOUS
 10
-11.0376604341
 20
22.8474772249
 11
-11.0376604341
 21
23.187451159
  0
LINE
  5
269
100
AcDbEntity
  8
RACCORDO
100
AcDbLine
 62
253
  6
CONTINUOUS
 10
-10.6789617856
 20
22.5693943215
 11
-10.6789617856
 21
21.8805736986
  0
LINE
  5
26A
100
AcDbEntity
  8
RACCORDO
100
AcDbLine
 62
253
  6
CONTINUOUS
 10
-10.326439826
 20
22.698973702
 11
-10.326439826
 21
21.8913415802
  0
LINE
  5
26B
100
AcDbEntity
  8
RACCORDO
100
AcDbLine
 62
7
  6
CONTINUOUS
 10
3.9279385212
 20
15.7058634193
 11
3.0378783385
 21
15.209182498
  0
LINE
  5
26C
100
AcDbEntity
  8
DRAFT
100
AcDbLine
 62
7
  6
CONTINUOUS
 10
9.2534489075
 20
17.9631073928
 11
4.9294636935
 21
15.7411182404
  0
LINE
  5
26D
100
AcDbEntity
  8
0
100
AcDbLine
 62
253
  6
CONTINUOUS
 10
6.0937775416
 20
15.9764570449
 11
6.7033689771
 21
16.2812527628
  0
LINE
  5
26E
100
AcDbEntity
  8
0
100
AcDbLine
 62
253
  6
CONTINUOUS
 10
5.8600693279
 20
15.8123204652
 11
4.988598693
 21
15.3765851477
  0
LINE
  5
26F
100
AcDbEntity
  8
RACCORDO
100
AcDbLine
 62
253
  6
CONTINUOUS
 10
4.988598693
 20
15.4852967992
 11
4.2703511544
 21
15.1460373845
  0
LINE
  5
270
100
AcDbEntity
  8
RACCORDO
100
AcDbLine
 62
7
  6
CONTINUOUS
 10
9.5381949423
 20
-16.9031247633
 11
9.2805337853
 21
-16.7742941848
  0
LINE
  5
271
100
AcDbEntity
  8
RACCORDO
100
AcDbLine
 62
7
  6
CONTINUOUS
 10
-9.4363796432
 20
22.3880225015
 11
-9.4363796432
 21
23.9901731625
  0
LINE
  5
272
100
AcDbEntity
  8
SMUSSO
100
AcDbLine
 62
7
  6
CONTINUOUS
 10
-9.2663908581
 20
18.5046635062
 11
-9.2663908581
 21
18.5405618619
  0
LINE
  5
273
100
AcDbEntity
  8
RACCORDO
100
AcDbLine
 62
253
  6
CONTINUOUS
 10
-8.9081124715
 20
24.2536119825
 11
-8.9081124715
 21
23.9060804658
  0
LINE
  5
274
100
AcDbEntity
  8
RACCORDO
100
AcDbLine
 62
7
  6
CONTINUOUS
 10
-8.8359146145
 20
24.3414846147
 11
-8.8359146145
 21
23.993953098
  0
LINE
  5
275
100
AcDbEntity
  8
DRAFT
100
AcDbLine
 62
7
  6
CONTINUOUS
 10
-8.4817854886
 20
18.2003810334
 11
-8.4817854886
 21
18.9760017516
  0
LINE
  5
276
100
AcDbEntity
  8
0
100
AcDbLine
 62
253
  6
CONTINUOUS
 10
5.462609797
 20
14.0529311296
 11
6.5548353941
 21
14.5990439282
  0
LINE
  5
277
100
AcDbEntity
  8
0
100
AcDbLine
 62
253
  6
CONTINUOUS
 10
6.5548353941
 20
14.5840204035
 11
5.462609797
 21
14.037907605
  0
LINE
  5
278
100
AcDbEntity
  8
0
100
AcDbLine
 62
7
  6
CONTINUOUS
 10
6.2949422084
 20
14.0431466031
 11
5.2027166113
 21
13.4970338046
  0
LINE
  5
279
100
AcDbEntity
  8
RACCORDO
100
AcDbLine
 62
7
  6
CONTINUOUS
 10
-12.8846166608
 20
3.4319731791
 11
-12.8842201417
 21
3.4321606526
  0
LINE
  5
27A
100
AcDbEntity
  8
DRAFT
100
AcDbLine
 62
7
  6
CONTINUOUS
 10
5.5641581937
 20
12.7830467144
 11
4.988598693
 21
12.5111871912
  0
LWPOLYLINE
  5
27B
100
AcDbEntity
  8
RACCORDO
100
AcDbPolyline
 62
7
  6
CONTINUOUS
 90
28
 70
0
 10
-12.8846131875
 20
3.4319742972
 10
-12.8377501582
 20
3.453483122
 10
-12.7427216076
 20
3.4932084945
 10
-12.6463807434
 20
3.5284393526
 10
-12.5488381041
 20
3.5592460717
 10
-12.4501235648
 20
3.5857221475
 10
-12.3501858842
 20
3.6079714251
 10
-12.2490784881
 20
3.626057964
 10
-12.1468984703
 20
3.6400371073
 10
-12.0436646315
 20
3.6499768874
 10
-11.9394619691
 20
3.6559319953
 10
-11.8343819584
 20
3.6579603049
 10
-11.7284576697
 20
3.6561213105
 10
-11.6218372454
 20
3.6504747835
 10
-11.5145679121
 20
3.6410824612
 10
-11.4065242572
 20
3.6279785251
 10
-11.2978101093
 20
3.6112089035
 10
-11.1885113838
 20
3.5908230881
 10
-11.0784591641
 20
3.5668129396
 10
-10.9677441911
 20
3.5392090741
 10
-10.8564562913
 20
3.5080481028
 10
-10.7444084644
 20
3.4732795413
 10
-10.6316882217
 20
3.4349199696
 10
-10.5183774976
 20
3.3929895591
 10
-10.404267222
 20
3.3473905051
 10
-10.2893403558
 20
3.2980785938
 10
-10.173785563
 20
3.245101059
 10
-10.067515276
 20
3.193393235
  0
LINE
  5
27C
100
AcDbEntity
  8
RACCORDO
100
AcDbLine
 62
253
  6
CONTINUOUS
 10
6.202485659
 20
-13.9289863912
 11
6.7411012353
 21
-14.1982941794
  0
LINE
  5
27D
100
AcDbEntity
  8
RACCORDO
100
AcDbLine
 62
7
  6
CONTINUOUS
 10
6.202485659
 20
-13.8060509072
 11
7.1233189005
 21
-14.2664675279
  0
LINE
  5
27E
100
AcDbEntity
  8
0
100
AcDbLine
 62
7
  6
CONTINUOUS
 10
6.3596175505
 20
-15.0901705945
 11
6.192493596
 21
-14.9905853079
  0
LINE
  5
27F
100
AcDbEntity
  8
RACCORDO
100
AcDbLine
 62
7
  6
CONTINUOUS
 10
-7.2119556389
 20
21.873747087
 11
-7.2119556389
 21
20.6335580544
  0
LINE
  5
280
100
AcDbEntity
  8
RACCORDO
100
AcDbLine
 62
253
  6
CONTINUOUS
 10
-7.0655090295
 20
21.530677256
 11
-7.0655090295
 21
20.4500939452
  0
LINE
  5
281
100
AcDbEntity
  8
0
100
AcDbLine
 62
7
  6
CONTINUOUS
 10
-10.2546181866
 20
-2.5496174652
 11
-9.7100105994
 21
-1.7685403406
  0
LINE
  5
282
100
AcDbEntity
  8
RACCORDO
100
AcDbLine
 62
253
  6
CONTINUOUS
 10
3.9279385212
 20
16.5809692278
 11
4.4562056929
 21
17.2239213836
  0
LINE
  5
283
100
AcDbEntity
  8
RACCORDO
100
AcDbLine
 62
7
  6
CONTINUOUS
 10
3.9279385212
 20
16.4914387615
 11
4.527298723
 21
17.2209179993
  0
LINE
  5
284
100
AcDbEntity
  8
RACCORDO
100
AcDbLine
 62
7
  6
CONTINUOUS
 10
-3.4836630765
 20
6.9837669451
 11
-3.353861626
 21
7.0486676704
  0
LINE
  5
285
100
AcDbEntity
  8
0
100
AcDbLine
 62
7
  6
CONTINUOUS
 10
-12.3046342269
 20
1.0322817962
 11
-9.1347994933
 21
2.617199163
  0
LINE
  5
286
100
AcDbEntity
  8
SMUSSO
100
AcDbLine
 62
7
  6
CONTINUOUS
 10
-5.0101743507
 20
16.3765552525
 11
-5.0101743507
 21
16.4124536082
  0
LINE
  5
287
100
AcDbEntity
  8
0
100
AcDbLine
 62
7
  6
CONTINUOUS
 10
-9.6916148441
 20
-3.6756241502
 11
-8.7399885921
 21
-3.7085843552
  0
LWPOLYLINE
  5
288
100
AcDbEntity
  8
RACCORDO
100
AcDbPolyline
 62
7
  6
CONTINUOUS
 90
10
 70
0
 10
-3.2308990627
 20
11.2959108346
 10
-3.2469017175
 20
10.8007318791
 10
-3.2628996744
 20
10.2915838577
 10
-3.2784280861
 20
9.782651626
 10
-3.2934869275
 20
9.2739360485
 10
-3.3080761791
 20
8.7654378069
 10
-3.322195826
 20
8.2571573999
 10
-3.3358458473
 20
7.7490955095
 10
-3.3490262175
 20
7.2412530007
 10
-3.3598704249
 20
6.8093483799
  0
LINE
  5
289
100
AcDbEntity
  8
0
100
AcDbLine
 62
7
  6
CONTINUOUS
 10
-8.639920297
 20
-1.1267424269
 11
-9.4218920152
 21
-1.517728286
  0
LINE
  5
28A
100
AcDbEntity
  8
DRAFT
100
AcDbLine
 62
253
  6
CONTINUOUS
 10
-1.7642710674
 20
21.6528840135
 11
-1.7642710674
 21
20.4664721717
  0
LINE
  5
28B
100
AcDbEntity
  8
RACCORDO
100
AcDbLine
 62
253
  6
CONTINUOUS
 10
-1.5542019298
 20
17.6944403954
 11
-1.5542019298
 21
18.7750237062
  0
LINE
  5
28C
100
AcDbEntity
  8
RACCORDO
100
AcDbLine
 62
253
  6
CONTINUOUS
 10
-0.8491580105
 20
17.7159761587
 11
-0.8491580105
 21
18.948703131
  0
LINE
  5
28D
100
AcDbEntity
  8
ASSI
100
AcDbLine
 62
253
  6
CONTINUOUS
 10
-0.7233886635
 20
23.3285337313
 11
-0.7233886635
 21
24.5558843283
  0
LINE
  5
28E
100
AcDbEntity
  8
ASSI
100
AcDbLine
 62
7
  6
CONTINUOUS
 10
-0.5980391563
 20
23.4775618897
 11
-0.5980391563
 21
24.5651959474
  0
LINE
  5
28F
100
AcDbEntity
  8
DRAFT
100
AcDbLine
 62
7
  6
CONTINUOUS
 10
-0.4914788612
 20
19.1280076758
 11
-0.4914788612
 21
17.9155721105
  0
LINE
  5
290
100
AcDbEntity
  8
DRAFT
100
AcDbLine
 62
253
  6
CONTINUOUS
 10
-0.350057505
 20
21.6528840135
 11
-0.350057505
 21
21.1874287358
  0
LINE
  5
291
100
AcDbEntity
  8
DRAFT
100
AcDbLine
 62
7
  6
CONTINUOUS
 10
-0.3085582022
 20
21.1666790844
 11
-0.3085582022
 21
21.4589292814
  0
LINE
  5
292
100
AcDbEntity
  8
0
100
AcDbLine
 62
7
  6
CONTINUOUS
 10
-7.5844723275
 20
-3.2375789854
 11
-8.3664677979
 21
-3.6285767206
  0
LWPOLYLINE
  5
293
100
AcDbEntity
  8
RACCORDO
100
AcDbPolyline
 62
7
  6
CONTINUOUS
 90
103
 70
0
 10
-10.0675130857
 20
3.1933921608
 10
-9.9618148935
 20
3.1391343181
 10
-9.845018637
 20
3.0759102801
 10
-9.7279164257
 20
3.0090784098
 10
-9.6105993535
 20
2.9386634768
 10
-9.4931543521
 20
2.8646939897
 10
-9.3756676903
 20
2.7872011371
 10
-9.2582224063
 20
2.7062165761
 10
-9.1409032188
 20
2.6217780504
 10
-9.0237957805
 20
2.5339264958
 10
-8.9069838663
 20
2.4427038568
 10
-8.7905506485
 20
2.348157008
 10
-8.6745778462
 20
2.2503343419
 10
-8.5591472757
 20
2.1492865042
 10
-8.4443392457
 20
2.0450679917
 10
-8.3302305397
 20
1.9377326402
 10
-8.2169009232
 20
1.8273389452
 10
-8.1044279972
 20
1.7139484929
 10
-7.9928830587
 20
1.5976190204
 10
-7.8823427841
 20
1.4784153675
 10
-7.7728824679
 20
1.3564060409
 10
-7.6645695629
 20
1.2316533934
 10
-7.5574747706
 20
1.104224649
 10
-7.4516737586
 20
0.9741980115
 10
-7.3472396818
 20
0.8416521665
 10
-7.2442406724
 20
0.7066614073
 10
-7.1427480778
 20
0.5693094042
 10
-7.0428376615
 20
0.4296899549
 10
-6.9445759948
 20
0.287886891
 10
-6.8480276535
 20
0.1439865466
 10
-6.7532629431
 20
-0.0019120945
 10
-6.6603439973
 20
-0.149719734
 10
-6.5693307888
 20
-0.299344964
 10
-6.4802879515
 20
-0.4506843272
 10
-6.3932727991
 20
-0.603643847
 10
-6.3083403653
 20
-0.7581277809
 10
-6.225549441
 20
-0.9140288089
 10
-6.1449522096
 20
-1.0712489608
 10
-6.0665983859
 20
-1.2296890002
 10
-5.9905406186
 20
-1.3892385737
 10
-5.9168255435
 20
-1.5497966695
 10
-5.8454973369
 20
-1.7112611497
 10
-5.7766024625
 20
-1.873518899
 10
-5.7101816042
 20
-2.0364668471
 10
-5.6462731657
 20
-2.2000005044
 10
-5.5849175398
 20
-2.3640035908
 10
-5.5261491713
 20
-2.5283716084
 10
-5.4700002528
 20
-2.692998619
 10
-5.4165048687
 20
-2.8577651904
 10
-5.3656910065
 20
-3.0225656652
 10
-5.317584069
 20
-3.1872939953
 10
-5.2722110171
 20
-3.3518292596
 10
-5.2295929261
 20
-3.5160657704
 10
-5.1897481881
 20
-3.6798979454
 10
-5.152696174
 20
-3.8432042522
 10
-5.1184511986
 20
-4.0058774031
 10
-5.0870237494
 20
-4.167815638
 10
-5.0584239123
 20
-4.3289050276
 10
-5.0326586298
 20
-4.4890402322
 10
-5.0097313309
 20
-4.6481213275
 10
-4.9896436059
 20
-4.8060417461
 10
-4.9723948461
 20
-4.962701152
 10
-4.9579817875
 20
-5.117999711
 10
-4.9463986162
 20
-5.2718308414
 10
-4.9376372815
 20
-5.4240952905
 10
-4.9316867847
 20
-5.5746989523
 10
-4.9285331146
 20
-5.7235422489
 10
-4.9281604017
 20
-5.8705155882
 10
-4.9305497334
 20
-6.0155438556
 10
-4.9356811037
 20
-6.1585768006
 10
-4.9435330672
 20
-6.2995175349
 10
-4.9540821632
 20
-6.4382843138
 10
-4.9673069062
 20
-6.5748444849
 10
-4.9831813167
 20
-6.7091080361
 10
-5.0016772996
 20
-6.8409915344
 10
-5.0227721196
 20
-6.9704656288
 10
-5.0464323906
 20
-7.0974314526
 10
-5.0726270802
 20
-7.2218207281
 10
-5.1013405263
 20
-7.3436406222
 10
-5.1325377695
 20
-7.462802907
 10
-5.1661835165
 20
-7.5792310474
 10
-5.2022670428
 20
-7.6929371942
 10
-5.2407440786
 20
-7.8038180553
 10
-5.2815820613
 20
-7.9118163702
 10
-5.324796779
 20
-8.0169955767
 10
-5.370316266
 20
-8.1191936351
 10
-5.4181348082
 20
-8.2184127267
 10
-5.4683949688
 20
-8.3149190695
 10
-5.5210955168
 20
-8.4086377349
 10
-5.5761974196
 20
-8.4994326216
 10
-5.6338215695
 20
-8.5874222529
 10
-5.6939899935
 20
-8.6725309847
 10
-5.7566616684
 20
-8.7545985646
 10
-5.8218835429
 20
-8.8335875429
 10
-5.8896395244
 20
-8.9093733927
 10
-5.9599360806
 20
-8.9818651625
 10
-6.0328756238
 20
-9.0510588996
 10
-6.1084521938
 20
-9.1168293209
 10
-6.1866994484
 20
-9.1790919652
 10
-6.2678173942
 20
-9.2378697291
 10
-6.3519106594
 20
-9.2930792601
 10
-6.4389682562
 20
-9.34455605
 10
-6.4852944142
 20
-9.3697376894
  0
LINE
  5
294
100
AcDbEntity
  8
RACCORDO
100
AcDbLine
 62
7
  6
CONTINUOUS
 10
0.5759277862
 20
17.2566854882
 11
0.5759277862
 21
16.9167115541
  0
LINE
  5
295
100
AcDbEntity
  8
RACCORDO
100
AcDbLine
 62
7
  6
CONTINUOUS
 10
0.5759277862
 20
-24.6062697241
 11
0.5759277862
 21
-24.7228665194
  0
LINE
  5
296
100
AcDbEntity
  8
RACCORDO
100
AcDbLine
 62
253
  6
CONTINUOUS
 10
0.6491510909
 20
17.1682971405
 11
0.6491510909
 21
16.8283232064
  0
LINE
  5
297
100
AcDbEntity
  8
RACCORDO
100
AcDbLine
 62
253
  6
CONTINUOUS
 10
0.6491510909
 20
-24.576100433
 11
0.6491510909
 21
-24.8112548671
  0
LINE
  5
298
100
AcDbEntity
  8
RACCORDO
100
AcDbLine
 62
7
  6
CONTINUOUS
 10
1.2789207405
 20
15.9567343868
 11
1.2789207405
 21
16.4107065797
  0
LINE
  5
299
100
AcDbEntity
  8
RACCORDO
100
AcDbLine
 62
253
  6
CONTINUOUS
 10
1.3521440452
 20
15.8650207832
 11
1.3521440452
 21
16.3740949274
  0
LINE
  5
29A
100
AcDbEntity
  8
RACCORDO
100
AcDbLine
 62
7
  6
CONTINUOUS
 10
1.7005521605
 20
23.6560959201
 11
1.7005521605
 21
23.3852956274
  0
LINE
  5
29B
100
AcDbEntity
  8
RACCORDO
100
AcDbLine
 62
253
  6
CONTINUOUS
 10
1.9741357707
 20
-25.473747207
 11
1.9741357707
 21
-25.1337732729
  0
LINE
  5
29C
100
AcDbEntity
  8
RACCORDO
100
AcDbLine
 62
253
  6
CONTINUOUS
 10
1.9741357707
 20
16.1658308665
 11
1.9741357707
 21
16.5058048006
  0
LINE
  5
29D
100
AcDbEntity
  8
RACCORDO
100
AcDbLine
 62
253
  6
CONTINUOUS
 10
2.3266577304
 20
-25.4742599309
 11
2.3266577304
 21
-25.1342859967
  0
LINE
  5
29E
100
AcDbEntity
  8
RACCORDO
100
AcDbLine
 62
253
  6
CONTINUOUS
 10
2.3266577304
 20
16.1653181426
 11
2.3266577304
 21
16.5052920768
  0
LINE
  5
29F
100
AcDbEntity
  8
0
100
AcDbLine
 62
7
  6
CONTINUOUS
 10
12.1132497688
 20
6.0019867258
 11
14.5311896412
 21
7.3661550564
  0
LINE
  5
2A0
100
AcDbEntity
  8
0
100
AcDbLine
 62
253
  6
CONTINUOUS
 10
15.4949490633
 20
6.6371719655
 11
13.0629263745
 21
5.3239872718
  0
LINE
  5
2A1
100
AcDbEntity
  8
0
100
AcDbLine
 62
7
  6
CONTINUOUS
 10
12.1132497697
 20
5.7388018347
 11
9.3569130958
 21
4.3606334978
  0
LINE
  5
2A2
100
AcDbEntity
  8
0
100
AcDbLine
 62
253
  6
CONTINUOUS
 10
12.9182293886
 20
5.3634740176
 11
10.1347307223
 21
3.9717246845
  0
LINE
  5
2A3
100
AcDbEntity
  8
0
100
AcDbLine
 62
7
  6
CONTINUOUS
 10
8.7930899358
 20
-2.1757090981
 11
8.0152723093
 21
-1.7868002848
  0
LINE
  5
2A4
100
AcDbEntity
  8
0
100
AcDbLine
 62
253
  6
CONTINUOUS
 10
8.6347307223
 20
-2.0795448322
 11
7.8569130958
 21
-1.6906360189
  0
LINE
  5
2A5
100
AcDbEntity
  8
0
100
AcDbLine
 62
253
  6
CONTINUOUS
 10
7.6246800487
 20
-1.5223263091
 11
8.4024976753
 21
-1.9112351224
  0
LINE
  5
2A6
100
AcDbEntity
  8
RACCORDO
100
AcDbLine
 62
253
  6
CONTINUOUS
 10
2.6853563788
 20
15.8872352393
 11
2.6853563788
 21
15.1984146164
  0
LINE
  5
2A7
100
AcDbEntity
  8
RACCORDO
100
AcDbLine
 62
253
  6
CONTINUOUS
 10
2.6853563788
 20
-23.7323966829
 11
2.6853563788
 21
-24.1572767957
  0
LINE
  5
2A8
100
AcDbEntity
  8
RACCORDO
100
AcDbLine
 62
253
  6
CONTINUOUS
 10
3.0378783385
 20
16.0168146198
 11
3.0378783385
 21
15.209182498
  0
LINE
  5
2A9
100
AcDbEntity
  8
RACCORDO
100
AcDbLine
 62
253
  6
CONTINUOUS
 10
3.0378783385
 20
-23.5846212714
 11
3.0378783385
 21
-24.2827895196
  0
LINE
  5
2AA
100
AcDbEntity
  8
RACCORDO
100
AcDbLine
 62
7
  6
CONTINUOUS
 10
3.9279385212
 20
-23.2109839491
 11
3.9279385212
 21
-24.6942253312
  0
LINE
  5
2AB
100
AcDbEntity
  8
RACCORDO
100
AcDbLine
 62
7
  6
CONTINUOUS
 10
3.9279385212
 20
15.7058634193
 11
3.9279385212
 21
17.3080140803
  0
LINE
  5
2AC
100
AcDbEntity
  8
0
100
AcDbLine
 62
7
  6
CONTINUOUS
 10
-8.0561050697
 20
-7.4647765183
 11
-4.9286635491
 21
-5.901055758
  0
LINE
  5
2AD
100
AcDbEntity
  8
0
100
AcDbLine
 62
253
  6
CONTINUOUS
 10
8.1953908941
 20
-1.4024160773
 11
7.4175732675
 21
-1.013507264
  0
LINE
  5
2AE
100
AcDbEntity
  8
0
100
AcDbLine
 62
7
  6
CONTINUOUS
 10
7.8569130963
 20
-1.6906360192
 11
7.6246800493
 21
-1.5223263094
  0
LINE
  5
2AF
100
AcDbEntity
  8
0
100
AcDbLine
 62
253
  6
CONTINUOUS
 10
8.4024976753
 20
-1.9112351224
 11
8.6347307223
 21
-2.0795448322
  0
LINE
  5
2B0
100
AcDbEntity
  8
RACCORDO
100
AcDbLine
 62
253
  6
CONTINUOUS
 10
4.4562056929
 20
17.5714529003
 11
4.4562056929
 21
17.2239213836
  0
LINE
  5
2B1
100
AcDbEntity
  8
RACCORDO
100
AcDbLine
 62
253
  6
CONTINUOUS
 10
4.4562056929
 20
-24.0756827558
 11
4.4562056929
 21
-24.4232142726
  0
LINE
  5
2B2
100
AcDbEntity
  8
RACCORDO
100
AcDbLine
 62
7
  6
CONTINUOUS
 10
4.5284035499
 20
17.6593255325
 11
4.5284035499
 21
17.2240810535
  0
LINE
  5
2B3
100
AcDbEntity
  8
RACCORDO
100
AcDbLine
 62
7
  6
CONTINUOUS
 10
4.5284035499
 20
-23.9878101236
 11
4.5284035499
 21
-24.3353416404
  0
LINE
  5
2B4
100
AcDbEntity
  8
ASSI
100
AcDbLine
 62
253
  6
CONTINUOUS
 10
4.833355209
 20
20.5519035424
 11
4.833355209
 21
21.7789535097
  0
LINE
  5
2B5
100
AcDbEntity
  8
ASSI
100
AcDbLine
 62
7
  6
CONTINUOUS
 10
4.9569492729
 20
20.7000671632
 11
4.9569492729
 21
21.7877436523
  0
LINE
  5
2B6
100
AcDbEntity
  8
RACCORDO
100
AcDbLine
 62
7
  6
CONTINUOUS
 10
4.988598693
 20
-22.5179546595
 11
4.988598693
 21
-19.5438450515
  0
LINE
  5
2B7
100
AcDbEntity
  8
RACCORDO
100
AcDbLine
 62
7
  6
CONTINUOUS
 10
4.988598693
 20
12.5111871912
 11
4.988598693
 21
15.4852967992
  0
LINE
  5
2B8
100
AcDbEntity
  8
0
100
AcDbLine
 62
253
  6
CONTINUOUS
 10
5.462609797
 20
14.037907605
 11
5.462609797
 21
14.0529311296
  0
LINE
  5
2B9
100
AcDbEntity
  8
DRAFT
100
AcDbLine
 62
7
  6
CONTINUOUS
 10
5.5641581937
 20
-19.2598932256
 11
5.5641581937
 21
12.7830467144
  0
LINE
  5
2BA
100
AcDbEntity
  8
0
100
AcDbLine
 62
253
  6
CONTINUOUS
 10
5.9095924402
 20
13.850471719
 11
5.9095924402
 21
-15.0555604026
  0
LINE
  5
2BB
100
AcDbEntity
  8
0
100
AcDbLine
 62
7
  6
CONTINUOUS
 10
6.202485659
 20
-14.9965393464
 11
6.202485659
 21
13.9969183284
  0
LINE
  5
2BC
100
AcDbEntity
  8
0
100
AcDbLine
 62
7
  6
CONTINUOUS
 10
7.6246800491
 20
2.4491318365
 11
7.8569130961
 21
2.8496745933
  0
LINE
  5
2BD
100
AcDbEntity
  8
0
100
AcDbLine
 62
253
  6
CONTINUOUS
 10
8.6347307223
 20
2.4607657802
 11
8.4024976753
 21
2.0602230234
  0
LINE
  5
2BE
100
AcDbEntity
  8
RACCORDO
100
AcDbLine
 62
7
  6
CONTINUOUS
 10
-6.4848687534
 20
-9.3695132358
 11
-6.4853065395
 21
-9.3697442943
  0
LINE
  5
2BF
100
AcDbEntity
  8
RACCORDO
100
AcDbLine
 62
253
  6
CONTINUOUS
 10
-3.3321256071
 20
6.7114581437
 11
-16.9735385867
 21
13.5321646335
  0
LINE
  5
2C0
100
AcDbEntity
  8
RACCORDO
100
AcDbLine
 62
7
  6
CONTINUOUS
 10
-3.5368793955
 20
6.9666807242
 11
-16.6936455868
 21
13.5450638199
  0
LINE
  5
2C1
100
AcDbEntity
  8
RACCORDO
100
AcDbLine
 62
253
  6
CONTINUOUS
 10
-3.3581352439
 20
6.8784574145
 11
-3.5312888243
 21
6.9650342047
  0
LINE
  5
2C2
100
AcDbEntity
  8
RACCORDO
100
AcDbLine
 62
253
  6
CONTINUOUS
 10
-16.7110228906
 20
13.5549012379
 11
-16.8328041799
 21
13.6157918825
  0
LINE
  5
2C3
100
AcDbEntity
  8
RACCORDO
100
AcDbLine
 62
253
  6
CONTINUOUS
 10
-3.6358349843
 20
7.0599882176
 11
-16.6465997582
 21
13.5653706045
  0
LINE
  5
2C4
100
AcDbEntity
  8
0
100
AcDbLine
 62
253
  6
CONTINUOUS
 10
7.4175732675
 20
1.7332060104
 11
8.1953908941
 21
1.3442971971
  0
LINE
  5
2C5
100
AcDbEntity
  8
0
100
AcDbLine
 62
253
  6
CONTINUOUS
 10
8.4024976753
 20
2.0602230234
 11
7.6246800487
 21
2.4491318367
  0
LINE
  5
2C6
100
AcDbEntity
  8
0
100
AcDbLine
 62
253
  6
CONTINUOUS
 10
7.8569130958
 20
2.8496745935
 11
8.6347307223
 21
2.4607657802
  0
LINE
  5
2C7
100
AcDbEntity
  8
0
100
AcDbLine
 62
253
  6
CONTINUOUS
 10
6.5548353941
 20
14.5990439282
 11
6.5548353941
 21
14.5840204035
  0
LINE
  5
2C8
100
AcDbEntity
  8
0
100
AcDbLine
 62
253
  6
CONTINUOUS
 10
6.5548353941
 20
-16.3027756224
 11
6.5548353941
 21
-16.317799147
  0
LINE
  5
2C9
100
AcDbEntity
  8
0
100
AcDbLine
 62
7
  6
CONTINUOUS
 10
6.8477286129
 20
14.9525973187
 11
6.8477286129
 21
14.9375737941
  0
LINE
  5
2CA
100
AcDbEntity
  8
0
100
AcDbLine
 62
7
  6
CONTINUOUS
 10
6.8477286129
 20
-15.9642457564
 11
6.8477286129
 21
-15.9492222318
  0
LINE
  5
2CB
100
AcDbEntity
  8
RACCORDO
100
AcDbLine
 62
7
  6
CONTINUOUS
 10
7.3006347979
 20
-15.6057842909
 11
7.3006347979
 21
-14.5605890804
  0
LINE
  5
2CC
100
AcDbEntity
  8
0
100
AcDbLine
 62
7
  6
CONTINUOUS
 10
7.4175732681
 20
-1.0135072643
 11
7.417573268
 21
1.7332060101
  0
LWPOLYLINE
  5
2CD
100
AcDbEntity
  8
0
100
AcDbPolyline
 62
7
  6
CONTINUOUS
 90
17
 70
0
 10
16.537672357
 20
0.2219014843
 10
16.6588835959
 20
0.2865919088
 10
16.786345752
 20
0.3671646028
 10
16.9082470253
 20
0.4576885353
 10
17.0244876701
 20
0.5580920675
 10
17.1345781658
 20
0.6680415377
 10
17.2384998502
 20
0.7875745006
 10
17.3358302577
 20
0.9163981813
 10
17.4257840824
 20
1.0535673205
 10
17.5081855967
 20
1.1987629739
 10
17.5829898883
 20
1.3519928403
 10
17.6500228358
 20
1.5132476888
 10
17.7091284683
 20
1.6827788184
 10
17.7596465935
 20
1.8592648954
 10
17.8011294324
 20
2.041532396
 10
17.8335191259
 20
2.2298959971
 10
17.8495366039
 20
2.354894235
  0
LINE
  5
2CE
100
AcDbEntity
  8
0
100
AcDbLine
 62
253
  6
CONTINUOUS
 10
10.5960882802
 20
-2.5097779584
 11
6.202485659
 21
-4.7065792702
  0
LINE
  5
2CF
100
AcDbEntity
  8
0
100
AcDbLine
 62
7
  6
CONTINUOUS
 10
11.6999785022
 20
-2.1899100041
 11
14.5378724634
 21
-0.7709630235
  0
LINE
  5
2D0
100
AcDbEntity
  8
0
100
AcDbLine
 62
7
  6
CONTINUOUS
 10
11.9656258629
 20
-2.1332045892
 11
6.202485659
 21
-5.0147746659
  0
LINE
  5
2D1
100
AcDbEntity
  8
0
100
AcDbLine
 62
7
  6
CONTINUOUS
 10
14.6581264526
 20
-0.7010861972
 11
16.5408055844
 21
0.2234358999
  0
LINE
  5
2D2
100
AcDbEntity
  8
0
100
AcDbLine
 62
253
  6
CONTINUOUS
 10
10.1347307223
 20
3.9717246845
 11
9.3569130958
 21
4.3606334978
  0
LINE
  5
2D3
100
AcDbEntity
  8
DRAFT
100
AcDbLine
 62
7
  6
CONTINUOUS
 10
9.2805337853
 20
-16.7742941848
 11
9.2805337853
 21
-15.7950472648
  0
LINE
  5
2D4
100
AcDbEntity
  8
DRAFT
100
AcDbLine
 62
7
  6
CONTINUOUS
 10
9.2805337853
 20
18.6125899359
 11
9.2805337853
 21
18.9694078195
  0
LINE
  5
2D5
100
AcDbEntity
  8
RACCORDO
100
AcDbLine
 62
253
  6
CONTINUOUS
 10
9.5443114519
 20
19.6061820517
 11
9.5443114519
 21
19.1088520948
  0
LINE
  5
2D6
100
AcDbEntity
  8
RACCORDO
100
AcDbLine
 62
253
  6
CONTINUOUS
 10
9.5443114519
 20
-17.2498531565
 11
9.5443114519
 21
-17.7471831135
  0
LINE
  5
2D7
100
AcDbEntity
  8
RACCORDO
100
AcDbLine
 62
7
  6
CONTINUOUS
 10
9.6846415517
 20
19.9066865604
 11
9.6846415517
 21
19.2851161684
  0
LINE
  5
2D8
100
AcDbEntity
  8
RACCORDO
100
AcDbLine
 62
7
  6
CONTINUOUS
 10
9.6846415517
 20
-17.0787880449
 11
9.6846415517
 21
-17.7003584369
  0
LINE
  5
2D9
100
AcDbEntity
  8
0
100
AcDbLine
 62
7
  6
CONTINUOUS
 10
12.9182293886
 20
5.3634740176
 11
12.1132497697
 21
5.7388018347
  0
LINE
  5
2DA
100
AcDbEntity
  8
RACCORDO
100
AcDbLine
 62
253
  6
CONTINUOUS
 10
-3.5100200163
 20
11.385213551
 11
-16.5207847902
 21
17.8905959379
  0
LINE
  5
2DB
100
AcDbEntity
  8
RACCORDO
100
AcDbLine
 62
253
  6
CONTINUOUS
 10
-2.6087381356
 20
10.9644401608
 11
-3.2016035329
 21
11.2608728594
  0
LINE
  5
2DC
100
AcDbEntity
  8
RACCORDO
100
AcDbLine
 62
253
  6
CONTINUOUS
 10
-16.8407188159
 20
18.0804305009
 11
-17.4335842132
 21
18.3768631996
  0
LINE
  5
2DD
100
AcDbEntity
  8
RACCORDO
100
AcDbLine
 62
253
  6
CONTINUOUS
 10
-2.5057645307
 20
13.1312740629
 11
-15.5165293045
 21
19.6366564498
  0
LINE
  5
2DE
100
AcDbEntity
  8
RACCORDO
100
AcDbLine
 62
253
  6
CONTINUOUS
 10
-1.5927997424
 20
12.7045581251
 11
-2.2055310424
 21
13.0109237751
  0
LINE
  5
2DF
100
AcDbEntity
  8
RACCORDO
100
AcDbLine
 62
253
  6
CONTINUOUS
 10
-15.8282869032
 20
19.8223017055
 11
-16.4410182032
 21
20.1286673555
  0
LINE
  5
2E0
100
AcDbEntity
  8
0
100
AcDbLine
 62
7
  6
CONTINUOUS
 10
12.1132497697
 20
6.0019867254
 11
12.1132497697
 21
5.7388018848
  0
LINE
  5
2E1
100
AcDbEntity
  8
RACCORDO
100
AcDbLine
 62
7
  6
CONTINUOUS
 10
-13.6436649913
 20
20.6933005728
 11
-0.6329002175
 21
14.1879181859
  0
LINE
  5
2E2
100
AcDbEntity
  8
RACCORDO
100
AcDbLine
 62
7
  6
CONTINUOUS
 10
-13.9332660108
 20
20.8739994383
 11
-9.2663908581
 21
18.5405618619
  0
LINE
  5
2E3
100
AcDbEntity
  8
RACCORDO
100
AcDbLine
 62
7
  6
CONTINUOUS
 10
-5.0101743507
 20
16.4124536082
 11
-0.3432991979
 21
14.0790160319
  0
LINE
  5
2E4
100
AcDbEntity
  8
0
100
AcDbLine
 62
7
  6
CONTINUOUS
 10
12.1132497697
 20
5.8345479753
 11
13.0629263745
 21
5.3239872718
  0
LINE
  5
2E5
100
AcDbEntity
  8
0
100
AcDbLine
 62
7
  6
CONTINUOUS
 10
14.9227507944
 20
9.584474118
 11
14.9227670536
 21
9.5846777354
  0
LWPOLYLINE
  5
2E6
100
AcDbEntity
  8
0
100
AcDbPolyline
 62
7
  6
CONTINUOUS
 90
7
 70
0
 10
14.7899774949
 20
8.0238057518
 10
14.8127023639
 20
8.2781448372
 10
14.8343923335
 20
8.5257723427
 10
14.8550856394
 20
8.7667362653
 10
14.8748246444
 20
9.0011479565
 10
14.8936445084
 20
9.2290496111
 10
14.9222653242
 20
9.5844970089
  0
LINE
  5
2E7
100
AcDbEntity
  8
0
100
AcDbLine
 62
7
  6
CONTINUOUS
 10
14.7564397739
 20
7.6570651941
 11
14.7899774949
 21
8.0238057518
  0
LINE
  5
2E8
100
AcDbEntity
  8
0
100
AcDbLine
 62
253
  6
CONTINUOUS
 10
14.2989902594
 20
7.2351513674
 11
15.4949490633
 21
6.6371719655
  0
LINE
  5
2E9
100
AcDbEntity
  8
DRAFT
100
AcDbLine
 62
7
  6
CONTINUOUS
 10
-8.4817854886
 20
18.9760017516
 11
-4.2391448015
 21
16.854681408
  0
LINE
  5
2EA
100
AcDbEntity
  8
DRAFT
100
AcDbLine
 62
7
  6
CONTINUOUS
 10
5.5641581937
 20
12.7830467144
 11
4.988598693
 21
13.0708264648
  0
LINE
  5
2EB
100
AcDbEntity
  8
RACCORDO
100
AcDbLine
 62
7
  6
CONTINUOUS
 10
2.6853563788
 20
15.1984146164
 11
1.3521440452
 21
15.8650207832
  0
LINE
  5
2EC
100
AcDbEntity
  8
RACCORDO
100
AcDbLine
 62
7
  6
CONTINUOUS
 10
-10.6789617856
 20
21.8805736986
 11
-12.0121741193
 21
22.5471798654
  0
LINE
  5
2ED
100
AcDbEntity
  8
0
100
AcDbLine
 62
7
  6
CONTINUOUS
 10
15.7307419808
 20
6.6570365337
 11
14.4284437729
 21
7.3081872545
  0
LINE
  5
2EE
100
AcDbEntity
  8
0
100
AcDbLine
 62
7
  6
CONTINUOUS
 10
15.2114208292
 20
17.9707340721
 11
15.1957088674
 21
18.1307446314
  0
LINE
  5
2EF
100
AcDbEntity
  8
0
100
AcDbLine
 62
7
  6
CONTINUOUS
 10
15.2921515439
 20
17.3377456713
 11
15.2911223894
 21
17.3483470881
  0
LINE
  5
2F0
100
AcDbEntity
  8
0
100
AcDbLine
 62
7
  6
CONTINUOUS
 10
15.1957088674
 20
18.1307446314
 11
15.1866154969
 21
18.2260094588
  0
LINE
  5
2F1
100
AcDbEntity
  8
0
100
AcDbLine
 62
7
  6
CONTINUOUS
 10
15.2931360839
 20
17.3269987682
 11
15.2921515439
 21
17.3377456713
  0
LINE
  5
2F2
100
AcDbEntity
  8
0
100
AcDbLine
 62
253
  6
CONTINUOUS
 10
14.9700932409
 20
17.8922628346
 11
14.946798364
 21
18.1636726662
  0
LINE
  5
2F3
100
AcDbEntity
  8
0
100
AcDbLine
 62
7
  6
CONTINUOUS
 10
15.1868280574
 20
18.2237555121
 11
15.1668341408
 21
18.4570990676
  0
LINE
  5
2F4
100
AcDbEntity
  8
0
100
AcDbLine
 62
7
  6
CONTINUOUS
 10
15.2940762685
 20
17.3161121711
 11
15.2931360839
 21
17.3269987682
  0
LINE
  5
2F5
100
AcDbEntity
  8
0
100
AcDbLine
 62
7
  6
CONTINUOUS
 10
15.2949728151
 20
17.3050808002
 11
15.2940762685
 21
17.3161121711
  0
LINE
  5
2F6
100
AcDbEntity
  8
0
100
AcDbLine
 62
7
  6
CONTINUOUS
 10
15.295824902
 20
17.2939162084
 11
15.2949728151
 21
17.3050808002
  0
LINE
  5
2F7
100
AcDbEntity
  8
0
100
AcDbLine
 62
7
  6
CONTINUOUS
 10
15.2966328699
 20
17.2826248582
 11
15.295824902
 21
17.2939162084
  0
LINE
  5
2F8
100
AcDbEntity
  8
0
100
AcDbLine
 62
7
  6
CONTINUOUS
 10
15.2977645941
 20
17.265461949
 11
15.2966328699
 21
17.2826248582
  0
LINE
  5
2F9
100
AcDbEntity
  8
0
100
AcDbLine
 62
7
  6
CONTINUOUS
 10
15.298806345
 20
17.2479764302
 11
15.2977645941
 21
17.265461949
  0
LINE
  5
2FA
100
AcDbEntity
  8
0
100
AcDbLine
 62
7
  6
CONTINUOUS
 10
15.2997595163
 20
17.230214629
 11
15.298806345
 21
17.2479764302
  0
LINE
  5
2FB
100
AcDbEntity
  8
0
100
AcDbLine
 62
7
  6
CONTINUOUS
 10
15.3006286876
 20
17.2122069936
 11
15.2997595163
 21
17.230214629
  0
LINE
  5
2FC
100
AcDbEntity
  8
0
100
AcDbLine
 62
7
  6
CONTINUOUS
 10
15.3014175698
 20
17.1940108727
 11
15.3006286876
 21
17.2122069936
  0
LINE
  5
2FD
100
AcDbEntity
  8
0
100
AcDbLine
 62
7
  6
CONTINUOUS
 10
15.3023557118
 20
17.1695451298
 11
15.3014175698
 21
17.1940108727
  0
LINE
  5
2FE
100
AcDbEntity
  8
0
100
AcDbLine
 62
7
  6
CONTINUOUS
 10
15.3033762106
 20
17.1386434357
 11
15.3023557118
 21
17.1695451298
  0
LINE
  5
2FF
100
AcDbEntity
  8
0
100
AcDbLine
 62
7
  6
CONTINUOUS
 10
15.3042569346
 20
17.1069431959
 11
15.3033762106
 21
17.1386434357
  0
LINE
  5
300
100
AcDbEntity
  8
0
100
AcDbLine
 62
7
  6
CONTINUOUS
 10
15.305064563
 20
17.0712706305
 11
15.3042569346
 21
17.1069431959
  0
LINE
  5
301
100
AcDbEntity
  8
0
100
AcDbLine
 62
7
  6
CONTINUOUS
 10
15.1663656327
 20
18.4570589237
 11
15.1659701595
 21
18.476939155
  0
LINE
  5
302
100
AcDbEntity
  8
0
100
AcDbLine
 62
7
  6
CONTINUOUS
 10
15.3057443408
 20
17.0323926444
 11
15.305064563
 21
17.0712706305
  0
LINE
  5
303
100
AcDbEntity
  8
0
100
AcDbLine
 62
7
  6
CONTINUOUS
 10
14.9494237147
 20
16.0845119105
 11
14.9612141155
 21
15.1378886178
  0
LINE
  5
304
100
AcDbEntity
  8
0
100
AcDbLine
 62
7
  6
CONTINUOUS
 10
15.3062516502
 20
16.9923627667
 11
15.3057443408
 21
17.0323926444
  0
LINE
  5
305
100
AcDbEntity
  8
0
100
AcDbLine
 62
253
  6
CONTINUOUS
 10
14.94657759
 20
18.2007489456
 11
14.946798364
 21
18.1636726662
  0
LINE
  5
306
100
AcDbEntity
  8
0
100
AcDbLine
 62
7
  6
CONTINUOUS
 10
15.3066723611
 20
16.9391172071
 11
15.3062516502
 21
16.9923627667
  0
LINE
  5
307
100
AcDbEntity
  8
0
100
AcDbLine
 62
7
  6
CONTINUOUS
 10
15.3068830062
 20
16.8524155632
 11
15.3066723611
 21
16.9391172071
  0
LINE
  5
308
100
AcDbEntity
  8
0
100
AcDbLine
 62
253
  6
CONTINUOUS
 10
15.0871283955
 20
16.6069059182
 11
15.0870106308
 21
16.5464880881
  0
LINE
  5
309
100
AcDbEntity
  8
0
100
AcDbLine
 62
7
  6
CONTINUOUS
 10
15.3066217944
 20
16.8028700141
 11
15.3067492051
 21
16.8523873713
  0
LINE
  5
30A
100
AcDbEntity
  8
0
100
AcDbLine
 62
7
  6
CONTINUOUS
 10
15.306621744
 20
16.8028505096
 11
15.3065594243
 21
16.798564188
  0
LINE
  5
30B
100
AcDbEntity
  8
0
100
AcDbLine
 62
7
  6
CONTINUOUS
 10
5.8477286129
 20
-15.0831968281
 11
5.5641581937
 21
-15.2249820377
  0
LINE
  5
30C
100
AcDbEntity
  8
RACCORDO
100
AcDbLine
 62
253
  6
CONTINUOUS
 10
6.202485659
 20
-14.4665362705
 11
6.7411012353
 21
-14.1982941794
  0
LINE
  5
30D
100
AcDbEntity
  8
RACCORDO
100
AcDbLine
 62
253
  6
CONTINUOUS
 10
6.202485659
 20
-14.9380382505
 11
7.2725802961
 21
-14.4051082058
  0
LINE
  5
30E
100
AcDbEntity
  8
RACCORDO
100
AcDbLine
 62
7
  6
CONTINUOUS
 10
2.0998142369
 20
16.0094969819
 11
2.7242194863
 21
15.8791205864
  0
LINE
  5
30F
100
AcDbEntity
  8
RACCORDO
100
AcDbLine
 62
253
  6
CONTINUOUS
 10
2.3266577304
 20
16.1653181426
 11
3.0378783385
 21
16.0168146198
  0
LINE
  5
310
100
AcDbEntity
  8
RACCORDO
100
AcDbLine
 62
7
  6
CONTINUOUS
 10
-7.0655090295
 20
20.4500939452
 11
-1.5542019298
 21
17.6944403954
  0
LINE
  5
311
100
AcDbEntity
  8
RACCORDO
100
AcDbLine
 62
7
  6
CONTINUOUS
 10
-12.6501937771
 20
23.3752638385
 11
-11.3252090973
 21
22.7127714986
  0
LINE
  5
312
100
AcDbEntity
  8
RACCORDO
100
AcDbLine
 62
7
  6
CONTINUOUS
 10
0.7141243873
 20
16.6931047563
 11
2.0391090671
 21
16.0306124164
  0
LINE
  5
313
100
AcDbEntity
  8
RACCORDO
100
AcDbLine
 62
253
  6
CONTINUOUS
 10
-12.7151670735
 20
23.5104822886
 11
-11.3901823937
 21
22.8479899487
  0
LINE
  5
314
100
AcDbEntity
  8
RACCORDO
100
AcDbLine
 62
253
  6
CONTINUOUS
 10
0.6491510909
 20
16.8283232064
 11
1.9741357707
 21
16.1658308665
  0
LINE
  5
315
100
AcDbEntity
  8
RACCORDO
100
AcDbLine
 62
253
  6
CONTINUOUS
 10
1.9741357707
 20
16.5058048006
 11
0.6491510909
 21
17.1682971405
  0
LINE
  5
316
100
AcDbEntity
  8
RACCORDO
100
AcDbLine
 62
253
  6
CONTINUOUS
 10
-11.3901823937
 20
23.1879638828
 11
-12.7151670735
 21
23.8504562228
  0
LINE
  5
317
100
AcDbEntity
  8
DRAFT
100
AcDbLine
 62
7
  6
CONTINUOUS
 10
-9.4363796432
 20
22.3880225015
 11
-7.2119556389
 21
21.2758104993
  0
LINE
  5
318
100
AcDbEntity
  8
DRAFT
100
AcDbLine
 62
7
  6
CONTINUOUS
 10
-0.4914788612
 20
17.9155721105
 11
0.6024617401
 21
17.3686018099
  0
LINE
  5
319
100
AcDbEntity
  8
RACCORDO
100
AcDbLine
 62
7
  6
CONTINUOUS
 10
3.9279385212
 20
15.7058634193
 11
3.9512018731
 21
15.6942317434
  0
LINE
  5
31A
100
AcDbEntity
  8
RACCORDO
100
AcDbLine
 62
253
  6
CONTINUOUS
 10
2.1498840267
 20
16.8101816156
 11
0.8248993469
 21
17.4726739555
  0
LINE
  5
31B
100
AcDbEntity
  8
RACCORDO
100
AcDbLine
 62
253
  6
CONTINUOUS
 10
-11.2144341377
 20
23.4923406978
 11
-12.5394188176
 21
24.1548330377
  0
LINE
  5
31C
100
AcDbEntity
  8
RACCORDO
100
AcDbLine
 62
253
  6
CONTINUOUS
 10
-1.5542019298
 20
18.7750237062
 11
-7.0655090295
 21
21.530677256
  0
LINE
  5
31D
100
AcDbEntity
  8
RACCORDO
100
AcDbLine
 62
253
  6
CONTINUOUS
 10
-1.13137955
 20
18.8774132707
 11
-7.2071341997
 21
21.9152905955
  0
LINE
  5
31E
100
AcDbEntity
  8
RACCORDO
100
AcDbLine
 62
7
  6
CONTINUOUS
 10
-9.4363796432
 20
23.0875715935
 11
-8.0283369082
 21
22.383550226
  0
LINE
  5
31F
100
AcDbEntity
  8
RACCORDO
100
AcDbLine
 62
7
  6
CONTINUOUS
 10
3.9279385212
 20
16.4054125113
 11
4.6703037023
 21
16.0342299207
  0
LINE
  5
320
100
AcDbEntity
  8
DRAFT
100
AcDbLine
 62
7
  6
CONTINUOUS
 10
-6.7140185357
 20
22.239277513
 11
-0.4914788612
 21
19.1280076758
  0
LINE
  5
321
100
AcDbEntity
  8
0
100
AcDbLine
 62
253
  6
CONTINUOUS
 10
5.8600693279
 20
15.8123204652
 11
5.5008915205
 21
16.0347608803
  0
LINE
  5
322
100
AcDbEntity
  8
0
100
AcDbLine
 62
7
  6
CONTINUOUS
 10
6.3742410754
 20
15.8027647298
 11
5.7734635633
 21
16.1748289176
  0
LINE
  5
323
100
AcDbEntity
  8
0
100
AcDbLine
 62
7
  6
CONTINUOUS
 10
15.2900501197
 20
17.358787449
 11
15.2889365563
 21
17.3690568216
  0
LWPOLYLINE
  5
324
100
AcDbEntity
  8
0
100
AcDbPolyline
 62
7
  6
CONTINUOUS
 90
3
 70
0
 10
15.2343379855
 20
17.7528868306
 10
15.219635949
 20
17.8902008631
 10
15.2114208292
 20
17.9707340721
  0
LINE
  5
325
100
AcDbEntity
  8
0
100
AcDbLine
 62
7
  6
CONTINUOUS
 10
15.2911223894
 20
17.3483470881
 11
15.2900501197
 21
17.358787449
  0
LWPOLYLINE
  5
326
100
AcDbEntity
  8
0
100
AcDbPolyline
 62
7
  6
CONTINUOUS
 90
9
 70
0
 10
17.8701041945
 20
2.9834358647
 10
17.8659558211
 20
3.0640598252
 10
17.8601174355
 20
3.1474442264
 10
17.852408083
 20
3.2339233669
 10
17.8426773171
 20
3.3232961891
 10
17.8308334445
 20
3.4150463808
 10
17.8167715471
 20
3.5089796109
 10
17.8003365241
 20
3.6052563105
 10
17.7953856634
 20
3.6321274709
  0
LWPOLYLINE
  5
327
100
AcDbEntity
  8
0
100
AcDbPolyline
 62
7
  6
CONTINUOUS
 90
10
 70
0
 10
17.84956264
 20
2.3551311402
 10
17.8514582671
 20
2.3725135644
 10
17.8599949445
 20
2.4625837734
 10
17.8663767463
 20
2.551532865
 10
17.8707328417
 20
2.6391012754
 10
17.8732051585
 20
2.7254030058
 10
17.8739110844
 20
2.8101903619
 10
17.8729613417
 20
2.8932989254
 10
17.8704635495
 20
2.9747226449
 10
17.8700991489
 20
2.9835586612
  0
LINE
  5
328
100
AcDbEntity
  8
RACCORDO
100
AcDbLine
 62
253
  6
CONTINUOUS
 10
2.6848421505
 20
-24.1570196816
 11
2.0625241184
 21
-24.9020790991
  0
LINE
  5
329
100
AcDbEntity
  8
RACCORDO
100
AcDbLine
 62
253
  6
CONTINUOUS
 10
3.0378783385
 20
-24.2827895196
 11
2.3266577304
 21
-25.1342859967
  0
LINE
  5
32A
100
AcDbEntity
  8
0
100
AcDbLine
 62
253
  6
CONTINUOUS
 10
5.5641581937
 20
-16.7981142226
 11
6.5548353941
 21
-16.3027756224
  0
LINE
  5
32B
100
AcDbEntity
  8
0
100
AcDbLine
 62
253
  6
CONTINUOUS
 10
6.5548353941
 20
-16.317799147
 11
5.5641581937
 21
-16.8131377472
  0
LINE
  5
32C
100
AcDbEntity
  8
0
100
AcDbLine
 62
7
  6
CONTINUOUS
 10
6.2949422084
 20
-16.8586729474
 11
5.5641581937
 21
-17.2240649548
  0
LINE
  5
32D
100
AcDbEntity
  8
DRAFT
100
AcDbLine
 62
7
  6
CONTINUOUS
 10
8.7886142537
 20
-14.8822140473
 11
6.8402294427
 21
-15.8296688437
  0
LINE
  5
32E
100
AcDbEntity
  8
RACCORDO
100
AcDbLine
 62
7
  6
CONTINUOUS
 10
-10.9566622144
 20
24.9668171351
 11
-9.6131533469
 21
24.2950627013
  0
LINE
  5
32F
100
AcDbEntity
  8
RACCORDO
100
AcDbLine
 62
7
  6
CONTINUOUS
 10
2.40765595
 20
18.2846580528
 11
3.7511648175
 21
17.6129036191
  0
LINE
  5
330
100
AcDbEntity
  8
DRAFT
100
AcDbLine
 62
7
  6
CONTINUOUS
 10
-5.3705156514
 20
22.2695944637
 11
-0.4207681831
 21
19.7947207295
  0
LINE
  5
331
100
AcDbEntity
  8
RACCORDO
100
AcDbLine
 62
253
  6
CONTINUOUS
 10
-10.4222123357
 20
25.2271646016
 11
-9.0848861752
 21
24.5585015213
  0
LINE
  5
332
100
AcDbEntity
  8
RACCORDO
100
AcDbLine
 62
253
  6
CONTINUOUS
 10
2.9421058287
 20
18.5450055194
 11
4.2794319893
 21
17.8763424391
  0
LINE
  5
333
100
AcDbEntity
  8
RACCORDO
100
AcDbLine
 62
7
  6
CONTINUOUS
 10
-10.3114373762
 20
25.2337544927
 11
-8.9741112156
 21
24.5650914125
  0
LINE
  5
334
100
AcDbEntity
  8
RACCORDO
100
AcDbLine
 62
7
  6
CONTINUOUS
 10
3.0528807883
 20
18.5515954105
 11
4.3902069488
 21
17.8829323302
  0
LINE
  5
335
100
AcDbEntity
  8
0
100
AcDbLine
 62
7
  6
CONTINUOUS
 10
-0.6756673652
 20
21.2425918868
 11
0.9091293783
 21
20.450193515
  0
LINE
  5
336
100
AcDbEntity
  8
0
100
AcDbLine
 62
7
  6
CONTINUOUS
 10
-0.4710479734
 20
21.24792397
 11
1.0175436478
 21
20.5036281594
  0
LWPOLYLINE
  5
337
100
AcDbEntity
  8
0
100
AcDbPolyline
 62
7
  6
CONTINUOUS
 90
6
 70
0
 10
15.2698227593
 20
17.4938196718
 10
15.2692475885
 20
17.4965315312
 10
15.2677856342
 20
17.5036544163
 10
15.2661244692
 20
17.5121651266
 10
15.2641901999
 20
17.5226585765
 10
15.2620843152
 20
17.5348412815
  0
LINE
  5
338
100
AcDbEntity
  8
0
100
AcDbLine
 62
7
  6
CONTINUOUS
 10
15.2706810062
 20
17.4896182905
 11
15.2698227593
 21
17.4938196718
  0
LWPOLYLINE
  5
339
100
AcDbEntity
  8
0
100
AcDbPolyline
 62
7
  6
CONTINUOUS
 90
19
 70
0
 10
17.7953880412
 20
3.6321149556
 10
17.7661529477
 20
3.7759851483
 10
17.7120767613
 20
3.9976898534
 10
17.6478231886
 20
4.2161875895
 10
17.5734999556
 20
4.4315695163
 10
17.4889054858
 20
4.6441514585
 10
17.3940320618
 20
4.8533638885
 10
17.289335939
 20
5.0578706554
 10
17.1762658303
 20
5.2547102463
 10
17.0551418342
 20
5.4435352616
 10
16.9257122546
 20
5.6247033577
 10
16.7877979329
 20
5.7980243539
 10
16.6428739308
 20
5.9613880768
 10
16.492759992
 20
6.112816697
 10
16.3374133661
 20
6.2524371088
 10
16.1774544018
 20
6.3797522978
 10
16.0128641383
 20
6.4946847575
 10
15.8443542497
 20
6.5966809022
 10
15.7313971167
 20
6.65654143
  0
LINE
  5
33A
100
AcDbEntity
  8
0
100
AcDbLine
 62
7
  6
CONTINUOUS
 10
15.2720577972
 20
17.4825267107
 11
15.2706860282
 21
17.4895967339
  0
LINE
  5
33B
100
AcDbEntity
  8
0
100
AcDbLine
 62
7
  6
CONTINUOUS
 10
15.2733482288
 20
17.4756688248
 11
15.2720577972
 21
17.4825267107
  0
LINE
  5
33C
100
AcDbEntity
  8
0
100
AcDbLine
 62
7
  6
CONTINUOUS
 10
15.2746806032
 20
17.4683646455
 11
15.2733482288
 21
17.4756688248
  0
LINE
  5
33D
100
AcDbEntity
  8
0
100
AcDbLine
 62
7
  6
CONTINUOUS
 10
15.2760367364
 20
17.4606792478
 11
15.2746806032
 21
17.4683646455
  0
LINE
  5
33E
100
AcDbEntity
  8
0
100
AcDbLine
 62
7
  6
CONTINUOUS
 10
15.2774048225
 20
17.4526463512
 11
15.2760367364
 21
17.4606792478
  0
LINE
  5
33F
100
AcDbEntity
  8
0
100
AcDbLine
 62
7
  6
CONTINUOUS
 10
15.278772719
 20
17.4443071498
 11
15.2774048225
 21
17.4526463512
  0
LWPOLYLINE
  5
340
100
AcDbEntity
  8
0
100
AcDbPolyline
 62
7
  6
CONTINUOUS
 90
5
 70
0
 10
15.2620843152
 20
17.5348412815
 10
15.2600425938
 20
17.5474396091
 10
15.2581303656
 20
17.5599586983
 10
15.256267373
 20
17.5728224738
 10
15.2544585183
 20
17.5859271651
  0
LINE
  5
341
100
AcDbEntity
  8
0
100
AcDbLine
 62
7
  6
CONTINUOUS
 10
15.2801319707
 20
17.4356882734
 11
15.278772719
 21
17.4443071498
  0
LINE
  5
342
100
AcDbEntity
  8
0
100
AcDbLine
 62
7
  6
CONTINUOUS
 10
15.2814735686
 20
17.4268286755
 11
15.2801319707
 21
17.4356882734
  0
LINE
  5
343
100
AcDbEntity
  8
0
100
AcDbLine
 62
7
  6
CONTINUOUS
 10
15.2827951877
 20
17.4177251906
 11
15.2814735686
 21
17.4268286755
  0
LINE
  5
344
100
AcDbEntity
  8
0
100
AcDbLine
 62
7
  6
CONTINUOUS
 10
15.2840917921
 20
17.4083886929
 11
15.2827951877
 21
17.4177251906
  0
LINE
  5
345
100
AcDbEntity
  8
0
100
AcDbLine
 62
7
  6
CONTINUOUS
 10
15.2853583315
 20
17.3988345131
 11
15.2840917921
 21
17.4083886929
  0
LINE
  5
346
100
AcDbEntity
  8
0
100
AcDbLine
 62
7
  6
CONTINUOUS
 10
15.2544585183
 20
17.5859271651
 11
15.2510827796
 21
17.6118316581
  0
LINE
  5
347
100
AcDbEntity
  8
0
100
AcDbLine
 62
7
  6
CONTINUOUS
 10
15.2865898961
 20
17.3890838191
 11
15.2853583315
 21
17.3988345131
  0
LINE
  5
348
100
AcDbEntity
  8
0
100
AcDbLine
 62
7
  6
CONTINUOUS
 10
15.2510827796
 20
17.6118316581
 11
15.2447800769
 21
17.6631931898
  0
LWPOLYLINE
  5
349
100
AcDbEntity
  8
0
100
AcDbPolyline
 62
7
  6
CONTINUOUS
 90
3
 70
0
 10
15.2448899701
 20
17.6622844129
 10
15.2407868321
 20
17.6965657433
 10
15.2343379855
 20
17.7528868306
  0
LINE
  5
34A
100
AcDbEntity
  8
0
100
AcDbLine
 62
7
  6
CONTINUOUS
 10
15.287783492
 20
17.3791511547
 11
15.2865898961
 21
17.3890838191
  0
LINE
  5
34B
100
AcDbEntity
  8
0
100
AcDbLine
 62
7
  6
CONTINUOUS
 10
15.2889365563
 20
17.3690568216
 11
15.287783492
 21
17.3791511547
  0
LINE
  5
34C
100
AcDbEntity
  8
RACCORDO
100
AcDbLine
 62
7
  6
CONTINUOUS
 10
9.5443114519
 20
-17.2498531565
 11
4.988598693
 21
-19.5590851535
  0
LINE
  5
34D
100
AcDbEntity
  8
RACCORDO
100
AcDbLine
 62
7
  6
CONTINUOUS
 10
8.6627759933
 20
-18.3066121575
 11
4.988598693
 21
-20.1508446969
  0
LINE
  5
34E
100
AcDbEntity
  8
DRAFT
100
AcDbLine
 62
7
  6
CONTINUOUS
 10
9.2805337853
 20
-16.7742941848
 11
5.5641581937
 21
-18.6251288132
  0
LINE
  5
34F
100
AcDbEntity
  8
RACCORDO
100
AcDbLine
 62
7
  6
CONTINUOUS
 10
9.5443114519
 20
-17.7471831135
 11
4.988598693
 21
-20.0068502271
  0
LINE
  5
350
100
AcDbEntity
  8
DRAFT
100
AcDbLine
 62
7
  6
CONTINUOUS
 10
5.5641581937
 20
-19.2598932256
 11
4.988598693
 21
-19.5438450515
  0
LINE
  5
351
100
AcDbEntity
  8
RACCORDO
100
AcDbLine
 62
7
  6
CONTINUOUS
 10
-11.2645039276
 20
22.6916560641
 11
-10.6400978432
 21
22.5612794943
  0
LINE
  5
352
100
AcDbEntity
  8
RACCORDO
100
AcDbLine
 62
253
  6
CONTINUOUS
 10
-11.0376604341
 20
22.8474772249
 11
-10.326439826
 21
22.698973702
  0
LINE
  5
353
100
AcDbEntity
  8
ASSI
100
AcDbLine
 62
7
  6
CONTINUOUS
 10
1.3118911761
 20
20.6487045922
 11
-0.3085582022
 21
21.4589292814
  0
LINE
  5
354
100
AcDbEntity
  8
ASSI
100
AcDbLine
 62
7
  6
CONTINUOUS
 10
1.4863392618
 20
20.7346856302
 11
-0.350057505
 21
21.6528840135
  0
LINE
  5
355
100
AcDbEntity
  8
RACCORDO
100
AcDbLine
 62
253
  6
CONTINUOUS
 10
4.2703504985
 20
-22.8722990844
 11
4.988598693
 21
-22.5179546595
  0
LINE
  5
356
100
AcDbEntity
  8
RACCORDO
100
AcDbLine
 62
7
  6
CONTINUOUS
 10
4.1492852927
 20
-23.1177426769
 11
4.8708115147
 21
-22.7617782842
  0
LINE
  5
357
100
AcDbEntity
  8
RACCORDO
100
AcDbLine
 62
7
  6
CONTINUOUS
 10
2.7895926417
 20
-23.6888711179
 11
4.139927058
 21
-23.1220108213
  0
LWPOLYLINE
  5
358
100
AcDbEntity
  8
RACCORDO
100
AcDbPolyline
 62
7
  6
CONTINUOUS
 90
5
 70
0
 10
-1.3810472222
 20
-25.4178008564
 10
-0.854438234
 20
-25.1977085146
 10
-0.2961336946
 20
-24.966071765
 10
0.2824337095
 20
-24.7271944523
 10
1.4985850799
 20
-24.2258683477
  0
LWPOLYLINE
  5
359
100
AcDbEntity
  8
RACCORDO
100
AcDbPolyline
 62
7
  6
CONTINUOUS
 90
3
 70
0
 10
1.4985850799
 20
-24.2258683477
 10
2.1351348807
 20
-23.9621507142
 10
2.7895926417
 20
-23.6888711179
  0
LINE
  5
35A
100
AcDbEntity
  8
ASSI
100
AcDbLine
 62
253
  6
CONTINUOUS
 10
-1.3777951297
 20
24.8387209785
 11
-0.772264695
 21
24.5359557612
  0
LINE
  5
35B
100
AcDbEntity
  8
ASSI
100
AcDbLine
 62
253
  6
CONTINUOUS
 10
4.1774827733
 20
22.061082027
 11
4.7830132079
 21
21.7583168097
  0
LINE
  5
35C
100
AcDbEntity
  8
0
100
AcDbLine
 62
7
  6
CONTINUOUS
 10
5.508798063
 20
21.4811726762
 11
4.9569492729
 21
21.7570970712
  0
LINE
  5
35D
100
AcDbEntity
  8
0
100
AcDbLine
 62
7
  6
CONTINUOUS
 10
4.2899664227
 20
22.0905884963
 11
1.7005521605
 21
23.3852956274
  0
LINE
  5
35E
100
AcDbEntity
  8
ASSI
100
AcDbLine
 62
7
  6
CONTINUOUS
 10
-1.1015231086
 20
24.8245397098
 11
-0.6051166241
 21
24.5763364675
  0
LINE
  5
35F
100
AcDbEntity
  8
ASSI
100
AcDbLine
 62
7
  6
CONTINUOUS
 10
4.4534322834
 20
22.0470620137
 11
4.9498390534
 21
21.7988586288
  0
LINE
  5
360
100
AcDbEntity
  8
RACCORDO
100
AcDbLine
 62
253
  6
CONTINUOUS
 10
-1.7137965816
 20
25.5283265305
 11
0.9996159717
 21
24.1716202539
  0
LINE
  5
361
100
AcDbEntity
  8
RACCORDO
100
AcDbLine
 62
253
  6
CONTINUOUS
 10
5.94936344
 20
21.6967465197
 11
8.6627759933
 21
20.3400402431
  0
LINE
  5
362
100
AcDbEntity
  8
RACCORDO
100
AcDbLine
 62
7
  6
CONTINUOUS
 10
-1.4329663249
 20
25.6337823703
 11
1.4406589748
 21
24.1969697205
  0
LINE
  5
363
100
AcDbEntity
  8
RACCORDO
100
AcDbLine
 62
7
  6
CONTINUOUS
 10
6.3904064431
 20
21.7220959863
 11
9.2640317428
 21
20.2852833365
  0
LINE
  5
364
100
AcDbEntity
  8
RACCORDO
100
AcDbLine
 62
253
  6
CONTINUOUS
 10
4.4562056929
 20
-24.4232142726
 11
3.9279385212
 21
-24.6942253312
  0
LINE
  5
365
100
AcDbEntity
  8
RACCORDO
100
AcDbLine
 62
7
  6
CONTINUOUS
 10
4.3925176554
 20
-24.5577780828
 11
3.8638353919
 21
-24.8290020914
  0
LINE
  5
366
100
AcDbEntity
  8
RACCORDO
100
AcDbLine
 62
7
  6
CONTINUOUS
 10
3.8620970047
 20
-24.829871325
 11
3.8638334221
 21
-24.829003102
  0
LINE
  5
367
100
AcDbEntity
  8
RACCORDO
100
AcDbLine
 62
253
  6
CONTINUOUS
 10
3.9279385212
 20
-24.6942253312
 11
2.3266577304
 21
-25.4742599309
  0
LINE
  5
368
100
AcDbEntity
  8
RACCORDO
100
AcDbLine
 62
7
  6
CONTINUOUS
 10
3.8620942408
 20
-24.8298726714
 11
2.2603961378
 21
-25.610110557
  0
LINE
  5
369
100
AcDbEntity
  8
0
100
AcDbLine
 62
7
  6
CONTINUOUS
 10
8.6826242654
 20
22.9986672202
 11
11.5192877712
 21
21.808033199
  0
LINE
  5
36A
100
AcDbEntity
  8
0
100
AcDbLine
 62
253
  6
CONTINUOUS
 10
10.3569850808
 20
21.743701591
 11
7.5992669146
 21
22.9387277312
  0
LINE
  5
36B
100
AcDbEntity
  8
0
100
AcDbLine
 62
253
  6
CONTINUOUS
 10
13.0995004641
 20
20.188608394
 11
10.3568881888
 21
21.7437474744
  0
LINE
  5
36C
100
AcDbEntity
  8
0
100
AcDbLine
 62
7
  6
CONTINUOUS
 10
14.3071668264
 20
20.1863958659
 11
11.6526600564
 21
21.741347107
  0
ARC
  5
36D
100
AcDbEntity
  8
0
100
AcDbCircle
 62
7
  6
CONTINUOUS
 10
-8.1489954696
 20
-3.1691609521
 40
4.6884622942
100
AcDbArc
 50
233.0229402436
 51
238.0151441241
  0
ARC
  5
36E
100
AcDbEntity
  8
0
100
AcDbCircle
 62
253
  6
CONTINUOUS
 10
-12.517449821
 20
-3.619727147
 40
4.6272648318
100
AcDbArc
 50
52.9087773496
 51
53.3701572849
  0
ARC
  5
36F
100
AcDbEntity
  8
0
100
AcDbCircle
 62
7
  6
CONTINUOUS
 10
-8.3320841599
 20
-3.4590193102
 40
4.3456270491
100
AcDbArc
 50
238.0383110092
 51
239.4748694514
  0
ARC
  5
370
100
AcDbEntity
  8
0
100
AcDbCircle
 62
253
  6
CONTINUOUS
 10
-12.3207429679
 20
-3.3465351682
 40
4.2906657276
100
AcDbArc
 50
53.3015268351
 51
57.8830523642
  0
ARC
  5
371
100
AcDbEntity
  8
0
100
AcDbCircle
 62
253
  6
CONTINUOUS
 10
-12.1498252465
 20
-3.076695494
 40
3.9712530043
100
AcDbArc
 50
57.9018263099
 51
59.4735673334
  0
ARC
  5
372
100
AcDbEntity
  8
0
100
AcDbCircle
 62
253
  6
CONTINUOUS
 10
-8.5895584393
 20
-3.6842078002
 40
3.9367989099
100
AcDbArc
 50
239.4750063279
 51
241.0142577667
  0
ARC
  5
373
100
AcDbEntity
  8
0
100
AcDbCircle
 62
7
  6
CONTINUOUS
 10
-11.8880205682
 20
-2.8441532574
 40
3.5538908202
100
AcDbArc
 50
59.4734877879
 51
61.180011703
  0
ARC
  5
374
100
AcDbEntity
  8
0
100
AcDbCircle
 62
253
  6
CONTINUOUS
 10
9.527535738
 20
-0.297386019
 40
1.9932864399
100
AcDbArc
 50
243.390583834
 51
247.3252288094
  0
ARC
  5
375
100
AcDbEntity
  8
0
100
AcDbCircle
 62
253
  6
CONTINUOUS
 10
9.4572062839
 20
-0.4687404302
 40
1.8080647516
100
AcDbArc
 50
247.2883572343
 51
251.4877847336
  0
ARC
  5
376
100
AcDbEntity
  8
0
100
AcDbCircle
 62
253
  6
CONTINUOUS
 10
11.1057068682
 20
-1.002897443
 40
1.3274513829
100
AcDbArc
 50
296.5945980247
 51
307.2363323086
  0
ARC
  5
377
100
AcDbEntity
  8
0
100
AcDbCircle
 62
253
  6
CONTINUOUS
 10
9.3016114021
 20
-1.1595527082
 40
1.1362725683
100
AcDbArc
 50
234.0625261545
 51
243.3877235651
  0
ARC
  5
378
100
AcDbEntity
  8
0
100
AcDbCircle
 62
7
  6
CONTINUOUS
 10
8.5237303428
 20
-0.7707120386
 40
1.1361801663
100
AcDbArc
 50
234.0630993084
 51
243.4592695963
  0
ARC
  5
379
100
AcDbEntity
  8
0
100
AcDbCircle
 62
7
  6
CONTINUOUS
 10
5.8476850855
 20
-15.949246964
 40
1.000046424
100
AcDbArc
 50
0.0014169875
 51
59.2088499834
  0
ARC
  5
37A
100
AcDbEntity
  8
0
100
AcDbCircle
 62
7
  6
CONTINUOUS
 10
5.8477138811
 20
-15.9642346693
 40
1.0000105291
100
AcDbArc
 50
296.535851164
 51
356.039029444
  0
ARC
  5
37B
100
AcDbEntity
  8
0
100
AcDbCircle
 62
7
  6
CONTINUOUS
 10
5.8493274181
 20
-15.9641832696
 40
0.9984011968
100
AcDbArc
 50
356.0296904822
 51
359.9964140345
  0
ARC
  5
37C
100
AcDbEntity
  8
0
100
AcDbCircle
 62
7
  6
CONTINUOUS
 10
-9.0808776486
 20
-2.1982850525
 40
0.7612150226
100
AcDbArc
 50
116.6145994237
 51
130.6551711367
  0
ARC
  5
37D
100
AcDbEntity
  8
0
100
AcDbCircle
 62
7
  6
CONTINUOUS
 10
-8.7063045911
 20
-2.9474311675
 40
0.7612150226
100
AcDbArc
 50
282.4749312174
 51
296.5155029305
  0
ARC
  5
37E
100
AcDbEntity
  8
0
100
AcDbCircle
 62
7
  6
CONTINUOUS
 10
-9.557081544
 20
-2.9644734341
 40
0.7419383524
100
AcDbArc
 50
228.1969448076
 51
232.911405312
  0
ARC
  5
37F
100
AcDbEntity
  8
RACCORDO
100
AcDbCircle
 62
253
  6
CONTINUOUS
 10
-16.8031070009
 20
-17.5023476351
 40
0.5501915857
100
AcDbArc
 50
240.6899554788
 51
243.4340639605
  0
ARC
  5
380
100
AcDbEntity
  8
0
100
AcDbCircle
 62
253
  6
CONTINUOUS
 10
6.131574122
 20
-15.4736678603
 40
0.4461708343
100
AcDbArc
 50
59.2625231458
 51
69.5985114083
  0
ARC
  5
381
100
AcDbEntity
  8
0
100
AcDbCircle
 62
253
  6
CONTINUOUS
 10
11.8393806856
 20
-1.8806704423
 40
0.2823214219
100
AcDbArc
 50
296.5610766542
 51
299.9372279627
  0
ARC
  5
382
100
AcDbEntity
  8
0
100
AcDbCircle
 62
253
  6
CONTINUOUS
 10
6.5977187631
 20
-15.9643058435
 40
0.2500059366
100
AcDbArc
 50
355.0091667459
 51
0.0137705527
  0
ARC
  5
383
100
AcDbEntity
  8
RACCORDO
100
AcDbCircle
 62
7
  6
CONTINUOUS
 10
0.8259300392
 20
-24.7228652755
 40
0.2500021202
100
AcDbArc
 50
180.0018403594
 51
243.4346144876
  0
ARC
  5
384
100
AcDbEntity
  8
RACCORDO
100
AcDbCircle
 62
7
  6
CONTINUOUS
 10
2.1509129626
 20
-25.3853572446
 40
0.2500012342
100
AcDbArc
 50
243.4334738355
 51
295.9719157382
  0
ARC
  5
385
100
AcDbEntity
  8
RACCORDO
100
AcDbCircle
 62
7
  6
CONTINUOUS
 10
4.2784031516
 20
-24.3353414438
 40
0.2500003968
100
AcDbArc
 50
297.1601718762
 51
0.0000315339
  0
ARC
  5
386
100
AcDbEntity
  8
RACCORDO
100
AcDbCircle
 62
7
  6
CONTINUOUS
 10
4.2784032834
 20
-23.987810783
 40
0.2500002666
100
AcDbArc
 50
0.000151117
 51
63.4365832535
  0
ARC
  5
387
100
AcDbEntity
  8
RACCORDO
100
AcDbCircle
 62
7
  6
CONTINUOUS
 10
4.0746192119
 20
-22.9664129548
 40
0.1687472039
100
AcDbArc
 50
292.769110715
 51
296.2565869923
  0
ARC
  5
388
100
AcDbEntity
  8
RACCORDO
100
AcDbCircle
 62
7
  6
CONTINUOUS
 10
3.8210443947
 20
-24.7455896701
 40
0.0937479892
100
AcDbArc
 50
297.1567006962
 51
299.3030104152
  0
ARC
  5
389
100
AcDbEntity
  8
0
100
AcDbCircle
 62
253
  6
CONTINUOUS
 10
-128.2532690731
 20
20.7141794853
 40
143.4068932665
100
AcDbArc
 50
354.7474177561
 51
355.4502928792
  0
ARC
  5
38A
100
AcDbEntity
  8
0
100
AcDbCircle
 62
253
  6
CONTINUOUS
 10
-127.410519044
 20
20.6481398463
 40
142.5618457347
100
AcDbArc
 50
355.4499372953
 51
356.2830814
  0
ARC
  5
38B
100
AcDbEntity
  8
0
100
AcDbCircle
 62
7
  6
CONTINUOUS
 10
-123.8262677507
 20
20.5965862956
 40
139.1853325214
100
AcDbArc
 50
355.4621944986
 51
357.9055899459
  0
ARC
  5
38C
100
AcDbEntity
  8
0
100
AcDbCircle
 62
253
  6
CONTINUOUS
 10
-121.3385132231
 20
20.2306826683
 40
136.4755529384
100
AcDbArc
 50
356.5320278902
 51
357.860149623
  0
ARC
  5
38D
100
AcDbEntity
  8
0
100
AcDbCircle
 62
253
  6
CONTINUOUS
 10
-121.051603948
 20
20.2129868153
 40
136.1880986173
100
AcDbArc
 50
356.2923405945
 51
356.5269773889
  0
ARC
  5
38E
100
AcDbEntity
  8
0
100
AcDbCircle
 62
7
  6
CONTINUOUS
 10
-117.5016753849
 20
20.3259998642
 40
132.8550720619
100
AcDbArc
 50
358.1792701551
 51
358.4785588555
  0
ARC
  5
38F
100
AcDbEntity
  8
0
100
AcDbCircle
 62
253
  6
CONTINUOUS
 10
-116.8432346842
 20
20.069325391
 40
131.9772708141
100
AcDbArc
 50
358.2952874053
 51
358.4704359708
  0
ARC
  5
390
100
AcDbEntity
  8
0
100
AcDbCircle
 62
7
  6
CONTINUOUS
 10
-0.2995234274
 20
8.5806060592
 40
14.8505231574
100
AcDbArc
 50
355.0302349636
 51
355.2405826133
  0
ARC
  5
391
100
AcDbEntity
  8
0
100
AcDbCircle
 62
7
  6
CONTINUOUS
 10
6.2083052435
 20
8.0173807604
 40
8.3183685311
100
AcDbArc
 50
354.8847921618
 51
355.011874887
  0
ARC
  5
392
100
AcDbEntity
  8
0
100
AcDbCircle
 62
7
  6
CONTINUOUS
 10
10.7584222116
 20
1.5760069666
 40
4.4175182131
100
AcDbArc
 50
43.6092791783
 51
46.2553516136
  0
ARC
  5
393
100
AcDbEntity
  8
0
100
AcDbCircle
 62
253
  6
CONTINUOUS
 10
15.8264464965
 20
1.6776844594
 40
1.6202307412
100
AcDbArc
 50
296.1612369353
 51
299.564178593
  0
ARC
  5
394
100
AcDbEntity
  8
0
100
AcDbCircle
 62
7
  6
CONTINUOUS
 10
13.9092110324
 20
0.4869447356
 40
1.4062521177
100
AcDbArc
 50
296.5658382495
 51
299.7831543204
  0
ARC
  5
395
100
AcDbEntity
  8
RACCORDO
100
AcDbCircle
 62
253
  6
CONTINUOUS
 10
-14.8345323114
 20
18.4304018178
 40
1.3857020372
100
AcDbArc
 50
119.48312046
 51
123.2325025892
  0
ARC
  5
396
100
AcDbEntity
  8
RACCORDO
100
AcDbCircle
 62
253
  6
CONTINUOUS
 10
-1.5451573706
 20
11.8586161512
 40
1.3281213221
100
AcDbArc
 50
119.8165044458
 51
121.4762068456
  0
ARC
  5
397
100
AcDbEntity
  8
0
100
AcDbCircle
 62
7
  6
CONTINUOUS
 10
11.083588368
 20
20.7700902481
 40
1.1256801078
100
AcDbArc
 50
59.6335412632
 51
67.2286859065
  0
ARC
  5
398
100
AcDbEntity
  8
0
100
AcDbCircle
 62
7
  6
CONTINUOUS
 10
4.7540547388
 20
14.3953361397
 40
1.0041077458
100
AcDbArc
 50
283.518526213
 51
296.5609486422
  0
ARC
  5
399
100
AcDbEntity
  8
0
100
AcDbCircle
 62
7
  6
CONTINUOUS
 10
5.8476850794
 20
14.9525730734
 40
1.0000463193
100
AcDbArc
 50
0.0013890944
 51
58.2284935085
  0
ARC
  5
39A
100
AcDbEntity
  8
0
100
AcDbCircle
 62
7
  6
CONTINUOUS
 10
5.8477151674
 20
14.937584486
 40
1.0000091764
100
AcDbArc
 50
296.535290227
 51
356.0327914646
  0
ARC
  5
39B
100
AcDbEntity
  8
0
100
AcDbCircle
 62
7
  6
CONTINUOUS
 10
5.8493328268
 20
14.9376365871
 40
0.9983957881
100
AcDbArc
 50
356.0233858927
 51
359.9963964486
  0
ARC
  5
39C
100
AcDbEntity
  8
RACCORDO
100
AcDbCircle
 62
7
  6
CONTINUOUS
 10
-16.8916382627
 20
14.4434628752
 40
0.9116413245
100
AcDbArc
 50
284.9745544201
 51
285.5921752389
  0
ARC
  5
39D
100
AcDbEntity
  8
0
100
AcDbCircle
 62
253
  6
CONTINUOUS
 10
14.7895484576
 20
17.2685199917
 40
0.7260251539
100
AcDbArc
 50
294.1968501701
 51
294.8311231067
  0
ARC
  5
39E
100
AcDbEntity
  8
RACCORDO
100
AcDbCircle
 62
7
  6
CONTINUOUS
 10
-16.5691695177
 20
13.7951768524
 40
0.2793763471
100
AcDbArc
 50
239.4483768049
 51
243.5449277115
  0
ARC
  5
39F
100
AcDbEntity
  8
RACCORDO
100
AcDbCircle
 62
7
  6
CONTINUOUS
 10
-11.2130440136
 20
22.9374190641
 40
0.2510925841
100
AcDbArc
 50
243.4673571141
 51
258.1738073876
  0
ARC
  5
3A0
100
AcDbEntity
  8
RACCORDO
100
AcDbCircle
 62
7
  6
CONTINUOUS
 10
2.1512741508
 20
16.2552599818
 40
0.2510925841
100
AcDbArc
 50
243.4673571141
 51
258.1738073876
  0
ARC
  5
3A1
100
AcDbEntity
  8
0
100
AcDbCircle
 62
253
  6
CONTINUOUS
 10
6.5977187631
 20
14.9375137071
 40
0.2500059366
100
AcDbArc
 50
355.0091667459
 51
0.0137705527
  0
ARC
  5
3A2
100
AcDbEntity
  8
RACCORDO
100
AcDbCircle
 62
7
  6
CONTINUOUS
 10
-9.0859168675
 20
24.3414833707
 40
0.2500021202
100
AcDbArc
 50
0.0018403594
 51
63.4346144876
  0
ARC
  5
3A3
100
AcDbEntity
  8
RACCORDO
100
AcDbCircle
 62
7
  6
CONTINUOUS
 10
-10.4232402928
 20
25.0101458617
 40
0.250001424
100
AcDbArc
 50
63.4352355626
 51
115.9737880832
  0
ARC
  5
3A4
100
AcDbEntity
  8
RACCORDO
100
AcDbCircle
 62
7
  6
CONTINUOUS
 10
2.9410768928
 20
18.327986998
 40
0.2500012342
100
AcDbArc
 50
63.4334738355
 51
115.9719157382
  0
ARC
  5
3A5
100
AcDbEntity
  8
RACCORDO
100
AcDbCircle
 62
7
  6
CONTINUOUS
 10
0.8259281845
 20
17.2566852916
 40
0.2500003968
100
AcDbArc
 50
117.1601718762
 51
180.0000315339
  0
ARC
  5
3A6
100
AcDbEntity
  8
RACCORDO
100
AcDbCircle
 62
7
  6
CONTINUOUS
 10
-12.5383901117
 20
23.5988712956
 40
0.2500002666
100
AcDbArc
 50
180.000151117
 51
243.4365832535
  0
ARC
  5
3A7
100
AcDbEntity
  8
RACCORDO
100
AcDbCircle
 62
7
  6
CONTINUOUS
 10
0.8259280528
 20
16.9167122134
 40
0.2500002666
100
AcDbArc
 50
180.000151117
 51
243.4365832535
  0
ARC
  5
3A8
100
AcDbEntity
  8
RACCORDO
100
AcDbCircle
 62
7
  6
CONTINUOUS
 10
-9.0859149181
 20
23.9939529593
 40
0.2500001466
100
AcDbArc
 50
320.5926030822
 51
0.0004114696
  0
ARC
  5
3A9
100
AcDbEntity
  8
RACCORDO
100
AcDbCircle
 62
7
  6
CONTINUOUS
 10
-12.5383917656
 20
23.9388447269
 40
0.2499986126
100
AcDbArc
 50
117.1565718893
 51
180.0000358743
  0
ARC
  5
3AA
100
AcDbEntity
  8
RACCORDO
100
AcDbCircle
 62
7
  6
CONTINUOUS
 10
4.278405046
 20
17.6593256499
 40
0.2499985039
100
AcDbArc
 50
359.9999730928
 51
63.4370632661
  0
ARC
  5
3AB
100
AcDbEntity
  8
0
100
AcDbCircle
 62
7
  6
CONTINUOUS
 10
14.9716394949
 20
18.4730010288
 40
0.1943682586
100
AcDbArc
 50
357.0672510898
 51
0.4126098041
  0
ARC
  5
3AC
100
AcDbEntity
  8
RACCORDO
100
AcDbCircle
 62
253
  6
CONTINUOUS
 10
-16.5846717612
 20
19.983564442
 40
0.1781073816
100
AcDbArc
 50
114.7637327177
 51
120.2357495463
  0
ARC
  5
3AD
100
AcDbEntity
  8
RACCORDO
100
AcDbCircle
 62
7
  6
CONTINUOUS
 10
-16.876968818
 20
13.7093501422
 40
0.1034585097
100
AcDbArc
 50
295.2698845015
 51
296.6479798631
  0
ARC
  5
3AE
100
AcDbEntity
  8
RACCORDO
100
AcDbCircle
 62
253
  6
CONTINUOUS
 10
-8.9082883397
 20
23.8480119126
 40
0.0201085158
100
AcDbArc
 50
320.5893497063
 51
322.5112512678
  0
ARC
  5
3AF
100
AcDbEntity
  8
RACCORDO
100
AcDbCircle
 62
253
  6
CONTINUOUS
 10
555.7983898921
 20
-7.0533387421
 40
559.2999222204
100
AcDbArc
 50
178.1235208548
 51
178.5897648612
  0
ARC
  5
3B0
100
AcDbEntity
  8
RACCORDO
100
AcDbCircle
 62
253
  6
CONTINUOUS
 10
550.4953278505
 20
-6.8944969412
 40
554.3068403698
100
AcDbArc
 50
178.1101799316
 51
178.5574459429
  0
ARC
  5
3B1
100
AcDbEntity
  8
RACCORDO
100
AcDbCircle
 62
7
  6
CONTINUOUS
 10
537.3704966803
 20
-0.3001180519
 40
554.2659887918
100
AcDbArc
 50
178.1101778121
 51
178.5597545595
  0
ARC
  5
3B2
100
AcDbEntity
  8
RACCORDO
100
AcDbCircle
 62
253
  6
CONTINUOUS
 10
536.4220143988
 20
-0.3582064472
 40
553.243850362
100
AcDbArc
 50
178.1097502461
 51
178.5578756284
  0
ARC
  5
3B3
100
AcDbEntity
  8
RACCORDO
100
AcDbCircle
 62
253
  6
CONTINUOUS
 10
530.9800102775
 20
-0.1932605819
 40
548.1254227002
100
AcDbArc
 50
178.0894894141
 51
178.5651255866
  0
ARC
  5
3B4
100
AcDbEntity
  8
RACCORDO
100
AcDbCircle
 62
253
  6
CONTINUOUS
 10
531.0893529508
 20
-0.1958670569
 40
548.0939979655
100
AcDbArc
 50
178.0895149862
 51
178.5559119947
  0
ARC
  5
3B5
100
AcDbEntity
  8
RACCORDO
100
AcDbCircle
 62
253
  6
CONTINUOUS
 10
522.5160379048
 20
-6.843179773
 40
525.4266283119
100
AcDbArc
 50
178.0577746928
 51
181.9422253072
  0
ARC
  5
3B6
100
AcDbEntity
  8
RACCORDO
100
AcDbCircle
 62
253
  6
CONTINUOUS
 10
522.6824174924
 20
-6.8463875788
 40
524.8921277893
100
AcDbArc
 50
178.0577411044
 51
181.9422588956
  0
ARC
  5
3B7
100
AcDbEntity
  8
RACCORDO
100
AcDbCircle
 62
253
  6
CONTINUOUS
 10
521.8936696176
 20
0.5692432658
 40
539.6211616055
100
AcDbArc
 50
178.1088830164
 51
181.8911169836
  0
SPLINE
  5
3B8
100
AcDbEntity
  8
RACCORDO
100
AcDbSpline
 62
7
  6
CONTINUOUS
 70
0
 71
3
 72
9
 73
5
 74
3
 42
0.0000001
 43
0.0000001
 44
0.0000000001
 12
-0.0018919397
 22
-0.0771244523
 32
0.0
 13
0.0223863563
 23
-0.0738282577
 33
0.0
 40
0.0
 40
0.0
 40
0.0
 40
0.0
 40
0.2577545304
 40
1.0
 40
1.0
 40
1.0
 40
1.0
 10
-16.7203890427
 20
13.6310128622
 30
0.0
 10
-16.7205515948
 20
13.6243864699
 30
0.0
 10
-16.7203846434
 20
13.5986847829
 30
0.0
 10
-16.7167192842
 20
13.5728521285
 30
0.0
 10
-16.7111805603
 20
13.5545858985
 30
0.0
 11
-16.7203890427
 21
13.6310128622
 31
0.0
 11
-16.7202331047
 21
13.6111283162
 31
0.0
 11
-16.7111805603
 21
13.5545858985
 31
0.0
  0
SPLINE
  5
3B9
100
AcDbEntity
  8
RACCORDO
100
AcDbSpline
 62
7
  6
CONTINUOUS
 70
0
 71
3
 72
11
 73
7
 74
5
 42
0.0000001
 43
0.0000001
 44
0.0000000001
 12
0.0657653013
 22
1.9933825669
 32
0.0
 13
1.7370757814
 23
0.9800341128
 33
0.0
 40
0.0
 40
0.0
 40
0.0
 40
0.0
 40
0.2478190295
 40
0.5078455293
 40
0.763356822
 40
1.0
 40
1.0
 40
1.0
 40
1.0
 10
-16.594021152
 20
17.9782657448
 30
0.0
 10
-16.5885885209
 20
18.1429317892
 30
0.0
 10
-16.5273777235
 20
18.4794921426
 30
0.0
 10
-16.3227466139
 20
18.9482030384
 30
0.0
 10
-16.0246372797
 20
19.3547395379
 30
0.0
 10
-15.7671440092
 20
19.5655034004
 30
0.0
 10
-15.6301216314
 20
19.6428095294
 30
0.0
 11
-16.594021152
 21
17.9782657448
 31
0.0
 11
-16.5110072847
 21
18.4655115501
 31
0.0
 11
-16.3047147953
 21
18.941331062
 31
0.0
 11
-16.0003296678
 21
19.3500496686
 31
0.0
 11
-15.6301216314
 21
19.6428095294
 31
0.0
  0
SPLINE
  5
3BA
100
AcDbEntity
  8
RACCORDO
100
AcDbSpline
 62
7
  6
CONTINUOUS
 70
0
 71
3
 72
9
 73
5
 74
3
 42
0.0000001
 43
0.0000001
 44
0.0000000001
 12
-0.0455328651
 22
-0.0229894615
 32
0.0
 13
-0.0490373462
 23
-0.014039082
 33
0.0
 40
0.0
 40
0.0
 40
0.0
 40
0.0
 40
0.2547506432
 40
1.0
 40
1.0
 40
1.0
 40
1.0
 10
-3.4840917596
 20
6.9835647702
 30
0.0
 10
-3.4879582685
 20
6.9816125769
 30
0.0
 10
-3.5032862737
 20
6.9742574152
 30
0.0
 10
-3.5192648104
 20
6.9682064043
 30
0.0
 10
-3.531446494
 20
6.9647188654
 30
0.0
 11
-3.4840917596
 21
6.9835647702
 31
0.0
 11
-3.495810125
 21
6.9779497492
 31
0.0
 11
-3.531446494
 21
6.9647188654
 31
0.0
  0
SPLINE
  5
3BB
100
AcDbEntity
  8
RACCORDO
100
AcDbSpline
 62
253
  6
CONTINUOUS
 70
0
 71
3
 72
10
 73
6
 74
4
 42
0.0000001
 43
0.0000001
 44
0.0000000001
 12
0.1025953996
 22
0.0579666728
 32
0.0
 13
0.1053981069
 23
-0.0526990534
 33
0.0
 40
0.0
 40
0.0
 40
0.0
 40
0.0
 40
0.2232236029
 40
0.4592476001
 40
1.0
 40
1.0
 40
1.0
 40
1.0
 10
-15.6301176402
 20
19.6428024587
 30
0.0
 10
-15.6224837353
 20
19.6471156352
 30
0.0
 10
-15.6052728206
 20
19.6535462817
 30
0.0
 10
-15.5656513956
 20
19.6560797084
 30
0.0
 10
-15.5355273976
 20
19.6461554963
 30
0.0
 10
-15.5165293045
 20
19.6366564498
 30
0.0
 11
-15.6301176402
 21
19.6428024587
 31
0.0
 11
-15.6055197877
 21
19.652122631
 31
0.0
 11
-15.5777854566
 21
19.6542097591
 31
0.0
 11
-15.5165293045
 21
19.6366564498
 31
0.0
  0
SPLINE
  5
3BC
100
AcDbEntity
  8
RACCORDO
100
AcDbSpline
 62
253
  6
CONTINUOUS
 70
0
 71
3
 72
10
 73
6
 74
4
 42
0.0000001
 43
0.0000001
 44
0.0000000001
 12
-0.2824434701
 22
-0.0554124861
 32
0.0
 13
-0.2574410334
 23
0.1287205179
 33
0.0
 40
0.0
 40
0.0
 40
0.0
 40
0.0
 40
0.5180197775
 40
0.7725300064
 40
1.0
 40
1.0
 40
1.0
 40
1.0
 10
-3.2276736744
 20
11.3544182214
 30
0.0
 10
-3.2764441089
 20
11.3448499668
 30
0.0
 10
-3.3520254391
 20
11.3427330306
 30
0.0
 10
-3.4465941659
 20
11.3597638677
 30
0.0
 10
-3.4904999796
 20
11.3754535325
 30
0.0
 10
-3.5100200163
 20
11.385213551
 30
0.0
 11
-3.2276736744
 21
11.3544182214
 31
0.0
 11
-3.3766712366
 21
11.3488785953
 31
0.0
 11
-3.4486844283
 21
11.3623104116
 31
0.0
 11
-3.5100200163
 21
11.385213551
 31
0.0
  0
SPLINE
  5
3BD
100
AcDbEntity
  8
RACCORDO
100
AcDbSpline
 62
253
  6
CONTINUOUS
 70
0
 71
3
 72
11
 73
7
 74
5
 42
0.0000001
 43
0.0000001
 44
0.0000000001
 12
0.0658555545
 22
1.9961182693
 32
0.0
 13
1.6708818249
 23
1.0940653666
 33
0.0
 40
0.0
 40
0.0
 40
0.0
 40
0.0
 40
0.2450025981
 40
0.5061647165
 40
0.7640136834
 40
1.0
 40
1.0
 40
1.0
 40
1.0
 10
-16.5207847902
 20
17.8905959379
 30
0.0
 10
-16.5154065295
 20
18.053613992
 30
0.0
 10
-16.4559464825
 20
18.3894170229
 30
0.0
 10
-16.2589929956
 20
18.8621724815
 30
0.0
 10
-15.9721070594
 20
19.2791839004
 30
0.0
 10
-15.7253845073
 20
19.5034157328
 30
0.0
 10
-15.5939494249
 20
19.5894772181
 30
0.0
 11
-16.5207847902
 21
17.8905959379
 31
0.0
 11
-16.4412046194
 21
18.3734015935
 31
0.0
 11
-16.2420807235
 21
18.8554908912
 31
0.0
 11
-15.9476946315
 21
19.2780287148
 31
0.0
 11
-15.5939494249
 21
19.5894772181
 31
0.0
  0
SPLINE
  5
3BE
100
AcDbEntity
  8
RACCORDO
100
AcDbSpline
 62
7
  6
CONTINUOUS
 70
0
 71
3
 72
8
 73
4
 74
2
 42
0.0000001
 43
0.0000001
 44
0.0000000001
 12
-0.0548327168
 22
0.0324052546
 32
0.0
 13
-0.0475922955
 23
0.0423284865
 33
0.0
 40
0.0
 40
0.0
 40
0.0
 40
0.0
 40
1.0
 40
1.0
 40
1.0
 40
1.0
 10
-3.531446494
 20
6.9647188654
 30
0.0
 10
-3.5497240663
 20
6.9755206169
 30
0.0
 10
-3.5668662817
 20
6.988380925
 30
0.0
 10
-3.5827303803
 20
7.0024904205
 30
0.0
 11
-3.531446494
 21
6.9647188654
 31
0.0
 11
-3.5827303803
 21
7.0024904205
 31
0.0
  0
SPLINE
  5
3BF
100
AcDbEntity
  8
RACCORDO
100
AcDbSpline
 62
7
  6
CONTINUOUS
 70
0
 71
3
 72
9
 73
5
 74
3
 42
0.0000001
 43
0.0000001
 44
0.0000000001
 12
-0.0585360217
 22
0.0520618133
 32
0.0
 13
-0.0475331441
 23
0.0622695628
 33
0.0
 40
0.0
 40
0.0
 40
0.0
 40
0.0
 40
0.2525355785
 40
1.0
 40
1.0
 40
1.0
 40
1.0
 10
-3.5827303803
 20
7.0024904205
 30
0.0
 10
-3.5876578563
 20
7.0068729072
 30
0.0
 10
-3.6067075422
 20
7.0247423866
 30
0.0
 10
-3.623991873
 20
7.0444734567
 30
0.0
 10
-3.6358349843
 20
7.0599882176
 30
0.0
 11
-3.5827303803
 21
7.0024904205
 31
0.0
 11
-3.597166719
 21
7.0160169873
 31
0.0
 11
-3.6358349843
 21
7.0599882176
 31
0.0
  0
SPLINE
  5
3C0
100
AcDbEntity
  8
RACCORDO
100
AcDbSpline
 62
253
  6
CONTINUOUS
 70
0
 71
3
 72
9
 73
5
 74
3
 42
0.0000001
 43
0.0000001
 44
0.0000000001
 12
-0.0958232267
 22
0.2220735724
 32
0.0
 13
-0.2163307859
 23
0.1081653985
 33
0.0
 40
0.0
 40
0.0
 40
0.0
 40
0.0
 40
0.5285190126
 40
1.0
 40
1.0
 40
1.0
 40
1.0
 10
-2.3490962623
 20
12.9513934446
 30
0.0
 10
-2.365977728
 20
12.990516813
 30
0.0
 10
-2.4090271897
 20
13.0599861245
 30
0.0
 10
-2.4717659129
 20
13.1142747534
 30
0.0
 10
-2.5057645304
 20
13.131274063
 30
0.0
 11
-2.3490962623
 21
12.9513934446
 31
0.0
 11
-2.4169824936
 21
13.0597080611
 31
0.0
 11
-2.5057645304
 21
13.131274063
 31
0.0
  0
SPLINE
  5
3C1
100
AcDbEntity
  8
RACCORDO
100
AcDbSpline
 62
253
  6
CONTINUOUS
 70
0
 71
3
 72
11
 73
7
 74
5
 42
0.0000001
 43
0.0000001
 44
0.0000000001
 12
-1.81764209
 22
-1.0254885087
 32
0.0
 13
-0.068815521
 23
-2.0858364924
 33
0.0
 40
0.0
 40
0.0
 40
0.0
 40
0.0
 40
0.2318600046
 40
0.4894676157
 40
0.7527769559
 40
1.0
 40
1.0
 40
1.0
 40
1.0
 10
-2.5057645307
 20
13.1312740629
 30
0.0
 10
-2.6462440318
 20
13.0520174728
 30
0.0
 10
-2.9128830184
 20
12.8309400758
 30
0.0
 10
-3.2237363725
 20
12.4044517253
 30
0.0
 10
-3.4390187248
 20
11.9109565067
 30
0.0
 10
-3.5043490888
 20
11.5571025001
 30
0.0
 10
-3.5100200163
 20
11.385213551
 30
0.0
 11
-2.5057645307
 21
13.1312740629
 31
0.0
 11
-2.8843799157
 21
12.8299515346
 31
0.0
 11
-3.2044795483
 21
12.3980126808
 31
0.0
 11
-3.422844446
 21
11.8937429523
 31
0.0
 11
-3.5100200163
 21
11.385213551
 31
0.0
  0
SPLINE
  5
3C2
100
AcDbEntity
  8
RACCORDO
100
AcDbSpline
 62
253
  6
CONTINUOUS
 70
0
 71
3
 72
11
 73
7
 74
5
 42
0.0000001
 43
0.0000001
 44
0.0000000001
 12
-0.0039319102
 22
-0.1199193187
 32
0.0
 13
0.107316737
 23
-0.053658372
 33
0.0
 40
0.0
 40
0.0
 40
0.0
 40
0.0
 40
0.2010920437
 40
0.4266530287
 40
0.6918365394
 40
1.0
 40
1.0
 40
1.0
 40
1.0
 10
-16.5940097385
 20
17.9782653688
 30
0.0
 10
-16.5942732971
 20
17.9702270952
 30
0.0
 10
-16.5909658205
 20
17.9529065338
 30
0.0
 10
-16.5757220059
 20
17.9292545862
 30
0.0
 10
-16.551661161
 20
17.9078307249
 30
0.0
 10
-16.5318084892
 20
17.8961077876
 30
0.0
 10
-16.5207847902
 20
17.8905959378
 30
0.0
 11
-16.5940097385
 21
17.9782653688
 31
0.0
 11
-16.589801894
 21
17.9545073428
 31
0.0
 11
-16.575757006
 21
17.9313733297
 31
0.0
 11
-16.5524025856
 21
17.9097645807
 31
0.0
 11
-16.5207847902
 21
17.8905959378
 31
0.0
  0
SPLINE
  5
3C3
100
AcDbEntity
  8
RACCORDO
100
AcDbSpline
 62
7
  6
CONTINUOUS
 70
0
 71
3
 72
9
 73
5
 74
3
 42
0.0000001
 43
0.0000001
 44
0.0000000001
 12
-0.1125352003
 22
-0.1251677502
 32
0.0
 13
-0.1502531559
 23
-0.0758625477
 33
0.0
 40
0.0
 40
0.0
 40
0.0
 40
0.0
 40
0.2544782844
 40
1.0
 40
1.0
 40
1.0
 40
1.0
 10
-3.3527650227
 20
7.0880811736
 30
0.0
 10
-3.3623109443
 20
7.0774636822
 30
0.0
 10
-3.4012784705
 20
7.0371663311
 30
0.0
 10
-3.4467527627
 20
7.0024171625
 30
0.0
 10
-3.4840917596
 20
6.9835647702
 30
0.0
 11
-3.3527650227
 21
7.0880811736
 31
0.0
 11
-3.3825650957
 21
7.0573133765
 31
0.0
 11
-3.4840917596
 21
6.9835647702
 31
0.0
  0
SPLINE
  5
3C4
100
AcDbEntity
  8
RACCORDO
100
AcDbSpline
 62
7
  6
CONTINUOUS
 70
0
 71
3
 72
10
 73
6
 74
4
 42
0.0000001
 43
0.0000001
 44
0.0000000001
 12
0.0548748944
 22
-0.0113001785
 32
0.0
 13
0.0541289649
 23
0.014456944
 33
0.0
 40
0.0
 40
0.0
 40
0.0
 40
0.0
 40
0.1782256531
 40
0.4056993186
 40
1.0
 40
1.0
 40
1.0
 40
1.0
 10
-16.7111805603
 20
13.5545858985
 30
0.0
 10
-16.7079205224
 20
13.5539145713
 30
0.0
 10
-16.7002529762
 20
13.5537500063
 30
0.0
 10
-16.6817289749
 20
13.5561291698
 30
0.0
 10
-16.6668021818
 20
13.5599163509
 30
0.0
 10
-16.6560792216
 20
13.5627802748
 30
0.0
 11
-16.7111805603
 21
13.5545858985
 31
0.0
 11
-16.7012131489
 21
13.5539880196
 31
0.0
 11
-16.6885467407
 21
13.5553968045
 31
0.0
 11
-16.6560792216
 21
13.5627802748
 31
0.0
  0
SPLINE
  5
3C5
100
AcDbEntity
  8
0
100
AcDbSpline
 62
7
  6
CONTINUOUS
 70
0
 71
3
 72
8
 73
4
 74
2
 42
0.0000001
 43
0.0000001
 44
0.0000000001
 12
-0.150904385
 22
-0.129609211
 32
0.0
 13
-0.1137741751
 23
-0.1631751148
 33
0.0
 40
0.0
 40
0.0
 40
0.0
 40
0.0
 40
1.0
 40
1.0
 40
1.0
 40
1.0
 10
-9.5768130659
 20
-1.6207936044
 30
0.0
 10
-9.6271145275
 20
-1.6639966748
 30
0.0
 10
-9.6720858744
 20
-1.7141486357
 30
0.0
 10
-9.7100105994
 20
-1.7685403406
 30
0.0
 11
-9.5768130659
 21
-1.6207936044
 31
0.0
 11
-9.7100105994
 21
-1.7685403406
 31
0.0
  0
SPLINE
  5
3C6
100
AcDbEntity
  8
0
100
AcDbSpline
 62
7
  6
CONTINUOUS
 70
0
 71
3
 72
8
 73
4
 74
2
 42
0.0000001
 43
0.0000001
 44
0.0000000001
 12
0.1988045969
 22
-0.0068857288
 32
0.0
 13
0.1942299998
 23
0.0429579813
 33
0.0
 40
0.0
 40
0.0
 40
0.0
 40
0.0
 40
1.0
 40
1.0
 40
1.0
 40
1.0
 10
-8.7399885921
 20
-3.7085843552
 30
0.0
 10
-8.6737203931
 20
-3.7108795982
 30
0.0
 10
-8.6066160163
 20
-3.7049936972
 30
0.0
 10
-8.541872683
 20
-3.6906743701
 30
0.0
 11
-8.7399885921
 21
-3.7085843552
 31
0.0
 11
-8.541872683
 21
-3.6906743701
 31
0.0
  0
SPLINE
  5
3C7
100
AcDbEntity
  8
0
100
AcDbSpline
 62
7
  6
CONTINUOUS
 70
0
 71
3
 72
11
 73
7
 74
5
 42
0.0000001
 43
0.0000001
 44
0.0000000001
 12
1.1364915184
 22
-0.6657527116
 32
0.0
 13
0.3629281483
 23
-1.2661448588
 33
0.0
 40
0.0
 40
0.0
 40
0.0
 40
0.0
 40
0.2476923833
 40
0.4957466864
 40
0.7459297356
 40
1.0
 40
1.0
 40
1.0
 40
1.0
 10
14.3071751218
 20
20.1863536456
 30
0.0
 10
14.4010085527
 20
20.1313863537
 30
0.0
 10
14.5775194011
 20
20.0007082839
 30
0.0
 10
14.7957984053
 20
19.7537262427
 30
0.0
 10
14.9642500758
 20
19.4674809334
 30
0.0
 10
15.0416880753
 20
19.2588212039
 30
0.0
 10
15.0724244922
 20
19.1515912842
 30
0.0
 11
14.3071751218
 21
20.1863536456
 31
0.0
 11
14.5695414873
 21
19.9924492008
 31
0.0
 11
14.7866895525
 21
19.7483323699
 31
0.0
 11
14.9546481159
 21
19.4648253375
 31
0.0
 11
15.0724244922
 21
19.1515912842
 31
0.0
  0
SPLINE
  5
3C8
100
AcDbEntity
  8
0
100
AcDbSpline
 62
7
  6
CONTINUOUS
 70
0
 71
3
 72
11
 73
7
 74
5
 42
0.0000001
 43
0.0000001
 44
0.0000000001
 12
1.7248220511
 22
0.9105500172
 32
0.0
 13
1.7089355969
 23
-0.9400274289
 33
0.0
 40
0.0
 40
0.0
 40
0.0
 40
0.0
 40
0.2165318309
 40
0.4488554219
 40
0.7083808677
 40
1.0
 40
1.0
 40
1.0
 40
1.0
 10
-12.043073684
 20
0.4408844991
 30
0.0
 10
-11.9185807251
 20
0.5066055199
 30
0.0
 10
-11.63751862
 20
0.6028748881
 30
0.0
 10
-11.1717206305
 20
0.6189866957
 30
0.0
 10
-10.66997832
 20
0.5088140064
 30
0.0
 10
-10.340953692
 20
0.3609241942
 30
0.0
 10
-10.1748342534
 20
0.2695475331
 30
0.0
 11
-12.043073684
 21
0.4408844991
 31
0.0
 11
-11.6441293905
 21
0.5794600925
 31
0.0
 11
-11.1914883208
 21
0.6004405992
 31
0.0
 11
-10.6958386358
 21
0.4977200383
 31
0.0
 11
-10.1748342534
 21
0.2695475331
 31
0.0
  0
SPLINE
  5
3C9
100
AcDbEntity
  8
0
100
AcDbSpline
 62
7
  6
CONTINUOUS
 70
0
 71
3
 72
11
 73
7
 74
5
 42
0.0000001
 43
0.0000001
 44
0.0000000001
 12
2.8664714875
 22
-2.7416244157
 32
0.0
 13
-0.000055109
 23
-3.9665051648
 33
0.0
 40
0.0
 40
0.0
 40
0.0
 40
0.0
 40
0.2508076324
 40
0.5097082721
 40
0.7635063744
 40
1.0
 40
1.0
 40
1.0
 40
1.0
 10
13.8983959066
 20
4.6757360491
 30
0.0
 10
14.1380402156
 20
4.4465292728
 30
0.0
 10
14.5752703929
 20
3.9268215483
 30
0.0
 10
15.0734733578
 20
3.0426436237
 30
0.0
 10
15.3958484123
 20
2.1001725089
 30
0.0
 10
15.4795343551
 20
1.4508184859
 30
0.0
 10
15.4795300108
 20
1.13813409
 30
0.0
 11
13.8983959066
 21
4.6757360491
 31
0.0
 11
14.542993395
 21
3.9179891599
 31
0.0
 11
15.0477497356
 21
3.0236694463
 31
0.0
 11
15.3691873686
 21
2.0696749019
 31
0.0
 11
15.4795300108
 21
1.13813409
 31
0.0
  0
SPLINE
  5
3CA
100
AcDbEntity
  8
0
100
AcDbSpline
 62
7
  6
CONTINUOUS
 70
0
 71
3
 72
9
 73
5
 74
3
 42
0.0000001
 43
0.0000001
 44
0.0000000001
 12
-0.1068363999
 22
0.0534181999
 32
0.0
 13
-0.0953199882
 23
0.0719834722
 33
0.0
 40
0.0
 40
0.0
 40
0.0
 40
0.0
 40
0.2466073348
 40
1.0
 40
1.0
 40
1.0
 40
1.0
 10
-9.9032656718
 20
-3.6195256205
 30
0.0
 10
-9.912047885
 20
-3.6151345138
 30
0.0
 10
-9.9472149151
 20
-3.5964450798
 30
0.0
 10
-9.9805690869
 20
-3.5743978898
 30
0.0
 10
-10.0045068803
 20
-3.5563206165
 30
0.0
 11
-9.9032656718
 21
-3.6195256205
 31
0.0
 11
-9.9292825309
 21
-3.6057124083
 31
0.0
 11
-10.0045068803
 21
-3.5563206165
 31
0.0
  0
SPLINE
  5
3CB
100
AcDbEntity
  8
0
100
AcDbSpline
 62
7
  6
CONTINUOUS
 70
0
 71
3
 72
11
 73
7
 74
5
 42
0.0000001
 43
0.0000001
 44
0.0000000001
 12
-0.7936739057
 22
0.7090215154
 32
0.0
 13
0.6086966631
 23
0.8729937859
 33
0.0
 40
0.0
 40
0.0
 40
0.0
 40
0.0
 40
0.2566762517
 40
0.5173140939
 40
0.7654224453
 40
1.0
 40
1.0
 40
1.0
 40
1.0
 10
-10.051637039
 20
-3.5175442986
 30
0.0
 10
-10.1195427868
 20
-3.4568813036
 30
0.0
 10
-10.2353873286
 20
-3.3100248488
 30
0.0
 10
-10.3380883964
 20
-3.0549736126
 30
0.0
 10
-10.360303813
 20
-2.7873925633
 30
0.0
 10
-10.3022137115
 20
-2.6178790477
 30
0.0
 10
-10.2546181866
 20
-2.5496174652
 30
0.0
 11
-10.051637039
 21
-3.5175442986
 31
0.0
 11
-10.2230689102
 21
-3.3048665626
 31
0.0
 11
-10.3258439923
 21
-3.0472249809
 31
0.0
 11
-10.3415485772
 21
-2.783642904
 31
0.0
 11
-10.2546181866
 21
-2.5496174652
 31
0.0
  0
SPLINE
  5
3CC
100
AcDbEntity
  8
0
100
AcDbSpline
 62
7
  6
CONTINUOUS
 70
0
 71
3
 72
9
 73
5
 74
3
 42
0.0000001
 43
0.0000001
 44
0.0000000001
 12
-0.2197404916
 22
0.0076108574
 32
0.0
 13
-0.196659724
 23
0.098329862
 33
0.0
 40
0.0
 40
0.0
 40
0.0
 40
0.0
 40
0.7467352179
 40
1.0
 40
1.0
 40
1.0
 40
1.0
 10
-9.6916148441
 20
-3.6756241502
 30
0.0
 10
-9.7463108321
 20
-3.6737297185
 30
0.0
 10
-9.8196827164
 20
-3.6575690896
 30
0.0
 10
-9.8866633444
 20
-3.6278267842
 30
0.0
 10
-9.9032656718
 20
-3.6195256205
 30
0.0
 11
-9.6916148441
 21
-3.6756241502
 31
0.0
 11
-9.8523257214
 21
-3.642020971
 31
0.0
 11
-9.9032656718
 21
-3.6195256205
 31
0.0
  0
SPLINE
  5
3CD
100
AcDbEntity
  8
0
100
AcDbSpline
 62
7
  6
CONTINUOUS
 70
0
 71
3
 72
11
 73
7
 74
5
 42
0.0000001
 43
0.0000001
 44
0.0000000001
 12
-0.0416911403
 22
-2.4225353307
 32
0.0
 13
-2.190494395
 23
-1.0354467079
 33
0.0
 40
0.0
 40
0.0
 40
0.0
 40
0.0
 40
0.2996348661
 40
0.5626163438
 40
0.7916884387
 40
1.0
 40
1.0
 40
1.0
 40
1.0
 10
-7.3519864716
 20
-4.8297154992
 30
0.0
 10
-7.3561505114
 20
-5.0716741823
 30
0.0
 10
-7.4022410739
 20
-5.5271136625
 30
0.0
 10
-7.6051361418
 20
-6.1400681876
 30
0.0
 10
-7.9272898477
 20
-6.6156639793
 30
0.0
 10
-8.2201848125
 20
-6.8287911989
 30
0.0
 10
-8.3722865816
 20
-6.9006897057
 30
0.0
 11
-7.3519864716
 21
-4.8297154992
 31
0.0
 11
-7.4330677042
 21
-5.5511570601
 31
0.0
 11
-7.642456735
 21
-6.1529459079
 31
0.0
 11
-7.9619942281
 21
-6.6067521688
 31
0.0
 11
-8.3722865816
 21
-6.9006897057
 31
0.0
  0
SPLINE
  5
3CE
100
AcDbEntity
  8
0
100
AcDbSpline
 62
7
  6
CONTINUOUS
 70
0
 71
3
 72
11
 73
7
 74
5
 42
0.0000001
 43
0.0000001
 44
0.0000000001
 12
0.3323776847
 22
0.187499796
 32
0.0
 13
0.0348103711
 23
0.3800254424
 33
0.0
 40
0.0
 40
0.0
 40
0.0
 40
0.0
 40
0.2866488292
 40
0.5456399162
 40
0.7804537926
 40
1.0
 40
1.0
 40
1.0
 40
1.0
 10
14.5312187907
 20
7.3661715005
 30
0.0
 10
14.5629773487
 20
7.3840870329
 30
0.0
 10
14.6209733391
 20
7.4229714496
 30
0.0
 10
14.691686842
 20
7.493741221
 30
0.0
 10
14.7391892312
 20
7.572252979
 30
0.0
 10
14.7538931913
 20
7.6292541029
 30
0.0
 10
14.7564406863
 20
7.657065151
 30
0.0
 11
14.5312187907
 21
7.3661715005
 31
0.0
 11
14.621551198
 21
7.4278659652
 31
0.0
 11
14.6906153159
 21
7.4985664248
 31
0.0
 11
14.7360522044
 21
7.5758013399
 31
0.0
 11
14.7564406863
 21
7.657065151
 31
0.0
  0
SPLINE
  5
3CF
100
AcDbEntity
  8
0
100
AcDbSpline
 62
7
  6
CONTINUOUS
 70
0
 71
3
 72
9
 73
5
 74
3
 42
0.0000001
 43
0.0000001
 44
0.0000000001
 12
0.3204798471
 22
-0.1889301616
 32
0.0
 13
0.3012774353
 23
-0.2182517934
 33
0.0
 40
0.0
 40
0.0
 40
0.0
 40
0.0
 40
0.244707435
 40
1.0
 40
1.0
 40
1.0
 40
1.0
 10
-10.0828679043
 20
0.2171477442
 30
0.0
 10
-10.0567266371
 20
0.2017368724
 30
0.0
 10
-9.9506925631
 20
0.1374214997
 30
0.0
 10
-9.8478194377
 20
0.0679259185
 30
0.0
 10
-9.7719685687
 20
0.0129779329
 30
0.0
 11
-10.0828679043
 21
0.2171477442
 31
0.0
 11
-10.0050212677
 21
0.1699497728
 31
0.0
 11
-9.7719685687
 21
0.0129779329
 31
0.0
  0
SPLINE
  5
3D0
100
AcDbEntity
  8
0
100
AcDbSpline
 62
7
  6
CONTINUOUS
 70
0
 71
3
 72
11
 73
7
 74
5
 42
0.0000001
 43
0.0000001
 44
0.0000000001
 12
4.5291612496
 22
-3.2764598217
 32
0.0
 13
-0.0963288924
 23
-5.5892048927
 33
0.0
 40
0.0
 40
0.0
 40
0.0
 40
0.0
 40
0.2394889897
 40
0.4999993438
 40
0.760510116
 40
1.0
 40
1.0
 40
1.0
 40
1.0
 10
-9.774352174
 20
0.014727216
 30
0.0
 10
-9.4127907568
 20
-0.2468314681
 30
0.0
 10
-8.7406956325
 20
-0.9096488253
 30
0.0
 10
-7.9736353378
 20
-2.1128769236
 30
0.0
 10
-7.471287175
 20
-3.4484631296
 30
0.0
 10
-7.3442895703
 20
-4.3838321174
 30
0.0
 10
-7.3519795021
 20
-4.8300181278
 30
0.0
 11
-9.774352174
 21
0.014727216
 31
0.0
 11
-8.8074467001
 21
-0.9112048754
 31
0.0
 11
-8.0189739793
 21
-2.1355454024
 31
0.0
 11
-7.5125830692
 21
-3.5009296007
 31
0.0
 11
-7.3519795021
 21
-4.8300181278
 31
0.0
  0
SPLINE
  5
3D1
100
AcDbEntity
  8
0
100
AcDbSpline
 62
7
  6
CONTINUOUS
 70
0
 71
3
 72
11
 73
7
 74
5
 42
0.0000001
 43
0.0000001
 44
0.0000000001
 12
-4.8760725034
 22
3.6570543776
 32
0.0
 13
0.0
 23
6.0950906293
 33
0.0
 40
0.0
 40
0.0
 40
0.0
 40
0.0
 40
0.2416341424
 40
0.500000517
 40
0.7583665796
 40
1.0
 40
1.0
 40
1.0
 40
1.0
 10
-10.9667657514
 20
-6.9164259279
 30
0.0
 10
-11.3595076172
 20
-6.6218695285
 30
0.0
 10
-12.0858332156
 20
-5.8941694445
 30
0.0
 10
-12.9166917236
 20
-4.5844055421
 30
0.0
 10
-13.4659861117
 20
-3.1338613771
 30
0.0
 10
-13.6123501636
 20
-2.1161829688
 30
0.0
 10
-13.6123501636
 20
-1.6252571034
 30
0.0
 11
-10.9667657514
 21
-6.9164259279
 31
0.0
 11
-12.0198318047
 21
-5.8867955583
 31
0.0
 11
-12.8687293706
 21
-4.5604236822
 31
0.0
 11
-13.420486549
 21
-3.0854838673
 31
0.0
 11
-13.6123501636
 21
-1.6252571034
 31
0.0
  0
SPLINE
  5
3D2
100
AcDbEntity
  8
0
100
AcDbSpline
 62
7
  6
CONTINUOUS
 70
0
 71
3
 72
12
 73
8
 74
6
 42
0.0000001
 43
0.0000001
 44
0.0000000001
 12
-0.0003069274
 22
3.1128008524
 32
0.0
 13
2.7841737361
 23
1.392086868
 33
0.0
 40
0.0
 40
0.0
 40
0.0
 40
0.0
 40
0.2818596341
 40
0.5387862183
 40
0.7748811828
 40
0.8881610271
 40
1.0
 40
1.0
 40
1.0
 40
1.0
 10
-13.6123500771
 20
-1.6257928604
 30
0.0
 10
-13.612378914
 20
-1.333335224
 30
0.0
 10
-13.5639000227
 20
-0.7720792946
 30
0.0
 10
-13.3195924323
 20
0.0018225801
 30
0.0
 10
-12.9662446009
 20
0.5358460942
 30
0.0
 10
-12.608333535
 20
0.8566792206
 30
0.0
 10
-12.4084272706
 20
0.9803852744
 30
0.0
 10
-12.3046342269
 20
1.0322817962
 30
0.0
 11
-13.6123500771
 21
-1.6257928604
 31
0.0
 11
-13.5284348876
 21
-0.752442146
 31
0.0
 11
-13.2772075185
 21
0.0068357587
 31
0.0
 11
-12.8638404973
 21
0.6144788528
 31
0.0
 11
-12.6008320586
 21
0.8493527155
 31
0.0
 11
-12.3046342269
 21
1.0322817962
 31
0.0
  0
SPLINE
  5
3D3
100
AcDbEntity
  8
0
100
AcDbSpline
 62
7
  6
CONTINUOUS
 70
0
 71
3
 72
11
 73
7
 74
5
 42
0.0000001
 43
0.0000001
 44
0.0000000001
 12
-2.3239701299
 22
-1.1619850649
 32
0.0
 13
-2.2382839816
 23
1.3195193342
 33
0.0
 40
0.0
 40
0.0
 40
0.0
 40
0.0
 40
0.2297850017
 40
0.4685717109
 40
0.7237745569
 40
1.0
 40
1.0
 40
1.0
 40
1.0
 10
-8.0561050697
 20
-7.4647765183
 30
0.0
 10
-8.2341095631
 20
-7.553778765
 30
0.0
 10
-8.6280660997
 20
-7.6787619699
 30
0.0
 10
-9.2624593572
 20
-7.6859663489
 30
0.0
 10
-9.9158709262
 20
-7.5253733355
 30
0.0
 10
-10.3332083569
 20
-7.3238654857
 30
0.0
 10
-10.5392986851
 20
-7.2023705481
 30
0.0
 11
-8.0561050697
 21
-7.4647765183
 31
0.0
 11
-8.6245259053
 21
-7.6474257722
 31
0.0
 11
-9.2448204461
 21
-7.6605872716
 31
0.0
 11
-9.890311024
 21
-7.5088394779
 31
0.0
 11
-10.5392986851
 21
-7.2023705481
 31
0.0
  0
SPLINE
  5
3D4
100
AcDbEntity
  8
0
100
AcDbSpline
 62
7
  6
CONTINUOUS
 70
0
 71
3
 72
8
 73
4
 74
2
 42
0.0000001
 43
0.0000001
 44
0.0000000001
 12
0.0198594412
 22
0.025027011
 32
0.0
 13
0.0297253576
 23
0.0117111827
 33
0.0
 40
0.0
 40
0.0
 40
0.0
 40
0.0
 40
1.0
 40
1.0
 40
1.0
 40
1.0
 10
-0.7964832537
 20
21.2376327852
 30
0.0
 10
-0.7898634399
 20
21.2459751222
 30
0.0
 10
-0.7807904494
 20
21.2528425172
 30
0.0
 10
-0.7708819969
 20
21.2567462448
 30
0.0
 11
-0.7964832537
 21
21.2376327852
 31
0.0
 11
-0.7708819969
 21
21.2567462448
 31
0.0
  0
SPLINE
  5
3D5
100
AcDbEntity
  8
0
100
AcDbSpline
 62
7
  6
CONTINUOUS
 70
0
 71
3
 72
8
 73
4
 74
2
 42
0.0000001
 43
0.0000001
 44
0.0000000001
 12
0.138670769
 22
0.0455183176
 32
0.0
 13
0.1456173968
 23
-0.0098525719
 33
0.0
 40
0.0
 40
0.0
 40
0.0
 40
0.0
 40
1.0
 40
1.0
 40
1.0
 40
1.0
 10
-0.7479832487
 20
21.2649602329
 30
0.0
 10
-0.701759659
 20
21.2801330055
 30
0.0
 10
-0.6517807566
 20
21.2869890654
 30
0.0
 10
-0.6032416243
 20
21.2837048748
 30
0.0
 11
-0.7479832487
 21
21.2649602329
 31
0.0
 11
-0.6032416243
 21
21.2837048748
 31
0.0
  0
SPLINE
  5
3D6
100
AcDbEntity
  8
0
100
AcDbSpline
 62
7
  6
CONTINUOUS
 70
0
 71
3
 72
8
 73
4
 74
2
 42
0.0000001
 43
0.0000001
 44
0.0000000001
 12
0.1366380766
 22
-0.009245025
 32
0.0
 13
0.1224922348
 23
-0.0612461174
 33
0.0
 40
0.0
 40
0.0
 40
0.0
 40
0.0
 40
1.0
 40
1.0
 40
1.0
 40
1.0
 10
-0.6032416243
 20
21.2837048748
 30
0.0
 10
-0.5576955988
 20
21.2806231998
 30
0.0
 10
-0.5118787184
 20
21.2683393425
 30
0.0
 10
-0.4710479734
 20
21.24792397
 30
0.0
 11
-0.6032416243
 21
21.2837048748
 31
0.0
 11
-0.4710479734
 21
21.24792397
 31
0.0
  0
SPLINE
  5
3D7
100
AcDbEntity
  8
0
100
AcDbSpline
 62
7
  6
CONTINUOUS
 70
0
 71
3
 72
11
 73
7
 74
5
 42
0.0000001
 43
0.0000001
 44
0.0000000001
 12
-1.3096835216
 22
0.549707623
 32
0.0
 13
-1.302148246
 23
-0.5673264871
 33
0.0
 40
0.0
 40
0.0
 40
0.0
 40
0.0
 40
0.2470133767
 40
0.4948974233
 40
0.7451125631
 40
1.0
 40
1.0
 40
1.0
 40
1.0
 10
8.682602598
 20
22.9986410017
 30
0.0
 10
8.5747661483
 20
23.0439027137
 30
0.0
 10
8.3473398962
 20
23.1096479143
 30
0.0
 10
7.9925342783
 20
23.1301432501
 30
0.0
 10
7.6377254234
 20
23.0772824459
 30
0.0
 10
7.4103167858
 20
22.9989991047
 30
0.0
 10
7.2996830428
 20
22.95079764
 30
0.0
 11
8.682602598
 21
22.9986410017
 31
0.0
 11
8.3456890863
 21
23.0965449737
 31
0.0
 11
7.9942580343
 21
23.1180256929
 31
0.0
 11
7.6425274206
 21
23.0671015057
 31
0.0
 11
7.2996830428
 21
22.95079764
 31
0.0
  0
LINE
  5
3D8
100
AcDbEntity
  8
0
100
AcDbLine
 62
7
  6
CONTINUOUS
 10
15.2834959117
 20
16.0168737929
 11
15.2863221909
 21
16.1048776931
  0
SPLINE
  5
3D9
100
AcDbEntity
  8
0
100
AcDbSpline
 62
7
  6
CONTINUOUS
 70
0
 71
3
 72
11
 73
7
 74
5
 42
0.0000001
 43
0.0000001
 44
0.0000000001
 12
1.8718589683
 22
1.0713103864
 32
0.0
 13
-0.0
 23
2.1567480013
 33
0.0
 40
0.0
 40
0.0
 40
0.0
 40
0.0
 40
0.2206179931
 40
0.4558618132
 40
0.7145980627
 40
1.0
 40
1.0
 40
1.0
 40
1.0
 10
14.6077229047
 20
-0.7335576949
 30
0.0
 10
14.745378161
 20
-0.6547742457
 30
0.0
 10
15.0031031747
 20
-0.4410363978
 30
0.0
 10
15.2799872996
 20
-0.0001186779
 30
0.0
 10
15.446246617
 20
0.5403383261
 30
0.0
 10
15.4795300108
 20
0.9329540708
 30
0.0
 10
15.4795300108
 20
1.13813409
 30
0.0
 11
14.6077229047
 21
-0.7335576949
 31
0.0
 11
14.9758411226
 21
-0.4320760359
 31
0.0
 11
15.2513754396
 21
-0.0060517729
 31
0.0
 11
15.4218388772
 21
0.5253035295
 31
0.0
 11
15.4795300108
 21
1.13813409
 31
0.0
  0
SPLINE
  5
3DA
100
AcDbEntity
  8
0
100
AcDbSpline
 62
7
  6
CONTINUOUS
 70
0
 71
3
 72
11
 73
7
 74
5
 42
0.0000001
 43
0.0000001
 44
0.0000000001
 12
-2.6900344753
 22
-1.3450172377
 32
0.0
 13
-2.6900344753
 23
1.3450172377
 33
0.0
 40
0.0
 40
0.0
 40
0.0
 40
0.0
 40
0.2501093473
 40
0.5001613133
 40
0.7501266378
 40
1.0
 40
1.0
 40
1.0
 40
1.0
 10
11.6999785022
 20
-2.1899100041
 30
0.0
 10
11.4757109133
 20
-2.3020437986
 30
0.0
 10
10.9987257316
 20
-2.4737485058
 30
0.0
 10
10.2445271517
 20
-2.5564111829
 30
0.0
 10
9.4920136247
 20
-2.4627410212
 30
0.0
 10
9.0171459221
 20
-2.2877370912
 30
0.0
 10
8.7930899358
 20
-2.1757090981
 30
0.0
 11
11.6999785022
 21
-2.1899100041
 31
0.0
 11
10.9921967298
 21
-2.4446145708
 31
0.0
 11
10.2446814648
 21
-2.5270207713
 31
0.0
 11
9.4986036134
 21
-2.4345771278
 31
0.0
 11
8.7930899358
 21
-2.1757090981
 31
0.0
  0
SPLINE
  5
3DB
100
AcDbEntity
  8
0
100
AcDbSpline
 62
7
  6
CONTINUOUS
 70
0
 71
3
 72
9
 73
5
 74
3
 42
0.0000001
 43
0.0000001
 44
0.0000000001
 12
-0.4590393547
 22
-0.3725566596
 32
0.0
 13
-0.5287895712
 23
-0.2643807543
 33
0.0
 40
0.0
 40
0.0
 40
0.0
 40
0.0
 40
0.2552365052
 40
1.0
 40
1.0
 40
1.0
 40
1.0
 10
12.4605218944
 20
-1.8109779641
 30
0.0
 10
12.4214673608
 20
-1.8426746507
 30
0.0
 10
12.2654259473
 20
-1.9630347426
 30
0.0
 10
12.0968933475
 20
-2.0675743399
 30
0.0
 10
11.9656189578
 20
-2.1332080514
 30
0.0
 11
12.4605218944
 21
-1.8109779641
 31
0.0
 11
12.340998684
 21
-1.9030845924
 31
0.0
 11
11.9656189578
 21
-2.1332080514
 31
0.0
  0
SPLINE
  5
3DC
100
AcDbEntity
  8
0
100
AcDbSpline
 62
7
  6
CONTINUOUS
 70
0
 71
3
 72
9
 73
5
 74
3
 42
0.0000001
 43
0.0000001
 44
0.0000000001
 12
0.1902056901
 22
-0.6585925633
 32
0.0
 13
0.0047734279
 23
-0.6854922197
 33
0.0
 40
0.0
 40
0.0
 40
0.0
 40
0.0
 40
0.2451319774
 40
1.0
 40
1.0
 40
1.0
 40
1.0
 10
15.0722466988
 20
19.152209828
 30
0.0
 10
15.0877885311
 20
19.0983957955
 30
0.0
 10
15.1426967683
 20
18.8764359567
 30
0.0
 10
15.1648030486
 20
18.6468864137
 30
0.0
 10
15.1660041513
 20
18.4744010282
 30
0.0
 11
15.0722466988
 21
19.152209828
 31
0.0
 11
15.1127370013
 21
18.9891208242
 31
0.0
 11
15.1660041513
 21
18.4744010282
 31
0.0
  0
SPLINE
  5
3DD
100
AcDbEntity
  8
0
100
AcDbSpline
 62
253
  6
CONTINUOUS
 70
0
 71
3
 72
11
 73
7
 74
5
 42
0.0000001
 43
0.0000001
 44
0.0000000001
 12
0.5626883357
 22
0.2818964347
 32
0.0
 13
0.0
 23
0.6293518595
 33
0.0
 40
0.0
 40
0.0
 40
0.0
 40
0.0
 40
0.2171652556
 40
0.4504048052
 40
0.710325989
 40
1.0
 40
1.0
 40
1.0
 40
1.0
 10
5.2030377107
 20
13.497209733
 30
0.0
 10
5.2437698294
 20
13.5176157701
 30
0.0
 10
5.3208069136
 20
13.5763528386
 30
0.0
 10
5.4033923882
 20
13.7031050995
 30
0.0
 10
5.4527905213
 20
13.8614090961
 30
0.0
 10
5.462609797
 20
13.9771386458
 30
0.0
 10
5.462609797
 20
14.037907605
 30
0.0
 11
5.2030377107
 21
13.497209733
 31
0.0
 11
5.3123221709
 21
13.5792859987
 31
0.0
 11
5.394425892
 21
13.7009667613
 31
0.0
 11
5.4453525264
 21
13.8564193569
 31
0.0
 11
5.462609797
 21
14.037907605
 31
0.0
  0
SPLINE
  5
3DE
100
AcDbEntity
  8
0
100
AcDbSpline
 62
253
  6
CONTINUOUS
 70
0
 71
3
 72
11
 73
7
 74
5
 42
0.0000001
 43
0.0000001
 44
0.0000000001
 12
-0.0227098594
 22
-0.2039889627
 32
0.0
 13
-0.1957385551
 23
-0.0617547782
 33
0.0
 40
0.0
 40
0.0
 40
0.0
 40
0.0
 40
0.2041037853
 40
0.4348913907
 40
0.7022325031
 40
1.0
 40
1.0
 40
1.0
 40
1.0
 10
17.8495366039
 20
2.354894235
 30
0.0
 10
17.8479915478
 20
2.3410159285
 30
0.0
 10
17.8367914298
 20
2.31214625
 30
0.0
 10
17.8027873176
 20
2.2770769193
 30
0.0
 10
17.7555942114
 20
2.2491235101
 30
0.0
 10
17.7193622065
 20
2.2352323883
 30
0.0
 10
17.6999340133
 20
2.2291028664
 30
0.0
 11
17.8495366039
 21
2.354894235
 31
0.0
 11
17.8353071672
 21
2.3154927828
 31
0.0
 11
17.8033947704
 21
2.2804868061
 31
0.0
 11
17.7567888134
 21
2.2515252497
 31
0.0
 11
17.6999340133
 21
2.2291028664
 31
0.0
  0
SPLINE
  5
3DF
100
AcDbEntity
  8
0
100
AcDbSpline
 62
253
  6
CONTINUOUS
 70
0
 71
3
 72
10
 73
6
 74
4
 42
0.0000001
 43
0.0000001
 44
0.0000000001
 12
-0.0004245262
 22
0.4707272614
 32
0.0
 13
-0.0885152999
 23
0.4623303759
 33
0.0
 40
0.0
 40
0.0
 40
0.0
 40
0.0
 40
0.5088517694
 40
0.759116933
 40
1.0
 40
1.0
 40
1.0
 40
1.0
 10
15.0872079898
 20
16.606945823
 30
0.0
 10
15.0871359829
 20
16.6867892896
 30
0.0
 10
15.0861898947
 20
16.805951314
 30
0.0
 10
15.0800058482
 20
16.9626748821
 30
0.0
 10
15.0727989663
 20
17.0396437167
 30
0.0
 10
15.0656916873
 20
17.0767662364
 30
0.0
 11
15.0872079898
 21
16.606945823
 31
0.0
 11
15.0841833833
 21
16.8464572233
 31
0.0
 11
15.0788652243
 21
16.9641438059
 31
0.0
 11
15.0656916873
 21
17.0767662364
 31
0.0
  0
SPLINE
  5
3E0
100
AcDbEntity
  8
0
100
AcDbSpline
 62
7
  6
CONTINUOUS
 70
0
 71
3
 72
8
 73
4
 74
2
 42
0.0000001
 43
0.0000001
 44
0.0000000001
 12
0.0137328355
 22
0.0054104562
 32
0.0
 13
0.0145775115
 23
0.0023151598
 33
0.0
 40
0.0
 40
0.0
 40
0.0
 40
0.0
 40
1.0
 40
1.0
 40
1.0
 40
1.0
 10
-0.7708819969
 20
21.2567462448
 30
0.0
 10
-0.7663043851
 20
21.2585497302
 30
0.0
 10
-0.7614882957
 20
21.259811119
 30
0.0
 10
-0.7566291252
 20
21.2605828389
 30
0.0
 11
-0.7708819969
 21
21.2567462448
 31
0.0
 11
-0.7566291252
 21
21.2605828389
 31
0.0
  0
SPLINE
  5
3E1
100
AcDbEntity
  8
0
100
AcDbSpline
 62
7
  6
CONTINUOUS
 70
0
 71
3
 72
9
 73
5
 74
3
 42
0.0000001
 43
0.0000001
 44
0.0000000001
 12
0.0827044568
 22
0.0131348919
 32
0.0
 13
0.074900214
 23
-0.037450107
 33
0.0
 40
0.0
 40
0.0
 40
0.0
 40
0.0
 40
0.213204134
 40
1.0
 40
1.0
 40
1.0
 40
1.0
 10
-0.7566291252
 20
21.2605828389
 30
0.0
 10
-0.7507514811
 20
21.26151631
 30
0.0
 10
-0.7226293537
 20
21.2625667278
 30
0.0
 10
-0.6953110914
 20
21.2524137499
 30
0.0
 10
-0.6756673652
 20
21.2425918868
 30
0.0
 11
-0.7566291252
 21
21.2605828389
 31
0.0
 11
-0.738796514
 21
21.2614549552
 31
0.0
 11
-0.6756673652
 21
21.2425918868
 31
0.0
  0
SPLINE
  5
3E2
100
AcDbEntity
  8
0
100
AcDbSpline
 62
253
  6
CONTINUOUS
 70
0
 71
3
 72
9
 73
5
 74
3
 42
0.0000001
 43
0.0000001
 44
0.0000000001
 12
-0.0848369529
 22
-0.1680762444
 32
0.0
 13
-0.1631529928
 23
-0.0939576152
 33
0.0
 40
0.0
 40
0.0
 40
0.0
 40
0.0
 40
0.5164063526
 40
1.0
 40
1.0
 40
1.0
 40
1.0
 10
12.1057572049
 20
-1.9876712911
 30
0.0
 10
12.0911537578
 20
-2.0166031712
 30
0.0
 10
12.0560100941
 20
-2.0696302371
 30
0.0
 10
12.0065733626
 20
-2.110176703
 30
0.0
 10
11.9802734456
 20
-2.1253224716
 30
0.0
 11
12.1057572049
 21
-1.9876712911
 31
0.0
 11
12.0510453241
 21
-2.0680419281
 31
0.0
 11
11.9802734456
 21
-2.1253224716
 31
0.0
  0
SPLINE
  5
3E3
100
AcDbEntity
  8
0
100
AcDbSpline
 62
253
  6
CONTINUOUS
 70
0
 71
3
 72
13
 73
9
 74
7
 42
0.0000001
 43
0.0000001
 44
0.0000000001
 12
-0.456489112
 22
1.5961313781
 32
0.0
 13
-1.5219490192
 23
-0.6630903925
 33
0.0
 40
0.0
 40
0.0
 40
0.0
 40
0.0
 40
0.2614621027
 40
0.380539325
 40
0.4959312683
 40
0.6119550336
 40
0.732802828
 40
1.0
 40
1.0
 40
1.0
 40
1.0
 10
14.8820271457
 20
18.6789370012
 30
0.0
 10
14.842242278
 20
18.81804629
 30
0.0
 10
14.7516178046
 20
19.0160410636
 30
0.0
 10
14.5587508439
 20
19.2144317935
 30
0.0
 10
14.3920998944
 20
19.3176823177
 30
0.0
 10
14.2039656883
 20
19.3760619483
 30
0.0
 10
13.9234092329
 20
19.3933201378
 30
0.0
 10
13.7098363171
 20
19.3347482812
 30
0.0
 10
13.5742828258
 20
19.2756896553
 30
0.0
 11
14.8820271457
 21
18.6789370012
 31
0.0
 11
14.690627348
 21
19.068519068
 31
0.0
 11
14.5520819296
 21
19.2095290057
 31
0.0
 11
14.3890287616
 21
19.3100818188
 31
0.0
 11
14.2052627388
 21
19.3677898761
 31
0.0
 11
14.0050983243
 21
19.3813402063
 31
0.0
 11
13.5742828258
 21
19.2756896553
 31
0.0
  0
SPLINE
  5
3E4
100
AcDbEntity
  8
0
100
AcDbSpline
 62
253
  6
CONTINUOUS
 70
0
 71
3
 72
9
 73
5
 74
3
 42
0.0000001
 43
0.0000001
 44
0.0000000001
 12
-0.0026027866
 22
0.4833295762
 32
0.0
 13
-0.1341096763
 23
0.4643585344
 33
0.0
 40
0.0
 40
0.0
 40
0.0
 40
0.0
 40
0.263080438
 40
1.0
 40
1.0
 40
1.0
 40
1.0
 10
14.94657759
 20
18.2007489456
 30
0.0
 10
14.9463493426
 20
18.2431337978
 30
0.0
 10
14.9403629804
 20
18.40410823
 30
0.0
 10
14.914969827
 20
18.5648720386
 30
0.0
 10
14.8820271457
 20
18.6789370012
 30
0.0
 11
14.94657759
 21
18.2007489456
 31
0.0
 11
14.9418563835
 21
18.3278176685
 31
0.0
 11
14.8820271457
 21
18.6789370012
 31
0.0
  0
SPLINE
  5
3E5
100
AcDbEntity
  8
0
100
AcDbSpline
 62
253
  6
CONTINUOUS
 70
0
 71
3
 72
11
 73
7
 74
5
 42
0.0000001
 43
0.0000001
 44
0.0000000001
 12
0.3826132584
 22
0.2959513713
 32
0.0
 13
-0.0934761246
 23
0.4745970226
 33
0.0
 40
0.0
 40
0.0
 40
0.0
 40
0.0
 40
0.2883374076
 40
0.5479506633
 40
0.7818085742
 40
1.0
 40
1.0
 40
1.0
 40
1.0
 10
15.0656923887
 20
17.0767667777
 30
0.0
 10
15.1024662937
 20
17.1052113948
 30
0.0
 10
15.167908471
 20
17.1655644668
 30
0.0
 10
15.2403889092
 20
17.2702194618
 30
0.0
 10
15.2781836459
 20
17.3804045602
 30
0.0
 10
15.277474816
 20
17.4551003087
 30
0.0
 10
15.2706762531
 20
17.4896179757
 30
0.0
 11
15.0656923887
 21
17.0767667777
 31
0.0
 11
15.1672845757
 21
17.1723270964
 31
0.0
 11
15.2373678864
 21
17.2765305781
 31
0.0
 11
15.2724009185
 21
17.3840896209
 31
0.0
 11
15.2706762531
 21
17.4896179757
 31
0.0
  0
SPLINE
  5
3E6
100
AcDbEntity
  8
0
100
AcDbSpline
 62
7
  6
CONTINUOUS
 70
0
 71
3
 72
12
 73
8
 74
6
 42
0.0000001
 43
0.0000001
 44
0.0000000001
 12
-0.0121260661
 22
0.9735730631
 32
0.0
 13
0.9730553955
 23
-0.033981584
 33
0.0
 40
0.0
 40
0.0
 40
0.0
 40
0.0
 40
0.2621837391
 40
0.5411495285
 40
0.6741941009
 40
0.7965803693
 40
1.0
 40
1.0
 40
1.0
 40
1.0
 10
14.5310998645
 20
15.4272256266
 30
0.0
 10
14.530040112
 20
15.5123106353
 30
0.0
 10
14.5654826114
 20
15.6885342203
 30
0.0
 10
14.6701429501
 20
15.8841472225
 30
0.0
 10
14.7863250364
 20
16.0143926498
 30
0.0
 10
14.9032640293
 20
16.1061943513
 30
0.0
 10
15.0096456684
 20
16.1455092569
 30
0.0
 10
15.0756251914
 20
16.1432050831
 30
0.0
 11
14.5310998645
 21
15.4272256266
 31
0.0
 11
14.5757831923
 21
15.6785593414
 31
0.0
 11
14.7045383553
 21
15.9177174955
 31
0.0
 11
14.7912370397
 21
16.0139651043
 31
0.0
 11
14.8859072552
 21
16.0863318489
 31
0.0
 11
15.0756251914
 21
16.1432050831
 31
0.0
  0
SPLINE
  5
3E7
100
AcDbEntity
  8
0
100
AcDbSpline
 62
253
  6
CONTINUOUS
 70
0
 71
3
 72
11
 73
7
 74
5
 42
0.0000001
 43
0.0000001
 44
0.0000000001
 12
0.3512064798
 22
0.2211324439
 32
0.0
 13
-0.0355429609
 23
0.4134999965
 33
0.0
 40
0.0
 40
0.0
 40
0.0
 40
0.0
 40
0.2947982123
 40
0.5559024806
 40
0.7870290305
 40
1.0
 40
1.0
 40
1.0
 40
1.0
 10
14.9700932409
 20
17.8922628346
 30
0.0
 10
15.0046049217
 20
17.913992651
 30
0.0
 10
15.0666818126
 20
17.9602327301
 30
0.0
 10
15.1393348338
 20
18.0426586556
 30
0.0
 10
15.1826276538
 20
18.1317243608
 30
0.0
 10
15.1893435644
 20
18.1944158843
 30
0.0
 10
15.1868203582
 20
18.2237703827
 30
0.0
 11
14.9700932409
 21
17.8922628346
 31
0.0
 11
15.0674184397
 21
17.9664044218
 31
0.0
 11
15.1378193324
 21
18.0487854282
 31
0.0
 11
15.178176755
 21
18.1358058079
 31
0.0
 11
15.1868203582
 21
18.2237703827
 31
0.0
  0
SPLINE
  5
3E8
100
AcDbEntity
  8
0
100
AcDbSpline
 62
253
  6
CONTINUOUS
 70
0
 71
3
 72
9
 73
5
 74
3
 42
0.0000001
 43
0.0000001
 44
0.0000000001
 12
0.0563007563
 22
0.0807026848
 32
0.0
 13
0.0709840114
 23
0.0681466699
 33
0.0
 40
0.0
 40
0.0
 40
0.0
 40
0.0
 40
0.2548768183
 40
1.0
 40
1.0
 40
1.0
 40
1.0
 10
-9.7100063917
 20
-1.7685457089
 30
0.0
 10
-9.7052231391
 20
-1.7616892944
 30
0.0
 10
-9.6858367217
 20
-1.7352283932
 30
0.0
 10
-9.6639196236
 20
-1.7106021019
 30
0.0
 10
-9.6462890128
 20
-1.693676214
 30
0.0
 11
-9.7100063917
 21
-1.7685457089
 31
0.0
 11
-9.6951764438
 21
-1.7483199341
 31
0.0
 11
-9.6462890128
 21
-1.693676214
 31
0.0
  0
SPLINE
  5
3E9
100
AcDbEntity
  8
0
100
AcDbSpline
 62
253
  6
CONTINUOUS
 70
0
 71
3
 72
9
 73
5
 74
3
 42
0.0000001
 43
0.0000001
 44
0.0000000001
 12
0.1327381603
 22
0.1274324093
 32
0.0
 13
0.1732512913
 23
0.0619873229
 33
0.0
 40
0.0
 40
0.0
 40
0.0
 40
0.0
 40
0.2538674096
 40
1.0
 40
1.0
 40
1.0
 40
1.0
 10
-9.6462890128
 20
-1.693676214
 30
0.0
 10
-9.6350563819
 20
-1.6828925688
 30
0.0
 10
-9.5887487804
 20
-1.6426131803
 30
0.0
 10
-9.5338055113
 20
-1.6122867607
 30
0.0
 10
-9.490716033
 20
-1.59686984
 30
0.0
 11
-9.6462890128
 21
-1.693676214
 31
0.0
 11
-9.610987843
 21
-1.6630827763
 31
0.0
 11
-9.490716033
 21
-1.59686984
 31
0.0
  0
SPLINE
  5
3EA
100
AcDbEntity
  8
0
100
AcDbSpline
 62
253
  6
CONTINUOUS
 70
0
 71
3
 72
9
 73
5
 74
3
 42
0.0000001
 43
0.0000001
 44
0.0000000001
 12
0.4484909753
 22
0.1604649218
 32
0.0
 13
0.4260452051
 23
-0.2130226026
 33
0.0
 40
0.0
 40
0.0
 40
0.0
 40
0.0
 40
0.4654892956
 40
1.0
 40
1.0
 40
1.0
 40
1.0
 10
-9.490716033
 20
-1.59686984
 30
0.0
 10
-9.4211267836
 20
-1.5719716056
 30
0.0
 10
-9.2563092848
 20
-1.5585886181
 30
0.0
 10
-9.1030027431
 20
-1.6116805137
 30
0.0
 10
-9.0270941689
 20
-1.6496348008
 30
0.0
 11
-9.490716033
 21
-1.59686984
 31
0.0
 11
-9.2701794182
 21
-1.5739161273
 31
0.0
 11
-9.0270941689
 21
-1.6496348008
 31
0.0
  0
SPLINE
  5
3EB
100
AcDbEntity
  8
0
100
AcDbSpline
 62
7
  6
CONTINUOUS
 70
0
 71
3
 72
9
 73
5
 74
3
 42
0.0000001
 43
0.0000001
 44
0.0000000001
 12
0.1965220123
 22
0.113252634
 32
0.0
 13
0.1284950953
 23
0.1869119336
 33
0.0
 40
0.0
 40
0.0
 40
0.0
 40
0.0
 40
0.2756663141
 40
1.0
 40
1.0
 40
1.0
 40
1.0
 10
14.9471907058
 20
18.159552085
 30
0.0
 10
14.965248872
 20
18.1699587304
 30
0.0
 10
15.0290283777
 20
18.210330783
 30
0.0
 10
15.0865661362
 20
18.2626717751
 30
0.0
 10
15.1175905782
 20
18.307800645
 30
0.0
 11
14.9471907058
 21
18.159552085
 31
0.0
 11
14.9999382722
 21
18.1931267029
 31
0.0
 11
15.1175905782
 21
18.307800645
 31
0.0
  0
SPLINE
  5
3EC
100
AcDbEntity
  8
0
100
AcDbSpline
 62
7
  6
CONTINUOUS
 70
0
 71
3
 72
9
 73
5
 74
3
 42
0.0000001
 43
0.0000001
 44
0.0000000001
 12
0.0426478679
 22
0.0620365736
 32
0.0
 13
0.0255151687
 23
0.0708262188
 33
0.0
 40
0.0
 40
0.0
 40
0.0
 40
0.0
 40
0.2596648675
 40
1.0
 40
1.0
 40
1.0
 40
1.0
 10
15.1175905782
 20
18.307800645
 30
0.0
 10
15.1212819626
 20
18.3131702179
 30
0.0
 10
15.13490684
 20
18.3342428042
 30
0.0
 10
15.1460188195
 20
18.3569892542
 30
0.0
 10
15.1523154114
 20
18.3744676336
 30
0.0
 11
15.1175905782
 21
18.307800645
 31
0.0
 11
15.1281883323
 21
18.3242267002
 31
0.0
 11
15.1523154114
 21
18.3744676336
 31
0.0
  0
SPLINE
  5
3ED
100
AcDbEntity
  8
0
100
AcDbSpline
 62
7
  6
CONTINUOUS
 70
0
 71
3
 72
9
 73
5
 74
3
 42
0.0000001
 43
0.0000001
 44
0.0000000001
 12
0.0285078835
 22
0.0791335391
 32
0.0
 13
-0.0016956664
 23
0.0840948342
 33
0.0
 40
0.0
 40
0.0
 40
0.0
 40
0.0
 40
0.2566156223
 40
1.0
 40
1.0
 40
1.0
 40
1.0
 10
15.1523154114
 20
18.3744676336
 30
0.0
 10
15.1547539342
 20
18.3812366011
 30
0.0
 10
15.1631580485
 20
18.4079912388
 30
0.0
 10
15.166782064
 20
18.436294362
 30
0.0
 10
15.1663618867
 20
18.4571326241
 30
0.0
 11
15.1523154114
 21
18.3744676336
 31
0.0
 11
15.1587524112
 21
18.3950698873
 31
0.0
 11
15.1663618867
 21
18.4571326241
 31
0.0
  0
SPLINE
  5
3EE
100
AcDbEntity
  8
0
100
AcDbSpline
 62
253
  6
CONTINUOUS
 70
0
 71
3
 72
11
 73
7
 74
5
 42
0.0000001
 43
0.0000001
 44
0.0000000001
 12
0.5493394482
 22
-0.0189826292
 32
0.0
 13
0.0
 23
0.5496673263
 33
0.0
 40
0.0
 40
0.0
 40
0.0
 40
0.0
 40
0.227572886
 40
0.4530587096
 40
0.7058978672
 40
1.0
 40
1.0
 40
1.0
 40
1.0
 10
-9.6916147906
 20
-3.6756243495
 30
0.0
 10
-9.6499432027
 20
-3.6770643268
 30
0.0
 10
-9.5643180304
 20
-3.6623487866
 30
0.0
 10
-9.4607893049
 20
-3.5763843032
 30
0.0
 10
-9.4003631457
 20
-3.444622254
 30
0.0
 10
-9.389105797
 20
-3.3436474439
 30
0.0
 10
-9.389105797
 20
-3.2897613329
 30
0.0
 11
-9.6916147906
 21
-3.6756243495
 31
0.0
 11
-9.5687624802
 21
-3.65207307
 31
0.0
 11
-9.4720751973
 21
-3.5745280139
 31
0.0
 11
-9.4103289568
 21
-3.4500204796
 31
0.0
 11
-9.389105797
 21
-3.2897613329
 31
0.0
  0
SPLINE
  5
3EF
100
AcDbEntity
  8
0
100
AcDbSpline
 62
253
  6
CONTINUOUS
 70
0
 71
3
 72
11
 73
7
 74
5
 42
0.0000001
 43
0.0000001
 44
0.0000000001
 12
0.6646769248
 22
0.3321820551
 32
0.0
 13
-0.0
 23
0.7430614591
 33
0.0
 40
0.0
 40
0.0
 40
0.0
 40
0.0
 40
0.2171660977
 40
0.4503906164
 40
0.710307251
 40
1.0
 40
1.0
 40
1.0
 40
1.0
 10
-8.3664749976
 20
-3.6285623185
 30
0.0
 10
-8.3183598996
 20
-3.6045160916
 30
0.0
 10
-8.2273433598
 20
-3.5352439614
 30
0.0
 10
-8.129761399
 20
-3.3856379789
 30
0.0
 10
-8.0713946283
 20
-3.1987423703
 30
0.0
 10
-8.0597938004
 20
-3.0620987286
 30
0.0
 10
-8.0597938004
 20
-2.9903455563
 30
0.0
 11
-8.3664749976
 21
-3.6285623185
 31
0.0
 11
-8.2373637223
 21
-3.5317644274
 31
0.0
 11
-8.1403576114
 21
-3.3881581711
 31
0.0
 11
-8.0801847407
 21
-3.204637108
 31
0.0
 11
-8.0597938004
 21
-2.9903455563
 31
0.0
  0
SPLINE
  5
3F0
100
AcDbEntity
  8
0
100
AcDbSpline
 62
253
  6
CONTINUOUS
 70
0
 71
3
 72
15
 73
11
 74
9
 42
0.0000001
 43
0.0000001
 44
0.0000000001
 12
2.2429120988
 22
-1.1214560494
 32
0.0
 13
-0.0000972998
 23
2.5076519583
 33
0.0
 40
0.0
 40
0.0
 40
0.0
 40
0.0
 40
0.1349111792
 40
0.2571993516
 40
0.3703106221
 40
0.4800794971
 40
0.5933621391
 40
0.7159430721
 40
0.8512009536
 40
1.0
 40
1.0
 40
1.0
 40
1.0
 10
8.4024976753
 20
-1.9112351224
 30
0.0
 10
8.503362314
 20
-1.9616674417
 30
0.0
 10
8.7052441097
 20
-2.0407646418
 30
0.0
 10
9.0150542181
 20
-2.0844642836
 30
0.0
 10
9.3051094126
 20
-2.0423998484
 30
0.0
 10
9.5604255348
 20
-1.9133716133
 30
0.0
 10
9.766718109
 20
-1.7046972681
 30
0.0
 10
9.9161521534
 20
-1.4289519308
 30
0.0
 10
10.0057577434
 20
-1.0986021115
 30
0.0
 10
10.0238231525
 20
-0.8604789614
 30
0.0
 10
10.0238183265
 20
-0.7361002213
 30
0.0
 11
8.4024976753
 21
-1.9112351224
 31
0.0
 11
8.7188107345
 21
-2.0312346897
 31
0.0
 11
9.0229673451
 21
-2.0703085438
 31
0.0
 11
9.3032782797
 21
-2.0269550206
 31
0.0
 11
9.5489707083
 21
-1.9028402624
 31
0.0
 11
9.7506022664
 21
-1.7027342063
 31
0.0
 11
9.9004239147
 21
-1.4343272752
 31
0.0
 11
9.9926777579
 21
-1.1079347328
 31
0.0
 11
10.0238183265
 21
-0.7361002213
 31
0.0
  0
SPLINE
  5
3F1
100
AcDbEntity
  8
0
100
AcDbSpline
 62
253
  6
CONTINUOUS
 70
0
 71
3
 72
11
 73
7
 74
5
 42
0.0000001
 43
0.0000001
 44
0.0000000001
 12
0.0
 22
-0.5685848591
 32
0.0
 13
0.4603880513
 23
-0.333663879
 33
0.0
 40
0.0
 40
0.0
 40
0.0
 40
0.0
 40
0.2861041071
 40
0.5463546174
 40
0.7821677679
 40
1.0
 40
1.0
 40
1.0
 40
1.0
 10
8.1953908941
 20
-1.4024160773
 30
0.0
 10
8.1953908941
 20
-1.4566408984
 30
0.0
 10
8.2033051877
 20
-1.5604763405
 30
0.0
 10
8.2423389569
 20
-1.7045946985
 30
0.0
 10
8.3075096293
 20
-1.8247714575
 30
0.0
 10
8.3690685563
 20
-1.8870075399
 30
0.0
 10
8.4024976753
 20
-1.9112351224
 30
0.0
 11
8.1953908941
 21
-1.4024160773
 31
0.0
 11
8.2089862088
 21
-1.5645214395
 31
0.0
 11
8.2492089033
 21
-1.7069243448
 31
0.0
 11
8.3145948107
 21
-1.8239801962
 31
0.0
 11
8.4024976753
 21
-1.9112351224
 31
0.0
  0
SPLINE
  5
3F2
100
AcDbEntity
  8
0
100
AcDbSpline
 62
253
  6
CONTINUOUS
 70
0
 71
3
 72
9
 73
5
 74
3
 42
0.0000001
 43
0.0000001
 44
0.0000000001
 12
-0.0002352836
 22
-0.098284637
 32
0.0
 13
-0.0500164886
 23
-0.0846065961
 33
0.0
 40
0.0
 40
0.0
 40
0.0
 40
0.0
 40
0.2432386189
 40
1.0
 40
1.0
 40
1.0
 40
1.0
 10
15.3067480129
 20
16.8519856247
 30
0.0
 10
15.3067289362
 20
16.8440167515
 30
0.0
 10
15.3043429914
 20
16.811257415
 30
0.0
 10
15.2922381349
 20
16.7795687629
 30
0.0
 10
15.2796212859
 20
16.7582264281
 30
0.0
 11
15.3067480129
 21
16.8519856247
 31
0.0
 11
15.3049932087
 21
16.828143427
 31
0.0
 11
15.2796212859
 21
16.7582264281
 31
0.0
  0
SPLINE
  5
3F3
100
AcDbEntity
  8
0
100
AcDbSpline
 62
253
  6
CONTINUOUS
 70
0
 71
3
 72
9
 73
5
 74
3
 42
0.0000001
 43
0.0000001
 44
0.0000000001
 12
-0.0355587004
 22
-0.0601501763
 32
0.0
 13
-0.0496294665
 23
-0.0491872031
 33
0.0
 40
0.0
 40
0.0
 40
0.0
 40
0.0
 40
0.2383406447
 40
1.0
 40
1.0
 40
1.0
 40
1.0
 10
15.2796212859
 20
16.7582264281
 30
0.0
 10
15.276796258
 20
16.7534476841
 30
0.0
 10
15.2642044338
 20
16.7338357206
 30
0.0
 10
15.2488821948
 20
16.7160451413
 30
0.0
 10
15.2362819456
 20
16.7035571769
 30
0.0
 11
15.2796212859
 21
16.7582264281
 31
0.0
 11
15.2706388664
 21
16.7442024941
 31
0.0
 11
15.2362819456
 21
16.7035571769
 31
0.0
  0
SPLINE
  5
3F4
100
AcDbEntity
  8
0
100
AcDbSpline
 62
253
  6
CONTINUOUS
 70
0
 71
3
 72
9
 73
5
 74
3
 42
0.0000001
 43
0.0000001
 44
0.0000000001
 12
-0.1211938795
 22
-0.1201138837
 32
0.0
 13
-0.1549124066
 23
-0.0715363387
 33
0.0
 40
0.0
 40
0.0
 40
0.0
 40
0.0
 40
0.2265887071
 40
1.0
 40
1.0
 40
1.0
 40
1.0
 10
15.2362819456
 20
16.7035571769
 30
0.0
 10
15.2271282241
 20
16.694485027
 30
0.0
 10
15.1844003151
 20
16.656794591
 30
0.0
 10
15.1343761838
 20
16.6280585652
 30
0.0
 10
15.0944391823
 20
16.6096162278
 30
0.0
 11
15.2362819456
 21
16.7035571769
 31
0.0
 11
15.207390295
 21
16.677864314
 31
0.0
 11
15.0944391823
 21
16.6096162278
 31
0.0
  0
SPLINE
  5
3F5
100
AcDbEntity
  8
0
100
AcDbSpline
 62
253
  6
CONTINUOUS
 70
0
 71
3
 72
15
 73
11
 74
9
 42
0.0000001
 43
0.0000001
 44
0.0000000001
 12
1.5511685756
 22
-0.7755842878
 32
0.0
 13
-0.0000831374
 23
1.7342591878
 33
0.0
 40
0.0
 40
0.0
 40
0.0
 40
0.0
 40
0.1349014321
 40
0.2572111482
 40
0.3703129814
 40
0.4800825727
 40
0.5933661601
 40
0.7159341853
 40
0.851213988
 40
1.0
 40
1.0
 40
1.0
 40
1.0
 10
8.1953908941
 20
-1.4024160773
 30
0.0
 10
8.2651425149
 20
-1.4372918877
 30
0.0
 10
8.4047705767
 20
-1.4919828399
 30
0.0
 10
8.6190321797
 20
-1.5222312645
 30
0.0
 10
8.8196317487
 20
-1.4931062998
 30
0.0
 10
8.9962112282
 20
-1.4038967965
 30
0.0
 10
9.1388655875
 20
-1.2595743235
 30
0.0
 10
9.2422476501
 20
-1.0688869007
 30
0.0
 10
9.3042011618
 20
-0.8404168339
 30
0.0
 10
9.3167179741
 20
-0.6757320879
 30
0.0
 10
9.3167138509
 20
-0.5897209185
 30
0.0
 11
8.1953908941
 21
-1.4024160773
 31
0.0
 11
8.4141348924
 21
-1.4853953515
 31
0.0
 11
8.6245216724
 21
-1.5124308479
 31
0.0
 11
8.818362605
 21
-1.4824360314
 31
0.0
 11
8.9882857061
 21
-1.3966079107
 31
0.0
 11
9.1277319834
 21
-1.2582154022
 31
0.0
 11
9.2313537831
 21
-1.0726182992
 31
0.0
 11
9.2951666801
 21
-0.8468532016
 31
0.0
 11
9.3167138509
 21
-0.5897209185
 31
0.0
  0
SPLINE
  5
3F6
100
AcDbEntity
  8
0
100
AcDbSpline
 62
253
  6
CONTINUOUS
 70
0
 71
3
 72
11
 73
7
 74
5
 42
0.0000001
 43
0.0000001
 44
0.0000000001
 12
-0.0000426302
 22
2.3283058976
 32
0.0
 13
-2.0825001042
 23
1.0412500521
 33
0.0
 40
0.0
 40
0.0
 40
0.0
 40
0.0
 40
0.2468028409
 40
0.5117842648
 40
0.7703142448
 40
1.0
 40
1.0
 40
1.0
 40
1.0
 10
9.3167138509
 20
-0.5897209185
 30
0.0
 10
9.3167103438
 20
-0.3981767485
 30
0.0
 10
9.2506211068
 20
-0.0002956438
 30
0.0
 10
9.0112534105
 20
0.5530425083
 30
0.0
 10
8.659483202
 20
1.0262328705
 30
0.0
 10
8.3548310971
 20
1.2645770956
 30
0.0
 10
8.1953908941
 20
1.3442971971
 30
0.0
 11
9.3167138509
 21
-0.5897209185
 31
0.0
 11
9.2313542531
 21
-0.0214637049
 31
0.0
 11
8.9882857678
 21
0.5455941876
 31
0.0
 11
8.6245216767
 21
1.0251811873
 31
0.0
 11
8.1953908941
 21
1.3442971971
 31
0.0
  0
SPLINE
  5
3F7
100
AcDbEntity
  8
0
100
AcDbSpline
 62
7
  6
CONTINUOUS
 70
0
 71
3
 72
9
 73
5
 74
3
 42
0.0000001
 43
0.0000001
 44
0.0000000001
 12
-0.0757283397
 22
0.0377434208
 32
0.0
 13
-0.0845613658
 23
0.0029534137
 33
0.0
 40
0.0
 40
0.0
 40
0.0
 40
0.0
 40
0.2268131008
 40
1.0
 40
1.0
 40
1.0
 40
1.0
 10
15.157831902
 20
16.1248621397
 30
0.0
 10
15.1521065088
 20
16.1277157072
 30
0.0
 10
15.1259680386
 20
16.1385231219
 30
0.0
 10
15.0974191038
 20
16.1424439029
 30
0.0
 10
15.0756251904
 20
16.1432050831
 30
0.0
 11
15.157831902
 21
16.1248621397
 31
0.0
 11
15.1401254095
 21
16.1322639564
 31
0.0
 11
15.0756251904
 21
16.1432050831
 31
0.0
  0
SPLINE
  5
3F8
100
AcDbEntity
  8
0
100
AcDbSpline
 62
7
  6
CONTINUOUS
 70
0
 71
3
 72
11
 73
7
 74
5
 42
0.0000001
 43
0.0000001
 44
0.0000000001
 12
-0.2855367059
 22
0.1622770539
 32
0.0
 13
-0.0040903275
 23
0.3284026825
 33
0.0
 40
0.0
 40
0.0
 40
0.0
 40
0.0
 40
0.2178982754
 40
0.4521865052
 40
0.712202926
 40
1.0
 40
1.0
 40
1.0
 40
1.0
 10
14.6643988956
 20
15.1420838904
 30
0.0
 10
14.643659577
 20
15.1538705205
 30
0.0
 10
14.6047091253
 20
15.1861633668
 30
0.0
 10
14.5627775278
 20
15.2531259306
 30
0.0
 10
14.5371848968
 20
15.3356147154
 30
0.0
 10
14.5314922592
 20
15.3957211829
 30
0.0
 10
14.5310998645
 20
15.4272256266
 30
0.0
 11
14.6643988956
 21
15.1420838904
 31
0.0
 11
14.6089834497
 21
15.1873666047
 31
0.0
 11
14.5671965091
 21
15.2519782868
 31
0.0
 11
14.540849987
 21
15.3332091885
 31
0.0
 11
14.5310998645
 21
15.4272256266
 31
0.0
  0
SPLINE
  5
3F9
100
AcDbEntity
  8
0
100
AcDbSpline
 62
7
  6
CONTINUOUS
 70
0
 71
3
 72
9
 73
5
 74
3
 42
0.0000001
 43
0.0000001
 44
0.0000000001
 12
0.1603554164
 22
0.0832283902
 32
0.0
 13
0.123323286
 23
0.1320310252
 33
0.0
 40
0.0
 40
0.0
 40
0.0
 40
0.0
 40
0.2715433908
 40
1.0
 40
1.0
 40
1.0
 40
1.0
 10
14.9463735048
 20
18.2006323468
 30
0.0
 10
14.9608879893
 20
18.2081657199
 30
0.0
 10
15.0133403757
 20
18.2376609759
 30
0.0
 10
15.0620820278
 20
18.2746985277
 30
0.0
 10
15.0920272487
 20
18.306758152
 30
0.0
 11
14.9463735048
 21
18.2006323468
 31
0.0
 11
14.989100573
 21
18.2247403409
 31
0.0
 11
15.0920272487
 21
18.306758152
 31
0.0
  0
SPLINE
  5
3FA
100
AcDbEntity
  8
0
100
AcDbSpline
 62
7
  6
CONTINUOUS
 70
0
 71
3
 72
9
 73
5
 74
3
 42
0.0000001
 43
0.0000001
 44
0.0000000001
 12
0.1198240822
 22
0.128284746
 32
0.0
 13
0.0089809811
 23
0.175311519
 33
0.0
 40
0.0
 40
0.0
 40
0.0
 40
0.0
 40
0.529259197
 40
1.0
 40
1.0
 40
1.0
 40
1.0
 10
15.0920272487
 20
18.306758152
 30
0.0
 10
15.1131665812
 20
18.3293901126
 30
0.0
 10
15.1483500188
 20
18.3774230396
 30
0.0
 10
15.1643438823
 20
18.4355463176
 30
0.0
 10
15.1657531204
 20
18.4630550793
 30
0.0
 11
15.0920272487
 21
18.306758152
 31
0.0
 11
15.1450336038
 21
18.383060311
 31
0.0
 11
15.1657531204
 21
18.4630550793
 31
0.0
  0
SPLINE
  5
3FB
100
AcDbEntity
  8
0
100
AcDbSpline
 62
253
  6
CONTINUOUS
 70
0
 71
3
 72
9
 73
5
 74
3
 42
0.0000001
 43
0.0000001
 44
0.0000000001
 12
-0.0710133991
 22
0.5838781893
 32
0.0
 13
-0.0555194876
 23
0.5855546339
 33
0.0
 40
0.0
 40
0.0
 40
0.0
 40
0.0
 40
0.2486375254
 40
1.0
 40
1.0
 40
1.0
 40
1.0
 10
15.0306380115
 20
17.3072175847
 30
0.0
 10
15.0247524795
 20
17.3556089274
 30
0.0
 10
15.002807298
 20
17.5504435076
 30
0.0
 10
14.9839983418
 20
17.7456082509
 30
0.0
 10
14.9700932553
 20
17.8922628438
 30
0.0
 11
15.0306380115
 21
17.3072175847
 31
0.0
 11
15.0140335717
 21
17.4525157141
 31
0.0
 11
14.9700932553
 21
17.8922628438
 31
0.0
  0
SPLINE
  5
3FC
100
AcDbEntity
  8
0
100
AcDbSpline
 62
7
  6
CONTINUOUS
 70
0
 71
3
 72
11
 73
7
 74
5
 42
0.0000001
 43
0.0000001
 44
0.0000000001
 12
-0.0092252576
 22
-0.349998669
 32
0.0
 13
-0.3159527352
 23
-0.1508576906
 33
0.0
 40
0.0
 40
0.0
 40
0.0
 40
0.0
 40
0.2052626429
 40
0.4327547081
 40
0.6962724398
 40
1.0
 40
1.0
 40
1.0
 40
1.0
 10
15.3065590565
 20
16.7985634001
 30
0.0
 10
15.3059278563
 20
16.7746161828
 30
0.0
 10
15.2938760828
 20
16.7240416069
 30
0.0
 10
15.2476800778
 20
16.6556748923
 30
0.0
 10
15.1768501337
 20
16.5946059102
 30
0.0
 10
15.1189598618
 20
16.5617411915
 30
0.0
 10
15.0869720106
 20
16.5464679787
 30
0.0
 11
15.3065590565
 21
16.7985634001
 31
0.0
 11
15.2907469448
 21
16.7284578669
 31
0.0
 11
15.2476696823
 21
16.6614623146
 31
0.0
 11
15.1788507363
 21
16.6000099493
 31
0.0
 11
15.0869720106
 21
16.5464679787
 31
0.0
  0
SPLINE
  5
3FD
100
AcDbEntity
  8
0
100
AcDbSpline
 62
253
  6
CONTINUOUS
 70
0
 71
3
 72
11
 73
7
 74
5
 42
0.0000001
 43
0.0000001
 44
0.0000000001
 12
3.4422771316
 22
-1.7211385658
 32
0.0
 13
0.0000011851
 23
-3.8485828318
 33
0.0
 40
0.0
 40
0.0
 40
0.0
 40
0.0
 40
0.2296635349
 40
0.4881791341
 40
0.7531792203
 40
1.0
 40
1.0
 40
1.0
 40
1.0
 10
8.6347307223
 20
2.4607657802
 30
0.0
 10
8.898252567
 20
2.3290048579
 30
0.0
 10
9.4017958026
 20
1.9350760075
 30
0.0
 10
9.9832920555
 20
1.1529672873
 30
0.0
 10
10.3789798615
 20
0.2383067684
 30
0.0
 10
10.4882843233
 20
-0.419413904
 30
0.0
 10
10.4882844208
 20
-0.7360506424
 30
0.0
 11
8.6347307223
 21
2.4607657802
 31
0.0
 11
9.3440070149
 21
1.933348042
 31
0.0
 11
9.9452991892
 21
1.1406873743
 31
0.0
 11
10.3471427317
 21
0.2033153356
 31
0.0
 11
10.4882844208
 21
-0.7360506424
 31
0.0
  0
SPLINE
  5
3FE
100
AcDbEntity
  8
0
100
AcDbSpline
 62
253
  6
CONTINUOUS
 70
0
 71
3
 72
10
 73
6
 74
4
 42
0.0000001
 43
0.0000001
 44
0.0000000001
 12
-1.9263425917
 22
-0.9631712959
 32
0.0
 13
-1.0802712756
 23
-1.8631985125
 33
0.0
 40
0.0
 40
0.0
 40
0.0
 40
0.0
 40
0.2261576162
 40
0.4712450507
 40
1.0
 40
1.0
 40
1.0
 40
1.0
 10
10.1347307223
 20
3.9717246845
 30
0.0
 10
9.9895117061
 20
3.8991151764
 30
0.0
 10
9.7016188403
 20
3.7173544424
 30
0.0
 10
9.1615854204
 20
3.2415398063
 30
0.0
 10
8.8251303168
 20
2.7891575919
 30
0.0
 10
8.6347307223
 20
2.4607657802
 30
0.0
 11
10.1347307223
 21
3.9717246845
 31
0.0
 11
9.7208771795
 21
3.7148753607
 31
0.0
 11
9.3229450365
 21
3.368069338
 31
0.0
 11
8.6347307223
 21
2.4607657802
 31
0.0
  0
SPLINE
  5
3FF
100
AcDbEntity
  8
0
100
AcDbSpline
 62
253
  6
CONTINUOUS
 70
0
 71
3
 72
14
 73
10
 74
8
 42
0.0000001
 43
0.0000001
 44
0.0000000001
 12
0.0000337656
 22
5.1484603122
 32
0.0
 13
-4.6049228951
 23
2.3024614476
 33
0.0
 40
0.0
 40
0.0
 40
0.0
 40
0.0
 40
0.1198299487
 40
0.2469201687
 40
0.5113941968
 40
0.6430281403
 40
0.7699825949
 40
0.8896167471
 40
1.0
 40
1.0
 40
1.0
 40
1.0
 10
12.6096047655
 20
-0.2968514659
 30
0.0
 10
12.6096061142
 20
-0.0912048875
 30
0.0
 10
12.5746402067
 20
0.3330599058
 30
0.0
 10
12.3825497282
 20
1.1912468959
 30
0.0
 10
12.022286242
 20
2.0253794008
 30
0.0
 10
11.5259093185
 20
2.7751639677
 30
0.0
 10
11.101186886
 20
3.2687027217
 30
0.0
 10
10.6400103809
 20
3.6749658906
 30
0.0
 10
10.3041661785
 20
3.8870069564
 30
0.0
 10
10.1347307223
 20
3.9717246845
 30
0.0
 11
12.6096047655
 21
-0.2968514659
 31
0.0
 11
12.5620596973
 21
0.3182534873
 31
0.0
 11
12.4212445469
 21
0.9572404875
 31
0.0
 11
11.8848322109
 21
2.208763183
 31
0.0
 11
11.5098117861
 21
2.7732571312
 31
0.0
 11
11.0819224741
 21
3.2673520643
 31
0.0
 11
10.6175950823
 21
3.6720394911
 31
0.0
 11
10.1347307223
 21
3.9717246845
 31
0.0
  0
SPLINE
  5
400
100
AcDbEntity
  8
0
100
AcDbSpline
 62
253
  6
CONTINUOUS
 70
0
 71
3
 72
11
 73
7
 74
5
 42
0.0000001
 43
0.0000001
 44
0.0000000001
 12
1.5610014398
 22
1.1855874503
 32
0.0
 13
0.0000003018
 23
1.9601895565
 33
0.0
 40
0.0
 40
0.0
 40
0.0
 40
0.0
 40
0.218105867
 40
0.4542069821
 40
0.714358547
 40
1.0
 40
1.0
 40
1.0
 40
1.0
 10
11.908953126
 20
-2.0597430435
 30
0.0
 10
12.0224409835
 20
-1.9735485172
 30
0.0
 10
12.2308169146
 20
-1.7550905841
 30
0.0
 10
12.4507479998
 20
-1.3381904724
 30
0.0
 10
12.5829264983
 20
-0.8410783631
 30
0.0
 10
12.6096047371
 20
-0.4834885971
 30
0.0
 10
12.6096047658
 20
-0.2968514661
 30
0.0
 11
11.908953126
 21
-2.0597430435
 31
0.0
 11
12.2067575081
 21
-1.7529964683
 31
0.0
 11
12.4277496373
 21
-1.3463651365
 31
0.0
 11
12.5637163487
 21
-0.8548792621
 31
0.0
 11
12.6096047658
 21
-0.2968514661
 31
0.0
  0
SPLINE
  5
401
100
AcDbEntity
  8
0
100
AcDbSpline
 62
253
  6
CONTINUOUS
 70
0
 71
3
 72
10
 73
6
 74
4
 42
0.0000001
 43
0.0000001
 44
0.0000000001
 12
2.1819944263
 22
-0.0001205906
 32
0.0
 13
1.9515591344
 23
0.9759695874
 33
0.0
 40
0.0
 40
0.0
 40
0.0
 40
0.0
 40
0.5287334213
 40
0.7747845324
 40
1.0
 40
1.0
 40
1.0
 40
1.0
 10
10.4882700771
 20
-0.7361406014
 30
0.0
 10
10.8728345365
 20
-0.7361618548
 30
0.0
 10
11.4391997512
 20
-0.6833901899
 30
0.0
 10
12.1437649873
 20
-0.4984774486
 30
0.0
 10
12.4630976648
 20
-0.3700683018
 30
0.0
 10
12.6096047658
 20
-0.2968004861
 30
0.0
 11
10.4882700771
 21
-0.7361406014
 31
0.0
 11
11.6363025147
 21
-0.6219918503
 31
0.0
 11
12.1549816408
 21
-0.4833757937
 31
0.0
 11
12.6096047658
 21
-0.2968004861
 31
0.0
  0
SPLINE
  5
402
100
AcDbEntity
  8
0
100
AcDbSpline
 62
253
  6
CONTINUOUS
 70
0
 71
3
 72
15
 73
11
 74
9
 42
0.0000001
 43
0.0000001
 44
0.0000000001
 12
-0.0000008005
 22
-2.5990898214
 32
0.0
 13
-2.4648633854
 23
0.824449144
 33
0.0
 40
0.0
 40
0.0
 40
0.0
 40
0.0
 40
0.1506814136
 40
0.2888953046
 40
0.4150892489
 40
0.531666033
 40
0.6429663222
 40
0.7546561697
 40
0.8722757342
 40
1.0
 40
1.0
 40
1.0
 40
1.0
 10
10.4882844203
 20
-0.7360871763
 30
0.0
 10
10.4882843801
 20
-0.8666320191
 30
0.0
 10
10.4707777081
 20
-1.1175030659
 30
0.0
 10
10.3847811915
 20
-1.4687582409
 30
0.0
 10
10.2415170761
 20
-1.7692101245
 30
0.0
 10
10.043595194
 20
-2.0083241938
 30
0.0
 10
9.7963126965
 20
-2.1755146973
 30
0.0
 10
9.5098221659
 20
-2.262384939
 30
0.0
 10
9.1970953584
 20
-2.2667342093
 30
0.0
 10
8.9880743341
 20
-2.2183493733
 30
0.0
 10
8.8831333788
 20
-2.1832486528
 30
0.0
 11
10.4882844203
 21
-0.7360871763
 31
0.0
 11
10.4585023755
 21
-1.1265876674
 31
0.0
 11
10.3700910221
 21
-1.4747684445
 31
0.0
 11
10.2258996125
 21
-1.7693628799
 31
0.0
 11
10.0305525548
 21
-2.0009759368
 31
0.0
 11
9.7903254677
 21
-2.1621390409
 31
0.0
 11
9.5129170056
 21
-2.2476607276
 31
0.0
 11
9.2072966584
 21
-2.2548038792
 31
0.0
 11
8.8831333788
 21
-2.1832486528
 31
0.0
  0
SPLINE
  5
403
100
AcDbEntity
  8
0
100
AcDbSpline
 62
253
  6
CONTINUOUS
 70
0
 71
3
 72
11
 73
7
 74
5
 42
0.0000001
 43
0.0000001
 44
0.0000000001
 12
-1.9072846591
 22
-0.9016405446
 32
0.0
 13
-1.8173699088
 23
1.0713809113
 33
0.0
 40
0.0
 40
0.0
 40
0.0
 40
0.0
 40
0.22340448
 40
0.4595792378
 40
0.717074066
 40
1.0
 40
1.0
 40
1.0
 40
1.0
 10
-8.3722866842
 20
-6.9006894962
 30
0.0
 10
-8.5143186634
 20
-6.9678330085
 30
0.0
 10
-8.8299117827
 20
-7.0606468258
 30
0.0
 10
-9.3399693126
 20
-7.0584266852
 30
0.0
 10
-9.8734591319
 20
-6.9223008151
 30
0.0
 10
-10.2174683345
 20
-6.7550478309
 30
0.0
 10
-10.3888620274
 20
-6.6540073492
 30
0.0
 11
-8.3722866842
 21
-6.9006894962
 31
0.0
 11
-8.8238143542
 21
-7.0357997196
 31
0.0
 11
-9.3220536803
 21
-7.0390374468
 31
0.0
 11
-9.8498052728
 21
-6.9102935322
 31
0.0
 11
-10.3888620274
 21
-6.6540073492
 31
0.0
  0
LINE
  5
404
100
AcDbEntity
  8
0
100
AcDbLine
 62
253
  6
CONTINUOUS
 10
14.8863759838
 20
11.9629069935
 11
14.8871213331
 21
11.975197244
  0
LINE
  5
405
100
AcDbEntity
  8
0
100
AcDbLine
 62
253
  6
CONTINUOUS
 10
15.041870621
 20
15.1348557123
 11
15.0441382102
 21
15.1960661969
  0
SPLINE
  5
406
100
AcDbEntity
  8
0
100
AcDbSpline
 62
253
  6
CONTINUOUS
 70
0
 71
3
 72
11
 73
7
 74
5
 42
0.0000001
 43
0.0000001
 44
0.0000000001
 12
-0.0399934716
 22
-0.458000548
 32
0.0
 13
-0.4112069841
 23
-0.2056034921
 33
0.0
 40
0.0
 40
0.0
 40
0.0
 40
0.0
 40
0.2069076826
 40
0.436486287
 40
0.6997996622
 40
1.0
 40
1.0
 40
1.0
 40
1.0
 10
6.8467768345
 20
-15.9860554501
 30
0.0
 10
6.8440185157
 20
-16.0176433941
 30
0.0
 10
6.8250362029
 20
-16.0835118689
 30
0.0
 10
6.7630210499
 20
-16.1726752758
 30
0.0
 10
6.6707767289
 20
-16.2531848059
 30
0.0
 10
6.5959835526
 20
-16.2972250678
 30
0.0
 10
6.5548353941
 20
-16.317799147
 30
0.0
 11
6.8467768345
 21
-15.9860554501
 31
0.0
 11
6.8215958103
 21
-16.0777864415
 31
0.0
 11
6.7630494686
 21
-16.1656075479
 31
0.0
 11
6.6730471446
 21
-16.2465660421
 31
0.0
 11
6.5548353941
 21
-16.317799147
 31
0.0
  0
SPLINE
  5
407
100
AcDbEntity
  8
0
100
AcDbSpline
 62
253
  6
CONTINUOUS
 70
0
 71
3
 72
8
 73
4
 74
2
 42
0.0000001
 43
0.0000001
 44
0.0000000001
 12
0.0082775736
 22
-0.069503686
 32
0.0
 13
-0.0106571057
 23
-0.0691788023
 33
0.0
 40
0.0
 40
0.0
 40
0.0
 40
0.0
 40
1.0
 40
1.0
 40
1.0
 40
1.0
 10
15.2448899704
 20
17.6622844129
 30
0.0
 10
15.2476491616
 20
17.6391165176
 30
0.0
 10
15.2471297105
 20
17.6153614616
 30
0.0
 10
15.2435773419
 20
17.5923018608
 30
0.0
 11
15.2448899704
 21
17.6622844129
 31
0.0
 11
15.2435773419
 21
17.5923018608
 31
0.0
  0
SPLINE
  5
408
100
AcDbEntity
  8
0
100
AcDbSpline
 62
253
  6
CONTINUOUS
 70
0
 71
3
 72
9
 73
5
 74
3
 42
0.0000001
 43
0.0000001
 44
0.0000000001
 12
-0.0553058385
 22
-0.3590085141
 32
0.0
 13
-0.3014951886
 23
-0.2025993588
 33
0.0
 40
0.0
 40
0.0
 40
0.0
 40
0.0
 40
0.4704642222
 40
1.0
 40
1.0
 40
1.0
 40
1.0
 10
15.2435773419
 20
17.5923018608
 30
0.0
 10
15.2349042025
 20
17.5360016404
 30
0.0
 10
15.177470192
 20
17.4225070198
 30
0.0
 10
15.0838561156
 20
17.3429791961
 30
0.0
 10
15.0306386192
 20
17.3072179931
 30
0.0
 11
15.2435773419
 21
17.5923018608
 31
0.0
 11
15.1728549361
 21
17.4367294184
 31
0.0
 11
15.0306386192
 21
17.3072179931
 31
0.0
  0
SPLINE
  5
409
100
AcDbEntity
  8
0
100
AcDbSpline
 62
253
  6
CONTINUOUS
 70
0
 71
3
 72
11
 73
7
 74
5
 42
0.0000001
 43
0.0000001
 44
0.0000000001
 12
0.3068407863
 22
0.1540576749
 32
0.0
 13
0.0275742256
 23
0.3422348571
 33
0.0
 40
0.0
 40
0.0
 40
0.0
 40
0.0
 40
0.3043279947
 40
0.5692659121
 40
0.7974942989
 40
1.0
 40
1.0
 40
1.0
 40
1.0
 10
14.7022395554
 20
9.338824624
 30
0.0
 10
14.7333663025
 20
9.3544526451
 30
0.0
 10
14.7898918954
 20
9.3874418014
 30
0.0
 10
14.8597310963
 20
9.4472007328
 30
0.0
 10
14.9066086098
 20
9.5128056309
 30
0.0
 10
14.9208889878
 20
9.5613696311
 30
0.0
 10
14.9227503004
 20
9.5844711343
 30
0.0
 11
14.7022395554
 21
9.338824624
 31
0.0
 11
14.7918960219
 21
9.3924874869
 31
0.0
 11
14.8600724113
 21
9.4527085639
 31
0.0
 11
14.9042024127
 21
9.5174616478
 31
0.0
 11
14.9227503004
 21
9.5844711343
 31
0.0
  0
LINE
  5
40A
100
AcDbEntity
  8
0
100
AcDbLine
 62
253
  6
CONTINUOUS
 10
14.5311865318
 20
7.366153952
 11
14.5479910666
 21
7.5484194974
  0
LINE
  5
40B
100
AcDbEntity
  8
0
100
AcDbLine
 62
253
  6
CONTINUOUS
 10
14.5479910666
 20
7.5484194974
 11
14.5514303556
 21
7.5857805944
  0
SPLINE
  5
40C
100
AcDbEntity
  8
0
100
AcDbSpline
 62
253
  6
CONTINUOUS
 70
0
 71
3
 72
9
 73
5
 74
3
 42
0.0000001
 43
0.0000001
 44
0.0000000001
 12
-0.1114441684
 22
0.0414842522
 32
0.0
 13
-0.1182326573
 23
0.0127194582
 33
0.0
 40
0.0
 40
0.0
 40
0.0
 40
0.0
 40
0.2465414921
 40
1.0
 40
1.0
 40
1.0
 40
1.0
 10
6.287107668
 20
-15.0554840138
 30
0.0
 10
6.2779491308
 20
-15.0520748173
 30
0.0
 10
6.2403618696
 20
-15.0394437487
 30
0.0
 10
6.2011671711
 20
-15.0317050977
 30
0.0
 10
6.171472704
 20
-15.0285105697
 30
0.0
 11
6.287107668
 21
-15.0554840138
 31
0.0
 11
6.2593177875
 21
-15.0461440267
 31
0.0
 11
6.171472704
 21
-15.0285105697
 31
0.0
  0
SPLINE
  5
40D
100
AcDbEntity
  8
0
100
AcDbSpline
 62
253
  6
CONTINUOUS
 70
0
 71
3
 72
9
 73
5
 74
3
 42
0.0000001
 43
0.0000001
 44
0.0000000001
 12
-0.3284849804
 22
0.0353383836
 32
0.0
 13
-0.3046537253
 23
-0.1278174143
 33
0.0
 40
0.0
 40
0.0
 40
0.0
 40
0.0
 40
0.2347110074
 40
1.0
 40
1.0
 40
1.0
 40
1.0
 10
6.171472704
 20
-15.0285105697
 30
0.0
 10
6.1457730237
 20
-15.0257458005
 30
0.0
 10
6.0353724499
 20
-15.0222131794
 30
0.0
 10
5.9254446605
 20
-15.0505910747
 30
0.0
 10
5.8477286129
 20
-15.0831968281
 30
0.0
 11
6.171472704
 21
-15.0285105697
 31
0.0
 11
6.0939746093
 21
-15.025845437
 31
0.0
 11
5.8477286129
 21
-15.0831968281
 31
0.0
  0
SPLINE
  5
40E
100
AcDbEntity
  8
0
100
AcDbSpline
 62
253
  6
CONTINUOUS
 70
0
 71
3
 72
11
 73
7
 74
5
 42
0.0000001
 43
0.0000001
 44
0.0000000001
 12
-0.0399934716
 22
-0.458000548
 32
0.0
 13
-0.4112069841
 23
-0.2056034921
 33
0.0
 40
0.0
 40
0.0
 40
0.0
 40
0.0
 40
0.2069076826
 40
0.436486287
 40
0.6997996622
 40
1.0
 40
1.0
 40
1.0
 40
1.0
 10
6.8467768345
 20
14.9157641005
 30
0.0
 10
6.8440185157
 20
14.8841761564
 30
0.0
 10
6.8250362029
 20
14.8183076817
 30
0.0
 10
6.7630210499
 20
14.7291442748
 30
0.0
 10
6.6707767289
 20
14.6486347447
 30
0.0
 10
6.5959835526
 20
14.6045944828
 30
0.0
 10
6.5548353941
 20
14.5840204035
 30
0.0
 11
6.8467768345
 21
14.9157641005
 31
0.0
 11
6.8215958103
 21
14.824033109
 31
0.0
 11
6.7630494686
 21
14.7362120027
 31
0.0
 11
6.6730471446
 21
14.6552535085
 31
0.0
 11
6.5548353941
 21
14.5840204035
 31
0.0
  0
SPLINE
  5
40F
100
AcDbEntity
  8
0
100
AcDbSpline
 62
253
  6
CONTINUOUS
 70
0
 71
3
 72
9
 73
5
 74
3
 42
0.0000001
 43
0.0000001
 44
0.0000000001
 12
-0.0479980493
 22
0.2281641306
 32
0.0
 13
-0.0281500977
 23
0.2314524902
 33
0.0
 40
0.0
 40
0.0
 40
0.0
 40
0.0
 40
0.2450364472
 40
1.0
 40
1.0
 40
1.0
 40
1.0
 10
15.0656917897
 20
17.0767663142
 30
0.0
 10
15.0617713659
 20
17.0954024902
 30
0.0
 10
15.0471922745
 20
17.1717652016
 30
0.0
 10
15.0377221107
 20
17.2489715199
 30
0.0
 10
15.0306380115
 20
17.3072175847
 30
0.0
 11
15.0656917897
 21
17.0767663142
 31
0.0
 11
15.054933303
 21
17.1328764377
 31
0.0
 11
15.0306380115
 21
17.3072175847
 31
0.0
  0
SPLINE
  5
410
100
AcDbEntity
  8
0
100
AcDbSpline
 62
7
  6
CONTINUOUS
 70
0
 71
3
 72
10
 73
6
 74
4
 42
0.0000001
 43
0.0000001
 44
0.0000000001
 12
1.0802737209
 22
1.8631965606
 32
0.0
 13
1.9263421782
 23
0.9631710896
 33
0.0
 40
0.0
 40
0.0
 40
0.0
 40
0.0
 40
0.5287489115
 40
0.7738447302
 40
1.0
 40
1.0
 40
1.0
 40
1.0
 10
7.8569130961
 20
2.8496745933
 30
0.0
 10
8.0473109475
 20
3.1780623111
 30
0.0
 10
8.3837686935
 20
3.6304440011
 30
0.0
 10
8.9238000425
 20
4.1062606459
 30
0.0
 10
9.2116958241
 20
4.2880248869
 30
0.0
 10
9.3569133024
 20
4.3606336261
 30
0.0
 11
7.8569130961
 21
2.8496745933
 31
0.0
 11
8.5451201445
 21
3.7569670344
 31
0.0
 11
8.9430646948
 21
4.103786132
 31
0.0
 11
9.3569133024
 21
4.3606336261
 31
0.0
  0
SPLINE
  5
411
100
AcDbEntity
  8
0
100
AcDbSpline
 62
253
  6
CONTINUOUS
 70
0
 71
3
 72
11
 73
7
 74
5
 42
0.0000001
 43
0.0000001
 44
0.0000000001
 12
-0.4894971439
 22
0.244748572
 32
0.0
 13
-0.4895432137
 23
-0.2446564108
 33
0.0
 40
0.0
 40
0.0
 40
0.0
 40
0.0
 40
0.279076068
 40
0.5353716794
 40
0.7728995978
 40
1.0
 40
1.0
 40
1.0
 40
1.0
 10
-8.8941799065
 20
-1.5512423991
 30
0.0
 10
-8.9397155526
 20
-1.528474576
 30
0.0
 10
-9.0308457723
 20
-1.4916741111
 30
0.0
 10
-9.1704707088
 20
-1.4653760171
 30
0.0
 10
-9.3031864715
 20
-1.4720196109
 30
0.0
 10
-9.3848263285
 20
-1.4992221649
 30
0.0
 10
-9.4218848154
 20
-1.517742688
 30
0.0
 11
-8.8941799065
 21
-1.5512423991
 31
0.0
 11
-9.0362410596
 21
-1.4951581033
 31
0.0
 11
-9.174318744
 21
-1.4704892256
 31
0.0
 11
-9.304088364
 21
-1.4781059993
 31
0.0
 11
-9.4218848154
 21
-1.517742688
 31
0.0
  0
SPLINE
  5
412
100
AcDbEntity
  8
0
100
AcDbSpline
 62
253
  6
CONTINUOUS
 70
0
 71
3
 72
9
 73
5
 74
3
 42
0.0000001
 43
0.0000001
 44
0.0000000001
 12
0.0
 22
-0.5230945135
 32
0.0
 13
-0.3269846138
 23
-0.408300052
 33
0.0
 40
0.0
 40
0.0
 40
0.0
 40
0.0
 40
0.5381577358
 40
1.0
 40
1.0
 40
1.0
 40
1.0
 10
-8.218783102
 20
-3.0437651679
 30
0.0
 10
-8.218783102
 20
-3.1376009542
 30
0.0
 10
-8.2382063172
 20
-3.3131749466
 30
0.0
 10
-8.3146350873
 20
-3.4756317164
 30
0.0
 10
-8.3649735254
 20
-3.5384884566
 30
0.0
 11
-8.218783102
 21
-3.0437651679
 31
0.0
 11
-8.2561982015
 21
-3.3227750306
 31
0.0
 11
-8.3649735254
 21
-3.5384884566
 31
0.0
  0
SPLINE
  5
413
100
AcDbEntity
  8
0
100
AcDbSpline
 62
253
  6
CONTINUOUS
 70
0
 71
3
 72
9
 73
5
 74
3
 42
0.0000001
 43
0.0000001
 44
0.0000000001
 12
-0.07859501
 22
-0.0981402345
 32
0.0
 13
-0.1018067501
 23
-0.07378392
 33
0.0
 40
0.0
 40
0.0
 40
0.0
 40
0.0
 40
0.2552987643
 40
1.0
 40
1.0
 40
1.0
 40
1.0
 10
-8.3649735254
 20
-3.5384884566
 30
0.0
 10
-8.3716619284
 20
-3.5468401501
 30
0.0
 10
-8.3988713749
 20
-3.5787244099
 30
0.0
 10
-8.4302600613
 20
-3.6070930121
 30
0.0
 10
-8.4555319321
 20
-3.6254086709
 30
0.0
 11
-8.3649735254
 21
-3.5384884566
 31
0.0
 11
-8.3858273967
 21
-3.5628910328
 31
0.0
 11
-8.4555319321
 21
-3.6254086709
 31
0.0
  0
SPLINE
  5
414
100
AcDbEntity
  8
0
100
AcDbSpline
 62
253
  6
CONTINUOUS
 70
0
 71
3
 72
9
 73
5
 74
3
 42
0.0000001
 43
0.0000001
 44
0.0000000001
 12
-0.2433970753
 22
-0.176400782
 32
0.0
 13
-0.3004190492
 23
0.0103810921
 33
0.0
 40
0.0
 40
0.0
 40
0.0
 40
0.0
 40
0.4908389038
 40
1.0
 40
1.0
 40
1.0
 40
1.0
 10
-8.4555319321
 20
-3.6254086709
 30
0.0
 10
-8.49535485
 20
-3.6542701264
 30
0.0
 10
-8.5874253216
 20
-3.6993774694
 30
0.0
 10
-8.689001269
 20
-3.7103465814
 30
0.0
 10
-8.7399884998
 20
-3.7085846987
 30
0.0
 11
-8.4555319321
 21
-3.6254086709
 31
0.0
 11
-8.5880284748
 21
-3.6903263248
 31
0.0
 11
-8.7399884998
 21
-3.7085846987
 31
0.0
  0
SPLINE
  5
415
100
AcDbEntity
  8
0
100
AcDbSpline
 62
253
  6
CONTINUOUS
 70
0
 71
3
 72
11
 73
7
 74
5
 42
0.0000001
 43
0.0000001
 44
0.0000000001
 12
1.5011676572
 22
-0.7505838286
 32
0.0
 13
-0.0
 23
-1.6783564635
 33
0.0
 40
0.0
 40
0.0
 40
0.0
 40
0.0
 40
0.2296940512
 40
0.4882147541
 40
0.7531875194
 40
1.0
 40
1.0
 40
1.0
 40
1.0
 10
-9.0270941689
 20
-1.6496348008
 30
0.0
 10
-8.912157742
 20
-1.7071030142
 30
0.0
 10
-8.6925523577
 20
-1.8789149689
 30
0.0
 10
-8.438973152
 20
-2.2200027382
 30
0.0
 10
-8.2664346625
 20
-2.6188740272
 30
0.0
 10
-8.218783102
 20
-2.9056853938
 30
0.0
 10
-8.218783102
 20
-3.0437651679
 30
0.0
 11
-9.0270941689
 21
-1.6496348008
 31
0.0
 11
-8.7177453585
 21
-1.8796785218
 31
0.0
 11
-8.4555319321
 21
-2.2253728347
 31
0.0
 11
-8.2803218906
 21
-2.6341224046
 31
0.0
 11
-8.218783102
 21
-3.0437651679
 31
0.0
  0
SPLINE
  5
416
100
AcDbEntity
  8
0
100
AcDbSpline
 62
253
  6
CONTINUOUS
 70
0
 71
3
 72
11
 73
7
 74
5
 42
0.0000001
 43
0.0000001
 44
0.0000000001
 12
0.0
 22
1.7324980093
 32
0.0
 13
-1.5495933278
 23
0.7747966639
 33
0.0
 40
0.0
 40
0.0
 40
0.0
 40
0.0
 40
0.2468124806
 40
0.5117852459
 40
0.7703059488
 40
1.0
 40
1.0
 40
1.0
 40
1.0
 10
-8.0597938004
 20
-2.9903455563
 30
0.0
 10
-8.0597938004
 20
-2.8478115125
 30
0.0
 10
-8.1089825369
 20
-2.5517479929
 30
0.0
 10
-8.2870868884
 20
-2.140009647
 30
0.0
 10
-8.5488462218
 20
-1.7879188402
 30
0.0
 10
-8.7755357835
 20
-1.6105644606
 30
0.0
 10
-8.8941799065
 20
-1.5512423991
 30
0.0
 11
-8.0597938004
 21
-2.9903455563
 31
0.0
 11
-8.1233177485
 21
-2.5674882627
 31
0.0
 11
-8.3041798328
 21
-2.1455529757
 31
0.0
 11
-8.5748519153
 21
-1.7887070243
 31
0.0
 11
-8.8941799065
 21
-1.5512423991
 31
0.0
  0
SPLINE
  5
417
100
AcDbEntity
  8
0
100
AcDbSpline
 62
253
  6
CONTINUOUS
 70
0
 71
3
 72
10
 73
6
 74
4
 42
0.0000001
 43
0.0000001
 44
0.0000000001
 12
-0.4520732371
 22
0.2798120124
 32
0.0
 13
-0.4905584902
 23
-0.2049813203
 33
0.0
 40
0.0
 40
0.0
 40
0.0
 40
0.0
 40
0.2292452842
 40
0.4683185341
 40
1.0
 40
1.0
 40
1.0
 40
1.0
 10
6.3742387645
 20
15.8027609974
 30
0.0
 10
6.3396935452
 20
15.8241428589
 30
0.0
 10
6.2623691018
 20
15.8577803898
 30
0.0
 10
6.0850859836
 20
15.8819441036
 30
0.0
 10
5.9470096136
 20
15.8486487215
 30
0.0
 10
5.8600693279
 20
15.8123204652
 30
0.0
 11
6.3742387645
 21
15.8027609974
 31
0.0
 11
6.2626258603
 21
15.8517259356
 31
0.0
 11
6.1368224575
 21
15.8698783023
 31
0.0
 11
5.8600693279
 21
15.8123204652
 31
0.0
  0
SPLINE
  5
418
100
AcDbEntity
  8
0
100
AcDbSpline
 62
7
  6
CONTINUOUS
 70
0
 71
3
 72
9
 73
5
 74
3
 42
0.0000001
 43
0.0000001
 44
0.0000000001
 12
0.0073584463
 22
0.3478400745
 32
0.0
 13
-0.1117836095
 23
0.3294712261
 33
0.0
 40
0.0
 40
0.0
 40
0.0
 40
0.0
 40
0.2376439367
 40
1.0
 40
1.0
 40
1.0
 40
1.0
 10
6.7033689774
 20
16.2812527629
 30
0.0
 10
6.7039518741
 20
16.3088067911
 30
0.0
 10
6.7004150117
 20
16.4248542267
 30
0.0
 10
6.6751896732
 20
16.5398033377
 30
0.0
 10
6.6467833691
 20
16.6235281333
 30
0.0
 11
6.7033689774
 21
16.2812527629
 31
0.0
 11
6.7010459974
 21
16.3639007025
 31
0.0
 11
6.6467833691
 21
16.6235281333
 31
0.0
  0
SPLINE
  5
419
100
AcDbEntity
  8
0
100
AcDbSpline
 62
253
  6
CONTINUOUS
 70
0
 71
3
 72
9
 73
5
 74
3
 42
0.0000001
 43
0.0000001
 44
0.0000000001
 12
0.2808742153
 22
0.1224166988
 32
0.0
 13
0.2811504874
 23
-0.1217808541
 33
0.0
 40
0.0
 40
0.0
 40
0.0
 40
0.0
 40
0.4735253047
 40
1.0
 40
1.0
 40
1.0
 40
1.0
 10
7.2996781316
 20
22.9507875591
 30
0.0
 10
7.3440118144
 20
22.9701100273
 30
0.0
 10
7.4488524267
 20
22.9875309432
 30
0.0
 10
7.5499273757
 20
22.9600966813
 30
0.0
 10
7.5992669148
 20
22.9387251687
 30
0.0
 11
7.2996781316
 21
22.9507875591
 31
0.0
 11
7.4424568198
 21
22.9765508096
 31
0.0
 11
7.5992669148
 21
22.9387251687
 31
0.0
  0
SPLINE
  5
41A
100
AcDbEntity
  8
0
100
AcDbSpline
 62
7
  6
CONTINUOUS
 70
0
 71
3
 72
11
 73
7
 74
5
 42
0.0000001
 43
0.0000001
 44
0.0000000001
 12
-1.0268659736
 22
0.430788948
 32
0.0
 13
-1.0208735334
 23
-0.4448034109
 33
0.0
 40
0.0
 40
0.0
 40
0.0
 40
0.0
 40
0.2296449673
 40
0.4692426087
 40
0.7248426501
 40
1.0
 40
1.0
 40
1.0
 40
1.0
 10
8.6826170859
 20
22.9986669333
 30
0.0
 10
8.6040122183
 20
23.0316431046
 30
0.0
 10
8.43449711
 20
23.0794138179
 30
0.0
 10
8.1636583091
 20
23.0913340364
 30
0.0
 10
7.8797357939
 20
23.0451427148
 30
0.0
 10
7.6929004276
 20
22.9795196279
 30
0.0
 10
7.599266809
 20
22.938722652
 30
0.0
 11
8.6826170859
 21
22.9986669333
 31
0.0
 11
8.4366990221
 21
23.0688073903
 31
0.0
 11
8.1702278517
 21
23.0822132778
 31
0.0
 11
7.8889802734
 21
23.0384770434
 31
0.0
 11
7.599266809
 21
22.938722652
 31
0.0
  0
SPLINE
  5
41B
100
AcDbEntity
  8
0
100
AcDbSpline
 62
7
  6
CONTINUOUS
 70
0
 71
3
 72
9
 73
5
 74
3
 42
0.0000001
 43
0.0000001
 44
0.0000000001
 12
-0.0
 22
0.7514139425
 32
0.0
 13
0.3768986832
 23
0.6500540712
 33
0.0
 40
0.0
 40
0.0
 40
0.0
 40
0.0
 40
0.4822183793
 40
1.0
 40
1.0
 40
1.0
 40
1.0
 10
7.417573268
 20
1.7332060101
 30
0.0
 10
7.417573268
 20
1.8539878813
 30
0.0
 10
7.4592006832
 20
2.1047893692
 30
0.0
 10
7.5596296455
 20
2.3369364863
 30
0.0
 10
7.6246800491
 20
2.4491318365
 30
0.0
 11
7.417573268
 21
1.7332060101
 31
0.0
 11
7.4713936696
 21
2.0915322693
 31
0.0
 11
7.6246800491
 21
2.4491318365
 31
0.0
  0
SPLINE
  5
41C
100
AcDbEntity
  8
0
100
AcDbSpline
 62
7
  6
CONTINUOUS
 70
0
 71
3
 72
11
 73
7
 74
5
 42
0.0000001
 43
0.0000001
 44
0.0000000001
 12
-0.4603867783
 22
0.3336629564
 32
0.0
 13
-0.0
 23
0.5685832869
 33
0.0
 40
0.0
 40
0.0
 40
0.0
 40
0.0
 40
0.2178329762
 40
0.4536473424
 40
0.7138971427
 40
1.0
 40
1.0
 40
1.0
 40
1.0
 10
7.6246800493
 20
-1.5223263094
 30
0.0
 10
7.5912509086
 20
-1.4980987111
 30
0.0
 10
7.5296934576
 20
-1.4358607151
 30
0.0
 10
7.4645244435
 20
-1.3156836456
 30
0.0
 10
7.4254889775
 20
-1.1715664829
 30
0.0
 10
7.4175732681
 20
-1.0677316986
 30
0.0
 10
7.4175732681
 20
-1.0135072643
 30
0.0
 11
7.6246800493
 21
-1.5223263094
 31
0.0
 11
7.5367785037
 21
-1.4350699401
 31
0.0
 11
7.4713936697
 21
-1.3180131219
 31
0.0
 11
7.4311699679
 21
-1.1756113459
 31
0.0
 11
7.4175732681
 21
-1.0135072643
 31
0.0
  0
SPLINE
  5
41D
100
AcDbEntity
  8
0
100
AcDbSpline
 62
253
  6
CONTINUOUS
 70
0
 71
3
 72
17
 73
13
 74
11
 42
0.0000001
 43
0.0000001
 44
0.0000000001
 12
8.6748453509
 22
4.338159673
 32
0.0
 13
-8.3552826395
 23
4.9256292212
 33
0.0
 40
0.0
 40
0.0
 40
0.0
 40
0.0
 40
0.0448478551
 40
0.0912816869
 40
0.1406056074
 40
0.1936827929
 40
0.3120050353
 40
0.4453782304
 40
0.5883962238
 40
0.7335815009
 40
0.8730291544
 40
1.0
 40
1.0
 40
1.0
 40
1.0
 10
-8.0561060763
 20
-7.4647745051
 30
0.0
 10
-7.9264233404
 20
-7.3999221196
 30
0.0
 10
-7.6778444054
 20
-7.2345724413
 30
0.0
 10
-7.3668878855
 20
-6.8979264636
 30
0.0
 10
-7.1210225781
 20
-6.4805052305
 30
0.0
 10
-6.8773683223
 20
-5.8062342963
 30
0.0
 10
-6.7740714644
 20
-4.8120524929
 30
0.0
 10
-6.9421964356
 20
-3.5384842928
 30
0.0
 10
-7.3800862785
 20
-2.2393963357
 30
0.0
 10
-8.0519769782
 20
-1.0223239967
 30
0.0
 10
-8.9011005015
 20
0.0118582809
 30
0.0
 10
-9.5818886954
 20
0.5555298238
 30
0.0
 10
-9.9355144626
 20
0.7640002596
 30
0.0
 11
-8.0561060763
 21
-7.4647745051
 31
0.0
 11
-7.6934373352
 21
-7.2246029429
 31
0.0
 11
-7.3858799497
 21
-6.8956069036
 31
0.0
 11
-7.140243143
 21
-6.4850865839
 31
0.0
 11
-6.961964838
 21
-6.0021404902
 31
0.0
 11
-6.8217175112
 21
-4.8631228958
 31
0.0
 11
-6.9775248941
 21
-3.5789401021
 31
0.0
 11
-7.4156218806
 21
-2.2627922462
 31
0.0
 11
-8.097415443
 21
-1.0306838372
 31
0.0
 11
-8.9627773748
 21
0.0087635349
 31
0.0
 11
-9.9355144626
 21
0.7640002596
 31
0.0
  0
SPLINE
  5
41E
100
AcDbEntity
  8
0
100
AcDbSpline
 62
7
  6
CONTINUOUS
 70
0
 71
3
 72
11
 73
7
 74
5
 42
0.0000001
 43
0.0000001
 44
0.0000000001
 12
1.1474686521
 22
0.4999599142
 32
0.0
 13
1.0799296957
 23
-0.6327685798
 33
0.0
 40
0.0
 40
0.0
 40
0.0
 40
0.0
 40
0.2769272632
 40
0.5317544394
 40
0.7698331198
 40
1.0
 40
1.0
 40
1.0
 40
1.0
 10
13.0995011331
 20
20.188605438
 30
0.0
 10
13.2054229176
 20
20.2347562816
 30
0.0
 10
13.4168400745
 20
20.3068260728
 30
0.0
 10
13.7382097986
 20
20.3466341547
 30
0.0
 10
14.0409713729
 20
20.310505411
 30
0.0
 10
14.224304628
 20
20.2349350822
 30
0.0
 10
14.3071593109
 20
20.1863876256
 30
0.0
 11
13.0995011331
 21
20.188605438
 31
0.0
 11
13.4284922739
 21
20.2977326684
 31
0.0
 11
13.7453677132
 21
20.3341051741
 31
0.0
 11
14.0409936484
 21
20.2966220413
 31
0.0
 11
14.3071593109
 21
20.1863876256
 31
0.0
  0
SPLINE
  5
41F
100
AcDbEntity
  8
0
100
AcDbSpline
 62
253
  6
CONTINUOUS
 70
0
 71
3
 72
11
 73
7
 74
5
 42
0.0000001
 43
0.0000001
 44
0.0000000001
 12
-0.0000616376
 22
3.3664257612
 32
0.0
 13
-3.0110227378
 23
1.5055113689
 33
0.0
 40
0.0
 40
0.0
 40
0.0
 40
0.0
 40
0.2467943128
 40
0.5117863827
 40
0.7703249069
 40
1.0
 40
1.0
 40
1.0
 40
1.0
 10
10.0238183278
 20
-0.7360969286
 30
0.0
 10
10.0238132572
 20
-0.4591586845
 30
0.0
 10
9.9282367048
 20
0.116123891
 30
0.0
 10
9.5821484387
 20
0.91619392
 30
0.0
 10
9.0735036633
 20
1.6003571992
 30
0.0
 10
8.6330166511
 20
1.9449635355
 30
0.0
 10
8.4024976753
 20
2.0602230234
 30
0.0
 11
10.0238183278
 21
-0.7360969286
 31
0.0
 11
9.9003922068
 21
0.0854985389
 31
0.0
 11
9.548931649
 21
0.9054224983
 31
0.0
 11
9.0229418302
 21
1.5988524775
 31
0.0
 11
8.4024976753
 21
2.0602230234
 31
0.0
  0
SPLINE
  5
420
100
AcDbEntity
  8
0
100
AcDbSpline
 62
253
  6
CONTINUOUS
 70
0
 71
3
 72
9
 73
5
 74
3
 42
0.0000001
 43
0.0000001
 44
0.0000000001
 12
-0.3768989785
 22
-0.6500545802
 32
0.0
 13
-0.0
 23
-0.7514145309
 33
0.0
 40
0.0
 40
0.0
 40
0.0
 40
0.0
 40
0.5177824482
 40
1.0
 40
1.0
 40
1.0
 40
1.0
 10
8.4024976753
 20
2.0602230234
 30
0.0
 10
8.3374471167
 20
1.9480274061
 30
0.0
 10
8.2370138225
 20
1.7158815774
 30
0.0
 10
8.1953908941
 20
1.4650789556
 30
0.0
 10
8.1953908941
 20
1.3442971971
 30
0.0
 11
8.4024976753
 21
2.0602230234
 31
0.0
 11
8.2492089033
 21
1.7026234738
 31
0.0
 11
8.1953908941
 21
1.3442971971
 31
0.0
  0
SPLINE
  5
421
100
AcDbEntity
  8
0
100
AcDbSpline
 62
7
  6
CONTINUOUS
 70
0
 71
3
 72
11
 73
7
 74
5
 42
0.0000001
 43
0.0000001
 44
0.0000000001
 12
1.09531025
 22
0.4772601397
 32
0.0
 13
1.1017070276
 23
-0.4623022929
 33
0.0
 40
0.0
 40
0.0
 40
0.0
 40
0.0
 40
0.2751660875
 40
0.5307984012
 40
0.7703548627
 40
1.0
 40
1.0
 40
1.0
 40
1.0
 10
10.3569361663
 20
21.743717662
 30
0.0
 10
10.457400245
 20
21.7874929304
 30
0.0
 10
10.6578738136
 20
21.8579205383
 30
0.0
 10
10.9625071759
 20
21.9074308574
 30
0.0
 10
11.2530921973
 20
21.8946829481
 30
0.0
 10
11.4349534632
 20
21.8434200198
 30
0.0
 10
11.5192873504
 20
21.8080315286
 30
0.0
 11
10.3569361663
 21
21.743717662
 31
0.0
 11
10.6677851324
 21
21.850753485
 31
0.0
 11
10.969583943
 21
21.8976617569
 31
0.0
 11
11.255438752
 21
21.8832968303
 31
0.0
 11
11.5192873504
 21
21.8080315286
 31
0.0
  0
SPLINE
  5
422
100
AcDbEntity
  8
0
100
AcDbSpline
 62
253
  6
CONTINUOUS
 70
0
 71
3
 72
10
 73
6
 74
4
 42
0.0000001
 43
0.0000001
 44
0.0000000001
 12
0.0080886341
 22
-0.2039622501
 32
0.0
 13
-0.194985165
 23
-0.0603888309
 33
0.0
 40
0.0
 40
0.0
 40
0.0
 40
0.0
 40
0.3783427037
 40
0.6655711639
 40
1.0
 40
1.0
 40
1.0
 40
1.0
 10
17.8701042024
 20
2.9834358688
 30
0.0
 10
17.8711242943
 20
2.9577133257
 30
0.0
 10
17.831030318
 20
2.9191905261
 30
0.0
 10
17.7723977703
 20
2.8901472919
 30
0.0
 10
17.7319890223
 20
2.875385467
 30
0.0
 10
17.7102528017
 20
2.8686535448
 30
0.0
 11
17.8701042024
 21
2.9834358688
 31
0.0
 11
17.8258873022
 21
2.9201186198
 31
0.0
 11
17.7743200049
 21
2.8922211503
 31
0.0
 11
17.7102528017
 21
2.8686535448
 31
0.0
  0
SPLINE
  5
423
100
AcDbEntity
  8
0
100
AcDbSpline
 62
7
  6
CONTINUOUS
 70
0
 71
3
 72
9
 73
5
 74
3
 42
0.0000001
 43
0.0000001
 44
0.0000000001
 12
0.827639954
 22
-0.4449519199
 32
0.0
 13
0.6789236877
 23
-0.6496404626
 33
0.0
 40
0.0
 40
0.0
 40
0.0
 40
0.0
 40
0.2358101616
 40
1.0
 40
1.0
 40
1.0
 40
1.0
 10
13.0595261161
 20
5.3262061939
 30
0.0
 10
13.1245814199
 20
5.2912314659
 30
0.0
 10
13.3944794407
 20
5.1318346321
 30
0.0
 10
13.6399534674
 20
4.9328311173
 30
0.0
 10
13.8128956618
 20
4.7673482373
 30
0.0
 11
13.0595261161
 21
5.3262061939
 31
0.0
 11
13.2505126805
 21
5.2138542934
 31
0.0
 11
13.8128956618
 21
4.7673482373
 31
0.0
  0
SPLINE
  5
424
100
AcDbEntity
  8
0
100
AcDbSpline
 62
7
  6
CONTINUOUS
 70
0
 71
3
 72
9
 73
5
 74
3
 42
0.0000001
 43
0.0000001
 44
0.0000000001
 12
-0.3279122242
 22
-0.7202758108
 32
0.0
 13
-0.6575787543
 23
-0.4403565058
 33
0.0
 40
0.0
 40
0.0
 40
0.0
 40
0.0
 40
0.519713891
 40
1.0
 40
1.0
 40
1.0
 40
1.0
 10
15.2343919673
 20
-0.0409910138
 30
0.0
 10
15.1775851213
 20
-0.1657701285
 30
0.0
 10
15.0413410953
 20
-0.3953196478
 30
0.0
 10
14.8452741364
 20
-0.5786450257
 30
0.0
 10
14.7399988226
 20
-0.6491440633
 30
0.0
 11
15.2343919673
 21
-0.0409910138
 31
0.0
 11
15.0198109701
 21
-0.3918850187
 31
0.0
 11
14.7399988226
 21
-0.6491440633
 31
0.0
  0
SPLINE
  5
425
100
AcDbEntity
  8
0
100
AcDbSpline
 62
253
  6
CONTINUOUS
 70
0
 71
3
 72
11
 73
7
 74
5
 42
0.0000001
 43
0.0000001
 44
0.0000000001
 12
-0.769604132
 22
3.7945869942
 32
0.0
 13
-3.4630831197
 23
1.7315415914
 33
0.0
 40
0.0
 40
0.0
 40
0.0
 40
0.0
 40
0.2650079064
 40
0.5276108409
 40
0.7755587037
 40
1.0
 40
1.0
 40
1.0
 40
1.0
 10
17.6225180165
 20
3.5377678854
 30
0.0
 10
17.5545342899
 20
3.8729664037
 30
0.0
 10
17.3509809364
 20
4.5282096685
 30
0.0
 10
16.8717486991
 20
5.4142992453
 30
0.0
 10
16.255368784
 20
6.1444466039
 30
0.0
 10
15.7540352626
 20
6.5076287711
 30
0.0
 10
15.4949489744
 20
6.6371719175
 30
0.0
 11
17.6225180165
 21
3.5377678854
 31
0.0
 11
17.3191565254
 21
4.5179670026
 31
0.0
 11
16.8328826894
 21
5.4109026735
 31
0.0
 11
16.2066791936
 21
6.1385695924
 31
0.0
 11
15.4949489744
 21
6.6371719175
 31
0.0
  0
SPLINE
  5
426
100
AcDbEntity
  8
0
100
AcDbSpline
 62
253
  6
CONTINUOUS
 70
0
 71
3
 72
9
 73
5
 74
3
 42
0.0000001
 43
0.0000001
 44
0.0000000001
 12
-0.0395704326
 22
0.6740018275
 32
0.0
 13
-0.1342017955
 23
0.6616903813
 33
0.0
 40
0.0
 40
0.0
 40
0.0
 40
0.0
 40
0.2466048529
 40
1.0
 40
1.0
 40
1.0
 40
1.0
 10
17.7102461832
 20
2.8686513862
 30
0.0
 10
17.7069934296
 20
2.9240554267
 30
0.0
 10
17.689817689
 20
3.1484766762
 30
0.0
 10
17.6562139979
 20
3.3715942458
 30
0.0
 10
17.6225116708
 20
3.5377656865
 30
0.0
 11
17.7102461832
 21
2.8686513862
 31
0.0
 11
17.697523139
 21
3.0346628833
 31
0.0
 11
17.6225116708
 21
3.5377656865
 31
0.0
  0
SPLINE
  5
427
100
AcDbEntity
  8
0
100
AcDbSpline
 62
253
  6
CONTINUOUS
 70
0
 71
3
 72
9
 73
5
 74
3
 42
0.0000001
 43
0.0000001
 44
0.0000000001
 12
0.0605175927
 22
0.6371158257
 32
0.0
 13
-0.0375080478
 23
0.6388834798
 33
0.0
 40
0.0
 40
0.0
 40
0.0
 40
0.0
 40
0.2444105015
 40
1.0
 40
1.0
 40
1.0
 40
1.0
 10
17.6999435212
 20
2.2291060644
 30
0.0
 10
17.7048738996
 20
2.2810119972
 30
0.0
 10
17.7205369442
 20
2.4937932533
 30
0.0
 10
17.7197099208
 20
2.7077458559
 30
0.0
 10
17.7102630251
 20
2.8686570719
 30
0.0
 11
17.6999435212
 21
2.2291060644
 31
0.0
 11
17.7115452659
 21
2.3850939164
 31
0.0
 11
17.7102630251
 21
2.8686570719
 31
0.0
  0
SPLINE
  5
428
100
AcDbEntity
  8
0
100
AcDbSpline
 62
253
  6
CONTINUOUS
 70
0
 71
3
 72
17
 73
13
 74
11
 42
0.0000001
 43
0.0000001
 44
0.0000000001
 12
-7.1907742681
 22
4.2391250406
 32
0.0
 13
7.3814916338
 23
3.8975629492
 33
0.0
 40
0.0
 40
0.0
 40
0.0
 40
0.0
 40
0.1267219977
 40
0.2658625301
 40
0.4107850196
 40
0.5536901545
 40
0.6871721728
 40
0.8058177112
 40
0.8590930878
 40
0.9085979043
 40
0.9551483869
 40
1.0
 40
1.0
 40
1.0
 40
1.0
 10
-10.3888620274
 20
-6.6540073492
 30
0.0
 10
-10.6926051208
 20
-6.4749438847
 30
0.0
 10
-11.2775955516
 20
-6.0085464032
 30
0.0
 10
-12.0084091613
 20
-5.1215641865
 30
0.0
 10
-12.5883469992
 20
-4.0773153996
 30
0.0
 10
-12.9689557671
 20
-2.9614507975
 30
0.0
 10
-13.1194529251
 20
-1.8653980633
 30
0.0
 10
-13.0373069019
 20
-1.0076726099
 30
0.0
 10
-12.8339751878
 20
-0.4231426511
 30
0.0
 10
-12.6271907035
 20
-0.0596145376
 30
0.0
 10
-12.3644923329
 20
0.2355837377
 30
0.0
 10
-12.1534288605
 20
0.382609738
 30
0.0
 10
-12.0430715916
 20
0.4408803998
 30
0.0
 11
-10.3888620274
 21
-6.6540073492
 31
0.0
 11
-11.2248243358
 21
-6.0058720711
 31
0.0
 11
-11.9694436411
 21
-5.1145231086
 31
0.0
 11
-12.5578952725
 21
-4.0575810345
 31
0.0
 11
-12.938867608
 21
-2.9271812228
 31
0.0
 11
-13.0791743284
 21
-1.8218361006
 31
0.0
 11
-12.9665590094
 21
-0.8378898055
 31
0.0
 11
-12.8176315434
 21
-0.418862799
 31
0.0
 11
-12.6108633977
 21
-0.0610817932
 31
0.0
 11
-12.3507789666
 21
0.2276107514
 31
0.0
 11
-12.0430715916
 21
0.4408803998
 31
0.0
  0
SPLINE
  5
429
100
AcDbEntity
  8
0
100
AcDbSpline
 62
253
  6
CONTINUOUS
 70
0
 71
3
 72
17
 73
13
 74
11
 42
0.0000001
 43
0.0000001
 44
0.0000000001
 12
-0.9879368352
 22
0.4939684176
 32
0.0
 13
0.9879368352
 23
-0.4939684176
 33
0.0
 40
0.0
 40
0.0
 40
0.0
 40
0.0
 40
0.1092753266
 40
0.1576482481
 40
0.2045896998
 40
0.3044776326
 40
0.4254097648
 40
0.4943522139
 40
0.5674667355
 40
0.7196279593
 40
0.8680798856
 40
1.0
 40
1.0
 40
1.0
 40
1.0
 10
-9.9682389682
 20
-2.7360568979
 30
0.0
 10
-10.004224675
 20
-2.7180640445
 30
0.0
 10
-10.0626680448
 20
-2.700331584
 30
0.0
 10
-10.1382769461
 20
-2.7113619948
 30
0.0
 10
-10.203687384
 20
-2.7442935716
 30
0.0
 10
-10.2628295654
 20
-2.8303101312
 30
0.0
 10
-10.2772477213
 20
-2.9384689912
 30
0.0
 10
-10.2694120618
 20
-3.0351329214
 30
0.0
 10
-10.245666638
 20
-3.1411576005
 30
0.0
 10
-10.1904699073
 20
-3.2687982795
 30
0.0
 10
-10.0946892675
 20
-3.3976340788
 30
0.0
 10
-10.0116818816
 20
-3.4625857137
 30
0.0
 10
-9.9682389682
 20
-3.4843071704
 30
0.0
 11
-9.9682389682
 21
-2.7360568979
 31
0.0
 11
-10.0851581899
 21
-2.7060849045
 31
0.0
 11
-10.1379596613
 21
-2.7142572342
 31
0.0
 11
-10.184231485
 21
-2.7376504183
 31
0.0
 11
-10.2504495624
 21
-2.8259004975
 31
0.0
 11
-10.2737072837
 21
-2.9574353505
 31
0.0
 11
-10.2678329028
 21
-3.0333586041
 31
0.0
 11
-10.2504566995
 21
-3.1122255197
 31
0.0
 11
-10.1842419924
 21
-3.2667016484
 31
0.0
 11
-10.085163081
 21
-3.3973547263
 31
0.0
 11
-9.9682389682
 21
-3.4843071704
 31
0.0
  0
SPLINE
  5
42A
100
AcDbEntity
  8
0
100
AcDbSpline
 62
253
  6
CONTINUOUS
 70
0
 71
3
 72
17
 73
13
 74
11
 42
0.0000001
 43
0.0000001
 44
0.0000000001
 12
0.9879368352
 22
-0.4939684176
 32
0.0
 13
-0.9879368352
 23
0.4939684176
 33
0.0
 40
0.0
 40
0.0
 40
0.0
 40
0.0
 40
0.1092753266
 40
0.1576482481
 40
0.2045896998
 40
0.3044776326
 40
0.4254097648
 40
0.4943522139
 40
0.5674667355
 40
0.7196279593
 40
0.8680798856
 40
1.0
 40
1.0
 40
1.0
 40
1.0
 10
-9.9682389682
 20
-3.4843071704
 30
0.0
 10
-9.9322532614
 20
-3.5023000237
 30
0.0
 10
-9.8738098916
 20
-3.5200324842
 30
0.0
 10
-9.7982009903
 20
-3.5090020734
 30
0.0
 10
-9.7327905523
 20
-3.4760704966
 30
0.0
 10
-9.673648371
 20
-3.390053937
 30
0.0
 10
-9.6592302151
 20
-3.281895077
 30
0.0
 10
-9.6670658746
 20
-3.1852311468
 30
0.0
 10
-9.6908112984
 20
-3.0792064677
 30
0.0
 10
-9.746008029
 20
-2.9515657887
 30
0.0
 10
-9.8417886689
 20
-2.8227299894
 30
0.0
 10
-9.9247960548
 20
-2.7577783546
 30
0.0
 10
-9.9682389682
 20
-2.7360568979
 30
0.0
 11
-9.9682389682
 21
-3.4843071704
 31
0.0
 11
-9.8513197465
 21
-3.5142791637
 31
0.0
 11
-9.7985182751
 21
-3.506106834
 31
0.0
 11
-9.7522464514
 21
-3.48271365
 31
0.0
 11
-9.686028374
 21
-3.3944635708
 31
0.0
 11
-9.6627706527
 21
-3.2629287178
 31
0.0
 11
-9.6686450335
 21
-3.1870054642
 31
0.0
 11
-9.6860212369
 21
-3.1081385486
 31
0.0
 11
-9.752235944
 21
-2.9536624198
 31
0.0
 11
-9.8513148554
 21
-2.8230093419
 31
0.0
 11
-9.9682389682
 21
-2.7360568979
 31
0.0
  0
SPLINE
  5
42B
100
AcDbEntity
  8
0
100
AcDbSpline
 62
253
  6
CONTINUOUS
 70
0
 71
3
 72
11
 73
7
 74
5
 42
0.0000001
 43
0.0000001
 44
0.0000000001
 12
-0.3938273503
 22
0.1969136752
 32
0.0
 13
-0.2519282703
 23
-0.3611192655
 33
0.0
 40
0.0
 40
0.0
 40
0.0
 40
0.0
 40
0.2805759505
 40
0.5291510006
 40
0.7612720888
 40
1.0
 40
1.0
 40
1.0
 40
1.0
 10
-9.8582516814
 20
-2.480604375
 30
0.0
 10
-9.8950845091
 20
-2.4621879611
 30
0.0
 10
-9.969064457
 20
-2.4350892412
 30
0.0
 10
-10.0831479868
 20
-2.4311579426
 30
0.0
 10
-10.1845739529
 20
-2.4701618793
 30
0.0
 10
-10.2345683078
 20
-2.520884165
 30
0.0
 10
-10.2546157444
 20
-2.549620581
 30
0.0
 11
-9.8582516814
 21
-2.480604375
 31
0.0
 11
-9.9750336681
 21
-2.4403010121
 31
0.0
 11
-10.0844727094
 21
-2.4387057368
 31
0.0
 11
-10.1796599306
 21
-2.4759269054
 31
0.0
 11
-10.2546157444
 21
-2.549620581
 31
0.0
  0
SPLINE
  5
42C
100
AcDbEntity
  8
0
100
AcDbSpline
 62
253
  6
CONTINUOUS
 70
0
 71
3
 72
11
 73
7
 74
5
 42
0.0000001
 43
0.0000001
 44
0.0000000001
 12
0.0
 22
0.9741225371
 32
0.0
 13
-0.8712816846
 23
0.4356408423
 33
0.0
 40
0.0
 40
0.0
 40
0.0
 40
0.0
 40
0.2468124806
 40
0.5117852459
 40
0.7703059488
 40
1.0
 40
1.0
 40
1.0
 40
1.0
 10
-9.389105797
 20
-3.2897613329
 30
0.0
 10
-9.389105797
 20
-3.2096194663
 30
0.0
 10
-9.416762889
 20
-3.0431533893
 30
0.0
 10
-9.5169046853
 20
-2.8116474366
 30
0.0
 10
-9.664082728
 20
-2.6136791918
 30
0.0
 10
-9.7915422748
 20
-2.5139590783
 30
0.0
 10
-9.8582516814
 20
-2.480604375
 30
0.0
 11
-9.389105797
 21
-3.2897613329
 31
0.0
 11
-9.424823073
 21
-3.052003588
 31
0.0
 11
-9.5265154452
 21
-2.8147642549
 31
0.0
 11
-9.6787048124
 21
-2.61412236
 31
0.0
 11
-9.8582516814
 21
-2.480604375
 31
0.0
  0
SPLINE
  5
42D
100
AcDbEntity
  8
0
100
AcDbSpline
 62
253
  6
CONTINUOUS
 70
0
 71
3
 72
12
 73
8
 74
6
 42
0.0000001
 43
0.0000001
 44
0.0000000001
 12
0.0371512744
 22
-0.1989052501
 32
0.0
 13
-0.1927067455
 23
-0.0617059636
 33
0.0
 40
0.0
 40
0.0
 40
0.0
 40
0.0
 40
0.1138761075
 40
0.208083968
 40
0.3276439102
 40
0.6332283582
 40
1.0
 40
1.0
 40
1.0
 40
1.0
 10
17.7953880096
 20
3.6321149461
 30
0.0
 10
17.7967982238
 20
3.6245647609
 30
0.0
 10
17.7858969892
 20
3.6112462303
 30
0.0
 10
17.7687759041
 20
3.5988102891
 30
0.0
 10
17.7380598394
 20
3.58099885
 30
0.0
 10
17.6889852955
 20
3.5602557508
 30
0.0
 10
17.6460759573
 20
3.5453112943
 30
0.0
 10
17.6225161675
 20
3.5377672951
 30
0.0
 11
17.7953880096
 21
3.6321149461
 31
0.0
 11
17.7848749146
 21
3.6116107797
 31
0.0
 11
17.7698147136
 21
3.5999245056
 31
0.0
 11
17.7489668619
 21
3.5876510615
 31
0.0
 11
17.6925200879
 21
3.5624093671
 31
0.0
 11
17.6225161675
 21
3.5377672951
 31
0.0
  0
SPLINE
  5
42E
100
AcDbEntity
  8
0
100
AcDbSpline
 62
253
  6
CONTINUOUS
 70
0
 71
3
 72
11
 73
7
 74
5
 42
0.0000001
 43
0.0000001
 44
0.0000000001
 12
2.0155422006
 22
1.1430760735
 32
0.0
 13
0.2191078542
 23
2.3067347096
 33
0.0
 40
0.0
 40
0.0
 40
0.0
 40
0.0
 40
0.2225672148
 40
0.4614745117
 40
0.7203761654
 40
1.0
 40
1.0
 40
1.0
 40
1.0
 10
16.6258653638
 20
0.2684019721
 30
0.0
 10
16.7753965685
 20
0.3532057248
 30
0.0
 10
17.0585227576
 20
0.5798920143
 30
0.0
 10
17.3824341387
 20
1.0395192921
 30
0.0
 10
17.6055420034
 20
1.6019927916
 30
0.0
 10
17.6795109264
 20
2.0140966442
 30
0.0
 10
17.6999335192
 20
2.2291026458
 30
0.0
 11
16.6258653638
 21
0.2684019721
 31
0.0
 11
17.0309059677
 21
0.5876251352
 31
0.0
 11
17.35479372
 21
1.0365609954
 31
0.0
 11
17.5809712893
 21
1.5921960946
 31
0.0
 11
17.6999335192
 21
2.2291026458
 31
0.0
  0
SPLINE
  5
42F
100
AcDbEntity
  8
0
100
AcDbSpline
 62
253
  6
CONTINUOUS
 70
0
 71
3
 72
11
 73
7
 74
5
 42
0.0000001
 43
0.0000001
 44
0.0000000001
 12
0.0449538548
 22
1.070879554
 32
0.0
 13
-0.9323638178
 23
0.5286790894
 33
0.0
 40
0.0
 40
0.0
 40
0.0
 40
0.0
 40
0.2480106244
 40
0.5114990321
 40
0.7687094239
 40
1.0
 40
1.0
 40
1.0
 40
1.0
 10
13.5743024489
 20
19.2756982073
 30
0.0
 10
13.5780187934
 20
19.3642280429
 30
0.0
 10
13.5564286535
 20
19.5484406993
 30
0.0
 10
13.4585655054
 20
19.8076019808
 30
0.0
 10
13.3066441024
 20
20.0321193613
 30
0.0
 10
13.1713827856
 20
20.147848897
 30
0.0
 10
13.0995004641
 20
20.188608394
 30
0.0
 11
13.5743024489
 21
19.2756982073
 31
0.0
 11
13.5468485775
 21
19.5401001211
 31
0.0
 11
13.4478039644
 21
19.8045754205
 31
0.0
 11
13.2912687918
 21
20.0315079447
 31
0.0
 11
13.0995004641
 21
20.188608394
 31
0.0
  0
SPLINE
  5
430
100
AcDbEntity
  8
0
100
AcDbSpline
 62
253
  6
CONTINUOUS
 70
0
 71
3
 72
10
 73
6
 74
4
 42
0.0000001
 43
0.0000001
 44
0.0000000001
 12
-0.2189239636
 22
0.1086156751
 32
0.0
 13
-0.2150415295
 23
-0.1161129075
 33
0.0
 40
0.0
 40
0.0
 40
0.0
 40
0.0
 40
0.2405903169
 40
0.4861752103
 40
1.0
 40
1.0
 40
1.0
 40
1.0
 10
15.7302205952
 20
6.6571288363
 30
0.0
 10
15.7126636
 20
6.6658394629
 30
0.0
 10
15.6742029048
 20
6.6779849397
 30
0.0
 10
15.5918791855
 20
6.6792088708
 30
0.0
 10
15.5317802867
 20
6.6570591953
 30
0.0
 10
15.4949490638
 20
6.6371719652
 30
0.0
 11
15.7302205952
 21
6.6571288363
 31
0.0
 11
15.6742152428
 21
6.675031584
 31
0.0
 11
15.6142146228
 21
6.6764669338
 31
0.0
 11
15.4949490638
 21
6.6371719652
 31
0.0
  0
SPLINE
  5
431
100
AcDbEntity
  8
0
100
AcDbSpline
 62
253
  6
CONTINUOUS
 70
0
 71
3
 72
22
 73
18
 74
16
 42
0.0000001
 43
0.0000001
 44
0.0000000001
 12
8.5195283144
 22
-6.4411134061
 32
0.0
 13
-9.2005955319
 23
5.4239604045
 33
0.0
 40
0.0
 40
0.0
 40
0.0
 40
0.0
 40
0.0688538445
 40
0.1417165822
 40
0.2934906189
 40
0.3693777778
 40
0.4429877429
 40
0.5128711377
 40
0.5779049517
 40
0.6374616157
 40
0.6916080569
 40
0.7413059226
 40
0.788482899
 40
0.835740084
 40
0.8856583006
 40
0.940109943
 40
1.0
 40
1.0
 40
1.0
 40
1.0
 10
-9.7268121272
 20
0.0713324686
 30
0.0
 10
-9.5312780345
 20
-0.0764993384
 30
0.0
 10
-9.1523261851
 20
-0.4127976965
 30
0.0
 10
-8.4680248863
 20
-1.2050341087
 30
0.0
 10
-7.9196475194
 20
-2.1373807043
 30
0.0
 10
-7.5387052838
 20
-3.1418033505
 30
0.0
 10
-7.349915225
 20
-3.901851835
 30
0.0
 10
-7.2648797431
 20
-4.6416314874
 30
0.0
 10
-7.2867706345
 20
-5.3364990145
 30
0.0
 10
-7.4158082006
 20
-5.9634107186
 30
0.0
 10
-7.6498911827
 20
-6.5014846589
 30
0.0
 10
-7.9849042149
 20
-6.9306811265
 30
0.0
 10
-8.4116888247
 20
-7.2301238723
 30
0.0
 10
-8.9109164311
 20
-7.3829019837
 30
0.0
 10
-9.4574596032
 20
-7.3844824579
 30
0.0
 10
-10.02923227
 20
-7.240548446
 30
0.0
 10
-10.3979343233
 20
-7.0616735299
 30
0.0
 10
-10.5816090537
 20
-6.9533930972
 30
0.0
 11
-9.7268121272
 21
0.0713324686
 31
0.0
 11
-9.1745009042
 21
-0.4142009844
 31
0.0
 11
-8.663992958
 21
-1.0015496346
 31
0.0
 11
-7.8378652843
 21
-2.396240781
 31
0.0
 11
-7.5513843519
 21
-3.154425251
 31
0.0
 11
-7.3638052143
 21
-3.917901303
 31
0.0
 11
-7.2817377889
 21
-4.6597562852
 31
0.0
 11
-7.3080733047
 21
-5.3538420433
 31
0.0
 11
-7.4418822338
 21
-5.9756958132
 31
0.0
 11
-7.678448121
 21
-6.5034004007
 31
0.0
 11
-8.0094331808
 21
-6.9183565543
 31
0.0
 11
-8.4231725805
 21
-7.2059365147
 31
0.0
 11
-8.9050717699
 21
-7.3560022096
 31
0.0
 11
-9.4381673158
 21
-7.3632657099
 31
0.0
 11
-10.0036545942
 21
-7.2274700406
 31
0.0
 11
-10.5816090537
 21
-6.9533930972
 31
0.0
  0
SPLINE
  5
432
100
AcDbEntity
  8
0
100
AcDbSpline
 62
253
  6
CONTINUOUS
 70
0
 71
3
 72
23
 73
19
 74
17
 42
0.0000001
 43
0.0000001
 44
0.0000000001
 12
-9.6227098948
 22
5.6728064256
 32
0.0
 13
9.6227098948
 23
-5.6728064256
 33
0.0
 40
0.0
 40
0.0
 40
0.0
 40
0.0
 40
0.0653543678
 40
0.1356589762
 40
0.2096430691
 40
0.2856818424
 40
0.36198162
 40
0.4367210889
 40
0.5082131054
 40
0.5750660779
 40
0.6363715706
 40
0.6919274583
 40
0.7424831233
 40
0.789889794
 40
0.8368775736
 40
0.886310558
 40
0.9403314697
 40
1.0
 40
1.0
 40
1.0
 40
1.0
 10
-10.5816090537
 20
-6.9533930972
 30
0.0
 10
-10.7912377608
 20
-6.8298122048
 30
0.0
 10
-11.2030228527
 20
-6.5325809197
 30
0.0
 10
-11.7621357814
 20
-5.9845118593
 30
0.0
 10
-12.2683725
 20
-5.3360755768
 30
0.0
 10
-12.7027081969
 20
-4.6115700548
 30
0.0
 10
-13.0490553327
 20
-3.838033504
 30
0.0
 10
-13.2944192837
 20
-3.0443707564
 30
0.0
 10
-13.4295966499
 20
-2.2600877936
 30
0.0
 10
-13.4493248656
 20
-1.5139902664
 30
0.0
 10
-13.3520735697
 20
-0.8329914516
 30
0.0
 10
-13.1392516005
 20
-0.2414878699
 30
0.0
 10
-12.8143859306
 20
0.237653377
 30
0.0
 10
-12.3855352235
 20
0.5802772718
 30
0.0
 10
-11.872632098
 20
0.7646301611
 30
0.0
 10
-11.3048456618
 20
0.7830600982
 30
0.0
 10
-10.708350981
 20
0.6418222771
 30
0.0
 10
-10.324074619
 20
0.4569510205
 30
0.0
 10
-10.1326836334
 20
0.3441216799
 30
0.0
 11
-10.5816090537
 21
-6.9533930972
 31
0.0
 11
-11.1763955595
 21
-6.5301001738
 31
0.0
 11
-11.7396713143
 21
-5.9828691294
 31
0.0
 11
-12.2498397698
 21
-5.3327039214
 31
0.0
 11
-12.6872584344
 21
-4.604614613
 31
0.0
 11
-13.0351453321
 21
-3.8265496383
 31
0.0
 11
-13.2801140933
 21
-3.0284301531
 31
0.0
 11
-13.4127531263
 21
-2.2409296216
 31
0.0
 11
-13.4279664349
 21
-1.4943118265
 31
0.0
 11
-13.3251715057
 21
-0.8172656213
 31
0.0
 11
-13.1083189049
 21
-0.2358065847
 31
0.0
 11
-12.7857418198
 21
0.2277224685
 31
0.0
 11
-12.3698324054
 21
0.5555072605
 31
0.0
 11
-11.8765884735
 21
0.7349511688
 31
0.0
 11
-11.3249341256
 21
0.7591529731
 31
0.0
 11
-10.7361047298
 21
0.6271971215
 31
0.0
 11
-10.1326836334
 21
0.3441216799
 31
0.0
  0
SPLINE
  5
433
100
AcDbEntity
  8
0
100
AcDbSpline
 62
253
  6
CONTINUOUS
 70
0
 71
3
 72
23
 73
19
 74
17
 42
0.0000001
 43
0.0000001
 44
0.0000000001
 12
-9.6013514091
 22
5.6602151123
 32
0.0
 13
9.0384561165
 23
-6.5215255139
 33
0.0
 40
0.0
 40
0.0
 40
0.0
 40
0.0
 40
0.0598181122
 40
0.114157184
 40
0.1639526474
 40
0.2111292969
 40
0.2583248601
 40
0.3081682615
 40
0.3625743301
 40
0.4224634878
 40
0.4878492395
 40
0.5580477404
 40
0.6318819256
 40
0.7078544432
 40
0.7842942166
 40
0.8594964657
 40
0.9318482147
 40
1.0
 40
1.0
 40
1.0
 40
1.0
 10
-10.1251782729
 20
0.466125195
 30
0.0
 10
-10.3166231783
 20
0.5789863227
 30
0.0
 10
-10.7009388905
 20
0.7651175017
 30
0.0
 10
-11.2970423365
 20
0.9133598648
 30
0.0
 10
-11.8663679508
 20
0.9083107865
 30
0.0
 10
-12.3852864534
 20
0.7439580152
 30
0.0
 10
-12.8269900542
 20
0.4255642259
 30
0.0
 10
-13.171316052
 20
-0.028418133
 30
0.0
 10
-13.409008405
 20
-0.5957132272
 30
0.0
 10
-13.5359386726
 20
-1.2550375393
 30
0.0
 10
-13.5500692628
 20
-1.9840938077
 30
0.0
 10
-13.4518664274
 20
-2.7583281082
 30
0.0
 10
-13.2450545645
 20
-3.5512386074
 30
0.0
 10
-12.9369196713
 20
-4.3353282009
 30
0.0
 10
-12.5382854429
 20
-5.0832201514
 30
0.0
 10
-12.0629941922
 20
-5.7687707589
 30
0.0
 10
-11.5278102649
 20
-6.3679861213
 30
0.0
 10
-11.1288984958
 20
-6.708117613
 30
0.0
 10
-10.9235695223
 20
-6.8562688152
 30
0.0
 11
-10.1251782729
 21
0.466125195
 31
0.0
 11
-10.727824755
 21
0.7512853099
 31
0.0
 11
-11.3171571644
 21
0.8908839572
 31
0.0
 11
-11.8720483739
 21
0.8799264251
 31
0.0
 11
-12.3725631958
 21
0.7187981672
 31
0.0
 11
-12.800765133
 21
0.4132785528
 31
0.0
 11
-13.1412702751
 21
-0.0256678267
 31
0.0
 11
-13.3818596902
 21
-0.5822846146
 31
0.0
 11
-13.5139001358
 21
-1.23659408
 31
0.0
 11
-13.5326553818
 21
-1.9651149148
 31
0.0
 11
-13.4374534231
 21
-2.7417043849
 31
0.0
 11
-13.2317112387
 21
-3.5384951824
 31
0.0
 11
-12.9228090457
 21
-4.326897577
 31
0.0
 11
-12.5218405901
 21
-5.0786088757
 31
0.0
 11
-12.0431789489
 21
-5.766661673
 31
0.0
 11
-11.5040489026
 21
-6.3663478175
 31
0.0
 11
-10.9235695223
 21
-6.8562688152
 31
0.0
  0
SPLINE
  5
434
100
AcDbEntity
  8
0
100
AcDbSpline
 62
253
  6
CONTINUOUS
 70
0
 71
3
 72
9
 73
5
 74
3
 42
0.0000001
 43
0.0000001
 44
0.0000000001
 12
0.3243174802
 22
-0.2340050883
 32
0.0
 13
0.344515264
 23
-0.2030995868
 33
0.0
 40
0.0
 40
0.0
 40
0.0
 40
0.0
 40
0.2545699029
 40
1.0
 40
1.0
 40
1.0
 40
1.0
 10
-10.9235695223
 20
-6.8562688152
 30
0.0
 10
-10.8960490325
 20
-6.8761256994
 30
0.0
 10
-10.7870950106
 20
-6.9529414792
 30
0.0
 10
-10.6747184298
 20
-7.0249310975
 30
0.0
 10
-10.5891144142
 20
-7.0753966124
 30
0.0
 11
-10.9235695223
 21
-6.8562688152
 31
0.0
 11
-10.8403544011
 21
-6.9149229072
 31
0.0
 11
-10.5891144142
 21
-7.0753966124
 31
0.0
  0
SPLINE
  5
435
100
AcDbEntity
  8
0
100
AcDbSpline
 62
253
  6
CONTINUOUS
 70
0
 71
3
 72
23
 73
19
 74
17
 42
0.0000001
 43
0.0000001
 44
0.0000000001
 12
10.0062584347
 22
-5.5422217999
 32
0.0
 13
-9.8537667995
 23
5.8090197281
 33
0.0
 40
0.0
 40
0.0
 40
0.0
 40
0.0
 40
0.0588460362
 40
0.1121625912
 40
0.1611513404
 40
0.2080328112
 40
0.2556521347
 40
0.3066256752
 40
0.362667255
 40
0.4244214846
 40
0.4916264146
 40
0.5633505515
 40
0.6382056269
 40
0.7145256119
 40
0.7905206784
 40
0.8644330932
 40
0.9346738424
 40
1.0
 40
1.0
 40
1.0
 40
1.0
 10
-10.4972995412
 20
-7.1278845483
 30
0.0
 10
-10.3010233258
 20
-7.2365971432
 30
0.0
 10
-9.9075792391
 20
-7.4123927526
 30
0.0
 10
-9.2995805466
 20
-7.5355352283
 30
0.0
 10
-8.723914556
 20
-7.495624584
 30
0.0
 10
-8.2075385803
 20
-7.2875679461
 30
0.0
 10
-7.779202445
 20
-6.921032965
 30
0.0
 10
-7.4574326357
 20
-6.4185327576
 30
0.0
 10
-7.2496668786
 20
-5.804077675
 30
0.0
 10
-7.1593411148
 20
-5.1006793582
 30
0.0
 10
-7.1877177774
 20
-4.333087015
 30
0.0
 10
-7.333033317
 20
-3.5285487932
 30
0.0
 10
-7.5897627117
 20
-2.716121928
 30
0.0
 10
-7.9484530928
 20
-1.9254841146
 30
0.0
 10
-8.3958914169
 20
-1.1856553365
 30
0.0
 10
-8.9158009215
 20
-0.5237504777
 30
0.0
 10
-9.4889978798
 20
0.0358615655
 30
0.0
 10
-9.9106086986
 20
0.339631549
 30
0.0
 10
-10.1251782729
 20
0.466125195
 30
0.0
 11
-10.4972995412
 21
-7.1278845483
 31
0.0
 11
-9.8800001462
 21
-7.3962620551
 31
0.0
 11
-9.2808669799
 21
-7.5101764953
 31
0.0
 11
-8.7222915389
 21
-7.4654606792
 31
0.0
 11
-8.2254111973
 21
-7.2637611921
 31
0.0
 11
-7.8089403988
 21
-6.9126941083
 31
0.0
 11
-7.4886108434
 21
-6.42550369
 31
0.0
 11
-7.27650444
 21
-5.8205746478
 31
0.0
 11
-7.1806222977
 21
-5.1207307265
 31
0.0
 11
-7.2045795532
 21
-4.3523742255
 31
0.0
 11
-7.3474719809
 21
-3.5444905063
 31
0.0
 11
-7.6039087213
 21
-2.7275561938
 31
0.0
 11
-7.9642196389
 21
-1.9323874257
 31
0.0
 11
-8.4147969389
 21
-1.1890018709
 31
0.0
 11
-8.9386707276
 21
-0.5254139835
 31
0.0
 11
-9.5160455412
 21
0.0333157478
 31
0.0
 11
-10.1251782729
 21
0.466125195
 31
0.0
  0
SPLINE
  5
436
100
AcDbEntity
  8
0
100
AcDbSpline
 62
253
  6
CONTINUOUS
 70
0
 71
3
 72
11
 73
7
 74
5
 42
0.0000001
 43
0.0000001
 44
0.0000000001
 12
-2.1367666856
 22
1.2596725784
 32
0.0
 13
-2.2184911449
 23
-1.109434051
 33
0.0
 40
0.0
 40
0.0
 40
0.0
 40
0.0
 40
0.2832924688
 40
0.5406752827
 40
0.7765540657
 40
1.0
 40
1.0
 40
1.0
 40
1.0
 10
-9.9355144626
 20
0.7640002596
 30
0.0
 10
-10.1372910991
 20
0.8829521778
 30
0.0
 10
-10.5423154744
 20
1.0791993284
 30
0.0
 10
-11.1706741952
 20
1.2357212357
 30
0.0
 10
-11.770423984
 20
1.2312115611
 30
0.0
 10
-12.1393956114
 20
1.1149126258
 30
0.0
 10
-12.3046332203
 20
1.0322797831
 30
0.0
 11
-9.9355144626
 21
0.7640002596
 31
0.0
 11
-10.5706387483
 21
1.0646453505
 31
0.0
 11
-11.1917878466
 21
1.2121407133
 31
0.0
 11
-11.7767674915
 21
1.2012255113
 31
0.0
 11
-12.3046332203
 21
1.0322797831
 31
0.0
  0
SPLINE
  5
437
100
AcDbEntity
  8
0
100
AcDbSpline
 62
253
  6
CONTINUOUS
 70
0
 71
3
 72
11
 73
7
 74
5
 42
0.0000001
 43
0.0000001
 44
0.0000000001
 12
0.0
 22
1.1840200931
 32
0.0
 13
-0.8678555822
 23
0.8054379364
 33
0.0
 40
0.0
 40
0.0
 40
0.0
 40
0.0
 40
0.2379995718
 40
0.4936686688
 40
0.7527167675
 40
1.0
 40
1.0
 40
1.0
 40
1.0
 10
5.462609797
 20
14.0529311296
 30
0.0
 10
5.462609797
 20
14.1468632213
 30
0.0
 10
5.437154219
 20
14.3420127686
 30
0.0
 10
5.3401254535
 20
14.6245483139
 30
0.0
 10
5.19113963
 20
14.8876717495
 30
0.0
 10
5.0603192777
 20
15.0409950597
 30
0.0
 10
4.9887838998
 20
15.1073854919
 30
0.0
 11
5.462609797
 21
14.0529311296
 31
0.0
 11
5.4291912258
 21
14.3327388132
 31
0.0
 11
5.3321012795
 21
14.6194640041
 31
0.0
 11
5.1805096709
 21
14.8861023551
 31
0.0
 11
4.9887838998
 21
15.1073854919
 31
0.0
  0
SPLINE
  5
438
100
AcDbEntity
  8
0
100
AcDbSpline
 62
253
  6
CONTINUOUS
 70
0
 71
3
 72
9
 73
5
 74
3
 42
0.0000001
 43
0.0000001
 44
0.0000000001
 12
0.3349172906
 22
0.1674586453
 32
0.0
 13
0.1458431501
 23
0.3448793485
 33
0.0
 40
0.0
 40
0.0
 40
0.0
 40
0.0
 40
0.5527456887
 40
1.0
 40
1.0
 40
1.0
 40
1.0
 10
6.5548353941
 20
14.5990439282
 30
0.0
 10
6.6165434236
 20
14.6298979429
 30
0.0
 10
6.7234826759
 20
14.6967905354
 30
0.0
 10
6.8043237551
 20
14.7977006039
 30
0.0
 10
6.8260667476
 20
14.8491168624
 30
0.0
 11
6.5548353941
 21
14.5990439282
 31
0.0
 11
6.7267901276
 21
14.7142404116
 31
0.0
 11
6.8260667476
 21
14.8491168624
 31
0.0
  0
SPLINE
  5
439
100
AcDbEntity
  8
0
100
AcDbSpline
 62
253
  6
CONTINUOUS
 70
0
 71
3
 72
9
 73
5
 74
3
 42
0.0000001
 43
0.0000001
 44
0.0000000001
 12
0.0413320654
 22
0.0977390833
 32
0.0
 13
-0.0000305151
 23
0.1061191175
 33
0.0
 40
0.0
 40
0.0
 40
0.0
 40
0.0
 40
0.2573553203
 40
1.0
 40
1.0
 40
1.0
 40
1.0
 10
6.8260667476
 20
14.8491168624
 30
0.0
 10
6.8296124233
 20
14.8575014201
 30
0.0
 10
6.8419230653
 20
14.8906727853
 30
0.0
 10
6.8477322464
 20
14.9263277191
 30
0.0
 10
6.8477246925
 20
14.9525973185
 30
0.0
 11
6.8260667476
 21
14.8491168624
 31
0.0
 11
6.8355182385
 21
14.8747395659
 31
0.0
 11
6.8477246925
 21
14.9525973185
 31
0.0
  0
SPLINE
  5
43A
100
AcDbEntity
  8
0
100
AcDbSpline
 62
253
  6
CONTINUOUS
 70
0
 71
3
 72
11
 73
7
 74
5
 42
0.0000001
 43
0.0000001
 44
0.0000000001
 12
1.2897673707
 22
-0.6724563338
 32
0.0
 13
0.0
 23
-1.4545437056
 33
0.0
 40
0.0
 40
0.0
 40
0.0
 40
0.0
 40
0.2307390622
 40
0.4893392163
 40
0.7537623377
 40
1.0
 40
1.0
 40
1.0
 40
1.0
 10
5.8600693279
 20
15.8123204652
 30
0.0
 10
5.9592692324
 20
15.7605998173
 30
0.0
 10
6.1481626261
 20
15.6093738519
 30
0.0
 10
6.3661430495
 20
15.3121892637
 30
0.0
 10
6.5140848799
 20
14.9664501903
 30
0.0
 10
6.5548353941
 20
14.7184317421
 30
0.0
 10
6.5548353941
 20
14.5990439282
 30
0.0
 11
5.8600693279
 21
15.8123204652
 31
0.0
 11
6.1268728588
 21
15.608711295
 31
0.0
 11
6.3520728694
 21
15.3074303853
 31
0.0
 11
6.5021764058
 21
14.9533151264
 31
0.0
 11
6.5548353941
 21
14.5990439282
 31
0.0
  0
SPLINE
  5
43B
100
AcDbEntity
  8
0
100
AcDbSpline
 62
253
  6
CONTINUOUS
 70
0
 71
3
 72
9
 73
5
 74
3
 42
0.0000001
 43
0.0000001
 44
0.0000000001
 12
0.4902620062
 22
0.0587699607
 32
0.0
 13
0.4416430623
 23
0.2208215311
 33
0.0
 40
0.0
 40
0.0
 40
0.0
 40
0.0
 40
0.5267229881
 40
1.0
 40
1.0
 40
1.0
 40
1.0
 10
4.9888043306
 20
13.9202854039
 30
0.0
 10
5.0748817535
 20
13.9306039004
 30
0.0
 10
5.2371973553
 20
13.9613651734
 30
0.0
 10
5.3929366274
 20
14.0180945448
 30
0.0
 10
5.462609797
 20
14.0529311296
 30
0.0
 11
4.9888043306
 21
13.9202854039
 31
0.0
 11
5.2440479532
 21
13.9702137537
 31
0.0
 11
5.462609797
 21
14.0529311296
 31
0.0
  0
SPLINE
  5
43C
100
AcDbEntity
  8
0
100
AcDbSpline
 62
253
  6
CONTINUOUS
 70
0
 71
3
 72
11
 73
7
 74
5
 42
0.0000001
 43
0.0000001
 44
0.0000000001
 12
0.0
 22
-0.6297129261
 32
0.0
 13
-0.5632852912
 23
-0.2815103017
 33
0.0
 40
0.0
 40
0.0
 40
0.0
 40
0.0
 40
0.2896927165
 40
0.5496093268
 40
0.7828338758
 40
1.0
 40
1.0
 40
1.0
 40
1.0
 10
6.5548353941
 20
14.5840204035
 30
0.0
 10
6.5548353941
 20
14.5232126542
 30
0.0
 10
6.5450041977
 20
14.4074130008
 30
0.0
 10
6.4955408539
 20
14.2490269413
 30
0.0
 10
6.412844326
 20
14.122242221
 30
0.0
 10
6.335711688
 20
14.063537021
 30
0.0
 10
6.2949361935
 20
14.0431588539
 30
0.0
 11
6.5548353941
 21
14.5840204035
 31
0.0
 11
6.5375549519
 21
14.4024174636
 31
0.0
 11
6.4865610252
 21
14.2468911925
 31
0.0
 11
6.404352493
 21
14.1251909769
 31
0.0
 11
6.2949361935
 21
14.0431588539
 31
0.0
  0
SPLINE
  5
43D
100
AcDbEntity
  8
0
100
AcDbSpline
 62
253
  6
CONTINUOUS
 70
0
 71
3
 72
11
 73
7
 74
5
 42
0.0000001
 43
0.0000001
 44
0.0000000001
 12
1.3132145202
 22
-0.6566072601
 32
0.0
 13
0.0
 23
-1.4682184681
 33
0.0
 40
0.0
 40
0.0
 40
0.0
 40
0.0
 40
0.2296940662
 40
0.4882147933
 40
0.753187566
 40
1.0
 40
1.0
 40
1.0
 40
1.0
 10
5.8477286129
 20
-15.0831968281
 30
0.0
 10
5.9482744739
 20
-15.1334697585
 30
0.0
 10
6.1403842615
 20
-15.2837700766
 30
0.0
 10
6.3622141843
 20
-15.582152103
 30
0.0
 10
6.5131500383
 20
-15.9310828612
 30
0.0
 10
6.5548353941
 20
-16.1819840978
 30
0.0
 10
6.5548353941
 20
-16.3027756224
 30
0.0
 11
5.8477286129
 21
-15.0831968281
 31
0.0
 11
6.1183455364
 21
-15.2844380268
 31
0.0
 11
6.3477286421
 21
-15.5868498464
 31
0.0
 11
6.5010015647
 21
-15.9444220951
 31
0.0
 11
6.5548353941
 21
-16.3027756224
 31
0.0
  0
SPLINE
  5
43E
100
AcDbEntity
  8
0
100
AcDbSpline
 62
253
  6
CONTINUOUS
 70
0
 71
3
 72
9
 73
5
 74
3
 42
0.0000001
 43
0.0000001
 44
0.0000000001
 12
0.3349172906
 22
0.1674586453
 32
0.0
 13
0.1458431501
 23
0.3448793485
 33
0.0
 40
0.0
 40
0.0
 40
0.0
 40
0.0
 40
0.5527456887
 40
1.0
 40
1.0
 40
1.0
 40
1.0
 10
6.5548353941
 20
-16.3027756224
 30
0.0
 10
6.6165434236
 20
-16.2719216077
 30
0.0
 10
6.7234826759
 20
-16.2050290152
 30
0.0
 10
6.8043237551
 20
-16.1041189466
 30
0.0
 10
6.8260667476
 20
-16.0527026882
 30
0.0
 11
6.5548353941
 21
-16.3027756224
 31
0.0
 11
6.7267901276
 21
-16.187579139
 31
0.0
 11
6.8260667476
 21
-16.0527026882
 31
0.0
  0
SPLINE
  5
43F
100
AcDbEntity
  8
0
100
AcDbSpline
 62
253
  6
CONTINUOUS
 70
0
 71
3
 72
9
 73
5
 74
3
 42
0.0000001
 43
0.0000001
 44
0.0000000001
 12
0.0413320654
 22
0.0977390833
 32
0.0
 13
-0.0000305151
 23
0.1061191175
 33
0.0
 40
0.0
 40
0.0
 40
0.0
 40
0.0
 40
0.2573553203
 40
1.0
 40
1.0
 40
1.0
 40
1.0
 10
6.8260667476
 20
-16.0527026882
 30
0.0
 10
6.8296124233
 20
-16.0443181305
 30
0.0
 10
6.8419230653
 20
-16.0111467653
 30
0.0
 10
6.8477322464
 20
-15.9754918315
 30
0.0
 10
6.8477246925
 20
-15.9492222321
 30
0.0
 11
6.8260667476
 21
-16.0527026882
 31
0.0
 11
6.8355182385
 21
-16.0270799847
 31
0.0
 11
6.8477246925
 21
-15.9492222321
 31
0.0
  0
SPLINE
  5
440
100
AcDbEntity
  8
0
100
AcDbSpline
 62
7
  6
CONTINUOUS
 70
0
 71
3
 72
11
 73
7
 74
5
 42
0.0000001
 43
0.0000001
 44
0.0000000001
 12
0.273857856
 22
0.1076963686
 32
0.0
 13
0.2528748326
 23
-0.1505023328
 33
0.0
 40
0.0
 40
0.0
 40
0.0
 40
0.0
 40
0.400047637
 40
0.6953199537
 40
0.8897221057
 40
1.0
 40
1.0
 40
1.0
 40
1.0
 10
5.9095924402
 20
-15.0555604026
 30
0.0
 10
5.9461111696
 20
-15.0411991766
 30
0.0
 10
6.009979245
 20
-15.017543971
 30
0.0
 10
6.0942897424
 20
-14.9929642585
 30
0.0
 10
6.1516109363
 20
-14.9831237343
 30
0.0
 10
6.1832762459
 20
-14.9850995433
 30
0.0
 10
6.1925717473
 20
-14.9906319034
 30
0.0
 11
5.9095924402
 21
-15.0555604026
 31
0.0
 11
6.0202722191
 21
-15.015451199
 31
0.0
 11
6.1039875575
 21
-14.9921760246
 31
0.0
 11
6.160688703
 21
-14.9845827982
 31
0.0
 11
6.1925717473
 21
-14.9906319034
 31
0.0
  0
SPLINE
  5
441
100
AcDbEntity
  8
0
100
AcDbSpline
 62
253
  6
CONTINUOUS
 70
0
 71
3
 72
9
 73
5
 74
3
 42
0.0000001
 43
0.0000001
 44
0.0000000001
 12
-0.4416430623
 22
-0.2208215311
 32
0.0
 13
-0.4902620062
 23
-0.0587699607
 33
0.0
 40
0.0
 40
0.0
 40
0.0
 40
0.0
 40
0.4732770119
 40
1.0
 40
1.0
 40
1.0
 40
1.0
 10
5.462609797
 20
14.037907605
 30
0.0
 10
5.3929366274
 20
14.0030710202
 30
0.0
 10
5.2371973553
 20
13.9463416488
 30
0.0
 10
5.0748817535
 20
13.9155803758
 30
0.0
 10
4.9888043306
 20
13.9052618793
 30
0.0
 11
5.462609797
 21
14.037907605
 31
0.0
 11
5.2440479532
 21
13.9551902291
 31
0.0
 11
4.9888043306
 21
13.9052618793
 31
0.0
  0
SPLINE
  5
442
100
AcDbEntity
  8
0
100
AcDbSpline
 62
253
  6
CONTINUOUS
 70
0
 71
3
 72
11
 73
7
 74
5
 42
0.0000001
 43
0.0000001
 44
0.0000000001
 12
0.0
 22
-0.6297135059
 32
0.0
 13
-0.5632716328
 23
-0.2815389265
 33
0.0
 40
0.0
 40
0.0
 40
0.0
 40
0.0
 40
0.2896975229
 40
0.5496070963
 40
0.7828345072
 40
1.0
 40
1.0
 40
1.0
 40
1.0
 10
6.5548353941
 20
-16.317799147
 30
0.0
 10
6.5548353941
 20
-16.3786079613
 30
0.0
 10
6.5450059896
 20
-16.4944077813
 30
0.0
 10
6.4955396252
 20
-16.6527924586
 30
0.0
 10
6.4128467294
 20
-16.7795797333
 30
0.0
 10
6.3357104094
 20
-16.8382801898
 30
0.0
 10
6.2949360222
 20
-16.8586603697
 30
0.0
 11
6.5548353941
 21
-16.317799147
 31
0.0
 11
6.5375553011
 21
-16.4994053293
 31
0.0
 11
6.4865617676
 21
-16.6549272246
 31
0.0
 11
6.4043530222
 21
-16.776629634
 31
0.0
 11
6.2949360222
 21
-16.8586603697
 31
0.0
  0
SPLINE
  5
443
100
AcDbEntity
  8
0
100
AcDbSpline
 62
253
  6
CONTINUOUS
 70
0
 71
3
 72
9
 73
5
 74
3
 42
0.0000001
 43
0.0000001
 44
0.0000000001
 12
0.1924249871
 22
0.0835375825
 32
0.0
 13
0.1875898896
 23
-0.0938932194
 33
0.0
 40
0.0
 40
0.0
 40
0.0
 40
0.0
 40
0.5320832567
 40
1.0
 40
1.0
 40
1.0
 40
1.0
 10
-0.6756673652
 20
21.2425918868
 30
0.0
 10
-0.6415386606
 20
21.2574082031
 30
0.0
 10
-0.5722636051
 20
21.2764260819
 30
0.0
 10
-0.5003069666
 20
21.2625683538
 30
0.0
 10
-0.4710481499
 20
21.2479236173
 30
0.0
 11
-0.6756673652
 21
21.2425918868
 31
0.0
 11
-0.5670592764
 21
21.2683388946
 31
0.0
 11
-0.4710481499
 21
21.2479236173
 31
0.0
  0
SPLINE
  5
444
100
AcDbEntity
  8
RACCORDO
100
AcDbSpline
 62
7
  6
CONTINUOUS
 70
0
 71
3
 72
8
 73
4
 74
2
 42
0.0000001
 43
0.0000001
 44
0.0000000001
 12
-0.0000053732
 22
-0.0031177234
 32
0.0
 13
-0.0019810057
 23
-0.002407456
 33
0.0
 40
0.0
 40
0.0
 40
0.0
 40
0.0
 40
1.0
 40
1.0
 40
1.0
 40
1.0
 10
4.5284035144
 20
17.2239120932
 30
0.0
 10
4.5284017233
 20
17.2228728521
 30
0.0
 10
4.5280086174
 20
17.2217808586
 30
0.0
 10
4.5273482822
 20
17.2209783733
 30
0.0
 11
4.5284035144
 21
17.2239120932
 31
0.0
 11
4.5273482822
 21
17.2209783733
 31
0.0
  0
SPLINE
  5
445
100
AcDbEntity
  8
DRAFT
100
AcDbSpline
 62
7
  6
CONTINUOUS
 70
0
 71
3
 72
21
 73
17
 74
15
 42
0.0000001
 43
0.0000001
 44
0.0000000001
 12
1.0424312071
 22
0.7710657847
 32
0.0
 13
-1.1660508471
 23
-0.5670367605
 33
0.0
 40
0.0
 40
0.0
 40
0.0
 40
0.0
 40
0.0479070936
 40
0.0995912922
 40
0.1564074931
 40
0.218746567
 40
0.2862185701
 40
0.3578617589
 40
0.5077640393
 40
0.6559066915
 40
0.7254936722
 40
0.7903416727
 40
0.8497664181
 40
0.9037649333
 40
0.9532214051
 40
1.0
 40
1.0
 40
1.0
 40
1.0
 10
9.2805337853
 20
-15.7950472648
 30
0.0
 10
9.2971804017
 20
-15.7827340912
 30
0.0
 10
9.3278721271
 20
-15.7515287926
 30
0.0
 10
9.3607903291
 20
-15.6917355742
 30
0.0
 10
9.3812135856
 20
-15.6202380609
 30
0.0
 10
9.388730508
 20
-15.5395483597
 30
0.0
 10
9.3832799888
 20
-15.4523405207
 30
0.0
 10
9.3586569484
 20
-15.3295622935
 30
0.0
 10
9.2985494648
 20
-15.1798844225
 30
0.0
 10
9.2072300581
 20
-15.047888307
 30
0.0
 10
9.1194750909
 20
-14.9624534262
 30
0.0
 10
9.0513381929
 20
-14.9131002562
 30
0.0
 10
8.9818072802
 20
-14.8788976059
 30
0.0
 10
8.9130386202
 20
-14.8612060014
 30
0.0
 10
8.847333845
 20
-14.8610826378
 30
0.0
 10
8.806791228
 20
-14.8733752937
 30
0.0
 10
8.7886091545
 20
-14.8822170213
 30
0.0
 11
9.2805337853
 21
-15.7950472648
 31
0.0
 11
9.3244563196
 21
-15.7511231516
 31
0.0
 11
9.357471847
 21
-15.6928058706
 31
0.0
 11
9.378405846
 21
-15.6221741927
 31
0.0
 11
9.3865079966
 21
-15.5417516334
 31
0.0
 11
9.381490249
 21
-15.4544105734
 31
0.0
 11
9.3635312268
 21
-15.3632696168
 31
0.0
 11
9.2917938906
 21
-15.1826274204
 31
0.0
 11
9.1814521725
 21
-15.0253987698
 31
0.0
 11
9.1165293263
 21
-14.9627409308
 31
0.0
 11
9.0481274429
 21
-14.9138421277
 31
0.0
 11
8.9786891195
 21
-14.8804481159
 31
0.0
 11
8.9106940718
 21
-14.8637508577
 31
0.0
 11
8.8465709469
 21
-14.8643478832
 31
0.0
 11
8.7886091545
 21
-14.8822170213
 31
0.0
  0
SPLINE
  5
446
100
AcDbEntity
  8
ASSI
100
AcDbSpline
 62
7
  6
CONTINUOUS
 70
0
 71
3
 72
9
 73
5
 74
3
 42
0.0000001
 43
0.0000001
 44
0.0000000001
 12
-0.0502723709
 22
-0.0161727928
 32
0.0
 13
-0.0473687191
 23
-0.0233468405
 33
0.0
 40
0.0
 40
0.0
 40
0.0
 40
0.0
 40
0.2435111511
 40
1.0
 40
1.0
 40
1.0
 40
1.0
 10
4.2263588048
 20
22.0810105941
 30
0.0
 10
4.2222781771
 20
22.0796978423
 30
0.0
 10
4.2056284061
 20
22.0739748635
 30
0.0
 10
4.1894274092
 20
22.0669692352
 30
0.0
 10
4.1774827733
 20
22.061082027
 30
0.0
 11
4.2263588048
 21
22.0810105941
 31
0.0
 11
4.2141959786
 21
22.0768345659
 31
0.0
 11
4.1774827733
 21
22.061082027
 31
0.0
  0
SPLINE
  5
447
100
AcDbEntity
  8
ASSI
100
AcDbSpline
 62
7
  6
CONTINUOUS
 70
0
 71
3
 72
9
 73
5
 74
3
 42
0.0000001
 43
0.0000001
 44
0.0000000001
 12
-0.0000282459
 22
0.0132944178
 32
0.0
 13
-0.0119051738
 23
0.0059168555
 33
0.0
 40
0.0
 40
0.0
 40
0.0
 40
0.0
 40
0.4881036285
 40
1.0
 40
1.0
 40
1.0
 40
1.0
 10
-0.5980390392
 20
24.5654837583
 30
0.0
 10
-0.5980436348
 20
24.5676467762
 30
0.0
 10
-0.5990810373
 20
24.5722729327
 30
0.0
 10
-0.6028199855
 20
24.5751940971
 30
0.0
 10
-0.6048513906
 20
24.5762037027
 30
0.0
 11
-0.5980390392
 21
24.5654837583
 31
0.0
 11
-0.5996999848
 21
24.5717566576
 31
0.0
 11
-0.6048513906
 21
24.5762037027
 31
0.0
  0
SPLINE
  5
448
100
AcDbEntity
  8
ASSI
100
AcDbSpline
 62
7
  6
CONTINUOUS
 70
0
 71
3
 72
9
 73
5
 74
3
 42
0.0000001
 43
0.0000001
 44
0.0000000001
 12
-0.0000238058
 22
0.0133037541
 32
0.0
 13
-0.0119149986
 23
0.0059180442
 33
0.0
 40
0.0
 40
0.0
 40
0.0
 40
0.0
 40
0.4881017562
 40
1.0
 40
1.0
 40
1.0
 40
1.0
 10
4.9569493617
 20
21.7879844265
 30
0.0
 10
4.9569454885
 20
21.7901489551
 30
0.0
 10
4.9559086058
 20
21.7947790459
 30
0.0
 10
4.952166075
 20
21.7977016923
 30
0.0
 10
4.9501329861
 20
21.7987115044
 30
0.0
 11
4.9569493617
 21
21.7879844265
 31
0.0
 11
4.9552886774
 21
21.7942620788
 31
0.0
 11
4.9501329861
 21
21.7987115044
 31
0.0
  0
SPLINE
  5
449
100
AcDbEntity
  8
DRAFT
100
AcDbSpline
 62
7
  6
CONTINUOUS
 70
0
 71
3
 72
14
 73
10
 74
8
 42
0.0000001
 43
0.0000001
 44
0.0000000001
 12
0.63419669
 22
0.3258683945
 32
0.0
 13
-0.3553347992
 23
0.6181689353
 33
0.0
 40
0.0
 40
0.0
 40
0.0
 40
0.0
 40
0.093309443
 40
0.1929195438
 40
0.3029556392
 40
0.4249932807
 40
0.5584336506
 40
0.7010973128
 40
1.0
 40
1.0
 40
1.0
 40
1.0
 10
9.2534364741
 20
17.9631011696
 30
0.0
 10
9.2731619874
 20
17.9732367024
 30
0.0
 10
9.310506651
 20
18.0015560313
 30
0.0
 10
9.3517404997
 20
18.061780041
 30
0.0
 10
9.3780339917
 20
18.1368847146
 30
0.0
 10
9.3888968236
 20
18.2235978075
 30
0.0
 10
9.3842173675
 20
18.3185340361
 30
0.0
 10
9.3572649012
 20
18.4528489132
 30
0.0
 10
9.315937294
 20
18.5509991506
 30
0.0
 10
9.2805337853
 20
18.6125899359
 30
0.0
 11
9.2534364741
 21
17.9631011696
 31
0.0
 11
9.3066932631
 21
18.0029777107
 31
0.0
 11
9.3476316896
 21
18.0610159259
 31
0.0
 11
9.3744972535
 21
18.1347306917
 31
0.0
 11
9.3861402835
 21
18.220963347
 31
0.0
 11
9.3820608295
 21
18.3160213292
 31
0.0
 11
9.3624349018
 21
18.4158319462
 31
0.0
 11
9.2805337853
 21
18.6125899359
 31
0.0
  0
SPLINE
  5
44A
100
AcDbEntity
  8
RACCORDO
100
AcDbSpline
 62
7
  6
CONTINUOUS
 70
0
 71
3
 72
10
 73
6
 74
4
 42
0.0000001
 43
0.0000001
 44
0.0000000001
 12
-0.0794469925
 22
0.1899186778
 32
0.0
 13
-0.1840319816
 23
0.0922667792
 33
0.0
 40
0.0
 40
0.0
 40
0.0
 40
0.0
 40
0.4687906941
 40
0.7284712922
 40
1.0
 40
1.0
 40
1.0
 40
1.0
 10
7.2725802961
 20
-14.4051082058
 30
0.0
 10
7.2601656259
 20
-14.3754308362
 30
0.0
 10
7.2272947524
 20
-14.3350408964
 30
0.0
 10
7.1727749373
 20
-14.2934995396
 30
0.0
 10
7.140992136
 20
-14.2753268353
 30
0.0
 10
7.1243354806
 20
-14.2669758089
 30
0.0
 11
7.2725802961
 21
-14.4051082058
 31
0.0
 11
7.2150242609
 21
-14.3276412094
 31
0.0
 11
7.1727466651
 21
-14.2949223923
 31
0.0
 11
7.1243354806
 21
-14.2669758089
 31
0.0
  0
SPLINE
  5
44B
100
AcDbEntity
  8
ASSI
100
AcDbSpline
 62
7
  6
CONTINUOUS
 70
0
 71
3
 72
11
 73
7
 74
5
 42
0.0000001
 43
0.0000001
 44
0.0000000001
 12
0.2230926208
 22
0.0717696553
 32
0.0
 13
0.2096565956
 23
-0.1047153896
 33
0.0
 40
0.0
 40
0.0
 40
0.0
 40
0.0
 40
0.2281620518
 40
0.4713410479
 40
0.7293701433
 40
1.0
 40
1.0
 40
1.0
 40
1.0
 10
4.2263588048
 20
22.0810105941
 30
0.0
 10
4.2433258948
 20
22.0864689647
 30
0.0
 10
4.2801420842
 20
22.0926137807
 30
0.0
 10
4.3373577231
 20
22.0885045423
 30
0.0
 10
4.395928694
 20
22.0730843882
 30
0.0
 10
4.4340121249
 20
22.0567617599
 30
0.0
 10
4.4529252364
 20
22.0473153896
 30
0.0
 11
4.2263588048
 21
22.0810105941
 31
0.0
 11
4.2790062094
 21
22.0903558803
 31
0.0
 11
4.3358907317
 21
22.0868957393
 31
0.0
 11
4.3944879631
 21
22.071963764
 31
0.0
 11
4.4529252364
 21
22.0473153896
 31
0.0
  0
SPLINE
  5
44C
100
AcDbEntity
  8
ASSI
100
AcDbSpline
 62
7
  6
CONTINUOUS
 70
0
 71
3
 72
11
 73
7
 74
5
 42
0.0000001
 43
0.0000001
 44
0.0000000001
 12
0.222019678
 22
0.0689784695
 32
0.0
 13
0.2079932826
 23
-0.103872812
 33
0.0
 40
0.0
 40
0.0
 40
0.0
 40
0.0
 40
0.2283694312
 40
0.4716456017
 40
0.7295971459
 40
1.0
 40
1.0
 40
1.0
 40
1.0
 10
-1.3268639384
 20
24.8590630834
 30
0.0
 10
-1.3099631026
 20
24.8643139414
 30
0.0
 10
-1.2733830872
 20
24.8701204302
 30
0.0
 10
-1.2166345437
 20
24.865792288
 30
0.0
 10
-1.1585823725
 20
24.8503827461
 30
0.0
 10
-1.1208332927
 20
24.8341834826
 30
0.0
 10
-1.102085967
 20
24.824820981
 30
0.0
 11
-1.3268639384
 21
24.8590630834
 31
0.0
 11
-1.2745146374
 21
24.8679196367
 31
0.0
 11
-1.2180768089
 21
24.8642218013
 31
0.0
 11
-1.1599959939
 21
24.8492851736
 31
0.0
 11
-1.102085967
 21
24.824820981
 31
0.0
  0
SPLINE
  5
44D
100
AcDbEntity
  8
RACCORDO
100
AcDbSpline
 62
7
  6
CONTINUOUS
 70
0
 71
3
 72
9
 73
5
 74
3
 42
0.0000001
 43
0.0000001
 44
0.0000000001
 12
-0.0110813789
 22
-0.0399300568
 32
0.0
 13
0.0000244733
 23
-0.0414391819
 33
0.0
 40
0.0
 40
0.0
 40
0.0
 40
0.0
 40
0.2273205054
 40
1.0
 40
1.0
 40
1.0
 40
1.0
 10
-7.2071341997
 20
21.9152905955
 30
0.0
 10
-7.2079738746
 20
21.9122649553
 30
0.0
 10
-7.2110350055
 20
21.8987794761
 30
0.0
 10
-7.211962429
 20
21.8848805013
 30
0.0
 10
-7.2119561256
 20
21.8742074326
 30
0.0
 11
-7.2071341997
 21
21.9152905955
 31
0.0
 11
-7.2092553317
 21
21.9061125362
 31
0.0
 11
-7.2119561256
 21
21.8742074326
 31
0.0
  0
SPLINE
  5
44E
100
AcDbEntity
  8
RACCORDO
100
AcDbSpline
 62
7
  6
CONTINUOUS
 70
0
 71
3
 72
12
 73
8
 74
6
 42
0.0000001
 43
0.0000001
 44
0.0000000001
 12
0.0
 22
0.6302437779
 32
0.0
 13
-0.5636992723
 23
0.2818693847
 33
0.0
 40
0.0
 40
0.0
 40
0.0
 40
0.0
 40
0.28949564
 40
0.549117431
 40
0.7821793802
 40
0.8921648087
 40
1.0
 40
1.0
 40
1.0
 40
1.0
 10
1.7005521605
 20
23.6560959201
 30
0.0
 10
1.7005521605
 20
23.7169135287
 30
0.0
 10
1.6907027532
 20
23.8327261552
 30
0.0
 10
1.6413510063
 20
23.9910415153
 30
0.0
 10
1.5707785663
 20
24.098880573
 30
0.0
 10
1.5000810225
 20
24.1625619759
 30
0.0
 10
1.4609350627
 20
24.1868304228
 30
0.0
 10
1.4406728564
 20
24.1969622358
 30
0.0
 11
1.7005521605
 21
23.6560959201
 31
0.0
 11
1.6832747228
 21
23.8377288571
 31
0.0
 11
1.6322869003
 21
23.9932067931
 31
0.0
 11
1.5500805257
 21
24.1149342056
 31
0.0
 11
1.4984710843
 21
24.1612094653
 31
0.0
 11
1.4406728564
 21
24.1969622358
 31
0.0
  0
SPLINE
  5
44F
100
AcDbEntity
  8
RACCORDO
100
AcDbSpline
 62
7
  6
CONTINUOUS
 70
0
 71
3
 72
11
 73
7
 74
5
 42
0.0000001
 43
0.0000001
 44
0.0000000001
 12
0.4104598159
 22
0.2008428369
 32
0.0
 13
0.4087143287
 23
-0.2043714832
 33
0.0
 40
0.0
 40
0.0
 40
0.0
 40
0.0
 40
0.2787325875
 40
0.5346772883
 40
0.772449667
 40
1.0
 40
1.0
 40
1.0
 40
1.0
 10
5.94936344
 20
21.6967465197
 30
0.0
 10
5.9874996155
 20
21.7154070009
 30
0.0
 10
6.0637306051
 20
21.7454934504
 30
0.0
 10
6.1803998079
 20
21.7665476246
 30
0.0
 10
6.291207959
 20
21.7604352303
 30
0.0
 10
6.3594192975
 20
21.7375901014
 30
0.0
 10
6.3904203247
 20
21.7220885017
 30
0.0
 11
5.94936344
 21
21.6967465197
 31
0.0
 11
6.0682094471
 21
21.742559832
 31
0.0
 11
6.1834884102
 21
21.7623020671
 31
0.0
 11
6.291922969
 21
21.7554132738
 31
0.0
 11
6.3904203247
 21
21.7220885017
 31
0.0
  0
SPLINE
  5
450
100
AcDbEntity
  8
RACCORDO
100
AcDbSpline
 62
253
  6
CONTINUOUS
 70
0
 71
3
 72
11
 73
7
 74
5
 42
0.0000001
 43
0.0000001
 44
0.0000000001
 12
-0.1026843425
 22
0.0513470616
 32
0.0
 13
-0.1029781233
 23
-0.0507553057
 33
0.0
 40
0.0
 40
0.0
 40
0.0
 40
0.0
 40
0.2274030322
 40
0.4651083369
 40
0.721100729
 40
1.0
 40
1.0
 40
1.0
 40
1.0
 10
-8.9741113639
 20
24.5650911159
 30
0.0
 10
-8.9818949408
 20
24.5689832751
 30
0.0
 10
-8.9990305521
 20
24.5747091355
 30
0.0
 10
-9.0268678417
 20
24.5761964159
 30
0.0
 10
-9.0561736066
 20
24.5708355441
 30
0.0
 10
-9.0753126673
 20
24.5632200606
 30
0.0
 10
-9.0848861752
 20
24.5585015213
 30
0.0
 11
-8.9741113639
 21
24.5650911159
 31
0.0
 11
-8.9988468639
 21
24.5734428699
 31
0.0
 11
-9.0260849349
 21
24.5751284997
 31
0.0
 11
-9.0550412692
 21
24.570100296
 31
0.0
 11
-9.0848861752
 21
24.5585015213
 31
0.0
  0
SPLINE
  5
451
100
AcDbEntity
  8
RACCORDO
100
AcDbSpline
 62
7
  6
CONTINUOUS
 70
0
 71
3
 72
9
 73
5
 74
3
 42
0.0000001
 43
0.0000001
 44
0.0000000001
 12
-0.0045884295
 22
-0.005576179
 32
0.0
 13
-0.0070425727
 23
-0.0015967554
 33
0.0
 40
0.0
 40
0.0
 40
0.0
 40
0.0
 40
0.2030518491
 40
1.0
 40
1.0
 40
1.0
 40
1.0
 10
4.5273482822
 20
17.2209783733
 30
0.0
 10
4.5270377191
 20
17.2206009555
 30
0.0
 10
4.5252363838
 20
17.2189638884
 30
0.0
 10
4.5228257977
 20
17.2182169724
 30
0.0
 10
4.5209549426
 20
17.2177927953
 30
0.0
 11
4.5273482822
 21
17.2209783733
 31
0.0
 11
4.5262810708
 21
17.2199728374
 31
0.0
 11
4.5209549426
 21
17.2177927953
 31
0.0
  0
SPLINE
  5
452
100
AcDbEntity
  8
RACCORDO
100
AcDbSpline
 62
7
  6
CONTINUOUS
 70
0
 71
3
 72
10
 73
6
 74
4
 42
0.0000001
 43
0.0000001
 44
0.0000000001
 12
-0.0637071508
 22
-0.0144442584
 32
0.0
 13
-0.0639880993
 23
0.0131438506
 33
0.0
 40
0.0
 40
0.0
 40
0.0
 40
0.0
 40
0.1603023149
 40
0.3823106963
 40
1.0
 40
1.0
 40
1.0
 40
1.0
 10
4.5209549426
 20
17.2177927953
 30
0.0
 10
4.517550808
 20
17.2170209793
 30
0.0
 10
4.5091618729
 20
17.2165456207
 30
0.0
 10
4.4874380631
 20
17.2179331929
 30
0.0
 10
4.4693806145
 20
17.2212151116
 30
0.0
 10
4.4562056929
 20
17.2239213836
 30
0.0
 11
4.5209549426
 21
17.2177927953
 31
0.0
 11
4.5105305853
 21
17.2167991834
 31
0.0
 11
4.4960466211
 21
17.2175321252
 31
0.0
 11
4.4562056929
 21
17.2239213836
 31
0.0
  0
SPLINE
  5
453
100
AcDbEntity
  8
RACCORDO
100
AcDbSpline
 62
253
  6
CONTINUOUS
 70
0
 71
3
 72
14
 73
10
 74
8
 42
0.0000001
 43
0.0000001
 44
0.0000000001
 12
-2.9748670207
 22
-1.5697241866
 32
0.0
 13
-3.0085064599
 23
1.5042462209
 33
0.0
 40
0.0
 40
0.0
 40
0.0
 40
0.0
 40
0.1124930246
 40
0.2262936805
 40
0.3428014328
 40
0.4632395857
 40
0.5885995936
 40
0.7196169508
 40
1.0
 40
1.0
 40
1.0
 40
1.0
 10
-6.4853055976
 20
-9.3697435494
 30
0.0
 10
-6.5968561939
 20
-9.4286045565
 30
0.0
 10
-6.830178525
 20
-9.5309007312
 30
0.0
 10
-7.2018008479
 20
-9.6336465982
 30
0.0
 10
-7.5928497925
 20
-9.6854200004
 30
0.0
 10
-8.0001203712
 20
-9.6860041584
 30
0.0
 10
-8.4205804688
 20
-9.6356456732
 30
0.0
 10
-9.0074705196
 20
-9.4983690912
 30
0.0
 10
-9.4384379723
 20
-9.3242632522
 30
0.0
 10
-9.7196160438
 20
-9.1836748715
 30
0.0
 11
-6.4853055976
 21
-9.3697435494
 31
0.0
 11
-6.8317949416
 21
-9.5217912978
 31
0.0
 11
-7.2005997699
 21
-9.6242815604
 31
0.0
 11
-7.5889949503
 21
-9.6764760337
 31
0.0
 11
-7.9940989255
 21
-9.6780144082
 31
0.0
 11
-8.412892856
 21
-9.6289169004
 31
0.0
 11
-8.8422428464
 21
-9.5295824876
 31
0.0
 11
-9.7196160438
 21
-9.1836748715
 31
0.0
  0
SPLINE
  5
454
100
AcDbEntity
  8
RACCORDO
100
AcDbSpline
 62
253
  6
CONTINUOUS
 70
0
 71
3
 72
11
 73
7
 74
5
 42
0.0000001
 43
0.0000001
 44
0.0000000001
 12
-0.0000013331
 22
-0.1191821839
 32
0.0
 13
-0.1063496853
 23
-0.0537971877
 33
0.0
 40
0.0
 40
0.0
 40
0.0
 40
0.0
 40
0.2069628811
 40
0.4350650041
 40
0.6978063725
 40
1.0
 40
1.0
 40
1.0
 40
1.0
 10
-8.8359146165
 20
23.9939530967
 30
0.0
 10
-8.8359147085
 20
23.9857310007
 30
0.0
 10
-8.8395138328
 20
23.9683150979
 30
0.0
 10
-8.8545632094
 20
23.9445198395
 30
0.0
 10
-8.8780401554
 20
23.9231080538
 30
0.0
 10
-8.8973997391
 20
23.9114995216
 30
0.0
 10
-8.9081124715
 20
23.9060804658
 30
0.0
 11
-8.8359146165
 21
23.9939530967
 31
0.0
 11
-8.8406478037
 21
23.9697451908
 31
0.0
 11
-8.8546681123
 21
23.9464536959
 31
0.0
 11
-8.8774422449
 21
23.9249615782
 31
0.0
 11
-8.9081124715
 21
23.9060804658
 31
0.0
  0
SPLINE
  5
455
100
AcDbEntity
  8
RACCORDO
100
AcDbSpline
 62
253
  6
CONTINUOUS
 70
0
 71
3
 72
10
 73
6
 74
4
 42
0.0000001
 43
0.0000001
 44
0.0000000001
 12
-0.1024112416
 22
0.0511996911
 32
0.0
 13
-0.1026999059
 23
-0.0506181795
 33
0.0
 40
0.0
 40
0.0
 40
0.0
 40
0.0
 40
0.2280031354
 40
0.4663370619
 40
1.0
 40
1.0
 40
1.0
 40
1.0
 10
4.3901996988
 20
17.8829355851
 30
0.0
 10
4.3824163374
 20
17.8868268151
 30
0.0
 10
4.3652754813
 20
17.8925496002
 30
0.0
 10
4.326815724
 20
17.8946139972
 30
0.0
 10
4.2977010338
 20
17.8853467879
 30
0.0
 10
4.2794319893
 20
17.8763424391
 30
0.0
 11
4.3901996988
 21
17.8829355851
 31
0.0
 11
4.3654653163
 21
17.8912849441
 31
0.0
 11
4.3382289166
 21
17.8929691616
 31
0.0
 11
4.2794319893
 21
17.8763424391
 31
0.0
  0
SPLINE
  5
456
100
AcDbEntity
  8
RACCORDO
100
AcDbSpline
 62
253
  6
CONTINUOUS
 70
0
 71
3
 72
11
 73
7
 74
5
 42
0.0000001
 43
0.0000001
 44
0.0000000001
 12
-0.0000013698
 22
-0.1191821853
 32
0.0
 13
-0.1063496865
 23
-0.0537971883
 33
0.0
 40
0.0
 40
0.0
 40
0.0
 40
0.0
 40
0.2069627866
 40
0.4350648202
 40
0.69780603
 40
1.0
 40
1.0
 40
1.0
 40
1.0
 10
4.5284035478
 20
17.6593255325
 30
0.0
 10
4.5284034533
 20
17.6511034401
 30
0.0
 10
4.5248043366
 20
17.6336875443
 30
0.0
 10
4.5097549691
 20
17.6098922954
 30
0.0
 10
4.4862780292
 20
17.5884804976
 30
0.0
 10
4.4669184376
 20
17.5768719623
 30
0.0
 10
4.4562056929
 20
17.5714529003
 30
0.0
 11
4.5284035478
 21
17.6593255325
 31
0.0
 11
4.5236703649
 21
17.6351176369
 31
0.0
 11
4.5096500658
 21
17.6118261484
 31
0.0
 11
4.4868759533
 21
17.5903340365
 31
0.0
 11
4.4562056929
 21
17.5714529003
 31
0.0
  0
SPLINE
  5
457
100
AcDbEntity
  8
RACCORDO
100
AcDbSpline
 62
253
  6
CONTINUOUS
 70
0
 71
3
 72
11
 73
7
 74
5
 42
0.0000001
 43
0.0000001
 44
0.0000000001
 12
-0.1026843522
 22
0.0513470349
 32
0.0
 13
-0.1029781204
 23
-0.0507553043
 33
0.0
 40
0.0
 40
0.0
 40
0.0
 40
0.0
 40
0.2274032722
 40
0.4651087917
 40
0.721101419
 40
1.0
 40
1.0
 40
1.0
 40
1.0
 10
3.0528806378
 20
18.5515951139
 30
0.0
 10
3.0450970519
 20
18.5554872751
 30
0.0
 10
3.0279614234
 20
18.5612131386
 30
0.0
 10
3.000124107
 20
18.5627004107
 30
0.0
 10
2.9708183544
 20
18.5573395268
 30
0.0
 10
2.9516793126
 20
18.5497240469
 30
0.0
 10
2.9421058287
 20
18.5450055194
 30
0.0
 11
3.0528806378
 21
18.5515951139
 31
0.0
 11
3.0281451105
 21
18.5599468712
 31
0.0
 11
3.0009070152
 21
18.5616324933
 31
0.0
 11
2.9719506574
 21
18.5566042718
 31
0.0
 11
2.9421058287
 21
18.5450055194
 31
0.0
  0
SPLINE
  5
458
100
AcDbEntity
  8
RACCORDO
100
AcDbSpline
 62
253
  6
CONTINUOUS
 70
0
 71
3
 72
11
 73
7
 74
5
 42
0.0000001
 43
0.0000001
 44
0.0000000001
 12
-0.0000014429
 22
-0.119182188
 32
0.0
 13
-0.1063496889
 23
-0.0537971895
 33
0.0
 40
0.0
 40
0.0
 40
0.0
 40
0.0
 40
0.2069627842
 40
0.4350648191
 40
0.6978060254
 40
1.0
 40
1.0
 40
1.0
 40
1.0
 10
-8.8359146169
 20
24.341484618
 30
0.0
 10
-8.8359147164
 20
24.3332625255
 30
0.0
 10
-8.8395138252
 20
24.3158466293
 30
0.0
 10
-8.8545631951
 20
24.2920513793
 30
0.0
 10
-8.8780401338
 20
24.2706395801
 30
0.0
 10
-8.8973997264
 20
24.2590310447
 30
0.0
 10
-8.9081124715
 20
24.2536119825
 30
0.0
 11
-8.8359146169
 21
24.341484618
 31
0.0
 11
-8.8406477993
 21
24.317276722
 31
0.0
 11
-8.8546680978
 21
24.2939852323
 31
0.0
 11
-8.8774422099
 21
24.2724931194
 31
0.0
 11
-8.9081124715
 21
24.2536119825
 31
0.0
  0
SPLINE
  5
459
100
AcDbEntity
  8
RACCORDO
100
AcDbSpline
 62
253
  6
CONTINUOUS
 70
0
 71
3
 72
11
 73
7
 74
5
 42
0.0000001
 43
0.0000001
 44
0.0000000001
 12
-0.1026843425
 22
0.0513470616
 32
0.0
 13
-0.1029781233
 23
-0.0507553057
 33
0.0
 40
0.0
 40
0.0
 40
0.0
 40
0.0
 40
0.2274030322
 40
0.4651083369
 40
0.721100729
 40
1.0
 40
1.0
 40
1.0
 40
1.0
 10
-10.3114375244
 20
25.2337541962
 30
0.0
 10
-10.3192211014
 20
25.2376463554
 30
0.0
 10
-10.3363567127
 20
25.2433722158
 30
0.0
 10
-10.3641940022
 20
25.2448594962
 30
0.0
 10
-10.3934997671
 20
25.2394986244
 30
0.0
 10
-10.4126388279
 20
25.2318831409
 30
0.0
 10
-10.4222123357
 20
25.2271646016
 30
0.0
 11
-10.3114375244
 21
25.2337541962
 31
0.0
 11
-10.3361730245
 21
25.2421059502
 31
0.0
 11
-10.3634110954
 21
25.24379158
 31
0.0
 11
-10.3923674298
 21
25.2387633763
 31
0.0
 11
-10.4222123357
 21
25.2271646016
 31
0.0
  0
SPLINE
  5
45A
100
AcDbEntity
  8
RACCORDO
100
AcDbSpline
 62
7
  6
CONTINUOUS
 70
0
 71
3
 72
9
 73
5
 74
3
 42
0.0000001
 43
0.0000001
 44
0.0000000001
 12
-0.002538013
 22
-0.1025524478
 32
0.0
 13
0.0499345168
 23
-0.089610212
 33
0.0
 40
0.0
 40
0.0
 40
0.0
 40
0.0
 40
0.486987039
 40
1.0
 40
1.0
 40
1.0
 40
1.0
 10
-3.3598704943
 20
6.809348402
 30
0.0
 10
-3.3602824875
 20
6.7927011643
 30
0.0
 10
-3.354331478
 20
6.7583719536
 30
0.0
 10
-3.3406646287
 20
6.7267818788
 30
0.0
 10
-3.3321256106
 20
6.7114581454
 30
0.0
 11
-3.3598704943
 21
6.809348402
 31
0.0
 11
-3.3526564979
 21
6.7599150065
 31
0.0
 11
-3.3321256106
 21
6.7114581454
 31
0.0
  0
SPLINE
  5
45B
100
AcDbEntity
  8
RACCORDO
100
AcDbSpline
 62
253
  6
CONTINUOUS
 70
0
 71
3
 72
11
 73
7
 74
5
 42
0.0000001
 43
0.0000001
 44
0.0000000001
 12
0.0080824386
 22
-0.2406814809
 32
0.0
 13
0.2153202583
 23
-0.1078428832
 33
0.0
 40
0.0
 40
0.0
 40
0.0
 40
0.0
 40
0.2116061877
 40
0.4417969087
 40
0.7029588134
 40
1.0
 40
1.0
 40
1.0
 40
1.0
 10
-17.5800475267
 20
-17.0607297086
 30
0.0
 10
-17.5794774287
 20
-17.0777062721
 30
0.0
 10
-17.5714158592
 20
-17.113176699
 30
0.0
 10
-17.5407147097
 20
-17.1615051987
 30
0.0
 10
-17.4936003982
 20
-17.204574687
 30
0.0
 10
-17.4549038749
 20
-17.227698742
 30
0.0
 10
-17.4335842132
 20
-17.238376668
 30
0.0
 11
-17.5800475267
 21
-17.0607297086
 31
0.0
 11
-17.5691778929
 21
-17.1105153446
 31
0.0
 11
-17.5403326601
 21
-17.1578531406
 31
0.0
 11
-17.4945759967
 21
-17.2010013146
 31
0.0
 11
-17.4335842132
 21
-17.238376668
 31
0.0
  0
SPLINE
  5
45C
100
AcDbEntity
  8
ASSI
100
AcDbSpline
 62
7
  6
CONTINUOUS
 70
0
 71
3
 72
9
 73
5
 74
3
 42
0.0000001
 43
0.0000001
 44
0.0000000001
 12
-0.0502723709
 22
-0.0161727928
 32
0.0
 13
-0.0473687191
 23
-0.0233468405
 33
0.0
 40
0.0
 40
0.0
 40
0.0
 40
0.0
 40
0.2435111511
 40
1.0
 40
1.0
 40
1.0
 40
1.0
 10
-0.7233886635
 20
24.5558843283
 30
0.0
 10
-0.7274692912
 20
24.5545715765
 30
0.0
 10
-0.7441190622
 20
24.5488485977
 30
0.0
 10
-0.7603200591
 20
24.5418429694
 30
0.0
 10
-0.772264695
 20
24.5359557612
 30
0.0
 11
-0.7233886635
 21
24.5558843283
 31
0.0
 11
-0.7355514897
 21
24.5517083
 31
0.0
 11
-0.772264695
 21
24.5359557612
 31
0.0
  0
SPLINE
  5
45D
100
AcDbEntity
  8
RACCORDO
100
AcDbSpline
 62
253
  6
CONTINUOUS
 70
0
 71
3
 72
11
 73
7
 74
5
 42
0.0000001
 43
0.0000001
 44
0.0000000001
 12
-0.0077504901
 22
-0.2396094505
 32
0.0
 13
0.2145031388
 23
-0.1070568182
 33
0.0
 40
0.0
 40
0.0
 40
0.0
 40
0.0
 40
0.2010443519
 40
0.4266191137
 40
0.6914786763
 40
1.0
 40
1.0
 40
1.0
 40
1.0
 10
-17.5800665462
 20
18.5518975928
 30
0.0
 10
-17.5805859436
 20
18.5358402172
 30
0.0
 10
-17.5739118773
 20
18.501243973
 30
0.0
 10
-17.543433204
 20
18.4540454866
 30
0.0
 10
-17.4953494386
 20
18.4112395359
 30
0.0
 10
-17.4556438107
 20
18.38787297
 30
0.0
 10
-17.4335842132
 20
18.3768631996
 30
0.0
 11
-17.5800665462
 21
18.5518975928
 31
0.0
 11
-17.5716017861
 21
18.5044494149
 31
0.0
 11
-17.5434937641
 21
18.4582500489
 31
0.0
 11
-17.4968680857
 21
18.4151479151
 31
0.0
 11
-17.4335842132
 21
18.3768631996
 31
0.0
  0
SPLINE
  5
45E
100
AcDbEntity
  8
RACCORDO
100
AcDbSpline
 62
253
  6
CONTINUOUS
 70
0
 71
3
 72
11
 73
7
 74
5
 42
0.0000001
 43
0.0000001
 44
0.0000000001
 12
0.2049338468
 22
0.094550905
 32
0.0
 13
0.2033259115
 23
-0.0979608539
 33
0.0
 40
0.0
 40
0.0
 40
0.0
 40
0.0
 40
0.2234380475
 40
0.460502327
 40
0.718180723
 40
1.0
 40
1.0
 40
1.0
 40
1.0
 10
-16.6592769163
 20
20.145293568
 30
0.0
 10
-16.6440135768
 20
20.1523356578
 30
0.0
 10
-16.610329672
 20
20.1623808252
 30
0.0
 10
-16.5558277305
 20
20.1639973624
 30
0.0
 10
-16.498085582
 20
20.1528293468
 30
0.0
 10
-16.4601185903
 20
20.1378697745
 30
0.0
 10
-16.4410182032
 20
20.1286673555
 30
0.0
 11
-16.6592769163
 21
20.145293568
 31
0.0
 11
-16.6110290106
 21
20.1599627417
 31
0.0
 11
-16.5575662239
 21
20.1620616513
 31
0.0
 11
-16.5003706154
 21
20.1515338135
 31
0.0
 11
-16.4410182032
 21
20.1286673555
 31
0.0
  0
SPLINE
  5
45F
100
AcDbEntity
  8
ASSI
100
AcDbSpline
 62
7
  6
CONTINUOUS
 70
0
 71
3
 72
15
 73
11
 74
9
 42
0.0000001
 43
0.0000001
 44
0.0000000001
 12
-1.301960625
 22
0.6509803125
 32
0.0
 13
-1.301960625
 23
-0.6509803125
 33
0.0
 40
0.0
 40
0.0
 40
0.0
 40
0.0
 40
0.1125283668
 40
0.2354661251
 40
0.3658135196
 40
0.5
 40
0.6341864804
 40
0.7645338749
 40
0.8874716332
 40
1.0
 40
1.0
 40
1.0
 40
1.0
 10
-0.350057505
 20
21.6528840135
 30
0.0
 10
-0.3988933392
 20
21.6773019307
 30
0.0
 10
-0.5053195174
 20
21.7200866522
 30
0.0
 10
-0.6773363457
 20
21.7652700983
 30
0.0
 10
-0.8636219119
 20
21.7930989122
 30
0.0
 10
-1.0571642862
 20
21.8024912731
 30
0.0
 10
-1.2507066604
 20
21.7930989122
 30
0.0
 10
-1.4369922267
 20
21.7652700983
 30
0.0
 10
-1.609009055
 20
21.7200866522
 30
0.0
 10
-1.7154352331
 20
21.6773019307
 30
0.0
 10
-1.7642710674
 20
21.6528840135
 30
0.0
 11
-0.350057505
 21
21.6528840135
 31
0.0
 11
-0.501596104
 21
21.715066113
 31
0.0
 11
-0.6744811071
 21
21.7612703169
 31
0.0
 11
-0.8620739899
 21
21.7897232071
 31
0.0
 11
-1.0571642862
 21
21.7993303413
 31
0.0
 11
-1.2522545824
 21
21.7897232071
 31
0.0
 11
-1.4398474652
 21
21.7612703169
 31
0.0
 11
-1.6127324684
 21
21.715066113
 31
0.0
 11
-1.7642710674
 21
21.6528840135
 31
0.0
  0
SPLINE
  5
460
100
AcDbEntity
  8
RACCORDO
100
AcDbSpline
 62
253
  6
CONTINUOUS
 70
0
 71
3
 72
12
 73
8
 74
6
 42
0.0000001
 43
0.0000001
 44
0.0000000001
 12
-0.7517844461
 22
0.4220462427
 32
0.0
 13
-0.0291156278
 23
0.8616583804
 33
0.0
 40
0.0
 40
0.0
 40
0.0
 40
0.0
 40
0.1080239068
 40
0.2185537923
 40
0.4527531565
 40
0.7122173845
 40
1.0
 40
1.0
 40
1.0
 40
1.0
 10
-17.0724452186
 20
-17.9821056006
 30
0.0
 10
-17.0995154495
 20
-17.9669085727
 30
0.0
 10
-17.15176637
 20
-17.9314268544
 30
0.0
 10
-17.2463776388
 20
-17.8413925461
 30
0.0
 10
-17.3420548739
 20
-17.6933533344
 30
0.0
 10
-17.4127846921
 20
-17.4783308697
 30
0.0
 10
-17.4307912227
 20
-17.3210334355
 30
0.0
 10
-17.4335842132
 20
-17.238376668
 30
0.0
 11
-17.0724452186
 21
-17.9821056006
 31
0.0
 11
-17.1495597577
 21
-17.9298842311
 31
0.0
 11
-17.2187408901
 21
-17.8643495462
 31
0.0
 11
-17.3305161406
 21
-17.6961949518
 31
0.0
 11
-17.4031347349
 21
-17.4846129515
 31
0.0
 11
-17.4335842132
 21
-17.238376668
 31
0.0
  0
SPLINE
  5
461
100
AcDbEntity
  8
RACCORDO
100
AcDbSpline
 62
7
  6
CONTINUOUS
 70
0
 71
3
 72
9
 73
5
 74
3
 42
0.0000001
 43
0.0000001
 44
0.0000000001
 12
-4.8617890725
 22
-2.4521685526
 32
0.0
 13
-4.8612540019
 23
-2.4532291219
 33
0.0
 40
0.0
 40
0.0
 40
0.0
 40
0.0
 40
0.2499894528
 40
1.0
 40
1.0
 40
1.0
 40
1.0
 10
9.2805337853
 20
18.6125899359
 30
0.0
 10
8.8754017886
 20
18.4082511777
 30
0.0
 10
7.2548299732
 20
17.5908130023
 30
0.0
 10
5.6343513687
 20
16.7731900401
 30
0.0
 10
4.4190207773
 20
16.1598741347
 30
0.0
 11
9.2805337853
 21
18.6125899359
 31
0.0
 11
8.065155891
 21
17.9995377851
 31
0.0
 11
4.4190207773
 21
16.1598741347
 31
0.0
  0
LINE
  5
462
100
AcDbEntity
  8
DRAFT
100
AcDbLine
 62
7
  6
CONTINUOUS
 10
9.2805337853
 20
-15.7950472648
 11
5.5641582342
 21
-17.7020016786
  0
SPLINE
  5
463
100
AcDbEntity
  8
ASSI
100
AcDbSpline
 62
7
  6
CONTINUOUS
 70
0
 71
3
 72
9
 73
5
 74
3
 42
0.0000001
 43
0.0000001
 44
0.0000000001
 12
1.4121106314
 22
-0.9850008759
 32
0.0
 13
1.5336527134
 23
-0.7824273228
 33
0.0
 40
0.0
 40
0.0
 40
0.0
 40
0.0
 40
0.4873682333
 40
1.0
 40
1.0
 40
1.0
 40
1.0
 10
-0.3085582022
 20
21.4589292814
 30
0.0
 10
-0.0791522476
 20
21.2989099025
 30
0.0
 10
0.4044416067
 20
20.9888109126
 30
0.0
 10
0.9079309658
 20
20.7124680216
 30
0.0
 10
1.1699973325
 20
20.5787689879
 30
0.0
 11
-0.3085582022
 21
21.4589292814
 31
0.0
 11
0.3969500525
 21
21.0046631205
 31
0.0
 11
1.1699973325
 21
20.5787689879
 31
0.0
  0
SPLINE
  5
464
100
AcDbEntity
  8
RACCORDO
100
AcDbSpline
 62
253
  6
CONTINUOUS
 70
0
 71
3
 72
16
 73
12
 74
10
 42
0.0000001
 43
0.0000001
 44
0.0000000001
 12
-5.5285962026
 22
-3.018166048
 32
0.0
 13
-5.5303033513
 23
-3.0150368334
 33
0.0
 40
0.0
 40
0.0
 40
0.0
 40
0.0
 40
0.1245713595
 40
0.2491348069
 40
0.3114935169
 40
0.3739656875
 40
0.4991764408
 40
0.6245768868
 40
0.7499737523
 40
0.8751821649
 40
1.0
 40
1.0
 40
1.0
 40
1.0
 10
3.9512018731
 20
15.6942317434
 30
0.0
 10
3.7216336248
 20
15.5689060608
 30
0.0
 10
3.2624353177
 20
15.3184025937
 30
0.0
 10
2.6886252623
 20
15.0046005036
 30
0.0
 10
2.2286482342
 20
14.7543863593
 30
0.0
 10
1.7666987762
 20
14.5049589817
 30
0.0
 10
1.1872196618
 20
14.1946161013
 30
0.0
 10
0.4904285838
 20
13.8234869727
 30
0.0
 10
-0.2063073267
 20
13.4522651368
 30
0.0
 10
-0.9012274266
 20
13.0802355093
 30
0.0
 10
-1.3627062452
 20
12.8300015818
 30
0.0
 10
-1.5927997424
 20
12.7045581251
 30
0.0
 11
3.9512018731
 21
15.6942317434
 31
0.0
 11
3.2624859392
 21
15.3182751922
 31
0.0
 11
2.573849475
 21
14.9422770796
 31
0.0
 11
2.2287605034
 21
14.7546791195
 31
0.0
 11
1.8825372425
 21
14.5676743747
 31
0.0
 11
1.1874300019
 21
14.1950682777
 31
0.0
 11
0.4904304248
 21
13.8234675939
 31
0.0
 11
-0.206533479
 21
13.4518479385
 31
0.0
 11
-0.9016174346
 21
13.0792296105
 31
0.0
 11
-1.5927997424
 21
12.7045581251
 31
0.0
  0
SPLINE
  5
465
100
AcDbEntity
  8
RACCORDO
100
AcDbSpline
 62
253
  6
CONTINUOUS
 70
0
 71
3
 72
15
 73
11
 74
9
 42
0.0000001
 43
0.0000001
 44
0.0000000001
 12
0.0651272992
 22
1.9523054944
 32
0.0
 13
1.7079733476
 23
0.947926871
 33
0.0
 40
0.0
 40
0.0
 40
0.0
 40
0.0
 40
0.1202583714
 40
0.2469379718
 40
0.377692068
 40
0.5098546026
 40
0.640655182
 40
0.7674248666
 40
0.8878084183
 40
1.0
 40
1.0
 40
1.0
 40
1.0
 10
-16.6999770318
 20
18.0765318833
 30
0.0
 10
-16.6973663308
 20
18.1547922431
 30
0.0
 10
-16.6798596431
 20
18.315236762
 30
0.0
 10
-16.621853242
 20
18.554815448
 30
0.0
 10
-16.5332331483
 20
18.793126789
 30
0.0
 10
-16.4169466051
 20
19.0222089069
 30
0.0
 10
-16.2768587063
 20
19.2344777091
 30
0.0
 10
-16.1175733372
 20
19.422905399
 30
0.0
 10
-15.944389269
 20
19.5812199913
 30
0.0
 10
-15.8183686763
 20
19.6665558789
 30
0.0
 10
-15.7544952658
 20
19.7020056839
 30
0.0
 11
-16.6999770318
 21
18.0765318833
 31
0.0
 11
-16.6754723127
 21
18.3101619665
 31
0.0
 11
-16.6178731975
 21
18.5508199111
 31
0.0
 11
-16.5291389153
 21
18.7903246233
 31
0.0
 11
-16.412287227
 21
19.0205309179
 31
0.0
 11
-16.2712918516
 21
19.2336106578
 31
0.0
 11
-16.1109479178
 21
19.4223190239
 31
0.0
 11
-15.9367084048
 21
19.5802399946
 31
0.0
 11
-15.7544952658
 21
19.7020056839
 31
0.0
  0
SPLINE
  5
466
100
AcDbEntity
  8
RACCORDO
100
AcDbSpline
 62
253
  6
CONTINUOUS
 70
0
 71
3
 72
33
 73
29
 74
27
 42
0.0000001
 43
0.0000001
 44
0.0000000001
 12
18.2475958034
 22
-9.1238737624
 32
0.0
 13
-18.2476626546
 23
9.1237400598
 33
0.0
 40
0.0
 40
0.0
 40
0.0
 40
0.0
 40
0.0633285331
 40
0.0970462848
 40
0.1319703136
 40
0.2047734612
 40
0.2803030223
 40
0.3568185518
 40
0.432482028
 40
0.5055119941
 40
0.54055932
 40
0.5743910576
 40
0.6068765681
 40
0.6379238658
 40
0.667487508
 40
0.6955773228
 40
0.7222671818
 40
0.7477024198
 40
0.7721037935
 40
0.795764206
 40
0.8190350407
 40
0.8423011578
 40
0.8659480465
 40
0.8903288372
 40
0.91573877
 40
0.9424010525
 40
0.9704628019
 40
1.0
 40
1.0
 40
1.0
 40
1.0
 10
-10.2753570471
 20
3.6371697738
 30
0.0
 10
-9.8901592221
 20
3.44456926
 30
0.0
 10
-9.3287646811
 20
3.0889869121
 30
0.0
 10
-8.6327689585
 20
2.5217209433
 30
0.0
 10
-7.9345076662
 20
1.8588554063
 30
0.0
 10
-7.1247993309
 20
0.9061674954
 30
0.0
 10
-6.2875057865
 20
-0.3776839707
 30
0.0
 10
-5.6009175431
 20
-1.7698249636
 30
0.0
 10
-5.0897156127
 20
-3.2172815389
 30
0.0
 10
-4.8210948994
 20
-4.4415771561
 30
0.0
 10
-4.7124145574
 20
-5.4011931094
 30
0.0
 10
-4.6848154267
 20
-6.0906409521
 30
0.0
 10
-4.7102720056
 20
-6.7530110783
 30
0.0
 10
-4.7886270519
 20
-7.3820983537
 30
0.0
 10
-4.9192888414
 20
-7.9719912508
 30
0.0
 10
-5.1012615429
 20
-8.5171482408
 30
0.0
 10
-5.333153283
 20
-9.0123971091
 30
0.0
 10
-5.6131770685
 20
-9.4529192965
 30
0.0
 10
-5.9390815213
 20
-9.8342340849
 30
0.0
 10
-6.3080358092
 20
-10.152232523
 30
0.0
 10
-6.7165112674
 20
-10.4033196412
 30
0.0
 10
-7.1602690562
 20
-10.5846779511
 30
0.0
 10
-7.6345536969
 20
-10.6944776673
 30
0.0
 10
-8.1343754588
 20
-10.7319129457
 30
0.0
 10
-8.6547125096
 20
-10.6970674516
 30
0.0
 10
-9.1905850979
 20
-10.5907087236
 30
0.0
 10
-9.736932307
 20
-10.4142357647
 30
0.0
 10
-10.0956954381
 20
-10.2551320597
 30
0.0
 10
-10.2753570471
 20
-10.1653021538
 30
0.0
 11
-10.2753570471
 21
3.6371697738
 31
0.0
 11
-9.178586451
 21
2.9542750818
 31
0.0
 11
-8.6447164727
 21
2.5204805872
 31
0.0
 11
-8.1273698515
 21
2.0305717072
 31
0.0
 11
-7.1616663463
 21
0.9020744909
 31
0.0
 11
-6.3177643307
 21
-0.3872062014
 31
0.0
 11
-5.6270218039
 21
-1.7870941539
 31
0.0
 11
-5.1148451436
 21
-3.2432938646
 31
0.0
 11
-4.799917473
 21
-4.6995484307
 31
0.0
 11
-4.7202853875
 21
-5.4101170829
 31
0.0
 11
-4.693660704
 21
-6.0998204277
 31
0.0
 11
-4.7202853865
 21
-6.7620374626
 31
0.0
 11
-4.7999174702
 21
-7.3904222663
 31
0.0
 11
-4.9318361002
 21
-7.9789605598
 31
0.0
 11
-5.1148451382
 21
-8.522026691
 31
0.0
 11
-5.3472798622
 21
-9.014436782
 31
0.0
 11
-5.6270217964
 21
-9.4514933244
 31
0.0
 11
-5.9515107264
 21
-9.8290320284
 31
0.0
 11
-6.317764321
 21
-10.1434592134
 31
0.0
 11
-6.7224016356
 21
-10.3917833841
 31
0.0
 11
-7.1616663345
 21
-10.5716483207
 31
0.0
 11
-7.6314589702
 21
-10.6813513021
 31
0.0
 11
-8.1273698394
 21
-10.7198613901
 31
0.0
 11
-8.6447164581
 21
-10.6868323461
 31
0.0
 11
-9.1785864355
 21
-10.582601463
 31
0.0
 11
-9.7238748271
 21
-10.4081945427
 31
0.0
 11
-10.2753570471
 21
-10.1653021538
 31
0.0
  0
SPLINE
  5
467
100
AcDbEntity
  8
RACCORDO
100
AcDbSpline
 62
253
  6
CONTINUOUS
 70
0
 71
3
 72
33
 73
29
 74
27
 42
0.0000001
 43
0.0000001
 44
0.0000000001
 12
-18.3316978978
 22
9.1659301621
 32
0.0
 13
18.3317645261
 23
-9.1657969053
 33
0.0
 40
0.0
 40
0.0
 40
0.0
 40
0.0
 40
0.0631358385
 40
0.0967929537
 40
0.1316622273
 40
0.2043277438
 40
0.2796249989
 40
0.3557903072
 40
0.4310114268
 40
0.5035765997
 40
0.5384153785
 40
0.5720725438
 40
0.6044317317
 40
0.6354142137
 40
0.66498562
 40
0.6931632508
 40
0.7200232092
 40
0.7457061329
 40
0.770419766
 40
0.7944353721
 40
0.8180756433
 40
0.841693482
 40
0.8656443196
 40
0.8902578583
 40
0.9158152351
 40
0.9425351168
 40
0.9705682016
 40
1.0
 40
1.0
 40
1.0
 40
1.0
 10
-10.2753570471
 20
-10.1653021538
 30
0.0
 10
-10.6611527532
 20
-9.9724025916
 30
0.0
 10
-11.2243661853
 20
-9.6177026107
 30
0.0
 10
-11.9254327717
 20
-9.0535125258
 30
0.0
 10
-12.6311040665
 20
-8.3946398724
 30
0.0
 10
-13.4529528497
 20
-7.4488455134
 30
0.0
 10
-14.3076628732
 20
-6.1740077262
 30
0.0
 10
-15.0118688188
 20
-4.7904738414
 30
0.0
 10
-15.5381643673
 20
-3.3499019713
 30
0.0
 10
-15.8153664606
 20
-2.1291768749
 30
0.0
 10
-15.9275257081
 20
-1.1712651071
 30
0.0
 10
-15.956002581
 20
-0.4821108399
 30
0.0
 10
-15.9296691092
 20
0.1808262785
 30
0.0
 10
-15.848711744
 20
0.8113118637
 30
0.0
 10
-15.71381808
 20
1.4033662254
 30
0.0
 10
-15.5261501317
 20
1.9513455917
 30
0.0
 10
-15.2873354128
 20
2.4499490235
 30
0.0
 10
-14.999460462
 20
2.8942179475
 30
0.0
 10
-14.6651233556
 20
3.2795419034
 30
0.0
 10
-14.2875129199
 20
3.601707497
 30
0.0
 10
-13.870482754
 20
3.8570302333
 30
0.0
 10
-13.4185418331
 20
4.042579593
 30
0.0
 10
-12.9366832182
 20
4.1563585887
 30
0.0
 10
-12.4301398109
 20
4.1973546381
 30
0.0
 10
-11.9041917037
 20
4.1654531048
 30
0.0
 10
-11.3640639285
 20
4.061268959
 30
0.0
 10
-10.8150208968
 20
3.8861082788
 30
0.0
 10
-10.4552026463
 20
3.727091736
 30
0.0
 10
-10.2753570471
 20
3.6371697738
 30
0.0
 11
-10.2753570471
 21
-10.1653021538
 31
0.0
 11
-11.3755510522
 21
-9.484119166
 31
0.0
 11
-11.9135764318
 21
-9.0524023719
 31
0.0
 11
-12.436514355
 21
-8.5652891428
 31
0.0
 11
-13.4167985062
 21
-7.4440822491
 31
0.0
 11
-14.2778900944
 21
-6.1633963428
 31
0.0
 11
-14.985812161
 21
-4.7720981599
 31
0.0
 11
-15.5125452412
 21
-3.3231766589
 31
0.0
 11
-15.8371953846
 21
-1.8717833288
 31
0.0
 11
-15.9193792288
 21
-1.1624905571
 31
0.0
 11
-15.9468655355
 21
-0.4732180259
 31
0.0
 11
-15.9193792299
 21
0.1894298195
 31
0.0
 11
-15.8371953875
 21
0.8190905032
 31
0.0
 11
-15.7011324776
 21
1.4097009369
 31
0.0
 11
-15.5125452468
 21
1.9555561648
 31
0.0
 11
-15.2733121704
 21
2.4513654322
 31
0.0
 11
-14.9858121688
 21
2.8923010084
 31
0.0
 11
-14.6529029843
 21
3.27404984
 31
0.0
 11
-14.2778901044
 21
3.5928566677
 31
0.0
 11
-13.8644908966
 21
3.8455617851
 31
0.0
 11
-13.4167985183
 21
4.0296405616
 31
0.0
 11
-12.9392366965
 21
4.1432281361
 31
0.0
 11
-12.4365143674
 21
4.185143954
 31
0.0
 11
-11.9135764467
 21
4.154910561
 31
0.0
 11
-11.3755510677
 21
4.0527573787
 31
0.0
 11
-10.8277035017
 21
3.8796300455
 31
0.0
 11
-10.2753570471
 21
3.6371697738
 31
0.0
  0
SPLINE
  5
468
100
AcDbEntity
  8
RACCORDO
100
AcDbSpline
 62
253
  6
CONTINUOUS
 70
0
 71
3
 72
9
 73
5
 74
3
 42
0.0000001
 43
0.0000001
 44
0.0000000001
 12
-0.0221868313
 22
0.0110906045
 32
0.0
 13
-0.0242889286
 23
0.0050304018
 33
0.0
 40
0.0
 40
0.0
 40
0.0
 40
0.0
 40
0.747566003
 40
1.0
 40
1.0
 40
1.0
 40
1.0
 10
4.3902006561
 20
-23.7642000968
 30
0.0
 10
4.3846719492
 20
-23.7614364438
 30
0.0
 10
4.3768772375
 20
-23.7584691112
 30
0.0
 10
4.3688356814
 20
-23.7565392313
 30
0.0
 10
4.3667918976
 20
-23.7561159498
 30
0.0
 11
4.3902006561
 21
-23.7642000968
 31
0.0
 11
4.372879876
 21
-23.7575796754
 31
0.0
 11
4.3667918976
 21
-23.7561159498
 31
0.0
  0
SPLINE
  5
469
100
AcDbEntity
  8
RACCORDO
100
AcDbSpline
 62
253
  6
CONTINUOUS
 70
0
 71
3
 72
11
 73
7
 74
5
 42
0.0000001
 43
0.0000001
 44
0.0000000001
 12
-0.0000014429
 22
-0.119182188
 32
0.0
 13
-0.1063496889
 23
-0.0537971895
 33
0.0
 40
0.0
 40
0.0
 40
0.0
 40
0.0
 40
0.2069627842
 40
0.4350648191
 40
0.6978060254
 40
1.0
 40
1.0
 40
1.0
 40
1.0
 10
4.5284035475
 20
-24.3353416371
 30
0.0
 10
4.528403448
 20
-24.3435637296
 30
0.0
 10
4.5248043392
 20
-24.3609796257
 30
0.0
 10
4.5097549693
 20
-24.3847748758
 30
0.0
 10
4.4862780306
 20
-24.406186675
 30
0.0
 10
4.466918438
 20
-24.4177952104
 30
0.0
 10
4.4562056929
 20
-24.4232142726
 30
0.0
 11
4.5284035475
 21
-24.3353416371
 31
0.0
 11
4.5236703651
 21
-24.3595495331
 31
0.0
 11
4.5096500666
 21
-24.3828410228
 31
0.0
 11
4.4868759545
 21
-24.4043331356
 31
0.0
 11
4.4562056929
 21
-24.4232142726
 31
0.0
  0
SPLINE
  5
46A
100
AcDbEntity
  8
RACCORDO
100
AcDbSpline
 62
253
  6
CONTINUOUS
 70
0
 71
3
 72
11
 73
7
 74
5
 42
0.0000001
 43
0.0000001
 44
0.0000000001
 12
-0.0000013698
 22
-0.1191821853
 32
0.0
 13
-0.1063496865
 23
-0.0537971883
 33
0.0
 40
0.0
 40
0.0
 40
0.0
 40
0.0
 40
0.2069627866
 40
0.4350648202
 40
0.69780603
 40
1.0
 40
1.0
 40
1.0
 40
1.0
 10
4.5284035478
 20
-23.9878101236
 30
0.0
 10
4.5284034533
 20
-23.996032216
 30
0.0
 10
4.5248043366
 20
-24.0134481118
 30
0.0
 10
4.5097549691
 20
-24.0372433607
 30
0.0
 10
4.4862780292
 20
-24.0586551585
 30
0.0
 10
4.4669184376
 20
-24.0702636938
 30
0.0
 10
4.4562056929
 20
-24.0756827558
 30
0.0
 11
4.5284035478
 21
-23.9878101236
 31
0.0
 11
4.5236703649
 21
-24.0120180192
 31
0.0
 11
4.5096500658
 21
-24.0353095077
 31
0.0
 11
4.4868759533
 21
-24.0568016196
 31
0.0
 11
4.4562056929
 21
-24.0756827558
 31
0.0
  0
SPLINE
  5
46B
100
AcDbEntity
  8
RACCORDO
100
AcDbSpline
 62
253
  6
CONTINUOUS
 70
0
 71
3
 72
11
 73
7
 74
5
 42
0.0000001
 43
0.0000001
 44
0.0000000001
 12
0.1389309045
 22
0.0712901781
 32
0.0
 13
-0.000739186
 23
0.1561522953
 33
0.0
 40
0.0
 40
0.0
 40
0.0
 40
0.0
 40
0.21754047
 40
0.4509586233
 40
0.7106393245
 40
1.0
 40
1.0
 40
1.0
 40
1.0
 10
4.3925230276
 20
-24.5577748943
 30
0.0
 10
4.4025973923
 20
-24.5526053946
 30
0.0
 10
4.4216159658
 20
-24.5378725905
 30
0.0
 10
4.4419225902
 20
-24.5062889123
 30
0.0
 10
4.4539840235
 20
-24.4669735852
 30
0.0
 10
4.4562769901
 20
-24.4382757171
 30
0.0
 10
4.4562056929
 20
-24.4232142726
 30
0.0
 11
4.3925230276
 21
-24.5577748943
 31
0.0
 11
4.4195193108
 21
-24.5371557368
 31
0.0
 11
4.4397180025
 21
-24.5068150674
 31
0.0
 11
4.4521461894
 21
-24.4682163857
 31
0.0
 11
4.4562056929
 21
-24.4232142726
 31
0.0
  0
SPLINE
  5
46C
100
AcDbEntity
  8
RACCORDO
100
AcDbSpline
 62
7
  6
CONTINUOUS
 70
0
 71
3
 72
11
 73
7
 74
5
 42
0.0000001
 43
0.0000001
 44
0.0000000001
 12
0.1334232764
 22
0.0748828011
 32
0.0
 13
0.0
 23
0.1530006686
 33
0.0
 40
0.0
 40
0.0
 40
0.0
 40
0.0
 40
0.2171864146
 40
0.4511858794
 40
0.7111959599
 40
1.0
 40
1.0
 40
1.0
 40
1.0
 10
3.866927311
 20
-24.8273420003
 30
0.0
 10
3.876586552
 20
-24.8219208246
 30
0.0
 10
3.8947144233
 20
-24.8068985791
 30
0.0
 10
3.914042574
 20
-24.775620593
 30
0.0
 10
3.9256301005
 20
-24.7370421728
 30
0.0
 10
3.9279385212
 20
-24.7089544016
 30
0.0
 10
3.9279385212
 20
-24.6942253312
 30
0.0
 11
3.866927311
 21
-24.8273420003
 31
0.0
 11
3.8926796617
 21
-24.8063413532
 31
0.0
 11
3.9119640947
 21
-24.7761768179
 31
0.0
 11
3.9238985946
 21
-24.7382274747
 31
0.0
 11
3.9279385212
 21
-24.6942253312
 31
0.0
  0
SPLINE
  5
46D
100
AcDbEntity
  8
RACCORDO
100
AcDbSpline
 62
7
  6
CONTINUOUS
 70
0
 71
3
 72
10
 73
6
 74
4
 42
0.0000001
 43
0.0000001
 44
0.0000000001
 12
-0.3513180546
 22
0.1761377836
 32
0.0
 13
-0.3922891585
 23
-0.0236243609
 33
0.0
 40
0.0
 40
0.0
 40
0.0
 40
0.0
 40
0.2404971741
 40
0.4892681408
 40
1.0
 40
1.0
 40
1.0
 40
1.0
 10
7.1243354806
 20
-14.2669758089
 30
0.0
 10
7.0961718142
 20
-14.2528555958
 30
0.0
 10
7.0361826764
 20
-14.229328574
 30
0.0
 10
6.9084563422
 20
-14.19915031
 30
0.0
 10
6.8078860923
 20
-14.1942722748
 30
0.0
 10
6.7411012353
 20
-14.1982941794
 30
0.0
 11
7.1243354806
 21
-14.2669758089
 31
0.0
 11
7.0365922906
 21
-14.2318434118
 31
0.0
 11
6.9415335242
 21
-14.2089915254
 31
0.0
 11
6.7411012353
 21
-14.1982941794
 31
0.0
  0
SPLINE
  5
46E
100
AcDbEntity
  8
RACCORDO
100
AcDbSpline
 62
253
  6
CONTINUOUS
 70
0
 71
3
 72
11
 73
7
 74
5
 42
0.0000001
 43
0.0000001
 44
0.0000000001
 12
0.1426575687
 22
0.0695004483
 32
0.0
 13
0.0007563653
 23
0.1586849776
 33
0.0
 40
0.0
 40
0.0
 40
0.0
 40
0.0
 40
0.2167635091
 40
0.4498673846
 40
0.7098578217
 40
1.0
 40
1.0
 40
1.0
 40
1.0
 10
2.2603959987
 20
-25.6101102714
 30
0.0
 10
2.2707036504
 20
-25.6050885511
 30
0.0
 10
2.2902573492
 20
-25.5904810286
 30
0.0
 10
2.3112794875
 20
-25.5586716126
 30
0.0
 10
2.323967337
 20
-25.5188055262
 30
0.0
 10
2.3265845792
 20
-25.4896069992
 30
0.0
 10
2.3266577304
 20
-25.4742599309
 30
0.0
 11
2.2603959987
 21
-25.6101102714
 31
0.0
 11
2.2881004499
 21
-25.5897227356
 31
0.0
 11
2.3090049282
 21
-25.5592055251
 31
0.0
 11
2.3220730445
 21
-25.5200728262
 31
0.0
 11
2.3266577304
 21
-25.4742599309
 31
0.0
  0
SPLINE
  5
46F
100
AcDbEntity
  8
RACCORDO
100
AcDbSpline
 62
253
  6
CONTINUOUS
 70
0
 71
3
 72
16
 73
12
 74
10
 42
0.0000001
 43
0.0000001
 44
0.0000000001
 12
5.4837384199
 22
2.2971081904
 32
0.0
 13
5.4820816098
 23
2.3010593909
 33
0.0
 40
0.0
 40
0.0
 40
0.0
 40
0.0
 40
0.1251681874
 40
0.2499789251
 40
0.3746171036
 40
0.499250793
 40
0.6240570118
 40
0.6865813792
 40
0.7492086706
 40
0.8746077759
 40
1.0
 40
1.0
 40
1.0
 40
1.0
 10
-1.2269670024
 20
-25.1365155608
 30
0.0
 10
-0.9981704697
 20
-25.040673938
 30
0.0
 10
-0.5406701902
 20
-24.8505958059
 30
0.0
 10
0.1469203027
 20
-24.5705766555
 30
0.0
 10
0.8342594826
 20
-24.2927648785
 30
0.0
 10
1.5216487829
 20
-24.0151002359
 30
0.0
 10
2.0942044589
 20
-23.7818186216
 30
0.0
 10
2.5521193746
 20
-23.5928603106
 30
0.0
 10
3.0103572315
 20
-23.4016153931
 30
0.0
 10
3.5828506675
 20
-23.1606561882
 30
0.0
 10
4.0412136966
 20
-22.9684774026
 30
0.0
 10
4.2703504985
 20
-22.8722990844
 30
0.0
 11
-1.2269670024
 21
-25.1365155608
 31
0.0
 11
-0.5396842486
 21
-24.8511322275
 31
0.0
 11
0.1473588459
 21
-24.5707494688
 31
0.0
 11
0.834277464
 21
-24.2927854977
 31
0.0
 11
1.5211928083
 21
-24.0148845939
 31
0.0
 11
2.2082328003
 21
-23.734565343
 31
0.0
 11
2.551835671
 21
-23.5927089205
 31
0.0
 11
2.8955042249
 21
-23.4494140321
 31
0.0
 11
3.5829295404
 21
-23.1608088976
 31
0.0
 11
4.2703504985
 21
-22.8722990844
 31
0.0
  0
SPLINE
  5
470
100
AcDbEntity
  8
RACCORDO
100
AcDbSpline
 62
253
  6
CONTINUOUS
 70
0
 71
3
 72
25
 73
21
 74
19
 42
0.0000001
 43
0.0000001
 44
0.0000000001
 12
-13.5422729552
 22
6.7711646497
 32
0.0
 13
13.6874114415
 23
6.4727579544
 33
0.0
 40
0.0
 40
0.0
 40
0.0
 40
0.0
 40
0.0598465316
 40
0.1238528663
 40
0.1914313594
 40
0.2617706503
 40
0.3339088307
 40
0.4067975168
 40
0.4793597045
 40
0.5505445835
 40
0.6193819101
 40
0.6850387404
 40
0.746881453
 40
0.8045461229
 40
0.8580180608
 40
0.9077132563
 40
0.9314452271
 40
0.9546119823
 40
0.977396484
 40
1.0
 40
1.0
 40
1.0
 40
1.0
 10
-9.7196160438
 20
-9.1836748715
 30
0.0
 10
-9.9897687327
 20
-9.0485979651
 30
0.0
 10
-10.5278272064
 20
-8.7257916785
 30
0.0
 10
-11.2877865084
 20
-8.1257887092
 30
0.0
 10
-12.0125006169
 20
-7.4064219069
 30
0.0
 10
-12.684704291
 20
-6.5843745908
 30
0.0
 10
-13.2884477489
 20
-5.6785337275
 30
0.0
 10
-13.8091315657
 20
-4.7098170768
 30
0.0
 10
-14.2340804389
 20
-3.7006241371
 30
0.0
 10
-14.5528738544
 20
-2.6743183622
 30
0.0
 10
-14.7576433016
 20
-1.6546514827
 30
0.0
 10
-14.843237041
 20
-0.6651609554
 30
0.0
 10
-14.8072999653
 20
0.271382571
 30
0.0
 10
-14.6500137517
 20
1.1335916006
 30
0.0
 10
-14.3742453759
 20
1.9013520303
 30
0.0
 10
-14.0439525172
 20
2.4559966474
 30
0.0
 10
-13.727470231
 20
2.8280361757
 30
0.0
 10
-13.469456126
 20
3.0682766741
 30
0.0
 10
-13.1889223578
 20
3.2721930042
 30
0.0
 10
-12.9877447572
 20
3.3832035428
 30
0.0
 10
-12.8846168829
 20
3.431972572
 30
0.0
 11
-9.7196160438
 21
-9.1836748715
 31
0.0
 11
-10.4989269787
 21
-8.7213668785
 31
0.0
 11
-11.2617483513
 21
-8.1236512559
 31
0.0
 11
-11.9897135857
 21
-7.4046378447
 31
0.0
 11
-12.6651691339
 21
-6.5812543994
 31
0.0
 11
-13.2716188963
 21
-5.6728634346
 31
0.0
 11
-13.7941559803
 21
-4.7008233449
 31
0.0
 11
-14.2198606409
 21
-3.6880075127
 31
0.0
 11
-14.5381537983
 21
-2.6582873577
 31
0.0
 11
-14.7410927237
 21
-1.6359880061
 31
0.0
 11
-14.8235980176
 21
-0.6453251038
 31
0.0
 11
-14.7836011251
 21
0.2901643173
 31
0.0
 11
-14.6221049504
 21
1.1481836381
 31
0.0
 11
-14.3431545059
 21
1.9082138469
 31
0.0
 11
-13.9537192205
 21
2.552013996
 31
0.0
 11
-13.7204994997
 21
2.8253618225
 31
0.0
 11
-13.463492212
 21
3.0640687776
 31
0.0
 11
-13.1842896953
 21
3.2666843525
 31
0.0
 11
-12.8846168829
 21
3.431972572
 31
0.0
  0
SPLINE
  5
471
100
AcDbEntity
  8
RACCORDO
100
AcDbSpline
 62
253
  6
CONTINUOUS
 70
0
 71
3
 72
15
 73
11
 74
9
 42
0.0000001
 43
0.0000001
 44
0.0000000001
 12
0.0357585845
 22
-1.028507428
 32
0.0
 13
0.9489263787
 23
0.3983025655
 33
0.0
 40
0.0
 40
0.0
 40
0.0
 40
0.0
 40
0.1465300074
 40
0.2806608718
 40
0.4035051354
 40
0.5182269182
 40
0.6298613877
 40
0.7442648622
 40
0.8665518766
 40
1.0
 40
1.0
 40
1.0
 40
1.0
 10
-1.9081546617
 20
-24.6361998927
 30
0.0
 10
-1.9064080932
 20
-24.6864356263
 30
0.0
 10
-1.8957761423
 20
-24.7826711375
 30
0.0
 10
-1.8551303257
 20
-24.9159559459
 30
0.0
 10
-1.7911592582
 20
-25.0277342158
 30
0.0
 10
-1.7052261129
 20
-25.1135057943
 30
0.0
 10
-1.6002974886
 20
-25.1689692276
 30
0.0
 10
-1.4812711422
 20
-25.1914877673
 30
0.0
 10
-1.3534661801
 20
-25.1810394532
 30
0.0
 10
-1.2691778172
 20
-25.1542331374
 30
0.0
 10
-1.2269670024
 20
-25.1365155608
 30
0.0
 11
-1.9081546617
 21
-24.6361998927
 31
0.0
 11
-1.8904983058
 21
-24.7859609291
 31
0.0
 11
-1.8489964666
 21
-24.9176122532
 31
0.0
 11
-1.7850619684
 21
-25.0266766738
 31
0.0
 11
-1.7008707828
 21
-25.1094464368
 31
0.0
 11
-1.5992874463
 21
-25.1631090598
 31
0.0
 11
-1.4837671357
 21
-25.1858423835
 31
0.0
 11
-1.358237878
 21
-25.1768757628
 31
0.0
 11
-1.2269670024
 21
-25.1365155608
 31
0.0
  0
SPLINE
  5
472
100
AcDbEntity
  8
ASSI
100
AcDbSpline
 62
7
  6
CONTINUOUS
 70
0
 71
3
 72
11
 73
7
 74
5
 42
0.0000001
 43
0.0000001
 44
0.0000000001
 12
-0.1073330853
 22
0.053311122
 32
0.0
 13
-0.1141360749
 23
-0.0365434444
 33
0.0
 40
0.0
 40
0.0
 40
0.0
 40
0.0
 40
0.1249480549
 40
0.3260198351
 40
0.616726
 40
1.0
 40
1.0
 40
1.0
 40
1.0
 10
4.9501329861
 20
21.7987115044
 30
0.0
 10
4.9456626326
 20
21.8009318781
 30
0.0
 10
4.9322070643
 20
21.8023280855
 30
0.0
 10
4.9078516527
 20
21.7994043324
 30
0.0
 10
4.8736918136
 20
21.7914196201
 30
0.0
 10
4.8479370057
 20
21.7836222271
 30
0.0
 10
4.833355209
 20
21.7789535097
 30
0.0
 11
4.9501329861
 21
21.7987115044
 31
0.0
 11
4.9354341363
 21
21.8015699807
 31
0.0
 11
4.9114287667
 21
21.7994688457
 31
0.0
 11
4.8774088131
 21
21.7919577938
 31
0.0
 11
4.833355209
 21
21.7789535097
 31
0.0
  0
SPLINE
  5
473
100
AcDbEntity
  8
RACCORDO
100
AcDbSpline
 62
253
  6
CONTINUOUS
 70
0
 71
3
 72
14
 73
10
 74
8
 42
0.0000001
 43
0.0000001
 44
0.0000000001
 12
-1.2252127798
 22
-0.6688939551
 32
0.0
 13
-0.046929289
 23
-1.395121185
 33
0.0
 40
0.0
 40
0.0
 40
0.0
 40
0.0
 40
0.1125834789
 40
0.2332223472
 40
0.3601219533
 40
0.4909476923
 40
0.7532675853
 40
0.8798322427
 40
1.0
 40
1.0
 40
1.0
 40
1.0
 10
-1.2269670024
 20
12.1015556793
 30
0.0
 10
-1.2729465748
 20
12.0764535432
 30
0.0
 10
-1.3636844139
 20
12.0159409023
 30
0.0
 10
-1.4884707481
 20
11.9034060967
 30
0.0
 10
-1.6032695644
 20
11.7692814918
 30
0.0
 10
-1.7378270481
 20
11.5677066324
 30
0.0
 10
-1.8372813415
 20
11.3443899276
 30
0.0
 10
-1.8936613448
 20
11.1138832228
 30
0.0
 10
-1.9062748659
 20
10.9993075964
 30
0.0
 10
-1.9081546617
 20
10.9434247351
 30
0.0
 11
-1.2269670024
 21
12.1015556793
 31
0.0
 11
-1.3582378776
 21
12.0151490699
 31
0.0
 11
-1.4837671354
 21
11.9028934952
 31
0.0
 11
-1.5992874461
 21
11.7686035045
 31
0.0
 11
-1.700870783
 21
11.616842994
 31
0.0
 11
-1.8489964675
 21
11.2819655001
 31
0.0
 11
-1.8904983066
 21
11.1102363159
 31
0.0
 11
-1.9081546617
 21
10.9434247351
 31
0.0
  0
SPLINE
  5
474
100
AcDbEntity
  8
RACCORDO
100
AcDbSpline
 62
253
  6
CONTINUOUS
 70
0
 71
3
 72
15
 73
11
 74
9
 42
0.0000001
 43
0.0000001
 44
0.0000000001
 12
0.0697188842
 22
2.0916349707
 32
0.0
 13
1.8293997921
 23
1.016412305
 33
0.0
 40
0.0
 40
0.0
 40
0.0
 40
0.0
 40
0.1202680172
 40
0.2469590935
 40
0.3777238581
 40
0.5098938544
 40
0.6406965714
 40
0.7674612692
 40
0.8878313049
 40
1.0
 40
1.0
 40
1.0
 40
1.0
 10
-16.8407188159
 20
18.0804305009
 30
0.0
 10
-16.8379238319
 20
18.1642827645
 30
0.0
 10
-16.819176402
 20
18.3361925854
 30
0.0
 10
-16.7570637344
 20
18.5928990012
 30
0.0
 10
-16.6621696453
 20
18.8482576275
 30
0.0
 10
-16.537650424
 20
19.0937370548
 30
0.0
 10
-16.3876445972
 20
19.3212101572
 30
0.0
 10
-16.2170820911
 20
19.5231458774
 30
0.0
 10
-16.0316365315
 20
19.6928221004
 30
0.0
 10
-15.8966873657
 20
19.7842984915
 30
0.0
 10
-15.8282869032
 20
19.8223017055
 30
0.0
 11
-16.8407188159
 21
18.0804305009
 31
0.0
 11
-16.8144790128
 21
18.3307554879
 31
0.0
 11
-16.7528014813
 21
18.5886205442
 31
0.0
 11
-16.6577841584
 21
18.845259829
 31
0.0
 11
-16.5326583558
 21
19.0919454875
 31
0.0
 11
-16.3816790915
 21
19.3202889892
 31
0.0
 11
-16.2099809871
 21
19.5225264539
 31
0.0
 11
-16.0234031722
 21
19.6917817857
 31
0.0
 11
-15.8282869032
 21
19.8223017055
 31
0.0
  0
SPLINE
  5
475
100
AcDbEntity
  8
RACCORDO
100
AcDbSpline
 62
253
  6
CONTINUOUS
 70
0
 71
3
 72
13
 73
9
 74
7
 42
0.0000001
 43
0.0000001
 44
0.0000000001
 12
0.0310085765
 22
-0.8969242601
 32
0.0
 13
0.8026202887
 23
-0.4015411963
 33
0.0
 40
0.0
 40
0.0
 40
0.0
 40
0.0
 40
0.2862401892
 40
0.5444694941
 40
0.6643574566
 40
0.7792256043
 40
0.8905218215
 40
1.0
 40
1.0
 40
1.0
 40
1.0
 10
-2.6087381356
 20
-24.6507997068
 30
0.0
 10
-2.605779502
 20
-24.7363782968
 30
0.0
 10
-2.5863131114
 20
-24.899223991
 30
0.0
 10
-2.5199723809
 20
-25.0888730811
 30
0.0
 10
-2.443515666
 20
-25.2155315217
 30
0.0
 10
-2.3772194661
 20
-25.2955919925
 30
0.0
 10
-2.3013190454
 20
-25.3619875482
 30
0.0
 10
-2.2446782004
 20
-25.3966864797
 30
0.0
 10
-2.215388398
 20
-25.4113398126
 30
0.0
 11
-2.6087381356
 21
-24.6507997068
 31
0.0
 11
-2.5756650676
 21
-24.9055509764
 31
0.0
 11
-2.4964176263
 21
-25.1233309989
 31
0.0
 11
-2.4405030591
 21
-25.2152558218
 31
0.0
 11
-2.3745191154
 21
-25.2944617617
 31
0.0
 11
-2.2992011328
 21
-25.3600666258
 31
0.0
 11
-2.215388398
 21
-25.4113398126
 31
0.0
  0
SPLINE
  5
476
100
AcDbEntity
  8
RACCORDO
100
AcDbSpline
 62
253
  6
CONTINUOUS
 70
0
 71
3
 72
15
 73
11
 74
9
 42
0.0000001
 43
0.0000001
 44
0.0000000001
 12
-1.7493975999
 22
-1.0707612947
 32
0.0
 13
-0.0672078375
 23
-2.0499767851
 33
0.0
 40
0.0
 40
0.0
 40
0.0
 40
0.0
 40
0.1126380061
 40
0.2333115318
 40
0.3601848209
 40
0.4909225269
 40
0.6229071833
 40
0.7534338631
 40
0.8798992199
 40
1.0
 40
1.0
 40
1.0
 40
1.0
 10
-2.2386285409
 20
12.9913138083
 30
0.0
 10
-2.3043114268
 20
12.9511110025
 30
0.0
 10
-2.4334634924
 20
12.8562645336
 30
0.0
 10
-2.610359948
 20
12.6840365152
 30
0.0
 10
-2.7725329858
 20
12.4817818638
 30
0.0
 10
-2.9148051923
 20
12.2559541869
 30
0.0
 10
-3.0326869771
 20
12.0137234999
 30
0.0
 10
-3.1224199728
 20
11.7627824765
 30
0.0
 10
-3.1811441016
 20
11.5111706833
 30
0.0
 10
-3.1989129617
 20
11.3429407964
 30
0.0
 10
-3.2016035329
 20
11.2608728594
 30
0.0
 11
-2.2386285409
 21
12.9913138083
 31
0.0
 11
-2.4256202455
 21
12.8556352684
 31
0.0
 11
-2.603643158
 21
12.6836775513
 31
0.0
 11
-2.7669067753
 21
12.4810372268
 31
0.0
 11
-2.9100939946
 21
12.2543136302
 31
0.0
 11
-3.0285403686
 21
12.0108904998
 31
0.0
 11
-3.1183873393
 21
11.7586966302
 31
0.0
 11
-3.1767084376
 21
11.5059477528
 31
0.0
 11
-3.2016035329
 21
11.2608728594
 31
0.0
  0
SPLINE
  5
477
100
AcDbEntity
  8
RACCORDO
100
AcDbSpline
 62
253
  6
CONTINUOUS
 70
0
 71
3
 72
15
 73
11
 74
9
 42
0.0000001
 43
0.0000001
 44
0.0000000001
 12
-1.832888614
 22
-1.0116413142
 32
0.0
 13
-0.0699743452
 23
-2.0923676567
 33
0.0
 40
0.0
 40
0.0
 40
0.0
 40
0.0
 40
0.1123056521
 40
0.2327570997
 40
0.3595516029
 40
0.4903413327
 40
0.6224664398
 40
0.753167227
 40
0.879790012
 40
1.0
 40
1.0
 40
1.0
 40
1.0
 10
-1.5927997424
 20
12.7045581251
 30
0.0
 10
-1.6614143261
 20
12.6666871126
 30
0.0
 10
-1.7967970477
 20
12.5754748854
 30
0.0
 10
-1.9828971292
 20
12.4061229158
 30
0.0
 10
-2.1540615861
 20
12.2044800891
 30
0.0
 10
-2.3045975599
 20
11.9772609972
 30
0.0
 10
-2.4295581327
 20
11.7319876943
 30
0.0
 10
-2.5247896444
 20
11.4767789782
 30
0.0
 10
-2.5871219906
 20
11.2201616062
 30
0.0
 10
-2.6059342639
 20
11.0482813244
 30
0.0
 10
-2.6087381356
 20
10.9644401608
 30
0.0
 11
-1.5927997424
 21
12.7045581251
 31
0.0
 11
-1.7885878693
 21
12.5743790888
 31
0.0
 11
-1.9758105827
 21
12.4054496133
 31
0.0
 11
-2.1481023943
 21
12.2035121945
 31
0.0
 11
-2.299604831
 21
11.9754317815
 31
0.0
 11
-2.4251656276
 21
11.728962831
 31
0.0
 11
-2.5205141276
 21
11.4724859497
 31
0.0
 11
-2.5824068437
 21
11.2147229704
 31
0.0
 11
-2.6087381356
 21
10.9644401608
 31
0.0
  0
SPLINE
  5
478
100
AcDbEntity
  8
RACCORDO
100
AcDbSpline
 62
253
  6
CONTINUOUS
 70
0
 71
3
 72
11
 73
7
 74
5
 42
0.0000001
 43
0.0000001
 44
0.0000000001
 12
4.3665075326
 22
2.5459049314
 32
0.0
 13
4.3658973787
 23
2.5469511246
 33
0.0
 40
0.0
 40
0.0
 40
0.0
 40
0.0
 40
0.2502893268
 40
0.4996745676
 40
0.7492593471
 40
1.0
 40
1.0
 40
1.0
 40
1.0
 10
-16.434977673
 20
20.1321895378
 30
0.0
 10
-16.0706809294
 20
20.344593815
 30
0.0
 10
-15.345948316
 20
20.7729973601
 30
0.0
 10
-14.2625863848
 20
21.4210057528
 30
0.0
 10
-13.1781641347
 20
22.0687518384
 30
0.0
 10
-12.4502293028
 20
22.4938615522
 30
0.0
 10
-12.0853266497
 20
22.7067362816
 30
0.0
 11
-16.434977673
 21
20.1321895378
 31
0.0
 11
-15.3452010385
 21
20.7747127949
 31
0.0
 11
-14.262807111
 21
21.4207246738
 31
0.0
 11
-13.1787817056
 21
22.0659692329
 31
0.0
 11
-12.0853266497
 21
22.7067362816
 31
0.0
  0
SPLINE
  5
479
100
AcDbEntity
  8
RACCORDO
100
AcDbSpline
 62
253
  6
CONTINUOUS
 70
0
 71
3
 72
16
 73
12
 74
10
 42
0.0000001
 43
0.0000001
 44
0.0000000001
 12
-5.5156654157
 22
-3.0112509212
 32
0.0
 13
-5.5136743898
 23
-3.0148949918
 33
0.0
 40
0.0
 40
0.0
 40
0.0
 40
0.0
 40
0.124633005
 40
0.2492597441
 40
0.3116403886
 40
0.3741178343
 40
0.4992993085
 40
0.6246417914
 40
0.7499803156
 40
0.8751570614
 40
1.0
 40
1.0
 40
1.0
 40
1.0
 10
4.2703511544
 20
15.1460373845
 30
0.0
 10
4.0412065027
 20
15.0209369675
 30
0.0
 10
3.5830191542
 20
14.7705767986
 30
0.0
 10
3.0097765137
 20
14.4582705633
 30
0.0
 10
2.5515438415
 20
14.2070096322
 30
0.0
 10
2.0932097112
 20
13.9535236131
 30
0.0
 10
1.5207286819
 20
13.6339297793
 30
0.0
 10
0.8342960716
 20
13.2483312643
 30
0.0
 10
0.1478052252
 20
12.8628571749
 30
0.0
 10
-0.5386748541
 20
12.4794996163
 30
0.0
 10
-0.9975192312
 20
12.2270184628
 30
0.0
 10
-1.2269670024
 20
12.1015556793
 30
0.0
 11
4.2703511544
 21
15.1460373845
 31
0.0
 11
3.5829301148
 21
14.7707124772
 31
0.0
 11
2.8955047561
 21
14.3954776557
 31
0.0
 11
2.5518359911
 21
14.206899414
 31
0.0
 11
2.2082331778
 21
14.0169405367
 31
0.0
 11
1.5211931849
 21
13.6337913598
 31
0.0
 11
0.8342776915
 21
13.2483471415
 31
0.0
 11
0.14735911
 21
12.8629592661
 31
0.0
 11
-0.5396843397
 21
12.4798773007
 31
0.0
 11
-1.2269670024
 21
12.1015556793
 31
0.0
  0
SPLINE
  5
47A
100
AcDbEntity
  8
ASSI
100
AcDbSpline
 62
7
  6
CONTINUOUS
 70
0
 71
3
 72
11
 73
7
 74
5
 42
0.0000001
 43
0.0000001
 44
0.0000000001
 12
-0.1089721377
 22
0.0541590072
 32
0.0
 13
-0.1158417812
 23
-0.0372666953
 33
0.0
 40
0.0
 40
0.0
 40
0.0
 40
0.0
 40
0.1244405159
 40
0.3253748194
 40
0.61632367
 40
1.0
 40
1.0
 40
1.0
 40
1.0
 10
-0.6048513906
 20
24.5762037027
 30
0.0
 10
-0.6093715736
 20
24.5784502276
 30
0.0
 10
-0.6230176811
 20
24.579826803
 30
0.0
 10
-0.64771941
 20
24.5767999474
 30
0.0
 10
-0.6824105219
 20
24.5686166155
 30
0.0
 10
-0.7085734137
 20
24.5606504446
 30
0.0
 10
-0.7233886635
 20
24.5558843283
 30
0.0
 11
-0.6048513906
 21
24.5762037027
 31
0.0
 11
-0.6197210118
 21
24.5790680916
 31
0.0
 11
-0.6440741511
 21
24.5768779686
 31
0.0
 11
-0.6786310692
 21
24.5691743688
 31
0.0
 11
-0.7233886635
 21
24.5558843283
 31
0.0
  0
SPLINE
  5
47B
100
AcDbEntity
  8
RACCORDO
100
AcDbSpline
 62
7
  6
CONTINUOUS
 70
0
 71
3
 72
12
 73
8
 74
6
 42
0.0000001
 43
0.0000001
 44
0.0000000001
 12
-0.4345619355
 22
-0.032159537
 32
0.0
 13
-0.4201960756
 23
-0.1153844428
 33
0.0
 40
0.0
 40
0.0
 40
0.0
 40
0.0
 40
0.1460665466
 40
0.2901900051
 40
0.5606459046
 40
0.7988834635
 40
1.0
 40
1.0
 40
1.0
 40
1.0
 10
-1.13137955
 20
18.8774132707
 30
0.0
 10
-1.1525378704
 20
18.8758474598
 30
0.0
 10
-1.1944069962
 20
18.8704383492
 30
0.0
 10
-1.2743169118
 20
18.8546151194
 30
0.0
 10
-1.366076679
 20
18.8304522496
 30
0.0
 10
-1.4648764357
 20
18.8010221014
 30
0.0
 10
-1.52603247
 20
18.782758946
 30
0.0
 10
-1.5542019298
 20
18.7750237062
 30
0.0
 11
-1.13137955
 21
18.8774132707
 31
0.0
 11
-1.194558693
 21
18.8696975424
 31
0.0
 11
-1.2562117009
 21
18.8577402224
 31
0.0
 11
-1.3704085876
 21
18.8286200442
 31
0.0
 11
-1.4700438291
 21
18.7994692722
 31
0.0
 11
-1.5542019298
 21
18.7750237062
 31
0.0
  0
SPLINE
  5
47C
100
AcDbEntity
  8
RACCORDO
100
AcDbSpline
 62
253
  6
CONTINUOUS
 70
0
 71
3
 72
15
 73
11
 74
9
 42
0.0000001
 43
0.0000001
 44
0.0000000001
 12
0.0681835624
 22
2.0876389468
 32
0.0
 13
1.80940956
 23
1.0435144534
 33
0.0
 40
0.0
 40
0.0
 40
0.0
 40
0.0
 40
0.1205996359
 40
0.2476869454
 40
0.3788185927
 40
0.5112437905
 40
0.6421179547
 40
0.7687098214
 40
0.8886161506
 40
1.0
 40
1.0
 40
1.0
 40
1.0
 10
-17.4335842132
 20
18.3768631996
 30
0.0
 10
-17.4308432423
 20
18.4607860318
 30
0.0
 10
-17.4124531252
 20
18.6328825214
 30
0.0
 10
-17.3515795758
 20
18.8901180046
 30
0.0
 10
-17.2585800988
 20
19.1463408174
 30
0.0
 10
-17.1365487218
 20
19.3929872956
 30
0.0
 10
-16.9895431283
 20
19.6218880138
 30
0.0
 10
-16.82239583
 20
19.8254668691
 30
0.0
 10
-16.6406672898
 20
19.996950634
 30
0.0
 10
-16.5081978705
 20
20.0899238032
 30
0.0
 10
-16.4410182032
 20
20.1286673555
 30
0.0
 11
-17.4335842132
 21
18.3768631996
 31
0.0
 11
-17.4078586926
 21
18.6274488932
 31
0.0
 11
-17.3473898623
 21
18.8859238166
 31
0.0
 11
-17.2542349203
 21
19.1434974781
 31
0.0
 11
-17.1315627378
 21
19.3914107345
 31
0.0
 11
-16.9835457236
 21
19.6212338589
 31
0.0
 11
-16.8152176077
 21
19.8251531274
 31
0.0
 11
-16.6323020855
 21
19.9962361989
 31
0.0
 11
-16.4410182032
 21
20.1286673555
 31
0.0
  0
SPLINE
  5
47D
100
AcDbEntity
  8
RACCORDO
100
AcDbSpline
 62
253
  6
CONTINUOUS
 70
0
 71
3
 72
11
 73
7
 74
5
 42
0.0000001
 43
0.0000001
 44
0.0000000001
 12
-0.014727156
 22
-0.3368678087
 32
0.0
 13
-0.3109430317
 23
-0.130427147
 33
0.0
 40
0.0
 40
0.0
 40
0.0
 40
0.0
 40
0.2893992915
 40
0.5494436027
 40
0.7828919629
 40
1.0
 40
1.0
 40
1.0
 40
1.0
 10
-1.2269662555
 20
-25.1365159476
 30
0.0
 10
-1.2283869317
 20
-25.1690123827
 30
0.0
 10
-1.236497079
 20
-25.230716595
 30
0.0
 10
-1.2672637177
 20
-25.3141077854
 30
0.0
 10
-1.3152709325
 20
-25.3795165655
 30
0.0
 10
-1.3585171992
 20
-25.4083498658
 30
0.0
 10
-1.381019943
 20
-25.4177887931
 30
0.0
 11
-1.2269662555
 21
-25.1365159476
 31
0.0
 11
-1.2406707241
 21
-25.233131252
 31
0.0
 11
-1.272181348
 21
-25.3149579281
 31
0.0
 11
-1.3198131374
 21
-25.3776275135
 31
0.0
 11
-1.381019943
 21
-25.4177887931
 31
0.0
  0
SPLINE
  5
47E
100
AcDbEntity
  8
RACCORDO
100
AcDbSpline
 62
7
  6
CONTINUOUS
 70
0
 71
3
 72
11
 73
7
 74
5
 42
0.0000001
 43
0.0000001
 44
0.0000000001
 12
-0.0050749735
 22
-0.2867613093
 32
0.0
 13
-0.2572126656
 23
-0.1268836023
 33
0.0
 40
0.0
 40
0.0
 40
0.0
 40
0.0
 40
0.2901814882
 40
0.5505671124
 40
0.7839009993
 40
1.0
 40
1.0
 40
1.0
 40
1.0
 10
4.2703503785
 20
-22.8723018992
 30
0.0
 10
4.2698594907
 20
-22.900039507
 30
0.0
 10
4.2644940726
 20
-22.9527795915
 30
0.0
 10
4.2410204002
 20
-23.0246928323
 30
0.0
 10
4.2029631069
 20
-23.0820836163
 30
0.0
 10
4.1677993905
 20
-23.1086093342
 30
0.0
 10
4.1492715905
 20
-23.1177491408
 30
0.0
 11
4.2703503785
 21
-22.8723018992
 31
0.0
 11
4.2611143457
 21
-22.9550136785
 31
0.0
 11
4.2369597159
 21
-23.0256797124
 31
0.0
 11
4.1990559951
 21
-23.0808323155
 31
0.0
 11
4.1492715905
 21
-23.1177491408
 31
0.0
  0
SPLINE
  5
47F
100
AcDbEntity
  8
RACCORDO
100
AcDbSpline
 62
253
  6
CONTINUOUS
 70
0
 71
3
 72
13
 73
9
 74
7
 42
0.0000001
 43
0.0000001
 44
0.0000000001
 12
-0.6374576824
 22
-0.3393855639
 32
0.0
 13
-0.6461510624
 23
0.3225269949
 33
0.0
 40
0.0
 40
0.0
 40
0.0
 40
0.0
 40
0.114863966
 40
0.2391698853
 40
0.5036419186
 40
0.7661408127
 40
0.8881244595
 40
1.0
 40
1.0
 40
1.0
 40
1.0
 10
-1.9081546658
 20
-24.6361998906
 30
0.0
 10
-1.9325616383
 20
-24.6491942812
 30
0.0
 10
-1.9855726119
 20
-24.6722319274
 30
0.0
 10
-2.1021709329
 20
-24.7062822804
 30
0.0
 10
-2.2590185155
 20
-24.7249113387
 30
0.0
 10
-2.4160096819
 20
-24.7130035842
 30
0.0
 10
-2.532104644
 20
-24.6837265628
 30
0.0
 10
-2.5846419621
 20
-24.6628273302
 30
0.0
 10
-2.6087381285
 20
-24.6507997029
 30
0.0
 11
-1.9081546658
 21
-24.6361998906
 31
0.0
 11
-1.9840240251
 21
-24.6697383875
 31
0.0
 11
-2.0700914697
 21
-24.6952556672
 31
0.0
 11
-2.2596374646
 21
-24.7187356479
 31
0.0
 11
-2.4485648942
 21
-24.703142866
 31
0.0
 11
-2.5338809464
 21
-24.6811971335
 31
0.0
 11
-2.6087381285
 21
-24.6507997029
 31
0.0
  0
SPLINE
  5
480
100
AcDbEntity
  8
RACCORDO
100
AcDbSpline
 62
253
  6
CONTINUOUS
 70
0
 71
3
 72
13
 73
9
 74
7
 42
0.0000001
 43
0.0000001
 44
0.0000000001
 12
-0.6593321765
 22
-0.2856780222
 32
0.0
 13
-0.6424675754
 23
0.321817131
 33
0.0
 40
0.0
 40
0.0
 40
0.0
 40
0.0
 40
0.1119164526
 40
0.2345486234
 40
0.4988620903
 40
0.7637876921
 40
0.8871442964
 40
1.0
 40
1.0
 40
1.0
 40
1.0
 10
-1.9081546617
 20
10.9434247351
 30
0.0
 10
-1.9327513678
 20
10.9327673781
 30
0.0
 10
-1.9860749551
 20
10.9144427822
 30
0.0
 10
-2.1030878046
 20
10.8892894075
 30
0.0
 10
-2.2599547804
 20
10.880298156
 30
0.0
 10
-2.4161555947
 20
10.8987317525
 30
0.0
 10
-2.5320133398
 20
10.9308502883
 30
0.0
 10
-2.5845694255
 20
10.9523338612
 30
0.0
 10
-2.6087381356
 20
10.9644401608
 30
0.0
 11
-1.9081546617
 21
10.9434247351
 31
0.0
 11
-1.9840240217
 21
10.9167594939
 31
0.0
 11
-2.0700914674
 21
10.8978567587
 31
0.0
 11
-2.2596374654
 21
10.8858559851
 31
0.0
 11
-2.4485648984
 21
10.9092098388
 31
0.0
 11
-2.5338809521
 21
10.9332535704
 31
0.0
 11
-2.6087381356
 21
10.9644401608
 31
0.0
  0
SPLINE
  5
481
100
AcDbEntity
  8
RACCORDO
100
AcDbSpline
 62
253
  6
CONTINUOUS
 70
0
 71
3
 72
12
 73
8
 74
6
 42
0.0000001
 43
0.0000001
 44
0.0000000001
 12
-0.0324733428
 22
0.7307799399
 32
0.0
 13
-0.6493125312
 23
0.3368784282
 33
0.0
 40
0.0
 40
0.0
 40
0.0
 40
0.0
 40
0.2443925102
 40
0.509719336
 40
0.7695749539
 40
0.8897265193
 40
1.0
 40
1.0
 40
1.0
 40
1.0
 10
-1.2269670066
 20
12.1015556815
 30
0.0
 10
-1.2296124205
 20
12.1610880628
 30
0.0
 10
-1.2554278983
 20
12.2845188673
 30
0.0
 10
-1.3351628963
 20
12.455719188
 30
0.0
 10
-1.4316746502
 20
12.5821290347
 30
0.0
 10
-1.5214820427
 20
12.6614989206
 30
0.0
 10
-1.5689324244
 20
12.6921751975
 30
0.0
 10
-1.592799742
 20
12.7045581164
 30
0.0
 11
-1.2269670066
 21
12.1015556815
 31
0.0
 11
-1.2605736906
 21
12.2771418841
 31
0.0
 11
-1.341888354
 21
12.4533736497
 31
0.0
 11
-1.4585423104
 21
12.6034537448
 31
0.0
 11
-1.5247167784
 21
12.6612963568
 31
0.0
 11
-1.592799742
 21
12.7045581164
 31
0.0
  0
SPLINE
  5
482
100
AcDbEntity
  8
RACCORDO
100
AcDbSpline
 62
7
  6
CONTINUOUS
 70
0
 71
3
 72
15
 73
11
 74
9
 42
0.0000001
 43
0.0000001
 44
0.0000000001
 12
-0.0118833135
 22
0.6599805904
 32
0.0
 13
-0.5904006554
 23
0.2951993546
 33
0.0
 40
0.0
 40
0.0
 40
0.0
 40
0.0
 40
0.2459591465
 40
0.5111804449
 40
0.6432251165
 40
0.7704213159
 40
0.8313423032
 40
0.8900788447
 40
0.9462552498
 40
1.0
 40
1.0
 40
1.0
 40
1.0
 10
4.2703510374
 20
15.1460400153
 30
0.0
 10
4.2693767675
 20
15.2001494362
 30
0.0
 10
4.2489788672
 20
15.3124081754
 30
0.0
 10
4.1915160737
 20
15.4430493507
 30
0.0
 10
4.1277078868
 20
15.539473206
 30
0.0
 10
4.081850316
 20
15.593231905
 30
0.0
 10
4.0425727972
 20
15.6308066843
 30
0.0
 10
4.0126409395
 20
15.6553790902
 30
0.0
 10
3.9823498406
 20
15.6768630507
 30
0.0
 10
3.9614313049
 20
15.6891170449
 30
0.0
 10
3.9508543264
 20
15.6944055167
 30
0.0
 11
4.2703510374
 21
15.1460400153
 31
0.0
 11
4.2438974512
 21
15.3062249567
 31
0.0
 11
4.1738943813
 21
15.4666893557
 31
0.0
 11
4.1256673722
 21
15.5392924098
 31
0.0
 11
4.0709918021
 21
15.6030102985
 31
0.0
 11
4.0418804606
 21
15.6307525071
 31
0.0
 11
4.0119237295
 21
15.6553656115
 31
0.0
 11
3.9816058096
 21
15.6767162552
 31
0.0
 11
3.9508543264
 21
15.6944055167
 31
0.0
  0
SPLINE
  5
483
100
AcDbEntity
  8
RACCORDO
100
AcDbSpline
 62
253
  6
CONTINUOUS
 70
0
 71
3
 72
11
 73
7
 74
5
 42
0.0000001
 43
0.0000001
 44
0.0000000001
 12
0.1304199942
 22
-0.0664284961
 32
0.0
 13
0.0064477652
 23
-0.1462208819
 33
0.0
 40
0.0
 40
0.0
 40
0.0
 40
0.0
 40
0.2305066381
 40
0.4905793394
 40
0.755782891
 40
1.0
 40
1.0
 40
1.0
 40
1.0
 10
-15.8282869032
 20
19.8223017055
 30
0.0
 10
-15.8182660118
 20
19.8171976357
 30
0.0
 10
-15.7990414694
 20
19.8022021412
 30
0.0
 10
-15.7763235768
 20
19.7728062726
 30
0.0
 10
-15.7602113736
 20
19.7385865352
 30
0.0
 10
-15.7550201507
 20
19.7139088976
 30
0.0
 10
-15.7544952658
 20
19.7020056839
 30
0.0
 11
-15.8282869032
 21
19.8223017055
 31
0.0
 11
-15.801188789
 21
19.8022039356
 31
0.0
 11
-15.7776521562
 21
19.7722878498
 31
0.0
 11
-15.7612558996
 21
19.7371048553
 31
0.0
 11
-15.7544952658
 21
19.7020056839
 31
0.0
  0
SPLINE
  5
484
100
AcDbEntity
  8
RACCORDO
100
AcDbSpline
 62
253
  6
CONTINUOUS
 70
0
 71
3
 72
11
 73
7
 74
5
 42
0.0000001
 43
0.0000001
 44
0.0000000001
 12
0.1290077661
 22
-0.0645624476
 32
0.0
 13
0.1319778257
 23
0.0582508959
 33
0.0
 40
0.0
 40
0.0
 40
0.0
 40
0.0
 40
0.2362921187
 40
0.501783568
 40
0.7663187212
 40
1.0
 40
1.0
 40
1.0
 40
1.0
 10
-16.8407186664
 20
18.0804305682
 30
0.0
 10
-16.8305574936
 20
18.075345369
 30
0.0
 10
-16.807315024
 20
18.0678854275
 30
0.0
 10
-16.7705393507
 20
18.0635972227
 30
0.0
 10
-16.7337090521
 20
18.0658224196
 30
0.0
 10
-16.7102572808
 20
18.0719945021
 30
0.0
 10
-16.6999770318
 20
18.0765318833
 30
0.0
 11
-16.8407186664
 21
18.0804305682
 31
0.0
 11
-16.8084816682
 21
18.0693511232
 31
0.0
 11
-16.7704621284
 21
18.0647235127
 31
0.0
 11
-16.7323832195
 21
18.0672431193
 31
0.0
 11
-16.6999770318
 21
18.0765318833
 31
0.0
  0
SPLINE
  5
485
100
AcDbEntity
  8
RACCORDO
100
AcDbSpline
 62
7
  6
CONTINUOUS
 70
0
 71
3
 72
10
 73
6
 74
4
 42
0.0000001
 43
0.0000001
 44
0.0000000001
 12
-0.1481606614
 22
-0.0699591808
 32
0.0
 13
-0.1331394356
 23
-0.0954974305
 33
0.0
 40
0.0
 40
0.0
 40
0.0
 40
0.0
 40
0.267844197
 40
0.5469587479
 40
1.0
 40
1.0
 40
1.0
 40
1.0
 10
-16.8328041799
 20
13.6157918825
 30
0.0
 10
-16.846032171
 20
13.609545829
 30
0.0
 10
-16.8724636623
 20
13.5955686655
 30
0.0
 10
-16.9196790653
 20
13.5681307703
 30
0.0
 10
-16.9534326977
 20
13.5465860569
 30
0.0
 10
-16.9735385833
 20
13.5321646317
 30
0.0
 11
-16.8328041799
 21
13.6157918825
 31
0.0
 11
-16.8717735604
 21
13.5956096184
 31
0.0
 11
-16.9113485434
 21
13.5726913658
 31
0.0
 11
-16.9735385833
 21
13.5321646317
 31
0.0
  0
SPLINE
  5
486
100
AcDbEntity
  8
RACCORDO
100
AcDbSpline
 62
253
  6
CONTINUOUS
 70
0
 71
3
 72
9
 73
5
 74
3
 42
0.0000001
 43
0.0000001
 44
0.0000000001
 12
-0.0426646329
 22
0.020940584
 32
0.0
 13
-0.0412255834
 23
-0.0236480492
 33
0.0
 40
0.0
 40
0.0
 40
0.0
 40
0.0
 40
0.5426811011
 40
1.0
 40
1.0
 40
1.0
 40
1.0
 10
-2.2055310424
 20
13.0109237751
 30
0.0
 10
-2.2132488057
 20
13.0147117948
 30
0.0
 10
-2.2287504348
 20
13.0198468872
 30
0.0
 10
-2.245296747
 20
13.0166409206
 30
0.0
 10
-2.2515811598
 20
13.0130360207
 30
0.0
 11
-2.2055310424
 21
13.0109237751
 31
0.0
 11
-2.2303813501
 21
13.017828765
 31
0.0
 11
-2.2515811598
 21
13.0130360207
 31
0.0
  0
SPLINE
  5
487
100
AcDbEntity
  8
RACCORDO
100
AcDbSpline
 62
253
  6
CONTINUOUS
 70
0
 71
3
 72
11
 73
7
 74
5
 42
0.0000001
 43
0.0000001
 44
0.0000000001
 12
-0.0429135786
 22
0.0214373095
 32
0.0
 13
0.0015645503
 23
0.0479446102
 33
0.0
 40
0.0
 40
0.0
 40
0.0
 40
0.0
 40
0.3084588886
 40
0.573353066
 40
0.7989229993
 40
1.0
 40
1.0
 40
1.0
 40
1.0
 10
-3.2016035324
 20
11.2608728596
 30
0.0
 10
-3.2060158907
 20
11.2630770358
 30
0.0
 10
-3.2139582789
 20
11.267755915
 30
0.0
 10
-3.2235766301
 20
11.2763242045
 30
0.0
 10
-3.2296702675
 20
11.2857728554
 30
0.0
 10
-3.231003546
 20
11.2926961097
 30
0.0
 10
-3.230898681
 20
11.2959096292
 30
0.0
 11
-3.2016035324
 21
11.2608728596
 31
0.0
 11
-3.2142608333
 21
11.268536959
 31
0.0
 11
-3.2235883181
 21
11.2771663326
 31
0.0
 11
-3.2292079017
 21
11.2864132824
 31
0.0
 11
-3.230898681
 21
11.2959096292
 31
0.0
  0
SPLINE
  5
488
100
AcDbEntity
  8
RACCORDO
100
AcDbSpline
 62
253
  6
CONTINUOUS
 70
0
 71
3
 72
11
 73
7
 74
5
 42
0.0000001
 43
0.0000001
 44
0.0000000001
 12
-0.1076203225
 22
0.0538101613
 32
0.0
 13
0.0000013829
 23
0.1203231785
 33
0.0
 40
0.0
 40
0.0
 40
0.0
 40
0.0
 40
0.3025823249
 40
0.5654825874
 40
0.7934322572
 40
1.0
 40
1.0
 40
1.0
 40
1.0
 10
-12.7151670735
 20
23.8504562228
 30
0.0
 10
-12.7260217427
 20
23.8558835573
 30
0.0
 10
-12.7456402157
 20
23.8675232878
 30
0.0
 10
-12.7694515859
 20
23.8890439152
 30
0.0
 10
-12.7847307829
 20
23.9129982001
 30
0.0
 10
-12.7883904713
 20
23.9305596079
 30
0.0
 10
-12.7883903761
 20
23.9388445704
 30
0.0
 11
-12.7151670735
 21
23.8504562228
 31
0.0
 11
-12.7462587465
 21
23.8693989283
 31
0.0
 11
-12.7693595831
 21
23.8910090587
 31
0.0
 11
-12.7835865433
 21
23.9144583321
 31
0.0
 11
-12.7883903761
 21
23.9388445704
 31
0.0
  0
SPLINE
  5
489
100
AcDbEntity
  8
RACCORDO
100
AcDbSpline
 62
253
  6
CONTINUOUS
 70
0
 71
3
 72
11
 73
7
 74
5
 42
0.0000001
 43
0.0000001
 44
0.0000000001
 12
-0.1076203225
 22
0.0538101613
 32
0.0
 13
0.0000013829
 23
0.1203231785
 33
0.0
 40
0.0
 40
0.0
 40
0.0
 40
0.0
 40
0.3025823249
 40
0.5654825874
 40
0.7934322572
 40
1.0
 40
1.0
 40
1.0
 40
1.0
 10
-12.7151670735
 20
23.5104822886
 30
0.0
 10
-12.7260217427
 20
23.5159096232
 30
0.0
 10
-12.7456402157
 20
23.5275493537
 30
0.0
 10
-12.7694515859
 20
23.5490699811
 30
0.0
 10
-12.7847307829
 20
23.573024266
 30
0.0
 10
-12.7883904713
 20
23.5905856738
 30
0.0
 10
-12.7883903761
 20
23.5988706363
 30
0.0
 11
-12.7151670735
 21
23.5104822886
 31
0.0
 11
-12.7462587465
 21
23.5294249942
 31
0.0
 11
-12.7693595831
 21
23.5510351246
 31
0.0
 11
-12.7835865433
 21
23.574484398
 31
0.0
 11
-12.7883903761
 21
23.5988706363
 31
0.0
  0
SPLINE
  5
48A
100
AcDbEntity
  8
RACCORDO
100
AcDbSpline
 62
253
  6
CONTINUOUS
 70
0
 71
3
 72
11
 73
7
 74
5
 42
0.0000001
 43
0.0000001
 44
0.0000000001
 12
0.0394745533
 22
-0.0642627724
 32
0.0
 13
-0.0459002527
 23
-0.0598423853
 33
0.0
 40
0.0
 40
0.0
 40
0.0
 40
0.0
 40
0.3443103774
 40
0.6207911565
 40
0.8330085203
 40
1.0
 40
1.0
 40
1.0
 40
1.0
 10
-8.9081124715
 20
23.9060804658
 30
0.0
 10
-8.903581972
 20
23.8987050193
 30
0.0
 10
-8.8960046834
 20
23.885004905
 30
0.0
 10
-8.8887017105
 20
23.865276591
 30
0.0
 10
-8.8865967007
 20
23.848667239
 30
0.0
 10
-8.8897777943
 20
23.8391048129
 30
0.0
 10
-8.892332778
 20
23.8357737568
 30
0.0
 11
-8.9081124715
 21
23.9060804658
 31
0.0
 11
-8.8958334708
 21
23.8831996908
 31
0.0
 11
-8.8890074728
 21
23.8634968628
 31
0.0
 11
-8.8878290643
 21
23.8475351961
 31
0.0
 11
-8.892332778
 21
23.8357737568
 31
0.0
  0
SPLINE
  5
48B
100
AcDbEntity
  8
RACCORDO
100
AcDbSpline
 62
7
  6
CONTINUOUS
 70
0
 71
3
 72
11
 73
7
 74
5
 42
0.0000001
 43
0.0000001
 44
0.0000000001
 12
0.0
 22
0.3670486434
 32
0.0
 13
-0.328298287
 23
0.1641491435
 33
0.0
 40
0.0
 40
0.0
 40
0.0
 40
0.0
 40
0.2467927921
 40
0.5117852903
 40
0.7703247525
 40
1.0
 40
1.0
 40
1.0
 40
1.0
 10
-9.4363796432
 20
23.9901731625
 30
0.0
 10
-9.4363796432
 20
24.020368149
 30
0.0
 10
-9.4467996466
 20
24.0830924875
 30
0.0
 10
-9.4845334204
 20
24.1703262967
 30
0.0
 10
-9.5399920261
 20
24.244922406
 30
0.0
 10
-9.5880193501
 20
24.2824957029
 30
0.0
 10
-9.6131533469
 20
24.2950627013
 30
0.0
 11
-9.4363796432
 21
23.9901731625
 31
0.0
 11
-9.4498356074
 21
24.0797531375
 31
0.0
 11
-9.4881552308
 21
24.1691517579
 31
0.0
 11
-9.5455049779
 21
24.2447583937
 31
0.0
 11
-9.6131533469
 21
24.2950627013
 31
0.0
  0
SPLINE
  5
48C
100
AcDbEntity
  8
RACCORDO
100
AcDbSpline
 62
7
  6
CONTINUOUS
 70
0
 71
3
 72
11
 73
7
 74
5
 42
0.0000001
 43
0.0000001
 44
0.0000000001
 12
-0.4087143287
 22
0.2043714832
 32
0.0
 13
-0.4104598159
 23
-0.2008428369
 33
0.0
 40
0.0
 40
0.0
 40
0.0
 40
0.0
 40
0.227550333
 40
0.4653227117
 40
0.7212674125
 40
1.0
 40
1.0
 40
1.0
 40
1.0
 10
1.4406728564
 20
24.1969622358
 30
0.0
 10
1.4096718292
 20
24.2124638355
 30
0.0
 10
1.3414604907
 20
24.2353089644
 30
0.0
 10
1.2306523396
 20
24.2414213587
 30
0.0
 10
1.1139831368
 20
24.2203671845
 30
0.0
 10
1.0377521472
 20
24.1902807351
 30
0.0
 10
0.9996159717
 20
24.1716202539
 30
0.0
 11
1.4406728564
 21
24.1969622358
 31
0.0
 11
1.3421755007
 21
24.230287008
 31
0.0
 11
1.2337409419
 21
24.2371758012
 31
0.0
 11
1.1184619788
 21
24.2174335661
 31
0.0
 11
0.9996159717
 21
24.1716202539
 31
0.0
  0
SPLINE
  5
48D
100
AcDbEntity
  8
RACCORDO
100
AcDbSpline
 62
253
  6
CONTINUOUS
 70
0
 71
3
 72
11
 73
7
 74
5
 42
0.0000001
 43
0.0000001
 44
0.0000000001
 12
-0.0017563531
 22
0.3667457897
 32
0.0
 13
-0.3272560829
 23
0.165556683
 33
0.0
 40
0.0
 40
0.0
 40
0.0
 40
0.0
 40
0.2466955157
 40
0.5118832147
 40
0.7705705489
 40
1.0
 40
1.0
 40
1.0
 40
1.0
 10
-11.0376604341
 20
23.187451159
 30
0.0
 10
-11.0378048622
 20
23.2176093396
 30
0.0
 10
-11.0484578561
 20
23.2802384419
 30
0.0
 10
-11.0862762871
 20
23.3673646897
 30
0.0
 10
-11.1415917224
 20
23.4419625491
 30
0.0
 10
-11.1894067432
 20
23.4796795048
 30
0.0
 10
-11.2144341377
 20
23.4923406978
 30
0.0
 11
-11.0376604341
 21
23.187451159
 31
0.0
 11
-11.051433733
 21
23.2768722229
 31
0.0
 11
-11.0898642926
 21
23.366214992
 31
0.0
 11
-11.1471028139
 21
23.4418770538
 31
0.0
 11
-11.2144341377
 21
23.4923406978
 31
0.0
  0
SPLINE
  5
48E
100
AcDbEntity
  8
RACCORDO
100
AcDbSpline
 62
253
  6
CONTINUOUS
 70
0
 71
3
 72
11
 73
7
 74
5
 42
0.0000001
 43
0.0000001
 44
0.0000000001
 12
0.0017306169
 22
0.3673419508
 32
0.0
 13
-0.3293172695
 23
0.1627674411
 33
0.0
 40
0.0
 40
0.0
 40
0.0
 40
0.0
 40
0.2468893536
 40
0.5116863499
 40
0.7700780422
 40
1.0
 40
1.0
 40
1.0
 40
1.0
 10
-8.9081124715
 20
24.2536119825
 30
0.0
 10
-8.9079700478
 20
24.2838429215
 30
0.0
 10
-8.9181605013
 20
24.3466603459
 30
0.0
 10
-8.9558086868
 20
24.4340015128
 30
0.0
 10
-9.0114110755
 20
24.5085949631
 30
0.0
 10
-9.0596470847
 20
24.5460269184
 30
0.0
 10
-9.0848861752
 20
24.5585015213
 30
0.0
 11
-8.9081124715
 21
24.2536119825
 31
0.0
 11
-8.9212552987
 21
24.3433484616
 31
0.0
 11
-8.9594644817
 21
24.4328019387
 31
0.0
 11
-9.0169244409
 21
24.508353248
 31
0.0
 11
-9.0848861752
 21
24.5585015213
 31
0.0
  0
SPLINE
  5
48F
100
AcDbEntity
  8
RACCORDO
100
AcDbSpline
 62
253
  6
CONTINUOUS
 70
0
 71
3
 72
11
 73
7
 74
5
 42
0.0000001
 43
0.0000001
 44
0.0000000001
 12
-0.1022732388
 22
0.0517308249
 32
0.0
 13
-0.1030347983
 23
-0.0501968522
 33
0.0
 40
0.0
 40
0.0
 40
0.0
 40
0.0
 40
0.2789492198
 40
0.5349524055
 40
0.7726363297
 40
1.0
 40
1.0
 40
1.0
 40
1.0
 10
-10.4222123357
 20
25.2271646016
 30
0.0
 10
-10.4317220158
 20
25.2319746927
 30
0.0
 10
-10.4507505016
 20
25.2397764865
 30
0.0
 10
-10.4799503428
 20
25.245434432
 30
0.0
 10
-10.5077525398
 20
25.2442406601
 30
0.0
 10
-10.5249155167
 20
25.2387034197
 30
0.0
 10
-10.5327243067
 20
25.2348991062
 30
0.0
 11
-10.4222123357
 21
25.2271646016
 31
0.0
 11
-10.4518899149
 21
25.2390549427
 31
0.0
 11
-10.4807442827
 21
25.2443766731
 31
0.0
 11
-10.5079497784
 21
25.2429782625
 31
0.0
 11
-10.5327243067
 21
25.2348991062
 31
0.0
  0
SPLINE
  5
490
100
AcDbEntity
  8
RACCORDO
100
AcDbSpline
 62
7
  6
CONTINUOUS
 70
0
 71
3
 72
11
 73
7
 74
5
 42
0.0000001
 43
0.0000001
 44
0.0000000001
 12
-0.1028463418
 22
0.0514231709
 32
0.0
 13
-0.1033748983
 23
-0.0503521891
 33
0.0
 40
0.0
 40
0.0
 40
0.0
 40
0.0
 40
0.2790833933
 40
0.5352290697
 40
0.7729212505
 40
1.0
 40
1.0
 40
1.0
 40
1.0
 10
-10.9566622144
 20
24.9668171351
 30
0.0
 10
-10.9662297831
 20
24.9716009194
 30
0.0
 10
-10.9853612965
 20
24.9793516519
 30
0.0
 10
-11.014680275
 20
24.9849454753
 30
0.0
 10
-11.0425630446
 20
24.9837117184
 30
0.0
 10
-11.0597695829
 20
24.9781584521
 30
0.0
 10
-11.0675943305
 20
24.974347148
 30
0.0
 11
-10.9566622144
 21
24.9668171351
 31
0.0
 11
-10.9864996185
 21
24.9786296703
 31
0.0
 11
-11.0154791318
 21
24.9838901265
 31
0.0
 11
-11.042772322
 21
24.9824491421
 31
0.0
 11
-11.0675943305
 21
24.974347148
 31
0.0
  0
SPLINE
  5
491
100
AcDbEntity
  8
RACCORDO
100
AcDbSpline
 62
253
  6
CONTINUOUS
 70
0
 71
3
 72
11
 73
7
 74
5
 42
0.0000001
 43
0.0000001
 44
0.0000000001
 12
-0.1051368994
 22
0.0519560066
 32
0.0
 13
-0.104347279
 23
-0.0535241963
 33
0.0
 40
0.0
 40
0.0
 40
0.0
 40
0.0
 40
0.2795156184
 40
0.5356957389
 40
0.7731450427
 40
1.0
 40
1.0
 40
1.0
 40
1.0
 10
-12.5394188176
 20
24.1548330377
 30
0.0
 10
-12.5492146194
 20
24.1596738762
 30
0.0
 10
-12.5687910034
 20
24.1674778632
 30
0.0
 10
-12.5987571801
 20
24.1729309717
 30
0.0
 10
-12.6271706342
 20
24.1713101084
 30
0.0
 10
-12.6446065848
 20
24.1653317532
 30
0.0
 10
-12.6524971507
 20
24.1612843435
 30
0.0
 11
-12.5394188176
 21
24.1548330377
 31
0.0
 11
-12.5699668142
 21
24.1667218119
 31
0.0
 11
-12.5995732774
 21
24.1718262667
 31
0.0
 11
-12.6273596892
 21
24.169995889
 31
0.0
 11
-12.6524971507
 21
24.1612843435
 31
0.0
  0
SPLINE
  5
492
100
AcDbEntity
  8
RACCORDO
100
AcDbSpline
 62
253
  6
CONTINUOUS
 70
0
 71
3
 72
9
 73
5
 74
3
 42
0.0000001
 43
0.0000001
 44
0.0000000001
 12
0.0
 22
0.0591159102
 32
0.0
 13
0.0113884801
 23
0.0580085628
 33
0.0
 40
0.0
 40
0.0
 40
0.0
 40
0.0
 40
0.2415564588
 40
1.0
 40
1.0
 40
1.0
 40
1.0
 10
-11.3901823937
 20
23.1879638828
 30
0.0
 10
-11.3901823937
 20
23.1927238262
 30
0.0
 10
-11.3896502284
 20
23.2124276284
 30
0.0
 10
-11.3870944832
 20
23.2320593815
 30
0.0
 10
-11.3842153101
 20
23.2467247881
 30
0.0
 11
-11.3901823937
 21
23.1879638828
 31
0.0
 11
-11.3898072229
 21
23.2022387835
 31
0.0
 11
-11.3842153101
 21
23.2467247881
 31
0.0
  0
SPLINE
  5
493
100
AcDbEntity
  8
RACCORDO
100
AcDbSpline
 62
253
  6
CONTINUOUS
 70
0
 71
3
 72
11
 73
7
 74
5
 42
0.0000001
 43
0.0000001
 44
0.0000000001
 12
0.0591913628
 22
0.3014981685
 32
0.0
 13
0.2740304919
 23
0.1389678111
 33
0.0
 40
0.0
 40
0.0
 40
0.0
 40
0.0
 40
0.2586012311
 40
0.5224170127
 40
0.7743001533
 40
1.0
 40
1.0
 40
1.0
 40
1.0
 10
-11.3842153101
 20
23.2467247881
 30
0.0
 10
-11.3791129904
 20
23.272714054
 30
0.0
 10
-11.3628222413
 20
23.3241551926
 30
0.0
 10
-11.3243958505
 20
23.3940845815
 30
0.0
 10
-11.2750283073
 20
23.4524461011
 30
0.0
 10
-11.2350503511
 20
23.4818856933
 30
0.0
 10
-11.2144341377
 20
23.4923406978
 30
0.0
 11
-11.3842153101
 21
23.2467247881
 31
0.0
 11
-11.3606238537
 21
23.322597864
 31
0.0
 11
-11.3215147735
 21
23.3935974056
 31
0.0
 11
-11.2710102605
 21
23.452238819
 31
0.0
 11
-11.2144341377
 21
23.4923406978
 31
0.0
  0
SPLINE
  5
494
100
AcDbEntity
  8
RACCORDO
100
AcDbSpline
 62
253
  6
CONTINUOUS
 70
0
 71
3
 72
11
 73
7
 74
5
 42
0.0000001
 43
0.0000001
 44
0.0000000001
 12
0.0
 22
0.3659184282
 32
0.0
 13
0.3263519551
 23
0.1655013518
 33
0.0
 40
0.0
 40
0.0
 40
0.0
 40
0.0
 40
0.2465991784
 40
0.5114081618
 40
0.7699752382
 40
1.0
 40
1.0
 40
1.0
 40
1.0
 10
-12.7151670735
 20
23.8504562228
 30
0.0
 10
-12.7151670735
 20
23.8805346173
 30
0.0
 10
-12.7048243309
 20
23.9430195984
 30
0.0
 10
-12.6673407303
 20
24.0299900063
 30
0.0
 10
-12.6122013786
 20
24.1044890323
 30
0.0
 10
-12.5644418278
 20
24.1421432347
 30
0.0
 10
-12.5394188176
 20
24.1548330377
 30
0.0
 11
-12.7151670735
 21
23.8504562228
 31
0.0
 11
-12.7018087449
 21
23.9396971519
 31
0.0
 11
-12.6637535022
 21
24.0288100875
 31
0.0
 11
-12.6067514645
 21
24.1043260686
 31
0.0
 11
-12.5394188176
 21
24.1548330377
 31
0.0
  0
SPLINE
  5
495
100
AcDbEntity
  8
RACCORDO
100
AcDbSpline
 62
253
  6
CONTINUOUS
 70
0
 71
3
 72
11
 73
7
 74
5
 42
0.0000001
 43
0.0000001
 44
0.0000000001
 12
0.3239338537
 22
-0.1619669268
 32
0.0
 13
0.324681576
 23
0.1604627718
 33
0.0
 40
0.0
 40
0.0
 40
0.0
 40
0.0
 40
0.2351708329
 40
0.4995791214
 40
0.7642139051
 40
1.0
 40
1.0
 40
1.0
 40
1.0
 10
-11.3901823937
 20
22.8479899487
 30
0.0
 10
-11.364789129
 20
22.8352933164
 30
0.0
 10
-11.3064448953
 20
22.817149416
 30
0.0
 10
-11.2141098592
 20
22.8083929209
 30
0.0
 10
-11.121675556
 20
22.8168958476
 30
0.0
 10
-11.063178901
 20
22.8348655947
 30
0.0
 10
-11.0376604341
 20
22.8474772249
 30
0.0
 11
-11.3901823937
 21
22.8479899487
 31
0.0
 11
-11.3094125569
 21
22.820963392
 31
0.0
 11
-11.2141329179
 21
22.8113788252
 31
0.0
 11
-11.1187433704
 21
22.8206860741
 31
0.0
 11
-11.0376604341
 21
22.8474772249
 31
0.0
  0
SPLINE
  5
496
100
AcDbEntity
  8
RACCORDO
100
AcDbSpline
 62
253
  6
CONTINUOUS
 70
0
 71
3
 72
11
 73
7
 74
5
 42
0.0000001
 43
0.0000001
 44
0.0000000001
 12
0.3239338537
 22
-0.1619669268
 32
0.0
 13
0.324681576
 23
0.1604627718
 33
0.0
 40
0.0
 40
0.0
 40
0.0
 40
0.0
 40
0.2351708329
 40
0.4995791214
 40
0.7642139051
 40
1.0
 40
1.0
 40
1.0
 40
1.0
 10
-11.3901823937
 20
23.1879638828
 30
0.0
 10
-11.364789129
 20
23.1752672505
 30
0.0
 10
-11.3064448953
 20
23.1571233501
 30
0.0
 10
-11.2141098592
 20
23.148366855
 30
0.0
 10
-11.121675556
 20
23.1568697817
 30
0.0
 10
-11.063178901
 20
23.1748395289
 30
0.0
 10
-11.0376604341
 20
23.187451159
 30
0.0
 11
-11.3901823937
 21
23.1879638828
 31
0.0
 11
-11.3094125569
 21
23.1609373261
 31
0.0
 11
-11.2141329179
 21
23.1513527593
 31
0.0
 11
-11.1187433704
 21
23.1606600082
 31
0.0
 11
-11.0376604341
 21
23.187451159
 31
0.0
  0
SPLINE
  5
497
100
AcDbEntity
  8
RACCORDO
100
AcDbSpline
 62
7
  6
CONTINUOUS
 70
0
 71
3
 72
12
 73
8
 74
6
 42
0.0000001
 43
0.0000001
 44
0.0000000001
 12
0.0002238523
 22
-0.3790359227
 32
0.0
 13
0.2339640663
 23
-0.2982098196
 33
0.0
 40
0.0
 40
0.0
 40
0.0
 40
0.0
 40
0.1015870176
 40
0.2135875906
 40
0.4591399651
 40
0.7237133738
 40
1.0
 40
1.0
 40
1.0
 40
1.0
 10
-7.2119561256
 20
21.8742074326
 30
0.0
 10
-7.2119485455
 20
21.8613723896
 30
0.0
 10
-7.2096914013
 20
21.8343781339
 30
0.0
 10
-7.1982227177
 20
21.7774305481
 30
0.0
 10
-7.1718770542
 20
21.7029530751
 30
0.0
 10
-7.1259902748
 20
21.614561074
 30
0.0
 10
-7.087056077
 20
21.558141051
 30
0.0
 10
-7.0655090295
 20
21.530677256
 30
0.0
 11
-7.2119561256
 21
21.8742074326
 31
0.0
 11
-7.2091051594
 21
21.8358079865
 31
0.0
 11
-7.2009492911
 21
21.7941465515
 31
0.0
 11
-7.170791175
 21
21.706094827
 31
0.0
 11
-7.1249089126
 21
21.6169238299
 31
0.0
 11
-7.0655090295
 21
21.530677256
 31
0.0
  0
SPLINE
  5
498
100
AcDbEntity
  8
RACCORDO
100
AcDbSpline
 62
253
  6
CONTINUOUS
 70
0
 71
3
 72
12
 73
8
 74
6
 42
0.0000001
 43
0.0000001
 44
0.0000000001
 12
-0.1068021872
 22
-0.2780421342
 32
0.0
 13
-0.2915621921
 23
0.0608738343
 33
0.0
 40
0.0
 40
0.0
 40
0.0
 40
0.0
 40
0.2772952868
 40
0.5367750603
 40
0.7750875836
 40
0.8885703057
 40
1.0
 40
1.0
 40
1.0
 40
1.0
 10
-11.0376604341
 20
22.8474772249
 30
0.0
 10
-11.0475323484
 20
22.8217773004
 30
0.0
 10
-11.0733323909
 20
22.7742252668
 30
0.0
 10
-11.1287409472
 20
22.7191213102
 30
0.0
 10
-11.1852758967
 20
22.6928539706
 30
0.0
 10
-11.2312315353
 20
22.6872542716
 30
0.0
 10
-11.2536743013
 20
22.6893949192
 30
0.0
 10
-11.2645038633
 20
22.6916559701
 30
0.0
 11
-11.0376604341
 21
22.8474772249
 31
0.0
 11
-11.0775438676
 21
22.7751531001
 31
0.0
 11
-11.1330945311
 21
22.7214201995
 31
0.0
 11
-11.1979060595
 21
22.6924755081
 31
0.0
 11
-11.231468218
 21
22.6884666097
 31
0.0
 11
-11.2645038633
 21
22.6916559701
 31
0.0
  0
SPLINE
  5
499
100
AcDbEntity
  8
RACCORDO
100
AcDbSpline
 62
7
  6
CONTINUOUS
 70
0
 71
3
 72
11
 73
7
 74
5
 42
0.0000001
 43
0.0000001
 44
0.0000000001
 12
-0.2287633488
 22
-0.2738870147
 32
0.0
 13
-0.3493645148
 23
0.0727406517
 33
0.0
 40
0.0
 40
0.0
 40
0.0
 40
0.0
 40
0.2549800052
 40
0.5144907592
 40
0.767340781
 40
1.0
 40
1.0
 40
1.0
 40
1.0
 10
-10.326439826
 20
22.698973702
 30
0.0
 10
-10.3458831859
 20
22.6756951312
 30
0.0
 10
-10.3905008472
 20
22.6330090302
 30
0.0
 10
-10.4688658845
 20
22.5848162667
 30
0.0
 10
-10.553825517
 20
22.5567530315
 30
0.0
 10
-10.6131237784
 20
22.5556633464
 30
0.0
 10
-10.6402180701
 20
22.5613046074
 30
0.0
 11
-10.326439826
 21
22.698973702
 31
0.0
 11
-10.3920544279
 21
22.6359328505
 31
0.0
 11
-10.4711117553
 21
22.5877020215
 31
0.0
 11
-10.5571945734
 21
22.5606571283
 31
0.0
 11
-10.6402180701
 21
22.5613046074
 31
0.0
  0
SPLINE
  5
49A
100
AcDbEntity
  8
RACCORDO
100
AcDbSpline
 62
253
  6
CONTINUOUS
 70
0
 71
3
 72
11
 73
7
 74
5
 42
0.0000001
 43
0.0000001
 44
0.0000000001
 12
-0.1076143396
 22
0.0538071698
 32
0.0
 13
-0.0000116247
 23
0.1203164888
 33
0.0
 40
0.0
 40
0.0
 40
0.0
 40
0.0
 40
0.3025789318
 40
0.5654800689
 40
0.7934320357
 40
1.0
 40
1.0
 40
1.0
 40
1.0
 10
0.6491510909
 20
-24.8112548671
 30
0.0
 10
0.6382971469
 20
-24.8058278951
 30
0.0
 10
0.6186798208
 20
-24.7941889581
 30
0.0
 10
0.5948693412
 20
-24.7726700939
 30
0.0
 10
0.579589753
 20
-24.7487179034
 30
0.0
 10
0.5759285893
 20
-24.7311578162
 30
0.0
 10
0.5759277889
 20
-24.7228733054
 30
0.0
 11
0.6491510909
 21
-24.8112548671
 31
0.0
 11
0.6180613758
 21
-24.7923136227
 31
0.0
 11
0.5949612051
 21
-24.7707052008
 31
0.0
 11
0.5807336148
 21
-24.7472577699
 31
0.0
 11
0.5759277889
 21
-24.7228733054
 31
0.0
  0
SPLINE
  5
49B
100
AcDbEntity
  8
RACCORDO
100
AcDbSpline
 62
253
  6
CONTINUOUS
 70
0
 71
3
 72
10
 73
6
 74
4
 42
0.0000001
 43
0.0000001
 44
0.0000000001
 12
0.0
 22
0.2519048022
 32
0.0
 13
0.1607031655
 23
0.1939858808
 33
0.0
 40
0.0
 40
0.0
 40
0.0
 40
0.0
 40
0.2356243917
 40
0.4879008423
 40
1.0
 40
1.0
 40
1.0
 40
1.0
 10
1.9741357707
 20
-25.1337732729
 30
0.0
 10
1.9741357707
 20
-25.113988301
 30
0.0
 10
1.9786726383
 20
-25.0729407688
 30
0.0
 10
2.0023980279
 20
-24.9921764179
 30
0.0
 10
2.0350921331
 20
-24.9351924345
 30
0.0
 10
2.0625241184
 20
-24.9020790991
 30
0.0
 11
1.9741357707
 21
-25.1337732729
 31
0.0
 11
1.9801594207
 21
-25.0747248041
 31
0.0
 11
1.9978195162
 21
-25.0136782729
 31
0.0
 11
2.0625241184
 21
-24.9020790991
 31
0.0
  0
SPLINE
  5
49C
100
AcDbEntity
  8
RACCORDO
100
AcDbSpline
 62
253
  6
CONTINUOUS
 70
0
 71
3
 72
11
 73
7
 74
5
 42
0.0000001
 43
0.0000001
 44
0.0000000001
 12
0.3239338538
 22
-0.1619669269
 32
0.0
 13
0.3246815761
 23
0.1604627719
 33
0.0
 40
0.0
 40
0.0
 40
0.0
 40
0.0
 40
0.2351708842
 40
0.4995792379
 40
0.7642140574
 40
1.0
 40
1.0
 40
1.0
 40
1.0
 10
1.9741357707
 20
-25.1337732729
 30
0.0
 10
1.999529041
 20
-25.146469908
 30
0.0
 10
2.0578732892
 20
-25.1646138106
 30
0.0
 10
2.1502083443
 20
-25.1733703017
 30
0.0
 10
2.2426426413
 20
-25.1648673678
 30
0.0
 10
2.3011392799
 20
-25.1468976187
 30
0.0
 10
2.3266577304
 20
-25.1342859967
 30
0.0
 11
1.9741357707
 21
-25.1337732729
 31
0.0
 11
2.0549056259
 21
-25.1607998333
 31
0.0
 11
2.1501852891
 21
-25.1703843964
 31
0.0
 11
2.2455748485
 21
-25.1610771369
 31
0.0
 11
2.3266577304
 21
-25.1342859967
 31
0.0
  0
SPLINE
  5
49D
100
AcDbEntity
  8
RACCORDO
100
AcDbSpline
 62
253
  6
CONTINUOUS
 70
0
 71
3
 72
11
 73
7
 74
5
 42
0.0000001
 43
0.0000001
 44
0.0000000001
 12
0.3239338539
 22
-0.161966927
 32
0.0
 13
0.3246815763
 23
0.160462772
 33
0.0
 40
0.0
 40
0.0
 40
0.0
 40
0.0
 40
0.2351709482
 40
0.4995793653
 40
0.764214221
 40
1.0
 40
1.0
 40
1.0
 40
1.0
 10
1.9741357707
 20
-25.473747207
 30
0.0
 10
1.9995290479
 20
-25.4864438456
 30
0.0
 10
2.0578733122
 20
-25.5045877504
 30
0.0
 10
2.1502083876
 20
-25.5133442367
 30
0.0
 10
2.2426426768
 20
-25.5048412952
 30
0.0
 10
2.3011392976
 20
-25.4868715441
 30
0.0
 10
2.3266577304
 20
-25.4742599309
 30
0.0
 11
1.9741357707
 21
-25.473747207
 31
0.0
 11
2.0549056488
 21
-25.500773772
 31
0.0
 11
2.1501853356
 21
-25.5103583306
 31
0.0
 11
2.2455749071
 21
-25.5010510596
 31
0.0
 11
2.3266577304
 21
-25.4742599309
 31
0.0
  0
SPLINE
  5
49E
100
AcDbEntity
  8
RACCORDO
100
AcDbSpline
 62
253
  6
CONTINUOUS
 70
0
 71
3
 72
11
 73
7
 74
5
 42
0.0000001
 43
0.0000001
 44
0.0000000001
 12
0.0
 22
-0.1574238334
 32
0.0
 13
0.1407964518
 23
-0.0704174871
 33
0.0
 40
0.0
 40
0.0
 40
0.0
 40
0.0
 40
0.2897495234
 40
0.549584515
 40
0.7828462997
 40
1.0
 40
1.0
 40
1.0
 40
1.0
 10
1.9741357707
 20
-25.473747207
 30
0.0
 10
1.9741357707
 20
-25.4889517006
 30
0.0
 10
1.9765892398
 20
-25.5179006435
 30
0.0
 10
1.9889619701
 20
-25.5574932161
 30
0.0
 10
2.0096255198
 20
-25.5891924104
 30
0.0
 10
2.0289117209
 20
-25.6038652174
 30
0.0
 10
2.0391032111
 20
-25.6089623567
 30
0.0
 11
1.9741357707
 21
-25.473747207
 31
0.0
 11
1.9784551767
 21
-25.5191557123
 31
0.0
 11
1.9912014035
 21
-25.5580232946
 31
0.0
 11
2.0117522079
 21
-25.5884550816
 31
0.0
 11
2.0391032111
 21
-25.6089623567
 31
0.0
  0
SPLINE
  5
49F
100
AcDbEntity
  8
RACCORDO
100
AcDbSpline
 62
253
  6
CONTINUOUS
 70
0
 71
3
 72
11
 73
7
 74
5
 42
0.0000001
 43
0.0000001
 44
0.0000000001
 12
0.0
 22
-0.1574304972
 32
0.0
 13
0.1408119364
 23
-0.0704014205
 33
0.0
 40
0.0
 40
0.0
 40
0.0
 40
0.0
 40
0.289749639
 40
0.5495875602
 40
0.7828489991
 40
1.0
 40
1.0
 40
1.0
 40
1.0
 10
-12.7151670735
 20
23.5104822886
 30
0.0
 10
-12.7151670735
 20
23.4952771454
 30
0.0
 10
-12.7127132121
 20
23.4663269219
 30
0.0
 10
-12.7003398386
 20
23.4267322332
 30
0.0
 10
-12.6796730121
 20
23.3950335934
 30
0.0
 10
-12.6603862926
 20
23.3803596838
 30
0.0
 10
-12.6501938083
 20
23.3752637709
 30
0.0
 11
-12.7151670735
 21
23.5104822886
 31
0.0
 11
-12.7108472635
 21
23.4650718639
 31
0.0
 11
-12.6980997743
 21
23.4262023881
 31
0.0
 11
-12.6775465587
 21
23.3957704194
 31
0.0
 11
-12.6501938083
 21
23.3752637709
 31
0.0
  0
SPLINE
  5
4A0
100
AcDbEntity
  8
RACCORDO
100
AcDbSpline
 62
253
  6
CONTINUOUS
 70
0
 71
3
 72
11
 73
7
 74
5
 42
0.0000001
 43
0.0000001
 44
0.0000000001
 12
0.0
 22
-0.1574304607
 32
0.0
 13
0.1408074022
 23
-0.0704104071
 33
0.0
 40
0.0
 40
0.0
 40
0.0
 40
0.0
 40
0.2897508691
 40
0.5495855602
 40
0.7828462233
 40
1.0
 40
1.0
 40
1.0
 40
1.0
 10
0.6491510909
 20
-24.8112548671
 30
0.0
 10
0.6491510909
 20
-24.8264600714
 30
0.0
 10
0.6516047811
 20
-24.8554103008
 30
0.0
 10
0.6639787029
 20
-24.8950043812
 30
0.0
 10
0.6846442985
 20
-24.9267041676
 30
0.0
 10
0.7039322492
 20
-24.9413763921
 30
0.0
 10
0.7141245356
 20
-24.9464730207
 30
0.0
 11
0.6491510909
 21
-24.8112548671
 31
0.0
 11
0.6534709225
 21
-24.8566654736
 31
0.0
 11
0.6662183842
 21
-24.8955344134
 31
0.0
 11
0.6867711135
 21
-24.9259665527
 31
0.0
 11
0.7141245356
 21
-24.9464730207
 31
0.0
  0
SPLINE
  5
4A1
100
AcDbEntity
  8
RACCORDO
100
AcDbSpline
 62
253
  6
CONTINUOUS
 70
0
 71
3
 72
11
 73
7
 74
5
 42
0.0000001
 43
0.0000001
 44
0.0000000001
 12
0.0
 22
-0.1574304972
 32
0.0
 13
0.1408119364
 23
-0.0704014205
 33
0.0
 40
0.0
 40
0.0
 40
0.0
 40
0.0
 40
0.289749639
 40
0.5495875602
 40
0.7828489991
 40
1.0
 40
1.0
 40
1.0
 40
1.0
 10
-11.3901823937
 20
22.8479899487
 30
0.0
 10
-11.3901823937
 20
22.8327848055
 30
0.0
 10
-11.3877285323
 20
22.803834582
 30
0.0
 10
-11.3753551588
 20
22.7642398933
 30
0.0
 10
-11.3546883322
 20
22.7325412535
 30
0.0
 10
-11.3354016128
 20
22.7178673439
 30
0.0
 10
-11.3252091285
 20
22.712771431
 30
0.0
 11
-11.3901823937
 21
22.8479899487
 31
0.0
 11
-11.3858625836
 21
22.802579524
 31
0.0
 11
-11.3731150944
 21
22.7637100482
 31
0.0
 11
-11.3525618789
 21
22.7332780795
 31
0.0
 11
-11.3252091285
 21
22.712771431
 31
0.0
  0
SPLINE
  5
4A2
100
AcDbEntity
  8
RACCORDO
100
AcDbSpline
 62
253
  6
CONTINUOUS
 70
0
 71
3
 72
11
 73
7
 74
5
 42
0.0000001
 43
0.0000001
 44
0.0000000001
 12
0.0
 22
0.3659184285
 32
0.0
 13
0.3263519554
 23
0.165501352
 33
0.0
 40
0.0
 40
0.0
 40
0.0
 40
0.0
 40
0.2465996066
 40
0.5114086341
 40
0.7699756527
 40
1.0
 40
1.0
 40
1.0
 40
1.0
 10
1.9741357707
 20
16.5058048006
 30
0.0
 10
1.9741357707
 20
16.5358832475
 30
0.0
 10
1.9844785428
 20
16.5983682862
 30
0.0
 10
2.0219621951
 20
16.6853387257
 30
0.0
 10
2.0771015456
 20
16.7598376899
 30
0.0
 10
2.1248610615
 20
16.7974918354
 30
0.0
 10
2.1498840267
 20
16.8101816156
 30
0.0
 11
1.9741357707
 21
16.5058048006
 31
0.0
 11
1.9874941447
 21
16.5950458815
 31
0.0
 11
2.0255494295
 21
16.6841588168
 31
0.0
 11
2.0825514863
 21
16.7596747569
 31
0.0
 11
2.1498840267
 21
16.8101816156
 31
0.0
  0
SPLINE
  5
4A3
100
AcDbEntity
  8
RACCORDO
100
AcDbSpline
 62
253
  6
CONTINUOUS
 70
0
 71
3
 72
11
 73
7
 74
5
 42
0.0000001
 43
0.0000001
 44
0.0000000001
 12
0.0
 22
0.365918428
 32
0.0
 13
0.3263519549
 23
0.1655013517
 33
0.0
 40
0.0
 40
0.0
 40
0.0
 40
0.0
 40
0.2465994894
 40
0.5114083944
 40
0.7699753467
 40
1.0
 40
1.0
 40
1.0
 40
1.0
 10
0.6491510909
 20
17.1682971405
 30
0.0
 10
0.6491510909
 20
17.198375573
 30
0.0
 10
0.6594938529
 20
17.2608605823
 30
0.0
 10
0.6969774764
 20
17.3478309932
 30
0.0
 10
0.7521168176
 20
17.4223299793
 30
0.0
 10
0.7998763484
 20
17.4599841585
 30
0.0
 10
0.8248993469
 20
17.4726739555
 30
0.0
 11
0.6491510909
 21
17.1682971405
 31
0.0
 11
0.6625094525
 21
17.2575381798
 31
0.0
 11
0.7005647053
 21
17.3466510798
 31
0.0
 11
0.7575667279
 21
17.4221670153
 31
0.0
 11
0.8248993469
 21
17.4726739555
 31
0.0
  0
SPLINE
  5
4A4
100
AcDbEntity
  8
RACCORDO
100
AcDbSpline
 62
253
  6
CONTINUOUS
 70
0
 71
3
 72
11
 73
7
 74
5
 42
0.0000001
 43
0.0000001
 44
0.0000000001
 12
0.3239338537
 22
-0.1619669268
 32
0.0
 13
0.324681576
 23
0.1604627718
 33
0.0
 40
0.0
 40
0.0
 40
0.0
 40
0.0
 40
0.2351708329
 40
0.4995791214
 40
0.7642139051
 40
1.0
 40
1.0
 40
1.0
 40
1.0
 10
1.9741357707
 20
16.1658308665
 30
0.0
 10
1.9995290354
 20
16.1531342341
 30
0.0
 10
2.0578732691
 20
16.1349903338
 30
0.0
 10
2.1502083053
 20
16.1262338386
 30
0.0
 10
2.2426426084
 20
16.1347367654
 30
0.0
 10
2.3011392634
 20
16.1527065125
 30
0.0
 10
2.3266577304
 20
16.1653181426
 30
0.0
 11
1.9741357707
 21
16.1658308665
 31
0.0
 11
2.0549056075
 21
16.1388043098
 31
0.0
 11
2.1501852465
 21
16.129219743
 31
0.0
 11
2.245574794
 21
16.1385269919
 31
0.0
 11
2.3266577304
 21
16.1653181426
 31
0.0
  0
SPLINE
  5
4A5
100
AcDbEntity
  8
RACCORDO
100
AcDbSpline
 62
253
  6
CONTINUOUS
 70
0
 71
3
 72
12
 73
8
 74
6
 42
0.0000001
 43
0.0000001
 44
0.0000000001
 12
0.1275533645
 22
0.3366972771
 32
0.0
 13
-0.322200989
 23
0.1606905098
 33
0.0
 40
0.0
 40
0.0
 40
0.0
 40
0.0
 40
0.2704231342
 40
0.533367854
 40
0.7767491796
 40
0.8906079026
 40
1.0
 40
1.0
 40
1.0
 40
1.0
 10
4.4562056929
 20
-24.0756827558
 30
0.0
 10
4.4677034865
 20
-24.0453325115
 30
0.0
 10
4.4811488687
 20
-23.9815365501
 30
0.0
 10
4.4721245527
 20
-23.8873203761
 30
0.0
 10
4.4397499338
 20
-23.8180587029
 30
0.0
 10
4.4011049281
 20
-23.7769790152
 30
0.0
 10
4.3785406449
 20
-23.7619753738
 30
0.0
 10
4.3667918976
 20
-23.7561159498
 30
0.0
 11
4.4562056929
 21
-24.0756827558
 31
0.0
 11
4.4762882007
 21
-23.9804109228
 31
0.0
 11
4.4663554968
 21
-23.8862605647
 31
0.0
 11
4.427912288
 21
-23.8075142932
 31
0.0
 11
4.3996750019
 21
-23.7777953101
 31
0.0
 11
4.3667918976
 21
-23.7561159498
 31
0.0
  0
SPLINE
  5
4A6
100
AcDbEntity
  8
RACCORDO
100
AcDbSpline
 62
253
  6
CONTINUOUS
 70
0
 71
3
 72
11
 73
7
 74
5
 42
0.0000001
 43
0.0000001
 44
0.0000000001
 12
0.3239338539
 22
-0.161966927
 32
0.0
 13
0.3246815763
 23
0.160462772
 33
0.0
 40
0.0
 40
0.0
 40
0.0
 40
0.0
 40
0.2351709482
 40
0.4995793653
 40
0.764214221
 40
1.0
 40
1.0
 40
1.0
 40
1.0
 10
1.9741357707
 20
16.5058048006
 30
0.0
 10
1.9995290479
 20
16.493108162
 30
0.0
 10
2.0578733122
 20
16.4749642573
 30
0.0
 10
2.1502083876
 20
16.4662077709
 30
0.0
 10
2.2426426768
 20
16.4747107125
 30
0.0
 10
2.3011392976
 20
16.4926804635
 30
0.0
 10
2.3266577304
 20
16.5052920768
 30
0.0
 11
1.9741357707
 21
16.5058048006
 31
0.0
 11
2.0549056488
 21
16.4787782356
 31
0.0
 11
2.1501853356
 21
16.469193677
 31
0.0
 11
2.2455749071
 21
16.478500948
 31
0.0
 11
2.3266577304
 21
16.5052920768
 31
0.0
  0
SPLINE
  5
4A7
100
AcDbEntity
  8
RACCORDO
100
AcDbSpline
 62
7
  6
CONTINUOUS
 70
0
 71
3
 72
11
 73
7
 74
5
 42
0.0000001
 43
0.0000001
 44
0.0000000001
 12
0.0
 22
0.3670486434
 32
0.0
 13
-0.328298287
 23
0.1641491435
 33
0.0
 40
0.0
 40
0.0
 40
0.0
 40
0.0
 40
0.2467927921
 40
0.5117852903
 40
0.7703247525
 40
1.0
 40
1.0
 40
1.0
 40
1.0
 10
3.9279385212
 20
17.3080140803
 30
0.0
 10
3.9279385212
 20
17.3382090668
 30
0.0
 10
3.9175185178
 20
17.4009334053
 30
0.0
 10
3.8797847441
 20
17.4881672145
 30
0.0
 10
3.8243261383
 20
17.5627633238
 30
0.0
 10
3.7762988143
 20
17.6003366207
 30
0.0
 10
3.7511648175
 20
17.6129036191
 30
0.0
 11
3.9279385212
 21
17.3080140803
 31
0.0
 11
3.9144825571
 21
17.3975940553
 31
0.0
 11
3.8761629337
 21
17.4869926757
 31
0.0
 11
3.8188131865
 21
17.5625993115
 31
0.0
 11
3.7511648175
 21
17.6129036191
 31
0.0
  0
SPLINE
  5
4A8
100
AcDbEntity
  8
RACCORDO
100
AcDbSpline
 62
253
  6
CONTINUOUS
 70
0
 71
3
 72
11
 73
7
 74
5
 42
0.0000001
 43
0.0000001
 44
0.0000000001
 12
-0.0017563531
 22
0.3667457895
 32
0.0
 13
-0.3272560827
 23
0.1655566829
 33
0.0
 40
0.0
 40
0.0
 40
0.0
 40
0.0
 40
0.2466958371
 40
0.5118834552
 40
0.7705706608
 40
1.0
 40
1.0
 40
1.0
 40
1.0
 10
2.3266577304
 20
16.5052920768
 30
0.0
 10
2.326513302
 20
16.5354502966
 30
0.0
 10
2.315860288
 20
16.5980794281
 30
0.0
 10
2.2780418335
 20
16.6852056789
 30
0.0
 10
2.2227264092
 20
16.7598034971
 30
0.0
 10
2.174911409
 20
16.7975204288
 30
0.0
 10
2.1498840267
 20
16.8101816156
 30
0.0
 11
2.3266577304
 21
16.5052920768
 31
0.0
 11
2.3128843968
 21
16.5947132546
 31
0.0
 11
2.2744538271
 21
16.6840559869
 31
0.0
 11
2.2172153216
 21
16.7597180015
 31
0.0
 11
2.1498840267
 21
16.8101816156
 31
0.0
  0
SPLINE
  5
4A9
100
AcDbEntity
  8
RACCORDO
100
AcDbSpline
 62
253
  6
CONTINUOUS
 70
0
 71
3
 72
11
 73
7
 74
5
 42
0.0000001
 43
0.0000001
 44
0.0000000001
 12
0.0017306169
 22
0.3673419505
 32
0.0
 13
-0.3293172692
 23
0.162767441
 33
0.0
 40
0.0
 40
0.0
 40
0.0
 40
0.0
 40
0.2468889152
 40
0.5116858701
 40
0.7700776245
 40
1.0
 40
1.0
 40
1.0
 40
1.0
 10
4.4562056929
 20
17.5714529003
 30
0.0
 10
4.4563481163
 20
17.6016837855
 30
0.0
 10
4.4461576931
 20
17.664501151
 30
0.0
 10
4.4085095607
 20
17.7518422864
 30
0.0
 10
4.3529071708
 20
17.8264358003
 30
0.0
 10
4.3046711255
 20
17.8638678136
 30
0.0
 10
4.2794319893
 20
17.8763424391
 30
0.0
 11
4.4562056929
 21
17.5714529003
 31
0.0
 11
4.4430629122
 21
17.6611892233
 31
0.0
 11
4.4048537722
 21
17.7506427022
 31
0.0
 11
4.347393832
 21
17.8261940546
 31
0.0
 11
4.2794319893
 21
17.8763424391
 31
0.0
  0
SPLINE
  5
4AA
100
AcDbEntity
  8
RACCORDO
100
AcDbSpline
 62
253
  6
CONTINUOUS
 70
0
 71
3
 72
11
 73
7
 74
5
 42
0.0000001
 43
0.0000001
 44
0.0000000001
 12
-0.1022732405
 22
0.0517308258
 32
0.0
 13
-0.1030347895
 23
-0.0501968744
 33
0.0
 40
0.0
 40
0.0
 40
0.0
 40
0.0
 40
0.2789499081
 40
0.5349528633
 40
0.7726365704
 40
1.0
 40
1.0
 40
1.0
 40
1.0
 10
2.9421058287
 20
18.5450055194
 30
0.0
 10
2.932596125
 20
18.5498156224
 30
0.0
 10
2.9135676204
 20
18.5576174198
 30
0.0
 10
2.8843677672
 20
18.5632753538
 30
0.0
 10
2.8565655972
 20
18.5620815733
 30
0.0
 10
2.8394026378
 20
18.556544336
 30
0.0
 10
2.8315938567
 20
18.5527400248
 30
0.0
 11
2.9421058287
 21
18.5450055194
 31
0.0
 11
2.9124281731
 21
18.5568958833
 31
0.0
 11
2.8835738285
 21
18.562217596
 31
0.0
 11
2.8563683577
 21
18.5608191775
 31
0.0
 11
2.8315938567
 21
18.5527400248
 31
0.0
  0
SPLINE
  5
4AB
100
AcDbEntity
  8
RACCORDO
100
AcDbSpline
 62
7
  6
CONTINUOUS
 70
0
 71
3
 72
11
 73
7
 74
5
 42
0.0000001
 43
0.0000001
 44
0.0000000001
 12
-0.1028463418
 22
0.0514231709
 32
0.0
 13
-0.1033748983
 23
-0.0503521891
 33
0.0
 40
0.0
 40
0.0
 40
0.0
 40
0.0
 40
0.2790833933
 40
0.5352290697
 40
0.7729212505
 40
1.0
 40
1.0
 40
1.0
 40
1.0
 10
2.40765595
 20
18.2846580528
 30
0.0
 10
2.3980883813
 20
18.2894418372
 30
0.0
 10
2.3789568679
 20
18.2971925696
 30
0.0
 10
2.3496378894
 20
18.3027863931
 30
0.0
 10
2.3217551199
 20
18.3015526362
 30
0.0
 10
2.3045485815
 20
18.2959993699
 30
0.0
 10
2.296723834
 20
18.2921880658
 30
0.0
 11
2.40765595
 21
18.2846580528
 31
0.0
 11
2.377818546
 21
18.296470588
 31
0.0
 11
2.3488390326
 21
18.3017310443
 31
0.0
 11
2.3215458425
 21
18.3002900599
 31
0.0
 11
2.296723834
 21
18.2921880658
 31
0.0
  0
SPLINE
  5
4AC
100
AcDbEntity
  8
RACCORDO
100
AcDbSpline
 62
253
  6
CONTINUOUS
 70
0
 71
3
 72
11
 73
7
 74
5
 42
0.0000001
 43
0.0000001
 44
0.0000000001
 12
-0.1051440438
 22
0.0519595372
 32
0.0
 13
-0.1043498228
 23
-0.0535366971
 33
0.0
 40
0.0
 40
0.0
 40
0.0
 40
0.0
 40
0.2795161735
 40
0.5356960478
 40
0.773144514
 40
1.0
 40
1.0
 40
1.0
 40
1.0
 10
0.8248993469
 20
17.4726739555
 30
0.0
 10
0.8151028599
 20
17.4775151325
 30
0.0
 10
0.7955250722
 20
17.4853195548
 30
0.0
 10
0.7655567108
 20
17.4907723524
 30
0.0
 10
0.73714136
 20
17.4891500415
 30
0.0
 10
0.7197046387
 20
17.483169956
 30
0.0
 10
0.7118138622
 20
17.4791215916
 30
0.0
 11
0.8248993469
 21
17.4726739555
 31
0.0
 11
0.7943491335
 21
17.484563355
 31
0.0
 11
0.7647405623
 21
17.4896674293
 31
0.0
 11
0.736952448
 21
17.4878356027
 31
0.0
 11
0.7118138622
 21
17.4791215916
 31
0.0
  0
SPLINE
  5
4AD
100
AcDbEntity
  8
RACCORDO
100
AcDbSpline
 62
253
  6
CONTINUOUS
 70
0
 71
3
 72
11
 73
7
 74
5
 42
0.0000001
 43
0.0000001
 44
0.0000000001
 12
-0.1076200259
 22
0.053810013
 32
0.0
 13
0.0000008146
 23
0.1203228468
 33
0.0
 40
0.0
 40
0.0
 40
0.0
 40
0.0
 40
0.3025814593
 40
0.565482116
 40
0.7934320761
 40
1.0
 40
1.0
 40
1.0
 40
1.0
 10
0.6491510909
 20
17.1682971405
 30
0.0
 10
0.6382964827
 20
17.1737244446
 30
0.0
 10
0.6186780817
 20
17.1853641303
 30
0.0
 10
0.5948667423
 20
17.2068846471
 30
0.0
 10
0.5795875072
 20
17.2308388489
 30
0.0
 10
0.5759277325
 20
17.2484002051
 30
0.0
 10
0.5759277886
 20
17.256685152
 30
0.0
 11
0.6491510909
 21
17.1682971405
 31
0.0
 11
0.6180595841
 21
17.1872397257
 31
0.0
 11
0.5949587366
 21
17.2088497863
 31
0.0
 11
0.5807317269
 21
17.2322989821
 31
0.0
 11
0.5759277886
 21
17.256685152
 31
0.0
  0
SPLINE
  5
4AE
100
AcDbEntity
  8
RACCORDO
100
AcDbSpline
 62
253
  6
CONTINUOUS
 70
0
 71
3
 72
12
 73
8
 74
6
 42
0.0000001
 43
0.0000001
 44
0.0000000001
 12
-0.1868110398
 22
0.3016822339
 32
0.0
 13
-0.3164248526
 23
0.160579723
 33
0.0
 40
0.0
 40
0.0
 40
0.0
 40
0.0
 40
0.1018936562
 40
0.2190264949
 40
0.4830826031
 40
0.7560858423
 40
1.0
 40
1.0
 40
1.0
 40
1.0
 10
2.3266577304
 20
-25.1342859967
 30
0.0
 10
2.3203127771
 20
-25.1240394948
 30
0.0
 10
2.3052980263
 20
-25.1028631992
 30
0.0
 10
2.2684930297
 20
-25.0591080948
 30
0.0
 10
2.2128564054
 20
-25.0050278032
 30
0.0
 10
2.1402786847
 20
-24.9477054806
 30
0.0
 10
2.0882509522
 20
-24.9151349883
 30
0.0
 10
2.0625241184
 20
-24.9020790991
 30
0.0
 11
2.3266577304
 21
-25.1342859967
 31
0.0
 11
2.3059807634
 21
-25.1046261561
 31
0.0
 11
2.2793679456
 21
-25.0727002529
 31
0.0
 11
2.2125934884
 21
-25.0069707845
 31
0.0
 11
2.1364626167
 21
-24.9470683697
 31
0.0
 11
2.0625241184
 21
-24.9020790991
 31
0.0
  0
SPLINE
  5
4AF
100
AcDbEntity
  8
RACCORDO
100
AcDbSpline
 62
7
  6
CONTINUOUS
 70
0
 71
3
 72
11
 73
7
 74
5
 42
0.0000001
 43
0.0000001
 44
0.0000000001
 12
-0.367573618
 22
0.0767562723
 32
0.0
 13
-0.3358593634
 23
0.1679296817
 33
0.0
 40
0.0
 40
0.0
 40
0.0
 40
0.0
 40
0.2082292705
 40
0.4660042739
 40
0.7454922158
 40
1.0
 40
1.0
 40
1.0
 40
1.0
 10
3.0378783385
 20
-24.2827895196
 30
0.0
 10
3.012365143
 20
-24.2774618854
 30
0.0
 10
2.9559205394
 20
-24.262486122
 30
0.0
 10
2.8671480856
 20
-24.2336558522
 30
0.0
 10
2.7744455292
 20
-24.1985024415
 30
0.0
 10
2.7133350913
 20
-24.171266152
 30
0.0
 10
2.6848421505
 20
-24.1570196816
 30
0.0
 11
3.0378783385
 21
-24.2827895196
 31
0.0
 11
2.9621120882
 21
-24.263470183
 31
0.0
 11
2.869980553
 21
-24.2337874087
 31
0.0
 11
2.771907356
 21
-24.1964269947
 31
0.0
 11
2.6848421505
 21
-24.1570196816
 31
0.0
  0
SPLINE
  5
4B0
100
AcDbEntity
  8
RACCORDO
100
AcDbSpline
 62
253
  6
CONTINUOUS
 70
0
 71
3
 72
11
 73
7
 74
5
 42
0.0000001
 43
0.0000001
 44
0.0000000001
 12
-0.1076203225
 22
0.0538101613
 32
0.0
 13
0.0000013829
 23
0.1203231785
 33
0.0
 40
0.0
 40
0.0
 40
0.0
 40
0.0
 40
0.3025823249
 40
0.5654825874
 40
0.7934322572
 40
1.0
 40
1.0
 40
1.0
 40
1.0
 10
0.6491510909
 20
16.8283232064
 30
0.0
 10
0.6382964218
 20
16.833750541
 30
0.0
 10
0.6186779487
 20
16.8453902714
 30
0.0
 10
0.5948665785
 20
16.8669108989
 30
0.0
 10
0.5795873815
 20
16.8908651838
 30
0.0
 10
0.5759276931
 20
16.9084265916
 30
0.0
 10
0.5759277883
 20
16.9167115541
 30
0.0
 11
0.6491510909
 21
16.8283232064
 31
0.0
 11
0.6180594179
 21
16.847265912
 31
0.0
 11
0.5949585814
 21
16.8688760424
 31
0.0
 11
0.5807316211
 21
16.8923253158
 31
0.0
 11
0.5759277883
 21
16.9167115541
 31
0.0
  0
SPLINE
  5
4B1
100
AcDbEntity
  8
RACCORDO
100
AcDbSpline
 62
253
  6
CONTINUOUS
 70
0
 71
3
 72
11
 73
7
 74
5
 42
0.0000001
 43
0.0000001
 44
0.0000000001
 12
0.0
 22
-0.1574304972
 32
0.0
 13
0.1408119364
 23
-0.0704014205
 33
0.0
 40
0.0
 40
0.0
 40
0.0
 40
0.0
 40
0.289749639
 40
0.5495875602
 40
0.7828489991
 40
1.0
 40
1.0
 40
1.0
 40
1.0
 10
0.6491510909
 20
16.8283232064
 30
0.0
 10
0.6491510909
 20
16.8131180632
 30
0.0
 10
0.6516049523
 20
16.7841678397
 30
0.0
 10
0.6639783258
 20
16.744573151
 30
0.0
 10
0.6846451524
 20
16.7128745112
 30
0.0
 10
0.7039318718
 20
16.6982006016
 30
0.0
 10
0.7141243561
 20
16.6931046887
 30
0.0
 11
0.6491510909
 21
16.8283232064
 31
0.0
 11
0.653470901
 21
16.7829127817
 31
0.0
 11
0.6662183902
 21
16.7440433058
 31
0.0
 11
0.6867716057
 21
16.7136113372
 31
0.0
 11
0.7141243561
 21
16.6931046887
 31
0.0
  0
SPLINE
  5
4B2
100
AcDbEntity
  8
RACCORDO
100
AcDbSpline
 62
253
  6
CONTINUOUS
 70
0
 71
3
 72
11
 73
7
 74
5
 42
0.0000001
 43
0.0000001
 44
0.0000000001
 12
0.0
 22
-0.1574304972
 32
0.0
 13
0.1408119364
 23
-0.0704014205
 33
0.0
 40
0.0
 40
0.0
 40
0.0
 40
0.0
 40
0.289749639
 40
0.5495875602
 40
0.7828489991
 40
1.0
 40
1.0
 40
1.0
 40
1.0
 10
1.9741357707
 20
16.1658308665
 30
0.0
 10
1.9741357707
 20
16.1506257233
 30
0.0
 10
1.9765896322
 20
16.1216754998
 30
0.0
 10
1.9889630056
 20
16.0820808111
 30
0.0
 10
2.0096298322
 20
16.0503821713
 30
0.0
 10
2.0289165516
 20
16.0357082617
 30
0.0
 10
2.0391090359
 20
16.0306123487
 30
0.0
 11
1.9741357707
 21
16.1658308665
 31
0.0
 11
1.9784555808
 21
16.1204204418
 31
0.0
 11
1.99120307
 21
16.0815509659
 31
0.0
 11
2.0117562855
 21
16.0511189973
 31
0.0
 11
2.0391090359
 21
16.0306123487
 31
0.0
  0
SPLINE
  5
4B3
100
AcDbEntity
  8
RACCORDO
100
AcDbSpline
 62
253
  6
CONTINUOUS
 70
0
 71
3
 72
12
 73
8
 74
6
 42
0.0000001
 43
0.0000001
 44
0.0000000001
 12
-0.1068021872
 22
-0.2780421342
 32
0.0
 13
-0.2915621921
 23
0.0608738343
 33
0.0
 40
0.0
 40
0.0
 40
0.0
 40
0.0
 40
0.2772952868
 40
0.5367750603
 40
0.7750875836
 40
0.8885703057
 40
1.0
 40
1.0
 40
1.0
 40
1.0
 10
2.3266577304
 20
16.1653181426
 30
0.0
 10
2.316785816
 20
16.1396182182
 30
0.0
 10
2.2909857735
 20
16.0920661845
 30
0.0
 10
2.2355772173
 20
16.036962228
 30
0.0
 10
2.1790422677
 20
16.0106948884
 30
0.0
 10
2.1330866291
 20
16.0050951893
 30
0.0
 10
2.1106438631
 20
16.0072358369
 30
0.0
 10
2.0998143012
 20
16.0094968879
 30
0.0
 11
2.3266577304
 21
16.1653181426
 31
0.0
 11
2.2867742968
 21
16.0929940179
 31
0.0
 11
2.2312236334
 21
16.0392611173
 31
0.0
 11
2.166412105
 21
16.0103164259
 31
0.0
 11
2.1328499464
 21
16.0063075275
 31
0.0
 11
2.0998143012
 21
16.0094968879
 31
0.0
  0
SPLINE
  5
4B4
100
AcDbEntity
  8
RACCORDO
100
AcDbSpline
 62
7
  6
CONTINUOUS
 70
0
 71
3
 72
11
 73
7
 74
5
 42
0.0000001
 43
0.0000001
 44
0.0000000001
 12
-0.228787208
 22
-0.2739155803
 32
0.0
 13
-0.3493967666
 23
0.0727683391
 33
0.0
 40
0.0
 40
0.0
 40
0.0
 40
0.0
 40
0.2549876473
 40
0.5145045913
 40
0.7673554036
 40
1.0
 40
1.0
 40
1.0
 40
1.0
 10
3.0378783385
 20
16.0168146198
 30
0.0
 10
3.0184323678
 20
15.9935329233
 30
0.0
 10
2.9738080886
 20
15.9508414188
 30
0.0
 10
2.8954313569
 20
15.9026475268
 30
0.0
 10
2.8104605047
 20
15.8745827511
 30
0.0
 10
2.7511582049
 20
15.8735152462
 30
0.0
 10
2.724063115
 20
15.8791582998
 30
0.0
 11
3.0378783385
 21
16.0168146198
 31
0.0
 11
2.9722540163
 21
15.953766251
 31
0.0
 11
2.8931844068
 21
15.9055327667
 31
0.0
 11
2.8070899092
 21
15.8784927107
 31
0.0
 11
2.724063115
 21
15.8791582998
 31
0.0
  0
ELLIPSE
  5
4B5
100
AcDbEntity
  8
RACCORDO
100
AcDbEllipse
 62
7
  6
CONTINUOUS
 10
-13.6436649913
 20
20.4764971002
 30
0.0
 11
-0.1116009943
 21
0.2239381218
 31
0.0
 40
0.6122032814
 41
-0.6832419393
 42
0.031533549
  0
ELLIPSE
  5
4B6
100
AcDbEntity
  8
RACCORDO
100
AcDbEllipse
 62
7
  6
CONTINUOUS
 10
-0.6329002175
 20
13.9711147133
 30
0.0
 11
-0.1116009943
 21
0.2239381218
 31
0.0
 40
0.6122032814
 41
-1.6382418416
 42
-0.6832419393
  0
ELLIPSE
  5
4B7
100
AcDbEntity
  8
0
100
AcDbEllipse
 62
7
  6
CONTINUOUS
 10
12.9182293863
 20
2.3323847243
 30
0.0
 11
-1.656284165
 21
3.0843095121
 31
0.0
 40
0.633434323
 41
-1.0958939788
 42
-0.7031948971
  0
ELLIPSE
  5
4B8
100
AcDbEntity
  8
0
100
AcDbEllipse
 62
7
  6
CONTINUOUS
 10
14.9553189151
 20
15.6112002642
 30
0.0
 11
0.2324910688
 21
0.4985929535
 31
0.0
 40
0.5909678056
 41
3.8253192057
 42
6.9669118593
  0
ELLIPSE
  5
4B9
100
AcDbEntity
  8
0
100
AcDbEllipse
 62
7
  6
CONTINUOUS
 10
14.9553189151
 20
15.6112002642
 30
0.0
 11
0.2605279112
 21
0.4845461035
 31
0.0
 40
0.6331555215
 41
0.7186754531
 42
3.8602681067
  0
ELLIPSE
  5
4BA
100
AcDbEntity
  8
0
100
AcDbEllipse
 62
7
  6
CONTINUOUS
 10
5.8477286129
 20
-15.9492222318
 30
0.0
 11
0.4511806643
 21
0.8941510684
 31
0.0
 40
0.6128301338
 41
0.6015679319
 42
0.6888343945
  0
ELLIPSE
  5
4BB
100
AcDbEntity
  8
RACCORDO
100
AcDbEllipse
 62
7
  6
CONTINUOUS
 10
4.670352171
 20
-22.3588907534
 30
0.0
 11
-0.2012801021
 21
0.4024798509
 31
0.0
 40
0.6124778111
 41
-3.1449381207
 42
-2.255529033
  0
ELLIPSE
  5
4BC
100
AcDbEntity
  8
RACCORDO
100
AcDbEllipse
 62
7
  6
CONTINUOUS
 10
4.670352171
 20
15.6444794151
 30
0.0
 11
-0.2013341403
 21
0.4025279144
 31
0.0
 40
0.6122950388
 41
-2.2557482655
 42
-0.6847996396
  0
ELLIPSE
  5
4BD
100
AcDbEntity
  8
RACCORDO
100
AcDbEllipse
 62
7
  6
CONTINUOUS
 10
9.1846415517
 20
19.2824507374
 30
0.0
 11
0.499996712
 21
0.0035883639
 31
0.0
 40
0.5053247124
 41
-0.7715714568
 42
-0.0036478305
  0
ELLIPSE
  5
4BE
100
AcDbEntity
  8
RACCORDO
100
AcDbEllipse
 62
7
  6
CONTINUOUS
 10
6.950166821
 20
-14.7389084826
 30
0.0
 11
0.2205149116
 21
0.4487546221
 31
0.0
 40
0.607010042
 41
-0.8902711325
 42
-0.4874310787
  0
ELLIPSE
  5
4BF
100
AcDbEntity
  8
ASSI
100
AcDbEllipse
 62
7
  6
CONTINUOUS
 10
-1.3798639749
 20
24.4046931485
 30
0.0
 11
0.2257019663
 21
0.4461636818
 31
0.0
 40
0.6159267166
 41
0.5380090616
 42
0.6817883054
  0
ELLIPSE
  5
4C0
100
AcDbEntity
  8
RACCORDO
100
AcDbEllipse
 62
7
  6
CONTINUOUS
 10
-6.7119556389
 20
21.8821734798
 30
0.0
 11
0.4999985559
 21
0.0023864752
 31
0.0
 40
0.5035541159
 41
2.3596088132
 42
3.0002042076
  0
ELLIPSE
  5
4C1
100
AcDbEntity
  8
RACCORDO
100
AcDbEllipse
 62
7
  6
CONTINUOUS
 10
9.3636852576
 20
-17.7972449539
 30
0.0
 11
0.9987332359
 21
0.6172510855
 31
0.0
 40
0.0815198604
 41
-2.3978073241
 42
-1.2985018509
  0
ELLIPSE
  5
4C2
100
AcDbEntity
  8
RACCORDO
100
AcDbEllipse
 62
7
  6
CONTINUOUS
 10
-2.4270470308
 20
25.0127887345
 30
0.0
 11
0.9987332359
 21
0.6172510855
 31
0.0
 40
0.0815198604
 41
0.0509898783
 42
0.7263320369
  0
ELLIPSE
  5
4C3
100
AcDbEntity
  8
ASSI
100
AcDbEllipse
 62
7
  6
CONTINUOUS
 10
4.7809682958
 20
21.3242770131
 30
0.0
 11
0.221538876
 21
0.4482453432
 31
0.0
 40
0.6088015717
 41
0.5323082896
 42
0.6760875334
  0
ELLIPSE
  5
4C4
100
AcDbEntity
  8
RACCORDO
100
AcDbEllipse
 62
7
  6
CONTINUOUS
 10
9.1846415517
 20
-18.0064652728
 30
0.0
 11
0.499366618
 21
0.3086255427
 31
0.0
 40
0.0815198604
 41
6.1080157147
 42
7.0007906979
  0
ELLIPSE
  5
4C5
100
AcDbEntity
  8
DRAFT
100
AcDbEllipse
 62
7
  6
CONTINUOUS
 10
-1.026009144
 20
23.4798439715
 30
0.0
 11
0.4279673669
 21
-0.0030279657
 31
0.0
 40
0.4946372042
 41
-0.7818985079
 42
0.0034334386
  0
ELLIPSE
  5
4C6
100
AcDbEntity
  8
DRAFT
100
AcDbEllipse
 62
7
  6
CONTINUOUS
 10
4.5289792852
 20
20.7023497569
 30
0.0
 11
0.4279673669
 21
-0.0030279657
 31
0.0
 40
0.4946372042
 41
-0.7760807437
 42
0.0034304302
  0
ELLIPSE
  5
4C7
100
AcDbEntity
  8
RACCORDO
100
AcDbEllipse
 62
7
  6
CONTINUOUS
 10
9.3636852576
 20
19.1174225903
 30
0.0
 11
-0.7417913999
 21
1.2002436976
 31
0.0
 40
0.5587454355
 41
5.1248137075
 42
6.2241191807
  0
ELLIPSE
  5
4C8
100
AcDbEntity
  8
RACCORDO
100
AcDbEllipse
 62
7
  6
CONTINUOUS
 10
-6.7119556389
 20
20.6495638746
 30
0.0
 11
0.4998587701
 21
0.0223649649
 31
0.0
 40
0.5313301283
 41
3.1178197826
 42
3.9032222197
  0
ELLIPSE
  5
4C9
100
AcDbEntity
  8
RACCORDO
100
AcDbEllipse
 62
7
  6
CONTINUOUS
 10
-1.2006485392
 20
17.8939103248
 30
0.0
 11
0.4998587701
 21
0.0223649649
 31
0.0
 40
0.5313301283
 41
-2.3799630874
 42
-0.8149845248
  0
ELLIPSE
  5
4CA
100
AcDbEntity
  8
RACCORDO
100
AcDbEllipse
 62
7
  6
CONTINUOUS
 10
-1.2006485392
 20
19.12651993
 30
0.0
 11
0.4999985559
 21
0.0023864752
 31
0.0
 40
0.5035541159
 41
-1.4342147631
 42
-0.7936193687
  0
ELLIPSE
  5
4CB
100
AcDbEntity
  8
RACCORDO
100
AcDbEllipse
 62
7
  6
CONTINUOUS
 10
-13.9332983064
 20
20.7872941971
 30
0.0
 11
-0.0446262308
 21
0.0895589985
 31
0.0
 40
0.6124818573
 41
-2.2537489731
 42
-0.6834093579
  0
ELLIPSE
  5
4CC
100
AcDbEntity
  8
RACCORDO
100
AcDbEllipse
 62
7
  6
CONTINUOUS
 10
-11.835397424
 20
22.6469148301
 30
0.0
 11
0.249929385
 21
0.0111824824
 31
0.0
 40
0.5313301283
 41
3.1178369227
 42
3.9032222197
  0
ELLIPSE
  5
4CD
100
AcDbEntity
  8
RACCORDO
100
AcDbEllipse
 62
7
  6
CONTINUOUS
 10
9.1846415517
 20
-17.076122614
 30
0.0
 11
0.4999969381
 21
-0.0035375912
 31
0.0
 40
0.4946372042
 41
-0.7644452153
 42
0.7888978189
  0
ELLIPSE
  5
4CE
100
AcDbEntity
  8
RACCORDO
100
AcDbEllipse
 62
7
  6
CONTINUOUS
 10
9.1846415517
 20
20.2127933963
 30
0.0
 11
-0.3708957
 21
0.6001218488
 31
0.0
 40
0.5587454355
 41
-3.1744788413
 42
-2.2817038581
  0
ELLIPSE
  5
4CF
100
AcDbEntity
  8
RACCORDO
100
AcDbEllipse
 62
7
  6
CONTINUOUS
 10
-0.3432669023
 20
13.992278495
 30
0.0
 11
-0.0446624459
 21
0.0895909595
 31
0.0
 40
0.611934274
 41
-0.6831563312
 42
0.0357312133
  0
ELLIPSE
  5
4D0
100
AcDbEntity
  8
RACCORDO
100
AcDbEllipse
 62
7
  6
CONTINUOUS
 10
-10.5021850903
 20
21.9803086633
 30
0.0
 11
0.249929385
 21
0.0111824824
 31
0.0
 40
0.5313301283
 41
-2.3799630874
 42
-0.8149845248
  0
ELLIPSE
  5
4D1
100
AcDbEntity
  8
RACCORDO
100
AcDbEllipse
 62
7
  6
CONTINUOUS
 10
1.5289207405
 20
15.9647557479
 30
0.0
 11
0.249929385
 21
0.0111824824
 31
0.0
 40
0.5313301283
 41
3.1178369227
 42
3.9032222197
  0
ELLIPSE
  5
4D2
100
AcDbEntity
  8
RACCORDO
100
AcDbEllipse
 62
7
  6
CONTINUOUS
 10
2.8621330741
 20
15.2981495811
 30
0.0
 11
0.249929385
 21
0.0111824824
 31
0.0
 40
0.5313301283
 41
-2.3799630874
 42
-0.8149845248
  0
ENDSEC
  0
SECTION
  2
OBJECTS
  0
DICTIONARY
  5
C
100
AcDbDictionary
280
0
281
1
  3
ACAD_GROUP
350
D
  3
ACAD_MLINESTYLE
350
17
  3
ACAD_LAYOUT
350
1A
  3
ACAD_PLOTSETTINGS
350
19
  3
ACAD_PLOTSTYLENAME
350
E
  0
DICTIONARY
  5
D
102
{ACAD_REACTORS
330
C
102
}
100
AcDbDictionary
280
0
281
1
  0
ACDBDICTIONARYWDFLT
  5
E
102
{ACAD_REACTORS
330
C
102
}
100
AcDbDictionary
281
1
  3
Normal
350
F
100
AcDbDictionaryWithDefault
340
F
  0
DICTIONARY
  5
17
102
{ACAD_REACTORS
330
C
102
}
100
AcDbDictionary
280
0
281
1
  3
Standard
350
18
  0
DICTIONARY
  5
19
102
{ACAD_REACTORS
330
C
102
}
100
AcDbDictionary
281
1
  0
DICTIONARY
  5
1A
102
{ACAD_REACTORS
330
C
102
}
100
AcDbDictionary
281
1
  3
Model
350
4D3
  3
Layout1
350
4D4
  0
ACDBPLACEHOLDER
  5
F
102
{ACAD_REACTORS
330
E
102
}
  0
MLINESTYLE
  5
18
102
{ACAD_REACTORS
330
17
102
}
100
AcDbMlineStyle
  2
STANDARD
 70
0
  3

 62
256
 51
90.0
 52
90.0
 71
2
 49
0.5
 62
256
  6
BYLAYER
 49
-0.5
 62
256
  6
BYLAYER
  0
LAYOUT
  5
4D3
102
{ACAD_REACTORS
330
1A
102
}
100
AcDbPlotSettings
  1

  2
none_device
  4
ANSI_C_(22.00_x_17.00_Inches)
  6

 40
0.0
 41
0.0
 42
0.0
 43
0.0
 44
558.8
 45
431.8
 46
0.0
 47
0.0
 48
0.0
 49
0.0
140
0.0
141
0.0
142
1.0
143
1.0
 70
1024
 72
1
 73
0
 74
0
  7

 75
0
147
1.0
148
0.0
149
0.0
100
AcDbLayout
  1
Model
 70
0
 71
0
 10
0.0
 20
0.0
 11
558.8
 21
431.8
 12
0.0
 22
0.0
 32
0.0
 14
0.0
 24
0.0
 34
0.0
 15
0.0
 25
0.0
 35
0.0
146
0.0
 13
0.0
 23
0.0
 33
0.0
 16
1.0
 26
0.0
 36
0.0
 17
0.0
 27
1.0
 37
0.0
 76
0
330
212
345
0
346
0
  0
LAYOUT
  5
4D4
102
{ACAD_REACTORS
330
1A
102
}
100
AcDbPlotSettings
  1

  2
none_device
  4
ANSI_C_(22.00_x_17.00_Inches)
  6

 40
0.0
 41
0.0
 42
0.0
 43
0.0
 44
558.8
 45
431.8
 46
0.0
 47
0.0
 48
0.0
 49
0.0
140
0.0
141
0.0
142
1.0
143
1.0
 70
0
 72
1
 73
0
 74
0
  7

 75
0
147
1.0
148
0.0
149
0.0
100
AcDbLayout
  1
Layout1
 70
0
 71
1
 10
0.0
 20
0.0
 11
558.8
 21
431.8
 12
0.0
 22
0.0
 32
0.0
 14
0.0
 24
0.0
 34
0.0
 15
0.0
 25
0.0
 35
0.0
146
0.0
 13
0.0
 23
0.0
 33
0.0
 16
1.0
 26
0.0
 36
0.0
 17
0.0
 27
1.0
 37
0.0
 76
0
330
213
345
0
346
0
  0
ENDSEC
  0
EOF
