  0
SECTION
  2
HEADER
  9
$ACADVER
  1
AC1015
  9
$DWGCODEPAGE
  3
ANSI_1252
  9
$EXTMAX
 10
558.8
 20
431.8
 30
0.0
  9
$EXTMIN
 10
0.0
 20
0.0
 30
0.0
  9
$LIMMIN
 10
0.0
 20
0.0
  9
$LIMMAX
 10
558.8
 20
431.8
  9
$VIEWCTR
 10
279.4
 20
215.9
  9
$VIEWSIZE
 40
431.8
  9
$CLAYER
  8
0
  9
$LTSCALE
 40
30.734
  9
$CELTYPE
  6
BYLAYER
  9
$DIMSCALE
 40
1.0
  9
$DIMASZ
 40
3.0
  9
$DIMEXO
 40
3.4925
  9
$DIMDLI
 40
21.2344
  9
$DIMEXE
 40
10.0584
  9
$DIMCEN
 40
5.0292
  9
$DIMLFAC
 40
1.0
  9
$DIMBLK
  1
_FILLED
  9
$DIMTXT
 40
3.0
  9
$DIMTOL
 70
1
  9
$DIMLIM
 70
0
  9
$DIMTFAC
 40
1.0
  9
$DIMTP
 40
0.01
  9
$DIMTM
 40
0.01
  9
$PDMODE
 70
3
  9
$PDSIZE
 40
3.0
  9
$HANDSEED
  5
467
  9
$TILEMODE
 70
1
  9
$MEASUREMENT
 70
1
  9
$INSUNITS
 70
4
  0
ENDSEC
  0
SECTION
  2
CLASSES
  0
CLASS
  1
ACDBDICTIONARYWDFLT
  2
AcDbDictionaryWithDefault
  3
AutoCAD 2000
 90
0
280
0
281
0
  0
CLASS
  1
ACDBPLACEHOLDER
  2
AcDbPlaceHolder
  3
AutoCAD 2000
 90
0
280
0
281
0
  0
CLASS
  1
LAYOUT
  2
AcDbLayout
  3
AutoCAD 2000
 90
0
280
0
281
0
  0
ENDSEC
  0
SECTION
  2
TABLES
  0
TABLE
  2
VPORT
  5
8
100
AcDbSymbolTable
 70
2
  0
VPORT
  5
1F4
100
AcDbSymbolTableRecord
100
AcDbViewportTableRecord
  2
*ACTIVE
 70
0
 10
0.0
 20
0.0
 11
1.0
 21
1.0
 12
279.4
 22
215.9
 13
0.0
 23
0.0
 14
1.0
 24
1.0
 15
0.0
 25
0.0
 16
0.0
 26
0.0
 36
1.0
 17
0.0
 27
0.0
 37
0.0
 40
431.8
 41
1.2941176471
 42
50.0
 43
0.0
 44
0.0
 50
0.0
 51
0.0
 71
0
 72
100
 73
1
 74
1
 75
0
 76
0
 77
0
 78
0
  0
ENDTAB
  0
TABLE
  2
LTYPE
  5
5
100
AcDbSymbolTable
 70
6
  0
LTYPE
  5
14
100
AcDbSymbolTableRecord
100
AcDbLinetypeTableRecord
  2
BYBLOCK
 70
0
  3

 72
65
 73
0
 40
0.0
  0
LTYPE
  5
15
100
AcDbSymbolTableRecord
100
AcDbLinetypeTableRecord
  2
BYLAYER
 70
0
  3

 72
65
 73
0
 40
0.0
  0
LTYPE
  5
16
100
AcDbSymbolTableRecord
100
AcDbLinetypeTableRecord
  2
CONTINUOUS
 70
64
  3
Solid line
 72
65
 73
0
 40
0.0
  0
LTYPE
  5
1F5
100
AcDbSymbolTableRecord
100
AcDbLinetypeTableRecord
  2
CENTER
 70
64
  3
____ _ ____ _ ____ _ ____ _ ____ _ ____ _ ____
 72
65
 73
4
 40
0.6
 49
0.375
 74
0
 49
-0.075
 74
0
 49
0.075
 74
0
 49
-0.075
 74
0
  0
LTYPE
  5
1F6
100
AcDbSymbolTableRecord
100
AcDbLinetypeTableRecord
  2
HIDDEN
 70
64
  3
- - - - - - - - - - - - - - - - - - - -
 72
65
 73
2
 40
0.2
 49
0.1
 74
0
 49
-0.1
 74
0
  0
LTYPE
  5
1F7
100
AcDbSymbolTableRecord
100
AcDbLinetypeTableRecord
  2
PHANTOM
 70
64
  3
_____ _ _ _____ _ _ _____ _ _ _____
 72
65
 73
6
 40
0.8
 49
0.45
 74
0
 49
-0.05
 74
0
 49
0.1
 74
0
 49
-0.05
 74
0
 49
0.1
 74
0
 49
-0.05
 74
0
  0
LTYPE
  5
1F8
100
AcDbSymbolTableRecord
100
AcDbLinetypeTableRecord
  2
DOT
 70
64
  3
. . . . . . . . . . . . . . . . . . . .
 72
65
 73
2
 40
0.2
 49
0.1
 74
0
 49
-0.1
 74
0
  0
LTYPE
  5
1F9
100
AcDbSymbolTableRecord
100
AcDbLinetypeTableRecord
  2
DASHED
 70
64
  3
- - - - - - - - - - - - - - - - - - - -
 72
65
 73
2
 40
0.2
 49
0.1
 74
0
 49
-0.1
 74
0
  0
ENDTAB
  0
TABLE
  2
LAYER
  5
2
100
AcDbSymbolTable
 70
36
  0
LAYER
  5
10
100
AcDbSymbolTableRecord
100
AcDbLayerTableRecord
  2
0
 70
0
 62
7
  6
CONTINUOUS
370
-3
390
F
  0
LAYER
  5
1FA
100
AcDbSymbolTableRecord
100
AcDbLayerTableRecord
  2
DEFAULT_1
 70
0
 62
7
  6
CENTER
370
-3
390
F
  0
LAYER
  5
1FB
100
AcDbSymbolTableRecord
100
AcDbLayerTableRecord
  2
DEFAULT_2
 70
0
 62
7
  6
HIDDEN
370
-3
390
F
  0
LAYER
  5
1FC
100
AcDbSymbolTableRecord
100
AcDbLayerTableRecord
  2
DEFAULT_3
 70
0
 62
7
  6
PHANTOM
370
-3
390
F
  0
LAYER
  5
1FD
100
AcDbSymbolTableRecord
100
AcDbLayerTableRecord
  2
ASSI
 70
0
 62
7
  6
CONTINUOUS
370
-3
390
F
  0
LAYER
  5
1FE
100
AcDbSymbolTableRecord
100
AcDbLayerTableRecord
  2
COORDINATE
 70
0
 62
7
  6
CONTINUOUS
370
-3
390
F
  0
LAYER
  5
1FF
100
AcDbSymbolTableRecord
100
AcDbLayerTableRecord
  2
COORD_ORIGINE
 70
0
 62
7
  6
CONTINUOUS
370
-3
390
F
  0
LAYER
  5
200
100
AcDbSymbolTableRecord
100
AcDbLayerTableRecord
  2
COPY_PUBLISH
 70
0
 62
7
  6
CONTINUOUS
370
-3
390
F
  0
LAYER
  5
201
100
AcDbSymbolTableRecord
100
AcDbLayerTableRecord
  2
COSMETIC
 70
0
 62
7
  6
CONTINUOUS
370
-3
390
F
  0
LAYER
  5
202
100
AcDbSymbolTableRecord
100
AcDbLayerTableRecord
  2
CURVE
 70
0
 62
7
  6
CONTINUOUS
370
-3
390
F
  0
LAYER
  5
203
100
AcDbSymbolTableRecord
100
AcDbLayerTableRecord
  2
DRAFT
 70
0
 62
7
  6
CONTINUOUS
370
-3
390
F
  0
LAYER
  5
204
100
AcDbSymbolTableRecord
100
AcDbLayerTableRecord
  2
IMPORT_IGES
 70
0
 62
7
  6
CONTINUOUS
370
-3
390
F
  0
LAYER
  5
205
100
AcDbSymbolTableRecord
100
AcDbLayerTableRecord
  2
IMPORT_SCRITTE
 70
0
 62
7
  6
CONTINUOUS
370
-3
390
F
  0
LAYER
  5
206
100
AcDbSymbolTableRecord
100
AcDbLayerTableRecord
  2
NOTE
 70
0
 62
7
  6
CONTINUOUS
370
-3
390
F
  0
LAYER
  5
207
100
AcDbSymbolTableRecord
100
AcDbLayerTableRecord
  2
PIANI
 70
0
 62
7
  6
CONTINUOUS
370
-3
390
F
  0
LAYER
  5
208
100
AcDbSymbolTableRecord
100
AcDbLayerTableRecord
  2
PIANI_ORIGINE
 70
0
 62
7
  6
CONTINUOUS
370
-3
390
F
  0
LAYER
  5
209
100
AcDbSymbolTableRecord
100
AcDbLayerTableRecord
  2
PIANI_RIFERIMENTO
 70
0
 62
7
  6
CONTINUOUS
370
-3
390
F
  0
LAYER
  5
20A
100
AcDbSymbolTableRecord
100
AcDbLayerTableRecord
  2
PUNTI
 70
0
 62
7
  6
CONTINUOUS
370
-3
390
F
  0
LAYER
  5
20B
100
AcDbSymbolTableRecord
100
AcDbLayerTableRecord
  2
RACCORDO
 70
0
 62
7
  6
CONTINUOUS
370
-3
390
F
  0
LAYER
  5
20C
100
AcDbSymbolTableRecord
100
AcDbLayerTableRecord
  2
SMUSSO
 70
0
 62
7
  6
CONTINUOUS
370
-3
390
F
  0
LAYER
  5
20D
100
AcDbSymbolTableRecord
100
AcDbLayerTableRecord
  2
SUPERFICI
 70
0
 62
7
  6
CONTINUOUS
370
-3
390
F
  0
LAYER
  5
20E
100
AcDbSymbolTableRecord
100
AcDbLayerTableRecord
  2
TRASH
 70
0
 62
7
  6
CONTINUOUS
370
-3
390
F
  0
LAYER
  5
20F
100
AcDbSymbolTableRecord
100
AcDbLayerTableRecord
  2
XSEC_DATUMS
 70
0
 62
7
  6
CONTINUOUS
370
-3
390
F
  0
ENDTAB
  0
TABLE
  2
STYLE
  5
3
100
AcDbSymbolTable
 70
1
  0
STYLE
  5
11
100
AcDbSymbolTableRecord
100
AcDbTextStyleTableRecord
  2
STANDARD
 70
0
 40
0.0
 41
0.8
 50
0.0
 71
0
 42
0.2
  3
txt
  4

  0
STYLE
  5
210
100
AcDbSymbolTableRecord
100
AcDbTextStyleTableRecord
  2
TEXTSTYLE_1
 70
0
 40
0.0
 41
0.8
 50
0.0
 71
0
 42
0.2
  3
gdt
  4

  0
ENDTAB
  0
TABLE
  2
VIEW
  5
6
100
AcDbSymbolTable
 70
0
  0
ENDTAB
  0
TABLE
  2
UCS
  5
7
100
AcDbSymbolTable
 70
0
  0
ENDTAB
  0
TABLE
  2
APPID
  5
9
100
AcDbSymbolTable
 70
1
  0
APPID
  5
211
100
AcDbSymbolTableRecord
100
AcDbRegAppTableRecord
  2
ACAD
 70
0
  0
ENDTAB
  0
TABLE
  2
BLOCK_RECORD
  5
1
100
AcDbSymbolTable
 70
0
  0
BLOCK_RECORD
  5
212
100
AcDbSymbolTableRecord
100
AcDbBlockTableRecord
  2
*Model_Space
  0
BLOCK_RECORD
  5
213
100
AcDbSymbolTableRecord
100
AcDbBlockTableRecord
  2
*Paper_Space
  0
ENDTAB
  0
TABLE
  2
DIMSTYLE
  5
A
100
AcDbSymbolTable
 70
1
100
AcDbDimStyleTable
 71
0
  0
DIMSTYLE
105
214
100
AcDbSymbolTableRecord
100
AcDbDimStyleTableRecord
  2
STANDARD
 70
0
  3

  4

 40
1.0
 41
3.0
 42
0.0625
 43
0.38
 44
0.18
 45
0.0
 46
0.0
 47
0.01
 48
0.01
140
3.0
141
0.09
142
0.0
143
25.4
144
1.0
145
0.0
146
1.0
147
0.09
 71
1.0
 72
0.0
 73
0
 74
0
 75
0
 76
0
 77
1
 78
8
170
0
171
2
172
0
173
0
174
0
175
0
176
0
177
0
178
0
270
2
271
2
272
2
273
2
274
2
275
0
280
0
281
0
282
0
283
1
284
8
285
0
286
0
287
3
288
0
340
11
  0
ENDTAB
  0
ENDSEC
  0
SECTION
  2
BLOCKS
  0
BLOCK
  5
20
100
AcDbEntity
  8
0
100
AcDbBlockBegin
  2
*Model_Space
 70
0
 10
0.0
 20
0.0
 30
0.0
  3
*Model_Space
  1

  0
ENDBLK
  5
21
100
AcDbEntity
  8
0
100
AcDbBlockEnd
  0
BLOCK
  5
1C
100
AcDbEntity
  8
0
100
AcDbBlockBegin
  2
*Paper_Space
 70
0
 10
0.0
 20
0.0
 30
0.0
  3
*Paper_Space
  1

  0
ENDBLK
  5
1D
100
AcDbEntity
  8
0
100
AcDbBlockEnd
  0
ENDSEC
  0
SECTION
  2
ENTITIES
  0
LINE
  5
215
100
AcDbEntity
  8
RACCORDO
100
AcDbLine
 62
7
  6
CONTINUOUS
 10
-11.647053062
 20
24.9734780601
 11
-13.230224757
 21
24.1612810129
  0
LINE
  5
216
100
AcDbEntity
  8
RACCORDO
100
AcDbLine
 62
253
  6
CONTINUOUS
 10
-11.5343824877
 20
24.9668171351
 11
-13.1171390908
 21
24.1548330377
  0
LINE
  5
217
100
AcDbEntity
  8
RACCORDO
100
AcDbLine
 62
7
  6
CONTINUOUS
 10
-11.6453146765
 20
24.9743472929
 11
-11.6470510883
 21
24.9734790727
  0
LINE
  5
218
100
AcDbEntity
  8
RACCORDO
100
AcDbLine
 62
7
  6
CONTINUOUS
 10
-11.1104447201
 20
25.2348993927
 11
-11.6453119109
 21
24.9743486401
  0
LINE
  5
219
100
AcDbEntity
  8
RACCORDO
100
AcDbLine
 62
253
  6
CONTINUOUS
 10
-10.999932609
 20
25.2271646016
 11
-11.5343824877
 21
24.9668171351
  0
LWPOLYLINE
  5
21A
100
AcDbEntity
  8
RACCORDO
100
AcDbPolyline
 62
7
  6
CONTINUOUS
 90
37
 70
0
 10
-17.2520796436
 20
20.1374422584
 10
-17.282669194
 20
20.1190694075
 10
-17.3255903208
 20
20.0914488267
 10
-17.3676928737
 20
20.0622041683
 10
-17.4089633912
 20
20.031394445
 10
-17.449391051
 20
19.9990735339
 10
-17.4889602612
 20
19.965296009
 10
-17.5276560966
 20
19.9301133218
 10
-17.5654639066
 20
19.8935739207
 10
-17.6023591987
 20
19.8557336961
 10
-17.6383243264
 20
19.8166401993
 10
-17.67334069
 20
19.7763396437
 10
-17.7073752733
 20
19.7348938168
 10
-17.7404068902
 20
19.6923502212
 10
-17.7724144352
 20
19.6487542747
 10
-17.8033608913
 20
19.6041726607
 10
-17.8332231053
 20
19.5586531126
 10
-17.8619775204
 20
19.5122422157
 10
-17.8895852646
 20
19.465011512
 10
-17.916022222
 20
19.4170091025
 10
-17.9412633301
 20
19.3682830627
 10
-17.9652696124
 20
19.3189091266
 10
-17.9880164203
 20
19.2689361522
 10
-18.0094784334
 20
19.2184125183
 10
-18.0296188707
 20
19.1674144213
 10
-18.0484132519
 20
19.1159896987
 10
-18.0658357808
 20
19.0641871001
 10
-18.0818519905
 20
19.012081913
 10
-18.0964370926
 20
18.959720795
 10
-18.1095648602
 20
18.9071513272
 10
-18.1212031423
 20
18.8544443686
 10
-18.1313258169
 20
18.8016453623
 10
-18.1399052909
 20
18.7487996713
 10
-18.1469104947
 20
18.6959690268
 10
-18.1523119994
 20
18.643200203
 10
-18.1560791898
 20
18.5905327986
 10
-18.1577872061
 20
18.5518976053
  0
LWPOLYLINE
  5
21B
100
AcDbEntity
  8
RACCORDO
100
AcDbPolyline
 62
7
  6
CONTINUOUS
 90
3
 70
0
 10
-15.649361429
 20
21.0803811124
 10
-16.2027624504
 20
20.7533430181
 10
-16.738314671
 20
20.4380762334
  0
LWPOLYLINE
  5
21C
100
AcDbEntity
  8
RACCORDO
100
AcDbPolyline
 62
7
  6
CONTINUOUS
 90
5
 70
0
 10
-12.6631176973
 20
22.8370242318
 10
-13.2480696332
 20
22.4957742153
 10
-13.8775502856
 20
22.1273219381
 10
-14.4873554936
 20
21.7680856804
 10
-15.649361429
 20
21.0803811124
  0
LINE
  5
21D
100
AcDbEntity
  8
RACCORDO
100
AcDbLine
 62
7
  6
CONTINUOUS
 10
-16.738314671
 20
20.4380762334
 11
-17.2520925381
 21
20.1374347404
  0
LINE
  5
21E
100
AcDbEntity
  8
RACCORDO
100
AcDbLine
 62
253
  6
CONTINUOUS
 10
-17.0126979463
 20
20.1321895378
 11
-17.0187384765
 21
20.1286673555
  0
LINE
  5
21F
100
AcDbEntity
  8
RACCORDO
100
AcDbLine
 62
7
  6
CONTINUOUS
 10
-16.2078419047
 20
19.6428095294
 11
-14.3372730961
 21
20.6981585606
  0
LINE
  5
220
100
AcDbEntity
  8
RACCORDO
100
AcDbLine
 62
253
  6
CONTINUOUS
 10
-16.0942495778
 20
19.6366564498
 11
-14.2213852646
 21
20.6933005728
  0
LINE
  5
221
100
AcDbEntity
  8
RACCORDO
100
AcDbLine
 62
253
  6
CONTINUOUS
 10
-16.4060071765
 20
19.8223017055
 11
-14.5109862841
 21
20.8739994383
  0
LINE
  5
222
100
AcDbEntity
  8
RACCORDO
100
AcDbLine
 62
253
  6
CONTINUOUS
 10
-16.3322155391
 20
19.7020056839
 11
-14.4403052091
 21
20.7519771184
  0
LINE
  5
223
100
AcDbEntity
  8
RACCORDO
100
AcDbLine
 62
253
  6
CONTINUOUS
 10
-10.1908736202
 20
24.2950627013
 11
-11.792154411
 21
23.4923406978
  0
LINE
  5
224
100
AcDbEntity
  8
RACCORDO
100
AcDbLine
 62
253
  6
CONTINUOUS
 10
-10.0140999165
 20
23.9901731625
 11
-11.6153807074
 21
23.187451159
  0
LINE
  5
225
100
AcDbEntity
  8
RACCORDO
100
AcDbLine
 62
253
  6
CONTINUOUS
 10
-9.6626064485
 20
24.5585015213
 11
-10.1908736202
 21
24.2950627013
  0
LINE
  5
226
100
AcDbEntity
  8
RACCORDO
100
AcDbLine
 62
253
  6
CONTINUOUS
 10
-9.4858327448
 20
24.2536119825
 11
-10.0140999165
 21
23.9901731625
  0
LINE
  5
227
100
AcDbEntity
  8
RACCORDO
100
AcDbLine
 62
7
  6
CONTINUOUS
 10
-10.0140999165
 20
22.3880225015
 11
-10.9041600993
 21
21.8913415802
  0
LINE
  5
228
100
AcDbEntity
  8
RACCORDO
100
AcDbLine
 62
7
  6
CONTINUOUS
 10
-7.6452801982
 20
22.0579040882
 11
-7.291738809
 21
22.239277513
  0
LINE
  5
229
100
AcDbEntity
  8
RACCORDO
100
AcDbLine
 62
7
  6
CONTINUOUS
 10
-2.2915168549
 20
25.5283265305
 11
-8.6060571815
 21
22.383550226
  0
LINE
  5
22A
100
AcDbEntity
  8
ASSI
100
AcDbLine
 62
7
  6
CONTINUOUS
 10
-7.291738809
 20
22.239277513
 11
-1.955515403
 21
24.8387209785
  0
LWPOLYLINE
  5
22B
100
AcDbEntity
  8
RACCORDO
100
AcDbPolyline
 62
7
  6
CONTINUOUS
 90
21
 70
0
 10
-2.7873195995
 20
-25.4142091523
 10
-2.7512674247
 20
-25.4309253881
 10
-2.7143147017
 20
-25.4460883767
 10
-2.6765338335
 20
-25.4596454906
 10
-2.6379658621
 20
-25.471560971
 10
-2.5986158727
 20
-25.4818087787
 10
-2.5585382472
 20
-25.4903477997
 10
-2.5177978039
 20
-25.4971389319
 10
-2.476409926
 20
-25.5021530685
 10
-2.4344329228
 20
-25.5053548129
 10
-2.3919286233
 20
-25.5067123909
 10
-2.3489099193
 20
-25.506196495
 10
-2.3054367921
 20
-25.5037769533
 10
-2.2615640582
 20
-25.4994266464
 10
-2.2172870718
 20
-25.4931113931
 10
-2.1726539317
 20
-25.4848002763
 10
-2.1277231862
 20
-25.4744663871
 10
-2.0824960146
 20
-25.4620689362
 10
-2.0370040136
 20
-25.4475702122
 10
-1.9913153089
 20
-25.4309445322
 10
-1.9587311495
 20
-25.4178104242
  0
LINE
  5
22C
100
AcDbEntity
  8
RACCORDO
100
AcDbLine
 62
7
  6
CONTINUOUS
 10
-17.6267700744
 20
-17.9945091138
 11
-17.6268880286
 21
-17.9944501544
  0
LINE
  5
22D
100
AcDbEntity
  8
RACCORDO
100
AcDbLine
 62
7
  6
CONTINUOUS
 10
-2.7873195995
 20
-25.4142091523
 11
-17.6268888821
 21
-17.9944497276
  0
LINE
  5
22E
100
AcDbEntity
  8
RACCORDO
100
AcDbLine
 62
7
  6
CONTINUOUS
 10
-2.7931086768
 20
-25.4113398132
 11
-2.7929900886
 21
-25.4113991244
  0
LINE
  5
22F
100
AcDbEntity
  8
RACCORDO
100
AcDbLine
 62
253
  6
CONTINUOUS
 10
-3.1864584089
 20
-24.6507997068
 11
-18.0113044865
 21
-17.238376668
  0
LINE
  5
230
100
AcDbEntity
  8
RACCORDO
100
AcDbLine
 62
253
  6
CONTINUOUS
 10
-10.0140999165
 20
23.26312831
 11
-9.4858327448
 21
23.9060804658
  0
LINE
  5
231
100
AcDbEntity
  8
RACCORDO
100
AcDbLine
 62
7
  6
CONTINUOUS
 10
-10.0140999165
 20
23.1735978437
 11
-9.4704721724
 21
23.8352452992
  0
LINE
  5
232
100
AcDbEntity
  8
DRAFT
100
AcDbLine
 62
7
  6
CONTINUOUS
 10
-9.8441111314
 20
18.5405618619
 11
-9.0595057619
 21
18.9760017516
  0
LINE
  5
233
100
AcDbEntity
  8
ASSI
100
AcDbLine
 62
7
  6
CONTINUOUS
 10
-1.3499849683
 20
24.5359557612
 11
-5.9482359247
 21
22.2695944637
  0
LINE
  5
234
100
AcDbEntity
  8
RACCORDO
100
AcDbLine
 62
7
  6
CONTINUOUS
 10
0.4218956984
 20
24.1716202539
 11
-1.3011089368
 21
23.3285337313
  0
LINE
  5
235
100
AcDbEntity
  8
0
100
AcDbLine
 62
253
  6
CONTINUOUS
 10
3.5914985491
 20
25.2808308449
 11
3.5923278903
 21
25.2812080105
  0
LINE
  5
236
100
AcDbEntity
  8
0
100
AcDbLine
 62
7
  6
CONTINUOUS
 10
0.982752819
 20
24.1034454218
 11
3.5903416891
 21
25.2803115916
  0
LINE
  5
237
100
AcDbEntity
  8
0
100
AcDbLine
 62
253
  6
CONTINUOUS
 10
1.0841862133
 20
23.9187242043
 11
3.3679625596
 21
24.9494464501
  0
LINE
  5
238
100
AcDbEntity
  8
RACCORDO
100
AcDbLine
 62
253
  6
CONTINUOUS
 10
3.8784854196
 20
-24.0756827558
 11
3.3502182479
 21
-23.9671804787
  0
LINE
  5
239
100
AcDbEntity
  8
RACCORDO
100
AcDbLine
 62
253
  6
CONTINUOUS
 10
3.7890716243
 20
-23.7561159498
 11
3.3502182479
 21
-23.6659786231
  0
LINE
  5
23A
100
AcDbEntity
  8
RACCORDO
100
AcDbLine
 62
7
  6
CONTINUOUS
 10
0.136404114
 20
-24.9464733172
 11
1.4613887938
 21
-25.6089656571
  0
LINE
  5
23B
100
AcDbEntity
  8
RACCORDO
100
AcDbLine
 62
253
  6
CONTINUOUS
 10
0.0714308176
 20
-24.8112548671
 11
1.3964154974
 21
-25.473747207
  0
LINE
  5
23C
100
AcDbEntity
  8
RACCORDO
100
AcDbLine
 62
253
  6
CONTINUOUS
 10
1.3964154974
 20
-25.1337732729
 11
0.1863622606
 21
-24.5287466545
  0
LINE
  5
23D
100
AcDbEntity
  8
RACCORDO
100
AcDbLine
 62
253
  6
CONTINUOUS
 10
1.4848038451
 20
-24.9020790991
 11
0.4887830797
 21
-24.4040687164
  0
LWPOLYLINE
  5
23E
100
AcDbEntity
  8
RACCORDO
100
AcDbPolyline
 62
7
  6
CONTINUOUS
 90
27
 70
0
 10
-18.1577683743
 20
-17.0607271394
 10
-18.1560967721
 20
-17.0972879082
 10
-18.1522649285
 20
-17.1481033357
 10
-18.146721699
 20
-17.1980236035
 10
-18.1394766806
 20
-17.2470485702
 10
-18.1305461916
 20
-17.2951176806
 10
-18.1199643216
 20
-17.3421130656
 10
-18.1077519468
 20
-17.3880108373
 10
-18.0939319396
 20
-17.4327780279
 10
-18.0785631521
 20
-17.4762877298
 10
-18.0616811966
 20
-17.5185119244
 10
-18.0433221226
 20
-17.559424283
 10
-18.0235725622
 20
-17.598904563
 10
-18.00250196
 20
-17.6369001598
 10
-17.9801502464
 20
-17.6734193144
 10
-17.9565795205
 20
-17.7084328988
 10
-17.9318749289
 20
-17.7418887837
 10
-17.9060796026
 20
-17.7737999275
 10
-17.8791924735
 20
-17.8042220579
 10
-17.8512771647
 20
-17.8331268627
 10
-17.8223945919
 20
-17.8604945796
 10
-17.7925289537
 20
-17.8863731276
 10
-17.7617427856
 20
-17.9107324885
 10
-17.7300970141
 20
-17.9335494436
 10
-17.6975625127
 20
-17.9548613709
 10
-17.664167196
 20
-17.9746556245
 10
-17.6267702942
 20
-17.9945090021
  0
LWPOLYLINE
  5
23F
100
AcDbEntity
  8
RACCORDO
100
AcDbPolyline
 62
7
  6
CONTINUOUS
 90
22
 70
0
 10
-18.1577869096
 20
18.5519067492
 10
-18.2107076416
 20
16.8422354781
 10
-18.2587536959
 20
15.1208843912
 10
-18.3014634984
 20
13.4020681064
 10
-18.3388363546
 20
11.6858130819
 10
-18.3708716544
 20
9.9721456157
 10
-18.39756887
 20
8.2610918913
 10
-18.4189275522
 20
6.5526781683
 10
-18.4349473332
 20
4.8469306905
 10
-18.4456279276
 20
3.143875551
 10
-18.4509691303
 20
1.4435388408
 10
-18.4509708173
 20
-0.2540532729
 10
-18.4456329472
 20
-1.9488746461
 10
-18.4349555611
 20
-3.6408991967
 10
-18.4189387813
 20
-5.3301010038
 10
-18.3975828101
 20
-7.0164542305
 10
-18.3708879325
 20
-8.6999329712
 10
-18.3388545147
 20
-10.3805113894
 10
-18.3014830015
 20
-12.0581638133
 10
-18.2587739195
 20
-13.7328645375
 10
-18.2107278804
 20
-15.4045877779
 10
-18.1577682875
 20
-17.0607297249
  0
LINE
  5
240
100
AcDbEntity
  8
RACCORDO
100
AcDbLine
 62
7
  6
CONTINUOUS
 10
-17.4082871965
 20
13.6168810805
 11
-17.2970445584
 21
13.6727186942
  0
LINE
  5
241
100
AcDbEntity
  8
ASSI
100
AcDbLine
 62
7
  6
CONTINUOUS
 10
-2.3419913406
 20
21.6528840135
 11
1.1228318872
 21
23.3852956274
  0
LINE
  5
242
100
AcDbEntity
  8
SMUSSO
100
AcDbLine
 62
7
  6
CONTINUOUS
 10
-9.0595057619
 20
18.2003810334
 11
-9.1492533536
 21
18.1572346173
  0
LINE
  5
243
100
AcDbEntity
  8
RACCORDO
100
AcDbLine
 62
7
  6
CONTINUOUS
 10
2.1076361055
 20
-24.1572767957
 11
1.6445850445
 21
-23.9257512652
  0
LINE
  5
244
100
AcDbEntity
  8
RACCORDO
100
AcDbLine
 62
253
  6
CONTINUOUS
 10
3.3502182479
 20
-23.5366892616
 11
3.7890716243
 21
-23.7561159498
  0
LINE
  5
245
100
AcDbEntity
  8
RACCORDO
100
AcDbLine
 62
7
  6
CONTINUOUS
 10
3.3502182479
 20
-23.5330691121
 11
3.8124866755
 21
-23.7642033259
  0
LINE
  5
246
100
AcDbEntity
  8
0
100
AcDbLine
 62
7
  6
CONTINUOUS
 10
-0.7315591186
 20
20.8453906115
 11
-0.4803353032
 21
20.9950890539
  0
LINE
  5
247
100
AcDbEntity
  8
0
100
AcDbLine
 62
253
  6
CONTINUOUS
 10
-0.277962132
 20
20.817629557
 11
-0.0058379297
 21
20.9797820549
  0
LINE
  5
248
100
AcDbEntity
  8
DRAFT
100
AcDbLine
 62
7
  6
CONTINUOUS
 10
-5.587894624
 20
16.4124536082
 11
-4.8168650748
 21
16.854681408
  0
LINE
  5
249
100
AcDbEntity
  8
RACCORDO
100
AcDbLine
 62
7
  6
CONTINUOUS
 10
-1.4268782838
 20
18.948703131
 11
-1.0691991345
 21
19.1280076758
  0
LINE
  5
24A
100
AcDbEntity
  8
ASSI
100
AcDbLine
 62
7
  6
CONTINUOUS
 10
-1.0691991345
 20
19.1280076758
 11
4.2052929346
 21
21.7583168097
  0
LINE
  5
24B
100
AcDbEntity
  8
ASSI
100
AcDbLine
 62
7
  6
CONTINUOUS
 10
3.5997625
 20
22.061082027
 11
-0.9984884564
 21
19.7947207295
  0
LINE
  5
24C
100
AcDbEntity
  8
RACCORDO
100
AcDbLine
 62
7
  6
CONTINUOUS
 10
4.3792289996
 20
21.2111465439
 11
5.3716431667
 21
21.6967465197
  0
LINE
  5
24D
100
AcDbEntity
  8
0
100
AcDbLine
 62
7
  6
CONTINUOUS
 10
6.2167931217
 20
-16.2364712689
 11
6.1979246798
 21
-16.2417878378
  0
LINE
  5
24E
100
AcDbEntity
  8
0
100
AcDbLine
 62
7
  6
CONTINUOUS
 10
5.5100664922
 20
-16.4183941746
 11
6.1977790359
 21
-16.2418527531
  0
LINE
  5
24F
100
AcDbEntity
  8
0
100
AcDbLine
 62
253
  6
CONTINUOUS
 10
6.8781739495
 20
-15.5868166427
 11
5.8770818801
 21
-15.8438051455
  0
LINE
  5
250
100
AcDbEntity
  8
RACCORDO
100
AcDbLine
 62
7
  6
CONTINUOUS
 10
-1.0691991345
 20
17.9155721105
 11
-1.4268782838
 21
17.7159761587
  0
LINE
  5
251
100
AcDbEntity
  8
RACCORDO
100
AcDbLine
 62
7
  6
CONTINUOUS
 10
1.7172651024
 20
18.2913189779
 11
0.1340934074
 21
17.4791219306
  0
LINE
  5
252
100
AcDbEntity
  8
RACCORDO
100
AcDbLine
 62
253
  6
CONTINUOUS
 10
1.8299356767
 20
18.2846580528
 11
0.2471790736
 21
17.4726739555
  0
LINE
  5
253
100
AcDbEntity
  8
RACCORDO
100
AcDbLine
 62
7
  6
CONTINUOUS
 10
1.7190034879
 20
18.2921882107
 11
1.7172670761
 21
18.2913199905
  0
LINE
  5
254
100
AcDbEntity
  8
DRAFT
100
AcDbLine
 62
7
  6
CONTINUOUS
 10
-1.0691991345
 20
17.9155721105
 11
4.2556349357
 21
20.5519035424
  0
LINE
  5
255
100
AcDbEntity
  8
RACCORDO
100
AcDbLine
 62
7
  6
CONTINUOUS
 10
2.2538734443
 20
18.5527403105
 11
1.7190062535
 21
18.2921895579
  0
LINE
  5
256
100
AcDbEntity
  8
RACCORDO
100
AcDbLine
 62
253
  6
CONTINUOUS
 10
2.3643855554
 20
18.5450055194
 11
1.8299356767
 21
18.2846580528
  0
LINE
  5
257
100
AcDbEntity
  8
RACCORDO
100
AcDbLine
 62
7
  6
CONTINUOUS
 10
8.08505572
 20
20.3400402431
 11
3.4015188405
 21
18.0884162478
  0
LINE
  5
258
100
AcDbEntity
  8
SMUSSO
100
AcDbLine
 62
7
  6
CONTINUOUS
 10
-14.4403052091
 20
20.6400292685
 11
-14.4403052091
 21
20.7519771184
  0
LINE
  5
259
100
AcDbEntity
  8
RACCORDO
100
AcDbLine
 62
7
  6
CONTINUOUS
 10
-13.3661106515
 20
23.9388445704
 11
-13.3661106515
 21
23.5988706363
  0
LINE
  5
25A
100
AcDbEntity
  8
RACCORDO
100
AcDbLine
 62
253
  6
CONTINUOUS
 10
-13.2928873468
 20
23.8504562228
 11
-13.2928873468
 21
23.5104822886
  0
LINE
  5
25B
100
AcDbEntity
  8
RACCORDO
100
AcDbLine
 62
7
  6
CONTINUOUS
 10
-12.6631176973
 20
22.638893469
 11
-12.6631176973
 21
23.0928656619
  0
LINE
  5
25C
100
AcDbEntity
  8
RACCORDO
100
AcDbLine
 62
253
  6
CONTINUOUS
 10
-12.5898943925
 20
22.5471798654
 11
-12.5898943925
 21
23.0562540096
  0
LWPOLYLINE
  5
25D
100
AcDbEntity
  8
RACCORDO
100
AcDbPolyline
 62
7
  6
CONTINUOUS
 90
43
 70
0
 10
-2.8293014397
 20
13.0130360321
 10
-2.8553956702
 20
12.9976704747
 10
-2.8929066821
 20
12.9741772805
 10
-2.9301583244
 20
12.949185845
 10
-2.9671067014
 20
12.9227327369
 10
-3.0037140057
 20
12.8948544059
 10
-3.0399431293
 20
12.8655873576
 10
-3.0757574415
 20
12.8349678129
 10
-3.1111187223
 20
12.8030363646
 10
-3.1459859512
 20
12.7698366286
 10
-3.1803212528
 20
12.7354098954
 10
-3.2140879792
 20
12.6998001051
 10
-3.24724588
 20
12.6630558406
 10
-3.2797578384
 20
12.6252231904
 10
-3.3115900353
 20
12.586348368
 10
-3.3427063925
 20
12.5464808739
 10
-3.3730711395
 20
12.5056706252
 10
-3.4026528959
 20
12.4639660311
 10
-3.4314212711
 20
12.4214143423
 10
-3.4593435902
 20
12.3780663778
 10
-3.4863894967
 20
12.3339740534
 10
-3.5125310209
 20
12.2891858494
 10
-3.5377373786
 20
12.2437552647
 10
-3.5619809956
 20
12.1977352745
 10
-3.5852375172
 20
12.1511729986
 10
-3.6074789588
 20
12.1041225749
 10
-3.6286796721
 20
12.0566390964
 10
-3.648817419
 20
12.0087704601
 10
-3.667867525
 20
11.9605698039
 10
-3.6858059731
 20
11.9120953823
 10
-3.7026105067
 20
11.8634022484
 10
-3.718259106
 20
11.8145452271
 10
-3.7327313344
 20
11.7655823291
 10
-3.7460070162
 20
11.7165728717
 10
-3.7580672306
 20
11.6675732092
 10
-3.7688955642
 20
11.6186407202
 10
-3.7784756035
 20
11.5698354791
 10
-3.7867916553
 20
11.5212160199
 10
-3.7938314787
 20
11.4728347882
 10
-3.7995832521
 20
11.4247417339
 10
-3.8040347746
 20
11.376990397
 10
-3.8071761917
 20
11.3296430281
 10
-3.8086192305
 20
11.2959096382
  0
LINE
  5
25E
100
AcDbEntity
  8
RACCORDO
100
AcDbLine
 62
7
  6
CONTINUOUS
 10
-0.9675915753
 20
14.0808290673
 11
-2.8293034823
 21
13.0130350232
  0
LINE
  5
25F
100
AcDbEntity
  8
RACCORDO
100
AcDbLine
 62
253
  6
CONTINUOUS
 10
-0.9210194712
 20
14.0790160319
 11
-2.7832513157
 21
13.0109237751
  0
LINE
  5
260
100
AcDbEntity
  8
RACCORDO
100
AcDbLine
 62
253
  6
CONTINUOUS
 10
-1.2106204908
 20
14.1879181859
 11
-3.083484804
 21
13.1312740629
  0
LINE
  5
261
100
AcDbEntity
  8
RACCORDO
100
AcDbLine
 62
7
  6
CONTINUOUS
 10
8.9665911786
 20
19.6061820517
 11
3.4750478504
 21
16.6433684408
  0
LINE
  5
262
100
AcDbEntity
  8
RACCORDO
100
AcDbLine
 62
7
  6
CONTINUOUS
 10
8.9665911786
 20
19.1088520948
 11
3.6084398415
 21
16.2763017145
  0
LINE
  5
263
100
AcDbEntity
  8
RACCORDO
100
AcDbLine
 62
253
  6
CONTINUOUS
 10
3.1734445442
 20
17.6129036191
 11
1.5721637534
 21
16.8101816156
  0
LINE
  5
264
100
AcDbEntity
  8
RACCORDO
100
AcDbLine
 62
253
  6
CONTINUOUS
 10
3.3502182479
 20
17.3080140803
 11
1.7489374571
 21
16.5052920768
  0
LINE
  5
265
100
AcDbEntity
  8
RACCORDO
100
AcDbLine
 62
253
  6
CONTINUOUS
 10
3.701711716
 20
17.8763424391
 11
3.1734445442
 21
17.6129036191
  0
LINE
  5
266
100
AcDbEntity
  8
RACCORDO
100
AcDbLine
 62
253
  6
CONTINUOUS
 10
3.8784854196
 20
17.5714529003
 11
3.3502182479
 21
17.3080140803
  0
LINE
  5
267
100
AcDbEntity
  8
RACCORDO
100
AcDbLine
 62
253
  6
CONTINUOUS
 10
4.092583429
 20
16.0342299207
 11
3.3731340531
 21
15.6944055167
  0
LINE
  5
268
100
AcDbEntity
  8
0
100
AcDbLine
 62
7
  6
CONTINUOUS
 10
5.4748430554
 20
-17.9681278146
 11
5.3208302265
 21
-17.8911214002
  0
LINE
  5
269
100
AcDbEntity
  8
0
100
AcDbLine
 62
253
  6
CONTINUOUS
 10
5.1908836336
 20
-17.6206845
 11
5.3448964625
 21
-17.6976909144
  0
LINE
  5
26A
100
AcDbEntity
  8
0
100
AcDbLine
 62
7
  6
CONTINUOUS
 10
5.042786975
 20
-16.9320550821
 11
4.9864379205
 21
-16.9038805549
  0
LINE
  5
26B
100
AcDbEntity
  8
0
100
AcDbLine
 62
253
  6
CONTINUOUS
 10
4.9864379205
 20
-16.6984169511
 11
5.1908836336
 21
-16.8006398077
  0
LINE
  5
26C
100
AcDbEntity
  8
RACCORDO
100
AcDbLine
 62
253
  6
CONTINUOUS
 10
-11.967902667
 20
22.8479899487
 11
-11.967902667
 21
23.1879638828
  0
LINE
  5
26D
100
AcDbEntity
  8
RACCORDO
100
AcDbLine
 62
253
  6
CONTINUOUS
 10
-11.6153807074
 20
22.8474772249
 11
-11.6153807074
 21
23.187451159
  0
LINE
  5
26E
100
AcDbEntity
  8
RACCORDO
100
AcDbLine
 62
253
  6
CONTINUOUS
 10
-11.2566820589
 20
22.5693943215
 11
-11.2566820589
 21
21.8805736986
  0
LINE
  5
26F
100
AcDbEntity
  8
RACCORDO
100
AcDbLine
 62
253
  6
CONTINUOUS
 10
-10.9041600993
 20
22.698973702
 11
-10.9041600993
 21
21.8913415802
  0
LINE
  5
270
100
AcDbEntity
  8
0
100
AcDbLine
 62
7
  6
CONTINUOUS
 10
-1.3132488736
 20
19.9521009381
 11
-0.8127071217
 21
20.7654179174
  0
LINE
  5
271
100
AcDbEntity
  8
0
100
AcDbLine
 62
253
  6
CONTINUOUS
 10
-0.9385280612
 20
19.8242736879
 11
-0.316786232
 21
20.8345253407
  0
LINE
  5
272
100
AcDbEntity
  8
0
100
AcDbLine
 62
7
  6
CONTINUOUS
 10
5.9745423784
 20
16.9229958931
 11
5.280035238
 21
16.4902885583
  0
LINE
  5
273
100
AcDbEntity
  8
0
100
AcDbLine
 62
253
  6
CONTINUOUS
 10
5.5259334694
 20
16.4890839349
 11
6.2135112154
 21
16.9174795657
  0
LINE
  5
274
100
AcDbEntity
  8
RACCORDO
100
AcDbLine
 62
7
  6
CONTINUOUS
 10
3.3502182479
 20
15.7058634193
 11
2.4601580652
 21
15.209182498
  0
LINE
  5
275
100
AcDbEntity
  8
0
100
AcDbLine
 62
253
  6
CONTINUOUS
 10
6.4213082193
 20
16.8135810637
 11
5.6799462983
 21
16.4120775204
  0
LINE
  5
276
100
AcDbEntity
  8
0
100
AcDbLine
 62
253
  6
CONTINUOUS
 10
5.929603682
 20
16.1605961558
 11
6.6709656984
 21
16.5620997508
  0
LINE
  5
277
100
AcDbEntity
  8
DRAFT
100
AcDbLine
 62
7
  6
CONTINUOUS
 10
8.6757286342
 20
17.9631073928
 11
6.4296270087
 21
16.8088912704
  0
LINE
  5
278
100
AcDbEntity
  8
DRAFT
100
AcDbLine
 62
7
  6
CONTINUOUS
 10
5.045469039
 20
16.0976066934
 11
4.3517434203
 21
15.7411182404
  0
LINE
  5
279
100
AcDbEntity
  8
RACCORDO
100
AcDbLine
 62
253
  6
CONTINUOUS
 10
4.4108784197
 20
15.4852967992
 11
3.6926308811
 21
15.1460373845
  0
LINE
  5
27A
100
AcDbEntity
  8
0
100
AcDbLine
 62
253
  6
CONTINUOUS
 10
7.6162258467
 20
14.931767158
 11
6.8014970407
 21
14.656802557
  0
LINE
  5
27B
100
AcDbEntity
  8
0
100
AcDbLine
 62
253
  6
CONTINUOUS
 10
6.8781717365
 20
14.2881133931
 11
7.7204793647
 21
14.5724288718
  0
LINE
  5
27C
100
AcDbEntity
  8
RACCORDO
100
AcDbLine
 62
7
  6
CONTINUOUS
 10
8.960474669
 20
-16.9031247633
 11
8.702813512
 21
-16.7742941848
  0
LINE
  5
27D
100
AcDbEntity
  8
RACCORDO
100
AcDbLine
 62
7
  6
CONTINUOUS
 10
-10.0140999165
 20
22.3880225015
 11
-10.0140999165
 21
23.9901731625
  0
LINE
  5
27E
100
AcDbEntity
  8
SMUSSO
100
AcDbLine
 62
7
  6
CONTINUOUS
 10
-9.8441111314
 20
18.5046635062
 11
-9.8441111314
 21
18.5405618619
  0
LINE
  5
27F
100
AcDbEntity
  8
RACCORDO
100
AcDbLine
 62
253
  6
CONTINUOUS
 10
-9.4858327448
 20
24.2536119825
 11
-9.4858327448
 21
23.9060804658
  0
LINE
  5
280
100
AcDbEntity
  8
RACCORDO
100
AcDbLine
 62
7
  6
CONTINUOUS
 10
-9.4136348878
 20
24.3414846147
 11
-9.4136348878
 21
23.993953098
  0
LINE
  5
281
100
AcDbEntity
  8
DRAFT
100
AcDbLine
 62
7
  6
CONTINUOUS
 10
-9.0595057619
 20
18.2003810334
 11
-9.0595057619
 21
18.9760017516
  0
LINE
  5
282
100
AcDbEntity
  8
0
100
AcDbLine
 62
253
  6
CONTINUOUS
 10
5.8277513238
 20
13.8165413228
 11
5.1752457656
 21
13.47425161
  0
LINE
  5
283
100
AcDbEntity
  8
0
100
AcDbLine
 62
253
  6
CONTINUOUS
 10
8.688828224
 20
13.7039365608
 11
8.6794715494
 21
13.699128522
  0
LINE
  5
284
100
AcDbEntity
  8
0
100
AcDbLine
 62
7
  6
CONTINUOUS
 10
7.9819830442
 20
14.9230815135
 11
7.6861713425
 21
14.7751491071
  0
LINE
  5
285
100
AcDbEntity
  8
0
100
AcDbLine
 62
7
  6
CONTINUOUS
 10
7.7204801979
 20
13.230714145
 11
8.6794715494
 21
13.699128522
  0
LINE
  5
286
100
AcDbEntity
  8
0
100
AcDbLine
 62
253
  6
CONTINUOUS
 10
15.8179022388
 20
18.7244766105
 11
7.9819830442
 21
14.9230815135
  0
LINE
  5
287
100
AcDbEntity
  8
0
100
AcDbLine
 62
253
  6
CONTINUOUS
 10
8.68887452
 20
13.7037562726
 11
17.8203530145
 21
18.1336185983
  0
LINE
  5
288
100
AcDbEntity
  8
RACCORDO
100
AcDbLine
 62
7
  6
CONTINUOUS
 10
-13.4623369341
 20
3.4319731791
 11
-13.461940415
 21
3.4321606526
  0
LINE
  5
289
100
AcDbEntity
  8
DRAFT
100
AcDbLine
 62
7
  6
CONTINUOUS
 10
4.9864379205
 20
12.7830467144
 11
4.4108784197
 21
12.5111871912
  0
LWPOLYLINE
  5
28A
100
AcDbEntity
  8
RACCORDO
100
AcDbPolyline
 62
7
  6
CONTINUOUS
 90
28
 70
0
 10
-13.4623334608
 20
3.4319742972
 10
-13.4154704315
 20
3.453483122
 10
-13.3204418809
 20
3.4932084945
 10
-13.2241010167
 20
3.5284393526
 10
-13.1265583774
 20
3.5592460717
 10
-13.0278438381
 20
3.5857221475
 10
-12.9279061575
 20
3.6079714251
 10
-12.8267987614
 20
3.626057964
 10
-12.7246187436
 20
3.6400371073
 10
-12.6213849048
 20
3.6499768874
 10
-12.5171822424
 20
3.6559319953
 10
-12.4121022317
 20
3.6579603049
 10
-12.3061779429
 20
3.6561213105
 10
-12.1995575187
 20
3.6504747835
 10
-12.0922881854
 20
3.6410824612
 10
-11.9842445305
 20
3.6279785251
 10
-11.8755303826
 20
3.6112089035
 10
-11.7662316571
 20
3.5908230881
 10
-11.6561794374
 20
3.5668129396
 10
-11.5454644644
 20
3.5392090741
 10
-11.4341765646
 20
3.5080481028
 10
-11.3221287377
 20
3.4732795413
 10
-11.209408495
 20
3.4349199696
 10
-11.0960977709
 20
3.3929895591
 10
-10.9819874953
 20
3.3473905051
 10
-10.8670606291
 20
3.2980785938
 10
-10.7515058363
 20
3.245101059
 10
-10.6452355493
 20
3.193393235
  0
LINE
  5
28B
100
AcDbEntity
  8
RACCORDO
100
AcDbLine
 62
7
  6
CONTINUOUS
 10
-7.7896759122
 20
21.873747087
 11
-7.7896759122
 21
20.6335580544
  0
LINE
  5
28C
100
AcDbEntity
  8
RACCORDO
100
AcDbLine
 62
253
  6
CONTINUOUS
 10
-7.6432293028
 20
21.530677256
 11
-7.6432293028
 21
20.4500939452
  0
LINE
  5
28D
100
AcDbEntity
  8
0
100
AcDbLine
 62
7
  6
CONTINUOUS
 10
-10.1176864268
 20
-2.2086501811
 11
-9.5830911507
 21
-1.4220557971
  0
LINE
  5
28E
100
AcDbEntity
  8
RACCORDO
100
AcDbLine
 62
253
  6
CONTINUOUS
 10
3.3502182479
 20
16.5809692278
 11
3.8784854196
 21
17.2239213836
  0
LINE
  5
28F
100
AcDbEntity
  8
RACCORDO
100
AcDbLine
 62
7
  6
CONTINUOUS
 10
3.3502182479
 20
16.4914387615
 11
3.9495784497
 21
17.2209179993
  0
LINE
  5
290
100
AcDbEntity
  8
0
100
AcDbLine
 62
253
  6
CONTINUOUS
 10
5.8770818801
 20
12.263763371
 11
6.8781717365
 21
12.7889125519
  0
LINE
  5
291
100
AcDbEntity
  8
RACCORDO
100
AcDbLine
 62
7
  6
CONTINUOUS
 10
-4.0613833498
 20
6.9837669451
 11
-3.9315818993
 21
7.0486676704
  0
LINE
  5
292
100
AcDbEntity
  8
0
100
AcDbLine
 62
7
  6
CONTINUOUS
 10
-9.7122597002
 20
2.6170040667
 11
-12.8454712763
 21
1.0503982786
  0
LINE
  5
293
100
AcDbEntity
  8
SMUSSO
100
AcDbLine
 62
7
  6
CONTINUOUS
 10
-5.587894624
 20
16.3765552525
 11
-5.587894624
 21
16.4124536082
  0
LWPOLYLINE
  5
294
100
AcDbEntity
  8
RACCORDO
100
AcDbPolyline
 62
7
  6
CONTINUOUS
 90
10
 70
0
 10
-3.808619336
 20
11.2959108346
 10
-3.8246219908
 20
10.8007318791
 10
-3.8406199477
 20
10.2915838577
 10
-3.8561483594
 20
9.782651626
 10
-3.8712072008
 20
9.2739360485
 10
-3.8857964524
 20
8.7654378069
 10
-3.8999160993
 20
8.2571573999
 10
-3.9135661206
 20
7.7490955095
 10
-3.9267464908
 20
7.2412530007
 10
-3.9375906982
 20
6.8093483799
  0
LINE
  5
295
100
AcDbEntity
  8
DRAFT
100
AcDbLine
 62
253
  6
CONTINUOUS
 10
-2.3419913406
 20
21.6528840135
 11
-2.3419913406
 21
20.4664721717
  0
LINE
  5
296
100
AcDbEntity
  8
RACCORDO
100
AcDbLine
 62
253
  6
CONTINUOUS
 10
-2.1319222031
 20
17.6944403954
 11
-2.1319222031
 21
18.7750237062
  0
LINE
  5
297
100
AcDbEntity
  8
0
100
AcDbLine
 62
7
  6
CONTINUOUS
 10
-9.1803107148
 20
-1.1084026155
 11
-9.2888393284
 21
-1.1626669224
  0
LINE
  5
298
100
AcDbEntity
  8
0
100
AcDbLine
 62
7
  6
CONTINUOUS
 10
-9.5675099772
 20
-3.3090030804
 11
-8.6174773042
 21
-3.35328349
  0
LWPOLYLINE
  5
299
100
AcDbEntity
  8
RACCORDO
100
AcDbPolyline
 62
7
  6
CONTINUOUS
 90
103
 70
0
 10
-10.645233359
 20
3.1933921608
 10
-10.5395351668
 20
3.1391343181
 10
-10.4227389103
 20
3.0759102801
 10
-10.305636699
 20
3.0090784098
 10
-10.1883196268
 20
2.9386634768
 10
-10.0708746254
 20
2.8646939897
 10
-9.9533879636
 20
2.7872011371
 10
-9.8359426796
 20
2.7062165761
 10
-9.7186234921
 20
2.6217780504
 10
-9.6015160538
 20
2.5339264958
 10
-9.4847041396
 20
2.4427038568
 10
-9.3682709218
 20
2.348157008
 10
-9.2522981195
 20
2.2503343419
 10
-9.136867549
 20
2.1492865042
 10
-9.022059519
 20
2.0450679917
 10
-8.907950813
 20
1.9377326402
 10
-8.7946211965
 20
1.8273389452
 10
-8.6821482705
 20
1.7139484929
 10
-8.570603332
 20
1.5976190204
 10
-8.4600630573
 20
1.4784153675
 10
-8.3506027412
 20
1.3564060409
 10
-8.2422898362
 20
1.2316533934
 10
-8.1351950439
 20
1.104224649
 10
-8.0293940319
 20
0.9741980115
 10
-7.9249599551
 20
0.8416521665
 10
-7.8219609457
 20
0.7066614073
 10
-7.7204683511
 20
0.5693094042
 10
-7.6205579348
 20
0.4296899549
 10
-7.5222962681
 20
0.287886891
 10
-7.4257479268
 20
0.1439865466
 10
-7.3309832164
 20
-0.0019120945
 10
-7.2380642705
 20
-0.149719734
 10
-7.1470510621
 20
-0.299344964
 10
-7.0580082248
 20
-0.4506843272
 10
-6.9709930724
 20
-0.603643847
 10
-6.8860606386
 20
-0.7581277809
 10
-6.8032697143
 20
-0.9140288089
 10
-6.7226724829
 20
-1.0712489608
 10
-6.6443186592
 20
-1.2296890002
 10
-6.5682608919
 20
-1.3892385737
 10
-6.4945458168
 20
-1.5497966695
 10
-6.4232176102
 20
-1.7112611497
 10
-6.3543227358
 20
-1.873518899
 10
-6.2879018775
 20
-2.0364668471
 10
-6.223993439
 20
-2.2000005044
 10
-6.1626378131
 20
-2.3640035908
 10
-6.1038694446
 20
-2.5283716084
 10
-6.0477205261
 20
-2.692998619
 10
-5.994225142
 20
-2.8577651904
 10
-5.9434112798
 20
-3.0225656652
 10
-5.8953043423
 20
-3.1872939953
 10
-5.8499312904
 20
-3.3518292596
 10
-5.8073131994
 20
-3.5160657704
 10
-5.7674684613
 20
-3.6798979454
 10
-5.7304164473
 20
-3.8432042522
 10
-5.6961714718
 20
-4.0058774031
 10
-5.6647440227
 20
-4.167815638
 10
-5.6361441855
 20
-4.3289050276
 10
-5.6103789031
 20
-4.4890402322
 10
-5.5874516042
 20
-4.6481213275
 10
-5.5673638792
 20
-4.8060417461
 10
-5.5501151194
 20
-4.962701152
 10
-5.5357020608
 20
-5.117999711
 10
-5.5241188895
 20
-5.2718308414
 10
-5.5153575548
 20
-5.4240952905
 10
-5.509407058
 20
-5.5746989523
 10
-5.5062533879
 20
-5.7235422489
 10
-5.505880675
 20
-5.8705155882
 10
-5.5082700067
 20
-6.0155438556
 10
-5.513401377
 20
-6.1585768006
 10
-5.5212533405
 20
-6.2995175349
 10
-5.5318024365
 20
-6.4382843138
 10
-5.5450271794
 20
-6.5748444849
 10
-5.56090159
 20
-6.7091080361
 10
-5.5793975729
 20
-6.8409915344
 10
-5.6004923929
 20
-6.9704656288
 10
-5.6241526639
 20
-7.0974314526
 10
-5.6503473535
 20
-7.2218207281
 10
-5.6790607996
 20
-7.3436406222
 10
-5.7102580428
 20
-7.462802907
 10
-5.7439037898
 20
-7.5792310474
 10
-5.7799873161
 20
-7.6929371942
 10
-5.8184643519
 20
-7.8038180553
 10
-5.8593023346
 20
-7.9118163702
 10
-5.9025170523
 20
-8.0169955767
 10
-5.9480365393
 20
-8.1191936351
 10
-5.9958550815
 20
-8.2184127267
 10
-6.0461152421
 20
-8.3149190695
 10
-6.0988157901
 20
-8.4086377349
 10
-6.1539176929
 20
-8.4994326216
 10
-6.2115418428
 20
-8.5874222529
 10
-6.2717102668
 20
-8.6725309847
 10
-6.3343819417
 20
-8.7545985646
 10
-6.3996038162
 20
-8.8335875429
 10
-6.4673597977
 20
-8.9093733927
 10
-6.5376563539
 20
-8.9818651625
 10
-6.6105958971
 20
-9.0510588996
 10
-6.6861724671
 20
-9.1168293209
 10
-6.7644197217
 20
-9.1790919652
 10
-6.8455376675
 20
-9.2378697291
 10
-6.9296309327
 20
-9.2930792601
 10
-7.0166885295
 20
-9.34455605
 10
-7.0630146875
 20
-9.3697376894
  0
LINE
  5
29A
100
AcDbEntity
  8
RACCORDO
100
AcDbLine
 62
253
  6
CONTINUOUS
 10
-1.4268782838
 20
17.7159761587
 11
-1.4268782838
 21
18.948703131
  0
LINE
  5
29B
100
AcDbEntity
  8
ASSI
100
AcDbLine
 62
253
  6
CONTINUOUS
 10
-1.3011089368
 20
23.3285337313
 11
-1.3011089368
 21
24.5558843283
  0
LINE
  5
29C
100
AcDbEntity
  8
ASSI
100
AcDbLine
 62
7
  6
CONTINUOUS
 10
-1.1757594296
 20
23.4775618897
 11
-1.1757594296
 21
24.5651959474
  0
LINE
  5
29D
100
AcDbEntity
  8
DRAFT
100
AcDbLine
 62
7
  6
CONTINUOUS
 10
-1.0691991345
 20
19.1280076758
 11
-1.0691991345
 21
17.9155721105
  0
LINE
  5
29E
100
AcDbEntity
  8
DRAFT
100
AcDbLine
 62
253
  6
CONTINUOUS
 10
-0.9277777783
 20
21.6528840135
 11
-0.9277777783
 21
20.5784426681
  0
LINE
  5
29F
100
AcDbEntity
  8
DRAFT
100
AcDbLine
 62
7
  6
CONTINUOUS
 10
-0.8862784755
 20
20.6458737815
 11
-0.8862784755
 21
21.4589292814
  0
LINE
  5
2A0
100
AcDbEntity
  8
RACCORDO
100
AcDbLine
 62
7
  6
CONTINUOUS
 10
-0.0017924871
 20
17.2566854882
 11
-0.0017924871
 21
16.9167115541
  0
LINE
  5
2A1
100
AcDbEntity
  8
RACCORDO
100
AcDbLine
 62
7
  6
CONTINUOUS
 10
-0.0017924871
 20
-24.6062697241
 11
-0.0017924871
 21
-24.7228665194
  0
LINE
  5
2A2
100
AcDbEntity
  8
RACCORDO
100
AcDbLine
 62
253
  6
CONTINUOUS
 10
0.0714308176
 20
17.1682971405
 11
0.0714308176
 21
16.8283232064
  0
LINE
  5
2A3
100
AcDbEntity
  8
RACCORDO
100
AcDbLine
 62
253
  6
CONTINUOUS
 10
0.0714308176
 20
-24.576100433
 11
0.0714308176
 21
-24.8112548671
  0
LINE
  5
2A4
100
AcDbEntity
  8
0
100
AcDbLine
 62
7
  6
CONTINUOUS
 10
-8.12582634
 20
-3.2197209714
 11
-8.2334151111
 21
-3.273515357
  0
LINE
  5
2A5
100
AcDbEntity
  8
RACCORDO
100
AcDbLine
 62
7
  6
CONTINUOUS
 10
0.7012004672
 20
15.9567343868
 11
0.7012004672
 21
16.4107065797
  0
LINE
  5
2A6
100
AcDbEntity
  8
RACCORDO
100
AcDbLine
 62
253
  6
CONTINUOUS
 10
0.7744237719
 20
15.8650207832
 11
0.7744237719
 21
16.3740949274
  0
LINE
  5
2A7
100
AcDbEntity
  8
RACCORDO
100
AcDbLine
 62
7
  6
CONTINUOUS
 10
1.1228318872
 20
23.6560959201
 11
1.1228318872
 21
23.3852956274
  0
LINE
  5
2A8
100
AcDbEntity
  8
RACCORDO
100
AcDbLine
 62
253
  6
CONTINUOUS
 10
1.3964154974
 20
-25.473747207
 11
1.3964154974
 21
-25.1337732729
  0
LINE
  5
2A9
100
AcDbEntity
  8
RACCORDO
100
AcDbLine
 62
253
  6
CONTINUOUS
 10
1.3964154974
 20
16.1658308665
 11
1.3964154974
 21
16.5058048006
  0
LINE
  5
2AA
100
AcDbEntity
  8
RACCORDO
100
AcDbLine
 62
253
  6
CONTINUOUS
 10
1.7489374571
 20
-25.4742599309
 11
1.7489374571
 21
-25.1342859967
  0
LINE
  5
2AB
100
AcDbEntity
  8
RACCORDO
100
AcDbLine
 62
253
  6
CONTINUOUS
 10
1.7489374571
 20
16.1653181426
 11
1.7489374571
 21
16.5052920768
  0
LINE
  5
2AC
100
AcDbEntity
  8
RACCORDO
100
AcDbLine
 62
253
  6
CONTINUOUS
 10
2.1076361055
 20
15.8872352393
 11
2.1076361055
 21
15.1984146164
  0
LINE
  5
2AD
100
AcDbEntity
  8
RACCORDO
100
AcDbLine
 62
253
  6
CONTINUOUS
 10
2.1076361055
 20
-23.7323966829
 11
2.1076361055
 21
-24.1572767957
  0
LINE
  5
2AE
100
AcDbEntity
  8
RACCORDO
100
AcDbLine
 62
253
  6
CONTINUOUS
 10
2.4601580652
 20
16.0168146198
 11
2.4601580652
 21
15.209182498
  0
LINE
  5
2AF
100
AcDbEntity
  8
RACCORDO
100
AcDbLine
 62
253
  6
CONTINUOUS
 10
2.4601580652
 20
-23.5846212714
 11
2.4601580652
 21
-24.2827895196
  0
LINE
  5
2B0
100
AcDbEntity
  8
RACCORDO
100
AcDbLine
 62
7
  6
CONTINUOUS
 10
3.3502182479
 20
-23.2109839491
 11
3.3502182479
 21
-24.6942253312
  0
LINE
  5
2B1
100
AcDbEntity
  8
RACCORDO
100
AcDbLine
 62
7
  6
CONTINUOUS
 10
3.3502182479
 20
15.7058634193
 11
3.3502182479
 21
17.3080140803
  0
LINE
  5
2B2
100
AcDbEntity
  8
RACCORDO
100
AcDbLine
 62
253
  6
CONTINUOUS
 10
3.8784854196
 20
17.5714529003
 11
3.8784854196
 21
17.2239213836
  0
LINE
  5
2B3
100
AcDbEntity
  8
RACCORDO
100
AcDbLine
 62
253
  6
CONTINUOUS
 10
3.8784854196
 20
-24.0756827558
 11
3.8784854196
 21
-24.4232142726
  0
LINE
  5
2B4
100
AcDbEntity
  8
RACCORDO
100
AcDbLine
 62
7
  6
CONTINUOUS
 10
3.9506832766
 20
17.6593255325
 11
3.9506832766
 21
17.2240810535
  0
LINE
  5
2B5
100
AcDbEntity
  8
RACCORDO
100
AcDbLine
 62
7
  6
CONTINUOUS
 10
3.9506832766
 20
-23.9878101236
 11
3.9506832766
 21
-24.3353416404
  0
LINE
  5
2B6
100
AcDbEntity
  8
ASSI
100
AcDbLine
 62
253
  6
CONTINUOUS
 10
4.2556349357
 20
20.5519035424
 11
4.2556349357
 21
21.7789535097
  0
LINE
  5
2B7
100
AcDbEntity
  8
ASSI
100
AcDbLine
 62
7
  6
CONTINUOUS
 10
4.3792289996
 20
20.7000671632
 11
4.3792289996
 21
21.7877436523
  0
LINE
  5
2B8
100
AcDbEntity
  8
RACCORDO
100
AcDbLine
 62
7
  6
CONTINUOUS
 10
4.4108784197
 20
-22.5179546595
 11
4.4108784197
 21
-19.5438450515
  0
LINE
  5
2B9
100
AcDbEntity
  8
RACCORDO
100
AcDbLine
 62
7
  6
CONTINUOUS
 10
4.4108784197
 20
12.5111871912
 11
4.4108784197
 21
15.4852967992
  0
LINE
  5
2BA
100
AcDbEntity
  8
0
100
AcDbLine
 62
7
  6
CONTINUOUS
 10
-5.5063892234
 20
-5.901383588
 11
-8.5969421191
 21
-7.4466600359
  0
LINE
  5
2BB
100
AcDbEntity
  8
0
100
AcDbLine
 62
253
  6
CONTINUOUS
 10
-8.9135690921
 20
-6.8827837055
 11
-8.913123631
 21
-6.8825732233
  0
LINE
  5
2BC
100
AcDbEntity
  8
RACCORDO
100
AcDbLine
 62
253
  6
CONTINUOUS
 10
-3.9098458804
 20
6.7114581437
 11
-17.55125886
 21
13.5321646335
  0
LINE
  5
2BD
100
AcDbEntity
  8
RACCORDO
100
AcDbLine
 62
7
  6
CONTINUOUS
 10
-4.1145996688
 20
6.9666807242
 11
-17.2713658601
 21
13.5450638199
  0
LINE
  5
2BE
100
AcDbEntity
  8
RACCORDO
100
AcDbLine
 62
253
  6
CONTINUOUS
 10
-3.9358555172
 20
6.8784574145
 11
-4.1090090976
 21
6.9650342047
  0
LINE
  5
2BF
100
AcDbEntity
  8
RACCORDO
100
AcDbLine
 62
253
  6
CONTINUOUS
 10
-17.2887431639
 20
13.5549012379
 11
-17.4105244532
 21
13.6157918825
  0
LINE
  5
2C0
100
AcDbEntity
  8
RACCORDO
100
AcDbLine
 62
253
  6
CONTINUOUS
 10
-4.2135552576
 20
7.0599882176
 11
-17.2243200315
 21
13.5653706045
  0
LINE
  5
2C1
100
AcDbEntity
  8
DRAFT
100
AcDbLine
 62
7
  6
CONTINUOUS
 10
4.9864379205
 20
-19.2598932256
 11
4.9864379205
 21
12.7830467144
  0
LINE
  5
2C2
100
AcDbEntity
  8
0
100
AcDbLine
 62
7
  6
CONTINUOUS
 10
5.0444370242
 20
-17.4439078047
 11
5.0444370242
 21
-16.9287549837
  0
LINE
  5
2C3
100
AcDbEntity
  8
0
100
AcDbLine
 62
7
  6
CONTINUOUS
 10
5.0444370242
 20
15.5514426701
 11
5.0444370242
 21
16.0659164392
  0
LINE
  5
2C4
100
AcDbEntity
  8
0
100
AcDbLine
 62
253
  6
CONTINUOUS
 10
5.1908836336
 20
15.889139744
 11
5.1908836336
 21
15.0690950516
  0
LINE
  5
2C5
100
AcDbEntity
  8
0
100
AcDbLine
 62
253
  6
CONTINUOUS
 10
5.1908836336
 20
-16.8006398077
 11
5.1908836336
 21
-17.6206845
  0
LINE
  5
2C6
100
AcDbEntity
  8
0
100
AcDbLine
 62
253
  6
CONTINUOUS
 10
5.8770818801
 20
12.263763371
 11
5.8770818801
 21
-15.8438051455
  0
LINE
  5
2C7
100
AcDbEntity
  8
0
100
AcDbLine
 62
253
  6
CONTINUOUS
 10
6.2167898212
 20
13.4790144104
 11
6.2167898212
 21
14.3083397307
  0
LINE
  5
2C8
100
AcDbEntity
  8
0
100
AcDbLine
 62
253
  6
CONTINUOUS
 10
6.2167931217
 20
-17.0657882823
 11
6.2167931217
 21
-16.2364712689
  0
LINE
  5
2C9
100
AcDbEntity
  8
RACCORDO
100
AcDbLine
 62
7
  6
CONTINUOUS
 10
-7.0625890267
 20
-9.3695132358
 11
-7.0630268128
 21
-9.3697442943
  0
LINE
  5
2CA
100
AcDbEntity
  8
0
100
AcDbLine
 62
253
  6
CONTINUOUS
 10
6.8781717365
 20
14.2881133931
 11
6.8781717365
 21
12.7889125519
  0
LINE
  5
2CB
100
AcDbEntity
  8
0
100
AcDbLine
 62
253
  6
CONTINUOUS
 10
6.8781739495
 20
-15.5868166427
 11
6.8781739495
 21
-17.0860166674
  0
LINE
  5
2CC
100
AcDbEntity
  8
0
100
AcDbLine
 62
7
  6
CONTINUOUS
 10
7.7204802699
 20
-16.7122590702
 11
7.7204768456
 21
14.572527332
  0
LINE
  5
2CD
100
AcDbEntity
  8
0
100
AcDbLine
 62
7
  6
CONTINUOUS
 10
8.68887452
 20
-14.8321193192
 11
8.68887452
 21
13.7037562726
  0
LINE
  5
2CE
100
AcDbEntity
  8
DRAFT
100
AcDbLine
 62
7
  6
CONTINUOUS
 10
8.702813512
 20
-16.7742941848
 11
8.702813512
 21
-15.7950472648
  0
LINE
  5
2CF
100
AcDbEntity
  8
DRAFT
100
AcDbLine
 62
7
  6
CONTINUOUS
 10
8.702813512
 20
18.6125899359
 11
8.702813512
 21
18.9694078195
  0
LINE
  5
2D0
100
AcDbEntity
  8
RACCORDO
100
AcDbLine
 62
253
  6
CONTINUOUS
 10
-4.0877402896
 20
11.385213551
 11
-17.0985050635
 21
17.8905959379
  0
LINE
  5
2D1
100
AcDbEntity
  8
RACCORDO
100
AcDbLine
 62
253
  6
CONTINUOUS
 10
-3.1864584089
 20
10.9644401608
 11
-3.7793238062
 21
11.2608728594
  0
LINE
  5
2D2
100
AcDbEntity
  8
RACCORDO
100
AcDbLine
 62
253
  6
CONTINUOUS
 10
-17.4184390892
 20
18.0804305009
 11
-18.0113044865
 21
18.3768631996
  0
LINE
  5
2D3
100
AcDbEntity
  8
RACCORDO
100
AcDbLine
 62
253
  6
CONTINUOUS
 10
8.9665911786
 20
19.6061820517
 11
8.9665911786
 21
19.1088520948
  0
LINE
  5
2D4
100
AcDbEntity
  8
RACCORDO
100
AcDbLine
 62
253
  6
CONTINUOUS
 10
8.9665911786
 20
-17.2498531565
 11
8.9665911786
 21
-17.7471831135
  0
LINE
  5
2D5
100
AcDbEntity
  8
RACCORDO
100
AcDbLine
 62
7
  6
CONTINUOUS
 10
9.1069212784
 20
19.9066865604
 11
9.1069212784
 21
19.2851161684
  0
LINE
  5
2D6
100
AcDbEntity
  8
RACCORDO
100
AcDbLine
 62
7
  6
CONTINUOUS
 10
9.1069212784
 20
-17.0787880449
 11
9.1069212784
 21
-17.7003584369
  0
LINE
  5
2D7
100
AcDbEntity
  8
RACCORDO
100
AcDbLine
 62
253
  6
CONTINUOUS
 10
-3.083484804
 20
13.1312740629
 11
-16.0942495778
 21
19.6366564498
  0
LINE
  5
2D8
100
AcDbEntity
  8
RACCORDO
100
AcDbLine
 62
253
  6
CONTINUOUS
 10
-2.1705200157
 20
12.7045581251
 11
-2.7832513157
 21
13.0109237751
  0
LINE
  5
2D9
100
AcDbEntity
  8
RACCORDO
100
AcDbLine
 62
253
  6
CONTINUOUS
 10
-16.4060071765
 20
19.8223017055
 11
-17.0187384765
 21
20.1286673555
  0
LINE
  5
2DA
100
AcDbEntity
  8
0
100
AcDbLine
 62
253
  6
CONTINUOUS
 10
11.2716826106
 20
-12.1443576821
 11
11.2716826106
 21
-6.0960937469
  0
LINE
  5
2DB
100
AcDbEntity
  8
0
100
AcDbLine
 62
7
  6
CONTINUOUS
 10
11.5522874422
 20
-6.037439124
 11
11.5522874422
 21
-11.7976668994
  0
LINE
  5
2DC
100
AcDbEntity
  8
0
100
AcDbLine
 62
253
  6
CONTINUOUS
 10
14.8890329136
 20
-4.0662086906
 11
11.2716826106
 21
-6.0960937469
  0
LINE
  5
2DD
100
AcDbEntity
  8
0
100
AcDbLine
 62
7
  6
CONTINUOUS
 10
11.4911314316
 20
-6.0717656251
 11
14.8297392744
 21
-4.1978251119
  0
LINE
  5
2DE
100
AcDbEntity
  8
RACCORDO
100
AcDbLine
 62
7
  6
CONTINUOUS
 10
-14.2213852646
 20
20.6933005728
 11
-1.2106204908
 21
14.1879181859
  0
LINE
  5
2DF
100
AcDbEntity
  8
RACCORDO
100
AcDbLine
 62
7
  6
CONTINUOUS
 10
-14.5109862841
 20
20.8739994383
 11
-9.8441111314
 21
18.5405618619
  0
LINE
  5
2E0
100
AcDbEntity
  8
RACCORDO
100
AcDbLine
 62
7
  6
CONTINUOUS
 10
-5.587894624
 20
16.4124536082
 11
-0.9210194712
 21
14.0790160319
  0
LINE
  5
2E1
100
AcDbEntity
  8
0
100
AcDbLine
 62
253
  6
CONTINUOUS
 10
5.3448964626
 20
15.8121333295
 11
6.2167898212
 21
14.3083397307
  0
LINE
  5
2E2
100
AcDbEntity
  8
DRAFT
100
AcDbLine
 62
7
  6
CONTINUOUS
 10
-9.0595057619
 20
18.9760017516
 11
-4.8168650748
 21
16.854681408
  0
LINE
  5
2E3
100
AcDbEntity
  8
DRAFT
100
AcDbLine
 62
7
  6
CONTINUOUS
 10
4.9864379205
 20
12.7830467144
 11
4.4108784197
 21
13.0708264648
  0
LINE
  5
2E4
100
AcDbEntity
  8
0
100
AcDbLine
 62
253
  6
CONTINUOUS
 10
4.4108784197
 20
13.8564352829
 11
5.1752457656
 21
13.47425161
  0
LINE
  5
2E5
100
AcDbEntity
  8
RACCORDO
100
AcDbLine
 62
7
  6
CONTINUOUS
 10
2.1076361055
 20
15.1984146164
 11
0.7744237719
 21
15.8650207832
  0
LINE
  5
2E6
100
AcDbEntity
  8
RACCORDO
100
AcDbLine
 62
7
  6
CONTINUOUS
 10
-11.2566820589
 20
21.8805736986
 11
-12.5898943925
 21
22.5471798654
  0
LINE
  5
2E7
100
AcDbEntity
  8
RACCORDO
100
AcDbLine
 62
7
  6
CONTINUOUS
 10
-7.6432293028
 20
20.4500939452
 11
-2.1319222031
 21
17.6944403954
  0
LINE
  5
2E8
100
AcDbEntity
  8
0
100
AcDbLine
 62
7
  6
CONTINUOUS
 10
5.8277513238
 20
13.8165413228
 11
4.4108784197
 21
14.5249777748
  0
LINE
  5
2E9
100
AcDbEntity
  8
RACCORDO
100
AcDbLine
 62
7
  6
CONTINUOUS
 10
-13.2279140504
 20
23.3752638385
 11
-11.9029293706
 21
22.7127714986
  0
LINE
  5
2EA
100
AcDbEntity
  8
RACCORDO
100
AcDbLine
 62
7
  6
CONTINUOUS
 10
0.136404114
 20
16.6931047563
 11
1.4613887938
 21
16.0306124164
  0
LINE
  5
2EB
100
AcDbEntity
  8
0
100
AcDbLine
 62
253
  6
CONTINUOUS
 10
5.929603682
 20
16.1605961558
 11
6.8014970407
 21
14.656802557
  0
LINE
  5
2EC
100
AcDbEntity
  8
0
100
AcDbLine
 62
7
  6
CONTINUOUS
 10
7.6161810805
 20
14.9318441138
 11
6.6709655766
 21
16.5620996848
  0
LINE
  5
2ED
100
AcDbEntity
  8
RACCORDO
100
AcDbLine
 62
253
  6
CONTINUOUS
 10
2.1071218772
 20
-24.1570196816
 11
1.4848038451
 21
-24.9020790991
  0
LINE
  5
2EE
100
AcDbEntity
  8
RACCORDO
100
AcDbLine
 62
7
  6
CONTINUOUS
 10
1.5220939636
 20
16.0094969819
 11
2.146499213
 21
15.8791205864
  0
LINE
  5
2EF
100
AcDbEntity
  8
RACCORDO
100
AcDbLine
 62
253
  6
CONTINUOUS
 10
1.7489374571
 20
16.1653181426
 11
2.4601580652
 21
16.0168146198
  0
LINE
  5
2F0
100
AcDbEntity
  8
RACCORDO
100
AcDbLine
 62
253
  6
CONTINUOUS
 10
-13.2928873468
 20
23.5104822886
 11
-11.967902667
 21
22.8479899487
  0
LINE
  5
2F1
100
AcDbEntity
  8
RACCORDO
100
AcDbLine
 62
253
  6
CONTINUOUS
 10
0.0714308176
 20
16.8283232064
 11
1.3964154974
 21
16.1658308665
  0
LINE
  5
2F2
100
AcDbEntity
  8
RACCORDO
100
AcDbLine
 62
253
  6
CONTINUOUS
 10
1.3964154974
 20
16.5058048006
 11
0.0714308176
 21
17.1682971405
  0
LINE
  5
2F3
100
AcDbEntity
  8
RACCORDO
100
AcDbLine
 62
253
  6
CONTINUOUS
 10
-11.967902667
 20
23.1879638828
 11
-13.2928873468
 21
23.8504562228
  0
LINE
  5
2F4
100
AcDbEntity
  8
DRAFT
100
AcDbLine
 62
7
  6
CONTINUOUS
 10
-10.0140999165
 20
22.3880225015
 11
-7.7896759122
 21
21.2758104993
  0
LINE
  5
2F5
100
AcDbEntity
  8
DRAFT
100
AcDbLine
 62
7
  6
CONTINUOUS
 10
-1.0691991345
 20
17.9155721105
 11
0.0247414668
 21
17.3686018099
  0
LINE
  5
2F6
100
AcDbEntity
  8
RACCORDO
100
AcDbLine
 62
7
  6
CONTINUOUS
 10
3.3502182479
 20
15.7058634193
 11
3.3734815998
 21
15.6942317434
  0
LINE
  5
2F7
100
AcDbEntity
  8
RACCORDO
100
AcDbLine
 62
253
  6
CONTINUOUS
 10
1.5721637534
 20
16.8101816156
 11
0.2471790736
 21
17.4726739555
  0
LINE
  5
2F8
100
AcDbEntity
  8
RACCORDO
100
AcDbLine
 62
253
  6
CONTINUOUS
 10
-11.792154411
 20
23.4923406978
 11
-13.1171390908
 21
24.1548330377
  0
LINE
  5
2F9
100
AcDbEntity
  8
0
100
AcDbLine
 62
253
  6
CONTINUOUS
 10
5.1908836336
 20
15.0690950516
 11
4.4108784197
 21
15.4590976586
  0
LINE
  5
2FA
100
AcDbEntity
  8
RACCORDO
100
AcDbLine
 62
253
  6
CONTINUOUS
 10
-2.1319222031
 20
18.7750237062
 11
-7.6432293028
 21
21.530677256
  0
LINE
  5
2FB
100
AcDbEntity
  8
RACCORDO
100
AcDbLine
 62
253
  6
CONTINUOUS
 10
-1.7090998233
 20
18.8774132707
 11
-7.784854473
 21
21.9152905955
  0
LINE
  5
2FC
100
AcDbEntity
  8
RACCORDO
100
AcDbLine
 62
7
  6
CONTINUOUS
 10
-10.0140999165
 20
23.0875715935
 11
-8.6060571815
 21
22.383550226
  0
LINE
  5
2FD
100
AcDbEntity
  8
RACCORDO
100
AcDbLine
 62
7
  6
CONTINUOUS
 10
3.3502182479
 20
16.4054125113
 11
4.092583429
 21
16.0342299207
  0
LINE
  5
2FE
100
AcDbEntity
  8
0
100
AcDbLine
 62
253
  6
CONTINUOUS
 10
4.8785468802
 20
16.0118295208
 11
5.0444370242
 21
15.9288844488
  0
LINE
  5
2FF
100
AcDbEntity
  8
0
100
AcDbLine
 62
253
  6
CONTINUOUS
 10
5.3448964626
 20
15.8121333295
 11
5.1908836336
 21
15.889139744
  0
LINE
  5
300
100
AcDbEntity
  8
DRAFT
100
AcDbLine
 62
7
  6
CONTINUOUS
 10
-7.291738809
 20
22.239277513
 11
-1.0691991345
 21
19.1280076758
  0
LINE
  5
301
100
AcDbEntity
  8
0
100
AcDbLine
 62
7
  6
CONTINUOUS
 10
7.9819830442
 20
14.9230815135
 11
7.4739976846
 21
15.1770741933
  0
LINE
  5
302
100
AcDbEntity
  8
0
100
AcDbLine
 62
253
  6
CONTINUOUS
 10
18.3838974481
 20
14.3282766182
 11
18.3838762034
 21
16.7345928617
  0
LINE
  5
303
100
AcDbEntity
  8
0
100
AcDbLine
 62
7
  6
CONTINUOUS
 10
18.4540312229
 20
16.8232404749
 11
18.4540312229
 21
14.4150927118
  0
LINE
  5
304
100
AcDbEntity
  8
0
100
AcDbLine
 62
7
  6
CONTINUOUS
 10
17.6601730757
 20
0.3021627391
 11
17.6602339775
 21
0.3027557644
  0
LINE
  5
305
100
AcDbEntity
  8
RACCORDO
100
AcDbLine
 62
253
  6
CONTINUOUS
 10
2.4601580652
 20
-24.2827895196
 11
1.7489374571
 21
-25.1342859967
  0
LINE
  5
306
100
AcDbEntity
  8
0
100
AcDbLine
 62
253
  6
CONTINUOUS
 10
6.2167931217
 20
-17.0657882823
 11
5.3448964625
 21
-17.6976909144
  0
LINE
  5
307
100
AcDbEntity
  8
0
100
AcDbLine
 62
253
  6
CONTINUOUS
 10
6.8014970407
 20
-17.3288610485
 11
5.929603682
 21
-17.9607612887
  0
LINE
  5
308
100
AcDbEntity
  8
0
100
AcDbLine
 62
7
  6
CONTINUOUS
 10
6.6709655766
 20
-17.6524060403
 11
7.6162011232
 21
-16.9673514256
  0
LWPOLYLINE
  5
309
100
AcDbEntity
  8
0
100
AcDbPolyline
 62
7
  6
CONTINUOUS
 90
22
 70
0
 10
10.0203425443
 20
-14.4972402491
 10
10.0882104762
 20
-14.4583680816
 10
10.2157257016
 20
-14.3767283399
 10
10.3387309476
 20
-14.2867396134
 10
10.4573332025
 20
-14.1886944966
 10
10.5713894131
 20
-14.0829742697
 10
10.6804412914
 20
-13.9702284832
 10
10.7843869662
 20
-13.8508159555
 10
10.8831651568
 20
-13.7250872471
 10
10.976300238
 20
-13.5938554792
 10
11.0635754512
 20
-13.4575611275
 10
11.1447573387
 20
-13.3165449515
 10
11.2193617474
 20
-13.1716129542
 10
11.2872352138
 20
-13.0231878981
 10
11.3481505437
 20
-12.8717254262
 10
11.4016639408
 20
-12.7181519181
 10
11.4475393218
 20
-12.5627492666
 10
11.485459244
 20
-12.4059533181
 10
11.5150858529
 20
-12.2487593184
 10
11.5362398651
 20
-12.091608211
 10
11.5487266051
 20
-11.9344974824
 10
11.5522776618
 20
-11.7970537224
  0
LINE
  5
30A
100
AcDbEntity
  8
0
100
AcDbLine
 62
253
  6
CONTINUOUS
 10
10.2567615475
 20
-13.9690689935
 11
8.68887452
 21
-14.8321193192
  0
LINE
  5
30B
100
AcDbEntity
  8
0
100
AcDbLine
 62
7
  6
CONTINUOUS
 10
8.4431112033
 20
-15.3655039302
 11
10.0203721643
 21
-14.4973689149
  0
LINE
  5
30C
100
AcDbEntity
  8
0
100
AcDbLine
 62
253
  6
CONTINUOUS
 10
8.688828224
 20
-14.8320970631
 11
7.7204801979
 21
-15.3643406738
  0
LINE
  5
30D
100
AcDbEntity
  8
0
100
AcDbLine
 62
7
  6
CONTINUOUS
 10
7.7204800839
 20
-15.762644972
 11
8.4428962441
 21
-15.3655855668
  0
LINE
  5
30E
100
AcDbEntity
  8
DRAFT
100
AcDbLine
 62
7
  6
CONTINUOUS
 10
8.702813512
 20
-16.7742941848
 11
4.9864379205
 21
-18.6251288132
  0
LINE
  5
30F
100
AcDbEntity
  8
0
100
AcDbLine
 62
253
  6
CONTINUOUS
 10
7.7204802699
 20
-16.7122590702
 11
6.8781739495
 21
-17.0860166674
  0
LINE
  5
310
100
AcDbEntity
  8
0
100
AcDbLine
 62
253
  6
CONTINUOUS
 10
6.8014970407
 20
-17.3288610485
 11
7.6162011232
 21
-16.9673514256
  0
LINE
  5
311
100
AcDbEntity
  8
0
100
AcDbLine
 62
253
  6
CONTINUOUS
 10
6.6709655766
 20
-17.6524060403
 11
5.929603682
 21
-17.9607612887
  0
LINE
  5
312
100
AcDbEntity
  8
0
100
AcDbLine
 62
7
  6
CONTINUOUS
 10
6.632606635
 20
-17.6738948994
 11
5.8904680438
 21
-17.9825731998
  0
LINE
  5
313
100
AcDbEntity
  8
RACCORDO
100
AcDbLine
 62
7
  6
CONTINUOUS
 10
-11.5343824877
 20
24.9668171351
 11
-10.1908736202
 21
24.2950627013
  0
LINE
  5
314
100
AcDbEntity
  8
RACCORDO
100
AcDbLine
 62
7
  6
CONTINUOUS
 10
1.8299356767
 20
18.2846580528
 11
3.1734445442
 21
17.6129036191
  0
LINE
  5
315
100
AcDbEntity
  8
0
100
AcDbLine
 62
253
  6
CONTINUOUS
 10
5.5259334694
 20
16.4890839349
 11
5.6799462983
 21
16.4120775204
  0
LINE
  5
316
100
AcDbEntity
  8
DRAFT
100
AcDbLine
 62
7
  6
CONTINUOUS
 10
-5.9482359247
 20
22.2695944637
 11
-0.9984884564
 21
19.7947207295
  0
LINE
  5
317
100
AcDbEntity
  8
RACCORDO
100
AcDbLine
 62
253
  6
CONTINUOUS
 10
-10.999932609
 20
25.2271646016
 11
-9.6626064485
 21
24.5585015213
  0
LINE
  5
318
100
AcDbEntity
  8
RACCORDO
100
AcDbLine
 62
253
  6
CONTINUOUS
 10
2.3643855554
 20
18.5450055194
 11
3.701711716
 21
17.8763424391
  0
LINE
  5
319
100
AcDbEntity
  8
RACCORDO
100
AcDbLine
 62
7
  6
CONTINUOUS
 10
-10.8891576495
 20
25.2337544927
 11
-9.5518314889
 21
24.5650914125
  0
LINE
  5
31A
100
AcDbEntity
  8
RACCORDO
100
AcDbLine
 62
7
  6
CONTINUOUS
 10
2.475160515
 20
18.5515954105
 11
3.8124866755
 21
17.8829323302
  0
LINE
  5
31B
100
AcDbEntity
  8
0
100
AcDbLine
 62
7
  6
CONTINUOUS
 10
6.2135112154
 20
16.9174795657
 11
6.4213082193
 21
16.8135810637
  0
LINE
  5
31C
100
AcDbEntity
  8
0
100
AcDbLine
 62
7
  6
CONTINUOUS
 10
-0.277962132
 20
20.817629557
 11
0.3946098564
 21
20.4813435628
  0
LINE
  5
31D
100
AcDbEntity
  8
0
100
AcDbLine
 62
7
  6
CONTINUOUS
 10
-0.0058379297
 20
20.9797820549
 11
0.6949645902
 21
20.6293807949
  0
LINE
  5
31E
100
AcDbEntity
  8
ASSI
100
AcDbLine
 62
7
  6
CONTINUOUS
 10
0.7341709028
 20
20.6487045922
 11
-0.8862784755
 21
21.4589292814
  0
LINE
  5
31F
100
AcDbEntity
  8
ASSI
100
AcDbLine
 62
7
  6
CONTINUOUS
 10
0.9086189885
 20
20.7346856302
 11
-0.9277777783
 21
21.6528840135
  0
LINE
  5
320
100
AcDbEntity
  8
RACCORDO
100
AcDbLine
 62
7
  6
CONTINUOUS
 10
8.9665911786
 20
-17.2498531565
 11
4.4108784197
 21
-19.5590851535
  0
LINE
  5
321
100
AcDbEntity
  8
RACCORDO
100
AcDbLine
 62
7
  6
CONTINUOUS
 10
8.08505572
 20
-18.3066121575
 11
4.4108784197
 21
-20.1508446969
  0
LINE
  5
322
100
AcDbEntity
  8
RACCORDO
100
AcDbLine
 62
7
  6
CONTINUOUS
 10
8.9665911786
 20
-17.7471831135
 11
4.4108784197
 21
-20.0068502271
  0
LINE
  5
323
100
AcDbEntity
  8
DRAFT
100
AcDbLine
 62
7
  6
CONTINUOUS
 10
4.9864379205
 20
-19.2598932256
 11
4.4108784197
 21
-19.5438450515
  0
LINE
  5
324
100
AcDbEntity
  8
RACCORDO
100
AcDbLine
 62
7
  6
CONTINUOUS
 10
-11.8422242009
 20
22.6916560641
 11
-11.2178181165
 21
22.5612794943
  0
LINE
  5
325
100
AcDbEntity
  8
RACCORDO
100
AcDbLine
 62
253
  6
CONTINUOUS
 10
-11.6153807074
 20
22.8474772249
 11
-10.9041600993
 21
22.698973702
  0
LINE
  5
326
100
AcDbEntity
  8
RACCORDO
100
AcDbLine
 62
253
  6
CONTINUOUS
 10
3.6926302252
 20
-22.8722990844
 11
4.4108784197
 21
-22.5179546595
  0
LINE
  5
327
100
AcDbEntity
  8
RACCORDO
100
AcDbLine
 62
7
  6
CONTINUOUS
 10
3.5715650194
 20
-23.1177426769
 11
4.2930912414
 21
-22.7617782842
  0
LINE
  5
328
100
AcDbEntity
  8
RACCORDO
100
AcDbLine
 62
7
  6
CONTINUOUS
 10
2.2118723684
 20
-23.6888711179
 11
3.5622067847
 21
-23.1220108213
  0
LWPOLYLINE
  5
329
100
AcDbEntity
  8
RACCORDO
100
AcDbPolyline
 62
7
  6
CONTINUOUS
 90
5
 70
0
 10
-1.9587674955
 20
-25.4178008564
 10
-1.4321585073
 20
-25.1977085146
 10
-0.8738539679
 20
-24.966071765
 10
-0.2952865637
 20
-24.7271944523
 10
0.9208648066
 20
-24.2258683477
  0
LWPOLYLINE
  5
32A
100
AcDbEntity
  8
RACCORDO
100
AcDbPolyline
 62
7
  6
CONTINUOUS
 90
3
 70
0
 10
0.9208648066
 20
-24.2258683477
 10
1.5574146074
 20
-23.9621507142
 10
2.2118723684
 20
-23.6888711179
  0
LINE
  5
32B
100
AcDbEntity
  8
ASSI
100
AcDbLine
 62
253
  6
CONTINUOUS
 10
-1.955515403
 20
24.8387209785
 11
-1.3499849683
 21
24.5359557612
  0
LINE
  5
32C
100
AcDbEntity
  8
ASSI
100
AcDbLine
 62
253
  6
CONTINUOUS
 10
3.5997625
 20
22.061082027
 11
4.2052929346
 21
21.7583168097
  0
LINE
  5
32D
100
AcDbEntity
  8
0
100
AcDbLine
 62
7
  6
CONTINUOUS
 10
4.9310777897
 20
21.4811726762
 11
4.3792289996
 21
21.7570970712
  0
LINE
  5
32E
100
AcDbEntity
  8
0
100
AcDbLine
 62
7
  6
CONTINUOUS
 10
3.7122461494
 20
22.0905884963
 11
1.1228318872
 21
23.3852956274
  0
LINE
  5
32F
100
AcDbEntity
  8
ASSI
100
AcDbLine
 62
7
  6
CONTINUOUS
 10
-1.6792433819
 20
24.8245397098
 11
-1.1828368974
 21
24.5763364675
  0
LINE
  5
330
100
AcDbEntity
  8
ASSI
100
AcDbLine
 62
7
  6
CONTINUOUS
 10
3.8757120101
 20
22.0470620137
 11
4.3721187801
 21
21.7988586288
  0
LINE
  5
331
100
AcDbEntity
  8
RACCORDO
100
AcDbLine
 62
253
  6
CONTINUOUS
 10
-2.2915168549
 20
25.5283265305
 11
0.4218956984
 21
24.1716202539
  0
LINE
  5
332
100
AcDbEntity
  8
RACCORDO
100
AcDbLine
 62
253
  6
CONTINUOUS
 10
5.3716431667
 20
21.6967465197
 11
8.08505572
 21
20.3400402431
  0
LINE
  5
333
100
AcDbEntity
  8
RACCORDO
100
AcDbLine
 62
7
  6
CONTINUOUS
 10
-2.0106865982
 20
25.6337823703
 11
0.8629387015
 21
24.1969697205
  0
LINE
  5
334
100
AcDbEntity
  8
RACCORDO
100
AcDbLine
 62
7
  6
CONTINUOUS
 10
5.8126861698
 20
21.7220959863
 11
8.6863114695
 21
20.2852833365
  0
LINE
  5
335
100
AcDbEntity
  8
RACCORDO
100
AcDbLine
 62
253
  6
CONTINUOUS
 10
3.8784854196
 20
-24.4232142726
 11
3.3502182479
 21
-24.6942253312
  0
LINE
  5
336
100
AcDbEntity
  8
RACCORDO
100
AcDbLine
 62
7
  6
CONTINUOUS
 10
3.8147973821
 20
-24.5577780828
 11
3.2861151186
 21
-24.8290020914
  0
LINE
  5
337
100
AcDbEntity
  8
RACCORDO
100
AcDbLine
 62
7
  6
CONTINUOUS
 10
3.2843767314
 20
-24.829871325
 11
3.2861131488
 21
-24.829003102
  0
LINE
  5
338
100
AcDbEntity
  8
RACCORDO
100
AcDbLine
 62
253
  6
CONTINUOUS
 10
3.3502182479
 20
-24.6942253312
 11
1.7489374571
 21
-25.4742599309
  0
LINE
  5
339
100
AcDbEntity
  8
RACCORDO
100
AcDbLine
 62
7
  6
CONTINUOUS
 10
3.2843739675
 20
-24.8298726714
 11
1.6826758645
 21
-25.610110557
  0
LWPOLYLINE
  5
33A
100
AcDbEntity
  8
0
100
AcDbPolyline
 62
7
  6
CONTINUOUS
 90
22
 70
0
 10
4.1616622667
 20
25.2539259093
 10
4.1404768116
 20
25.2642678757
 10
4.1016568391
 20
25.2814722525
 10
4.0644446636
 20
25.2957847298
 10
4.0281548697
 20
25.3076566253
 10
3.9925774726
 20
25.3172864372
 10
3.9580278462
 20
25.3247175686
 10
3.9247116969
 20
25.3300494539
 10
3.892593586
 20
25.3334476588
 10
3.8616758737
 20
25.3350747781
 10
3.832164428
 20
25.3351012939
 10
3.8041517125
 20
25.3337379785
 10
3.7774441173
 20
25.3311857801
 10
3.7518026914
 20
25.3276040857
 10
3.7268990161
 20
25.3230747416
 10
3.7029405693
 20
25.3177510312
 10
3.680426864
 20
25.3119058432
 10
3.6591030386
 20
25.3056330011
 10
3.6389635716
 20
25.2989973644
 10
3.6207918887
 20
25.2924054064
 10
3.6050284462
 20
25.2862574853
 10
3.5916743386
 20
25.2804781571
  0
LINE
  5
33B
100
AcDbEntity
  8
0
100
AcDbLine
 62
253
  6
CONTINUOUS
 10
15.8179022388
 20
18.7244766105
 11
3.3679625596
 21
24.9494464501
  0
LINE
  5
33C
100
AcDbEntity
  8
0
100
AcDbLine
 62
7
  6
CONTINUOUS
 10
4.1627953881
 20
25.2534045178
 11
4.1611526682
 21
25.2542342073
  0
LWPOLYLINE
  5
33D
100
AcDbEntity
  8
0
100
AcDbPolyline
 62
7
  6
CONTINUOUS
 90
5
 70
0
 10
17.7855908117
 20
18.4239019561
 10
17.7292164643
 20
18.4620585256
 10
17.6695339536
 20
18.4978488089
 10
17.6039007507
 20
18.532896609
 10
4.1637568172
 20
25.252935789
  0
LINE
  5
33E
100
AcDbEntity
  8
0
100
AcDbLine
 62
7
  6
CONTINUOUS
 10
17.7855567894
 20
18.4240478424
 11
17.7866049164
 21
18.4232979626
  0
ARC
  5
33F
100
AcDbEntity
  8
0
100
AcDbCircle
 62
7
  6
CONTINUOUS
 10
12.4343564628
 20
0.8773346317
 40
5.2573740572
100
AcDbArc
 50
352.9811910049
 51
353.7191043039
  0
ARC
  5
340
100
AcDbEntity
  8
0
100
AcDbCircle
 62
253
  6
CONTINUOUS
 10
-12.5052478423
 20
-2.7287261926
 40
3.5928349998
100
AcDbArc
 50
61.5035322703
 51
63.425967767
  0
ARC
  5
341
100
AcDbEntity
  8
0
100
AcDbCircle
 62
7
  6
CONTINUOUS
 10
13.2396319944
 20
-1.131796459
 40
3.4531351597
100
AcDbArc
 50
297.3443898434
 51
299.3207400635
  0
ARC
  5
342
100
AcDbEntity
  8
0
100
AcDbCircle
 62
7
  6
CONTINUOUS
 10
-12.2467259578
 20
-2.4769860841
 40
3.1601266513
100
AcDbArc
 50
63.4255374798
 51
65.5404231148
  0
ARC
  5
343
100
AcDbEntity
  8
0
100
AcDbCircle
 62
7
  6
CONTINUOUS
 10
5.2614126553
 20
-15.4498373019
 40
0.9999616051
100
AcDbArc
 50
254.0347100814
 51
284.39589103
  0
ARC
  5
344
100
AcDbEntity
  8
0
100
AcDbCircle
 62
7
  6
CONTINUOUS
 10
-9.4340687978
 20
-2.6148065405
 40
0.7233169926
100
AcDbArc
 50
228.6278439571
 51
233.2242008854
  0
ARC
  5
345
100
AcDbEntity
  8
0
100
AcDbCircle
 62
253
  6
CONTINUOUS
 10
5.8543808802
 20
-17.4244884204
 40
0.5744382833
100
AcDbArc
 50
233.1554198832
 51
237.7530701439
  0
ARC
  5
346
100
AcDbEntity
  8
RACCORDO
100
AcDbCircle
 62
253
  6
CONTINUOUS
 10
-17.3808272742
 20
-17.5023476351
 40
0.5501915857
100
AcDbArc
 50
240.6899554787
 51
243.4340639605
  0
ARC
  5
347
100
AcDbEntity
  8
0
100
AcDbCircle
 62
7
  6
CONTINUOUS
 10
5.6983074913
 20
-17.5205160723
 40
0.5004222888
100
AcDbArc
 50
286.7686827137
 51
292.581473878
  0
ARC
  5
348
100
AcDbEntity
  8
0
100
AcDbCircle
 62
7
  6
CONTINUOUS
 10
5.6984505194
 20
-17.5209139494
 40
0.5000000661
100
AcDbArc
 50
243.4403227323
 51
286.7661439014
  0
ARC
  5
349
100
AcDbEntity
  8
0
100
AcDbCircle
 62
7
  6
CONTINUOUS
 10
5.5443783206
 20
-17.4439438571
 40
0.4999198297
100
AcDbArc
 50
205.3682699156
 51
243.4229496549
  0
ARC
  5
34A
100
AcDbEntity
  8
0
100
AcDbCircle
 62
253
  6
CONTINUOUS
 10
5.8049992635
 20
-17.664299106
 40
0.3215837167
100
AcDbArc
 50
288.7673594294
 51
292.7972393613
  0
ARC
  5
34B
100
AcDbEntity
  8
RACCORDO
100
AcDbCircle
 62
7
  6
CONTINUOUS
 10
0.2482097659
 20
-24.7228652755
 40
0.2500021202
100
AcDbArc
 50
180.0018403594
 51
243.4346144876
  0
ARC
  5
34C
100
AcDbEntity
  8
RACCORDO
100
AcDbCircle
 62
7
  6
CONTINUOUS
 10
1.5731926893
 20
-25.3853572446
 40
0.2500012342
100
AcDbArc
 50
243.4334738355
 51
295.9719157382
  0
ARC
  5
34D
100
AcDbEntity
  8
RACCORDO
100
AcDbCircle
 62
7
  6
CONTINUOUS
 10
3.7006828783
 20
-24.3353414438
 40
0.2500003968
100
AcDbArc
 50
297.1601718762
 51
0.0000315339
  0
ARC
  5
34E
100
AcDbEntity
  8
RACCORDO
100
AcDbCircle
 62
7
  6
CONTINUOUS
 10
3.7006830101
 20
-23.987810783
 40
0.2500002666
100
AcDbArc
 50
0.000151117
 51
63.4365832535
  0
ARC
  5
34F
100
AcDbEntity
  8
0
100
AcDbCircle
 62
253
  6
CONTINUOUS
 10
5.8139545723
 20
-17.7992767132
 40
0.1986252368
100
AcDbArc
 50
292.6571258637
 51
305.6087976367
  0
ARC
  5
350
100
AcDbEntity
  8
RACCORDO
100
AcDbCircle
 62
7
  6
CONTINUOUS
 10
3.4968989386
 20
-22.9664129548
 40
0.1687472039
100
AcDbArc
 50
292.769110715
 51
296.2565869923
  0
ARC
  5
351
100
AcDbEntity
  8
0
100
AcDbCircle
 62
7
  6
CONTINUOUS
 10
14.7831629719
 20
-4.1150108784
 40
0.0950031237
100
AcDbArc
 50
299.2958630676
 51
304.6292228555
  0
ARC
  5
352
100
AcDbEntity
  8
RACCORDO
100
AcDbCircle
 62
7
  6
CONTINUOUS
 10
3.2433241214
 20
-24.7455896701
 40
0.0937479893
100
AcDbArc
 50
297.1567006962
 51
299.3030104152
  0
ARC
  5
353
100
AcDbEntity
  8
ASSI
100
AcDbCircle
 62
7
  6
CONTINUOUS
 10
5.6415601451
 20
30.8253184318
 40
11.41673871
100
AcDbArc
 50
235.1257042047
 51
238.9028922434
  0
ARC
  5
354
100
AcDbEntity
  8
0
100
AcDbCircle
 62
253
  6
CONTINUOUS
 10
6.6529916803
 20
14.7344151814
 40
1.5991505144
100
AcDbArc
 50
116.8950504248
 51
117.1237557719
  0
ARC
  5
355
100
AcDbEntity
  8
RACCORDO
100
AcDbCircle
 62
253
  6
CONTINUOUS
 10
-15.4122525847
 20
18.4304018178
 40
1.3857020372
100
AcDbArc
 50
119.48312046
 51
123.2325025892
  0
ARC
  5
356
100
AcDbEntity
  8
RACCORDO
100
AcDbCircle
 62
253
  6
CONTINUOUS
 10
-2.1228776439
 20
11.8586161512
 40
1.3281213221
100
AcDbArc
 50
119.8165044458
 51
121.4762068456
  0
ARC
  5
357
100
AcDbEntity
  8
RACCORDO
100
AcDbCircle
 62
7
  6
CONTINUOUS
 10
-17.469358536
 20
14.4434628752
 40
0.9116413245
100
AcDbArc
 50
284.9745544201
 51
285.5921752388
  0
ARC
  5
358
100
AcDbEntity
  8
0
100
AcDbCircle
 62
7
  6
CONTINUOUS
 10
5.5444357442
 20
16.0659177072
 40
0.4999982469
100
AcDbArc
 50
121.9246049851
 51
180.000315958
  0
ARC
  5
359
100
AcDbEntity
  8
0
100
AcDbCircle
 62
253
  6
CONTINUOUS
 10
5.7451578927
 20
16.1006367189
 40
0.4460387733
100
AcDbArc
 50
119.4386840021
 51
121.2800007755
  0
ARC
  5
35A
100
AcDbEntity
  8
RACCORDO
100
AcDbCircle
 62
7
  6
CONTINUOUS
 10
-17.146889791
 20
13.7951768524
 40
0.2793763471
100
AcDbArc
 50
239.4483768049
 51
243.5449277115
  0
ARC
  5
35B
100
AcDbEntity
  8
RACCORDO
100
AcDbCircle
 62
7
  6
CONTINUOUS
 10
-11.7907642869
 20
22.9374190641
 40
0.2510925841
100
AcDbArc
 50
243.4673571141
 51
258.1738073876
  0
ARC
  5
35C
100
AcDbEntity
  8
RACCORDO
100
AcDbCircle
 62
7
  6
CONTINUOUS
 10
1.5735538776
 20
16.2552599818
 40
0.2510925841
100
AcDbArc
 50
243.4673571141
 51
258.1738073876
  0
ARC
  5
35D
100
AcDbEntity
  8
RACCORDO
100
AcDbCircle
 62
7
  6
CONTINUOUS
 10
-9.6636371408
 20
24.3414833707
 40
0.2500021202
100
AcDbArc
 50
0.0018403594
 51
63.4346144876
  0
ARC
  5
35E
100
AcDbEntity
  8
RACCORDO
100
AcDbCircle
 62
7
  6
CONTINUOUS
 10
-11.0009605661
 20
25.0101458617
 40
0.250001424
100
AcDbArc
 50
63.4352355626
 51
115.9737880832
  0
ARC
  5
35F
100
AcDbEntity
  8
RACCORDO
100
AcDbCircle
 62
7
  6
CONTINUOUS
 10
2.3633566195
 20
18.327986998
 40
0.2500012342
100
AcDbArc
 50
63.4334738355
 51
115.9719157382
  0
ARC
  5
360
100
AcDbEntity
  8
RACCORDO
100
AcDbCircle
 62
7
  6
CONTINUOUS
 10
0.2482079112
 20
17.2566852916
 40
0.2500003968
100
AcDbArc
 50
117.1601718762
 51
180.0000315339
  0
ARC
  5
361
100
AcDbEntity
  8
RACCORDO
100
AcDbCircle
 62
7
  6
CONTINUOUS
 10
-13.116110385
 20
23.5988712956
 40
0.2500002666
100
AcDbArc
 50
180.000151117
 51
243.4365832535
  0
ARC
  5
362
100
AcDbEntity
  8
RACCORDO
100
AcDbCircle
 62
7
  6
CONTINUOUS
 10
0.2482077795
 20
16.9167122134
 40
0.2500002666
100
AcDbArc
 50
180.000151117
 51
243.4365832535
  0
ARC
  5
363
100
AcDbEntity
  8
RACCORDO
100
AcDbCircle
 62
7
  6
CONTINUOUS
 10
-9.6636351914
 20
23.9939529593
 40
0.2500001466
100
AcDbArc
 50
320.5926030822
 51
0.0004114696
  0
ARC
  5
364
100
AcDbEntity
  8
RACCORDO
100
AcDbCircle
 62
7
  6
CONTINUOUS
 10
-13.1161120389
 20
23.9388447269
 40
0.2499986126
100
AcDbArc
 50
117.1565718893
 51
180.0000358743
  0
ARC
  5
365
100
AcDbEntity
  8
RACCORDO
100
AcDbCircle
 62
7
  6
CONTINUOUS
 10
3.7006847727
 20
17.6593256499
 40
0.2499985039
100
AcDbArc
 50
359.9999730928
 51
63.4370632661
  0
ARC
  5
366
100
AcDbEntity
  8
RACCORDO
100
AcDbCircle
 62
253
  6
CONTINUOUS
 10
-17.1623920345
 20
19.983564442
 40
0.1781073816
100
AcDbArc
 50
114.7637327177
 51
120.2357495463
  0
ARC
  5
367
100
AcDbEntity
  8
RACCORDO
100
AcDbCircle
 62
7
  6
CONTINUOUS
 10
-17.4546890913
 20
13.7093501423
 40
0.1034585097
100
AcDbArc
 50
295.269884502
 51
296.6479798627
  0
ARC
  5
368
100
AcDbEntity
  8
RACCORDO
100
AcDbCircle
 62
253
  6
CONTINUOUS
 10
-9.486008613
 20
23.8480119126
 40
0.0201085158
100
AcDbArc
 50
320.5893497058
 51
322.5112512673
  0
ARC
  5
369
100
AcDbEntity
  8
RACCORDO
100
AcDbCircle
 62
253
  6
CONTINUOUS
 10
555.2206696188
 20
-7.0533387421
 40
559.2999222204
100
AcDbArc
 50
178.1235208548
 51
178.5897648612
  0
ARC
  5
36A
100
AcDbEntity
  8
RACCORDO
100
AcDbCircle
 62
253
  6
CONTINUOUS
 10
549.9176075772
 20
-6.8944969412
 40
554.3068403698
100
AcDbArc
 50
178.1101799316
 51
178.5574459429
  0
ARC
  5
36B
100
AcDbEntity
  8
RACCORDO
100
AcDbCircle
 62
7
  6
CONTINUOUS
 10
536.7927764071
 20
-0.3001180519
 40
554.2659887919
100
AcDbArc
 50
178.1101778121
 51
178.5597545595
  0
ARC
  5
36C
100
AcDbEntity
  8
RACCORDO
100
AcDbCircle
 62
253
  6
CONTINUOUS
 10
535.8442941255
 20
-0.3582064472
 40
553.243850362
100
AcDbArc
 50
178.1097502461
 51
178.5578756284
  0
ARC
  5
36D
100
AcDbEntity
  8
RACCORDO
100
AcDbCircle
 62
253
  6
CONTINUOUS
 10
530.4022900038
 20
-0.1932605819
 40
548.1254226998
100
AcDbArc
 50
178.0894894141
 51
178.5651255866
  0
ARC
  5
36E
100
AcDbEntity
  8
RACCORDO
100
AcDbCircle
 62
253
  6
CONTINUOUS
 10
530.5116326781
 20
-0.1958670569
 40
548.0939979661
100
AcDbArc
 50
178.0895149862
 51
178.5559119947
  0
ARC
  5
36F
100
AcDbEntity
  8
RACCORDO
100
AcDbCircle
 62
253
  6
CONTINUOUS
 10
521.3159493443
 20
0.5692432658
 40
539.6211616055
100
AcDbArc
 50
178.1088830164
 51
181.8911169836
  0
ARC
  5
370
100
AcDbEntity
  8
RACCORDO
100
AcDbCircle
 62
253
  6
CONTINUOUS
 10
534.416856084
 20
-7.1434178048
 40
537.2072937412
100
AcDbArc
 50
178.0705853445
 51
179.7212417815
  0
ARC
  5
371
100
AcDbEntity
  8
RACCORDO
100
AcDbCircle
 62
253
  6
CONTINUOUS
 10
521.9383176315
 20
-6.843179773
 40
525.4266283119
100
AcDbArc
 50
178.0577746928
 51
181.9422253072
  0
ARC
  5
372
100
AcDbEntity
  8
RACCORDO
100
AcDbCircle
 62
253
  6
CONTINUOUS
 10
509.2276642129
 20
-6.9913923134
 40
512.0176612011
100
AcDbArc
 50
179.7245398111
 51
181.9748795611
  0
SPLINE
  5
373
100
AcDbEntity
  8
RACCORDO
100
AcDbSpline
 62
7
  6
CONTINUOUS
 70
0
 71
3
 72
9
 73
5
 74
3
 42
0.0000001
 43
0.0000001
 44
0.0000000001
 12
-0.0018919397
 22
-0.0771244523
 32
0.0
 13
0.0223863563
 23
-0.0738282577
 33
0.0
 40
0.0
 40
0.0
 40
0.0
 40
0.0
 40
0.2577545304
 40
1.0
 40
1.0
 40
1.0
 40
1.0
 10
-17.298109316
 20
13.6310128622
 30
0.0
 10
-17.2982718681
 20
13.6243864699
 30
0.0
 10
-17.2981049167
 20
13.5986847829
 30
0.0
 10
-17.2944395575
 20
13.5728521285
 30
0.0
 10
-17.2889008336
 20
13.5545858985
 30
0.0
 11
-17.298109316
 21
13.6310128622
 31
0.0
 11
-17.297953378
 21
13.6111283162
 31
0.0
 11
-17.2889008336
 21
13.5545858985
 31
0.0
  0
SPLINE
  5
374
100
AcDbEntity
  8
RACCORDO
100
AcDbSpline
 62
7
  6
CONTINUOUS
 70
0
 71
3
 72
11
 73
7
 74
5
 42
0.0000001
 43
0.0000001
 44
0.0000000001
 12
0.0657653013
 22
1.9933825669
 32
0.0
 13
1.7370757814
 23
0.9800341128
 33
0.0
 40
0.0
 40
0.0
 40
0.0
 40
0.0
 40
0.2478190295
 40
0.5078455293
 40
0.763356822
 40
1.0
 40
1.0
 40
1.0
 40
1.0
 10
-17.1717414253
 20
17.9782657448
 30
0.0
 10
-17.1663087942
 20
18.1429317892
 30
0.0
 10
-17.1050979968
 20
18.4794921426
 30
0.0
 10
-16.9004668872
 20
18.9482030384
 30
0.0
 10
-16.602357553
 20
19.3547395379
 30
0.0
 10
-16.3448642825
 20
19.5655034004
 30
0.0
 10
-16.2078419047
 20
19.6428095294
 30
0.0
 11
-17.1717414253
 21
17.9782657448
 31
0.0
 11
-17.088727558
 21
18.4655115501
 31
0.0
 11
-16.8824350686
 21
18.941331062
 31
0.0
 11
-16.5780499411
 21
19.3500496686
 31
0.0
 11
-16.2078419047
 21
19.6428095294
 31
0.0
  0
SPLINE
  5
375
100
AcDbEntity
  8
RACCORDO
100
AcDbSpline
 62
7
  6
CONTINUOUS
 70
0
 71
3
 72
9
 73
5
 74
3
 42
0.0000001
 43
0.0000001
 44
0.0000000001
 12
-0.0455328651
 22
-0.0229894615
 32
0.0
 13
-0.0490373462
 23
-0.014039082
 33
0.0
 40
0.0
 40
0.0
 40
0.0
 40
0.0
 40
0.2547506432
 40
1.0
 40
1.0
 40
1.0
 40
1.0
 10
-4.0618120329
 20
6.9835647702
 30
0.0
 10
-4.0656785418
 20
6.9816125769
 30
0.0
 10
-4.081006547
 20
6.9742574152
 30
0.0
 10
-4.0969850837
 20
6.9682064043
 30
0.0
 10
-4.1091667673
 20
6.9647188654
 30
0.0
 11
-4.0618120329
 21
6.9835647702
 31
0.0
 11
-4.0735303983
 21
6.9779497492
 31
0.0
 11
-4.1091667673
 21
6.9647188654
 31
0.0
  0
SPLINE
  5
376
100
AcDbEntity
  8
RACCORDO
100
AcDbSpline
 62
253
  6
CONTINUOUS
 70
0
 71
3
 72
10
 73
6
 74
4
 42
0.0000001
 43
0.0000001
 44
0.0000000001
 12
0.1025953996
 22
0.0579666728
 32
0.0
 13
0.1053981069
 23
-0.0526990534
 33
0.0
 40
0.0
 40
0.0
 40
0.0
 40
0.0
 40
0.2232236029
 40
0.4592476001
 40
1.0
 40
1.0
 40
1.0
 40
1.0
 10
-16.2078379135
 20
19.6428024587
 30
0.0
 10
-16.2002040086
 20
19.6471156352
 30
0.0
 10
-16.1829930938
 20
19.6535462817
 30
0.0
 10
-16.1433716689
 20
19.6560797084
 30
0.0
 10
-16.1132476709
 20
19.6461554963
 30
0.0
 10
-16.0942495778
 20
19.6366564498
 30
0.0
 11
-16.2078379135
 21
19.6428024587
 31
0.0
 11
-16.183240061
 21
19.652122631
 31
0.0
 11
-16.1555057299
 21
19.6542097591
 31
0.0
 11
-16.0942495778
 21
19.6366564498
 31
0.0
  0
SPLINE
  5
377
100
AcDbEntity
  8
RACCORDO
100
AcDbSpline
 62
253
  6
CONTINUOUS
 70
0
 71
3
 72
10
 73
6
 74
4
 42
0.0000001
 43
0.0000001
 44
0.0000000001
 12
-0.2824434701
 22
-0.0554124861
 32
0.0
 13
-0.2574410334
 23
0.1287205179
 33
0.0
 40
0.0
 40
0.0
 40
0.0
 40
0.0
 40
0.5180197775
 40
0.7725300064
 40
1.0
 40
1.0
 40
1.0
 40
1.0
 10
-3.8053939477
 20
11.3544182214
 30
0.0
 10
-3.8541643822
 20
11.3448499668
 30
0.0
 10
-3.9297457124
 20
11.3427330306
 30
0.0
 10
-4.0243144392
 20
11.3597638677
 30
0.0
 10
-4.0682202529
 20
11.3754535325
 30
0.0
 10
-4.0877402896
 20
11.385213551
 30
0.0
 11
-3.8053939477
 21
11.3544182214
 31
0.0
 11
-3.9543915099
 21
11.3488785953
 31
0.0
 11
-4.0264047016
 21
11.3623104116
 31
0.0
 11
-4.0877402896
 21
11.385213551
 31
0.0
  0
SPLINE
  5
378
100
AcDbEntity
  8
RACCORDO
100
AcDbSpline
 62
253
  6
CONTINUOUS
 70
0
 71
3
 72
11
 73
7
 74
5
 42
0.0000001
 43
0.0000001
 44
0.0000000001
 12
0.0658555545
 22
1.9961182693
 32
0.0
 13
1.6708818249
 23
1.0940653666
 33
0.0
 40
0.0
 40
0.0
 40
0.0
 40
0.0
 40
0.2450025981
 40
0.5061647165
 40
0.7640136834
 40
1.0
 40
1.0
 40
1.0
 40
1.0
 10
-17.0985050635
 20
17.8905959379
 30
0.0
 10
-17.0931268028
 20
18.053613992
 30
0.0
 10
-17.0336667558
 20
18.3894170229
 30
0.0
 10
-16.8367132689
 20
18.8621724815
 30
0.0
 10
-16.5498273327
 20
19.2791839004
 30
0.0
 10
-16.3031047806
 20
19.5034157328
 30
0.0
 10
-16.1716696982
 20
19.5894772181
 30
0.0
 11
-17.0985050635
 21
17.8905959379
 31
0.0
 11
-17.0189248927
 21
18.3734015935
 31
0.0
 11
-16.8198009968
 21
18.8554908912
 31
0.0
 11
-16.5254149048
 21
19.2780287148
 31
0.0
 11
-16.1716696982
 21
19.5894772181
 31
0.0
  0
SPLINE
  5
379
100
AcDbEntity
  8
RACCORDO
100
AcDbSpline
 62
7
  6
CONTINUOUS
 70
0
 71
3
 72
8
 73
4
 74
2
 42
0.0000001
 43
0.0000001
 44
0.0000000001
 12
-0.0548327168
 22
0.0324052546
 32
0.0
 13
-0.0475922955
 23
0.0423284865
 33
0.0
 40
0.0
 40
0.0
 40
0.0
 40
0.0
 40
1.0
 40
1.0
 40
1.0
 40
1.0
 10
-4.1091667673
 20
6.9647188654
 30
0.0
 10
-4.1274443396
 20
6.9755206169
 30
0.0
 10
-4.144586555
 20
6.988380925
 30
0.0
 10
-4.1604506535
 20
7.0024904205
 30
0.0
 11
-4.1091667673
 21
6.9647188654
 31
0.0
 11
-4.1604506535
 21
7.0024904205
 31
0.0
  0
SPLINE
  5
37A
100
AcDbEntity
  8
RACCORDO
100
AcDbSpline
 62
7
  6
CONTINUOUS
 70
0
 71
3
 72
9
 73
5
 74
3
 42
0.0000001
 43
0.0000001
 44
0.0000000001
 12
-0.0585360217
 22
0.0520618133
 32
0.0
 13
-0.0475331441
 23
0.0622695628
 33
0.0
 40
0.0
 40
0.0
 40
0.0
 40
0.0
 40
0.2525355785
 40
1.0
 40
1.0
 40
1.0
 40
1.0
 10
-4.1604506535
 20
7.0024904205
 30
0.0
 10
-4.1653781296
 20
7.0068729072
 30
0.0
 10
-4.1844278155
 20
7.0247423866
 30
0.0
 10
-4.2017121463
 20
7.0444734567
 30
0.0
 10
-4.2135552576
 20
7.0599882176
 30
0.0
 11
-4.1604506535
 21
7.0024904205
 31
0.0
 11
-4.1748869923
 21
7.0160169873
 31
0.0
 11
-4.2135552576
 21
7.0599882176
 31
0.0
  0
SPLINE
  5
37B
100
AcDbEntity
  8
RACCORDO
100
AcDbSpline
 62
253
  6
CONTINUOUS
 70
0
 71
3
 72
9
 73
5
 74
3
 42
0.0000001
 43
0.0000001
 44
0.0000000001
 12
-0.0958232267
 22
0.2220735724
 32
0.0
 13
-0.2163307859
 23
0.1081653985
 33
0.0
 40
0.0
 40
0.0
 40
0.0
 40
0.0
 40
0.5285190126
 40
1.0
 40
1.0
 40
1.0
 40
1.0
 10
-2.9268165356
 20
12.9513934446
 30
0.0
 10
-2.9436980013
 20
12.990516813
 30
0.0
 10
-2.986747463
 20
13.0599861245
 30
0.0
 10
-3.0494861862
 20
13.1142747534
 30
0.0
 10
-3.0834848037
 20
13.131274063
 30
0.0
 11
-2.9268165356
 21
12.9513934446
 31
0.0
 11
-2.9947027669
 21
13.0597080611
 31
0.0
 11
-3.0834848037
 21
13.131274063
 31
0.0
  0
SPLINE
  5
37C
100
AcDbEntity
  8
RACCORDO
100
AcDbSpline
 62
253
  6
CONTINUOUS
 70
0
 71
3
 72
11
 73
7
 74
5
 42
0.0000001
 43
0.0000001
 44
0.0000000001
 12
-1.81764209
 22
-1.0254885087
 32
0.0
 13
-0.068815521
 23
-2.0858364924
 33
0.0
 40
0.0
 40
0.0
 40
0.0
 40
0.0
 40
0.2318600046
 40
0.4894676157
 40
0.7527769559
 40
1.0
 40
1.0
 40
1.0
 40
1.0
 10
-3.083484804
 20
13.1312740629
 30
0.0
 10
-3.2239643051
 20
13.0520174728
 30
0.0
 10
-3.4906032917
 20
12.8309400758
 30
0.0
 10
-3.8014566458
 20
12.4044517253
 30
0.0
 10
-4.0167389981
 20
11.9109565067
 30
0.0
 10
-4.0820693621
 20
11.5571025001
 30
0.0
 10
-4.0877402896
 20
11.385213551
 30
0.0
 11
-3.083484804
 21
13.1312740629
 31
0.0
 11
-3.462100189
 21
12.8299515346
 31
0.0
 11
-3.7821998216
 21
12.3980126808
 31
0.0
 11
-4.0005647193
 21
11.8937429523
 31
0.0
 11
-4.0877402896
 21
11.385213551
 31
0.0
  0
SPLINE
  5
37D
100
AcDbEntity
  8
RACCORDO
100
AcDbSpline
 62
253
  6
CONTINUOUS
 70
0
 71
3
 72
11
 73
7
 74
5
 42
0.0000001
 43
0.0000001
 44
0.0000000001
 12
-0.0039319102
 22
-0.1199193187
 32
0.0
 13
0.107316737
 23
-0.053658372
 33
0.0
 40
0.0
 40
0.0
 40
0.0
 40
0.0
 40
0.2010920437
 40
0.4266530287
 40
0.6918365394
 40
1.0
 40
1.0
 40
1.0
 40
1.0
 10
-17.1717300118
 20
17.9782653688
 30
0.0
 10
-17.1719935704
 20
17.9702270952
 30
0.0
 10
-17.1686860938
 20
17.9529065338
 30
0.0
 10
-17.1534422792
 20
17.9292545862
 30
0.0
 10
-17.1293814343
 20
17.9078307249
 30
0.0
 10
-17.1095287625
 20
17.8961077876
 30
0.0
 10
-17.0985050635
 20
17.8905959378
 30
0.0
 11
-17.1717300118
 21
17.9782653688
 31
0.0
 11
-17.1675221673
 21
17.9545073428
 31
0.0
 11
-17.1534772793
 21
17.9313733297
 31
0.0
 11
-17.1301228589
 21
17.9097645807
 31
0.0
 11
-17.0985050635
 21
17.8905959378
 31
0.0
  0
SPLINE
  5
37E
100
AcDbEntity
  8
RACCORDO
100
AcDbSpline
 62
7
  6
CONTINUOUS
 70
0
 71
3
 72
9
 73
5
 74
3
 42
0.0000001
 43
0.0000001
 44
0.0000000001
 12
-0.1125352003
 22
-0.1251677502
 32
0.0
 13
-0.1502531559
 23
-0.0758625477
 33
0.0
 40
0.0
 40
0.0
 40
0.0
 40
0.0
 40
0.2544782844
 40
1.0
 40
1.0
 40
1.0
 40
1.0
 10
-3.930485296
 20
7.0880811736
 30
0.0
 10
-3.9400312176
 20
7.0774636822
 30
0.0
 10
-3.9789987438
 20
7.0371663311
 30
0.0
 10
-4.024473036
 20
7.0024171625
 30
0.0
 10
-4.0618120329
 20
6.9835647702
 30
0.0
 11
-3.930485296
 21
7.0880811736
 31
0.0
 11
-3.9602853689
 21
7.0573133765
 31
0.0
 11
-4.0618120329
 21
6.9835647702
 31
0.0
  0
SPLINE
  5
37F
100
AcDbEntity
  8
RACCORDO
100
AcDbSpline
 62
7
  6
CONTINUOUS
 70
0
 71
3
 72
10
 73
6
 74
4
 42
0.0000001
 43
0.0000001
 44
0.0000000001
 12
0.0548748944
 22
-0.0113001785
 32
0.0
 13
0.0541289649
 23
0.014456944
 33
0.0
 40
0.0
 40
0.0
 40
0.0
 40
0.0
 40
0.1782256531
 40
0.4056993186
 40
1.0
 40
1.0
 40
1.0
 40
1.0
 10
-17.2889008336
 20
13.5545858985
 30
0.0
 10
-17.2856407957
 20
13.5539145713
 30
0.0
 10
-17.2779732495
 20
13.5537500063
 30
0.0
 10
-17.2594492482
 20
13.5561291698
 30
0.0
 10
-17.2445224551
 20
13.5599163509
 30
0.0
 10
-17.2337994949
 20
13.5627802748
 30
0.0
 11
-17.2889008336
 21
13.5545858985
 31
0.0
 11
-17.2789334222
 21
13.5539880196
 31
0.0
 11
-17.266267014
 21
13.5553968045
 31
0.0
 11
-17.2337994949
 21
13.5627802748
 31
0.0
  0
SPLINE
  5
380
100
AcDbEntity
  8
0
100
AcDbSpline
 62
7
  6
CONTINUOUS
 70
0
 71
3
 72
9
 73
5
 74
3
 42
0.0000001
 43
0.0000001
 44
0.0000000001
 12
0.1890137359
 22
-0.0945068679
 32
0.0
 13
0.2110946111
 23
-0.0098389835
 33
0.0
 40
0.0
 40
0.0
 40
0.0
 40
0.0
 40
0.2530779031
 40
1.0
 40
1.0
 40
1.0
 40
1.0
 10
-9.7706843003
 20
-3.2539781857
 30
0.0
 10
-9.7547392336
 20
-3.261950719
 30
0.0
 10
-9.6903904048
 20
-3.2906028088
 30
0.0
 10
-9.6200670537
 20
-3.306553429
 30
0.0
 10
-9.5675099772
 20
-3.3090030804
 30
0.0
 11
-9.7706843003
 21
-3.2539781857
 31
0.0
 11
-9.7217860415
 21
-3.2756396315
 31
0.0
 11
-9.5675099772
 21
-3.3090030804
 31
0.0
  0
SPLINE
  5
381
100
AcDbEntity
  8
0
100
AcDbSpline
 62
7
  6
CONTINUOUS
 70
0
 71
3
 72
11
 73
7
 74
5
 42
0.0000001
 43
0.0000001
 44
0.0000000001
 12
-0.587063368
 22
-0.8637950408
 32
0.0
 13
0.7840695007
 23
-0.6899422356
 33
0.0
 40
0.0
 40
0.0
 40
0.0
 40
0.0
 40
0.2350606513
 40
0.4834521749
 40
0.7438725975
 40
1.0
 40
1.0
 40
1.0
 40
1.0
 10
-10.1176864268
 20
-2.2086501811
 30
0.0
 10
-10.1636849261
 20
-2.2763315894
 30
0.0
 10
-10.2191672208
 20
-2.4433548248
 30
0.0
 10
-10.1957000143
 20
-2.7059529042
 30
0.0
 10
-10.0935521523
 20
-2.9555148287
 30
0.0
 10
-9.9790837413
 20
-3.0987026459
 30
0.0
 10
-9.9121431798
 20
-3.1576070168
 30
0.0
 11
-10.1176864268
 21
-2.2086501811
 31
0.0
 11
-10.2009156264
 21
-2.4396103833
 31
0.0
 11
-10.1837122416
 21
-2.6984611006
 31
0.0
 11
-10.0814165407
 21
-2.9504756515
 31
0.0
 11
-9.9121431798
 21
-3.1576070168
 31
0.0
  0
SPLINE
  5
382
100
AcDbEntity
  8
0
100
AcDbSpline
 62
7
  6
CONTINUOUS
 70
0
 71
3
 72
9
 73
5
 74
3
 42
0.0000001
 43
0.0000001
 44
0.0000000001
 12
0.090982462
 22
-0.0679347972
 32
0.0
 13
0.1015596182
 23
-0.0507798091
 33
0.0
 40
0.0
 40
0.0
 40
0.0
 40
0.0
 40
0.2533516157
 40
1.0
 40
1.0
 40
1.0
 40
1.0
 10
-9.8671080688
 20
-3.1941721086
 30
0.0
 10
-9.8594245509
 20
-3.1999092388
 30
0.0
 10
-9.8286359355
 20
-3.2219253499
 30
0.0
 10
-9.7959607419
 20
-3.2413399649
 30
0.0
 10
-9.7706843003
 20
-3.2539781857
 30
0.0
 11
-9.8671080688
 21
-3.1941721086
 31
0.0
 11
-9.8437027661
 21
-3.2108978911
 31
0.0
 11
-9.7706843003
 21
-3.2539781857
 31
0.0
  0
SPLINE
  5
383
100
AcDbEntity
  8
0
100
AcDbSpline
 62
7
  6
CONTINUOUS
 70
0
 71
3
 72
9
 73
5
 74
3
 42
0.0000001
 43
0.0000001
 44
0.0000000001
 12
-0.3537389366
 22
-0.1768694683
 32
0.0
 13
-0.2223070429
 23
-0.3270987966
 33
0.0
 40
0.0
 40
0.0
 40
0.0
 40
0.0
 40
0.5003689879
 40
1.0
 40
1.0
 40
1.0
 40
1.0
 10
-9.2888393284
 20
-1.1626669224
 30
0.0
 10
-9.3478393263
 20
-1.1921669213
 30
0.0
 10
-9.4584265763
 20
-1.2670539228
 30
0.0
 10
-9.5460673197
 20
-1.3675795628
 30
0.0
 10
-9.5830911507
 20
-1.4220557971
 30
0.0
 11
-9.2888393284
 21
-1.1626669224
 31
0.0
 11
-9.4527630903
 21
-1.2735283111
 31
0.0
 11
-9.5830911507
 21
-1.4220557971
 31
0.0
  0
SPLINE
  5
384
100
AcDbEntity
  8
0
100
AcDbSpline
 62
7
  6
CONTINUOUS
 70
0
 71
3
 72
9
 73
5
 74
3
 42
0.0000001
 43
0.0000001
 44
0.0000000001
 12
0.3950632977
 22
-0.0184136452
 32
0.0
 13
0.3537389677
 23
0.1768694838
 33
0.0
 40
0.0
 40
0.0
 40
0.0
 40
0.0
 40
0.4996286558
 40
1.0
 40
1.0
 40
1.0
 40
1.0
 10
-8.6174773042
 20
-3.35328349
 30
0.0
 10
-8.5516823228
 20
-3.3563501516
 30
0.0
 10
-8.4186773292
 20
-3.3465532887
 30
0.0
 10
-8.292415392
 20
-3.3030154974
 30
0.0
 10
-8.2334151111
 20
-3.273515357
 30
0.0
 11
-8.6174773042
 21
-3.35328349
 31
0.0
 11
-8.4204593715
 21
-3.3381378575
 31
0.0
 11
-8.2334151111
 21
-3.273515357
 31
0.0
  0
SPLINE
  5
385
100
AcDbEntity
  8
0
100
AcDbSpline
 62
7
  6
CONTINUOUS
 70
0
 71
3
 72
18
 73
14
 74
12
 42
0.0000001
 43
0.0000001
 44
0.0000000001
 12
7.7154018192
 22
-3.8577009096
 32
0.0
 13
-7.7996208624
 23
-3.6844532759
 33
0.0
 40
0.0
 40
0.0
 40
0.0
 40
0.0
 40
0.1241699722
 40
0.2642326827
 40
0.4123623179
 40
0.5593667137
 40
0.6962331749
 40
0.7586125285
 40
0.8160212101
 40
0.8682233422
 40
0.9154938049
 40
0.9588147524
 40
1.0
 40
1.0
 40
1.0
 40
1.0
 10
-10.8330100966
 20
0.3492849425
 30
0.0
 10
-10.5136696869
 20
0.1896147376
 30
0.0
 10
-9.8879648161
 20
-0.2596042864
 30
0.0
 10
-9.0978525488
 20
-1.153215078
 30
0.0
 10
-8.4580153672
 20
-2.2374395851
 30
0.0
 10
-8.0300697432
 20
-3.410703845
 30
0.0
 10
-7.8765562039
 20
-4.4034795171
 30
0.0
 10
-7.8999820982
 20
-5.1429956325
 30
0.0
 10
-7.9843479098
 20
-5.6321805454
 30
0.0
 10
-8.1324648968
 20
-6.0606984269
 30
0.0
 10
-8.3394896266
 20
-6.4187201768
 30
0.0
 10
-8.5994339136
 20
-6.6990774099
 30
0.0
 10
-8.8064358679
 20
-6.8322243098
 30
0.0
 10
-8.9135123066
 20
-6.8828060165
 30
0.0
 11
-10.8330100966
 21
0.3492849425
 31
0.0
 11
-9.9519702104
 21
-0.259832914
 31
0.0
 11
-9.1436579649
 21
-1.1578084554
 31
0.0
 11
-8.492018775
 21
-2.2569370897
 31
0.0
 11
-8.0616878486
 21
-3.4497579584
 31
0.0
 11
-7.8937961157
 21
-4.6183806044
 31
0.0
 11
-7.9134050868
 21
-5.1561125781
 31
0.0
 11
-8.0005408393
 21
-5.6435982195
 31
0.0
 11
-8.1509743321
 21
-6.0680269117
 31
0.0
 11
-8.3581107635
 21
-6.4192558803
 31
0.0
 11
-8.6142385467
 21
-6.6913639323
 31
0.0
 11
-8.9135123066
 21
-6.8828060165
 31
0.0
  0
SPLINE
  5
386
100
AcDbEntity
  8
0
100
AcDbSpline
 62
7
  6
CONTINUOUS
 70
0
 71
3
 72
11
 73
7
 74
5
 42
0.0000001
 43
0.0000001
 44
0.0000000001
 12
1.5050992425
 22
0.7935844629
 32
0.0
 13
1.548913851
 23
-0.704248473
 33
0.0
 40
0.0
 40
0.0
 40
0.0
 40
0.0
 40
0.2214302233
 40
0.4558215324
 40
0.7135990407
 40
1.0
 40
1.0
 40
1.0
 40
1.0
 10
-12.5830482443
 20
0.4594961106
 30
0.0
 10
-12.4719567572
 20
0.5180706389
 30
0.0
 10
-12.2252531245
 20
0.6070946297
 30
0.0
 10
-11.8178275585
 20
0.6401352708
 30
0.0
 10
-11.3780248341
 20
0.5728549268
 30
0.0
 10
-11.0861420312
 20
0.4667631107
 30
0.0
 10
-10.9382718937
 20
0.3995306313
 30
0.0
 11
-12.5830482443
 21
0.4594961106
 31
0.0
 11
-12.2290715629
 21
0.5885354609
 31
0.0
 11
-11.8318561579
 21
0.6242376998
 31
0.0
 11
-11.3976754
 21
0.562074389
 31
0.0
 11
-10.9382718937
 21
0.3995306313
 31
0.0
  0
SPLINE
  5
387
100
AcDbEntity
  8
0
100
AcDbSpline
 62
7
  6
CONTINUOUS
 70
0
 71
3
 72
12
 73
8
 74
6
 42
0.0000001
 43
0.0000001
 44
0.0000000001
 12
0.0
 22
3.1122683473
 32
0.0
 13
2.7836974355
 23
1.3918487177
 33
0.0
 40
0.0
 40
0.0
 40
0.0
 40
0.0
 40
0.2818700122
 40
0.538777324
 40
0.7748786137
 40
0.8881605423
 40
1.0
 40
1.0
 40
1.0
 40
1.0
 10
-14.153187213
 20
-1.607140621
 30
0.0
 10
-14.153187213
 20
-1.3147222486
 30
0.0
 10
-14.1046771488
 20
-0.7535717298
 30
0.0
 10
-13.860295134
 20
0.0201550568
 30
0.0
 10
-13.5069948265
 20
0.5540599952
 30
0.0
 10
-13.1491230481
 20
0.8748281661
 30
0.0
 10
-12.9492470136
 20
0.99851041
 30
0.0
 10
-12.8454712763
 20
1.0503982786
 30
0.0
 11
-14.153187213
 21
-1.607140621
 31
0.0
 11
-14.069199303
 21
-0.733915237
 31
0.0
 11
-13.8179427972
 21
0.0251457287
 31
0.0
 11
-13.4046008242
 21
0.632677611
 31
0.0
 11
-13.1416228365
 21
0.8675047459
 31
0.0
 11
-12.8454712763
 21
1.0503982786
 31
0.0
  0
SPLINE
  5
388
100
AcDbEntity
  8
0
100
AcDbSpline
 62
7
  6
CONTINUOUS
 70
0
 71
3
 72
17
 73
13
 74
11
 42
0.0000001
 43
0.0000001
 44
0.0000000001
 12
-8.2395627988
 22
-4.1197813994
 32
0.0
 13
0.0
 23
9.2121112615
 33
0.0
 40
0.0
 40
0.0
 40
0.0
 40
0.0
 40
0.0477264886
 40
0.0964678572
 40
0.1471826884
 40
0.2006123435
 40
0.317012817
 40
0.4464674271
 40
0.5855355105
 40
0.7284500135
 40
0.8686040256
 40
1.0
 40
1.0
 40
1.0
 40
1.0
 10
-8.5969421191
 20
-7.4466600359
 30
0.0
 10
-8.728023919
 20
-7.5122009358
 30
0.0
 10
-9.0091725524
 20
-7.6146071872
 30
0.0
 10
-9.4607128258
 20
-7.6723030491
 30
0.0
 10
-9.9317614304
 20
-7.6366424185
 30
0.0
 10
-10.5899722119
 20
-7.4649709419
 30
0.0
 10
-11.4108602485
 20
-7.0238379809
 30
0.0
 10
-12.2992433403
 20
-6.2322782929
 30
0.0
 10
-13.0693685335
 20
-5.2218892197
 30
0.0
 10
-13.6683822465
 20
-4.0650960753
 30
0.0
 10
-14.0539002367
 20
-2.8457973431
 30
0.0
 10
-14.153187213
 20
-2.0106187328
 30
0.0
 10
-14.153187213
 20
-1.607140621
 30
0.0
 11
-8.5969421191
 21
-7.4466600359
 31
0.0
 11
-9.0098383257
 21
-7.5977201333
 31
0.0
 11
-9.454972762
 21
-7.6565939929
 31
0.0
 11
-9.9210119164
 21
-7.6238124891
 31
0.0
 11
-10.3979755908
 21
-7.5022953231
 31
0.0
 11
-11.351088493
 21
-7.010980292
 31
0.0
 11
-12.249835426
 21
-6.2271243732
 31
0.0
 11
-13.0311140916
 21
-5.2118174427
 31
0.0
 11
-13.6370272097
 21
-4.0429897419
 31
0.0
 11
-14.0212102192
 21
-2.8103585372
 31
0.0
 11
-14.153187213
 21
-1.607140621
 31
0.0
  0
SPLINE
  5
389
100
AcDbEntity
  8
0
100
AcDbSpline
 62
7
  6
CONTINUOUS
 70
0
 71
3
 72
9
 73
5
 74
3
 42
0.0000001
 43
0.0000001
 44
0.0000000001
 12
0.0585834226
 22
0.0950177807
 32
0.0
 13
0.0958718306
 23
0.0571750657
 33
0.0
 40
0.0
 40
0.0
 40
0.0
 40
0.0
 40
0.7465715456
 40
1.0
 40
1.0
 40
1.0
 40
1.0
 10
-0.8119051763
 20
20.7667108523
 30
0.0
 10
-0.7973262708
 20
20.7903567094
 30
0.0
 10
-0.7718195216
 20
20.8189537409
 30
0.0
 10
-0.7409575487
 20
20.8398158628
 30
0.0
 10
-0.7328586654
 20
20.8446457923
 30
0.0
 11
-0.8119051763
 21
20.7667108523
 31
0.0
 11
-0.7562562084
 21
20.82874497
 31
0.0
 11
-0.7328586654
 21
20.8446457923
 31
0.0
  0
SPLINE
  5
38A
100
AcDbEntity
  8
0
100
AcDbSpline
 62
7
  6
CONTINUOUS
 70
0
 71
3
 72
10
 73
6
 74
4
 42
0.0000001
 43
0.0000001
 44
0.0000000001
 12
0.2106525493
 22
0.1312090809
 32
0.0
 13
0.221973547
 23
-0.1109867735
 33
0.0
 40
0.0
 40
0.0
 40
0.0
 40
0.0
 40
0.2284086156
 40
0.4655932607
 40
1.0
 40
1.0
 40
1.0
 40
1.0
 10
5.9749191847
 20
16.9232062044
 30
0.0
 10
5.9909574705
 20
16.9331959659
 30
0.0
 10
6.0270368351
 20
16.948620307
 30
0.0
 10
6.1103061039
 20
16.9571624169
 30
0.0
 10
6.1739818373
 20
16.9372442289
 30
0.0
 10
6.2135232238
 20
16.9174735356
 30
0.0
 11
5.9749191847
 21
16.9232062044
 31
0.0
 11
6.0270042163
 21
16.9455746415
 31
0.0
 11
6.0855023876
 21
16.9521185858
 31
0.0
 11
6.2135232238
 21
16.9174735356
 31
0.0
  0
SPLINE
  5
38B
100
AcDbEntity
  8
0
100
AcDbSpline
 62
7
  6
CONTINUOUS
 70
0
 71
3
 72
8
 73
4
 74
2
 42
0.0000001
 43
0.0000001
 44
0.0000000001
 12
-0.0941780676
 22
0.1985075051
 32
0.0
 13
0.0001076369
 23
0.2197151029
 33
0.0
 40
0.0
 40
0.0
 40
0.0
 40
0.0
 40
1.0
 40
1.0
 40
1.0
 40
1.0
 10
5.0926644121
 20
-17.6581269121
 30
0.0
 10
5.0612717229
 20
-17.5919577437
 30
0.0
 10
5.0444037831
 20
-17.5170078411
 30
0.0
 10
5.0444396621
 20
-17.4437694735
 30
0.0
 11
5.0926644121
 21
-17.6581269121
 31
0.0
 11
5.0444396621
 21
-17.4437694735
 31
0.0
  0
SPLINE
  5
38C
100
AcDbEntity
  8
0
100
AcDbSpline
 62
7
  6
CONTINUOUS
 70
0
 71
3
 72
9
 73
5
 74
3
 42
0.0000001
 43
0.0000001
 44
0.0000000001
 12
0.3201290066
 22
-0.1600645033
 32
0.0
 13
0.179525194
 23
-0.3096351576
 33
0.0
 40
0.0
 40
0.0
 40
0.0
 40
0.0
 40
0.4704268608
 40
1.0
 40
1.0
 40
1.0
 40
1.0
 10
6.4213081827
 20
16.8135810562
 30
0.0
 10
6.4715072773
 20
16.7884815089
 30
0.0
 10
6.5674266489
 20
16.7135009362
 30
0.0
 10
6.639275003
 20
16.616757839
 30
0.0
 10
6.6709655766
 20
16.5620996848
 30
0.0
 11
6.4213081827
 21
16.8135810562
 31
0.0
 11
6.5564264244
 21
16.7131196802
 31
0.0
 11
6.6709655766
 21
16.5620996848
 31
0.0
  0
SPLINE
  5
38D
100
AcDbEntity
  8
0
100
AcDbSpline
 62
7
  6
CONTINUOUS
 70
0
 71
3
 72
9
 73
5
 74
3
 42
0.0000001
 43
0.0000001
 44
0.0000000001
 12
0.1891999936
 22
-0.326344213
 32
0.0
 13
-0.0000029964
 23
-0.3772229884
 33
0.0
 40
0.0
 40
0.0
 40
0.0
 40
0.0
 40
0.5177262539
 40
1.0
 40
1.0
 40
1.0
 40
1.0
 10
7.6161810805
 20
14.9318441138
 30
0.0
 10
7.6488323484
 20
14.8755251248
 30
0.0
 10
7.699378301
 20
14.7590656191
 30
0.0
 10
7.7204773273
 20
14.6331689132
 30
0.0
 10
7.7204768456
 20
14.572527332
 30
0.0
 11
7.6161810805
 21
14.9318441138
 31
0.0
 11
7.6932773137
 21
14.7524072859
 31
0.0
 11
7.7204768456
 21
14.572527332
 31
0.0
  0
SPLINE
  5
38E
100
AcDbEntity
  8
0
100
AcDbSpline
 62
7
  6
CONTINUOUS
 70
0
 71
3
 72
9
 73
5
 74
3
 42
0.0000001
 43
0.0000001
 44
0.0000000001
 12
1.5468217134
 22
14.0535137818
 32
0.0
 13
-0.0000000423
 23
14.1383841732
 33
0.0
 40
0.0
 40
0.0
 40
0.0
 40
0.0
 40
0.2550335186
 40
1.0
 40
1.0
 40
1.0
 40
1.0
 10
17.6590086484
 20
0.3028896056
 30
0.0
 10
17.7905057764
 20
1.4975952952
 30
0.0
 10
18.2455437576
 20
6.1884561012
 30
0.0
 10
18.4542906945
 20
10.9040887251
 30
0.0
 10
18.454290684
 20
14.4149628283
 30
0.0
 11
17.6590086484
 21
0.3028896056
 31
0.0
 11
18.0065863657
 21
3.8918599796
 31
0.0
 11
18.454290684
 21
14.4149628283
 31
0.0
  0
SPLINE
  5
38F
100
AcDbEntity
  8
0
100
AcDbSpline
 62
7
  6
CONTINUOUS
 70
0
 71
3
 72
11
 73
7
 74
5
 42
0.0000001
 43
0.0000001
 44
0.0000000001
 12
4.6329364091
 22
2.6011449729
 32
0.0
 13
0.649137845
 23
5.2733931201
 33
0.0
 40
0.0
 40
0.0
 40
0.0
 40
0.0
 40
0.2298096022
 40
0.4835028067
 40
0.7461800396
 40
1.0
 40
1.0
 40
1.0
 40
1.0
 10
14.9306256984
 20
-4.1425576126
 30
0.0
 10
15.2855234561
 20
-3.9433015822
 30
0.0
 10
15.9624390994
 20
-3.3975549515
 30
0.0
 10
16.7733537548
 20
-2.3424909454
 30
0.0
 10
17.3722513491
 20
-1.1070815814
 30
0.0
 10
17.5974108567
 20
-0.2112552229
 30
0.0
 10
17.6523322374
 20
0.2349089214
 30
0.0
 11
14.9306256984
 21
-4.1425576126
 31
0.0
 11
15.8947834073
 21
-3.3933591282
 31
0.0
 11
16.7250569831
 21
-2.3315027547
 31
0.0
 11
17.3334959037
 21
-1.0754546188
 31
0.0
 11
17.6523322374
 21
0.2349089214
 31
0.0
  0
SPLINE
  5
390
100
AcDbEntity
  8
0
100
AcDbSpline
 62
7
  6
CONTINUOUS
 70
0
 71
3
 72
9
 73
5
 74
3
 42
0.0000001
 43
0.0000001
 44
0.0000000001
 12
-0.0
 22
-0.2832820164
 32
0.0
 13
-0.2293758854
 23
-0.1662389966
 33
0.0
 40
0.0
 40
0.0
 40
0.0
 40
0.0
 40
0.5476081504
 40
1.0
 40
1.0
 40
1.0
 40
1.0
 10
7.7204802998
 20
-16.7122590874
 30
0.0
 10
7.7204802998
 20
-16.7639682677
 30
0.0
 10
7.7078155769
 20
-16.8599339327
 30
0.0
 10
7.6507903835
 20
-16.9422830366
 30
0.0
 10
7.6162011232
 20
-16.9673514256
 30
0.0
 11
7.7204802998
 21
-16.7122590874
 31
0.0
 11
7.6933071066
 21
-16.8649881663
 31
0.0
 11
7.6162011232
 21
-16.9673514256
 31
0.0
  0
SPLINE
  5
391
100
AcDbEntity
  8
0
100
AcDbSpline
 62
7
  6
CONTINUOUS
 70
0
 71
3
 72
11
 73
7
 74
5
 42
0.0000001
 43
0.0000001
 44
0.0000000001
 12
-0.000004344
 22
1.7955054316
 32
0.0
 13
-1.455976475
 23
1.0507008419
 33
0.0
 40
0.0
 40
0.0
 40
0.0
 40
0.0
 40
0.2771122321
 40
0.5337675233
 40
0.7727564227
 40
1.0
 40
1.0
 40
1.0
 40
1.0
 10
18.4541736588
 20
16.8231063541
 30
0.0
 10
18.4541732575
 20
16.9889585267
 30
0.0
 10
18.429638059
 20
17.309317101
 30
0.0
 10
18.3068690402
 20
17.7586947259
 30
0.0
 10
18.0975140978
 20
18.1424903186
 30
0.0
 10
17.8968920173
 20
18.3437096233
 30
0.0
 10
17.7866049164
 20
18.4232979626
 30
0.0
 11
18.4541736588
 21
16.8231063541
 31
0.0
 11
18.4124544329
 21
17.3189107457
 31
0.0
 11
18.286687104
 21
17.7622426225
 31
0.0
 11
18.0768766619
 21
18.1365572275
 31
0.0
 11
17.7866049164
 21
18.4232979626
 31
0.0
  0
SPLINE
  5
392
100
AcDbEntity
  8
0
100
AcDbSpline
 62
253
  6
CONTINUOUS
 70
0
 71
3
 72
11
 73
7
 74
5
 42
0.0000001
 43
0.0000001
 44
0.0000000001
 12
-0.5085108294
 22
0.2563104688
 32
0.0
 13
-0.4619265289
 23
-0.3330198222
 33
0.0
 40
0.0
 40
0.0
 40
0.0
 40
0.0
 40
0.2767936323
 40
0.5178922042
 40
0.7513237492
 40
1.0
 40
1.0
 40
1.0
 40
1.0
 10
4.1611245084
 20
25.254222748
 30
0.0
 10
4.1142069886
 20
25.2778711165
 30
0.0
 10
4.0212588381
 20
25.3137205499
 30
0.0
 10
3.8765073244
 20
25.3232963739
 30
0.0
 10
3.7419057734
 20
25.2870449279
 30
0.0
 10
3.6623529803
 20
25.2399895647
 30
0.0
 10
3.6240629278
 20
25.2123848578
 30
0.0
 11
4.1611245084
 21
25.254222748
 31
0.0
 11
4.0129015244
 21
25.307836534
 31
0.0
 11
3.8758318258
 21
25.3156925489
 31
0.0
 11
3.7471287476
 21
25.2824429456
 31
0.0
 11
3.6240629278
 21
25.2123848578
 31
0.0
  0
SPLINE
  5
393
100
AcDbEntity
  8
0
100
AcDbSpline
 62
253
  6
CONTINUOUS
 70
0
 71
3
 72
9
 73
5
 74
3
 42
0.0000001
 43
0.0000001
 44
0.0000000001
 12
-0.2985630426
 22
-0.2152450772
 32
0.0
 13
-0.2207083866
 23
-0.2945473505
 33
0.0
 40
0.0
 40
0.0
 40
0.0
 40
0.0
 40
0.4680147659
 40
1.0
 40
1.0
 40
1.0
 40
1.0
 10
3.6240629278
 20
25.2123848578
 30
0.0
 10
3.5774856237
 20
25.1788055663
 30
0.0
 10
3.4857498761
 20
25.0962183918
 30
0.0
 10
3.4071003733
 20
25.0016780908
 30
0.0
 10
3.3679625057
 20
24.9494464771
 30
0.0
 11
3.6240629278
 21
25.2123848578
 31
0.0
 11
3.4944846374
 21
25.0988833453
 31
0.0
 11
3.3679625057
 21
24.9494464771
 31
0.0
  0
SPLINE
  5
394
100
AcDbEntity
  8
0
100
AcDbSpline
 62
7
  6
CONTINUOUS
 70
0
 71
3
 72
10
 73
6
 74
4
 42
0.0000001
 43
0.0000001
 44
0.0000000001
 12
0.3677270293
 22
0.2193012997
 32
0.0
 13
0.4010075816
 23
-0.150030489
 33
0.0
 40
0.0
 40
0.0
 40
0.0
 40
0.0
 40
0.2018598059
 40
0.5593143796
 40
1.0
 40
1.0
 40
1.0
 40
1.0
 10
-0.7328586654
 20
20.8446457923
 30
0.0
 10
-0.7081155631
 20
20.8594018316
 30
0.0
 10
-0.6319349906
 20
20.8879352545
 30
0.0
 10
-0.4861742469
 20
20.8880009765
 30
0.0
 10
-0.3756923813
 20
20.856564119
 30
0.0
 10
-0.3167862897
 20
20.8345253593
 30
0.0
 11
-0.7328586654
 21
20.8446457923
 31
0.0
 11
-0.6524312732
 21
20.8762858116
 31
0.0
 11
-0.4994805794
 21
20.8816794422
 31
0.0
 11
-0.3167862897
 21
20.8345253593
 31
0.0
  0
SPLINE
  5
395
100
AcDbEntity
  8
0
100
AcDbSpline
 62
7
  6
CONTINUOUS
 70
0
 71
3
 72
9
 73
5
 74
3
 42
0.0000001
 43
0.0000001
 44
0.0000000001
 12
-0.0020263378
 22
-0.5080628813
 32
0.0
 13
0.2548392347
 23
-0.439532663
 33
0.0
 40
0.0
 40
0.0
 40
0.0
 40
0.0
 40
0.2414916368
 40
1.0
 40
1.0
 40
1.0
 40
1.0
 10
5.0443672335
 20
15.5518545472
 30
0.0
 10
5.044204119
 20
15.5109569016
 30
0.0
 10
5.0596959107
 20
15.3415144087
 30
0.0
 10
5.12645107
 20
15.1802247852
 30
0.0
 10
5.1908836336
 20
15.0690950516
 30
0.0
 11
5.0443672335
 21
15.5518545472
 31
0.0
 11
5.0546759832
 21
15.4295944724
 31
0.0
 11
5.1908836336
 21
15.0690950516
 31
0.0
  0
SPLINE
  5
396
100
AcDbEntity
  8
0
100
AcDbSpline
 62
253
  6
CONTINUOUS
 70
0
 71
3
 72
10
 73
6
 74
4
 42
0.0000001
 43
0.0000001
 44
0.0000000001
 12
0.2162664143
 22
0.134587735
 32
0.0
 13
0.2325374598
 23
-0.1039776427
 33
0.0
 40
0.0
 40
0.0
 40
0.0
 40
0.0
 40
0.2254444846
 40
0.4625985492
 40
1.0
 40
1.0
 40
1.0
 40
1.0
 10
5.2800374533
 20
16.4902850011
 30
0.0
 10
5.2962894768
 20
16.5003990219
 30
0.0
 10
5.333054812
 20
16.5161061887
 30
0.0
 10
5.4183051488
 20
16.5258677633
 30
0.0
 10
5.4842781467
 20
16.5077098469
 30
0.0
 10
5.5259334694
 20
16.4890839349
 30
0.0
 11
5.2800374533
 21
16.4902850011
 31
0.0
 11
5.3327586404
 21
16.5130505802
 31
0.0
 11
5.3927035094
 21
16.5205258233
 31
0.0
 11
5.5259334694
 21
16.4890839349
 31
0.0
  0
SPLINE
  5
397
100
AcDbEntity
  8
0
100
AcDbSpline
 62
7
  6
CONTINUOUS
 70
0
 71
3
 72
11
 73
7
 74
5
 42
0.0000001
 43
0.0000001
 44
0.0000000001
 12
0.001113125
 22
0.0796162252
 32
0.0
 13
0.0608534652
 23
0.0513501523
 33
0.0
 40
0.0
 40
0.0
 40
0.0
 40
0.0
 40
0.1216415259
 40
0.3294968399
 40
0.6250355977
 40
1.0
 40
1.0
 40
1.0
 40
1.0
 10
5.0444263318
 20
-16.9294922109
 30
0.0
 10
5.0444714658
 20
-16.9262639979
 30
0.0
 10
5.0494828418
 20
-16.9182945399
 30
0.0
 10
5.060434603
 20
-16.9063021682
 30
0.0
 10
5.0773956613
 20
-16.8900487603
 30
0.0
 10
5.0907665035
 20
-16.8783714648
 30
0.0
 10
5.0983724646
 20
-16.8719533051
 30
0.0
 11
5.0444263318
 21
-16.9294922109
 31
0.0
 11
5.0482754544
 21
-16.9206043077
 31
0.0
 11
5.0590516959
 21
-16.9080430916
 31
0.0
 11
5.0759442256
 21
-16.89166028
 31
0.0
 11
5.0983724646
 21
-16.8719533051
 31
0.0
  0
SPLINE
  5
398
100
AcDbEntity
  8
0
100
AcDbSpline
 62
7
  6
CONTINUOUS
 70
0
 71
3
 72
9
 73
5
 74
3
 42
0.0000001
 43
0.0000001
 44
0.0000000001
 12
0.0892829151
 22
0.0753398558
 32
0.0
 13
0.0945923089
 23
0.0685552907
 33
0.0
 40
0.0
 40
0.0
 40
0.0
 40
0.0
 40
0.2157603691
 40
1.0
 40
1.0
 40
1.0
 40
1.0
 10
5.0983724646
 20
-16.8719533051
 30
0.0
 10
5.1047937028
 20
-16.8665348534
 30
0.0
 10
5.1349309836
 20
-16.8418677052
 30
0.0
 10
5.1661559545
 20
-16.8185610663
 30
0.0
 10
5.1908836336
 20
-16.8006398077
 30
0.0
 11
5.0983724646
 21
-16.8719533051
 31
0.0
 11
5.1178491992
 21
-16.8559538025
 31
0.0
 11
5.1908836336
 21
-16.8006398077
 31
0.0
  0
SPLINE
  5
399
100
AcDbEntity
  8
0
100
AcDbSpline
 62
253
  6
CONTINUOUS
 70
0
 71
3
 72
11
 73
7
 74
5
 42
0.0000001
 43
0.0000001
 44
0.0000000001
 12
0.0000720986
 22
-0.2406572409
 32
0.0
 13
0.2152503897
 23
-0.1076251948
 33
0.0
 40
0.0
 40
0.0
 40
0.0
 40
0.0
 40
0.2065624647
 40
0.4344598579
 40
0.6976432832
 40
1.0
 40
1.0
 40
1.0
 40
1.0
 10
5.0444532923
 20
-17.4438914353
 30
0.0
 10
5.0444582566
 20
-17.4604616862
 30
0.0
 10
5.0517390286
 20
-17.495585763
 30
0.0
 10
5.0823111956
 20
-17.5435210206
 30
0.0
 10
5.1299618827
 20
-17.5865327944
 30
0.0
 10
5.1691894999
 20
-17.6098374331
 30
0.0
 10
5.1908836336
 20
-17.6206845
 30
0.0
 11
5.0444532923
 21
-17.4438914353
 31
0.0
 11
5.0540394179
 21
-17.4926691491
 31
0.0
 11
5.0824818076
 21
-17.5395628809
 31
0.0
 11
5.1287491943
 21
-17.5828168342
 31
0.0
 11
5.1908836336
 21
-17.6206845
 31
0.0
  0
SPLINE
  5
39A
100
AcDbEntity
  8
0
100
AcDbSpline
 62
253
  6
CONTINUOUS
 70
0
 71
3
 72
9
 73
5
 74
3
 42
0.0000001
 43
0.0000001
 44
0.0000000001
 12
-0.0815659848
 22
0.0407483862
 32
0.0
 13
-0.0552441904
 23
0.0725363377
 33
0.0
 40
0.0
 40
0.0
 40
0.0
 40
0.0
 40
0.2455194867
 40
1.0
 40
1.0
 40
1.0
 40
1.0
 10
5.4748854317
 20
-17.9681489835
 30
0.0
 10
5.4682100854
 20
-17.9648141425
 30
0.0
 10
5.4418365224
 20
-17.9496153871
 30
0.0
 10
5.4193490112
 20
-17.927999508
 30
0.0
 10
5.4054554562
 20
-17.9097570903
 30
0.0
 11
5.4748854317
 21
-17.9681489835
 31
0.0
 11
5.4554938886
 21
-17.9569641382
 31
0.0
 11
5.4054554562
 21
-17.9097570903
 31
0.0
  0
SPLINE
  5
39B
100
AcDbEntity
  8
0
100
AcDbSpline
 62
253
  6
CONTINUOUS
 70
0
 71
3
 72
9
 73
5
 74
3
 42
0.0000001
 43
0.0000001
 44
0.0000000001
 12
-0.1350298589
 22
0.1772959542
 32
0.0
 13
0.0
 23
0.2228607596
 33
0.0
 40
0.0
 40
0.0
 40
0.0
 40
0.0
 40
0.2244328367
 40
1.0
 40
1.0
 40
1.0
 40
1.0
 10
5.4054554562
 20
-17.9097570903
 30
0.0
 10
5.3953537448
 20
-17.8964934123
 30
0.0
 10
5.3568749648
 20
-17.8323509278
 30
0.0
 10
5.3448964625
 20
-17.7553054101
 30
0.0
 10
5.3448964625
 20
-17.6976909144
 30
0.0
 11
5.4054554562
 21
-17.9097570903
 31
0.0
 11
5.3794167629
 21
-17.8670521258
 31
0.0
 11
5.3448964625
 21
-17.6976909144
 31
0.0
  0
SPLINE
  5
39C
100
AcDbEntity
  8
0
100
AcDbSpline
 62
253
  6
CONTINUOUS
 70
0
 71
3
 72
10
 73
6
 74
4
 42
0.0000001
 43
0.0000001
 44
0.0000000001
 12
0.1545510992
 22
0.374624211
 32
0.0
 13
0.3684668844
 23
0.168705355
 33
0.0
 40
0.0
 40
0.0
 40
0.0
 40
0.0
 40
0.3259762776
 40
0.599098396
 40
1.0
 40
1.0
 40
1.0
 40
1.0
 10
3.3679622018
 20
24.9494457879
 30
0.0
 10
3.3847555325
 20
24.9901519898
 30
0.0
 10
3.4173020212
 20
25.0647154683
 30
0.0
 10
3.4805467185
 20
25.1824441456
 30
0.0
 10
3.5421334058
 20
25.2582304359
 30
0.0
 10
3.5913730608
 20
25.280775185
 30
0.0
 11
3.3679622018
 21
24.9494457879
 31
0.0
 11
3.4217552897
 21
25.0700998436
 31
0.0
 11
3.47557822
 21
25.1668153724
 31
0.0
 11
3.5913730608
 21
25.280775185
 31
0.0
  0
SPLINE
  5
39D
100
AcDbEntity
  8
0
100
AcDbSpline
 62
7
  6
CONTINUOUS
 70
0
 71
3
 72
12
 73
8
 74
6
 42
0.0000001
 43
0.0000001
 44
0.0000000001
 12
-0.4538860846
 22
-0.8271760442
 32
0.0
 13
-0.9008073866
 23
-0.2806756816
 33
0.0
 40
0.0
 40
0.0
 40
0.0
 40
0.0
 40
0.5460453711
 40
0.6731468329
 40
0.7942991539
 40
0.9047530326
 40
1.0
 40
1.0
 40
1.0
 40
1.0
 10
6.8781739495
 20
-15.5868166427
 30
0.0
 10
6.7955598177
 20
-15.7373751927
 30
0.0
 10
6.6666301337
 20
-15.9102875527
 30
0.0
 10
6.4837009374
 20
-16.0806122871
 30
0.0
 10
6.3932411038
 20
-16.1484529914
 30
0.0
 10
6.3050078363
 20
-16.2014742936
 30
0.0
 10
6.2453953095
 20
-16.2275525001
 30
0.0
 10
6.2167955856
 20
-16.2364636693
 30
0.0
 11
6.8781739495
 21
-15.5868166427
 31
0.0
 11
6.5692158092
 21
-15.9991049076
 31
0.0
 11
6.4809070253
 21
-16.0802410582
 31
0.0
 11
6.3894172908
 21
-16.1487710723
 31
0.0
 11
6.2997252106
 21
-16.2018391751
 31
0.0
 11
6.2167955856
 21
-16.2364636693
 31
0.0
  0
SPLINE
  5
39E
100
AcDbEntity
  8
0
100
AcDbSpline
 62
253
  6
CONTINUOUS
 70
0
 71
3
 72
11
 73
7
 74
5
 42
0.0000001
 43
0.0000001
 44
0.0000000001
 12
0.6055199573
 22
-0.3027599787
 32
0.0
 13
0.6305852674
 23
0.2463336029
 33
0.0
 40
0.0
 40
0.0
 40
0.0
 40
0.0
 40
0.231605306
 40
0.49180193
 40
0.7563583751
 40
1.0
 40
1.0
 40
1.0
 40
1.0
 10
6.2167898212
 20
-17.0657906743
 30
0.0
 10
6.2635370329
 20
-17.0891642802
 30
0.0
 10
6.3703327532
 20
-17.123766482
 30
0.0
 10
6.5406542633
 20
-17.1437298389
 30
0.0
 10
6.7145920276
 20
-17.1337830527
 30
0.0
 10
6.8269616764
 20
-17.1060223739
 30
0.0
 10
6.8781739495
 20
-17.0860166674
 30
0.0
 11
6.2167898212
 21
-17.0657906743
 31
0.0
 11
6.3650004052
 21
-17.1169596888
 31
0.0
 11
6.5398245868
 21
-17.1385393578
 31
0.0
 11
6.7186032008
 21
-17.1277719426
 31
0.0
 11
6.8781739495
 21
-17.0860166674
 31
0.0
  0
SPLINE
  5
39F
100
AcDbEntity
  8
0
100
AcDbSpline
 62
253
  6
CONTINUOUS
 70
0
 71
3
 72
9
 73
5
 74
3
 42
0.0000001
 43
0.0000001
 44
0.0000000001
 12
0.0115721046
 22
-0.2587545295
 32
0.0
 13
-0.2032111725
 23
-0.1606021154
 33
0.0
 40
0.0
 40
0.0
 40
0.0
 40
0.0
 40
0.3054996122
 40
1.0
 40
1.0
 40
1.0
 40
1.0
 10
6.8781739495
 20
-17.0860166674
 30
0.0
 10
6.879352374
 20
-17.1123664702
 30
0.0
 10
6.8781470188
 20
-17.1972332459
 30
0.0
 10
6.8485404534
 20
-17.2916816381
 30
0.0
 10
6.8014970407
 20
-17.3288610485
 30
0.0
 11
6.8781739495
 21
-17.0860166674
 31
0.0
 11
6.8759652176
 21
-17.1651142567
 31
0.0
 11
6.8014970407
 21
-17.3288610485
 31
0.0
  0
SPLINE
  5
3A0
100
AcDbEntity
  8
0
100
AcDbSpline
 62
253
  6
CONTINUOUS
 70
0
 71
3
 72
11
 73
7
 74
5
 42
0.0000001
 43
0.0000001
 44
0.0000000001
 12
-0.638990769
 22
-0.2686966895
 32
0.0
 13
-0.3476924674
 23
0.5996808
 33
0.0
 40
0.0
 40
0.0
 40
0.0
 40
0.0
 40
0.2226183412
 40
0.4654517188
 40
0.7279880182
 40
1.0
 40
1.0
 40
1.0
 40
1.0
 10
6.8014970407
 20
-17.3288610486
 30
0.0
 10
6.7540800191
 20
-17.3487999856
 30
0.0
 10
6.6435359864
 20
-17.365754691
 30
0.0
 10
6.477521373
 20
-17.3210697337
 30
0.0
 10
6.3266401151
 20
-17.2184276293
 30
0.0
 10
6.2483153269
 20
-17.1201641286
 30
0.0
 10
6.2167898212
 20
-17.0657906743
 30
0.0
 11
6.8014970407
 21
-17.3288610486
 31
0.0
 11
6.6493434878
 21
-17.3546042561
 31
0.0
 11
6.485976719
 21
-17.3140349814
 31
0.0
 11
6.3346121819
 21
-17.213000938
 31
0.0
 11
6.2167898212
 21
-17.0657906743
 31
0.0
  0
SPLINE
  5
3A1
100
AcDbEntity
  8
0
100
AcDbSpline
 62
253
  6
CONTINUOUS
 70
0
 71
3
 72
9
 73
5
 74
3
 42
0.0000001
 43
0.0000001
 44
0.0000000001
 12
0.1253755167
 22
-0.2162407794
 32
0.0
 13
0.2000804741
 23
-0.1498228912
 33
0.0
 40
0.0
 40
0.0
 40
0.0
 40
0.0
 40
0.2517064547
 40
1.0
 40
1.0
 40
1.0
 40
1.0
 10
5.3448964625
 20
-17.6976909144
 30
0.0
 10
5.3554157381
 20
-17.7158339811
 30
0.0
 10
5.4007981015
 20
-17.7857569822
 30
0.0
 10
5.4600146984
 20
-17.846820799
 30
0.0
 10
5.5099210075
 20
-17.8841912998
 30
0.0
 11
5.3448964625
 21
-17.6976909144
 31
0.0
 11
5.3791382893
 21
-17.7504728388
 31
0.0
 11
5.5099210075
 21
-17.8841912998
 31
0.0
  0
SPLINE
  5
3A2
100
AcDbEntity
  8
0
100
AcDbSpline
 62
253
  6
CONTINUOUS
 70
0
 71
3
 72
9
 73
5
 74
3
 42
0.0000001
 43
0.0000001
 44
0.0000000001
 12
0.2255292924
 22
-0.1421710173
 32
0.0
 13
0.2665726465
 23
0.0038838162
 33
0.0
 40
0.0
 40
0.0
 40
0.0
 40
0.0
 40
0.2639724431
 40
1.0
 40
1.0
 40
1.0
 40
1.0
 10
5.5478783063
 20
-17.9103232828
 30
0.0
 10
5.5677228124
 20
-17.9228330263
 30
0.0
 10
5.6456179854
 20
-17.9655137078
 30
0.0
 10
5.7357689055
 20
-17.9878425179
 30
0.0
 10
5.8011705101
 20
-17.9868896527
 30
0.0
 11
5.5478783063
 21
-17.9103232828
 31
0.0
 11
5.6097011689
 21
-17.9439479259
 31
0.0
 11
5.8011705101
 21
-17.9868896527
 31
0.0
  0
SPLINE
  5
3A3
100
AcDbEntity
  8
0
100
AcDbSpline
 62
253
  6
CONTINUOUS
 70
0
 71
3
 72
9
 73
5
 74
3
 42
0.0000001
 43
0.0000001
 44
0.0000000001
 12
0.1090441349
 22
0.0015887128
 32
0.0
 13
0.1032523959
 23
0.0351011409
 33
0.0
 40
0.0
 40
0.0
 40
0.0
 40
0.0
 40
0.2554140764
 40
1.0
 40
1.0
 40
1.0
 40
1.0
 10
5.8011705101
 20
-17.9868896527
 30
0.0
 10
5.8104543124
 20
-17.9867543928
 30
0.0
 10
5.8467658388
 20
-17.9849012065
 30
0.0
 10
5.8828344589
 20
-17.9774970221
 30
0.0
 10
5.9084612191
 20
-17.9687850837
 30
0.0
 11
5.8011705101
 21
-17.9868896527
 31
0.0
 11
5.828987416
 21
-17.9854456062
 31
0.0
 11
5.9084612191
 21
-17.9687850837
 31
0.0
  0
SPLINE
  5
3A4
100
AcDbEntity
  8
0
100
AcDbSpline
 62
253
  6
CONTINUOUS
 70
0
 71
3
 72
11
 73
7
 74
5
 42
0.0000001
 43
0.0000001
 44
0.0000000001
 12
-0.0
 22
-0.3147155086
 32
0.0
 13
0.2813043764
 23
-0.1411159069
 33
0.0
 40
0.0
 40
0.0
 40
0.0
 40
0.0
 40
0.2895753039
 40
0.54962149
 40
0.7828322574
 40
1.0
 40
1.0
 40
1.0
 40
1.0
 10
5.1908836336
 20
-17.6206845
 30
0.0
 10
5.1908836336
 20
-17.6510624463
 30
0.0
 10
5.1958128498
 20
-17.7089343165
 30
0.0
 10
5.2204908521
 20
-17.7881023546
 30
0.0
 10
5.2618094684
 20
-17.8514935691
 30
0.0
 10
5.3003426549
 20
-17.8808395641
 30
0.0
 10
5.320706067
 20
-17.8910548384
 30
0.0
 11
5.1908836336
 21
-17.6206845
 31
0.0
 11
5.1995189106
 21
-17.711408304
 31
0.0
 11
5.2249885871
 21
-17.7891847407
 31
0.0
 11
5.2660509595
 21
-17.8500182368
 31
0.0
 11
5.320706067
 21
-17.8910548384
 31
0.0
  0
SPLINE
  5
3A5
100
AcDbEntity
  8
0
100
AcDbSpline
 62
253
  6
CONTINUOUS
 70
0
 71
3
 72
11
 73
7
 74
5
 42
0.0000001
 43
0.0000001
 44
0.0000000001
 12
-0.0762458957
 22
-0.717360559
 32
0.0
 13
-0.6986972087
 23
-0.1795600701
 33
0.0
 40
0.0
 40
0.0
 40
0.0
 40
0.0
 40
0.2984288793
 40
0.5619578885
 40
0.7917977847
 40
1.0
 40
1.0
 40
1.0
 40
1.0
 10
5.8770818801
 20
-15.8438051455
 30
0.0
 10
5.869497221
 20
-15.9151655147
 30
0.0
 10
5.8437084658
 20
-16.0488522262
 30
0.0
 10
5.7666270331
 20
-16.2250898735
 30
0.0
 10
5.6554815651
 20
-16.3561540043
 30
0.0
 10
5.5585473203
 20
-16.4059304766
 30
0.0
 10
5.5100572181
 20
-16.418392078
 30
0.0
 11
5.8770818801
 21
-15.8438051455
 31
0.0
 11
5.833951593
 21
-16.0547275067
 31
0.0
 11
5.7547505425
 21
-16.2275541669
 31
0.0
 11
5.6444722056
 21
-16.3513708512
 31
0.0
 11
5.5100572181
 21
-16.418392078
 31
0.0
  0
SPLINE
  5
3A6
100
AcDbEntity
  8
0
100
AcDbSpline
 62
253
  6
CONTINUOUS
 70
0
 71
3
 72
9
 73
5
 74
3
 42
0.0000001
 43
0.0000001
 44
0.0000000001
 12
0.8926884683
 22
-0.1277614548
 32
0.0
 13
0.8399689389
 23
0.3281278293
 33
0.0
 40
0.0
 40
0.0
 40
0.0
 40
0.0
 40
0.5169239599
 40
1.0
 40
1.0
 40
1.0
 40
1.0
 10
4.9862970082
 20
-15.9305036002
 30
0.0
 10
5.1401143609
 20
-15.9525179193
 30
0.0
 10
5.4433495253
 20
-15.9585561213
 30
0.0
 10
5.7418255905
 20
-15.8966420429
 30
0.0
 10
5.8770818801
 20
-15.8438051455
 30
0.0
 11
4.9862970082
 21
-15.9305036002
 31
0.0
 11
5.4523417241
 21
-15.9406029472
 31
0.0
 11
5.8770818801
 21
-15.8438051455
 31
0.0
  0
SPLINE
  5
3A7
100
AcDbEntity
  8
0
100
AcDbSpline
 62
253
  6
CONTINUOUS
 70
0
 71
3
 72
11
 73
7
 74
5
 42
0.0000001
 43
0.0000001
 44
0.0000000001
 12
-0.2152341163
 22
0.1076170582
 32
0.0
 13
-0.0000687113
 23
0.2406390478
 33
0.0
 40
0.0
 40
0.0
 40
0.0
 40
0.0
 40
0.3023273055
 40
0.5655409481
 40
0.7934452743
 40
1.0
 40
1.0
 40
1.0
 40
1.0
 10
5.1908836336
 20
15.8891397439
 30
0.0
 10
5.1691932501
 20
15.8999849357
 30
0.0
 10
5.1299703894
 20
15.9232903291
 30
0.0
 10
5.0823183522
 20
15.9662938315
 30
0.0
 10
5.051743426
 20
16.0142252765
 30
0.0
 10
5.0444613193
 20
16.0493465743
 30
0.0
 10
5.0444565884
 20
16.0659149518
 30
0.0
 11
5.1908836336
 21
15.8891397439
 31
0.0
 11
5.1287603194
 21
15.9270014937
 31
0.0
 11
5.0824877391
 21
15.9702535273
 31
0.0
 11
5.0540432112
 21
16.0171430638
 31
0.0
 11
5.0444565884
 21
16.0659149518
 31
0.0
  0
SPLINE
  5
3A8
100
AcDbEntity
  8
0
100
AcDbSpline
 62
253
  6
CONTINUOUS
 70
0
 71
3
 72
11
 73
7
 74
5
 42
0.0000001
 43
0.0000001
 44
0.0000000001
 12
-0.5976423364
 22
-0.3629798247
 32
0.0
 13
0.0
 23
-0.6992358082
 33
0.0
 40
0.0
 40
0.0
 40
0.0
 40
0.0
 40
0.2348049211
 40
0.493650394
 40
0.7559314795
 40
1.0
 40
1.0
 40
1.0
 40
1.0
 10
5.5135652709
 20
16.4818393486
 30
0.0
 10
5.466788817
 20
16.4534295322
 30
0.0
 10
5.3787797312
 20
16.3764107411
 30
0.0
 10
5.2775224305
 20
16.2305588699
 30
0.0
 10
5.2094265219
 20
16.0642516437
 30
0.0
 10
5.1908836336
 20
15.9460268936
 30
0.0
 10
5.1908836336
 20
15.8891397439
 30
0.0
 11
5.5135652709
 21
16.4818393486
 31
0.0
 11
5.3880169369
 21
16.3760376257
 31
0.0
 11
5.2837629627
 21
16.2280851151
 31
0.0
 11
5.2149207267
 21
16.0580999416
 31
0.0
 11
5.1908836336
 21
15.8891397439
 31
0.0
  0
SPLINE
  5
3A9
100
AcDbEntity
  8
0
100
AcDbSpline
 62
253
  6
CONTINUOUS
 70
0
 71
3
 72
11
 73
7
 74
5
 42
0.0000001
 43
0.0000001
 44
0.0000000001
 12
0.0000000003
 22
0.7134104066
 32
0.0
 13
0.6213428744
 23
0.3505530497
 33
0.0
 40
0.0
 40
0.0
 40
0.0
 40
0.0
 40
0.2453934825
 40
0.5088535427
 40
0.7675249623
 40
1.0
 40
1.0
 40
1.0
 40
1.0
 10
5.3448964625
 20
15.8121333295
 30
0.0
 10
5.3448964626
 20
15.8704887508
 30
0.0
 10
5.3643794947
 20
15.9917062598
 30
0.0
 10
5.4354807585
 20
16.1613811707
 30
0.0
 10
5.5406208428
 20
16.3085936911
 30
0.0
 10
5.6317973956
 20
16.3849125759
 30
0.0
 10
5.6799462983
 20
16.4120775204
 30
0.0
 11
5.3448964625
 21
15.8121333295
 31
0.0
 11
5.3701194427
 21
15.9853730423
 31
0.0
 11
5.4421317704
 21
16.1589857221
 31
0.0
 11
5.5505797106
 21
16.3082962826
 31
0.0
 11
5.6799462983
 21
16.4120775204
 31
0.0
  0
SPLINE
  5
3AA
100
AcDbEntity
  8
0
100
AcDbSpline
 62
253
  6
CONTINUOUS
 70
0
 71
3
 72
9
 73
5
 74
3
 42
0.0000001
 43
0.0000001
 44
0.0000000001
 12
0.1488515139
 22
-0.0779308928
 32
0.0
 13
0.1183733587
 23
-0.1192381869
 33
0.0
 40
0.0
 40
0.0
 40
0.0
 40
0.0
 40
0.2336861424
 40
1.0
 40
1.0
 40
1.0
 40
1.0
 10
5.6799462983
 20
16.4120775204
 30
0.0
 10
5.6915411437
 20
16.4060070638
 30
0.0
 10
5.7399268987
 20
16.3776858815
 30
0.0
 10
5.7832712713
 20
16.341224827
 30
0.0
 10
5.8135083197
 20
16.3107668687
 30
0.0
 11
5.6799462983
 21
16.4120775204
 31
0.0
 11
5.7138799986
 21
16.3923260161
 31
0.0
 11
5.8135083197
 21
16.3107668687
 31
0.0
  0
SPLINE
  5
3AB
100
AcDbEntity
  8
0
100
AcDbSpline
 62
253
  6
CONTINUOUS
 70
0
 71
3
 72
9
 73
5
 74
3
 42
0.0000001
 43
0.0000001
 44
0.0000000001
 12
0.1339087914
 22
-0.1348871205
 32
0.0
 13
0.0982499575
 23
-0.1627053949
 33
0.0
 40
0.0
 40
0.0
 40
0.0
 40
0.0
 40
0.2425774679
 40
1.0
 40
1.0
 40
1.0
 40
1.0
 10
5.8135083197
 20
16.3107668687
 30
0.0
 10
5.8243360715
 20
16.29986001
 30
0.0
 10
5.8674773071
 20
16.2534268008
 30
0.0
 10
5.9047981048
 20
16.2016750666
 30
0.0
 10
5.929603682
 20
16.1605961558
 30
0.0
 11
5.8135083197
 21
16.3107668687
 31
0.0
 11
5.844923758
 21
16.277019747
 31
0.0
 11
5.929603682
 21
16.1605961558
 31
0.0
  0
SPLINE
  5
3AC
100
AcDbEntity
  8
0
100
AcDbSpline
 62
253
  6
CONTINUOUS
 70
0
 71
3
 72
10
 73
6
 74
4
 42
0.0000001
 43
0.0000001
 44
0.0000000001
 12
-0.6010023656
 22
-0.3066880111
 32
0.0
 13
-0.546335169
 23
-0.3959536118
 33
0.0
 40
0.0
 40
0.0
 40
0.0
 40
0.0
 40
0.5306972173
 40
0.7913788392
 40
1.0
 40
1.0
 40
1.0
 40
1.0
 10
5.9239296075
 20
16.1577070988
 30
0.0
 10
5.8176128465
 20
16.1034542742
 30
0.0
 10
5.6623529771
 20
16.0160559611
 30
0.0
 10
5.4708247855
 20
15.8981714588
 30
0.0
 10
5.3828888215
 20
15.8396680971
 30
0.0
 10
5.3448964624
 20
15.8121333297
 30
0.0
 11
5.9239296075
 21
16.1577070988
 31
0.0
 11
5.6110376024
 21
15.9835858852
 31
0.0
 11
5.4614550109
 21
15.8910532234
 31
0.0
 11
5.3448964624
 21
15.8121333297
 31
0.0
  0
SPLINE
  5
3AD
100
AcDbEntity
  8
0
100
AcDbSpline
 62
253
  6
CONTINUOUS
 70
0
 71
3
 72
10
 73
6
 74
4
 42
0.0000001
 43
0.0000001
 44
0.0000000001
 12
0.5514881768
 22
0.3996882278
 32
0.0
 13
0.6072266962
 23
0.3084892672
 33
0.0
 40
0.0
 40
0.0
 40
0.0
 40
0.0
 40
0.2088782603
 40
0.4701228336
 40
1.0
 40
1.0
 40
1.0
 40
1.0
 10
6.2167898212
 20
14.3083397307
 30
0.0
 10
6.2551877849
 20
14.3361684579
 30
0.0
 10
6.344128789
 20
14.395298052
 30
0.0
 10
6.5375224486
 20
14.5141953351
 30
0.0
 10
6.694245187
 20
14.6023154174
 30
0.0
 10
6.8014970407
 20
14.656802557
 30
0.0
 11
6.2167898212
 21
14.3083397307
 31
0.0
 11
6.3346122042
 21
14.3880734195
 31
0.0
 11
6.4859767822
 21
14.4816076854
 31
0.0
 11
6.8014970407
 21
14.656802557
 31
0.0
  0
SPLINE
  5
3AE
100
AcDbEntity
  8
0
100
AcDbSpline
 62
253
  6
CONTINUOUS
 70
0
 71
3
 72
9
 73
5
 74
3
 42
0.0000001
 43
0.0000001
 44
0.0000000001
 12
0.1564777521
 22
-0.3452015863
 32
0.0
 13
-0.0163629791
 23
-0.378657728
 33
0.0
 40
0.0
 40
0.0
 40
0.0
 40
0.0
 40
0.5145284384
 40
1.0
 40
1.0
 40
1.0
 40
1.0
 10
6.8015099851
 20
14.6567815708
 30
0.0
 10
6.828347403
 20
14.5975762264
 30
0.0
 10
6.8679738132
 20
14.4765336162
 30
0.0
 10
6.8808246622
 20
14.3493863421
 30
0.0
 10
6.8781767418
 20
14.2881104893
 30
0.0
 11
6.8015099851
 21
14.6567815708
 31
0.0
 11
6.8620366838
 21
14.4714003503
 31
0.0
 11
6.8781767418
 21
14.2881104893
 31
0.0
  0
SPLINE
  5
3AF
100
AcDbEntity
  8
0
100
AcDbSpline
 62
253
  6
CONTINUOUS
 70
0
 71
3
 72
11
 73
7
 74
5
 42
0.0000001
 43
0.0000001
 44
0.0000000001
 12
-0.6305845581
 22
-0.2463285134
 32
0.0
 13
-0.6055177101
 23
0.302758855
 33
0.0
 40
0.0
 40
0.0
 40
0.0
 40
0.0
 40
0.2435948412
 40
0.5081566514
 40
0.7683796831
 40
1.0
 40
1.0
 40
1.0
 40
1.0
 10
6.8781717364
 20
14.2881128731
 30
0.0
 10
6.8269693547
 20
14.2681114214
 30
0.0
 10
6.7146100792
 20
14.2403517323
 30
0.0
 10
6.5406765812
 20
14.2303992309
 30
0.0
 10
6.3703446598
 20
14.2503607815
 30
0.0
 10
6.2635398892
 20
14.2849646967
 30
0.0
 10
6.2167898212
 20
14.3083397307
 30
0.0
 11
6.8781717364
 21
14.2881128731
 31
0.0
 11
6.7186327715
 21
14.246363665
 31
0.0
 11
6.5398515409
 21
14.2355903357
 31
0.0
 11
6.3650098431
 21
14.2571686967
 31
0.0
 11
6.2167898212
 21
14.3083397307
 31
0.0
  0
SPLINE
  5
3B0
100
AcDbEntity
  8
0
100
AcDbSpline
 62
7
  6
CONTINUOUS
 70
0
 71
3
 72
14
 73
10
 74
8
 42
0.0000001
 43
0.0000001
 44
0.0000000001
 12
-0.6625791775
 22
0.6898406229
 32
0.0
 13
-0.5799396973
 23
0.7606321048
 33
0.0
 40
0.0
 40
0.0
 40
0.0
 40
0.0
 40
0.2111160114
 40
0.3292006101
 40
0.4548225737
 40
0.5868455156
 40
0.7234380642
 40
0.8624563324
 40
1.0
 40
1.0
 40
1.0
 40
1.0
 10
6.8781717364
 20
12.7889159976
 30
0.0
 10
6.8315447121
 20
12.8374614645
 30
0.0
 10
6.7572644501
 20
12.9116344323
 30
0.0
 10
6.6542860026
 20
13.0137346597
 30
0.0
 10
6.5678855269
 20
13.0967136548
 30
0.0
 10
6.4777321634
 20
13.1843282368
 30
0.0
 10
6.3885023829
 20
13.2788735834
 30
0.0
 10
6.3002488982
 20
13.376650137
 30
0.0
 10
6.2433788322
 20
13.444141034
 30
0.0
 10
6.2167898212
 20
13.4790144104
 30
0.0
 11
6.8781717364
 21
12.7889159976
 31
0.0
 11
6.7361679047
 21
12.9324833603
 31
0.0
 11
6.6557900616
 21
13.0118346095
 31
0.0
 11
6.569435619
 21
13.0953851763
 31
0.0
 11
6.4794117984
 21
13.1839420426
 31
0.0
 11
6.3893913384
 21
13.2786305983
 31
0.0
 11
6.3004913151
 21
13.3775146028
 31
0.0
 11
6.2167898212
 21
13.4790144104
 31
0.0
  0
SPLINE
  5
3B1
100
AcDbEntity
  8
0
100
AcDbSpline
 62
7
  6
CONTINUOUS
 70
0
 71
3
 72
9
 73
5
 74
3
 42
0.0000001
 43
0.0000001
 44
0.0000000001
 12
0.0396578276
 22
-0.0148373296
 32
0.0
 13
0.037872308
 23
-0.018936154
 33
0.0
 40
0.0
 40
0.0
 40
0.0
 40
0.0
 40
0.5006442627
 40
1.0
 40
1.0
 40
1.0
 40
1.0
 10
-0.316786232
 20
20.8345253407
 30
0.0
 10
-0.3101680774
 20
20.8320492661
 30
0.0
 10
-0.2973814674
 20
20.8260382807
 30
0.0
 10
-0.2842660501
 20
20.8207815161
 30
0.0
 10
-0.277962132
 20
20.817629557
 30
0.0
 11
-0.316786232
 21
20.8345253407
 31
0.0
 11
-0.2972825777
 21
20.8262195768
 31
0.0
 11
-0.277962132
 21
20.817629557
 31
0.0
  0
SPLINE
  5
3B2
100
AcDbEntity
  8
0
100
AcDbSpline
 62
253
  6
CONTINUOUS
 70
0
 71
3
 72
12
 73
8
 74
6
 42
0.0000001
 43
0.0000001
 44
0.0000000001
 12
0.0
 22
-2.9937271669
 32
0.0
 13
-2.6777164566
 23
-1.3387445342
 33
0.0
 40
0.0
 40
0.0
 40
0.0
 40
0.0
 40
0.2895070958
 40
0.5491143013
 40
0.7821797604
 40
0.8921642748
 40
1.0
 40
1.0
 40
1.0
 40
1.0
 10
-7.3624494871
 20
-4.877509484
 30
0.0
 10
-7.3624494871
 20
-5.1664112365
 30
0.0
 10
-7.4092267515
 20
-5.7165358218
 30
0.0
 10
-7.6436981731
 20
-6.4685310785
 30
0.0
 10
-7.9788978146
 20
-6.980787911
 30
0.0
 10
-8.314752079
 20
-7.2832479565
 30
0.0
 10
-8.5006912048
 20
-7.3985380378
 30
0.0
 10
-8.5969423702
 20
-7.4466595337
 30
0.0
 11
-7.3624494871
 21
-4.877509484
 31
0.0
 11
-7.4445263477
 21
-5.7403196559
 31
0.0
 11
-7.6867340788
 21
-6.4788077044
 31
0.0
 11
-8.0772309452
 21
-7.0570338586
 31
0.0
 11
-8.3223925629
 21
-7.2768299421
 31
0.0
 11
-8.5969423702
 21
-7.4466595337
 31
0.0
  0
SPLINE
  5
3B3
100
AcDbEntity
  8
0
100
AcDbSpline
 62
253
  6
CONTINUOUS
 70
0
 71
3
 72
23
 73
19
 74
17
 42
0.0000001
 43
0.0000001
 44
0.0000000001
 12
0.0
 22
-11.5438763146
 32
0.0
 13
-0.0
 23
11.5438763146
 33
0.0
 40
0.0
 40
0.0
 40
0.0
 40
0.0
 40
0.0634351674
 40
0.1210947318
 40
0.1733525584
 40
0.2216454781
 40
0.2684422256
 40
0.3166639236
 40
0.3687976757
 40
0.4263123227
 40
0.4896016429
 40
0.558191349
 40
0.6309824914
 40
0.7064621826
 40
0.7828778731
 40
0.858404724
 40
0.9312844597
 40
1.0
 40
1.0
 40
1.0
 40
1.0
 10
-7.7160028777
 20
-4.877509484
 30
0.0
 10
-7.7160028777
 20
-5.1216053927
 30
0.0
 10
-7.7514674543
 20
-5.5889165173
 30
0.0
 10
-7.9273593974
 20
-6.2372114572
 30
0.0
 10
-8.2206335773
 20
-6.7783463372
 30
0.0
 10
-8.6255071399
 20
-7.1878497024
 30
0.0
 10
-9.1265882841
 20
-7.4410511476
 30
0.0
 10
-9.6957969788
 20
-7.5236070649
 30
0.0
 10
-10.303980792
 20
-7.4377527782
 30
0.0
 10
-10.928125268
 20
-7.1932809533
 30
0.0
 10
-11.5473733783
 20
-6.8022136107
 30
0.0
 10
-12.140519537
 20
-6.2797978192
 30
0.0
 10
-12.6863929269
 20
-5.6454844114
 30
0.0
 10
-13.1649614507
 20
-4.9228473303
 30
0.0
 10
-13.5584474636
 20
-4.138883896
 30
0.0
 10
-13.8521166007
 20
-3.3228119579
 30
0.0
 10
-14.034995954
 20
-2.5053498866
 30
0.0
 10
-14.0799639083
 20
-1.9599435346
 30
0.0
 10
-14.0799639083
 20
-1.6955289686
 30
0.0
 11
-7.7160028777
 21
-4.877509484
 31
0.0
 11
-7.777144013
 21
-5.6072403079
 31
0.0
 11
-7.9582186461
 21
-6.2477519364
 31
0.0
 11
-8.2522649765
 21
-6.7744936502
 31
0.0
 11
-8.647981255
 21
-7.1671779135
 31
0.0
 11
-9.1301730437
 21
-7.4107436326
 31
0.0
 11
-9.6803000121
 21
-7.4958118105
 31
0.0
 11
-10.2772189044
 21
-7.4191184479
 31
0.0
 11
-10.8979893954
 21
-7.1836127408
 31
0.0
 11
-11.5187572435
 21
-6.7983471096
 31
0.0
 11
-12.1156689643
 21
-6.2781264662
 31
0.0
 11
-12.6657876994
 21
-5.6429415081
 31
0.0
 11
-13.147974726
 21
-4.9171946255
 31
0.0
 11
-13.5436915017
 21
-4.1287991945
 31
0.0
 11
-13.8377418721
 21
-3.3080091763
 31
0.0
 11
-14.0188208392
 21
-2.4864127083
 31
0.0
 11
-14.0799639083
 21
-1.6955289686
 31
0.0
  0
SPLINE
  5
3B4
100
AcDbEntity
  8
0
100
AcDbSpline
 62
253
  6
CONTINUOUS
 70
0
 71
3
 72
23
 73
19
 74
17
 42
0.0000001
 43
0.0000001
 44
0.0000000001
 12
0.0
 22
11.5438763146
 32
0.0
 13
0.0
 23
-11.5438763146
 33
0.0
 40
0.0
 40
0.0
 40
0.0
 40
0.0
 40
0.0634351674
 40
0.1210947318
 40
0.1733525584
 40
0.2216454781
 40
0.2684422256
 40
0.3166639236
 40
0.3687976757
 40
0.4263123227
 40
0.4896016429
 40
0.558191349
 40
0.6309824914
 40
0.7064621826
 40
0.7828778731
 40
0.858404724
 40
0.9312844597
 40
1.0
 40
1.0
 40
1.0
 40
1.0
 10
-14.0799639083
 20
-1.6955289686
 30
0.0
 10
-14.0799639083
 20
-1.4514330599
 30
0.0
 10
-14.0444993317
 20
-0.9841219353
 30
0.0
 10
-13.8686073887
 20
-0.3358269953
 30
0.0
 10
-13.5753332087
 20
0.2053078846
 30
0.0
 10
-13.1704596461
 20
0.6148112499
 30
0.0
 10
-12.6693785019
 20
0.8680126951
 30
0.0
 10
-12.1001698072
 20
0.9505686124
 30
0.0
 10
-11.491985994
 20
0.8647143256
 30
0.0
 10
-10.8678415181
 20
0.6202425008
 30
0.0
 10
-10.2485934077
 20
0.2291751582
 30
0.0
 10
-9.6554472491
 20
-0.2932406334
 30
0.0
 10
-9.1095738591
 20
-0.9275540411
 30
0.0
 10
-8.6310053353
 20
-1.6501911223
 30
0.0
 10
-8.2375193224
 20
-2.4341545566
 30
0.0
 10
-7.9438501853
 20
-3.2502264947
 30
0.0
 10
-7.760970832
 20
-4.067688566
 30
0.0
 10
-7.7160028777
 20
-4.6130949179
 30
0.0
 10
-7.7160028777
 20
-4.877509484
 30
0.0
 11
-14.0799639083
 21
-1.6955289686
 31
0.0
 11
-14.018822773
 21
-0.9657981446
 31
0.0
 11
-13.8377481399
 21
-0.3252865162
 31
0.0
 11
-13.5437018095
 21
0.2014551976
 31
0.0
 11
-13.147985531
 21
0.5941394609
 31
0.0
 11
-12.6657937424
 21
0.83770518
 31
0.0
 11
-12.1156667739
 21
0.9227733579
 31
0.0
 11
-11.5187478817
 21
0.8460799953
 31
0.0
 11
-10.8979773906
 21
0.6105742882
 31
0.0
 11
-10.2772095425
 21
0.225308657
 31
0.0
 11
-9.6802978218
 21
-0.2949119864
 31
0.0
 11
-9.1301790867
 21
-0.9300969445
 31
0.0
 11
-8.64799206
 21
-1.655843827
 31
0.0
 11
-8.2522752843
 21
-2.4442392581
 31
0.0
 11
-7.958224914
 21
-3.2650292762
 31
0.0
 11
-7.7771459468
 21
-4.0866257443
 31
0.0
 11
-7.7160028777
 21
-4.877509484
 31
0.0
  0
SPLINE
  5
3B5
100
AcDbEntity
  8
0
100
AcDbSpline
 62
253
  6
CONTINUOUS
 70
0
 71
3
 72
23
 73
19
 74
17
 42
0.0000001
 43
0.0000001
 44
0.0000000001
 12
-9.9912174246
 22
4.9956087123
 32
0.0
 13
9.9912174246
 23
-4.9956087123
 33
0.0
 40
0.0
 40
0.0
 40
0.0
 40
0.0
 40
0.057515806
 40
0.1096476879
 40
0.157869379
 40
0.2046647666
 40
0.252959047
 40
0.3052168476
 40
0.362878447
 40
0.4263122551
 40
0.4950250296
 40
0.5679048375
 40
0.6434302618
 40
0.7198474516
 40
0.7953257475
 40
0.8681183947
 40
0.9367081494
 40
1.0
 40
1.0
 40
1.0
 40
1.0
 10
-10.8979794862
 20
0.4845512258
 30
0.0
 10
-11.0895304607
 20
0.580326713
 30
0.0
 10
-11.4729119036
 20
0.7305432966
 30
0.0
 10
-12.0612585261
 20
0.813520841
 30
0.0
 10
-12.6120857518
 20
0.7336627015
 30
0.0
 10
-13.0969486336
 20
0.4886411013
 30
0.0
 10
-13.4887252321
 20
0.0923721138
 30
0.0
 10
-13.7725264496
 20
-0.4312371306
 30
0.0
 10
-13.9427117674
 20
-1.0587123535
 30
0.0
 10
-13.9965218874
 20
-1.7668979326
 30
0.0
 10
-13.9335246094
 20
-2.5304570672
 30
0.0
 10
-13.7565744627
 20
-3.3216544936
 30
0.0
 10
-13.4724053416
 20
-4.11128029
 30
0.0
 10
-13.0916515467
 20
-4.8699052213
 30
0.0
 10
-12.6285852599
 20
-5.5691684791
 30
0.0
 10
-12.1002991622
 20
-6.1830009147
 30
0.0
 10
-11.5265654362
 20
-6.6884298905
 30
0.0
 10
-11.1087764697
 20
-6.9521951899
 30
0.0
 10
-10.8979889229
 20
-7.0575889634
 30
0.0
 11
-10.8979794862
 21
0.4845512258
 31
0.0
 11
-11.4986851364
 21
0.7124441829
 31
0.0
 11
-12.0762788465
 21
0.7866445089
 31
0.0
 11
-12.6086135109
 21
0.7043286111
 31
0.0
 11
-13.0751948553
 21
0.4686438787
 31
0.0
 11
-13.458121024
 21
0.088646687
 31
0.0
 11
-13.7426581219
 21
-0.4210581442
 31
0.0
 11
-13.9178741092
 21
-1.0408784122
 31
0.0
 11
-13.9770366923
 21
-1.7469929097
 31
0.0
 11
-13.9178745528
 21
-2.5122669174
 31
0.0
 11
-13.7426616395
 21
-3.3072939851
 31
0.0
 11
-13.4581311427
 21
-4.1015242706
 31
0.0
 11
-13.0752128851
 21
-4.864439972
 31
0.0
 11
-12.6086366987
 21
-5.5667063061
 31
0.0
 11
-12.0763026263
 21
-6.1813636992
 31
0.0
 11
-11.4987028802
 21
-6.684767454
 31
0.0
 11
-10.8979889229
 21
-7.0575889634
 31
0.0
  0
SPLINE
  5
3B6
100
AcDbEntity
  8
0
100
AcDbSpline
 62
253
  6
CONTINUOUS
 70
0
 71
3
 72
23
 73
19
 74
17
 42
0.0000001
 43
0.0000001
 44
0.0000000001
 12
9.8839071461
 22
-4.9419535731
 32
0.0
 13
-9.7125461945
 23
5.2707657899
 33
0.0
 40
0.0
 40
0.0
 40
0.0
 40
0.0
 40
0.0575306799
 40
0.1097281162
 40
0.1580143988
 40
0.2047969389
 40
0.252937283
 40
0.3048862142
 40
0.3621184826
 40
0.4250636645
 40
0.4932996257
 40
0.5657863991
 40
0.6410696465
 40
0.7174526445
 40
0.7931462637
 40
0.8664228305
 40
0.9357510082
 40
1.0
 40
1.0
 40
1.0
 40
1.0
 10
-10.8979889229
 20
-7.0575889634
 30
0.0
 10
-10.7084462902
 20
-7.1523602797
 30
0.0
 10
-10.3291162946
 20
-7.3013898374
 30
0.0
 10
-9.7470666349
 20
-7.3858564938
 30
0.0
 10
-9.2013395847
 20
-7.3113547368
 30
0.0
 10
-8.7191528932
 20
-7.0754092184
 30
0.0
 10
-8.3268552105
 20
-6.690785067
 30
0.0
 10
-8.0394630824
 20
-6.1802435184
 30
0.0
 10
-7.862851329
 20
-5.5665021533
 30
0.0
 10
-7.7999128443
 20
-4.8718839902
 30
0.0
 10
-7.8513298798
 20
-4.1207265843
 30
0.0
 10
-8.0146878442
 20
-3.3397040857
 30
0.0
 10
-8.2838771827
 20
-2.5570048881
 30
0.0
 10
-8.6490367126
 20
-1.8011608528
 30
0.0
 10
-9.0967618816
 20
-1.0998167083
 30
0.0
 10
-9.610863831
 20
-0.4785990155
 30
0.0
 10
-10.1724743321
 20
0.039817298
 30
0.0
 10
-10.5830827067
 20
0.315943909
 30
0.0
 10
-10.7910898068
 20
0.4288243716
 30
0.0
 11
-10.8979889229
 21
-7.0575889634
 31
0.0
 11
-10.3038465346
 21
-7.2837900475
 31
0.0
 11
-9.7320580328
 21
-7.3597358876
 31
0.0
 11
-9.2040739341
 21
-7.2825947476
 31
0.0
 11
-8.7397718272
 21
-7.0552532773
 31
0.0
 11
-8.3565757543
 21
-6.6862542322
 31
0.0
 11
-8.0689064993
 21
-6.1894687389
 31
0.0
 11
-7.8875745078
 21
-5.5835736887
 31
0.0
 11
-7.8193943985
 21
-4.8913447262
 31
0.0
 11
-7.8669265145
 21
-4.1387998398
 31
0.0
 11
-8.0283836726
 21
-3.3542223203
 31
0.0
 11
-8.297697081
 21
-2.5670993405
 31
0.0
 11
-8.6647487454
 21
-1.8070115364
 31
0.0
 11
-9.1157280608
 21
-1.1025431118
 31
0.0
 11
-9.6337163014
 21
-0.4801472073
 31
0.0
 11
-10.1991794179
 21
0.0367495515
 31
0.0
 11
-10.7910898068
 21
0.4288243716
 31
0.0
  0
SPLINE
  5
3B7
100
AcDbEntity
  8
0
100
AcDbSpline
 62
253
  6
CONTINUOUS
 70
0
 71
3
 72
15
 73
11
 74
9
 42
0.0000001
 43
0.0000001
 44
0.0000000001
 12
6.2525124668
 22
-3.1262562334
 32
0.0
 13
0.0
 23
-6.990521453
 33
0.0
 40
0.0
 40
0.0
 40
0.0
 40
0.0
 40
0.1103240026
 40
0.2298800165
 40
0.3567652898
 40
0.48833393
 40
0.6215366749
 40
0.753188176
 40
0.8802218838
 40
1.0
 40
1.0
 40
1.0
 40
1.0
 10
-10.7212066977
 20
0.9154897893
 30
0.0
 10
-10.4912726305
 20
0.8005227557
 30
0.0
 10
-10.0355374529
 20
0.51280613
 30
0.0
 10
-9.4096961668
 20
-0.0385321167
 30
0.0
 10
-8.8334188484
 20
-0.7081154341
 30
0.0
 10
-8.3282850644
 20
-1.4709034127
 30
0.0
 10
-7.9129318023
 20
-2.2984286049
 30
0.0
 10
-7.602954757
 20
-3.1598376478
 30
0.0
 10
-7.4099127849
 20
-4.0227065949
 30
0.0
 10
-7.3624494871
 20
-4.5984056536
 30
0.0
 10
-7.3624494871
 20
-4.877509484
 30
0.0
 11
-10.7212066977
 21
0.9154897893
 31
0.0
 11
-10.0659265789
 21
0.508805867
 31
0.0
 11
-9.4358762764
 21
-0.0403111716
 31
0.0
 11
-8.855182993
 21
-0.7107991023
 31
0.0
 11
-8.3462130858
 21
-1.4768664388
 31
0.0
 11
-7.9285078193
 21
-2.3090773557
 31
0.0
 11
-7.6181237566
 21
-3.1754705077
 31
0.0
 11
-7.426988531
 21
-4.0426889972
 31
0.0
 11
-7.3624494871
 21
-4.877509484
 31
0.0
  0
SPLINE
  5
3B8
100
AcDbEntity
  8
0
100
AcDbSpline
 62
253
  6
CONTINUOUS
 70
0
 71
3
 72
11
 73
7
 74
5
 42
0.0000001
 43
0.0000001
 44
0.0000000001
 12
1.6720624119
 22
-0.8360312059
 32
0.0
 13
1.6904024488
 23
0.7982984701
 33
0.0
 40
0.0
 40
0.0
 40
0.0
 40
0.0
 40
0.2788829283
 40
0.5351188752
 40
0.7729457154
 40
1.0
 40
1.0
 40
1.0
 40
1.0
 10
-10.718121519
 20
-6.7511375321
 30
0.0
 10
-10.5626849651
 20
-6.8288558091
 30
0.0
 10
-10.251852971
 20
-6.9550559253
 30
0.0
 10
-9.775575909
 20
-7.0475858565
 30
0.0
 10
-9.3221484645
 20
-7.0305058135
 30
0.0
 10
-9.0415108848
 20
-6.943194387
 30
0.0
 10
-8.9135731785
 20
-6.8827753576
 30
0.0
 11
-10.718121519
 21
-6.7511375321
 31
0.0
 11
-10.2335647551
 21
-6.943518972
 31
0.0
 11
-9.7625580129
 21
-7.0307334407
 31
0.0
 11
-9.3184298051
 21
-7.0102812554
 31
0.0
 11
-8.9135731785
 21
-6.8827753576
 31
0.0
  0
SPLINE
  5
3B9
100
AcDbEntity
  8
0
100
AcDbSpline
 62
253
  6
CONTINUOUS
 70
0
 71
3
 72
9
 73
5
 74
3
 42
0.0000001
 43
0.0000001
 44
0.0000000001
 12
-0.0923623345
 22
-0.0843872154
 32
0.0
 13
-0.1119104975
 23
-0.0559289147
 33
0.0
 40
0.0
 40
0.0
 40
0.0
 40
0.0
 40
0.2529381408
 40
1.0
 40
1.0
 40
1.0
 40
1.0
 10
-8.1305967849
 20
-3.2026304683
 30
0.0
 10
-8.1383841039
 20
-3.2097453834
 30
0.0
 10
-8.1700901682
 20
-3.2368504858
 30
0.0
 10
-8.2055542894
 20
-3.2595735019
 30
0.0
 10
-8.2334223109
 20
-3.2735009549
 30
0.0
 11
-8.1305967849
 21
-3.2026304683
 31
0.0
 11
-8.1546638817
 21
-3.223176856
 31
0.0
 11
-8.2334223109
 21
-3.2735009549
 31
0.0
  0
SPLINE
  5
3BA
100
AcDbEntity
  8
0
100
AcDbSpline
 62
253
  6
CONTINUOUS
 70
0
 71
3
 72
11
 73
7
 74
5
 42
0.0000001
 43
0.0000001
 44
0.0000000001
 12
-0.5481152155
 22
0.1068701029
 32
0.0
 13
-0.3139677703
 23
-0.4618178727
 33
0.0
 40
0.0
 40
0.0
 40
0.0
 40
0.0
 40
0.2625658502
 40
0.5077317556
 40
0.7487690667
 40
1.0
 40
1.0
 40
1.0
 40
1.0
 10
-9.0928736292
 20
-1.2297553451
 30
0.0
 10
-9.1408457417
 20
-1.2204018653
 30
0.0
 10
-9.2363629157
 20
-1.2129795931
 30
0.0
 10
-9.3747278233
 20
-1.2428367782
 30
0.0
 10
-9.4949726997
 20
-1.3137069906
 30
0.0
 10
-9.5567970736
 20
-1.3833830892
 30
0.0
 10
-9.5830898789
 20
-1.4220574009
 30
0.0
 11
-9.0928736292
 21
-1.2297553451
 31
0.0
 11
-9.2391833921
 21
-1.22012447
 31
0.0
 11
-9.3728042296
 21
-1.2499526226
 31
0.0
 11
-9.4888884997
 21
-1.3180899726
 31
0.0
 11
-9.5830898789
 21
-1.4220574009
 31
0.0
  0
SPLINE
  5
3BB
100
AcDbEntity
  8
0
100
AcDbSpline
 62
253
  6
CONTINUOUS
 70
0
 71
3
 72
15
 73
11
 74
9
 42
0.0000001
 43
0.0000001
 44
0.0000000001
 12
1.3384782498
 22
-0.6692391249
 32
0.0
 13
-1.4948471637
 23
0.0695484623
 33
0.0
 40
0.0
 40
0.0
 40
0.0
 40
0.0
 40
0.1289864171
 40
0.2735124872
 40
0.4241182162
 40
0.5696074208
 40
0.7002052176
 40
0.8109453211
 40
0.90594548
 40
1.0
 40
1.0
 40
1.0
 40
1.0
 10
-9.7271329744
 20
-2.1379721031
 30
0.0
 10
-9.6695844698
 20
-2.1667463554
 30
0.0
 10
-9.5584032509
 20
-2.2497718504
 30
0.0
 10
-9.4239012728
 20
-2.4150450122
 30
0.0
 10
-9.3230684977
 20
-2.6121737229
 30
0.0
 10
-9.267326569
 20
-2.8194214196
 30
0.0
 10
-9.2630618992
 20
-3.0145510329
 30
0.0
 10
-9.3127509591
 20
-3.1792462104
 30
0.0
 10
-9.4221111582
 20
-3.2921555286
 30
0.0
 10
-9.5206436307
 20
-3.31118595
 30
0.0
 10
-9.5675093415
 20
-3.3090055009
 30
0.0
 11
-9.7271329744
 21
-2.1379721031
 31
0.0
 11
-9.5701557642
 21
-2.2502941724
 31
0.0
 11
-9.4320780664
 21
-2.4167596645
 31
0.0
 11
-9.3294205446
 21
-2.61739817
 31
0.0
 11
-9.2745516733
 21
-2.8280902119
 31
0.0
 11
-9.2740628435
 21
-3.0235245252
 31
0.0
 11
-9.3280136914
 21
-3.1802151746
 31
0.0
 11
-9.4299223562
 21
-3.2793379373
 31
0.0
 11
-9.5675093415
 21
-3.3090055009
 31
0.0
  0
SPLINE
  5
3BC
100
AcDbEntity
  8
0
100
AcDbSpline
 62
253
  6
CONTINUOUS
 70
0
 71
3
 72
17
 73
13
 74
11
 42
0.0000001
 43
0.0000001
 44
0.0000000001
 12
-0.9596228027
 22
0.4798114013
 32
0.0
 13
0.9596228027
 23
-0.4798114013
 33
0.0
 40
0.0
 40
0.0
 40
0.0
 40
0.0
 40
0.1319133723
 40
0.280358331
 40
0.4325165958
 40
0.5056249912
 40
0.5745618317
 40
0.695493458
 40
0.7953915524
 40
0.8423381359
 40
0.8907175235
 40
1.0
 40
1.0
 40
1.0
 40
1.0
 10
-9.8356575967
 20
-3.1187597356
 30
0.0
 10
-9.87785329
 20
-3.0976618889
 30
0.0
 10
-9.9584790208
 20
-3.0345765241
 30
0.0
 10
-10.0515112511
 20
-2.9094383188
 30
0.0
 10
-10.1051291362
 20
-2.7854635259
 30
0.0
 10
-10.1281953915
 20
-2.682483264
 30
0.0
 10
-10.1358116055
 20
-2.5885944758
 30
0.0
 10
-10.1218135687
 20
-2.4835340455
 30
0.0
 10
-10.0643755041
 20
-2.3999702709
 30
0.0
 10
-10.0008367409
 20
-2.3679700928
 30
0.0
 10
-9.9273883128
 20
-2.357249529
 30
0.0
 10
-9.8706142488
 20
-2.3744745946
 30
0.0
 10
-9.8356575967
 20
-2.3919529207
 30
0.0
 11
-9.8356575967
 21
-3.1187597356
 31
0.0
 11
-9.9492258366
 21
-3.0343049198
 31
0.0
 11
-10.0454622996
 21
-2.9074035327
 31
0.0
 11
-10.1097828997
 21
-2.7573596459
 31
0.0
 11
-10.1266621054
 21
-2.680759988
 31
0.0
 11
-10.1323717494
 21
-2.6070189923
 31
0.0
 11
-10.1097913954
 21
-2.4792525375
 31
0.0
 11
-10.0454761205
 21
-2.3935142974
 31
0.0
 11
-10.0005284223
 21
-2.3707833376
 31
0.0
 11
-9.9492339662
 21
-2.3628403293
 31
0.0
 11
-9.8356575967
 21
-2.3919529207
 31
0.0
  0
SPLINE
  5
3BD
100
AcDbEntity
  8
0
100
AcDbSpline
 62
253
  6
CONTINUOUS
 70
0
 71
3
 72
17
 73
13
 74
11
 42
0.0000001
 43
0.0000001
 44
0.0000000001
 12
0.9596228027
 22
-0.4798114013
 32
0.0
 13
-0.9596228027
 23
0.4798114013
 33
0.0
 40
0.0
 40
0.0
 40
0.0
 40
0.0
 40
0.1319133723
 40
0.280358331
 40
0.4325165958
 40
0.5056249912
 40
0.5745618317
 40
0.695493458
 40
0.7953915524
 40
0.8423381359
 40
0.8907175235
 40
1.0
 40
1.0
 40
1.0
 40
1.0
 10
-9.8356575967
 20
-2.3919529207
 30
0.0
 10
-9.7934619034
 20
-2.4130507673
 30
0.0
 10
-9.7128361726
 20
-2.4761361322
 30
0.0
 10
-9.6198039423
 20
-2.6012743374
 30
0.0
 10
-9.5661860572
 20
-2.7252491304
 30
0.0
 10
-9.5431198018
 20
-2.8282293923
 30
0.0
 10
-9.5355035879
 20
-2.9221181804
 30
0.0
 10
-9.5495016247
 20
-3.0271786107
 30
0.0
 10
-9.6069396893
 20
-3.1107423854
 30
0.0
 10
-9.6704784525
 20
-3.1427425635
 30
0.0
 10
-9.7439268806
 20
-3.1534631273
 30
0.0
 10
-9.8007009446
 20
-3.1362380616
 30
0.0
 10
-9.8356575967
 20
-3.1187597356
 30
0.0
 11
-9.8356575967
 21
-2.3919529207
 31
0.0
 11
-9.7220893568
 21
-2.4764077365
 31
0.0
 11
-9.6258528938
 21
-2.6033091235
 31
0.0
 11
-9.5615322937
 21
-2.7533530103
 31
0.0
 11
-9.544653088
 21
-2.8299526683
 31
0.0
 11
-9.538943444
 21
-2.9036936639
 31
0.0
 11
-9.561523798
 21
-3.0314601188
 31
0.0
 11
-9.6258390728
 21
-3.1171983588
 31
0.0
 11
-9.6707867711
 21
-3.1399293186
 31
0.0
 11
-9.7220812272
 21
-3.1478723269
 31
0.0
 11
-9.8356575967
 21
-3.1187597356
 31
0.0
  0
SPLINE
  5
3BE
100
AcDbEntity
  8
0
100
AcDbSpline
 62
253
  6
CONTINUOUS
 70
0
 71
3
 72
11
 73
7
 74
5
 42
0.0000001
 43
0.0000001
 44
0.0000000001
 12
0.2446232526
 22
0.3598907657
 32
0.0
 13
0.3892165453
 23
-0.1946082727
 33
0.0
 40
0.0
 40
0.0
 40
0.0
 40
0.0
 40
0.2392814555
 40
0.4712904621
 40
0.7195888925
 40
1.0
 40
1.0
 40
1.0
 40
1.0
 10
-10.1176805842
 20
-2.2086575484
 30
0.0
 10
-10.0981693149
 20
-2.1799524864
 30
0.0
 10
-10.0493028399
 20
-2.1291797829
 30
0.0
 10
-9.9493522795
 20
-2.0896636562
 30
0.0
 10
-9.8366079558
 20
-2.0930854699
 30
0.0
 10
-9.7635131886
 20
-2.1197819961
 30
0.0
 10
-9.7271329744
 20
-2.1379721031
 30
0.0
 11
-10.1176805842
 21
-2.2086575484
 31
0.0
 11
-10.0442708672
 21
-2.1348128098
 31
0.0
 11
-9.9505717073
 21
-2.0972166178
 31
0.0
 11
-9.842528303
 21
-2.0983045097
 31
0.0
 11
-9.7271329744
 21
-2.1379721031
 31
0.0
  0
SPLINE
  5
3BF
100
AcDbEntity
  8
0
100
AcDbSpline
 62
253
  6
CONTINUOUS
 70
0
 71
3
 72
9
 73
5
 74
3
 42
0.0000001
 43
0.0000001
 44
0.0000000001
 12
0.4291377291
 22
-0.0199675314
 32
0.0
 13
0.2685341457
 23
0.3353316351
 33
0.0
 40
0.0
 40
0.0
 40
0.0
 40
0.0
 40
0.5032455975
 40
1.0
 40
1.0
 40
1.0
 40
1.0
 10
-8.6174769533
 20
-3.3532848264
 30
0.0
 10
-8.545489729
 20
-3.3566343505
 30
0.0
 10
-8.397732221
 20
-3.3333766433
 30
0.0
 10
-8.2810696848
 20
-3.2392629877
 30
0.0
 10
-8.2366045117
 20
-3.1837371657
 30
0.0
 11
-8.6174769533
 21
-3.3532848264
 31
0.0
 11
-8.4046480905
 21
-3.3152809696
 31
0.0
 11
-8.2366045117
 21
-3.1837371657
 31
0.0
  0
SPLINE
  5
3C0
100
AcDbEntity
  8
0
100
AcDbSpline
 62
253
  6
CONTINUOUS
 70
0
 71
3
 72
9
 73
5
 74
3
 42
0.0000001
 43
0.0000001
 44
0.0000000001
 12
0.0794342407
 22
0.0991933958
 32
0.0
 13
0.0553295859
 23
0.1144017713
 33
0.0
 40
0.0
 40
0.0
 40
0.0
 40
0.0
 40
0.2433377908
 40
1.0
 40
1.0
 40
1.0
 40
1.0
 10
-8.2366045117
 20
-3.1837371657
 30
0.0
 10
-8.2301613942
 20
-3.1756913318
 30
0.0
 10
-8.2046847408
 20
-3.1418297867
 30
0.0
 10
-8.1832826925
 20
-3.1049630584
 30
0.0
 10
-8.1693274236
 20
-3.0761085594
 30
0.0
 11
-8.2366045117
 21
-3.1837371657
 31
0.0
 11
-8.2180037998
 21
-3.1590337979
 31
0.0
 11
-8.1693274236
 21
-3.0761085594
 31
0.0
  0
SPLINE
  5
3C1
100
AcDbEntity
  8
0
100
AcDbSpline
 62
253
  6
CONTINUOUS
 70
0
 71
3
 72
9
 73
5
 74
3
 42
0.0000001
 43
0.0000001
 44
0.0000000001
 12
0.112720312
 22
0.0563336314
 32
0.0
 13
0.123853753
 23
0.0232291764
 33
0.0
 40
0.0
 40
0.0
 40
0.0
 40
0.0
 40
0.7470674414
 40
1.0
 40
1.0
 40
1.0
 40
1.0
 10
-9.2888321287
 20
-1.1626813244
 30
0.0
 10
-9.260762237
 20
-1.1486529838
 30
0.0
 10
-9.2210040085
 20
-1.1338443073
 30
0.0
 10
-9.1799914255
 20
-1.1247218582
 30
0.0
 10
-9.16954921
 20
-1.1227633865
 30
0.0
 11
-9.2888321287
 21
-1.1626813244
 31
0.0
 11
-9.2006580134
 21
-1.1297003627
 31
0.0
 11
-9.16954921
 21
-1.1227633865
 31
0.0
  0
SPLINE
  5
3C2
100
AcDbEntity
  8
0
100
AcDbSpline
 62
253
  6
CONTINUOUS
 70
0
 71
3
 72
11
 73
7
 74
5
 42
0.0000001
 43
0.0000001
 44
0.0000000001
 12
1.1969447251
 22
-0.7879475474
 32
0.0
 13
0.1649992651
 23
-1.423486303
 33
0.0
 40
0.0
 40
0.0
 40
0.0
 40
0.0
 40
0.2251178226
 40
0.4864111042
 40
0.7549835385
 40
1.0
 40
1.0
 40
1.0
 40
1.0
 10
5.1752457656
 20
13.47425161
 30
0.0
 10
5.265063629
 20
13.4151245979
 30
0.0
 10
5.4364686285
 20
13.2534811157
 30
0.0
 10
5.6444042098
 20
12.9568608969
 30
0.0
 10
5.8017419114
 20
12.6198924522
 30
0.0
 10
5.8636060347
 20
12.3800225633
 30
0.0
 10
5.8770818801
 20
12.263763371
 30
0.0
 11
5.1752457656
 21
13.47425161
 31
0.0
 11
5.4157015673
 21
13.2591928349
 31
0.0
 11
5.6330743816
 21
12.9543114129
 31
0.0
 11
5.7949251296
 21
12.6051289406
 31
0.0
 11
5.8770818801
 21
12.263763371
 31
0.0
  0
SPLINE
  5
3C3
100
AcDbEntity
  8
0
100
AcDbSpline
 62
253
  6
CONTINUOUS
 70
0
 71
3
 72
9
 73
5
 74
3
 42
0.0000001
 43
0.0000001
 44
0.0000000001
 12
0.321673023
 22
0.6544004562
 32
0.0
 13
0.6112759801
 23
0.397561526
 33
0.0
 40
0.0
 40
0.0
 40
0.0
 40
0.0
 40
0.5224810169
 40
1.0
 40
1.0
 40
1.0
 40
1.0
 10
4.7088440896
 20
12.9218343219
 30
0.0
 10
4.7648667723
 20
13.0358049272
 30
0.0
 10
4.8974039048
 20
13.2423339177
 30
0.0
 10
5.0779471375
 20
13.4109705514
 30
0.0
 10
5.1752457656
 20
13.47425161
 30
0.0
 11
4.7088440896
 21
12.9218343219
 31
0.0
 11
4.9164680569
 21
13.2412757826
 31
0.0
 11
5.1752457656
 21
13.47425161
 31
0.0
  0
SPLINE
  5
3C4
100
AcDbEntity
  8
0
100
AcDbSpline
 62
253
  6
CONTINUOUS
 70
0
 71
3
 72
9
 73
5
 74
3
 42
0.0000001
 43
0.0000001
 44
0.0000000001
 12
-0.840009942
 22
-0.3281438469
 32
0.0
 13
-0.8927424284
 23
0.1276951193
 33
0.0
 40
0.0
 40
0.0
 40
0.0
 40
0.0
 40
0.4829120378
 40
1.0
 40
1.0
 40
1.0
 40
1.0
 10
5.8770818801
 20
12.263763371
 30
0.0
 10
5.7418649091
 20
12.210941833
 30
0.0
 10
5.443378591
 20
12.1490049054
 30
0.0
 10
5.1401286633
 20
12.1550619978
 30
0.0
 10
4.986253209
 20
12.1770718675
 30
0.0
 11
5.8770818801
 21
12.263763371
 31
0.0
 11
5.4524687438
 21
12.1669781371
 31
0.0
 11
4.986253209
 21
12.1770718675
 31
0.0
  0
SPLINE
  5
3C5
100
AcDbEntity
  8
0
100
AcDbSpline
 62
253
  6
CONTINUOUS
 70
0
 71
3
 72
10
 73
6
 74
4
 42
0.0000001
 43
0.0000001
 44
0.0000000001
 12
1.7871659304
 22
0.2812950778
 32
0.0
 13
1.6203038606
 23
-0.8048008343
 33
0.0
 40
0.0
 40
0.0
 40
0.0
 40
0.0
 40
0.5319647837
 40
0.7780037407
 40
1.0
 40
1.0
 40
1.0
 40
1.0
 10
15.8179021849
 20
18.7244766375
 30
0.0
 10
16.1348052974
 20
18.7743563292
 30
0.0
 10
16.6108061589
 20
18.794142507
 30
0.0
 10
17.2064147777
 20
18.6908631957
 30
0.0
 10
17.4750435312
 20
18.5968662619
 30
0.0
 10
17.5949439965
 20
18.5373120036
 30
0.0
 11
15.8179021849
 21
18.7244766375
 31
0.0
 11
16.7798444038
 21
18.7545974743
 31
0.0
 11
17.2179334971
 21
18.6757625892
 31
0.0
 11
17.5949439965
 21
18.5373120036
 31
0.0
  0
SPLINE
  5
3C6
100
AcDbEntity
  8
0
100
AcDbSpline
 62
253
  6
CONTINUOUS
 70
0
 71
3
 72
17
 73
13
 74
11
 42
0.0000001
 43
0.0000001
 44
0.0000000001
 12
-7.5937705445
 22
-4.0081133185
 32
0.0
 13
7.6801210125
 23
-3.8400605062
 33
0.0
 40
0.0
 40
0.0
 40
0.0
 40
0.0
 40
0.0449557441
 40
0.0917107615
 40
0.1415815266
 40
0.1953995237
 40
0.3155220604
 40
0.4505746134
 40
0.5944877918
 40
0.7392314646
 40
0.8766031132
 40
1.0
 40
1.0
 40
1.0
 40
1.0
 10
-12.5839084625
 20
0.4589965319
 30
0.0
 10
-12.6977029977
 20
0.3989339596
 30
0.0
 10
-12.9150849389
 20
0.2461857062
 30
0.0
 10
-13.1834499071
 20
-0.0619268182
 30
0.0
 10
-13.3919646034
 20
-0.4420253298
 30
0.0
 10
-13.5921849663
 20
-1.0536552245
 30
0.0
 10
-13.6588622486
 20
-1.9481820519
 30
0.0
 10
-13.4766648127
 20
-3.0835251875
 30
0.0
 10
-13.0538079963
 20
-4.2278690672
 30
0.0
 10
-12.4264239062
 20
-5.2818034683
 30
0.0
 10
-11.6499625391
 20
-6.1539686964
 30
0.0
 10
-11.0340225266
 20
-6.5931870283
 30
0.0
 10
-10.718121519
 20
-6.7511375321
 30
0.0
 11
-12.5839084625
 21
0.4589965319
 31
0.0
 11
-12.9003565932
 21
0.2379287596
 31
0.0
 11
-13.1660176922
 21
-0.0630712425
 31
0.0
 11
-13.37470689
 21
-0.4370003873
 31
0.0
 11
-13.5215661329
 21
-0.8751592195
 31
0.0
 11
-13.6176225624
 21
-1.9021252603
 31
0.0
 11
-13.4453089528
 21
-3.0488987992
 31
0.0
 11
-13.0205811561
 21
-4.209344939
 31
0.0
 11
-12.3827334992
 21
-5.2760475814
 31
0.0
 11
-11.5908380131
 21
-6.1502696638
 31
0.0
 11
-10.718121519
 21
-6.7511375321
 31
0.0
  0
SPLINE
  5
3C7
100
AcDbEntity
  8
0
100
AcDbSpline
 62
253
  6
CONTINUOUS
 70
0
 71
3
 72
13
 73
9
 74
7
 42
0.0000001
 43
0.0000001
 44
0.0000000001
 12
-1.3857587762
 22
1.6418816493
 32
0.0
 13
-2.1416777997
 23
-0.1712277384
 33
0.0
 40
0.0
 40
0.0
 40
0.0
 40
0.0
 40
0.097958409
 40
0.2086636549
 40
0.3287311245
 40
0.4556212678
 40
0.7225710522
 40
1.0
 40
1.0
 40
1.0
 40
1.0
 10
17.820263337
 20
18.1335951537
 30
0.0
 10
17.7750144286
 20
18.1872071917
 30
0.0
 10
17.6618013528
 20
18.2869076478
 30
0.0
 10
17.4632567579
 20
18.4142040118
 30
0.0
 10
17.2314064723
 20
18.5246996459
 30
0.0
 10
16.8832848605
 20
18.6458441586
 30
0.0
 10
16.4081761415
 20
18.736317507
 30
0.0
 10
16.0159568231
 20
18.7403111751
 30
0.0
 10
15.8179023503
 20
18.7244766647
 30
0.0
 11
17.820263337
 21
18.1335951537
 31
0.0
 11
17.6658932321
 21
18.2766521343
 31
0.0
 11
17.4665605366
 21
18.4064204768
 31
0.0
 11
17.2341266997
 21
18.5183184619
 31
0.0
 11
16.9769196356
 21
18.608700413
 31
0.0
 11
16.4139288879
 21
18.7182220832
 31
0.0
 11
15.8179023503
 21
18.7244766647
 31
0.0
  0
SPLINE
  5
3C8
100
AcDbEntity
  8
0
100
AcDbSpline
 62
253
  6
CONTINUOUS
 70
0
 71
3
 72
11
 73
7
 74
5
 42
0.0000001
 43
0.0000001
 44
0.0000000001
 12
1.2629436897
 22
-0.9174996691
 32
0.0
 13
0.0027587638
 23
-1.5610332461
 33
0.0
 40
0.0
 40
0.0
 40
0.0
 40
0.0
 40
0.2162098942
 40
0.4514402955
 40
0.7122304919
 40
1.0
 40
1.0
 40
1.0
 40
1.0
 10
17.8203530145
 20
18.1336185983
 30
0.0
 10
17.9113733217
 20
18.0674944295
 30
0.0
 10
18.0797470639
 20
17.8975514795
 30
0.0
 10
18.2564582558
 20
17.5673019765
 30
0.0
 10
18.3627497937
 20
17.1705803203
 30
0.0
 10
18.383611574
 20
16.8843321182
 30
0.0
 10
18.3838762034
 20
16.7345928617
 30
0.0
 11
17.8203530145
 21
18.1336185983
 31
0.0
 11
18.0597236506
 21
17.8956782344
 31
0.0
 11
18.2375670426
 21
17.5744154011
 31
0.0
 11
18.3469926392
 21
17.1822945898
 31
0.0
 11
18.3838762034
 21
16.7345928617
 31
0.0
  0
SPLINE
  5
3C9
100
AcDbEntity
  8
0
100
AcDbSpline
 62
253
  6
CONTINUOUS
 70
0
 71
3
 72
9
 73
5
 74
3
 42
0.0000001
 43
0.0000001
 44
0.0000000001
 12
0.0005878153
 22
-14.0448375677
 32
0.0
 13
-1.5291620923
 23
-13.9613439878
 33
0.0
 40
0.0
 40
0.0
 40
0.0
 40
0.0
 40
0.2449090539
 40
1.0
 40
1.0
 40
1.0
 40
1.0
 10
18.3838974481
 20
14.3282766182
 30
0.0
 10
18.3839454352
 20
13.1817073243
 30
0.0
 10
18.3162464886
 20
8.5002348004
 30
0.0
 10
17.9828306771
 20
3.8234498993
 30
0.0
 10
17.5979451934
 20
0.3094217527
 30
0.0
 11
18.3838974481
 21
14.3282766182
 31
0.0
 11
18.3348474495
 21
10.8889184763
 31
0.0
 11
17.5979451934
 21
0.3094217527
 31
0.0
  0
LINE
  5
3CA
100
AcDbEntity
  8
0
100
AcDbLine
 62
253
  6
CONTINUOUS
 10
17.5979451934
 20
0.3094217527
 11
17.590610453
 21
0.2426038904
  0
SPLINE
  5
3CB
100
AcDbEntity
  8
0
100
AcDbSpline
 62
7
  6
CONTINUOUS
 70
0
 71
3
 72
12
 73
8
 74
6
 42
0.0000001
 43
0.0000001
 44
0.0000000001
 12
-0.5806405733
 22
-5.2256076321
 32
0.0
 13
-4.6687818667
 23
-2.4179732176
 33
0.0
 40
0.0
 40
0.0
 40
0.0
 40
0.0
 40
0.2546955861
 40
0.5197168182
 40
0.6496782734
 40
0.7744494802
 40
1.0
 40
1.0
 40
1.0
 40
1.0
 10
17.590610453
 20
0.2426038904
 30
0.0
 10
17.5413149226
 20
-0.2010425091
 30
0.0
 10
17.3228449212
 20
-1.0950322309
 30
0.0
 10
16.8217943668
 20
-2.1268935646
 30
0.0
 10
16.2960323559
 20
-2.8733108174
 30
0.0
 10
15.7349339049
 20
-3.5014814915
 30
0.0
 10
15.2400483059
 20
-3.8844169853
 30
0.0
 10
14.8890329136
 20
-4.0662086906
 30
0.0
 11
17.590610453
 21
0.2426038904
 31
0.0
 11
17.2833912704
 21
-1.0608093087
 31
0.0
 11
16.6748964991
 21
-2.3143456799
 31
0.0
 11
16.2803917398
 21
-2.8722655676
 31
0.0
 11
15.8418103577
 21
-3.3601241278
 31
0.0
 11
14.8890329136
 21
-4.0662086906
 31
0.0
  0
SPLINE
  5
3CC
100
AcDbEntity
  8
0
100
AcDbSpline
 62
253
  6
CONTINUOUS
 70
0
 71
3
 72
11
 73
7
 74
5
 42
0.0000001
 43
0.0000001
 44
0.0000000001
 12
-0.0055421522
 22
-2.1684146773
 32
0.0
 13
-1.8960113642
 23
-1.0522327856
 33
0.0
 40
0.0
 40
0.0
 40
0.0
 40
0.0
 40
0.2474256817
 40
0.5113121848
 40
0.7690841362
 40
1.0
 40
1.0
 40
1.0
 40
1.0
 10
11.271629934
 20
-12.1443847467
 30
0.0
 10
11.2711728437
 20
-12.32322524
 30
0.0
 10
11.2124327732
 20
-12.6934455707
 30
0.0
 10
10.9966031267
 20
-13.2105138786
 30
0.0
 10
10.6794251544
 20
-13.657907026
 30
0.0
 10
10.4027008516
 20
-13.8880602184
 30
0.0
 10
10.256761151
 20
-13.9690526326
 30
0.0
 11
11.271629934
 21
-12.1443847467
 31
0.0
 11
11.194478422
 21
-12.6753318465
 31
0.0
 11
10.9760884445
 21
-13.2042348454
 31
0.0
 11
10.6484178074
 21
-13.6570773614
 31
0.0
 11
10.256761151
 21
-13.9690526326
 31
0.0
  0
SPLINE
  5
3CD
100
AcDbEntity
  8
0
100
AcDbSpline
 62
253
  6
CONTINUOUS
 70
0
 71
3
 72
9
 73
5
 74
3
 42
0.0000001
 43
0.0000001
 44
0.0000000001
 12
0.1027219612
 22
0.0531919973
 32
0.0
 13
0.0002351863
 23
0.1156768541
 33
0.0
 40
0.0
 40
0.0
 40
0.0
 40
0.0
 40
0.5662323193
 40
1.0
 40
1.0
 40
1.0
 40
1.0
 10
18.3838761985
 20
16.7364133697
 30
0.0
 10
18.4032643632
 20
16.7464530457
 30
0.0
 10
18.4363616657
 20
16.7682212444
 30
0.0
 10
18.4539860448
 20
16.8063807468
 30
0.0
 10
18.4540200502
 20
16.8231063737
 30
0.0
 11
18.3838761985
 21
16.7364133697
 31
0.0
 11
18.4357849741
 21
16.776360125
 31
0.0
 11
18.4540200502
 21
16.8231063737
 31
0.0
  0
SPLINE
  5
3CE
100
AcDbEntity
  8
0
100
AcDbSpline
 62
253
  6
CONTINUOUS
 70
0
 71
3
 72
11
 73
7
 74
5
 42
0.0000001
 43
0.0000001
 44
0.0000000001
 12
0.4150021022
 22
0.2149085116
 32
0.0
 13
0.0010440519
 23
0.4673449723
 33
0.0
 40
0.0
 40
0.0
 40
0.0
 40
0.0
 40
0.3061132307
 40
0.5682322134
 40
0.7947740702
 40
1.0
 40
1.0
 40
1.0
 40
1.0
 10
11.2716826083
 20
-12.1449674041
 30
0.0
 10
11.3140284864
 20
-12.1230386245
 30
0.0
 10
11.3898657023
 20
-12.0763230792
 30
0.0
 10
11.480780424
 20
-11.9907115512
 30
0.0
 10
11.5382580217
 20
-11.8972981766
 30
0.0
 10
11.5522056305
 20
-11.829608911
 30
0.0
 10
11.5522770527
 20
-11.7976384755
 30
0.0
 11
11.2716826083
 21
-12.1449674041
 31
0.0
 11
11.3925923095
 21
-12.0685001102
 31
0.0
 11
11.4804132446
 21
-11.983096331
 31
0.0
 11
11.5340174726
 21
-11.8917958563
 31
0.0
 11
11.5522770527
 21
-11.7976384755
 31
0.0
  0
SPLINE
  5
3CF
100
AcDbEntity
  8
0
100
AcDbSpline
 62
7
  6
CONTINUOUS
 70
0
 71
3
 72
9
 73
5
 74
3
 42
0.0000001
 43
0.0000001
 44
0.0000000001
 12
0.2232215403
 22
-0.0139089252
 32
0.0
 13
0.194783725
 23
0.1099118499
 33
0.0
 40
0.0
 40
0.0
 40
0.0
 40
0.0
 40
0.5693913557
 40
1.0
 40
1.0
 40
1.0
 40
1.0
 10
11.2716826084
 20
-6.0960594905
 30
0.0
 10
11.3140494135
 20
-6.0986993644
 30
0.0
 10
11.3881329208
 20
-6.1011298453
 30
0.0
 10
11.4641136204
 20
-6.0870157549
 30
0.0
 10
11.4920721389
 20
-6.071239424
 30
0.0
 11
11.2716826084
 21
-6.0960594905
 31
0.0
 11
11.3990295129
 21
-6.0961032962
 31
0.0
 11
11.4920721389
 21
-6.071239424
 31
0.0
  0
SPLINE
  5
3D0
100
AcDbEntity
  8
0
100
AcDbSpline
 62
7
  6
CONTINUOUS
 70
0
 71
3
 72
9
 73
5
 74
3
 42
0.0000001
 43
0.0000001
 44
0.0000000001
 12
0.0007282503
 22
-0.0432340908
 32
0.0
 13
-0.0075999525
 23
-0.0425670962
 33
0.0
 40
0.0
 40
0.0
 40
0.0
 40
0.0
 40
0.2587071087
 40
1.0
 40
1.0
 40
1.0
 40
1.0
 10
14.8890295768
 20
-4.065837366
 30
0.0
 10
14.889092378
 20
-4.0695656882
 30
0.0
 10
14.8890176348
 20
-4.0839788137
 30
0.0
 10
14.8876486219
 20
-4.0983994167
 30
0.0
 10
14.8857706917
 20
-4.1089176453
 30
0.0
 11
14.8890295768
 21
-4.065837366
 31
0.0
 11
14.8889670802
 21
-4.0770237447
 31
0.0
 11
14.8857706917
 21
-4.1089176453
 31
0.0
  0
SPLINE
  5
3D1
100
AcDbEntity
  8
0
100
AcDbSpline
 62
7
  6
CONTINUOUS
 70
0
 71
3
 72
9
 73
5
 74
3
 42
0.0000001
 43
0.0000001
 44
0.0000000001
 12
-0.0174420597
 22
-0.0976924314
 32
0.0
 13
-0.0816607978
 23
-0.0563875049
 33
0.0
 40
0.0
 40
0.0
 40
0.0
 40
0.0
 40
0.5322592706
 40
1.0
 40
1.0
 40
1.0
 40
1.0
 10
14.8857706917
 20
-4.1089176453
 30
0.0
 10
14.8826761257
 20
-4.1262502127
 30
0.0
 10
14.8724387655
 20
-4.1584615269
 30
0.0
 10
14.8498818065
 20
-4.1843923021
 30
0.0
 10
14.8371497794
 20
-4.1931838796
 30
0.0
 11
14.8857706917
 21
-4.1089176453
 31
0.0
 11
14.8682881245
 21
-4.1587604776
 31
0.0
 11
14.8371497794
 21
-4.1931838796
 31
0.0
  0
SPLINE
  5
3D2
100
AcDbEntity
  8
0
100
AcDbSpline
 62
7
  6
CONTINUOUS
 70
0
 71
3
 72
10
 73
6
 74
4
 42
0.0000001
 43
0.0000001
 44
0.0000000001
 12
0.0896040613
 22
0.030295024
 32
0.0
 13
0.0102700789
 23
0.0940276648
 33
0.0
 40
0.0
 40
0.0
 40
0.0
 40
0.0
 40
0.3172576541
 40
0.7005400428
 40
1.0
 40
1.0
 40
1.0
 40
1.0
 10
17.5918384272
 20
0.2427812734
 30
0.0
 10
17.6013142853
 20
0.2459850495
 30
0.0
 10
17.6217429918
 20
0.2544522147
 30
0.0
 10
17.6484808003
 20
0.2723379636
 30
0.0
 10
17.6591394612
 20
0.2927778282
 30
0.0
 10
17.6601646203
 20
0.3021636684
 30
0.0
 11
17.5918384272
 21
0.2427812734
 31
0.0
 11
17.6194694071
 21
0.2544874068
 31
0.0
 11
17.6483279943
 21
0.2764304446
 31
0.0
 11
17.6601646203
 21
0.3021636684
 31
0.0
  0
SPLINE
  5
3D3
100
AcDbEntity
  8
0
100
AcDbSpline
 62
253
  6
CONTINUOUS
 70
0
 71
3
 72
9
 73
5
 74
3
 42
0.0000001
 43
0.0000001
 44
0.0000000001
 12
0.1027256879
 22
0.0531939271
 32
0.0
 13
0.0002269553
 23
0.1156810673
 33
0.0
 40
0.0
 40
0.0
 40
0.0
 40
0.0
 40
0.5662392912
 40
1.0
 40
1.0
 40
1.0
 40
1.0
 10
18.3838761985
 20
14.3282656066
 30
0.0
 10
18.4032653054
 20
14.3383057705
 30
0.0
 10
18.4363641257
 20
14.3600748224
 30
0.0
 10
18.4539872296
 20
14.3982370386
 30
0.0
 10
18.4540200444
 20
14.4149630058
 30
0.0
 11
18.3838761985
 21
14.3282656066
 31
0.0
 11
18.435787079
 21
14.3682148456
 31
0.0
 11
18.4540200444
 21
14.4149630058
 31
0.0
  0
SPLINE
  5
3D4
100
AcDbEntity
  8
0
100
AcDbSpline
 62
253
  6
CONTINUOUS
 70
0
 71
3
 72
11
 73
7
 74
5
 42
0.0000001
 43
0.0000001
 44
0.0000000001
 12
1.9704900671
 22
0.9851613678
 32
0.0
 13
1.9704566019
 23
-0.985228301
 33
0.0
 40
0.0
 40
0.0
 40
0.0
 40
0.0
 40
0.227111417
 40
0.4646734038
 40
0.7207749341
 40
1.0
 40
1.0
 40
1.0
 40
1.0
 10
-12.8454710252
 20
1.0503977764
 30
0.0
 10
-12.6962974281
 20
1.1249782411
 30
0.0
 10
-12.3675739238
 20
1.234373046
 30
0.0
 10
-11.833471131
 20
1.2610887724
 30
0.0
 10
-11.2713675639
 20
1.1554746645
 30
0.0
 10
-10.9046069892
 20
1.0071899351
 30
0.0
 10
-10.7212066977
 20
0.9154897893
 30
0.0
 11
-12.8454710252
 21
1.0503977764
 31
0.0
 11
-12.3712392149
 21
1.2098946734
 31
0.0
 11
-11.8487794049
 21
1.2405426034
 31
0.0
 11
-11.2933502845
 21
1.1414388298
 31
0.0
 11
-10.7212066977
 21
0.9154897893
 31
0.0
  0
SPLINE
  5
3D5
100
AcDbEntity
  8
0
100
AcDbSpline
 62
253
  6
CONTINUOUS
 70
0
 71
3
 72
11
 73
7
 74
5
 42
0.0000001
 43
0.0000001
 44
0.0000000001
 12
0.5314437822
 22
0.2917155187
 32
0.0
 13
-0.0128362332
 23
0.6061069779
 33
0.0
 40
0.0
 40
0.0
 40
0.0
 40
0.0
 40
0.2154631958
 40
0.4467859464
 40
0.705875167
 40
1.0
 40
1.0
 40
1.0
 40
1.0
 10
10.0203109548
 20
-14.497257591
 30
0.0
 10
10.0584798133
 20
-14.4763062717
 30
0.0
 10
10.1300830552
 20
-14.4177965483
 30
0.0
 10
10.2059698832
 20
-14.2945980171
 30
0.0
 10
10.2507747718
 20
-14.1409517772
 30
0.0
 10
10.2580208285
 20
-14.028530226
 30
0.0
 10
10.2567623435
 20
-13.9691065215
 30
0.0
 11
10.0203109548
 21
-14.497257591
 31
0.0
 11
10.1220596629
 21
-14.4153455875
 31
0.0
 11
10.1974857759
 21
-14.2971189654
 31
0.0
 11
10.2434334681
 21
-14.1469187402
 31
0.0
 11
10.2567623435
 21
-13.9691065215
 31
0.0
  0
SPLINE
  5
3D6
100
AcDbEntity
  8
0
100
AcDbSpline
 62
7
  6
CONTINUOUS
 70
0
 71
3
 72
11
 73
7
 74
5
 42
0.0000001
 43
0.0000001
 44
0.0000000001
 12
0.5385473115
 22
0.2958493389
 32
0.0
 13
0.00015892
 23
0.6144591222
 33
0.0
 40
0.0
 40
0.0
 40
0.0
 40
0.0
 40
0.217316834
 40
0.4509528051
 40
0.7109107332
 40
1.0
 40
1.0
 40
1.0
 40
1.0
 10
8.4428290378
 20
-15.3656474321
 30
0.0
 10
8.4818408367
 20
-15.3442164182
 30
0.0
 10
8.5550979585
 20
-15.2844378281
 30
0.0
 10
8.6331269572
 20
-15.1590784737
 30
0.0
 10
8.679631756
 20
-15.0041376536
 30
0.0
 10
8.6888590327
 20
-14.8912926263
 30
0.0
 10
8.6888743468
 20
-14.8320814473
 30
0.0
 11
8.4428290378
 21
-15.3656474321
 31
0.0
 11
8.5469288477
 21
-15.2820166431
 31
0.0
 11
8.6246706311
 21
-15.1613285352
 31
0.0
 11
8.6726561647
 21
-15.00897307
 31
0.0
 11
8.6888743468
 21
-14.8320814473
 31
0.0
  0
SPLINE
  5
3D7
100
AcDbEntity
  8
0
100
AcDbSpline
 62
7
  6
CONTINUOUS
 70
0
 71
3
 72
11
 73
7
 74
5
 42
0.0000001
 43
0.0000001
 44
0.0000000001
 12
0.0002584879
 22
1.4684146608
 32
0.0
 13
-1.3138165771
 23
0.6558412037
 33
0.0
 40
0.0
 40
0.0
 40
0.0
 40
0.0
 40
0.2468209234
 40
0.5117425932
 40
0.7702216918
 40
1.0
 40
1.0
 40
1.0
 40
1.0
 10
8.688874518
 20
13.7037362152
 30
0.0
 10
8.6888957848
 20
13.824548036
 30
0.0
 10
8.6477175544
 20
14.0754840329
 30
0.0
 10
8.4974292742
 20
14.4247988723
 30
0.0
 10
8.275006716
 20
14.7228987269
 30
0.0
 10
8.082611894
 20
14.8728488193
 30
0.0
 10
7.9819830439
 20
14.9230815134
 30
0.0
 11
8.688874518
 21
13.7037362152
 31
0.0
 11
8.6355247138
 21
14.0622236863
 31
0.0
 11
8.4827378052
 21
14.4199788115
 31
0.0
 11
8.2530208697
 21
14.7221240594
 31
0.0
 11
7.9819830439
 21
14.9230815134
 31
0.0
  0
SPLINE
  5
3D8
100
AcDbEntity
  8
0
100
AcDbSpline
 62
253
  6
CONTINUOUS
 70
0
 71
3
 72
11
 73
7
 74
5
 42
0.0000001
 43
0.0000001
 44
0.0000000001
 12
0.256797403
 22
-0.185442725
 32
0.0
 13
-0.155713294
 23
-0.2758392295
 33
0.0
 40
0.0
 40
0.0
 40
0.0
 40
0.0
 40
0.2251599203
 40
0.4646419595
 40
0.7243395785
 40
1.0
 40
1.0
 40
1.0
 40
1.0
 10
17.786598346
 20
18.4232888618
 30
0.0
 10
17.8058718403
 20
18.4093707721
 30
0.0
 10
17.8392882912
 20
18.3708583586
 30
0.0
 10
17.8612782477
 20
18.2956176152
 30
0.0
 10
17.855468129
 20
18.2125872887
 30
0.0
 10
17.8343829744
 20
18.159123991
 30
0.0
 10
17.820074977
 20
18.1337780049
 30
0.0
 11
17.786598346
 21
18.4232888618
 31
0.0
 11
17.8337236507
 21
18.3697553874
 31
0.0
 11
17.8563150598
 21
18.2973403112
 31
0.0
 11
17.8515708353
 21
18.215216639
 31
0.0
 11
17.820074977
 21
18.1337780049
 31
0.0
  0
SPLINE
  5
3D9
100
AcDbEntity
  8
RACCORDO
100
AcDbSpline
 62
7
  6
CONTINUOUS
 70
0
 71
3
 72
8
 73
4
 74
2
 42
0.0000001
 43
0.0000001
 44
0.0000000001
 12
-0.0000053732
 22
-0.0031177234
 32
0.0
 13
-0.0019810057
 23
-0.002407456
 33
0.0
 40
0.0
 40
0.0
 40
0.0
 40
0.0
 40
1.0
 40
1.0
 40
1.0
 40
1.0
 10
3.9506832411
 20
17.2239120932
 30
0.0
 10
3.95068145
 20
17.2228728521
 30
0.0
 10
3.9502883441
 20
17.2217808586
 30
0.0
 10
3.9496280089
 20
17.2209783733
 30
0.0
 11
3.9506832411
 21
17.2239120932
 31
0.0
 11
3.9496280089
 21
17.2209783733
 31
0.0
  0
SPLINE
  5
3DA
100
AcDbEntity
  8
DRAFT
100
AcDbSpline
 62
7
  6
CONTINUOUS
 70
0
 71
3
 72
13
 73
9
 74
7
 42
0.0000001
 43
0.0000001
 44
0.0000000001
 12
0.5053105797
 22
0.3737682602
 32
0.0
 13
-0.2787056207
 23
0.5633512858
 33
0.0
 40
0.0
 40
0.0
 40
0.0
 40
0.0
 40
0.0950228088
 40
0.197135015
 40
0.3089328816
 40
0.4312870326
 40
0.7037670085
 40
1.0
 40
1.0
 40
1.0
 40
1.0
 10
8.702813512
 20
-15.7950472648
 30
0.0
 10
8.7188188555
 20
-15.7832084282
 30
0.0
 10
8.7484181631
 20
-15.7534829112
 30
0.0
 10
8.7807739569
 20
-15.6967432066
 30
0.0
 10
8.8016269754
 20
-15.628946043
 30
0.0
 10
8.8139162508
 20
-15.523046593
 30
0.0
 10
8.7966190618
 20
-15.377363306
 30
0.0
 10
8.7551655977
 20
-15.2645259809
 30
0.0
 10
8.7276449978
 20
-15.2088982353
 30
0.0
 11
8.702813512
 21
-15.7950472648
 31
0.0
 11
8.7452736512
 21
-15.7530460952
 31
0.0
 11
8.7776771676
 21
-15.6976468955
 31
0.0
 11
8.7989569164
 21
-15.6306789756
 31
0.0
 11
8.8084059299
 21
-15.5543592537
 31
0.0
 11
8.7909654448
 21
-15.3839896014
 31
0.0
 11
8.7276449978
 21
-15.2088982353
 31
0.0
  0
SPLINE
  5
3DB
100
AcDbEntity
  8
ASSI
100
AcDbSpline
 62
7
  6
CONTINUOUS
 70
0
 71
3
 72
9
 73
5
 74
3
 42
0.0000001
 43
0.0000001
 44
0.0000000001
 12
-0.0502723709
 22
-0.0161727928
 32
0.0
 13
-0.0473687191
 23
-0.0233468405
 33
0.0
 40
0.0
 40
0.0
 40
0.0
 40
0.0
 40
0.2435111511
 40
1.0
 40
1.0
 40
1.0
 40
1.0
 10
3.6486385315
 20
22.0810105941
 30
0.0
 10
3.6445579038
 20
22.0796978423
 30
0.0
 10
3.6279081328
 20
22.0739748635
 30
0.0
 10
3.6117071359
 20
22.0669692352
 30
0.0
 10
3.5997625
 20
22.061082027
 30
0.0
 11
3.6486385315
 21
22.0810105941
 31
0.0
 11
3.6364757053
 21
22.0768345659
 31
0.0
 11
3.5997625
 21
22.061082027
 31
0.0
  0
SPLINE
  5
3DC
100
AcDbEntity
  8
ASSI
100
AcDbSpline
 62
7
  6
CONTINUOUS
 70
0
 71
3
 72
9
 73
5
 74
3
 42
0.0000001
 43
0.0000001
 44
0.0000000001
 12
-0.0000282459
 22
0.0132944178
 32
0.0
 13
-0.0119051738
 23
0.0059168555
 33
0.0
 40
0.0
 40
0.0
 40
0.0
 40
0.0
 40
0.4881036285
 40
1.0
 40
1.0
 40
1.0
 40
1.0
 10
-1.1757593125
 20
24.5654837583
 30
0.0
 10
-1.1757639081
 20
24.5676467762
 30
0.0
 10
-1.1768013106
 20
24.5722729327
 30
0.0
 10
-1.1805402588
 20
24.5751940971
 30
0.0
 10
-1.1825716639
 20
24.5762037027
 30
0.0
 11
-1.1757593125
 21
24.5654837583
 31
0.0
 11
-1.1774202581
 21
24.5717566576
 31
0.0
 11
-1.1825716639
 21
24.5762037027
 31
0.0
  0
SPLINE
  5
3DD
100
AcDbEntity
  8
ASSI
100
AcDbSpline
 62
7
  6
CONTINUOUS
 70
0
 71
3
 72
9
 73
5
 74
3
 42
0.0000001
 43
0.0000001
 44
0.0000000001
 12
-0.0000238058
 22
0.0133037541
 32
0.0
 13
-0.0119149986
 23
0.0059180442
 33
0.0
 40
0.0
 40
0.0
 40
0.0
 40
0.0
 40
0.4881017562
 40
1.0
 40
1.0
 40
1.0
 40
1.0
 10
4.3792290884
 20
21.7879844265
 30
0.0
 10
4.3792252152
 20
21.7901489551
 30
0.0
 10
4.3781883325
 20
21.7947790459
 30
0.0
 10
4.3744458017
 20
21.7977016923
 30
0.0
 10
4.3724127128
 20
21.7987115044
 30
0.0
 11
4.3792290884
 21
21.7879844265
 31
0.0
 11
4.3775684041
 21
21.7942620788
 31
0.0
 11
4.3724127128
 21
21.7987115044
 31
0.0
  0
SPLINE
  5
3DE
100
AcDbEntity
  8
DRAFT
100
AcDbSpline
 62
7
  6
CONTINUOUS
 70
0
 71
3
 72
14
 73
10
 74
8
 42
0.0000001
 43
0.0000001
 44
0.0000000001
 12
0.63419669
 22
0.3258683945
 32
0.0
 13
-0.3553347992
 23
0.6181689353
 33
0.0
 40
0.0
 40
0.0
 40
0.0
 40
0.0
 40
0.093309443
 40
0.1929195438
 40
0.3029556392
 40
0.4249932807
 40
0.5584336506
 40
0.7010973128
 40
1.0
 40
1.0
 40
1.0
 40
1.0
 10
8.6757162008
 20
17.9631011696
 30
0.0
 10
8.6954417141
 20
17.9732367024
 30
0.0
 10
8.7327863777
 20
18.0015560313
 30
0.0
 10
8.7740202264
 20
18.061780041
 30
0.0
 10
8.8003137184
 20
18.1368847146
 30
0.0
 10
8.8111765503
 20
18.2235978075
 30
0.0
 10
8.8064970942
 20
18.3185340361
 30
0.0
 10
8.7795446279
 20
18.4528489132
 30
0.0
 10
8.7382170207
 20
18.5509991506
 30
0.0
 10
8.702813512
 20
18.6125899359
 30
0.0
 11
8.6757162008
 21
17.9631011696
 31
0.0
 11
8.7289729898
 21
18.0029777107
 31
0.0
 11
8.7699114163
 21
18.0610159259
 31
0.0
 11
8.7967769802
 21
18.1347306917
 31
0.0
 11
8.8084200102
 21
18.220963347
 31
0.0
 11
8.8043405562
 21
18.3160213292
 31
0.0
 11
8.7847146285
 21
18.4158319462
 31
0.0
 11
8.702813512
 21
18.6125899359
 31
0.0
  0
SPLINE
  5
3DF
100
AcDbEntity
  8
ASSI
100
AcDbSpline
 62
7
  6
CONTINUOUS
 70
0
 71
3
 72
11
 73
7
 74
5
 42
0.0000001
 43
0.0000001
 44
0.0000000001
 12
0.2230926208
 22
0.0717696553
 32
0.0
 13
0.2096565956
 23
-0.1047153896
 33
0.0
 40
0.0
 40
0.0
 40
0.0
 40
0.0
 40
0.2281620518
 40
0.4713410479
 40
0.7293701433
 40
1.0
 40
1.0
 40
1.0
 40
1.0
 10
3.6486385315
 20
22.0810105941
 30
0.0
 10
3.6656056215
 20
22.0864689647
 30
0.0
 10
3.7024218109
 20
22.0926137807
 30
0.0
 10
3.7596374498
 20
22.0885045423
 30
0.0
 10
3.8182084207
 20
22.0730843882
 30
0.0
 10
3.8562918516
 20
22.0567617599
 30
0.0
 10
3.8752049631
 20
22.0473153896
 30
0.0
 11
3.6486385315
 21
22.0810105941
 31
0.0
 11
3.7012859361
 21
22.0903558803
 31
0.0
 11
3.7581704584
 21
22.0868957393
 31
0.0
 11
3.8167676898
 21
22.071963764
 31
0.0
 11
3.8752049631
 21
22.0473153896
 31
0.0
  0
SPLINE
  5
3E0
100
AcDbEntity
  8
ASSI
100
AcDbSpline
 62
7
  6
CONTINUOUS
 70
0
 71
3
 72
11
 73
7
 74
5
 42
0.0000001
 43
0.0000001
 44
0.0000000001
 12
0.222019678
 22
0.0689784695
 32
0.0
 13
0.2079932826
 23
-0.103872812
 33
0.0
 40
0.0
 40
0.0
 40
0.0
 40
0.0
 40
0.2283694312
 40
0.4716456017
 40
0.7295971459
 40
1.0
 40
1.0
 40
1.0
 40
1.0
 10
-1.9045842117
 20
24.8590630834
 30
0.0
 10
-1.8876833759
 20
24.8643139414
 30
0.0
 10
-1.8511033605
 20
24.8701204302
 30
0.0
 10
-1.794354817
 20
24.865792288
 30
0.0
 10
-1.7363026458
 20
24.8503827461
 30
0.0
 10
-1.698553566
 20
24.8341834826
 30
0.0
 10
-1.6798062403
 20
24.824820981
 30
0.0
 11
-1.9045842117
 21
24.8590630834
 31
0.0
 11
-1.8522349107
 21
24.8679196367
 31
0.0
 11
-1.7957970822
 21
24.8642218013
 31
0.0
 11
-1.7377162672
 21
24.8492851736
 31
0.0
 11
-1.6798062403
 21
24.824820981
 31
0.0
  0
SPLINE
  5
3E1
100
AcDbEntity
  8
RACCORDO
100
AcDbSpline
 62
7
  6
CONTINUOUS
 70
0
 71
3
 72
9
 73
5
 74
3
 42
0.0000001
 43
0.0000001
 44
0.0000000001
 12
-0.0110813789
 22
-0.0399300568
 32
0.0
 13
0.0000244733
 23
-0.0414391819
 33
0.0
 40
0.0
 40
0.0
 40
0.0
 40
0.0
 40
0.2273205054
 40
1.0
 40
1.0
 40
1.0
 40
1.0
 10
-7.784854473
 20
21.9152905955
 30
0.0
 10
-7.7856941479
 20
21.9122649553
 30
0.0
 10
-7.7887552788
 20
21.8987794761
 30
0.0
 10
-7.7896827023
 20
21.8848805013
 30
0.0
 10
-7.7896763989
 20
21.8742074326
 30
0.0
 11
-7.784854473
 21
21.9152905955
 31
0.0
 11
-7.786975605
 21
21.9061125362
 31
0.0
 11
-7.7896763989
 21
21.8742074326
 31
0.0
  0
SPLINE
  5
3E2
100
AcDbEntity
  8
RACCORDO
100
AcDbSpline
 62
7
  6
CONTINUOUS
 70
0
 71
3
 72
12
 73
8
 74
6
 42
0.0000001
 43
0.0000001
 44
0.0000000001
 12
0.0
 22
0.6302437779
 32
0.0
 13
-0.5636992723
 23
0.2818693847
 33
0.0
 40
0.0
 40
0.0
 40
0.0
 40
0.0
 40
0.28949564
 40
0.549117431
 40
0.7821793802
 40
0.8921648087
 40
1.0
 40
1.0
 40
1.0
 40
1.0
 10
1.1228318872
 20
23.6560959201
 30
0.0
 10
1.1228318872
 20
23.7169135287
 30
0.0
 10
1.1129824799
 20
23.8327261552
 30
0.0
 10
1.063630733
 20
23.9910415153
 30
0.0
 10
0.993058293
 20
24.098880573
 30
0.0
 10
0.9223607492
 20
24.1625619759
 30
0.0
 10
0.8832147894
 20
24.1868304228
 30
0.0
 10
0.8629525831
 20
24.1969622358
 30
0.0
 11
1.1228318872
 21
23.6560959201
 31
0.0
 11
1.1055544495
 21
23.8377288571
 31
0.0
 11
1.054566627
 21
23.9932067931
 31
0.0
 11
0.9723602524
 21
24.1149342056
 31
0.0
 11
0.920750811
 21
24.1612094653
 31
0.0
 11
0.8629525831
 21
24.1969622358
 31
0.0
  0
SPLINE
  5
3E3
100
AcDbEntity
  8
RACCORDO
100
AcDbSpline
 62
7
  6
CONTINUOUS
 70
0
 71
3
 72
11
 73
7
 74
5
 42
0.0000001
 43
0.0000001
 44
0.0000000001
 12
0.4104598159
 22
0.2008428369
 32
0.0
 13
0.4087143287
 23
-0.2043714832
 33
0.0
 40
0.0
 40
0.0
 40
0.0
 40
0.0
 40
0.2787325875
 40
0.5346772883
 40
0.772449667
 40
1.0
 40
1.0
 40
1.0
 40
1.0
 10
5.3716431667
 20
21.6967465197
 30
0.0
 10
5.4097793422
 20
21.7154070009
 30
0.0
 10
5.4860103319
 20
21.7454934504
 30
0.0
 10
5.6026795346
 20
21.7665476246
 30
0.0
 10
5.7134876857
 20
21.7604352303
 30
0.0
 10
5.7816990242
 20
21.7375901014
 30
0.0
 10
5.8127000514
 20
21.7220885017
 30
0.0
 11
5.3716431667
 21
21.6967465197
 31
0.0
 11
5.4904891738
 21
21.742559832
 31
0.0
 11
5.6057681369
 21
21.7623020671
 31
0.0
 11
5.7142026957
 21
21.7554132738
 31
0.0
 11
5.8127000514
 21
21.7220885017
 31
0.0
  0
SPLINE
  5
3E4
100
AcDbEntity
  8
RACCORDO
100
AcDbSpline
 62
253
  6
CONTINUOUS
 70
0
 71
3
 72
11
 73
7
 74
5
 42
0.0000001
 43
0.0000001
 44
0.0000000001
 12
-0.1026843425
 22
0.0513470616
 32
0.0
 13
-0.1029781233
 23
-0.0507553057
 33
0.0
 40
0.0
 40
0.0
 40
0.0
 40
0.0
 40
0.2274030322
 40
0.4651083369
 40
0.721100729
 40
1.0
 40
1.0
 40
1.0
 40
1.0
 10
-9.5518316372
 20
24.5650911159
 30
0.0
 10
-9.5596152141
 20
24.5689832751
 30
0.0
 10
-9.5767508254
 20
24.5747091355
 30
0.0
 10
-9.604588115
 20
24.5761964159
 30
0.0
 10
-9.6338938799
 20
24.5708355441
 30
0.0
 10
-9.6530329406
 20
24.5632200606
 30
0.0
 10
-9.6626064485
 20
24.5585015213
 30
0.0
 11
-9.5518316372
 21
24.5650911159
 31
0.0
 11
-9.5765671372
 21
24.5734428699
 31
0.0
 11
-9.6038052082
 21
24.5751284997
 31
0.0
 11
-9.6327615425
 21
24.570100296
 31
0.0
 11
-9.6626064485
 21
24.5585015213
 31
0.0
  0
SPLINE
  5
3E5
100
AcDbEntity
  8
RACCORDO
100
AcDbSpline
 62
7
  6
CONTINUOUS
 70
0
 71
3
 72
9
 73
5
 74
3
 42
0.0000001
 43
0.0000001
 44
0.0000000001
 12
-0.0045884295
 22
-0.005576179
 32
0.0
 13
-0.0070425727
 23
-0.0015967554
 33
0.0
 40
0.0
 40
0.0
 40
0.0
 40
0.0
 40
0.2030518491
 40
1.0
 40
1.0
 40
1.0
 40
1.0
 10
3.9496280089
 20
17.2209783733
 30
0.0
 10
3.9493174458
 20
17.2206009555
 30
0.0
 10
3.9475161105
 20
17.2189638884
 30
0.0
 10
3.9451055244
 20
17.2182169724
 30
0.0
 10
3.9432346693
 20
17.2177927953
 30
0.0
 11
3.9496280089
 21
17.2209783733
 31
0.0
 11
3.9485607975
 21
17.2199728374
 31
0.0
 11
3.9432346693
 21
17.2177927953
 31
0.0
  0
SPLINE
  5
3E6
100
AcDbEntity
  8
RACCORDO
100
AcDbSpline
 62
7
  6
CONTINUOUS
 70
0
 71
3
 72
10
 73
6
 74
4
 42
0.0000001
 43
0.0000001
 44
0.0000000001
 12
-0.0637071508
 22
-0.0144442584
 32
0.0
 13
-0.0639880993
 23
0.0131438506
 33
0.0
 40
0.0
 40
0.0
 40
0.0
 40
0.0
 40
0.1603023149
 40
0.3823106963
 40
1.0
 40
1.0
 40
1.0
 40
1.0
 10
3.9432346693
 20
17.2177927953
 30
0.0
 10
3.9398305347
 20
17.2170209793
 30
0.0
 10
3.9314415996
 20
17.2165456207
 30
0.0
 10
3.9097177898
 20
17.2179331929
 30
0.0
 10
3.8916603412
 20
17.2212151116
 30
0.0
 10
3.8784854196
 20
17.2239213836
 30
0.0
 11
3.9432346693
 21
17.2177927953
 31
0.0
 11
3.932810312
 21
17.2167991834
 31
0.0
 11
3.9183263478
 21
17.2175321252
 31
0.0
 11
3.8784854196
 21
17.2239213836
 31
0.0
  0
SPLINE
  5
3E7
100
AcDbEntity
  8
RACCORDO
100
AcDbSpline
 62
253
  6
CONTINUOUS
 70
0
 71
3
 72
14
 73
10
 74
8
 42
0.0000001
 43
0.0000001
 44
0.0000000001
 12
-2.9748670207
 22
-1.5697241866
 32
0.0
 13
-3.0085064599
 23
1.5042462209
 33
0.0
 40
0.0
 40
0.0
 40
0.0
 40
0.0
 40
0.1124930246
 40
0.2262936805
 40
0.3428014328
 40
0.4632395857
 40
0.5885995936
 40
0.7196169508
 40
1.0
 40
1.0
 40
1.0
 40
1.0
 10
-7.0630258709
 20
-9.3697435494
 30
0.0
 10
-7.1745764672
 20
-9.4286045565
 30
0.0
 10
-7.4078987983
 20
-9.5309007312
 30
0.0
 10
-7.7795211212
 20
-9.6336465982
 30
0.0
 10
-8.1705700658
 20
-9.6854200004
 30
0.0
 10
-8.5778406445
 20
-9.6860041584
 30
0.0
 10
-8.9983007421
 20
-9.6356456732
 30
0.0
 10
-9.5851907929
 20
-9.4983690912
 30
0.0
 10
-10.0161582456
 20
-9.3242632522
 30
0.0
 10
-10.2973363171
 20
-9.1836748715
 30
0.0
 11
-7.0630258709
 21
-9.3697435494
 31
0.0
 11
-7.4095152149
 21
-9.5217912978
 31
0.0
 11
-7.7783200432
 21
-9.6242815604
 31
0.0
 11
-8.1667152236
 21
-9.6764760337
 31
0.0
 11
-8.5718191988
 21
-9.6780144082
 31
0.0
 11
-8.9906131293
 21
-9.6289169004
 31
0.0
 11
-9.4199631197
 21
-9.5295824876
 31
0.0
 11
-10.2973363171
 21
-9.1836748715
 31
0.0
  0
SPLINE
  5
3E8
100
AcDbEntity
  8
RACCORDO
100
AcDbSpline
 62
253
  6
CONTINUOUS
 70
0
 71
3
 72
11
 73
7
 74
5
 42
0.0000001
 43
0.0000001
 44
0.0000000001
 12
-0.0000013331
 22
-0.1191821839
 32
0.0
 13
-0.1063496853
 23
-0.0537971877
 33
0.0
 40
0.0
 40
0.0
 40
0.0
 40
0.0
 40
0.2069628811
 40
0.4350650041
 40
0.6978063725
 40
1.0
 40
1.0
 40
1.0
 40
1.0
 10
-9.4136348898
 20
23.9939530967
 30
0.0
 10
-9.4136349818
 20
23.9857310007
 30
0.0
 10
-9.4172341061
 20
23.9683150979
 30
0.0
 10
-9.4322834827
 20
23.9445198395
 30
0.0
 10
-9.4557604287
 20
23.9231080538
 30
0.0
 10
-9.4751200124
 20
23.9114995216
 30
0.0
 10
-9.4858327448
 20
23.9060804658
 30
0.0
 11
-9.4136348898
 21
23.9939530967
 31
0.0
 11
-9.418368077
 21
23.9697451908
 31
0.0
 11
-9.4323883856
 21
23.9464536959
 31
0.0
 11
-9.4551625182
 21
23.9249615782
 31
0.0
 11
-9.4858327448
 21
23.9060804658
 31
0.0
  0
SPLINE
  5
3E9
100
AcDbEntity
  8
RACCORDO
100
AcDbSpline
 62
253
  6
CONTINUOUS
 70
0
 71
3
 72
10
 73
6
 74
4
 42
0.0000001
 43
0.0000001
 44
0.0000000001
 12
-0.1024112416
 22
0.0511996911
 32
0.0
 13
-0.1026999059
 23
-0.0506181795
 33
0.0
 40
0.0
 40
0.0
 40
0.0
 40
0.0
 40
0.2280031354
 40
0.4663370619
 40
1.0
 40
1.0
 40
1.0
 40
1.0
 10
3.8124794255
 20
17.8829355851
 30
0.0
 10
3.8046960641
 20
17.8868268151
 30
0.0
 10
3.787555208
 20
17.8925496002
 30
0.0
 10
3.7490954507
 20
17.8946139972
 30
0.0
 10
3.7199807605
 20
17.8853467879
 30
0.0
 10
3.701711716
 20
17.8763424391
 30
0.0
 11
3.8124794255
 21
17.8829355851
 31
0.0
 11
3.7877450431
 21
17.8912849441
 31
0.0
 11
3.7605086433
 21
17.8929691616
 31
0.0
 11
3.701711716
 21
17.8763424391
 31
0.0
  0
SPLINE
  5
3EA
100
AcDbEntity
  8
RACCORDO
100
AcDbSpline
 62
253
  6
CONTINUOUS
 70
0
 71
3
 72
11
 73
7
 74
5
 42
0.0000001
 43
0.0000001
 44
0.0000000001
 12
-0.0000013698
 22
-0.1191821853
 32
0.0
 13
-0.1063496865
 23
-0.0537971883
 33
0.0
 40
0.0
 40
0.0
 40
0.0
 40
0.0
 40
0.2069627866
 40
0.4350648202
 40
0.69780603
 40
1.0
 40
1.0
 40
1.0
 40
1.0
 10
3.9506832745
 20
17.6593255325
 30
0.0
 10
3.95068318
 20
17.6511034401
 30
0.0
 10
3.9470840633
 20
17.6336875443
 30
0.0
 10
3.9320346958
 20
17.6098922954
 30
0.0
 10
3.9085577559
 20
17.5884804976
 30
0.0
 10
3.8891981643
 20
17.5768719623
 30
0.0
 10
3.8784854196
 20
17.5714529003
 30
0.0
 11
3.9506832745
 21
17.6593255325
 31
0.0
 11
3.9459500916
 21
17.6351176369
 31
0.0
 11
3.9319297926
 21
17.6118261484
 31
0.0
 11
3.90915568
 21
17.5903340365
 31
0.0
 11
3.8784854196
 21
17.5714529003
 31
0.0
  0
SPLINE
  5
3EB
100
AcDbEntity
  8
RACCORDO
100
AcDbSpline
 62
253
  6
CONTINUOUS
 70
0
 71
3
 72
11
 73
7
 74
5
 42
0.0000001
 43
0.0000001
 44
0.0000000001
 12
-0.1026843522
 22
0.0513470349
 32
0.0
 13
-0.1029781204
 23
-0.0507553043
 33
0.0
 40
0.0
 40
0.0
 40
0.0
 40
0.0
 40
0.2274032722
 40
0.4651087917
 40
0.721101419
 40
1.0
 40
1.0
 40
1.0
 40
1.0
 10
2.4751603645
 20
18.5515951139
 30
0.0
 10
2.4673767786
 20
18.5554872751
 30
0.0
 10
2.4502411501
 20
18.5612131386
 30
0.0
 10
2.4224038337
 20
18.5627004107
 30
0.0
 10
2.3930980811
 20
18.5573395268
 30
0.0
 10
2.3739590393
 20
18.5497240469
 30
0.0
 10
2.3643855554
 20
18.5450055194
 30
0.0
 11
2.4751603645
 21
18.5515951139
 31
0.0
 11
2.4504248372
 21
18.5599468712
 31
0.0
 11
2.4231867419
 21
18.5616324933
 31
0.0
 11
2.3942303841
 21
18.5566042718
 31
0.0
 11
2.3643855554
 21
18.5450055194
 31
0.0
  0
SPLINE
  5
3EC
100
AcDbEntity
  8
RACCORDO
100
AcDbSpline
 62
253
  6
CONTINUOUS
 70
0
 71
3
 72
11
 73
7
 74
5
 42
0.0000001
 43
0.0000001
 44
0.0000000001
 12
-0.0000014429
 22
-0.119182188
 32
0.0
 13
-0.1063496889
 23
-0.0537971895
 33
0.0
 40
0.0
 40
0.0
 40
0.0
 40
0.0
 40
0.2069627842
 40
0.4350648191
 40
0.6978060254
 40
1.0
 40
1.0
 40
1.0
 40
1.0
 10
-9.4136348902
 20
24.341484618
 30
0.0
 10
-9.4136349897
 20
24.3332625255
 30
0.0
 10
-9.4172340985
 20
24.3158466293
 30
0.0
 10
-9.4322834684
 20
24.2920513793
 30
0.0
 10
-9.4557604071
 20
24.2706395801
 30
0.0
 10
-9.4751199997
 20
24.2590310447
 30
0.0
 10
-9.4858327448
 20
24.2536119825
 30
0.0
 11
-9.4136348902
 21
24.341484618
 31
0.0
 11
-9.4183680726
 21
24.317276722
 31
0.0
 11
-9.4323883711
 21
24.2939852323
 31
0.0
 11
-9.4551624832
 21
24.2724931194
 31
0.0
 11
-9.4858327448
 21
24.2536119825
 31
0.0
  0
SPLINE
  5
3ED
100
AcDbEntity
  8
RACCORDO
100
AcDbSpline
 62
253
  6
CONTINUOUS
 70
0
 71
3
 72
11
 73
7
 74
5
 42
0.0000001
 43
0.0000001
 44
0.0000000001
 12
-0.1026843425
 22
0.0513470616
 32
0.0
 13
-0.1029781233
 23
-0.0507553057
 33
0.0
 40
0.0
 40
0.0
 40
0.0
 40
0.0
 40
0.2274030322
 40
0.4651083369
 40
0.721100729
 40
1.0
 40
1.0
 40
1.0
 40
1.0
 10
-10.8891577977
 20
25.2337541962
 30
0.0
 10
-10.8969413747
 20
25.2376463554
 30
0.0
 10
-10.914076986
 20
25.2433722158
 30
0.0
 10
-10.9419142755
 20
25.2448594962
 30
0.0
 10
-10.9712200404
 20
25.2394986244
 30
0.0
 10
-10.9903591012
 20
25.2318831409
 30
0.0
 10
-10.999932609
 20
25.2271646016
 30
0.0
 11
-10.8891577977
 21
25.2337541962
 31
0.0
 11
-10.9138932978
 21
25.2421059502
 31
0.0
 11
-10.9411313687
 21
25.24379158
 31
0.0
 11
-10.970087703
 21
25.2387633763
 31
0.0
 11
-10.999932609
 21
25.2271646016
 31
0.0
  0
SPLINE
  5
3EE
100
AcDbEntity
  8
RACCORDO
100
AcDbSpline
 62
7
  6
CONTINUOUS
 70
0
 71
3
 72
9
 73
5
 74
3
 42
0.0000001
 43
0.0000001
 44
0.0000000001
 12
-0.002538013
 22
-0.1025524478
 32
0.0
 13
0.0499345168
 23
-0.089610212
 33
0.0
 40
0.0
 40
0.0
 40
0.0
 40
0.0
 40
0.486987039
 40
1.0
 40
1.0
 40
1.0
 40
1.0
 10
-3.9375907676
 20
6.809348402
 30
0.0
 10
-3.9380027608
 20
6.7927011643
 30
0.0
 10
-3.9320517513
 20
6.7583719536
 30
0.0
 10
-3.918384902
 20
6.7267818788
 30
0.0
 10
-3.9098458839
 20
6.7114581454
 30
0.0
 11
-3.9375907676
 21
6.809348402
 31
0.0
 11
-3.9303767712
 21
6.7599150065
 31
0.0
 11
-3.9098458839
 21
6.7114581454
 31
0.0
  0
SPLINE
  5
3EF
100
AcDbEntity
  8
RACCORDO
100
AcDbSpline
 62
253
  6
CONTINUOUS
 70
0
 71
3
 72
11
 73
7
 74
5
 42
0.0000001
 43
0.0000001
 44
0.0000000001
 12
0.0080824386
 22
-0.2406814809
 32
0.0
 13
0.2153202583
 23
-0.1078428832
 33
0.0
 40
0.0
 40
0.0
 40
0.0
 40
0.0
 40
0.2116061877
 40
0.4417969087
 40
0.7029588134
 40
1.0
 40
1.0
 40
1.0
 40
1.0
 10
-18.1577678
 20
-17.0607297086
 30
0.0
 10
-18.157197702
 20
-17.0777062721
 30
0.0
 10
-18.1491361325
 20
-17.113176699
 30
0.0
 10
-18.118434983
 20
-17.1615051987
 30
0.0
 10
-18.0713206715
 20
-17.204574687
 30
0.0
 10
-18.0326241482
 20
-17.227698742
 30
0.0
 10
-18.0113044865
 20
-17.238376668
 30
0.0
 11
-18.1577678
 21
-17.0607297086
 31
0.0
 11
-18.1468981662
 21
-17.1105153446
 31
0.0
 11
-18.1180529334
 21
-17.1578531406
 31
0.0
 11
-18.07229627
 21
-17.2010013146
 31
0.0
 11
-18.0113044865
 21
-17.238376668
 31
0.0
  0
SPLINE
  5
3F0
100
AcDbEntity
  8
ASSI
100
AcDbSpline
 62
7
  6
CONTINUOUS
 70
0
 71
3
 72
9
 73
5
 74
3
 42
0.0000001
 43
0.0000001
 44
0.0000000001
 12
-0.0502723709
 22
-0.0161727928
 32
0.0
 13
-0.0473687191
 23
-0.0233468405
 33
0.0
 40
0.0
 40
0.0
 40
0.0
 40
0.0
 40
0.2435111511
 40
1.0
 40
1.0
 40
1.0
 40
1.0
 10
-1.3011089368
 20
24.5558843283
 30
0.0
 10
-1.3051895645
 20
24.5545715765
 30
0.0
 10
-1.3218393355
 20
24.5488485977
 30
0.0
 10
-1.3380403324
 20
24.5418429694
 30
0.0
 10
-1.3499849683
 20
24.5359557612
 30
0.0
 11
-1.3011089368
 21
24.5558843283
 31
0.0
 11
-1.313271763
 21
24.5517083
 31
0.0
 11
-1.3499849683
 21
24.5359557612
 31
0.0
  0
SPLINE
  5
3F1
100
AcDbEntity
  8
RACCORDO
100
AcDbSpline
 62
253
  6
CONTINUOUS
 70
0
 71
3
 72
11
 73
7
 74
5
 42
0.0000001
 43
0.0000001
 44
0.0000000001
 12
-0.0077504901
 22
-0.2396094505
 32
0.0
 13
0.2145031388
 23
-0.1070568182
 33
0.0
 40
0.0
 40
0.0
 40
0.0
 40
0.0
 40
0.2010443519
 40
0.4266191137
 40
0.6914786763
 40
1.0
 40
1.0
 40
1.0
 40
1.0
 10
-18.1577868195
 20
18.5518975928
 30
0.0
 10
-18.1583062169
 20
18.5358402172
 30
0.0
 10
-18.1516321506
 20
18.501243973
 30
0.0
 10
-18.1211534772
 20
18.4540454866
 30
0.0
 10
-18.0730697119
 20
18.4112395359
 30
0.0
 10
-18.033364084
 20
18.38787297
 30
0.0
 10
-18.0113044865
 20
18.3768631996
 30
0.0
 11
-18.1577868195
 21
18.5518975928
 31
0.0
 11
-18.1493220594
 21
18.5044494149
 31
0.0
 11
-18.1212140374
 21
18.4582500489
 31
0.0
 11
-18.074588359
 21
18.4151479151
 31
0.0
 11
-18.0113044865
 21
18.3768631996
 31
0.0
  0
SPLINE
  5
3F2
100
AcDbEntity
  8
RACCORDO
100
AcDbSpline
 62
253
  6
CONTINUOUS
 70
0
 71
3
 72
11
 73
7
 74
5
 42
0.0000001
 43
0.0000001
 44
0.0000000001
 12
0.2049338468
 22
0.094550905
 32
0.0
 13
0.2033259115
 23
-0.0979608539
 33
0.0
 40
0.0
 40
0.0
 40
0.0
 40
0.0
 40
0.2234380475
 40
0.460502327
 40
0.718180723
 40
1.0
 40
1.0
 40
1.0
 40
1.0
 10
-17.2369971896
 20
20.145293568
 30
0.0
 10
-17.2217338501
 20
20.1523356578
 30
0.0
 10
-17.1880499453
 20
20.1623808252
 30
0.0
 10
-17.1335480038
 20
20.1639973624
 30
0.0
 10
-17.0758058553
 20
20.1528293468
 30
0.0
 10
-17.0378388636
 20
20.1378697745
 30
0.0
 10
-17.0187384765
 20
20.1286673555
 30
0.0
 11
-17.2369971896
 21
20.145293568
 31
0.0
 11
-17.1887492839
 21
20.1599627417
 31
0.0
 11
-17.1352864972
 21
20.1620616513
 31
0.0
 11
-17.0780908887
 21
20.1515338135
 31
0.0
 11
-17.0187384765
 21
20.1286673555
 31
0.0
  0
SPLINE
  5
3F3
100
AcDbEntity
  8
ASSI
100
AcDbSpline
 62
7
  6
CONTINUOUS
 70
0
 71
3
 72
15
 73
11
 74
9
 42
0.0000001
 43
0.0000001
 44
0.0000000001
 12
-1.301960625
 22
0.6509803125
 32
0.0
 13
-1.301960625
 23
-0.6509803125
 33
0.0
 40
0.0
 40
0.0
 40
0.0
 40
0.0
 40
0.1125283668
 40
0.2354661251
 40
0.3658135196
 40
0.5
 40
0.6341864804
 40
0.7645338749
 40
0.8874716332
 40
1.0
 40
1.0
 40
1.0
 40
1.0
 10
-0.9277777783
 20
21.6528840135
 30
0.0
 10
-0.9766136125
 20
21.6773019307
 30
0.0
 10
-1.0830397906
 20
21.7200866522
 30
0.0
 10
-1.255056619
 20
21.7652700983
 30
0.0
 10
-1.4413421852
 20
21.7930989122
 30
0.0
 10
-1.6348845595
 20
21.8024912731
 30
0.0
 10
-1.8284269337
 20
21.7930989122
 30
0.0
 10
-2.0147125
 20
21.7652700983
 30
0.0
 10
-2.1867293283
 20
21.7200866522
 30
0.0
 10
-2.2931555064
 20
21.6773019307
 30
0.0
 10
-2.3419913406
 20
21.6528840135
 30
0.0
 11
-0.9277777783
 21
21.6528840135
 31
0.0
 11
-1.0793163773
 21
21.715066113
 31
0.0
 11
-1.2522013804
 21
21.7612703169
 31
0.0
 11
-1.4397942632
 21
21.7897232071
 31
0.0
 11
-1.6348845595
 21
21.7993303413
 31
0.0
 11
-1.8299748557
 21
21.7897232071
 31
0.0
 11
-2.0175677385
 21
21.7612703169
 31
0.0
 11
-2.1904527417
 21
21.715066113
 31
0.0
 11
-2.3419913406
 21
21.6528840135
 31
0.0
  0
SPLINE
  5
3F4
100
AcDbEntity
  8
RACCORDO
100
AcDbSpline
 62
253
  6
CONTINUOUS
 70
0
 71
3
 72
12
 73
8
 74
6
 42
0.0000001
 43
0.0000001
 44
0.0000000001
 12
-0.7517844461
 22
0.4220462427
 32
0.0
 13
-0.0291156278
 23
0.8616583804
 33
0.0
 40
0.0
 40
0.0
 40
0.0
 40
0.0
 40
0.1080239068
 40
0.2185537923
 40
0.4527531565
 40
0.7122173845
 40
1.0
 40
1.0
 40
1.0
 40
1.0
 10
-17.6501654919
 20
-17.9821056006
 30
0.0
 10
-17.6772357228
 20
-17.9669085727
 30
0.0
 10
-17.7294866433
 20
-17.9314268544
 30
0.0
 10
-17.8240979121
 20
-17.8413925461
 30
0.0
 10
-17.9197751472
 20
-17.6933533344
 30
0.0
 10
-17.9905049654
 20
-17.4783308697
 30
0.0
 10
-18.008511496
 20
-17.3210334355
 30
0.0
 10
-18.0113044865
 20
-17.238376668
 30
0.0
 11
-17.6501654919
 21
-17.9821056006
 31
0.0
 11
-17.727280031
 21
-17.9298842311
 31
0.0
 11
-17.7964611634
 21
-17.8643495462
 31
0.0
 11
-17.9082364139
 21
-17.6961949518
 31
0.0
 11
-17.9808550082
 21
-17.4846129515
 31
0.0
 11
-18.0113044865
 21
-17.238376668
 31
0.0
  0
SPLINE
  5
3F5
100
AcDbEntity
  8
RACCORDO
100
AcDbSpline
 62
7
  6
CONTINUOUS
 70
0
 71
3
 72
9
 73
5
 74
3
 42
0.0000001
 43
0.0000001
 44
0.0000000001
 12
-4.8617890725
 22
-2.4521685526
 32
0.0
 13
-4.8612540019
 23
-2.4532291219
 33
0.0
 40
0.0
 40
0.0
 40
0.0
 40
0.0
 40
0.2499894528
 40
1.0
 40
1.0
 40
1.0
 40
1.0
 10
8.702813512
 20
18.6125899359
 30
0.0
 10
8.2976815153
 20
18.4082511777
 30
0.0
 10
6.6771096999
 20
17.5908130023
 30
0.0
 10
5.0566310954
 20
16.7731900401
 30
0.0
 10
3.8413005041
 20
16.1598741347
 30
0.0
 11
8.702813512
 21
18.6125899359
 31
0.0
 11
7.4874356177
 21
17.9995377851
 31
0.0
 11
3.8413005041
 21
16.1598741347
 31
0.0
  0
LINE
  5
3F6
100
AcDbEntity
  8
DRAFT
100
AcDbLine
 62
7
  6
CONTINUOUS
 10
8.702813512
 20
-15.7950472648
 11
7.720480234
 21
-16.2991823471
  0
LINE
  5
3F7
100
AcDbEntity
  8
DRAFT
100
AcDbLine
 62
7
  6
CONTINUOUS
 10
5.0890376792
 20
-17.649365922
 11
4.9864379609
 21
-17.7020016786
  0
SPLINE
  5
3F8
100
AcDbEntity
  8
RACCORDO
100
AcDbSpline
 62
253
  6
CONTINUOUS
 70
0
 71
3
 72
16
 73
12
 74
10
 42
0.0000001
 43
0.0000001
 44
0.0000000001
 12
-5.5285962026
 22
-3.018166048
 32
0.0
 13
-5.5303033513
 23
-3.0150368334
 33
0.0
 40
0.0
 40
0.0
 40
0.0
 40
0.0
 40
0.1245713595
 40
0.2491348069
 40
0.3114935169
 40
0.3739656875
 40
0.4991764408
 40
0.6245768868
 40
0.7499737523
 40
0.8751821649
 40
1.0
 40
1.0
 40
1.0
 40
1.0
 10
3.3734815998
 20
15.6942317434
 30
0.0
 10
3.1439133515
 20
15.5689060608
 30
0.0
 10
2.6847150444
 20
15.3184025937
 30
0.0
 10
2.110904989
 20
15.0046005036
 30
0.0
 10
1.6509279609
 20
14.7543863593
 30
0.0
 10
1.1889785029
 20
14.5049589817
 30
0.0
 10
0.6094993885
 20
14.1946161013
 30
0.0
 10
-0.0872916895
 20
13.8234869727
 30
0.0
 10
-0.7840276
 20
13.4522651368
 30
0.0
 10
-1.4789476999
 20
13.0802355093
 30
0.0
 10
-1.9404265185
 20
12.8300015818
 30
0.0
 10
-2.1705200157
 20
12.7045581251
 30
0.0
 11
3.3734815998
 21
15.6942317434
 31
0.0
 11
2.6847656659
 21
15.3182751922
 31
0.0
 11
1.9961292017
 21
14.9422770796
 31
0.0
 11
1.6510402301
 21
14.7546791195
 31
0.0
 11
1.3048169692
 21
14.5676743747
 31
0.0
 11
0.6097097286
 21
14.1950682777
 31
0.0
 11
-0.0872898485
 21
13.8234675939
 31
0.0
 11
-0.7842537523
 21
13.4518479385
 31
0.0
 11
-1.4793377079
 21
13.0792296105
 31
0.0
 11
-2.1705200157
 21
12.7045581251
 31
0.0
  0
SPLINE
  5
3F9
100
AcDbEntity
  8
RACCORDO
100
AcDbSpline
 62
253
  6
CONTINUOUS
 70
0
 71
3
 72
15
 73
11
 74
9
 42
0.0000001
 43
0.0000001
 44
0.0000000001
 12
0.0651272992
 22
1.9523054944
 32
0.0
 13
1.7079733476
 23
0.947926871
 33
0.0
 40
0.0
 40
0.0
 40
0.0
 40
0.0
 40
0.1202583714
 40
0.2469379718
 40
0.377692068
 40
0.5098546026
 40
0.640655182
 40
0.7674248666
 40
0.8878084183
 40
1.0
 40
1.0
 40
1.0
 40
1.0
 10
-17.2776973051
 20
18.0765318833
 30
0.0
 10
-17.2750866041
 20
18.1547922431
 30
0.0
 10
-17.2575799164
 20
18.315236762
 30
0.0
 10
-17.1995735153
 20
18.554815448
 30
0.0
 10
-17.1109534216
 20
18.793126789
 30
0.0
 10
-16.9946668784
 20
19.0222089069
 30
0.0
 10
-16.8545789796
 20
19.2344777091
 30
0.0
 10
-16.6952936105
 20
19.422905399
 30
0.0
 10
-16.5221095423
 20
19.5812199913
 30
0.0
 10
-16.3960889496
 20
19.6665558789
 30
0.0
 10
-16.3322155391
 20
19.7020056839
 30
0.0
 11
-17.2776973051
 21
18.0765318833
 31
0.0
 11
-17.253192586
 21
18.3101619665
 31
0.0
 11
-17.1955934708
 21
18.5508199111
 31
0.0
 11
-17.1068591885
 21
18.7903246233
 31
0.0
 11
-16.9900075003
 21
19.0205309179
 31
0.0
 11
-16.8490121249
 21
19.2336106578
 31
0.0
 11
-16.6886681911
 21
19.4223190239
 31
0.0
 11
-16.5144286781
 21
19.5802399946
 31
0.0
 11
-16.3322155391
 21
19.7020056839
 31
0.0
  0
SPLINE
  5
3FA
100
AcDbEntity
  8
RACCORDO
100
AcDbSpline
 62
253
  6
CONTINUOUS
 70
0
 71
3
 72
33
 73
29
 74
27
 42
0.0000001
 43
0.0000001
 44
0.0000000001
 12
18.2475958034
 22
-9.1238737624
 32
0.0
 13
-18.2476626546
 23
9.1237400598
 33
0.0
 40
0.0
 40
0.0
 40
0.0
 40
0.0
 40
0.0633285331
 40
0.0970462848
 40
0.1319703136
 40
0.2047734612
 40
0.2803030223
 40
0.3568185518
 40
0.432482028
 40
0.5055119941
 40
0.54055932
 40
0.5743910576
 40
0.6068765681
 40
0.6379238658
 40
0.667487508
 40
0.6955773228
 40
0.7222671818
 40
0.7477024198
 40
0.7721037935
 40
0.795764206
 40
0.8190350407
 40
0.8423011578
 40
0.8659480465
 40
0.8903288372
 40
0.91573877
 40
0.9424010525
 40
0.9704628019
 40
1.0
 40
1.0
 40
1.0
 40
1.0
 10
-10.8530773204
 20
3.6371697738
 30
0.0
 10
-10.4678794954
 20
3.44456926
 30
0.0
 10
-9.9064849544
 20
3.0889869121
 30
0.0
 10
-9.2104892318
 20
2.5217209433
 30
0.0
 10
-8.5122279395
 20
1.8588554063
 30
0.0
 10
-7.7025196042
 20
0.9061674954
 30
0.0
 10
-6.8652260598
 20
-0.3776839707
 30
0.0
 10
-6.1786378164
 20
-1.7698249636
 30
0.0
 10
-5.667435886
 20
-3.2172815389
 30
0.0
 10
-5.3988151727
 20
-4.4415771561
 30
0.0
 10
-5.2901348307
 20
-5.4011931094
 30
0.0
 10
-5.2625357
 20
-6.0906409521
 30
0.0
 10
-5.2879922789
 20
-6.7530110783
 30
0.0
 10
-5.3663473252
 20
-7.3820983537
 30
0.0
 10
-5.4970091147
 20
-7.9719912508
 30
0.0
 10
-5.6789818162
 20
-8.5171482408
 30
0.0
 10
-5.9108735563
 20
-9.0123971091
 30
0.0
 10
-6.1908973418
 20
-9.4529192965
 30
0.0
 10
-6.5168017946
 20
-9.8342340849
 30
0.0
 10
-6.8857560825
 20
-10.152232523
 30
0.0
 10
-7.2942315407
 20
-10.4033196412
 30
0.0
 10
-7.7379893294
 20
-10.5846779511
 30
0.0
 10
-8.2122739702
 20
-10.6944776673
 30
0.0
 10
-8.7120957321
 20
-10.7319129457
 30
0.0
 10
-9.2324327829
 20
-10.6970674516
 30
0.0
 10
-9.7683053712
 20
-10.5907087236
 30
0.0
 10
-10.3146525803
 20
-10.4142357647
 30
0.0
 10
-10.6734157114
 20
-10.2551320597
 30
0.0
 10
-10.8530773204
 20
-10.1653021538
 30
0.0
 11
-10.8530773204
 21
3.6371697738
 31
0.0
 11
-9.7563067243
 21
2.9542750818
 31
0.0
 11
-9.222436746
 21
2.5204805872
 31
0.0
 11
-8.7050901248
 21
2.0305717072
 31
0.0
 11
-7.7393866196
 21
0.9020744909
 31
0.0
 11
-6.895484604
 21
-0.3872062014
 31
0.0
 11
-6.2047420772
 21
-1.7870941539
 31
0.0
 11
-5.6925654169
 21
-3.2432938646
 31
0.0
 11
-5.3776377463
 21
-4.6995484307
 31
0.0
 11
-5.2980056608
 21
-5.4101170829
 31
0.0
 11
-5.2713809773
 21
-6.0998204277
 31
0.0
 11
-5.2980056598
 21
-6.7620374626
 31
0.0
 11
-5.3776377435
 21
-7.3904222663
 31
0.0
 11
-5.5095563735
 21
-7.9789605598
 31
0.0
 11
-5.6925654115
 21
-8.522026691
 31
0.0
 11
-5.9250001355
 21
-9.014436782
 31
0.0
 11
-6.2047420697
 21
-9.4514933244
 31
0.0
 11
-6.5292309997
 21
-9.8290320284
 31
0.0
 11
-6.8954845943
 21
-10.1434592134
 31
0.0
 11
-7.3001219089
 21
-10.3917833841
 31
0.0
 11
-7.7393866077
 21
-10.5716483207
 31
0.0
 11
-8.2091792435
 21
-10.6813513021
 31
0.0
 11
-8.7050901127
 21
-10.7198613901
 31
0.0
 11
-9.2224367314
 21
-10.6868323461
 31
0.0
 11
-9.7563067088
 21
-10.582601463
 31
0.0
 11
-10.3015951004
 21
-10.4081945427
 31
0.0
 11
-10.8530773204
 21
-10.1653021538
 31
0.0
  0
SPLINE
  5
3FB
100
AcDbEntity
  8
RACCORDO
100
AcDbSpline
 62
253
  6
CONTINUOUS
 70
0
 71
3
 72
33
 73
29
 74
27
 42
0.0000001
 43
0.0000001
 44
0.0000000001
 12
-18.3316978978
 22
9.1659301621
 32
0.0
 13
18.3317645261
 23
-9.1657969053
 33
0.0
 40
0.0
 40
0.0
 40
0.0
 40
0.0
 40
0.0631358385
 40
0.0967929537
 40
0.1316622273
 40
0.2043277438
 40
0.2796249989
 40
0.3557903072
 40
0.4310114268
 40
0.5035765997
 40
0.5384153785
 40
0.5720725438
 40
0.6044317317
 40
0.6354142137
 40
0.66498562
 40
0.6931632508
 40
0.7200232092
 40
0.7457061329
 40
0.770419766
 40
0.7944353721
 40
0.8180756433
 40
0.841693482
 40
0.8656443196
 40
0.8902578583
 40
0.9158152351
 40
0.9425351168
 40
0.9705682016
 40
1.0
 40
1.0
 40
1.0
 40
1.0
 10
-10.8530773204
 20
-10.1653021538
 30
0.0
 10
-11.2388730265
 20
-9.9724025916
 30
0.0
 10
-11.8020864586
 20
-9.6177026107
 30
0.0
 10
-12.503153045
 20
-9.0535125258
 30
0.0
 10
-13.2088243398
 20
-8.3946398724
 30
0.0
 10
-14.030673123
 20
-7.4488455134
 30
0.0
 10
-14.8853831465
 20
-6.1740077262
 30
0.0
 10
-15.5895890921
 20
-4.7904738414
 30
0.0
 10
-16.1158846406
 20
-3.3499019713
 30
0.0
 10
-16.3930867339
 20
-2.1291768749
 30
0.0
 10
-16.5052459814
 20
-1.1712651071
 30
0.0
 10
-16.5337228543
 20
-0.4821108399
 30
0.0
 10
-16.5073893825
 20
0.1808262785
 30
0.0
 10
-16.4264320173
 20
0.8113118637
 30
0.0
 10
-16.2915383533
 20
1.4033662254
 30
0.0
 10
-16.103870405
 20
1.9513455917
 30
0.0
 10
-15.8650556861
 20
2.4499490235
 30
0.0
 10
-15.5771807353
 20
2.8942179475
 30
0.0
 10
-15.2428436288
 20
3.2795419034
 30
0.0
 10
-14.8652331932
 20
3.601707497
 30
0.0
 10
-14.4482030273
 20
3.8570302333
 30
0.0
 10
-13.9962621064
 20
4.042579593
 30
0.0
 10
-13.5144034915
 20
4.1563585887
 30
0.0
 10
-13.0078600842
 20
4.1973546381
 30
0.0
 10
-12.481911977
 20
4.1654531048
 30
0.0
 10
-11.9417842018
 20
4.061268959
 30
0.0
 10
-11.3927411701
 20
3.8861082788
 30
0.0
 10
-11.0329229196
 20
3.727091736
 30
0.0
 10
-10.8530773204
 20
3.6371697738
 30
0.0
 11
-10.8530773204
 21
-10.1653021538
 31
0.0
 11
-11.9532713255
 21
-9.484119166
 31
0.0
 11
-12.4912967051
 21
-9.0524023719
 31
0.0
 11
-13.0142346283
 21
-8.5652891428
 31
0.0
 11
-13.9945187795
 21
-7.4440822491
 31
0.0
 11
-14.8556103677
 21
-6.1633963428
 31
0.0
 11
-15.5635324343
 21
-4.7720981599
 31
0.0
 11
-16.0902655145
 21
-3.3231766589
 31
0.0
 11
-16.4149156579
 21
-1.8717833288
 31
0.0
 11
-16.4970995021
 21
-1.1624905571
 31
0.0
 11
-16.5245858088
 21
-0.4732180259
 31
0.0
 11
-16.4970995032
 21
0.1894298195
 31
0.0
 11
-16.4149156608
 21
0.8190905032
 31
0.0
 11
-16.2788527509
 21
1.4097009369
 31
0.0
 11
-16.0902655201
 21
1.9555561648
 31
0.0
 11
-15.8510324437
 21
2.4513654322
 31
0.0
 11
-15.5635324421
 21
2.8923010084
 31
0.0
 11
-15.2306232576
 21
3.27404984
 31
0.0
 11
-14.8556103777
 21
3.5928566677
 31
0.0
 11
-14.4422111699
 21
3.8455617851
 31
0.0
 11
-13.9945187916
 21
4.0296405616
 31
0.0
 11
-13.5169569698
 21
4.1432281361
 31
0.0
 11
-13.0142346407
 21
4.185143954
 31
0.0
 11
-12.49129672
 21
4.154910561
 31
0.0
 11
-11.953271341
 21
4.0527573787
 31
0.0
 11
-11.405423775
 21
3.8796300455
 31
0.0
 11
-10.8530773204
 21
3.6371697738
 31
0.0
  0
SPLINE
  5
3FC
100
AcDbEntity
  8
RACCORDO
100
AcDbSpline
 62
253
  6
CONTINUOUS
 70
0
 71
3
 72
9
 73
5
 74
3
 42
0.0000001
 43
0.0000001
 44
0.0000000001
 12
-0.0221868313
 22
0.0110906045
 32
0.0
 13
-0.0242889286
 23
0.0050304018
 33
0.0
 40
0.0
 40
0.0
 40
0.0
 40
0.0
 40
0.747566003
 40
1.0
 40
1.0
 40
1.0
 40
1.0
 10
3.8124803828
 20
-23.7642000968
 30
0.0
 10
3.8069516759
 20
-23.7614364438
 30
0.0
 10
3.7991569642
 20
-23.7584691112
 30
0.0
 10
3.7911154081
 20
-23.7565392313
 30
0.0
 10
3.7890716243
 20
-23.7561159498
 30
0.0
 11
3.8124803828
 21
-23.7642000968
 31
0.0
 11
3.7951596027
 21
-23.7575796754
 31
0.0
 11
3.7890716243
 21
-23.7561159498
 31
0.0
  0
SPLINE
  5
3FD
100
AcDbEntity
  8
RACCORDO
100
AcDbSpline
 62
253
  6
CONTINUOUS
 70
0
 71
3
 72
11
 73
7
 74
5
 42
0.0000001
 43
0.0000001
 44
0.0000000001
 12
-0.0000014429
 22
-0.119182188
 32
0.0
 13
-0.1063496889
 23
-0.0537971895
 33
0.0
 40
0.0
 40
0.0
 40
0.0
 40
0.0
 40
0.2069627842
 40
0.4350648191
 40
0.6978060254
 40
1.0
 40
1.0
 40
1.0
 40
1.0
 10
3.9506832743
 20
-24.3353416371
 30
0.0
 10
3.9506831747
 20
-24.3435637296
 30
0.0
 10
3.9470840659
 20
-24.3609796257
 30
0.0
 10
3.932034696
 20
-24.3847748758
 30
0.0
 10
3.9085577573
 20
-24.406186675
 30
0.0
 10
3.8891981647
 20
-24.4177952104
 30
0.0
 10
3.8784854196
 20
-24.4232142726
 30
0.0
 11
3.9506832743
 21
-24.3353416371
 31
0.0
 11
3.9459500918
 21
-24.3595495331
 31
0.0
 11
3.9319297933
 21
-24.3828410228
 31
0.0
 11
3.9091556812
 21
-24.4043331356
 31
0.0
 11
3.8784854196
 21
-24.4232142726
 31
0.0
  0
SPLINE
  5
3FE
100
AcDbEntity
  8
RACCORDO
100
AcDbSpline
 62
253
  6
CONTINUOUS
 70
0
 71
3
 72
11
 73
7
 74
5
 42
0.0000001
 43
0.0000001
 44
0.0000000001
 12
-0.0000013698
 22
-0.1191821853
 32
0.0
 13
-0.1063496865
 23
-0.0537971883
 33
0.0
 40
0.0
 40
0.0
 40
0.0
 40
0.0
 40
0.2069627866
 40
0.4350648202
 40
0.69780603
 40
1.0
 40
1.0
 40
1.0
 40
1.0
 10
3.9506832745
 20
-23.9878101236
 30
0.0
 10
3.95068318
 20
-23.996032216
 30
0.0
 10
3.9470840633
 20
-24.0134481118
 30
0.0
 10
3.9320346958
 20
-24.0372433607
 30
0.0
 10
3.9085577559
 20
-24.0586551585
 30
0.0
 10
3.8891981643
 20
-24.0702636938
 30
0.0
 10
3.8784854196
 20
-24.0756827558
 30
0.0
 11
3.9506832745
 21
-23.9878101236
 31
0.0
 11
3.9459500916
 21
-24.0120180192
 31
0.0
 11
3.9319297926
 21
-24.0353095077
 31
0.0
 11
3.90915568
 21
-24.0568016196
 31
0.0
 11
3.8784854196
 21
-24.0756827558
 31
0.0
  0
SPLINE
  5
3FF
100
AcDbEntity
  8
RACCORDO
100
AcDbSpline
 62
253
  6
CONTINUOUS
 70
0
 71
3
 72
11
 73
7
 74
5
 42
0.0000001
 43
0.0000001
 44
0.0000000001
 12
0.1389309045
 22
0.0712901781
 32
0.0
 13
-0.000739186
 23
0.1561522953
 33
0.0
 40
0.0
 40
0.0
 40
0.0
 40
0.0
 40
0.21754047
 40
0.4509586233
 40
0.7106393245
 40
1.0
 40
1.0
 40
1.0
 40
1.0
 10
3.8148027543
 20
-24.5577748943
 30
0.0
 10
3.824877119
 20
-24.5526053946
 30
0.0
 10
3.8438956925
 20
-24.5378725905
 30
0.0
 10
3.8642023169
 20
-24.5062889123
 30
0.0
 10
3.8762637502
 20
-24.4669735852
 30
0.0
 10
3.8785567168
 20
-24.4382757171
 30
0.0
 10
3.8784854196
 20
-24.4232142726
 30
0.0
 11
3.8148027543
 21
-24.5577748943
 31
0.0
 11
3.8417990375
 21
-24.5371557368
 31
0.0
 11
3.8619977292
 21
-24.5068150674
 31
0.0
 11
3.8744259161
 21
-24.4682163857
 31
0.0
 11
3.8784854196
 21
-24.4232142726
 31
0.0
  0
SPLINE
  5
400
100
AcDbEntity
  8
RACCORDO
100
AcDbSpline
 62
7
  6
CONTINUOUS
 70
0
 71
3
 72
11
 73
7
 74
5
 42
0.0000001
 43
0.0000001
 44
0.0000000001
 12
0.1334232764
 22
0.0748828011
 32
0.0
 13
-0.0
 23
0.1530006686
 33
0.0
 40
0.0
 40
0.0
 40
0.0
 40
0.0
 40
0.2171864146
 40
0.4511858794
 40
0.7111959599
 40
1.0
 40
1.0
 40
1.0
 40
1.0
 10
3.2892070377
 20
-24.8273420003
 30
0.0
 10
3.2988662787
 20
-24.8219208246
 30
0.0
 10
3.31699415
 20
-24.8068985791
 30
0.0
 10
3.3363223007
 20
-24.775620593
 30
0.0
 10
3.3479098272
 20
-24.7370421728
 30
0.0
 10
3.3502182479
 20
-24.7089544016
 30
0.0
 10
3.3502182479
 20
-24.6942253312
 30
0.0
 11
3.2892070377
 21
-24.8273420003
 31
0.0
 11
3.3149593884
 21
-24.8063413532
 31
0.0
 11
3.3342438214
 21
-24.7761768179
 31
0.0
 11
3.3461783213
 21
-24.7382274747
 31
0.0
 11
3.3502182479
 21
-24.6942253312
 31
0.0
  0
SPLINE
  5
401
100
AcDbEntity
  8
RACCORDO
100
AcDbSpline
 62
253
  6
CONTINUOUS
 70
0
 71
3
 72
11
 73
7
 74
5
 42
0.0000001
 43
0.0000001
 44
0.0000000001
 12
0.1426575687
 22
0.0695004483
 32
0.0
 13
0.0007563653
 23
0.1586849776
 33
0.0
 40
0.0
 40
0.0
 40
0.0
 40
0.0
 40
0.2167635091
 40
0.4498673846
 40
0.7098578217
 40
1.0
 40
1.0
 40
1.0
 40
1.0
 10
1.6826757254
 20
-25.6101102714
 30
0.0
 10
1.6929833771
 20
-25.6050885511
 30
0.0
 10
1.7125370759
 20
-25.5904810286
 30
0.0
 10
1.7335592142
 20
-25.5586716126
 30
0.0
 10
1.7462470637
 20
-25.5188055262
 30
0.0
 10
1.7488643059
 20
-25.4896069992
 30
0.0
 10
1.7489374571
 20
-25.4742599309
 30
0.0
 11
1.6826757254
 21
-25.6101102714
 31
0.0
 11
1.7103801766
 21
-25.5897227356
 31
0.0
 11
1.7312846549
 21
-25.5592055251
 31
0.0
 11
1.7443527712
 21
-25.5200728262
 31
0.0
 11
1.7489374571
 21
-25.4742599309
 31
0.0
  0
SPLINE
  5
402
100
AcDbEntity
  8
RACCORDO
100
AcDbSpline
 62
253
  6
CONTINUOUS
 70
0
 71
3
 72
16
 73
12
 74
10
 42
0.0000001
 43
0.0000001
 44
0.0000000001
 12
5.4837384199
 22
2.2971081904
 32
0.0
 13
5.4820816098
 23
2.3010593909
 33
0.0
 40
0.0
 40
0.0
 40
0.0
 40
0.0
 40
0.1251681874
 40
0.2499789251
 40
0.3746171036
 40
0.499250793
 40
0.6240570118
 40
0.6865813792
 40
0.7492086706
 40
0.8746077759
 40
1.0
 40
1.0
 40
1.0
 40
1.0
 10
-1.8046872757
 20
-25.1365155608
 30
0.0
 10
-1.575890743
 20
-25.040673938
 30
0.0
 10
-1.1183904635
 20
-24.8505958059
 30
0.0
 10
-0.4307999706
 20
-24.5705766555
 30
0.0
 10
0.2565392093
 20
-24.2927648785
 30
0.0
 10
0.9439285097
 20
-24.0151002359
 30
0.0
 10
1.5164841856
 20
-23.7818186216
 30
0.0
 10
1.9743991013
 20
-23.5928603106
 30
0.0
 10
2.4326369582
 20
-23.4016153931
 30
0.0
 10
3.0051303942
 20
-23.1606561882
 30
0.0
 10
3.4634934233
 20
-22.9684774026
 30
0.0
 10
3.6926302252
 20
-22.8722990844
 30
0.0
 11
-1.8046872757
 21
-25.1365155608
 31
0.0
 11
-1.1174045219
 21
-24.8511322275
 31
0.0
 11
-0.4303614274
 21
-24.5707494688
 31
0.0
 11
0.2565571907
 21
-24.2927854977
 31
0.0
 11
0.943472535
 21
-24.0148845939
 31
0.0
 11
1.630512527
 21
-23.734565343
 31
0.0
 11
1.9741153977
 21
-23.5927089205
 31
0.0
 11
2.3177839516
 21
-23.4494140321
 31
0.0
 11
3.0052092671
 21
-23.1608088976
 31
0.0
 11
3.6926302252
 21
-22.8722990844
 31
0.0
  0
SPLINE
  5
403
100
AcDbEntity
  8
RACCORDO
100
AcDbSpline
 62
253
  6
CONTINUOUS
 70
0
 71
3
 72
25
 73
21
 74
19
 42
0.0000001
 43
0.0000001
 44
0.0000000001
 12
-13.5422729552
 22
6.7711646497
 32
0.0
 13
13.6874114415
 23
6.4727579544
 33
0.0
 40
0.0
 40
0.0
 40
0.0
 40
0.0
 40
0.0598465316
 40
0.1238528663
 40
0.1914313594
 40
0.2617706503
 40
0.3339088307
 40
0.4067975168
 40
0.4793597045
 40
0.5505445835
 40
0.6193819101
 40
0.6850387404
 40
0.746881453
 40
0.8045461229
 40
0.8580180608
 40
0.9077132563
 40
0.9314452271
 40
0.9546119823
 40
0.977396484
 40
1.0
 40
1.0
 40
1.0
 40
1.0
 10
-10.2973363171
 20
-9.1836748715
 30
0.0
 10
-10.567489006
 20
-9.0485979651
 30
0.0
 10
-11.1055474797
 20
-8.7257916785
 30
0.0
 10
-11.8655067817
 20
-8.1257887092
 30
0.0
 10
-12.5902208902
 20
-7.4064219069
 30
0.0
 10
-13.2624245643
 20
-6.5843745908
 30
0.0
 10
-13.8661680222
 20
-5.6785337275
 30
0.0
 10
-14.386851839
 20
-4.7098170768
 30
0.0
 10
-14.8118007122
 20
-3.7006241371
 30
0.0
 10
-15.1305941277
 20
-2.6743183622
 30
0.0
 10
-15.3353635749
 20
-1.6546514827
 30
0.0
 10
-15.4209573143
 20
-0.6651609554
 30
0.0
 10
-15.3850202386
 20
0.271382571
 30
0.0
 10
-15.227734025
 20
1.1335916006
 30
0.0
 10
-14.9519656492
 20
1.9013520303
 30
0.0
 10
-14.6216727905
 20
2.4559966474
 30
0.0
 10
-14.3051905043
 20
2.8280361757
 30
0.0
 10
-14.0471763993
 20
3.0682766741
 30
0.0
 10
-13.7666426311
 20
3.2721930042
 30
0.0
 10
-13.5654650305
 20
3.3832035428
 30
0.0
 10
-13.4623371562
 20
3.431972572
 30
0.0
 11
-10.2973363171
 21
-9.1836748715
 31
0.0
 11
-11.076647252
 21
-8.7213668785
 31
0.0
 11
-11.8394686246
 21
-8.1236512559
 31
0.0
 11
-12.567433859
 21
-7.4046378447
 31
0.0
 11
-13.2428894072
 21
-6.5812543994
 31
0.0
 11
-13.8493391696
 21
-5.6728634346
 31
0.0
 11
-14.3718762536
 21
-4.7008233449
 31
0.0
 11
-14.7975809142
 21
-3.6880075127
 31
0.0
 11
-15.1158740716
 21
-2.6582873577
 31
0.0
 11
-15.318812997
 21
-1.6359880061
 31
0.0
 11
-15.4013182909
 21
-0.6453251038
 31
0.0
 11
-15.3613213984
 21
0.2901643173
 31
0.0
 11
-15.1998252237
 21
1.1481836381
 31
0.0
 11
-14.9208747792
 21
1.9082138469
 31
0.0
 11
-14.5314394938
 21
2.552013996
 31
0.0
 11
-14.298219773
 21
2.8253618225
 31
0.0
 11
-14.0412124853
 21
3.0640687776
 31
0.0
 11
-13.7620099686
 21
3.2666843525
 31
0.0
 11
-13.4623371562
 21
3.431972572
 31
0.0
  0
SPLINE
  5
404
100
AcDbEntity
  8
RACCORDO
100
AcDbSpline
 62
253
  6
CONTINUOUS
 70
0
 71
3
 72
15
 73
11
 74
9
 42
0.0000001
 43
0.0000001
 44
0.0000000001
 12
0.0357585845
 22
-1.028507428
 32
0.0
 13
0.9489263787
 23
0.3983025655
 33
0.0
 40
0.0
 40
0.0
 40
0.0
 40
0.0
 40
0.1465300074
 40
0.2806608718
 40
0.4035051354
 40
0.5182269182
 40
0.6298613877
 40
0.7442648622
 40
0.8665518766
 40
1.0
 40
1.0
 40
1.0
 40
1.0
 10
-2.485874935
 20
-24.6361998927
 30
0.0
 10
-2.4841283665
 20
-24.6864356263
 30
0.0
 10
-2.4734964155
 20
-24.7826711375
 30
0.0
 10
-2.432850599
 20
-24.9159559459
 30
0.0
 10
-2.3688795315
 20
-25.0277342158
 30
0.0
 10
-2.2829463862
 20
-25.1135057943
 30
0.0
 10
-2.1780177619
 20
-25.1689692276
 30
0.0
 10
-2.0589914155
 20
-25.1914877673
 30
0.0
 10
-1.9311864534
 20
-25.1810394532
 30
0.0
 10
-1.8468980905
 20
-25.1542331374
 30
0.0
 10
-1.8046872757
 20
-25.1365155608
 30
0.0
 11
-2.485874935
 21
-24.6361998927
 31
0.0
 11
-2.4682185791
 21
-24.7859609291
 31
0.0
 11
-2.4267167399
 21
-24.9176122532
 31
0.0
 11
-2.3627822417
 21
-25.0266766738
 31
0.0
 11
-2.2785910561
 21
-25.1094464368
 31
0.0
 11
-2.1770077196
 21
-25.1631090598
 31
0.0
 11
-2.061487409
 21
-25.1858423835
 31
0.0
 11
-1.9359581513
 21
-25.1768757628
 31
0.0
 11
-1.8046872757
 21
-25.1365155608
 31
0.0
  0
SPLINE
  5
405
100
AcDbEntity
  8
ASSI
100
AcDbSpline
 62
7
  6
CONTINUOUS
 70
0
 71
3
 72
11
 73
7
 74
5
 42
0.0000001
 43
0.0000001
 44
0.0000000001
 12
-0.1073330853
 22
0.053311122
 32
0.0
 13
-0.1141360749
 23
-0.0365434444
 33
0.0
 40
0.0
 40
0.0
 40
0.0
 40
0.0
 40
0.1249480549
 40
0.3260198351
 40
0.616726
 40
1.0
 40
1.0
 40
1.0
 40
1.0
 10
4.3724127128
 20
21.7987115044
 30
0.0
 10
4.3679423593
 20
21.8009318781
 30
0.0
 10
4.354486791
 20
21.8023280855
 30
0.0
 10
4.3301313794
 20
21.7994043324
 30
0.0
 10
4.2959715403
 20
21.7914196201
 30
0.0
 10
4.2702167324
 20
21.7836222271
 30
0.0
 10
4.2556349357
 20
21.7789535097
 30
0.0
 11
4.3724127128
 21
21.7987115044
 31
0.0
 11
4.3577138631
 21
21.8015699807
 31
0.0
 11
4.3337084935
 21
21.7994688457
 31
0.0
 11
4.2996885398
 21
21.7919577938
 31
0.0
 11
4.2556349357
 21
21.7789535097
 31
0.0
  0
SPLINE
  5
406
100
AcDbEntity
  8
RACCORDO
100
AcDbSpline
 62
253
  6
CONTINUOUS
 70
0
 71
3
 72
14
 73
10
 74
8
 42
0.0000001
 43
0.0000001
 44
0.0000000001
 12
-1.2252127798
 22
-0.6688939551
 32
0.0
 13
-0.046929289
 23
-1.395121185
 33
0.0
 40
0.0
 40
0.0
 40
0.0
 40
0.0
 40
0.1125834789
 40
0.2332223472
 40
0.3601219533
 40
0.4909476923
 40
0.7532675853
 40
0.8798322427
 40
1.0
 40
1.0
 40
1.0
 40
1.0
 10
-1.8046872757
 20
12.1015556793
 30
0.0
 10
-1.8506668481
 20
12.0764535432
 30
0.0
 10
-1.9414046872
 20
12.0159409023
 30
0.0
 10
-2.0661910214
 20
11.9034060967
 30
0.0
 10
-2.1809898377
 20
11.7692814918
 30
0.0
 10
-2.3155473214
 20
11.5677066324
 30
0.0
 10
-2.4150016148
 20
11.3443899276
 30
0.0
 10
-2.4713816181
 20
11.1138832228
 30
0.0
 10
-2.4839951392
 20
10.9993075964
 30
0.0
 10
-2.485874935
 20
10.9434247351
 30
0.0
 11
-1.8046872757
 21
12.1015556793
 31
0.0
 11
-1.9359581509
 21
12.0151490699
 31
0.0
 11
-2.0614874087
 21
11.9028934952
 31
0.0
 11
-2.1770077193
 21
11.7686035045
 31
0.0
 11
-2.2785910563
 21
11.616842994
 31
0.0
 11
-2.4267167408
 21
11.2819655001
 31
0.0
 11
-2.4682185799
 21
11.1102363159
 31
0.0
 11
-2.485874935
 21
10.9434247351
 31
0.0
  0
SPLINE
  5
407
100
AcDbEntity
  8
RACCORDO
100
AcDbSpline
 62
253
  6
CONTINUOUS
 70
0
 71
3
 72
15
 73
11
 74
9
 42
0.0000001
 43
0.0000001
 44
0.0000000001
 12
0.0697188842
 22
2.0916349707
 32
0.0
 13
1.8293997921
 23
1.016412305
 33
0.0
 40
0.0
 40
0.0
 40
0.0
 40
0.0
 40
0.1202680172
 40
0.2469590935
 40
0.3777238581
 40
0.5098938544
 40
0.6406965714
 40
0.7674612692
 40
0.8878313049
 40
1.0
 40
1.0
 40
1.0
 40
1.0
 10
-17.4184390892
 20
18.0804305009
 30
0.0
 10
-17.4156441052
 20
18.1642827645
 30
0.0
 10
-17.3968966753
 20
18.3361925854
 30
0.0
 10
-17.3347840077
 20
18.5928990012
 30
0.0
 10
-17.2398899186
 20
18.8482576275
 30
0.0
 10
-17.1153706973
 20
19.0937370548
 30
0.0
 10
-16.9653648705
 20
19.3212101572
 30
0.0
 10
-16.7948023644
 20
19.5231458774
 30
0.0
 10
-16.6093568048
 20
19.6928221004
 30
0.0
 10
-16.474407639
 20
19.7842984915
 30
0.0
 10
-16.4060071765
 20
19.8223017055
 30
0.0
 11
-17.4184390892
 21
18.0804305009
 31
0.0
 11
-17.3921992861
 21
18.3307554879
 31
0.0
 11
-17.3305217545
 21
18.5886205442
 31
0.0
 11
-17.2355044317
 21
18.845259829
 31
0.0
 11
-17.1103786291
 21
19.0919454875
 31
0.0
 11
-16.9593993648
 21
19.3202889892
 31
0.0
 11
-16.7877012604
 21
19.5225264539
 31
0.0
 11
-16.6011234455
 21
19.6917817857
 31
0.0
 11
-16.4060071765
 21
19.8223017055
 31
0.0
  0
SPLINE
  5
408
100
AcDbEntity
  8
RACCORDO
100
AcDbSpline
 62
253
  6
CONTINUOUS
 70
0
 71
3
 72
13
 73
9
 74
7
 42
0.0000001
 43
0.0000001
 44
0.0000000001
 12
0.0310085765
 22
-0.8969242601
 32
0.0
 13
0.8026202887
 23
-0.4015411963
 33
0.0
 40
0.0
 40
0.0
 40
0.0
 40
0.0
 40
0.2862401892
 40
0.5444694941
 40
0.6643574566
 40
0.7792256043
 40
0.8905218215
 40
1.0
 40
1.0
 40
1.0
 40
1.0
 10
-3.1864584089
 20
-24.6507997068
 30
0.0
 10
-3.1834997753
 20
-24.7363782968
 30
0.0
 10
-3.1640333847
 20
-24.899223991
 30
0.0
 10
-3.0976926541
 20
-25.0888730811
 30
0.0
 10
-3.0212359393
 20
-25.2155315217
 30
0.0
 10
-2.9549397394
 20
-25.2955919925
 30
0.0
 10
-2.8790393187
 20
-25.3619875482
 30
0.0
 10
-2.8223984737
 20
-25.3966864797
 30
0.0
 10
-2.7931086713
 20
-25.4113398126
 30
0.0
 11
-3.1864584089
 21
-24.6507997068
 31
0.0
 11
-3.1533853409
 21
-24.9055509764
 31
0.0
 11
-3.0741378996
 21
-25.1233309989
 31
0.0
 11
-3.0182233324
 21
-25.2152558218
 31
0.0
 11
-2.9522393887
 21
-25.2944617617
 31
0.0
 11
-2.8769214061
 21
-25.3600666258
 31
0.0
 11
-2.7931086713
 21
-25.4113398126
 31
0.0
  0
SPLINE
  5
409
100
AcDbEntity
  8
RACCORDO
100
AcDbSpline
 62
253
  6
CONTINUOUS
 70
0
 71
3
 72
15
 73
11
 74
9
 42
0.0000001
 43
0.0000001
 44
0.0000000001
 12
-1.7493975999
 22
-1.0707612947
 32
0.0
 13
-0.0672078375
 23
-2.0499767851
 33
0.0
 40
0.0
 40
0.0
 40
0.0
 40
0.0
 40
0.1126380061
 40
0.2333115318
 40
0.3601848209
 40
0.4909225269
 40
0.6229071833
 40
0.7534338631
 40
0.8798992199
 40
1.0
 40
1.0
 40
1.0
 40
1.0
 10
-2.8163488142
 20
12.9913138083
 30
0.0
 10
-2.8820317001
 20
12.9511110025
 30
0.0
 10
-3.0111837657
 20
12.8562645336
 30
0.0
 10
-3.1880802213
 20
12.6840365152
 30
0.0
 10
-3.3502532591
 20
12.4817818638
 30
0.0
 10
-3.4925254656
 20
12.2559541869
 30
0.0
 10
-3.6104072504
 20
12.0137234999
 30
0.0
 10
-3.7001402461
 20
11.7627824765
 30
0.0
 10
-3.7588643749
 20
11.5111706833
 30
0.0
 10
-3.776633235
 20
11.3429407964
 30
0.0
 10
-3.7793238062
 20
11.2608728594
 30
0.0
 11
-2.8163488142
 21
12.9913138083
 31
0.0
 11
-3.0033405188
 21
12.8556352684
 31
0.0
 11
-3.1813634313
 21
12.6836775513
 31
0.0
 11
-3.3446270486
 21
12.4810372268
 31
0.0
 11
-3.4878142679
 21
12.2543136302
 31
0.0
 11
-3.6062606419
 21
12.0108904998
 31
0.0
 11
-3.6961076126
 21
11.7586966302
 31
0.0
 11
-3.7544287109
 21
11.5059477528
 31
0.0
 11
-3.7793238062
 21
11.2608728594
 31
0.0
  0
SPLINE
  5
40A
100
AcDbEntity
  8
RACCORDO
100
AcDbSpline
 62
253
  6
CONTINUOUS
 70
0
 71
3
 72
15
 73
11
 74
9
 42
0.0000001
 43
0.0000001
 44
0.0000000001
 12
-1.832888614
 22
-1.0116413142
 32
0.0
 13
-0.0699743452
 23
-2.0923676567
 33
0.0
 40
0.0
 40
0.0
 40
0.0
 40
0.0
 40
0.1123056521
 40
0.2327570997
 40
0.3595516029
 40
0.4903413327
 40
0.6224664398
 40
0.753167227
 40
0.879790012
 40
1.0
 40
1.0
 40
1.0
 40
1.0
 10
-2.1705200157
 20
12.7045581251
 30
0.0
 10
-2.2391345994
 20
12.6666871126
 30
0.0
 10
-2.374517321
 20
12.5754748854
 30
0.0
 10
-2.5606174025
 20
12.4061229158
 30
0.0
 10
-2.7317818594
 20
12.2044800891
 30
0.0
 10
-2.8823178332
 20
11.9772609972
 30
0.0
 10
-3.007278406
 20
11.7319876943
 30
0.0
 10
-3.1025099177
 20
11.4767789782
 30
0.0
 10
-3.1648422639
 20
11.2201616062
 30
0.0
 10
-3.1836545372
 20
11.0482813244
 30
0.0
 10
-3.1864584089
 20
10.9644401608
 30
0.0
 11
-2.1705200157
 21
12.7045581251
 31
0.0
 11
-2.3663081426
 21
12.5743790888
 31
0.0
 11
-2.553530856
 21
12.4054496133
 31
0.0
 11
-2.7258226676
 21
12.2035121945
 31
0.0
 11
-2.8773251043
 21
11.9754317815
 31
0.0
 11
-3.0028859009
 21
11.728962831
 31
0.0
 11
-3.0982344009
 21
11.4724859497
 31
0.0
 11
-3.160127117
 21
11.2147229704
 31
0.0
 11
-3.1864584089
 21
10.9644401608
 31
0.0
  0
SPLINE
  5
40B
100
AcDbEntity
  8
RACCORDO
100
AcDbSpline
 62
253
  6
CONTINUOUS
 70
0
 71
3
 72
11
 73
7
 74
5
 42
0.0000001
 43
0.0000001
 44
0.0000000001
 12
4.3665075326
 22
2.5459049314
 32
0.0
 13
4.3658973787
 23
2.5469511246
 33
0.0
 40
0.0
 40
0.0
 40
0.0
 40
0.0
 40
0.2502893268
 40
0.4996745676
 40
0.7492593471
 40
1.0
 40
1.0
 40
1.0
 40
1.0
 10
-17.0126979463
 20
20.1321895378
 30
0.0
 10
-16.6484012027
 20
20.344593815
 30
0.0
 10
-15.9236685893
 20
20.7729973601
 30
0.0
 10
-14.8403066581
 20
21.4210057528
 30
0.0
 10
-13.755884408
 20
22.0687518384
 30
0.0
 10
-13.0279495761
 20
22.4938615522
 30
0.0
 10
-12.663046923
 20
22.7067362816
 30
0.0
 11
-17.0126979463
 21
20.1321895378
 31
0.0
 11
-15.9229213118
 21
20.7747127949
 31
0.0
 11
-14.8405273843
 21
21.4207246738
 31
0.0
 11
-13.7565019789
 21
22.0659692329
 31
0.0
 11
-12.663046923
 21
22.7067362816
 31
0.0
  0
SPLINE
  5
40C
100
AcDbEntity
  8
RACCORDO
100
AcDbSpline
 62
253
  6
CONTINUOUS
 70
0
 71
3
 72
16
 73
12
 74
10
 42
0.0000001
 43
0.0000001
 44
0.0000000001
 12
-5.5156654157
 22
-3.0112509212
 32
0.0
 13
-5.5136743898
 23
-3.0148949918
 33
0.0
 40
0.0
 40
0.0
 40
0.0
 40
0.0
 40
0.124633005
 40
0.2492597441
 40
0.3116403886
 40
0.3741178343
 40
0.4992993085
 40
0.6246417914
 40
0.7499803156
 40
0.8751570614
 40
1.0
 40
1.0
 40
1.0
 40
1.0
 10
3.6926308811
 20
15.1460373845
 30
0.0
 10
3.4634862294
 20
15.0209369675
 30
0.0
 10
3.0052988809
 20
14.7705767986
 30
0.0
 10
2.4320562404
 20
14.4582705633
 30
0.0
 10
1.9738235682
 20
14.2070096322
 30
0.0
 10
1.5154894379
 20
13.9535236131
 30
0.0
 10
0.9430084086
 20
13.6339297793
 30
0.0
 10
0.2565757983
 20
13.2483312643
 30
0.0
 10
-0.4299150481
 20
12.8628571749
 30
0.0
 10
-1.1163951274
 20
12.4794996163
 30
0.0
 10
-1.5752395045
 20
12.2270184628
 30
0.0
 10
-1.8046872757
 20
12.1015556793
 30
0.0
 11
3.6926308811
 21
15.1460373845
 31
0.0
 11
3.0052098415
 21
14.7707124772
 31
0.0
 11
2.3177844828
 21
14.3954776557
 31
0.0
 11
1.9741157178
 21
14.206899414
 31
0.0
 11
1.6305129045
 21
14.0169405367
 31
0.0
 11
0.9434729116
 21
13.6337913598
 31
0.0
 11
0.2565574182
 21
13.2483471415
 31
0.0
 11
-0.4303611633
 21
12.8629592661
 31
0.0
 11
-1.117404613
 21
12.4798773007
 31
0.0
 11
-1.8046872757
 21
12.1015556793
 31
0.0
  0
SPLINE
  5
40D
100
AcDbEntity
  8
ASSI
100
AcDbSpline
 62
7
  6
CONTINUOUS
 70
0
 71
3
 72
11
 73
7
 74
5
 42
0.0000001
 43
0.0000001
 44
0.0000000001
 12
-0.1089721377
 22
0.0541590072
 32
0.0
 13
-0.1158417812
 23
-0.0372666953
 33
0.0
 40
0.0
 40
0.0
 40
0.0
 40
0.0
 40
0.1244405159
 40
0.3253748194
 40
0.61632367
 40
1.0
 40
1.0
 40
1.0
 40
1.0
 10
-1.1825716639
 20
24.5762037027
 30
0.0
 10
-1.1870918469
 20
24.5784502276
 30
0.0
 10
-1.2007379544
 20
24.579826803
 30
0.0
 10
-1.2254396833
 20
24.5767999474
 30
0.0
 10
-1.2601307952
 20
24.5686166155
 30
0.0
 10
-1.286293687
 20
24.5606504446
 30
0.0
 10
-1.3011089368
 20
24.5558843283
 30
0.0
 11
-1.1825716639
 21
24.5762037027
 31
0.0
 11
-1.1974412851
 21
24.5790680916
 31
0.0
 11
-1.2217944244
 21
24.5768779686
 31
0.0
 11
-1.2563513425
 21
24.5691743688
 31
0.0
 11
-1.3011089368
 21
24.5558843283
 31
0.0
  0
SPLINE
  5
40E
100
AcDbEntity
  8
RACCORDO
100
AcDbSpline
 62
7
  6
CONTINUOUS
 70
0
 71
3
 72
12
 73
8
 74
6
 42
0.0000001
 43
0.0000001
 44
0.0000000001
 12
-0.4345619355
 22
-0.032159537
 32
0.0
 13
-0.4201960756
 23
-0.1153844428
 33
0.0
 40
0.0
 40
0.0
 40
0.0
 40
0.0
 40
0.1460665466
 40
0.2901900051
 40
0.5606459046
 40
0.7988834635
 40
1.0
 40
1.0
 40
1.0
 40
1.0
 10
-1.7090998233
 20
18.8774132707
 30
0.0
 10
-1.7302581437
 20
18.8758474598
 30
0.0
 10
-1.7721272695
 20
18.8704383492
 30
0.0
 10
-1.8520371851
 20
18.8546151194
 30
0.0
 10
-1.9437969523
 20
18.8304522496
 30
0.0
 10
-2.042596709
 20
18.8010221014
 30
0.0
 10
-2.1037527433
 20
18.782758946
 30
0.0
 10
-2.1319222031
 20
18.7750237062
 30
0.0
 11
-1.7090998233
 21
18.8774132707
 31
0.0
 11
-1.7722789663
 21
18.8696975424
 31
0.0
 11
-1.8339319742
 21
18.8577402224
 31
0.0
 11
-1.9481288609
 21
18.8286200442
 31
0.0
 11
-2.0477641024
 21
18.7994692722
 31
0.0
 11
-2.1319222031
 21
18.7750237062
 31
0.0
  0
SPLINE
  5
40F
100
AcDbEntity
  8
RACCORDO
100
AcDbSpline
 62
253
  6
CONTINUOUS
 70
0
 71
3
 72
15
 73
11
 74
9
 42
0.0000001
 43
0.0000001
 44
0.0000000001
 12
0.0681835624
 22
2.0876389468
 32
0.0
 13
1.80940956
 23
1.0435144534
 33
0.0
 40
0.0
 40
0.0
 40
0.0
 40
0.0
 40
0.1205996359
 40
0.2476869454
 40
0.3788185927
 40
0.5112437905
 40
0.6421179547
 40
0.7687098214
 40
0.8886161506
 40
1.0
 40
1.0
 40
1.0
 40
1.0
 10
-18.0113044865
 20
18.3768631996
 30
0.0
 10
-18.0085635156
 20
18.4607860318
 30
0.0
 10
-17.9901733985
 20
18.6328825214
 30
0.0
 10
-17.9292998491
 20
18.8901180046
 30
0.0
 10
-17.8363003721
 20
19.1463408174
 30
0.0
 10
-17.7142689951
 20
19.3929872956
 30
0.0
 10
-17.5672634016
 20
19.6218880138
 30
0.0
 10
-17.4001161033
 20
19.8254668691
 30
0.0
 10
-17.2183875631
 20
19.996950634
 30
0.0
 10
-17.0859181438
 20
20.0899238032
 30
0.0
 10
-17.0187384765
 20
20.1286673555
 30
0.0
 11
-18.0113044865
 21
18.3768631996
 31
0.0
 11
-17.9855789659
 21
18.6274488932
 31
0.0
 11
-17.9251101356
 21
18.8859238166
 31
0.0
 11
-17.8319551936
 21
19.1434974781
 31
0.0
 11
-17.7092830111
 21
19.3914107345
 31
0.0
 11
-17.5612659969
 21
19.6212338589
 31
0.0
 11
-17.392937881
 21
19.8251531274
 31
0.0
 11
-17.2100223588
 21
19.9962361989
 31
0.0
 11
-17.0187384765
 21
20.1286673555
 31
0.0
  0
SPLINE
  5
410
100
AcDbEntity
  8
RACCORDO
100
AcDbSpline
 62
253
  6
CONTINUOUS
 70
0
 71
3
 72
11
 73
7
 74
5
 42
0.0000001
 43
0.0000001
 44
0.0000000001
 12
-0.014727156
 22
-0.3368678087
 32
0.0
 13
-0.3109430317
 23
-0.130427147
 33
0.0
 40
0.0
 40
0.0
 40
0.0
 40
0.0
 40
0.2893992915
 40
0.5494436027
 40
0.7828919629
 40
1.0
 40
1.0
 40
1.0
 40
1.0
 10
-1.8046865288
 20
-25.1365159476
 30
0.0
 10
-1.806107205
 20
-25.1690123827
 30
0.0
 10
-1.8142173523
 20
-25.230716595
 30
0.0
 10
-1.844983991
 20
-25.3141077854
 30
0.0
 10
-1.8929912058
 20
-25.3795165655
 30
0.0
 10
-1.9362374725
 20
-25.4083498658
 30
0.0
 10
-1.9587402163
 20
-25.4177887931
 30
0.0
 11
-1.8046865288
 21
-25.1365159476
 31
0.0
 11
-1.8183909974
 21
-25.233131252
 31
0.0
 11
-1.8499016213
 21
-25.3149579281
 31
0.0
 11
-1.8975334107
 21
-25.3776275135
 31
0.0
 11
-1.9587402163
 21
-25.4177887931
 31
0.0
  0
SPLINE
  5
411
100
AcDbEntity
  8
RACCORDO
100
AcDbSpline
 62
7
  6
CONTINUOUS
 70
0
 71
3
 72
11
 73
7
 74
5
 42
0.0000001
 43
0.0000001
 44
0.0000000001
 12
-0.0050749735
 22
-0.2867613093
 32
0.0
 13
-0.2572126656
 23
-0.1268836023
 33
0.0
 40
0.0
 40
0.0
 40
0.0
 40
0.0
 40
0.2901814882
 40
0.5505671124
 40
0.7839009993
 40
1.0
 40
1.0
 40
1.0
 40
1.0
 10
3.6926301052
 20
-22.8723018992
 30
0.0
 10
3.6921392174
 20
-22.900039507
 30
0.0
 10
3.6867737993
 20
-22.9527795915
 30
0.0
 10
3.6633001269
 20
-23.0246928323
 30
0.0
 10
3.6252428336
 20
-23.0820836163
 30
0.0
 10
3.5900791172
 20
-23.1086093342
 30
0.0
 10
3.5715513172
 20
-23.1177491408
 30
0.0
 11
3.6926301052
 21
-22.8723018992
 31
0.0
 11
3.6833940724
 21
-22.9550136785
 31
0.0
 11
3.6592394426
 21
-23.0256797124
 31
0.0
 11
3.6213357218
 21
-23.0808323155
 31
0.0
 11
3.5715513172
 21
-23.1177491408
 31
0.0
  0
SPLINE
  5
412
100
AcDbEntity
  8
RACCORDO
100
AcDbSpline
 62
253
  6
CONTINUOUS
 70
0
 71
3
 72
13
 73
9
 74
7
 42
0.0000001
 43
0.0000001
 44
0.0000000001
 12
-0.6374576824
 22
-0.3393855639
 32
0.0
 13
-0.6461510624
 23
0.3225269949
 33
0.0
 40
0.0
 40
0.0
 40
0.0
 40
0.0
 40
0.114863966
 40
0.2391698853
 40
0.5036419186
 40
0.7661408127
 40
0.8881244595
 40
1.0
 40
1.0
 40
1.0
 40
1.0
 10
-2.4858749391
 20
-24.6361998906
 30
0.0
 10
-2.5102819116
 20
-24.6491942812
 30
0.0
 10
-2.5632928852
 20
-24.6722319274
 30
0.0
 10
-2.6798912062
 20
-24.7062822804
 30
0.0
 10
-2.8367387888
 20
-24.7249113387
 30
0.0
 10
-2.9937299552
 20
-24.7130035842
 30
0.0
 10
-3.1098249173
 20
-24.6837265628
 30
0.0
 10
-3.1623622354
 20
-24.6628273302
 30
0.0
 10
-3.1864584018
 20
-24.6507997029
 30
0.0
 11
-2.4858749391
 21
-24.6361998906
 31
0.0
 11
-2.5617442984
 21
-24.6697383875
 31
0.0
 11
-2.647811743
 21
-24.6952556672
 31
0.0
 11
-2.8373577379
 21
-24.7187356479
 31
0.0
 11
-3.0262851675
 21
-24.703142866
 31
0.0
 11
-3.1116012197
 21
-24.6811971335
 31
0.0
 11
-3.1864584018
 21
-24.6507997029
 31
0.0
  0
SPLINE
  5
413
100
AcDbEntity
  8
RACCORDO
100
AcDbSpline
 62
253
  6
CONTINUOUS
 70
0
 71
3
 72
13
 73
9
 74
7
 42
0.0000001
 43
0.0000001
 44
0.0000000001
 12
-0.6593321765
 22
-0.2856780222
 32
0.0
 13
-0.6424675754
 23
0.321817131
 33
0.0
 40
0.0
 40
0.0
 40
0.0
 40
0.0
 40
0.1119164526
 40
0.2345486234
 40
0.4988620903
 40
0.7637876921
 40
0.8871442964
 40
1.0
 40
1.0
 40
1.0
 40
1.0
 10
-2.485874935
 20
10.9434247351
 30
0.0
 10
-2.5104716411
 20
10.9327673781
 30
0.0
 10
-2.5637952284
 20
10.9144427822
 30
0.0
 10
-2.6808080779
 20
10.8892894075
 30
0.0
 10
-2.8376750537
 20
10.880298156
 30
0.0
 10
-2.993875868
 20
10.8987317525
 30
0.0
 10
-3.1097336131
 20
10.9308502883
 30
0.0
 10
-3.1622896988
 20
10.9523338612
 30
0.0
 10
-3.1864584089
 20
10.9644401608
 30
0.0
 11
-2.485874935
 21
10.9434247351
 31
0.0
 11
-2.561744295
 21
10.9167594939
 31
0.0
 11
-2.6478117407
 21
10.8978567587
 31
0.0
 11
-2.8373577387
 21
10.8858559851
 31
0.0
 11
-3.0262851717
 21
10.9092098388
 31
0.0
 11
-3.1116012254
 21
10.9332535704
 31
0.0
 11
-3.1864584089
 21
10.9644401608
 31
0.0
  0
SPLINE
  5
414
100
AcDbEntity
  8
RACCORDO
100
AcDbSpline
 62
253
  6
CONTINUOUS
 70
0
 71
3
 72
12
 73
8
 74
6
 42
0.0000001
 43
0.0000001
 44
0.0000000001
 12
-0.0324733428
 22
0.7307799399
 32
0.0
 13
-0.6493125312
 23
0.3368784282
 33
0.0
 40
0.0
 40
0.0
 40
0.0
 40
0.0
 40
0.2443925102
 40
0.509719336
 40
0.7695749539
 40
0.8897265193
 40
1.0
 40
1.0
 40
1.0
 40
1.0
 10
-1.8046872799
 20
12.1015556815
 30
0.0
 10
-1.8073326938
 20
12.1610880628
 30
0.0
 10
-1.8331481716
 20
12.2845188673
 30
0.0
 10
-1.9128831696
 20
12.455719188
 30
0.0
 10
-2.0093949235
 20
12.5821290347
 30
0.0
 10
-2.099202316
 20
12.6614989206
 30
0.0
 10
-2.1466526977
 20
12.6921751975
 30
0.0
 10
-2.1705200153
 20
12.7045581164
 30
0.0
 11
-1.8046872799
 21
12.1015556815
 31
0.0
 11
-1.8382939639
 21
12.2771418841
 31
0.0
 11
-1.9196086273
 21
12.4533736497
 31
0.0
 11
-2.0362625837
 21
12.6034537448
 31
0.0
 11
-2.1024370517
 21
12.6612963568
 31
0.0
 11
-2.1705200153
 21
12.7045581164
 31
0.0
  0
SPLINE
  5
415
100
AcDbEntity
  8
RACCORDO
100
AcDbSpline
 62
7
  6
CONTINUOUS
 70
0
 71
3
 72
15
 73
11
 74
9
 42
0.0000001
 43
0.0000001
 44
0.0000000001
 12
-0.0118833135
 22
0.6599805904
 32
0.0
 13
-0.5904006554
 23
0.2951993546
 33
0.0
 40
0.0
 40
0.0
 40
0.0
 40
0.0
 40
0.2459591465
 40
0.5111804449
 40
0.6432251165
 40
0.7704213159
 40
0.8313423032
 40
0.8900788447
 40
0.9462552498
 40
1.0
 40
1.0
 40
1.0
 40
1.0
 10
3.6926307641
 20
15.1460400153
 30
0.0
 10
3.6916564942
 20
15.2001494362
 30
0.0
 10
3.6712585939
 20
15.3124081754
 30
0.0
 10
3.6137958004
 20
15.4430493507
 30
0.0
 10
3.5499876135
 20
15.539473206
 30
0.0
 10
3.5041300427
 20
15.593231905
 30
0.0
 10
3.4648525239
 20
15.6308066843
 30
0.0
 10
3.4349206662
 20
15.6553790902
 30
0.0
 10
3.4046295673
 20
15.6768630507
 30
0.0
 10
3.3837110316
 20
15.6891170449
 30
0.0
 10
3.3731340531
 20
15.6944055167
 30
0.0
 11
3.6926307641
 21
15.1460400153
 31
0.0
 11
3.6661771779
 21
15.3062249567
 31
0.0
 11
3.596174108
 21
15.4666893557
 31
0.0
 11
3.5479470989
 21
15.5392924098
 31
0.0
 11
3.4932715288
 21
15.6030102985
 31
0.0
 11
3.4641601873
 21
15.6307525071
 31
0.0
 11
3.4342034562
 21
15.6553656115
 31
0.0
 11
3.4038855363
 21
15.6767162552
 31
0.0
 11
3.3731340531
 21
15.6944055167
 31
0.0
  0
SPLINE
  5
416
100
AcDbEntity
  8
RACCORDO
100
AcDbSpline
 62
253
  6
CONTINUOUS
 70
0
 71
3
 72
11
 73
7
 74
5
 42
0.0000001
 43
0.0000001
 44
0.0000000001
 12
0.1304199942
 22
-0.0664284961
 32
0.0
 13
0.0064477652
 23
-0.1462208819
 33
0.0
 40
0.0
 40
0.0
 40
0.0
 40
0.0
 40
0.2305066381
 40
0.4905793394
 40
0.755782891
 40
1.0
 40
1.0
 40
1.0
 40
1.0
 10
-16.4060071765
 20
19.8223017055
 30
0.0
 10
-16.3959862851
 20
19.8171976357
 30
0.0
 10
-16.3767617427
 20
19.8022021412
 30
0.0
 10
-16.3540438501
 20
19.7728062726
 30
0.0
 10
-16.3379316469
 20
19.7385865352
 30
0.0
 10
-16.332740424
 20
19.7139088976
 30
0.0
 10
-16.3322155391
 20
19.7020056839
 30
0.0
 11
-16.4060071765
 21
19.8223017055
 31
0.0
 11
-16.3789090623
 21
19.8022039356
 31
0.0
 11
-16.3553724295
 21
19.7722878498
 31
0.0
 11
-16.3389761729
 21
19.7371048553
 31
0.0
 11
-16.3322155391
 21
19.7020056839
 31
0.0
  0
SPLINE
  5
417
100
AcDbEntity
  8
RACCORDO
100
AcDbSpline
 62
253
  6
CONTINUOUS
 70
0
 71
3
 72
11
 73
7
 74
5
 42
0.0000001
 43
0.0000001
 44
0.0000000001
 12
0.1290077661
 22
-0.0645624476
 32
0.0
 13
0.1319778257
 23
0.0582508959
 33
0.0
 40
0.0
 40
0.0
 40
0.0
 40
0.0
 40
0.2362921187
 40
0.501783568
 40
0.7663187212
 40
1.0
 40
1.0
 40
1.0
 40
1.0
 10
-17.4184389397
 20
18.0804305682
 30
0.0
 10
-17.4082777669
 20
18.075345369
 30
0.0
 10
-17.3850352973
 20
18.0678854275
 30
0.0
 10
-17.3482596239
 20
18.0635972227
 30
0.0
 10
-17.3114293254
 20
18.0658224196
 30
0.0
 10
-17.2879775541
 20
18.0719945021
 30
0.0
 10
-17.2776973051
 20
18.0765318833
 30
0.0
 11
-17.4184389397
 21
18.0804305682
 31
0.0
 11
-17.3862019415
 21
18.0693511232
 31
0.0
 11
-17.3481824017
 21
18.0647235127
 31
0.0
 11
-17.3101034928
 21
18.0672431193
 31
0.0
 11
-17.2776973051
 21
18.0765318833
 31
0.0
  0
SPLINE
  5
418
100
AcDbEntity
  8
RACCORDO
100
AcDbSpline
 62
7
  6
CONTINUOUS
 70
0
 71
3
 72
10
 73
6
 74
4
 42
0.0000001
 43
0.0000001
 44
0.0000000001
 12
-0.1481606614
 22
-0.0699591808
 32
0.0
 13
-0.1331394356
 23
-0.0954974305
 33
0.0
 40
0.0
 40
0.0
 40
0.0
 40
0.0
 40
0.267844197
 40
0.5469587479
 40
1.0
 40
1.0
 40
1.0
 40
1.0
 10
-17.4105244532
 20
13.6157918825
 30
0.0
 10
-17.4237524443
 20
13.609545829
 30
0.0
 10
-17.4501839356
 20
13.5955686655
 30
0.0
 10
-17.4973993386
 20
13.5681307703
 30
0.0
 10
-17.531152971
 20
13.5465860569
 30
0.0
 10
-17.5512588566
 20
13.5321646317
 30
0.0
 11
-17.4105244532
 21
13.6157918825
 31
0.0
 11
-17.4494938337
 21
13.5956096184
 31
0.0
 11
-17.4890688167
 21
13.5726913658
 31
0.0
 11
-17.5512588566
 21
13.5321646317
 31
0.0
  0
SPLINE
  5
419
100
AcDbEntity
  8
RACCORDO
100
AcDbSpline
 62
253
  6
CONTINUOUS
 70
0
 71
3
 72
9
 73
5
 74
3
 42
0.0000001
 43
0.0000001
 44
0.0000000001
 12
-0.0426646329
 22
0.020940584
 32
0.0
 13
-0.0412255834
 23
-0.0236480492
 33
0.0
 40
0.0
 40
0.0
 40
0.0
 40
0.0
 40
0.5426811011
 40
1.0
 40
1.0
 40
1.0
 40
1.0
 10
-2.7832513157
 20
13.0109237751
 30
0.0
 10
-2.790969079
 20
13.0147117948
 30
0.0
 10
-2.8064707081
 20
13.0198468872
 30
0.0
 10
-2.8230170203
 20
13.0166409206
 30
0.0
 10
-2.8293014331
 20
13.0130360207
 30
0.0
 11
-2.7832513157
 21
13.0109237751
 31
0.0
 11
-2.8081016234
 21
13.017828765
 31
0.0
 11
-2.8293014331
 21
13.0130360207
 31
0.0
  0
SPLINE
  5
41A
100
AcDbEntity
  8
RACCORDO
100
AcDbSpline
 62
253
  6
CONTINUOUS
 70
0
 71
3
 72
11
 73
7
 74
5
 42
0.0000001
 43
0.0000001
 44
0.0000000001
 12
-0.0429135786
 22
0.0214373095
 32
0.0
 13
0.0015645503
 23
0.0479446102
 33
0.0
 40
0.0
 40
0.0
 40
0.0
 40
0.0
 40
0.3084588886
 40
0.573353066
 40
0.7989229993
 40
1.0
 40
1.0
 40
1.0
 40
1.0
 10
-3.7793238057
 20
11.2608728596
 30
0.0
 10
-3.783736164
 20
11.2630770358
 30
0.0
 10
-3.7916785522
 20
11.267755915
 30
0.0
 10
-3.8012969034
 20
11.2763242045
 30
0.0
 10
-3.8073905408
 20
11.2857728554
 30
0.0
 10
-3.8087238193
 20
11.2926961097
 30
0.0
 10
-3.8086189543
 20
11.2959096292
 30
0.0
 11
-3.7793238057
 21
11.2608728596
 31
0.0
 11
-3.7919811066
 21
11.268536959
 31
0.0
 11
-3.8013085914
 21
11.2771663326
 31
0.0
 11
-3.806928175
 21
11.2864132824
 31
0.0
 11
-3.8086189543
 21
11.2959096292
 31
0.0
  0
SPLINE
  5
41B
100
AcDbEntity
  8
RACCORDO
100
AcDbSpline
 62
253
  6
CONTINUOUS
 70
0
 71
3
 72
11
 73
7
 74
5
 42
0.0000001
 43
0.0000001
 44
0.0000000001
 12
-0.1076203225
 22
0.0538101613
 32
0.0
 13
0.0000013829
 23
0.1203231785
 33
0.0
 40
0.0
 40
0.0
 40
0.0
 40
0.0
 40
0.3025823249
 40
0.5654825874
 40
0.7934322572
 40
1.0
 40
1.0
 40
1.0
 40
1.0
 10
-13.2928873468
 20
23.8504562228
 30
0.0
 10
-13.303742016
 20
23.8558835573
 30
0.0
 10
-13.323360489
 20
23.8675232878
 30
0.0
 10
-13.3471718592
 20
23.8890439152
 30
0.0
 10
-13.3624510562
 20
23.9129982001
 30
0.0
 10
-13.3661107446
 20
23.9305596079
 30
0.0
 10
-13.3661106494
 20
23.9388445704
 30
0.0
 11
-13.2928873468
 21
23.8504562228
 31
0.0
 11
-13.3239790198
 21
23.8693989283
 31
0.0
 11
-13.3470798564
 21
23.8910090587
 31
0.0
 11
-13.3613068166
 21
23.9144583321
 31
0.0
 11
-13.3661106494
 21
23.9388445704
 31
0.0
  0
SPLINE
  5
41C
100
AcDbEntity
  8
RACCORDO
100
AcDbSpline
 62
253
  6
CONTINUOUS
 70
0
 71
3
 72
11
 73
7
 74
5
 42
0.0000001
 43
0.0000001
 44
0.0000000001
 12
-0.1076203225
 22
0.0538101613
 32
0.0
 13
0.0000013829
 23
0.1203231785
 33
0.0
 40
0.0
 40
0.0
 40
0.0
 40
0.0
 40
0.3025823249
 40
0.5654825874
 40
0.7934322572
 40
1.0
 40
1.0
 40
1.0
 40
1.0
 10
-13.2928873468
 20
23.5104822886
 30
0.0
 10
-13.303742016
 20
23.5159096232
 30
0.0
 10
-13.323360489
 20
23.5275493537
 30
0.0
 10
-13.3471718592
 20
23.5490699811
 30
0.0
 10
-13.3624510562
 20
23.573024266
 30
0.0
 10
-13.3661107446
 20
23.5905856738
 30
0.0
 10
-13.3661106494
 20
23.5988706363
 30
0.0
 11
-13.2928873468
 21
23.5104822886
 31
0.0
 11
-13.3239790198
 21
23.5294249942
 31
0.0
 11
-13.3470798564
 21
23.5510351246
 31
0.0
 11
-13.3613068166
 21
23.574484398
 31
0.0
 11
-13.3661106494
 21
23.5988706363
 31
0.0
  0
SPLINE
  5
41D
100
AcDbEntity
  8
RACCORDO
100
AcDbSpline
 62
253
  6
CONTINUOUS
 70
0
 71
3
 72
11
 73
7
 74
5
 42
0.0000001
 43
0.0000001
 44
0.0000000001
 12
0.0394745533
 22
-0.0642627724
 32
0.0
 13
-0.0459002527
 23
-0.0598423853
 33
0.0
 40
0.0
 40
0.0
 40
0.0
 40
0.0
 40
0.3443103774
 40
0.6207911565
 40
0.8330085203
 40
1.0
 40
1.0
 40
1.0
 40
1.0
 10
-9.4858327448
 20
23.9060804658
 30
0.0
 10
-9.4813022453
 20
23.8987050193
 30
0.0
 10
-9.4737249567
 20
23.885004905
 30
0.0
 10
-9.4664219838
 20
23.865276591
 30
0.0
 10
-9.464316974
 20
23.848667239
 30
0.0
 10
-9.4674980676
 20
23.8391048129
 30
0.0
 10
-9.4700530513
 20
23.8357737568
 30
0.0
 11
-9.4858327448
 21
23.9060804658
 31
0.0
 11
-9.4735537441
 21
23.8831996908
 31
0.0
 11
-9.4667277461
 21
23.8634968628
 31
0.0
 11
-9.4655493376
 21
23.8475351961
 31
0.0
 11
-9.4700530513
 21
23.8357737568
 31
0.0
  0
SPLINE
  5
41E
100
AcDbEntity
  8
RACCORDO
100
AcDbSpline
 62
7
  6
CONTINUOUS
 70
0
 71
3
 72
11
 73
7
 74
5
 42
0.0000001
 43
0.0000001
 44
0.0000000001
 12
0.0
 22
0.3670486434
 32
0.0
 13
-0.328298287
 23
0.1641491435
 33
0.0
 40
0.0
 40
0.0
 40
0.0
 40
0.0
 40
0.2467927921
 40
0.5117852903
 40
0.7703247525
 40
1.0
 40
1.0
 40
1.0
 40
1.0
 10
-10.0140999165
 20
23.9901731625
 30
0.0
 10
-10.0140999165
 20
24.020368149
 30
0.0
 10
-10.0245199199
 20
24.0830924875
 30
0.0
 10
-10.0622536937
 20
24.1703262967
 30
0.0
 10
-10.1177122994
 20
24.244922406
 30
0.0
 10
-10.1657396234
 20
24.2824957029
 30
0.0
 10
-10.1908736202
 20
24.2950627013
 30
0.0
 11
-10.0140999165
 21
23.9901731625
 31
0.0
 11
-10.0275558807
 21
24.0797531375
 31
0.0
 11
-10.0658755041
 21
24.1691517579
 31
0.0
 11
-10.1232252512
 21
24.2447583937
 31
0.0
 11
-10.1908736202
 21
24.2950627013
 31
0.0
  0
SPLINE
  5
41F
100
AcDbEntity
  8
RACCORDO
100
AcDbSpline
 62
7
  6
CONTINUOUS
 70
0
 71
3
 72
11
 73
7
 74
5
 42
0.0000001
 43
0.0000001
 44
0.0000000001
 12
-0.4087143287
 22
0.2043714832
 32
0.0
 13
-0.4104598159
 23
-0.2008428369
 33
0.0
 40
0.0
 40
0.0
 40
0.0
 40
0.0
 40
0.227550333
 40
0.4653227117
 40
0.7212674125
 40
1.0
 40
1.0
 40
1.0
 40
1.0
 10
0.8629525831
 20
24.1969622358
 30
0.0
 10
0.8319515559
 20
24.2124638355
 30
0.0
 10
0.7637402174
 20
24.2353089644
 30
0.0
 10
0.6529320663
 20
24.2414213587
 30
0.0
 10
0.5362628635
 20
24.2203671845
 30
0.0
 10
0.4600318739
 20
24.1902807351
 30
0.0
 10
0.4218956984
 20
24.1716202539
 30
0.0
 11
0.8629525831
 21
24.1969622358
 31
0.0
 11
0.7644552274
 21
24.230287008
 31
0.0
 11
0.6560206686
 21
24.2371758012
 31
0.0
 11
0.5407417055
 21
24.2174335661
 31
0.0
 11
0.4218956984
 21
24.1716202539
 31
0.0
  0
SPLINE
  5
420
100
AcDbEntity
  8
RACCORDO
100
AcDbSpline
 62
253
  6
CONTINUOUS
 70
0
 71
3
 72
11
 73
7
 74
5
 42
0.0000001
 43
0.0000001
 44
0.0000000001
 12
-0.0017563531
 22
0.3667457897
 32
0.0
 13
-0.3272560829
 23
0.165556683
 33
0.0
 40
0.0
 40
0.0
 40
0.0
 40
0.0
 40
0.2466955157
 40
0.5118832147
 40
0.7705705489
 40
1.0
 40
1.0
 40
1.0
 40
1.0
 10
-11.6153807074
 20
23.187451159
 30
0.0
 10
-11.6155251355
 20
23.2176093396
 30
0.0
 10
-11.6261781294
 20
23.2802384419
 30
0.0
 10
-11.6639965604
 20
23.3673646897
 30
0.0
 10
-11.7193119957
 20
23.4419625491
 30
0.0
 10
-11.7671270165
 20
23.4796795048
 30
0.0
 10
-11.792154411
 20
23.4923406978
 30
0.0
 11
-11.6153807074
 21
23.187451159
 31
0.0
 11
-11.6291540063
 21
23.2768722229
 31
0.0
 11
-11.6675845659
 21
23.366214992
 31
0.0
 11
-11.7248230872
 21
23.4418770538
 31
0.0
 11
-11.792154411
 21
23.4923406978
 31
0.0
  0
SPLINE
  5
421
100
AcDbEntity
  8
RACCORDO
100
AcDbSpline
 62
253
  6
CONTINUOUS
 70
0
 71
3
 72
11
 73
7
 74
5
 42
0.0000001
 43
0.0000001
 44
0.0000000001
 12
0.0017306169
 22
0.3673419508
 32
0.0
 13
-0.3293172695
 23
0.1627674411
 33
0.0
 40
0.0
 40
0.0
 40
0.0
 40
0.0
 40
0.2468893536
 40
0.5116863499
 40
0.7700780422
 40
1.0
 40
1.0
 40
1.0
 40
1.0
 10
-9.4858327448
 20
24.2536119825
 30
0.0
 10
-9.4856903211
 20
24.2838429215
 30
0.0
 10
-9.4958807746
 20
24.3466603459
 30
0.0
 10
-9.5335289601
 20
24.4340015128
 30
0.0
 10
-9.5891313488
 20
24.5085949631
 30
0.0
 10
-9.637367358
 20
24.5460269184
 30
0.0
 10
-9.6626064485
 20
24.5585015213
 30
0.0
 11
-9.4858327448
 21
24.2536119825
 31
0.0
 11
-9.498975572
 21
24.3433484616
 31
0.0
 11
-9.537184755
 21
24.4328019387
 31
0.0
 11
-9.5946447142
 21
24.508353248
 31
0.0
 11
-9.6626064485
 21
24.5585015213
 31
0.0
  0
SPLINE
  5
422
100
AcDbEntity
  8
RACCORDO
100
AcDbSpline
 62
253
  6
CONTINUOUS
 70
0
 71
3
 72
11
 73
7
 74
5
 42
0.0000001
 43
0.0000001
 44
0.0000000001
 12
-0.1022732388
 22
0.0517308249
 32
0.0
 13
-0.1030347983
 23
-0.0501968522
 33
0.0
 40
0.0
 40
0.0
 40
0.0
 40
0.0
 40
0.2789492198
 40
0.5349524055
 40
0.7726363297
 40
1.0
 40
1.0
 40
1.0
 40
1.0
 10
-10.999932609
 20
25.2271646016
 30
0.0
 10
-11.0094422891
 20
25.2319746927
 30
0.0
 10
-11.0284707749
 20
25.2397764865
 30
0.0
 10
-11.0576706161
 20
25.245434432
 30
0.0
 10
-11.0854728131
 20
25.2442406601
 30
0.0
 10
-11.10263579
 20
25.2387034197
 30
0.0
 10
-11.11044458
 20
25.2348991062
 30
0.0
 11
-10.999932609
 21
25.2271646016
 31
0.0
 11
-11.0296101882
 21
25.2390549427
 31
0.0
 11
-11.058464556
 21
25.2443766731
 31
0.0
 11
-11.0856700517
 21
25.2429782625
 31
0.0
 11
-11.11044458
 21
25.2348991062
 31
0.0
  0
SPLINE
  5
423
100
AcDbEntity
  8
RACCORDO
100
AcDbSpline
 62
7
  6
CONTINUOUS
 70
0
 71
3
 72
11
 73
7
 74
5
 42
0.0000001
 43
0.0000001
 44
0.0000000001
 12
-0.1028463418
 22
0.0514231709
 32
0.0
 13
-0.1033748983
 23
-0.0503521891
 33
0.0
 40
0.0
 40
0.0
 40
0.0
 40
0.0
 40
0.2790833933
 40
0.5352290697
 40
0.7729212505
 40
1.0
 40
1.0
 40
1.0
 40
1.0
 10
-11.5343824877
 20
24.9668171351
 30
0.0
 10
-11.5439500564
 20
24.9716009194
 30
0.0
 10
-11.5630815698
 20
24.9793516519
 30
0.0
 10
-11.5924005483
 20
24.9849454753
 30
0.0
 10
-11.6202833179
 20
24.9837117184
 30
0.0
 10
-11.6374898562
 20
24.9781584521
 30
0.0
 10
-11.6453146038
 20
24.974347148
 30
0.0
 11
-11.5343824877
 21
24.9668171351
 31
0.0
 11
-11.5642198918
 21
24.9786296703
 31
0.0
 11
-11.5931994051
 21
24.9838901265
 31
0.0
 11
-11.6204925953
 21
24.9824491421
 31
0.0
 11
-11.6453146038
 21
24.974347148
 31
0.0
  0
SPLINE
  5
424
100
AcDbEntity
  8
RACCORDO
100
AcDbSpline
 62
253
  6
CONTINUOUS
 70
0
 71
3
 72
11
 73
7
 74
5
 42
0.0000001
 43
0.0000001
 44
0.0000000001
 12
-0.1051368994
 22
0.0519560066
 32
0.0
 13
-0.104347279
 23
-0.0535241963
 33
0.0
 40
0.0
 40
0.0
 40
0.0
 40
0.0
 40
0.2795156184
 40
0.5356957389
 40
0.7731450427
 40
1.0
 40
1.0
 40
1.0
 40
1.0
 10
-13.1171390908
 20
24.1548330377
 30
0.0
 10
-13.1269348927
 20
24.1596738762
 30
0.0
 10
-13.1465112767
 20
24.1674778632
 30
0.0
 10
-13.1764774534
 20
24.1729309717
 30
0.0
 10
-13.2048909075
 20
24.1713101084
 30
0.0
 10
-13.2223268581
 20
24.1653317532
 30
0.0
 10
-13.230217424
 20
24.1612843435
 30
0.0
 11
-13.1171390908
 21
24.1548330377
 31
0.0
 11
-13.1476870875
 21
24.1667218119
 31
0.0
 11
-13.1772935507
 21
24.1718262667
 31
0.0
 11
-13.2050799625
 21
24.169995889
 31
0.0
 11
-13.230217424
 21
24.1612843435
 31
0.0
  0
SPLINE
  5
425
100
AcDbEntity
  8
RACCORDO
100
AcDbSpline
 62
253
  6
CONTINUOUS
 70
0
 71
3
 72
9
 73
5
 74
3
 42
0.0000001
 43
0.0000001
 44
0.0000000001
 12
0.0
 22
0.0591159102
 32
0.0
 13
0.0113884801
 23
0.0580085628
 33
0.0
 40
0.0
 40
0.0
 40
0.0
 40
0.0
 40
0.2415564588
 40
1.0
 40
1.0
 40
1.0
 40
1.0
 10
-11.967902667
 20
23.1879638828
 30
0.0
 10
-11.967902667
 20
23.1927238262
 30
0.0
 10
-11.9673705017
 20
23.2124276284
 30
0.0
 10
-11.9648147565
 20
23.2320593815
 30
0.0
 10
-11.9619355834
 20
23.2467247881
 30
0.0
 11
-11.967902667
 21
23.1879638828
 31
0.0
 11
-11.9675274962
 21
23.2022387835
 31
0.0
 11
-11.9619355834
 21
23.2467247881
 31
0.0
  0
SPLINE
  5
426
100
AcDbEntity
  8
RACCORDO
100
AcDbSpline
 62
253
  6
CONTINUOUS
 70
0
 71
3
 72
11
 73
7
 74
5
 42
0.0000001
 43
0.0000001
 44
0.0000000001
 12
0.0591913628
 22
0.3014981685
 32
0.0
 13
0.2740304919
 23
0.1389678111
 33
0.0
 40
0.0
 40
0.0
 40
0.0
 40
0.0
 40
0.2586012311
 40
0.5224170127
 40
0.7743001533
 40
1.0
 40
1.0
 40
1.0
 40
1.0
 10
-11.9619355834
 20
23.2467247881
 30
0.0
 10
-11.9568332637
 20
23.272714054
 30
0.0
 10
-11.9405425146
 20
23.3241551926
 30
0.0
 10
-11.9021161238
 20
23.3940845815
 30
0.0
 10
-11.8527485806
 20
23.4524461011
 30
0.0
 10
-11.8127706244
 20
23.4818856933
 30
0.0
 10
-11.792154411
 20
23.4923406978
 30
0.0
 11
-11.9619355834
 21
23.2467247881
 31
0.0
 11
-11.938344127
 21
23.322597864
 31
0.0
 11
-11.8992350468
 21
23.3935974056
 31
0.0
 11
-11.8487305338
 21
23.452238819
 31
0.0
 11
-11.792154411
 21
23.4923406978
 31
0.0
  0
SPLINE
  5
427
100
AcDbEntity
  8
RACCORDO
100
AcDbSpline
 62
253
  6
CONTINUOUS
 70
0
 71
3
 72
11
 73
7
 74
5
 42
0.0000001
 43
0.0000001
 44
0.0000000001
 12
0.0
 22
0.3659184282
 32
0.0
 13
0.3263519551
 23
0.1655013518
 33
0.0
 40
0.0
 40
0.0
 40
0.0
 40
0.0
 40
0.2465991784
 40
0.5114081618
 40
0.7699752382
 40
1.0
 40
1.0
 40
1.0
 40
1.0
 10
-13.2928873468
 20
23.8504562228
 30
0.0
 10
-13.2928873468
 20
23.8805346173
 30
0.0
 10
-13.2825446042
 20
23.9430195984
 30
0.0
 10
-13.2450610036
 20
24.0299900063
 30
0.0
 10
-13.1899216519
 20
24.1044890323
 30
0.0
 10
-13.1421621011
 20
24.1421432347
 30
0.0
 10
-13.1171390908
 20
24.1548330377
 30
0.0
 11
-13.2928873468
 21
23.8504562228
 31
0.0
 11
-13.2795290182
 21
23.9396971519
 31
0.0
 11
-13.2414737755
 21
24.0288100875
 31
0.0
 11
-13.1844717378
 21
24.1043260686
 31
0.0
 11
-13.1171390908
 21
24.1548330377
 31
0.0
  0
SPLINE
  5
428
100
AcDbEntity
  8
RACCORDO
100
AcDbSpline
 62
253
  6
CONTINUOUS
 70
0
 71
3
 72
11
 73
7
 74
5
 42
0.0000001
 43
0.0000001
 44
0.0000000001
 12
0.3239338537
 22
-0.1619669268
 32
0.0
 13
0.324681576
 23
0.1604627718
 33
0.0
 40
0.0
 40
0.0
 40
0.0
 40
0.0
 40
0.2351708329
 40
0.4995791214
 40
0.7642139051
 40
1.0
 40
1.0
 40
1.0
 40
1.0
 10
-11.967902667
 20
22.8479899487
 30
0.0
 10
-11.9425094023
 20
22.8352933164
 30
0.0
 10
-11.8841651686
 20
22.817149416
 30
0.0
 10
-11.7918301325
 20
22.8083929209
 30
0.0
 10
-11.6993958293
 20
22.8168958476
 30
0.0
 10
-11.6408991743
 20
22.8348655947
 30
0.0
 10
-11.6153807074
 20
22.8474772249
 30
0.0
 11
-11.967902667
 21
22.8479899487
 31
0.0
 11
-11.8871328302
 21
22.820963392
 31
0.0
 11
-11.7918531912
 21
22.8113788252
 31
0.0
 11
-11.6964636437
 21
22.8206860741
 31
0.0
 11
-11.6153807074
 21
22.8474772249
 31
0.0
  0
SPLINE
  5
429
100
AcDbEntity
  8
RACCORDO
100
AcDbSpline
 62
253
  6
CONTINUOUS
 70
0
 71
3
 72
11
 73
7
 74
5
 42
0.0000001
 43
0.0000001
 44
0.0000000001
 12
0.3239338537
 22
-0.1619669268
 32
0.0
 13
0.324681576
 23
0.1604627718
 33
0.0
 40
0.0
 40
0.0
 40
0.0
 40
0.0
 40
0.2351708329
 40
0.4995791214
 40
0.7642139051
 40
1.0
 40
1.0
 40
1.0
 40
1.0
 10
-11.967902667
 20
23.1879638828
 30
0.0
 10
-11.9425094023
 20
23.1752672505
 30
0.0
 10
-11.8841651686
 20
23.1571233501
 30
0.0
 10
-11.7918301325
 20
23.148366855
 30
0.0
 10
-11.6993958293
 20
23.1568697817
 30
0.0
 10
-11.6408991743
 20
23.1748395289
 30
0.0
 10
-11.6153807074
 20
23.187451159
 30
0.0
 11
-11.967902667
 21
23.1879638828
 31
0.0
 11
-11.8871328302
 21
23.1609373261
 31
0.0
 11
-11.7918531912
 21
23.1513527593
 31
0.0
 11
-11.6964636437
 21
23.1606600082
 31
0.0
 11
-11.6153807074
 21
23.187451159
 31
0.0
  0
SPLINE
  5
42A
100
AcDbEntity
  8
RACCORDO
100
AcDbSpline
 62
7
  6
CONTINUOUS
 70
0
 71
3
 72
12
 73
8
 74
6
 42
0.0000001
 43
0.0000001
 44
0.0000000001
 12
0.0002238523
 22
-0.3790359227
 32
0.0
 13
0.2339640663
 23
-0.2982098196
 33
0.0
 40
0.0
 40
0.0
 40
0.0
 40
0.0
 40
0.1015870176
 40
0.2135875906
 40
0.4591399651
 40
0.7237133738
 40
1.0
 40
1.0
 40
1.0
 40
1.0
 10
-7.7896763989
 20
21.8742074326
 30
0.0
 10
-7.7896688188
 20
21.8613723896
 30
0.0
 10
-7.7874116746
 20
21.8343781339
 30
0.0
 10
-7.775942991
 20
21.7774305481
 30
0.0
 10
-7.7495973275
 20
21.7029530751
 30
0.0
 10
-7.7037105481
 20
21.614561074
 30
0.0
 10
-7.6647763503
 20
21.558141051
 30
0.0
 10
-7.6432293028
 20
21.530677256
 30
0.0
 11
-7.7896763989
 21
21.8742074326
 31
0.0
 11
-7.7868254327
 21
21.8358079865
 31
0.0
 11
-7.7786695643
 21
21.7941465515
 31
0.0
 11
-7.7485114483
 21
21.706094827
 31
0.0
 11
-7.7026291859
 21
21.6169238299
 31
0.0
 11
-7.6432293028
 21
21.530677256
 31
0.0
  0
SPLINE
  5
42B
100
AcDbEntity
  8
RACCORDO
100
AcDbSpline
 62
253
  6
CONTINUOUS
 70
0
 71
3
 72
12
 73
8
 74
6
 42
0.0000001
 43
0.0000001
 44
0.0000000001
 12
-0.1068021872
 22
-0.2780421342
 32
0.0
 13
-0.2915621921
 23
0.0608738343
 33
0.0
 40
0.0
 40
0.0
 40
0.0
 40
0.0
 40
0.2772952868
 40
0.5367750603
 40
0.7750875836
 40
0.8885703057
 40
1.0
 40
1.0
 40
1.0
 40
1.0
 10
-11.6153807074
 20
22.8474772249
 30
0.0
 10
-11.6252526217
 20
22.8217773004
 30
0.0
 10
-11.6510526642
 20
22.7742252668
 30
0.0
 10
-11.7064612205
 20
22.7191213102
 30
0.0
 10
-11.76299617
 20
22.6928539706
 30
0.0
 10
-11.8089518086
 20
22.6872542716
 30
0.0
 10
-11.8313945746
 20
22.6893949192
 30
0.0
 10
-11.8422241366
 20
22.6916559701
 30
0.0
 11
-11.6153807074
 21
22.8474772249
 31
0.0
 11
-11.6552641409
 21
22.7751531001
 31
0.0
 11
-11.7108148044
 21
22.7214201995
 31
0.0
 11
-11.7756263328
 21
22.6924755081
 31
0.0
 11
-11.8091884913
 21
22.6884666097
 31
0.0
 11
-11.8422241366
 21
22.6916559701
 31
0.0
  0
SPLINE
  5
42C
100
AcDbEntity
  8
RACCORDO
100
AcDbSpline
 62
7
  6
CONTINUOUS
 70
0
 71
3
 72
11
 73
7
 74
5
 42
0.0000001
 43
0.0000001
 44
0.0000000001
 12
-0.2287633488
 22
-0.2738870147
 32
0.0
 13
-0.3493645148
 23
0.0727406517
 33
0.0
 40
0.0
 40
0.0
 40
0.0
 40
0.0
 40
0.2549800052
 40
0.5144907592
 40
0.767340781
 40
1.0
 40
1.0
 40
1.0
 40
1.0
 10
-10.9041600993
 20
22.698973702
 30
0.0
 10
-10.9236034592
 20
22.6756951312
 30
0.0
 10
-10.9682211205
 20
22.6330090302
 30
0.0
 10
-11.0465861578
 20
22.5848162667
 30
0.0
 10
-11.1315457903
 20
22.5567530315
 30
0.0
 10
-11.1908440517
 20
22.5556633464
 30
0.0
 10
-11.2179383434
 20
22.5613046074
 30
0.0
 11
-10.9041600993
 21
22.698973702
 31
0.0
 11
-10.9697747012
 21
22.6359328505
 31
0.0
 11
-11.0488320286
 21
22.5877020215
 31
0.0
 11
-11.1349148467
 21
22.5606571283
 31
0.0
 11
-11.2179383434
 21
22.5613046074
 31
0.0
  0
SPLINE
  5
42D
100
AcDbEntity
  8
RACCORDO
100
AcDbSpline
 62
253
  6
CONTINUOUS
 70
0
 71
3
 72
11
 73
7
 74
5
 42
0.0000001
 43
0.0000001
 44
0.0000000001
 12
-0.1076143396
 22
0.0538071698
 32
0.0
 13
-0.0000116247
 23
0.1203164888
 33
0.0
 40
0.0
 40
0.0
 40
0.0
 40
0.0
 40
0.3025789318
 40
0.5654800689
 40
0.7934320357
 40
1.0
 40
1.0
 40
1.0
 40
1.0
 10
0.0714308176
 20
-24.8112548671
 30
0.0
 10
0.0605768736
 20
-24.8058278951
 30
0.0
 10
0.0409595475
 20
-24.7941889581
 30
0.0
 10
0.0171490679
 20
-24.7726700939
 30
0.0
 10
0.0018694797
 20
-24.7487179034
 30
0.0
 10
-0.001791684
 20
-24.7311578162
 30
0.0
 10
-0.0017924844
 20
-24.7228733054
 30
0.0
 11
0.0714308176
 21
-24.8112548671
 31
0.0
 11
0.0403411025
 21
-24.7923136227
 31
0.0
 11
0.0172409318
 21
-24.7707052008
 31
0.0
 11
0.0030133415
 21
-24.7472577699
 31
0.0
 11
-0.0017924844
 21
-24.7228733054
 31
0.0
  0
SPLINE
  5
42E
100
AcDbEntity
  8
RACCORDO
100
AcDbSpline
 62
253
  6
CONTINUOUS
 70
0
 71
3
 72
10
 73
6
 74
4
 42
0.0000001
 43
0.0000001
 44
0.0000000001
 12
0.0
 22
0.2519048022
 32
0.0
 13
0.1607031655
 23
0.1939858808
 33
0.0
 40
0.0
 40
0.0
 40
0.0
 40
0.0
 40
0.2356243917
 40
0.4879008423
 40
1.0
 40
1.0
 40
1.0
 40
1.0
 10
1.3964154974
 20
-25.1337732729
 30
0.0
 10
1.3964154974
 20
-25.113988301
 30
0.0
 10
1.4009523651
 20
-25.0729407688
 30
0.0
 10
1.4246777546
 20
-24.9921764179
 30
0.0
 10
1.4573718598
 20
-24.9351924345
 30
0.0
 10
1.4848038451
 20
-24.9020790991
 30
0.0
 11
1.3964154974
 21
-25.1337732729
 31
0.0
 11
1.4024391474
 21
-25.0747248041
 31
0.0
 11
1.4200992429
 21
-25.0136782729
 31
0.0
 11
1.4848038451
 21
-24.9020790991
 31
0.0
  0
SPLINE
  5
42F
100
AcDbEntity
  8
RACCORDO
100
AcDbSpline
 62
253
  6
CONTINUOUS
 70
0
 71
3
 72
11
 73
7
 74
5
 42
0.0000001
 43
0.0000001
 44
0.0000000001
 12
0.3239338538
 22
-0.1619669269
 32
0.0
 13
0.3246815761
 23
0.1604627719
 33
0.0
 40
0.0
 40
0.0
 40
0.0
 40
0.0
 40
0.2351708842
 40
0.4995792379
 40
0.7642140574
 40
1.0
 40
1.0
 40
1.0
 40
1.0
 10
1.3964154974
 20
-25.1337732729
 30
0.0
 10
1.4218087677
 20
-25.146469908
 30
0.0
 10
1.4801530159
 20
-25.1646138106
 30
0.0
 10
1.572488071
 20
-25.1733703017
 30
0.0
 10
1.664922368
 20
-25.1648673678
 30
0.0
 10
1.7234190066
 20
-25.1468976187
 30
0.0
 10
1.7489374571
 20
-25.1342859967
 30
0.0
 11
1.3964154974
 21
-25.1337732729
 31
0.0
 11
1.4771853526
 21
-25.1607998333
 31
0.0
 11
1.5724650158
 21
-25.1703843964
 31
0.0
 11
1.6678545752
 21
-25.1610771369
 31
0.0
 11
1.7489374571
 21
-25.1342859967
 31
0.0
  0
SPLINE
  5
430
100
AcDbEntity
  8
RACCORDO
100
AcDbSpline
 62
253
  6
CONTINUOUS
 70
0
 71
3
 72
11
 73
7
 74
5
 42
0.0000001
 43
0.0000001
 44
0.0000000001
 12
0.3239338539
 22
-0.161966927
 32
0.0
 13
0.3246815763
 23
0.160462772
 33
0.0
 40
0.0
 40
0.0
 40
0.0
 40
0.0
 40
0.2351709482
 40
0.4995793653
 40
0.764214221
 40
1.0
 40
1.0
 40
1.0
 40
1.0
 10
1.3964154974
 20
-25.473747207
 30
0.0
 10
1.4218087746
 20
-25.4864438456
 30
0.0
 10
1.4801530389
 20
-25.5045877504
 30
0.0
 10
1.5724881143
 20
-25.5133442367
 30
0.0
 10
1.6649224035
 20
-25.5048412952
 30
0.0
 10
1.7234190243
 20
-25.4868715441
 30
0.0
 10
1.7489374571
 20
-25.4742599309
 30
0.0
 11
1.3964154974
 21
-25.473747207
 31
0.0
 11
1.4771853755
 21
-25.500773772
 31
0.0
 11
1.5724650623
 21
-25.5103583306
 31
0.0
 11
1.6678546338
 21
-25.5010510596
 31
0.0
 11
1.7489374571
 21
-25.4742599309
 31
0.0
  0
SPLINE
  5
431
100
AcDbEntity
  8
RACCORDO
100
AcDbSpline
 62
253
  6
CONTINUOUS
 70
0
 71
3
 72
11
 73
7
 74
5
 42
0.0000001
 43
0.0000001
 44
0.0000000001
 12
0.0
 22
-0.1574238334
 32
0.0
 13
0.1407964518
 23
-0.0704174871
 33
0.0
 40
0.0
 40
0.0
 40
0.0
 40
0.0
 40
0.2897495234
 40
0.549584515
 40
0.7828462997
 40
1.0
 40
1.0
 40
1.0
 40
1.0
 10
1.3964154974
 20
-25.473747207
 30
0.0
 10
1.3964154974
 20
-25.4889517006
 30
0.0
 10
1.3988689665
 20
-25.5179006435
 30
0.0
 10
1.4112416968
 20
-25.5574932161
 30
0.0
 10
1.4319052465
 20
-25.5891924104
 30
0.0
 10
1.4511914476
 20
-25.6038652174
 30
0.0
 10
1.4613829378
 20
-25.6089623567
 30
0.0
 11
1.3964154974
 21
-25.473747207
 31
0.0
 11
1.4007349034
 21
-25.5191557123
 31
0.0
 11
1.4134811302
 21
-25.5580232946
 31
0.0
 11
1.4340319346
 21
-25.5884550816
 31
0.0
 11
1.4613829378
 21
-25.6089623567
 31
0.0
  0
SPLINE
  5
432
100
AcDbEntity
  8
RACCORDO
100
AcDbSpline
 62
253
  6
CONTINUOUS
 70
0
 71
3
 72
11
 73
7
 74
5
 42
0.0000001
 43
0.0000001
 44
0.0000000001
 12
0.0
 22
-0.1574304972
 32
0.0
 13
0.1408119364
 23
-0.0704014205
 33
0.0
 40
0.0
 40
0.0
 40
0.0
 40
0.0
 40
0.289749639
 40
0.5495875602
 40
0.7828489991
 40
1.0
 40
1.0
 40
1.0
 40
1.0
 10
-13.2928873468
 20
23.5104822886
 30
0.0
 10
-13.2928873468
 20
23.4952771454
 30
0.0
 10
-13.2904334854
 20
23.4663269219
 30
0.0
 10
-13.2780601119
 20
23.4267322332
 30
0.0
 10
-13.2573932854
 20
23.3950335934
 30
0.0
 10
-13.2381065659
 20
23.3803596838
 30
0.0
 10
-13.2279140816
 20
23.3752637709
 30
0.0
 11
-13.2928873468
 21
23.5104822886
 31
0.0
 11
-13.2885675368
 21
23.4650718639
 31
0.0
 11
-13.2758200476
 21
23.4262023881
 31
0.0
 11
-13.255266832
 21
23.3957704194
 31
0.0
 11
-13.2279140816
 21
23.3752637709
 31
0.0
  0
SPLINE
  5
433
100
AcDbEntity
  8
RACCORDO
100
AcDbSpline
 62
253
  6
CONTINUOUS
 70
0
 71
3
 72
11
 73
7
 74
5
 42
0.0000001
 43
0.0000001
 44
0.0000000001
 12
0.0
 22
-0.1574304607
 32
0.0
 13
0.1408074022
 23
-0.0704104071
 33
0.0
 40
0.0
 40
0.0
 40
0.0
 40
0.0
 40
0.2897508691
 40
0.5495855602
 40
0.7828462233
 40
1.0
 40
1.0
 40
1.0
 40
1.0
 10
0.0714308176
 20
-24.8112548671
 30
0.0
 10
0.0714308176
 20
-24.8264600714
 30
0.0
 10
0.0738845078
 20
-24.8554103008
 30
0.0
 10
0.0862584296
 20
-24.8950043812
 30
0.0
 10
0.1069240252
 20
-24.9267041676
 30
0.0
 10
0.1262119759
 20
-24.9413763921
 30
0.0
 10
0.1364042623
 20
-24.9464730207
 30
0.0
 11
0.0714308176
 21
-24.8112548671
 31
0.0
 11
0.0757506492
 21
-24.8566654736
 31
0.0
 11
0.0884981109
 21
-24.8955344134
 31
0.0
 11
0.1090508402
 21
-24.9259665527
 31
0.0
 11
0.1364042623
 21
-24.9464730207
 31
0.0
  0
SPLINE
  5
434
100
AcDbEntity
  8
RACCORDO
100
AcDbSpline
 62
253
  6
CONTINUOUS
 70
0
 71
3
 72
11
 73
7
 74
5
 42
0.0000001
 43
0.0000001
 44
0.0000000001
 12
0.0
 22
-0.1574304972
 32
0.0
 13
0.1408119364
 23
-0.0704014205
 33
0.0
 40
0.0
 40
0.0
 40
0.0
 40
0.0
 40
0.289749639
 40
0.5495875602
 40
0.7828489991
 40
1.0
 40
1.0
 40
1.0
 40
1.0
 10
-11.967902667
 20
22.8479899487
 30
0.0
 10
-11.967902667
 20
22.8327848055
 30
0.0
 10
-11.9654488056
 20
22.803834582
 30
0.0
 10
-11.9530754321
 20
22.7642398933
 30
0.0
 10
-11.9324086055
 20
22.7325412535
 30
0.0
 10
-11.9131218861
 20
22.7178673439
 30
0.0
 10
-11.9029294018
 20
22.712771431
 30
0.0
 11
-11.967902667
 21
22.8479899487
 31
0.0
 11
-11.9635828569
 21
22.802579524
 31
0.0
 11
-11.9508353677
 21
22.7637100482
 31
0.0
 11
-11.9302821522
 21
22.7332780795
 31
0.0
 11
-11.9029294018
 21
22.712771431
 31
0.0
  0
SPLINE
  5
435
100
AcDbEntity
  8
RACCORDO
100
AcDbSpline
 62
253
  6
CONTINUOUS
 70
0
 71
3
 72
11
 73
7
 74
5
 42
0.0000001
 43
0.0000001
 44
0.0000000001
 12
0.0
 22
0.3659184285
 32
0.0
 13
0.3263519554
 23
0.165501352
 33
0.0
 40
0.0
 40
0.0
 40
0.0
 40
0.0
 40
0.2465996066
 40
0.5114086341
 40
0.7699756527
 40
1.0
 40
1.0
 40
1.0
 40
1.0
 10
1.3964154974
 20
16.5058048006
 30
0.0
 10
1.3964154974
 20
16.5358832475
 30
0.0
 10
1.4067582695
 20
16.5983682862
 30
0.0
 10
1.4442419218
 20
16.6853387257
 30
0.0
 10
1.4993812723
 20
16.7598376899
 30
0.0
 10
1.5471407882
 20
16.7974918354
 30
0.0
 10
1.5721637534
 20
16.8101816156
 30
0.0
 11
1.3964154974
 21
16.5058048006
 31
0.0
 11
1.4097738714
 21
16.5950458815
 31
0.0
 11
1.4478291562
 21
16.6841588168
 31
0.0
 11
1.504831213
 21
16.7596747569
 31
0.0
 11
1.5721637534
 21
16.8101816156
 31
0.0
  0
SPLINE
  5
436
100
AcDbEntity
  8
RACCORDO
100
AcDbSpline
 62
253
  6
CONTINUOUS
 70
0
 71
3
 72
11
 73
7
 74
5
 42
0.0000001
 43
0.0000001
 44
0.0000000001
 12
0.0
 22
0.365918428
 32
0.0
 13
0.3263519549
 23
0.1655013517
 33
0.0
 40
0.0
 40
0.0
 40
0.0
 40
0.0
 40
0.2465994894
 40
0.5114083944
 40
0.7699753467
 40
1.0
 40
1.0
 40
1.0
 40
1.0
 10
0.0714308176
 20
17.1682971405
 30
0.0
 10
0.0714308176
 20
17.198375573
 30
0.0
 10
0.0817735796
 20
17.2608605823
 30
0.0
 10
0.1192572031
 20
17.3478309932
 30
0.0
 10
0.1743965443
 20
17.4223299793
 30
0.0
 10
0.2221560751
 20
17.4599841585
 30
0.0
 10
0.2471790736
 20
17.4726739555
 30
0.0
 11
0.0714308176
 21
17.1682971405
 31
0.0
 11
0.0847891792
 21
17.2575381798
 31
0.0
 11
0.122844432
 21
17.3466510798
 31
0.0
 11
0.1798464546
 21
17.4221670153
 31
0.0
 11
0.2471790736
 21
17.4726739555
 31
0.0
  0
SPLINE
  5
437
100
AcDbEntity
  8
RACCORDO
100
AcDbSpline
 62
253
  6
CONTINUOUS
 70
0
 71
3
 72
11
 73
7
 74
5
 42
0.0000001
 43
0.0000001
 44
0.0000000001
 12
0.3239338537
 22
-0.1619669268
 32
0.0
 13
0.324681576
 23
0.1604627718
 33
0.0
 40
0.0
 40
0.0
 40
0.0
 40
0.0
 40
0.2351708329
 40
0.4995791214
 40
0.7642139051
 40
1.0
 40
1.0
 40
1.0
 40
1.0
 10
1.3964154974
 20
16.1658308665
 30
0.0
 10
1.4218087621
 20
16.1531342341
 30
0.0
 10
1.4801529958
 20
16.1349903338
 30
0.0
 10
1.572488032
 20
16.1262338386
 30
0.0
 10
1.6649223351
 20
16.1347367654
 30
0.0
 10
1.7234189901
 20
16.1527065125
 30
0.0
 10
1.7489374571
 20
16.1653181426
 30
0.0
 11
1.3964154974
 21
16.1658308665
 31
0.0
 11
1.4771853342
 21
16.1388043098
 31
0.0
 11
1.5724649732
 21
16.129219743
 31
0.0
 11
1.6678545207
 21
16.1385269919
 31
0.0
 11
1.7489374571
 21
16.1653181426
 31
0.0
  0
SPLINE
  5
438
100
AcDbEntity
  8
RACCORDO
100
AcDbSpline
 62
253
  6
CONTINUOUS
 70
0
 71
3
 72
12
 73
8
 74
6
 42
0.0000001
 43
0.0000001
 44
0.0000000001
 12
0.1275533645
 22
0.3366972771
 32
0.0
 13
-0.322200989
 23
0.1606905098
 33
0.0
 40
0.0
 40
0.0
 40
0.0
 40
0.0
 40
0.2704231342
 40
0.533367854
 40
0.7767491796
 40
0.8906079026
 40
1.0
 40
1.0
 40
1.0
 40
1.0
 10
3.8784854196
 20
-24.0756827558
 30
0.0
 10
3.8899832132
 20
-24.0453325115
 30
0.0
 10
3.9034285954
 20
-23.9815365501
 30
0.0
 10
3.8944042794
 20
-23.8873203761
 30
0.0
 10
3.8620296605
 20
-23.8180587029
 30
0.0
 10
3.8233846548
 20
-23.7769790152
 30
0.0
 10
3.8008203716
 20
-23.7619753738
 30
0.0
 10
3.7890716243
 20
-23.7561159498
 30
0.0
 11
3.8784854196
 21
-24.0756827558
 31
0.0
 11
3.8985679274
 21
-23.9804109228
 31
0.0
 11
3.8886352235
 21
-23.8862605647
 31
0.0
 11
3.8501920147
 21
-23.8075142932
 31
0.0
 11
3.8219547287
 21
-23.7777953101
 31
0.0
 11
3.7890716243
 21
-23.7561159498
 31
0.0
  0
SPLINE
  5
439
100
AcDbEntity
  8
RACCORDO
100
AcDbSpline
 62
253
  6
CONTINUOUS
 70
0
 71
3
 72
11
 73
7
 74
5
 42
0.0000001
 43
0.0000001
 44
0.0000000001
 12
0.3239338539
 22
-0.161966927
 32
0.0
 13
0.3246815763
 23
0.160462772
 33
0.0
 40
0.0
 40
0.0
 40
0.0
 40
0.0
 40
0.2351709482
 40
0.4995793653
 40
0.764214221
 40
1.0
 40
1.0
 40
1.0
 40
1.0
 10
1.3964154974
 20
16.5058048006
 30
0.0
 10
1.4218087746
 20
16.493108162
 30
0.0
 10
1.4801530389
 20
16.4749642573
 30
0.0
 10
1.5724881143
 20
16.4662077709
 30
0.0
 10
1.6649224035
 20
16.4747107125
 30
0.0
 10
1.7234190243
 20
16.4926804635
 30
0.0
 10
1.7489374571
 20
16.5052920768
 30
0.0
 11
1.3964154974
 21
16.5058048006
 31
0.0
 11
1.4771853755
 21
16.4787782356
 31
0.0
 11
1.5724650623
 21
16.469193677
 31
0.0
 11
1.6678546338
 21
16.478500948
 31
0.0
 11
1.7489374571
 21
16.5052920768
 31
0.0
  0
SPLINE
  5
43A
100
AcDbEntity
  8
RACCORDO
100
AcDbSpline
 62
7
  6
CONTINUOUS
 70
0
 71
3
 72
11
 73
7
 74
5
 42
0.0000001
 43
0.0000001
 44
0.0000000001
 12
0.0
 22
0.3670486434
 32
0.0
 13
-0.328298287
 23
0.1641491435
 33
0.0
 40
0.0
 40
0.0
 40
0.0
 40
0.0
 40
0.2467927921
 40
0.5117852903
 40
0.7703247525
 40
1.0
 40
1.0
 40
1.0
 40
1.0
 10
3.3502182479
 20
17.3080140803
 30
0.0
 10
3.3502182479
 20
17.3382090668
 30
0.0
 10
3.3397982445
 20
17.4009334053
 30
0.0
 10
3.3020644708
 20
17.4881672145
 30
0.0
 10
3.246605865
 20
17.5627633238
 30
0.0
 10
3.198578541
 20
17.6003366207
 30
0.0
 10
3.1734445442
 20
17.6129036191
 30
0.0
 11
3.3502182479
 21
17.3080140803
 31
0.0
 11
3.3367622838
 21
17.3975940553
 31
0.0
 11
3.2984426604
 21
17.4869926757
 31
0.0
 11
3.2410929132
 21
17.5625993115
 31
0.0
 11
3.1734445442
 21
17.6129036191
 31
0.0
  0
SPLINE
  5
43B
100
AcDbEntity
  8
RACCORDO
100
AcDbSpline
 62
253
  6
CONTINUOUS
 70
0
 71
3
 72
11
 73
7
 74
5
 42
0.0000001
 43
0.0000001
 44
0.0000000001
 12
-0.0017563531
 22
0.3667457895
 32
0.0
 13
-0.3272560827
 23
0.1655566829
 33
0.0
 40
0.0
 40
0.0
 40
0.0
 40
0.0
 40
0.2466958371
 40
0.5118834552
 40
0.7705706608
 40
1.0
 40
1.0
 40
1.0
 40
1.0
 10
1.7489374571
 20
16.5052920768
 30
0.0
 10
1.7487930287
 20
16.5354502966
 30
0.0
 10
1.7381400147
 20
16.5980794281
 30
0.0
 10
1.7003215602
 20
16.6852056789
 30
0.0
 10
1.6450061359
 20
16.7598034971
 30
0.0
 10
1.5971911357
 20
16.7975204288
 30
0.0
 10
1.5721637534
 20
16.8101816156
 30
0.0
 11
1.7489374571
 21
16.5052920768
 31
0.0
 11
1.7351641235
 21
16.5947132546
 31
0.0
 11
1.6967335538
 21
16.6840559869
 31
0.0
 11
1.6394950483
 21
16.7597180015
 31
0.0
 11
1.5721637534
 21
16.8101816156
 31
0.0
  0
SPLINE
  5
43C
100
AcDbEntity
  8
RACCORDO
100
AcDbSpline
 62
253
  6
CONTINUOUS
 70
0
 71
3
 72
11
 73
7
 74
5
 42
0.0000001
 43
0.0000001
 44
0.0000000001
 12
0.0017306169
 22
0.3673419505
 32
0.0
 13
-0.3293172692
 23
0.162767441
 33
0.0
 40
0.0
 40
0.0
 40
0.0
 40
0.0
 40
0.2468889152
 40
0.5116858701
 40
0.7700776245
 40
1.0
 40
1.0
 40
1.0
 40
1.0
 10
3.8784854196
 20
17.5714529003
 30
0.0
 10
3.878627843
 20
17.6016837855
 30
0.0
 10
3.8684374198
 20
17.664501151
 30
0.0
 10
3.8307892874
 20
17.7518422864
 30
0.0
 10
3.7751868975
 20
17.8264358003
 30
0.0
 10
3.7269508522
 20
17.8638678136
 30
0.0
 10
3.701711716
 20
17.8763424391
 30
0.0
 11
3.8784854196
 21
17.5714529003
 31
0.0
 11
3.8653426389
 21
17.6611892233
 31
0.0
 11
3.8271334989
 21
17.7506427022
 31
0.0
 11
3.7696735587
 21
17.8261940546
 31
0.0
 11
3.701711716
 21
17.8763424391
 31
0.0
  0
SPLINE
  5
43D
100
AcDbEntity
  8
RACCORDO
100
AcDbSpline
 62
253
  6
CONTINUOUS
 70
0
 71
3
 72
11
 73
7
 74
5
 42
0.0000001
 43
0.0000001
 44
0.0000000001
 12
-0.1022732405
 22
0.0517308258
 32
0.0
 13
-0.1030347895
 23
-0.0501968744
 33
0.0
 40
0.0
 40
0.0
 40
0.0
 40
0.0
 40
0.2789499081
 40
0.5349528633
 40
0.7726365704
 40
1.0
 40
1.0
 40
1.0
 40
1.0
 10
2.3643855554
 20
18.5450055194
 30
0.0
 10
2.3548758517
 20
18.5498156224
 30
0.0
 10
2.3358473471
 20
18.5576174198
 30
0.0
 10
2.306647494
 20
18.5632753538
 30
0.0
 10
2.2788453239
 20
18.5620815733
 30
0.0
 10
2.2616823645
 20
18.556544336
 30
0.0
 10
2.2538735835
 20
18.5527400248
 30
0.0
 11
2.3643855554
 21
18.5450055194
 31
0.0
 11
2.3347078998
 21
18.5568958833
 31
0.0
 11
2.3058535552
 21
18.562217596
 31
0.0
 11
2.2786480844
 21
18.5608191775
 31
0.0
 11
2.2538735835
 21
18.5527400248
 31
0.0
  0
SPLINE
  5
43E
100
AcDbEntity
  8
RACCORDO
100
AcDbSpline
 62
7
  6
CONTINUOUS
 70
0
 71
3
 72
11
 73
7
 74
5
 42
0.0000001
 43
0.0000001
 44
0.0000000001
 12
-0.1028463418
 22
0.0514231709
 32
0.0
 13
-0.1033748983
 23
-0.0503521891
 33
0.0
 40
0.0
 40
0.0
 40
0.0
 40
0.0
 40
0.2790833933
 40
0.5352290697
 40
0.7729212505
 40
1.0
 40
1.0
 40
1.0
 40
1.0
 10
1.8299356767
 20
18.2846580528
 30
0.0
 10
1.820368108
 20
18.2894418372
 30
0.0
 10
1.8012365946
 20
18.2971925696
 30
0.0
 10
1.7719176161
 20
18.3027863931
 30
0.0
 10
1.7440348466
 20
18.3015526362
 30
0.0
 10
1.7268283082
 20
18.2959993699
 30
0.0
 10
1.7190035607
 20
18.2921880658
 30
0.0
 11
1.8299356767
 21
18.2846580528
 31
0.0
 11
1.8000982727
 21
18.296470588
 31
0.0
 11
1.7711187593
 21
18.3017310443
 31
0.0
 11
1.7438255692
 21
18.3002900599
 31
0.0
 11
1.7190035607
 21
18.2921880658
 31
0.0
  0
SPLINE
  5
43F
100
AcDbEntity
  8
RACCORDO
100
AcDbSpline
 62
253
  6
CONTINUOUS
 70
0
 71
3
 72
11
 73
7
 74
5
 42
0.0000001
 43
0.0000001
 44
0.0000000001
 12
-0.1051440438
 22
0.0519595372
 32
0.0
 13
-0.1043498228
 23
-0.0535366971
 33
0.0
 40
0.0
 40
0.0
 40
0.0
 40
0.0
 40
0.2795161735
 40
0.5356960478
 40
0.773144514
 40
1.0
 40
1.0
 40
1.0
 40
1.0
 10
0.2471790736
 20
17.4726739555
 30
0.0
 10
0.2373825866
 20
17.4775151325
 30
0.0
 10
0.2178047989
 20
17.4853195548
 30
0.0
 10
0.1878364375
 20
17.4907723524
 30
0.0
 10
0.1594210867
 20
17.4891500415
 30
0.0
 10
0.1419843655
 20
17.483169956
 30
0.0
 10
0.1340935889
 20
17.4791215916
 30
0.0
 11
0.2471790736
 21
17.4726739555
 31
0.0
 11
0.2166288602
 21
17.484563355
 31
0.0
 11
0.187020289
 21
17.4896674293
 31
0.0
 11
0.1592321747
 21
17.4878356027
 31
0.0
 11
0.1340935889
 21
17.4791215916
 31
0.0
  0
SPLINE
  5
440
100
AcDbEntity
  8
RACCORDO
100
AcDbSpline
 62
253
  6
CONTINUOUS
 70
0
 71
3
 72
11
 73
7
 74
5
 42
0.0000001
 43
0.0000001
 44
0.0000000001
 12
-0.1076200259
 22
0.053810013
 32
0.0
 13
0.0000008146
 23
0.1203228468
 33
0.0
 40
0.0
 40
0.0
 40
0.0
 40
0.0
 40
0.3025814593
 40
0.565482116
 40
0.7934320761
 40
1.0
 40
1.0
 40
1.0
 40
1.0
 10
0.0714308176
 20
17.1682971405
 30
0.0
 10
0.0605762094
 20
17.1737244446
 30
0.0
 10
0.0409578084
 20
17.1853641303
 30
0.0
 10
0.017146469
 20
17.2068846471
 30
0.0
 10
0.0018672339
 20
17.2308388489
 30
0.0
 10
-0.0017925408
 20
17.2484002051
 30
0.0
 10
-0.0017924847
 20
17.256685152
 30
0.0
 11
0.0714308176
 21
17.1682971405
 31
0.0
 11
0.0403393108
 21
17.1872397257
 31
0.0
 11
0.0172384633
 21
17.2088497863
 31
0.0
 11
0.0030114536
 21
17.2322989821
 31
0.0
 11
-0.0017924847
 21
17.256685152
 31
0.0
  0
SPLINE
  5
441
100
AcDbEntity
  8
RACCORDO
100
AcDbSpline
 62
253
  6
CONTINUOUS
 70
0
 71
3
 72
12
 73
8
 74
6
 42
0.0000001
 43
0.0000001
 44
0.0000000001
 12
-0.1868110398
 22
0.3016822339
 32
0.0
 13
-0.3164248526
 23
0.160579723
 33
0.0
 40
0.0
 40
0.0
 40
0.0
 40
0.0
 40
0.1018936562
 40
0.2190264949
 40
0.4830826031
 40
0.7560858423
 40
1.0
 40
1.0
 40
1.0
 40
1.0
 10
1.7489374571
 20
-25.1342859967
 30
0.0
 10
1.7425925038
 20
-25.1240394948
 30
0.0
 10
1.727577753
 20
-25.1028631992
 30
0.0
 10
1.6907727564
 20
-25.0591080948
 30
0.0
 10
1.6351361322
 20
-25.0050278032
 30
0.0
 10
1.5625584115
 20
-24.9477054806
 30
0.0
 10
1.5105306789
 20
-24.9151349883
 30
0.0
 10
1.4848038451
 20
-24.9020790991
 30
0.0
 11
1.7489374571
 21
-25.1342859967
 31
0.0
 11
1.7282604901
 21
-25.1046261561
 31
0.0
 11
1.7016476723
 21
-25.0727002529
 31
0.0
 11
1.6348732151
 21
-25.0069707845
 31
0.0
 11
1.5587423434
 21
-24.9470683697
 31
0.0
 11
1.4848038451
 21
-24.9020790991
 31
0.0
  0
SPLINE
  5
442
100
AcDbEntity
  8
RACCORDO
100
AcDbSpline
 62
7
  6
CONTINUOUS
 70
0
 71
3
 72
11
 73
7
 74
5
 42
0.0000001
 43
0.0000001
 44
0.0000000001
 12
-0.367573618
 22
0.0767562723
 32
0.0
 13
-0.3358593634
 23
0.1679296817
 33
0.0
 40
0.0
 40
0.0
 40
0.0
 40
0.0
 40
0.2082292705
 40
0.4660042739
 40
0.7454922158
 40
1.0
 40
1.0
 40
1.0
 40
1.0
 10
2.4601580652
 20
-24.2827895196
 30
0.0
 10
2.4346448697
 20
-24.2774618854
 30
0.0
 10
2.3782002661
 20
-24.262486122
 30
0.0
 10
2.2894278123
 20
-24.2336558522
 30
0.0
 10
2.1967252559
 20
-24.1985024415
 30
0.0
 10
2.135614818
 20
-24.171266152
 30
0.0
 10
2.1071218772
 20
-24.1570196816
 30
0.0
 11
2.4601580652
 21
-24.2827895196
 31
0.0
 11
2.3843918149
 21
-24.263470183
 31
0.0
 11
2.2922602797
 21
-24.2337874087
 31
0.0
 11
2.1941870827
 21
-24.1964269947
 31
0.0
 11
2.1071218772
 21
-24.1570196816
 31
0.0
  0
SPLINE
  5
443
100
AcDbEntity
  8
RACCORDO
100
AcDbSpline
 62
253
  6
CONTINUOUS
 70
0
 71
3
 72
11
 73
7
 74
5
 42
0.0000001
 43
0.0000001
 44
0.0000000001
 12
-0.1076203225
 22
0.0538101613
 32
0.0
 13
0.0000013829
 23
0.1203231785
 33
0.0
 40
0.0
 40
0.0
 40
0.0
 40
0.0
 40
0.3025823249
 40
0.5654825874
 40
0.7934322572
 40
1.0
 40
1.0
 40
1.0
 40
1.0
 10
0.0714308176
 20
16.8283232064
 30
0.0
 10
0.0605761485
 20
16.833750541
 30
0.0
 10
0.0409576754
 20
16.8453902714
 30
0.0
 10
0.0171463052
 20
16.8669108989
 30
0.0
 10
0.0018671082
 20
16.8908651838
 30
0.0
 10
-0.0017925802
 20
16.9084265916
 30
0.0
 10
-0.001792485
 20
16.9167115541
 30
0.0
 11
0.0714308176
 21
16.8283232064
 31
0.0
 11
0.0403391446
 21
16.847265912
 31
0.0
 11
0.0172383081
 21
16.8688760424
 31
0.0
 11
0.0030113478
 21
16.8923253158
 31
0.0
 11
-0.001792485
 21
16.9167115541
 31
0.0
  0
SPLINE
  5
444
100
AcDbEntity
  8
RACCORDO
100
AcDbSpline
 62
253
  6
CONTINUOUS
 70
0
 71
3
 72
11
 73
7
 74
5
 42
0.0000001
 43
0.0000001
 44
0.0000000001
 12
0.0
 22
-0.1574304972
 32
0.0
 13
0.1408119364
 23
-0.0704014205
 33
0.0
 40
0.0
 40
0.0
 40
0.0
 40
0.0
 40
0.289749639
 40
0.5495875602
 40
0.7828489991
 40
1.0
 40
1.0
 40
1.0
 40
1.0
 10
0.0714308176
 20
16.8283232064
 30
0.0
 10
0.0714308176
 20
16.8131180632
 30
0.0
 10
0.073884679
 20
16.7841678397
 30
0.0
 10
0.0862580525
 20
16.744573151
 30
0.0
 10
0.1069248791
 20
16.7128745112
 30
0.0
 10
0.1262115985
 20
16.6982006016
 30
0.0
 10
0.1364040828
 20
16.6931046887
 30
0.0
 11
0.0714308176
 21
16.8283232064
 31
0.0
 11
0.0757506277
 21
16.7829127817
 31
0.0
 11
0.0884981169
 21
16.7440433058
 31
0.0
 11
0.1090513324
 21
16.7136113372
 31
0.0
 11
0.1364040828
 21
16.6931046887
 31
0.0
  0
SPLINE
  5
445
100
AcDbEntity
  8
RACCORDO
100
AcDbSpline
 62
253
  6
CONTINUOUS
 70
0
 71
3
 72
11
 73
7
 74
5
 42
0.0000001
 43
0.0000001
 44
0.0000000001
 12
0.0
 22
-0.1574304972
 32
0.0
 13
0.1408119364
 23
-0.0704014205
 33
0.0
 40
0.0
 40
0.0
 40
0.0
 40
0.0
 40
0.289749639
 40
0.5495875602
 40
0.7828489991
 40
1.0
 40
1.0
 40
1.0
 40
1.0
 10
1.3964154974
 20
16.1658308665
 30
0.0
 10
1.3964154974
 20
16.1506257233
 30
0.0
 10
1.3988693589
 20
16.1216754998
 30
0.0
 10
1.4112427323
 20
16.0820808111
 30
0.0
 10
1.4319095589
 20
16.0503821713
 30
0.0
 10
1.4511962783
 20
16.0357082617
 30
0.0
 10
1.4613887626
 20
16.0306123487
 30
0.0
 11
1.3964154974
 21
16.1658308665
 31
0.0
 11
1.4007353075
 21
16.1204204418
 31
0.0
 11
1.4134827967
 21
16.0815509659
 31
0.0
 11
1.4340360122
 21
16.0511189973
 31
0.0
 11
1.4613887626
 21
16.0306123487
 31
0.0
  0
SPLINE
  5
446
100
AcDbEntity
  8
RACCORDO
100
AcDbSpline
 62
253
  6
CONTINUOUS
 70
0
 71
3
 72
12
 73
8
 74
6
 42
0.0000001
 43
0.0000001
 44
0.0000000001
 12
-0.1068021872
 22
-0.2780421342
 32
0.0
 13
-0.2915621921
 23
0.0608738343
 33
0.0
 40
0.0
 40
0.0
 40
0.0
 40
0.0
 40
0.2772952868
 40
0.5367750603
 40
0.7750875836
 40
0.8885703057
 40
1.0
 40
1.0
 40
1.0
 40
1.0
 10
1.7489374571
 20
16.1653181426
 30
0.0
 10
1.7390655427
 20
16.1396182182
 30
0.0
 10
1.7132655002
 20
16.0920661845
 30
0.0
 10
1.657856944
 20
16.036962228
 30
0.0
 10
1.6013219944
 20
16.0106948884
 30
0.0
 10
1.5553663558
 20
16.0050951893
 30
0.0
 10
1.5329235899
 20
16.0072358369
 30
0.0
 10
1.5220940279
 20
16.0094968879
 30
0.0
 11
1.7489374571
 21
16.1653181426
 31
0.0
 11
1.7090540235
 21
16.0929940179
 31
0.0
 11
1.6535033601
 21
16.0392611173
 31
0.0
 11
1.5886918317
 21
16.0103164259
 31
0.0
 11
1.5551296731
 21
16.0063075275
 31
0.0
 11
1.5220940279
 21
16.0094968879
 31
0.0
  0
SPLINE
  5
447
100
AcDbEntity
  8
RACCORDO
100
AcDbSpline
 62
7
  6
CONTINUOUS
 70
0
 71
3
 72
11
 73
7
 74
5
 42
0.0000001
 43
0.0000001
 44
0.0000000001
 12
-0.228787208
 22
-0.2739155803
 32
0.0
 13
-0.3493967666
 23
0.0727683391
 33
0.0
 40
0.0
 40
0.0
 40
0.0
 40
0.0
 40
0.2549876473
 40
0.5145045913
 40
0.7673554036
 40
1.0
 40
1.0
 40
1.0
 40
1.0
 10
2.4601580652
 20
16.0168146198
 30
0.0
 10
2.4407120945
 20
15.9935329233
 30
0.0
 10
2.3960878153
 20
15.9508414188
 30
0.0
 10
2.3177110836
 20
15.9026475268
 30
0.0
 10
2.2327402314
 20
15.8745827511
 30
0.0
 10
2.1734379316
 20
15.8735152462
 30
0.0
 10
2.1463428417
 20
15.8791582998
 30
0.0
 11
2.4601580652
 21
16.0168146198
 31
0.0
 11
2.394533743
 21
15.953766251
 31
0.0
 11
2.3154641335
 21
15.9055327667
 31
0.0
 11
2.2293696359
 21
15.8784927107
 31
0.0
 11
2.1463428417
 21
15.8791582998
 31
0.0
  0
ELLIPSE
  5
448
100
AcDbEntity
  8
RACCORDO
100
AcDbEllipse
 62
7
  6
CONTINUOUS
 10
-14.2213852646
 20
20.4764971002
 30
0.0
 11
-0.1116009943
 21
0.2239381218
 31
0.0
 40
0.6122032814
 41
-0.6832419393
 42
0.031533549
  0
ELLIPSE
  5
449
100
AcDbEntity
  8
RACCORDO
100
AcDbEllipse
 62
7
  6
CONTINUOUS
 10
-1.2106204908
 20
13.9711147133
 30
0.0
 11
-0.1116009943
 21
0.2239381218
 31
0.0
 40
0.6122032814
 41
-1.6382418416
 42
-0.6832419393
  0
ELLIPSE
  5
44A
100
AcDbEntity
  8
0
100
AcDbEllipse
 62
7
  6
CONTINUOUS
 10
-0.0058379297
 20
20.1137566511
 30
0.0
 11
-0.4511806643
 21
0.8941510684
 31
0.0
 40
0.6128301338
 41
-0.6888343945
 42
0.0418739721
  0
ELLIPSE
  5
44B
100
AcDbEntity
  8
0
100
AcDbEllipse
 62
7
  6
CONTINUOUS
 10
6.4209065175
 20
-17.2204222384
 30
0.0
 11
-0.2235489346
 21
0.4480667051
 31
0.0
 40
0.6115518419
 41
-3.1858562046
 42
-3.0405095638
  0
ELLIPSE
  5
44C
100
AcDbEntity
  8
0
100
AcDbEllipse
 62
7
  6
CONTINUOUS
 10
5.8171704086
 20
12.949302677
 30
0.0
 11
-0.4445912923
 21
0.8959066538
 31
0.0
 40
0.6213433204
 41
-1.2694429152
 42
-0.6887812081
  0
ELLIPSE
  5
44D
100
AcDbEntity
  8
RACCORDO
100
AcDbEllipse
 62
7
  6
CONTINUOUS
 10
4.0926318977
 20
-22.3588907534
 30
0.0
 11
-0.2012801021
 21
0.4024798509
 31
0.0
 40
0.6124778111
 41
-3.1449381207
 42
-2.255529033
  0
ELLIPSE
  5
44E
100
AcDbEntity
  8
RACCORDO
100
AcDbEllipse
 62
7
  6
CONTINUOUS
 10
4.0926318977
 20
15.6444794151
 30
0.0
 11
-0.2013341403
 21
0.4025279144
 31
0.0
 40
0.6122950388
 41
-2.2557482655
 42
-0.6847996396
  0
ELLIPSE
  5
44F
100
AcDbEntity
  8
RACCORDO
100
AcDbEllipse
 62
7
  6
CONTINUOUS
 10
8.6069212784
 20
19.2824507374
 30
0.0
 11
0.499996712
 21
0.0035883639
 31
0.0
 40
0.5053247124
 41
-0.7715714568
 42
-0.0036478305
  0
ELLIPSE
  5
450
100
AcDbEntity
  8
DRAFT
100
AcDbEllipse
 62
7
  6
CONTINUOUS
 10
-1.6348845595
 20
19.6058240303
 30
0.0
 11
0.9999934239
 21
0.0071767279
 31
0.0
 40
0.5053247124
 41
1.1605617444
 42
1.563503594
  0
ELLIPSE
  5
451
100
AcDbEntity
  8
ASSI
100
AcDbEllipse
 62
7
  6
CONTINUOUS
 10
-1.9575842482
 20
24.4046931485
 30
0.0
 11
0.2257019663
 21
0.4461636818
 31
0.0
 40
0.6159267166
 41
0.5380090616
 42
0.6817883054
  0
ELLIPSE
  5
452
100
AcDbEntity
  8
RACCORDO
100
AcDbEllipse
 62
7
  6
CONTINUOUS
 10
-7.2896759122
 20
21.8821734798
 30
0.0
 11
0.4999985559
 21
0.0023864752
 31
0.0
 40
0.5035541159
 41
2.3596088132
 42
3.0002042076
  0
ELLIPSE
  5
453
100
AcDbEntity
  8
RACCORDO
100
AcDbEllipse
 62
7
  6
CONTINUOUS
 10
8.7859649843
 20
-17.7972449539
 30
0.0
 11
0.9987332359
 21
0.6172510855
 31
0.0
 40
0.0815198604
 41
-2.3978073241
 42
-1.2985018509
  0
ELLIPSE
  5
454
100
AcDbEntity
  8
RACCORDO
100
AcDbEllipse
 62
7
  6
CONTINUOUS
 10
-3.0047673041
 20
25.0127887345
 30
0.0
 11
0.9987332359
 21
0.6172510855
 31
0.0
 40
0.0815198604
 41
0.0509898783
 42
0.7263320369
  0
ELLIPSE
  5
455
100
AcDbEntity
  8
ASSI
100
AcDbEllipse
 62
7
  6
CONTINUOUS
 10
4.2032480226
 20
21.3242770131
 30
0.0
 11
0.221538876
 21
0.4482453432
 31
0.0
 40
0.6088015717
 41
0.5323082896
 42
0.6760875334
  0
ELLIPSE
  5
456
100
AcDbEntity
  8
RACCORDO
100
AcDbEllipse
 62
7
  6
CONTINUOUS
 10
8.6069212784
 20
-18.0064652728
 30
0.0
 11
0.499366618
 21
0.3086255427
 31
0.0
 40
0.0815198604
 41
6.1080157147
 42
7.0007906979
  0
ELLIPSE
  5
457
100
AcDbEntity
  8
DRAFT
100
AcDbEllipse
 62
7
  6
CONTINUOUS
 10
-1.6037294173
 20
23.4798439715
 30
0.0
 11
0.4279673669
 21
-0.0030279657
 31
0.0
 40
0.4946372042
 41
-0.7818985079
 42
0.0034334386
  0
ELLIPSE
  5
458
100
AcDbEntity
  8
DRAFT
100
AcDbEllipse
 62
7
  6
CONTINUOUS
 10
3.9512590119
 20
20.7023497569
 30
0.0
 11
0.4279673669
 21
-0.0030279657
 31
0.0
 40
0.4946372042
 41
-0.7760807437
 42
0.0034304302
  0
ELLIPSE
  5
459
100
AcDbEntity
  8
RACCORDO
100
AcDbEllipse
 62
7
  6
CONTINUOUS
 10
8.7859649843
 20
19.1174225903
 30
0.0
 11
-0.7417913999
 21
1.2002436976
 31
0.0
 40
0.5587454355
 41
5.1248137075
 42
6.2241191807
  0
ELLIPSE
  5
45A
100
AcDbEntity
  8
RACCORDO
100
AcDbEllipse
 62
7
  6
CONTINUOUS
 10
-7.2896759122
 20
20.6495638746
 30
0.0
 11
0.4998587701
 21
0.0223649649
 31
0.0
 40
0.5313301283
 41
3.1178197826
 42
3.9032222197
  0
ELLIPSE
  5
45B
100
AcDbEntity
  8
RACCORDO
100
AcDbEllipse
 62
7
  6
CONTINUOUS
 10
-1.7783688125
 20
17.8939103248
 30
0.0
 11
0.4998587701
 21
0.0223649649
 31
0.0
 40
0.5313301283
 41
-2.3799630874
 42
-0.8149845248
  0
ELLIPSE
  5
45C
100
AcDbEntity
  8
RACCORDO
100
AcDbEllipse
 62
7
  6
CONTINUOUS
 10
-1.7783688125
 20
19.12651993
 30
0.0
 11
0.4999985559
 21
0.0023864752
 31
0.0
 40
0.5035541159
 41
-1.4342147631
 42
-0.7936193687
  0
ELLIPSE
  5
45D
100
AcDbEntity
  8
RACCORDO
100
AcDbEllipse
 62
7
  6
CONTINUOUS
 10
-14.5110185797
 20
20.7872941971
 30
0.0
 11
-0.0446262308
 21
0.0895589985
 31
0.0
 40
0.6124818573
 41
-2.2537489731
 42
-0.6834093579
  0
ELLIPSE
  5
45E
100
AcDbEntity
  8
RACCORDO
100
AcDbEllipse
 62
7
  6
CONTINUOUS
 10
-12.4131176973
 20
22.6469148301
 30
0.0
 11
0.249929385
 21
0.0111824824
 31
0.0
 40
0.5313301283
 41
3.1178369227
 42
3.9032222197
  0
ELLIPSE
  5
45F
100
AcDbEntity
  8
RACCORDO
100
AcDbEllipse
 62
7
  6
CONTINUOUS
 10
8.6069212784
 20
-17.076122614
 30
0.0
 11
0.4999969381
 21
-0.0035375912
 31
0.0
 40
0.4946372042
 41
-0.7644452153
 42
0.7888978189
  0
ELLIPSE
  5
460
100
AcDbEntity
  8
RACCORDO
100
AcDbEllipse
 62
7
  6
CONTINUOUS
 10
8.6069212784
 20
20.2127933963
 30
0.0
 11
-0.3708957
 21
0.6001218488
 31
0.0
 40
0.5587454355
 41
-3.1744788413
 42
-2.2817038581
  0
ELLIPSE
  5
461
100
AcDbEntity
  8
RACCORDO
100
AcDbEllipse
 62
7
  6
CONTINUOUS
 10
-0.9209871756
 20
13.992278495
 30
0.0
 11
-0.0446624459
 21
0.0895909595
 31
0.0
 40
0.611934274
 41
-0.6831563312
 42
0.0357312133
  0
ELLIPSE
  5
462
100
AcDbEntity
  8
RACCORDO
100
AcDbEllipse
 62
7
  6
CONTINUOUS
 10
-11.0799053636
 20
21.9803086633
 30
0.0
 11
0.249929385
 21
0.0111824824
 31
0.0
 40
0.5313301283
 41
-2.3799630874
 42
-0.8149845248
  0
ELLIPSE
  5
463
100
AcDbEntity
  8
RACCORDO
100
AcDbEllipse
 62
7
  6
CONTINUOUS
 10
0.9512004672
 20
15.9647557479
 30
0.0
 11
0.249929385
 21
0.0111824824
 31
0.0
 40
0.5313301283
 41
3.1178369227
 42
3.9032222197
  0
ELLIPSE
  5
464
100
AcDbEntity
  8
RACCORDO
100
AcDbEllipse
 62
7
  6
CONTINUOUS
 10
2.2844128008
 20
15.2981495811
 30
0.0
 11
0.249929385
 21
0.0111824824
 31
0.0
 40
0.5313301283
 41
-2.3799630874
 42
-0.8149845248
  0
ENDSEC
  0
SECTION
  2
OBJECTS
  0
DICTIONARY
  5
C
100
AcDbDictionary
280
0
281
1
  3
ACAD_GROUP
350
D
  3
ACAD_MLINESTYLE
350
17
  3
ACAD_LAYOUT
350
1A
  3
ACAD_PLOTSETTINGS
350
19
  3
ACAD_PLOTSTYLENAME
350
E
  0
DICTIONARY
  5
D
102
{ACAD_REACTORS
330
C
102
}
100
AcDbDictionary
280
0
281
1
  0
ACDBDICTIONARYWDFLT
  5
E
102
{ACAD_REACTORS
330
C
102
}
100
AcDbDictionary
281
1
  3
Normal
350
F
100
AcDbDictionaryWithDefault
340
F
  0
DICTIONARY
  5
17
102
{ACAD_REACTORS
330
C
102
}
100
AcDbDictionary
280
0
281
1
  3
Standard
350
18
  0
DICTIONARY
  5
19
102
{ACAD_REACTORS
330
C
102
}
100
AcDbDictionary
281
1
  0
DICTIONARY
  5
1A
102
{ACAD_REACTORS
330
C
102
}
100
AcDbDictionary
281
1
  3
Model
350
465
  3
Layout1
350
466
  0
ACDBPLACEHOLDER
  5
F
102
{ACAD_REACTORS
330
E
102
}
  0
MLINESTYLE
  5
18
102
{ACAD_REACTORS
330
17
102
}
100
AcDbMlineStyle
  2
STANDARD
 70
0
  3

 62
256
 51
90.0
 52
90.0
 71
2
 49
0.5
 62
256
  6
BYLAYER
 49
-0.5
 62
256
  6
BYLAYER
  0
LAYOUT
  5
465
102
{ACAD_REACTORS
330
1A
102
}
100
AcDbPlotSettings
  1

  2
none_device
  4
ANSI_C_(22.00_x_17.00_Inches)
  6

 40
0.0
 41
0.0
 42
0.0
 43
0.0
 44
558.8
 45
431.8
 46
0.0
 47
0.0
 48
0.0
 49
0.0
140
0.0
141
0.0
142
1.0
143
1.0
 70
1024
 72
1
 73
0
 74
0
  7

 75
0
147
1.0
148
0.0
149
0.0
100
AcDbLayout
  1
Model
 70
0
 71
0
 10
0.0
 20
0.0
 11
558.8
 21
431.8
 12
0.0
 22
0.0
 32
0.0
 14
0.0
 24
0.0
 34
0.0
 15
0.0
 25
0.0
 35
0.0
146
0.0
 13
0.0
 23
0.0
 33
0.0
 16
1.0
 26
0.0
 36
0.0
 17
0.0
 27
1.0
 37
0.0
 76
0
330
212
345
0
346
0
  0
LAYOUT
  5
466
102
{ACAD_REACTORS
330
1A
102
}
100
AcDbPlotSettings
  1

  2
none_device
  4
ANSI_C_(22.00_x_17.00_Inches)
  6

 40
0.0
 41
0.0
 42
0.0
 43
0.0
 44
558.8
 45
431.8
 46
0.0
 47
0.0
 48
0.0
 49
0.0
140
0.0
141
0.0
142
1.0
143
1.0
 70
0
 72
1
 73
0
 74
0
  7

 75
0
147
1.0
148
0.0
149
0.0
100
AcDbLayout
  1
Layout1
 70
0
 71
1
 10
0.0
 20
0.0
 11
558.8
 21
431.8
 12
0.0
 22
0.0
 32
0.0
 14
0.0
 24
0.0
 34
0.0
 15
0.0
 25
0.0
 35
0.0
146
0.0
 13
0.0
 23
0.0
 33
0.0
 16
1.0
 26
0.0
 36
0.0
 17
0.0
 27
1.0
 37
0.0
 76
0
330
213
345
0
346
0
  0
ENDSEC
  0
EOF
