0
SECTION
2
HEADER
9
$ACADVER
1
AC1014
9
$HANDSEED
5
       3D0
9
$EXTMAX
10
297.0000000000
20
210.0000000000
9
$EXTMIN
10
0.0000000000
20
0.0000000000
9
$LIMMIN
10
0.0000000000
20
0.0000000000
9
$LIMMAX
10
297.0000000000
20
210.0000000000
9
$VIEWCTR
10
148.5000000000
20
105.0000000000
9
$VIEWSIZE
40
210.0000000000
9
$CLAYER
8
0
9
$LTSCALE
40
16.3350000000
9
$CELTYPE
6
BYLAYER
9
$DIMSCALE
40
1
9
$DIMASZ
40
3.0000000000
9
$DIMEXO
40
1.8562500000
9
$DIMDLI
40
11.2860000000
9
$DIMEXE
40
5.3460000000
9
$DIMCEN
40
2.6730000000
9
$DIMLFAC
40
1.0000000000
9
$DIMTXT
40
3.0000000000
9
$DIMTOL
70
1
9
$DIMLIM
70
0
9
$DIMTFAC
40
1.0000000000
9
$DIMTP
40
0.0100000000
9
$DIMTM
40
0.0100000000
9
$MEASUREMENT
70
1
0
ENDSEC
0
SECTION
2
CLASSES
0
ENDSEC
0
SECTION
2
TABLES
0
TABLE
2
VPORT
5
8
100
AcDbSymbolTable
70
2
0
VPORT
5
1F4
100
AcDbSymbolTableRecord
100
AcDbViewportTableRecord
2
*ACTIVE
70
0
10
0.0
20
0.0
11
1.0
21
1.0
12
148.5000000000
22
105.0000000000
13
0.0
23
0.0
14
1.0
24
1.0
15
0.0
25
0.0
16
0.0
26
0.0
36
1.0
17
0.0
27
0.0
37
0.0
40
210.0000000000
41
1.4142857143
42
50.0
43
0.0
44
0.0
50
0.0
51
0.0
71
0
72
100
73
1
74
1
75
0
76
0
77
0
78
0
0
ENDTAB
0
TABLE
2
LTYPE
5
5
100
AcDbSymbolTable
70
6
0
LTYPE
5
14
100
AcDbSymbolTableRecord
100
AcDbLinetypeTableRecord
2
BYBLOCK
70
0
3

72
65
73
0
40
0.0
0
LTYPE
5
15
100
AcDbSymbolTableRecord
100
AcDbLinetypeTableRecord
2
BYLAYER
70
0
3

72
65
73
0
40
0.0
0
LTYPE
5
16
100
AcDbSymbolTableRecord
100
AcDbLinetypeTableRecord
2
CONTINUOUS
70
64
3
Solid line
72
65
73
0
40
0
0
LTYPE
5
1F5
100
AcDbSymbolTableRecord
100
AcDbLinetypeTableRecord
2
CENTER
70
64
3
____ _ ____ _ ____ _ ____ _ ____ _ ____ _ ____
72
65
73
4
40
0.6
49
0.375
74
0
49
-0.075
74
0
49
0.075
74
0
49
-0.075
74
0
0
LTYPE
5
1F6
100
AcDbSymbolTableRecord
100
AcDbLinetypeTableRecord
2
HIDDEN
70
64
3
- - - - - - - - - - - - - - - - - - - -
72
65
73
2
40
0.2
49
0.1
74
0
49
-0.1
74
0
0
LTYPE
5
1F7
100
AcDbSymbolTableRecord
100
AcDbLinetypeTableRecord
2
PHANTOM
70
64
3
_____ _ _ _____ _ _ _____ _ _ _____
72
65
73
6
40
0.8
49
0.45
74
0
49
-0.05
74
0
49
0.1
74
0
49
-0.05
74
0
49
0.1
74
0
49
-0.05
74
0
0
LTYPE
5
1F8
100
AcDbSymbolTableRecord
100
AcDbLinetypeTableRecord
2
DOT
70
64
3
. . . . . . . . . . . . . . . . . . . .
72
65
73
2
40
0.2
49
0.1
74
0
49
-0.1
74
0
0
LTYPE
5
1F9
100
AcDbSymbolTableRecord
100
AcDbLinetypeTableRecord
2
DASHED
70
64
3
- - - - - - - - - - - - - - - - - - - -
72
65
73
2
40
0.2
49
0.1
74
0
49
-0.1
74
0
0
ENDTAB
0
TABLE
2
LAYER
5
2
100
AcDbSymbolTable
70
36
0
LAYER
5
10
100
AcDbSymbolTableRecord
100
AcDbLayerTableRecord
2
0
70
0
62
7
6
CONTINUOUS
0
LAYER
5
1FA
100
AcDbSymbolTableRecord
100
AcDbLayerTableRecord
2
DEFAULT_1
70
0
62
7
6
CENTER
0
LAYER
5
1FB
100
AcDbSymbolTableRecord
100
AcDbLayerTableRecord
2
DEFAULT_2
70
0
62
8
6
HIDDEN
0
LAYER
5
1FC
100
AcDbSymbolTableRecord
100
AcDbLayerTableRecord
2
DEFAULT_3
70
0
62
7
6
PHANTOM
0
LAYER
5
1FD
100
AcDbSymbolTableRecord
100
AcDbLayerTableRecord
2
_BLACK_HOLE
70
0
62
7
6
CONTINUOUS
0
LAYER
5
1FE
100
AcDbSymbolTableRecord
100
AcDbLayerTableRecord
2
ASSI
70
0
62
7
6
CONTINUOUS
0
LAYER
5
1FF
100
AcDbSymbolTableRecord
100
AcDbLayerTableRecord
2
COORDINATE
70
0
62
7
6
CONTINUOUS
0
LAYER
5
200
100
AcDbSymbolTableRecord
100
AcDbLayerTableRecord
2
COORD_ORIGINE
70
0
62
7
6
CONTINUOUS
0
LAYER
5
201
100
AcDbSymbolTableRecord
100
AcDbLayerTableRecord
2
COPERCHIO
70
0
62
7
6
CONTINUOUS
0
LAYER
5
202
100
AcDbSymbolTableRecord
100
AcDbLayerTableRecord
2
CORPO
70
0
62
7
6
CONTINUOUS
0
LAYER
5
203
100
AcDbSymbolTableRecord
100
AcDbLayerTableRecord
2
COSMETICHE
70
0
62
7
6
CONTINUOUS
0
LAYER
5
204
100
AcDbSymbolTableRecord
100
AcDbLayerTableRecord
2
COSMETICI
70
0
62
7
6
CONTINUOUS
0
LAYER
5
205
100
AcDbSymbolTableRecord
100
AcDbLayerTableRecord
2
CURVE
70
0
62
7
6
CONTINUOUS
0
LAYER
5
206
100
AcDbSymbolTableRecord
100
AcDbLayerTableRecord
2
DRAFT
70
0
62
7
6
CONTINUOUS
0
LAYER
5
207
100
AcDbSymbolTableRecord
100
AcDbLayerTableRecord
2
IGES
70
0
62
7
6
CONTINUOUS
0
LAYER
5
208
100
AcDbSymbolTableRecord
100
AcDbLayerTableRecord
2
INTF_1
70
0
62
7
6
CONTINUOUS
0
LAYER
5
209
100
AcDbSymbolTableRecord
100
AcDbLayerTableRecord
2
NOTE
70
0
62
7
6
CONTINUOUS
0
LAYER
5
20A
100
AcDbSymbolTableRecord
100
AcDbLayerTableRecord
2
PIANI
70
0
62
7
6
CONTINUOUS
0
LAYER
5
20B
100
AcDbSymbolTableRecord
100
AcDbLayerTableRecord
2
PIANI_ORIGINE
70
0
62
7
6
CONTINUOUS
0
LAYER
5
20C
100
AcDbSymbolTableRecord
100
AcDbLayerTableRecord
2
PIANI_RIFERIMENTO
70
0
62
7
6
CONTINUOUS
0
LAYER
5
20D
100
AcDbSymbolTableRecord
100
AcDbLayerTableRecord
2
PUNTI
70
0
62
7
6
CONTINUOUS
0
LAYER
5
20E
100
AcDbSymbolTableRecord
100
AcDbLayerTableRecord
2
RACCORDO
70
0
62
7
6
CONTINUOUS
0
LAYER
5
20F
100
AcDbSymbolTableRecord
100
AcDbLayerTableRecord
2
RGB____0____0____0__
70
0
62
7
6
CONTINUOUS
0
LAYER
5
210
100
AcDbSymbolTableRecord
100
AcDbLayerTableRecord
2
SMUSSO
70
0
62
7
6
CONTINUOUS
0
LAYER
5
211
100
AcDbSymbolTableRecord
100
AcDbLayerTableRecord
2
SUPERFICI
70
0
62
7
6
CONTINUOUS
0
LAYER
5
212
100
AcDbSymbolTableRecord
100
AcDbLayerTableRecord
2
TRASH
70
0
62
7
6
CONTINUOUS
0
ENDTAB
0
TABLE
2
STYLE
5
3
100
AcDbSymbolTable
70
1
0
STYLE
5
11
100
AcDbSymbolTableRecord
100
AcDbTextStyleTableRecord
2
STANDARD
70
0
40
0.0
41
0.8000000000
50
0.0
71
0
42
0.2
3
txt
4

0
ENDTAB
0
TABLE
2
VIEW
5
6
100
AcDbSymbolTable
70
0
0
ENDTAB
0
TABLE
2
UCS
5
7
100
AcDbSymbolTable
70
0
0
ENDTAB
0
TABLE
2
APPID
5
9
100
AcDbSymbolTable
70
1
0
APPID
5
213
100
AcDbSymbolTableRecord
100
AcDbRegAppTableRecord
2
ACAD
70
0
0
ENDTAB
0
TABLE
2
DIMSTYLE
5
A
100
AcDbSymbolTable
70
1
0
DIMSTYLE
105
214
100
AcDbSymbolTableRecord
100
AcDbDimStyleTableRecord
2
STANDARD
70
0
3

4

5

6

7

40
1.0
41
3.0000000000
42
0.0625
43
0.38
44
0.18
45
0.0
46
0.0
47
0.0100000000
48
0.0100000000
140
3.0000000000
141
0.09
142
0.0
143
25.4
144
1.0000000000
145
0.0
146
1.0000000000
147
0.09
71
1
72
0
73
0
74
0
75
0
76
0
77
1
78
8
170
0
171
2
172
0
173
0
174
0
175
0
176
0
177
0
178
0
270
2
271
2
272
2
273
2
274
2
340
11
275
0
280
0
281
0
282
0
283
1
284
8
285
0
286
0
287
3
288
0
0
ENDTAB
0
TABLE
2
BLOCK_RECORD
5
1
100
AcDbSymbolTable
70
0
0
BLOCK_RECORD
5
1B
100
AcDbSymbolTableRecord
100
AcDbBlockTableRecord
2
*MODEL_SPACE
0
BLOCK_RECORD
5
1C
100
AcDbSymbolTableRecord
100
AcDbBlockTableRecord
2
*PAPER_SPACE
0
ENDTAB
0
ENDSEC
0
SECTION
2
BLOCKS
0
BLOCK
5
1E
100
AcDbEntity
8
0
100
AcDbBlockBegin
2
*MODEL_SPACE
70
0
10
0.0
20
0.0
30
0.0
3
*MODEL_SPACE
1

0
ENDBLK
5
1F
100
AcDbEntity
8
0
100
AcDbBlockEnd
0
BLOCK
5
20
100
AcDbEntity
8
0
100
AcDbBlockBegin
2
*PAPER_SPACE
70
0
10
0.0
20
0.0
30
0.0
3
*PAPER_SPACE
1

0
ENDBLK
5
21
100
AcDbEntity
8
0
100
AcDbBlockEnd
0
ENDSEC
0
SECTION
2
ENTITIES
0
LINE
5
215
100
AcDbEntity
8
0
100
AcDbLine
62
7
6
CONTINUOUS
10
-29.3536781446
20
12.8310150883
11
-24.7647033178
21
15.5068077302
0
LINE
5
216
100
AcDbEntity
8
0
100
AcDbLine
62
9
6
CONTINUOUS
10
-24.7647033178
20
15.3619735538
11
-29.1203240971
21
12.8222476952
0
LINE
5
217
100
AcDbEntity
8
0
100
AcDbLine
62
7
6
CONTINUOUS
10
-23.7486386826
20
17.6670583999
11
-25.3318103775
21
16.8548613526
0
LINE
5
218
100
AcDbEntity
8
0
100
AcDbLine
62
9
6
CONTINUOUS
10
-23.6359681082
20
17.6603974748
11
-25.2187247114
21
16.8484133774
0
LINE
5
219
100
AcDbEntity
8
0
100
AcDbLine
62
9
6
CONTINUOUS
10
-22.2924592408
20
16.9886430410
11
-23.8937400316
21
16.1859210375
0
LINE
5
21A
100
AcDbEntity
8
0
100
AcDbLine
62
9
6
CONTINUOUS
10
-22.1156855371
20
16.6837535022
11
-23.7169663279
21
15.8810314987
0
LINE
5
21B
100
AcDbEntity
8
0
100
AcDbLine
62
7
6
CONTINUOUS
10
-23.7469002971
20
17.6679276327
11
-23.7486367089
21
17.6670594124
0
LINE
5
21C
100
AcDbEntity
8
0
100
AcDbLine
62
9
6
CONTINUOUS
10
-21.7641920690
20
17.2520818611
11
-22.2924592408
21
16.9886430410
0
LINE
5
21D
100
AcDbEntity
8
0
100
AcDbLine
62
9
6
CONTINUOUS
10
-21.5874183653
20
16.9471923223
11
-22.1156855371
21
16.6837535022
0
LINE
5
21E
100
AcDbEntity
8
0
100
AcDbLine
62
7
6
CONTINUOUS
10
-23.2120303407
20
17.9284797324
11
-23.7468975315
21
17.6679289799
0
LINE
5
21F
100
AcDbEntity
8
0
100
AcDbLine
62
9
6
CONTINUOUS
10
-23.1015182296
20
17.9207449414
11
-23.6359681082
21
17.6603974748
0
LINE
5
220
100
AcDbEntity
8
0
100
AcDbLine
62
7
6
CONTINUOUS
10
-29.7284736421
20
-25.3008698182
11
-14.8945752326
21
-32.7178190229
0
LINE
5
221
100
AcDbEntity
8
0
100
AcDbLine
62
7
6
CONTINUOUS
10
-14.8946624493
20
-32.7177754054
11
-14.8945755592
21
-32.7178188596
0
LINE
5
222
100
AcDbEntity
8
0
100
AcDbLine
62
9
6
CONTINUOUS
10
-30.1128901071
20
-24.5447963283
11
-15.2880440295
21
-31.9572193671
0
LINE
5
223
100
AcDbEntity
8
0
100
AcDbLine
62
9
6
CONTINUOUS
10
-22.1156855371
20
15.9567086498
11
-21.5874183653
21
16.5996608055
0
LINE
5
224
100
AcDbEntity
8
0
100
AcDbLine
62
7
6
CONTINUOUS
10
-22.1156855371
20
15.8671781834
11
-21.5720577929
21
16.5288256389
0
LINE
5
225
100
AcDbEntity
8
0
100
AcDbLine
62
7
6
CONTINUOUS
10
-22.1156855371
20
15.0816028413
11
-23.0057457198
21
14.5849219200
0
LINE
5
226
100
AcDbEntity
8
0
100
AcDbLine
62
7
6
CONTINUOUS
10
-14.3931024755
20
18.2219068703
11
-20.7076428021
21
15.0771305657
0
LINE
5
227
100
AcDbEntity
8
0
100
AcDbLine
62
9
6
CONTINUOUS
10
-8.2231002009
20
-31.3821024161
11
-8.7513673727
21
-31.2736001390
0
LINE
5
228
100
AcDbEntity
8
0
100
AcDbLine
62
9
6
CONTINUOUS
10
-8.3125139963
20
-31.0625356101
11
-8.7513673727
21
-30.9723982834
0
LINE
5
229
100
AcDbEntity
8
0
100
AcDbLine
62
7
6
CONTINUOUS
10
-11.9651815065
20
-32.2528929775
11
-10.6401968267
21
-32.9153853174
0
LINE
5
22A
100
AcDbEntity
8
0
100
AcDbLine
62
9
6
CONTINUOUS
10
-12.0301548030
20
-32.1176745274
11
-10.7051701231
21
-32.7801668673
0
LINE
5
22B
100
AcDbEntity
8
0
100
AcDbLine
62
9
6
CONTINUOUS
10
-10.7051701231
20
-32.4401929331
11
-11.9275734935
21
-31.8289912480
0
LINE
5
22C
100
AcDbEntity
8
0
100
AcDbLine
62
9
6
CONTINUOUS
10
-10.6167817755
20
-32.2084987593
11
-11.6276164033
21
-31.7030814454
0
LINE
5
22D
100
AcDbEntity
8
0
100
AcDbLine
62
7
6
CONTINUOUS
10
-10.4792525433
20
-31.2210449419
11
-9.9944637434
21
-31.4634393418
0
LINE
5
22E
100
AcDbEntity
8
0
100
AcDbLine
62
7
6
CONTINUOUS
10
-19.7468658187
20
14.7514844279
11
-19.3933244295
21
14.9328578528
0
LINE
5
22F
100
AcDbEntity
8
0
100
AcDbLine
62
7
6
CONTINUOUS
10
-13.4515705889
20
17.2295361009
11
-18.0498215453
21
14.9631748034
0
LINE
5
230
100
AcDbEntity
8
0
100
AcDbLine
62
7
6
CONTINUOUS
10
-16.8217407222
20
14.3491343919
11
-13.4026945574
21
16.0221140710
0
LINE
5
231
100
AcDbEntity
8
0
100
AcDbLine
62
7
6
CONTINUOUS
10
-11.3261365316
20
16.6884238983
11
-16.4681873316
21
14.1723576966
0
LINE
5
232
100
AcDbEntity
8
0
100
AcDbLine
62
7
6
CONTINUOUS
10
-19.3933244295
20
14.9328578528
11
-14.0571010236
21
17.5323013183
0
LINE
5
233
100
AcDbEntity
8
0
100
AcDbLine
62
7
6
CONTINUOUS
10
-12.0830894169
20
17.3127713091
11
-3.0905447499
21
21.6359633479
0
LINE
5
234
100
AcDbEntity
8
0
100
AcDbLine
62
9
6
CONTINUOUS
10
-11.2142969196
20
16.8783750605
11
-1.5460031287
21
21.5264354587
0
LINE
5
235
100
AcDbEntity
8
0
100
AcDbLine
62
9
6
CONTINUOUS
10
-8.7513673727
20
-30.8431089219
11
-8.3125139963
21
-31.0625356101
0
LINE
5
236
100
AcDbEntity
8
0
100
AcDbLine
62
7
6
CONTINUOUS
10
-8.7513673727
20
-30.8394887723
11
-8.2890989450
21
-31.0706229862
0
LINE
5
237
100
AcDbEntity
8
0
100
AcDbLine
62
7
6
CONTINUOUS
10
-11.9851322829
20
15.8283510845
11
-15.8826531951
21
13.8795906284
0
LINE
5
238
100
AcDbEntity
8
0
100
AcDbLine
62
7
6
CONTINUOUS
10
-15.5998104827
20
13.7381692721
11
-14.1607342487
21
14.4577073891
0
LINE
5
239
100
AcDbEntity
8
0
100
AcDbLine
62
7
6
CONTINUOUS
10
-9.0342100851
20
16.2244101474
11
-0.1953753203
21
20.6438275299
0
LINE
5
23A
100
AcDbEntity
8
0
100
AcDbLine
62
7
6
CONTINUOUS
10
-14.1446002742
20
13.5246211956
11
-14.6586573019
21
13.2675926817
0
LINE
5
23B
100
AcDbEntity
8
0
100
AcDbLine
62
9
6
CONTINUOUS
10
-14.0551575551
20
13.5189408381
11
-14.6082555849
21
13.2423918232
0
LINE
5
23C
100
AcDbEntity
8
0
100
AcDbLine
62
7
6
CONTINUOUS
10
-10.6442359380
20
16.3624706242
11
-0.8262178902
21
21.1665428395
0
LINE
5
23D
100
AcDbEntity
8
0
100
AcDbLine
62
7
6
CONTINUOUS
10
-13.1707847551
20
10.6091524502
11
-13.5284639043
21
10.4095564984
0
LINE
5
23E
100
AcDbEntity
8
0
100
AcDbLine
62
7
6
CONTINUOUS
10
-13.5284639043
20
11.6422834707
11
-13.1707847551
21
11.8215880155
0
LINE
5
23F
100
AcDbEntity
8
0
100
AcDbLine
62
7
6
CONTINUOUS
10
-7.9054448621
20
14.5804279793
11
-7.3725091493
21
14.8468958357
0
LINE
5
240
100
AcDbEntity
8
0
100
AcDbLine
62
7
6
CONTINUOUS
10
-13.1707847551
20
11.8215880155
11
-7.8962926859
21
14.4518971494
0
LINE
5
241
100
AcDbEntity
8
0
100
AcDbLine
62
7
6
CONTINUOUS
10
-13.1707847551
20
10.6091524502
11
-7.8459506848
21
13.2454838822
0
LINE
5
242
100
AcDbEntity
8
0
100
AcDbLine
62
7
6
CONTINUOUS
10
-8.5018231206
20
14.7546623668
11
-13.1000740769
21
12.4883010693
0
LINE
5
243
100
AcDbEntity
8
0
100
AcDbLine
62
7
6
CONTINUOUS
10
-7.0834958444
20
14.5671035548
11
-7.7223566210
21
14.2545014297
0
LINE
5
244
100
AcDbEntity
8
0
100
AcDbLine
62
7
6
CONTINUOUS
10
-25.4676962721
20
16.6324249101
11
-25.4676962721
21
16.2924509760
0
LINE
5
245
100
AcDbEntity
8
0
100
AcDbLine
62
9
6
CONTINUOUS
10
-25.3944729674
20
16.5440365625
11
-25.3944729674
21
16.2040626284
0
LINE
5
246
100
AcDbEntity
8
0
100
AcDbLine
62
7
6
CONTINUOUS
10
-24.7647033178
20
15.7864460017
11
-24.7647033178
21
15.3324889071
0
LINE
5
247
100
AcDbEntity
8
0
100
AcDbLine
62
9
6
CONTINUOUS
10
-24.6914800131
20
15.7498343493
11
-24.6914800131
21
15.2407602052
0
LINE
5
248
100
AcDbEntity
8
0
100
AcDbLine
62
9
6
CONTINUOUS
10
-24.0694882876
20
15.5415702884
11
-24.0694882876
21
15.8815442226
0
LINE
5
249
100
AcDbEntity
8
0
100
AcDbLine
62
9
6
CONTINUOUS
10
-23.7169663279
20
15.5410575646
11
-23.7169663279
21
15.8810314987
0
LINE
5
24A
100
AcDbEntity
8
0
100
AcDbLine
62
9
6
CONTINUOUS
10
-23.3582676795
20
15.2629746613
11
-23.3582676795
21
14.5741540383
0
LINE
5
24B
100
AcDbEntity
8
0
100
AcDbLine
62
7
6
CONTINUOUS
10
-10.3843205182
20
10.9848993177
11
-11.9674922131
21
10.1727022704
0
LINE
5
24C
100
AcDbEntity
8
0
100
AcDbLine
62
9
6
CONTINUOUS
10
-10.2716499438
20
10.9782383926
11
-11.8544065470
21
10.1662542952
0
LINE
5
24D
100
AcDbEntity
8
0
100
AcDbLine
62
9
6
CONTINUOUS
10
-8.9281410763
20
10.3064839588
11
-10.5294218672
21
9.5037619553
0
LINE
5
24E
100
AcDbEntity
8
0
100
AcDbLine
62
9
6
CONTINUOUS
10
-8.7513673727
20
10.0015944200
11
-10.3526481635
21
9.1988724165
0
LINE
5
24F
100
AcDbEntity
8
0
100
AcDbLine
62
7
6
CONTINUOUS
10
-10.3825821326
20
10.9857685504
11
-10.3843185445
21
10.9849003302
0
LINE
5
250
100
AcDbEntity
8
0
100
AcDbLine
62
9
6
CONTINUOUS
10
-8.3998739046
20
10.5699227789
11
-8.9281410763
21
10.3064839588
0
LINE
5
251
100
AcDbEntity
8
0
100
AcDbLine
62
9
6
CONTINUOUS
10
-8.2231002009
20
10.2650332400
11
-8.7513673727
21
10.0015944200
0
LINE
5
252
100
AcDbEntity
8
0
100
AcDbLine
62
7
6
CONTINUOUS
10
5.5377431405
20
17.9845623241
11
-4.0469066787
21
13.2946799400
0
LINE
5
253
100
AcDbEntity
8
0
100
AcDbLine
62
7
6
CONTINUOUS
10
-9.8477121762
20
11.2463206502
11
-10.3825793671
21
10.9857698977
0
LINE
5
254
100
AcDbEntity
8
0
100
AcDbLine
62
9
6
CONTINUOUS
10
-9.7372000651
20
11.2385858591
11
-10.2716499438
21
10.9782383926
0
LINE
5
255
100
AcDbEntity
8
0
100
AcDbLine
62
7
6
CONTINUOUS
10
-8.7000667801
20
10.7819965875
11
-4.0165299005
21
13.0336205828
0
LINE
5
256
100
AcDbEntity
8
0
100
AcDbLine
62
9
6
CONTINUOUS
10
-23.0057457198
20
15.3925540417
11
-23.0057457198
21
14.5849219200
0
LINE
5
257
100
AcDbEntity
8
0
100
AcDbLine
62
7
6
CONTINUOUS
10
-22.1156855371
20
15.0816028413
11
-22.1156855371
21
16.6837535022
0
LINE
5
258
100
AcDbEntity
8
0
100
AcDbLine
62
9
6
CONTINUOUS
10
-21.5874183653
20
16.9471923223
11
-21.5874183653
21
16.5996608055
0
LINE
5
259
100
AcDbEntity
8
0
100
AcDbLine
62
7
6
CONTINUOUS
10
-21.5152205083
20
17.0350649544
11
-21.5152205083
21
16.6875334377
0
LINE
5
25A
100
AcDbEntity
8
0
100
AcDbLine
62
9
6
CONTINUOUS
10
-14.2721056363
20
5.3981384648
11
-9.7530744979
21
7.8652103930
0
LINE
5
25B
100
AcDbEntity
8
0
100
AcDbLine
62
7
6
CONTINUOUS
10
-3.1349944419
20
12.2997623914
11
-8.6265377702
21
9.3369487806
0
LINE
5
25C
100
AcDbEntity
8
0
100
AcDbLine
62
7
6
CONTINUOUS
10
-3.1349944419
20
11.4632031268
11
-8.2171066621
21
8.8318624958
0
LINE
5
25D
100
AcDbEntity
8
0
100
AcDbLine
62
7
6
CONTINUOUS
10
-3.7288855320
20
10.4132788610
11
-7.7337712046
21
8.3639381800
0
LINE
5
25E
100
AcDbEntity
8
0
100
AcDbLine
62
9
6
CONTINUOUS
10
-7.6951996840
20
8.2059353562
11
8.7324021131
21
16.3872328378
0
LINE
5
25F
100
AcDbEntity
8
0
100
AcDbLine
62
9
6
CONTINUOUS
10
-8.7513673727
20
8.4115496831
11
-8.0443683016
21
8.7454933155
0
LINE
5
260
100
AcDbEntity
8
0
100
AcDbLine
62
9
6
CONTINUOUS
10
-8.4085836238
20
7.7964861888
11
-7.6907072009
21
8.1355676249
0
LINE
5
261
100
AcDbEntity
8
0
100
AcDbLine
62
7
6
CONTINUOUS
10
-3.3790248594
20
-23.7476452673
11
-3.1411109515
21
-23.8666022212
0
LINE
5
262
100
AcDbEntity
8
0
100
AcDbLine
62
7
6
CONTINUOUS
10
-19.8912615327
20
14.5673274268
11
-19.8912615327
21
13.3271383941
0
LINE
5
263
100
AcDbEntity
8
0
100
AcDbLine
62
9
6
CONTINUOUS
10
-19.7448149233
20
14.2242575958
11
-19.7448149233
21
13.1436742850
0
LINE
5
264
100
AcDbEntity
8
0
100
AcDbLine
62
9
6
CONTINUOUS
10
-8.4085836238
20
7.7964861888
11
-13.9062728963
21
4.7951360191
0
LINE
5
265
100
AcDbEntity
8
0
100
AcDbLine
62
9
6
CONTINUOUS
10
-7.5381970063
20
5.7222462961
11
-7.6907072009
21
5.6518120342
0
LINE
5
266
100
AcDbEntity
8
0
100
AcDbLine
62
9
6
CONTINUOUS
10
-8.7513673727
20
9.2745495675
11
-8.2231002009
21
9.9175017233
0
LINE
5
267
100
AcDbEntity
8
0
100
AcDbLine
62
7
6
CONTINUOUS
10
-8.7513673727
20
9.1850191012
11
-8.2077396285
21
9.8466665567
0
LINE
5
268
100
AcDbEntity
8
0
100
AcDbLine
62
9
6
CONTINUOUS
10
-7.3309825129
20
2.8864668728
11
11.2071816117
21
12.1188695899
0
LINE
5
269
100
AcDbEntity
8
0
100
AcDbLine
62
9
6
CONTINUOUS
10
-7.3309825129
20
5.0060027939
11
-7.6907072009
21
4.8398700121
0
LINE
5
26A
100
AcDbEntity
8
0
100
AcDbLine
62
7
6
CONTINUOUS
10
-19.6811499593
20
-10.1900212026
11
-20.1084314192
21
-9.9763804726
0
LINE
5
26B
100
AcDbEntity
8
0
100
AcDbLine
62
7
6
CONTINUOUS
10
-21.5066445646
20
-9.2772738999
11
-21.9339260245
21
-9.0636331700
0
LINE
5
26C
100
AcDbEntity
8
0
100
AcDbLine
62
7
6
CONTINUOUS
10
-21.9339260245
20
-8.8038255488
11
-21.5066445646
21
-9.0174662788
0
LINE
5
26D
100
AcDbEntity
8
0
100
AcDbLine
62
7
6
CONTINUOUS
10
-20.1084314192
20
-9.7165728515
11
-19.6811499593
21
-9.9302135814
0
LINE
5
26E
100
AcDbEntity
8
0
100
AcDbLine
62
9
6
CONTINUOUS
10
-14.2335078236
20
10.3880207351
11
-14.2335078236
21
11.4686040459
0
LINE
5
26F
100
AcDbEntity
8
0
100
AcDbLine
62
9
6
CONTINUOUS
10
-14.1607342487
20
13.5165542083
11
-14.1607342487
21
14.4577073891
0
LINE
5
270
100
AcDbEntity
8
0
100
AcDbLine
62
7
6
CONTINUOUS
10
-24.4692382957
20
-5.8494070021
11
-24.4690106460
21
-5.8492931579
0
LINE
5
271
100
AcDbEntity
8
0
100
AcDbLine
62
9
6
CONTINUOUS
10
-13.5284639043
20
10.4095564984
11
-13.5284639043
21
11.6422834707
0
LINE
5
272
100
AcDbEntity
8
0
100
AcDbLine
62
9
6
CONTINUOUS
10
-13.4026945574
20
16.0221140710
11
-13.4026945574
21
17.2494646680
0
LINE
5
273
100
AcDbEntity
8
0
100
AcDbLine
62
7
6
CONTINUOUS
10
-13.2773450501
20
16.1711422294
11
-13.2773450501
21
17.2587874365
0
LINE
5
274
100
AcDbEntity
8
0
100
AcDbLine
62
7
6
CONTINUOUS
10
-13.1707847551
20
11.8215880155
11
-13.1707847551
21
10.6091524502
0
LINE
5
275
100
AcDbEntity
8
0
100
AcDbLine
62
9
6
CONTINUOUS
10
-12.7465206864
20
13.4894361552
11
-12.7465206864
21
14.4577073891
0
LINE
5
276
100
AcDbEntity
8
0
100
AcDbLine
62
7
6
CONTINUOUS
10
-12.7014278856
20
14.4351609887
11
-12.7014278856
21
13.4668897548
0
LINE
5
277
100
AcDbEntity
8
0
100
AcDbLine
62
7
6
CONTINUOUS
10
-12.1033781077
20
9.9502658279
11
-12.1033781077
21
9.6102918938
0
LINE
5
278
100
AcDbEntity
8
0
100
AcDbLine
62
7
6
CONTINUOUS
10
-12.1033781077
20
-31.9027868841
11
-12.1033781077
21
-32.0292861797
0
LINE
5
279
100
AcDbEntity
8
0
100
AcDbLine
62
9
6
CONTINUOUS
10
-12.0301548030
20
9.8618774803
11
-12.0301548030
21
9.5219035461
0
LINE
5
27A
100
AcDbEntity
8
0
100
AcDbLine
62
9
6
CONTINUOUS
10
-12.0301548030
20
-31.8720507150
11
-12.0301548030
21
-32.1176745274
0
LINE
5
27B
100
AcDbEntity
8
0
100
AcDbLine
62
7
6
CONTINUOUS
10
-19.9358352134
20
-10.8160648639
11
-19.4413836688
21
-10.3313429119
0
LINE
5
27C
100
AcDbEntity
8
0
100
AcDbLine
62
7
6
CONTINUOUS
10
-20.6436717753
20
-7.9015565526
11
-20.6414419801
21
-7.9003127799
0
LINE
5
27D
100
AcDbEntity
8
0
100
AcDbLine
62
7
6
CONTINUOUS
10
-20.7719986722
20
-8.6501433326
11
-21.5066445646
21
-9.0174662788
0
LINE
5
27E
100
AcDbEntity
8
0
100
AcDbLine
62
7
6
CONTINUOUS
10
-20.5641728403
20
-8.8060380378
11
-21.5066445646
21
-9.2772738999
0
LINE
5
27F
100
AcDbEntity
8
0
100
AcDbLine
62
7
6
CONTINUOUS
10
-11.4003851534
20
8.6503147266
11
-11.4003851534
21
9.1042869195
0
LINE
5
280
100
AcDbEntity
8
0
100
AcDbLine
62
9
6
CONTINUOUS
10
-11.3271618487
20
8.5586011230
11
-11.3271618487
21
9.0676752671
0
LINE
5
281
100
AcDbEntity
8
0
100
AcDbLine
62
9
6
CONTINUOUS
10
-10.7051701231
20
-32.7801668673
11
-10.7051701231
21
-32.4401929331
0
LINE
5
282
100
AcDbEntity
8
0
100
AcDbLine
62
9
6
CONTINUOUS
10
-10.7051701231
20
8.8594112062
11
-10.7051701231
21
9.1993851404
0
LINE
5
283
100
AcDbEntity
8
0
100
AcDbLine
62
7
6
CONTINUOUS
10
-10.6252003428
20
16.1728995645
11
-10.6252003428
21
15.9020992719
0
LINE
5
284
100
AcDbEntity
8
0
100
AcDbLine
62
9
6
CONTINUOUS
10
-10.3526481635
20
-32.7806795911
11
-10.3526481635
21
-32.4407056570
0
LINE
5
285
100
AcDbEntity
8
0
100
AcDbLine
62
9
6
CONTINUOUS
10
-10.3526481635
20
8.8588984824
11
-10.3526481635
21
9.1988724165
0
LINE
5
286
100
AcDbEntity
8
0
100
AcDbLine
62
9
6
CONTINUOUS
10
-9.9939495150
20
-31.4636964560
11
-9.9939495150
21
-31.0173344430
0
LINE
5
287
100
AcDbEntity
8
0
100
AcDbLine
62
9
6
CONTINUOUS
10
-9.9939495150
20
7.8919949561
11
-9.9939495150
21
8.5808155791
0
LINE
5
288
100
AcDbEntity
8
0
100
AcDbLine
62
9
6
CONTINUOUS
10
-9.6414275554
20
-31.5892091799
11
-9.6414275554
21
-30.8693600433
0
LINE
5
289
100
AcDbEntity
8
0
100
AcDbLine
62
9
6
CONTINUOUS
10
-9.6414275554
20
7.9018941356
11
-9.6414275554
21
8.7103949595
0
LINE
5
28A
100
AcDbEntity
8
0
100
AcDbLine
62
7
6
CONTINUOUS
10
-19.8486237980
20
-9.8464766621
11
-20.1084314192
21
-9.9763804726
0
LINE
5
28B
100
AcDbEntity
8
0
100
AcDbLine
62
7
6
CONTINUOUS
10
-20.9945820829
20
-10.7694091564
11
-22.5753049448
21
-11.5597705873
0
LINE
5
28C
100
AcDbEntity
8
0
100
AcDbLine
62
7
6
CONTINUOUS
10
-22.2875217952
20
-11.9518528761
11
-20.3693948862
21
-10.9927894216
0
LINE
5
28D
100
AcDbEntity
8
0
100
AcDbLine
62
7
6
CONTINUOUS
10
-19.8524427376
20
-10.7343133473
11
-19.3907799560
21
-10.5034819565
0
LINE
5
28E
100
AcDbEntity
8
0
100
AcDbLine
62
7
6
CONTINUOUS
10
-21.3398295154
20
-8.0080762600
11
-20.6408638995
21
-7.9011269171
0
LINE
5
28F
100
AcDbEntity
8
0
100
AcDbLine
62
9
6
CONTINUOUS
10
-9.0342100851
20
16.2244101474
11
-9.0342100851
21
15.7913974456
0
LINE
5
290
100
AcDbEntity
8
0
100
AcDbLine
62
7
6
CONTINUOUS
10
-8.7513673727
20
-30.4957489316
11
-8.7513673727
21
-32.0006449915
0
LINE
5
291
100
AcDbEntity
8
0
100
AcDbLine
62
7
6
CONTINUOUS
10
-8.7513673727
20
8.3991752634
11
-8.7513673727
21
10.0015944200
0
LINE
5
292
100
AcDbEntity
8
0
100
AcDbLine
62
9
6
CONTINUOUS
10
-8.2231002009
20
10.2650332400
11
-8.2231002009
21
9.9175017233
0
LINE
5
293
100
AcDbEntity
8
0
100
AcDbLine
62
9
6
CONTINUOUS
10
-8.2231002009
20
-31.3821024161
11
-8.2231002009
21
-31.7296339328
0
LINE
5
294
100
AcDbEntity
8
0
100
AcDbLine
62
7
6
CONTINUOUS
10
-8.1509023439
20
10.3529058722
11
-8.1509023439
21
10.0053743555
0
LINE
5
295
100
AcDbEntity
8
0
100
AcDbLine
62
7
6
CONTINUOUS
10
-8.1509023439
20
-31.2942297839
11
-8.1509023439
21
-31.6417613006
0
LINE
5
296
100
AcDbEntity
8
0
100
AcDbLine
62
9
6
CONTINUOUS
10
-7.8459506848
20
13.2454838822
11
-7.8459506848
21
14.4725338494
0
LINE
5
297
100
AcDbEntity
8
0
100
AcDbLine
62
7
6
CONTINUOUS
10
-7.7223566210
20
13.3936475030
11
-7.7223566210
21
14.4813350255
0
LINE
5
298
100
AcDbEntity
8
0
100
AcDbLine
62
7
6
CONTINUOUS
10
-7.6907072009
20
-29.7810648058
11
-7.6907072009
21
-26.4853671930
0
LINE
5
299
100
AcDbEntity
8
0
100
AcDbLine
62
7
6
CONTINUOUS
10
-7.6907072009
20
4.8398700121
11
-7.6907072009
21
8.1355676249
0
LINE
5
29A
100
AcDbEntity
8
0
100
AcDbLine
62
7
6
CONTINUOUS
10
-7.3725091493
20
16.0764808559
11
-7.3725091493
21
14.4256859304
0
LINE
5
29B
100
AcDbEntity
8
0
100
AcDbLine
62
7
6
CONTINUOUS
10
-7.3309825129
20
5.0060027939
11
-7.3309825129
21
-26.3041178815
0
LINE
5
29C
100
AcDbEntity
8
0
100
AcDbLine
62
7
6
CONTINUOUS
10
-19.2753552226
20
-10.9642284645
11
-19.8136204634
21
-11.1842764845
0
LINE
5
29D
100
AcDbEntity
8
0
100
AcDbLine
62
9
6
CONTINUOUS
10
-6.2057829604
20
16.2244101474
11
-6.2057829604
21
15.7913974456
0
LINE
5
29E
100
AcDbEntity
8
0
100
AcDbLine
62
7
6
CONTINUOUS
10
-20.0863173779
20
-14.6146796136
11
-20.0866104219
21
-14.6148261023
0
LINE
5
29F
100
AcDbEntity
8
0
100
AcDbLine
62
7
6
CONTINUOUS
10
-3.3790248594
20
-23.7476452673
11
-3.3790248594
21
-23.3253283233
0
LINE
5
2A0
100
AcDbEntity
8
0
100
AcDbLine
62
7
6
CONTINUOUS
10
-3.3790248594
20
11.0230574888
11
-3.3790248594
21
11.3368526794
0
LINE
5
2A1
100
AcDbEntity
8
0
100
AcDbLine
62
9
6
CONTINUOUS
10
-3.1349944419
20
-25.0536027738
11
-3.1349944419
21
-24.2170435091
0
LINE
5
2A2
100
AcDbEntity
8
0
100
AcDbLine
62
9
6
CONTINUOUS
10
-3.1349944419
20
11.4632031268
11
-3.1349944419
21
12.2997623914
0
LINE
5
2A3
100
AcDbEntity
8
0
100
AcDbLine
62
7
6
CONTINUOUS
10
-2.9946643421
20
-25.0067780972
11
-2.9946643421
21
-24.0433789165
0
LINE
5
2A4
100
AcDbEntity
8
0
100
AcDbLine
62
7
6
CONTINUOUS
10
-2.9946643421
20
11.6368677194
11
-2.9946643421
21
12.6002669001
0
LINE
5
2A5
100
AcDbEntity
8
0
100
AcDbLine
62
9
6
CONTINUOUS
10
-2.6702490544
20
14.0236304926
11
-2.6702490544
21
14.4566431945
0
LINE
5
2A6
100
AcDbEntity
8
0
100
AcDbLine
62
9
6
CONTINUOUS
10
-30.1128901071
20
11.0704435393
11
-15.2880440295
21
3.6580205005
0
LINE
5
2A7
100
AcDbEntity
8
0
100
AcDbLine
62
7
6
CONTINUOUS
10
-0.1953753203
20
20.7025709391
11
-0.1953753203
21
20.6438275299
0
LINE
5
2A8
100
AcDbEntity
8
0
100
AcDbLine
62
9
6
CONTINUOUS
10
-29.1203240971
20
12.8222476952
11
-14.2721056363
21
5.3981384648
0
LINE
5
2A9
100
AcDbEntity
8
0
100
AcDbLine
62
7
6
CONTINUOUS
10
-7.6907072009
20
5.9852874721
11
-7.5381970063
21
5.7222462961
0
LINE
5
2AA
100
AcDbEntity
8
0
100
AcDbLine
62
7
6
CONTINUOUS
10
-10.5794916570
20
8.7030773216
11
-9.9550855726
21
8.5727007518
0
LINE
5
2AB
100
AcDbEntity
8
0
100
AcDbLine
62
9
6
CONTINUOUS
10
-10.3526481635
20
8.8588984824
11
-9.6414275554
21
8.7103949595
0
LINE
5
2AC
100
AcDbEntity
8
0
100
AcDbLine
62
7
6
CONTINUOUS
10
-24.6914800131
20
15.2407602052
11
-23.3582676795
21
14.5741540383
0
LINE
5
2AD
100
AcDbEntity
8
0
100
AcDbLine
62
7
6
CONTINUOUS
10
-11.3271618487
20
8.5586011230
11
-9.9939495150
21
7.8919949561
0
LINE
5
2AE
100
AcDbEntity
8
0
100
AcDbLine
62
7
6
CONTINUOUS
10
-14.2335078236
20
10.3880207351
11
-19.7448149233
21
13.1436742850
0
LINE
5
2AF
100
AcDbEntity
8
0
100
AcDbLine
62
7
6
CONTINUOUS
10
-25.3294996710
20
16.0688441783
11
-24.0045149911
21
15.4063518383
0
LINE
5
2B0
100
AcDbEntity
8
0
100
AcDbLine
62
7
6
CONTINUOUS
10
-11.9651815065
20
9.3866850960
11
-10.6401968267
21
8.7241927561
0
LINE
5
2B1
100
AcDbEntity
8
0
100
AcDbLine
62
9
6
CONTINUOUS
10
-25.3944729674
20
16.2040626284
11
-24.0694882876
21
15.5415702884
0
LINE
5
2B2
100
AcDbEntity
8
0
100
AcDbLine
62
9
6
CONTINUOUS
10
-12.0301548030
20
9.5219035461
11
-10.7051701231
21
8.8594112062
0
LINE
5
2B3
100
AcDbEntity
8
0
100
AcDbLine
62
9
6
CONTINUOUS
10
-10.7051701231
20
9.1993851404
11
-12.0301548030
21
9.8618774803
0
LINE
5
2B4
100
AcDbEntity
8
0
100
AcDbLine
62
9
6
CONTINUOUS
10
-24.0694882876
20
15.8815442226
11
-25.3944729674
21
16.5440365625
0
LINE
5
2B5
100
AcDbEntity
8
0
100
AcDbLine
62
7
6
CONTINUOUS
10
-12.0768910298
20
10.0622055876
11
-13.1707847551
21
10.6091524502
0
LINE
5
2B6
100
AcDbEntity
8
0
100
AcDbLine
62
7
6
CONTINUOUS
10
-19.8912615327
20
13.9693908391
11
-22.1156855371
21
15.0816028413
0
LINE
5
2B7
100
AcDbEntity
8
0
100
AcDbLine
62
9
6
CONTINUOUS
10
-10.5294218672
20
9.5037619553
11
-11.8544065470
21
10.1662542952
0
LINE
5
2B8
100
AcDbEntity
8
0
100
AcDbLine
62
9
6
CONTINUOUS
10
-23.8937400316
20
16.1859210375
11
-25.2187247114
21
16.8484133774
0
LINE
5
2B9
100
AcDbEntity
8
0
100
AcDbLine
62
9
6
CONTINUOUS
10
-14.2335078236
20
11.4686040459
11
-19.7448149233
21
14.2242575958
0
LINE
5
2BA
100
AcDbEntity
8
0
100
AcDbLine
62
9
6
CONTINUOUS
10
-13.8106854438
20
11.5709936104
11
-19.8864400936
21
14.6088709353
0
LINE
5
2BB
100
AcDbEntity
8
0
100
AcDbLine
62
7
6
CONTINUOUS
10
-8.0443683016
20
8.7454933155
11
-8.7513673727
21
9.0989928510
0
LINE
5
2BC
100
AcDbEntity
8
0
100
AcDbLine
62
7
6
CONTINUOUS
10
-20.7076428021
20
15.0771305657
11
-22.1156855371
21
15.7811519332
0
LINE
5
2BD
100
AcDbEntity
8
0
100
AcDbLine
62
7
6
CONTINUOUS
10
-19.3933244295
20
14.9328578528
11
-13.1707847551
21
11.8215880155
0
LINE
5
2BE
100
AcDbEntity
8
0
100
AcDbLine
62
9
6
CONTINUOUS
10
-9.9944637434
20
-31.4634393418
11
-10.6167817755
21
-32.2084987593
0
LINE
5
2BF
100
AcDbEntity
8
0
100
AcDbLine
62
7
6
CONTINUOUS
10
-23.6359681082
20
17.6603974748
11
-22.2924592408
21
16.9886430410
0
LINE
5
2C0
100
AcDbEntity
8
0
100
AcDbLine
62
7
6
CONTINUOUS
10
-10.2716499438
20
10.9782383926
11
-8.9281410763
21
10.3064839588
0
LINE
5
2C1
100
AcDbEntity
8
0
100
AcDbLine
62
7
6
CONTINUOUS
10
-13.1000740769
20
12.4883010693
11
-18.0498215453
21
14.9631748034
0
LINE
5
2C2
100
AcDbEntity
8
0
100
AcDbLine
62
9
6
CONTINUOUS
10
-23.1015182296
20
17.9207449414
11
-21.7641920690
21
17.2520818611
0
LINE
5
2C3
100
AcDbEntity
8
0
100
AcDbLine
62
9
6
CONTINUOUS
10
-9.7372000651
20
11.2385858591
11
-8.3998739046
21
10.5699227789
0
LINE
5
2C4
100
AcDbEntity
8
0
100
AcDbLine
62
7
6
CONTINUOUS
10
-22.9907432700
20
17.9273348325
11
-21.6534171095
21
17.2586717522
0
LINE
5
2C5
100
AcDbEntity
8
0
100
AcDbLine
62
7
6
CONTINUOUS
10
-9.6264251056
20
11.2451757502
11
-8.2890989450
21
10.5765126700
0
LINE
5
2C6
100
AcDbEntity
8
0
100
AcDbLine
62
9
6
CONTINUOUS
10
-11.9644724454
20
13.0480103177
11
-12.9150600957
21
13.5233041429
0
LINE
5
2C7
100
AcDbEntity
8
0
100
AcDbLine
62
7
6
CONTINUOUS
10
-11.9137090209
20
13.0730303225
11
-12.8256173763
21
13.5289845002
0
LINE
5
2C8
100
AcDbEntity
8
0
100
AcDbLine
62
9
6
CONTINUOUS
10
-9.6414275554
20
-31.5892091799
11
-10.3526481635
21
-32.4407056570
0
LINE
5
2C9
100
AcDbEntity
8
0
100
AcDbLine
62
7
6
CONTINUOUS
10
-7.6907072009
20
-26.9236778717
11
-7.5381970063
21
-26.8131468904
0
LINE
5
2CA
100
AcDbEntity
8
0
100
AcDbLine
62
9
6
CONTINUOUS
10
-7.3309825129
20
-23.9581311249
11
11.2071816117
21
-14.3259609766
0
LINE
5
2CB
100
AcDbEntity
8
0
100
AcDbLine
62
7
6
CONTINUOUS
10
-7.3309825129
20
-25.3787101081
11
10.3181413674
21
-16.2084728052
0
LINE
5
2CC
100
AcDbEntity
8
0
100
AcDbLine
62
7
6
CONTINUOUS
10
-23.9438098214
20
15.3852364038
11
-23.3194037370
21
15.2548598340
0
LINE
5
2CD
100
AcDbEntity
8
0
100
AcDbLine
62
9
6
CONTINUOUS
10
-23.7169663279
20
15.5410575646
11
-23.0057457198
21
15.3925540417
0
LINE
5
2CE
100
AcDbEntity
8
0
100
AcDbLine
62
7
6
CONTINUOUS
10
-12.7465206864
20
14.4577073891
11
-12.7014278856
21
14.4351609887
0
LINE
5
2CF
100
AcDbEntity
8
0
100
AcDbLine
62
7
6
CONTINUOUS
10
-9.1745826359
20
14.4230762610
11
-11.9851322829
21
15.8283510845
0
LINE
5
2D0
100
AcDbEntity
8
0
100
AcDbLine
62
9
6
CONTINUOUS
10
11.2071816117
20
12.1188695899
11
11.2071816117
21
-14.3259609766
0
LINE
5
2D1
100
AcDbEntity
8
0
100
AcDbLine
62
7
6
CONTINUOUS
10
11.4652562074
20
12.4342787585
11
11.4652561847
21
12.4341775683
0
LINE
5
2D2
100
AcDbEntity
8
0
100
AcDbLine
62
7
6
CONTINUOUS
10
-3.1349944419
20
-24.2170435091
11
-7.3348483610
21
-26.3915815325
0
LINE
5
2D3
100
AcDbEntity
8
0
100
AcDbLine
62
7
6
CONTINUOUS
10
-3.3790248594
20
-23.7476452673
11
-7.3309825129
21
-25.7444256024
0
LINE
5
2D4
100
AcDbEntity
8
0
100
AcDbLine
62
9
6
CONTINUOUS
10
-7.6907072009
20
-26.4853671930
11
-7.3309825129
21
-26.3041178815
0
LINE
5
2D5
100
AcDbEntity
8
0
100
AcDbLine
62
9
6
CONTINUOUS
10
-7.6907072009
20
-26.8899900115
11
-7.5381970063
21
-26.8131468904
0
LINE
5
2D6
100
AcDbEntity
8
0
100
AcDbLine
62
7
6
CONTINUOUS
10
-4.0165299005
20
-25.6130318178
11
-7.6907072009
21
-27.4572643572
0
LINE
5
2D7
100
AcDbEntity
8
0
100
AcDbLine
62
7
6
CONTINUOUS
10
-3.1349944419
20
-25.0536027738
11
-7.6907072009
21
-27.3132698873
0
LINE
5
2D8
100
AcDbEntity
8
0
100
AcDbLine
62
9
6
CONTINUOUS
10
-7.8962926859
20
14.4518971494
11
-8.5018231206
21
14.7546623668
0
LINE
5
2D9
100
AcDbEntity
8
0
100
AcDbLine
62
9
6
CONTINUOUS
10
-13.4515705889
20
17.2295361009
11
-14.0571010236
21
17.5323013183
0
LINE
5
2DA
100
AcDbEntity
8
0
100
AcDbLine
62
7
6
CONTINUOUS
10
-7.5240612215
20
14.3515297112
11
-7.7223566210
21
14.4506774110
0
LINE
5
2DB
100
AcDbEntity
8
0
100
AcDbLine
62
7
6
CONTINUOUS
10
-8.3893380199
20
14.7841681104
11
-10.6252003428
21
15.9020992719
0
LINE
5
2DC
100
AcDbEntity
8
0
100
AcDbLine
62
7
6
CONTINUOUS
10
-7.7294755580
20
14.4924433273
11
-8.2258638730
21
14.7406374847
0
LINE
5
2DD
100
AcDbEntity
8
0
100
AcDbLine
62
7
6
CONTINUOUS
10
-13.2844324261
20
17.2699217613
11
-13.7808204335
21
17.5181157650
0
LINE
5
2DE
100
AcDbEntity
8
0
100
AcDbLine
62
9
6
CONTINUOUS
10
-14.3931024755
20
18.2219068703
11
-11.3261365316
21
16.6884238983
0
LINE
5
2DF
100
AcDbEntity
8
0
100
AcDbLine
62
9
6
CONTINUOUS
10
-7.0834958444
20
14.5671035548
11
-4.0165299005
21
13.0336205828
0
LINE
5
2E0
100
AcDbEntity
8
0
100
AcDbLine
62
7
6
CONTINUOUS
10
-14.1122722188
20
18.3273627101
11
-10.8850935285
21
16.7137733649
0
LINE
5
2E1
100
AcDbEntity
8
0
100
AcDbLine
62
7
6
CONTINUOUS
10
-6.6424528414
20
14.5924530214
11
-3.4152741511
21
12.9788636762
0
LINE
5
2E2
100
AcDbEntity
8
0
100
AcDbLine
62
7
6
CONTINUOUS
10
-7.1013038425
20
16.0500609436
11
-2.8054553941
21
13.9021367194
0
LINE
5
2E3
100
AcDbEntity
8
0
100
AcDbLine
62
7
6
CONTINUOUS
10
-6.2057829604
20
15.7913974456
11
-2.6702490544
21
14.0236304926
0
LINE
5
2E4
100
AcDbEntity
8
0
100
AcDbLine
62
7
6
CONTINUOUS
10
11.4652562074
20
12.4342787585
11
11.4652562074
21
-14.0105518198
0
LINE
5
2E5
100
AcDbEntity
8
0
100
AcDbLine
62
9
6
CONTINUOUS
10
-7.6907072009
20
-29.7810648058
11
-8.4085836238
21
-30.1352285730
0
LINE
5
2E6
100
AcDbEntity
8
0
100
AcDbLine
62
7
6
CONTINUOUS
10
-7.8215818581
20
-30.0519799515
11
-8.5432279202
21
-30.4080034673
0
LINE
5
2E7
100
AcDbEntity
8
0
100
AcDbLine
62
7
6
CONTINUOUS
10
-8.5432287925
20
-30.4080038976
11
-8.5536423201
21
-30.4127519713
0
LINE
5
2E8
100
AcDbEntity
8
0
100
AcDbLine
62
9
6
CONTINUOUS
10
-13.9062728963
20
-32.4429352211
11
-8.4085836238
21
-30.1352285730
0
LINE
5
2E9
100
AcDbEntity
8
0
100
AcDbLine
62
7
6
CONTINUOUS
10
-14.0600801417
20
-32.7241309194
11
-8.5536325889
21
-30.4127479011
0
LINE
5
2EA
100
AcDbEntity
8
0
100
AcDbLine
62
7
6
CONTINUOUS
10
-10.6252003428
20
15.9020992719
11
-11.9851322829
21
15.8283510845
0
LINE
5
2EB
100
AcDbEntity
8
0
100
AcDbLine
62
7
6
CONTINUOUS
10
-2.6702490544
20
14.4566431945
11
-6.2057829604
21
16.2244101474
0
LINE
5
2EC
100
AcDbEntity
8
0
100
AcDbLine
62
9
6
CONTINUOUS
10
-8.2231002009
20
-31.7296339328
11
-8.7513673727
21
-32.0006449915
0
LINE
5
2ED
100
AcDbEntity
8
0
100
AcDbLine
62
7
6
CONTINUOUS
10
-8.2867882384
20
-31.8641977431
11
-8.8154705020
21
-32.1354217517
0
LINE
5
2EE
100
AcDbEntity
8
0
100
AcDbLine
62
7
6
CONTINUOUS
10
-8.8172088891
20
-32.1362909853
11
-8.8154724717
21
-32.1354227623
0
LINE
5
2EF
100
AcDbEntity
8
0
100
AcDbLine
62
9
6
CONTINUOUS
10
-8.7513673727
20
-32.0006449915
11
-10.3526481635
21
-32.7806795911
0
LINE
5
2F0
100
AcDbEntity
8
0
100
AcDbLine
62
7
6
CONTINUOUS
10
-8.8172116531
20
-32.1362923317
11
-10.4189097561
21
-32.9165302173
0
LINE
5
2F1
100
AcDbEntity
8
0
100
AcDbLine
62
7
6
CONTINUOUS
10
5.3282095821
20
17.8820350787
11
-0.1953753203
21
20.6438275299
0
LINE
5
2F2
100
AcDbEntity
8
0
100
AcDbLine
62
9
6
CONTINUOUS
10
-1.5460031287
20
21.5264354587
11
-0.8262178902
21
21.1665428395
0
LINE
5
2F3
100
AcDbEntity
8
0
100
AcDbLine
62
9
6
CONTINUOUS
10
5.5377431405
20
17.9845623241
11
8.7324021131
21
16.3872328378
0
LINE
5
2F4
100
AcDbEntity
8
0
100
AcDbLine
62
7
6
CONTINUOUS
10
-1.1491508545
20
21.5492931775
11
-0.4292791874
21
21.1893573594
0
LINE
5
2F5
100
AcDbEntity
8
0
100
AcDbLine
62
7
6
CONTINUOUS
10
5.9346818433
20
18.0073768441
11
9.1293408257
21
16.4100473529
0
SPLINE
5
2F6
100
AcDbEntity
8
0
100
AcDbSpline
62
7
6
CONTINUOUS
70
0
71
3
72
17
73
13
74
11
42
0.0000001000
43
0.0000001000
44
0.0000000001
12
1.6198844229
22
0.8083245011
32
0.0000000000
13
0.2086204466
23
-1.7884170033
33
0.0000000000
40
0.0000000000
40
0.0000000000
40
0.0000000000
40
0.0000000000
40
0.0471165698
40
0.1249102709
40
0.2106620518
40
0.3064130740
40
0.4120317921
40
0.5257899261
40
0.6449088403
40
0.7660113732
40
0.8855141370
40
1.0000000000
40
1.0000000000
40
1.0000000000
40
1.0000000000
10
-21.2547834686
20
-8.6025816905
30
0.0000000000
10
-21.2293423361
20
-8.5898865312
30
0.0000000000
10
-21.1580863003
20
-8.5637585290
30
0.0000000000
10
-21.0295729898
20
-8.5562555093
30
0.0000000000
10
-20.8766246038
20
-8.5935759522
30
0.0000000000
10
-20.7222638509
20
-8.6729875727
30
0.0000000000
10
-20.5726953379
20
-8.7902799931
30
0.0000000000
10
-20.4342873862
20
-8.9400292256
30
0.0000000000
10
-20.3132056600
20
-9.1154012946
30
0.0000000000
10
-20.2149617690
20
-9.3083757092
30
0.0000000000
10
-20.1440783436
20
-9.5100060750
30
0.0000000000
10
-20.1163927831
20
-9.6483233635
30
0.0000000000
10
-20.1084314192
20
-9.7165728515
30
0.0000000000
11
-21.2547834686
21
-8.6025816905
31
0.0000000000
11
-21.1748827453
21
-8.5732599530
31
0.0000000000
11
-21.0351747364
21
-8.5631828920
31
0.0000000000
11
-20.8846393628
21
-8.5975108733
31
0.0000000000
11
-20.7304366209
21
-8.6746122442
31
0.0000000000
11
-20.5799012473
21
-8.7908196365
31
0.0000000000
11
-20.4401932384
21
-8.9406047064
31
0.0000000000
11
-20.3179568634
21
-9.1168415706
31
0.0000000000
11
-20.2190042698
21
-9.3111463983
31
0.0000000000
11
-20.1480388254
21
-9.5142769377
31
0.0000000000
11
-20.1084314192
21
-9.7165728515
31
0.0000000000
0
SPLINE
5
2F7
100
AcDbEntity
8
0
100
AcDbSpline
62
7
6
CONTINUOUS
70
0
71
3
72
13
73
9
74
7
42
0.0000001000
43
0.0000001000
44
0.0000000001
12
-1.0642707572
22
-0.1625296978
32
0.0000000000
13
-0.0855478046
23
-1.0698958060
33
0.0000000000
40
0.0000000000
40
0.0000000000
40
0.0000000000
40
0.0000000000
40
0.0593642357
40
0.2278604403
40
0.3990973534
40
0.5815844445
40
0.7810571107
40
1.0000000000
40
1.0000000000
40
1.0000000000
40
1.0000000000
10
-21.3398931114
20
-8.0080985397
30
0.0000000000
10
-21.3609529848
20
-8.0113146901
30
0.0000000000
10
-21.4411707205
20
-8.0275799534
30
0.0000000000
10
-21.5748398426
20
-8.0838785579
30
0.0000000000
10
-21.7191238409
20
-8.2068505368
30
0.0000000000
10
-21.8297266777
20
-8.3736214798
30
0.0000000000
10
-21.9041278977
20
-8.5769971050
30
0.0000000000
10
-21.9276826633
20
-8.7257435225
30
0.0000000000
10
-21.9339260245
20
-8.8038255488
30
0.0000000000
11
-21.3398931114
21
-8.0080985397
31
0.0000000000
11
-21.4024863008
21
-8.0208675463
31
0.0000000000
11
-21.5690215273
21
-8.0913819993
31
0.0000000000
11
-21.7096860131
21
-8.2096715002
31
0.0000000000
11
-21.8196942376
21
-8.3717252310
31
0.0000000000
11
-21.8952962853
21
-8.5720286878
31
0.0000000000
11
-21.9339260245
21
-8.8038255488
31
0.0000000000
0
SPLINE
5
2F8
100
AcDbEntity
8
0
100
AcDbSpline
62
7
6
CONTINUOUS
70
0
71
3
72
20
73
16
74
14
42
0.0000001000
43
0.0000001000
44
0.0000000001
12
0.2330773385
22
-3.1480377866
32
0.0000000000
13
2.2634727131
23
2.2172008645
33
0.0000000000
40
0.0000000000
40
0.0000000000
40
0.0000000000
40
0.0000000000
40
0.0865383764
40
0.1771647273
40
0.2701306443
40
0.3634866014
40
0.4552612232
40
0.5436008943
40
0.6269235158
40
0.7040913416
40
0.7746147395
40
0.8388859155
40
0.8983844729
40
0.9556660995
40
1.0000000000
40
1.0000000000
40
1.0000000000
40
1.0000000000
10
-21.9339260245
20
-9.0636331700
30
0.0000000000
10
-21.9272026463
20
-9.1544418630
30
0.0000000000
10
-21.9000702978
20
-9.3395254097
30
0.0000000000
10
-21.8241913559
20
-9.6140939563
30
0.0000000000
10
-21.7144883645
20
-9.8847540511
30
0.0000000000
10
-21.5746126508
20
-10.1424735192
30
0.0000000000
10
-21.4092051298
20
-10.3787239358
30
0.0000000000
10
-21.2237198956
20
-10.5856851591
30
0.0000000000
10
-21.0241916128
20
-10.7565387025
30
0.0000000000
10
-20.8169567361
20
-10.8856392850
30
0.0000000000
10
-20.6083685759
20
-10.9685376957
30
0.0000000000
10
-20.4046901700
20
-11.0017617076
30
0.0000000000
10
-20.2126071721
20
-10.9825697879
30
0.0000000000
10
-20.0539063972
20
-10.9157222503
30
0.0000000000
10
-19.9692289195
20
-10.8487401932
30
0.0000000000
10
-19.9357793948
20
-10.8159744724
30
0.0000000000
11
-21.9339260245
21
-9.0636331700
31
0.0000000000
11
-21.8952962853
21
-9.3340597702
31
0.0000000000
11
-21.8196942376
21
-9.6099652747
31
0.0000000000
11
-21.7096860131
21
-9.8820272300
31
0.0000000000
11
-21.5690215273
21
-10.1409812167
31
0.0000000000
11
-21.4024863008
21
-10.3780308962
31
0.0000000000
11
-21.2157427912
21
-10.5851263822
31
0.0000000000
11
-21.0151379741
21
-10.7552369522
31
0.0000000000
11
-20.8074878551
21
-10.8825890888
31
0.0000000000
11
-20.5998462030
21
-10.9628618446
31
0.0000000000
11
-20.3992656129
21
-10.9933329484
31
0.0000000000
11
-20.2125562959
21
-10.9729706170
31
0.0000000000
11
-20.0460513172
21
-10.9024628227
31
0.0000000000
11
-19.9357793948
21
-10.8159744724
31
0.0000000000
0
SPLINE
5
2F9
100
AcDbEntity
8
0
100
AcDbSpline
62
7
6
CONTINUOUS
70
0
71
3
72
8
73
4
74
2
42
0.0000001000
43
0.0000001000
44
0.0000000001
12
-0.0509071262
22
-0.0152214520
32
0.0000000000
13
-0.0509068327
23
-0.0152224335
33
0.0000000000
40
0.0000000000
40
0.0000000000
40
0.0000000000
40
0.0000000000
40
1.0000000000
40
1.0000000000
40
1.0000000000
40
1.0000000000
10
-21.0491145087
20
-8.7989321467
30
0.0000000000
10
-21.0660835508
20
-8.8040059640
30
0.0000000000
10
-21.0830525433
20
-8.8090799473
30
0.0000000000
10
-21.1000214875
20
-8.8141540918
30
0.0000000000
11
-21.0491145087
21
-8.7989321467
31
0.0000000000
11
-21.1000214875
21
-8.8141540918
31
0.0000000000
0
SPLINE
5
2FA
100
AcDbEntity
8
0
100
AcDbSpline
62
7
6
CONTINUOUS
70
0
71
3
72
9
73
5
74
3
42
0.0000001000
43
0.0000001000
44
0.0000000001
12
-0.3250688770
22
-0.0972617498
32
0.0000000000
13
-0.3250609025
23
-0.0972883980
33
0.0000000000
40
0.0000000000
40
0.0000000000
40
0.0000000000
40
0.0000000000
40
0.0812878332
40
1.0000000000
40
1.0000000000
40
1.0000000000
40
1.0000000000
10
-21.6088612524
20
-8.9663577020
30
0.0000000000
10
-21.6176693006
20
-8.9689931010
30
0.0000000000
10
-21.7260254751
20
-9.0014140784
30
0.0000000000
10
-21.8343802225
20
-9.0338398250
30
0.0000000000
10
-21.9339260245
20
-9.0636331700
30
0.0000000000
11
-21.6088612524
21
-8.9663577020
31
0.0000000000
11
-21.6352853685
21
-8.9742639945
31
0.0000000000
11
-21.9339260245
21
-9.0636331700
31
0.0000000000
0
SPLINE
5
2FB
100
AcDbEntity
8
0
100
AcDbSpline
62
7
6
CONTINUOUS
70
0
71
3
72
8
73
4
74
2
42
0.0000001000
43
0.0000001000
44
0.0000000001
12
0.2744852392
22
0.1474744416
32
0.0000000000
13
0.2744858187
23
0.1474733631
33
0.0000000000
40
0.0000000000
40
0.0000000000
40
0.0000000000
40
0.0000000000
40
1.0000000000
40
1.0000000000
40
1.0000000000
40
1.0000000000
10
-21.0491145087
20
-8.7989321467
30
0.0000000000
10
-20.9576194290
20
-8.7497739994
30
0.0000000000
10
-20.8661242512
20
-8.7006160347
30
0.0000000000
10
-20.7746289783
20
-8.6514582470
30
0.0000000000
11
-21.0491145087
21
-8.7989321467
31
0.0000000000
11
-20.7746289783
21
-8.6514582470
31
0.0000000000
0
SPLINE
5
2FC
100
AcDbEntity
8
0
100
AcDbSpline
62
7
6
CONTINUOUS
70
0
71
3
72
8
73
4
74
2
42
0.0000001000
43
0.0000001000
44
0.0000000001
12
-0.0803021599
22
-0.0670844148
32
0.0000000000
13
-0.0803060141
23
-0.0670798008
33
0.0000000000
40
0.0000000000
40
0.0000000000
40
0.0000000000
40
0.0000000000
40
1.0000000000
40
1.0000000000
40
1.0000000000
40
1.0000000000
10
-19.6008458475
20
-9.8631315033
30
0.0000000000
10
-19.6276132341
20
-9.8854929749
30
0.0000000000
10
-19.6543812879
20
-9.9078536478
30
0.0000000000
10
-19.6811499593
20
-9.9302135814
30
0.0000000000
11
-19.6008458475
21
-9.8631315033
31
0.0000000000
11
-19.6811499593
21
-9.9302135814
31
0.0000000000
0
SPLINE
5
2FD
100
AcDbEntity
8
0
100
AcDbSpline
62
7
6
CONTINUOUS
70
0
71
3
72
11
73
7
74
5
42
0.0000001000
43
0.0000001000
44
0.0000000001
12
-0.0659395744
22
-0.4993331873
32
0.0000000000
13
-0.4531321543
23
-0.2261135531
33
0.0000000000
40
0.0000000000
40
0.0000000000
40
0.0000000000
40
0.0000000000
40
0.3324419278
40
0.6302815648
40
0.9031156344
40
1.0000000000
40
1.0000000000
40
1.0000000000
40
1.0000000000
10
-20.1084314192
20
-9.9763804726
30
0.0000000000
10
-20.1157384456
20
-10.0317135684
30
0.0000000000
10
-20.1396878895
20
-10.1358340561
30
0.0000000000
10
-20.2102437578
20
-10.2722461980
30
0.0000000000
10
-20.2916291164
20
-10.3525114435
30
0.0000000000
10
-20.3456587081
20
-10.3839627715
30
0.0000000000
10
-20.3602925152
20
-10.3912650609
30
0.0000000000
11
-20.1084314192
21
-9.9763804726
31
0.0000000000
11
-20.1480388254
21
-10.1390689802
31
0.0000000000
11
-20.2190042698
21
-10.2712340753
31
0.0000000000
11
-20.3179568634
21
-10.3665863093
31
0.0000000000
11
-20.3602925152
21
-10.3912650609
31
0.0000000000
0
SPLINE
5
2FE
100
AcDbEntity
8
0
100
AcDbSpline
62
7
6
CONTINUOUS
70
0
71
3
72
9
73
5
74
3
42
0.0000001000
43
0.0000001000
44
0.0000000001
12
-0.0404796029
22
0.5467340596
32
0.0000000000
13
-0.1736979605
23
0.5202900215
33
0.0000000000
40
0.0000000000
40
0.0000000000
40
0.0000000000
40
0.0000000000
40
0.4982915622
40
1.0000000000
40
1.0000000000
40
1.0000000000
40
1.0000000000
10
-19.6811499593
20
-9.9302135814
30
0.0000000000
10
-19.6878735075
20
-9.8394025919
30
0.0000000000
10
-19.7144716727
20
-9.6579652489
30
0.0000000000
10
-19.7628195173
20
-9.4813407686
30
0.0000000000
10
-19.7918680948
20
-9.3943294707
30
0.0000000000
11
-19.6811499593
21
-9.9302135814
31
0.0000000000
11
-19.7197811154
21
-9.6597802050
31
0.0000000000
11
-19.7918680948
21
-9.3943294707
31
0.0000000000
0
SPLINE
5
2FF
100
AcDbEntity
8
0
100
AcDbSpline
62
7
6
CONTINUOUS
70
0
71
3
72
14
73
10
74
8
42
0.0000001000
43
0.0000001000
44
0.0000000001
12
-0.8543089331
22
1.2755055369
32
0.0000000000
13
-1.5213670936
23
-0.2323349883
33
0.0000000000
40
0.0000000000
40
0.0000000000
40
0.0000000000
40
0.0000000000
40
0.1298318380
40
0.3115558448
40
0.4829717117
40
0.6417381790
40
0.7868444372
40
0.9190941446
40
1.0000000000
40
1.0000000000
40
1.0000000000
40
1.0000000000
10
-20.0950609715
20
-8.7767887472
30
0.0000000000
10
-20.1320331378
20
-8.7215883378
30
0.0000000000
10
-20.2260154602
20
-8.5926517991
30
0.0000000000
10
-20.3912947765
20
-8.4082239555
30
0.0000000000
10
-20.5907987213
20
-8.2373723453
30
0.0000000000
10
-20.7980234883
20
-8.1082564160
30
0.0000000000
10
-21.0066182183
20
-8.0253332851
30
0.0000000000
10
-21.1891596958
20
-7.9955389455
30
0.0000000000
10
-21.2988639427
20
-8.0018327860
30
0.0000000000
10
-21.3398931114
20
-8.0080985397
30
0.0000000000
11
-20.0950609715
21
-8.7767887472
31
0.0000000000
11
-20.2125562959
21
-8.6158578305
31
0.0000000000
11
-20.3992656129
21
-8.4087861820
31
0.0000000000
11
-20.5998462030
21
-8.2386766958
31
0.0000000000
11
-20.8074878551
21
-8.1113077994
31
0.0000000000
11
-21.0151379741
21
-8.0310098170
31
0.0000000000
11
-21.2157427912
21
-8.0005155699
31
0.0000000000
11
-21.3398931114
21
-8.0080985397
31
0.0000000000
0
SPLINE
5
300
100
AcDbEntity
8
0
100
AcDbSpline
62
7
6
CONTINUOUS
70
0
71
3
72
11
73
7
74
5
42
0.0000001000
43
0.0000001000
44
0.0000000001
12
0.0659395744
22
0.4993331873
32
0.0000000000
13
0.4531321543
23
0.2261135531
33
0.0000000000
40
0.0000000000
40
0.0000000000
40
0.0000000000
40
0.0000000000
40
0.3324419278
40
0.6302815648
40
0.9031156344
40
1.0000000000
40
1.0000000000
40
1.0000000000
40
1.0000000000
10
-21.5066445646
20
-9.0174662788
30
0.0000000000
10
-21.4993375382
20
-8.9621331830
30
0.0000000000
10
-21.4753880942
20
-8.8580126953
30
0.0000000000
10
-21.4048322259
20
-8.7216005534
30
0.0000000000
10
-21.3234468673
20
-8.6413353079
30
0.0000000000
10
-21.2694172757
20
-8.6098839799
30
0.0000000000
10
-21.2547834686
20
-8.6025816905
30
0.0000000000
11
-21.5066445646
21
-9.0174662788
31
0.0000000000
11
-21.4670371584
21
-8.8547777712
31
0.0000000000
11
-21.3960717140
21
-8.7226126762
31
0.0000000000
11
-21.2971191204
21
-8.6272604421
31
0.0000000000
11
-21.2547834686
21
-8.6025816905
31
0.0000000000
0
SPLINE
5
301
100
AcDbEntity
8
0
100
AcDbSpline
62
7
6
CONTINUOUS
70
0
71
3
72
17
73
13
74
11
42
0.0000001000
43
0.0000001000
44
0.0000000001
12
-1.6198844229
22
-0.8083245011
32
0.0000000000
13
-0.2086204466
23
1.7884170033
33
0.0000000000
40
0.0000000000
40
0.0000000000
40
0.0000000000
40
0.0000000000
40
0.0471165698
40
0.1249102709
40
0.2106620518
40
0.3064130740
40
0.4120317921
40
0.5257899261
40
0.6449088403
40
0.7660113732
40
0.8855141370
40
1.0000000000
40
1.0000000000
40
1.0000000000
40
1.0000000000
10
-20.3602925152
20
-10.3912650609
30
0.0000000000
10
-20.3857336477
20
-10.4039602202
30
0.0000000000
10
-20.4569896834
20
-10.4300882224
30
0.0000000000
10
-20.5855029939
20
-10.4375912421
30
0.0000000000
10
-20.7384513800
20
-10.4002707993
30
0.0000000000
10
-20.8928121329
20
-10.3208591787
30
0.0000000000
10
-21.0423806459
20
-10.2035667583
30
0.0000000000
10
-21.1807885976
20
-10.0538175259
30
0.0000000000
10
-21.3018703237
20
-9.8784454568
30
0.0000000000
10
-21.4001142148
20
-9.6854710422
30
0.0000000000
10
-21.4709976402
20
-9.4838406764
30
0.0000000000
10
-21.4986832006
20
-9.3455233879
30
0.0000000000
10
-21.5066445646
20
-9.2772738999
30
0.0000000000
11
-20.3602925152
21
-10.3912650609
31
0.0000000000
11
-20.4401932384
21
-10.4205867984
31
0.0000000000
11
-20.5799012473
21
-10.4306638594
31
0.0000000000
11
-20.7304366209
21
-10.3963358781
31
0.0000000000
11
-20.8846393628
21
-10.3192345072
31
0.0000000000
11
-21.0351747364
21
-10.2030271149
31
0.0000000000
11
-21.1748827453
21
-10.0532420450
31
0.0000000000
11
-21.2971191204
21
-9.8770051808
31
0.0000000000
11
-21.3960717140
21
-9.6827003531
31
0.0000000000
11
-21.4670371584
21
-9.4795698137
31
0.0000000000
11
-21.5066445646
21
-9.2772738999
31
0.0000000000
0
SPLINE
5
302
100
AcDbEntity
8
0
100
AcDbSpline
62
7
6
CONTINUOUS
70
0
71
3
72
11
73
7
74
5
42
0.0000001000
43
0.0000001000
44
0.0000000001
12
0.4938991598
22
0.4838024500
32
0.0000000000
13
0.0549001517
23
0.6866037332
33
0.0000000000
40
0.0000000000
40
0.0000000000
40
0.0000000000
40
0.0000000000
40
0.0636249350
40
0.3479709172
40
0.6588256524
40
1.0000000000
40
1.0000000000
40
1.0000000000
40
1.0000000000
10
-19.9357793948
20
-10.8159744724
30
0.0000000000
10
-19.9253046275
20
-10.8057138393
30
0.0000000000
10
-19.8698912658
20
-10.7476977558
30
0.0000000000
10
-19.7853556951
20
-10.6202394917
30
0.0000000000
10
-19.7109497791
20
-10.4168595984
30
0.0000000000
10
-19.6873934671
20
-10.2681050628
30
0.0000000000
10
-19.6811499593
20
-10.1900212026
30
0.0000000000
11
-19.9357793948
21
-10.8159744724
31
0.0000000000
11
-19.9054003327
21
-10.7841868393
31
0.0000000000
11
-19.7953930458
21
-10.6221435792
31
0.0000000000
11
-19.7197811154
21
-10.4218234229
31
0.0000000000
11
-19.6811499593
21
-10.1900212026
31
0.0000000000
0
SPLINE
5
303
100
AcDbEntity
8
0
100
AcDbSpline
62
7
6
CONTINUOUS
70
0
71
3
72
8
73
4
74
2
42
0.0000001000
43
0.0000001000
44
0.0000000001
12
0.1522046767
22
0.1271369213
32
0.0000000000
13
0.1521903532
23
0.1271540672
33
0.0000000000
40
0.0000000000
40
0.0000000000
40
0.0000000000
40
0.0000000000
40
1.0000000000
40
1.0000000000
40
1.0000000000
40
1.0000000000
10
-19.6811499593
20
-10.1900212026
30
0.0000000000
10
-19.6304150671
20
-10.1476422288
30
0.0000000000
10
-19.5796823933
20
-10.1052605991
30
0.0000000000
10
-19.5289522755
20
-10.0628759100
30
0.0000000000
11
-19.6811499593
21
-10.1900212026
31
0.0000000000
11
-19.5289522755
21
-10.0628759100
31
0.0000000000
0
SPLINE
5
304
100
AcDbEntity
8
0
100
AcDbSpline
62
7
6
CONTINUOUS
70
0
71
3
72
10
73
6
74
4
42
0.0000001000
43
0.0000001000
44
0.0000000001
12
0.9869052559
22
-0.4934526280
32
0.0000000000
13
1.0988573109
23
-0.1165732780
33
0.0000000000
40
0.0000000000
40
0.0000000000
40
0.0000000000
40
0.0000000000
40
0.4482869625
40
0.8670538178
40
1.0000000000
40
1.0000000000
40
1.0000000000
40
1.0000000000
10
-20.4539846013
20
-13.5203698888
30
0.0000000000
10
-20.3065123481
20
-13.5941060153
30
0.0000000000
10
-20.0117796234
20
-13.7189960406
30
0.0000000000
10
-19.6541322762
20
-13.8110166414
30
0.0000000000
10
-19.4526807036
20
-13.8384863562
30
0.0000000000
10
-19.4039844089
20
-13.8436523470
30
0.0000000000
11
-20.4539846013
21
-13.5203698888
31
0.0000000000
11
-19.9976372810
21
-13.7111914273
31
0.0000000000
11
-19.5495282144
21
-13.8238947080
31
0.0000000000
11
-19.4039844089
21
-13.8436523470
31
0.0000000000
0
SPLINE
5
305
100
AcDbEntity
8
0
100
AcDbSpline
62
7
6
CONTINUOUS
70
0
71
3
72
12
73
8
74
6
42
0.0000001000
43
0.0000001000
44
0.0000000001
12
1.6454430604
22
-2.4091812508
32
0.0000000000
13
2.6094654110
23
-1.3047327055
33
0.0000000000
40
0.0000000000
40
0.0000000000
40
0.0000000000
40
0.0000000000
40
0.2156791783
40
0.4255163145
40
0.6271753048
40
0.8190301619
40
1.0000000000
40
1.0000000000
40
1.0000000000
40
1.0000000000
10
-22.5753049448
20
-11.5597705873
30
0.0000000000
10
-22.4570090091
20
-11.7329739981
30
0.0000000000
10
-22.2093144633
20
-12.0652085957
30
0.0000000000
10
-21.8027824512
20
-12.5209556650
30
0.0000000000
10
-21.3720926790
20
-12.9208649866
30
0.0000000000
10
-20.9250235398
20
-13.2575851091
30
0.0000000000
10
-20.6113961122
20
-13.4416641333
30
0.0000000000
10
-20.4539846013
20
-13.5203698888
30
0.0000000000
11
-22.5753049448
21
-11.5597705873
31
0.0000000000
11
-22.1986886397
21
-12.0638542193
31
0.0000000000
11
-21.7904582919
21
-12.5200659994
31
0.0000000000
11
-21.3584409882
21
-12.9194383211
31
0.0000000000
11
-20.9103319216
21
-13.2548441070
31
0.0000000000
11
-20.4539846013
21
-13.5203698888
31
0.0000000000
0
SPLINE
5
306
100
AcDbEntity
8
0
100
AcDbSpline
62
7
6
CONTINUOUS
70
0
71
3
72
20
73
16
74
14
42
0.0000001000
43
0.0000001000
44
0.0000000001
12
-0.4484536477
22
-7.6181217748
32
0.0000000000
13
6.3685031571
23
-4.2081980969
33
0.0000000000
40
0.0000000000
40
0.0000000000
40
0.0000000000
40
0.0000000000
40
0.0009645598
40
0.0838799554
40
0.1711207373
40
0.2619495309
40
0.3554606240
40
0.4506322949
40
0.5463746537
40
0.6415749742
40
0.7351422132
40
0.8260523006
40
0.9133958928
40
0.9964305575
40
1.0000000000
40
1.0000000000
40
1.0000000000
40
1.0000000000
10
-25.2884195820
20
-7.6398440693
30
0.0000000000
10
-25.2885637687
20
-7.6422934474
30
0.0000000000
10
-25.3009520868
20
-7.8553039638
30
0.0000000000
10
-25.2996000603
20
-8.2912164119
30
0.0000000000
10
-25.2278585585
20
-8.9519207784
30
0.0000000000
10
-25.0877315403
20
-9.6289716073
30
0.0000000000
10
-24.8818210190
20
-10.3100042208
30
0.0000000000
10
-24.6139200794
20
-10.9825353772
30
0.0000000000
10
-24.2889562851
20
-11.6342117557
30
0.0000000000
10
-23.9129045025
20
-12.2530529887
30
0.0000000000
10
-23.4926652507
20
-12.8276877398
30
0.0000000000
10
-23.0359428484
20
-13.3475618512
30
0.0000000000
10
-22.5510121400
20
-13.8031668173
30
0.0000000000
10
-22.1981747881
20
-14.0711097700
30
0.0000000000
10
-22.0146513829
20
-14.1930706229
30
0.0000000000
10
-22.0070740476
20
-14.1980775967
30
0.0000000000
11
-25.2884195820
21
-7.6398440693
31
0.0000000000
11
-25.2888469567
21
-7.6471924743
31
0.0000000000
11
-25.2888469567
21
-8.2795588747
31
0.0000000000
11
-25.2185407110
21
-8.9411885031
31
0.0000000000
11
-25.0792378921
21
-9.6197564515
31
0.0000000000
11
-24.8735334479
21
-10.3026222827
31
0.0000000000
11
-24.6052592629
21
-10.9770654985
31
0.0000000000
11
-24.2794127776
21
-11.6305224978
31
0.0000000000
11
-23.9020638956
21
-12.2508206131
31
0.0000000000
11
-23.4802419125
21
-12.8264048642
31
0.0000000000
11
-23.0218045737
21
-13.3465532054
31
0.0000000000
11
-22.5352916995
21
-13.8015762574
31
0.0000000000
11
-22.0297661041
21
-14.1829978017
31
0.0000000000
11
-22.0070740476
21
-14.1980775967
31
0.0000000000
0
SPLINE
5
307
100
AcDbEntity
8
0
100
AcDbSpline
62
7
6
CONTINUOUS
70
0
71
3
72
15
73
11
74
9
42
0.0000001000
43
0.0000001000
44
0.0000000001
12
-0.7407729199
22
-0.3681634627
32
0.0000000000
13
-0.3505216271
23
-0.7492819517
33
0.0000000000
40
0.0000000000
40
0.0000000000
40
0.0000000000
40
0.0000000000
40
0.1022936839
40
0.2127756250
40
0.3306400367
40
0.4548699003
40
0.5844192595
40
0.7187272817
40
0.8573824534
40
1.0000000000
40
1.0000000000
40
1.0000000000
40
1.0000000000
10
-20.3104063820
20
-11.4314270329
30
0.0000000000
10
-20.3356651789
20
-11.4439806318
30
0.0000000000
10
-20.3863356644
20
-11.4739445167
30
0.0000000000
10
-20.4589423184
20
-11.5293510817
30
0.0000000000
10
-20.5300659186
20
-11.5958399800
30
0.0000000000
10
-20.5986994369
20
-11.6720851098
30
0.0000000000
10
-20.6641291994
20
-11.7568778368
30
0.0000000000
10
-20.7258364614
20
-11.8492265342
30
0.0000000000
10
-20.7834139769
20
-11.9483816822
30
0.0000000000
10
-20.8183080724
20
-12.0177058116
30
0.0000000000
10
-20.8349715839
20
-12.0533260628
30
0.0000000000
11
-20.3104063820
21
-11.4314270329
31
0.0000000000
11
-20.3834736337
21
-11.4741069318
31
0.0000000000
11
-20.4563659933
21
-11.5292368791
31
0.0000000000
11
-20.5278034791
21
-11.5955907770
31
0.0000000000
11
-20.5967391765
21
-11.6718045546
31
0.0000000000
11
-20.6623543475
21
-11.7565340898
31
0.0000000000
11
-20.7241947411
21
-11.8488347361
31
0.0000000000
11
-20.7818746475
21
-11.9479743207
31
0.0000000000
11
-20.8349715839
21
-12.0533260628
31
0.0000000000
0
SPLINE
5
308
100
AcDbEntity
8
0
100
AcDbSpline
62
7
6
CONTINUOUS
70
0
71
3
72
10
73
6
74
4
42
0.0000001000
43
0.0000001000
44
0.0000000001
12
-0.4371081558
22
-0.9343710250
32
0.0000000000
13
-0.4444035200
23
-0.9309238195
33
0.0000000000
40
0.0000000000
40
0.0000000000
40
0.0000000000
40
0.0000000000
40
0.4283760700
40
0.8795967017
40
1.0000000000
40
1.0000000000
40
1.0000000000
40
1.0000000000
10
-20.8349715839
20
-12.0533260628
30
0.0000000000
10
-20.8973871419
20
-12.1867467920
30
0.0000000000
10
-21.0261158099
20
-12.4604373894
30
0.0000000000
10
-21.1735529201
20
-12.7710777219
30
0.0000000000
10
-21.2581633814
20
-12.9484890396
30
0.0000000000
10
-21.2759992646
20
-12.9858511390
30
0.0000000000
11
-20.8349715839
21
-12.0533260628
31
0.0000000000
11
-21.0229993883
21
-12.4532218999
31
0.0000000000
11
-21.2225344664
21
-12.8737443977
31
0.0000000000
11
-21.2759992646
21
-12.9858511390
31
0.0000000000
0
SPLINE
5
309
100
AcDbEntity
8
0
100
AcDbSpline
62
7
6
CONTINUOUS
70
0
71
3
72
10
73
6
74
4
42
0.0000001000
43
0.0000001000
44
0.0000000001
12
-0.4966885564
22
-0.2473461842
32
0.0000000000
13
-0.4968849715
23
-0.2469513757
33
0.0000000000
40
0.0000000000
40
0.0000000000
40
0.0000000000
40
0.0000000000
40
0.3352152025
40
0.6685467058
40
1.0000000000
40
1.0000000000
40
1.0000000000
40
1.0000000000
10
-19.8136204634
20
-11.1842764845
30
0.0000000000
10
-19.8691196484
20
-11.2119145516
30
0.0000000000
10
-19.9798132971
20
-11.2670210223
30
0.0000000000
10
-20.1454085380
20
-11.3494046836
30
0.0000000000
10
-20.2555083284
20
-11.4041427505
30
0.0000000000
10
-20.3104063820
20
-11.4314270329
30
0.0000000000
11
-19.8136204634
21
-11.1842764845
31
0.0000000000
11
-19.9801288343
21
-11.2671689630
31
0.0000000000
11
-20.1457232291
21
-11.3495520412
31
0.0000000000
11
-20.3104063820
21
-11.4314270329
31
0.0000000000
0
SPLINE
5
30A
100
AcDbEntity
8
0
100
AcDbSpline
62
7
6
CONTINUOUS
70
0
71
3
72
24
73
20
74
18
42
0.0000001000
43
0.0000001000
44
0.0000000001
12
-7.7099620697
22
-6.1163174460
32
0.0000000000
13
8.7824568466
23
-4.3912284233
33
0.0000000000
40
0.0000000000
40
0.0000000000
40
0.0000000000
40
0.0000000000
40
0.0135390354
40
0.0587372481
40
0.1067273840
40
0.1582373124
40
0.2136012402
40
0.2728073162
40
0.3355623601
40
0.4013545104
40
0.4695084910
40
0.5392339544
40
0.6096688803
40
0.6799200353
40
0.7491022062
40
0.8163777447
40
0.8809980084
40
0.9423485318
40
1.0000000000
40
1.0000000000
40
1.0000000000
40
1.0000000000
10
-24.0050536142
20
-5.7176413134
30
0.0000000000
10
-24.0398487639
20
-5.7452443261
30
0.0000000000
10
-24.1866046636
20
-5.8702790167
30
0.0000000000
10
-24.4176955315
20
-6.1357848354
30
0.0000000000
10
-24.6521020004
20
-6.5505311421
30
0.0000000000
10
-24.8213399376
20
-7.0306901656
30
0.0000000000
10
-24.9230059106
20
-7.5665044121
30
0.0000000000
10
-24.9556753486
20
-8.1474369786
30
0.0000000000
10
-24.9190045098
20
-8.7620928877
30
0.0000000000
10
-24.8138631723
20
-9.3983388448
30
0.0000000000
10
-24.6424090002
20
-10.0435298202
30
0.0000000000
10
-24.4080963642
20
-10.6847787201
30
0.0000000000
10
-24.1156308222
20
-11.3092383998
30
0.0000000000
10
-23.7708829334
20
-11.9043804254
30
0.0000000000
10
-23.3807597986
20
-12.4582668755
30
0.0000000000
10
-22.9530714182
20
-12.9597922290
30
0.0000000000
10
-22.4962760686
20
-13.3989447640
30
0.0000000000
10
-22.0195243946
20
-13.7668699419
30
0.0000000000
10
-21.6834186170
20
-13.9663130527
30
0.0000000000
10
-21.5146447731
20
-14.0506999747
30
0.0000000000
11
-24.0050536142
21
-5.7176413134
31
0.0000000000
11
-24.1064636703
21
-5.8040060648
31
0.0000000000
11
-24.3996967502
21
-6.1371386689
31
0.0000000000
11
-24.6341984917
21
-6.5458641283
31
0.0000000000
11
-24.8051951156
21
-7.0218619713
31
0.0000000000
11
-24.9092056236
21
-7.5554422544
31
0.0000000000
11
-24.9441126618
21
-8.1357428219
31
0.0000000000
11
-24.9092056236
21
-8.7509504276
31
0.0000000000
11
-24.8051951156
21
-9.3885412188
31
0.0000000000
11
-24.6341984917
21
-10.0355356857
31
0.0000000000
11
-24.3996967502
21
-10.6787628866
31
0.0000000000
11
-24.1064636703
21
-11.3051285707
31
0.0000000000
11
-23.7604686317
21
-11.9018817389
31
0.0000000000
11
-23.3687550959
21
-12.4568742176
31
0.0000000000
11
-22.9392972207
21
-12.9588079605
31
0.0000000000
11
-22.4808375300
21
-13.3974650439
31
0.0000000000
11
-22.0027089410
21
-13.7639156746
31
0.0000000000
11
-21.5146447731
21
-14.0506999747
31
0.0000000000
0
SPLINE
5
30B
100
AcDbEntity
8
0
100
AcDbSpline
62
7
6
CONTINUOUS
70
0
71
3
72
11
73
7
74
5
42
0.0000001000
43
0.0000001000
44
0.0000000001
12
1.6659567410
22
-0.8329783705
32
0.0000000000
13
1.8070527366
23
0.4662142045
33
0.0000000000
40
0.0000000000
40
0.0000000000
40
0.0000000000
40
0.0000000000
40
0.2834428521
40
0.5470522484
40
0.7934218862
40
1.0000000000
40
1.0000000000
40
1.0000000000
40
1.0000000000
10
-21.5146447731
20
-14.0506999747
30
0.0000000000
10
-21.3572435964
20
-14.1294005630
30
0.0000000000
10
-21.0426083365
20
-14.2611813881
30
0.0000000000
10
-20.5613112791
20
-14.3767865315
30
0.0000000000
10
-20.1140124073
20
-14.3989421310
30
0.0000000000
10
-19.8340359537
20
-14.3564596320
30
0.0000000000
10
-19.7096034384
20
-14.3243564150
30
0.0000000000
11
-21.5146447731
21
-14.0506999747
31
0.0000000000
11
-21.0265806051
21
-14.2519798426
31
0.0000000000
11
-20.5484520162
21
-14.3636578008
31
0.0000000000
11
-20.0899923255
21
-14.3834604081
31
0.0000000000
11
-19.7096034384
21
-14.3243564150
31
0.0000000000
0
SPLINE
5
30C
100
AcDbEntity
8
0
100
AcDbSpline
62
9
6
CONTINUOUS
70
0
71
3
72
10
73
6
74
4
42
0.0000001000
43
0.0000001000
44
0.0000000001
12
1.0419537874
22
-1.0799269009
32
0.0000000000
13
1.3379804022
23
-0.6832074926
33
0.0000000000
40
0.0000000000
40
0.0000000000
40
0.0000000000
40
0.0000000000
40
0.4279756727
40
0.8296705229
40
1.0000000000
40
1.0000000000
40
1.0000000000
40
1.0000000000
10
-20.3104063820
20
-11.4314270329
30
0.0000000000
10
-20.1617627576
20
-11.5854878468
30
0.0000000000
10
-19.8564091063
20
-11.8683139700
30
0.0000000000
10
-19.4475913415
20
-12.1591564634
30
0.0000000000
10
-19.1972123037
20
-12.2987888880
30
0.0000000000
10
-19.1212464696
20
-12.3375790130
30
0.0000000000
11
-20.3104063820
21
-11.4314270329
31
0.0000000000
11
-19.8377347632
21
-11.8662241049
31
0.0000000000
11
-19.3448558908
21
-12.2132626831
31
0.0000000000
11
-19.1212464696
21
-12.3375790130
31
0.0000000000
0
SPLINE
5
30D
100
AcDbEntity
8
0
100
AcDbSpline
62
9
6
CONTINUOUS
70
0
71
3
72
11
73
7
74
5
42
0.0000001000
43
0.0000001000
44
0.0000000001
12
1.4144815053
22
-1.3694948070
32
0.0000000000
13
1.8832805402
23
-0.5811609224
33
0.0000000000
40
0.0000000000
40
0.0000000000
40
0.0000000000
40
0.0000000000
40
0.3037328036
40
0.5902827604
40
0.8580380582
40
1.0000000000
40
1.0000000000
40
1.0000000000
40
1.0000000000
10
-20.8349715839
20
-12.0533260628
30
0.0000000000
10
-20.6917634395
20
-12.1919795619
30
0.0000000000
10
-20.3993026717
20
-12.4474299140
30
0.0000000000
10
-19.9338107187
20
-12.7667432102
30
0.0000000000
10
-19.5247418973
20
-12.9738868250
30
0.0000000000
10
-19.2713856687
20
-13.0656329976
30
0.0000000000
10
-19.1822676146
20
-13.0931339086
30
0.0000000000
11
-20.8349715839
21
-12.0533260628
31
0.0000000000
11
-20.3834361900
21
-12.4453924819
31
0.0000000000
11
-19.9169470639
21
-12.7626812337
31
0.0000000000
11
-19.4454377264
21
-12.9984359024
31
0.0000000000
11
-19.1822676146
21
-13.0931339086
31
0.0000000000
0
SPLINE
5
30E
100
AcDbEntity
8
0
100
AcDbSpline
62
9
6
CONTINUOUS
70
0
71
3
72
9
73
5
74
3
42
0.0000001000
43
0.0000001000
44
0.0000000001
12
0.6450240086
22
-0.3225120053
32
0.0000000000
13
0.5024384528
23
-0.5182952753
33
0.0000000000
40
0.0000000000
40
0.0000000000
40
0.0000000000
40
0.0000000000
40
0.5280257313
40
1.0000000000
40
1.0000000000
40
1.0000000000
40
1.0000000000
10
-4.3673053293
20
13.8518683241
30
0.0000000000
10
-4.2537755714
20
13.7951034449
30
0.0000000000
10
-4.0508119586
20
13.6628101275
30
0.0000000000
10
-3.8724137389
20
13.5006171925
30
0.0000000000
10
-3.7933677318
20
13.4190765146
30
0.0000000000
11
-4.3673053293
21
13.8518683241
31
0.0000000000
11
-4.0462846573
21
13.6470585461
31
0.0000000000
11
-3.7933677318
21
13.4190765146
31
0.0000000000
0
SPLINE
5
30F
100
AcDbEntity
8
0
100
AcDbSpline
62
9
6
CONTINUOUS
70
0
71
3
72
11
73
7
74
5
42
0.0000001000
43
0.0000001000
44
0.0000000001
12
0.8478907332
22
0.4218918317
32
0.0000000000
13
0.8432817020
23
-0.4216408489
33
0.0000000000
40
0.0000000000
40
0.0000000000
40
0.0000000000
40
0.0000000000
40
0.0131625406
40
0.3136442456
40
0.6378856984
40
1.0000000000
40
1.0000000000
40
1.0000000000
40
1.0000000000
10
-5.2779914828
20
13.9106709633
30
0.0000000000
10
-5.2742713508
20
13.9125220195
30
0.0000000000
10
-5.1852593158
20
13.9558866714
30
0.0000000000
10
-4.9868533701
20
14.0075182810
30
0.0000000000
10
-4.6731223220
20
13.9799811636
30
0.0000000000
10
-4.4690934508
20
13.9027623846
30
0.0000000000
10
-4.3673053293
20
13.8518683241
30
0.0000000000
11
-5.2779914828
21
13.9106709633
31
0.0000000000
11
-5.2667852641
21
13.9161300798
31
0.0000000000
11
-4.9932493563
21
13.9898639288
31
0.0000000000
11
-4.6883260013
21
13.9680792181
31
0.0000000000
11
-4.3673053293
21
13.8518683241
31
0.0000000000
0
SPLINE
5
310
100
AcDbEntity
8
0
100
AcDbSpline
62
9
6
CONTINUOUS
70
0
71
3
72
10
73
6
74
4
42
0.0000001000
43
0.0000001000
44
0.0000000001
12
-0.4798897118
22
0.4864188323
32
0.0000000000
13
-0.6108607023
23
0.3054303511
33
0.0000000000
40
0.0000000000
40
0.0000000000
40
0.0000000000
40
0.0000000000
40
0.3065381726
40
0.6668548245
40
1.0000000000
40
1.0000000000
40
1.0000000000
40
1.0000000000
10
-3.8301100610
20
13.4008906701
30
0.0000000000
10
-3.8791448994
20
13.4505926501
30
0.0000000000
10
-3.9901633416
20
13.5544322596
30
0.0000000000
10
-4.1711448044
20
13.6932925884
30
0.0000000000
10
-4.3074827721
20
13.7739018332
30
0.0000000000
10
-4.3753178707
20
13.8078193826
30
0.0000000000
11
-3.8301100610
21
13.4008906701
31
0.0000000000
11
-3.9832535511
21
13.5436830831
31
0.0000000000
11
-4.1789873097
21
13.6928310457
31
0.0000000000
11
-4.3753178707
21
13.8078193826
31
0.0000000000
0
SPLINE
5
311
100
AcDbEntity
8
0
100
AcDbSpline
62
9
6
CONTINUOUS
70
0
71
3
72
12
73
8
74
6
42
0.0000001000
43
0.0000001000
44
0.0000000001
12
-0.7861325010
22
0.3930662505
32
0.0000000000
13
-0.8109797544
23
-0.3441183589
33
0.0000000000
40
0.0000000000
40
0.0000000000
40
0.0000000000
40
0.0000000000
40
0.2419556392
40
0.4709789795
40
0.6870848199
40
0.8925314590
40
1.0000000000
40
1.0000000000
40
1.0000000000
40
1.0000000000
10
-4.3753178707
20
13.8078193825
30
0.0000000000
10
-4.4387209346
20
13.8395209145
30
0.0000000000
10
-4.5664461143
20
13.8932178180
30
0.0000000000
10
-4.7629180175
20
13.9412342515
30
0.0000000000
10
-4.9545133992
20
13.9516121415
30
0.0000000000
10
-5.1088360804
20
13.9268937520
30
0.0000000000
10
-5.1956792592
20
13.8962957973
30
0.0000000000
10
-5.2247308628
20
13.8839684980
30
0.0000000000
11
-4.3753178707
21
13.8078193825
31
0.0000000000
11
-4.5717877951
21
13.8892072785
31
0.0000000000
11
-4.7676194094
21
13.9357818663
31
0.0000000000
11
-4.9573437303
21
13.9448385386
31
0.0000000000
11
-5.1355043573
21
13.9154285621
31
0.0000000000
11
-5.2247308628
21
13.8839684980
31
0.0000000000
0
SPLINE
5
312
100
AcDbEntity
8
0
100
AcDbSpline
62
7
6
CONTINUOUS
70
0
71
3
72
16
73
12
74
10
42
0.0000001000
43
0.0000001000
44
0.0000000001
12
1.6325923217
22
0.8164126541
32
0.0000000000
13
1.6320445502
23
-0.8160228396
33
0.0000000000
40
0.0000000000
40
0.0000000000
40
0.0000000000
40
0.0000000000
40
0.0963321800
40
0.1990641815
40
0.3008386012
40
0.4053616433
40
0.5141966219
40
0.6280385868
40
0.7474527793
40
0.8730874750
40
1.0000000000
40
1.0000000000
40
1.0000000000
40
1.0000000000
10
-24.4692384441
20
-5.8494092851
30
0.0000000000
10
-24.4168147183
20
-5.8231936815
30
0.0000000000
10
-24.3044891245
20
-5.7766291414
30
0.0000000000
10
-24.1266809686
20
-5.7311257935
30
0.0000000000
10
-23.9395402068
20
-5.7089849377
30
0.0000000000
10
-23.7474839093
20
-5.7089814769
30
0.0000000000
10
-23.5492514120
20
-5.7299093513
30
0.0000000000
10
-23.3450498230
20
-5.7712252011
30
0.0000000000
10
-23.1353380321
20
-5.8326470616
30
0.0000000000
10
-22.9236319840
20
-5.9129645660
30
0.0000000000
10
-22.7840561620
20
-5.9774080749
30
0.0000000000
10
-22.7150138638
20
-6.0119292479
30
0.0000000000
11
-24.4692384441
21
-5.8494092851
31
0.0000000000
11
-24.3068522268
21
-5.7819796811
31
0.0000000000
11
-24.1253649436
21
-5.7350892768
31
0.0000000000
11
-23.9410103711
21
-5.7127786256
31
0.0000000000
11
-23.7502962049
21
-5.7122572046
31
0.0000000000
11
-23.5527595438
21
-5.7326112540
31
0.0000000000
11
-23.3490754405
21
-5.7733507906
31
0.0000000000
11
-23.1398557435
21
-5.8341886306
31
0.0000000000
11
-22.9253898382
21
-5.9151414022
31
0.0000000000
11
-22.7150138638
21
-6.0119292479
31
0.0000000000
0
SPLINE
5
313
100
AcDbEntity
8
0
100
AcDbSpline
62
7
6
CONTINUOUS
70
0
71
3
72
37
73
33
74
31
42
0.0000001000
43
0.0000001000
44
0.0000000001
12
-8.9968085980
22
4.4984042990
32
0.0000000000
13
8.3087275907
23
5.6822226584
33
0.0000000000
40
0.0000000000
40
0.0000000000
40
0.0000000000
40
0.0000000000
40
0.0316245091
40
0.0644489827
40
0.0984236891
40
0.1334754140
40
0.1695107977
40
0.2064194146
40
0.2440766194
40
0.2823461950
40
0.3210828418
40
0.3601345475
40
0.3993448704
40
0.4385551674
40
0.4776067959
40
0.5163433151
40
0.5546127145
40
0.5922696972
40
0.6291780494
40
0.6652131300
40
0.7002645185
40
0.7342388612
40
0.7670629509
40
0.7986870641
40
0.8290885434
40
0.8582755470
40
0.8862907667
40
0.9132147342
40
0.9391680846
40
0.9643118890
40
0.9888450271
40
1.0000000000
40
1.0000000000
40
1.0000000000
40
1.0000000000
10
-21.8681981637
20
-14.2707779401
30
0.0000000000
10
-21.9630380487
20
-14.2233579976
30
0.0000000000
10
-22.1524983454
20
-14.1189186425
30
0.0000000000
10
-22.4293375675
20
-13.9388295590
30
0.0000000000
10
-22.7025095358
20
-13.7334809877
30
0.0000000000
10
-22.9702436224
20
-13.5042125022
30
0.0000000000
10
-23.2308319147
20
-13.2524996546
30
0.0000000000
10
-23.4825994986
20
-12.9799665018
30
0.0000000000
10
-23.7239278427
20
-12.6883701710
30
0.0000000000
10
-23.9532627765
20
-12.3795915773
30
0.0000000000
10
-24.1691261033
20
-12.0556230002
30
0.0000000000
10
-24.3701254322
20
-11.7185553377
30
0.0000000000
10
-24.5549636543
20
-11.3705644435
30
0.0000000000
10
-24.7224476046
20
-11.0138968769
30
0.0000000000
10
-24.8714959724
20
-10.6508551201
30
0.0000000000
10
-25.0011463803
20
-10.2837823868
30
0.0000000000
10
-25.1105615839
20
-9.9150471212
30
0.0000000000
10
-25.1990347293
20
-9.5470272958
30
0.0000000000
10
-25.2659935999
20
-9.1820946218
30
0.0000000000
10
-25.3110037713
20
-8.8225988030
30
0.0000000000
10
-25.3337705852
20
-8.4708519939
30
0.0000000000
10
-25.3341398454
20
-8.1291136739
30
0.0000000000
10
-25.3120971576
20
-7.7995762325
30
0.0000000000
10
-25.2677658956
20
-7.4843516822
30
0.0000000000
10
-25.2014039459
20
-7.1854600602
30
0.0000000000
10
-25.1133997244
20
-6.9048202008
30
0.0000000000
10
-25.0042685457
20
-6.6442434791
30
0.0000000000
10
-24.8746512084
20
-6.4054305540
30
0.0000000000
10
-24.7253172228
20
-6.1899696575
30
0.0000000000
10
-24.5571744472
20
-5.9993325493
30
0.0000000000
10
-24.4040098564
20
-5.8638171644
30
0.0000000000
10
-24.3071938287
20
-5.7932587271
30
0.0000000000
10
-24.2762992851
20
-5.7721303806
30
0.0000000000
11
-21.8681981637
21
-14.2707779401
31
0.0000000000
11
-22.1470006000
21
-14.1176162797
31
0.0000000000
11
-22.4239948956
21
-13.9379270467
31
0.0000000000
11
-22.6973846361
21
-13.7328755949
31
0.0000000000
11
-22.9653967841
21
-13.5037917616
31
0.0000000000
11
-23.2262931780
21
-13.2521612433
31
0.0000000000
11
-23.4783818047
21
-12.9796159606
31
0.0000000000
11
-23.7200277725
21
-12.6879234742
31
0.0000000000
11
-23.9496639147
21
-12.3789755218
31
0.0000000000
11
-24.1658009528
21
-12.0547757493
31
0.0000000000
11
-24.3670371552
21
-11.7174267168
31
0.0000000000
11
-24.5520674278
21
-11.3691162622
31
0.0000000000
11
-24.7196917783
21
-11.0121033124
31
0.0000000000
11
-24.8688230986
21
-10.6487032334
31
0.0000000000
11
-24.9984942147
21
-10.2812728142
31
0.0000000000
11
-25.1078641597
21
-9.9121949820
31
0.0000000000
11
-25.1962236276
21
-9.5438633481
31
0.0000000000
11
-25.2629995733
21
-9.1786666847
31
0.0000000000
11
-25.3077589291
21
-8.8189734321
31
0.0000000000
11
-25.3302114135
21
-8.4671163392
31
0.0000000000
11
-25.3302114135
21
-8.1253773342
31
0.0000000000
11
-25.3077589291
21
-7.7959727257
31
0.0000000000
11
-25.2629995733
21
-7.4810388289
31
0.0000000000
11
-25.1962236276
21
-7.1826181112
31
0.0000000000
11
-25.1078641597
21
-6.9026459452
31
0.0000000000
11
-24.9984942147
21
-6.6429380580
31
0.0000000000
11
-24.8688230986
21
-6.4051787549
31
0.0000000000
11
-24.7196917783
21
-6.1909099961
31
0.0000000000
11
-24.5520674278
21
-6.0015213969
31
0.0000000000
11
-24.3670371552
21
-5.8382412148
31
0.0000000000
11
-24.2762992851
21
-5.7721303806
31
0.0000000000
0
SPLINE
5
314
100
AcDbEntity
8
0
100
AcDbSpline
62
7
6
CONTINUOUS
70
0
71
3
72
39
73
35
74
33
42
0.0000001000
43
0.0000001000
44
0.0000000001
12
9.1102697588
22
-4.5551089284
32
0.0000000000
13
-9.1142235522
23
-4.5558884051
33
0.0000000000
40
0.0000000000
40
0.0000000000
40
0.0000000000
40
0.0000000000
40
0.0265478699
40
0.0558559282
40
0.0867307268
40
0.1190799693
40
0.1528014215
40
0.1877846925
40
0.2238962330
40
0.2609687386
40
0.2988233582
40
0.3372732246
40
0.3761254021
40
0.4151823198
40
0.4542405597
40
0.4930947521
40
0.5315407633
40
0.5693776442
40
0.6064099115
40
0.6424520446
40
0.6773334594
40
0.7108956379
40
0.7430180085
40
0.7736200118
40
0.8026292462
40
0.8299858019
40
0.8556422427
40
0.8796049551
40
0.9022098995
40
0.9237469838
40
0.9442462801
40
0.9638372036
40
0.9828871866
40
1.0000000000
40
1.0000000000
40
1.0000000000
40
1.0000000000
10
-22.7150084826
20
-6.0119318985
30
0.0000000000
10
-22.6343890640
20
-6.0522413781
30
0.0000000000
10
-22.4678026794
20
-6.1432371845
30
0.0000000000
10
-22.2192865808
20
-6.3015596434
30
0.0000000000
10
-21.9655285120
20
-6.4871159725
30
0.0000000000
10
-21.7118909650
20
-6.6971758613
30
0.0000000000
10
-21.4604286407
20
-6.9308397930
30
0.0000000000
10
-21.2131484022
20
-7.1869844058
30
0.0000000000
10
-20.9720531359
20
-7.4642129996
30
0.0000000000
10
-20.7391315836
20
-7.7608332380
30
0.0000000000
10
-20.5163052371
20
-8.0748900611
30
0.0000000000
10
-20.3053645558
20
-8.4042442294
30
0.0000000000
10
-20.1079558811
20
-8.7466000574
30
0.0000000000
10
-19.9255770146
20
-9.0995182796
30
0.0000000000
10
-19.7595670368
20
-9.4604326301
30
0.0000000000
10
-19.6110922928
20
-9.8266712541
30
0.0000000000
10
-19.4811290379
20
-10.1954887066
30
0.0000000000
10
-19.3704495970
20
-10.5640938642
30
0.0000000000
10
-19.2796078537
20
-10.9296828602
30
0.0000000000
10
-19.2089247020
20
-11.2894834332
30
0.0000000000
10
-19.1584814651
20
-11.6407839016
30
0.0000000000
10
-19.1281068309
20
-11.9810350709
30
0.0000000000
10
-19.1173902442
20
-12.3079454090
30
0.0000000000
10
-19.1257240772
20
-12.6194755749
30
0.0000000000
10
-19.1523290642
20
-12.9137529289
30
0.0000000000
10
-19.1962400395
20
-13.1889785131
30
0.0000000000
10
-19.2563098469
20
-13.4435846197
30
0.0000000000
10
-19.3315576813
20
-13.6772603198
30
0.0000000000
10
-19.4215895544
20
-13.8905929597
30
0.0000000000
10
-19.5265877892
20
-14.0837688791
30
0.0000000000
10
-19.6466966893
20
-14.2556939740
30
0.0000000000
10
-19.7820906560
20
-14.4048085629
30
0.0000000000
10
-19.9286708688
20
-14.5256645783
30
0.0000000000
10
-20.0346194827
20
-14.5888352179
30
0.0000000000
10
-20.0866094850
20
-14.6148232407
30
0.0000000000
11
-22.7150084826
21
-6.0119318985
31
0.0000000000
11
-22.4775117375
21
-6.1412178304
31
0.0000000000
11
-22.2255313553
21
-6.3012668442
31
0.0000000000
11
-21.9714730815
21
-6.4865937122
31
0.0000000000
11
-21.7175067352
21
-6.6965068781
31
0.0000000000
11
-21.4657072456
21
-6.9300982621
31
0.0000000000
11
-21.2180526244
21
-7.1862793203
31
0.0000000000
11
-20.9765337222
21
-7.4636809709
31
0.0000000000
11
-20.7431990145
21
-7.7605543646
31
0.0000000000
11
-20.5199838156
21
-8.0749319568
31
0.0000000000
11
-20.3086876106
21
-8.4046653864
31
0.0000000000
11
-20.1109638112
21
-8.7474507684
31
0.0000000000
11
-19.9283124002
21
-9.1008482350
31
0.0000000000
11
-19.7620822880
21
-9.4622753688
31
0.0000000000
11
-19.6134470391
21
-9.8290454923
31
0.0000000000
11
-19.4833872760
21
-10.1984015882
31
0.0000000000
11
-19.3726790315
21
-10.5675393528
31
0.0000000000
11
-19.2818804429
21
-10.9336338399
31
0.0000000000
11
-19.2113144444
21
-11.2938892499
31
0.0000000000
11
-19.1610575508
21
-11.6455958785
31
0.0000000000
11
-19.1309429091
21
-11.9861091398
31
0.0000000000
11
-19.1205464477
21
-12.3131213021
31
0.0000000000
11
-19.1292474833
21
-12.6246917517
31
0.0000000000
11
-19.1562601176
21
-12.9189233958
31
0.0000000000
11
-19.2006091215
21
-13.1940072787
31
0.0000000000
11
-19.2611005749
21
-13.4482291355
31
0.0000000000
11
-19.3364260704
21
-13.6803831432
31
0.0000000000
11
-19.4265012972
21
-13.8922711069
31
0.0000000000
11
-19.5318556441
21
-14.0846780045
31
0.0000000000
11
-19.6520352781
21
-14.2554149733
31
0.0000000000
11
-19.7867031051
21
-14.4026593385
31
0.0000000000
11
-19.9367814305
21
-14.5256405533
31
0.0000000000
11
-20.0866094850
21
-14.6148232407
31
0.0000000000
0
SPLINE
5
315
100
AcDbEntity
8
0
100
AcDbSpline
62
7
6
CONTINUOUS
70
0
71
3
72
15
73
11
74
9
42
0.0000001000
43
0.0000001000
44
0.0000000001
12
0.0000000000
22
0.2765187015
32
0.0000000000
13
-0.2476701277
23
0.1238065108
33
0.0000000000
40
0.0000000000
40
0.0000000000
40
0.0000000000
40
0.0000000000
40
0.1372038061
40
0.2753693855
40
0.4143226051
40
0.5538334203
40
0.6936450402
40
0.8334813200
40
0.9730599772
40
1.0000000000
40
1.0000000000
40
1.0000000000
40
1.0000000000
10
-8.1509023439
20
-31.2942297839
30
0.0000000000
10
-8.1509023439
20
-31.2815833111
30
0.0000000000
10
-8.1528356499
20
-31.2561596996
30
0.0000000000
10
-8.1615157774
20
-31.2188238284
30
0.0000000000
10
-8.1758803728
20
-31.1830441213
30
0.0000000000
10
-8.1956466853
20
-31.1497646520
30
0.0000000000
10
-8.2203546012
20
-31.1198625986
30
0.0000000000
10
-8.2493848501
20
-31.0941231535
30
0.0000000000
10
-8.2732367400
20
-31.0788089635
30
0.0000000000
10
-8.2868813886
20
-31.0717320016
30
0.0000000000
10
-8.2891054682
20
-31.0706202182
30
0.0000000000
11
-8.1509023439
21
-31.2942297839
31
0.0000000000
11
-8.1537811428
21
-31.2563997432
31
0.0000000000
11
-8.1624311670
21
-31.2191864779
31
0.0000000000
11
-8.1767471819
21
-31.1835299043
31
0.0000000000
11
-8.1964470174
21
-31.1503617212
31
0.0000000000
11
-8.2210731640
21
-31.1205592163
31
0.0000000000
11
-8.2500052314
21
-31.0949057727
31
0.0000000000
11
-8.2824842210
21
-31.0740545170
31
0.0000000000
11
-8.2891054682
21
-31.0706202182
31
0.0000000000
0
SPLINE
5
316
100
AcDbEntity
8
0
100
AcDbSpline
62
7
6
CONTINUOUS
70
0
71
3
72
15
73
11
74
9
42
0.0000001000
43
0.0000001000
44
0.0000000001
12
0.2439506744
22
0.1251622801
32
0.0000000000
13
-0.0000014006
23
0.2741811332
33
0.0000000000
40
0.0000000000
40
0.0000000000
40
0.0000000000
40
0.0000000000
40
0.0876378278
40
0.2288019357
40
0.3706942126
40
0.5134365898
40
0.6570525105
40
0.8015690322
40
0.9468109316
40
1.0000000000
40
1.0000000000
40
1.0000000000
40
1.0000000000
10
-8.2867826738
20
-31.8641949297
30
0.0000000000
10
-8.2796562381
20
-31.8605386130
30
0.0000000000
10
-8.2615120825
20
-31.8501001832
30
0.0000000000
10
-8.2344080850
20
-31.8296009367
30
0.0000000000
10
-8.2072907930
20
-31.8015241651
30
0.0000000000
10
-8.1847369827
20
-31.7693874385
30
0.0000000000
10
-8.1673802374
20
-31.7339009250
30
0.0000000000
10
-8.1557557427
20
-31.6959048820
30
0.0000000000
10
-8.1514309938
20
-31.6647567974
30
0.0000000000
10
-8.1509023240
20
-31.6466221108
30
0.0000000000
10
-8.1509023488
20
-31.6417609645
30
0.0000000000
11
-8.2867826738
21
-31.8641949297
31
0.0000000000
11
-8.2659643328
21
-31.8522173131
31
0.0000000000
11
-8.2351252848
21
-31.8288921818
31
0.0000000000
11
-8.2081244741
21
-31.8009363393
31
0.0000000000
11
-8.1856640396
21
-31.7689323365
31
0.0000000000
11
-8.1683799836
21
-31.7335945842
31
0.0000000000
11
-8.1567996131
21
-31.6957414525
31
0.0000000000
11
-8.1513275484
21
-31.6563359857
31
0.0000000000
11
-8.1509023488
21
-31.6417609645
31
0.0000000000
0
SPLINE
5
317
100
AcDbEntity
8
0
100
AcDbSpline
62
7
6
CONTINUOUS
70
0
71
3
72
13
73
9
74
7
42
0.0000001000
43
0.0000001000
44
0.0000000001
12
0.2050220842
22
-0.1025016079
32
0.0000000000
13
0.2060829017
23
0.1003804627
33
0.0000000000
40
0.0000000000
40
0.0000000000
40
0.0000000000
40
0.0000000000
40
0.1540119210
40
0.3230916544
40
0.4931831958
40
0.6643140446
40
0.8365165036
40
1.0000000000
40
1.0000000000
40
1.0000000000
40
1.0000000000
10
-10.6401967106
20
-32.9153852665
30
0.0000000000
10
-10.6296714289
20
-32.9206474230
30
0.0000000000
10
-10.6068088868
20
-32.9301276104
30
0.0000000000
10
-10.5701393424
20
-32.9392922090
30
0.0000000000
10
-10.5311837507
20
-32.9427848824
30
0.0000000000
10
-10.4919189767
20
-32.9401490628
30
0.0000000000
10
-10.4540451113
20
-32.9315034403
30
0.0000000000
10
-10.4301401120
20
-32.9220003130
30
0.0000000000
10
-10.4189097276
20
-32.9165301300
30
0.0000000000
11
-10.6401967106
21
-32.9153852665
31
0.0000000000
11
-10.6076114799
21
-32.9288955798
31
0.0000000000
11
-10.5700472196
21
-32.9382840198
31
0.0000000000
11
-10.5312513980
21
-32.9417621831
31
0.0000000000
11
-10.4921499694
21
-32.9391373920
31
0.0000000000
11
-10.4537041933
21
-32.9303608288
31
0.0000000000
11
-10.4189097276
21
-32.9165301300
31
0.0000000000
0
SPLINE
5
318
100
AcDbEntity
8
0
100
AcDbSpline
62
7
6
CONTINUOUS
70
0
71
3
72
14
73
10
74
8
42
0.0000001000
43
0.0000001000
44
0.0000000001
12
0.0000000000
22
-0.2764437653
32
0.0000000000
13
0.2475925103
23
-0.1237730878
33
0.0000000000
40
0.0000000000
40
0.0000000000
40
0.0000000000
40
0.0000000000
40
0.1550886622
40
0.3119188690
40
0.4696359821
40
0.6278490431
40
0.7864071094
40
0.9450859973
40
1.0000000000
40
1.0000000000
40
1.0000000000
40
1.0000000000
10
-12.1033781077
20
-32.0292861797
30
0.0000000000
10
-12.1033781077
20
-32.0435772776
30
0.0000000000
10
-12.1009014936
20
-32.0723805599
30
0.0000000000
10
-12.0897822562
20
-32.1144190480
30
0.0000000000
10
-12.0714237620
20
-32.1541731830
30
0.0000000000
10
-12.0463362630
20
-32.1902553859
30
0.0000000000
10
-12.0152744620
20
-32.2214720639
30
0.0000000000
10
-11.9870666850
20
-32.2412825409
30
0.0000000000
10
-11.9697061803
20
-32.2506302573
30
0.0000000000
10
-11.9651740817
20
-32.2528958826
30
0.0000000000
11
-12.1033781077
21
-32.0292861797
31
0.0000000000
11
-12.0997018690
21
-32.0720015702
31
0.0000000000
11
-12.0886181256
21
-32.1139155714
31
0.0000000000
11
-12.0703375694
21
-32.1534980630
31
0.0000000000
11
-12.0453700197
21
-32.1894083384
31
0.0000000000
11
-12.0144529982
21
-32.2204794841
31
0.0000000000
11
-11.9785554390
21
-32.2456900515
31
0.0000000000
11
-11.9651740817
21
-32.2528958826
31
0.0000000000
0
SPLINE
5
319
100
AcDbEntity
8
0
100
AcDbSpline
62
7
6
CONTINUOUS
70
0
71
3
72
10
73
6
74
4
42
0.0000001000
43
0.0000001000
44
0.0000000001
12
-0.0630782857
22
0.0131708046
32
0.0000000000
13
-0.0576482339
23
0.0288264875
33
0.0000000000
40
0.0000000000
40
0.0000000000
40
0.0000000000
40
0.0000000000
40
0.3605732069
40
0.7227505601
40
1.0000000000
40
1.0000000000
40
1.0000000000
40
1.0000000000
10
-10.5794916570
20
8.7030773216
30
0.0000000000
10
-10.5870731036
20
8.7046603347
30
0.0000000000
10
-10.6021318139
20
8.7085427299
30
0.0000000000
10
-10.6223686528
20
8.7158269659
30
0.0000000000
10
-10.6348797750
20
8.7215340664
30
0.0000000000
10
-10.6402074219
20
8.7241981089
30
0.0000000000
11
-10.5794916570
21
8.7030773216
31
0.0000000000
11
-10.6019907396
21
8.7088781532
31
0.0000000000
11
-10.6239497403
21
8.7167822577
31
0.0000000000
11
-10.6402074219
21
8.7241981089
31
0.0000000000
0
SPLINE
5
31A
100
AcDbEntity
8
0
100
AcDbSpline
62
7
6
CONTINUOUS
70
0
71
3
72
15
73
11
74
9
42
0.0000001000
43
0.0000001000
44
0.0000000001
12
0.2475544838
22
-0.1237895513
32
0.0000000000
13
-0.0000014603
23
-0.2767702945
33
0.0000000000
40
0.0000000000
40
0.0000000000
40
0.0000000000
40
0.0000000000
40
0.0928270957
40
0.2331953103
40
0.3743023727
40
0.5162612827
40
0.6590952310
40
0.8028330515
40
0.9473090559
40
1.0000000000
40
1.0000000000
40
1.0000000000
40
1.0000000000
10
-8.2890925788
20
10.5765095480
30
0.0000000000
10
-8.2814326575
20
10.5726792065
30
0.0000000000
10
-8.2626874571
20
10.5620696583
30
0.0000000000
10
-8.2349893904
20
10.5412693990
30
0.0000000000
10
-8.2076879140
20
10.5131611942
30
0.0000000000
10
-8.1849740298
20
10.4809485713
30
0.0000000000
10
-8.1674912226
20
10.4453488921
30
0.0000000000
10
-8.1557825161
20
10.4072103431
30
0.0000000000
10
-8.1514325771
20
10.3759559494
30
0.0000000000
10
-8.1509023225
20
10.3577666189
30
0.0000000000
10
-8.1509023482
20
10.3529055228
30
0.0000000000
11
-8.2890925788
21
10.5765095480
31
0.0000000000
11
-8.2667449404
21
10.5638603485
31
0.0000000000
11
-8.2357106635
21
10.5405537039
31
0.0000000000
11
-8.2085267774
21
10.5125668926
31
0.0000000000
11
-8.1859076489
21
10.4804883206
31
0.0000000000
11
-8.1684987069
21
10.4450391969
31
0.0000000000
11
-8.1568350715
21
10.4070461210
31
0.0000000000
11
-8.1513275390
21
10.3674803966
31
0.0000000000
11
-8.1509023482
21
10.3529055228
31
0.0000000000
0
SPLINE
5
31B
100
AcDbEntity
8
0
100
AcDbSpline
62
7
6
CONTINUOUS
70
0
71
3
72
12
73
8
74
6
42
0.0000001000
43
0.0000001000
44
0.0000000001
12
0.0000000000
22
-0.1717800015
32
0.0000000000
13
-0.1091598300
23
-0.1328577590
33
0.0000000000
40
0.0000000000
40
0.0000000000
40
0.0000000000
40
0.0000000000
40
0.2203789968
40
0.4423990769
40
0.6656689359
40
0.8898016135
40
1.0000000000
40
1.0000000000
40
1.0000000000
40
1.0000000000
10
-8.1509023439
20
10.0053743555
30
0.0000000000
10
-8.1509023439
20
9.9927554540
30
0.0000000000
10
-8.1528276128
20
9.9673819421
30
0.0000000000
10
-8.1614736462
20
9.9301139844
30
0.0000000000
10
-8.1757851248
20
9.8943901887
30
0.0000000000
10
-8.1921258876
20
9.8668133482
30
0.0000000000
10
-8.2037303959
20
9.8515466954
30
0.0000000000
10
-8.2077401416
20
9.8466664585
30
0.0000000000
11
-8.1509023439
21
10.0053743555
31
0.0000000000
11
-8.1537686040
21
9.9676263142
31
0.0000000000
11
-8.1623862125
21
9.9304740548
31
0.0000000000
11
-8.1766498622
21
9.8948717562
31
0.0000000000
11
-8.1962767964
21
9.8617485037
31
0.0000000000
11
-8.2077401416
21
9.8466664585
31
0.0000000000
0
SPLINE
5
31C
100
AcDbEntity
8
0
100
AcDbSpline
62
7
6
CONTINUOUS
70
0
71
3
72
13
73
9
74
7
42
0.0000001000
43
0.0000001000
44
0.0000000001
12
0.2058509839
22
0.1002765354
32
0.0000000000
13
0.2050420785
23
-0.1025286694
33
0.0000000000
40
0.0000000000
40
0.0000000000
40
0.0000000000
40
0.0000000000
40
0.1774292252
40
0.3593739775
40
0.5423737539
40
0.7260526449
40
0.9117680367
40
1.0000000000
40
1.0000000000
40
1.0000000000
40
1.0000000000
10
-9.8477121762
20
11.2463206502
30
0.0000000000
10
-9.8355375160
20
11.2522513128
30
0.0000000000
10
-9.8098517847
20
11.2622738194
30
0.0000000000
10
-9.7691594234
20
11.2708258394
30
0.0000000000
10
-9.7271198419
20
11.2725038266
30
0.0000000000
10
-9.6851071650
20
11.2670859357
30
0.0000000000
10
-9.6515516784
20
11.2567936730
30
0.0000000000
10
-9.6324497157
20
11.2481877962
30
0.0000000000
10
-9.6264192940
20
11.2451723609
30
0.0000000000
11
-9.8477121762
21
11.2463206502
31
0.0000000000
11
-9.8098632936
21
11.2610860855
31
0.0000000000
11
-9.7690933550
21
11.2696563585
31
0.0000000000
11
-9.7272241001
21
11.2713266412
31
0.0000000000
11
-9.6855114407
21
11.2659475751
31
0.0000000000
11
-9.6448564997
21
11.2534777034
31
0.0000000000
11
-9.6264192940
21
11.2451723609
31
0.0000000000
0
SPLINE
5
31D
100
AcDbEntity
8
0
100
AcDbSpline
62
7
6
CONTINUOUS
70
0
71
3
72
14
73
10
74
8
42
0.0000001000
43
0.0000001000
44
0.0000000001
12
0.0000000000
22
0.2738582159
32
0.0000000000
13
0.2439931792
23
0.1251474837
33
0.0000000000
40
0.0000000000
40
0.0000000000
40
0.0000000000
40
0.0000000000
40
0.1562679989
40
0.3143610164
40
0.4733409827
40
0.6327902268
40
0.7925669787
40
0.9524347924
40
1.0000000000
40
1.0000000000
40
1.0000000000
40
1.0000000000
10
-12.1033781077
20
9.9502658279
30
0.0000000000
10
-12.1033781077
20
9.9645309197
30
0.0000000000
10
-12.1009099967
20
9.9932879763
30
0.0000000000
10
-12.0898261895
20
10.0352661017
30
0.0000000000
10
-12.0715218265
20
10.0749736112
30
0.0000000000
10
-12.0465086391
20
10.1110214188
30
0.0000000000
10
-12.0155406738
20
10.1422209283
30
0.0000000000
10
-11.9879985386
20
10.1616281714
30
0.0000000000
10
-11.9713533034
20
10.1707211733
30
0.0000000000
10
-11.9674847746
20
10.1727053953
30
0.0000000000
11
-12.1033781077
21
9.9502658279
31
0.0000000000
11
-12.0997152365
21
9.9929040616
31
0.0000000000
11
-12.0886648703
21
10.0347651729
31
0.0000000000
11
-12.0704370540
21
10.0743037811
31
0.0000000000
11
-12.0455435890
21
10.1101796415
31
0.0000000000
11
-12.0147187374
21
10.1412349385
31
0.0000000000
11
-11.9789297861
21
10.1664527286
31
0.0000000000
11
-11.9674847746
21
10.1727053953
31
0.0000000000
0
SPLINE
5
31E
100
AcDbEntity
8
0
100
AcDbSpline
62
7
6
CONTINUOUS
70
0
71
3
72
14
73
10
74
8
42
0.0000001000
43
0.0000001000
44
0.0000000001
12
-0.2474251875
22
0.1236744997
32
0.0000000000
13
0.0000034737
23
0.2768655876
33
0.0000000000
40
0.0000000000
40
0.0000000000
40
0.0000000000
40
0.0000000000
40
0.1343949336
40
0.2816796374
40
0.4304346883
40
0.5807315230
40
0.7329732101
40
0.8871115235
40
1.0000000000
40
1.0000000000
40
1.0000000000
40
1.0000000000
10
-11.9651421551
20
9.3866655493
30
0.0000000000
10
-11.9762263857
20
9.3922059581
30
0.0000000000
10
-11.9986287880
20
9.4055676732
30
0.0000000000
10
-12.0292573325
20
9.4310480179
30
0.0000000000
10
-12.0562930067
20
9.4623072879
30
0.0000000000
10
-12.0780450037
20
9.4979884714
30
0.0000000000
10
-12.0937310978
20
9.5372650643
30
0.0000000000
10
-12.1018382900
20
9.5752426469
30
0.0000000000
10
-12.1033779634
20
9.5998855851
30
0.0000000000
10
-12.1033778327
20
9.6103038966
30
0.0000000000
11
-11.9651421551
21
9.3866655493
31
0.0000000000
11
-11.9970666674
21
9.4057103751
31
0.0000000000
11
-12.0283770850
21
9.4317551807
31
0.0000000000
11
-12.0552840758
21
9.4628674045
31
0.0000000000
11
-12.0769170835
21
9.4983529538
31
0.0000000000
11
-12.0925303126
21
9.5374480687
31
0.0000000000
11
-12.1014284849
21
9.5791308548
31
0.0000000000
11
-12.1033778327
21
9.6103038966
31
0.0000000000
0
SPLINE
5
31F
100
AcDbEntity
8
0
100
AcDbSpline
62
7
6
CONTINUOUS
70
0
71
3
72
9
73
5
74
3
42
0.0000001000
43
0.0000001000
44
0.0000000001
12
0.0493400830
22
0.0240351174
32
0.0000000000
13
0.0524116030
23
0.0162835663
33
0.0000000000
40
0.0000000000
40
0.0000000000
40
0.0000000000
40
0.0000000000
40
0.5100065127
40
1.0000000000
40
1.0000000000
40
1.0000000000
40
1.0000000000
10
-14.0571010236
20
17.5323013183
30
0.0000000000
10
-14.0487131023
20
17.5363873404
30
0.0000000000
10
-14.0319814480
20
17.5438299963
30
0.0000000000
10
-14.0147302803
20
17.5499838093
30
0.0000000000
10
-14.0061698323
20
17.5526434231
30
0.0000000000
11
-14.0571010236
21
17.5323013183
31
0.0000000000
11
-14.0315114681
21
17.5436437098
31
0.0000000000
11
-14.0061698323
21
17.5526434231
31
0.0000000000
0
SPLINE
5
320
100
AcDbEntity
8
0
100
AcDbSpline
62
7
6
CONTINUOUS
70
0
71
3
72
14
73
10
74
8
42
0.0000001000
43
0.0000001000
44
0.0000000001
12
0.2472867605
22
-0.1236433802
32
0.0000000000
13
0.0000162066
23
-0.2767915247
33
0.0000000000
40
0.0000000000
40
0.0000000000
40
0.0000000000
40
0.0000000000
40
0.1437525298
40
0.2886119094
40
0.4331946815
40
0.5818895261
40
0.7310838435
40
0.8800925955
40
1.0000000000
40
1.0000000000
40
1.0000000000
40
1.0000000000
10
-21.6534171095
20
17.2586717522
30
0.0000000000
10
-21.6415677437
20
17.2527470693
30
0.0000000000
10
-21.6186841099
20
17.2389316038
30
0.0000000000
10
-21.5881025976
20
17.2130144730
30
0.0000000000
10
-21.5617425958
20
17.1821988525
30
0.0000000000
10
-21.5404980681
20
17.1471761790
30
0.0000000000
10
-21.5251384489
20
17.1087598368
30
0.0000000000
10
-21.5168701492
20
17.0709456225
30
0.0000000000
10
-21.5152212891
20
17.0461348582
30
0.0000000000
10
-21.5152206413
20
17.0350717404
30
0.0000000000
11
-21.6534171095
21
17.2586717522
31
0.0000000000
11
-21.6193943153
21
17.2381282978
31
0.0000000000
11
-21.5888393409
21
17.2122362946
31
0.0000000000
11
-21.5628560586
21
17.1818594690
31
0.0000000000
11
-21.5415347347
21
17.1467102619
31
0.0000000000
11
-21.5262214209
21
17.1084095945
31
0.0000000000
11
-21.5174211942
21
17.0681632915
31
0.0000000000
11
-21.5152206413
21
17.0350717404
31
0.0000000000
0
SPLINE
5
321
100
AcDbEntity
8
0
100
AcDbSpline
62
7
6
CONTINUOUS
70
0
71
3
72
12
73
8
74
6
42
0.0000001000
43
0.0000001000
44
0.0000000001
12
0.0000004376
22
-0.1719756981
32
0.0000000000
13
-0.1091615697
23
-0.1328611563
33
0.0000000000
40
0.0000000000
40
0.0000000000
40
0.0000000000
40
0.0000000000
40
0.1973507834
40
0.4160346517
40
0.6354683606
40
0.8556414852
40
1.0000000000
40
1.0000000000
40
1.0000000000
40
1.0000000000
10
-21.5152204246
20
16.6875311255
30
0.0000000000
10
-21.5152203958
20
16.6762179459
30
0.0000000000
10
-21.5168414591
20
16.6523766691
30
0.0000000000
10
-21.5244891966
20
16.6166587905
30
0.0000000000
10
-21.5378755135
20
16.5812682540
30
0.0000000000
10
-21.5543453043
20
16.5520174619
30
0.0000000000
10
-21.5668060222
20
16.5352175108
30
0.0000000000
10
-21.5720588229
20
16.5288242977
30
0.0000000000
11
-21.5152204246
21
16.6875311255
31
0.0000000000
11
-21.5175202113
21
16.6537020491
31
0.0000000000
11
-21.5253861744
21
16.6169679200
31
0.0000000000
11
-21.5387223223
21
16.5817101334
31
0.0000000000
11
-21.5572786914
21
16.5487523123
31
0.0000000000
11
-21.5720588229
21
16.5288242977
31
0.0000000000
0
SPLINE
5
322
100
AcDbEntity
8
0
100
AcDbSpline
62
7
6
CONTINUOUS
70
0
71
3
72
13
73
9
74
7
42
0.0000001000
43
0.0000001000
44
0.0000000001
12
-0.2048013009
22
0.1024006505
32
0.0000000000
13
-0.2060921486
23
-0.1004031776
33
0.0000000000
40
0.0000000000
40
0.0000000000
40
0.0000000000
40
0.0000000000
40
0.1780417675
40
0.3605922599
40
0.5441907093
40
0.7285502135
40
0.9149400794
40
1.0000000000
40
1.0000000000
40
1.0000000000
40
1.0000000000
10
-22.9907432700
20
17.9273348325
30
0.0000000000
10
-23.0028976652
20
17.9334120301
30
0.0000000000
10
-23.0285687145
20
17.9437277774
30
0.0000000000
10
-23.0693149744
20
17.9526964318
30
0.0000000000
10
-23.1114833061
20
17.9547579337
30
0.0000000000
10
-23.1536898745
20
17.9496737156
30
0.0000000000
10
-23.1871915394
20
17.9396812087
30
0.0000000000
10
-23.2061933955
20
17.9313228686
30
0.0000000000
10
-23.2120367895
20
17.9284761065
30
0.0000000000
11
-22.9907432700
21
17.9273348325
31
0.0000000000
11
-23.0285715508
21
17.9425327288
31
0.0000000000
11
-23.0693934093
21
17.9515200067
31
0.0000000000
11
-23.1113827285
21
17.9535718340
31
0.0000000000
11
-23.1532934462
21
17.9485233872
31
0.0000000000
11
-23.1941915405
21
17.9363247189
31
0.0000000000
11
-23.2120367895
21
17.9284761065
31
0.0000000000
0
SPLINE
5
323
100
AcDbEntity
8
0
100
AcDbSpline
62
7
6
CONTINUOUS
70
0
71
3
72
14
73
10
74
8
42
0.0000001000
43
0.0000001000
44
0.0000000001
12
-0.2436935158
22
-0.1250193865
32
0.0000000000
13
-0.0000157062
23
-0.2742008108
33
0.0000000000
40
0.0000000000
40
0.0000000000
40
0.0000000000
40
0.0000000000
40
0.1443176514
40
0.2898310469
40
0.4351225178
40
0.5845208251
40
0.7343315250
40
0.8839295348
40
1.0000000000
40
1.0000000000
40
1.0000000000
40
1.0000000000
10
-25.3318103775
20
16.8548613526
30
0.0000000000
10
-25.3435334695
20
16.8488471845
30
0.0000000000
10
-25.3661602063
20
16.8348784690
30
0.0000000000
10
-25.3963536326
20
16.8088145086
30
0.0000000000
10
-25.4223324578
20
16.7779261339
30
0.0000000000
10
-25.4432084152
20
16.7429134146
30
0.0000000000
10
-25.4582291048
20
16.7045925632
30
0.0000000000
10
-25.4661483891
20
16.6673219491
30
0.0000000000
10
-25.4676954969
20
16.6430401787
30
0.0000000000
10
-25.4676961045
20
16.6324313068
30
0.0000000000
11
-25.3318103775
21
16.8548613526
31
0.0000000000
11
-25.3654432394
21
16.8340950210
31
0.0000000000
11
-25.3956135982
21
16.8080535669
31
0.0000000000
11
-25.4212268696
21
16.7775982406
31
0.0000000000
11
-25.4421822263
21
16.7424524355
31
0.0000000000
11
-25.4571562628
21
16.7042504826
31
0.0000000000
11
-25.4656723640
21
16.6641716869
31
0.0000000000
11
-25.4676961045
21
16.6324313068
31
0.0000000000
0
SPLINE
5
324
100
AcDbEntity
8
0
100
AcDbSpline
62
7
6
CONTINUOUS
70
0
71
3
72
14
73
10
74
8
42
0.0000001000
43
0.0000001000
44
0.0000000001
12
-0.2474251875
22
0.1236744997
32
0.0000000000
13
0.0000034737
23
0.2768655876
33
0.0000000000
40
0.0000000000
40
0.0000000000
40
0.0000000000
40
0.0000000000
40
0.1343949336
40
0.2816796374
40
0.4304346883
40
0.5807315230
40
0.7329732101
40
0.8871115235
40
1.0000000000
40
1.0000000000
40
1.0000000000
40
1.0000000000
10
-25.3294603195
20
16.0688246316
30
0.0000000000
10
-25.3405445501
20
16.0743650403
30
0.0000000000
10
-25.3629469524
20
16.0877267555
30
0.0000000000
10
-25.3935754969
20
16.1132071001
30
0.0000000000
10
-25.4206111711
20
16.1444663701
30
0.0000000000
10
-25.4423631681
20
16.1801475536
30
0.0000000000
10
-25.4580492622
20
16.2194241465
30
0.0000000000
10
-25.4661564544
20
16.2574017291
30
0.0000000000
10
-25.4676961279
20
16.2820446673
30
0.0000000000
10
-25.4676959971
20
16.2924629788
30
0.0000000000
11
-25.3294603195
21
16.0688246316
31
0.0000000000
11
-25.3613848318
21
16.0878694573
31
0.0000000000
11
-25.3926952494
21
16.1139142629
31
0.0000000000
11
-25.4196022402
21
16.1450264867
31
0.0000000000
11
-25.4412352479
21
16.1805120360
31
0.0000000000
11
-25.4568484771
21
16.2196071509
31
0.0000000000
11
-25.4657466493
21
16.2612899370
31
0.0000000000
11
-25.4676959971
21
16.2924629788
31
0.0000000000
0
SPLINE
5
325
100
AcDbEntity
8
0
100
AcDbSpline
62
7
6
CONTINUOUS
70
0
71
3
72
10
73
6
74
4
42
0.0000001000
43
0.0000001000
44
0.0000000001
12
-0.0630782857
22
0.0131708046
32
0.0000000000
13
-0.0576482339
23
0.0288264875
33
0.0000000000
40
0.0000000000
40
0.0000000000
40
0.0000000000
40
0.0000000000
40
0.3605732069
40
0.7227505601
40
1.0000000000
40
1.0000000000
40
1.0000000000
40
1.0000000000
10
-23.9438098214
20
15.3852364038
30
0.0000000000
10
-23.9513912680
20
15.3868194169
30
0.0000000000
10
-23.9664499783
20
15.3907018121
30
0.0000000000
10
-23.9866868173
20
15.3979860481
30
0.0000000000
10
-23.9991979395
20
15.4036931486
30
0.0000000000
10
-24.0045255863
20
15.4063571911
30
0.0000000000
11
-23.9438098214
21
15.3852364038
31
0.0000000000
11
-23.9663089040
21
15.3910372354
31
0.0000000000
11
-23.9882679047
21
15.3989413399
31
0.0000000000
11
-24.0045255863
21
15.4063571911
31
0.0000000000
0
SPLINE
5
326
100
AcDbEntity
8
0
100
AcDbSpline
62
7
6
CONTINUOUS
70
0
71
3
72
9
73
5
74
3
42
0.0000001000
43
0.0000001000
44
0.0000000001
12
0.0473762501
22
0.0233505524
32
0.0000000000
13
0.0502803636
23
0.0161753641
33
0.0000000000
40
0.0000000000
40
0.0000000000
40
0.0000000000
40
0.0000000000
40
0.5097876014
40
1.0000000000
40
1.0000000000
40
1.0000000000
40
1.0000000000
10
-8.5018231206
20
14.7546623668
30
0.0000000000
10
-8.4937725123
20
14.7586303075
30
0.0000000000
10
-8.4777131142
20
14.7658855825
30
0.0000000000
10
-8.4611631083
20
14.7719478125
30
0.0000000000
10
-8.4529470891
20
14.7745909339
30
0.0000000000
11
-8.5018231206
21
14.7546623668
31
0.0000000000
11
-8.4772712474
21
14.7657175534
31
0.0000000000
11
-8.4529470891
21
14.7745909339
31
0.0000000000
0
SPLINE
5
327
100
AcDbEntity
8
0
100
AcDbSpline
62
7
6
CONTINUOUS
70
0
71
3
72
8
73
4
74
2
42
0.0000001000
43
0.0000001000
44
0.0000000001
12
0.0000075722
22
0.0718432513
32
0.0000000000
13
-0.0075338391
23
0.0713991650
33
0.0000000000
40
0.0000000000
40
0.0000000000
40
0.0000000000
40
0.0000000000
40
1.0000000000
40
1.0000000000
40
1.0000000000
40
1.0000000000
10
-2.9946643509
20
12.6001265484
30
0.0000000000
10
-2.9946618268
20
12.6240742988
30
0.0000000000
10
-2.9960436456
20
12.6480188979
30
0.0000000000
10
-2.9985549253
20
12.6718186195
30
0.0000000000
11
-2.9946643509
21
12.6001265484
31
0.0000000000
11
-2.9985549253
21
12.6718186195
31
0.0000000000
0
SPLINE
5
328
100
AcDbEntity
8
0
100
AcDbSpline
62
7
6
CONTINUOUS
70
0
71
3
72
13
73
9
74
7
42
0.0000001000
43
0.0000001000
44
0.0000000001
12
0.0000479300
22
-0.2349708594
32
0.0000000000
13
-0.2079358975
23
-0.1076619626
33
0.0000000000
40
0.0000000000
40
0.0000000000
40
0.0000000000
40
0.0000000000
40
0.0660782003
40
0.2203620644
40
0.3869269828
40
0.5704434049
40
0.7747229397
40
1.0000000000
40
1.0000000000
40
1.0000000000
40
1.0000000000
10
-2.9946737318
20
11.6368623878
30
0.0000000000
10
-2.9946726761
20
11.6316869039
30
0.0000000000
10
-2.9957273376
20
11.6144288068
30
0.0000000000
10
-3.0038224103
20
11.5849453301
30
0.0000000000
10
-3.0236439987
20
11.5505241973
30
0.0000000000
10
-3.0527420925
20
11.5181590631
30
0.0000000000
10
-3.0904026170
20
11.4883515761
30
0.0000000000
10
-3.1193800460
20
11.4712877170
30
0.0000000000
10
-3.1349944419
20
11.4632031268
30
0.0000000000
11
-2.9946737318
21
11.6368623878
31
0.0000000000
11
-2.9956248943
21
11.6213787758
31
0.0000000000
11
-3.0049289680
21
11.5864711338
31
0.0000000000
11
-3.0240230584
21
11.5524627699
31
0.0000000000
11
-3.0524286160
21
11.5202191419
31
0.0000000000
11
-3.0896985377
21
11.4902366371
31
0.0000000000
11
-3.1349944419
21
11.4632031268
31
0.0000000000
0
SPLINE
5
329
100
AcDbEntity
8
0
100
AcDbSpline
62
7
6
CONTINUOUS
70
0
71
3
72
13
73
9
74
7
42
0.0000001000
43
0.0000001000
44
0.0000000001
12
-0.0000493358
22
0.2418626376
32
0.0000000000
13
-0.2155771372
23
0.1077885686
33
0.0000000000
40
0.0000000000
40
0.0000000000
40
0.0000000000
40
0.0000000000
40
0.0824118099
40
0.2333349650
40
0.3970029920
40
0.5776265293
40
0.7786277820
40
1.0000000000
40
1.0000000000
40
1.0000000000
40
1.0000000000
10
-2.9946737318
20
-24.0433842481
30
0.0000000000
10
-2.9946750871
20
-24.0367401356
30
0.0000000000
10
-2.9961595465
20
-24.0179264263
30
0.0000000000
10
-3.0057484934
20
-23.9871047939
30
0.0000000000
10
-3.0267513346
20
-23.9529141609
30
0.0000000000
10
-3.0569472721
20
-23.9208385841
30
0.0000000000
10
-3.0956197232
20
-23.8913769172
30
0.0000000000
10
-3.1252033552
20
-23.8745560194
30
0.0000000000
10
-3.1411109515
20
-23.8666022212
30
0.0000000000
11
-2.9946737318
21
-24.0433842481
31
0.0000000000
11
-2.9962415391
21
-24.0235376123
31
0.0000000000
11
-3.0067626405
21
-23.9887164761
31
0.0000000000
11
-3.0270408783
21
-23.9548799108
31
0.0000000000
11
-3.0565675674
21
-23.9228890663
31
0.0000000000
11
-3.0948783464
21
-23.8932363529
31
0.0000000000
11
-3.1411109515
21
-23.8666022212
31
0.0000000000
0
SPLINE
5
32A
100
AcDbEntity
8
0
100
AcDbSpline
62
7
6
CONTINUOUS
70
0
71
3
72
19
73
15
74
13
42
0.0000001000
43
0.0000001000
44
0.0000000001
12
-1.6392388543
22
-0.9558232936
32
0.0000000000
13
-0.0615618724
23
-1.8965059819
33
0.0000000000
40
0.0000000000
40
0.0000000000
40
0.0000000000
40
0.0000000000
40
0.0733560381
40
0.1551556283
40
0.2382544236
40
0.3226372788
40
0.4081268794
40
0.4944262556
40
0.5811634727
40
0.6679240473
40
0.7542968871
40
0.8399172863
40
0.9245126198
40
1.0000000000
40
1.0000000000
40
1.0000000000
40
1.0000000000
10
-29.3536676983
20
12.8310210947
30
0.0000000000
10
-29.3937503876
20
12.8076492914
30
0.0000000000
10
-29.4760527303
20
12.7538484152
30
0.0000000000
10
-29.5937027767
20
12.6593461813
30
0.0000000000
10
-29.7070126454
20
12.5494175837
30
0.0000000000
10
-29.8118773973
20
12.4283405119
30
0.0000000000
10
-29.9076949161
20
12.2974853578
30
0.0000000000
10
-29.9937563752
20
12.1582753306
30
0.0000000000
10
-30.0693022465
20
12.0121888200
30
0.0000000000
10
-30.1335558815
20
11.8607435412
30
0.0000000000
10
-30.1857475443
20
11.7054692385
30
0.0000000000
10
-30.2251196199
20
11.5478539724
30
0.0000000000
10
-30.2501054311
20
11.3943013863
30
0.0000000000
10
-30.2578236914
20
11.2931993291
30
0.0000000000
10
-30.2593727396
20
11.2454785730
30
0.0000000000
11
-29.3536676983
21
12.8310210947
31
0.0000000000
11
-29.4703027434
21
12.7550459702
31
0.0000000000
11
-29.5914684085
21
12.6580623745
31
0.0000000000
11
-29.7047791688
21
12.5484319989
31
0.0000000000
11
-29.8097211562
21
12.4275209206
31
0.0000000000
11
-29.9056416495
21
12.2967220199
31
0.0000000000
11
-29.9917984131
21
12.1574852550
31
0.0000000000
11
-30.0674076344
21
12.0113146675
31
0.0000000000
11
-30.1316714198
21
11.8597648437
31
0.0000000000
11
-30.1838060394
21
11.7044023322
31
0.0000000000
11
-30.2230479981
21
11.5467643632
31
0.0000000000
11
-30.2486409879
21
11.3883138768
31
0.0000000000
11
-30.2593727396
21
11.2454785730
31
0.0000000000
0
SPLINE
5
32B
100
AcDbEntity
8
0
100
AcDbSpline
62
7
6
CONTINUOUS
70
0
71
3
72
14
73
10
74
8
42
0.0000001000
43
0.0000001000
44
0.0000000001
12
-1.1557659283
22
-35.6002163911
32
0.0000000000
13
1.1959283560
23
-35.5988900199
33
0.0000000000
40
0.0000000000
40
0.0000000000
40
0.0000000000
40
0.0000000000
40
0.1446706599
40
0.2890281538
40
0.4326996305
40
0.5756779962
40
0.7179560000
40
0.8595271151
40
1.0000000000
40
1.0000000000
40
1.0000000000
40
1.0000000000
10
-30.2593725300
20
11.2454870884
30
0.0000000000
10
-30.3151076698
20
9.5287181554
30
0.0000000000
10
-30.4108811919
20
6.0983697323
30
0.0000000000
10
-30.5070065720
20
0.9617606630
30
0.0000000000
10
-30.5551695391
20
-4.1554341627
30
0.0000000000
10
-30.5552809611
20
-9.2481654215
30
0.0000000000
10
-30.5073396130
20
-14.3157351288
30
0.0000000000
10
-30.4114380717
20
-19.3528672072
30
0.0000000000
10
-30.3153524106
20
-22.7002564396
30
0.0000000000
10
-30.2593539085
20
-24.3671493668
30
0.0000000000
11
-30.2593725300
21
11.2454870884
31
0.0000000000
11
-30.4030765677
21
6.0944710071
31
0.0000000000
11
-30.4991709132
21
0.9535035781
31
0.0000000000
11
-30.5472189936
21
-4.1637010734
31
0.0000000000
11
-30.5472131331
21
-9.2564433897
31
0.0000000000
11
-30.4991522063
21
-14.3240116359
31
0.0000000000
11
-30.4030416357
21
-19.3657131326
31
0.0000000000
11
-30.2593539085
21
-24.3671493668
31
0.0000000000
0
SPLINE
5
32C
100
AcDbEntity
8
0
100
AcDbSpline
62
7
6
CONTINUOUS
70
0
71
3
72
16
73
12
74
10
42
0.0000001000
43
0.0000001000
44
0.0000000001
12
0.0378874726
22
-1.1277409945
32
0.0000000000
13
1.0099127999
23
-0.5048009375
33
0.0000000000
40
0.0000000000
40
0.0000000000
40
0.0000000000
40
0.0000000000
40
0.1238237390
40
0.2542516470
40
0.3792268275
40
0.4988872523
40
0.6132898544
40
0.7231186319
40
0.8296885909
40
0.9342080273
40
1.0000000000
40
1.0000000000
40
1.0000000000
40
1.0000000000
10
-30.2593539152
20
-24.3671481834
30
0.0000000000
10
-30.2577901257
20
-24.4136952189
30
0.0000000000
10
-30.2501967546
20
-24.5091916440
30
0.0000000000
10
-30.2241455351
20
-24.6497023012
30
0.0000000000
10
-30.1824002191
20
-24.7847907013
30
0.0000000000
10
-30.1268254533
20
-24.9082393466
30
0.0000000000
10
-30.0588597760
20
-25.0186993858
30
0.0000000000
10
-29.9800591847
20
-25.1154360261
30
0.0000000000
10
-29.8917424159
20
-25.1982306233
30
0.0000000000
10
-29.8066176484
20
-25.2587243834
30
0.0000000000
10
-29.7504913953
20
-25.2898619995
30
0.0000000000
10
-29.7283433435
20
-25.3009326160
30
0.0000000000
11
-30.2593539152
21
-24.3671481834
31
0.0000000000
11
-30.2480523963
21
-24.5064048309
31
0.0000000000
11
-30.2209331060
21
-24.6510336617
31
0.0000000000
11
-30.1790323129
21
-24.7856615060
31
0.0000000000
11
-30.1233903581
21
-24.9086630421
31
0.0000000000
11
-30.0555875690
21
-25.0184890085
31
0.0000000000
11
-29.9772210775
21
-25.1144693651
31
0.0000000000
11
-29.8894434608
21
-25.1966338890
31
0.0000000000
11
-29.7932930563
21
-25.2648986322
31
0.0000000000
11
-29.7283433435
21
-25.3009326160
31
0.0000000000
0
SPLINE
5
32D
100
AcDbEntity
8
0
100
AcDbSpline
62
7
6
CONTINUOUS
70
0
71
3
72
15
73
11
74
9
42
0.0000001000
43
0.0000001000
44
0.0000000001
12
0.7705219390
22
-0.3853436163
32
0.0000000000
13
0.7940118393
23
0.3332686344
33
0.0000000000
40
0.0000000000
40
0.0000000000
40
0.0000000000
40
0.0000000000
40
0.0705272486
40
0.1949252633
40
0.3216085121
40
0.4512662261
40
0.5845947735
40
0.7224838247
40
0.8660308643
40
1.0000000000
40
1.0000000000
40
1.0000000000
40
1.0000000000
10
-14.8946593069
20
-32.7177751706
30
0.0000000000
10
-14.8765450428
20
-32.7268342456
30
0.0000000000
10
-14.8256115303
20
-32.7501687283
30
0.0000000000
10
-14.7382511161
20
-32.7805975423
30
0.0000000000
10
-14.6312486752
20
-32.8039976906
30
0.0000000000
10
-14.5196734593
20
-32.8147447119
30
0.0000000000
10
-14.4043944202
20
-32.8122439514
30
0.0000000000
10
-14.2862205849
20
-32.7959539315
30
0.0000000000
10
-14.1704610612
20
-32.7665017703
30
0.0000000000
10
-14.0955489047
20
-32.7390178924
30
0.0000000000
10
-14.0600912114
20
-32.7241353221
30
0.0000000000
11
-14.8946593069
21
-32.7177751706
31
0.0000000000
11
-14.8394240239
21
-32.7430794805
31
0.0000000000
11
-14.7382923365
21
-32.7783379098
31
0.0000000000
11
-14.6317531698
21
-32.8016937688
31
0.0000000000
11
-14.5206455696
21
-32.8124816850
31
0.0000000000
11
-14.4058795992
21
-32.8101070408
31
0.0000000000
11
-14.2882549754
21
-32.7940396483
31
0.0000000000
11
-14.1684401187
21
-32.7637336275
31
0.0000000000
11
-14.0600912114
21
-32.7241353221
31
0.0000000000
0
SPLINE
5
32E
100
AcDbEntity
8
0
100
AcDbSpline
62
7
6
CONTINUOUS
70
0
71
3
72
10
73
6
74
4
42
0.0000001000
43
0.0000001000
44
0.0000000001
12
-0.0010000660
22
0.0130065049
32
0.0000000000
13
-0.0113777965
23
0.0062951535
33
0.0000000000
40
0.0000000000
40
0.0000000000
40
0.0000000000
40
0.0000000000
40
0.0766708862
40
0.8305484688
40
1.0000000000
40
1.0000000000
40
1.0000000000
40
1.0000000000
10
-7.7222754319
20
14.4815678914
30
0.0000000000
10
-7.7223009905
20
14.4819002981
30
0.0000000000
10
-7.7227153451
20
14.4855023375
30
0.0000000000
10
-7.7251271538
20
14.4898393483
30
0.0000000000
10
-7.7284646192
20
14.4920582177
30
0.0000000000
10
-7.7291072809
20
14.4924137922
30
0.0000000000
11
-7.7222754319
21
14.4815678914
31
0.0000000000
11
-7.7223910308
21
14.4825653328
31
0.0000000000
11
-7.7272770248
21
14.4911836530
31
0.0000000000
11
-7.7291072809
21
14.4924137922
31
0.0000000000
0
SPLINE
5
32F
100
AcDbEntity
8
0
100
AcDbSpline
62
7
6
CONTINUOUS
70
0
71
3
72
10
73
6
74
4
42
0.0000001000
43
0.0000001000
44
0.0000000001
12
-0.0009580392
22
0.0129440354
32
0.0000000000
13
-0.0113357510
23
0.0063711878
33
0.0000000000
40
0.0000000000
40
0.0000000000
40
0.0000000000
40
0.0000000000
40
0.0941232471
40
0.8508875680
40
1.0000000000
40
1.0000000000
40
1.0000000000
40
1.0000000000
10
-13.2772472730
20
17.2590677586
30
0.0000000000
10
-13.2772773309
20
17.2594738701
30
0.0000000000
10
-13.2777227846
20
17.2631433362
30
0.0000000000
10
-13.2802461913
20
17.2674121657
30
0.0000000000
10
-13.2835321988
20
17.2695809053
30
0.0000000000
10
-13.2840956326
20
17.2698975798
30
0.0000000000
11
-13.2772472730
21
17.2590677586
31
0.0000000000
11
-13.2773967033
21
17.2602852312
31
0.0000000000
11
-13.2824775061
21
17.2688209164
31
0.0000000000
11
-13.2840956326
21
17.2698975798
31
0.0000000000
0
SPLINE
5
330
100
AcDbEntity
8
0
100
AcDbSpline
62
7
6
CONTINUOUS
70
0
71
3
72
15
73
11
74
9
42
0.0000001000
43
0.0000001000
44
0.0000000001
12
-1.9168606222
22
-0.6474410633
32
0.0000000000
13
-1.8083577754
23
0.9041788877
33
0.0000000000
40
0.0000000000
40
0.0000000000
40
0.0000000000
40
0.0000000000
40
0.0539292177
40
0.1759854923
40
0.3010802580
40
0.4302029104
40
0.5641547343
40
0.7035358380
40
0.8487468135
40
1.0000000000
40
1.0000000000
40
1.0000000000
40
1.0000000000
10
-19.9120409013
20
-14.5078516700
30
0.0000000000
10
-19.9464991659
20
-14.5194903333
30
0.0000000000
10
-20.0600519964
20
-14.5541975692
30
0.0000000000
10
-20.2593281252
20
-14.5951984571
30
0.0000000000
10
-20.5127264923
20
-14.6153206883
30
0.0000000000
10
-20.7746983280
20
-14.6055015000
30
0.0000000000
10
-21.0435201678
20
-14.5658983865
30
0.0000000000
10
-21.3174650100
20
-14.4968461106
30
0.0000000000
10
-21.5947668515
20
-14.3988628914
30
0.0000000000
10
-21.7770248717
20
-14.3163645861
30
0.0000000000
10
-21.8681981637
20
-14.2707779401
30
0.0000000000
11
-19.9120409013
21
-14.5078516700
31
0.0000000000
11
-20.0163685548
21
-14.5397530830
31
0.0000000000
11
-20.2580145227
21
-14.5897996016
31
0.0000000000
11
-20.5101031493
21
-14.6102562577
31
0.0000000000
11
-20.7709995432
21
-14.6009903820
31
0.0000000000
11
-21.0390116913
21
-14.5620620673
31
0.0000000000
11
-21.3124014317
21
-14.4937237786
31
0.0000000000
11
-21.5893957273
21
-14.3964187160
31
0.0000000000
11
-21.8681981637
21
-14.2707779401
31
0.0000000000
0
SPLINE
5
331
100
AcDbEntity
8
0
100
AcDbSpline
62
7
6
CONTINUOUS
70
0
71
3
72
8
73
4
74
2
42
0.0000001000
43
0.0000001000
44
0.0000000001
12
0.0584117428
22
0.0299026936
32
0.0000000000
13
0.0584117269
23
0.0299027247
33
0.0000000000
40
0.0000000000
40
0.0000000000
40
0.0000000000
40
0.0000000000
40
1.0000000000
40
1.0000000000
40
1.0000000000
40
1.0000000000
10
-22.8042534424
20
-13.6447157421
30
0.0000000000
10
-22.7847828614
20
-13.6347481776
30
0.0000000000
10
-22.7653122832
20
-13.6247806078
30
0.0000000000
10
-22.7458417075
20
-13.6148130329
30
0.0000000000
11
-22.8042534424
21
-13.6447157421
31
0.0000000000
11
-22.7458417075
21
-13.6148130329
31
0.0000000000
0
SPLINE
5
332
100
AcDbEntity
8
0
100
AcDbSpline
62
7
6
CONTINUOUS
70
0
71
3
72
8
73
4
74
2
42
0.0000001000
43
0.0000001000
44
0.0000000001
12
0.1711126653
22
0.0875990726
32
0.0000000000
13
0.1711126723
23
0.0875990591
33
0.0000000000
40
0.0000000000
40
0.0000000000
40
0.0000000000
40
0.0000000000
40
1.0000000000
40
1.0000000000
40
1.0000000000
40
1.0000000000
10
-21.3692572247
20
-12.9100907750
30
0.0000000000
10
-21.3122196696
20
-12.8808910841
30
0.0000000000
10
-21.2551821147
20
-12.8516913928
30
0.0000000000
10
-21.1981445573
20
-12.8224917064
30
0.0000000000
11
-21.3692572247
21
-12.9100907750
31
0.0000000000
11
-21.1981445573
21
-12.8224917064
31
0.0000000000
0
SPLINE
5
333
100
AcDbEntity
8
0
100
AcDbSpline
62
7
6
CONTINUOUS
70
0
71
3
72
8
73
4
74
2
42
0.0000001000
43
0.0000001000
44
0.0000000001
12
-0.0596284623
22
-0.0181435257
32
0.0000000000
13
-0.0596343287
23
-0.0181242228
33
0.0000000000
40
0.0000000000
40
0.0000000000
40
0.0000000000
40
0.0000000000
40
1.0000000000
40
1.0000000000
40
1.0000000000
40
1.0000000000
10
-22.6073674086
20
-13.7386102428
30
0.0000000000
10
-22.6272435626
20
-13.7446580847
30
0.0000000000
10
-22.6471206935
20
-13.7507027149
30
0.0000000000
10
-22.6669988031
20
-13.7567441225
30
0.0000000000
11
-22.6073674086
21
-13.7386102428
31
0.0000000000
11
-22.6669988031
21
-13.7567441225
31
0.0000000000
0
SPLINE
5
334
100
AcDbEntity
8
0
100
AcDbSpline
62
7
6
CONTINUOUS
70
0
71
3
72
12
73
8
74
6
42
0.0000001000
43
0.0000001000
44
0.0000000001
12
0.2221397990
22
0.0690157895
32
0.0000000000
13
0.2082352426
23
-0.1040153569
33
0.0000000000
40
0.0000000000
40
0.0000000000
40
0.0000000000
40
0.0000000000
40
0.1674222120
40
0.3531927844
40
0.5606790767
40
0.7923182696
40
1.0000000000
40
1.0000000000
40
1.0000000000
40
1.0000000000
10
-14.0061698323
20
17.5526434231
30
0.0000000000
10
-13.9937727868
20
17.5564950152
30
0.0000000000
10
-13.9667081284
20
17.5618666634
30
0.0000000000
10
-13.9230206945
20
17.5622260581
30
0.0000000000
10
-13.8749773447
20
17.5545430095
30
0.0000000000
10
-13.8269852225
20
17.5394653260
30
0.0000000000
10
-13.7958064854
20
17.5256024255
30
0.0000000000
10
-13.7813909336
20
17.5184017291
30
0.0000000000
11
-14.0061698323
21
17.5526434231
31
0.0000000000
11
-13.9680117425
21
17.5604314697
31
0.0000000000
11
-13.9248037288
21
17.5610769317
31
0.0000000000
11
-13.8770973687
21
17.5537599899
31
0.0000000000
11
-13.8256018925
21
17.5378999261
31
0.0000000000
11
-13.7813909336
21
17.5184017291
31
0.0000000000
0
SPLINE
5
335
100
AcDbEntity
8
0
100
AcDbSpline
62
7
6
CONTINUOUS
70
0
71
3
72
14
73
10
74
8
42
0.0000001000
43
0.0000001000
44
0.0000000001
12
0.0000000000
22
-0.5697248835
32
0.0000000000
13
-0.4613111389
23
-0.3343328820
33
0.0000000000
40
0.0000000000
40
0.0000000000
40
0.0000000000
40
0.0000000000
40
0.1664811366
40
0.3247881912
40
0.4742565577
40
0.6157673712
40
0.7493945511
40
0.8770001955
40
1.0000000000
40
1.0000000000
40
1.0000000000
40
1.0000000000
10
-7.3309825129
20
-26.3041178815
30
0.0000000000
10
-7.3309825129
20
-26.3357340303
30
0.0000000000
10
-7.3337334333
20
-26.3974628050
30
0.0000000000
10
-7.3467836864
20
-26.4867419502
30
0.0000000000
10
-7.3685348929
20
-26.5694535082
30
0.0000000000
10
-7.3987381956
20
-26.6444749072
30
0.0000000000
10
-7.4371327358
20
-26.7109550462
30
0.0000000000
10
-7.4832391276
20
-26.7679131456
30
0.0000000000
10
-7.5192832796
20
-26.7994392640
30
0.0000000000
10
-7.5381970063
20
-26.8131468904
30
0.0000000000
11
-7.3309825129
21
-26.3041178815
31
0.0000000000
11
-7.3354280862
21
-26.3988620878
31
0.0000000000
11
-7.3487283553
21
-26.4880674900
31
0.0000000000
11
-7.3706645110
21
-26.5703494654
31
0.0000000000
11
-7.4010603199
21
-26.6450223457
31
0.0000000000
11
-7.4393926298
21
-26.7107986483
31
0.0000000000
11
-7.4853403212
21
-26.7671379398
31
0.0000000000
11
-7.5381970063
21
-26.8131468904
31
0.0000000000
0
SPLINE
5
336
100
AcDbEntity
8
0
100
AcDbSpline
62
7
6
CONTINUOUS
70
0
71
3
72
12
73
8
74
6
42
0.0000001000
43
0.0000001000
44
0.0000000001
12
0.2232175716
22
0.0718098524
32
0.0000000000
13
0.2099060047
23
-0.1048614227
33
0.0000000000
40
0.0000000000
40
0.0000000000
40
0.0000000000
40
0.0000000000
40
0.1663459446
40
0.3509032283
40
0.5570405402
40
0.7870913540
40
1.0000000000
40
1.0000000000
40
1.0000000000
40
1.0000000000
10
-8.4529470891
20
14.7745909339
30
0.0000000000
10
-8.4405699765
20
14.7785726931
30
0.0000000000
10
-8.4135109854
20
14.7842003623
30
0.0000000000
10
-8.3697571164
20
14.7848743930
30
0.0000000000
10
-8.3216041528
20
14.7774415567
30
0.0000000000
10
-8.2729909237
20
14.7623853149
30
0.0000000000
10
-8.2412780083
20
14.7483386431
30
0.0000000000
10
-8.2263810739
20
14.7408966753
30
0.0000000000
11
-8.4529470891
21
14.7745909339
31
0.0000000000
11
-8.4148021775
21
14.7827390398
31
0.0000000000
11
-8.3715370958
21
14.7836988720
31
0.0000000000
11
-8.3237201880
21
14.7766347088
31
0.0000000000
11
-8.2721014036
21
14.7609703118
31
0.0000000000
11
-8.2263810739
21
14.7408966753
31
0.0000000000
0
SPLINE
5
337
100
AcDbEntity
8
0
100
AcDbSpline
62
7
6
CONTINUOUS
70
0
71
3
72
14
73
10
74
8
42
0.0000001000
43
0.0000001000
44
0.0000000001
12
0.3780531231
22
-0.6520451851
32
0.0000000000
13
0.0000000000
23
-0.7537155215
33
0.0000000000
40
0.0000000000
40
0.0000000000
40
0.0000000000
40
0.0000000000
40
0.1487407018
40
0.2975143844
40
0.4447069046
40
0.5898240299
40
0.7311262915
40
0.8682668069
40
1.0000000000
40
1.0000000000
40
1.0000000000
40
1.0000000000
10
-7.5381970063
20
5.7222462961
30
0.0000000000
10
-7.5194530440
20
5.6899177433
30
0.0000000000
10
-7.4841852870
20
5.6239350281
30
0.0000000000
10
-7.4383531882
20
5.5219489471
30
0.0000000000
10
-7.3999863793
20
5.4178881459
30
0.0000000000
10
-7.3696083650
20
5.3131712219
30
0.0000000000
10
-7.3475584129
20
5.2089602913
30
0.0000000000
10
-7.3341367641
20
5.1066802746
30
0.0000000000
10
-7.3309825129
20
5.0390992447
30
0.0000000000
10
-7.3309825129
20
5.0060027939
30
0.0000000000
11
-7.5381970063
21
5.7222462961
31
0.0000000000
11
-7.4853403212
21
5.6233806605
31
0.0000000000
11
-7.4393926298
21
5.5210936775
31
0.0000000000
11
-7.4010603199
21
5.4169850650
31
0.0000000000
11
-7.3706645110
21
5.3119163758
31
0.0000000000
11
-7.3487283553
21
5.2076982447
31
0.0000000000
11
-7.3354280862
21
5.1051925734
31
0.0000000000
11
-7.3309825129
21
5.0060027939
31
0.0000000000
0
SPLINE
5
338
100
AcDbEntity
8
0
100
AcDbSpline
62
7
6
CONTINUOUS
70
0
71
3
72
18
73
14
74
12
42
0.0000001000
43
0.0000001000
44
0.0000000001
12
0.6585649027
22
-0.3292824513
32
0.0000000000
13
-0.0000000000
23
-0.7362979450
33
0.0000000000
40
0.0000000000
40
0.0000000000
40
0.0000000000
40
0.0000000000
40
0.0792653594
40
0.1637066815
40
0.2524724019
40
0.3451271580
40
0.4401120866
40
0.5368851972
40
0.6335836001
40
0.7296003675
40
0.8232033591
40
0.9137385471
40
1.0000000000
40
1.0000000000
40
1.0000000000
40
1.0000000000
10
-8.0443683016
20
8.7454933155
30
0.0000000000
10
-8.0269678404
20
8.7367930849
30
0.0000000000
10
-7.9922962680
20
8.7162198733
30
0.0000000000
10
-7.9431424640
20
8.6782843052
30
0.0000000000
10
-7.8960175077
20
8.6329805056
30
0.0000000000
10
-7.8519324311
20
8.5812838251
30
0.0000000000
10
-7.8116809836
20
8.5241378988
30
0.0000000000
10
-7.7761480276
20
8.4627990534
30
0.0000000000
10
-7.7459741304
20
8.3983757073
30
0.0000000000
10
-7.7218224699
20
8.3322862075
30
0.0000000000
10
-7.7041368989
20
8.2657360267
30
0.0000000000
10
-7.6932964458
20
8.2001585912
30
0.0000000000
10
-7.6907072009
20
8.1567390017
30
0.0000000000
10
-7.6907072009
20
8.1355676249
30
0.0000000000
11
-8.0443683016
21
8.7454933155
31
0.0000000000
11
-7.9940488194
21
8.7159267756
31
0.0000000000
11
-7.9447021697
21
8.6781046795
31
0.0000000000
11
-7.8974781661
21
8.6329210106
31
0.0000000000
11
-7.8531262231
21
8.5810839668
31
0.0000000000
11
-7.8127970227
21
8.5239458130
31
0.0000000000
11
-7.7770561645
21
8.4623040973
31
0.0000000000
11
-7.7468676310
21
8.3978221107
31
0.0000000000
11
-7.7226507967
21
8.3314022080
31
0.0000000000
11
-7.7050393796
21
8.2647706711
31
0.0000000000
11
-7.6943047944
21
8.1989797853
31
0.0000000000
11
-7.6907072009
21
8.1355676249
31
0.0000000000
0
SPLINE
5
339
100
AcDbEntity
8
0
100
AcDbSpline
62
7
6
CONTINUOUS
70
0
71
3
72
14
73
10
74
8
42
0.0000001000
43
0.0000001000
44
0.0000000001
12
0.0000000000
22
-0.3164868317
32
0.0000000000
13
-0.2844942199
23
-0.1402506731
33
0.0000000000
40
0.0000000000
40
0.0000000000
40
0.0000000000
40
0.0000000000
40
0.1893369747
40
0.3665734988
40
0.5311546098
40
0.6848972396
40
0.8292569482
40
0.9687228975
40
1.0000000000
40
1.0000000000
40
1.0000000000
40
1.0000000000
10
-7.6907072009
20
-29.7810648058
30
0.0000000000
10
-7.6907072009
20
-29.8010390255
30
0.0000000000
10
-7.6928836268
20
-29.8397637909
30
0.0000000000
10
-7.7033659173
20
-29.8949911478
30
0.0000000000
10
-7.7208230062
20
-29.9445151511
30
0.0000000000
10
-7.7449843667
20
-29.9872600226
30
0.0000000000
10
-7.7755230965
20
-30.0223427127
30
0.0000000000
10
-7.8026281766
20
-30.0421015356
30
0.0000000000
10
-7.8186081376
20
-30.0505112761
30
0.0000000000
10
-7.8215741892
20
-30.0519734877
30
0.0000000000
11
-7.6907072009
21
-29.7810648058
31
0.0000000000
11
-7.6943047944
21
-29.8408793726
31
0.0000000000
11
-7.7050393796
21
-29.8959356733
31
0.0000000000
11
-7.7226507967
21
-29.9449557931
31
0.0000000000
11
-7.7468676310
21
-29.9871588614
31
0.0000000000
11
-7.7770561645
21
-30.0214523145
31
0.0000000000
11
-7.8127970227
21
-30.0473531720
31
0.0000000000
11
-7.8215741892
21
-30.0519734877
31
0.0000000000
0
SPLINE
5
33A
100
AcDbEntity
8
0
100
AcDbSpline
62
7
6
CONTINUOUS
70
0
71
3
72
8
73
4
74
2
42
0.0000001000
43
0.0000001000
44
0.0000000001
12
0.0055971906
22
0.0084399740
32
0.0000000000
13
-0.0019635754
23
0.0093247255
33
0.0000000000
40
0.0000000000
40
0.0000000000
40
0.0000000000
40
0.0000000000
40
1.0000000000
40
1.0000000000
40
1.0000000000
40
1.0000000000
10
-2.9985549253
20
-25.0160767319
30
0.0000000000
10
-2.9966891951
20
-25.0132634072
30
0.0000000000
10
-2.9939606139
20
-25.0097927853
30
0.0000000000
10
-2.9946151390
20
-25.0066845435
30
0.0000000000
11
-2.9985549253
21
-25.0160767319
31
0.0000000000
11
-2.9946151390
21
-25.0066845435
31
0.0000000000
0
SPLINE
5
33B
100
AcDbEntity
8
0
100
AcDbSpline
62
7
6
CONTINUOUS
70
0
71
3
72
9
73
5
74
3
42
0.0000001000
43
0.0000001000
44
0.0000000001
12
-0.0110755293
22
-0.0399089786
32
0.0000000000
13
0.0000076398
23
-0.0414526487
33
0.0000000000
40
0.0000000000
40
0.0000000000
40
0.0000000000
40
0.0000000000
40
0.7184555853
40
1.0000000000
40
1.0000000000
40
1.0000000000
40
1.0000000000
10
-19.8864400936
20
14.6088709353
30
0.0000000000
10
-19.8890925189
20
14.5993133257
30
0.0000000000
10
-19.8909062840
20
14.5854984518
30
0.0000000000
10
-19.8912644308
20
14.5716742803
30
0.0000000000
10
-19.8912637138
20
14.5677840264
30
0.0000000000
11
-19.8864400936
21
14.6088709353
31
0.0000000000
11
-19.8909473794
21
14.5794577798
31
0.0000000000
11
-19.8912637138
21
14.5677840264
31
0.0000000000
0
SPLINE
5
33C
100
AcDbEntity
8
0
100
AcDbSpline
62
7
6
CONTINUOUS
70
0
71
3
72
15
73
11
74
9
42
0.0000001000
43
0.0000001000
44
0.0000000001
12
0.0548220266
22
0.1975428018
32
0.0000000000
13
0.1824057236
23
0.0935775889
33
0.0000000000
40
0.0000000000
40
0.0000000000
40
0.0000000000
40
0.0000000000
40
0.1029198789
40
0.2104743227
40
0.3238712057
40
0.4440050729
40
0.5714710305
40
0.7065956721
40
0.8494731527
40
1.0000000000
40
1.0000000000
40
1.0000000000
40
1.0000000000
10
-19.8864400936
20
14.6088709353
30
0.0000000000
10
-19.8845593348
20
14.6156479623
30
0.0000000000
10
-19.8796430264
20
14.6292289743
30
0.0000000000
10
-19.8692551643
20
14.6488412426
30
0.0000000000
10
-19.8558067018
20
14.6679476795
30
0.0000000000
10
-19.8393972390
20
14.6864292621
30
0.0000000000
10
-19.8201369340
20
14.7041801565
30
0.0000000000
10
-19.7981499885
20
14.7210953955
30
0.0000000000
10
-19.7735772418
20
14.7370729905
30
0.0000000000
10
-19.7560181382
20
14.7467891148
30
0.0000000000
10
-19.7468658187
20
14.7514844279
30
0.0000000000
11
-19.8864400936
21
14.6088709353
31
0.0000000000
11
-19.8793126423
21
14.6287301292
31
0.0000000000
11
-19.8690575135
21
14.6482498009
31
0.0000000000
11
-19.8557404379
21
14.6673048595
31
0.0000000000
11
-19.8394467670
21
14.6857731937
31
0.0000000000
11
-19.8202809260
21
14.7035364532
31
0.0000000000
11
-19.7983657409
21
14.7204808089
31
0.0000000000
11
-19.7738416531
21
14.7364976798
31
0.0000000000
11
-19.7468658187
21
14.7514844279
31
0.0000000000
0
SPLINE
5
33D
100
AcDbEntity
8
0
100
AcDbSpline
62
7
6
CONTINUOUS
70
0
71
3
72
11
73
7
74
5
42
0.0000001000
43
0.0000001000
44
0.0000000001
12
-0.3714534514
22
0.3656050754
32
0.0000000000
13
-0.4665225503
23
0.2329349302
33
0.0000000000
40
0.0000000000
40
0.0000000000
40
0.0000000000
40
0.0000000000
40
0.3313178509
40
0.6331039431
40
0.9049039262
40
1.0000000000
40
1.0000000000
40
1.0000000000
40
1.0000000000
10
-2.9985549253
20
12.6718186195
30
0.0000000000
10
-3.0395779784
20
12.7121957821
30
0.0000000000
10
-3.1211516203
20
12.7862175243
30
0.0000000000
10
-3.2466083887
20
12.8813015632
30
0.0000000000
10
-3.3455075498
20
12.9425993900
30
0.0000000000
10
-3.4019920180
20
12.9722347978
30
0.0000000000
10
-3.4167801723
20
12.9796185303
30
0.0000000000
11
-2.9985549253
21
12.6718186195
31
0.0000000000
11
-3.1266548182
21
12.7876170338
31
0.0000000000
11
-3.2522361073
21
12.8823236456
31
0.0000000000
11
-3.3728606479
21
12.9566037769
31
0.0000000000
11
-3.4167801723
21
12.9796185303
31
0.0000000000
0
SPLINE
5
33E
100
AcDbEntity
8
0
100
AcDbSpline
62
7
6
CONTINUOUS
70
0
71
3
72
13
73
9
74
7
42
0.0000001000
43
0.0000001000
44
0.0000000001
12
0.4109068760
22
0.2010615886
32
0.0000000000
13
0.4098481622
23
-0.2048837263
33
0.0000000000
40
0.0000000000
40
0.0000000000
40
0.0000000000
40
0.0000000000
40
0.2005143800
40
0.3892497752
40
0.5669911938
40
0.7362259433
40
0.8992258387
40
1.0000000000
40
1.0000000000
40
1.0000000000
40
1.0000000000
10
-7.0834958444
20
14.5671035548
30
0.0000000000
10
-7.0560315986
20
14.5805421347
30
0.0000000000
10
-7.0011418312
20
14.6036035050
30
0.0000000000
10
-6.9174095252
20
14.6262462543
30
0.0000000000
10
-6.8358924110
20
14.6354953561
30
0.0000000000
10
-6.7578411032
20
14.6310761386
30
0.0000000000
10
-6.6933501469
20
14.6151301977
30
0.0000000000
10
-6.6562080273
20
14.5993244679
30
0.0000000000
10
-6.6424406590
20
14.5924421394
30
0.0000000000
11
-7.0834958444
21
14.5671035548
31
0.0000000000
11
-6.9987924884
21
14.6023067300
31
0.0000000000
11
-6.9153497515
21
14.6244818198
31
0.0000000000
11
-6.8345175962
21
14.6332812543
31
0.0000000000
11
-6.7572413536
21
14.6285945364
31
0.0000000000
11
-6.6849009919
21
14.6105123494
31
0.0000000000
11
-6.6424406590
21
14.5924421394
31
0.0000000000
0
SPLINE
5
33F
100
AcDbEntity
8
0
100
AcDbSpline
62
7
6
CONTINUOUS
70
0
71
3
72
15
73
11
74
9
42
0.0000001000
43
0.0000001000
44
0.0000000001
12
0.0000000000
22
0.6311300022
32
0.0000000000
13
-0.5654420458
23
0.2826653478
33
0.0000000000
40
0.0000000000
40
0.0000000000
40
0.0000000000
40
0.0000000000
40
0.1606293349
40
0.3126800366
40
0.4557227302
40
0.5905083928
40
0.7175351878
40
0.8389320932
40
0.9563750069
40
1.0000000000
40
1.0000000000
40
1.0000000000
40
1.0000000000
10
-10.6252003428
20
16.1728995645
30
0.0000000000
10
-10.6252003428
20
16.2066922287
30
0.0000000000
10
-10.6283354234
20
16.2725335724
30
0.0000000000
10
-10.6432666485
20
16.3674426210
30
0.0000000000
10
-10.6681416781
20
16.4546544664
30
0.0000000000
10
-10.7026589328
20
16.5328522043
30
0.0000000000
10
-10.7464604657
20
16.6009668569
30
0.0000000000
10
-10.7989578458
20
16.6578376032
30
0.0000000000
10
-10.8470573429
20
16.6933647028
30
0.0000000000
10
-10.8768588777
20
16.7096520583
30
0.0000000000
10
-10.8850813461
20
16.7137624829
30
0.0000000000
11
-10.6252003428
21
16.1728995645
31
0.0000000000
11
-10.6302976818
21
16.2741493274
31
0.0000000000
11
-10.6455283778
21
16.3688967236
31
0.0000000000
11
-10.6706368912
21
16.4556133687
31
0.0000000000
11
-10.7053357735
21
16.5332820813
31
0.0000000000
11
-10.7489996789
21
16.6005186773
31
0.0000000000
11
-10.8011786688
21
16.6566217326
31
0.0000000000
11
-10.8608896399
21
16.7005379394
31
0.0000000000
11
-10.8850813461
21
16.7137624829
31
0.0000000000
0
SPLINE
5
340
100
AcDbEntity
8
0
100
AcDbSpline
62
7
6
CONTINUOUS
70
0
71
3
72
14
73
10
74
8
42
0.0000001000
43
0.0000001000
44
0.0000000001
12
0.2708906112
22
0.1349093253
32
0.0000000000
13
0.2717712229
23
-0.1267148392
33
0.0000000000
40
0.0000000000
40
0.0000000000
40
0.0000000000
40
0.0000000000
40
0.2329202022
40
0.4399164115
40
0.6194083446
40
0.7700461865
40
0.8880329346
40
0.9699863429
40
1.0000000000
40
1.0000000000
40
1.0000000000
40
1.0000000000
10
-14.3931024755
20
18.2219068703
30
0.0000000000
10
-14.3720705102
20
18.2323812394
30
0.0000000000
10
-14.3321765116
20
18.2518382759
30
0.0000000000
10
-14.2754733681
20
18.2780404045
30
0.0000000000
10
-14.2255274406
20
18.2992647403
30
0.0000000000
10
-14.1835358499
20
18.3154359733
30
0.0000000000
10
-14.1488889898
20
18.3253440043
30
0.0000000000
10
-14.1275135051
20
18.3301501953
30
0.0000000000
10
-14.1141998395
20
18.3282036477
30
0.0000000000
10
-14.1114808901
20
18.3269359225
30
0.0000000000
11
-14.3931024755
21
18.2219068703
31
0.0000000000
11
-14.3297196943
21
18.2527472140
31
0.0000000000
11
-14.2727955042
21
18.2788948843
31
0.0000000000
11
-14.2227741593
21
18.3000704079
31
0.0000000000
11
-14.1800436307
21
18.3159532382
31
0.0000000000
11
-14.1457367510
21
18.3258498456
31
0.0000000000
11
-14.1211287166
21
18.3289391991
31
0.0000000000
11
-14.1114808901
21
18.3269359225
31
0.0000000000
0
SPLINE
5
341
100
AcDbEntity
8
0
100
AcDbSpline
62
7
6
CONTINUOUS
70
0
71
3
72
18
73
14
74
12
42
0.0000001000
43
0.0000001000
44
0.0000000001
12
0.6530989255
22
0.3341973544
32
0.0000000000
13
0.0000000000
23
0.7336389290
33
0.0000000000
40
0.0000000000
40
0.0000000000
40
0.0000000000
40
0.0000000000
40
0.0792355011
40
0.1636580329
40
0.2524120078
40
0.3450568953
40
0.4400366313
40
0.5368064577
40
0.6335094559
40
0.7295356351
40
0.8231568438
40
0.9137140376
40
1.0000000000
40
1.0000000000
40
1.0000000000
40
1.0000000000
10
-3.7288855320
20
10.4132788610
30
0.0000000000
10
-3.7116359918
20
10.4221056259
30
0.0000000000
10
-3.6772832165
20
10.4429002330
30
0.0000000000
10
-3.6286169606
20
10.4810698323
30
0.0000000000
10
-3.5819839635
20
10.5265253884
30
0.0000000000
10
-3.5383776575
20
10.5782953513
30
0.0000000000
10
-3.4985776151
20
10.6354418374
30
0.0000000000
10
-3.4634527922
20
10.6967175361
30
0.0000000000
10
-3.4336321352
20
10.7610232894
30
0.0000000000
10
-3.4097668831
20
10.8269532711
30
0.0000000000
10
-3.3922930599
20
10.8933130104
30
0.0000000000
10
-3.3815830222
20
10.9586828948
30
0.0000000000
10
-3.3790248594
20
11.0019565751
30
0.0000000000
10
-3.3790248594
20
11.0230574888
30
0.0000000000
11
-3.7288855320
21
10.4132788610
31
0.0000000000
11
-3.6790280344
21
10.4431679172
31
0.0000000000
11
-3.6301671614
21
10.4812289282
31
0.0000000000
11
-3.5834331022
21
10.5265685224
31
0.0000000000
11
-3.5395617322
21
10.5784813126
31
0.0000000000
11
-3.4996832864
21
10.6356226101
31
0.0000000000
11
-3.4643527676
21
10.6972011644
31
0.0000000000
11
-3.4345165876
21
10.7615673614
31
0.0000000000
11
-3.4105866263
21
10.8278271093
31
0.0000000000
11
-3.3931852255
21
10.8942703599
31
0.0000000000
11
-3.3825793587
21
10.9598546205
31
0.0000000000
11
-3.3790248594
21
11.0230574888
31
0.0000000000
0
SPLINE
5
342
100
AcDbEntity
8
0
100
AcDbSpline
62
7
6
CONTINUOUS
70
0
71
3
72
17
73
13
74
11
42
0.0000001000
43
0.0000001000
44
0.0000000001
12
1.0551396127
22
0.5296213678
32
0.0000000000
13
0.9898942831
23
0.6433721347
33
0.0000000000
40
0.0000000000
40
0.0000000000
40
0.0000000000
40
0.0000000000
40
0.0675213051
40
0.1418306670
40
0.2230260770
40
0.3118684727
40
0.4084188083
40
0.5131016756
40
0.6257109067
40
0.7455368430
40
0.8710698098
40
1.0000000000
40
1.0000000000
40
1.0000000000
40
1.0000000000
10
-4.0165299005
20
-25.6130318178
30
0.0000000000
10
-3.9927817660
20
-25.6011115758
30
0.0000000000
10
-3.9431153867
20
-25.5756386500
30
0.0000000000
10
-3.8655795638
20
-25.5345065938
30
0.0000000000
10
-3.7811814592
20
-25.4884208987
30
0.0000000000
10
-3.6896544929
20
-25.4371411511
30
0.0000000000
10
-3.5906344115
20
-25.3803371252
30
0.0000000000
10
-3.4841028935
20
-25.3178421744
30
0.0000000000
10
-3.3703173766
20
-25.2496219525
30
0.0000000000
10
-3.2501995241
20
-25.1760188905
30
0.0000000000
10
-3.1253826133
20
-25.0978052431
30
0.0000000000
10
-3.0410973447
20
-25.0437267625
30
0.0000000000
10
-2.9985549253
20
-25.0160767319
30
0.0000000000
11
-4.0165299005
21
-25.6130318178
31
0.0000000000
11
-3.9455736706
21
-25.5767026559
31
0.0000000000
11
-3.8680534618
21
-25.5356281268
31
0.0000000000
11
-3.7839032062
21
-25.4897178502
31
0.0000000000
11
-3.6923846101
21
-25.4384761181
31
0.0000000000
11
-3.5934993272
21
-25.3817766442
31
0.0000000000
11
-3.4868901896
21
-25.3192574117
31
0.0000000000
11
-3.3728606479
21
-25.2509050146
31
0.0000000000
11
-3.2522361073
21
-25.1769961507
31
0.0000000000
11
-3.1266548182
21
-25.0982950523
31
0.0000000000
11
-2.9985549253
21
-25.0160767319
31
0.0000000000
0
SPLINE
5
343
100
AcDbEntity
8
0
100
AcDbSpline
62
9
6
CONTINUOUS
70
0
71
3
72
13
73
9
74
7
42
0.0000001000
43
0.0000001000
44
0.0000000001
12
0.2101879257
22
0.1225972081
32
0.0000000000
13
0.2187261972
23
-0.1053806163
33
0.0000000000
40
0.0000000000
40
0.0000000000
40
0.0000000000
40
0.0000000000
40
0.0115934350
40
0.1876347380
40
0.3702861887
40
0.5646089199
40
0.7739742056
40
1.0000000000
40
1.0000000000
40
1.0000000000
40
1.0000000000
10
-29.3536675717
20
12.8310208777
30
0.0000000000
10
-29.3528553050
20
12.8314946519
30
0.0000000000
10
-29.3396477741
20
12.8390569861
30
0.0000000000
10
-29.3116664181
20
12.8505646985
30
0.0000000000
10
-29.2671039079
20
12.8576436223
30
0.0000000000
10
-29.2194142615
20
12.8552078217
30
0.0000000000
10
-29.1695861896
20
12.8434794708
30
0.0000000000
10
-29.1368033512
20
12.8301872744
30
0.0000000000
10
-29.1203240971
20
12.8222476952
30
0.0000000000
11
-29.3536675717
21
12.8310208777
31
0.0000000000
11
-29.3512194823
21
12.8324225551
31
0.0000000000
11
-29.3117327143
21
12.8487801367
31
0.0000000000
11
-29.2679776995
21
12.8559937496
31
0.0000000000
11
-29.2208441301
21
12.8539167161
31
0.0000000000
11
-29.1712903958
21
12.8425912693
31
0.0000000000
11
-29.1203240971
21
12.8222476952
31
0.0000000000
0
SPLINE
5
344
100
AcDbEntity
8
0
100
AcDbSpline
62
9
6
CONTINUOUS
70
0
71
3
72
13
73
9
74
7
42
0.0000001000
43
0.0000001000
44
0.0000000001
12
0.0080751905
22
-0.2417710549
32
0.0000000000
13
0.2156181963
23
-0.1079921319
33
0.0000000000
40
0.0000000000
40
0.0000000000
40
0.0000000000
40
0.0000000000
40
0.0675610516
40
0.2247009876
40
0.3924610559
40
0.5760093709
40
0.7782297886
40
1.0000000000
40
1.0000000000
40
1.0000000000
40
1.0000000000
10
-30.2593460358
20
-24.3671491038
30
0.0000000000
10
-30.2591641797
20
-24.3725938727
30
0.0000000000
10
-30.2574982368
20
-24.3906658357
30
0.0000000000
10
-30.2484102476
20
-24.4212506734
30
0.0000000000
10
-30.2274189184
20
-24.4567239482
30
0.0000000000
10
-30.1972092694
20
-24.4897438699
30
0.0000000000
10
-30.1584911356
20
-24.5198101989
30
0.0000000000
10
-30.1288293380
20
-24.5368131823
30
0.0000000000
10
-30.1128901070
20
-24.5447963282
30
0.0000000000
11
-30.2593460358
21
-24.3671491038
31
0.0000000000
11
-30.2578425937
21
-24.3834106006
31
0.0000000000
11
-30.2472783617
21
-24.4198026217
31
0.0000000000
11
-30.2270059592
21
-24.4548121841
31
0.0000000000
11
-30.1974289767
21
-24.4877423045
31
0.0000000000
11
-30.1591362439
21
-24.5179373976
31
0.0000000000
11
-30.1128901070
21
-24.5447963282
31
0.0000000000
0
SPLINE
5
345
100
AcDbEntity
8
0
100
AcDbSpline
62
9
6
CONTINUOUS
70
0
71
3
72
12
73
8
74
6
42
0.0000001000
43
0.0000001000
44
0.0000000001
12
-0.1029861430
22
0.0515381947
32
0.0000000000
13
-0.1030131708
23
-0.0507725798
33
0.0000000000
40
0.0000000000
40
0.0000000000
40
0.0000000000
40
0.0000000000
40
0.0706737044
40
0.2820803272
40
0.5040720840
40
0.7424554046
40
1.0000000000
40
1.0000000000
40
1.0000000000
40
1.0000000000
10
-8.2891003325
20
10.5765099018
30
0.0000000000
10
-8.2915264699
20
10.5777240335
30
0.0000000000
10
-8.3014180129
20
10.5821518331
30
0.0000000000
10
-8.3203281331
20
10.5869166407
30
0.0000000000
10
-8.3462658665
20
10.5870695473
30
0.0000000000
10
-8.3733387399
20
10.5814418098
30
0.0000000000
10
-8.3910304095
20
10.5742815134
30
0.0000000000
10
-8.3998739046
20
10.5699227789
30
0.0000000000
11
-8.2891003325
21
10.5765099018
31
0.0000000000
11
-8.2965263674
21
10.5798321885
31
0.0000000000
11
-8.3200440196
21
10.5858652842
31
0.0000000000
11
-8.3455366225
21
10.5862023398
31
0.0000000000
11
-8.3723828329
21
10.5808358321
31
0.0000000000
11
-8.3998739046
21
10.5699227789
31
0.0000000000
0
SPLINE
5
346
100
AcDbEntity
8
0
100
AcDbSpline
62
9
6
CONTINUOUS
70
0
71
3
72
12
73
8
74
6
42
0.0000001000
43
0.0000001000
44
0.0000000001
12
-0.1029861430
22
0.0515381947
32
0.0000000000
13
-0.1030131708
23
-0.0507725798
33
0.0000000000
40
0.0000000000
40
0.0000000000
40
0.0000000000
40
0.0000000000
40
0.0706737044
40
0.2820803272
40
0.5040720840
40
0.7424554046
40
1.0000000000
40
1.0000000000
40
1.0000000000
40
1.0000000000
10
-9.6264264931
20
11.2451729820
30
0.0000000000
10
-9.6288526305
20
11.2463871137
30
0.0000000000
10
-9.6387441735
20
11.2508149134
30
0.0000000000
10
-9.6576542937
20
11.2555797210
30
0.0000000000
10
-9.6835920270
20
11.2557326275
30
0.0000000000
10
-9.7106649005
20
11.2501048901
30
0.0000000000
10
-9.7283565700
20
11.2429445936
30
0.0000000000
10
-9.7372000651
20
11.2385858591
30
0.0000000000
11
-9.6264264931
21
11.2451729820
31
0.0000000000
11
-9.6338525280
21
11.2484952688
31
0.0000000000
11
-9.6573701802
21
11.2545283645
31
0.0000000000
11
-9.6828627831
21
11.2548654201
31
0.0000000000
11
-9.7097089934
21
11.2494989124
31
0.0000000000
11
-9.7372000651
21
11.2385858591
31
0.0000000000
0
SPLINE
5
347
100
AcDbEntity
8
0
100
AcDbSpline
62
9
6
CONTINUOUS
70
0
71
3
72
12
73
8
74
6
42
0.0000001000
43
0.0000001000
44
0.0000000001
12
-0.0000210200
22
-0.1197208695
32
0.0000000000
13
-0.1064691081
23
-0.0538575979
33
0.0000000000
40
0.0000000000
40
0.0000000000
40
0.0000000000
40
0.0000000000
40
0.1623537572
40
0.3386920285
40
0.5346196794
40
0.7547877079
40
1.0000000000
40
1.0000000000
40
1.0000000000
40
1.0000000000
10
-8.1509023765
20
10.3529055229
30
0.0000000000
10
-8.1509035141
20
10.3464264785
30
0.0000000000
10
-8.1530629689
20
10.3329083780
30
0.0000000000
10
-8.1625120841
20
10.3135672445
30
0.0000000000
10
-8.1777908831
20
10.2953896672
30
0.0000000000
10
-8.1983446153
20
10.2787825193
30
0.0000000000
10
-8.2143976896
20
10.2694354217
30
0.0000000000
10
-8.2231002009
20
10.2650332400
30
0.0000000000
11
-8.1509023765
21
10.3529055229
31
0.0000000000
11
-8.1538531200
21
10.3337572368
31
0.0000000000
11
-8.1628437289
21
10.3147348890
31
0.0000000000
11
-8.1776538155
21
10.2966473294
31
0.0000000000
11
-8.1979218416
21
10.2799351321
31
0.0000000000
11
-8.2231002009
21
10.2650332400
31
0.0000000000
0
SPLINE
5
348
100
AcDbEntity
8
0
100
AcDbSpline
62
9
6
CONTINUOUS
70
0
71
3
72
9
73
5
74
3
42
0.0000001000
43
0.0000001000
44
0.0000000001
12
-0.0222190764
22
0.0111115533
32
0.0000000000
13
-0.0242595856
23
0.0050243247
33
0.0000000000
40
0.0000000000
40
0.0000000000
40
0.0000000000
40
0.0000000000
40
0.0704920348
40
1.0000000000
40
1.0000000000
40
1.0000000000
40
1.0000000000
10
-8.2891053039
20
-31.0706198893
30
0.0000000000
10
-8.2896273932
20
-31.0703587973
30
0.0000000000
10
-8.2970690746
20
-31.0667245722
30
0.0000000000
10
-8.3049975036
20
-31.0640923267
30
0.0000000000
10
-8.3125139963
20
-31.0625356101
30
0.0000000000
11
-8.2891053039
21
-31.0706198893
31
0.0000000000
11
-8.2906789704
21
-31.0698514085
31
0.0000000000
11
-8.3125139963
21
-31.0625356101
31
0.0000000000
0
SPLINE
5
349
100
AcDbEntity
8
0
100
AcDbSpline
62
9
6
CONTINUOUS
70
0
71
3
72
12
73
8
74
6
42
0.0000001000
43
0.0000001000
44
0.0000000001
12
-0.0000227722
22
-0.1197212051
32
0.0000000000
13
-0.1064692941
23
-0.0538576921
33
0.0000000000
40
0.0000000000
40
0.0000000000
40
0.0000000000
40
0.0000000000
40
0.1619863906
40
0.3382910533
40
0.5341892806
40
0.7543267983
40
1.0000000000
40
1.0000000000
40
1.0000000000
40
1.0000000000
10
-8.1509023851
20
-31.6417612974
30
0.0000000000
10
-8.1509036147
20
-31.6482256993
30
0.0000000000
10
-8.1530551298
20
-31.6617280731
30
0.0000000000
10
-8.1624852355
20
-31.6810595103
30
0.0000000000
10
-8.1777534589
20
-31.6992414435
30
0.0000000000
10
-8.1983140603
20
-31.7158658246
30
0.0000000000
10
-8.2143813168
20
-31.7252234689
30
0.0000000000
10
-8.2231002009
20
-31.7296339328
30
0.0000000000
11
-8.1509023851
21
-31.6417612974
31
0.0000000000
11
-8.1538400220
21
-31.6608676419
31
0.0000000000
11
-8.1628177127
21
-31.6798916966
31
0.0000000000
11
-8.1776171686
21
-31.6979834726
31
0.0000000000
11
-8.1978765329
21
-31.7147005220
31
0.0000000000
11
-8.2231002009
21
-31.7296339328
31
0.0000000000
0
SPLINE
5
34A
100
AcDbEntity
8
0
100
AcDbSpline
62
9
6
CONTINUOUS
70
0
71
3
72
12
73
8
74
6
42
0.0000001000
43
0.0000001000
44
0.0000000001
12
-0.0000215680
22
-0.1197211386
32
0.0000000000
13
-0.1064693987
23
-0.0538577450
33
0.0000000000
40
0.0000000000
40
0.0000000000
40
0.0000000000
40
0.0000000000
40
0.1621342377
40
0.3384131525
40
0.5342805221
40
0.7543772349
40
1.0000000000
40
1.0000000000
40
1.0000000000
40
1.0000000000
10
-8.1509023807
20
10.0053743555
30
0.0000000000
10
-8.1509035464
20
9.9989040570
30
0.0000000000
10
-8.1530579933
20
9.9853969306
30
0.0000000000
10
-8.1624935658
20
9.9660642719
30
0.0000000000
10
-8.1777612661
20
9.9478871342
30
0.0000000000
10
-8.1983188905
20
9.9312669039
30
0.0000000000
10
-8.2143830982
20
9.9219112860
30
0.0000000000
10
-8.2231002009
20
9.9175017233
30
0.0000000000
11
-8.1509023807
21
10.0053743555
31
0.0000000000
11
-8.1538452485
21
9.9862511259
31
0.0000000000
11
-8.1628255744
21
9.9672316896
31
0.0000000000
11
-8.1776248854
21
9.9491445224
31
0.0000000000
11
-8.1978814622
21
9.9324317041
31
0.0000000000
11
-8.2231002009
21
9.9175017233
31
0.0000000000
0
SPLINE
5
34B
100
AcDbEntity
8
0
100
AcDbSpline
62
9
6
CONTINUOUS
70
0
71
3
72
12
73
8
74
6
42
0.0000001000
43
0.0000001000
44
0.0000000001
12
-0.0000215680
22
-0.1197211386
32
0.0000000000
13
-0.1064693987
23
-0.0538577450
33
0.0000000000
40
0.0000000000
40
0.0000000000
40
0.0000000000
40
0.0000000000
40
0.1621342377
40
0.3384131525
40
0.5342805221
40
0.7543772349
40
1.0000000000
40
1.0000000000
40
1.0000000000
40
1.0000000000
10
-8.1509023807
20
-31.2942297839
30
0.0000000000
10
-8.1509035464
20
-31.3007000824
30
0.0000000000
10
-8.1530579933
20
-31.3142072088
30
0.0000000000
10
-8.1624935658
20
-31.3335398675
30
0.0000000000
10
-8.1777612661
20
-31.3517170052
30
0.0000000000
10
-8.1983188905
20
-31.3683372355
30
0.0000000000
10
-8.2143830982
20
-31.3776928533
30
0.0000000000
10
-8.2231002009
20
-31.3821024161
30
0.0000000000
11
-8.1509023807
21
-31.2942297839
31
0.0000000000
11
-8.1538452485
21
-31.3133530134
31
0.0000000000
11
-8.1628255744
21
-31.3323724498
31
0.0000000000
11
-8.1776248854
21
-31.3504596170
31
0.0000000000
11
-8.1978814622
21
-31.3671724353
31
0.0000000000
11
-8.2231002009
21
-31.3821024161
31
0.0000000000
0
SPLINE
5
34C
100
AcDbEntity
8
0
100
AcDbSpline
62
9
6
CONTINUOUS
70
0
71
3
72
15
73
11
74
9
42
0.0000001000
43
0.0000001000
44
0.0000000001
12
-0.7966349698
22
0.3983059990
32
0.0000000000
13
-0.0300473752
23
0.8890654044
33
0.0000000000
40
0.0000000000
40
0.0000000000
40
0.0000000000
40
0.0000000000
40
0.1087663053
40
0.2188773683
40
0.3329549534
40
0.4524694754
40
0.5784812100
40
0.7116323438
40
0.8521626911
40
1.0000000000
40
1.0000000000
40
1.0000000000
40
1.0000000000
10
-29.7284736399
20
-25.3008698139
30
0.0000000000
10
-29.7573559874
20
-25.2864290566
30
0.0000000000
10
-29.8128946509
20
-25.2522057160
30
0.0000000000
10
-29.8871547154
20
-25.1864455014
30
0.0000000000
10
-29.9518086848
20
-25.1071305276
30
0.0000000000
10
-30.0063703671
20
-25.0151025702
30
0.0000000000
10
-30.0503189595
20
-24.9114467341
30
0.0000000000
10
-30.0832465953
20
-24.7973271938
30
0.0000000000
10
-30.1048500045
20
-24.6740066250
30
0.0000000000
10
-30.1114093994
20
-24.5886086739
30
0.0000000000
10
-30.1128901071
20
-24.5447963283
30
0.0000000000
11
-29.7284736399
21
-25.3008698139
31
0.0000000000
11
-29.8108935862
21
-25.2501920615
31
0.0000000000
11
-29.8843813371
21
-25.1854301021
31
0.0000000000
11
-29.9487590191
21
-25.1069841105
31
0.0000000000
11
-30.0033094822
21
-25.0157288164
31
0.0000000000
11
-30.0474270477
21
-24.9126788448
31
0.0000000000
11
-30.0806220023
21
-24.7989777371
31
0.0000000000
11
-30.1025233752
21
-24.6758991810
31
0.0000000000
11
-30.1128901071
21
-24.5447963283
31
0.0000000000
0
SPLINE
5
34D
100
AcDbEntity
8
0
100
AcDbSpline
62
9
6
CONTINUOUS
70
0
71
3
72
13
73
9
74
7
42
0.0000001000
43
0.0000001000
44
0.0000000001
12
0.1395220720
22
0.0716304563
32
0.0000000000
13
-0.0007403311
23
0.1563941956
33
0.0000000000
40
0.0000000000
40
0.0000000000
40
0.0000000000
40
0.0000000000
40
0.0921946389
40
0.2497147002
40
0.4163695908
40
0.5959673764
40
0.7904363282
40
1.0000000000
40
1.0000000000
40
1.0000000000
40
1.0000000000
10
-8.2867843422
20
-31.8641916800
30
0.0000000000
10
-8.2824966132
20
-31.8619903654
30
0.0000000000
10
-8.2713368386
20
-31.8551407604
30
0.0000000000
10
-8.2553923300
20
-31.8400876906
30
0.0000000000
10
-8.2408887554
20
-31.8179423454
30
0.0000000000
10
-8.2304552687
20
-31.7915778950
30
0.0000000000
10
-8.2242548312
20
-31.7616642011
30
0.0000000000
10
-8.2230484854
20
-31.7405587801
30
0.0000000000
10
-8.2231002009
20
-31.7296339328
30
0.0000000000
11
-8.2867843422
21
-31.8641916800
31
0.0000000000
11
-8.2744739460
21
-31.8566356886
31
0.0000000000
11
-8.2564695988
21
-31.8398204780
31
0.0000000000
11
-8.2420229538
21
-31.8181263696
31
0.0000000000
11
-8.2314899555
21
-31.7920877013
31
0.0000000000
11
-8.2251301404
21
-31.7623459186
31
0.0000000000
11
-8.2231002009
21
-31.7296339328
31
0.0000000000
0
SPLINE
5
34E
100
AcDbEntity
8
0
100
AcDbSpline
62
7
6
CONTINUOUS
70
0
71
3
72
13
73
9
74
7
42
0.0000001000
43
0.0000001000
44
0.0000000001
12
0.0001642299
22
-0.2033186216
32
0.0000000000
13
-0.1815612064
23
-0.0898911607
33
0.0000000000
40
0.0000000000
40
0.0000000000
40
0.0000000000
40
0.0000000000
40
0.0343386883
40
0.1926287897
40
0.3631221672
40
0.5522760236
40
0.7643520725
40
1.0000000000
40
1.0000000000
40
1.0000000000
40
1.0000000000
10
-7.7223616167
20
13.3936283721
30
0.0000000000
10
-7.7223597368
20
13.3913011405
30
0.0000000000
10
-7.7227839471
20
13.3782483812
30
0.0000000000
10
-7.7282745383
20
13.3539747759
30
0.0000000000
10
-7.7452806828
20
13.3229802408
30
0.0000000000
10
-7.7711989793
20
13.2940098173
30
0.0000000000
10
-7.8053054487
20
13.2675145380
30
0.0000000000
10
-7.8316891775
20
13.2525447707
30
0.0000000000
10
-7.8459506848
20
13.2454838822
30
0.0000000000
11
-7.7223616167
21
13.3936283721
31
0.0000000000
11
-7.7225900565
21
13.3866530751
31
0.0000000000
11
-7.7294399470
21
13.3553243372
31
0.0000000000
11
-7.7456782142
21
13.3248380899
31
0.0000000000
11
-7.7708927494
21
13.2959801644
31
0.0000000000
11
-7.8045831558
21
13.2693155459
31
0.0000000000
11
-7.8459506848
21
13.2454838822
31
0.0000000000
0
SPLINE
5
34F
100
AcDbEntity
8
0
100
AcDbSpline
62
7
6
CONTINUOUS
70
0
71
3
72
8
73
4
74
2
42
0.0000001000
43
0.0000001000
44
0.0000000001
12
0.0031252547
22
0.0016020349
32
0.0000000000
13
0.0030623916
23
0.0017186206
33
0.0000000000
40
0.0000000000
40
0.0000000000
40
0.0000000000
40
0.0000000000
40
1.0000000000
40
1.0000000000
40
1.0000000000
40
1.0000000000
10
-8.8154728123
20
-32.1354220979
30
0.0000000000
10
-8.8144310607
20
-32.1348880863
30
0.0000000000
10
-8.8133993801
20
-32.1343345341
30
0.0000000000
10
-8.8123785829
20
-32.1337616605
30
0.0000000000
11
-8.8154728123
21
-32.1354220979
31
0.0000000000
11
-8.8123785829
21
-32.1337616605
31
0.0000000000
0
SPLINE
5
350
100
AcDbEntity
8
0
100
AcDbSpline
62
7
6
CONTINUOUS
70
0
71
3
72
13
73
9
74
7
42
0.0000001000
43
0.0000001000
44
0.0000000001
12
0.1339245570
22
0.0751587447
32
0.0000000000
13
-0.0000000000
23
0.1532497058
33
0.0000000000
40
0.0000000000
40
0.0000000000
40
0.0000000000
40
0.0000000000
40
0.1437253460
40
0.2929995974
40
0.4514947733
40
0.6216146730
40
0.8044628653
40
1.0000000000
40
1.0000000000
40
1.0000000000
40
1.0000000000
10
-8.8123785829
20
-32.1337616605
30
0.0000000000
10
-8.8059624651
20
-32.1301609217
30
0.0000000000
10
-8.7937590456
20
-32.1212643280
30
0.0000000000
10
-8.7785014456
20
-32.1037343104
30
0.0000000000
10
-8.7664189325
20
-32.0823560177
30
0.0000000000
10
-8.7576956106
20
-32.0576050585
30
0.0000000000
10
-8.7524552751
20
-32.0299892877
30
0.0000000000
10
-8.7513673727
20
-32.0106336609
30
0.0000000000
10
-8.7513673727
20
-32.0006449915
30
0.0000000000
11
-8.8123785829
21
-32.1337616605
31
0.0000000000
11
-8.7945440489
21
-32.1208361735
31
0.0000000000
11
-8.7794292177
21
-32.1036645687
31
0.0000000000
11
-8.7673417830
21
-32.0825964432
31
0.0000000000
11
-8.7585277893
21
-32.0580607262
31
0.0000000000
11
-8.7531666241
21
-32.0305569348
31
0.0000000000
11
-8.7513673727
21
-32.0006449915
31
0.0000000000
0
SPLINE
5
351
100
AcDbEntity
8
0
100
AcDbSpline
62
7
6
CONTINUOUS
70
0
71
3
72
13
73
9
74
7
42
0.0000001000
43
0.0000001000
44
0.0000000001
12
0.0001621197
22
-0.2053015825
32
0.0000000000
13
-0.1837351430
23
-0.0899037760
33
0.0000000000
40
0.0000000000
40
0.0000000000
40
0.0000000000
40
0.0000000000
40
0.0400211980
40
0.1970867995
40
0.3665716191
40
0.5547424593
40
0.7657022224
40
1.0000000000
40
1.0000000000
40
1.0000000000
40
1.0000000000
10
-13.2773513705
20
16.1711232165
30
0.0000000000
10
-13.2773492077
20
16.1683844114
30
0.0000000000
10
-13.2778651911
20
16.1548996675
30
0.0000000000
10
-13.2837497546
20
16.1302290578
30
0.0000000000
10
-13.3011166871
20
16.0993049712
30
0.0000000000
10
-13.3273674376
20
16.0704227259
30
0.0000000000
10
-13.3617792022
20
16.0440321693
30
0.0000000000
10
-13.3883449788
20
16.0291354893
30
0.0000000000
10
-13.4026945574
20
16.0221140710
30
0.0000000000
11
-13.2773513705
21
16.1711232165
31
0.0000000000
11
-13.2776679465
21
16.1629169815
31
0.0000000000
11
-13.2848866097
21
16.1316104492
31
0.0000000000
11
-13.3014841762
21
16.1011733625
31
0.0000000000
11
-13.3270392751
21
16.0723903038
31
0.0000000000
11
-13.3610448390
21
16.0458247740
31
0.0000000000
11
-13.4026945574
21
16.0221140710
31
0.0000000000
0
SPLINE
5
352
100
AcDbEntity
8
0
100
AcDbSpline
62
9
6
CONTINUOUS
70
0
71
3
72
13
73
9
74
7
42
0.0000001000
43
0.0000001000
44
0.0000000001
12
0.1432600702
22
0.0698558459
32
0.0000000000
13
0.0007575953
23
0.1589430313
33
0.0000000000
40
0.0000000000
40
0.0000000000
40
0.0000000000
40
0.0000000000
40
0.1031677965
40
0.2584156470
40
0.4230714038
40
0.6007243952
40
0.7931373892
40
1.0000000000
40
1.0000000000
40
1.0000000000
40
1.0000000000
10
-10.4189109916
20
-32.9165275379
30
0.0000000000
10
-10.4139843830
20
-32.9141252467
30
0.0000000000
10
-10.4021673970
20
-32.9070280457
30
0.0000000000
10
-10.3857108469
20
-32.8914783339
30
0.0000000000
10
-10.3711182873
20
-32.8692780107
30
0.0000000000
10
-10.3605223683
20
-32.8428298032
30
0.0000000000
10
-10.3540960561
20
-32.8128226575
30
0.0000000000
10
-10.3527004029
20
-32.7916393813
30
0.0000000000
10
-10.3526481635
20
-32.7806795911
30
0.0000000000
11
-10.4189109916
21
-32.9165275379
31
0.0000000000
11
-10.4048302909
21
-32.9080757493
31
0.0000000000
11
-10.3867977606
21
-32.8912316067
31
0.0000000000
11
-10.3722528986
21
-32.8694743601
31
0.0000000000
11
-10.3615548492
21
-32.8433423613
31
0.0000000000
11
-10.3549657382
21
-32.8134775546
31
0.0000000000
11
-10.3526481635
21
-32.7806795911
31
0.0000000000
0
SPLINE
5
353
100
AcDbEntity
8
0
100
AcDbSpline
62
7
6
CONTINUOUS
70
0
71
3
72
8
73
4
74
2
42
0.0000001000
43
0.0000001000
44
0.0000000001
12
0.0906761170
22
0.0430600671
32
0.0000000000
13
0.0906759853
23
0.0430603444
33
0.0000000000
40
0.0000000000
40
0.0000000000
40
0.0000000000
40
0.0000000000
40
1.0000000000
40
1.0000000000
40
1.0000000000
40
1.0000000000
10
-23.5140327449
20
-12.9381209609
30
0.0000000000
10
-23.4838073726
20
-12.9237676052
30
0.0000000000
10
-23.4535820222
20
-12.9094142033
30
0.0000000000
10
-23.4233566938
20
-12.8950607552
30
0.0000000000
11
-23.5140327449
21
-12.9381209609
31
0.0000000000
11
-23.4233566938
21
-12.8950607552
31
0.0000000000
0
SPLINE
5
354
100
AcDbEntity
8
0
100
AcDbSpline
62
7
6
CONTINUOUS
70
0
71
3
72
9
73
5
74
3
42
0.0000001000
43
0.0000001000
44
0.0000000001
12
1.7316238430
22
0.8224132407
32
0.0000000000
13
1.7315777254
23
0.8225103355
33
0.0000000000
40
0.0000000000
40
0.0000000000
40
0.0000000000
40
0.0000000000
40
0.3124546425
40
1.0000000000
40
1.0000000000
40
1.0000000000
40
1.0000000000
10
-22.0477604607
20
-12.2417768488
30
0.0000000000
10
-21.8674091578
20
-12.1561212371
30
0.0000000000
10
-21.2902036487
20
-11.8819783559
30
0.0000000000
10
-20.7130058680
20
-11.6078192030
30
0.0000000000
10
-20.3161597925
20
-11.4193148155
30
0.0000000000
11
-22.0477604607
21
-12.2417768488
31
0.0000000000
11
-21.5067088304
21
-11.9848052167
31
0.0000000000
11
-20.3161597925
21
-11.4193148155
31
0.0000000000
0
SPLINE
5
355
100
AcDbEntity
8
0
100
AcDbSpline
62
7
6
CONTINUOUS
70
0
71
3
72
8
73
4
74
2
42
0.0000001000
43
0.0000001000
44
0.0000000001
12
0.4874176132
22
0.2315264390
32
0.0000000000
13
0.4874140290
23
0.2315339844
33
0.0000000000
40
0.0000000000
40
0.0000000000
40
0.0000000000
40
0.0000000000
40
1.0000000000
40
1.0000000000
40
1.0000000000
40
1.0000000000
10
-20.3161597925
20
-11.4193148155
30
0.0000000000
10
-20.1536872548
20
-11.3421393358
30
0.0000000000
10
-19.9912153170
20
-11.2649625932
30
0.0000000000
10
-19.8287439739
20
-11.1877845984
30
0.0000000000
11
-20.3161597925
21
-11.4193148155
31
0.0000000000
11
-19.8287439739
21
-11.1877845984
31
0.0000000000
0
SPLINE
5
356
100
AcDbEntity
8
0
100
AcDbSpline
62
7
6
CONTINUOUS
70
0
71
3
72
8
73
4
74
2
42
0.0000001000
43
0.0000001000
44
0.0000000001
12
0.0136987866
22
0.0065072699
32
0.0000000000
13
0.0136987838
23
0.0065072758
33
0.0000000000
40
0.0000000000
40
0.0000000000
40
0.0000000000
40
0.0000000000
40
1.0000000000
40
1.0000000000
40
1.0000000000
40
1.0000000000
10
-19.8287439739
20
-11.1877845984
30
0.0000000000
10
-19.8241777117
20
-11.1856155084
30
0.0000000000
10
-19.8196114500
20
-11.1834464174
30
0.0000000000
10
-19.8150451887
20
-11.1812773255
30
0.0000000000
11
-19.8287439739
21
-11.1877845984
31
0.0000000000
11
-19.8150451887
21
-11.1812773255
31
0.0000000000
0
SPLINE
5
357
100
AcDbEntity
8
0
100
AcDbSpline
62
7
6
CONTINUOUS
70
0
71
3
72
8
73
4
74
2
42
0.0000001000
43
0.0000001000
44
0.0000000001
12
0.5319972868
22
0.2527124413
32
0.0000000000
13
0.5319930561
23
0.2527213475
33
0.0000000000
40
0.0000000000
40
0.0000000000
40
0.0000000000
40
0.0000000000
40
1.0000000000
40
1.0000000000
40
1.0000000000
40
1.0000000000
10
-19.8150451887
20
-11.1812773255
30
0.0000000000
10
-19.6377127598
20
-11.0970398451
30
0.0000000000
10
-19.4603810393
20
-11.0128008733
30
0.0000000000
10
-19.2830500206
20
-10.9285604241
30
0.0000000000
11
-19.8150451887
21
-11.1812773255
31
0.0000000000
11
-19.2830500206
21
-10.9285604241
31
0.0000000000
0
SPLINE
5
358
100
AcDbEntity
8
0
100
AcDbSpline
62
7
6
CONTINUOUS
70
0
71
3
72
9
73
5
74
3
42
0.0000001000
43
0.0000001000
44
0.0000000001
12
0.0487246985
22
0.0242982675
32
0.0000000000
13
0.0518542419
23
0.0166023986
33
0.0000000000
40
0.0000000000
40
0.0000000000
40
0.0000000000
40
0.0000000000
40
0.5102396839
40
1.0000000000
40
1.0000000000
40
1.0000000000
40
1.0000000000
10
-7.8962926859
20
14.4518971494
30
0.0000000000
10
-7.8880055943
20
14.4560297962
30
0.0000000000
10
-7.8714754912
20
14.4635662705
30
0.0000000000
10
-7.8544160682
20
14.4698234508
30
0.0000000000
10
-7.8459506848
20
14.4725338494
30
0.0000000000
11
-7.8962926859
21
14.4518971494
31
0.0000000000
11
-7.8709991596
21
14.4633875555
31
0.0000000000
11
-7.8459506848
21
14.4725338494
31
0.0000000000
0
SPLINE
5
359
100
AcDbEntity
8
0
100
AcDbSpline
62
9
6
CONTINUOUS
70
0
71
3
72
12
73
8
74
6
42
0.0000001000
43
0.0000001000
44
0.0000000001
12
-0.1029857849
22
0.0515382536
32
0.0000000000
13
-0.1030131196
23
-0.0507725545
33
0.0000000000
40
0.0000000000
40
0.0000000000
40
0.0000000000
40
0.0000000000
40
0.0703997960
40
0.2817532383
40
0.5036958317
40
0.7420180863
40
1.0000000000
40
1.0000000000
40
1.0000000000
40
1.0000000000
10
-22.9907446496
20
17.9273320758
30
0.0000000000
10
-22.9931613757
20
17.9285415033
30
0.0000000000
10
-23.0030406139
20
17.9329657734
30
0.0000000000
10
-23.0219348464
20
17.9377338175
30
0.0000000000
10
-23.0478662562
20
17.9378960416
30
0.0000000000
10
-23.0749533348
20
17.9322747992
30
0.0000000000
10
-23.0926597223
20
17.9251110749
30
0.0000000000
10
-23.1015182296
20
17.9207449414
30
0.0000000000
11
-22.9907446496
21
17.9273320758
31
0.0000000000
11
-22.9981413507
21
17.9306427263
31
0.0000000000
11
-23.0216509500
21
17.9366825798
31
0.0000000000
11
-23.0471377728
21
17.9370286436
31
0.0000000000
11
-23.0739788794
21
17.9316724595
31
0.0000000000
11
-23.1015182296
21
17.9207449414
31
0.0000000000
0
SPLINE
5
35A
100
AcDbEntity
8
0
100
AcDbSpline
62
9
6
CONTINUOUS
70
0
71
3
72
12
73
8
74
6
42
0.0000001000
43
0.0000001000
44
0.0000000001
12
-0.1029857849
22
0.0515382536
32
0.0000000000
13
-0.1030131196
23
-0.0507725545
33
0.0000000000
40
0.0000000000
40
0.0000000000
40
0.0000000000
40
0.0000000000
40
0.0703997960
40
0.2817532383
40
0.5036958317
40
0.7420180863
40
1.0000000000
40
1.0000000000
40
1.0000000000
40
1.0000000000
10
-21.6534184890
20
17.2586689955
30
0.0000000000
10
-21.6558352151
20
17.2598784230
30
0.0000000000
10
-21.6657144534
20
17.2643026931
30
0.0000000000
10
-21.6846086859
20
17.2690707372
30
0.0000000000
10
-21.7105400956
20
17.2692329613
30
0.0000000000
10
-21.7376271742
20
17.2636117189
30
0.0000000000
10
-21.7553335618
20
17.2564479947
30
0.0000000000
10
-21.7641920690
20
17.2520818611
30
0.0000000000
11
-21.6534184890
21
17.2586689955
31
0.0000000000
11
-21.6608151902
21
17.2619796460
31
0.0000000000
11
-21.6843247894
21
17.2680194995
31
0.0000000000
11
-21.7098116122
21
17.2683655633
31
0.0000000000
11
-21.7366527189
21
17.2630093792
31
0.0000000000
11
-21.7641920690
21
17.2520818611
31
0.0000000000
0
SPLINE
5
35B
100
AcDbEntity
8
0
100
AcDbSpline
62
9
6
CONTINUOUS
70
0
71
3
72
12
73
8
74
6
42
0.0000001000
43
0.0000001000
44
0.0000000001
12
-0.0000227722
22
-0.1197212051
32
0.0000000000
13
-0.1064692941
23
-0.0538576921
33
0.0000000000
40
0.0000000000
40
0.0000000000
40
0.0000000000
40
0.0000000000
40
0.1619863906
40
0.3382910533
40
0.5341892806
40
0.7543267983
40
1.0000000000
40
1.0000000000
40
1.0000000000
40
1.0000000000
10
-21.5152205495
20
17.0350649577
30
0.0000000000
10
-21.5152217791
20
17.0286005557
30
0.0000000000
10
-21.5173732942
20
17.0150981819
30
0.0000000000
10
-21.5268033999
20
16.9957667448
30
0.0000000000
10
-21.5420716234
20
16.9775848116
30
0.0000000000
10
-21.5626322247
20
16.9609604305
30
0.0000000000
10
-21.5786994812
20
16.9516027861
30
0.0000000000
10
-21.5874183653
20
16.9471923223
30
0.0000000000
11
-21.5152205495
21
17.0350649577
31
0.0000000000
11
-21.5181581865
21
17.0159586131
31
0.0000000000
11
-21.5271358771
21
16.9969345585
31
0.0000000000
11
-21.5419353330
21
16.9788427825
31
0.0000000000
11
-21.5621946973
21
16.9621257331
31
0.0000000000
11
-21.5874183653
21
16.9471923223
31
0.0000000000
0
SPLINE
5
35C
100
AcDbEntity
8
0
100
AcDbSpline
62
9
6
CONTINUOUS
70
0
71
3
72
12
73
8
74
6
42
0.0000001000
43
0.0000001000
44
0.0000000001
12
-0.0000262980
22
-0.1197188418
32
0.0000000000
13
-0.1064673255
23
-0.0538566962
33
0.0000000000
40
0.0000000000
40
0.0000000000
40
0.0000000000
40
0.0000000000
40
0.1620958053
40
0.3383824453
40
0.5342591991
40
0.7543655721
40
1.0000000000
40
1.0000000000
40
1.0000000000
40
1.0000000000
10
-21.5152205463
20
16.6875311255
30
0.0000000000
10
-21.5152219672
20
16.6810624848
30
0.0000000000
10
-21.5173760708
20
16.6675568983
30
0.0000000000
10
-21.5268105125
20
16.6482250746
30
0.0000000000
10
-21.5420783298
20
16.6300472107
30
0.0000000000
10
-21.5626363993
20
16.6134263837
30
0.0000000000
10
-21.5787010185
20
16.6040704918
30
0.0000000000
10
-21.5874183653
20
16.5996608055
30
0.0000000000
11
-21.5152205463
21
16.6875311255
31
0.0000000000
11
-21.5181626264
21
16.6684127488
31
0.0000000000
11
-21.5271425848
21
16.6493925727
31
0.0000000000
11
-21.5419420082
21
16.6313046386
31
0.0000000000
11
-21.5621989510
21
16.6145912564
31
0.0000000000
11
-21.5874183653
21
16.5996608055
31
0.0000000000
0
SPLINE
5
35D
100
AcDbEntity
8
0
100
AcDbSpline
62
9
6
CONTINUOUS
70
0
71
3
72
16
73
12
74
10
42
0.0000001000
43
0.0000001000
44
0.0000000001
12
-2.0286341999
22
-1.0137987202
32
0.0000000000
13
-2.0271055537
23
1.0135463403
33
0.0000000000
40
0.0000000000
40
0.0000000000
40
0.0000000000
40
0.0000000000
40
0.0953158230
40
0.1969342408
40
0.3004335205
40
0.4067097746
40
0.5166332099
40
0.6308154067
40
0.7494703944
40
0.8725936811
40
1.0000000000
40
1.0000000000
40
1.0000000000
40
1.0000000000
10
-20.0866104873
20
-14.6148259715
30
0.0000000000
10
-20.1510641334
20
-14.6470363247
30
0.0000000000
10
-20.2882313980
20
-14.7055892414
30
0.0000000000
10
-20.5068400866
20
-14.7687351025
30
0.0000000000
10
-20.7396504061
20
-14.8061692671
30
0.0000000000
10
-20.9814518676
20
-14.8166683804
30
0.0000000000
10
-21.2309633246
20
-14.8002437258
30
0.0000000000
10
-21.4866911188
20
-14.7570304006
30
0.0000000000
10
-21.7468207091
20
-14.6874259258
30
0.0000000000
10
-22.0092916392
20
-14.5922010969
30
0.0000000000
10
-22.1817089703
20
-14.5136217557
30
0.0000000000
10
-22.2677976558
20
-14.4705776862
30
0.0000000000
11
-20.0866104873
21
-14.6148259715
31
0.0000000000
11
-20.2852777201
21
-14.6996953515
31
0.0000000000
11
-20.5064781055
21
-14.7638105086
31
0.0000000000
11
-20.7380185896
21
-14.8013737069
31
0.0000000000
11
-20.9786348588
21
-14.8122358019
31
0.0000000000
11
-21.2272542895
21
-14.7963383133
31
0.0000000000
11
-21.4824973025
21
-14.7537046248
31
0.0000000000
11
-21.7424003681
21
-14.6846664495
31
0.0000000000
11
-22.0048708735
21
-14.5899342546
31
0.0000000000
11
-22.2677976558
21
-14.4705776862
31
0.0000000000
0
SPLINE
5
35E
100
AcDbEntity
8
0
100
AcDbSpline
62
7
6
CONTINUOUS
70
0
71
3
72
13
73
9
74
7
42
0.0000001000
43
0.0000001000
44
0.0000000001
12
-0.4098481622
22
0.2048837263
32
0.0000000000
13
-0.4109068760
23
-0.2010615886
33
0.0000000000
40
0.0000000000
40
0.0000000000
40
0.0000000000
40
0.0000000000
40
0.1007741613
40
0.2637740567
40
0.4330088062
40
0.6107502248
40
0.7994856200
40
1.0000000000
40
1.0000000000
40
1.0000000000
40
1.0000000000
10
-10.8850813461
20
16.7137624829
30
0.0000000000
10
-10.8988487144
20
16.7206448115
30
0.0000000000
10
-10.9359908341
20
16.7364505413
30
0.0000000000
10
-11.0004817903
20
16.7523964821
30
0.0000000000
10
-11.0785330981
20
16.7568156997
30
0.0000000000
10
-11.1600502123
20
16.7475665979
30
0.0000000000
10
-11.2437825183
20
16.7249238486
30
0.0000000000
10
-11.2986722857
20
16.7018624782
30
0.0000000000
10
-11.3261365316
20
16.6884238983
30
0.0000000000
11
-10.8850813461
21
16.7137624829
31
0.0000000000
11
-10.9275416790
21
16.7318326929
31
0.0000000000
11
-10.9998820407
21
16.7499148799
31
0.0000000000
11
-11.0771582833
21
16.7546015979
31
0.0000000000
11
-11.1579904386
21
16.7458021633
31
0.0000000000
11
-11.2414331756
21
16.7236270736
31
0.0000000000
11
-11.3261365316
21
16.6884238983
31
0.0000000000
0
SPLINE
5
35F
100
AcDbEntity
8
0
100
AcDbSpline
62
7
6
CONTINUOUS
70
0
71
3
72
9
73
5
74
3
42
0.0000001000
43
0.0000001000
44
0.0000000001
12
0.0473762501
22
0.0233505524
32
0.0000000000
13
0.0502803636
23
0.0161753641
33
0.0000000000
40
0.0000000000
40
0.0000000000
40
0.0000000000
40
0.0000000000
40
0.5097876014
40
1.0000000000
40
1.0000000000
40
1.0000000000
40
1.0000000000
10
-13.4515705889
20
17.2295361009
30
0.0000000000
10
-13.4435199806
20
17.2335040416
30
0.0000000000
10
-13.4274605825
20
17.2407593166
30
0.0000000000
10
-13.4109105766
20
17.2468215467
30
0.0000000000
10
-13.4026945574
20
17.2494646680
30
0.0000000000
11
-13.4515705889
21
17.2295361009
31
0.0000000000
11
-13.4270187157
21
17.2405912875
31
0.0000000000
11
-13.4026945574
21
17.2494646680
31
0.0000000000
0
SPLINE
5
360
100
AcDbEntity
8
0
100
AcDbSpline
62
7
6
CONTINUOUS
70
0
71
3
72
14
73
10
74
8
42
0.0000001000
43
0.0000001000
44
0.0000000001
12
-0.5575549069
22
0.2783874290
32
0.0000000000
13
-0.5613902463
23
-0.2698899959
33
0.0000000000
40
0.0000000000
40
0.0000000000
40
0.0000000000
40
0.0000000000
40
0.1238265934
40
0.3054769581
40
0.4682472532
40
0.6158055794
40
0.7510618594
40
0.8780877179
40
1.0000000000
40
1.0000000000
40
1.0000000000
40
1.0000000000
10
-3.4167801723
20
12.9796185303
30
0.0000000000
10
-3.4397935473
20
12.9911091192
30
0.0000000000
10
-3.4974505660
20
13.0176787533
30
0.0000000000
10
-3.5891275324
20
13.0506679880
30
0.0000000000
10
-3.6889187887
20
13.0736875085
30
0.0000000000
10
-3.7812843836
20
13.0826598045
30
0.0000000000
10
-3.8666063312
20
13.0788144572
30
0.0000000000
10
-3.9451223509
20
13.0630181756
30
0.0000000000
10
-3.9937164451
20
13.0445882179
30
0.0000000000
10
-4.0165299005
20
13.0336205828
30
0.0000000000
11
-3.4167801723
21
12.9796185303
31
0.0000000000
11
-3.4868901896
21
13.0118199356
31
0.0000000000
11
-3.5934993272
21
13.0497311337
31
0.0000000000
11
-3.6923846101
21
13.0721237279
31
0.0000000000
11
-3.7839032062
21
13.0806349314
31
0.0000000000
11
-3.8680534618
21
13.0765238631
31
0.0000000000
11
-3.9455736706
21
13.0606742022
31
0.0000000000
11
-4.0165299005
21
13.0336205828
31
0.0000000000
0
SPLINE
5
361
100
AcDbEntity
8
0
100
AcDbSpline
62
7
6
CONTINUOUS
70
0
71
3
72
19
73
15
74
13
42
0.0000001000
43
0.0000001000
44
0.0000000001
12
0.6274182251
22
-0.3540971724
32
0.0000000000
13
0.0132647958
23
-0.7203210964
33
0.0000000000
40
0.0000000000
40
0.0000000000
40
0.0000000000
40
0.0000000000
40
0.0737627865
40
0.1524427325
40
0.2346797980
40
0.3195402389
40
0.4070879819
40
0.4968341478
40
0.5869474716
40
0.6757256502
40
0.7618535874
40
0.8448458902
40
0.9243870363
40
1.0000000000
40
1.0000000000
40
1.0000000000
40
1.0000000000
10
-8.7514726140
20
8.3991243173
30
0.0000000000
10
-8.7360459085
20
8.3904179193
30
0.0000000000
10
-8.7052476960
20
8.3704625425
30
0.0000000000
10
-8.6613010221
20
8.3350418347
30
0.0000000000
10
-8.6190453301
20
8.2937125027
30
0.0000000000
10
-8.5791478002
20
8.2472756823
30
0.0000000000
10
-8.5420955904
20
8.1962957559
30
0.0000000000
10
-8.5084803019
20
8.1415041972
30
0.0000000000
10
-8.4790264245
20
8.0840370722
30
0.0000000000
10
-8.4543668090
20
8.0252974567
30
0.0000000000
10
-8.4348256129
20
7.9664620791
30
0.0000000000
10
-8.4205195086
20
7.9084174015
30
0.0000000000
10
-8.4114827009
20
7.8518785878
30
0.0000000000
10
-8.4089179540
20
7.8146413931
30
0.0000000000
10
-8.4085836238
20
7.7964861888
30
0.0000000000
11
-8.7514726140
21
8.3991243173
31
0.0000000000
11
-8.7067682508
21
8.3703913849
31
0.0000000000
11
-8.6625571037
21
8.3349160482
31
0.0000000000
11
-8.6201134810
21
8.2935788728
31
0.0000000000
11
-8.5802096402
21
8.2472600636
31
0.0000000000
11
-8.5430819751
21
8.1962721995
31
0.0000000000
11
-8.5092459416
21
8.1411754421
31
0.0000000000
11
-8.4796332567
21
8.0834009288
31
0.0000000000
11
-8.4548987584
21
8.0244175433
31
0.0000000000
11
-8.4353880046
21
7.9655144975
31
0.0000000000
11
-8.4211509576
21
7.9074429974
31
0.0000000000
11
-8.4122069357
21
7.8508404029
31
0.0000000000
11
-8.4085836238
21
7.7964861888
31
0.0000000000
0
SPLINE
5
362
100
AcDbEntity
8
0
100
AcDbSpline
62
7
6
CONTINUOUS
70
0
71
3
72
12
73
8
74
6
42
0.0000001000
43
0.0000001000
44
0.0000000001
12
-0.1050645875
22
0.0590508927
32
0.0000000000
13
-0.1158133502
23
-0.0372575489
33
0.0000000000
40
0.0000000000
40
0.0000000000
40
0.0000000000
40
0.0000000000
40
0.0910585072
40
0.2473016875
40
0.4551566144
40
0.7089557730
40
1.0000000000
40
1.0000000000
40
1.0000000000
40
1.0000000000
10
-13.2840956326
20
17.2698975798
30
0.0000000000
10
-13.2872846408
20
17.2716899418
30
0.0000000000
10
-13.2979064222
20
17.2730504585
30
0.0000000000
10
-13.3160340653
20
17.2720606375
30
0.0000000000
10
-13.3408393578
20
17.2672974174
30
0.0000000000
10
-13.3703223352
20
17.2595898074
30
0.0000000000
10
-13.3914589551
20
17.2530791995
30
0.0000000000
10
-13.4026945574
20
17.2494646680
30
0.0000000000
11
-13.2840956326
21
17.2698975798
31
0.0000000000
11
-13.2950019705
21
17.2724344796
31
0.0000000000
11
-13.3139997930
21
17.2718018298
31
0.0000000000
11
-13.3389036986
21
17.2674147078
31
0.0000000000
11
-13.3688190304
21
17.2597690869
31
0.0000000000
11
-13.4026945574
21
17.2494646680
31
0.0000000000
0
SPLINE
5
363
100
AcDbEntity
8
0
100
AcDbSpline
62
7
6
CONTINUOUS
70
0
71
3
72
14
73
10
74
8
42
0.0000001000
43
0.0000001000
44
0.0000000001
12
-0.0057788531
22
-0.3193908952
32
0.0000000000
13
-0.2869855790
23
-0.1415756874
33
0.0000000000
40
0.0000000000
40
0.0000000000
40
0.0000000000
40
0.0000000000
40
0.1648657031
40
0.3215938445
40
0.4699467323
40
0.6106791582
40
0.7450367151
40
0.8740816689
40
1.0000000000
40
1.0000000000
40
1.0000000000
40
1.0000000000
10
-8.4085836238
20
-30.1352285730
30
0.0000000000
10
-8.4089012020
20
-30.1527807745
30
0.0000000000
10
-8.4111637899
20
-30.1870216328
30
0.0000000000
10
-8.4199519541
20
-30.2363960232
30
0.0000000000
10
-8.4340604932
20
-30.2818694578
30
0.0000000000
10
-8.4535033182
20
-30.3227462224
30
0.0000000000
10
-8.4782494837
20
-30.3582254130
30
0.0000000000
10
-8.5081014141
20
-30.3873815556
30
0.0000000000
10
-8.5311832119
20
-30.4020615706
30
0.0000000000
10
-8.5432287936
20
-30.4080038954
30
0.0000000000
11
-8.4085836238
21
-30.1352285730
31
0.0000000000
11
-8.4122069357
21
-30.1877690080
31
0.0000000000
11
-8.4211509576
21
-30.2370293596
31
0.0000000000
11
-8.4353880046
21
-30.2822305611
31
0.0000000000
11
-8.4548987584
21
-30.3227320861
31
0.0000000000
11
-8.4796332567
21
-30.3578076759
31
0.0000000000
11
-8.5092459416
21
-30.3864849456
31
0.0000000000
11
-8.5432287936
21
-30.4080038954
31
0.0000000000
0
SPLINE
5
364
100
AcDbEntity
8
0
100
AcDbSpline
62
9
6
CONTINUOUS
70
0
71
3
72
14
73
10
74
8
42
0.0000001000
43
0.0000001000
44
0.0000000001
12
-0.0143836992
22
-0.3374192641
32
0.0000000000
13
-0.3120967205
23
-0.1310012098
33
0.0000000000
40
0.0000000000
40
0.0000000000
40
0.0000000000
40
0.0000000000
40
0.1814597712
40
0.3519887890
40
0.5113357285
40
0.6601982272
40
0.8003674891
40
0.9347434728
40
1.0000000000
40
1.0000000000
40
1.0000000000
40
1.0000000000
10
-13.9062728963
20
-32.4429352211
30
0.0000000000
10
-13.9071429172
20
-32.4633445619
30
0.0000000000
10
-13.9110285559
20
-32.5028913004
30
0.0000000000
10
-13.9239530209
20
-32.5591614309
30
0.0000000000
10
-13.9436005474
20
-32.6095831806
30
0.0000000000
10
-13.9696639238
20
-32.6531263159
30
0.0000000000
10
-14.0017234934
20
-32.6888441478
30
0.0000000000
10
-14.0330115667
20
-32.7114005589
30
0.0000000000
10
-14.0532931951
20
-32.7212769837
30
0.0000000000
10
-14.0600819778
20
-32.7241265450
30
0.0000000000
11
-13.9062728963
21
-32.4429352211
31
0.0000000000
11
-13.9124810368
21
-32.5039035912
31
0.0000000000
11
-13.9256253583
21
-32.5599755897
31
0.0000000000
11
-13.9454385908
21
-32.6100110772
31
0.0000000000
11
-13.9715178621
21
-32.6529926578
31
0.0000000000
11
-14.0033328898
21
-32.6880463659
31
0.0000000000
11
-14.0402367632
21
-32.7144594374
31
0.0000000000
11
-14.0600819778
21
-32.7241265450
31
0.0000000000
0
SPLINE
5
365
100
AcDbEntity
8
0
100
AcDbSpline
62
9
6
CONTINUOUS
70
0
71
3
72
21
73
17
74
15
42
0.0000001000
43
0.0000001000
44
0.0000000001
12
0.0358334250
22
-1.0301968179
32
0.0000000000
13
0.9504873542
23
0.3989527635
33
0.0000000000
40
0.0000000000
40
0.0000000000
40
0.0000000000
40
0.0000000000
40
0.0851355384
40
0.1662715009
40
0.2433647188
40
0.3165869972
40
0.3863331043
40
0.4532230892
40
0.5180904390
40
0.5819429826
40
0.6458820989
40
0.7109992396
40
0.7782802907
40
0.8485311005
40
0.9223307366
40
1.0000000000
40
1.0000000000
40
1.0000000000
40
1.0000000000
10
-14.5874605556
20
-31.9426195529
30
0.0000000000
10
-14.5864436563
20
-31.9718550065
30
0.0000000000
10
-14.5819341820
20
-32.0289086834
30
0.0000000000
10
-14.5670968822
20
-32.1113514981
30
0.0000000000
10
-14.5444785899
20
-32.1877811932
30
0.0000000000
10
-14.5142906229
20
-32.2573337404
30
0.0000000000
10
-14.4768181229
20
-32.3192230888
30
0.0000000000
10
-14.4324277833
20
-32.3727165046
30
0.0000000000
10
-14.3815874589
20
-32.4171430822
30
0.0000000000
10
-14.3248839364
20
-32.4519195258
30
0.0000000000
10
-14.2630201191
20
-32.4765933576
30
0.0000000000
10
-14.1967801351
20
-32.4908777792
30
0.0000000000
10
-14.1269811322
20
-32.4946550405
30
0.0000000000
10
-14.0544383219
20
-32.4879479356
30
0.0000000000
10
-13.9799850123
20
-32.4709041893
30
0.0000000000
10
-13.9308807805
20
-32.4532640102
30
0.0000000000
10
-13.9062728963
20
-32.4429352211
30
0.0000000000
11
-14.5874605556
21
-31.9426195529
31
0.0000000000
11
-14.5803502954
21
-32.0300904434
31
0.0000000000
11
-14.5653211773
21
-32.1123655891
31
0.0000000000
11
-14.5425402492
21
-32.1884995884
31
0.0000000000
11
-14.5122619106
21
-32.2576392883
31
0.0000000000
11
-14.4748222889
21
-32.3190173146
31
0.0000000000
11
-14.4306370773
21
-32.3719510426
31
0.0000000000
11
-14.3801987349
21
-32.4158498942
31
0.0000000000
11
-14.3240681290
21
-32.4502255991
31
0.0000000000
11
-14.2628692281
21
-32.4746956677
31
0.0000000000
11
-14.1972842611
21
-32.4889872323
31
0.0000000000
11
-14.1280424425
21
-32.4929415783
31
0.0000000000
11
-14.0559123057
21
-32.4865142959
31
0.0000000000
11
-13.9817019768
21
-32.4697781059
31
0.0000000000
11
-13.9062728963
21
-32.4429352211
31
0.0000000000
0
SPLINE
5
366
100
AcDbEntity
8
0
100
AcDbSpline
62
9
6
CONTINUOUS
70
0
71
3
72
15
73
11
74
9
42
0.0000001000
43
0.0000001000
44
0.0000000001
12
0.0310416962
22
-0.8977066990
32
0.0000000000
13
0.8042870030
23
-0.4023069738
33
0.0000000000
40
0.0000000000
40
0.0000000000
40
0.0000000000
40
0.0000000000
40
0.1465674326
40
0.2861254853
40
0.4186548540
40
0.5444398215
40
0.6641513047
40
0.7788532701
40
0.8899850540
40
1.0000000000
40
1.0000000000
40
1.0000000000
40
1.0000000000
10
-15.2880440295
20
-31.9572193671
30
0.0000000000
10
-15.2865274622
20
-32.0010775558
30
0.0000000000
10
-15.2798017658
20
-32.0866316622
30
0.0000000000
10
-15.2576719294
20
-32.2102337591
30
0.0000000000
10
-15.2239438247
20
-32.3247642545
30
0.0000000000
10
-15.1789297058
20
-32.4289502965
30
0.0000000000
10
-15.1230529250
20
-32.5216159862
30
0.0000000000
10
-15.0568577238
20
-32.6016653471
30
0.0000000000
10
-14.9808788540
20
-32.6682333250
30
0.0000000000
10
-14.9241569790
20
-32.7030221441
30
0.0000000000
10
-14.8946624486
20
-32.7177754041
30
0.0000000000
11
-15.2880440295
21
-31.9572193671
31
0.0000000000
11
-15.2774331885
21
-32.0884442744
31
0.0000000000
11
-15.2550161015
21
-32.2117806875
31
0.0000000000
11
-15.2210394862
21
-32.3258726256
31
0.0000000000
11
-15.1758830682
21
-32.4294420234
31
0.0000000000
11
-15.1200480777
21
-32.5213395812
31
0.0000000000
11
-15.0541544634
21
-32.6005435389
31
0.0000000000
11
-14.9789362595
21
-32.6661707249
31
0.0000000000
11
-14.8946624486
21
-32.7177754041
31
0.0000000000
0
SPLINE
5
367
100
AcDbEntity
8
0
100
AcDbSpline
62
9
6
CONTINUOUS
70
0
71
3
72
18
73
14
74
12
42
0.0000001000
43
0.0000001000
44
0.0000000001
12
-0.6380970856
22
-0.3397258123
32
0.0000000000
13
-0.6467991106
23
0.3228504744
33
0.0000000000
40
0.0000000000
40
0.0000000000
40
0.0000000000
40
0.0000000000
40
0.0824426650
40
0.1702426433
40
0.2623898895
40
0.3576875487
40
0.4548144295
40
0.5523807451
40
0.6489805877
40
0.7432436837
40
0.8338887643
40
0.9197813561
40
1.0000000000
40
1.0000000000
40
1.0000000000
40
1.0000000000
10
-14.5874605556
20
-31.9426195529
30
0.0000000000
10
-14.6049960303
20
-31.9519555200
30
0.0000000000
10
-14.6423329848
20
-31.9691618484
30
0.0000000000
10
-14.7021070877
20
-31.9900134804
30
0.0000000000
10
-14.7664524352
20
-32.0064105952
30
0.0000000000
10
-14.8341018883
20
-32.0180274662
30
0.0000000000
10
-14.9037313884
20
-32.0246367221
30
0.0000000000
10
-14.9739711626
20
-32.0261075038
30
0.0000000000
10
-15.0434401159
20
-32.0224110059
30
0.0000000000
10
-15.1107723085
20
-32.0136210162
30
0.0000000000
10
-15.1746520024
20
-31.9999090722
30
0.0000000000
10
-15.2338227157
20
-31.9815474571
30
0.0000000000
10
-15.2707487972
20
-31.9658521788
30
0.0000000000
10
-15.2880439130
20
-31.9572193030
30
0.0000000000
11
-14.5874605556
21
-31.9426195529
31
0.0000000000
11
-14.6414970083
21
-31.9677579736
31
0.0000000000
11
-14.7013724385
21
-31.9888157079
31
0.0000000000
11
-14.7658948242
21
-32.0053735308
31
0.0000000000
11
-14.8337796301
21
-32.0171018030
31
0.0000000000
11
-14.9036753803
21
-32.0237670338
31
0.0000000000
11
-14.9741905646
21
-32.0252365292
31
0.0000000000
11
-15.0439213409
21
-32.0214810341
31
0.0000000000
11
-15.1114794831
21
-32.0125753143
31
0.0000000000
11
-15.1755200189
21
-31.9986966680
31
0.0000000000
11
-15.2347680058
21
-31.9801213964
31
0.0000000000
11
-15.2880439130
21
-31.9572193030
31
0.0000000000
0
SPLINE
5
368
100
AcDbEntity
8
0
100
AcDbSpline
62
9
6
CONTINUOUS
70
0
71
3
72
14
73
10
74
8
42
0.0000001000
43
0.0000001000
44
0.0000000001
12
-1.1963802455
22
-35.5662953333
32
0.0000000000
13
1.2365004139
23
-35.5649231146
33
0.0000000000
40
0.0000000000
40
0.0000000000
40
0.0000000000
40
0.0000000000
40
0.1448612373
40
0.2890651229
40
0.4326049489
40
0.5754743190
40
0.7176671223
40
0.8591775337
40
1.0000000000
40
1.0000000000
40
1.0000000000
40
1.0000000000
10
-14.5874605556
20
3.6370050748
30
0.0000000000
10
-14.6452302632
20
1.9196125584
30
0.0000000000
10
-14.7443445252
20
-1.5079457577
30
0.0000000000
10
-14.8437326637
20
-6.6386772585
30
0.0000000000
10
-14.8934888236
20
-11.7465071040
30
0.0000000000
10
-14.8936058454
20
-16.8307230250
30
0.0000000000
10
-14.8440836152
20
-21.8906263533
30
0.0000000000
10
-14.7449291169
20
-26.9255108696
30
0.0000000000
10
-14.6455029015
20
-30.2731728242
30
0.0000000000
10
-14.5874605556
20
-31.9426195529
30
0.0000000000
11
-14.5874605556
21
3.6370050748
31
0.0000000000
11
-14.7363568266
21
-1.5159357799
31
0.0000000000
11
-14.8356324600
21
-6.6466742433
31
0.0000000000
11
-14.8852737051
21
-11.7545003503
31
0.0000000000
11
-14.8852737069
21
-16.8387085601
31
0.0000000000
11
-14.8356324657
21
-21.8985966765
31
0.0000000000
11
-14.7363568359
21
-26.9334657776
31
0.0000000000
11
-14.5874605556
21
-31.9426195529
31
0.0000000000
0
SPLINE
5
369
100
AcDbEntity
8
0
100
AcDbSpline
62
9
6
CONTINUOUS
70
0
71
3
72
14
73
10
74
8
42
0.0000001000
43
0.0000001000
44
0.0000000001
12
-1.1975571035
22
-35.6018976943
32
0.0000000000
13
1.2377174667
23
-35.6005241243
33
0.0000000000
40
0.0000000000
40
0.0000000000
40
0.0000000000
40
0.0000000000
40
0.1448613000
40
0.2890652005
40
0.4326050301
40
0.5754743923
40
0.7176671754
40
0.8591775541
40
1.0000000000
40
1.0000000000
40
1.0000000000
40
1.0000000000
10
-15.2880440295
20
3.6580205005
30
0.0000000000
10
-15.3458705891
20
1.9389081062
30
0.0000000000
10
-15.4450823521
20
-1.4920821456
30
0.0000000000
10
-15.5445682722
20
-6.6279504754
30
0.0000000000
10
-15.5943733761
20
-11.7408933612
30
0.0000000000
10
-15.5944905133
20
-16.8301982612
30
0.0000000000
10
-15.5449195695
20
-21.8951658081
30
0.0000000000
10
-15.4456675225
20
-26.9350893768
30
0.0000000000
10
-15.3461434965
20
-30.2861017401
30
0.0000000000
10
-15.2880440295
20
-31.9572193671
30
0.0000000000
11
-15.2880440295
21
3.6580205005
31
0.0000000000
11
-15.4370868127
21
-1.5000807264
31
0.0000000000
11
-15.5364601023
21
-6.6359555940
31
0.0000000000
11
-15.5861501776
21
-11.7488947458
31
0.0000000000
11
-15.5861501776
21
-16.8381919350
31
0.0000000000
11
-15.5364601023
21
-21.9031442631
31
0.0000000000
11
-15.4370868127
21
-26.9430521093
31
0.0000000000
11
-15.2880440295
21
-31.9572193671
31
0.0000000000
0
SPLINE
5
36A
100
AcDbEntity
8
0
100
AcDbSpline
62
9
6
CONTINUOUS
70
0
71
3
72
18
73
14
74
12
42
0.0000001000
43
0.0000001000
44
0.0000000001
12
-0.6598811159
22
-0.2859158686
32
0.0000000000
13
-0.6430024739
23
0.3220850659
33
0.0000000000
40
0.0000000000
40
0.0000000000
40
0.0000000000
40
0.0000000000
40
0.0801802321
40
0.1664109950
40
0.2576286248
40
0.3525680072
40
0.4498271329
40
0.5479234206
40
0.6453460049
40
0.7406067501
40
0.8322922827
40
0.9191197082
40
1.0000000000
40
1.0000000000
40
1.0000000000
40
1.0000000000
10
-14.5874605556
20
3.6370050748
30
0.0000000000
10
-14.6050970293
20
3.6293634746
30
0.0000000000
10
-14.6426117509
20
3.6155633562
30
0.0000000000
10
-14.7023522395
20
3.5996335649
30
0.0000000000
10
-14.7666630471
20
3.5879528465
30
0.0000000000
10
-14.8342782827
20
3.5807558474
30
0.0000000000
10
-14.9038737639
20
3.5781851731
30
0.0000000000
10
-14.9740787947
20
3.5802930742
30
0.0000000000
10
-15.0435108360
20
3.5870381073
30
0.0000000000
10
-15.1108022978
20
3.5982859408
30
0.0000000000
10
-15.1746348029
20
3.6138145841
30
0.0000000000
10
-15.2337516254
20
3.6333136071
30
0.0000000000
10
-15.2707086201
20
3.6493370559
30
0.0000000000
10
-15.2880440293
20
3.6580205006
30
0.0000000000
11
-14.5874605556
21
3.6370050748
31
0.0000000000
11
-14.6414970081
21
3.6168800873
31
0.0000000000
11
-14.7013724422
21
3.6007359772
31
0.0000000000
11
-14.7658948354
21
3.5888941475
31
0.0000000000
11
-14.8337796517
21
3.5815903498
31
0.0000000000
11
-14.9036754147
21
3.5789699908
31
0.0000000000
11
-14.9741906133
21
3.5810852375
31
0.0000000000
11
-15.0439214047
21
3.5878939789
31
0.0000000000
11
-15.1114795619
21
3.5992606641
31
0.0000000000
11
-15.1755201120
21
3.6149590007
31
0.0000000000
11
-15.2347681116
21
3.6346764604
31
0.0000000000
11
-15.2880440293
21
3.6580205006
31
0.0000000000
0
SPLINE
5
36B
100
AcDbEntity
8
0
100
AcDbSpline
62
9
6
CONTINUOUS
70
0
71
3
72
21
73
17
74
15
42
0.0000001000
43
0.0000001000
44
0.0000000001
12
-1.2263250671
22
-0.6695138293
32
0.0000000000
13
-0.0469947056
23
-1.3963930090
33
0.0000000000
40
0.0000000000
40
0.0000000000
40
0.0000000000
40
0.0000000000
40
0.0632423494
40
0.1293238015
40
0.1979766025
40
0.2688666363
40
0.3416015236
40
0.4157381206
40
0.4907946243
40
0.5662687081
40
0.6416481346
40
0.7164208463
40
0.7900920006
40
0.8621954529
40
0.9322989743
40
1.0000000000
40
1.0000000000
40
1.0000000000
40
1.0000000000
10
-13.9062728963
20
4.7951360191
30
0.0000000000
10
-13.9321247890
20
4.7810221432
30
0.0000000000
10
-13.9835699488
20
4.7494995617
30
0.0000000000
10
-14.0576671497
20
4.6944505798
30
0.0000000000
10
-14.1296693401
20
4.6311560021
30
0.0000000000
10
-14.1987702322
20
4.5603253284
30
0.0000000000
10
-14.2642149255
20
4.4827388322
30
0.0000000000
10
-14.3252832385
20
4.3992522197
30
0.0000000000
10
-14.3813026505
20
4.3107868082
30
0.0000000000
10
-14.4316552288
20
4.2183194776
30
0.0000000000
10
-14.4757853725
20
4.1228712861
30
0.0000000000
10
-14.5132060540
20
4.0254955051
30
0.0000000000
10
-14.5435046099
20
3.9272663733
30
0.0000000000
10
-14.5663455822
20
3.8292643312
30
0.0000000000
10
-14.5814743824
20
3.7325927713
30
0.0000000000
10
-14.5864000257
20
3.6685174878
30
0.0000000000
10
-14.5874605556
20
3.6370050748
30
0.0000000000
11
-13.9062728963
21
4.7951360191
31
0.0000000000
11
-13.9817128801
21
4.7491305247
31
0.0000000000
11
-14.0559233986
21
4.6942010823
31
0.0000000000
11
-14.1280536096
21
4.6309714405
31
0.0000000000
11
-14.1972953916
21
4.5601493879
31
0.0000000000
11
-14.2628801147
21
4.4825215617
31
0.0000000000
11
-14.3240786181
21
4.3989508484
31
0.0000000000
11
-14.3802084278
21
4.3103693497
31
0.0000000000
11
-14.4306455285
21
4.2177624172
31
0.0000000000
11
-14.4748292850
21
4.1221597728
31
0.0000000000
11
-14.5122674804
21
4.0246271419
31
0.0000000000
11
-14.5425444250
21
3.9262486416
31
0.0000000000
11
-14.5653240051
21
3.8281161151
31
0.0000000000
11
-14.5803519146
21
3.7313283449
31
0.0000000000
11
-14.5874605556
21
3.6370050748
31
0.0000000000
0
SPLINE
5
36C
100
AcDbEntity
8
0
100
AcDbSpline
62
9
6
CONTINUOUS
70
0
71
3
72
21
73
17
74
15
42
0.0000001000
43
0.0000001000
44
0.0000000001
12
-1.8337301161
22
-1.0121382920
32
0.0000000000
13
-0.0700221748
23
-2.0933434873
33
0.0000000000
40
0.0000000000
40
0.0000000000
40
0.0000000000
40
0.0000000000
40
0.0631226289
40
0.1290868232
40
0.1976523963
40
0.2684837715
40
0.3411865805
40
0.4153151671
40
0.4903850914
40
0.5658908224
40
0.6413163917
40
0.7161456439
40
0.7898792796
40
0.8620463819
40
0.9322095142
40
1.0000000000
40
1.0000000000
40
1.0000000000
40
1.0000000000
10
-14.2721056363
20
5.3981384648
30
0.0000000000
10
-14.3106889248
20
5.3768421882
30
0.0000000000
10
-14.3874467657
20
5.3293123714
30
0.0000000000
10
-14.4979599213
20
5.2464103943
30
0.0000000000
10
-14.6053322278
20
5.1511635444
30
0.0000000000
10
-14.7083778568
20
5.0446282633
30
0.0000000000
10
-14.8059711650
20
4.9279776024
30
0.0000000000
10
-14.8970386215
20
4.8024977930
30
0.0000000000
10
-14.9805776535
20
4.6695730361
30
0.0000000000
10
-15.0556670186
20
4.5306706399
30
0.0000000000
10
-15.1214782152
20
4.3873240888
30
0.0000000000
10
-15.1772850410
20
4.2411150586
30
0.0000000000
10
-15.2224718765
20
4.0936562978
30
0.0000000000
10
-15.2565390885
20
3.9465698237
30
0.0000000000
10
-15.2791098502
20
3.8014841129
30
0.0000000000
10
-15.2864617504
20
3.7053234245
30
0.0000000000
10
-15.2880440295
20
3.6580205005
30
0.0000000000
11
-14.2721056363
21
5.3981384648
31
0.0000000000
11
-14.3846615630
21
5.3287772558
31
0.0000000000
11
-14.4953318798
21
5.2460664292
31
0.0000000000
11
-14.6028993594
21
5.1509164376
31
0.0000000000
11
-14.7061590511
21
5.0443925789
31
0.0000000000
11
-14.8039649174
21
4.9276778883
31
0.0000000000
11
-14.8952298010
21
4.8020696117
31
0.0000000000
11
-14.9789364972
21
4.6689679845
31
0.0000000000
11
-15.0541546634
21
4.5298530532
31
0.0000000000
11
-15.1200482544
21
4.3862713916
31
0.0000000000
11
-15.1758832340
21
4.2398233062
31
0.0000000000
11
-15.2210396050
21
4.0921363827
31
0.0000000000
11
-15.2550161884
21
3.9448494732
31
0.0000000000
11
-15.2774332501
21
3.7996116138
31
0.0000000000
11
-15.2880440295
21
3.6580205005
31
0.0000000000
0
SPLINE
5
36D
100
AcDbEntity
8
0
100
AcDbSpline
62
9
6
CONTINUOUS
70
0
71
3
72
18
73
14
74
12
42
0.0000001000
43
0.0000001000
44
0.0000000001
12
-0.0325473818
22
0.7320804071
32
0.0000000000
13
-0.6504608185
23
0.3374933751
33
0.0000000000
40
0.0000000000
40
0.0000000000
40
0.0000000000
40
0.0000000000
40
0.0850839003
40
0.1748243756
40
0.2682332455
40
0.3641524548
40
0.4613158552
40
0.5584058763
40
0.6541079433
40
0.7471650214
40
0.8364347003
40
0.9209517528
40
1.0000000000
40
1.0000000000
40
1.0000000000
40
1.0000000000
10
-13.9062728963
20
4.7951360191
30
0.0000000000
10
-13.9071959823
20
4.8158987712
30
0.0000000000
10
-13.9115925440
20
4.8584742536
30
0.0000000000
10
-13.9248521309
20
4.9227338346
30
0.0000000000
10
-13.9447055370
20
4.9880411381
30
0.0000000000
10
-13.9707542458
20
5.0530809912
30
0.0000000000
10
-14.0024765639
20
5.1165545211
30
0.0000000000
10
-14.0392361389
20
5.1771877822
30
0.0000000000
10
-14.0802961894
20
5.2337652945
30
0.0000000000
10
-14.1248338440
20
5.2851534644
30
0.0000000000
10
-14.1719661445
20
5.3303281641
30
0.0000000000
10
-14.2207482220
20
5.3683821955
30
0.0000000000
10
-14.2549663738
20
5.3892457116
30
0.0000000000
10
-14.2721056363
20
5.3981384648
30
0.0000000000
11
-13.9062728963
21
4.7951360191
31
0.0000000000
11
-13.9124810349
21
4.8571759634
31
0.0000000000
11
-13.9256253523
21
4.9216110929
31
0.0000000000
11
-13.9454385798
21
4.9871312176
31
0.0000000000
11
-13.9715178462
21
5.0524040851
31
0.0000000000
11
-14.0033328700
21
5.1161024703
31
0.0000000000
11
-14.0402367415
21
5.1769311624
31
0.0000000000
11
-14.0814790766
21
5.2336533012
31
0.0000000000
11
-14.1262212748
21
5.2851155267
31
0.0000000000
11
-14.1735535710
21
5.3302714314
31
0.0000000000
11
-14.2225135340
21
5.3682028369
31
0.0000000000
11
-14.2721056363
21
5.3981384648
31
0.0000000000
0
SPLINE
5
36E
100
AcDbEntity
8
0
100
AcDbSpline
62
7
6
CONTINUOUS
70
0
71
3
72
10
73
6
74
4
42
0.0000001000
43
0.0000001000
44
0.0000000001
12
0.8899815397
22
0.4974375475
32
0.0000000000
13
0.8901386879
23
0.4971562843
33
0.0000000000
40
0.0000000000
40
0.0000000000
40
0.0000000000
40
0.0000000000
40
0.3330127956
40
0.6663150956
40
1.0000000000
40
1.0000000000
40
1.0000000000
40
1.0000000000
10
-9.6414275554
20
7.9018941356
30
0.0000000000
10
-9.5426358085
20
7.9571118250
30
0.0000000000
10
-9.3449606037
20
8.0675847832
30
0.0000000000
10
-9.0482738766
20
8.2333503914
30
0.0000000000
10
-8.8503759870
20
8.3438930974
30
0.0000000000
10
-8.7513673727
20
8.3991909464
30
0.0000000000
11
-9.6414275554
21
7.9018941356
31
0.0000000000
11
-9.3450435832
21
8.0675315810
31
0.0000000000
11
-9.0483844838
21
8.2332817663
31
0.0000000000
11
-8.7513673727
21
8.3991909464
31
0.0000000000
0
SPLINE
5
36F
100
AcDbEntity
8
0
100
AcDbSpline
62
7
6
CONTINUOUS
70
0
71
3
72
20
73
16
74
14
42
0.0000001000
43
0.0000001000
44
0.0000000001
12
1.3024111604
22
0.6512055802
32
0.0000000000
13
1.3024111604
23
-0.6512055802
33
0.0000000000
40
0.0000000000
40
0.0000000000
40
0.0000000000
40
0.0000000000
40
0.0678825212
40
0.1401182349
40
0.2159807257
40
0.2949725492
40
0.3760155503
40
0.4585842870
40
0.5414157130
40
0.6239844497
40
0.7050274508
40
0.7840192743
40
0.8598817651
40
0.9321174788
40
1.0000000000
40
1.0000000000
40
1.0000000000
40
1.0000000000
10
-14.1607342487
20
14.4577073891
30
0.0000000000
10
-14.1312639310
20
14.4724425479
30
0.0000000000
10
-14.0688976696
20
14.4998453168
30
0.0000000000
10
-13.9696292525
20
14.5338574248
30
0.0000000000
10
-13.8628765642
20
14.5616903496
30
0.0000000000
10
-13.7502757271
20
14.5829129095
30
0.0000000000
10
-13.6333182425
20
14.5972448798
30
0.0000000000
10
-13.5138432396
20
14.6044580626
30
0.0000000000
10
-13.3934116954
20
14.6044580626
30
0.0000000000
10
-13.2739366926
20
14.5972448798
30
0.0000000000
10
-13.1569792080
20
14.5829129095
30
0.0000000000
10
-13.0443783709
20
14.5616903496
30
0.0000000000
10
-12.9376256826
20
14.5338574248
30
0.0000000000
10
-12.8383572655
20
14.4998453168
30
0.0000000000
10
-12.7759910041
20
14.4724425479
30
0.0000000000
10
-12.7465206864
20
14.4577073891
30
0.0000000000
11
-14.1607342487
21
14.4577073891
31
0.0000000000
11
-14.0703577607
21
14.4977412650
31
0.0000000000
11
-13.9709271923
21
14.5320561470
31
0.0000000000
11
-13.8640785529
21
14.5600953068
31
0.0000000000
11
-13.7510691018
21
14.5815240002
31
0.0000000000
11
-13.6339452259
21
14.5959582039
31
0.0000000000
11
-13.5139345416
21
14.6032439345
31
0.0000000000
11
-13.3933203935
21
14.6032439345
31
0.0000000000
11
-13.2733097092
21
14.5959582039
31
0.0000000000
11
-13.1561858332
21
14.5815240002
31
0.0000000000
11
-13.0431763822
21
14.5600953068
31
0.0000000000
11
-12.9363277428
21
14.5320561470
31
0.0000000000
11
-12.8368971744
21
14.4977412650
31
0.0000000000
11
-12.7465206864
21
14.4577073891
31
0.0000000000
0
SPLINE
5
370
100
AcDbEntity
8
0
100
AcDbSpline
62
9
6
CONTINUOUS
70
0
71
3
72
40
73
36
74
34
42
0.0000001000
43
0.0000001000
44
0.0000000001
12
-9.2359653003
22
4.6180085323
32
0.0000000000
13
9.2412693133
23
4.6219767262
33
0.0000000000
40
0.0000000000
40
0.0000000000
40
0.0000000000
40
0.0000000000
40
0.0290390097
40
0.0592938869
40
0.0906700456
40
0.1230431089
40
0.1562714962
40
0.1902639219
40
0.2249589065
40
0.2602566905
40
0.2960192584
40
0.3321113895
40
0.3684071258
40
0.4047782877
40
0.4410924999
40
0.4772174967
40
0.5130209461
40
0.5483746495
40
0.5831586464
40
0.6172629276
40
0.6505992988
40
0.6830938396
40
0.7146604756
40
0.7452105749
40
0.7746965122
40
0.8031152757
40
0.8304826847
40
0.8568298906
40
0.8822153688
40
0.9067270162
40
0.9304842091
40
0.9536378121
40
0.9763651557
40
0.9988654359
40
1.0000000000
40
1.0000000000
40
1.0000000000
40
1.0000000000
10
-22.2677976558
20
-14.4705776862
30
0.0000000000
10
-22.3571987511
20
-14.4258768881
30
0.0000000000
10
-22.5363814883
20
-14.3277422412
30
0.0000000000
10
-22.7993983843
20
-14.1593495202
30
0.0000000000
10
-23.0603363480
20
-13.9676625182
30
0.0000000000
10
-23.3171001234
20
-13.7540684311
30
0.0000000000
10
-23.5678597538
20
-13.5200666666
30
0.0000000000
10
-23.8111140747
20
-13.2670802909
30
0.0000000000
10
-24.0455720324
20
-12.9964358067
30
0.0000000000
10
-24.2699148056
20
-12.7095821601
30
0.0000000000
10
-24.4827615637
20
-12.4081970382
30
0.0000000000
10
-24.6827880739
20
-12.0940787989
30
0.0000000000
10
-24.8687889263
20
-11.7690435580
30
0.0000000000
10
-25.0396520362
20
-11.4349431672
30
0.0000000000
10
-25.1943413542
20
-11.0936971789
30
0.0000000000
10
-25.3319040076
20
-10.7472930018
30
0.0000000000
10
-25.4514860070
20
-10.3977658481
30
0.0000000000
10
-25.5523447717
20
-10.0471776332
30
0.0000000000
10
-25.6338589590
20
-9.6975882345
30
0.0000000000
10
-25.6955371363
20
-9.3510001450
30
0.0000000000
10
-25.7370057307
20
-9.0093418913
30
0.0000000000
10
-25.7579861212
20
-8.6745519309
30
0.0000000000
10
-25.7583085361
20
-8.3486770333
30
0.0000000000
10
-25.7379591738
20
-8.0337926764
30
0.0000000000
10
-25.6970823024
20
-7.7318149811
30
0.0000000000
10
-25.6359302897
20
-7.4444422196
30
0.0000000000
10
-25.5548423805
20
-7.1732673154
30
0.0000000000
10
-25.4542670875
20
-6.9198578854
30
0.0000000000
10
-25.3347769038
20
-6.6857345767
30
0.0000000000
10
-25.1970636105
20
-6.4723265063
30
0.0000000000
10
-25.0419374334
20
-6.2809552325
30
0.0000000000
10
-24.8703269415
20
-6.1128232744
30
0.0000000000
10
-24.6832763150
20
-5.9689990289
30
0.0000000000
10
-24.5454240692
20
-5.8877970226
30
0.0000000000
10
-24.4727331766
20
-5.8511550919
30
0.0000000000
10
-24.4692382390
20
-5.8494071156
30
0.0000000000
11
-22.2677976558
21
-14.4705776862
31
0.0000000000
11
-22.5309845328
21
-14.3268796608
31
0.0000000000
11
-22.7942892464
21
-14.1587298881
31
0.0000000000
11
-23.0555900701
21
-13.9671723843
31
0.0000000000
11
-23.3127612803
21
-13.7536030874
31
0.0000000000
11
-23.5637842351
21
-13.5196813876
31
0.0000000000
11
-23.8072150916
21
-13.2667986166
31
0.0000000000
11
-24.0419188876
21
-12.9961179947
31
0.0000000000
11
-24.2665627663
21
-12.7090851598
31
0.0000000000
11
-24.4796707325
21
-12.4074903497
31
0.0000000000
11
-24.6799045681
21
-12.0931563039
31
0.0000000000
11
-24.8660785851
21
-11.7678713919
31
0.0000000000
11
-25.0370808383
21
-11.4334858417
31
0.0000000000
11
-25.1918656809
21
-11.0919368145
31
0.0000000000
11
-25.3294782562
21
-10.7452159748
31
0.0000000000
11
-25.4490576799
21
-10.3953772070
31
0.0000000000
11
-25.5498566839
21
-10.0445018004
31
0.0000000000
11
-25.6312534122
21
-9.6946619957
31
0.0000000000
11
-25.6927511843
21
-9.3479077685
31
0.0000000000
11
-25.7339864661
21
-9.0061505769
31
0.0000000000
11
-25.7546916545
21
-8.6712470033
31
0.0000000000
11
-25.7546937200
21
-8.3452856675
31
0.0000000000
11
-25.7339921916
21
-8.0305012014
31
0.0000000000
11
-25.6927601235
21
-7.7288301805
31
0.0000000000
11
-25.6312655824
21
-7.4418897104
31
0.0000000000
11
-25.5498720731
21
-7.1712652408
31
0.0000000000
11
-25.4490763121
21
-6.9185609303
31
0.0000000000
11
-25.3295003344
21
-6.6852890934
31
0.0000000000
11
-25.1918910377
21
-6.4728540602
31
0.0000000000
11
-25.0371088968
21
-6.2825270296
31
0.0000000000
11
-24.8661089735
21
-6.1154290741
31
0.0000000000
11
-24.6799374422
21
-5.9725392677
31
0.0000000000
11
-24.4797064994
21
-5.8546839559
31
0.0000000000
11
-24.4692382390
21
-5.8494071156
31
0.0000000000
0
SPLINE
5
371
100
AcDbEntity
8
0
100
AcDbSpline
62
9
6
CONTINUOUS
70
0
71
3
72
48
73
44
74
42
42
0.0000001000
43
0.0000001000
44
0.0000000001
12
-13.5936249506
22
6.7968970795
32
0.0000000000
13
13.5936913681
23
-6.7967642444
33
0.0000000000
40
0.0000000000
40
0.0000000000
40
0.0000000000
40
0.0000000000
40
0.0237537648
40
0.0485050087
40
0.0741746942
40
0.1006619194
40
0.1278515826
40
0.1556696158
40
0.1840662393
40
0.2129602420
40
0.2422389755
40
0.2717919464
40
0.3015161191
40
0.3313065152
40
0.3610545954
40
0.3906517863
40
0.4199893386
40
0.4489617725
40
0.4774702481
40
0.5054239781
40
0.5327499645
40
0.5593868297
40
0.5852631617
40
0.6103053984
40
0.6344735643
40
0.6577642498
40
0.6801895029
40
0.7017740046
40
0.7225649501
40
0.7426338294
40
0.7620781794
40
0.7810216492
40
0.7996099241
40
0.8180069526
40
0.8363861094
40
0.8549149823
40
0.8737480870
40
0.8930403535
40
0.9129450801
40
0.9335715645
40
0.9549599455
40
0.9771132369
40
1.0000000000
40
1.0000000000
40
1.0000000000
40
1.0000000000
10
-22.9748550090
20
-15.7003713455
30
0.0000000000
10
-23.0824882656
20
-15.6465540474
30
0.0000000000
10
-23.2982108720
20
-15.5283670421
30
0.0000000000
10
-23.6148137282
20
-15.3254792871
30
0.0000000000
10
-23.9288680996
20
-15.0944486453
30
0.0000000000
10
-24.2378427948
20
-14.8369546974
30
0.0000000000
10
-24.5395394570
20
-14.5548071696
30
0.0000000000
10
-24.8321563525
20
-14.2497241880
30
0.0000000000
10
-25.1141455632
20
-13.9233080832
30
0.0000000000
10
-25.3839264829
20
-13.5773092682
30
0.0000000000
10
-25.6398446893
20
-13.2137544720
30
0.0000000000
10
-25.8803144323
20
-12.8348163183
30
0.0000000000
10
-26.1038932224
20
-12.4426891034
30
0.0000000000
10
-26.3092509668
20
-12.0396103722
30
0.0000000000
10
-26.4951490046
20
-11.6278993742
30
0.0000000000
10
-26.6604485118
20
-11.2099571601
30
0.0000000000
10
-26.8041291996
20
-10.7882422955
30
0.0000000000
10
-26.9253041968
20
-10.3652453086
30
0.0000000000
10
-27.0232316996
20
-9.9434539366
30
0.0000000000
10
-27.0973252564
20
-9.5252862689
30
0.0000000000
10
-27.1471391772
20
-9.1130706873
30
0.0000000000
10
-27.1723409365
20
-8.7091470432
30
0.0000000000
10
-27.1727278114
20
-8.3159852683
30
0.0000000000
10
-27.1482834334
20
-7.9360892711
30
0.0000000000
10
-27.0991802840
20
-7.5717700596
30
0.0000000000
10
-27.0257196753
20
-7.2250751732
30
0.0000000000
10
-26.9283062437
20
-6.8979243795
30
0.0000000000
10
-26.8074748296
20
-6.5922062808
30
0.0000000000
10
-26.6639081504
20
-6.3097522992
30
0.0000000000
10
-26.4984312066
20
-6.0522831338
30
0.0000000000
10
-26.3120104430
20
-5.8213897682
30
0.0000000000
10
-26.1057540113
20
-5.6185200110
30
0.0000000000
10
-25.8809091187
20
-5.4449605851
30
0.0000000000
10
-25.6388629264
20
-5.3018227761
30
0.0000000000
10
-25.3811613216
20
-5.1900338825
30
0.0000000000
10
-25.1095261854
20
-5.1103064138
30
0.0000000000
10
-24.8257477467
20
-5.0630749363
30
0.0000000000
10
-24.5315044903
20
-5.0485174167
30
0.0000000000
10
-24.2284122998
20
-5.0666685192
30
0.0000000000
10
-23.9183382219
20
-5.1174061616
30
0.0000000000
10
-23.6035263588
20
-5.2002831356
30
0.0000000000
10
-23.2865184313
20
-5.3143821858
30
0.0000000000
10
-23.0785602068
20
-5.4089404454
30
0.0000000000
10
-22.9748550090
20
-5.4607924230
30
0.0000000000
11
-22.9748550090
21
-15.7003713455
31
0.0000000000
11
-23.2916913767
21
-15.5273231106
31
0.0000000000
11
-23.6086476456
21
-15.3247265703
31
0.0000000000
11
-23.9231354735
21
-15.0938572883
31
0.0000000000
11
-24.2325985482
21
-14.8363983961
31
0.0000000000
11
-24.5346111028
21
-14.5543521428
31
0.0000000000
11
-24.8274402925
21
-14.2493984453
31
0.0000000000
11
-25.1097258210
21
-13.9229426278
31
0.0000000000
11
-25.3798701317
21
-13.5767309686
31
0.0000000000
11
-25.6361042642
21
-13.2129258606
31
0.0000000000
11
-25.8768255528
21
-12.8337293178
31
0.0000000000
11
-26.1006151340
21
-12.4413021371
31
0.0000000000
11
-26.3061430060
21
-12.0378798625
31
0.0000000000
11
-26.4921588926
21
-11.6258029523
31
0.0000000000
11
-26.6575214991
21
-11.2074775621
31
0.0000000000
11
-26.8012021563
21
-10.7853847623
31
0.0000000000
11
-26.9223082535
21
-10.3620384446
31
0.0000000000
11
-27.0200972510
21
-9.9399412545
31
0.0000000000
11
-27.0939762543
21
-9.5215685892
31
0.0000000000
11
-27.1435114811
21
-9.1092282551
31
0.0000000000
11
-27.1683834670
21
-8.7051613437
31
0.0000000000
11
-27.1683853767
21
-8.3118883843
31
0.0000000000
11
-27.1435166534
21
-7.9321054997
31
0.0000000000
11
-27.0939841743
21
-7.5681486246
31
0.0000000000
11
-27.0201079692
21
-7.2219677270
31
0.0000000000
11
-26.9223217928
21
-6.8954740975
31
0.0000000000
11
-26.8012185882
21
-6.5906011343
31
0.0000000000
11
-26.6575411161
21
-6.3091710170
31
0.0000000000
11
-26.4921815487
21
-6.0528753076
31
0.0000000000
11
-26.3061680674
21
-5.8232446925
31
0.0000000000
11
-26.1006422172
21
-5.6216285708
31
0.0000000000
11
-25.8768549111
21
-5.4492049515
31
0.0000000000
11
-25.6361364551
21
-5.3069676010
31
0.0000000000
11
-25.3799047897
21
-5.1957454929
31
0.0000000000
11
-25.1097608994
21
-5.1162240593
31
0.0000000000
11
-24.8274748207
21
-5.0688797689
31
0.0000000000
11
-24.5346487858
21
-5.0539341049
31
0.0000000000
11
-24.2326433622
21
-5.0714935079
31
0.0000000000
11
-23.9231828365
21
-5.1215629244
31
0.0000000000
11
-23.6086855549
21
-5.2037715786
31
0.0000000000
11
-23.2917074742
21
-5.3172825766
31
0.0000000000
11
-22.9748550090
21
-5.4607924230
31
0.0000000000
0
SPLINE
5
372
100
AcDbEntity
8
0
100
AcDbSpline
62
9
6
CONTINUOUS
70
0
71
3
72
48
73
44
74
42
42
0.0000001000
43
0.0000001000
44
0.0000000001
12
13.5473504475
22
-6.7737473581
32
0.0000000000
13
-13.5474178645
23
6.7736125238
33
0.0000000000
40
0.0000000000
40
0.0000000000
40
0.0000000000
40
0.0000000000
40
0.0238229194
40
0.0486264548
40
0.0743365612
40
0.1008573922
40
0.1280786603
40
0.1559306837
40
0.1843674873
40
0.2133109454
40
0.2426506808
40
0.2722776465
40
0.3020894219
40
0.3319807811
40
0.3618420691
40
0.3915627754
40
0.4210314489
40
0.4501392047
40
0.4787831782
40
0.5068680663
40
0.5343160521
40
0.5610607242
40
0.5870254550
40
0.6121316349
40
0.6363347842
40
0.6596276744
40
0.6820194736
40
0.7035333040
40
0.7242165052
40
0.7441427737
40
0.7634142000
40
0.7821614076
40
0.8005392429
40
0.8187223669
40
0.8368954853
40
0.8552370700
40
0.8739109378
40
0.8930787887
40
0.9128979861
40
0.9334795061
40
0.9548628617
40
0.9770482994
40
1.0000000000
40
1.0000000000
40
1.0000000000
40
1.0000000000
10
-22.9748550090
20
-5.4607924230
30
0.0000000000
10
-22.8672758629
20
-5.5145825689
30
0.0000000000
10
-22.6518255428
20
-5.6328222106
30
0.0000000000
10
-22.3360470231
20
-5.8361591692
30
0.0000000000
10
-22.0233747453
20
-6.0679206793
30
0.0000000000
10
-21.7163089785
20
-6.3264078270
30
0.0000000000
10
-21.4170006723
20
-6.6097851850
30
0.0000000000
10
-21.1271939097
20
-6.9163044116
30
0.0000000000
10
-20.8483714990
20
-7.2443298894
30
0.0000000000
10
-20.5820408890
20
-7.5920739124
30
0.0000000000
10
-20.3297750694
20
-7.9574685046
30
0.0000000000
10
-20.0930730688
20
-8.3382974947
30
0.0000000000
10
-19.8732886739
20
-8.7323222300
30
0.0000000000
10
-19.6716630105
20
-9.1372607157
30
0.0000000000
10
-19.4893469978
20
-9.5507499435
30
0.0000000000
10
-19.3273948436
20
-9.9703468799
30
0.0000000000
10
-19.1867474838
20
-10.3935538859
30
0.0000000000
10
-19.0682197751
20
-10.8178451903
30
0.0000000000
10
-18.9724907036
20
-11.2407024523
30
0.0000000000
10
-18.9000946765
20
-11.6596825070
30
0.0000000000
10
-18.8514369080
20
-12.0724379679
30
0.0000000000
10
-18.8268212535
20
-12.4766162073
30
0.0000000000
10
-18.8264346106
20
-12.8697415668
30
0.0000000000
10
-18.8502922464
20
-13.2493122123
30
0.0000000000
10
-18.8982355711
20
-13.6130268288
30
0.0000000000
10
-18.9699906936
20
-13.9588546152
30
0.0000000000
10
-19.0651933111
20
-14.2848991941
30
0.0000000000
10
-19.1833622662
20
-14.5893014182
30
0.0000000000
10
-19.3238815161
20
-14.8702638958
30
0.0000000000
10
-19.4860040451
20
-15.1261023243
30
0.0000000000
10
-19.6688498473
20
-15.3552620042
30
0.0000000000
10
-19.8714013356
20
-15.5563293599
30
0.0000000000
10
-20.0925005951
20
-15.7280495585
30
0.0000000000
10
-20.3308440156
20
-15.8693432071
30
0.0000000000
10
-20.5849623865
20
-15.9793189256
30
0.0000000000
10
-20.8532057882
20
-16.0573068043
30
0.0000000000
10
-21.1338536509
20
-16.1029198222
30
0.0000000000
10
-21.4252955052
20
-16.1160270909
30
0.0000000000
10
-21.7259809518
20
-16.0966362582
30
0.0000000000
10
-22.0341044395
20
-16.0449053762
30
0.0000000000
10
-22.3474750192
20
-15.9613091917
30
0.0000000000
10
-22.6635909595
20
-15.8467812025
30
0.0000000000
10
-22.8712095826
20
-15.7521933211
30
0.0000000000
10
-22.9748550090
20
-15.7003713455
30
0.0000000000
11
-22.9748550090
21
-5.4607924230
31
0.0000000000
11
-22.6583034791
21
-5.6339830730
31
0.0000000000
11
-22.3422011253
21
-5.8370065698
31
0.0000000000
11
-22.0291214952
21
-6.0685799504
31
0.0000000000
11
-21.7215880924
21
-6.3270036764
31
0.0000000000
11
-21.4219776525
21
-6.6102509805
31
0.0000000000
11
-21.1319657183
21
-6.9166133003
31
0.0000000000
11
-20.8528498718
21
-7.2446539654
31
0.0000000000
11
-20.5861551370
21
-7.5925904211
31
0.0000000000
11
-20.3335682875
21
-7.9582191503
31
0.0000000000
11
-20.0966056429
21
-8.3392949767
31
0.0000000000
11
-19.8765983634
21
-8.7336133265
31
0.0000000000
11
-19.6747881702
21
-9.1388945257
31
0.0000000000
11
-19.4923381461
21
-9.5527543723
31
0.0000000000
11
-19.3303057135
21
-9.9727446916
31
0.0000000000
11
-19.1896408051
21
-10.3963452526
31
0.0000000000
11
-19.0711647435
21
-10.8210067219
31
0.0000000000
11
-18.9755581872
21
-11.2441953804
31
0.0000000000
11
-18.9033628365
21
-11.6634100215
31
0.0000000000
11
-18.8549732661
21
-12.0763232972
31
0.0000000000
11
-18.8306816091
21
-12.4806806153
31
0.0000000000
11
-18.8306797847
21
-12.8739536061
31
0.0000000000
11
-18.8549682924
21
-13.2534461460
31
0.0000000000
11
-18.9033551936
21
-13.6168301072
31
0.0000000000
11
-18.9755477832
21
-13.9621690616
31
0.0000000000
11
-19.0711514790
21
-14.2875712902
31
0.0000000000
11
-19.1896246236
21
-14.5911291585
31
0.0000000000
11
-19.3302864517
21
-14.8710515078
31
0.0000000000
11
-19.4923159888
21
-15.1256822541
31
0.0000000000
11
-19.6747636303
21
-15.3535299394
31
0.0000000000
11
-19.8765717404
21
-15.5532871692
31
0.0000000000
11
-20.0965767274
21
-15.7238196261
31
0.0000000000
11
-20.3335365748
21
-15.8641776736
31
0.0000000000
11
-20.5861209634
21
-15.9735761407
31
0.0000000000
11
-20.8528152190
21
-16.0513727564
31
0.0000000000
11
-21.1319315433
21
-16.0971321708
31
0.0000000000
11
-21.4219402970
21
-16.1106691935
31
0.0000000000
11
-21.7215435983
21
-16.0919087279
31
0.0000000000
11
-22.0290743875
21
-16.0408744434
31
0.0000000000
11
-22.3421633505
21
-15.9579616320
31
0.0000000000
11
-22.6582874062
21
-15.8440236236
31
0.0000000000
11
-22.9748550090
21
-15.7003713455
31
0.0000000000
0
SPLINE
5
373
100
AcDbEntity
8
0
100
AcDbSpline
62
7
6
CONTINUOUS
70
0
71
3
72
12
73
8
74
6
42
0.0000001000
43
0.0000001000
44
0.0000000001
12
-0.1037200218
22
0.0573866358
32
0.0000000000
13
-0.1140915795
23
-0.0365291981
33
0.0000000000
40
0.0000000000
40
0.0000000000
40
0.0000000000
40
0.0000000000
40
0.0886652678
40
0.2450458152
40
0.4532573839
40
0.7077714598
40
1.0000000000
40
1.0000000000
40
1.0000000000
40
1.0000000000
10
-7.7291072809
20
14.4924137922
30
0.0000000000
10
-7.7321727354
20
14.4941098593
30
0.0000000000
10
-7.7425414121
20
14.4955502883
30
0.0000000000
10
-7.7603110812
20
14.4946530160
30
0.0000000000
10
-7.7848066045
20
14.4900420050
30
0.0000000000
10
-7.8139404098
20
14.4824912908
30
0.0000000000
10
-7.8348370796
20
14.4760921408
30
0.0000000000
10
-7.8459506848
20
14.4725338494
30
0.0000000000
11
-7.7291072809
21
14.4924137922
31
0.0000000000
11
-7.7395764231
21
14.4949001508
31
0.0000000000
11
-7.7583033317
21
14.4943888409
31
0.0000000000
11
-7.7828831821
21
14.4901476068
31
0.0000000000
11
-7.8124411821
21
14.4826667740
31
0.0000000000
11
-7.8459506848
21
14.4725338494
31
0.0000000000
0
SPLINE
5
374
100
AcDbEntity
8
0
100
AcDbSpline
62
7
6
CONTINUOUS
70
0
71
3
72
15
73
11
74
9
42
0.0000001000
43
0.0000001000
44
0.0000000001
12
-0.0296530563
22
0.1408179220
32
0.0000000000
13
-0.1370097288
23
-0.0679578355
33
0.0000000000
40
0.0000000000
40
0.0000000000
40
0.0000000000
40
0.0000000000
40
0.0016125503
40
0.0406221323
40
0.1108236727
40
0.2212611171
40
0.3685290421
40
0.5483905742
40
0.7598644468
40
1.0000000000
40
1.0000000000
40
1.0000000000
40
1.0000000000
10
-2.9946151390
20
-25.0066845435
30
0.0000000000
10
-2.9946310781
20
-25.0066088515
30
0.0000000000
10
-2.9950831415
20
-25.0047074903
30
0.0000000000
10
-2.9998959991
20
-24.9999178187
30
0.0000000000
10
-3.0117476800
20
-25.0027688728
30
0.0000000000
10
-3.0276022943
20
-25.0062984353
30
0.0000000000
10
-3.0487152563
20
-25.0142553791
30
0.0000000000
10
-3.0740109590
20
-25.0247112737
30
0.0000000000
10
-3.1033170423
20
-25.0381231138
30
0.0000000000
10
-3.1240274729
20
-25.0481630763
30
0.0000000000
10
-3.1349944419
20
-25.0536027738
30
0.0000000000
11
-2.9946151390
21
-25.0066845435
31
0.0000000000
11
-2.9946690362
21
-25.0064581269
31
0.0000000000
11
-2.9986881094
21
-25.0020489748
31
0.0000000000
11
-3.0094236937
21
-25.0021861460
31
0.0000000000
11
-3.0258167658
21
-25.0062531902
31
0.0000000000
11
-3.0470573657
21
-25.0137441237
31
0.0000000000
11
-3.0724803005
21
-25.0242485379
31
0.0000000000
11
-3.1019324043
21
-25.0376126478
31
0.0000000000
11
-3.1349944419
21
-25.0536027738
31
0.0000000000
0
SPLINE
5
375
100
AcDbEntity
8
0
100
AcDbSpline
62
9
6
CONTINUOUS
70
0
71
3
72
14
73
10
74
8
42
0.0000001000
43
0.0000001000
44
0.0000000001
12
-1.1960367407
22
35.6014909397
32
0.0000000000
13
1.1558713618
23
35.6028176190
33
0.0000000000
40
0.0000000000
40
0.0000000000
40
0.0000000000
40
0.0000000000
40
0.1407483867
40
0.2822109274
40
0.4243811696
40
0.5672523671
40
0.7108174905
40
0.8550692288
40
1.0000000000
40
1.0000000000
40
1.0000000000
40
1.0000000000
10
-30.1128901071
20
-24.5447963283
30
0.0000000000
10
-30.1690035210
20
-22.8745121903
30
0.0000000000
10
-30.2651218655
20
-19.5248958774
30
0.0000000000
10
-30.3609670032
20
-14.4866917335
30
0.0000000000
10
-30.4088343720
20
-9.4225923510
30
0.0000000000
10
-30.4087172364
20
-4.3333037585
30
0.0000000000
10
-30.3606156952
20
0.7804744539
30
0.0000000000
10
-30.2645366303
20
5.9180300800
30
0.0000000000
10
-30.1687305497
20
9.3504622679
30
0.0000000000
10
-30.1128901071
20
11.0704435393
30
0.0000000000
11
-30.1128901071
21
-24.5447963283
31
0.0000000000
11
-30.2568240760
21
-19.5331834776
31
0.0000000000
11
-30.3527910974
21
-14.4949787655
31
0.0000000000
11
-30.4007779211
21
-9.4308780633
31
0.0000000000
11
-30.4007779211
21
-4.3415808741
31
0.0000000000
11
-30.3527910974
21
0.7722099036
31
0.0000000000
11
-30.2568240760
21
5.9097879053
31
0.0000000000
11
-30.1128901071
21
11.0704435393
31
0.0000000000
0
SPLINE
5
376
100
AcDbEntity
8
0
100
AcDbSpline
62
9
6
CONTINUOUS
70
0
71
3
72
21
73
17
74
15
42
0.0000001000
43
0.0000001000
44
0.0000000001
12
0.0682286066
22
2.0885788301
32
0.0000000000
13
1.8102180440
23
1.0439958360
33
0.0000000000
40
0.0000000000
40
0.0000000000
40
0.0000000000
40
0.0000000000
40
0.0679965129
40
0.1384063205
40
0.2108392276
40
0.2848373543
40
0.3599105661
40
0.4355415802
40
0.5111975361
40
0.5863471078
40
0.6604708300
40
0.7330718806
40
0.8036939646
40
0.8719340777
40
0.9374505364
40
1.0000000000
40
1.0000000000
40
1.0000000000
40
1.0000000000
10
-30.1128901071
20
11.0704435393
30
0.0000000000
10
-30.1113436713
20
11.1177822318
30
0.0000000000
10
-30.1041572028
20
11.2140433410
30
0.0000000000
10
-30.0821073637
20
11.3593672392
30
0.0000000000
10
-30.0488281213
20
11.5068262211
30
0.0000000000
10
-30.0046870616
20
11.6547878668
30
0.0000000000
10
-29.9501719943
20
11.8016239536
30
0.0000000000
10
-29.8858841695
20
11.9457144475
30
0.0000000000
10
-29.8125330138
20
12.0854691380
30
0.0000000000
10
-29.7309279603
20
12.2193449524
30
0.0000000000
10
-29.6419690649
20
12.3458640531
30
0.0000000000
10
-29.5466358284
20
12.4636309851
30
0.0000000000
10
-29.4459768929
20
12.5713475362
30
0.0000000000
10
-29.3410916289
20
12.6678286351
30
0.0000000000
10
-29.2331375843
20
12.7520046537
30
0.0000000000
10
-29.1580668196
20
12.8004805687
30
0.0000000000
10
-29.1203240971
20
12.8222476952
30
0.0000000000
11
-30.1128901071
21
11.0704435393
31
0.0000000000
11
-30.1025234334
21
11.2121567055
31
0.0000000000
11
-30.0806220878
21
11.3576524229
31
0.0000000000
11
-30.0474271604
21
11.5053301604
31
0.0000000000
11
-30.0033096399
21
11.6535365092
31
0.0000000000
11
-29.9487591848
21
11.8006268568
31
0.0000000000
11
-29.8843815233
21
11.9449664832
31
0.0000000000
11
-29.8108938073
21
12.0849466396
31
0.0000000000
11
-29.7291128476
21
12.2190111350
31
0.0000000000
11
-29.6399475819
21
12.3456692205
31
0.0000000000
11
-29.5443918181
21
12.4635089623
31
0.0000000000
11
-29.4435076843
21
12.5712206000
31
0.0000000000
11
-29.3384149027
21
12.6676079406
31
0.0000000000
11
-29.2302905813
21
12.7515917649
31
0.0000000000
11
-29.1203240971
21
12.8222476952
31
0.0000000000
0
SPLINE
5
377
100
AcDbEntity
8
0
100
AcDbSpline
62
7
6
CONTINUOUS
70
0
71
3
72
13
73
9
74
7
42
0.0000001000
43
0.0000001000
44
0.0000000001
12
-1.8093081759
22
0.6531878751
32
0.0000000000
13
-1.4580735459
23
1.2543781109
33
0.0000000000
40
0.0000000000
40
0.0000000000
40
0.0000000000
40
0.0000000000
40
0.1303282127
40
0.3206236409
40
0.5030233740
40
0.6771697932
40
0.8428459475
40
1.0000000000
40
1.0000000000
40
1.0000000000
40
1.0000000000
10
-11.0263177421
20
13.5103919099
30
0.0000000000
10
-11.1049190424
20
13.5387681793
30
0.0000000000
10
-11.2971448265
20
13.6117326928
30
0.0000000000
10
-11.5935977009
20
13.7391197139
30
0.0000000000
10
-11.9075666773
20
13.8955898528
30
0.0000000000
10
-12.1976526588
20
14.0632495738
30
0.0000000000
10
-12.4622665094
20
14.2411913707
30
0.0000000000
10
-12.6250471634
20
14.3694507875
30
0.0000000000
10
-12.7014278856
20
14.4351609887
30
0.0000000000
11
-11.0263177421
21
13.5103919099
31
0.0000000000
11
-11.2606521596
21
13.5994459323
31
0.0000000000
11
-11.5967748246
21
13.7443150994
31
0.0000000000
11
-11.9105635658
21
13.9012094700
31
0.0000000000
11
-12.2003019000
21
14.0692708025
31
0.0000000000
11
-12.4644049043
21
14.2475797699
31
0.0000000000
11
-12.7014278856
21
14.4351609887
31
0.0000000000
0
SPLINE
5
378
100
AcDbEntity
8
0
100
AcDbSpline
62
7
6
CONTINUOUS
70
0
71
3
72
18
73
14
74
12
42
0.0000001000
43
0.0000001000
44
0.0000000001
12
-0.6362934147
22
-0.3550712700
32
0.0000000000
13
-0.6517330228
23
0.3258665114
33
0.0000000000
40
0.0000000000
40
0.0000000000
40
0.0000000000
40
0.0000000000
40
0.0824711995
40
0.1703927471
40
0.2624911810
40
0.3579786781
40
0.4549885733
40
0.5527374323
40
0.6491673466
40
0.7435257574
40
0.8339975930
40
0.9198803357
40
1.0000000000
40
1.0000000000
40
1.0000000000
40
1.0000000000
10
-13.5284639043
20
10.4095564984
30
0.0000000000
10
-13.5459558647
20
10.3997954472
30
0.0000000000
10
-13.5833003928
20
10.3817426230
30
0.0000000000
10
-13.6432280809
20
10.3597385511
30
0.0000000000
10
-13.7079066803
20
10.3422626200
30
0.0000000000
10
-13.7759508516
20
10.3296907103
30
0.0000000000
10
-13.8461216071
20
10.3222470588
30
0.0000000000
10
-13.9168816299
20
10.3200929555
30
0.0000000000
10
-13.9869603109
20
10.3232636524
30
0.0000000000
10
-14.0548276144
20
10.3316847560
30
0.0000000000
10
-14.1192619426
20
10.3452040537
30
0.0000000000
10
-14.1788933688
20
10.3635279636
30
0.0000000000
10
-14.2161022800
20
10.3793179633
30
0.0000000000
10
-14.2335078236
20
10.3880207351
30
0.0000000000
11
-13.5284639043
21
10.4095564984
31
0.0000000000
11
-13.5824705431
21
10.3832030518
31
0.0000000000
11
-13.6425517967
21
10.3609645135
31
0.0000000000
11
-13.7073067974
21
10.3433483510
31
0.0000000000
11
-13.7757134366
21
10.3306355914
31
0.0000000000
11
-13.8460029294
21
10.3231477879
31
0.0000000000
11
-13.9171958255
21
10.3209879314
31
0.0000000000
11
-13.9873864959
21
10.3242100950
31
0.0000000000
11
-14.0556074266
21
10.3327644988
31
0.0000000000
11
-14.1200983694
21
10.3464313819
31
0.0000000000
11
-14.1798619589
21
10.3649915820
31
0.0000000000
11
-14.2335078236
21
10.3880207351
31
0.0000000000
0
SPLINE
5
379
100
AcDbEntity
8
0
100
AcDbSpline
62
7
6
CONTINUOUS
70
0
71
3
72
15
73
11
74
9
42
0.0000001000
43
0.0000001000
44
0.0000000001
12
0.2920381734
22
0.0216121378
32
0.0000000000
13
0.2617849119
23
0.1312327670
33
0.0000000000
40
0.0000000000
40
0.0000000000
40
0.0000000000
40
0.0000000000
40
0.1351030000
40
0.2684611538
40
0.3994593401
40
0.5275107861
40
0.6520655063
40
0.7726194424
40
0.8887245171
40
1.0000000000
40
1.0000000000
40
1.0000000000
40
1.0000000000
10
-13.8106854438
20
11.5709936104
30
0.0000000000
10
-13.7975336994
20
11.5719668986
30
0.0000000000
10
-13.7714360264
20
11.5744322465
30
0.0000000000
10
-13.7327922299
20
11.5797149891
30
0.0000000000
10
-13.6950871010
20
11.5865306747
30
0.0000000000
10
-13.6585618103
20
11.5948357039
30
0.0000000000
10
-13.6234488812
20
11.6045770415
30
0.0000000000
10
-13.5899711974
20
11.6156929283
30
0.0000000000
10
-13.5583430233
20
11.6281120424
30
0.0000000000
10
-13.5381739852
20
11.6374158076
30
0.0000000000
10
-13.5284639043
20
11.6422834707
30
0.0000000000
11
-13.8106854438
21
11.5709936104
31
0.0000000000
11
-13.7712984877
21
11.5747230519
31
0.0000000000
11
-13.7326079001
21
11.5800249942
31
0.0000000000
11
-13.6948616275
21
11.5868654543
31
0.0000000000
11
-13.6583015607
21
11.5952005906
31
0.0000000000
11
-13.6231619872
21
11.6049769839
31
0.0000000000
11
-13.5896680853
21
11.6161319811
31
0.0000000000
11
-13.5580344872
21
11.6285940969
31
0.0000000000
11
-13.5284639043
21
11.6422834707
31
0.0000000000
0
SPLINE
5
37A
100
AcDbEntity
8
0
100
AcDbSpline
62
7
6
CONTINUOUS
70
0
71
3
72
17
73
13
74
11
42
0.0000001000
43
0.0000001000
44
0.0000000001
12
-0.4345868483
22
-0.0321613807
32
0.0000000000
13
-0.4202201649
23
-0.1153910576
33
0.0000000000
40
0.0000000000
40
0.0000000000
40
0.0000000000
40
0.0000000000
40
0.1190594671
40
0.2358227810
40
0.3491116527
40
0.4582120724
40
0.5626289027
40
0.6619448783
40
0.7557608845
40
0.8436671436
40
0.9252339727
40
1.0000000000
40
1.0000000000
40
1.0000000000
40
1.0000000000
10
-13.8106854438
20
11.5709936104
30
0.0000000000
10
-13.8279326700
20
11.5697172381
30
0.0000000000
10
-13.8619854108
20
11.5656531114
30
0.0000000000
10
-13.9119084275
20
11.5566569603
30
0.0000000000
10
-13.9600037881
20
11.5459389040
30
0.0000000000
10
-14.0060275695
20
11.5342884713
30
0.0000000000
10
-14.0498511553
20
11.5222626361
30
0.0000000000
10
-14.0913790062
20
11.5102796344
30
0.0000000000
10
-14.1305177327
20
11.4986735874
30
0.0000000000
10
-14.1671627138
20
11.4877272392
30
0.0000000000
10
-14.2011917708
20
11.4776921370
30
0.0000000000
10
-14.2230350929
20
11.4714798229
30
0.0000000000
10
-14.2335078236
20
11.4686040459
30
0.0000000000
11
-13.8106854438
21
11.5709936104
31
0.0000000000
11
-13.8622328478
21
11.5651005140
31
0.0000000000
11
-13.9123347639
21
11.5562216997
31
0.0000000000
11
-13.9605411176
21
11.5455729862
31
0.0000000000
11
-14.0066457399
21
11.5339658419
31
0.0000000000
11
-14.0505379084
21
11.5219685793
31
0.0000000000
11
-14.0921312071
21
11.5100058065
31
0.0000000000
11
-14.1313367210
21
11.4984160505
31
0.0000000000
11
-14.1680516694
21
11.4874859351
31
0.0000000000
11
-14.2021561729
21
11.4774701410
31
0.0000000000
11
-14.2335078236
21
11.4686040459
31
0.0000000000
0
SPLINE
5
37B
100
AcDbEntity
8
0
100
AcDbSpline
62
7
6
CONTINUOUS
70
0
71
3
72
13
73
9
74
7
42
0.0000001000
43
0.0000001000
44
0.0000000001
12
0.2079358975
22
0.1076619626
32
0.0000000000
13
-0.0000479300
23
0.2349708594
33
0.0000000000
40
0.0000000000
40
0.0000000000
40
0.0000000000
40
0.0000000000
40
0.2252770603
40
0.4295565951
40
0.6130730172
40
0.7796379356
40
0.9339217997
40
1.0000000000
40
1.0000000000
40
1.0000000000
40
1.0000000000
10
-3.1349944419
20
-24.2170435091
30
0.0000000000
10
-3.1193800460
20
-24.2089589190
30
0.0000000000
10
-3.0904026170
20
-24.1918950598
30
0.0000000000
10
-3.0527420925
20
-24.1620875728
30
0.0000000000
10
-3.0236439987
20
-24.1297224387
30
0.0000000000
10
-3.0038224103
20
-24.0953013058
30
0.0000000000
10
-2.9957273376
20
-24.0658178291
30
0.0000000000
10
-2.9946726761
20
-24.0485597320
30
0.0000000000
10
-2.9946737318
20
-24.0433842481
30
0.0000000000
11
-3.1349944419
21
-24.2170435091
31
0.0000000000
11
-3.0896985377
21
-24.1900099989
31
0.0000000000
11
-3.0524286160
21
-24.1600274940
31
0.0000000000
11
-3.0240230584
21
-24.1277838660
31
0.0000000000
11
-3.0049289680
21
-24.0937755021
31
0.0000000000
11
-2.9956248943
21
-24.0588678601
31
0.0000000000
11
-2.9946737318
21
-24.0433842481
31
0.0000000000
0
SPLINE
5
37C
100
AcDbEntity
8
0
100
AcDbSpline
62
7
6
CONTINUOUS
70
0
71
3
72
16
73
12
74
10
42
0.0000001000
43
0.0000001000
44
0.0000000001
12
0.0000699534
22
-0.3795606888
32
0.0000000000
13
0.2340882352
23
-0.2983680849
33
0.0000000000
40
0.0000000000
40
0.0000000000
40
0.0000000000
40
0.0000000000
40
0.0597108165
40
0.1596350220
40
0.2670631249
40
0.3804958614
40
0.4987285191
40
0.6207319988
40
0.7455653644
40
0.8723118181
40
1.0000000000
40
1.0000000000
40
1.0000000000
40
1.0000000000
10
-19.8912637138
20
14.5677840264
30
0.0000000000
10
-19.8912623215
20
14.5602294001
30
0.0000000000
10
-19.8902347633
20
14.5400511370
30
0.0000000000
10
-19.8851476813
20
14.5066055576
30
0.0000000000
10
-19.8752665999
20
14.4672276271
30
0.0000000000
10
-19.8615317416
20
14.4265792082
30
0.0000000000
10
-19.8442565681
20
14.3853073407
30
0.0000000000
10
-19.8237208984
20
14.3439456271
30
0.0000000000
10
-19.8001857480
20
14.3029701939
30
0.0000000000
10
-19.7739141730
20
14.2628346212
30
0.0000000000
10
-19.7547783570
20
14.2369569552
30
0.0000000000
10
-19.7448149233
20
14.2242575958
30
0.0000000000
11
-19.8912637138
21
14.5677840264
31
0.0000000000
11
-19.8902119453
21
14.5451602904
31
0.0000000000
11
-19.8847245873
21
14.5076647210
31
0.0000000000
11
-19.8749446033
21
14.4681152736
31
0.0000000000
11
-19.8612628922
21
14.4273310711
31
0.0000000000
11
-19.8440098254
21
14.3859451156
31
0.0000000000
11
-19.8234732231
21
14.3444843016
31
0.0000000000
11
-19.7999178460
21
14.3034190234
31
0.0000000000
11
-19.7736043617
21
14.2631942355
31
0.0000000000
11
-19.7448149233
21
14.2242575958
31
0.0000000000
0
SPLINE
5
37D
100
AcDbEntity
8
0
100
AcDbSpline
62
7
6
CONTINUOUS
70
0
71
3
72
13
73
9
74
7
42
0.0000001000
43
0.0000001000
44
0.0000000001
12
-0.2206694136
22
0.1103347068
32
0.0000000000
13
-0.0000090274
23
0.2474874123
33
0.0000000000
40
0.0000000000
40
0.0000000000
40
0.0000000000
40
0.0000000000
40
0.2181056656
40
0.4173085111
40
0.5980290005
40
0.7641011752
40
0.9198313393
40
1.0000000000
40
1.0000000000
40
1.0000000000
40
1.0000000000
10
-19.7448149233
20
13.1436742850
30
0.0000000000
10
-19.7608580064
20
13.1516958265
30
0.0000000000
10
-19.7907216924
20
13.1688335571
30
0.0000000000
10
-19.8296173583
20
13.1992487735
30
0.0000000000
10
-19.8598884426
20
13.2327779154
30
0.0000000000
10
-19.8807662212
20
13.2688627661
30
0.0000000000
10
-19.8899041102
20
13.3010254038
30
0.0000000000
10
-19.8912531489
20
13.3204855796
30
0.0000000000
10
-19.8912533902
20
13.3270991577
30
0.0000000000
11
-19.7448149233
21
13.1436742850
31
0.0000000000
11
-19.7913308716
21
13.1707260383
31
0.0000000000
11
-19.8298169908
21
13.2012906926
31
0.0000000000
11
-19.8593918841
21
13.2346567276
31
0.0000000000
11
-19.8795835083
21
13.2703086012
31
0.0000000000
11
-19.8898726825
21
13.3073263600
31
0.0000000000
11
-19.8912533902
21
13.3270991577
31
0.0000000000
0
SPLINE
5
37E
100
AcDbEntity
8
0
100
AcDbSpline
62
7
6
CONTINUOUS
70
0
71
3
72
15
73
11
74
9
42
0.0000001000
43
0.0000001000
44
0.0000000001
12
0.3062164604
22
0.1652108055
32
0.0000000000
13
0.0000366968
23
0.3481724997
33
0.0000000000
40
0.0000000000
40
0.0000000000
40
0.0000000000
40
0.0000000000
40
0.1139539270
40
0.2311612393
40
0.3544660466
40
0.4887041879
40
0.6374071998
40
0.8045195132
40
0.9932614312
40
1.0000000000
40
1.0000000000
40
1.0000000000
40
1.0000000000
10
-3.1349944419
20
12.2997623914
30
0.0000000000
10
-3.1233629192
20
12.3060378648
30
0.0000000000
10
-3.1008674026
20
12.3209376615
30
0.0000000000
10
-3.0710948543
20
12.3495887972
30
0.0000000000
10
-3.0453483040
20
12.3848634926
30
0.0000000000
10
-3.0240296640
20
12.4270959406
30
0.0000000000
10
-3.0076767444
20
12.4768522976
30
0.0000000000
10
-2.9971119208
20
12.5345780769
30
0.0000000000
10
-2.9947096529
20
12.5766574129
30
0.0000000000
10
-2.9946644333
20
12.5993444870
30
0.0000000000
10
-2.9946643509
20
12.6001265484
30
0.0000000000
11
-3.1349944419
21
12.2997623914
31
0.0000000000
11
-3.1019324043
21
12.3216476981
31
0.0000000000
11
-3.0724803005
21
12.3498555851
31
0.0000000000
11
-3.0470573657
21
12.3844146269
31
0.0000000000
11
-3.0258167658
21
12.4260124614
31
0.0000000000
11
-3.0094236937
21
12.4750867525
31
0.0000000000
11
-2.9986881094
21
12.5322323544
31
0.0000000000
11
-2.9946690362
21
12.5977803589
31
0.0000000000
11
-2.9946643509
21
12.6001265484
31
0.0000000000
0
SPLINE
5
37F
100
AcDbEntity
8
0
100
AcDbSpline
62
9
6
CONTINUOUS
70
0
71
3
72
13
73
9
74
7
42
0.0000001000
43
0.0000001000
44
0.0000000001
12
-0.0076215060
22
-0.2409157842
32
0.0000000000
13
0.2148670919
23
-0.1072384621
33
0.0000000000
40
0.0000000000
40
0.0000000000
40
0.0000000000
40
0.0000000000
40
0.0939915575
40
0.2396244475
40
0.3993033888
40
0.5780570175
40
0.7782167291
40
1.0000000000
40
1.0000000000
40
1.0000000000
40
1.0000000000
10
-30.2593639453
20
11.2454782947
30
0.0000000000
10
-30.2596027310
20
11.2379302782
30
0.0000000000
10
-30.2582902403
20
11.2186172544
30
0.0000000000
10
-30.2481892480
20
11.1878628208
30
0.0000000000
10
-30.2271193295
20
11.1549550871
30
0.0000000000
10
-30.1969286048
20
11.1238601408
30
0.0000000000
10
-30.1582720217
20
11.0950030923
30
0.0000000000
10
-30.1287745548
20
11.0783715257
30
0.0000000000
10
-30.1128899126
20
11.0704436267
30
0.0000000000
11
-30.2593639453
21
11.2454782947
31
0.0000000000
11
-30.2578424033
21
11.2229112633
31
0.0000000000
11
-30.2472781581
21
11.1895725045
31
0.0000000000
11
-30.2270057487
21
11.1570239212
31
0.0000000000
11
-30.1974287658
21
11.1259135024
31
0.0000000000
11
-30.1591360386
21
11.0968606057
31
0.0000000000
11
-30.1128899126
21
11.0704436267
31
0.0000000000
0
SPLINE
5
380
100
AcDbEntity
8
0
100
AcDbSpline
62
7
6
CONTINUOUS
70
0
71
3
72
18
73
14
74
12
42
0.0000001000
43
0.0000001000
44
0.0000000001
12
0.3353955161
22
-0.1676977581
32
0.0000000000
13
0.3670659709
23
-0.0766502660
33
0.0000000000
40
0.0000000000
40
0.0000000000
40
0.0000000000
40
0.0000000000
40
0.0874747542
40
0.1827740860
40
0.2825387408
40
0.3843626605
40
0.4860661331
40
0.5857057676
40
0.6815642338
40
0.7721350640
40
0.8561099964
40
0.9323726426
40
1.0000000000
40
1.0000000000
40
1.0000000000
40
1.0000000000
10
-9.9939495150
20
-31.4636964560
30
0.0000000000
10
-9.9841699683
20
-31.4685862294
30
0.0000000000
10
-9.9635970122
20
-31.4785292486
30
0.0000000000
10
-9.9313299031
20
-31.4928943665
30
0.0000000000
10
-9.8970904113
20
-31.5072107956
30
0.0000000000
10
-9.8618117336
20
-31.5210950299
30
0.0000000000
10
-9.8262878612
20
-31.5342932515
30
0.0000000000
10
-9.7912281062
20
-31.5465810234
30
0.0000000000
10
-9.7572663703
20
-31.5577757506
30
0.0000000000
10
-9.7249634799
20
-31.5677282840
30
0.0000000000
10
-9.6948116364
20
-31.5763213837
30
0.0000000000
10
-9.6672376978
20
-31.5834666849
30
0.0000000000
10
-9.6497021226
20
-31.5874812949
30
0.0000000000
10
-9.6414275554
20
-31.5892091799
30
0.0000000000
11
-9.9939495150
21
-31.4636964560
31
0.0000000000
11
-9.9644088867
21
-31.4779546483
31
0.0000000000
11
-9.9317875380
21
-31.4925452895
31
0.0000000000
11
-9.8972789662
21
-31.5069908653
31
0.0000000000
11
-9.8617540789
21
-31.5209862326
31
0.0000000000
11
-9.8260054270
21
-31.5342706144
31
0.0000000000
11
-9.7907438432
21
-31.5466250257
31
0.0000000000
11
-9.7566020189
21
-31.5578679847
31
0.0000000000
11
-9.7241399408
21
-31.5678514694
31
0.0000000000
11
-9.6938496485
21
-31.5764578191
31
0.0000000000
11
-9.6661580651
21
-31.5835977333
31
0.0000000000
11
-9.6414275554
21
-31.5892091799
31
0.0000000000
0
SPLINE
5
381
100
AcDbEntity
8
0
100
AcDbSpline
62
9
6
CONTINUOUS
70
0
71
3
72
17
73
13
74
11
42
0.0000001000
43
0.0000001000
44
0.0000000001
12
-0.0017609284
22
0.3677011697
32
0.0000000000
13
-0.3281085914
23
0.1659879614
33
0.0000000000
40
0.0000000000
40
0.0000000000
40
0.0000000000
40
0.0000000000
40
0.0950969031
40
0.1952231436
40
0.2990856170
40
0.4051767205
40
0.5118688155
40
0.6175016985
40
0.7204748375
40
0.8193217329
40
0.9128365321
40
1.0000000000
40
1.0000000000
40
1.0000000000
40
1.0000000000
10
-23.7169663279
20
15.8810314987
30
0.0000000000
10
-23.7170221475
20
15.8926872462
30
0.0000000000
10
-23.7187017645
20
15.9166251007
30
0.0000000000
10
-23.7253700349
20
15.9527382773
30
0.0000000000
10
-23.7360964831
20
15.9892664836
30
0.0000000000
10
-23.7506205721
20
16.0253206799
30
0.0000000000
10
-23.7685903417
20
16.0600311326
30
0.0000000000
10
-23.7895710693
20
16.0925572182
30
0.0000000000
10
-23.8130547483
20
16.1221113481
30
0.0000000000
10
-23.8384806006
20
16.1479822633
30
0.0000000000
10
-23.8652189709
20
16.1695299427
30
0.0000000000
10
-23.8842070040
20
16.1810983421
30
0.0000000000
10
-23.8937400316
20
16.1859210375
30
0.0000000000
11
-23.7169663279
21
15.8810314987
31
0.0000000000
11
-23.7192927533
21
15.9159216669
31
0.0000000000
11
-23.7258910849
21
15.9521425229
31
0.0000000000
11
-23.7365987523
21
15.9888015241
31
0.0000000000
11
-23.7511519167
21
16.0249955372
31
0.0000000000
11
-23.7691920107
21
16.0598329684
31
0.0000000000
11
-23.7902743353
21
16.0924553452
31
0.0000000000
11
-23.8138800844
21
16.1220599780
31
0.0000000000
11
-23.8394254775
21
16.1479154138
31
0.0000000000
11
-23.8662832610
21
16.1693874716
31
0.0000000000
11
-23.8937400316
21
16.1859210375
31
0.0000000000
0
SPLINE
5
382
100
AcDbEntity
8
0
100
AcDbSpline
62
7
6
CONTINUOUS
70
0
71
3
72
18
73
14
74
12
42
0.0000001000
43
0.0000001000
44
0.0000000001
12
0.0000000000
22
0.3680541714
32
0.0000000000
13
-0.3291976587
23
0.1645988293
33
0.0000000000
40
0.0000000000
40
0.0000000000
40
0.0000000000
40
0.0000000000
40
0.0862976154
40
0.1767716919
40
0.2704937047
40
0.3663768358
40
0.4632356557
40
0.5598417779
40
0.6549778366
40
0.7474918948
40
0.8363544548
40
0.9207205835
40
1.0000000000
40
1.0000000000
40
1.0000000000
40
1.0000000000
10
-22.1156855371
20
16.6837535022
30
0.0000000000
10
-22.1156855371
20
16.6943409013
30
0.0000000000
10
-22.1169797340
20
16.7160420617
30
0.0000000000
10
-22.1223991471
20
16.7488338237
30
0.0000000000
10
-22.1312367321
20
16.7820916765
30
0.0000000000
10
-22.1433144136
20
16.8151449586
30
0.0000000000
10
-22.1583896789
20
16.8473332276
30
0.0000000000
10
-22.1761599242
20
16.8780101742
30
0.0000000000
10
-22.1962691050
20
16.9065605584
30
0.0000000000
10
-22.2183146249
20
16.9324118932
30
0.0000000000
10
-22.2418604708
20
16.9550481404
30
0.0000000000
10
-22.2664349496
20
16.9740129247
30
0.0000000000
10
-22.2837597080
20
16.9842932747
30
0.0000000000
10
-22.2924592408
20
16.9886430410
30
0.0000000000
11
-22.1156855371
21
16.6837535022
31
0.0000000000
11
-22.1174847886
21
16.7154646970
31
0.0000000000
11
-22.1228459537
21
16.7483296535
31
0.0000000000
11
-22.1316599475
21
16.7816793643
31
0.0000000000
11
-22.1437473821
21
16.8148349245
31
0.0000000000
11
-22.1588622133
21
16.8471213605
31
0.0000000000
11
-22.1766967473
21
16.8778813815
31
0.0000000000
11
-22.1968879079
21
16.9064887738
31
0.0000000000
11
-22.2190246349
21
16.9323611609
31
0.0000000000
11
-22.2426562619
21
16.9549718681
31
0.0000000000
11
-22.2673017000
21
16.9738606466
31
0.0000000000
11
-22.2924592408
21
16.9886430410
31
0.0000000000
0
SPLINE
5
383
100
AcDbEntity
8
0
100
AcDbSpline
62
9
6
CONTINUOUS
70
0
71
3
72
17
73
13
74
11
42
0.0000001000
43
0.0000001000
44
0.0000000001
12
0.3245266520
22
-0.1622633260
32
0.0000000000
13
0.3252757427
23
0.1607564184
33
0.0000000000
40
0.0000000000
40
0.0000000000
40
0.0000000000
40
0.0000000000
40
0.0888945257
40
0.1849224476
40
0.2865165059
40
0.3919916139
40
0.4994659308
40
0.6069809794
40
0.7125725625
40
0.8143619900
40
0.9106460770
40
1.0000000000
40
1.0000000000
40
1.0000000000
40
1.0000000000
10
-24.0694882876
20
15.8815442226
30
0.0000000000
10
-24.0598720733
20
15.8767361154
30
0.0000000000
10
-24.0392108294
20
15.8680219342
30
0.0000000000
10
-24.0060056823
20
15.8579391473
30
0.0000000000
10
-23.9700548849
20
15.8505339230
30
0.0000000000
10
-23.9322431192
20
15.8459936170
30
0.0000000000
10
-23.8934769880
20
15.8444278678
30
0.0000000000
10
-23.8546922046
20
15.8458753805
30
0.0000000000
10
-23.8168239903
20
15.8503005674
30
0.0000000000
10
-23.7807810559
20
15.8575967753
30
0.0000000000
10
-23.7474326974
20
15.8675850159
30
0.0000000000
10
-23.7266545491
20
15.8762434265
30
0.0000000000
10
-23.7169663279
20
15.8810314987
30
0.0000000000
11
-24.0694882876
21
15.8815442226
31
0.0000000000
11
-24.0398299259
21
15.8688679920
31
0.0000000000
11
-24.0065238892
21
15.8586370615
31
0.0000000000
11
-23.9704354661
21
15.8511270575
31
0.0000000000
11
-23.9324438993
21
15.8465213230
31
0.0000000000
11
-23.8934811506
21
15.8449331624
31
0.0000000000
11
-23.8544989097
21
15.8464014093
31
0.0000000000
11
-23.8164508004
21
15.8508902546
31
0.0000000000
11
-23.7802672483
21
15.8582899826
31
0.0000000000
11
-23.7468331496
21
15.8684196647
31
0.0000000000
11
-23.7169663279
21
15.8810314987
31
0.0000000000
0
SPLINE
5
384
100
AcDbEntity
8
0
100
AcDbSpline
62
9
6
CONTINUOUS
70
0
71
3
72
17
73
13
74
11
42
0.0000001000
43
0.0000001000
44
0.0000000001
12
0.3245266433
22
-0.1622633217
32
0.0000000000
13
0.3252757340
23
0.1607564141
33
0.0000000000
40
0.0000000000
40
0.0000000000
40
0.0000000000
40
0.0000000000
40
0.0890628786
40
0.1850997776
40
0.2867012896
40
0.3921723352
40
0.4996398690
40
0.6071422920
40
0.7127180571
40
0.8144820594
40
0.9107406962
40
1.0000000000
40
1.0000000000
40
1.0000000000
40
1.0000000000
10
-24.0694882876
20
15.5415702884
30
0.0000000000
10
-24.0598538619
20
15.5367530756
30
0.0000000000
10
-24.0391715707
20
15.5280329227
30
0.0000000000
10
-24.0059433227
20
15.5179494649
30
0.0000000000
10
-23.9699899089
20
15.5105495248
30
0.0000000000
10
-23.9321779359
20
15.5060145736
30
0.0000000000
10
-23.8934144502
20
15.5044539337
30
0.0000000000
10
-23.8546341135
20
15.5059060090
30
0.0000000000
10
-23.8167728987
20
15.5103348940
30
0.0000000000
10
-23.7807387266
20
15.5176336018
30
0.0000000000
10
-23.7474083170
20
15.5276204185
30
0.0000000000
10
-23.7266442898
20
15.5362745627
30
0.0000000000
10
-23.7169663279
20
15.5410575646
30
0.0000000000
11
-24.0694882876
21
15.5415702884
31
0.0000000000
11
-24.0397724371
21
15.5288731427
31
0.0000000000
11
-24.0064614701
21
15.5186471752
31
0.0000000000
11
-23.9703692201
21
15.5111422937
31
0.0000000000
11
-23.9323784645
21
15.5065421266
31
0.0000000000
11
-23.8934179696
21
15.5049591351
31
0.0000000000
11
-23.8544404881
21
15.5064319967
31
0.0000000000
11
-23.8163986122
21
15.5109246818
31
0.0000000000
11
-23.7802249462
21
15.5183267024
31
0.0000000000
11
-23.7468007920
21
15.5284573573
31
0.0000000000
11
-23.7169663279
21
15.5410575646
31
0.0000000000
0
SPLINE
5
385
100
AcDbEntity
8
0
100
AcDbSpline
62
9
6
CONTINUOUS
70
0
71
3
72
13
73
9
74
7
42
0.0000001000
43
0.0000001000
44
0.0000000001
12
0.0000000000
22
-0.1576933309
32
0.0000000000
13
0.1414123217
23
-0.0707561393
33
0.0000000000
40
0.0000000000
40
0.0000000000
40
0.0000000000
40
0.0000000000
40
0.1988100073
40
0.3840579120
40
0.5557910576
40
0.7154061682
40
0.8658306824
40
1.0000000000
40
1.0000000000
40
1.0000000000
40
1.0000000000
10
-24.0694882876
20
15.5415702884
30
0.0000000000
10
-24.0694882876
20
15.5311199510
30
0.0000000000
10
-24.0682999841
20
15.5109013564
30
0.0000000000
10
-24.0625561789
20
15.4821505942
30
0.0000000000
10
-24.0529950060
20
15.4565884267
30
0.0000000000
10
-24.0397610448
20
15.4347962703
30
0.0000000000
10
-24.0234898358
20
15.4177615307
30
0.0000000000
10
-24.0108499674
20
15.4095216598
30
0.0000000000
10
-24.0045255691
20
15.4063572255
30
0.0000000000
11
-24.0694882876
21
15.5415702884
31
0.0000000000
11
-24.0675128749
21
15.5102815730
31
0.0000000000
11
-24.0616307829
21
15.4816675394
31
0.0000000000
11
-24.0519731097
21
15.4563669621
31
0.0000000000
11
-24.0387558509
21
15.4349462950
31
0.0000000000
11
-24.0222755158
21
15.4178851791
31
0.0000000000
11
-24.0045255691
21
15.4063572255
31
0.0000000000
0
SPLINE
5
386
100
AcDbEntity
8
0
100
AcDbSpline
62
9
6
CONTINUOUS
70
0
71
3
72
13
73
9
74
7
42
0.0000001000
43
0.0000001000
44
0.0000000001
12
0.0000000000
22
-0.1577064518
32
0.0000000000
13
0.1414342224
23
-0.0707420511
33
0.0000000000
40
0.0000000000
40
0.0000000000
40
0.0000000000
40
0.0000000000
40
0.1987934667
40
0.3840259591
40
0.5557448168
40
0.7153466478
40
0.8657586469
40
1.0000000000
40
1.0000000000
40
1.0000000000
40
1.0000000000
10
-25.3944729674
20
16.2040626284
30
0.0000000000
10
-25.3944729674
20
16.1936122909
30
0.0000000000
10
-25.3932846639
20
16.1733936963
30
0.0000000000
10
-25.3875408587
20
16.1446429341
30
0.0000000000
10
-25.3779796858
20
16.1190807667
30
0.0000000000
10
-25.3647457246
20
16.0972886102
30
0.0000000000
10
-25.3484714679
20
16.0802506798
30
0.0000000000
10
-25.3358272561
20
16.0720091818
30
0.0000000000
10
-25.3294984823
20
16.0688436789
30
0.0000000000
11
-25.3944729674
21
16.2040626284
31
0.0000000000
11
-25.3924975547
21
16.1727739129
31
0.0000000000
11
-25.3866154627
21
16.1441598793
31
0.0000000000
11
-25.3769577895
21
16.1188593020
31
0.0000000000
11
-25.3637405308
21
16.0974386349
31
0.0000000000
11
-25.3472601957
21
16.0803775190
31
0.0000000000
11
-25.3294984823
21
16.0688436789
31
0.0000000000
0
SPLINE
5
387
100
AcDbEntity
8
0
100
AcDbSpline
62
9
6
CONTINUOUS
70
0
71
3
72
13
73
9
74
7
42
0.0000001000
43
0.0000001000
44
0.0000000001
12
-0.1077461777
22
0.0538730888
32
0.0000000000
13
0.0000211851
23
0.1208726111
33
0.0000000000
40
0.0000000000
40
0.0000000000
40
0.0000000000
40
0.0000000000
40
0.2442354863
40
0.4631880297
40
0.6580384859
40
0.8332459522
40
0.9970779764
40
1.0000000000
40
1.0000000000
40
1.0000000000
40
1.0000000000
10
-25.3944729674
20
16.2040626284
30
0.0000000000
10
-25.4032447807
20
16.2084485350
30
0.0000000000
10
-25.4194217263
20
16.2177606767
30
0.0000000000
10
-25.4401684991
20
16.2343195107
30
0.0000000000
10
-25.4556416861
20
16.2524461306
30
0.0000000000
10
-25.4653542559
20
16.2718505179
30
0.0000000000
10
-25.4676779534
20
16.2856145988
30
0.0000000000
10
-25.4676962579
20
16.2923332464
30
0.0000000000
10
-25.4676962373
20
16.2924509772
30
0.0000000000
11
-25.3944729674
21
16.2040626284
31
0.0000000000
11
-25.4198672589
21
16.2189205536
31
0.0000000000
11
-25.4403191938
21
16.2355760371
31
0.0000000000
11
-25.4553289568
21
16.2536221621
31
0.0000000000
11
-25.4645292910
21
16.2726175399
31
0.0000000000
11
-25.4676952741
21
16.2920977873
31
0.0000000000
11
-25.4676962373
21
16.2924509772
31
0.0000000000
0
SPLINE
5
388
100
AcDbEntity
8
0
100
AcDbSpline
62
9
6
CONTINUOUS
70
0
71
3
72
17
73
13
74
11
42
0.0000001000
43
0.0000001000
44
0.0000000001
12
-0.1868918921
22
0.3018128027
32
0.0000000000
13
-0.3165618022
23
0.1606492223
33
0.0000000000
40
0.0000000000
40
0.0000000000
40
0.0000000000
40
0.0000000000
40
0.0800941069
40
0.1704443718
40
0.2691568347
40
0.3741111937
40
0.4829686126
40
0.5932766950
40
0.7025372388
40
0.8082846853
40
0.9081609336
40
1.0000000000
40
1.0000000000
40
1.0000000000
40
1.0000000000
10
-10.3526481635
20
-32.4407056570
30
0.0000000000
10
-10.3576378099
20
-32.4326478480
30
0.0000000000
10
-10.3691113737
20
-32.4160270638
30
0.0000000000
10
-10.3890170910
20
-32.3911410369
30
0.0000000000
10
-10.4122946502
20
-32.3652605436
30
0.0000000000
10
-10.4383788904
20
-32.3390263999
30
0.0000000000
10
-10.4666401015
20
-32.3130793749
30
0.0000000000
10
-10.4963897009
20
-32.2880549030
30
0.0000000000
10
-10.5269016148
20
-32.2645639853
30
0.0000000000
10
-10.5574306494
20
-32.2431777620
30
0.0000000000
10
-10.5872289336
20
-32.2244150188
30
0.0000000000
10
-10.6070908620
20
-32.2134167175
30
0.0000000000
10
-10.6167817755
20
-32.2084987593
30
0.0000000000
11
-10.3526481635
21
-32.4407056570
31
0.0000000000
11
-10.3686708950
21
-32.4172174518
31
0.0000000000
11
-10.3886238234
21
-32.3921057079
31
0.0000000000
11
-10.4120058346
21
-32.3660052297
31
0.0000000000
11
-10.4382453271
21
-32.3395543893
31
0.0000000000
11
-10.4666968311
21
-32.3134041369
31
0.0000000000
11
-10.4966624374
21
-32.2881959579
31
0.0000000000
11
-10.5274066552
21
-32.2645485988
31
0.0000000000
11
-10.5581750847
21
-32.2430423168
31
0.0000000000
11
-10.5882123340
21
-32.2242050657
31
0.0000000000
11
-10.6167817755
21
-32.2084987593
31
0.0000000000
0
SPLINE
5
389
100
AcDbEntity
8
0
100
AcDbSpline
62
9
6
CONTINUOUS
70
0
71
3
72
13
73
9
74
7
42
0.0000001000
43
0.0000001000
44
0.0000000001
12
-0.1077461224
22
0.0538730612
32
0.0000000000
13
0.0000205346
23
0.1208725739
33
0.0000000000
40
0.0000000000
40
0.0000000000
40
0.0000000000
40
0.0000000000
40
0.2442642826
40
0.4632407856
40
0.6581066906
40
0.8333266092
40
0.9971724336
40
1.0000000000
40
1.0000000000
40
1.0000000000
40
1.0000000000
10
-25.3944729674
20
16.5440365625
30
0.0000000000
10
-25.4032458105
20
16.5484229840
30
0.0000000000
10
-25.4194245431
20
16.5577362978
30
0.0000000000
10
-25.4401730016
20
16.5742974764
30
0.0000000000
10
-25.4556464254
20
16.5924267263
30
0.0000000000
10
-25.4653576181
20
16.6118338041
30
0.0000000000
10
-25.4676785547
20
16.6255955910
30
0.0000000000
10
-25.4676962589
20
16.6323109880
30
0.0000000000
10
-25.4676962395
20
16.6324249131
30
0.0000000000
11
-25.3944729674
21
16.5440365625
31
0.0000000000
11
-25.4198701127
21
16.5588964494
31
0.0000000000
11
-25.4403237327
21
16.5755544130
31
0.0000000000
11
-25.4553334540
21
16.5936029776
31
0.0000000000
11
-25.4645322702
21
16.6126007453
31
0.0000000000
11
-25.4676953376
21
16.6320831403
31
0.0000000000
11
-25.4676962395
21
16.6324249131
31
0.0000000000
0
SPLINE
5
38A
100
AcDbEntity
8
0
100
AcDbSpline
62
9
6
CONTINUOUS
70
0
71
3
72
17
73
13
74
11
42
0.0000001000
43
0.0000001000
44
0.0000000001
12
0.0000000000
22
0.3668786876
32
0.0000000000
13
0.3272083824
23
0.1659356678
33
0.0000000000
40
0.0000000000
40
0.0000000000
40
0.0000000000
40
0.0000000000
40
0.0951260700
40
0.1951871607
40
0.2989216269
40
0.4048562768
40
0.5113989431
40
0.6169244000
40
0.7198650762
40
0.8187836095
40
0.9124975085
40
1.0000000000
40
1.0000000000
40
1.0000000000
40
1.0000000000
10
-25.3944729674
20
16.5440365625
30
0.0000000000
10
-25.3944729674
20
16.5556698051
30
0.0000000000
10
-25.3929088916
20
16.5795574671
30
0.0000000000
10
-25.3864077347
20
16.6155975937
30
0.0000000000
10
-25.3758439022
20
16.6520403625
30
0.0000000000
10
-25.3614722702
20
16.6880052288
30
0.0000000000
10
-25.3436386483
20
16.7226310415
30
0.0000000000
10
-25.3227712885
20
16.7550853821
30
0.0000000000
10
-25.2993717023
20
16.7845880668
30
0.0000000000
10
-25.2739945759
20
16.8104340252
30
0.0000000000
10
-25.2472641768
20
16.8319878974
30
0.0000000000
10
-25.2282685610
20
16.8435734493
30
0.0000000000
10
-25.2187247114
20
16.8484133774
30
0.0000000000
11
-25.3944729674
21
16.5440365625
31
0.0000000000
11
-25.3923116531
21
16.5788693016
31
0.0000000000
11
-25.3858804995
21
16.6150118671
31
0.0000000000
11
-25.3753367955
21
16.6515801456
31
0.0000000000
11
-25.3609384360
21
16.6876798453
31
0.0000000000
11
-25.3430375747
21
16.7224282146
31
0.0000000000
11
-25.3220722486
21
16.7549752500
31
0.0000000000
11
-25.2985545963
21
16.7845259978
31
0.0000000000
11
-25.2730619935
21
16.8103556563
31
0.0000000000
11
-25.2462157831
21
16.8318353590
31
0.0000000000
11
-25.2187247114
21
16.8484133774
31
0.0000000000
0
SPLINE
5
38B
100
AcDbEntity
8
0
100
AcDbSpline
62
9
6
CONTINUOUS
70
0
71
3
72
17
73
13
74
11
42
0.0000001000
43
0.0000001000
44
0.0000000001
12
0.0000000000
22
0.3668786542
32
0.0000000000
13
0.3272083526
23
0.1659356527
33
0.0000000000
40
0.0000000000
40
0.0000000000
40
0.0000000000
40
0.0000000000
40
0.0951043724
40
0.1951411062
40
0.2988504059
40
0.4047604858
40
0.5112804371
40
0.6167872853
40
0.7197115413
40
0.8186252806
40
0.9123372168
40
1.0000000000
40
1.0000000000
40
1.0000000000
40
1.0000000000
10
-24.0694882876
20
15.8815442226
30
0.0000000000
10
-24.0694882876
20
15.8931748106
30
0.0000000000
10
-24.0679249349
20
15.9170568285
30
0.0000000000
10
-24.0614266789
20
15.9530885825
30
0.0000000000
10
-24.0508674700
20
15.9895232113
30
0.0000000000
10
-24.0365018832
20
16.0254809079
30
0.0000000000
10
-24.0186752906
20
16.0601012290
30
0.0000000000
10
-23.9978155841
20
16.0925520460
30
0.0000000000
10
-23.9744232970
20
16.1220542301
30
0.0000000000
10
-23.9490526587
20
16.1479025493
30
0.0000000000
10
-23.9223122052
20
16.1694737196
30
0.0000000000
10
-23.9033013632
20
16.1810722438
30
0.0000000000
10
-23.8937400316
20
16.1859210375
30
0.0000000000
11
-24.0694882876
21
15.8815442226
31
0.0000000000
11
-24.0673279320
21
15.9163690423
31
0.0000000000
11
-24.0608996678
21
15.9525030421
31
0.0000000000
11
-24.0503606124
21
15.9890630481
31
0.0000000000
11
-24.0359683575
21
16.0251554739
31
0.0000000000
11
-24.0180746732
21
16.0598981618
31
0.0000000000
11
-23.9971169104
21
16.0924419437
31
0.0000000000
11
-23.9736073111
21
16.1219913964
31
0.0000000000
11
-23.9481204884
21
16.1478242830
31
0.0000000000
11
-23.9212793817
21
16.1693092056
31
0.0000000000
11
-23.8937400316
21
16.1859210375
31
0.0000000000
0
SPLINE
5
38C
100
AcDbEntity
8
0
100
AcDbSpline
62
9
6
CONTINUOUS
70
0
71
3
72
12
73
8
74
6
42
0.0000001000
43
0.0000001000
44
0.0000000001
12
-0.1051861010
22
0.0519803208
32
0.0000000000
13
-0.1046732520
23
-0.0537307392
33
0.0000000000
40
0.0000000000
40
0.0000000000
40
0.0000000000
40
0.0000000000
40
0.2550938295
40
0.4906955133
40
0.7098693081
40
0.9181747115
40
1.0000000000
40
1.0000000000
40
1.0000000000
40
1.0000000000
10
-25.2187247114
20
16.8484133774
30
0.0000000000
10
-25.2276688198
20
16.8528333305
30
0.0000000000
10
-25.2455402997
20
16.8600975906
30
0.0000000000
10
-25.2728695946
20
16.8658586439
30
0.0000000000
10
-25.2990226197
20
16.8658179639
30
0.0000000000
10
-25.3185674574
20
16.8610050370
30
0.0000000000
10
-25.3289537587
20
16.8563236574
30
0.0000000000
10
-25.3318087317
20
16.8548581464
30
0.0000000000
11
-25.2187247114
21
16.8484133774
31
0.0000000000
11
-25.2465258335
21
16.8594991863
31
0.0000000000
11
-25.2736171066
21
16.8649939132
31
0.0000000000
11
-25.2993314824
21
16.8647622658
31
0.0000000000
11
-25.3230358148
21
16.8588099475
31
0.0000000000
11
-25.3318087317
21
16.8548581464
31
0.0000000000
0
SPLINE
5
38D
100
AcDbEntity
8
0
100
AcDbSpline
62
7
6
CONTINUOUS
70
0
71
3
72
12
73
8
74
6
42
0.0000001000
43
0.0000001000
44
0.0000000001
12
-0.1029117008
22
0.0514558504
32
0.0000000000
13
-0.1036858895
23
-0.0504661476
33
0.0000000000
40
0.0000000000
40
0.0000000000
40
0.0000000000
40
0.0000000000
40
0.2365135992
40
0.4564779312
40
0.6620569350
40
0.8571721465
40
1.0000000000
40
1.0000000000
40
1.0000000000
40
1.0000000000
10
-23.6359681082
20
17.6603974748
30
0.0000000000
10
-23.6440814472
20
17.6644541442
30
0.0000000000
10
-23.6602995069
20
17.6712469062
30
0.0000000000
10
-23.6851082471
20
17.6772059978
30
0.0000000000
10
-23.7090414346
20
17.6783916486
30
0.0000000000
10
-23.7297826286
20
17.6749908303
30
0.0000000000
10
-23.7419632743
20
17.6703290330
30
0.0000000000
10
-23.7468996853
20
17.6679263759
30
0.0000000000
11
-23.6359681082
21
17.6603974748
31
0.0000000000
11
-23.6611256490
21
17.6707726211
31
0.0000000000
11
-23.6857710872
21
17.6765292807
31
0.0000000000
11
-23.7094027141
21
17.6775502005
31
0.0000000000
11
-23.7315394411
21
17.6738145404
31
0.0000000000
11
-23.7468996853
21
17.6679263759
31
0.0000000000
0
SPLINE
5
38E
100
AcDbEntity
8
0
100
AcDbSpline
62
9
6
CONTINUOUS
70
0
71
3
72
17
73
13
74
11
42
0.0000001000
43
0.0000001000
44
0.0000000001
12
0.3245266357
22
-0.1622633178
32
0.0000000000
13
0.3252757263
23
0.1607564103
33
0.0000000000
40
0.0000000000
40
0.0000000000
40
0.0000000000
40
0.0000000000
40
0.0890537733
40
0.1850803105
40
0.2866692718
40
0.3921274525
40
0.4995824897
40
0.6070742397
40
0.7126409721
40
0.8144054754
40
0.9106661329
40
1.0000000000
40
1.0000000000
40
1.0000000000
40
1.0000000000
10
-10.7051701231
20
-32.7801668673
30
0.0000000000
10
-10.6955366826
20
-32.7849835875
30
0.0000000000
10
-10.6748566333
20
-32.7937029528
30
0.0000000000
10
-10.6416322547
20
-32.8037857790
30
0.0000000000
10
-10.6056832599
20
-32.8111856500
30
0.0000000000
10
-10.5678759874
20
-32.8157211776
30
0.0000000000
10
-10.5291169281
20
-32.8172830843
30
0.0000000000
10
-10.4903404303
20
-32.8158329190
30
0.0000000000
10
-10.4524812948
20
-32.8114064034
30
0.0000000000
10
-10.4164474199
20
-32.8041102135
30
0.0000000000
10
-10.3831073462
20
-32.7941232545
30
0.0000000000
10
-10.3623342096
20
-32.7854665884
30
0.0000000000
10
-10.3526481635
20
-32.7806795911
30
0.0000000000
11
-10.7051701231
21
-32.7801668673
31
0.0000000000
11
-10.6754573828
21
-32.7928628819
31
0.0000000000
11
-10.6421501592
21
-32.8030882295
31
0.0000000000
11
-10.6060625352
21
-32.8105929861
31
0.0000000000
11
-10.5680765515
21
-32.8151937230
31
0.0000000000
11
-10.5291206473
21
-32.8167779908
31
0.0000000000
11
-10.4901469688
21
-32.8153070673
31
0.0000000000
11
-10.4521080961
21
-32.8108169044
31
0.0000000000
11
-10.4159337616
21
-32.8034172489
31
0.0000000000
11
-10.3825081250
21
-32.7932889605
31
0.0000000000
11
-10.3526481635
21
-32.7806795911
31
0.0000000000
0
SPLINE
5
38F
100
AcDbEntity
8
0
100
AcDbSpline
62
9
6
CONTINUOUS
70
0
71
3
72
12
73
8
74
6
42
0.0000001000
43
0.0000001000
44
0.0000000001
12
-0.1023063762
22
0.0517475861
32
0.0000000000
13
-0.1033358100
23
-0.0503876481
33
0.0000000000
40
0.0000000000
40
0.0000000000
40
0.0000000000
40
0.0000000000
40
0.2587066551
40
0.4980489301
40
0.7208658535
40
0.9330787874
40
1.0000000000
40
1.0000000000
40
1.0000000000
40
1.0000000000
10
-23.1015182296
20
17.9207449414
30
0.0000000000
10
-23.1103406764
20
17.9252074230
30
0.0000000000
10
-23.1280050312
20
17.9325649680
30
0.0000000000
10
-23.1550910625
20
17.9384563782
30
0.0000000000
10
-23.1810873170
20
17.9385108588
30
0.0000000000
10
-23.1999183318
20
17.9338957143
30
0.0000000000
10
-23.2097239185
20
17.9296010624
30
0.0000000000
10
-23.2120290378
20
17.9284770616
30
0.0000000000
11
-23.1015182296
21
17.9207449414
31
0.0000000000
11
-23.1289750001
21
17.9319641007
31
0.0000000000
11
-23.1558327836
21
17.9375884422
31
0.0000000000
11
-23.1813781767
21
17.9374531920
31
0.0000000000
11
-23.2049839258
21
17.9315609789
31
0.0000000000
11
-23.2120290378
21
17.9284770616
31
0.0000000000
0
SPLINE
5
390
100
AcDbEntity
8
0
100
AcDbSpline
62
9
6
CONTINUOUS
70
0
71
3
72
17
73
13
74
11
42
0.0000001000
43
0.0000001000
44
0.0000000001
12
0.3245266357
22
-0.1622633178
32
0.0000000000
13
0.3252757263
23
0.1607564103
33
0.0000000000
40
0.0000000000
40
0.0000000000
40
0.0000000000
40
0.0000000000
40
0.0890537733
40
0.1850803105
40
0.2866692718
40
0.3921274525
40
0.4995824897
40
0.6070742397
40
0.7126409721
40
0.8144054754
40
0.9106661329
40
1.0000000000
40
1.0000000000
40
1.0000000000
40
1.0000000000
10
-10.7051701231
20
-32.4401929331
30
0.0000000000
10
-10.6955366826
20
-32.4450096534
30
0.0000000000
10
-10.6748566333
20
-32.4537290187
30
0.0000000000
10
-10.6416322547
20
-32.4638118449
30
0.0000000000
10
-10.6056832599
20
-32.4712117158
30
0.0000000000
10
-10.5678759874
20
-32.4757472435
30
0.0000000000
10
-10.5291169281
20
-32.4773091502
30
0.0000000000
10
-10.4903404303
20
-32.4758589849
30
0.0000000000
10
-10.4524812948
20
-32.4714324692
30
0.0000000000
10
-10.4164474199
20
-32.4641362794
30
0.0000000000
10
-10.3831073462
20
-32.4541493204
30
0.0000000000
10
-10.3623342096
20
-32.4454926543
30
0.0000000000
10
-10.3526481635
20
-32.4407056570
30
0.0000000000
11
-10.7051701231
21
-32.4401929331
31
0.0000000000
11
-10.6754573828
21
-32.4528889477
31
0.0000000000
11
-10.6421501592
21
-32.4631142954
31
0.0000000000
11
-10.6060625352
21
-32.4706190520
31
0.0000000000
11
-10.5680765515
21
-32.4752197889
31
0.0000000000
11
-10.5291206473
21
-32.4768040566
31
0.0000000000
11
-10.4901469688
21
-32.4753331332
31
0.0000000000
11
-10.4521080961
21
-32.4708429702
31
0.0000000000
11
-10.4159337616
21
-32.4634433147
31
0.0000000000
11
-10.3825081250
21
-32.4533150264
31
0.0000000000
11
-10.3526481635
21
-32.4407056570
31
0.0000000000
0
SPLINE
5
391
100
AcDbEntity
8
0
100
AcDbSpline
62
9
6
CONTINUOUS
70
0
71
3
72
17
73
13
74
11
42
0.0000001000
43
0.0000001000
44
0.0000000001
12
0.1279716299
22
0.3378013546
32
0.0000000000
13
-0.3232575311
23
0.1612174365
33
0.0000000000
40
0.0000000000
40
0.0000000000
40
0.0000000000
40
0.0000000000
40
0.1079910110
40
0.2163717187
40
0.3240308943
40
0.4300053495
40
0.5334387342
40
0.6336780368
40
0.7303326621
40
0.8233384017
40
0.9129992442
40
1.0000000000
40
1.0000000000
40
1.0000000000
40
1.0000000000
10
-8.2231002009
20
-31.3821024161
30
0.0000000000
10
-8.2184936057
20
-31.3699425795
30
0.0000000000
10
-8.2107790358
20
-31.3449757603
30
0.0000000000
10
-8.2038836891
20
-31.3064792665
30
0.0000000000
10
-8.2017721593
20
-31.2676621064
30
0.0000000000
10
-8.2045040981
20
-31.2294775536
30
0.0000000000
10
-8.2120206293
20
-31.1928436800
30
0.0000000000
10
-8.2241534893
20
-31.1586459523
30
0.0000000000
10
-8.2406273940
20
-31.1277148878
30
0.0000000000
10
-8.2610724354
20
-31.1008100345
30
0.0000000000
10
-8.2850028403
20
-31.0786183939
30
0.0000000000
10
-8.3031394464
20
-31.0672109564
30
0.0000000000
10
-8.3125139963
20
-31.0625356101
30
0.0000000000
11
-8.2231002009
21
-31.3821024161
31
0.0000000000
11
-8.2115676819
21
-31.3448365856
31
0.0000000000
11
-8.2046688253
21
-31.3062989492
31
0.0000000000
11
-8.2025843386
21
-31.2674652220
31
0.0000000000
11
-8.2053657464
21
-31.2292853393
31
0.0000000000
11
-8.2129451362
21
-31.1926990299
31
0.0000000000
11
-8.2251366332
21
-31.1586037962
31
0.0000000000
11
-8.2416410465
21
-31.1278365348
31
0.0000000000
11
-8.2620533917
21
-31.1011522107
31
0.0000000000
11
-8.2858724481
21
-31.0792058631
31
0.0000000000
11
-8.3125139963
21
-31.0625356101
31
0.0000000000
0
SPLINE
5
392
100
AcDbEntity
8
0
100
AcDbSpline
62
9
6
CONTINUOUS
70
0
71
3
72
13
73
9
74
7
42
0.0000001000
43
0.0000001000
44
0.0000000001
12
0.0000000000
22
-0.1576822990
32
0.0000000000
13
0.1413985279
23
-0.0707619133
33
0.0000000000
40
0.0000000000
40
0.0000000000
40
0.0000000000
40
0.0000000000
40
0.2072625031
40
0.4000615424
40
0.5781478185
40
0.7433327842
40
0.8992402980
40
1.0000000000
40
1.0000000000
40
1.0000000000
40
1.0000000000
10
-12.0301548030
20
-32.1176745274
30
0.0000000000
10
-12.0301548030
20
-32.1285684034
30
0.0000000000
10
-12.0288650856
20
-32.1496313294
30
0.0000000000
10
-12.0226044556
20
-32.1794907149
30
0.0000000000
10
-12.0121708351
20
-32.2058371784
30
0.0000000000
10
-11.9977320847
20
-32.2279885907
30
0.0000000000
10
-11.9815178100
20
-32.2434367672
30
0.0000000000
10
-11.9699292449
20
-32.2505135640
30
0.0000000000
10
-11.9651801538
20
-32.2528902138
30
0.0000000000
11
-12.0301548030
21
-32.1176745274
31
0.0000000000
11
-12.0280018527
21
-32.1502851639
31
0.0000000000
11
-12.0215797649
21
-32.1800000983
31
0.0000000000
11
-12.0110455573
21
-32.2060303890
31
0.0000000000
11
-11.9966555084
21
-32.2277412026
31
0.0000000000
11
-11.9787622946
21
-32.2445994005
31
0.0000000000
11
-11.9651801538
21
-32.2528902138
31
0.0000000000
0
SPLINE
5
393
100
AcDbEntity
8
0
100
AcDbSpline
62
9
6
CONTINUOUS
70
0
71
3
72
13
73
9
74
7
42
0.0000001000
43
0.0000001000
44
0.0000000001
12
0.0000000000
22
-0.1576822990
32
0.0000000000
13
0.1413985279
23
-0.0707619133
33
0.0000000000
40
0.0000000000
40
0.0000000000
40
0.0000000000
40
0.0000000000
40
0.2072625031
40
0.4000615424
40
0.5781478185
40
0.7433327842
40
0.8992402980
40
1.0000000000
40
1.0000000000
40
1.0000000000
40
1.0000000000
10
-10.7051701231
20
-32.7801668673
30
0.0000000000
10
-10.7051701231
20
-32.7910607433
30
0.0000000000
10
-10.7038804058
20
-32.8121236693
30
0.0000000000
10
-10.6976197758
20
-32.8419830548
30
0.0000000000
10
-10.6871861553
20
-32.8683295184
30
0.0000000000
10
-10.6727474049
20
-32.8904809306
30
0.0000000000
10
-10.6565331302
20
-32.9059291071
30
0.0000000000
10
-10.6449445651
20
-32.9130059039
30
0.0000000000
10
-10.6401954739
20
-32.9153825537
30
0.0000000000
11
-10.7051701231
21
-32.7801668673
31
0.0000000000
11
-10.7030171729
21
-32.8127775038
31
0.0000000000
11
-10.6965950851
21
-32.8424924382
31
0.0000000000
11
-10.6860608775
21
-32.8685227289
31
0.0000000000
11
-10.6716708286
21
-32.8902335425
31
0.0000000000
11
-10.6537776148
21
-32.9070917404
31
0.0000000000
11
-10.6401954739
21
-32.9153825537
31
0.0000000000
0
SPLINE
5
394
100
AcDbEntity
8
0
100
AcDbSpline
62
9
6
CONTINUOUS
70
0
71
3
72
12
73
8
74
6
42
0.0000001000
43
0.0000001000
44
0.0000000001
12
0.0395149698
22
-0.0643285686
32
0.0000000000
13
-0.0470637143
23
-0.0601727452
33
0.0000000000
40
0.0000000000
40
0.0000000000
40
0.0000000000
40
0.0000000000
40
0.3204150150
40
0.5829496921
40
0.7894317963
40
0.9517884505
40
1.0000000000
40
1.0000000000
40
1.0000000000
40
1.0000000000
10
-21.5874183653
20
16.5996608055
30
0.0000000000
10
-21.5831979688
20
16.5927901924
30
0.0000000000
10
-21.5760506026
20
16.5799412196
30
0.0000000000
10
-21.5687795843
20
16.5613559230
30
0.0000000000
10
-21.5660573818
20
16.5455570985
30
0.0000000000
10
-21.5679958769
20
16.5348209132
30
0.0000000000
10
-21.5709283544
20
16.5303264341
30
0.0000000000
10
-21.5716846926
20
16.5293594270
30
0.0000000000
11
-21.5874183653
21
16.5996608055
31
0.0000000000
11
-21.5758781416
21
16.5784010577
31
0.0000000000
11
-21.5689832323
21
16.5598187572
31
0.0000000000
11
-21.5669027993
21
16.5443697009
31
0.0000000000
11
-21.5696879377
21
16.5324330938
31
0.0000000000
11
-21.5716846926
21
16.5293594270
31
0.0000000000
0
SPLINE
5
395
100
AcDbEntity
8
0
100
AcDbSpline
62
9
6
CONTINUOUS
70
0
71
3
72
8
73
4
74
2
42
0.0000001000
43
0.0000001000
44
0.0000000001
12
-0.0003996950
22
-0.0005110253
32
0.0000000000
13
-0.0004152185
23
-0.0004992523
33
0.0000000000
40
0.0000000000
40
0.0000000000
40
0.0000000000
40
0.0000000000
40
1.0000000000
40
1.0000000000
40
1.0000000000
40
1.0000000000
10
-21.5716846926
20
16.5293594270
30
0.0000000000
10
-21.5718179243
20
16.5291890853
30
0.0000000000
10
-21.5719537910
20
16.5290206688
30
0.0000000000
10
-21.5720921972
20
16.5288542514
30
0.0000000000
11
-21.5716846926
21
16.5293594270
31
0.0000000000
11
-21.5720921972
21
16.5288542514
31
0.0000000000
0
SPLINE
5
396
100
AcDbEntity
8
0
100
AcDbSpline
62
9
6
CONTINUOUS
70
0
71
3
72
13
73
9
74
7
42
0.0000001000
43
0.0000001000
44
0.0000000001
12
-0.1077462308
22
0.0538731154
32
0.0000000000
13
0.0000217754
23
0.1208726378
33
0.0000000000
40
0.0000000000
40
0.0000000000
40
0.0000000000
40
0.0000000000
40
0.2442126372
40
0.4631472823
40
0.6579815541
40
0.8331752334
40
0.9969917700
40
1.0000000000
40
1.0000000000
40
1.0000000000
40
1.0000000000
10
-12.0301548030
20
-32.1176745274
30
0.0000000000
10
-12.0389258000
20
-32.1132890288
30
0.0000000000
10
-12.0551013673
20
-32.1039777941
30
0.0000000000
10
-12.0758467118
20
-32.0874208802
30
0.0000000000
10
-12.0913195392
20
-32.0692965655
30
0.0000000000
10
-12.1010331008
20
-32.0498948407
30
0.0000000000
10
-12.1033592400
20
-32.0361288813
30
0.0000000000
10
-12.1033780927
20
-32.0294073840
30
0.0000000000
10
-12.1033780708
20
-32.0292861797
30
0.0000000000
11
-12.0301548030
21
-32.1176745274
31
0.0000000000
11
-12.0555468321
21
-32.1028181572
31
0.0000000000
11
-12.0759975275
21
-32.0861645454
31
0.0000000000
11
-12.0910070406
21
-32.0681207334
31
0.0000000000
11
-12.1002085144
21
-32.0491277415
31
0.0000000000
11
-12.1033770500
21
-32.0296497895
31
0.0000000000
11
-12.1033780708
21
-32.0292861797
31
0.0000000000
0
SPLINE
5
397
100
AcDbEntity
8
0
100
AcDbSpline
62
9
6
CONTINUOUS
70
0
71
3
72
17
73
13
74
11
42
0.0000001000
43
0.0000001000
44
0.0000000001
12
0.0017352843
22
0.3683326427
32
0.0000000000
13
-0.3302054118
23
0.1632064119
33
0.0000000000
40
0.0000000000
40
0.0000000000
40
0.0000000000
40
0.0000000000
40
0.0952855389
40
0.1954450498
40
0.2992254493
40
0.4051614696
40
0.5116692082
40
0.6171330614
40
0.7199975207
40
0.8188410132
40
0.9125015613
40
1.0000000000
40
1.0000000000
40
1.0000000000
40
1.0000000000
10
-21.5874183653
20
16.9471923223
30
0.0000000000
10
-21.5873632495
20
16.9588912470
30
0.0000000000
10
-21.5888369573
20
16.9829132119
30
0.0000000000
10
-21.5952677526
20
17.0191533780
30
0.0000000000
10
-21.6058216986
20
17.0557763769
30
0.0000000000
10
-21.6202421869
20
17.0918908964
30
0.0000000000
10
-21.6381796639
20
17.1266260742
30
0.0000000000
10
-21.6592003552
20
17.1591409056
30
0.0000000000
10
-21.6827956074
20
17.1886481624
30
0.0000000000
10
-21.7084024502
20
17.2144374752
30
0.0000000000
10
-21.7353868943
20
17.2358701552
30
0.0000000000
10
-21.7545612497
20
17.2473217590
30
0.0000000000
10
-21.7641920690
20
17.2520818611
30
0.0000000000
11
-21.5874183653
21
16.9471923223
31
0.0000000000
11
-21.5894483048
21
16.9822307334
31
0.0000000000
11
-21.5958081199
21
17.0185708477
31
0.0000000000
11
-21.6063411182
21
17.0553171834
31
0.0000000000
11
-21.6207877632
21
17.0915644563
31
0.0000000000
11
-21.6387921104
21
17.1264197609
31
0.0000000000
11
-21.6599103391
21
17.1590241856
31
0.0000000000
11
-21.6836227588
21
17.1885754831
31
0.0000000000
11
-21.7093429444
21
17.2143435226
31
0.0000000000
11
-21.7364393437
21
17.2356962725
31
0.0000000000
11
-21.7641920690
21
17.2520818611
31
0.0000000000
0
SPLINE
5
398
100
AcDbEntity
8
0
100
AcDbSpline
62
9
6
CONTINUOUS
70
0
71
3
72
14
73
10
74
8
42
0.0000001000
43
0.0000001000
44
0.0000000001
12
0.0000000000
22
0.2525393650
32
0.0000000000
13
0.1611079861
23
0.1944745425
33
0.0000000000
40
0.0000000000
40
0.0000000000
40
0.0000000000
40
0.0000000000
40
0.1317222825
40
0.2702766791
40
0.4138725525
40
0.5606727360
40
0.7086638743
40
0.8557781998
40
1.0000000000
40
1.0000000000
40
1.0000000000
40
1.0000000000
10
-10.7051701231
20
-32.4401929331
30
0.0000000000
10
-10.7051701231
20
-32.4291045793
30
0.0000000000
10
-10.7037485992
20
-32.4063370605
30
0.0000000000
10
-10.6978121149
20
-32.3719478334
30
0.0000000000
10
-10.6881388183
20
-32.3370989105
30
0.0000000000
10
-10.6749453725
20
-32.3025786314
30
0.0000000000
10
-10.6585213496
20
-32.2691426901
30
0.0000000000
10
-10.6392315525
20
-32.2375315915
30
0.0000000000
10
-10.6245268701
20
-32.2178479155
30
0.0000000000
10
-10.6167817755
20
-32.2084987593
30
0.0000000000
11
-10.7051701231
21
-32.4401929331
31
0.0000000000
11
-10.7032013586
21
-32.4069861825
31
0.0000000000
11
-10.6973260071
21
-32.3724925441
31
0.0000000000
11
-10.6876753881
21
-32.3375366431
31
0.0000000000
11
-10.6744643040
21
-32.3028976244
31
0.0000000000
11
-10.6579884589
21
-32.2693516617
31
0.0000000000
11
-10.6386168013
21
-32.2376495836
31
0.0000000000
11
-10.6167817755
21
-32.2084987593
31
0.0000000000
0
SPLINE
5
399
100
AcDbEntity
8
0
100
AcDbSpline
62
7
6
CONTINUOUS
70
0
71
3
72
13
73
9
74
7
42
0.0000001000
43
0.0000001000
44
0.0000000001
12
-0.1103075893
22
0.0551537946
32
0.0000000000
13
0.0000555049
23
0.1236898856
33
0.0000000000
40
0.0000000000
40
0.0000000000
40
0.0000000000
40
0.0000000000
40
0.2283605529
40
0.4360928621
40
0.6234281536
40
0.7955910661
40
0.9576329960
40
1.0000000000
40
1.0000000000
40
1.0000000000
40
1.0000000000
10
-24.6914800131
20
15.2407602052
30
0.0000000000
10
-24.6998766471
20
15.2449585222
30
0.0000000000
10
-24.7154587559
20
15.2539547482
30
0.0000000000
10
-24.7355643453
20
15.2700325608
30
0.0000000000
10
-24.7508967811
20
15.2878154634
30
0.0000000000
10
-24.7610001978
20
15.3069742745
30
0.0000000000
10
-24.7643943748
20
15.3222875734
30
0.0000000000
10
-24.7647017180
20
15.3307139906
30
0.0000000000
10
-24.7647009341
20
15.3324607805
30
0.0000000000
11
-24.6914800131
21
15.2407602052
31
0.0000000000
11
-24.7157795503
21
15.2549973555
31
0.0000000000
11
-24.7356520085
21
15.2711660118
31
0.0000000000
11
-24.7505593083
21
15.2888167792
31
0.0000000000
11
-24.7602775496
21
15.3076946099
31
0.0000000000
11
-24.7645083692
21
15.3272258752
31
0.0000000000
11
-24.7647009341
21
15.3324607805
31
0.0000000000
0
SPLINE
5
39A
100
AcDbEntity
8
0
100
AcDbSpline
62
7
6
CONTINUOUS
70
0
71
3
72
17
73
13
74
11
42
0.0000001000
43
0.0000001000
44
0.0000000001
12
-0.2293550453
22
-0.2745954237
32
0.0000000000
13
-0.3507160826
23
0.0730796552
33
0.0000000000
40
0.0000000000
40
0.0000000000
40
0.0000000000
40
0.0000000000
40
0.1021387792
40
0.2069864708
40
0.3136189946
40
0.4210326509
40
0.5281801696
40
0.6340088688
40
0.7375134601
40
0.8378124364
40
0.9342621822
40
1.0000000000
40
1.0000000000
40
1.0000000000
40
1.0000000000
10
-23.0057457198
20
15.3925540417
30
0.0000000000
10
-23.0135544013
20
15.3832050946
30
0.0000000000
10
-23.0302492700
20
15.3649696601
30
0.0000000000
10
-23.0578606288
20
15.3396727225
30
0.0000000000
10
-23.0880891004
20
15.3165110787
30
0.0000000000
10
-23.1205079453
20
15.2960068125
30
0.0000000000
10
-23.1546251466
20
15.2786703341
30
0.0000000000
10
-23.1898790239
20
15.2649987502
30
0.0000000000
10
-23.2256394968
20
15.2554680299
30
0.0000000000
10
-23.2612060125
20
15.2505226733
30
0.0000000000
10
-23.2926296251
20
15.2505700733
30
0.0000000000
10
-23.3118400917
20
15.2532814320
30
0.0000000000
10
-23.3195251951
20
15.2548827977
30
0.0000000000
11
-23.0057457198
21
15.3925540417
31
0.0000000000
11
-23.0304029531
21
15.3655832110
31
0.0000000000
11
-23.0580543929
21
15.3402341091
31
0.0000000000
11
-23.0883412624
21
15.3170349389
31
0.0000000000
11
-23.1208334722
21
15.2965128841
31
0.0000000000
11
-23.1550300919
21
15.2791871777
31
0.0000000000
11
-23.1903572693
21
15.2655627375
31
0.0000000000
11
-23.2261654078
21
15.2561215907
31
0.0000000000
11
-23.2617264033
21
15.2513106601
31
0.0000000000
11
-23.2962335136
21
15.2515241192
31
0.0000000000
11
-23.3195251951
21
15.2548827977
31
0.0000000000
0
SPLINE
5
39B
100
AcDbEntity
8
0
100
AcDbSpline
62
9
6
CONTINUOUS
70
0
71
3
72
16
73
12
74
10
42
0.0000001000
43
0.0000001000
44
0.0000000001
12
-0.1071013476
22
-0.2788209496
32
0.0000000000
13
-0.2929013579
23
0.0611246108
33
0.0000000000
40
0.0000000000
40
0.0000000000
40
0.0000000000
40
0.0000000000
40
0.1290416048
40
0.2553227214
40
0.3779246327
40
0.4962207269
40
0.6099585570
40
0.7193265840
40
0.8249876573
40
0.9280542617
40
1.0000000000
40
1.0000000000
40
1.0000000000
40
1.0000000000
10
-23.7169663279
20
15.5410575646
30
0.0000000000
10
-23.7215731712
20
15.5290643970
30
0.0000000000
10
-23.7321571812
20
15.5058658246
30
0.0000000000
10
-23.7520647268
20
15.4738158816
30
0.0000000000
10
-23.7754188565
20
15.4455373127
30
0.0000000000
10
-23.8016678763
20
15.4217276196
30
0.0000000000
10
-23.8301961630
20
15.4029771797
30
0.0000000000
10
-23.8603293628
20
15.3897707379
30
0.0000000000
10
-23.8913387049
20
15.3824724636
30
0.0000000000
10
-23.9194487066
20
15.3814227178
30
0.0000000000
10
-23.9367853617
20
15.3837711175
30
0.0000000000
10
-23.9438096965
20
15.3852370026
30
0.0000000000
11
-23.7169663279
21
15.5410575646
31
0.0000000000
11
-23.7330035268
21
15.5060098840
31
0.0000000000
11
-23.7529587468
21
15.4740029629
31
0.0000000000
11
-23.7763424384
21
15.4458220077
31
0.0000000000
11
-23.8025809439
21
15.4221583645
31
0.0000000000
11
-23.8310305698
21
15.4035925593
31
0.0000000000
11
-23.8609933788
21
15.3905800556
31
0.0000000000
11
-23.8917343115
21
15.3834400813
31
0.0000000000
11
-23.9224992192
21
15.3823477970
31
0.0000000000
11
-23.9438096965
21
15.3852370026
31
0.0000000000
0
SPLINE
5
39C
100
AcDbEntity
8
0
100
AcDbSpline
62
7
6
CONTINUOUS
70
0
71
3
72
17
73
13
74
11
42
0.0000001000
43
0.0000001000
44
0.0000000001
12
-0.3181250359
22
-0.1775235416
32
0.0000000000
13
-0.3258443141
23
0.1629221571
33
0.0000000000
40
0.0000000000
40
0.0000000000
40
0.0000000000
40
0.0000000000
40
0.0909700039
40
0.1886105471
40
0.2907022515
40
0.3966963028
40
0.5038835773
40
0.6107295677
40
0.7156871758
40
0.8161327365
40
0.9115989935
40
1.0000000000
40
1.0000000000
40
1.0000000000
40
1.0000000000
10
-23.0057457198
20
14.5849219200
30
0.0000000000
10
-23.0153923317
20
14.5795388142
30
0.0000000000
10
-23.0361274685
20
14.5696666699
30
0.0000000000
10
-23.0694876656
20
14.5579564314
30
0.0000000000
10
-23.1055751963
20
14.5490190418
30
0.0000000000
10
-23.1434454876
20
14.5430910665
30
0.0000000000
10
-23.1822524773
20
14.5403049373
30
0.0000000000
10
-23.2210315894
20
14.5407260331
30
0.0000000000
10
-23.2588242124
20
14.5443435397
30
0.0000000000
10
-23.2947902338
20
14.5510735239
30
0.0000000000
10
-23.3279961075
20
14.5607353938
30
0.0000000000
10
-23.3486660243
20
14.5693532108
30
0.0000000000
10
-23.3582676795
20
14.5741540383
30
0.0000000000
11
-23.0057457198
21
14.5849219200
31
0.0000000000
11
-23.0356056631
21
14.5705449131
31
0.0000000000
11
-23.0691334919
21
14.5586631432
31
0.0000000000
11
-23.1052187700
21
14.5496555756
31
0.0000000000
11
-23.1433623668
21
14.5436456055
31
0.0000000000
11
-23.1823103200
21
14.5408401526
31
0.0000000000
11
-23.2212323447
21
14.5412818148
31
0.0000000000
11
-23.2592902363
21
14.5449741299
31
0.0000000000
11
-23.2952440002
21
14.5517830557
31
0.0000000000
11
-23.3286043837
21
14.5616142449
31
0.0000000000
11
-23.3582676795
21
14.5741540383
31
0.0000000000
0
SPLINE
5
39D
100
AcDbEntity
8
0
100
AcDbSpline
62
7
6
CONTINUOUS
70
0
71
3
72
13
73
9
74
7
42
0.0000001000
43
0.0000001000
44
0.0000000001
12
-0.1102935773
22
0.0551467886
32
0.0000000000
13
0.0000035654
23
0.1236934328
33
0.0000000000
40
0.0000000000
40
0.0000000000
40
0.0000000000
40
0.0000000000
40
0.2387871820
40
0.4551702042
40
0.6490863712
40
0.8273924715
40
0.9964896319
40
1.0000000000
40
1.0000000000
40
1.0000000000
40
1.0000000000
10
-11.3271618487
20
8.5586011230
30
0.0000000000
10
-11.3359407462
20
8.5629905717
30
0.0000000000
10
-11.3521835894
20
8.5724257373
30
0.0000000000
10
-11.3729360195
20
8.5894083979
30
0.0000000000
10
-11.3884131615
20
8.6082545269
30
0.0000000000
10
-11.3980810539
20
8.6285896120
30
0.0000000000
10
-11.4003630623
20
8.6430495309
30
0.0000000000
10
-11.4003851649
20
8.6501663705
30
0.0000000000
10
-11.4003851607
20
8.6503111070
30
0.0000000000
11
-11.3271618487
21
8.5586011230
31
0.0000000000
11
-11.3525179010
21
8.5735710035
31
0.0000000000
11
-11.3730064716
21
8.5906642914
31
0.0000000000
11
-11.3879715090
21
8.6093147662
31
0.0000000000
11
-11.3972061903
21
8.6292687376
31
0.0000000000
11
-11.4003838108
21
8.6498768980
31
0.0000000000
11
-11.4003851607
21
8.6503111070
31
0.0000000000
0
SPLINE
5
39E
100
AcDbEntity
8
0
100
AcDbSpline
62
9
6
CONTINUOUS
70
0
71
3
72
13
73
9
74
7
42
0.0000001000
43
0.0000001000
44
0.0000000001
12
-0.1077461777
22
0.0538730888
32
0.0000000000
13
0.0000211851
23
0.1208726111
33
0.0000000000
40
0.0000000000
40
0.0000000000
40
0.0000000000
40
0.0000000000
40
0.2442354863
40
0.4631880297
40
0.6580384859
40
0.8332459522
40
0.9970779764
40
1.0000000000
40
1.0000000000
40
1.0000000000
40
1.0000000000
10
-12.0301548030
20
9.5219035461
30
0.0000000000
10
-12.0389266163
20
9.5262894528
30
0.0000000000
10
-12.0551035619
20
9.5356015945
30
0.0000000000
10
-12.0758503346
20
9.5521604285
30
0.0000000000
10
-12.0913235216
20
9.5702870484
30
0.0000000000
10
-12.1010360915
20
9.5896914357
30
0.0000000000
10
-12.1033597890
20
9.6034555165
30
0.0000000000
10
-12.1033780935
20
9.6101741642
30
0.0000000000
10
-12.1033780729
20
9.6102918950
30
0.0000000000
11
-12.0301548030
21
9.5219035461
31
0.0000000000
11
-12.0555490945
21
9.5367614714
31
0.0000000000
11
-12.0760010294
21
9.5534169549
31
0.0000000000
11
-12.0910107924
21
9.5714630799
31
0.0000000000
11
-12.1002111266
21
9.5904584577
31
0.0000000000
11
-12.1033771097
21
9.6099387051
31
0.0000000000
11
-12.1033780729
21
9.6102918950
31
0.0000000000
0
SPLINE
5
39F
100
AcDbEntity
8
0
100
AcDbSpline
62
9
6
CONTINUOUS
70
0
71
3
72
13
73
9
74
7
42
0.0000001000
43
0.0000001000
44
0.0000000001
12
-0.1077462308
22
0.0538731154
32
0.0000000000
13
0.0000217754
23
0.1208726378
33
0.0000000000
40
0.0000000000
40
0.0000000000
40
0.0000000000
40
0.0000000000
40
0.2442126372
40
0.4631472823
40
0.6579815541
40
0.8331752334
40
0.9969917700
40
1.0000000000
40
1.0000000000
40
1.0000000000
40
1.0000000000
10
-12.0301548030
20
9.8618774803
30
0.0000000000
10
-12.0389258000
20
9.8662629788
30
0.0000000000
10
-12.0551013673
20
9.8755742135
30
0.0000000000
10
-12.0758467118
20
9.8921311275
30
0.0000000000
10
-12.0913195392
20
9.9102554421
30
0.0000000000
10
-12.1010331008
20
9.9296571669
30
0.0000000000
10
-12.1033592400
20
9.9434231263
30
0.0000000000
10
-12.1033780927
20
9.9501446237
30
0.0000000000
10
-12.1033780708
20
9.9502658279
30
0.0000000000
11
-12.0301548030
21
9.8618774803
31
0.0000000000
11
-12.0555468321
21
9.8767338504
31
0.0000000000
11
-12.0759975275
21
9.8933874623
31
0.0000000000
11
-12.0910070406
21
9.9114312742
31
0.0000000000
11
-12.1002085144
21
9.9304242661
31
0.0000000000
11
-12.1033770500
21
9.9499022182
31
0.0000000000
11
-12.1033780708
21
9.9502658279
31
0.0000000000
0
SPLINE
5
3A0
100
AcDbEntity
8
0
100
AcDbSpline
62
9
6
CONTINUOUS
70
0
71
3
72
12
73
8
74
6
42
0.0000001000
43
0.0000001000
44
0.0000000001
12
-0.1051788256
22
0.0519767254
32
0.0000000000
13
-0.1046705139
23
-0.0537184034
33
0.0000000000
40
0.0000000000
40
0.0000000000
40
0.0000000000
40
0.0000000000
40
0.2551656286
40
0.4908310022
40
0.7100613736
40
0.9184212323
40
1.0000000000
40
1.0000000000
40
1.0000000000
40
1.0000000000
10
-11.8544065470
20
10.1662542952
30
0.0000000000
10
-11.8633525540
20
10.1706751865
30
0.0000000000
10
-11.8812278860
20
10.1779406959
30
0.0000000000
10
-11.9085631299
20
10.1837012535
30
0.0000000000
10
-11.9347213664
20
10.1836573413
30
0.0000000000
10
-11.9542588273
20
10.1788421698
30
0.0000000000
10
-11.9646371145
20
10.1741635002
30
0.0000000000
10
-11.9674834116
20
10.1727027398
30
0.0000000000
11
-11.8544065470
21
10.1662542952
31
0.0000000000
11
-11.8822137737
21
10.1773419478
31
0.0000000000
11
-11.9093108533
21
10.1828360176
31
0.0000000000
11
-11.9350300585
21
10.1826010874
31
0.0000000000
11
-11.9587377880
21
10.1766430086
31
0.0000000000
11
-11.9674834116
21
10.1727027398
31
0.0000000000
0
SPLINE
5
3A1
100
AcDbEntity
8
0
100
AcDbSpline
62
7
6
CONTINUOUS
70
0
71
3
72
12
73
8
74
6
42
0.0000001000
43
0.0000001000
44
0.0000000001
12
-0.1029117008
22
0.0514558504
32
0.0000000000
13
-0.1036858895
23
-0.0504661476
33
0.0000000000
40
0.0000000000
40
0.0000000000
40
0.0000000000
40
0.0000000000
40
0.2365135992
40
0.4564779312
40
0.6620569350
40
0.8571721465
40
1.0000000000
40
1.0000000000
40
1.0000000000
40
1.0000000000
10
-10.2716499438
20
10.9782383926
30
0.0000000000
10
-10.2797632827
20
10.9822950620
30
0.0000000000
10
-10.2959813424
20
10.9890878240
30
0.0000000000
10
-10.3207900826
20
10.9950469156
30
0.0000000000
10
-10.3447232702
20
10.9962325663
30
0.0000000000
10
-10.3654644642
20
10.9928317481
30
0.0000000000
10
-10.3776451099
20
10.9881699508
30
0.0000000000
10
-10.3825815209
20
10.9857672936
30
0.0000000000
11
-10.2716499438
21
10.9782383926
31
0.0000000000
11
-10.2968074846
21
10.9886135389
31
0.0000000000
11
-10.3214529227
21
10.9943701985
31
0.0000000000
11
-10.3450845497
21
10.9953911183
31
0.0000000000
11
-10.3672212767
21
10.9916554582
31
0.0000000000
11
-10.3825815209
21
10.9857672936
31
0.0000000000
0
SPLINE
5
3A2
100
AcDbEntity
8
0
100
AcDbSpline
62
9
6
CONTINUOUS
70
0
71
3
72
12
73
8
74
6
42
0.0000001000
43
0.0000001000
44
0.0000000001
12
-0.1023063227
22
0.0517475591
32
0.0000000000
13
-0.1033354543
23
-0.0503876774
33
0.0000000000
40
0.0000000000
40
0.0000000000
40
0.0000000000
40
0.0000000000
40
0.2591427862
40
0.4984240280
40
0.7211919206
40
0.9333519805
40
1.0000000000
40
1.0000000000
40
1.0000000000
40
1.0000000000
10
-9.7372000651
20
11.2385858591
30
0.0000000000
10
-9.7460373803
20
11.2430558614
30
0.0000000000
10
-9.7637163551
20
11.2504169596
30
0.0000000000
10
-9.7908165940
20
11.2563019852
30
0.0000000000
10
-9.8168066279
20
11.2563470837
30
0.0000000000
10
-9.8356218522
20
11.2517286285
30
0.0000000000
10
-9.8454151792
20
11.2474374055
30
0.0000000000
10
-9.8477108803
20
11.2463179926
30
0.0000000000
11
-9.7372000651
21
11.2385858591
31
0.0000000000
11
-9.7647047608
21
11.2498198812
31
0.0000000000
11
-9.7915575511
21
11.2554338495
31
0.0000000000
11
-9.8170972598
21
11.2552895356
31
0.0000000000
11
-9.8406950415
21
11.2493904927
31
0.0000000000
11
-9.8477108803
21
11.2463179926
31
0.0000000000
0
SPLINE
5
3A3
100
AcDbEntity
8
0
100
AcDbSpline
62
9
6
CONTINUOUS
70
0
71
3
72
12
73
8
74
6
42
0.0000001000
43
0.0000001000
44
0.0000000001
12
0.0398505226
22
-0.0648748332
32
0.0000000000
13
-0.0493056869
23
-0.0592883479
33
0.0000000000
40
0.0000000000
40
0.0000000000
40
0.0000000000
40
0.0000000000
40
0.3174765695
40
0.5778483146
40
0.7826335121
40
0.9436603428
40
1.0000000000
40
1.0000000000
40
1.0000000000
40
1.0000000000
10
-8.2231002009
20
9.9175017233
30
0.0000000000
10
-8.2188829985
20
9.9106363101
30
0.0000000000
10
-8.2117377130
20
9.8977919040
30
0.0000000000
10
-8.2044655825
20
9.8792111917
30
0.0000000000
10
-8.2017395424
20
9.8634099638
30
0.0000000000
10
-8.2037140946
20
9.8524496259
30
0.0000000000
10
-8.2068481421
20
9.8478086551
30
0.0000000000
10
-8.2077740972
20
9.8466952267
30
0.0000000000
11
-8.2231002009
21
9.9175017233
31
0.0000000000
11
-8.2115676819
21
9.8962586244
31
0.0000000000
11
-8.2046688253
21
9.8776739163
31
0.0000000000
11
-8.2025843386
21
9.8622222004
31
0.0000000000
11
-8.2053657464
21
9.8502818102
31
0.0000000000
11
-8.2077740972
21
9.8466952267
31
0.0000000000
0
SPLINE
5
3A4
100
AcDbEntity
8
0
100
AcDbSpline
62
9
6
CONTINUOUS
70
0
71
3
72
17
73
13
74
11
42
0.0000001000
43
0.0000001000
44
0.0000000001
12
0.0000000000
22
0.3668786876
32
0.0000000000
13
0.3272083824
23
0.1659356678
33
0.0000000000
40
0.0000000000
40
0.0000000000
40
0.0000000000
40
0.0000000000
40
0.0951260700
40
0.1951871607
40
0.2989216269
40
0.4048562768
40
0.5113989431
40
0.6169244000
40
0.7198650762
40
0.8187836095
40
0.9124975085
40
1.0000000000
40
1.0000000000
40
1.0000000000
40
1.0000000000
10
-10.7051701231
20
9.1993851404
30
0.0000000000
10
-10.7051701231
20
9.2110183829
30
0.0000000000
10
-10.7036060474
20
9.2349060450
30
0.0000000000
10
-10.6971048905
20
9.2709461715
30
0.0000000000
10
-10.6865410580
20
9.3073889403
30
0.0000000000
10
-10.6721694259
20
9.3433538066
30
0.0000000000
10
-10.6543358040
20
9.3779796194
30
0.0000000000
10
-10.6334684443
20
9.4104339599
30
0.0000000000
10
-10.6100688580
20
9.4399366447
30
0.0000000000
10
-10.5846917316
20
9.4657826031
30
0.0000000000
10
-10.5579613326
20
9.4873364753
30
0.0000000000
10
-10.5389657167
20
9.4989220272
30
0.0000000000
10
-10.5294218672
20
9.5037619553
30
0.0000000000
11
-10.7051701231
21
9.1993851404
31
0.0000000000
11
-10.7030088089
21
9.2342178795
31
0.0000000000
11
-10.6965776553
21
9.2703604450
31
0.0000000000
11
-10.6860339513
21
9.3069287235
31
0.0000000000
11
-10.6716355917
21
9.3430284232
31
0.0000000000
11
-10.6537347305
21
9.3777767925
31
0.0000000000
11
-10.6327694043
21
9.4103238278
31
0.0000000000
11
-10.6092517521
21
9.4398745757
31
0.0000000000
11
-10.5837591492
21
9.4657042342
31
0.0000000000
11
-10.5569129388
21
9.4871839369
31
0.0000000000
11
-10.5294218672
21
9.5037619553
31
0.0000000000
0
SPLINE
5
3A5
100
AcDbEntity
8
0
100
AcDbSpline
62
9
6
CONTINUOUS
70
0
71
3
72
17
73
13
74
11
42
0.0000001000
43
0.0000001000
44
0.0000000001
12
0.0017352841
22
0.3683326084
32
0.0000000000
13
-0.3302053811
23
0.1632063967
33
0.0000000000
40
0.0000000000
40
0.0000000000
40
0.0000000000
40
0.0000000000
40
0.0952638912
40
0.1953992108
40
0.2991546379
40
0.4050663005
40
0.5115515346
40
0.6169969640
40
0.7198451571
40
0.8186838905
40
0.9123424471
40
1.0000000000
40
1.0000000000
40
1.0000000000
40
1.0000000000
10
-8.2231002009
20
10.2650332400
30
0.0000000000
10
-8.2230450976
20
10.2767295059
30
0.0000000000
10
-8.2245181020
20
10.3007458269
30
0.0000000000
10
-8.2309460070
20
10.3369776294
30
0.0000000000
10
-8.2414953275
20
10.3735925198
30
0.0000000000
10
-8.2559097556
20
10.4096999172
30
0.0000000000
10
-8.2738401780
20
10.4444296677
30
0.0000000000
10
-8.2948531838
20
10.4769410553
30
0.0000000000
10
-8.3184411008
20
10.5064478998
30
0.0000000000
10
-8.3440414220
20
10.5322396668
30
0.0000000000
10
-8.3710359398
20
10.5536895923
30
0.0000000000
10
-8.3902255727
20
10.5651540211
30
0.0000000000
10
-8.3998739046
20
10.5699227789
30
0.0000000000
11
-8.2231002009
21
10.2650332400
31
0.0000000000
11
-8.2251292077
21
10.3000637149
31
0.0000000000
11
-8.2314861463
21
10.3363952831
31
0.0000000000
11
-8.2420144945
21
10.3731333794
31
0.0000000000
11
-8.2564550207
21
10.4093734287
31
0.0000000000
11
-8.2744521664
21
10.4442231191
31
0.0000000000
11
-8.2955628012
21
10.4768243726
31
0.0000000000
11
-8.3192671336
21
10.5063744725
31
0.0000000000
11
-8.3449815094
21
10.5321458287
31
0.0000000000
11
-8.3720727825
21
10.5535038921
31
0.0000000000
11
-8.3998739046
21
10.5699227789
31
0.0000000000
0
SPLINE
5
3A6
100
AcDbEntity
8
0
100
AcDbSpline
62
9
6
CONTINUOUS
70
0
71
3
72
17
73
13
74
11
42
0.0000001000
43
0.0000001000
44
0.0000000001
12
-0.0017609283
22
0.3677011356
32
0.0000000000
13
-0.3281085610
23
0.1659879460
33
0.0000000000
40
0.0000000000
40
0.0000000000
40
0.0000000000
40
0.0000000000
40
0.0950752777
40
0.1951772889
40
0.2990147184
40
0.4050813897
40
0.5117509338
40
0.6173654056
40
0.7203223727
40
0.8191647087
40
0.9126778229
40
1.0000000000
40
1.0000000000
40
1.0000000000
40
1.0000000000
10
-10.3526481635
20
9.1988724165
30
0.0000000000
10
-10.3527039704
20
9.2105255124
30
0.0000000000
10
-10.3543828398
20
9.2344577381
30
0.0000000000
10
-10.3610481883
20
9.2705625726
30
0.0000000000
10
-10.3717700111
20
9.3070826763
30
0.0000000000
10
-10.3862880737
20
9.3431297393
30
0.0000000000
10
-10.4042508555
20
9.3778347370
30
0.0000000000
10
-10.4252239945
20
9.4103573358
30
0.0000000000
10
-10.4487004588
20
9.4399109970
30
0.0000000000
10
-10.4741199230
20
9.4657843011
30
0.0000000000
10
-10.5008683151
20
9.4873491786
30
0.0000000000
10
-10.5198714825
20
9.4989304791
30
0.0000000000
10
-10.5294218672
20
9.5037619553
30
0.0000000000
11
-10.3526481635
21
9.1988724165
31
0.0000000000
11
-10.3549735967
21
9.2337546782
31
0.0000000000
11
-10.3615690180
21
9.2699670050
31
0.0000000000
11
-10.3722720334
21
9.3066177677
31
0.0000000000
11
-10.3868191102
21
9.3428045416
31
0.0000000000
11
-10.4048520667
21
9.3776363267
31
0.0000000000
11
-10.4259268908
21
9.4102554855
31
0.0000000000
11
-10.4495246725
21
9.4398588608
31
0.0000000000
11
-10.4750643812
21
9.4657175505
31
0.0000000000
11
-10.5019171715
21
9.4871948553
31
0.0000000000
11
-10.5294218672
21
9.5037619553
31
0.0000000000
0
SPLINE
5
3A7
100
AcDbEntity
8
0
100
AcDbSpline
62
7
6
CONTINUOUS
70
0
71
3
72
18
73
14
74
12
42
0.0000001000
43
0.0000001000
44
0.0000000001
12
0.0000000000
22
0.3680541714
32
0.0000000000
13
-0.3291976587
23
0.1645988293
33
0.0000000000
40
0.0000000000
40
0.0000000000
40
0.0000000000
40
0.0000000000
40
0.0862976154
40
0.1767716919
40
0.2704937047
40
0.3663768358
40
0.4632356557
40
0.5598417779
40
0.6549778366
40
0.7474918948
40
0.8363544548
40
0.9207205835
40
1.0000000000
40
1.0000000000
40
1.0000000000
40
1.0000000000
10
-8.7513673727
20
10.0015944200
30
0.0000000000
10
-8.7513673727
20
10.0121818191
30
0.0000000000
10
-8.7526615696
20
10.0338829795
30
0.0000000000
10
-8.7580809827
20
10.0666747415
30
0.0000000000
10
-8.7669185676
20
10.0999325943
30
0.0000000000
10
-8.7789962492
20
10.1329858764
30
0.0000000000
10
-8.7940715145
20
10.1651741454
30
0.0000000000
10
-8.8118417598
20
10.1958510920
30
0.0000000000
10
-8.8319509406
20
10.2244014762
30
0.0000000000
10
-8.8539964605
20
10.2502528110
30
0.0000000000
10
-8.8775423063
20
10.2728890582
30
0.0000000000
10
-8.9021167852
20
10.2918538424
30
0.0000000000
10
-8.9194415436
20
10.3021341924
30
0.0000000000
10
-8.9281410763
20
10.3064839588
30
0.0000000000
11
-8.7513673727
21
10.0015944200
31
0.0000000000
11
-8.7531666241
21
10.0333056148
31
0.0000000000
11
-8.7585277893
21
10.0661705713
31
0.0000000000
11
-8.7673417830
21
10.0995202821
31
0.0000000000
11
-8.7794292177
21
10.1326758423
31
0.0000000000
11
-8.7945440489
21
10.1649622783
31
0.0000000000
11
-8.8123785829
21
10.1957222993
31
0.0000000000
11
-8.8325697435
21
10.2243296916
31
0.0000000000
11
-8.8547064705
21
10.2502020787
31
0.0000000000
11
-8.8783380974
21
10.2728127858
31
0.0000000000
11
-8.9029835356
21
10.2917015644
31
0.0000000000
11
-8.9281410763
21
10.3064839588
31
0.0000000000
0
SPLINE
5
3A8
100
AcDbEntity
8
0
100
AcDbSpline
62
9
6
CONTINUOUS
70
0
71
3
72
17
73
13
74
11
42
0.0000001000
43
0.0000001000
44
0.0000000001
12
0.3245266519
22
-0.1622633259
32
0.0000000000
13
0.3252757425
23
0.1607564183
33
0.0000000000
40
0.0000000000
40
0.0000000000
40
0.0000000000
40
0.0000000000
40
0.0890743650
40
0.1851250120
40
0.2867396756
40
0.3922235448
40
0.4997027408
40
0.6072145441
40
0.7127988709
40
0.8145684647
40
0.9108304184
40
1.0000000000
40
1.0000000000
40
1.0000000000
40
1.0000000000
10
-10.7051701231
20
9.1993851404
30
0.0000000000
10
-10.6955344547
20
9.1945673061
30
0.0000000000
10
-10.6748492598
20
9.1858461278
30
0.0000000000
10
-10.6416163583
20
9.1757619561
30
0.0000000000
10
-10.6056580196
20
9.1683620382
30
0.0000000000
10
-10.5678413572
20
9.1638278519
30
0.0000000000
10
-10.5290737014
20
9.1622686562
30
0.0000000000
10
-10.4902898461
20
9.1637227665
30
0.0000000000
10
-10.4524260453
20
9.1681541978
30
0.0000000000
10
-10.4163903114
20
9.1754558905
30
0.0000000000
10
-10.3830701069
20
9.1854428460
30
0.0000000000
10
-10.3623163974
20
9.1940942223
30
0.0000000000
10
-10.3526481635
20
9.1988724165
30
0.0000000000
11
-10.7051701231
21
9.1993851404
31
0.0000000000
11
-10.6754503493
21
9.1866865677
31
0.0000000000
11
-10.6421344220
21
9.1764597577
31
0.0000000000
11
-10.6060372928
21
9.1689548971
31
0.0000000000
11
-10.5680417575
21
9.1643554890
31
0.0000000000
11
-10.5290769675
21
9.1627739552
31
0.0000000000
11
-10.4900961569
21
9.1642488761
31
0.0000000000
11
-10.4520514614
21
9.1687441805
31
0.0000000000
11
-10.4158763422
21
9.1761492238
31
0.0000000000
11
-10.3824519475
21
9.1862832368
31
0.0000000000
11
-10.3526481635
21
9.1988724165
31
0.0000000000
0
SPLINE
5
3A9
100
AcDbEntity
8
0
100
AcDbSpline
62
9
6
CONTINUOUS
70
0
71
3
72
17
73
13
74
11
42
0.0000001000
43
0.0000001000
44
0.0000000001
12
0.3245266433
22
-0.1622633217
32
0.0000000000
13
0.3252757340
23
0.1607564141
33
0.0000000000
40
0.0000000000
40
0.0000000000
40
0.0000000000
40
0.0000000000
40
0.0890628786
40
0.1850997776
40
0.2867012896
40
0.3921723352
40
0.4996398690
40
0.6071422920
40
0.7127180571
40
0.8144820594
40
0.9107406962
40
1.0000000000
40
1.0000000000
40
1.0000000000
40
1.0000000000
10
-10.7051701231
20
8.8594112062
30
0.0000000000
10
-10.6955356975
20
8.8545939934
30
0.0000000000
10
-10.6748534063
20
8.8458738404
30
0.0000000000
10
-10.6416251583
20
8.8357903826
30
0.0000000000
10
-10.6056717445
20
8.8283904426
30
0.0000000000
10
-10.5678597715
20
8.8238554914
30
0.0000000000
10
-10.5290962858
20
8.8222948515
30
0.0000000000
10
-10.4903159491
20
8.8237469267
30
0.0000000000
10
-10.4524547343
20
8.8281758118
30
0.0000000000
10
-10.4164205622
20
8.8354745196
30
0.0000000000
10
-10.3830901525
20
8.8454613363
30
0.0000000000
10
-10.3623261253
20
8.8541154805
30
0.0000000000
10
-10.3526481635
20
8.8588984824
30
0.0000000000
11
-10.7051701231
21
8.8594112062
31
0.0000000000
11
-10.6754542727
21
8.8467140605
31
0.0000000000
11
-10.6421433057
21
8.8364880930
31
0.0000000000
11
-10.6060510556
21
8.8289832115
31
0.0000000000
11
-10.5680603000
21
8.8243830444
31
0.0000000000
11
-10.5290998052
21
8.8228000529
31
0.0000000000
11
-10.4901223236
21
8.8242729145
31
0.0000000000
11
-10.4520804478
21
8.8287655996
31
0.0000000000
11
-10.4159067818
21
8.8361676202
31
0.0000000000
11
-10.3824826276
21
8.8462982751
31
0.0000000000
11
-10.3526481635
21
8.8588984824
31
0.0000000000
0
SPLINE
5
3AA
100
AcDbEntity
8
0
100
AcDbSpline
62
9
6
CONTINUOUS
70
0
71
3
72
13
73
9
74
7
42
0.0000001000
43
0.0000001000
44
0.0000000001
12
0.0000000000
22
-0.1576933309
32
0.0000000000
13
0.1414123217
23
-0.0707561393
33
0.0000000000
40
0.0000000000
40
0.0000000000
40
0.0000000000
40
0.0000000000
40
0.1988100073
40
0.3840579120
40
0.5557910576
40
0.7154061682
40
0.8658306824
40
1.0000000000
40
1.0000000000
40
1.0000000000
40
1.0000000000
10
-10.7051701231
20
8.8594112062
30
0.0000000000
10
-10.7051701231
20
8.8489608688
30
0.0000000000
10
-10.7039818197
20
8.8287422742
30
0.0000000000
10
-10.6982380144
20
8.7999915120
30
0.0000000000
10
-10.6886768416
20
8.7744293445
30
0.0000000000
10
-10.6754428803
20
8.7526371881
30
0.0000000000
10
-10.6591716714
20
8.7356024485
30
0.0000000000
10
-10.6465318029
20
8.7273625776
30
0.0000000000
10
-10.6402074047
20
8.7241981432
30
0.0000000000
11
-10.7051701231
21
8.8594112062
31
0.0000000000
11
-10.7031947104
21
8.8281224908
31
0.0000000000
11
-10.6973126184
21
8.7995084572
31
0.0000000000
11
-10.6876549452
21
8.7742078798
31
0.0000000000
11
-10.6744376865
21
8.7527872128
31
0.0000000000
11
-10.6579573514
21
8.7357260969
31
0.0000000000
11
-10.6402074047
21
8.7241981432
31
0.0000000000
0
SPLINE
5
3AB
100
AcDbEntity
8
0
100
AcDbSpline
62
9
6
CONTINUOUS
70
0
71
3
72
13
73
9
74
7
42
0.0000001000
43
0.0000001000
44
0.0000000001
12
0.0000000000
22
-0.1577064518
32
0.0000000000
13
0.1414342224
23
-0.0707420511
33
0.0000000000
40
0.0000000000
40
0.0000000000
40
0.0000000000
40
0.0000000000
40
0.1987934667
40
0.3840259591
40
0.5557448168
40
0.7153466478
40
0.8657586469
40
1.0000000000
40
1.0000000000
40
1.0000000000
40
1.0000000000
10
-12.0301548030
20
9.5219035461
30
0.0000000000
10
-12.0301548030
20
9.5114532087
30
0.0000000000
10
-12.0289664995
20
9.4912346141
30
0.0000000000
10
-12.0232226943
20
9.4624838519
30
0.0000000000
10
-12.0136615214
20
9.4369216844
30
0.0000000000
10
-12.0004275601
20
9.4151295280
30
0.0000000000
10
-11.9841533034
20
9.3980915976
30
0.0000000000
10
-11.9715090917
20
9.3898500996
30
0.0000000000
10
-11.9651803179
20
9.3866845967
30
0.0000000000
11
-12.0301548030
21
9.5219035461
31
0.0000000000
11
-12.0281793903
21
9.4906148307
31
0.0000000000
11
-12.0222972982
21
9.4620007971
31
0.0000000000
11
-12.0126396251
21
9.4367002198
31
0.0000000000
11
-11.9994223663
21
9.4152795527
31
0.0000000000
11
-11.9829420312
21
9.3982184368
31
0.0000000000
11
-11.9651803179
21
9.3866845967
31
0.0000000000
0
SPLINE
5
3AC
100
AcDbEntity
8
0
100
AcDbSpline
62
7
6
CONTINUOUS
70
0
71
3
72
17
73
13
74
11
42
0.0000001000
43
0.0000001000
44
0.0000000001
12
-0.2293550453
22
-0.2745954237
32
0.0000000000
13
-0.3507160826
23
0.0730796552
33
0.0000000000
40
0.0000000000
40
0.0000000000
40
0.0000000000
40
0.0000000000
40
0.1021387792
40
0.2069864708
40
0.3136189946
40
0.4210326509
40
0.5281801696
40
0.6340088688
40
0.7375134601
40
0.8378124364
40
0.9342621822
40
1.0000000000
40
1.0000000000
40
1.0000000000
40
1.0000000000
10
-9.6414275554
20
8.7103949595
30
0.0000000000
10
-9.6492362368
20
8.7010460124
30
0.0000000000
10
-9.6659311055
20
8.6828105778
30
0.0000000000
10
-9.6935424644
20
8.6575136403
30
0.0000000000
10
-9.7237709360
20
8.6343519965
30
0.0000000000
10
-9.7561897809
20
8.6138477303
30
0.0000000000
10
-9.7903069822
20
8.5965112518
30
0.0000000000
10
-9.8255608595
20
8.5828396680
30
0.0000000000
10
-9.8613213324
20
8.5733089477
30
0.0000000000
10
-9.8968878481
20
8.5683635911
30
0.0000000000
10
-9.9283114607
20
8.5684109911
30
0.0000000000
10
-9.9475219273
20
8.5711223498
30
0.0000000000
10
-9.9552070306
20
8.5727237155
30
0.0000000000
11
-9.6414275554
21
8.7103949595
31
0.0000000000
11
-9.6660847886
21
8.6834241288
31
0.0000000000
11
-9.6937362285
21
8.6580750269
31
0.0000000000
11
-9.7240230980
21
8.6348758567
31
0.0000000000
11
-9.7565153077
21
8.6143538019
31
0.0000000000
11
-9.7907119275
21
8.5970280955
31
0.0000000000
11
-9.8260391048
21
8.5834036553
31
0.0000000000
11
-9.8618472434
21
8.5739625085
31
0.0000000000
11
-9.8974082389
21
8.5691515779
31
0.0000000000
11
-9.9319153492
21
8.5693650370
31
0.0000000000
11
-9.9552070306
21
8.5727237155
31
0.0000000000
0
SPLINE
5
3AD
100
AcDbEntity
8
0
100
AcDbSpline
62
9
6
CONTINUOUS
70
0
71
3
72
17
73
13
74
11
42
0.0000001000
43
0.0000001000
44
0.0000000001
12
0.0000000000
22
0.3668786628
32
0.0000000000
13
0.3272083604
23
0.1659356566
33
0.0000000000
40
0.0000000000
40
0.0000000000
40
0.0000000000
40
0.0000000000
40
0.0949365385
40
0.1949784340
40
0.2986958379
40
0.4046250491
40
0.5111655508
40
0.6166961316
40
0.7196450137
40
0.8185830339
40
0.9123176468
40
1.0000000000
40
1.0000000000
40
1.0000000000
40
1.0000000000
10
-12.0301548030
20
9.8618774803
30
0.0000000000
10
-12.0301548030
20
9.8734875437
30
0.0000000000
10
-12.0285954847
20
9.8973495885
30
0.0000000000
10
-12.0221069778
20
9.9333639511
30
0.0000000000
10
-12.0115522525
20
9.9698040228
30
0.0000000000
10
-11.9971892238
20
10.0057690805
30
0.0000000000
10
-11.9793629465
20
10.0403983235
30
0.0000000000
10
-11.9585017519
20
10.0728582442
30
0.0000000000
10
-11.9351062450
20
10.1023692593
30
0.0000000000
10
-11.9097310346
20
10.1282254192
30
0.0000000000
10
-11.8829851138
20
10.1498028456
30
0.0000000000
10
-11.8639700133
20
10.1614044189
30
0.0000000000
10
-11.8544065470
20
10.1662542952
30
0.0000000000
11
-12.0301548030
21
9.8618774803
31
0.0000000000
11
-12.0280018527
21
9.8966410670
31
0.0000000000
11
-12.0215797649
21
9.9327780893
31
0.0000000000
11
-12.0110455573
21
9.9693425875
31
0.0000000000
11
-11.9966555084
21
10.0054434500
31
0.0000000000
11
-11.9787622946
21
10.0401948617
31
0.0000000000
11
-11.9578029273
21
10.0727479674
31
0.0000000000
11
-11.9342900274
21
10.1023063404
31
0.0000000000
11
-11.9087985233
21
10.1281471235
31
0.0000000000
11
-11.8819517918
21
10.1496383335
31
0.0000000000
11
-11.8544065470
21
10.1662542952
31
0.0000000000
0
SPLINE
5
3AE
100
AcDbEntity
8
0
100
AcDbSpline
62
9
6
CONTINUOUS
70
0
71
3
72
16
73
12
74
10
42
0.0000001000
43
0.0000001000
44
0.0000000001
12
-0.1071013476
22
-0.2788209496
32
0.0000000000
13
-0.2929013579
23
0.0611246108
33
0.0000000000
40
0.0000000000
40
0.0000000000
40
0.0000000000
40
0.0000000000
40
0.1290416048
40
0.2553227214
40
0.3779246327
40
0.4962207269
40
0.6099585570
40
0.7193265840
40
0.8249876573
40
0.9280542617
40
1.0000000000
40
1.0000000000
40
1.0000000000
40
1.0000000000
10
-10.3526481635
20
8.8588984824
30
0.0000000000
10
-10.3572550067
20
8.8469053148
30
0.0000000000
10
-10.3678390168
20
8.8237067424
30
0.0000000000
10
-10.3877465623
20
8.7916567994
30
0.0000000000
10
-10.4111006921
20
8.7633782305
30
0.0000000000
10
-10.4373497119
20
8.7395685374
30
0.0000000000
10
-10.4658779985
20
8.7208180975
30
0.0000000000
10
-10.4960111984
20
8.7076116557
30
0.0000000000
10
-10.5270205405
20
8.7003133814
30
0.0000000000
10
-10.5551305422
20
8.6992636356
30
0.0000000000
10
-10.5724671972
20
8.7016120353
30
0.0000000000
10
-10.5794915320
20
8.7030779203
30
0.0000000000
11
-10.3526481635
21
8.8588984824
31
0.0000000000
11
-10.3686853624
21
8.8238508018
31
0.0000000000
11
-10.3886405824
21
8.7918438807
31
0.0000000000
11
-10.4120242740
21
8.7636629254
31
0.0000000000
11
-10.4382627795
21
8.7399992823
31
0.0000000000
11
-10.4667124054
21
8.7214334771
31
0.0000000000
11
-10.4966752144
21
8.7084209734
31
0.0000000000
11
-10.5274161471
21
8.7012809991
31
0.0000000000
11
-10.5581810548
21
8.7001887148
31
0.0000000000
11
-10.5794915320
21
8.7030779203
31
0.0000000000
0
SPLINE
5
3AF
100
AcDbEntity
8
0
100
AcDbSpline
62
7
6
CONTINUOUS
70
0
71
3
72
11
73
7
74
5
42
0.0000001000
43
0.0000001000
44
0.0000000001
12
-0.1030364129
22
-0.0575901614
32
0.0000000000
13
-0.1163063543
23
-0.0201484743
33
0.0000000000
40
0.0000000000
40
0.0000000000
40
0.0000000000
40
0.0000000000
40
0.2315549567
40
0.4767646435
40
0.7337478709
40
1.0000000000
40
1.0000000000
40
1.0000000000
40
1.0000000000
10
-9.6414275554
20
7.9018941356
30
0.0000000000
10
-9.6493804194
20
7.8974490398
30
0.0000000000
10
-9.6662915849
20
7.8892357907
30
0.0000000000
10
-9.6933989741
20
7.8791963395
30
0.0000000000
10
-9.7225604039
20
7.8710966923
30
0.0000000000
10
-9.7427522264
20
7.8669985844
30
0.0000000000
10
-9.7530744979
20
7.8652103930
30
0.0000000000
11
-9.6414275554
21
7.9018941356
31
0.0000000000
11
-9.6659729050
21
7.8898696555
31
0.0000000000
11
-9.6930843306
21
7.8797336374
31
0.0000000000
11
-9.7222896548
21
7.8715361886
31
0.0000000000
11
-9.7530744979
21
7.8652103930
31
0.0000000000
0
SPLINE
5
3B0
100
AcDbEntity
8
0
100
AcDbSpline
62
7
6
CONTINUOUS
70
0
71
3
72
14
73
10
74
8
42
0.0000001000
43
0.0000001000
44
0.0000000001
12
-0.2424152710
22
-0.0419951076
32
0.0000000000
13
-0.2200522714
23
0.1100261357
33
0.0000000000
40
0.0000000000
40
0.0000000000
40
0.0000000000
40
0.0000000000
40
0.1502520783
40
0.3021346675
40
0.4524318522
40
0.5999254049
40
0.7411746963
40
0.8753095783
40
1.0000000000
40
1.0000000000
40
1.0000000000
40
1.0000000000
10
-9.7530744979
20
7.8652103930
30
0.0000000000
10
-9.7652156307
20
7.8631071090
30
0.0000000000
10
-9.7898157038
20
7.8598899583
30
0.0000000000
10
-9.8269076714
20
7.8580053887
30
0.0000000000
10
-9.8638097311
20
7.8590469309
30
0.0000000000
10
-9.8996404054
20
7.8629875118
30
0.0000000000
10
-9.9337032940
20
7.8697499360
30
0.0000000000
10
-9.9651847563
20
7.8791686487
30
0.0000000000
10
-9.9848033782
20
7.8874218877
30
0.0000000000
10
-9.9939495150
20
7.8919949561
30
0.0000000000
11
-9.7530744979
21
7.8652103930
31
0.0000000000
11
-9.7897249883
21
7.8603917074
31
0.0000000000
11
-9.8270438018
21
7.8584935916
31
0.0000000000
11
-9.8640054654
21
7.8595585678
31
0.0000000000
11
-9.9000700559
21
7.8635721530
31
0.0000000000
11
-9.9341415168
21
7.8704107659
31
0.0000000000
11
-9.9657270143
21
7.8799710875
31
0.0000000000
11
-9.9939495150
21
7.8919949561
31
0.0000000000
0
SPLINE
5
3B1
100
AcDbEntity
8
0
100
AcDbSpline
62
7
6
CONTINUOUS
70
0
71
3
72
8
73
4
74
2
42
0.0000001000
43
0.0000001000
44
0.0000000001
12
-0.0542184988
22
0.0293303655
32
0.0000000000
13
-0.0551041303
23
0.0275520651
33
0.0000000000
40
0.0000000000
40
0.0000000000
40
0.0000000000
40
0.0000000000
40
1.0000000000
40
1.0000000000
40
1.0000000000
40
1.0000000000
10
-2.6155740684
20
13.9951982319
30
0.0000000000
10
-2.6336469013
20
14.0049750204
30
0.0000000000
10
-2.6518810110
20
14.0144464709
30
0.0000000000
10
-2.6702490544
20
14.0236304926
30
0.0000000000
11
-2.6155740684
21
13.9951982319
31
0.0000000000
11
-2.6702490544
21
14.0236304926
31
0.0000000000
0
SPLINE
5
3B2
100
AcDbEntity
8
0
100
AcDbSpline
62
7
6
CONTINUOUS
70
0
71
3
72
8
73
4
74
2
42
0.0000001000
43
0.0000001000
44
0.0000000001
12
-0.0736909432
22
0.0368971768
32
0.0000000000
13
-0.0765082596
23
0.0310158706
33
0.0000000000
40
0.0000000000
40
0.0000000000
40
0.0000000000
40
0.0000000000
40
1.0000000000
40
1.0000000000
40
1.0000000000
40
1.0000000000
10
-12.8253597743
20
13.5288778185
30
0.0000000000
10
-12.8499234220
20
13.5411768774
30
0.0000000000
10
-12.8750336793
20
13.5524481561
30
0.0000000000
10
-12.9005364325
20
13.5627867797
30
0.0000000000
11
-12.8253597743
21
13.5288778185
31
0.0000000000
11
-12.9005364325
21
13.5627867797
31
0.0000000000
0
SPLINE
5
3B3
100
AcDbEntity
8
0
100
AcDbSpline
62
7
6
CONTINUOUS
70
0
71
3
72
8
73
4
74
2
42
0.0000001000
43
0.0000001000
44
0.0000000001
12
-0.0729728598
22
0.0295826462
32
0.0000000000
13
-0.0747140562
23
0.0247395495
33
0.0000000000
40
0.0000000000
40
0.0000000000
40
0.0000000000
40
0.0000000000
40
1.0000000000
40
1.0000000000
40
1.0000000000
40
1.0000000000
10
-12.9005364325
20
13.5627867797
30
0.0000000000
10
-12.9248607191
20
13.5726476617
30
0.0000000000
10
-12.9495420657
20
13.5816600920
30
0.0000000000
10
-12.9744467511
20
13.5899066085
30
0.0000000000
11
-12.9005364325
21
13.5627867797
31
0.0000000000
11
-12.9744467511
21
13.5899066085
31
0.0000000000
0
SPLINE
5
3B4
100
AcDbEntity
8
0
100
AcDbSpline
62
7
6
CONTINUOUS
70
0
71
3
72
11
73
7
74
5
42
0.0000001000
43
0.0000001000
44
0.0000000001
12
-0.9754292017
22
0.3229871352
32
0.0000000000
13
-0.9767214696
23
-0.3186111853
33
0.0000000000
40
0.0000000000
40
0.0000000000
40
0.0000000000
40
0.0000000000
40
0.2437507552
40
0.4977042918
40
0.7528415056
40
1.0000000000
40
1.0000000000
40
1.0000000000
40
1.0000000000
10
-12.9744467511
20
13.5899066085
30
0.0000000000
10
-13.0537006193
20
13.6161493945
30
0.0000000000
10
-13.2201438735
20
13.6538960142
30
0.0000000000
10
-13.4775918003
20
13.6721911048
30
0.0000000000
10
-13.7361839930
20
13.6537132616
30
0.0000000000
10
-13.9041996768
20
13.6158929419
30
0.0000000000
10
-13.9846680127
20
13.5896437883
30
0.0000000000
11
-12.9744467511
21
13.5899066085
31
0.0000000000
11
-13.2176326956
21
13.6469695223
31
0.0000000000
11
-13.4771834903
21
13.6659885252
31
0.0000000000
11
-13.7379474218
21
13.6469269325
31
0.0000000000
11
-13.9846680127
21
13.5896437883
31
0.0000000000
0
SPLINE
5
3B5
100
AcDbEntity
8
0
100
AcDbSpline
62
7
6
CONTINUOUS
70
0
71
3
72
8
73
4
74
2
42
0.0000001000
43
0.0000001000
44
0.0000000001
12
-0.1534547550
22
-0.0500576704
32
0.0000000000
13
-0.1449837129
23
-0.0705412761
33
0.0000000000
40
0.0000000000
40
0.0000000000
40
0.0000000000
40
0.0000000000
40
1.0000000000
40
1.0000000000
40
1.0000000000
40
1.0000000000
10
-13.9846680127
20
13.5896437883
30
0.0000000000
10
-14.0358195977
20
13.5729578982
30
0.0000000000
10
-14.0860801512
20
13.5531850848
30
0.0000000000
10
-14.1344080555
20
13.5296713261
30
0.0000000000
11
-13.9846680127
21
13.5896437883
31
0.0000000000
11
-14.1344080555
21
13.5296713261
31
0.0000000000
0
SPLINE
5
3B6
100
AcDbEntity
8
0
100
AcDbSpline
62
7
6
CONTINUOUS
70
0
71
3
72
8
73
4
74
2
42
0.0000001000
43
0.0000001000
44
0.0000000001
12
-0.0104646221
22
-0.0050915222
32
0.0000000000
13
-0.0104030365
23
-0.0052091941
33
0.0000000000
40
0.0000000000
40
0.0000000000
40
0.0000000000
40
0.0000000000
40
1.0000000000
40
1.0000000000
40
1.0000000000
40
1.0000000000
10
-14.1344080555
20
13.5296713261
30
0.0000000000
10
-14.1378962629
20
13.5279741521
30
0.0000000000
10
-14.1413744018
20
13.5262574890
30
0.0000000000
10
-14.1448420806
20
13.5245210909
30
0.0000000000
11
-14.1344080555
21
13.5296713261
31
0.0000000000
11
-14.1448420806
21
13.5245210909
31
0.0000000000
0
SPLINE
5
3B7
100
AcDbEntity
8
0
100
AcDbSpline
62
7
6
CONTINUOUS
70
0
71
3
72
14
73
10
74
8
42
0.0000001000
43
0.0000001000
44
0.0000000001
12
0.0001224006
22
4.8220204156
32
0.0000000000
13
-4.3136327229
23
2.1567127438
33
0.0000000000
40
0.0000000000
40
0.0000000000
40
0.0000000000
40
0.0000000000
40
0.1291939749
40
0.2790797861
40
0.4320730043
40
0.5849808876
40
0.7346257790
40
0.8786709333
40
1.0000000000
40
1.0000000000
40
1.0000000000
40
1.0000000000
10
11.4652527181
20
12.4341775712
30
0.0000000000
10
11.4652579892
20
12.6418362328
30
0.0000000000
10
11.4271430244
20
13.0910759128
30
0.0000000000
10
11.2620760323
20
13.7680116181
30
0.0000000000
10
10.9850087999
20
14.4487287748
30
0.0000000000
10
10.6143702711
20
15.0827905065
30
0.0000000000
10
10.1639366717
20
15.6450372921
30
0.0000000000
10
9.6673090400
20
16.0944886127
30
0.0000000000
10
9.3036363428
20
16.3229014204
30
0.0000000000
10
9.1291799987
20
16.4101254019
30
0.0000000000
11
11.4652527181
21
12.4341775712
31
0.0000000000
11
11.4152885460
21
13.0551960705
31
0.0000000000
11
11.2465107679
21
13.7577123682
31
0.0000000000
11
10.9692151785
21
14.4410799600
31
0.0000000000
11
10.5966480986
21
15.0770605611
31
0.0000000000
11
10.1439502532
21
15.6386680476
31
0.0000000000
11
9.6265389110
21
16.1017124630
31
0.0000000000
11
9.1291799987
21
16.4101254019
31
0.0000000000
0
SPLINE
5
3B8
100
AcDbEntity
8
0
100
AcDbSpline
62
7
6
CONTINUOUS
70
0
71
3
72
12
73
8
74
6
42
0.0000001000
43
0.0000001000
44
0.0000000001
12
2.3216243670
22
1.2025369819
32
0.0000000000
13
0.0001789783
23
2.6064946880
33
0.0000000000
40
0.0000000000
40
0.0000000000
40
0.0000000000
40
0.0000000000
40
0.1093615375
40
0.3118605086
40
0.5259355430
40
0.7560513748
40
1.0000000000
40
1.0000000000
40
1.0000000000
40
1.0000000000
10
10.3155623189
20
-16.2097084817
30
0.0000000000
10
10.4001944557
20
-16.1658713839
30
0.0000000000
10
10.6324032444
20
-16.0224612633
30
0.0000000000
10
10.9643113939
20
-15.7006783646
30
0.0000000000
10
11.2543722512
20
-15.2124211182
30
0.0000000000
10
11.4295237089
20
-14.6357724339
30
0.0000000000
10
11.4652370601
20
-14.2225148370
30
0.0000000000
10
11.4652516140
20
-14.0105645718
30
0.0000000000
11
10.3155623189
21
-16.2097084817
31
0.0000000000
11
10.5587007126
21
-16.0594624998
31
0.0000000000
11
10.9390365058
21
-15.6936668527
31
0.0000000000
11
11.2271617787
21
-15.2159716469
31
0.0000000000
11
11.4059867104
21
-14.6435940984
31
0.0000000000
11
11.4652516140
21
-14.0105645718
31
0.0000000000
0
SPLINE
5
3B9
100
AcDbEntity
8
0
100
AcDbSpline
62
7
6
CONTINUOUS
70
0
71
3
72
12
73
8
74
6
42
0.0000001000
43
0.0000001000
44
0.0000000001
12
-1.8005429440
22
0.9000189516
32
0.0000000000
13
-1.8167255608
23
-0.8751171902
33
0.0000000000
40
0.0000000000
40
0.0000000000
40
0.0000000000
40
0.0000000000
40
0.2239270062
40
0.4631299946
40
0.6874368179
40
0.9017500483
40
1.0000000000
40
1.0000000000
40
1.0000000000
40
1.0000000000
10
-1.1491540635
20
21.5492867491
30
0.0000000000
10
-1.2835507938
20
21.6164662656
30
0.0000000000
10
-1.5724940681
20
21.7347894607
30
0.0000000000
10
-2.0266196225
20
21.8299766794
30
0.0000000000
10
-2.4847549425
20
21.8273787152
30
0.0000000000
10
-2.8382159928
20
21.7452187933
30
0.0000000000
10
-3.0323829773
20
21.6639284544
30
0.0000000000
10
-3.0918807102
20
21.6352683805
30
0.0000000000
11
-1.1491540635
21
21.5492867491
31
0.0000000000
11
-1.5669386055
21
21.7182169528
31
0.0000000000
11
-2.0383470237
21
21.8144730912
31
0.0000000000
11
-2.4894999981
21
21.8102256125
31
0.0000000000
11
-2.9091677352
21
21.7117276441
31
0.0000000000
11
-3.0918807102
21
21.6352683805
31
0.0000000000
0
SPLINE
5
3BA
100
AcDbEntity
8
0
100
AcDbSpline
62
7
6
CONTINUOUS
70
0
71
3
72
12
73
8
74
6
42
0.0000001000
43
0.0000001000
44
0.0000000001
12
0.0000000000
22
0.5671658319
32
0.0000000000
13
-0.5095055048
23
0.2548578413
33
0.0000000000
40
0.0000000000
40
0.0000000000
40
0.0000000000
40
0.0000000000
40
0.2568563229
40
0.4904745991
40
0.7022966307
40
0.8980268530
40
1.0000000000
40
1.0000000000
40
1.0000000000
40
1.0000000000
10
-0.1953753203
20
20.7025709391
30
0.0000000000
10
-0.1953753203
20
20.7511309824
30
0.0000000000
10
-0.2023971268
20
20.8441213484
30
0.0000000000
10
-0.2371919605
20
20.9732052461
30
0.0000000000
10
-0.2952087143
20
21.0811300337
30
0.0000000000
10
-0.3635675004
20
21.1510875799
30
0.0000000000
10
-0.4119890848
20
21.1806663951
30
0.0000000000
10
-0.4293077114
20
21.1893292805
30
0.0000000000
11
-0.1953753203
21
20.7025709391
31
0.0000000000
11
-0.2074684326
21
20.8477482683
31
0.0000000000
11
-0.2432881708
21
20.9753150230
31
0.0000000000
11
-0.3014732064
21
21.0804230306
31
0.0000000000
11
-0.3798122179
21
21.1590776627
31
0.0000000000
11
-0.4293077114
21
21.1893292805
31
0.0000000000
0
SPLINE
5
3BB
100
AcDbEntity
8
0
100
AcDbSpline
62
7
6
CONTINUOUS
70
0
71
3
72
18
73
14
74
12
42
0.0000001000
43
0.0000001000
44
0.0000000001
12
-2.6046040514
22
1.3023020257
32
0.0000000000
13
-2.6046040514
23
-1.3023020257
33
0.0000000000
40
0.0000000000
40
0.0000000000
40
0.0000000000
40
0.0000000000
40
0.0807152376
40
0.1672477320
40
0.2587291077
40
0.3536805818
40
0.4510386351
40
0.5489613649
40
0.6463194182
40
0.7412708923
40
0.8327522680
40
0.9192847624
40
1.0000000000
40
1.0000000000
40
1.0000000000
40
1.0000000000
10
-6.2057829604
20
15.7913974456
30
0.0000000000
10
-6.2758600387
20
15.8264359847
30
0.0000000000
10
-6.4254162336
20
15.8905094890
30
0.0000000000
10
-6.6650315264
20
15.9667618801
30
0.0000000000
10
-6.9237473832
20
16.0253306746
30
0.0000000000
10
-7.1965958416
20
16.0650737900
30
0.0000000000
10
-7.4778485098
20
16.0851415590
30
0.0000000000
10
-7.7621445357
20
16.0851415590
30
0.0000000000
10
-8.0433972039
20
16.0650737900
30
0.0000000000
10
-8.3162456623
20
16.0253306746
30
0.0000000000
10
-8.5749615191
20
15.9667618801
30
0.0000000000
10
-8.8145768119
20
15.8905094890
30
0.0000000000
10
-8.9641330069
20
15.8264359847
30
0.0000000000
10
-9.0342100851
20
15.7913974456
30
0.0000000000
11
-6.2057829604
21
15.7913974456
31
0.0000000000
11
-6.4214571389
21
15.8848378749
31
0.0000000000
11
-6.6613598977
21
15.9619317956
31
0.0000000000
11
-6.9210709218
21
16.0212409038
31
0.0000000000
11
-7.1946392375
21
16.0614128650
31
0.0000000000
11
-7.4774192724
21
16.0817463937
31
0.0000000000
11
-7.7625737731
21
16.0817463937
31
0.0000000000
11
-8.0453538080
21
16.0614128650
31
0.0000000000
11
-8.3189221237
21
16.0212409038
31
0.0000000000
11
-8.5786331478
21
15.9619317956
31
0.0000000000
11
-8.8185359066
21
15.8848378749
31
0.0000000000
11
-9.0342100851
21
15.7913974456
31
0.0000000000
0
SPLINE
5
3BC
100
AcDbEntity
8
0
100
AcDbSpline
62
7
6
CONTINUOUS
70
0
71
3
72
11
73
7
74
5
42
0.0000001000
43
0.0000001000
44
0.0000000001
12
0.3691186945
22
0.1806141378
32
0.0000000000
13
0.3691604548
23
-0.1846563692
33
0.0000000000
40
0.0000000000
40
0.0000000000
40
0.0000000000
40
0.0000000000
40
0.3200113608
40
0.6103216290
40
0.8792705852
40
1.0000000000
40
1.0000000000
40
1.0000000000
40
1.0000000000
10
5.5377431405
20
17.9845623241
30
0.0000000000
10
5.5771171991
20
18.0038285161
30
0.0000000000
10
5.6558962088
20
18.0338891522
30
0.0000000000
10
5.7766049647
20
18.0497481172
30
0.0000000000
10
5.8701057536
20
18.0352768498
30
0.0000000000
10
5.9197971441
20
18.0147799170
30
0.0000000000
10
5.9346533193
20
18.0073487652
30
0.0000000000
11
5.5377431405
21
17.9845623241
31
0.0000000000
11
5.6611066934
21
18.0301140267
31
0.0000000000
11
5.7795707543
21
18.0442081800
31
0.0000000000
11
5.8886330984
21
18.0263091359
31
0.0000000000
11
5.9346533193
21
18.0073487652
31
0.0000000000
0
SPLINE
5
3BD
100
AcDbEntity
8
0
100
AcDbSpline
62
9
6
CONTINUOUS
70
0
71
3
72
10
73
6
74
4
42
0.0000001000
43
0.0000001000
44
0.0000000001
12
0.0004142742
22
-0.4324241436
32
0.0000000000
13
-0.3786783883
23
-0.1926729448
33
0.0000000000
40
0.0000000000
40
0.0000000000
40
0.0000000000
40
0.0000000000
40
0.1600886953
40
0.5323116132
40
1.0000000000
40
1.0000000000
40
1.0000000000
40
1.0000000000
10
11.4644307796
20
-14.0105653641
30
0.0000000000
10
11.4644528865
20
-14.0336407698
30
0.0000000000
10
11.4539244545
20
-14.1103343512
30
0.0000000000
10
11.3672800047
20
-14.2304774667
30
0.0000000000
10
11.2662161065
20
-14.2959240096
30
0.0000000000
10
11.2071816117
20
-14.3259609759
30
0.0000000000
11
11.4644307796
21
-14.0105653641
31
0.0000000000
11
11.4549009111
21
-14.0786185171
31
0.0000000000
11
11.3699953806
21
-14.2120430451
31
0.0000000000
11
11.2071816117
21
-14.3259609759
31
0.0000000000
0
SPLINE
5
3BE
100
AcDbEntity
8
0
100
AcDbSpline
62
9
6
CONTINUOUS
70
0
71
3
72
10
73
6
74
4
42
0.0000001000
43
0.0000001000
44
0.0000000001
12
-0.3677004889
22
0.1860923618
32
0.0000000000
13
-0.3674540425
23
-0.1797996024
33
0.0000000000
40
0.0000000000
40
0.0000000000
40
0.0000000000
40
0.0000000000
40
0.0682940054
40
0.5020359128
40
1.0000000000
40
1.0000000000
40
1.0000000000
40
1.0000000000
10
-1.1492014583
20
21.5491931891
30
0.0000000000
10
-1.1575720381
20
21.5534295200
30
0.0000000000
10
-1.2203527297
20
21.5819450529
30
0.0000000000
10
-1.3614553185
20
21.5972162169
30
0.0000000000
10
-1.4850101564
20
21.5562800403
30
0.0000000000
10
-1.5460031287
20
21.5264354587
30
0.0000000000
11
-1.1492014583
21
21.5491931891
31
0.0000000000
11
-1.1748017815
21
21.5608018760
31
0.0000000000
11
-1.3506788443
21
21.5842800730
31
0.0000000000
11
-1.5460031287
21
21.5264354587
31
0.0000000000
0
SPLINE
5
3BF
100
AcDbEntity
8
0
100
AcDbSpline
62
9
6
CONTINUOUS
70
0
71
3
72
8
73
4
74
2
42
0.0000001000
43
0.0000001000
44
0.0000000001
12
0.0131443241
22
0.0063243046
32
0.0000000000
13
0.0132125467
23
0.0061797523
33
0.0000000000
40
0.0000000000
40
0.0000000000
40
0.0000000000
40
0.0000000000
40
1.0000000000
40
1.0000000000
40
1.0000000000
40
1.0000000000
10
-3.0905884788
20
21.6357769490
30
0.0000000000
10
-3.0862070374
20
21.6378850505
30
0.0000000000
10
-3.0818140868
20
21.6399691331
30
0.0000000000
10
-3.0774099045
20
21.6420290505
30
0.0000000000
11
-3.0905884788
21
21.6357769490
31
0.0000000000
11
-3.0774099045
21
21.6420290505
31
0.0000000000
0
SPLINE
5
3C0
100
AcDbEntity
8
0
100
AcDbSpline
62
9
6
CONTINUOUS
70
0
71
3
72
11
73
7
74
5
42
0.0000001000
43
0.0000001000
44
0.0000000001
12
1.4424075206
22
0.6746406548
32
0.0000000000
13
1.4167022321
23
-0.7113869754
33
0.0000000000
40
0.0000000000
40
0.0000000000
40
0.0000000000
40
0.0000000000
40
0.1070982569
40
0.3799049862
40
0.6746984749
40
1.0000000000
40
1.0000000000
40
1.0000000000
40
1.0000000000
10
-3.0774099045
20
21.6420290505
30
0.0000000000
10
-3.0259167941
20
21.6661133299
30
0.0000000000
10
-2.8378112145
20
21.7398285519
30
0.0000000000
10
-2.4793486021
20
21.7917023420
30
0.0000000000
10
-2.0071354499
20
21.7246343974
30
0.0000000000
10
-1.6996215942
20
21.6035738814
30
0.0000000000
10
-1.5460031287
20
21.5264354587
30
0.0000000000
11
-3.0774099045
21
21.6420290505
31
0.0000000000
11
-2.9187682832
21
21.7041381299
31
0.0000000000
11
-2.4913500433
21
21.7700821506
31
0.0000000000
11
-2.0278858217
21
21.7100921850
31
0.0000000000
11
-1.5460031287
21
21.5264354587
31
0.0000000000
0
SPLINE
5
3C1
100
AcDbEntity
8
0
100
AcDbSpline
62
7
6
CONTINUOUS
70
0
71
3
72
11
73
7
74
5
42
0.0000001000
43
0.0000001000
44
0.0000000001
12
-0.3691604548
22
0.1846563692
32
0.0000000000
13
-0.3691186945
23
-0.1806141378
33
0.0000000000
40
0.0000000000
40
0.0000000000
40
0.0000000000
40
0.0000000000
40
0.1207294148
40
0.3896783710
40
0.6799886392
40
1.0000000000
40
1.0000000000
40
1.0000000000
40
1.0000000000
10
-0.4293077114
20
21.1893292805
30
0.0000000000
10
-0.4441638866
20
21.1967604323
30
0.0000000000
10
-0.4938552770
20
21.2172573652
30
0.0000000000
10
-0.5873560659
20
21.2317286325
30
0.0000000000
10
-0.7080648219
20
21.2158696675
30
0.0000000000
10
-0.7868438316
20
21.1858090315
30
0.0000000000
10
-0.8262178902
20
21.1665428395
30
0.0000000000
11
-0.4293077114
21
21.1893292805
31
0.0000000000
11
-0.4753279323
21
21.2082896512
31
0.0000000000
11
-0.5843902764
21
21.2261886953
31
0.0000000000
11
-0.7028543373
21
21.2120945421
31
0.0000000000
11
-0.8262178902
21
21.1665428395
31
0.0000000000
0
SPLINE
5
3C2
100
AcDbEntity
8
0
100
AcDbSpline
62
9
6
CONTINUOUS
70
0
71
3
72
10
73
6
74
4
42
0.0000001000
43
0.0000001000
44
0.0000000001
12
-0.3676706915
22
0.1859636949
32
0.0000000000
13
-0.3673808353
23
-0.1797637680
33
0.0000000000
40
0.0000000000
40
0.0000000000
40
0.0000000000
40
0.0000000000
40
0.0681063259
40
0.5019353659
40
1.0000000000
40
1.0000000000
40
1.0000000000
40
1.0000000000
10
9.1291305349
20
16.4100276340
30
0.0000000000
10
9.1207836349
20
16.4142494020
30
0.0000000000
10
9.0580248647
20
16.4427453409
30
0.0000000000
10
8.9169503867
20
16.4580137294
30
0.0000000000
10
8.7933952463
20
16.4170774966
30
0.0000000000
10
8.7324021125
20
16.3872328381
30
0.0000000000
11
9.1291305349
21
16.4100276340
31
0.0000000000
11
9.1036042441
21
16.4215989409
31
0.0000000000
11
8.9277269425
21
16.4450774994
31
0.0000000000
11
8.7324021125
21
16.3872328381
31
0.0000000000
0
SPLINE
5
3C3
100
AcDbEntity
8
0
100
AcDbSpline
62
9
6
CONTINUOUS
70
0
71
3
72
10
73
6
74
4
42
0.0000001000
43
0.0000001000
44
0.0000000001
12
0.0002619014
22
-0.4323354796
32
0.0000000000
13
-0.3786012003
23
-0.1926336883
33
0.0000000000
40
0.0000000000
40
0.0000000000
40
0.0000000000
40
0.0000000000
40
0.1599190566
40
0.5322174403
40
1.0000000000
40
1.0000000000
40
1.0000000000
40
1.0000000000
10
11.4644308491
20
12.4341770683
30
0.0000000000
10
11.4644448101
20
12.4111308409
30
0.0000000000
10
11.4539066277
20
12.3344713205
30
0.0000000000
10
11.3672796614
20
12.2143528884
30
0.0000000000
10
11.2662159579
20
12.1489064831
30
0.0000000000
10
11.2071816117
20
12.1188695899
30
0.0000000000
11
11.4644308491
21
12.4341770683
31
0.0000000000
11
11.4549007056
21
12.3662113893
31
0.0000000000
11
11.3699950206
21
12.2327871687
31
0.0000000000
11
11.2071816117
21
12.1188695899
31
0.0000000000
0
SPLINE
5
3C4
100
AcDbEntity
8
0
100
AcDbSpline
62
7
6
CONTINUOUS
70
0
71
3
72
10
73
6
74
4
42
0.0000001000
43
0.0000001000
44
0.0000000001
12
0.4470859437
22
-0.2235429718
32
0.0000000000
13
0.3382296734
23
-0.3690176206
33
0.0000000000
40
0.0000000000
40
0.0000000000
40
0.0000000000
40
0.0000000000
40
0.4316474522
40
0.8224620840
40
1.0000000000
40
1.0000000000
40
1.0000000000
40
1.0000000000
10
-2.6702490544
20
14.4566431945
30
0.0000000000
10
-2.6059212183
20
14.4244792764
30
0.0000000000
10
-2.4864808371
20
14.3564768594
30
0.0000000000
10
-2.3536938119
20
14.2548377211
30
0.0000000000
10
-2.2862753064
20
14.1879645746
30
0.0000000000
10
-2.2662591092
20
14.1661263682
30
0.0000000000
11
-2.6702490544
21
14.4566431945
31
0.0000000000
11
-2.4833681957
21
14.3488061052
31
0.0000000000
11
-2.3291803543
21
14.2288547258
31
0.0000000000
11
-2.2662591092
21
14.1661263682
31
0.0000000000
0
SPLINE
5
3C5
100
AcDbEntity
8
0
100
AcDbSpline
62
7
6
CONTINUOUS
70
0
71
3
72
18
73
14
74
12
42
0.0000001000
43
0.0000001000
44
0.0000000001
12
2.6046040514
22
1.3023020257
32
0.0000000000
13
2.6046040514
23
-1.3023020257
33
0.0000000000
40
0.0000000000
40
0.0000000000
40
0.0000000000
40
0.0000000000
40
0.0807152376
40
0.1672477320
40
0.2587291077
40
0.3536805818
40
0.4510386351
40
0.5489613649
40
0.6463194182
40
0.7412708923
40
0.8327522680
40
0.9192847624
40
1.0000000000
40
1.0000000000
40
1.0000000000
40
1.0000000000
10
-9.0342100851
20
16.2244101474
30
0.0000000000
10
-8.9641330069
20
16.2594486866
30
0.0000000000
10
-8.8145768119
20
16.3235221909
30
0.0000000000
10
-8.5749615191
20
16.3997745820
30
0.0000000000
10
-8.3162456623
20
16.4583433765
30
0.0000000000
10
-8.0433972039
20
16.4980864919
30
0.0000000000
10
-7.7621445357
20
16.5181542609
30
0.0000000000
10
-7.4778485098
20
16.5181542609
30
0.0000000000
10
-7.1965958416
20
16.4980864919
30
0.0000000000
10
-6.9237473832
20
16.4583433765
30
0.0000000000
10
-6.6650315264
20
16.3997745820
30
0.0000000000
10
-6.4254162336
20
16.3235221909
30
0.0000000000
10
-6.2758600387
20
16.2594486866
30
0.0000000000
10
-6.2057829604
20
16.2244101474
30
0.0000000000
11
-9.0342100851
21
16.2244101474
31
0.0000000000
11
-8.8185359066
21
16.3178505768
31
0.0000000000
11
-8.5786331478
21
16.3949444975
31
0.0000000000
11
-8.3189221237
21
16.4542536056
31
0.0000000000
11
-8.0453538080
21
16.4944255669
31
0.0000000000
11
-7.7625737731
21
16.5147590956
31
0.0000000000
11
-7.4774192724
21
16.5147590956
31
0.0000000000
11
-7.1946392375
21
16.4944255669
31
0.0000000000
11
-6.9210709218
21
16.4542536056
31
0.0000000000
11
-6.6613598977
21
16.3949444975
31
0.0000000000
11
-6.4214571389
21
16.3178505768
31
0.0000000000
11
-6.2057829604
21
16.2244101474
31
0.0000000000
0
SPLINE
5
3C6
100
AcDbEntity
8
0
100
AcDbSpline
62
9
6
CONTINUOUS
70
0
71
3
72
12
73
8
74
6
42
0.0000001000
43
0.0000001000
44
0.0000000001
12
0.0037513742
22
-2.1202542865
32
0.0000000000
13
-1.8409729315
23
-1.0703899300
33
0.0000000000
40
0.0000000000
40
0.0000000000
40
0.0000000000
40
0.0000000000
40
0.2683755065
40
0.5122513678
40
0.7333444477
40
0.9377630438
40
1.0000000000
40
1.0000000000
40
1.0000000000
40
1.0000000000
10
11.2071816117
20
-14.3259609766
30
0.0000000000
10
11.2075172040
20
-14.5156357493
30
0.0000000000
10
11.1805692537
20
-14.8787690856
30
0.0000000000
10
11.0444910923
20
-15.3826667148
30
0.0000000000
10
10.8168124082
20
-15.8033363027
30
0.0000000000
10
10.5706543027
20
-16.0523249605
30
0.0000000000
10
10.4117907913
20
-16.1555903851
30
0.0000000000
10
10.3735986074
20
-16.1777963222
30
0.0000000000
11
11.2071816117
21
-14.3259609766
31
0.0000000000
11
11.1605866878
21
-14.8930752519
31
0.0000000000
11
11.0204918943
21
-15.3908149559
31
0.0000000000
11
10.7922373765
21
-15.8002648363
31
0.0000000000
11
10.4846247044
21
-16.1055964795
31
0.0000000000
11
10.3735986074
21
-16.1777963222
31
0.0000000000
0
SPLINE
5
3C7
100
AcDbEntity
8
0
100
AcDbSpline
62
9
6
CONTINUOUS
70
0
71
3
72
8
73
4
74
2
42
0.0000001000
43
0.0000001000
44
0.0000000001
12
-0.0548888696
22
-0.0319138279
32
0.0000000000
13
-0.0563533833
23
-0.0292680263
33
0.0000000000
40
0.0000000000
40
0.0000000000
40
0.0000000000
40
0.0000000000
40
1.0000000000
40
1.0000000000
40
1.0000000000
40
1.0000000000
10
10.3735986074
20
-16.1777963222
30
0.0000000000
10
10.3553023175
20
-16.1884342648
30
0.0000000000
10
10.3367504349
20
-16.1986370721
30
0.0000000000
10
10.3179659738
20
-16.2083930809
30
0.0000000000
11
10.3735986074
21
-16.1777963222
31
0.0000000000
11
10.3179659738
21
-16.2083930809
31
0.0000000000
0
SPLINE
5
3C8
100
AcDbEntity
8
0
100
AcDbSpline
62
9
6
CONTINUOUS
70
0
71
3
72
15
73
11
74
9
42
0.0000001000
43
0.0000001000
44
0.0000000001
12
4.6123967689
22
-2.2963187668
32
0.0000000000
13
-0.0090685711
23
-5.1523976548
33
0.0000000000
40
0.0000000000
40
0.0000000000
40
0.0000000000
40
0.0000000000
40
0.1104114675
40
0.2299779245
40
0.3568468165
40
0.4883732107
40
0.6215289785
40
0.7531501670
40
0.8801698450
40
1.0000000000
40
1.0000000000
40
1.0000000000
40
1.0000000000
10
8.7324021131
20
16.3872328378
30
0.0000000000
10
8.9021559451
20
16.3027195296
30
0.0000000000
10
9.2385637163
20
16.0911261255
30
0.0000000000
10
9.7004601263
20
15.6852239290
30
0.0000000000
10
10.1255239645
20
15.1920662921
30
0.0000000000
10
10.4978853505
20
14.6300834488
30
0.0000000000
10
10.8037816779
20
14.0202448464
30
0.0000000000
10
11.0317435269
20
13.3853085675
30
0.0000000000
10
11.1732623641
20
12.7491278037
30
0.0000000000
10
11.2075438411
20
12.3246737930
30
0.0000000000
10
11.2071816117
20
12.1188695899
30
0.0000000000
11
8.7324021131
21
16.3872328378
31
0.0000000000
11
9.2162453905
21
16.0880248041
31
0.0000000000
11
9.6811598207
21
15.6838241153
31
0.0000000000
11
10.1094703985
21
15.1900148575
31
0.0000000000
11
10.4846290740
21
14.6256545662
31
0.0000000000
11
10.7922405890
21
14.0124085549
31
0.0000000000
11
11.0204944336
21
13.3738093293
31
0.0000000000
11
11.1605881389
21
12.7345225437
31
0.0000000000
11
11.2071816117
21
12.1188695899
31
0.0000000000
0
SPLINE
5
3C9
100
AcDbEntity
8
0
100
AcDbSpline
62
9
6
CONTINUOUS
70
0
71
3
72
9
73
5
74
3
42
0.0000001000
43
0.0000001000
44
0.0000000001
12
-0.0820757631
22
0.0410378816
32
0.0000000000
13
-0.0834985470
23
-0.0405909739
33
0.0000000000
40
0.0000000000
40
0.0000000000
40
0.0000000000
40
0.0000000000
40
0.6088478616
40
1.0000000000
40
1.0000000000
40
1.0000000000
40
1.0000000000
10
-14.0551575551
20
13.5189408381
30
0.0000000000
10
-14.0718147727
20
13.5272694469
30
0.0000000000
10
-14.1023388176
20
13.5369515033
30
0.0000000000
10
-14.1336543296
20
13.5297921076
30
0.0000000000
10
-14.1445412080
20
13.5244996922
30
0.0000000000
11
-14.0551575551
21
13.5189408381
31
0.0000000000
11
-14.1092771651
21
13.5328161914
31
0.0000000000
11
-14.1445412080
21
13.5244996922
31
0.0000000000
0
SPLINE
5
3CA
100
AcDbEntity
8
0
100
AcDbSpline
62
9
6
CONTINUOUS
70
0
71
3
72
9
73
5
74
3
42
0.0000001000
43
0.0000001000
44
0.0000000001
12
0.0818631536
22
0.0409315764
32
0.0000000000
13
0.0838619231
23
-0.0413165183
33
0.0000000000
40
0.0000000000
40
0.0000000000
40
0.0000000000
40
0.0000000000
40
0.6698378021
40
1.0000000000
40
1.0000000000
40
1.0000000000
40
1.0000000000
10
-12.9150600957
20
13.5233041429
30
0.0000000000
10
-12.8967817508
20
13.5324433153
30
0.0000000000
10
-12.8656373869
20
13.5418980885
30
0.0000000000
10
-12.8350155258
20
13.5331889219
30
0.0000000000
10
-12.8257861801
20
13.5286418710
30
0.0000000000
11
-12.9150600957
21
13.5233041429
31
0.0000000000
11
-12.8552928442
21
13.5369597991
31
0.0000000000
11
-12.8257861801
21
13.5286418710
31
0.0000000000
0
SPLINE
5
3CB
100
AcDbEntity
8
0
100
AcDbSpline
62
9
6
CONTINUOUS
70
0
71
3
72
17
73
13
74
11
42
0.0000001000
43
0.0000001000
44
0.0000000001
12
-1.0497912466
22
0.5248927023
32
0.0000000000
13
-1.0497905944
23
-0.5248940067
33
0.0000000000
40
0.0000000000
40
0.0000000000
40
0.0000000000
40
0.0000000000
40
0.0593335120
40
0.1277743924
40
0.2071865248
40
0.2992172117
40
0.4049771769
40
0.5248304151
40
0.6541354454
40
0.7829450110
40
0.9009300353
40
1.0000000000
40
1.0000000000
40
1.0000000000
40
1.0000000000
10
-12.9150600957
20
13.5233041429
30
0.0000000000
10
-12.9358226962
20
13.5336853854
30
0.0000000000
10
-12.9815442884
20
13.5540581099
30
0.0000000000
10
-13.0580534035
20
13.5810675975
30
0.0000000000
10
-13.1488084109
20
13.6053462166
30
0.0000000000
10
-13.2555471479
20
13.6251577741
30
0.0000000000
10
-13.3792856364
20
13.6380642877
30
0.0000000000
10
-13.5182891874
20
13.6408710012
30
0.0000000000
10
-13.6660210246
20
13.6305133266
30
0.0000000000
10
-13.8113519761
20
13.6058290027
30
0.0000000000
10
-13.9418164157
20
13.5689151334
30
0.0000000000
10
-14.0204899828
20
13.5362745817
30
0.0000000000
10
-14.0551575551
20
13.5189408381
30
0.0000000000
11
-12.9150600957
21
13.5233041429
31
0.0000000000
11
-12.9786007518
21
13.5518047922
31
0.0000000000
11
-13.0542887777
21
13.5787137439
31
0.0000000000
11
-13.1442818982
21
13.6029751334
31
0.0000000000
11
-13.2504530587
21
13.6228560467
31
0.0000000000
11
-13.3738996262
21
13.6358693015
31
0.0000000000
11
-13.5145417778
21
13.6387604228
31
0.0000000000
11
-13.6659269356
21
13.6280234153
31
0.0000000000
11
-13.8149159994
21
13.6023556364
31
0.0000000000
11
-13.9480052300
21
13.5640969270
31
0.0000000000
11
-14.0551575551
21
13.5189408381
31
0.0000000000
0
ENDSEC
0
SECTION
2
OBJECTS
0
DICTIONARY
5
3CC
100
AcDbDictionary
3
ACAD_GROUP
350
3CD
3
ACAD_MLINESTYLE
350
3CE
0
DICTIONARY
5
3CD
102
{ACAD_REACTORS
330
3CC
102
}
100
AcDbDictionary
0
DICTIONARY
5
3CE
102
{ACAD_REACTORS
330
3CC
102
}
100
AcDbDictionary
3
STANDARD
350
3CF
0
MLINESTYLE
5
3CF
102
{ACAD_REACTORS
330
3CE
102
}
100
AcDbMlineStyle
2
STANDARD
70
0
3

62
256
51
90.0
52
90.0
71
2
49
0.5
62
256
6
BYLAYER
49
-0.5
62
256
6
BYLAYER
0
ENDSEC
0
EOF
