  0
SECTION
  2
HEADER
  9
$ACADVER
  1
AC1015
  9
$DWGCODEPAGE
  3
ANSI_1252
  9
$EXTMAX
 10
297.0
 20
210.0
 30
0.0
  9
$EXTMIN
 10
0.0
 20
0.0
 30
0.0
  9
$LIMMIN
 10
0.0
 20
0.0
  9
$LIMMAX
 10
297.0
 20
210.0
  9
$VIEWCTR
 10
148.5
 20
105.0
  9
$VIEWSIZE
 40
210.0
  9
$CLAYER
  8
0
  9
$LTSCALE
 40
16.335
  9
$CELTYPE
  6
BYLAYER
  9
$DIMSCALE
 40
1.0
  9
$DIMASZ
 40
3.0
  9
$DIMEXO
 40
1.85625
  9
$DIMDLI
 40
11.286
  9
$DIMEXE
 40
5.346
  9
$DIMCEN
 40
2.673
  9
$DIMLFAC
 40
1.0
  9
$DIMBLK
  1
_FILLED
  9
$DIMTXT
 40
3.0
  9
$DIMTOL
 70
1
  9
$DIMLIM
 70
0
  9
$DIMTFAC
 40
1.0
  9
$DIMTP
 40
0.01
  9
$DIMTM
 40
0.01
  9
$PDMODE
 70
3
  9
$PDSIZE
 40
3.0
  9
$HANDSEED
  5
480
  9
$TILEMODE
 70
1
  9
$MEASUREMENT
 70
1
  9
$INSUNITS
 70
4
  0
ENDSEC
  0
SECTION
  2
CLASSES
  0
CLASS
  1
ACDBDICTIONARYWDFLT
  2
AcDbDictionaryWithDefault
  3
AutoCAD 2000
 90
0
280
0
281
0
  0
CLASS
  1
ACDBPLACEHOLDER
  2
AcDbPlaceHolder
  3
AutoCAD 2000
 90
0
280
0
281
0
  0
CLASS
  1
LAYOUT
  2
AcDbLayout
  3
AutoCAD 2000
 90
0
280
0
281
0
  0
ENDSEC
  0
SECTION
  2
TABLES
  0
TABLE
  2
VPORT
  5
8
100
AcDbSymbolTable
 70
2
  0
VPORT
  5
1F4
100
AcDbSymbolTableRecord
100
AcDbViewportTableRecord
  2
*ACTIVE
 70
0
 10
0.0
 20
0.0
 11
1.0
 21
1.0
 12
148.5
 22
105.0
 13
0.0
 23
0.0
 14
1.0
 24
1.0
 15
0.0
 25
0.0
 16
0.0
 26
0.0
 36
1.0
 17
0.0
 27
0.0
 37
0.0
 40
210.0
 41
1.4142857143
 42
50.0
 43
0.0
 44
0.0
 50
0.0
 51
0.0
 71
0
 72
100
 73
1
 74
1
 75
0
 76
0
 77
0
 78
0
  0
ENDTAB
  0
TABLE
  2
LTYPE
  5
5
100
AcDbSymbolTable
 70
6
  0
LTYPE
  5
14
100
AcDbSymbolTableRecord
100
AcDbLinetypeTableRecord
  2
BYBLOCK
 70
0
  3

 72
65
 73
0
 40
0.0
  0
LTYPE
  5
15
100
AcDbSymbolTableRecord
100
AcDbLinetypeTableRecord
  2
BYLAYER
 70
0
  3

 72
65
 73
0
 40
0.0
  0
LTYPE
  5
16
100
AcDbSymbolTableRecord
100
AcDbLinetypeTableRecord
  2
CONTINUOUS
 70
64
  3
Solid line
 72
65
 73
0
 40
0.0
  0
LTYPE
  5
1F5
100
AcDbSymbolTableRecord
100
AcDbLinetypeTableRecord
  2
CENTER
 70
64
  3
____ _ ____ _ ____ _ ____ _ ____ _ ____ _ ____
 72
65
 73
4
 40
0.6
 49
0.375
 74
0
 49
-0.075
 74
0
 49
0.075
 74
0
 49
-0.075
 74
0
  0
LTYPE
  5
1F6
100
AcDbSymbolTableRecord
100
AcDbLinetypeTableRecord
  2
HIDDEN
 70
64
  3
- - - - - - - - - - - - - - - - - - - -
 72
65
 73
2
 40
0.2
 49
0.1
 74
0
 49
-0.1
 74
0
  0
LTYPE
  5
1F7
100
AcDbSymbolTableRecord
100
AcDbLinetypeTableRecord
  2
PHANTOM
 70
64
  3
_____ _ _ _____ _ _ _____ _ _ _____
 72
65
 73
6
 40
0.8
 49
0.45
 74
0
 49
-0.05
 74
0
 49
0.1
 74
0
 49
-0.05
 74
0
 49
0.1
 74
0
 49
-0.05
 74
0
  0
LTYPE
  5
1F8
100
AcDbSymbolTableRecord
100
AcDbLinetypeTableRecord
  2
DOT
 70
64
  3
. . . . . . . . . . . . . . . . . . . .
 72
65
 73
2
 40
0.2
 49
0.1
 74
0
 49
-0.1
 74
0
  0
LTYPE
  5
1F9
100
AcDbSymbolTableRecord
100
AcDbLinetypeTableRecord
  2
DASHED
 70
64
  3
- - - - - - - - - - - - - - - - - - - -
 72
65
 73
2
 40
0.2
 49
0.1
 74
0
 49
-0.1
 74
0
  0
ENDTAB
  0
TABLE
  2
LAYER
  5
2
100
AcDbSymbolTable
 70
36
  0
LAYER
  5
10
100
AcDbSymbolTableRecord
100
AcDbLayerTableRecord
  2
0
 70
0
 62
7
  6
CONTINUOUS
370
-3
390
F
  0
LAYER
  5
1FA
100
AcDbSymbolTableRecord
100
AcDbLayerTableRecord
  2
DEFAULT_1
 70
0
 62
7
  6
CENTER
370
-3
390
F
  0
LAYER
  5
1FB
100
AcDbSymbolTableRecord
100
AcDbLayerTableRecord
  2
DEFAULT_2
 70
0
 62
7
  6
HIDDEN
370
-3
390
F
  0
LAYER
  5
1FC
100
AcDbSymbolTableRecord
100
AcDbLayerTableRecord
  2
DEFAULT_3
 70
0
 62
7
  6
PHANTOM
370
-3
390
F
  0
LAYER
  5
1FD
100
AcDbSymbolTableRecord
100
AcDbLayerTableRecord
  2
ASSI
 70
0
 62
7
  6
CONTINUOUS
370
-3
390
F
  0
LAYER
  5
1FE
100
AcDbSymbolTableRecord
100
AcDbLayerTableRecord
  2
COORDINATE
 70
0
 62
7
  6
CONTINUOUS
370
-3
390
F
  0
LAYER
  5
1FF
100
AcDbSymbolTableRecord
100
AcDbLayerTableRecord
  2
COORD_ORIGINE
 70
0
 62
7
  6
CONTINUOUS
370
-3
390
F
  0
LAYER
  5
200
100
AcDbSymbolTableRecord
100
AcDbLayerTableRecord
  2
CURVE
 70
0
 62
7
  6
CONTINUOUS
370
-3
390
F
  0
LAYER
  5
201
100
AcDbSymbolTableRecord
100
AcDbLayerTableRecord
  2
DRAFT
 70
0
 62
7
  6
CONTINUOUS
370
-3
390
F
  0
LAYER
  5
202
100
AcDbSymbolTableRecord
100
AcDbLayerTableRecord
  2
IMPORT_INCISIONI
 70
0
 62
7
  6
CONTINUOUS
370
-3
390
F
  0
LAYER
  5
203
100
AcDbSymbolTableRecord
100
AcDbLayerTableRecord
  2
NOTE
 70
0
 62
7
  6
CONTINUOUS
370
-3
390
F
  0
LAYER
  5
204
100
AcDbSymbolTableRecord
100
AcDbLayerTableRecord
  2
PIANI
 70
0
 62
7
  6
CONTINUOUS
370
-3
390
F
  0
LAYER
  5
205
100
AcDbSymbolTableRecord
100
AcDbLayerTableRecord
  2
PIANI_ORIGINE
 70
0
 62
7
  6
CONTINUOUS
370
-3
390
F
  0
LAYER
  5
206
100
AcDbSymbolTableRecord
100
AcDbLayerTableRecord
  2
PIANI_RIFERIMENTO
 70
0
 62
7
  6
CONTINUOUS
370
-3
390
F
  0
LAYER
  5
207
100
AcDbSymbolTableRecord
100
AcDbLayerTableRecord
  2
PUNTI
 70
0
 62
7
  6
CONTINUOUS
370
-3
390
F
  0
LAYER
  5
208
100
AcDbSymbolTableRecord
100
AcDbLayerTableRecord
  2
RACCORDO
 70
0
 62
7
  6
CONTINUOUS
370
-3
390
F
  0
LAYER
  5
209
100
AcDbSymbolTableRecord
100
AcDbLayerTableRecord
  2
SMUSSO
 70
0
 62
7
  6
CONTINUOUS
370
-3
390
F
  0
LAYER
  5
20A
100
AcDbSymbolTableRecord
100
AcDbLayerTableRecord
  2
SNAPLINE
 70
0
 62
7
  6
CONTINUOUS
370
-3
390
F
  0
LAYER
  5
20B
100
AcDbSymbolTableRecord
100
AcDbLayerTableRecord
  2
SUPERFICI
 70
0
 62
7
  6
CONTINUOUS
370
-3
390
F
  0
LAYER
  5
20C
100
AcDbSymbolTableRecord
100
AcDbLayerTableRecord
  2
TRASH
 70
0
 62
7
  6
CONTINUOUS
370
-3
390
F
  0
LAYER
  5
20D
100
AcDbSymbolTableRecord
100
AcDbLayerTableRecord
  2
XSEC_DATUMS
 70
0
 62
7
  6
CONTINUOUS
370
-3
390
F
  0
ENDTAB
  0
TABLE
  2
STYLE
  5
3
100
AcDbSymbolTable
 70
1
  0
STYLE
  5
11
100
AcDbSymbolTableRecord
100
AcDbTextStyleTableRecord
  2
STANDARD
 70
0
 40
0.0
 41
0.8
 50
0.0
 71
0
 42
0.2
  3
txt
  4

  0
STYLE
  5
20E
100
AcDbSymbolTableRecord
100
AcDbTextStyleTableRecord
  2
TEXTSTYLE_1
 70
0
 40
0.0
 41
0.8
 50
0.0
 71
0
 42
0.2
  3
gdt
  4

  0
ENDTAB
  0
TABLE
  2
VIEW
  5
6
100
AcDbSymbolTable
 70
0
  0
ENDTAB
  0
TABLE
  2
UCS
  5
7
100
AcDbSymbolTable
 70
0
  0
ENDTAB
  0
TABLE
  2
APPID
  5
9
100
AcDbSymbolTable
 70
1
  0
APPID
  5
20F
100
AcDbSymbolTableRecord
100
AcDbRegAppTableRecord
  2
ACAD
 70
0
  0
ENDTAB
  0
TABLE
  2
BLOCK_RECORD
  5
1
100
AcDbSymbolTable
 70
0
  0
BLOCK_RECORD
  5
210
100
AcDbSymbolTableRecord
100
AcDbBlockTableRecord
  2
*Model_Space
  0
BLOCK_RECORD
  5
211
100
AcDbSymbolTableRecord
100
AcDbBlockTableRecord
  2
*Paper_Space
  0
ENDTAB
  0
TABLE
  2
DIMSTYLE
  5
A
100
AcDbSymbolTable
 70
1
100
AcDbDimStyleTable
 71
0
  0
DIMSTYLE
105
212
100
AcDbSymbolTableRecord
100
AcDbDimStyleTableRecord
  2
STANDARD
 70
0
  3

  4

 40
1.0
 41
3.0
 42
0.0625
 43
0.38
 44
0.18
 45
0.0
 46
0.0
 47
0.01
 48
0.01
140
3.0
141
0.09
142
0.0
143
25.4
144
1.0
145
0.0
146
1.0
147
0.09
 71
1.0
 72
0.0
 73
0
 74
0
 75
0
 76
0
 77
1
 78
8
170
0
171
2
172
0
173
0
174
0
175
0
176
0
177
0
178
0
270
2
271
2
272
2
273
2
274
2
275
0
280
0
281
0
282
0
283
1
284
8
285
0
286
0
287
3
288
0
340
11
  0
ENDTAB
  0
ENDSEC
  0
SECTION
  2
BLOCKS
  0
BLOCK
  5
20
100
AcDbEntity
  8
0
100
AcDbBlockBegin
  2
*Model_Space
 70
0
 10
0.0
 20
0.0
 30
0.0
  3
*Model_Space
  1

  0
ENDBLK
  5
21
100
AcDbEntity
  8
0
100
AcDbBlockEnd
  0
BLOCK
  5
1C
100
AcDbEntity
  8
0
100
AcDbBlockBegin
  2
*Paper_Space
 70
0
 10
0.0
 20
0.0
 30
0.0
  3
*Paper_Space
  1

  0
ENDBLK
  5
1D
100
AcDbEntity
  8
0
100
AcDbBlockEnd
  0
ENDSEC
  0
SECTION
  2
ENTITIES
  0
LWPOLYLINE
  5
213
100
AcDbEntity
  8
RACCORDO
100
AcDbPolyline
 62
7
  6
CONTINUOUS
 90
37
 70
0
 10
-11.6419650853
 20
21.371788952
 10
-11.6735096153
 20
21.3528173443
 10
-11.7164956069
 20
21.3250934787
 10
-11.758650297
 20
21.2957472622
 10
-11.7999602326
 20
21.2648391738
 10
-11.8404150784
 20
21.2324243487
 10
-11.8800000842
 20
21.1985582313
 10
-11.9187003768
 20
21.1632937269
 10
-11.9565021624
 20
21.1266799678
 10
-11.9933828607
 20
21.0887723228
 10
-12.0293251864
 20
21.049619171
 10
-12.0643110099
 20
21.0092673875
 10
-12.0983091511
 20
20.9677777183
 10
-12.1312989039
 20
20.9251980157
 10
-12.1632594378
 20
20.8815742753
 10
-12.1941550715
 20
20.8369722481
 10
-12.2239629211
 20
20.791440073
 10
-12.2526598886
 20
20.745024464
 10
-12.2802085233
 20
20.6977953965
 10
-12.3065849765
 20
20.6498010835
 10
-12.3317645041
 20
20.6010896444
 10
-12.3557093738
 20
20.5517349285
 10
-12.3783950932
 20
20.5017857943
 10
-12.3997965612
 20
20.4512904989
 10
-12.4198780415
 20
20.4003229946
 10
-12.4386151128
 20
20.3489309006
 10
-12.4559819823
 20
20.2971628988
 10
-12.4719448213
 20
20.2450921356
 10
-12.4864787368
 20
20.1927650022
 10
-12.4995573306
 20
20.14022904
 10
-12.5111486713
 20
20.0875532442
 10
-12.521226342
 20
20.034782898
 10
-12.5297624287
 20
19.9819633192
 10
-12.5367257302
 20
19.9291545262
 10
-12.5420863627
 20
19.8764027446
 10
-12.5458131385
 20
19.8237481467
 10
-12.5474512003
 20
19.7863731107
  0
LWPOLYLINE
  5
214
100
AcDbEntity
  8
RACCORDO
100
AcDbPolyline
 62
7
  6
CONTINUOUS
 90
4
 70
0
 10
-10.0445100761
 20
22.3116345074
 10
-10.5985317707
 20
21.9842109883
 10
-11.1345036099
 20
21.6687025097
 10
-11.6420038267
 20
21.3717602932
  0
LWPOLYLINE
  5
215
100
AcDbEntity
  8
RACCORDO
100
AcDbPolyline
 62
7
  6
CONTINUOUS
 90
5
 70
0
 10
-7.0527816808
 20
24.0714733644
 10
-7.6401239687
 20
23.7290469763
 10
-8.2704039439
 20
23.3599788885
 10
-8.8809710021
 20
23.0001502531
 10
-10.0445100761
 20
22.3116345074
  0
LINE
  5
216
100
AcDbEntity
  8
RACCORDO
100
AcDbLine
 62
7
  6
CONTINUOUS
 10
-6.0367170456
 20
26.2079541142
 11
-7.6198887406
 21
25.3957570669
  0
LINE
  5
217
100
AcDbEntity
  8
RACCORDO
100
AcDbLine
 62
253
  6
CONTINUOUS
 10
-5.9240464713
 20
26.2012931891
 11
-7.5068030744
 21
25.3893090918
  0
LINE
  5
218
100
AcDbEntity
  8
RACCORDO
100
AcDbLine
 62
253
  6
CONTINUOUS
 10
-4.5805376038
 20
25.5295387554
 11
-6.1818183946
 21
24.7268167519
  0
LINE
  5
219
100
AcDbEntity
  8
RACCORDO
100
AcDbLine
 62
253
  6
CONTINUOUS
 10
-4.4037639001
 20
25.2246492165
 11
-6.0050446909
 21
24.421927213
  0
LINE
  5
21A
100
AcDbEntity
  8
RACCORDO
100
AcDbLine
 62
7
  6
CONTINUOUS
 10
-6.0349786601
 20
26.208823347
 11
-6.0367150719
 21
26.2079551267
  0
LINE
  5
21B
100
AcDbEntity
  8
RACCORDO
100
AcDbLine
 62
253
  6
CONTINUOUS
 10
-4.052270432
 20
25.7929775754
 11
-4.5805376038
 21
25.5295387554
  0
LINE
  5
21C
100
AcDbEntity
  8
RACCORDO
100
AcDbLine
 62
253
  6
CONTINUOUS
 10
-3.8754967284
 20
25.4880880366
 11
-4.4037639001
 21
25.2246492165
  0
LINE
  5
21D
100
AcDbEntity
  8
RACCORDO
100
AcDbLine
 62
7
  6
CONTINUOUS
 10
-5.5001087037
 20
26.4693754467
 11
-6.0349758945
 21
26.2088246942
  0
LINE
  5
21E
100
AcDbEntity
  8
RACCORDO
100
AcDbLine
 62
253
  6
CONTINUOUS
 10
-5.3895965926
 20
26.4616406557
 11
-5.9240464713
 21
26.2012931891
  0
LINE
  5
21F
100
AcDbEntity
  8
RACCORDO
100
AcDbLine
 62
7
  6
CONTINUOUS
 10
-10.5975058883
 20
20.8803086592
 11
-8.7269370797
 21
21.9356576903
  0
LINE
  5
220
100
AcDbEntity
  8
RACCORDO
100
AcDbLine
 62
253
  6
CONTINUOUS
 10
-10.4839135614
 20
20.8741555795
 11
-8.6110492482
 21
21.9307997025
  0
LINE
  5
221
100
AcDbEntity
  8
RACCORDO
100
AcDbLine
 62
7
  6
CONTINUOUS
 10
-4.4037639001
 20
23.6224985556
 11
-5.2938240828
 21
23.1258176343
  0
LINE
  5
222
100
AcDbEntity
  8
RACCORDO
100
AcDbLine
 62
253
  6
CONTINUOUS
 10
-10.7956711601
 20
21.0567777595
 11
-8.9006502677
 21
22.1084754924
  0
LINE
  5
223
100
AcDbEntity
  8
RACCORDO
100
AcDbLine
 62
253
  6
CONTINUOUS
 10
-10.7218795227
 20
20.9364817379
 11
-8.8299691927
 21
21.9864531725
  0
LINE
  5
224
100
AcDbEntity
  8
RACCORDO
100
AcDbLine
 62
7
  6
CONTINUOUS
 10
3.3188191615
 20
26.7628025846
 11
-2.9957211651
 21
23.6180262801
  0
LINE
  5
225
100
AcDbEntity
  8
RACCORDO
100
AcDbLine
 62
7
  6
CONTINUOUS
 10
-2.0349441818
 20
23.2923801423
 11
-1.6814027925
 21
23.4737535671
  0
LINE
  5
226
100
AcDbEntity
  8
ASSI
100
AcDbLine
 62
7
  6
CONTINUOUS
 10
4.2603510481
 20
25.7704318152
 11
-0.3378999083
 21
23.5040705177
  0
LINE
  5
227
100
AcDbEntity
  8
DRAFT
100
AcDbLine
 62
7
  6
CONTINUOUS
 10
0.8901809148
 20
22.8900301062
 11
4.3092270796
 21
24.5630097853
  0
LINE
  5
228
100
AcDbEntity
  8
ASSI
100
AcDbLine
 62
7
  6
CONTINUOUS
 10
-1.6814027925
 20
23.4737535671
 11
3.6548206134
 21
26.0731970326
  0
LINE
  5
229
100
AcDbEntity
  8
RACCORDO
100
AcDbLine
 62
253
  6
CONTINUOUS
 10
9.4888214361
 20
-22.8412067018
 11
8.9605542643
 21
-22.7327044247
  0
LINE
  5
22A
100
AcDbEntity
  8
RACCORDO
100
AcDbLine
 62
253
  6
CONTINUOUS
 10
9.3994076407
 20
-22.5216398958
 11
8.9605542643
 21
-22.4315025691
  0
LWPOLYLINE
  5
22B
100
AcDbEntity
  8
RACCORDO
100
AcDbPolyline
 62
7
  6
CONTINUOUS
 90
21
 70
0
 10
2.823015497
 20
-24.1797326478
 10
2.8590740873
 20
-24.1964517363
 10
2.8960408735
 20
-24.211619842
 10
2.933845492
 20
-24.2251838886
 10
2.9724455221
 20
-24.2371063592
 10
3.0118308351
 20
-24.2473589102
 10
3.051946967
 20
-24.2559000482
 10
3.0927290125
 20
-24.262690306
 10
3.1341561396
 20
-24.2676996839
 10
3.1761697376
 20
-24.27089314
 10
3.2187078492
 20
-24.2722392846
 10
3.2617522305
 20
-24.271709357
 10
3.3052427067
 20
-24.2692742579
 10
3.3491244311
 20
-24.264907934
 10
3.3933969446
 20
-24.2585780809
 10
3.438011801
 20
-24.2502555761
 10
3.4829111205
 20
-24.2399151327
 10
3.5280901311
 20
-24.2275187352
 10
3.5735163075
 20
-24.2130312736
 10
3.6191232403
 20
-24.1964287974
 10
3.6518284462
 20
-24.1832406788
  0
LINE
  5
22C
100
AcDbEntity
  8
RACCORDO
100
AcDbLine
 62
7
  6
CONTINUOUS
 10
2.823015497
 20
-24.1797326478
 11
-12.0165528652
 21
-16.7599736738
  0
LINE
  5
22D
100
AcDbEntity
  8
RACCORDO
100
AcDbLine
 62
7
  6
CONTINUOUS
 10
2.8172269818
 20
-24.1768635801
 11
2.8173460792
 21
-24.176923146
  0
LINE
  5
22E
100
AcDbEntity
  8
RACCORDO
100
AcDbLine
 62
253
  6
CONTINUOUS
 10
-4.4037639001
 20
24.4976043641
 11
-3.8754967284
 21
25.1405565198
  0
LINE
  5
22F
100
AcDbEntity
  8
RACCORDO
100
AcDbLine
 62
7
  6
CONTINUOUS
 10
-4.4037639001
 20
24.4080738977
 11
-3.860136156
 21
25.0697213533
  0
LINE
  5
230
100
AcDbEntity
  8
DRAFT
100
AcDbLine
 62
7
  6
CONTINUOUS
 10
-4.2337751149
 20
19.775037916
 11
-3.4491697455
 21
20.2104778056
  0
LINE
  5
231
100
AcDbEntity
  8
0
100
AcDbLine
 62
7
  6
CONTINUOUS
 10
5.7267893541
 20
24.3692467988
 11
1.8292684418
 21
22.4204863427
  0
LINE
  5
232
100
AcDbEntity
  8
RACCORDO
100
AcDbLine
 62
7
  6
CONTINUOUS
 10
-11.7975727184
 20
14.8663640784
 11
-11.6864339211
 21
14.9209719744
  0
LINE
  5
233
100
AcDbEntity
  8
RACCORDO
100
AcDbLine
 62
7
  6
CONTINUOUS
 10
6.3857851054
 20
25.2293196126
 11
1.2437343054
 21
22.7132534109
  0
LINE
  5
234
100
AcDbEntity
  8
RACCORDO
100
AcDbLine
 62
7
  6
CONTINUOUS
 10
-3.4491697455
 20
19.4348570875
 11
-3.5358349343
 21
19.3931925456
  0
LINE
  5
235
100
AcDbEntity
  8
RACCORDO
100
AcDbLine
 62
253
  6
CONTINUOUS
 10
2.4238776075
 20
-23.4163236528
 11
-12.4009684701
 21
-16.003900614
  0
LINE
  5
236
100
AcDbEntity
  8
RACCORDO
100
AcDbLine
 62
7
  6
CONTINUOUS
 10
5.7467401304
 20
-23.7119972632
 11
7.0717248103
 21
-24.3744896031
  0
LINE
  5
237
100
AcDbEntity
  8
RACCORDO
100
AcDbLine
 62
253
  6
CONTINUOUS
 10
5.681766834
 20
-23.576778813
 11
7.0067515138
 21
-24.239271153
  0
LINE
  5
238
100
AcDbEntity
  8
RACCORDO
100
AcDbLine
 62
253
  6
CONTINUOUS
 10
7.0067515138
 20
-23.8992972188
 11
5.7966970058
 21
-23.2942699648
  0
LINE
  5
239
100
AcDbEntity
  8
RACCORDO
100
AcDbLine
 62
7
  6
CONTINUOUS
 10
4.1834577326
 20
20.1831791851
 11
4.5411368819
 21
20.3624837299
  0
LINE
  5
23A
100
AcDbEntity
  8
ASSI
100
AcDbLine
 62
7
  6
CONTINUOUS
 10
4.5411368819
 20
20.3624837299
 11
9.815628951
 21
22.9927928638
  0
LINE
  5
23B
100
AcDbEntity
  8
ASSI
100
AcDbLine
 62
7
  6
CONTINUOUS
 10
9.2100985164
 20
23.2955580811
 11
4.61184756
 21
21.0291967836
  0
LINE
  5
23C
100
AcDbEntity
  8
RACCORDO
100
AcDbLine
 62
7
  6
CONTINUOUS
 10
10.6284257925
 20
23.1079992691
 11
9.989565016
 21
22.795397144
  0
LINE
  5
23D
100
AcDbEntity
  8
RACCORDO
100
AcDbLine
 62
253
  6
CONTINUOUS
 10
10.0212144361
 20
-15.4774011261
 11
13.8691111733
 21
-14.4018778879
  0
LINE
  5
23E
100
AcDbEntity
  8
RACCORDO
100
AcDbLine
 62
7
  6
CONTINUOUS
 10
10.0212144361
 20
-15.4457239
 11
13.7907152643
 21
-14.3921130539
  0
LINE
  5
23F
100
AcDbEntity
  8
RACCORDO
100
AcDbLine
 62
253
  6
CONTINUOUS
 10
7.0951398615
 20
-23.667603045
 11
6.0991188108
 21
-23.1695925196
  0
LINE
  5
240
100
AcDbEntity
  8
RACCORDO
100
AcDbLine
 62
7
  6
CONTINUOUS
 10
7.7179721219
 20
-22.9228007417
 11
7.2549522346
 21
-22.691290798
  0
LINE
  5
241
100
AcDbEntity
  8
DRAFT
100
AcDbLine
 62
7
  6
CONTINUOUS
 10
0.0224413924
 20
17.6469296623
 11
0.7934709416
 21
18.089157462
  0
LINE
  5
242
100
AcDbEntity
  8
RACCORDO
100
AcDbLine
 62
7
  6
CONTINUOUS
 10
4.5411368819
 20
19.1500481646
 11
4.1834577326
 21
18.9504522127
  0
LINE
  5
243
100
AcDbEntity
  8
RACCORDO
100
AcDbLine
 62
7
  6
CONTINUOUS
 10
7.3276011188
 20
19.525795032
 11
5.7444294238
 21
18.7135979847
  0
LINE
  5
244
100
AcDbEntity
  8
RACCORDO
100
AcDbLine
 62
7
  6
CONTINUOUS
 10
7.3293395043
 20
19.5266642648
 11
7.3276030925
 21
19.5257960445
  0
LINE
  5
245
100
AcDbEntity
  8
DRAFT
100
AcDbLine
 62
7
  6
CONTINUOUS
 10
4.5411368819
 20
19.1500481646
 11
9.8659709521
 21
21.7863795965
  0
LINE
  5
246
100
AcDbEntity
  8
RACCORDO
100
AcDbLine
 62
7
  6
CONTINUOUS
 10
7.8642094607
 20
19.7872163645
 11
7.3293422699
 21
19.526665612
  0
LINE
  5
247
100
AcDbEntity
  8
RACCORDO
100
AcDbLine
 62
253
  6
CONTINUOUS
 10
7.9747215718
 20
19.7794815735
 11
7.4402716931
 21
19.5191341069
  0
LINE
  5
248
100
AcDbEntity
  8
RACCORDO
100
AcDbLine
 62
253
  6
CONTINUOUS
 10
8.9605542643
 20
-22.3022132076
 11
9.3994076407
 21
-22.5216398958
  0
LINE
  5
249
100
AcDbEntity
  8
RACCORDO
100
AcDbLine
 62
7
  6
CONTINUOUS
 10
8.9605542643
 20
-22.298593058
 11
9.4228226919
 21
-22.5297272718
  0
LWPOLYLINE
  5
24A
100
AcDbEntity
  8
RACCORDO
100
AcDbPolyline
 62
7
  6
CONTINUOUS
 90
28
 70
0
 10
-12.5474323271
 20
-15.8262517262
 10
-12.5456964693
 20
-15.8639137833
 10
-12.5418403487
 20
-15.9145750187
 10
-12.5362833627
 20
-15.9643373078
 10
-12.5290359504
 20
-16.0132000579
 10
-12.5201150976
 20
-16.0611042883
 10
-12.5095549881
 20
-16.1079355639
 10
-12.4973769951
 20
-16.1536703182
 10
-12.4836043837
 20
-16.1982763854
 10
-12.4682952208
 20
-16.2416306802
 10
-12.4514851712
 20
-16.2837055496
 10
-12.433210207
 20
-16.3244753414
 10
-12.4135550521
 20
-16.363823736
 10
-12.3925877138
 20
-16.4016998754
 10
-12.3703482539
 20
-16.4381107772
 10
-12.3468987589
 20
-16.4730266723
 10
-12.3223237087
 20
-16.5063958026
 10
-12.2966656377
 20
-16.5382314594
 10
-12.2699236842
 20
-16.5685889511
 10
-12.2421609034
 20
-16.597440335
 10
-12.2134374899
 20
-16.6247663069
 10
-12.1837377303
 20
-16.6506147688
 10
-12.1531235002
 20
-16.6749561109
 10
-12.1216549933
 20
-16.6977675096
 10
-12.0893031361
 20
-16.7190865198
 10
-12.0560953954
 20
-16.7389008623
 10
-12.0221234776
 20
-16.7571631055
 10
-12.0164395577
 20
-16.7600303076
  0
LWPOLYLINE
  5
24B
100
AcDbEntity
  8
RACCORDO
100
AcDbPolyline
 62
7
  6
CONTINUOUS
 90
6
 70
0
 10
-12.7457044886
 20
-8.2444088717
 10
-12.7284948894
 20
-9.1471776176
 10
-12.6911197448
 20
-10.8248280444
 10
-12.6484070321
 20
-12.4995267483
 10
-12.6003573629
 20
-14.171247944
 10
-12.5474322716
 20
-15.8262536537
  0
LWPOLYLINE
  5
24C
100
AcDbEntity
  8
RACCORDO
100
AcDbPolyline
 62
7
  6
CONTINUOUS
 90
13
 70
0
 10
-12.5474508931
 20
19.7863828032
 10
-12.6004061232
 20
18.0755396893
 10
-12.6484485471
 20
16.3541903366
 10
-12.6911547191
 20
14.635375797
 10
-12.7285239445
 20
12.9191225294
 10
-12.7605556132
 20
11.2054568328
 10
-12.7872491975
 20
9.4944048942
 10
-12.808604248
 20
7.7859929732
 10
-12.8246203971
 20
6.0802473134
 10
-12.8352973594
 20
4.3771940103
 10
-12.8406349299
 20
2.6768591562
 10
-12.8406329846
 20
0.979268917
 10
-12.8355579176
 20
-0.6310125952
  0
LINE
  5
24D
100
AcDbEntity
  8
RACCORDO
100
AcDbLine
 62
253
  6
CONTINUOUS
 10
7.4402716931
 20
19.5191341069
 11
5.85751509
 21
18.7071500096
  0
LINE
  5
24E
100
AcDbEntity
  8
RACCORDO
100
AcDbLine
 62
253
  6
CONTINUOUS
 10
8.7837805606
 20
18.8473796731
 11
7.1824997698
 21
18.0446576696
  0
LINE
  5
24F
100
AcDbEntity
  8
RACCORDO
100
AcDbLine
 62
253
  6
CONTINUOUS
 10
8.9605542643
 20
18.5424901343
 11
7.3592734735
 21
17.7397681308
  0
LINE
  5
250
100
AcDbEntity
  8
RACCORDO
100
AcDbLine
 62
253
  6
CONTINUOUS
 10
9.3120477324
 20
19.1108184932
 11
8.7837805606
 21
18.8473796731
  0
LINE
  5
251
100
AcDbEntity
  8
RACCORDO
100
AcDbLine
 62
253
  6
CONTINUOUS
 10
9.4888214361
 20
18.8059289544
 11
8.9605542643
 21
18.5424901343
  0
LINE
  5
252
100
AcDbEntity
  8
RACCORDO
100
AcDbLine
 62
7
  6
CONTINUOUS
 10
13.6953917365
 20
21.5745162971
 11
9.0118548569
 21
19.3228923018
  0
LINE
  5
253
100
AcDbEntity
  8
0
100
AcDbLine
 62
7
  6
CONTINUOUS
 10
-10.1666841668
 20
2.1475257292
 11
-10.1666841668
 21
0.7122554454
  0
LINE
  5
254
100
AcDbEntity
  8
0
100
AcDbLine
 62
7
  6
CONTINUOUS
 10
-13.881530109
 20
-1.8850453719
 11
-14.0297700487
 21
-2.2148414175
  0
LINE
  5
255
100
AcDbEntity
  8
0
100
AcDbLine
 62
7
  6
CONTINUOUS
 10
-14.0321655018
 20
-2.2201706894
 11
-14.5068188624
 21
-3.2761533192
  0
LWPOLYLINE
  5
256
100
AcDbEntity
  8
RACCORDO
100
AcDbPolyline
 62
7
  6
CONTINUOUS
 90
43
 70
0
 10
2.7810345767
 20
14.2475120862
 10
2.7549403462
 20
14.2321465287
 10
2.7174293343
 20
14.2086533346
 10
2.680177692
 20
14.183661899
 10
2.643229315
 20
14.1572087909
 10
2.6066220107
 20
14.1293304599
 10
2.5703928871
 20
14.1000634117
 10
2.5345785749
 20
14.0694438669
 10
2.4992172941
 20
14.0375124187
 10
2.4643500652
 20
14.0043126826
 10
2.4300147636
 20
13.9698859495
 10
2.3962480372
 20
13.9342761592
 10
2.3630901364
 20
13.8975318946
 10
2.330578178
 20
13.8596992445
 10
2.2987459811
 20
13.820824422
 10
2.2676296239
 20
13.780956928
 10
2.237264877
 20
13.7401466792
 10
2.2076831205
 20
13.6984420852
 10
2.1789147453
 20
13.6558903963
 10
2.1509924262
 20
13.6125424319
 10
2.1239465197
 20
13.5684501074
 10
2.0978049955
 20
13.5236619035
 10
2.0725986378
 20
13.4782313187
 10
2.0483550208
 20
13.4322113286
 10
2.0250984992
 20
13.3856490527
 10
2.0028570577
 20
13.338598629
 10
1.9816563443
 20
13.2911151504
 10
1.9615185975
 20
13.2432465141
 10
1.9424684914
 20
13.1950458579
 10
1.9245300433
 20
13.1465714364
 10
1.9077255097
 20
13.0978783024
 10
1.8920769104
 20
13.0490212811
 10
1.877604682
 20
13.0000583831
 10
1.8643290002
 20
12.9510489257
 10
1.8522687859
 20
12.9020492632
 10
1.8414404522
 20
12.8531167742
 10
1.8318604129
 20
12.8043115332
 10
1.8235443611
 20
12.755692074
 10
1.8165045377
 20
12.7073108422
 10
1.8107527643
 20
12.659217788
 10
1.8063012418
 20
12.6114664511
 10
1.8031598247
 20
12.5641190821
 10
1.8017167859
 20
12.5303856923
  0
LINE
  5
257
100
AcDbEntity
  8
RACCORDO
100
AcDbLine
 62
7
  6
CONTINUOUS
 10
4.6427444411
 20
15.3153051213
 11
2.7810325341
 21
14.2475110772
  0
LINE
  5
258
100
AcDbEntity
  8
RACCORDO
100
AcDbLine
 62
253
  6
CONTINUOUS
 10
4.6893165452
 20
15.3134920859
 11
2.8270847007
 21
14.2453998291
  0
LINE
  5
259
100
AcDbEntity
  8
RACCORDO
100
AcDbLine
 62
253
  6
CONTINUOUS
 10
4.3997155257
 20
15.4254173156
 11
2.5268512125
 21
14.3687731926
  0
LINE
  5
25A
100
AcDbEntity
  8
RACCORDO
100
AcDbLine
 62
7
  6
CONTINUOUS
 10
8.9605542643
 20
16.9403394734
 11
8.0704940816
 21
16.4436585521
  0
LINE
  5
25B
100
AcDbEntity
  8
RACCORDO
100
AcDbLine
 62
253
  6
CONTINUOUS
 10
3.4460711528
 20
13.9424490505
 11
3.4398160007
 21
13.9390341791
  0
LINE
  5
25C
100
AcDbEntity
  8
RACCORDO
100
AcDbLine
 62
7
  6
CONTINUOUS
 10
14.576927195
 20
20.8406581058
 11
9.0853838668
 21
17.8778444949
  0
LINE
  5
25D
100
AcDbEntity
  8
RACCORDO
100
AcDbLine
 62
7
  6
CONTINUOUS
 10
14.576927195
 20
20.3433281488
 11
9.2187758579
 21
17.5107777685
  0
LINE
  5
25E
100
AcDbEntity
  8
RACCORDO
100
AcDbLine
 62
253
  6
CONTINUOUS
 10
9.7029194454
 20
17.2687059748
 11
8.9834700695
 21
16.9288815708
  0
LINE
  5
25F
100
AcDbEntity
  8
RACCORDO
100
AcDbLine
 62
253
  6
CONTINUOUS
 10
10.0212144361
 20
16.7197728532
 11
9.3031807179
 21
16.3806171204
  0
LINE
  5
260
100
AcDbEntity
  8
0
100
AcDbLine
 62
7
  6
CONTINUOUS
 10
-10.4367135255
 20
-8.9989549513
 11
-11.7984383857
 21
-8.6929142727
  0
LINE
  5
261
100
AcDbEntity
  8
0
100
AcDbLine
 62
7
  6
CONTINUOUS
 10
-6.462845444
 20
-7.8234031094
 11
-6.2775968703
 21
-8.0470179191
  0
LINE
  5
262
100
AcDbEntity
  8
RACCORDO
100
AcDbLine
 62
7
  6
CONTINUOUS
 10
-8.8299691927
 20
21.8775283982
 11
-8.8299691927
 21
21.9864531725
  0
LINE
  5
263
100
AcDbEntity
  8
RACCORDO
100
AcDbLine
 62
253
  6
CONTINUOUS
 10
3.8119038928
 20
13.3394466048
 11
3.8056487407
 21
13.3360317334
  0
LINE
  5
264
100
AcDbEntity
  8
RACCORDO
100
AcDbLine
 62
7
  6
CONTINUOUS
 10
-7.7557746351
 20
25.1733206244
 11
-7.7557746351
 21
24.8333466903
  0
LINE
  5
265
100
AcDbEntity
  8
RACCORDO
100
AcDbLine
 62
253
  6
CONTINUOUS
 10
-7.6825513304
 20
25.0849322768
 11
-7.6825513304
 21
24.7449583427
  0
LINE
  5
266
100
AcDbEntity
  8
RACCORDO
100
AcDbLine
 62
7
  6
CONTINUOUS
 10
-7.0527816808
 20
23.8733695231
 11
-7.0527816808
 21
24.327341716
  0
LINE
  5
267
100
AcDbEntity
  8
RACCORDO
100
AcDbLine
 62
253
  6
CONTINUOUS
 10
-6.9795583761
 20
23.7816559195
 11
-6.9795583761
 21
24.2907300636
  0
LINE
  5
268
100
AcDbEntity
  8
RACCORDO
100
AcDbLine
 62
253
  6
CONTINUOUS
 10
-6.3575666506
 20
24.0824660028
 11
-6.3575666506
 21
24.4224399369
  0
LINE
  5
269
100
AcDbEntity
  8
RACCORDO
100
AcDbLine
 62
253
  6
CONTINUOUS
 10
-6.0050446909
 20
24.0819532789
 11
-6.0050446909
 21
24.421927213
  0
LINE
  5
26A
100
AcDbEntity
  8
RACCORDO
100
AcDbLine
 62
253
  6
CONTINUOUS
 10
14.1890022453
 20
19.8855767924
 11
10.002974665
 21
16.8587808682
  0
LINE
  5
26B
100
AcDbEntity
  8
RACCORDO
100
AcDbLine
 62
7
  6
CONTINUOUS
 10
14.1639490489
 20
19.793804385
 11
10.0157251616
 21
16.7943432219
  0
LINE
  5
26C
100
AcDbEntity
  8
RACCORDO
100
AcDbLine
 62
7
  6
CONTINUOUS
 10
1.5489526666
 20
8.2212660749
 11
1.6788311572
 21
8.2862053202
  0
LINE
  5
26D
100
AcDbEntity
  8
0
100
AcDbLine
 62
7
  6
CONTINUOUS
 10
-7.0516901341
 20
3.7741393815
 11
-7.2638221684
 21
3.6680733644
  0
LINE
  5
26E
100
AcDbEntity
  8
0
100
AcDbLine
 62
7
  6
CONTINUOUS
 10
-8.4696278919
 20
2.9960538666
 11
-10.1666841668
 21
2.1475257292
  0
LINE
  5
26F
100
AcDbEntity
  8
RACCORDO
100
AcDbLine
 62
7
  6
CONTINUOUS
 10
-8.0154854374
 20
3.8615813833
 11
-8.0150576507
 21
3.861789457
  0
LWPOLYLINE
  5
270
100
AcDbEntity
  8
RACCORDO
100
AcDbPolyline
 62
7
  6
CONTINUOUS
 90
29
 70
0
 10
-8.0154768991
 20
3.8615854616
 10
-7.9534934751
 20
3.8906375062
 10
-7.8649741586
 20
3.9284232651
 10
-7.7748909512
 20
3.962627215
 10
-7.6833084113
 20
3.9932355971
 10
-7.590279069
 20
4.020242574
 10
-7.49586032
 20
4.0436440877
 10
-7.4001272572
 20
4.0634326196
 10
-7.3031377433
 20
4.0796088164
 10
-7.2049529623
 20
4.0921760571
 10
-7.1056572485
 20
4.1011360285
 10
-7.0053297305
 20
4.1064967297
 10
-6.9040201223
 20
4.1082717694
 10
-6.8017710392
 20
4.1064724517
 10
-6.6986556478
 20
4.1011118253
 10
-6.5947344088
 20
4.0922062323
 10
-6.4900304842
 20
4.0797664318
 10
-6.3846095762
 20
4.0638071232
 10
-6.2785417263
 20
4.0443475176
 10
-6.1718552404
 20
4.0213980222
 10
-6.0646188601
 20
3.9949770282
 10
-5.9569020082
 20
3.9651074314
 10
-5.8487324923
 20
3.9317994831
 10
-5.7401795812
 20
3.8950748631
 10
-5.6313097148
 20
3.8549583402
 10
-5.5221447097
 20
3.8114571647
 10
-5.4127378798
 20
3.7645889554
 10
-5.3031801646
 20
3.7143920963
 10
-5.2038254652
 20
3.6660538302
  0
LINE
  5
271
100
AcDbEntity
  8
0
100
AcDbLine
 62
7
  6
CONTINUOUS
 10
-6.2775968703
 20
-8.0470179191
 11
-2.3885095737
 21
-7.2415615673
  0
LINE
  5
272
100
AcDbEntity
  8
RACCORDO
100
AcDbLine
 62
7
  6
CONTINUOUS
 10
14.2467605309
 20
-15.506623632
 11
14.5708106854
 21
-15.6686487092
  0
LINE
  5
273
100
AcDbEntity
  8
RACCORDO
100
AcDbLine
 62
253
  6
CONTINUOUS
 10
10.0212144361
 20
-12.953592258
 11
13.218265941
 21
-14.5521180104
  0
LINE
  5
274
100
AcDbEntity
  8
RACCORDO
100
AcDbLine
 62
7
  6
CONTINUOUS
 10
10.0212144361
 20
-12.8306567739
 11
13.3759747344
 21
-14.508036923
  0
LINE
  5
275
100
AcDbEntity
  8
RACCORDO
100
AcDbLine
 62
253
  6
CONTINUOUS
 10
13.8691111733
 20
-14.4018778879
 11
14.0713180916
 21
-14.5029813471
  0
LINE
  5
276
100
AcDbEntity
  8
RACCORDO
100
AcDbLine
 62
7
  6
CONTINUOUS
 10
13.9339963316
 20
-14.4058449365
 11
14.13620325
 21
-14.5069483957
  0
LINE
  5
277
100
AcDbEntity
  8
RACCORDO
100
AcDbLine
 62
253
  6
CONTINUOUS
 10
-5.6463460425
 20
23.8038703756
 11
-5.6463460425
 21
23.1150497527
  0
LINE
  5
278
100
AcDbEntity
  8
RACCORDO
100
AcDbLine
 62
253
  6
CONTINUOUS
 10
-5.2938240828
 20
23.933449756
 11
-5.2938240828
 21
23.1258176343
  0
LINE
  5
279
100
AcDbEntity
  8
RACCORDO
100
AcDbLine
 62
7
  6
CONTINUOUS
 10
-4.4037639001
 20
23.6224985556
 11
-4.4037639001
 21
25.2246492165
  0
LINE
  5
27A
100
AcDbEntity
  8
RACCORDO
100
AcDbLine
 62
7
  6
CONTINUOUS
 10
-4.2337751149
 20
19.7421626359
 11
-4.2337751149
 21
19.775037916
  0
LINE
  5
27B
100
AcDbEntity
  8
RACCORDO
100
AcDbLine
 62
253
  6
CONTINUOUS
 10
-3.8754967284
 20
25.4880880366
 11
-3.8754967284
 21
25.1405565198
  0
LINE
  5
27C
100
AcDbEntity
  8
RACCORDO
100
AcDbLine
 62
253
  6
CONTINUOUS
 10
8.9605542643
 20
17.8154452819
 11
9.4888214361
 21
18.4583974376
  0
LINE
  5
27D
100
AcDbEntity
  8
RACCORDO
100
AcDbLine
 62
7
  6
CONTINUOUS
 10
8.9605542643
 20
17.7259148155
 11
9.5599144661
 21
18.4553940534
  0
LINE
  5
27E
100
AcDbEntity
  8
0
100
AcDbLine
 62
7
  6
CONTINUOUS
 10
-5.0320742187
 20
3.5757434067
 11
-6.2775968703
 21
2.9529820809
  0
LINE
  5
27F
100
AcDbEntity
  8
RACCORDO
100
AcDbLine
 62
7
  6
CONTINUOUS
 10
-3.8032988714
 20
25.5759606688
 11
-3.8032988714
 21
25.228429152
  0
LINE
  5
280
100
AcDbEntity
  8
DRAFT
100
AcDbLine
 62
7
  6
CONTINUOUS
 10
-3.4491697455
 20
19.4348570875
 11
-3.4491697455
 21
20.2104778056
  0
LINE
  5
281
100
AcDbEntity
  8
0
100
AcDbLine
 62
7
  6
CONTINUOUS
 10
-2.3885095737
 20
-7.2415615673
 11
-2.3885095737
 21
-1.7415615673
  0
LINE
  5
282
100
AcDbEntity
  8
RACCORDO
100
AcDbLine
 62
7
  6
CONTINUOUS
 10
-2.1793398958
 20
23.1082231411
 11
-2.1793398958
 21
21.8680341084
  0
LINE
  5
283
100
AcDbEntity
  8
RACCORDO
100
AcDbLine
 62
253
  6
CONTINUOUS
 10
-2.0328932863
 20
22.7651533101
 11
-2.0328932863
 21
21.6845699993
  0
LINE
  5
284
100
AcDbEntity
  8
0
100
AcDbLine
 62
7
  6
CONTINUOUS
 10
-2.3885095737
 20
-1.7415615673
 11
-6.2775968703
 21
2.9529820809
  0
LINE
  5
285
100
AcDbEntity
  8
0
100
AcDbLine
 62
7
  6
CONTINUOUS
 10
-0.6914532989
 20
-5.4194192369
 11
-0.6914532989
 21
-3.1928082781
  0
LINE
  5
286
100
AcDbEntity
  8
RACCORDO
100
AcDbLine
 62
7
  6
CONTINUOUS
 10
0.0224413924
 20
17.6140543822
 11
0.0224413924
 21
17.6469296623
  0
LWPOLYLINE
  5
287
100
AcDbEntity
  8
RACCORDO
100
AcDbPolyline
 62
7
  6
CONTINUOUS
 90
10
 70
0
 10
1.8017166805
 20
12.5303868886
 10
1.7857674501
 20
12.036883895
 10
1.769819832
 20
11.529410413
 10
1.7543386733
 20
11.0221512909
 10
1.7393239989
 20
10.5151073847
 10
1.7247758281
 20
10.0082793692
 10
1.7106941758
 20
9.5016677384
 10
1.6970790623
 20
8.9952731676
 10
1.6839305134
 20
8.4890965133
 10
1.6731171358
 20
8.0588580676
  0
LINE
  5
288
100
AcDbEntity
  8
0
100
AcDbLine
 62
7
  6
CONTINUOUS
 10
-1.2301158466
 20
-1.1623647038
 11
-2.3885095737
 21
-1.7415615673
  0
LWPOLYLINE
  5
289
100
AcDbEntity
  8
RACCORDO
100
AcDbPolyline
 62
7
  6
CONTINUOUS
 90
98
 70
0
 10
-5.2038247628
 20
3.6660535038
 10
-5.0999598121
 20
3.6126579815
 10
-4.9848573771
 20
3.5500680087
 10
-4.8698077771
 20
3.4839081121
 10
-4.7548985716
 20
3.4142204328
 10
-4.6402064195
 20
3.3410466998
 10
-4.5258031153
 20
3.2644270791
 10
-4.4117642465
 20
3.1844057188
 10
-4.2981680872
 20
3.1010332749
 10
-4.1850895508
 20
3.0143591829
 10
-4.0726048888
 20
2.9244356649
 10
-3.9607908804
 20
2.8313206591
 10
-3.8497223049
 20
2.7350719295
 10
-3.7394744849
 20
2.635749742
 10
-3.6301206497
 20
2.5334176196
 10
-3.5217316298
 20
2.4281380033
 10
-3.4143802888
 20
2.3199772608
 10
-3.3081378258
 20
2.2090053526
 10
-3.2030719451
 20
2.0952897194
 10
-3.0992524624
 20
1.978902062
 10
-2.9967483643
 20
1.859918467
 10
-2.8956255902
 20
1.7384126667
 10
-2.7959500452
 20
1.6144604966
 10
-2.6977887469
 20
1.4881445851
 10
-2.6012086436
 20
1.3595490186
 10
-2.5062734367
 20
1.2287564111
 10
-2.4130453258
 20
1.0958529338
 10
-2.3215881365
 20
0.9609285429
 10
-2.2319620496
 20
0.8240710064
 10
-2.1442249932
 20
0.6853705052
 10
-2.0584364889
 20
0.5449211771
 10
-1.9746523918
 20
0.4028146122
 10
-1.8929265172
 20
0.2591450531
 10
-1.8133143308
 20
0.1140111851
 10
-1.7358672415
 20
-0.0324918006
 10
-1.6606343529
 20
-0.1802666085
 10
-1.5876665485
 20
-0.329210817
 10
-1.517010499
 20
-0.4792261653
 10
-1.4487102197
 20
-0.6302131018
 10
-1.3828113736
 20
-0.7820667247
 10
-1.3193557402
 20
-0.9346860002
 10
-1.2583818206
 20
-1.087970223
 10
-1.1999291102
 20
-1.2418145253
 10
-1.1440344865
 20
-1.3961151769
 10
-1.0907305969
 20
-1.5507716848
 10
-1.0400496063
 20
-1.705683689
 10
-0.9920225617
 20
-1.8607483031
 10
-0.9466774208
 20
-2.015863089
 10
-0.904040958
 20
-2.1709280341
 10
-0.8641385728
 20
-2.3258410502
 10
-0.8269930652
 20
-2.480498956
 10
-0.7926263859
 20
-2.6347997407
 10
-0.7610577745
 20
-2.7886443798
 10
-0.7323048925
 20
-2.9419278668
 10
-0.7063856141
 20
-3.0945389751
 10
-0.6833132341
 20
-3.2463779004
 10
-0.6630984561
 20
-3.3973432591
 10
-0.645752614
 20
-3.5473215345
 10
-0.6312825234
 20
-3.6962120808
 10
-0.6196916364
 20
-3.8439190077
 10
-0.6109834531
 20
-3.9903362267
 10
-0.6051584233
 20
-4.1353527143
 10
-0.6022125151
 20
-4.278889357
 10
-0.6021424688
 20
-4.4208870186
 10
-0.6049442978
 20
-4.5612561886
 10
-0.6106109926
 20
-4.6999003918
 10
-0.6191363312
 20
-4.8367480291
 10
-0.630511388
 20
-4.9717108049
 10
-0.6447239226
 20
-5.1046968617
 10
-0.6617626469
 20
-5.235627885
 10
-0.6816124102
 20
-5.3644152939
 10
-0.7042555623
 20
-5.4909752711
 10
-0.7296763253
 20
-5.6152356129
 10
-0.75785116
 20
-5.7371011584
 10
-0.7887591335
 20
-5.8565038981
 10
-0.8223899748
 20
-5.973409289
 10
-0.8587176021
 20
-6.0877302452
 10
-0.8977175005
 20
-6.1993962354
 10
-0.9393868254
 20
-6.3083910549
 10
-0.9836994702
 20
-6.4146351917
 10
-1.0306276677
 20
-6.5180538537
 10
-1.0801723997
 20
-6.6186299481
 10
-1.1323100577
 20
-6.7162934084
 10
-1.1870079623
 20
-6.8109633975
 10
-1.2442583156
 20
-6.9026008952
 10
-1.3040397436
 20
-6.9911457356
 10
-1.3663130821
 20
-7.0765154866
 10
-1.4310444933
 20
-7.158639012
 10
-1.4981985328
 20
-7.2374518794
 10
-1.5677415742
 20
-7.3128952494
 10
-1.6396414769
 20
-7.3849124641
 10
-1.7138595516
 20
-7.4534472782
 10
-1.7903619094
 20
-7.5184497693
 10
-1.8691243168
 20
-7.5798777612
 10
-1.9501078256
 20
-7.6376821089
 10
-2.0332785352
 20
-7.6918177534
 10
-2.1186211798
 20
-7.7422511059
 10
-2.1935825094
 20
-7.7825558181
  0
LINE
  5
28A
100
AcDbEntity
  8
RACCORDO
100
AcDbLine
 62
253
  6
CONTINUOUS
 10
3.4784138133
 20
18.9289164494
 11
3.4784138133
 21
20.0094997603
  0
LINE
  5
28B
100
AcDbEntity
  8
RACCORDO
100
AcDbLine
 62
253
  6
CONTINUOUS
 10
4.1834577326
 20
18.9504522127
 11
4.1834577326
 21
20.1831791851
  0
LINE
  5
28C
100
AcDbEntity
  8
ASSI
100
AcDbLine
 62
253
  6
CONTINUOUS
 10
4.3092270796
 20
24.5630097853
 11
4.3092270796
 21
25.7903603823
  0
LINE
  5
28D
100
AcDbEntity
  8
0
100
AcDbLine
 62
7
  6
CONTINUOUS
 10
-6.2775968703
 20
2.9529820809
 11
-10.1666841668
 21
2.1475257292
  0
LINE
  5
28E
100
AcDbEntity
  8
RACCORDO
100
AcDbLine
 62
7
  6
CONTINUOUS
 10
4.4345765868
 20
24.7120379437
 11
4.4345765868
 21
25.7996720014
  0
LINE
  5
28F
100
AcDbEntity
  8
DRAFT
100
AcDbLine
 62
7
  6
CONTINUOUS
 10
4.5411368819
 20
20.3624837299
 11
4.5411368819
 21
19.1500481646
  0
LINE
  5
290
100
AcDbEntity
  8
RACCORDO
100
AcDbLine
 62
7
  6
CONTINUOUS
 10
5.6085435293
 20
18.4911615422
 11
5.6085435293
 21
18.1511876081
  0
LINE
  5
291
100
AcDbEntity
  8
RACCORDO
100
AcDbLine
 62
7
  6
CONTINUOUS
 10
5.6085435293
 20
-23.3717937077
 11
5.6085435293
 21
-23.4883904654
  0
LINE
  5
292
100
AcDbEntity
  8
RACCORDO
100
AcDbLine
 62
253
  6
CONTINUOUS
 10
5.681766834
 20
18.4027731946
 11
5.681766834
 21
18.0627992605
  0
LINE
  5
293
100
AcDbEntity
  8
RACCORDO
100
AcDbLine
 62
253
  6
CONTINUOUS
 10
5.681766834
 20
-23.3416239508
 11
5.681766834
 21
-23.576778813
  0
LINE
  5
294
100
AcDbEntity
  8
RACCORDO
100
AcDbLine
 62
7
  6
CONTINUOUS
 10
6.3115364836
 20
17.1912104409
 11
6.3115364836
 21
17.6451826338
  0
LINE
  5
295
100
AcDbEntity
  8
RACCORDO
100
AcDbLine
 62
253
  6
CONTINUOUS
 10
6.3847597883
 20
17.0994968373
 11
6.3847597883
 21
17.6085709814
  0
LINE
  5
296
100
AcDbEntity
  8
RACCORDO
100
AcDbLine
 62
7
  6
CONTINUOUS
 10
-2.1934431021
 20
-7.7824845688
 11
-2.1935704028
 21
-7.7825499808
  0
LINE
  5
297
100
AcDbEntity
  8
0
100
AcDbLine
 62
7
  6
CONTINUOUS
 10
-1.0597561585
 20
-6.5771848597
 11
-2.3885095737
 21
-7.2415615673
  0
LINE
  5
298
100
AcDbEntity
  8
0
100
AcDbLine
 62
7
  6
CONTINUOUS
 10
-1.6851269881
 20
-6.9589869105
 11
-1.8972590224
 21
-7.0650529276
  0
LINE
  5
299
100
AcDbEntity
  8
0
100
AcDbLine
 62
7
  6
CONTINUOUS
 10
-5.2130088547
 20
3.670521753
 11
-8.4696278919
 21
2.9960538666
  0
LINE
  5
29A
100
AcDbEntity
  8
RACCORDO
100
AcDbLine
 62
253
  6
CONTINUOUS
 10
7.0067515138
 20
-24.239271153
 11
7.0067515138
 21
-23.8992972188
  0
LINE
  5
29B
100
AcDbEntity
  8
RACCORDO
100
AcDbLine
 62
253
  6
CONTINUOUS
 10
7.0067515138
 20
17.4003069206
 11
7.0067515138
 21
17.7402808547
  0
LINE
  5
29C
100
AcDbEntity
  8
RACCORDO
100
AcDbLine
 62
7
  6
CONTINUOUS
 10
7.0867212942
 20
24.7137952788
 11
7.0867212942
 21
24.4429949862
  0
LINE
  5
29D
100
AcDbEntity
  8
RACCORDO
100
AcDbLine
 62
253
  6
CONTINUOUS
 10
7.3592734735
 20
-24.2397838768
 11
7.3592734735
 21
-23.8998099427
  0
LINE
  5
29E
100
AcDbEntity
  8
RACCORDO
100
AcDbLine
 62
253
  6
CONTINUOUS
 10
7.3592734735
 20
17.3997941967
 11
7.3592734735
 21
17.7397681308
  0
LINE
  5
29F
100
AcDbEntity
  8
RACCORDO
100
AcDbLine
 62
253
  6
CONTINUOUS
 10
7.7179721219
 20
17.1217112934
 11
7.7179721219
 21
16.4328906704
  0
LINE
  5
2A0
100
AcDbEntity
  8
RACCORDO
100
AcDbLine
 62
253
  6
CONTINUOUS
 10
7.7179721219
 20
-22.4978637892
 11
7.7179721219
 21
-22.9228007417
  0
LINE
  5
2A1
100
AcDbEntity
  8
RACCORDO
100
AcDbLine
 62
253
  6
CONTINUOUS
 10
8.0704940816
 20
17.2512906738
 11
8.0704940816
 21
16.4436585521
  0
LINE
  5
2A2
100
AcDbEntity
  8
RACCORDO
100
AcDbLine
 62
253
  6
CONTINUOUS
 10
8.0704940816
 20
-22.350104135
 11
8.0704940816
 21
-23.0483134655
  0
LINE
  5
2A3
100
AcDbEntity
  8
RACCORDO
100
AcDbLine
 62
253
  6
CONTINUOUS
 10
1.700860221
 20
7.9609665043
 11
-11.9405462438
 21
14.7816697367
  0
LINE
  5
2A4
100
AcDbEntity
  8
RACCORDO
100
AcDbLine
 62
7
  6
CONTINUOUS
 10
1.4957363476
 20
8.204179854
 11
-11.6610298437
 21
14.7825629496
  0
LINE
  5
2A5
100
AcDbEntity
  8
RACCORDO
100
AcDbLine
 62
253
  6
CONTINUOUS
 10
1.6748693308
 20
8.1285737152
 11
1.5167080418
 21
8.2076543596
  0
LINE
  5
2A6
100
AcDbEntity
  8
RACCORDO
100
AcDbLine
 62
253
  6
CONTINUOUS
 10
-11.6817680194
 20
14.8068923903
 11
-11.7991731593
 21
14.8655949602
  0
LINE
  5
2A7
100
AcDbEntity
  8
RACCORDO
100
AcDbLine
 62
253
  6
CONTINUOUS
 10
1.3967807588
 20
8.2974873473
 11
-11.613984015
 21
14.8028697343
  0
LINE
  5
2A8
100
AcDbEntity
  8
RACCORDO
100
AcDbLine
 62
7
  6
CONTINUOUS
 10
8.9605542643
 20
-21.9765067486
 11
8.9605542643
 21
-23.4597492772
  0
LINE
  5
2A9
100
AcDbEntity
  8
RACCORDO
100
AcDbLine
 62
7
  6
CONTINUOUS
 10
8.9605542643
 20
16.9403394734
 11
8.9605542643
 21
18.5424901343
  0
LINE
  5
2AA
100
AcDbEntity
  8
RACCORDO
100
AcDbLine
 62
253
  6
CONTINUOUS
 10
9.4888214361
 20
18.8059289544
 11
9.4888214361
 21
18.4583974376
  0
LINE
  5
2AB
100
AcDbEntity
  8
RACCORDO
100
AcDbLine
 62
253
  6
CONTINUOUS
 10
9.4888214361
 20
-22.8412067018
 11
9.4888214361
 21
-23.1887382185
  0
LINE
  5
2AC
100
AcDbEntity
  8
RACCORDO
100
AcDbLine
 62
7
  6
CONTINUOUS
 10
9.5610192931
 20
18.8938015865
 11
9.5610192931
 21
18.4585571076
  0
LINE
  5
2AD
100
AcDbEntity
  8
RACCORDO
100
AcDbLine
 62
7
  6
CONTINUOUS
 10
9.5610192931
 20
-22.7533340696
 11
9.5610192931
 21
-23.1008655863
  0
LINE
  5
2AE
100
AcDbEntity
  8
ASSI
100
AcDbLine
 62
253
  6
CONTINUOUS
 10
9.8659709521
 20
21.7863795965
 11
9.8659709521
 21
23.0134295637
  0
LINE
  5
2AF
100
AcDbEntity
  8
RACCORDO
100
AcDbLine
 62
7
  6
CONTINUOUS
 10
9.989565016
 20
21.9345432173
 11
9.989565016
 21
23.0222197063
  0
LINE
  5
2B0
100
AcDbEntity
  8
RACCORDO
100
AcDbLine
 62
7
  6
CONTINUOUS
 10
10.0212144361
 20
-21.2834786055
 11
10.0212144361
 21
16.7197728532
  0
LINE
  5
2B1
100
AcDbEntity
  8
RACCORDO
100
AcDbLine
 62
253
  6
CONTINUOUS
 10
1.5225957268
 20
12.6227126807
 11
-11.488169047
 21
19.1280950677
  0
LINE
  5
2B2
100
AcDbEntity
  8
RACCORDO
100
AcDbLine
 62
253
  6
CONTINUOUS
 10
2.4238776075
 20
12.1989162148
 11
1.8310122102
 21
12.4953489135
  0
LINE
  5
2B3
100
AcDbEntity
  8
RACCORDO
100
AcDbLine
 62
253
  6
CONTINUOUS
 10
-11.8081030728
 20
19.314906555
 11
-12.4009684701
 21
19.6113392536
  0
LINE
  5
2B4
100
AcDbEntity
  8
RACCORDO
100
AcDbLine
 62
253
  6
CONTINUOUS
 10
14.1890022453
 20
20.1382542539
 11
14.1890022453
 21
19.8855767924
  0
LINE
  5
2B5
100
AcDbEntity
  8
RACCORDO
100
AcDbLine
 62
253
  6
CONTINUOUS
 10
14.1890022453
 20
-14.7561319396
 11
14.1890022453
 21
-15.6168403498
  0
LINE
  5
2B6
100
AcDbEntity
  8
RACCORDO
100
AcDbLine
 62
7
  6
CONTINUOUS
 10
14.2467605309
 20
20.1687877801
 11
14.2467605309
 21
19.9558748981
  0
LINE
  5
2B7
100
AcDbEntity
  8
RACCORDO
100
AcDbLine
 62
7
  6
CONTINUOUS
 10
14.2467605309
 20
-14.6858338339
 11
14.2467605309
 21
-15.5476020365
  0
LINE
  5
2B8
100
AcDbEntity
  8
RACCORDO
100
AcDbLine
 62
253
  6
CONTINUOUS
 10
2.5268512125
 20
14.3687731926
 11
-10.4839135614
 21
20.8741555795
  0
LINE
  5
2B9
100
AcDbEntity
  8
RACCORDO
100
AcDbLine
 62
253
  6
CONTINUOUS
 10
3.4398160007
 20
13.9390341791
 11
2.8270847007
 21
14.2453998291
  0
LINE
  5
2BA
100
AcDbEntity
  8
RACCORDO
100
AcDbLine
 62
253
  6
CONTINUOUS
 10
-10.7956711601
 20
21.0567777595
 11
-11.4084024601
 21
21.3631434095
  0
LINE
  5
2BB
100
AcDbEntity
  8
RACCORDO
100
AcDbLine
 62
253
  6
CONTINUOUS
 10
14.576927195
 20
20.8406581058
 11
14.576927195
 21
20.3433281488
  0
LINE
  5
2BC
100
AcDbEntity
  8
RACCORDO
100
AcDbLine
 62
253
  6
CONTINUOUS
 10
14.576927195
 20
-16.0153771025
 11
14.576927195
 21
-16.5127070594
  0
LINE
  5
2BD
100
AcDbEntity
  8
RACCORDO
100
AcDbLine
 62
7
  6
CONTINUOUS
 10
14.7172572949
 20
21.1411626144
 11
14.7172572949
 21
20.5195922224
  0
LINE
  5
2BE
100
AcDbEntity
  8
RACCORDO
100
AcDbLine
 62
7
  6
CONTINUOUS
 10
14.7172572949
 20
-15.8443119909
 11
14.7172572949
 21
-16.4658823829
  0
LINE
  5
2BF
100
AcDbEntity
  8
RACCORDO
100
AcDbLine
 62
7
  6
CONTINUOUS
 10
-8.6110492482
 20
21.9307997025
 11
4.3997155257
 21
15.4254173156
  0
LINE
  5
2C0
100
AcDbEntity
  8
RACCORDO
100
AcDbLine
 62
7
  6
CONTINUOUS
 10
-8.9006502677
 20
22.1084754924
 11
-4.2337751149
 21
19.775037916
  0
LINE
  5
2C1
100
AcDbEntity
  8
RACCORDO
100
AcDbLine
 62
7
  6
CONTINUOUS
 10
0.0224413924
 20
17.6469296623
 11
4.6893165452
 21
15.3134920859
  0
LINE
  5
2C2
100
AcDbEntity
  8
DRAFT
100
AcDbLine
 62
7
  6
CONTINUOUS
 10
-3.4491697455
 20
20.2104778056
 11
0.7934709416
 21
18.089157462
  0
LINE
  5
2C3
100
AcDbEntity
  8
RACCORDO
100
AcDbLine
 62
253
  6
CONTINUOUS
 10
10.0212144361
 20
-15.6719731526
 11
14.0713180916
 21
-14.5029813471
  0
LINE
  5
2C4
100
AcDbEntity
  8
RACCORDO
100
AcDbLine
 62
253
  6
CONTINUOUS
 10
10.0212144361
 20
-15.9590912243
 11
14.1890022453
 21
-14.7561319396
  0
LINE
  5
2C5
100
AcDbEntity
  8
RACCORDO
100
AcDbLine
 62
7
  6
CONTINUOUS
 10
7.13242998
 20
17.2439730359
 11
7.7568352294
 21
17.1135966405
  0
LINE
  5
2C6
100
AcDbEntity
  8
RACCORDO
100
AcDbLine
 62
253
  6
CONTINUOUS
 10
7.3592734735
 20
17.3997941967
 11
8.0704940816
 21
17.2512906738
  0
LINE
  5
2C7
100
AcDbEntity
  8
RACCORDO
100
AcDbLine
 62
7
  6
CONTINUOUS
 10
7.7179721219
 20
16.4328906704
 11
6.3847597883
 21
17.0994968373
  0
LINE
  5
2C8
100
AcDbEntity
  8
RACCORDO
100
AcDbLine
 62
7
  6
CONTINUOUS
 10
-5.6463460425
 20
23.1150497527
 11
-6.9795583761
 21
23.7816559195
  0
LINE
  5
2C9
100
AcDbEntity
  8
RACCORDO
100
AcDbLine
 62
7
  6
CONTINUOUS
 10
-2.0328932863
 20
21.6845699993
 11
3.4784138133
 21
18.9289164494
  0
LINE
  5
2CA
100
AcDbEntity
  8
RACCORDO
100
AcDbLine
 62
7
  6
CONTINUOUS
 10
-7.617578034
 20
24.6097398926
 11
-6.2925933542
 21
23.9472475527
  0
LINE
  5
2CB
100
AcDbEntity
  8
RACCORDO
100
AcDbLine
 62
7
  6
CONTINUOUS
 10
5.7467401304
 20
17.9275808104
 11
7.0717248103
 21
17.2650884704
  0
LINE
  5
2CC
100
AcDbEntity
  8
RACCORDO
100
AcDbLine
 62
253
  6
CONTINUOUS
 10
7.7174578936
 20
-22.9225436275
 11
7.0951398615
 21
-23.667603045
  0
LINE
  5
2CD
100
AcDbEntity
  8
RACCORDO
100
AcDbLine
 62
7
  6
CONTINUOUS
 10
14.1890022453
 20
-15.6168403498
 11
10.0212144361
 21
-17.6803168559
  0
LINE
  5
2CE
100
AcDbEntity
  8
RACCORDO
100
AcDbLine
 62
253
  6
CONTINUOUS
 10
-7.6825513304
 20
24.7449583427
 11
-6.3575666506
 21
24.0824660028
  0
LINE
  5
2CF
100
AcDbEntity
  8
RACCORDO
100
AcDbLine
 62
253
  6
CONTINUOUS
 10
5.681766834
 20
18.0627992605
 11
7.0067515138
 21
17.4003069206
  0
LINE
  5
2D0
100
AcDbEntity
  8
RACCORDO
100
AcDbLine
 62
253
  6
CONTINUOUS
 10
7.0067515138
 20
17.7402808547
 11
5.681766834
 21
18.4027731946
  0
LINE
  5
2D1
100
AcDbEntity
  8
RACCORDO
100
AcDbLine
 62
253
  6
CONTINUOUS
 10
-6.3575666506
 20
24.4224399369
 11
-7.6825513304
 21
25.0849322768
  0
LINE
  5
2D2
100
AcDbEntity
  8
DRAFT
100
AcDbLine
 62
7
  6
CONTINUOUS
 10
-4.4037639001
 20
23.6224985556
 11
-2.1793398958
 21
22.5102865534
  0
LINE
  5
2D3
100
AcDbEntity
  8
DRAFT
100
AcDbLine
 62
7
  6
CONTINUOUS
 10
4.5411368819
 20
19.1500481646
 11
5.6350774832
 21
18.6030778639
  0
LINE
  5
2D4
100
AcDbEntity
  8
RACCORDO
100
AcDbLine
 62
7
  6
CONTINUOUS
 10
8.9605542643
 20
16.9403394734
 11
8.9838092208
 21
16.9287119951
  0
LINE
  5
2D5
100
AcDbEntity
  8
RACCORDO
100
AcDbLine
 62
253
  6
CONTINUOUS
 10
7.1824997698
 20
18.0446576696
 11
5.85751509
 21
18.7071500096
  0
LINE
  5
2D6
100
AcDbEntity
  8
RACCORDO
100
AcDbLine
 62
253
  6
CONTINUOUS
 10
-6.1818183946
 20
24.7268167519
 11
-7.5068030744
 21
25.3893090918
  0
LINE
  5
2D7
100
AcDbEntity
  8
RACCORDO
100
AcDbLine
 62
253
  6
CONTINUOUS
 10
3.4784138133
 20
20.0094997603
 11
-2.0328932863
 21
22.7651533101
  0
LINE
  5
2D8
100
AcDbEntity
  8
RACCORDO
100
AcDbLine
 62
253
  6
CONTINUOUS
 10
3.9012361931
 20
20.1118893247
 11
-2.1745184566
 21
23.1497666496
  0
LINE
  5
2D9
100
AcDbEntity
  8
RACCORDO
100
AcDbLine
 62
7
  6
CONTINUOUS
 10
-4.4037639001
 20
24.3220476476
 11
-2.9957211651
 21
23.6180262801
  0
LINE
  5
2DA
100
AcDbEntity
  8
RACCORDO
100
AcDbLine
 62
7
  6
CONTINUOUS
 10
8.9605542643
 20
17.6398885653
 11
9.7029194454
 21
17.2687059748
  0
LINE
  5
2DB
100
AcDbEntity
  8
DRAFT
100
AcDbLine
 62
7
  6
CONTINUOUS
 10
-1.6814027925
 20
23.4737535671
 11
4.5411368819
 21
20.3624837299
  0
LINE
  5
2DC
100
AcDbEntity
  8
RACCORDO
100
AcDbLine
 62
253
  6
CONTINUOUS
 10
8.0704940816
 20
-23.0483134655
 11
7.3592734735
 21
-23.8998099427
  0
LINE
  5
2DD
100
AcDbEntity
  8
RACCORDO
100
AcDbLine
 62
7
  6
CONTINUOUS
 10
14.576927195
 20
-16.0153771025
 11
10.0212144361
 21
-18.3246090995
  0
LINE
  5
2DE
100
AcDbEntity
  8
RACCORDO
100
AcDbLine
 62
7
  6
CONTINUOUS
 10
13.6953917365
 20
-17.0721361035
 11
10.0212144361
 21
-18.9163686428
  0
LINE
  5
2DF
100
AcDbEntity
  8
RACCORDO
100
AcDbLine
 62
7
  6
CONTINUOUS
 10
14.576927195
 20
-16.5127070594
 11
10.0212144361
 21
-18.772374173
  0
LINE
  5
2E0
100
AcDbEntity
  8
RACCORDO
100
AcDbLine
 62
7
  6
CONTINUOUS
 10
-6.2318881845
 20
23.9261321181
 11
-5.6074821
 21
23.7957555484
  0
LINE
  5
2E1
100
AcDbEntity
  8
RACCORDO
100
AcDbLine
 62
253
  6
CONTINUOUS
 10
-6.0050446909
 20
24.0819532789
 11
-5.2938240828
 21
23.933449756
  0
LINE
  5
2E2
100
AcDbEntity
  8
RACCORDO
100
AcDbLine
 62
7
  6
CONTINUOUS
 10
-5.9240464713
 20
26.2012931891
 11
-4.5805376038
 21
25.5295387554
  0
LINE
  5
2E3
100
AcDbEntity
  8
RACCORDO
100
AcDbLine
 62
7
  6
CONTINUOUS
 10
7.4402716931
 20
19.5191341069
 11
8.7837805606
 21
18.8473796731
  0
LINE
  5
2E4
100
AcDbEntity
  8
DRAFT
100
AcDbLine
 62
7
  6
CONTINUOUS
 10
-0.3378999083
 20
23.5040705177
 11
4.61184756
 21
21.0291967836
  0
LINE
  5
2E5
100
AcDbEntity
  8
RACCORDO
100
AcDbLine
 62
253
  6
CONTINUOUS
 10
-5.3895965926
 20
26.4616406557
 11
-4.052270432
 21
25.7929775754
  0
LINE
  5
2E6
100
AcDbEntity
  8
RACCORDO
100
AcDbLine
 62
253
  6
CONTINUOUS
 10
7.9747215718
 20
19.7794815735
 11
9.3120477324
 21
19.1108184932
  0
LINE
  5
2E7
100
AcDbEntity
  8
RACCORDO
100
AcDbLine
 62
7
  6
CONTINUOUS
 10
-5.278821633
 20
26.4682305468
 11
-3.9414954725
 21
25.7995674665
  0
LINE
  5
2E8
100
AcDbEntity
  8
RACCORDO
100
AcDbLine
 62
7
  6
CONTINUOUS
 10
8.0854965314
 20
19.7860714646
 11
9.4228226919
 21
19.1174083843
  0
LINE
  5
2E9
100
AcDbEntity
  8
RACCORDO
100
AcDbLine
 62
253
  6
CONTINUOUS
 10
9.303175722
 20
-21.637722439
 11
10.0212144361
 21
-21.2834786055
  0
LINE
  5
2EA
100
AcDbEntity
  8
RACCORDO
100
AcDbLine
 62
7
  6
CONTINUOUS
 10
9.182012689
 20
-21.8832115389
 11
9.9034272446
 21
-21.5273022366
  0
LINE
  5
2EB
100
AcDbEntity
  8
RACCORDO
100
AcDbLine
 62
253
  6
CONTINUOUS
 10
3.8056487407
 20
-23.9020395067
 11
3.8119038928
 21
-23.899413848
  0
LINE
  5
2EC
100
AcDbEntity
  8
RACCORDO
100
AcDbLine
 62
7
  6
CONTINUOUS
 10
7.8236765187
 20
-22.4537056745
 11
9.1726464432
 21
-21.8874834018
  0
LWPOLYLINE
  5
2ED
100
AcDbEntity
  8
RACCORDO
100
AcDbPolyline
 62
7
  6
CONTINUOUS
 90
5
 70
0
 10
3.6518414953
 20
-24.1832352051
 10
4.1840350171
 20
-23.9608058142
 10
4.7418833392
 20
-23.729361842
 10
5.3198440387
 20
-23.4907448189
 10
6.5344058268
 20
-22.9900703088
  0
LWPOLYLINE
  5
2EE
100
AcDbEntity
  8
RACCORDO
100
AcDbPolyline
 62
7
  6
CONTINUOUS
 90
3
 70
0
 10
6.5344058268
 20
-22.9900703088
 10
7.1701857085
 20
-22.7267020968
 10
7.8236765187
 20
-22.4537056745
  0
LINE
  5
2EF
100
AcDbEntity
  8
0
100
AcDbLine
 62
7
  6
CONTINUOUS
 10
5.7267893541
 20
24.3692467988
 11
7.0867212942
 21
24.4429949862
  0
LINE
  5
2F0
100
AcDbEntity
  8
0
100
AcDbLine
 62
7
  6
CONTINUOUS
 10
8.537339001
 20
22.9639719753
 11
5.7267893541
 21
24.3692467988
  0
LINE
  5
2F1
100
AcDbEntity
  8
RACCORDO
100
AcDbLine
 62
253
  6
CONTINUOUS
 10
9.4888214361
 20
-23.1887382185
 11
8.9605542643
 21
-23.4597492772
  0
LINE
  5
2F2
100
AcDbEntity
  8
RACCORDO
100
AcDbLine
 62
7
  6
CONTINUOUS
 10
9.4251333985
 20
-23.3233020288
 11
8.896451135
 21
-23.5945260374
  0
LINE
  5
2F3
100
AcDbEntity
  8
RACCORDO
100
AcDbLine
 62
7
  6
CONTINUOUS
 10
8.8947127478
 20
-23.595395271
 11
8.8964491653
 21
-23.5945270479
  0
LINE
  5
2F4
100
AcDbEntity
  8
RACCORDO
100
AcDbLine
 62
253
  6
CONTINUOUS
 10
8.9605542643
 20
-23.4597492772
 11
7.3592734735
 21
-24.2397838768
  0
LINE
  5
2F5
100
AcDbEntity
  8
RACCORDO
100
AcDbLine
 62
7
  6
CONTINUOUS
 10
8.8947099839
 20
-23.5953966174
 11
7.2930118809
 21
-24.375634503
  0
LINE
  5
2F6
100
AcDbEntity
  8
ASSI
100
AcDbLine
 62
253
  6
CONTINUOUS
 10
3.6548206134
 20
26.0731970326
 11
4.2603510481
 21
25.7704318152
  0
LINE
  5
2F7
100
AcDbEntity
  8
ASSI
100
AcDbLine
 62
253
  6
CONTINUOUS
 10
9.2100985164
 20
23.2955580811
 11
9.815628951
 21
22.9927928638
  0
LINE
  5
2F8
100
AcDbEntity
  8
0
100
AcDbLine
 62
7
  6
CONTINUOUS
 10
7.0867212942
 20
24.4429949862
 11
9.3225821658
 21
23.3250645504
  0
LINE
  5
2F9
100
AcDbEntity
  8
0
100
AcDbLine
 62
7
  6
CONTINUOUS
 10
9.989565016
 20
22.9915731253
 11
10.1878604155
 21
22.8924254255
  0
LINE
  5
2FA
100
AcDbEntity
  8
ASSI
100
AcDbLine
 62
7
  6
CONTINUOUS
 10
3.9310926345
 20
26.0590157638
 11
4.4274991191
 21
25.8108125215
  0
LINE
  5
2FB
100
AcDbEntity
  8
ASSI
100
AcDbLine
 62
7
  6
CONTINUOUS
 10
9.4860480265
 20
23.2815380678
 11
9.9824547965
 21
23.0333346828
  0
LINE
  5
2FC
100
AcDbEntity
  8
RACCORDO
100
AcDbLine
 62
253
  6
CONTINUOUS
 10
3.3188191615
 20
26.7628025846
 11
6.3857851054
 21
25.2293196126
  0
LINE
  5
2FD
100
AcDbEntity
  8
RACCORDO
100
AcDbLine
 62
253
  6
CONTINUOUS
 10
10.6284257925
 20
23.1079992691
 11
13.6953917365
 21
21.5745162971
  0
LINE
  5
2FE
100
AcDbEntity
  8
RACCORDO
100
AcDbLine
 62
7
  6
CONTINUOUS
 10
3.5996494182
 20
26.8682584244
 11
6.8268281085
 21
25.2546690792
  0
LINE
  5
2FF
100
AcDbEntity
  8
RACCORDO
100
AcDbLine
 62
7
  6
CONTINUOUS
 10
11.0694687956
 20
23.1333487357
 11
14.2966474859
 21
21.5197593905
  0
ARC
  5
300
100
AcDbEntity
  8
RACCORDO
100
AcDbCircle
 62
253
  6
CONTINUOUS
 10
-11.7704527116
 20
-16.2678047038
 40
0.5502687551
100
AcDbArc
 50
240.9103126524
 51
242.6437599697
  0
ARC
  5
301
100
AcDbEntity
  8
RACCORDO
100
AcDbCircle
 62
253
  6
CONTINUOUS
 10
-11.7707706136
 20
-16.2684114342
 40
0.5495837946
100
AcDbArc
 50
242.6441294758
 51
243.4349250804
  0
ARC
  5
302
100
AcDbEntity
  8
0
100
AcDbCircle
 62
7
  6
CONTINUOUS
 10
-9.6420204954
 20
-6.5798910619
 40
2.5344411874
100
AcDbArc
 50
254.4476198328
 51
257.3068362144
  0
ARC
  5
303
100
AcDbEntity
  8
0
100
AcDbCircle
 62
7
  6
CONTINUOUS
 10
-9.6783164913
 20
-6.7381247754
 40
2.3720993586
100
AcDbArc
 50
257.3223017132
 51
260.323643144
  0
ARC
  5
304
100
AcDbEntity
  8
0
100
AcDbCircle
 62
7
  6
CONTINUOUS
 10
-9.7004291726
 20
-6.862887905
 40
2.2453946402
100
AcDbArc
 50
260.3447602474
 51
261.8623278187
  0
ARC
  5
305
100
AcDbEntity
  8
0
100
AcDbCircle
 62
7
  6
CONTINUOUS
 10
-9.9575402236
 20
-6.9606052976
 40
2.09296141
100
AcDbArc
 50
263.4321856113
 51
265.6862693502
  0
ARC
  5
306
100
AcDbEntity
  8
0
100
AcDbCircle
 62
7
  6
CONTINUOUS
 10
-9.9617102852
 20
-7.0147485065
 40
2.0386579208
100
AcDbArc
 50
265.6886785091
 51
266.7623409548
  0
ARC
  5
307
100
AcDbEntity
  8
0
100
AcDbCircle
 62
7
  6
CONTINUOUS
 10
-9.1379270747
 20
-7.2040524906
 40
1.7658018602
100
AcDbArc
 50
311.0954872154
 51
312.1721658545
  0
ARC
  5
308
100
AcDbEntity
  8
0
100
AcDbCircle
 62
7
  6
CONTINUOUS
 10
-8.7134957191
 20
-6.9921077858
 40
1.7655504792
100
AcDbArc
 50
311.0606559385
 51
312.1690724518
  0
ARC
  5
309
100
AcDbEntity
  8
0
100
AcDbCircle
 62
7
  6
CONTINUOUS
 10
-8.2890562714
 20
-6.7801726654
 40
1.7652865463
100
AcDbArc
 50
311.0256739827
 51
312.1645559748
  0
ARC
  5
30A
100
AcDbEntity
  8
0
100
AcDbCircle
 62
7
  6
CONTINUOUS
 10
-7.8647124827
 20
-6.5681311429
 40
1.7651658444
100
AcDbArc
 50
311.0152392267
 51
312.1581272941
  0
ARC
  5
30B
100
AcDbEntity
  8
0
100
AcDbCircle
 62
7
  6
CONTINUOUS
 10
-7.4401821764
 20
-6.3562956425
 40
1.7647673155
100
AcDbArc
 50
310.9631206682
 51
312.1567713872
  0
ARC
  5
30C
100
AcDbEntity
  8
0
100
AcDbCircle
 62
7
  6
CONTINUOUS
 10
-9.1286532425
 20
-7.2146633821
 40
1.7517094942
100
AcDbArc
 50
310.3320572279
 51
311.0950229818
  0
ARC
  5
30D
100
AcDbEntity
  8
0
100
AcDbCircle
 62
7
  6
CONTINUOUS
 10
-8.7042467122
 20
-7.0026991564
 40
1.7514891502
100
AcDbArc
 50
310.3314961772
 51
311.0601042777
  0
ARC
  5
30E
100
AcDbEntity
  8
0
100
AcDbCircle
 62
7
  6
CONTINUOUS
 10
-8.2798286214
 20
-6.7907487044
 40
1.7512508153
100
AcDbArc
 50
310.3288014925
 51
311.025039254
  0
ARC
  5
30F
100
AcDbEntity
  8
0
100
AcDbCircle
 62
7
  6
CONTINUOUS
 10
-7.8554972406
 20
-6.5786962496
 40
1.7511465088
100
AcDbArc
 50
310.3239672206
 51
311.0145924041
  0
ARC
  5
310
100
AcDbEntity
  8
0
100
AcDbCircle
 62
7
  6
CONTINUOUS
 10
-9.1333361371
 20
-7.3099456607
 40
1.66702713
100
AcDbArc
 50
284.3895837671
 51
296.5630325117
  0
ARC
  5
311
100
AcDbEntity
  8
0
100
AcDbCircle
 62
7
  6
CONTINUOUS
 10
-7.4333676263
 20
-6.4674483555
 40
1.6603305422
100
AcDbArc
 50
289.4300304088
 51
296.5522661826
  0
ARC
  5
312
100
AcDbEntity
  8
0
100
AcDbCircle
 62
7
  6
CONTINUOUS
 10
-7.8576048672
 20
-6.6796346376
 40
1.6602702802
100
AcDbArc
 50
289.4357108501
 51
296.5581441384
  0
ARC
  5
313
100
AcDbEntity
  8
0
100
AcDbCircle
 62
7
  6
CONTINUOUS
 10
-8.2818487048
 20
-6.8918117051
 40
1.6602209852
100
AcDbArc
 50
289.4396826384
 51
296.5626340769
  0
ARC
  5
314
100
AcDbEntity
  8
0
100
AcDbCircle
 62
7
  6
CONTINUOUS
 10
-8.7061026479
 20
-7.1039691718
 40
1.6601936172
100
AcDbArc
 50
289.4415202802
 51
296.5647181833
  0
ARC
  5
315
100
AcDbEntity
  8
0
100
AcDbCircle
 62
7
  6
CONTINUOUS
 10
-9.1299230952
 20
-7.3177881706
 40
1.6584862633
100
AcDbArc
 50
296.5787257981
 51
301.3782961108
  0
ARC
  5
316
100
AcDbEntity
  8
0
100
AcDbCircle
 62
7
  6
CONTINUOUS
 10
-8.7055892222
 20
-7.1057801102
 40
1.6583442887
100
AcDbArc
 50
296.576832917
 51
301.3148748203
  0
ARC
  5
317
100
AcDbEntity
  8
0
100
AcDbCircle
 62
7
  6
CONTINUOUS
 10
-8.2812739409
 20
-6.8937388683
 40
1.6582402576
100
AcDbArc
 50
296.5746473633
 51
301.2674118048
  0
ARC
  5
318
100
AcDbEntity
  8
0
100
AcDbCircle
 62
7
  6
CONTINUOUS
 10
-7.8569504995
 20
-6.6817112253
 40
1.6581202757
100
AcDbArc
 50
296.5700010443
 51
301.2021206368
  0
ARC
  5
319
100
AcDbEntity
  8
0
100
AcDbCircle
 62
7
  6
CONTINUOUS
 10
-7.4326530876
 20
-6.4696361465
 40
1.65805413
100
AcDbArc
 50
296.5639737398
 51
301.1486021005
  0
ARC
  5
31A
100
AcDbEntity
  8
0
100
AcDbCircle
 62
7
  6
CONTINUOUS
 10
-12.0597475592
 20
-3.0785207792
 40
2.1497190373
100
AcDbArc
 50
146.7740586632
 51
147.8865117515
  0
ARC
  5
31B
100
AcDbEntity
  8
0
100
AcDbCircle
 62
7
  6
CONTINUOUS
 10
-11.8466600373
 20
-2.3185365075
 40
1.9571077817
100
AcDbArc
 50
101.0749966778
 51
102.319505168
  0
ARC
  5
31C
100
AcDbEntity
  8
0
100
AcDbCircle
 62
7
  6
CONTINUOUS
 10
-11.4230520206
 20
-2.1032632761
 40
1.9538991607
100
AcDbArc
 50
101.4633730766
 51
102.3082186988
  0
ARC
  5
31D
100
AcDbEntity
  8
0
100
AcDbCircle
 62
7
  6
CONTINUOUS
 10
-10.9996649592
 20
-1.8869770446
 40
1.9496536998
100
AcDbArc
 50
101.9922360642
 51
102.2909044304
  0
ARC
  5
31E
100
AcDbEntity
  8
0
100
AcDbCircle
 62
7
  6
CONTINUOUS
 10
-11.0030407176
 20
-1.8717948312
 40
1.9341008578
100
AcDbArc
 50
102.2889354438
 51
104.1324497451
  0
ARC
  5
31F
100
AcDbEntity
  8
0
100
AcDbCircle
 62
7
  6
CONTINUOUS
 10
-10.5787773221
 20
-1.6596501139
 40
1.9340884487
100
AcDbArc
 50
102.2871227739
 51
104.1314644701
  0
ARC
  5
320
100
AcDbEntity
  8
0
100
AcDbCircle
 62
7
  6
CONTINUOUS
 10
-11.4273510529
 20
-2.083805029
 40
1.933971735
100
AcDbArc
 50
102.3066694343
 51
104.1434138248
  0
ARC
  5
321
100
AcDbEntity
  8
0
100
AcDbCircle
 62
7
  6
CONTINUOUS
 10
-11.8516532955
 20
-2.2958259487
 40
1.9338548028
100
AcDbArc
 50
102.3185367657
 51
104.1521727296
  0
ARC
  5
322
100
AcDbEntity
  8
0
100
AcDbCircle
 62
7
  6
CONTINUOUS
 10
-10.5957590768
 20
-1.5962507029
 40
1.8684618325
100
AcDbArc
 50
104.1011358474
 51
116.4979619274
  0
ARC
  5
323
100
AcDbEntity
  8
0
100
AcDbCircle
 62
7
  6
CONTINUOUS
 10
-11.0200356106
 20
-1.8083488831
 40
1.8684258883
100
AcDbArc
 50
104.102112889
 51
116.4969609952
  0
ARC
  5
324
100
AcDbEntity
  8
0
100
AcDbCircle
 62
7
  6
CONTINUOUS
 10
-11.4443887441
 20
-2.0202305958
 40
1.868161528
100
AcDbArc
 50
104.1131481847
 51
116.4961326254
  0
ARC
  5
325
100
AcDbEntity
  8
0
100
AcDbCircle
 62
7
  6
CONTINUOUS
 10
-11.8686998859
 20
-2.2322399588
 40
1.8680310617
100
AcDbArc
 50
104.1220355463
 51
116.4954948385
  0
ARC
  5
326
100
AcDbEntity
  8
0
100
AcDbCircle
 62
7
  6
CONTINUOUS
 10
-10.6603161438
 20
-1.6043217295
 40
1.8468085713
100
AcDbArc
 50
116.5642519397
 51
122.9072646858
  0
ARC
  5
327
100
AcDbEntity
  8
0
100
AcDbCircle
 62
7
  6
CONTINUOUS
 10
-11.5089976214
 20
-2.0283169537
 40
1.846499353
100
AcDbArc
 50
116.5618395529
 51
122.7782586607
  0
ARC
  5
328
100
AcDbEntity
  8
0
100
AcDbCircle
 62
7
  6
CONTINUOUS
 10
-11.08481186
 20
-1.8160754522
 40
1.8463659401
100
AcDbArc
 50
116.5612421056
 51
122.8478004123
  0
ARC
  5
329
100
AcDbEntity
  8
0
100
AcDbCircle
 62
7
  6
CONTINUOUS
 10
-11.9356577651
 20
-2.2364806631
 40
1.8418796149
100
AcDbArc
 50
112.8772704423
 51
116.5487076451
  0
ARC
  5
32A
100
AcDbEntity
  8
0
100
AcDbCircle
 62
7
  6
CONTINUOUS
 10
-11.0880108129
 20
-1.8101700286
 40
1.8396533814
100
AcDbArc
 50
114.5800184027
 51
116.5543687103
  0
ARC
  5
32B
100
AcDbEntity
  8
0
100
AcDbCircle
 62
7
  6
CONTINUOUS
 10
-11.5123992028
 20
-2.0220138141
 40
1.8393404463
100
AcDbArc
 50
114.5783249285
 51
116.5548613399
  0
ARC
  5
32C
100
AcDbEntity
  8
0
100
AcDbCircle
 62
7
  6
CONTINUOUS
 10
-10.6638979966
 20
-1.5976914912
 40
1.8392764714
100
AcDbArc
 50
114.5812189221
 51
116.5568167908
  0
ARC
  5
32D
100
AcDbEntity
  8
0
100
AcDbCircle
 62
7
  6
CONTINUOUS
 10
-10.1545155851
 20
-1.447499601
 40
1.9340700316
100
AcDbArc
 50
102.285643351
 51
104.1307555425
  0
ARC
  5
32E
100
AcDbEntity
  8
0
100
AcDbCircle
 62
7
  6
CONTINUOUS
 10
-10.1714843086
 20
-1.3841472532
 40
1.8684922479
100
AcDbArc
 50
104.1004376874
 51
116.4990945086
  0
ARC
  5
32F
100
AcDbEntity
  8
0
100
AcDbCircle
 62
7
  6
CONTINUOUS
 10
-10.2360315208
 20
-1.3922224307
 40
1.846847171
100
AcDbArc
 50
116.5655032545
 51
122.9151773455
  0
ARC
  5
330
100
AcDbEntity
  8
0
100
AcDbCircle
 62
7
  6
CONTINUOUS
 10
-10.2396546064
 20
-1.3855145426
 40
1.8392271743
100
AcDbArc
 50
114.582496764
 51
116.5580059615
  0
ARC
  5
331
100
AcDbEntity
  8
0
100
AcDbCircle
 62
7
  6
CONTINUOUS
 10
-9.7258064891
 20
-1.2556379737
 40
1.954821528
100
AcDbArc
 50
101.3441065894
 51
102.3186901455
  0
ARC
  5
332
100
AcDbEntity
  8
0
100
AcDbCircle
 62
7
  6
CONTINUOUS
 10
-9.3059643949
 20
-1.0233164695
 40
1.9341541175
100
AcDbArc
 50
102.2689879607
 51
104.1316810723
  0
ARC
  5
333
100
AcDbEntity
  8
0
100
AcDbCircle
 62
7
  6
CONTINUOUS
 10
-9.7303272508
 20
-1.2351552188
 40
1.9338458677
100
AcDbArc
 50
102.3173065615
 51
104.1516392974
  0
ARC
  5
334
100
AcDbEntity
  8
0
100
AcDbCircle
 62
7
  6
CONTINUOUS
 10
-8.8817888865
 20
-0.8108084386
 40
1.9337678536
100
AcDbArc
 50
102.3187482461
 51
104.132812348
  0
ARC
  5
335
100
AcDbEntity
  8
0
100
AcDbCircle
 62
7
  6
CONTINUOUS
 10
-8.4575888143
 20
-0.5984049048
 40
1.9334889271
100
AcDbArc
 50
102.3542650522
 51
104.1342351102
  0
ARC
  5
336
100
AcDbEntity
  8
0
100
AcDbCircle
 62
7
  6
CONTINUOUS
 10
-8.0333528768
 20
-0.386153735
 40
1.9333665257
100
AcDbArc
 50
102.3694275857
 51
104.1352926634
  0
ARC
  5
337
100
AcDbEntity
  8
0
100
AcDbCircle
 62
7
  6
CONTINUOUS
 10
-8.4744134907
 20
-0.5356594954
 40
1.8685348255
100
AcDbArc
 50
104.1037786681
 51
116.5076912454
  0
ARC
  5
338
100
AcDbEntity
  8
0
100
AcDbCircle
 62
7
  6
CONTINUOUS
 10
-8.8986784006
 20
-0.747789004
 40
1.868532213
100
AcDbArc
 50
104.1024300869
 51
116.5053397632
  0
ARC
  5
339
100
AcDbEntity
  8
0
100
AcDbCircle
 62
7
  6
CONTINUOUS
 10
-8.0501506934
 20
-0.3235237655
 40
1.8685309104
100
AcDbArc
 50
104.1048071361
 51
116.5091924334
  0
ARC
  5
33A
100
AcDbEntity
  8
0
100
AcDbCircle
 62
7
  6
CONTINUOUS
 10
-9.3229460294
 20
-0.9599109097
 40
1.8685215632
100
AcDbArc
 50
104.1014106317
 51
116.5029857824
  0
ARC
  5
33B
100
AcDbEntity
  8
0
100
AcDbCircle
 62
7
  6
CONTINUOUS
 10
-9.7473540415
 20
-1.1716518232
 40
1.8681070651
100
AcDbArc
 50
104.1214540405
 51
116.5017002346
  0
ARC
  5
33C
100
AcDbEntity
  8
0
100
AcDbCircle
 62
7
  6
CONTINUOUS
 10
-7.6903320586
 20
-0.1196158868
 40
1.8470651017
100
AcDbArc
 50
116.5777185334
 51
122.949299603
  0
ARC
  5
33D
100
AcDbEntity
  8
0
100
AcDbCircle
 62
7
  6
CONTINUOUS
 10
-8.1146041673
 20
-0.3317348128
 40
1.8470497642
100
AcDbArc
 50
116.5761746389
 51
122.9473446139
  0
ARC
  5
33E
100
AcDbEntity
  8
0
100
AcDbCircle
 62
7
  6
CONTINUOUS
 10
-8.5388829501
 20
-0.5438432925
 40
1.8470220466
100
AcDbArc
 50
116.5737028384
 51
122.9427419783
  0
ARC
  5
33F
100
AcDbEntity
  8
0
100
AcDbCircle
 62
7
  6
CONTINUOUS
 10
-8.9631676548
 20
-0.755942251
 40
1.8469831435
100
AcDbArc
 50
116.5711664944
 51
122.9363124349
  0
ARC
  5
340
100
AcDbEntity
  8
0
100
AcDbCircle
 62
7
  6
CONTINUOUS
 10
-9.811749024
 20
-1.1801198145
 40
1.846881832
100
AcDbArc
 50
116.5668508633
 51
122.9220697787
  0
ARC
  5
341
100
AcDbEntity
  8
0
100
AcDbCircle
 62
7
  6
CONTINUOUS
 10
-9.3879276314
 20
-0.9672486378
 40
1.8460225338
100
AcDbArc
 50
116.5661432858
 51
122.8412856146
  0
ARC
  5
342
100
AcDbEntity
  8
0
100
AcDbCircle
 62
7
  6
CONTINUOUS
 10
-9.3909500994
 20
-0.9616814636
 40
1.8396914213
100
AcDbArc
 50
114.5858559993
 51
116.5594927172
  0
ARC
  5
343
100
AcDbEntity
  8
0
100
AcDbCircle
 62
7
  6
CONTINUOUS
 10
-9.8154086218
 20
-1.1733431922
 40
1.8391840233
100
AcDbArc
 50
114.5837261383
 51
116.559299283
  0
ARC
  5
344
100
AcDbEntity
  8
0
100
AcDbCircle
 62
7
  6
CONTINUOUS
 10
-8.9669187998
 20
-0.7489929571
 40
1.8390899332
100
AcDbArc
 50
114.5887398031
 51
116.563488022
  0
ARC
  5
345
100
AcDbEntity
  8
0
100
AcDbCircle
 62
7
  6
CONTINUOUS
 10
-8.5426732853
 20
-0.5368202908
 40
1.8390453727
100
AcDbArc
 50
114.591063558
 51
116.5659703581
  0
ARC
  5
346
100
AcDbEntity
  8
0
100
AcDbCircle
 62
7
  6
CONTINUOUS
 10
-8.1184224917
 20
-0.3246593014
 40
1.8390135962
100
AcDbArc
 50
114.5925176225
 51
116.568404773
  0
ARC
  5
347
100
AcDbEntity
  8
0
100
AcDbCircle
 62
7
  6
CONTINUOUS
 10
-7.6941637544
 20
-0.1125152492
 40
1.8390004735
100
AcDbArc
 50
114.5948506843
 51
116.5699330318
  0
ARC
  5
348
100
AcDbEntity
  8
0
100
AcDbCircle
 62
7
  6
CONTINUOUS
 10
-2.9464774149
 20
-4.9074004143
 40
2.4016927247
100
AcDbArc
 50
279.7862461113
 51
283.44916585
  0
ARC
  5
349
100
AcDbEntity
  8
0
100
AcDbCircle
 62
7
  6
CONTINUOUS
 10
-2.9321549987
 20
-5.0070743913
 40
2.3038142592
100
AcDbArc
 50
302.8483033349
 51
309.7428536552
  0
ARC
  5
34A
100
AcDbEntity
  8
0
100
AcDbCircle
 62
7
  6
CONTINUOUS
 10
-2.9206720236
 20
-5.0115754587
 40
2.2943727887
100
AcDbArc
 50
283.427479342
 51
296.4868112238
  0
ARC
  5
34B
100
AcDbEntity
  8
0
100
AcDbCircle
 62
7
  6
CONTINUOUS
 10
-2.9159312601
 20
-5.031551133
 40
2.2744511144
100
AcDbArc
 50
302.5671543638
 51
302.8394077156
  0
ARC
  5
34C
100
AcDbEntity
  8
0
100
AcDbCircle
 62
7
  6
CONTINUOUS
 10
-2.9080365453
 20
-5.0441632701
 40
2.2595724715
100
AcDbArc
 50
296.5685790614
 51
302.5705927676
  0
ARC
  5
34D
100
AcDbEntity
  8
0
100
AcDbCircle
 62
7
  6
CONTINUOUS
 10
-7.0157849413
 20
-6.144312096
 40
1.7645678382
100
AcDbArc
 50
310.9372492977
 51
312.1555050134
  0
ARC
  5
34E
100
AcDbEntity
  8
0
100
AcDbCircle
 62
7
  6
CONTINUOUS
 10
-6.591374755
 20
-5.9323427328
 40
1.7643491119
100
AcDbArc
 50
310.9047328952
 51
312.1571305014
  0
ARC
  5
34F
100
AcDbEntity
  8
0
100
AcDbCircle
 62
7
  6
CONTINUOUS
 10
-6.1670322402
 20
-5.7202976736
 40
1.7642318912
100
AcDbArc
 50
310.8821203081
 51
312.1616390999
  0
ARC
  5
350
100
AcDbEntity
  8
0
100
AcDbCircle
 62
7
  6
CONTINUOUS
 10
-5.7387045532
 20
-5.5124528379
 40
1.7583299889
100
AcDbArc
 50
310.2126607956
 51
312.2025414411
  0
ARC
  5
351
100
AcDbEntity
  8
0
100
AcDbCircle
 62
7
  6
CONTINUOUS
 10
-7.4309686238
 20
-6.3668721001
 40
1.7507405398
100
AcDbArc
 50
310.3191423393
 51
310.9623416295
  0
ARC
  5
352
100
AcDbEntity
  8
0
100
AcDbCircle
 62
7
  6
CONTINUOUS
 10
-7.0065770069
 20
-6.154888719
 40
1.7505446311
100
AcDbArc
 50
310.3170727184
 51
310.9364053285
  0
ARC
  5
353
100
AcDbEntity
  8
0
100
AcDbCircle
 62
7
  6
CONTINUOUS
 10
-6.5821651798
 20
-5.94292925
 40
1.7503173691
100
AcDbArc
 50
310.3161498589
 51
310.9037997842
  0
ARC
  5
354
100
AcDbEntity
  8
0
100
AcDbCircle
 62
7
  6
CONTINUOUS
 10
-6.1578145413
 20
-5.7308987536
 40
1.7501838336
100
AcDbArc
 50
310.3177103687
 51
310.8811167942
  0
ARC
  5
355
100
AcDbEntity
  8
0
100
AcDbCircle
 62
7
  6
CONTINUOUS
 10
-5.7268873397
 20
-5.526319695
 40
1.7401110124
100
AcDbArc
 50
309.4811696369
 51
310.2103083509
  0
ARC
  5
356
100
AcDbEntity
  8
0
100
AcDbCircle
 62
7
  6
CONTINUOUS
 10
-5.3128387361
 20
-5.4048134709
 40
1.6624582217
100
AcDbArc
 50
289.4314845616
 51
296.5387490756
  0
ARC
  5
357
100
AcDbEntity
  8
0
100
AcDbCircle
 62
7
  6
CONTINUOUS
 10
-5.736394009
 20
-5.618744938
 40
1.6605237274
100
AcDbArc
 50
289.4118631853
 51
296.540287126
  0
ARC
  5
358
100
AcDbEntity
  8
0
100
AcDbCircle
 62
7
  6
CONTINUOUS
 10
-6.1606533149
 20
-5.830888957
 40
1.660510848
100
AcDbArc
 50
289.4145604658
 51
296.5395486996
  0
ARC
  5
359
100
AcDbEntity
  8
0
100
AcDbCircle
 62
7
  6
CONTINUOUS
 10
-6.5848993282
 20
-6.0430601261
 40
1.660467868
100
AcDbArc
 50
289.4188826348
 51
296.5418420004
  0
ARC
  5
35A
100
AcDbEntity
  8
0
100
AcDbCircle
 62
7
  6
CONTINUOUS
 10
-7.0091445225
 20
-6.255231898
 40
1.6604240225
100
AcDbArc
 50
289.4224984729
 51
296.5450787464
  0
ARC
  5
35B
100
AcDbEntity
  8
0
100
AcDbCircle
 62
7
  6
CONTINUOUS
 10
-7.008332642
 20
-6.2576014477
 40
1.657941466
100
AcDbArc
 50
296.5565749887
 51
301.0615168035
  0
ARC
  5
35C
100
AcDbEntity
  8
0
100
AcDbCircle
 62
7
  6
CONTINUOUS
 10
-6.5840394189
 20
-6.0455200636
 40
1.6578829688
100
AcDbArc
 50
296.5532447425
 51
301.0189936748
  0
ARC
  5
35D
100
AcDbEntity
  8
0
100
AcDbCircle
 62
7
  6
CONTINUOUS
 10
-6.159734833
 20
-5.833459273
 40
1.6578010164
100
AcDbArc
 50
296.5508419168
 51
300.9658658525
  0
ARC
  5
35E
100
AcDbEntity
  8
0
100
AcDbCircle
 62
7
  6
CONTINUOUS
 10
-5.7354373031
 20
-5.6213871207
 40
1.6577325266
100
AcDbArc
 50
296.5515099897
 51
300.9292443773
  0
ARC
  5
35F
100
AcDbEntity
  8
0
100
AcDbCircle
 62
7
  6
CONTINUOUS
 10
-5.3084865555
 20
-5.4143379907
 40
1.6519927502
100
AcDbArc
 50
296.5513036298
 51
299.1758163192
  0
ARC
  5
360
100
AcDbEntity
  8
RACCORDO
100
AcDbCircle
 62
253
  6
CONTINUOUS
 10
-2.8028913662
 20
-2.9430633612
 40
5.4847853939
100
AcDbArc
 50
243.2177139273
 51
243.4346088369
  0
ARC
  5
361
100
AcDbEntity
  8
RACCORDO
100
AcDbCircle
 62
7
  6
CONTINUOUS
 10
5.8585457823
 20
-23.4883892214
 40
0.2500021202
100
AcDbArc
 50
180.0018403594
 51
243.4346144876
  0
ARC
  5
362
100
AcDbEntity
  8
RACCORDO
100
AcDbCircle
 62
7
  6
CONTINUOUS
 10
7.1835287057
 20
-24.1508811906
 40
0.2500012342
100
AcDbArc
 50
243.4334738355
 51
295.9719157382
  0
ARC
  5
363
100
AcDbEntity
  8
RACCORDO
100
AcDbCircle
 62
7
  6
CONTINUOUS
 10
9.3110188947
 20
-23.1008653897
 40
0.2500003968
100
AcDbArc
 50
297.160171875
 51
0.000031534
  0
ARC
  5
364
100
AcDbEntity
  8
RACCORDO
100
AcDbCircle
 62
7
  6
CONTINUOUS
 10
9.3110190265
 20
-22.753334729
 40
0.2500002666
100
AcDbArc
 50
0.000151117
 51
63.4365832535
  0
ARC
  5
365
100
AcDbEntity
  8
RACCORDO
100
AcDbCircle
 62
7
  6
CONTINUOUS
 10
13.8443023309
 20
-14.5854482217
 40
0.2007545141
100
AcDbArc
 50
63.462403487
 51
77.7452884482
  0
ARC
  5
366
100
AcDbEntity
  8
RACCORDO
100
AcDbCircle
 62
7
  6
CONTINUOUS
 10
13.8445534464
 20
-14.5847338463
 40
0.2000031374
100
AcDbArc
 50
77.7721487441
 51
105.6158399608
  0
ARC
  5
367
100
AcDbEntity
  8
RACCORDO
100
AcDbCircle
 62
7
  6
CONTINUOUS
 10
14.0467603984
 20
-14.6858338684
 40
0.2000001325
100
AcDbArc
 50
0.0000098928
 51
63.435461796
  0
ARC
  5
368
100
AcDbEntity
  8
RACCORDO
100
AcDbCircle
 62
253
  6
CONTINUOUS
 10
3.5754065508
 20
-24.001206262
 40
0.1974249474
100
AcDbArc
 50
292.777800393
 51
299.1875851524
  0
ARC
  5
369
100
AcDbEntity
  8
RACCORDO
100
AcDbCircle
 62
7
  6
CONTINUOUS
 10
9.1072659632
 20
-21.7317180421
 40
0.1689297571
100
AcDbArc
 50
292.7698298337
 51
296.2565821811
  0
ARC
  5
36A
100
AcDbEntity
  8
RACCORDO
100
AcDbCircle
 62
7
  6
CONTINUOUS
 10
8.8536601378
 20
-23.5111136161
 40
0.0937479893
100
AcDbArc
 50
297.1567006962
 51
299.3030104151
  0
ARC
  5
36B
100
AcDbEntity
  8
0
100
AcDbCircle
 62
7
  6
CONTINUOUS
 10
-6.2474605484
 20
1.6306901657
 40
2.2769082503
100
AcDbArc
 50
110.048003665
 51
110.5541780059
  0
ARC
  5
36C
100
AcDbEntity
  8
0
100
AcDbCircle
 62
7
  6
CONTINUOUS
 10
-6.2541864408
 20
1.6481711346
 40
2.2581787015
100
AcDbArc
 50
110.5501112489
 51
116.5538737381
  0
ARC
  5
36D
100
AcDbEntity
  8
RACCORDO
100
AcDbCircle
 62
253
  6
CONTINUOUS
 10
-9.8019165683
 20
19.6679009475
 40
1.3857020372
100
AcDbArc
 50
119.48312046
 51
123.2325025892
  0
ARC
  5
36E
100
AcDbEntity
  8
RACCORDO
100
AcDbCircle
 62
253
  6
CONTINUOUS
 10
3.4848200394
 20
13.0975451564
 40
1.3229460025
100
AcDbArc
 50
119.8132578679
 51
121.4794534236
  0
ARC
  5
36F
100
AcDbEntity
  8
RACCORDO
100
AcDbCircle
 62
7
  6
CONTINUOUS
 10
-11.8590225196
 20
15.6809620048
 40
0.9116413244
100
AcDbArc
 50
284.97455442
 51
285.5921752389
  0
ARC
  5
370
100
AcDbEntity
  8
RACCORDO
100
AcDbCircle
 62
7
  6
CONTINUOUS
 10
-11.5365537746
 20
15.0326759821
 40
0.2793763471
100
AcDbArc
 50
239.4483768049
 51
243.5449277115
  0
ARC
  5
371
100
AcDbEntity
  8
RACCORDO
100
AcDbCircle
 62
7
  6
CONTINUOUS
 10
-6.1804282705
 20
24.1718951181
 40
0.2510925841
100
AcDbArc
 50
243.4673571141
 51
258.1738073875
  0
ARC
  5
372
100
AcDbEntity
  8
RACCORDO
100
AcDbCircle
 62
7
  6
CONTINUOUS
 10
7.183889894
 20
17.4897360359
 40
0.2510925841
100
AcDbArc
 50
243.4673571142
 51
258.1738073875
  0
ARC
  5
373
100
AcDbEntity
  8
RACCORDO
100
AcDbCircle
 62
7
  6
CONTINUOUS
 10
-4.0533011244
 20
25.5759594248
 40
0.2500021202
100
AcDbArc
 50
0.0018403594
 51
63.4346144876
  0
ARC
  5
374
100
AcDbEntity
  8
RACCORDO
100
AcDbCircle
 62
7
  6
CONTINUOUS
 10
-5.3906245497
 20
26.2446219158
 40
0.250001424
100
AcDbArc
 50
63.4352355626
 51
115.9737880832
  0
ARC
  5
375
100
AcDbEntity
  8
RACCORDO
100
AcDbCircle
 62
7
  6
CONTINUOUS
 10
7.9736926359
 20
19.5624630521
 40
0.2500012342
100
AcDbArc
 50
63.4334738355
 51
115.9719157382
  0
ARC
  5
376
100
AcDbEntity
  8
RACCORDO
100
AcDbCircle
 62
7
  6
CONTINUOUS
 10
5.8585439276
 20
18.4911613456
 40
0.2500003968
100
AcDbArc
 50
117.160171875
 51
180.000031534
  0
ARC
  5
377
100
AcDbEntity
  8
RACCORDO
100
AcDbCircle
 62
7
  6
CONTINUOUS
 10
-7.5057743686
 20
24.8333473497
 40
0.2500002666
100
AcDbArc
 50
180.000151117
 51
243.4365832535
  0
ARC
  5
378
100
AcDbEntity
  8
RACCORDO
100
AcDbCircle
 62
7
  6
CONTINUOUS
 10
5.8585437959
 20
18.1511882675
 40
0.2500002666
100
AcDbArc
 50
180.000151117
 51
243.4365832535
  0
ARC
  5
379
100
AcDbEntity
  8
RACCORDO
100
AcDbCircle
 62
7
  6
CONTINUOUS
 10
-4.053299175
 20
25.2284290134
 40
0.2500001466
100
AcDbArc
 50
320.5926030822
 51
0.0004114696
  0
ARC
  5
37A
100
AcDbEntity
  8
RACCORDO
100
AcDbCircle
 62
7
  6
CONTINUOUS
 10
-7.5057760225
 20
25.173320781
 40
0.2499986126
100
AcDbArc
 50
117.1565718893
 51
180.0000358743
  0
ARC
  5
37B
100
AcDbEntity
  8
RACCORDO
100
AcDbCircle
 62
7
  6
CONTINUOUS
 10
9.3110207891
 20
18.8938017039
 40
0.2499985039
100
AcDbArc
 50
359.9999730928
 51
63.4370632661
  0
ARC
  5
37C
100
AcDbEntity
  8
RACCORDO
100
AcDbCircle
 62
7
  6
CONTINUOUS
 10
14.0467554709
 20
19.9558771645
 40
0.2000050315
100
AcDbArc
 50
305.8704018406
 51
0.000962676
  0
ARC
  5
37D
100
AcDbEntity
  8
RACCORDO
100
AcDbCircle
 62
7
  6
CONTINUOUS
 10
-11.8427508445
 20
14.9583245084
 40
0.1024586929
100
AcDbArc
 50
295.1708915705
 51
296.1638934137
  0
ARC
  5
37E
100
AcDbEntity
  8
RACCORDO
100
AcDbCircle
 62
253
  6
CONTINUOUS
 10
-3.8756725966
 20
25.0824879667
 40
0.0201085158
100
AcDbArc
 50
320.5893497058
 51
322.5112512684
  0
ARC
  5
37F
100
AcDbEntity
  8
RACCORDO
100
AcDbCircle
 62
253
  6
CONTINUOUS
 10
560.8404184768
 20
-5.8191557736
 40
559.3093396114
100
AcDbArc
 50
178.1235224215
 51
178.5882181979
  0
ARC
  5
380
100
AcDbEntity
  8
RACCORDO
100
AcDbCircle
 62
253
  6
CONTINUOUS
 10
555.5279435936
 20
-5.6569978115
 40
554.3068403698
100
AcDbArc
 50
178.1101799316
 51
178.5574459429
  0
ARC
  5
381
100
AcDbEntity
  8
RACCORDO
100
AcDbCircle
 62
7
  6
CONTINUOUS
 10
542.4031124237
 20
0.9373810778
 40
554.265988792
100
AcDbArc
 50
178.1101778121
 51
178.5597545595
  0
ARC
  5
382
100
AcDbEntity
  8
RACCORDO
100
AcDbCircle
 62
253
  6
CONTINUOUS
 10
541.454630142
 20
0.8792926825
 40
553.2438503621
100
AcDbArc
 50
178.1097502461
 51
178.5578756284
  0
ARC
  5
383
100
AcDbEntity
  8
RACCORDO
100
AcDbCircle
 62
253
  6
CONTINUOUS
 10
536.0253796709
 20
1.0408353822
 40
548.1381819325
100
AcDbArc
 50
178.0894941502
 51
178.5635478017
  0
ARC
  5
384
100
AcDbEntity
  8
RACCORDO
100
AcDbCircle
 62
253
  6
CONTINUOUS
 10
536.1347404101
 20
1.0382273755
 40
548.1067753049
100
AcDbArc
 50
178.0895196249
 51
178.5543365266
  0
ARC
  5
385
100
AcDbEntity
  8
RACCORDO
100
AcDbCircle
 62
253
  6
CONTINUOUS
 10
523.4274715294
 20
-5.6119115248
 40
520.6070496099
100
AcDbArc
 50
178.0417483126
 51
181.9582516874
  0
ARC
  5
386
100
AcDbEntity
  8
RACCORDO
100
AcDbCircle
 62
253
  6
CONTINUOUS
 10
522.6152030665
 20
-5.6162271058
 40
520.4957814621
100
AcDbArc
 50
178.138392135
 51
181.9598032154
  0
ARC
  5
387
100
AcDbEntity
  8
RACCORDO
100
AcDbCircle
 62
253
  6
CONTINUOUS
 10
536.5280172979
 20
1.6495242124
 40
549.2227764905
100
AcDbArc
 50
178.1258611628
 51
180.2299539428
  0
ARC
  5
388
100
AcDbEntity
  8
RACCORDO
100
AcDbCircle
 62
253
  6
CONTINUOUS
 10
504.4141085251
 20
1.3511056219
 40
517.1063914235
100
AcDbArc
 50
181.07417296
 51
181.9233090072
  0
SPLINE
  5
389
100
AcDbEntity
  8
RACCORDO
100
AcDbSpline
 62
7
  6
CONTINUOUS
 70
0
 71
3
 72
9
 73
5
 74
3
 42
0.0000001
 43
0.0000001
 44
0.0000000001
 12
-0.0018919397
 22
-0.0771244523
 32
0.0
 13
0.0223863563
 23
-0.0738282577
 33
0.0
 40
0.0
 40
0.0
 40
0.0
 40
0.0
 40
0.2577545304
 40
1.0
 40
1.0
 40
1.0
 40
1.0
 10
-11.6877732996
 20
14.8685119919
 30
0.0
 10
-11.6879358516
 20
14.8618855996
 30
0.0
 10
-11.6877689003
 20
14.8361839126
 30
0.0
 10
-11.6841035411
 20
14.8103512582
 30
0.0
 10
-11.6785648172
 20
14.7920850283
 30
0.0
 11
-11.6877732996
 21
14.8685119919
 31
0.0
 11
-11.6876173616
 21
14.848627446
 31
0.0
 11
-11.6785648172
 21
14.7920850283
 31
0.0
  0
SPLINE
  5
38A
100
AcDbEntity
  8
RACCORDO
100
AcDbSpline
 62
7
  6
CONTINUOUS
 70
0
 71
3
 72
13
 73
9
 74
7
 42
0.0000001
 43
0.0000001
 44
0.0000000001
 12
0.0658235532
 22
1.9951482153
 32
0.0
 13
1.7386144048
 23
0.9809021829
 33
0.0
 40
0.0
 40
0.0
 40
0.0
 40
0.0
 40
0.2475997169
 40
0.3771765417
 40
0.5078237256
 40
0.6373138893
 40
0.7635662444
 40
1.0
 40
1.0
 40
1.0
 40
1.0
 10
-11.5614054088
 20
19.2157648745
 30
0.0
 10
-11.5559727778
 20
19.3804309189
 30
0.0
 10
-11.5104094463
 20
19.6309803581
 30
0.0
 10
-11.3935737191
 20
19.9484152191
 30
0.0
 10
-11.2767724525
 20
20.1806235157
 30
0.0
 10
-11.1354888272
 20
20.3962306305
 30
0.0
 10
-10.9247838113
 20
20.6473113939
 30
0.0
 10
-10.7345282661
 20
20.8030025302
 30
0.0
 10
-10.5975058883
 20
20.8803086592
 30
0.0
 11
-11.5614054088
 21
19.2157648745
 31
0.0
 11
-11.4783915415
 21
19.7030106798
 31
0.0
 11
-11.3893267579
 21
19.9458591352
 31
0.0
 11
-11.2720990522
 21
20.1788301918
 31
0.0
 11
-11.1302098592
 21
20.3948993903
 31
0.0
 11
-10.9677139247
 21
20.5875487983
 31
0.0
 11
-10.5975058883
 21
20.8803086592
 31
0.0
  0
SPLINE
  5
38B
100
AcDbEntity
  8
RACCORDO
100
AcDbSpline
 62
7
  6
CONTINUOUS
 70
0
 71
3
 72
9
 73
5
 74
3
 42
0.0000001
 43
0.0000001
 44
0.0000000001
 12
-0.0455328651
 22
-0.0229894615
 32
0.0
 13
-0.0490373462
 23
-0.014039082
 33
0.0
 40
0.0
 40
0.0
 40
0.0
 40
0.0
 40
0.2547506432
 40
1.0
 40
1.0
 40
1.0
 40
1.0
 10
1.5485239836
 20
8.2210639
 30
0.0
 10
1.5446574747
 20
8.2191117066
 30
0.0
 10
1.5293294694
 20
8.2117565449
 30
0.0
 10
1.5133509327
 20
8.2057055341
 30
0.0
 10
1.5011692491
 20
8.2022179951
 30
0.0
 11
1.5485239836
 21
8.2210639
 31
0.0
 11
1.5368056181
 21
8.2154488789
 31
0.0
 11
1.5011692491
 21
8.2022179951
 31
0.0
  0
SPLINE
  5
38C
100
AcDbEntity
  8
RACCORDO
100
AcDbSpline
 62
253
  6
CONTINUOUS
 70
0
 71
3
 72
11
 73
7
 74
5
 42
0.0000001
 43
0.0000001
 44
0.0000000001
 12
0.1028816912
 22
0.0581284283
 32
0.0
 13
0.1056922194
 23
-0.0528461097
 33
0.0
 40
0.0
 40
0.0
 40
0.0
 40
0.0
 40
0.2226024327
 40
0.4579696398
 40
0.7158399617
 40
1.0
 40
1.0
 40
1.0
 40
1.0
 10
-10.5975018971
 20
20.8803015884
 30
0.0
 10
-10.5898679922
 20
20.8846147649
 30
0.0
 10
-10.5726630193
 20
20.891043762
 30
0.0
 10
-10.5441923465
 20
20.8928703808
 30
0.0
 10
-10.5138434724
 20
20.8872121271
 30
0.0
 10
-10.4939247298
 20
20.8791611637
 30
0.0
 10
-10.4839135614
 20
20.8741555795
 30
0.0
 11
-10.5975018971
 21
20.8803015884
 31
0.0
 11
-10.5729040446
 21
20.8896217607
 31
0.0
 11
-10.5451697134
 21
20.8917088888
 31
0.0
 11
-10.5151508219
 21
20.8864741769
 31
0.0
 11
-10.4839135614
 21
20.8741555795
 31
0.0
  0
SPLINE
  5
38D
100
AcDbEntity
  8
RACCORDO
100
AcDbSpline
 62
253
  6
CONTINUOUS
 70
0
 71
3
 72
11
 73
7
 74
5
 42
0.0000001
 43
0.0000001
 44
0.0000000001
 12
-0.2830194225
 22
-0.0556721662
 32
0.0
 13
-0.2579912918
 23
0.1289956471
 33
0.0
 40
0.0
 40
0.0
 40
0.0
 40
0.0
 40
0.254764464
 40
0.5186670868
 40
0.772838446
 40
1.0
 40
1.0
 40
1.0
 40
1.0
 10
1.8051436996
 20
12.5919569613
 30
0.0
 10
1.7811092691
 20
12.5872291981
 30
0.0
 10
1.731293262
 20
12.5818541192
 30
0.0
 10
1.6567949506
 20
12.5844863389
 30
0.0
 10
1.5860502348
 20
12.5972599313
 30
0.0
 10
1.542130961
 20
12.6129450635
 30
0.0
 10
1.5225957268
 20
12.6227126807
 30
0.0
 11
1.8051436996
 21
12.5919569613
 31
0.0
 11
1.7321272115
 21
12.5836718654
 31
0.0
 11
1.6560540228
 21
12.5863657998
 31
0.0
 11
1.5839806982
 21
12.5997960756
 31
0.0
 11
1.5225957268
 21
12.6227126807
 31
0.0
  0
SPLINE
  5
38E
100
AcDbEntity
  8
RACCORDO
100
AcDbSpline
 62
253
  6
CONTINUOUS
 70
0
 71
3
 72
15
 73
11
 74
9
 42
0.0000001
 43
0.0000001
 44
0.0000000001
 12
0.0659724749
 22
1.9996621934
 32
0.0
 13
1.6738483216
 23
1.0960077789
 33
0.0
 40
0.0
 40
0.0
 40
0.0
 40
0.0
 40
0.1194149001
 40
0.2450341732
 40
0.3747354255
 40
0.5061180794
 40
0.6366618436
 40
0.7639098617
 40
0.885614054
 40
1.0
 40
1.0
 40
1.0
 40
1.0
 10
-11.488169047
 20
19.1280950677
 30
0.0
 10
-11.4855430149
 20
19.2076915547
 30
0.0
 10
-11.4685332047
 20
19.3707752905
 30
0.0
 10
-11.4124320162
 20
19.6148528659
 30
0.0
 10
-11.3266698972
 20
19.8586328239
 30
0.0
 10
-11.2138356638
 20
20.0947334714
 30
0.0
 10
-11.0773250339
 20
20.3160728124
 30
0.0
 10
-10.9212129604
 20
20.5159915369
 30
0.0
 10
-10.7502206932
 20
20.688493219
 30
0.0
 10
-10.6251552563
 20
20.7851870523
 30
0.0
 10
-10.5613336818
 20
20.8269763478
 30
0.0
 11
-11.488169047
 21
19.1280950677
 31
0.0
 11
-11.4642913338
 21
19.3658182805
 31
0.0
 11
-11.4085888763
 21
19.6109007232
 31
0.0
 11
-11.3227684103
 21
19.8557986517
 31
0.0
 11
-11.2094649804
 21
20.092990021
 31
0.0
 11
-11.0721631326
 21
20.3151747334
 31
0.0
 11
-10.9150788884
 21
20.5155278445
 31
0.0
 11
-10.7430674456
 21
20.6878767918
 31
0.0
 11
-10.5613336818
 21
20.8269763478
 31
0.0
  0
SPLINE
  5
38F
100
AcDbEntity
  8
RACCORDO
100
AcDbSpline
 62
7
  6
CONTINUOUS
 70
0
 71
3
 72
8
 73
4
 74
2
 42
0.0000001
 43
0.0000001
 44
0.0000000001
 12
-0.0548327168
 22
0.0324052546
 32
0.0
 13
-0.0475922955
 23
0.0423284865
 33
0.0
 40
0.0
 40
0.0
 40
0.0
 40
0.0
 40
1.0
 40
1.0
 40
1.0
 40
1.0
 10
1.5011692491
 20
8.2022179951
 30
0.0
 10
1.4828916768
 20
8.2130197467
 30
0.0
 10
1.4657494614
 20
8.2258800547
 30
0.0
 10
1.4498853629
 20
8.2399895502
 30
0.0
 11
1.5011692491
 21
8.2022179951
 31
0.0
 11
1.4498853629
 21
8.2399895502
 31
0.0
  0
SPLINE
  5
390
100
AcDbEntity
  8
RACCORDO
100
AcDbSpline
 62
7
  6
CONTINUOUS
 70
0
 71
3
 72
9
 73
5
 74
3
 42
0.0000001
 43
0.0000001
 44
0.0000000001
 12
-0.0585360217
 22
0.0520618133
 32
0.0
 13
-0.0475331441
 23
0.0622695628
 33
0.0
 40
0.0
 40
0.0
 40
0.0
 40
0.0
 40
0.2525355785
 40
1.0
 40
1.0
 40
1.0
 40
1.0
 10
1.4498853629
 20
8.2399895502
 30
0.0
 10
1.4449578868
 20
8.2443720369
 30
0.0
 10
1.4259082009
 20
8.2622415164
 30
0.0
 10
1.4086238701
 20
8.2819725864
 30
0.0
 10
1.3967807588
 20
8.2974873473
 30
0.0
 11
1.4498853629
 21
8.2399895502
 31
0.0
 11
1.4354490241
 21
8.2535161171
 31
0.0
 11
1.3967807588
 21
8.2974873473
 31
0.0
  0
SPLINE
  5
391
100
AcDbEntity
  8
RACCORDO
100
AcDbSpline
 62
253
  6
CONTINUOUS
 70
0
 71
3
 72
10
 73
6
 74
4
 42
0.0000001
 43
0.0000001
 44
0.0000000001
 12
-0.0956482644
 22
0.2254506376
 32
0.0
 13
-0.2190462586
 23
0.1095231349
 33
0.0
 40
0.0
 40
0.0
 40
0.0
 40
0.0
 40
0.527199412
 40
0.775504033
 40
1.0
 40
1.0
 40
1.0
 40
1.0
 10
2.6845138381
 20
14.1865686073
 30
0.0
 10
2.6677052686
 20
14.2261877552
 30
0.0
 10
2.633844642
 20
14.2812991762
 30
0.0
 10
2.575598983
 20
14.3388543272
 30
0.0
 10
2.5432428799
 20
14.3605773587
 30
0.0
 10
2.5268512127
 20
14.3687731927
 30
0.0
 11
2.6845138381
 21
14.1865686073
 31
0.0
 11
2.6164408395
 21
14.2962769062
 31
0.0
 11
2.5728835008
 21
14.3387106829
 31
0.0
 11
2.5268512127
 21
14.3687731927
 31
0.0
  0
SPLINE
  5
392
100
AcDbEntity
  8
RACCORDO
100
AcDbSpline
 62
253
  6
CONTINUOUS
 70
0
 71
3
 72
15
 73
11
 74
9
 42
0.0000001
 43
0.0000001
 44
0.0000000001
 12
-1.8213244136
 22
-1.0275660248
 32
0.0
 13
-0.068954933
 23
-2.0900621455
 33
0.0
 40
0.0
 40
0.0
 40
0.0
 40
0.0
 40
0.1118379243
 40
0.2320159223
 40
0.3587165354
 40
0.4895581921
 40
0.621841726
 40
0.7527616401
 40
0.8796096139
 40
1.0
 40
1.0
 40
1.0
 40
1.0
 10
2.5268512125
 20
14.3687731926
 30
0.0
 10
2.4589534985
 20
14.3304662422
 30
0.0
 10
2.3250213461
 20
14.2383720593
 30
0.0
 10
2.1410973531
 20
14.0679408196
 30
0.0
 10
1.9719269036
 20
13.8653069973
 30
0.0
 10
1.8231454616
 20
13.6372157587
 30
0.0
 10
1.6996467697
 20
13.3912263793
 30
0.0
 10
1.6055404055
 20
13.1354925294
 30
0.0
 10
1.5439521106
 20
12.878566633
 30
0.0
 10
1.5253628971
 20
12.7065871436
 30
0.0
 10
1.5225957268
 20
12.6227126807
 30
0.0
 11
2.5268512125
 21
14.3687731926
 31
0.0
 11
2.3333142239
 21
14.2374677008
 31
0.0
 11
2.1482358274
 21
14.0674506644
 31
0.0
 11
1.9779086036
 21
13.864496376
 31
0.0
 11
1.8281361948
 21
13.6355118105
 31
0.0
 11
1.7040159817
 21
13.3882892129
 31
0.0
 11
1.6097712971
 21
13.131242082
 31
0.0
 11
1.5486064308
 21
12.8731257156
 31
0.0
 11
1.5225957268
 21
12.6227126807
 31
0.0
  0
SPLINE
  5
393
100
AcDbEntity
  8
RACCORDO
100
AcDbSpline
 62
253
  6
CONTINUOUS
 70
0
 71
3
 72
11
 73
7
 74
5
 42
0.0000001
 43
0.0000001
 44
0.0000000001
 12
-0.0039319102
 22
-0.1199193187
 32
0.0
 13
0.107316737
 23
-0.053658372
 33
0.0
 40
0.0
 40
0.0
 40
0.0
 40
0.0
 40
0.2010920437
 40
0.4266530287
 40
0.6918365394
 40
1.0
 40
1.0
 40
1.0
 40
1.0
 10
-11.5613939954
 20
19.2157644985
 30
0.0
 10
-11.561657554
 20
19.2077262249
 30
0.0
 10
-11.5583500774
 20
19.1904056636
 30
0.0
 10
-11.5431062628
 20
19.1667537159
 30
0.0
 10
-11.5190454179
 20
19.1453298547
 30
0.0
 10
-11.4991927461
 20
19.1336069174
 30
0.0
 10
-11.4881690471
 20
19.1280950675
 30
0.0
 11
-11.5613939954
 21
19.2157644985
 31
0.0
 11
-11.5571861509
 21
19.1920064725
 31
0.0
 11
-11.5431412629
 21
19.1688724594
 31
0.0
 11
-11.5197868425
 21
19.1472637104
 31
0.0
 11
-11.4881690471
 21
19.1280950675
 31
0.0
  0
SPLINE
  5
394
100
AcDbEntity
  8
RACCORDO
100
AcDbSpline
 62
7
  6
CONTINUOUS
 70
0
 71
3
 72
9
 73
5
 74
3
 42
0.0000001
 43
0.0000001
 44
0.0000000001
 12
-0.1127346393
 22
-0.1254393549
 32
0.0
 13
-0.1505524866
 23
-0.0760136792
 33
0.0
 40
0.0
 40
0.0
 40
0.0
 40
0.0
 40
0.5060508573
 40
1.0
 40
1.0
 40
1.0
 40
1.0
 10
1.6799289363
 20
8.3256673166
 30
0.0
 10
1.6609124494
 20
8.3045077523
 30
0.0
 10
1.6203441766
 20
8.2652763494
 30
0.0
 10
1.5733124074
 20
8.2335795305
 30
0.0
 10
1.5485239836
 20
8.2210639
 30
0.0
 11
1.6799289363
 21
8.3256673166
 31
0.0
 11
1.6181980105
 21
8.2667310947
 31
0.0
 11
1.5485239836
 21
8.2210639
 31
0.0
  0
SPLINE
  5
395
100
AcDbEntity
  8
RACCORDO
100
AcDbSpline
 62
7
  6
CONTINUOUS
 70
0
 71
3
 72
10
 73
6
 74
4
 42
0.0000001
 43
0.0000001
 44
0.0000000001
 12
0.0548748944
 22
-0.0113001785
 32
0.0
 13
0.0541289649
 23
0.014456944
 33
0.0
 40
0.0
 40
0.0
 40
0.0
 40
0.0
 40
0.1782256531
 40
0.4056993186
 40
1.0
 40
1.0
 40
1.0
 40
1.0
 10
-11.6785648172
 20
14.7920850283
 30
0.0
 10
-11.6753047792
 20
14.791413701
 30
0.0
 10
-11.6676372331
 20
14.791249136
 30
0.0
 10
-11.6491132318
 20
14.7936282995
 30
0.0
 10
-11.6341864387
 20
14.7974154806
 30
0.0
 10
-11.6234634785
 20
14.8002794045
 30
0.0
 11
-11.6785648172
 21
14.7920850283
 31
0.0
 11
-11.6685974058
 21
14.7914871493
 31
0.0
 11
-11.6559309976
 21
14.7928959342
 31
0.0
 11
-11.6234634785
 21
14.8002794045
 31
0.0
  0
SPLINE
  5
396
100
AcDbEntity
  8
0
100
AcDbSpline
 62
7
  6
CONTINUOUS
 70
0
 71
3
 72
9
 73
5
 74
3
 42
0.0000001
 43
0.0000001
 44
0.0000000001
 12
0.3610805482
 22
0.1806050993
 32
0.0
 13
0.3077673104
 23
0.2612980039
 33
0.0
 40
0.0
 40
0.0
 40
0.0
 40
0.0
 40
0.2487796092
 40
1.0
 40
1.0
 40
1.0
 40
1.0
 10
-8.3310735827
 20
-8.7726075311
 30
0.0
 10
-8.3011304235
 20
-8.7576305757
 30
0.0
 10
-8.182611845
 20
-8.6938003697
 30
0.0
 10
-8.071985166
 20
-8.6154334118
 30
0.0
 10
-7.9949181396
 20
-8.5500026156
 30
0.0
 11
-8.3310735827
 21
-8.7726075311
 31
0.0
 11
-8.2426488521
 21
-8.7249715699
 31
0.0
 11
-7.9949181396
 21
-8.5500026156
 31
0.0
  0
SPLINE
  5
397
100
AcDbEntity
  8
0
100
AcDbSpline
 62
7
  6
CONTINUOUS
 70
0
 71
3
 72
23
 73
19
 74
17
 42
0.0000001
 43
0.0000001
 44
0.0000000001
 12
6.8758248429
 22
6.2283482241
 32
0.0
 13
-8.3641490385
 23
4.0137637864
 33
0.0
 40
0.0
 40
0.0
 40
0.0
 40
0.0
 40
0.044813193
 40
0.0925426158
 40
0.1439712971
 40
0.1994629677
 40
0.2590150916
 40
0.3223283672
 40
0.3888761291
 40
0.4579648756
 40
0.528784977
 40
0.6004533289
 40
0.6720535273
 40
0.7426788701
 40
0.8114760495
 40
0.8776794274
 40
0.940668614
 40
1.0
 40
1.0
 40
1.0
 40
1.0
 10
-7.952437227
 20
-8.5127426872
 30
0.0
 10
-7.8497280052
 20
-8.4197052969
 30
0.0
 10
-7.6598827209
 20
-8.201897957
 30
0.0
 10
-7.4416458108
 20
-7.8108561074
 30
0.0
 10
-7.2859744195
 20
-7.3562927703
 30
0.0
 10
-7.1954265544
 20
-6.8477586778
 30
0.0
 10
-7.171339568
 20
-6.2953094134
 30
0.0
 10
-7.2141225221
 20
-5.7099390305
 30
0.0
 10
-7.3229769997
 20
-5.1033604655
 30
0.0
 10
-7.495862991
 20
-4.4877961953
 30
0.0
 10
-7.7294810345
 20
-3.8757056532
 30
0.0
 10
-8.0193142044
 20
-3.2795218641
 30
0.0
 10
-8.3597093826
 20
-2.7113828813
 30
0.0
 10
-8.7440026063
 20
-2.1828514412
 30
0.0
 10
-9.1646633372
 20
-1.7047032654
 30
0.0
 10
-9.6135101849
 20
-1.2866202769
 30
0.0
 10
-10.0817041321
 20
-0.9372393472
 30
0.0
 10
-10.4112512157
 20
-0.7489171129
 30
0.0
 10
-10.5766700675
 20
-0.6695363901
 30
0.0
 11
-7.952437227
 21
-8.5127426872
 31
0.0
 11
-7.6774879776
 21
-8.2008946915
 31
0.0
 11
-7.4589525396
 21
-7.8157758527
 31
0.0
 11
-7.301509778
 21
-7.3653790979
 31
0.0
 11
-7.2085792048
 21
-6.8590202676
 31
0.0
 11
-7.182265314
 21
-6.3071611568
 31
0.0
 11
-7.2233090944
 21
-5.7212172585
 31
0.0
 11
-7.3310635541
 21
-5.1133062236
 31
0.0
 11
-7.5035147882
 21
-4.495980357
 31
0.0
 11
-7.7373310587
 21
-3.8819695009
 31
0.0
 11
-8.0279254727
 21
-3.2839418192
 31
0.0
 11
-8.3695396446
 21
-2.7142563136
 31
0.0
 11
-8.7553691964
 21
-2.1846867492
 31
0.0
 11
-9.1777270023
 21
-1.7061637146
 31
0.0
 11
-9.6281399822
 21
-1.2885991846
 31
0.0
 11
-10.0976210461
 21
-0.9406347045
 31
0.0
 11
-10.5766700675
 21
-0.6695363901
 31
0.0
  0
SPLINE
  5
398
100
AcDbEntity
  8
0
100
AcDbSpline
 62
7
  6
CONTINUOUS
 70
0
 71
3
 72
9
 73
5
 74
3
 42
0.0000001
 43
0.0000001
 44
0.0000000001
 12
0.5001460177
 22
-0.2500730088
 32
0.0
 13
0.5455614883
 23
-0.1226589225
 33
0.0
 40
0.0
 40
0.0
 40
0.0
 40
0.0
 40
0.2606317752
 40
1.0
 40
1.0
 40
1.0
 40
1.0
 10
-12.3233598494
 20
-8.5018072786
 30
0.0
 10
-12.2799085346
 20
-8.523532936
 30
0.0
 10
-12.1110336842
 20
-8.6023962933
 30
0.0
 10
-11.9330843053
 20
-8.6626434125
 30
0.0
 10
-11.7986273623
 20
-8.6928734491
 30
0.0
 11
-12.3233598494
 21
-8.5018072786
 31
0.0
 11
-12.1912638075
 21
-8.5633769486
 31
0.0
 11
-11.7986273623
 21
-8.6928734491
 31
0.0
  0
SPLINE
  5
399
100
AcDbEntity
  8
0
100
AcDbSpline
 62
7
  6
CONTINUOUS
 70
0
 71
3
 72
9
 73
5
 74
3
 42
0.0000001
 43
0.0000001
 44
0.0000000001
 12
0.3611235712
 22
0.1806102525
 32
0.0
 13
0.3078007895
 23
0.2613215854
 33
0.0
 40
0.0
 40
0.0
 40
0.0
 40
0.0
 40
0.2487790705
 40
1.0
 40
1.0
 40
1.0
 40
1.0
 10
-7.9068614153
 20
-8.5605015489
 30
0.0
 10
-7.8769147532
 20
-8.5455241987
 30
0.0
 10
-7.758382044
 20
-8.4816915195
 30
0.0
 10
-7.647742759
 20
-8.4033182687
 30
0.0
 10
-7.5706672939
 20
-8.3378815206
 30
0.0
 11
-7.9068614153
 21
-8.5605015489
 31
0.0
 11
-7.8184263709
 21
-8.5128637986
 31
0.0
 11
-7.5706672939
 21
-8.3378815206
 31
0.0
  0
SPLINE
  5
39A
100
AcDbEntity
  8
0
100
AcDbSpline
 62
7
  6
CONTINUOUS
 70
0
 71
3
 72
23
 73
19
 74
17
 42
0.0000001
 43
0.0000001
 44
0.0000000001
 12
6.8762381269
 22
6.2280360166
 32
0.0
 13
-8.3642362337
 23
4.0138056294
 33
0.0
 40
0.0
 40
0.0
 40
0.0
 40
0.0
 40
0.044813096
 40
0.0925420995
 40
0.143970218
 40
0.1994613072
 40
0.2590129442
 40
0.3223258575
 40
0.3888734268
 40
0.4579619962
 40
0.5287825079
 40
0.6004514902
 40
0.6720521283
 40
0.7426778214
 40
0.8114752992
 40
0.8776789821
 40
0.9406683988
 40
1.0
 40
1.0
 40
1.0
 40
1.0
 10
-7.5282452867
 20
-8.3006756698
 30
0.0
 10
-7.4255301135
 20
-8.2076431444
 30
0.0
 10
-7.2356725023
 20
-7.9898443631
 30
0.0
 10
-7.0174192027
 20
-7.5988098351
 30
0.0
 10
-6.8617330353
 20
-7.144251212
 30
0.0
 10
-6.7711721414
 20
-6.63571896
 30
0.0
 10
-6.747073719
 20
-6.0832687744
 30
0.0
 10
-6.7898469616
 20
-5.4978947055
 30
0.0
 10
-6.8986938517
 20
-4.8913105128
 30
0.0
 10
-7.0715740589
 20
-4.2757375191
 30
0.0
 10
-7.3051898707
 20
-3.6636359088
 30
0.0
 10
-7.5950229155
 20
-3.0674392533
 30
0.0
 10
-7.9354202267
 20
-2.4992883314
 30
0.0
 10
-8.3197164835
 20
-1.9707464894
 30
0.0
 10
-8.7403813929
 20
-1.49258918
 30
0.0
 10
-9.1892334039
 20
-1.0744985343
 30
0.0
 10
-9.6574332374
 20
-0.7251113809
 30
0.0
 10
-9.9869848226
 20
-0.536786194
 30
0.0
 10
-10.1524059988
 20
-0.4574043557
 30
0.0
 11
-7.5282452867
 21
-8.3006756698
 31
0.0
 11
-7.253277956
 21
-7.9888390374
 31
0.0
 11
-7.0347265347
 21
-7.6037284338
 31
0.0
 11
-6.8772692241
 21
-7.1533370281
 31
0.0
 11
-6.7843255473
 21
-6.6469806309
 31
0.0
 11
-6.7580000666
 21
-6.095120828
 31
0.0
 11
-6.7990340154
 21
-5.5091734728
 31
0.0
 11
-6.9067807198
 21
-4.9012563414
 31
0.0
 11
-7.0792257991
 21
-4.2839235231
 31
0.0
 11
-7.313039882
 21
-3.6699004323
 31
0.0
 11
-7.6036348626
 21
-3.071858817
 31
0.0
 11
-7.9452508873
 21
-2.5021615904
 31
0.0
 11
-8.331083429
 21
-1.9725817325
 31
0.0
 11
-8.7534453049
 21
-1.4940497239
 31
0.0
 11
-9.2038636244
 21
-1.0764773733
 31
0.0
 11
-9.673350475
 21
-0.7285068845
 31
0.0
 11
-10.1524059988
 21
-0.4574043557
 31
0.0
  0
SPLINE
  5
39B
100
AcDbEntity
  8
0
100
AcDbSpline
 62
7
  6
CONTINUOUS
 70
0
 71
3
 72
9
 73
5
 74
3
 42
0.0000001
 43
0.0000001
 44
0.0000000001
 12
0.3611783856
 22
0.1806021967
 32
0.0
 13
0.3078475547
 23
0.2613366846
 33
0.0
 40
0.0
 40
0.0
 40
0.0
 40
0.0
 40
0.2487790872
 40
1.0
 40
1.0
 40
1.0
 40
1.0
 10
-7.482711909
 20
-8.3484267488
 30
0.0
 10
-7.4527606993
 20
-8.3334500656
 30
0.0
 10
-7.3342097917
 20
-8.2696192114
 30
0.0
 10
-7.2235534172
 20
-8.1912432153
 30
0.0
 10
-7.1464662435
 20
-8.1258026877
 30
0.0
 11
-7.482711909
 21
-8.3484267488
 31
0.0
 11
-7.394263327
 21
-8.3007902884
 31
0.0
 11
-7.1464662435
 21
-8.1258026877
 31
0.0
  0
SPLINE
  5
39C
100
AcDbEntity
  8
0
100
AcDbSpline
 62
7
  6
CONTINUOUS
 70
0
 71
3
 72
23
 73
19
 74
17
 42
0.0000001
 43
0.0000001
 44
0.0000000001
 12
6.8768386772
 22
6.2275826729
 32
0.0
 13
-8.3643631833
 23
4.0138665496
 33
0.0
 40
0.0
 40
0.0
 40
0.0
 40
0.0
 40
0.0448129418
 40
0.0925413353
 40
0.1439686125
 40
0.1994588241
 40
0.259009716
 40
0.3223220684
 40
0.3888692773
 40
0.4579578497
 40
0.5287791045
 40
0.600448994
 40
0.6720502677
 40
0.7426764367
 40
0.8114743096
 40
0.8776784045
 40
0.9406681087
 40
1.0
 40
1.0
 40
1.0
 40
1.0
 10
-7.1040861618
 20
-8.0886383432
 30
0.0
 10
-7.0013623713
 20
-7.9956129099
 30
0.0
 10
-6.8114869436
 20
-7.7778265418
 30
0.0
 10
-6.5932096964
 20
-7.3868028542
 30
0.0
 10
-6.4375021021
 20
-6.9322512283
 30
0.0
 10
-6.346922206
 20
-6.4237219523
 30
0.0
 10
-6.3228070437
 20
-5.8712707372
 30
0.0
 10
-6.3655660563
 20
-5.2858917696
 30
0.0
 10
-6.4744016192
 20
-4.6792988631
 30
0.0
 10
-6.6472739604
 20
-4.0637122679
 30
0.0
 10
-6.8808867574
 20
-3.4515933234
 30
0.0
 10
-7.170720093
 20
-2.8553777088
 30
0.0
 10
-7.511120451
 20
-2.2872095531
 30
0.0
 10
-7.8954211372
 20
-1.7586528723
 30
0.0
 10
-8.3160919593
 20
-1.2804825509
 30
0.0
 10
-8.7649513145
 20
-0.8623811117
 30
0.0
 10
-9.2331594672
 20
-0.5129850974
 30
0.0
 10
-9.5627174344
 20
-0.3246557526
 30
0.0
 10
-9.72814193
 20
-0.2452723214
 30
0.0
 11
-7.1040861618
 21
-8.0886383432
 31
0.0
 11
-6.8290926579
 21
-7.7768182857
 31
0.0
 11
-6.6105179063
 21
-7.3917197031
 31
0.0
 11
-6.453039468
 21
-6.9413362806
 31
0.0
 11
-6.3600767027
 21
-6.4349837209
 31
0.0
 11
-6.3337342712
 21
-5.8831232531
 31
0.0
 11
-6.3747537742
 21
-5.2971711655
 31
0.0
 11
-6.4824888305
 21
-4.6892458492
 31
0.0
 11
-6.6549256745
 21
-4.0719006009
 31
0.0
 11
-6.8887370338
 21
-3.4578584254
 31
0.0
 11
-7.1793329726
 21
-2.859796698
 31
0.0
 11
-7.5209517629
 21
-2.290082499
 31
0.0
 11
-7.9067885889
 21
-1.7604879945
 31
0.0
 11
-8.3291562217
 21
-1.2819432566
 31
0.0
 11
-8.7795821691
 21
-0.8643598009
 31
0.0
 11
-9.2490771136
 21
-0.5163808564
 31
0.0
 11
-9.72814193
 21
-0.2452723214
 31
0.0
  0
SPLINE
  5
39D
100
AcDbEntity
  8
0
100
AcDbSpline
 62
7
  6
CONTINUOUS
 70
0
 71
3
 72
9
 73
5
 74
3
 42
0.0000001
 43
0.0000001
 44
0.0000000001
 12
0.3612167078
 22
0.1805747707
 32
0.0
 13
0.3078863599
 23
0.2613249839
 33
0.0
 40
0.0
 40
0.0
 40
0.0
 40
0.0
 40
0.2487801691
 40
1.0
 40
1.0
 40
1.0
 40
1.0
 10
-7.0586000879
 20
-8.1363705189
 30
0.0
 10
-7.02864557
 20
-8.1213960449
 30
0.0
 10
-6.9100816468
 20
-8.0575738876
 30
0.0
 10
-6.7994117879
 20
-7.9792038348
 30
0.0
 10
-6.7223150082
 20
-7.9137663313
 30
0.0
 11
-7.0586000879
 21
-8.1363705189
 31
0.0
 11
-6.9701414403
 21
-8.0887402786
 31
0.0
 11
-6.7223150082
 21
-7.9137663313
 31
0.0
  0
SPLINE
  5
39E
100
AcDbEntity
  8
0
100
AcDbSpline
 62
7
  6
CONTINUOUS
 70
0
 71
3
 72
23
 73
19
 74
17
 42
0.0000001
 43
0.0000001
 44
0.0000000001
 12
6.8776855569
 22
6.2269438259
 32
0.0
 13
-8.3645425644
 23
4.0139526305
 33
0.0
 40
0.0
 40
0.0
 40
0.0
 40
0.0
 40
0.0448125226
 40
0.0925399816
 40
0.1439660508
 40
0.1994550433
 40
0.2590049082
 40
0.3223165102
 40
0.3888632013
 40
0.4579521664
 40
0.5287744026
 40
0.6004452976
 40
0.6720474116
 40
0.7426742704
 40
0.8114727642
 40
0.8776774902
 40
0.9406676588
 40
1.0
 40
1.0
 40
1.0
 40
1.0
 10
-6.6799702052
 20
-7.8766402923
 30
0.0
 10
-6.5772347253
 20
-7.7836252719
 30
0.0
 10
-6.3873348894
 20
-7.5658569566
 30
0.0
 10
-6.169023649
 20
-7.1748497534
 30
0.0
 10
-6.0132855475
 20
-6.7203083013
 30
0.0
 10
-5.9226783617
 20
-6.2117832337
 30
0.0
 10
-5.898539222
 20
-5.6593302875
 30
0.0
 10
-5.9412780189
 20
-5.073944216
 30
0.0
 10
-6.0500973347
 20
-4.4673376106
 30
0.0
 10
-6.2229593688
 20
-3.8517310183
 30
0.0
 10
-6.4565674257
 20
-3.2395872629
 30
0.0
 10
-6.746400986
 20
-2.6433461445
 30
0.0
 10
-7.0868048369
 20
-2.0751543106
 30
0.0
 10
-7.471111764
 20
-1.546576555
 30
0.0
 10
-7.8917910583
 20
-1.0683874244
 30
0.0
 10
-8.340661091
 20
-0.6502702785
 30
0.0
 10
-8.8088813294
 20
-0.3008614228
 30
0.0
 10
-9.1384485637
 20
-0.1125260226
 30
0.0
 10
-9.3038778613
 20
-0.033140287
 30
0.0
 11
-6.6799702052
 21
-7.8766402923
 31
0.0
 11
-6.4049410209
 21
-7.5648450014
 31
0.0
 11
-6.1863332211
 21
-7.1797642276
 31
0.0
 11
-6.0288246016
 21
-6.7293923935
 31
0.0
 11
-5.9358344382
 21
-6.223045139
 31
0.0
 11
-5.9094677369
 21
-5.6711835071
 31
0.0
 11
-5.9504666461
 21
-5.0852243296
 31
0.0
 11
-6.0581849551
 21
-4.4772874772
 31
0.0
 11
-6.2306113303
 21
-3.85992125
 31
0.0
 11
-6.4644184596
 21
-3.2458526423
 31
0.0
 11
-6.7550147295
 21
-2.647764851
 31
0.0
 11
-7.0966369799
 21
-2.078027024
 31
0.0
 11
-7.4824798314
 21
-1.5484116068
 31
0.0
 11
-7.904855859
 21
-1.069848337
 31
0.0
 11
-8.355292833
 21
-0.6522487869
 31
0.0
 11
-8.8247996066
 21
-0.3042575195
 31
0.0
 11
-9.3038778613
 21
-0.033140287
 31
0.0
  0
SPLINE
  5
39F
100
AcDbEntity
  8
0
100
AcDbSpline
 62
7
  6
CONTINUOUS
 70
0
 71
3
 72
9
 73
5
 74
3
 42
0.0000001
 43
0.0000001
 44
0.0000000001
 12
0.3612948772
 22
0.1805569744
 32
0.0
 13
0.3079554019
 23
0.2613393957
 33
0.0
 40
0.0
 40
0.0
 40
0.0
 40
0.0
 40
0.2487815066
 40
1.0
 40
1.0
 40
1.0
 40
1.0
 10
-6.6345215249
 20
-7.9243307792
 30
0.0
 10
-6.6045603636
 20
-7.9093577005
 30
0.0
 10
-6.4859703884
 20
-7.8455403348
 30
0.0
 10
-6.3752754327
 20
-7.7671690663
 30
0.0
 10
-6.2981615017
 20
-7.7017280706
 30
0.0
 11
-6.6345215249
 21
-7.9243307792
 31
0.0
 11
-6.5460430186
 21
-7.8767037661
 31
0.0
 11
-6.2981615017
 21
-7.7017280706
 31
0.0
  0
SPLINE
  5
3A0
100
AcDbEntity
  8
0
100
AcDbSpline
 62
7
  6
CONTINUOUS
 70
0
 71
3
 72
23
 73
19
 74
17
 42
0.0000001
 43
0.0000001
 44
0.0000000001
 12
6.8778740899
 22
6.2268000586
 32
0.0
 13
-8.3645815768
 23
4.0139713517
 33
0.0
 40
0.0
 40
0.0
 40
0.0
 40
0.0
 40
0.0448125535
 40
0.0925399535
 40
0.1439658936
 40
0.1994546792
 40
0.2590042244
 40
0.322315395
 40
0.3888614761
 40
0.4579507406
 40
0.5287735693
 40
0.6004449241
 40
0.6720474369
 40
0.7426745756
 40
0.8114731966
 40
0.8776779355
 40
0.9406678358
 40
1.0
 40
1.0
 40
1.0
 40
1.0
 10
-6.2557383424
 20
-7.6645373946
 30
0.0
 10
-6.1529999755
 20
-7.5715244577
 30
0.0
 10
-5.963094581
 20
-7.3537591488
 30
0.0
 10
-5.7447754568
 20
-6.9627544084
 30
0.0
 10
-5.5890309146
 20
-6.5082139692
 30
0.0
 10
-5.498418279
 20
-5.9996894425
 30
0.0
 10
-5.4742744474
 20
-5.4472370466
 30
0.0
 10
-5.5170089688
 20
-4.8618521446
 30
0.0
 10
-5.6258238916
 20
-4.255244145
 30
0.0
 10
-5.7986840792
 20
-3.6396329958
 30
0.0
 10
-6.0322916983
 20
-3.0274813081
 30
0.0
 10
-6.3221268819
 20
-2.4312325142
 30
0.0
 10
-6.6625326659
 20
-1.8630341133
 30
0.0
 10
-7.0468421112
 20
-1.3344513214
 30
0.0
 10
-7.4675235982
 20
-0.8562584048
 30
0.0
 10
-7.9163954586
 20
-0.4381395998
 30
0.0
 10
-8.3846165509
 20
-0.0887295721
 30
0.0
 10
-8.7141842168
 20
0.0996058783
 30
0.0
 10
-8.8796137926
 20
0.1789917474
 30
0.0
 11
-6.2557383424
 21
-7.6645373946
 31
0.0
 11
-5.9807008173
 21
-7.3527464936
 31
0.0
 11
-5.7620854049
 21
-6.9676682964
 31
0.0
 11
-5.6045702794
 21
-6.517297648
 31
0.0
 11
-5.5115746143
 21
-6.0109509148
 31
0.0
 11
-5.4852031763
 21
-5.4590898985
 31
0.0
 11
-5.5261976766
 21
-4.8731316785
 31
0.0
 11
-5.6339112385
 21
-4.2651968083
 31
0.0
 11
-5.8063358666
 21
-3.647824105
 31
0.0
 11
-6.0401432336
 21
-3.0337464271
 31
0.0
 11
-6.3307408437
 21
-2.4356510957
 31
0.0
 11
-6.6723652101
 21
-1.8659066113
 31
0.0
 11
-7.0582105602
 21
-1.3362860192
 31
0.0
 11
-7.4805888179
 21
-0.8577191734
 31
0.0
 11
-7.9310278739
 21
-0.4401174793
 31
0.0
 11
-8.4005347062
 21
-0.0921258946
 31
0.0
 11
-8.8796137926
 21
0.1789917474
 31
0.0
  0
SPLINE
  5
3A1
100
AcDbEntity
  8
0
100
AcDbSpline
 62
7
  6
CONTINUOUS
 70
0
 71
3
 72
26
 73
22
 74
20
 42
0.0000001
 43
0.0000001
 44
0.0000000001
 12
8.98144387
 22
-4.2367237789
 32
0.0
 13
-9.9147319293
 23
0.5605828563
 33
0.0
 40
0.0
 40
0.0
 40
0.0
 40
0.0
 40
0.0627387379
 40
0.130186277
 40
0.2015457505
 40
0.2756841573
 40
0.3512676301
 40
0.4268565928
 40
0.5010092446
 40
0.5723782965
 40
0.6398095165
 40
0.7024504089
 40
0.759884252
 40
0.8122834
 40
0.836892897
 40
0.8606499061
 40
0.883789003
 40
0.9065823249
 40
0.9293233013
 40
0.9523091923
 40
1.0
 40
1.0
 40
1.0
 40
1.0
 10
-11.2625586714
 20
-1.3574912432
 30
0.0
 10
-11.0747305202
 20
-1.4460934775
 30
0.0
 10
-10.7011724921
 20
-1.6653811768
 30
0.0
 10
-10.1800661341
 20
-2.0850084494
 30
0.0
 10
-9.6909564644
 20
-2.5950769127
 30
0.0
 10
-9.2483395194
 20
-3.1797919629
 30
0.0
 10
-8.8650553139
 20
-3.82127445
 30
0.0
 10
-8.5522914286
 20
-4.4999690692
 30
0.0
 10
-8.3190482499
 20
-5.1953011705
 30
0.0
 10
-8.1719369376
 20
-5.886385659
 30
0.0
 10
-8.1149949762
 20
-6.5526869781
 30
0.0
 10
-8.1498521227
 20
-7.1748223323
 30
0.0
 10
-8.2756561255
 20
-7.7347070911
 30
0.0
 10
-8.4585569335
 20
-8.1447752335
 30
0.0
 10
-8.6477132906
 20
-8.4204634033
 30
0.0
 10
-8.8059862345
 20
-8.5974108361
 30
0.0
 10
-8.9823685776
 20
-8.7472544494
 30
0.0
 10
-9.1754224958
 20
-8.8687502396
 30
0.0
 10
-9.3836199309
 20
-8.9608224788
 30
0.0
 10
-9.6821696864
 20
-9.044471925
 30
0.0
 10
-9.919235224
 20
-9.0590639904
 30
0.0
 10
-10.076849082
 20
-9.0501524407
 30
0.0
 11
-11.2625586714
 21
-1.3574912432
 31
0.0
 11
-10.723266507
 21
-1.6694718419
 31
0.0
 11
-10.1996413343
 21
-2.087130096
 31
0.0
 11
-9.7076576475
 21
-2.5971524053
 31
0.0
 11
-9.2622798009
 21
-3.1833969286
 31
0.0
 11
-8.8768960221
 21
-3.8274930453
 31
0.0
 11
-8.5630111061
 21
-4.5093570831
 31
0.0
 11
-8.3298679124
 21
-5.2078530644
 31
0.0
 11
-8.1841942157
 21
-5.901455758
 31
0.0
 11
-8.1300208836
 21
-6.5688910932
 31
0.0
 11
-8.1685812896
 21
-7.1897543794
 31
0.0
 11
-8.2982803868
 21
-7.7451623257
 31
0.0
 11
-8.5147873564
 21
-8.218334853
 31
0.0
 11
-8.6535238871
 21
-8.4195233701
 31
0.0
 11
-8.8111755769
 21
-8.5950353667
 31
0.0
 11
-8.9865100609
 21
-8.7435569745
 31
0.0
 11
-9.1781630162
 21
-8.8639884673
 31
0.0
 11
-9.3846556237
 21
-8.9554234137
 31
0.0
 11
-9.6044001232
 21
-9.0171997916
 31
0.0
 11
-10.076849082
 21
-9.0501524407
 31
0.0
  0
SPLINE
  5
3A2
100
AcDbEntity
  8
0
100
AcDbSpline
 62
7
  6
CONTINUOUS
 70
0
 71
3
 72
9
 73
5
 74
3
 42
0.0000001
 43
0.0000001
 44
0.0000000001
 12
-0.2421388242
 22
0.0278277744
 32
0.0
 13
-0.2377925346
 23
0.0534818258
 33
0.0
 40
0.0
 40
0.0
 40
0.0
 40
0.0
 40
0.2461862146
 40
1.0
 40
1.0
 40
1.0
 40
1.0
 10
-10.1969312876
 20
-9.0398309665
 30
0.0
 10
-10.2168017011
 20
-9.0375473616
 30
0.0
 10
-10.2973823692
 20
-9.0271434001
 30
0.0
 10
-10.3773788357
 20
-9.0123005956
 30
0.0
 10
-10.437129266
 20
-8.9988621497
 30
0.0
 11
-10.1969312876
 21
-9.0398309665
 31
0.0
 11
-10.2564419933
 21
-9.03215571
 31
0.0
 11
-10.437129266
 21
-8.9988621497
 31
0.0
  0
SPLINE
  5
3A3
100
AcDbEntity
  8
0
100
AcDbSpline
 62
7
  6
CONTINUOUS
 70
0
 71
3
 72
9
 73
5
 74
3
 42
0.0000001
 43
0.0000001
 44
0.0000000001
 12
0.3613325062
 22
0.1805502136
 32
0.0
 13
0.3079881034
 23
0.2613482117
 33
0.0
 40
0.0
 40
0.0
 40
0.0
 40
0.0
 40
0.248782061
 40
1.0
 40
1.0
 40
1.0
 40
1.0
 10
-6.2103406516
 20
-7.7122401491
 30
0.0
 10
-6.1803763031
 20
-7.6972675977
 30
0.0
 10
-6.0617738134
 20
-7.6334519186
 30
0.0
 10
-5.9510669218
 20
-7.5550793869
 30
0.0
 10
-5.8739448591
 20
-7.4896362319
 30
0.0
 11
-6.2103406516
 21
-7.7122401491
 31
0.0
 11
-6.1218526379
 21
-7.6646142452
 31
0.0
 11
-5.8739448591
 21
-7.4896362319
 31
0.0
  0
SPLINE
  5
3A4
100
AcDbEntity
  8
0
100
AcDbSpline
 62
7
  6
CONTINUOUS
 70
0
 71
3
 72
23
 73
19
 74
17
 42
0.0000001
 43
0.0000001
 44
0.0000000001
 12
6.878045749
 22
6.2266697424
 32
0.0
 13
-8.3646174554
 23
4.013988569
 33
0.0
 40
0.0
 40
0.0
 40
0.0
 40
0.0
 40
0.0448125261
 40
0.0925398557
 40
0.143965714
 40
0.1994543735
 40
0.2590036791
 40
0.3223144761
 40
0.3888602193
 40
0.4579495968
 40
0.5287727135
 40
0.6004443692
 40
0.6720472253
 40
0.7426746828
 40
0.8114734875
 40
0.8776782457
 40
0.9406679115
 40
1.0
 40
1.0
 40
1.0
 40
1.0
 10
-5.831503901
 20
-7.4524321491
 30
0.0
 10
-5.7287630327
 20
-7.3594212156
 30
0.0
 10
-5.5388525375
 20
-7.1416589735
 30
0.0
 10
-5.3205262192
 20
-6.7506565748
 30
0.0
 10
-5.1647755386
 20
-6.2961168702
 30
0.0
 10
-5.0741578143
 20
-5.7875923514
 30
0.0
 10
-5.0500097657
 20
-5.2351400229
 30
0.0
 10
-5.0927404168
 20
-4.6497552587
 30
0.0
 10
-5.201551828
 20
-4.0431458066
 30
0.0
 10
-5.3744099956
 20
-3.4275310165
 30
0.0
 10
-5.6080168424
 20
-2.8153736842
 30
0.0
 10
-5.8978527502
 20
-2.2191188514
 30
0.0
 10
-6.2382601157
 20
-1.6509145943
 30
0.0
 10
-6.6225718854
 20
-1.1223267765
 30
0.0
 10
-7.0432556091
 20
-0.6441300133
 30
0.0
 10
-7.4921292199
 20
-0.2260093594
 30
0.0
 10
-7.9603513741
 20
0.1234019253
 30
0.0
 10
-8.2899196495
 20
0.3117376733
 30
0.0
 10
-8.4553497239
 20
0.3911237817
 30
0.0
 11
-5.831503901
 21
-7.4524321491
 31
0.0
 11
-5.5564589683
 21
-7.1406457432
 31
0.0
 11
-5.3378365631
 21
-6.755570083
 31
0.0
 11
-5.1803152477
 21
-6.3052002361
 31
0.0
 11
-5.0873144124
 21
-5.7988533966
 31
0.0
 11
-5.0609386772
 21
-5.2469924387
 31
0.0
 11
-5.101929218
 21
-4.6610348908
 31
0.0
 11
-5.2096390832
 21
-4.0530998599
 31
0.0
 11
-5.3820617507
 21
-3.4357226655
 31
0.0
 11
-5.6158685737
 21
-2.8216389054
 31
0.0
 11
-5.906466786
 21
-2.2235375914
 31
0.0
 11
-6.2480928657
 21
-1.6537870983
 31
0.0
 11
-6.6339407012
 21
-1.1241611804
 31
0.0
 11
-7.0563213329
 21
-0.6455905049
 31
0.0
 11
-7.5067622656
 21
-0.2279866966
 31
0.0
 11
-7.9762692121
 21
0.1200052897
 31
0.0
 11
-8.4553497239
 21
0.3911237817
 31
0.0
  0
SPLINE
  5
3A5
100
AcDbEntity
  8
0
100
AcDbSpline
 62
7
  6
CONTINUOUS
 70
0
 71
3
 72
9
 73
5
 74
3
 42
0.0000001
 43
0.0000001
 44
0.0000000001
 12
0.3613735649
 22
0.1805526294
 32
0.0
 13
0.3080210164
 23
0.2613678612
 33
0.0
 40
0.0
 40
0.0
 40
0.0
 40
0.0
 40
0.2487823616
 40
1.0
 40
1.0
 40
1.0
 40
1.0
 10
-5.7861348916
 20
-7.5001371283
 30
0.0
 10
-5.756167102
 20
-7.4851643584
 30
0.0
 10
-5.6375510779
 20
-7.4213472061
 30
0.0
 10
-5.5268318438
 20
-7.3429697711
 30
0.0
 10
-5.4497015703
 20
-7.2775217219
 30
0.0
 11
-5.7861348916
 21
-7.5001371283
 31
0.0
 11
-5.6976367061
 21
-7.45251002
 31
0.0
 11
-5.4497015703
 21
-7.2775217219
 31
0.0
  0
SPLINE
  5
3A6
100
AcDbEntity
  8
0
100
AcDbSpline
 62
7
  6
CONTINUOUS
 70
0
 71
3
 72
23
 73
19
 74
17
 42
0.0000001
 43
0.0000001
 44
0.0000000001
 12
6.8778392208
 22
6.2268248646
 32
0.0
 13
-8.3645732817
 23
4.0139673711
 33
0.0
 40
0.0
 40
0.0
 40
0.0
 40
0.0
 40
0.0448128617
 40
0.0925406413
 40
0.1439669816
 40
0.1994559964
 40
0.2590053492
 40
0.322315786
 40
0.3888614173
 40
0.4579509713
 40
0.528774265
 40
0.6004460265
 40
0.672048953
 40
0.7426763911
 40
0.8114749617
 40
0.8776792177
 40
0.9406681456
 40
1.0
 40
1.0
 40
1.0
 40
1.0
 10
-5.4072034054
 20
-7.2402670438
 30
0.0
 10
-5.3044648527
 20
-7.1472530966
 30
0.0
 10
-5.1145595698
 20
-6.929485189
 30
0.0
 10
-4.8962411425
 20
-6.5384767206
 30
0.0
 10
-4.7404982853
 20
-6.0839328834
 30
0.0
 10
-4.6498881579
 20
-5.575407067
 30
0.0
 10
-4.625746886
 20
-5.0229573059
 30
0.0
 10
-4.6684823324
 20
-4.4375773812
 30
0.0
 10
-4.7772973236
 20
-3.8309728322
 30
0.0
 10
-4.9501584082
 20
-3.2153616111
 30
0.0
 10
-5.1837677222
 20
-2.6032074118
 30
0.0
 10
-5.4736054227
 20
-2.0069561368
 30
0.0
 10
-5.8140137378
 20
-1.438755966
 30
0.0
 10
-6.1983253298
 20
-0.9101729964
 30
0.0
 10
-6.6190070332
 20
-0.4319820605
 30
0.0
 10
-7.0678763476
 20
-0.0138682671
 30
0.0
 10
-7.5360930844
 20
0.3355374115
 30
0.0
 10
-7.865657107
 20
0.5238704401
 30
0.0
 10
-8.0310856552
 20
0.6032558161
 30
0.0
 11
-5.4072034054
 21
-7.2402670438
 31
0.0
 11
-5.1321659747
 21
-6.9284727961
 31
0.0
 11
-4.9135511825
 21
-6.5433907022
 31
0.0
 11
-4.7560374938
 21
-6.0930161197
 31
0.0
 11
-4.663044212
 21
-5.5866673046
 31
0.0
 11
-4.6366752901
 21
-5.0348085048
 31
0.0
 11
-4.6776707007
 21
-4.4488577566
 31
0.0
 11
-4.7853841521
 21
-3.8409277268
 31
0.0
 11
-4.957810031
 21
-3.2235532439
 31
0.0
 11
-5.1916194407
 21
-2.6094724252
 31
0.0
 11
-5.4822194187
 21
-2.0113747821
 31
0.0
 11
-5.823846556
 21
-1.4416282516
 31
0.0
 11
-6.209694439
 21
-0.9120068729
 31
0.0
 11
-6.6320732014
 21
-0.433441939
 31
0.0
 11
-7.0825097185
 21
-0.0158449937
 31
0.0
 11
-7.5520094001
 21
0.3321401141
 31
0.0
 11
-8.0310856552
 21
0.6032558161
 31
0.0
  0
SPLINE
  5
3A7
100
AcDbEntity
  8
0
100
AcDbSpline
 62
7
  6
CONTINUOUS
 70
0
 71
3
 72
9
 73
5
 74
3
 42
0.0000001
 43
0.0000001
 44
0.0000000001
 12
0.3613939636
 22
0.180568661
 32
0.0
 13
0.3080331833
 23
0.2613928007
 33
0.0
 40
0.0
 40
0.0
 40
0.0
 40
0.0
 40
0.2487820413
 40
1.0
 40
1.0
 40
1.0
 40
1.0
 10
-5.3618506854
 20
-7.2879950691
 30
0.0
 10
-5.3318812427
 20
-7.2730209891
 30
0.0
 10
-5.2132586768
 20
-7.209198088
 30
0.0
 10
-5.1025343373
 20
-7.1308128866
 30
0.0
 10
-5.0254009842
 20
-7.0653585645
 30
0.0
 11
-5.3618506854
 21
-7.2879950691
 31
0.0
 11
-5.2733477555
 21
-7.2403637086
 31
0.0
 11
-5.0254009842
 21
-7.0653585645
 31
0.0
  0
SPLINE
  5
3A8
100
AcDbEntity
  8
0
100
AcDbSpline
 62
7
  6
CONTINUOUS
 70
0
 71
3
 72
23
 73
19
 74
17
 42
0.0000001
 43
0.0000001
 44
0.0000000001
 12
6.8772521319
 22
6.2272675876
 32
0.0
 13
-8.3644488127
 23
4.0139076412
 33
0.0
 40
0.0
 40
0.0
 40
0.0
 40
0.0
 40
0.0448134877
 40
0.092542149
 40
0.1439694414
 40
0.1994592328
 40
0.2590089483
 40
0.3223192113
 40
0.3888651589
 40
0.4579548918
 40
0.5287781122
 40
0.6004496675
 40
0.6720522683
 40
0.7426792522
 40
0.8114771546
 40
0.8776804629
 40
0.9406683974
 40
1.0
 40
1.0
 40
1.0
 40
1.0
 10
-4.9828366553
 20
-7.0280419079
 30
0.0
 10
-4.8801054373
 20
-6.9350200481
 30
0.0
 10
-4.6902159565
 20
-6.7172381979
 30
0.0
 10
-4.4719208071
 20
-6.3262160032
 30
0.0
 10
-4.3161997172
 20
-5.8716639966
 30
0.0
 10
-4.2256095983
 20
-5.3631360355
 30
0.0
 10
-4.2014857164
 20
-4.8106909328
 30
0.0
 10
-4.2442345495
 20
-4.225319293
 30
0.0
 10
-4.3530604763
 20
-3.6187250788
 30
0.0
 10
-4.5259293297
 20
-3.003124628
 30
0.0
 10
-4.7595440484
 20
-2.3909832964
 30
0.0
 10
-5.0493839168
 20
-1.7947461713
 30
0.0
 10
-5.3897918466
 20
-1.2265608489
 30
0.0
 10
-5.7741000399
 20
-0.6979930084
 30
0.0
 10
-6.1947751546
 20
-0.2198174844
 30
0.0
 10
-6.6436344493
 20
0.1982817668
 30
0.0
 10
-7.1118403312
 20
0.5476759735
 30
0.0
 10
-7.4413962023
 20
0.7360039928
 30
0.0
 10
-7.6068215865
 20
0.8153878504
 30
0.0
 11
-4.9828366553
 21
-7.0280419079
 31
0.0
 11
-4.7078220663
 21
-6.7162280182
 31
0.0
 11
-4.4892297902
 21
-6.3311313125
 31
0.0
 11
-4.3317375869
 21
-5.8807473805
 31
0.0
 11
-4.2387643387
 21
-5.3743953507
 31
0.0
 11
-4.2124129765
 21
-4.8225405727
 31
0.0
 11
-4.2534220215
 21
-4.2366011574
 31
0.0
 11
-4.3611467047
 21
-3.6286794679
 31
0.0
 11
-4.5335808055
 21
-3.0113154619
 31
0.0
 11
-4.7673954644
 21
-2.3972478308
 31
0.0
 11
-5.0579977563
 21
-1.799164441
 31
0.0
 11
-5.3996245148
 21
-1.2294327335
 31
0.0
 11
-5.7854692135
 21
-0.699826311
 31
0.0
 11
-6.2078414813
 21
-0.2212765835
 31
0.0
 11
-6.6582674873
 21
0.1963053239
 31
0.0
 11
-7.1277542131
 21
0.5442778301
 31
0.0
 11
-7.6068215865
 21
0.8153878504
 31
0.0
  0
SPLINE
  5
3A9
100
AcDbEntity
  8
0
100
AcDbSpline
 62
7
  6
CONTINUOUS
 70
0
 71
3
 72
23
 73
19
 74
17
 42
0.0000001
 43
0.0000001
 44
0.0000000001
 12
8.3057610907
 22
-3.9313065491
 32
0.0
 13
-7.0216690813
 23
-5.9276472392
 33
0.0
 40
0.0
 40
0.0
 40
0.0
 40
0.0
 40
0.0591470909
 40
0.1220840509
 40
0.1883491856
 40
0.2572928436
 40
0.3281125695
 40
0.3999160307
 40
0.4717625888
 40
0.542708649
 40
0.6118501053
 40
0.678366405
 40
0.7415674344
 40
0.8009458429
 40
0.8562371477
 40
0.9074878348
 40
0.9551245608
 40
1.0
 40
1.0
 40
1.0
 40
1.0
 10
-10.9443606198
 20
-0.9733922174
 30
0.0
 10
-10.780606751
 20
-1.0509006661
 30
0.0
 10
-10.4542269428
 20
-1.2361888432
 30
0.0
 10
-9.9910542581
 20
-1.5822121173
 30
0.0
 10
-9.5473372961
 20
-1.9980161199
 30
0.0
 10
-9.1321736829
 20
-2.474618308
 30
0.0
 10
-8.7539425822
 20
-3.0019602135
 30
0.0
 10
-8.4203127875
 20
-3.5688796138
 30
0.0
 10
-8.1380144172
 20
-4.1634490428
 30
0.0
 10
-7.912691985
 20
-4.7732033871
 30
0.0
 10
-7.7487921594
 20
-5.385433904
 30
0.0
 10
-7.6494854696
 20
-5.9874716982
 30
0.0
 10
-7.6166336488
 20
-6.5669727952
 30
0.0
 10
-7.6508285708
 20
-7.112194602
 30
0.0
 10
-7.7514516559
 20
-7.6121843733
 30
0.0
 10
-7.9169606572
 20
-8.0569610379
 30
0.0
 10
-8.144566599
 20
-8.4370620916
 30
0.0
 10
-8.3398588643
 20
-8.6462211336
 30
0.0
 10
-8.4448923589
 20
-8.7348897246
 30
0.0
 11
-10.9443606198
 21
-0.9733922174
 31
0.0
 11
-10.4704992445
 21
-1.239590263
 31
0.0
 11
-10.00597633
 21
-1.5841098822
 31
0.0
 11
-9.5606188085
 21
-1.999371424
 31
0.0
 11
-9.1436849444
 21
-2.4763753122
 31
0.0
 11
-8.7638652693
 21
-3.0048111467
 31
0.0
 11
-8.4289978226
 21
-3.5733342782
 31
0.0
 11
-8.1459509596
 21
-4.1697921512
 31
0.0
 11
-7.9204697119
 21
-4.781493017
 31
0.0
 11
-7.7570673366
 21
-5.3954739228
 31
0.0
 11
-7.6589372609
 21
-5.9987748964
 31
0.0
 11
-7.6278952587
 21
-6.578709682
 31
0.0
 11
-7.6643501202
 21
-7.1231287881
 31
0.0
 11
-7.7673032333
 21
-7.6206698824
 31
0.0
 11
-7.9343792064
 21
-8.0609887512
 31
0.0
 11
-8.1618844946
 21
-8.4349665097
 31
0.0
 11
-8.4448923589
 21
-8.7348897246
 31
0.0
  0
SPLINE
  5
3AA
100
AcDbEntity
  8
0
100
AcDbSpline
 62
7
  6
CONTINUOUS
 70
0
 71
3
 72
11
 73
7
 74
5
 42
0.0000001
 43
0.0000001
 44
0.0000000001
 12
-1.3211198668
 22
-1.1152807744
 32
0.0
 13
-1.6868343058
 23
0.3792082976
 33
0.0
 40
0.0
 40
0.0
 40
0.0
 40
0.0
 40
0.2408543098
 40
0.4820792941
 40
0.7326978837
 40
1.0
 40
1.0
 40
1.0
 40
1.0
 10
-8.4448923589
 20
-8.7348897246
 30
0.0
 10
-8.5509581634
 20
-8.824429785
 30
0.0
 10
-8.7860509563
 20
-8.9787741928
 30
0.0
 10
-9.1900343108
 20
-9.1156300381
 30
0.0
 10
-9.6297605177
 20
-9.1528538001
 30
0.0
 10
-9.9279554519
 20
-9.1132979764
 30
0.0
 10
-10.0782535785
 20
-9.0795102496
 30
0.0
 11
-8.4448923589
 21
-8.7348897246
 31
0.0
 11
-8.7935355034
 21
-8.9626052347
 31
0.0
 11
-9.1881527652
 21
-9.0975784459
 31
0.0
 11
-9.6196742426
 21
-9.1368271643
 31
0.0
 11
-10.0782535785
 21
-9.0795102496
 31
0.0
  0
SPLINE
  5
3AB
100
AcDbEntity
  8
0
100
AcDbSpline
 62
7
  6
CONTINUOUS
 70
0
 71
3
 72
9
 73
5
 74
3
 42
0.0000001
 43
0.0000001
 44
0.0000000001
 12
-0.9457195072
 22
-0.0593784112
 32
0.0
 13
-0.8475575547
 23
-0.4237421073
 33
0.0
 40
0.0
 40
0.0
 40
0.0
 40
0.0
 40
0.5064156935
 40
1.0
 40
1.0
 40
1.0
 40
1.0
 10
-6.1399974246
 20
4.0148279711
 30
0.0
 10
-6.2996398246
 20
4.0048045847
 30
0.0
 10
-6.6139587465
 20
3.9557662123
 30
0.0
 10
-6.912101516
 20
3.8439187317
 30
0.0
 10
-7.0515485519
 20
3.7742012469
 30
0.0
 11
-6.1399974246
 21
4.0148279711
 31
0.0
 11
-6.613843409
 21
3.9390291556
 31
0.0
 11
-7.0515485519
 21
3.7742012469
 31
0.0
  0
SPLINE
  5
3AC
100
AcDbEntity
  8
0
100
AcDbSpline
 62
7
  6
CONTINUOUS
 70
0
 71
3
 72
9
 73
5
 74
3
 42
0.0000001
 43
0.0000001
 44
0.0000000001
 12
0.3387869659
 22
0.1692895985
 32
0.0
 13
0.2923170496
 23
0.2408034862
 33
0.0
 40
0.0
 40
0.0
 40
0.0
 40
0.0
 40
0.2489089496
 40
1.0
 40
1.0
 40
1.0
 40
1.0
 10
-4.9374709528
 20
-7.0758141801
 30
0.0
 10
-4.9093619169
 20
-7.0617682814
 30
0.0
 10
-4.7980566067
 20
-7.0021339442
 30
0.0
 10
-4.6936675418
 20
-6.9296842725
 30
0.0
 10
-4.6204819685
 20
-6.8693958247
 30
0.0
 11
-4.9374709528
 21
-7.0758141801
 31
0.0
 11
-4.8543806418
 21
-7.0312872584
 31
0.0
 11
-4.6204819685
 21
-6.8693958247
 31
0.0
  0
SPLINE
  5
3AD
100
AcDbEntity
  8
0
100
AcDbSpline
 62
7
  6
CONTINUOUS
 70
0
 71
3
 72
23
 73
19
 74
17
 42
0.0000001
 43
0.0000001
 44
0.0000000001
 12
6.8719232533
 22
6.2310841602
 32
0.0
 13
-8.3631990641
 23
4.0133079155
 33
0.0
 40
0.0
 40
0.0
 40
0.0
 40
0.0
 40
0.0448190069
 40
0.0925553876
 40
0.1439908427
 40
0.1994879212
 40
0.2590429746
 40
0.3223566125
 40
0.3889044157
 40
0.4579936342
 40
0.5288147704
 40
0.6004825705
 40
0.6720801793
 40
0.7427012401
 40
0.8114929724
 40
0.877689465
 40
0.9406732096
 40
1.0
 40
1.0
 40
1.0
 40
1.0
 10
-4.5575403202
 20
-6.8149793844
 30
0.0
 10
-4.4548760617
 20
-6.7218890498
 30
0.0
 10
-4.2651630414
 20
-6.5039563627
 30
0.0
 10
-4.0471053627
 20
-6.1128095714
 30
0.0
 10
-3.8916018899
 20
-5.6581849449
 30
0.0
 10
-3.8012098434
 20
-5.1496371032
 30
0.0
 10
-3.7772513133
 20
-4.5972194515
 30
0.0
 10
-3.8201376318
 20
-4.0119139814
 30
0.0
 10
-3.9290695061
 20
-3.4054182848
 30
0.0
 10
-4.1020145162
 20
-2.7899413787
 30
0.0
 10
-4.3356750289
 20
-2.1779438256
 30
0.0
 10
-4.6255305458
 20
-1.5818620847
 30
0.0
 10
-4.9659251893
 20
-1.0138376056
 30
0.0
 10
-5.3501903726
 20
-0.4854248884
 30
0.0
 10
-5.7708011663
 20
-0.0073981259
 30
0.0
 10
-6.2195743702
 20
0.4105805485
 30
0.0
 10
-6.6876868006
 20
0.7598715136
 30
0.0
 10
-7.0171702651
 20
0.9481543256
 30
0.0
 10
-7.1825575178
 20
1.0275198848
 30
0.0
 11
-4.5575403202
 21
-6.8149793844
 31
0.0
 11
-4.2827613843
 21
-6.5029723658
 31
0.0
 11
-4.0644027165
 21
-6.1177368908
 31
0.0
 11
-3.9071271039
 21
-5.6672725847
 31
0.0
 11
-3.8143515671
 21
-5.1608937696
 31
0.0
 11
-3.7881693851
 21
-4.6090640086
 31
0.0
 11
-3.8293178193
 21
-4.0231909579
 31
0.0
 11
-3.9371513235
 21
-3.4153647666
 31
0.0
 11
-4.1096625239
 21
-2.7981266955
 31
0.0
 11
-4.3435241194
 21
-2.1842026826
 31
0.0
 11
-4.6341423074
 21
-1.5862762079
 31
0.0
 11
-4.9757551388
 21
-1.0167058803
 31
0.0
 11
-5.3615567978
 21
-0.4872572155
 31
0.0
 11
-5.7838638664
 21
-0.008853485
 31
0.0
 11
-6.2341981356
 21
0.4085993933
 31
0.0
 11
-6.7035973217
 21
0.7564781008
 31
0.0
 11
-7.1825575178
 21
1.0275198848
 31
0.0
  0
SPLINE
  5
3AE
100
AcDbEntity
  8
0
100
AcDbSpline
 62
7
  6
CONTINUOUS
 70
0
 71
3
 72
24
 73
20
 74
18
 42
0.0000001
 43
0.0000001
 44
0.0000000001
 12
8.7104994483
 22
4.3525359213
 32
0.0
 13
-8.7789304204
 23
4.2128078831
 33
0.0
 40
0.0
 40
0.0
 40
0.0
 40
0.0
 40
0.0218813845
 40
0.0439902159
 40
0.0896503678
 40
0.1384906274
 40
0.1914160764
 40
0.2488077278
 40
0.3105974147
 40
0.376363858
 40
0.4454232307
 40
0.5169031931
 40
0.589807214
 40
0.6630707457
 40
0.7356193789
 40
0.8064262389
 40
0.8745642569
 40
0.9392676526
 40
1.0
 40
1.0
 40
1.0
 40
1.0
 10
-4.5132701424
 20
-6.8637048537
 30
0.0
 10
-4.4497375466
 20
-6.8319583497
 30
0.0
 10
-4.3259860329
 20
-6.7597800164
 30
0.0
 10
-4.0948628672
 20
-6.5819090006
 30
0.0
 10
-3.8409636548
 20
-6.2959146528
 30
0.0
 10
-3.608877293
 20
-5.8737091193
 30
0.0
 10
-3.4491940141
 20
-5.3796235255
 30
0.0
 10
-3.3646773504
 20
-4.8253568775
 30
0.0
 10
-3.3566750838
 20
-4.2234498914
 30
0.0
 10
-3.4252906913
 20
-3.5875830155
 30
0.0
 10
-3.5690485953
 20
-2.9323332234
 30
0.0
 10
-3.7848393258
 20
-2.2728464575
 30
0.0
 10
-4.0679087525
 20
-1.6244571063
 30
0.0
 10
-4.4119467822
 20
-1.0022958887
 30
0.0
 10
-4.8092388876
 20
-0.4208903872
 30
0.0
 10
-5.250849663
 20
0.1061827535
 30
0.0
 10
-5.7269460997
 20
0.5666636991
 30
0.0
 10
-6.2267770273
 20
0.9497122975
 30
0.0
 10
-6.5805717651
 20
1.1543673486
 30
0.0
 10
-6.7582934491
 20
1.2396519191
 30
0.0
 11
-4.5132701424
 21
-6.8637048537
 31
0.0
 11
-4.3291848391
 21
-6.7564170055
 31
0.0
 11
-4.1584695034
 21
-6.6252566277
 31
0.0
 11
-3.8611931728
 21
-6.2946409504
 31
0.0
 11
-3.6286914949
 21
-5.879770405
 31
0.0
 11
-3.4666812844
 21
-5.3905404746
 31
0.0
 11
-3.379212991
 21
-4.8385813219
 31
0.0
 11
-3.368587881
 21
-4.2370029443
 31
0.0
 11
-3.4353001203
 21
-3.6000916942
 31
0.0
 11
-3.578023502
 21
-2.9429518715
 31
0.0
 11
-3.7936474262
 21
-2.2811628029
 31
0.0
 11
-4.0773463519
 21
-1.6304179333
 31
0.0
 11
-4.4226816793
 21
-1.0061743782
 31
0.0
 11
-4.8217589931
 21
-0.4232593284
 31
0.0
 11
-5.2654352346
 21
0.1044989876
 31
0.0
 11
-5.7435133945
 21
0.5645624192
 31
0.0
 11
-6.2449877154
 21
0.9459797924
 31
0.0
 11
-6.7582934491
 21
1.2396519191
 31
0.0
  0
SPLINE
  5
3AF
100
AcDbEntity
  8
0
100
AcDbSpline
 62
7
  6
CONTINUOUS
 70
0
 71
3
 72
11
 73
7
 74
5
 42
0.0000001
 43
0.0000001
 44
0.0000000001
 12
-1.568024047
 22
0.7524588703
 32
0.0
 13
-1.6988371227
 23
-0.3726207108
 33
0.0
 40
0.0
 40
0.0
 40
0.0
 40
0.0
 40
0.2730247688
 40
0.5292424851
 40
0.7704267541
 40
1.0
 40
1.0
 40
1.0
 40
1.0
 10
-6.7582934491
 20
1.2396519191
 30
0.0
 10
-6.9009965833
 20
1.3081318888
 30
0.0
 10
-7.1863230108
 20
1.4239152339
 30
0.0
 10
-7.6219074598
 20
1.5304429424
 30
0.0
 10
-8.0442695025
 20
1.5617710981
 30
0.0
 10
-8.3175048354
 20
1.5308475937
 30
0.0
 10
-8.4475073529
 20
1.5023330117
 30
0.0
 11
-6.7582934491
 21
1.2396519191
 31
0.0
 11
-7.1990825051
 21
1.4162538023
 31
0.0
 11
-7.6324666056
 21
1.5199600688
 31
0.0
 11
-8.0509450079
 21
1.5488295708
 31
0.0
 11
-8.4475073529
 21
1.5023330117
 31
0.0
  0
SPLINE
  5
3B0
100
AcDbEntity
  8
0
100
AcDbSpline
 62
7
  6
CONTINUOUS
 70
0
 71
3
 72
13
 73
9
 74
7
 42
0.0000001
 43
0.0000001
 44
0.0000000001
 12
-1.9859606164
 22
0.9530170692
 32
0.0
 13
-1.9701076938
 23
-0.9853713913
 33
0.0
 40
0.0
 40
0.0
 40
0.0
 40
0.0
 40
0.2773563185
 40
0.5328359946
 40
0.6538359382
 40
0.7713039293
 40
0.8862912089
 40
1.0
 40
1.0
 40
1.0
 40
1.0
 10
-6.3340293804
 20
1.4517839535
 30
0.0
 10
-6.5176356221
 20
1.5398923887
 30
0.0
 10
-6.8848251531
 20
1.6815783769
 30
0.0
 10
-7.3618648954
 20
1.7640454721
 30
0.0
 10
-7.7253528825
 20
1.7620340095
 30
0.0
 10
-7.9834316214
 20
1.728461202
 30
0.0
 10
-8.2297482668
 20
1.6629134674
 30
0.0
 10
-8.3852839725
 20
1.5980016677
 30
0.0
 10
-8.4599568272
 20
1.5606532045
 30
0.0
 11
-6.3340293804
 21
1.4517839535
 31
0.0
 11
-6.9057448225
 21
1.6672151224
 31
0.0
 11
-7.4610706416
 21
1.7584344561
 31
0.0
 11
-7.7276005564
 21
1.7564379656
 31
0.0
 11
-7.9841388713
 21
1.7226236995
 31
0.0
 11
-8.2288389785
 21
1.6572090249
 31
0.0
 11
-8.4599568272
 21
1.5606532045
 31
0.0
  0
SPLINE
  5
3B1
100
AcDbEntity
  8
0
100
AcDbSpline
 62
7
  6
CONTINUOUS
 70
0
 71
3
 72
11
 73
7
 74
5
 42
0.0000001
 43
0.0000001
 44
0.0000000001
 12
-1.566482834
 22
0.7517192774
 32
0.0
 13
-1.697495253
 23
-0.370756264
 33
0.0
 40
0.0
 40
0.0
 40
0.0
 40
0.0
 40
0.2730044407
 40
0.5292206226
 40
0.7704156529
 40
1.0
 40
1.0
 40
1.0
 40
1.0
 10
-7.6068215865
 20
0.8153878504
 30
0.0
 10
-7.7493738432
 20
0.8837954174
 30
0.0
 10
-8.0343982149
 20
0.9994776952
 30
0.0
 10
-8.4695177863
 20
1.1060042515
 30
0.0
 10
-8.8914558192
 20
1.1375006784
 30
0.0
 10
-9.1644523042
 20
1.1068092638
 30
0.0
 10
-9.2943584174
 20
1.0784359855
 30
0.0
 11
-7.6068215865
 21
0.8153878504
 31
0.0
 11
-8.0471313829
 21
0.9918360102
 31
0.0
 11
-8.4800604194
 21
1.0955503916
 31
0.0
 11
-8.8981322183
 21
1.1245940782
 31
0.0
 11
-9.2943584174
 21
1.0784359855
 31
0.0
  0
SPLINE
  5
3B2
100
AcDbEntity
  8
0
100
AcDbSpline
 62
7
  6
CONTINUOUS
 70
0
 71
3
 72
11
 73
7
 74
5
 42
0.0000001
 43
0.0000001
 44
0.0000000001
 12
-1.5366097722
 22
0.7373838784
 32
0.0
 13
-1.6710768498
 23
-0.3352711414
 33
0.0
 40
0.0
 40
0.0
 40
0.0
 40
0.0
 40
0.2726064736
 40
0.528788828
 40
0.7701915625
 40
1.0
 40
1.0
 40
1.0
 40
1.0
 10
-8.4553497239
 20
0.3911237817
 30
0.0
 10
-8.5949796477
 20
0.458128988
 30
0.0
 10
-8.8741540921
 20
0.5718454377
 30
0.0
 10
-9.300270816
 20
0.6782996785
 30
0.0
 10
-9.7139816537
 20
0.7129634189
 30
0.0
 10
-9.9823125901
 20
0.68667595
 30
0.0
 10
-10.1103217766
 20
0.6609932376
 30
0.0
 11
-8.4553497239
 21
0.3911237817
 31
0.0
 11
-8.8863822009
 21
0.5645796068
 31
0.0
 11
-9.3104918189
 21
0.6683975846
 31
0.0
 11
-9.7206615213
 21
0.7007231701
 31
0.0
 11
-10.1103217766
 21
0.6609932376
 31
0.0
  0
SPLINE
  5
3B3
100
AcDbEntity
  8
0
100
AcDbSpline
 62
7
  6
CONTINUOUS
 70
0
 71
3
 72
11
 73
7
 74
5
 42
0.0000001
 43
0.0000001
 44
0.0000000001
 12
-1.5675629434
 22
0.7522375972
 32
0.0
 13
-1.6984358729
 23
-0.3720625883
 33
0.0
 40
0.0
 40
0.0
 40
0.0
 40
0.0
 40
0.2730186891
 40
0.5292359489
 40
0.7704234383
 40
1.0
 40
1.0
 40
1.0
 40
1.0
 10
-7.1825575178
 20
1.0275198848
 30
0.0
 10
-7.325215511
 20
1.0959781923
 30
0.0
 10
-7.6104515665
 20
1.2117313038
 30
0.0
 10
-8.0458969289
 20
1.3182586931
 30
0.0
 10
-8.46813212
 20
1.3496372455
 30
0.0
 10
-8.7412960133
 20
1.3187832262
 30
0.0
 10
-8.8712697026
 20
1.290310943
 30
0.0
 11
-7.1825575178
 21
1.0275198848
 31
0.0
 11
-7.6232031814
 21
1.2040757834
 31
0.0
 11
-8.0564511352
 21
1.3077845063
 31
0.0
 11
-8.4748079011
 21
1.3367061723
 31
0.0
 11
-8.8712697026
 21
1.290310943
 31
0.0
  0
SPLINE
  5
3B4
100
AcDbEntity
  8
0
100
AcDbSpline
 62
7
  6
CONTINUOUS
 70
0
 71
3
 72
11
 73
7
 74
5
 42
0.0000001
 43
0.0000001
 44
0.0000000001
 12
-1.5649691559
 22
0.7509928979
 32
0.0
 13
-1.6961753175
 23
-0.368928291
 33
0.0
 40
0.0
 40
0.0
 40
0.0
 40
0.0
 40
0.2729844555
 40
0.5291991079
 40
0.7704047001
 40
1.0
 40
1.0
 40
1.0
 40
1.0
 10
-8.0310856552
 20
0.6032558161
 30
0.0
 10
-8.1734897395
 20
0.6715922785
 30
0.0
 10
-8.4582174732
 20
0.7871752607
 30
0.0
 10
-8.8928805066
 20
0.8937004373
 30
0.0
 10
-9.3144020611
 20
0.9253616649
 30
0.0
 10
-9.5871637859
 20
0.8948977265
 30
0.0
 10
-9.7169750795
 20
0.8666629926
 30
0.0
 11
-8.0310856552
 21
0.6032558161
 31
0.0
 11
-8.4709248116
 21
0.7795529355
 31
0.0
 11
-8.9034069141
 21
0.8832750208
 31
0.0
 11
-9.3210792632
 21
0.9124893154
 31
0.0
 11
-9.7169750795
 21
0.8666629926
 31
0.0
  0
SPLINE
  5
3B5
100
AcDbEntity
  8
0
100
AcDbSpline
 62
7
  6
CONTINUOUS
 70
0
 71
3
 72
11
 73
7
 74
5
 42
0.0000001
 43
0.0000001
 44
0.0000000001
 12
-1.5591267359
 22
0.7481892542
 32
0.0
 13
-1.6910615648
 23
-0.3619034716
 33
0.0
 40
0.0
 40
0.0
 40
0.0
 40
0.0
 40
0.2729065866
 40
0.5291144793
 40
0.7703611036
 40
1.0
 40
1.0
 40
1.0
 40
1.0
 10
-9.3038778613
 20
-0.033140287
 30
0.0
 10
-9.4457098465
 20
0.0349216381
 30
0.0
 10
-9.7292921241
 20
0.150120957
 30
0.0
 10
-10.1621928545
 20
0.2566384436
 30
0.0
 10
-10.5821067777
 20
0.2889318093
 30
0.0
 10
-10.8539614559
 20
0.2593415376
 30
0.0
 10
-10.9834059598
 20
0.2316391663
 30
0.0
 11
-9.3038778613
 21
-0.033140287
 31
0.0
 11
-9.7419000765
 21
0.1425730537
 31
0.0
 11
-10.1726559993
 21
0.2463223003
 31
0.0
 11
-10.5887861017
 21
0.2761911149
 31
0.0
 11
-10.9834059598
 21
0.2316391663
 31
0.0
  0
LINE
  5
3B6
100
AcDbEntity
  8
0
100
AcDbLine
 62
7
  6
CONTINUOUS
 10
-10.9834059598
 20
0.2316391663
 11
-10.9903722126
 21
0.2301349991
  0
SPLINE
  5
3B7
100
AcDbEntity
  8
0
100
AcDbSpline
 62
7
  6
CONTINUOUS
 70
0
 71
3
 72
11
 73
7
 74
5
 42
0.0000001
 43
0.0000001
 44
0.0000000001
 12
-1.5564575387
 22
0.7469083675
 32
0.0
 13
-1.6887152577
 23
-0.3587101303
 33
0.0
 40
0.0
 40
0.0
 40
0.0
 40
0.0
 40
0.2728712542
 40
0.5290755284
 40
0.7703405224
 40
1.0
 40
1.0
 40
1.0
 40
1.0
 10
-9.72814193
 20
-0.2452723214
 30
0.0
 10
-9.8697127703
 20
-0.1773357137
 30
0.0
 10
-10.152771864
 20
-0.0623120639
 30
0.0
 10
-10.584867316
 20
0.0442009894
 30
0.0
 10
-11.0040463776
 20
0.0767805898
 30
0.0
 10
-11.2754858477
 20
0.0475873486
 30
0.0
 10
-11.4047623357
 20
0.0201269549
 30
0.0
 11
-9.72814193
 21
-0.2452723214
 31
0.0
 11
-10.1653349274
 21
-0.0698258843
 31
0.0
 11
-10.5953014904
 21
0.0339344212
 31
0.0
 11
-11.0107258731
 21
0.0640998804
 31
0.0
 11
-11.4047623357
 21
0.0201269549
 31
0.0
  0
SPLINE
  5
3B8
100
AcDbEntity
  8
0
100
AcDbSpline
 62
7
  6
CONTINUOUS
 70
0
 71
3
 72
11
 73
7
 74
5
 42
0.0000001
 43
0.0000001
 44
0.0000000001
 12
-1.5402690063
 22
0.7391398611
 32
0.0
 13
-1.674354045
 23
-0.3395509948
 33
0.0
 40
0.0
 40
0.0
 40
0.0
 40
0.0
 40
0.2726561891
 40
0.5288412087
 40
0.7702178151
 40
1.0
 40
1.0
 40
1.0
 40
1.0
 10
-10.1524059988
 20
-0.4574043557
 30
0.0
 10
-10.2923939579
 20
-0.3902273365
 30
0.0
 10
-10.5722839247
 20
-0.2762701526
 30
0.0
 10
-10.9995011758
 20
-0.1698010581
 30
0.0
 10
-11.4142203592
 20
-0.1355164204
 30
0.0
 10
-11.6831272285
 20
-0.162332999
 30
0.0
 10
-11.8113728055
 20
-0.1883405889
 30
0.0
 11
-10.1524059988
 21
-0.4574043557
 31
0.0
 11
-10.5845746059
 21
-0.283580535
 31
0.0
 11
-11.0097611355
 21
-0.1797700117
 31
0.0
 11
-11.4208995589
 21
-0.1478369066
 31
0.0
 11
-11.8113728055
 21
-0.1883405889
 31
0.0
  0
SPLINE
  5
3B9
100
AcDbEntity
  8
0
100
AcDbSpline
 62
7
  6
CONTINUOUS
 70
0
 71
3
 72
11
 73
7
 74
5
 42
0.0000001
 43
0.0000001
 44
0.0000000001
 12
-1.5615605046
 22
0.7493571641
 32
0.0
 13
-1.6931955139
 23
-0.3648236842
 33
0.0
 40
0.0
 40
0.0
 40
0.0
 40
0.0
 40
0.2729393769
 40
0.5291505098
 40
0.7703798665
 40
1.0
 40
1.0
 40
1.0
 40
1.0
 10
-8.8796137926
 20
0.1789917474
 30
0.0
 10
-9.021684243
 20
0.2471681065
 30
0.0
 10
-9.3057440582
 20
0.3625273644
 30
0.0
 10
-9.7393791469
 20
0.4690485262
 30
0.0
 10
-10.1599626735
 20
0.5010792061
 30
0.0
 10
-10.4321950922
 20
0.471125809
 30
0.0
 10
-10.5617923522
 20
0.4432021879
 30
0.0
 11
-8.8796137926
 21
0.1789917474
 31
0.0
 11
-9.3183933243
 21
0.3549485089
 31
0.0
 11
-9.7498689871
 21
0.4586869779
 31
0.0
 11
-10.1666414254
 21
0.4882837877
 31
0.0
 11
-10.5617923522
 21
0.4432021879
 31
0.0
  0
LINE
  5
3BA
100
AcDbEntity
  8
0
100
AcDbLine
 62
7
  6
CONTINUOUS
 10
-10.5617923522
 20
0.4432021879
 11
-10.5660577608
 21
0.4422781438
  0
SPLINE
  5
3BB
100
AcDbEntity
  8
0
100
AcDbSpline
 62
7
  6
CONTINUOUS
 70
0
 71
3
 72
11
 73
7
 74
5
 42
0.0000001
 43
0.0000001
 44
0.0000000001
 12
-1.5283397621
 22
0.7334152897
 32
0.0
 13
-1.6636287482
 23
-0.3256682418
 33
0.0
 40
0.0
 40
0.0
 40
0.0
 40
0.0
 40
0.2724964934
 40
0.5286662583
 40
0.7701247671
 40
1.0
 40
1.0
 40
1.0
 40
1.0
 10
-10.5766700675
 20
-0.6695363901
 30
0.0
 10
-10.7154924761
 20
-0.6029186918
 30
0.0
 10
-10.9930491933
 20
-0.4897497137
 30
0.0
 10
-11.4166749374
 20
-0.3833308406
 30
0.0
 10
-11.8281046636
 20
-0.3478233442
 30
0.0
 10
-12.0951324727
 20
-0.3729224014
 30
0.0
 10
-12.2226081547
 20
-0.3978767557
 30
0.0
 11
-10.5766700675
 21
-0.6695363901
 31
0.0
 11
-11.0051409159
 21
-0.4969126901
 31
0.0
 11
-11.4268062476
 21
-0.3930842031
 31
0.0
 11
-11.8347791452
 21
-0.3598822428
 31
0.0
 11
-12.2226081547
 21
-0.3978767557
 31
0.0
  0
SPLINE
  5
3BC
100
AcDbEntity
  8
0
100
AcDbSpline
 62
7
  6
CONTINUOUS
 70
0
 71
3
 72
11
 73
7
 74
5
 42
0.0000001
 43
0.0000001
 44
0.0000000001
 12
0.5996409966
 22
1.0652410132
 32
0.0
 13
1.0935052821
 23
0.5464008959
 33
0.0
 40
0.0
 40
0.0
 40
0.0
 40
0.0
 40
0.2620029254
 40
0.5140070315
 40
0.7588671924
 40
1.0
 40
1.0
 40
1.0
 40
1.0
 10
-13.618121768
 20
-1.4341119161
 30
0.0
 10
-13.5657525362
 20
-1.3410798289
 30
0.0
 10
-13.4513018113
 20
-1.1647887212
 30
0.0
 10
-13.2474565223
 20
-0.930840681
 30
0.0
 10
-13.0170936169
 20
-0.7357438193
 30
0.0
 10
-12.8467947436
 20
-0.632736951
 30
0.0
 10
-12.7589014107
 20
-0.5888185569
 30
0.0
 11
-13.618121768
 21
-1.4341119161
 31
0.0
 11
-13.4429382715
 21
-1.1659919919
 31
0.0
 11
-13.2399740266
 21
-0.9342526414
 31
0.0
 11
-13.0112090287
 21
-0.7412240544
 31
0.0
 11
-12.7589014107
 21
-0.5888185569
 31
0.0
  0
SPLINE
  5
3BD
100
AcDbEntity
  8
0
100
AcDbSpline
 62
7
  6
CONTINUOUS
 70
0
 71
3
 72
11
 73
7
 74
5
 42
0.0000001
 43
0.0000001
 44
0.0000000001
 12
-1.7570148479
 22
3.1358394773
 32
0.0
 13
-3.2407000436
 23
1.5551378171
 33
0.0
 40
0.0
 40
0.0
 40
0.0
 40
0.0
 40
0.2682456409
 40
0.5281738425
 40
0.7735979044
 40
1.0
 40
1.0
 40
1.0
 40
1.0
 10
-3.8385394171
 20
-1.0659220679
 30
0.0
 10
-3.9956432751
 20
-0.7855303111
 30
0.0
 10
-4.3403251182
 20
-0.252337744
 30
0.0
 10
-4.9435622414
 20
0.455202104
 30
0.0
 10
-5.605042255
 20
1.0355377676
 30
0.0
 10
-6.0894622866
 20
1.3344217999
 30
0.0
 10
-6.3340293804
 20
1.4517839535
 30
0.0
 11
-3.8385394171
 21
-1.0659220679
 31
0.0
 11
-4.3630806713
 21
-0.2568689745
 31
0.0
 11
-4.9714748906
 21
0.4522192141
 31
0.0
 11
-5.6379046998
 21
1.0302476264
 31
0.0
 11
-6.3340293804
 21
1.4517839535
 31
0.0
  0
SPLINE
  5
3BE
100
AcDbEntity
  8
0
100
AcDbSpline
 62
7
  6
CONTINUOUS
 70
0
 71
3
 72
15
 73
11
 74
9
 42
0.0000001
 43
0.0000001
 44
0.0000000001
 12
1.425966618
 22
3.1727836757
 32
0.0
 13
3.1440882072
 23
-1.4881688054
 33
0.0
 40
0.0
 40
0.0
 40
0.0
 40
0.0
 40
0.1288229217
 40
0.2502346501
 40
0.3670470348
 40
0.4827900821
 40
0.6011688866
 40
0.7254210065
 40
0.8579314085
 40
1.0
 40
1.0
 40
1.0
 40
1.0
 10
-13.8816020378
 20
-1.8852062347
 30
0.0
 10
-13.8203696425
 20
-1.7489638138
 30
0.0
 10
-13.678830999
 20
-1.4934596871
 30
0.0
 10
-13.4012505774
 20
-1.166855417
 30
0.0
 10
-13.0705930016
 20
-0.9177048788
 30
0.0
 10
-12.6945627151
 20
-0.7528528336
 30
0.0
 10
-12.2827430606
 20
-0.6760442729
 30
0.0
 10
-11.8450354989
 20
-0.6876763216
 30
0.0
 10
-11.3908504495
 20
-0.7859277465
 30
0.0
 10
-11.0932526809
 20
-0.9029182021
 30
0.0
 10
-10.9443606198
 20
-0.9733922174
 30
0.0
 11
-13.8816020378
 21
-1.8852062347
 31
0.0
 11
-13.6619966812
 21
-1.4945963028
 31
0.0
 11
-13.3867645653
 21
-1.1742681447
 31
0.0
 11
-13.0615342536
 21
-0.9306896209
 31
0.0
 11
-12.6929454462
 21
-0.7687065075
 31
0.0
 11
-12.2884730776
 21
-0.6914726345
 31
0.0
 11
-11.856354082
 21
-0.7003682768
 31
0.0
 11
-11.4052496881
 21
-0.7950662213
 31
0.0
 11
-10.9443606198
 21
-0.9733922174
 31
0.0
  0
LINE
  5
3BF
100
AcDbEntity
  8
0
100
AcDbLine
 62
7
  6
CONTINUOUS
 10
-14.0299967624
 20
-2.2153750015
 11
-14.0321262499
 21
-2.2201284077
  0
LINE
  5
3C0
100
AcDbEntity
  8
0
100
AcDbLine
 62
7
  6
CONTINUOUS
 10
-14.0323923245
 20
-2.2207042883
 11
-14.0313006206
 21
-2.218277209
  0
LINE
  5
3C1
100
AcDbEntity
  8
0
100
AcDbLine
 62
7
  6
CONTINUOUS
 10
-14.0313006206
 20
-2.218277209
 11
-14.0297230891
 21
-2.2147820591
  0
SPLINE
  5
3C2
100
AcDbEntity
  8
0
100
AcDbSpline
 62
7
  6
CONTINUOUS
 70
0
 71
3
 72
9
 73
5
 74
3
 42
0.0000001
 43
0.0000001
 44
0.0000000001
 12
0.1304443543
 22
0.2884253141
 32
0.0
 13
0.1682861318
 23
0.268113165
 33
0.0
 40
0.0
 40
0.0
 40
0.0
 40
0.0
 40
0.2548089635
 40
1.0
 40
1.0
 40
1.0
 40
1.0
 10
-14.0297230891
 20
-2.2147820591
 30
0.0
 10
-14.0186436255
 20
-2.190284274
 30
0.0
 10
-13.9736313556
 20
-2.0948459165
 30
0.0
 10
-13.922354475
 20
-2.0023329702
 30
0.0
 10
-13.8805527027
 20
-1.9357344611
 30
0.0
 11
-14.0297230891
 21
-2.2147820591
 31
0.0
 11
-13.9952978196
 21
-2.141837116
 31
0.0
 11
-13.8805527027
 21
-1.9357344611
 31
0.0
  0
SPLINE
  5
3C3
100
AcDbEntity
  8
0
100
AcDbSpline
 62
7
  6
CONTINUOUS
 70
0
 71
3
 72
15
 73
11
 74
9
 42
0.0000001
 43
0.0000001
 44
0.0000000001
 12
1.5985947242
 22
2.4403359957
 32
0.0
 13
2.638492699
 23
-1.2446289172
 33
0.0
 40
0.0
 40
0.0
 40
0.0
 40
0.0
 40
0.1232079255
 40
0.2415951063
 40
0.3578367399
 40
0.474902801
 40
0.5956430349
 40
0.7224057874
 40
0.8568951351
 40
1.0
 40
1.0
 40
1.0
 40
1.0
 10
-13.8580226002
 20
-1.9005993827
 30
0.0
 10
-13.7923694202
 20
-1.8003764708
 30
0.0
 10
-13.6465636873
 20
-1.6142087487
 30
0.0
 10
-13.3819569102
 20
-1.384813209
 30
0.0
 10
-13.0812783444
 20
-1.2167321273
 30
0.0
 10
-12.7503934333
 20
-1.1133195549
 30
0.0
 10
-12.3956907301
 20
-1.0759967989
 30
0.0
 10
-12.0234865748
 20
-1.1045256521
 30
0.0
 10
-11.639955136
 20
-1.1976103826
 30
0.0
 10
-11.3884190518
 20
-1.2981204255
 30
0.0
 10
-11.2625586714
 20
-1.3574912432
 30
0.0
 11
-13.8580226002
 21
-1.9005993827
 31
0.0
 11
-13.6351121632
 21
-1.6186318561
 31
0.0
 11
-13.3734722187
 21
-1.3931832075
 31
0.0
 11
-13.0773710832
 21
-1.2278886183
 31
0.0
 11
-12.7516165723
 21
-1.1253255461
 31
0.0
 11
-12.4014655014
 21
-1.0870423495
 31
0.0
 11
-12.0326069077
 21
-1.1135141417
 31
0.0
 11
-11.6508875594
 21
-1.2042194619
 31
0.0
 11
-11.2625586714
 21
-1.3574912432
 31
0.0
  0
SPLINE
  5
3C4
100
AcDbEntity
  8
0
100
AcDbSpline
 62
7
  6
CONTINUOUS
 70
0
 71
3
 72
17
 73
13
 74
11
 42
0.0000001
 43
0.0000001
 44
0.0000000001
 12
-2.5023029697
 22
-5.5672956033
 32
0.0
 13
5.45939927
 23
-2.729699635
 33
0.0
 40
0.0
 40
0.0
 40
0.0
 40
0.0
 40
0.1038287732
 40
0.160814785
 40
0.2209448985
 40
0.3491035448
 40
0.4845796982
 40
0.6224047396
 40
0.7572911326
 40
0.8221301931
 40
0.8844756188
 40
1.0
 40
1.0
 40
1.0
 40
1.0
 10
-14.5068476467
 20
-3.2762339705
 30
0.0
 10
-14.5934513292
 20
-3.4689157947
 30
0.0
 10
-14.6797637805
 20
-3.7898564621
 30
0.0
 10
-14.7209341621
 20
-4.237803179
 30
0.0
 10
-14.7141443286
 20
-4.7377270021
 30
0.0
 10
-14.6095301956
 20
-5.391862307
 30
0.0
 10
-14.3509243937
 20
-6.1699933216
 30
0.0
 10
-13.9718650501
 20
-6.9123892648
 30
0.0
 10
-13.5688139443
 20
-7.4723166928
 30
0.0
 10
-13.2049666693
 20
-7.8630522696
 30
0.0
 10
-12.8373317175
 20
-8.1931648084
 30
0.0
 10
-12.5335910902
 20
-8.3966916582
 30
0.0
 10
-12.3233598494
 20
-8.5018072786
 30
0.0
 11
-14.5068476467
 21
-3.2762339705
 31
0.0
 11
-14.6814169378
 21
-3.8854662017
 31
0.0
 11
-14.7144139236
 21
-4.231728408
 31
0.0
 11
-14.7103544171
 21
-4.5987277793
 31
0.0
 11
-14.5918932135
 21
-5.3719600954
 31
0.0
 11
-14.3333331866
 21
-6.1574159878
 31
0.0
 11
-13.9506491665
 21
-6.9065915442
 31
0.0
 11
-13.4674733562
 21
-7.5732210495
 31
0.0
 11
-13.1973277265
 21
-7.8624453431
 31
0.0
 11
-12.9136664154
 21
-8.1161178015
 31
0.0
 11
-12.3233598494
 21
-8.5018072786
 31
0.0
  0
SPLINE
  5
3C5
100
AcDbEntity
  8
0
100
AcDbSpline
 62
7
  6
CONTINUOUS
 70
0
 71
3
 72
9
 73
5
 74
3
 42
0.0000001
 43
0.0000001
 44
0.0000000001
 12
0.4690683086
 22
0.2345138598
 32
0.0
 13
0.4034230666
 23
0.3350696315
 33
0.0
 40
0.0
 40
0.0
 40
0.0
 40
0.0
 40
0.2489104127
 40
1.0
 40
1.0
 40
1.0
 40
1.0
 10
-1.6852685702
 20
-6.9590487759
 30
0.0
 10
-1.6463499081
 20
-6.9395911287
 30
0.0
 10
-1.4922766021
 20
-6.8569188946
 30
0.0
 10
-1.3479417764
 20
-6.7562222649
 30
0.0
 10
-1.2469394882
 20
-6.6723331612
 30
0.0
 11
-1.6852685702
 21
-6.9590487759
 31
0.0
 11
-1.5702523688
 21
-6.8973184423
 31
0.0
 11
-1.2469394882
 21
-6.6723331612
 31
0.0
  0
SPLINE
  5
3C6
100
AcDbEntity
  8
0
100
AcDbSpline
 62
7
  6
CONTINUOUS
 70
0
 71
3
 72
9
 73
5
 74
3
 42
0.0000001
 43
0.0000001
 44
0.0000000001
 12
-0.8343280404
 22
-0.4170975347
 32
0.0
 13
-0.6094801544
 23
-0.7061215007
 33
0.0
 40
0.0
 40
0.0
 40
0.0
 40
0.0
 40
0.4937874439
 40
1.0
 40
1.0
 40
1.0
 40
1.0
 10
-7.2636806137
 20
3.6681445411
 30
0.0
 10
-7.4010075172
 20
3.5994920326
 30
0.0
 10
-7.6654154702
 20
3.4312777169
 30
0.0
 10
-7.8906595903
 20
3.2138120073
 30
0.0
 10
-7.9935017592
 20
3.0946628174
 30
0.0
 11
-7.2636806137
 21
3.6681445411
 31
0.0
 11
-7.6525810094
 21
3.4213590263
 31
0.0
 11
-7.9935017592
 21
3.0946628174
 31
0.0
  0
SPLINE
  5
3C7
100
AcDbEntity
  8
0
100
AcDbSpline
 62
7
  6
CONTINUOUS
 70
0
 71
3
 72
16
 73
12
 74
10
 42
0.0000001
 43
0.0000001
 44
0.0000000001
 12
-2.7409138348
 22
1.21972571
 32
0.0
 13
-1.6202620972
 23
-2.5248940956
 33
0.0
 40
0.0
 40
0.0
 40
0.0
 40
0.0
 40
0.1417844201
 40
0.2096158122
 40
0.2754633864
 40
0.4017519358
 40
0.522443413
 40
0.6398433776
 40
0.7567176367
 40
0.8759202524
 40
1.0
 40
1.0
 40
1.0
 40
1.0
 10
-11.1993420798
 20
-1.2811820669
 30
0.0
 10
-11.3288817061
 20
-1.2235360327
 30
0.0
 10
-11.5260249025
 20
-1.1498642912
 30
0.0
 10
-11.7931989102
 20
-1.0819043733
 30
0.0
 10
-12.0494944684
 20
-1.0371166261
 30
0.0
 10
-12.3635022161
 20
-1.0203225012
 30
0.0
 10
-12.7270719809
 20
-1.0668355474
 30
0.0
 10
-13.0659098927
 20
-1.1804348652
 30
0.0
 10
-13.3734910279
 20
-1.3595873538
 30
0.0
 10
-13.6439109639
 20
-1.6008248641
 30
0.0
 10
-13.7927819214
 20
-1.7951810366
 30
0.0
 10
-13.8597958254
 20
-1.8996104439
 30
0.0
 11
-11.1993420798
 21
-1.2811820669
 31
0.0
 11
-11.5983980488
 21
-1.1339185147
 31
0.0
 11
-11.7956726264
 21
-1.0839767213
 31
0.0
 11
-11.9903110854
 21
-1.0502058857
 31
0.0
 11
-12.3687332043
 21
-1.0317317606
 31
0.0
 11
-12.7277125133
 21
-1.0790254642
 31
0.0
 11
-13.0614459649
 21
-1.1915928977
 31
0.0
 11
-13.3645610728
 21
-1.3678376144
 31
0.0
 11
-13.63213559
 21
-1.6050971212
 31
0.0
 11
-13.8597958254
 21
-1.8996104439
 31
0.0
  0
SPLINE
  5
3C8
100
AcDbEntity
  8
0
100
AcDbSpline
 62
7
  6
CONTINUOUS
 70
0
 71
3
 72
9
 73
5
 74
3
 42
0.0000001
 43
0.0000001
 44
0.0000000001
 12
-0.1938345484
 22
-0.3020571225
 32
0.0
 13
-0.147057359
 23
-0.3273903947
 33
0.0
 40
0.0
 40
0.0
 40
0.0
 40
0.0
 40
0.2451367166
 40
1.0
 40
1.0
 40
1.0
 40
1.0
 10
-13.8597958254
 20
-1.8996104439
 30
0.0
 10
-13.8756344803
 20
-1.9242922077
 30
0.0
 10
-13.9382690737
 20
-2.0262388931
 30
0.0
 10
-13.9929940288
 20
-2.1329966721
 30
0.0
 10
-14.0299967624
 20
-2.2153750015
 30
0.0
 11
-13.8597958254
 21
-1.8996104439
 31
0.0
 11
-13.9058672514
 21
-1.9745630674
 31
0.0
 11
-14.0299967624
 21
-2.2153750015
 31
0.0
  0
SPLINE
  5
3C9
100
AcDbEntity
  8
0
100
AcDbSpline
 62
7
  6
CONTINUOUS
 70
0
 71
3
 72
23
 73
19
 74
17
 42
0.0000001
 43
0.0000001
 44
0.0000000001
 12
8.7102063947
 22
-4.1798287953
 32
0.0
 13
-8.4354550901
 23
-4.7097517578
 33
0.0
 40
0.0
 40
0.0
 40
0.0
 40
0.0
 40
0.0605084036
 40
0.1249374607
 40
0.1927649406
 40
0.2632516775
 40
0.3354981223
 40
0.4085072467
 40
0.4812330276
 40
0.5526350509
 40
0.6217342118
 40
0.6876667098
 40
0.7497430264
 40
0.8075185053
 40
0.8608765755
 40
0.9101230988
 40
0.9560606855
 40
1.0
 40
1.0
 40
1.0
 40
1.0
 10
-6.8151340564
 20
1.2112316155
 30
0.0
 10
-6.6394538284
 20
1.1269266929
 30
0.0
 10
-6.2896760744
 20
0.9249998284
 30
0.0
 10
-5.7950499865
 20
0.5475982602
 30
0.0
 10
-5.3233957798
 20
0.094219961
 30
0.0
 10
-4.885124928
 20
-0.4246709856
 30
0.0
 10
-4.4897925854
 20
-0.9972811692
 30
0.0
 10
-4.1460910611
 20
-1.6105230619
 30
0.0
 10
-3.8615648214
 20
-2.2503911251
 30
0.0
 10
-3.6424207784
 20
-2.9022733552
 30
0.0
 10
-3.4933901742
 20
-3.5513360371
 30
0.0
 10
-3.4176305739
 20
-4.1828903859
 30
0.0
 10
-3.4167268289
 20
-4.7827518872
 30
0.0
 10
-3.4907612254
 20
-5.3375722565
 30
0.0
 10
-3.6384763744
 20
-5.8350311597
 30
0.0
 10
-3.8576243922
 20
-6.263850618
 30
0.0
 10
-4.1443242384
 20
-6.613031317
 30
0.0
 10
-4.3796053078
 20
-6.7877578928
 30
0.0
 10
-4.5031546793
 20
-6.8567389807
 30
0.0
 11
-6.8151340564
 21
1.2112316155
 31
0.0
 11
-6.3075000218
 21
0.921325684
 31
0.0
 11
-5.8112902256
 21
0.5455141821
 31
0.0
 11
-5.337728459
 21
0.0925792712
 31
0.0
 11
-4.8974557184
 21
-0.4269415405
 31
0.0
 11
-4.5003776709
 21
-1.0009752815
 31
0.0
 11
-4.1553877813
 21
-1.6162053752
 31
0.0
 11
-3.8702009069
 21
-2.258342666
 31
0.0
 11
-3.651151062
 21
-2.9124687326
 31
0.0
 11
-3.5030406142
 21
-3.5634117856
 31
0.0
 11
-3.4290357022
 21
-4.1960848823
 31
0.0
 11
-3.4306048895
 21
-4.79581415
 31
0.0
 11
-3.5074752797
 21
-5.3486757612
 31
0.0
 11
-3.6576438336
 21
-5.8418211661
 31
0.0
 11
-3.877422566
 21
-6.2637975983
 31
0.0
 11
-4.1615215669
 21
-6.6047620855
 31
0.0
 11
-4.5031546793
 21
-6.8567389807
 31
0.0
  0
SPLINE
  5
3CA
100
AcDbEntity
  8
0
100
AcDbSpline
 62
7
  6
CONTINUOUS
 70
0
 71
3
 72
23
 73
19
 74
17
 42
0.0000001
 43
0.0000001
 44
0.0000000001
 12
8.309868048
 22
-3.9877155808
 32
0.0
 13
-6.6184972573
 23
-6.4149260778
 33
0.0
 40
0.0
 40
0.0
 40
0.0
 40
0.0
 40
0.0591481553
 40
0.1219121223
 40
0.1878621558
 40
0.2563951305
 40
0.326765035
 40
0.3981395834
 40
0.4696330214
 40
0.5403469521
 40
0.6094114033
 40
0.6760259291
 40
0.7395011826
 40
0.7993050721
 40
0.8551177227
 40
0.9068990656
 40
0.9549565556
 40
1.0
 40
1.0
 40
1.0
 40
1.0
 10
-7.2393981251
 20
0.9990995811
 30
0.0
 10
-7.0755603364
 20
0.9204775743
 30
0.0
 10
-6.749138148
 20
0.7342344853
 30
0.0
 10
-6.285055699
 20
0.389120095
 30
0.0
 10
-5.8397937471
 20
-0.0235909793
 30
0.0
 10
-5.4219583268
 20
-0.4955302151
 30
0.0
 10
-5.0395301705
 20
-1.0173175055
 30
0.0
 10
-4.6998681516
 20
-1.5785088105
 30
0.0
 10
-4.409505147
 20
-2.1678905418
 30
0.0
 10
-4.1740074845
 20
-2.7736732512
 30
0.0
 10
-3.9978530059
 20
-3.3837628134
 30
0.0
 10
-3.8843443085
 20
-3.9860250017
 30
0.0
 10
-3.8355680884
 20
-4.5685434172
 30
0.0
 10
-3.8524120381
 20
-5.1198719536
 30
0.0
 10
-3.9345901719
 20
-5.6292303847
 30
0.0
 10
-4.0808979289
 20
-6.0867376167
 30
0.0
 10
-4.2889511923
 20
-6.4830159993
 30
0.0
 10
-4.4716919532
 20
-6.7064612914
 30
0.0
 10
-4.5710652575
 20
-6.80277808
 30
0.0
 11
-7.2393981251
 21
0.9990995811
 31
0.0
 11
-6.7647651434
 21
0.7308800791
 31
0.0
 11
-6.2994437865
 21
0.3871597421
 31
0.0
 11
-5.8526651504
 21
-0.0250248268
 31
0.0
 11
-5.4331778714
 21
-0.4973044857
 31
0.0
 11
-5.0492459436
 21
-1.0200767182
 31
0.0
 11
-4.7083795037
 21
-1.5827511668
 31
0.0
 11
-4.4172451025
 21
-2.173916325
 31
0.0
 11
-4.1815122186
 21
-2.781574123
 31
0.0
 11
-4.0057299848
 21
-3.3934001271
 31
0.0
 11
-3.8932349914
 21
-3.9970024301
 31
0.0
 11
-3.8460938709
 21
-4.5801608323
 31
0.0
 11
-3.8650640607
 21
-5.1310554946
 31
0.0
 11
-3.9495702084
 21
-5.6385004556
 31
0.0
 11
-4.0977202223
 21
-6.0922009604
 31
0.0
 11
-4.3063477562
 21
-6.4829461853
 31
0.0
 11
-4.5710652575
 21
-6.80277808
 31
0.0
  0
SPLINE
  5
3CB
100
AcDbEntity
  8
0
100
AcDbSpline
 62
7
  6
CONTINUOUS
 70
0
 71
3
 72
9
 73
5
 74
3
 42
0.0000001
 43
0.0000001
 44
0.0000000001
 12
-0.2834600024
 22
-0.2747413636
 32
0.0
 13
-0.3386268814
 23
-0.2028896869
 33
0.0
 40
0.0
 40
0.0
 40
0.0
 40
0.0
 40
0.2530985103
 40
1.0
 40
1.0
 40
1.0
 40
1.0
 10
-4.5710652575
 20
-6.80277808
 30
0.0
 10
-4.5949796923
 20
-6.8259569566
 30
0.0
 10
-4.6919632415
 20
-6.9149180333
 30
0.0
 10
-4.799090373
 20
-6.9928816501
 30
0.0
 10
-4.8833973471
 20
-7.0433945199
 30
0.0
 11
-4.5710652575
 21
-6.80277808
 31
0.0
 11
-4.6447222622
 21
-6.8702843039
 31
0.0
 11
-4.8833973471
 21
-7.0433945199
 31
0.0
  0
SPLINE
  5
3CC
100
AcDbEntity
  8
0
100
AcDbSpline
 62
7
  6
CONTINUOUS
 70
0
 71
3
 72
23
 73
19
 74
17
 42
0.0000001
 43
0.0000001
 44
0.0000000001
 12
8.3098366635
 22
-3.9877005202
 32
0.0
 13
-6.618345035
 23
-6.4150331106
 33
0.0
 40
0.0
 40
0.0
 40
0.0
 40
0.0
 40
0.0591478794
 40
0.1219121884
 40
0.1878624516
 40
0.2563953418
 40
0.3267649703
 40
0.3981391927
 40
0.46963233
 40
0.5403460189
 40
0.6094102411
 40
0.6760245973
 40
0.7395004752
 40
0.7993047794
 40
0.8551175995
 40
0.9068990105
 40
0.9549565453
 40
1.0
 40
1.0
 40
1.0
 40
1.0
 10
-7.6636621938
 20
0.7869675468
 30
0.0
 10
-7.4998257881
 20
0.7083462036
 30
0.0
 10
-7.1734044449
 20
0.5221041125
 30
0.0
 10
-6.7093229728
 20
0.1769905081
 30
0.0
 10
-6.2640612494
 20
-0.2357196226
 30
0.0
 10
-5.8462273022
 20
-0.7076564421
 30
0.0
 10
-5.463801058
 20
-1.2294394706
 30
0.0
 10
-5.1241407244
 20
-1.790625639
 30
0.0
 10
-4.8337783594
 20
-2.3800019291
 30
0.0
 10
-4.5982805718
 20
-2.9857793906
 30
0.0
 10
-4.4221245465
 20
-3.5958639393
 30
0.0
 10
-4.3086130545
 20
-4.1981239268
 30
0.0
 10
-4.2598330749
 20
-4.7806424871
 30
0.0
 10
-4.2766732757
 20
-5.3319727651
 30
0.0
 10
-4.3588472707
 20
-5.8413318747
 30
0.0
 10
-4.5051497541
 20
-6.2988397253
 30
0.0
 10
-4.7131969505
 20
-6.6951197185
 30
0.0
 10
-4.8959331398
 20
-6.9185674268
 30
0.0
 10
-4.9953041814
 20
-7.0148858445
 30
0.0
 11
-7.6636621938
 21
0.7869675468
 31
0.0
 11
-7.189033026
 21
0.5187506498
 31
0.0
 11
-6.7237107238
 21
0.1750299639
 31
0.0
 11
-6.27693194
 21
-0.2371541815
 31
0.0
 11
-5.8574463543
 21
-0.7094311109
 31
0.0
 11
-5.4735166387
 21
-1.2321987737
 31
0.0
 11
-5.1326519455
 21
-1.7948678619
 31
0.0
 11
-4.8415182759
 21
-2.386027517
 31
0.0
 11
-4.6057850841
 21
-2.9936801639
 31
0.0
 11
-4.4300014004
 21
-3.605501054
 31
0.0
 11
-4.3175038776
 21
-4.2090989366
 31
0.0
 11
-4.2703587679
 21
-4.7922605734
 31
0.0
 11
-4.2893251867
 21
-5.3431571079
 31
0.0
 11
-4.3738270407
 21
-5.8506023979
 31
0.0
 11
-4.5219717552
 21
-6.3043033967
 31
0.0
 11
-4.7305932727
 21
-6.695050405
 31
0.0
 11
-4.9953041814
 21
-7.0148858445
 31
0.0
  0
SPLINE
  5
3CD
100
AcDbEntity
  8
0
100
AcDbSpline
 62
7
  6
CONTINUOUS
 70
0
 71
3
 72
9
 73
5
 74
3
 42
0.0000001
 43
0.0000001
 44
0.0000000001
 12
-0.2827195192
 22
-0.2740345309
 32
0.0
 13
-0.3376194772
 23
-0.2025792174
 33
0.0
 40
0.0
 40
0.0
 40
0.0
 40
0.0
 40
0.2530931818
 40
1.0
 40
1.0
 40
1.0
 40
1.0
 10
-4.9953041814
 20
-7.0148858445
 30
0.0
 10
-5.0191556423
 20
-7.0380046017
 30
0.0
 10
-5.1158795298
 20
-7.126743748
 30
0.0
 10
-5.2226941502
 20
-7.2045445826
 30
0.0
 10
-5.3067509134
 20
-7.2549805156
 30
0.0
 11
-4.9953041814
 21
-7.0148858445
 31
0.0
 11
-5.0687623287
 21
-7.0822224812
 31
0.0
 11
-5.3067509134
 21
-7.2549805156
 31
0.0
  0
SPLINE
  5
3CE
100
AcDbEntity
  8
0
100
AcDbSpline
 62
7
  6
CONTINUOUS
 70
0
 71
3
 72
23
 73
19
 74
17
 42
0.0000001
 43
0.0000001
 44
0.0000000001
 12
8.3099828378
 22
-3.9877706658
 32
0.0
 13
-6.6190356682
 23
-6.4145534895
 33
0.0
 40
0.0
 40
0.0
 40
0.0
 40
0.0
 40
0.0591484491
 40
0.1219139061
 40
0.1878651461
 40
0.2563987679
 40
0.3267688992
 40
0.3981434773
 40
0.4696368433
 40
0.5403505661
 40
0.6094146514
 40
0.6760289606
 40
0.7395049003
 40
0.7993087345
 40
0.8551206263
 40
0.9069009013
 40
0.9549573511
 40
1.0
 40
1.0
 40
1.0
 40
1.0
 10
-8.0879262625
 20
0.5748355124
 30
0.0
 10
-7.924085397
 20
0.4962120291
 30
0.0
 10
-7.597654013
 20
0.309963386
 30
0.0
 10
-7.1335594818
 20
-0.0351637265
 30
0.0
 10
-6.6882867172
 20
-0.44789065
 30
0.0
 10
-6.2704453839
 20
-0.919844868
 30
0.0
 10
-5.8880153608
 20
-1.4416453404
 30
0.0
 10
-5.5483544823
 20
-2.0028486122
 30
0.0
 10
-5.2579947544
 20
-2.5922412473
 30
0.0
 10
-5.0225027959
 20
-3.1980337056
 30
0.0
 10
-4.8463556645
 20
-3.8081320292
 30
0.0
 10
-4.7328561289
 20
-4.4104049465
 30
0.0
 10
-4.6840920079
 20
-4.9929338874
 30
0.0
 10
-4.7009521347
 20
-5.5442693234
 30
0.0
 10
-4.7831491251
 20
-6.053626238
 30
0.0
 10
-4.9294767282
 20
-6.511125042
 30
0.0
 10
-5.1375507079
 20
-6.907389764
 30
0.0
 10
-5.3203054663
 20
-7.1308216898
 30
0.0
 10
-5.4196850996
 20
-7.2271311835
 30
0.0
 11
-8.0879262625
 21
0.5748355124
 31
0.0
 11
-7.6132846377
 21
0.3066104948
 31
0.0
 11
-7.1479473798
 21
-0.0371248808
 31
0.0
 11
-6.7011573327
 21
-0.4493258651
 31
0.0
 11
-6.2816644199
 21
-0.9216201685
 31
0.0
 11
-5.8977310852
 21
-1.4444050777
 31
0.0
 11
-5.5568659314
 21
-2.0070912507
 31
0.0
 11
-5.2657348891
 21
-2.5982674702
 31
0.0
 11
-5.0300076888
 21
-3.2059350747
 31
0.0
 11
-4.8542332783
 21
-3.8177689665
 31
0.0
 11
-4.7417479769
 21
-4.421379672
 31
0.0
 11
-4.694618879
 21
-5.0045534999
 31
0.0
 11
-4.7136055072
 21
-5.5554547055
 31
0.0
 11
-4.7981304286
 21
-6.0628966532
 31
0.0
 11
-4.9462999905
 21
-6.5165873549
 31
0.0
 11
-5.1549475584
 21
-6.9073179488
 31
0.0
 11
-5.4196850996
 21
-7.2271311835
 31
0.0
  0
SPLINE
  5
3CF
100
AcDbEntity
  8
0
100
AcDbSpline
 62
7
  6
CONTINUOUS
 70
0
 71
3
 72
9
 73
5
 74
3
 42
0.0000001
 43
0.0000001
 44
0.0000000001
 12
-0.2815254715
 22
-0.272828292
 32
0.0
 13
-0.3359773933
 23
-0.2020174726
 33
0.0
 40
0.0
 40
0.0
 40
0.0
 40
0.0
 40
0.2530829864
 40
1.0
 40
1.0
 40
1.0
 40
1.0
 10
-5.4196850996
 20
-7.2271311835
 30
0.0
 10
-5.4434348686
 20
-7.2501472498
 30
0.0
 10
-5.5397393701
 20
-7.3385064583
 30
0.0
 10
-5.646046444
 20
-7.4160232316
 30
0.0
 10
-5.7296955211
 20
-7.4663199941
 30
0.0
 11
-5.4196850996
 21
-7.2271311835
 31
0.0
 11
-5.492821605
 21
-7.2941772057
 31
0.0
 11
-5.7296955211
 21
-7.4663199941
 31
0.0
  0
SPLINE
  5
3D0
100
AcDbEntity
  8
0
100
AcDbSpline
 62
7
  6
CONTINUOUS
 70
0
 71
3
 72
23
 73
19
 74
17
 42
0.0000001
 43
0.0000001
 44
0.0000000001
 12
8.3100327236
 22
-3.9877946049
 32
0.0
 13
-6.6192703277
 23
-6.4143908523
 33
0.0
 40
0.0
 40
0.0
 40
0.0
 40
0.0
 40
0.0591488089
 40
0.1219148519
 40
0.1878664717
 40
0.2564003298
 40
0.3267705486
 40
0.3981451416
 40
0.4696384847
 40
0.5403520954
 40
0.609416077
 40
0.6760305987
 40
0.7395066645
 40
0.7993103593
 40
0.8551218862
 40
0.9069016912
 40
0.9549576907
 40
1.0
 40
1.0
 40
1.0
 40
1.0
 10
-8.5121903312
 20
0.3627034781
 30
0.0
 10
-8.3483474853
 20
0.2840790443
 30
0.0
 10
-8.0219118097
 20
0.0978274391
 30
0.0
 10
-7.5578118758
 20
-0.2473051133
 30
0.0
 10
-7.1125351868
 20
-0.6600386327
 30
0.0
 10
-6.6946916002
 20
-1.1319988064
 30
0.0
 10
-6.3122609231
 20
-1.6538049206
 30
0.0
 10
-5.9726004524
 20
-2.2150133375
 30
0.0
 10
-5.6822422535
 20
-2.8044107206
 30
0.0
 10
-5.4467525431
 20
-3.4102074675
 30
0.0
 10
-5.2706085117
 20
-4.0203106611
 30
0.0
 10
-5.1571128084
 20
-4.6225888146
 30
0.0
 10
-5.1083542472
 20
-5.2051224167
 30
0.0
 10
-5.1252215147
 20
-5.7564598409
 30
0.0
 10
-5.2074265769
 20
-6.2658156315
 30
0.0
 10
-5.3537628368
 20
-6.7233106296
 30
0.0
 10
-5.5618457286
 20
-7.119569473
 30
0.0
 10
-5.7446066558
 20
-7.3429955582
 30
0.0
 10
-5.843989063
 20
-7.4393018839
 30
0.0
 11
-8.5121903312
 21
0.3627034781
 31
0.0
 11
-8.0375432071
 21
0.0944747972
 31
0.0
 11
-7.5721995323
 21
-0.2492668263
 31
0.0
 11
-7.1254056123
 21
-0.6614741574
 31
0.0
 11
-6.705910503
 21
-1.1337744949
 31
0.0
 11
-6.3219766234
 21
-1.6565648353
 31
0.0
 11
-5.9811119835
 21
-2.2192560976
 31
0.0
 11
-5.6899823822
 21
-2.8104372004
 31
0.0
 11
-5.4542576468
 21
-3.4181088501
 31
0.0
 11
-5.2784865669
 21
-4.0299466798
 31
0.0
 11
-5.1660050384
 21
-4.6335638314
 31
0.0
 11
-5.1188815494
 21
-5.2167428012
 31
0.0
 11
-5.1378754052
 21
-5.7676457837
 31
0.0
 11
-5.222408425
 21
-6.2750861031
 31
0.0
 11
-5.3705864828
 21
-6.7287724868
 31
0.0
 11
-5.5792427303
 21
-7.1194967552
 31
0.0
 11
-5.843989063
 21
-7.4393018839
 31
0.0
  0
SPLINE
  5
3D1
100
AcDbEntity
  8
0
100
AcDbSpline
 62
7
  6
CONTINUOUS
 70
0
 71
3
 72
9
 73
5
 74
3
 42
0.0000001
 43
0.0000001
 44
0.0000000001
 12
-0.2806121446
 22
-0.2719266451
 32
0.0
 13
-0.334728164
 23
-0.2016043955
 33
0.0
 40
0.0
 40
0.0
 40
0.0
 40
0.0
 40
0.2530758199
 40
1.0
 40
1.0
 40
1.0
 40
1.0
 10
-5.843989063
 20
-7.4393018839
 30
0.0
 10
-5.8676611125
 20
-7.4622412368
 30
0.0
 10
-5.9636451165
 20
-7.5503167228
 30
0.0
 10
-6.0695654711
 20
-7.62762263
 30
0.0
 10
-6.1529043243
 20
-7.6778170292
 30
0.0
 11
-5.843989063
 21
-7.4393018839
 31
0.0
 11
-5.9168799707
 21
-7.5061310253
 31
0.0
 11
-6.1529043243
 21
-7.6778170292
 31
0.0
  0
SPLINE
  5
3D2
100
AcDbEntity
  8
0
100
AcDbSpline
 62
7
  6
CONTINUOUS
 70
0
 71
3
 72
12
 73
8
 74
6
 42
0.0000001
 43
0.0000001
 44
0.0000000001
 12
1.9199056096
 22
0.810128339
 32
0.0
 13
1.8787104101
 23
-0.9015501487
 33
0.0
 40
0.0
 40
0.0
 40
0.0
 40
0.0
 40
0.1134963295
 40
0.2286666783
 40
0.4675610323
 40
0.723463347
 40
1.0
 40
1.0
 40
1.0
 40
1.0
 10
-12.6517040848
 20
-0.5394838498
 30
0.0
 10
-12.5790700049
 20
-0.5088349855
 30
0.0
 10
-12.428570656
 20
-0.456457335
 30
0.0
 10
-12.110208596
 20
-0.3887997276
 30
0.0
 10
-11.6824873411
 20
-0.3779641821
 30
0.0
 10
-11.1531014008
 20
-0.4795229987
 30
0.0
 10
-10.8066881044
 20
-0.6148528068
 30
0.0
 10
-10.6335106748
 20
-0.6979566937
 30
0.0
 11
-12.6517040848
 21
-0.5394838498
 31
0.0
 11
-12.4283914745
 21
-0.4615926432
 31
0.0
 11
-12.1936909333
 21
-0.4114584731
 31
0.0
 11
-11.6961316227
 21
-0.3955018545
 31
0.0
 11
-11.1716553168
 21
-0.4918731002
 31
0.0
 11
-10.6335106748
 21
-0.6979566937
 31
0.0
  0
SPLINE
  5
3D3
100
AcDbEntity
  8
0
100
AcDbSpline
 62
7
  6
CONTINUOUS
 70
0
 71
3
 72
23
 73
19
 74
17
 42
0.0000001
 43
0.0000001
 44
0.0000000001
 12
8.310038785
 22
-3.9877975136
 32
0.0
 13
-6.6192951233
 23
-6.4143749257
 33
0.0
 40
0.0
 40
0.0
 40
0.0
 40
0.0
 40
0.0591491322
 40
0.1219156293
 40
0.1878674442
 40
0.2564013963
 40
0.3267715504
 40
0.3981459382
 40
0.46963897
 40
0.5403520942
 40
0.6094157221
 40
0.6760307726
 40
0.7395071574
 40
0.7993109725
 40
0.8551224564
 40
0.9069021079
 40
0.9549579029
 40
1.0
 40
1.0
 40
1.0
 40
1.0
 10
-8.9364543999
 20
0.1505714437
 30
0.0
 10
-8.7726105389
 20
0.0719465229
 30
0.0
 10
-8.4461727285
 20
-0.1143067447
 30
0.0
 10
-7.9820702565
 20
-0.4594416304
 30
0.0
 10
-7.53679241
 20
-0.8721779301
 30
0.0
 10
-7.1189486512
 20
-1.3441394763
 30
0.0
 10
-6.7365189113
 20
-1.8659461937
 30
0.0
 10
-6.3968597662
 20
-2.4271538806
 30
0.0
 10
-6.1065035947
 20
-3.0165493455
 30
0.0
 10
-5.8710152189
 20
-3.622343318
 30
0.0
 10
-5.694871981
 20
-4.2324462129
 30
0.0
 10
-5.5813759072
 20
-4.8347263072
 30
0.0
 10
-5.5326179428
 20
-5.4172634112
 30
0.0
 10
-5.549486572
 20
-5.9686024245
 30
0.0
 10
-5.6316930956
 20
-6.4779581476
 30
0.0
 10
-5.7780307662
 20
-6.9354517534
 30
0.0
 10
-5.9861143238
 20
-7.3317086719
 30
0.0
 10
-6.1688756955
 20
-7.5551329756
 30
0.0
 10
-6.2682580067
 20
-7.6514386083
 30
0.0
 11
-8.9364543999
 21
0.1505714437
 31
0.0
 11
-8.4618044968
 21
-0.1176591848
 31
0.0
 11
-7.9964574393
 21
-0.461403985
 31
0.0
 11
-7.5496625871
 21
-0.87361361
 31
0.0
 11
-7.1301672989
 21
-1.3459155639
 31
0.0
 11
-6.7462343166
 21
-1.8687064107
 31
0.0
 11
-6.4053711543
 21
-2.4313969179
 31
0.0
 11
-6.1142433572
 21
-3.022576247
 31
0.0
 11
-5.8785204817
 21
-3.6302443173
 31
0.0
 11
-5.7027505749
 21
-4.2420795761
 31
0.0
 11
-5.5902682834
 21
-4.8457019984
 31
0.0
 11
-5.5431453809
 21
-5.4288843935
 31
0.0
 11
-5.5621405968
 21
-5.9797888409
 31
0.0
 11
-5.6466751111
 21
-6.4872288905
 31
0.0
 11
-5.7948544385
 21
-6.9409137375
 31
0.0
 11
-6.0035113969
 21
-7.3316358555
 31
0.0
 11
-6.2682580067
 21
-7.6514386083
 31
0.0
  0
SPLINE
  5
3D4
100
AcDbEntity
  8
0
100
AcDbSpline
 62
7
  6
CONTINUOUS
 70
0
 71
3
 72
9
 73
5
 74
3
 42
0.0000001
 43
0.0000001
 44
0.0000000001
 12
-0.2788022735
 22
-0.2701711103
 32
0.0
 13
-0.332263735
 23
-0.2008082342
 33
0.0
 40
0.0
 40
0.0
 40
0.0
 40
0.0
 40
0.2530625839
 40
1.0
 40
1.0
 40
1.0
 40
1.0
 10
-6.2682580067
 20
-7.6514386083
 30
0.0
 10
-6.291776148
 20
-7.6742286748
 30
0.0
 10
-6.3871255388
 20
-7.7617520949
 30
0.0
 10
-6.4922821224
 20
-7.8386492609
 30
0.0
 10
-6.575008861
 20
-7.8886463221
 30
0.0
 11
-6.2682580067
 21
-7.6514386083
 31
0.0
 11
-6.3406629336
 21
-7.717845968
 31
0.0
 11
-6.575008861
 21
-7.8886463221
 31
0.0
  0
SPLINE
  5
3D5
100
AcDbEntity
  8
0
100
AcDbSpline
 62
7
  6
CONTINUOUS
 70
0
 71
3
 72
23
 73
19
 74
17
 42
0.0000001
 43
0.0000001
 44
0.0000000001
 12
8.3098082592
 22
-3.9876868896
 32
0.0
 13
-6.6181964624
 23
-6.4151411223
 33
0.0
 40
0.0
 40
0.0
 40
0.0
 40
0.0
 40
0.059148641
 40
0.1219146964
 40
0.1878658136
 40
0.2563991119
 40
0.3267684614
 40
0.398141709
 40
0.4696331009
 40
0.5403445935
 40
0.6094077441
 40
0.6760235165
 40
0.7395009517
 40
0.7993061445
 40
0.8551192638
 40
0.9069005128
 40
0.9549574969
 40
1.0
 40
1.0
 40
1.0
 40
1.0
 10
-9.7849825373
 20
-0.273692625
 30
0.0
 10
-9.6211445821
 20
-0.3523147118
 30
0.0
 10
-9.294718043
 20
-0.5385607102
 30
0.0
 10
-8.8306302495
 20
-0.8836799403
 30
0.0
 10
-8.3853654608
 20
-1.2963973568
 30
0.0
 10
-7.9675322125
 20
-1.7683359112
 30
0.0
 10
-7.5851106085
 20
-2.2901163762
 30
0.0
 10
-7.2454570984
 20
-2.8512932264
 30
0.0
 10
-6.9551025965
 20
-3.4406539842
 30
0.0
 10
-6.7196097556
 20
-4.0464143948
 30
0.0
 10
-6.5434535462
 20
-4.6564906319
 30
0.0
 10
-6.4299371406
 20
-5.258753523
 30
0.0
 10
-6.3811537155
 20
-5.8412817848
 30
0.0
 10
-6.3979924256
 20
-6.3926186843
 30
0.0
 10
-6.4801649583
 20
-6.9019794437
 30
0.0
 10
-6.6264644898
 20
-7.3594850776
 30
0.0
 10
-6.8345051493
 20
-7.7557609094
 30
0.0
 10
-7.017234908
 20
-7.9792062975
 30
0.0
 10
-7.1166016196
 20
-8.0755243021
 30
0.0
 11
-9.7849825373
 21
-0.273692625
 31
0.0
 11
-9.3103491919
 21
-0.5419126103
 31
0.0
 11
-8.8450162483
 21
-0.8856426536
 31
0.0
 11
-8.3982350285
 21
-1.2978327023
 31
0.0
 11
-7.978749973
 21
-1.7701122467
 31
0.0
 11
-7.5948247363
 21
-2.2928772562
 31
0.0
 11
-7.2539668765
 21
-2.855537351
 31
0.0
 11
-6.9628414112
 21
-3.4466806024
 31
0.0
 11
-6.7271149572
 21
-4.0543117613
 31
0.0
 11
-6.5513317925
 21
-4.6661202593
 31
0.0
 11
-6.4388284089
 21
-5.2697281929
 31
0.0
 11
-6.3916796276
 21
-5.8529019267
 31
0.0
 11
-6.4106445305
 21
-6.4038048232
 31
0.0
 11
-6.4951448934
 21
-6.9112513748
 31
0.0
 11
-6.6432864801
 21
-7.3649501079
 31
0.0
 11
-6.8519016546
 21
-7.7556930325
 31
0.0
 11
-7.1166016196
 21
-8.0755243021
 31
0.0
  0
SPLINE
  5
3D6
100
AcDbEntity
  8
0
100
AcDbSpline
 62
7
  6
CONTINUOUS
 70
0
 71
3
 72
9
 73
5
 74
3
 42
0.0000001
 43
0.0000001
 44
0.0000000001
 12
-0.2764826842
 22
-0.2679998164
 32
0.0
 13
-0.3291316552
 23
-0.1998472662
 33
0.0
 40
0.0
 40
0.0
 40
0.0
 40
0.0
 40
0.2530466548
 40
1.0
 40
1.0
 40
1.0
 40
1.0
 10
-7.1166016196
 20
-8.0755243021
 30
0.0
 10
-7.1399226257
 20
-8.0981297878
 30
0.0
 10
-7.2344598953
 20
-8.1849713195
 30
0.0
 10
-7.3386438017
 20
-8.2613677976
 30
0.0
 10
-7.4205924653
 20
-8.311126659
 30
0.0
 11
-7.1166016196
 21
-8.0755243021
 31
0.0
 11
-7.1883850047
 21
-8.1414108819
 31
0.0
 11
-7.4205924653
 21
-8.311126659
 31
0.0
  0
SPLINE
  5
3D7
100
AcDbEntity
  8
0
100
AcDbSpline
 62
7
  6
CONTINUOUS
 70
0
 71
3
 72
12
 73
8
 74
6
 42
0.0000001
 43
0.0000001
 44
0.0000000001
 12
1.9444297123
 22
0.8893399539
 32
0.0
 13
1.9276938378
 23
-0.9250561751
 33
0.0
 40
0.0
 40
0.0
 40
0.0
 40
0.0
 40
0.1135961159
 40
0.2286943625
 40
0.4672327018
 40
0.7230096571
 40
1.0
 40
1.0
 40
1.0
 40
1.0
 10
-12.277448577
 20
-0.3493295247
 30
0.0
 10
-12.2038220226
 20
-0.3156543365
 30
0.0
 10
-12.0508933266
 20
-0.2576387109
 30
0.0
 10
-11.7261170887
 20
-0.1806469447
 30
0.0
 10
-11.2875513934
 20
-0.162346575
 30
0.0
 10
-10.743302565
 20
-0.2621515974
 30
0.0
 10
-10.3872307984
 20
-0.400414117
 30
0.0
 10
-10.2092466061
 20
-0.4858246594
 30
0.0
 11
-12.277448577
 21
-0.3493295247
 31
0.0
 11
-12.0504080415
 21
-0.2630359243
 31
0.0
 11
-11.8110015113
 21
-0.2060357025
 31
0.0
 11
-11.3015724019
 21
-0.1812158507
 31
0.0
 11
-10.7628485512
 21
-0.2753849109
 31
0.0
 11
-10.2092466061
 21
-0.4858246594
 31
0.0
  0
SPLINE
  5
3D8
100
AcDbEntity
  8
0
100
AcDbSpline
 62
7
  6
CONTINUOUS
 70
0
 71
3
 72
23
 73
19
 74
17
 42
0.0000001
 43
0.0000001
 44
0.0000000001
 12
8.3099570198
 22
-3.9877582764
 32
0.0
 13
-6.6189070137
 23
-6.4146450943
 33
0.0
 40
0.0
 40
0.0
 40
0.0
 40
0.0
 40
0.0591490074
 40
0.1219154406
 40
0.187867074
 40
0.2564008763
 40
0.3267708026
 40
0.3981447683
 40
0.4696371234
 40
0.5403494518
 40
0.6094126612
 40
0.6760280691
 40
0.7395048975
 40
0.7993092633
 40
0.8551213834
 40
0.9069016299
 40
0.954957822
 40
1.0
 40
1.0
 40
1.0
 40
1.0
 10
-9.3607184686
 20
-0.0615605907
 30
0.0
 10
-9.1968765655
 20
-0.1401845719
 30
0.0
 10
-8.8704424055
 20
-0.3264355368
 30
0.0
 10
-8.4063446451
 20
-0.671565284
 30
0.0
 10
-7.9610710574
 20
-1.0842955776
 30
0.0
 10
-7.5432307254
 20
-1.5562495479
 30
0.0
 10
-7.1608038951
 20
-2.0780474365
 30
0.0
 10
-6.8211469793
 20
-2.6392441284
 30
0.0
 10
-6.530792131
 20
-3.2286265073
 30
0.0
 10
-6.2953027621
 20
-3.8344069511
 30
0.0
 10
-6.1191553656
 20
-4.4444993423
 30
0.0
 10
-6.0056518394
 20
-5.0467730461
 30
0.0
 10
-5.9568847078
 20
-5.6293077348
 30
0.0
 10
-5.9737427349
 20
-6.1806465801
 30
0.0
 10
-6.0559372997
 20
-6.6900045393
 30
0.0
 10
-6.2022616524
 20
-7.1475025372
 30
0.0
 10
-6.4103299318
 20
-7.5437659886
 30
0.0
 10
-6.5930799791
 20
-7.7671975149
 30
0.0
 10
-6.6924566418
 20
-7.863507377
 30
0.0
 11
-9.3607184686
 21
-0.0615605907
 31
0.0
 11
-8.8860740673
 21
-0.3297877131
 31
0.0
 11
-8.4207313764
 21
-0.6735278515
 31
0.0
 11
-7.9739410492
 21
-1.0857310949
 31
0.0
 11
-7.5544490377
 21
-1.558025799
 31
0.0
 11
-7.1705187026
 21
-2.0808080661
 31
0.0
 11
-6.8296576988
 21
-2.6434877641
 31
0.0
 11
-6.5385313348
 21
-3.2346536186
 31
0.0
 11
-6.3028079695
 21
-3.8423067527
 31
0.0
 11
-6.1270340034
 21
-4.4541303145
 31
0.0
 11
-6.0145438542
 21
-5.0577484787
 31
0.0
 11
-5.9674116258
 21
-5.6409284465
 31
0.0
 11
-5.9863960981
 21
-6.1918329161
 31
0.0
 11
-6.0709186316
 21
-6.6992757743
 31
0.0
 11
-6.2190847736
 21
-7.152965757
 31
0.0
 11
-6.4277268704
 21
-7.5436950198
 31
0.0
 11
-6.6924566418
 21
-7.863507377
 31
0.0
  0
SPLINE
  5
3D9
100
AcDbEntity
  8
0
100
AcDbSpline
 62
7
  6
CONTINUOUS
 70
0
 71
3
 72
9
 73
5
 74
3
 42
0.0000001
 43
0.0000001
 44
0.0000000001
 12
-0.2777442155
 22
-0.2691729262
 32
0.0
 13
-0.3308321319
 23
-0.2003647024
 33
0.0
 40
0.0
 40
0.0
 40
0.0
 40
0.0
 40
0.2530554856
 40
1.0
 40
1.0
 40
1.0
 40
1.0
 10
-6.6924566418
 20
-7.863507377
 30
0.0
 10
-6.7158848743
 20
-7.8862126056
 30
0.0
 10
-6.8108637013
 20
-7.9734224556
 30
0.0
 10
-6.9155758363
 20
-8.0500891505
 30
0.0
 10
-6.9979469184
 20
-8.0999762556
 30
0.0
 11
-6.6924566418
 21
-7.863507377
 31
0.0
 11
-6.7645779933
 21
-7.9296753146
 31
0.0
 11
-6.9979469184
 21
-8.0999762556
 31
0.0
  0
SPLINE
  5
3DA
100
AcDbEntity
  8
0
100
AcDbSpline
 62
7
  6
CONTINUOUS
 70
0
 71
3
 72
23
 73
19
 74
17
 42
0.0000001
 43
0.0000001
 44
0.0000000001
 12
8.3096968121
 22
-3.9876334086
 32
0.0
 13
-6.6176624614
 23
-6.4155143876
 33
0.0
 40
0.0
 40
0.0
 40
0.0
 40
0.0
 40
0.0591483427
 40
0.121914068
 40
0.187864766
 40
0.2563976464
 40
0.3267665326
 40
0.3981392435
 40
0.4696299371
 40
0.54034092
 40
0.6094042196
 40
0.6760202061
 40
0.7394980591
 40
0.7993038388
 40
0.8551176767
 40
0.9068996584
 40
0.9549572415
 40
1.0
 40
1.0
 40
1.0
 40
1.0
 10
-10.2092466061
 20
-0.4858246594
 30
0.0
 10
-10.0454116745
 20
-0.5644452951
 30
0.0
 10
-9.718991017
 20
-0.7506874339
 30
0.0
 10
-9.2549109389
 20
-1.0957985821
 30
0.0
 10
-8.8096529232
 20
-1.5085060033
 30
0.0
 10
-8.3918251413
 20
-1.9804327223
 30
0.0
 10
-8.0094074474
 20
-2.5021998634
 30
0.0
 10
-7.6697564455
 20
-3.0633617971
 30
0.0
 10
-7.3794018167
 20
-3.6527066538
 30
0.0
 10
-7.1439060707
 20
-4.2584530358
 30
0.0
 10
-6.9677429144
 20
-4.8685178787
 30
0.0
 10
-6.8542170171
 20
-5.4707730067
 30
0.0
 10
-6.8054214846
 20
-6.0532960592
 30
0.0
 10
-6.8222457499
 20
-6.6046311949
 30
0.0
 10
-6.904401776
 20
-7.1139937936
 30
0.0
 10
-7.0506826162
 20
-7.5715050422
 30
0.0
 10
-7.2587026391
 20
-7.9677901162
 30
0.0
 10
-7.4414171868
 20
-8.1912459567
 30
0.0
 10
-7.5407764441
 20
-8.2875701117
 30
0.0
 11
-10.2092466061
 21
-0.4858246594
 31
0.0
 11
-9.7346217221
 21
-0.7540391666
 31
0.0
 11
-9.2692964064
 21
-1.0977613583
 31
0.0
 11
-8.8225221599
 21
-1.5099412433
 31
0.0
 11
-8.4030424901
 21
-1.9822090886
 31
0.0
 11
-8.0191211335
 21
-2.504960858
 31
0.0
 11
-7.6782655288
 21
-3.0676062196
 31
0.0
 11
-7.3871405069
 21
-3.658732664
 31
0.0
 11
-7.1514113302
 21
-4.2663483516
 31
0.0
 11
-6.9756207564
 21
-4.8781472674
 31
0.0
 11
-6.8631077067
 21
-5.4817470304
 31
0.0
 11
-6.8159466339
 21
-6.0649157611
 31
0.0
 11
-6.8348969069
 21
-6.6158171764
 31
0.0
 11
-6.9193806348
 21
-7.123266218
 31
0.0
 11
-7.0675037478
 21
-7.5769713531
 31
0.0
 11
-7.2760987906
 21
-7.9677245498
 31
0.0
 11
-7.5407764441
 21
-8.2875701117
 31
0.0
  0
SPLINE
  5
3DB
100
AcDbEntity
  8
0
100
AcDbSpline
 62
7
  6
CONTINUOUS
 70
0
 71
3
 72
9
 73
5
 74
3
 42
0.0000001
 43
0.0000001
 44
0.0000000001
 12
-0.275567018
 22
-0.2671493415
 32
0.0
 13
-0.3278987462
 23
-0.199470209
 33
0.0
 40
0.0
 40
0.0
 40
0.0
 40
0.0
 40
0.253039913
 40
1.0
 40
1.0
 40
1.0
 40
1.0
 10
-7.5407764441
 20
-8.2875701117
 30
0.0
 10
-7.5640195955
 20
-8.3101032604
 30
0.0
 10
-7.6582364334
 20
-8.3966777276
 30
0.0
 10
-7.7620374034
 20
-8.4728778863
 30
0.0
 10
-7.8436798287
 20
-8.5225433146
 30
0.0
 11
-7.5407764441
 21
-8.2875701117
 31
0.0
 11
-7.6123145007
 21
-8.3532525931
 31
0.0
 11
-7.8436798287
 21
-8.5225433146
 31
0.0
  0
SPLINE
  5
3DC
100
AcDbEntity
  8
0
100
AcDbSpline
 62
7
  6
CONTINUOUS
 70
0
 71
3
 72
12
 73
8
 74
6
 42
0.0000001
 43
0.0000001
 44
0.0000000001
 12
1.944458324
 22
0.8894234523
 32
0.0
 13
1.9277486083
 23
-0.9250824582
 33
0.0
 40
0.0
 40
0.0
 40
0.0
 40
0.0
 40
0.1135961215
 40
0.2286941293
 40
0.4672323724
 40
0.7230094775
 40
1.0
 40
1.0
 40
1.0
 40
1.0
 10
-11.8532397954
 20
-0.1372237749
 30
0.0
 10
-11.7796121541
 20
-0.1035454234
 30
0.0
 10
-11.6266822305
 20
-0.0455202146
 30
0.0
 10
-11.3018977841
 20
0.031478236
 30
0.0
 10
-10.8633203566
 20
0.0497891667
 30
0.0
 10
-10.3190543215
 20
-0.050013683
 30
0.0
 10
-9.9629719021
 20
-0.1882796005
 30
0.0
 10
-9.7849825373
 20
-0.273692625
 30
0.0
 11
-11.8532397954
 21
-0.1372237749
 31
0.0
 11
-11.6261961118
 21
-0.0509190002
 31
0.0
 11
-11.3867844849
 21
0.0060877998
 31
0.0
 11
-10.8773415741
 21
0.0309179344
 31
0.0
 11
-10.3386011087
 21
-0.0632481762
 31
0.0
 11
-9.7849825373
 21
-0.273692625
 31
0.0
  0
SPLINE
  5
3DD
100
AcDbEntity
  8
0
100
AcDbSpline
 62
7
  6
CONTINUOUS
 70
0
 71
3
 72
23
 73
19
 74
17
 42
0.0000001
 43
0.0000001
 44
0.0000000001
 12
8.3096488958
 22
-3.9876104147
 32
0.0
 13
-6.6174274639
 23
-6.4156804278
 33
0.0
 40
0.0
 40
0.0
 40
0.0
 40
0.0
 40
0.0591482779
 40
0.1219139626
 40
0.1878645607
 40
0.256397362
 40
0.3267660939
 40
0.3981384283
 40
0.4696285256
 40
0.5403392169
 40
0.6094028156
 40
0.6760189529
 40
0.7394970538
 40
0.7993031421
 40
0.8551173365
 40
0.9068996267
 40
0.954957337
 40
1.0
 40
1.0
 40
1.0
 40
1.0
 10
-10.6335106748
 20
-0.6979566937
 30
0.0
 10
-10.4696768674
 20
-0.77657679
 30
0.0
 10
-10.1432583281
 20
-0.9628175772
 30
0.0
 10
-9.6791810029
 20
-1.3079257624
 30
0.0
 10
-9.2339254339
 20
-1.7206296662
 30
0.0
 10
-8.8160997119
 20
-2.1925519679
 30
0.0
 10
-8.4336839515
 20
-2.7143135649
 30
0.0
 10
-8.0940348166
 20
-3.2754681277
 30
0.0
 10
-7.8036808897
 20
-3.864804759
 30
0.0
 10
-7.5681841928
 20
-4.4705447754
 30
0.0
 10
-7.3920176451
 20
-5.0806053158
 30
0.0
 10
-7.2784876655
 20
-5.682858247
 30
0.0
 10
-7.2296870564
 20
-6.2653796368
 30
0.0
 10
-7.2465054256
 20
-6.8167145406
 30
0.0
 10
-7.3286548291
 20
-7.3260781677
 30
0.0
 10
-7.4749280412
 20
-7.7835914041
 30
0.0
 10
-7.682939019
 20
-8.1798793609
 30
0.0
 10
-7.865646534
 20
-8.4033387041
 30
0.0
 10
-7.9650020525
 20
-8.499665148
 30
0.0
 11
-10.6335106748
 21
-0.6979566937
 31
0.0
 11
-10.1588889464
 21
-0.9661691818
 31
0.0
 11
-9.6935662217
 21
-1.3098886363
 31
0.0
 11
-9.2467945779
 21
-1.7220648165
 31
0.0
 11
-8.8273167949
 21
-2.1943284908
 31
0.0
 11
-8.4433970994
 21
-2.7170750745
 31
0.0
 11
-8.1025433369
 21
-3.2797130599
 31
0.0
 11
-7.8114197963
 21
-3.8708298722
 31
0.0
 11
-7.5756897285
 21
-4.4784382999
 31
0.0
 11
-7.3998952795
 21
-5.0902351513
 31
0.0
 11
-7.2873781198
 21
-5.6938319608
 31
0.0
 11
-7.2402119152
 21
-6.2769991841
 31
0.0
 11
-7.259156222
 21
-6.8279004698
 31
0.0
 11
-7.3436332967
 21
-7.3353509428
 31
0.0
 11
-7.4917489209
 21
-7.7890586192
 31
0.0
 11
-7.7003350983
 21
-8.1798149816
 31
0.0
 11
-7.9650020525
 21
-8.499665148
 31
0.0
  0
SPLINE
  5
3DE
100
AcDbEntity
  8
0
100
AcDbSpline
 62
7
  6
CONTINUOUS
 70
0
 71
3
 72
9
 73
5
 74
3
 42
0.0000001
 43
0.0000001
 44
0.0000000001
 12
-0.2742792786
 22
-0.2659172631
 32
0.0
 13
-0.3261564342
 23
-0.1989047358
 33
0.0
 40
0.0
 40
0.0
 40
0.0
 40
0.0
 40
0.2530294729
 40
1.0
 40
1.0
 40
1.0
 40
1.0
 10
-7.9650020525
 20
-8.499665148
 30
0.0
 10
-7.9881356329
 20
-8.5220934496
 30
0.0
 10
-8.0819015058
 20
-8.6082803362
 30
0.0
 10
-8.1851623281
 20
-8.6841923363
 30
0.0
 10
-8.2663720759
 20
-8.7337176614
 30
0.0
 11
-7.9650020525
 21
-8.499665148
 31
0.0
 11
-8.0361945955
 21
-8.5650512561
 31
0.0
 11
-8.2663720759
 21
-8.7337176614
 31
0.0
  0
SPLINE
  5
3DF
100
AcDbEntity
  8
0
100
AcDbSpline
 62
7
  6
CONTINUOUS
 70
0
 71
3
 72
11
 73
7
 74
5
 42
0.0000001
 43
0.0000001
 44
0.0000000001
 12
0.3359174116
 22
3.6719453889
 32
0.0
 13
-1.7499087538
 23
3.2455882055
 33
0.0
 40
0.0
 40
0.0
 40
0.0
 40
0.0
 40
0.2292769857
 40
0.4761973826
 40
0.7353395447
 40
1.0
 40
1.0
 40
1.0
 40
1.0
 10
-3.0082616383
 20
-4.6106910265
 30
0.0
 10
-2.9825889278
 20
-4.3300601696
 30
0.0
 10
-2.9861337051
 20
-3.7413206191
 30
0.0
 10
-3.1329419399
 20
-2.8465145313
 30
0.0
 10
-3.4146091729
 20
-1.9391907527
 30
0.0
 10
-3.6841622012
 20
-1.352248352
 30
0.0
 10
-3.8385394171
 20
-1.0659220679
 30
0.0
 11
-3.0082616383
 21
-4.6106910265
 31
0.0
 11
-3.0072198562
 21
-3.7652835462
 31
0.0
 11
-3.150478641
 21
-2.866160556
 31
0.0
 11
-3.431714343
 21
-1.9529558613
 31
0.0
 11
-3.8385394171
 21
-1.0659220679
 31
0.0
  0
SPLINE
  5
3E0
100
AcDbEntity
  8
0
100
AcDbSpline
 62
7
  6
CONTINUOUS
 70
0
 71
3
 72
11
 73
7
 74
5
 42
0.0000001
 43
0.0000001
 44
0.0000000001
 12
3.2433162722
 22
-1.5563932854
 32
0.0
 13
1.7572276553
 23
-3.1390462672
 33
0.0
 40
0.0
 40
0.0
 40
0.0
 40
0.0
 40
0.2263967735
 40
0.4718227386
 40
0.7317637241
 40
1.0
 40
1.0
 40
1.0
 40
1.0
 10
-6.3908699876
 20
1.4233636498
 30
0.0
 10
-6.1461112078
 20
1.3059095105
 30
0.0
 10
-5.6613213927
 20
1.0067467372
 30
0.0
 10
-4.9994080834
 20
0.4258057674
 30
0.0
 10
-4.3958569337
 20
-0.282465422
 30
0.0
 10
-4.051079209
 20
-0.8162145649
 30
0.0
 10
-3.8939618083
 20
-1.0968832584
 30
0.0
 11
-6.3908699876
 21
1.4233636498
 31
0.0
 11
-5.6942286608
 21
1.0014491108
 31
0.0
 11
-5.0273602478
 21
0.4228290167
 31
0.0
 11
-4.4186285939
 21
-0.2870240718
 31
0.0
 11
-3.8939618083
 21
-1.0968832584
 31
0.0
  0
SPLINE
  5
3E1
100
AcDbEntity
  8
0
100
AcDbSpline
 62
7
  6
CONTINUOUS
 70
0
 71
3
 72
11
 73
7
 74
5
 42
0.0000001
 43
0.0000001
 44
0.0000000001
 12
1.7925977966
 22
-3.2022301751
 32
0.0
 13
-0.272661922
 23
-3.6596913027
 33
0.0
 40
0.0
 40
0.0
 40
0.0
 40
0.0
 40
0.2656051928
 40
0.5251002307
 40
0.7717192298
 40
1.0
 40
1.0
 40
1.0
 40
1.0
 10
-3.8939618083
 20
-1.0968832584
 30
0.0
 10
-3.7352540472
 20
-1.3803929127
 30
0.0
 10
-3.4569964383
 20
-1.9616315782
 30
0.0
 10
-3.1616821874
 20
-2.8611485266
 30
0.0
 10
-3.0009886313
 20
-3.7480056739
 30
0.0
 10
-2.9875138138
 20
-4.3322119767
 30
0.0
 10
-3.0082616383
 20
-4.6106910265
 30
0.0
 11
-3.8939618083
 21
-1.0968832584
 31
0.0
 11
-3.4735403398
 21
-1.9762800326
 31
0.0
 11
-3.1785561851
 21
-2.8817450717
 31
0.0
 11
-3.0213654802
 21
-3.7730408788
 31
0.0
 11
-3.0082616383
 21
-4.6106910265
 31
0.0
  0
SPLINE
  5
3E2
100
AcDbEntity
  8
0
100
AcDbSpline
 62
7
  6
CONTINUOUS
 70
0
 71
3
 72
11
 73
7
 74
5
 42
0.0000001
 43
0.0000001
 44
0.0000000001
 12
-1.3646776278
 22
0.2424451847
 32
0.0
 13
-1.3020593014
 23
-0.4751486833
 33
0.0
 40
0.0
 40
0.0
 40
0.0
 40
0.0
 40
0.2629460127
 40
0.5157503093
 40
0.7605740529
 40
1.0
 40
1.0
 40
1.0
 40
1.0
 10
-5.6604543021
 20
3.8664733951
 30
0.0
 10
-5.7800664824
 20
3.8877233933
 30
0.0
 10
-6.0172723607
 20
3.9164077065
 30
0.0
 10
-6.3696094196
 20
3.9152701331
 30
0.0
 10
-6.7080068465
 20
3.8689642251
 30
0.0
 10
-6.9240857661
 20
3.8075518178
 30
0.0
 10
-7.0280013599
 20
3.7696308433
 30
0.0
 11
-5.6604543021
 21
3.8664733951
 31
0.0
 11
-6.0223828723
 21
3.9093153716
 31
0.0
 11
-6.3727760282
 21
3.9073816303
 31
0.0
 11
-6.708887414
 21
3.8607041545
 31
0.0
 11
-7.0280013599
 21
3.7696308433
 31
0.0
  0
SPLINE
  5
3E3
100
AcDbEntity
  8
0
100
AcDbSpline
 62
7
  6
CONTINUOUS
 70
0
 71
3
 72
26
 73
22
 74
20
 42
0.0000001
 43
0.0000001
 44
0.0000000001
 12
10.2162869141
 22
-1.4600987128
 32
0.0
 13
-9.4286546017
 23
4.1958168412
 33
0.0
 40
0.0
 40
0.0
 40
0.0
 40
0.0
 40
0.0483989532
 40
0.0714565419
 40
0.0940743976
 40
0.1165609065
 40
0.139235059
 40
0.1624047587
 40
0.1863447705
 40
0.2373119874
 40
0.2934299263
 40
0.355056666
 40
0.4218773577
 40
0.4930736629
 40
0.5674703399
 40
0.6436597072
 40
0.7201137011
 40
0.7952913693
 40
0.8677524242
 40
0.9362729513
 40
1.0
 40
1.0
 40
1.0
 40
1.0
 10
-10.0182696016
 20
-9.0856732189
 30
0.0
 10
-9.853450404
 20
-9.1092289687
 30
0.0
 10
-9.6041141064
 20
-9.1163851752
 30
0.0
 10
-9.2850038527
 20
-9.0574908207
 30
0.0
 10
-9.0621502887
 20
-8.9817408816
 30
0.0
 10
-8.8543216384
 20
-8.8741435575
 30
0.0
 10
-8.6632974213
 20
-8.7357033279
 30
0.0
 10
-8.4908081717
 20
-8.5675706993
 30
0.0
 10
-8.2831742523
 20
-8.3004733456
 30
0.0
 10
-8.0789603968
 20
-7.8934344381
 30
0.0
 10
-7.9335702337
 20
-7.3280559936
 30
0.0
 10
-7.88501129
 20
-6.6922185905
 30
0.0
 10
-7.9348257329
 20
-6.0050722808
 30
0.0
 10
-8.0818881608
 20
-5.287427294
 30
0.0
 10
-8.3224120292
 20
-4.56164992
 30
0.0
 10
-8.6496746595
 20
-3.8507583241
 30
0.0
 10
-9.054171972
 20
-3.1776330921
 30
0.0
 10
-9.5238250827
 20
-2.5641882856
 30
0.0
 10
-10.0445726404
 20
-2.0305762696
 30
0.0
 10
-10.6003676779
 20
-1.5946610842
 30
0.0
 10
-10.999055303
 20
-1.3703110749
 30
0.0
 10
-11.1993420798
 20
-1.2811820669
 30
0.0
 11
-10.0182696016
 21
-9.0856732189
 31
0.0
 11
-9.5188769932
 21
-9.0951174647
 31
0.0
 11
-9.2849396622
 21
-9.0515669435
 31
0.0
 11
-9.0640253004
 21
-8.9761943582
 31
0.0
 11
-8.8579278322
 21
-8.8695311013
 31
0.0
 11
-8.6683144158
 21
-8.7324088975
 31
0.0
 11
-8.4967542995
 21
-8.5658483449
 31
0.0
 11
-8.3446651358
 21
-8.3711456609
 31
0.0
 11
-8.1038915762
 21
-7.9035026006
 31
0.0
 11
-7.9543296006
 21
-7.3440051933
 31
0.0
 11
-7.9015345165
 21
-6.7102063475
 31
0.0
 11
-7.9480597675
 21
-6.0221815716
 31
0.0
 11
-8.0933258724
 21
-5.3019320151
 31
0.0
 11
-8.3335868891
 21
-4.5727117373
 31
0.0
 11
-8.6619975747
 21
-3.8582991822
 31
0.0
 11
-9.0687850119
 21
-3.1822333998
 31
0.0
 11
-9.5415116013
 21
-2.567043521
 31
0.0
 11
-10.06546074
 21
-2.0334802037
 31
0.0
 11
-10.6240205067
 21
-1.5998261397
 31
0.0
 11
-11.1993420798
 21
-1.2811820669
 31
0.0
  0
SPLINE
  5
3E4
100
AcDbEntity
  8
0
100
AcDbSpline
 62
7
  6
CONTINUOUS
 70
0
 71
3
 72
12
 73
8
 74
6
 42
0.0000001
 43
0.0000001
 44
0.0000000001
 12
1.944469122
 22
0.8894766017
 32
0.0
 13
1.9277773936
 23
-0.9250962716
 33
0.0
 40
0.0
 40
0.0
 40
0.0
 40
0.0
 40
0.1135955855
 40
0.2286932348
 40
0.467231201
 40
0.7230104939
 40
1.0
 40
1.0
 40
1.0
 40
1.0
 10
-11.4290052442
 20
0.0748959768
 30
0.0
 10
-11.3553775415
 20
0.1085761819
 30
0.0
 10
-11.202445519
 20
0.1666008737
 30
0.0
 10
-10.8776595253
 20
0.2436097854
 30
0.0
 10
-10.4390736662
 20
0.261923644
 30
0.0
 10
-9.8947986823
 20
0.1621211451
 30
0.0
 10
-9.538709838
 20
0.0238533958
 30
0.0
 10
-9.3607184686
 20
-0.0615605907
 30
0.0
 11
-11.4290052442
 21
0.0748959768
 31
0.0
 11
-11.2019599253
 21
0.1612034309
 31
0.0
 11
-10.9625466505
 21
0.2182158662
 31
0.0
 11
-10.4530969947
 21
0.2430518951
 31
0.0
 11
-9.9143435292
 21
0.1488855598
 31
0.0
 11
-9.3607184686
 21
-0.0615605907
 31
0.0
  0
SPLINE
  5
3E5
100
AcDbEntity
  8
0
100
AcDbSpline
 62
7
  6
CONTINUOUS
 70
0
 71
3
 72
26
 73
22
 74
20
 42
0.0000001
 43
0.0000001
 44
0.0000000001
 12
7.9327799567
 22
-1.7835317605
 32
0.0
 13
-7.2724127156
 23
3.6362063578
 33
0.0
 40
0.0
 40
0.0
 40
0.0
 40
0.0
 40
0.0513486691
 40
0.0756458499
 40
0.0993070217
 40
0.1226248377
 40
0.145916537
 40
0.1695010803
 40
0.1936765477
 40
0.2446820577
 40
0.3004733389
 40
0.3615922032
 40
0.4278342773
 40
0.4984328226
 40
0.5722255581
 40
0.6477957696
 40
0.7235957952
 40
0.7980611409
 40
0.8697256065
 40
0.9373366899
 40
1.0
 40
1.0
 40
1.0
 40
1.0
 10
-11.7986273623
 20
-8.6928734491
 30
0.0
 10
-11.6628481312
 20
-8.7234007765
 30
0.0
 10
-11.4564342183
 20
-8.7470810427
 30
0.0
 10
-11.1876446245
 20
-8.7233582406
 30
0.0
 10
-10.9988311119
 20
-8.6793253048
 30
0.0
 10
-10.8210695054
 20
-8.6090365008
 30
0.0
 10
-10.655982849
 20
-8.5130708227
 30
0.0
 10
-10.505048655
 20
-8.3923691782
 30
0.0
 10
-10.3213007865
 20
-8.1966304704
 30
0.0
 10
-10.1339045171
 20
-7.8903645911
 30
0.0
 10
-9.9888491198
 20
-7.4557977623
 30
0.0
 10
-9.9213103003
 20
-6.9615722606
 30
0.0
 10
-9.9325665756
 20
-6.4232986654
 30
0.0
 10
-10.0217313278
 20
-5.8578564161
 30
0.0
 10
-10.1858062053
 20
-5.2833049914
 30
0.0
 10
-10.4194305519
 20
-4.7181653361
 30
0.0
 10
-10.715025087
 20
-4.1807545463
 30
0.0
 10
-11.0629850519
 20
-3.6885136321
 30
0.0
 10
-11.4521677649
 20
-3.2573584908
 30
0.0
 10
-11.8699465405
 20
-2.9013013896
 30
0.0
 10
-12.171455365
 20
-2.7139437809
 30
0.0
 10
-12.3233598494
 20
-2.6379915387
 30
0.0
 11
-11.7986273623
 21
-8.6928734491
 31
0.0
 11
-11.3833872091
 21
-8.7363115774
 31
0.0
 11
-11.1866323456
 21
-8.7185422146
 31
0.0
 11
-10.9993441092
 21
-8.6745551693
 31
0.0
 11
-10.8230776541
 21
-8.6047304397
 31
0.0
 11
-10.659305316
 21
-8.5096331083
 31
0.0
 11
-10.5093767377
 21
-8.3900763325
 31
0.0
 11
-10.3745565924
 21
-8.2470318585
 31
0.0
 11
-10.1545629062
 21
-7.8954753172
 31
0.0
 11
-10.0066331807
 21
-7.4666453232
 31
0.0
 11
-9.9356830045
 21
-6.9747907256
 31
0.0
 11
-9.9440698499
 21
-6.436254667
 31
0.0
 11
-10.0315150847
 21
-5.868931383
 31
0.0
 11
-10.1951132333
 21
-5.2916716312
 31
0.0
 11
-10.4294281566
 21
-4.7236565179
 31
0.0
 11
-10.726674953
 21
-4.1837595238
 31
0.0
 11
-11.076974365
 21
-3.6899215159
 31
0.0
 11
-11.4686940745
 21
-3.2585480897
 31
0.0
 11
-11.8887997985
 21
-2.9039821428
 31
0.0
 11
-12.3233598494
 21
-2.6379915387
 31
0.0
  0
SPLINE
  5
3E6
100
AcDbEntity
  8
0
100
AcDbSpline
 62
7
  6
CONTINUOUS
 70
0
 71
3
 72
12
 73
8
 74
6
 42
0.0000001
 43
0.0000001
 44
0.0000000001
 12
-0.2622989557
 22
-2.1113179057
 32
0.0
 13
-1.7651018648
 23
-1.1878044653
 33
0.0
 40
0.0
 40
0.0
 40
0.0
 40
0.0
 40
0.2800165747
 40
0.5375423768
 40
0.7753720603
 40
0.8888856512
 40
1.0
 40
1.0
 40
1.0
 40
1.0
 10
-3.0082616383
 20
-4.6106910265
 30
0.0
 10
-3.0327443233
 20
-4.8077590291
 30
0.0
 10
-3.107354003
 20
-5.1836551716
 30
0.0
 10
-3.3095998101
 20
-5.6984515378
 30
0.0
 10
-3.551699399
 20
-6.061276501
 30
0.0
 10
-3.7824961284
 20
-6.295378198
 30
0.0
 10
-3.9087013776
 20
-6.3935319877
 30
0.0
 10
-3.9740774257
 20
-6.4375260276
 30
0.0
 11
-3.0082616383
 21
-4.6106910265
 31
0.0
 11
-3.1282770918
 21
-5.1942260184
 31
0.0
 11
-3.3330503884
 21
-5.702419785
 31
0.0
 11
-3.617461699
 21
-6.1209175788
 31
0.0
 11
-3.7872945051
 21
-6.2926203013
 31
0.0
 11
-3.9740774257
 21
-6.4375260276
 31
0.0
  0
SPLINE
  5
3E7
100
AcDbEntity
  8
0
100
AcDbSpline
 62
7
  6
CONTINUOUS
 70
0
 71
3
 72
12
 73
8
 74
6
 42
0.0000001
 43
0.0000001
 44
0.0000000001
 12
1.9444865673
 22
0.8895369135
 32
0.0
 13
1.927814316
 23
-0.9251139898
 33
0.0
 40
0.0
 40
0.0
 40
0.0
 40
0.0
 40
0.1135950141
 40
0.2286920951
 40
0.467229465
 40
0.723009884
 40
1.0
 40
1.0
 40
1.0
 40
1.0
 10
-11.004778649
 20
0.287011032
 30
0.0
 10
-10.931150656
 20
0.3206933514
 30
0.0
 10
-10.7782175618
 20
0.3787217859
 30
0.0
 10
-10.4534281119
 20
0.455738498
 30
0.0
 10
-10.0148337946
 20
0.4740586115
 30
0.0
 10
-9.4705467488
 20
0.3742574596
 30
0.0
 10
-9.1144495703
 20
0.2359872542
 30
0.0
 10
-8.9364543999
 20
0.1505714437
 30
0.0
 11
-11.004778649
 21
0.287011032
 31
0.0
 11
-10.7777318791
 21
0.3733243231
 31
0.0
 11
-10.5383163079
 21
0.4303422164
 31
0.0
 11
-10.0288585157
 21
0.4551857866
 31
0.0
 11
-9.4900917052
 21
0.3610209776
 31
0.0
 11
-8.9364543999
 21
0.1505714437
 31
0.0
  0
SPLINE
  5
3E8
100
AcDbEntity
  8
0
100
AcDbSpline
 62
7
  6
CONTINUOUS
 70
0
 71
3
 72
12
 73
8
 74
6
 42
0.0000001
 43
0.0000001
 44
0.0000000001
 12
1.9445033229
 22
0.8895949335
 32
0.0
 13
1.9278498142
 23
-0.9251310246
 33
0.0
 40
0.0
 40
0.0
 40
0.0
 40
0.0
 40
0.1135944712
 40
0.2286909965
 40
0.4672276268
 40
0.7230086311
 40
1.0
 40
1.0
 40
1.0
 40
1.0
 10
-10.5805505992
 20
0.4991267255
 30
0.0
 10
-10.5069223237
 20
0.5328110809
 30
0.0
 10
-10.3539882218
 20
0.5908431702
 30
0.0
 10
-10.029195547
 20
0.6678672885
 30
0.0
 10
-9.5905935994
 20
0.6861934446
 30
0.0
 10
-9.0462949249
 20
0.5863938105
 30
0.0
 10
-8.6901895842
 20
0.4481212477
 30
0.0
 10
-8.5121903312
 20
0.3627034781
 30
0.0
 11
-10.5805505992
 21
0.4991267255
 31
0.0
 11
-10.3535024353
 21
0.5854456691
 31
0.0
 11
-10.1140846708
 21
0.6424687854
 31
0.0
 11
-9.6046194131
 21
0.6673196187
 31
0.0
 11
-9.0658407858
 21
0.5731566535
 31
0.0
 11
-8.5121903312
 21
0.3627034781
 31
0.0
  0
SPLINE
  5
3E9
100
AcDbEntity
  8
0
100
AcDbSpline
 62
7
  6
CONTINUOUS
 70
0
 71
3
 72
12
 73
8
 74
6
 42
0.0000001
 43
0.0000001
 44
0.0000000001
 12
1.9445481983
 22
0.8897047203
 32
0.0
 13
1.9279277842
 23
-0.9251684406
 33
0.0
 40
0.0
 40
0.0
 40
0.0
 40
0.0
 40
0.1135946854
 40
0.228691306
 40
0.4672275856
 40
0.7230070454
 40
1.0
 40
1.0
 40
1.0
 40
1.0
 10
-10.1563653533
 20
0.7112214071
 30
0.0
 10
-10.0827352397
 20
0.744909983
 30
0.0
 10
-9.9297991987
 20
0.8029564515
 30
0.0
 10
-9.6049941916
 20
0.8799889347
 30
0.0
 10
-9.1663768342
 20
0.8983304915
 30
0.0
 10
-8.6220539894
 20
0.798534482
 30
0.0
 10
-8.2659337336
 20
0.6602572257
 30
0.0
 10
-8.0879262625
 20
0.5748355124
 30
0.0
 11
-10.1563653533
 21
0.7112214071
 31
0.0
 11
-9.929312275
 21
0.7975563572
 31
0.0
 11
-9.6898862331
 21
0.8545885602
 31
0.0
 11
-9.1804017783
 21
0.8794538636
 31
0.0
 11
-8.6416031258
 21
0.7852961757
 31
0.0
 11
-8.0879262625
 21
0.5748355124
 31
0.0
  0
SPLINE
  5
3EA
100
AcDbEntity
  8
0
100
AcDbSpline
 62
7
  6
CONTINUOUS
 70
0
 71
3
 72
12
 73
8
 74
6
 42
0.0000001
 43
0.0000001
 44
0.0000000001
 12
1.9445702089
 22
0.8898310471
 32
0.0
 13
1.9279932171
 23
-0.9251998404
 33
0.0
 40
0.0
 40
0.0
 40
0.0
 40
0.0
 40
0.1135946938
 40
0.228691042
 40
0.4672266291
 40
0.7230074402
 40
1.0
 40
1.0
 40
1.0
 40
1.0
 10
-9.7321679726
 20
0.9233244428
 30
0.0
 10
-9.6585370202
 20
0.9570178045
 30
0.0
 10
-9.5055959
 20
1.0150660521
 30
0.0
 10
-9.1807851529
 20
1.092118984
 30
0.0
 10
-8.7421513539
 20
1.1104673268
 30
0.0
 10
-8.1978091705
 20
1.0106731116
 30
0.0
 10
-7.8416754526
 20
0.8723920375
 30
0.0
 10
-7.6636621938
 20
0.7869675468
 30
0.0
 11
-9.7321679726
 21
0.9233244428
 31
0.0
 11
-9.5051093443
 21
1.0096680435
 31
0.0
 11
-9.2656781164
 21
1.066712009
 31
0.0
 11
-8.7561784097
 21
1.0915895701
 31
0.0
 11
-8.2173577351
 21
0.997433275
 31
0.0
 11
-7.6636621938
 21
0.7869675468
 31
0.0
  0
SPLINE
  5
3EB
100
AcDbEntity
  8
0
100
AcDbSpline
 62
7
  6
CONTINUOUS
 70
0
 71
3
 72
12
 73
8
 74
6
 42
0.0000001
 43
0.0000001
 44
0.0000000001
 12
1.9446015825
 22
0.8899406727
 32
0.0
 13
1.9280600644
 23
-0.9252319189
 33
0.0
 40
0.0
 40
0.0
 40
0.0
 40
0.0
 40
0.1135947755
 40
0.2286910497
 40
0.4672261565
 40
0.7230068782
 40
1.0
 40
1.0
 40
1.0
 40
1.0
 10
-9.3079717386
 20
1.1354255524
 30
0.0
 10
-9.2343395451
 20
1.1691230894
 30
0.0
 10
-9.0813951658
 20
1.2271788682
 30
0.0
 10
-8.7565760007
 20
1.3042452371
 30
0.0
 10
-8.3179273445
 20
1.3226039369
 30
0.0
 10
-7.7735648684
 20
1.2228122497
 30
0.0
 10
-7.4174179172
 20
1.084527207
 30
0.0
 10
-7.2393981251
 20
0.9990995811
 30
0.0
 11
-9.3079717386
 21
1.1354255524
 31
0.0
 11
-9.0809082717
 21
1.2217806171
 31
0.0
 11
-8.8414707517
 21
1.2788343114
 31
0.0
 11
-8.3319549751
 21
1.3037243448
 31
0.0
 11
-7.7931146981
 21
1.2095711646
 31
0.0
 11
-7.2393981251
 21
0.9990995811
 31
0.0
  0
SPLINE
  5
3EC
100
AcDbEntity
  8
0
100
AcDbSpline
 62
7
  6
CONTINUOUS
 70
0
 71
3
 72
12
 73
8
 74
6
 42
0.0000001
 43
0.0000001
 44
0.0000000001
 12
1.9446212558
 22
0.890009279
 32
0.0
 13
1.9281019326
 23
-0.9252520104
 33
0.0
 40
0.0
 40
0.0
 40
0.0
 40
0.0
 40
0.1135948042
 40
0.2286910377
 40
0.4672258482
 40
0.7230065261
 40
1.0
 40
1.0
 40
1.0
 40
1.0
 10
-8.8837501592
 20
1.3475382253
 30
0.0
 10
-8.8101172023
 20
1.3812383685
 30
0.0
 10
-8.6571707848
 20
1.4392988358
 30
0.0
 10
-8.3323463679
 20
1.5163736618
 30
0.0
 10
-7.8936883848
 20
1.5347388429
 30
0.0
 10
-7.3493131897
 20
1.4349487338
 30
0.0
 10
-6.9931579405
 20
1.296661205
 30
0.0
 10
-6.8151340564
 20
1.2112316155
 30
0.0
 11
-8.8837501592
 21
1.3475382253
 31
0.0
 11
-8.6566837018
 21
1.4339004386
 31
0.0
 11
-8.4172422333
 21
1.4909602462
 31
0.0
 11
-7.9077163825
 21
1.5158581018
 31
0.0
 11
-7.3688638027
 21
1.4217068651
 31
0.0
 11
-6.8151340564
 21
1.2112316155
 31
0.0
  0
SPLINE
  5
3ED
100
AcDbEntity
  8
0
100
AcDbSpline
 62
7
  6
CONTINUOUS
 70
0
 71
3
 72
12
 73
8
 74
6
 42
0.0000001
 43
0.0000001
 44
0.0000000001
 12
1.9446526027
 22
0.8901193555
 32
0.0
 13
1.9281689323
 23
-0.9252841621
 33
0.0
 40
0.0
 40
0.0
 40
0.0
 40
0.0
 40
0.1135949315
 40
0.2286910871
 40
0.4672254157
 40
0.7230059325
 40
1.0
 40
1.0
 40
1.0
 40
1.0
 10
-8.4595540509
 20
1.5596391802
 30
0.0
 10
-8.3859198245
 20
1.5933435292
 30
0.0
 10
-8.2329701953
 20
1.6514117877
 30
0.0
 10
-7.9081372212
 20
1.7284997643
 30
0.0
 10
-7.4694644498
 20
1.7468754387
 30
0.0
 10
-6.925068916
 20
1.6470879006
 30
0.0
 10
-6.5689004395
 20
1.5087963911
 30
0.0
 10
-6.3908699876
 20
1.4233636498
 30
0.0
 11
-8.4595540509
 21
1.5596391802
 31
0.0
 11
-8.2324827074
 21
1.6460130589
 31
0.0
 11
-7.9930349149
 21
1.7030825073
 31
0.0
 11
-7.4834929579
 21
1.7279928373
 31
0.0
 11
-6.944620874
 21
1.6338447922
 31
0.0
 11
-6.3908699876
 21
1.4233636498
 31
0.0
  0
SPLINE
  5
3EE
100
AcDbEntity
  8
0
100
AcDbSpline
 62
7
  6
CONTINUOUS
 70
0
 71
3
 72
15
 73
11
 74
9
 42
0.0000001
 43
0.0000001
 44
0.0000000001
 12
-2.3103994425
 22
1.1551997213
 32
0.0
 13
-1.0589662159
 23
-2.3560608086
 33
0.0
 40
0.0
 40
0.0
 40
0.0
 40
0.0
 40
0.1433735812
 40
0.2766968125
 40
0.4012423311
 40
0.5194683951
 40
0.6347245609
 40
0.7508826566
 40
0.8716531323
 40
1.0
 40
1.0
 40
1.0
 40
1.0
 10
-12.3233598494
 20
-2.6379915387
 30
0.0
 10
-12.4337765968
 20
-2.582783165
 30
0.0
 10
-12.6545238613
 20
-2.4904276603
 30
0.0
 10
-12.9921962118
 20
-2.4097577997
 30
0.0
 10
-13.3178549033
 20
-2.3944887241
 30
0.0
 10
-13.6244146746
 20
-2.4460190781
 30
0.0
 10
-13.9043866645
 20
-2.5641553974
 30
0.0
 10
-14.1504346863
 20
-2.7460990223
 30
0.0
 10
-14.3566978238
 20
-2.9866144423
 30
0.0
 10
-14.4615426477
 20
-3.1754362955
 30
0.0
 10
-14.5068476467
 20
-3.2762339705
 30
0.0
 11
-12.3233598494
 21
-2.6379915387
 31
0.0
 11
-12.6657938546
 21
-2.4969335518
 31
0.0
 11
-13.0012601987
 21
-2.41905306
 31
0.0
 11
-13.3227103555
 21
-2.4060223068
 31
0.0
 11
-13.6236349534
 21
-2.4580574085
 31
0.0
 11
-13.8978030132
 21
-2.574110642
 31
0.0
 11
-14.1395837983
 21
-2.7517934952
 31
0.0
 11
-14.3439995197
 21
-2.9874521924
 31
0.0
 11
-14.5068476467
 21
-3.2762339705
 31
0.0
  0
SPLINE
  5
3EF
100
AcDbEntity
  8
RACCORDO
100
AcDbSpline
 62
7
  6
CONTINUOUS
 70
0
 71
3
 72
8
 73
4
 74
2
 42
0.0000001
 43
0.0000001
 44
0.0000000001
 12
-0.0000053732
 22
-0.0031177234
 32
0.0
 13
-0.0019810057
 23
-0.002407456
 33
0.0
 40
0.0
 40
0.0
 40
0.0
 40
0.0
 40
1.0
 40
1.0
 40
1.0
 40
1.0
 10
9.5610192575
 20
18.4583881473
 30
0.0
 10
9.5610174664
 20
18.4573489062
 30
0.0
 10
9.5606243605
 20
18.4562569126
 30
0.0
 10
9.5599640253
 20
18.4554544273
 30
0.0
 11
9.5610192575
 21
18.4583881473
 31
0.0
 11
9.5599640253
 21
18.4554544273
 31
0.0
  0
SPLINE
  5
3F0
100
AcDbEntity
  8
ASSI
100
AcDbSpline
 62
7
  6
CONTINUOUS
 70
0
 71
3
 72
9
 73
5
 74
3
 42
0.0000001
 43
0.0000001
 44
0.0000000001
 12
-0.0502723709
 22
-0.0161727928
 32
0.0
 13
-0.0473687191
 23
-0.0233468405
 33
0.0
 40
0.0
 40
0.0
 40
0.0
 40
0.0
 40
0.2435111882
 40
1.0
 40
1.0
 40
1.0
 40
1.0
 10
9.2589745479
 20
23.3154866482
 30
0.0
 10
9.2548939196
 20
23.3141738962
 30
0.0
 10
9.2382441488
 20
23.3084509169
 30
0.0
 10
9.2220431517
 20
23.301445289
 30
0.0
 10
9.2100985164
 20
23.2955580811
 30
0.0
 11
9.2589745479
 21
23.3154866482
 31
0.0
 11
9.2468117199
 21
23.3113106191
 31
0.0
 11
9.2100985164
 21
23.2955580811
 31
0.0
  0
SPLINE
  5
3F1
100
AcDbEntity
  8
ASSI
100
AcDbSpline
 62
7
  6
CONTINUOUS
 70
0
 71
3
 72
11
 73
7
 74
5
 42
0.0000001
 43
0.0000001
 44
0.0000000001
 12
0.2230926208
 22
0.0717696553
 32
0.0
 13
0.2096565956
 23
-0.1047153896
 33
0.0
 40
0.0
 40
0.0
 40
0.0
 40
0.0
 40
0.2281620518
 40
0.4713410479
 40
0.7293701433
 40
1.0
 40
1.0
 40
1.0
 40
1.0
 10
9.2589745479
 20
23.3154866482
 30
0.0
 10
9.2759416379
 20
23.3209450188
 30
0.0
 10
9.3127578273
 20
23.3270898348
 30
0.0
 10
9.3699734663
 20
23.3229805964
 30
0.0
 10
9.4285444371
 20
23.3075604422
 30
0.0
 10
9.4666278681
 20
23.2912378139
 30
0.0
 10
9.4855409795
 20
23.2817914436
 30
0.0
 11
9.2589745479
 21
23.3154866482
 31
0.0
 11
9.3116219525
 21
23.3248319344
 31
0.0
 11
9.3685064749
 21
23.3213717933
 31
0.0
 11
9.4271037062
 21
23.3064398181
 31
0.0
 11
9.4855409795
 21
23.2817914436
 31
0.0
  0
SPLINE
  5
3F2
100
AcDbEntity
  8
ASSI
100
AcDbSpline
 62
7
  6
CONTINUOUS
 70
0
 71
3
 72
11
 73
7
 74
5
 42
0.0000001
 43
0.0000001
 44
0.0000000001
 12
0.222019678
 22
0.0689784695
 32
0.0
 13
0.2079932826
 23
-0.103872812
 33
0.0
 40
0.0
 40
0.0
 40
0.0
 40
0.0
 40
0.2283694312
 40
0.4716456017
 40
0.7295971459
 40
1.0
 40
1.0
 40
1.0
 40
1.0
 10
3.7057518047
 20
26.0935391375
 30
0.0
 10
3.7226526405
 20
26.0987899954
 30
0.0
 10
3.7592326559
 20
26.1045964842
 30
0.0
 10
3.8159811994
 20
26.100268342
 30
0.0
 10
3.8740333706
 20
26.0848588002
 30
0.0
 10
3.9117824504
 20
26.0686595367
 30
0.0
 10
3.9305297761
 20
26.059297035
 30
0.0
 11
3.7057518047
 21
26.0935391375
 31
0.0
 11
3.7581011057
 21
26.1023956908
 31
0.0
 11
3.8145389343
 21
26.0986978553
 31
0.0
 11
3.8726197493
 21
26.0837612276
 31
0.0
 11
3.9305297761
 21
26.059297035
 31
0.0
  0
SPLINE
  5
3F3
100
AcDbEntity
  8
RACCORDO
100
AcDbSpline
 62
7
  6
CONTINUOUS
 70
0
 71
3
 72
14
 73
10
 74
8
 42
0.0000001
 43
0.0000001
 44
0.0000000001
 12
0.0
 22
0.630991571
 32
0.0
 13
-0.5643681094
 23
0.2822038267
 33
0.0
 40
0.0
 40
0.0
 40
0.0
 40
0.0
 40
0.2891525564
 40
0.4227177506
 40
0.5489643138
 40
0.668508974
 40
0.7824375212
 40
0.892292605
 40
1.0
 40
1.0
 40
1.0
 40
1.0
 10
7.0867212942
 20
24.7137952788
 30
0.0
 10
7.0867212942
 20
24.7746128874
 30
0.0
 10
7.0791348374
 20
24.864004312
 30
0.0
 10
7.0501354067
 20
24.9759909875
 30
0.0
 10
7.02068576
 20
25.0504004781
 30
0.0
 10
6.9832774486
 20
25.1164710926
 30
0.0
 10
6.9382880982
 20
25.1733626519
 30
0.0
 10
6.8862504048
 20
25.2202680143
 30
0.0
 10
6.8471041964
 20
25.2445297816
 30
0.0
 10
6.8268419901
 20
25.2546615946
 30
0.0
 11
7.0867212942
 21
24.7137952788
 31
0.0
 11
7.0694438565
 21
24.8954282158
 31
0.0
 11
7.0480456006
 21
24.9769449759
 31
0.0
 11
7.018456034
 21
25.0509061519
 31
0.0
 11
6.981037927
 21
25.1164028889
 31
0.0
 11
6.9362496594
 21
25.1726335644
 31
0.0
 11
6.884640218
 21
25.2189088241
 31
0.0
 11
6.8268419901
 21
25.2546615946
 31
0.0
  0
SPLINE
  5
3F4
100
AcDbEntity
  8
RACCORDO
100
AcDbSpline
 62
7
  6
CONTINUOUS
 70
0
 71
3
 72
11
 73
7
 74
5
 42
0.0000001
 43
0.0000001
 44
0.0000000001
 12
0.4104598159
 22
0.2008428369
 32
0.0
 13
0.4087143287
 23
-0.2043714832
 33
0.0
 40
0.0
 40
0.0
 40
0.0
 40
0.0
 40
0.2787325875
 40
0.5346772883
 40
0.772449667
 40
1.0
 40
1.0
 40
1.0
 40
1.0
 10
10.6284257925
 20
23.1079992691
 30
0.0
 10
10.6665619681
 20
23.1266597503
 30
0.0
 10
10.7427929577
 20
23.1567461997
 30
0.0
 10
10.8594621604
 20
23.1778003739
 30
0.0
 10
10.9702703115
 20
23.1716879796
 30
0.0
 10
11.03848165
 20
23.1488428507
 30
0.0
 10
11.0694826772
 20
23.133341251
 30
0.0
 11
10.6284257925
 21
23.1079992691
 31
0.0
 11
10.7472717996
 21
23.1538125813
 31
0.0
 11
10.8625507627
 21
23.1735548164
 31
0.0
 11
10.9709853215
 21
23.1666660232
 31
0.0
 11
11.0694826772
 21
23.133341251
 31
0.0
  0
SPLINE
  5
3F5
100
AcDbEntity
  8
ASSI
100
AcDbSpline
 62
7
  6
CONTINUOUS
 70
0
 71
3
 72
9
 73
5
 74
3
 42
0.0000001
 43
0.0000001
 44
0.0000000001
 12
-0.0000282459
 22
0.0132944178
 32
0.0
 13
-0.0119051738
 23
0.0059168555
 33
0.0
 40
0.0
 40
0.0
 40
0.0
 40
0.0
 40
0.4881036285
 40
1.0
 40
1.0
 40
1.0
 40
1.0
 10
4.434576704
 20
25.7999598124
 30
0.0
 10
4.4345721083
 20
25.8021228302
 30
0.0
 10
4.4335347058
 20
25.8067489867
 30
0.0
 10
4.4297957576
 20
25.8096701511
 30
0.0
 10
4.4277643525
 20
25.8106797568
 30
0.0
 11
4.434576704
 21
25.7999598124
 31
0.0
 11
4.4329157583
 21
25.8062327117
 31
0.0
 11
4.4277643525
 21
25.8106797568
 31
0.0
  0
SPLINE
  5
3F6
100
AcDbEntity
  8
ASSI
100
AcDbSpline
 62
7
  6
CONTINUOUS
 70
0
 71
3
 72
9
 73
5
 74
3
 42
0.0000001
 43
0.0000001
 44
0.0000000001
 12
-0.0000238058
 22
0.0133037541
 32
0.0
 13
-0.0119149986
 23
0.0059180442
 33
0.0
 40
0.0
 40
0.0
 40
0.0
 40
0.0
 40
0.4881017562
 40
1.0
 40
1.0
 40
1.0
 40
1.0
 10
9.9895651048
 20
23.0224604805
 30
0.0
 10
9.9895612316
 20
23.0246250091
 30
0.0
 10
9.9885243489
 20
23.0292551
 30
0.0
 10
9.9847818181
 20
23.0321777463
 30
0.0
 10
9.9827487292
 20
23.0331875585
 30
0.0
 11
9.9895651048
 21
23.0224604805
 31
0.0
 11
9.9879044205
 21
23.0287381328
 31
0.0
 11
9.9827487292
 21
23.0331875585
 31
0.0
  0
SPLINE
  5
3F7
100
AcDbEntity
  8
RACCORDO
100
AcDbSpline
 62
7
  6
CONTINUOUS
 70
0
 71
3
 72
9
 73
5
 74
3
 42
0.0000001
 43
0.0000001
 44
0.0000000001
 12
-0.0110860342
 22
-0.0399468313
 32
0.0
 13
0.0000244836
 23
-0.0414565904
 33
0.0
 40
0.0
 40
0.0
 40
0.0
 40
0.0
 40
0.470196659
 40
1.0
 40
1.0
 40
1.0
 40
1.0
 10
-2.1745184566
 20
23.1497666496
 30
0.0
 10
-2.1762559953
 20
23.143505694
 30
0.0
 10
-2.1786851778
 20
23.1298358215
 30
0.0
 10
-2.1793447063
 20
23.1160047667
 30
0.0
 10
-2.1793403825
 20
23.1086834867
 30
0.0
 11
-2.1745184566
 21
23.1497666496
 31
0.0
 11
-2.1781491385
 21
23.1306150023
 31
0.0
 11
-2.1793403825
 21
23.1086834867
 31
0.0
  0
SPLINE
  5
3F8
100
AcDbEntity
  8
ASSI
100
AcDbSpline
 62
7
  6
CONTINUOUS
 70
0
 71
3
 72
9
 73
5
 74
3
 42
0.0000001
 43
0.0000001
 44
0.0000000001
 12
-0.0502723709
 22
-0.0161727928
 32
0.0
 13
-0.0473687191
 23
-0.0233468405
 33
0.0
 40
0.0
 40
0.0
 40
0.0
 40
0.0
 40
0.2435111882
 40
1.0
 40
1.0
 40
1.0
 40
1.0
 10
4.3092270796
 20
25.7903603823
 30
0.0
 10
4.3051464513
 20
25.7890476303
 30
0.0
 10
4.2884966805
 20
25.783324651
 30
0.0
 10
4.2722956834
 20
25.7763190231
 30
0.0
 10
4.2603510481
 20
25.7704318152
 30
0.0
 11
4.3092270796
 21
25.7903603823
 31
0.0
 11
4.2970642516
 21
25.7861843532
 31
0.0
 11
4.2603510481
 21
25.7704318152
 31
0.0
  0
SPLINE
  5
3F9
100
AcDbEntity
  8
RACCORDO
100
AcDbSpline
 62
7
  6
CONTINUOUS
 70
0
 71
3
 72
12
 73
8
 74
6
 42
0.0000001
 43
0.0000001
 44
0.0000000001
 12
0.0002238523
 22
-0.3790359227
 32
0.0
 13
0.2339640663
 23
-0.2982098196
 33
0.0
 40
0.0
 40
0.0
 40
0.0
 40
0.0
 40
0.1015870176
 40
0.2135875906
 40
0.4591399651
 40
0.7237133738
 40
1.0
 40
1.0
 40
1.0
 40
1.0
 10
-2.1793403825
 20
23.1086834867
 30
0.0
 10
-2.1793328023
 20
23.0958484437
 30
0.0
 10
-2.1770756581
 20
23.0688541879
 30
0.0
 10
-2.1656069746
 20
23.0119066022
 30
0.0
 10
-2.1392613111
 20
22.9374291292
 30
0.0
 10
-2.0933745317
 20
22.8490371281
 30
0.0
 10
-2.0544403339
 20
22.7926171051
 30
0.0
 10
-2.0328932863
 20
22.7651533101
 30
0.0
 11
-2.1793403825
 21
23.1086834867
 31
0.0
 11
-2.1764894163
 21
23.0702840405
 31
0.0
 11
-2.1683335479
 21
23.0286226055
 31
0.0
 11
-2.1381754318
 21
22.940570881
 31
0.0
 11
-2.0922931695
 21
22.851399884
 31
0.0
 11
-2.0328932863
 21
22.7651533101
 31
0.0
  0
SPLINE
  5
3FA
100
AcDbEntity
  8
RACCORDO
100
AcDbSpline
 62
253
  6
CONTINUOUS
 70
0
 71
3
 72
9
 73
5
 74
3
 42
0.0000001
 43
0.0000001
 44
0.0000000001
 12
-0.059180442
 22
0.0295854036
 32
0.0
 13
-0.0636458754
 23
-0.0180782567
 33
0.0
 40
0.0
 40
0.0
 40
0.0
 40
0.0
 40
0.4772090124
 40
1.0
 40
1.0
 40
1.0
 40
1.0
 10
13.9339962996
 20
-14.4058450005
 30
0.0
 10
13.9245824862
 20
-14.4011388601
 30
0.0
 10
13.9025072922
 20
-14.395573419
 30
0.0
 10
13.8802023367
 20
-14.3987275047
 30
0.0
 10
13.8691111733
 20
-14.4018778879
 30
0.0
 11
13.9339962996
 21
-14.4058450005
 31
0.0
 11
13.9034611999
 21
-14.397812787
 31
0.0
 11
13.8691111733
 21
-14.4018778879
 31
0.0
  0
SPLINE
  5
3FB
100
AcDbEntity
  8
RACCORDO
100
AcDbSpline
 62
253
  6
CONTINUOUS
 70
0
 71
3
 72
38
 73
34
 74
32
 42
0.0000001
 43
0.0000001
 44
0.0000000001
 12
15.3861641391
 22
-7.6931593062
 32
0.0
 13
-15.3862298535
 23
7.6930278774
 33
0.0
 40
0.0
 40
0.0
 40
0.0
 40
0.0
 40
0.0309806279
 40
0.0633601672
 40
0.0970621148
 40
0.1319695444
 40
0.1679332971
 40
0.2047775477
 40
0.2423053752
 40
0.2803039724
 40
0.3567781586
 40
0.3948271514
 40
0.4324346077
 40
0.4693813042
 40
0.5054616048
 40
0.5404889966
 40
0.5743019628
 40
0.6067705424
 40
0.6378036063
 40
0.6673567456
 40
0.695440865
 40
0.7221308465
 40
0.7475727877
 40
0.7719875649
 40
0.7956673957
 40
0.8189620081
 40
0.8422537067
 40
0.8659249594
 40
0.8903258957
 40
0.9157493463
 40
0.9424169565
 40
0.9704750587
 40
1.0
 40
1.0
 40
1.0
 40
1.0
 10
-5.2557910728
 20
3.7765599586
 30
0.0
 10
-5.0969000643
 20
3.6971136567
 30
0.0
 10
-4.7798616091
 20
3.5184043962
 30
0.0
 10
-4.3205618771
 20
3.2029711574
 30
0.0
 10
-3.8709216311
 20
2.8371105337
 30
0.0
 10
-3.4352130604
 20
2.4243797363
 30
0.0
 10
-3.0174897143
 20
1.9687499541
 30
0.0
 10
-2.6216651273
 20
1.4746260288
 30
0.0
 10
-2.2514043616
 20
0.9467404632
 30
0.0
 10
-1.7956209844
 20
0.2033488075
 30
0.0
 10
-1.4064781134
 20
-0.5826939641
 30
0.0
 10
-1.0908517423
 20
-1.3963440109
 30
0.0
 10
-0.8942310863
 20
-2.0118124017
 30
0.0
 10
-0.739188486
 20
-2.6273978866
 30
0.0
 10
-0.6271379052
 20
-3.2372441103
 30
0.0
 10
-0.5591134105
 20
-3.8355138838
 30
0.0
 10
-0.5357516856
 20
-4.4165147373
 30
0.0
 10
-0.5572986549
 20
-4.9747370635
 30
0.0
 10
-0.6236125885
 20
-5.5049093931
 30
0.0
 10
-0.7341829444
 20
-6.0020394579
 30
0.0
 10
-0.888149767
 20
-6.4614412733
 30
0.0
 10
-1.0843125666
 20
-6.878744565
 30
0.0
 10
-1.3211261199
 20
-7.2498833106
 30
0.0
 10
-1.5966536505
 20
-7.5710800435
 30
0.0
 10
-1.9084655354
 20
-7.8388782957
 30
0.0
 10
-2.2535437599
 20
-8.0502684119
 30
0.0
 10
-2.6282861182
 20
-8.2028925263
 30
0.0
 10
-3.0286609696
 20
-8.2952268257
 30
0.0
 10
-3.4504472671
 20
-8.3266082563
 30
0.0
 10
-3.8894024307
 20
-8.2971104357
 30
0.0
 10
-4.3413219201
 20
-8.2073844903
 30
0.0
 10
-4.8019401181
 20
-8.0586121688
 30
0.0
 10
-5.1043652284
 20
-7.9245020648
 30
0.0
 10
-5.2557910728
 20
-7.8487899993
 30
0.0
 11
-5.2557910728
 21
3.7765599586
 31
0.0
 11
-4.790977688
 21
3.5158472346
 31
0.0
 11
-4.3312563471
 21
3.2013512386
 31
0.0
 11
-3.8810207386
 21
2.8361133624
 31
0.0
 11
-3.4445749201
 21
2.4236809242
 31
0.0
 11
-3.026066187
 21
1.9680613084
 31
0.0
 11
-2.6294556097
 21
1.4736835241
 31
0.0
 11
-2.2584830954
 21
0.9453531715
 31
0.0
 11
-1.916632805
 21
0.388205523
 31
0.0
 11
-1.3327830743
 21
-0.7906674307
 31
0.0
 11
-1.0962230045
 21
-1.4009530637
 31
0.0
 11
-0.8996172135
 21
-2.0172891688
 31
0.0
 11
-0.7447861028
 21
-2.6337092299
 31
0.0
 11
-0.6331610127
 21
-3.2442527099
 31
0.0
 11
-0.5657713447
 21
-3.8430237205
 31
0.0
 11
-0.5432386477
 21
-4.4242475304
 31
0.0
 11
-0.5657713438
 21
-4.9823267215
 31
0.0
 11
-0.63316101
 21
-5.5118958807
 31
0.0
 11
-0.7447860987
 21
-6.0078714196
 31
0.0
 11
-0.8996172085
 21
-6.4654997612
 31
0.0
 11
-1.0962229984
 21
-6.8804038407
 31
0.0
 11
-1.3327830669
 21
-7.2486229081
 31
0.0
 11
-1.6071035165
 21
-7.5666479645
 31
0.0
 11
-1.9166327957
 21
-7.8314562762
 31
0.0
 11
-2.2584830852
 21
-8.0405386133
 31
0.0
 11
-2.6294555985
 21
-8.1919198144
 31
0.0
 11
-3.0260661759
 21
-8.2841785286
 31
0.0
 11
-3.4445749084
 21
-8.3164608246
 31
0.0
 11
-3.8810207245
 21
-8.2884844773
 31
0.0
 11
-4.3312563327
 21
-8.2005418927
 31
0.0
 11
-4.7909776804
 21
-8.0535030648
 31
0.0
 11
-5.2557910728
 21
-7.8487899993
 31
0.0
  0
SPLINE
  5
3FC
100
AcDbEntity
  8
RACCORDO
100
AcDbSpline
 62
253
  6
CONTINUOUS
 70
0
 71
3
 72
21
 73
17
 74
15
 42
0.0000001
 43
0.0000001
 44
0.0000000001
 12
2.0478777802
 22
4.8357538533
 32
0.0
 13
4.697100675
 23
-2.3485237876
 33
0.0
 40
0.0
 40
0.0
 40
0.0
 40
0.0
 40
0.1292401046
 40
0.1908779753
 40
0.25089138
 40
0.309667958
 40
0.3676467418
 40
0.4253020782
 40
0.4831233288
 40
0.5415926306
 40
0.6011635837
 40
0.6622434705
 40
0.7251804772
 40
0.7902563971
 40
0.8576837641
 40
1.0
 40
1.0
 40
1.0
 40
1.0
 10
-9.6495829048
 20
2.4062748055
 30
0.0
 10
-9.5613602587
 20
2.61459925
 30
0.0
 10
-9.4042648878
 20
2.9125053429
 30
0.0
 10
-9.1421160469
 20
3.2656449283
 30
0.0
 10
-8.9275041676
 20
3.4982698454
 30
0.0
 10
-8.6930760484
 20
3.7012590662
 30
0.0
 10
-8.4401162283
 20
3.8734597226
 30
0.0
 10
-8.1700756889
 20
4.0138351077
 30
0.0
 10
-7.8845210425
 20
4.1215645736
 30
0.0
 10
-7.5851153421
 20
4.1960407895
 30
0.0
 10
-7.2735852287
 20
4.2368782326
 30
0.0
 10
-6.9516915336
 20
4.2439010826
 30
0.0
 10
-6.621226479
 20
4.217133274
 30
0.0
 10
-6.2839515155
 20
4.156765119
 30
0.0
 10
-5.8194529932
 20
4.0297599055
 30
0.0
 10
-5.4786156353
 20
3.8879709803
 30
0.0
 10
-5.2557910728
 20
3.7765599586
 30
0.0
 11
-9.6495829048
 21
2.4062748055
 31
0.0
 11
-9.3292135547
 21
3.0046093815
 31
0.0
 11
-9.1359030439
 21
3.2642386223
 31
0.0
 11
-8.9218876499
 21
3.4955905725
 31
0.0
 11
-8.6883435468
 21
3.6974112522
 31
0.0
 11
-8.436552227
 21
3.868603354
 31
0.0
 11
-8.1678929414
 21
4.008232578
 31
0.0
 11
-7.8838346525
 21
4.115533088
 31
0.0
 11
-7.5859275539
 21
4.1899120849
 31
0.0
 11
-7.2757941348
 21
4.2309535214
 31
0.0
 11
-6.9551196533
 21
4.2384208127
 31
0.0
 11
-6.6256426405
 21
4.2122586064
 31
0.0
 11
-6.2891448141
 21
4.152593247
 31
0.0
 11
-5.9474425313
 21
4.059733179
 31
0.0
 11
-5.2557910728
 21
3.7765599586
 31
0.0
  0
SPLINE
  5
3FD
100
AcDbEntity
  8
RACCORDO
100
AcDbSpline
 62
253
  6
CONTINUOUS
 70
0
 71
3
 72
11
 73
7
 74
5
 42
0.0000001
 43
0.0000001
 44
0.0000000001
 12
-0.1026843425
 22
0.0513470616
 32
0.0
 13
-0.1029781233
 23
-0.0507553057
 33
0.0
 40
0.0
 40
0.0
 40
0.0
 40
0.0
 40
0.2274030322
 40
0.4651083369
 40
0.721100729
 40
1.0
 40
1.0
 40
1.0
 40
1.0
 10
-3.9414956208
 20
25.79956717
 30
0.0
 10
-3.9492791977
 20
25.8034593291
 30
0.0
 10
-3.966414809
 20
25.8091851896
 30
0.0
 10
-3.9942520986
 20
25.81067247
 30
0.0
 10
-4.0235578634
 20
25.8053115982
 30
0.0
 10
-4.0426969242
 20
25.7976961146
 30
0.0
 10
-4.052270432
 20
25.7929775754
 30
0.0
 11
-3.9414956208
 21
25.79956717
 31
0.0
 11
-3.9662311208
 21
25.807918924
 31
0.0
 11
-3.9934691918
 21
25.8096045538
 31
0.0
 11
-4.0224255261
 21
25.8045763501
 31
0.0
 11
-4.052270432
 21
25.7929775754
 31
0.0
  0
SPLINE
  5
3FE
100
AcDbEntity
  8
RACCORDO
100
AcDbSpline
 62
253
  6
CONTINUOUS
 70
0
 71
3
 72
9
 73
5
 74
3
 42
0.0000001
 43
0.0000001
 44
0.0000000001
 12
-0.0221872219
 22
0.0110907997
 32
0.0
 13
-0.0242893561
 23
0.0050304904
 33
0.0
 40
0.0
 40
0.0
 40
0.0
 40
0.0
 40
0.2486668508
 40
1.0
 40
1.0
 40
1.0
 40
1.0
 10
9.4228163993
 20
-22.5297240427
 30
0.0
 10
9.4209773237
 20
-22.528804738
 30
0.0
 10
9.4134616039
 20
-22.5253515574
 30
0.0
 10
9.4054907735
 20
-22.5228997538
 30
0.0
 10
9.3994076407
 20
-22.5216398958
 30
0.0
 11
9.4228163993
 21
-22.5297240427
 31
0.0
 11
9.4172113611
 21
-22.5271492753
 31
0.0
 11
9.3994076407
 21
-22.5216398958
 31
0.0
  0
SPLINE
  5
3FF
100
AcDbEntity
  8
RACCORDO
100
AcDbSpline
 62
253
  6
CONTINUOUS
 70
0
 71
3
 72
11
 73
7
 74
5
 42
0.0000001
 43
0.0000001
 44
0.0000000001
 12
-0.0000013331
 22
-0.1191821839
 32
0.0
 13
-0.1063496853
 23
-0.0537971877
 33
0.0
 40
0.0
 40
0.0
 40
0.0
 40
0.0
 40
0.2069628811
 40
0.4350650041
 40
0.6978063725
 40
1.0
 40
1.0
 40
1.0
 40
1.0
 10
-3.8032988734
 20
25.2284291508
 30
0.0
 10
-3.8032989653
 20
25.2202070547
 30
0.0
 10
-3.8068980897
 20
25.2027911519
 30
0.0
 10
-3.8219474663
 20
25.1789958936
 30
0.0
 10
-3.8454244123
 20
25.1575841078
 30
0.0
 10
-3.864783996
 20
25.1459755756
 30
0.0
 10
-3.8754967284
 20
25.1405565198
 30
0.0
 11
-3.8032988734
 21
25.2284291508
 31
0.0
 11
-3.8080320606
 21
25.2042212448
 31
0.0
 11
-3.8220523692
 21
25.18092975
 31
0.0
 11
-3.8448265018
 21
25.1594376323
 31
0.0
 11
-3.8754967284
 21
25.1405565198
 31
0.0
  0
SPLINE
  5
400
100
AcDbEntity
  8
RACCORDO
100
AcDbSpline
 62
253
  6
CONTINUOUS
 70
0
 71
3
 72
11
 73
7
 74
5
 42
0.0000001
 43
0.0000001
 44
0.0000000001
 12
-0.0000014429
 22
-0.119182188
 32
0.0
 13
-0.1063496889
 23
-0.0537971895
 33
0.0
 40
0.0
 40
0.0
 40
0.0
 40
0.0
 40
0.2069627842
 40
0.4350648191
 40
0.6978060254
 40
1.0
 40
1.0
 40
1.0
 40
1.0
 10
9.5610192907
 20
-23.1008655831
 30
0.0
 10
9.5610191911
 20
-23.1090876756
 30
0.0
 10
9.5574200823
 20
-23.1265035717
 30
0.0
 10
9.5423707124
 20
-23.1502988217
 30
0.0
 10
9.5188937737
 20
-23.1717106209
 30
0.0
 10
9.4995341811
 20
-23.1833191563
 30
0.0
 10
9.4888214361
 20
-23.1887382185
 30
0.0
 11
9.5610192907
 21
-23.1008655831
 31
0.0
 11
9.5562861082
 21
-23.125073479
 31
0.0
 11
9.5422658097
 21
-23.1483649688
 31
0.0
 11
9.5194916976
 21
-23.1698570816
 31
0.0
 11
9.4888214361
 21
-23.1887382185
 31
0.0
  0
SPLINE
  5
401
100
AcDbEntity
  8
RACCORDO
100
AcDbSpline
 62
253
  6
CONTINUOUS
 70
0
 71
3
 72
11
 73
7
 74
5
 42
0.0000001
 43
0.0000001
 44
0.0000000001
 12
-0.0000013698
 22
-0.1191821853
 32
0.0
 13
-0.1063496865
 23
-0.0537971883
 33
0.0
 40
0.0
 40
0.0
 40
0.0
 40
0.0
 40
0.2069627866
 40
0.4350648202
 40
0.69780603
 40
1.0
 40
1.0
 40
1.0
 40
1.0
 10
9.5610192909
 20
-22.7533340696
 30
0.0
 10
9.5610191964
 20
-22.761556162
 30
0.0
 10
9.5574200797
 20
-22.7789720578
 30
0.0
 10
9.5423707122
 20
-22.8027673066
 30
0.0
 10
9.5188937724
 20
-22.8241791044
 30
0.0
 10
9.4995341807
 20
-22.8357876398
 30
0.0
 10
9.4888214361
 20
-22.8412067018
 30
0.0
 11
9.5610192909
 21
-22.7533340696
 31
0.0
 11
9.5562861081
 21
-22.7775419652
 31
0.0
 11
9.542265809
 21
-22.8008334536
 31
0.0
 11
9.5194916964
 21
-22.8223255656
 31
0.0
 11
9.4888214361
 21
-22.8412067018
 31
0.0
  0
SPLINE
  5
402
100
AcDbEntity
  8
RACCORDO
100
AcDbSpline
 62
253
  6
CONTINUOUS
 70
0
 71
3
 72
11
 73
7
 74
5
 42
0.0000001
 43
0.0000001
 44
0.0000000001
 12
-0.0000014429
 22
-0.119182188
 32
0.0
 13
-0.1063496889
 23
-0.0537971895
 33
0.0
 40
0.0
 40
0.0
 40
0.0
 40
0.0
 40
0.2069627842
 40
0.4350648191
 40
0.6978060254
 40
1.0
 40
1.0
 40
1.0
 40
1.0
 10
-3.8032988738
 20
25.575960672
 30
0.0
 10
-3.8032989733
 20
25.5677385795
 30
0.0
 10
-3.8068980821
 20
25.5503226834
 30
0.0
 10
-3.821947452
 20
25.5265274334
 30
0.0
 10
-3.8454243907
 20
25.5051156342
 30
0.0
 10
-3.8647839833
 20
25.4935070987
 30
0.0
 10
-3.8754967284
 20
25.4880880366
 30
0.0
 11
-3.8032988738
 21
25.575960672
 31
0.0
 11
-3.8080320562
 21
25.551752776
 31
0.0
 11
-3.8220523547
 21
25.5284612863
 31
0.0
 11
-3.8448264668
 21
25.5069691735
 31
0.0
 11
-3.8754967284
 21
25.4880880366
 31
0.0
  0
SPLINE
  5
403
100
AcDbEntity
  8
RACCORDO
100
AcDbSpline
 62
253
  6
CONTINUOUS
 70
0
 71
3
 72
11
 73
7
 74
5
 42
0.0000001
 43
0.0000001
 44
0.0000000001
 12
0.1389309045
 22
0.0712901781
 32
0.0
 13
-0.000739186
 23
0.1561522953
 33
0.0
 40
0.0
 40
0.0
 40
0.0
 40
0.0
 40
0.21754047
 40
0.4509586233
 40
0.7106393245
 40
1.0
 40
1.0
 40
1.0
 40
1.0
 10
9.4251387707
 20
-23.3232988402
 30
0.0
 10
9.4352131354
 20
-23.3181293406
 30
0.0
 10
9.4542317089
 20
-23.3033965364
 30
0.0
 10
9.4745383333
 20
-23.2718128582
 30
0.0
 10
9.4865997666
 20
-23.2324975312
 30
0.0
 10
9.4888927332
 20
-23.2037996631
 30
0.0
 10
9.4888214361
 20
-23.1887382185
 30
0.0
 11
9.4251387707
 21
-23.3232988402
 31
0.0
 11
9.4521350539
 21
-23.3026796827
 31
0.0
 11
9.4723337456
 21
-23.2723390134
 31
0.0
 11
9.4847619325
 21
-23.2337403317
 31
0.0
 11
9.4888214361
 21
-23.1887382185
 31
0.0
  0
SPLINE
  5
404
100
AcDbEntity
  8
RACCORDO
100
AcDbSpline
 62
253
  6
CONTINUOUS
 70
0
 71
3
 72
9
 73
5
 74
3
 42
0.0000001
 43
0.0000001
 44
0.0000000001
 12
0.0774329992
 22
0.0216476836
 32
0.0
 13
0.071785587
 23
-0.0362121673
 33
0.0
 40
0.0
 40
0.0
 40
0.0
 40
0.0
 40
0.4813274059
 40
1.0
 40
1.0
 40
1.0
 40
1.0
 10
13.7907153799
 20
-14.3921131708
 30
0.0
 10
13.8031389215
 20
-14.388639963
 30
0.0
 10
13.830721416
 20
-14.3869221203
 30
0.0
 10
13.8567001011
 20
-14.395617135
 30
0.0
 10
13.8691111733
 20
-14.4018778879
 30
0.0
 11
13.7907153799
 21
-14.3921131708
 31
0.0
 11
13.8293197783
 21
-14.3893986834
 31
0.0
 11
13.8691111733
 21
-14.4018778879
 31
0.0
  0
SPLINE
  5
405
100
AcDbEntity
  8
RACCORDO
100
AcDbSpline
 62
7
  6
CONTINUOUS
 70
0
 71
3
 72
11
 73
7
 74
5
 42
0.0000001
 43
0.0000001
 44
0.0000000001
 12
0.1334232764
 22
0.0748828011
 32
0.0
 13
-0.0
 23
0.1530006686
 33
0.0
 40
0.0
 40
0.0
 40
0.0
 40
0.0
 40
0.2171864146
 40
0.4511858794
 40
0.7111959599
 40
1.0
 40
1.0
 40
1.0
 40
1.0
 10
8.8995430541
 20
-23.5928659462
 30
0.0
 10
8.9092022951
 20
-23.5874447705
 30
0.0
 10
8.9273301664
 20
-23.5724225251
 30
0.0
 10
8.9466583171
 20
-23.541144539
 30
0.0
 10
8.9582458436
 20
-23.5025661188
 30
0.0
 10
8.9605542643
 20
-23.4744783476
 30
0.0
 10
8.9605542643
 20
-23.4597492772
 30
0.0
 11
8.8995430541
 21
-23.5928659462
 31
0.0
 11
8.9252954048
 21
-23.5718652991
 31
0.0
 11
8.9445798379
 21
-23.5417007639
 31
0.0
 11
8.9565143377
 21
-23.5037514206
 31
0.0
 11
8.9605542643
 21
-23.4597492772
 31
0.0
  0
SPLINE
  5
406
100
AcDbEntity
  8
RACCORDO
100
AcDbSpline
 62
253
  6
CONTINUOUS
 70
0
 71
3
 72
11
 73
7
 74
5
 42
0.0000001
 43
0.0000001
 44
0.0000000001
 12
0.0000006354
 22
-0.0953455814
 32
0.0
 13
-0.0850796003
 23
-0.0430376753
 33
0.0
 40
0.0
 40
0.0
 40
0.0
 40
0.0
 40
0.2069623988
 40
0.435065314
 40
0.6978076938
 40
1.0
 40
1.0
 40
1.0
 40
1.0
 10
14.2467600016
 20
19.9558748778
 30
0.0
 10
14.2467600455
 20
19.9492972277
 30
0.0
 10
14.2438810385
 20
19.9353644453
 30
0.0
 10
14.231841589
 20
19.9163281601
 30
0.0
 10
14.2130600412
 20
19.8991987618
 30
0.0
 10
14.1975723788
 20
19.8899120105
 30
0.0
 10
14.1890022453
 20
19.8855767924
 30
0.0
 11
14.2467600016
 21
19.9558748778
 31
0.0
 11
14.2429738054
 21
19.9365085657
 31
0.0
 11
14.2317576559
 21
19.9178752672
 31
0.0
 11
14.2135383056
 21
19.9006815429
 31
0.0
 11
14.1890022453
 21
19.8855767924
 31
0.0
  0
SPLINE
  5
407
100
AcDbEntity
  8
RACCORDO
100
AcDbSpline
 62
253
  6
CONTINUOUS
 70
0
 71
3
 72
11
 73
7
 74
5
 42
0.0000001
 43
0.0000001
 44
0.0000000001
 12
-0.1026843425
 22
0.0513470616
 32
0.0
 13
-0.1029781233
 23
-0.0507553057
 33
0.0
 40
0.0
 40
0.0
 40
0.0
 40
0.0
 40
0.2274030322
 40
0.4651083369
 40
0.721100729
 40
1.0
 40
1.0
 40
1.0
 40
1.0
 10
-5.2788217813
 20
26.4682302502
 30
0.0
 10
-5.2866053583
 20
26.4721224094
 30
0.0
 10
-5.3037409695
 20
26.4778482699
 30
0.0
 10
-5.3315782591
 20
26.4793355503
 30
0.0
 10
-5.360884024
 20
26.4739746785
 30
0.0
 10
-5.3800230848
 20
26.4663591949
 30
0.0
 10
-5.3895965926
 20
26.4616406557
 30
0.0
 11
-5.2788217813
 21
26.4682302502
 31
0.0
 11
-5.3035572814
 21
26.4765820043
 31
0.0
 11
-5.3307953523
 21
26.478267634
 31
0.0
 11
-5.3597516866
 21
26.4732394303
 31
0.0
 11
-5.3895965926
 21
26.4616406557
 31
0.0
  0
SPLINE
  5
408
100
AcDbEntity
  8
RACCORDO
100
AcDbSpline
 62
253
  6
CONTINUOUS
 70
0
 71
3
 72
11
 73
7
 74
5
 42
0.0000001
 43
0.0000001
 44
0.0000000001
 12
0.0807742481
 22
0.0584081654
 32
0.0
 13
-0.0152005989
 23
0.0985136271
 33
0.0
 40
0.0
 40
0.0
 40
0.0
 40
0.0
 40
0.2091727057
 40
0.4383445577
 40
0.7004105978
 40
1.0
 40
1.0
 40
1.0
 40
1.0
 10
14.16394874
 20
19.7938048122
 30
0.0
 10
14.1695806626
 20
19.7978772769
 30
0.0
 10
14.1797398727
 20
19.8088721672
 30
0.0
 10
14.1887499268
 20
19.8307179971
 30
0.0
 10
14.1920056737
 20
19.8570233473
 30
0.0
 10
14.1905202247
 20
19.8757389128
 30
0.0
 10
14.1890022453
 20
19.8855767924
 30
0.0
 11
14.16394874
 21
19.7938048122
 31
0.0
 11
14.1782470422
 21
19.8089801292
 31
0.0
 11
14.1873916011
 21
19.8299136618
 31
0.0
 11
14.1910243863
 21
19.8557824277
 31
0.0
 11
14.1890022453
 21
19.8855767924
 31
0.0
  0
SPLINE
  5
409
100
AcDbEntity
  8
RACCORDO
100
AcDbSpline
 62
253
  6
CONTINUOUS
 70
0
 71
3
 72
11
 73
7
 74
5
 42
0.0000001
 43
0.0000001
 44
0.0000000001
 12
0.1426575687
 22
0.0695004483
 32
0.0
 13
0.0007563653
 23
0.1586849776
 33
0.0
 40
0.0
 40
0.0
 40
0.0
 40
0.0
 40
0.2167635091
 40
0.4498673846
 40
0.7098578217
 40
1.0
 40
1.0
 40
1.0
 40
1.0
 10
7.2930117418
 20
-24.3756342174
 30
0.0
 10
7.3033193935
 20
-24.370612497
 30
0.0
 10
7.3228730924
 20
-24.3560049746
 30
0.0
 10
7.3438952306
 20
-24.3241955585
 30
0.0
 10
7.3565830801
 20
-24.2843294721
 30
0.0
 10
7.3592003223
 20
-24.2551309452
 30
0.0
 10
7.3592734735
 20
-24.2397838768
 30
0.0
 11
7.2930117418
 21
-24.3756342174
 31
0.0
 11
7.320716193
 21
-24.3552466815
 31
0.0
 11
7.3416206713
 21
-24.3247294711
 31
0.0
 11
7.3546887876
 21
-24.2855967722
 31
0.0
 11
7.3592734735
 21
-24.2397838768
 31
0.0
  0
SPLINE
  5
40A
100
AcDbEntity
  8
RACCORDO
100
AcDbSpline
 62
7
  6
CONTINUOUS
 70
0
 71
3
 72
9
 73
5
 74
3
 42
0.0000001
 43
0.0000001
 44
0.0000000001
 12
-0.0025359186
 22
-0.1025533436
 32
0.0
 13
0.0499332414
 23
-0.0896118886
 33
0.0
 40
0.0
 40
0.0
 40
0.0
 40
0.0
 40
0.4869756651
 40
1.0
 40
1.0
 40
1.0
 40
1.0
 10
1.6731170611
 20
8.0588580914
 30
0.0
 10
1.6727054176
 20
8.0422110972
 30
0.0
 10
1.6786544294
 20
8.0078814791
 30
0.0
 10
1.6923212281
 20
7.9762908659
 30
0.0
 10
1.7008602175
 20
7.960966506
 30
0.0
 11
1.6731170611
 21
8.0588580914
 31
0.0
 11
1.6803297024
 21
8.0094252621
 31
0.0
 11
1.7008602175
 21
7.960966506
 31
0.0
  0
SPLINE
  5
40B
100
AcDbEntity
  8
RACCORDO
100
AcDbSpline
 62
253
  6
CONTINUOUS
 70
0
 71
3
 72
11
 73
7
 74
5
 42
0.0000001
 43
0.0000001
 44
0.0000000001
 12
0.0000007431
 22
-0.095345604
 32
0.0
 13
-0.0850796205
 23
-0.0430376856
 33
0.0
 40
0.0
 40
0.0
 40
0.0
 40
0.0
 40
0.2069619979
 40
0.4350645527
 40
0.6978064275
 40
1.0
 40
1.0
 40
1.0
 40
1.0
 10
14.246760002
 20
-14.6858338339
 30
0.0
 10
14.2467600532
 20
-14.6924114728
 30
0.0
 10
14.2438810602
 20
-14.7063442367
 30
0.0
 10
14.2318416464
 20
-14.7253805014
 30
0.0
 10
14.2130601042
 20
-14.7425099339
 30
0.0
 10
14.1975724167
 20
-14.7517967023
 30
0.0
 10
14.1890022453
 20
-14.7561319396
 30
0.0
 11
14.246760002
 21
-14.6858338339
 31
0.0
 11
14.2429738291
 21
-14.7052001163
 31
0.0
 11
14.231757711
 21
-14.7238333997
 31
0.0
 11
14.2135384089
 21
-14.7410271136
 31
0.0
 11
14.1890022453
 21
-14.7561319396
 31
0.0
  0
SPLINE
  5
40C
100
AcDbEntity
  8
RACCORDO
100
AcDbSpline
 62
7
  6
CONTINUOUS
 70
0
 71
3
 72
9
 73
5
 74
3
 42
0.0000001
 43
0.0000001
 44
0.0000000001
 12
-0.0045884295
 22
-0.005576179
 32
0.0
 13
-0.0070425727
 23
-0.0015967554
 33
0.0
 40
0.0
 40
0.0
 40
0.0
 40
0.0
 40
0.2030518491
 40
1.0
 40
1.0
 40
1.0
 40
1.0
 10
9.5599640253
 20
18.4554544273
 30
0.0
 10
9.5596534623
 20
18.4550770095
 30
0.0
 10
9.557852127
 20
18.4534399425
 30
0.0
 10
9.5554415408
 20
18.4526930265
 30
0.0
 10
9.5535706857
 20
18.4522688494
 30
0.0
 11
9.5599640253
 21
18.4554544273
 31
0.0
 11
9.5588968139
 21
18.4544488915
 31
0.0
 11
9.5535706857
 21
18.4522688494
 31
0.0
  0
SPLINE
  5
40D
100
AcDbEntity
  8
RACCORDO
100
AcDbSpline
 62
7
  6
CONTINUOUS
 70
0
 71
3
 72
11
 73
7
 74
5
 42
0.0000001
 43
0.0000001
 44
0.0000000001
 12
-0.063720268
 22
-0.0144472324
 32
0.0
 13
-0.0640012744
 23
0.0131465569
 33
0.0
 40
0.0
 40
0.0
 40
0.0
 40
0.0
 40
0.1602693157
 40
0.3822319954
 40
0.6633948103
 40
1.0
 40
1.0
 40
1.0
 40
1.0
 10
9.5535706857
 20
18.4522688494
 30
0.0
 10
9.5501665511
 20
18.4514970334
 30
0.0
 10
9.5417775877
 20
18.4510237223
 30
0.0
 10
9.5273633431
 20
18.4519310234
 30
0.0
 10
9.5092267556
 20
18.454435456
 30
0.0
 10
9.4960024898
 20
18.4569223712
 30
0.0
 10
9.4888214361
 20
18.4583974376
 30
0.0
 11
9.5535706857
 21
18.4522688494
 31
0.0
 11
9.5431463284
 21
18.4512752374
 31
0.0
 11
9.5286623643
 21
18.4520081792
 31
0.0
 11
9.5104487205
 21
18.454403599
 31
0.0
 11
9.4888214361
 21
18.4583974376
 31
0.0
  0
SPLINE
  5
40E
100
AcDbEntity
  8
RACCORDO
100
AcDbSpline
 62
7
  6
CONTINUOUS
 70
0
 71
3
 72
11
 73
7
 74
5
 42
0.0000001
 43
0.0000001
 44
0.0000000001
 12
-0.4087143287
 22
0.2043714832
 32
0.0
 13
-0.4104598159
 23
-0.2008428369
 33
0.0
 40
0.0
 40
0.0
 40
0.0
 40
0.0
 40
0.227550333
 40
0.4653227117
 40
0.7212674125
 40
1.0
 40
1.0
 40
1.0
 40
1.0
 10
6.8268419901
 20
25.2546615946
 30
0.0
 10
6.7958409629
 20
25.2701631943
 30
0.0
 10
6.7276296244
 20
25.2930083232
 30
0.0
 10
6.6168214733
 20
25.2991207175
 30
0.0
 10
6.5001522706
 20
25.2780665433
 30
0.0
 10
6.4239212809
 20
25.2479800938
 30
0.0
 10
6.3857851054
 20
25.2293196126
 30
0.0
 11
6.8268419901
 21
25.2546615946
 31
0.0
 11
6.7283446344
 21
25.2879863667
 31
0.0
 11
6.6199100756
 21
25.29487516
 31
0.0
 11
6.5046311125
 21
25.2751329249
 31
0.0
 11
6.3857851054
 21
25.2293196126
 31
0.0
  0
SPLINE
  5
40F
100
AcDbEntity
  8
RACCORDO
100
AcDbSpline
 62
253
  6
CONTINUOUS
 70
0
 71
3
 72
15
 73
11
 74
9
 42
0.0000001
 43
0.0000001
 44
0.0000000001
 12
-1.7493975999
 22
-1.0707612947
 32
0.0
 13
-0.0672078375
 23
-2.0499767851
 33
0.0
 40
0.0
 40
0.0
 40
0.0
 40
0.0
 40
0.1126380061
 40
0.2333115318
 40
0.3601848209
 40
0.4909225269
 40
0.6229071833
 40
0.7534338631
 40
0.8798992199
 40
1.0
 40
1.0
 40
1.0
 40
1.0
 10
2.7939872022
 20
14.2257898623
 30
0.0
 10
2.7283043163
 20
14.1855870566
 30
0.0
 10
2.5991522507
 20
14.0907405877
 30
0.0
 10
2.4222557952
 20
13.9185125693
 30
0.0
 10
2.2600827574
 20
13.7162579178
 30
0.0
 10
2.1178105508
 20
13.4904302409
 30
0.0
 10
1.999928766
 20
13.2481995539
 30
0.0
 10
1.9101957703
 20
12.9972585306
 30
0.0
 10
1.8514716415
 20
12.7456467374
 30
0.0
 10
1.8337027814
 20
12.5774168505
 30
0.0
 10
1.8310122102
 20
12.4953489135
 30
0.0
 11
2.7939872022
 21
14.2257898623
 31
0.0
 11
2.6069954976
 21
14.0901113225
 31
0.0
 11
2.4289725851
 21
13.9181536053
 31
0.0
 11
2.2657089678
 21
13.7155132808
 31
0.0
 11
2.1225217485
 21
13.4887896842
 31
0.0
 11
2.0040753745
 21
13.2453665539
 31
0.0
 11
1.9142284038
 21
12.9931726842
 31
0.0
 11
1.8559073055
 21
12.7404238069
 31
0.0
 11
1.8310122102
 21
12.4953489135
 31
0.0
  0
SPLINE
  5
410
100
AcDbEntity
  8
RACCORDO
100
AcDbSpline
 62
253
  6
CONTINUOUS
 70
0
 71
3
 72
15
 73
11
 74
9
 42
0.0000001
 43
0.0000001
 44
0.0000000001
 12
0.0697188842
 22
2.0916349707
 32
0.0
 13
1.8293997921
 23
1.016412305
 33
0.0
 40
0.0
 40
0.0
 40
0.0
 40
0.0
 40
0.1202680172
 40
0.2469590935
 40
0.3777238581
 40
0.5098938544
 40
0.6406965714
 40
0.7674612692
 40
0.8878313049
 40
1.0
 40
1.0
 40
1.0
 40
1.0
 10
-11.8081030728
 20
19.314906555
 30
0.0
 10
-11.8053080888
 20
19.3987588185
 30
0.0
 10
-11.7865606589
 20
19.5706686395
 30
0.0
 10
-11.7244479913
 20
19.8273750552
 30
0.0
 10
-11.6295539022
 20
20.0827336816
 30
0.0
 10
-11.5050346809
 20
20.3282131089
 30
0.0
 10
-11.355028854
 20
20.5556862113
 30
0.0
 10
-11.184466348
 20
20.7576219314
 30
0.0
 10
-10.9990207884
 20
20.9272981544
 30
0.0
 10
-10.8640716226
 20
21.0187745455
 30
0.0
 10
-10.7956711601
 20
21.0567777595
 30
0.0
 11
-11.8081030728
 21
19.314906555
 31
0.0
 11
-11.7818632697
 21
19.5652315419
 31
0.0
 11
-11.7201857381
 21
19.8230965982
 31
0.0
 11
-11.6251684153
 21
20.0797358831
 31
0.0
 11
-11.5000426127
 21
20.3264215416
 31
0.0
 11
-11.3490633484
 21
20.5547650433
 31
0.0
 11
-11.177365244
 21
20.757002508
 31
0.0
 11
-10.9907874291
 21
20.9262578397
 31
0.0
 11
-10.7956711601
 21
21.0567777595
 31
0.0
  0
SPLINE
  5
411
100
AcDbEntity
  8
RACCORDO
100
AcDbSpline
 62
253
  6
CONTINUOUS
 70
0
 71
3
 72
15
 73
11
 74
9
 42
0.0000001
 43
0.0000001
 44
0.0000000001
 12
0.0681837847
 22
2.0876389397
 32
0.0
 13
1.8094037435
 23
1.0435245392
 33
0.0
 40
0.0
 40
0.0
 40
0.0
 40
0.0
 40
0.1205996363
 40
0.2476869453
 40
0.3788185922
 40
0.5112437905
 40
0.6421179547
 40
0.7687098208
 40
0.8886161496
 40
1.0
 40
1.0
 40
1.0
 40
1.0
 10
-12.4009684701
 20
19.6113392536
 30
0.0
 10
-12.3982274902
 20
19.6952620859
 30
0.0
 10
-12.3798373849
 20
19.8673585758
 30
0.0
 10
-12.3189638291
 20
20.1245940578
 30
0.0
 10
-12.2259643568
 20
20.3808168726
 30
0.0
 10
-12.1039329791
 20
20.6274633469
 30
0.0
 10
-11.9569273956
 20
20.8563640841
 30
0.0
 10
-11.7897800553
 20
21.0599428667
 30
0.0
 10
-11.6080516562
 20
21.2314268752
 30
0.0
 10
-11.4755819121
 20
21.3243994825
 30
0.0
 10
-11.4084024601
 20
21.3631434095
 30
0.0
 11
-12.4009684701
 21
19.6113392536
 31
0.0
 11
-12.3752429481
 21
19.8619249481
 31
0.0
 11
-12.3147741176
 21
20.1203998703
 31
0.0
 11
-12.2216191777
 21
20.3779735316
 31
0.0
 11
-12.0989469968
 21
20.6258867901
 31
0.0
 11
-11.9509299816
 21
20.8557099138
 31
0.0
 11
-11.7826018654
 21
21.0596291803
 31
0.0
 11
-11.5996863443
 21
21.2307122519
 31
0.0
 11
-11.4084024601
 21
21.3631434095
 31
0.0
  0
SPLINE
  5
412
100
AcDbEntity
  8
RACCORDO
100
AcDbSpline
 62
253
  6
CONTINUOUS
 70
0
 71
3
 72
15
 73
11
 74
9
 42
0.0000001
 43
0.0000001
 44
0.0000000001
 12
-5.5092623612
 22
-3.0085979736
 32
0.0
 13
-5.5097491094
 23
-3.0077064821
 33
0.0
 40
0.0
 40
0.0
 40
0.0
 40
0.0
 40
0.1246248051
 40
0.2492830599
 40
0.3741184357
 40
0.49928479
 40
0.6246388163
 40
0.7499764377
 40
0.8751515018
 40
1.0
 40
1.0
 40
1.0
 40
1.0
 10
9.3031807179
 20
16.3806171204
 30
0.0
 10
9.0743171353
 20
16.2556351417
 30
0.0
 10
8.6164270386
 20
16.0058233675
 30
0.0
 10
7.9293740211
 20
15.6306594681
 30
0.0
 10
7.2422983404
 20
15.2531693196
 30
0.0
 10
6.5564991757
 20
14.8703682347
 30
0.0
 10
5.8709452663
 20
14.4849885409
 30
0.0
 10
5.1851795627
 20
14.0999469634
 30
0.0
 10
4.4993612148
 20
13.7171629615
 30
0.0
 10
4.0411985267
 20
13.4646158172
 30
0.0
 10
3.8119038928
 20
13.3394466048
 30
0.0
 11
9.3031807179
 21
16.3806171204
 31
0.0
 11
8.6165114934
 21
16.0058149244
 31
0.0
 11
7.9298608638
 21
15.6305406405
 31
0.0
 11
7.2433291963
 21
15.252737234
 31
0.0
 11
6.5570355494
 21
14.8702158156
 31
0.0
 11
5.870882674
 21
14.4850295955
 31
0.0
 11
5.1847200946
 21
14.1000710813
 31
0.0
 11
4.4984268319
 21
13.7174366865
 31
0.0
 11
3.8119038928
 21
13.3394466048
 31
0.0
  0
SPLINE
  5
413
100
AcDbEntity
  8
RACCORDO
100
AcDbSpline
 62
253
  6
CONTINUOUS
 70
0
 71
3
 72
15
 73
11
 74
9
 42
0.0000001
 43
0.0000001
 44
0.0000000001
 12
-5.5226788675
 22
-3.014118033
 32
0.0
 13
-5.5222272436
 23
-3.0149453828
 33
0.0
 40
0.0
 40
0.0
 40
0.0
 40
0.0
 40
0.1245621668
 40
0.2491616013
 40
0.3739670577
 40
0.4991600299
 40
0.6245735189
 40
0.7499694127
 40
0.8751757299
 40
1.0
 40
1.0
 40
1.0
 40
1.0
 10
8.9838092208
 20
16.9287119951
 30
0.0
 10
8.7545036054
 20
16.8035636374
 30
0.0
 10
8.2959116616
 20
16.55306833
 30
0.0
 10
7.6075027234
 20
16.1772973459
 30
0.0
 10
6.9171078205
 20
15.8024009389
 30
0.0
 10
6.2230721104
 20
15.4306580437
 30
0.0
 10
5.5269870469
 20
15.0601315134
 30
0.0
 10
4.8310290871
 20
14.6893055361
 30
0.0
 10
4.1369623155
 20
14.317560515
 30
0.0
 10
3.6758404812
 20
14.0678951695
 30
0.0
 10
3.4460711528
 20
13.9424490505
 30
0.0
 11
8.9838092208
 21
16.9287119951
 31
0.0
 11
8.295962348
 21
16.55313874
 31
0.0
 11
7.6077449208
 21
16.177755022
 31
0.0
 11
6.9174667744
 21
15.8034473564
 31
0.0
 11
6.2233204746
 21
15.4311759755
 31
0.0
 11
5.5269797917
 21
15.0600664265
 31
0.0
 11
4.8308120125
 21
14.6888678578
 31
0.0
 11
4.1365369303
 21
14.3166589747
 31
0.0
 11
3.4460711528
 21
13.9424490505
 31
0.0
  0
SPLINE
  5
414
100
AcDbEntity
  8
RACCORDO
100
AcDbSpline
 62
7
  6
CONTINUOUS
 70
0
 71
3
 72
17
 73
13
 74
11
 42
0.0000001
 43
0.0000001
 44
0.0000000001
 12
-0.0121663101
 22
0.6606898678
 32
0.0
 13
-0.5910603114
 23
0.2954772899
 33
0.0
 40
0.0
 40
0.0
 40
0.0
 40
0.0
 40
0.1192893168
 40
0.2462358296
 40
0.3780784056
 40
0.5116199611
 40
0.6435297052
 40
0.770604021
 40
0.8314705026
 40
0.8901568787
 40
0.9462942601
 40
1.0
 40
1.0
 40
1.0
 40
1.0
 10
9.3032337011
 20
16.3806421464
 30
0.0
 10
9.3027499308
 20
16.4069132274
 30
0.0
 10
9.2973615224
 20
16.4611121221
 30
0.0
 10
9.2780671816
 20
16.5423351831
 30
0.0
 10
9.2480109985
 20
16.6235751899
 30
0.0
 10
9.2082995803
 20
16.7017736629
 30
0.0
 10
9.1604341196
 20
16.7740074387
 30
0.0
 10
9.1145550364
 20
16.8277507619
 30
0.0
 10
9.075251732
 20
16.8653123794
 30
0.0
 10
9.0453023616
 20
16.8898794083
 30
0.0
 10
9.0149855405
 20
16.9113485907
 30
0.0
 10
8.9940511799
 20
16.9235919619
 30
0.0
 10
8.9834700695
 20
16.9288815708
 30
0.0
 11
9.3032337011
 21
16.3806421464
 31
0.0
 11
9.295844538
 21
16.4591216587
 31
0.0
 11
9.2767243198
 21
16.5408000592
 31
0.0
 11
9.2466120462
 21
16.6225525074
 31
0.0
 11
9.2066593261
 21
16.7012346134
 31
0.0
 11
9.1584001814
 21
16.7738225084
 31
0.0
 11
9.1036900424
 21
16.8375243178
 31
0.0
 11
9.0745602207
 21
16.865257998
 31
0.0
 11
9.0445851916
 21
16.8898626979
 31
0.0
 11
9.0142413038
 21
16.9112013593
 31
0.0
 11
8.9834700695
 21
16.9288815708
 31
0.0
  0
SPLINE
  5
415
100
AcDbEntity
  8
RACCORDO
100
AcDbSpline
 62
253
  6
CONTINUOUS
 70
0
 71
3
 72
15
 73
11
 74
9
 42
0.0000001
 43
0.0000001
 44
0.0000000001
 12
-1.2257591428
 22
-0.6691787795
 32
0.0
 13
-0.0469504614
 23
-1.3957368553
 33
0.0
 40
0.0
 40
0.0
 40
0.0
 40
0.0
 40
0.1125338173
 40
0.2331194696
 40
0.3599630984
 40
0.4907311274
 40
0.6227817687
 40
0.7533764243
 40
0.879885252
 40
1.0
 40
1.0
 40
1.0
 40
1.0
 10
3.8056487407
 20
13.3360317334
 30
0.0
 10
3.7596689556
 20
13.3109299859
 30
0.0
 10
3.6689325126
 20
13.2504180066
 30
0.0
 10
3.5441408011
 20
13.1378774192
 30
0.0
 10
3.429362712
 20
13.0037765404
 30
0.0
 10
3.3284158075
 20
12.8525802487
 30
0.0
 10
3.244617692
 20
12.689293458
 30
0.0
 10
3.1807545355
 20
12.5193201007
 30
0.0
 10
3.1389535992
 20
12.3483392219
 30
0.0
 10
3.1263408957
 20
12.2337836493
 30
0.0
 10
3.1244610814
 20
12.1779007891
 30
0.0
 11
3.8056487407
 21
13.3360317334
 31
0.0
 11
3.6743778634
 21
13.2496251243
 31
0.0
 11
3.548848606
 21
13.1373695489
 31
0.0
 11
3.4333282969
 21
13.003079556
 31
0.0
 11
3.3317449619
 21
12.8513190448
 31
0.0
 11
3.2475537753
 21
12.6872468004
 31
0.0
 11
3.1836192751
 21
12.5164415532
 31
0.0
 11
3.1421174351
 21
12.3447123687
 31
0.0
 11
3.1244610814
 21
12.1779007891
 31
0.0
  0
SPLINE
  5
416
100
AcDbEntity
  8
RACCORDO
100
AcDbSpline
 62
253
  6
CONTINUOUS
 70
0
 71
3
 72
15
 73
11
 74
9
 42
0.0000001
 43
0.0000001
 44
0.0000000001
 12
-1.8328830901
 22
-1.0116513233
 32
0.0
 13
-0.0699740672
 23
-2.0923676666
 33
0.0
 40
0.0
 40
0.0
 40
0.0
 40
0.0
 40
0.1123056518
 40
0.2327570996
 40
0.3595516032
 40
0.490341333
 40
0.6224664395
 40
0.7531672271
 40
0.8797900126
 40
1.0
 40
1.0
 40
1.0
 40
1.0
 10
3.4398160007
 20
13.9390341791
 30
0.0
 10
3.371201624
 20
13.901162792
 30
0.0
 10
3.2358185905
 20
13.8099511294
 30
0.0
 10
3.0497186424
 20
13.6405989174
 30
0.0
 10
2.8785541484
 20
13.4389561588
 30
0.0
 10
2.7280181881
 20
13.2117370455
 30
0.0
 10
2.6030576111
 20
12.9664637491
 30
0.0
 10
2.507826096
 20
12.7112550321
 30
0.0
 10
2.4454937568
 20
12.4546376598
 30
0.0
 10
2.4266814681
 20
12.2827573784
 30
0.0
 10
2.4238776075
 20
12.1989162148
 30
0.0
 11
3.4398160007
 21
13.9390341791
 31
0.0
 11
3.2440278728
 21
13.8088551453
 31
0.0
 11
3.0568051592
 21
13.6399256696
 31
0.0
 11
2.8845133485
 21
13.4379882485
 31
0.0
 11
2.7330109138
 21
13.2099078343
 31
0.0
 11
2.6074501166
 21
12.9634388852
 31
0.0
 11
2.5121016147
 21
12.7069620037
 31
0.0
 11
2.4502088984
 21
12.4491990233
 31
0.0
 11
2.4238776075
 21
12.1989162148
 31
0.0
  0
SPLINE
  5
417
100
AcDbEntity
  8
RACCORDO
100
AcDbSpline
 62
253
  6
CONTINUOUS
 70
0
 71
3
 72
15
 73
11
 74
9
 42
0.0000001
 43
0.0000001
 44
0.0000000001
 12
-0.0325365309
 22
0.7318349908
 32
0.0
 13
-0.6502427356
 23
0.3373802963
 33
0.0
 40
0.0
 40
0.0
 40
0.0
 40
0.0
 40
0.1182341861
 40
0.2445920198
 40
0.3762598589
 40
0.5099675817
 40
0.6422895269
 40
0.7699078926
 40
0.8898863809
 40
1.0
 40
1.0
 40
1.0
 40
1.0
 10
3.8056487407
 20
13.3360317334
 30
0.0
 10
3.8043664306
 20
13.3648743716
 30
0.0
 10
3.7968767908
 20
13.4243791001
 30
0.0
 10
3.7734199483
 20
13.5134369049
 30
0.0
 10
3.7381768263
 20
13.6025967393
 30
0.0
 10
3.6924617567
 20
13.688503769
 30
0.0
 10
3.6379895708
 20
13.7679534127
 30
0.0
 10
3.576778566
 20
13.8379818871
 30
0.0
 10
3.5111258893
 20
13.8959742526
 30
0.0
 10
3.463682861
 20
13.9266507906
 30
0.0
 10
3.4398160007
 20
13.9390341791
 30
0.0
 11
3.8056487407
 21
13.3360317334
 31
0.0
 11
3.7953125636
 21
13.4220261652
 31
0.0
 11
3.7720415867
 21
13.5116176561
 31
0.0
 11
3.7367283124
 21
13.6013751501
 31
0.0
 11
3.6907280148
 21
13.6878500622
 31
0.0
 11
3.6358071014
 21
13.7677236755
 31
0.0
 11
3.5740729293
 21
13.8379295772
 31
0.0
 11
3.5078979671
 21
13.8957719111
 31
0.0
 11
3.4398160007
 21
13.9390341791
 31
0.0
  0
LINE
  5
418
100
AcDbEntity
  8
RACCORDO
100
AcDbLine
 62
253
  6
CONTINUOUS
 10
2.4238776075
 20
12.1989162148
 11
2.3941352025
 21
11.2923231061
  0
SPLINE
  5
419
100
AcDbEntity
  8
RACCORDO
100
AcDbSpline
 62
253
  6
CONTINUOUS
 70
0
 71
3
 72
15
 73
11
 74
9
 42
0.0000001
 43
0.0000001
 44
0.0000000001
 12
-0.659727711
 22
-0.2858494002
 32
0.0
 13
-0.6428529931
 23
0.3220101885
 33
0.0
 40
0.0
 40
0.0
 40
0.0
 40
0.0
 40
0.111849354
 40
0.2344080017
 40
0.364618772
 40
0.4988638171
 40
0.6332637546
 40
0.7639293112
 40
0.8872119581
 40
1.0
 40
1.0
 40
1.0
 40
1.0
 10
3.1244610814
 20
12.1779007891
 30
0.0
 10
3.0998643753
 20
12.1672434322
 30
0.0
 10
3.0465418983
 20
12.1489240513
 30
0.0
 10
2.960960278
 20
12.1305025078
 30
0.0
 10
2.8686106151
 20
12.120351908
 30
0.0
 10
2.7728970358
 20
12.1188664443
 30
0.0
 10
2.6773366577
 20
12.1260996772
 30
0.0
 10
2.5854422683
 20
12.1417872896
 30
0.0
 10
2.5006015198
 20
12.1653315029
 30
0.0
 10
2.4480463176
 20
12.1868099153
 30
0.0
 10
2.4238776075
 20
12.1989162148
 30
0.0
 11
3.1244610814
 21
12.1779007891
 31
0.0
 11
3.0485917214
 21
12.1512355479
 31
0.0
 11
2.9625242757
 21
12.1323328128
 31
0.0
 11
2.8694867437
 21
12.1219004772
 31
0.0
 11
2.7729782777
 21
12.1203320391
 31
0.0
 11
2.6766259134
 21
12.1276857299
 31
0.0
 11
2.5840508447
 21
12.1436858929
 31
0.0
 11
2.498734791
 21
12.1677296245
 31
0.0
 11
2.4238776075
 21
12.1989162148
 31
0.0
  0
SPLINE
  5
41A
100
AcDbEntity
  8
RACCORDO
100
AcDbSpline
 62
253
  6
CONTINUOUS
 70
0
 71
3
 72
18
 73
14
 74
12
 42
0.0000001
 43
0.0000001
 44
0.0000000001
 12
0.0357903284
 22
-1.0294061764
 32
0.0
 13
0.9497494447
 23
0.3986652932
 33
0.0
 40
0.0
 40
0.0
 40
0.0
 40
0.0
 40
0.1464020736
 40
0.2804158293
 40
0.4031528384
 40
0.4613353836
 40
0.5180567573
 40
0.5739991726
 40
0.6298999896
 40
0.6864995015
 40
0.7444881412
 40
0.8666683876
 40
1.0
 40
1.0
 40
1.0
 40
1.0
 10
3.1244610814
 20
-23.4017238386
 30
0.0
 10
3.1262076741
 20
-23.4519595715
 30
0.0
 10
3.1368501875
 20
-23.5482029703
 30
0.0
 10
3.1774528797
 20
-23.6814556835
 30
0.0
 10
3.2318202162
 20
-23.776334487
 30
0.0
 10
3.28594278
 20
-23.8377047603
 30
0.0
 10
3.3306847476
 20
-23.8759583859
 30
0.0
 10
3.3798832223
 20
-23.9068396094
 30
0.0
 10
3.433083247
 20
-23.930058458
 30
0.0
 10
3.4897880478
 20
-23.9454013384
 30
0.0
 10
3.5707074495
 20
-23.9553839374
 30
0.0
 10
3.679189479
 20
-23.9465779613
 30
0.0
 10
3.7634381991
 20
-23.9197577355
 30
0.0
 10
3.8056487407
 20
-23.9020395067
 30
0.0
 11
3.1244610814
 21
-23.4017238386
 31
0.0
 11
3.1421174355
 21
-23.5514848756
 31
0.0
 11
3.1836192751
 21
-23.6831361993
 31
0.0
 11
3.2475537737
 21
-23.7922006194
 31
0.0
 11
3.2872812173
 21
-23.8370703688
 31
0.0
 11
3.3317449595
 21
-23.8749703819
 31
0.0
 11
3.3805660071
 21
-23.9055780696
 31
0.0
 11
3.4333282959
 21
-23.9286330048
 31
0.0
 11
3.4895822473
 21
-23.9439391154
 31
0.0
 11
3.5488486061
 21
-23.9513663291
 31
0.0
 11
3.6743778636
 21
-23.9423997088
 31
0.0
 11
3.8056487407
 21
-23.9020395067
 31
0.0
  0
SPLINE
  5
41B
100
AcDbEntity
  8
RACCORDO
100
AcDbSpline
 62
253
  6
CONTINUOUS
 70
0
 71
3
 72
14
 73
10
 74
8
 42
0.0000001
 43
0.0000001
 44
0.0000000001
 12
0.0310234375
 22
-0.8973540138
 32
0.0
 13
0.803004578
 23
-0.4017341502
 33
0.0
 40
0.0
 40
0.0
 40
0.0
 40
0.0
 40
0.2861029666
 40
0.4187728682
 40
0.5446878473
 40
0.6645183463
 40
0.7793314355
 40
0.8905743043
 40
1.0
 40
1.0
 40
1.0
 40
1.0
 10
2.4238776075
 20
-23.4163236528
 30
0.0
 10
2.42683624
 20
-23.5019022013
 30
0.0
 10
2.4418934462
 20
-23.6274587081
 30
0.0
 10
2.48806378
 20
-23.7841175101
 30
0.0
 10
2.5331472694
 20
-23.8883663638
 30
0.0
 10
2.5891017154
 20
-23.9810575792
 30
0.0
 10
2.6553956046
 20
-24.061115117
 30
0.0
 10
2.7312965394
 20
-24.1275114455
 30
0.0
 10
2.7879372092
 20
-24.1622102332
 30
0.0
 10
2.8172269874
 20
-24.1768635795
 30
0.0
 11
2.4238776075
 21
-23.4163236528
 31
0.0
 11
2.4569506467
 21
-23.6710748005
 31
0.0
 11
2.490976041
 21
-23.7852350407
 31
0.0
 11
2.5361980136
 21
-23.8888547447
 31
0.0
 11
2.5921125286
 21
-23.9807795492
 31
0.0
 11
2.6580964112
 21
-24.0599854855
 31
0.0
 11
2.7334143259
 21
-24.1255903627
 31
0.0
 11
2.8172269874
 21
-24.1768635795
 31
0.0
  0
SPLINE
  5
41C
100
AcDbEntity
  8
RACCORDO
100
AcDbSpline
 62
253
  6
CONTINUOUS
 70
0
 71
3
 72
15
 73
11
 74
9
 42
0.0000001
 43
0.0000001
 44
0.0000000001
 12
-0.6379205807
 22
-0.3396320949
 32
0.0
 13
-0.6466202757
 23
0.3227612836
 33
0.0
 40
0.0
 40
0.0
 40
0.0
 40
0.0
 40
0.1147806155
 40
0.238996331
 40
0.3697512685
 40
0.5036351842
 40
0.6370195288
 40
0.7663105112
 40
0.88820564
 40
1.0
 40
1.0
 40
1.0
 40
1.0
 10
3.1244610814
 20
-23.4017238386
 30
0.0
 10
3.1000541091
 20
-23.4147182323
 30
0.0
 10
3.0470447602
 20
-23.4377506968
 30
0.0
 10
2.9613733945
 20
-23.4627924907
 30
0.0
 10
2.8689351737
 20
-23.4790397306
 30
0.0
 10
2.7731329694
 20
-23.4858793461
 30
0.0
 10
2.6774794519
 20
-23.4830657848
 30
0.0
 10
2.5854775253
 20
-23.4706974745
 30
0.0
 10
2.5005095748
 20
-23.4492450703
 30
0.0
 10
2.4479737741
 20
-23.4283512832
 30
0.0
 10
2.4238776075
 20
-23.4163236528
 30
0.0
 11
3.1244610814
 21
-23.4017238386
 31
0.0
 11
3.0485917217
 21
-23.4352623437
 31
0.0
 11
2.9625242762
 21
-23.4607796296
 31
0.0
 11
2.8694867443
 21
-23.4773198317
 31
0.0
 11
2.7729782783
 21
-23.484259616
 31
0.0
 11
2.6766259139
 21
-23.4813389567
 31
0.0
 11
2.5840508452
 21
-23.4686668299
 31
0.0
 11
2.4987347912
 21
-23.4467210916
 31
0.0
 11
2.4238776075
 21
-23.4163236528
 31
0.0
  0
SPLINE
  5
41D
100
AcDbEntity
  8
RACCORDO
100
AcDbSpline
 62
253
  6
CONTINUOUS
 70
0
 71
3
 72
11
 73
7
 74
5
 42
0.0000001
 43
0.0000001
 44
0.0000000001
 12
-0.0134248736
 22
-0.3149266832
 32
0.0
 13
-0.2751953517
 23
-0.1537093407
 33
0.0
 40
0.0
 40
0.0
 40
0.0
 40
0.0
 40
0.28705005
 40
0.5473109285
 40
0.7824678628
 40
1.0
 40
1.0
 40
1.0
 40
1.0
 10
3.8056487407
 20
-23.9020395067
 30
0.0
 10
3.8043642038
 20
-23.9321727468
 30
0.0
 10
3.7972278648
 20
-23.9896156904
 30
0.0
 10
3.7706171173
 20
-24.0681243215
 30
0.0
 10
3.7292653629
 20
-24.1316914208
 30
0.0
 10
3.6916394852
 20
-24.162418149
 30
0.0
 10
3.6716848742
 20
-24.1735637228
 30
0.0
 11
3.8056487407
 21
-23.9020395067
 31
0.0
 11
3.7937215526
 21
-23.991731769
 31
0.0
 11
3.7664830463
 21
-24.0691153627
 31
0.0
 11
3.7251750989
 21
-24.1306628055
 31
0.0
 11
3.6716848742
 21
-24.1735637228
 31
0.0
  0
SPLINE
  5
41E
100
AcDbEntity
  8
RACCORDO
100
AcDbSpline
 62
253
  6
CONTINUOUS
 70
0
 71
3
 72
17
 73
13
 74
11
 42
0.0000001
 43
0.0000001
 44
0.0000000001
 12
5.475992135
 22
2.298622335
 32
0.0
 13
5.4759856367
 23
2.2986378156
 33
0.0
 40
0.0
 40
0.0
 40
0.0
 40
0.0
 40
0.2499733757
 40
0.3746105115
 40
0.499245912
 40
0.5616129751
 40
0.6240478744
 40
0.6865812913
 40
0.7492148184
 40
0.8119046967
 40
0.8746057253
 40
1.0
 40
1.0
 40
1.0
 40
1.0
 10
3.8119038928
 20
-23.899413848
 30
0.0
 10
4.2681879726
 20
-23.7078823865
 30
0.0
 10
4.9545259691
 20
-23.426941126
 30
0.0
 10
5.8708762701
 20
-23.0567142135
 30
0.0
 10
6.4428688133
 20
-22.8255717135
 30
0.0
 10
6.9003329508
 20
-22.6396762672
 30
0.0
 10
7.2435842216
 20
-22.4992797139
 30
0.0
 10
7.5868221919
 20
-22.3574623634
 30
0.0
 10
7.9299923738
 20
-22.2141670217
 30
0.0
 10
8.2731980485
 20
-22.0700986675
 30
0.0
 10
8.7309335922
 20
-21.877872905
 30
0.0
 10
9.0742899729
 20
-21.7338011129
 30
0.0
 10
9.303175722
 20
-21.637722439
 30
0.0
 11
3.8119038928
 21
-23.899413848
 31
0.0
 11
5.1847148685
 21
-23.3343428925
 31
0.0
 11
5.8708770112
 21
-23.0567050833
 31
0.0
 11
6.5570378811
 21
-22.7790916058
 31
0.0
 11
6.9001554987
 21
-22.6395965283
 31
0.0
 11
7.243320318
 21
-22.4991505131
 31
0.0
 11
7.5865501721
 21
-22.3573242985
 31
0.0
 11
7.9298443676
 21
-22.2141025984
 31
0.0
 11
8.273174086
 21
-22.0700986155
 31
0.0
 11
8.6165100512
 21
-21.9259383925
 31
0.0
 11
9.303175722
 21
-21.637722439
 31
0.0
  0
SPLINE
  5
41F
100
AcDbEntity
  8
RACCORDO
100
AcDbSpline
 62
7
  6
CONTINUOUS
 70
0
 71
3
 72
12
 73
8
 74
6
 42
0.0000001
 43
0.0000001
 44
0.0000000001
 12
-0.0051548444
 22
-0.2870899201
 32
0.0
 13
-0.2575085953
 23
-0.1270295949
 33
0.0
 40
0.0
 40
0.0
 40
0.0
 40
0.0
 40
0.2898786208
 40
0.5500445764
 40
0.7831998362
 40
0.8928448884
 40
1.0
 40
1.0
 40
1.0
 40
1.0
 10
9.303175722
 20
-21.637722439
 30
0.0
 10
9.3026776289
 20
-21.665462849
 30
0.0
 10
9.2972942315
 20
-21.7182207656
 30
0.0
 10
9.273848883
 20
-21.7901161739
 30
0.0
 10
9.2413024678
 20
-21.8389890205
 30
0.0
 10
9.2090016169
 20
-21.8677626662
 30
0.0
 10
9.1911968766
 20
-21.878680662
 30
0.0
 10
9.1819990892
 20
-21.8832179521
 30
0.0
 11
9.303175722
 21
-21.637722439
 31
0.0
 11
9.293925423
 21
-21.7204414693
 31
0.0
 11
9.269741639
 21
-21.7911216798
 31
0.0
 11
9.2318114833
 21
-21.8462873047
 31
0.0
 11
9.2082495885
 21
-21.8671684057
 31
0.0
 11
9.1819990892
 21
-21.8832179521
 31
0.0
  0
SPLINE
  5
420
100
AcDbEntity
  8
RACCORDO
100
AcDbSpline
 62
253
  6
CONTINUOUS
 70
0
 71
3
 72
11
 73
7
 74
5
 42
0.0000001
 43
0.0000001
 44
0.0000000001
 12
-0.1026816329
 22
0.0513348711
 32
0.0
 13
-0.1029710594
 23
-0.0507518241
 33
0.0
 40
0.0
 40
0.0
 40
0.0
 40
0.0
 40
0.2274027353
 40
0.4651090575
 40
0.7211019479
 40
1.0
 40
1.0
 40
1.0
 40
1.0
 10
9.4228154419
 20
19.1174116391
 30
0.0
 10
9.4150320805
 20
19.1213028692
 30
0.0
 10
9.3978972365
 20
19.1270270529
 30
0.0
 10
9.3700617996
 20
19.1285129221
 30
0.0
 10
9.3407582013
 20
19.1231517389
 30
0.0
 10
9.3216205417
 20
19.1155366881
 30
0.0
 10
9.3120477324
 20
19.1108184932
 30
0.0
 11
9.4228154419
 21
19.1174116391
 31
0.0
 11
9.3980810595
 21
19.1257609982
 31
0.0
 11
9.3708446597
 21
19.1274452157
 31
0.0
 11
9.34189038
 21
19.1224166291
 31
0.0
 11
9.3120477324
 21
19.1108184932
 31
0.0
  0
SPLINE
  5
421
100
AcDbEntity
  8
RACCORDO
100
AcDbSpline
 62
253
  6
CONTINUOUS
 70
0
 71
3
 72
11
 73
7
 74
5
 42
0.0000001
 43
0.0000001
 44
0.0000000001
 12
-0.0000013698
 22
-0.1191821853
 32
0.0
 13
-0.1063496865
 23
-0.0537971883
 33
0.0
 40
0.0
 40
0.0
 40
0.0
 40
0.0
 40
0.2069627866
 40
0.4350648202
 40
0.69780603
 40
1.0
 40
1.0
 40
1.0
 40
1.0
 10
9.5610192909
 20
18.8938015865
 30
0.0
 10
9.5610191964
 20
18.8855794941
 30
0.0
 10
9.5574200797
 20
18.8681635983
 30
0.0
 10
9.5423707122
 20
18.8443683495
 30
0.0
 10
9.5188937724
 20
18.8229565517
 30
0.0
 10
9.4995341807
 20
18.8113480163
 30
0.0
 10
9.4888214361
 20
18.8059289544
 30
0.0
 11
9.5610192909
 21
18.8938015865
 31
0.0
 11
9.5562861081
 21
18.8695936909
 31
0.0
 11
9.542265809
 21
18.8463022025
 31
0.0
 11
9.5194916964
 21
18.8248100905
 31
0.0
 11
9.4888214361
 21
18.8059289544
 31
0.0
  0
SPLINE
  5
422
100
AcDbEntity
  8
RACCORDO
100
AcDbSpline
 62
253
  6
CONTINUOUS
 70
0
 71
3
 72
12
 73
8
 74
6
 42
0.0000001
 43
0.0000001
 44
0.0000000001
 12
0.0080892504
 22
-0.240884325
 32
0.0
 13
0.2155017174
 23
-0.1079337936
 33
0.0
 40
0.0
 40
0.0
 40
0.0
 40
0.0
 40
0.1048972658
 40
0.2122700343
 40
0.4422669276
 40
0.7032089289
 40
1.0
 40
1.0
 40
1.0
 40
1.0
 10
-12.5474317841
 20
-15.8262536373
 30
0.0
 10
-12.5471489374
 20
-15.8346763397
 30
0.0
 10
-12.5449924436
 20
-15.8517072336
 30
0.0
 10
-12.5342450857
 20
-15.8857469641
 30
0.0
 10
-12.508101615
 20
-15.9270741723
 30
0.0
 10
-12.460983741
 20
-15.9700830723
 30
0.0
 10
-12.422288132
 20
-15.9932226852
 30
0.0
 10
-12.4009684701
 20
-16.003900614
 30
0.0
 11
-12.5474317841
 21
-15.8262536373
 31
0.0
 11
-12.5442845446
 21
-15.8513393332
 31
0.0
 11
-12.5365621503
 21
-15.8760392743
 31
0.0
 11
-12.5077169174
 21
-15.9233770735
 31
0.0
 11
-12.4619602538
 21
-15.9665252529
 31
0.0
 11
-12.4009684701
 21
-16.003900614
 31
0.0
  0
SPLINE
  5
423
100
AcDbEntity
  8
RACCORDO
100
AcDbSpline
 62
253
  6
CONTINUOUS
 70
0
 71
3
 72
11
 73
7
 74
5
 42
0.0000001
 43
0.0000001
 44
0.0000000001
 12
-0.1026843522
 22
0.0513470349
 32
0.0
 13
-0.1029781204
 23
-0.0507553043
 33
0.0
 40
0.0
 40
0.0
 40
0.0
 40
0.0
 40
0.2274032722
 40
0.4651087917
 40
0.721101419
 40
1.0
 40
1.0
 40
1.0
 40
1.0
 10
8.0854963809
 20
19.7860711679
 30
0.0
 10
8.077712795
 20
19.7899633292
 30
0.0
 10
8.0605771666
 20
19.7956891927
 30
0.0
 10
8.0327398501
 20
19.7971764647
 30
0.0
 10
8.0034340975
 20
19.7918155808
 30
0.0
 10
7.9842950557
 20
19.7842001009
 30
0.0
 10
7.9747215718
 20
19.7794815735
 30
0.0
 11
8.0854963809
 21
19.7860711679
 31
0.0
 11
8.0607608536
 21
19.7944229253
 31
0.0
 11
8.0335227583
 21
19.7961085473
 31
0.0
 11
8.0045664005
 21
19.7910803258
 31
0.0
 11
7.9747215718
 21
19.7794815735
 31
0.0
  0
SPLINE
  5
424
100
AcDbEntity
  8
RACCORDO
100
AcDbSpline
 62
253
  6
CONTINUOUS
 70
0
 71
3
 72
12
 73
8
 74
6
 42
0.0000001
 43
0.0000001
 44
0.0000000001
 12
-0.0077574215
 22
-0.2398600545
 32
0.0
 13
0.2147274506
 23
-0.1071687701
 33
0.0
 40
0.0
 40
0.0
 40
0.0
 40
0.0
 40
0.0992777637
 40
0.2018807863
 40
0.4272194973
 40
0.6918017986
 40
1.0
 40
1.0
 40
1.0
 40
1.0
 10
-12.5474508137
 20
19.7863730982
 30
0.0
 10
-12.5477075269
 20
19.7784355082
 30
0.0
 10
-12.5464916711
 20
19.7621895284
 30
0.0
 10
-12.5369379385
 20
19.7291587354
 30
0.0
 10
-12.5108270305
 20
19.6884587407
 30
0.0
 10
-12.462730016
 20
19.6457379557
 30
0.0
 10
-12.4230280026
 20
19.6223489968
 30
0.0
 10
-12.4009684646
 20
19.6113392561
 30
0.0
 11
-12.5474508137
 21
19.7863730982
 31
0.0
 11
-12.5457139613
 21
19.7626112703
 31
0.0
 11
-12.5389858761
 21
19.7389250607
 31
0.0
 11
-12.5108777964
 21
19.6927258443
 31
0.0
 11
-12.4642521762
 21
19.6496238525
 31
0.0
 11
-12.4009684646
 21
19.6113392561
 31
0.0
  0
SPLINE
  5
425
100
AcDbEntity
  8
RACCORDO
100
AcDbSpline
 62
253
  6
CONTINUOUS
 70
0
 71
3
 72
11
 73
7
 74
5
 42
0.0000001
 43
0.0000001
 44
0.0000000001
 12
0.2096925237
 22
0.1223159007
 32
0.0
 13
0.2188141596
 23
-0.1051308593
 33
0.0
 40
0.0
 40
0.0
 40
0.0
 40
0.0
 40
0.2233267907
 40
0.4590934638
 40
0.7164208844
 40
1.0
 40
1.0
 40
1.0
 40
1.0
 10
-11.6419624469
 20
21.3717844026
 30
0.0
 10
-11.6263524608
 20
21.3808898751
 30
0.0
 10
-11.591134155
 20
21.3946642558
 30
0.0
 10
-11.5326783486
 20
21.399404373
 30
0.0
 10
-11.4701819771
 20
21.3889497789
 30
0.0
 10
-11.4290861687
 20
21.373081048
 30
0.0
 10
-11.4084024601
 20
21.3631434093
 30
0.0
 11
-11.6419624469
 21
21.3717844026
 31
0.0
 11
-11.5915581362
 21
21.3917503016
 31
0.0
 11
-11.5345646796
 21
21.396998448
 31
0.0
 11
-11.4728441448
 21
21.3873595498
 31
0.0
 11
-11.4084024601
 21
21.3631434093
 31
0.0
  0
SPLINE
  5
426
100
AcDbEntity
  8
RACCORDO
100
AcDbSpline
 62
253
  6
CONTINUOUS
 70
0
 71
3
 72
12
 73
8
 74
6
 42
0.0000001
 43
0.0000001
 44
0.0000000001
 12
-1.9098098828
 22
-0.6542610297
 32
0.0
 13
-1.9154650675
 23
0.6375145947
 33
0.0
 40
0.0
 40
0.0
 40
0.0
 40
0.0
 40
0.1162752407
 40
0.2340762333
 40
0.4762655705
 40
0.7306676413
 40
1.0
 40
1.0
 40
1.0
 40
1.0
 10
-1.9028421459
 20
-7.6042995469
 30
0.0
 10
-1.9768633472
 20
-7.6296576664
 30
0.0
 10
-2.1284000545
 20
-7.6736606338
 30
0.0
 10
-2.4434674117
 20
-7.7343269442
 30
0.0
 10
-2.8585928094
 20
-7.7568801457
 30
0.0
 10
-3.3727836635
 20
-7.6997909241
 30
0.0
 10
-3.7148558715
 20
-7.6095695978
 30
0.0
 10
-3.8868214464
 20
-7.5523351613
 30
0.0
 11
-1.9028421459
 21
-7.6042995469
 31
0.0
 11
-2.1282298997
 21
-7.6698732658
 31
0.0
 11
-2.3617246342
 21
-7.7149872322
 31
0.0
 11
-2.8498291439
 21
-7.7432920121
 31
0.0
 11
-3.3605121698
 21
-7.6888269283
 31
0.0
 11
-3.8868214464
 21
-7.5523351613
 31
0.0
  0
SPLINE
  5
427
100
AcDbEntity
  8
ASSI
100
AcDbSpline
 62
7
  6
CONTINUOUS
 70
0
 71
3
 72
13
 73
9
 74
7
 42
0.0000001
 43
0.0000001
 44
0.0000000001
 12
-0.1074301559
 22
0.0533593358
 32
0.0
 13
-0.114239298
 23
-0.0365764938
 33
0.0
 40
0.0
 40
0.0
 40
0.0
 40
0.0
 40
0.0547027218
 40
0.12553101
 40
0.2154900889
 40
0.3266288228
 40
0.6170723146
 40
1.0
 40
1.0
 40
1.0
 40
1.0
 10
9.9827487292
 20
23.0331875585
 30
0.0
 10
9.9807898219
 20
23.0341605254
 30
0.0
 10
9.9758998269
 20
23.0355758953
 30
0.0
 10
9.9672869289
 20
23.0362665912
 30
0.0
 10
9.9564036544
 20
23.0357503505
 30
0.0
 10
9.9369150427
 20
23.0330912567
 30
0.0
 10
9.9063311109
 20
23.0258798501
 30
0.0
 10
9.8805527488
 20
23.0180982811
 30
0.0
 10
9.8659709521
 20
23.0134295637
 30
0.0
 11
9.9827487292
 21
23.0331875585
 31
0.0
 11
9.9765038087
 21
23.0352017113
 31
0.0
 11
9.9680498795
 21
23.0360460348
 31
0.0
 11
9.9572664147
 21
23.0356492586
 31
0.0
 11
9.9440445099
 21
23.0339448998
 31
0.0
 11
9.9100245562
 21
23.0264338478
 31
0.0
 11
9.8659709521
 21
23.0134295637
 31
0.0
  0
SPLINE
  5
428
100
AcDbEntity
  8
RACCORDO
100
AcDbSpline
 62
253
  6
CONTINUOUS
 70
0
 71
3
 72
14
 73
10
 74
8
 42
0.0000001
 43
0.0000001
 44
0.0000000001
 12
-0.7560079818
 22
0.4206054613
 32
0.0
 13
-0.0292163745
 23
0.8646406341
 33
0.0
 40
0.0
 40
0.0
 40
0.0
 40
0.0
 40
0.1079245603
 40
0.2183252286
 40
0.3328495335
 40
0.4528144408
 40
0.5791568629
 40
0.7124340192
 40
1.0
 40
1.0
 40
1.0
 40
1.0
 10
-12.0379813308
 20
-16.7486624174
 30
0.0
 10
-12.0651786071
 20
-16.7335311976
 30
0.0
 10
-12.1176844229
 20
-16.6981582744
 30
0.0
 10
-12.1876805575
 20
-16.6319082699
 30
0.0
 10
-12.2487357346
 20
-16.5529241271
 30
0.0
 10
-12.3002323203
 20
-16.4621449212
 30
0.0
 10
-12.3417202351
 20
-16.3605456479
 30
0.0
 10
-12.3842451343
 20
-16.2083193707
 30
0.0
 10
-12.398167925
 20
-16.0867810246
 30
0.0
 10
-12.4009684701
 20
-16.003900614
 30
0.0
 11
-12.0379813308
 21
-16.7486624174
 31
0.0
 11
-12.1154777589
 21
-16.6965844518
 31
0.0
 11
-12.1850107764
 21
-16.631104807
 31
0.0
 11
-12.2458534227
 21
-16.5529076377
 31
0.0
 11
-12.2973695436
 21
-16.4628100926
 31
0.0
 11
-12.3390204643
 21
-16.3617537871
 31
0.0
 11
-12.370370636
 21
-16.2507949684
 31
0.0
 11
-12.4009684701
 21
-16.003900614
 31
0.0
  0
SPLINE
  5
429
100
AcDbEntity
  8
ASSI
100
AcDbSpline
 62
7
  6
CONTINUOUS
 70
0
 71
3
 72
13
 73
9
 74
7
 42
0.0000001
 43
0.0000001
 44
0.0000000001
 12
-0.1090711251
 22
0.0542082038
 32
0.0
 13
-0.1159470089
 23
-0.0373005473
 33
0.0
 40
0.0
 40
0.0
 40
0.0
 40
0.0
 40
0.0544143451
 40
0.1250279196
 40
0.214867035
 40
0.3259870749
 40
0.6166718751
 40
1.0
 40
1.0
 40
1.0
 40
1.0
 10
4.4277643525
 20
25.8106797568
 30
0.0
 10
4.4257860079
 20
25.8116629914
 30
0.0
 10
4.4208374508
 20
25.8130873418
 30
0.0
 10
4.4121156797
 20
25.8137660509
 30
0.0
 10
4.4010804168
 20
25.8132153715
 30
0.0
 10
4.3812940668
 20
25.8104683062
 30
0.0
 10
4.3502299043
 20
25.8030767228
 30
0.0
 10
4.3240423294
 20
25.7951264986
 30
0.0
 10
4.3092270796
 20
25.7903603823
 30
0.0
 11
4.4277643525
 21
25.8106797568
 31
0.0
 11
4.421454647
 21
25.8127078091
 31
0.0
 11
4.4128947313
 21
25.8135441457
 31
0.0
 11
4.4019607978
 21
25.8131155538
 31
0.0
 11
4.388541592
 21
25.8113540227
 31
0.0
 11
4.3539846739
 21
25.8036504228
 31
0.0
 11
4.3092270796
 21
25.7903603823
 31
0.0
  0
SPLINE
  5
42A
100
AcDbEntity
  8
RACCORDO
100
AcDbSpline
 62
253
  6
CONTINUOUS
 70
0
 71
3
 72
11
 73
7
 74
5
 42
0.0000001
 43
0.0000001
 44
0.0000000001
 12
-0.1076143396
 22
0.0538071698
 32
0.0
 13
-0.0000116247
 23
0.1203164888
 33
0.0
 40
0.0
 40
0.0
 40
0.0
 40
0.0
 40
0.3025789318
 40
0.5654800689
 40
0.7934320357
 40
1.0
 40
1.0
 40
1.0
 40
1.0
 10
5.681766834
 20
-23.576778813
 30
0.0
 10
5.67091289
 20
-23.5713518411
 30
0.0
 10
5.6512955639
 20
-23.559712904
 30
0.0
 10
5.6274850843
 20
-23.5381940398
 30
0.0
 10
5.6122054961
 20
-23.5142418494
 30
0.0
 10
5.6085443324
 20
-23.4966817621
 30
0.0
 10
5.608543532
 20
-23.4883972514
 30
0.0
 11
5.681766834
 21
-23.576778813
 31
0.0
 11
5.6506771189
 21
-23.5578375687
 31
0.0
 11
5.6275769482
 21
-23.5362291467
 31
0.0
 11
5.6133493579
 21
-23.5127817158
 31
0.0
 11
5.608543532
 21
-23.4883972514
 31
0.0
  0
SPLINE
  5
42B
100
AcDbEntity
  8
RACCORDO
100
AcDbSpline
 62
253
  6
CONTINUOUS
 70
0
 71
3
 72
11
 73
7
 74
5
 42
0.0000001
 43
0.0000001
 44
0.0000000001
 12
0.0
 22
0.2523287194
 32
0.0
 13
0.1609736043
 23
0.1943123294
 33
0.0
 40
0.0
 40
0.0
 40
0.0
 40
0.0
 40
0.2352285381
 40
0.4870811593
 40
0.7456475008
 40
1.0
 40
1.0
 40
1.0
 40
1.0
 10
7.0067515138
 20
-23.8992972188
 30
0.0
 10
7.0067515138
 20
-23.8795122469
 30
0.0
 10
7.0112823336
 20
-23.838486902
 30
0.0
 10
7.0290319657
 20
-23.7780571246
 30
0.0
 10
7.0568563827
 20
-23.7197760493
 30
0.0
 10
7.0814918486
 20
-23.6840776539
 30
0.0
 10
7.0951398615
 20
-23.667603045
 30
0.0
 11
7.0067515138
 21
-23.8992972188
 31
0.0
 11
7.0127751638
 21
-23.84024875
 31
0.0
 11
7.0304352593
 21
-23.7792022189
 31
0.0
 11
7.0585278632
 21
-23.7203163309
 31
0.0
 11
7.0951398615
 21
-23.667603045
 31
0.0
  0
SPLINE
  5
42C
100
AcDbEntity
  8
RACCORDO
100
AcDbSpline
 62
253
  6
CONTINUOUS
 70
0
 71
3
 72
13
 73
9
 74
7
 42
0.0000001
 43
0.0000001
 44
0.0000000001
 12
0.3242438587
 22
-0.1621219294
 32
0.0
 13
0.3249922966
 23
0.1606163349
 33
0.0
 40
0.0
 40
0.0
 40
0.0
 40
0.0
 40
0.1125245594
 40
0.2354259647
 40
0.4995815213
 40
0.7639633273
 40
0.8871315091
 40
1.0
 40
1.0
 40
1.0
 40
1.0
 10
7.0067515138
 20
-23.8992972188
 30
0.0
 10
7.0189133129
 20
-23.9053781184
 30
0.0
 10
7.0454100661
 20
-23.9160422348
 30
0.0
 10
7.1039000106
 20
-23.9314295454
 30
0.0
 10
7.1828248501
 20
-23.9388895278
 30
0.0
 10
7.2617997484
 20
-23.9316491239
 30
0.0
 10
7.3204390121
 20
-23.9164362655
 30
0.0
 10
7.3470463435
 20
-23.9058527838
 30
0.0
 10
7.3592734735
 20
-23.8998099427
 30
0.0
 11
7.0067515138
 21
-23.8992972188
 31
0.0
 11
7.044485792
 21
-23.9147925254
 31
0.0
 11
7.087521369
 21
-23.9263237792
 31
0.0
 11
7.1828010322
 21
-23.9359083424
 31
0.0
 11
7.2781905917
 21
-23.9266010828
 31
0.0
 11
7.321359603
 21
-23.9151952007
 31
0.0
 11
7.3592734735
 21
-23.8998099427
 31
0.0
  0
SPLINE
  5
42D
100
AcDbEntity
  8
RACCORDO
100
AcDbSpline
 62
253
  6
CONTINUOUS
 70
0
 71
3
 72
13
 73
9
 74
7
 42
0.0000001
 43
0.0000001
 44
0.0000000001
 12
0.3242438585
 22
-0.1621219293
 32
0.0
 13
0.3249922964
 23
0.1606163348
 33
0.0
 40
0.0
 40
0.0
 40
0.0
 40
0.0
 40
0.1125245899
 40
0.2354260292
 40
0.4995816495
 40
0.7639634918
 40
0.8871317035
 40
1.0
 40
1.0
 40
1.0
 40
1.0
 10
7.0067515138
 20
-24.239271153
 30
0.0
 10
7.0189133162
 20
-24.2453520542
 30
0.0
 10
7.0454100768
 20
-24.256016173
 30
0.0
 10
7.1039000373
 20
-24.2714034845
 30
0.0
 10
7.1828248933
 20
-24.2788634623
 30
0.0
 10
7.2617998076
 20
-24.2716230521
 30
0.0
 10
7.3204390525
 20
-24.2564101827
 30
0.0
 10
7.3470463645
 20
-24.2458267075
 30
0.0
 10
7.3592734735
 20
-24.2397838768
 30
0.0
 11
7.0067515138
 21
-24.239271153
 31
0.0
 11
7.0444858024
 21
-24.2547664631
 31
0.0
 11
7.0875213919
 21
-24.266297718
 31
0.0
 11
7.1828010787
 21
-24.2758822766
 31
0.0
 11
7.2781906502
 21
-24.2665750055
 31
0.0
 11
7.3213596696
 21
-24.2551691113
 31
0.0
 11
7.3592734735
 21
-24.2397838768
 31
0.0
  0
SPLINE
  5
42E
100
AcDbEntity
  8
RACCORDO
100
AcDbSpline
 62
253
  6
CONTINUOUS
 70
0
 71
3
 72
11
 73
7
 74
5
 42
0.0000001
 43
0.0000001
 44
0.0000000001
 12
0.0
 22
-0.1574238334
 32
0.0
 13
0.1407964518
 23
-0.0704174871
 33
0.0
 40
0.0
 40
0.0
 40
0.0
 40
0.0
 40
0.2897495234
 40
0.549584515
 40
0.7828462997
 40
1.0
 40
1.0
 40
1.0
 40
1.0
 10
7.0067515138
 20
-24.239271153
 30
0.0
 10
7.0067515138
 20
-24.2544756465
 30
0.0
 10
7.0092049829
 20
-24.2834245895
 30
0.0
 10
7.0215777132
 20
-24.323017162
 30
0.0
 10
7.0422412629
 20
-24.3547163563
 30
0.0
 10
7.061527464
 20
-24.3693891633
 30
0.0
 10
7.0717189542
 20
-24.3744863026
 30
0.0
 11
7.0067515138
 21
-24.239271153
 31
0.0
 11
7.0110709198
 21
-24.2846796583
 31
0.0
 11
7.0238171466
 21
-24.3235472405
 31
0.0
 11
7.044367951
 21
-24.3539790275
 31
0.0
 11
7.0717189542
 21
-24.3744863026
 31
0.0
  0
SPLINE
  5
42F
100
AcDbEntity
  8
RACCORDO
100
AcDbSpline
 62
253
  6
CONTINUOUS
 70
0
 71
3
 72
11
 73
7
 74
5
 42
0.0000001
 43
0.0000001
 44
0.0000000001
 12
0.0
 22
-0.1574304607
 32
0.0
 13
0.1408074022
 23
-0.0704104071
 33
0.0
 40
0.0
 40
0.0
 40
0.0
 40
0.0
 40
0.2897508691
 40
0.5495855602
 40
0.7828462233
 40
1.0
 40
1.0
 40
1.0
 40
1.0
 10
5.681766834
 20
-23.576778813
 30
0.0
 10
5.681766834
 20
-23.5919840173
 30
0.0
 10
5.6842205243
 20
-23.6209342467
 30
0.0
 10
5.696594446
 20
-23.6605283271
 30
0.0
 10
5.7172600416
 20
-23.6922281135
 30
0.0
 10
5.7365479923
 20
-23.706900338
 30
0.0
 10
5.7467402787
 20
-23.7119969666
 30
0.0
 11
5.681766834
 21
-23.576778813
 31
0.0
 11
5.6860866656
 21
-23.6221894196
 31
0.0
 11
5.6988341273
 21
-23.6610583593
 31
0.0
 11
5.7193868567
 21
-23.6914904987
 31
0.0
 11
5.7467402787
 21
-23.7119969666
 31
0.0
  0
SPLINE
  5
430
100
AcDbEntity
  8
RACCORDO
100
AcDbSpline
 62
253
  6
CONTINUOUS
 70
0
 71
3
 72
12
 73
8
 74
6
 42
0.0000001
 43
0.0000001
 44
0.0000000001
 12
0.2639969164
 22
-0.1308371169
 32
0.0
 13
-0.0389784625
 23
-0.2920503424
 33
0.0
 40
0.0
 40
0.0
 40
0.0
 40
0.0
 40
0.2258470029
 40
0.3501799098
 40
0.4797301361
 40
0.7443751725
 40
1.0
 40
1.0
 40
1.0
 40
1.0
 10
14.0713180916
 20
-14.5029813471
 30
0.0
 10
14.0911923958
 20
-14.5128310707
 30
0.0
 10
14.1186277409
 20
-14.5352676849
 30
0.0
 10
14.147190622
 20
-14.5728120525
 30
0.0
 10
14.1718573604
 20
-14.617579855
 30
0.0
 10
14.1907860567
 20
-14.6793317418
 30
0.0
 10
14.1923235328
 20
-14.7312468335
 30
0.0
 10
14.1890022453
 20
-14.7561319396
 30
0.0
 11
14.0713180916
 21
-14.5029813471
 31
0.0
 11
14.1238416053
 21
-14.5438387294
 31
0.0
 11
14.1461512185
 21
-14.5728954075
 31
0.0
 11
14.1646456407
 21
-14.6062863785
 31
0.0
 11
14.1875253533
 21
-14.6808291248
 31
0.0
 11
14.1890022453
 21
-14.7561319396
 31
0.0
  0
SPLINE
  5
431
100
AcDbEntity
  8
RACCORDO
100
AcDbSpline
 62
253
  6
CONTINUOUS
 70
0
 71
3
 72
13
 73
9
 74
7
 42
0.0000001
 43
0.0000001
 44
0.0000000001
 12
0.1276934635
 22
0.3370670904
 32
0.0
 13
-0.3225548801
 23
0.1608670051
 33
0.0
 40
0.0
 40
0.0
 40
0.0
 40
0.0
 40
0.2701264394
 40
0.5327826693
 40
0.6577241283
 40
0.7769941193
 40
0.8907279222
 40
1.0
 40
1.0
 40
1.0
 40
1.0
 10
9.4888214361
 20
-22.8412067018
 30
0.0
 10
9.5003192296
 20
-22.8108564574
 30
0.0
 10
9.5138028646
 20
-22.7471297629
 30
0.0
 10
9.5060139374
 20
-22.6670113637
 30
0.0
 10
9.484599957
 20
-22.6096784567
 30
0.0
 10
9.4621008358
 20
-22.5726851778
 30
0.0
 10
9.4337199152
 20
-22.5424983858
 30
0.0
 10
9.411156388
 20
-22.5274993197
 30
0.0
 10
9.3994076407
 20
-22.5216398958
 30
0.0
 11
9.4888214361
 21
-22.8412067018
 31
0.0
 11
9.5089039438
 21
-22.7459348688
 31
0.0
 11
9.4989712399
 21
-22.6517845106
 31
0.0
 11
9.4830430146
 21
-22.6096610227
 31
0.0
 11
9.4605280311
 21
-22.5730382392
 31
0.0
 11
9.4322907451
 21
-22.5433192561
 31
0.0
 11
9.3994076407
 21
-22.5216398958
 31
0.0
  0
SPLINE
  5
432
100
AcDbEntity
  8
RACCORDO
100
AcDbSpline
 62
253
  6
CONTINUOUS
 70
0
 71
3
 72
11
 73
7
 74
5
 42
0.0000001
 43
0.0000001
 44
0.0000000001
 12
0.1290077661
 22
-0.0645624476
 32
0.0
 13
0.1319778257
 23
0.0582508959
 33
0.0
 40
0.0
 40
0.0
 40
0.0
 40
0.0
 40
0.2362921187
 40
0.501783568
 40
0.7663187212
 40
1.0
 40
1.0
 40
1.0
 40
1.0
 10
-11.8081029233
 20
19.3149066222
 30
0.0
 10
-11.7979417505
 20
19.309821423
 30
0.0
 10
-11.7746992809
 20
19.3023614816
 30
0.0
 10
-11.7379236075
 20
19.2980732768
 30
0.0
 10
-11.701093309
 20
19.3002984736
 30
0.0
 10
-11.6776415377
 20
19.3064705561
 30
0.0
 10
-11.6673612887
 20
19.3110079374
 30
0.0
 11
-11.8081029233
 21
19.3149066222
 31
0.0
 11
-11.7758659251
 21
19.3038271773
 31
0.0
 11
-11.7378463853
 21
19.2991995667
 31
0.0
 11
-11.6997674764
 21
19.3017191734
 31
0.0
 11
-11.6673612887
 21
19.3110079374
 31
0.0
  0
SPLINE
  5
433
100
AcDbEntity
  8
RACCORDO
100
AcDbSpline
 62
253
  6
CONTINUOUS
 70
0
 71
3
 72
11
 73
7
 74
5
 42
0.0000001
 43
0.0000001
 44
0.0000000001
 12
0.1304199942
 22
-0.0664284961
 32
0.0
 13
0.0064477652
 23
-0.1462208819
 33
0.0
 40
0.0
 40
0.0
 40
0.0
 40
0.0
 40
0.2305066381
 40
0.4905793394
 40
0.755782891
 40
1.0
 40
1.0
 40
1.0
 40
1.0
 10
-10.7956711601
 20
21.0567777595
 30
0.0
 10
-10.7856502686
 20
21.0516736897
 30
0.0
 10
-10.7664257263
 20
21.0366781952
 30
0.0
 10
-10.7437078337
 20
21.0072823267
 30
0.0
 10
-10.7275956305
 20
20.9730625892
 30
0.0
 10
-10.7224044076
 20
20.9483849516
 30
0.0
 10
-10.7218795227
 20
20.9364817379
 30
0.0
 11
-10.7956711601
 21
21.0567777595
 31
0.0
 11
-10.7685730459
 21
21.0366799897
 31
0.0
 11
-10.7450364131
 21
21.0067639038
 31
0.0
 11
-10.7286401564
 21
20.9715809093
 31
0.0
 11
-10.7218795227
 21
20.9364817379
 31
0.0
  0
SPLINE
  5
434
100
AcDbEntity
  8
RACCORDO
100
AcDbSpline
 62
7
  6
CONTINUOUS
 70
0
 71
3
 72
11
 73
7
 74
5
 42
0.0000001
 43
0.0000001
 44
0.0000000001
 12
-0.148933939
 22
-0.070000811
 32
0.0
 13
-0.1337228453
 23
-0.0959147139
 33
0.0
 40
0.0
 40
0.0
 40
0.0
 40
0.0
 40
0.2669310318
 40
0.5463202272
 40
0.7948127997
 40
1.0
 40
1.0
 40
1.0
 40
1.0
 10
-11.7991731593
 20
14.8655949602
 30
0.0
 10
-11.8124248559
 20
14.8593664973
 30
0.0
 10
-11.8389454068
 20
14.8453559556
 30
0.0
 10
-11.8766746253
 20
14.8234990739
 30
0.0
 10
-11.9107669139
 20
14.802160364
 30
0.0
 10
-11.9314001682
 20
14.7882298921
 30
0.0
 10
-11.9405462403
 20
14.7816697349
 30
0.0
 11
-11.7991731593
 21
14.8655949602
 31
0.0
 11
-11.8382004798
 21
14.8454336313
 31
0.0
 11
-11.8779988577
 21
14.8224114626
 31
0.0
 11
-11.912641175
 21
14.8006824677
 31
0.0
 11
-11.9405462403
 21
14.7816697349
 31
0.0
  0
SPLINE
  5
435
100
AcDbEntity
  8
RACCORDO
100
AcDbSpline
 62
253
  6
CONTINUOUS
 70
0
 71
3
 72
13
 73
9
 74
7
 42
0.0000001
 43
0.0000001
 44
0.0000000001
 12
-0.1868382045
 22
0.3017261023
 32
0.0
 13
-0.3164708648
 23
0.1606030733
 33
0.0
 40
0.0
 40
0.0
 40
0.0
 40
0.0
 40
0.1018788417
 40
0.2189946503
 40
0.483012367
 40
0.7559759138
 40
0.8838496473
 40
1.0
 40
1.0
 40
1.0
 40
1.0
 10
7.3592734735
 20
-23.8998099427
 30
0.0
 10
7.3529285202
 20
-23.8895634407
 30
0.0
 10
7.3379138401
 20
-23.8683874943
 30
0.0
 10
7.3011083294
 20
-23.8246298494
 30
0.0
 10
7.2454762268
 20
-23.7705719031
 30
0.0
 10
7.1836647149
 20
-23.7216864687
 30
0.0
 10
7.1325483728
 20
-23.6880511127
 30
0.0
 10
7.1073925957
 20
-23.6738210795
 30
0.0
 10
7.0951398615
 20
-23.667603045
 30
0.0
 11
7.3592734735
 21
-23.8998099427
 31
0.0
 11
7.3385965066
 21
-23.870150102
 31
0.0
 11
7.3119836887
 21
-23.8382241989
 31
0.0
 11
7.2452092316
 21
-23.7724947304
 31
0.0
 11
7.1690783598
 21
-23.7125923157
 31
0.0
 11
7.1311068788
 21
-23.6877404406
 31
0.0
 11
7.0951398615
 21
-23.667603045
 31
0.0
  0
SPLINE
  5
436
100
AcDbEntity
  8
RACCORDO
100
AcDbSpline
 62
7
  6
CONTINUOUS
 70
0
 71
3
 72
13
 73
9
 74
7
 42
0.0000001
 43
0.0000001
 44
0.0000000001
 12
-0.3676034061
 22
0.0767624926
 32
0.0
 13
-0.3358865814
 23
0.1679432907
 33
0.0
 40
0.0
 40
0.0
 40
0.0
 40
0.0
 40
0.0966834289
 40
0.2082492961
 40
0.4660034111
 40
0.7454687051
 40
0.8795048358
 40
1.0
 40
1.0
 40
1.0
 40
1.0
 10
8.0704940816
 20
-23.0483134655
 30
0.0
 10
8.058647029
 20
-23.0458395785
 30
0.0
 10
8.033272443
 20
-23.0398230214
 30
0.0
 10
7.9770309882
 20
-23.0243122522
 30
0.0
 10
7.8997604413
 20
-22.9991765136
 30
0.0
 10
7.821170892
 20
-22.9693364644
 30
0.0
 10
7.7597224315
 20
-22.9429953858
 30
0.0
 10
7.7309487965
 20
-22.929289079
 30
0.0
 10
7.7174578936
 20
-22.9225436275
 30
0.0
 11
8.0704940816
 21
-23.0483134655
 31
0.0
 11
8.0351378153
 21
-23.040055779
 31
0.0
 11
7.9947278313
 21
-23.0289941289
 31
0.0
 11
7.9025962961
 21
-22.9993113546
 31
0.0
 11
7.8045230991
 21
-22.9619509406
 31
0.0
 11
7.7583073211
 21
-22.9420083254
 31
0.0
 11
7.7174578936
 21
-22.9225436275
 31
0.0
  0
SPLINE
  5
437
100
AcDbEntity
  8
RACCORDO
100
AcDbSpline
 62
253
  6
CONTINUOUS
 70
0
 71
3
 72
11
 73
7
 74
5
 42
0.0000001
 43
0.0000001
 44
0.0000000001
 12
-0.0429135786
 22
0.0214373095
 32
0.0
 13
0.0015645503
 23
0.0479446102
 33
0.0
 40
0.0
 40
0.0
 40
0.0
 40
0.0
 40
0.3084588886
 40
0.573353066
 40
0.7989229993
 40
1.0
 40
1.0
 40
1.0
 40
1.0
 10
1.8310122107
 20
12.4953489137
 30
0.0
 10
1.8265998524
 20
12.4975530899
 30
0.0
 10
1.8186574642
 20
12.502231969
 30
0.0
 10
1.8090391131
 20
12.5108002585
 30
0.0
 10
1.8029454756
 20
12.5202489095
 30
0.0
 10
1.8016121971
 20
12.5271721638
 30
0.0
 10
1.8017170621
 20
12.5303856832
 30
0.0
 11
1.8310122107
 21
12.4953489137
 31
0.0
 11
1.8183549098
 21
12.503013013
 31
0.0
 11
1.809027425
 21
12.5116423866
 31
0.0
 11
1.8034078415
 21
12.5208893365
 31
0.0
 11
1.8017170621
 21
12.5303856832
 31
0.0
  0
SPLINE
  5
438
100
AcDbEntity
  8
RACCORDO
100
AcDbSpline
 62
253
  6
CONTINUOUS
 70
0
 71
3
 72
11
 73
7
 74
5
 42
0.0000001
 43
0.0000001
 44
0.0000000001
 12
-0.0429865216
 22
0.0210985728
 32
0.0
 13
-0.0415366149
 23
-0.0238264649
 33
0.0
 40
0.0
 40
0.0
 40
0.0
 40
0.0
 40
0.2839537827
 40
0.5414292987
 40
0.776963594
 40
1.0
 40
1.0
 40
1.0
 40
1.0
 10
2.8270847007
 20
14.2453998291
 30
0.0
 10
2.8230159722
 20
14.2473968356
 30
0.0
 10
2.8149296502
 20
14.2505995721
 30
0.0
 10
2.802616879
 20
14.2527772042
 30
0.0
 10
2.791084294
 20
14.2519411511
 30
0.0
 10
2.7841226424
 20
14.2492834644
 30
0.0
 10
2.7810345833
 20
14.2475120747
 30
0.0
 11
2.8270847007
 21
14.2453998291
 31
0.0
 11
2.8143983552
 21
14.2502926725
 31
0.0
 11
2.802234393
 21
14.252304819
 31
0.0
 11
2.7909948744
 21
14.2513666792
 31
0.0
 11
2.7810345833
 21
14.2475120747
 31
0.0
  0
SPLINE
  5
439
100
AcDbEntity
  8
RACCORDO
100
AcDbSpline
 62
253
  6
CONTINUOUS
 70
0
 71
3
 72
11
 73
7
 74
5
 42
0.0000001
 43
0.0000001
 44
0.0000000001
 12
0.653880272
 22
1.2622030292
 32
0.0
 13
1.1770190253
 23
0.7970835032
 33
0.0
 40
0.0
 40
0.0
 40
0.0
 40
0.0
 40
0.2622701253
 40
0.5150195528
 40
0.7601572722
 40
1.0
 40
1.0
 40
1.0
 40
1.0
 10
-8.6141631056
 20
2.9242047116
 30
0.0
 10
-8.5569986853
 20
3.0345507604
 30
0.0
 10
-8.4331237386
 20
3.2455078946
 30
0.0
 10
-8.2151280731
 20
3.5333303056
 30
0.0
 10
-7.9701791745
 20
3.7840273207
 30
0.0
 10
-7.7885842236
 20
3.9262018828
 30
0.0
 10
-7.6944844056
 20
3.9899267767
 30
0.0
 11
-8.6141631056
 21
2.9242047116
 31
0.0
 11
-8.4246563517
 21
3.2452707223
 31
0.0
 11
-8.2071388747
 21
3.531232384
 31
0.0
 11
-7.9631665402
 21
3.7800443071
 31
0.0
 11
-7.6944844056
 21
3.9899267767
 31
0.0
  0
SPLINE
  5
43A
100
AcDbEntity
  8
RACCORDO
100
AcDbSpline
 62
253
  6
CONTINUOUS
 70
0
 71
3
 72
13
 73
9
 74
7
 42
0.0000001
 43
0.0000001
 44
0.0000000001
 12
0.8276473945
 22
1.5961318747
 32
0.0
 13
1.6167627051
 23
0.786584723
 33
0.0
 40
0.0
 40
0.0
 40
0.0
 40
0.0
 40
0.2633776019
 40
0.5155025421
 40
0.638425232
 40
0.7598058174
 40
0.8801529094
 40
1.0
 40
1.0
 40
1.0
 40
1.0
 10
-9.2570661744
 20
2.6028260768
 30
0.0
 10
-9.1844049124
 20
2.7429545386
 30
0.0
 10
-9.0236291073
 20
3.0081795302
 30
0.0
 10
-8.7772694375
 20
3.3031275096
 30
0.0
 10
-8.5597365702
 20
3.5065356321
 30
0.0
 10
-8.3879899066
 20
3.6421164761
 30
0.0
 10
-8.2068519802
 20
3.7615184406
 30
0.0
 10
-8.0800740042
 20
3.8301578212
 30
0.0
 10
-8.0154859021
 20
3.8615811181
 30
0.0
 11
-9.2570661744
 21
2.6028260768
 31
0.0
 11
-9.0101612733
 21
3.0069037589
 31
0.0
 11
-8.7185460699
 21
3.3539622167
 31
0.0
 11
-8.5570325434
 21
3.5048213848
 31
0.0
 11
-8.3856758965
 21
3.6399662696
 31
0.0
 11
-8.2049827717
 21
3.7590025865
 31
0.0
 11
-8.0154859021
 21
3.8615811181
 31
0.0
  0
SPLINE
  5
43B
100
AcDbEntity
  8
RACCORDO
100
AcDbSpline
 62
253
  6
CONTINUOUS
 70
0
 71
3
 72
11
 73
7
 74
5
 42
0.0000001
 43
0.0000001
 44
0.0000000001
 12
0.8356814955
 22
1.38010206
 32
0.0
 13
1.4837746185
 23
0.6336072438
 33
0.0
 40
0.0
 40
0.0
 40
0.0
 40
0.0
 40
0.2612767351
 40
0.5127194726
 40
0.757667138
 40
1.0
 40
1.0
 40
1.0
 40
1.0
 10
-8.2409089968
 20
3.0437401854
 30
0.0
 10
-8.1681276192
 20
3.1639363722
 30
0.0
 10
-8.0093302462
 20
3.3906872823
 30
0.0
 10
-7.7276075337
 20
3.6872598241
 30
0.0
 10
-7.4104844832
 20
3.9293623119
 30
0.0
 10
-7.1775651369
 20
4.0525292331
 30
0.0
 10
-7.0577093536
 20
4.1037105186
 30
0.0
 11
-8.2409089968
 21
3.0437401854
 31
0.0
 11
-7.9980144957
 21
3.3882696202
 31
0.0
 11
-7.71787449
 21
3.6816892508
 31
0.0
 11
-7.4033638852
 21
3.9209884899
 31
0.0
 11
-7.0577093536
 21
4.1037105186
 31
0.0
  0
SPLINE
  5
43C
100
AcDbEntity
  8
RACCORDO
100
AcDbSpline
 62
253
  6
CONTINUOUS
 70
0
 71
3
 72
13
 73
9
 74
7
 42
0.0000001
 43
0.0000001
 44
0.0000000001
 12
-1.6541283773
 22
-0.9385737996
 32
0.0
 13
-1.867299594
 23
0.3609067635
 33
0.0
 40
0.0
 40
0.0
 40
0.0
 40
0.0
 40
0.1195668954
 40
0.2394476374
 40
0.3603228874
 40
0.482843138
 40
0.7349306186
 40
1.0
 40
1.0
 40
1.0
 40
1.0
 10
-1.44069682
 20
-7.1704837359
 30
0.0
 10
-1.5066231515
 20
-7.2078911877
 30
0.0
 10
-1.6423436995
 20
-7.2765004493
 30
0.0
 10
-1.8554830237
 20
-7.3595812031
 30
0.0
 10
-2.0773848094
 20
-7.4225193378
 30
0.0
 10
-2.3866254464
 20
-7.4798311567
 30
0.0
 10
-2.7938944691
 20
-7.4987459449
 30
0.0
 10
-3.1209120373
 20
-7.4595427311
 30
0.0
 10
-3.2859000201
 20
-7.4276542869
 30
0.0
 11
-1.44069682
 21
-7.1704837359
 31
0.0
 11
-1.6436415004
 21
-7.2730695265
 31
0.0
 11
-1.8560475184
 21
-7.3559302099
 31
0.0
 11
-2.0771774583
 21
-7.418777689
 31
0.0
 11
-2.30626328
 21
-7.4613941417
 31
0.0
 11
-2.7850956491
 21
-7.4854136839
 31
0.0
 11
-3.2859000201
 21
-7.4276542869
 31
0.0
  0
SPLINE
  5
43D
100
AcDbEntity
  8
RACCORDO
100
AcDbSpline
 62
253
  6
CONTINUOUS
 70
0
 71
3
 72
15
 73
11
 74
9
 42
0.0000001
 43
0.0000001
 44
0.0000000001
 12
4.370972741
 22
2.552138685
 32
0.0
 13
4.3732661526
 23
2.5482067672
 33
0.0
 40
0.0
 40
0.0
 40
0.0
 40
0.0
 40
0.1253336166
 40
0.2502991522
 40
0.3750344869
 40
0.4996865888
 40
0.6243789765
 40
0.7492680951
 40
0.8744907157
 40
1.0
 40
1.0
 40
1.0
 40
1.0
 10
-11.4084024601
 20
21.3631434095
 30
0.0
 10
-11.2257925195
 20
21.4697663333
 30
0.0
 10
-10.8614871439
 20
21.6833490283
 30
0.0
 10
-10.3172349652
 20
22.0060863252
 30
0.0
 10
-9.7748198999
 20
22.3296599636
 30
0.0
 10
-9.2330980267
 20
22.6534953031
 30
0.0
 10
-8.6910342077
 20
22.9772642899
 30
0.0
 10
-8.147393703
 20
23.3002698687
 30
0.0
 10
-7.6011518275
 20
23.6215851037
 30
0.0
 10
-7.2357114785
 20
23.8346704815
 30
0.0
 10
-7.0527496437
 20
23.9412783507
 30
0.0
 11
-11.4084024601
 21
21.3631434095
 31
0.0
 11
-10.8612196525
 21
21.6841177381
 31
0.0
 11
-10.3170425813
 21
22.0065221257
 31
0.0
 11
-9.7747489033
 21
22.3298149283
 31
0.0
 11
-9.2331365104
 21
22.6534272114
 31
0.0
 11
-8.6911944545
 21
22.9768851601
 31
0.0
 11
-8.1476422679
 21
23.2995849438
 31
0.0
 11
-7.6013649678
 21
23.6209915055
 31
0.0
 11
-7.0527496437
 21
23.9412783507
 31
0.0
  0
SPLINE
  5
43E
100
AcDbEntity
  8
RACCORDO
100
AcDbSpline
 62
7
  6
CONTINUOUS
 70
0
 71
3
 72
12
 73
8
 74
6
 42
0.0000001
 43
0.0000001
 44
0.0000000001
 12
-0.2289187257
 22
-0.2740730398
 32
0.0
 13
-0.3495976162
 23
0.0728101698
 33
0.0
 40
0.0
 40
0.0
 40
0.0
 40
0.0
 40
0.2548411526
 40
0.5142089998
 40
0.6424804536
 40
0.7674890618
 40
1.0
 40
1.0
 40
1.0
 40
1.0
 10
8.0704940816
 20
17.2512906738
 30
0.0
 10
8.0510481109
 20
17.2280089774
 30
0.0
 10
8.0064275159
 20
17.1853344721
 30
0.0
 10
7.9407536613
 20
17.144895704
 30
0.0
 10
7.8837637609
 20
17.1225677491
 30
0.0
 10
7.8275676423
 20
17.1087684815
 30
0.0
 10
7.783773948
 20
17.1079913002
 30
0.0
 10
7.7566788581
 20
17.1136343538
 30
0.0
 11
8.0704940816
 21
17.2512906738
 31
0.0
 11
8.0048697594
 21
17.188242305
 31
0.0
 11
7.9258001499
 21
17.1400088207
 31
0.0
 11
7.8831079361
 21
17.1234097082
 31
0.0
 11
7.8397056523
 21
17.1129687648
 31
0.0
 11
7.7566788581
 21
17.1136343538
 31
0.0
  0
SPLINE
  5
43F
100
AcDbEntity
  8
RACCORDO
100
AcDbSpline
 62
253
  6
CONTINUOUS
 70
0
 71
3
 72
13
 73
9
 74
7
 42
0.0000001
 43
0.0000001
 44
0.0000000001
 12
-0.1069170157
 22
-0.2783410717
 32
0.0
 13
-0.2918756657
 23
0.0609392829
 33
0.0
 40
0.0
 40
0.0
 40
0.0
 40
0.0
 40
0.2769974725
 40
0.5361985654
 40
0.6582146203
 40
0.7753291389
 40
0.8886899808
 40
1.0
 40
1.0
 40
1.0
 40
1.0
 10
7.3592734735
 20
17.3997941967
 30
0.0
 10
7.3494015591
 20
17.3740942722
 30
0.0
 10
7.3236645731
 20
17.3265592028
 30
0.0
 10
7.2763380347
 20
17.279654085
 30
0.0
 10
7.2330569694
 20
17.255054231
 30
0.0
 10
7.1996573682
 20
17.2437242058
 30
0.0
 10
7.1656994213
 20
17.2395665901
 30
0.0
 10
7.1432596063
 20
17.241711891
 30
0.0
 10
7.1324300443
 20
17.2439729419
 30
0.0
 11
7.3592734735
 21
17.3997941967
 31
0.0
 11
7.3193900399
 21
17.327470072
 31
0.0
 11
7.2638393765
 21
17.2737371713
 31
0.0
 11
7.2321393555
 21
17.2558844686
 31
0.0
 11
7.1990278481
 21
17.24479248
 31
0.0
 11
7.1654656895
 21
17.2407835815
 31
0.0
 11
7.1324300443
 21
17.2439729419
 31
0.0
  0
SPLINE
  5
440
100
AcDbEntity
  8
RACCORDO
100
AcDbSpline
 62
253
  6
CONTINUOUS
 70
0
 71
3
 72
11
 73
7
 74
5
 42
0.0000001
 43
0.0000001
 44
0.0000000001
 12
0.0
 22
-0.1574304972
 32
0.0
 13
0.1408119364
 23
-0.0704014205
 33
0.0
 40
0.0
 40
0.0
 40
0.0
 40
0.0
 40
0.289749639
 40
0.5495875602
 40
0.7828489991
 40
1.0
 40
1.0
 40
1.0
 40
1.0
 10
7.0067515138
 20
17.4003069206
 30
0.0
 10
7.0067515138
 20
17.3851017773
 30
0.0
 10
7.0092053753
 20
17.3561515538
 30
0.0
 10
7.0215787487
 20
17.3165568651
 30
0.0
 10
7.0422455753
 20
17.2848582254
 30
0.0
 10
7.0615322947
 20
17.2701843158
 30
0.0
 10
7.0717247791
 20
17.2650884028
 30
0.0
 11
7.0067515138
 21
17.4003069206
 31
0.0
 11
7.0110713239
 21
17.3548964959
 31
0.0
 11
7.0238188131
 21
17.31602702
 31
0.0
 11
7.0443720286
 21
17.2855950513
 31
0.0
 11
7.0717247791
 21
17.2650884028
 31
0.0
  0
SPLINE
  5
441
100
AcDbEntity
  8
RACCORDO
100
AcDbSpline
 62
253
  6
CONTINUOUS
 70
0
 71
3
 72
11
 73
7
 74
5
 42
0.0000001
 43
0.0000001
 44
0.0000000001
 12
0.0
 22
-0.1574304972
 32
0.0
 13
0.1408119364
 23
-0.0704014205
 33
0.0
 40
0.0
 40
0.0
 40
0.0
 40
0.0
 40
0.289749639
 40
0.5495875602
 40
0.7828489991
 40
1.0
 40
1.0
 40
1.0
 40
1.0
 10
5.681766834
 20
18.0627992605
 30
0.0
 10
5.681766834
 20
18.0475941172
 30
0.0
 10
5.6842206954
 20
18.0186438938
 30
0.0
 10
5.6965940689
 20
17.979049205
 30
0.0
 10
5.7172608955
 20
17.9473505653
 30
0.0
 10
5.7365476149
 20
17.9326766557
 30
0.0
 10
5.7467400992
 20
17.9275807427
 30
0.0
 11
5.681766834
 21
18.0627992605
 31
0.0
 11
5.6860866441
 21
18.0173888358
 31
0.0
 11
5.6988341333
 21
17.9785193599
 31
0.0
 11
5.7193873488
 21
17.9480873912
 31
0.0
 11
5.7467400992
 21
17.9275807427
 31
0.0
  0
SPLINE
  5
442
100
AcDbEntity
  8
RACCORDO
100
AcDbSpline
 62
253
  6
CONTINUOUS
 70
0
 71
3
 72
11
 73
7
 74
5
 42
0.0000001
 43
0.0000001
 44
0.0000000001
 12
-0.1076203225
 22
0.0538101613
 32
0.0
 13
0.0000013829
 23
0.1203231785
 33
0.0
 40
0.0
 40
0.0
 40
0.0
 40
0.0
 40
0.3025823249
 40
0.5654825874
 40
0.7934322572
 40
1.0
 40
1.0
 40
1.0
 40
1.0
 10
5.681766834
 20
18.0627992605
 30
0.0
 10
5.6709121649
 20
18.068226595
 30
0.0
 10
5.6512936918
 20
18.0798663255
 30
0.0
 10
5.6274823216
 20
18.1013869529
 30
0.0
 10
5.6122031246
 20
18.1253412378
 30
0.0
 10
5.6085434362
 20
18.1429026457
 30
0.0
 10
5.6085435314
 20
18.1511876081
 30
0.0
 11
5.681766834
 21
18.0627992605
 31
0.0
 11
5.650675161
 21
18.081741966
 31
0.0
 11
5.6275743245
 21
18.1033520964
 31
0.0
 11
5.6133473643
 21
18.1268013698
 31
0.0
 11
5.6085435314
 21
18.1511876081
 31
0.0
  0
SPLINE
  5
443
100
AcDbEntity
  8
RACCORDO
100
AcDbSpline
 62
253
  6
CONTINUOUS
 70
0
 71
3
 72
11
 73
7
 74
5
 42
0.0000001
 43
0.0000001
 44
0.0000000001
 12
-0.1076200259
 22
0.053810013
 32
0.0
 13
0.0000008146
 23
0.1203228468
 33
0.0
 40
0.0
 40
0.0
 40
0.0
 40
0.0
 40
0.3025814593
 40
0.565482116
 40
0.7934320761
 40
1.0
 40
1.0
 40
1.0
 40
1.0
 10
5.681766834
 20
18.4027731946
 30
0.0
 10
5.6709122259
 20
18.4082004987
 30
0.0
 10
5.6512938248
 20
18.4198401844
 30
0.0
 10
5.6274824855
 20
18.4413607012
 30
0.0
 10
5.6122032503
 20
18.4653149029
 30
0.0
 10
5.6085434756
 20
18.4828762592
 30
0.0
 10
5.6085435317
 20
18.4911612061
 30
0.0
 11
5.681766834
 21
18.4027731946
 31
0.0
 11
5.6506753272
 21
18.4217157798
 31
0.0
 11
5.6275744798
 21
18.4433258404
 31
0.0
 11
5.61334747
 21
18.4667750362
 31
0.0
 11
5.6085435317
 21
18.4911612061
 31
0.0
  0
SPLINE
  5
444
100
AcDbEntity
  8
RACCORDO
100
AcDbSpline
 62
253
  6
CONTINUOUS
 70
0
 71
3
 72
11
 73
7
 74
5
 42
0.0000001
 43
0.0000001
 44
0.0000000001
 12
-0.1051440438
 22
0.0519595372
 32
0.0
 13
-0.1043498228
 23
-0.0535366971
 33
0.0
 40
0.0
 40
0.0
 40
0.0
 40
0.0
 40
0.2795161735
 40
0.5356960478
 40
0.773144514
 40
1.0
 40
1.0
 40
1.0
 40
1.0
 10
5.85751509
 20
18.7071500096
 30
0.0
 10
5.8477186031
 20
18.7119911866
 30
0.0
 10
5.8281408153
 20
18.7197956088
 30
0.0
 10
5.7981724539
 20
18.7252484065
 30
0.0
 10
5.7697571032
 20
18.7236260956
 30
0.0
 10
5.7523203819
 20
18.7176460101
 30
0.0
 10
5.7444296053
 20
18.7135976456
 30
0.0
 11
5.85751509
 21
18.7071500096
 31
0.0
 11
5.8269648766
 21
18.7190394091
 31
0.0
 11
5.7973563054
 21
18.7241434833
 31
0.0
 11
5.7695681912
 21
18.7223116568
 31
0.0
 11
5.7444296053
 21
18.7135976456
 31
0.0
  0
SPLINE
  5
445
100
AcDbEntity
  8
RACCORDO
100
AcDbSpline
 62
7
  6
CONTINUOUS
 70
0
 71
3
 72
11
 73
7
 74
5
 42
0.0000001
 43
0.0000001
 44
0.0000000001
 12
-0.1028463418
 22
0.0514231709
 32
0.0
 13
-0.1033748983
 23
-0.0503521891
 33
0.0
 40
0.0
 40
0.0
 40
0.0
 40
0.0
 40
0.2790833933
 40
0.5352290697
 40
0.7729212505
 40
1.0
 40
1.0
 40
1.0
 40
1.0
 10
7.4402716931
 20
19.5191341069
 30
0.0
 10
7.4307041245
 20
19.5239178912
 30
0.0
 10
7.411572611
 20
19.5316686237
 30
0.0
 10
7.3822536325
 20
19.5372624471
 30
0.0
 10
7.354370863
 20
19.5360286902
 30
0.0
 10
7.3371643246
 20
19.5304754239
 30
0.0
 10
7.3293395771
 20
19.5266641199
 30
0.0
 11
7.4402716931
 21
19.5191341069
 31
0.0
 11
7.4104342891
 21
19.5309466421
 31
0.0
 11
7.3814547758
 21
19.5362070983
 31
0.0
 11
7.3541615856
 21
19.5347661139
 31
0.0
 11
7.3293395771
 21
19.5266641199
 31
0.0
  0
SPLINE
  5
446
100
AcDbEntity
  8
RACCORDO
100
AcDbSpline
 62
253
  6
CONTINUOUS
 70
0
 71
3
 72
11
 73
7
 74
5
 42
0.0000001
 43
0.0000001
 44
0.0000000001
 12
-0.1022732405
 22
0.0517308258
 32
0.0
 13
-0.1030347895
 23
-0.0501968744
 33
0.0
 40
0.0
 40
0.0
 40
0.0
 40
0.0
 40
0.2789499081
 40
0.5349528633
 40
0.7726365704
 40
1.0
 40
1.0
 40
1.0
 40
1.0
 10
7.9747215718
 20
19.7794815735
 30
0.0
 10
7.9652118682
 20
19.7842916765
 30
0.0
 10
7.9461833635
 20
19.7920934738
 30
0.0
 10
7.9169835104
 20
19.7977514078
 30
0.0
 10
7.8891813403
 20
19.7965576273
 30
0.0
 10
7.8720183809
 20
19.7910203901
 30
0.0
 10
7.8642095999
 20
19.7872160789
 30
0.0
 11
7.9747215718
 21
19.7794815735
 31
0.0
 11
7.9450439162
 21
19.7913719373
 31
0.0
 11
7.9161895716
 21
19.79669365
 31
0.0
 11
7.8889841008
 21
19.7952952316
 31
0.0
 11
7.8642095999
 21
19.7872160789
 31
0.0
  0
SPLINE
  5
447
100
AcDbEntity
  8
RACCORDO
100
AcDbSpline
 62
253
  6
CONTINUOUS
 70
0
 71
3
 72
14
 73
10
 74
8
 42
0.0000001
 43
0.0000001
 44
0.0000000001
 12
-2.4027482947
 22
-1.2345515104
 32
0.0
 13
-2.4911181057
 23
1.0448193064
 33
0.0
 40
0.0
 40
0.0
 40
0.0
 40
0.0
 40
0.1143675316
 40
0.2298651807
 40
0.3476314554
 40
0.4686858287
 40
0.5938889508
 40
0.72392089
 40
1.0
 40
1.0
 40
1.0
 40
1.0
 10
-2.1935713412
 20
-7.7825501309
 30
0.0
 10
-2.2851701384
 20
-7.8296143339
 30
0.0
 10
-2.475615741
 20
-7.9123960055
 30
0.0
 10
-2.7770425899
 20
-7.9997083225
 30
0.0
 10
-3.0929119369
 20
-8.0499696823
 30
0.0
 10
-3.4211502365
 20
-8.0629523704
 30
0.0
 10
-3.759789526
 20
-8.0387035419
 30
0.0
 10
-4.2315611799
 20
-7.9554945748
 30
0.0
 10
-4.581101613
 20
-7.8396814135
 30
0.0
 10
-4.8103501695
 20
-7.7435304854
 30
0.0
 11
-2.1935713412
 21
-7.7825501309
 31
0.0
 11
-2.4768745813
 21
-7.9057884519
 31
0.0
 11
-2.7764707082
 21
-7.9928874094
 31
0.0
 11
-3.090573565
 21
-8.0433365827
 31
0.0
 11
-3.4173051322
 21
-8.0568473315
 31
0.0
 11
-3.754706233
 21
-8.0333540345
 31
0.0
 11
-4.1007472124
 21
-7.9730141624
 31
0.0
 11
-4.8103501695
 21
-7.7435304854
 31
0.0
  0
SPLINE
  5
448
100
AcDbEntity
  8
RACCORDO
100
AcDbSpline
 62
253
  6
CONTINUOUS
 70
0
 71
3
 72
11
 73
7
 74
5
 42
0.0000001
 43
0.0000001
 44
0.0000000001
 12
0.0017306169
 22
0.3673419505
 32
0.0
 13
-0.3293172692
 23
0.162767441
 33
0.0
 40
0.0
 40
0.0
 40
0.0
 40
0.0
 40
0.2468889152
 40
0.5116858701
 40
0.7700776245
 40
1.0
 40
1.0
 40
1.0
 40
1.0
 10
9.4888214361
 20
18.8059289544
 30
0.0
 10
9.4889638594
 20
18.8361598396
 30
0.0
 10
9.4787734362
 20
18.8989772051
 30
0.0
 10
9.4411253038
 20
18.9863183405
 30
0.0
 10
9.3855229139
 20
19.0609118543
 30
0.0
 10
9.3372868687
 20
19.0983438676
 30
0.0
 10
9.3120477324
 20
19.1108184932
 30
0.0
 11
9.4888214361
 21
18.8059289544
 31
0.0
 11
9.4756786553
 21
18.8956652774
 31
0.0
 11
9.4374695153
 21
18.9851187563
 31
0.0
 11
9.3800095751
 21
19.0606701086
 31
0.0
 11
9.3120477324
 21
19.1108184932
 31
0.0
  0
SPLINE
  5
449
100
AcDbEntity
  8
RACCORDO
100
AcDbSpline
 62
253
  6
CONTINUOUS
 70
0
 71
3
 72
11
 73
7
 74
5
 42
0.0000001
 43
0.0000001
 44
0.0000000001
 12
-0.0017563531
 22
0.3667457895
 32
0.0
 13
-0.3272560827
 23
0.1655566829
 33
0.0
 40
0.0
 40
0.0
 40
0.0
 40
0.0
 40
0.2466958371
 40
0.5118834552
 40
0.7705706608
 40
1.0
 40
1.0
 40
1.0
 40
1.0
 10
7.3592734735
 20
17.7397681308
 30
0.0
 10
7.3591290452
 20
17.7699263507
 30
0.0
 10
7.3484760311
 20
17.8325554822
 30
0.0
 10
7.3106575766
 20
17.919681733
 30
0.0
 10
7.2553421523
 20
17.9942795511
 30
0.0
 10
7.2075271521
 20
18.0319964829
 30
0.0
 10
7.1824997698
 20
18.0446576696
 30
0.0
 11
7.3592734735
 21
17.7397681308
 31
0.0
 11
7.3455001399
 21
17.8291893086
 31
0.0
 11
7.3070695702
 21
17.918532041
 31
0.0
 11
7.2498310647
 21
17.9941940555
 31
0.0
 11
7.1824997698
 21
18.0446576696
 31
0.0
  0
SPLINE
  5
44A
100
AcDbEntity
  8
RACCORDO
100
AcDbSpline
 62
7
  6
CONTINUOUS
 70
0
 71
3
 72
11
 73
7
 74
5
 42
0.0000001
 43
0.0000001
 44
0.0000000001
 12
0.0
 22
0.3670486434
 32
0.0
 13
-0.328298287
 23
0.1641491435
 33
0.0
 40
0.0
 40
0.0
 40
0.0
 40
0.0
 40
0.2467927921
 40
0.5117852903
 40
0.7703247525
 40
1.0
 40
1.0
 40
1.0
 40
1.0
 10
8.9605542643
 20
18.5424901343
 30
0.0
 10
8.9605542643
 20
18.5726851208
 30
0.0
 10
8.9501342609
 20
18.6354094594
 30
0.0
 10
8.9124004872
 20
18.7226432686
 30
0.0
 10
8.8569418814
 20
18.7972393778
 30
0.0
 10
8.8089145574
 20
18.8348126748
 30
0.0
 10
8.7837805606
 20
18.8473796731
 30
0.0
 11
8.9605542643
 21
18.5424901343
 31
0.0
 11
8.9470983002
 21
18.6320701093
 31
0.0
 11
8.9087786768
 21
18.7214687298
 31
0.0
 11
8.8514289296
 21
18.7970753656
 31
0.0
 11
8.7837805606
 21
18.8473796731
 31
0.0
  0
SPLINE
  5
44B
100
AcDbEntity
  8
RACCORDO
100
AcDbSpline
 62
253
  6
CONTINUOUS
 70
0
 71
3
 72
13
 73
9
 74
7
 42
0.0000001
 43
0.0000001
 44
0.0000000001
 12
0.3242438585
 22
-0.1621219293
 32
0.0
 13
0.3249922964
 23
0.1606163348
 33
0.0
 40
0.0
 40
0.0
 40
0.0
 40
0.0
 40
0.1125245899
 40
0.2354260292
 40
0.4995816495
 40
0.7639634918
 40
0.8871317035
 40
1.0
 40
1.0
 40
1.0
 40
1.0
 10
7.0067515138
 20
17.7402808547
 30
0.0
 10
7.0189133162
 20
17.7341999535
 30
0.0
 10
7.0454100768
 20
17.7235358346
 30
0.0
 10
7.1039000373
 20
17.7081485231
 30
0.0
 10
7.1828248933
 20
17.7006885454
 30
0.0
 10
7.2617998076
 20
17.7079289555
 30
0.0
 10
7.3204390525
 20
17.7231418249
 30
0.0
 10
7.3470463645
 20
17.7337253001
 30
0.0
 10
7.3592734735
 20
17.7397681308
 30
0.0
 11
7.0067515138
 21
17.7402808547
 31
0.0
 11
7.0444858024
 21
17.7247855445
 31
0.0
 11
7.0875213919
 21
17.7132542897
 31
0.0
 11
7.1828010787
 21
17.703669731
 31
0.0
 11
7.2781906502
 21
17.7129770021
 31
0.0
 11
7.3213596696
 21
17.7243828963
 31
0.0
 11
7.3592734735
 21
17.7397681308
 31
0.0
  0
SPLINE
  5
44C
100
AcDbEntity
  8
RACCORDO
100
AcDbSpline
 62
253
  6
CONTINUOUS
 70
0
 71
3
 72
13
 73
9
 74
7
 42
0.0000001
 43
0.0000001
 44
0.0000000001
 12
0.3242438589
 22
-0.1621219295
 32
0.0
 13
0.3249922968
 23
0.160616335
 33
0.0
 40
0.0
 40
0.0
 40
0.0
 40
0.0
 40
0.1125245356
 40
0.2354259129
 40
0.4995814041
 40
0.7639631741
 40
0.8871313456
 40
1.0
 40
1.0
 40
1.0
 40
1.0
 10
7.0067515138
 20
17.4003069206
 30
0.0
 10
7.0189133104
 20
17.3942260223
 30
0.0
 10
7.0454100575
 20
17.3835619079
 30
0.0
 10
7.1038999876
 20
17.3681745984
 30
0.0
 10
7.1828248111
 20
17.360714612
 30
0.0
 10
7.2617996956
 20
17.3679550101
 30
0.0
 10
7.3204389764
 20
17.383167859
 30
0.0
 10
7.3470463257
 20
17.3937513468
 30
0.0
 10
7.3592734735
 20
17.3997941967
 30
0.0
 11
7.0067515138
 21
17.4003069206
 31
0.0
 11
7.0444857838
 21
17.3848116167
 31
0.0
 11
7.0875213506
 21
17.3732803638
 31
0.0
 11
7.1828009896
 21
17.363695797
 31
0.0
 11
7.2781905371
 21
17.3730030459
 31
0.0
 11
7.321359547
 21
17.384408919
 31
0.0
 11
7.3592734735
 21
17.3997941967
 31
0.0
  0
SPLINE
  5
44D
100
AcDbEntity
  8
RACCORDO
100
AcDbSpline
 62
253
  6
CONTINUOUS
 70
0
 71
3
 72
11
 73
7
 74
5
 42
0.0000001
 43
0.0000001
 44
0.0000000001
 12
0.0
 22
0.365918428
 32
0.0
 13
0.3263519549
 23
0.1655013517
 33
0.0
 40
0.0
 40
0.0
 40
0.0
 40
0.0
 40
0.2465994894
 40
0.5114083944
 40
0.7699753467
 40
1.0
 40
1.0
 40
1.0
 40
1.0
 10
5.681766834
 20
18.4027731946
 30
0.0
 10
5.681766834
 20
18.4328516271
 30
0.0
 10
5.692109596
 20
18.4953366364
 30
0.0
 10
5.7295932195
 20
18.5823070472
 30
0.0
 10
5.7847325607
 20
18.6568060333
 30
0.0
 10
5.8324920916
 20
18.6944602125
 30
0.0
 10
5.85751509
 20
18.7071500096
 30
0.0
 11
5.681766834
 21
18.4027731946
 31
0.0
 11
5.6951251956
 21
18.4920142339
 31
0.0
 11
5.7331804484
 21
18.5811271338
 31
0.0
 11
5.790182471
 21
18.6566430693
 31
0.0
 11
5.85751509
 21
18.7071500096
 31
0.0
  0
SPLINE
  5
44E
100
AcDbEntity
  8
RACCORDO
100
AcDbSpline
 62
253
  6
CONTINUOUS
 70
0
 71
3
 72
11
 73
7
 74
5
 42
0.0000001
 43
0.0000001
 44
0.0000000001
 12
0.0
 22
0.3659184285
 32
0.0
 13
0.3263519554
 23
0.165501352
 33
0.0
 40
0.0
 40
0.0
 40
0.0
 40
0.0
 40
0.2465996066
 40
0.5114086341
 40
0.7699756527
 40
1.0
 40
1.0
 40
1.0
 40
1.0
 10
7.0067515138
 20
17.7402808547
 30
0.0
 10
7.0067515138
 20
17.7703593015
 30
0.0
 10
7.0170942859
 20
17.8328443402
 30
0.0
 10
7.0545779382
 20
17.9198147797
 30
0.0
 10
7.1097172887
 20
17.994313744
 30
0.0
 10
7.1574768046
 20
18.0319678895
 30
0.0
 10
7.1824997698
 20
18.0446576696
 30
0.0
 11
7.0067515138
 21
17.7402808547
 31
0.0
 11
7.0201098879
 21
17.8295219356
 31
0.0
 11
7.0581651726
 21
17.9186348708
 31
0.0
 11
7.1151672294
 21
17.994150811
 31
0.0
 11
7.1824997698
 21
18.0446576696
 31
0.0
  0
SPLINE
  5
44F
100
AcDbEntity
  8
RACCORDO
100
AcDbSpline
 62
253
  6
CONTINUOUS
 70
0
 71
3
 72
15
 73
11
 74
9
 42
0.0000001
 43
0.0000001
 44
0.0000000001
 12
0.0651272992
 22
1.9523054944
 32
0.0
 13
1.7079733476
 23
0.947926871
 33
0.0
 40
0.0
 40
0.0
 40
0.0
 40
0.0
 40
0.1202583714
 40
0.2469379718
 40
0.377692068
 40
0.5098546026
 40
0.640655182
 40
0.7674248666
 40
0.8878084183
 40
1.0
 40
1.0
 40
1.0
 40
1.0
 10
-11.6673612887
 20
19.3110079374
 30
0.0
 10
-11.6647505877
 20
19.3892682971
 30
0.0
 10
-11.6472439
 20
19.549712816
 30
0.0
 10
-11.5892374989
 20
19.7892915021
 30
0.0
 10
-11.5006174052
 20
20.027602843
 30
0.0
 10
-11.384330862
 20
20.2566849609
 30
0.0
 10
-11.2442429632
 20
20.4689537631
 30
0.0
 10
-11.0849575941
 20
20.6573814531
 30
0.0
 10
-10.9117735259
 20
20.8156960453
 30
0.0
 10
-10.7857529331
 20
20.9010319329
 30
0.0
 10
-10.7218795227
 20
20.9364817379
 30
0.0
 11
-11.6673612887
 21
19.3110079374
 31
0.0
 11
-11.6428565696
 21
19.5446380205
 31
0.0
 11
-11.5852574544
 21
19.7852959652
 31
0.0
 11
-11.4965231721
 21
20.0248006774
 31
0.0
 11
-11.3796714839
 21
20.2550069719
 31
0.0
 11
-11.2386761085
 21
20.4680867118
 31
0.0
 11
-11.0783321747
 21
20.6567950779
 31
0.0
 11
-10.9040926617
 21
20.8147160487
 31
0.0
 11
-10.7218795227
 21
20.9364817379
 31
0.0
  0
SPLINE
  5
450
100
AcDbEntity
  8
RACCORDO
100
AcDbSpline
 62
253
  6
CONTINUOUS
 70
0
 71
3
 72
11
 73
7
 74
5
 42
0.0000001
 43
0.0000001
 44
0.0000000001
 12
0.0
 22
-0.1574304972
 32
0.0
 13
0.1408119364
 23
-0.0704014205
 33
0.0
 40
0.0
 40
0.0
 40
0.0
 40
0.0
 40
0.289749639
 40
0.5495875602
 40
0.7828489991
 40
1.0
 40
1.0
 40
1.0
 40
1.0
 10
-6.3575666506
 20
24.0824660028
 30
0.0
 10
-6.3575666506
 20
24.0672608595
 30
0.0
 10
-6.3551127892
 20
24.0383106361
 30
0.0
 10
-6.3427394157
 20
23.9987159473
 30
0.0
 10
-6.3220725891
 20
23.9670173076
 30
0.0
 10
-6.3027858697
 20
23.952343398
 30
0.0
 10
-6.2925933854
 20
23.947247485
 30
0.0
 11
-6.3575666506
 21
24.0824660028
 31
0.0
 11
-6.3532468405
 21
24.0370555781
 31
0.0
 11
-6.3404993513
 21
23.9981861022
 31
0.0
 11
-6.3199461358
 21
23.9677541335
 31
0.0
 11
-6.2925933854
 21
23.947247485
 31
0.0
  0
SPLINE
  5
451
100
AcDbEntity
  8
RACCORDO
100
AcDbSpline
 62
253
  6
CONTINUOUS
 70
0
 71
3
 72
11
 73
7
 74
5
 42
0.0000001
 43
0.0000001
 44
0.0000000001
 12
0.0
 22
-0.1574304972
 32
0.0
 13
0.1408119364
 23
-0.0704014205
 33
0.0
 40
0.0
 40
0.0
 40
0.0
 40
0.0
 40
0.289749639
 40
0.5495875602
 40
0.7828489991
 40
1.0
 40
1.0
 40
1.0
 40
1.0
 10
-7.6825513304
 20
24.7449583427
 30
0.0
 10
-7.6825513304
 20
24.7297531994
 30
0.0
 10
-7.680097469
 20
24.700802976
 30
0.0
 10
-7.6677240955
 20
24.6612082872
 30
0.0
 10
-7.6470572689
 20
24.6295096475
 30
0.0
 10
-7.6277705495
 20
24.6148357379
 30
0.0
 10
-7.6175780652
 20
24.6097398249
 30
0.0
 11
-7.6825513304
 21
24.7449583427
 31
0.0
 11
-7.6782315203
 21
24.699547918
 31
0.0
 11
-7.6654840311
 21
24.6606784421
 31
0.0
 11
-7.6449308156
 21
24.6302464734
 31
0.0
 11
-7.6175780652
 21
24.6097398249
 31
0.0
  0
SPLINE
  5
452
100
AcDbEntity
  8
RACCORDO
100
AcDbSpline
 62
7
  6
CONTINUOUS
 70
0
 71
3
 72
12
 73
8
 74
6
 42
0.0000001
 43
0.0000001
 44
0.0000000001
 12
-0.2288947893
 22
-0.2740443819
 32
0.0
 13
-0.3495652491
 23
0.0727824462
 33
0.0
 40
0.0
 40
0.0
 40
0.0
 40
0.0
 40
0.2548335856
 40
0.5141953181
 40
0.6424651752
 40
0.7674743832
 40
1.0
 40
1.0
 40
1.0
 40
1.0
 10
-5.2938240828
 20
23.933449756
 30
0.0
 10
-5.3132674428
 20
23.9101711852
 30
0.0
 10
-5.3578814771
 20
23.8675016392
 30
0.0
 10
-5.4235449896
 20
23.827065703
 30
0.0
 10
-5.4805265229
 20
23.8047356552
 30
0.0
 10
-5.5367166185
 20
23.7909340709
 30
0.0
 10
-5.5805080353
 20
23.7901394004
 30
0.0
 10
-5.607602327
 20
23.7957806615
 30
0.0
 11
-5.2938240828
 21
23.933449756
 31
0.0
 11
-5.3594386848
 21
23.8704089045
 31
0.0
 11
-5.4384960121
 21
23.8221780755
 31
0.0
 11
-5.4811819923
 21
23.8055777207
 31
0.0
 11
-5.5245788303
 21
23.7951331823
 31
0.0
 11
-5.607602327
 21
23.7957806615
 31
0.0
  0
SPLINE
  5
453
100
AcDbEntity
  8
RACCORDO
100
AcDbSpline
 62
253
  6
CONTINUOUS
 70
0
 71
3
 72
13
 73
9
 74
7
 42
0.0000001
 43
0.0000001
 44
0.0000000001
 12
-0.1069170157
 22
-0.2783410717
 32
0.0
 13
-0.2918756657
 23
0.0609392829
 33
0.0
 40
0.0
 40
0.0
 40
0.0
 40
0.0
 40
0.2769974725
 40
0.5361985654
 40
0.6582146203
 40
0.7753291389
 40
0.8886899808
 40
1.0
 40
1.0
 40
1.0
 40
1.0
 10
-6.0050446909
 20
24.0819532789
 30
0.0
 10
-6.0149166053
 20
24.0562533545
 30
0.0
 10
-6.0406535913
 20
24.0087182851
 30
0.0
 10
-6.0879801298
 20
23.9618131672
 30
0.0
 10
-6.131261195
 20
23.9372133133
 30
0.0
 10
-6.1646607962
 20
23.925883288
 30
0.0
 10
-6.1986187431
 20
23.9217256723
 30
0.0
 10
-6.2210585582
 20
23.9238709732
 30
0.0
 10
-6.2318881201
 20
23.9261320241
 30
0.0
 11
-6.0050446909
 21
24.0819532789
 31
0.0
 11
-6.0449281245
 21
24.0096291542
 31
0.0
 11
-6.1004787879
 21
23.9558962535
 31
0.0
 11
-6.1321788089
 21
23.9380435508
 31
0.0
 11
-6.1652903163
 21
23.9269515622
 31
0.0
 11
-6.1988524749
 21
23.9229426637
 31
0.0
 11
-6.2318881201
 21
23.9261320241
 31
0.0
  0
SPLINE
  5
454
100
AcDbEntity
  8
RACCORDO
100
AcDbSpline
 62
253
  6
CONTINUOUS
 70
0
 71
3
 72
13
 73
9
 74
7
 42
0.0000001
 43
0.0000001
 44
0.0000000001
 12
0.3242438589
 22
-0.1621219295
 32
0.0
 13
0.3249922968
 23
0.160616335
 33
0.0
 40
0.0
 40
0.0
 40
0.0
 40
0.0
 40
0.1125245356
 40
0.2354259129
 40
0.4995814041
 40
0.7639631741
 40
0.8871313456
 40
1.0
 40
1.0
 40
1.0
 40
1.0
 10
-6.3575666506
 20
24.4224399369
 30
0.0
 10
-6.345404854
 20
24.4163590386
 30
0.0
 10
-6.3189081069
 20
24.4056949243
 30
0.0
 10
-6.2604181768
 20
24.3903076147
 30
0.0
 10
-6.1814933533
 20
24.3828476284
 30
0.0
 10
-6.1025184688
 20
24.3900880265
 30
0.0
 10
-6.043879188
 20
24.4053008754
 30
0.0
 10
-6.0172718387
 20
24.4158843632
 30
0.0
 10
-6.0050446909
 20
24.421927213
 30
0.0
 11
-6.3575666506
 21
24.4224399369
 31
0.0
 11
-6.3198323806
 21
24.4069446331
 31
0.0
 11
-6.2767968138
 21
24.3954133801
 31
0.0
 11
-6.1815171748
 21
24.3858288134
 31
0.0
 11
-6.0861276273
 21
24.3951360623
 31
0.0
 11
-6.0429586174
 21
24.4065419354
 31
0.0
 11
-6.0050446909
 21
24.421927213
 31
0.0
  0
SPLINE
  5
455
100
AcDbEntity
  8
RACCORDO
100
AcDbSpline
 62
253
  6
CONTINUOUS
 70
0
 71
3
 72
13
 73
9
 74
7
 42
0.0000001
 43
0.0000001
 44
0.0000000001
 12
0.3242438589
 22
-0.1621219295
 32
0.0
 13
0.3249922968
 23
0.160616335
 33
0.0
 40
0.0
 40
0.0
 40
0.0
 40
0.0
 40
0.1125245356
 40
0.2354259129
 40
0.4995814041
 40
0.7639631741
 40
0.8871313456
 40
1.0
 40
1.0
 40
1.0
 40
1.0
 10
-6.3575666506
 20
24.0824660028
 30
0.0
 10
-6.345404854
 20
24.0763851045
 30
0.0
 10
-6.3189081069
 20
24.0657209901
 30
0.0
 10
-6.2604181768
 20
24.0503336806
 30
0.0
 10
-6.1814933533
 20
24.0428736942
 30
0.0
 10
-6.1025184688
 20
24.0501140923
 30
0.0
 10
-6.043879188
 20
24.0653269412
 30
0.0
 10
-6.0172718387
 20
24.075910429
 30
0.0
 10
-6.0050446909
 20
24.0819532789
 30
0.0
 11
-6.3575666506
 21
24.0824660028
 31
0.0
 11
-6.3198323806
 21
24.0669706989
 31
0.0
 11
-6.2767968138
 21
24.055439446
 31
0.0
 11
-6.1815171748
 21
24.0458548793
 31
0.0
 11
-6.0861276273
 21
24.0551621281
 31
0.0
 11
-6.0429586174
 21
24.0665680012
 31
0.0
 11
-6.0050446909
 21
24.0819532789
 31
0.0
  0
SPLINE
  5
456
100
AcDbEntity
  8
RACCORDO
100
AcDbSpline
 62
253
  6
CONTINUOUS
 70
0
 71
3
 72
11
 73
7
 74
5
 42
0.0000001
 43
0.0000001
 44
0.0000000001
 12
0.0
 22
0.3659184282
 32
0.0
 13
0.3263519551
 23
0.1655013518
 33
0.0
 40
0.0
 40
0.0
 40
0.0
 40
0.0
 40
0.2465991784
 40
0.5114081618
 40
0.7699752382
 40
1.0
 40
1.0
 40
1.0
 40
1.0
 10
-7.6825513304
 20
25.0849322768
 30
0.0
 10
-7.6825513304
 20
25.1150106714
 30
0.0
 10
-7.6722085878
 20
25.1774956524
 30
0.0
 10
-7.6347249871
 20
25.2644660603
 30
0.0
 10
-7.5795856355
 20
25.3389650864
 30
0.0
 10
-7.5318260847
 20
25.3766192888
 30
0.0
 10
-7.5068030744
 20
25.3893090918
 30
0.0
 11
-7.6825513304
 21
25.0849322768
 31
0.0
 11
-7.6691930018
 21
25.174173206
 31
0.0
 11
-7.631137759
 21
25.2632861415
 31
0.0
 11
-7.5741357214
 21
25.3388021226
 31
0.0
 11
-7.5068030744
 21
25.3893090918
 31
0.0
  0
SPLINE
  5
457
100
AcDbEntity
  8
RACCORDO
100
AcDbSpline
 62
253
  6
CONTINUOUS
 70
0
 71
3
 72
9
 73
5
 74
3
 42
0.0000001
 43
0.0000001
 44
0.0000000001
 12
0.0
 22
0.046885785
 32
0.0
 13
0.0073595104
 23
0.0463045834
 33
0.0
 40
0.0
 40
0.0
 40
0.0
 40
0.0
 40
0.2429341757
 40
1.0
 40
1.0
 40
1.0
 40
1.0
 10
-6.3575666506
 20
24.4224399369
 30
0.0
 10
-6.3575666506
 20
24.4262366567
 30
0.0
 10
-6.3572297028
 20
24.4418643556
 30
0.0
 10
-6.3555997531
 20
24.4574565758
 30
0.0
 10
-6.3537425418
 20
24.4691417817
 30
0.0
 11
-6.3575666506
 21
24.4224399369
 31
0.0
 11
-6.3573266292
 21
24.4338275672
 31
0.0
 11
-6.3537425418
 21
24.4691417817
 31
0.0
  0
SPLINE
  5
458
100
AcDbEntity
  8
RACCORDO
100
AcDbSpline
 62
253
  6
CONTINUOUS
 70
0
 71
3
 72
11
 73
7
 74
5
 42
0.0000001
 43
0.0000001
 44
0.0000000001
 12
0.0501385095
 22
0.3154615818
 32
0.0
 13
0.2848824033
 23
0.1444710905
 33
0.0
 40
0.0
 40
0.0
 40
0.0
 40
0.0
 40
0.2565284682
 40
0.5206132235
 40
0.7736712326
 40
1.0
 40
1.0
 40
1.0
 40
1.0
 10
-6.3537425418
 20
24.4691417817
 30
0.0
 10
-6.3494552234
 20
24.4961167405
 30
0.0
 10
-6.3340548154
 20
24.5499146065
 30
0.0
 10
-6.295537151
 20
24.6233438242
 30
0.0
 10
-6.2448673523
 20
24.6848882889
 30
0.0
 10
-6.2033107557
 20
24.7159174306
 30
0.0
 10
-6.1818183946
 20
24.7268167519
 30
0.0
 11
-6.3537425418
 21
24.4691417817
 31
0.0
 11
-6.3317244661
 21
24.5480687723
 31
0.0
 11
-6.2925111894
 21
24.6227545144
 31
0.0
 11
-6.2405698292
 21
24.6846893258
 31
0.0
 11
-6.1818183946
 21
24.7268167519
 31
0.0
  0
SPLINE
  5
459
100
AcDbEntity
  8
RACCORDO
100
AcDbSpline
 62
253
  6
CONTINUOUS
 70
0
 71
3
 72
11
 73
7
 74
5
 42
0.0000001
 43
0.0000001
 44
0.0000000001
 12
-0.1051368994
 22
0.0519560066
 32
0.0
 13
-0.104347279
 23
-0.0535241963
 33
0.0
 40
0.0
 40
0.0
 40
0.0
 40
0.0
 40
0.2795156184
 40
0.5356957389
 40
0.7731450427
 40
1.0
 40
1.0
 40
1.0
 40
1.0
 10
-7.5068030744
 20
25.3893090918
 30
0.0
 10
-7.5165988763
 20
25.3941499302
 30
0.0
 10
-7.5361752603
 20
25.4019539172
 30
0.0
 10
-7.5661414369
 20
25.4074070258
 30
0.0
 10
-7.5945548911
 20
25.4057861624
 30
0.0
 10
-7.6119908417
 20
25.3998078073
 30
0.0
 10
-7.6198814076
 20
25.3957603975
 30
0.0
 11
-7.5068030744
 21
25.3893090918
 31
0.0
 11
-7.5373510711
 21
25.401197866
 31
0.0
 11
-7.5669575343
 21
25.4063023208
 31
0.0
 11
-7.5947439461
 21
25.404471943
 31
0.0
 11
-7.6198814076
 21
25.3957603975
 31
0.0
  0
SPLINE
  5
45A
100
AcDbEntity
  8
RACCORDO
100
AcDbSpline
 62
7
  6
CONTINUOUS
 70
0
 71
3
 72
11
 73
7
 74
5
 42
0.0000001
 43
0.0000001
 44
0.0000000001
 12
-0.1028463418
 22
0.0514231709
 32
0.0
 13
-0.1033748983
 23
-0.0503521891
 33
0.0
 40
0.0
 40
0.0
 40
0.0
 40
0.0
 40
0.2790833933
 40
0.5352290697
 40
0.7729212505
 40
1.0
 40
1.0
 40
1.0
 40
1.0
 10
-5.9240464713
 20
26.2012931891
 30
0.0
 10
-5.93361404
 20
26.2060769734
 30
0.0
 10
-5.9527455534
 20
26.2138277059
 30
0.0
 10
-5.9820645319
 20
26.2194215293
 30
0.0
 10
-6.0099473014
 20
26.2181877724
 30
0.0
 10
-6.0271538398
 20
26.2126345061
 30
0.0
 10
-6.0349785874
 20
26.2088232021
 30
0.0
 11
-5.9240464713
 21
26.2012931891
 31
0.0
 11
-5.9538838753
 21
26.2131057243
 31
0.0
 11
-5.9828633887
 21
26.2183661805
 31
0.0
 11
-6.0101565789
 21
26.2169251961
 31
0.0
 11
-6.0349785874
 21
26.2088232021
 31
0.0
  0
SPLINE
  5
45B
100
AcDbEntity
  8
RACCORDO
100
AcDbSpline
 62
253
  6
CONTINUOUS
 70
0
 71
3
 72
11
 73
7
 74
5
 42
0.0000001
 43
0.0000001
 44
0.0000000001
 12
-0.1022732388
 22
0.0517308249
 32
0.0
 13
-0.1030347983
 23
-0.0501968522
 33
0.0
 40
0.0
 40
0.0
 40
0.0
 40
0.0
 40
0.2789492198
 40
0.5349524055
 40
0.7726363297
 40
1.0
 40
1.0
 40
1.0
 40
1.0
 10
-5.3895965926
 20
26.4616406557
 30
0.0
 10
-5.3991062727
 20
26.4664507468
 30
0.0
 10
-5.4181347585
 20
26.4742525405
 30
0.0
 10
-5.4473345997
 20
26.4799104861
 30
0.0
 10
-5.4751367967
 20
26.4787167142
 30
0.0
 10
-5.4922997736
 20
26.4731794738
 30
0.0
 10
-5.5001085636
 20
26.4693751603
 30
0.0
 11
-5.3895965926
 21
26.4616406557
 31
0.0
 11
-5.4192741718
 21
26.4735309967
 31
0.0
 11
-5.4481285395
 21
26.4788527271
 31
0.0
 11
-5.4753340352
 21
26.4774543165
 31
0.0
 11
-5.5001085636
 21
26.4693751603
 31
0.0
  0
SPLINE
  5
45C
100
AcDbEntity
  8
RACCORDO
100
AcDbSpline
 62
253
  6
CONTINUOUS
 70
0
 71
3
 72
11
 73
7
 74
5
 42
0.0000001
 43
0.0000001
 44
0.0000000001
 12
0.0017306169
 22
0.3673419508
 32
0.0
 13
-0.3293172695
 23
0.1627674411
 33
0.0
 40
0.0
 40
0.0
 40
0.0
 40
0.0
 40
0.2468893536
 40
0.5116863499
 40
0.7700780422
 40
1.0
 40
1.0
 40
1.0
 40
1.0
 10
-3.8754967284
 20
25.4880880366
 30
0.0
 10
-3.8753543047
 20
25.5183189755
 30
0.0
 10
-3.8855447582
 20
25.5811364
 30
0.0
 10
-3.9231929437
 20
25.6684775669
 30
0.0
 10
-3.9787953324
 20
25.7430710171
 30
0.0
 10
-4.0270313416
 20
25.7805029725
 30
0.0
 10
-4.052270432
 20
25.7929775754
 30
0.0
 11
-3.8754967284
 21
25.4880880366
 31
0.0
 11
-3.8886395556
 21
25.5778245156
 31
0.0
 11
-3.9268487386
 21
25.6672779928
 31
0.0
 11
-3.9843086978
 21
25.7428293021
 31
0.0
 11
-4.052270432
 21
25.7929775754
 31
0.0
  0
SPLINE
  5
45D
100
AcDbEntity
  8
RACCORDO
100
AcDbSpline
 62
253
  6
CONTINUOUS
 70
0
 71
3
 72
11
 73
7
 74
5
 42
0.0000001
 43
0.0000001
 44
0.0000000001
 12
-0.0017563531
 22
0.3667457897
 32
0.0
 13
-0.3272560829
 23
0.165556683
 33
0.0
 40
0.0
 40
0.0
 40
0.0
 40
0.0
 40
0.2466955157
 40
0.5118832147
 40
0.7705705489
 40
1.0
 40
1.0
 40
1.0
 40
1.0
 10
-6.0050446909
 20
24.421927213
 30
0.0
 10
-6.0051891191
 20
24.4520853936
 30
0.0
 10
-6.015842113
 20
24.5147144959
 30
0.0
 10
-6.053660544
 20
24.6018407437
 30
0.0
 10
-6.1089759793
 20
24.6764386031
 30
0.0
 10
-6.1567910001
 20
24.7141555589
 30
0.0
 10
-6.1818183946
 20
24.7268167519
 30
0.0
 11
-6.0050446909
 21
24.421927213
 31
0.0
 11
-6.0188179899
 21
24.5113482769
 31
0.0
 11
-6.0572485495
 21
24.600691046
 31
0.0
 11
-6.1144870708
 21
24.6763531078
 31
0.0
 11
-6.1818183946
 21
24.7268167519
 31
0.0
  0
SPLINE
  5
45E
100
AcDbEntity
  8
RACCORDO
100
AcDbSpline
 62
7
  6
CONTINUOUS
 70
0
 71
3
 72
11
 73
7
 74
5
 42
0.0000001
 43
0.0000001
 44
0.0000000001
 12
0.0
 22
0.3670486434
 32
0.0
 13
-0.328298287
 23
0.1641491435
 33
0.0
 40
0.0
 40
0.0
 40
0.0
 40
0.0
 40
0.2467927921
 40
0.5117852903
 40
0.7703247525
 40
1.0
 40
1.0
 40
1.0
 40
1.0
 10
-4.4037639001
 20
25.2246492165
 30
0.0
 10
-4.4037639001
 20
25.2548442031
 30
0.0
 10
-4.4141839035
 20
25.3175685416
 30
0.0
 10
-4.4519176773
 20
25.4048023508
 30
0.0
 10
-4.507376283
 20
25.47939846
 30
0.0
 10
-4.555403607
 20
25.516971757
 30
0.0
 10
-4.5805376038
 20
25.5295387554
 30
0.0
 11
-4.4037639001
 21
25.2246492165
 31
0.0
 11
-4.4172198643
 21
25.3142291916
 31
0.0
 11
-4.4555394877
 21
25.403627812
 31
0.0
 11
-4.5128892348
 21
25.4792344478
 31
0.0
 11
-4.5805376038
 21
25.5295387554
 31
0.0
  0
SPLINE
  5
45F
100
AcDbEntity
  8
RACCORDO
100
AcDbSpline
 62
253
  6
CONTINUOUS
 70
0
 71
3
 72
13
 73
9
 74
7
 42
0.0000001
 43
0.0000001
 44
0.0000000001
 12
0.0395649606
 22
-0.0644099514
 32
0.0
 13
-0.0460053766
 23
-0.0599794404
 33
0.0
 40
0.0
 40
0.0
 40
0.0
 40
0.0
 40
0.343523616
 40
0.6193726266
 40
0.732864265
 40
0.8318563311
 40
0.9193403725
 40
1.0
 40
1.0
 40
1.0
 40
1.0
 10
-3.8754967284
 20
25.1405565198
 30
0.0
 10
-3.8709662289
 20
25.1331810734
 30
0.0
 10
-3.8634127597
 20
25.1194919767
 30
0.0
 10
-3.8568995875
 20
25.1020616756
 30
0.0
 10
-3.8548960047
 20
25.0898793691
 30
0.0
 10
-3.8549231601
 20
25.0822750219
 30
0.0
 10
-3.8564170526
 20
25.0756451314
 30
0.0
 10
-3.8584801094
 20
25.0718624506
 30
0.0
 10
-3.8597170349
 20
25.0702498108
 30
0.0
 11
-3.8754967284
 21
25.1405565198
 31
0.0
 11
-3.8632177277
 21
25.1176757448
 31
0.0
 11
-3.8563917296
 21
25.0979729168
 31
0.0
 11
-3.8550907121
 21
25.0894931736
 31
0.0
 11
-3.8552133211
 21
25.0820112501
 31
0.0
 11
-3.8567591518
 21
25.0755814385
 31
0.0
 11
-3.8597170349
 21
25.0702498108
 31
0.0
  0
SPLINE
  5
460
100
AcDbEntity
  8
RACCORDO
100
AcDbSpline
 62
253
  6
CONTINUOUS
 70
0
 71
3
 72
11
 73
7
 74
5
 42
0.0000001
 43
0.0000001
 44
0.0000000001
 12
-0.1076203225
 22
0.0538101613
 32
0.0
 13
0.0000013829
 23
0.1203231785
 33
0.0
 40
0.0
 40
0.0
 40
0.0
 40
0.0
 40
0.3025823249
 40
0.5654825874
 40
0.7934322572
 40
1.0
 40
1.0
 40
1.0
 40
1.0
 10
-7.6825513304
 20
24.7449583427
 30
0.0
 10
-7.6934059995
 20
24.7503856772
 30
0.0
 10
-7.7130244726
 20
24.7620254077
 30
0.0
 10
-7.7368358428
 20
24.7835460352
 30
0.0
 10
-7.7521150398
 20
24.8075003201
 30
0.0
 10
-7.7557747282
 20
24.8250617279
 30
0.0
 10
-7.755774633
 20
24.8333466903
 30
0.0
 11
-7.6825513304
 21
24.7449583427
 31
0.0
 11
-7.7136430034
 21
24.7639010482
 31
0.0
 11
-7.73674384
 21
24.7855111786
 31
0.0
 11
-7.7509708002
 21
24.8089604521
 31
0.0
 11
-7.755774633
 21
24.8333466903
 31
0.0
  0
SPLINE
  5
461
100
AcDbEntity
  8
RACCORDO
100
AcDbSpline
 62
253
  6
CONTINUOUS
 70
0
 71
3
 72
11
 73
7
 74
5
 42
0.0000001
 43
0.0000001
 44
0.0000000001
 12
-0.1076203225
 22
0.0538101613
 32
0.0
 13
0.0000013829
 23
0.1203231785
 33
0.0
 40
0.0
 40
0.0
 40
0.0
 40
0.0
 40
0.3025823249
 40
0.5654825874
 40
0.7934322572
 40
1.0
 40
1.0
 40
1.0
 40
1.0
 10
-7.6825513304
 20
25.0849322768
 30
0.0
 10
-7.6934059995
 20
25.0903596114
 30
0.0
 10
-7.7130244726
 20
25.1019993418
 30
0.0
 10
-7.7368358428
 20
25.1235199693
 30
0.0
 10
-7.7521150398
 20
25.1474742542
 30
0.0
 10
-7.7557747282
 20
25.165035662
 30
0.0
 10
-7.755774633
 20
25.1733206244
 30
0.0
 11
-7.6825513304
 21
25.0849322768
 31
0.0
 11
-7.7136430034
 21
25.1038749824
 31
0.0
 11
-7.73674384
 21
25.1254851127
 31
0.0
 11
-7.7509708002
 21
25.1489343862
 31
0.0
 11
-7.755774633
 21
25.1733206244
 31
0.0
  0
SPLINE
  5
462
100
AcDbEntity
  8
RACCORDO
100
AcDbSpline
 62
7
  6
CONTINUOUS
 70
0
 71
3
 72
12
 73
8
 74
6
 42
0.0000001
 43
0.0000001
 44
0.0000000001
 12
-0.4345619355
 22
-0.032159537
 32
0.0
 13
-0.4201960756
 23
-0.1153844428
 33
0.0
 40
0.0
 40
0.0
 40
0.0
 40
0.0
 40
0.1460665466
 40
0.2901900051
 40
0.5606459046
 40
0.7988834635
 40
1.0
 40
1.0
 40
1.0
 40
1.0
 10
3.9012361931
 20
20.1118893247
 30
0.0
 10
3.8800778727
 20
20.1103235139
 30
0.0
 10
3.838208747
 20
20.1049144033
 30
0.0
 10
3.7582988313
 20
20.0890911734
 30
0.0
 10
3.6665390641
 20
20.0649283036
 30
0.0
 10
3.5677393074
 20
20.0354981555
 30
0.0
 10
3.5065832731
 20
20.0172350001
 30
0.0
 10
3.4784138133
 20
20.0094997603
 30
0.0
 11
3.9012361931
 21
20.1118893247
 31
0.0
 11
3.8380570501
 21
20.1041735965
 31
0.0
 11
3.7764040422
 21
20.0922162765
 31
0.0
 11
3.6622071555
 21
20.0630960982
 31
0.0
 11
3.562571914
 21
20.0339453262
 31
0.0
 11
3.4784138133
 21
20.0094997603
 31
0.0
  0
SPLINE
  5
463
100
AcDbEntity
  8
RACCORDO
100
AcDbSpline
 62
253
  6
CONTINUOUS
 70
0
 71
3
 72
9
 73
5
 74
3
 42
0.0000001
 43
0.0000001
 44
0.0000000001
 12
0.063644089
 22
0.0180777493
 32
0.0
 13
0.0591795292
 23
-0.0295830763
 33
0.0
 40
0.0
 40
0.0
 40
0.0
 40
0.0
 40
0.5227908487
 40
1.0
 40
1.0
 40
1.0
 40
1.0
 10
14.0713180916
 20
-14.5029813471
 30
0.0
 10
14.0824089407
 20
-14.4998310531
 30
0.0
 10
14.1047132239
 20
-14.4966769782
 30
0.0
 10
14.1267878528
 20
-14.5022418412
 30
0.0
 10
14.1362015238
 20
-14.5069476128
 30
0.0
 11
14.0713180916
 21
-14.5029813471
 31
0.0
 11
14.1056671241
 21
-14.4989161854
 31
0.0
 11
14.1362015238
 21
-14.5069476128
 31
0.0
  0
ELLIPSE
  5
464
100
AcDbEntity
  8
RACCORDO
100
AcDbEllipse
 62
7
  6
CONTINUOUS
 10
-8.6110492482
 20
21.71399623
 30
0.0
 11
-0.1116009943
 21
0.2239381218
 31
0.0
 40
0.6122032814
 41
-0.6832419393
 42
0.031533549
  0
ELLIPSE
  5
465
100
AcDbEntity
  8
RACCORDO
100
AcDbEllipse
 62
7
  6
CONTINUOUS
 10
4.3997155257
 20
15.208613843
 30
0.0
 11
-0.1116009943
 21
0.2239381218
 31
0.0
 40
0.6122032814
 41
-1.6487877917
 42
-0.6832419393
  0
ELLIPSE
  5
466
100
AcDbEntity
  8
ASSI
100
AcDbEllipse
 62
7
  6
CONTINUOUS
 10
3.6527517682
 20
25.6391692026
 30
0.0
 11
0.2257019663
 21
0.4461636818
 31
0.0
 40
0.6159267166
 41
0.5380090616
 42
0.6817883054
  0
ELLIPSE
  5
467
100
AcDbEntity
  8
RACCORDO
100
AcDbEllipse
 62
7
  6
CONTINUOUS
 10
14.2172572949
 20
20.5169267915
 30
0.0
 11
0.499996712
 21
0.0035883639
 31
0.0
 40
0.5053247124
 41
-0.7715714568
 42
-0.0036478305
  0
ELLIPSE
  5
468
100
AcDbEntity
  8
RACCORDO
100
AcDbEllipse
 62
7
  6
CONTINUOUS
 10
9.7029679141
 20
-21.1244146994
 30
0.0
 11
-0.2012801021
 21
0.4024798509
 31
0.0
 40
0.6124778111
 41
-3.1448859382
 42
-2.255529033
  0
ELLIPSE
  5
469
100
AcDbEntity
  8
RACCORDO
100
AcDbEllipse
 62
7
  6
CONTINUOUS
 10
9.7029679141
 20
16.8789554692
 30
0.0
 11
-0.2013341403
 21
0.4025279144
 31
0.0
 40
0.6122950388
 41
-2.2557482655
 42
-0.6847996396
  0
ELLIPSE
  5
46A
100
AcDbEntity
  8
RACCORDO
100
AcDbEllipse
 62
7
  6
CONTINUOUS
 10
14.3963010008
 20
-16.5627688999
 30
0.0
 11
0.9987332359
 21
0.6172510855
 31
0.0
 40
0.0815198604
 41
-2.3978073241
 42
-1.2985018509
  0
ELLIPSE
  5
46B
100
AcDbEntity
  8
RACCORDO
100
AcDbEllipse
 62
7
  6
CONTINUOUS
 10
2.6055687123
 20
26.2472647886
 30
0.0
 11
0.9987332359
 21
0.6172510855
 31
0.0
 40
0.0815198604
 41
0.0509898783
 42
0.7263320369
  0
ELLIPSE
  5
46C
100
AcDbEntity
  8
RACCORDO
100
AcDbEllipse
 62
7
  6
CONTINUOUS
 10
-1.6793398958
 20
23.1166495339
 30
0.0
 11
0.4999985559
 21
0.0023864752
 31
0.0
 40
0.5035541159
 41
2.3596088132
 42
3.0002042076
  0
ELLIPSE
  5
46D
100
AcDbEntity
  8
RACCORDO
100
AcDbEllipse
 62
7
  6
CONTINUOUS
 10
14.0467605309
 20
-15.5465334503
 30
0.0
 11
0.1999987752
 21
-0.0014150365
 31
0.0
 40
0.4946372042
 41
-0.7760807437
 42
0.0035108337
  0
ELLIPSE
  5
46E
100
AcDbEntity
  8
RACCORDO
100
AcDbEllipse
 62
7
  6
CONTINUOUS
 10
14.3963010008
 20
20.3518986443
 30
0.0
 11
-0.7417913999
 21
1.2002436976
 31
0.0
 40
0.5587454355
 41
5.1248137075
 42
6.2241191807
  0
ELLIPSE
  5
46F
100
AcDbEntity
  8
RACCORDO
100
AcDbEllipse
 62
7
  6
CONTINUOUS
 10
4.6893488408
 20
15.2267545491
 30
0.0
 11
-0.0446624459
 21
0.0895909595
 31
0.0
 40
0.611934274
 41
-0.6831563312
 42
0.0357312133
  0
ELLIPSE
  5
470
100
AcDbEntity
  8
RACCORDO
100
AcDbEllipse
 62
7
  6
CONTINUOUS
 10
14.2172572949
 20
-16.7719892188
 30
0.0
 11
0.499366618
 21
0.3086255427
 31
0.0
 40
0.0815198604
 41
6.1080157147
 42
7.0007906979
  0
ELLIPSE
  5
471
100
AcDbEntity
  8
RACCORDO
100
AcDbEllipse
 62
7
  6
CONTINUOUS
 10
14.2172572949
 20
-15.8416465599
 30
0.0
 11
0.4999969381
 21
-0.0035375912
 31
0.0
 40
0.4946372042
 41
-0.7644452153
 42
0.7888978189
  0
ELLIPSE
  5
472
100
AcDbEntity
  8
RACCORDO
100
AcDbEllipse
 62
7
  6
CONTINUOUS
 10
14.2172572949
 20
21.4472694503
 30
0.0
 11
-0.3708957
 21
0.6001218488
 31
0.0
 40
0.5587454355
 41
-3.1744788413
 42
-2.2817038581
  0
ELLIPSE
  5
473
100
AcDbEntity
  8
DRAFT
100
AcDbEllipse
 62
7
  6
CONTINUOUS
 10
4.0066065992
 20
24.7143200255
 30
0.0
 11
0.4279673669
 21
-0.0030279657
 31
0.0
 40
0.4946372042
 41
-0.7818985079
 42
0.0034334511
  0
ELLIPSE
  5
474
100
AcDbEntity
  8
DRAFT
100
AcDbEllipse
 62
7
  6
CONTINUOUS
 10
9.5615950283
 20
21.936825811
 30
0.0
 11
0.4279673669
 21
-0.0030279657
 31
0.0
 40
0.4946372042
 41
-0.7760807437
 42
0.0034305001
  0
ELLIPSE
  5
475
100
AcDbEntity
  8
RACCORDO
100
AcDbEllipse
 62
7
  6
CONTINUOUS
 10
-8.9006825633
 20
22.0217702511
 30
0.0
 11
-0.0446262308
 21
0.0895589985
 31
0.0
 40
0.6124818573
 41
-2.2537489731
 42
-0.6834093579
  0
ELLIPSE
  5
476
100
AcDbEntity
  8
RACCORDO
100
AcDbEllipse
 62
7
  6
CONTINUOUS
 10
7.8947488172
 20
16.5326256351
 30
0.0
 11
0.249929385
 21
0.0111824824
 31
0.0
 40
0.5313301283
 41
-2.3799630874
 42
-0.8149845248
  0
ELLIPSE
  5
477
100
AcDbEntity
  8
ASSI
100
AcDbEllipse
 62
7
  6
CONTINUOUS
 10
9.813584039
 20
22.5587530672
 30
0.0
 11
0.221538876
 21
0.4482453432
 31
0.0
 40
0.6088015717
 41
0.5323082896
 42
0.6760875334
  0
ELLIPSE
  5
478
100
AcDbEntity
  8
RACCORDO
100
AcDbEllipse
 62
7
  6
CONTINUOUS
 10
6.5615364836
 20
17.199231802
 30
0.0
 11
0.249929385
 21
0.0111824824
 31
0.0
 40
0.5313301283
 41
3.1178369227
 42
3.9032222197
  0
ELLIPSE
  5
479
100
AcDbEntity
  8
RACCORDO
100
AcDbEllipse
 62
7
  6
CONTINUOUS
 10
-5.4695693472
 20
23.2147847174
 30
0.0
 11
0.249929385
 21
0.0111824824
 31
0.0
 40
0.5313301283
 41
-2.3799630874
 42
-0.8149845248
  0
ELLIPSE
  5
47A
100
AcDbEntity
  8
RACCORDO
100
AcDbEllipse
 62
7
  6
CONTINUOUS
 10
-1.6793398958
 20
21.8840399287
 30
0.0
 11
0.4998587701
 21
0.0223649649
 31
0.0
 40
0.5313301283
 41
3.1178197826
 42
3.9032222197
  0
ELLIPSE
  5
47B
100
AcDbEntity
  8
RACCORDO
100
AcDbEllipse
 62
7
  6
CONTINUOUS
 10
-6.8027816808
 20
23.8813908842
 30
0.0
 11
0.249929385
 21
0.0111824824
 31
0.0
 40
0.5313301283
 41
3.1178369227
 42
3.9032222197
  0
ELLIPSE
  5
47C
100
AcDbEntity
  8
RACCORDO
100
AcDbEllipse
 62
7
  6
CONTINUOUS
 10
3.8319672039
 20
19.1283863789
 30
0.0
 11
0.4998587701
 21
0.0223649649
 31
0.0
 40
0.5313301283
 41
-2.3799630874
 42
-0.8149845248
  0
ELLIPSE
  5
47D
100
AcDbEntity
  8
RACCORDO
100
AcDbEllipse
 62
7
  6
CONTINUOUS
 10
3.8319672039
 20
20.3609959841
 30
0.0
 11
0.4999985559
 21
0.0023864752
 31
0.0
 40
0.5035541159
 41
-1.4342147631
 42
-0.7936193687
  0
ENDSEC
  0
SECTION
  2
OBJECTS
  0
DICTIONARY
  5
C
100
AcDbDictionary
280
0
281
1
  3
ACAD_GROUP
350
D
  3
ACAD_MLINESTYLE
350
17
  3
ACAD_LAYOUT
350
1A
  3
ACAD_PLOTSETTINGS
350
19
  3
ACAD_PLOTSTYLENAME
350
E
  0
DICTIONARY
  5
D
102
{ACAD_REACTORS
330
C
102
}
100
AcDbDictionary
280
0
281
1
  0
ACDBDICTIONARYWDFLT
  5
E
102
{ACAD_REACTORS
330
C
102
}
100
AcDbDictionary
281
1
  3
Normal
350
F
100
AcDbDictionaryWithDefault
340
F
  0
DICTIONARY
  5
17
102
{ACAD_REACTORS
330
C
102
}
100
AcDbDictionary
280
0
281
1
  3
Standard
350
18
  0
DICTIONARY
  5
19
102
{ACAD_REACTORS
330
C
102
}
100
AcDbDictionary
281
1
  0
DICTIONARY
  5
1A
102
{ACAD_REACTORS
330
C
102
}
100
AcDbDictionary
281
1
  3
Model
350
47E
  3
Layout1
350
47F
  0
ACDBPLACEHOLDER
  5
F
102
{ACAD_REACTORS
330
E
102
}
  0
MLINESTYLE
  5
18
102
{ACAD_REACTORS
330
17
102
}
100
AcDbMlineStyle
  2
STANDARD
 70
0
  3

 62
256
 51
90.0
 52
90.0
 71
2
 49
0.5
 62
256
  6
BYLAYER
 49
-0.5
 62
256
  6
BYLAYER
  0
LAYOUT
  5
47E
102
{ACAD_REACTORS
330
1A
102
}
100
AcDbPlotSettings
  1

  2
none_device
  4
ISO_A4_(297.00_x_210.00_MM)
  6

 40
0.0
 41
0.0
 42
0.0
 43
0.0
 44
297.0
 45
210.0
 46
0.0
 47
0.0
 48
0.0
 49
0.0
140
0.0
141
0.0
142
1.0
143
1.0
 70
1024
 72
1
 73
0
 74
0
  7

 75
0
147
1.0
148
0.0
149
0.0
100
AcDbLayout
  1
Model
 70
0
 71
0
 10
0.0
 20
0.0
 11
297.0
 21
210.0
 12
0.0
 22
0.0
 32
0.0
 14
0.0
 24
0.0
 34
0.0
 15
0.0
 25
0.0
 35
0.0
146
0.0
 13
0.0
 23
0.0
 33
0.0
 16
1.0
 26
0.0
 36
0.0
 17
0.0
 27
1.0
 37
0.0
 76
0
330
210
345
0
346
0
  0
LAYOUT
  5
47F
102
{ACAD_REACTORS
330
1A
102
}
100
AcDbPlotSettings
  1

  2
none_device
  4
ISO_A4_(297.00_x_210.00_MM)
  6

 40
0.0
 41
0.0
 42
0.0
 43
0.0
 44
297.0
 45
210.0
 46
0.0
 47
0.0
 48
0.0
 49
0.0
140
0.0
141
0.0
142
1.0
143
1.0
 70
0
 72
1
 73
0
 74
0
  7

 75
0
147
1.0
148
0.0
149
0.0
100
AcDbLayout
  1
Layout1
 70
0
 71
1
 10
0.0
 20
0.0
 11
297.0
 21
210.0
 12
0.0
 22
0.0
 32
0.0
 14
0.0
 24
0.0
 34
0.0
 15
0.0
 25
0.0
 35
0.0
146
0.0
 13
0.0
 23
0.0
 33
0.0
 16
1.0
 26
0.0
 36
0.0
 17
0.0
 27
1.0
 37
0.0
 76
0
330
211
345
0
346
0
  0
ENDSEC
  0
EOF
