  0
SECTION
  2
HEADER
  9
$ACADVER
  1
AC1015
  9
$DWGCODEPAGE
  3
ANSI_1252
  9
$EXTMAX
 10
297.0
 20
210.0
 30
0.0
  9
$EXTMIN
 10
0.0
 20
0.0
 30
0.0
  9
$LIMMIN
 10
0.0
 20
0.0
  9
$LIMMAX
 10
297.0
 20
210.0
  9
$VIEWCTR
 10
148.5
 20
105.0
  9
$VIEWSIZE
 40
210.0
  9
$CLAYER
  8
0
  9
$LTSCALE
 40
16.335
  9
$CELTYPE
  6
BYLAYER
  9
$DIMSCALE
 40
1.0
  9
$DIMASZ
 40
3.0
  9
$DIMEXO
 40
1.85625
  9
$DIMDLI
 40
11.286
  9
$DIMEXE
 40
5.346
  9
$DIMCEN
 40
2.673
  9
$DIMLFAC
 40
1.0
  9
$DIMBLK
  1
_FILLED
  9
$DIMTXT
 40
3.0
  9
$DIMTOL
 70
1
  9
$DIMLIM
 70
0
  9
$DIMTFAC
 40
1.0
  9
$DIMTP
 40
0.01
  9
$DIMTM
 40
0.01
  9
$PDMODE
 70
3
  9
$PDSIZE
 40
3.0
  9
$HANDSEED
  5
3EA
  9
$TILEMODE
 70
1
  9
$MEASUREMENT
 70
1
  9
$INSUNITS
 70
4
  0
ENDSEC
  0
SECTION
  2
CLASSES
  0
CLASS
  1
ACDBDICTIONARYWDFLT
  2
AcDbDictionaryWithDefault
  3
AutoCAD 2000
 90
0
280
0
281
0
  0
CLASS
  1
ACDBPLACEHOLDER
  2
AcDbPlaceHolder
  3
AutoCAD 2000
 90
0
280
0
281
0
  0
CLASS
  1
LAYOUT
  2
AcDbLayout
  3
AutoCAD 2000
 90
0
280
0
281
0
  0
ENDSEC
  0
SECTION
  2
TABLES
  0
TABLE
  2
VPORT
  5
8
100
AcDbSymbolTable
 70
2
  0
VPORT
  5
1F4
100
AcDbSymbolTableRecord
100
AcDbViewportTableRecord
  2
*ACTIVE
 70
0
 10
0.0
 20
0.0
 11
1.0
 21
1.0
 12
148.5
 22
105.0
 13
0.0
 23
0.0
 14
1.0
 24
1.0
 15
0.0
 25
0.0
 16
0.0
 26
0.0
 36
1.0
 17
0.0
 27
0.0
 37
0.0
 40
210.0
 41
1.4142857143
 42
50.0
 43
0.0
 44
0.0
 50
0.0
 51
0.0
 71
0
 72
100
 73
1
 74
1
 75
0
 76
0
 77
0
 78
0
  0
ENDTAB
  0
TABLE
  2
LTYPE
  5
5
100
AcDbSymbolTable
 70
6
  0
LTYPE
  5
14
100
AcDbSymbolTableRecord
100
AcDbLinetypeTableRecord
  2
BYBLOCK
 70
0
  3

 72
65
 73
0
 40
0.0
  0
LTYPE
  5
15
100
AcDbSymbolTableRecord
100
AcDbLinetypeTableRecord
  2
BYLAYER
 70
0
  3

 72
65
 73
0
 40
0.0
  0
LTYPE
  5
16
100
AcDbSymbolTableRecord
100
AcDbLinetypeTableRecord
  2
CONTINUOUS
 70
64
  3
Solid line
 72
65
 73
0
 40
0.0
  0
LTYPE
  5
1F5
100
AcDbSymbolTableRecord
100
AcDbLinetypeTableRecord
  2
CENTER
 70
64
  3
____ _ ____ _ ____ _ ____ _ ____ _ ____ _ ____
 72
65
 73
4
 40
0.6
 49
0.375
 74
0
 49
-0.075
 74
0
 49
0.075
 74
0
 49
-0.075
 74
0
  0
LTYPE
  5
1F6
100
AcDbSymbolTableRecord
100
AcDbLinetypeTableRecord
  2
HIDDEN
 70
64
  3
- - - - - - - - - - - - - - - - - - - -
 72
65
 73
2
 40
0.2
 49
0.1
 74
0
 49
-0.1
 74
0
  0
LTYPE
  5
1F7
100
AcDbSymbolTableRecord
100
AcDbLinetypeTableRecord
  2
PHANTOM
 70
64
  3
_____ _ _ _____ _ _ _____ _ _ _____
 72
65
 73
6
 40
0.8
 49
0.45
 74
0
 49
-0.05
 74
0
 49
0.1
 74
0
 49
-0.05
 74
0
 49
0.1
 74
0
 49
-0.05
 74
0
  0
LTYPE
  5
1F8
100
AcDbSymbolTableRecord
100
AcDbLinetypeTableRecord
  2
DOT
 70
64
  3
. . . . . . . . . . . . . . . . . . . .
 72
65
 73
2
 40
0.2
 49
0.1
 74
0
 49
-0.1
 74
0
  0
LTYPE
  5
1F9
100
AcDbSymbolTableRecord
100
AcDbLinetypeTableRecord
  2
DASHED
 70
64
  3
- - - - - - - - - - - - - - - - - - - -
 72
65
 73
2
 40
0.2
 49
0.1
 74
0
 49
-0.1
 74
0
  0
ENDTAB
  0
TABLE
  2
LAYER
  5
2
100
AcDbSymbolTable
 70
36
  0
LAYER
  5
10
100
AcDbSymbolTableRecord
100
AcDbLayerTableRecord
  2
0
 70
0
 62
7
  6
CONTINUOUS
370
-3
390
F
  0
LAYER
  5
1FA
100
AcDbSymbolTableRecord
100
AcDbLayerTableRecord
  2
DEFAULT_1
 70
0
 62
7
  6
CENTER
370
-3
390
F
  0
LAYER
  5
1FB
100
AcDbSymbolTableRecord
100
AcDbLayerTableRecord
  2
DEFAULT_2
 70
0
 62
7
  6
HIDDEN
370
-3
390
F
  0
LAYER
  5
1FC
100
AcDbSymbolTableRecord
100
AcDbLayerTableRecord
  2
DEFAULT_3
 70
0
 62
7
  6
PHANTOM
370
-3
390
F
  0
LAYER
  5
1FD
100
AcDbSymbolTableRecord
100
AcDbLayerTableRecord
  2
ASSI
 70
0
 62
7
  6
CONTINUOUS
370
-3
390
F
  0
LAYER
  5
1FE
100
AcDbSymbolTableRecord
100
AcDbLayerTableRecord
  2
COLORE
 70
0
 62
7
  6
CONTINUOUS
370
-3
390
F
  0
LAYER
  5
1FF
100
AcDbSymbolTableRecord
100
AcDbLayerTableRecord
  2
COORDINATE
 70
0
 62
7
  6
CONTINUOUS
370
-3
390
F
  0
LAYER
  5
200
100
AcDbSymbolTableRecord
100
AcDbLayerTableRecord
  2
COORD_ORIGINE
 70
0
 62
7
  6
CONTINUOUS
370
-3
390
F
  0
LAYER
  5
201
100
AcDbSymbolTableRecord
100
AcDbLayerTableRecord
  2
COPY_PUBLISH
 70
0
 62
7
  6
CONTINUOUS
370
-3
390
F
  0
LAYER
  5
202
100
AcDbSymbolTableRecord
100
AcDbLayerTableRecord
  2
COSMETICHE
 70
0
 62
7
  6
CONTINUOUS
370
-3
390
F
  0
LAYER
  5
203
100
AcDbSymbolTableRecord
100
AcDbLayerTableRecord
  2
COSMETICI
 70
0
 62
7
  6
CONTINUOUS
370
-3
390
F
  0
LAYER
  5
204
100
AcDbSymbolTableRecord
100
AcDbLayerTableRecord
  2
CURVE
 70
0
 62
7
  6
CONTINUOUS
370
-3
390
F
  0
LAYER
  5
205
100
AcDbSymbolTableRecord
100
AcDbLayerTableRecord
  2
DRAFT
 70
0
 62
7
  6
CONTINUOUS
370
-3
390
F
  0
LAYER
  5
206
100
AcDbSymbolTableRecord
100
AcDbLayerTableRecord
  2
IMPORT_IGES
 70
0
 62
7
  6
CONTINUOUS
370
-3
390
F
  0
LAYER
  5
207
100
AcDbSymbolTableRecord
100
AcDbLayerTableRecord
  2
NOTE
 70
0
 62
7
  6
CONTINUOUS
370
-3
390
F
  0
LAYER
  5
208
100
AcDbSymbolTableRecord
100
AcDbLayerTableRecord
  2
PIANI
 70
0
 62
7
  6
CONTINUOUS
370
-3
390
F
  0
LAYER
  5
209
100
AcDbSymbolTableRecord
100
AcDbLayerTableRecord
  2
PIANI_ORIGINE
 70
0
 62
7
  6
CONTINUOUS
370
-3
390
F
  0
LAYER
  5
20A
100
AcDbSymbolTableRecord
100
AcDbLayerTableRecord
  2
PUNTI
 70
0
 62
7
  6
CONTINUOUS
370
-3
390
F
  0
LAYER
  5
20B
100
AcDbSymbolTableRecord
100
AcDbLayerTableRecord
  2
RACCORDO
 70
0
 62
7
  6
CONTINUOUS
370
-3
390
F
  0
LAYER
  5
20C
100
AcDbSymbolTableRecord
100
AcDbLayerTableRecord
  2
SIMBOLI
 70
0
 62
7
  6
CONTINUOUS
370
-3
390
F
  0
LAYER
  5
20D
100
AcDbSymbolTableRecord
100
AcDbLayerTableRecord
  2
SMUSSO
 70
0
 62
7
  6
CONTINUOUS
370
-3
390
F
  0
LAYER
  5
20E
100
AcDbSymbolTableRecord
100
AcDbLayerTableRecord
  2
SNAPLINE
 70
0
 62
7
  6
CONTINUOUS
370
-3
390
F
  0
LAYER
  5
20F
100
AcDbSymbolTableRecord
100
AcDbLayerTableRecord
  2
SUPERFICI
 70
0
 62
7
  6
CONTINUOUS
370
-3
390
F
  0
LAYER
  5
210
100
AcDbSymbolTableRecord
100
AcDbLayerTableRecord
  2
TRASH
 70
0
 62
7
  6
CONTINUOUS
370
-3
390
F
  0
LAYER
  5
211
100
AcDbSymbolTableRecord
100
AcDbLayerTableRecord
  2
XSEC_DATUMS
 70
0
 62
7
  6
CONTINUOUS
370
-3
390
F
  0
ENDTAB
  0
TABLE
  2
STYLE
  5
3
100
AcDbSymbolTable
 70
1
  0
STYLE
  5
11
100
AcDbSymbolTableRecord
100
AcDbTextStyleTableRecord
  2
STANDARD
 70
0
 40
0.0
 41
0.8
 50
0.0
 71
0
 42
0.2
  3
txt
  4

  0
STYLE
  5
212
100
AcDbSymbolTableRecord
100
AcDbTextStyleTableRecord
  2
TEXTSTYLE_1
 70
0
 40
0.0
 41
0.8
 50
0.0
 71
0
 42
0.2
  3
gdt
  4

  0
ENDTAB
  0
TABLE
  2
VIEW
  5
6
100
AcDbSymbolTable
 70
0
  0
ENDTAB
  0
TABLE
  2
UCS
  5
7
100
AcDbSymbolTable
 70
0
  0
ENDTAB
  0
TABLE
  2
APPID
  5
9
100
AcDbSymbolTable
 70
1
  0
APPID
  5
213
100
AcDbSymbolTableRecord
100
AcDbRegAppTableRecord
  2
ACAD
 70
0
  0
ENDTAB
  0
TABLE
  2
BLOCK_RECORD
  5
1
100
AcDbSymbolTable
 70
0
  0
BLOCK_RECORD
  5
214
100
AcDbSymbolTableRecord
100
AcDbBlockTableRecord
  2
*Model_Space
  0
BLOCK_RECORD
  5
215
100
AcDbSymbolTableRecord
100
AcDbBlockTableRecord
  2
*Paper_Space
  0
ENDTAB
  0
TABLE
  2
DIMSTYLE
  5
A
100
AcDbSymbolTable
 70
1
100
AcDbDimStyleTable
 71
0
  0
DIMSTYLE
105
216
100
AcDbSymbolTableRecord
100
AcDbDimStyleTableRecord
  2
STANDARD
 70
0
  3

  4

 40
1.0
 41
3.0
 42
0.0625
 43
0.38
 44
0.18
 45
0.0
 46
0.0
 47
0.01
 48
0.01
140
3.0
141
0.09
142
0.0
143
25.4
144
1.0
145
0.0
146
1.0
147
0.09
 71
1.0
 72
0.0
 73
0
 74
0
 75
0
 76
0
 77
1
 78
8
170
0
171
2
172
0
173
0
174
0
175
0
176
0
177
0
178
0
270
2
271
2
272
2
273
2
274
2
275
0
280
0
281
0
282
0
283
1
284
8
285
0
286
0
287
3
288
0
340
11
  0
ENDTAB
  0
ENDSEC
  0
SECTION
  2
BLOCKS
  0
BLOCK
  5
20
100
AcDbEntity
  8
0
100
AcDbBlockBegin
  2
*Model_Space
 70
0
 10
0.0
 20
0.0
 30
0.0
  3
*Model_Space
  1

  0
ENDBLK
  5
21
100
AcDbEntity
  8
0
100
AcDbBlockEnd
  0
BLOCK
  5
1C
100
AcDbEntity
  8
0
100
AcDbBlockBegin
  2
*Paper_Space
 70
0
 10
0.0
 20
0.0
 30
0.0
  3
*Paper_Space
  1

  0
ENDBLK
  5
1D
100
AcDbEntity
  8
0
100
AcDbBlockEnd
  0
ENDSEC
  0
SECTION
  2
ENTITIES
  0
LWPOLYLINE
  5
217
100
AcDbEntity
  8
RACCORDO
100
AcDbPolyline
 62
7
  6
CONTINUOUS
 90
18
 70
0
 10
-18.8257744981
 20
30.5002460597
 10
-18.9680540538
 20
30.4158569681
 10
-19.1072817523
 20
30.3173099801
 10
-19.2393130925
 20
30.2068844649
 10
-19.3637313288
 20
30.0848675671
 10
-19.4800005292
 20
29.95179703
 10
-19.5877783278
 20
29.8081149833
 10
-19.6868020736
 20
29.6541964171
 10
-19.7767954279
 20
29.490555663
 10
-19.8575457852
 20
29.317657096
 10
-19.9288859725
 20
29.1359116014
 10
-19.9906765081
 20
28.9457844096
 10
-20.0427743273
 20
28.7477571082
 10
-20.0850653824
 20
28.5422749329
 10
-20.1174664337
 20
28.3297613909
 10
-20.1398764067
 20
28.1106804211
 10
-20.1522224363
 20
27.8856047657
 10
-20.1548542314
 20
27.7202400674
  0
LINE
  5
218
100
AcDbEntity
  8
RACCORDO
100
AcDbLine
 62
7
  6
CONTINUOUS
 10
-17.9861733749
 20
30.9532311047
 11
-18.8257300095
 21
30.5002706669
  0
LINE
  5
219
100
AcDbEntity
  8
RACCORDO
100
AcDbLine
 62
253
  6
CONTINUOUS
 10
-15.6983090213
 20
30.8381965602
 11
-16.5355841918
 21
30.3863848121
  0
LWPOLYLINE
  5
21A
100
AcDbEntity
  8
RACCORDO
100
AcDbPolyline
 62
7
  6
CONTINUOUS
 90
22
 70
0
 10
-21.3379872799
 20
23.8744726721
 10
-21.3514640457
 20
23.8663783812
 10
-21.4286409416
 20
23.8158831899
 10
-21.5034847167
 20
23.7598636811
 10
-21.5760189039
 20
23.6984350343
 10
-21.6459740758
 20
23.6319516342
 10
-21.7127425181
 20
23.5611556821
 10
-21.7761322452
 20
23.4864878247
 10
-21.8361484935
 20
23.4081373831
 10
-21.8924796788
 20
23.3266622926
 10
-21.9449679051
 20
23.2424963662
 10
-21.9935692303
 20
23.1558512149
 10
-22.0381552305
 20
23.0670492517
 10
-22.0786057502
 20
22.9763992393
 10
-22.114781259
 20
22.8841914557
 10
-22.146547374
 20
22.7907354989
 10
-22.1737572954
 20
22.6963253041
 10
-22.1962531692
 20
22.6012334248
 10
-22.213887277
 20
22.5056672156
 10
-22.2264657505
 20
22.409839287
 10
-22.2337789902
 20
22.3140743979
 10
-22.2348433768
 20
22.2876278052
  0
LINE
  5
21B
100
AcDbEntity
  8
RACCORDO
100
AcDbLine
 62
7
  6
CONTINUOUS
 10
-18.6132451259
 20
25.4897123769
 11
-21.3381040399
 21
23.8744100415
  0
LINE
  5
21C
100
AcDbEntity
  8
RACCORDO
100
AcDbLine
 62
253
  6
CONTINUOUS
 10
-18.3780821068
 20
25.4820022125
 11
-21.1016396799
 21
23.8674713148
  0
LINE
  5
21D
100
AcDbEntity
  8
SMUSSO
100
AcDbLine
 62
7
  6
CONTINUOUS
 10
-13.7532268941
 20
26.4668058625
 11
-13.3289628254
 21
26.7742890704
  0
LINE
  5
21E
100
AcDbEntity
  8
SMUSSO
100
AcDbLine
 62
7
  6
CONTINUOUS
 10
-13.3289628254
 20
26.7742890704
 11
-12.9124895022
 21
26.9989859829
  0
LINE
  5
21F
100
AcDbEntity
  8
SMUSSO
100
AcDbLine
 62
7
  6
CONTINUOUS
 10
-13.7532268941
 20
26.4667267105
 11
-12.8368180973
 21
26.9611502804
  0
LINE
  5
220
100
AcDbEntity
  8
DRAFT
100
AcDbLine
 62
7
  6
CONTINUOUS
 10
-12.6925667223
 20
25.2868775959
 11
-12.7978422844
 21
25.230079015
  0
LINE
  5
221
100
AcDbEntity
  8
DRAFT
100
AcDbLine
 62
7
  6
CONTINUOUS
 10
-13.7532268941
 20
25.6007013309
 11
-12.7110806145
 21
26.1176135683
  0
LINE
  5
222
100
AcDbEntity
  8
RACCORDO
100
AcDbLine
 62
253
  6
CONTINUOUS
 10
-8.942508946
 20
27.4602965226
 11
-8.462296028
 21
27.6984856701
  0
LINE
  5
223
100
AcDbEntity
  8
RACCORDO
100
AcDbLine
 62
253
  6
CONTINUOUS
 10
-8.5484180363
 20
27.2632510678
 11
-8.2855462566
 21
27.3936374084
  0
LINE
  5
224
100
AcDbEntity
  8
RACCORDO
100
AcDbLine
 62
7
  6
CONTINUOUS
 10
-9.599950713
 20
28.222309011
 11
-10.0504359244
 21
28.0142600118
  0
LINE
  5
225
100
AcDbEntity
  8
RACCORDO
100
AcDbLine
 62
253
  6
CONTINUOUS
 10
-9.4920458567
 20
28.2133605844
 11
-9.9893208904
 21
27.9837024948
  0
LINE
  5
226
100
AcDbEntity
  8
DRAFT
100
AcDbLine
 62
7
  6
CONTINUOUS
 10
-10.3944696834
 20
25.6100722629
 11
-10.2695048507
 21
25.6774936571
  0
LINE
  5
227
100
AcDbEntity
  8
DRAFT
100
AcDbLine
 62
7
  6
CONTINUOUS
 10
-13.7532268941
 20
23.6954454425
 11
-12.7110806145
 21
24.21235768
  0
LWPOLYLINE
  5
228
100
AcDbEntity
  8
RACCORDO
100
AcDbPolyline
 62
7
  6
CONTINUOUS
 90
17
 70
0
 10
-22.2348217698
 20
-13.3884575598
 10
-22.2341843364
 20
-13.4048749604
 10
-22.2275726365
 20
-13.4938080376
 10
-22.2157809058
 20
-13.5799007242
 10
-22.1988757701
 20
-13.6629878002
 10
-22.1769444278
 20
-13.7429006483
 10
-22.1500959151
 20
-13.8193874171
 10
-22.1184181645
 20
-13.8922756249
 10
-22.0820379231
 20
-13.9613570673
 10
-22.041199793
 20
-14.0262562464
 10
-21.99612214
 20
-14.0867255252
 10
-21.947050896
 20
-14.1425564663
 10
-21.8944238818
 20
-14.1934127003
 10
-21.8385994545
 20
-14.239126909
 10
-21.779983556
 20
-14.2795449016
 10
-21.7192345421
 20
-14.3144560821
 10
-21.7060494749
 20
-14.3211884735
  0
LWPOLYLINE
  5
229
100
AcDbEntity
  8
RACCORDO
100
AcDbPolyline
 62
7
  6
CONTINUOUS
 90
10
 70
0
 10
-22.2348445125
 20
22.2877350574
 10
-22.3488991968
 20
18.3202603189
 10
-22.4361749926
 20
14.2958783593
 10
-22.4943715692
 20
10.2859344076
 10
-22.5234811711
 20
6.2908127951
 10
-22.5235020666
 20
2.3108314685
 10
-22.4944336907
 20
-1.6537167714
 10
-22.436276644
 20
-5.6025152358
 10
-22.3490375503
 20
-9.5351871607
 10
-22.2348259634
 20
-13.3884735823
  0
LINE
  5
22A
100
AcDbEntity
  8
RACCORDO
100
AcDbLine
 62
253
  6
CONTINUOUS
 10
-4.4547727215
 20
23.4921057928
 11
-5.3050196419
 21
23.0469425923
  0
LINE
  5
22B
100
AcDbEntity
  8
DRAFT
100
AcDbLine
 62
7
  6
CONTINUOUS
 10
-9.1570328164
 20
23.5191106429
 11
-9.2660488522
 21
23.4641822989
  0
LWPOLYLINE
  5
22C
100
AcDbEntity
  8
RACCORDO
100
AcDbPolyline
 62
7
  6
CONTINUOUS
 90
11
 70
0
 10
-7.9716384954
 20
-23.7275433618
 10
-7.9394184002
 20
-23.7421150466
 10
-7.9024052376
 20
-23.7552243309
 10
-7.864671842
 20
-23.7648089452
 10
-7.8265892509
 20
-23.7707591111
 10
-7.7885026911
 20
-23.7730237938
 10
-7.7507078555
 20
-23.7716080864
 10
-7.7136346236
 20
-23.7665781562
 10
-7.6776908926
 20
-23.7580701413
 10
-7.6431619332
 20
-23.7462483458
 10
-7.6229434135
 20
-23.7375121362
  0
LWPOLYLINE
  5
22D
100
AcDbEntity
  8
RACCORDO
100
AcDbPolyline
 62
7
  6
CONTINUOUS
 90
17
 70
0
 10
10.8823561516
 20
-33.1545458262
 10
10.9867082594
 20
-33.204858579
 10
11.1496691868
 20
-33.2760120282
 10
11.3121497519
 20
-33.3379364576
 10
11.47382012
 20
-33.390529992
 10
11.6344089515
 20
-33.4337475645
 10
11.7936823411
 20
-33.467565782
 10
11.9513903934
 20
-33.4919480286
 10
12.1072337825
 20
-33.5068695354
 10
12.2608904088
 20
-33.5123316702
 10
12.4120910047
 20
-33.5083409606
 10
12.5605063497
 20
-33.4949193104
 10
12.7057139509
 20
-33.4721554562
 10
12.8474273607
 20
-33.4401483163
 10
12.9853294636
 20
-33.399014127
 10
13.1189631288
 20
-33.3489764124
 10
13.1961224306
 20
-33.3151678595
  0
LWPOLYLINE
  5
22E
100
AcDbEntity
  8
RACCORDO
100
AcDbPolyline
 62
7
  6
CONTINUOUS
 90
14
 70
0
 10
8.9418457025
 20
-29.6451358128
 10
8.9573896004
 20
-29.6527323498
 10
9.0168747689
 20
-29.6784999649
 10
9.0789734545
 20
-29.7001970888
 10
9.1434140339
 20
-29.7175488364
 10
9.2098012056
 20
-29.7303178178
 10
9.2778909865
 20
-29.7383473512
 10
9.3473984491
 20
-29.741495715
 10
9.4178836409
 20
-29.7396636507
 10
9.4890869051
 20
-29.732816369
 10
9.5607920966
 20
-29.7209297143
 10
9.6326893201
 20
-29.7040096526
 10
9.7045563459
 20
-29.6820851901
 10
9.7772413677
 20
-29.6547718296
  0
LINE
  5
22F
100
AcDbEntity
  8
RACCORDO
100
AcDbLine
 62
7
  6
CONTINUOUS
 10
-16.6661255012
 20
-19.3803072187
 11
-7.9717363852
 21
-23.7275017768
  0
LINE
  5
230
100
AcDbEntity
  8
RACCORDO
100
AcDbLine
 62
7
  6
CONTINUOUS
 10
2.1879753183
 20
-28.8073576285
 11
10.8823644512
 21
-33.1545521949
  0
LINE
  5
231
100
AcDbEntity
  8
RACCORDO
100
AcDbLine
 62
253
  6
CONTINUOUS
 10
-16.7440934569
 20
-19.2180450786
 11
-8.0497043245
 21
-23.5652396448
  0
LINE
  5
232
100
AcDbEntity
  8
RACCORDO
100
AcDbLine
 62
253
  6
CONTINUOUS
 10
2.1100073626
 20
-28.6450954884
 11
10.804396495
 21
-32.9922900546
  0
LINE
  5
233
100
AcDbEntity
  8
DRAFT
100
AcDbLine
 62
7
  6
CONTINUOUS
 10
-13.3289628254
 20
-19.817956781
 11
-11.4551298552
 21
-20.7548732661
  0
LINE
  5
234
100
AcDbEntity
  8
DRAFT
100
AcDbLine
 62
7
  6
CONTINUOUS
 10
-10.3944696834
 20
-21.285203352
 11
-8.5206367133
 21
-22.2221198371
  0
LINE
  5
235
100
AcDbEntity
  8
DRAFT
100
AcDbLine
 62
7
  6
CONTINUOUS
 10
2.5809397513
 20
-27.7729080694
 11
4.4547727215
 21
-28.7098245545
  0
LINE
  5
236
100
AcDbEntity
  8
DRAFT
100
AcDbLine
 62
7
  6
CONTINUOUS
 10
5.5154328933
 20
-29.2401546404
 11
7.3892658634
 21
-30.1770711254
  0
LINE
  5
237
100
AcDbEntity
  8
DRAFT
100
AcDbLine
 62
7
  6
CONTINUOUS
 10
5.5154328933
 20
-29.1102508298
 11
4.4547727215
 21
-28.5799207439
  0
LINE
  5
238
100
AcDbEntity
  8
DRAFT
100
AcDbLine
 62
7
  6
CONTINUOUS
 10
-10.3944696834
 20
-21.1552995414
 11
-11.4551298552
 21
-20.6249694556
  0
LINE
  5
239
100
AcDbEntity
  8
DRAFT
100
AcDbLine
 62
7
  6
CONTINUOUS
 10
-12.2868165458
 20
-19.3010445436
 11
-10.5712463787
 21
-20.1588296271
  0
LINE
  5
23A
100
AcDbEntity
  8
DRAFT
100
AcDbLine
 62
7
  6
CONTINUOUS
 10
-9.1570328164
 20
-20.8659364082
 11
-8.0963726446
 21
-21.3962664941
  0
LINE
  5
23B
100
AcDbEntity
  8
DRAFT
100
AcDbLine
 62
7
  6
CONTINUOUS
 10
3.6230860309
 20
-27.2559958319
 11
5.338656198
 21
-28.1137809154
  0
LINE
  5
23C
100
AcDbEntity
  8
DRAFT
100
AcDbLine
 62
7
  6
CONTINUOUS
 10
6.7528697603
 20
-28.8208876966
 11
7.8135299321
 21
-29.3512177825
  0
LINE
  5
23D
100
AcDbEntity
  8
RACCORDO
100
AcDbLine
 62
7
  6
CONTINUOUS
 10
8.9423522831
 20
-29.6453954919
 11
-21.7062571167
 21
-14.321090792
  0
LINE
  5
23E
100
AcDbEntity
  8
RACCORDO
100
AcDbLine
 62
7
  6
CONTINUOUS
 10
-16.802405197
 20
-19.3089806865
 11
-16.6661081532
 21
-19.3803123427
  0
LWPOLYLINE
  5
23F
100
AcDbEntity
  8
RACCORDO
100
AcDbPolyline
 62
7
  6
CONTINUOUS
 90
22
 70
0
 10
-19.8617150859
 20
-15.2433618074
 10
-19.7863957261
 20
-15.4779528932
 10
-19.6992479797
 20
-15.7209171501
 10
-19.6036195289
 20
-15.9619720157
 10
-19.4997553008
 20
-16.2005116685
 10
-19.3879509899
 20
-16.435905019
 10
-19.2685016882
 20
-16.6675330274
 10
-19.1416967523
 20
-16.8948222111
 10
-19.0078749797
 20
-17.1171726055
 10
-18.8673758873
 20
-17.3339839605
 10
-18.720531854
 20
-17.5447170468
 10
-18.5677051011
 20
-17.7488229923
 10
-18.4092863758
 20
-17.9457157049
 10
-18.2456821785
 20
-18.1348537979
 10
-18.0772752759
 20
-18.315740916
 10
-17.9045011753
 20
-18.4878343988
 10
-17.7278669019
 20
-18.6505932159
 10
-17.5478154398
 20
-18.8035526934
 10
-17.3647780636
 20
-18.9462799425
 10
-17.179232218
 20
-19.0783504443
 10
-16.9916188113
 20
-19.1993713389
 10
-16.802405197
 20
-19.3089806865
  0
LINE
  5
240
100
AcDbEntity
  8
RACCORDO
100
AcDbLine
 62
7
  6
CONTINUOUS
 10
-20.154857124
 20
27.720255973
 11
-20.154857124
 21
24.5758414062
  0
LINE
  5
241
100
AcDbEntity
  8
RACCORDO
100
AcDbLine
 62
253
  6
CONTINUOUS
 10
-20.0669891583
 20
27.6141899558
 11
-20.0669891583
 21
24.6279297288
  0
LINE
  5
242
100
AcDbEntity
  8
DRAFT
100
AcDbLine
 62
7
  6
CONTINUOUS
 10
-12.7978422844
 20
25.230079015
 11
-12.9009959782
 21
24.9539601895
  0
LWPOLYLINE
  5
243
100
AcDbEntity
  8
RACCORDO
100
AcDbPolyline
 62
7
  6
CONTINUOUS
 90
19
 70
0
 10
-10.0366483271
 20
18.3026669762
 10
-10.0711135342
 20
18.2818572268
 10
-10.1626061129
 20
18.2196889421
 10
-10.2517922973
 20
18.1490017974
 10
-10.3381037039
 20
18.0703712423
 10
-10.421050237
 20
17.9844475719
 10
-10.5000992453
 20
17.8919495935
 10
-10.5747470205
 20
17.7935931836
 10
-10.6446047378
 20
17.6900691795
 10
-10.7092617729
 20
17.5820779063
 10
-10.7682803578
 20
17.4703732507
 10
-10.8213146793
 20
17.3557331601
 10
-10.8680459356
 20
17.2388754338
 10
-10.908117843
 20
17.1206038367
 10
-10.9412744486
 20
17.0016629473
 10
-10.9672856913
 20
16.8826453655
 10
-10.9858746969
 20
16.7642651124
 10
-10.9968321847
 20
16.6474470994
 10
-10.9991238321
 20
16.5987325161
  0
LINE
  5
244
100
AcDbEntity
  8
RACCORDO
100
AcDbLine
 62
7
  6
CONTINUOUS
 10
-7.6363495721
 20
19.7022780843
 11
-10.0367234
 21
18.3026402852
  0
LINE
  5
245
100
AcDbEntity
  8
RACCORDO
100
AcDbLine
 62
253
  6
CONTINUOUS
 10
-7.5661232961
 20
19.6997761825
 11
-9.9665565346
 21
18.3001037416
  0
LINE
  5
246
100
AcDbEntity
  8
RACCORDO
100
AcDbLine
 62
253
  6
CONTINUOUS
 10
-10.4041686958
 20
18.5187358228
 11
-7.9182809524
 21
19.8758550106
  0
LINE
  5
247
100
AcDbEntity
  8
RACCORDO
100
AcDbLine
 62
253
  6
CONTINUOUS
 10
-10.2944188738
 20
18.3378350891
 11
-7.8122956726
 21
19.6928991027
  0
LINE
  5
248
100
AcDbEntity
  8
RACCORDO
100
AcDbLine
 62
253
  6
CONTINUOUS
 10
8.5465738672
 20
-28.8837335731
 11
-22.0883572035
 21
-13.5662680377
  0
LINE
  5
249
100
AcDbEntity
  8
SMUSSO
100
AcDbLine
 62
7
  6
CONTINUOUS
 10
-13.3289628254
 20
-19.385023207
 11
-13.7532268941
 21
-18.6532759304
  0
LINE
  5
24A
100
AcDbEntity
  8
RACCORDO
100
AcDbLine
 62
253
  6
CONTINUOUS
 10
-17.4792229935
 20
3.3100294322
 11
-17.4792229935
 21
7.3660294732
  0
LINE
  5
24B
100
AcDbEntity
  8
RACCORDO
100
AcDbLine
 62
7
  6
CONTINUOUS
 10
-17.3388928936
 20
2.9373697748
 11
-17.3388928936
 21
7.2910983965
  0
LINE
  5
24C
100
AcDbEntity
  8
DRAFT
100
AcDbLine
 62
7
  6
CONTINUOUS
 10
-9.2660488522
 20
23.4641822989
 11
-9.3728676292
 21
23.189896015
  0
LWPOLYLINE
  5
24D
100
AcDbEntity
  8
RACCORDO
100
AcDbPolyline
 62
7
  6
CONTINUOUS
 90
9
 70
0
 10
2.0901796393
 20
20.9711437583
 10
2.06080968
 20
20.9537676419
 10
2.034813746
 20
20.9351268541
 10
2.0102419014
 20
20.9141249054
 10
1.9873115097
 20
20.8908603383
 10
1.9662137961
 20
20.8654503911
 10
1.9471535036
 20
20.8380700492
 10
1.9303058254
 20
20.8089127006
 10
1.9235861084
 20
20.7954779598
  0
LINE
  5
24E
100
AcDbEntity
  8
DRAFT
100
AcDbLine
 62
7
  6
CONTINUOUS
 10
-5.4508935125
 20
18.6421612907
 11
-5.0911688245
 21
18.8385455714
  0
LINE
  5
24F
100
AcDbEntity
  8
RACCORDO
100
AcDbLine
 62
7
  6
CONTINUOUS
 10
2.9333277331
 20
21.4204029766
 11
2.089917688
 21
20.9710110252
  0
LINE
  5
250
100
AcDbEntity
  8
RACCORDO
100
AcDbLine
 62
253
  6
CONTINUOUS
 10
0.6363961031
 20
20.9465213805
 11
-0.2178176803
 21
20.5033416115
  0
LINE
  5
251
100
AcDbEntity
  8
RACCORDO
100
AcDbLine
 62
253
  6
CONTINUOUS
 10
-3.2804684944
 20
17.7158014204
 11
-2.9050764861
 21
17.8276581435
  0
LINE
  5
252
100
AcDbEntity
  8
RACCORDO
100
AcDbLine
 62
253
  6
CONTINUOUS
 10
-2.9384121266
 20
17.3859205978
 11
-2.4155939831
 21
17.5417063444
  0
LINE
  5
253
100
AcDbEntity
  8
DRAFT
100
AcDbLine
 62
7
  6
CONTINUOUS
 10
-1.1959102306
 20
16.5146696498
 11
-0.8485281374
 21
16.7172252279
  0
LINE
  5
254
100
AcDbEntity
  8
SMUSSO
100
AcDbLine
 62
7
  6
CONTINUOUS
 10
2.5809397513
 20
18.8193377821
 11
2.9974130745
 21
19.0440346945
  0
LINE
  5
255
100
AcDbEntity
  8
SMUSSO
100
AcDbLine
 62
7
  6
CONTINUOUS
 10
2.1566756826
 20
18.5117754222
 11
3.0730844794
 21
19.006198992
  0
LINE
  5
256
100
AcDbEntity
  8
DRAFT
100
AcDbLine
 62
7
  6
CONTINUOUS
 10
2.1566756826
 20
17.6457500425
 11
3.1988219622
 21
18.16266228
  0
LINE
  5
257
100
AcDbEntity
  8
RACCORDO
100
AcDbLine
 62
253
  6
CONTINUOUS
 10
6.9673936307
 20
19.5053452342
 11
7.4476065487
 21
19.7435343817
  0
LINE
  5
258
100
AcDbEntity
  8
RACCORDO
100
AcDbLine
 62
253
  6
CONTINUOUS
 10
7.3614845404
 20
19.3082997794
 11
7.6243563201
 21
19.4386861201
  0
LINE
  5
259
100
AcDbEntity
  8
RACCORDO
100
AcDbLine
 62
253
  6
CONTINUOUS
 10
-11.1086434796
 20
12.8476533096
 11
-11.3350581527
 21
12.7383389572
  0
LINE
  5
25A
100
AcDbEntity
  8
RACCORDO
100
AcDbLine
 62
7
  6
CONTINUOUS
 10
-20.2577554004
 20
7.619050958
 11
-20.2590524166
 21
7.6184383351
  0
LINE
  5
25B
100
AcDbEntity
  8
RACCORDO
100
AcDbLine
 62
7
  6
CONTINUOUS
 10
6.3099518637
 20
20.2673577227
 11
5.8594666523
 21
20.0593087235
  0
LINE
  5
25C
100
AcDbEntity
  8
RACCORDO
100
AcDbLine
 62
253
  6
CONTINUOUS
 10
6.41785672
 20
20.2584092961
 11
5.9205816863
 21
20.0287512064
  0
LWPOLYLINE
  5
25D
100
AcDbEntity
  8
RACCORDO
100
AcDbPolyline
 62
7
  6
CONTINUOUS
 90
48
 70
0
 10
-20.2578226398
 20
7.6190128648
 10
-20.137587965
 20
7.6715350947
 10
-19.965277621
 20
7.7330039227
 10
-19.7872537618
 20
7.7809577039
 10
-19.603929881
 20
7.815336578
 10
-19.4153867587
 20
7.836131189
 10
-19.2219683248
 20
7.8432402039
 10
-19.0241819573
 20
7.8366157809
 10
-18.8223799959
 20
7.8162237336
 10
-18.6170414638
 20
7.7820376376
 10
-18.4087165181
 20
7.7341123137
 10
-18.1978864972
 20
7.6725088838
 10
-17.9850943473
 20
7.5973215631
 10
-17.77091712
 20
7.5087280225
 10
-17.5558793205
 20
7.4069071223
 10
-17.3405457597
 20
7.2920786392
 10
-17.1254807684
 20
7.1645329743
 10
-16.9111845705
 20
7.0245413129
 10
-16.6982486383
 20
6.8724575601
 10
-16.4871714166
 20
6.7086415271
 10
-16.2782940591
 20
6.5333294074
 10
-16.0721158234
 20
6.3468837611
 10
-15.8691807115
 20
6.1497757544
 10
-15.6698897734
 20
5.9423544376
 10
-15.4746932085
 20
5.725022179
 10
-15.2841297946
 20
5.4983485553
 10
-15.098722624
 20
5.2629242625
 10
-14.9189394778
 20
5.0193082967
 10
-14.7452071064
 20
4.7680820673
 10
-14.5779700192
 20
4.509879742
 10
-14.4176473978
 20
4.2453328575
 10
-14.2646057868
 20
3.9750720538
 10
-14.1192009493
 20
3.6997327231
 10
-13.9817805002
 20
3.4199631436
 10
-13.852668742
 20
3.136460748
 10
-13.7321788982
 20
2.8499376023
 10
-13.6205928334
 20
2.5610722186
 10
-13.5181653329
 20
2.2705881959
 10
-13.4251531558
 20
1.9792721774
 10
-13.3417662071
 20
1.6878355496
 10
-13.2681704207
 20
1.3969973575
 10
-13.2045334964
 20
1.1075624401
 10
-13.1509797277
 20
0.8202396506
 10
-13.1075868802
 20
0.5357108968
 10
-13.0744258812
 20
0.2547446301
 10
-13.0515318218
 20
-0.0219454009
 10
-13.0388814075
 20
-0.2936704355
 10
-13.0360931136
 20
-0.4908801966
  0
LINE
  5
25E
100
AcDbEntity
  8
SMUSSO
100
AcDbLine
 62
7
  6
CONTINUOUS
 10
-13.7532268941
 20
26.4668058625
 11
-13.7532268941
 21
25.6007013309
  0
LINE
  5
25F
100
AcDbEntity
  8
DRAFT
100
AcDbLine
 62
7
  6
CONTINUOUS
 10
-13.7532268941
 20
24.7346759271
 11
-13.7532268941
 21
23.6954454425
  0
LINE
  5
260
100
AcDbEntity
  8
SMUSSO
100
AcDbLine
 62
7
  6
CONTINUOUS
 10
-13.7532268941
 20
-18.2976059033
 11
-13.7532268941
 21
-18.6532759304
  0
LINE
  5
261
100
AcDbEntity
  8
SMUSSO
100
AcDbLine
 62
7
  6
CONTINUOUS
 10
-13.3289628254
 20
27.2072226444
 11
-13.3289628254
 21
26.7742890704
  0
LINE
  5
262
100
AcDbEntity
  8
SMUSSO
100
AcDbLine
 62
7
  6
CONTINUOUS
 10
-13.3289628254
 20
-19.385023207
 11
-13.3289628254
 21
-19.817956781
  0
LINE
  5
263
100
AcDbEntity
  8
DRAFT
100
AcDbLine
 62
7
  6
CONTINUOUS
 10
-12.9009959782
 20
24.9539601895
 11
-12.9009959782
 21
24.5557551088
  0
LINE
  5
264
100
AcDbEntity
  8
SMUSSO
100
AcDbLine
 62
7
  6
CONTINUOUS
 10
-12.7110806145
 20
26.898281539
 11
-12.7110806145
 21
26.1176135683
  0
LINE
  5
265
100
AcDbEntity
  8
SMUSSO
100
AcDbLine
 62
7
  6
CONTINUOUS
 10
-12.2868165458
 20
-19.0308110775
 11
-12.2868165458
 21
-19.3010445436
  0
LINE
  5
266
100
AcDbEntity
  8
DRAFT
100
AcDbLine
 62
7
  6
CONTINUOUS
 10
-11.4551298552
 20
26.2703061594
 11
-11.4551298552
 21
26.1404023488
  0
LINE
  5
267
100
AcDbEntity
  8
DRAFT
100
AcDbLine
 62
7
  6
CONTINUOUS
 10
-11.4551298552
 20
-20.6249694556
 11
-11.4551298552
 21
-20.7548732661
  0
LWPOLYLINE
  5
268
100
AcDbEntity
  8
RACCORDO
100
AcDbPolyline
 62
7
  6
CONTINUOUS
 90
36
 70
0
 10
-11.1160515229
 20
12.5593835387
 10
-11.1172299177
 20
12.2836545134
 10
-11.1024511469
 20
11.9295903056
 10
-11.0696152755
 20
11.5696537945
 10
-11.0188500766
 20
11.2053992046
 10
-10.9504368605
 20
10.8383065637
 10
-10.8646954324
 20
10.4698910199
 10
-10.7619972659
 20
10.1016234065
 10
-10.6428296632
 20
9.7349913559
 10
-10.5077127893
 20
9.3715485469
 10
-10.3572378641
 20
9.0128050819
 10
-10.1920706468
 20
8.6601635639
 10
-10.0128680252
 20
8.3150086954
 10
-9.8203811903
 20
7.9787368924
 10
-9.6154339785
 20
7.6526937488
 10
-9.3988151765
 20
7.3381674371
 10
-9.1714203731
 20
7.0364392465
 10
-8.9341866859
 20
6.748721146
 10
-8.6879899271
 20
6.4761512454
 10
-8.4337398612
 20
6.2197682411
 10
-8.1725398181
 20
5.9807298372
 10
-7.9055913555
 20
5.7602246003
 10
-7.6338724936
 20
5.5590678899
 10
-7.3585584267
 20
5.3781739623
 10
-7.081177439
 20
5.2185887111
 10
-6.8029563315
 20
5.0809184414
 10
-6.524853465
 20
4.9655924362
 10
-6.247980065
 20
4.8730857845
 10
-5.9734267494
 20
4.8036984365
 10
-5.702231771
 20
4.7576920512
 10
-5.4354099743
 20
4.7352782222
 10
-5.1739960384
 20
4.7365175744
 10
-4.9190852559
 20
4.7614447979
 10
-4.6717858036
 20
4.8099954787
 10
-4.4331910478
 20
4.8819006661
 10
-4.2136180814
 20
4.9724612375
  0
LWPOLYLINE
  5
269
100
AcDbEntity
  8
RACCORDO
100
AcDbPolyline
 62
7
  6
CONTINUOUS
 90
21
 70
0
 10
-13.0360929327
 20
-0.4909017674
 10
-13.0384652473
 20
-0.6701335045
 10
-13.0492010699
 20
-0.9083622665
 10
-13.0686091583
 20
-1.1414852115
 10
-13.0967006973
 20
-1.3689168348
 10
-13.1334423696
 20
-1.590097733
 10
-13.1787600695
 20
-1.8044523646
 10
-13.2325769359
 20
-2.0114795702
 10
-13.2947850508
 20
-2.2107017731
 10
-13.3652164126
 20
-2.4015835623
 10
-13.4437083151
 20
-2.5836633652
 10
-13.5300816533
 20
-2.7565327547
 10
-13.6240963071
 20
-2.9197822286
 10
-13.7255141172
 20
-3.0730467386
 10
-13.8341174955
 20
-3.2160428258
 10
-13.9496809407
 20
-3.3485515225
 10
-14.0719305999
 20
-3.4703065961
 10
-14.200673518
 20
-3.58114579
 10
-14.3358465759
 20
-3.6810428874
 10
-14.4772262353
 20
-3.7698091513
 10
-14.5476941189
 20
-3.8086542063
  0
LINE
  5
26A
100
AcDbEntity
  8
RACCORDO
100
AcDbLine
 62
7
  6
CONTINUOUS
 10
-11.0935449797
 20
13.4210705141
 11
-11.1160551659
 21
12.5593784973
  0
LINE
  5
26B
100
AcDbEntity
  8
RACCORDO
100
AcDbLine
 62
7
  6
CONTINUOUS
 10
-11.0678457835
 20
14.348340287
 11
-11.0935449797
 21
13.4210705141
  0
LINE
  5
26C
100
AcDbEntity
  8
RACCORDO
100
AcDbLine
 62
7
  6
CONTINUOUS
 10
-11.0405980439
 20
15.2763414774
 11
-11.0678457835
 21
14.348340287
  0
LINE
  5
26D
100
AcDbEntity
  8
RACCORDO
100
AcDbLine
 62
7
  6
CONTINUOUS
 10
-10.9991346264
 20
16.5987701802
 11
-11.0405980439
 21
15.2763414774
  0
LINE
  5
26E
100
AcDbEntity
  8
SMUSSO
100
AcDbLine
 62
7
  6
CONTINUOUS
 10
2.1566756826
 20
18.5118545742
 11
2.5809397513
 21
18.8193377821
  0
LWPOLYLINE
  5
26F
100
AcDbEntity
  8
RACCORDO
100
AcDbPolyline
 62
7
  6
CONTINUOUS
 90
25
 70
0
 10
-1.1990838455
 20
13.883855302
 10
-1.2100277469
 20
13.877402183
 10
-1.2789310948
 20
13.8334944007
 10
-1.346744867
 20
13.784625757
 10
-1.4132321675
 20
13.7310180447
 10
-1.4781747029
 20
13.6729217402
 10
-1.5413285267
 20
13.6106203032
 10
-1.6024806543
 20
13.5443748949
 10
-1.6614370291
 20
13.4744609761
 10
-1.717964967
 20
13.4012019299
 10
-1.7718491166
 20
13.3249115525
 10
-1.8229237439
 20
13.245884287
 10
-1.8710176074
 20
13.164420438
 10
-1.9159517847
 20
13.0808342299
 10
-1.95756951
 20
12.9954537534
 10
-1.9957205634
 20
12.9085959725
 10
-2.0302507234
 20
12.8205915574
 10
-2.0610335588
 20
12.7317777726
 10
-2.0879498019
 20
12.6424727651
 10
-2.110872321
 20
12.553019731
 10
-2.129706316
 20
12.4637337402
 10
-2.1443634422
 20
12.3748771937
 10
-2.1547431842
 20
12.2867556438
 10
-2.1607677478
 20
12.1997531929
 10
-2.1615294975
 20
12.1799478082
  0
LINE
  5
270
100
AcDbEntity
  8
RACCORDO
100
AcDbLine
 62
7
  6
CONTINUOUS
 10
1.2012523511
 20
15.2834786583
 11
-1.1991228947
 21
13.8838400325
  0
LINE
  5
271
100
AcDbEntity
  8
RACCORDO
100
AcDbLine
 62
253
  6
CONTINUOUS
 10
1.2714772093
 20
15.2809759298
 11
-1.12911668
 21
13.8812098148
  0
LINE
  5
272
100
AcDbEntity
  8
RACCORDO
100
AcDbLine
 62
253
  6
CONTINUOUS
 10
-1.5664018315
 20
14.1000263904
 11
0.9193195529
 21
15.457054758
  0
LINE
  5
273
100
AcDbEntity
  8
RACCORDO
100
AcDbLine
 62
253
  6
CONTINUOUS
 10
-1.4568183685
 20
13.9190348364
 11
1.0253048327
 21
15.27409885
  0
LINE
  5
274
100
AcDbEntity
  8
DRAFT
100
AcDbLine
 62
7
  6
CONTINUOUS
 10
3.2173358544
 20
17.3319263076
 11
3.1120602923
 21
17.2751277266
  0
LINE
  5
275
100
AcDbEntity
  8
DRAFT
100
AcDbLine
 62
7
  6
CONTINUOUS
 10
5.5154328933
 20
17.6551209746
 11
5.640397726
 21
17.7225423688
  0
LINE
  5
276
100
AcDbEntity
  8
DRAFT
100
AcDbLine
 62
7
  6
CONTINUOUS
 10
2.1566756826
 20
15.7404941542
 11
3.1988219622
 21
16.2574063917
  0
LINE
  5
277
100
AcDbEntity
  8
SMUSSO
100
AcDbLine
 62
7
  6
CONTINUOUS
 10
2.5809397513
 20
-27.3399744954
 11
2.1566756826
 21
-26.6082272187
  0
LINE
  5
278
100
AcDbEntity
  8
DRAFT
100
AcDbLine
 62
7
  6
CONTINUOUS
 10
-10.3944696834
 20
-21.285203352
 11
-10.3944696834
 21
-21.1552995414
  0
LINE
  5
279
100
AcDbEntity
  8
DRAFT
100
AcDbLine
 62
7
  6
CONTINUOUS
 10
-10.3944696834
 20
25.6100722629
 11
-10.3944696834
 21
25.7399760735
  0
LINE
  5
27A
100
AcDbEntity
  8
DRAFT
100
AcDbLine
 62
7
  6
CONTINUOUS
 10
-9.3728676292
 20
23.189896015
 11
-9.3728676292
 21
22.7916909342
  0
LINE
  5
27B
100
AcDbEntity
  8
DRAFT
100
AcDbLine
 62
7
  6
CONTINUOUS
 10
-9.1570328164
 20
22.8262903199
 11
-9.1570328164
 21
23.5191106429
  0
LINE
  5
27C
100
AcDbEntity
  8
SMUSSO
100
AcDbLine
 62
7
  6
CONTINUOUS
 10
-8.5206367133
 20
-22.2221198371
 11
-8.5206367133
 21
-21.7891862631
  0
LINE
  5
27D
100
AcDbEntity
  8
SMUSSO
100
AcDbLine
 62
7
  6
CONTINUOUS
 10
-8.5206367133
 20
24.3701260144
 11
-8.5206367133
 21
24.8030595884
  0
LINE
  5
27E
100
AcDbEntity
  8
RACCORDO
100
AcDbLine
 62
253
  6
CONTINUOUS
 10
-8.2855462566
 20
27.3936374084
 11
-8.2855462566
 21
27.1318151779
  0
LINE
  5
27F
100
AcDbEntity
  8
RACCORDO
100
AcDbLine
 62
253
  6
CONTINUOUS
 10
-8.2855462566
 20
-21.031446222
 11
-8.2855462566
 21
-21.1525304598
  0
LINE
  5
280
100
AcDbEntity
  8
RACCORDO
100
AcDbLine
 62
7
  6
CONTINUOUS
 10
-8.2153812067
 20
27.4804697047
 11
-8.2153812067
 21
27.0967326529
  0
LINE
  5
281
100
AcDbEntity
  8
DRAFT
100
AcDbLine
 62
7
  6
CONTINUOUS
 10
6.7528697603
 20
15.5641593546
 11
6.6438537245
 21
15.5092310105
  0
LINE
  5
282
100
AcDbEntity
  8
RACCORDO
100
AcDbLine
 62
253
  6
CONTINUOUS
 10
11.8799324029
 20
17.0490758482
 11
11.0127385479
 21
16.6122234422
  0
LINE
  5
283
100
AcDbEntity
  8
RACCORDO
100
AcDbLine
 62
253
  6
CONTINUOUS
 10
-2.4974613449
 20
8.3194042956
 11
-2.2710462004
 21
8.4287275774
  0
LWPOLYLINE
  5
284
100
AcDbEntity
  8
RACCORDO
100
AcDbPolyline
 62
7
  6
CONTINUOUS
 90
11
 70
0
 10
1.9249767533
 20
-28.5122706894
 10
1.9423443659
 20
-28.550866833
 10
1.9625824415
 20
-28.5887184653
 10
1.9852120298
 20
-28.6248411217
 10
2.0101988707
 20
-28.6591782512
 10
2.0375765392
 20
-28.6916530504
 10
2.0666973441
 20
-28.7214730275
 10
2.0974434018
 20
-28.7485523158
 10
2.1298517903
 20
-28.7729073044
 10
2.1632864529
 20
-28.7940686572
 10
2.1879043577
 20
-28.8073148195
  0
LINE
  5
285
100
AcDbEntity
  8
SMUSSO
100
AcDbLine
 62
7
  6
CONTINUOUS
 10
-8.0963726446
 20
-21.4817030551
 11
-8.0963726446
 21
-21.126033028
  0
LINE
  5
286
100
AcDbEntity
  8
DRAFT
100
AcDbLine
 62
7
  6
CONTINUOUS
 10
-8.0963726446
 20
20.8670183178
 11
-8.0963726446
 21
21.9062488023
  0
LINE
  5
287
100
AcDbEntity
  8
SMUSSO
100
AcDbLine
 62
7
  6
CONTINUOUS
 10
-8.0963726446
 20
22.7722742061
 11
-8.0963726446
 21
23.6383787378
  0
LINE
  5
288
100
AcDbEntity
  8
RACCORDO
100
AcDbLine
 62
7
  6
CONTINUOUS
 10
-7.8122956726
 20
19.5996853922
 11
-7.8122956726
 21
19.6928991027
  0
LINE
  5
289
100
AcDbEntity
  8
RACCORDO
100
AcDbLine
 62
7
  6
CONTINUOUS
 10
1.9235483136
 20
20.7954050086
 11
1.9235837163
 21
20.7954791037
  0
LINE
  5
28A
100
AcDbEntity
  8
RACCORDO
100
AcDbLine
 62
7
  6
CONTINUOUS
 10
-3.9564063253
 20
4.683080168
 11
-3.9583455963
 21
4.6820576784
  0
LINE
  5
28B
100
AcDbEntity
  8
DRAFT
100
AcDbLine
 62
7
  6
CONTINUOUS
 10
-3.015410076
 20
5.5388474278
 11
-4.2092040139
 21
4.9745410294
  0
LINE
  5
28C
100
AcDbEntity
  8
RACCORDO
100
AcDbLine
 62
7
  6
CONTINUOUS
 10
-4.2135026646
 20
4.9725139142
 11
-4.2093856044
 21
4.9744551915
  0
LWPOLYLINE
  5
28D
100
AcDbEntity
  8
RACCORDO
100
AcDbPolyline
 62
7
  6
CONTINUOUS
 90
3
 70
0
 10
1.9088102762
 20
-28.4681009317
 10
1.9105286472
 20
-28.4733397205
 10
1.9249767533
 20
-28.5122706894
  0
LINE
  5
28E
100
AcDbEntity
  8
DRAFT
100
AcDbLine
 62
7
  6
CONTINUOUS
 10
-5.0911688245
 20
18.8385455714
 11
-5.0911688245
 21
18.4622989467
  0
LWPOLYLINE
  5
28F
100
AcDbEntity
  8
RACCORDO
100
AcDbPolyline
 62
7
  6
CONTINUOUS
 90
16
 70
0
 10
-4.8105413345
 20
-4.6037156474
 10
-4.8115760944
 20
-4.6848587633
 10
-4.8184991984
 20
-4.8262245463
 10
-4.8320247805
 20
-4.9641657613
 10
-4.8522443377
 20
-5.0980102789
 10
-4.8791775349
 20
-5.2270670148
 10
-4.9127647094
 20
-5.3505386126
 10
-4.9529206236
 20
-5.467778589
 10
-4.9995046751
 20
-5.5782101835
 10
-5.0522725414
 20
-5.6811382321
 10
-5.1109386336
 20
-5.7759938304
 10
-5.175267179
 20
-5.8624681898
 10
-5.2450923976
 20
-5.9403264065
 10
-5.3200566
 20
-6.0091988691
 10
-5.400087625
 20
-6.0690559793
 10
-5.4662664104
 20
-6.1095678276
  0
LINE
  5
290
100
AcDbEntity
  8
RACCORDO
100
AcDbLine
 62
7
  6
CONTINUOUS
 10
-2.2559444734
 20
9.0022702952
 11
-2.2784546605
 21
8.1405782455
  0
LINE
  5
291
100
AcDbEntity
  8
RACCORDO
100
AcDbLine
 62
7
  6
CONTINUOUS
 10
-2.2302452769
 20
9.9295400772
 11
-2.2559444734
 21
9.0022702952
  0
LINE
  5
292
100
AcDbEntity
  8
RACCORDO
100
AcDbLine
 62
7
  6
CONTINUOUS
 10
-2.2029975373
 20
10.8575412649
 11
-2.2302452769
 21
9.9295400772
  0
LINE
  5
293
100
AcDbEntity
  8
RACCORDO
100
AcDbLine
 62
7
  6
CONTINUOUS
 10
-2.1615341211
 20
12.1799699275
 11
-2.2029975373
 21
10.8575412649
  0
LWPOLYLINE
  5
294
100
AcDbEntity
  8
RACCORDO
100
AcDbPolyline
 62
7
  6
CONTINUOUS
 90
20
 70
0
 10
-2.2784554887
 20
8.1405726995
 10
-2.2863379757
 20
7.9420570037
 10
-2.3058868221
 20
7.6791236191
 10
-2.335595396
 20
7.4228509969
 10
-2.3753487335
 20
7.1739251018
 10
-2.4250378502
 20
6.932835031
 10
-2.4845747982
 20
6.6998929854
 10
-2.553823117
 20
6.4756708545
 10
-2.6326115275
 20
6.2607065324
 10
-2.7208355488
 20
6.0553062277
 10
-2.8183144085
 20
5.8600032532
 10
-2.9248266375
 20
5.6752817136
 10
-3.040252873
 20
5.5014298897
 10
-3.1644307985
 20
5.3388570065
 10
-3.2970512354
 20
5.1880665152
 10
-3.437798149
 20
5.0494949327
 10
-3.5864394412
 20
4.9234759258
 10
-3.7426339961
 20
4.8103548354
 10
-3.9058910429
 20
4.7105167698
 10
-3.9582911498
 20
4.6820871815
  0
LINE
  5
295
100
AcDbEntity
  8
DRAFT
100
AcDbLine
 62
7
  6
CONTINUOUS
 10
3.1120602923
 20
17.2751277266
 11
3.0089065985
 21
16.9990089012
  0
LINE
  5
296
100
AcDbEntity
  8
RACCORDO
100
AcDbLine
 62
253
  6
CONTINUOUS
 10
9.5683543041
 20
8.5324743228
 11
12.4383851448
 21
10.0737685867
  0
LINE
  5
297
100
AcDbEntity
  8
RACCORDO
100
AcDbLine
 62
7
  6
CONTINUOUS
 10
-14.5477735086
 20
-3.8086981336
 11
-14.546829946
 21
-3.8082003004
  0
LINE
  5
298
100
AcDbEntity
  8
RACCORDO
100
AcDbLine
 62
253
  6
CONTINUOUS
 10
15.4149278299
 20
10.9521106151
 11
14.5478217418
 21
10.5151170254
  0
LINE
  5
299
100
AcDbEntity
  8
RACCORDO
100
AcDbLine
 62
7
  6
CONTINUOUS
 10
-8.1668359718
 20
-0.7070107226
 11
-8.1672620279
 21
-0.7072006209
  0
LINE
  5
29A
100
AcDbEntity
  8
RACCORDO
100
AcDbLine
 62
253
  6
CONTINUOUS
 10
-2.1621160927
 20
16.9977725808
 11
-2.1621160927
 21
17.3665440023
  0
LINE
  5
29B
100
AcDbEntity
  8
RACCORDO
100
AcDbLine
 62
7
  6
CONTINUOUS
 10
-2.0779180328
 20
16.9556735508
 11
-2.0779180328
 21
17.3048495967
  0
LINE
  5
29C
100
AcDbEntity
  8
RACCORDO
100
AcDbLine
 62
253
  6
CONTINUOUS
 10
9.9310351468
 20
7.9279632344
 11
12.7915751982
 21
9.4641606545
  0
LWPOLYLINE
  5
29D
100
AcDbEntity
  8
RACCORDO
100
AcDbPolyline
 62
7
  6
CONTINUOUS
 90
40
 70
0
 10
-8.1668063556
 20
-0.7070040173
 10
-8.0975584897
 20
-0.679325337
 10
-8.0001727577
 20
-0.6502686108
 10
-7.8988806087
 20
-0.6308711752
 10
-7.7940013067
 20
-0.6210909114
 10
-7.6858999021
 20
-0.6208903021
 10
-7.5748449216
 20
-0.630187946
 10
-7.4614216535
 20
-0.648878258
 10
-7.3460785429
 20
-0.6768217753
 10
-7.2289038292
 20
-0.7139538924
 10
-7.110420328
 20
-0.7601254684
 10
-6.9911708833
 20
-0.8151197406
 10
-6.8711938396
 20
-0.8789323134
 10
-6.7509595045
 20
-0.9513901054
 10
-6.631004943
 20
-1.0322241069
 10
-6.5114054766
 20
-1.1214542805
 10
-6.3925092536
 20
-1.2189639596
 10
-6.274941335
 20
-1.3243633111
 10
-6.1591586634
 20
-1.4373326815
 10
-6.0455971187
 20
-1.5575571024
 10
-5.9347393688
 20
-1.6846144248
 10
-5.8270772465
 20
-1.818003173
 10
-5.7230351436
 20
-1.9572680838
 10
-5.6230098697
 20
-2.1019235635
 10
-5.5274158103
 20
-2.2513976897
 10
-5.4366228223
 20
-2.4051495991
 10
-5.3509569153
 20
-2.5626333292
 10
-5.2707379259
 20
-2.723255009
 10
-5.1962642528
 20
-2.8864264777
 10
-5.1277910586
 20
-3.0515573771
 10
-5.0655531903
 20
-3.2180404749
 10
-5.0097597271
 20
-3.3852979546
 10
-4.9606001237
 20
-3.5526778576
 10
-4.9182512825
 20
-3.7194480466
 10
-4.8828282205
 20
-3.8850159413
 10
-4.8544115012
 20
-4.0487543072
 10
-4.8330712318
 20
-4.2098702032
 10
-4.8188116672
 20
-4.3677065698
 10
-4.8115663946
 20
-4.5217245345
 10
-4.8105416732
 20
-4.6036415889
  0
LINE
  5
29E
100
AcDbEntity
  8
RACCORDO
100
AcDbLine
 62
7
  6
CONTINUOUS
 10
1.0253048327
 20
15.1808851396
 11
1.0253048327
 21
15.27409885
  0
LINE
  5
29F
100
AcDbEntity
  8
SMUSSO
100
AcDbLine
 62
7
  6
CONTINUOUS
 10
2.1566756826
 20
18.5118545742
 11
2.1566756826
 21
17.6457500425
  0
LINE
  5
2A0
100
AcDbEntity
  8
DRAFT
100
AcDbLine
 62
7
  6
CONTINUOUS
 10
2.1566756826
 20
16.7797246387
 11
2.1566756826
 21
15.7404941542
  0
LINE
  5
2A1
100
AcDbEntity
  8
SMUSSO
100
AcDbLine
 62
7
  6
CONTINUOUS
 10
2.1566756826
 20
-26.2525571916
 11
2.1566756826
 21
-26.6082272187
  0
LINE
  5
2A2
100
AcDbEntity
  8
SMUSSO
100
AcDbLine
 62
7
  6
CONTINUOUS
 10
2.5809397513
 20
19.2522713561
 11
2.5809397513
 21
18.8193377821
  0
LINE
  5
2A3
100
AcDbEntity
  8
SMUSSO
100
AcDbLine
 62
7
  6
CONTINUOUS
 10
2.5809397513
 20
-27.3399744954
 11
2.5809397513
 21
-27.7729080694
  0
LINE
  5
2A4
100
AcDbEntity
  8
DRAFT
100
AcDbLine
 62
7
  6
CONTINUOUS
 10
3.0089065985
 20
16.9990089012
 11
3.0089065985
 21
16.6008038204
  0
LINE
  5
2A5
100
AcDbEntity
  8
SMUSSO
100
AcDbLine
 62
7
  6
CONTINUOUS
 10
3.1988219622
 20
18.9433302506
 11
3.1988219622
 21
18.16266228
  0
LINE
  5
2A6
100
AcDbEntity
  8
DRAFT
100
AcDbLine
 62
7
  6
CONTINUOUS
 10
6.6438537245
 20
15.5092310105
 11
6.5370349475
 21
15.2349447266
  0
LINE
  5
2A7
100
AcDbEntity
  8
RACCORDO
100
AcDbLine
 62
7
  6
CONTINUOUS
 10
-5.4665210758
 20
-6.109713714
 11
-5.4663275251
 21
-6.1096059799
  0
LINE
  5
2A8
100
AcDbEntity
  8
DRAFT
100
AcDbLine
 62
7
  6
CONTINUOUS
 10
15.4149278299
 20
6.5825141357
 11
15.4393810733
 21
6.5954232363
  0
LINE
  5
2A9
100
AcDbEntity
  8
RACCORDO
100
AcDbLine
 62
7
  6
CONTINUOUS
 10
0.9555356159
 20
-2.9875094299
 11
0.9541509475
 21
-2.9881634165
  0
LWPOLYLINE
  5
2AA
100
AcDbEntity
  8
RACCORDO
100
AcDbPolyline
 62
7
  6
CONTINUOUS
 90
45
 70
0
 10
0.9554731676
 20
-2.9875452618
 10
1.0899403894
 20
-2.9293545444
 10
1.2661347776
 20
-2.8679931166
 10
1.4483450087
 20
-2.8206556352
 10
1.6361383273
 20
-2.7874271904
 10
1.8293610733
 20
-2.7683552331
 10
2.0276364338
 20
-2.7635526459
 10
2.2304288897
 20
-2.7730715009
 10
2.4373077867
 20
-2.7969531215
 10
2.6477645789
 20
-2.8352132723
 10
2.8611997104
 20
-2.8877810417
 10
3.0770174463
 20
-2.9545624176
 10
3.2946403714
 20
-3.03542328
 10
3.5134461912
 20
-3.130144737
 10
3.7327798551
 20
-3.2384679243
 10
3.952013248
 20
-3.3600855345
 10
4.1705826672
 20
-3.4946603776
 10
4.387959549
 20
-3.6418695154
 10
4.6034617853
 20
-3.8012305265
 10
4.8166460437
 20
-3.9723714653
 10
5.0273623797
 20
-4.1551970254
 10
5.2351910243
 20
-4.3494009249
 10
5.4394683662
 20
-4.5544010963
 10
5.6396883979
 20
-4.7697396457
 10
5.8353558415
 20
-4.9949176776
 10
6.0259596338
 20
-5.2293628626
 10
6.2109936292
 20
-5.47248862
 10
6.3899914689
 20
-5.7236922241
 10
6.562514003
 20
-5.9823510116
 10
6.7281223901
 20
-6.247827057
 10
6.8864103114
 20
-6.5194615311
 10
7.0369936647
 20
-6.7965727619
 10
7.1794942128
 20
-7.078470913
 10
7.3135711512
 20
-7.3644545591
 10
7.4389054194
 20
-7.653801133
 10
7.5551825143
 20
-7.9457736229
 10
7.6621323433
 20
-8.239639074
 10
7.7595120228
 20
-8.5346603913
 10
7.8470836981
 20
-8.8300829141
 10
7.9246585236
 20
-9.125167414
 10
7.9920711393
 20
-9.4191582468
 10
8.0491619065
 20
-9.7112678795
 10
8.0958254561
 20
-10.0007596499
 10
8.1319891471
 20
-10.2869423661
 10
8.1520355874
 20
-10.4971976097
  0
LINE
  5
2AB
100
AcDbEntity
  8
SMUSSO
100
AcDbLine
 62
7
  6
CONTINUOUS
 10
3.6230860309
 20
-26.9857623658
 11
3.6230860309
 21
-27.2559958319
  0
LINE
  5
2AC
100
AcDbEntity
  8
DRAFT
100
AcDbLine
 62
7
  6
CONTINUOUS
 10
4.4547727215
 20
18.315354871
 11
4.4547727215
 21
18.1854510605
  0
LINE
  5
2AD
100
AcDbEntity
  8
DRAFT
100
AcDbLine
 62
7
  6
CONTINUOUS
 10
4.4547727215
 20
-28.5799207439
 11
4.4547727215
 21
-28.7098245545
  0
LINE
  5
2AE
100
AcDbEntity
  8
DRAFT
100
AcDbLine
 62
7
  6
CONTINUOUS
 10
5.5154328933
 20
-29.2401546404
 11
5.5154328933
 21
-29.1102508298
  0
LINE
  5
2AF
100
AcDbEntity
  8
DRAFT
100
AcDbLine
 62
7
  6
CONTINUOUS
 10
5.5154328933
 20
17.6551209746
 11
5.5154328933
 21
17.7850247851
  0
LINE
  5
2B0
100
AcDbEntity
  8
SMUSSO
100
AcDbLine
 62
7
  6
CONTINUOUS
 10
-8.5206367133
 20
24.3701260144
 11
-8.0963726446
 21
23.6383787378
  0
LWPOLYLINE
  5
2B1
100
AcDbEntity
  8
RACCORDO
100
AcDbPolyline
 62
7
  6
CONTINUOUS
 90
8
 70
0
 10
8.1520404819
 20
-10.4972113151
 10
8.1589449496
 20
-10.5854860559
 10
8.1644955664
 20
-10.6647045324
 10
8.1693744644
 20
-10.7451000801
 10
8.1734469392
 20
-10.8266748461
 10
8.1765782711
 20
-10.9094092925
 10
8.1786342323
 20
-10.9933073198
 10
8.1795196529
 20
-11.0783701373
  0
LINE
  5
2B2
100
AcDbEntity
  8
DRAFT
100
AcDbLine
 62
7
  6
CONTINUOUS
 10
6.5370349475
 20
15.2349447266
 11
6.5370349475
 21
14.8367396459
  0
LINE
  5
2B3
100
AcDbEntity
  8
DRAFT
100
AcDbLine
 62
7
  6
CONTINUOUS
 10
6.7528697603
 20
14.8713390316
 11
6.7528697603
 21
15.5641593546
  0
LINE
  5
2B4
100
AcDbEntity
  8
SMUSSO
100
AcDbLine
 62
7
  6
CONTINUOUS
 10
7.3892658634
 20
-30.1770711254
 11
7.3892658634
 21
-29.7441375514
  0
LINE
  5
2B5
100
AcDbEntity
  8
SMUSSO
100
AcDbLine
 62
7
  6
CONTINUOUS
 10
7.3892658634
 20
16.415174726
 11
7.3892658634
 21
16.8481083001
  0
LINE
  5
2B6
100
AcDbEntity
  8
RACCORDO
100
AcDbLine
 62
253
  6
CONTINUOUS
 10
7.6243563201
 20
19.4386861201
 11
7.6243563201
 21
19.1768638896
  0
LINE
  5
2B7
100
AcDbEntity
  8
RACCORDO
100
AcDbLine
 62
253
  6
CONTINUOUS
 10
7.6243563201
 20
-28.9863975104
 11
7.6243563201
 21
-29.1074817481
  0
LINE
  5
2B8
100
AcDbEntity
  8
RACCORDO
100
AcDbLine
 62
7
  6
CONTINUOUS
 10
7.69452137
 20
19.5255184164
 11
7.69452137
 21
19.1417813646
  0
LINE
  5
2B9
100
AcDbEntity
  8
SMUSSO
100
AcDbLine
 62
7
  6
CONTINUOUS
 10
7.8135299321
 20
-29.4366543435
 11
7.8135299321
 21
-29.0809843164
  0
LINE
  5
2BA
100
AcDbEntity
  8
DRAFT
100
AcDbLine
 62
7
  6
CONTINUOUS
 10
7.8135299321
 20
12.9120670294
 11
7.8135299321
 21
13.951297514
  0
LINE
  5
2BB
100
AcDbEntity
  8
SMUSSO
100
AcDbLine
 62
7
  6
CONTINUOUS
 10
7.8135299321
 20
14.8173229178
 11
7.8135299321
 21
15.6834274494
  0
LWPOLYLINE
  5
2BC
100
AcDbEntity
  8
RACCORDO
100
AcDbPolyline
 62
7
  6
CONTINUOUS
 90
10
 70
0
 10
8.1795196529
 20
-11.0783701373
 10
8.1795312271
 20
-11.1101381009
 10
8.1788214991
 20
-11.1873554127
 10
8.1770681216
 20
-11.2648751469
 10
8.1742622236
 20
-11.3426708753
 10
8.1704334223
 20
-11.4207060281
 10
8.165631273
 20
-11.498944082
 10
8.1599143461
 20
-11.5773366764
 10
8.1533812118
 20
-11.65580446
 10
8.152227445
 20
-11.6688108038
  0
LWPOLYLINE
  5
2BD
100
AcDbEntity
  8
RACCORDO
100
AcDbPolyline
 62
7
  6
CONTINUOUS
 90
18
 70
0
 10
8.1522256695
 20
-11.6687797491
 10
8.1336714733
 20
-11.8458430392
 10
8.1009064429
 20
-12.0766449749
 10
8.0590562125
 20
-12.3005589423
 10
8.0081863062
 20
-12.5170734707
 10
7.9483930341
 20
-12.7256250405
 10
7.8798467918
 20
-12.9256113577
 10
7.8027224577
 20
-13.1165192236
 10
7.7171946133
 20
-13.2978918272
 10
7.6235060596
 20
-13.4692763539
 10
7.5219203144
 20
-13.6302564765
 10
7.4126586209
 20
-13.7805161222
 10
7.2959282537
 20
-13.9198325093
 10
7.1720152409
 20
-14.0479064886
 10
7.0411300835
 20
-14.1645286938
 10
6.9033258087
 20
-14.269654355
 10
6.7588435374
 20
-14.3630602941
 10
6.6657283775
 20
-14.4151404043
  0
LINE
  5
2BE
100
AcDbEntity
  8
SMUSSO
100
AcDbLine
 62
7
  6
CONTINUOUS
 10
-13.3962105857
 20
-18.4761140575
 11
-13.7532268941
 21
-18.6531967784
  0
LINE
  5
2BF
100
AcDbEntity
  8
SMUSSO
100
AcDbLine
 62
7
  6
CONTINUOUS
 10
-12.4501688587
 20
-18.949134921
 11
-13.3289628254
 21
-19.385023207
  0
LINE
  5
2C0
100
AcDbEntity
  8
RACCORDO
100
AcDbLine
 62
253
  6
CONTINUOUS
 10
-10.9551965173
 20
16.5460535961
 11
-2.5866003661
 21
12.3617555204
  0
LINE
  5
2C1
100
AcDbEntity
  8
RACCORDO
100
AcDbLine
 62
253
  6
CONTINUOUS
 10
-2.117589351
 20
12.1274580171
 11
8.5465738672
 21
6.7953763686
  0
LINE
  5
2C2
100
AcDbEntity
  8
RACCORDO
100
AcDbLine
 62
253
  6
CONTINUOUS
 10
-22.0883572035
 20
22.1128419039
 11
-11.4241939828
 21
16.780760333
  0
LINE
  5
2C3
100
AcDbEntity
  8
RACCORDO
100
AcDbLine
 62
7
  6
CONTINUOUS
 10
12.7915751982
 20
-28.1954328147
 11
12.7915751982
 21
9.4641606545
  0
LINE
  5
2C4
100
AcDbEntity
  8
RACCORDO
100
AcDbLine
 62
253
  6
CONTINUOUS
 10
14.1272921963
 20
-30.5840384368
 11
14.1272921963
 21
10.5170492785
  0
LINE
  5
2C5
100
AcDbEntity
  8
RACCORDO
100
AcDbLine
 62
253
  6
CONTINUOUS
 10
14.5478217418
 20
-30.5857658976
 11
14.5478217418
 21
10.5151170254
  0
LINE
  5
2C6
100
AcDbEntity
  8
SMUSSO
100
AcDbLine
 62
7
  6
CONTINUOUS
 10
-8.0963726446
 20
-21.4817030551
 11
-8.5206367133
 21
-21.7891862631
  0
LINE
  5
2C7
100
AcDbEntity
  8
DRAFT
100
AcDbLine
 62
7
  6
CONTINUOUS
 10
-12.2868165458
 20
-19.3010445436
 11
-13.3289628254
 21
-19.817956781
  0
LINE
  5
2C8
100
AcDbEntity
  8
DRAFT
100
AcDbLine
 62
7
  6
CONTINUOUS
 10
-10.3944696834
 20
-21.1552995414
 11
-9.2114312182
 21
-20.5685037412
  0
LINE
  5
2C9
100
AcDbEntity
  8
DRAFT
100
AcDbLine
 62
7
  6
CONTINUOUS
 10
-10.3944696834
 20
-21.285203352
 11
-9.081006671
 21
-20.6337160148
  0
LINE
  5
2CA
100
AcDbEntity
  8
RACCORDO
100
AcDbLine
 62
7
  6
CONTINUOUS
 10
-8.8857160835
 20
-20.7313613086
 11
-9.1570328164
 21
-20.8659364082
  0
LINE
  5
2CB
100
AcDbEntity
  8
RACCORDO
100
AcDbLine
 62
7
  6
CONTINUOUS
 10
-10.2902896772
 20
-20.0290745117
 11
-10.5712463787
 21
-20.1588296271
  0
LINE
  5
2CC
100
AcDbEntity
  8
DRAFT
100
AcDbLine
 62
7
  6
CONTINUOUS
 10
-11.4551298552
 20
-20.6249694556
 11
-10.2300576621
 21
-20.0591905193
  0
LINE
  5
2CD
100
AcDbEntity
  8
DRAFT
100
AcDbLine
 62
7
  6
CONTINUOUS
 10
6.5370349475
 20
14.8367396459
 11
6.7528697603
 21
14.8713390316
  0
LINE
  5
2CE
100
AcDbEntity
  8
RACCORDO
100
AcDbLine
 62
253
  6
CONTINUOUS
 10
-21.1016396799
 20
23.8674713148
 11
-10.4041686958
 21
18.5187358228
  0
LINE
  5
2CF
100
AcDbEntity
  8
RACCORDO
100
AcDbLine
 62
253
  6
CONTINUOUS
 10
-1.12911668
 20
13.8812098148
 11
9.5683543041
 21
8.5324743228
  0
LINE
  5
2D0
100
AcDbEntity
  8
RACCORDO
100
AcDbLine
 62
253
  6
CONTINUOUS
 10
-9.9665565346
 20
18.3001037416
 11
-1.5664018315
 21
14.1000263904
  0
LINE
  5
2D1
100
AcDbEntity
  8
RACCORDO
100
AcDbLine
 62
7
  6
CONTINUOUS
 10
1.2714772093
 20
15.2809759298
 11
-7.9182809524
 21
19.8758550106
  0
LINE
  5
2D2
100
AcDbEntity
  8
RACCORDO
100
AcDbLine
 62
7
  6
CONTINUOUS
 10
-3.3663352488
 20
17.7587347976
 11
-3.2804684944
 21
17.7158014204
  0
LINE
  5
2D3
100
AcDbEntity
  8
RACCORDO
100
AcDbLine
 62
7
  6
CONTINUOUS
 10
-18.3780821068
 20
25.4820022125
 11
-5.0911688245
 21
18.8385455714
  0
LINE
  5
2D4
100
AcDbEntity
  8
RACCORDO
100
AcDbLine
 62
7
  6
CONTINUOUS
 10
-0.8485281374
 20
16.7172252279
 11
12.4383851448
 21
10.0737685867
  0
LINE
  5
2D5
100
AcDbEntity
  8
SMUSSO
100
AcDbLine
 62
7
  6
CONTINUOUS
 10
7.3892658634
 20
16.415174726
 11
7.8135299321
 21
15.6834274494
  0
LINE
  5
2D6
100
AcDbEntity
  8
RACCORDO
100
AcDbLine
 62
7
  6
CONTINUOUS
 10
15.4149278299
 20
10.9521106151
 11
15.4149278299
 21
-30.1854150633
  0
LINE
  5
2D7
100
AcDbEntity
  8
RACCORDO
100
AcDbLine
 62
253
  6
CONTINUOUS
 10
-8.2855462566
 20
-21.1525304598
 11
-8.4290247912
 21
-21.2299404208
  0
LINE
  5
2D8
100
AcDbEntity
  8
RACCORDO
100
AcDbLine
 62
7
  6
CONTINUOUS
 10
6.6656547521
 20
-14.4151812784
 11
6.6663790581
 21
-14.4147990785
  0
LINE
  5
2D9
100
AcDbEntity
  8
DRAFT
100
AcDbLine
 62
7
  6
CONTINUOUS
 10
-13.7532268941
 20
23.6954454425
 11
-8.0963726446
 21
20.8670183178
  0
LINE
  5
2DA
100
AcDbEntity
  8
DRAFT
100
AcDbLine
 62
7
  6
CONTINUOUS
 10
2.1566756826
 20
15.7404941542
 11
7.8135299321
 21
12.9120670294
  0
LINE
  5
2DB
100
AcDbEntity
  8
DRAFT
100
AcDbLine
 62
7
  6
CONTINUOUS
 10
7.8135299321
 20
13.951297514
 11
2.1566756826
 21
16.7797246387
  0
LINE
  5
2DC
100
AcDbEntity
  8
DRAFT
100
AcDbLine
 62
7
  6
CONTINUOUS
 10
-8.0963726446
 20
21.9062488023
 11
-13.7532268941
 21
24.7346759271
  0
LINE
  5
2DD
100
AcDbEntity
  8
DRAFT
100
AcDbLine
 62
7
  6
CONTINUOUS
 10
3.0089065985
 20
16.6008038204
 11
6.5370349475
 21
14.8367396459
  0
LINE
  5
2DE
100
AcDbEntity
  8
DRAFT
100
AcDbLine
 62
7
  6
CONTINUOUS
 10
-9.3728676292
 20
22.7916909342
 11
-12.9009959782
 21
24.5557551088
  0
LINE
  5
2DF
100
AcDbEntity
  8
DRAFT
100
AcDbLine
 62
7
  6
CONTINUOUS
 10
3.0089065985
 20
16.9990089012
 11
6.5370349475
 21
15.2349447266
  0
LINE
  5
2E0
100
AcDbEntity
  8
DRAFT
100
AcDbLine
 62
7
  6
CONTINUOUS
 10
-9.3728676292
 20
23.189896015
 11
-12.9009959782
 21
24.9539601895
  0
LINE
  5
2E1
100
AcDbEntity
  8
DRAFT
100
AcDbLine
 62
7
  6
CONTINUOUS
 10
7.8135299321
 20
14.8173229178
 11
6.7528697603
 21
15.3476530037
  0
LINE
  5
2E2
100
AcDbEntity
  8
DRAFT
100
AcDbLine
 62
7
  6
CONTINUOUS
 10
3.0783562621
 20
17.1849097528
 11
2.1566756826
 21
17.6457500425
  0
LINE
  5
2E3
100
AcDbEntity
  8
DRAFT
100
AcDbLine
 62
7
  6
CONTINUOUS
 10
-8.0963726446
 20
22.7722742061
 11
-9.1570328164
 21
23.302604292
  0
LINE
  5
2E4
100
AcDbEntity
  8
DRAFT
100
AcDbLine
 62
7
  6
CONTINUOUS
 10
-12.8315463146
 20
25.1398610411
 11
-13.7532268941
 21
25.6007013309
  0
LINE
  5
2E5
100
AcDbEntity
  8
DRAFT
100
AcDbLine
 62
7
  6
CONTINUOUS
 10
3.1120602923
 20
17.2751277266
 11
6.6438537245
 21
15.5092310105
  0
LINE
  5
2E6
100
AcDbEntity
  8
DRAFT
100
AcDbLine
 62
7
  6
CONTINUOUS
 10
-9.2660488522
 20
23.4641822989
 11
-12.7978422844
 21
25.230079015
  0
LINE
  5
2E7
100
AcDbEntity
  8
DRAFT
100
AcDbLine
 62
7
  6
CONTINUOUS
 10
3.2173358544
 20
17.3319263076
 11
6.7528697603
 21
15.5641593546
  0
LINE
  5
2E8
100
AcDbEntity
  8
DRAFT
100
AcDbLine
 62
7
  6
CONTINUOUS
 10
-9.1570328164
 20
23.5191106429
 11
-12.6925667223
 21
25.2868775959
  0
LINE
  5
2E9
100
AcDbEntity
  8
RACCORDO
100
AcDbLine
 62
7
  6
CONTINUOUS
 10
-7.6227545924
 20
-23.7374283996
 11
-6.760418837
 21
-23.333947995
  0
LINE
  5
2EA
100
AcDbEntity
  8
RACCORDO
100
AcDbLine
 62
253
  6
CONTINUOUS
 10
-2.9776054443
 20
17.8639226228
 11
-3.3663352488
 21
17.7587347976
  0
LINE
  5
2EB
100
AcDbEntity
  8
RACCORDO
100
AcDbLine
 62
7
  6
CONTINUOUS
 10
-3.0379200867
 20
17.8940799443
 11
-3.4772338641
 21
17.7752044161
  0
LINE
  5
2EC
100
AcDbEntity
  8
DRAFT
100
AcDbLine
 62
7
  6
CONTINUOUS
 10
-12.7110806145
 20
26.1176135683
 11
-8.2367127674
 21
23.8804296448
  0
LINE
  5
2ED
100
AcDbEntity
  8
DRAFT
100
AcDbLine
 62
7
  6
CONTINUOUS
 10
3.1988219622
 20
18.16266228
 11
7.6731898093
 21
15.9254783565
  0
LINE
  5
2EE
100
AcDbEntity
  8
DRAFT
100
AcDbLine
 62
7
  6
CONTINUOUS
 10
-11.4551298552
 20
26.1404023488
 11
-10.3944696834
 21
25.6100722629
  0
LINE
  5
2EF
100
AcDbEntity
  8
DRAFT
100
AcDbLine
 62
7
  6
CONTINUOUS
 10
4.4547727215
 20
18.1854510605
 11
5.5154328933
 21
17.6551209746
  0
LINE
  5
2F0
100
AcDbEntity
  8
DRAFT
100
AcDbLine
 62
7
  6
CONTINUOUS
 10
7.3892658634
 20
16.8481083001
 11
5.5154328933
 21
17.7850247851
  0
LINE
  5
2F1
100
AcDbEntity
  8
DRAFT
100
AcDbLine
 62
7
  6
CONTINUOUS
 10
4.4547727215
 20
18.315354871
 11
2.5809397513
 21
19.2522713561
  0
LINE
  5
2F2
100
AcDbEntity
  8
DRAFT
100
AcDbLine
 62
7
  6
CONTINUOUS
 10
-8.5206367133
 20
24.8030595884
 11
-10.3944696834
 21
25.7399760735
  0
LINE
  5
2F3
100
AcDbEntity
  8
DRAFT
100
AcDbLine
 62
7
  6
CONTINUOUS
 10
-11.4551298552
 20
26.2703061594
 11
-13.3289628254
 21
27.2072226444
  0
LINE
  5
2F4
100
AcDbEntity
  8
RACCORDO
100
AcDbLine
 62
253
  6
CONTINUOUS
 10
10.804396495
 20
16.2481965976
 11
2.1100073626
 21
20.5953911638
  0
LINE
  5
2F5
100
AcDbEntity
  8
RACCORDO
100
AcDbLine
 62
253
  6
CONTINUOUS
 10
-8.0497043245
 20
25.6752470074
 11
-16.7440934569
 21
30.0224415736
  0
LINE
  5
2F6
100
AcDbEntity
  8
RACCORDO
100
AcDbLine
 62
253
  6
CONTINUOUS
 10
11.0127385479
 20
16.6122234422
 11
2.3184371824
 21
20.9593741249
  0
LINE
  5
2F7
100
AcDbEntity
  8
RACCORDO
100
AcDbLine
 62
253
  6
CONTINUOUS
 10
-7.8412745047
 20
26.0392299685
 11
-16.5355841918
 21
30.3863848121
  0
LINE
  5
2F8
100
AcDbEntity
  8
RACCORDO
100
AcDbLine
 62
253
  6
CONTINUOUS
 10
7.5563271825
 20
19.7491240073
 11
7.5562952796
 21
19.7491399523
  0
LINE
  5
2F9
100
AcDbEntity
  8
RACCORDO
100
AcDbLine
 62
253
  6
CONTINUOUS
 10
-8.3535753942
 20
27.7040752956
 11
-8.3536072971
 21
27.7040912406
  0
LINE
  5
2FA
100
AcDbEntity
  8
RACCORDO
100
AcDbLine
 62
7
  6
CONTINUOUS
 10
-15.6983090213
 20
30.8381965602
 11
-6.9795968251
 21
26.4788404622
  0
LINE
  5
2FB
100
AcDbEntity
  8
RACCORDO
100
AcDbLine
 62
7
  6
CONTINUOUS
 10
3.1612202067
 20
21.4084319462
 11
11.8799324029
 21
17.0490758482
  0
LINE
  5
2FC
100
AcDbEntity
  8
RACCORDO
100
AcDbLine
 62
253
  6
CONTINUOUS
 10
-9.4920458567
 20
28.2133605844
 11
-8.462296028
 21
27.6984856701
  0
LINE
  5
2FD
100
AcDbEntity
  8
RACCORDO
100
AcDbLine
 62
253
  6
CONTINUOUS
 10
6.41785672
 20
20.2584092961
 11
7.4476065487
 21
19.7435343817
  0
LINE
  5
2FE
100
AcDbEntity
  8
RACCORDO
100
AcDbLine
 62
7
  6
CONTINUOUS
 10
-9.3833276366
 20
28.2189514168
 11
-8.3535778078
 21
27.7040765025
  0
LINE
  5
2FF
100
AcDbEntity
  8
RACCORDO
100
AcDbLine
 62
7
  6
CONTINUOUS
 10
6.5265749401
 20
20.2640001285
 11
7.5563247689
 21
19.7491252141
  0
LINE
  5
300
100
AcDbEntity
  8
SMUSSO
100
AcDbLine
 62
7
  6
CONTINUOUS
 10
2.513691991
 20
-26.4310653458
 11
2.1566756826
 21
-26.6081480668
  0
LINE
  5
301
100
AcDbEntity
  8
SMUSSO
100
AcDbLine
 62
7
  6
CONTINUOUS
 10
3.459733718
 20
-26.9040862093
 11
2.5809397513
 21
-27.3399744954
  0
LINE
  5
302
100
AcDbEntity
  8
DRAFT
100
AcDbLine
 62
7
  6
CONTINUOUS
 10
3.6230860309
 20
-27.2559958319
 11
2.5809397513
 21
-27.7729080694
  0
LINE
  5
303
100
AcDbEntity
  8
DRAFT
100
AcDbLine
 62
7
  6
CONTINUOUS
 10
-9.3728676292
 20
22.7916909342
 11
-9.1570328164
 21
22.8262903199
  0
LINE
  5
304
100
AcDbEntity
  8
SMUSSO
100
AcDbLine
 62
7
  6
CONTINUOUS
 10
7.8135299321
 20
-29.4366543435
 11
7.3892658634
 21
-29.7441375514
  0
LINE
  5
305
100
AcDbEntity
  8
RACCORDO
100
AcDbLine
 62
7
  6
CONTINUOUS
 10
7.0241864932
 20
-28.6863125969
 11
6.7528697603
 21
-28.8208876966
  0
LINE
  5
306
100
AcDbEntity
  8
DRAFT
100
AcDbLine
 62
7
  6
CONTINUOUS
 10
5.5154328933
 20
-29.1102508298
 11
6.7194882224
 21
-28.5339634615
  0
LINE
  5
307
100
AcDbEntity
  8
RACCORDO
100
AcDbLine
 62
7
  6
CONTINUOUS
 10
5.5154328933
 20
-29.2401546404
 11
6.8522297822
 21
-28.6003342414
  0
LINE
  5
308
100
AcDbEntity
  8
RACCORDO
100
AcDbLine
 62
7
  6
CONTINUOUS
 10
5.6196128995
 20
-27.9840258001
 11
5.338656198
 21
-28.1137809154
  0
LINE
  5
309
100
AcDbEntity
  8
DRAFT
100
AcDbLine
 62
7
  6
CONTINUOUS
 10
4.4547727215
 20
-28.5799207439
 11
5.6798449146
 21
-28.0141418076
  0
LINE
  5
30A
100
AcDbEntity
  8
RACCORDO
100
AcDbLine
 62
253
  6
CONTINUOUS
 10
7.6243563201
 20
-29.1074817481
 11
7.4808777855
 21
-29.1848917092
  0
LINE
  5
30B
100
AcDbEntity
  8
DRAFT
100
AcDbLine
 62
7
  6
CONTINUOUS
 10
15.4149278299
 20
-25.4604258043
 11
15.4393810733
 21
-25.4475167038
  0
LINE
  5
30C
100
AcDbEntity
  8
RACCORDO
100
AcDbLine
 62
253
  6
CONTINUOUS
 10
12.7915751982
 20
-28.1954328147
 11
9.9310351468
 21
-29.373786545
  0
LINE
  5
30D
100
AcDbEntity
  8
RACCORDO
100
AcDbLine
 62
7
  6
CONTINUOUS
 10
12.6490567511
 20
-28.471780039
 11
9.7772996806
 21
-29.654754441
  0
LINE
  5
30E
100
AcDbEntity
  8
RACCORDO
100
AcDbLine
 62
253
  6
CONTINUOUS
 10
15.4149278299
 20
-30.1854150633
 11
14.5478217418
 21
-30.5857658976
  0
LINE
  5
30F
100
AcDbEntity
  8
RACCORDO
100
AcDbLine
 62
7
  6
CONTINUOUS
 10
14.0631884582
 20
-32.9147341734
 11
13.1945698376
 21
-33.3158910374
  0
ARC
  5
310
100
AcDbEntity
  8
RACCORDO
100
AcDbCircle
 62
253
  6
CONTINUOUS
 10
8.8202720628
 20
-1.6064127373
 40
25.8403549027
100
AcDbArc
 50
236.3850710485
 51
236.6452603382
  0
ARC
  5
311
100
AcDbEntity
  8
RACCORDO
100
AcDbCircle
 62
253
  6
CONTINUOUS
 10
0.1005775471
 20
-11.2446606449
 40
8.1655558098
100
AcDbArc
 50
4.6801321599
 51
5.3037939764
  0
ARC
  5
312
100
AcDbEntity
  8
RACCORDO
100
AcDbCircle
 62
253
  6
CONTINUOUS
 10
-2.8953671443
 20
-30.058187905
 40
5.1258868055
100
AcDbArc
 50
17.9093939971
 51
18.3192349341
  0
ARC
  5
313
100
AcDbEntity
  8
RACCORDO
100
AcDbCircle
 62
253
  6
CONTINUOUS
 10
12.4518777173
 20
-29.6980088567
 40
3.6832706917
100
AcDbArc
 50
243.4302095854
 51
246.1229280129
  0
ARC
  5
314
100
AcDbEntity
  8
RACCORDO
100
AcDbCircle
 62
7
  6
CONTINUOUS
 10
-7.0140383031
 20
-25.6380078791
 40
2.8443824727
100
AcDbArc
 50
56.3791589009
 51
58.7153833799
  0
ARC
  5
315
100
AcDbEntity
  8
RACCORDO
100
AcDbCircle
 62
7
  6
CONTINUOUS
 10
-6.9541250548
 20
-25.5411343519
 40
2.7304823381
100
AcDbArc
 50
58.7341918881
 51
58.9379166755
  0
ARC
  5
316
100
AcDbEntity
  8
0
100
AcDbCircle
 62
7
  6
CONTINUOUS
 10
-7.1920807269
 20
-1.6381056402
 40
1.2524793032
100
AcDbArc
 50
135.6264734603
 51
136.1551313741
  0
ARC
  5
317
100
AcDbEntity
  8
RACCORDO
100
AcDbCircle
 62
253
  6
CONTINUOUS
 10
-21.4613487864
 20
-13.8317708356
 40
0.5471873421
100
AcDbArc
 50
238.9936539003
 51
239.8055047211
  0
ARC
  5
318
100
AcDbEntity
  8
RACCORDO
100
AcDbCircle
 62
253
  6
CONTINUOUS
 10
-21.4624325897
 20
-13.8336529332
 40
0.5450155171
100
AcDbArc
 50
239.8044723692
 51
243.4307416683
  0
ARC
  5
319
100
AcDbEntity
  8
RACCORDO
100
AcDbCircle
 62
253
  6
CONTINUOUS
 10
15.2670004194
 20
-25.1211625196
 40
0.3690820477
100
AcDbArc
 50
297.8430677271
 51
302.8948795953
  0
ARC
  5
31A
100
AcDbEntity
  8
RACCORDO
100
AcDbCircle
 62
7
  6
CONTINUOUS
 10
7.4449181002
 20
-29.0206703335
 40
0.2496035871
100
AcDbArc
 50
301.8796851275
 51
0.0208738395
  0
ARC
  5
31B
100
AcDbEntity
  8
RACCORDO
100
AcDbCircle
 62
7
  6
CONTINUOUS
 10
-8.4649844765
 20
-21.0657190452
 40
0.2496035871
100
AcDbArc
 50
301.8796851275
 51
0.0208738395
  0
ARC
  5
31C
100
AcDbEntity
  8
DRAFT
100
AcDbCircle
 62
7
  6
CONTINUOUS
 10
-7.1790357821
 20
10.7050907878
 40
8.3478602091
100
AcDbArc
 50
44.1584231723
 51
44.5344519966
  0
ARC
  5
31D
100
AcDbEntity
  8
RACCORDO
100
AcDbCircle
 62
253
  6
CONTINUOUS
 10
-9.1342351647
 20
16.4837343101
 40
1.8220640915
100
AcDbArc
 50
174.5751405656
 51
176.487612352
  0
ARC
  5
31E
100
AcDbEntity
  8
RACCORDO
100
AcDbCircle
 62
253
  6
CONTINUOUS
 10
-0.3478671022
 20
12.0689144983
 40
1.7706903121
100
AcDbArc
 50
175.4436491668
 51
178.105310717
  0
ARC
  5
31F
100
AcDbEntity
  8
RACCORDO
100
AcDbCircle
 62
253
  6
CONTINUOUS
 10
-9.2256166112
 20
16.4893999243
 40
1.7305071988
100
AcDbArc
 50
176.4894846051
 51
178.1239096166
  0
ARC
  5
320
100
AcDbEntity
  8
RACCORDO
100
AcDbCircle
 62
253
  6
CONTINUOUS
 10
-0.3860917514
 20
12.6163214356
 40
1.4671267676
100
AcDbArc
 50
123.373403489
 51
126.4007812319
  0
ARC
  5
321
100
AcDbEntity
  8
RACCORDO
100
AcDbCircle
 62
253
  6
CONTINUOUS
 10
-9.2480747746
 20
17.0719762987
 40
1.4229221984
100
AcDbArc
 50
122.6436962151
 51
124.396787311
  0
ARC
  5
322
100
AcDbEntity
  8
RACCORDO
100
AcDbCircle
 62
253
  6
CONTINUOUS
 10
-0.4551407564
 20
12.7222823203
 40
1.340655244
100
AcDbArc
 50
120.1802025019
 51
123.4001272062
  0
ARC
  5
323
100
AcDbEntity
  8
RACCORDO
100
AcDbCircle
 62
253
  6
CONTINUOUS
 10
-9.2954036251
 20
17.1461987726
 40
1.3348940226
100
AcDbArc
 50
120.1838244926
 51
122.6515822464
  0
ARC
  5
324
100
AcDbEntity
  8
RACCORDO
100
AcDbCircle
 62
253
  6
CONTINUOUS
 10
15.2670004194
 20
6.9217774204
 40
0.3690820477
100
AcDbArc
 50
297.8430677272
 51
302.8948795953
  0
ARC
  5
325
100
AcDbEntity
  8
RACCORDO
100
AcDbCircle
 62
7
  6
CONTINUOUS
 10
-8.4653761947
 20
27.4804733355
 40
0.2499949881
100
AcDbArc
 50
359.9991678709
 51
63.4431553984
  0
ARC
  5
326
100
AcDbEntity
  8
RACCORDO
100
AcDbCircle
 62
7
  6
CONTINUOUS
 10
7.444526382
 20
19.5255220472
 40
0.2499949881
100
AcDbArc
 50
359.9991678709
 51
63.4431553984
  0
ARC
  5
327
100
AcDbEntity
  8
RACCORDO
100
AcDbCircle
 62
7
  6
CONTINUOUS
 10
-9.4951292263
 20
27.9954746697
 40
0.2498698508
100
AcDbArc
 50
63.4508113349
 51
109.3071002722
  0
ARC
  5
328
100
AcDbEntity
  8
RACCORDO
100
AcDbCircle
 62
7
  6
CONTINUOUS
 10
6.4147733504
 20
20.0405233814
 40
0.2498698508
100
AcDbArc
 50
63.4508113349
 51
109.3071002722
  0
ARC
  5
329
100
AcDbEntity
  8
RACCORDO
100
AcDbCircle
 62
7
  6
CONTINUOUS
 10
-9.4955149671
 20
27.9960709151
 40
0.2491796562
100
AcDbArc
 50
109.2687215483
 51
114.7789325735
  0
ARC
  5
32A
100
AcDbEntity
  8
RACCORDO
100
AcDbCircle
 62
7
  6
CONTINUOUS
 10
6.4143876096
 20
20.0411196268
 40
0.2491796562
100
AcDbArc
 50
109.2687215483
 51
114.7789325734
  0
ARC
  5
32B
100
AcDbEntity
  8
RACCORDO
100
AcDbCircle
 62
253
  6
CONTINUOUS
 10
6.48464804
 20
20.1802792066
 40
0.0936284896
100
AcDbArc
 50
63.399089383
 51
68.4471909084
  0
ARC
  5
32C
100
AcDbEntity
  8
RACCORDO
100
AcDbCircle
 62
253
  6
CONTINUOUS
 10
-9.4252545367
 20
28.135230495
 40
0.0936284896
100
AcDbArc
 50
63.399089383
 51
68.4471909086
  0
ARC
  5
32D
100
AcDbEntity
  8
RACCORDO
100
AcDbCircle
 62
253
  6
CONTINUOUS
 10
6.3489219041
 20
20.1831227055
 40
0.0928095694
100
AcDbArc
 50
110.685845812
 51
114.8268987465
  0
ARC
  5
32E
100
AcDbEntity
  8
RACCORDO
100
AcDbCircle
 62
253
  6
CONTINUOUS
 10
-9.5609806726
 20
28.1380739939
 40
0.0928095694
100
AcDbArc
 50
110.6858458122
 51
114.8268987464
  0
ARC
  5
32F
100
AcDbEntity
  8
RACCORDO
100
AcDbCircle
 62
253
  6
CONTINUOUS
 10
562.4635450637
 20
-6.2360084682
 40
564.8796989079
100
AcDbArc
 50
178.1370643386
 51
178.5417437157
  0
ARC
  5
330
100
AcDbEntity
  8
RACCORDO
100
AcDbCircle
 62
253
  6
CONTINUOUS
 10
553.6217245711
 20
-1.8170853378
 40
564.8754771604
100
AcDbArc
 50
178.1370836519
 51
178.5417452826
  0
ARC
  5
331
100
AcDbEntity
  8
RACCORDO
100
AcDbCircle
 62
253
  6
CONTINUOUS
 10
531.9742678117
 20
-1.5356384549
 40
543.7070707148
100
AcDbArc
 50
178.0694550339
 51
178.4951135479
  0
ARC
  5
332
100
AcDbEntity
  8
RACCORDO
100
AcDbCircle
 62
253
  6
CONTINUOUS
 10
540.8110897819
 20
-5.9544162319
 40
543.7062918579
100
AcDbArc
 50
178.069476206
 51
178.495113761
  0
ARC
  5
333
100
AcDbEntity
  8
RACCORDO
100
AcDbCircle
 62
253
  6
CONTINUOUS
 10
540.8561105892
 20
-5.9552557674
 40
543.5410472572
100
AcDbArc
 50
178.0694449416
 51
178.4951057047
  0
ARC
  5
334
100
AcDbEntity
  8
RACCORDO
100
AcDbCircle
 62
253
  6
CONTINUOUS
 10
531.9976430439
 20
-1.5358073273
 40
543.5201702253
100
AcDbArc
 50
178.0694391276
 51
178.4951020665
  0
ARC
  5
335
100
AcDbEntity
  8
RACCORDO
100
AcDbCircle
 62
253
  6
CONTINUOUS
 10
544.8534116518
 20
-11.4491799852
 40
536.6170777111
100
AcDbArc
 50
178.051613304
 51
178.7810922615
  0
ARC
  5
336
100
AcDbEntity
  8
RACCORDO
100
AcDbCircle
 62
253
  6
CONTINUOUS
 10
531.4957486154
 20
-11.2076083001
 40
523.2572196415
100
AcDbArc
 50
178.896260447
 51
179.9311037452
  0
ARC
  5
337
100
AcDbEntity
  8
RACCORDO
100
AcDbCircle
 62
253
  6
CONTINUOUS
 10
522.6639037926
 20
-11.1937705983
 40
514.4253560071
100
AcDbArc
 50
180.0677355056
 51
180.269258422
  0
ARC
  5
338
100
AcDbEntity
  8
RACCORDO
100
AcDbCircle
 62
253
  6
CONTINUOUS
 10
520.8826021596
 20
-11.0488955867
 40
511.9488922627
100
AcDbArc
 50
178.0050441671
 51
181.9949558329
  0
ARC
  5
339
100
AcDbEntity
  8
RACCORDO
100
AcDbCircle
 62
253
  6
CONTINUOUS
 10
508.7965217194
 20
-11.3411699478
 40
500.5574411241
100
AcDbArc
 50
180.2598461721
 51
182.0084023134
  0
ARC
  5
33A
100
AcDbEntity
  8
RACCORDO
100
AcDbCircle
 62
253
  6
CONTINUOUS
 10
539.0034960808
 20
3.9942445231
 40
561.3843170174
100
AcDbArc
 50
178.1504658349
 51
179.9247837939
  0
ARC
  5
33B
100
AcDbEntity
  8
RACCORDO
100
AcDbCircle
 62
253
  6
CONTINUOUS
 10
509.8496058907
 20
4.06982371
 40
532.2302399459
100
AcDbArc
 50
180.0605145127
 51
181.8989124591
  0
SPLINE
  5
33C
100
AcDbEntity
  8
RACCORDO
100
AcDbSpline
 62
253
  6
CONTINUOUS
 70
0
 71
3
 72
11
 73
7
 74
5
 42
0.0000001
 43
0.0000001
 44
0.0000000001
 12
0.1926919542
 22
-0.0964812175
 32
0.0
 13
0.1969352272
 23
0.0874947474
 33
0.0
 40
0.0
 40
0.0
 40
0.0
 40
0.0
 40
0.2355354651
 40
0.5006141252
 40
0.7653611704
 40
1.0
 40
1.0
 40
1.0
 40
1.0
 10
-2.7076717653
 20
8.3245071176
 30
0.0
 10
-2.692543169
 20
8.3169322015
 30
0.0
 10
-2.6578763819
 20
8.3058916906
 30
0.0
 10
-2.6029969829
 20
8.2995517836
 30
0.0
 10
-2.5479394191
 20
8.3032105738
 30
0.0
 10
-2.5128642286
 20
8.3125610739
 30
0.0
 10
-2.4974613449
 20
8.3194042956
 30
0.0
 11
-2.7076717653
 21
8.3245071176
 31
0.0
 11
-2.6596501019
 21
8.308069238
 31
0.0
 11
-2.6029311424
 21
8.3012823611
 31
0.0
 11
-2.5460214459
 21
8.3053109218
 31
0.0
 11
-2.4974613449
 21
8.3194042956
 31
0.0
  0
SPLINE
  5
33D
100
AcDbEntity
  8
RACCORDO
100
AcDbSpline
 62
253
  6
CONTINUOUS
 70
0
 71
3
 72
11
 73
7
 74
5
 42
0.0000001
 43
0.0000001
 44
0.0000000001
 12
0.1925535981
 22
-0.0964523343
 32
0.0
 13
0.1976222194
 23
0.0855885468
 33
0.0
 40
0.0
 40
0.0
 40
0.0
 40
0.0
 40
0.2358013619
 40
0.5011394891
 40
0.7658628891
 40
1.0
 40
1.0
 40
1.0
 40
1.0
 10
-2.5865808511
 20
12.3619657513
 30
0.0
 10
-2.5714460509
 20
12.354384554
 30
0.0
 10
-2.5367983695
 20
12.343270705
 30
0.0
 10
-2.4819552556
 20
12.3366703334
 30
0.0
 10
-2.4269350341
 20
12.3399440777
 30
0.0
 10
-2.3918423234
 20
12.3489658932
 30
0.0
 10
-2.3764187582
 20
12.3556457115
 30
0.0
 11
-2.5865808511
 21
12.3619657513
 31
0.0
 11
-2.538566229
 21
12.3454301342
 31
0.0
 11
-2.4818597391
 21
12.3383787312
 31
0.0
 11
-2.4249649081
 21
12.3420138241
 31
0.0
 11
-2.3764187582
 21
12.3556457115
 31
0.0
  0
SPLINE
  5
33E
100
AcDbEntity
  8
RACCORDO
100
AcDbSpline
 62
253
  6
CONTINUOUS
 70
0
 71
3
 72
11
 73
7
 74
5
 42
0.0000001
 43
0.0000001
 44
0.0000000001
 12
0.1946497429
 22
-0.1009945169
 32
0.0
 13
0.0097397675
 23
-0.2190743066
 33
0.0
 40
0.0
 40
0.0
 40
0.0
 40
0.0
 40
0.2297278826
 40
0.4899334732
 40
0.7556569936
 40
1.0
 40
1.0
 40
1.0
 40
1.0
 10
-1.5665681905
 20
14.0999355701
 30
0.0
 10
-1.5516626994
 20
14.0922018179
 30
0.0
 10
-1.5231168695
 20
14.0694998919
 30
0.0
 10
-1.4892550716
 20
14.0253433773
 30
0.0
 10
-1.4654078737
 20
13.9738780597
 30
0.0
 10
-1.4576116498
 20
13.9368779279
 30
0.0
 10
-1.4568183685
 20
13.9190348364
 30
0.0
 11
-1.5665681905
 21
14.0999355701
 31
0.0
 11
-1.5263418498
 21
14.0696089678
 31
0.0
 11
-1.4912855633
 21
14.0245870104
 31
0.0
 11
-1.4669158119
 21
13.9716569661
 31
0.0
 11
-1.4568183685
 21
13.9190348364
 31
0.0
  0
SPLINE
  5
33F
100
AcDbEntity
  8
RACCORDO
100
AcDbSpline
 62
253
  6
CONTINUOUS
 70
0
 71
3
 72
11
 73
7
 74
5
 42
0.0000001
 43
0.0000001
 44
0.0000000001
 12
-1.5470277108
 22
-1.0588452543
 32
0.0
 13
-0.1769587941
 23
-1.8663155135
 33
0.0
 40
0.0
 40
0.0
 40
0.0
 40
0.0
 40
0.2339418702
 40
0.4895665272
 40
0.7507324264
 40
1.0
 40
1.0
 40
1.0
 40
1.0
 10
-10.0519130313
 20
18.2460936863
 30
0.0
 10
-10.1725512166
 20
18.1635242732
 30
0.0
 10
-10.3999063133
 20
17.9532805071
 30
0.0
 10
-10.6697247332
 20
17.5660047457
 30
0.0
 10
-10.8641993763
 20
17.1254868612
 30
0.0
 10
-10.9334349395
 20
16.8110633657
 30
0.0
 10
-10.9481383026
 20
16.6559927192
 30
0.0
 11
-10.0519130313
 21
18.2460936863
 31
0.0
 11
-10.3780995063
 21
17.9529317839
 31
0.0
 11
-10.6543881399
 21
17.5613803063
 31
0.0
 11
-10.8514221161
 21
17.1131730207
 31
0.0
 11
-10.9481383026
 21
16.6559927192
 31
0.0
  0
SPLINE
  5
340
100
AcDbEntity
  8
RACCORDO
100
AcDbSpline
 62
253
  6
CONTINUOUS
 70
0
 71
3
 72
11
 73
7
 74
5
 42
0.0000001
 43
0.0000001
 44
0.0000000001
 12
0.0704141191
 22
2.0891835428
 32
0.0
 13
1.8333004571
 23
1.0043184045
 33
0.0
 40
0.0
 40
0.0
 40
0.0
 40
0.0
 40
0.2466820843
 40
0.509473918
 40
0.7671301938
 40
1.0
 40
1.0
 40
1.0
 40
1.0
 10
-2.586600661
 20
12.3617556799
 30
0.0
 10
-2.5808106938
 20
12.5335437302
 30
0.0
 10
-2.5144604265
 20
12.887209884
 30
0.0
 10
-2.2954526908
 20
13.3793974024
 30
0.0
 10
-1.9793060516
 20
13.8036992627
 30
0.0
 10
-1.7087089326
 20
14.0220680617
 30
0.0
 10
-1.5664021586
 20
14.1000265391
 30
0.0
 11
-2.586600661
 21
12.3617556799
 31
0.0
 11
-2.4980144312
 21
12.8697462322
 31
0.0
 11
-2.2761815191
 21
13.3722956704
 31
0.0
 11
-1.9510427121
 21
13.8016805591
 31
0.0
 11
-1.5664021586
 21
14.1000265391
 31
0.0
  0
SPLINE
  5
341
100
AcDbEntity
  8
RACCORDO
100
AcDbSpline
 62
253
  6
CONTINUOUS
 70
0
 71
3
 72
14
 73
10
 74
8
 42
0.0000001
 43
0.0000001
 44
0.0000000001
 12
3.5707750782
 22
1.6882371742
 32
0.0
 13
0.101331752
 23
3.9484568241
 33
0.0
 40
0.0
 40
0.0
 40
0.0
 40
0.0
 40
0.1078768154
 40
0.2179358334
 40
0.3320680426
 40
0.4517795188
 40
0.5780873176
 40
0.7115817495
 40
1.0
 40
1.0
 40
1.0
 40
1.0
 10
-4.2093888344
 20
4.9744582386
 30
0.0
 10
-4.080987553
 20
5.0351654553
 30
0.0
 10
-3.8321985993
 20
5.1817643865
 30
0.0
 10
-3.4992439553
 20
5.4683031755
 30
0.0
 10
-3.2087491828
 20
5.8181823888
 30
0.0
 10
-2.9642989166
 20
6.2264079664
 30
0.0
 10
-2.7681950768
 20
6.6875641017
 30
0.0
 10
-2.5691011077
 20
7.3827412049
 30
0.0
 10
-2.5072033205
 20
7.9398019592
 30
0.0
 10
-2.4974613449
 20
8.3194042956
 30
0.0
 11
-4.2093888344
 21
4.9744582386
 31
0.0
 11
-3.842106752
 21
5.1904539997
 31
0.0
 11
-3.5118630669
 21
5.473135324
 31
0.0
 11
-3.2227065858
 21
5.8189737128
 31
0.0
 11
-2.9782138669
 21
6.2236867957
 31
0.0
 11
-2.7813382293
 21
6.682082175
 31
0.0
 11
-2.6345065651
 21
7.1884957375
 31
0.0
 11
-2.4974613449
 21
8.3194042956
 31
0.0
  0
SPLINE
  5
342
100
AcDbEntity
  8
RACCORDO
100
AcDbSpline
 62
253
  6
CONTINUOUS
 70
0
 71
3
 72
9
 73
5
 74
3
 42
0.0000001
 43
0.0000001
 44
0.0000000001
 12
-0.0649798449
 22
0.0313067963
 32
0.0
 13
-0.0623624706
 23
-0.0362411092
 33
0.0
 40
0.0
 40
0.0
 40
0.0
 40
0.0
 40
0.5410650865
 40
1.0
 40
1.0
 40
1.0
 40
1.0
 10
-9.9667171853
 20
18.3000100675
 30
0.0
 10
-9.9784366271
 20
18.3056564057
 30
0.0
 10
-10.0020322329
 20
18.3131398001
 30
0.0
 10
-10.0271253264
 20
18.3082405095
 30
0.0
 10
-10.0366654315
 20
18.3026964061
 30
0.0
 11
-9.9667171853
 21
18.3000100675
 31
0.0
 11
-10.0044085358
 21
18.3101293638
 31
0.0
 11
-10.0366654315
 21
18.3026964061
 31
0.0
  0
SPLINE
  5
343
100
AcDbEntity
  8
RACCORDO
100
AcDbSpline
 62
253
  6
CONTINUOUS
 70
0
 71
3
 72
11
 73
7
 74
5
 42
0.0000001
 43
0.0000001
 44
0.0000000001
 12
-0.0643113103
 22
0.0320971577
 32
0.0
 13
0.0022551124
 23
0.0718407031
 33
0.0
 40
0.0
 40
0.0
 40
0.0
 40
0.0
 40
0.3067157332
 40
0.5725650892
 40
0.7989971305
 40
1.0
 40
1.0
 40
1.0
 40
1.0
 10
-10.9551898563
 20
16.5462582699
 30
0.0
 10
-10.9617649532
 20
16.5495398377
 30
0.0
 10
-10.9736293672
 20
16.5565764738
 30
0.0
 10
-10.9880538159
 20
16.5693849581
 30
0.0
 10
-10.997301697
 20
16.5835231318
 30
0.0
 10
-10.9993055609
 20
16.593920098
 30
0.0
 10
-10.9991544662
 20
16.5987334938
 30
0.0
 11
-10.9551898563
 21
16.5462582699
 31
0.0
 11
-10.9740377657
 21
16.5576933732
 31
0.0
 11
-10.9880886505
 21
16.5706431377
 31
0.0
 11
-10.9966031877
 21
16.5845132456
 31
0.0
 11
-10.9991544662
 21
16.5987334938
 31
0.0
  0
SPLINE
  5
344
100
AcDbEntity
  8
RACCORDO
100
AcDbSpline
 62
253
  6
CONTINUOUS
 70
0
 71
3
 72
27
 73
23
 74
21
 42
0.0000001
 43
0.0000001
 44
0.0000000001
 12
-0.3863961009
 22
-15.2805844637
 32
0.0
 13
0.4025476847
 23
15.2801675011
 33
0.0
 40
0.0
 40
0.0
 40
0.0
 40
0.0
 40
0.0689022855
 40
0.1416403958
 40
0.2167720043
 40
0.2926206389
 40
0.3674373943
 40
0.4395441413
 40
0.5074951308
 40
0.5702581775
 40
0.6274297563
 40
0.6794767021
 40
0.7040781437
 40
0.7280583313
 40
0.7517536616
 40
0.7755240805
 40
0.7997227
 40
0.8246691578
 40
0.8776910338
 40
0.9061912393
 40
0.9360952095
 40
1.0
 40
1.0
 40
1.0
 40
1.0
 10
-11.0721150247
 20
12.5067287473
 30
0.0
 10
-11.0809895495
 20
12.1557730164
 30
0.0
 10
-11.0393609217
 20
11.4320148247
 30
0.0
 10
-10.8212446559
 20
10.3461624029
 30
0.0
 10
-10.4542667435
 20
9.2637461118
 30
0.0
 10
-9.9525071797
 20
8.2252705782
 30
0.0
 10
-9.3352728434
 20
7.2691541109
 30
0.0
 10
-8.6259584304
 20
6.4308630047
 30
0.0
 10
-7.8510314423
 20
5.7413306851
 30
0.0
 10
-7.0381817483
 20
5.2262220265
 30
0.0
 10
-6.2159262454
 20
4.9055331187
 30
0.0
 10
-5.5317163766
 20
4.8126590046
 30
0.0
 10
-5.0189953847
 20
4.8544188691
 30
0.0
 10
-4.6591503761
 20
4.9394180108
 30
0.0
 10
-4.3208948703
 20
5.0780043718
 30
0.0
 10
-4.007792413
 20
5.2687703905
 30
0.0
 10
-3.7230311053
 20
5.5096328607
 30
0.0
 10
-3.3780276599
 20
5.9015350318
 30
0.0
 10
-3.108560589
 20
6.380156079
 30
0.0
 10
-2.9155497461
 20
6.914719645
 30
0.0
 10
-2.7648047196
 20
7.5203796007
 30
0.0
 10
-2.7162466738
 20
7.9990151499
 30
0.0
 10
-2.7076717653
 20
8.3245071176
 30
0.0
 11
-11.0721150247
 21
12.5067287473
 31
0.0
 11
-11.0166133812
 21
11.4549884239
 31
0.0
 11
-10.8009626812
 21
10.3642664784
 31
0.0
 11
-10.4336903972
 21
9.2761562487
 31
0.0
 11
-9.9292691828
 21
8.2322569443
 31
0.0
 11
-9.3075581552
 21
7.2724041464
 31
0.0
 11
-8.592947722
 21
6.4332708486
 31
0.0
 11
-7.8133514769
 21
5.7469400301
 31
0.0
 11
-6.9990547652
 21
5.2396950438
 31
0.0
 11
-6.1814938627
 21
4.931011402
 31
0.0
 11
-5.3920165164
 21
4.8328056049
 31
0.0
 11
-5.0172811778
 21
4.8641576078
 31
0.0
 11
-4.6606784766
 21
4.9489647669
 31
0.0
 11
-4.3255728318
 21
5.0864015592
 31
0.0
 11
-4.0151246241
 21
5.2751853539
 31
0.0
 11
-3.7322488782
 21
5.5135084301
 31
0.0
 11
-3.4795862226
 21
5.7991047108
 31
0.0
 11
-3.0740431291
 21
6.5008077023
 31
0.0
 11
-2.924930874
 21
6.9101326112
 31
0.0
 11
-2.8135250894
 21
7.3534448001
 31
0.0
 11
-2.7076717653
 21
8.3245071176
 31
0.0
  0
LINE
  5
345
100
AcDbEntity
  8
RACCORDO
100
AcDbLine
 62
253
  6
CONTINUOUS
 10
-11.0708074828
 20
12.5582038641
 11
-11.0721150247
 21
12.5067287473
  0
SPLINE
  5
346
100
AcDbEntity
  8
RACCORDO
100
AcDbSpline
 62
253
  6
CONTINUOUS
 70
0
 71
3
 72
11
 73
7
 74
5
 42
0.0000001
 43
0.0000001
 44
0.0000000001
 12
0.0638366336
 22
1.8802283703
 32
0.0
 13
1.6510021775
 23
0.9019565679
 33
0.0
 40
0.0
 40
0.0
 40
0.0
 40
0.0
 40
0.2466181983
 40
0.5093548111
 40
0.7670194437
 40
1.0
 40
1.0
 40
1.0
 40
1.0
 10
-2.3764187576
 20
12.3556457112
 30
0.0
 10
-2.3711709991
 20
12.5102118888
 30
0.0
 10
-2.3113557743
 20
12.8284247314
 30
0.0
 10
-2.1138995198
 20
13.2711699904
 30
0.0
 10
-1.8289066633
 20
13.6527594152
 30
0.0
 10
-1.5850355037
 20
13.8489887221
 30
0.0
 10
-1.4568183685
 20
13.9190348364
 30
0.0
 11
-2.3764187576
 21
12.3556457112
 31
0.0
 11
-2.2965316479
 21
12.8126820663
 31
0.0
 11
-2.0965630232
 21
13.2647159501
 31
0.0
 11
-1.8034995903
 21
13.65084282
 31
0.0
 11
-1.4568183685
 21
13.9190348364
 31
0.0
  0
SPLINE
  5
347
100
AcDbEntity
  8
RACCORDO
100
AcDbSpline
 62
253
  6
CONTINUOUS
 70
0
 71
3
 72
11
 73
7
 74
5
 42
0.0000001
 43
0.0000001
 44
0.0000000001
 12
-0.0644058993
 22
0.032159722
 32
0.0
 13
0.0018264927
 23
0.0719654883
 33
0.0
 40
0.0
 40
0.0
 40
0.0
 40
0.0
 40
0.3053866581
 40
0.5707617386
 40
0.7977151608
 40
1.0
 40
1.0
 40
1.0
 40
1.0
 10
-11.0721149558
 20
12.506728779
 30
0.0
 10
-11.0786711899
 20
12.5100024957
 30
0.0
 10
-11.0905112728
 20
12.5170394081
 30
0.0
 10
-11.1049096304
 20
12.529878407
 30
0.0
 10
-11.1141585437
 20
12.5440826052
 30
0.0
 10
-11.1161934564
 20
12.5545263685
 30
0.0
 10
-11.1160702991
 20
12.5593788776
 30
0.0
 11
-11.0721149558
 21
12.506728779
 31
0.0
 11
-11.0909009545
 21
12.5181480212
 31
0.0
 11
-11.1049259155
 21
12.5311196509
 31
0.0
 11
-11.1134580922
 21
12.5450528703
 31
0.0
 11
-11.1160702991
 21
12.5593788776
 31
0.0
  0
SPLINE
  5
348
100
AcDbEntity
  8
RACCORDO
100
AcDbSpline
 62
7
  6
CONTINUOUS
 70
0
 71
3
 72
10
 73
6
 74
4
 42
0.0000001
 43
0.0000001
 44
0.0000000001
 12
0.4748195037
 22
-0.2374097519
 32
0.0
 13
0.1620225671
 23
-0.5055350029
 33
0.0
 40
0.0
 40
0.0
 40
0.0
 40
0.0
 40
0.2246184185
 40
0.4735921533
 40
1.0
 40
1.0
 40
1.0
 40
1.0
 10
-6.9795968251
 20
26.4788404622
 30
0.0
 10
-6.9440457565
 20
26.4610649278
 30
0.0
 10
-6.8744125667
 20
26.412587572
 30
0.0
 10
-6.7532492623
 20
26.2827028292
 30
0.0
 10
-6.6877855657
 20
26.1578125544
 30
0.0
 10
-6.6593555821
 20
26.0691066903
 30
0.0
 11
-6.9795968251
 21
26.4788404622
 31
0.0
 11
-6.8807494572
 21
26.4121484027
 31
0.0
 11
-6.7898009245
 21
26.3162442255
 31
0.0
 11
-6.6593555821
 21
26.0691066903
 31
0.0
  0
SPLINE
  5
349
100
AcDbEntity
  8
RACCORDO
100
AcDbSpline
 62
7
  6
CONTINUOUS
 70
0
 71
3
 72
9
 73
5
 74
3
 42
0.0000001
 43
0.0000001
 44
0.0000000001
 12
-0.0633939028
 22
-0.1344046966
 32
0.0
 13
-0.1346137827
 23
-0.0629487004
 33
0.0
 40
0.0
 40
0.0
 40
0.0
 40
0.0
 40
0.5183719073
 40
1.0
 40
1.0
 40
1.0
 40
1.0
 10
-6.6593555821
 20
-23.2281277266
 30
0.0
 10
-6.6703094549
 20
-23.2513515995
 30
0.0
 10
-6.6977896211
 20
-23.2937220392
 30
0.0
 10
-6.7388078368
 20
-23.3238415079
 30
0.0
 10
-6.7604190967
 20
-23.3339474621
 30
0.0
 11
-6.6593555821
 21
-23.2281277266
 31
0.0
 11
-6.7024371488
 21
-23.2919869393
 31
0.0
 11
-6.7604190967
 21
-23.3339474621
 31
0.0
  0
SPLINE
  5
34A
100
AcDbEntity
  8
RACCORDO
100
AcDbSpline
 62
7
  6
CONTINUOUS
 70
0
 71
3
 72
11
 73
7
 74
5
 42
0.0000001
 43
0.0000001
 44
0.0000000001
 12
1.0289618555
 22
-0.6840234984
 32
0.0
 13
1.2337221648
 23
0.0676776673
 33
0.0
 40
0.0
 40
0.0
 40
0.0
 40
0.0
 40
0.2764168799
 40
0.5345566418
 40
0.7749745001
 40
1.0
 40
1.0
 40
1.0
 40
1.0
 10
0.6363961031
 20
20.9465213805
 30
0.0
 10
0.7312035783
 20
20.8834961668
 30
0.0
 10
0.9219218665
 20
20.7721204905
 30
0.0
 10
1.2179909861
 20
20.6498718704
 30
0.0
 10
1.509204048
 20
20.5805325136
 30
0.0
 10
1.7020970008
 20
20.5706661805
 30
0.0
 10
1.7946366498
 20
20.5757425808
 30
0.0
 11
0.6363961031
 21
20.9465213805
 31
0.0
 11
0.9320530874
 21
20.7755457627
 31
0.0
 11
1.2274910382
 21
20.6553520922
 31
0.0
 11
1.5168851756
 21
20.5883253783
 31
0.0
 11
1.7946366498
 21
20.5757425808
 31
0.0
  0
SPLINE
  5
34B
100
AcDbEntity
  8
DRAFT
100
AcDbSpline
 62
7
  6
CONTINUOUS
 70
0
 71
3
 72
9
 73
5
 74
3
 42
0.0000001
 43
0.0000001
 44
0.0000000001
 12
-4.7504614344
 22
3.1579666748
 32
0.0
 13
-5.4085394348
 23
1.8131019114
 33
0.0
 40
0.0
 40
0.0
 40
0.0
 40
0.0
 40
0.5163330685
 40
1.0
 40
1.0
 40
1.0
 40
1.0
 10
0.6363961031
 20
20.9465213805
 30
0.0
 10
-0.1812106733
 20
21.490042255
 30
0.0
 10
-1.8251962803
 20
22.4555404069
 30
0.0
 10
-3.5827954973
 20
23.1997933134
 30
0.0
 10
-4.4547727215
 20
23.4921057928
 30
0.0
 11
0.6363961031
 21
20.9465213805
 31
0.0
 11
-1.9091883092
 21
22.4280955552
 31
0.0
 11
-4.4547727215
 21
23.4921057928
 31
0.0
  0
SPLINE
  5
34C
100
AcDbEntity
  8
RACCORDO
100
AcDbSpline
 62
7
  6
CONTINUOUS
 70
0
 71
3
 72
12
 73
8
 74
6
 42
0.0000001
 43
0.0000001
 44
0.0000000001
 12
1.067500964
 22
-3.330765044
 32
0.0
 13
3.3162706668
 23
-1.1117117213
 33
0.0
 40
0.0
 40
0.0
 40
0.0
 40
0.0
 40
0.2699355294
 40
0.5361947947
 40
0.6630942615
 40
0.7834844595
 40
1.0
 40
1.0
 40
1.0
 40
1.0
 10
-6.6593555821
 20
26.0691066903
 30
0.0
 10
-6.5633034362
 20
25.7694094151
 30
0.0
 10
-6.3119740082
 20
25.1921369579
 30
0.0
 10
-5.8723825559
 20
24.5498256516
 30
0.0
 10
-5.4591865598
 20
24.1145900237
 30
0.0
 10
-5.0439179475
 20
23.767767172
 30
0.0
 10
-4.6941141001
 20
23.5723400809
 30
0.0
 10
-4.4547727215
 20
23.4921057928
 30
0.0
 11
-6.6593555821
 21
26.0691066903
 31
0.0
 11
-6.2838587949
 21
25.2028489884
 31
0.0
 11
-5.7544532849
 21
24.4366797221
 31
0.0
 11
-5.4480388605
 21
24.1155677026
 31
0.0
 11
-5.1238348888
 21
23.8468625331
 31
0.0
 11
-4.4547727215
 21
23.4921057928
 31
0.0
  0
SPLINE
  5
34D
100
AcDbEntity
  8
RACCORDO
100
AcDbSpline
 62
7
  6
CONTINUOUS
 70
0
 71
3
 72
13
 73
9
 74
7
 42
0.0000001
 43
0.0000001
 44
0.0000000001
 12
-1.1014546809
 22
3.4083042335
 32
0.0
 13
-3.3961164755
 23
1.138478391
 33
0.0
 40
0.0
 40
0.0
 40
0.0
 40
0.0
 40
0.2733444512
 40
0.5424391381
 40
0.6698280447
 40
0.7895859323
 40
0.9000338827
 40
1.0
 40
1.0
 40
1.0
 40
1.0
 10
1.9088081492
 20
-28.4680995953
 30
0.0
 10
1.8084493075
 20
-28.1575525786
 30
0.0
 10
1.5471406071
 20
-27.5600379335
 30
0.0
 10
1.0924305276
 20
-26.8954593914
 30
0.0
 10
0.6678117237
 20
-26.4471484816
 30
0.0
 10
0.3396802776
 20
-26.1722602495
 30
0.0
 10
0.0063392639
 20
-25.9596625117
 30
0.0
 10
-0.2245835082
 20
-25.8573007099
 30
0.0
 10
-0.3377490341
 20
-25.8193642884
 30
0.0
 11
1.9088081492
 21
-28.4680995953
 31
0.0
 11
1.5179418983
 21
-27.5704216495
 31
0.0
 11
0.9699942118
 21
-26.7774652556
 31
0.0
 11
0.6552915231
 21
-26.4470679368
 31
0.0
 11
0.3254063117
 21
-26.1728795707
 31
0.0
 11
-0.0093374432
 21
-25.9620398013
 31
0.0
 11
-0.3377490341
 21
-25.8193642884
 31
0.0
  0
SPLINE
  5
34E
100
AcDbEntity
  8
RACCORDO
100
AcDbSpline
 62
7
  6
CONTINUOUS
 70
0
 71
3
 72
9
 73
5
 74
3
 42
0.0000001
 43
0.0000001
 44
0.0000000001
 12
4.7597015831
 22
-3.1641092532
 32
0.0
 13
5.4190596146
 23
-1.8166285859
 33
0.0
 40
0.0
 40
0.0
 40
0.0
 40
0.0
 40
0.5158018187
 40
1.0
 40
1.0
 40
1.0
 40
1.0
 10
-5.439119417
 20
-23.2694340143
 30
0.0
 10
-4.6207651727
 20
-23.8134517834
 30
0.0
 10
-2.9734933173
 20
-24.7806904637
 30
0.0
 10
-1.2123819707
 20
-25.526161536
 30
0.0
 10
-0.3377490341
 20
-25.8193642884
 30
0.0
 11
-5.439119417
 21
-23.2694340143
 31
0.0
 11
-2.8911463657
 21
-24.7522571158
 31
0.0
 11
-0.3377490341
 21
-25.8193642884
 31
0.0
  0
SPLINE
  5
34F
100
AcDbEntity
  8
RACCORDO
100
AcDbSpline
 62
7
  6
CONTINUOUS
 70
0
 71
3
 72
11
 73
7
 74
5
 42
0.0000001
 43
0.0000001
 44
0.0000000001
 12
-1.2343601024
 22
0.7434970639
 32
0.0
 13
-1.3027667251
 23
-0.6158178354
 33
0.0
 40
0.0
 40
0.0
 40
0.0
 40
0.0
 40
0.3002264874
 40
0.5633411443
 40
0.7925737382
 40
1.0
 40
1.0
 40
1.0
 40
1.0
 10
-5.5452874668
 20
-23.202179361
 30
0.0
 10
-5.6688166661
 20
-23.1277735237
 30
0.0
 10
-5.9123520742
 20
-23.0058949424
 30
0.0
 10
-6.2829829134
 20
-22.9062797899
 30
0.0
 10
-6.623016715
 20
-22.9005749622
 30
0.0
 10
-6.828322842
 20
-22.9596659215
 30
0.0
 10
-6.9183988526
 20
-23.002244852
 30
0.0
 11
-5.5452874668
 21
-23.202179361
 31
0.0
 11
-5.9340476582
 21
-23.0123722514
 31
0.0
 11
-6.3013989808
 21
-22.9185477429
 31
0.0
 11
-6.6317181265
 21
-22.9176633035
 31
0.0
 11
-6.9183988526
 21
-23.002244852
 31
0.0
  0
SPLINE
  5
350
100
AcDbEntity
  8
RACCORDO
100
AcDbSpline
 62
7
  6
CONTINUOUS
 70
0
 71
3
 72
10
 73
6
 74
4
 42
0.0000001
 43
0.0000001
 44
0.0000000001
 12
0.645232145
 22
0.3406242055
 32
0.0
 13
0.314376641
 23
0.6584198493
 33
0.0
 40
0.0
 40
0.0
 40
0.0
 40
0.0
 40
0.2304434311
 40
0.4703604928
 40
1.0
 40
1.0
 40
1.0
 40
1.0
 10
1.4403064599
 20
20.2631986557
 30
0.0
 10
1.4898696296
 20
20.2893635259
 30
0.0
 10
1.5864409306
 20
20.3520211123
 30
0.0
 10
1.7652518251
 20
20.5182398399
 30
0.0
 10
1.8680462172
 20
20.6791632871
 30
0.0
 10
1.9235483136
 20
20.7954050086
 30
0.0
 11
1.4403064599
 21
20.2631986557
 31
0.0
 11
1.5815037105
 21
20.3544856235
 31
0.0
 11
1.7100628903
 21
20.4732908072
 31
0.0
 11
1.9235483136
 21
20.7954050086
 31
0.0
  0
SPLINE
  5
351
100
AcDbEntity
  8
DRAFT
100
AcDbSpline
 62
7
  6
CONTINUOUS
 70
0
 71
3
 72
15
 73
11
 74
9
 42
0.0000001
 43
0.0000001
 44
0.0000000001
 12
0.0
 22
-9.7843984177
 32
0.0
 13
8.9799139357
 23
-3.8853054066
 33
0.0
 40
0.0
 40
0.0
 40
0.0
 40
0.0
 40
0.1206053294
 40
0.2486762722
 40
0.3813370576
 40
0.5152679553
 40
0.6470394093
 40
0.7734160189
 40
0.891680567
 40
1.0
 40
1.0
 40
1.0
 40
1.0
 10
3.2094921117
 20
-4.4331731806
 30
0.0
 10
3.2094921117
 20
-4.8265233786
 30
0.0
 10
3.2788190965
 20
-5.6384329315
 30
0.0
 10
3.5596421514
 20
-6.85357557
 30
0.0
 10
4.0096205839
 20
-8.063240662
 30
0.0
 10
4.6107575154
 20
-9.2187580473
 30
0.0
 10
5.338976906
 20
-10.274069117
 30
0.0
 10
6.1656263498
 20
-11.1871349747
 30
0.0
 10
7.0577391299
 20
-11.9214602626
 30
0.0
 10
7.7046778076
 20
-12.2896297557
 30
0.0
 10
8.0289108696
 20
-12.4299144486
 30
0.0
 11
3.2094921117
 21
-4.4331731806
 31
0.0
 11
3.3035057959
 21
-5.6094728157
 31
0.0
 11
3.5816608524
 21
-6.831308395
 31
0.0
 11
4.0325223669
 21
-8.0484950757
 31
0.0
 11
4.6375305195
 21
-9.2109065659
 31
0.0
 11
5.3717853049
 21
-10.2707064344
 31
0.0
 11
6.2050756516
 21
-11.1842745381
 31
0.0
 11
7.1031017881
 21
-11.9140274394
 31
0.0
 11
8.0289108696
 21
-12.4299144486
 31
0.0
  0
SPLINE
  5
352
100
AcDbEntity
  8
DRAFT
100
AcDbSpline
 62
7
  6
CONTINUOUS
 70
0
 71
3
 72
18
 73
14
 74
12
 42
0.0000001
 43
0.0000001
 44
0.0000000001
 12
0.0
 22
-11.4439799696
 32
0.0
 13
11.3609738611
 23
1.3758453662
 33
0.0
 40
0.0
 40
0.0
 40
0.0
 40
0.0
 40
0.1281981549
 40
0.2653554894
 40
0.4063778244
 40
0.5456080437
 40
0.6776436785
 40
0.739629889
 40
0.7983547414
 40
0.8536191868
 40
0.9054308458
 40
0.9540456778
 40
1.0
 40
1.0
 40
1.0
 40
1.0
 10
-20.4000306372
 20
4.8967144597
 30
0.0
 10
-20.4000306372
 20
4.4076820875
 30
0.0
 10
-20.2910109554
 20
3.3940430111
 30
0.0
 10
-19.8623721341
 20
1.8978474611
 30
0.0
 10
-19.188180192
 20
0.4481029733
 30
0.0
 10
-18.3104457188
 20
-0.8643214072
 30
0.0
 10
-17.4352803806
 20
-1.7966941337
 30
0.0
 10
-16.6788824269
 20
-2.3969456189
 30
0.0
 10
-16.110437365
 20
-2.7567234847
 30
0.0
 10
-15.5380036144
 20
-3.0296197723
 30
0.0
 10
-14.9702293062
 20
-3.2109492573
 30
0.0
 10
-14.4161414797
 20
-3.2972241187
 30
0.0
 10
-14.0530114291
 20
-3.2894596738
 30
0.0
 10
-13.8789828115
 20
-3.2683843267
 30
0.0
 11
-20.4000306372
 21
4.8967144597
 31
0.0
 11
-20.2548097162
 21
3.4368223974
 31
0.0
 11
-19.8285512967
 21
1.9261838312
 31
0.0
 11
-19.1488285104
 21
0.462452083
 31
0.0
 11
-18.2595981424
 21
-0.8596775227
 31
0.0
 11
-17.218383229
 21
-1.954680844
 31
0.0
 11
-16.6615611291
 21
-2.394173116
 31
0.0
 11
-16.0925344221
 21
-2.7517405641
 31
0.0
 11
-15.52054159
 21
-3.0215759576
 31
0.0
 11
-14.9548704006
 21
-3.1992947616
 31
0.0
 11
-14.4047065876
 21
-3.2820108149
 31
0.0
 11
-13.8789828115
 21
-3.2683843267
 31
0.0
  0
SPLINE
  5
353
100
AcDbEntity
  8
DRAFT
100
AcDbSpline
 62
7
  6
CONTINUOUS
 70
0
 71
3
 72
18
 73
14
 74
12
 42
0.0000001
 43
0.0000001
 44
0.0000000001
 12
-0.0
 22
-11.4440274154
 32
0.0
 13
11.3609962844
 23
1.376054835
 33
0.0
 40
0.0
 40
0.0
 40
0.0
 40
0.0
 40
0.1281983947
 40
0.2653560087
 40
0.4063785876
 40
0.5456089391
 40
0.6776445372
 40
0.7396306606
 40
0.7983553833
 40
0.8536196664
 40
0.9054311469
 40
0.9540458086
 40
1.0
 40
1.0
 40
1.0
 40
1.0
 10
0.8131727984
 20
-5.7098872581
 30
0.0
 10
0.8131727984
 20
-6.1989225727
 30
0.0
 10
0.9221937878
 20
-7.2125678436
 30
0.0
 10
1.3508373793
 20
-8.7087718392
 30
0.0
 10
2.0250364364
 20
-10.1585231782
 30
0.0
 10
2.902779457
 20
-11.4709513766
 30
0.0
 10
3.7779527118
 20
-12.4033241906
 30
0.0
 10
4.5343567407
 20
-13.0035729632
 30
0.0
 10
5.1028056506
 20
-13.3633473258
 30
0.0
 10
5.6752426946
 20
-13.6362387498
 30
0.0
 10
6.2430196015
 20
-13.8175620094
 30
0.0
 10
6.7971091808
 20
-13.903829306
 30
0.0
 10
7.1602395239
 20
-13.8960588037
 30
0.0
 10
7.3342679897
 20
-13.874980308
 30
0.0
 11
0.8131727984
 21
-5.7098872581
 31
0.0
 11
0.9583953939
 21
-7.1697880246
 31
0.0
 11
1.3846586211
 21
-8.680435319
 31
0.0
 11
2.0643887186
 21
-10.1441741258
 31
0.0
 11
2.953627921
 21
-11.4663075739
 31
0.0
 11
3.9948519588
 21
-12.5613102845
 31
0.0
 11
4.5516783034
 21
-13.0008003173
 31
0.0
 11
5.1207088118
 21
-13.3583641638
 31
0.0
 11
5.6927048335
 21
-13.6281945854
 31
0.0
 11
6.2583784415
 21
-13.8059070779
 31
0.0
 11
6.8085437565
 21
-13.8886155466
 31
0.0
 11
7.3342679897
 21
-13.874980308
 31
0.0
  0
SPLINE
  5
354
100
AcDbEntity
  8
RACCORDO
100
AcDbSpline
 62
7
  6
CONTINUOUS
 70
0
 71
3
 72
10
 73
6
 74
4
 42
0.0000001
 43
0.0000001
 44
0.0000000001
 12
0.653510581
 22
-0.704091771
 32
0.0
 13
-0.0000000013
 23
-0.9606358839
 33
0.0
 40
0.0
 40
0.0
 40
0.0
 40
0.0
 40
0.251368651
 40
0.5071016192
 40
1.0
 40
1.0
 40
1.0
 40
1.0
 10
15.4152861666
 20
-23.9438491284
 30
0.0
 10
15.4700435244
 20
-24.0028446613
 30
0.0
 10
15.5690651109
 20
-24.1330907103
 30
0.0
 10
15.7159819441
 20
-24.4182534922
 30
0.0
 10
15.7707950808
 20
-24.6596957263
 30
0.0
 10
15.7707950806
 20
-24.8175276835
 30
0.0
 11
15.4152861666
 21
-23.9438491284
 31
0.0
 11
15.5621879959
 21
-24.1354983462
 31
0.0
 11
15.6747001115
 21
-24.3538854751
 31
0.0
 11
15.7707950806
 21
-24.8175276835
 31
0.0
  0
SPLINE
  5
355
100
AcDbEntity
  8
RACCORDO
100
AcDbSpline
 62
7
  6
CONTINUOUS
 70
0
 71
3
 72
11
 73
7
 74
5
 42
0.0000001
 43
0.0000001
 44
0.0000000001
 12
-0.000000001
 22
-0.7465131202
 32
0.0
 13
-0.6601689105
 23
-0.3485094665
 33
0.0
 40
0.0
 40
0.0
 40
0.0
 40
0.0
 40
0.258853205
 40
0.509070651
 40
0.755080722
 40
1.0
 40
1.0
 40
1.0
 40
1.0
 10
15.7707950806
 20
-24.8175276835
 30
0.0
 10
15.7707950805
 20
-24.8819401214
 30
0.0
 10
15.7588012186
 20
-25.0091201331
 30
0.0
 10
15.6982314851
 20
-25.1890706875
 30
0.0
 10
15.5924209645
 20
-25.3433260794
 30
0.0
 10
15.4932771043
 20
-25.4190644748
 30
0.0
 10
15.4393810733
 20
-25.4475167038
 30
0.0
 11
15.7707950806
 21
-24.8175276835
 31
0.0
 11
15.7511405816
 21
-25.0097628522
 31
0.0
 11
15.6900021211
 21
-25.1862644648
 31
0.0
 11
15.5849689537
 21
-25.336913935
 31
0.0
 11
15.4393810733
 21
-25.4475167038
 31
0.0
  0
SPLINE
  5
356
100
AcDbEntity
  8
RACCORDO
100
AcDbSpline
 62
7
  6
CONTINUOUS
 70
0
 71
3
 72
10
 73
6
 74
4
 42
0.0000001
 43
0.0000001
 44
0.0000000001
 12
0.653510581
 22
-0.704091771
 32
0.0
 13
-0.0000000013
 23
-0.9606358839
 33
0.0
 40
0.0
 40
0.0
 40
0.0
 40
0.0
 40
0.251368651
 40
0.5071016192
 40
1.0
 40
1.0
 40
1.0
 40
1.0
 10
15.4152861666
 20
8.0990908117
 30
0.0
 10
15.4700435244
 20
8.0400952788
 30
0.0
 10
15.5690651109
 20
7.9098492297
 30
0.0
 10
15.7159819441
 20
7.6246864478
 30
0.0
 10
15.7707950808
 20
7.3832442138
 30
0.0
 10
15.7707950806
 20
7.2254122565
 30
0.0
 11
15.4152861666
 21
8.0990908117
 31
0.0
 11
15.5621879959
 21
7.9074415939
 31
0.0
 11
15.6747001115
 21
7.689054465
 31
0.0
 11
15.7707950806
 21
7.2254122565
 31
0.0
  0
SPLINE
  5
357
100
AcDbEntity
  8
RACCORDO
100
AcDbSpline
 62
7
  6
CONTINUOUS
 70
0
 71
3
 72
11
 73
7
 74
5
 42
0.0000001
 43
0.0000001
 44
0.0000000001
 12
-0.000000001
 22
-0.7465131202
 32
0.0
 13
-0.6601689105
 23
-0.3485094665
 33
0.0
 40
0.0
 40
0.0
 40
0.0
 40
0.0
 40
0.258853205
 40
0.509070651
 40
0.755080722
 40
1.0
 40
1.0
 40
1.0
 40
1.0
 10
15.7707950806
 20
7.2254122565
 30
0.0
 10
15.7707950805
 20
7.1609998186
 30
0.0
 10
15.7588012186
 20
7.0338198069
 30
0.0
 10
15.6982314851
 20
6.8538692525
 30
0.0
 10
15.5924209645
 20
6.6996138606
 30
0.0
 10
15.4932771043
 20
6.6238754652
 30
0.0
 10
15.4393810733
 20
6.5954232363
 30
0.0
 11
15.7707950806
 21
7.2254122565
 31
0.0
 11
15.7511405816
 21
7.0331770878
 31
0.0
 11
15.6900021211
 21
6.8566754752
 31
0.0
 11
15.5849689537
 21
6.706026005
 31
0.0
 11
15.4393810733
 21
6.5954232363
 31
0.0
  0
SPLINE
  5
358
100
AcDbEntity
  8
RACCORDO
100
AcDbSpline
 62
7
  6
CONTINUOUS
 70
0
 71
3
 72
10
 73
6
 74
4
 42
0.0000001
 43
0.0000001
 44
0.0000000001
 12
0.2082980609
 22
0.1109816519
 32
0.0
 13
0.2111018887
 23
-0.1055509443
 33
0.0
 40
0.0
 40
0.0
 40
0.0
 40
0.0
 40
0.2278636508
 40
0.4657494471
 40
1.0
 40
1.0
 40
1.0
 40
1.0
 10
2.9333274906
 20
21.4204034639
 30
0.0
 10
2.9491486762
 20
21.4288330253
 30
0.0
 10
2.9842146379
 20
21.441381876
 30
0.0
 10
3.0635028654
 20
21.4465360935
 30
0.0
 10
3.1236264398
 20
21.4272288297
 30
0.0
 10
3.1612202067
 20
21.4084319462
 30
0.0
 11
2.9333274906
 21
21.4204034639
 31
0.0
 11
2.9839058758
 21
21.4386827888
 31
0.0
 11
3.039900433
 21
21.4427982052
 31
0.0
 11
3.1612202067
 21
21.4084319462
 31
0.0
  0
SPLINE
  5
359
100
AcDbEntity
  8
DRAFT
100
AcDbSpline
 62
7
  6
CONTINUOUS
 70
0
 71
3
 72
9
 73
5
 74
3
 42
0.0000001
 43
0.0000001
 44
0.0000000001
 12
-0.3281856542
 22
-1.3390091838
 32
0.0
 13
0.0
 23
-1.3786411491
 33
0.0
 40
0.0
 40
0.0
 40
0.0
 40
0.0
 40
0.2387378833
 40
1.0
 40
1.0
 40
1.0
 40
1.0
 10
-17.848628959
 20
7.5413968757
 30
0.0
 10
-17.8747457418
 20
7.4348394697
 30
0.0
 10
-17.9687259148
 20
6.9847570851
 30
0.0
 10
-18.0037113239
 20
6.5232642969
 30
0.0
 10
-18.0037113239
 20
6.1734285372
 30
0.0
 11
-17.848628959
 21
7.5413968757
 31
0.0
 11
-17.9162565445
 21
7.2192856932
 31
0.0
 11
-18.0037113239
 21
6.1734285372
 31
0.0
  0
SPLINE
  5
35A
100
AcDbEntity
  8
DRAFT
100
AcDbSpline
 62
7
  6
CONTINUOUS
 70
0
 71
3
 72
12
 73
8
 74
6
 42
0.0000001
 43
0.0000001
 44
0.0000000001
 12
-2.8364461102
 22
2.88289216
 32
0.0
 13
-4.0418522451
 23
-0.1411530061
 33
0.0
 40
0.0
 40
0.0
 40
0.0
 40
0.0
 40
0.2850115364
 40
0.5473016888
 40
0.6693223289
 40
0.7852149309
 40
1.0
 40
1.0
 40
1.0
 40
1.0
 10
-1.2284400812
 20
16.5597625014
 30
0.0
 10
-1.4979133692
 20
16.8336483427
 30
0.0
 10
-2.0525936798
 20
17.3248988864
 30
0.0
 10
-2.8211393718
 20
17.8077421475
 30
0.0
 10
-3.441170611
 20
18.0763075317
 30
0.0
 10
-4.0249810002
 20
18.2561460856
 30
0.0
 10
-4.4746424667
 20
18.3099247913
 30
0.0
 10
-4.7640189713
 20
18.2998189386
 30
0.0
 11
-1.2284400812
 21
16.5597625014
 31
0.0
 11
-2.0956231295
 21
17.3191420663
 31
0.0
 11
-2.998549294
 21
17.875907469
 31
0.0
 11
-3.4518998459
 21
18.0708580044
 31
0.0
 11
-3.9002980317
 21
18.2073303151
 31
0.0
 11
-4.7640189713
 21
18.2998189386
 31
0.0
  0
SPLINE
  5
35B
100
AcDbEntity
  8
DRAFT
100
AcDbSpline
 62
7
  6
CONTINUOUS
 70
0
 71
3
 72
9
 73
5
 74
3
 42
0.0000001
 43
0.0000001
 44
0.0000000001
 12
-0.3281886732
 22
-1.3390144218
 32
0.0
 13
0.0
 23
-1.3786469552
 33
0.0
 40
0.0
 40
0.0
 40
0.0
 40
0.0
 40
0.2387378289
 40
1.0
 40
1.0
 40
1.0
 40
1.0
 10
3.3645758634
 20
-3.0651991837
 30
0.0
 10
3.3384588463
 20
-3.1717569824
 30
0.0
 10
3.2444778166
 20
-3.6218411694
 30
0.0
 10
3.2094921117
 20
-4.0833359225
 30
0.0
 10
3.2094921117
 20
-4.4331731806
 30
0.0
 11
3.3645758634
 21
-3.0651991837
 31
0.0
 11
3.2969476752
 21
-3.3873115795
 31
0.0
 11
3.2094921117
 21
-4.4331731806
 31
0.0
  0
SPLINE
  5
35C
100
AcDbEntity
  8
DRAFT
100
AcDbSpline
 62
7
  6
CONTINUOUS
 70
0
 71
3
 72
11
 73
7
 74
5
 42
0.0000001
 43
0.0000001
 44
0.0000000001
 12
-2.2026813564
 22
-2.2794758704
 32
0.0
 13
-0.0
 23
-3.1698289231
 33
0.0
 40
0.0
 40
0.0
 40
0.0
 40
0.0
 40
0.2205178734
 40
0.458920773
 40
0.7185682386
 40
1.0
 40
1.0
 40
1.0
 40
1.0
 10
1.7935999319
 20
-2.7701167874
 30
0.0
 10
1.631689729
 20
-2.9376718445
 30
0.0
 10
1.3403743333
 20
-3.332325393
 30
0.0
 10
1.0347080242
 20
-4.0327518651
 30
0.0
 10
0.8507961002
 20
-4.8396856142
 30
0.0
 10
0.8131727984
 20
-5.4125237457
 30
0.0
 10
0.8131727984
 20
-5.7098872581
 30
0.0
 11
1.7935999319
 21
-2.7701167874
 31
0.0
 11
1.3739160108
 21
-3.3291086522
 31
0.0
 11
1.0653635318
 21
-4.0189437242
 31
0.0
 11
0.8766697568
 21
-4.8200593744
 31
0.0
 11
0.8131727984
 21
-5.7098872581
 31
0.0
  0
SPLINE
  5
35D
100
AcDbEntity
  8
DRAFT
100
AcDbSpline
 62
7
  6
CONTINUOUS
 70
0
 71
3
 72
15
 73
11
 74
9
 42
0.0000001
 43
0.0000001
 44
0.0000000001
 12
0.0
 22
-9.7852799909
 32
0.0
 13
8.9814383972
 23
-3.88400165
 33
0.0
 40
0.0
 40
0.0
 40
0.0
 40
0.0
 40
0.1206081031
 40
0.2486824945
 40
0.3813466217
 40
0.5152798986
 40
0.6470519724
 40
0.7734268525
 40
0.8916870964
 40
1.0
 40
1.0
 40
1.0
 40
1.0
 10
-18.0037113239
 20
6.1734285372
 30
0.0
 10
-18.0037113239
 20
5.7800338513
 30
0.0
 10
-17.9343686184
 20
4.9680307097
 30
0.0
 10
-17.6534854414
 20
3.7527538914
 30
0.0
 10
-17.2034139079
 20
2.5429666539
 30
0.0
 10
-16.6021585342
 20
1.3873544091
 30
0.0
 10
-15.8738050586
 20
0.3319893457
 30
0.0
 10
-15.0470170549
 20
-0.5810787368
 30
0.0
 10
-14.1547733039
 20
-1.315346825
 30
0.0
 10
-13.5077487895
 20
-1.6834349459
 30
0.0
 10
-13.1834802324
 20
-1.8236641113
 30
0.0
 11
-18.0037113239
 21
6.1734285372
 31
0.0
 11
-17.9096771137
 21
4.9969966535
 31
0.0
 11
-17.6314621768
 21
3.7750243045
 31
0.0
 11
-17.1805063709
 21
2.5577129644
 31
0.0
 11
-16.5753774833
 21
1.3952049644
 31
0.0
 11
-15.8409858841
 21
0.3353511862
 31
0.0
 11
-15.0075549087
 21
-0.578216529
 31
0.0
 11
-14.1093975875
 21
-1.3079065177
 31
0.0
 11
-13.1834802324
 21
-1.8236641113
 31
0.0
  0
SPLINE
  5
35E
100
AcDbEntity
  8
DRAFT
100
AcDbSpline
 62
7
  6
CONTINUOUS
 70
0
 71
3
 72
11
 73
7
 74
5
 42
0.0000001
 43
0.0000001
 44
0.0000000001
 12
-2.2050020849
 22
-2.27930177
 32
0.0
 13
0.0
 23
-3.17131688
 33
0.0
 40
0.0
 40
0.0
 40
0.0
 40
0.0
 40
0.220506491
 40
0.4589009921
 40
0.7185512879
 40
1.0
 40
1.0
 40
1.0
 40
1.0
 10
-19.4185626458
 20
7.8375614688
 30
0.0
 10
-19.58063507
 20
7.670027857
 30
0.0
 10
-19.8722615705
 20
7.2753326705
 30
0.0
 10
-20.1782580413
 20
6.5746698514
 30
0.0
 10
-20.3623686572
 20
5.7673649318
 30
0.0
 10
-20.4000306372
 20
5.1942354769
 30
0.0
 10
-20.4000306372
 20
4.8967144597
 30
0.0
 11
-19.4185626458
 21
7.8375614688
 31
0.0
 11
-19.8386817346
 21
7.2785312487
 31
0.0
 11
-20.1475641754
 21
6.5884843732
 31
0.0
 11
-20.3364637533
 21
5.7870110688
 31
0.0
 11
-20.4000306372
 21
4.8967144597
 31
0.0
  0
SPLINE
  5
35F
100
AcDbEntity
  8
RACCORDO
100
AcDbSpline
 62
7
  6
CONTINUOUS
 70
0
 71
3
 72
9
 73
5
 74
3
 42
0.0000001
 43
0.0000001
 44
0.0000000001
 12
-0.2449485015
 22
-0.2919547838
 32
0.0
 13
-0.1625749419
 23
-0.344683554
 33
0.0
 40
0.0
 40
0.0
 40
0.0
 40
0.0
 40
0.2425704973
 40
1.0
 40
1.0
 40
1.0
 40
1.0
 10
-6.4559749149
 20
-22.9065479723
 30
0.0
 10
-6.4757806748
 20
-22.9301545113
 30
0.0
 10
-6.5539985529
 20
-23.0303340942
 30
0.0
 10
-6.6183092297
 20
-23.1411032289
 30
0.0
 10
-6.6593555821
 20
-23.2281277266
 30
0.0
 11
-6.4559749149
 21
-22.9065479723
 31
0.0
 11
-6.5129090681
 21
-22.9793788277
 31
0.0
 11
-6.6593555821
 21
-23.2281277266
 31
0.0
  0
SPLINE
  5
360
100
AcDbEntity
  8
RACCORDO
100
AcDbSpline
 62
253
  6
CONTINUOUS
 70
0
 71
3
 72
15
 73
11
 74
9
 42
0.0000001
 43
0.0000001
 44
0.0000000001
 12
-0.0002598529
 22
6.9159277974
 32
0.0
 13
-6.1856408248
 23
3.0932030249
 33
0.0
 40
0.0
 40
0.0
 40
0.0
 40
0.0
 40
0.119775971
 40
0.2468107906
 40
0.3784620382
 40
0.5116669833
 40
0.6432374922
 40
0.7701218536
 40
0.8896781975
 40
1.0
 40
1.0
 40
1.0
 40
1.0
 10
14.1272921963
 20
10.5170492785
 30
0.0
 10
14.1272818216
 20
10.7931699343
 30
0.0
 10
14.0803520207
 20
11.3627231328
 30
0.0
 10
13.889402711
 20
12.216390603
 30
0.0
 10
13.5827536357
 20
13.0686227145
 30
0.0
 10
13.1718382251
 20
13.8873313153
 30
0.0
 10
12.6720808436
 20
14.6419806608
 30
0.0
 10
12.1019318421
 20
15.3044048553
 30
0.0
 10
11.4827492955
 20
15.8498317991
 30
0.0
 10
11.0318668435
 20
16.1344473532
 30
0.0
 10
10.804396495
 20
16.2481965976
 30
0.0
 11
14.1272921963
 21
10.5170492785
 31
0.0
 11
14.0634575069
 21
11.3429479905
 31
0.0
 11
13.8743925661
 21
12.2009273135
 31
0.0
 11
13.5673436535
 21
13.0580818844
 31
0.0
 11
13.1540976225
 21
13.8814305869
 31
0.0
 11
12.6505431772
 21
14.6393286154
 31
0.0
 11
12.0760316219
 21
15.3026409345
 31
0.0
 11
11.4526796845
 21
15.8458736466
 31
0.0
 11
10.804396495
 21
16.2481965976
 31
0.0
  0
SPLINE
  5
361
100
AcDbEntity
  8
RACCORDO
100
AcDbSpline
 62
253
  6
CONTINUOUS
 70
0
 71
3
 72
19
 73
15
 74
13
 42
0.0000001
 43
0.0000001
 44
0.0000000001
 12
4.548109217
 22
-2.0111173025
 32
0.0
 13
0.0002050705
 23
4.9729156651
 33
0.0
 40
0.0
 40
0.0
 40
0.0
 40
0.0
 40
0.1322571103
 40
0.2527069469
 40
0.3097364744
 40
0.3654115277
 40
0.4205135253
 40
0.475868082
 40
0.5322810173
 40
0.5904774985
 40
0.7142411755
 40
0.7807907343
 40
0.8506238178
 40
1.0
 40
1.0
 40
1.0
 40
1.0
 10
10.9609792522
 20
-33.0660505363
 30
0.0
 10
11.1614858463
 20
-33.1547120572
 30
0.0
 10
11.5618013699
 20
-33.289556925
 30
0.0
 10
12.0795985398
 20
-33.3348814116
 30
0.0
 10
12.464192421
 20
-33.2853655771
 30
0.0
 10
12.7327593022
 20
-33.2088172062
 30
0.0
 10
12.9837459189
 20
-33.092788847
 30
0.0
 10
13.2146087453
 20
-32.9384305539
 30
0.0
 10
13.4230967881
 20
-32.7473523556
 30
0.0
 10
13.673650765
 20
-32.4403245943
 30
0.0
 10
13.8657558618
 20
-32.0702889442
 30
0.0
 10
13.9995753495
 20
-31.659878261
 30
0.0
 10
14.1004153228
 20
-31.1963314083
 30
0.0
 10
14.1272819855
 20
-30.8316501557
 30
0.0
 10
14.1272921963
 20
-30.5840384368
 30
0.0
 11
10.9609792522
 21
-33.0660505363
 31
0.0
 11
11.5865706304
 21
-33.2690511854
 31
0.0
 11
12.183804872
 21
-33.3148392109
 31
0.0
 11
12.4650106444
 21
-33.2780425711
 31
0.0
 11
12.7311669223
 21
-33.2017774918
 31
0.0
 11
12.9798657841
 21
-33.0867361327
 31
0.0
 11
13.2088448758
 21
-32.9339483755
 31
0.0
 11
13.416034114
 21
-32.7448095404
 31
0.0
 11
13.5995573252
 21
-32.5210347083
 31
0.0
 11
13.8891682409
 21
-31.9779653581
 31
0.0
 11
13.9926412872
 21
-31.6636118161
 31
0.0
 11
14.0672218582
 21
-31.3244407769
 31
0.0
 11
14.1272921963
 21
-30.5840384368
 31
0.0
  0
SPLINE
  5
362
100
AcDbEntity
  8
RACCORDO
100
AcDbSpline
 62
253
  6
CONTINUOUS
 70
0
 71
3
 72
9
 73
5
 74
3
 42
0.0000001
 43
0.0000001
 44
0.0000000001
 12
0.0648538895
 22
-0.2008005019
 32
0.0
 13
0.1887500657
 23
-0.0943413019
 33
0.0
 40
0.0
 40
0.0
 40
0.0
 40
0.0
 40
0.5279610095
 40
1.0
 40
1.0
 40
1.0
 40
1.0
 10
1.9821396802
 20
-28.4819129546
 30
0.0
 10
1.9935531219
 20
-28.5172512332
 30
0.0
 10
2.0268204026
 20
-28.5806430996
 30
0.0
 10
2.0803082324
 20
-28.6302512307
 30
0.0
 10
2.1100073626
 20
-28.6450954884
 30
0.0
 11
1.9821396802
 21
-28.4819129546
 31
0.0
 11
2.0343171091
 21
-28.5803459834
 31
0.0
 11
2.1100073626
 21
-28.6450954884
 31
0.0
  0
SPLINE
  5
363
100
AcDbEntity
  8
RACCORDO
100
AcDbSpline
 62
253
  6
CONTINUOUS
 70
0
 71
3
 72
12
 73
8
 74
6
 42
0.0000001
 43
0.0000001
 44
0.0000000001
 12
3.6248027745
 22
-1.2151407821
 32
0.0
 13
1.2016152905
 23
-3.629308883
 33
0.0
 40
0.0
 40
0.0
 40
0.0
 40
0.0
 40
0.216500355
 40
0.3367688854
 40
0.463524741
 40
0.7296457585
 40
1.0
 40
1.0
 40
1.0
 40
1.0
 10
-0.4545274636
 20
-25.6409875345
 30
0.0
 10
-0.1929371011
 20
-25.7286803381
 30
0.0
 10
0.189578767
 20
-25.9412622461
 30
0.0
 10
0.6446166376
 20
-26.3184350469
 30
0.0
 10
1.0980819385
 20
-26.7916715718
 30
0.0
 10
1.5827363259
 20
-27.4909744273
 30
0.0
 10
1.86245252
 20
-28.119998062
 30
0.0
 10
1.9707397835
 20
-28.4470644121
 30
0.0
 11
-0.4545274636
 21
-25.6409875345
 31
0.0
 11
0.2774277514
 21
-26.027403726
 31
0.0
 11
0.6325101033
 21
-26.3195107278
 31
0.0
 11
0.9686702655
 21
-26.6685501004
 31
0.0
 11
1.5520063539
 21
-27.5021045855
 31
0.0
 11
1.9707397835
 21
-28.4470644121
 31
0.0
  0
SPLINE
  5
364
100
AcDbEntity
  8
RACCORDO
100
AcDbSpline
 62
253
  6
CONTINUOUS
 70
0
 71
3
 72
9
 73
5
 74
3
 42
0.0000001
 43
0.0000001
 44
0.0000000001
 12
4.6102744915
 22
-3.0346771187
 32
0.0
 13
5.233188388
 23
-1.7543190696
 33
0.0
 40
0.0
 40
0.0
 40
0.0
 40
0.0
 40
0.5160413621
 40
1.0
 40
1.0
 40
1.0
 40
1.0
 10
-5.3872999603
 20
-23.1904077037
 30
0.0
 10
-4.5942691842
 20
-23.7124140083
 30
0.0
 10
-3.0002324973
 20
-24.6405832229
 30
0.0
 10
-1.2987430383
 20
-25.3579815787
 30
0.0
 10
-0.4545274636
 20
-25.6409875345
 30
0.0
 11
-5.3872999603
 21
-23.1904077037
 31
0.0
 11
-2.9204769258
 21
-24.6142334168
 31
0.0
 11
-0.4545274636
 21
-25.6409875345
 31
0.0
  0
SPLINE
  5
365
100
AcDbEntity
  8
RACCORDO
100
AcDbSpline
 62
253
  6
CONTINUOUS
 70
0
 71
3
 72
15
 73
11
 74
9
 42
0.0000001
 43
0.0000001
 44
0.0000000001
 12
1.2286958949
 22
2.5733393017
 32
0.0
 13
2.3747721803
 23
-1.5786785156
 33
0.0
 40
0.0
 40
0.0
 40
0.0
 40
0.0
 40
0.1239464981
 40
0.2403964377
 40
0.3531479583
 40
0.4667430887
 40
0.5855475674
 40
0.7129252022
 40
0.8508626827
 40
1.0
 40
1.0
 40
1.0
 40
1.0
 10
-7.9218366422
 20
-23.5299247935
 30
0.0
 10
-7.8710724577
 20
-23.4236059952
 30
0.0
 10
-7.7525788984
 20
-23.2258820229
 30
0.0
 10
-7.5169293108
 20
-22.9823317293
 30
0.0
 10
-7.2354936433
 20
-22.8108258851
 30
0.0
 10
-6.917194938
 20
-22.7175308731
 30
0.0
 10
-6.5723741995
 20
-22.7043126784
 30
0.0
 10
-6.2106621016
 20
-22.769753903
 30
0.0
 10
-5.8408140748
 20
-22.9107013861
 30
0.0
 10
-5.6032252157
 20
-23.0471865576
 30
0.0
 10
-5.4851694984
 20
-23.1256665171
 30
0.0
 11
-7.9218366422
 21
-23.5299247935
 31
0.0
 11
-7.7377402672
 21
-23.2282051746
 31
0.0
 11
-7.5053668812
 21
-22.9909833821
 31
0.0
 11
-7.2305021741
 21
-22.8241667168
 31
0.0
 11
-6.9199874951
 21
-22.7319073633
 31
0.0
 11
-6.5815520455
 21
-22.7165018283
 31
0.0
 11
-6.2236200854
 21
-22.778333559
 31
0.0
 11
-5.8551005527
 21
-22.915863459
 31
0.0
 11
-5.4851694984
 21
-23.1256665171
 31
0.0
  0
SPLINE
  5
366
100
AcDbEntity
  8
RACCORDO
100
AcDbSpline
 62
253
  6
CONTINUOUS
 70
0
 71
3
 72
11
 73
7
 74
5
 42
0.0000001
 43
0.0000001
 44
0.0000000001
 12
0.1334528353
 22
-0.0667502668
 32
0.0
 13
0.0642475373
 23
0.134675578
 33
0.0
 40
0.0
 40
0.0
 40
0.0
 40
0.0
 40
0.2777787406
 40
0.5212578604
 40
0.7523421238
 40
1.0
 40
1.0
 40
1.0
 40
1.0
 10
-8.0497043245
 20
-23.5652396448
 30
0.0
 10
-8.0373475377
 20
-23.5714202465
 30
0.0
 10
-8.0124440443
 20
-23.5802222105
 30
0.0
 10
-7.9739071282
 20
-23.5791049896
 30
0.0
 10
-7.9412020316
 20
-23.56123034
 30
0.0
 10
-7.9271404451
 20
-23.541042616
 30
0.0
 10
-7.9218366422
 20
-23.5299247935
 30
0.0
 11
-8.0497043245
 21
-23.5652396448
 31
0.0
 11
-8.0102951246
 21
-23.5780819626
 31
0.0
 11
-7.9740140711
 21
-23.5761803933
 31
0.0
 11
-7.9437274217
 21
-23.5596976083
 31
0.0
 11
-7.9218366422
 21
-23.5299247935
 31
0.0
  0
SPLINE
  5
367
100
AcDbEntity
  8
RACCORDO
100
AcDbSpline
 62
253
  6
CONTINUOUS
 70
0
 71
3
 72
12
 73
8
 74
6
 42
0.0000001
 43
0.0000001
 44
0.0000000001
 12
1.4945771688
 22
-4.8630106423
 32
0.0
 13
4.5502837388
 23
-2.275423327
 33
0.0
 40
0.0
 40
0.0
 40
0.0
 40
0.0
 40
0.2639325134
 40
0.5268276224
 40
0.6538513261
 40
0.7758569743
 40
1.0
 40
1.0
 40
1.0
 40
1.0
 10
-19.7801974023
 20
-15.284402303
 30
0.0
 10
-19.6487082328
 20
-15.7122378434
 30
0.0
 10
-19.3066175062
 20
-16.5433803459
 30
0.0
 10
-18.7114042372
 20
-17.4860387263
 30
0.0
 10
-18.1490816623
 20
-18.1493644246
 30
0.0
 10
-17.5715065151
 20
-18.707109247
 30
0.0
 10
-17.084064912
 20
-19.0480383222
 30
0.0
 10
-16.7440934569
 20
-19.2180450786
 30
0.0
 11
-19.7801974023
 21
-15.284402303
 31
0.0
 11
-19.2714357603
 21
-16.5270428197
 31
0.0
 11
-18.5543716369
 21
-17.6560544166
 31
0.0
 11
-18.1356523129
 21
-18.1482850223
 31
0.0
 11
-17.6881151044
 21
-18.578381795
 31
0.0
 11
-16.7440934569
 21
-19.2180450786
 31
0.0
  0
SPLINE
  5
368
100
AcDbEntity
  8
RACCORDO
100
AcDbSpline
 62
253
  6
CONTINUOUS
 70
0
 71
3
 72
18
 73
14
 74
12
 42
0.0000001
 43
0.0000001
 44
0.0000000001
 12
-4.6014850678
 22
2.3004831909
 32
0.0
 13
-0.0002121463
 23
-5.1445007237
 33
0.0
 40
0.0
 40
0.0
 40
0.0
 40
0.0
 40
0.1347796373
 40
0.2569449513
 40
0.3144282823
 40
0.3702681169
 40
0.4252630054
 40
0.4802800747
 40
0.5361848205
 40
0.5937701964
 40
0.7162303239
 40
0.8513494202
 40
1.0
 40
1.0
 40
1.0
 40
1.0
 10
-16.7440934569
 20
30.0224415736
 30
0.0
 10
-16.9508222864
 20
30.1257943369
 30
0.0
 10
-17.36431959
 20
30.2880102208
 30
0.0
 10
-17.9048225304
 20
30.3638908428
 30
0.0
 10
-18.308826318
 20
30.3329066803
 30
0.0
 10
-18.5911419016
 20
30.267385503
 30
0.0
 10
-18.8556481421
 20
30.1595767131
 30
0.0
 10
-19.0994817137
 20
30.0106025433
 30
0.0
 10
-19.3200576719
 20
29.8221121991
 30
0.0
 10
-19.5854842625
 20
29.5149474961
 30
0.0
 10
-19.8465089451
 20
29.0340125396
 30
0.0
 10
-20.0299026798
 20
28.3571687929
 30
0.0
 10
-20.0669786464
 20
27.8691009609
 30
0.0
 10
-20.0669891583
 20
27.6141899558
 30
0.0
 11
-16.7440934569
 21
30.0224415736
 31
0.0
 11
-17.3923765286
 21
30.2684019009
 31
0.0
 11
-18.0157282735
 21
30.3485214568
 31
0.0
 11
-18.3105284158
 21
30.3251764092
 31
0.0
 11
-18.5902398563
 21
30.2597206672
 31
0.0
 11
-18.8521702146
 21
30.1527771428
 31
0.0
 11
-19.0937942711
 21
30.0053769174
 31
0.0
 11
-19.3127886114
 21
29.8189462533
 31
0.0
 11
-19.5070401786
 21
29.5952741469
 31
0.0
 11
-19.8140890589
 21
29.0451685061
 31
0.0
 11
-20.0031543483
 21
28.3762540625
 31
0.0
 11
-20.0669891583
 21
27.6141899558
 31
0.0
  0
SPLINE
  5
369
100
AcDbEntity
  8
RACCORDO
100
AcDbSpline
 62
253
  6
CONTINUOUS
 70
0
 71
3
 72
11
 73
7
 74
5
 42
0.0000001
 43
0.0000001
 44
0.0000000001
 12
0.0
 22
0.8423821481
 32
0.0
 13
0.6117980853
 23
0.5790602613
 33
0.0
 40
0.0
 40
0.0
 40
0.0
 40
0.0
 40
0.2826964615
 40
0.5426030747
 40
0.7803150187
 40
1.0
 40
1.0
 40
1.0
 40
1.0
 10
-6.5316137555
 20
-2.1145766527
 30
0.0
 10
-6.5316137555
 20
-2.0351971685
 30
0.0
 10
-6.5211659374
 20
-1.8825080017
 30
0.0
 10
-6.4699812888
 20
-1.6682396041
 30
0.0
 10
-6.3848249595
 20
-1.4840683183
 30
0.0
 10
-6.303814334
 20
-1.3822386097
 30
0.0
 10
-6.2590133837
 20
-1.3398349955
 30
0.0
 11
-6.5316137555
 21
-2.1145766527
 31
0.0
 11
-6.5139019531
 21
-1.8770977807
 31
0.0
 11
-6.4613140914
 21
-1.6645665053
 31
0.0
 11
-6.3754707069
 21
-1.4836557754
 31
0.0
 11
-6.2590133837
 21
-1.3398349955
 31
0.0
  0
SPLINE
  5
36A
100
AcDbEntity
  8
RACCORDO
100
AcDbSpline
 62
253
  6
CONTINUOUS
 70
0
 71
3
 72
9
 73
5
 74
3
 42
0.0000001
 43
0.0000001
 44
0.0000000001
 12
-0.0648538895
 22
0.2008005019
 32
0.0
 13
-0.1887500657
 23
0.0943413019
 33
0.0
 40
0.0
 40
0.0
 40
0.0
 40
0.0
 40
0.5279610095
 40
1.0
 40
1.0
 40
1.0
 40
1.0
 10
-7.9218366422
 20
25.5120644737
 30
0.0
 10
-7.9332500838
 20
25.5474027522
 30
0.0
 10
-7.9665173646
 20
25.6107946186
 30
0.0
 10
-8.0200051944
 20
25.6604027497
 30
0.0
 10
-8.0497043245
 20
25.6752470074
 30
0.0
 11
-7.9218366422
 21
25.5120644737
 31
0.0
 11
-7.9740140711
 21
25.6104975024
 31
0.0
 11
-8.0497043245
 21
25.6752470074
 31
0.0
  0
SPLINE
  5
36B
100
AcDbEntity
  8
RACCORDO
100
AcDbSpline
 62
253
  6
CONTINUOUS
 70
0
 71
3
 72
12
 73
8
 74
6
 42
0.0000001
 43
0.0000001
 44
0.0000000001
 12
-3.6593994301
 22
1.2267386013
 32
0.0
 13
-1.1868446275
 23
3.6725320442
 33
0.0
 40
0.0
 40
0.0
 40
0.0
 40
0.0
 40
0.2165106684
 40
0.3368701008
 40
0.4637333623
 40
0.7299586484
 40
1.0
 40
1.0
 40
1.0
 40
1.0
 10
-5.4851694984
 20
22.6711390535
 30
0.0
 10
-5.7492691705
 20
22.7596730517
 30
0.0
 10
-6.1353083471
 20
22.9750577322
 30
0.0
 10
-6.5938332754
 20
23.3572762299
 30
0.0
 10
-7.050249889
 20
23.8369113142
 30
0.0
 10
-7.5363881633
 20
24.5449799897
 30
0.0
 10
-7.8150042664
 20
25.181485968
 30
0.0
 10
-7.9218366422
 20
25.5120644737
 30
0.0
 11
-5.4851694984
 21
22.6711390535
 31
0.0
 11
-6.2236200273
 21
23.062256641
 31
0.0
 11
-6.5815519977
 21
23.358356867
 31
0.0
 11
-6.9199874406
 21
23.7121978329
 31
0.0
 11
-7.5053668408
 21
24.5566532277
 31
0.0
 11
-7.9218366422
 21
25.5120644737
 31
0.0
  0
SPLINE
  5
36C
100
AcDbEntity
  8
RACCORDO
100
AcDbSpline
 62
253
  6
CONTINUOUS
 70
0
 71
3
 72
9
 73
5
 74
3
 42
0.0000001
 43
0.0000001
 44
0.0000000001
 12
-4.693985163
 22
3.1204229151
 32
0.0
 13
-5.3442395463
 23
1.7915466926
 33
0.0
 40
0.0
 40
0.0
 40
0.0
 40
0.0
 40
0.5163330612
 40
1.0
 40
1.0
 40
1.0
 40
1.0
 10
-0.4545274636
 20
20.1558180361
 30
0.0
 10
-1.2624140398
 20
20.6928772081
 30
0.0
 10
-2.8868550679
 20
21.6468967905
 30
0.0
 10
-4.6235588378
 20
22.382301752
 30
0.0
 10
-5.4851694984
 20
22.6711390535
 30
0.0
 11
-0.4545274636
 21
20.1558180361
 31
0.0
 11
-2.9698484853
 21
21.6197782902
 31
0.0
 11
-5.4851694984
 21
22.6711390535
 31
0.0
  0
SPLINE
  5
36D
100
AcDbEntity
  8
RACCORDO
100
AcDbSpline
 62
253
  6
CONTINUOUS
 70
0
 71
3
 72
15
 73
11
 74
9
 42
0.0000001
 43
0.0000001
 44
0.0000000001
 12
-1.2286958949
 22
-2.5733393017
 32
0.0
 13
-2.3747721803
 23
1.5786785156
 33
0.0
 40
0.0
 40
0.0
 40
0.0
 40
0.0
 40
0.1239464981
 40
0.2403964377
 40
0.3531479583
 40
0.4667430887
 40
0.5855475674
 40
0.7129252022
 40
0.8508626827
 40
1.0
 40
1.0
 40
1.0
 40
1.0
 10
1.9821396802
 20
20.5600763125
 30
0.0
 10
1.9313754957
 20
20.4537575142
 30
0.0
 10
1.8128819365
 20
20.256033542
 30
0.0
 10
1.5772323488
 20
20.0124832484
 30
0.0
 10
1.2957966813
 20
19.8409774041
 30
0.0
 10
0.9774979761
 20
19.7476823921
 30
0.0
 10
0.6326772375
 20
19.7344641974
 30
0.0
 10
0.2709651396
 20
19.799905422
 30
0.0
 10
-0.0988828871
 20
19.9408529051
 30
0.0
 10
-0.3364717462
 20
20.0773380766
 30
0.0
 10
-0.4545274636
 20
20.1558180361
 30
0.0
 11
1.9821396802
 21
20.5600763125
 31
0.0
 11
1.7980433052
 21
20.2583566936
 31
0.0
 11
1.5656699192
 21
20.0211349011
 31
0.0
 11
1.2908052122
 21
19.8543182358
 31
0.0
 11
0.9802905332
 21
19.7620588824
 31
0.0
 11
0.6418550836
 21
19.7466533473
 31
0.0
 11
0.2839231234
 21
19.808485078
 31
0.0
 11
-0.0845964093
 21
19.946014978
 31
0.0
 11
-0.4545274636
 21
20.1558180361
 31
0.0
  0
SPLINE
  5
36E
100
AcDbEntity
  8
RACCORDO
100
AcDbSpline
 62
253
  6
CONTINUOUS
 70
0
 71
3
 72
11
 73
7
 74
5
 42
0.0000001
 43
0.0000001
 44
0.0000000001
 12
-0.1334528353
 22
0.0667502668
 32
0.0
 13
-0.0642475373
 23
-0.134675578
 33
0.0
 40
0.0
 40
0.0
 40
0.0
 40
0.0
 40
0.2777787406
 40
0.5212578604
 40
0.7523421238
 40
1.0
 40
1.0
 40
1.0
 40
1.0
 10
2.1100073626
 20
20.5953911638
 30
0.0
 10
2.0976505757
 20
20.6015717655
 30
0.0
 10
2.0727470824
 20
20.6103737295
 30
0.0
 10
2.0342101663
 20
20.6092565086
 30
0.0
 10
2.0015050696
 20
20.591381859
 30
0.0
 10
1.9874434831
 20
20.571194135
 30
0.0
 10
1.9821396802
 20
20.5600763125
 30
0.0
 11
2.1100073626
 21
20.5953911638
 31
0.0
 11
2.0705981626
 21
20.6082334816
 31
0.0
 11
2.0343171091
 21
20.6063319123
 31
0.0
 11
2.0040304597
 21
20.5898491273
 31
0.0
 11
1.9821396802
 21
20.5600763125
 31
0.0
  0
SPLINE
  5
36F
100
AcDbEntity
  8
RACCORDO
100
AcDbSpline
 62
253
  6
CONTINUOUS
 70
0
 71
3
 72
11
 73
7
 74
5
 42
0.0000001
 43
0.0000001
 44
0.0000000001
 12
0.0635501418
 22
1.8802363238
 32
0.0
 13
1.6511629688
 23
0.9016585298
 33
0.0
 40
0.0
 40
0.0
 40
0.0
 40
0.0
 40
0.2466046576
 40
0.5093546769
 40
0.7670319142
 40
1.0
 40
1.0
 40
1.0
 40
1.0
 10
-11.2140192629
 20
16.7744459638
 30
0.0
 10
-11.2087953426
 20
16.9290043088
 30
0.0
 10
-11.1489402937
 20
17.24721288
 30
0.0
 10
-10.9515101455
 20
17.6899758359
 30
0.0
 10
-10.6664892317
 20
18.0715489053
 30
0.0
 10
-10.4226416326
 20
18.2678158685
 30
0.0
 10
-10.2944188738
 20
18.3378350891
 30
0.0
 11
-11.2140192629
 21
16.7744459638
 31
0.0
 11
-11.1341363278
 21
17.23145675
 31
0.0
 11
-10.9341636932
 21
17.6835159361
 31
0.0
 11
-10.6410809894
 21
18.0696573837
 31
0.0
 11
-10.2944188738
 21
18.3378350891
 31
0.0
  0
SPLINE
  5
370
100
AcDbEntity
  8
RACCORDO
100
AcDbSpline
 62
253
  6
CONTINUOUS
 70
0
 71
3
 72
9
 73
5
 74
3
 42
0.0000001
 43
0.0000001
 44
0.0000000001
 12
0.0979385822
 22
0.0369781657
 32
0.0
 13
0.0929795073
 23
-0.048105736
 33
0.0
 40
0.0
 40
0.0
 40
0.0
 40
0.0
 40
0.4658287121
 40
1.0
 40
1.0
 40
1.0
 40
1.0
 10
6.3161375044
 20
20.2699489648
 30
0.0
 10
6.3313450389
 20
20.2756907952
 30
0.0
 10
6.367650634
 20
20.2789924471
 30
0.0
 10
6.4013010589
 20
20.2669748638
 30
0.0
 10
6.41785672
 20
20.2584092961
 30
0.0
 11
6.3161375044
 21
20.2699489648
 31
0.0
 11
6.3645932538
 21
20.275442585
 31
0.0
 11
6.41785672
 21
20.2584092961
 31
0.0
  0
SPLINE
  5
371
100
AcDbEntity
  8
RACCORDO
100
AcDbSpline
 62
253
  6
CONTINUOUS
 70
0
 71
3
 72
11
 73
7
 74
5
 42
0.0000001
 43
0.0000001
 44
0.0000000001
 12
0.0000000006
 22
-0.576302702
 32
0.0
 13
-0.4839289583
 23
-0.3129497845
 33
0.0
 40
0.0
 40
0.0
 40
0.0
 40
0.0
 40
0.2874285034
 40
0.5475927338
 40
0.7825385713
 40
1.0
 40
1.0
 40
1.0
 40
1.0
 10
15.6865970207
 20
-24.9217264377
 30
0.0
 10
15.6865970208
 20
-24.976941712
 30
0.0
 10
15.6782788295
 20
-25.0824639166
 30
0.0
 10
15.6368008341
 20
-25.2281988153
 30
0.0
 10
15.567685335
 20
-25.3482283565
 30
0.0
 10
15.5025272903
 20
-25.4083842176
 30
0.0
 10
15.4674486627
 20
-25.4310690534
 30
0.0
 11
15.6865970207
 21
-24.9217264377
 31
0.0
 11
15.6721596951
 21
-25.0867418986
 31
0.0
 11
15.6294503612
 21
-25.2304635808
 31
0.0
 11
15.560251087
 21
-25.3468448467
 31
0.0
 11
15.4674486627
 21
-25.4310690534
 31
0.0
  0
SPLINE
  5
372
100
AcDbEntity
  8
RACCORDO
100
AcDbSpline
 62
253
  6
CONTINUOUS
 70
0
 71
3
 72
11
 73
7
 74
5
 42
0.0000001
 43
0.0000001
 44
0.0000000001
 12
0.0000000006
 22
-0.576302702
 32
0.0
 13
-0.4839289583
 23
-0.3129497845
 33
0.0
 40
0.0
 40
0.0
 40
0.0
 40
0.0
 40
0.2874285034
 40
0.5475927338
 40
0.7825385713
 40
1.0
 40
1.0
 40
1.0
 40
1.0
 10
15.6865970207
 20
7.1212135024
 30
0.0
 10
15.6865970208
 20
7.065998228
 30
0.0
 10
15.6782788295
 20
6.9604760235
 30
0.0
 10
15.6368008341
 20
6.8147411248
 30
0.0
 10
15.567685335
 20
6.6947115835
 30
0.0
 10
15.5025272903
 20
6.6345557224
 30
0.0
 10
15.4674486627
 20
6.6118708866
 30
0.0
 11
15.6865970207
 21
7.1212135024
 31
0.0
 11
15.6721596951
 21
6.9561980414
 31
0.0
 11
15.6294503612
 21
6.8124763592
 31
0.0
 11
15.560251087
 21
6.6960950934
 31
0.0
 11
15.4674486627
 21
6.6118708866
 31
0.0
  0
SPLINE
  5
373
100
AcDbEntity
  8
RACCORDO
100
AcDbSpline
 62
253
  6
CONTINUOUS
 70
0
 71
3
 72
9
 73
5
 74
3
 42
0.0000001
 43
0.0000001
 44
0.0000000001
 12
-0.0650302467
 22
0.0313310776
 32
0.0
 13
-0.0624033667
 23
-0.0362820788
 33
0.0
 40
0.0
 40
0.0
 40
0.0
 40
0.0
 40
0.5419654957
 40
1.0
 40
1.0
 40
1.0
 40
1.0
 10
-1.12911668
 20
13.8812098148
 30
0.0
 10
-1.1408647299
 20
13.8868699359
 30
0.0
 10
-1.1644790739
 20
13.8944697175
 30
0.0
 10
-1.1895586076
 20
13.889398885
 30
0.0
 10
-1.1990862394
 20
13.8838594037
 30
0.0
 11
-1.12911668
 21
13.8812098148
 31
0.0
 11
-1.1668914144
 21
13.8913858783
 31
0.0
 11
-1.1990862394
 21
13.8838594037
 31
0.0
  0
SPLINE
  5
374
100
AcDbEntity
  8
RACCORDO
100
AcDbSpline
 62
253
  6
CONTINUOUS
 70
0
 71
3
 72
10
 73
6
 74
4
 42
0.0000001
 43
0.0000001
 44
0.0000000001
 12
-0.0638648797
 22
0.0318743485
 32
0.0
 13
0.0022986401
 23
0.0713401234
 33
0.0
 40
0.0
 40
0.0
 40
0.0
 40
0.0
 40
0.3100958123
 40
0.5775892413
 40
1.0
 40
1.0
 40
1.0
 40
1.0
 10
-2.1175893509
 20
12.1274580173
 30
0.0
 10
-2.1241907615
 20
12.1307527179
 30
0.0
 10
-2.1360920201
 20
12.1378556725
 30
0.0
 10
-2.1540133408
 20
12.1534101459
 30
0.0
 10
-2.1618581571
 20
12.1699030239
 30
0.0
 10
-2.1615345003
 20
12.1799479691
 30
0.0
 11
-2.1175893509
 21
12.1274580173
 31
0.0
 11
-2.1365230454
 21
12.1389217986
 31
0.0
 11
-2.1505576449
 21
12.1518666631
 31
0.0
 11
-2.1615345003
 21
12.1799479691
 31
0.0
  0
LINE
  5
375
100
AcDbEntity
  8
RACCORDO
100
AcDbLine
 62
253
  6
CONTINUOUS
 10
3.1612202067
 20
21.4084319462
 11
2.9886914823
 21
21.316500584
  0
LINE
  5
376
100
AcDbEntity
  8
RACCORDO
100
AcDbLine
 62
253
  6
CONTINUOUS
 10
2.9886914823
 20
21.316500584
 11
2.3184371824
 21
20.9593741249
  0
LINE
  5
377
100
AcDbEntity
  8
RACCORDO
100
AcDbLine
 62
253
  6
CONTINUOUS
 10
-7.8412745047
 20
26.0392299685
 11
-6.9795968251
 21
26.4788404622
  0
SPLINE
  5
378
100
AcDbEntity
  8
RACCORDO
100
AcDbSpline
 62
253
  6
CONTINUOUS
 70
0
 71
3
 72
10
 73
6
 74
4
 42
0.0000001
 43
0.0000001
 44
0.0000000001
 12
-0.0639526261
 22
0.0319309924
 32
0.0
 13
0.0018217097
 23
0.071457736
 33
0.0
 40
0.0
 40
0.0
 40
0.0
 40
0.0
 40
0.3086933535
 40
0.575686857
 40
1.0
 40
1.0
 40
1.0
 40
1.0
 10
-2.2345144436
 20
8.0879285295
 30
0.0
 10
-2.2410950271
 20
8.0912141579
 30
0.0
 10
-2.2529685239
 20
8.0983119703
 30
0.0
 10
-2.2708901324
 20
8.1139367949
 30
0.0
 10
-2.2787128951
 20
8.1304658742
 30
0.0
 10
-2.2784552366
 20
8.1405726931
 30
0.0
 11
-2.2345144436
 21
8.0879285295
 31
0.0
 11
-2.2533811092
 21
8.0993715986
 31
0.0
 11
-2.2673895508
 21
8.112333037
 31
0.0
 11
-2.2784552366
 21
8.1405726931
 31
0.0
  0
SPLINE
  5
379
100
AcDbEntity
  8
RACCORDO
100
AcDbSpline
 62
253
  6
CONTINUOUS
 70
0
 71
3
 72
11
 73
7
 74
5
 42
0.0000001
 43
0.0000001
 44
0.0000000001
 12
0.1927000846
 22
-0.0964852885
 32
0.0
 13
0.1969435367
 23
0.0874984391
 33
0.0
 40
0.0
 40
0.0
 40
0.0
 40
0.0
 40
0.2357221768
 40
0.5006137334
 40
0.7651762343
 40
1.0
 40
1.0
 40
1.0
 40
1.0
 10
-11.5452722707
 20
12.7433073703
 30
0.0
 10
-11.5301310429
 20
12.7357261295
 30
0.0
 10
-11.4954746183
 20
12.7246356156
 30
0.0
 10
-11.4405963009
 20
12.718396728
 30
0.0
 10
-11.3855447561
 20
12.7219546236
 30
0.0
 10
-11.3504775246
 20
12.731355644
 30
0.0
 10
-11.3350618503
 20
12.7382045483
 30
0.0
 11
-11.5452722707
 21
12.7433073703
 31
0.0
 11
-11.4972173601
 21
12.7268357741
 31
0.0
 11
-11.4405314899
 21
12.7200915667
 31
0.0
 11
-11.3836563588
 21
12.7240791002
 31
0.0
 11
-11.3350618503
 21
12.7382045483
 31
0.0
  0
SPLINE
  5
37A
100
AcDbEntity
  8
RACCORDO
100
AcDbSpline
 62
253
  6
CONTINUOUS
 70
0
 71
3
 72
11
 73
7
 74
5
 42
0.0000001
 43
0.0000001
 44
0.0000000001
 12
0.1925683631
 22
-0.0964595309
 32
0.0
 13
0.197633145
 23
0.085604647
 33
0.0
 40
0.0
 40
0.0
 40
0.0
 40
0.0
 40
0.2359907307
 40
0.5011437723
 40
0.7656840902
 40
1.0
 40
1.0
 40
1.0
 40
1.0
 10
-11.4241883527
 20
16.7807628631
 30
0.0
 10
-11.4090402365
 20
16.7731750114
 30
0.0
 10
-11.3744013068
 20
16.7620115432
 30
0.0
 10
-11.3195565145
 20
16.7555114524
 30
0.0
 10
-11.2645413493
 20
16.7586866225
 30
0.0
 10
-11.2294554598
 20
16.767759787
 30
0.0
 10
-11.2140192631
 20
16.7744459639
 30
0.0
 11
-11.4241883527
 21
16.7807628631
 31
0.0
 11
-11.3761382043
 21
16.7641932671
 31
0.0
 11
-11.3194621862
 21
16.7571846454
 31
0.0
 11
-11.2626000281
 21
16.7607806995
 31
0.0
 11
-11.2140192631
 21
16.7744459639
 31
0.0
  0
SPLINE
  5
37B
100
AcDbEntity
  8
RACCORDO
100
AcDbSpline
 62
253
  6
CONTINUOUS
 70
0
 71
3
 72
11
 73
7
 74
5
 42
0.0000001
 43
0.0000001
 44
0.0000000001
 12
0.194661688
 22
-0.1010007435
 32
0.0
 13
0.0097403683
 23
-0.2190877637
 33
0.0
 40
0.0
 40
0.0
 40
0.0
 40
0.0
 40
0.2299119416
 40
0.4899408891
 40
0.755444538
 40
1.0
 40
1.0
 40
1.0
 40
1.0
 10
-10.4041686958
 20
18.5187358228
 30
0.0
 10
-10.3892503469
 20
18.5109953971
 30
0.0
 10
-10.3606585519
 20
18.4883377768
 30
0.0
 10
-10.3269034447
 20
18.4441164846
 30
0.0
 10
-10.3029502835
 20
18.3927155097
 30
0.0
 10
-10.2952128939
 20
18.3556947921
 30
0.0
 10
-10.2944188738
 20
18.3378350891
 30
0.0
 11
-10.4041686958
 21
18.5187358228
 31
0.0
 11
-10.3638915204
 21
18.4884044685
 31
0.0
 11
-10.3288950137
 21
18.4433806444
 31
0.0
 11
-10.3045009612
 21
18.3905109533
 31
0.0
 11
-10.2944188738
 21
18.3378350891
 31
0.0
  0
SPLINE
  5
37C
100
AcDbEntity
  8
RACCORDO
100
AcDbSpline
 62
253
  6
CONTINUOUS
 70
0
 71
3
 72
10
 73
6
 74
4
 42
0.0000001
 43
0.0000001
 44
0.0000000001
 12
0.3823822107
 22
0.8008701238
 32
0.0
 13
0.8023379773
 23
0.3792926052
 33
0.0
 40
0.0
 40
0.0
 40
0.0
 40
0.0
 40
0.5170581405
 40
0.7607865124
 40
1.0
 40
1.0
 40
1.0
 40
1.0
 10
-7.5216208552
 20
-23.6325382395
 30
0.0
 10
-7.4557162436
 20
-23.4945061005
 30
0.0
 10
-7.3292363392
 20
-23.3021258752
 30
0.0
 10
-7.1060937539
 20
-23.1059674145
 30
0.0
 10
-6.9823701226
 20
-23.0324998843
 30
0.0
 10
-6.9183934341
 20
-23.0022559153
 30
0.0
 11
-7.5216208552
 21
-23.6325382395
 31
0.0
 11
-7.2638024695
 21
-23.2529380774
 31
0.0
 11
-7.1010216614
 21
-23.1104980498
 31
0.0
 11
-6.9183934341
 21
-23.0022559153
 31
0.0
  0
LINE
  5
37D
100
AcDbEntity
  8
RACCORDO
100
AcDbLine
 62
253
  6
CONTINUOUS
 10
-6.6593555821
 20
-23.2281277266
 11
-6.8415472125
 21
-23.3135708087
  0
LINE
  5
37E
100
AcDbEntity
  8
RACCORDO
100
AcDbLine
 62
253
  6
CONTINUOUS
 10
-6.8415472125
 20
-23.3135708087
 11
-7.5216208552
 21
-23.6325382395
  0
SPLINE
  5
37F
100
AcDbEntity
  8
RACCORDO
100
AcDbSpline
 62
253
  6
CONTINUOUS
 70
0
 71
3
 72
11
 73
7
 74
5
 42
0.0000001
 43
0.0000001
 44
0.0000000001
 12
-0.3854886859
 22
-0.187725764
 32
0.0
 13
-0.402109612
 23
0.1488299342
 33
0.0
 40
0.0
 40
0.0
 40
0.0
 40
0.0
 40
0.2399225103
 40
0.5075920472
 40
0.7712165394
 40
1.0
 40
1.0
 40
1.0
 40
1.0
 10
-21.9609878147
 20
3.5342354824
 30
0.0
 10
-21.9918169524
 20
3.5192222702
 30
0.0
 10
-22.0613720832
 20
3.4963758707
 30
0.0
 10
-22.1708836562
 20
3.4804987765
 30
0.0
 10
-22.279908744
 20
3.4822716197
 30
0.0
 10
-22.3496712662
 20
3.4963445185
 30
0.0
 10
-22.380336609
 20
3.507694461
 30
0.0
 11
-21.9609878147
 21
3.5342354824
 31
0.0
 11
-22.0581334093
 21
3.5003943254
 31
0.0
 11
-22.1716523655
 21
3.4835062846
 31
0.0
 11
-22.2846574706
 21
3.4860573981
 31
0.0
 11
-22.380336609
 21
3.507694461
 31
0.0
  0
SPLINE
  5
380
100
AcDbEntity
  8
RACCORDO
100
AcDbSpline
 62
253
  6
CONTINUOUS
 70
0
 71
3
 72
12
 73
8
 74
6
 42
0.0000001
 43
0.0000001
 44
0.0000000001
 12
-3.3288785878
 22
1.115938268
 32
0.0
 13
-1.07964756
 23
3.3408250502
 33
0.0
 40
0.0
 40
0.0
 40
0.0
 40
0.0
 40
0.2165150701
 40
0.336869953
 40
0.4637336191
 40
0.7299534458
 40
1.0
 40
1.0
 40
1.0
 40
1.0
 10
-5.3050196419
 20
23.0469425923
 30
0.0
 10
-5.5452704355
 20
23.1274817431
 30
0.0
 10
-5.8964457093
 20
23.3234088507
 30
0.0
 10
-6.3135442983
 20
23.6711193898
 30
0.0
 10
-6.7287368565
 20
24.1074169033
 30
0.0
 10
-7.1709687717
 20
24.7515320216
 30
0.0
 10
-7.4244202643
 20
25.3305475365
 30
0.0
 10
-7.5216052988
 20
25.6312736342
 30
0.0
 11
-5.3050196419
 21
23.0469425923
 31
0.0
 11
-5.9767853888
 21
23.4027427735
 31
0.0
 11
-6.30237072
 21
23.6720954233
 31
0.0
 11
-6.6102418891
 21
23.9939756437
 31
0.0
 11
-7.1427429362
 21
24.76213995
 31
0.0
 11
-7.5216052988
 21
25.6312736342
 31
0.0
  0
LINE
  5
381
100
AcDbEntity
  8
RACCORDO
100
AcDbLine
 62
253
  6
CONTINUOUS
 10
-7.5216052988
 20
25.6312736342
 11
-6.6593555821
 21
26.0691066903
  0
SPLINE
  5
382
100
AcDbEntity
  8
RACCORDO
100
AcDbSpline
 62
253
  6
CONTINUOUS
 70
0
 71
3
 72
9
 73
5
 74
3
 42
0.0000001
 43
0.0000001
 44
0.0000000001
 12
-4.7467600389
 22
3.1555060962
 32
0.0
 13
-5.4043252876
 23
1.8116892051
 33
0.0
 40
0.0
 40
0.0
 40
0.0
 40
0.0
 40
0.5163330685
 40
1.0
 40
1.0
 40
1.0
 40
1.0
 10
-0.2178176803
 20
20.5033416115
 30
0.0
 10
-1.0347874057
 20
21.0464389932
 30
0.0
 10
-2.6774920759
 20
22.0111848623
 30
0.0
 10
-4.4337218323
 20
22.7548578727
 30
0.0
 10
-5.3050196419
 20
23.0469425923
 30
0.0
 11
-0.2178176803
 21
20.5033416115
 31
0.0
 11
-2.7614186611
 21
21.9837613948
 31
0.0
 11
-5.3050196419
 21
23.0469425923
 31
0.0
  0
SPLINE
  5
383
100
AcDbEntity
  8
RACCORDO
100
AcDbSpline
 62
253
  6
CONTINUOUS
 70
0
 71
3
 72
11
 73
7
 74
5
 42
0.0000001
 43
0.0000001
 44
0.0000000001
 12
-0.3918699599
 22
-0.187777814
 32
0.0
 13
-0.3676252158
 23
0.2316770891
 33
0.0
 40
0.0
 40
0.0
 40
0.0
 40
0.0
 40
0.2333848179
 40
0.4948461821
 40
0.7590988236
 40
1.0
 40
1.0
 40
1.0
 40
1.0
 10
-21.9609928413
 20
4.7021843867
 30
0.0
 10
-21.991478341
 20
4.6875762231
 30
0.0
 10
-22.0616973259
 20
4.6682053941
 30
0.0
 10
-22.1723352069
 20
4.664426762
 30
0.0
 10
-22.2824522855
 20
4.683740203
 30
0.0
 10
-22.3508175549
 20
4.7126089313
 30
0.0
 10
-22.3803380039
 20
4.7312126924
 30
0.0
 11
-21.9609928413
 21
4.7021843867
 31
0.0
 11
-22.0581368403
 21
4.6730653087
 31
0.0
 11
-22.1716542166
 21
4.6683639797
 31
0.0
 11
-22.2846584611
 21
4.688745804
 31
0.0
 11
-22.3803380039
 21
4.7312126924
 31
0.0
  0
SPLINE
  5
384
100
AcDbEntity
  8
RACCORDO
100
AcDbSpline
 62
253
  6
CONTINUOUS
 70
0
 71
3
 72
11
 73
7
 74
5
 42
0.0000001
 43
0.0000001
 44
0.0000000001
 12
-0.2220295025
 22
0.105001499
 32
0.0
 13
-0.2114020145
 23
-0.1250264093
 33
0.0
 40
0.0
 40
0.0
 40
0.0
 40
0.0
 40
0.2829585868
 40
0.5403409855
 40
0.7762537534
 40
1.0
 40
1.0
 40
1.0
 40
1.0
 10
-21.1016396799
 20
23.8674713148
 30
0.0
 10
-21.122581398
 20
23.8773750067
 30
0.0
 10
-21.1642280396
 20
23.8931225022
 30
0.0
 10
-21.2274964923
 20
23.9032571046
 30
0.0
 10
-21.286653165
 20
23.8980063158
 30
0.0
 10
-21.322221573
 20
23.8837992495
 30
0.0
 10
-21.3379883755
 20
23.8744745196
 30
0.0
 11
-21.1016396799
 21
23.8674713148
 31
0.0
 11
-21.1668557548
 21
23.8914840534
 31
0.0
 11
-21.2293801528
 21
23.9008007151
 31
0.0
 11
-21.2870368644
 21
23.8950615871
 31
0.0
 11
-21.3379883755
 21
23.8744745196
 31
0.0
  0
SPLINE
  5
385
100
AcDbEntity
  8
RACCORDO
100
AcDbSpline
 62
253
  6
CONTINUOUS
 70
0
 71
3
 72
11
 73
7
 74
5
 42
0.0000001
 43
0.0000001
 44
0.0000000001
 12
-0.2143457432
 22
0.1068803861
 32
0.0
 13
0.0074048082
 23
0.2394006754
 33
0.0
 40
0.0
 40
0.0
 40
0.0
 40
0.0
 40
0.3082799804
 40
0.5734800038
 40
0.7990086637
 40
1.0
 40
1.0
 40
1.0
 40
1.0
 10
-22.0883571994
 20
22.1128419442
 30
0.0
 10
-22.1103833666
 20
22.123824972
 30
0.0
 10
-22.1500522835
 20
22.1471815428
 30
0.0
 10
-22.1981487351
 20
22.189884892
 30
0.0
 10
-22.228656997
 20
22.2370359437
 30
0.0
 10
-22.2353234379
 20
22.2715881384
 30
0.0
 10
-22.2348273371
 20
22.2876272923
 30
0.0
 11
-22.0883571994
 21
22.1128419442
 31
0.0
 11
-22.1515445427
 21
22.151043647
 31
0.0
 11
-22.1982307135
 21
22.194114741
 31
0.0
 11
-22.2263435155
 21
22.2402402694
 31
0.0
 11
-22.2348273371
 21
22.2876272923
 31
0.0
  0
SPLINE
  5
386
100
AcDbEntity
  8
RACCORDO
100
AcDbSpline
 62
253
  6
CONTINUOUS
 70
0
 71
3
 72
9
 73
5
 74
3
 42
0.0000001
 43
0.0000001
 44
0.0000000001
 12
0.0000013252
 22
-0.6511880154
 32
0.0
 13
0.1256038706
 23
-0.6389597007
 33
0.0
 40
0.0
 40
0.0
 40
0.0
 40
0.0
 40
0.4891565907
 40
1.0
 40
1.0
 40
1.0
 40
1.0
 10
-22.4404489308
 20
4.1553672265
 30
0.0
 10
-22.4404487147
 20
4.04918959
 30
0.0
 10
-22.4308835307
 20
3.8320610202
 30
0.0
 10
-22.4017254829
 20
3.6164967915
 30
0.0
 10
-22.380337513
 20
3.5076940075
 30
0.0
 11
-22.4404489308
 21
4.1553672265
 31
0.0
 11
-22.4264029029
 21
3.8371441545
 31
0.0
 11
-22.380337513
 21
3.5076940075
 31
0.0
  0
SPLINE
  5
387
100
AcDbEntity
  8
RACCORDO
100
AcDbSpline
 62
253
  6
CONTINUOUS
 70
0
 71
3
 72
9
 73
5
 74
3
 42
0.0000001
 43
0.0000001
 44
0.0000000001
 12
-0.1375034288
 22
-0.5634439607
 32
0.0
 13
-0.0000012567
 23
-0.5799795598
 33
0.0
 40
0.0
 40
0.0
 40
0.0
 40
0.0
 40
0.4841979573
 40
1.0
 40
1.0
 40
1.0
 40
1.0
 10
-22.380337513
 20
4.731212937
 30
0.0
 10
-22.4025304728
 20
4.6402734654
 30
0.0
 10
-22.4325250351
 20
4.4485317342
 30
0.0
 10
-22.4404487147
 20
4.2550854404
 30
0.0
 10
-22.4404489308
 20
4.1553672265
 30
0.0
 11
-22.380337513
 21
4.731212937
 31
0.0
 11
-22.4264026175
 21
4.4541919255
 31
0.0
 11
-22.4404489308
 21
4.1553672265
 31
0.0
  0
SPLINE
  5
388
100
AcDbEntity
  8
RACCORDO
100
AcDbSpline
 62
253
  6
CONTINUOUS
 70
0
 71
3
 72
15
 73
11
 74
9
 42
0.0000001
 43
0.0000001
 44
0.0000000001
 12
-0.9567687075
 22
-0.3939877219
 32
0.0
 13
-0.0364344616
 23
1.0340721516
 33
0.0
 40
0.0
 40
0.0
 40
0.0
 40
0.0
 40
0.1335924477
 40
0.2562081671
 40
0.3710178324
 40
0.4829841581
 40
0.5978237031
 40
0.7204983796
 40
0.8541706013
 40
1.0
 40
1.0
 40
1.0
 40
1.0
 10
9.9310351468
 20
-29.373786545
 30
0.0
 10
9.8884294556
 20
-29.3913311398
 30
0.0
 10
9.8033622076
 20
-29.4177867123
 30
0.0
 10
9.6745263962
 20
-29.4276573925
 30
0.0
 10
9.5545775443
 20
-29.4046579192
 30
0.0
 10
9.4488134807
 20
-29.3488231871
 30
0.0
 10
9.3621290232
 20
-29.2627535923
 30
0.0
 10
9.297560269
 20
-29.1507144246
 30
0.0
 10
9.2565127639
 20
-29.0172333116
 30
0.0
 10
9.2457754426
 20
-28.9208770804
 30
0.0
 10
9.2440043708
 20
-28.8706110403
 30
0.0
 11
9.9310351468
 21
-29.373786545
 31
0.0
 11
9.7986570798
 21
-29.4135806009
 31
0.0
 11
9.672065367
 21
-29.422011977
 31
0.0
 11
9.5555606659
 21
-29.3987968611
 31
0.0
 11
9.4531057864
 21
-29.3447141518
 31
0.0
 11
9.3681860844
 21
-29.2615981022
 31
0.0
 11
9.30369362
 21
-29.1522694466
 31
0.0
 11
9.2618224899
 21
-29.0204470104
 31
0.0
 11
9.2440043708
 21
-28.8706110403
 31
0.0
  0
SPLINE
  5
389
100
AcDbEntity
  8
RACCORDO
100
AcDbSpline
 62
253
  6
CONTINUOUS
 70
0
 71
3
 72
11
 73
7
 74
5
 42
0.0000001
 43
0.0000001
 44
0.0000000001
 12
0.0475268045
 22
1.3939930031
 32
0.0
 13
1.2287431557
 23
0.6600496551
 33
0.0
 40
0.0
 40
0.0
 40
0.0
 40
0.0
 40
0.2462905316
 40
0.508770286
 40
0.7664880535
 40
1.0
 40
1.0
 40
1.0
 40
1.0
 10
9.2440043708
 20
6.772819867
 30
0.0
 10
9.2479061714
 20
6.8872622929
 30
0.0
 10
9.2926387917
 20
7.1228988651
 30
0.0
 10
9.4402511343
 20
7.4503845294
 30
0.0
 10
9.6533380415
 20
7.7321969163
 30
0.0
 10
9.8353930781
 20
7.8765867412
 30
0.0
 10
9.9310351468
 20
7.9279632344
 30
0.0
 11
9.2440043708
 21
6.772819867
 31
0.0
 11
9.30369362
 21
7.1111212558
 31
0.0
 11
9.4531057864
 21
7.4453528128
 31
0.0
 11
9.672065367
 21
7.7304355215
 31
0.0
 11
9.9310351468
 21
7.9279632344
 31
0.0
  0
SPLINE
  5
38A
100
AcDbEntity
  8
RACCORDO
100
AcDbSpline
 62
253
  6
CONTINUOUS
 70
0
 71
3
 72
11
 73
7
 74
5
 42
0.0000001
 43
0.0000001
 44
0.0000000001
 12
-0.2153838955
 22
0.1079665933
 32
0.0
 13
-0.0080278502
 23
0.2407956837
 33
0.0
 40
0.0
 40
0.0
 40
0.0
 40
0.0
 40
0.296728037
 40
0.5582174961
 40
0.7883878785
 40
1.0
 40
1.0
 40
1.0
 40
1.0
 10
-22.0883520666
 20
-13.5662652465
 30
0.0
 10
-22.1096555468
 20
-13.5555863414
 30
0.0
 10
-22.1483430251
 20
-13.5324090712
 30
0.0
 10
-22.1954971676
 20
-13.4893426696
 30
0.0
 10
-22.2262100065
 20
-13.4409506723
 30
0.0
 10
-22.2342332651
 20
-13.4054577933
 30
0.0
 10
-22.2347995286
 20
-13.3884726981
 30
0.0
 11
-22.0883520666
 21
-13.5662652465
 31
0.0
 11
-22.149287676
 21
-13.5288787912
 31
0.0
 11
-22.1951258168
 21
-13.4856592373
 31
0.0
 11
-22.2239612907
 21
-13.438290964
 31
0.0
 11
-22.2347995286
 21
-13.3884726981
 31
0.0
  0
SPLINE
  5
38B
100
AcDbEntity
  8
RACCORDO
100
AcDbSpline
 62
253
  6
CONTINUOUS
 70
0
 71
3
 72
11
 73
7
 74
5
 42
0.0000001
 43
0.0000001
 44
0.0000000001
 12
0.6424357554
 22
-0.3203982744
 32
0.0
 13
0.6359587165
 23
0.3330694596
 33
0.0
 40
0.0
 40
0.0
 40
0.0
 40
0.0
 40
0.2333088333
 40
0.4957317258
 40
0.760452371
 40
1.0
 40
1.0
 40
1.0
 40
1.0
 10
8.546573871
 20
-28.8837336084
 30
0.0
 10
8.5965358499
 20
-28.9086508576
 30
0.0
 10
8.7116750378
 20
-28.9435771223
 30
0.0
 10
8.8941591382
 20
-28.9576808017
 30
0.0
 10
9.0774611767
 20
-28.9363768795
 30
0.0
 10
9.1932235699
 20
-28.8972063734
 30
0.0
 10
9.2440043708
 20
-28.8706110403
 30
0.0
 11
8.546573871
 21
-28.8837336084
 31
0.0
 11
8.7057592008
 21
-28.9358263
 31
0.0
 11
8.8934920247
 21
-28.9515852308
 31
0.0
 11
9.0821570515
 21
-28.9287441514
 31
0.0
 11
9.2440043708
 21
-28.8706110403
 31
0.0
  0
SPLINE
  5
38C
100
AcDbEntity
  8
RACCORDO
100
AcDbSpline
 62
253
  6
CONTINUOUS
 70
0
 71
3
 72
9
 73
5
 74
3
 42
0.0000001
 43
0.0000001
 44
0.0000000001
 12
-0.0000533768
 22
0.6465965263
 32
0.0
 13
-0.1233044629
 23
0.6347307147
 33
0.0
 40
0.0
 40
0.0
 40
0.0
 40
0.0
 40
0.4889333261
 40
1.0
 40
1.0
 40
1.0
 40
1.0
 10
8.3107344531
 20
-11.2202244654
 30
0.0
 10
8.3107257538
 20
-11.114843602
 30
0.0
 10
8.2962336581
 20
-10.8991831998
 30
0.0
 10
8.2599125451
 20
-10.6865391969
 30
0.0
 10
8.2389069445
 20
-10.5784092918
 30
0.0
 11
8.3107344531
 21
-11.2202244654
 31
0.0
 11
8.2913360635
 21
-10.9046775742
 31
0.0
 11
8.2389069445
 21
-10.5784092918
 31
0.0
  0
SPLINE
  5
38D
100
AcDbEntity
  8
RACCORDO
100
AcDbSpline
 62
253
  6
CONTINUOUS
 70
0
 71
3
 72
9
 73
5
 74
3
 42
0.0000001
 43
0.0000001
 44
0.0000000001
 12
0.1379729576
 22
0.570749956
 32
0.0
 13
0.0000494187
 23
0.5871899581
 33
0.0
 40
0.0
 40
0.0
 40
0.0
 40
0.0
 40
0.4854743474
 40
1.0
 40
1.0
 40
1.0
 40
1.0
 10
8.2389069445
 20
-11.8019282212
 30
0.0
 10
8.2612343883
 20
-11.7095667338
 30
0.0
 10
8.298139419
 20
-11.5169121205
 30
0.0
 10
8.3107259773
 20
-11.3209325642
 30
0.0
 10
8.3107344531
 20
-11.2202244654
 30
0.0
 11
8.2389069445
 21
-11.8019282212
 31
0.0
 11
8.2913357722
 21
-11.5217253482
 31
0.0
 11
8.3107344531
 21
-11.2202244654
 31
0.0
  0
SPLINE
  5
38E
100
AcDbEntity
  8
RACCORDO
100
AcDbSpline
 62
253
  6
CONTINUOUS
 70
0
 71
3
 72
11
 73
7
 74
5
 42
0.0000001
 43
0.0000001
 44
0.0000000001
 12
0.6387669556
 22
-0.3202554568
 32
0.0
 13
0.6575721155
 23
0.2796170489
 33
0.0
 40
0.0
 40
0.0
 40
0.0
 40
0.0
 40
0.2357288645
 40
0.5005136503
 40
0.7650237399
 40
1.0
 40
1.0
 40
1.0
 40
1.0
 10
8.5465790041
 20
6.7953787153
 30
0.0
 10
8.5967709405
 20
6.7702142302
 30
0.0
 10
8.7114926267
 20
6.733086753
 30
0.0
 10
8.8932497782
 20
6.711239153
 30
0.0
 10
9.0758585097
 20
6.7212669385
 30
0.0
 10
9.1924997586
 20
6.7509187442
 30
0.0
 10
9.2440043707
 20
6.772819867
 30
0.0
 11
8.5465790041
 21
6.7953787153
 31
0.0
 11
8.7057626755
 21
6.7403069908
 31
0.0
 11
8.8934936249
 21
6.716752126
 31
0.0
 11
9.0821573503
 21
6.7281320584
 31
0.0
 11
9.2440043707
 21
6.772819867
 31
0.0
  0
SPLINE
  5
38F
100
AcDbEntity
  8
RACCORDO
100
AcDbSpline
 62
253
  6
CONTINUOUS
 70
0
 71
3
 72
11
 73
7
 74
5
 42
0.0000001
 43
0.0000001
 44
0.0000000001
 12
0.6455805348
 22
-0.3412122553
 32
0.0
 13
0.032690815
 23
-0.729473331
 33
0.0
 40
0.0
 40
0.0
 40
0.0
 40
0.0
 40
0.2293406697
 40
0.48930059
 40
0.7550782125
 40
1.0
 40
1.0
 40
1.0
 40
1.0
 10
9.5683543041
 20
8.5324743228
 30
0.0
 10
9.6177069282
 20
8.5063897071
 30
0.0
 10
9.7121867656
 20
8.4303179876
 30
0.0
 10
9.8236170845
 20
8.2824977313
 30
0.0
 10
9.9027403395
 20
8.1109339568
 30
0.0
 10
9.9283662492
 20
7.9875178718
 30
0.0
 10
9.9310351468
 20
7.9279632344
 30
0.0
 11
9.5683543041
 21
8.5324743228
 31
0.0
 11
9.7013816089
 21
8.4307465768
 31
0.0
 11
9.8169863808
 21
8.2801851377
 31
0.0
 11
9.8976212015
 21
8.103657312
 31
0.0
 11
9.9310351468
 21
7.9279632344
 31
0.0
  0
SPLINE
  5
390
100
AcDbEntity
  8
RACCORDO
100
AcDbSpline
 62
253
  6
CONTINUOUS
 70
0
 71
3
 72
11
 73
7
 74
5
 42
0.0000001
 43
0.0000001
 44
0.0000000001
 12
0.0703708499
 22
2.0887942512
 32
0.0
 13
1.8329743732
 23
1.0041008053
 33
0.0
 40
0.0
 40
0.0
 40
0.0
 40
0.0
 40
0.2466684366
 40
0.5094721602
 40
0.7671407253
 40
1.0
 40
1.0
 40
1.0
 40
1.0
 10
-11.4241939828
 20
16.780760333
 30
0.0
 10
-11.4184078937
 20
16.9525068705
 30
0.0
 10
-11.3520096509
 20
17.3060954011
 30
0.0
 10
-11.1330541271
 20
17.7982003119
 30
0.0
 10
-10.816951238
 20
18.2224164721
 30
0.0
 10
-10.5464437235
 20
18.440797761
 30
0.0
 10
-10.4041686958
 20
18.5187358228
 30
0.0
 11
-11.4241939828
 21
16.780760333
 31
0.0
 11
-11.3355903922
 21
17.2886211125
 31
0.0
 11
-11.113781819
 21
17.7910962759
 31
0.0
 11
-10.7886944133
 21
18.2204260887
 31
0.0
 11
-10.4041686958
 21
18.5187358228
 31
0.0
  0
SPLINE
  5
391
100
AcDbEntity
  8
RACCORDO
100
AcDbSpline
 62
253
  6
CONTINUOUS
 70
0
 71
3
 72
9
 73
5
 74
3
 42
0.0000001
 43
0.0000001
 44
0.0000000001
 12
-0.1576028879
 22
-0.0919092095
 32
0.0
 13
-0.1446561967
 23
-0.1111780456
 33
0.0
 40
0.0
 40
0.0
 40
0.0
 40
0.0
 40
0.2435034856
 40
1.0
 40
1.0
 40
1.0
 40
1.0
 10
-21.1016396799
 20
23.8674713148
 30
0.0
 10
-21.1144319641
 20
23.8600112439
 30
0.0
 10
-21.1664348386
 20
23.8284681201
 30
0.0
 10
-21.2163161224
 20
23.7934630338
 30
0.0
 10
-21.2527934252
 20
23.7654277658
 30
0.0
 11
-21.1016396799
 21
23.8674713148
 31
0.0
 11
-21.139631929
 21
23.8444442493
 31
0.0
 11
-21.2527934252
 21
23.7654277658
 31
0.0
  0
SPLINE
  5
392
100
AcDbEntity
  8
RACCORDO
100
AcDbSpline
 62
253
  6
CONTINUOUS
 70
0
 71
3
 72
11
 73
7
 74
5
 42
0.0000001
 43
0.0000001
 44
0.0000000001
 12
-1.5085014786
 22
-1.1593851491
 32
0.0
 13
-0.0619278398
 23
-1.9015560937
 33
0.0
 40
0.0
 40
0.0
 40
0.0
 40
0.0
 40
0.2389433056
 40
0.4968691249
 40
0.7564613855
 40
1.0
 40
1.0
 40
1.0
 40
1.0
 10
-21.2527934252
 20
23.7654277658
 30
0.0
 10
-21.3729422018
 20
23.6730853258
 30
0.0
 10
-21.5960765321
 20
23.4455319112
 30
0.0
 10
-21.8544151421
 20
23.0378301161
 30
0.0
 10
-22.0303793591
 20
22.5852653472
 30
0.0
 10
-22.08332993
 20
22.2672093494
 30
0.0
 10
-22.0883572035
 20
22.1128419039
 30
0.0
 11
-21.2527934252
 21
23.7654277658
 31
0.0
 11
-21.5751911123
 21
23.4449196941
 31
0.0
 11
-21.8396673705
 21
23.0315689278
 31
0.0
 11
-22.0172192438
 21
22.570696276
 31
0.0
 11
-22.0883572035
 21
22.1128419039
 31
0.0
  0
SPLINE
  5
393
100
AcDbEntity
  8
RACCORDO
100
AcDbSpline
 62
253
  6
CONTINUOUS
 70
0
 71
3
 72
11
 73
7
 74
5
 42
0.0000001
 43
0.0000001
 44
0.0000000001
 12
0.0705049632
 22
2.0891562892
 32
0.0
 13
1.8346893751
 23
1.00172843
 33
0.0
 40
0.0
 40
0.0
 40
0.0
 40
0.0
 40
0.2466051322
 40
0.5093544835
 40
0.7670313773
 40
1.0
 40
1.0
 40
1.0
 40
1.0
 10
8.5465738671
 20
6.7953763686
 30
0.0
 10
8.5523694957
 20
6.9671085895
 30
0.0
 10
8.6188859948
 20
7.3206736574
 30
0.0
 10
8.838250825
 20
7.812632189
 30
0.0
 10
9.1549424233
 20
8.2365986547
 30
0.0
 10
9.4258792852
 20
8.4546838919
 30
0.0
 10
9.5683543041
 20
8.5324743228
 30
0.0
 11
8.5465738671
 21
6.7953763686
 31
0.0
 11
8.6353318816
 21
7.3031675856
 31
0.0
 11
8.8575251529
 21
7.8054537524
 31
0.0
 11
9.1831717159
 21
8.234499973
 31
0.0
 11
9.5683543041
 21
8.5324743228
 31
0.0
  0
SPLINE
  5
394
100
AcDbEntity
  8
RACCORDO
100
AcDbSpline
 62
253
  6
CONTINUOUS
 70
0
 71
3
 72
11
 73
7
 74
5
 42
0.0000001
 43
0.0000001
 44
0.0000000001
 12
0.0101510905
 22
-0.1243502881
 32
0.0
 13
0.1170182877
 23
-0.0432753872
 33
0.0
 40
0.0
 40
0.0
 40
0.0
 40
0.0
 40
0.1972473547
 40
0.4208827526
 40
0.687148009
 40
1.0
 40
1.0
 40
1.0
 40
1.0
 10
8.1520492776
 20
-10.4972105947
 30
0.0
 10
8.1527167029
 20
-10.5053865165
 30
0.0
 10
8.158251454
 20
-10.5226337633
 30
0.0
 10
8.1769446399
 20
-10.5448800938
 30
0.0
 10
8.2046016723
 20
-10.5640365812
 30
0.0
 10
8.226704712
 20
-10.5738959118
 30
0.0
 10
8.2389078468
 20
-10.5784088421
 30
0.0
 11
8.1520492776
 21
-10.4972105947
 31
0.0
 11
8.1592035681
 21
-10.5207570702
 31
0.0
 11
8.176524942
 21
-10.5426310515
 31
0.0
 11
8.203451314
 21
-10.5620876403
 31
0.0
 11
8.2389078468
 21
-10.5784088421
 31
0.0
  0
SPLINE
  5
395
100
AcDbEntity
  8
RACCORDO
100
AcDbSpline
 62
253
  6
CONTINUOUS
 70
0
 71
3
 72
11
 73
7
 74
5
 42
0.0000001
 43
0.0000001
 44
0.0000000001
 12
-1.4901186759
 22
-1.0974023536
 32
0.0
 13
-0.1467490811
 23
-1.8447792012
 33
0.0
 40
0.0
 40
0.0
 40
0.0
 40
0.0
 40
0.2364904927
 40
0.4927899326
 40
0.7529092918
 40
1.0
 40
1.0
 40
1.0
 40
1.0
 10
-1.2567285856
 20
13.7971907997
 30
0.0
 10
-1.3741948855
 20
13.710682392
 30
0.0
 10
-1.5941003901
 20
13.4959022691
 30
0.0
 10
-1.8534918792
 20
13.1073632199
 30
0.0
 10
-2.0375631578
 20
12.6709028856
 30
0.0
 10
-2.1008746996
 20
12.3615199102
 30
0.0
 10
-2.1129614778
 20
12.2095773105
 30
0.0
 11
-1.2567285856
 21
13.7971907997
 31
0.0
 11
-1.5737155165
 21
13.4954332618
 31
0.0
 11
-1.8390189629
 21
13.1022620845
 31
0.0
 11
-2.025194683
 21
12.6583431561
 31
0.0
 11
-2.1129614778
 21
12.2095773105
 31
0.0
  0
SPLINE
  5
396
100
AcDbEntity
  8
RACCORDO
100
AcDbSpline
 62
253
  6
CONTINUOUS
 70
0
 71
3
 72
11
 73
7
 74
5
 42
0.0000001
 43
0.0000001
 44
0.0000000001
 12
0.0284136754
 22
-0.8430431593
 32
0.0
 13
0.7229922368
 23
-0.4345242582
 33
0.0
 40
0.0
 40
0.0
 40
0.0
 40
0.0
 40
0.287915666
 40
0.5478405813
 40
0.7824777525
 40
1.0
 40
1.0
 40
1.0
 40
1.0
 10
-22.0883572034
 20
-13.5662680377
 30
0.0
 10
-22.0856302894
 20
-13.647176482
 30
0.0
 10
-22.0683896143
 20
-13.8012061095
 30
0.0
 10
-22.0007350185
 20
-14.0124001055
 30
0.0
 10
-21.893870016
 20
-14.1845277675
 30
0.0
 10
-21.7956453487
 20
-14.269264484
 30
0.0
 10
-21.74322305
 20
-14.3007707151
 30
0.0
 11
-22.0883572034
 21
-13.5662680377
 31
0.0
 11
-22.0591877668
 21
-13.8073731096
 31
0.0
 11
-21.9898587703
 21
-14.0153757076
 31
0.0
 11
-21.8831240357
 21
-14.1820509854
 31
0.0
 11
-21.74322305
 21
-14.3007707151
 31
0.0
  0
LINE
  5
397
100
AcDbEntity
  8
RACCORDO
100
AcDbLine
 62
253
  6
CONTINUOUS
 10
-2.2332069774
 20
8.1394036144
 11
-2.2345145193
 21
8.0879284946
  0
SPLINE
  5
398
100
AcDbEntity
  8
RACCORDO
100
AcDbSpline
 62
253
  6
CONTINUOUS
 70
0
 71
3
 72
11
 73
7
 74
5
 42
0.0000001
 43
0.0000001
 44
0.0000000001
 12
-0.0146654643
 22
-0.1658548483
 32
0.0
 13
0.1408847874
 23
-0.0887377216
 33
0.0
 40
0.0
 40
0.0
 40
0.0
 40
0.0
 40
0.2131310051
 40
0.4442495666
 40
0.7054689134
 40
1.0
 40
1.0
 40
1.0
 40
1.0
 10
8.1522381017
 20
-11.6688117536
 30
0.0
 10
8.1511962133
 20
-11.6805946905
 30
0.0
 10
8.1537781347
 20
-11.7057648216
 30
0.0
 10
8.1710842066
 20
-11.7415564811
 30
0.0
 10
8.2001957103
 20
-11.7746437728
 30
0.0
 10
8.2250748038
 20
-11.7932164616
 30
0.0
 10
8.2389064537
 20
-11.8019284675
 30
0.0
 11
8.1522381017
 21
-11.6688117536
 31
0.0
 11
8.1555876682
 21
-11.704140051
 31
0.0
 11
8.1716982107
 21
-11.7390870302
 31
0.0
 11
8.1999172997
 21
-11.7721834154
 31
0.0
 11
8.2389064537
 21
-11.8019284675
 31
0.0
  0
SPLINE
  5
399
100
AcDbEntity
  8
RACCORDO
100
AcDbSpline
 62
253
  6
CONTINUOUS
 70
0
 71
3
 72
28
 73
24
 74
22
 42
0.0000001
 43
0.0000001
 44
0.0000000001
 12
-0.4315606083
 22
-17.0182930945
 32
0.0
 13
0.4463421668
 23
17.0179118307
 33
0.0
 40
0.0
 40
0.0
 40
0.0
 40
0.0
 40
0.0326609519
 40
0.0639699521
 40
0.0938764918
 40
0.1223826437
 40
0.1753983657
 40
0.2003354821
 40
0.2245208388
 40
0.2482748154
 40
0.271952886
 40
0.2959166529
 40
0.3205039518
 40
0.372533563
 40
0.429702803
 40
0.4924759222
 40
0.5604441787
 40
0.6325696526
 40
0.7074018085
 40
0.783258878
 40
0.8583885555
 40
0.9311152963
 40
1.0
 40
1.0
 40
1.0
 40
1.0
 10
-2.2345145193
 20
8.0879284946
 30
0.0
 10
-2.2392129127
 20
7.9026506104
 30
0.0
 10
-2.2624483115
 20
7.539907006
 30
0.0
 10
-2.3417746511
 20
7.0124867745
 30
0.0
 10
-2.4643855042
 20
6.5173614665
 30
0.0
 10
-2.6785565884
 20
5.921763595
 30
0.0
 10
-2.9779563264
 20
5.3883460652
 30
0.0
 10
-3.3615775804
 20
4.9515512834
 30
0.0
 10
-3.6782847319
 20
4.6831168293
 30
0.0
 10
-4.0266073467
 20
4.4705275959
 30
0.0
 10
-4.4029885462
 20
4.3160847283
 30
0.0
 10
-4.8034702679
 20
4.2213818918
 30
0.0
 10
-5.3742218273
 20
4.1747823298
 30
0.0
 10
-6.1360518477
 20
4.2782648951
 30
0.0
 10
-7.0517497836
 20
4.6354057003
 30
0.0
 10
-7.9572165774
 20
5.2090663401
 30
0.0
 10
-8.8206552434
 20
5.9769629248
 30
0.0
 10
-9.6111492434
 20
6.9105305113
 30
0.0
 10
-10.2990795041
 20
7.9753453296
 30
0.0
 10
-10.8582584487
 20
9.1318905711
 30
0.0
 10
-11.2670642067
 20
10.3373559315
 30
0.0
 10
-11.5096564693
 20
11.5465968191
 30
0.0
 10
-11.5555209866
 20
12.3525494324
 30
0.0
 10
-11.5452722707
 20
12.7433073703
 30
0.0
 11
-2.2345145193
 21
8.0879284946
 31
0.0
 11
-2.2709734107
 21
7.533112784
 31
0.0
 11
-2.3513115768
 21
7.0062051866
 31
0.0
 11
-2.4748046413
 21
6.5122876331
 31
0.0
 11
-2.6403223268
 21
6.0561050823
 31
0.0
 11
-3.0909439815
 21
5.274123386
 31
0.0
 11
-3.3718689494
 21
4.9558445177
 31
0.0
 11
-3.6864779653
 21
4.6902521456
 31
0.0
 11
-4.0318312313
 21
4.4798810466
 31
0.0
 11
-4.4046932915
 21
4.326729675
 31
0.0
 11
-4.8015502465
 21
4.2322276765
 31
0.0
 11
-5.2186550497
 21
4.197255282
 31
0.0
 11
-6.0976199791
 21
4.3065973907
 31
0.0
 11
-7.0081203695
 21
4.6503657441
 31
0.0
 11
-7.915232289
 21
5.2152801127
 31
0.0
 11
-8.7838948315
 21
5.9796421034
 31
0.0
 11
-9.5802902316
 21
6.9141808958
 31
0.0
 11
-10.2732009537
 21
7.9831802227
 31
0.0
 11
-10.8353306006
 21
9.1457868263
 31
0.0
 11
-11.2444236299
 21
10.3575863456
 31
0.0
 11
-11.4842487546
 21
11.5722192652
 31
0.0
 11
-11.5452722707
 21
12.7433073703
 31
0.0
  0
SPLINE
  5
39A
100
AcDbEntity
  8
RACCORDO
100
AcDbSpline
 62
253
  6
CONTINUOUS
 70
0
 71
3
 72
27
 73
23
 74
21
 42
0.0000001
 43
0.0000001
 44
0.0000000001
 12
-0.0005453467
 22
16.602342279
 32
0.0
 13
-1.5154036048
 23
-16.5330372697
 33
0.0
 40
0.0
 40
0.0
 40
0.0
 40
0.0
 40
0.0685939797
 40
0.1412758418
 40
0.2166104155
 40
0.2929472316
 40
0.3685722134
 40
0.4418399728
 40
0.5113101403
 40
0.5758946634
 40
0.6350273008
 40
0.6888603882
 40
0.7141374987
 40
0.7385677041
 40
0.7624285066
 40
0.7860377225
 40
0.8097318126
 40
0.8338404256
 40
0.8586622965
 40
0.8844480173
 40
0.939525307
 40
1.0
 40
1.0
 40
1.0
 40
1.0
 10
-12.9482234126
 20
-0.5969561056
 30
0.0
 10
-12.9482358818
 20
-0.217349196
 30
0.0
 10
-13.009647187
 20
0.5652213421
 30
0.0
 10
-13.2603332846
 20
1.7404195416
 30
0.0
 10
-13.6641587779
 20
2.9175864565
 30
0.0
 10
-14.2076124105
 20
4.0550601014
 30
0.0
 10
-14.8723303627
 20
5.1128621901
 30
0.0
 10
-15.6358828029
 20
6.0536219406
 30
0.0
 10
-16.4724762072
 20
6.84423171
 30
0.0
 10
-17.3544722084
 20
7.4568449873
 30
0.0
 10
-18.2526512935
 20
7.8693764564
 30
0.0
 10
-19.0077059028
 20
8.0353162928
 30
0.0
 10
-19.5822084762
 20
8.0461866819
 30
0.0
 10
-19.9878154943
 20
7.9971318846
 30
0.0
 10
-20.3729306038
 20
7.8912134505
 30
0.0
 10
-20.7336867894
 20
7.7293679838
 30
0.0
 10
-21.0663980166
 20
7.5132334405
 30
0.0
 10
-21.3677406721
 20
7.2450851402
 30
0.0
 10
-21.6348861713
 20
6.9277096861
 30
0.0
 10
-21.9490704734
 20
6.4325830498
 30
0.0
 10
-22.2394422906
 20
5.698446922
 30
0.0
 10
-22.3497893453
 20
5.0644898373
 30
0.0
 10
-22.3803372013
 20
4.7312130526
 30
0.0
 11
-12.9482234126
 21
-0.5969561056
 31
0.0
 11
-13.0319368668
 21
0.5387836143
 31
0.0
 11
-13.2801988772
 21
1.7196581574
 31
0.0
 11
-13.6844688053
 21
2.9032511217
 31
0.0
 11
-14.2308019811
 21
4.046818633
 31
0.0
 11
-14.9002374904
 21
5.1090175326
 31
0.0
 11
-15.669414659
 21
6.0513738298
 31
0.0
 11
-16.511281077
 21
6.8397376565
 31
0.0
 11
-17.3959923581
 21
7.4455555851
 31
0.0
 11
-18.2919365865
 21
7.8469256487
 31
0.0
 11
-19.166852037
 21
8.0294676111
 31
0.0
 11
-19.5864547527
 21
8.0363552066
 31
0.0
 11
-19.9890130757
 21
7.98678659
 31
0.0
 11
-20.3708373365
 21
7.8812344193
 31
0.0
 11
-20.728421645
 21
7.7206959567
 31
0.0
 11
-21.0584803956
 21
7.5066702669
 31
0.0
 11
-21.3579645891
 21
7.2411201955
 31
0.0
 11
-21.6241032138
 21
6.926481309
 31
0.0
 11
-21.8544397935
 21
6.5656246204
 31
0.0
 11
-22.1994891958
 21
5.7188128092
 31
0.0
 11
-22.3803372013
 21
4.7312130526
 31
0.0
  0
SPLINE
  5
39B
100
AcDbEntity
  8
RACCORDO
100
AcDbSpline
 62
253
  6
CONTINUOUS
 70
0
 71
3
 72
9
 73
5
 74
3
 42
0.0000001
 43
0.0000001
 44
0.0000000001
 12
0.0979385822
 22
0.0369781657
 32
0.0
 13
0.0929795073
 23
-0.048105736
 33
0.0
 40
0.0
 40
0.0
 40
0.0
 40
0.0
 40
0.4658287121
 40
1.0
 40
1.0
 40
1.0
 40
1.0
 10
-9.5937650723
 20
28.2249002531
 30
0.0
 10
-9.5785575378
 20
28.2306420836
 30
0.0
 10
-9.5422519427
 20
28.2339437354
 30
0.0
 10
-9.5086015178
 20
28.2219261521
 30
0.0
 10
-9.4920458567
 20
28.2133605844
 30
0.0
 11
-9.5937650723
 21
28.2249002531
 31
0.0
 11
-9.5453093229
 21
28.2303938733
 31
0.0
 11
-9.4920458567
 21
28.2133605844
 31
0.0
  0
SPLINE
  5
39C
100
AcDbEntity
  8
RACCORDO
100
AcDbSpline
 62
253
  6
CONTINUOUS
 70
0
 71
3
 72
13
 73
9
 74
7
 42
0.0000001
 43
0.0000001
 44
0.0000000001
 12
-1.7898724704
 22
-0.7982187442
 32
0.0
 13
-0.0000677046
 23
-1.9597950452
 33
0.0
 40
0.0
 40
0.0
 40
0.0
 40
0.0
 40
0.1082761663
 40
0.218296163
 40
0.3321332451
 40
0.4514816766
 40
0.7104938743
 40
1.0
 40
1.0
 40
1.0
 40
1.0
 10
-8.1672595237
 20
-0.7072058779
 30
0.0
 10
-8.2318597002
 20
-0.7360152331
 30
0.0
 10
-8.356982594
 20
-0.8064367388
 30
0.0
 10
-8.5241283938
 20
-0.9465348068
 30
0.0
 10
-8.6689425299
 20
-1.1191125723
 30
0.0
 10
-8.8341247212
 20
-1.3963627393
 30
0.0
 10
-8.9712473787
 20
-1.8162276982
 30
0.0
 10
-9.0027270454
 20
-2.1758480657
 30
0.0
 10
-9.002733579
 20
-2.3649722892
 30
0.0
 11
-8.1672595237
 21
-0.7072058779
 31
0.0
 11
-8.3522274164
 21
-0.8112026776
 31
0.0
 11
-8.5178112115
 21
-0.9493060598
 31
0.0
 11
-8.6618185908
 21
-1.1197006083
 31
0.0
 11
-8.7823485012
 21
-1.3201526786
 31
0.0
 11
-8.9468944764
 21
-1.8003540621
 31
0.0
 11
-9.002733579
 21
-2.3649722892
 31
0.0
  0
SPLINE
  5
39D
100
AcDbEntity
  8
RACCORDO
100
AcDbSpline
 62
253
  6
CONTINUOUS
 70
0
 71
3
 72
9
 73
5
 74
3
 42
0.0000001
 43
0.0000001
 44
0.0000000001
 12
-0.0000415087
 22
-0.5982085841
 32
0.0
 13
0.0502616903
 23
-0.5960933436
 33
0.0
 40
0.0
 40
0.0
 40
0.0
 40
0.0
 40
0.4949694012
 40
1.0
 40
1.0
 40
1.0
 40
1.0
 10
-21.9840587038
 20
4.1318753983
 30
0.0
 10
-21.9840655523
 20
4.0331770834
 30
0.0
 10
-21.9806283533
 20
3.8337636716
 30
0.0
 10
-21.9694540756
 20
3.6345858816
 30
0.0
 10
-21.960992845
 20
3.5342374222
 30
0.0
 11
-21.9840587038
 21
4.1318753983
 31
0.0
 11
-21.9787673923
 21
3.8358277354
 31
0.0
 11
-21.960992845
 21
3.5342374222
 31
0.0
  0
SPLINE
  5
39E
100
AcDbEntity
  8
RACCORDO
100
AcDbSpline
 62
253
  6
CONTINUOUS
 70
0
 71
3
 72
19
 73
15
 74
13
 42
0.0000001
 43
0.0000001
 44
0.0000000001
 12
0.9915479372
 22
-11.7661373967
 32
0.0
 13
10.4448004415
 23
5.5073859757
 33
0.0
 40
0.0
 40
0.0
 40
0.0
 40
0.0
 40
0.1370688371
 40
0.2814620821
 40
0.4269089167
 40
0.5668916655
 40
0.6330720148
 40
0.6958913692
 40
0.7549740938
 40
0.8101705287
 40
0.8616156157
 40
0.9097843474
 40
0.9555206315
 40
1.0
 40
1.0
 40
1.0
 40
1.0
 10
-21.960992845
 20
3.5342374222
 30
0.0
 10
-21.9156894041
 20
2.9966471654
 30
0.0
 10
-21.7050834842
 20
1.9009551283
 30
0.0
 10
-21.103767305
 20
0.3241314792
 30
0.0
 10
-20.2483448559
 20
-1.1439717482
 30
0.0
 10
-19.3572642639
 20
-2.2134148528
 30
0.0
 10
-18.568628555
 20
-2.922085669
 30
0.0
 10
-17.9681891961
 20
-3.357692786
 30
0.0
 10
-17.3585958704
 20
-3.6993999091
 30
0.0
 10
-16.7502762848
 20
-3.9408722513
 30
0.0
 10
-16.153582828
 20
-4.07716662
 30
0.0
 10
-15.5786891251
 20
-4.1045456717
 30
0.0
 10
-15.0365747667
 20
-4.0209167705
 30
0.0
 10
-14.702630595
 20
-3.8903466241
 30
0.0
 10
-14.5477712192
 20
-3.8086916074
 30
0.0
 11
-21.960992845
 21
3.5342374222
 31
0.0
 11
-21.6664898104
 21
1.9427698179
 31
0.0
 11
-21.0634115628
 21
0.3480194393
 31
0.0
 11
-20.1971431329
 21
-1.1349127083
 31
0.0
 11
-19.1324337728
 21
-2.3992123646
 31
0.0
 11
-18.5499296595
 21
-2.9201237239
 31
0.0
 11
-17.9481772745
 21
-3.3538327957
 31
0.0
 11
-17.3382372562
 21
-3.6924684361
 31
0.0
 11
-16.7312587443
 21
-3.9298631329
 31
0.0
 11
-16.1382743412
 21
-4.061664861
 31
0.0
 11
-15.5700017261
 21
-4.0854179087
 31
0.0
 11
-15.0366553026
 21
-4.0006110316
 31
0.0
 11
-14.5477712192
 21
-3.8086916074
 31
0.0
  0
SPLINE
  5
39F
100
AcDbEntity
  8
RACCORDO
100
AcDbSpline
 62
253
  6
CONTINUOUS
 70
0
 71
3
 72
9
 73
5
 74
3
 42
0.0000001
 43
0.0000001
 44
0.0000000001
 12
-0.0522165631
 22
-0.5685250506
 32
0.0
 13
0.0000402761
 23
-0.5709179459
 33
0.0
 40
0.0
 40
0.0
 40
0.0
 40
0.0
 40
0.4941543894
 40
1.0
 40
1.0
 40
1.0
 40
1.0
 10
-21.960992845
 20
4.7021843892
 30
0.0
 10
-21.9695938596
 20
4.6085380061
 30
0.0
 10
-21.9808746685
 20
4.4184597974
 30
0.0
 10
-21.9840654949
 20
4.2281408439
 30
0.0
 10
-21.9840587038
 20
4.1318753983
 30
0.0
 11
-21.960992845
 21
4.7021843892
 31
0.0
 11
-21.9787673009
 21
4.4206232566
 31
0.0
 11
-21.9840587038
 21
4.1318753983
 31
0.0
  0
SPLINE
  5
3A0
100
AcDbEntity
  8
RACCORDO
100
AcDbSpline
 62
253
  6
CONTINUOUS
 70
0
 71
3
 72
26
 73
22
 74
20
 42
0.0000001
 43
0.0000001
 44
0.0000000001
 12
1.385020536
 22
-16.4592714034
 32
0.0
 13
0.0005271129
 23
16.5174421972
 33
0.0
 40
0.0
 40
0.0
 40
0.0
 40
0.0
 40
0.0713035387
 40
0.1459357708
 40
0.222383369
 40
0.2989667974
 40
0.3739827724
 40
0.4458355416
 40
0.513184051
 40
0.5751126577
 40
0.6313369406
 40
0.6824387517
 40
0.7065983987
 40
0.7301711897
 40
0.7534991652
 40
0.7769442597
 40
0.800858886
 40
0.8255589731
 40
0.8781904936
 40
0.9362427071
 40
1.0
 40
1.0
 40
1.0
 40
1.0
 10
-22.380337201
 20
3.5076942149
 30
0.0
 10
-22.3474182459
 20
3.1164927832
 30
0.0
 10
-22.2205333708
 20
2.3200747256
 30
0.0
 10
-21.8743759168
 20
1.1426471196
 30
0.0
 10
-21.3794414918
 20
-0.0121416834
 30
0.0
 10
-20.7536617804
 20
-1.1038903946
 30
0.0
 10
-20.0195511725
 20
-2.0948369635
 30
0.0
 10
-19.2031470822
 20
-2.9506594181
 30
0.0
 10
-18.3328859932
 20
-3.6418809941
 30
0.0
 10
-17.4377334272
 20
-4.1444007424
 30
0.0
 10
-16.546862066
 20
-4.4396618449
 30
0.0
 10
-15.8163124635
 20
-4.5008401528
 30
0.0
 10
-15.2751428547
 20
-4.4286558623
 30
0.0
 10
-14.8979337712
 20
-4.3190452304
 30
0.0
 10
-14.5459133558
 20
-4.1537319299
 30
0.0
 10
-14.2225360452
 20
-3.9343692682
 30
0.0
 10
-13.9308677427
 20
-3.6632131646
 30
0.0
 10
-13.5804844432
 20
-3.2274903337
 30
0.0
 10
-13.2376125269
 20
-2.5561788565
 30
0.0
 10
-12.9969696314
 20
-1.6204594825
 30
0.0
 10
-12.948234615
 20
-0.9479919054
 30
0.0
 10
-12.9482234126
 20
-0.5969561056
 30
0.0
 11
-22.380337201
 21
3.5076942149
 31
0.0
 11
-22.1994891462
 21
2.343909896
 31
0.0
 11
-21.8544396887
 21
1.160451848
 31
0.0
 11
-21.3579644959
 21
-0.0005697336
 31
0.0
 11
-20.7284215735
 21
-1.0977504218
 31
0.0
 11
-19.9890130068
 21
-2.0920212466
 31
0.0
 11
-19.1668519995
 21
-2.9479432029
 31
0.0
 11
-18.2919366215
 21
-3.6349750161
 31
0.0
 11
-17.3959924578
 21
-4.1285466211
 31
0.0
 11
-16.5112812461
 21
-4.410920678
 31
0.0
 11
-15.6694148942
 21
-4.4718899804
 31
0.0
 11
-15.273974575
 21
-4.4182960963
 31
0.0
 11
-14.9002377521
 21
-4.3091003101
 31
0.0
 11
-14.5514954765
 21
-4.1452431729
 31
0.0
 11
-14.2308022592
 21
-3.9281700483
 31
0.0
 11
-13.9409511129
 21
-3.6598083608
 31
0.0
 11
-13.6844690676
 21
-3.3425285379
 31
0.0
 11
-13.2801990835
 21
-2.5729088205
 31
0.0
 11
-13.0319369999
 21
-1.6467309536
 31
0.0
 11
-12.9482234126
 21
-0.5969561056
 31
0.0
  0
SPLINE
  5
3A1
100
AcDbEntity
  8
RACCORDO
100
AcDbSpline
 62
253
  6
CONTINUOUS
 70
0
 71
3
 72
21
 73
17
 74
15
 42
0.0000001
 43
0.0000001
 44
0.0000000001
 12
0.0002324046
 22
-12.4066565918
 32
0.0
 13
10.9736618568
 23
5.7882530433
 33
0.0
 40
0.0
 40
0.0
 40
0.0
 40
0.0
 40
0.1327664353
 40
0.2032270511
 40
0.2753350267
 40
0.4208545467
 40
0.4925936018
 40
0.5624372911
 40
0.6295997263
 40
0.6934223234
 40
0.7534267647
 40
0.8093764102
 40
0.8613457453
 40
0.9097895152
 40
0.9555852758
 40
1.0
 40
1.0
 40
1.0
 40
1.0
 10
-0.7733826656
 20
-6.4759466592
 30
0.0
 10
-0.7733723805
 20
-7.0250091824
 30
0.0
 10
-0.6710428058
 20
-7.8674953432
 30
0.0
 10
-0.3761060057
 20
-8.9681361148
 30
0.0
 10
0.0362119005
 20
-10.0874440319
 30
0.0
 10
0.596346755
 20
-11.1530971256
 30
0.0
 10
1.2820495245
 20
-12.12386764
 30
0.0
 10
1.8430232877
 20
-12.7817884068
 30
0.0
 10
2.4414714424
 20
-13.3596828864
 30
0.0
 10
3.0656550536
 20
-13.8463467357
 30
0.0
 10
3.7034538482
 20
-14.2322022867
 30
0.0
 10
4.3428070766
 20
-14.5094670972
 30
0.0
 10
4.9718208195
 20
-14.6720453951
 30
0.0
 10
5.5788335326
 20
-14.7152518619
 30
0.0
 10
6.1512264443
 20
-14.6362296458
 30
0.0
 10
6.5031868467
 20
-14.5008713004
 30
0.0
 10
6.6656509017
 20
-14.4151767462
 30
0.0
 11
-0.7733826656
 21
-6.4759466592
 31
0.0
 11
-0.5904335147
 21
-8.1129428408
 31
0.0
 11
-0.3653332707
 21
-8.9576449853
 31
0.0
 11
-0.0568026106
 21
-9.7973781523
 31
0.0
 11
0.7832828974
 21
-11.3954282706
 31
0.0
 11
1.297445055
 21
-12.1219347874
 31
0.0
 11
1.8606444605
 21
-12.7804747608
 31
0.0
 11
2.4613508808
 21
-13.3579486901
 31
0.0
 11
3.0873299496
 21
-13.8428580716
 31
0.0
 11
3.725902623
 21
-14.2255295218
 31
0.0
 11
4.3642090627
 21
-14.4983048647
 31
0.0
 11
4.9894703508
 21
-14.6556933077
 31
0.0
 11
5.5892425402
 21
-14.6944829021
 31
0.0
 11
6.1516582363
 21
-14.6138087476
 31
0.0
 11
6.6656509017
 21
-14.4151767462
 31
0.0
  0
SPLINE
  5
3A2
100
AcDbEntity
  8
RACCORDO
100
AcDbSpline
 62
253
  6
CONTINUOUS
 70
0
 71
3
 72
27
 73
23
 74
21
 42
0.0000001
 43
0.0000001
 44
0.0000000001
 12
0.0006007258
 22
-16.5457280487
 32
0.0
 13
1.4726829004
 23
16.4800583159
 33
0.0
 40
0.0
 40
0.0
 40
0.0
 40
0.0
 40
0.0687710049
 40
0.1415925109
 40
0.2170997179
 40
0.2936876587
 40
0.3696543632
 40
0.4433298307
 40
0.5132144627
 40
0.5781344398
 40
0.6374265198
 40
0.6911612054
 40
0.7162804652
 40
0.740486441
 40
0.7640695881
 40
0.7873674811
 40
0.8107406636
 40
0.8345435635
 40
0.8590967533
 40
0.8846670339
 40
0.9395072487
 40
1.0
 40
1.0
 40
1.0
 40
1.0
 10
-1.1939122111
 20
-6.4741117063
 30
0.0
 10
-1.1938984403
 20
-6.853400488
 30
0.0
 10
-1.1308857975
 20
-7.6351002024
 30
0.0
 10
-0.8734595855
 20
-8.8075798022
 30
0.0
 10
-0.4595892644
 20
-9.9801772073
 30
0.0
 10
0.09574859
 20
-11.1118723167
 30
0.0
 10
0.772465358
 20
-12.1635241836
 30
0.0
 10
1.5463844307
 20
-13.0986453436
 30
0.0
 10
2.3901764757
 20
-13.8849605709
 30
0.0
 10
3.2751180065
 20
-14.4953285246
 30
0.0
 10
4.1715536326
 20
-14.9081773466
 30
0.0
 10
4.9225640697
 20
-15.0769999306
 30
0.0
 10
5.4923945374
 20
-15.090819811
 30
0.0
 10
5.8932381746
 20
-15.044273485
 30
0.0
 10
6.2730692801
 20
-14.9411108281
 30
0.0
 10
6.6281725384
 20
-14.7821376515
 30
0.0
 10
6.9550198209
 20
-14.5688940045
 30
0.0
 10
7.250466721
 20
-14.3035834921
 30
0.0
 10
7.5118973929
 20
-13.9889366452
 30
0.0
 10
7.8192699945
 20
-13.4965762837
 30
0.0
 10
8.1022708513
 20
-12.7651304077
 30
0.0
 10
8.2092117229
 20
-12.1342360411
 30
0.0
 10
8.2389072697
 20
-11.8019280183
 30
0.0
 11
-1.1939122111
 21
-6.4741117063
 31
0.0
 11
-1.1079468711
 21
-7.6087260818
 31
0.0
 11
-0.8532500219
 21
-8.7863834942
 31
0.0
 11
-0.4392769069
 21
-9.9651247729
 31
0.0
 11
0.1186488723
 21
-11.1028957866
 31
0.0
 11
0.7999173996
 21
-12.1591780541
 31
0.0
 11
1.5794839647
 21
-13.0963395714
 31
0.0
 11
2.4288170212
 21
-13.8809699441
 31
0.0
 11
3.317008967
 21
-14.485047428
 31
0.0
 11
4.2119506333
 21
-14.8869186933
 31
0.0
 11
5.0815244351
 21
-15.0721314166
 31
0.0
 11
5.4970449581
 21
-15.0810600937
 31
0.0
 11
5.894765409
 21
-15.0339104087
 31
0.0
 11
6.2711692336
 21
-14.9310684636
 31
0.0
 11
6.6229456626
 21
-14.7734339524
 31
0.0
 11
6.9470176118
 21
-14.5624016816
 31
0.0
 11
7.2405507109
 21
-14.2998272016
 31
0.0
 11
7.500987943
 21
-13.988039073
 31
0.0
 11
7.7260768633
 21
-13.6298062694
 31
0.0
 11
8.0627231859
 21
-12.7871961017
 31
0.0
 11
8.2389072697
 21
-11.8019280183
 31
0.0
  0
SPLINE
  5
3A3
100
AcDbEntity
  8
RACCORDO
100
AcDbSpline
 62
253
  6
CONTINUOUS
 70
0
 71
3
 72
15
 73
11
 74
9
 42
0.0000001
 43
0.0000001
 44
0.0000000001
 12
-0.0064710305
 22
7.3564117715
 32
0.0
 13
-6.5769174245
 23
3.2956021023
 33
0.0
 40
0.0
 40
0.0
 40
0.0
 40
0.0
 40
0.119757206
 40
0.2467935277
 40
0.3784596137
 40
0.5116849845
 40
0.6432737885
 40
0.7701664643
 40
0.889713064
 40
1.0
 40
1.0
 40
1.0
 40
1.0
 10
14.5478219235
 20
10.5151171179
 30
0.0
 10
14.547563606
 20
10.8087782246
 30
0.0
 10
14.4971744491
 20
11.4145193226
 30
0.0
 10
14.2935550684
 20
12.3224292258
 30
0.0
 10
13.9670328978
 20
13.2289050926
 30
0.0
 10
13.5297888686
 20
14.0998171767
 30
0.0
 10
12.9982346879
 20
14.902681183
 30
0.0
 10
12.3919974672
 20
15.6075330454
 30
0.0
 10
11.7337839535
 20
16.1880093795
 30
0.0
 10
11.2545214399
 20
16.4910695899
 30
0.0
 10
11.0127387497
 20
16.6122235425
 30
0.0
 11
14.5478219235
 21
10.5151171179
 31
0.0
 11
14.4792600363
 21
11.3934288385
 31
0.0
 11
14.2776374201
 21
12.3059517734
 31
0.0
 11
13.9506815786
 21
13.2176902691
 31
0.0
 11
13.5109460286
 21
14.0935625983
 31
0.0
 11
12.975338073
 21
14.8999063995
 31
0.0
 11
12.3644397911
 21
15.6057244481
 31
0.0
 11
11.7017681558
 21
16.1838862646
 31
0.0
 11
11.0127387497
 21
16.6122235425
 31
0.0
  0
SPLINE
  5
3A4
100
AcDbEntity
  8
RACCORDO
100
AcDbSpline
 62
253
  6
CONTINUOUS
 70
0
 71
3
 72
12
 73
8
 74
6
 42
0.0000001
 43
0.0000001
 44
0.0000000001
 12
-2.1290992704
 22
1.0622451028
 32
0.0
 13
-2.0940669403
 23
-1.129739798
 33
0.0
 40
0.0
 40
0.0
 40
0.0
 40
0.0
 40
0.2795244402
 40
0.5353053539
 40
0.7723599701
 40
0.8867548417
 40
1.0
 40
1.0
 40
1.0
 40
1.0
 10
-16.5355840155
 20
30.3863849061
 30
0.0
 10
-16.7339624427
 20
30.4853593954
 30
0.0
 10
-17.1307182081
 20
30.6444346731
 30
0.0
 10
-17.7384309213
 20
30.7531652961
 30
0.0
 10
-18.2251166483
 20
30.7198432992
 30
0.0
 10
-18.5803600685
 20
30.6177969064
 30
0.0
 10
-18.7457109889
 20
30.5434404922
 30
0.0
 10
-18.8247586363
 20
30.5007946381
 30
0.0
 11
-16.5355840155
 21
30.3863849061
 31
0.0
 11
-17.1549793762
 21
30.6286635399
 31
0.0
 11
-17.7551111961
 21
30.729828676
 31
0.0
 11
-18.3175075302
 21
30.6867739041
 31
0.0
 11
-18.5790489748
 21
30.6113910084
 31
0.0
 11
-18.8247586363
 21
30.5007946381
 31
0.0
  0
SPLINE
  5
3A5
100
AcDbEntity
  8
RACCORDO
100
AcDbSpline
 62
253
  6
CONTINUOUS
 70
0
 71
3
 72
27
 73
23
 74
21
 42
0.0000001
 43
0.0000001
 44
0.0000000001
 12
-1.5237099363
 22
16.4160619507
 32
0.0
 13
-0.0005795158
 23
-16.4866243241
 33
0.0
 40
0.0
 40
0.0
 40
0.0
 40
0.0
 40
0.0714914545
 40
0.1461827084
 40
0.2225066292
 40
0.2987684957
 40
0.373293589
 40
0.4445568979
 40
0.5113229764
 40
0.5728025739
 40
0.6288358512
 40
0.6800883769
 40
0.7044524459
 40
0.7282997944
 40
0.7519505206
 40
0.7757391395
 40
0.7999894592
 40
0.8249918279
 40
0.8780573024
 40
0.9065204566
 40
0.9363402716
 40
1.0
 40
1.0
 40
1.0
 40
1.0
 10
8.2311731785
 20
-10.4898650696
 30
0.0
 10
8.194862432
 20
-10.0986623544
 30
0.0
 10
8.0637826016
 20
-9.3033090469
 30
0.0
 10
7.7173479741
 20
-8.1278223989
 30
0.0
 10
7.2269989319
 20
-6.976060765
 30
0.0
 10
6.6091059685
 20
-5.8884799208
 30
0.0
 10
5.8843623815
 20
-4.903007805
 30
0.0
 10
5.0769804618
 20
-4.0541009425
 30
0.0
 10
4.2138120206
 20
-3.3712989496
 30
0.0
 10
3.3227276992
 20
-2.878704317
 30
0.0
 10
2.4325456051
 20
-2.5947690815
 30
0.0
 10
1.701621687
 20
-2.5440191735
 30
0.0
 10
1.1590400575
 20
-2.6234582556
 30
0.0
 10
0.7795391886
 20
-2.7381451534
 30
0.0
 10
0.4248192647
 20
-2.9080269807
 30
0.0
 10
0.0984222585
 20
-3.1313469737
 30
0.0
 10
-0.1964802261
 20
-3.4058108202
 30
0.0
 10
-0.5508238124
 20
-3.8444274798
 30
0.0
 10
-0.8230162011
 20
-4.3705388243
 30
0.0
 10
-1.0128155505
 20
-4.9529559647
 30
0.0
 10
-1.1556726773
 20
-5.6086979634
 30
0.0
 10
-1.1938999139
 20
-6.124267031
 30
0.0
 10
-1.1939122111
 20
-6.4741117063
 30
0.0
 11
8.2311731785
 21
-10.4898650696
 31
0.0
 11
8.0435663152
 21
-9.326238851
 31
0.0
 11
7.6977052119
 21
-8.1444002734
 31
0.0
 11
7.205364575
 21
-6.9863935775
 31
0.0
 11
6.5834292941
 21
-5.8936897448
 31
0.0
 11
5.8533501336
 21
-4.9054551824
 31
0.0
 11
5.0404716135
 21
-4.057163771
 31
0.0
 11
4.1732459489
 21
-3.3792521518
 31
0.0
 11
3.2822667842
 21
-2.8960100795
 31
0.0
 11
2.3992118237
 21
-2.6246807099
 31
0.0
 11
1.5557048245
 21
-2.5747901955
 31
0.0
 11
1.1583649625
 21
-2.633687253
 31
0.0
 11
0.7821525388
 21
-2.7478835195
 31
0.0
 11
0.4304935552
 21
-2.9163295437
 31
0.0
 11
0.1065962271
 21
-3.1374780755
 31
0.0
 11
-0.1865864419
 21
-3.4093028151
 31
0.0
 11
-0.4463654429
 21
-3.7293458624
 31
0.0
 11
-0.856500733
 21
-4.5021249453
 31
0.0
 11
-1.0030935899
 21
-4.9479014943
 31
0.0
 11
-1.1087749135
 21
-5.4280365114
 31
0.0
 11
-1.1939122111
 21
-6.4741117063
 31
0.0
  0
SPLINE
  5
3A6
100
AcDbEntity
  8
RACCORDO
100
AcDbSpline
 62
253
  6
CONTINUOUS
 70
0
 71
3
 72
10
 73
6
 74
4
 42
0.0000001
 43
0.0000001
 44
0.0000000001
 12
-0.1652345154
 22
0.502211435
 32
0.0
 13
-0.4716032562
 23
0.2389751856
 33
0.0
 40
0.0
 40
0.0
 40
0.0
 40
0.0
 40
0.5268294424
 40
0.7757801585
 40
1.0
 40
1.0
 40
1.0
 40
1.0
 10
-7.5216052988
 20
25.6312736342
 30
0.0
 10
-7.5506221013
 20
25.719466891
 30
0.0
 10
-7.6163589253
 20
25.8434906934
 30
0.0
 10
-7.7369539541
 20
25.9728739356
 30
0.0
 10
-7.8060269022
 20
26.0213689757
 30
0.0
 10
-7.8412745047
 20
26.0392299685
 30
0.0
 11
-7.5216052988
 21
25.6312736342
 31
0.0
 11
-7.652734435
 21
25.8770079988
 31
0.0
 11
-7.7432611936
 21
25.9725511283
 31
0.0
 11
-7.8412745047
 21
26.0392299685
 31
0.0
  0
SPLINE
  5
3A7
100
AcDbEntity
  8
RACCORDO
100
AcDbSpline
 62
253
  6
CONTINUOUS
 70
0
 71
3
 72
10
 73
6
 74
4
 42
0.0000001
 43
0.0000001
 44
0.0000000001
 12
-0.2118903473
 22
0.1045380469
 32
0.0
 13
-0.2086862299
 23
-0.110796119
 33
0.0
 40
0.0
 40
0.0
 40
0.0
 40
0.0
 40
0.5350411614
 40
0.7728291561
 40
1.0
 40
1.0
 40
1.0
 40
1.0
 10
2.3184371824
 20
20.9593741249
 30
0.0
 10
2.2806471633
 20
20.9780181776
 30
0.0
 10
2.2203851329
 20
20.9971382025
 30
0.0
 10
2.1410234307
 20
20.9920053161
 30
0.0
 10
2.1059587831
 20
20.9795283427
 30
0.0
 10
2.0901563074
 20
20.9711384601
 30
0.0
 11
2.3184371824
 21
20.9593741249
 31
0.0
 11
2.1966932233
 21
20.9934267995
 31
0.0
 11
2.140660848
 21
20.989311701
 31
0.0
 11
2.0901563074
 21
20.9711384601
 31
0.0
  0
LINE
  5
3A8
100
AcDbEntity
  8
RACCORDO
100
AcDbLine
 62
253
  6
CONTINUOUS
 10
8.3356156763
 20
-1.1282625841
 11
8.3577607319
 21
-0.0340744152
  0
SPLINE
  5
3A9
100
AcDbEntity
  8
RACCORDO
100
AcDbSpline
 62
253
  6
CONTINUOUS
 70
0
 71
3
 72
11
 73
7
 74
5
 42
0.0000001
 43
0.0000001
 44
0.0000000001
 12
0.0
 22
0.4363619363
 32
0.0
 13
0.386929169
 23
0.2017363567
 33
0.0
 40
0.0
 40
0.0
 40
0.0
 40
0.0
 40
0.2462479807
 40
0.5106590784
 40
0.769251615
 40
1.0
 40
1.0
 40
1.0
 40
1.0
 10
10.804396495
 20
16.2481965976
 30
0.0
 10
10.804396495
 20
16.2840143462
 30
0.0
 10
10.8166157138
 20
16.3584218063
 30
0.0
 10
10.8610181699
 20
16.4621320116
 30
0.0
 10
10.926392368
 20
16.5512987877
 30
0.0
 10
10.9830652212
 20
16.5966627792
 30
0.0
 10
11.0128263148
 20
16.6121795587
 30
0.0
 11
10.804396495
 21
16.2481965976
 31
0.0
 11
10.8201938765
 21
16.3544822634
 31
0.0
 11
10.8652319885
 21
16.4607078155
 31
0.0
 11
10.9327816235
 21
16.5510953084
 31
0.0
 11
11.0128263148
 21
16.6121795587
 31
0.0
  0
SPLINE
  5
3AA
100
AcDbEntity
  8
RACCORDO
100
AcDbSpline
 62
253
  6
CONTINUOUS
 70
0
 71
3
 72
11
 73
7
 74
5
 42
0.0000001
 43
0.0000001
 44
0.0000000001
 12
0.0000000741
 22
0.436361924
 32
0.0
 13
0.3869291253
 23
0.2017364141
 33
0.0
 40
0.0
 40
0.0
 40
0.0
 40
0.0
 40
0.2462479498
 40
0.5106590466
 40
0.7692515998
 40
1.0
 40
1.0
 40
1.0
 40
1.0
 10
2.1100073626
 20
20.5953911638
 30
0.0
 10
2.1100073686
 20
20.6312089069
 30
0.0
 10
2.1222265949
 20
20.7056163579
 30
0.0
 10
2.1666290498
 20
20.809326557
 30
0.0
 10
2.2320032411
 20
20.898493339
 30
0.0
 10
2.2886760894
 20
20.9438573404
 30
0.0
 10
2.3184371816
 20
20.9593741254
 30
0.0
 11
2.1100073626
 21
20.5953911638
 31
0.0
 11
2.1258047539
 21
20.7016768114
 31
0.0
 11
2.1708428657
 21
20.8079023597
 31
0.0
 11
2.238392496
 21
20.8982898612
 31
0.0
 11
2.3184371816
 21
20.9593741254
 31
0.0
  0
SPLINE
  5
3AB
100
AcDbEntity
  8
RACCORDO
100
AcDbSpline
 62
253
  6
CONTINUOUS
 70
0
 71
3
 72
11
 73
7
 74
5
 42
0.0000001
 43
0.0000001
 44
0.0000000001
 12
-0.1744560978
 22
0.1880943549
 32
0.0
 13
0.1105404194
 23
0.2315064407
 33
0.0
 40
0.0
 40
0.0
 40
0.0
 40
0.0
 40
0.2815100674
 40
0.5402266344
 40
0.7769448198
 40
1.0
 40
1.0
 40
1.0
 40
1.0
 10
1.9821396802
 20
20.5600763125
 30
0.0
 10
1.9657692976
 20
20.577726464
 30
0.0
 10
1.9376975273
 20
20.6149947611
 30
0.0
 10
1.9115464721
 20
20.676936916
 30
0.0
 10
1.9051942356
 20
20.7391085656
 30
0.0
 10
1.9153289979
 20
20.7781923173
 30
0.0
 10
1.9235478689
 20
20.7954052209
 30
0.0
 11
1.9821396802
 21
20.5600763125
 31
0.0
 11
1.9391982112
 21
20.6181425309
 31
0.0
 11
1.9141589602
 21
20.6796102078
 31
0.0
 11
1.9088374744
 21
20.7401050462
 31
0.0
 11
1.9235478689
 21
20.7954052209
 31
0.0
  0
SPLINE
  5
3AC
100
AcDbEntity
  8
RACCORDO
100
AcDbSpline
 62
253
  6
CONTINUOUS
 70
0
 71
3
 72
11
 73
7
 74
5
 42
0.0000001
 43
0.0000001
 44
0.0000000001
 12
0.0500658326
 22
0.430744932
 32
0.0
 13
0.3849233048
 23
0.1997043652
 33
0.0
 40
0.0
 40
0.0
 40
0.0
 40
0.0
 40
0.2386833623
 40
0.5027975913
 40
0.7654011562
 40
1.0
 40
1.0
 40
1.0
 40
1.0
 10
-0.4545274636
 20
20.1558180361
 30
0.0
 10
-0.4505441699
 20
20.1900885857
 30
0.0
 10
-0.4303021931
 20
20.2609380858
 30
0.0
 10
-0.3771490958
 20
20.3587605024
 30
0.0
 10
-0.3060219388
 20
20.4436319174
 30
0.0
 10
-0.2479185344
 20
20.4877248071
 30
0.0
 10
-0.2178176803
 20
20.5033416115
 30
0.0
 11
-0.4545274636
 21
20.1558180361
 31
0.0
 11
-0.4280190649
 21
20.2558697206
 31
0.0
 11
-0.3738681439
 21
20.3567914738
 31
0.0
 11
-0.3001553014
 21
20.4435918825
 31
0.0
 11
-0.2178176803
 21
20.5033416115
 31
0.0
  0
SPLINE
  5
3AD
100
AcDbEntity
  8
RACCORDO
100
AcDbSpline
 62
253
  6
CONTINUOUS
 70
0
 71
3
 72
11
 73
7
 74
5
 42
0.0000001
 43
0.0000001
 44
0.0000000001
 12
-0.0452433319
 22
0.4344975378
 32
0.0
 13
0.387010817
 23
0.2026269896
 33
0.0
 40
0.0
 40
0.0
 40
0.0
 40
0.0
 40
0.2538176835
 40
0.4528917497
 40
0.6493270169
 40
1.0
 40
1.0
 40
1.0
 40
1.0
 10
-5.4851694984
 20
22.6711390535
 30
0.0
 10
-5.4889973509
 20
22.7079001064
 30
0.0
 10
-5.4852026409
 20
22.7748282633
 30
0.0
 10
-5.4584866988
 20
22.8661455169
 30
0.0
 10
-5.4086874616
 20
22.9628539665
 30
0.0
 10
-5.3502577209
 20
23.0232573219
 30
0.0
 10
-5.3050196417
 20
23.0469425922
 30
0.0
 11
-5.4851694984
 21
22.6711390535
 31
0.0
 11
-5.480083134
 21
22.7819017551
 31
0.0
 11
-5.4558135149
 21
22.8654114654
 31
0.0
 11
-5.4161557992
 21
22.9415099736
 31
0.0
 11
-5.3050196417
 21
23.0469425922
 31
0.0
  0
SPLINE
  5
3AE
100
AcDbEntity
  8
RACCORDO
100
AcDbSpline
 62
253
  6
CONTINUOUS
 70
0
 71
3
 72
11
 73
7
 74
5
 42
0.0000001
 43
0.0000001
 44
0.0000000001
 12
0.4180563454
 22
0.0326818342
 32
0.0
 13
0.3760425684
 23
0.1855564521
 33
0.0
 40
0.0
 40
0.0
 40
0.0
 40
0.0
 40
0.2133828938
 40
0.4763931386
 40
0.751721083
 40
1.0
 40
1.0
 40
1.0
 40
1.0
 10
-7.9218366422
 20
25.5120644737
 30
0.0
 10
-7.8921012846
 20
25.5143890551
 30
0.0
 10
-7.826262948
 20
25.5257380551
 30
0.0
 10
-7.7245212323
 20
25.5521909106
 30
0.0
 10
-7.6202775518
 20
25.5874350875
 30
0.0
 10
-7.5527264464
 20
25.6159170504
 30
0.0
 10
-7.5216052991
 20
25.6312736354
 30
0.0
 11
-7.9218366422
 21
25.5120644737
 31
0.0
 11
-7.8333945625
 21
25.5256422153
 31
0.0
 11
-7.7265511848
 21
25.5529929474
 31
0.0
 11
-7.6172011922
 21
25.5900355488
 31
0.0
 11
-7.5216052991
 21
25.6312736354
 31
0.0
  0
SPLINE
  5
3AF
100
AcDbEntity
  8
RACCORDO
100
AcDbSpline
 62
253
  6
CONTINUOUS
 70
0
 71
3
 72
11
 73
7
 74
5
 42
0.0000001
 43
0.0000001
 44
0.0000000001
 12
0.0
 22
0.4363619363
 32
0.0
 13
0.386929169
 23
0.2017363567
 33
0.0
 40
0.0
 40
0.0
 40
0.0
 40
0.0
 40
0.2462479807
 40
0.5106590784
 40
0.769251615
 40
1.0
 40
1.0
 40
1.0
 40
1.0
 10
-8.0497043245
 20
25.6752470074
 30
0.0
 10
-8.0497043245
 20
25.7110647559
 30
0.0
 10
-8.0374851057
 20
25.785472216
 30
0.0
 10
-7.9930826496
 20
25.8891824214
 30
0.0
 10
-7.9277084515
 20
25.9783491975
 30
0.0
 10
-7.8710355983
 20
26.023713189
 30
0.0
 10
-7.8412745047
 20
26.0392299685
 30
0.0
 11
-8.0497043245
 21
25.6752470074
 31
0.0
 11
-8.033906943
 21
25.7815326731
 31
0.0
 11
-7.988868831
 21
25.8877582253
 31
0.0
 11
-7.921319196
 21
25.9781457181
 31
0.0
 11
-7.8412745047
 21
26.0392299685
 31
0.0
  0
SPLINE
  5
3B0
100
AcDbEntity
  8
RACCORDO
100
AcDbSpline
 62
253
  6
CONTINUOUS
 70
0
 71
3
 72
11
 73
7
 74
5
 42
0.0000001
 43
0.0000001
 44
0.0000000001
 12
-0.0000000024
 22
0.4363619367
 32
0.0
 13
0.3869291705
 23
0.2017363547
 33
0.0
 40
0.0
 40
0.0
 40
0.0
 40
0.0
 40
0.246247973
 40
0.5106590689
 40
0.7692516089
 40
1.0
 40
1.0
 40
1.0
 40
1.0
 10
-16.7440934569
 20
30.0224415736
 30
0.0
 10
-16.7440934571
 20
30.058259321
 30
0.0
 10
-16.7318742391
 20
30.1326667798
 30
0.0
 10
-16.6874717844
 20
30.2363769849
 30
0.0
 10
-16.622097586
 20
30.3255437625
 30
0.0
 10
-16.5654247315
 20
30.3709077549
 30
0.0
 10
-16.535663637
 20
30.3864245347
 30
0.0
 11
-16.7440934569
 21
30.0224415736
 31
0.0
 11
-16.7282960767
 21
30.1287272362
 31
0.0
 11
-16.683257966
 21
30.2349527882
 31
0.0
 11
-16.6157083306
 21
30.3253402827
 31
0.0
 11
-16.535663637
 21
30.3864245347
 31
0.0
  0
SPLINE
  5
3B1
100
AcDbEntity
  8
RACCORDO
100
AcDbSpline
 62
253
  6
CONTINUOUS
 70
0
 71
3
 72
11
 73
7
 74
5
 42
0.0000001
 43
0.0000001
 44
0.0000000001
 12
-0.1291269358
 22
0.0645634679
 32
0.0
 13
-0.0000453382
 23
0.144368296
 33
0.0
 40
0.0
 40
0.0
 40
0.0
 40
0.0
 40
0.302299569
 40
0.5655434271
 40
0.7934540135
 40
1.0
 40
1.0
 40
1.0
 40
1.0
 10
-20.0669891583
 20
27.6141899558
 30
0.0
 10
-20.0800008307
 20
27.620695792
 30
0.0
 10
-20.1035309567
 20
27.6346791716
 30
0.0
 10
-20.1321228271
 20
27.6604750782
 30
0.0
 10
-20.1504685305
 20
27.6892306137
 30
0.0
 10
-20.1548407267
 20
27.7103005048
 30
0.0
 10
-20.1548438482
 20
27.7202400688
 30
0.0
 11
-20.0669891583
 21
27.6141899558
 31
0.0
 11
-20.1042556247
 21
27.6369028636
 31
0.0
 11
-20.1320218041
 21
27.662851824
 31
0.0
 11
-20.1490897473
 21
27.6909818254
 31
0.0
 11
-20.1548438482
 21
27.7202400688
 31
0.0
  0
SPLINE
  5
3B2
100
AcDbEntity
  8
RACCORDO
100
AcDbSpline
 62
253
  6
CONTINUOUS
 70
0
 71
3
 72
11
 73
7
 74
5
 42
0.0000001
 43
0.0000001
 44
0.0000000001
 12
0.0
 22
-0.1889124304
 32
0.0
 13
0.168912539
 23
-0.084595866
 33
0.0
 40
0.0
 40
0.0
 40
0.0
 40
0.0
 40
0.2895715287
 40
0.549637177
 40
0.782832727
 40
1.0
 40
1.0
 40
1.0
 40
1.0
 10
-16.7440934569
 20
-19.2180450786
 30
0.0
 10
-16.7440934569
 20
-19.2362796324
 30
0.0
 10
-16.7411310547
 20
-19.2710190279
 30
0.0
 10
-16.7263118701
 20
-19.3185388854
 30
0.0
 10
-16.7014964712
 20
-19.3565850198
 30
0.0
 10
-16.6783508233
 20
-19.3741791974
 30
0.0
 10
-16.6661233982
 20
-19.3803030152
 30
0.0
 11
-16.7440934569
 21
-19.2180450786
 31
0.0
 11
-16.7389063164
 21
-19.2725022556
 31
0.0
 11
-16.7236093557
 21
-19.319189769
 31
0.0
 11
-16.6989487171
 21
-19.3556941128
 31
0.0
 11
-16.6661233982
 21
-19.3803030152
 31
0.0
  0
SPLINE
  5
3B3
100
AcDbEntity
  8
RACCORDO
100
AcDbSpline
 62
253
  6
CONTINUOUS
 70
0
 71
3
 72
11
 73
7
 74
5
 42
0.0000001
 43
0.0000001
 44
0.0000000001
 12
-0.0000000321
 22
-0.1889123949
 32
0.0
 13
0.1689124898
 23
-0.0845958848
 33
0.0
 40
0.0
 40
0.0
 40
0.0
 40
0.0
 40
0.289571514
 40
0.549637136
 40
0.782832697
 40
1.0
 40
1.0
 40
1.0
 40
1.0
 10
-8.0497043245
 20
-23.5652396448
 30
0.0
 10
-8.0497043276
 20
-23.5834741942
 30
0.0
 10
-8.0467419334
 20
-23.6182135813
 30
0.0
 10
-8.0319227575
 20
-23.66573343
 30
0.0
 10
-8.0071073683
 20
-23.7037795611
 30
0.0
 10
-7.9839617274
 20
-23.721373743
 30
0.0
 10
-7.9717343042
 20
-23.7274975631
 30
0.0
 11
-8.0497043245
 21
-23.5652396448
 31
0.0
 11
-8.044517195
 21
-23.6196968098
 31
0.0
 11
-8.029220245
 21
-23.6663843117
 31
0.0
 11
-8.0045596158
 21
-23.7028886544
 31
0.0
 11
-7.9717343042
 21
-23.7274975631
 31
0.0
  0
SPLINE
  5
3B4
100
AcDbEntity
  8
RACCORDO
100
AcDbSpline
 62
253
  6
CONTINUOUS
 70
0
 71
3
 72
10
 73
6
 74
4
 42
0.0000001
 43
0.0000001
 44
0.0000000001
 12
0.2950936213
 22
-0.3181628216
 32
0.0
 13
0.3918999408
 23
0.1863391071
 33
0.0
 40
0.0
 40
0.0
 40
0.0
 40
0.0
 40
0.2605313736
 40
0.526910297
 40
1.0
 40
1.0
 40
1.0
 40
1.0
 10
-7.9218366422
 20
-23.5299247935
 30
0.0
 10
-7.8962095933
 20
-23.5575552591
 30
0.0
 10
-7.8349177907
 20
-23.6053536336
 30
0.0
 10
-7.7014899483
 20
-23.6613428287
 30
0.0
 10
-7.5834065744
 20
-23.6618906955
 30
0.0
 10
-7.5216052989
 20
-23.6325056579
 30
0.0
 11
-7.9218366422
 21
-23.5299247935
 31
0.0
 11
-7.8333945531
 21
-23.600349869
 31
0.0
 11
-7.7265511723
 21
-23.6444677568
 31
0.0
 11
-7.5216052989
 21
-23.6325056579
 31
0.0
  0
SPLINE
  5
3B5
100
AcDbEntity
  8
RACCORDO
100
AcDbSpline
 62
253
  6
CONTINUOUS
 70
0
 71
3
 72
11
 73
7
 74
5
 42
0.0000001
 43
0.0000001
 44
0.0000000001
 12
-0.0182684393
 22
-0.1571738096
 32
0.0
 13
0.1317370042
 23
-0.0876510355
 33
0.0
 40
0.0
 40
0.0
 40
0.0
 40
0.0
 40
0.2971852395
 40
0.5590759373
 40
0.7890902326
 40
1.0
 40
1.0
 40
1.0
 40
1.0
 10
-5.4851694984
 20
-23.1256665171
 30
0.0
 10
-5.4869792019
 20
-23.1412364292
 30
0.0
 10
-5.4881340808
 20
-23.1708864173
 30
0.0
 10
-5.4812181656
 20
-23.2123042285
 30
0.0
 10
-5.4653255703
 20
-23.2464309463
 30
0.0
 10
-5.4483742764
 20
-23.2632618137
 30
0.0
 10
-5.4391127361
 20
-23.2694239669
 30
0.0
 11
-5.4851694984
 21
-23.1256665171
 31
0.0
 11
-5.4864961205
 21
-23.1726719931
 31
0.0
 11
-5.4790078983
 21
-23.2134292766
 31
0.0
 11
-5.4629938608
 21
-23.2461124627
 31
0.0
 11
-5.4391127361
 21
-23.2694239669
 31
0.0
  0
SPLINE
  5
3B6
100
AcDbEntity
  8
RACCORDO
100
AcDbSpline
 62
253
  6
CONTINUOUS
 70
0
 71
3
 72
11
 73
7
 74
5
 42
0.0000001
 43
0.0000001
 44
0.0000000001
 12
0.0232511525
 22
-0.2232940873
 32
0.0
 13
0.2128587092
 23
-0.0713584994
 33
0.0
 40
0.0
 40
0.0
 40
0.0
 40
0.0
 40
0.2843907687
 40
0.5434520117
 40
0.7788772473
 40
1.0
 40
1.0
 40
1.0
 40
1.0
 10
-0.4545274636
 20
-25.6409875345
 30
0.0
 10
-0.4523233259
 20
-25.6621551269
 30
0.0
 10
-0.4442610217
 20
-25.702375402
 30
0.0
 10
-0.4197084691
 20
-25.7559362954
 30
0.0
 10
-0.3840089188
 20
-25.7969918211
 30
0.0
 10
-0.3534387556
 20
-25.8141058796
 30
0.0
 10
-0.3377494544
 20
-25.8193655422
 30
0.0
 11
-0.4545274636
 21
-25.6409875345
 31
0.0
 11
-0.4414017445
 21
-25.7034698697
 31
0.0
 11
-0.4164710009
 21
-25.7560150653
 31
0.0
 11
-0.3812228144
 21
-25.7953982522
 31
0.0
 11
-0.3377494544
 21
-25.8193655422
 31
0.0
  0
SPLINE
  5
3B7
100
AcDbEntity
  8
RACCORDO
100
AcDbSpline
 62
253
  6
CONTINUOUS
 70
0
 71
3
 72
10
 73
6
 74
4
 42
0.0000001
 43
0.0000001
 44
0.0000000001
 12
-0.0766782528
 22
-0.0059943737
 32
0.0
 13
-0.0235078727
 23
0.0732315976
 33
0.0
 40
0.0
 40
0.0
 40
0.0
 40
0.0
 40
0.3787061041
 40
0.6707304343
 40
1.0
 40
1.0
 40
1.0
 40
1.0
 10
1.9821396802
 20
-28.4819129546
 30
0.0
 10
1.9724601727
 20
-28.4826696566
 30
0.0
 10
1.954853503
 20
-28.4833481033
 30
0.0
 10
1.930716867
 20
-28.4819501557
 30
0.0
 10
1.9113940904
 20
-28.4761373905
 30
0.0
 10
1.908813948
 20
-28.4680997451
 30
0.0
 11
1.9821396802
 21
-28.4819129546
 31
0.0
 11
1.9530299937
 21
-28.4829205834
 31
0.0
 11
1.9306599384
 21
-28.4809099212
 31
0.0
 11
1.908813948
 21
-28.4680997451
 31
0.0
  0
SPLINE
  5
3B8
100
AcDbEntity
  8
RACCORDO
100
AcDbSpline
 62
253
  6
CONTINUOUS
 70
0
 71
3
 72
11
 73
7
 74
5
 42
0.0000001
 43
0.0000001
 44
0.0000000001
 12
0.0
 22
-0.1888308884
 32
0.0
 13
0.1687774461
 23
-0.0846833991
 33
0.0
 40
0.0
 40
0.0
 40
0.0
 40
0.0
 40
0.2895572886
 40
0.5496264652
 40
0.7828334569
 40
1.0
 40
1.0
 40
1.0
 40
1.0
 10
2.1100073626
 20
-28.6450954884
 30
0.0
 10
2.1100073626
 20
-28.663321275
 30
0.0
 10
2.1129670676
 20
-28.6980448424
 30
0.0
 10
2.1277715453
 20
-28.7455461367
 30
0.0
 10
2.1525617492
 20
-28.7835850659
 30
0.0
 10
2.1756859657
 20
-28.8011862709
 30
0.0
 10
2.1879035705
 20
-28.8073164046
 30
0.0
 11
2.1100073626
 21
-28.6450954884
 31
0.0
 11
2.1151892696
 21
-28.6995267436
 31
0.0
 11
2.1304710174
 21
-28.7461976259
 31
0.0
 11
2.1551079693
 21
-28.7826976271
 31
0.0
 11
2.1879035705
 21
-28.8073164046
 31
0.0
  0
SPLINE
  5
3B9
100
AcDbEntity
  8
RACCORDO
100
AcDbSpline
 62
253
  6
CONTINUOUS
 70
0
 71
3
 72
11
 73
7
 74
5
 42
0.0000001
 43
0.0000001
 44
0.0000000001
 12
0.0000000011
 22
-0.1889022928
 32
0.0
 13
0.1688957454
 23
-0.0846067576
 33
0.0
 40
0.0
 40
0.0
 40
0.0
 40
0.0
 40
0.2895697583
 40
0.5496358406
 40
0.7828328156
 40
1.0
 40
1.0
 40
1.0
 40
1.0
 10
10.804396495
 20
-32.9922900546
 30
0.0
 10
10.8043964951
 20
-33.0105235183
 30
0.0
 10
10.8073585616
 20
-33.0452609457
 30
0.0
 10
10.8221759178
 20
-33.0927784953
 30
0.0
 10
10.8469881834
 20
-33.1308237347
 30
0.0
 10
10.8701311664
 20
-33.1484187881
 30
0.0
 10
10.8823573709
 20
-33.1545433919
 30
0.0
 11
10.804396495
 21
-32.9922900546
 31
0.0
 11
10.8095829846
 21
-33.0467440088
 31
0.0
 11
10.8248780535
 21
-33.0934294539
 31
0.0
 11
10.8495357469
 21
-33.1299332593
 31
0.0
 11
10.8823573709
 21
-33.1545433919
 31
0.0
  0
SPLINE
  5
3BA
100
AcDbEntity
  8
RACCORDO
100
AcDbSpline
 62
253
  6
CONTINUOUS
 70
0
 71
3
 72
11
 73
7
 74
5
 42
0.0000001
 43
0.0000001
 44
0.0000000001
 12
0.3862564221
 22
-0.193128211
 32
0.0
 13
0.388888191
 23
0.1877724804
 33
0.0
 40
0.0
 40
0.0
 40
0.0
 40
0.0
 40
0.2348074367
 40
0.498746538
 40
0.7633588641
 40
1.0
 40
1.0
 40
1.0
 40
1.0
 10
14.1272921963
 20
-30.5840384368
 30
0.0
 10
14.1575241565
 20
-30.5991544169
 30
0.0
 10
14.2269407995
 20
-30.6208355886
 30
0.0
 10
14.3368881442
 20
-30.6314867493
 30
0.0
 10
14.4471878879
 20
-30.6217431971
 30
0.0
 10
14.5171460941
 20
-30.600684954
 30
0.0
 10
14.5478217418
 20
-30.5858733897
 30
0.0
 11
14.1272921963
 21
-30.5840384368
 31
0.0
 11
14.2234222066
 21
-30.6163060604
 31
0.0
 11
14.3368063865
 21
-30.6279600383
 31
0.0
 11
14.4505800773
 21
-30.6172972488
 31
0.0
 11
14.5478217418
 21
-30.5858733897
 31
0.0
  0
SPLINE
  5
3BB
100
AcDbEntity
  8
RACCORDO
100
AcDbSpline
 62
253
  6
CONTINUOUS
 70
0
 71
3
 72
11
 73
7
 74
5
 42
0.0000001
 43
0.0000001
 44
0.0000000001
 12
0.386256423
 22
-0.1931282083
 32
0.0
 13
0.388888192
 23
0.1877724774
 33
0.0
 40
0.0
 40
0.0
 40
0.0
 40
0.0
 40
0.2348074288
 40
0.4987465285
 40
0.7633588583
 40
1.0
 40
1.0
 40
1.0
 40
1.0
 10
14.1272921963
 20
10.5170492785
 30
0.0
 10
14.1575241555
 20
10.5019332992
 30
0.0
 10
14.2269407971
 20
10.480252128
 30
0.0
 10
14.3368881408
 20
10.4696009668
 30
0.0
 10
14.4471878856
 20
10.4793445182
 30
0.0
 10
14.5171460932
 20
10.5004027611
 30
0.0
 10
14.5478217418
 20
10.5152143255
 30
0.0
 11
14.1272921963
 21
10.5170492785
 31
0.0
 11
14.2234222033
 21
10.4847816562
 31
0.0
 11
14.3368063823
 21
10.4731276777
 31
0.0
 11
14.4505800748
 21
10.4837904665
 31
0.0
 11
14.5478217418
 21
10.5152143255
 31
0.0
  0
SPLINE
  5
3BC
100
AcDbEntity
  8
RACCORDO
100
AcDbSpline
 62
253
  6
CONTINUOUS
 70
0
 71
3
 72
23
 73
19
 74
17
 42
0.0000001
 43
0.0000001
 44
0.0000000001
 12
0.0006005217
 22
-8.514930267
 32
0.0
 13
0.0004979203
 23
8.5149302736
 33
0.0
 40
0.0
 40
0.0
 40
0.0
 40
0.0
 40
0.0687544793
 40
0.1416609715
 40
0.2172261847
 40
0.2937052288
 40
0.3692733071
 40
0.4421703349
 40
0.5108631357
 40
0.57422644
 40
0.6317592064
 40
0.6838376733
 40
0.7319350856
 40
0.7785728225
 40
0.8267242842
 40
0.8788947447
 40
0.9365309192
 40
1.0
 40
1.0
 40
1.0
 40
1.0
 10
-9.4194651214
 20
-2.3613352512
 30
0.0
 10
-9.4194513585
 20
-2.5564817835
 30
0.0
 10
-9.3860952168
 20
-2.9589751531
 30
0.0
 10
-9.2502750059
 20
-3.5620653478
 30
0.0
 10
-9.0323058799
 20
-4.1639247181
 30
0.0
 10
-8.7404274158
 20
-4.7419746586
 30
0.0
 10
-8.3857386733
 20
-5.2747547583
 30
0.0
 10
-7.9815833275
 20
-5.7424299121
 30
0.0
 10
-7.5429450779
 20
-6.1276775046
 30
0.0
 10
-7.0855983933
 20
-6.4162009407
 30
0.0
 10
-6.625242369
 20
-6.5967863736
 30
0.0
 10
-6.1771797488
 20
-6.6605619495
 30
0.0
 10
-5.75819908
 20
-6.6001547774
 30
0.0
 10
-5.3897366134
 20
-6.4136929605
 30
0.0
 10
-5.092475886
 20
-6.1117867797
 30
0.0
 10
-4.8774725238
 20
-5.7127611383
 30
0.0
 10
-4.7486124561
 20
-5.2345918104
 30
0.0
 10
-4.7226810365
 20
-4.8898774933
 30
0.0
 10
-4.7226705023
 20
-4.7097325607
 30
0.0
 11
-9.4194651214
 21
-2.3613352512
 31
0.0
 11
-9.3740659329
 21
-2.9450119056
 31
0.0
 11
-9.2396321756
 21
-3.5510749232
 31
0.0
 11
-9.0214220009
 21
-4.1563762783
 31
0.0
 11
-8.7279326621
 21
-4.7377052116
 31
0.0
 11
-8.3705907001
 21
-5.2728159748
 31
0.0
 11
-7.9632848721
 21
-5.7412033439
 31
0.0
 11
-7.5218154278
 21
-6.1249084344
 31
0.0
 11
-7.063260783
 21
-6.4092052926
 31
0.0
 11
-6.6053006311
 21
-6.5831657958
 31
0.0
 11
-6.1655241019
 21
-6.6400836574
 31
0.0
 11
-5.7607516839
 21
-6.5777353766
 31
0.0
 11
-5.4063975823
 21
-6.3984725959
 31
0.0
 11
-5.1158955426
 21
-6.1091392875
 31
0.0
 11
-4.9002172782
 21
-5.7207821645
 31
0.0
 11
-4.7674757604
 21
-5.2483068457
 31
0.0
 11
-4.7226705023
 21
-4.7097325607
 31
0.0
  0
SPLINE
  5
3BD
100
AcDbEntity
  8
RACCORDO
100
AcDbSpline
 62
253
  6
CONTINUOUS
 70
0
 71
3
 72
11
 73
7
 74
5
 42
0.0000001
 43
0.0000001
 44
0.0000000001
 12
-0.0002236678
 22
3.7803853592
 32
0.0
 13
-2.6695970532
 23
2.6766705228
 33
0.0
 40
0.0
 40
0.0
 40
0.0
 40
0.0
 40
0.2371430976
 40
0.4917662312
 40
0.7506974779
 40
1.0
 40
1.0
 40
1.0
 40
1.0
 10
-4.7226705023
 20
-4.7097325607
 30
0.0
 10
-4.7226881828
 20
-4.4109017959
 30
0.0
 10
-4.7997019403
 20
-3.7902706406
 30
0.0
 10
-5.0955729424
 20
-2.8866316468
 30
0.0
 10
-5.5532780626
 20
-2.035822848
 30
0.0
 10
-5.956908038
 20
-1.5323121277
 30
0.0
 10
-6.1787537975
 20
-1.3098785569
 30
0.0
 11
-4.7226705023
 21
-4.7097325607
 31
0.0
 11
-4.8241266937
 21
-3.8189996726
 31
0.0
 11
-5.1198635
 21
-2.9029824156
 31
0.0
 11
-5.5846728889
 21
-2.0415191679
 31
0.0
 11
-6.1787537975
 21
-1.3098785569
 31
0.0
  0
SPLINE
  5
3BE
100
AcDbEntity
  8
RACCORDO
100
AcDbSpline
 62
253
  6
CONTINUOUS
 70
0
 71
3
 72
20
 73
16
 74
14
 42
0.0000001
 43
0.0000001
 44
0.0000000001
 12
-3.3532607454
 22
3.3621456774
 32
0.0
 13
-0.0003289066
 23
-4.7485135647
 33
0.0
 40
0.0
 40
0.0
 40
0.0
 40
0.0
 40
0.1514780525
 40
0.2217335587
 40
0.2879843325
 40
0.4086152232
 40
0.4642838517
 40
0.5178606261
 40
0.5704955761
 40
0.6234550325
 40
0.6779625938
 40
0.735057352
 40
0.7955047356
 40
0.8597611947
 40
1.0
 40
1.0
 40
1.0
 40
1.0
 10
-6.1787537975
 20
-1.3098785569
 30
0.0
 10
-6.3480689333
 20
-1.1401147971
 30
0.0
 10
-6.6177439019
 20
-0.9110592395
 30
0.0
 10
-7.0087403008
 20
-0.6749204009
 30
0.0
 10
-7.3798123987
 20
-0.5065410522
 30
0.0
 10
-7.7602529413
 20
-0.4164634219
 30
0.0
 10
-8.1257544285
 20
-0.426618796
 30
0.0
 10
-8.3777140976
 20
-0.4814286654
 30
0.0
 10
-8.6100686364
 20
-0.5831141191
 30
0.0
 10
-8.8186702843
 20
-0.7299073633
 30
0.0
 10
-8.9999982071
 20
-0.9189984193
 30
0.0
 10
-9.1513713935
 20
-1.1469298279
 30
0.0
 10
-9.2708184992
 20
-1.4099540063
 30
0.0
 10
-9.3889736179
 20
-1.8134072061
 30
0.0
 10
-9.4194497462
 20
-2.1393599614
 30
0.0
 10
-9.4194651214
 20
-2.3613352512
 30
0.0
 11
-6.1787537975
 21
-1.3098785569
 31
0.0
 11
-6.7311693361
 21
-0.8492016453
 31
0.0
 11
-7.0172650785
 21
-0.6776081109
 31
0.0
 11
-7.304282451
 21
-0.5488075123
 31
0.0
 11
-7.8639201826
 21
-0.4266379241
 31
0.0
 11
-8.128129136
 21
-0.4350626823
 31
0.0
 11
-8.376567181
 21
-0.489862378
 31
0.0
 11
-8.6054797779
 21
-0.5902013738
 31
0.0
 11
-8.811406249
 21
-0.7345475686
 31
0.0
 11
-8.9912357098
 21
-0.9207041678
 31
0.0
 11
-9.1422429431
 21
-1.1458714077
 31
0.0
 11
-9.2621315122
 21
-1.4066700837
 31
0.0
 11
-9.3490928702
 21
-1.6991381418
 31
0.0
 11
-9.4194651214
 21
-2.3613352512
 31
0.0
  0
SPLINE
  5
3BF
100
AcDbEntity
  8
RACCORDO
100
AcDbSpline
 62
253
  6
CONTINUOUS
 70
0
 71
3
 72
9
 73
5
 74
3
 42
0.0000001
 43
0.0000001
 44
0.0000000001
 12
0.0936174103
 22
0.044807352
 32
0.0
 13
0.0965318217
 23
-0.0381251321
 33
0.0
 40
0.0
 40
0.0
 40
0.0
 40
0.0
 40
0.533707535
 40
1.0
 40
1.0
 40
1.0
 40
1.0
 10
6.41785672
 20
20.2584092961
 30
0.0
 10
6.4345114924
 20
20.2663806366
 30
0.0
 10
6.4681821387
 20
20.277287043
 30
0.0
 10
6.5040392533
 20
20.273286954
 30
0.0
 10
6.5190432737
 20
20.2673611334
 30
0.0
 11
6.41785672
 21
20.2584092961
 31
0.0
 11
6.4710748495
 21
20.2737762773
 31
0.0
 11
6.5190432737
 21
20.2673611334
 31
0.0
  0
SPLINE
  5
3C0
100
AcDbEntity
  8
RACCORDO
100
AcDbSpline
 62
253
  6
CONTINUOUS
 70
0
 71
3
 72
11
 73
7
 74
5
 42
0.0000001
 43
0.0000001
 44
0.0000000001
 12
0.1038184213
 22
0.0537535612
 32
0.0
 13
-0.0000120679
 23
0.1169089809
 33
0.0
 40
0.0
 40
0.0
 40
0.0
 40
0.0
 40
0.3011147761
 40
0.5638957638
 40
0.792271531
 40
1.0
 40
1.0
 40
1.0
 40
1.0
 10
7.6243563201
 20
19.4386861201
 30
0.0
 10
7.6347767403
 20
19.4440814506
 30
0.0
 10
7.6536137421
 20
19.4556395596
 30
0.0
 10
7.6764459362
 20
19.4768094853
 30
0.0
 10
7.6910472414
 20
19.500298145
 30
0.0
 10
7.6945111453
 20
19.5174233082
 30
0.0
 10
7.6945103097
 20
19.5255184161
 30
0.0
 11
7.6243563201
 21
19.4386861201
 31
0.0
 11
7.6541568182
 21
19.4574259988
 31
0.0
 11
7.6763230458
 21
19.4786972544
 31
0.0
 11
7.6899299334
 21
19.5016689485
 31
0.0
 11
7.6945103097
 21
19.5255184161
 31
0.0
  0
SPLINE
  5
3C1
100
AcDbEntity
  8
RACCORDO
100
AcDbSpline
 62
253
  6
CONTINUOUS
 70
0
 71
3
 72
11
 73
7
 74
5
 42
0.0000001
 43
0.0000001
 44
0.0000000001
 12
0.3312427712
 22
-0.1600618619
 32
0.0
 13
-0.0051124979
 23
-0.3678524643
 33
0.0
 40
0.0
 40
0.0
 40
0.0
 40
0.0
 40
0.2304566886
 40
0.4885288094
 40
0.7529025366
 40
1.0
 40
1.0
 40
1.0
 40
1.0
 10
7.4476065487
 20
19.7435343817
 30
0.0
 10
7.4730522528
 20
19.7312386062
 30
0.0
 10
7.5216976331
 20
19.6940935162
 30
0.0
 10
7.5775568567
 20
19.6195027037
 30
0.0
 10
7.6150480585
 20
19.5319750158
 30
0.0
 10
7.6247774152
 20
19.4689845904
 30
0.0
 10
7.6243563201
 20
19.4386861201
 30
0.0
 11
7.4476065487
 21
19.7435343817
 31
0.0
 11
7.5161882679
 21
19.6936888467
 31
0.0
 11
7.5738420305
 21
19.6182570398
 31
0.0
 11
7.6118316601
 21
19.5287233595
 31
0.0
 11
7.6243563201
 21
19.4386861201
 31
0.0
  0
SPLINE
  5
3C2
100
AcDbEntity
  8
RACCORDO
100
AcDbSpline
 62
253
  6
CONTINUOUS
 70
0
 71
3
 72
11
 73
7
 74
5
 42
0.0000001
 43
0.0000001
 44
0.0000000001
 12
0.3312427712
 22
-0.1600618619
 32
0.0
 13
-0.0051124979
 23
-0.3678524643
 33
0.0
 40
0.0
 40
0.0
 40
0.0
 40
0.0
 40
0.2304566886
 40
0.4885288094
 40
0.7529025366
 40
1.0
 40
1.0
 40
1.0
 40
1.0
 10
-8.462296028
 20
27.6984856701
 30
0.0
 10
-8.4368503239
 20
27.6861898945
 30
0.0
 10
-8.3882049436
 20
27.6490448045
 30
0.0
 10
-8.33234572
 20
27.574453992
 30
0.0
 10
-8.2948545182
 20
27.4869263041
 30
0.0
 10
-8.2851251615
 20
27.4239358787
 30
0.0
 10
-8.2855462566
 20
27.3936374084
 30
0.0
 11
-8.462296028
 21
27.6984856701
 31
0.0
 11
-8.3937143088
 21
27.648640135
 31
0.0
 11
-8.3360605462
 21
27.5732083282
 31
0.0
 11
-8.2980709166
 21
27.4836746479
 31
0.0
 11
-8.2855462566
 21
27.3936374084
 31
0.0
  0
SPLINE
  5
3C3
100
AcDbEntity
  8
RACCORDO
100
AcDbSpline
 62
253
  6
CONTINUOUS
 70
0
 71
3
 72
11
 73
7
 74
5
 42
0.0000001
 43
0.0000001
 44
0.0000000001
 12
0.1038184213
 22
0.0537535612
 32
0.0
 13
-0.0000120679
 23
0.1169089809
 33
0.0
 40
0.0
 40
0.0
 40
0.0
 40
0.0
 40
0.3011147761
 40
0.5638957638
 40
0.792271531
 40
1.0
 40
1.0
 40
1.0
 40
1.0
 10
-8.2855462566
 20
27.3936374084
 30
0.0
 10
-8.2751258364
 20
27.3990327389
 30
0.0
 10
-8.2562888346
 20
27.4105908479
 30
0.0
 10
-8.2334566405
 20
27.4317607736
 30
0.0
 10
-8.2188553353
 20
27.4552494334
 30
0.0
 10
-8.2153914314
 20
27.4723745966
 30
0.0
 10
-8.215392267
 20
27.4804697044
 30
0.0
 11
-8.2855462566
 21
27.3936374084
 31
0.0
 11
-8.2557457585
 21
27.4123772871
 31
0.0
 11
-8.2335795309
 21
27.4336485427
 31
0.0
 11
-8.2199726433
 21
27.4566202369
 31
0.0
 11
-8.215392267
 21
27.4804697044
 31
0.0
  0
SPLINE
  5
3C4
100
AcDbEntity
  8
RACCORDO
100
AcDbSpline
 62
253
  6
CONTINUOUS
 70
0
 71
3
 72
9
 73
5
 74
3
 42
0.0000001
 43
0.0000001
 44
0.0000000001
 12
0.0936174103
 22
0.044807352
 32
0.0
 13
0.0965318217
 23
-0.0381251321
 33
0.0
 40
0.0
 40
0.0
 40
0.0
 40
0.0
 40
0.533707535
 40
1.0
 40
1.0
 40
1.0
 40
1.0
 10
-9.4920458567
 20
28.2133605844
 30
0.0
 10
-9.4753910843
 20
28.2213319249
 30
0.0
 10
-9.441720438
 20
28.2322383313
 30
0.0
 10
-9.4058633234
 20
28.2282382424
 30
0.0
 10
-9.390859303
 20
28.2223124217
 30
0.0
 11
-9.4920458567
 21
28.2133605844
 31
0.0
 11
-9.4388277272
 21
28.2287275657
 31
0.0
 11
-9.390859303
 21
28.2223124217
 31
0.0
  0
SPLINE
  5
3C5
100
AcDbEntity
  8
RACCORDO
100
AcDbSpline
 62
253
  6
CONTINUOUS
 70
0
 71
3
 72
9
 73
5
 74
3
 42
0.0000001
 43
0.0000001
 44
0.0000000001
 12
0.001943007
 22
-0.1377904426
 32
0.0
 13
-0.1095044074
 23
-0.0836586284
 33
0.0
 40
0.0
 40
0.0
 40
0.0
 40
0.0
 40
0.5462774278
 40
1.0
 40
1.0
 40
1.0
 40
1.0
 10
-8.2855462566
 20
-21.1525304598
 30
0.0
 10
-8.2851924497
 20
-21.1776210626
 30
0.0
 10
-8.2906586295
 20
-21.2243649507
 30
0.0
 10
-8.3175420854
 20
-21.2649238475
 30
0.0
 10
-8.3341036259
 20
-21.2775764502
 30
0.0
 11
-8.2855462566
 21
-21.1525304598
 31
0.0
 11
-8.2975558737
 21
-21.2268456054
 31
0.0
 11
-8.3341036259
 21
-21.2775764502
 31
0.0
  0
SPLINE
  5
3C6
100
AcDbEntity
  8
RACCORDO
100
AcDbSpline
 62
253
  6
CONTINUOUS
 70
0
 71
3
 72
11
 73
7
 74
5
 42
0.0000001
 43
0.0000001
 44
0.0000000001
 12
0.3115315172
 22
0.1283467196
 32
0.0
 13
0.0144701675
 23
0.3366235002
 33
0.0
 40
0.0
 40
0.0
 40
0.0
 40
0.0
 40
0.2163117508
 40
0.4493382399
 40
0.7097072604
 40
1.0
 40
1.0
 40
1.0
 40
1.0
 10
9.7772967271
 20
-29.6547471737
 30
0.0
 10
9.7997593698
 20
-29.6454928725
 30
0.0
 10
9.8429933236
 20
-29.6169086094
 30
0.0
 10
9.8909218482
 20
-29.5516185448
 30
0.0
 10
9.9215785574
 20
-29.4681589791
 30
0.0
 10
9.9296349519
 20
-29.4063596644
 30
0.0
 10
9.9310351468
 20
-29.373786545
 30
0.0
 11
9.7772967271
 21
-29.6547471737
 31
0.0
 11
9.8383981276
 21
-29.6150164488
 31
0.0
 11
9.8859481532
 21
-29.5525381121
 31
0.0
 11
9.9173932521
 21
-29.4706401282
 31
0.0
 11
9.9310351468
 21
-29.373786545
 31
0.0
  0
SPLINE
  5
3C7
100
AcDbEntity
  8
RACCORDO
100
AcDbSpline
 62
253
  6
CONTINUOUS
 70
0
 71
3
 72
9
 73
5
 74
3
 42
0.0000001
 43
0.0000001
 44
0.0000000001
 12
0.001943007
 22
-0.1377904426
 32
0.0
 13
-0.1095044074
 23
-0.0836586284
 33
0.0
 40
0.0
 40
0.0
 40
0.0
 40
0.0
 40
0.5462774278
 40
1.0
 40
1.0
 40
1.0
 40
1.0
 10
7.6243563201
 20
-29.1074817481
 30
0.0
 10
7.624710127
 20
-29.132572351
 30
0.0
 10
7.6192439472
 20
-29.1793162391
 30
0.0
 10
7.5923604913
 20
-29.2198751358
 30
0.0
 10
7.5757989508
 20
-29.2325277385
 30
0.0
 11
7.6243563201
 21
-29.1074817481
 31
0.0
 11
7.612346703
 21
-29.1817968938
 31
0.0
 11
7.5757989508
 21
-29.2325277385
 31
0.0
  0
SPLINE
  5
3C8
100
AcDbEntity
  8
RACCORDO
100
AcDbSpline
 62
253
  6
CONTINUOUS
 70
0
 71
3
 72
11
 73
7
 74
5
 42
0.0000001
 43
0.0000001
 44
0.0000000001
 12
-0.8027286148
 22
0.4023010536
 32
0.0
 13
-0.0313039286
 23
0.8973513419
 33
0.0
 40
0.0
 40
0.0
 40
0.0
 40
0.0
 40
0.2208936532
 40
0.4555523749
 40
0.7139189237
 40
1.0
 40
1.0
 40
1.0
 40
1.0
 10
8.9418362689
 20
-29.64513295
 30
0.0
 10
8.8827303835
 20
-29.6155110335
 30
0.0
 10
8.7707795748
 20
-29.5324417264
 30
0.0
 10
8.6472075816
 20
-29.3544114337
 30
0.0
 10
8.5691907699
 20
-29.1322919547
 30
0.0
 10
8.549559021
 20
-28.9693053189
 30
0.0
 10
8.5465738671
 20
-28.883733573
 30
0.0
 11
8.9418362689
 21
-29.64513295
 31
0.0
 11
8.7819446396
 21
-29.5277730781
 31
0.0
 11
8.6594591372
 21
-29.3563334623
 31
0.0
 11
8.5798224542
 21
-29.1384440852
 31
0.0
 11
8.5465738671
 21
-28.883733573
 31
0.0
  0
SPLINE
  5
3C9
100
AcDbEntity
  8
RACCORDO
100
AcDbSpline
 62
253
  6
CONTINUOUS
 70
0
 71
3
 72
14
 73
10
 74
8
 42
0.0000001
 43
0.0000001
 44
0.0000000001
 12
-3.7086497918
 22
-1.7530563278
 32
0.0
 13
-0.0000743871
 23
-4.1021079656
 33
0.0
 40
0.0
 40
0.0
 40
0.0
 40
0.0
 40
0.1083028061
 40
0.2185263352
 40
0.3326122524
 40
0.4521355879
 40
0.5782236816
 40
0.711527543
 40
1.0
 40
1.0
 40
1.0
 40
1.0
 10
0.9541535172
 20
-2.9881689132
 30
0.0
 10
0.8202677908
 20
-3.0514558864
 30
0.0
 10
0.5612463428
 20
-3.2043157625
 30
0.0
 10
0.2157762896
 20
-3.5035530764
 30
0.0
 10
-0.0834766857
 20
-3.8689411158
 30
0.0
 10
-0.3326860454
 20
-4.2950625937
 30
0.0
 10
-0.529094335
 20
-4.7762434648
 30
0.0
 10
-0.7226597238
 20
-5.5014733195
 30
0.0
 10
-0.7733755128
 20
-6.0814982713
 30
0.0
 10
-0.7733826656
 20
-6.4759466592
 30
0.0
 11
0.9541535172
 21
-2.9881689132
 31
0.0
 11
0.5713946576
 21
-3.2137156132
 31
0.0
 11
0.2289042621
 21
-3.5089085698
 31
0.0
 11
-0.0688540323
 21
-3.869958721
 31
0.0
 11
-0.3179888484
 21
-4.2922425193
 31
0.0
 11
-0.5152390704
 21
-4.7703806711
 31
0.0
 11
-0.6580179528
 21
-5.2982383933
 31
0.0
 11
-0.7733826656
 21
-6.4759466592
 31
0.0
  0
SPLINE
  5
3CA
100
AcDbEntity
  8
RACCORDO
100
AcDbSpline
 62
253
  6
CONTINUOUS
 70
0
 71
3
 72
13
 73
9
 74
7
 42
0.0000001
 43
0.0000001
 44
0.0000000001
 12
-3.1908679588
 22
-1.5084272792
 32
0.0
 13
-0.3226282428
 23
-3.5146695725
 33
0.0
 40
0.0
 40
0.0
 40
0.0
 40
0.0
 40
0.111043199
 40
0.2236046723
 40
0.3392763186
 40
0.4594158296
 40
0.7165032829
 40
1.0
 40
1.0
 40
1.0
 40
1.0
 10
-20.2590558149
 20
7.61843306
 30
0.0
 10
-20.3771638768
 20
7.5625995299
 30
0.0
 10
-20.6063320033
 20
7.4307132404
 30
0.0
 10
-20.9173924331
 20
7.1781122426
 30
0.0
 10
-21.1935213495
 20
6.8731563392
 30
0.0
 10
-21.5184646797
 20
6.390795343
 30
0.0
 10
-21.8184168676
 20
5.664815524
 30
0.0
 10
-21.9305048291
 20
5.0343168177
 30
0.0
 10
-21.960992845
 20
4.7021843892
 30
0.0
 11
-20.2590558149
 21
7.61843306
 31
0.0
 11
-20.5988178164
 21
7.4230773362
 31
0.0
 11
-20.9076455549
 21
7.1731642145
 31
0.0
 11
-21.1824122884
 21
6.8712090703
 31
0.0
 11
-21.4203275297
 21
6.5202185484
 31
0.0
 11
-21.7762738495
 21
5.6855724688
 31
0.0
 11
-21.960992845
 21
4.7021843892
 31
0.0
  0
SPLINE
  5
3CB
100
AcDbEntity
  8
RACCORDO
100
AcDbSpline
 62
253
  6
CONTINUOUS
 70
0
 71
3
 72
14
 73
10
 74
8
 42
0.0000001
 43
0.0000001
 44
0.0000000001
 12
2.9151835325
 22
1.348939159
 32
0.0
 13
0.0028263521
 23
3.2121525329
 33
0.0
 40
0.0
 40
0.0
 40
0.0
 40
0.0
 40
0.1078282262
 40
0.217565115
 40
0.3312637492
 40
0.4505845676
 40
0.5767038713
 40
0.7102861316
 40
1.0
 40
1.0
 40
1.0
 40
1.0
 10
13.1960661713
 20
-33.3151943191
 30
0.0
 10
13.3008458611
 20
-33.2667097468
 30
0.0
 10
13.5036262995
 20
-33.1488880716
 30
0.0
 10
13.774000768
 20
-32.9165396113
 30
0.0
 10
14.008042366
 20
-32.6316290967
 30
0.0
 10
14.2028393063
 20
-32.2984217884
 30
0.0
 10
14.3563383097
 20
-31.921381805
 30
0.0
 10
14.5078059549
 20
-31.3517424769
 30
0.0
 10
14.547548998
 20
-30.8959675159
 30
0.0
 10
14.5478219425
 20
-30.5857658039
 30
0.0
 11
13.1960661713
 21
-33.3151943191
 31
0.0
 11
13.4956559774
 21
-33.1413789505
 31
0.0
 11
13.763579237
 21
-32.9123209469
 31
0.0
 11
13.996413135
 21
-32.6309454036
 31
0.0
 11
14.1911807382
 21
-32.3008443594
 31
0.0
 11
14.3453967345
 21
-31.9262308736
 31
0.0
 11
14.457098407
 21
-31.5119384822
 31
0.0
 11
14.5478219425
 21
-30.5857658039
 31
0.0
  0
SPLINE
  5
3CC
100
AcDbEntity
  8
RACCORDO
100
AcDbSpline
 62
253
  6
CONTINUOUS
 70
0
 71
3
 72
9
 73
5
 74
3
 42
0.0000001
 43
0.0000001
 44
0.0000000001
 12
-0.099952598
 22
0.05001377
 32
0.0
 13
-0.1008148087
 23
-0.0482521852
 33
0.0
 40
0.0
 40
0.0
 40
0.0
 40
0.0
 40
0.4650407032
 40
1.0
 40
1.0
 40
1.0
 40
1.0
 10
7.5562936443
 20
19.7491366824
 30
0.0
 10
7.5407996355
 20
19.7568894954
 30
0.0
 10
7.5021525353
 20
19.7636316963
 30
0.0
 10
7.4655838218
 20
19.7521387001
 30
0.0
 10
7.4476065487
 20
19.7435343817
 30
0.0
 11
7.5562936443
 21
19.7491366824
 31
0.0
 11
7.505304164
 21
19.7592166953
 31
0.0
 11
7.4476065487
 21
19.7435343817
 31
0.0
  0
SPLINE
  5
3CD
100
AcDbEntity
  8
RACCORDO
100
AcDbSpline
 62
253
  6
CONTINUOUS
 70
0
 71
3
 72
12
 73
8
 74
6
 42
0.0000001
 43
0.0000001
 44
0.0000000001
 12
-1.5521900881
 22
-0.819321614
 32
0.0
 13
-1.4616582006
 23
0.9716672689
 33
0.0
 40
0.0
 40
0.0
 40
0.0
 40
0.0
 40
0.1097035735
 40
0.2210959156
 40
0.4551739681
 40
0.7133652432
 40
1.0
 40
1.0
 40
1.0
 40
1.0
 10
1.4403010872
 20
20.2632091762
 30
0.0
 10
1.3835408208
 20
20.2332483398
 30
0.0
 10
1.2637299086
 20
20.1825371358
 30
0.0
 10
1.0035067212
 20
20.1211152374
 30
0.0
 10
0.6444748585
 20
20.1262338699
 30
0.0
 10
0.2033182688
 20
20.255915497
 30
0.0
 10
-0.078163666
 20
20.4105037411
 30
0.0
 10
-0.2178176803
 20
20.5033416115
 30
0.0
 11
1.4403010872
 21
20.2632091762
 31
0.0
 11
1.263022682
 21
20.1880640958
 31
0.0
 11
1.0728180924
 21
20.1428218878
 31
0.0
 11
0.6619747376
 21
20.1436172158
 31
0.0
 11
0.2255135718
 21
20.2655256618
 31
0.0
 11
-0.2178176803
 21
20.5033416115
 31
0.0
  0
SPLINE
  5
3CE
100
AcDbEntity
  8
RACCORDO
100
AcDbSpline
 62
253
  6
CONTINUOUS
 70
0
 71
3
 72
17
 73
13
 74
11
 42
0.0000001
 43
0.0000001
 44
0.0000000001
 12
-3.0457421618
 22
-1.1369388873
 32
0.0
 13
0.0
 23
3.2510268146
 33
0.0
 40
0.0
 40
0.0
 40
0.0
 40
0.0
 40
0.0448593345
 40
0.0916272239
 40
0.1412874662
 40
0.1944692213
 40
0.3119572142
 40
0.4432515828
 40
0.5839757269
 40
0.7280220293
 40
0.8687250412
 40
1.0
 40
1.0
 40
1.0
 40
1.0
 10
-4.8223247969
 20
-4.3255074336
 30
0.0
 10
-4.867868119
 20
-4.3425082076
 30
0.0
 10
-4.965129519
 20
-4.3667261615
 30
0.0
 10
-5.1191253412
 20
-4.3717639362
 30
0.0
 10
-5.2801376251
 20
-4.3463975873
 30
0.0
 10
-5.507493689
 20
-4.2706000592
 30
0.0
 10
-5.7913063446
 20
-4.0999577631
 30
0.0
 10
-6.0992570993
 20
-3.8076638086
 30
0.0
 10
-6.3661834214
 20
-3.441456493
 30
0.0
 10
-6.573223299
 20
-3.0270990476
 30
0.0
 10
-6.7058980134
 20
-2.5941053599
 30
0.0
 10
-6.7400112667
 20
-2.298935153
 30
0.0
 10
-6.7400112667
 20
-2.1566756826
 30
0.0
 11
-4.8223247969
 21
-4.3255074336
 31
0.0
 11
-4.9637285839
 21
-4.3611999196
 31
0.0
 11
-5.1156613399
 21
-4.3670062079
 31
0.0
 11
-5.2752848065
 21
-4.3428109303
 31
0.0
 11
-5.4396121927
 21
-4.2890587298
 31
0.0
 11
-5.7700477468
 21
-4.0974779361
 31
0.0
 11
-6.0823551013
 21
-3.8065178125
 31
0.0
 11
-6.3532774233
 21
-3.4378642024
 31
0.0
 11
-6.5626301155
 21
-3.0189670386
 31
0.0
 11
-6.6948209457
 21
-2.5810548141
 31
0.0
 11
-6.7400112667
 21
-2.1566756826
 31
0.0
  0
SPLINE
  5
3CF
100
AcDbEntity
  8
RACCORDO
100
AcDbSpline
 62
253
  6
CONTINUOUS
 70
0
 71
3
 72
17
 73
13
 74
11
 42
0.0000001
 43
0.0000001
 44
0.0000000001
 12
0.0002070525
 22
-5.8905893305
 32
0.0
 13
5.1474266688
 23
2.8640952137
 33
0.0
 40
0.0
 40
0.0
 40
0.0
 40
0.0
 40
0.1331179619
 40
0.2759350046
 40
0.421740323
 40
0.5632367128
 40
0.6938586918
 40
0.8092405634
 40
0.8610914122
 40
0.9094912198
 40
0.9553611365
 40
1.0
 40
1.0
 40
1.0
 40
1.0
 10
-9.002733579
 20
-2.3649722892
 30
0.0
 10
-9.0027243916
 20
-2.6263533713
 30
0.0
 10
-8.9368387023
 20
-3.1690022505
 30
0.0
 10
-8.6823226601
 20
-3.9612583893
 30
0.0
 10
-8.2876229437
 20
-4.7126899036
 30
0.0
 10
-7.7831003923
 20
-5.3657181733
 30
0.0
 10
-7.2076068203
 20
-5.8711403794
 30
0.0
 10
-6.6824762605
 20
-6.1474524997
 30
0.0
 10
-6.2691980091
 20
-6.2482970457
 30
0.0
 10
-5.980772585
 20
-6.2637789672
 30
0.0
 10
-5.7092860574
 20
-6.2205896132
 30
0.0
 10
-5.5431116417
 20
-6.1523271086
 30
0.0
 10
-5.4665198829
 20
-6.1097104569
 30
0.0
 11
-9.002733579
 21
-2.3649722892
 31
0.0
 11
-8.9157326255
 21
-3.1442741981
 31
0.0
 11
-8.6619244139
 21
-3.9463512657
 31
0.0
 11
-8.2622426025
 21
-4.7065670391
 31
0.0
 11
-7.7495237297
 21
-5.3637099563
 31
0.0
 11
-7.1656988188
 21
-5.8648956091
 31
0.0
 11
-6.5582451712
 21
-6.1697686954
 31
0.0
 11
-6.2610471105
 21
-6.2402105455
 31
0.0
 11
-5.9762624531
 21
-6.253688011
 31
0.0
 11
-5.7096330128
 21
-6.2099017473
 31
0.0
 11
-5.4665198829
 21
-6.1097104569
 31
0.0
  0
SPLINE
  5
3D0
100
AcDbEntity
  8
0
100
AcDbSpline
 62
7
  6
CONTINUOUS
 70
0
 71
3
 72
17
 73
13
 74
11
 42
0.0000001
 43
0.0000001
 44
0.0000000001
 12
0.0
 22
-5.6024300943
 32
0.0
 13
5.375696566
 23
1.5776911587
 33
0.0
 40
0.0
 40
0.0
 40
0.0
 40
0.0
 40
0.1303750252
 40
0.2700445227
 40
0.4132286019
 40
0.5535675273
 40
0.6851557216
 40
0.8036120013
 40
0.8574174779
 40
0.9076915757
 40
0.9549384419
 40
1.0
 40
1.0
 40
1.0
 40
1.0
 10
-8.5559920524
 20
-2.1566756826
 30
0.0
 10
-8.5559920524
 20
-2.4001480042
 30
0.0
 10
-8.4988232719
 20
-2.905178171
 30
0.0
 10
-8.2757686995
 20
-3.6474440039
 30
0.0
 10
-7.9268558872
 20
-4.3604609204
 30
0.0
 10
-7.4756442309
 20
-4.9954016353
 30
0.0
 10
-6.9527888986
 20
-5.5091881843
 30
0.0
 10
-6.4691565722
 20
-5.8176129713
 30
0.0
 10
-6.0788951611
 20
-5.9644201753
 30
0.0
 10
-5.8008174629
 20
-6.0218553335
 30
0.0
 10
-5.5331252509
 20
-6.0286264415
 30
0.0
 10
-5.3619322731
 20
-5.9981823903
 30
0.0
 10
-5.2811865187
 20
-5.9744846497
 30
0.0
 11
-8.5559920524
 21
-2.1566756826
 31
0.0
 11
-8.4801400716
 21
-2.8831434515
 31
0.0
 11
-8.2580314004
 21
-3.6334474842
 31
0.0
 11
-7.9055294933
 21
-4.3540258792
 31
0.0
 11
-7.4478537813
 21
-4.9933260727
 31
0.0
 11
-6.917726173
 21
-5.5056235441
 31
0.0
 11
-6.3530554724
 21
-5.8542911031
 31
0.0
 11
-6.0703684473
 21
-5.9589571245
 31
0.0
 11
-5.7942217312
 21
-6.0143982993
 31
0.0
 11
-5.5295757031
 21
-6.0196061622
 31
0.0
 11
-5.2811865187
 21
-5.9744846497
 31
0.0
  0
SPLINE
  5
3D1
100
AcDbEntity
  8
RACCORDO
100
AcDbSpline
 62
253
  6
CONTINUOUS
 70
0
 71
3
 72
11
 73
7
 74
5
 42
0.0000001
 43
0.0000001
 44
0.0000000001
 12
0.0
 22
1.019692508
 32
0.0
 13
0.8644895163
 23
0.5407686077
 33
0.0
 40
0.0
 40
0.0
 40
0.0
 40
0.0
 40
0.2877852728
 40
0.5478951123
 40
0.7826305519
 40
1.0
 40
1.0
 40
1.0
 40
1.0
 10
-6.7400112667
 20
-2.1566756826
 30
0.0
 10
-6.7400112667
 20
-2.0588581871
 30
0.0
 10
-6.7251425466
 20
-1.8720291022
 30
0.0
 10
-6.6508196322
 20
-1.6143415735
 30
0.0
 10
-6.5269988544
 20
-1.4028805147
 30
0.0
 10
-6.410381286
 20
-1.2979025358
 30
0.0
 10
-6.3477434163
 20
-1.2587203446
 30
0.0
 11
-6.7400112667
 21
-2.1566756826
 31
0.0
 11
-6.7141386038
 21
-1.8643659715
 31
0.0
 11
-6.6376241212
 21
-1.6104101157
 31
0.0
 11
-6.5137311149
 21
-1.4056107982
 31
0.0
 11
-6.3477434163
 21
-1.2587203446
 31
0.0
  0
SPLINE
  5
3D2
100
AcDbEntity
  8
0
100
AcDbSpline
 62
7
  6
CONTINUOUS
 70
0
 71
3
 72
11
 73
7
 74
5
 42
0.0000001
 43
0.0000001
 44
0.0000000001
 12
0.0
 22
1.4938389055
 32
0.0
 13
1.0347993326
 23
1.0773787713
 33
0.0
 40
0.0
 40
0.0
 40
0.0
 40
0.0
 40
0.2813233659
 40
0.5409838831
 40
0.7794181359
 40
1.0
 40
1.0
 40
1.0
 40
1.0
 10
-8.5559920524
 20
-2.1566756826
 30
0.0
 10
-8.5559920524
 20
-2.016591753
 30
0.0
 10
-8.5383039277
 20
-1.7466845406
 30
0.0
 10
-8.4519340789
 20
-1.3663795617
 30
0.0
 10
-8.3083261815
 20
-1.036059372
 30
0.0
 10
-8.1714773159
 20
-0.8497197261
 30
0.0
 10
-8.0953913273
 20
-0.7705029869
 30
0.0
 11
-8.5559920524
 21
-2.1566756826
 31
0.0
 11
-8.5261675622
 21
-1.7374835239
 31
0.0
 11
-8.437533345
 21
-1.3598548834
 31
0.0
 11
-8.2925824895
 21
-1.0345010369
 31
0.0
 11
-8.0953913273
 21
-0.7705029869
 31
0.0
  0
SPLINE
  5
3D3
100
AcDbEntity
  8
0
100
AcDbSpline
 62
7
  6
CONTINUOUS
 70
0
 71
3
 72
9
 73
5
 74
3
 42
0.0000001
 43
0.0000001
 44
0.0000000001
 12
0.1312851598
 22
0.1341867287
 32
0.0
 13
0.1506453001
 23
0.1120172527
 33
0.0
 40
0.0
 40
0.0
 40
0.0
 40
0.0
 40
0.2525490892
 40
1.0
 40
1.0
 40
1.0
 40
1.0
 10
-8.0873477753
 20
-0.7622053508
 30
0.0
 10
-8.0762957928
 20
-0.7509091054
 30
0.0
 10
-8.0316918785
 20
-0.7070137129
 30
0.0
 10
-7.983685589
 20
-0.6665620301
 30
0.0
 10
-7.9461522667
 20
-0.6386528976
 30
0.0
 11
-8.0873477753
 21
-0.7622053508
 31
0.0
 11
-8.0535494299
 21
-0.728957266
 31
0.0
 11
-7.9461522667
 21
-0.6386528976
 31
0.0
  0
SPLINE
  5
3D4
100
AcDbEntity
  8
RACCORDO
100
AcDbSpline
 62
253
  6
CONTINUOUS
 70
0
 71
3
 72
9
 73
5
 74
3
 42
0.0000001
 43
0.0000001
 44
0.0000000001
 12
0.1339770068
 22
0.0626602398
 32
0.0
 13
0.0643463043
 23
0.1331754374
 33
0.0
 40
0.0
 40
0.0
 40
0.0
 40
0.0
 40
0.4813696577
 40
1.0
 40
1.0
 40
1.0
 40
1.0
 10
-7.6227548244
 20
-23.7374280274
 30
0.0
 10
-7.6012573357
 20
-23.7273737814
 30
0.0
 10
-7.5604081243
 20
-23.6974914748
 30
0.0
 10
-7.532745114
 20
-23.6555613072
 30
0.0
 10
-7.5216211321
 20
-23.6325383663
 30
0.0
 11
-7.6227548244
 21
-23.7374280274
 31
0.0
 11
-7.5649856575
 21
-23.6958132188
 31
0.0
 11
-7.5216211321
 21
-23.6325383663
 31
0.0
  0
SPLINE
  5
3D5
100
AcDbEntity
  8
RACCORDO
100
AcDbSpline
 62
253
  6
CONTINUOUS
 70
0
 71
3
 72
21
 73
17
 74
15
 42
0.0000001
 43
0.0000001
 44
0.0000000001
 12
-11.1008496669
 22
-5.8472081783
 32
0.0
 13
0.336895105
 23
12.5421373177
 33
0.0
 40
0.0
 40
0.0
 40
0.0
 40
0.0
 40
0.0453580705
 40
0.0918262068
 40
0.1406460633
 40
0.192714776
 40
0.2485339797
 40
0.3082361026
 40
0.3716438125
 40
0.4383349705
 40
0.5077023258
 40
0.5790059004
 40
0.7239272291
 40
0.79594537
 40
0.8664879597
 40
1.0
 40
1.0
 40
1.0
 40
1.0
 10
-3.9583474662
 20
4.6820582159
 30
0.0
 10
-4.1261851736
 20
4.5936521889
 30
0.0
 10
-4.4879039169
 20
4.4533079461
 30
0.0
 10
-5.0744347273
 20
4.36827625
 30
0.0
 10
-5.6934573622
 20
4.4079358847
 30
0.0
 10
-6.3318824278
 20
4.5696109054
 30
0.0
 10
-6.9776855977
 20
4.8485770933
 30
0.0
 10
-7.6187822624
 20
5.2386045315
 30
0.0
 10
-8.243042937
 20
5.73175352
 30
0.0
 10
-8.838362719
 20
6.318268146
 30
0.0
 10
-9.3930818012
 20
6.9867469556
 30
0.0
 10
-10.0668450573
 20
7.9745441018
 30
0.0
 10
-10.6091284945
 20
9.0597586032
 30
0.0
 10
-10.9985764282
 20
10.198816371
 30
0.0
 10
-11.2695127524
 20
11.322091059
 30
0.0
 10
-11.3500515387
 20
12.1801634107
 30
0.0
 10
-11.3350583544
 20
12.7383388585
 30
0.0
 11
-3.9583474662
 21
4.6820582159
 31
0.0
 11
-4.4887088225
 21
4.4757019063
 31
0.0
 11
-5.0653204838
 21
4.3894971045
 31
0.0
 11
-5.676812497
 21
4.4250760375
 31
0.0
 11
-6.3110615961
 21
4.5816453185
 31
0.0
 11
-6.9554269917
 21
4.8560097619
 31
0.0
 11
-7.5969949988
 21
5.2426424469
 31
0.0
 11
-8.2228345462
 21
5.7337969059
 31
0.0
 11
-8.8202598926
 21
6.3196602003
 31
0.0
 11
-9.3770949067
 21
6.9885449578
 31
0.0
 11
-9.8819319636
 21
7.727116347
 31
0.0
 11
-10.6952981026
 21
9.3533307696
 31
0.0
 11
-10.9869943308
 21
10.2085401963
 31
0.0
 11
-11.1934070317
 21
11.069208385
 31
0.0
 11
-11.3350583544
 21
12.7383388585
 31
0.0
  0
SPLINE
  5
3D6
100
AcDbEntity
  8
RACCORDO
100
AcDbSpline
 62
253
  6
CONTINUOUS
 70
0
 71
3
 72
10
 73
6
 74
4
 42
0.0000001
 43
0.0000001
 44
0.0000000001
 12
-0.0109701634
 22
-0.1095625677
 32
0.0
 13
-0.0977810944
 23
-0.0506276437
 33
0.0
 40
0.0
 40
0.0
 40
0.0
 40
0.0
 40
0.4354616069
 40
0.6999641439
 40
1.0
 40
1.0
 40
1.0
 40
1.0
 10
7.6941961682
 20
-29.0269368837
 30
0.0
 10
7.6926038065
 20
-29.0428403143
 30
0.0
 10
7.6794752732
 20
-29.0673049153
 30
0.0
 10
7.6519436732
 20
-29.0915298208
 30
0.0
 10
7.6341355982
 20
-29.1024183787
 30
0.0
 10
7.6243563201
 20
-29.1074817481
 30
0.0
 11
7.6941961682
 21
-29.0269368837
 31
0.0
 11
7.6738913739
 21
-29.0703742848
 31
0.0
 11
7.6524246568
 21
-29.0900571565
 31
0.0
 11
7.6243563201
 21
-29.1074817481
 31
0.0
  0
SPLINE
  5
3D7
100
AcDbEntity
  8
RACCORDO
100
AcDbSpline
 62
253
  6
CONTINUOUS
 70
0
 71
3
 72
15
 73
11
 74
9
 42
0.0000001
 43
0.0000001
 44
0.0000000001
 12
-2.9202919806
 22
-0.4699275203
 32
0.0
 13
0.0
 23
2.9578602276
 33
0.0
 40
0.0
 40
0.0
 40
0.0
 40
0.0
 40
0.093634338
 40
0.1997980444
 40
0.3199500134
 40
0.452007766
 40
0.5916340564
 40
0.7333013837
 40
0.8711700288
 40
1.0
 40
1.0
 40
1.0
 40
1.0
 10
-4.8335969219
 20
-4.2043625894
 30
0.0
 10
-4.9247434573
 20
-4.2190297068
 30
0.0
 10
-5.1266577346
 20
-4.2088706522
 30
0.0
 10
-5.4239420591
 20
-4.0927627413
 30
0.0
 10
-5.7151995276
 20
-3.8878866513
 30
0.0
 10
-5.9837149437
 20
-3.607295641
 30
0.0
 10
-6.2135767779
 20
-3.2686579428
 30
0.0
 10
-6.3903607089
 20
-2.8932028871
 30
0.0
 10
-6.5029374649
 20
-2.504917238
 30
0.0
 10
-6.5316137555
 20
-2.241597002
 30
0.0
 10
-6.5316137555
 20
-2.1145766527
 30
0.0
 11
-4.8335969219
 21
-4.2043625894
 31
0.0
 11
-5.1104222655
 21
-4.1958147009
 31
0.0
 11
-5.4051460197
 21
-4.0874410914
 31
0.0
 11
-5.698228459
 21
-3.8864269708
 31
0.0
 11
-5.9702362982
 21
-3.6060938877
 31
0.0
 11
-6.2031312827
 21
-3.2650296148
 31
0.0
 11
-6.3814748864
 21
-2.8858442983
 31
0.0
 11
-6.4934448543
 21
-2.4937212918
 31
0.0
 11
-6.5316137555
 21
-2.1145766527
 31
0.0
  0
SPLINE
  5
3D8
100
AcDbEntity
  8
RACCORDO
100
AcDbSpline
 62
253
  6
CONTINUOUS
 70
0
 71
3
 72
10
 73
6
 74
4
 42
0.0000001
 43
0.0000001
 44
0.0000000001
 12
0.4933072537
 22
-0.7091182693
 32
0.0
 13
0.0000000008
 23
-0.8638291304
 33
0.0
 40
0.0
 40
0.0
 40
0.0
 40
0.0
 40
0.5152974195
 40
0.7654338627
 40
1.0
 40
1.0
 40
1.0
 40
1.0
 10
15.4151566897
 20
7.9301181084
 30
0.0
 10
15.499890008
 20
7.808315837
 30
0.0
 10
15.6006824301
 20
7.6078952218
 30
0.0
 10
15.673093517
 20
7.3285438609
 30
0.0
 10
15.6865970206
 20
7.1887551898
 30
0.0
 10
15.6865970207
 20
7.1212135024
 30
0.0
 11
15.4151566897
 21
7.9301181084
 31
0.0
 11
15.6150382441
 21
7.5323906625
 31
0.0
 11
15.6684699827
 21
7.3230261046
 31
0.0
 11
15.6865970207
 21
7.1212135024
 31
0.0
  0
SPLINE
  5
3D9
100
AcDbEntity
  8
RACCORDO
100
AcDbSpline
 62
253
  6
CONTINUOUS
 70
0
 71
3
 72
10
 73
6
 74
4
 42
0.0000001
 43
0.0000001
 44
0.0000000001
 12
-0.0109701634
 22
-0.1095625677
 32
0.0
 13
-0.0977810944
 23
-0.0506276437
 33
0.0
 40
0.0
 40
0.0
 40
0.0
 40
0.0
 40
0.4354616069
 40
0.6999641439
 40
1.0
 40
1.0
 40
1.0
 40
1.0
 10
-8.2157064085
 20
-21.0719855953
 30
0.0
 10
-8.2172987702
 20
-21.0878890259
 30
0.0
 10
-8.2304273035
 20
-21.112353627
 30
0.0
 10
-8.2579589034
 20
-21.1365785325
 30
0.0
 10
-8.2757669785
 20
-21.1474670903
 30
0.0
 10
-8.2855462566
 20
-21.1525304598
 30
0.0
 11
-8.2157064085
 21
-21.0719855953
 31
0.0
 11
-8.2360112028
 21
-21.1154229964
 31
0.0
 11
-8.2574779199
 21
-21.1351058681
 31
0.0
 11
-8.2855462566
 21
-21.1525304598
 31
0.0
  0
SPLINE
  5
3DA
100
AcDbEntity
  8
RACCORDO
100
AcDbSpline
 62
253
  6
CONTINUOUS
 70
0
 71
3
 72
10
 73
6
 74
4
 42
0.0000001
 43
0.0000001
 44
0.0000000001
 12
0.4933072537
 22
-0.7091182693
 32
0.0
 13
0.0000000008
 23
-0.8638291304
 33
0.0
 40
0.0
 40
0.0
 40
0.0
 40
0.0
 40
0.5152974195
 40
0.7654338627
 40
1.0
 40
1.0
 40
1.0
 40
1.0
 10
15.4151566897
 20
-24.1128218316
 30
0.0
 10
15.499890008
 20
-24.2346241031
 30
0.0
 10
15.6006824301
 20
-24.4350447182
 30
0.0
 10
15.673093517
 20
-24.7143960791
 30
0.0
 10
15.6865970206
 20
-24.8541847502
 30
0.0
 10
15.6865970207
 20
-24.9217264377
 30
0.0
 11
15.4151566897
 21
-24.1128218316
 31
0.0
 11
15.6150382441
 21
-24.5105492775
 31
0.0
 11
15.6684699827
 21
-24.7199138355
 31
0.0
 11
15.6865970207
 21
-24.9217264377
 31
0.0
  0
SPLINE
  5
3DB
100
AcDbEntity
  8
RACCORDO
100
AcDbSpline
 62
253
  6
CONTINUOUS
 70
0
 71
3
 72
9
 73
5
 74
3
 42
0.0000001
 43
0.0000001
 44
0.0000000001
 12
-0.099952598
 22
0.05001377
 32
0.0
 13
-0.1008148087
 23
-0.0482521852
 33
0.0
 40
0.0
 40
0.0
 40
0.0
 40
0.0
 40
0.4650407032
 40
1.0
 40
1.0
 40
1.0
 40
1.0
 10
-8.3536089324
 20
27.7040879708
 30
0.0
 10
-8.3691029412
 20
27.7118407837
 30
0.0
 10
-8.4077500414
 20
27.7185829847
 30
0.0
 10
-8.4443187549
 20
27.7070899884
 30
0.0
 10
-8.462296028
 20
27.6984856701
 30
0.0
 11
-8.3536089324
 21
27.7040879708
 31
0.0
 11
-8.4045984127
 21
27.7141679837
 31
0.0
 11
-8.462296028
 21
27.6984856701
 31
0.0
  0
ELLIPSE
  5
3DC
100
AcDbEntity
  8
RACCORDO
100
AcDbEllipse
 62
7
  6
CONTINUOUS
 10
-7.5660264019
 20
19.5696456518
 30
0.0
 11
-0.0670385456
 21
0.1344092066
 31
0.0
 40
0.6116748051
 41
-0.6831523243
 42
0.0408455326
  0
ELLIPSE
  5
3DD
100
AcDbEntity
  8
RACCORDO
100
AcDbEllipse
 62
7
  6
CONTINUOUS
 10
0.9192226587
 20
15.3270211215
 30
0.0
 11
-0.066929941
 21
0.134313301
 31
0.0
 40
0.6127700112
 41
-2.2535417632
 42
-0.6836588249
  0
ELLIPSE
  5
3DE
100
AcDbEntity
  8
RACCORDO
100
AcDbEllipse
 62
7
  6
CONTINUOUS
 10
-3.3656922681
 20
17.4945977347
 30
0.0
 11
-0.1318782652
 21
0.273094126
 31
0.0
 40
0.6085747011
 41
-0.6677344043
 42
0.4938735741
  0
ELLIPSE
  5
3DF
100
AcDbEntity
  8
RACCORDO
100
AcDbEllipse
 62
7
  6
CONTINUOUS
 10
-3.2811114751
 20
17.4523073383
 30
0.0
 11
-0.1311179185
 21
0.2724695871
 31
0.0
 40
0.6121735965
 41
-1.8308368674
 42
-0.669228889
  0
ELLIPSE
  5
3E0
100
AcDbEntity
  8
RACCORDO
100
AcDbEllipse
 62
7
  6
CONTINUOUS
 10
11.878855363
 20
-28.4160597308
 30
0.0
 11
-2.2370091071
 21
4.4733511354
 31
0.0
 40
0.6121897086
 41
-3.1606702172
 42
-2.2557347926
  0
ELLIPSE
  5
3E1
100
AcDbEntity
  8
RACCORDO
100
AcDbEllipse
 62
7
  6
CONTINUOUS
 10
11.878855363
 20
12.7188277494
 30
0.0
 11
-2.2358077559
 21
4.4722832679
 31
0.0
 40
0.6125552124
 41
-2.255296188
 42
-0.6848044477
  0
ELLIPSE
  5
3E2
100
AcDbEntity
  8
RACCORDO
100
AcDbEllipse
 62
7
  6
CONTINUOUS
 10
-15.6972319814
 20
26.5068714216
 30
0.0
 11
-2.2370091071
 21
4.4733511354
 31
0.0
 40
0.6121897086
 41
-0.6846338794
 42
0.0190101911
  0
ELLIPSE
  5
3E3
100
AcDbEntity
  8
RACCORDO
100
AcDbEllipse
 62
7
  6
CONTINUOUS
 10
-7.9183778466
 20
19.7458213742
 30
0.0
 11
-0.066929941
 21
0.134313301
 31
0.0
 40
0.6127700112
 41
-2.2535417632
 42
-0.6836588249
  0
ELLIPSE
  5
3E4
100
AcDbEntity
  8
RACCORDO
100
AcDbEllipse
 62
7
  6
CONTINUOUS
 10
12.4379006122
 20
-28.018001482
 30
0.0
 11
-0.2236507175
 21
0.4481039483
 31
0.0
 40
0.6114248242
 41
-3.1858607681
 42
-2.25539606
  0
ELLIPSE
  5
3E5
100
AcDbEntity
  8
RACCORDO
100
AcDbEllipse
 62
7
  6
CONTINUOUS
 10
12.4379006122
 20
9.6404039079
 30
0.0
 11
-0.2231080361
 21
0.4476242326
 31
0.0
 40
0.6130677323
 41
-2.2534169372
 42
-0.6839906064
  0
ELLIPSE
  5
3E6
100
AcDbEntity
  8
RACCORDO
100
AcDbEllipse
 62
7
  6
CONTINUOUS
 10
-18.3775975741
 20
25.0481530011
 30
0.0
 11
-0.2236507175
 21
0.4481039483
 31
0.0
 40
0.6114248242
 41
-0.6832297371
 42
0.0444622319
  0
ELLIPSE
  5
3E7
100
AcDbEntity
  8
RACCORDO
100
AcDbEllipse
 62
7
  6
CONTINUOUS
 10
1.2715741035
 20
15.1508453992
 30
0.0
 11
-0.0670385456
 21
0.1344092066
 31
0.0
 40
0.6116748051
 41
-0.6831523243
 42
0.0394965825
  0
ENDSEC
  0
SECTION
  2
OBJECTS
  0
DICTIONARY
  5
C
100
AcDbDictionary
280
0
281
1
  3
ACAD_GROUP
350
D
  3
ACAD_MLINESTYLE
350
17
  3
ACAD_LAYOUT
350
1A
  3
ACAD_PLOTSETTINGS
350
19
  3
ACAD_PLOTSTYLENAME
350
E
  0
DICTIONARY
  5
D
102
{ACAD_REACTORS
330
C
102
}
100
AcDbDictionary
280
0
281
1
  0
ACDBDICTIONARYWDFLT
  5
E
102
{ACAD_REACTORS
330
C
102
}
100
AcDbDictionary
281
1
  3
Normal
350
F
100
AcDbDictionaryWithDefault
340
F
  0
DICTIONARY
  5
17
102
{ACAD_REACTORS
330
C
102
}
100
AcDbDictionary
280
0
281
1
  3
Standard
350
18
  0
DICTIONARY
  5
19
102
{ACAD_REACTORS
330
C
102
}
100
AcDbDictionary
281
1
  0
DICTIONARY
  5
1A
102
{ACAD_REACTORS
330
C
102
}
100
AcDbDictionary
281
1
  3
Model
350
3E8
  3
Layout1
350
3E9
  0
ACDBPLACEHOLDER
  5
F
102
{ACAD_REACTORS
330
E
102
}
  0
MLINESTYLE
  5
18
102
{ACAD_REACTORS
330
17
102
}
100
AcDbMlineStyle
  2
STANDARD
 70
0
  3

 62
256
 51
90.0
 52
90.0
 71
2
 49
0.5
 62
256
  6
BYLAYER
 49
-0.5
 62
256
  6
BYLAYER
  0
LAYOUT
  5
3E8
102
{ACAD_REACTORS
330
1A
102
}
100
AcDbPlotSettings
  1

  2
none_device
  4
ISO_A4_(297.00_x_210.00_MM)
  6

 40
0.0
 41
0.0
 42
0.0
 43
0.0
 44
297.0
 45
210.0
 46
0.0
 47
0.0
 48
0.0
 49
0.0
140
0.0
141
0.0
142
1.0
143
1.0
 70
1024
 72
1
 73
0
 74
0
  7

 75
0
147
1.0
148
0.0
149
0.0
100
AcDbLayout
  1
Model
 70
0
 71
0
 10
0.0
 20
0.0
 11
297.0
 21
210.0
 12
0.0
 22
0.0
 32
0.0
 14
0.0
 24
0.0
 34
0.0
 15
0.0
 25
0.0
 35
0.0
146
0.0
 13
0.0
 23
0.0
 33
0.0
 16
1.0
 26
0.0
 36
0.0
 17
0.0
 27
1.0
 37
0.0
 76
0
330
214
345
0
346
0
  0
LAYOUT
  5
3E9
102
{ACAD_REACTORS
330
1A
102
}
100
AcDbPlotSettings
  1

  2
none_device
  4
ISO_A4_(297.00_x_210.00_MM)
  6

 40
0.0
 41
0.0
 42
0.0
 43
0.0
 44
297.0
 45
210.0
 46
0.0
 47
0.0
 48
0.0
 49
0.0
140
0.0
141
0.0
142
1.0
143
1.0
 70
0
 72
1
 73
0
 74
0
  7

 75
0
147
1.0
148
0.0
149
0.0
100
AcDbLayout
  1
Layout1
 70
0
 71
1
 10
0.0
 20
0.0
 11
297.0
 21
210.0
 12
0.0
 22
0.0
 32
0.0
 14
0.0
 24
0.0
 34
0.0
 15
0.0
 25
0.0
 35
0.0
146
0.0
 13
0.0
 23
0.0
 33
0.0
 16
1.0
 26
0.0
 36
0.0
 17
0.0
 27
1.0
 37
0.0
 76
0
330
215
345
0
346
0
  0
ENDSEC
  0
EOF
