  0
SECTION
  2
HEADER
  9
$ACADVER
  1
AC1015
  9
$DWGCODEPAGE
  3
ANSI_1252
  9
$EXTMAX
 10
297.0
 20
210.0
 30
0.0
  9
$EXTMIN
 10
0.0
 20
0.0
 30
0.0
  9
$LIMMIN
 10
0.0
 20
0.0
  9
$LIMMAX
 10
297.0
 20
210.0
  9
$VIEWCTR
 10
148.5
 20
105.0
  9
$VIEWSIZE
 40
210.0
  9
$CLAYER
  8
0
  9
$LTSCALE
 40
16.335
  9
$CELTYPE
  6
BYLAYER
  9
$DIMSCALE
 40
1.0
  9
$DIMASZ
 40
3.0
  9
$DIMEXO
 40
0.5
  9
$DIMDLI
 40
11.286
  9
$DIMEXE
 40
1.5
  9
$DIMCEN
 40
2.673
  9
$DIMLFAC
 40
1.0
  9
$DIMBLK
  1
_FILLED
  9
$DIMTXT
 40
3.0
  9
$DIMTOL
 70
1
  9
$DIMLIM
 70
0
  9
$DIMTFAC
 40
1.0
  9
$DIMTP
 40
0.01
  9
$DIMTM
 40
0.01
  9
$DIMGAP
 40
0.625
  9
$DIMDSEP
 70
44
  9
$PDMODE
 70
3
  9
$PDSIZE
 40
3.0
  9
$HANDSEED
  5
4AF
  9
$TILEMODE
 70
1
  9
$MEASUREMENT
 70
1
  9
$INSUNITS
 70
4
  0
ENDSEC
  0
SECTION
  2
CLASSES
  0
CLASS
  1
ACDBDICTIONARYWDFLT
  2
AcDbDictionaryWithDefault
  3
AutoCAD 2000
 90
0
280
0
281
0
  0
CLASS
  1
ACDBPLACEHOLDER
  2
AcDbPlaceHolder
  3
AutoCAD 2000
 90
0
280
0
281
0
  0
CLASS
  1
LAYOUT
  2
AcDbLayout
  3
AutoCAD 2000
 90
0
280
0
281
0
  0
ENDSEC
  0
SECTION
  2
TABLES
  0
TABLE
  2
VPORT
  5
8
100
AcDbSymbolTable
 70
2
  0
VPORT
  5
1F4
100
AcDbSymbolTableRecord
100
AcDbViewportTableRecord
  2
*ACTIVE
 70
0
 10
0.0
 20
0.0
 11
1.0
 21
1.0
 12
148.5
 22
105.0
 13
0.0
 23
0.0
 14
1.0
 24
1.0
 15
0.0
 25
0.0
 16
0.0
 26
0.0
 36
1.0
 17
0.0
 27
0.0
 37
0.0
 40
210.0
 41
1.4142857143
 42
50.0
 43
0.0
 44
0.0
 50
0.0
 51
0.0
 71
0
 72
100
 73
1
 74
1
 75
0
 76
0
 77
0
 78
0
  0
ENDTAB
  0
TABLE
  2
LTYPE
  5
5
100
AcDbSymbolTable
 70
6
  0
LTYPE
  5
14
100
AcDbSymbolTableRecord
100
AcDbLinetypeTableRecord
  2
BYBLOCK
 70
0
  3

 72
65
 73
0
 40
0.0
  0
LTYPE
  5
15
100
AcDbSymbolTableRecord
100
AcDbLinetypeTableRecord
  2
BYLAYER
 70
0
  3

 72
65
 73
0
 40
0.0
  0
LTYPE
  5
16
100
AcDbSymbolTableRecord
100
AcDbLinetypeTableRecord
  2
CONTINUOUS
 70
64
  3
Solid line
 72
65
 73
0
 40
0.0
  0
LTYPE
  5
1F5
100
AcDbSymbolTableRecord
100
AcDbLinetypeTableRecord
  2
CENTER
 70
64
  3
____ _ ____ _ ____ _ ____ _ ____ _ ____ _ ____
 72
65
 73
4
 40
0.6
 49
0.375
 74
0
 49
-0.075
 74
0
 49
0.075
 74
0
 49
-0.075
 74
0
  0
LTYPE
  5
1F6
100
AcDbSymbolTableRecord
100
AcDbLinetypeTableRecord
  2
HIDDEN
 70
64
  3
- - - - - - - - - - - - - - - - - - - -
 72
65
 73
2
 40
0.2
 49
0.1
 74
0
 49
-0.1
 74
0
  0
LTYPE
  5
1F7
100
AcDbSymbolTableRecord
100
AcDbLinetypeTableRecord
  2
PHANTOM
 70
64
  3
_____ _ _ _____ _ _ _____ _ _ _____
 72
65
 73
6
 40
0.8
 49
0.45
 74
0
 49
-0.05
 74
0
 49
0.1
 74
0
 49
-0.05
 74
0
 49
0.1
 74
0
 49
-0.05
 74
0
  0
LTYPE
  5
1F8
100
AcDbSymbolTableRecord
100
AcDbLinetypeTableRecord
  2
DOT
 70
64
  3
. . . . . . . . . . . . . . . . . . . .
 72
65
 73
2
 40
0.2
 49
0.1
 74
0
 49
-0.1
 74
0
  0
LTYPE
  5
1F9
100
AcDbSymbolTableRecord
100
AcDbLinetypeTableRecord
  2
DASHED
 70
64
  3
- - - - - - - - - - - - - - - - - - - -
 72
65
 73
2
 40
0.2
 49
0.1
 74
0
 49
-0.1
 74
0
  0
ENDTAB
  0
TABLE
  2
LAYER
  5
2
100
AcDbSymbolTable
 70
36
  0
LAYER
  5
10
100
AcDbSymbolTableRecord
100
AcDbLayerTableRecord
  2
0
 70
0
 62
7
  6
CONTINUOUS
370
-3
390
F
  0
LAYER
  5
1FA
100
AcDbSymbolTableRecord
100
AcDbLayerTableRecord
  2
DEFAULT_1
 70
0
 62
7
  6
CENTER
370
-3
390
F
  0
LAYER
  5
1FB
100
AcDbSymbolTableRecord
100
AcDbLayerTableRecord
  2
DEFAULT_2
 70
0
 62
7
  6
HIDDEN
370
-3
390
F
  0
LAYER
  5
1FC
100
AcDbSymbolTableRecord
100
AcDbLayerTableRecord
  2
DEFAULT_3
 70
0
 62
7
  6
PHANTOM
370
-3
390
F
  0
LAYER
  5
1FD
100
AcDbSymbolTableRecord
100
AcDbLayerTableRecord
  2
ASSI
 70
0
 62
7
  6
CONTINUOUS
370
-3
390
F
  0
LAYER
  5
1FE
100
AcDbSymbolTableRecord
100
AcDbLayerTableRecord
  2
COORDINATE
 70
0
 62
7
  6
CONTINUOUS
370
-3
390
F
  0
LAYER
  5
1FF
100
AcDbSymbolTableRecord
100
AcDbLayerTableRecord
  2
COORD_ORIGINE
 70
0
 62
7
  6
CONTINUOUS
370
-3
390
F
  0
LAYER
  5
200
100
AcDbSymbolTableRecord
100
AcDbLayerTableRecord
  2
CURVE
 70
0
 62
7
  6
CONTINUOUS
370
-3
390
F
  0
LAYER
  5
201
100
AcDbSymbolTableRecord
100
AcDbLayerTableRecord
  2
DRAFT
 70
0
 62
7
  6
CONTINUOUS
370
-3
390
F
  0
LAYER
  5
202
100
AcDbSymbolTableRecord
100
AcDbLayerTableRecord
  2
IMPORT
 70
0
 62
7
  6
CONTINUOUS
370
-3
390
F
  0
LAYER
  5
203
100
AcDbSymbolTableRecord
100
AcDbLayerTableRecord
  2
NOTE
 70
0
 62
7
  6
CONTINUOUS
370
-3
390
F
  0
LAYER
  5
204
100
AcDbSymbolTableRecord
100
AcDbLayerTableRecord
  2
PIANI
 70
0
 62
7
  6
CONTINUOUS
370
-3
390
F
  0
LAYER
  5
205
100
AcDbSymbolTableRecord
100
AcDbLayerTableRecord
  2
PIANI_ORIGINE
 70
0
 62
7
  6
CONTINUOUS
370
-3
390
F
  0
LAYER
  5
206
100
AcDbSymbolTableRecord
100
AcDbLayerTableRecord
  2
PIANI_RIFERIMENTO
 70
0
 62
7
  6
CONTINUOUS
370
-3
390
F
  0
LAYER
  5
207
100
AcDbSymbolTableRecord
100
AcDbLayerTableRecord
  2
PIANI_SFORMO
 70
0
 62
7
  6
CONTINUOUS
370
-3
390
F
  0
LAYER
  5
208
100
AcDbSymbolTableRecord
100
AcDbLayerTableRecord
  2
PUNTI
 70
0
 62
7
  6
CONTINUOUS
370
-3
390
F
  0
LAYER
  5
209
100
AcDbSymbolTableRecord
100
AcDbLayerTableRecord
  2
RACCORDO
 70
0
 62
7
  6
CONTINUOUS
370
-3
390
F
  0
LAYER
  5
20A
100
AcDbSymbolTableRecord
100
AcDbLayerTableRecord
  2
SMUSSO
 70
0
 62
7
  6
CONTINUOUS
370
-3
390
F
  0
LAYER
  5
20B
100
AcDbSymbolTableRecord
100
AcDbLayerTableRecord
  2
SNAPLINE
 70
0
 62
7
  6
CONTINUOUS
370
-3
390
F
  0
LAYER
  5
20C
100
AcDbSymbolTableRecord
100
AcDbLayerTableRecord
  2
SUPERFICI
 70
0
 62
7
  6
CONTINUOUS
370
-3
390
F
  0
LAYER
  5
20D
100
AcDbSymbolTableRecord
100
AcDbLayerTableRecord
  2
TRASH
 70
0
 62
7
  6
CONTINUOUS
370
-3
390
F
  0
LAYER
  5
20E
100
AcDbSymbolTableRecord
100
AcDbLayerTableRecord
  2
XSEC_DATUMS
 70
0
 62
7
  6
CONTINUOUS
370
-3
390
F
  0
ENDTAB
  0
TABLE
  2
STYLE
  5
3
100
AcDbSymbolTable
 70
1
  0
STYLE
  5
11
100
AcDbSymbolTableRecord
100
AcDbTextStyleTableRecord
  2
STANDARD
 70
0
 40
0.0
 41
0.8
 50
0.0
 71
0
 42
0.2
  3
txt
  4

  0
STYLE
  5
20F
100
AcDbSymbolTableRecord
100
AcDbTextStyleTableRecord
  2
TEXTSTYLE_1
 70
0
 40
0.0
 41
0.8
 50
0.0
 71
0
 42
0.2
  3
gdt
  4

  0
ENDTAB
  0
TABLE
  2
VIEW
  5
6
100
AcDbSymbolTable
 70
0
  0
ENDTAB
  0
TABLE
  2
UCS
  5
7
100
AcDbSymbolTable
 70
0
  0
ENDTAB
  0
TABLE
  2
APPID
  5
9
100
AcDbSymbolTable
 70
1
  0
APPID
  5
210
100
AcDbSymbolTableRecord
100
AcDbRegAppTableRecord
  2
ACAD
 70
0
  0
ENDTAB
  0
TABLE
  2
BLOCK_RECORD
  5
1
100
AcDbSymbolTable
 70
0
  0
BLOCK_RECORD
  5
211
100
AcDbSymbolTableRecord
100
AcDbBlockTableRecord
  2
*Model_Space
  0
BLOCK_RECORD
  5
212
100
AcDbSymbolTableRecord
100
AcDbBlockTableRecord
  2
*Paper_Space
  0
ENDTAB
  0
TABLE
  2
DIMSTYLE
  5
A
100
AcDbSymbolTable
 70
1
100
AcDbDimStyleTable
 71
0
  0
DIMSTYLE
105
213
100
AcDbSymbolTableRecord
100
AcDbDimStyleTableRecord
  2
STANDARD
 70
0
  3

  4

 40
1.0
 41
3.0
 42
0.5
 43
0.38
 44
1.5
 45
0.0
 46
0.0
 47
0.01
 48
0.01
140
3.0
141
0.09
142
0.0
143
25.4
144
1.0
145
0.0
146
1.0
147
0.625
 71
1.0
 72
0.0
 73
0
 74
0
 75
0
 76
0
 77
1
 78
8
170
0
171
2
172
0
173
0
174
0
175
0
176
0
177
0
178
0
270
2
271
2
272
2
273
2
274
2
275
0
280
0
281
0
282
0
283
1
284
8
285
0
286
0
287
3
288
0
340
11
278
44
  0
ENDTAB
  0
ENDSEC
  0
SECTION
  2
BLOCKS
  0
BLOCK
  5
20
100
AcDbEntity
  8
0
100
AcDbBlockBegin
  2
*Model_Space
 70
0
 10
0.0
 20
0.0
 30
0.0
  3
*Model_Space
  1

  0
ENDBLK
  5
21
100
AcDbEntity
  8
0
100
AcDbBlockEnd
  0
BLOCK
  5
1C
100
AcDbEntity
  8
0
100
AcDbBlockBegin
  2
*Paper_Space
 70
0
 10
0.0
 20
0.0
 30
0.0
  3
*Paper_Space
  1

  0
ENDBLK
  5
1D
100
AcDbEntity
  8
0
100
AcDbBlockEnd
  0
ENDSEC
  0
SECTION
  2
ENTITIES
  0
LWPOLYLINE
  5
214
100
AcDbEntity
  8
RACCORDO
100
AcDbPolyline
 62
7
  6
CONTINUOUS
 90
22
 70
0
 10
-17.4370972525
 20
24.2378374496
 10
-17.4486242567
 20
24.2315359415
 10
-17.4598494434
 20
24.2246081194
 10
-17.4707301144
 20
24.217071118
 10
-17.4812293662
 20
24.2089420469
 10
-17.4913026865
 20
24.2002483294
 10
-17.5009004731
 20
24.1910296639
 10
-17.5099504167
 20
24.1813625691
 10
-17.5184662255
 20
24.1712418421
 10
-17.5265137445
 20
24.1605743376
 10
-17.53409113
 20
24.1493167247
 10
-17.5411024968
 20
24.1375646235
 10
-17.5474691013
 20
24.1254285325
 10
-17.5531550406
 20
24.1129761029
 10
-17.5581521503
 20
24.100227535
 10
-17.5624431378
 20
24.0872265796
 10
-17.5660131661
 20
24.0740219055
 10
-17.5688533806
 20
24.0606539425
 10
-17.570959239
 20
24.0471477839
 10
-17.5723248233
 20
24.0335318752
 10
-17.572943397
 20
24.019858963
 10
-17.5729831467
 20
24.0154074039
  0
LINE
  5
215
100
AcDbEntity
  8
RACCORDO
100
AcDbLine
 62
7
  6
CONTINUOUS
 10
-15.8539255576
 20
25.0500344969
 11
-17.4370972525
 21
24.2378374496
  0
LINE
  5
216
100
AcDbEntity
  8
RACCORDO
100
AcDbLine
 62
253
  6
CONTINUOUS
 10
-15.7412549832
 20
25.0433735718
 11
-17.3240115864
 21
24.2313894745
  0
LINE
  5
217
100
AcDbEntity
  8
RACCORDO
100
AcDbLine
 62
7
  6
CONTINUOUS
 10
-15.852187172
 20
25.0509037297
 11
-15.8539235839
 21
25.0500355094
  0
LINE
  5
218
100
AcDbEntity
  8
RACCORDO
100
AcDbLine
 62
7
  6
CONTINUOUS
 10
-15.3173172156
 20
25.3114558294
 11
-15.8521844065
 21
25.0509050769
  0
LINE
  5
219
100
AcDbEntity
  8
RACCORDO
100
AcDbLine
 62
253
  6
CONTINUOUS
 10
-15.2068051045
 20
25.3037210384
 11
-15.7412549832
 21
25.0433735718
  0
LWPOLYLINE
  5
21A
100
AcDbEntity
  8
RACCORDO
100
AcDbPolyline
 62
7
  6
CONTINUOUS
 90
37
 70
0
 10
-21.458953295
 20
20.2139980183
 10
-21.4906246657
 20
20.1949555652
 10
-21.5335355478
 20
20.1672868923
 10
-21.5756262974
 20
20.137995505
 10
-21.6168834508
 20
20.1071405021
 10
-21.6572961672
 20
20.0747758577
 10
-21.6968487824
 20
20.0409563182
 10
-21.7355263774
 20
20.0057334477
 10
-21.7733143479
 20
19.9691557555
 10
-21.8101881906
 20
19.9312792678
 10
-21.8461302548
 20
19.8921516831
 10
-21.8811220168
 20
19.8518192558
 10
-21.9151305875
 20
19.8103437626
 10
-21.9481347909
 20
19.7677728294
 10
-21.9801135991
 20
19.7241519033
 10
-22.0110302233
 20
19.6795474843
 10
-22.0408615648
 20
19.6340073226
 10
-22.0695840931
 20
19.5875780744
 10
-22.0971591024
 20
19.5403311281
 10
-22.1235625085
 20
19.4923146065
 10
-22.1487692982
 20
19.4435766004
 10
-22.1727406612
 20
19.3941926286
 10
-22.1954519768
 20
19.344211538
 10
-22.2168779596
 20
19.2936817061
 10
-22.2369819709
 20
19.2426790787
 10
-22.2557395418
 20
19.1912514665
 10
-22.2731248947
 20
19.1394475971
 10
-22.289103673
 20
19.0873424732
 10
-22.3036510742
 20
19.0349827261
 10
-22.3167408663
 20
18.9824158954
 10
-22.3283409692
 20
18.9297124991
 10
-22.338425216
 20
18.8769179456
 10
-22.3469659668
 20
18.8240775704
 10
-22.3539321541
 20
18.7712527547
 10
-22.3592942746
 20
18.7184901375
 10
-22.3630216009
 20
18.6658294127
 10
-22.3646597242
 20
18.628453342
  0
LWPOLYLINE
  5
21B
100
AcDbEntity
  8
RACCORDO
100
AcDbPolyline
 62
253
  6
CONTINUOUS
 90
6
 70
0
 10
-18.8206534209
 20
21.6328038945
 10
-18.5525497971
 20
21.7926406685
 10
-18.2784571822
 20
21.9556416653
 10
-17.9983828978
 20
22.1218104277
 10
-17.7139157072
 20
22.2897852119
 10
-17.4247242877
 20
22.4594121895
  0
LWPOLYLINE
  5
21C
100
AcDbEntity
  8
RACCORDO
100
AcDbPolyline
 62
253
  6
CONTINUOUS
 90
9
 70
0
 10
-21.0534250183
 20
20.3057778736
 10
-20.8760471826
 20
20.4098294553
 10
-20.6874369345
 20
20.5209007197
 10
-20.4869478269
 20
20.6393892825
 10
-20.275226307
 20
20.7648975279
 10
-20.0542117163
 20
20.8962326088
 10
-19.8239689678
 20
21.0334258082
 10
-19.5844331486
 20
21.176445843
 10
-18.8206534209
 20
21.6328038945
  0
LINE
  5
21D
100
AcDbEntity
  8
RACCORDO
100
AcDbLine
 62
253
  6
CONTINUOUS
 10
-17.4247242877
 20
22.4594121895
 11
-16.8699901928
 21
22.7832049242
  0
LWPOLYLINE
  5
21E
100
AcDbEntity
  8
RACCORDO
100
AcDbPolyline
 62
7
  6
CONTINUOUS
 90
8
 70
0
 10
-16.8699901928
 20
22.9135485879
 10
-17.4558245568
 20
22.5719469956
 10
-18.085321944
 20
22.2034512879
 10
-18.6951117261
 20
21.8440382659
 10
-19.2854931793
 20
21.4948222283
 10
-19.8571426338
 20
21.1564221467
 10
-20.410580098
 20
20.8293389057
 10
-20.9461166025
 20
20.5140872288
  0
LINE
  5
21F
100
AcDbEntity
  8
RACCORDO
100
AcDbLine
 62
7
  6
CONTINUOUS
 10
-21.4589650195
 20
20.2139911854
 11
-20.9461166025
 21
20.5140872288
  0
LINE
  5
220
100
AcDbEntity
  8
RACCORDO
100
AcDbLine
 62
253
  6
CONTINUOUS
 10
-21.236814982
 20
20.1986876965
 11
-21.0534250183
 21
20.3057778736
  0
LWPOLYLINE
  5
221
100
AcDbEntity
  8
RACCORDO
100
AcDbPolyline
 62
253
  6
CONTINUOUS
 90
3
 70
0
 10
-21.4589532963
 20
20.2139980205
 10
-21.4565063576
 20
20.2153986519
 10
-21.4438698864
 20
20.2218504118
  0
LINE
  5
222
100
AcDbEntity
  8
RACCORDO
100
AcDbLine
 62
253
  6
CONTINUOUS
 10
-14.3977461157
 20
24.371619138
 11
-15.9990269066
 21
23.5688971345
  0
LINE
  5
223
100
AcDbEntity
  8
RACCORDO
100
AcDbLine
 62
253
  6
CONTINUOUS
 10
-14.2209724121
 20
24.0667295992
 11
-15.8222532029
 21
23.2640075957
  0
LINE
  5
224
100
AcDbEntity
  8
RACCORDO
100
AcDbLine
 62
253
  6
CONTINUOUS
 10
-13.869478944
 20
24.6350579581
 11
-14.3977461157
 21
24.371619138
  0
LINE
  5
225
100
AcDbEntity
  8
RACCORDO
100
AcDbLine
 62
253
  6
CONTINUOUS
 10
-13.6927052403
 20
24.3301684193
 11
-14.2209724121
 21
24.0667295992
  0
LINE
  5
226
100
AcDbEntity
  8
RACCORDO
100
AcDbLine
 62
253
  6
CONTINUOUS
 10
-14.2209724121
 20
23.3396847468
 11
-13.6927052403
 21
23.9826369025
  0
LINE
  5
227
100
AcDbEntity
  8
RACCORDO
100
AcDbLine
 62
7
  6
CONTINUOUS
 10
-14.2209724121
 20
23.2501542804
 11
-13.6773446679
 21
23.9118017359
  0
LWPOLYLINE
  5
228
100
AcDbEntity
  8
RACCORDO
100
AcDbPolyline
 62
7
  6
CONTINUOUS
 90
30
 70
0
 10
-15.1110325948
 20
22.7755301387
 10
-15.1189117178
 20
22.7663957355
 10
-15.1271319669
 20
22.7573982945
 10
-15.135689828
 20
22.748559308
 10
-15.1445882586
 20
22.7399027781
 10
-15.1538146936
 20
22.7314480988
 10
-15.1633412679
 20
22.7232102061
 10
-15.1731614562
 20
22.7152114525
 10
-15.1832673544
 20
22.7074735757
 10
-15.1936281374
 20
22.7000110359
 10
-15.2042346587
 20
22.6928462581
 10
-15.2150765701
 20
22.6860009528
 10
-15.2261203471
 20
22.6794889811
 10
-15.2373541956
 20
22.673332462
 10
-15.2487651464
 20
22.6675527982
 10
-15.2603169669
 20
22.6621632747
 10
-15.2719950987
 20
22.657185317
 10
-15.2837838302
 20
22.6526396197
 10
-15.2956441442
 20
22.6485388345
 10
-15.3075585919
 20
22.644903209
 10
-15.3195086053
 20
22.641752224
 10
-15.3314522828
 20
22.6390976877
 10
-15.3433691325
 20
22.6369580553
 10
-15.3552376996
 20
22.6353509178
 10
-15.3670132783
 20
22.6342867571
 10
-15.3786720988
 20
22.6337814518
 10
-15.3901900359
 20
22.6338498178
 10
-15.4015203886
 20
22.6345002162
 10
-15.412625651
 20
22.635743609
 10
-15.4234900028
 20
22.6375911045
  0
LINE
  5
229
100
AcDbEntity
  8
RACCORDO
100
AcDbLine
 62
7
  6
CONTINUOUS
 10
-14.2209724121
 20
22.4645789383
 11
-15.1110325948
 21
21.967898017
  0
LINE
  5
22A
100
AcDbEntity
  8
RACCORDO
100
AcDbLine
 62
7
  6
CONTINUOUS
 10
-11.8521526937
 20
22.1344605249
 11
-11.4986113045
 21
22.3158339498
  0
LINE
  5
22B
100
AcDbEntity
  8
RACCORDO
100
AcDbLine
 62
7
  6
CONTINUOUS
 10
-6.4983893505
 20
25.6048829673
 11
-12.8129296771
 21
22.4601066628
  0
LINE
  5
22C
100
AcDbEntity
  8
ASSI
100
AcDbLine
 62
7
  6
CONTINUOUS
 10
-11.4986113045
 20
22.3158339498
 11
-6.1623878985
 21
24.9152774153
  0
LWPOLYLINE
  5
22D
100
AcDbEntity
  8
RACCORDO
100
AcDbPolyline
 62
253
  6
CONTINUOUS
 90
15
 70
0
 10
-21.4438698864
 20
20.2218504118
 10
-21.4306976956
 20
20.2273070545
 10
-21.4170195896
 20
20.2317562336
 10
-21.4028665177
 20
20.2351878818
 10
-21.3882705041
 20
20.2375942344
 10
-21.3732645748
 20
20.2389698466
 10
-21.3578826836
 20
20.2393116058
 10
-21.342159635
 20
20.2386187386
 10
-21.3261310053
 20
20.236892813
 10
-21.3098330623
 20
20.234137734
 10
-21.2933026831
 20
20.2303597356
 10
-21.276577271
 20
20.2255673662
 10
-21.2596946701
 20
20.2197714695
 10
-21.2426930807
 20
20.2129851597
 10
-21.225610972
 20
20.2052237922
  0
LWPOLYLINE
  5
22E
100
AcDbEntity
  8
RACCORDO
100
AcDbPolyline
 62
7
  6
CONTINUOUS
 90
24
 70
0
 10
-6.9999450964
 20
-25.3348014207
 10
-6.9672319362
 20
-25.3503369986
 10
-6.9351478745
 20
-25.3640303661
 10
-6.9024217223
 20
-25.3765048819
 10
-6.8690799533
 20
-25.3877369374
 10
-6.8351238438
 20
-25.3977103832
 10
-6.8005908203
 20
-25.4063970139
 10
-6.7655226035
 20
-25.4137701274
 10
-6.7299238978
 20
-25.4198114008
 10
-6.6938318923
 20
-25.4244957477
 10
-6.6572899616
 20
-25.4277996108
 10
-6.6203079963
 20
-25.4297033315
 10
-6.5829266625
 20
-25.4301850231
 10
-6.5451843128
 20
-25.4292249959
 10
-6.5070820768
 20
-25.4268023785
 10
-6.468658168
 20
-25.4228969716
 10
-6.4299492162
 20
-25.4174901445
 10
-6.3909480535
 20
-25.4105561873
 10
-6.3516852582
 20
-25.4020730636
 10
-6.3122006847
 20
-25.3920217579
 10
-6.2724954612
 20
-25.3803729917
 10
-6.2325911208
 20
-25.3671003138
 10
-6.192533163
 20
-25.3521854676
 10
-6.1656064565
 20
-25.3412551196
  0
LINE
  5
22F
100
AcDbEntity
  8
RACCORDO
100
AcDbLine
 62
7
  6
CONTINUOUS
 10
-6.999945306
 20
-25.3348013184
 11
-6.9998625101
 21
-25.3348427247
  0
LINE
  5
230
100
AcDbEntity
  8
RACCORDO
100
AcDbLine
 62
253
  6
CONTINUOUS
 10
-22.2181769821
 20
-17.1618202313
 11
-7.3933309044
 21
-24.5742432701
  0
LINE
  5
231
100
AcDbEntity
  8
RACCORDO
100
AcDbLine
 62
253
  6
CONTINUOUS
 10
-21.833760527
 20
-17.9178937162
 11
-21.8405733086
 21
-17.9144155901
  0
LWPOLYLINE
  5
232
100
AcDbEntity
  8
RACCORDO
100
AcDbPolyline
 62
253
  6
CONTINUOUS
 90
3
 70
0
 10
-21.8405733086
 20
-17.9144155901
 10
-21.8476699153
 20
-17.9106894664
 10
-21.8560193681
 20
-17.9061195958
  0
LWPOLYLINE
  5
233
100
AcDbEntity
  8
RACCORDO
100
AcDbPolyline
 62
253
  6
CONTINUOUS
 90
79
 70
0
 10
-21.8560193681
 20
-17.9061195958
 10
-21.8642935937
 20
-17.9014033133
 10
-21.8724916717
 20
-17.8965411427
 10
-21.8806127241
 20
-17.891533607
 10
-21.8886558501
 20
-17.8863812607
 10
-21.8966201553
 20
-17.8810846753
 10
-21.9045047837
 20
-17.8756444238
 10
-21.9123088606
 20
-17.8700611083
 10
-21.9200315185
 20
-17.8643353475
 10
-21.9276719262
 20
-17.858467763
 10
-21.9352292353
 20
-17.8524590045
 10
-21.9427026068
 20
-17.8463097368
 10
-21.9500912378
 20
-17.8400206277
 10
-21.9573943073
 20
-17.8335923736
 10
-21.9646110053
 20
-17.8270256848
 10
-21.9717405592
 20
-17.8203212729
 10
-21.9787821768
 20
-17.8134798798
 10
-21.985735077
 20
-17.8065022607
 10
-21.9925985187
 20
-17.7993891695
 10
-21.9993717398
 20
-17.7921413918
 10
-22.0060539882
 20
-17.7847597279
 10
-22.012644552
 20
-17.7772449749
 10
-22.0191427009
 20
-17.7695979604
 10
-22.0255477115
 20
-17.7618195297
 10
-22.0318588978
 20
-17.7539105282
 10
-22.0380755601
 20
-17.7458718265
 10
-22.0441970067
 20
-17.7377043128
 10
-22.0502225785
 20
-17.7294088797
 10
-22.0561516069
 20
-17.7209864419
 10
-22.0619834333
 20
-17.7124379281
 10
-22.0677174302
 20
-17.7037642731
 10
-22.0733529613
 20
-17.6949664334
 10
-22.0788894009
 20
-17.6860453785
 10
-22.0843261545
 20
-17.6770020833
 10
-22.0896626186
 20
-17.6678375452
 10
-22.0948982011
 20
-17.6585527733
 10
-22.1000323412
 20
-17.6491487804
 10
-22.1050644686
 20
-17.6396266043
 10
-22.1099940254
 20
-17.6299872923
 10
-22.1148204871
 20
-17.6202318896
 10
-22.1195433177
 20
-17.6103614712
 10
-22.1241619929
 20
-17.6003771231
 10
-22.1286760224
 20
-17.5902799254
 10
-22.1330849071
 20
-17.5800709844
 10
-22.1373881547
 20
-17.5697514283
 10
-22.1415853025
 20
-17.5593223876
 10
-22.1456758848
 20
-17.5487850095
 10
-22.1496594468
 20
-17.5381404537
 10
-22.15353556
 20
-17.5273898879
 10
-22.1573037943
 20
-17.5165344947
 10
-22.1609637311
 20
-17.5055754684
 10
-22.1645149766
 20
-17.4945140119
 10
-22.1679571373
 20
-17.4833513416
 10
-22.1712898307
 20
-17.4720886856
 10
-22.1745126985
 20
-17.4607272809
 10
-22.1776253832
 20
-17.4492683781
 10
-22.1806275396
 20
-17.4377132364
 10
-22.183518846
 20
-17.4260631215
 10
-22.1862989806
 20
-17.4143193213
 10
-22.1889676363
 20
-17.4024831204
 10
-22.1915245319
 20
-17.3905557944
 10
-22.1939693849
 20
-17.378538648
 10
-22.196301922
 20
-17.3664330076
 10
-22.1985218935
 20
-17.3542401955
 10
-22.2006290537
 20
-17.3419615478
 10
-22.2026231674
 20
-17.3295984168
 10
-22.2045040197
 20
-17.3171521635
 10
-22.2062714019
 20
-17.304624155
 10
-22.2079251175
 20
-17.2920157678
 10
-22.2094649883
 20
-17.2793283896
 10
-22.2108908439
 20
-17.266563414
 10
-22.2122025256
 20
-17.2537222434
 10
-22.2133998925
 20
-17.240806292
 10
-22.2144828122
 20
-17.2278169782
 10
-22.2154511644
 20
-17.2147557289
 10
-22.2163048451
 20
-17.2016239831
 10
-22.2170437611
 20
-17.1884231846
 10
-22.2176678297
 20
-17.1751547817
 10
-22.2181769821
 20
-17.1618202313
  0
LWPOLYLINE
  5
234
100
AcDbEntity
  8
RACCORDO
100
AcDbPolyline
 62
253
  6
CONTINUOUS
 90
17
 70
0
 10
-22.3644514884
 20
-16.9881213223
 10
-22.3631294688
 20
-17.0004345036
 10
-22.3607037657
 20
-17.0126744709
 10
-22.3571797528
 20
-17.024814109
 10
-22.3525652368
 20
-17.0368265247
 10
-22.3468704404
 20
-17.0486851068
 10
-22.3401079792
 20
-17.0603635848
 10
-22.3322928343
 20
-17.0718360872
 10
-22.3234423186
 20
-17.0830771989
 10
-22.3135760388
 20
-17.0940620173
 10
-22.3027158518
 20
-17.1047662076
 10
-22.2908858163
 20
-17.1151660567
 10
-22.2781121394
 20
-17.1252385256
 10
-22.264423119
 20
-17.1349613008
 10
-22.2498490804
 20
-17.1443128431
 10
-22.2344223097
 20
-17.153272436
 10
-22.2181769821
 20
-17.1618202313
  0
LWPOLYLINE
  5
235
100
AcDbEntity
  8
RACCORDO
100
AcDbPolyline
 62
7
  6
CONTINUOUS
 90
28
 70
0
 10
-22.3646408612
 20
-16.9841709597
 10
-22.3629068025
 20
-17.0218023722
 10
-22.3590541351
 20
-17.0724384293
 10
-22.353501787
 20
-17.1221805536
 10
-22.3462597162
 20
-17.1710283576
 10
-22.3373444763
 20
-17.2189224373
 10
-22.3267899979
 20
-17.2657473254
 10
-22.3146172601
 20
-17.311479408
 10
-22.3008491745
 20
-17.3560862946
 10
-22.2855438005
 20
-17.3994437404
 10
-22.2687364668
 20
-17.4415241521
 10
-22.2504629599
 20
-17.4823015276
 10
-22.2308085063
 20
-17.5216579352
 10
-22.2098411503
 20
-17.5595422663
 10
-22.1876007946
 20
-17.5959616734
 10
-22.1641500116
 20
-17.6308855339
 10
-22.1395735411
 20
-17.6642617981
 10
-22.113913758
 20
-17.6961040749
 10
-22.0871697427
 20
-17.726467791
 10
-22.0594045957
 20
-17.7553249736
 10
-22.0306785182
 20
-17.7826563336
 10
-22.000975647
 20
-17.8085099198
 10
-21.9703578551
 20
-17.8328561018
 10
-21.9388853575
 20
-17.8556720164
 10
-21.9065289365
 20
-17.8769952904
 10
-21.8733160078
 20
-17.8968136223
 10
-21.8393383373
 20
-17.9150794916
 10
-6.9998620163
 20
-25.3348429715
  0
LWPOLYLINE
  5
236
100
AcDbEntity
  8
RACCORDO
100
AcDbPolyline
 62
253
  6
CONTINUOUS
 90
67
 70
0
 10
-22.2181769821
 20
-17.1618202313
 10
-22.2357160807
 20
-16.6315668882
 10
-22.2527157973
 20
-16.1010074502
 10
-22.269176105
 20
-15.5701427421
 10
-22.2850969774
 20
-15.0389735891
 10
-22.3004783897
 20
-14.5075008167
 10
-22.3153203188
 20
-13.9757252502
 10
-22.3296227415
 20
-13.4436477163
 10
-22.3433856349
 20
-12.9112690419
 10
-22.3566089785
 20
-12.3785900538
 10
-22.3692927514
 20
-11.8456115801
 10
-22.3814369335
 20
-11.312334449
 10
-22.3930415067
 20
-10.7787594889
 10
-22.4041064526
 20
-10.2448875291
 10
-22.4146317537
 20
-9.7107193993
 10
-22.4246173943
 20
-9.1762559291
 10
-22.4340633585
 20
-8.6414979494
 10
-22.4429696315
 20
-8.1064462911
 10
-22.4513361998
 20
-7.5711017843
 10
-22.4591630504
 20
-7.0354652609
 10
-22.4664501708
 20
-6.4995375534
 10
-22.47319755
 20
-5.9633194942
 10
-22.4794051775
 20
-5.4268119166
 10
-22.4850730434
 20
-4.8900156543
 10
-22.4902011393
 20
-4.3529315412
 10
-22.494789457
 20
-3.815560412
 10
-22.4988379892
 20
-3.2779031017
 10
-22.5023467299
 20
-2.7399604455
 10
-22.5053156737
 20
-2.2017332792
 10
-22.5077448156
 20
-1.6632224394
 10
-22.5096341522
 20
-1.1244287623
 10
-22.5109836805
 20
-0.5853530854
 10
-22.5117933983
 20
-0.0459962462
 10
-22.5120633043
 20
0.4936409177
 10
-22.5117933983
 20
1.0335575678
 10
-22.5109836805
 20
1.5737528651
 10
-22.5096341522
 20
2.1142259707
 10
-22.5077448156
 20
2.654976045
 10
-22.5053156737
 20
3.1960022474
 10
-22.5023467299
 20
3.7373037377
 10
-22.4988379892
 20
4.2788796745
 10
-22.494789457
 20
4.8207292165
 10
-22.4902011393
 20
5.3628515218
 10
-22.4850730435
 20
5.905245748
 10
-22.4794051775
 20
6.4479110524
 10
-22.47319755
 20
6.9908465918
 10
-22.4664501708
 20
7.5340515225
 10
-22.4591630504
 20
8.0775250007
 10
-22.4513361998
 20
8.6212661819
 10
-22.4429696315
 20
9.1652742211
 10
-22.4340633585
 20
9.7095482734
 10
-22.4246173943
 20
10.2540874937
 10
-22.4146317537
 20
10.7988910362
 10
-22.4041064526
 20
11.3439580542
 10
-22.3930415067
 20
11.8892877006
 10
-22.3814369335
 20
12.4348791283
 10
-22.3692927514
 20
12.9807314896
 10
-22.3566089785
 20
13.5268439359
 10
-22.3433856349
 20
14.0732156188
 10
-22.3296227415
 20
14.6198456895
 10
-22.3153203188
 20
15.1667332982
 10
-22.3004783897
 20
15.7138775953
 10
-22.2850969774
 20
16.2612777308
 10
-22.269176105
 20
16.8089328537
 10
-22.2527157973
 20
17.356842113
 10
-22.2357160807
 20
17.9050046577
 10
-22.2181769821
 20
18.4534196363
  0
LWPOLYLINE
  5
237
100
AcDbEntity
  8
RACCORDO
100
AcDbPolyline
 62
7
  6
CONTINUOUS
 90
22
 70
0
 10
-22.3646594045
 20
18.6284632037
 10
-22.4176146353
 20
16.9176200666
 10
-22.4656570599
 20
15.1962706884
 10
-22.5083632322
 20
13.4774561304
 10
-22.5457324577
 20
11.7612028509
 10
-22.5777641263
 20
10.047537148
 10
-22.6044577104
 20
8.3364852056
 10
-22.6258127607
 20
6.628073283
 10
-22.6418289096
 20
4.9223276242
 10
-22.6525058717
 20
3.2192743226
 10
-22.6578434419
 20
1.5189394691
 10
-22.6578414965
 20
-0.178650769
 10
-22.6524999939
 20
-1.8734702479
 10
-22.6418189754
 20
-3.5654928854
 10
-22.6257985632
 20
-5.2546927607
 10
-22.60443896
 20
-6.9410440373
 10
-22.5777404506
 20
-8.6245208097
 10
-22.5457034012
 20
-10.3050972412
 10
-22.5083282568
 20
-11.9827476606
 10
-22.4656155441
 20
-13.6574463626
 10
-22.4175658748
 20
-15.3291675633
 10
-22.3646407836
 20
-16.9841732709
  0
LWPOLYLINE
  5
238
100
AcDbEntity
  8
RACCORDO
100
AcDbPolyline
 62
253
  6
CONTINUOUS
 90
138
 70
0
 10
-22.2181769821
 20
18.4534196363
 10
-22.2176554844
 20
18.4675771282
 10
-22.2170140213
 20
18.4817883161
 10
-22.2162526666
 20
18.4960515723
 10
-22.2153715093
 20
18.5103652658
 10
-22.21437065
 20
18.5247277544
 10
-22.2132502008
 20
18.5391373843
 10
-22.2120102919
 20
18.5535925053
 10
-22.2106510663
 20
18.5680914618
 10
-22.2091726765
 20
18.5826325838
 10
-22.2075752944
 20
18.5972142061
 10
-22.2058591045
 20
18.6118346589
 10
-22.2040242997
 20
18.6264922576
 10
-22.2020710934
 20
18.6411853242
 10
-22.1999997116
 20
18.6559121759
 10
-22.1978103871
 20
18.6706711157
 10
-22.1955033757
 20
18.6854604469
 10
-22.1930789435
 20
18.7002784831
 10
-22.1905373596
 20
18.7151235375
 10
-22.187878919
 20
18.7299939111
 10
-22.1851039294
 20
18.7448879014
 10
-22.1822126981
 20
18.7598038129
 10
-22.1792055592
 20
18.7747399454
 10
-22.1760828615
 20
18.7896945825
 10
-22.172844955
 20
18.8046660021
 10
-22.1694922152
 20
18.8196524913
 10
-22.16602503
 20
18.8346523347
 10
-22.1624437883
 20
18.8496638036
 10
-22.1587489055
 20
18.8646851808
 10
-22.1549408093
 20
18.8797147472
 10
-22.1510199271
 20
18.8947507699
 10
-22.1469867137
 20
18.909791529
 10
-22.1428416363
 20
18.9248353033
 10
-22.1385851599
 20
18.9398803585
 10
-22.1342177793
 20
18.954924971
 10
-22.1297399996
 20
18.9699674222
 10
-22.1251523211
 20
18.9850059852
 10
-22.1204552768
 20
19.0000389376
 10
-22.11564941
 20
19.015064562
 10
-22.1107352551
 20
19.0300811406
 10
-22.1057133815
 20
19.045086957
 10
-22.1005843713
 20
19.0600802939
 10
-22.0953487955
 20
19.0750594332
 10
-22.0900072602
 20
19.0900226646
 10
-22.0845603848
 20
19.1049682742
 10
-22.0790087784
 20
19.1198945421
 10
-22.073353084
 20
19.1347997633
 10
-22.0675939571
 20
19.1496822316
 10
-22.0617320438
 20
19.1645402283
 10
-22.055768024
 20
19.1793720549
 10
-22.0497025885
 20
19.1941760155
 10
-22.0435364178
 20
19.2089504002
 10
-22.0372702273
 20
19.2236935197
 10
-22.0309047428
 20
19.238403689
 10
-22.0244406777
 20
19.2530792107
 10
-22.017878782
 20
19.267718407
 10
-22.0112198159
 20
19.282319605
 10
-22.004464525
 20
19.296881121
 10
-21.9976136952
 20
19.311401286
 10
-21.9906681182
 20
19.3258784455
 10
-21.9836285643
 20
19.3403109447
 10
-21.9764958484
 20
19.3546971372
 10
-21.9692707981
 20
19.3690353761
 10
-21.9619542185
 20
19.3833240142
 10
-21.9545469561
 20
19.3975614224
 10
-21.9470498707
 20
19.4117459702
 10
-21.9394638033
 20
19.4258760172
 10
-21.9317896334
 20
19.4399499492
 10
-21.9240282501
 20
19.4539661581
 10
-21.9161805245
 20
19.467923022
 10
-21.9082473663
 20
19.4818189471
 10
-21.9002296951
 20
19.4956523456
 10
-21.8921284108
 20
19.509421616
 10
-21.8839444528
 20
19.5231251861
 10
-21.8756787698
 20
19.5367614906
 10
-21.8673322899
 20
19.5503289498
 10
-21.8589059841
 20
19.5638260105
 10
-21.8504008261
 20
19.5772511356
 10
-21.841817763
 20
19.5906027827
 10
-21.8331577906
 20
19.6038794266
 10
-21.824421912
 20
19.6170795521
 10
-21.8156110979
 20
19.6302016447
 10
-21.8067263667
 20
19.6432442108
 10
-21.7977687511
 20
19.6562057566
 10
-21.7887392557
 20
19.6690847806
 10
-21.7796389275
 20
19.6818798129
 10
-21.7704688211
 20
19.6945893927
 10
-21.7612299658
 20
19.7072120465
 10
-21.7519234331
 20
19.7197463336
 10
-21.7425503014
 20
19.7321908238
 10
-21.733111622
 20
19.7445440747
 10
-21.7236084895
 20
19.7568046769
 10
-21.7140420055
 20
19.7689712316
 10
-21.7044132423
 20
19.7810423287
 10
-21.6947233176
 20
19.7930165902
 10
-21.6849733538
 20
19.8048926514
 10
-21.675164441
 20
19.816669139
 10
-21.6652977178
 20
19.8283447086
 10
-21.6553743269
 20
19.8399180299
 10
-21.6453953747
 20
19.8513877677
 10
-21.6353620174
 20
19.8627526151
 10
-21.6252754191
 20
19.8740112751
 10
-21.6151367068
 20
19.8851624449
 10
-21.6049470556
 20
19.896204854
 10
-21.5947076473
 20
19.9071372427
 10
-21.5844196284
 20
19.9179583429
 10
-21.5740841915
 20
19.928666922
 10
-21.5637025351
 20
19.9392617586
 10
-21.5532758236
 20
19.9497416216
 10
-21.5428052661
 20
19.9601053168
 10
-21.5322920763
 20
19.9703516633
 10
-21.5217374331
 20
19.9804794702
 10
-21.5111425608
 20
19.9904875835
 10
-21.5005086873
 20
20.0003748635
 10
-21.489837004
 20
20.0101401614
 10
-21.4791287486
 20
20.0197823648
 10
-21.4683851624
 20
20.0293003761
 10
-21.4576074478
 20
20.0386930897
 10
-21.4467968558
 20
20.0479594354
 10
-21.4359546386
 20
20.0570983594
 10
-21.4250820069
 20
20.0661088017
 10
-21.4141802209
 20
20.0749897374
 10
-21.4032505451
 20
20.0837401552
 10
-21.3922942019
 20
20.092359038
 10
-21.3813124609
 20
20.1008454058
 10
-21.3703065963
 20
20.1091982926
 10
-21.3592778417
 20
20.1174167243
 10
-21.3482274759
 20
20.1254997665
 10
-21.3371567802
 20
20.1334465001
 10
-21.3260669952
 20
20.141255998
 10
-21.3149594073
 20
20.1489273725
 10
-21.303835304
 20
20.156459752
 10
-21.2926959308
 20
20.1638522574
 10
-21.2815425799
 20
20.1711040487
 10
-21.2703765441
 20
20.1782143026
 10
-21.2591990733
 20
20.185182189
 10
-21.2480114485
 20
20.1920069094
 10
-21.236814982
 20
20.1986876965
  0
LWPOLYLINE
  5
239
100
AcDbEntity
  8
RACCORDO
100
AcDbPolyline
 62
253
  6
CONTINUOUS
 90
27
 70
0
 10
-15.8222532029
 20
22.9240336616
 10
-15.82713722
 20
22.9120650034
 10
-15.8324878235
 20
22.9003717993
 10
-15.8382904018
 20
22.888985981
 10
-15.8445291095
 20
22.8779386408
 10
-15.8511869098
 20
22.8672599467
 10
-15.8582456218
 20
22.8569790599
 10
-15.8656859695
 20
22.8471240554
 10
-15.8734876349
 20
22.8377218452
 10
-15.8816293134
 20
22.8287981047
 10
-15.8900887717
 20
22.8203772027
 10
-15.8988429087
 20
22.8124821351
 10
-15.9078678189
 20
22.8051344615
 10
-15.9171388569
 20
22.798354247
 10
-15.9266307057
 20
22.7921600069
 10
-15.9363174448
 20
22.7865686563
 10
-15.9461726219
 20
22.7815954641
 10
-15.9561693246
 20
22.777254011
 10
-15.9662802538
 20
22.7735561526
 10
-15.9764777989
 20
22.770511987
 10
-15.9867341124
 20
22.7681298272
 10
-15.9970211865
 20
22.7664161783
 10
-16.0073109294
 20
22.76537572
 10
-16.0175752418
 20
22.7650112935
 10
-16.0277860942
 20
22.765323894
 10
-16.0379156028
 20
22.7663126679
 10
-16.0479361061
 20
22.767974915
  0
LINE
  5
23A
100
AcDbEntity
  8
0
100
AcDbLine
 62
7
  6
CONTINUOUS
 10
-6.5488638362
 20
22.3356582329
 11
-5.841757055
 21
22.6892116235
  0
LINE
  5
23B
100
AcDbEntity
  8
0
100
AcDbLine
 62
7
  6
CONTINUOUS
 10
-4.0904191579
 20
23.2113271815
 11
-5.4882036644
 21
22.5124349282
  0
LINE
  5
23C
100
AcDbEntity
  8
ASSI
100
AcDbLine
 62
7
  6
CONTINUOUS
 10
-5.5568574639
 20
24.6125121979
 11
-10.1551084202
 21
22.3461509004
  0
LINE
  5
23D
100
AcDbEntity
  8
DRAFT
100
AcDbLine
 62
7
  6
CONTINUOUS
 10
-5.841757055
 20
23.2417698128
 11
-5.5079814324
 21
23.405090168
  0
LINE
  5
23E
100
AcDbEntity
  8
RACCORDO
100
AcDbLine
 62
7
  6
CONTINUOUS
 10
-3.4314234065
 20
24.0713999953
 11
-5.4882036644
 21
23.0649931175
  0
LWPOLYLINE
  5
23F
100
AcDbEntity
  8
ASSI
100
AcDbPolyline
 62
7
  6
CONTINUOUS
 90
7
 70
0
 10
-5.5568574639
 20
24.6125121979
 10
-5.5486482045
 20
24.616439683
 10
-5.5404642468
 20
24.6201247452
 10
-5.5323055907
 20
24.6235673845
 10
-5.5241722363
 20
24.6267676009
 10
-5.5160641835
 20
24.6297253944
 10
-5.5079814324
 20
24.632440765
  0
LINE
  5
240
100
AcDbEntity
  8
RACCORDO
100
AcDbLine
 62
253
  6
CONTINUOUS
 10
-0.3283870759
 20
-23.9991263191
 11
-0.8566542476
 21
-23.890624042
  0
LINE
  5
241
100
AcDbEntity
  8
RACCORDO
100
AcDbLine
 62
253
  6
CONTINUOUS
 10
-0.4178008712
 20
-23.6795595131
 11
-0.8566542476
 21
-23.5894221864
  0
LWPOLYLINE
  5
242
100
AcDbEntity
  8
RACCORDO
100
AcDbPolyline
 62
7
  6
CONTINUOUS
 90
34
 70
0
 10
-1.7467144304
 20
-24.2062330829
 10
-1.7546078927
 20
-24.2045174346
 10
-1.762855273
 20
-24.2026500109
 10
-1.77144494
 20
-24.2006216363
 10
-1.7803632432
 20
-24.1984123161
 10
-1.7895975437
 20
-24.1960242689
 10
-1.7991365235
 20
-24.1934817221
 10
-1.8089646046
 20
-24.1907755732
 10
-1.8190657099
 20
-24.1878980699
 10
-1.8294268157
 20
-24.1848753724
 10
-1.8400295645
 20
-24.1816990468
 10
-1.8508551564
 20
-24.1783619149
 10
-1.8618888939
 20
-24.1748918877
 10
-1.8731096422
 20
-24.1712813421
 10
-1.8844957725
 20
-24.1675238442
 10
-1.8960307182
 20
-24.1636489287
 10
-1.9076905489
 20
-24.1596499769
 10
-1.9194506908
 20
-24.1555214854
 10
-1.931292302
 20
-24.1512945174
 10
-1.9431886362
 20
-24.1469637381
 10
-1.955112077
 20
-24.1425247877
 10
-1.9670409538
 20
-24.1380101356
 10
-1.978945715
 20
-24.1334161298
 10
-1.9907956929
 20
-24.1287397992
 10
-2.0025658412
 20
-24.1240147682
 10
-2.0142238401
 20
-24.1192396143
 10
-2.0257362139
 20
-24.1144130231
 10
-2.037074413
 20
-24.1095691925
 10
-2.0482152055
 20
-24.1047061641
 10
-2.0591104399
 20
-24.0998273889
 10
-2.0696957617
 20
-24.0949785513
 10
-2.0799288944
 20
-24.0901801097
 10
-2.0897866294
 20
-24.0854247779
 10
-2.09923639
 20
-24.080720359
  0
LWPOLYLINE
  5
243
100
AcDbEntity
  8
RACCORDO
100
AcDbPolyline
 62
253
  6
CONTINUOUS
 90
31
 70
0
 10
-2.8104569981
 20
-25.3971907703
 10
-2.8009989799
 20
-25.4016793039
 10
-2.7910857429
 20
-25.4059151502
 10
-2.7807442578
 20
-25.4098867849
 10
-2.7700026602
 20
-25.4135834024
 10
-2.7588901745
 20
-25.4169949455
 10
-2.7474370341
 20
-25.4201121325
 10
-2.7356743993
 20
-25.4229264826
 10
-2.7236342723
 20
-25.4254303389
 10
-2.7113494102
 20
-25.4276168891
 10
-2.6988532362
 20
-25.4294801844
 10
-2.6861797481
 20
-25.4310151554
 10
-2.6733634264
 20
-25.432217626
 10
-2.6604391401
 20
-25.4330843246
 10
-2.6474420518
 20
-25.4336128932
 10
-2.6344075223
 20
-25.4338018938
 10
-2.6213710143
 20
-25.4336508121
 10
-2.6083679958
 20
-25.4331600592
 10
-2.5954338437
 20
-25.4323309703
 10
-2.5826037476
 20
-25.431165801
 10
-2.569912614
 20
-25.4296677215
 10
-2.5573949711
 20
-25.4278408074
 10
-2.5450848754
 20
-25.4256900292
 10
-2.5330158186
 20
-25.4232212384
 10
-2.5212206366
 20
-25.4204411519
 10
-2.5097314201
 20
-25.4173573332
 10
-2.4985794276
 20
-25.4139781726
 10
-2.487795
 20
-25.4103128635
 10
-2.477407478
 20
-25.406371378
 10
-2.4674451227
 20
-25.4021644397
 10
-2.4579350385
 20
-25.3977034941
  0
LWPOLYLINE
  5
244
100
AcDbEntity
  8
RACCORDO
100
AcDbPolyline
 62
253
  6
CONTINUOUS
 90
31
 70
0
 10
-2.8104569981
 20
-25.0572168361
 10
-2.8009989799
 20
-25.0617053698
 10
-2.7910857429
 20
-25.0659412161
 10
-2.7807442578
 20
-25.0699128507
 10
-2.7700026602
 20
-25.0736094683
 10
-2.7588901745
 20
-25.0770210114
 10
-2.7474370341
 20
-25.0801381984
 10
-2.7356743993
 20
-25.0829525485
 10
-2.7236342723
 20
-25.0854564047
 10
-2.7113494102
 20
-25.087642955
 10
-2.6988532362
 20
-25.0895062503
 10
-2.6861797481
 20
-25.0910412213
 10
-2.6733634264
 20
-25.0922436919
 10
-2.6604391401
 20
-25.0931103905
 10
-2.6474420518
 20
-25.0936389591
 10
-2.6344075223
 20
-25.0938279596
 10
-2.6213710143
 20
-25.093676878
 10
-2.6083679958
 20
-25.0931861251
 10
-2.5954338437
 20
-25.0923570362
 10
-2.5826037476
 20
-25.0911918669
 10
-2.569912614
 20
-25.0896937873
 10
-2.5573949711
 20
-25.0878668732
 10
-2.5450848754
 20
-25.085716095
 10
-2.5330158186
 20
-25.0832473043
 10
-2.5212206366
 20
-25.0804672177
 10
-2.5097314201
 20
-25.0773833991
 10
-2.4985794276
 20
-25.0740042385
 10
-2.487795
 20
-25.0703389294
 10
-2.477407478
 20
-25.0663974439
 10
-2.4674451227
 20
-25.0621905055
 10
-2.4579350385
 20
-25.05772956
  0
LWPOLYLINE
  5
245
100
AcDbEntity
  8
RACCORDO
100
AcDbPolyline
 62
7
  6
CONTINUOUS
 90
19
 70
0
 10
-2.7454836291
 20
-25.5324092567
 10
-2.7368330434
 20
-25.5365292592
 10
-2.7249967405
 20
-25.5415282446
 10
-2.7128982443
 20
-25.5459195197
 10
-2.7005667114
 20
-25.5496887202
 10
-2.6880356355
 20
-25.5528218846
 10
-2.6753339952
 20
-25.5553079396
 10
-2.6624940737
 20
-25.5571364046
 10
-2.6495508346
 20
-25.5582981665
 10
-2.6365381884
 20
-25.5587860871
 10
-2.6234913252
 20
-25.5585947058
 10
-2.610445807
 20
-25.5577203975
 10
-2.5974367767
 20
-25.556161285
 10
-2.584498473
 20
-25.5539169828
 10
-2.5716693645
 20
-25.5509896302
 10
-2.558991019
 20
-25.5473847163
 10
-2.5465000122
 20
-25.5431090528
 10
-2.5342319186
 20
-25.5381711626
 10
-2.5241965737
 20
-25.5335540924
  0
LINE
  5
246
100
AcDbEntity
  8
RACCORDO
100
AcDbLine
 62
7
  6
CONTINUOUS
 10
-4.0704683815
 20
-24.8699168805
 11
-2.7454837017
 21
-25.5324092204
  0
LINE
  5
247
100
AcDbEntity
  8
RACCORDO
100
AcDbLine
 62
253
  6
CONTINUOUS
 10
-4.1354416779
 20
-24.7346984304
 11
-2.8104569981
 21
-25.3971907703
  0
LINE
  5
248
100
AcDbEntity
  8
RACCORDO
100
AcDbLine
 62
253
  6
CONTINUOUS
 10
-2.8104569981
 20
-25.0572168361
 11
-4.0205139057
 21
-24.4521883824
  0
LINE
  5
249
100
AcDbEntity
  8
RACCORDO
100
AcDbLine
 62
253
  6
CONTINUOUS
 10
-2.7220686505
 20
-24.8255226623
 11
-3.718091203
 21
-24.327511386
  0
LINE
  5
24A
100
AcDbEntity
  8
RACCORDO
100
AcDbLine
 62
7
  6
CONTINUOUS
 10
-2.5622919214
 20
-23.8491925933
 11
-2.0997506184
 21
-24.0804632448
  0
LWPOLYLINE
  5
24B
100
AcDbEntity
  8
RACCORDO
100
AcDbPolyline
 62
253
  6
CONTINUOUS
 90
16
 70
0
 10
-4.1354416779
 20
-24.7346984304
 10
-4.1444187451
 20
-24.7299694213
 10
-4.1528904378
 20
-24.7250128028
 10
-4.1608337071
 20
-24.7198420602
 10
-4.1682269422
 20
-24.7144712614
 10
-4.1750500284
 20
-24.7089150186
 10
-4.1812844024
 20
-24.7031884484
 10
-4.1869131026
 20
-24.697307131
 10
-4.1919208151
 20
-24.6912870675
 10
-4.1962939155
 20
-24.6851446364
 10
-4.2000205062
 20
-24.6788965494
 10
-4.2030904482
 20
-24.6725598054
 10
-4.2054953894
 20
-24.6661516445
 10
-4.2072287866
 20
-24.6596895014
 10
-4.2082859238
 20
-24.6531909572
 10
-4.2086649826
 20
-24.6463100827
  0
LWPOLYLINE
  5
24C
100
AcDbEntity
  8
RACCORDO
100
AcDbPolyline
 62
253
  6
CONTINUOUS
 90
18
 70
0
 10
-22.3646597242
 20
18.628453342
 10
-22.3644514878
 20
18.6170613435
 10
-22.3631294682
 20
18.6058873424
 10
-22.3607037652
 20
18.5947274125
 10
-22.3571797522
 20
18.5836062765
 10
-22.3525652363
 20
18.5725485711
 10
-22.3468704398
 20
18.5615787927
 10
-22.3401079787
 20
18.5507212427
 10
-22.3322928338
 20
18.539999974
 10
-22.3234423182
 20
18.5294387375
 10
-22.3135760384
 20
18.5190609298
 10
-22.3027158515
 20
18.5088895407
 10
-22.290885816
 20
18.4989471033
 10
-22.2781121392
 20
18.489255643
 10
-22.2644231188
 20
18.4798366294
 10
-22.2498490803
 20
18.4707109287
 10
-22.2344223097
 20
18.4618987571
 10
-22.2181769821
 20
18.4534196363
  0
LINE
  5
24D
100
AcDbEntity
  8
RACCORDO
100
AcDbLine
 62
7
  6
CONTINUOUS
 10
-6.5748198558
 20
21.8126467978
 11
-7.5048446745
 21
21.0210190276
  0
LINE
  5
24E
100
AcDbEntity
  8
0
100
AcDbLine
 62
253
  6
CONTINUOUS
 10
-6.4781531581
 20
21.8124713761
 11
-7.4438191
 21
20.9905062403
  0
LWPOLYLINE
  5
24F
100
AcDbEntity
  8
RACCORDO
100
AcDbPolyline
 62
7
  6
CONTINUOUS
 90
5
 70
0
 10
-6.5748064081
 20
21.8126583521
 10
-6.5725633291
 20
21.8144742252
 10
-6.5692803907
 20
21.8168230642
 10
-6.5658417062
 20
21.8189376856
 10
-6.563116461
 20
21.8203914416
  0
LINE
  5
250
100
AcDbEntity
  8
RACCORDO
100
AcDbLine
 62
7
  6
CONTINUOUS
 10
-6.563108999
 20
21.8203951726
 11
-6.5015593607
 21
21.8511699918
  0
LINE
  5
251
100
AcDbEntity
  8
RACCORDO
100
AcDbLine
 62
253
  6
CONTINUOUS
 10
-6.4781531581
 20
21.8124713761
 11
-6.4121166416
 21
21.8454896343
  0
LWPOLYLINE
  5
252
100
AcDbEntity
  8
RACCORDO
100
AcDbPolyline
 62
7
  6
CONTINUOUS
 90
20
 70
0
 10
-6.563116461
 20
21.8203914416
 10
-6.5622505286
 20
21.8208155897
 10
-6.5585123374
 20
21.8224536066
 10
-6.5546329799
 20
21.8238488221
 10
-6.5506165434
 20
21.8249996518
 10
-6.5464690372
 20
21.8259039899
 10
-6.5421968262
 20
21.8265599939
 10
-6.5378047782
 20
21.8269670272
 10
-6.5332993626
 20
21.8271240841
 10
-6.5286873785
 20
21.8270304241
 10
-6.5239743948
 20
21.8266863716
 10
-6.5191672561
 20
21.8260920393
 10
-6.5142731126
 20
21.8252478002
 10
-6.5092981523
 20
21.8241549301
 10
-6.5042495125
 20
21.8228146625
 10
-6.4991346002
 20
21.82122848
 10
-6.4939601212
 20
21.8193985786
 10
-6.4887332841
 20
21.8173273231
 10
-6.4834617915
 20
21.8150172556
 10
-6.4781531581
 20
21.8124713761
  0
LWPOLYLINE
  5
253
100
AcDbEntity
  8
RACCORDO
100
AcDbPolyline
 62
253
  6
CONTINUOUS
 90
55
 70
0
 10
-6.4121166416
 20
21.8454896343
 10
-6.3963655354
 20
21.8531573623
 10
-6.3802361303
 20
21.8606024226
 10
-6.3637284264
 20
21.8678248154
 10
-6.346829069
 20
21.8748297459
 10
-6.3295514128
 20
21.8816120089
 10
-6.3119355221
 20
21.8881559882
 10
-6.293980923
 20
21.8944609351
 10
-6.2756880894
 20
21.9005275984
 10
-6.2570985082
 20
21.9063426091
 10
-6.2382115961
 20
21.9119053238
 10
-6.2190279363
 20
21.9172163858
 10
-6.1995907652
 20
21.922264356
 10
-6.1798996048
 20
21.9270485888
 10
-6.1599549331
 20
21.9315697298
 10
-6.1398014206
 20
21.9358182758
 10
-6.1194386086
 20
21.9397935883
 10
-6.0988669559
 20
21.9434963059
 10
-6.0781325098
 20
21.946918841
 10
-6.0572350391
 20
21.9500605253
 10
-6.036174775
 20
21.9529220272
 10
-6.0149984592
 20
21.9554977634
 10
-5.9937059342
 20
21.9577870747
 10
-5.9722973575
 20
21.9597906204
 10
-5.9508199433
 20
21.961504795
 10
-5.9292737061
 20
21.9629289427
 10
-5.9076586314
 20
21.9640637192
 10
-5.8860218903
 20
21.9649074861
 10
-5.8643635351
 20
21.965459604
 10
-5.8426835135
 20
21.9657207122
 10
-5.8210288392
 20
21.9656910904
 10
-5.7993997266
 20
21.9653701144
 10
-5.7777959613
 20
21.9647584082
 10
-5.756263914
 20
21.9638581244
 10
-5.7348038256
 20
21.9626686556
 10
-5.7134154552
 20
21.961190609
 10
-5.6921444511
 20
21.9594279594
 10
-5.67099121
 20
21.9573801258
 10
-5.6499553352
 20
21.9550476891
 10
-5.6290812848
 20
21.9524363662
 10
-5.6083695317
 20
21.949545608
 10
-5.587819603
 20
21.9463759636
 10
-5.5674745375
 20
21.9429347978
 10
-5.547334875
 20
21.939221593
 10
-5.5274000757
 20
21.9352368669
 10
-5.5077115594
 20
21.9309895365
 10
-5.4882697994
 20
21.9264790813
 10
-5.4690743224
 20
21.921706022
 10
-5.4501651278
 20
21.9166808378
 10
-5.4315427298
 20
21.9114029909
 10
-5.4132066143
 20
21.9058730191
 10
-5.3951952386
 20
21.9001030153
 10
-5.3775214218
 20
21.8940970103
 10
-5.3601723449
 20
21.8878509732
 10
-5.3431480078
 20
21.881364904
  0
LWPOLYLINE
  5
254
100
AcDbEntity
  8
RACCORDO
100
AcDbPolyline
 62
253
  6
CONTINUOUS
 90
17
 70
0
 10
-6.5015593607
 20
21.8511699918
 10
-6.4982085037
 20
21.8527433185
 10
-6.4932325942
 20
21.8547238301
 10
-6.488102276
 20
21.8563570581
 10
-6.4828273148
 20
21.8576398937
 10
-6.4774177518
 20
21.8585698948
 10
-6.4718838846
 20
21.8591452912
 10
-6.466236247
 20
21.8593649877
 10
-6.4604855898
 20
21.8592285659
 10
-6.4546428596
 20
21.8587362856
 10
-6.4487191783
 20
21.8578890839
 10
-6.4427258222
 20
21.8566885735
 10
-6.4366741997
 20
21.8551370396
 10
-6.4305758306
 20
21.8532374357
 10
-6.4244423235
 20
21.8509933778
 10
-6.4182853538
 20
21.8484091376
 10
-6.4121166416
 20
21.8454896343
  0
LWPOLYLINE
  5
255
100
AcDbEntity
  8
ASSI
100
AcDbPolyline
 62
7
  6
CONTINUOUS
 90
16
 70
0
 10
-0.558233964
 20
22.1575670309
 10
-0.5460900259
 20
22.1610561513
 10
-0.5333613077
 20
22.1637791524
 10
-0.5200539255
 20
22.165719194
 10
-0.5061671933
 20
22.1668736842
 10
-0.4917191818
 20
22.167210564
 10
-0.4767492809
 20
22.1666701585
 10
-0.4612756468
 20
22.1652293632
 10
-0.4453141282
 20
22.1628800502
 10
-0.4289071348
 20
22.1595881602
 10
-0.412115569
 20
22.1553490392
 10
-0.3949273075
 20
22.1501417061
 10
-0.3772748873
 20
22.1439035975
 10
-0.3591770826
 20
22.1366187712
 10
-0.3406667013
 20
22.1282655838
 10
-0.3316678974
 20
22.1238763495
  0
LWPOLYLINE
  5
256
100
AcDbEntity
  8
RACCORDO
100
AcDbPolyline
 62
253
  6
CONTINUOUS
 90
5
 70
0
 10
-0.3943921459
 20
-23.6876437265
 10
-0.3959658454
 20
-23.6868753115
 10
-0.4029935453
 20
-23.6838691059
 10
-0.4102779268
 20
-23.681428483
 10
-0.4178008712
 20
-23.6795595131
  0
LINE
  5
257
100
AcDbEntity
  8
RACCORDO
100
AcDbLine
 62
253
  6
CONTINUOUS
 10
-0.8566542476
 20
-23.4601328249
 11
-0.4178008712
 21
-23.6795595131
  0
LINE
  5
258
100
AcDbEntity
  8
RACCORDO
100
AcDbLine
 62
7
  6
CONTINUOUS
 10
-0.8566542476
 20
-23.4565126753
 11
-0.39438582
 21
-23.6876468892
  0
LWPOLYLINE
  5
259
100
AcDbEntity
  8
RACCORDO
100
AcDbPolyline
 62
253
  6
CONTINUOUS
 90
7
 70
0
 10
-19.8035453133
 20
-4.1527547884
 10
-19.8101156564
 20
-2.8529238006
 10
-19.8134562885
 20
-1.5514877646
 10
-19.8135671796
 20
-0.2484584663
 10
-19.8104483287
 20
1.0561522941
 10
-19.8040997639
 20
2.3623327015
 10
-19.7945215421
 20
3.6700709268
  0
LWPOLYLINE
  5
25A
100
AcDbEntity
  8
RACCORDO
100
AcDbPolyline
 62
253
  6
CONTINUOUS
 90
7
 70
0
 10
-19.1020886931
 20
-3.7192837071
 10
-19.1071297554
 20
-2.5643113015
 10
-19.1096200253
 20
-1.4080867792
 10
-19.1095595028
 20
-0.2506101402
 10
-19.1069481879
 20
0.9081186157
 10
-19.1017860807
 20
2.0680994882
 10
-19.0948641694
 20
3.1102434357
  0
LINE
  5
25B
100
AcDbEntity
  8
DRAFT
100
AcDbLine
 62
7
  6
CONTINUOUS
 10
-18.3221917429
 20
-3.3278078449
 11
-18.3221917429
 21
2.7239072225
  0
LWPOLYLINE
  5
25C
100
AcDbEntity
  8
RACCORDO
100
AcDbPolyline
 62
253
  6
CONTINUOUS
 90
27
 70
0
 10
-16.1709406257
 20
23.3112875016
 10
-16.168795926
 20
23.3233431013
 10
-16.1661865428
 20
23.3354791391
 10
-16.1631195755
 20
23.347662597
 10
-16.1596033682
 20
23.3598603276
 10
-16.1556474874
 20
23.3720391451
 10
-16.1512626957
 20
23.3841659149
 10
-16.1464609227
 20
23.396207644
 10
-16.1412552324
 20
23.4081315709
 10
-16.1356597878
 20
23.4199052546
 10
-16.1296898123
 20
23.4314966627
 10
-16.1233615481
 20
23.4428742588
 10
-16.1166922125
 20
23.4540070883
 10
-16.1096999503
 20
23.4648648624
 10
-16.1024037854
 20
23.4754180407
 10
-16.0948235681
 20
23.4856379115
 10
-16.0869799217
 20
23.4954966698
 10
-16.0788941861
 20
23.5049674934
 10
-16.0705883601
 20
23.5140246151
 10
-16.0620850409
 20
23.5226433936
 10
-16.0534073634
 20
23.53080038
 10
-16.0445789365
 20
23.5384733818
 10
-16.0356237796
 20
23.5456415234
 10
-16.0265662567
 20
23.5522853026
 10
-16.0174310102
 20
23.5583866438
 10
-16.0082428942
 20
23.5639289474
 10
-15.9990269066
 20
23.5688971345
  0
LINE
  5
25D
100
AcDbEntity
  8
RACCORDO
100
AcDbLine
 62
7
  6
CONTINUOUS
 10
-5.27607163
 20
17.9921285473
 11
-5.6337507793
 21
17.7925325954
  0
LINE
  5
25E
100
AcDbEntity
  8
RACCORDO
100
AcDbLine
 62
7
  6
CONTINUOUS
 10
-5.6337507793
 20
19.0252595677
 11
-5.27607163
 21
19.2045641125
  0
LINE
  5
25F
100
AcDbEntity
  8
ASSI
100
AcDbLine
 62
7
  6
CONTINUOUS
 10
-5.27607163
 20
19.2045641125
 11
-0.0015795609
 21
21.8348732464
  0
LINE
  5
260
100
AcDbEntity
  8
DRAFT
100
AcDbLine
 62
7
  6
CONTINUOUS
 10
-5.27607163
 20
17.9921285473
 11
0.0487624402
 21
20.6284599792
  0
LINE
  5
261
100
AcDbEntity
  8
ASSI
100
AcDbLine
 62
7
  6
CONTINUOUS
 10
-0.6071099956
 20
22.1376384638
 11
-5.2053609519
 21
19.8712771663
  0
LINE
  5
262
100
AcDbEntity
  8
RACCORDO
100
AcDbLine
 62
7
  6
CONTINUOUS
 10
0.8112172806
 20
21.9500796518
 11
0.1723565041
 21
21.6374775267
  0
LWPOLYLINE
  5
263
100
AcDbEntity
  8
ASSI
100
AcDbPolyline
 62
7
  6
CONTINUOUS
 90
7
 70
0
 10
-0.6071099956
 20
22.1376384638
 10
-0.5989007362
 20
22.1415659489
 10
-0.5907167785
 20
22.1452510111
 10
-0.5825581224
 20
22.1486936504
 10
-0.574424768
 20
22.1518938668
 10
-0.5663167152
 20
22.1548516603
 10
-0.558233964
 20
22.1575670309
  0
LWPOLYLINE
  5
264
100
AcDbEntity
  8
RACCORDO
100
AcDbPolyline
 62
7
  6
CONTINUOUS
 90
18
 70
0
 10
0.8112172806
 20
21.9500796518
 10
0.8395918014
 20
21.9632616086
 10
0.8678262534
 20
21.9749960003
 10
0.8959206366
 20
21.985282827
 10
0.9239249496
 20
21.9941349616
 10
0.9517891939
 20
22.0015395311
 10
0.9793633736
 20
22.0074579168
 10
1.0066325022
 20
22.011881338
 10
1.0336115662
 20
22.0148185754
 10
1.0601955288
 20
22.0162573513
 10
1.0864004877
 20
22.0161902148
 10
1.1122103452
 20
22.0146246168
 10
1.1374717714
 20
22.0115706334
 10
1.1621615248
 20
22.007024849
 10
1.1863028469
 20
22.0009906791
 10
1.2098121331
 20
21.9934884464
 10
1.2327079133
 20
21.9845030317
 10
1.2522699976
 20
21.9754132986
  0
LINE
  5
265
100
AcDbEntity
  8
RACCORDO
100
AcDbLine
 62
7
  6
CONTINUOUS
 10
-6.197418082
 20
18.8929819035
 11
-6.285001663
 21
18.867006698
  0
LWPOLYLINE
  5
266
100
AcDbEntity
  8
RACCORDO
100
AcDbPolyline
 62
7
  6
CONTINUOUS
 90
4
 70
0
 10
-6.285001663
 20
18.867006698
 10
-6.3181960023
 20
18.8573428942
 10
-6.3286454347
 20
18.8543827589
 10
-6.3387946986
 20
18.8515801429
  0
LWPOLYLINE
  5
267
100
AcDbEntity
  8
RACCORDO
100
AcDbPolyline
 62
253
  6
CONTINUOUS
 90
19
 70
0
 10
-17.4997598424
 20
23.5870387254
 10
-17.4995399877
 20
23.5763540688
 10
-17.4988809704
 20
23.5659158424
 10
-17.4977844297
 20
23.5557500099
 10
-17.4962530987
 20
23.5458818914
 10
-17.4942907835
 20
23.5363359967
 10
-17.4919023376
 20
23.5271359763
 10
-17.4890936676
 20
23.5183046644
 10
-17.485871762
 20
23.5098641073
 10
-17.4822446645
 20
23.501835399
 10
-17.4782213848
 20
23.4942384881
 10
-17.4738119423
 20
23.4870922973
 10
-17.4690274057
 20
23.4804147319
 10
-17.4638797723
 20
23.4742224547
 10
-17.4583818043
 20
23.4685307422
 10
-17.4525470706
 20
23.463353616
 10
-17.4463888542
 20
23.458703101
 10
-17.43992358
 20
23.4545918273
 10
-17.4347853953
 20
23.4518196999
  0
LINE
  5
268
100
AcDbEntity
  8
RACCORDO
100
AcDbLine
 62
253
  6
CONTINUOUS
 10
-17.0603353378
 20
-7.9307686218
 11
-17.0657462507
 21
-7.4133502966
  0
LINE
  5
269
100
AcDbEntity
  8
RACCORDO
100
AcDbLine
 62
253
  6
CONTINUOUS
 10
-16.3608978622
 20
-7.4959080131
 11
-16.3658753264
 21
-6.9787887934
  0
LINE
  5
26A
100
AcDbEntity
  8
RACCORDO
100
AcDbLine
 62
253
  6
CONTINUOUS
 10
-17.0657462507
 20
-7.4133502966
 11
-17.0706426458
 21
-6.8956716479
  0
LINE
  5
26B
100
AcDbEntity
  8
RACCORDO
100
AcDbLine
 62
253
  6
CONTINUOUS
 10
-17.8131047629
 20
-6.5244405894
 11
-17.8170251557
 21
-6.0640662167
  0
LINE
  5
26C
100
AcDbEntity
  8
RACCORDO
100
AcDbLine
 62
253
  6
CONTINUOUS
 10
-16.3658753264
 20
-6.9787887934
 11
-16.3703385319
 21
-6.461404228
  0
LINE
  5
26D
100
AcDbEntity
  8
RACCORDO
100
AcDbLine
 62
253
  6
CONTINUOUS
 10
-17.1128005777
 20
-6.0901731297
 11
-17.1163365116
 21
-5.630068378
  0
LINE
  5
26E
100
AcDbEntity
  8
RACCORDO
100
AcDbLine
 62
253
  6
CONTINUOUS
 10
-17.8170251557
 20
-6.0640662167
 11
-17.8205390118
 21
-5.6034872723
  0
LINE
  5
26F
100
AcDbEntity
  8
RACCORDO
100
AcDbLine
 62
253
  6
CONTINUOUS
 10
-17.8205390118
 20
-5.6034872723
 11
-17.8236463273
 21
-5.1427042814
  0
LINE
  5
270
100
AcDbEntity
  8
RACCORDO
100
AcDbLine
 62
253
  6
CONTINUOUS
 10
-17.1163365116
 20
-5.630068378
 11
-17.1194662501
 21
-5.1697550832
  0
LINE
  5
271
100
AcDbEntity
  8
RACCORDO
100
AcDbLine
 62
253
  6
CONTINUOUS
 10
-17.1194662501
 20
-5.1697550832
 11
-17.1221897933
 21
-4.7092332453
  0
LINE
  5
272
100
AcDbEntity
  8
0
100
AcDbLine
 62
7
  6
CONTINUOUS
 10
-17.9332830133
 20
1.3548894594
 11
-17.9332830133
 21
-0.1173537271
  0
LINE
  5
273
100
AcDbEntity
  8
RACCORDO
100
AcDbLine
 62
7
  6
CONTINUOUS
 10
-17.5729831471
 20
24.0154010071
 11
-17.5729831471
 21
23.675427073
  0
LINE
  5
274
100
AcDbEntity
  8
RACCORDO
100
AcDbLine
 62
253
  6
CONTINUOUS
 10
-17.4997598424
 20
23.9270126595
 11
-17.4997598424
 21
23.5870387254
  0
LINE
  5
275
100
AcDbEntity
  8
0
100
AcDbLine
 62
7
  6
CONTINUOUS
 10
-17.4206305969
 20
2.2731266495
 11
-17.4206305969
 21
1.0985632512
  0
LINE
  5
276
100
AcDbEntity
  8
0
100
AcDbLine
 62
7
  6
CONTINUOUS
 10
-17.4206305969
 20
-0.3736799353
 11
-17.4206305969
 21
-3.2748650379
  0
LINE
  5
277
100
AcDbEntity
  8
RACCORDO
100
AcDbLine
 62
7
  6
CONTINUOUS
 10
-16.8699901928
 20
22.7154499058
 11
-16.8699901928
 21
23.1694220987
  0
LINE
  5
278
100
AcDbEntity
  8
RACCORDO
100
AcDbLine
 62
253
  6
CONTINUOUS
 10
-16.7967668881
 20
22.6237363022
 11
-16.7967668881
 21
23.1328104463
  0
LINE
  5
279
100
AcDbEntity
  8
DRAFT
100
AcDbLine
 62
7
  6
CONTINUOUS
 10
-16.3422927556
 20
-5.7033979847
 11
-16.3422927556
 21
-4.3177573386
  0
LINE
  5
27A
100
AcDbEntity
  8
0
100
AcDbLine
 62
7
  6
CONTINUOUS
 10
-16.2362267384
 20
-3.8670669672
 11
-16.2362267384
 21
-5.2527076132
  0
LINE
  5
27B
100
AcDbEntity
  8
RACCORDO
100
AcDbLine
 62
253
  6
CONTINUOUS
 10
-16.1747751625
 20
22.9245463855
 11
-16.1747751625
 21
23.2645203196
  0
LWPOLYLINE
  5
27C
100
AcDbEntity
  8
RACCORDO
100
AcDbPolyline
 62
253
  6
CONTINUOUS
 90
31
 70
0
 10
-17.4997598424
 20
23.9270126595
 10
-17.4995192611
 20
23.9384245689
 10
-17.4987981699
 20
23.9500460255
 10
-17.4975985281
 20
23.9618453986
 10
-17.4959235956
 20
23.9737905853
 10
-17.4937779291
 20
23.9858490603
 10
-17.4911673745
 20
23.9979879641
 10
-17.488099041
 20
24.0101742462
 10
-17.4845812797
 20
24.0223747457
 10
-17.4806236705
 20
24.0345562426
 10
-17.4762369886
 20
24.0466855782
 10
-17.4714331756
 20
24.0587297404
 10
-17.466225311
 20
24.0706559423
 10
-17.4606275656
 20
24.082431737
 10
-17.454655184
 20
24.0940250594
 10
-17.4483244497
 20
24.1054043116
 10
-17.4416526287
 20
24.1165384794
 10
-17.4346578604
 20
24.127397311
 10
-17.4273591235
 20
24.137951347
 10
-17.4197761809
 20
24.1481719897
 10
-17.4119297626
 20
24.1580312786
 10
-17.4038414713
 20
24.1675020948
 10
-17.3955335036
 20
24.1765585229
 10
-17.3870283312
 20
24.1851761395
 10
-17.3783488685
 20
24.1933317533
 10
-17.3695167779
 20
24.2010048019
 10
-17.360557995
 20
24.2081725494
 10
-17.3515026581
 20
24.214811456
 10
-17.3423774893
 20
24.2209032534
 10
-17.3332054847
 20
24.2264339007
 10
-17.3240115864
 20
24.2313894745
  0
LWPOLYLINE
  5
27D
100
AcDbEntity
  8
RACCORDO
100
AcDbPolyline
 62
253
  6
CONTINUOUS
 90
5
 70
0
 10
-16.1747751625
 20
23.2645203196
 10
-16.1745346871
 20
23.2759296955
 10
-16.1738139149
 20
23.2875485057
 10
-16.1726148069
 20
23.2993451393
 10
-16.1709406257
 20
23.3112875016
  0
LWPOLYLINE
  5
27E
100
AcDbEntity
  8
RACCORDO
100
AcDbPolyline
 62
7
  6
CONTINUOUS
 90
5
 70
0
 10
-11.9917269685
 20
21.9918470323
 10
-11.9937635119
 20
21.9827256343
 10
-11.9952778707
 20
21.9728920368
 10
-11.9962342544
 20
21.9624338768
 10
-11.9965660013
 20
21.9507601205
  0
LINE
  5
27F
100
AcDbEntity
  8
RACCORDO
100
AcDbLine
 62
7
  6
CONTINUOUS
 10
-2.4896073931
 20
18.3678754147
 11
-4.0727790881
 21
17.5556783674
  0
LINE
  5
280
100
AcDbEntity
  8
RACCORDO
100
AcDbLine
 62
253
  6
CONTINUOUS
 10
-2.3769368188
 20
18.3612144896
 11
-3.959693422
 21
17.5492303922
  0
LINE
  5
281
100
AcDbEntity
  8
RACCORDO
100
AcDbLine
 62
253
  6
CONTINUOUS
 10
-1.0334279513
 20
17.6894600558
 11
-2.6347087421
 21
16.8867380523
  0
LINE
  5
282
100
AcDbEntity
  8
RACCORDO
100
AcDbLine
 62
253
  6
CONTINUOUS
 10
-0.8566542476
 20
17.384570517
 11
-2.4579350385
 21
16.5818485135
  0
LINE
  5
283
100
AcDbEntity
  8
RACCORDO
100
AcDbLine
 62
7
  6
CONTINUOUS
 10
-2.4878690076
 20
18.3687446474
 11
-2.4896054194
 21
18.3678764272
  0
LINE
  5
284
100
AcDbEntity
  8
RACCORDO
100
AcDbLine
 62
253
  6
CONTINUOUS
 10
-0.5051607796
 20
17.9528988759
 11
-1.0334279513
 21
17.6894600558
  0
LINE
  5
285
100
AcDbEntity
  8
RACCORDO
100
AcDbLine
 62
253
  6
CONTINUOUS
 10
-0.3283870759
 20
17.648009337
 11
-0.8566542476
 21
17.384570517
  0
LINE
  5
286
100
AcDbEntity
  8
RACCORDO
100
AcDbLine
 62
7
  6
CONTINUOUS
 10
-1.9529990512
 20
18.6292967472
 11
-2.487866242
 21
18.3687459947
  0
LINE
  5
287
100
AcDbEntity
  8
RACCORDO
100
AcDbLine
 62
253
  6
CONTINUOUS
 10
-1.8424869401
 20
18.6215619561
 11
-2.3769368188
 21
18.3612144896
  0
LINE
  5
288
100
AcDbEntity
  8
RACCORDO
100
AcDbLine
 62
7
  6
CONTINUOUS
 10
3.8781832245
 20
20.4165966798
 11
-0.805353655
 21
18.1649726845
  0
LWPOLYLINE
  5
289
100
AcDbEntity
  8
RACCORDO
100
AcDbPolyline
 62
7
  6
CONTINUOUS
 90
18
 70
0
 10
-1.9529990512
 20
18.6292967472
 10
-1.9407780915
 20
18.6348491134
 10
-1.9281489678
 20
18.6397835535
 10
-1.9151501686
 20
18.6440621825
 10
-1.9018049181
 20
18.6476547563
 10
-1.8881791888
 20
18.6505229835
 10
-1.87438023
 20
18.6526324555
 10
-1.8604812479
 20
18.6539687035
 10
-1.8465118267
 20
18.6545270912
 10
-1.8325109751
 20
18.6543027382
 10
-1.8185375108
 20
18.6532941319
 10
-1.8046317555
 20
18.6515026645
 10
-1.7907983157
 20
18.6489236721
 10
-1.7770302542
 20
18.6455424099
 10
-1.7634292053
 20
18.6413703115
 10
-1.7501433747
 20
18.6364538004
 10
-1.7372092194
 20
18.6308170101
 10
-1.7317059756
 20
18.6281488445
  0
LWPOLYLINE
  5
28A
100
AcDbEntity
  8
RACCORDO
100
AcDbPolyline
 62
253
  6
CONTINUOUS
 90
31
 70
0
 10
-15.8222532029
 20
23.2640075957
 10
-15.8225482973
 20
23.2754358349
 10
-15.8233244809
 20
23.2870765302
 10
-15.8245796283
 20
23.2988977639
 10
-15.8263103027
 20
23.3108671342
 10
-15.8285117605
 20
23.3229518099
 10
-15.8311779598
 20
23.3351186199
 10
-15.8343015866
 20
23.347334194
 10
-15.837874076
 20
23.359565044
 10
-15.8418856273
 20
23.3717776211
 10
-15.8463252375
 20
23.3839384358
 10
-15.8511807316
 20
23.3960141454
 10
-15.8564387917
 20
23.4079716343
 10
-15.8620850044
 20
23.4197781292
 10
-15.8681038795
 20
23.431401244
 10
-15.8744788857
 20
23.4428090654
 10
-15.8811925081
 20
23.453970272
 10
-15.8882263586
 20
23.4648543134
 10
-15.8955612103
 20
23.4754314422
 10
-15.9031770543
 20
23.4856727844
 10
-15.9110529175
 20
23.495550117
 10
-15.9191669594
 20
23.505036075
 10
-15.9274967513
 20
23.5141045115
 10
-15.9360195941
 20
23.5227307868
 10
-15.9447123525
 20
23.5308915108
 10
-15.9535531405
 20
23.5385659311
 10
-15.9625158308
 20
23.545731165
 10
-15.971570136
 20
23.5523635686
 10
-15.9806891805
 20
23.5584447696
 10
-15.989849799
 20
23.5639606229
 10
-15.9990269066
 20
23.5688971345
  0
LWPOLYLINE
  5
28B
100
AcDbEntity
  8
RACCORDO
100
AcDbPolyline
 62
253
  6
CONTINUOUS
 90
19
 70
0
 10
-16.1747751625
 20
22.9245463855
 10
-16.1745553079
 20
22.9138617289
 10
-16.1738962906
 20
22.9034235025
 10
-16.1727997498
 20
22.89325767
 10
-16.1712684189
 20
22.8833895515
 10
-16.1693061037
 20
22.8738436568
 10
-16.1669176578
 20
22.8646436364
 10
-16.1641089877
 20
22.8558123245
 10
-16.1608870822
 20
22.8473717674
 10
-16.1572599846
 20
22.8393430591
 10
-16.153236705
 20
22.8317461482
 10
-16.1488272625
 20
22.8245999574
 10
-16.1440427259
 20
22.817922392
 10
-16.1388950925
 20
22.8117301147
 10
-16.1333971245
 20
22.8060384023
 10
-16.1275623908
 20
22.8008612761
 10
-16.1214041744
 20
22.7962107611
 10
-16.1149389002
 20
22.7920994874
 10
-16.1098124992
 20
22.7893332527
  0
LWPOLYLINE
  5
28C
100
AcDbEntity
  8
RACCORDO
100
AcDbPolyline
 62
7
  6
CONTINUOUS
 90
34
 70
0
 10
-14.2209724121
 20
24.0667295992
 10
-14.2211724681
 20
24.0771314079
 10
-14.2217727055
 20
24.0877097759
 10
-14.2227716635
 20
24.098440794
 10
-14.2241668991
 20
24.1093002471
 10
-14.2259552473
 20
24.1202635396
 10
-14.2281328287
 20
24.1313057505
 10
-14.2306946532
 20
24.1424018974
 10
-14.2336348275
 20
24.1535268909
 10
-14.2369468224
 20
24.1646554613
 10
-14.2406230996
 20
24.1757624191
 10
-14.2446552598
 20
24.1868226403
 10
-14.2490342571
 20
24.1978110215
 10
-14.2537501577
 20
24.2087026792
 10
-14.2587922277
 20
24.2194729663
 10
-14.2641490883
 20
24.2300974575
 10
-14.2698086126
 20
24.240552082
 10
-14.2757579505
 20
24.2508131721
 10
-14.2819836223
 20
24.2608574785
 10
-14.2884715548
 20
24.2706622334
 10
-14.2952070436
 20
24.2802052306
 10
-14.3021747829
 20
24.2894648708
 10
-14.3093590399
 20
24.2984201532
 10
-14.3167435556
 20
24.3070507852
 10
-14.3243115099
 20
24.3153372579
 10
-14.3320458314
 20
24.3232607652
 10
-14.3399290373
 20
24.3308033413
 10
-14.3479431368
 20
24.3379479651
 10
-14.3560700672
 20
24.3446784078
 10
-14.3642914782
 20
24.3509793964
 10
-14.372588575
 20
24.3568367436
 10
-14.3809425683
 20
24.3622371804
 10
-14.3893347175
 20
24.367168385
 10
-14.3977461157
 20
24.371619138
  0
LINE
  5
28D
100
AcDbEntity
  8
RACCORDO
100
AcDbLine
 62
253
  6
CONTINUOUS
 10
-15.8222532029
 20
22.9240336616
 11
-15.8222532029
 21
23.2640075957
  0
LINE
  5
28E
100
AcDbEntity
  8
DRAFT
100
AcDbLine
 62
7
  6
CONTINUOUS
 10
-15.5998306354
 20
-7.1138595293
 11
-15.5998306354
 21
-6.0746290448
  0
LINE
  5
28F
100
AcDbEntity
  8
RACCORDO
100
AcDbLine
 62
253
  6
CONTINUOUS
 10
-15.4635545544
 20
22.6459507583
 11
-15.4635545544
 21
21.9571301353
  0
LINE
  5
290
100
AcDbEntity
  8
0
100
AcDbLine
 62
7
  6
CONTINUOUS
 10
-15.3452721941
 20
-5.6981848854
 11
-15.3452721941
 21
-6.4776077488
  0
LINE
  5
291
100
AcDbEntity
  8
0
100
AcDbLine
 62
7
  6
CONTINUOUS
 10
-15.1755665667
 20
-4.7223775273
 11
-15.1755665667
 21
-3.726448313
  0
LINE
  5
292
100
AcDbEntity
  8
RACCORDO
100
AcDbLine
 62
253
  6
CONTINUOUS
 10
-15.1110325948
 20
22.7755301387
 11
-15.1110325948
 21
21.967898017
  0
LINE
  5
293
100
AcDbEntity
  8
0
100
AcDbLine
 62
7
  6
CONTINUOUS
 10
-14.2846120224
 20
-5.1678547995
 11
-14.2846120224
 21
-5.9472776629
  0
LINE
  5
294
100
AcDbEntity
  8
RACCORDO
100
AcDbLine
 62
7
  6
CONTINUOUS
 10
-14.2209724121
 20
22.4645789383
 11
-14.2209724121
 21
24.0667295992
  0
LWPOLYLINE
  5
295
100
AcDbEntity
  8
RACCORDO
100
AcDbPolyline
 62
7
  6
CONTINUOUS
 90
15
 70
0
 10
-13.6205073834
 20
24.0705072225
 10
-13.6206671445
 20
24.0615733709
 10
-13.6214253029
 20
24.049105862
 10
-13.6228070984
 20
24.0366780572
 10
-13.6248113532
 20
24.0243201335
 10
-13.6274347132
 20
24.012065741
 10
-13.6306730697
 20
23.9999439481
 10
-13.63452041
 20
23.9879859113
 10
-13.6389687763
 20
23.9762234093
 10
-13.6440092202
 20
23.9646861814
 10
-13.6496307638
 20
23.9534047997
 10
-13.6558207492
 20
23.9424093821
 10
-13.6625655866
 20
23.9317283791
 10
-13.6698499395
 20
23.9213901522
 10
-13.6773457409
 20
23.9118004301
  0
LWPOLYLINE
  5
296
100
AcDbEntity
  8
RACCORDO
100
AcDbPolyline
 62
253
  6
CONTINUOUS
 90
16
 70
0
 10
-13.6205073833
 20
24.4180410547
 10
-13.6208086538
 20
24.4119062226
 10
-13.6217883724
 20
24.4054032744
 10
-13.6234450614
 20
24.3989347102
 10
-13.625774213
 20
24.3925181434
 10
-13.6287694932
 20
24.3861710323
 10
-13.6324227521
 20
24.3799106555
 10
-13.6367240502
 20
24.3737540524
 10
-13.6416616827
 20
24.3677179819
 10
-13.647222208
 20
24.3618188795
 10
-13.6533904971
 20
24.356072798
 10
-13.6601497584
 20
24.3504953824
 10
-13.6674815723
 20
24.3451018301
 10
-13.6753659704
 20
24.3399068256
 10
-13.6837814962
 20
24.3349245021
 10
-13.6927052403
 20
24.3301684193
  0
LWPOLYLINE
  5
297
100
AcDbEntity
  8
RACCORDO
100
AcDbPolyline
 62
253
  6
CONTINUOUS
 90
16
 70
0
 10
-13.6205073834
 20
24.0705072225
 10
-13.6208103066
 20
24.0643579117
 10
-13.6217915436
 20
24.0578561648
 10
-13.6234495014
 20
24.0513888458
 10
-13.6257796678
 20
24.044973554
 10
-13.6287757033
 20
24.0386277417
 10
-13.6324294598
 20
24.0323686697
 10
-13.6367310045
 20
24.0262133591
 10
-13.6416686302
 20
24.0201785674
 10
-13.6472288832
 20
24.0142807356
 10
-13.6533966167
 20
24.0085359213
 10
-13.6601550553
 20
24.0029597418
 10
-13.667485826
 20
23.9975673534
 10
-13.67536899
 20
23.9923734235
 10
-13.6837830926
 20
23.9873920888
 10
-13.6927052403
 20
23.9826369025
  0
LWPOLYLINE
  5
298
100
AcDbEntity
  8
RACCORDO
100
AcDbPolyline
 62
253
  6
CONTINUOUS
 90
141
 70
0
 10
-6.0190859731
 20
12.1739557623
 10
-6.026605746
 20
12.1697077515
 10
-6.0341190899
 20
12.1653680836
 10
-6.0416268742
 20
12.1609362273
 10
-6.0491282294
 20
12.1564127139
 10
-6.0566205472
 20
12.151799137
 10
-6.0641037895
 20
12.1470955012
 10
-6.0715779944
 20
12.1423018019
 10
-6.0790406663
 20
12.137419619
 10
-6.0864917989
 20
12.1324489161
 10
-6.0939313987
 20
12.1273897296
 10
-6.1013569892
 20
12.1222437488
 10
-6.1087685633
 20
12.1170109476
 10
-6.1161661283
 20
12.1116913522
 10
-6.1235472292
 20
12.1062867298
 10
-6.1309118505
 20
12.1007970592
 10
-6.1382600077
 20
12.0952223616
 10
-6.1455892929
 20
12.089564468
 10
-6.1528996872
 20
12.0838233627
 10
-6.1601912095
 20
12.0779990614
 10
-6.1674615088
 20
12.0720934422
 10
-6.1747105953
 20
12.0661064654
 10
-6.1819384587
 20
12.0600381707
 10
-6.1891427174
 20
12.053890555
 10
-6.1963233675
 20
12.0476635883
 10
-6.2034804128
 20
12.0413573005
 10
-6.2106114832
 20
12.0349737781
 10
-6.2177165696
 20
12.0285129955
 10
-6.2247956812
 20
12.0219749784
 10
-6.2318464749
 20
12.0153618901
 10
-6.2388689399
 20
12.0086737069
 10
-6.2458630871
 20
12.0019104526
 10
-6.2528266064
 20
11.995074362
 10
-6.2597594882
 20
11.98816541
 10
-6.2666617419
 20
11.9811836218
 10
-6.2735310864
 20
11.9741313069
 10
-6.2803675133
 20
11.9670084386
 10
-6.2871710309
 20
11.9598150437
 10
-6.2939393828
 20
11.9525535118
 10
-6.3006725469
 20
11.9452238316
 10
-6.3073705453
 20
11.9378260144
 10
-6.3140311875
 20
11.9303624838
 10
-6.3206544536
 20
11.9228332284
 10
-6.3272403634
 20
11.9152382595
 10
-6.3337867866
 20
11.9075800347
 10
-6.3402937107
 20
11.8998585349
 10
-6.3467611481
 20
11.892073779
 10
-6.353187005
 20
11.8842282822
 10
-6.3595712738
 20
11.876322019
 10
-6.3659139622
 20
11.8683550147
 10
-6.3722129994
 20
11.8603298605
 10
-6.3784683911
 20
11.8522465109
 10
-6.3846801315
 20
11.8441050113
 10
-6.3908461333
 20
11.8359080888
 10
-6.3969663968
 20
11.8276556998
 10
-6.4030409216
 20
11.8193478879
 10
-6.4090676193
 20
11.8109875118
 10
-6.4150464669
 20
11.8025745574
 10
-6.4209774873
 20
11.7941090387
 10
-6.4268586603
 20
11.7855938562
 10
-6.4326899197
 20
11.7770290662
 10
-6.4384713316
 20
11.7684146123
 10
-6.4442010747
 20
11.7597532257
 10
-6.4498791179
 20
11.7510449211
 10
-6.4555054922
 20
11.7422896837
 10
-6.4610784696
 20
11.7334901997
 10
-6.4665980858
 20
11.7246463743
 10
-6.4720643052
 20
11.7157583024
 10
-6.4774752929
 20
11.7068289545
 10
-6.4828310605
 20
11.69785826
 10
-6.4881315964
 20
11.6888462896
 10
-6.4933750312
 20
11.6797962264
 10
-6.4985612993
 20
11.6707081333
 10
-6.5036904662
 20
11.6615819474
 10
-6.5087608593
 20
11.6524206638
 10
-6.5137724216
 20
11.643224347
 10
-6.5187252101
 20
11.6339929325
 10
-6.5236177221
 20
11.6247292226
 10
-6.5284499658
 20
11.6154331641
 10
-6.5332219332
 20
11.6061048101
 10
-6.5379320974
 20
11.5967471219
 10
-6.542580476
 20
11.5873600132
 10
-6.5471670514
 20
11.5779435704
 10
-6.5516902438
 20
11.5685010139
 10
-6.5561500345
 20
11.5590323211
 10
-6.5605464422
 20
11.5495375145
 10
-6.5648779439
 20
11.5400198817
 10
-6.5691445051
 20
11.5304794351
 10
-6.5733461603
 20
11.5209161623
 10
-6.5774814899
 20
11.5113333136
 10
-6.5815504502
 20
11.5017309315
 10
-6.5855530849
 20
11.4921089735
 10
-6.5894881052
 20
11.4824705619
 10
-6.5933554829
 20
11.4728157122
 10
-6.5971552462
 20
11.4631444089
 10
-6.6008861914
 20
11.4534597277
 10
-6.6045483047
 20
11.4437616473
 10
-6.6081415999
 20
11.4340501891
 10
-6.6116649141
 20
11.4243284931
 10
-6.615118234
 20
11.41459653
 10
-6.6185015728
 20
11.4048543291
 10
-6.621813807
 20
11.395105119
 10
-6.6250549167
 20
11.385348883
 10
-6.6282249219
 20
11.3755856378
 10
-6.6313227584
 20
11.3658186623
 10
-6.6343483897
 20
11.356047996
 10
-6.6373018524
 20
11.3462735994
 10
-6.6401821924
 20
11.3364986329
 10
-6.6429893845
 20
11.3267231076
 10
-6.645723454
 20
11.3169470124
 10
-6.648383522
 20
11.3071734743
 10
-6.650969574
 20
11.2974024629
 10
-6.6534816245
 20
11.2876340087
 10
-6.6559188387
 20
11.2778713301
 10
-6.658281211
 20
11.268114334
 10
-6.6605687469
 20
11.2583631135
 10
-6.6627806285
 20
11.2486211666
 10
-6.6649168147
 20
11.2388885377
 10
-6.6669773466
 20
11.2291651823
 10
-6.6689615293
 20
11.2194544648
 10
-6.6708693119
 20
11.2097565217
 10
-6.6727007453
 20
11.2000712166
 10
-6.6744552865
 20
11.1904015041
 10
-6.676132909
 20
11.1807474535
 10
-6.6777336393
 20
11.1711089956
 10
-6.6792570144
 20
11.161488877
 10
-6.6807030354
 20
11.1518869802
 10
-6.6820717011
 20
11.1423034228
 10
-6.683362545
 20
11.1327413039
 10
-6.6845755508
 20
11.1232005437
 10
-6.6857107347
 20
11.1136812221
 10
-6.6867676791
 20
11.1041866783
 10
-6.6877463511
 20
11.0947169275
 10
-6.6886467835
 20
11.0852719546
 10
-6.689468657
 20
11.0758550529
 10
-6.6902119428
 20
11.0664661558
 10
-6.6908766697
 20
11.0571053299
 10
-6.6914626052
 20
11.0477760692
 10
-6.6919696718
 20
11.0384795383
 10
-6.6923979469
 20
11.0292145725
 10
-6.6927474306
 20
11.0199811718
  0
LINE
  5
299
100
AcDbEntity
  8
RACCORDO
100
AcDbLine
 62
253
  6
CONTINUOUS
 10
-3.4211069298
 20
13.621968809
 11
-4.3154106499
 21
13.119947667
  0
LWPOLYLINE
  5
29A
100
AcDbEntity
  8
RACCORDO
100
AcDbPolyline
 62
253
  6
CONTINUOUS
 90
9
 70
0
 10
-4.3154106499
 20
13.119947667
 10
-4.5343298268
 20
12.9971403632
 10
-4.7499433895
 20
12.8764438352
 10
-4.9603334853
 20
12.7589245525
 10
-5.167417967
 20
12.6435160456
 10
-5.3756386544
 20
12.527956709
 10
-5.5864761542
 20
12.4114926743
 10
-5.7984498599
 20
12.29487781
 10
-6.0190859731
 20
12.1739557623
  0
LWPOLYLINE
  5
29B
100
AcDbEntity
  8
RACCORDO
100
AcDbPolyline
 62
253
  6
CONTINUOUS
 90
142
 70
0
 10
-6.3773925113
 20
12.7811145618
 10
-6.3886163143
 20
12.774848225
 10
-6.3998326912
 20
12.7684431785
 10
-6.4110404249
 20
12.7619001331
 10
-6.4222382964
 20
12.7552198418
 10
-6.4334250933
 20
12.7484030192
 10
-6.4445996101
 20
12.7414503384
 10
-6.4557606624
 20
12.734362534
 10
-6.4669070103
 20
12.7271404214
 10
-6.4780373671
 20
12.7197848164
 10
-6.4891505281
 20
12.7122965379
 10
-6.500245284
 20
12.7046764097
 10
-6.5113203448
 20
12.6969252809
 10
-6.5223745034
 20
12.6890440122
 10
-6.5334065658
 20
12.681033475
 10
-6.5444152653
 20
12.6728945577
 10
-6.5553993931
 20
12.6646281743
 10
-6.5663577723
 20
12.6562352299
 10
-6.5772891886
 20
12.6477166211
 10
-6.5881924364
 20
12.6390733069
 10
-6.5990663527
 20
12.6303062294
 10
-6.6099097907
 20
12.6214162774
 10
-6.6207215985
 20
12.6124044113
 10
-6.6315005774
 20
12.6032716469
 10
-6.6422455148
 20
12.5940189733
 10
-6.6529552501
 20
12.5846474068
 10
-6.663628615
 20
12.575157987
 10
-6.6742643913
 20
12.5655517588
 10
-6.6848614238
 20
12.5558297835
 10
-6.6954185633
 20
12.5459931341
 10
-6.7059346064
 20
12.5360428937
 10
-6.7164084097
 20
12.5259801632
 10
-6.7268388391
 20
12.5158060523
 10
-6.7372247122
 20
12.5055216758
 10
-6.7475649031
 20
12.4951281687
 10
-6.7578582889
 20
12.4846266801
 10
-6.7681037004
 20
12.4740183646
 10
-6.7783000301
 20
12.4633043896
 10
-6.788446168
 20
12.4524859431
 10
-6.7985409491
 20
12.4415642291
 10
-6.8085832634
 20
12.4305404714
 10
-6.8185720376
 20
12.4194158718
 10
-6.828506171
 20
12.4081916175
 10
-6.8383845738
 20
12.3968689621
 10
-6.8482061871
 20
12.385449142
 10
-6.8579699645
 20
12.373933333
 10
-6.8676748456
 20
12.3623228051
 10
-6.8773197775
 20
12.3506188379
 10
-6.8869037323
 20
12.3388226344
 10
-6.8964256761
 20
12.3269354837
 10
-6.9058845665
 20
12.314958704
 10
-6.9152793715
 20
12.3028935548
 10
-6.9246090989
 20
12.2907413245
 10
-6.9338727041
 20
12.2785033887
 10
-6.9430690874
 20
12.2661811532
 10
-6.952197275
 20
12.2537759401
 10
-6.9612562495
 20
12.2412891506
 10
-6.9702448612
 20
12.2287223275
 10
-6.9791621296
 20
12.2160768678
 10
-6.9880070961
 20
12.2033541583
 10
-6.9967786616
 20
12.1905557453
 10
-7.0054758055
 20
12.1776831532
 10
-7.0140976635
 20
12.1647376976
 10
-7.0226433834
 20
12.1517206234
 10
-7.0311120135
 20
12.1386334073
 10
-7.0395026637
 20
12.1254774527
 10
-7.0478145787
 20
12.1122538989
 10
-7.0560469291
 20
12.0989640763
 10
-7.0641987412
 20
12.0856095687
 10
-7.0722690525
 20
12.0721919022
 10
-7.0802570336
 20
12.0587124706
 10
-7.0881617664
 20
12.0451728393
 10
-7.0959821759
 20
12.0315748078
 10
-7.1037173517
 20
12.0179199922
 10
-7.1113665256
 20
12.0042097842
 10
-7.1189288548
 20
11.9904456597
 10
-7.1264034621
 20
11.9766292478
 10
-7.133789602
 20
11.9627619613
 10
-7.1410866354
 20
11.9488449562
 10
-7.1482938018
 20
11.9348796954
 10
-7.1554102811
 20
11.9208677817
 10
-7.1624353496
 20
11.9068105836
 10
-7.1693682944
 20
11.8927095304
 10
-7.1762082999
 20
11.878566286
 10
-7.182954503
 20
11.8643825785
 10
-7.189606177
 20
11.8501599496
 10
-7.196162589
 20
11.8358999823
 10
-7.2026228908
 20
11.8216044762
 10
-7.2089863689
 20
11.807275037
 10
-7.2152523497
 20
11.7929132112
 10
-7.2214200684
 20
11.7785207174
 10
-7.2274888295
 20
11.7640992149
 10
-7.233458012
 20
11.7496502186
 10
-7.2393269799
 20
11.7351752358
 10
-7.2450950881
 20
11.7206758904
 10
-7.250761727
 20
11.7061537483
 10
-7.2563263266
 20
11.6916102325
 10
-7.2617882931
 20
11.6770469165
 10
-7.2671470243
 20
11.6624654286
 10
-7.2724019495
 20
11.647867277
 10
-7.2775525104
 20
11.6332540275
 10
-7.2825981329
 20
11.6186273266
 10
-7.2875382382
 20
11.6039888055
 10
-7.2923722962
 20
11.5893400521
 10
-7.2970997746
 20
11.5746826991
 10
-7.3017201117
 20
11.5600184464
 10
-7.3062327884
 20
11.5453489676
 10
-7.3106373364
 20
11.5306758147
 10
-7.3149332875
 20
11.5160005062
 10
-7.3191201698
 20
11.5013246724
 10
-7.323197534
 20
11.4866499101
 10
-7.3271649584
 20
11.4719776871
 10
-7.3310220204
 20
11.4573095696
 10
-7.3347682857
 20
11.4426472175
 10
-7.338403329
 20
11.4279922382
 10
-7.3419267857
 20
11.4133460997
 10
-7.3453382343
 20
11.398710556
 10
-7.3486371923
 20
11.3840876411
 10
-7.3518232945
 20
11.3694790218
 10
-7.3548962158
 20
11.3548862426
 10
-7.3578555682
 20
11.3403111491
 10
-7.360701004
 20
11.3257555391
 10
-7.3634322683
 20
11.3112208111
 10
-7.3660491277
 20
11.2967082092
 10
-7.3685512854
 20
11.282219426
 10
-7.3709384925
 20
11.2677559526
 10
-7.3732105835
 20
11.2533187318
 10
-7.3753673269
 20
11.2389091701
 10
-7.3774084486
 20
11.2245290359
 10
-7.3793337198
 20
11.2101798146
 10
-7.3811429339
 20
11.1958629555
 10
-7.3828358634
 20
11.1815801669
 10
-7.3844122726
 20
11.1673333157
 10
-7.3858719827
 20
11.153123977
 10
-7.3872148307
 20
11.138953706
 10
-7.3884406368
 20
11.1248243302
 10
-7.3895492685
 20
11.1107373918
 10
-7.3905406055
 20
11.0966944477
 10
-7.3914145196
 20
11.0826973357
 10
-7.3921709177
 20
11.0687476878
 10
-7.3928097331
 20
11.0548469341
 10
-7.3933309044
 20
11.0409965975
  0
LINE
  5
29C
100
AcDbEntity
  8
RACCORDO
100
AcDbLine
 62
7
  6
CONTINUOUS
 10
-0.8566542476
 20
15.782419856
 11
-1.7467144304
 21
15.2857389348
  0
LWPOLYLINE
  5
29D
100
AcDbEntity
  8
RACCORDO
100
AcDbPolyline
 62
253
  6
CONTINUOUS
 90
7
 70
0
 10
-2.021797558
 20
14.3993180797
 10
-2.203771353
 20
14.2993181559
 10
-2.3910705482
 20
14.1959920803
 10
-2.5826909333
 20
14.0899382465
 10
-2.7812436499
 20
13.979658789
 10
-2.9886681005
 20
13.8639996146
 10
-3.4211069298
 20
13.621968809
  0
LINE
  5
29E
100
AcDbEntity
  8
RACCORDO
100
AcDbLine
 62
253
  6
CONTINUOUS
 10
-1.6651897652
 20
14.5944276984
 11
-2.021797558
 21
14.3993180797
  0
LINE
  5
29F
100
AcDbEntity
  8
RACCORDO
100
AcDbLine
 62
253
  6
CONTINUOUS
 10
-1.2408804793
 20
15.5483895607
 11
-1.9877025409
 21
15.1404680432
  0
LINE
  5
2A0
100
AcDbEntity
  8
RACCORDO
100
AcDbLine
 62
253
  6
CONTINUOUS
 10
-0.8333957279
 20
15.7707905962
 11
-1.2408804793
 21
15.5483895607
  0
LWPOLYLINE
  5
2A1
100
AcDbEntity
  8
RACCORDO
100
AcDbPolyline
 62
253
  6
CONTINUOUS
 90
3
 70
0
 10
-0.5140843297
 20
15.222670799
 10
-1.3024944998
 20
14.7923078125
 10
-1.6651897652
 20
14.5944276984
  0
LWPOLYLINE
  5
2A2
100
AcDbEntity
  8
RACCORDO
100
AcDbPolyline
 62
253
  6
CONTINUOUS
 90
7
 70
0
 10
-1.9877025409
 20
15.1404680432
 10
-2.3452964358
 20
14.9455976494
 10
-2.5280486816
 20
14.8463781434
 10
-2.7164099413
 20
14.7444531742
 10
-2.909351609
 20
14.6403416087
 10
-3.1096184948
 20
14.5326088775
 10
-3.3192371769
 20
14.4202303047
  0
LINE
  5
2A3
100
AcDbEntity
  8
RACCORDO
100
AcDbLine
 62
7
  6
CONTINUOUS
 10
4.7597186831
 20
19.6827384884
 11
-0.7318246452
 21
16.7199248776
  0
LWPOLYLINE
  5
2A4
100
AcDbEntity
  8
RACCORDO
100
AcDbPolyline
 62
253
  6
CONTINUOUS
 90
8
 70
0
 10
-4.8868863032
 20
13.5840758851
 10
-5.1054532019
 20
13.4673085912
 10
-5.3184795521
 20
13.3532876008
 10
-5.5279187051
 20
13.2409633834
 10
-5.7380969487
 20
13.1278341497
 10
-5.950456379
 20
13.01306597
 10
-6.1635548998
 20
12.8974927741
 10
-6.3773925113
 20
12.7811145618
  0
LINE
  5
2A5
100
AcDbEntity
  8
RACCORDO
100
AcDbLine
 62
253
  6
CONTINUOUS
 10
-3.3192371769
 20
14.4202303047
 11
-3.75711527
 21
14.1862491196
  0
LINE
  5
2A6
100
AcDbEntity
  8
RACCORDO
100
AcDbLine
 62
253
  6
CONTINUOUS
 10
-3.75711527
 20
14.1862491196
 11
-4.8868863032
 21
13.5840758851
  0
LINE
  5
2A7
100
AcDbEntity
  8
RACCORDO
100
AcDbLine
 62
7
  6
CONTINUOUS
 10
4.7597186831
 20
19.1854085315
 11
-0.598432654
 21
16.3528581512
  0
LINE
  5
2A8
100
AcDbEntity
  8
DRAFT
100
AcDbLine
 62
7
  6
CONTINUOUS
 10
-0.1039147398
 20
16.1053051751
 11
5.5622480987
 21
18.8576386035
  0
LINE
  5
2A9
100
AcDbEntity
  8
RACCORDO
100
AcDbLine
 62
253
  6
CONTINUOUS
 10
-0.1142890665
 20
16.1107863575
 11
-0.8337384425
 21
15.7709619535
  0
LINE
  5
2AA
100
AcDbEntity
  8
RACCORDO
100
AcDbLine
 62
253
  6
CONTINUOUS
 10
0.2040059242
 20
15.5618532359
 11
-0.5140843297
 21
15.222670799
  0
LINE
  5
2AB
100
AcDbEntity
  8
RACCORDO
100
AcDbLine
 62
253
  6
CONTINUOUS
 10
8.544071704
 20
19.7030837199
 11
5.8053950783
 21
18.4382720975
  0
LINE
  5
2AC
100
AcDbEntity
  8
RACCORDO
100
AcDbLine
 62
253
  6
CONTINUOUS
 10
-13.0874742947
 20
-9.9171991433
 11
-17.0603353378
 21
-7.9307686218
  0
LINE
  5
2AD
100
AcDbEntity
  8
RACCORDO
100
AcDbLine
 62
253
  6
CONTINUOUS
 10
-13.2408849576
 20
-9.0513309578
 11
-16.35635827
 21
-7.4935943017
  0
LINE
  5
2AE
100
AcDbEntity
  8
RACCORDO
100
AcDbLine
 62
253
  6
CONTINUOUS
 10
-12.3551413109
 20
-9.2534223154
 11
-13.0976034306
 21
-8.8821912555
  0
LINE
  5
2AF
100
AcDbEntity
  8
RACCORDO
100
AcDbLine
 62
253
  6
CONTINUOUS
 10
-17.0706426458
 20
-6.8956716479
 11
-17.8131047629
 21
-6.5244405894
  0
LWPOLYLINE
  5
2B0
100
AcDbEntity
  8
RACCORDO
100
AcDbPolyline
 62
253
  6
CONTINUOUS
 90
31
 70
0
 10
-2.4579350385
 20
-25.05772956
 10
-2.4628135383
 20
-25.0501167997
 10
-2.4681591798
 20
-25.0422803346
 10
-2.47395777
 20
-25.0342413548
 10
-2.4801944551
 20
-25.0260208657
 10
-2.4868520493
 20
-25.0176419038
 10
-2.4939106984
 20
-25.0091296109
 10
-2.5013503542
 20
-25.0005081109
 10
-2.5091513903
 20
-24.9918000976
 10
-2.5172927096
 20
-24.9830291327
 10
-2.525752245
 20
-24.9742190202
 10
-2.5345067819
 20
-24.9653939658
 10
-2.5435322021
 20
-24.9565782923
 10
-2.5528037685
 20
-24.9477961583
 10
-2.5622962377
 20
-24.939071471
 10
-2.571983706
 20
-24.9304280399
 10
-2.5818397306
 20
-24.9218894605
 10
-2.5918373765
 20
-24.9134790699
 10
-2.6019493124
 20
-24.9052198609
 10
-2.6121479105
 20
-24.8971343993
 10
-2.6224053222
 20
-24.8892447629
 10
-2.6326935302
 20
-24.8815725018
 10
-2.6429844488
 20
-24.8741385609
 10
-2.6532499537
 20
-24.8669632572
 10
-2.6634619596
 20
-24.8600662198
 10
-2.6735925448
 20
-24.8534663023
 10
-2.6836140705
 20
-24.8471815065
 10
-2.693499209
 20
-24.8412289687
 10
-2.7032209746
 20
-24.8356249392
 10
-2.7127527999
 20
-24.8303847329
 10
-2.7220686505
 20
-24.8255226623
  0
LWPOLYLINE
  5
2B1
100
AcDbEntity
  8
RACCORDO
100
AcDbPolyline
 62
253
  6
CONTINUOUS
 90
31
 70
0
 10
-13.6927052403
 20
24.3301684193
 10
-13.6928954884
 20
24.3416490816
 10
-13.6935727529
 20
24.3533392365
 10
-13.6947351798
 20
24.3652068304
 10
-13.6963795864
 20
24.3772193345
 10
-13.698501466
 20
24.3893437995
 10
-13.7010949949
 20
24.4015469447
 10
-13.7041530584
 20
24.4137953003
 10
-13.7076672715
 20
24.4260552885
 10
-13.7116279932
 20
24.4382932804
 10
-13.7160243599
 20
24.4504757169
 10
-13.720844315
 20
24.462569196
 10
-13.7260746382
 20
24.4745405533
 10
-13.7317009919
 20
24.4863569777
 10
-13.7377079405
 20
24.4979860557
 10
-13.7440789854
 20
24.5093958579
 10
-13.7507966221
 20
24.5205550572
 10
-13.7578424516
 20
24.5314331091
 10
-13.7651972141
 20
24.5420002826
 10
-13.7728408465
 20
24.5522277305
 10
-13.7807522996
 20
24.5620872682
 10
-13.7889096338
 20
24.5715515801
 10
-13.7972903
 20
24.5805945794
 10
-13.8058714597
 20
24.5891916962
 10
-13.8146298194
 20
24.5973196196
 10
-13.8235433295
 20
24.6049576788
 10
-13.8325856499
 20
24.6120830977
 10
-13.8417262187
 20
24.6186723695
 10
-13.8509378915
 20
24.6247072563
 10
-13.8601972553
 20
24.630173737
 10
-13.869478944
 20
24.6350579581
  0
LWPOLYLINE
  5
2B2
100
AcDbEntity
  8
RACCORDO
100
AcDbPolyline
 62
7
  6
CONTINUOUS
 90
35
 70
0
 10
-13.2370965676
 20
-9.4369757233
 10
-13.2369672212
 20
-9.4449942603
 10
-13.2364790176
 20
-9.4594577902
 10
-13.235664412
 20
-9.4739874878
 10
-13.2345456944
 20
-9.4885761537
 10
-13.233123734
 20
-9.5032151227
 10
-13.231398061
 20
-9.5178954828
 10
-13.2293883972
 20
-9.5326104981
 10
-13.2270956468
 20
-9.5473525129
 10
-13.2245197313
 20
-9.5621134227
 10
-13.2216784043
 20
-9.5768864409
 10
-13.2185726008
 20
-9.5916647608
 10
-13.2152025859
 20
-9.6064409453
 10
-13.2115847031
 20
-9.621207724
 10
-13.2077199346
 20
-9.635959022
 10
-13.2036088678
 20
-9.6506879592
 10
-13.1992669581
 20
-9.665386402
 10
-13.1946953537
 20
-9.6800486754
 10
-13.1898948862
 20
-9.6946686289
 10
-13.1848803435
 20
-9.7092376874
 10
-13.1796529101
 20
-9.723750997
 10
-13.1742137935
 20
-9.7382026137
 10
-13.1685777394
 20
-9.7525825632
 10
-13.1627461353
 20
-9.7668864628
 10
-13.156720496
 20
-9.7811088794
 10
-13.1505158316
 20
-9.7952384996
 10
-13.1441337715
 20
-9.8092714832
 10
-13.1375761883
 20
-9.8232028471
 10
-13.1308586832
 20
-9.8370198377
 10
-13.1239831945
 20
-9.8507191351
 10
-13.1169519898
 20
-9.8642962915
 10
-13.1097815454
 20
-9.8777372088
 10
-13.1024791047
 20
-9.89103502
 10
-13.095042484
 20
-9.9041900117
 10
-13.0874742931
 20
-9.9171991442
  0
LWPOLYLINE
  5
2B3
100
AcDbEntity
  8
RACCORDO
100
AcDbPolyline
 62
7
  6
CONTINUOUS
 90
35
 70
0
 10
-13.2466351181
 20
-8.4014004198
 10
-13.2465096169
 20
-8.409971544
 10
-13.2460371974
 20
-8.4244252122
 10
-13.245238612
 20
-8.4389458022
 10
-13.244136148
 20
-8.453526097
 10
-13.2427306579
 20
-8.4681574221
 10
-13.2410216539
 20
-8.4828308562
 10
-13.2390288552
 20
-8.4975396489
 10
-13.2367531511
 20
-8.5122761356
 10
-13.2341944465
 20
-8.5270322025
 10
-13.2313704921
 20
-8.5418010511
 10
-13.2282822091
 20
-8.5565758655
 10
-13.2249298475
 20
-8.5713491997
 10
-13.2213297467
 20
-8.5861137731
 10
-13.2174828765
 20
-8.6008635018
 10
-13.21338981
 20
-8.6155914965
 10
-13.2090659975
 20
-8.6302896144
 10
-13.2045125749
 20
-8.6449521716
 10
-13.199730361
 20
-8.6595730081
 10
-13.1947341374
 20
-8.6741435402
 10
-13.1895250779
 20
-8.6886589048
 10
-13.1841043773
 20
-8.7031131484
 10
-13.1784867729
 20
-8.7174962873
 10
-13.1726736423
 20
-8.7318039296
 10
-13.1666664881
 20
-8.7460306323
 10
-13.1604803101
 20
-8.7601650714
 10
-13.1541167283
 20
-8.7742033972
 10
-13.147577604
 20
-8.7881406158
 10
-13.1408785254
 20
-8.8019639615
 10
-13.1340214218
 20
-8.815670104
 10
-13.1270085506
 20
-8.8292545839
 10
-13.1198563734
 20
-8.8427032893
 10
-13.1125721228
 20
-8.8560093406
 10
-13.105153608
 20
-8.8691730132
 10
-13.0976034304
 20
-8.8821912556
  0
LWPOLYLINE
  5
2B4
100
AcDbEntity
  8
RACCORDO
100
AcDbPolyline
 62
7
  6
CONTINUOUS
 90
35
 70
0
 10
-12.5041729979
 20
-8.7726314802
 10
-12.5040474967
 20
-8.7812026044
 10
-12.5035750772
 20
-8.7956562726
 10
-12.5027764918
 20
-8.8101768625
 10
-12.5016740277
 20
-8.8247571572
 10
-12.5002685376
 20
-8.8393884821
 10
-12.4985595337
 20
-8.8540619161
 10
-12.496566735
 20
-8.8687707088
 10
-12.4942910309
 20
-8.8835071954
 10
-12.4917323263
 20
-8.8982632622
 10
-12.4889083719
 20
-8.9130321107
 10
-12.485820089
 20
-8.927806925
 10
-12.4824677274
 20
-8.9425802592
 10
-12.4788676267
 20
-8.9573448324
 10
-12.4750207565
 20
-8.9720945611
 10
-12.47092769
 20
-8.9868225557
 10
-12.4666038775
 20
-9.0015206736
 10
-12.462050455
 20
-9.0161832307
 10
-12.4572682411
 20
-9.0308040672
 10
-12.4522720175
 20
-9.0453745993
 10
-12.4470629581
 20
-9.0598899639
 10
-12.4416422574
 20
-9.0743442075
 10
-12.4360246531
 20
-9.0887273464
 10
-12.4302115225
 20
-9.1030349887
 10
-12.4242043683
 20
-9.1172616914
 10
-12.4180181903
 20
-9.1313961305
 10
-12.4116546085
 20
-9.1454344564
 10
-12.4051154842
 20
-9.1593716751
 10
-12.3984164056
 20
-9.1731950209
 10
-12.3915593019
 20
-9.1869011635
 10
-12.3845464307
 20
-9.2004856434
 10
-12.3773942534
 20
-9.213934349
 10
-12.3701100027
 20
-9.2272404004
 10
-12.3626914878
 20
-9.2404040732
 10
-12.3551413101
 20
-9.2534223158
  0
LWPOLYLINE
  5
2B5
100
AcDbEntity
  8
RACCORDO
100
AcDbPolyline
 62
7
  6
CONTINUOUS
 90
35
 70
0
 10
-12.5137431739
 20
-7.3902389083
 10
-12.5136254047
 20
-7.3995407664
 10
-12.5131739768
 20
-7.4139811864
 10
-12.5123966996
 20
-7.4284895335
 10
-12.5113158568
 20
-7.4430585672
 10
-12.5099322787
 20
-7.4576796008
 10
-12.5082454537
 20
-7.4723437008
 10
-12.5062750974
 20
-7.4870440974
 10
-12.5040220789
 20
-7.5017731139
 10
-12.5014862813
 20
-7.5165226245
 10
-12.4986854514
 20
-7.5312858146
 10
-12.4956204919
 20
-7.5460558564
 10
-12.4922916326
 20
-7.5608252921
 10
-12.4887152078
 20
-7.5755868269
 10
-12.4848921704
 20
-7.5903343656
 10
-12.4808230744
 20
-7.6050610066
 10
-12.4765233633
 20
-7.6197585948
 10
-12.471994157
 20
-7.6344214343
 10
-12.4672362569
 20
-7.649043353
 10
-12.4622644365
 20
-7.6636157553
 10
-12.457079855
 20
-7.6781337659
 10
-12.4516836903
 20
-7.6925914189
 10
-12.4460906691
 20
-7.7069787185
 10
-12.4403021551
 20
-7.72129126
 10
-12.4343196354
 20
-7.7355235874
 10
-12.4281580964
 20
-7.7496643636
 10
-12.4218191445
 20
-7.7637097251
 10
-12.4153046269
 20
-7.7776546645
 10
-12.4086301188
 20
-7.791486403
 10
-12.4017975482
 20
-7.8052016037
 10
-12.3948091469
 20
-7.8187957842
 10
-12.3876813281
 20
-7.8322547938
 10
-12.3804213022
 20
-7.8455717296
 10
-12.37302688
 20
-7.85874686
 10
-12.365500653
 20
-7.8717771185
  0
LINE
  5
2B6
100
AcDbEntity
  8
RACCORDO
100
AcDbLine
 62
253
  6
CONTINUOUS
 10
-13.0944517714
 20
-9.2273115251
 11
-13.0874742947
 21
-9.9171991433
  0
LINE
  5
2B7
100
AcDbEntity
  8
RACCORDO
100
AcDbLine
 62
7
  6
CONTINUOUS
 10
-13.2435861734
 20
-8.7576744203
 11
-13.2370998015
 21
-9.4369765305
  0
LINE
  5
2B8
100
AcDbEntity
  8
RACCORDO
100
AcDbLine
 62
253
  6
CONTINUOUS
 10
-13.0976034306
 20
-8.8821912555
 11
-13.0944517714
 21
-9.2273115251
  0
LINE
  5
2B9
100
AcDbEntity
  8
RACCORDO
100
AcDbLine
 62
7
  6
CONTINUOUS
 10
-13.2466383673
 20
-8.401401226
 11
-13.2435861734
 21
-8.7576744203
  0
LINE
  5
2BA
100
AcDbEntity
  8
RACCORDO
100
AcDbLine
 62
253
  6
CONTINUOUS
 10
-12.3589939337
 20
-8.7930818278
 11
-12.3551413109
 21
-9.2534223154
  0
LINE
  5
2BB
100
AcDbEntity
  8
RACCORDO
100
AcDbLine
 62
7
  6
CONTINUOUS
 10
-12.5080620903
 20
-8.2715966801
 11
-12.5041762471
 21
-8.7726322863
  0
LINE
  5
2BC
100
AcDbEntity
  8
RACCORDO
100
AcDbLine
 62
253
  6
CONTINUOUS
 10
-12.3624470492
 20
-8.3325332538
 11
-12.3589939337
 21
-8.7930818278
  0
LINE
  5
2BD
100
AcDbEntity
  8
RACCORDO
100
AcDbLine
 62
7
  6
CONTINUOUS
 10
-12.512174376
 20
-7.6580283697
 11
-12.5080620903
 21
-8.2715966801
  0
LINE
  5
2BE
100
AcDbEntity
  8
RACCORDO
100
AcDbLine
 62
253
  6
CONTINUOUS
 10
-12.3655006531
 20
-7.8717771185
 11
-12.3624470492
 21
-8.3325332538
  0
LINE
  5
2BF
100
AcDbEntity
  8
RACCORDO
100
AcDbLine
 62
253
  6
CONTINUOUS
 10
-13.6927052403
 20
24.3301684193
 11
-13.6927052403
 21
23.9826369025
  0
LINE
  5
2C0
100
AcDbEntity
  8
RACCORDO
100
AcDbLine
 62
7
  6
CONTINUOUS
 10
-13.6205073833
 20
24.4180410514
 11
-13.6205073833
 21
24.0705095347
  0
LINE
  5
2C1
100
AcDbEntity
  8
0
100
AcDbLine
 62
7
  6
CONTINUOUS
 10
-12.4602765269
 20
-7.169396719
 11
-12.4602765269
 21
-7.140682719
  0
LINE
  5
2C2
100
AcDbEntity
  8
RACCORDO
100
AcDbLine
 62
7
  6
CONTINUOUS
 10
-11.9965484077
 20
21.9503035238
 11
-11.9965484077
 21
20.7101144911
  0
LINE
  5
2C3
100
AcDbEntity
  8
RACCORDO
100
AcDbLine
 62
253
  6
CONTINUOUS
 10
-11.8501017983
 20
21.6072336928
 11
-11.8501017983
 21
20.526650382
  0
LINE
  5
2C4
100
AcDbEntity
  8
0
100
AcDbLine
 62
7
  6
CONTINUOUS
 10
-11.5693219826
 20
-6.7042427251
 11
-11.5693219826
 21
-6.2005193451
  0
LWPOLYLINE
  5
2C5
100
AcDbEntity
  8
RACCORDO
100
AcDbPolyline
 62
7
  6
CONTINUOUS
 90
30
 70
0
 10
-1.7467144304
 20
16.0933710565
 10
-1.7545935534
 20
16.0842366533
 10
-1.7628138024
 20
16.0752392123
 10
-1.7713716636
 20
16.0664002258
 10
-1.7802700942
 20
16.0577436959
 10
-1.7894965292
 20
16.0492890166
 10
-1.7990231035
 20
16.0410511239
 10
-1.8088432918
 20
16.0330523703
 10
-1.81894919
 20
16.0253144935
 10
-1.829309973
 20
16.0178519537
 10
-1.8399164943
 20
16.0106871759
 10
-1.8507584057
 20
16.0038418706
 10
-1.8618021827
 20
15.9973298989
 10
-1.8730360312
 20
15.9911733798
 10
-1.884446982
 20
15.985393716
 10
-1.8959988024
 20
15.9800041925
 10
-1.9076769343
 20
15.9750262348
 10
-1.9194656658
 20
15.9704805375
 10
-1.9313259798
 20
15.9663797523
 10
-1.9432404275
 20
15.9627441268
 10
-1.9551904408
 20
15.9595931418
 10
-1.9671341184
 20
15.9569386055
 10
-1.979050968
 20
15.9547989731
 10
-1.9909195352
 20
15.9531918356
 10
-2.0026951139
 20
15.9521276749
 10
-2.0143539344
 20
15.9516223696
 10
-2.0258718715
 20
15.9516907356
 10
-2.0372022242
 20
15.952341134
 10
-2.0483074866
 20
15.9535845268
 10
-2.0591718383
 20
15.9554320223
  0
LINE
  5
2C6
100
AcDbEntity
  8
RACCORDO
100
AcDbLine
 62
253
  6
CONTINUOUS
 10
6.7374973126
 20
16.8306335493
 11
0.2040059242
 21
13.5067015943
  0
LINE
  5
2C7
100
AcDbEntity
  8
RACCORDO
100
AcDbLine
 62
7
  6
CONTINUOUS
 10
6.496987181
 20
17.2454521654
 11
10.0231638628
 21
18.9635376404
  0
LINE
  5
2C8
100
AcDbEntity
  8
SMUSSO
100
AcDbLine
 62
7
  6
CONTINUOUS
 10
7.0097045739
 20
16.2260211791
 11
11.1201665351
 21
18.228792347
  0
LWPOLYLINE
  5
2C9
100
AcDbEntity
  8
RACCORDO
100
AcDbPolyline
 62
253
  6
CONTINUOUS
 90
34
 70
0
 10
-6.6927474306
 20
11.0199811718
 10
-6.7100417618
 20
11.0128537052
 10
-6.7280672233
 20
11.0061404187
 10
-6.746783883
 20
10.9998561843
 10
-6.7661502777
 20
10.9940149236
 10
-6.7861235047
 20
10.9886295769
 10
-6.8066593172
 20
10.9837120742
 10
-6.8277122218
 20
10.9792733095
 10
-6.8492355799
 20
10.9753231159
 10
-6.8711817104
 20
10.9718702445
 10
-6.8935019959
 20
10.9689223443
 10
-6.9161469899
 20
10.9664859459
 10
-6.9390665267
 20
10.9645664467
 10
-6.9622098324
 20
10.963168099
 10
-6.9855256373
 20
10.9622940005
 10
-7.0089622897
 20
10.9619460877
 10
-7.03246787
 20
10.9621251312
 10
-7.0559903061
 20
10.9628307345
 10
-7.0794774884
 20
10.9640613344
 10
-7.1028773854
 20
10.9658142048
 10
-7.1261381592
 20
10.9680854625
 10
-7.1492082797
 20
10.9708700759
 10
-7.1720366396
 20
10.9741618762
 10
-7.1945726668
 20
10.9779535712
 10
-7.216766437
 20
10.982236761
 10
-7.2385687841
 20
10.987001957
 10
-7.2599314091
 20
10.9922386028
 10
-7.280806987
 20
10.9979350976
 10
-7.3011492721
 20
11.0040788219
 10
-7.3209131997
 20
11.0106561654
 10
-7.3400549867
 20
11.0176525573
 10
-7.3585322278
 20
11.0250524983
 10
-7.3763039904
 20
11.0328395953
 10
-7.3933309044
 20
11.0409965975
  0
LINE
  5
2CA
100
AcDbEntity
  8
DRAFT
100
AcDbLine
 62
7
  6
CONTINUOUS
 10
-13.2372860701
 20
-8.2951318119
 11
-15.5998306354
 21
-7.1138595293
  0
LINE
  5
2CB
100
AcDbEntity
  8
RACCORDO
100
AcDbLine
 62
253
  6
CONTINUOUS
 10
-12.5071824796
 20
-8.3892688203
 11
-13.100695997
 21
-8.0925120616
  0
LINE
  5
2CC
100
AcDbEntity
  8
RACCORDO
100
AcDbLine
 62
253
  6
CONTINUOUS
 10
-16.3666553568
 20
-6.4595323817
 11
-17.1091174771
 21
-6.0883013216
  0
LINE
  5
2CD
100
AcDbEntity
  8
0
100
AcDbLine
 62
7
  6
CONTINUOUS
 10
-15.3452721941
 20
-6.4776077488
 11
-12.6175428107
 21
-7.8414724405
  0
LINE
  5
2CE
100
AcDbEntity
  8
RACCORDO
100
AcDbLine
 62
253
  6
CONTINUOUS
 10
-10.3856016667
 20
-8.8617266117
 11
-12.3655006531
 21
-7.8717771185
  0
LINE
  5
2CF
100
AcDbEntity
  8
RACCORDO
100
AcDbLine
 62
253
  6
CONTINUOUS
 10
-17.8236463273
 20
-5.1427042814
 11
-19.8035453133
 21
-4.1527547884
  0
LINE
  5
2D0
100
AcDbEntity
  8
DRAFT
100
AcDbLine
 62
7
  6
CONTINUOUS
 10
-15.5998306354
 20
-6.0746290448
 11
-16.3422927556
 21
-5.7033979847
  0
LINE
  5
2D1
100
AcDbEntity
  8
0
100
AcDbLine
 62
7
  6
CONTINUOUS
 10
-16.2362267384
 20
-5.2527076132
 11
-15.3452721941
 21
-5.6981848854
  0
LINE
  5
2D2
100
AcDbEntity
  8
0
100
AcDbLine
 62
7
  6
CONTINUOUS
 10
-12.4602765269
 20
-7.140682719
 11
-12.4454581433
 21
-7.1480919108
  0
LINE
  5
2D3
100
AcDbEntity
  8
RACCORDO
100
AcDbLine
 62
253
  6
CONTINUOUS
 10
-10.5357861975
 20
-7.9998779011
 11
-12.3685827694
 21
-7.0834796152
  0
LINE
  5
2D4
100
AcDbEntity
  8
RACCORDO
100
AcDbLine
 62
253
  6
CONTINUOUS
 10
-17.1196485867
 20
-4.7079467065
 11
-19.099547574
 21
-3.7179972128
  0
LINE
  5
2D5
100
AcDbEntity
  8
0
100
AcDbLine
 62
7
  6
CONTINUOUS
 10
-14.2846120224
 20
-5.9472776629
 11
-12.1938183753
 21
-6.9926744864
  0
LINE
  5
2D6
100
AcDbEntity
  8
DRAFT
100
AcDbLine
 62
7
  6
CONTINUOUS
 10
-10.5389502353
 20
-7.2194285987
 11
-11.6046773217
 21
-6.6865650556
  0
LINE
  5
2D7
100
AcDbEntity
  8
DRAFT
100
AcDbLine
 62
7
  6
CONTINUOUS
 10
-16.3422927556
 20
-4.3177573386
 11
-18.3221917429
 21
-3.3278078449
  0
LWPOLYLINE
  5
2D8
100
AcDbEntity
  8
RACCORDO
100
AcDbPolyline
 62
7
  6
CONTINUOUS
 90
27
 70
0
 10
-11.9965660013
 20
21.9507601205
 10
-11.9962900043
 20
21.9399962375
 10
-11.9954988202
 20
21.9281363874
 10
-11.9941870498
 20
21.9159235709
 10
-11.992334292
 20
21.9034177658
 10
-11.9900114623
 20
21.890640818
 10
-11.987216926
 20
21.8776358618
 10
-11.983939228
 20
21.8644488832
 10
-11.9802314783
 20
21.8510913706
 10
-11.9760934632
 20
21.8375958069
 10
-11.9715192594
 20
21.8239983561
 10
-11.9665497672
 20
21.8103071681
 10
-11.9611852992
 20
21.7965479971
 10
-11.9554232546
 20
21.7827499928
 10
-11.9492967004
 20
21.7689212126
 10
-11.9428061554
 20
21.7550828927
 10
-11.9359511097
 20
21.7412593586
 10
-11.9287600981
 20
21.7274603986
 10
-11.9212337998
 20
21.7137041124
 10
-11.9133731604
 20
21.700011485
 10
-11.905204721
 20
21.6863951204
 10
-11.8967291927
 20
21.6728704629
 10
-11.8879489215
 20
21.6594564835
 10
-11.8788912367
 20
21.6461703325
 10
-11.8695663949
 20
21.6330280905
 10
-11.8599687976
 20
21.6200444403
 10
-11.8501017983
 20
21.6072336928
  0
LWPOLYLINE
  5
2D9
100
AcDbEntity
  8
RACCORDO
100
AcDbPolyline
 62
7
  6
CONTINUOUS
 90
35
 70
0
 10
-10.5338441865
 20
-8.3801884063
 10
-10.5337264174
 20
-8.3894902601
 10
-10.5332749895
 20
-8.4039306801
 10
-10.5324977123
 20
-8.4184390271
 10
-10.5314168695
 20
-8.4330080609
 10
-10.5300332914
 20
-8.4476290945
 10
-10.5283464664
 20
-8.4622931944
 10
-10.52637611
 20
-8.4769935911
 10
-10.5241230916
 20
-8.4917226075
 10
-10.521587294
 20
-8.5064721182
 10
-10.518786464
 20
-8.5212353083
 10
-10.5157215046
 20
-8.53600535
 10
-10.5123926453
 20
-8.5507747857
 10
-10.5088162205
 20
-8.5655363206
 10
-10.504993183
 20
-8.5802838592
 10
-10.5009240871
 20
-8.5950105002
 10
-10.496624376
 20
-8.6097080885
 10
-10.4920951697
 20
-8.624370928
 10
-10.4873372696
 20
-8.6389928467
 10
-10.4823654491
 20
-8.6535652489
 10
-10.4771808676
 20
-8.6680832596
 10
-10.4717847029
 20
-8.6825409126
 10
-10.4661916818
 20
-8.6969282121
 10
-10.4604031678
 20
-8.7112407537
 10
-10.454420648
 20
-8.725473081
 10
-10.4482591091
 20
-8.7396138572
 10
-10.4419201571
 20
-8.7536592188
 10
-10.4354056396
 20
-8.7676041581
 10
-10.4287311315
 20
-8.7814358966
 10
-10.4218985609
 20
-8.7951510974
 10
-10.4149101595
 20
-8.8087452779
 10
-10.4077823408
 20
-8.8222042875
 10
-10.4005223148
 20
-8.8355212232
 10
-10.3931278927
 20
-8.8486963536
 10
-10.3856016657
 20
-8.8617266122
  0
LWPOLYLINE
  5
2DA
100
AcDbEntity
  8
RACCORDO
100
AcDbPolyline
 62
253
  6
CONTINUOUS
 90
7
 70
0
 10
-10.3767338761
 20
-1.0388229063
 10
-10.3861465311
 20
-2.3466439149
 10
-10.3923853572
 20
-3.6528791917
 10
-10.3954502973
 20
-4.9575169074
 10
-10.3953413234
 20
-6.2605452472
 10
-10.3920584365
 20
-7.5619524106
 10
-10.3856016667
 20
-8.8617266117
  0
LWPOLYLINE
  5
2DB
100
AcDbEntity
  8
RACCORDO
100
AcDbPolyline
 62
7
  6
CONTINUOUS
 90
10
 70
0
 10
-10.525689497
 20
-1.1711552947
 10
-10.5297342204
 20
-1.7233361178
 10
-10.5349843142
 20
-2.5976179615
 10
-10.5388142375
 20
-3.4711898739
 10
-10.5412239751
 20
-4.3440483328
 10
-10.5422135233
 20
-5.2161898192
 10
-10.5417828783
 20
-6.0876107932
 10
-10.5399320368
 20
-6.9583077359
 10
-10.5366609951
 20
-7.8282771496
 10
-10.5338474215
 20
-8.3801892023
  0
LWPOLYLINE
  5
2DC
100
AcDbEntity
  8
RACCORDO
100
AcDbPolyline
 62
7
  6
CONTINUOUS
 90
27
 70
0
 10
-10.525686878
 20
-1.1711568123
 10
-10.5255423276
 20
-1.1696888899
 10
-10.5250725354
 20
-1.167895636
 10
-10.5242766168
 20
-1.1659272917
 10
-10.5231768586
 20
-1.1637799369
 10
-10.5217741105
 20
-1.1614620402
 10
-10.5200678818
 20
-1.1589830907
 10
-10.5180778912
 20
-1.1563393046
 10
-10.5158050254
 20
-1.1535385115
 10
-10.5132491868
 20
-1.1505894522
 10
-10.5104281254
 20
-1.1474885915
 10
-10.5073427602
 20
-1.1442432316
 10
-10.5039933385
 20
-1.1408615013
 10
-10.5003961994
 20
-1.1373402393
 10
-10.4965523103
 20
-1.1336863167
 10
-10.492462242
 20
-1.1299073767
 10
-10.4881414439
 20
-1.1260007736
 10
-10.48359105
 20
-1.1219730971
 10
-10.4788118769
 20
-1.1178315551
 10
-10.4738187051
 20
-1.1135739648
 10
-10.4686127067
 20
-1.1092065436
 10
-10.4631950742
 20
-1.1047362582
 10
-10.4575805438
 20
-1.1001617392
 10
-10.4517704912
 20
-1.0954889845
 10
-10.4457664172
 20
-1.0907247109
 10
-10.4395833197
 20
-1.0858684647
 10
-10.4332228172
 20
-1.0809260263
  0
LINE
  5
2DD
100
AcDbEntity
  8
RACCORDO
100
AcDbLine
 62
253
  6
CONTINUOUS
 10
-0.8566542476
 20
16.6575256645
 11
-0.3283870759
 21
17.3004778203
  0
LINE
  5
2DE
100
AcDbEntity
  8
RACCORDO
100
AcDbLine
 62
7
  6
CONTINUOUS
 10
-0.8566542476
 20
16.5679951982
 11
-0.3130265035
 21
17.2296426537
  0
LINE
  5
2DF
100
AcDbEntity
  8
DRAFT
100
AcDbLine
 62
7
  6
CONTINUOUS
 10
11.1201665351
 20
17.877737504
 11
10.1388561998
 21
17.378443178
  0
LINE
  5
2E0
100
AcDbEntity
  8
RACCORDO
100
AcDbLine
 62
253
  6
CONTINUOUS
 10
7.1516477883
 20
15.3989999746
 11
0.2040059242
 21
11.8643678108
  0
LINE
  5
2E1
100
AcDbEntity
  8
0
100
AcDbLine
 62
7
  6
CONTINUOUS
 10
9.2903280624
 20
16.5485758154
 11
7.1501592243
 21
15.4784913963
  0
LINE
  5
2E2
100
AcDbEntity
  8
DRAFT
100
AcDbLine
 62
7
  6
CONTINUOUS
 10
10.1388561998
 20
17.378443178
 11
7.104256271
 21
15.8671474294
  0
LINE
  5
2E3
100
AcDbEntity
  8
RACCORDO
100
AcDbLine
 62
7
  6
CONTINUOUS
 10
7.1516477883
 20
14.0722371509
 11
13.6733425164
 21
17.1384483137
  0
LINE
  5
2E4
100
AcDbEntity
  8
0
100
AcDbLine
 62
7
  6
CONTINUOUS
 10
-15.1755665667
 20
-4.7223775273
 11
-14.2846120224
 21
-5.1678547995
  0
LINE
  5
2E5
100
AcDbEntity
  8
0
100
AcDbLine
 62
7
  6
CONTINUOUS
 10
-17.4206305969
 20
-3.2748650379
 11
-16.2362267384
 21
-3.8670669672
  0
LINE
  5
2E6
100
AcDbEntity
  8
0
100
AcDbLine
 62
7
  6
CONTINUOUS
 10
-11.5693219826
 20
-6.2005193451
 11
-10.5404493305
 21
-6.7149556711
  0
LWPOLYLINE
  5
2E7
100
AcDbEntity
  8
RACCORDO
100
AcDbPolyline
 62
253
  6
CONTINUOUS
 90
142
 70
0
 10
-6.6927474306
 20
-24.5596434559
 10
-6.6923981688
 20
-24.5685353339
 10
-6.6919700823
 20
-24.5773836876
 10
-6.6914631713
 20
-24.5861885172
 10
-6.6908773615
 20
-24.5949511199
 10
-6.6902127271
 20
-24.6036701984
 10
-6.6894694904
 20
-24.6123418607
 10
-6.6886476087
 20
-24.6209659496
 10
-6.6877471248
 20
-24.6295426223
 10
-6.6867683891
 20
-24.6380684591
 10
-6.6857113701
 20
-24.6465433417
 10
-6.6845760992
 20
-24.6549673884
 10
-6.6833630222
 20
-24.6633375344
 10
-6.6820721305
 20
-24.6716536199
 10
-6.6807034327
 20
-24.6799158047
 10
-6.679257399
 20
-24.688121503
 10
-6.6777340344
 20
-24.6962705936
 10
-6.676133334
 20
-24.7043631979
 10
-6.674455754
 20
-24.7123970935
 10
-6.6727012655
 20
-24.7203723439
 10
-6.6708698975
 20
-24.7282888856
 10
-6.6689621927
 20
-24.7361443068
 10
-6.6669781031
 20
-24.7439386888
 10
-6.6649176769
 20
-24.7516719501
 10
-6.6627816005
 20
-24.7593414345
 10
-6.6605698321
 20
-24.7669471542
 10
-6.6582824137
 20
-24.774489097
 10
-6.6559201575
 20
-24.7819645693
 10
-6.6534830616
 20
-24.7893734658
 10
-6.650971128
 20
-24.7967158919
 10
-6.6483851751
 20
-24.8039894703
 10
-6.645725181
 20
-24.8111941777
 10
-6.6429911678
 20
-24.8183300375
 10
-6.6401840195
 20
-24.8253947428
 10
-6.6373037091
 20
-24.8323882816
 10
-6.6343502638
 20
-24.8393106659
 10
-6.6313246494
 20
-24.846159625
 10
-6.6282268265
 20
-24.8529351642
 10
-6.6250568345
 20
-24.8596372781
 10
-6.6218157575
 20
-24.8662636792
 10
-6.618503582
 20
-24.8728143166
 10
-6.6151203214
 20
-24.8792892412
 10
-6.6116670998
 20
-24.8856863191
 10
-6.6081439115
 20
-24.8920054974
 10
-6.6045507621
 20
-24.8982468289
 10
-6.600888793
 20
-24.9044083375
 10
-6.597157993
 20
-24.9104899897
 10
-6.5933583732
 20
-24.9164918191
 10
-6.5894911081
 20
-24.9224119506
 10
-6.5855561658
 20
-24.9282503817
 10
-6.5815535782
 20
-24.9340071148
 10
-6.5774846161
 20
-24.9396802824
 10
-6.5733492188
 20
-24.9452699064
 10
-6.5691474471
 20
-24.9507759648
 10
-6.564880754
 20
-24.956196524
 10
-6.5605491
 20
-24.9615315628
 10
-6.5561525247
 20
-24.9667811024
 10
-6.5516925999
 20
-24.9719432721
 10
-6.5471693081
 20
-24.9770180239
 10
-6.5425826668
 20
-24.9820054058
 10
-6.5379343008
 20
-24.9869036917
 10
-6.5332242786
 20
-24.991712764
 10
-6.5284525316
 20
-24.9964327403
 10
-6.5236204795
 20
-25.0010622465
 10
-6.5187281201
 20
-25.005601258
 10
-6.5137754556
 20
-25.0100497995
 10
-6.5087639121
 20
-25.0144065709
 10
-6.5036933779
 20
-25.0186716275
 10
-6.4985639648
 20
-25.0228449139
 10
-6.4933774334
 20
-25.0269249647
 10
-6.4881337182
 20
-25.0309117699
 10
-6.4828328849
 20
-25.0348053395
 10
-6.477476891
 20
-25.0386042381
 10
-6.4720657783
 20
-25.0423083811
 10
-6.4665995051
 20
-25.0459178531
 10
-6.4610799042
 20
-25.049431472
 10
-6.455507023
 20
-25.0528491725
 10
-6.4498808143
 20
-25.0561710199
 10
-6.4442029684
 20
-25.0593960289
 10
-6.4384734584
 20
-25.0625241859
 10
-6.4326923114
 20
-25.0655555044
 10
-6.426861299
 20
-25.0684890392
 10
-6.4209803432
 20
-25.0713247911
 10
-6.4150495221
 20
-25.0740627592
 10
-6.4090708412
 20
-25.0767019957
 10
-6.4030442697
 20
-25.0792424682
 10
-6.3969698385
 20
-25.081684209
 10
-6.3908496453
 20
-25.0840263677
 10
-6.3846836888
 20
-25.0862689007
 10
-6.3784719702
 20
-25.0884118516
 10
-6.3722165922
 20
-25.0904545013
 10
-6.3659175598
 20
-25.0923968088
 10
-6.3595748678
 20
-25.0942388152
 10
-6.3531906031
 20
-25.0959799243
 10
-6.3467647601
 20
-25.0976201021
 10
-6.3402973444
 20
-25.0991593828
 10
-6.3337904586
 20
-25.1005972729
 10
-6.3272440911
 20
-25.101933741
 10
-6.3206582537
 20
-25.1031688186
 10
-6.3140350842
 20
-25.1043021072
 10
-6.3073745677
 20
-25.1053335755
 10
-6.3006767193
 20
-25.1062632548
 10
-6.293943722
 20
-25.1070908408
 10
-6.2871755605
 20
-25.1078163012
 10
-6.2803722502
 20
-25.1084396682
 10
-6.2735360199
 20
-25.108960734
 10
-6.2666668618
 20
-25.1093794655
 10
-6.2597647838
 20
-25.1096958958
 10
-6.2528320375
 20
-25.1099099162
 10
-6.2458686104
 20
-25.1100214937
 10
-6.2388745152
 20
-25.1100306612
 10
-6.2318520418
 20
-25.1099374083
 10
-6.2248011604
 20
-25.1097416997
 10
-6.2177219009
 20
-25.1094435706
 10
-6.2106166432
 20
-25.1090431164
 10
-6.2034853674
 20
-25.108540299
 10
-6.1963280934
 20
-25.1079351565
 10
-6.1891472612
 20
-25.1072278988
 10
-6.1819428645
 20
-25.106418488
 10
-6.1747149097
 20
-25.1055069621
 10
-6.1674658553
 20
-25.1044936444
 10
-6.1601957421
 20
-25.103378508
 10
-6.1529045293
 20
-25.1021615797
 10
-6.1455945532
 20
-25.1008432635
 10
-6.1382658402
 20
-25.0994235384
 10
-6.1309183638
 20
-25.0979024253
 10
-6.1235543805
 20
-25.0962803907
 10
-6.1161738882
 20
-25.09455741
 10
-6.108776889
 20
-25.0927335079
 10
-6.1013656449
 20
-25.0908092243
 10
-6.0939400953
 20
-25.088784519
 10
-6.0865003007
 20
-25.0866594322
 10
-6.0790487054
 20
-25.0844346248
 10
-6.0715852213
 20
-25.08211002
 10
-6.0641099364
 20
-25.0796856946
 10
-6.0566255596
 20
-25.0771625395
 10
-6.0491320311
 20
-25.0745405122
 10
-6.0416294107
 20
-25.0718196551
 10
-6.0341205857
 20
-25.069000986
 10
-6.0266065187
 20
-25.0660848441
 10
-6.0190862472
 20
-25.0630708901
 10
-5.7717979304
 20
-24.9598759956
  0
LWPOLYLINE
  5
2E8
100
AcDbEntity
  8
RACCORDO
100
AcDbPolyline
 62
253
  6
CONTINUOUS
 90
82
 70
0
 10
-7.3933309044
 20
-24.5742432701
 10
-7.392809994
 20
-24.5875784591
 10
-7.3921714675
 20
-24.6008506344
 10
-7.3914153484
 20
-24.6140583142
 10
-7.3905416447
 20
-24.6272004027
 10
-7.3895504265
 20
-24.6402750468
 10
-7.3884418594
 20
-24.6532796563
 10
-7.3872160548
 20
-24.6662127174
 10
-7.3858731247
 20
-24.6790728785
 10
-7.3844133086
 20
-24.6918578379
 10
-7.3828367899
 20
-24.7045660634
 10
-7.3811437337
 20
-24.7171963023
 10
-7.3793344077
 20
-24.7297467097
 10
-7.3774090618
 20
-24.7422157167
 10
-7.3753678969
 20
-24.7546021801
 10
-7.3732111349
 20
-24.7669049128
 10
-7.370939057
 20
-24.779122415
 10
-7.3685518981
 20
-24.7912535249
 10
-7.3660498063
 20
-24.8032975601
 10
-7.3634330264
 20
-24.8152533084
 10
-7.3607018629
 20
-24.827119347
 10
-7.3578565455
 20
-24.8388946709
 10
-7.3548973335
 20
-24.8505781297
 10
-7.3518245732
 20
-24.8621682831
 10
-7.3486386392
 20
-24.8736637037
 10
-7.3453398535
 20
-24.8850631834
 10
-7.3419285839
 20
-24.8963654092
 10
-7.3384053054
 20
-24.907568824
 10
-7.3347704427
 20
-24.9186720831
 10
-7.3310243558
 20
-24.9296740944
 10
-7.3271674488
 20
-24.9405737022
 10
-7.3232001422
 20
-24.9513697105
 10
-7.3191228668
 20
-24.9620609411
 10
-7.3149360564
 20
-24.9726462787
 10
-7.3106401578
 20
-24.983124579
 10
-7.3062356428
 20
-24.9934946778
 10
-7.3017229983
 20
-25.0037554458
 10
-7.2971026909
 20
-25.0139058048
 10
-7.2923752416
 20
-25.0239445947
 10
-7.28754124
 20
-25.0338705849
 10
-7.2826012311
 20
-25.0436826564
 10
-7.2775557365
 20
-25.0533797745
 10
-7.2724053323
 20
-25.0629608587
 10
-7.2671506041
 20
-25.0724248217
 10
-7.2617921022
 20
-25.0817706749
 10
-7.2563303639
 20
-25.0909975012
 10
-7.2507659921
 20
-25.1001042726
 10
-7.245099579
 20
-25.1090900106
 10
-7.2393316541
 20
-25.1179538814
 10
-7.2334628166
 20
-25.1266949377
 10
-7.2274937167
 20
-25.1353121856
 10
-7.2214249693
 20
-25.1438047316
 10
-7.2152571674
 20
-25.1521717124
 10
-7.2089910272
 20
-25.1604121242
 10
-7.2026273673
 20
-25.1685248885
 10
-7.1961668571
 20
-25.1765091374
 10
-7.189610213
 20
-25.1843639714
 10
-7.1829583541
 20
-25.1920883045
 10
-7.1762120213
 20
-25.1996812842
 10
-7.1693719383
 20
-25.2071421046
 10
-7.1624390272
 20
-25.2144697905
 10
-7.155414182
 20
-25.2216634257
 10
-7.1482980481
 20
-25.2287223779
 10
-7.1410911865
 20
-25.2356461148
 10
-7.1337943932
 20
-25.2424338713
 10
-7.1264084487
 20
-25.2490849214
 10
-7.1189338848
 20
-25.255598784
 10
-7.1113713602
 20
-25.2619748532
 10
-7.1037218266
 20
-25.2682122955
 10
-7.0959862636
 20
-25.2743103017
 10
-7.0881654452
 20
-25.2802682451
 10
-7.0802602752
 20
-25.2860854213
 10
-7.0722719574
 20
-25.2917609504
 10
-7.0642014609
 20
-25.2972941586
 10
-7.0560495718
 20
-25.3026845216
 10
-7.0478172434
 20
-25.3079314265
 10
-7.0395054683
 20
-25.3130342577
 10
-7.0311150629
 20
-25.3179925309
 10
-7.0226467227
 20
-25.3228058432
 10
-7.0141013426
 20
-25.3274736825
 10
-7.0054798714
 20
-25.3319955268
 10
-6.999945306
 20
-25.3348013184
  0
LWPOLYLINE
  5
2E9
100
AcDbEntity
  8
RACCORDO
100
AcDbPolyline
 62
253
  6
CONTINUOUS
 90
67
 70
0
 10
-7.3933309044
 20
11.0409965975
 10
-7.4114925256
 20
10.4928933318
 10
-7.4290956237
 20
9.9450327709
 10
-7.4461401715
 20
9.3974157667
 10
-7.4626261447
 20
8.8500431136
 10
-7.4785535152
 20
8.3029157195
 10
-7.4939222524
 20
7.7560346058
 10
-7.5087323315
 20
7.2094006711
 10
-7.5229837313
 20
6.6630147162
 10
-7.5366764284
 20
6.1168776153
 10
-7.5498104015
 20
5.5709902384
 10
-7.5623856312
 20
5.0253534125
 10
-7.5744020983
 20
4.4799679462
 10
-7.5858597846
 20
3.9348346803
 10
-7.5967586725
 20
3.3899544688
 10
-7.6070987448
 20
2.8453281402
 10
-7.6168799858
 20
2.300956526
 10
-7.6261023804
 20
1.7568404873
 10
-7.6347659133
 20
1.2129808963
 10
-7.6428705711
 20
0.6693786123
 10
-7.6504163417
 20
0.1260344661
 10
-7.6574032131
 20
-0.4170507128
 10
-7.6638311748
 20
-0.9598760859
 10
-7.6697002169
 20
-1.502440804
 10
-7.67501033
 20
-2.0447440227
 10
-7.6797615059
 20
-2.5867848985
 10
-7.6839537373
 20
-3.1285625897
 10
-7.6875870177
 20
-3.6700762548
 10
-7.6906613413
 20
-4.2113250508
 10
-7.6931767035
 20
-4.7523081381
 10
-7.6951331004
 20
-5.2930246808
 10
-7.6965305288
 20
-5.8334738402
 10
-7.6973689867
 20
-6.3736547749
 10
-7.6976484728
 20
-6.9135666455
 10
-7.6973689864
 20
-7.4532086165
 10
-7.6965305282
 20
-7.9925798458
 10
-7.6951330994
 20
-8.5316794851
 10
-7.6931767022
 20
-9.0705066902
 10
-7.6906613396
 20
-9.6090606304
 10
-7.6875870157
 20
-10.1473404784
 10
-7.6839537351
 20
-10.6853454015
 10
-7.6797615033
 20
-11.2230745602
 10
-7.6750103271
 20
-11.7605271179
 10
-7.6697002137
 20
-12.2977022391
 10
-7.6638311713
 20
-12.8345990896
 10
-7.6574032093
 20
-13.3712168362
 10
-7.6504163374
 20
-13.9075546461
 10
-7.6428705663
 20
-14.4436116851
 10
-7.6347659082
 20
-14.9793871187
 10
-7.6261023754
 20
-15.5148801136
 10
-7.6168799811
 20
-16.0500898387
 10
-7.6070987403
 20
-16.5850154643
 10
-7.5967586677
 20
-17.1196561551
 10
-7.5858597792
 20
-17.6540110848
 10
-7.5744020919
 20
-18.1880794368
 10
-7.562385622
 20
-18.7218604383
 10
-7.5498103889
 20
-19.2553532031
 10
-7.5366764168
 20
-19.7885567456
 10
-7.5229837135
 20
-20.3214707182
 10
-7.5087323119
 20
-20.8540938121
 10
-7.4939222808
 20
-21.3864236044
 10
-7.478553718
 20
-21.9184568989
 10
-7.4626265873
 20
-22.4501952466
 10
-7.4461407458
 20
-22.9816433388
 10
-7.4290961472
 20
-23.5128021807
 10
-7.4114928617
 20
-24.0436691015
 10
-7.3933309044
 20
-24.5742432701
  0
LWPOLYLINE
  5
2EA
100
AcDbEntity
  8
RACCORDO
100
AcDbPolyline
 62
253
  6
CONTINUOUS
 90
67
 70
0
 10
-6.6927474306
 20
11.0199811718
 10
-6.7108912437
 20
10.4724248024
 10
-6.7284770301
 20
9.9251125769
 10
-6.7455047898
 20
9.3780444955
 10
-6.7619745494
 20
8.8312196466
 10
-6.7778862823
 20
8.2846389418
 10
-6.7932399081
 20
7.738305115
 10
-6.8080354224
 20
7.1922182212
 10
-6.8222728298
 20
6.6463782054
 10
-6.8359520633
 20
6.1007876376
 10
-6.84907312
 20
5.5554465402
 10
-6.8616360029
 20
5.0103548907
 10
-6.8736406547
 20
4.4655151913
 10
-6.8850870729
 20
3.920927436
 10
-6.8959752599
 20
3.3765916307
 10
-6.9063051653
 20
2.8325102951
 10
-6.9160767867
 20
2.2886834152
 10
-6.9252901265
 20
1.7451110049
 10
-6.9339451413
 20
1.2017956253
 10
-6.9420418282
 20
0.6587372915
 10
-6.9495801901
 20
0.1159359883
 10
-6.9565601921
 20
-0.4266057684
 10
-6.9629818317
 20
-0.9688879829
 10
-6.9688451114
 20
-1.5109106511
 10
-6.9741500039
 20
-2.0526712443
 10
-6.9788965065
 20
-2.5941697609
 10
-6.9830846219
 20
-3.1354062026
 10
-6.9867143306
 20
-3.6763780466
 10
-6.98978563
 20
-4.2170852902
 10
-6.9922985226
 20
-4.7575279361
 10
-6.9942529967
 20
-5.2977034696
 10
-6.9956490499
 20
-5.837611891
 10
-6.9964866846
 20
-6.3772532001
 10
-6.9967658969
 20
-6.916624881
 10
-6.9964866843
 20
-7.4557269359
 10
-6.9956490493
 20
-7.9945593628
 10
-6.9942529958
 20
-8.5331196394
 10
-6.9922985214
 20
-9.0714077581
 10
-6.9897856285
 20
-9.6094237265
 10
-6.9867143289
 20
-10.1471650465
 10
-6.9830846199
 20
-10.6846317203
 10
-6.9788965043
 20
-11.2218237455
 10
-6.9741500013
 20
-11.7587386173
 10
-6.9688451086
 20
-12.2953763336
 10
-6.9629818286
 20
-12.8317368965
 10
-6.9565601887
 20
-13.3678178068
 10
-6.9495801863
 20
-13.903619064
 10
-6.9420418239
 20
-14.4391406686
 10
-6.9339451367
 20
-14.974380123
 10
-6.9252901221
 20
-15.5093374247
 10
-6.9160767828
 20
-16.0440125763
 10
-6.9063051615
 20
-16.5784030872
 10
-6.8959752558
 20
-17.1125089521
 10
-6.8850870682
 20
-17.6463301764
 10
-6.8736406491
 20
-18.1798642858
 10
-6.8616359942
 20
-18.7131113357
 10
-6.8490731078
 20
-19.2460712706
 10
-6.8359520527
 20
-19.7787414504
 10
-6.8222728104
 20
-20.3111223519
 10
-6.8080353994
 20
-20.8432134982
 10
-6.7932399376
 20
-21.3750108185
 10
-6.7778864976
 20
-21.9065119483
 10
-6.7619750067
 20
-22.437719252
 10
-6.7455053646
 20
-22.9686357524
 10
-6.7284775378
 20
-23.499262457
 10
-6.7108915598
 20
-24.0295983581
 10
-6.6927474306
 20
-24.5596434559
  0
LWPOLYLINE
  5
2EB
100
AcDbEntity
  8
RACCORDO
100
AcDbPolyline
 62
253
  6
CONTINUOUS
 90
27
 70
0
 10
-2.4579350385
 20
16.2418745794
 10
-2.4628190556
 20
16.2299059212
 10
-2.468169659
 20
16.2182127171
 10
-2.4739722374
 20
16.2068268988
 10
-2.480210945
 20
16.1957795586
 10
-2.4868687454
 20
16.1851008645
 10
-2.4939274573
 20
16.1748199777
 10
-2.5013678051
 20
16.1649649732
 10
-2.5091694705
 20
16.155562763
 10
-2.517311149
 20
16.1466390225
 10
-2.5257706073
 20
16.1382181205
 10
-2.5345247443
 20
16.1303230529
 10
-2.5435496544
 20
16.1229753793
 10
-2.5528206925
 20
16.1161951648
 10
-2.5623125412
 20
16.1100009247
 10
-2.5719992804
 20
16.1044095741
 10
-2.5818544575
 20
16.0994363819
 10
-2.5918511601
 20
16.0950949288
 10
-2.6019620894
 20
16.0913970704
 10
-2.6121596345
 20
16.0883529048
 10
-2.622415948
 20
16.0859707449
 10
-2.6327030221
 20
16.0842570961
 10
-2.6429927649
 20
16.0832166377
 10
-2.6532570774
 20
16.0828522113
 10
-2.6634679298
 20
16.0831648118
 10
-2.6735974384
 20
16.0841535857
 10
-2.6836179417
 20
16.0858158328
  0
LINE
  5
2EC
100
AcDbEntity
  8
RACCORDO
100
AcDbLine
 62
7
  6
CONTINUOUS
 10
-19.7882074869
 20
-4.1416786372
 11
-19.8035453143
 21
-4.1527547879
  0
LINE
  5
2ED
100
AcDbEntity
  8
RACCORDO
100
AcDbLine
 62
7
  6
CONTINUOUS
 10
-19.7720810782
 20
-4.1301598186
 11
-19.7882074869
 21
-4.1416786372
  0
LINE
  5
2EE
100
AcDbEntity
  8
RACCORDO
100
AcDbLine
 62
7
  6
CONTINUOUS
 10
-19.7551607269
 20
-4.1182210989
 11
-19.7720810782
 21
-4.1301598186
  0
LINE
  5
2EF
100
AcDbEntity
  8
RACCORDO
100
AcDbLine
 62
7
  6
CONTINUOUS
 10
-19.7374777108
 20
-4.1058804419
 11
-19.7551607269
 21
-4.1182210989
  0
LINE
  5
2F0
100
AcDbEntity
  8
RACCORDO
100
AcDbLine
 62
7
  6
CONTINUOUS
 10
-19.7190582438
 20
-4.0931542831
 11
-19.7374777108
 21
-4.1058804419
  0
LINE
  5
2F1
100
AcDbEntity
  8
RACCORDO
100
AcDbLine
 62
7
  6
CONTINUOUS
 10
-19.6900849372
 20
-4.0733907955
 11
-19.7190582438
 21
-4.0931542831
  0
LINE
  5
2F2
100
AcDbEntity
  8
RACCORDO
100
AcDbLine
 62
7
  6
CONTINUOUS
 10
-19.6595739157
 20
-4.0528745237
 11
-19.6900849372
 21
-4.0733907955
  0
LINE
  5
2F3
100
AcDbEntity
  8
RACCORDO
100
AcDbLine
 62
7
  6
CONTINUOUS
 10
-19.627603608
 20
-4.0316707398
 11
-19.6595739157
 21
-4.0528745237
  0
LINE
  5
2F4
100
AcDbEntity
  8
RACCORDO
100
AcDbLine
 62
7
  6
CONTINUOUS
 10
-19.5942527432
 20
-4.0098447368
 11
-19.627603608
 21
-4.0316707398
  0
LINE
  5
2F5
100
AcDbEntity
  8
RACCORDO
100
AcDbLine
 62
7
  6
CONTINUOUS
 10
-19.5596033013
 20
-3.9874641146
 11
-19.5942527432
 21
-4.0098447368
  0
LINE
  5
2F6
100
AcDbEntity
  8
RACCORDO
100
AcDbLine
 62
7
  6
CONTINUOUS
 10
-19.5237378777
 20
-3.9645974888
 11
-19.5596033013
 21
-3.9874641146
  0
LINE
  5
2F7
100
AcDbEntity
  8
RACCORDO
100
AcDbLine
 62
7
  6
CONTINUOUS
 10
-19.486742393
 20
-3.9413166868
 11
-19.5237378777
 21
-3.9645974888
  0
LINE
  5
2F8
100
AcDbEntity
  8
RACCORDO
100
AcDbLine
 62
7
  6
CONTINUOUS
 10
-19.4487095662
 20
-3.9176993963
 11
-19.486742393
 21
-3.9413166868
  0
LINE
  5
2F9
100
AcDbEntity
  8
RACCORDO
100
AcDbLine
 62
7
  6
CONTINUOUS
 10
-19.4097437272
 20
-3.8938326227
 11
-19.4487095662
 21
-3.9176993963
  0
LINE
  5
2FA
100
AcDbEntity
  8
0
100
AcDbLine
 62
7
  6
CONTINUOUS
 10
-17.4206305969
 20
1.0985632512
 11
-16.2460671986
 21
1.6858449503
  0
LINE
  5
2FB
100
AcDbEntity
  8
0
100
AcDbLine
 62
7
  6
CONTINUOUS
 10
-17.9332830133
 20
-0.1173537271
 11
-15.2864764285
 21
1.2060495653
  0
LINE
  5
2FC
100
AcDbEntity
  8
0
100
AcDbLine
 62
7
  6
CONTINUOUS
 10
-17.4206305969
 20
-0.3736799353
 11
-14.7738240122
 21
0.9497233571
  0
LINE
  5
2FD
100
AcDbEntity
  8
RACCORDO
100
AcDbLine
 62
7
  6
CONTINUOUS
 10
15.6800181123
 20
16.1351105157
 11
7.1516477883
 21
11.9797687669
  0
LINE
  5
2FE
100
AcDbEntity
  8
0
100
AcDbLine
 62
7
  6
CONTINUOUS
 10
-17.9332830133
 20
-0.1173537271
 11
-17.4206305969
 21
-0.3736799353
  0
LINE
  5
2FF
100
AcDbEntity
  8
0
100
AcDbLine
 62
7
  6
CONTINUOUS
 10
-17.4206305969
 20
1.0985632512
 11
-17.9332830133
 21
1.3548894594
  0
LWPOLYLINE
  5
300
100
AcDbEntity
  8
RACCORDO
100
AcDbPolyline
 62
253
  6
CONTINUOUS
 90
34
 70
0
 10
-6.0115597741
 20
12.1781121176
 10
-6.0128473288
 20
12.1984470472
 10
-6.0149179612
 20
12.219142822
 10
-6.017766993
 20
12.2401526098
 10
-6.0213880093
 20
12.2614288543
 10
-6.0257728008
 20
12.282923423
 10
-6.0309113771
 20
12.3045877194
 10
-6.0367921044
 20
12.3263727281
 10
-6.0434016888
 20
12.3482291493
 10
-6.050725128
 20
12.3701075556
 10
-6.0587458438
 20
12.3919584472
 10
-6.0674456956
 20
12.4137323781
 10
-6.0768049701
 20
12.4353800966
 10
-6.086802483
 20
12.4568526249
 10
-6.0974156178
 20
12.4781013747
 10
-6.1086203486
 20
12.4990782733
 10
-6.1203913159
 20
12.5197358602
 10
-6.1327018892
 20
12.5400273919
 10
-6.1455242162
 20
12.5599069533
 10
-6.1588292786
 20
12.5793295664
 10
-6.172586974
 20
12.598251282
 10
-6.1867661896
 20
12.6166292771
 10
-6.2013348375
 20
12.6344219705
 10
-6.216259957
 20
12.6515891012
 10
-6.2315078067
 20
12.6680918088
 10
-6.2470438818
 20
12.6838927549
 10
-6.2628330329
 20
12.6989561849
 10
-6.2788395775
 20
12.7132479914
 10
-6.2950272941
 20
12.7267358383
 10
-6.3113595599
 20
12.7393892044
 10
-6.3277994776
 20
12.751179428
 10
-6.3443098688
 20
12.7620798206
 10
-6.3608533574
 20
12.7720657282
 10
-6.377392511
 20
12.7811145555
  0
LWPOLYLINE
  5
301
100
AcDbEntity
  8
RACCORDO
100
AcDbPolyline
 62
7
  6
CONTINUOUS
 90
20
 70
0
 10
-4.2086649826
 20
-24.6463100827
 10
-4.2082595152
 20
-24.6605426985
 10
-4.2070363313
 20
-24.6747999392
 10
-4.204988744
 20
-24.6890254732
 10
-4.2021147463
 20
-24.7031626333
 10
-4.198417441
 20
-24.7171532803
 10
-4.1939050006
 20
-24.7309394744
 10
-4.1885909976
 20
-24.744463165
 10
-4.1824918228
 20
-24.7576723094
 10
-4.1756244444
 20
-24.770521966
 10
-4.1680113625
 20
-24.7829632683
 10
-4.1596803096
 20
-24.7949466807
 10
-4.1506568947
 20
-24.8064322414
 10
-4.1409667314
 20
-24.8173833778
 10
-4.1306469418
 20
-24.8277548558
 10
-4.1197398732
 20
-24.8375033871
 10
-4.1082711626
 20
-24.8466048425
 10
-4.0962831332
 20
-24.85502339
 10
-4.083842314
 20
-24.8627139545
 10
-4.0704612794
 20
-24.8699204311
  0
LWPOLYLINE
  5
302
100
AcDbEntity
  8
RACCORDO
100
AcDbPolyline
 62
253
  6
CONTINUOUS
 90
18
 70
0
 10
-4.1354416779
 20
-24.7346984304
 10
-4.135202323
 20
-24.7458415756
 10
-4.1344843178
 20
-24.7567217961
 10
-4.1332887277
 20
-24.7673090669
 10
-4.1316175302
 20
-24.7775761368
 10
-4.1294745953
 20
-24.7874922529
 10
-4.1268666399
 20
-24.7970240013
 10
-4.1238014678
 20
-24.8061435302
 10
-4.1202869136
 20
-24.8148281013
 10
-4.1163324323
 20
-24.823054292
 10
-4.1119486685
 20
-24.8307998161
 10
-4.1071475889
 20
-24.8380434003
 10
-4.1019423834
 20
-24.8447651056
 10
-4.0963472945
 20
-24.8509465681
 10
-4.0903774915
 20
-24.8565710549
 10
-4.0840491696
 20
-24.8616233035
 10
-4.0773795185
 20
-24.86608957
 10
-4.0704684057
 20
-24.8699168683
  0
LINE
  5
303
100
AcDbEntity
  8
DRAFT
100
AcDbLine
 62
253
  6
CONTINUOUS
 10
-6.5488638362
 20
21.827517754
 11
-6.5488638362
 21
22.3356582329
  0
LINE
  5
304
100
AcDbEntity
  8
RACCORDO
100
AcDbLine
 62
253
  6
CONTINUOUS
 10
-6.3387946986
 20
17.7709968321
 11
-6.3387946986
 21
18.8515801429
  0
LINE
  5
305
100
AcDbEntity
  8
DRAFT
100
AcDbLine
 62
7
  6
CONTINUOUS
 10
-5.841757055
 20
22.6892116235
 11
-5.841757055
 21
23.2417698128
  0
LINE
  5
306
100
AcDbEntity
  8
RACCORDO
100
AcDbLine
 62
253
  6
CONTINUOUS
 10
-5.6337507793
 20
17.7925325954
 11
-5.6337507793
 21
19.0252595677
  0
LINE
  5
307
100
AcDbEntity
  8
ASSI
100
AcDbLine
 62
253
  6
CONTINUOUS
 10
-5.5079814324
 20
24.632440765
 11
-5.5079814324
 21
23.405090168
  0
LINE
  5
308
100
AcDbEntity
  8
DRAFT
100
AcDbLine
 62
7
  6
CONTINUOUS
 10
-5.4882036644
 20
22.5124349282
 11
-5.4882036644
 21
23.0649931175
  0
LINE
  5
309
100
AcDbEntity
  8
ASSI
100
AcDbLine
 62
7
  6
CONTINUOUS
 10
-5.3826319251
 20
24.6417605876
 11
-5.3826319251
 21
23.5541183264
  0
LINE
  5
30A
100
AcDbEntity
  8
DRAFT
100
AcDbLine
 62
7
  6
CONTINUOUS
 10
-5.27607163
 20
19.2045641125
 11
-5.27607163
 21
17.9921285473
  0
LINE
  5
30B
100
AcDbEntity
  8
DRAFT
100
AcDbLine
 62
253
  6
CONTINUOUS
 10
-5.1346502738
 20
21.827517754
 11
-5.1346502738
 21
22.3356582329
  0
LWPOLYLINE
  5
30C
100
AcDbEntity
  8
RACCORDO
100
AcDbPolyline
 62
7
  6
CONTINUOUS
 90
20
 70
0
 10
-4.2086649826
 20
17.3332419249
 10
-4.2082611105
 20
17.3474465369
 10
-4.2070424989
 20
17.3616779609
 10
-4.2050021114
 20
17.3758801586
 10
-4.20213736
 20
17.3899975535
 10
-4.1984510377
 20
17.4039713227
 10
-4.1939517453
 20
17.4177412699
 10
-4.1886531519
 20
17.4312492813
 10
-4.1825714104
 20
17.4444440451
 10
-4.1757239289
 20
17.4572798781
 10
-4.1681332585
 20
17.4697081894
 10
-4.1598268719
 20
17.4816801081
 10
-4.150830464
 20
17.4931557385
 10
-4.1411691557
 20
17.5040992535
 10
-4.1308798832
 20
17.5144656209
 10
-4.1200056123
 20
17.5242110355
 10
-4.1085714487
 20
17.5333120409
 10
-4.0966192926
 20
17.5417331918
 10
-4.0842166611
 20
17.5494288256
 10
-4.0727719301
 20
17.5556820392
  0
LWPOLYLINE
  5
30D
100
AcDbEntity
  8
RACCORDO
100
AcDbPolyline
 62
7
  6
CONTINUOUS
 90
3
 70
0
 10
-10.4332228172
 20
-1.0809260263
 10
-10.4199907619
 20
-1.0708028511
 10
-10.4131367241
 20
-1.0656283671
  0
LINE
  5
30E
100
AcDbEntity
  8
RACCORDO
100
AcDbLine
 62
7
  6
CONTINUOUS
 10
-10.4131367241
 20
-1.0656283671
 11
-10.3989777779
 21
-1.0550801374
  0
LWPOLYLINE
  5
30F
100
AcDbEntity
  8
RACCORDO
100
AcDbPolyline
 62
7
  6
CONTINUOUS
 90
3
 70
0
 10
-10.3989777779
 20
-1.0550801374
 10
-10.384281056
 20
-1.044291776
 10
-10.3767338755
 20
-1.0388229065
  0
LINE
  5
310
100
AcDbEntity
  8
RACCORDO
100
AcDbLine
 62
7
  6
CONTINUOUS
 10
-17.7978158419
 20
-6.513387481
 11
-17.8131047668
 21
-6.5244405874
  0
LINE
  5
311
100
AcDbEntity
  8
RACCORDO
100
AcDbLine
 62
7
  6
CONTINUOUS
 10
-17.8083084996
 20
-5.1316281308
 11
-17.823646327
 21
-5.1427042815
  0
LINE
  5
312
100
AcDbEntity
  8
RACCORDO
100
AcDbLine
 62
7
  6
CONTINUOUS
 10
-17.7817387035
 20
-6.5018895074
 11
-17.7978158419
 21
-6.513387481
  0
LINE
  5
313
100
AcDbEntity
  8
RACCORDO
100
AcDbLine
 62
7
  6
CONTINUOUS
 10
-17.7921820907
 20
-5.1201093122
 11
-17.8083084996
 21
-5.1316281308
  0
LINE
  5
314
100
AcDbEntity
  8
RACCORDO
100
AcDbLine
 62
7
  6
CONTINUOUS
 10
-17.7648679217
 20
-6.4899692634
 11
-17.7817387035
 21
-6.5018895074
  0
LINE
  5
315
100
AcDbEntity
  8
RACCORDO
100
AcDbLine
 62
7
  6
CONTINUOUS
 10
-17.7752617395
 20
-5.1081705925
 11
-17.7921820907
 21
-5.1201093122
  0
LINE
  5
316
100
AcDbEntity
  8
RACCORDO
100
AcDbLine
 62
7
  6
CONTINUOUS
 10
-17.7472347392
 20
-6.4776443918
 11
-17.7648679217
 21
-6.4899692634
  0
LINE
  5
317
100
AcDbEntity
  8
RACCORDO
100
AcDbLine
 62
7
  6
CONTINUOUS
 10
-17.7575787233
 20
-5.0958299355
 11
-17.7752617395
 21
-5.1081705925
  0
LINE
  5
318
100
AcDbEntity
  8
RACCORDO
100
AcDbLine
 62
7
  6
CONTINUOUS
 10
-17.728865222
 20
-6.4649312653
 11
-17.7472347392
 21
-6.4776443918
  0
LINE
  5
319
100
AcDbEntity
  8
RACCORDO
100
AcDbLine
 62
7
  6
CONTINUOUS
 10
-17.7391592563
 20
-5.0831037766
 11
-17.7575787233
 21
-5.0958299355
  0
LINE
  5
31A
100
AcDbEntity
  8
RACCORDO
100
AcDbLine
 62
7
  6
CONTINUOUS
 10
-17.6999667965
 20
-6.4451819388
 11
-17.728865222
 21
-6.4649312653
  0
LINE
  5
31B
100
AcDbEntity
  8
RACCORDO
100
AcDbLine
 62
7
  6
CONTINUOUS
 10
-17.7101859496
 20
-5.063340289
 11
-17.7391592563
 21
-5.0831037766
  0
LINE
  5
31C
100
AcDbEntity
  8
RACCORDO
100
AcDbLine
 62
7
  6
CONTINUOUS
 10
-17.6798403446
 20
-6.4315904366
 11
-17.6999667965
 21
-6.4451819388
  0
LINE
  5
31D
100
AcDbEntity
  8
RACCORDO
100
AcDbLine
 62
7
  6
CONTINUOUS
 10
-17.6796749281
 20
-5.0428240172
 11
-17.7101859496
 21
-5.063340289
  0
LINE
  5
31E
100
AcDbEntity
  8
RACCORDO
100
AcDbLine
 62
7
  6
CONTINUOUS
 10
-17.6477046205
 20
-5.0216202333
 11
-17.6796749281
 21
-5.0428240172
  0
LINE
  5
31F
100
AcDbEntity
  8
RACCORDO
100
AcDbLine
 62
7
  6
CONTINUOUS
 10
-17.6143537557
 20
-4.9997942303
 11
-17.6477046205
 21
-5.0216202333
  0
LINE
  5
320
100
AcDbEntity
  8
RACCORDO
100
AcDbLine
 62
7
  6
CONTINUOUS
 10
-17.5797043139
 20
-4.9774136081
 11
-17.6143537557
 21
-4.9997942303
  0
LINE
  5
321
100
AcDbEntity
  8
RACCORDO
100
AcDbLine
 62
7
  6
CONTINUOUS
 10
-17.5438388903
 20
-4.9545469824
 11
-17.5797043139
 21
-4.9774136081
  0
LINE
  5
322
100
AcDbEntity
  8
RACCORDO
100
AcDbLine
 62
7
  6
CONTINUOUS
 10
-17.5068434057
 20
-4.9312661804
 11
-17.5438388903
 21
-4.9545469824
  0
LINE
  5
323
100
AcDbEntity
  8
RACCORDO
100
AcDbLine
 62
7
  6
CONTINUOUS
 10
-17.4688105789
 20
-4.90764889
 11
-17.5068434057
 21
-4.9312661804
  0
LINE
  5
324
100
AcDbEntity
  8
RACCORDO
100
AcDbLine
 62
7
  6
CONTINUOUS
 10
-17.42984474
 20
-4.8837821165
 11
-17.4688105789
 21
-4.90764889
  0
LINE
  5
325
100
AcDbEntity
  8
RACCORDO
100
AcDbLine
 62
7
  6
CONTINUOUS
 10
-19.3699673351
 20
-3.869817167
 11
-19.4097437272
 21
-3.8938326227
  0
LINE
  5
326
100
AcDbEntity
  8
RACCORDO
100
AcDbLine
 62
7
  6
CONTINUOUS
 10
-17.390068348
 20
-4.8597666608
 11
-17.42984474
 21
-4.8837821165
  0
LINE
  5
327
100
AcDbEntity
  8
RACCORDO
100
AcDbLine
 62
7
  6
CONTINUOUS
 10
-19.3295299041
 20
-3.8457734668
 11
-19.3699673351
 21
-3.869817167
  0
LINE
  5
328
100
AcDbEntity
  8
RACCORDO
100
AcDbLine
 62
7
  6
CONTINUOUS
 10
-17.3496309171
 20
-4.8357229606
 11
-17.390068348
 21
-4.8597666608
  0
LINE
  5
329
100
AcDbEntity
  8
RACCORDO
100
AcDbLine
 62
7
  6
CONTINUOUS
 10
-19.3022958297
 20
-3.8298041936
 11
-19.3295299041
 21
-3.8457734668
  0
LWPOLYLINE
  5
32A
100
AcDbEntity
  8
RACCORDO
100
AcDbPolyline
 62
7
  6
CONTINUOUS
 90
3
 70
0
 10
-17.3087262952
 20
-4.8118019398
 10
-17.3223968426
 20
-4.8197536875
 10
-17.3496309171
 20
-4.8357229606
  0
LINE
  5
32B
100
AcDbEntity
  8
RACCORDO
100
AcDbLine
 62
7
  6
CONTINUOUS
 10
-19.2749241456
 20
-3.8139449319
 11
-19.3022958297
 21
-3.8298041936
  0
LINE
  5
32C
100
AcDbEntity
  8
RACCORDO
100
AcDbLine
 62
7
  6
CONTINUOUS
 10
-19.2475170893
 20
-3.7982500961
 11
-19.2749241456
 21
-3.8139449319
  0
LINE
  5
32D
100
AcDbEntity
  8
RACCORDO
100
AcDbLine
 62
7
  6
CONTINUOUS
 10
-19.2201656561
 20
-3.7828171542
 11
-19.2475170893
 21
-3.7982500961
  0
LINE
  5
32E
100
AcDbEntity
  8
RACCORDO
100
AcDbLine
 62
7
  6
CONTINUOUS
 10
-19.1930071933
 20
-3.7677269794
 11
-19.2201656561
 21
-3.7828171542
  0
LINE
  5
32F
100
AcDbEntity
  8
RACCORDO
100
AcDbLine
 62
7
  6
CONTINUOUS
 10
-19.1662219541
 20
-3.7530793008
 11
-19.1930071933
 21
-3.7677269794
  0
LWPOLYLINE
  5
330
100
AcDbEntity
  8
RACCORDO
100
AcDbPolyline
 62
7
  6
CONTINUOUS
 90
5
 70
0
 10
-19.1020887872
 20
-3.719283755
 10
-19.1145047845
 20
-3.7256423905
 10
-19.1271350848
 20
-3.7322271128
 10
-19.1399670053
 20
-3.7390134016
 10
-19.1662219541
 20
-3.7530793008
  0
LINE
  5
331
100
AcDbEntity
  8
DRAFT
100
AcDbLine
 62
7
  6
CONTINUOUS
 10
16.7770207846
 20
15.0493103793
 11
15.7957104493
 21
14.5500160533
  0
LINE
  5
332
100
AcDbEntity
  8
RACCORDO
100
AcDbLine
 62
7
  6
CONTINUOUS
 10
-18.3221917429
 20
-3.3278078449
 11
-19.099547574
 21
-3.7179972128
  0
LINE
  5
333
100
AcDbEntity
  8
ASSI
100
AcDbLine
 62
7
  6
CONTINUOUS
 10
15.01789299
 20
13.6847933515
 11
13.4121445545
 21
12.8819191338
  0
LINE
  5
334
100
AcDbEntity
  8
ASSI
100
AcDbLine
 62
7
  6
CONTINUOUS
 10
13.0881075196
 20
12.7199006163
 11
9.8766106486
 21
11.1141521808
  0
LINE
  5
335
100
AcDbEntity
  8
ASSI
100
AcDbLine
 62
7
  6
CONTINUOUS
 10
9.5525736137
 20
10.9521336634
 11
7.9468251781
 21
10.1492594456
  0
LINE
  5
336
100
AcDbEntity
  8
0
100
AcDbLine
 62
7
  6
CONTINUOUS
 10
11.4823590841
 20
11.7048943642
 11
11.9066231528
 21
11.9170263986
  0
LINE
  5
337
100
AcDbEntity
  8
0
100
AcDbLine
 62
7
  6
CONTINUOUS
 10
-17.4206305969
 20
-3.2748650379
 11
-11.8726389095
 21
-0.5008691942
  0
LINE
  5
338
100
AcDbEntity
  8
DRAFT
100
AcDbLine
 62
7
  6
CONTINUOUS
 10
15.7957104493
 20
14.5500160533
 11
7.1516477883
 21
10.245087741
  0
LINE
  5
339
100
AcDbEntity
  8
SMUSSO
100
AcDbLine
 62
7
  6
CONTINUOUS
 10
16.7770207846
 20
15.4003652223
 11
7.1516477883
 21
10.7105226451
  0
LINE
  5
33A
100
AcDbEntity
  8
RACCORDO
100
AcDbLine
 62
7
  6
CONTINUOUS
 10
19.3301967659
 20
14.3100211889
 11
7.1516477883
 21
8.5842084396
  0
LINE
  5
33B
100
AcDbEntity
  8
RACCORDO
100
AcDbLine
 62
7
  6
CONTINUOUS
 10
-19.3887219525
 20
3.2571723273
 11
-10.5257127683
 21
-1.1743322648
  0
LINE
  5
33C
100
AcDbEntity
  8
RACCORDO
100
AcDbLine
 62
253
  6
CONTINUOUS
 10
-19.7945215421
 20
3.6700709268
 11
-10.3767338761
 21
-1.0388229063
  0
LWPOLYLINE
  5
33D
100
AcDbEntity
  8
RACCORDO
100
AcDbPolyline
 62
7
  6
CONTINUOUS
 90
39
 70
0
 10
-19.3886470456
 20
3.2571348916
 10
-19.4014856321
 20
3.2637454749
 10
-19.4145523543
 20
3.2708576623
 10
-19.4275231163
 20
3.278298994
 10
-19.4403982581
 20
3.2860589824
 10
-19.4531655394
 20
3.294122716
 10
-19.4658243038
 20
3.3024802482
 10
-19.4783750253
 20
3.3111219125
 10
-19.4908065637
 20
3.3200349157
 10
-19.5031187118
 20
3.3292102605
 10
-19.5153120358
 20
3.3386389863
 10
-19.527375999
 20
3.3483097493
 10
-19.539310765
 20
3.3582143582
 10
-19.5511169592
 20
3.3683444339
 10
-19.5627842458
 20
3.3786894686
 10
-19.5743131098
 20
3.3892419431
 10
-19.5857042327
 20
3.3999939455
 10
-19.5969471702
 20
3.4109352459
 10
-19.6080427087
 20
3.4220588821
 10
-19.6189916001
 20
3.433357302
 10
-19.6297830548
 20
3.4448200315
 10
-19.6404179768
 20
3.4564403658
 10
-19.6508974125
 20
3.4682112123
 10
-19.661210594
 20
3.4801219792
 10
-19.671358874
 20
3.4921665396
 10
-19.6813432642
 20
3.5043378363
 10
-19.69115241
 20
3.5166241933
 10
-19.7007879158
 20
3.5290197272
 10
-19.7102510536
 20
3.5415176067
 10
-19.7195300442
 20
3.554104897
 10
-19.7286268166
 20
3.5667759729
 10
-19.7375429198
 20
3.5795241345
 10
-19.7462662306
 20
3.5923348828
 10
-19.7547990259
 20
3.6052027834
 10
-19.7631432123
 20
3.618121294
 10
-19.7712864918
 20
3.6310742192
 10
-19.7792265098
 20
3.6440522388
 10
-19.7869706601
 20
3.657053026
 10
-19.7945215427
 20
3.6700709271
  0
LWPOLYLINE
  5
33E
100
AcDbEntity
  8
ASSI
100
AcDbPolyline
 62
7
  6
CONTINUOUS
 90
6
 70
0
 10
-5.3826319541
 20
24.642036914
 10
-5.3826849483
 20
24.6432774264
 10
-5.3834823033
 20
24.64671785
 10
-5.3851953909
 20
24.6495444838
 10
-5.3877802462
 20
24.6518074923
 10
-5.3894436963
 20
24.6527641766
  0
LWPOLYLINE
  5
33F
100
AcDbEntity
  8
RACCORDO
100
AcDbPolyline
 62
253
  6
CONTINUOUS
 90
18
 70
0
 10
-2.8104569981
 20
-25.3971907703
 10
-2.8102176432
 20
-25.4083339155
 10
-2.809499638
 20
-25.419214136
 10
-2.8083040479
 20
-25.4298014068
 10
-2.8066328504
 20
-25.4400684767
 10
-2.8044899155
 20
-25.4499845928
 10
-2.80188196
 20
-25.4595163412
 10
-2.798816788
 20
-25.4686358701
 10
-2.7953022337
 20
-25.4773204412
 10
-2.7913477525
 20
-25.4855466319
 10
-2.7869639887
 20
-25.493292156
 10
-2.7821629091
 20
-25.5005357402
 10
-2.7769577036
 20
-25.5072574455
 10
-2.7713626146
 20
-25.513438908
 10
-2.7653928117
 20
-25.5190633948
 10
-2.7590644898
 20
-25.5241156434
 10
-2.7523948387
 20
-25.5285819099
 10
-2.7454837259
 20
-25.5324092083
  0
LWPOLYLINE
  5
340
100
AcDbEntity
  8
RACCORDO
100
AcDbPolyline
 62
253
  6
CONTINUOUS
 90
19
 70
0
 10
-4.1354416779
 20
16.9048796431
 10
-4.1352218233
 20
16.8941949866
 10
-4.134562806
 20
16.8837567602
 10
-4.1334662652
 20
16.8735909277
 10
-4.1319349343
 20
16.8637228092
 10
-4.1299726191
 20
16.8541769145
 10
-4.1275841732
 20
16.8449768941
 10
-4.1247755031
 20
16.8361455822
 10
-4.1215535976
 20
16.8277050251
 10
-4.1179265
 20
16.8196763168
 10
-4.1139032204
 20
16.8120794059
 10
-4.1094937779
 20
16.8049332151
 10
-4.1047092413
 20
16.7982556497
 10
-4.0995616079
 20
16.7920633724
 10
-4.0940636399
 20
16.78637166
 10
-4.0882289062
 20
16.7811945338
 10
-4.0820706898
 20
16.7765440188
 10
-4.0756054155
 20
16.7724327451
 10
-4.0704672309
 20
16.7696606177
  0
LWPOLYLINE
  5
341
100
AcDbEntity
  8
RACCORDO
100
AcDbPolyline
 62
253
  6
CONTINUOUS
 90
19
 70
0
 10
-2.8104569981
 20
16.2423873032
 10
-2.8102371434
 20
16.2317026467
 10
-2.8095781262
 20
16.2212644203
 10
-2.8084815854
 20
16.2110985878
 10
-2.8069502545
 20
16.2012304692
 10
-2.8049879392
 20
16.1916845746
 10
-2.8025994934
 20
16.1824845542
 10
-2.7997908233
 20
16.1736532423
 10
-2.7965689178
 20
16.1652126852
 10
-2.7929418202
 20
16.1571839769
 10
-2.7889185406
 20
16.149587066
 10
-2.784509098
 20
16.1424408752
 10
-2.7797245615
 20
16.1357633098
 10
-2.7745769281
 20
16.1295710325
 10
-2.7690789601
 20
16.1238793201
 10
-2.7632442264
 20
16.1187021939
 10
-2.7570860099
 20
16.1140516788
 10
-2.7506207357
 20
16.1099404052
 10
-2.7454943348
 20
16.1071741705
  0
LINE
  5
342
100
AcDbEntity
  8
RACCORDO
100
AcDbLine
 62
7
  6
CONTINUOUS
 10
-4.2086649826
 20
17.3332419249
 11
-4.2086649826
 21
16.9932679908
  0
LINE
  5
343
100
AcDbEntity
  8
RACCORDO
100
AcDbLine
 62
7
  6
CONTINUOUS
 10
-4.2086649826
 20
-24.5297125205
 11
-4.2086649826
 21
-24.6463100827
  0
LINE
  5
344
100
AcDbEntity
  8
RACCORDO
100
AcDbLine
 62
253
  6
CONTINUOUS
 10
-4.1354416779
 20
17.2448535773
 11
-4.1354416779
 21
16.9048796431
  0
LINE
  5
345
100
AcDbEntity
  8
RACCORDO
100
AcDbLine
 62
253
  6
CONTINUOUS
 10
-4.1354416779
 20
-24.499542225
 11
-4.1354416779
 21
-24.7346984304
  0
LINE
  5
346
100
AcDbEntity
  8
RACCORDO
100
AcDbLine
 62
7
  6
CONTINUOUS
 10
-3.5056720284
 20
16.0332908236
 11
-3.5056720284
 21
16.4872630165
  0
LINE
  5
347
100
AcDbEntity
  8
RACCORDO
100
AcDbLine
 62
253
  6
CONTINUOUS
 10
-3.4324487237
 20
15.94157722
 11
-3.4324487237
 21
16.4506513641
  0
LINE
  5
348
100
AcDbEntity
  8
RACCORDO
100
AcDbLine
 62
253
  6
CONTINUOUS
 10
-2.8104569981
 20
-25.3971907703
 11
-2.8104569981
 21
-25.0572168361
  0
LINE
  5
349
100
AcDbEntity
  8
RACCORDO
100
AcDbLine
 62
253
  6
CONTINUOUS
 10
-2.8104569981
 20
16.2423873032
 11
-2.8104569981
 21
16.5823612374
  0
LINE
  5
34A
100
AcDbEntity
  8
RACCORDO
100
AcDbLine
 62
7
  6
CONTINUOUS
 10
-2.7304872178
 20
23.5558756615
 11
-2.7304872178
 21
23.2850753689
  0
LINE
  5
34B
100
AcDbEntity
  8
RACCORDO
100
AcDbLine
 62
253
  6
CONTINUOUS
 10
-2.4579350385
 20
-25.3977034941
 11
-2.4579350385
 21
-25.05772956
  0
LINE
  5
34C
100
AcDbEntity
  8
RACCORDO
100
AcDbLine
 62
253
  6
CONTINUOUS
 10
-2.4579350385
 20
16.2418745794
 11
-2.4579350385
 21
16.5818485135
  0
LWPOLYLINE
  5
34D
100
AcDbEntity
  8
RACCORDO
100
AcDbPolyline
 62
253
  6
CONTINUOUS
 90
31
 70
0
 10
-4.1354416779
 20
17.2448535773
 10
-4.135202323
 20
17.2562360774
 10
-4.1344843178
 20
17.2678343031
 10
-4.1332887277
 20
17.279617164
 10
-4.1316175302
 20
17.2915554314
 10
-4.1294745953
 20
17.3036144824
 10
-4.1268666399
 20
17.3157541863
 10
-4.1238014678
 20
17.3279388872
 10
-4.1202869136
 20
17.3401380125
 10
-4.1163324323
 20
17.3523186845
 10
-4.1119486685
 20
17.3644479724
 10
-4.1071475889
 20
17.3764926363
 10
-4.1019423834
 20
17.388419547
 10
-4.0963472945
 20
17.4001960985
 10
-4.0903774915
 20
17.4117903882
 10
-4.0840491696
 20
17.4231709587
 10
-4.0773795185
 20
17.4343068763
 10
-4.070386711
 20
17.4451677798
 10
-4.0630898023
 20
17.4557240644
 10
-4.0555086598
 20
17.4659469846
 10
-4.0476639086
 20
17.475808725
 10
-4.0395769023
 20
17.4852824374
 10
-4.0312696501
 20
17.4943423353
 10
-4.0227647634
 20
17.502963755
 10
-4.0140853983
 20
17.5111232205
 10
-4.0052551723
 20
17.5187985271
 10
-3.996298126
 20
17.5259687761
 10
-3.9872386668
 20
17.5326144305
 10
-3.9781014633
 20
17.5387173993
 10
-3.9689113769
 20
17.5442610816
 10
-3.959693422
 20
17.5492303922
  0
LWPOLYLINE
  5
34E
100
AcDbEntity
  8
RACCORDO
100
AcDbPolyline
 62
253
  6
CONTINUOUS
 90
31
 70
0
 10
-2.8104569981
 20
16.5823612374
 10
-2.8102164169
 20
16.5937731468
 10
-2.8094953257
 20
16.6053946034
 10
-2.8082956839
 20
16.6171939765
 10
-2.8066207514
 20
16.6291391631
 10
-2.8044750849
 20
16.6411976382
 10
-2.8018645302
 20
16.653336542
 10
-2.7987961968
 20
16.6655228241
 10
-2.7952784355
 20
16.6777233236
 10
-2.7913208263
 20
16.6899048205
 10
-2.7869341444
 20
16.7020341561
 10
-2.7821303313
 20
16.7140783182
 10
-2.7769224667
 20
16.7260045202
 10
-2.7713247213
 20
16.7377803149
 10
-2.7653523397
 20
16.7493736373
 10
-2.7590216054
 20
16.7607528895
 10
-2.7523497845
 20
16.7718870573
 10
-2.7453550162
 20
16.7827458888
 10
-2.7380562793
 20
16.7932999248
 10
-2.7304733367
 20
16.8035205676
 10
-2.7226269184
 20
16.8133798565
 10
-2.7145386271
 20
16.8228506727
 10
-2.7062306593
 20
16.8319071008
 10
-2.6977254869
 20
16.8405247174
 10
-2.6890460242
 20
16.8486803312
 10
-2.6802139337
 20
16.8563533797
 10
-2.6712551507
 20
16.8635211273
 10
-2.6621998138
 20
16.8701600339
 10
-2.653074645
 20
16.8762518313
 10
-2.6439026405
 20
16.8817824786
 10
-2.6347087421
 20
16.8867380523
  0
LWPOLYLINE
  5
34F
100
AcDbEntity
  8
RACCORDO
100
AcDbPolyline
 62
253
  6
CONTINUOUS
 90
21
 70
0
 10
-6.0115590715
 20
-25.0599594864
 10
-6.0128687581
 20
-25.080760293
 10
-6.0149604196
 20
-25.1011066845
 10
-6.0178293191
 20
-25.1209526274
 10
-6.02146898
 20
-25.1402532272
 10
-6.025871145
 20
-25.1589648113
 10
-6.031025795
 20
-25.1770450271
 10
-6.0369212633
 20
-25.1944529688
 10
-6.0435442102
 20
-25.2111492536
 10
-6.0508795988
 20
-25.2270960906
 10
-6.0589108271
 20
-25.2422574001
 10
-6.0676197266
 20
-25.2565988834
 10
-6.0769865545
 20
-25.2700880819
 10
-6.0869901116
 20
-25.2826944753
 10
-6.0976077695
 20
-25.2943895457
 10
-6.1088154855
 20
-25.3051468283
 10
-6.1205878947
 20
-25.3149419824
 10
-6.132898368
 20
-25.3237528504
 10
-6.1457190546
 20
-25.3315594999
 10
-6.1590209398
 20
-25.3383442651
 10
-6.1656084411
 20
-25.3412503631
  0
LINE
  5
350
100
AcDbEntity
  8
RACCORDO
100
AcDbLine
 62
7
  6
CONTINUOUS
 10
-17.045083016
 20
-7.9197330646
 11
-17.0603353415
 21
-7.93076862
  0
LINE
  5
351
100
AcDbEntity
  8
RACCORDO
100
AcDbLine
 62
7
  6
CONTINUOUS
 10
-17.0553537215
 20
-6.884618541
 11
-17.0706426465
 21
-6.8956716476
  0
LINE
  5
352
100
AcDbEntity
  8
RACCORDO
100
AcDbLine
 62
7
  6
CONTINUOUS
 10
-17.0290428314
 20
-7.9082508711
 11
-17.045083016
 21
-7.9197330646
  0
LINE
  5
353
100
AcDbEntity
  8
RACCORDO
100
AcDbLine
 62
7
  6
CONTINUOUS
 10
-17.0392765829
 20
-6.8731205673
 11
-17.0553537215
 21
-6.884618541
  0
LINE
  5
354
100
AcDbEntity
  8
RACCORDO
100
AcDbLine
 62
7
  6
CONTINUOUS
 10
-17.012209279
 20
-7.8963445403
 11
-17.0290428314
 21
-7.9082508711
  0
LINE
  5
355
100
AcDbEntity
  8
RACCORDO
100
AcDbLine
 62
7
  6
CONTINUOUS
 10
-17.022405801
 20
-6.8612003232
 11
-17.0392765829
 21
-6.8731205673
  0
LINE
  5
356
100
AcDbEntity
  8
RACCORDO
100
AcDbLine
 62
7
  6
CONTINUOUS
 10
-16.9946134996
 20
-7.8840316198
 11
-17.012209279
 21
-7.8963445403
  0
LINE
  5
357
100
AcDbEntity
  8
RACCORDO
100
AcDbLine
 62
7
  6
CONTINUOUS
 10
-17.0047726183
 20
-6.8488754515
 11
-17.022405801
 21
-6.8612003232
  0
LINE
  5
358
100
AcDbEntity
  8
RACCORDO
100
AcDbLine
 62
7
  6
CONTINUOUS
 10
-16.9762814718
 20
-7.8713283923
 11
-16.9946134996
 21
-7.8840316198
  0
LINE
  5
359
100
AcDbEntity
  8
RACCORDO
100
AcDbLine
 62
7
  6
CONTINUOUS
 10
-16.9864031011
 20
-6.836162325
 11
-17.0047726183
 21
-6.8488754515
  0
LINE
  5
35A
100
AcDbEntity
  8
RACCORDO
100
AcDbLine
 62
7
  6
CONTINUOUS
 10
-16.9474392527
 20
-7.851589885
 11
-16.9762814718
 21
-7.8713283923
  0
LINE
  5
35B
100
AcDbEntity
  8
RACCORDO
100
AcDbLine
 62
7
  6
CONTINUOUS
 10
-16.9575046756
 20
-6.8164129984
 11
-16.9864031011
 21
-6.836162325
  0
LINE
  5
35C
100
AcDbEntity
  8
RACCORDO
100
AcDbLine
 62
7
  6
CONTINUOUS
 10
-16.9170586337
 20
-7.831086756
 11
-16.9474392527
 21
-7.851589885
  0
LINE
  5
35D
100
AcDbEntity
  8
RACCORDO
100
AcDbLine
 62
7
  6
CONTINUOUS
 10
-16.9270681389
 20
-6.7959041184
 11
-16.9575046756
 21
-6.8164129984
  0
LINE
  5
35E
100
AcDbEntity
  8
RACCORDO
100
AcDbLine
 62
7
  6
CONTINUOUS
 10
-17.6484220619
 20
-6.4106115822
 11
-17.6798403446
 21
-6.4315904366
  0
LINE
  5
35F
100
AcDbEntity
  8
RACCORDO
100
AcDbLine
 62
7
  6
CONTINUOUS
 10
-16.8852173911
 20
-7.8098836983
 11
-16.9170586337
 21
-7.831086756
  0
LINE
  5
360
100
AcDbEntity
  8
RACCORDO
100
AcDbLine
 62
7
  6
CONTINUOUS
 10
-16.8951715461
 20
-6.7747006277
 11
-16.9270681389
 21
-6.7959041184
  0
LINE
  5
361
100
AcDbEntity
  8
RACCORDO
100
AcDbLine
 62
7
  6
CONTINUOUS
 10
-17.6155953076
 20
-6.3889809926
 11
-17.6484220619
 21
-6.4106115822
  0
LINE
  5
362
100
AcDbEntity
  8
RACCORDO
100
AcDbLine
 62
7
  6
CONTINUOUS
 10
-16.8519936082
 20
-7.7880454347
 11
-16.8852173911
 21
-7.8098836983
  0
LINE
  5
363
100
AcDbEntity
  8
RACCORDO
100
AcDbLine
 62
7
  6
CONTINUOUS
 10
-16.8618932567
 20
-6.7528674945
 11
-16.8951715461
 21
-6.7747006277
  0
LINE
  5
364
100
AcDbEntity
  8
RACCORDO
100
AcDbLine
 62
7
  6
CONTINUOUS
 10
-17.5814413406
 20
-6.3667656268
 11
-17.6155953076
 21
-6.3889809926
  0
LINE
  5
365
100
AcDbEntity
  8
RACCORDO
100
AcDbLine
 62
7
  6
CONTINUOUS
 10
-16.8174686034
 20
-7.7656389871
 11
-16.8519936082
 21
-7.7880454347
  0
LINE
  5
366
100
AcDbEntity
  8
RACCORDO
100
AcDbLine
 62
7
  6
CONTINUOUS
 10
-16.8273148726
 20
-6.7304719891
 11
-16.8618932567
 21
-6.7528674945
  0
LINE
  5
367
100
AcDbEntity
  8
RACCORDO
100
AcDbLine
 62
7
  6
CONTINUOUS
 10
-17.5460418303
 20
-6.3440331614
 11
-17.5814413406
 21
-6.3667656268
  0
LINE
  5
368
100
AcDbEntity
  8
RACCORDO
100
AcDbLine
 62
7
  6
CONTINUOUS
 10
-16.7817242942
 20
-7.7427323664
 11
-16.8174686034
 21
-7.7656389871
  0
LINE
  5
369
100
AcDbEntity
  8
RACCORDO
100
AcDbLine
 62
7
  6
CONTINUOUS
 10
-16.7915186014
 20
-6.7075823823
 11
-16.8273148726
 21
-6.7304719891
  0
LINE
  5
36A
100
AcDbEntity
  8
RACCORDO
100
AcDbLine
 62
7
  6
CONTINUOUS
 10
-17.5094808606
 20
-6.3208537407
 11
-17.5460418303
 21
-6.3440331614
  0
LINE
  5
36B
100
AcDbEntity
  8
RACCORDO
100
AcDbLine
 62
7
  6
CONTINUOUS
 10
-16.7448458862
 20
-7.7193967506
 11
-16.7817242942
 21
-7.7427323664
  0
LINE
  5
36C
100
AcDbEntity
  8
RACCORDO
100
AcDbLine
 62
7
  6
CONTINUOUS
 10
-16.7545899547
 20
-6.684270131
 11
-16.7915186014
 21
-6.7075823823
  0
LINE
  5
36D
100
AcDbEntity
  8
RACCORDO
100
AcDbLine
 62
7
  6
CONTINUOUS
 10
-17.4718479772
 20
-6.2973023638
 11
-17.5094808606
 21
-6.3208537407
  0
LINE
  5
36E
100
AcDbEntity
  8
RACCORDO
100
AcDbLine
 62
7
  6
CONTINUOUS
 10
-16.7069253216
 20
-7.6957091179
 11
-16.7448458862
 21
-7.7193967506
  0
LINE
  5
36F
100
AcDbEntity
  8
RACCORDO
100
AcDbLine
 62
7
  6
CONTINUOUS
 10
-16.7166212077
 20
-6.6606125179
 11
-16.7545899547
 21
-6.684270131
  0
LINE
  5
370
100
AcDbEntity
  8
RACCORDO
100
AcDbLine
 62
7
  6
CONTINUOUS
 10
-17.4332425491
 20
-6.2734620743
 11
-17.4718479772
 21
-6.2973023638
  0
LINE
  5
371
100
AcDbEntity
  8
RACCORDO
100
AcDbLine
 62
7
  6
CONTINUOUS
 10
-16.6777161965
 20
-6.6366961019
 11
-16.7166212077
 21
-6.6606125179
  0
LINE
  5
372
100
AcDbEntity
  8
RACCORDO
100
AcDbLine
 62
7
  6
CONTINUOUS
 10
-17.3937795732
 20
-6.2494280167
 11
-17.4332425491
 21
-6.2734620743
  0
LINE
  5
373
100
AcDbEntity
  8
RACCORDO
100
AcDbLine
 62
7
  6
CONTINUOUS
 10
-16.6379968186
 20
-6.612621191
 11
-16.6777161965
 21
-6.6366961019
  0
LINE
  5
374
100
AcDbEntity
  8
RACCORDO
100
AcDbLine
 62
7
  6
CONTINUOUS
 10
-17.3670594623
 20
-6.2333558763
 11
-17.3937795732
 21
-6.2494280167
  0
LINE
  5
375
100
AcDbEntity
  8
RACCORDO
100
AcDbLine
 62
7
  6
CONTINUOUS
 10
-17.3400740576
 20
-6.2172766234
 11
-17.3670594623
 21
-6.2333558763
  0
LINE
  5
376
100
AcDbEntity
  8
RACCORDO
100
AcDbLine
 62
7
  6
CONTINUOUS
 10
-16.5976119382
 20
-6.5885076841
 11
-16.6379968186
 21
-6.612621191
  0
LINE
  5
377
100
AcDbEntity
  8
RACCORDO
100
AcDbLine
 62
7
  6
CONTINUOUS
 10
-17.2992167543
 20
-6.1932748777
 11
-17.3400740576
 21
-6.2172766234
  0
LINE
  5
378
100
AcDbEntity
  8
RACCORDO
100
AcDbLine
 62
7
  6
CONTINUOUS
 10
-16.556754635
 20
-6.5645059384
 11
-16.5976119382
 21
-6.5885076841
  0
LINE
  5
379
100
AcDbEntity
  8
RACCORDO
100
AcDbLine
 62
7
  6
CONTINUOUS
 10
-17.2718406512
 20
-6.1774333756
 11
-17.2992167543
 21
-6.1932748777
  0
LINE
  5
37A
100
AcDbEntity
  8
RACCORDO
100
AcDbLine
 62
7
  6
CONTINUOUS
 10
-16.5293785318
 20
-6.5486644362
 11
-16.556754635
 21
-6.5645059384
  0
LINE
  5
37B
100
AcDbEntity
  8
RACCORDO
100
AcDbLine
 62
7
  6
CONTINUOUS
 10
-17.2813220018
 20
-4.7960205866
 11
-17.3087262952
 21
-4.8118019398
  0
LINE
  5
37C
100
AcDbEntity
  8
RACCORDO
100
AcDbLine
 62
7
  6
CONTINUOUS
 10
-17.2444642898
 20
-6.1617982606
 11
-17.2718406512
 21
-6.1774333756
  0
LINE
  5
37D
100
AcDbEntity
  8
RACCORDO
100
AcDbLine
 62
7
  6
CONTINUOUS
 10
-16.5020021705
 20
-6.5330293212
 11
-16.5293785318
 21
-6.5486644362
  0
LINE
  5
37E
100
AcDbEntity
  8
RACCORDO
100
AcDbLine
 62
7
  6
CONTINUOUS
 10
-17.2539204887
 20
-4.7804508656
 11
-17.2813220018
 21
-4.7960205866
  0
LINE
  5
37F
100
AcDbEntity
  8
RACCORDO
100
AcDbLine
 62
7
  6
CONTINUOUS
 10
-17.2172250432
 20
-6.1464443526
 11
-17.2444642898
 21
-6.1617982606
  0
LINE
  5
380
100
AcDbEntity
  8
RACCORDO
100
AcDbLine
 62
7
  6
CONTINUOUS
 10
-16.4747629238
 20
-6.5176754131
 11
-16.5020021705
 21
-6.5330293212
  0
LINE
  5
381
100
AcDbEntity
  8
RACCORDO
100
AcDbLine
 62
7
  6
CONTINUOUS
 10
-17.2266594751
 20
-4.7651677133
 11
-17.2539204887
 21
-4.7804508656
  0
LWPOLYLINE
  5
382
100
AcDbEntity
  8
RACCORDO
100
AcDbPolyline
 62
7
  6
CONTINUOUS
 90
3
 70
0
 10
-17.1769140058
 20
-6.1241891449
 10
-17.1902444433
 20
-6.1314900198
 10
-17.2172250432
 20
-6.1464443526
  0
LWPOLYLINE
  5
383
100
AcDbEntity
  8
RACCORDO
100
AcDbPolyline
 62
7
  6
CONTINUOUS
 90
3
 70
0
 10
-17.186322967
 20
-4.7430287946
 10
-17.1996608719
 20
-4.7502895465
 10
-17.2266594751
 20
-4.7651677133
  0
LWPOLYLINE
  5
384
100
AcDbEntity
  8
RACCORDO
100
AcDbPolyline
 62
7
  6
CONTINUOUS
 90
5
 70
0
 10
-17.1128007596
 20
-6.0901732229
 10
-17.1252152614
 20
-6.0965785006
 10
-17.1378427742
 20
-6.1032086035
 10
-17.1506706627
 20
-6.1100389867
 10
-17.1769140058
 20
-6.1241891449
  0
LWPOLYLINE
  5
385
100
AcDbEntity
  8
RACCORDO
100
AcDbPolyline
 62
7
  6
CONTINUOUS
 90
5
 70
0
 10
-17.1221897999
 20
-4.7092332486
 10
-17.1346057972
 20
-4.7155918842
 10
-17.1472360976
 20
-4.7221766065
 10
-17.1600680181
 20
-4.7289628953
 10
-17.186322967
 20
-4.7430287946
  0
LINE
  5
386
100
AcDbEntity
  8
RACCORDO
100
AcDbLine
 62
7
  6
CONTINUOUS
 10
-16.3422927556
 20
-4.3177573386
 11
-17.1196485867
 21
-4.7079467065
  0
LINE
  5
387
100
AcDbEntity
  8
RACCORDO
100
AcDbLine
 62
7
  6
CONTINUOUS
 10
-16.3422927556
 20
-5.7033979847
 11
-17.1091174771
 21
-6.0883013216
  0
LINE
  5
388
100
AcDbEntity
  8
0
100
AcDbLine
 62
7
  6
CONTINUOUS
 10
-16.2362267384
 20
-3.8670669672
 11
-10.688235051
 21
-1.0930711235
  0
LINE
  5
389
100
AcDbEntity
  8
0
100
AcDbLine
 62
7
  6
CONTINUOUS
 10
-10.5273830457
 20
-1.4023565525
 11
-15.1755665667
 21
-3.726448313
  0
LINE
  5
38A
100
AcDbEntity
  8
0
100
AcDbLine
 62
7
  6
CONTINUOUS
 10
-16.2362267384
 20
-5.2527076132
 11
-15.1755665667
 21
-4.7223775273
  0
LINE
  5
38B
100
AcDbEntity
  8
RACCORDO
100
AcDbLine
 62
253
  6
CONTINUOUS
 10
7.1516477883
 20
6.7961844203
 11
20.8092889247
 21
13.5704751095
  0
LWPOLYLINE
  5
38C
100
AcDbEntity
  8
RACCORDO
100
AcDbPolyline
 62
253
  6
CONTINUOUS
 90
31
 70
0
 10
-2.4579350385
 20
16.5818485135
 10
-2.4582300154
 20
16.5932742212
 10
-2.4590058686
 20
16.6049122743
 10
-2.4602604717
 20
16.6167307752
 10
-2.461990386
 20
16.6286973314
 10
-2.4641908701
 20
16.640779145
 10
-2.466855893
 20
16.652943102
 10
-2.4699781503
 20
16.6651558632
 10
-2.4735490845
 20
16.6773839557
 10
-2.4775589083
 20
16.6895938647
 10
-2.4819966316
 20
16.701752125
 10
-2.4868500914
 20
16.7138254132
 10
-2.4921059852
 20
16.7257806386
 10
-2.4977499077
 20
16.7375850343
 10
-2.5037663899
 20
16.7492062465
 10
-2.5101389417
 20
16.7606124237
 10
-2.5168500973
 20
16.7717723037
 10
-2.5238814625
 20
16.7826552994
 10
-2.5312137657
 20
16.7932315825
 10
-2.5388269105
 20
16.8034721655
 10
-2.5467000307
 20
16.8133489807
 10
-2.5548115474
 20
16.8228349578
 10
-2.5631392287
 20
16.8319040974
 10
-2.5716602498
 20
16.8405315427
 10
-2.5803512562
 20
16.8486936475
 10
-2.5891884275
 20
16.8563680411
 10
-2.5981475427
 20
16.8635336892
 10
-2.6072040465
 20
16.8701709523
 10
-2.6163331168
 20
16.8762616388
 10
-2.6255097325
 20
16.8817890554
 10
-2.6347087421
 20
16.8867380523
  0
LWPOLYLINE
  5
38D
100
AcDbEntity
  8
RACCORDO
100
AcDbPolyline
 62
7
  6
CONTINUOUS
 90
23
 70
0
 10
-0.2561892189
 20
-23.9112536869
 10
-0.2565076269
 20
-23.8986401346
 10
-0.2574662435
 20
-23.8860171864
 10
-0.2590680178
 20
-23.8734236462
 10
-0.2613121777
 20
-23.8609025728
 10
-0.2641962178
 20
-23.8484891478
 10
-0.267718042
 20
-23.8362103809
 10
-0.2718714072
 20
-23.8241034541
 10
-0.276646262
 20
-23.8122080868
 10
-0.2820340569
 20
-23.8005538073
 10
-0.2880224174
 20
-23.7891748325
 10
-0.2945944586
 20
-23.7781084377
 10
-0.3017338924
 20
-23.7673856242
 10
-0.3094236854
 20
-23.7570352548
 10
-0.3176410052
 20
-23.7470904416
 10
-0.326360039
 20
-23.7375831193
 10
-0.335561255
 20
-23.7285350565
 10
-0.3452177045
 20
-23.7199733389
 10
-0.3552921063
 20
-23.7119296757
 10
-0.3657646561
 20
-23.7044181432
 10
-0.3766073462
 20
-23.6974581344
 10
-0.3877710959
 20
-23.69107842
 10
-0.3943921459
 20
-23.6876437265
  0
LWPOLYLINE
  5
38E
100
AcDbEntity
  8
RACCORDO
100
AcDbPolyline
 62
7
  6
CONTINUOUS
 90
34
 70
0
 10
-0.8566542476
 20
17.384570517
 10
-0.8568543037
 20
17.3949723256
 10
-0.8574545411
 20
17.4055506937
 10
-0.8584534991
 20
17.4162817118
 10
-0.8598487347
 20
17.4271411649
 10
-0.8616370829
 20
17.4381044574
 10
-0.8638146642
 20
17.4491466683
 10
-0.8663764887
 20
17.4602428152
 10
-0.869316663
 20
17.4713678087
 10
-0.872628658
 20
17.4824963791
 10
-0.8763049351
 20
17.4936033369
 10
-0.8803370954
 20
17.5046635581
 10
-0.8847160927
 20
17.5156519393
 10
-0.8894319932
 20
17.5265435969
 10
-0.8944740633
 20
17.5373138841
 10
-0.8998309239
 20
17.5479383753
 10
-0.9054904481
 20
17.5583929998
 10
-0.9114397861
 20
17.5686540899
 10
-0.9176654578
 20
17.5786983963
 10
-0.9241533903
 20
17.5885031512
 10
-0.9308888792
 20
17.5980461484
 10
-0.9378566184
 20
17.6073057886
 10
-0.9450408755
 20
17.616261071
 10
-0.9524253911
 20
17.624891703
 10
-0.9599933455
 20
17.6331781757
 10
-0.967727667
 20
17.641101683
 10
-0.9756108729
 20
17.6486442591
 10
-0.9836249724
 20
17.6557888828
 10
-0.9917519028
 20
17.6625193256
 10
-0.9999733138
 20
17.6688203141
 10
-1.0082704105
 20
17.6746776614
 10
-1.0166244039
 20
17.6800780982
 10
-1.025016553
 20
17.6850093028
 10
-1.0334279513
 20
17.6894600558
  0
LWPOLYLINE
  5
38F
100
AcDbEntity
  8
RACCORDO
100
AcDbPolyline
 62
7
  6
CONTINUOUS
 90
24
 70
0
 10
-2.7304872178
 20
23.5558756615
 10
-2.7310604022
 20
23.5903480677
 10
-2.7327595152
 20
23.6240979887
 10
-2.7355845567
 20
23.6571254244
 10
-2.7395449913
 20
23.6894869818
 10
-2.7446313544
 20
23.721126054
 10
-2.7508152528
 20
23.7518728206
 10
-2.7580978682
 20
23.781708348
 10
-2.7664780189
 20
23.8106515697
 10
-2.7759237661
 20
23.8385894657
 10
-2.7864476246
 20
23.8655356285
 10
-2.7980370797
 20
23.8914764654
 10
-2.8106226484
 20
23.9162581783
 10
-2.8241978343
 20
23.9398554797
 10
-2.8387691338
 20
23.962293657
 10
-2.8542865539
 20
23.9834947743
 10
-2.8707698412
 20
24.0034718642
 10
-2.8881992491
 20
24.0222118941
 10
-2.9064655438
 20
24.0395978296
 10
-2.9255541997
 20
24.055606756
 10
-2.9454797424
 20
24.070261588
 10
-2.9661765148
 20
24.0835140364
 10
-2.9876690294
 20
24.0953698977
 10
-6.2175590938
 20
25.7103388071
  0
LINE
  5
390
100
AcDbEntity
  8
RACCORDO
100
AcDbLine
 62
253
  6
CONTINUOUS
 10
-2.09923639
 20
15.9637916761
 11
-2.09923639
 21
15.2749710531
  0
LINE
  5
391
100
AcDbEntity
  8
RACCORDO
100
AcDbLine
 62
253
  6
CONTINUOUS
 10
-2.09923639
 20
-23.6558241957
 11
-2.09923639
 21
-24.080720359
  0
LINE
  5
392
100
AcDbEntity
  8
RACCORDO
100
AcDbLine
 62
253
  6
CONTINUOUS
 10
-1.7467144304
 20
16.0933710565
 11
-1.7467144304
 21
15.2857389348
  0
LINE
  5
393
100
AcDbEntity
  8
RACCORDO
100
AcDbLine
 62
253
  6
CONTINUOUS
 10
-1.7467144304
 20
-23.5080578274
 11
-1.7467144304
 21
-24.2062330829
  0
LINE
  5
394
100
AcDbEntity
  8
RACCORDO
100
AcDbLine
 62
7
  6
CONTINUOUS
 10
-0.8566542476
 20
-23.1344275202
 11
-0.8566542476
 21
-24.6176688945
  0
LINE
  5
395
100
AcDbEntity
  8
RACCORDO
100
AcDbLine
 62
7
  6
CONTINUOUS
 10
-0.8566542476
 20
15.782419856
 11
-0.8566542476
 21
17.384570517
  0
LINE
  5
396
100
AcDbEntity
  8
RACCORDO
100
AcDbLine
 62
253
  6
CONTINUOUS
 10
-0.3283870759
 20
17.648009337
 11
-0.3283870759
 21
17.3004778203
  0
LINE
  5
397
100
AcDbEntity
  8
RACCORDO
100
AcDbLine
 62
253
  6
CONTINUOUS
 10
-0.3283870759
 20
-23.9991263191
 11
-0.3283870759
 21
-24.3466578358
  0
LINE
  5
398
100
AcDbEntity
  8
RACCORDO
100
AcDbLine
 62
7
  6
CONTINUOUS
 10
-0.2561892189
 20
17.7358819692
 11
-0.2561892189
 21
17.3883504525
  0
LINE
  5
399
100
AcDbEntity
  8
RACCORDO
100
AcDbLine
 62
7
  6
CONTINUOUS
 10
-0.2561892189
 20
-23.9112536869
 11
-0.2561892189
 21
-24.2587852036
  0
LWPOLYLINE
  5
39A
100
AcDbEntity
  8
RACCORDO
100
AcDbPolyline
 62
253
  6
CONTINUOUS
 90
22
 70
0
 10
-2.8104569981
 20
-25.0572168361
 10
-2.8102381269
 20
-25.0463369727
 10
-2.8095815712
 20
-25.0352590005
 10
-2.8084882336
 20
-25.0240100855
 10
-2.8069597837
 20
-25.0126157815
 10
-2.8049994651
 20
-25.0011062663
 10
-2.8026128821
 20
-24.9895164471
 10
-2.7998065493
 20
-24.9778773877
 10
-2.7965870322
 20
-24.9662158299
 10
-2.792962263
 20
-24.9545605461
 10
-2.7889411799
 20
-24.9429403777
 10
-2.7845338068
 20
-24.9313843828
 10
-2.7797511789
 20
-24.9199215274
 10
-2.774605206
 20
-24.9085803534
 10
-2.7691086772
 20
-24.8973890443
 10
-2.7632753339
 20
-24.8863755646
 10
-2.757119745
 20
-24.8755673845
 10
-2.7506571898
 20
-24.8649912967
 10
-2.7439036763
 20
-24.8546734866
 10
-2.7368759764
 20
-24.8446395811
 10
-2.7295915949
 20
-24.8349145766
 10
-2.7220686505
 20
-24.8255226623
  0
LWPOLYLINE
  5
39B
100
AcDbEntity
  8
RACCORDO
100
AcDbPolyline
 62
7
  6
CONTINUOUS
 90
15
 70
0
 10
-0.2561892189
 20
17.3883504525
 10
-0.2565061478
 20
17.3757662121
 10
-0.2574604943
 20
17.3631706786
 10
-0.259055479
 20
17.3506024112
 10
-0.2612907842
 20
17.3381034959
 10
-0.2641641401
 20
17.3257097215
 10
-0.2676730874
 20
17.3134501518
 10
-0.27181122
 20
17.3013622142
 10
-0.2765686846
 20
17.2894848356
 10
-0.2819367372
 20
17.2778478532
 10
-0.2879030205
 20
17.2664852173
 10
-0.2944507855
 20
17.2554338026
 10
-0.3015636714
 20
17.2447246007
 10
-0.3092248629
 20
17.2343860331
 10
-0.3130267584
 20
17.2296423434
  0
LWPOLYLINE
  5
39C
100
AcDbEntity
  8
RACCORDO
100
AcDbPolyline
 62
253
  6
CONTINUOUS
 90
16
 70
0
 10
-0.2561892189
 20
17.3883504525
 10
-0.2564924399
 20
17.3821958082
 10
-0.2574739457
 20
17.375694299
 10
-0.2591321235
 20
17.3692272229
 10
-0.261462462
 20
17.3628121749
 10
-0.2644586212
 20
17.3564666081
 10
-0.2681124494
 20
17.3502077866
 10
-0.2724140058
 20
17.3440527388
 10
-0.2773515873
 20
17.3380182104
 10
-0.2829117604
 20
17.3321206194
 10
-0.2890793976
 20
17.3263760111
 10
-0.2958377189
 20
17.3208000149
 10
-0.3031683372
 20
17.3154078011
 10
-0.3110513081
 20
17.3102140401
 10
-0.3194651848
 20
17.3052328624
 10
-0.3283870759
 20
17.3004778203
  0
LWPOLYLINE
  5
39D
100
AcDbEntity
  8
RACCORDO
100
AcDbPolyline
 62
253
  6
CONTINUOUS
 90
16
 70
0
 10
-0.2561892189
 20
17.7358816199
 10
-0.2564947239
 20
17.7297042034
 10
-0.2574788956
 20
17.7232015209
 10
-0.259139995
 20
17.7167333338
 10
-0.2614735411
 20
17.7103171642
 10
-0.2644731706
 20
17.7039705606
 10
-0.2681306039
 20
17.697710986
 10
-0.2724357428
 20
17.6915555877
 10
-0.2773768827
 20
17.6855209853
 10
-0.2829406905
 20
17.6796234264
 10
-0.2891134489
 20
17.6738777151
 10
-0.2958771984
 20
17.6683008069
 10
-0.3032087166
 20
17.6629112291
 10
-0.3110852882
 20
17.6577243461
 10
-0.3194859933
 20
17.6527526941
 10
-0.3283870759
 20
17.648009337
  0
LINE
  5
39E
100
AcDbEntity
  8
RACCORDO
100
AcDbLine
 62
7
  6
CONTINUOUS
 10
-16.6680660668
 20
-7.6717556907
 11
-16.7069253216
 21
-7.6957091179
  0
LINE
  5
39F
100
AcDbEntity
  8
RACCORDO
100
AcDbLine
 62
7
  6
CONTINUOUS
 10
-16.6283895985
 20
-7.6476364063
 11
-16.6680660668
 21
-7.6717556907
  0
LINE
  5
3A0
100
AcDbEntity
  8
RACCORDO
100
AcDbLine
 62
7
  6
CONTINUOUS
 10
-16.588044294
 20
-7.6234707581
 11
-16.6283895985
 21
-7.6476364063
  0
LINE
  5
3A1
100
AcDbEntity
  8
RACCORDO
100
AcDbLine
 62
7
  6
CONTINUOUS
 10
-16.5472226571
 20
-7.5994086767
 11
-16.588044294
 21
-7.6234707581
  0
LINE
  5
3A2
100
AcDbEntity
  8
RACCORDO
100
AcDbLine
 62
7
  6
CONTINUOUS
 10
-16.5198678229
 20
-7.5835221969
 11
-16.5472226571
 21
-7.5994086767
  0
LINE
  5
3A3
100
AcDbEntity
  8
RACCORDO
100
AcDbLine
 62
7
  6
CONTINUOUS
 10
-16.4925104581
 20
-7.5678381662
 11
-16.5198678229
 21
-7.5835221969
  0
LINE
  5
3A4
100
AcDbEntity
  8
RACCORDO
100
AcDbLine
 62
7
  6
CONTINUOUS
 10
-16.4652876759
 20
-7.5524313159
 11
-16.4925104581
 21
-7.5678381662
  0
LWPOLYLINE
  5
3A5
100
AcDbEntity
  8
RACCORDO
100
AcDbPolyline
 62
7
  6
CONTINUOUS
 90
3
 70
0
 10
-16.4249959618
 20
-7.5300890662
 10
-16.4383207237
 20
-7.5374199768
 10
-16.4652876759
 20
-7.5524313159
  0
LWPOLYLINE
  5
3A6
100
AcDbEntity
  8
RACCORDO
100
AcDbPolyline
 62
7
  6
CONTINUOUS
 90
3
 70
0
 10
-16.4344518861
 20
-6.4954202054
 10
-16.4477823237
 20
-6.5027210802
 10
-16.4747629238
 20
-6.5176754131
  0
LWPOLYLINE
  5
3A7
100
AcDbEntity
  8
RACCORDO
100
AcDbPolyline
 62
7
  6
CONTINUOUS
 90
5
 70
0
 10
-16.3608980511
 20
-7.4959081104
 10
-16.3733113499
 20
-7.5023483251
 10
-16.3859366916
 20
-7.5090124161
 10
-16.3987614772
 20
-7.5158758203
 10
-16.4249959618
 20
-7.5300890662
  0
LWPOLYLINE
  5
3A8
100
AcDbEntity
  8
RACCORDO
100
AcDbPolyline
 62
7
  6
CONTINUOUS
 90
5
 70
0
 10
-16.3703386393
 20
-6.461404283
 10
-16.3827531413
 20
-6.4678095608
 10
-16.3953806542
 20
-6.4744396638
 10
-16.4082085428
 20
-6.481270047
 10
-16.4344518861
 20
-6.4954202054
  0
LINE
  5
3A9
100
AcDbEntity
  8
RACCORDO
100
AcDbLine
 62
7
  6
CONTINUOUS
 10
-16.3608978622
 20
-7.4959080131
 11
-16.35635827
 21
-7.4935943017
  0
LINE
  5
3AA
100
AcDbEntity
  8
RACCORDO
100
AcDbLine
 62
7
  6
CONTINUOUS
 10
-15.5998306354
 20
-6.0746290448
 11
-16.3666553568
 21
-6.4595323817
  0
LINE
  5
3AB
100
AcDbEntity
  8
RACCORDO
100
AcDbLine
 62
7
  6
CONTINUOUS
 10
-15.5998306354
 20
-7.1138595293
 11
-16.35635827
 21
-7.4935943017
  0
LINE
  5
3AC
100
AcDbEntity
  8
0
100
AcDbLine
 62
7
  6
CONTINUOUS
 10
-15.3452721941
 20
-5.6981848854
 11
-14.2846120224
 21
-5.1678547995
  0
LINE
  5
3AD
100
AcDbEntity
  8
0
100
AcDbLine
 62
7
  6
CONTINUOUS
 10
-15.3452721941
 20
-6.4776077488
 11
-14.2846120224
 21
-5.9472776629
  0
LINE
  5
3AE
100
AcDbEntity
  8
RACCORDO
100
AcDbLine
 62
253
  6
CONTINUOUS
 10
7.1516477883
 20
5.2261146153
 11
21.5162880101
 21
12.3510820629
  0
LWPOLYLINE
  5
3AF
100
AcDbEntity
  8
RACCORDO
100
AcDbPolyline
 62
7
  6
CONTINUOUS
 90
34
 70
0
 10
-0.5140869999
 20
15.2226695378
 10
-0.5147792421
 20
15.2412392941
 10
-0.5161755233
 20
15.2601331109
 10
-0.5182735435
 20
15.2793075988
 10
-0.5210702636
 20
15.2987181698
 10
-0.5245593315
 20
15.3183208961
 10
-0.5287311559
 20
15.3380726257
 10
-0.5335773104
 20
15.3579280709
 10
-0.539087566
 20
15.3778418599
 10
-0.5452474318
 20
15.3977704116
 10
-0.5520437842
 20
15.4176682111
 10
-0.5594621959
 20
15.4374897475
 10
-0.5674841364
 20
15.4571915733
 10
-0.5760922501
 20
15.4767287361
 10
-0.5852679915
 20
15.4960565839
 10
-0.5949891099
 20
15.5151326762
 10
-0.6052343464
 20
15.5339135114
 10
-0.6159814145
 20
15.5523561695
 10
-0.6272047726
 20
15.5704200609
 10
-0.638879674
 20
15.5880639912
 10
-0.6509805293
 20
15.6052476184
 10
-0.6634790063
 20
15.6219330097
 10
-0.6763473542
 20
15.6380820921
 10
-0.6895571829
 20
15.6536578981
 10
-0.7030779259
 20
15.6686259085
 10
-0.7168793709
 20
15.6829519246
 10
-0.7309308842
 20
15.6966030877
 10
-0.7452002702
 20
15.7095489856
 10
-0.7596493544
 20
15.7217551016
 10
-0.7742518229
 20
15.7331988655
 10
-0.7889931575
 20
15.7438672417
 10
-0.8038467006
 20
15.7537366306
 10
-0.8187730617
 20
15.7627762796
 10
-0.8337384425
 20
15.7709619535
  0
LWPOLYLINE
  5
3B0
100
AcDbEntity
  8
ASSI
100
AcDbPolyline
 62
7
  6
CONTINUOUS
 90
6
 70
0
 10
0.1723564841
 20
21.86453805
 10
0.1723210208
 20
21.865557006
 10
0.1715850431
 20
21.8690221937
 10
0.1699371413
 20
21.871876756
 10
0.1674211405
 20
21.874170028
 10
0.1655408531
 20
21.8752718979
  0
LWPOLYLINE
  5
3B1
100
AcDbEntity
  8
RACCORDO
100
AcDbPolyline
 62
253
  6
CONTINUOUS
 90
31
 70
0
 10
-0.3283870759
 20
17.648009337
 10
-0.3285772288
 20
17.6594874567
 10
-0.3292541828
 20
17.6711749594
 10
-0.3304160826
 20
17.6830398119
 10
-0.3320597436
 20
17.6950494949
 10
-0.3341806608
 20
17.7071710919
 10
-0.3367730212
 20
17.7193713801
 10
-0.3398297196
 20
17.7316169208
 10
-0.3433423782
 20
17.7438741511
 10
-0.3473013695
 20
17.7561094764
 10
-0.3516958425
 20
17.7682893618
 10
-0.3565137529
 20
17.7803804247
 10
-0.3617418956
 20
17.7923495257
 10
-0.3673659414
 20
17.8041638596
 10
-0.3733704757
 20
17.8157910458
 10
-0.3797390413
 20
17.8271992161
 10
-0.3864541831
 20
17.838357103
 10
-0.3934974962
 20
17.8492341248
 10
-0.4008496762
 20
17.8598004696
 10
-0.408490572
 20
17.870027177
 10
-0.4163992416
 20
17.8798862175
 10
-0.4245540086
 20
17.8893505695
 10
-0.4329325224
 20
17.8983942928
 10
-0.4415118191
 20
17.9069926003
 10
-0.4502683844
 20
17.9151219257
 10
-0.4591782182
 20
17.9227599879
 10
-0.4682169003
 20
17.9298858526
 10
-0.4773596575
 20
17.9364799891
 10
-0.4865814311
 20
17.9425243239
 10
-0.4958569459
 20
17.9480022909
 10
-0.5051607796
 20
17.9528988759
  0
LINE
  5
3B2
100
AcDbEntity
  8
ASSI
100
AcDbLine
 62
253
  6
CONTINUOUS
 10
0.0487624402
 20
21.8555099464
 11
0.0487624402
 21
20.6284599792
  0
LINE
  5
3B3
100
AcDbEntity
  8
ASSI
100
AcDbLine
 62
7
  6
CONTINUOUS
 10
0.1723565041
 20
21.8643081931
 11
0.1723565041
 21
20.7766235999
  0
LINE
  5
3B4
100
AcDbEntity
  8
RACCORDO
100
AcDbLine
 62
7
  6
CONTINUOUS
 10
0.2040059242
 20
15.5618532359
 11
0.2040059242
 21
-22.4413982228
  0
LWPOLYLINE
  5
3B5
100
AcDbEntity
  8
RACCORDO
100
AcDbPolyline
 62
7
  6
CONTINUOUS
 90
20
 70
0
 10
-0.514075422
 20
-22.7956630887
 10
-0.514767734
 20
-22.8141926483
 10
-0.5161641616
 20
-22.8323106007
 10
-0.5182624047
 20
-22.8499765461
 10
-0.5210594544
 20
-22.8671514268
 10
-0.5245489276
 20
-22.8837967146
 10
-0.5287211405
 20
-22.8998744487
 10
-0.5335676315
 20
-22.9153489045
 10
-0.5390782071
 20
-22.9301856315
 10
-0.5452383901
 20
-22.9443505401
 10
-0.5520350601
 20
-22.957812107
 10
-0.5594537867
 20
-22.9705404647
 10
-0.5674760429
 20
-22.9825062759
 10
-0.5760844738
 20
-22.9936829132
 10
-0.5852605333
 20
-23.0040455986
 10
-0.594981973
 20
-23.0135703092
 10
-0.605227534
 20
-23.0222358305
 10
-0.6159749298
 20
-23.0300229675
 10
-0.6271986209
 20
-23.036913488
 10
-0.6352363352
 20
-23.0411511428
  0
LWPOLYLINE
  5
3B6
100
AcDbEntity
  8
RACCORDO
100
AcDbPolyline
 62
253
  6
CONTINUOUS
 90
16
 70
0
 10
-0.2561892189
 20
-24.2587852004
 10
-0.2564904894
 20
-24.2649200325
 10
-0.257470208
 20
-24.2714229807
 10
-0.259126897
 20
-24.2778915449
 10
-0.2614560485
 20
-24.2843081116
 10
-0.2644513288
 20
-24.2906552228
 10
-0.2681045877
 20
-24.2969155996
 10
-0.2724058857
 20
-24.3030722027
 10
-0.2773435183
 20
-24.3091082732
 10
-0.2829040436
 20
-24.3150073756
 10
-0.2890723327
 20
-24.3207534571
 10
-0.295831594
 20
-24.3263308727
 10
-0.3031634078
 20
-24.331724425
 10
-0.311047806
 20
-24.3369194294
 10
-0.3194633317
 20
-24.3419017529
 10
-0.3283870759
 20
-24.3466578358
  0
LWPOLYLINE
  5
3B7
100
AcDbEntity
  8
RACCORDO
100
AcDbPolyline
 62
253
  6
CONTINUOUS
 90
16
 70
0
 10
-0.2561892189
 20
-23.9112536869
 10
-0.2564924399
 20
-23.9174083312
 10
-0.2574739457
 20
-23.9239098404
 10
-0.2591321235
 20
-23.9303769164
 10
-0.261462462
 20
-23.9367919645
 10
-0.2644586212
 20
-23.9431375313
 10
-0.2681124494
 20
-23.9493963528
 10
-0.2724140058
 20
-23.9555514006
 10
-0.2773515873
 20
-23.961585929
 10
-0.2829117604
 20
-23.96748352
 10
-0.2890793976
 20
-23.9732281282
 10
-0.2958377189
 20
-23.9788041245
 10
-0.3031683372
 20
-23.9841963383
 10
-0.3110513081
 20
-23.9893900993
 10
-0.3194651848
 20
-23.9943712769
 10
-0.3283870759
 20
-23.9991263191
  0
LINE
  5
3B8
100
AcDbEntity
  8
0
100
AcDbLine
 62
7
  6
CONTINUOUS
 10
7.9468251781
 20
10.1492594456
 11
7.1516477883
 21
9.0860139954
  0
LWPOLYLINE
  5
3B9
100
AcDbEntity
  8
ASSI
100
AcDbPolyline
 62
7
  6
CONTINUOUS
 90
10
 70
0
 10
9.8766106486
 20
11.1141521808
 10
9.8555537941
 20
11.0896801203
 10
9.8305092176
 20
11.0667001071
 10
9.8014769193
 20
11.0452121413
 10
9.7681223566
 20
11.0250489517
 10
9.730780072
 20
11.0063778094
 10
9.6904536927
 20
10.989700528
 10
9.6474777611
 20
10.9751843788
 10
9.6015177347
 20
10.9626620906
 10
9.5525736137
 20
10.9521336634
  0
LWPOLYLINE
  5
3BA
100
AcDbEntity
  8
ASSI
100
AcDbPolyline
 62
7
  6
CONTINUOUS
 90
10
 70
0
 10
13.4121445545
 20
12.8819191338
 10
13.3910877
 20
12.8574470733
 10
13.3660431235
 20
12.8344670601
 10
13.3370108252
 20
12.8129790943
 10
13.3036562625
 20
12.7928159046
 10
13.2663139779
 20
12.7741447623
 10
13.2259875986
 20
12.757467481
 10
13.183011667
 20
12.7429513318
 10
13.1370516406
 20
12.7304290436
 10
13.0881075196
 20
12.7199006163
  0
LWPOLYLINE
  5
3BB
100
AcDbEntity
  8
RACCORDO
100
AcDbPolyline
 62
7
  6
CONTINUOUS
 90
28
 70
0
 10
-13.1043155486
 20
-8.0944158284
 10
-13.1160562444
 20
-8.1011580091
 10
-13.127265494
 20
-8.1084972436
 10
-13.1379306624
 20
-8.1164089869
 10
-13.1480253231
 20
-8.1248771045
 10
-13.1575534708
 20
-8.1338694124
 10
-13.1665495396
 20
-8.1433374716
 10
-13.1750030682
 20
-8.1532558102
 10
-13.1829076679
 20
-8.1636030403
 10
-13.1903051361
 20
-8.1743376734
 10
-13.1971890405
 20
-8.1854358852
 10
-13.2035537792
 20
-8.1968783156
 10
-13.2094431914
 20
-8.2086321055
 10
-13.2148538562
 20
-8.2206760476
 10
-13.2197809781
 20
-8.2329927659
 10
-13.22426664
 20
-8.2455575457
 10
-13.2283094115
 20
-8.2583521596
 10
-13.2319053508
 20
-8.2713609768
 10
-13.2350926853
 20
-8.2845655624
 10
-13.2378710936
 20
-8.2979500606
 10
-13.2402375918
 20
-8.3115008035
 10
-13.242226036
 20
-8.3252047853
 10
-13.243836787
 20
-8.3390488121
 10
-13.2450675809
 20
-8.3530204091
 10
-13.2459477885
 20
-8.3671094546
 10
-13.2464780521
 20
-8.3813045834
 10
-13.2466568295
 20
-8.3955947067
 10
-13.2466351181
 20
-8.4014004198
  0
LWPOLYLINE
  5
3BC
100
AcDbEntity
  8
RACCORDO
100
AcDbPolyline
 62
7
  6
CONTINUOUS
 90
28
 70
0
 10
-12.3710800125
 20
-7.0847881423
 10
-12.3828221639
 20
-7.0914837008
 10
-12.3940341269
 20
-7.0987775918
 10
-12.4047032187
 20
-7.1066452949
 10
-12.4148029634
 20
-7.1150706942
 10
-12.4243373075
 20
-7.1240216242
 10
-12.4333406383
 20
-7.1334496631
 10
-12.4418024426
 20
-7.1433293548
 10
-12.449716283
 20
-7.1536393091
 10
-12.4571239156
 20
-7.1643380245
 10
-12.464018858
 20
-7.1754016807
 10
-12.4703954614
 20
-7.1868109101
 10
-12.4762975323
 20
-7.198532821
 10
-12.4817216039
 20
-7.2105462028
 10
-12.4866628368
 20
-7.2228336687
 10
-12.4911632903
 20
-7.2353704633
 10
-12.4952214929
 20
-7.2481383504
 10
-12.4988334629
 20
-7.2611216875
 10
-12.502037411
 20
-7.2743019984
 10
-12.5048329794
 20
-7.2876634163
 10
-12.5072171483
 20
-7.3011922604
 10
-12.5092237636
 20
-7.3148754858
 10
-12.510853155
 20
-7.3286998859
 10
-12.5121030254
 20
-7.3426529736
 10
-12.5130027392
 20
-7.3567245936
 10
-12.5135529109
 20
-7.3709033678
 10
-12.5137519689
 20
-7.3851781949
 10
-12.512174376
 20
-7.6580283697
  0
LINE
  5
3BD
100
AcDbEntity
  8
RACCORDO
100
AcDbLine
 62
7
  6
CONTINUOUS
 10
-13.1043153223
 20
-8.0944157084
 11
-13.100695997
 21
-8.0925120616
  0
LINE
  5
3BE
100
AcDbEntity
  8
RACCORDO
100
AcDbLine
 62
7
  6
CONTINUOUS
 10
-11.6046773217
 20
-6.6865650556
 11
-12.3685827694
 21
-7.0834796152
  0
LINE
  5
3BF
100
AcDbEntity
  8
RACCORDO
100
AcDbLine
 62
7
  6
CONTINUOUS
 10
-12.5113641836
 20
-7.7863035146
 11
-13.100695997
 21
-8.0925120616
  0
LINE
  5
3C0
100
AcDbEntity
  8
0
100
AcDbLine
 62
7
  6
CONTINUOUS
 10
-11.5693219826
 20
-6.2005193451
 11
-10.5419809297
 21
-5.6868488186
  0
LINE
  5
3C1
100
AcDbEntity
  8
0
100
AcDbLine
 62
7
  6
CONTINUOUS
 10
-12.4602765269
 20
-7.140682719
 11
-12.4213553398
 21
-7.1212221254
  0
LINE
  5
3C2
100
AcDbEntity
  8
0
100
AcDbLine
 62
7
  6
CONTINUOUS
 10
-11.5783592609
 20
-6.699724086
 11
-11.5693219826
 21
-6.6952054469
  0
LWPOLYLINE
  5
3C3
100
AcDbEntity
  8
RACCORDO
100
AcDbPolyline
 62
253
  6
CONTINUOUS
 90
14
 70
0
 10
-13.6927052403
 20
23.9826369025
 10
-13.6883575496
 20
23.975283805
 10
-13.6845073034
 20
23.9681907654
 10
-13.6811650166
 20
23.9613771547
 10
-13.6783398189
 20
23.9548615856
 10
-13.6760394229
 20
23.9486618463
 10
-13.6742701073
 20
23.9427948542
 10
-13.673036706
 20
23.9372766241
 10
-13.6723425952
 20
23.9321222404
 10
-13.6721896742
 20
23.9273457979
 10
-13.6725783582
 20
23.9229603458
 10
-13.6735075836
 20
23.9189778527
 10
-13.6749748127
 20
23.9154091908
 10
-13.6769442105
 20
23.9123141264
  0
LINE
  5
3C4
100
AcDbEntity
  8
RACCORDO
100
AcDbLine
 62
7
  6
CONTINUOUS
 10
21.5162880101
 20
7.3903565547
 11
7.9323057668
 21
0.2884738028
  0
LINE
  5
3C5
100
AcDbEntity
  8
0
100
AcDbLine
 62
7
  6
CONTINUOUS
 10
12.1541105262
 20
1.1034878895
 11
14.3461415479
 21
2.1995034003
  0
LINE
  5
3C6
100
AcDbEntity
  8
0
100
AcDbLine
 62
7
  6
CONTINUOUS
 10
15.6896444321
 20
2.8712548425
 11
17.8816754538
 21
3.9672703533
  0
LWPOLYLINE
  5
3C7
100
AcDbEntity
  8
ASSI
100
AcDbPolyline
 62
7
  6
CONTINUOUS
 90
24
 70
0
 10
7.3104290751
 20
-0.3494722233
 10
7.354117964
 20
-0.368994692
 10
7.4005226156
 20
-0.3858521684
 10
7.4496430299
 20
-0.4000446526
 10
7.5020725318
 20
-0.4116685362
 10
7.5572177963
 20
-0.4206274275
 10
7.613298849
 20
-0.4266321522
 10
7.6703462235
 20
-0.4295863188
 10
7.728329386
 20
-0.4295863188
 10
7.7853767605
 20
-0.4266321522
 10
7.8414578131
 20
-0.4206274275
 10
7.8966030777
 20
-0.4116685362
 10
7.9490325796
 20
-0.4000446526
 10
7.9986577062
 20
-0.3856688209
 10
8.0455670701
 20
-0.368627997
 10
8.0882465344
 20
-0.3494722233
 10
8.1265580818
 20
-0.3281324912
 10
8.1606397296
 20
-0.3046778092
 10
8.189391393
 20
-0.2798652459
 10
8.2126391601
 20
-0.253650495
 10
8.2305569427
 20
-0.2260778627
 10
8.2425663921
 20
-0.1980373364
 10
8.2484747253
 20
-0.1695136491
 10
8.2492132669
 20
-0.1550178585
  0
LWPOLYLINE
  5
3C8
100
AcDbEntity
  8
ASSI
100
AcDbPolyline
 62
7
  6
CONTINUOUS
 90
10
 70
0
 10
8.0882465344
 20
0.0394365063
 10
8.0445576455
 20
0.058958975
 10
7.9981529939
 20
0.0758164514
 10
7.9490325796
 20
0.0900089357
 10
7.8966030777
 20
0.1016328192
 10
7.8414578131
 20
0.1105917105
 10
7.7853767605
 20
0.1165964352
 10
7.728329386
 20
0.1195506018
 10
7.6703462235
 20
0.1195506018
 10
7.6688456259
 20
0.1194728942
  0
LWPOLYLINE
  5
3C9
100
AcDbEntity
  8
ASSI
100
AcDbPolyline
 62
7
  6
CONTINUOUS
 90
3
 70
0
 10
7.238100436
 20
-0.3047222362
 10
7.2713841378
 20
-0.3276277789
 10
7.3104290751
 20
-0.3494722233
  0
LINE
  5
3CA
100
AcDbEntity
  8
0
100
AcDbLine
 62
253
  6
CONTINUOUS
 10
7.9323057668
 20
-3.2024537732
 11
7.1516477883
 21
-2.5535163955
  0
LINE
  5
3CB
100
AcDbEntity
  8
RACCORDO
100
AcDbLine
 62
253
  6
CONTINUOUS
 10
4.7597186831
 20
19.6827384884
 11
4.7597186831
 21
19.1854085315
  0
LINE
  5
3CC
100
AcDbEntity
  8
RACCORDO
100
AcDbLine
 62
253
  6
CONTINUOUS
 10
4.7597186831
 20
-17.3776809159
 11
4.7597186831
 21
-17.6706266768
  0
LINE
  5
3CD
100
AcDbEntity
  8
RACCORDO
100
AcDbLine
 62
7
  6
CONTINUOUS
 10
4.9000487829
 20
19.9832429971
 11
4.9000487829
 21
19.3616726051
  0
LINE
  5
3CE
100
AcDbEntity
  8
RACCORDO
100
AcDbLine
 62
7
  6
CONTINUOUS
 10
4.9000487829
 20
-17.3034720475
 11
4.9000487829
 21
-17.6238020002
  0
LINE
  5
3CF
100
AcDbEntity
  8
RACCORDO
100
AcDbLine
 62
7
  6
CONTINUOUS
 10
19.8615744411
 20
4.5929516127
 11
7.1516477883
 21
-2.0109480652
  0
LINE
  5
3D0
100
AcDbEntity
  8
RACCORDO
100
AcDbLine
 62
7
  6
CONTINUOUS
 10
21.5162880101
 20
3.7622888698
 11
7.9323057668
 21
-3.2024537732
  0
LINE
  5
3D1
100
AcDbEntity
  8
0
100
AcDbLine
 62
7
  6
CONTINUOUS
 10
18.5160651643
 20
3.4798711187
 11
7.1516477883
 21
-2.2126863278
  0
LINE
  5
3D2
100
AcDbEntity
  8
0
100
AcDbLine
 62
7
  6
CONTINUOUS
 10
18.5160651643
 20
3.4798711187
 11
20.3054407295
 21
4.3710184685
  0
LINE
  5
3D3
100
AcDbEntity
  8
0
100
AcDbLine
 62
7
  6
CONTINUOUS
 10
18.5160651643
 20
3.4798711187
 11
21.3111433426
 21
4.8475358908
  0
LINE
  5
3D4
100
AcDbEntity
  8
0
100
AcDbLine
 62
7
  6
CONTINUOUS
 10
9.1131582682
 20
0.9058388628
 11
10.9743191958
 21
-0.024741601
  0
LINE
  5
3D5
100
AcDbEntity
  8
RACCORDO
100
AcDbLine
 62
253
  6
CONTINUOUS
 10
-22.2181769821
 20
18.4534196363
 11
-7.3933309044
 21
11.0409965975
  0
LINE
  5
3D6
100
AcDbEntity
  8
0
100
AcDbLine
 62
7
  6
CONTINUOUS
 10
12.5430192559
 20
1.2979422543
 11
13.0408775142
 21
1.0490131252
  0
LINE
  5
3D7
100
AcDbEntity
  8
0
100
AcDbLine
 62
7
  6
CONTINUOUS
 10
13.0548895332
 20
1.0562935738
 11
12.557305714
 21
1.3050854834
  0
LWPOLYLINE
  5
3D8
100
AcDbEntity
  8
ASSI
100
AcDbPolyline
 62
7
  6
CONTINUOUS
 90
9
 70
0
 10
8.2492132669
 20
-0.1550178585
 10
8.2484747253
 20
-0.1405220679
 10
8.2425663921
 20
-0.1119983806
 10
8.2305569427
 20
-0.0839578543
 10
8.2126391601
 20
-0.056385222
 10
8.189391393
 20
-0.0301704711
 10
8.1610064246
 20
-0.0056102639
 10
8.1272914717
 20
0.0175920619
 10
8.0882465344
 20
0.0394365063
  0
LWPOLYLINE
  5
3D9
100
AcDbEntity
  8
ASSI
100
AcDbPolyline
 62
7
  6
CONTINUOUS
 90
12
 70
0
 10
7.2222335761
 20
14.9399078882
 10
7.2234446947
 20
14.9070696356
 10
7.2331336436
 20
14.8419389716
 10
7.2526734893
 20
14.7773632723
 10
7.2819022838
 20
14.7133334142
 10
7.3203341828
 20
14.6509137089
 10
7.3681230136
 20
14.5901310697
 10
7.4251149489
 20
14.5309585831
 10
7.4903626622
 20
14.4743798212
 10
7.5635503781
 20
14.4207226411
 10
7.6449938719
 20
14.3696591856
 10
7.7097852945
 20
14.3346486135
  0
LINE
  5
3DA
100
AcDbEntity
  8
RACCORDO
100
AcDbLine
 62
7
  6
CONTINUOUS
 10
7.1516477883
 20
-15.0840512019
 11
7.1516477883
 21
15.3989999746
  0
LINE
  5
3DB
100
AcDbEntity
  8
DRAFT
100
AcDbLine
 62
7
  6
CONTINUOUS
 10
8.4575530444
 20
16.5411182026
 11
8.4575530444
 21
16.1321883063
  0
LWPOLYLINE
  5
3DC
100
AcDbEntity
  8
RACCORDO
100
AcDbPolyline
 62
253
  6
CONTINUOUS
 90
31
 70
0
 10
-0.3283870759
 20
-23.9991263191
 10
-0.3240439346
 20
-23.9869027382
 10
-0.3201961256
 20
-23.9744695478
 10
-0.3168545569
 20
-23.9618604886
 10
-0.3140285326
 20
-23.9491086448
 10
-0.3117265327
 20
-23.9362498859
 10
-0.3099557002
 20
-23.9233228522
 10
-0.3087209692
 20
-23.9103641588
 10
-0.3080255063
 20
-23.897407896
 10
-0.3078712135
 20
-23.884489125
 10
-0.3082585634
 20
-23.8716429197
 10
-0.3091865452
 20
-23.8589045878
 10
-0.3106526214
 20
-23.8463092423
 10
-0.3126527671
 20
-23.833891398
 10
-0.31518153
 20
-23.8216848575
 10
-0.3182320112
 20
-23.8097229329
 10
-0.3217958886
 20
-23.7980382799
 10
-0.3258634269
 20
-23.7866628355
 10
-0.3304235082
 20
-23.7756276992
 10
-0.3354636728
 20
-23.7649630208
 10
-0.3409701574
 20
-23.7546979209
 10
-0.3469279215
 20
-23.7448604378
 10
-0.3533207019
 20
-23.7354774279
 10
-0.3601310288
 20
-23.7265745351
 10
-0.3673402666
 20
-23.7181761137
 10
-0.3749286961
 20
-23.7103051184
 10
-0.3828756062
 20
-23.7029830147
 10
-0.391159323
 20
-23.6962297661
 10
-0.3997572336
 20
-23.6900638091
 10
-0.4086458423
 20
-23.6845019945
 10
-0.4178008712
 20
-23.6795595131
  0
LINE
  5
3DD
100
AcDbEntity
  8
0
100
AcDbLine
 62
7
  6
CONTINUOUS
 10
13.250126037
 20
1.6514956449
 11
13.73440096
 21
1.4093581834
  0
LINE
  5
3DE
100
AcDbEntity
  8
0
100
AcDbLine
 62
7
  6
CONTINUOUS
 10
14.3461415479
 20
2.1995034003
 11
14.809362301
 21
1.9678930238
  0
LINE
  5
3DF
100
AcDbEntity
  8
RACCORDO
100
AcDbLine
 62
253
  6
CONTINUOUS
 10
-21.225610972
 20
20.2052237922
 11
-6.3773925113
 21
12.7811145618
  0
LWPOLYLINE
  5
3E0
100
AcDbEntity
  8
RACCORDO
100
AcDbPolyline
 62
253
  6
CONTINUOUS
 90
14
 70
0
 10
-0.3283870759
 20
17.3004778203
 10
-0.3240439346
 20
17.2931327392
 10
-0.3201961256
 20
17.2860451904
 10
-0.3168545569
 20
17.2792347214
 10
-0.3140285326
 20
17.2727195627
 10
-0.3117265327
 20
17.2665183979
 10
-0.3099557002
 20
17.2606500133
 10
-0.3087209692
 20
17.2551309757
 10
-0.3080255063
 20
17.249975749
 10
-0.3078712135
 20
17.2451982974
 10
-0.3082585634
 20
17.2408116275
 10
-0.3091865452
 20
17.2368278324
 10
-0.3106526214
 20
17.2332579072
 10
-0.3126527671
 20
17.2301116292
  0
LINE
  5
3E1
100
AcDbEntity
  8
SMUSSO
100
AcDbLine
 62
7
  6
CONTINUOUS
 10
11.1201665351
 20
17.877737504
 11
11.1201665351
 21
18.228792347
  0
LWPOLYLINE
  5
3E2
100
AcDbEntity
  8
ASSI
100
AcDbPolyline
 62
7
  6
CONTINUOUS
 90
32
 70
0
 10
9.4142645978
 20
10.3083584714
 10
9.4154757164
 20
10.341196724
 10
9.4251646652
 20
10.406327388
 10
9.444704511
 20
10.4709030872
 10
9.4739333055
 20
10.5349329453
 10
9.5123652045
 20
10.5973526506
 10
9.5601540353
 20
10.6581352899
 10
9.6171459706
 20
10.7173077764
 10
9.6823936839
 20
10.7738865383
 10
9.7560351683
 20
10.8278282223
 10
9.8379324307
 20
10.8791761817
 10
9.9267241655
 20
10.9270769049
 10
10.0225256119
 20
10.9714727723
 10
10.1252215307
 20
11.0124214035
 10
10.2331048986
 20
11.0492421457
 10
10.3462624225
 20
11.0818660024
 10
10.4646073956
 20
11.11036197
 10
10.5861726741
 20
11.1342563854
 10
10.7110120847
 20
11.1534723349
 10
10.8390718009
 20
11.1680867322
 10
10.9682231994
 20
11.177856655
 10
11.0984845274
 20
11.1827011294
 10
11.2298375377
 20
11.1827011294
 10
11.3600988657
 20
11.177856655
 10
11.4892502642
 20
11.1680867322
 10
11.6173099804
 20
11.1534723349
 10
11.742149391
 20
11.1342563854
 10
11.8637146695
 20
11.11036197
 10
11.9820596426
 20
11.0818660024
 10
12.0952171664
 20
11.0492421457
 10
12.2025315266
 20
11.0126482878
 10
12.2643788694
 20
10.9879874828
  0
LINE
  5
3E3
100
AcDbEntity
  8
0
100
AcDbLine
 62
7
  6
CONTINUOUS
 10
16.0785531618
 20
3.0657092073
 11
16.5084947432
 21
2.8507384166
  0
LINE
  5
3E4
100
AcDbEntity
  8
0
100
AcDbLine
 62
7
  6
CONTINUOUS
 10
16.5225067623
 20
2.8580188652
 11
16.0928396199
 21
3.0728524364
  0
LINE
  5
3E5
100
AcDbEntity
  8
0
100
AcDbLine
 62
7
  6
CONTINUOUS
 10
16.785659943
 20
3.4192625979
 11
17.202018189
 21
3.2110834748
  0
LINE
  5
3E6
100
AcDbEntity
  8
0
100
AcDbLine
 62
7
  6
CONTINUOUS
 10
11.8359124747
 20
0.4229301859
 11
11.8359124747
 21
2.3293302065
  0
LINE
  5
3E7
100
AcDbEntity
  8
0
100
AcDbLine
 62
7
  6
CONTINUOUS
 10
11.9066231528
 20
11.9170263986
 11
11.9066231528
 21
11.4927623299
  0
LINE
  5
3E8
100
AcDbEntity
  8
0
100
AcDbLine
 62
7
  6
CONTINUOUS
 10
12.1541105262
 20
0.5882614319
 11
12.1541105262
 21
2.4956882901
  0
LWPOLYLINE
  5
3E9
100
AcDbEntity
  8
ASSI
100
AcDbPolyline
 62
7
  6
CONTINUOUS
 90
33
 70
0
 10
12.9497985038
 20
12.0761254243
 10
12.9510096224
 20
12.1089636769
 10
12.9606985712
 20
12.1740943409
 10
12.9802384169
 20
12.2386700402
 10
13.0094672114
 20
12.3026998983
 10
13.0478991104
 20
12.3651196036
 10
13.0956879413
 20
12.4259022428
 10
13.1526798765
 20
12.4850747294
 10
13.2179275898
 20
12.5416534913
 10
13.2915690742
 20
12.5955951753
 10
13.3734663366
 20
12.6469431347
 10
13.4622580714
 20
12.6948438579
 10
13.5580595178
 20
12.7392397253
 10
13.6607554366
 20
12.7801883565
 10
13.7686388046
 20
12.8170090987
 10
13.8817963285
 20
12.8496329553
 10
14.0001413015
 20
12.878128923
 10
14.1217065801
 20
12.9020233384
 10
14.2465459907
 20
12.9212392879
 10
14.3746057068
 20
12.9358536851
 10
14.5037571053
 20
12.945623608
 10
14.6340184333
 20
12.9504680824
 10
14.7653714437
 20
12.9504680824
 10
14.8956327717
 20
12.945623608
 10
15.0247841701
 20
12.9358536851
 10
15.1528438863
 20
12.9212392879
 10
15.2776832969
 20
12.9020233384
 10
15.3992485755
 20
12.878128923
 10
15.5175935485
 20
12.8496329553
 10
15.6307510724
 20
12.8170090987
 10
15.7380654326
 20
12.7804152408
 10
15.8401923436
 20
12.7396934938
 10
15.9157889033
 20
12.7047182824
  0
LWPOLYLINE
  5
3EA
100
AcDbEntity
  8
ASSI
100
AcDbPolyline
 62
7
  6
CONTINUOUS
 90
24
 70
0
 10
13.9368408222
 20
3.4277228963
 10
13.9188455231
 20
3.3836493442
 10
13.8640397467
 20
3.2651920366
 10
13.8037535571
 20
3.1493472499
 10
13.7380770519
 20
3.0360720344
 10
13.6681019135
 20
2.9272492637
 10
13.5937562914
 20
2.8229533591
 10
13.5151120361
 20
2.7231098993
 10
13.4334763813
 20
2.6293784935
 10
13.3487993266
 20
2.5418613032
 10
13.2611308724
 20
2.4604561669
 10
13.1719282538
 20
2.3865162102
 10
13.0811658277
 20
2.3201662115
 10
12.9888692371
 20
2.2612813923
 10
12.8965726465
 20
2.2108405428
 10
12.8042760558
 20
2.1689848017
 10
12.7119794652
 20
2.1355730303
 10
12.6212170391
 20
2.1111606028
 10
12.5320144205
 20
2.095897941
 10
12.4443459663
 20
2.089634623
 10
12.3596689116
 20
2.0924747587
 10
12.2780332568
 20
2.1045705097
 10
12.1993890015
 20
2.1257697142
 10
12.1541105262
 20
2.1440102384
  0
LWPOLYLINE
  5
3EB
100
AcDbEntity
  8
RACCORDO
100
AcDbPolyline
 62
253
  6
CONTINUOUS
 90
31
 70
0
 10
-2.8104569981
 20
16.2423873032
 10
-2.8009980278
 20
16.2378983408
 10
-2.7910837514
 20
16.2336621163
 10
-2.7807411477
 20
16.2296901575
 10
-2.7699983772
 20
16.2259932781
 10
-2.758884658
 20
16.222581532
 10
-2.7474301807
 20
16.21946419
 10
-2.7356660753
 20
16.2166497312
 10
-2.7236243849
 20
16.2141458283
 10
-2.7113379306
 20
16.2119593085
 10
-2.6988401662
 20
16.2100961247
 10
-2.6861650834
 20
16.2085613434
 10
-2.673347175
 20
16.2073591414
 10
-2.6604213117
 20
16.2064927896
 10
-2.6474226785
 20
16.2059646467
 10
-2.6343866802
 20
16.2057761499
 10
-2.6213488123
 20
16.2059278092
 10
-2.6083445331
 20
16.2064192088
 10
-2.5954091986
 20
16.2072490115
 10
-2.582577893
 20
16.2084149712
 10
-2.5698856518
 20
16.2099139091
 10
-2.5573673227
 20
16.2117416966
 10
-2.5450571584
 20
16.2138932974
 10
-2.5329884276
 20
16.2163628607
 10
-2.5211936567
 20
16.2191437172
 10
-2.5097037942
 20
16.2222286273
 10
-2.4985513124
 20
16.2256089309
 10
-2.4877695026
 20
16.2292743721
 10
-2.4773883135
 20
16.2332143701
 10
-2.4674346013
 20
16.2374183176
 10
-2.4579350385
 20
16.2418745794
  0
LINE
  5
3EC
100
AcDbEntity
  8
0
100
AcDbLine
 62
7
  6
CONTINUOUS
 10
17.8816754538
 20
3.9672703533
 11
18.2769795301
 21
3.7696183152
  0
LINE
  5
3ED
100
AcDbEntity
  8
0
100
AcDbLine
 62
7
  6
CONTINUOUS
 10
9.1746632126
 20
9.5353404284
 11
7.9468251781
 21
10.1492594456
  0
LINE
  5
3EE
100
AcDbEntity
  8
RACCORDO
100
AcDbLine
 62
7
  6
CONTINUOUS
 10
-16.7967668881
 20
22.6237363022
 11
-15.4635545544
 21
21.9571301353
  0
LINE
  5
3EF
100
AcDbEntity
  8
RACCORDO
100
AcDbLine
 62
7
  6
CONTINUOUS
 10
-3.4324487237
 20
15.94157722
 11
-2.09923639
 21
15.2749710531
  0
LINE
  5
3F0
100
AcDbEntity
  8
0
100
AcDbLine
 62
7
  6
CONTINUOUS
 10
20.3211938489
 20
4.3631419089
 11
20.3054407295
 21
4.3710184685
  0
LINE
  5
3F1
100
AcDbEntity
  8
DRAFT
100
AcDbLine
 62
7
  6
CONTINUOUS
 10
19.8615744411
 20
4.5929516127
 11
20.3054407295
 21
4.3710184685
  0
LINE
  5
3F2
100
AcDbEntity
  8
RACCORDO
100
AcDbLine
 62
7
  6
CONTINUOUS
 10
-6.3387946986
 20
17.7709968321
 11
-11.8501017983
 21
20.526650382
  0
LINE
  5
3F3
100
AcDbEntity
  8
RACCORDO
100
AcDbLine
 62
7
  6
CONTINUOUS
 10
-17.4347865459
 20
23.4518202753
 11
-16.1098018661
 21
22.7893279353
  0
LINE
  5
3F4
100
AcDbEntity
  8
RACCORDO
100
AcDbLine
 62
7
  6
CONTINUOUS
 10
-4.0704683815
 20
16.769661193
 11
-2.7454837017
 21
16.1071688531
  0
LINE
  5
3F5
100
AcDbEntity
  8
RACCORDO
100
AcDbLine
 62
253
  6
CONTINUOUS
 10
-17.4997598424
 20
23.5870387254
 11
-16.1747751625
 21
22.9245463855
  0
LINE
  5
3F6
100
AcDbEntity
  8
RACCORDO
100
AcDbLine
 62
253
  6
CONTINUOUS
 10
-4.1354416779
 20
16.9048796431
 11
-2.8104569981
 21
16.2423873032
  0
LINE
  5
3F7
100
AcDbEntity
  8
RACCORDO
100
AcDbLine
 62
253
  6
CONTINUOUS
 10
-2.8104569981
 20
16.5823612374
 11
-4.1354416779
 21
17.2448535773
  0
LINE
  5
3F8
100
AcDbEntity
  8
RACCORDO
100
AcDbLine
 62
253
  6
CONTINUOUS
 10
-16.1747751625
 20
23.2645203196
 11
-17.4997598424
 21
23.9270126595
  0
LINE
  5
3F9
100
AcDbEntity
  8
RACCORDO
100
AcDbLine
 62
7
  6
CONTINUOUS
 10
-0.8337384425
 20
15.7709619535
 11
-0.8566542476
 21
15.782419856
  0
LINE
  5
3FA
100
AcDbEntity
  8
DRAFT
100
AcDbLine
 62
7
  6
CONTINUOUS
 10
-4.1821779047
 20
17.4451816846
 11
-5.27607163
 21
17.9921285473
  0
LINE
  5
3FB
100
AcDbEntity
  8
DRAFT
100
AcDbLine
 62
7
  6
CONTINUOUS
 10
-11.9965484077
 20
21.3523669361
 11
-14.2209724121
 21
22.4645789383
  0
LWPOLYLINE
  5
3FC
100
AcDbEntity
  8
RACCORDO
100
AcDbPolyline
 62
7
  6
CONTINUOUS
 90
22
 70
0
 10
-17.4347472366
 20
23.4518006321
 10
-17.44346633
 20
23.4563750566
 10
-17.4552741156
 20
23.4632971857
 10
-17.4666723391
 20
23.4708459984
 10
-17.4775863046
 20
23.4789636871
 10
-17.4880079474
 20
23.4876324638
 10
-17.4979826337
 20
23.4968908591
 10
-17.5074882778
 20
23.5067325079
 10
-17.5164644388
 20
23.5171078078
 10
-17.5248894879
 20
23.5280030942
 10
-17.5327265271
 20
23.5393840124
 10
-17.53994335
 20
23.5512164845
 10
-17.546522367
 20
23.5634886206
 10
-17.5524337817
 20
23.5761677855
 10
-17.5576457263
 20
23.5892094773
 10
-17.5621354863
 20
23.6025836889
 10
-17.5658771637
 20
23.6162451787
 10
-17.5688488626
 20
23.6301495979
 10
-17.5710335715
 20
23.6442664095
 10
-17.5724122944
 20
23.6585421554
 10
-17.5729706672
 20
23.6729291876
 10
-17.5729831459
 20
23.6754390757
  0
LWPOLYLINE
  5
3FD
100
AcDbEntity
  8
RACCORDO
100
AcDbPolyline
 62
7
  6
CONTINUOUS
 90
22
 70
0
 10
-4.0704290722
 20
16.7696415499
 10
-4.0791481655
 20
16.7742159744
 10
-4.0909559512
 20
16.7811381035
 10
-4.1023541746
 20
16.7886869161
 10
-4.1132681401
 20
16.7968046049
 10
-4.123689783
 20
16.8054733815
 10
-4.1336644693
 20
16.8147317769
 10
-4.1431701133
 20
16.8245734257
 10
-4.1521462743
 20
16.8349487256
 10
-4.1605713235
 20
16.845844012
 10
-4.1684083626
 20
16.8572249302
 10
-4.1756251856
 20
16.8690574023
 10
-4.1822042026
 20
16.8813295383
 10
-4.1881156173
 20
16.8940087033
 10
-4.1933275619
 20
16.9070503951
 10
-4.1978173219
 20
16.9204246067
 10
-4.2015589993
 20
16.9340860965
 10
-4.2045306982
 20
16.9479905157
 10
-4.206715407
 20
16.9621073273
 10
-4.2080941299
 20
16.9763830731
 10
-4.2086525027
 20
16.9907701054
 10
-4.2086649815
 20
16.9932799935
  0
LWPOLYLINE
  5
3FE
100
AcDbEntity
  8
RACCORDO
100
AcDbPolyline
 62
253
  6
CONTINUOUS
 90
16
 70
0
 10
-17.4997598424
 20
23.5870387254
 10
-17.5087377672
 20
23.5917682105
 10
-17.5172102162
 20
23.5967253487
 10
-17.5251541339
 20
23.6018966506
 10
-17.5325478927
 20
23.6072680358
 10
-17.5393713848
 20
23.6128248954
 10
-17.5456060688
 20
23.6185521341
 10
-17.5512349865
 20
23.6244341868
 10
-17.5562427923
 20
23.630455032
 10
-17.5606158318
 20
23.6365982591
 10
-17.5643421995
 20
23.6428471413
 10
-17.567411762
 20
23.6491846827
 10
-17.569816166
 20
23.6555936369
 10
-17.5715488696
 20
23.6620565686
 10
-17.5726051555
 20
23.6685558852
 10
-17.5729831471
 20
23.6754270743
  0
LWPOLYLINE
  5
3FF
100
AcDbEntity
  8
RACCORDO
100
AcDbPolyline
 62
253
  6
CONTINUOUS
 90
16
 70
0
 10
-17.4997598424
 20
23.9270126595
 10
-17.5087388292
 20
23.9317427342
 10
-17.5172122334
 20
23.9367005275
 10
-17.5251569877
 20
23.9418725464
 10
-17.5325514709
 20
23.9472447205
 10
-17.5393755434
 20
23.9528024233
 10
-17.5456106077
 20
23.95853051
 10
-17.5512396901
 20
23.9644133847
 10
-17.5562474748
 20
23.9704350383
 10
-17.560620329
 20
23.9765790746
 10
-17.5643463527
 20
23.9828287684
 10
-17.5674154085
 20
23.9891671093
 10
-17.5698191451
 20
23.9955768423
 10
-17.5715510259
 20
24.002040528
 10
-17.5726063378
 20
24.0085405656
 10
-17.5729831471
 20
24.0154010101
  0
LWPOLYLINE
  5
400
100
AcDbEntity
  8
RACCORDO
100
AcDbPolyline
 62
253
  6
CONTINUOUS
 90
16
 70
0
 10
-4.1354416779
 20
16.9048796431
 10
-4.1444196028
 20
16.9096091283
 10
-4.1528920517
 20
16.9145662665
 10
-4.1608359695
 20
16.9197375684
 10
-4.1682297282
 20
16.9251089536
 10
-4.1750532204
 20
16.9306658132
 10
-4.1812879044
 20
16.9363930519
 10
-4.1869168221
 20
16.9422751046
 10
-4.1919246279
 20
16.9482959498
 10
-4.1962976673
 20
16.9544391769
 10
-4.2000240351
 20
16.9606880591
 10
-4.2030935976
 20
16.9670256005
 10
-4.2054980016
 20
16.9734345547
 10
-4.2072307052
 20
16.9798974864
 10
-4.2082869911
 20
16.9863968029
 10
-4.2086649826
 20
16.993267992
  0
LWPOLYLINE
  5
401
100
AcDbEntity
  8
RACCORDO
100
AcDbPolyline
 62
253
  6
CONTINUOUS
 90
16
 70
0
 10
-4.1354416779
 20
17.2448535773
 10
-4.1444187451
 20
17.2495825864
 10
-4.1528904378
 20
17.2545392049
 10
-4.1608337071
 20
17.2597099474
 10
-4.1682269422
 20
17.2650807462
 10
-4.1750500284
 20
17.2706369891
 10
-4.1812844024
 20
17.2763635593
 10
-4.1869131026
 20
17.2822448767
 10
-4.1919208151
 20
17.2882649402
 10
-4.1962939155
 20
17.2944073712
 10
-4.2000205062
 20
17.3006554582
 10
-4.2030904482
 20
17.3069922023
 10
-4.2054953894
 20
17.3134003631
 10
-4.2072287866
 20
17.3198625063
 10
-4.2082859238
 20
17.3263610504
 10
-4.2086649826
 20
17.3332419249
  0
LWPOLYLINE
  5
402
100
AcDbEntity
  8
ASSI
100
AcDbPolyline
 62
7
  6
CONTINUOUS
 90
10
 70
0
 10
9.7395512097
 20
9.8009256719
 10
9.6823936839
 20
9.8428304044
 10
9.6171459706
 20
9.8994091664
 10
9.5601540353
 20
9.9585816529
 10
9.5123652045
 20
10.0193642922
 10
9.4739333055
 20
10.0817839975
 10
9.444704511
 20
10.1458138555
 10
9.4251646652
 20
10.2103895548
 10
9.4154757164
 20
10.2755202188
 10
9.4142645978
 20
10.3083584714
  0
LINE
  5
403
100
AcDbEntity
  8
0
100
AcDbLine
 62
7
  6
CONTINUOUS
 10
14.3461415479
 20
3.6417106439
 11
14.3461415479
 21
2.1995034003
  0
LINE
  5
404
100
AcDbEntity
  8
0
100
AcDbLine
 62
7
  6
CONTINUOUS
 10
15.0532483291
 20
2.0946127843
 11
15.0532483291
 21
4.0113952742
  0
LINE
  5
405
100
AcDbEntity
  8
0
100
AcDbLine
 62
7
  6
CONTINUOUS
 10
15.6896444321
 20
2.4252752763
 11
15.6896444321
 21
4.3441114414
  0
LWPOLYLINE
  5
406
100
AcDbEntity
  8
ASSI
100
AcDbPolyline
 62
7
  6
CONTINUOUS
 90
25
 70
0
 10
17.5125797853
 20
5.2971657749
 10
17.5037948898
 20
5.2724431759
 10
17.454379429
 20
5.1514162972
 10
17.3995736526
 20
5.0329589896
 10
17.339287463
 20
4.9171142029
 10
17.2736109579
 20
4.8038389874
 10
17.2036358194
 20
4.6950162167
 10
17.1292901973
 20
4.5907203121
 10
17.050645942
 20
4.4908768522
 10
16.9690102872
 20
4.3971454465
 10
16.8843332325
 20
4.3096282561
 10
16.7966647783
 20
4.2282231199
 10
16.7074621598
 20
4.1542831632
 10
16.6166997336
 20
4.0879331645
 10
16.524403143
 20
4.0290483453
 10
16.4321065524
 20
3.9786074958
 10
16.3398099618
 20
3.9367517547
 10
16.2475133712
 20
3.9033399832
 10
16.156750945
 20
3.8789275558
 10
16.0675483264
 20
3.8636648939
 10
15.9798798723
 20
3.857401576
 10
15.8952028176
 20
3.8602417117
 10
15.8135671628
 20
3.8723374626
 10
15.7349229074
 20
3.8935366671
 10
15.6896444321
 20
3.9117771914
  0
LINE
  5
407
100
AcDbEntity
  8
RACCORDO
100
AcDbLine
 62
253
  6
CONTINUOUS
 10
-2.0997506184
 20
-24.0804632448
 11
-2.7220686505
 21
-24.8255226623
  0
LINE
  5
408
100
AcDbEntity
  8
RACCORDO
100
AcDbLine
 62
253
  6
CONTINUOUS
 10
-1.7467144304
 20
-24.2062330829
 11
-2.4579350385
 21
-25.05772956
  0
LINE
  5
409
100
AcDbEntity
  8
RACCORDO
100
AcDbLine
 62
7
  6
CONTINUOUS
 10
-2.684778532
 20
16.0860534186
 11
-2.0591718383
 21
15.9554320223
  0
LINE
  5
40A
100
AcDbEntity
  8
RACCORDO
100
AcDbLine
 62
253
  6
CONTINUOUS
 10
-2.4579350385
 20
16.2418745794
 11
-1.7467144304
 21
16.0933710565
  0
LWPOLYLINE
  5
40B
100
AcDbEntity
  8
RACCORDO
100
AcDbPolyline
 62
7
  6
CONTINUOUS
 90
10
 70
0
 10
-2.684778532
 20
16.0860534186
 10
-2.6923201041
 20
16.0877501932
 10
-2.6998232792
 20
16.0896841614
 10
-2.7072773735
 20
16.091854176
 10
-2.7146878249
 20
16.0942639571
 10
-2.7220264568
 20
16.0969061209
 10
-2.7292356882
 20
16.0997579712
 10
-2.7362934302
 20
16.1028051575
 10
-2.7432088889
 20
16.1060458387
 10
-2.7454943348
 20
16.1071741705
  0
LWPOLYLINE
  5
40C
100
AcDbEntity
  8
RACCORDO
100
AcDbPolyline
 62
253
  6
CONTINUOUS
 90
15
 70
0
 10
-3.959693422
 20
17.5492303922
 10
-3.9689992949
 20
17.5535336951
 10
-3.9782768503
 20
17.5572329618
 10
-3.9875006486
 20
17.5603180448
 10
-3.9966454062
 20
17.5627804831
 10
-4.0056860381
 20
17.5646135173
 10
-4.0145977283
 20
17.5658121146
 10
-4.0233560352
 20
17.5663729898
 10
-4.0319369491
 20
17.5662946072
 10
-4.0403169335
 20
17.5655771844
 10
-4.0484730097
 20
17.564222692
 10
-4.0563828163
 20
17.5622348474
 10
-4.064024663
 20
17.5596191056
 10
-4.071377606
 20
17.5563826386
 10
-4.0727719301
 20
17.5556820392
  0
LWPOLYLINE
  5
40D
100
AcDbEntity
  8
RACCORDO
100
AcDbPolyline
 62
253
  6
CONTINUOUS
 90
15
 70
0
 10
-17.3240115864
 20
24.2313894745
 10
-17.33331542
 20
24.2356918992
 10
-17.3425909349
 20
24.2393905479
 10
-17.3518127084
 20
24.2424752833
 10
-17.3609554656
 20
24.2449376507
 10
-17.3699941477
 20
24.2467709012
 10
-17.3789039816
 20
24.2479700102
 10
-17.3876605469
 20
24.2485316913
 10
-17.3962398435
 20
24.2484544048
 10
-17.4046183573
 20
24.2477383628
 10
-17.4127731244
 20
24.2463855276
 10
-17.4206817939
 20
24.2443996072
 10
-17.4283226898
 20
24.2417860445
 10
-17.4356748697
 20
24.238552003
 10
-17.4370972525
 20
24.2378374496
  0
LWPOLYLINE
  5
40E
100
AcDbEntity
  8
RACCORDO
100
AcDbPolyline
 62
7
  6
CONTINUOUS
 90
16
 70
0
 10
-2.3769368188
 20
18.3612144896
 10
-2.3853478942
 20
18.3651749734
 10
-2.3937401118
 20
18.3686359522
 10
-2.4020943596
 20
18.3715896359
 10
-2.4103915335
 20
18.374029424
 10
-2.4186128319
 20
18.3759497902
 10
-2.4267397977
 20
18.3773462955
 10
-2.4347539631
 20
18.3782158042
 10
-2.4426370824
 20
18.3785563907
 10
-2.4503714246
 20
18.3783672153
 10
-2.4579394322
 20
18.3776487235
 10
-2.4653238891
 20
18.3764025778
 10
-2.4725081517
 20
18.3746315552
 10
-2.4794759303
 20
18.3723396739
 10
-2.4862113895
 20
18.3695321508
 10
-2.4878690076
 20
18.3687446474
  0
LWPOLYLINE
  5
40F
100
AcDbEntity
  8
RACCORDO
100
AcDbPolyline
 62
7
  6
CONTINUOUS
 90
16
 70
0
 10
-15.7412549832
 20
25.0433735718
 10
-15.7496660587
 20
25.0473340556
 10
-15.7580582763
 20
25.0507950344
 10
-15.766412524
 20
25.0537487181
 10
-15.774709698
 20
25.0561885062
 10
-15.7829309963
 20
25.0581088724
 10
-15.7910579621
 20
25.0595053777
 10
-15.7990721275
 20
25.0603748864
 10
-15.8069552469
 20
25.060715473
 10
-15.8146895891
 20
25.0605262975
 10
-15.8222575966
 20
25.0598078057
 10
-15.8296420535
 20
25.05856166
 10
-15.8368263161
 20
25.0567906374
 10
-15.8437940948
 20
25.0544987561
 10
-15.850529554
 20
25.051691233
 10
-15.852187172
 20
25.0509037297
  0
LWPOLYLINE
  5
410
100
AcDbEntity
  8
RACCORDO
100
AcDbPolyline
 62
253
  6
CONTINUOUS
 90
31
 70
0
 10
-16.1747751625
 20
22.9245463855
 10
-16.1653161922
 20
22.920057423
 10
-16.1554019158
 20
22.9158211985
 10
-16.1450593121
 20
22.9118492397
 10
-16.1343165416
 20
22.9081523603
 10
-16.1232028224
 20
22.9047406142
 10
-16.1117483451
 20
22.9016232722
 10
-16.0999842397
 20
22.8988088134
 10
-16.0879425493
 20
22.8963049105
 10
-16.075656095
 20
22.8941183907
 10
-16.0631583306
 20
22.8922552069
 10
-16.0504832479
 20
22.8907204256
 10
-16.0376653394
 20
22.8895182236
 10
-16.0247394761
 20
22.8886518718
 10
-16.0117408429
 20
22.8881237289
 10
-15.9987048446
 20
22.8879352321
 10
-15.9856669768
 20
22.8880868914
 10
-15.9726626975
 20
22.888578291
 10
-15.959727363
 20
22.8894080937
 10
-15.9468960574
 20
22.8905740534
 10
-15.9342038162
 20
22.8920729913
 10
-15.9216854872
 20
22.8939007788
 10
-15.9093753228
 20
22.8960523796
 10
-15.897306592
 20
22.8985219429
 10
-15.8855118212
 20
22.9013027994
 10
-15.8740219586
 20
22.9043877095
 10
-15.8628694768
 20
22.9077680131
 10
-15.852087667
 20
22.9114334543
 10
-15.8417064779
 20
22.9153734523
 10
-15.8317527657
 20
22.9195773998
 10
-15.8222532029
 20
22.9240336616
  0
LWPOLYLINE
  5
411
100
AcDbEntity
  8
RACCORDO
100
AcDbPolyline
 62
253
  6
CONTINUOUS
 90
31
 70
0
 10
-2.8104569981
 20
16.5823612374
 10
-2.8009968487
 20
16.5778717439
 10
-2.7910812622
 20
16.5736350418
 10
-2.7807372243
 20
16.5696626647
 10
-2.7699928761
 20
16.5659654231
 10
-2.7588774706
 20
16.5625533869
 10
-2.747421297
 20
16.5594358547
 10
-2.7356555477
 20
16.5566213135
 10
-2.7236122404
 20
16.5541174211
 10
-2.7113241678
 20
16.5519309941
 10
-2.6988247802
 20
16.5500679822
 10
-2.6861480984
 20
16.5485334543
 10
-2.6733286325
 20
16.547331586
 10
-2.660401261
 20
16.5464656456
 10
-2.6474011859
 20
16.5459379896
 10
-2.6343638425
 20
16.5457500522
 10
-2.6213247712
 20
16.5459023375
 10
-2.6083194062
 20
16.5463944234
 10
-2.5953830319
 20
16.5472249731
 10
-2.5825506928
 20
16.5483917461
 10
-2.5698574856
 20
16.5498915609
 10
-2.5573383364
 20
16.5517202775
 10
-2.5450275397
 20
16.553872847
 10
-2.5329583349
 20
16.5563434169
 10
-2.5211632172
 20
16.5591253208
 10
-2.5096717946
 20
16.5622117
 10
-2.4985179781
 20
16.5655935747
 10
-2.4877388225
 20
16.5692593338
 10
-2.4773650565
 20
16.5731976196
 10
-2.4674217525
 20
16.5773979722
 10
-2.4579350385
 20
16.5818485135
  0
LWPOLYLINE
  5
412
100
AcDbEntity
  8
RACCORDO
100
AcDbPolyline
 62
253
  6
CONTINUOUS
 90
31
 70
0
 10
-16.1747751625
 20
23.2645203196
 10
-16.1653397514
 20
23.2600419689
 10
-16.155444959
 20
23.2558125779
 10
-16.1451168008
 20
23.251844089
 10
-16.1343803123
 20
23.2481470422
 10
-16.1232660531
 20
23.2447328474
 10
-16.1118107642
 20
23.2416131585
 10
-16.1000481769
 20
23.2387970368
 10
-16.0880078892
 20
23.2362914473
 10
-16.0757223411
 20
23.2341031545
 10
-16.0632247193
 20
23.2322381074
 10
-16.0505492454
 20
23.2307014501
 10
-16.0377307743
 20
23.22949742
 10
-16.0248043568
 20
23.2286293002
 10
-16.0118050178
 20
23.2280994336
 10
-15.9987680256
 20
23.2279092594
 10
-15.9857288095
 20
23.2280593025
 10
-15.9727229131
 20
23.2285491618
 10
-15.9597857847
 20
23.2293775063
 10
-15.9469526512
 20
23.2305420821
 10
-15.934258429
 20
23.2320397222
 10
-15.9217376754
 20
23.2338663516
 10
-15.9094244691
 20
23.2360170007
 10
-15.8973523282
 20
23.2384858169
 10
-15.8855541233
 20
23.2412660796
 10
-15.8740619604
 20
23.2443502241
 10
-15.8629071291
 20
23.2477298548
 10
-15.8521200245
 20
23.2513957617
 10
-15.8417300156
 20
23.2553379608
 10
-15.8317653686
 20
23.2595457236
 10
-15.8222532029
 20
23.2640075957
  0
LINE
  5
413
100
AcDbEntity
  8
RACCORDO
100
AcDbLine
 62
253
  6
CONTINUOUS
 10
-2.6347087421
 20
16.8867380523
 11
-3.959693422
 21
17.5492303922
  0
LINE
  5
414
100
AcDbEntity
  8
RACCORDO
100
AcDbLine
 62
253
  6
CONTINUOUS
 10
-15.9990269066
 20
23.5688971345
 11
-17.3240115864
 21
24.2313894745
  0
LINE
  5
415
100
AcDbEntity
  8
RACCORDO
100
AcDbLine
 62
253
  6
CONTINUOUS
 10
-6.3387946986
 20
18.8515801429
 11
-11.8501017983
 21
21.6072336928
  0
LINE
  5
416
100
AcDbEntity
  8
RACCORDO
100
AcDbLine
 62
253
  6
CONTINUOUS
 10
-5.9159723188
 20
18.9539697074
 11
-11.9917269685
 21
21.9918470323
  0
LINE
  5
417
100
AcDbEntity
  8
RACCORDO
100
AcDbLine
 62
7
  6
CONTINUOUS
 10
-14.2209724121
 20
23.1641280302
 11
-12.8129296771
 21
22.4601066628
  0
LINE
  5
418
100
AcDbEntity
  8
RACCORDO
100
AcDbLine
 62
7
  6
CONTINUOUS
 10
-0.8566542476
 20
16.481968948
 11
-0.1142890665
 21
16.1107863575
  0
LINE
  5
419
100
AcDbEntity
  8
DRAFT
100
AcDbLine
 62
7
  6
CONTINUOUS
 10
-11.4986113045
 20
22.3158339498
 11
-5.27607163
 21
19.2045641125
  0
LINE
  5
41A
100
AcDbEntity
  8
RACCORDO
100
AcDbLine
 62
7
  6
CONTINUOUS
 10
-15.7412549832
 20
25.0433735718
 11
-14.3977461157
 21
24.371619138
  0
LINE
  5
41B
100
AcDbEntity
  8
RACCORDO
100
AcDbLine
 62
7
  6
CONTINUOUS
 10
-2.3769368188
 20
18.3612144896
 11
-1.0334279513
 21
17.6894600558
  0
LINE
  5
41C
100
AcDbEntity
  8
DRAFT
100
AcDbLine
 62
7
  6
CONTINUOUS
 10
-5.2053609519
 20
19.8712771663
 11
-10.1551084202
 21
22.3461509004
  0
LINE
  5
41D
100
AcDbEntity
  8
0
100
AcDbLine
 62
7
  6
CONTINUOUS
 10
12.6003012676
 20
11.1459232725
 11
11.4823590841
 21
11.7048943642
  0
LINE
  5
41E
100
AcDbEntity
  8
RACCORDO
100
AcDbLine
 62
253
  6
CONTINUOUS
 10
-15.2068051045
 20
25.3037210384
 11
-13.869478944
 21
24.6350579581
  0
LINE
  5
41F
100
AcDbEntity
  8
RACCORDO
100
AcDbLine
 62
253
  6
CONTINUOUS
 10
-1.8424869401
 20
18.6215619561
 11
-0.5051607796
 21
17.9528988759
  0
LINE
  5
420
100
AcDbEntity
  8
RACCORDO
100
AcDbLine
 62
7
  6
CONTINUOUS
 10
-15.096030145
 20
25.3103109295
 11
-13.7587039844
 21
24.6416478492
  0
LINE
  5
421
100
AcDbEntity
  8
RACCORDO
100
AcDbLine
 62
7
  6
CONTINUOUS
 10
-1.7317119806
 20
18.6281518473
 11
-0.39438582
 21
17.959488767
  0
LINE
  5
422
100
AcDbEntity
  8
0
100
AcDbLine
 62
7
  6
CONTINUOUS
 10
11.9066231528
 20
11.9170263986
 11
13.037616764
 21
11.351529593
  0
LINE
  5
423
100
AcDbEntity
  8
0
100
AcDbLine
 62
7
  6
CONTINUOUS
 10
7.3807625145
 20
14.1799567177
 11
7.1516477883
 21
14.2945140808
  0
LWPOLYLINE
  5
424
100
AcDbEntity
  8
RACCORDO
100
AcDbPolyline
 62
7
  6
CONTINUOUS
 90
22
 70
0
 10
-0.394379478
 20
17.9594855957
 10
-0.3831106794
 20
17.9534863651
 10
-0.3720317007
 20
17.9468363726
 10
-0.3613018542
 20
17.9396162362
 10
-0.350950201
 20
17.9318433106
 10
-0.3409974503
 20
17.9235297232
 10
-0.3314712644
 20
17.9146937036
 10
-0.3224018078
 20
17.9053581845
 10
-0.3138135875
 20
17.8955429114
 10
-0.3057326678
 20
17.8852712966
 10
-0.2981851534
 20
17.8745697796
 10
-0.2911944803
 20
17.8634643442
 10
-0.2847836659
 20
17.8519835675
 10
-0.278974218
 20
17.840157294
 10
-0.2737855565
 20
17.8280152298
 10
-0.2692357101
 20
17.8155878955
 10
-0.2653424618
 20
17.8029106167
 10
-0.2621219352
 20
17.7900221671
 10
-0.2595868628
 20
17.7769584585
 10
-0.2577480123
 20
17.7637560937
 10
-0.256614412
 20
17.7504564593
 10
-0.2561892189
 20
17.7358816199
  0
LWPOLYLINE
  5
425
100
AcDbEntity
  8
RACCORDO
100
AcDbPolyline
 62
7
  6
CONTINUOUS
 90
22
 70
0
 10
-13.7587039844
 20
24.6416478492
 10
-13.7470474185
 20
24.6354292649
 10
-13.7356920358
 20
24.6285756589
 10
-13.7246811903
 20
24.6211043948
 10
-13.7140526282
 20
24.613033127
 10
-13.7038511397
 20
24.6043893715
 10
-13.6941262159
 20
24.5952123916
 10
-13.6849516973
 20
24.5855793676
 10
-13.6763134283
 20
24.5754853515
 10
-13.6681429336
 20
24.564835566
 10
-13.6604421377
 20
24.5535865878
 10
-13.6533086137
 20
24.5418340011
 10
-13.6468216097
 20
24.5296863589
 10
-13.6410179777
 20
24.5172106668
 10
-13.6359073342
 20
24.504428648
 10
-13.6315082959
 20
24.4913856915
 10
-13.6278367046
 20
24.4781321621
 10
-13.6249017191
 20
24.4647085734
 10
-13.6227080692
 20
24.4511393885
 10
-13.6212622972
 20
24.4374546276
 10
-13.6205716127
 20
24.4237076656
 10
-13.6205073837
 20
24.4180478374
  0
LINE
  5
426
100
AcDbEntity
  8
RACCORDO
100
AcDbLine
 62
7
  6
CONTINUOUS
 10
6.7374973126
 20
16.8306335493
 11
5.5622480987
 21
18.8576386035
  0
LINE
  5
427
100
AcDbEntity
  8
SMUSSO
100
AcDbLine
 62
7
  6
CONTINUOUS
 10
16.7770207846
 20
15.4003652223
 11
16.7770207846
 21
15.0493103793
  0
LINE
  5
428
100
AcDbEntity
  8
0
100
AcDbLine
 62
7
  6
CONTINUOUS
 10
17.8816754538
 20
5.4901337952
 11
17.8816754538
 21
3.9672703533
  0
LINE
  5
429
100
AcDbEntity
  8
RACCORDO
100
AcDbLine
 62
7
  6
CONTINUOUS
 10
5.5622480987
 20
-16.9532901412
 11
6.7374973126
 21
-16.1015343009
  0
LWPOLYLINE
  5
42A
100
AcDbEntity
  8
RACCORDO
100
AcDbPolyline
 62
253
  6
CONTINUOUS
 90
31
 70
0
 10
21.2786056033
 20
-7.9627925211
 10
21.2931454804
 20
-7.9541187096
 10
21.3073086982
 20
-7.9447862889
 10
21.3210845058
 20
-7.934802343
 10
21.334462446
 20
-7.9241744507
 10
21.3474323637
 20
-7.9129106795
 10
21.3599844136
 20
-7.9010195797
 10
21.3721090674
 20
-7.8885101776
 10
21.3837971216
 20
-7.8753919692
 10
21.3950397037
 20
-7.8616749122
 10
21.4058282796
 20
-7.8473694193
 10
21.4161546599
 20
-7.8324863495
 10
21.4260110058
 20
-7.8170370005
 10
21.4353898355
 20
-7.8010330997
 10
21.4442840296
 20
-7.7844867957
 10
21.4526868365
 20
-7.7674106485
 10
21.4605918779
 20
-7.7498176204
 10
21.467993153
 20
-7.7317210663
 10
21.4748850435
 20
-7.7131347231
 10
21.481262318
 20
-7.6940726994
 10
21.4871201355
 20
-7.6745494652
 10
21.4924540493
 20
-7.6545798402
 10
21.4972600105
 20
-7.6341789834
 10
21.5015343711
 20
-7.6133623809
 10
21.5052738862
 20
-7.5921458342
 10
21.5084757174
 20
-7.5705454488
 10
21.511137434
 20
-7.5485776212
 10
21.5132570157
 20
-7.5262590272
 10
21.5148328535
 20
-7.5036066085
 10
21.5158637512
 20
-7.4806375604
 10
21.5163489261
 20
-7.4573693185
  0
LWPOLYLINE
  5
42B
100
AcDbEntity
  8
RACCORDO
100
AcDbPolyline
 62
7
  6
CONTINUOUS
 90
41
 70
0
 10
21.2717704882
 20
-7.9665720633
 10
21.2878857457
 20
-7.9576851352
 10
21.3111155402
 20
-7.9441802555
 10
21.3339895795
 20
-7.9300462667
 10
21.3564894947
 20
-7.9152928401
 10
21.3785942697
 20
-7.8999323441
 10
21.40029088
 20
-7.8839724117
 10
21.4215727588
 20
-7.8674155634
 10
21.4424300771
 20
-7.850265955
 10
21.4628384452
 20
-7.8325400868
 10
21.4827700329
 20
-7.8142598478
 10
21.5022024133
 20
-7.7954448782
 10
21.5211278953
 20
-7.7761016878
 10
21.5395412616
 20
-7.7562332658
 10
21.5574296181
 20
-7.7358500662
 10
21.5747756134
 20
-7.7149683076
 10
21.5915668041
 20
-7.6935993205
 10
21.6077893897
 20
-7.6717566083
 10
21.6234286663
 20
-7.6494557722
 10
21.638471141
 20
-7.626711756
 10
21.652903476
 20
-7.6035402441
 10
21.6667127962
 20
-7.579957243
 10
21.6798868456
 20
-7.5559787685
 10
21.6924136181
 20
-7.5316214674
 10
21.7042813437
 20
-7.5069027579
 10
21.7154787542
 20
-7.4818403812
 10
21.7259954004
 20
-7.4564515983
 10
21.7358206958
 20
-7.4307554544
 10
21.7449440823
 20
-7.4047729797
 10
21.7533570288
 20
-7.3785214731
 10
21.7610503346
 20
-7.3520220777
 10
21.7680140427
 20
-7.3253023119
 10
21.7742393421
 20
-7.2983913811
 10
21.7797224218
 20
-7.2713006637
 10
21.7844606906
 20
-7.2440311496
 10
21.7884498898
 20
-7.2165842438
 10
21.7916802455
 20
-7.1889997604
 10
21.794143284
 20
-7.1613367627
 10
21.7958360088
 20
-7.13364081
 10
21.7967596392
 20
-7.1059095684
 10
21.7969482098
 20
-7.0864888806
  0
LINE
  5
42C
100
AcDbEntity
  8
RACCORDO
100
AcDbLine
 62
253
  6
CONTINUOUS
 10
21.5162880101
 20
-7.4338195455
 11
7.1491017969
 21
-15.1852461151
  0
LINE
  5
42D
100
AcDbEntity
  8
RACCORDO
100
AcDbLine
 62
7
  6
CONTINUOUS
 10
21.2717720302
 20
-7.9665712313
 11
7.0676066866
 21
-15.6300443018
  0
LINE
  5
42E
100
AcDbEntity
  8
DRAFT
100
AcDbLine
 62
7
  6
CONTINUOUS
 10
0.2040059242
 20
-19.7868168671
 11
5.5622480987
 21
-16.9532901412
  0
LINE
  5
42F
100
AcDbEntity
  8
RACCORDO
100
AcDbLine
 62
253
  6
CONTINUOUS
 10
0.2040059242
 20
-18.7439127977
 11
7.1516477883
 21
-15.0840512019
  0
LINE
  5
430
100
AcDbEntity
  8
RACCORDO
100
AcDbLine
 62
253
  6
CONTINUOUS
 10
0.2040059242
 20
-19.5432307335
 11
6.7374973126
 21
-16.1015343009
  0
LINE
  5
431
100
AcDbEntity
  8
RACCORDO
100
AcDbLine
 62
7
  6
CONTINUOUS
 10
3.8781832245
 20
-18.2300557208
 11
0.2040059242
 21
-20.0742882601
  0
LINE
  5
432
100
AcDbEntity
  8
RACCORDO
100
AcDbLine
 62
7
  6
CONTINUOUS
 10
4.7597186831
 20
-17.6706266768
 11
0.2040059242
 21
-19.9302937903
  0
LWPOLYLINE
  5
433
100
AcDbEntity
  8
RACCORDO
100
AcDbPolyline
 62
253
  6
CONTINUOUS
 90
14
 70
0
 10
-0.3943858218
 20
17.9594887678
 10
-0.4018132424
 20
17.9628082855
 10
-0.409396185
 20
17.9654459857
 10
-0.4172426033
 20
17.9674588563
 10
-0.4253308946
 20
17.9688413812
 10
-0.4336388624
 20
17.9695898415
 10
-0.4421440347
 20
17.9697022857
 10
-0.4508234975
 20
17.9691784368
 10
-0.459655588
 20
17.9680193948
 10
-0.468614371
 20
17.9662283594
 10
-0.4776697079
 20
17.9638119291
 10
-0.4867948767
 20
17.9607785577
 10
-0.4959668812
 20
17.9571372005
 10
-0.5051607796
 20
17.9528988759
  0
LWPOLYLINE
  5
434
100
AcDbEntity
  8
RACCORDO
100
AcDbPolyline
 62
253
  6
CONTINUOUS
 90
14
 70
0
 10
-1.7317119823
 20
18.6281518481
 10
-1.7391394029
 20
18.6314713658
 10
-1.7467223456
 20
18.634109066
 10
-1.7545687639
 20
18.6361219365
 10
-1.7626570552
 20
18.6375044615
 10
-1.7709650229
 20
18.6382529217
 10
-1.7794701953
 20
18.638365366
 10
-1.788149658
 20
18.6378415171
 10
-1.7969817485
 20
18.6366824751
 10
-1.8059405315
 20
18.6348914397
 10
-1.8149958684
 20
18.6324750094
 10
-1.8241210372
 20
18.629441638
 10
-1.8332930418
 20
18.6258002808
 10
-1.8424869401
 20
18.6215619561
  0
LWPOLYLINE
  5
435
100
AcDbEntity
  8
RACCORDO
100
AcDbPolyline
 62
253
  6
CONTINUOUS
 90
14
 70
0
 10
-13.7587039844
 20
24.6416478492
 10
-13.7661020652
 20
24.6449557431
 10
-13.7736822825
 20
24.6475953965
 10
-13.7815259289
 20
24.6496105085
 10
-13.7896116644
 20
24.6509955965
 10
-13.7979174905
 20
24.6517468922
 10
-13.8064208096
 20
24.6518623515
 10
-13.8150984872
 20
24.6513416603
 10
-13.823926914
 20
24.6501862353
 10
-13.8328820709
 20
24.64839922
 10
-13.8419395939
 20
24.6459854762
 10
-13.8510748403
 20
24.642951571
 10
-13.8602629563
 20
24.6393057586
 10
-13.869478944
 20
24.6350579581
  0
LWPOLYLINE
  5
436
100
AcDbEntity
  8
RACCORDO
100
AcDbPolyline
 62
253
  6
CONTINUOUS
 90
14
 70
0
 10
-15.096030145
 20
25.3103109295
 10
-15.1034282257
 20
25.3136188233
 10
-15.111008443
 20
25.3162584768
 10
-15.1188520894
 20
25.3182735888
 10
-15.126937825
 20
25.3196586768
 10
-15.135243651
 20
25.3204099724
 10
-15.1437469702
 20
25.3205254318
 10
-15.1524246477
 20
25.3200047406
 10
-15.1612530746
 20
25.3188493156
 10
-15.1702082315
 20
25.3170623003
 10
-15.1792657544
 20
25.3146485565
 10
-15.1884010009
 20
25.3116146513
 10
-15.1975891169
 20
25.3079688389
 10
-15.2068051045
 20
25.3037210384
  0
LWPOLYLINE
  5
437
100
AcDbEntity
  8
RACCORDO
100
AcDbPolyline
 62
7
  6
CONTINUOUS
 90
18
 70
0
 10
-15.096030145
 20
25.3103109295
 10
-15.1082359572
 20
25.316008117
 10
-15.1208582359
 20
25.3210869251
 10
-15.1338584258
 20
25.3255088258
 10
-15.1472130071
 20
25.3292430984
 10
-15.1608559949
 20
25.3322506849
 10
-15.1746802843
 20
25.3344961037
 10
-15.1886114183
 20
25.3359640558
 10
-15.2026201071
 20
25.3366497657
 10
-15.2166696035
 20
25.336547931
 10
-15.2307019158
 20
25.3356560095
 10
-15.2446744619
 20
25.3339747255
 10
-15.2585803212
 20
25.3314994842
 10
-15.2724252272
 20
25.3282158583
 10
-15.2861074858
 20
25.3241345215
 10
-15.2994784155
 20
25.3193008159
 10
-15.3125011366
 20
25.3137386992
 10
-15.3173238551
 20
25.3114525948
  0
LWPOLYLINE
  5
438
100
AcDbEntity
  8
RACCORDO
100
AcDbPolyline
 62
253
  6
CONTINUOUS
 90
14
 70
0
 10
-1.8424869401
 20
18.6215619561
 10
-1.8516859498
 20
18.6259167928
 10
-1.8608625654
 20
18.6296648911
 10
-1.8699916357
 20
18.6327959782
 10
-1.8790481396
 20
18.6353014722
 10
-1.8880072548
 20
18.6371745062
 10
-1.8968444261
 20
18.6384099465
 10
-1.9055354325
 20
18.639004407
 10
-1.9140564536
 20
18.6389562584
 10
-1.9223841348
 20
18.6382656326
 10
-1.9304956516
 20
18.6369344225
 10
-1.9383687717
 20
18.6349662768
 10
-1.9459819165
 20
18.6323665897
 10
-1.9529990512
 20
18.6292967472
  0
LWPOLYLINE
  5
439
100
AcDbEntity
  8
RACCORDO
100
AcDbPolyline
 62
253
  6
CONTINUOUS
 90
14
 70
0
 10
-15.2068051045
 20
25.3037210384
 10
-15.2159822121
 20
25.3080662154
 10
-15.2251428306
 20
25.3118097258
 10
-15.2342618751
 20
25.3149401977
 10
-15.2433161803
 20
25.3174483629
 10
-15.2522788706
 20
25.3193254494
 10
-15.2611196586
 20
25.3205645392
 10
-15.269812417
 20
25.3211621749
 10
-15.2783352598
 20
25.3211170593
 10
-15.2866650517
 20
25.320429289
 10
-15.2947790936
 20
25.3191006653
 10
-15.3026549568
 20
25.3171347856
 10
-15.3102708008
 20
25.3145370759
 10
-15.3173172152
 20
25.3114558296
  0
LWPOLYLINE
  5
43A
100
AcDbEntity
  8
RACCORDO
100
AcDbPolyline
 62
7
  6
CONTINUOUS
 90
3
 70
0
 10
-5.2589069007
 20
21.8896460675
 10
-5.261201583
 20
21.8907392964
 10
-5.2640375811
 20
21.8919465198
  0
LWPOLYLINE
  5
43B
100
AcDbEntity
  8
0
100
AcDbPolyline
 62
7
  6
CONTINUOUS
 90
40
 70
0
 10
-5.1346502738
 20
22.3356582329
 10
-5.1637766942
 20
22.349640459
 10
-5.1939026021
 20
22.3629852457
 10
-5.2250279975
 20
22.3756925929
 10
-5.2572065773
 20
22.3877810631
 10
-5.2903846447
 20
22.3992320938
 10
-5.3244011089
 20
22.4099899978
 10
-5.3592600704
 20
22.4200513924
 10
-5.3949574288
 20
22.4294196602
 10
-5.4313197919
 20
22.4380492614
 10
-5.4683500646
 20
22.4459365577
 10
-5.5060453422
 20
22.4530851875
 10
-5.5442235177
 20
22.4594605258
 10
-5.582887403
 20
22.4650588937
 10
-5.6220341863
 20
22.4698839702
 10
-5.6614733248
 20
22.4739121665
 10
-5.7012061409
 20
22.4771395634
 10
-5.7412313122
 20
22.4795700802
 10
-5.7813543292
 20
22.4811918865
 10
-5.8215755832
 20
22.4820010377
 10
-5.8618946829
 20
22.4820014784
 10
-5.9021159443
 20
22.4811932124
 10
-5.9422388909
 20
22.479572308
 10
-5.9822639993
 20
22.4771426968
 10
-6.0219970151
 20
22.4739161773
 10
-6.0614365173
 20
22.4698888753
 10
-6.1005839269
 20
22.4650646649
 10
-6.1392492524
 20
22.459466967
 10
-6.1774301491
 20
22.4530920215
 10
-6.2151289618
 20
22.4459435884
 10
-6.2521627331
 20
22.4380563692
 10
-6.2885282288
 20
22.4294267724
 10
-6.3242286833
 20
22.4200583895
 10
-6.3590908414
 20
22.4099966959
 10
-6.3931106266
 20
22.3992383216
 10
-6.4262921156
 20
22.3877866366
 10
-6.4584742835
 20
22.3756972266
 10
-6.4896034555
 20
22.3629886203
 10
-6.5197333064
 20
22.3496422891
 10
-6.5488638362
 20
22.3356582329
  0
LINE
  5
43C
100
AcDbEntity
  8
RACCORDO
100
AcDbLine
 62
7
  6
CONTINUOUS
 10
-3.8911989716
 20
20.5189942829
 11
-6.4781531581
 21
21.8124713761
  0
LINE
  5
43D
100
AcDbEntity
  8
RACCORDO
100
AcDbLine
 62
253
  6
CONTINUOUS
 10
-3.2502357768
 20
20.8349087885
 11
-5.3431480078
 21
21.881364904
  0
LINE
  5
43E
100
AcDbEntity
  8
RACCORDO
100
AcDbLine
 62
7
  6
CONTINUOUS
 10
-3.1994723523
 20
20.8599287933
 11
-5.2588991351
 21
21.8896421847
  0
LINE
  5
43F
100
AcDbEntity
  8
ASSI
100
AcDbLine
 62
7
  6
CONTINUOUS
 10
-5.1346502738
 20
22.3356582329
 11
-2.6876852072
 21
21.1121756996
  0
LINE
  5
440
100
AcDbEntity
  8
0
100
AcDbLine
 62
7
  6
CONTINUOUS
 10
-5.4882036644
 20
22.5124349282
 11
-5.841757055
 21
22.6892116235
  0
LINE
  5
441
100
AcDbEntity
  8
DRAFT
100
AcDbLine
 62
7
  6
CONTINUOUS
 10
-5.841757055
 20
23.2417698128
 11
-5.4882036644
 21
23.0649931175
  0
LWPOLYLINE
  5
442
100
AcDbEntity
  8
ASSI
100
AcDbPolyline
 62
7
  6
CONTINUOUS
 90
11
 70
0
 10
13.3697079782
 20
11.5076641302
 10
13.2911153057
 20
11.5569401773
 10
13.2179275898
 20
11.6105973574
 10
13.1526798765
 20
11.6671761193
 10
13.0956879413
 20
11.7263486059
 10
13.0478991104
 20
11.7871312451
 10
13.0094672114
 20
11.8495509504
 10
12.9802384169
 20
11.9135808085
 10
12.9606985712
 20
11.9781565078
 10
12.9510096224
 20
12.0432871718
 10
12.9497985038
 20
12.0761254243
  0
LINE
  5
443
100
AcDbEntity
  8
RACCORDO
100
AcDbLine
 62
7
  6
CONTINUOUS
 10
21.504054991
 20
4.6877699562
 11
21.3111433426
 21
4.8475358908
  0
LINE
  5
444
100
AcDbEntity
  8
0
100
AcDbLine
 62
7
  6
CONTINUOUS
 10
13.1957308733
 20
12.7472475481
 11
13.0165780877
 21
13.1659486239
  0
LINE
  5
445
100
AcDbEntity
  8
RACCORDO
100
AcDbLine
 62
7
  6
CONTINUOUS
 10
11.1130407268
 20
18.2474717708
 11
11.1201665351
 21
18.228792347
  0
LINE
  5
446
100
AcDbEntity
  8
0
100
AcDbLine
 62
7
  6
CONTINUOUS
 10
18.588782235
 20
3.9316266288
 11
18.588782235
 21
5.8598184255
  0
LINE
  5
447
100
AcDbEntity
  8
0
100
AcDbLine
 62
7
  6
CONTINUOUS
 10
18.9069802865
 20
4.0969578748
 11
18.9069802865
 21
6.0261765091
  0
LWPOLYLINE
  5
448
100
AcDbEntity
  8
RACCORDO
100
AcDbPolyline
 62
253
  6
CONTINUOUS
 90
34
 70
0
 10
-6.6927474334
 20
-24.5596434545
 10
-6.7100417647
 20
-24.5684470177
 10
-6.7280672262
 20
-24.5768326877
 10
-6.7467838858
 20
-24.5847818876
 10
-6.7661502804
 20
-24.5922770075
 10
-6.7861235074
 20
-24.5993014434
 10
-6.8066593197
 20
-24.6058396339
 10
-6.8277122242
 20
-24.6118770948
 10
-6.849235582
 20
-24.6174004514
 10
-6.8711817124
 20
-24.6223974677
 10
-6.8935019976
 20
-24.6268570737
 10
-6.9161469914
 20
-24.63076939
 10
-6.939066528
 20
-24.6341257496
 10
-6.9622098334
 20
-24.6369187171
 10
-6.985525638
 20
-24.6391421052
 10
-7.0089622901
 20
-24.6407909884
 10
-7.0324678701
 20
-24.641861714
 10
-7.0559903059
 20
-24.6423519099
 10
-7.0794774879
 20
-24.6422604902
 10
-7.1028773846
 20
-24.6415876575
 10
-7.126138158
 20
-24.6403349022
 10
-7.1492082782
 20
-24.6385049996
 10
-7.1720366377
 20
-24.6361020035
 10
-7.1945726646
 20
-24.6331312374
 10
-7.2167664345
 20
-24.6295992823
 10
-7.2385687812
 20
-24.6255139626
 10
-7.2599314059
 20
-24.6208843287
 10
-7.2808069836
 20
-24.6157206365
 10
-7.3011492683
 20
-24.6100343254
 10
-7.3209131957
 20
-24.6038379922
 10
-7.3400549823
 20
-24.5971453637
 10
-7.3585322232
 20
-24.5899712663
 10
-7.3763039855
 20
-24.5823315927
 10
-7.3933308993
 20
-24.5742432673
  0
LINE
  5
449
100
AcDbEntity
  8
RACCORDO
100
AcDbLine
 62
253
  6
CONTINUOUS
 10
-0.514078527
 20
-22.7956646206
 11
0.2040059242
 21
-22.4413982228
  0
LINE
  5
44A
100
AcDbEntity
  8
RACCORDO
100
AcDbLine
 62
7
  6
CONTINUOUS
 10
-0.635222808
 20
-23.0411444692
 11
0.0862187458
 21
-22.6852218474
  0
LWPOLYLINE
  5
44B
100
AcDbEntity
  8
RACCORDO
100
AcDbPolyline
 62
7
  6
CONTINUOUS
 90
18
 70
0
 10
-5.9159723188
 20
18.9539697074
 10
-5.9332669868
 20
18.9524773717
 10
-5.950461385
 20
18.9504837939
 10
-5.9675197227
 20
18.948076611
 10
-5.9844105562
 20
18.9453656574
 10
-6.001114819
 20
18.9424086448
 10
-6.0176216389
 20
18.9391977967
 10
-6.0339150458
 20
18.9357875689
 10
-6.0499848387
 20
18.9322430392
 10
-6.0658279926
 20
18.9285490832
 10
-6.0814368043
 20
18.9247458009
 10
-6.0968058869
 20
18.9208822126
 10
-6.1119326149
 20
18.9169419389
 10
-6.1268136326
 20
18.9129558916
 10
-6.1414461585
 20
18.9089618057
 10
-6.1558247834
 20
18.9049446763
 10
-6.1699483364
 20
18.9009295157
 10
-6.197418082
 20
18.8929819035
  0
LINE
  5
44C
100
AcDbEntity
  8
RACCORDO
100
AcDbLine
 62
7
  6
CONTINUOUS
 10
-16.0490966964
 20
22.7682125008
 11
-15.4234900028
 21
22.6375911045
  0
LINE
  5
44D
100
AcDbEntity
  8
RACCORDO
100
AcDbLine
 62
253
  6
CONTINUOUS
 10
-15.8222532029
 20
22.9240336616
 11
-15.1110325948
 21
22.7755301387
  0
LWPOLYLINE
  5
44E
100
AcDbEntity
  8
RACCORDO
100
AcDbPolyline
 62
7
  6
CONTINUOUS
 90
10
 70
0
 10
-16.0490966964
 20
22.7682125008
 10
-16.0566382685
 20
22.7699092754
 10
-16.0641414436
 20
22.7718432437
 10
-16.0715955379
 20
22.7740132582
 10
-16.0790059894
 20
22.7764230393
 10
-16.0863446212
 20
22.7790652031
 10
-16.0935538527
 20
22.7819170534
 10
-16.1006115947
 20
22.7849642397
 10
-16.1075270534
 20
22.7882049209
 10
-16.1098124992
 20
22.7893332527
  0
LWPOLYLINE
  5
44F
100
AcDbEntity
  8
RACCORDO
100
AcDbPolyline
 62
7
  6
CONTINUOUS
 90
19
 70
0
 10
-5.2649229145
 20
21.8922921892
 10
-5.2687387446
 20
21.8936204866
 10
-5.2726441543
 20
21.8947224872
 10
-5.2766347595
 20
21.8955970884
 10
-5.2807053671
 20
21.8962431117
 10
-5.2848507311
 20
21.8966596775
 10
-5.2890662332
 20
21.8968465454
 10
-5.2933463922
 20
21.8968033654
 10
-5.2976856929
 20
21.8965300876
 10
-5.3020793419
 20
21.8960273357
 10
-5.3065216299
 20
21.8952955905
 10
-5.311006834
 20
21.89433563
 10
-5.3155300466
 20
21.8931489348
 10
-5.3200853939
 20
21.8917368089
 10
-5.3246670072
 20
21.8901008474
 10
-5.3292699257
 20
21.8882433711
 10
-5.3338885188
 20
21.8861666542
 10
-5.3385164924
 20
21.8838729256
 10
-5.3431478618
 20
21.881364831
  0
LWPOLYLINE
  5
450
100
AcDbEntity
  8
RACCORDO
100
AcDbPolyline
 62
7
  6
CONTINUOUS
 90
51
 70
0
 10
-5.2640375811
 20
21.8919465198
 10
-5.2746090861
 20
21.8960988955
 10
-5.2975704492
 20
21.9047135185
 10
-5.3208410405
 20
21.912906347
 10
-5.344407004
 20
21.9206823263
 10
-5.3682623516
 20
21.9280479208
 10
-5.3923890851
 20
21.9350049199
 10
-5.4167693205
 20
21.9415554603
 10
-5.4413964817
 20
21.9477040186
 10
-5.4662526831
 20
21.9534516586
 10
-5.4913205869
 20
21.9587998252
 10
-5.516593705
 20
21.9637516281
 10
-5.5420546842
 20
21.9683077081
 10
-5.5676859987
 20
21.9724688574
 10
-5.5934802241
 20
21.9762369859
 10
-5.6194198123
 20
21.9796124078
 10
-5.6454876323
 20
21.9825955803
 10
-5.6716763015
 20
21.9851876331
 10
-5.697968257
 20
21.9873886803
 10
-5.7243465209
 20
21.9891988831
 10
-5.7508041791
 20
21.9906187346
 10
-5.7773240073
 20
21.9916481854
 10
-5.8038887524
 20
21.9922871
 10
-5.8304912573
 20
21.9925353441
 10
-5.8571143384
 20
21.9923926922
 10
-5.8837406423
 20
21.9918587757
 10
-5.9103627856
 20
21.9909328866
 10
-5.9369636421
 20
21.9896145978
 10
-5.9635256091
 20
21.98790332
 10
-5.9900408598
 20
21.9857977925
 10
-6.0164920953
 20
21.9832973602
 10
-6.0428615604
 20
21.9804012021
 10
-6.0691412603
 20
21.9771074497
 10
-6.0953151787
 20
21.9734149236
 10
-6.1213637873
 20
21.9693226987
 10
-6.1472746627
 20
21.9648289565
 10
-6.1730313649
 20
21.9599322714
 10
-6.1986144211
 20
21.9546315703
 10
-6.2240081245
 20
21.9489252955
 10
-6.2491945768
 20
21.9428120766
 10
-6.2741556405
 20
21.9362904367
 10
-6.2988768467
 20
21.9293580524
 10
-6.3233403012
 20
21.9220130217
 10
-6.347527694
 20
21.9142534765
 10
-6.3714255395
 20
21.9060759307
 10
-6.3950149984
 20
21.8974779601
 10
-6.4182784507
 20
21.8884565692
 10
-6.4412059676
 20
21.8790052073
 10
-6.4637822513
 20
21.8691182712
 10
-6.485983959
 20
21.8587936331
 10
-6.5015634199
 20
21.8511679339
  0
LWPOLYLINE
  5
451
100
AcDbEntity
  8
ASSI
100
AcDbPolyline
 62
7
  6
CONTINUOUS
 90
16
 70
0
 10
-5.3894436963
 20
24.6527641766
 10
-5.3911902764
 20
24.6535246532
 10
-5.3953793303
 20
24.6547115029
 10
-5.400322484
 20
24.6554135116
 10
-5.4059798925
 20
24.6556490232
 10
-5.41231541
 20
24.6554253637
 10
-5.4193309364
 20
24.6547727425
 10
-5.4270178789
 20
24.653701649
 10
-5.4353332949
 20
24.65222589
 10
-5.4442356606
 20
24.6503808139
 10
-5.4536943538
 20
24.6481676319
 10
-5.4636770493
 20
24.6456019191
 10
-5.4741335133
 20
24.6427373672
 10
-5.4850227835
 20
24.6395943539
 10
-5.4963166367
 20
24.6361611439
 10
-5.5079814324
 20
24.632440765
  0
LWPOLYLINE
  5
452
100
AcDbEntity
  8
ASSI
100
AcDbPolyline
 62
7
  6
CONTINUOUS
 90
16
 70
0
 10
0.1655408531
 20
21.8752718979
 10
0.1640829798
 20
21.8759193911
 10
0.1599686213
 20
21.8771406463
 10
0.1551046471
 20
21.8778793158
 10
0.149532115
 20
21.8781531553
 10
0.1432869861
 20
21.8779696808
 10
0.1363675633
 20
21.8773601835
 10
0.1287831909
 20
21.8763354195
 10
0.1205764757
 20
21.8749084481
 10
0.1117868769
 20
21.8731142884
 10
0.1024443251
 20
21.8709544612
 10
0.0925810858
 20
21.868444054
 10
0.0822455872
 20
21.8656354644
 10
0.0714777235
 20
21.8625487038
 10
0.0603056346
 20
21.8591725004
 10
0.0487624402
 20
21.8555099464
  0
LWPOLYLINE
  5
453
100
AcDbEntity
  8
ASSI
100
AcDbPolyline
 62
7
  6
CONTINUOUS
 90
33
 70
0
 10
10.2095668779
 20
15.5586263217
 10
10.112627416
 20
15.6034759576
 10
10.010500505
 20
15.6441977046
 10
9.9031861448
 20
15.6807915625
 10
9.7900286209
 20
15.7134154191
 10
9.6716836478
 20
15.7419113868
 10
9.5501183693
 20
15.7658058022
 10
9.4252789587
 20
15.7850217517
 10
9.2972192425
 20
15.7996361489
 10
9.168067844
 20
15.8094060718
 10
9.037806516
 20
15.8142505462
 10
8.9064535057
 20
15.8142505462
 10
8.7761921777
 20
15.8094060718
 10
8.6470407792
 20
15.7996361489
 10
8.5189810631
 20
15.7850217517
 10
8.3941416524
 20
15.7658058022
 10
8.2725763739
 20
15.7419113868
 10
8.1542314009
 20
15.7134154191
 10
8.041073877
 20
15.6807915625
 10
7.933190509
 20
15.6439708203
 10
7.8304945902
 20
15.6030221891
 10
7.7346931438
 20
15.5586263217
 10
7.645901409
 20
15.5107255985
 10
7.5640041466
 20
15.4593776391
 10
7.4903626622
 20
15.4054359551
 10
7.4251149489
 20
15.3488571932
 10
7.3681230136
 20
15.2896847066
 10
7.3203341828
 20
15.2289020674
 10
7.2819022838
 20
15.1664823621
 10
7.2526734893
 20
15.102452504
 10
7.2331336436
 20
15.0378768047
 10
7.2234446947
 20
14.9727461407
 10
7.2222335761
 20
14.9399078882
  0
LINE
  5
454
100
AcDbEntity
  8
0
100
AcDbLine
 62
7
  6
CONTINUOUS
 10
-1.2798695109
 20
21.806052358
 11
-4.0904191579
 21
23.2113271815
  0
LINE
  5
455
100
AcDbEntity
  8
0
100
AcDbLine
 62
7
  6
CONTINUOUS
 10
16.4632548189
 20
12.9621124371
 11
15.01789299
 21
13.6847933515
  0
LINE
  5
456
100
AcDbEntity
  8
0
100
AcDbLine
 62
7
  6
CONTINUOUS
 10
10.8064005694
 20
15.7905395618
 11
9.2903280624
 21
16.5485758154
  0
LINE
  5
457
100
AcDbEntity
  8
DRAFT
100
AcDbLine
 62
7
  6
CONTINUOUS
 10
4.8234745663
 20
19.2270253698
 11
5.5622480987
 21
18.8576386035
  0
LINE
  5
458
100
AcDbEntity
  8
ASSI
100
AcDbLine
 62
253
  6
CONTINUOUS
 10
-0.0015795609
 20
21.8348732464
 11
-0.6071099956
 21
22.1376384638
  0
LINE
  5
459
100
AcDbEntity
  8
ASSI
100
AcDbLine
 62
253
  6
CONTINUOUS
 10
-5.5568574639
 20
24.6125121979
 11
-6.1623878985
 21
24.9152774153
  0
LINE
  5
45A
100
AcDbEntity
  8
0
100
AcDbLine
 62
7
  6
CONTINUOUS
 10
0.3706519036
 20
21.7345058082
 11
0.1723565041
 21
21.833653508
  0
LINE
  5
45B
100
AcDbEntity
  8
0
100
AcDbLine
 62
7
  6
CONTINUOUS
 10
-0.4946222292
 20
22.1671428746
 11
-2.7304872178
 21
23.2850753689
  0
LINE
  5
45C
100
AcDbEntity
  8
ASSI
100
AcDbLine
 62
7
  6
CONTINUOUS
 10
0.1652396872
 20
21.8754183642
 11
-0.3311483202
 21
22.1236123679
  0
LINE
  5
45D
100
AcDbEntity
  8
ASSI
100
AcDbLine
 62
7
  6
CONTINUOUS
 10
-5.3897168733
 20
24.6528966444
 11
-5.8861051883
 21
24.9010908019
  0
LINE
  5
45E
100
AcDbEntity
  8
RACCORDO
100
AcDbLine
 62
253
  6
CONTINUOUS
 10
-6.4983893505
 20
25.6048829673
 11
-3.4314234065
 21
24.0713999953
  0
LINE
  5
45F
100
AcDbEntity
  8
RACCORDO
100
AcDbLine
 62
253
  6
CONTINUOUS
 10
0.8112172806
 20
21.9500796518
 11
3.8781832245
 21
20.4165966798
  0
LINE
  5
460
100
AcDbEntity
  8
DRAFT
100
AcDbLine
 62
7
  6
CONTINUOUS
 10
10.1388561998
 20
17.378443178
 11
12.0991122315
 21
16.3983151622
  0
LINE
  5
461
100
AcDbEntity
  8
DRAFT
100
AcDbLine
 62
7
  6
CONTINUOUS
 10
17.755966481
 20
13.5698880374
 11
15.7957104493
 21
14.5500160533
  0
LINE
  5
462
100
AcDbEntity
  8
RACCORDO
100
AcDbLine
 62
7
  6
CONTINUOUS
 10
1.2522602837
 20
21.9754291184
 11
4.479438974
 21
20.3618397732
  0
LINE
  5
463
100
AcDbEntity
  8
ASSI
100
AcDbLine
 62
7
  6
CONTINUOUS
 10
10.2577517262
 20
15.5325892471
 11
10.2095668779
 21
15.5586263217
  0
LWPOLYLINE
  5
464
100
AcDbEntity
  8
RACCORDO
100
AcDbPolyline
 62
7
  6
CONTINUOUS
 90
42
 70
0
 10
21.7969482098
 20
12.6984112481
 10
21.7965838428
 20
12.725403857
 10
21.7954898814
 20
12.7523976343
 10
21.7936657331
 20
12.7793691309
 10
21.7911127612
 20
12.806285456
 10
21.7878317312
 20
12.8331326162
 10
21.7838202615
 20
12.8599152838
 10
21.7790828819
 20
12.8865906459
 10
21.7736187679
 20
12.9131543992
 10
21.7674097212
 20
12.9396672425
 10
21.7604295684
 20
12.9661866607
 10
21.7526948077
 20
12.9926024113
 10
21.7442592098
 20
13.0187265135
 10
21.7351782264
 20
13.0444234384
 10
21.7254293694
 20
13.0697907523
 10
21.7149490888
 20
13.0949895962
 10
21.7037009159
 20
13.1200740635
 10
21.6917194269
 20
13.1449361286
 10
21.6790391767
 20
13.1694903562
 10
21.665650411
 20
13.1937459688
 10
21.6515788891
 20
13.2176476124
 10
21.6369301171
 20
13.2410256558
 10
21.6218442803
 20
13.2636956657
 10
21.6062338633
 20
13.2858265449
 10
21.589846331
 20
13.3077654714
 10
21.5724774417
 20
13.3297229066
 10
21.5543102437
 20
13.3514064621
 10
21.5356758127
 20
13.3724153494
 10
21.5167844481
 20
13.392555174
 10
21.497487363
 20
13.4120252157
 10
21.4775886942
 20
13.4310288366
 10
21.4569879464
 20
13.4496419358
 10
21.4358002682
 20
13.4677408572
 10
21.4141439058
 20
13.4852209283
 10
21.3920597725
 20
13.5020543455
 10
21.3695403675
 20
13.5182516112
 10
21.3466380021
 20
13.5337801081
 10
21.3234171636
 20
13.5486056028
 10
21.2998477623
 20
13.5627561099
 10
21.2758358126
 20
13.5762874716
 10
21.2512835017
 20
13.5892420078
 10
19.6810627952
 20
14.3743879441
  0
LINE
  5
465
100
AcDbEntity
  8
0
100
AcDbLine
 62
7
  6
CONTINUOUS
 10
20.3211938489
 20
4.3631419089
 11
20.3211938489
 21
6.7655457696
  0
LINE
  5
466
100
AcDbEntity
  8
0
100
AcDbLine
 62
7
  6
CONTINUOUS
 10
21.3111433426
 20
4.8475358908
 11
21.3111433426
 21
7.283104252
  0
LINE
  5
467
100
AcDbEntity
  8
RACCORDO
100
AcDbLine
 62
253
  6
CONTINUOUS
 10
21.5162880101
 20
3.7622888698
 11
21.5163489261
 21
-7.4573693185
  0
LINE
  5
468
100
AcDbEntity
  8
RACCORDO
100
AcDbLine
 62
7
  6
CONTINUOUS
 10
21.7969482098
 20
12.6984112481
 11
21.7969482098
 21
7.6748231626
  0
LINE
  5
469
100
AcDbEntity
  8
RACCORDO
100
AcDbLine
 62
7
  6
CONTINUOUS
 10
21.7969482098
 20
4.1724806324
 11
21.7969482098
 21
-7.0864903603
  0
LWPOLYLINE
  5
46A
100
AcDbEntity
  8
RACCORDO
100
AcDbPolyline
 62
253
  6
CONTINUOUS
 90
58
 70
0
 10
21.5162880101
 20
7.3903565547
 10
21.5163489261
 20
12.3752412937
 10
21.5158637512
 20
12.3996458402
 10
21.5148328535
 20
12.4242771769
 10
21.5132570157
 20
12.4491166065
 10
21.511137434
 20
12.4741452735
 10
21.5084757174
 20
12.4993441789
 10
21.5052738862
 20
12.5246941944
 10
21.5015343711
 20
12.5501760771
 10
21.4972600105
 20
12.5757704838
 10
21.4924540493
 20
12.6014579861
 10
21.4871201355
 20
12.6272190848
 10
21.481262318
 20
12.6530342248
 10
21.4748850435
 20
12.6788838102
 10
21.467993153
 20
12.7047482187
 10
21.4605918779
 20
12.7306078168
 10
21.4526868365
 20
12.7564429748
 10
21.4442840296
 20
12.7822340814
 10
21.4353898355
 20
12.8079615588
 10
21.4260110058
 20
12.8336058775
 10
21.4161546599
 20
12.8591475711
 10
21.4058282796
 20
12.8845672511
 10
21.3950397037
 20
12.9098456217
 10
21.3837971216
 20
12.9349634942
 10
21.3721090674
 20
12.959901802
 10
21.3599844136
 20
12.9846416145
 10
21.3474323637
 20
13.0091641519
 10
21.334462446
 20
13.0334507995
 10
21.3210845058
 20
13.0574831214
 10
21.3073086982
 20
13.0812428749
 10
21.2931454804
 20
13.1047120241
 10
21.2786056033
 20
13.1278727539
 10
21.2637001043
 20
13.1507074831
 10
21.2484402978
 20
13.1731988781
 10
21.2328377676
 20
13.1953298658
 10
21.2169043572
 20
13.2170836469
 10
21.2006521618
 20
13.2384437081
 10
21.1840935181
 20
13.2593938352
 10
21.1672409957
 20
13.2799181253
 10
21.1501073872
 20
13.3000009984
 10
21.1327056985
 20
13.3196272099
 10
21.1150491392
 20
13.3387818616
 10
21.0971511122
 20
13.3574504134
 10
21.0790252038
 20
13.3756186942
 10
21.060685173
 20
13.3932729126
 10
21.0421449418
 20
13.4103996674
 10
21.0234185838
 20
13.4269859578
 10
21.0045203141
 20
13.4430191934
 10
20.9854644782
 20
13.4584872034
 10
20.9662655412
 20
13.4733782462
 10
20.9469380768
 20
13.4876810182
 10
20.9274967564
 20
13.5013846622
 10
20.9079563377
 20
13.5144787759
 10
20.8883316537
 20
13.5269534196
 10
20.8686376013
 20
13.5387991241
 10
20.8488891301
 20
13.5500068972
 10
20.8291012309
 20
13.5605682314
 10
19.3301967659
 20
14.3100211889
  0
LWPOLYLINE
  5
46B
100
AcDbEntity
  8
RACCORDO
100
AcDbPolyline
 62
253
  6
CONTINUOUS
 90
30
 70
0
 10
21.7969482098
 20
12.6984112481
 10
21.7969362089
 20
12.695961673
 10
21.7964314173
 20
12.6823386164
 10
21.7951844039
 20
12.6687274955
 10
21.7931960949
 20
12.6551384178
 10
21.7904679667
 20
12.6415814748
 10
21.7870020453
 20
12.6280667339
 10
21.7828009045
 20
12.6146042313
 10
21.7778676641
 20
12.6012039641
 10
21.7722059874
 20
12.5878758837
 10
21.765820079
 20
12.5746298874
 10
21.758714681
 20
12.5614758118
 10
21.75089507
 20
12.5484234253
 10
21.7423670527
 20
12.5354824205
 10
21.7331369622
 20
12.5226624076
 10
21.7232116528
 20
12.5099729067
 10
21.7125984951
 20
12.4974233412
 10
21.7013053705
 20
12.4850230303
 10
21.6893406652
 20
12.4727811828
 10
21.6767132644
 20
12.4607068894
 10
21.6634325453
 20
12.4488091165
 10
21.6495083701
 20
12.4370966996
 10
21.6349510791
 20
12.4255783363
 10
21.6197714825
 20
12.4142625802
 10
21.6039808528
 20
12.4031578344
 10
21.5875909163
 20
12.3922723455
 10
21.5706138441
 20
12.381614197
 10
21.5530622436
 20
12.3711913038
 10
21.5349491486
 20
12.3610114058
 10
21.5162880101
 20
12.3510820629
  0
LWPOLYLINE
  5
46C
100
AcDbEntity
  8
RACCORDO
100
AcDbPolyline
 62
253
  6
CONTINUOUS
 90
29
 70
0
 10
21.7969202554
 20
-7.0893678711
 10
21.7964316525
 20
-7.1025593347
 10
21.7951848238
 20
-7.1161705832
 10
21.7931966853
 20
-7.1297597924
 10
21.7904687133
 20
-7.1433168705
 10
21.7870029334
 20
-7.1568317496
 10
21.7828019191
 20
-7.1702943934
 10
21.7778687899
 20
-7.1836948039
 10
21.7722072093
 20
-7.1970230296
 10
21.7658213812
 20
-7.2102691728
 10
21.758716048
 20
-7.2234233963
 10
21.7508964861
 20
-7.2364759314
 10
21.7423685022
 20
-7.2494170852
 10
21.7331384295
 20
-7.2622372469
 10
21.7232131222
 20
-7.274926896
 10
21.7125999511
 20
-7.2874766089
 10
21.7013067977
 20
-7.2998770658
 10
21.6893420484
 20
-7.3121190579
 10
21.6767145884
 20
-7.324193494
 10
21.6634337954
 20
-7.3360914069
 10
21.6495095321
 20
-7.3478039611
 10
21.6349521387
 20
-7.3593224585
 10
21.6197724259
 20
-7.3706383453
 10
21.6039816657
 20
-7.3817432185
 10
21.5875915854
 20
-7.3926288309
 10
21.5706143591
 20
-7.403287097
 10
21.5530625957
 20
-7.4137101012
 10
21.5349493289
 20
-7.423890104
 10
21.5162880101
 20
-7.4338195455
  0
LWPOLYLINE
  5
46D
100
AcDbEntity
  8
RACCORDO
100
AcDbPolyline
 62
7
  6
CONTINUOUS
 90
19
 70
0
 10
-0.9176654578
 20
-24.7507855635
 10
-0.9114397861
 20
-24.7469669538
 10
-0.9054904481
 20
-24.7426552016
 10
-0.8998309239
 20
-24.7378600765
 10
-0.8944740633
 20
-24.7325924556
 10
-0.8894319932
 20
-24.7268642682
 10
-0.8847160927
 20
-24.7206884717
 10
-0.8803370954
 20
-24.7140790823
 10
-0.8763049351
 20
-24.70705108
 10
-0.872628658
 20
-24.6996203462
 10
-0.869316663
 20
-24.69180375
 10
-0.8663764887
 20
-24.6836190174
 10
-0.8638146642
 20
-24.6750846292
 10
-0.8616370829
 20
-24.6662199641
 10
-0.8598487347
 20
-24.6570451326
 10
-0.8584534991
 20
-24.6475808378
 10
-0.8574545411
 20
-24.6378485233
 10
-0.8568543037
 20
-24.6278703242
 10
-0.8566542476
 20
-24.6176688945
  0
LWPOLYLINE
  5
46E
100
AcDbEntity
  8
RACCORDO
100
AcDbPolyline
 62
253
  6
CONTINUOUS
 90
18
 70
0
 10
-0.3920695653
 20
-24.4812187996
 10
-0.3864784577
 20
-24.4781051686
 10
-0.3797608209
 20
-24.4736595916
 10
-0.3733897761
 20
-24.4686247956
 10
-0.3673828275
 20
-24.4630145928
 10
-0.3617564737
 20
-24.456844381
 10
-0.3565261506
 20
-24.4501310838
 10
-0.3517061955
 20
-24.4428930988
 10
-0.3473098288
 20
-24.4351502726
 10
-0.3433491071
 20
-24.4269238319
 10
-0.339834894
 20
-24.4182363332
 10
-0.3367768305
 20
-24.4091116043
 10
-0.3341833015
 20
-24.3995746584
 10
-0.332061422
 20
-24.3896516513
 10
-0.3304170154
 20
-24.3793698216
 10
-0.3292545885
 20
-24.368757375
 10
-0.328577324
 20
-24.3578434037
 10
-0.3283870759
 20
-24.3466578358
  0
LWPOLYLINE
  5
46F
100
AcDbEntity
  8
RACCORDO
100
AcDbPolyline
 62
253
  6
CONTINUOUS
 90
18
 70
0
 10
-2.5241965737
 20
-25.5335540924
 10
-2.5168286643
 20
-25.5295472527
 10
-2.5101171659
 20
-25.5250996523
 10
-2.5037445355
 20
-25.5200590274
 10
-2.4977282112
 20
-25.5144391922
 10
-2.4920846355
 20
-25.5082555097
 10
-2.4868292203
 20
-25.5015248404
 10
-2.4819764542
 20
-25.4942657112
 10
-2.4775397736
 20
-25.4864982631
 10
-2.4735313817
 20
-25.478243998
 10
-2.4699621427
 20
-25.4695254393
 10
-2.4668417242
 20
-25.4603662643
 10
-2.4641781505
 20
-25.4507894473
 10
-2.4619794583
 20
-25.4408232061
 10
-2.4602526132
 20
-25.4305014576
 10
-2.459001669
 20
-25.4198553895
 10
-2.4582287404
 20
-25.4089125917
 10
-2.4579350385
 20
-25.3977034941
  0
LWPOLYLINE
  5
470
100
AcDbEntity
  8
RACCORDO
100
AcDbPolyline
 62
7
  6
CONTINUOUS
 90
22
 70
0
 10
-0.3920695653
 20
-24.4812187996
 10
-0.3822627045
 20
-24.4759077935
 10
-0.3712510936
 20
-24.4692411428
 10
-0.3605874388
 20
-24.4620095172
 10
-0.3503007496
 20
-24.4542302986
 10
-0.3404120718
 20
-24.4459160069
 10
-0.3309488877
 20
-24.437085025
 10
-0.3219406343
 20
-24.4277599327
 10
-0.3134112845
 20
-24.417960164
 10
-0.3053864671
 20
-24.4077088581
 10
-0.2978919609
 20
-24.3970322735
 10
-0.2909508712
 20
-24.3859561661
 10
-0.284585861
 20
-24.3745088043
 10
-0.2788181272
 20
-24.3627197342
 10
-0.2736668333
 20
-24.350618423
 10
-0.2691496976
 20
-24.3382349698
 10
-0.265284262
 20
-24.3256043754
 10
-0.2620864768
 20
-24.3127653046
 10
-0.2595688927
 20
-24.2997536635
 10
-0.2577419448
 20
-24.2866051962
 10
-0.2566144214
 20
-24.2733598544
 10
-0.2561892189
 20
-24.2587848675
  0
LINE
  5
471
100
AcDbEntity
  8
RACCORDO
100
AcDbLine
 62
7
  6
CONTINUOUS
 10
-0.9207593467
 20
-24.7524466653
 11
-0.9176654578
 21
-24.7507855635
  0
LINE
  5
472
100
AcDbEntity
  8
RACCORDO
100
AcDbLine
 62
253
  6
CONTINUOUS
 10
-0.3283870759
 20
-24.3466578358
 11
-0.8566542476
 21
-24.6176688945
  0
LINE
  5
473
100
AcDbEntity
  8
RACCORDO
100
AcDbLine
 62
7
  6
CONTINUOUS
 10
-0.3920751134
 20
-24.4812216461
 11
-0.920757377
 21
-24.7524456547
  0
LINE
  5
474
100
AcDbEntity
  8
RACCORDO
100
AcDbLine
 62
7
  6
CONTINUOUS
 10
-0.9224957641
 20
-24.7533148883
 11
-0.9207593467
 21
-24.7524466653
  0
LINE
  5
475
100
AcDbEntity
  8
RACCORDO
100
AcDbLine
 62
253
  6
CONTINUOUS
 10
-0.8566542476
 20
-24.6176688945
 11
-2.4579350385
 21
-25.3977034941
  0
LINE
  5
476
100
AcDbEntity
  8
RACCORDO
100
AcDbLine
 62
7
  6
CONTINUOUS
 10
-0.9224985281
 20
-24.7533162347
 11
-2.524196631
 21
-25.5335541203
  0
LWPOLYLINE
  5
477
100
AcDbEntity
  8
RACCORDO
100
AcDbPolyline
 62
7
  6
CONTINUOUS
 90
3
 70
0
 10
-0.6352363352
 20
-23.0411511428
 10
-0.6388738604
 20
-23.0428920097
 10
-0.6445920454
 20
-23.0454175056
  0
LINE
  5
478
100
AcDbEntity
  8
RACCORDO
100
AcDbLine
 62
253
  6
CONTINUOUS
 10
-1.392971112
 20
-23.1646805166
 11
-0.9669143224
 21
-22.9857045632
  0
LINE
  5
479
100
AcDbEntity
  8
RACCORDO
100
AcDbLine
 62
253
  6
CONTINUOUS
 10
-0.9669143224
 20
-22.9857045632
 11
-0.514078527
 21
-22.7956646206
  0
LWPOLYLINE
  5
47A
100
AcDbEntity
  8
RACCORDO
100
AcDbPolyline
 62
7
  6
CONTINUOUS
 90
10
 70
0
 10
-6.1656324295
 20
-25.3412604228
 10
-5.6390158245
 20
-25.1211399663
 10
-5.0807043243
 20
-24.8895042451
 10
-4.50213392
 20
-24.6506309165
 10
-3.903744647
 20
-24.4040757896
 10
-3.2859917784
 20
-24.1493114344
 10
-2.6494516049
 20
-23.885589801
 10
-1.9950262772
 20
-23.6123068611
 10
-1.3229415761
 20
-23.3301448075
 10
-0.6445921305
 20
-23.0454175477
  0
LWPOLYLINE
  5
47B
100
AcDbEntity
  8
RACCORDO
100
AcDbPolyline
 62
253
  6
CONTINUOUS
 90
8
 70
0
 10
-5.7717979304
 20
-24.9598759956
 10
-5.5335516312
 20
-24.8609855346
 10
-5.2968208735
 20
-24.7632877412
 10
-5.0636961274
 20
-24.6677351796
 10
-4.8320869229
 20
-24.5733752856
 10
-4.5957218504
 20
-24.4773503662
 10
-4.3514392398
 20
-24.3783729662
 10
-3.5975352776
 20
-24.0735940477
  0
LWPOLYLINE
  5
47C
100
AcDbEntity
  8
RACCORDO
100
AcDbPolyline
 62
253
  6
CONTINUOUS
 90
11
 70
0
 10
-3.5975352776
 20
-24.0735940477
 10
-3.3417082729
 20
-23.9700999799
 10
-3.0940377671
 20
-23.8695619903
 10
-2.8577766599
 20
-23.7732170811
 10
-2.6296720517
 20
-23.6798282502
 10
-2.4096640102
 20
-23.5893009224
 10
-2.2005286654
 20
-23.5026846361
 10
-1.9994898873
 20
-23.4189298528
 10
-1.7981593539
 20
-23.3347933817
 10
-1.5957111106
 20
-23.249927793
 10
-1.392971112
 20
-23.1646805166
  0
LWPOLYLINE
  5
47D
100
AcDbEntity
  8
RACCORDO
100
AcDbPolyline
 62
253
  6
CONTINUOUS
 90
25
 70
0
 10
8.971009498
 20
19.7292818384
 10
8.9564133927
 20
19.735796822
 10
8.9408503196
 20
19.7419307537
 10
8.9249834322
 20
19.747388238
 10
8.9088245135
 20
19.7521652221
 10
8.892385563
 20
19.7562581585
 10
8.8756787884
 20
19.759664008
 10
8.8587165963
 20
19.7623802412
 10
8.8415115829
 20
19.764404841
 10
8.8240765247
 20
19.765736304
 10
8.8064243692
 20
19.7663736415
 10
8.7885682248
 20
19.7663163801
 10
8.7705213517
 20
19.7655645623
 10
8.7522971515
 20
19.7641187465
 10
8.7339091577
 20
19.7619800064
 10
8.7153710252
 20
19.7591499301
 10
8.6966965207
 20
19.7556306193
 10
8.6778995119
 20
19.7514246876
 10
8.6589939575
 20
19.7465352581
 10
8.6399938969
 20
19.7409659618
 10
8.6209134397
 20
19.7347209346
 10
8.6017667551
 20
19.727804814
 10
8.5825680616
 20
19.7202227359
 10
8.5633316162
 20
19.7119803309
 10
8.544071704
 20
19.7030837199
  0
LWPOLYLINE
  5
47E
100
AcDbEntity
  8
RACCORDO
100
AcDbPolyline
 62
7
  6
CONTINUOUS
 90
18
 70
0
 10
-2.9903706895
 20
24.0967336422
 10
-3.0099327738
 20
24.1058233753
 10
-3.032828554
 20
24.1148087899
 10
-3.0563378403
 20
24.1223110227
 10
-3.0804791624
 20
24.1283451925
 10
-3.1051689157
 20
24.1328909769
 10
-3.130430342
 20
24.1359449604
 10
-3.1562401994
 20
24.1375105583
 10
-3.1824451583
 20
24.1375776949
 10
-3.2090291209
 20
24.1361389189
 10
-3.2360081849
 20
24.1332016816
 10
-3.2632773136
 20
24.1287782603
 10
-3.2908514932
 20
24.1228598747
 10
-3.3187157375
 20
24.1154553052
 10
-3.3467200505
 20
24.1066031706
 10
-3.3748144338
 20
24.0963163439
 10
-3.4030488858
 20
24.0845819521
 10
-3.4314234065
 20
24.0713999953
  0
LWPOLYLINE
  5
47F
100
AcDbEntity
  8
RACCORDO
100
AcDbPolyline
 62
7
  6
CONTINUOUS
 90
34
 70
0
 10
8.9789445846
 20
19.7254470495
 10
8.9546832383
 20
19.7371718294
 10
8.9300806819
 20
19.7482534829
 10
8.9051578441
 20
19.7586794857
 10
8.8799256459
 20
19.7684421117
 10
8.8544166471
 20
19.7775260476
 10
8.8286855069
 20
19.7859114828
 10
8.8029301434
 20
19.7935431146
 10
8.7770012472
 20
19.8004746022
 10
8.750425811
 20
19.8068131639
 10
8.7228390225
 20
19.8125888674
 10
8.6946441614
 20
19.8176602683
 10
8.6665203454
 20
19.8218941337
 10
8.6388013549
 20
19.8252713039
 10
8.6112070739
 20
19.8278566314
 10
8.5834973576
 20
19.8296790812
 10
8.5556590315
 20
19.8307335419
 10
8.5277562015
 20
19.8310119589
 10
8.499665815
 20
19.8305056386
 10
8.4711876815
 20
19.8291854296
 10
8.4425810549
 20
19.8270380757
 10
8.4144021515
 20
19.8241129779
 10
8.3871089838
 20
19.8205068342
 10
8.3602650265
 20
19.8162099024
 10
8.3330903928
 20
19.8110922606
 10
8.3050912562
 20
19.8049985185
 10
8.2768453667
 20
19.7979910674
 10
8.2491725792
 20
19.7902699536
 10
8.2225042686
 20
19.7820082049
 10
8.1964055749
 20
19.7731222234
 10
8.1703829175
 20
19.7634508592
 10
8.1441686114
 20
19.7528633392
 10
8.1180874465
 20
19.7414587743
 10
5.697861819
 20
18.623739535
  0
LWPOLYLINE
  5
480
100
AcDbEntity
  8
RACCORDO
100
AcDbPolyline
 62
253
  6
CONTINUOUS
 90
26
 70
0
 10
21.2441552649
 20
13.5928417092
 10
21.2368819514
 20
13.5963806665
 10
21.2216341823
 20
13.6031867128
 10
21.2060710313
 20
13.6093208558
 10
21.1902040563
 20
13.61477854
 10
21.1740450402
 20
13.6195557121
 10
21.157605983
 20
13.6236488244
 10
21.1408990929
 20
13.6270548369
 10
21.1239367768
 20
13.6297712201
 10
21.1067316311
 20
13.6317959567
 10
21.089296433
 20
13.6331275428
 10
21.0716441303
 20
13.6337649896
 10
21.0537878318
 20
13.6337078235
 10
21.0357407982
 20
13.6329560868
 10
21.0175164315
 20
13.6315103378
 10
20.9991282654
 20
13.6293716499
 10
20.980589956
 20
13.6265416115
 10
20.9619152702
 20
13.6230223241
 10
20.943118076
 20
13.6188164013
 10
20.9242123329
 20
13.6139269663
 10
20.9052120796
 20
13.6083576499
 10
20.886131427
 20
13.6021125881
 10
20.8669845478
 20
13.5951964199
 10
20.8477856618
 20
13.5876142818
 10
20.8285490256
 20
13.5793718046
 10
20.8092889247
 20
13.5704751095
  0
LINE
  5
481
100
AcDbEntity
  8
DRAFT
100
AcDbLine
 62
7
  6
CONTINUOUS
 10
11.1201665351
 20
17.877737504
 11
13.1195150564
 21
16.8780632434
  0
LINE
  5
482
100
AcDbEntity
  8
DRAFT
100
AcDbLine
 62
7
  6
CONTINUOUS
 10
18.7763693059
 20
14.0496361187
 11
16.7770207846
 21
15.0493103793
  0
LINE
  5
483
100
AcDbEntity
  8
RACCORDO
100
AcDbLine
 62
253
  6
CONTINUOUS
 10
13.6733425164
 20
17.1384483137
 11
15.6800181123
 21
16.1351105157
  0
LWPOLYLINE
  5
484
100
AcDbEntity
  8
RACCORDO
100
AcDbPolyline
 62
253
  6
CONTINUOUS
 90
25
 70
0
 10
10.0231638628
 20
18.9635376404
 10
8.5249297717
 20
19.712653961
 10
8.5057930022
 20
19.7215549612
 10
8.4866759219
 20
19.7297799638
 10
8.4675930426
 20
19.7373227252
 10
8.4485588498
 20
19.7441775198
 10
8.4295877924
 20
19.7503391442
 10
8.4106942709
 20
19.7558029212
 10
8.3918926274
 20
19.7605647031
 10
8.373197134
 20
19.7646208755
 10
8.3546219823
 20
19.7679683593
 10
8.3361812725
 20
19.7706046135
 10
8.3178890029
 20
19.7725276369
 10
8.2997590589
 20
19.7737359697
 10
8.2818052028
 20
19.7742286947
 10
8.2640410633
 20
19.7740054379
 10
8.2464801249
 20
19.7730663688
 10
8.229135718
 20
19.7714122002
 10
8.2120210086
 20
19.7690441877
 10
8.1951489884
 20
19.765964129
 10
8.1785324647
 20
19.762174362
 10
8.1621840509
 20
19.7576777635
 10
8.1461161572
 20
19.7524777469
 10
8.1303409803
 20
19.7465782594
 10
8.1148704952
 20
19.7399837794
  0
LINE
  5
485
100
AcDbEntity
  8
RACCORDO
100
AcDbLine
 62
7
  6
CONTINUOUS
 10
8.9789445846
 20
19.7254470495
 11
10.5420435947
 21
18.9438975444
  0
LINE
  5
486
100
AcDbEntity
  8
RACCORDO
100
AcDbLine
 62
7
  6
CONTINUOUS
 10
14.0242085457
 20
17.2028150689
 11
16.1988978441
 21
16.1154704197
  0
LINE
  5
487
100
AcDbEntity
  8
RACCORDO
100
AcDbLine
 62
7
  6
CONTINUOUS
 10
16.7698949763
 20
15.419044646
 11
16.7770207846
 21
15.4003652223
  0
LINE
  5
488
100
AcDbEntity
  8
0
100
AcDbLine
 62
7
  6
CONTINUOUS
 10
-2.7304872178
 20
23.2850753689
 11
-4.0904191579
 21
23.2113271815
  0
LWPOLYLINE
  5
489
100
AcDbEntity
  8
ASSI
100
AcDbPolyline
 62
7
  6
CONTINUOUS
 90
16
 70
0
 10
-6.1114567073
 20
24.9356195201
 10
-6.099301117
 20
24.9389837933
 10
-6.0865683731
 20
24.9415865467
 10
-6.0732647173
 20
24.9434112011
 10
-6.0593901224
 20
24.9444550689
 10
-6.0449621878
 20
24.9446867638
 10
-6.0300184998
 20
24.9440479252
 10
-6.0145775696
 20
24.9425161612
 10
-5.9986545153
 20
24.9400829989
 10
-5.9822878489
 20
24.936713759
 10
-5.9655371961
 20
24.9324040598
 10
-5.9483907369
 20
24.9271324309
 10
-5.9307792626
 20
24.9208342301
 10
-5.9127187066
 20
24.913491995
 10
-5.8942439136
 20
24.9050850796
 10
-5.8866775354
 20
24.9013811664
  0
ELLIPSE
  5
48A
100
AcDbEntity
  8
RACCORDO
100
AcDbEllipse
 62
7
  6
CONTINUOUS
 10
-0.1142405979
 20
-22.2823343167
 30
0.0
 11
-0.2012801021
 21
0.4024798509
 31
0.0
 40
0.6124778111
 41
-3.1449381207
 42
-2.255529033
  0
ELLIPSE
  5
48B
100
AcDbEntity
  8
RACCORDO
100
AcDbEllipse
 62
7
  6
CONTINUOUS
 10
-0.1142405979
 20
15.7210358519
 30
0.0
 11
-0.2013341403
 21
0.4025279144
 31
0.0
 40
0.6122950388
 41
-2.2557482655
 42
-0.6847996396
  0
ELLIPSE
  5
48C
100
AcDbEntity
  8
RACCORDO
100
AcDbEllipse
 62
7
  6
CONTINUOUS
 10
4.4000487829
 20
19.3590071742
 30
0.0
 11
0.499996712
 21
0.0035883639
 31
0.0
 40
0.5053247124
 41
-0.7715714568
 42
-0.0036478305
  0
ELLIPSE
  5
48D
100
AcDbEntity
  8
ASSI
100
AcDbEllipse
 62
7
  6
CONTINUOUS
 10
-6.1644567438
 20
24.4812495853
 30
0.0
 11
0.2257019663
 21
0.4461636818
 31
0.0
 40
0.6159267166
 41
0.5380090616
 42
0.6817883054
  0
ELLIPSE
  5
48E
100
AcDbEntity
  8
RACCORDO
100
AcDbEllipse
 62
7
  6
CONTINUOUS
 10
-12.3655243981
 20
-7.5149197187
 30
0.0
 11
0.2205149116
 21
0.4487546221
 31
0.0
 40
0.607010042
 41
0.6892518406
 42
0.6963772915
  0
ELLIPSE
  5
48F
100
AcDbEntity
  8
RACCORDO
100
AcDbEllipse
 62
7
  6
CONTINUOUS
 10
-7.2116397996
 20
25.0893451712
 30
0.0
 11
0.9987332359
 21
0.6172510855
 31
0.0
 40
0.0815198604
 41
0.0509898783
 42
0.7263320369
  0
ELLIPSE
  5
490
100
AcDbEntity
  8
RACCORDO
100
AcDbEllipse
 62
7
  6
CONTINUOUS
 10
4.5790924888
 20
-17.7206885172
 30
0.0
 11
0.9987332359
 21
0.6172510855
 31
0.0
 40
0.0815198604
 41
-2.3978073241
 42
-1.2985018509
  0
ELLIPSE
  5
491
100
AcDbEntity
  8
RACCORDO
100
AcDbEllipse
 62
7
  6
CONTINUOUS
 10
-11.4965484077
 20
21.9587299166
 30
0.0
 11
0.4999985559
 21
0.0023864752
 31
0.0
 40
0.5035541159
 41
2.3596088132
 42
3.0002042076
  0
ELLIPSE
  5
492
100
AcDbEntity
  8
RACCORDO
100
AcDbEllipse
 62
7
  6
CONTINUOUS
 10
4.5790924888
 20
19.193979027
 30
0.0
 11
-0.7417913999
 21
1.2002436976
 31
0.0
 40
0.5587454355
 41
5.1248137075
 42
6.2241191807
  0
ELLIPSE
  5
493
100
AcDbEntity
  8
RACCORDO
100
AcDbEllipse
 62
7
  6
CONTINUOUS
 10
4.4000487829
 20
-17.9299088361
 30
0.0
 11
0.499366618
 21
0.3086255427
 31
0.0
 40
0.0815198604
 41
6.1080157147
 42
7.0007906979
  0
ELLIPSE
  5
494
100
AcDbEntity
  8
DRAFT
100
AcDbEllipse
 62
7
  6
CONTINUOUS
 10
-0.2556134836
 20
20.7789061936
 30
0.0
 11
0.4279673669
 21
-0.0030279657
 31
0.0
 40
0.4946372042
 41
-0.7760807437
 42
0.0034304302
  0
ELLIPSE
  5
495
100
AcDbEntity
  8
DRAFT
100
AcDbEllipse
 62
7
  6
CONTINUOUS
 10
-5.8106019128
 20
23.5564004082
 30
0.0
 11
0.4279673669
 21
-0.0030279657
 31
0.0
 40
0.4946372042
 41
-0.7818985079
 42
0.0034334386
  0
ELLIPSE
  5
496
100
AcDbEntity
  8
ASSI
100
AcDbEllipse
 62
7
  6
CONTINUOUS
 10
-0.003624473
 20
21.4008334499
 30
0.0
 11
0.221538876
 21
0.4482453432
 31
0.0
 40
0.6088015717
 41
0.5323082896
 42
0.6760875334
  0
ELLIPSE
  5
497
100
AcDbEntity
  8
RACCORDO
100
AcDbEllipse
 62
7
  6
CONTINUOUS
 10
-19.0964353529
 20
-4.1494642413
 30
0.0
 11
0.2267599918
 21
0.4456316896
 31
0.0
 40
0.6176975122
 41
0.6978040307
 42
0.7049297733
  0
ELLIPSE
  5
498
100
AcDbEntity
  8
RACCORDO
100
AcDbEllipse
 62
7
  6
CONTINUOUS
 10
-17.1165363655
 20
-5.139413735
 30
0.0
 11
0.2267599918
 21
0.4456316896
 31
0.0
 40
0.6176975122
 41
0.6978040307
 42
0.7049300188
  0
ELLIPSE
  5
499
100
AcDbEntity
  8
RACCORDO
100
AcDbEllipse
 62
7
  6
CONTINUOUS
 10
-17.1060052559
 20
-6.51976835
 30
0.0
 11
0.2267599918
 21
0.4456316896
 31
0.0
 40
0.6176975122
 41
0.6978040307
 42
0.7081323303
  0
ELLIPSE
  5
49A
100
AcDbEntity
  8
RACCORDO
100
AcDbEllipse
 62
7
  6
CONTINUOUS
 10
-16.3635431357
 20
-6.8909994102
 30
0.0
 11
0.2267599918
 21
0.4456316896
 31
0.0
 40
0.6176975122
 41
0.6978040307
 42
0.708132539
  0
ELLIPSE
  5
49B
100
AcDbEntity
  8
RACCORDO
100
AcDbEllipse
 62
7
  6
CONTINUOUS
 10
4.4000487829
 20
20.289349833
 30
0.0
 11
-0.3708957
 21
0.6001218488
 31
0.0
 40
0.5587454355
 41
-3.1744788413
 42
-2.2817038581
  0
ELLIPSE
  5
49C
100
AcDbEntity
  8
RACCORDO
100
AcDbEllipse
 62
7
  6
CONTINUOUS
 10
-5.985241308
 20
17.9704667615
 30
0.0
 11
0.4998587701
 21
0.0223649649
 31
0.0
 40
0.5313301283
 41
-2.3799630874
 42
-0.8149845248
  0
ELLIPSE
  5
49D
100
AcDbEntity
  8
RACCORDO
100
AcDbEllipse
 62
7
  6
CONTINUOUS
 10
-5.985241308
 20
19.2030763667
 30
0.0
 11
0.4999985559
 21
0.0023864752
 31
0.0
 40
0.5035541159
 41
-1.4342147631
 42
-0.7936193687
  0
ELLIPSE
  5
49E
100
AcDbEntity
  8
RACCORDO
100
AcDbEllipse
 62
7
  6
CONTINUOUS
 10
-11.4965484077
 20
20.7261203114
 30
0.0
 11
0.4998587701
 21
0.0223649649
 31
0.0
 40
0.5313301283
 41
3.1178197826
 42
3.9032222197
  0
ELLIPSE
  5
49F
100
AcDbEntity
  8
RACCORDO
100
AcDbEllipse
 62
7
  6
CONTINUOUS
 10
-16.6199901928
 20
22.7234712669
 30
0.0
 11
0.249929385
 21
0.0111824824
 31
0.0
 40
0.5313301283
 41
3.1178369227
 42
3.9032222197
  0
ELLIPSE
  5
4A0
100
AcDbEntity
  8
RACCORDO
100
AcDbEllipse
 62
7
  6
CONTINUOUS
 10
-15.2867778591
 20
22.0568651
 30
0.0
 11
0.249929385
 21
0.0111824824
 31
0.0
 40
0.5313301283
 41
-2.3799630874
 42
-0.8149845248
  0
ELLIPSE
  5
4A1
100
AcDbEntity
  8
RACCORDO
100
AcDbEllipse
 62
7
  6
CONTINUOUS
 10
-3.2556720284
 20
16.0413121847
 30
0.0
 11
0.249929385
 21
0.0111824824
 31
0.0
 40
0.5313301283
 41
3.1178369227
 42
3.9032222197
  0
ELLIPSE
  5
4A2
100
AcDbEntity
  8
RACCORDO
100
AcDbEllipse
 62
7
  6
CONTINUOUS
 10
-1.9224596947
 20
15.3747060178
 30
0.0
 11
0.249929385
 21
0.0111824824
 31
0.0
 40
0.5313301283
 41
-2.3799630874
 42
-0.8149845248
  0
ELLIPSE
  5
4A3
100
AcDbEntity
  8
RACCORDO
100
AcDbEllipse
 62
7
  6
CONTINUOUS
 10
20.7969482098
 20
7.5055295402
 30
0.0
 11
0.9980132943
 21
0.1905986291
 31
0.0
 40
0.3305568633
 41
-0.8309903123
 42
-0.0630795998
  0
ELLIPSE
  5
4A4
100
AcDbEntity
  8
RACCORDO
100
AcDbEllipse
 62
7
  6
CONTINUOUS
 10
13.2525943633
 20
16.4705881714
 30
0.0
 11
0.8015998653
 21
0.7095690041
 31
0.0
 40
0.2925003
 41
0.1172816892
 42
0.7844297192
  0
ELLIPSE
  5
4A5
100
AcDbEntity
  8
RACCORDO
100
AcDbEllipse
 62
7
  6
CONTINUOUS
 10
18.9094486128
 20
13.6421610466
 30
0.0
 11
0.8015998653
 21
0.7095690041
 31
0.0
 40
0.2925003
 41
0.1172816892
 42
0.7844297192
  0
ELLIPSE
  5
4A6
100
AcDbEntity
  8
RACCORDO
100
AcDbEllipse
 62
7
  6
CONTINUOUS
 10
5.7372188015
 20
16.1059959125
 30
0.0
 11
-0.894612936
 21
1.7887945813
 31
0.0
 40
0.6124635976
 41
-2.2555607096
 42
-1.470288718
  0
ELLIPSE
  5
4A7
100
AcDbEntity
  8
RACCORDO
100
AcDbEllipse
 62
7
  6
CONTINUOUS
 10
5.7372188015
 20
-14.376618153
 30
0.0
 11
-0.894811907
 21
1.788971565
 31
0.0
 40
0.6123121697
 41
-3.0410143285
 42
-2.2557423369
  0
ELLIPSE
  5
4A8
100
AcDbEntity
  8
0
100
AcDbEllipse
 62
7
  6
CONTINUOUS
 10
7.9379765275
 20
-1.4540538629
 30
0.0
 11
0.8766937781
 21
1.8149893181
 31
0.0
 40
0.6016130338
 41
0.6805509319
 42
1.272789154
  0
ELLIPSE
  5
4A9
100
AcDbEntity
  8
RACCORDO
100
AcDbEllipse
 62
7
  6
CONTINUOUS
 10
20.7969482098
 20
4.3417742548
 30
0.0
 11
0.9839279921
 21
-0.2843414674
 31
0.0
 40
0.627997363
 41
-0.5884163501
 42
0.9649266842
  0
ELLIPSE
  5
4AA
100
AcDbEntity
  8
RACCORDO
100
AcDbEllipse
 62
7
  6
CONTINUOUS
 10
10.4192305861
 20
17.88727006
 30
0.0
 11
-0.3059798455
 21
1.1103385921
 31
0.0
 40
0.6705926962
 41
4.8543332371
 42
6.4076762714
  0
ELLIPSE
  5
4AB
100
AcDbEntity
  8
RACCORDO
100
AcDbEllipse
 62
7
  6
CONTINUOUS
 10
16.0760848356
 20
15.0588429352
 30
0.0
 11
-0.3059798455
 21
1.1103385921
 31
0.0
 40
0.6705926962
 41
4.8543332371
 42
6.4076762714
  0
ELLIPSE
  5
4AC
100
AcDbEntity
  8
0
100
AcDbEllipse
 62
7
  6
CONTINUOUS
 10
7.9379765275
 20
-1.4540538629
 30
0.0
 11
0.8766937781
 21
1.8149893181
 31
0.0
 40
0.6016130338
 41
-3.0613792266
 42
-2.4691410043
  0
ENDSEC
  0
SECTION
  2
OBJECTS
  0
DICTIONARY
  5
C
100
AcDbDictionary
280
0
281
1
  3
ACAD_GROUP
350
D
  3
ACAD_MLINESTYLE
350
17
  3
ACAD_LAYOUT
350
1A
  3
ACAD_PLOTSETTINGS
350
19
  3
ACAD_PLOTSTYLENAME
350
E
  0
DICTIONARY
  5
D
102
{ACAD_REACTORS
330
C
102
}
100
AcDbDictionary
280
0
281
1
  0
ACDBDICTIONARYWDFLT
  5
E
102
{ACAD_REACTORS
330
C
102
}
100
AcDbDictionary
281
1
  3
Normal
350
F
100
AcDbDictionaryWithDefault
340
F
  0
DICTIONARY
  5
17
102
{ACAD_REACTORS
330
C
102
}
100
AcDbDictionary
280
0
281
1
  3
Standard
350
18
  0
DICTIONARY
  5
19
102
{ACAD_REACTORS
330
C
102
}
100
AcDbDictionary
281
1
  0
DICTIONARY
  5
1A
102
{ACAD_REACTORS
330
C
102
}
100
AcDbDictionary
281
1
  3
Model
350
4AD
  3
Layout1
350
4AE
  0
ACDBPLACEHOLDER
  5
F
102
{ACAD_REACTORS
330
E
102
}
  0
MLINESTYLE
  5
18
102
{ACAD_REACTORS
330
17
102
}
100
AcDbMlineStyle
  2
STANDARD
 70
0
  3

 62
256
 51
90.0
 52
90.0
 71
2
 49
0.5
 62
256
  6
BYLAYER
 49
-0.5
 62
256
  6
BYLAYER
  0
LAYOUT
  5
4AD
102
{ACAD_REACTORS
330
1A
102
}
100
AcDbPlotSettings
  1

  2
none_device
  4
ISO_A4_(297.00_x_210.00_MM)
  6

 40
0.0
 41
0.0
 42
0.0
 43
0.0
 44
297.0
 45
210.0
 46
0.0
 47
0.0
 48
0.0
 49
0.0
140
0.0
141
0.0
142
1.0
143
1.0
 70
1024
 72
1
 73
0
 74
0
  7

 75
0
147
1.0
148
0.0
149
0.0
100
AcDbLayout
  1
Model
 70
0
 71
0
 10
0.0
 20
0.0
 11
297.0
 21
210.0
 12
0.0
 22
0.0
 32
0.0
 14
0.0
 24
0.0
 34
0.0
 15
0.0
 25
0.0
 35
0.0
146
0.0
 13
0.0
 23
0.0
 33
0.0
 16
1.0
 26
0.0
 36
0.0
 17
0.0
 27
1.0
 37
0.0
 76
0
330
211
345
0
346
0
  0
LAYOUT
  5
4AE
102
{ACAD_REACTORS
330
1A
102
}
100
AcDbPlotSettings
  1

  2
none_device
  4
ISO_A4_(297.00_x_210.00_MM)
  6

 40
0.0
 41
0.0
 42
0.0
 43
0.0
 44
297.0
 45
210.0
 46
0.0
 47
0.0
 48
0.0
 49
0.0
140
0.0
141
0.0
142
1.0
143
1.0
 70
0
 72
1
 73
0
 74
0
  7

 75
0
147
1.0
148
0.0
149
0.0
100
AcDbLayout
  1
Layout1
 70
0
 71
1
 10
0.0
 20
0.0
 11
297.0
 21
210.0
 12
0.0
 22
0.0
 32
0.0
 14
0.0
 24
0.0
 34
0.0
 15
0.0
 25
0.0
 35
0.0
146
0.0
 13
0.0
 23
0.0
 33
0.0
 16
1.0
 26
0.0
 36
0.0
 17
0.0
 27
1.0
 37
0.0
 76
0
330
212
345
0
346
0
  0
ENDSEC
  0
EOF
