  0
SECTION
  2
HEADER
  9
$ACADVER
  1
AC1024
  9
$DWGCODEPAGE
  3
ANSI_1252
  9
$EXTMAX
 10
297.0
 20
210.0
 30
0.0
  9
$EXTMIN
 10
0.0
 20
0.0
 30
0.0
  9
$LIMMIN
 10
0.0
 20
0.0
  9
$LIMMAX
 10
297.0
 20
210.0
  9
$VIEWCTR
 10
148.5
 20
105.0
  9
$VIEWSIZE
 40
210.0
  9
$CLAYER
  8
0
  9
$LTSCALE
 40
16.335
  9
$CELTYPE
  6
BYLAYER
  9
$DIMSCALE
 40
1.0
  9
$DIMASZ
 40
3.0
  9
$DIMEXO
 40
0.5
  9
$DIMDLI
 40
11.286
  9
$DIMEXE
 40
1.5
  9
$DIMCEN
 40
2.673
  9
$DIMLFAC
 40
1.0
  9
$DIMBLK
  1
_FILLED
  9
$DIMALT
 70
0
  9
$DIMALTF
 40
0.0393700787
  9
$DIMTXT
 40
3.0
  9
$DIMTOL
 70
1
  9
$DIMLIM
 70
0
  9
$DIMTFAC
 40
1.0
  9
$DIMTP
 40
0.01
  9
$DIMTM
 40
0.01
  9
$DIMGAP
 40
0.625
  9
$DIMDSEP
 70
44
  9
$AUNITS
 70
0
  9
$PDMODE
 70
3
  9
$PDSIZE
 40
3.0
  9
$HANDSEED
  5
4BE
  9
$TILEMODE
 70
1
  9
$MEASUREMENT
 70
1
  9
$INSUNITS
 70
4
  0
ENDSEC
  0
SECTION
  2
CLASSES
  0
CLASS
  1
ACDBDICTIONARYWDFLT
  2
AcDbDictionaryWithDefault
  3
AutoCAD 2000
 90
0
 91
1
280
0
281
0
  0
CLASS
  1
ACDBPLACEHOLDER
  2
AcDbPlaceHolder
  3
AutoCAD 2000
 90
0
 91
1
280
0
281
0
  0
CLASS
  1
LAYOUT
  2
AcDbLayout
  3
AutoCAD 2000
 90
0
 91
0
280
0
281
0
  0
ENDSEC
  0
SECTION
  2
TABLES
  0
TABLE
  2
VPORT
  5
8
100
AcDbSymbolTable
 70
2
  0
VPORT
  5
1F4
100
AcDbSymbolTableRecord
100
AcDbViewportTableRecord
  2
*ACTIVE
 70
0
 10
0.0
 20
0.0
 11
1.0
 21
1.0
 12
148.5
 22
105.0
 13
0.0
 23
0.0
 14
1.0
 24
1.0
 15
0.0
 25
0.0
 16
0.0
 26
0.0
 36
1.0
 17
0.0
 27
0.0
 37
0.0
 40
210.0
 41
1.4142857143
 42
50.0
 43
0.0
 44
0.0
 50
0.0
 51
0.0
 71
0
 72
100
 73
1
 74
1
 75
0
 76
0
 77
0
 78
0
  0
ENDTAB
  0
TABLE
  2
LTYPE
  5
5
100
AcDbSymbolTable
 70
6
  0
LTYPE
  5
14
100
AcDbSymbolTableRecord
100
AcDbLinetypeTableRecord
  2
BYBLOCK
 70
0
  3

 72
65
 73
0
 40
0.0
  0
LTYPE
  5
15
100
AcDbSymbolTableRecord
100
AcDbLinetypeTableRecord
  2
BYLAYER
 70
0
  3

 72
65
 73
0
 40
0.0
  0
LTYPE
  5
16
100
AcDbSymbolTableRecord
100
AcDbLinetypeTableRecord
  2
CONTINUOUS
 70
64
  3
Solid line
 72
65
 73
0
 40
0.0
  0
LTYPE
  5
1F5
100
AcDbSymbolTableRecord
100
AcDbLinetypeTableRecord
  2
CENTER
 70
64
  3
____ _ ____ _ ____ _ ____ _ ____ _ ____ _ ____
 72
65
 73
4
 40
0.6
 49
0.375
 74
0
 49
-0.075
 74
0
 49
0.075
 74
0
 49
-0.075
 74
0
  0
LTYPE
  5
1F6
100
AcDbSymbolTableRecord
100
AcDbLinetypeTableRecord
  2
HIDDEN
 70
64
  3
- - - - - - - - - - - - - - - - - - - -
 72
65
 73
2
 40
0.2
 49
0.1
 74
0
 49
-0.1
 74
0
  0
LTYPE
  5
1F7
100
AcDbSymbolTableRecord
100
AcDbLinetypeTableRecord
  2
PHANTOM
 70
64
  3
_____ _ _ _____ _ _ _____ _ _ _____
 72
65
 73
6
 40
0.8
 49
0.45
 74
0
 49
-0.05
 74
0
 49
0.1
 74
0
 49
-0.05
 74
0
 49
0.1
 74
0
 49
-0.05
 74
0
  0
LTYPE
  5
1F8
100
AcDbSymbolTableRecord
100
AcDbLinetypeTableRecord
  2
DOT
 70
64
  3
. . . . . . . . . . . . . . . . . . . .
 72
65
 73
2
 40
0.2
 49
0.1
 74
0
 49
-0.1
 74
0
  0
LTYPE
  5
1F9
100
AcDbSymbolTableRecord
100
AcDbLinetypeTableRecord
  2
DASHED
 70
64
  3
- - - - - - - - - - - - - - - - - - - -
 72
65
 73
2
 40
0.2
 49
0.1
 74
0
 49
-0.1
 74
0
  0
ENDTAB
  0
TABLE
  2
LAYER
  5
2
100
AcDbSymbolTable
 70
36
  0
LAYER
  5
10
100
AcDbSymbolTableRecord
100
AcDbLayerTableRecord
  2
0
 70
0
 62
7
  6
CONTINUOUS
370
-3
390
F
  0
LAYER
  5
1FA
100
AcDbSymbolTableRecord
100
AcDbLayerTableRecord
  2
DEFAULT_1
 70
0
 62
7
  6
CENTER
370
-3
390
F
  0
LAYER
  5
1FB
100
AcDbSymbolTableRecord
100
AcDbLayerTableRecord
  2
DEFAULT_2
 70
0
 62
7
  6
HIDDEN
370
-3
390
F
  0
LAYER
  5
1FC
100
AcDbSymbolTableRecord
100
AcDbLayerTableRecord
  2
DEFAULT_3
 70
0
 62
7
  6
PHANTOM
370
-3
390
F
  0
LAYER
  5
1FD
100
AcDbSymbolTableRecord
100
AcDbLayerTableRecord
  2
ASSI
 70
0
 62
7
  6
CONTINUOUS
370
-3
390
F
  0
LAYER
  5
1FE
100
AcDbSymbolTableRecord
100
AcDbLayerTableRecord
  2
COORDINATE
 70
0
 62
7
  6
CONTINUOUS
370
-3
390
F
  0
LAYER
  5
1FF
100
AcDbSymbolTableRecord
100
AcDbLayerTableRecord
  2
COORD_ORIGINE
 70
0
 62
7
  6
CONTINUOUS
370
-3
390
F
  0
LAYER
  5
200
100
AcDbSymbolTableRecord
100
AcDbLayerTableRecord
  2
CURVE
 70
0
 62
7
  6
CONTINUOUS
370
-3
390
F
  0
LAYER
  5
201
100
AcDbSymbolTableRecord
100
AcDbLayerTableRecord
  2
DRAFT
 70
0
 62
7
  6
CONTINUOUS
370
-3
390
F
  0
LAYER
  5
202
100
AcDbSymbolTableRecord
100
AcDbLayerTableRecord
  2
IMPORT
 70
0
 62
7
  6
CONTINUOUS
370
-3
390
F
  0
LAYER
  5
203
100
AcDbSymbolTableRecord
100
AcDbLayerTableRecord
  2
INTF_1
 70
0
 62
7
  6
CONTINUOUS
370
-3
390
F
  0
LAYER
  5
204
100
AcDbSymbolTableRecord
100
AcDbLayerTableRecord
  2
INTF_11
 70
0
 62
7
  6
CONTINUOUS
370
-3
390
F
  0
LAYER
  5
205
100
AcDbSymbolTableRecord
100
AcDbLayerTableRecord
  2
NOTE
 70
0
 62
7
  6
CONTINUOUS
370
-3
390
F
  0
LAYER
  5
206
100
AcDbSymbolTableRecord
100
AcDbLayerTableRecord
  2
PIANI
 70
0
 62
7
  6
CONTINUOUS
370
-3
390
F
  0
LAYER
  5
207
100
AcDbSymbolTableRecord
100
AcDbLayerTableRecord
  2
PIANI_ORIGINE
 70
0
 62
7
  6
CONTINUOUS
370
-3
390
F
  0
LAYER
  5
208
100
AcDbSymbolTableRecord
100
AcDbLayerTableRecord
  2
PIANI_RIFERIMENTO
 70
0
 62
7
  6
CONTINUOUS
370
-3
390
F
  0
LAYER
  5
209
100
AcDbSymbolTableRecord
100
AcDbLayerTableRecord
  2
PIANI_SFORMO
 70
0
 62
7
  6
CONTINUOUS
370
-3
390
F
  0
LAYER
  5
20A
100
AcDbSymbolTableRecord
100
AcDbLayerTableRecord
  2
PUNTI
 70
0
 62
7
  6
CONTINUOUS
370
-3
390
F
  0
LAYER
  5
20B
100
AcDbSymbolTableRecord
100
AcDbLayerTableRecord
  2
RACCORDO
 70
0
 62
7
  6
CONTINUOUS
370
-3
390
F
  0
LAYER
  5
20C
100
AcDbSymbolTableRecord
100
AcDbLayerTableRecord
  2
SMUSSO
 70
0
 62
7
  6
CONTINUOUS
370
-3
390
F
  0
LAYER
  5
20D
100
AcDbSymbolTableRecord
100
AcDbLayerTableRecord
  2
SNAPLINE
 70
0
 62
7
  6
CONTINUOUS
370
-3
390
F
  0
LAYER
  5
20E
100
AcDbSymbolTableRecord
100
AcDbLayerTableRecord
  2
SUPERFICI
 70
0
 62
7
  6
CONTINUOUS
370
-3
390
F
  0
LAYER
  5
20F
100
AcDbSymbolTableRecord
100
AcDbLayerTableRecord
  2
TRASH
 70
0
 62
7
  6
CONTINUOUS
370
-3
390
F
  0
LAYER
  5
210
100
AcDbSymbolTableRecord
100
AcDbLayerTableRecord
  2
XSEC_DATUMS
 70
0
 62
7
  6
CONTINUOUS
370
-3
390
F
  0
ENDTAB
  0
TABLE
  2
STYLE
  5
3
100
AcDbSymbolTable
 70
1
  0
STYLE
  5
11
100
AcDbSymbolTableRecord
100
AcDbTextStyleTableRecord
  2
STANDARD
 70
0
 40
0.0
 41
0.8
 50
0.0
 71
0
 42
0.2
  3
txt
  4

  0
STYLE
  5
211
100
AcDbSymbolTableRecord
100
AcDbTextStyleTableRecord
  2
TEXTSTYLE_1
 70
0
 40
0.0
 41
0.8
 50
0.0
 71
0
 42
0.2
  3
gdt
  4

  0
ENDTAB
  0
TABLE
  2
VIEW
  5
6
100
AcDbSymbolTable
 70
0
  0
ENDTAB
  0
TABLE
  2
UCS
  5
7
100
AcDbSymbolTable
 70
0
  0
ENDTAB
  0
TABLE
  2
APPID
  5
9
100
AcDbSymbolTable
 70
1
  0
APPID
  5
212
100
AcDbSymbolTableRecord
100
AcDbRegAppTableRecord
  2
ACAD
 70
0
  0
ENDTAB
  0
TABLE
  2
BLOCK_RECORD
  5
1
100
AcDbSymbolTable
 70
0
  0
BLOCK_RECORD
  5
213
100
AcDbSymbolTableRecord
100
AcDbBlockTableRecord
  2
*Model_Space
  0
BLOCK_RECORD
  5
214
100
AcDbSymbolTableRecord
100
AcDbBlockTableRecord
  2
*Paper_Space
  0
BLOCK_RECORD
  5
215
100
AcDbSymbolTableRecord
100
AcDbBlockTableRecord
  2
_FILLED
  0
ENDTAB
  0
TABLE
  2
DIMSTYLE
  5
A
100
AcDbSymbolTable
 70
1
100
AcDbDimStyleTable
 71
0
  0
DIMSTYLE
105
216
100
AcDbSymbolTableRecord
100
AcDbDimStyleTableRecord
  2
STANDARD
 70
0
  3

  4

 40
1.0
 41
3.0
 42
0.5
 43
0.38
 44
1.5
 45
0.0
 46
0.0
 47
0.01
 48
0.01
140
3.0
141
0.09
142
0.0
143
25.4
144
1.0
145
0.0
146
1.0
147
0.625
 71
1
 72
0
 73
0
 74
0
 75
0
 76
0
 77
1
 78
8
 79
2
170
0
171
1
172
0
173
0
174
0
175
0
176
0
177
0
178
0
270
2
179
2
271
2
272
2
273
2
274
2
275
0
280
0
281
0
282
0
283
1
284
8
285
0
286
0
287
3
288
0
340
11
278
44
341
215
342
215
343
215
344
215
  0
ENDTAB
  0
ENDSEC
  0
SECTION
  2
BLOCKS
  0
BLOCK
  5
20
100
AcDbEntity
  8
0
100
AcDbBlockBegin
  2
*Model_Space
 70
0
 10
0.0
 20
0.0
 30
0.0
  3
*Model_Space
  1

  0
ENDBLK
  5
21
100
AcDbEntity
  8
0
100
AcDbBlockEnd
  0
BLOCK
  5
1C
100
AcDbEntity
  8
0
100
AcDbBlockBegin
  2
*Paper_Space
 70
0
 10
0.0
 20
0.0
 30
0.0
  3
*Paper_Space
  1

  0
ENDBLK
  5
1D
100
AcDbEntity
  8
0
100
AcDbBlockEnd
  0
BLOCK
  5
217
100
AcDbEntity
  8
0
100
AcDbBlockBegin
  2
_FILLED
 70
64
 10
0.0
 20
0.0
  3
_FILLED
  1

  0
SOLID
  5
218
100
AcDbEntity
  8
0
  6
BYBLOCK
 62
0
100
AcDbTrace
 10
0.0
 20
0.0
 11
-1.0
 21
0.1333333333
 12
-1.0
 22
-0.1333333333
 13
-1.0
 23
-0.1333333333
  0
ENDBLK
  5
219
100
AcDbEntity
  8
0
  6
BYBLOCK
 62
0
100
AcDbBlockEnd
  0
ENDSEC
  0
SECTION
  2
ENTITIES
  0
LWPOLYLINE
  5
21A
100
AcDbEntity
  8
RACCORDO
100
AcDbPolyline
 62
250
  6
CONTINUOUS
 90
54
 70
0
 10
-21.6070342978
 20
-18.0310103747
 10
-21.6131561149
 20
-18.0262139319
 10
-21.6191819455
 20
-18.0212837807
 10
-21.6251110958
 20
-18.0162205009
 10
-21.6309429431
 20
-18.0110246358
 10
-21.6366768959
 20
-18.0056967254
 10
-21.6423123097
 20
-18.0002373758
 10
-21.6478485742
 20
-17.9946471857
 10
-21.6532851606
 20
-17.9889266981
 10
-21.6586214755
 20
-17.9830765353
 10
-21.6638569164
 20
-17.9770973553
 10
-21.6689909524
 20
-17.9709897691
 10
-21.6740230257
 20
-17.9647544327
 10
-21.6789525617
 20
-17.95839205
 10
-21.6837790201
 20
-17.9519033229
 10
-21.6885018716
 20
-17.945288957
 10
-21.6931205831
 20
-17.9385496916
 10
-21.6976346295
 20
-17.9316863028
 10
-21.702043493
 20
-17.9246995788
 10
-21.706346704
 20
-17.9175902638
 10
-21.7105438269
 20
-17.910359089
 10
-21.7146343909
 20
-17.9030068596
 10
-21.7186179456
 20
-17.8955343776
 10
-21.7224940996
 20
-17.8879423836
 10
-21.7262624308
 20
-17.8802316854
 10
-21.7299225043
 20
-17.8724031533
 10
-21.7334739236
 20
-17.8644576374
 10
-21.7369163241
 20
-17.8563959297
 10
-21.7402492843
 20
-17.848218992
 10
-21.7434723497
 20
-17.8399279585
 10
-21.7465851564
 20
-17.8315237833
 10
-21.749587378
 20
-17.8230073643
 10
-21.7524786503
 20
-17.8143797854
 10
-21.7552586274
 20
-17.8056421275
 10
-21.7579270526
 20
-17.7967952473
 10
-21.7604837112
 20
-17.787839908
 10
-21.7629283072
 20
-17.7787771608
 10
-21.7652605909
 20
-17.7696079455
 10
-21.7674804127
 20
-17.7603328534
 10
-21.7695875409
 20
-17.7509527749
 10
-21.7715817016
 20
-17.7414688482
 10
-21.7734626819
 20
-17.7318820375
 10
-21.7752302759
 20
-17.7221932957
 10
-21.7768842553
 20
-17.7124037638
 10
-21.778424399
 20
-17.7025147092
 10
-21.7798505293
 20
-17.6925272189
 10
-21.7811624818
 20
-17.6824423804
 10
-21.7823600879
 20
-17.6722614898
 10
-21.7834432161
 20
-17.6619856589
 10
-21.7844117451
 20
-17.6516160246
 10
-21.7852655544
 20
-17.6411539472
 10
-21.7860045533
 20
-17.6306006567
 10
-21.7866286729
 20
-17.6199572452
 10
-21.7871378514
 20
-17.6092248878
  0
LINE
  5
21B
100
AcDbEntity
  8
RACCORDO
100
AcDbLine
 62
250
  6
CONTINUOUS
 10
0.1026520547
 20
-25.5798153603
 11
-0.425615117
 21
-25.6509485061
  0
LINE
  5
21C
100
AcDbEntity
  8
RACCORDO
100
AcDbLine
 62
250
  6
CONTINUOUS
 10
0.0132382594
 20
-25.2399515832
 11
-0.425615117
 21
-25.2990448278
  0
LWPOLYLINE
  5
21D
100
AcDbEntity
  8
RACCORDO
100
AcDbPolyline
 62
7
  6
CONTINUOUS
 90
34
 70
0
 10
-1.3156752997
 20
-26.1715670452
 10
-1.3235544227
 20
-26.1724272373
 10
-1.3317746718
 20
-26.1730328204
 10
-1.340332533
 20
-26.1733886118
 10
-1.3492309635
 20
-26.1735102945
 10
-1.3584573986
 20
-26.1733938356
 10
-1.3679839729
 20
-26.1730153319
 10
-1.3778041612
 20
-26.1723827598
 10
-1.3879100594
 20
-26.1715035524
 10
-1.3982708424
 20
-26.1703537177
 10
-1.4088773636
 20
-26.1689430887
 10
-1.419719275
 20
-26.1672811237
 10
-1.4307630521
 20
-26.1653440023
 10
-1.4419969006
 20
-26.1631434375
 10
-1.4534078514
 20
-26.1606909798
 10
-1.4649596718
 20
-26.1579633392
 10
-1.4766378037
 20
-26.1549741187
 10
-1.4884265352
 20
-26.1517370551
 10
-1.5002868492
 20
-26.1482299119
 10
-1.5122012969
 20
-26.1444681508
 10
-1.5241513102
 20
-26.1404678121
 10
-1.5360949878
 20
-26.13620848
 10
-1.5480118374
 20
-26.1317073829
 10
-1.5598804046
 20
-26.1269829691
 10
-1.5716559833
 20
-26.1220176922
 10
-1.5833148037
 20
-26.1168304311
 10
-1.5948327409
 20
-26.1114420067
 10
-1.6061630936
 20
-26.1058388523
 10
-1.6172683559
 20
-26.10004904
 10
-1.6281327077
 20
-26.0940875014
 10
-1.6387393933
 20
-26.087923431
 10
-1.6490614516
 20
-26.0815640896
 10
-1.6590631482
 20
-26.0750529512
 10
-1.6687114878
 20
-26.0684162572
  0
LWPOLYLINE
  5
21E
100
AcDbEntity
  8
RACCORDO
100
AcDbPolyline
 62
7
  6
CONTINUOUS
 90
31
 70
0
 10
-6.7663732438
 20
-28.5252760921
 10
-6.7596930422
 20
-28.5299472713
 10
-6.7312794447
 20
-28.5486625901
 10
-6.7019995139
 20
-28.5661205841
 10
-6.6719395708
 20
-28.582267791
 10
-6.6411135362
 20
-28.5970960832
 10
-6.609452464
 20
-28.6106265546
 10
-6.5769968092
 20
-28.6228216415
 10
-6.5437959325
 20
-28.6336440339
 10
-6.509778796
 20
-28.6430914272
 10
-6.4749801981
 20
-28.6511213739
 10
-6.4394476691
 20
-28.6576914903
 10
-6.4031139633
 20
-28.6627771962
 10
-6.3660191361
 20
-28.6663299841
 10
-6.3281963464
 20
-28.6683047541
 10
-6.2895503142
 20
-28.6686567754
 10
-6.2500591162
 20
-28.6673254027
 10
-6.2098034911
 20
-28.6642528121
 10
-6.1688234837
 20
-28.6593857364
 10
-6.1270547997
 20
-28.6526551706
 10
-6.0846060641
 20
-28.6440165215
 10
-6.0417598515
 20
-28.6334864025
 10
-5.9985327076
 20
-28.6210432167
 10
-5.9549355487
 20
-28.6066623308
 10
-5.9112303693
 20
-28.5904155714
 10
-5.8674311534
 20
-28.5723066584
 10
-5.8235403354
 20
-28.552331687
 10
-5.7798004402
 20
-28.530606695
 10
-5.7362990592
 20
-28.5071964222
 10
-5.6929673752
 20
-28.4820809427
 10
-5.6609171434
 20
-28.4623428134
  0
LINE
  5
21F
100
AcDbEntity
  8
RACCORDO
100
AcDbLine
 62
250
  6
CONTINUOUS
 10
-6.9622917738
 20
-28.0919740794
 11
-21.7871378514
 21
-17.6092248878
  0
LINE
  5
220
100
AcDbEntity
  8
RACCORDO
100
AcDbLine
 62
250
  6
CONTINUOUS
 10
-21.5956548525
 20
-18.0393905217
 11
-21.6008172103
 21
-18.0356725389
  0
LWPOLYLINE
  5
221
100
AcDbEntity
  8
RACCORDO
100
AcDbPolyline
 62
250
  6
CONTINUOUS
 90
17
 70
0
 10
-21.9334491477
 20
-17.3657346152
 10
-21.9320903382
 20
-17.3836562347
 10
-21.9296646351
 20
-17.4006433841
 10
-21.9261406222
 20
-17.4175070368
 10
-21.9215261062
 20
-17.4342098346
 10
-21.9158313097
 20
-17.4507147755
 10
-21.9090688486
 20
-17.4669852959
 10
-21.9012537037
 20
-17.4829853516
 10
-21.892403188
 20
-17.4986794974
 10
-21.8825369082
 20
-17.5140329659
 10
-21.8716767212
 20
-17.5290117444
 10
-21.8598466857
 20
-17.5435826502
 10
-21.8470730089
 20
-17.5577134042
 10
-21.8333839884
 20
-17.5713727024
 10
-21.8188099498
 20
-17.5845302852
 10
-21.8033831791
 20
-17.5971570044
 10
-21.7871378514
 20
-17.6092248878
  0
LWPOLYLINE
  5
222
100
AcDbEntity
  8
RACCORDO
100
AcDbPolyline
 62
7
  6
CONTINUOUS
 90
25
 70
0
 10
-21.9334491391
 20
-17.3657346149
 10
-21.93199946
 20
-17.392810802
 10
-21.9287158239
 20
-17.4321798166
 10
-21.9241060393
 20
-17.470611728
 10
-21.9182031814
 20
-17.5080952045
 10
-21.9110367924
 20
-17.5446409113
 10
-21.9026306767
 20
-17.580272965
 10
-21.8930134781
 20
-17.6149831842
 10
-21.8822153157
 20
-17.6487599045
 10
-21.8702609619
 20
-17.6816073717
 10
-21.8571844371
 20
-17.7135033326
 10
-21.843017258
 20
-17.7444360307
 10
-21.8277813668
 20
-17.7744126656
 10
-21.811512283
 20
-17.8034112531
 10
-21.794247702
 20
-17.8314102468
 10
-21.7760140434
 20
-17.8584077309
 10
-21.7568529866
 20
-17.88437921
 10
-21.736806333
 20
-17.9093044465
 10
-21.7159019352
 20
-17.9331818237
 10
-21.6941886097
 20
-17.955986327
 10
-21.6717092382
 20
-17.9777034965
 10
-21.6484814347
 20
-17.9983427607
 10
-21.6245411612
 20
-18.0178942258
 10
-21.5999454474
 20
-18.0363336795
 10
-6.7662998441
 20
-28.5253280088
  0
LWPOLYLINE
  5
223
100
AcDbEntity
  8
RACCORDO
100
AcDbPolyline
 62
250
  6
CONTINUOUS
 90
67
 70
0
 10
-21.7871378514
 20
-17.6092248878
 10
-21.804676936
 20
-17.1817029521
 10
-21.8216766443
 20
-16.7537640493
 10
-21.8381369488
 20
-16.3254088442
 10
-21.8540578243
 20
-15.896637958
 10
-21.8694392438
 20
-15.4674521014
 10
-21.8842811793
 20
-15.037852075
 10
-21.8985836061
 20
-14.6078385849
 10
-21.9123465031
 20
-14.1774122615
 10
-21.9255698489
 20
-13.7465737931
 10
-21.9382536225
 20
-13.3153238666
 10
-21.9503978043
 20
-12.8836631356
 10
-21.9620023771
 20
-12.4515922395
 10
-21.9730673228
 20
-12.0191118445
 10
-21.9835926236
 20
-11.5862226284
 10
-21.9935782642
 20
-11.1529252491
 10
-22.0030242289
 20
-10.7192203682
 10
-22.0119305026
 20
-10.2851086717
 10
-22.0202970713
 20
-9.8505908554
 10
-22.0281239218
 20
-9.415667606
 10
-22.035411042
 20
-8.9803395882
 10
-22.042158421
 20
-8.5446074666
 10
-22.0483660484
 20
-8.1084719141
 10
-22.0540339142
 20
-7.6719336127
 10
-22.0591620099
 20
-7.2349932421
 10
-22.0637503275
 20
-6.7976514818
 10
-22.0677988596
 20
-6.3599090109
 10
-22.0713076001
 20
-5.9217665093
 10
-22.0742765437
 20
-5.4832246592
 10
-22.0767056855
 20
-5.0442841408
 10
-22.078595022
 20
-4.6049456323
 10
-22.0799445501
 20
-4.1652098151
 10
-22.0807542678
 20
-3.725077374
 10
-22.0810241737
 20
-3.2845489927
 10
-22.0807542675
 20
-2.8436253531
 10
-22.0799445495
 20
-2.402307143
 10
-22.078595021
 20
-1.9605950566
 10
-22.0767056842
 20
-1.5184897857
 10
-22.0742765421
 20
-1.0759920119
 10
-22.0713075983
 20
-0.6331024148
 10
-22.0677988574
 20
-0.1898216797
 10
-22.063750325
 20
0.2538495017
 10
-22.0591620071
 20
0.6979104393
 10
-22.0540339111
 20
1.1423604427
 10
-22.048366045
 20
1.5871988218
 10
-22.0421584173
 20
2.0324248862
 10
-22.0354110378
 20
2.4780379448
 10
-22.0281239172
 20
2.9240373047
 10
-22.0202970663
 20
3.3704222717
 10
-22.0119304977
 20
3.8171921512
 10
-22.0030242244
 20
4.2643462502
 10
-21.9935782598
 20
4.7118838751
 10
-21.983592619
 20
5.1598043275
 10
-21.9730673175
 20
5.6081069148
 10
-21.9620023709
 20
6.0567909521
 10
-21.9503977954
 20
6.5058557903
 10
-21.9382536104
 20
6.9553006841
 10
-21.9255698377
 20
7.4051248027
 10
-21.9123464859
 20
7.8553278534
 10
-21.8985835874
 20
8.305908731
 10
-21.8842812067
 20
8.7568653822
 10
-21.8694394392
 20
9.2081950893
 10
-21.8540582513
 20
9.6598991579
 10
-21.8381375033
 20
10.1119815767
 10
-21.8216771504
 20
10.5644432172
 10
-21.8046772614
 20
11.0172818211
 10
-21.7871378514
 20
11.470496693
  0
LINE
  5
224
100
AcDbEntity
  8
RACCORDO
100
AcDbLine
 62
250
  6
CONTINUOUS
 10
-18.5309824035
 20
15.0146422158
 11
-18.3170343483
 21
15.1868191461
  0
LWPOLYLINE
  5
225
100
AcDbEntity
  8
RACCORDO
100
AcDbPolyline
 62
250
  6
CONTINUOUS
 90
7
 70
0
 10
-18.3170343483
 20
15.1868191461
 10
-17.899846937
 20
15.521863202
 10
-17.6994943782
 20
15.6822223038
 10
-17.5078275631
 20
15.8350794428
 10
-17.3228445677
 20
15.9821340952
 10
-17.1421087839
 20
16.1254030822
 10
-16.9667439071
 20
16.2639454725
  0
LWPOLYLINE
  5
226
100
AcDbEntity
  8
RACCORDO
100
AcDbPolyline
 62
7
  6
CONTINUOUS
 90
37
 70
0
 10
-21.0851238651
 20
13.2575209401
 10
-21.1141058759
 20
13.2342906427
 10
-21.1529479817
 20
13.2017018879
 10
-21.1911151203
 20
13.1680171798
 10
-21.2285880547
 20
13.1332933342
 10
-21.2653590666
 20
13.0975739283
 10
-21.3014236476
 20
13.0608951711
 10
-21.3367620863
 20
13.0233050927
 10
-21.3713543845
 20
12.9848501368
 10
-21.4051848576
 20
12.9455697065
 10
-21.4382291708
 20
12.9055110413
 10
-21.4704650729
 20
12.8647175466
 10
-21.5018736003
 20
12.8232265203
 10
-21.5324286699
 20
12.7810827124
 10
-21.5621050613
 20
12.7383285838
 10
-21.5908817107
 20
12.6949988483
 10
-21.6187318019
 20
12.6511347601
 10
-21.6456272065
 20
12.6067784133
 10
-21.6715438024
 20
12.5619636348
 10
-21.6964527828
 20
12.5167300781
 10
-21.7203248268
 20
12.4711167059
 10
-21.7431354251
 20
12.4251506339
 10
-21.7648536961
 20
12.3788681177
 10
-21.7854476739
 20
12.3323050746
 10
-21.8048918727
 20
12.2854781326
 10
-21.8231532226
 20
12.2384150168
 10
-21.8401933891
 20
12.1911519554
 10
-21.8559795264
 20
12.1437034135
 10
-21.8704713779
 20
12.0960955667
 10
-21.8836252377
 20
12.0483567702
 10
-21.8954017578
 20
12.0004844299
 10
-21.9057496136
 20
11.9525019143
 10
-21.914613612
 20
11.9044317248
 10
-21.9219410181
 20
11.8562452075
 10
-21.9276645883
 20
11.8079395928
 10
-21.9317046481
 20
11.7595581041
 10
-21.9334997785
 20
11.7253317798
  0
LWPOLYLINE
  5
227
100
AcDbEntity
  8
RACCORDO
100
AcDbPolyline
 62
250
  6
CONTINUOUS
 90
8
 70
0
 10
-20.5882631196
 20
13.3670522293
 10
-20.3838839994
 20
13.5286945145
 10
-20.1814344809
 20
13.6893874672
 10
-19.9825683712
 20
13.847897055
 10
-19.7856318632
 20
14.0054573103
 10
-19.5856635351
 20
14.1657703304
 10
-19.3808328444
 20
14.3302939094
 10
-18.5309824035
 20
15.0146422158
  0
LWPOLYLINE
  5
228
100
AcDbEntity
  8
RACCORDO
100
AcDbPolyline
 62
250
  6
CONTINUOUS
 90
3
 70
0
 10
-16.9667439071
 20
16.2639454725
 10
-16.6229480947
 20
16.5345128719
 10
-16.5386721037
 20
16.6007227228
  0
LWPOLYLINE
  5
229
100
AcDbEntity
  8
RACCORDO
100
AcDbPolyline
 62
7
  6
CONTINUOUS
 90
9
 70
0
 10
-16.7081409
 20
16.7205552579
 10
-17.0774780179
 20
16.4304467204
 10
-17.708027793
 20
15.9334951574
 10
-18.3193797072
 20
15.4492925747
 10
-18.911614954
 20
14.9788904273
 10
-19.48517724
 20
14.5230649759
 10
-20.0403210174
 20
14.0824306845
 10
-20.5771763973
 20
13.6576012405
 10
-21.0851491514
 20
13.2574951493
  0
LWPOLYLINE
  5
22A
100
AcDbEntity
  8
RACCORDO
100
AcDbPolyline
 62
250
  6
CONTINUOUS
 90
22
 70
0
 10
-21.085120962
 20
13.2575173028
 10
-21.079834949
 20
13.2614223137
 10
-21.0702840019
 20
13.2673626387
 10
-21.060066296
 20
13.272392232
 10
-21.0492049431
 20
13.2764997203
 10
-21.0377245244
 20
13.279675806
 10
-21.0256510092
 20
13.2819133062
 10
-21.0130117068
 20
13.2832071642
 10
-20.9998352203
 20
13.2835544475
 10
-20.9861513763
 20
13.2829543553
 10
-20.9719911267
 20
13.2814082503
 10
-20.957386515
 20
13.2789196248
 10
-20.9423706182
 20
13.2754940768
 10
-20.9269774026
 20
13.2711393601
 10
-20.9112417002
 20
13.2658653216
 10
-20.8951991644
 20
13.2596838457
 10
-20.878886086
 20
13.2526089197
 10
-20.8623393774
 20
13.2446565451
 10
-20.8455965406
 20
13.235844654
 10
-20.8286954784
 20
13.226193161
 10
-20.8116744081
 20
13.2157239189
 10
-20.7945718414
 20
13.2044606114
  0
LINE
  5
22B
100
AcDbEntity
  8
RACCORDO
100
AcDbLine
 62
7
  6
CONTINUOUS
 10
-15.4550268851
 20
18.7788904705
 11
-17.0381849972
 21
17.6370622888
  0
LINE
  5
22C
100
AcDbEntity
  8
RACCORDO
100
AcDbLine
 62
250
  6
CONTINUOUS
 10
-15.3102158526
 20
18.7518825475
 11
-16.8929724558
 21
17.6103439479
  0
LINE
  5
22D
100
AcDbEntity
  8
RACCORDO
100
AcDbLine
 62
250
  6
CONTINUOUS
 10
-13.4384398134
 20
18.1767000967
 11
-13.9667069851
 21
17.8018783167
  0
LINE
  5
22E
100
AcDbEntity
  8
RACCORDO
100
AcDbLine
 62
7
  6
CONTINUOUS
 10
-15.4540712647
 20
18.7795661851
 11
-15.4550269049
 21
18.7788904562
  0
LINE
  5
22F
100
AcDbEntity
  8
RACCORDO
100
AcDbLine
 62
250
  6
CONTINUOUS
 10
-13.9667069851
 20
17.8018783167
 11
-15.5679877759
 21
16.6734382958
  0
LINE
  5
230
100
AcDbEntity
  8
RACCORDO
100
AcDbLine
 62
7
  6
CONTINUOUS
 10
-14.9192128424
 20
19.1502993106
 11
-15.4540712453
 21
18.7795661991
  0
LINE
  5
231
100
AcDbEntity
  8
RACCORDO
100
AcDbLine
 62
250
  6
CONTINUOUS
 10
-14.7757659739
 20
19.1223324934
 11
-15.3102158526
 21
18.7518825475
  0
LWPOLYLINE
  5
232
100
AcDbEntity
  8
RACCORDO
100
AcDbPolyline
 62
250
  6
CONTINUOUS
 90
31
 70
0
 10
-2.3794178675
 20
-27.3537688746
 10
-2.3699577181
 20
-27.3601179771
 10
-2.3600421316
 20
-27.3661095786
 10
-2.3496980937
 20
-27.3717273683
 10
-2.3389537455
 20
-27.3769560575
 10
-2.32783834
 20
-27.3817814054
 10
-2.3163821664
 20
-27.3861902617
 10
-2.3046164171
 20
-27.390170624
 10
-2.2925731098
 20
-27.3937116625
 10
-2.2802850372
 20
-27.3968037374
 10
-2.2677856496
 20
-27.399438434
 10
-2.2551089678
 20
-27.4016085842
 10
-2.2422895019
 20
-27.4033082826
 10
-2.2293621304
 20
-27.4045329073
 10
-2.2163620553
 20
-27.4052791255
 10
-2.2033247119
 20
-27.4055449091
 10
-2.1902856406
 20
-27.4053295452
 10
-2.1772802756
 20
-27.4046336307
 10
-2.1643439013
 20
-27.4034590561
 10
-2.1515115621
 20
-27.4018089898
 10
-2.138818355
 20
-27.3996879314
 10
-2.1262992058
 20
-27.3971017355
 10
-2.1139884091
 20
-27.3940575426
 10
-2.1019192043
 20
-27.3905636291
 10
-2.0901240866
 20
-27.3866294229
 10
-2.078632664
 20
-27.3822646235
 10
-2.0674788475
 20
-27.3774819304
 10
-2.0566996919
 20
-27.3722977642
 10
-2.0463259259
 20
-27.366728187
 10
-2.0363826219
 20
-27.3607879915
 10
-2.0268959078
 20
-27.3544939756
  0
LWPOLYLINE
  5
233
100
AcDbEntity
  8
RACCORDO
100
AcDbPolyline
 62
250
  6
CONTINUOUS
 90
31
 70
0
 10
-2.3794178675
 20
-27.0761813197
 10
-2.3699588972
 20
-27.0825296713
 10
-2.3600446208
 20
-27.0885205974
 10
-2.349702017
 20
-27.0941377955
 10
-2.3389592466
 20
-27.0993659725
 10
-2.3278455274
 20
-27.10419091
 10
-2.31639105
 20
-27.1085994974
 10
-2.3046269447
 20
-27.1125797432
 10
-2.2925852543
 20
-27.1161207967
 10
-2.2802988
 20
-27.1192130025
 10
-2.2678010356
 20
-27.1218479424
 10
-2.2551259528
 20
-27.1240184509
 10
-2.2423080444
 20
-27.1257186213
 10
-2.229382181
 20
-27.1269438278
 10
-2.2163835479
 20
-27.1276907347
 10
-2.2033475496
 20
-27.1279573094
 10
-2.1903096817
 20
-27.1277428308
 10
-2.1773054025
 20
-27.1270478867
 10
-2.164370068
 20
-27.1258743685
 10
-2.1515387624
 20
-27.1242254524
 10
-2.1388465212
 20
-27.1221056341
 10
-2.1263281921
 20
-27.1195207522
 10
-2.1140180278
 20
-27.1164779293
 10
-2.101949297
 20
-27.1129854394
 10
-2.0901545261
 20
-27.1090527143
 10
-2.0786646636
 20
-27.1046899926
 10
-2.0675121818
 20
-27.0999095214
 10
-2.0567303719
 20
-27.0947258048
 10
-2.0463491828
 20
-27.0891538062
 10
-2.0363954707
 20
-27.0832085267
 10
-2.0268959078
 20
-27.0769064208
  0
LINE
  5
234
100
AcDbEntity
  8
RACCORDO
100
AcDbLine
 62
7
  6
CONTINUOUS
 10
-3.1293815011
 20
-26.8796507214
 11
-2.3469787395
 21
-27.4328930198
  0
LINE
  5
235
100
AcDbEntity
  8
RACCORDO
100
AcDbLine
 62
250
  6
CONTINUOUS
 10
-3.0871498307
 20
-26.8533268041
 11
-2.3794178675
 21
-27.3537688746
  0
LINE
  5
236
100
AcDbEntity
  8
RACCORDO
100
AcDbLine
 62
250
  6
CONTINUOUS
 10
-2.3794178675
 20
-27.0761813197
 11
-2.8785046047
 21
-26.7232737035
  0
LINE
  5
237
100
AcDbEntity
  8
RACCORDO
100
AcDbLine
 62
250
  6
CONTINUOUS
 10
-2.2910295198
 20
-26.8605882108
 11
-2.6696503539
 21
-26.5928628516
  0
LWPOLYLINE
  5
238
100
AcDbEntity
  8
RACCORDO
100
AcDbPolyline
 62
250
  6
CONTINUOUS
 90
5
 70
0
 10
-2.2525788111
 20
-26.8887074087
 10
-2.2624629451
 20
-26.8813722919
 10
-2.2721837184
 20
-26.8742278088
 10
-2.2817145856
 20
-26.8672934698
 10
-2.2910295198
 20
-26.8605882108
  0
LINE
  5
239
100
AcDbEntity
  8
RACCORDO
100
AcDbLine
 62
250
  6
CONTINUOUS
 10
-2.2324287992
 20
-26.9038689554
 11
-2.2525788111
 21
-26.8887074087
  0
LINE
  5
23A
100
AcDbEntity
  8
RACCORDO
100
AcDbLine
 62
250
  6
CONTINUOUS
 10
-2.2119536343
 20
-26.9195469499
 11
-2.2324287992
 21
-26.9038689554
  0
LINE
  5
23B
100
AcDbEntity
  8
RACCORDO
100
AcDbLine
 62
250
  6
CONTINUOUS
 10
-2.1913768174
 20
-26.9355702559
 11
-2.2119536343
 21
-26.9195469499
  0
LINE
  5
23C
100
AcDbEntity
  8
RACCORDO
100
AcDbLine
 62
250
  6
CONTINUOUS
 10
-2.1709229588
 20
-26.9517639677
 11
-2.1913768174
 21
-26.9355702559
  0
LWPOLYLINE
  5
23D
100
AcDbEntity
  8
RACCORDO
100
AcDbPolyline
 62
250
  6
CONTINUOUS
 90
19
 70
0
 10
-21.9334997785
 20
11.7253317798
 10
-21.9336277584
 20
11.7210713658
 10
-21.933412351
 20
11.7049266749
 10
-21.9320903314
 20
11.6887837977
 10
-21.9296646283
 20
11.6726784955
 10
-21.9261406154
 20
11.6566464468
 10
-21.9215260994
 20
11.6407231674
 10
-21.915831303
 20
11.6249439324
 10
-21.9090688418
 20
11.6093436978
 10
-21.901253697
 20
11.5939570228
 10
-21.8924031814
 20
11.5788179939
 10
-21.8825369017
 20
11.5639601487
 10
-21.8716767149
 20
11.5494164019
 10
-21.8598466795
 20
11.5352189725
 10
-21.8470730028
 20
11.5213993122
 10
-21.8333839826
 20
11.5079880359
 10
-21.8188099442
 20
11.4950148538
 10
-21.8033831737
 20
11.4825085055
 10
-21.7871378463
 20
11.4704966964
  0
LWPOLYLINE
  5
23E
100
AcDbEntity
  8
RACCORDO
100
AcDbPolyline
 62
7
  6
CONTINUOUS
 90
22
 70
0
 10
-21.9334983144
 20
11.7253693001
 10
-21.9864750547
 20
10.3115083861
 10
-22.0345371833
 20
8.8905792971
 10
-22.077261039
 20
7.4733652441
 10
-22.1146458763
 20
6.0598880609
 10
-22.1466910356
 20
4.6501693432
 10
-22.17339594
 20
3.2442304882
 10
-22.1947600869
 20
1.8420930514
 10
-22.2107830549
 20
0.4437785491
 10
-22.2214645047
 20
-0.9506917743
 10
-22.2268041746
 20
-2.3412965741
 10
-22.2268018838
 20
-3.7280144722
 10
-22.221457532
 20
-5.1108242646
 10
-22.2107711005
 20
-6.489704692
 10
-22.1947426508
 20
-7.8646346493
 10
-22.1733723218
 20
-9.235593257
 10
-22.1466603347
 20
-10.6025594729
 10
-22.1146069916
 20
-11.9655123359
 10
-22.0772126684
 20
-13.324431177
 10
-22.0344778231
 20
-14.6792952363
 10
-21.9864030006
 20
-16.0300836228
 10
-21.9334499174
 20
-17.3657161626
  0
LWPOLYLINE
  5
23F
100
AcDbEntity
  8
RACCORDO
100
AcDbPolyline
 62
250
  6
CONTINUOUS
 90
142
 70
0
 10
-21.7871378514
 20
11.470496693
 10
-21.7866289262
 20
11.4819609364
 10
-21.7860050893
 20
11.4935038089
 10
-21.785266364
 20
11.5051240746
 10
-21.7844127609
 20
11.5168208288
 10
-21.7834443476
 20
11.5285924811
 10
-21.7823612823
 20
11.5404367352
 10
-21.781163678
 20
11.5523522301
 10
-21.7798516451
 20
11.5643377377
 10
-21.7784254111
 20
11.5763911168
 10
-21.7768851605
 20
11.5885109112
 10
-21.7752310573
 20
11.6006959144
 10
-21.7734633539
 20
11.6129443277
 10
-21.7715823005
 20
11.6252545913
 10
-21.7695880977
 20
11.6376255477
 10
-21.7674809513
 20
11.6500559868
 10
-21.7652611423
 20
11.6625443705
 10
-21.7629289057
 20
11.6750894882
 10
-21.7604843741
 20
11.6876906237
 10
-21.7579277931
 20
11.7003465139
 10
-21.7552594664
 20
11.7130556579
 10
-21.752479605
 20
11.7258169865
 10
-21.7495884698
 20
11.7386292706
 10
-21.7465864055
 20
11.7514909484
 10
-21.7434737632
 20
11.7644004465
 10
-21.7402508662
 20
11.7773564186
 10
-21.7369180809
 20
11.7903573831
 10
-21.7334758545
 20
11.8034015501
 10
-21.7299246116
 20
11.8164873481
 10
-21.7262647124
 20
11.8296134838
 10
-21.7224965327
 20
11.8427785743
 10
-21.7186204938
 20
11.8559811738
 10
-21.7146370258
 20
11.8692198401
 10
-21.7105465321
 20
11.8824931912
 10
-21.7063494605
 20
11.8957997939
 10
-21.7020462818
 20
11.9091381719
 10
-21.6976374498
 20
11.9225068735
 10
-21.6931234324
 20
11.9359044975
 10
-21.6885047493
 20
11.949329516
 10
-21.6837819529
 20
11.962780282
 10
-21.6789555886
 20
11.9762552736
 10
-21.6740261776
 20
11.9897530645
 10
-21.6689942575
 20
12.0032721454
 10
-21.6638604139
 20
12.0168109757
 10
-21.6586251971
 20
12.0303681343
 10
-21.6532891052
 20
12.043942289
 10
-21.6478527413
 20
12.057531928
 10
-21.6423166975
 20
12.0711355919
 10
-21.6366814628
 20
12.0847520258
 10
-21.6309476375
 20
12.0983797875
 10
-21.6251158709
 20
12.1120173407
 10
-21.619186734
 20
12.125663288
 10
-21.6131608221
 20
12.139316262
 10
-21.6070388493
 20
12.1529746452
 10
-21.6008215843
 20
12.1666366643
 10
-21.5945096978
 20
12.1803008637
 10
-21.5881039049
 20
12.1939657103
 10
-21.5816050708
 20
12.2076293143
 10
-21.5750139369
 20
12.2212901531
 10
-21.5683312264
 20
12.2349467617
 10
-21.5615578056
 20
12.2485973381
 10
-21.5546945662
 20
12.2622401381
 10
-21.5477421561
 20
12.2758739245
 10
-21.5407010872
 20
12.2894976571
 10
-21.533572156
 20
12.303109823
 10
-21.5263561426
 20
12.3167089592
 10
-21.5190535301
 20
12.3302940996
 10
-21.5116649809
 20
12.3438640134
 10
-21.5041914429
 20
12.35741696
 10
-21.4966338353
 20
12.3709512105
 10
-21.4889929343
 20
12.3844653895
 10
-21.4812696416
 20
12.3979579142
 10
-21.4734650937
 20
12.4114267514
 10
-21.4655802582
 20
12.4248702704
 10
-21.4576159228
 20
12.4382871657
 10
-21.4495729778
 20
12.4516758995
 10
-21.4414524142
 20
12.4650348625
 10
-21.43325505
 20
12.478362748
 10
-21.4249815228
 20
12.4916584751
 10
-21.4166327283
 20
12.5049206273
 10
-21.4082096146
 20
12.5181477202
 10
-21.3997128989
 20
12.5313385715
 10
-21.3911434277
 20
12.5444918785
 10
-21.3825022371
 20
12.5576060609
 10
-21.3737903392
 20
12.5706795244
 10
-21.3650086807
 20
12.5837108669
 10
-21.3561582513
 20
12.5966986366
 10
-21.3472401448
 20
12.6096411757
 10
-21.3382553758
 20
12.6225370385
 10
-21.3292049194
 20
12.6353848511
 10
-21.3200898263
 20
12.6481830742
 10
-21.3109111411
 20
12.6609302721
 10
-21.3016698555
 20
12.6736250964
 10
-21.2923669541
 20
12.6862661492
 10
-21.2830034834
 20
12.6988520377
 10
-21.2735804736
 20
12.7113814058
 10
-21.2640988934
 20
12.7238529188
 10
-21.2545597975
 20
12.7362652163
 10
-21.2449642453
 20
12.7486169464
 10
-21.2353132202
 20
12.7609067946
 10
-21.2256077893
 20
12.773133427
 10
-21.2158490353
 20
12.7852955042
 10
-21.2060379722
 20
12.7973917123
 10
-21.1961756837
 20
12.8094207391
 10
-21.18626327
 20
12.8213812652
 10
-21.1763017786
 20
12.8332719764
 10
-21.1662923196
 20
12.8450915706
 10
-21.1562359997
 20
12.8568387635
 10
-21.1461338682
 20
12.8685122782
 10
-21.1359870422
 20
12.8801108458
 10
-21.1257966516
 20
12.8916331956
 10
-21.115563772
 20
12.9030780601
 10
-21.1052895095
 20
12.9144442227
 10
-21.0949750333
 20
12.9257304098
 10
-21.0846215217
 20
12.9369352822
 10
-21.0742301093
 20
12.9480576353
 10
-21.0638019651
 20
12.9590962404
 10
-21.0533383276
 20
12.9700497404
 10
-21.0428403636
 20
12.9809169415
 10
-21.0323092367
 20
12.9916966662
 10
-21.0217461874
 20
13.002387603
 10
-21.0111524605
 20
13.0129885241
 10
-21.0005291651
 20
13.0234983513
 10
-20.9898773434
 20
13.0339160129
 10
-20.9791982255
 20
13.0442403342
 10
-20.9684929522
 20
13.0544702396
 10
-20.9577624335
 20
13.0646048128
 10
-20.947007863
 20
13.0746429445
 10
-20.9362304315
 20
13.084583543
 10
-20.9254310455
 20
13.0944257213
 10
-20.9146108222
 20
13.1041684745
 10
-20.9037710412
 20
13.1138106552
 10
-20.8929128552
 20
13.1233511718
 10
-20.8820373393
 20
13.132789073
 10
-20.871145829
 20
13.1421232224
 10
-20.8602398719
 20
13.151352278
 10
-20.8493207025
 20
13.1604752497
 10
-20.8383895111
 20
13.1694911313
 10
-20.827447785
 20
13.1783985938
 10
-20.8164968317
 20
13.1871965646
 10
-20.8055377778
 20
13.195884215
 10
-20.5882631196
 20
13.3670522293
  0
LWPOLYLINE
  5
240
100
AcDbEntity
  8
RACCORDO
100
AcDbPolyline
 62
250
  6
CONTINUOUS
 90
19
 70
0
 10
-15.3912140723
 20
16.0940791527
 10
-15.3960925721
 20
16.0830192152
 10
-15.4014382136
 20
16.072329095
 10
-15.4072368038
 20
16.0620382599
 10
-15.4134734889
 20
16.0521742381
 10
-15.4201310831
 20
16.0427652971
 10
-15.4271897322
 20
16.0338399321
 10
-15.434629388
 20
16.0254233433
 10
-15.4424304241
 20
16.0175375922
 10
-15.4505717434
 20
16.0102040381
 10
-15.4590312788
 20
16.003442644
 10
-15.4677858157
 20
15.9972720464
 10
-15.4768112359
 20
15.9917092747
 10
-15.4860828023
 20
15.986769565
 10
-15.4955752715
 20
15.9824663562
 10
-15.5052627398
 20
15.9788113939
 10
-15.5151187644
 20
15.9758146617
 10
-15.5251164103
 20
15.9734843561
 10
-15.5359711037
 20
15.9717322291
  0
LINE
  5
241
100
AcDbEntity
  8
RACCORDO
100
AcDbLine
 62
250
  6
CONTINUOUS
 10
-13.7899332814
 20
16.9064770922
 11
-13.2616661097
 21
17.5911702132
  0
LINE
  5
242
100
AcDbEntity
  8
RACCORDO
100
AcDbLine
 62
7
  6
CONTINUOUS
 10
-13.7899332814
 20
16.8519387777
 11
-13.2415332218
 21
17.5627263648
  0
LWPOLYLINE
  5
243
100
AcDbEntity
  8
RACCORDO
100
AcDbPolyline
 62
7
  6
CONTINUOUS
 90
22
 70
0
 10
-14.6799934642
 20
16.1829219473
 10
-14.6878725872
 20
16.1732348295
 10
-14.6960928363
 20
16.1637577276
 10
-14.7046506974
 20
16.1545116014
 10
-14.713549128
 20
16.1455170974
 10
-14.722775563
 20
16.1367953744
 10
-14.7323021373
 20
16.1283683001
 10
-14.7421223256
 20
16.1202568782
 10
-14.7522282238
 20
16.1124816216
 10
-14.7625890068
 20
16.1050639291
 10
-14.7731955281
 20
16.0980243822
 10
-14.7840374395
 20
16.0913829229
 10
-14.7950812165
 20
16.0851602839
 10
-14.806315065
 20
16.0793762258
 10
-14.8177260158
 20
16.0740498116
 10
-14.8292778363
 20
16.0692010354
 10
-14.8409559681
 20
16.0648484336
 10
-14.8527446996
 20
16.06100975
 10
-14.8646050136
 20
16.057704041
 10
-14.8765194613
 20
16.0549481254
 10
-14.8884694746
 20
16.0527578731
 10
-14.8967803715
 20
16.0515773437
  0
LINE
  5
244
100
AcDbEntity
  8
RACCORDO
100
AcDbLine
 62
7
  6
CONTINUOUS
 10
-13.7899332814
 20
16.1919561916
 11
-14.6799934642
 21
15.5234930813
  0
LINE
  5
245
100
AcDbEntity
  8
RACCORDO
100
AcDbLine
 62
7
  6
CONTINUOUS
 10
-6.0673502198
 20
20.6782297521
 11
-12.3818905465
 21
16.1901487981
  0
LINE
  5
246
100
AcDbEntity
  8
RACCORDO
100
AcDbLine
 62
250
  6
CONTINUOUS
 10
-13.2616661097
 20
17.8749285084
 11
-13.7899332814
 21
17.5001067284
  0
LINE
  5
247
100
AcDbEntity
  8
RACCORDO
100
AcDbLine
 62
250
  6
CONTINUOUS
 10
-13.7899332814
 20
17.5001067284
 11
-15.3912140723
 21
16.3716667075
  0
LINE
  5
248
100
AcDbEntity
  8
RACCORDO
100
AcDbLine
 62
7
  6
CONTINUOUS
 10
-6.2417793671
 20
20.7735871498
 11
-12.5846869009
 21
16.3335474756
  0
LINE
  5
249
100
AcDbEntity
  8
DRAFT
100
AcDbLine
 62
7
  6
CONTINUOUS
 10
-12.6858267151
 20
16.405064124
 11
-6.3495427165
 21
20.7113641099
  0
LINE
  5
24A
100
AcDbEntity
  8
0
100
AcDbLine
 62
7
  6
CONTINUOUS
 10
-12.6858267151
 20
16.405064124
 11
-6.3495427165
 21
20.7113641099
  0
LINE
  5
24B
100
AcDbEntity
  8
RACCORDO
100
AcDbLine
 62
7
  6
CONTINUOUS
 10
-13.0511030655
 20
16.6633535084
 11
-7.6707441795
 21
20.2990718081
  0
LINE
  5
24C
100
AcDbEntity
  8
0
100
AcDbLine
 62
7
  6
CONTINUOUS
 10
-13.0511030655
 20
16.6633535084
 11
-7.6707441795
 21
20.2990718081
  0
LINE
  5
24D
100
AcDbEntity
  8
RACCORDO
100
AcDbLine
 62
250
  6
CONTINUOUS
 10
-13.0290067118
 20
16.6477290268
 11
-7.5247919304
 21
20.3671415847
  0
LINE
  5
24E
100
AcDbEntity
  8
0
100
AcDbLine
 62
250
  6
CONTINUOUS
 10
-13.0290067118
 20
16.6477290268
 11
-7.5247919304
 21
20.3671415847
  0
LINE
  5
24F
100
AcDbEntity
  8
RACCORDO
100
AcDbLine
 62
7
  6
CONTINUOUS
 10
8.4086332045
 20
30.5113666601
 11
-5.9879013835
 21
20.9277452007
  0
LINE
  5
250
100
AcDbEntity
  8
0
100
AcDbLine
 62
7
  6
CONTINUOUS
 10
8.4086332045
 20
30.5113666601
 11
-5.9879013835
 21
20.9277452007
  0
LINE
  5
251
100
AcDbEntity
  8
RACCORDO
100
AcDbLine
 62
250
  6
CONTINUOUS
 10
8.9751108346
 20
30.394666409
 11
-5.4801474736
 21
20.7719531875
  0
LINE
  5
252
100
AcDbEntity
  8
0
100
AcDbLine
 62
250
  6
CONTINUOUS
 10
8.9751108346
 20
30.394666409
 11
-5.4801474736
 21
20.7719531875
  0
LINE
  5
253
100
AcDbEntity
  8
RACCORDO
100
AcDbLine
 62
250
  6
CONTINUOUS
 10
8.4109307995
 20
30.5128595303
 11
8.4086333513
 21
30.5113667579
  0
LINE
  5
254
100
AcDbEntity
  8
RACCORDO
100
AcDbLine
 62
7
  6
CONTINUOUS
 10
-6.3495427165
 20
20.7113641099
 11
-7.5247919304
 21
20.3671415847
  0
LINE
  5
255
100
AcDbEntity
  8
0
100
AcDbLine
 62
7
  6
CONTINUOUS
 10
-6.3495427165
 20
20.7113641099
 11
-7.5247919304
 21
20.3671415847
  0
LWPOLYLINE
  5
256
100
AcDbEntity
  8
RACCORDO
100
AcDbPolyline
 62
250
  6
CONTINUOUS
 90
10
 70
0
 10
0.069187479
 20
-25.2514205469
 10
0.065774815
 20
-25.2491709903
 10
0.0602782861
 20
-25.246163906
 10
0.0544449428
 20
-25.2436776866
 10
0.0482893539
 20
-25.2417185116
 10
0.0418267987
 20
-25.2402912159
 10
0.0350732852
 20
-25.2393993247
 10
0.0280455853
 20
-25.2390450559
 10
0.0207612038
 20
-25.2392292949
 10
0.0132382594
 20
-25.2399515832
  0
LINE
  5
257
100
AcDbEntity
  8
RACCORDO
100
AcDbLine
 62
7
  6
CONTINUOUS
 10
-1.6681972594
 20
-26.0687798716
 11
-1.7460145464
 21
-26.0137547402
  0
LINE
  5
258
100
AcDbEntity
  8
RACCORDO
100
AcDbLine
 62
250
  6
CONTINUOUS
 10
-0.2380313525
 20
-25.0622771367
 11
0.0132382594
 21
-25.2399515832
  0
LINE
  5
259
100
AcDbEntity
  8
RACCORDO
100
AcDbLine
 62
7
  6
CONTINUOUS
 10
-0.2170416092
 20
-25.0490260176
 11
0.069187479
 21
-25.2514205469
  0
LINE
  5
25A
100
AcDbEntity
  8
RACCORDO
100
AcDbLine
 62
250
  6
CONTINUOUS
 10
-2.1508153269
 20
-26.9679513194
 11
-2.1709229588
 21
-26.9517639677
  0
LWPOLYLINE
  5
25B
100
AcDbEntity
  8
RACCORDO
100
AcDbPolyline
 62
250
  6
CONTINUOUS
 90
16
 70
0
 10
-2.0268959078
 20
-27.0769064208
 10
-2.031779925
 20
-27.0719831266
 10
-2.0371305284
 20
-27.0667299479
 10
-2.0429331068
 20
-27.0611612301
 10
-2.0491718144
 20
-27.0552921803
 10
-2.0558296148
 20
-27.0491388254
 10
-2.0628883267
 20
-27.0427179691
 10
-2.0703286744
 20
-27.0360471454
 10
-2.0781303399
 20
-27.0291445709
 10
-2.0862720184
 20
-27.0220290951
 10
-2.0947314766
 20
-27.0147201488
 10
-2.1034856137
 20
-27.0072376913
 10
-2.1125105238
 20
-26.9996021556
 10
-2.1217815619
 20
-26.9918343927
 10
-2.1312734106
 20
-26.9839556148
 10
-2.1508153269
 20
-26.9679513194
  0
LWPOLYLINE
  5
25C
100
AcDbEntity
  8
RACCORDO
100
AcDbPolyline
 62
250
  6
CONTINUOUS
 90
7
 70
0
 10
-19.3634824115
 20
-8.866224847
 10
-19.3730606333
 20
-7.8089595099
 10
-19.3794091981
 20
-6.7494261794
 10
-19.382528049
 20
-5.6876344507
 10
-19.3824171579
 20
-4.6235939391
 10
-19.3790765258
 20
-3.5573142809
 10
-19.3725061827
 20
-2.4888051327
  0
LWPOLYLINE
  5
25D
100
AcDbEntity
  8
RACCORDO
100
AcDbPolyline
 62
250
  6
CONTINUOUS
 90
7
 70
0
 10
-18.6630340504
 20
-8.513691555
 10
-18.67074695
 20
-7.5740025624
 10
-18.6759090573
 20
-6.6325401066
 10
-18.6785203722
 20
-5.6893041875
 10
-18.6785808947
 20
-4.7442948053
 10
-18.6760906248
 20
-3.7975119598
 10
-18.672378167
 20
-3.0989537914
  0
LINE
  5
25E
100
AcDbEntity
  8
DRAFT
100
AcDbLine
 62
7
  6
CONTINUOUS
 10
-17.8911526123
 20
-7.9706375785
 11
-17.8911526123
 21
-3.6513636788
  0
LINE
  5
25F
100
AcDbEntity
  8
0
100
AcDbLine
 62
7
  6
CONTINUOUS
 10
-17.5022438827
 20
-5.2111444366
 11
-17.5022438827
 21
-6.4132259646
  0
LINE
  5
260
100
AcDbEntity
  8
RACCORDO
100
AcDbLine
 62
250
  6
CONTINUOUS
 10
-17.3926071963
 20
-3.888805132
 11
-17.3894998807
 21
-3.5091715426
  0
LINE
  5
261
100
AcDbEntity
  8
RACCORDO
100
AcDbLine
 62
250
  6
CONTINUOUS
 10
-17.3894998807
 20
-3.5091715426
 11
-17.3859860258
 21
-3.12925896
  0
LINE
  5
262
100
AcDbEntity
  8
RACCORDO
100
AcDbLine
 62
250
  6
CONTINUOUS
 10
-17.3859860258
 20
-3.12925896
 11
-17.3820656354
 21
-2.7490678173
  0
LWPOLYLINE
  5
263
100
AcDbEntity
  8
RACCORDO
100
AcDbPolyline
 62
250
  6
CONTINUOUS
 90
31
 70
0
 10
-17.0687207117
 20
17.3092974606
 10
-17.0684813568
 20
17.3186627663
 10
-17.0677633516
 20
17.3283472599
 10
-17.0665677615
 20
17.3383252378
 10
-17.064896564
 20
17.3485722439
 10
-17.0627536291
 20
17.359058852
 10
-17.0601456737
 20
17.3697502884
 10
-17.0570805017
 20
17.3806151077
 10
-17.0535659474
 20
17.3916260062
 10
-17.0496114661
 20
17.4027533136
 10
-17.0452277023
 20
17.4139669607
 10
-17.0404266227
 20
17.4252362309
 10
-17.0352214172
 20
17.4365301326
 10
-17.0296263283
 20
17.4478177865
 10
-17.0236565253
 20
17.4590686107
 10
-17.0173282034
 20
17.4702520804
 10
-17.0106585523
 20
17.4813378009
 10
-17.0036657448
 20
17.4922955513
 10
-16.9963688361
 20
17.5030954647
 10
-16.9887876936
 20
17.5137081329
 10
-16.9809429424
 20
17.5241046808
 10
-16.9728559361
 20
17.534256805
 10
-16.9645486839
 20
17.5441368735
 10
-16.9560437972
 20
17.5537179908
 10
-16.9473644321
 20
17.5629740685
 10
-16.9385342061
 20
17.5718799181
 10
-16.9295771598
 20
17.5804112913
 10
-16.9205177006
 20
17.5885449417
 10
-16.9113804971
 20
17.5962587256
 10
-16.9021904107
 20
17.6035316586
 10
-16.8929724558
 20
17.6103439479
  0
LINE
  5
264
100
AcDbEntity
  8
RACCORDO
100
AcDbLine
 62
7
  6
CONTINUOUS
 10
-11.4211135631
 20
15.0019194533
 11
-11.0675721739
 21
15.2569056853
  0
LINE
  5
265
100
AcDbEntity
  8
ASSI
100
AcDbLine
 62
7
  6
CONTINUOUS
 10
-5.1258183333
 20
18.5274944497
 11
-9.7240692896
 21
15.3027918584
  0
LINE
  5
266
100
AcDbEntity
  8
ASSI
100
AcDbLine
 62
7
  6
CONTINUOUS
 10
-11.0675721739
 20
15.2569056853
 11
-5.7313487679
 21
18.9556691263
  0
LWPOLYLINE
  5
267
100
AcDbEntity
  8
ASSI
100
AcDbPolyline
 62
7
  6
CONTINUOUS
 90
6
 70
0
 10
-5.0850250529
 20
18.553740384
 10
-5.0931331057
 20
18.5489021953
 10
-5.1012664601
 20
18.5438585075
 10
-5.1094251162
 20
18.5386093207
 10
-5.1176090739
 20
18.5331546347
 10
-5.1258183333
 20
18.5274944497
  0
LWPOLYLINE
  5
268
100
AcDbEntity
  8
ASSI
100
AcDbPolyline
 62
7
  6
CONTINUOUS
 90
22
 70
0
 10
-5.6804175766
 20
18.9873235198
 10
-5.6682485388
 20
18.9935272156
 10
-5.6555147511
 20
18.9989936785
 10
-5.6422238266
 20
19.0037005629
 10
-5.6283798163
 20
19.0076369488
 10
-5.6139988221
 20
19.0107682243
 10
-5.5991105439
 20
19.0130376924
 10
-5.5837353304
 20
19.0144192721
 10
-5.567886901
 20
19.014896874
 10
-5.5515892839
 20
19.0144307944
 10
-5.5348996572
 20
19.0130054636
 10
-5.5178070698
 20
19.0105985944
 10
-5.5002315202
 20
19.0071520848
 10
-5.4821802942
 20
19.0026372124
 10
-5.4636950161
 20
18.9970249562
 10
-5.4447450602
 20
18.9902422496
 10
-5.4253622114
 20
18.9822553772
 10
-5.4055809538
 20
18.9730319344
 10
-5.3853780349
 20
18.9624897982
 10
-5.3647775049
 20
18.950574131
 10
-5.3438467813
 20
18.9372637361
 10
-5.3290594788
 20
18.9271214108
  0
LINE
  5
269
100
AcDbEntity
  8
0
100
AcDbLine
 62
7
  6
CONTINUOUS
 10
-3.6593800273
 20
17.610364348
 11
-2.2994480872
 21
18.0770066979
  0
LINE
  5
26A
100
AcDbEntity
  8
RACCORDO
100
AcDbLine
 62
250
  6
CONTINUOUS
 10
-9.9456947455
 20
-15.5256063695
 11
-19.3634824115
 21
-8.866224847
  0
LINE
  5
26B
100
AcDbEntity
  8
RACCORDO
100
AcDbLine
 62
250
  6
CONTINUOUS
 10
-10.09881408
 20
-14.5644979056
 11
-18.6594936177
 21
-8.5111833529
  0
LWPOLYLINE
  5
26C
100
AcDbEntity
  8
RACCORDO
100
AcDbPolyline
 62
250
  6
CONTINUOUS
 90
31
 70
0
 10
-15.3912140723
 20
16.3716667075
 10
-15.3915077742
 20
16.3810298342
 10
-15.3922807028
 20
16.3907165449
 10
-15.393531647
 20
16.4007009567
 10
-15.3952584921
 20
16.41095846
 10
-15.3974571843
 20
16.4214593685
 10
-15.400120758
 20
16.4321685263
 10
-15.4032411765
 20
16.4430541673
 10
-15.4068104155
 20
16.4540887654
 10
-15.4108188074
 20
16.4652423819
 10
-15.415255488
 20
16.4764846647
 10
-15.4201082541
 20
16.4877845809
 10
-15.4253636693
 20
16.4991108093
 10
-15.431007245
 20
16.5104321481
 10
-15.4370235693
 20
16.5217177013
 10
-15.4433961997
 20
16.5329366225
 10
-15.4501076981
 20
16.5440581952
 10
-15.4571396418
 20
16.5550518754
 10
-15.4644727258
 20
16.5658874744
 10
-15.4720868356
 20
16.5765352677
 10
-15.4799611033
 20
16.5869660702
 10
-15.488073936
 20
16.5971512754
 10
-15.4964030908
 20
16.6070629557
 10
-15.5049257283
 20
16.6166739294
 10
-15.513618472
 20
16.6259578327
 10
-15.5224574918
 20
16.6348892134
 10
-15.5314185454
 20
16.6434435742
 10
-15.5404770352
 20
16.6515974348
 10
-15.549608113
 20
16.6593284323
 10
-15.5587867494
 20
16.6666153787
 10
-15.5679877759
 20
16.6734382958
  0
LWPOLYLINE
  5
26D
100
AcDbEntity
  8
RACCORDO
100
AcDbPolyline
 62
250
  6
CONTINUOUS
 90
14
 70
0
 10
-17.0687207117
 20
17.0317099058
 10
-17.0685018406
 20
17.0230706536
 10
-17.0678452848
 20
17.0147578199
 10
-17.0667519472
 20
17.006792579
 10
-17.0652234973
 20
16.999193933
 10
-17.0632631788
 20
16.9919829044
 10
-17.0608765957
 20
16.9851817443
 10
-17.0580702629
 20
16.9788085496
 10
-17.0548507458
 20
16.9728778321
 10
-17.0512259767
 20
16.9674042375
 10
-17.0472048936
 20
16.9624013451
 10
-17.0427975204
 20
16.9578817008
 10
-17.0380148926
 20
16.9538566467
 10
-17.0362882525
 20
16.9525904768
  0
LWPOLYLINE
  5
26E
100
AcDbEntity
  8
RACCORDO
100
AcDbPolyline
 62
250
  6
CONTINUOUS
 90
14
 70
0
 10
-15.7437360319
 20
16.0948042537
 10
-15.7435171607
 20
16.0861650015
 10
-15.742860605
 20
16.0778521678
 10
-15.7417672674
 20
16.0698869269
 10
-15.7402388175
 20
16.062288281
 10
-15.7382784989
 20
16.0550772524
 10
-15.7358919159
 20
16.0482760922
 10
-15.7330855831
 20
16.0419028975
 10
-15.729866066
 20
16.0359721801
 10
-15.7262412968
 20
16.0304985854
 10
-15.7222202137
 20
16.0254956931
 10
-15.7178128406
 20
16.0209760487
 10
-15.7130302128
 20
16.0169509947
 10
-15.7112969039
 20
16.0156801085
  0
LINE
  5
26F
100
AcDbEntity
  8
RACCORDO
100
AcDbLine
 62
7
  6
CONTINUOUS
 10
-17.1419440164
 20
17.4342974606
 11
-17.1419440164
 21
17.1567099058
  0
LINE
  5
270
100
AcDbEntity
  8
RACCORDO
100
AcDbLine
 62
250
  6
CONTINUOUS
 10
-17.0687207117
 20
17.3092974606
 11
-17.0687207117
 21
17.0317099058
  0
LINE
  5
271
100
AcDbEntity
  8
0
100
AcDbLine
 62
7
  6
CONTINUOUS
 10
-16.9895914663
 20
-4.2673138439
 11
-16.9895914663
 21
-5.5736444366
  0
LINE
  5
272
100
AcDbEntity
  8
0
100
AcDbLine
 62
7
  6
CONTINUOUS
 10
-16.9895914663
 20
-6.7757259646
 11
-16.9895914663
 21
-8.1192288489
  0
LINE
  5
273
100
AcDbEntity
  8
RACCORDO
100
AcDbLine
 62
250
  6
CONTINUOUS
 10
-16.3657277575
 20
16.4577310884
 11
-16.3657277575
 21
16.4784326029
  0
LINE
  5
274
100
AcDbEntity
  8
DRAFT
100
AcDbLine
 62
7
  6
CONTINUOUS
 10
-15.911253625
 20
-3.7137833291
 11
-15.911253625
 21
-3.6169052289
  0
LINE
  5
275
100
AcDbEntity
  8
0
100
AcDbLine
 62
7
  6
CONTINUOUS
 10
-15.8051876078
 20
-3.5441205504
 11
-15.8051876078
 21
-4.0423367196
  0
LINE
  5
276
100
AcDbEntity
  8
RACCORDO
100
AcDbLine
 62
250
  6
CONTINUOUS
 10
-15.7437360319
 20
16.0948042537
 11
-15.7437360319
 21
16.3723918086
  0
LINE
  5
277
100
AcDbEntity
  8
RACCORDO
100
AcDbLine
 62
250
  6
CONTINUOUS
 10
-15.3912140723
 20
16.0940791527
 11
-15.3912140723
 21
16.3716667075
  0
LINE
  5
278
100
AcDbEntity
  8
RACCORDO
100
AcDbLine
 62
250
  6
CONTINUOUS
 10
-15.0325154238
 20
16.0346218713
 11
-15.0325154238
 21
15.5150076065
  0
LINE
  5
279
100
AcDbEntity
  8
RACCORDO
100
AcDbLine
 62
250
  6
CONTINUOUS
 10
-16.6911504712
 20
-4.2489555804
 11
-16.6884271307
 21
-3.8699635326
  0
LWPOLYLINE
  5
27A
100
AcDbEntity
  8
RACCORDO
100
AcDbPolyline
 62
250
  6
CONTINUOUS
 90
3
 70
0
 10
-16.6884271307
 20
-3.8699635326
 10
-16.6852974809
 20
-3.4906889916
 10
-16.6841041619
 20
-3.3588316907
  0
LINE
  5
27B
100
AcDbEntity
  8
RACCORDO
100
AcDbLine
 62
250
  6
CONTINUOUS
 10
-15.9392992784
 20
-3.6361318742
 11
-15.9348362489
 21
-3.2088021088
  0
LINE
  5
27C
100
AcDbEntity
  8
RACCORDO
100
AcDbLine
 62
250
  6
CONTINUOUS
 10
-15.9348362489
 20
-3.2088021088
 11
-15.9327797083
 21
-3.0272229569
  0
LINE
  5
27D
100
AcDbEntity
  8
RACCORDO
100
AcDbLine
 62
250
  6
CONTINUOUS
 10
-16.6396035157
 20
-3.274067817
 11
-16.6347071201
 21
-2.8460181503
  0
LINE
  5
27E
100
AcDbEntity
  8
RACCORDO
100
AcDbLine
 62
250
  6
CONTINUOUS
 10
-16.6347071201
 20
-2.8460181503
 11
-16.6292962092
 21
-2.4176170944
  0
LWPOLYLINE
  5
27F
100
AcDbEntity
  8
RACCORDO
100
AcDbPolyline
 62
250
  6
CONTINUOUS
 90
31
 70
0
 10
-15.7437360319
 20
16.3723918086
 10
-15.743496677
 20
16.3817571142
 10
-15.7427786718
 20
16.3914416078
 10
-15.7415830817
 20
16.4014195857
 10
-15.7399118842
 20
16.4116665918
 10
-15.7377689493
 20
16.4221532
 10
-15.7351609938
 20
16.4328446364
 10
-15.7320958218
 20
16.4437094556
 10
-15.7285812676
 20
16.4547203542
 10
-15.7246267863
 20
16.4658476615
 10
-15.7202430225
 20
16.4770613086
 10
-15.7154419429
 20
16.4883305789
 10
-15.7102367374
 20
16.4996244806
 10
-15.7046416484
 20
16.5109121345
 10
-15.6986718455
 20
16.5221629587
 10
-15.6923435236
 20
16.5333464283
 10
-15.6856738725
 20
16.5444321488
 10
-15.678681065
 20
16.5553898993
 10
-15.6713841563
 20
16.5661898127
 10
-15.6638030138
 20
16.5768024809
 10
-15.6559582625
 20
16.5871990287
 10
-15.6478712563
 20
16.597351153
 10
-15.6395640041
 20
16.6072312215
 10
-15.6310591174
 20
16.6168123387
 10
-15.6223797523
 20
16.6260684164
 10
-15.6135495263
 20
16.634974266
 10
-15.60459248
 20
16.6435056392
 10
-15.5955330208
 20
16.6516392896
 10
-15.5863958173
 20
16.6593530735
 10
-15.5772057309
 20
16.6666260065
 10
-15.5679877759
 20
16.6734382958
  0
LINE
  5
280
100
AcDbEntity
  8
RACCORDO
100
AcDbLine
 62
7
  6
CONTINUOUS
 10
-6.1582548479
 20
15.8635352479
 11
-7.9702650467
 21
14.0626649853
  0
LINE
  5
281
100
AcDbEntity
  8
0
100
AcDbLine
 62
7
  6
CONTINUOUS
 10
-6.1582548479
 20
15.8635352479
 11
-7.9702650467
 21
14.0626649853
  0
LINE
  5
282
100
AcDbEntity
  8
0
100
AcDbLine
 62
250
  6
CONTINUOUS
 10
-6.0471140274
 20
15.8391387323
 11
-7.89098385
 21
14.0066047135
  0
LWPOLYLINE
  5
283
100
AcDbEntity
  8
0
100
AcDbPolyline
 62
7
  6
CONTINUOUS
 90
4
 70
0
 10
-6.1541835166
 20
15.8669568492
 10
-6.1557543732
 20
15.8657719649
 10
-6.1578461994
 20
15.8639342039
 10
-6.1582551368
 20
15.8635349608
  0
LINE
  5
284
100
AcDbEntity
  8
0
100
AcDbLine
 62
7
  6
CONTINUOUS
 10
-6.1178247056
 20
16.3719814448
 11
-5.4107179244
 21
16.8719814448
  0
LINE
  5
285
100
AcDbEntity
  8
RACCORDO
100
AcDbLine
 62
7
  6
CONTINUOUS
 10
-6.1541837169
 20
15.8669566468
 11
-6.0965475648
 21
15.9077115609
  0
LINE
  5
286
100
AcDbEntity
  8
0
100
AcDbLine
 62
7
  6
CONTINUOUS
 10
-6.1541837169
 20
15.8669566468
 11
-6.0965475648
 21
15.9077115609
  0
LINE
  5
287
100
AcDbEntity
  8
0
100
AcDbLine
 62
7
  6
CONTINUOUS
 10
-3.6593800273
 20
17.610364348
 11
-5.0571645338
 21
16.6219814448
  0
LINE
  5
288
100
AcDbEntity
  8
RACCORDO
100
AcDbLine
 62
250
  6
CONTINUOUS
 10
-6.0471140274
 20
15.8391387323
 11
-5.981077511
 21
15.8858336009
  0
LINE
  5
289
100
AcDbEntity
  8
0
100
AcDbLine
 62
250
  6
CONTINUOUS
 10
-6.0471140274
 20
15.8391387323
 11
-5.981077511
 21
15.8858336009
  0
LINE
  5
28A
100
AcDbEntity
  8
DRAFT
100
AcDbLine
 62
7
  6
CONTINUOUS
 10
-5.4107179244
 20
17.3231433171
 11
-5.0769423017
 21
17.5562455075
  0
LINE
  5
28B
100
AcDbEntity
  8
RACCORDO
100
AcDbLine
 62
7
  6
CONTINUOUS
 10
-3.0003842759
 20
18.5095573355
 11
-5.0571645338
 21
17.0731433171
  0
LWPOLYLINE
  5
28C
100
AcDbEntity
  8
RACCORDO
100
AcDbPolyline
 62
250
  6
CONTINUOUS
 90
55
 70
0
 10
-5.981077511
 20
15.8858336009
 10
-5.9653268706
 20
15.8966771137
 10
-5.9491978267
 20
15.907205802
 10
-5.9326903793
 20
15.9174196657
 10
-5.9157911408
 20
15.9273260899
 10
-5.8985134988
 20
15.9369176894
 10
-5.8808976165
 20
15.9461723097
 10
-5.862943058
 20
15.9550888668
 10
-5.8446502593
 20
15.9636684446
 10
-5.8260606921
 20
15.9718921393
 10
-5.8071737618
 20
15.9797590455
 10
-5.7879900629
 20
15.9872700686
 10
-5.7685528511
 20
15.9944090218
 10
-5.7488616547
 20
16.0011749893
 10
-5.7289169454
 20
16.0075688868
 10
-5.7087633943
 20
16.013577275
 10
-5.6884005419
 20
16.0191992507
 10
-5.6678288477
 20
16.024435717
 10
-5.6470943604
 20
16.0292759432
 10
-5.6261968494
 20
16.0337189844
 10
-5.6051365454
 20
16.0377657855
 10
-5.5839601896
 20
16.0414084512
 10
-5.5626676239
 20
16.0446460492
 10
-5.5412590064
 20
16.0474795118
 10
-5.519781552
 20
16.04990374
 10
-5.4982352756
 20
16.0519178067
 10
-5.4766201624
 20
16.053522639
 10
-5.4549833825
 20
16.0547159199
 10
-5.4333249879
 20
16.0554967454
 10
-5.4116449266
 20
16.0558660196
 10
-5.3899902141
 20
16.055824138
 10
-5.3683610656
 20
16.0553702178
 10
-5.3467572657
 20
16.0545051419
 10
-5.3252251845
 20
16.0532319543
 10
-5.3037650616
 20
16.0515497959
 10
-5.2823766572
 20
16.0494595258
 10
-5.2611056217
 20
16.0469667653
 10
-5.2399523529
 20
16.0440706932
 10
-5.218916453
 20
16.0407721307
 10
-5.1980423779
 20
16.0370791628
 10
-5.1773306002
 20
16.0329910127
 10
-5.1567806473
 20
16.0285084572
 10
-5.1364355581
 20
16.0236419116
 10
-5.1162958727
 20
16.0183906441
 10
-5.0963610509
 20
16.0127553864
 10
-5.0766725114
 20
16.0067487492
 10
-5.0572307256
 20
16.0003699951
 10
-5.038035222
 20
15.9936198614
 10
-5.0191260056
 20
15.9865131702
 10
-5.0005035914
 20
15.9790491608
 10
-4.9821674644
 20
15.9712285939
 10
-4.9641560835
 20
15.9630685734
 10
-4.9464822685
 20
15.9545748005
 10
-4.9291331998
 20
15.945741574
 10
-4.9121088772
 20
15.9365688939
  0
LWPOLYLINE
  5
28D
100
AcDbEntity
  8
0
100
AcDbPolyline
 62
250
  6
CONTINUOUS
 90
55
 70
0
 10
-5.981077511
 20
15.8858336009
 10
-5.9653268706
 20
15.8966771137
 10
-5.9491978267
 20
15.907205802
 10
-5.9326903793
 20
15.9174196657
 10
-5.9157911408
 20
15.9273260899
 10
-5.8985134988
 20
15.9369176894
 10
-5.8808976165
 20
15.9461723097
 10
-5.862943058
 20
15.9550888668
 10
-5.8446502593
 20
15.9636684446
 10
-5.8260606921
 20
15.9718921393
 10
-5.8071737618
 20
15.9797590455
 10
-5.7879900629
 20
15.9872700686
 10
-5.7685528511
 20
15.9944090218
 10
-5.7488616547
 20
16.0011749893
 10
-5.7289169454
 20
16.0075688868
 10
-5.7087633943
 20
16.013577275
 10
-5.6884005419
 20
16.0191992507
 10
-5.6678288477
 20
16.024435717
 10
-5.6470943604
 20
16.0292759432
 10
-5.6261968494
 20
16.0337189844
 10
-5.6051365454
 20
16.0377657855
 10
-5.5839601896
 20
16.0414084512
 10
-5.5626676239
 20
16.0446460492
 10
-5.5412590064
 20
16.0474795118
 10
-5.519781552
 20
16.04990374
 10
-5.4982352756
 20
16.0519178067
 10
-5.4766201624
 20
16.053522639
 10
-5.4549833825
 20
16.0547159199
 10
-5.4333249879
 20
16.0554967454
 10
-5.4116449266
 20
16.0558660196
 10
-5.3899902141
 20
16.055824138
 10
-5.3683610656
 20
16.0553702178
 10
-5.3467572657
 20
16.0545051419
 10
-5.3252251845
 20
16.0532319543
 10
-5.3037650616
 20
16.0515497959
 10
-5.2823766572
 20
16.0494595258
 10
-5.2611056217
 20
16.0469667653
 10
-5.2399523529
 20
16.0440706932
 10
-5.218916453
 20
16.0407721307
 10
-5.1980423779
 20
16.0370791628
 10
-5.1773306002
 20
16.0329910127
 10
-5.1567806473
 20
16.0285084572
 10
-5.1364355581
 20
16.0236419116
 10
-5.1162958727
 20
16.0183906441
 10
-5.0963610509
 20
16.0127553864
 10
-5.0766725114
 20
16.0067487492
 10
-5.0572307256
 20
16.0003699951
 10
-5.038035222
 20
15.9936198614
 10
-5.0191260056
 20
15.9865131702
 10
-5.0005035914
 20
15.9790491608
 10
-4.9821674644
 20
15.9712285939
 10
-4.9641560835
 20
15.9630685734
 10
-4.9464822685
 20
15.9545748005
 10
-4.9291331998
 20
15.945741574
 10
-4.9121088772
 20
15.9365688939
  0
LINE
  5
28E
100
AcDbEntity
  8
0
100
AcDbLine
 62
7
  6
CONTINUOUS
 10
-6.0358936446
 20
15.9473140358
 11
-6.0966035139
 21
15.907671896
  0
LWPOLYLINE
  5
28F
100
AcDbEntity
  8
RACCORDO
100
AcDbPolyline
 62
250
  6
CONTINUOUS
 90
23
 70
0
 10
-6.0965475648
 20
15.9077115609
 10
-6.0932746125
 20
15.9098394479
 10
-6.0894125509
 20
15.9119205865
 10
-6.0853442674
 20
15.9136828635
 10
-6.0810775062
 20
15.9151229242
 10
-6.0766203894
 20
15.9162380274
 10
-6.0719814013
 20
15.9170260504
 10
-6.0671693725
 20
15.9174854933
 10
-6.062193463
 20
15.9176154813
 10
-6.0570631447
 20
15.9174157672
 10
-6.0517881835
 20
15.9168867311
 10
-6.0463786206
 20
15.91602938
 10
-6.0408447534
 20
15.914845346
 10
-6.0351971158
 20
15.9133368829
 10
-6.0294464586
 20
15.9115068622
 10
-6.0236037285
 20
15.9093587675
 10
-6.0176800473
 20
15.9068966877
 10
-6.0116866911
 20
15.9041253097
 10
-6.0056350688
 20
15.9010499089
 10
-5.9995366998
 20
15.8976763394
 10
-5.9934031927
 20
15.8940110232
 10
-5.9872462231
 20
15.8900609373
 10
-5.981077511
 20
15.8858336009
  0
LWPOLYLINE
  5
290
100
AcDbEntity
  8
RACCORDO
100
AcDbPolyline
 62
7
  6
CONTINUOUS
 90
5
 70
0
 10
-6.0141260053
 20
15.9600631259
 10
-6.0370669119
 20
15.9466062878
 10
-6.0595142946
 20
15.9326398559
 10
-6.0814534965
 20
15.9181699991
 10
-6.0965481037
 20
15.9077111345
  0
LWPOLYLINE
  5
291
100
AcDbEntity
  8
0
100
AcDbPolyline
 62
250
  6
CONTINUOUS
 90
22
 70
0
 10
-6.0932746125
 20
15.9098394479
 10
-6.0894125509
 20
15.9119205865
 10
-6.0853442674
 20
15.9136828635
 10
-6.0810775062
 20
15.9151229242
 10
-6.0766203894
 20
15.9162380274
 10
-6.0719814013
 20
15.9170260504
 10
-6.0671693725
 20
15.9174854933
 10
-6.062193463
 20
15.9176154813
 10
-6.0570631447
 20
15.9174157672
 10
-6.0517881835
 20
15.9168867311
 10
-6.0463786206
 20
15.91602938
 10
-6.0408447534
 20
15.914845346
 10
-6.0351971158
 20
15.9133368829
 10
-6.0294464586
 20
15.9115068622
 10
-6.0236037285
 20
15.9093587675
 10
-6.0176800473
 20
15.9068966877
 10
-6.0116866911
 20
15.9041253097
 10
-6.0056350688
 20
15.9010499089
 10
-5.9995366998
 20
15.8976763394
 10
-5.9934031927
 20
15.8940110232
 10
-5.9872462231
 20
15.8900609373
 10
-5.981077511
 20
15.8858336009
  0
LWPOLYLINE
  5
292
100
AcDbEntity
  8
RACCORDO
100
AcDbPolyline
 62
7
  6
CONTINUOUS
 90
11
 70
0
 10
-4.8666465668
 20
15.9642461855
 10
-4.8710402154
 20
15.9623608239
 10
-4.8754825031
 20
15.9602714697
 10
-4.8799677068
 20
15.9579804815
 10
-4.8844909191
 20
15.955491063
 10
-4.8890462661
 20
15.952806022
 10
-4.893627879
 20
15.9499284271
 10
-4.8982307972
 20
15.9468622211
 10
-4.90284939
 20
15.9436111321
 10
-4.9074773633
 20
15.9401786726
 10
-4.9121087323
 20
15.9365687914
  0
LINE
  5
293
100
AcDbEntity
  8
RACCORDO
100
AcDbLine
 62
7
  6
CONTINUOUS
 10
-4.8623072664
 20
15.9659254688
 11
-4.8666465668
 21
15.9642461855
  0
LINE
  5
294
100
AcDbEntity
  8
DRAFT
100
AcDbLine
 62
7
  6
CONTINUOUS
 10
-10.1060890162
 20
-13.4755088393
 11
-17.8911526123
 21
-7.9706375785
  0
LINE
  5
295
100
AcDbEntity
  8
0
100
AcDbLine
 62
7
  6
CONTINUOUS
 10
-16.9895914663
 20
-8.1192288489
 11
-10.1083806744
 21
-12.9849796626
  0
LINE
  5
296
100
AcDbEntity
  8
0
100
AcDbLine
 62
7
  6
CONTINUOUS
 10
-17.5022438827
 20
-6.4132259646
 11
-16.9895914663
 21
-6.7757259646
  0
LWPOLYLINE
  5
297
100
AcDbEntity
  8
ASSI
100
AcDbPolyline
 62
7
  6
CONTINUOUS
 90
13
 70
0
 10
-13.29627566
 20
-8.7276601972
 10
-13.2983687257
 20
-8.6974003108
 10
-13.2971202196
 20
-8.6654734963
 10
-13.2925301415
 20
-8.6318797537
 10
-13.2844618859
 20
-8.5961720244
 10
-13.2730520585
 20
-8.5587973669
 10
-13.2587104763
 20
-8.5210969576
 10
-13.2413555278
 20
-8.483087463
 10
-13.2210688245
 20
-8.4447522166
 10
-13.1985050176
 20
-8.4073823943
 10
-13.1738823242
 20
-8.3714083881
 10
-13.1469825271
 20
-8.3363998061
 10
-13.1178056265
 20
-8.3023566483
  0
LWPOLYLINE
  5
298
100
AcDbEntity
  8
ASSI
100
AcDbPolyline
 62
7
  6
CONTINUOUS
 90
13
 70
0
 10
-12.9780776085
 20
-8.9526601972
 10
-12.9801706742
 20
-8.9224003108
 10
-12.978922168
 20
-8.8904734963
 10
-12.97433209
 20
-8.8568797537
 10
-12.9662638344
 20
-8.8211720244
 10
-12.954854007
 20
-8.7837973669
 10
-12.9405124247
 20
-8.7460969576
 10
-12.9231574763
 20
-8.708087463
 10
-12.902870773
 20
-8.6697522166
 10
-12.8803069661
 20
-8.6323823943
 10
-12.8556842726
 20
-8.5964083881
 10
-12.8287844756
 20
-8.5613998061
 10
-12.7996075749
 20
-8.5273566483
  0
LWPOLYLINE
  5
299
100
AcDbEntity
  8
ASSI
100
AcDbPolyline
 62
7
  6
CONTINUOUS
 90
13
 70
0
 10
-12.5891688789
 20
-9.2276601972
 10
-12.5912619445
 20
-9.1974003108
 10
-12.5900134384
 20
-9.1654734963
 10
-12.5854233603
 20
-9.1318797537
 10
-12.5773551048
 20
-9.0961720244
 10
-12.5659452773
 20
-9.0587973669
 10
-12.5516036951
 20
-9.0210969576
 10
-12.5342487466
 20
-8.983087463
 10
-12.5139620433
 20
-8.9447522166
 10
-12.4913982364
 20
-8.9073823943
 10
-12.466775543
 20
-8.8714083881
 10
-12.4398757459
 20
-8.8363998061
 10
-12.4106988453
 20
-8.8023566483
  0
LWPOLYLINE
  5
29A
100
AcDbEntity
  8
ASSI
100
AcDbPolyline
 62
7
  6
CONTINUOUS
 90
13
 70
0
 10
-12.2709708273
 20
-9.4526601972
 10
-12.273063893
 20
-9.4224003108
 10
-12.2718153868
 20
-9.3904734963
 10
-12.2672253088
 20
-9.3568797537
 10
-12.2591570532
 20
-9.3211720244
 10
-12.2477472258
 20
-9.2837973669
 10
-12.2334056435
 20
-9.2460969576
 10
-12.2160506951
 20
-9.208087463
 10
-12.1957639918
 20
-9.1697522166
 10
-12.1732001849
 20
-9.1323823943
 10
-12.1485774914
 20
-9.0964083881
 10
-12.1216776944
 20
-9.0613998061
 10
-12.0925007937
 20
-9.0273566483
  0
LWPOLYLINE
  5
29B
100
AcDbEntity
  8
ASSI
100
AcDbPolyline
 62
7
  6
CONTINUOUS
 90
13
 70
0
 10
-11.8820620977
 20
-9.7276601972
 10
-11.8841551634
 20
-9.6974003108
 10
-11.8829066572
 20
-9.6654734963
 10
-11.8783165791
 20
-9.6318797537
 10
-11.8702483236
 20
-9.5961720244
 10
-11.8588384961
 20
-9.5587973669
 10
-11.8444969139
 20
-9.5210969576
 10
-11.8271419654
 20
-9.483087463
 10
-11.8068552621
 20
-9.4447522166
 10
-11.7842914552
 20
-9.4073823943
 10
-11.7596687618
 20
-9.3714083881
 10
-11.7327689647
 20
-9.3363998061
 10
-11.7035920641
 20
-9.3023566483
  0
LWPOLYLINE
  5
29C
100
AcDbEntity
  8
RACCORDO
100
AcDbPolyline
 62
7
  6
CONTINUOUS
 90
8
 70
0
 10
-12.8156172254
 20
-6.0858001453
 10
-12.8154704863
 20
-6.0883740776
 10
-12.8149980668
 20
-6.090688741
 10
-12.8141994814
 20
-6.0928282129
 10
-12.8130970174
 20
-6.0947859612
 10
-12.8116915273
 20
-6.0965688405
 10
-12.8099825233
 20
-6.0981847699
 10
-12.8088399168
 20
-6.0990573173
  0
LWPOLYLINE
  5
29D
100
AcDbEntity
  8
RACCORDO
100
AcDbPolyline
 62
7
  6
CONTINUOUS
 90
8
 70
0
 10
-12.082714127
 20
-7.7499833621
 10
-12.0825862741
 20
-7.7523690344
 10
-12.0821348462
 20
-7.7547183487
 10
-12.081357569
 20
-7.7568920033
 10
-12.0802767262
 20
-7.758883481
 10
-12.0788931481
 20
-7.7606996214
 10
-12.0772063231
 20
-7.7623483271
 10
-12.0758145759
 20
-7.7634286392
  0
LWPOLYLINE
  5
29E
100
AcDbEntity
  8
RACCORDO
100
AcDbPolyline
 62
7
  6
CONTINUOUS
 90
34
 70
0
 10
-13.7899332814
 20
17.5001067284
 10
-13.7901333375
 20
17.5086596545
 10
-13.7907335749
 20
17.5174762215
 10
-13.7917325329
 20
17.5265365321
 10
-13.7931277685
 20
17.5358201934
 10
-13.7949161167
 20
17.5453061809
 10
-13.7970936981
 20
17.5549728865
 10
-13.7996555226
 20
17.5647984558
 10
-13.8025956968
 20
17.5747606968
 10
-13.8059076918
 20
17.5848369482
 10
-13.809583969
 20
17.595004412
 10
-13.8136161292
 20
17.6052401076
 10
-13.8179951265
 20
17.6155207822
 10
-13.8227110271
 20
17.6258231586
 10
-13.8277530971
 20
17.6361239355
 10
-13.8331099577
 20
17.6463997425
 10
-13.8387694819
 20
17.6566272971
 10
-13.8447188199
 20
17.6667834522
 10
-13.8509444917
 20
17.6768451963
 10
-13.8574324241
 20
17.686789716
 10
-13.864167913
 20
17.6965944897
 10
-13.8711356522
 20
17.7062373341
 10
-13.8783199093
 20
17.7156963694
 10
-13.8857044249
 20
17.7249501586
 10
-13.8932723793
 20
17.7339777986
 10
-13.9010067008
 20
17.742758789
 10
-13.9088899067
 20
17.7512732137
 10
-13.9169040062
 20
17.759501876
 10
-13.9250309366
 20
17.7674260722
 10
-13.9332523476
 20
17.7750278126
 10
-13.9415494444
 20
17.7822899975
 10
-13.9499034377
 20
17.7891961736
 10
-13.9582955868
 20
17.7957305708
 10
-13.9667069851
 20
17.8018783167
  0
LWPOLYLINE
  5
29F
100
AcDbEntity
  8
RACCORDO
100
AcDbPolyline
 62
250
  6
CONTINUOUS
 90
31
 70
0
 10
-13.2616661097
 20
17.8749285084
 10
-13.2618563578
 20
17.8843906214
 10
-13.2625336223
 20
17.8941675619
 10
-13.2636960492
 20
17.9042325233
 10
-13.2653404558
 20
17.9145579185
 10
-13.2674623354
 20
17.9251154271
 10
-13.2700558643
 20
17.9358760697
 10
-13.2731139278
 20
17.9468103326
 10
-13.2766281409
 20
17.9578882398
 10
-13.2805888626
 20
17.9690794046
 10
-13.2849852293
 20
17.9803531375
 10
-13.2898051844
 20
17.9916785275
 10
-13.2950355076
 20
18.0030245156
 10
-13.3006618613
 20
18.0143600044
 10
-13.3066688099
 20
18.0256538987
 10
-13.3130398547
 20
18.0368751879
 10
-13.3197574915
 20
18.0479930591
 10
-13.326803321
 20
18.0589770773
 10
-13.3341580835
 20
18.069797221
 10
-13.3418017159
 20
18.0804239568
 10
-13.349713169
 20
18.0908280043
 10
-13.3578705032
 20
18.1009805329
 10
-13.3662511694
 20
18.1108535399
 10
-13.3748323291
 20
18.1204201804
 10
-13.3835906888
 20
18.1296545067
 10
-13.3925041989
 20
18.1385331005
 10
-13.4015465193
 20
18.1470295567
 10
-13.4106870881
 20
18.1551156306
 10
-13.4198987609
 20
18.162768399
 10
-13.4291581247
 20
18.1699694903
 10
-13.4384398134
 20
18.1767000967
  0
LINE
  5
2A0
100
AcDbEntity
  8
RACCORDO
100
AcDbLine
 62
250
  6
CONTINUOUS
 10
-14.6799934642
 20
16.1829219473
 11
-14.6799934642
 21
15.5234930813
  0
LINE
  5
2A1
100
AcDbEntity
  8
RACCORDO
100
AcDbLine
 62
7
  6
CONTINUOUS
 10
-13.7899332814
 20
16.1919561916
 11
-13.7899332814
 21
17.5001067284
  0
LINE
  5
2A2
100
AcDbEntity
  8
RACCORDO
100
AcDbLine
 62
250
  6
CONTINUOUS
 10
-13.2616661097
 20
17.8749285084
 11
-13.2616661097
 21
17.5911702132
  0
LINE
  5
2A3
100
AcDbEntity
  8
RACCORDO
100
AcDbLine
 62
7
  6
CONTINUOUS
 10
-13.1894682527
 20
17.9991991766
 11
-13.1894682527
 21
17.7154408814
  0
LINE
  5
2A4
100
AcDbEntity
  8
RACCORDO
100
AcDbLine
 62
7
  6
CONTINUOUS
 10
-12.8110230371
 20
-5.6503116926
 11
-12.8156193196
 21
-6.0857989468
  0
LINE
  5
2A5
100
AcDbEntity
  8
RACCORDO
100
AcDbLine
 62
250
  6
CONTINUOUS
 10
-12.6600362619
 20
-5.5125385879
 11
-12.6665643005
 21
-6.0834307879
  0
LINE
  5
2A6
100
AcDbEntity
  8
RACCORDO
100
AcDbLine
 62
7
  6
CONTINUOUS
 10
-12.8061921911
 20
-5.2380541923
 11
-12.8110230371
 21
-5.6503116926
  0
LINE
  5
2A7
100
AcDbEntity
  8
RACCORDO
100
AcDbLine
 62
250
  6
CONTINUOUS
 10
-12.6564351662
 20
-5.2268540787
 11
-12.6600362619
 21
-5.5125385879
  0
LWPOLYLINE
  5
2A8
100
AcDbEntity
  8
RACCORDO
100
AcDbPolyline
 62
250
  6
CONTINUOUS
 90
16
 70
0
 10
-13.1894682527
 20
17.9991990215
 10
-13.1897695232
 20
17.9905232184
 10
-13.1907492418
 20
17.9813266609
 10
-13.1924059308
 20
17.9721787296
 10
-13.1947350823
 20
17.9631043339
 10
-13.1977303626
 20
17.9541281633
 10
-13.2013836215
 20
17.9452746535
 10
-13.2056849196
 20
17.9365679018
 10
-13.2106225521
 20
17.9280316091
 10
-13.2161830774
 20
17.9196890185
 10
-13.2223513665
 20
17.9115628322
 10
-13.2291106278
 20
17.9036751753
 10
-13.2364424416
 20
17.8960475405
 10
-13.2443268398
 20
17.8887006947
 10
-13.2527423655
 20
17.8816546253
 10
-13.2616661097
 20
17.8749285084
  0
LWPOLYLINE
  5
2A9
100
AcDbEntity
  8
RACCORDO
100
AcDbPolyline
 62
250
  6
CONTINUOUS
 90
16
 70
0
 10
-13.1894682527
 20
17.7154408814
 10
-13.1897725692
 20
17.7067212008
 10
-13.1907553685
 20
17.6975257868
 10
-13.1924149739
 20
17.6883791241
 10
-13.1947468934
 20
17.6793060209
 10
-13.1977447691
 20
17.670331251
 10
-13.2014003442
 20
17.6614794557
 10
-13.2057035456
 20
17.652774855
 10
-13.2106426723
 20
17.6442409736
 10
-13.2162043854
 20
17.6359008111
 10
-13.2223742055
 20
17.6277762514
 10
-13.2291348128
 20
17.6198902559
 10
-13.2364656952
 20
17.6122663651
 10
-13.2443456911
 20
17.6049257559
 10
-13.2527535861
 20
17.5978874185
 10
-13.2616661097
 20
17.5911702132
  0
LWPOLYLINE
  5
2AA
100
AcDbEntity
  8
RACCORDO
100
AcDbPolyline
 62
7
  6
CONTINUOUS
 90
5
 70
0
 10
-11.5606878379
 20
14.8011317208
 10
-11.5627243812
 20
14.7885154722
 10
-11.5642387401
 20
14.7753476815
 10
-11.5651951238
 20
14.7617106006
 10
-11.56552711
 20
14.7469874259
  0
LINE
  5
2AB
100
AcDbEntity
  8
ASSI
100
AcDbLine
 62
7
  6
CONTINUOUS
 10
-0.176070865
 20
15.0274944497
 11
-4.7743218213
 21
11.8027918584
  0
LWPOLYLINE
  5
2AC
100
AcDbEntity
  8
ASSI
100
AcDbPolyline
 62
7
  6
CONTINUOUS
 90
7
 70
0
 10
-0.1271948334
 20
15.0583730736
 10
-0.1352775846
 20
15.053740384
 10
-0.1433856373
 20
15.0489021953
 10
-0.1515189918
 20
15.0438585075
 10
-0.1596776479
 20
15.0386093207
 10
-0.1678616056
 20
15.0331546347
 10
-0.176070865
 20
15.0274944497
  0
LWPOLYLINE
  5
2AD
100
AcDbEntity
  8
ASSI
100
AcDbPolyline
 62
7
  6
CONTINUOUS
 90
22
 70
0
 10
-0.1271948334
 20
15.0583730736
 10
-0.1150369955
 20
15.064715489
 10
-0.1023070164
 20
15.070316711
 10
-0.0890124357
 20
15.0751540522
 10
-0.0751567224
 20
15.0792166158
 10
-0.0607564714
 20
15.0824690201
 10
-0.0458431295
 20
15.0848531724
 10
-0.0304366503
 20
15.086342428
 10
-0.0145515573
 20
15.0869207986
 10
0.0017841449
 20
15.0865486632
 10
0.01851157
 20
15.085210282
 10
0.035642396
 20
15.0828839356
 10
0.0532561626
 20
15.079513046
 10
0.0713434898
 20
15.0750698817
 10
0.0898641796
 20
15.0695249511
 10
0.1088539755
 20
15.0628040121
 10
0.1282822132
 20
15.0548729032
 10
0.1481130369
 20
15.0456990357
 10
0.1683712703
 20
15.0351987989
 10
0.1890323835
 20
15.0233172183
 10
0.2100289605
 20
15.0100323027
 10
0.2259292529
 20
14.9991516441
  0
LWPOLYLINE
  5
2AE
100
AcDbEntity
  8
ASSI
100
AcDbPolyline
 62
7
  6
CONTINUOUS
 90
6
 70
0
 10
-10.6050645776
 20
-10.2596527078
 10
-10.6041413572
 20
-10.2600171062
 10
-10.5987201298
 20
-10.2620446788
 10
-10.5923489336
 20
-10.2616524362
 10
-10.5848198773
 20
-10.2590471595
 10
-10.5761329609
 20
-10.2542288489
  0
LWPOLYLINE
  5
2AF
100
AcDbEntity
  8
ASSI
100
AcDbPolyline
 62
7
  6
CONTINUOUS
 90
6
 70
0
 10
-11.3121713588
 20
-9.7596527078
 10
-11.3112481384
 20
-9.7600171062
 10
-11.305826911
 20
-9.7620446788
 10
-11.2994557148
 20
-9.7616524362
 10
-11.2919266585
 20
-9.7590471595
 10
-11.2832397421
 20
-9.7542288489
  0
LWPOLYLINE
  5
2B0
100
AcDbEntity
  8
ASSI
100
AcDbPolyline
 62
7
  6
CONTINUOUS
 90
6
 70
0
 10
-12.01927814
 20
-9.2596527078
 10
-12.0183549196
 20
-9.2600171062
 10
-12.0129336922
 20
-9.2620446788
 10
-12.0065624959
 20
-9.2616524362
 10
-11.9990334397
 20
-9.2590471595
 10
-11.9903465233
 20
-9.2542288489
  0
LWPOLYLINE
  5
2B1
100
AcDbEntity
  8
ASSI
100
AcDbPolyline
 62
7
  6
CONTINUOUS
 90
6
 70
0
 10
-12.7263849212
 20
-8.7596527078
 10
-12.7254617008
 20
-8.7600171062
 10
-12.7200404734
 20
-8.7620446788
 10
-12.7136692771
 20
-8.7616524362
 10
-12.7061402208
 20
-8.7590471595
 10
-12.6974533045
 20
-8.7542288489
  0
LWPOLYLINE
  5
2B2
100
AcDbEntity
  8
RACCORDO
100
AcDbPolyline
 62
7
  6
CONTINUOUS
 90
29
 70
0
 10
-10.0959155886
 20
-9.1634286392
 10
-10.0953369794
 20
-9.1638233697
 10
-10.093083961
 20
-9.1651311801
 10
-10.0905481634
 20
-9.166279069
 10
-10.0877473334
 20
-9.1672610688
 10
-10.084682374
 20
-9.168083277
 10
-10.0813535147
 20
-9.1687525232
 10
-10.0777770899
 20
-9.1692631095
 10
-10.0739540524
 20
-9.1696208732
 10
-10.0698849565
 20
-9.1698322697
 10
-10.0655852454
 20
-9.1698919162
 10
-10.0610560391
 20
-9.169805456
 10
-10.056298139
 20
-9.1695790791
 10
-10.0513263185
 20
-9.1692077849
 10
-10.046141737
 20
-9.1686970491
 10
-10.0407455723
 20
-9.1680528547
 10
-10.0351525512
 20
-9.1672706875
 10
-10.0293640372
 20
-9.16635592
 10
-10.0233815174
 20
-9.1653144105
 10
-10.0172199785
 20
-9.1641422627
 10
-10.0108810265
 20
-9.1628447713
 10
-10.004366509
 20
-9.1614277368
 10
-9.9976920009
 20
-9.1598880505
 10
-9.9908594303
 20
-9.1582309559
 10
-9.9838710289
 20
-9.1564622337
 10
-9.9767432101
 20
-9.1545797258
 10
-9.9694831842
 20
-9.1525864377
 10
-9.9620887621
 20
-9.1504903813
 10
-9.9545625351
 20
-9.1482969507
  0
LWPOLYLINE
  5
2B3
100
AcDbEntity
  8
RACCORDO
100
AcDbPolyline
 62
7
  6
CONTINUOUS
 90
29
 70
0
 10
-12.0758145759
 20
-7.7634286392
 10
-12.0752359668
 20
-7.7638233697
 10
-12.0729829483
 20
-7.7651311801
 10
-12.0704471508
 20
-7.766279069
 10
-12.0676463208
 20
-7.7672610688
 10
-12.0645813614
 20
-7.768083277
 10
-12.061252502
 20
-7.7687525232
 10
-12.0576760772
 20
-7.7692631094
 10
-12.0538530398
 20
-7.7696208732
 10
-12.0497839439
 20
-7.7698322697
 10
-12.0454842328
 20
-7.7698919162
 10
-12.0409550265
 20
-7.7698054561
 10
-12.0361971264
 20
-7.7695790791
 10
-12.031225306
 20
-7.7692077849
 10
-12.0260407245
 20
-7.7686970491
 10
-12.0206445598
 20
-7.7680528547
 10
-12.0150515386
 20
-7.7672706875
 10
-12.0092630246
 20
-7.76635592
 10
-12.0032805049
 20
-7.7653144105
 10
-11.9971189659
 20
-7.7641422627
 10
-11.990780014
 20
-7.7628447713
 10
-11.9842654964
 20
-7.7614277368
 10
-11.9775909883
 20
-7.7598880506
 10
-11.9707584177
 20
-7.7582309559
 10
-11.9637700163
 20
-7.7564622337
 10
-11.9566421975
 20
-7.7545797258
 10
-11.9493821716
 20
-7.7525864377
 10
-11.9419877494
 20
-7.7504903813
 10
-11.9344615224
 20
-7.7482969507
  0
LINE
  5
2B4
100
AcDbEntity
  8
ASSI
100
AcDbLine
 62
7
  6
CONTINUOUS
 10
-10.856757265
 20
-10.4526601972
 11
-11.1749553165
 21
-10.2276601972
  0
LINE
  5
2B5
100
AcDbEntity
  8
ASSI
100
AcDbLine
 62
7
  6
CONTINUOUS
 10
-11.5638640461
 20
-9.9526601972
 11
-11.8820620977
 21
-9.7276601972
  0
LINE
  5
2B6
100
AcDbEntity
  8
ASSI
100
AcDbLine
 62
7
  6
CONTINUOUS
 10
-12.2709708273
 20
-9.4526601972
 11
-12.5891688789
 21
-9.2276601972
  0
LINE
  5
2B7
100
AcDbEntity
  8
ASSI
100
AcDbLine
 62
7
  6
CONTINUOUS
 10
-12.9780776085
 20
-8.9526601972
 11
-13.29627566
 21
-8.7276601972
  0
LINE
  5
2B8
100
AcDbEntity
  8
ASSI
100
AcDbLine
 62
250
  6
CONTINUOUS
 10
-10.5761329609
 20
-10.2542288489
 11
-10.6125977228
 21
-10.2284443685
  0
LINE
  5
2B9
100
AcDbEntity
  8
ASSI
100
AcDbLine
 62
250
  6
CONTINUOUS
 10
-11.2832397421
 20
-9.7542288489
 11
-11.319704504
 21
-9.7284443685
  0
LINE
  5
2BA
100
AcDbEntity
  8
ASSI
100
AcDbLine
 62
250
  6
CONTINUOUS
 10
-11.9903465233
 20
-9.2542288489
 11
-12.0268112852
 21
-9.2284443685
  0
LINE
  5
2BB
100
AcDbEntity
  8
ASSI
100
AcDbLine
 62
250
  6
CONTINUOUS
 10
-12.6974533045
 20
-8.7542288489
 11
-12.7339180663
 21
-8.7284443685
  0
LINE
  5
2BC
100
AcDbEntity
  8
0
100
AcDbLine
 62
7
  6
CONTINUOUS
 10
-16.9895914663
 20
-5.5736444366
 11
-17.5022438827
 21
-5.2111444366
  0
LINE
  5
2BD
100
AcDbEntity
  8
ASSI
100
AcDbLine
 62
250
  6
CONTINUOUS
 10
-10.6782872314
 20
-10.0273566483
 11
-10.9964852829
 21
-9.8023566483
  0
LINE
  5
2BE
100
AcDbEntity
  8
ASSI
100
AcDbLine
 62
250
  6
CONTINUOUS
 10
-11.3853940126
 20
-9.5273566483
 11
-11.7035920641
 21
-9.3023566483
  0
LINE
  5
2BF
100
AcDbEntity
  8
ASSI
100
AcDbLine
 62
250
  6
CONTINUOUS
 10
-12.0925007937
 20
-9.0273566483
 11
-12.4106988453
 21
-8.8023566483
  0
LINE
  5
2C0
100
AcDbEntity
  8
ASSI
100
AcDbLine
 62
250
  6
CONTINUOUS
 10
-12.7996075749
 20
-8.5273566483
 11
-13.1178056265
 21
-8.3023566483
  0
LINE
  5
2C1
100
AcDbEntity
  8
RACCORDO
100
AcDbLine
 62
7
  6
CONTINUOUS
 10
-12.0758163548
 20
-7.7634273813
 11
-10.0959173675
 21
-9.1634273813
  0
LINE
  5
2C2
100
AcDbEntity
  8
RACCORDO
100
AcDbLine
 62
250
  6
CONTINUOUS
 10
-19.3725061827
 20
-2.4888051327
 11
-17.3926071963
 21
-3.888805132
  0
LINE
  5
2C3
100
AcDbEntity
  8
RACCORDO
100
AcDbLine
 62
250
  6
CONTINUOUS
 10
-11.9344615222
 20
-7.7482969509
 11
-9.9545625361
 21
-9.14829695
  0
LINE
  5
2C4
100
AcDbEntity
  8
0
100
AcDbLine
 62
7
  6
CONTINUOUS
 10
-15.8051876078
 20
-4.0423367196
 11
-16.0932305292
 21
-3.8386596167
  0
LINE
  5
2C5
100
AcDbEntity
  8
RACCORDO
100
AcDbLine
 62
7
  6
CONTINUOUS
 10
-12.8088421122
 20
-6.0990557649
 11
-12.066379992
 21
-6.6240557649
  0
LWPOLYLINE
  5
2C6
100
AcDbEntity
  8
RACCORDO
100
AcDbPolyline
 62
7
  6
CONTINUOUS
 90
29
 70
0
 10
-17.1215164168
 20
-4.1955786517
 10
-19.1047826713
 20
-2.7931832262
 10
-19.1167376105
 20
-2.7844444935
 10
-19.1285641707
 20
-2.7754366618
 10
-19.1402520128
 20
-2.7661736233
 10
-19.1518016055
 20
-2.7566617825
 10
-19.1632136125
 20
-2.7469076622
 10
-19.1744775852
 20
-2.7369245028
 10
-19.185594295
 20
-2.72671827
 10
-19.1965644774
 20
-2.7162952908
 10
-19.2073773363
 20
-2.7056687365
 10
-19.2180337617
 20
-2.6948444132
 10
-19.228534785
 20
-2.683828348
 10
-19.2388696307
 20
-2.6726336065
 10
-19.2490396389
 20
-2.6612655361
 10
-19.2590458066
 20
-2.6497302481
 10
-19.2688767688
 20
-2.6380416776
 10
-19.2785341184
 20
-2.6262050353
 10
-19.2880191132
 20
-2.6142263413
 10
-19.2973199609
 20
-2.6021206351
 10
-19.3064385802
 20
-2.5898929902
 10
-19.3153765059
 20
-2.5775494283
 10
-19.3241215963
 20
-2.5651064393
 10
-19.3326761097
 20
-2.5525690333
 10
-19.3410419476
 20
-2.5399432244
 10
-19.349206816
 20
-2.5272471537
 10
-19.3571683563
 20
-2.5144905928
 10
-19.3649339484
 20
-2.5016747876
 10
-19.3725061837
 20
-2.488805132
  0
LWPOLYLINE
  5
2C7
100
AcDbEntity
  8
RACCORDO
100
AcDbPolyline
 62
7
  6
CONTINUOUS
 90
29
 70
0
 10
-17.1215170608
 20
-4.1955781963
 10
-17.124883684
 20
-4.1931832262
 10
-17.1368386231
 20
-4.1844444935
 10
-17.1486651834
 20
-4.1754366618
 10
-17.1603530255
 20
-4.1661736233
 10
-17.1719026182
 20
-4.1566617825
 10
-17.1833146252
 20
-4.1469076622
 10
-17.1945785979
 20
-4.1369245028
 10
-17.2056953077
 20
-4.12671827
 10
-17.21666549
 20
-4.1162952908
 10
-17.227478349
 20
-4.1056687365
 10
-17.2381347744
 20
-4.0948444132
 10
-17.2486357977
 20
-4.083828348
 10
-17.2589706434
 20
-4.0726336065
 10
-17.2691406515
 20
-4.0612655361
 10
-17.2791468192
 20
-4.0497302481
 10
-17.2889777815
 20
-4.0380416776
 10
-17.2986351311
 20
-4.0262050353
 10
-17.3081201259
 20
-4.0142263413
 10
-17.3174209736
 20
-4.0021206351
 10
-17.3265395929
 20
-3.9898929902
 10
-17.3354775186
 20
-3.9775494283
 10
-17.344222609
 20
-3.9651064393
 10
-17.3527771224
 20
-3.9525690333
 10
-17.3611429602
 20
-3.9399432244
 10
-17.3693078287
 20
-3.9272471537
 10
-17.377269369
 20
-3.9144905928
 10
-17.3850349611
 20
-3.9016747876
 10
-17.3926071964
 20
-3.888805132
  0
LWPOLYLINE
  5
2C8
100
AcDbEntity
  8
RACCORDO
100
AcDbPolyline
 62
7
  6
CONTINUOUS
 90
29
 70
0
 10
-16.3676106571
 20
-3.5826263941
 10
-17.1150026994
 20
-3.0541094284
 10
-17.1269345804
 20
-3.0453391417
 10
-17.1387378622
 20
-3.0363002558
 10
-17.1504022096
 20
-3.0270066541
 10
-17.1619281096
 20
-3.0174647519
 10
-17.1733162464
 20
-3.0076810848
 10
-17.1845561764
 20
-2.9976688878
 10
-17.195648688
 20
-2.9874341357
 10
-17.2065945357
 20
-2.976983167
 10
-17.2173829306
 20
-2.9663291506
 10
-17.2280147786
 20
-2.9554779006
 10
-17.2384911285
 20
-2.9444354537
 10
-17.2488012133
 20
-2.933214875
 10
-17.2589463876
 20
-2.9218215183
 10
-17.2689276652
 20
-2.9102615031
 10
-17.2787336929
 20
-2.8985487673
 10
-17.2883660767
 20
-2.8866885264
 10
-17.2978260907
 20
-2.8746868074
 10
-17.3071019576
 20
-2.8625586546
 10
-17.316195608
 20
-2.8503091448
 10
-17.3251085925
 20
-2.837944305
 10
-17.3338287906
 20
-2.8254806325
 10
-17.3423584815
 20
-2.8129231412
 10
-17.3506995726
 20
-2.8002778471
 10
-17.358839767
 20
-2.7875628923
 10
-17.3667767111
 20
-2.7747880477
 10
-17.3745178004
 20
-2.7619545582
 10
-17.3820656362
 20
-2.7490678168
  0
LWPOLYLINE
  5
2C9
100
AcDbEntity
  8
RACCORDO
100
AcDbPolyline
 62
7
  6
CONTINUOUS
 90
29
 70
0
 10
-16.3676114539
 20
-3.5826258308
 10
-16.3725405794
 20
-3.5791094282
 10
-16.3844724605
 20
-3.5703391415
 10
-16.3962757423
 20
-3.5613002555
 10
-16.4079400897
 20
-3.5520066537
 10
-16.4194659898
 20
-3.5424647515
 10
-16.4308541266
 20
-3.5326810843
 10
-16.4420940567
 20
-3.5226688872
 10
-16.4531865684
 20
-3.5124341351
 10
-16.4641324161
 20
-3.5019831664
 10
-16.474920811
 20
-3.4913291499
 10
-16.485552659
 20
-3.4804778999
 10
-16.496029009
 20
-3.4694354529
 10
-16.5063390938
 20
-3.4582148742
 10
-16.516484268
 20
-3.4468215175
 10
-16.5264655457
 20
-3.4352615023
 10
-16.5362715733
 20
-3.4235487664
 10
-16.5459039571
 20
-3.4116885255
 10
-16.5553639711
 20
-3.3996868066
 10
-16.564639838
 20
-3.3875586538
 10
-16.5737334883
 20
-3.375309144
 10
-16.5826464728
 20
-3.3629443043
 10
-16.5913666709
 20
-3.3504806318
 10
-16.5998963617
 20
-3.3379231406
 10
-16.6082374527
 20
-3.3252778465
 10
-16.616377647
 20
-3.3125628919
 10
-16.6243145911
 20
-3.2997880474
 10
-16.6320556802
 20
-3.286954558
 10
-16.6396035159
 20
-3.2740678168
  0
LWPOLYLINE
  5
2CA
100
AcDbEntity
  8
ASSI
100
AcDbPolyline
 62
7
  6
CONTINUOUS
 90
13
 70
0
 10
-11.5638640461
 20
-9.9526601972
 10
-11.5659571118
 20
-9.9224003108
 10
-11.5647086056
 20
-9.8904734963
 10
-11.5601185276
 20
-9.8568797537
 10
-11.552050272
 20
-9.8211720244
 10
-11.5406404446
 20
-9.7837973669
 10
-11.5262988623
 20
-9.7460969576
 10
-11.5089439139
 20
-9.708087463
 10
-11.4886572106
 20
-9.6697522166
 10
-11.4660934037
 20
-9.6323823943
 10
-11.4414707103
 20
-9.5964083881
 10
-11.4145709132
 20
-9.5613998061
 10
-11.3853940126
 20
-9.5273566483
  0
LWPOLYLINE
  5
2CB
100
AcDbEntity
  8
ASSI
100
AcDbPolyline
 62
7
  6
CONTINUOUS
 90
13
 70
0
 10
-11.1749553165
 20
-10.2276601972
 10
-11.1770483822
 20
-10.1974003108
 10
-11.175799876
 20
-10.1654734963
 10
-11.171209798
 20
-10.1318797537
 10
-11.1631415424
 20
-10.0961720244
 10
-11.1517317149
 20
-10.0587973669
 10
-11.1373901327
 20
-10.0210969576
 10
-11.1200351842
 20
-9.983087463
 10
-11.0997484809
 20
-9.9447522166
 10
-11.077184674
 20
-9.9073823943
 10
-11.0525619806
 20
-9.8714083881
 10
-11.0256621836
 20
-9.8363998061
 10
-10.9964852829
 20
-9.8023566483
  0
LWPOLYLINE
  5
2CC
100
AcDbEntity
  8
ASSI
100
AcDbPolyline
 62
7
  6
CONTINUOUS
 90
13
 70
0
 10
-10.856757265
 20
-10.4526601972
 10
-10.8588503306
 20
-10.4224003108
 10
-10.8576018245
 20
-10.3904734963
 10
-10.8530117464
 20
-10.3568797537
 10
-10.8449434909
 20
-10.3211720244
 10
-10.8335336634
 20
-10.2837973669
 10
-10.8191920812
 20
-10.2460969576
 10
-10.8018371327
 20
-10.208087463
 10
-10.7815504294
 20
-10.1697522166
 10
-10.7589866225
 20
-10.1323823943
 10
-10.7343639291
 20
-10.0964083881
 10
-10.707464132
 20
-10.0613998061
 10
-10.6782872314
 20
-10.0273566483
  0
LWPOLYLINE
  5
2CD
100
AcDbEntity
  8
RACCORDO
100
AcDbPolyline
 62
7
  6
CONTINUOUS
 90
27
 70
0
 10
-11.56552711
 20
14.7469874259
 10
-11.5652508737
 20
14.733350165
 10
-11.5644596896
 20
14.7187334347
 10
-11.5631479192
 20
14.7038922888
 10
-11.5612951614
 20
14.6888787476
 10
-11.5589723317
 20
14.6737115524
 10
-11.5561777954
 20
14.6584282242
 10
-11.5529000974
 20
14.6430679204
 10
-11.5491923477
 20
14.6276408059
 10
-11.5450543325
 20
14.6121744059
 10
-11.5404801288
 20
14.5966990792
 10
-11.5355106366
 20
14.5812230969
 10
-11.5301461686
 20
14.565767837
 10
-11.524384124
 20
14.5503574343
 10
-11.5182575698
 20
14.5350010953
 10
-11.5117670247
 20
14.5197161058
 10
-11.504911979
 20
14.5045223783
 10
-11.4977209675
 20
14.4894315816
 10
-11.4901946692
 20
14.4744581474
 10
-11.4823340298
 20
14.459619071
 10
-11.4741655904
 20
14.4449293483
 10
-11.4656900621
 20
14.4304008897
 10
-11.4569097909
 20
14.416048971
 10
-11.4478521061
 20
14.4018935261
 10
-11.4385272643
 20
14.3879493187
 10
-11.428929667
 20
14.3742253111
 10
-11.4190626677
 20
14.3607321859
  0
LWPOLYLINE
  5
2CE
100
AcDbEntity
  8
RACCORDO
100
AcDbPolyline
 62
7
  6
CONTINUOUS
 90
35
 70
0
 10
-10.0946129698
 20
-15.0304209796
 10
-10.094503197
 20
-15.0380215924
 10
-10.0940334048
 20
-15.0536047951
 10
-10.0932374862
 20
-15.0692104523
 10
-10.092137728
 20
-15.0848293397
 10
-10.0907349799
 20
-15.1004543112
 10
-10.0890287512
 20
-15.1160782507
 10
-10.0870387606
 20
-15.1316924956
 10
-10.0847658949
 20
-15.1472908353
 10
-10.0822100563
 20
-15.1628668307
 10
-10.0793889948
 20
-15.1784118402
 10
-10.0763036297
 20
-15.1939204424
 10
-10.0729542081
 20
-15.2093867602
 10
-10.069357069
 20
-15.224801726
 10
-10.0655131799
 20
-15.2401606063
 10
-10.0614231116
 20
-15.2554579996
 10
-10.0571023135
 20
-15.2706840313
 10
-10.0525519197
 20
-15.2858343295
 10
-10.0477727466
 20
-15.3009041762
 10
-10.0427795748
 20
-15.3158833434
 10
-10.0375735765
 20
-15.3307682634
 10
-10.032155944
 20
-15.3455543764
 10
-10.0265414136
 20
-15.360230136
 10
-10.020731361
 20
-15.3747924345
 10
-10.014727287
 20
-15.3892372063
 10
-10.0085441895
 20
-15.403551684
 10
-10.002183687
 20
-15.4177332994
 10
-9.9956476389
 20
-15.4317784363
 10
-9.9889516317
 20
-15.4456730472
 10
-9.9820975938
 20
-15.4594150923
 10
-9.9750877801
 20
-15.4730014982
 10
-9.9679386476
 20
-15.4864170644
 10
-9.9606574264
 20
-15.4996554676
 10
-9.9532419255
 20
-15.5127191414
 10
-9.9456947449
 20
-15.5256063699
  0
LWPOLYLINE
  5
2CF
100
AcDbEntity
  8
RACCORDO
100
AcDbPolyline
 62
250
  6
CONTINUOUS
 90
4
 70
0
 10
-9.9644111667
 20
-12.3472487642
 10
-9.9613462266
 20
-13.4090023723
 10
-9.9551074005
 20
-14.4684581057
 10
-9.9456947455
 20
-15.5256063695
  0
LINE
  5
2D0
100
AcDbEntity
  8
RACCORDO
100
AcDbLine
 62
7
  6
CONTINUOUS
 10
-11.5655092771
 20
14.7469893588
 11
-11.5655092771
 21
13.7338666104
  0
LINE
  5
2D1
100
AcDbEntity
  8
RACCORDO
100
AcDbLine
 62
250
  6
CONTINUOUS
 10
-11.4190626677
 20
14.3607321859
 11
-11.4190626677
 21
13.4784396072
  0
LINE
  5
2D2
100
AcDbEntity
  8
RACCORDO
100
AcDbLine
 62
250
  6
CONTINUOUS
 10
-9.9643021928
 20
-11.2832068969
 11
-9.9644111667
 21
-12.3472487642
  0
LINE
  5
2D3
100
AcDbEntity
  8
RACCORDO
100
AcDbLine
 62
250
  6
CONTINUOUS
 10
-9.9610193059
 20
-10.2168864067
 11
-9.9643021928
 21
-11.2832068969
  0
LINE
  5
2D4
100
AcDbEntity
  8
RACCORDO
100
AcDbLine
 62
250
  6
CONTINUOUS
 10
-9.9545625361
 20
-9.14829695
 11
-9.9610193059
 21
-10.2168864067
  0
LWPOLYLINE
  5
2D5
100
AcDbEntity
  8
RACCORDO
100
AcDbPolyline
 62
7
  6
CONTINUOUS
 90
10
 70
0
 10
-10.1028704838
 20
-9.1585107856
 10
-10.1056140835
 20
-9.6011478264
 10
-10.1088884748
 20
-10.3155112276
 10
-10.110742034
 20
-11.02886141
 10
-10.1111747458
 20
-11.7411955106
 10
-10.1101865949
 20
-12.4525106614
 10
-10.1077775659
 20
-13.1628039903
 10
-10.1039476434
 20
-13.8720726295
 10
-10.0986968234
 20
-14.5803137093
 10
-10.0946161274
 20
-15.0304213052
  0
LINE
  5
2D6
100
AcDbEntity
  8
RACCORDO
100
AcDbLine
 62
7
  6
CONTINUOUS
 10
-12.079830705
 20
-7.3580208969
 11
-12.0827166068
 21
-7.7499819454
  0
LINE
  5
2D7
100
AcDbEntity
  8
RACCORDO
100
AcDbLine
 62
250
  6
CONTINUOUS
 10
-11.9314079181
 20
-7.3686253818
 11
-11.9344615222
 21
-7.7482969509
  0
LINE
  5
2D8
100
AcDbEntity
  8
RACCORDO
100
AcDbLine
 62
7
  6
CONTINUOUS
 10
-12.0754790269
 20
-6.851989352
 11
-12.079830705
 21
-7.3580208969
  0
LINE
  5
2D9
100
AcDbEntity
  8
RACCORDO
100
AcDbLine
 62
250
  6
CONTINUOUS
 10
-11.9279548039
 20
-6.988669849
 11
-11.9314079181
 21
-7.3686253818
  0
LINE
  5
2DA
100
AcDbEntity
  8
RACCORDO
100
AcDbLine
 62
7
  6
CONTINUOUS
 10
-12.0732400674
 20
-6.619204959
 11
-12.0754790269
 21
-6.851989352
  0
LINE
  5
2DB
100
AcDbEntity
  8
RACCORDO
100
AcDbLine
 62
250
  6
CONTINUOUS
 10
-11.9241021834
 20
-6.6084307857
 11
-11.9279548039
 21
-6.988669849
  0
LINE
  5
2DC
100
AcDbEntity
  8
RACCORDO
100
AcDbLine
 62
7
  6
CONTINUOUS
 10
-4.8450324994
 20
9.8669561916
 11
-5.2027116487
 21
9.5983279334
  0
LINE
  5
2DD
100
AcDbEntity
  8
ASSI
100
AcDbLine
 62
7
  6
CONTINUOUS
 10
-4.8450324994
 20
10.8569056853
 11
0.4294595697
 21
14.5993197731
  0
LINE
  5
2DE
100
AcDbEntity
  8
DRAFT
100
AcDbLine
 62
7
  6
CONTINUOUS
 10
-4.8450324994
 20
9.8669561916
 11
0.4798015708
 21
13.6295086842
  0
LINE
  5
2DF
100
AcDbEntity
  8
RACCORDO
100
AcDbLine
 62
7
  6
CONTINUOUS
 10
-5.2027116487
 20
10.6048452915
 11
-4.8450324994
 21
10.8569056853
  0
LINE
  5
2E0
100
AcDbEntity
  8
RACCORDO
100
AcDbLine
 62
7
  6
CONTINUOUS
 10
1.2422564112
 20
15.5095573355
 11
0.36778669
 21
14.8988452473
  0
LWPOLYLINE
  5
2E1
100
AcDbEntity
  8
RACCORDO
100
AcDbPolyline
 62
7
  6
CONTINUOUS
 90
25
 70
0
 10
1.2422564112
 20
15.5095573355
 10
1.270630932
 20
15.5288003246
 10
1.298865384
 20
15.546819521
 10
1.3269597672
 20
15.5636149248
 10
1.3549640802
 20
15.5792119892
 10
1.3828283245
 20
15.5935852609
 10
1.4104025042
 20
15.6066583802
 10
1.4376716328
 20
15.6184196992
 10
1.4646506968
 20
15.6288808658
 10
1.4912346594
 20
15.6380004644
 10
1.5174396183
 20
15.6457772221
 10
1.5432494758
 20
15.6522124117
 10
1.568510902
 20
15.6572684364
 10
1.5932006554
 20
15.6609355614
 10
1.6173419775
 20
15.6632235215
 10
1.6408512638
 20
15.6641239239
 10
1.663747044
 20
15.6636299619
 10
1.6860107883
 20
15.6617484422
 10
1.7075033029
 20
15.6584913924
 10
1.7282000754
 20
15.6538562199
 10
1.7481256181
 20
15.6478455172
 10
1.767214274
 20
15.6404790905
 10
1.7854805686
 20
15.6317425708
 10
1.8029099765
 20
15.621650327
 10
1.8134264851
 20
15.6146175818
  0
LWPOLYLINE
  5
2E2
100
AcDbEntity
  8
RACCORDO
100
AcDbPolyline
 62
7
  6
CONTINUOUS
 90
29
 70
0
 10
-12.7994038231
 20
-5.2428542934
 10
-12.7983492665
 20
-5.2435524459
 10
-12.7960565161
 20
-5.2448046003
 10
-12.7934806006
 20
-5.2458977104
 10
-12.7906392735
 20
-5.2468257932
 10
-12.7875334701
 20
-5.2475949653
 10
-12.7841634551
 20
-5.2482120788
 10
-12.7805455723
 20
-5.2486714261
 10
-12.7766808038
 20
-5.2489788608
 10
-12.7725697369
 20
-5.2491408578
 10
-12.7682278272
 20
-5.2491520307
 10
-12.7636562228
 20
-5.2490180369
 10
-12.7588557553
 20
-5.2487450827
 10
-12.7538412125
 20
-5.2483281674
 10
-12.7486137792
 20
-5.2477727773
 10
-12.7431746625
 20
-5.2470849104
 10
-12.7375386084
 20
-5.2462600573
 10
-12.7317070043
 20
-5.2453035993
 10
-12.725681365
 20
-5.2442214065
 10
-12.7194767006
 20
-5.2430095928
 10
-12.7130946405
 20
-5.2416734571
 10
-12.7065370573
 20
-5.2402188106
 10
-12.6998195522
 20
-5.2386425624
 10
-12.6929440635
 20
-5.2369499749
 10
-12.6859128589
 20
-5.2351468194
 10
-12.6787424146
 20
-5.2332309096
 10
-12.6714399739
 20
-5.2312052404
 10
-12.6640033533
 20
-5.2290778334
 10
-12.6564351625
 20
-5.2268540813
  0
LWPOLYLINE
  5
2E3
100
AcDbEntity
  8
RACCORDO
100
AcDbPolyline
 62
7
  6
CONTINUOUS
 90
29
 70
0
 10
-12.0663777965
 20
-6.6240573173
 10
-12.0655276044
 20
-6.6246275095
 10
-12.0632519002
 20
-6.6259035026
 10
-12.0606931956
 20
-6.6270200747
 10
-12.0578692412
 20
-6.6279712494
 10
-12.0547809583
 20
-6.6287631351
 10
-12.0514285966
 20
-6.6294025743
 10
-12.0478284958
 20
-6.6298838637
 10
-12.0439816257
 20
-6.6302128498
 10
-12.0398885592
 20
-6.6303959992
 10
-12.0355647466
 20
-6.6304279271
 10
-12.031011324
 20
-6.6303142849
 10
-12.0262291102
 20
-6.6300612719
 10
-12.0212328865
 20
-6.6296638877
 10
-12.0160238271
 20
-6.6291276137
 10
-12.0106031264
 20
-6.6284584418
 10
-12.0049855221
 20
-6.6276518608
 10
-11.9991723914
 20
-6.6267132479
 10
-11.9931652373
 20
-6.6256484684
 10
-11.9869790593
 20
-6.6244536324
 10
-11.9806154774
 20
-6.6231340363
 10
-11.9740763531
 20
-6.6216954875
 10
-11.9673772746
 20
-6.6201348901
 10
-11.960520171
 20
-6.6184575055
 10
-11.9535072997
 20
-6.6166691023
 10
-11.9463551225
 20
-6.6147674872
 10
-11.9390708719
 20
-6.6127556527
 10
-11.9316523571
 20
-6.6106416221
 10
-11.9241021795
 20
-6.6084307885
  0
LWPOLYLINE
  5
2E4
100
AcDbEntity
  8
RACCORDO
100
AcDbPolyline
 62
7
  6
CONTINUOUS
 90
29
 70
0
 10
-12.8088399168
 20
-6.0990573173
 10
-12.8079897247
 20
-6.0996275095
 10
-12.8057140205
 20
-6.1009035026
 10
-12.803155316
 20
-6.1020200746
 10
-12.8003313616
 20
-6.1029712493
 10
-12.7972430786
 20
-6.103763135
 10
-12.793890717
 20
-6.1044025743
 10
-12.7902906163
 20
-6.1048838636
 10
-12.7864437462
 20
-6.1052128498
 10
-12.7823506797
 20
-6.1053959992
 10
-12.7780268671
 20
-6.1054279271
 10
-12.7734734446
 20
-6.1053142849
 10
-12.7686912307
 20
-6.105061272
 10
-12.7636950072
 20
-6.1046638877
 10
-12.7584859477
 20
-6.1041276138
 10
-12.7530652471
 20
-6.1034584419
 10
-12.7474476427
 20
-6.1026518608
 10
-12.7416345121
 20
-6.1017132479
 10
-12.7356273579
 20
-6.1006484685
 10
-12.7294411799
 20
-6.0994536325
 10
-12.7230775981
 20
-6.0981340364
 10
-12.7165384738
 20
-6.0966954876
 10
-12.7098393952
 20
-6.0951348901
 10
-12.7029822916
 20
-6.0934575056
 10
-12.6959694203
 20
-6.0916691023
 10
-12.688817243
 20
-6.0897674873
 10
-12.6815329923
 20
-6.0877556527
 10
-12.6741144775
 20
-6.0856416221
 10
-12.6665642998
 20
-6.0834307885
  0
LINE
  5
2E5
100
AcDbEntity
  8
RACCORDO
100
AcDbLine
 62
250
  6
CONTINUOUS
 10
-17.3820656354
 20
-2.7490678173
 11
-16.6396035157
 21
-3.274067817
  0
LINE
  5
2E6
100
AcDbEntity
  8
RACCORDO
100
AcDbLine
 62
250
  6
CONTINUOUS
 10
-12.6665643005
 20
-6.0834307879
 11
-11.9241021834
 21
-6.6084307857
  0
LINE
  5
2E7
100
AcDbEntity
  8
RACCORDO
100
AcDbLine
 62
7
  6
CONTINUOUS
 10
-16.3566305809
 20
-2.7275151307
 11
-12.7994061826
 21
-5.242852625
  0
LINE
  5
2E8
100
AcDbEntity
  8
RACCORDO
100
AcDbLine
 62
250
  6
CONTINUOUS
 10
-16.6292962092
 20
-2.4176170944
 11
-12.6564351662
 21
-5.2268540787
  0
LWPOLYLINE
  5
2E9
100
AcDbEntity
  8
RACCORDO
100
AcDbPolyline
 62
7
  6
CONTINUOUS
 90
29
 70
0
 10
-16.3566314387
 20
-2.7275145241
 10
-16.3627291261
 20
-2.7231552765
 10
-16.3746436808
 20
-2.7143613491
 10
-16.3864294724
 20
-2.7052991987
 10
-16.3980761687
 20
-2.695982702
 10
-16.4095842705
 20
-2.6864182826
 10
-16.4209544771
 20
-2.6766124855
 10
-16.4321763489
 20
-2.6665785417
 10
-16.443250687
 20
-2.6563224328
 10
-16.4541782599
 20
-2.6458505057
 10
-16.4649482841
 20
-2.6351759277
 10
-16.4755616777
 20
-2.6243045188
 10
-16.4860195024
 20
-2.6132423228
 10
-16.4963109975
 20
-2.6020024044
 10
-16.5064375283
 20
-2.5905901221
 10
-16.5164001214
 20
-2.5790116018
 10
-16.526187432
 20
-2.5672807829
 10
-16.5358010764
 20
-2.555402885
 10
-16.5452423405
 20
-2.5433839399
 10
-16.5544994579
 20
-2.5312389954
 10
-16.5635743684
 20
-2.518973131
 10
-16.5724686342
 20
-2.5065923773
 10
-16.5811701479
 20
-2.4941132364
 10
-16.5896811972
 20
-2.4815407235
 10
-16.5980037004
 20
-2.468880857
 10
-16.6061253771
 20
-2.4561517847
 10
-16.6140438852
 20
-2.4433632794
 10
-16.6217666265
 20
-2.4305165846
 10
-16.6292962109
 20
-2.4176170933
  0
LWPOLYLINE
  5
2EA
100
AcDbEntity
  8
RACCORDO
100
AcDbPolyline
 62
250
  6
CONTINUOUS
 90
139
 70
0
 10
-6.2617083
 20
-28.081970741
 10
-6.2613503003
 20
-28.0892888255
 10
-6.2609100866
 20
-28.0965448498
 10
-6.260387659
 20
-28.1037388139
 10
-6.2597829388
 20
-28.1108715291
 10
-6.2590960047
 20
-28.1179421841
 10
-6.2583270922
 20
-28.1249483449
 10
-6.2574761732
 20
-28.131889989
 10
-6.2565432758
 20
-28.1387671389
 10
-6.2555287209
 20
-28.1455774274
 10
-6.2544324804
 20
-28.1523208314
 10
-6.2532545825
 20
-28.1589973739
 10
-6.2519954324
 20
-28.1656047572
 10
-6.2506550021
 20
-28.1721429572
 10
-6.2492333198
 20
-28.1786119979
 10
-6.247730875
 20
-28.1850096533
 10
-6.2461476408
 20
-28.1913358958
 10
-6.2444836442
 20
-28.1975907529
 10
-6.2427394556
 20
-28.2037720811
 10
-6.2409150478
 20
-28.2098798554
 10
-6.239010448
 20
-28.2159141008
 10
-6.2370263084
 20
-28.2218727488
 10
-6.2349626008
 20
-28.2277557762
 10
-6.2328193535
 20
-28.2335632061
 10
-6.2305973028
 20
-28.2392930402
 10
-6.2282964215
 20
-28.2449452517
 10
-6.2259167369
 20
-28.2505198673
 10
-6.2234590671
 20
-28.2560149685
 10
-6.2209233852
 20
-28.261430528
 10
-6.2183097181
 20
-28.2667665732
 10
-6.2156189647
 20
-28.2720212677
 10
-6.2128510985
 20
-28.2771945835
 10
-6.2100061461
 20
-28.2822865488
 10
-6.207085086
 20
-28.2872954115
 10
-6.2040878928
 20
-28.2922211423
 10
-6.201014592
 20
-28.2970637706
 10
-6.1978662393
 20
-28.3018216328
 10
-6.1946428096
 20
-28.3064946992
 10
-6.191344328
 20
-28.3110829995
 10
-6.1879719258
 20
-28.3155849594
 10
-6.1845255773
 20
-28.3200005499
 10
-6.1810053082
 20
-28.3243297999
 10
-6.1774123259
 20
-28.3285712229
 10
-6.1737466049
 20
-28.3327247893
 10
-6.1700081709
 20
-28.3367905285
 10
-6.1661983078
 20
-28.3407670421
 10
-6.1623169906
 20
-28.3446542999
 10
-6.1583642445
 20
-28.3484523319
 10
-6.1543414287
 20
-28.3521598307
 10
-6.150248519
 20
-28.3557767648
 10
-6.1460855397
 20
-28.3593031656
 10
-6.1418539226
 20
-28.3627378191
 10
-6.1375536441
 20
-28.3660806936
 10
-6.1331847279
 20
-28.3693318207
 10
-6.1287486763
 20
-28.372490082
 10
-6.1242454662
 20
-28.3755554454
 10
-6.1196751206
 20
-28.3785279429
 10
-6.1150392108
 20
-28.3814065523
 10
-6.1103377159
 20
-28.3841912405
 10
-6.1055706568
 20
-28.3868820405
 10
-6.100739667
 20
-28.3894780294
 10
-6.0958447239
 20
-28.3919791754
 10
-6.0908858501
 20
-28.3943855103
 10
-6.0858647473
 20
-28.3966962067
 10
-6.080781393
 20
-28.3989112324
 10
-6.0756358096
 20
-28.4010306197
 10
-6.0704297669
 20
-28.4030536381
 10
-6.0651632438
 20
-28.4049802544
 10
-6.0598362613
 20
-28.4068105018
 10
-6.0544506517
 20
-28.4085437496
 10
-6.0490063947
 20
-28.4101799644
 10
-6.0435035105
 20
-28.4117191796
 10
-6.0379438926
 20
-28.4131608649
 10
-6.0323275211
 20
-28.4145049867
 10
-6.0266544157
 20
-28.4157515785
 10
-6.0209265287
 20
-28.4169002112
 10
-6.015143843
 20
-28.4179508506
 10
-6.0093063757
 20
-28.4189035309
 10
-6.0034161298
 20
-28.4197579247
 10
-5.9974730876
 20
-28.4205139984
 10
-5.9914772669
 20
-28.4211717855
 10
-5.9854307235
 20
-28.4217310597
 10
-5.9793334378
 20
-28.4221917872
 10
-5.9731854295
 20
-28.4225540016
 10
-5.966988813
 20
-28.4228175773
 10
-5.9607435714
 20
-28.4229824801
 10
-5.9544497216
 20
-28.4230487441
 10
-5.9481094288
 20
-28.4230163455
 10
-5.9417226771
 20
-28.4228852505
 10
-5.9352894823
 20
-28.422655493
 10
-5.9288120573
 20
-28.4223271514
 10
-5.922290387
 20
-28.4219001917
 10
-5.9157244863
 20
-28.4213746481
 10
-5.9091166136
 20
-28.4207507007
 10
-5.9024667551
 20
-28.4200283158
 10
-5.8957749246
 20
-28.4192075272
 10
-5.8890434216
 20
-28.4182886168
 10
-5.8822722334
 20
-28.4172715508
 10
-5.8754613726
 20
-28.4161563629
 10
-5.8686131777
 20
-28.4149434353
 10
-5.8617276352
 20
-28.4136327346
 10
-5.8548047584
 20
-28.4122242943
 10
-5.8478469259
 20
-28.4107185975
 10
-5.8408541252
 20
-28.4091156108
 10
-5.8338263687
 20
-28.4074153677
 10
-5.8267660725
 20
-28.4056184519
 10
-5.819673225
 20
-28.4037248301
 10
-5.8125478379
 20
-28.4017345357
 10
-5.805392362
 20
-28.3996482526
 10
-5.7982067869
 20
-28.3974659479
 10
-5.7909911231
 20
-28.3951876545
 10
-5.7837478524
 20
-28.3928141558
 10
-5.7764769655
 20
-28.3903454189
 10
-5.7691784716
 20
-28.3877814766
 10
-5.7618548805
 20
-28.3851232103
 10
-5.7545061837
 20
-28.3823705876
 10
-5.7471323897
 20
-28.379523641
 10
-5.7397360333
 20
-28.3765833488
 10
-5.7323171074
 20
-28.3735496792
 10
-5.7248756191
 20
-28.3704226641
 10
-5.7174141246
 20
-28.3672033774
 10
-5.7099326166
 20
-28.3638917872
 10
-5.7024311022
 20
-28.3604879253
 10
-5.6949121597
 20
-28.3569929611
 10
-5.6873757823
 20
-28.3534068627
 10
-5.6798219767
 20
-28.349729662
 10
-5.672253341
 20
-28.3459626235
 10
-5.6646698699
 20
-28.3421057167
 10
-5.6570715687
 20
-28.338158972
 10
-5.6494610502
 20
-28.3341237461
 10
-5.6418383105
 20
-28.330000008
 10
-5.6342033535
 20
-28.3257877885
 10
-5.6265588046
 20
-28.3214885371
 10
-5.6189046013
 20
-28.3171021875
 10
-5.6112408062
 20
-28.3126288059
 10
-5.6035702313
 20
-28.3080700408
 10
-5.5958938141
 20
-28.3034264416
 10
-5.5882106172
 20
-28.298697459
 10
-5.4023472692
 20
-28.1815375234
  0
LWPOLYLINE
  5
2EB
100
AcDbEntity
  8
RACCORDO
100
AcDbPolyline
 62
250
  6
CONTINUOUS
 90
55
 70
0
 10
-6.9622917738
 20
-28.0919740794
 10
-6.9617579928
 20
-28.1029469534
 10
-6.9611014254
 20
-28.1138287143
 10
-6.9603221456
 20
-28.1246181154
 10
-6.9594202397
 20
-28.1353139234
 10
-6.958395811
 20
-28.1459149106
 10
-6.9572489796
 20
-28.1564198549
 10
-6.9559798747
 20
-28.1668275539
 10
-6.9545886402
 20
-28.1771368156
 10
-6.9530754399
 20
-28.1873464511
 10
-6.9514404445
 20
-28.1974552921
 10
-6.9496838397
 20
-28.2074621814
 10
-6.9478058321
 20
-28.2173659644
 10
-6.9458066342
 20
-28.2271655084
 10
-6.9436864728
 20
-28.2368596921
 10
-6.9414455978
 20
-28.2464473964
 10
-6.9390842638
 20
-28.2559275207
 10
-6.9366027381
 20
-28.2652989855
 10
-6.9340013091
 20
-28.2745607216
 10
-6.9312802711
 20
-28.2837116703
 10
-6.9284399325
 20
-28.292750785
 10
-6.9254806232
 20
-28.3016770337
 10
-6.9224026761
 20
-28.3104893998
 10
-6.9192064412
 20
-28.3191868717
 10
-6.9158922937
 20
-28.3277684439
 10
-6.9124606081
 20
-28.3362331363
 10
-6.9089117733
 20
-28.3445799812
 10
-6.9052462062
 20
-28.3528080125
 10
-6.9014643213
 20
-28.3609162909
 10
-6.8975665473
 20
-28.3689038902
 10
-6.8935533423
 20
-28.3767698849
 10
-6.8894251604
 20
-28.3845133775
 10
-6.8851824695
 20
-28.3921334841
 10
-6.8808257682
 20
-28.3996293211
 10
-6.8763555506
 20
-28.4070000326
 10
-6.8717723226
 20
-28.4142447792
 10
-6.8670766205
 20
-28.4213627236
 10
-6.8622689767
 20
-28.4283530535
 10
-6.8573499354
 20
-28.4352149733
 10
-6.8523200695
 20
-28.441947692
 10
-6.8471799479
 20
-28.4485504431
 10
-6.8419301533
 20
-28.4550224738
 10
-6.8365712983
 20
-28.4613630352
 10
-6.831103988
 20
-28.4675714066
 10
-6.8255288428
 20
-28.4736468798
 10
-6.8198465157
 20
-28.4795887476
 10
-6.8140576489
 20
-28.4853963349
 10
-6.8081628988
 20
-28.49106898
 10
-6.8021629583
 20
-28.4966060195
 10
-6.7960585062
 20
-28.5020068242
 10
-6.7898502342
 20
-28.5072707804
 10
-6.7835388719
 20
-28.512397271
 10
-6.7771251341
 20
-28.5173857143
 10
-6.7706097471
 20
-28.5222355444
 10
-6.766373408
 20
-28.5252759783
  0
LINE
  5
2EC
100
AcDbEntity
  8
RACCORDO
100
AcDbLine
 62
7
  6
CONTINUOUS
 10
-2.0907087206
 20
9.3288904705
 11
-3.6738668328
 21
8.1870622888
  0
LINE
  5
2ED
100
AcDbEntity
  8
RACCORDO
100
AcDbLine
 62
250
  6
CONTINUOUS
 10
-1.9458976882
 20
9.3018825475
 11
-3.5286542913
 21
8.1603439479
  0
LINE
  5
2EE
100
AcDbEntity
  8
RACCORDO
100
AcDbLine
 62
7
  6
CONTINUOUS
 10
-2.0897531003
 20
9.3295661851
 11
-2.0907087404
 21
9.3288904562
  0
LINE
  5
2EF
100
AcDbEntity
  8
RACCORDO
100
AcDbLine
 62
7
  6
CONTINUOUS
 10
-1.5548946779
 20
9.7002993106
 11
-2.0897530809
 21
9.3295661991
  0
LINE
  5
2F0
100
AcDbEntity
  8
RACCORDO
100
AcDbLine
 62
250
  6
CONTINUOUS
 10
-1.4114478095
 20
9.6723324934
 11
-1.9458976882
 21
9.3018825475
  0
LINE
  5
2F1
100
AcDbEntity
  8
RACCORDO
100
AcDbLine
 62
7
  6
CONTINUOUS
 10
4.3092223551
 20
13.3408849189
 11
-1.1350971157
 21
9.6048811252
  0
LWPOLYLINE
  5
2F2
100
AcDbEntity
  8
RACCORDO
100
AcDbPolyline
 62
250
  6
CONTINUOUS
 90
34
 70
0
 10
-5.5805206406
 20
2.1108747551
 10
-5.5818086009
 20
2.1273412684
 10
-5.5838795446
 20
2.1443459814
 10
-5.5867287857
 20
2.1618504179
 10
-5.5903498774
 20
2.1798149706
 10
-5.5947346263
 20
2.1981989914
 10
-5.599873111
 20
2.216960883
 10
-5.6057537047
 20
2.2360581932
 10
-5.6123631015
 20
2.2554477105
 10
-5.6196863464
 20
2.2750855627
 10
-5.6277068692
 20
2.2949273153
 10
-5.6364065218
 20
2.3149280726
 10
-5.6457656198
 20
2.3350425792
 10
-5.6557629864
 20
2.3552253222
 10
-5.6663760006
 20
2.3754306344
 10
-5.6775806486
 20
2.3956127974
 10
-5.6893515776
 20
2.4157261453
 10
-5.7016621538
 20
2.4357251678
 10
-5.7144845221
 20
2.4555646133
 10
-5.7277896696
 20
2.4751995915
 10
-5.7415474908
 20
2.4945856744
 10
-5.755726856
 20
2.5136789975
 10
-5.7702956818
 20
2.5324363584
 10
-5.7852210034
 20
2.5508153151
 10
-5.8004690496
 20
2.5687742817
 10
-5.8160053186
 20
2.5862726227
 10
-5.8317946569
 20
2.6032707449
 10
-5.847801338
 20
2.6197301866
 10
-5.8639891437
 20
2.6356137055
 10
-5.8803214462
 20
2.650885362
 10
-5.8967612905
 20
2.6655106011
 10
-5.9132714784
 20
2.6794563304
 10
-5.9298146525
 20
2.6926909952
 10
-5.9463533806
 20
2.7051846494
  0
LINE
  5
2F3
100
AcDbEntity
  8
DRAFT
100
AcDbLine
 62
250
  6
CONTINUOUS
 10
-6.1178247056
 20
16.3719814448
 11
-6.1178247056
 21
15.8926663503
  0
LINE
  5
2F4
100
AcDbEntity
  8
RACCORDO
100
AcDbLine
 62
250
  6
CONTINUOUS
 10
-5.907755568
 20
9.5813569838
 11
-5.907755568
 21
10.4636495625
  0
LINE
  5
2F5
100
AcDbEntity
  8
DRAFT
100
AcDbLine
 62
7
  6
CONTINUOUS
 10
-5.4107179244
 20
16.8719814448
 11
-5.4107179244
 21
17.3231433171
  0
LINE
  5
2F6
100
AcDbEntity
  8
RACCORDO
100
AcDbLine
 62
250
  6
CONTINUOUS
 10
-5.2027116487
 20
9.5983279334
 11
-5.2027116487
 21
10.6048452915
  0
LINE
  5
2F7
100
AcDbEntity
  8
ASSI
100
AcDbLine
 62
250
  6
CONTINUOUS
 10
-5.0769423017
 20
17.5562455075
 11
-5.0769423017
 21
18.5583730736
  0
LINE
  5
2F8
100
AcDbEntity
  8
DRAFT
100
AcDbLine
 62
7
  6
CONTINUOUS
 10
-5.0571645338
 20
16.6219814448
 11
-5.0571645338
 21
17.0731433171
  0
LINE
  5
2F9
100
AcDbEntity
  8
ASSI
100
AcDbLine
 62
7
  6
CONTINUOUS
 10
-4.9515927945
 20
17.7683630826
 11
-4.9515927945
 21
18.6566261273
  0
LINE
  5
2FA
100
AcDbEntity
  8
DRAFT
100
AcDbLine
 62
7
  6
CONTINUOUS
 10
-4.8450324994
 20
10.8569056853
 11
-4.8450324994
 21
9.8669561916
  0
LWPOLYLINE
  5
2FB
100
AcDbEntity
  8
RACCORDO
100
AcDbPolyline
 62
250
  6
CONTINUOUS
 90
53
 70
0
 10
-6.4649361303
 20
-5.3307827789
 10
-6.4752660356
 20
-5.7780045798
 10
-6.4850376564
 20
-6.2248574706
 10
-6.4942509954
 20
-6.6713414531
 10
-6.5029060095
 20
-7.1174544469
 10
-6.5110026964
 20
-7.5631964503
 10
-6.5185410584
 20
-8.0085674649
 10
-6.5255210605
 20
-8.4535654148
 10
-6.5319427002
 20
-8.8981902983
 10
-6.5378059799
 20
-9.342442117
 10
-6.5431108724
 20
-9.7863188002
 10
-6.5478573751
 20
-10.2298203461
 10
-6.5520454906
 20
-10.6729467564
 10
-6.5556751994
 20
-11.1156959656
 10
-6.5587464988
 20
-11.558067972
 10
-6.5612593915
 20
-12.0000627773
 10
-6.5632138658
 20
-12.4416783214
 10
-6.5646099191
 20
-12.8829146024
 10
-6.5654475539
 20
-13.3237716222
 10
-6.5657267663
 20
-13.764247326
 10
-6.5654475539
 20
-14.2043417122
 10
-6.5646099191
 20
-14.6440547824
 10
-6.5632138658
 20
-15.0833844874
 10
-6.5612593915
 20
-15.5223308253
 10
-6.5587464988
 20
-15.960893798
 10
-6.5556751994
 20
-16.3990713611
 10
-6.5520454906
 20
-16.8368635129
 10
-6.5478573751
 20
-17.2742702552
 10
-6.5431108724
 20
-17.711289549
 10
-6.5378059799
 20
-18.1479213926
 10
-6.5319427001
 20
-18.5841657878
 10
-6.5255210605
 20
-19.0200207011
 10
-6.5185410584
 20
-19.4554861307
 10
-6.5110026963
 20
-19.8905620783
 10
-6.5029060095
 20
-20.3252465161
 10
-6.4942509953
 20
-20.7595394421
 10
-6.4850376564
 20
-21.1934408583
 10
-6.4752660356
 20
-21.6269487427
 10
-6.4649361303
 20
-22.0600630937
 10
-6.4540479432
 20
-22.4927839129
 10
-6.4426015249
 20
-22.9251091833
 10
-6.4305968729
 20
-23.3570389029
 10
-6.4180339897
 20
-23.7885730736
 10
-6.404912934
 20
-24.2197096837
 10
-6.3912337031
 20
-24.6504487314
 10
-6.3769962996
 20
-25.0807902185
 10
-6.3622007898
 20
-25.5107321389
 10
-6.3468471712
 20
-25.9402744907
 10
-6.3309354463
 20
-26.3694172758
 10
-6.3144656893
 20
-26.7981584935
 10
-6.2974379249
 20
-27.2264974768
 10
-6.2798521285
 20
-27.6544348926
 10
-6.2617083
 20
-28.081970741
  0
LWPOLYLINE
  5
2FC
100
AcDbEntity
  8
RACCORDO
100
AcDbPolyline
 62
250
  6
CONTINUOUS
 90
5
 70
0
 10
-6.4180339898
 20
-3.5382190075
 10
-6.4305968729
 20
-3.986910184
 10
-6.4426015249
 20
-4.4352345386
 10
-6.4540479432
 20
-4.8831920697
 10
-6.4649361303
 20
-5.3307827789
  0
LWPOLYLINE
  5
2FD
100
AcDbEntity
  8
RACCORDO
100
AcDbPolyline
 62
250
  6
CONTINUOUS
 90
58
 70
0
 10
-7.1056372967
 20
-3.0741503523
 10
-7.1187712691
 20
-3.5236561575
 10
-7.1313464992
 20
-3.9727961614
 10
-7.1433629667
 20
-4.4215696667
 10
-7.1548206532
 20
-4.8699759757
 10
-7.1657195413
 20
-5.3180143916
 10
-7.1760596136
 20
-5.7656842186
 10
-7.1858408541
 20
-6.2129847607
 10
-7.195063248
 20
-6.6599153229
 10
-7.2037267805
 20
-7.1064752118
 10
-7.2118314383
 20
-7.5526637337
 10
-7.2193772092
 20
-7.9984801947
 10
-7.2263640808
 20
-8.4439239027
 10
-7.2327920427
 20
-8.8889941655
 10
-7.2386610849
 20
-9.3336902911
 10
-7.2439711981
 20
-9.7780115891
 10
-7.2487223741
 20
-10.2219573688
 10
-7.2529146057
 20
-10.6655269404
 10
-7.2565478862
 20
-11.1087196149
 10
-7.25962221
 20
-11.5515347035
 10
-7.2621375724
 20
-11.9939715182
 10
-7.2640939694
 20
-12.4360293718
 10
-7.2654913979
 20
-12.8777075773
 10
-7.266329856
 20
-13.3190054484
 10
-7.2666093422
 20
-13.7599222998
 10
-7.266329856
 20
-14.2004574464
 10
-7.2654913979
 20
-14.6406102037
 10
-7.2640939694
 20
-15.0803798881
 10
-7.2621375724
 20
-15.5197658165
 10
-7.25962221
 20
-15.9587673058
 10
-7.2565478862
 20
-16.3973836742
 10
-7.2529146057
 20
-16.83561424
 10
-7.2487223741
 20
-17.2734583224
 10
-7.2439711981
 20
-17.7109152411
 10
-7.2386610849
 20
-18.1479843164
 10
-7.2327920427
 20
-18.5846648691
 10
-7.2263640808
 20
-19.0209562207
 10
-7.2193772092
 20
-19.4568576934
 10
-7.2118314384
 20
-19.8923686099
 10
-7.2037267805
 20
-20.3274882934
 10
-7.195063248
 20
-20.7622160679
 10
-7.1858408541
 20
-21.1965512581
 10
-7.1760596136
 20
-21.6304931895
 10
-7.1657195414
 20
-22.0640411883
 10
-7.1548206532
 20
-22.4971945807
 10
-7.1433629667
 20
-22.9299526932
 10
-7.1313464992
 20
-23.3623148538
 10
-7.1187712691
 20
-23.7942803908
 10
-7.1056372967
 20
-24.2258486324
 10
-7.0919446019
 20
-24.6570189082
 10
-7.0776932058
 20
-25.0877905486
 10
-7.0628831311
 20
-25.5181628835
 10
-7.0475144004
 20
-25.9481352447
 10
-7.0315870374
 20
-26.377706964
 10
-7.0151010674
 20
-26.8068773735
 10
-6.9980565163
 20
-27.2356458063
 10
-6.9804534094
 20
-27.6640115967
 10
-6.9622917738
 20
-28.0919740794
  0
LINE
  5
2FE
100
AcDbEntity
  8
RACCORDO
100
AcDbLine
 62
250
  6
CONTINUOUS
 10
-6.4036107851
 20
-3.0463819938
 11
-6.4180339898
 21
-3.5382190075
  0
LINE
  5
2FF
100
AcDbEntity
  8
RACCORDO
100
AcDbLine
 62
250
  6
CONTINUOUS
 10
-7.0894994601
 20
-2.547031632
 11
-7.1056372967
 21
-3.0741503523
  0
LWPOLYLINE
  5
300
100
AcDbEntity
  8
RACCORDO
100
AcDbPolyline
 62
250
  6
CONTINUOUS
 90
9
 70
0
 10
-6.9622917738
 20
0.9877475015
 10
-6.9804534094
 20
0.5349809875
 10
-6.9980565163
 20
0.0825739673
 10
-7.0151010675
 20
-0.369472856
 10
-7.0315870374
 20
-0.8211587791
 10
-7.0475144004
 20
-1.2724831003
 10
-7.0628831311
 20
-1.7234451189
 10
-7.0776932058
 20
-2.1740441339
 10
-7.0894994601
 20
-2.547031632
  0
LWPOLYLINE
  5
301
100
AcDbEntity
  8
RACCORDO
100
AcDbPolyline
 62
250
  6
CONTINUOUS
 90
10
 70
0
 10
-6.2617083
 20
0.9686711183
 10
-6.2798521285
 20
0.5163564208
 10
-6.297437925
 20
0.0644022551
 10
-6.3144656894
 20
-0.3871913789
 10
-6.3309354464
 20
-0.8384251818
 10
-6.3468471712
 20
-1.2892984529
 10
-6.3622007899
 20
-1.7398090906
 10
-6.3769962996
 20
-2.1899570931
 10
-6.3912337031
 20
-2.639742462
 10
-6.4036107851
 20
-3.0463819938
  0
LWPOLYLINE
  5
302
100
AcDbEntity
  8
ASSI
100
AcDbPolyline
 62
7
  6
CONTINUOUS
 90
20
 70
0
 10
-4.9515927945
 20
18.656623804
 10
-4.9516496355
 20
18.6556130771
 10
-4.9524598619
 20
18.6523668856
 10
-4.9541875415
 20
18.6487456364
 10
-4.9567877083
 20
18.6447836085
 10
-4.960213185
 20
18.6405057942
 10
-4.9644166934
 20
18.6359341996
 10
-4.9693700144
 20
18.6310964586
 10
-4.9750294035
 20
18.6260188667
 10
-4.9813584112
 20
18.6207103383
 10
-4.9883611842
 20
18.6151741965
 10
-4.9960274692
 20
18.6094169756
 10
-5.004314797
 20
18.6034656451
 10
-5.0131902306
 20
18.597355388
 10
-5.0226265954
 20
18.5910925423
 10
-5.032591221
 20
18.5846954289
 10
-5.0430392829
 20
18.5782138356
 10
-5.0539330907
 20
18.5716686727
 10
-5.0652448011
 20
18.5650532931
 10
-5.0850250529
 20
18.553740384
  0
LINE
  5
303
100
AcDbEntity
  8
RACCORDO
100
AcDbLine
 62
250
  6
CONTINUOUS
 10
-0.425615117
 20
7.4564770922
 11
0.1026520547
 21
8.1411702132
  0
LINE
  5
304
100
AcDbEntity
  8
RACCORDO
100
AcDbLine
 62
7
  6
CONTINUOUS
 10
-0.425615117
 20
7.4019387777
 11
0.1227849426
 21
8.1127263648
  0
LWPOLYLINE
  5
305
100
AcDbEntity
  8
RACCORDO
100
AcDbPolyline
 62
7
  6
CONTINUOUS
 90
22
 70
0
 10
-1.3156752997
 20
6.7329219473
 10
-1.3235687621
 20
6.7231894072
 10
-1.3318161424
 20
6.7136894629
 10
-1.3404058094
 20
6.7044350904
 10
-1.3493241126
 20
6.6954308524
 10
-1.3585584131
 20
6.6866973254
 10
-1.3680973929
 20
6.6782713894
 10
-1.377925474
 20
6.6701648635
 10
-1.3880265793
 20
6.6623897648
 10
-1.3983876851
 20
6.6549834007
 10
-1.4089904339
 20
6.6479568027
 10
-1.4198160258
 20
6.6413210181
 10
-1.4308497633
 20
6.6351135646
 10
-1.4420705115
 20
6.6293444389
 10
-1.4534566418
 20
6.6240235239
 10
-1.4649915876
 20
6.6191883935
 10
-1.4766514183
 20
6.6148477595
 10
-1.4884115602
 20
6.6110100532
 10
-1.5002531714
 20
6.6077126336
 10
-1.5121495056
 20
6.6049626488
 10
-1.5240729464
 20
6.6027666608
 10
-1.5324592073
 20
6.6015742867
  0
LINE
  5
306
100
AcDbEntity
  8
RACCORDO
100
AcDbLine
 62
7
  6
CONTINUOUS
 10
-0.425615117
 20
6.7419561916
 11
-1.3156752997
 21
6.0734930813
  0
LINE
  5
307
100
AcDbEntity
  8
RACCORDO
100
AcDbLine
 62
7
  6
CONTINUOUS
 10
5.1907578137
 20
12.689562583
 11
0.0039321374
 21
8.7994658164
  0
LWPOLYLINE
  5
308
100
AcDbEntity
  8
RACCORDO
100
AcDbPolyline
 62
250
  6
CONTINUOUS
 90
141
 70
0
 10
-5.5880477052
 20
2.1053083236
 10
-5.5955681568
 20
2.0996690582
 10
-5.6030819954
 20
2.0939569589
 10
-5.6105900439
 20
2.0881713832
 10
-5.6180914793
 20
2.0823129737
 10
-5.6255838333
 20
2.076383658
 10
-5.6330671037
 20
2.0703834119
 10
-5.6405412926
 20
2.0643122596
 10
-5.6480039378
 20
2.0581722018
 10
-5.6554550355
 20
2.0519632158
 10
-5.6628945895
 20
2.0456853242
 10
-5.6703201489
 20
2.0393405951
 10
-5.6777317094
 20
2.0329290063
 10
-5.6851292754
 20
2.02645058
 10
-5.6925104094
 20
2.0199074515
 10
-5.6998751053
 20
2.0132996
 10
-5.7072233692
 20
2.0066270463
 10
-5.7145527818
 20
1.9998919876
 10
-5.7218633358
 20
1.9930944044
 10
-5.7291550384
 20
1.9862343163
 10
-5.736425492
 20
1.9793139793
 10
-5.7436746909
 20
1.9723333724
 10
-5.7509026409
 20
1.9652925167
 10
-5.7581069615
 20
1.958193731
 10
-5.7652876452
 20
1.951036996
 10
-5.7724446995
 20
1.943822331
 10
-5.7795757664
 20
1.9365521134
 10
-5.7866808375
 20
1.9292263247
 10
-5.7937599213
 20
1.9218449832
 10
-5.8008106852
 20
1.9144105216
 10
-5.80783312
 20
1.9069229222
 10
-5.8148272351
 20
1.8993822025
 10
-5.8217907255
 20
1.8917908482
 10
-5.8287235811
 20
1.8841488425
 10
-5.8356258122
 20
1.8764562022
 10
-5.8424951443
 20
1.8687154629
 10
-5.8493315648
 20
1.8609266108
 10
-5.8561350864
 20
1.8530896597
 10
-5.8629034727
 20
1.8452071864
 10
-5.8696367126
 20
1.8372791755
 10
-5.8763348172
 20
1.8293056425
 10
-5.8829955834
 20
1.8212892103
 10
-5.8896189997
 20
1.813229864
 10
-5.8962050776
 20
1.8051276186
 10
-5.9027516485
 20
1.7969851421
 10
-5.9092586998
 20
1.7888024209
 10
-5.9157262442
 20
1.7805794686
 10
-5.9221521509
 20
1.7723189948
 10
-5.9285364066
 20
1.7640209866
 10
-5.9348790246
 20
1.7556854567
 10
-5.9411779147
 20
1.747315153
 10
-5.9474330626
 20
1.7389100636
 10
-5.9536444827
 20
1.7304702003
 10
-5.9598101275
 20
1.7219983459
 10
-5.9659299811
 20
1.7134944911
 10
-5.9720040594
 20
1.7049586453
 10
-5.9780303633
 20
1.696393619
 10
-5.9840088762
 20
1.687799404
 10
-5.9899396146
 20
1.6791760086
 10
-5.9958206293
 20
1.6705262681
 10
-6.001651904
 20
1.6618501737
 10
-6.007433455
 20
1.6531477342
 10
-6.0131633813
 20
1.6444218114
 10
-6.0188416667
 20
1.6356723966
 10
-6.0244683273
 20
1.6268994986
 10
-6.0300415112
 20
1.6181060055
 10
-6.0355612012
 20
1.6092919094
 10
-6.0410274145
 20
1.6004572182
 10
-6.0464383499
 20
1.5916048434
 10
-6.0517939893
 20
1.5827347786
 10
-6.0570943508
 20
1.5738470303
 10
-6.0623376872
 20
1.564944529
 10
-6.0675239792
 20
1.5560272704
 10
-6.0726532461
 20
1.5470952589
 10
-6.0777237982
 20
1.5381514383
 10
-6.0827356153
 20
1.5291958056
 10
-6.0876887176
 20
1.5202283638
 10
-6.0925814753
 20
1.5112520647
 10
-6.0974138681
 20
1.5022669067
 10
-6.1021859163
 20
1.4932728914
 10
-6.106896052
 20
1.4842729753
 10
-6.1115442546
 20
1.475267157
 10
-6.1161305446
 20
1.4662554379
 10
-6.1206534152
 20
1.4572407795
 10
-6.1251128463
 20
1.4482231792
 10
-6.1295088581
 20
1.4392026395
 10
-6.1338400032
 20
1.4301821302
 10
-6.1381062611
 20
1.4211616496
 10
-6.1423076525
 20
1.4121411994
 10
-6.1464427922
 20
1.4031237536
 10
-6.1505116582
 20
1.3941093136
 10
-6.1545142726
 20
1.3850978782
 10
-6.1584493163
 20
1.3760924181
 10
-6.1623167668
 20
1.3670929358
 10
-6.1661166465
 20
1.3580994288
 10
-6.1698477041
 20
1.3491148604
 10
-6.1735099167
 20
1.3401392346
 10
-6.1771033071
 20
1.3311725473
 10
-6.1806266933
 20
1.3222177506
 10
-6.1840800516
 20
1.3132748501
 10
-6.1874634055
 20
1.3043438401
 10
-6.1907756442
 20
1.2954276547
 10
-6.1940167441
 20
1.2865262996
 10
-6.1971867287
 20
1.2776397691
 10
-6.2002845575
 20
1.2687709802
 10
-6.2033102083
 20
1.2599199346
 10
-6.2062637032
 20
1.2510866307
 10
-6.2091440688
 20
1.2422739796
 10
-6.2119512809
 20
1.2334819881
 10
-6.2146853636
 20
1.2247106494
 10
-6.2173454157
 20
1.2159628552
 10
-6.2199314127
 20
1.2072386131
 10
-6.2224433791
 20
1.1985379154
 10
-6.2248804872
 20
1.1898636301
 10
-6.2272427122
 20
1.181215766
 10
-6.2295300789
 20
1.1725943143
 10
-6.2317418339
 20
1.1640021168
 10
-6.2338779519
 20
1.1554391842
 10
-6.2359384582
 20
1.1469055059
 10
-6.237922675
 20
1.1384038918
 10
-6.2398305763
 20
1.1299343575
 10
-6.2416621882
 20
1.1214968874
 10
-6.2434169109
 20
1.1130942449
 10
-6.2450947203
 20
1.1047264373
 10
-6.2466956405
 20
1.0963934572
 10
-6.2482191445
 20
1.088098046
 10
-6.2496652074
 20
1.0798402138
 10
-6.2510338542
 20
1.0716199504
 10
-6.252324633
 20
1.0634399668
 10
-6.2535375178
 20
1.0553002765
 10
-6.2546725348
 20
1.0472008659
 10
-6.2557293097
 20
1.0391444053
 10
-6.2567078171
 20
1.0311309086
 10
-6.2576080825
 20
1.0231603619
 10
-6.2584298089
 20
1.0152353946
 10
-6.2591729699
 20
1.0073560273
 10
-6.259837592
 20
0.9995222393
 10
-6.2604234578
 20
0.9917365977
 10
-6.2609304948
 20
0.9839999582
 10
-6.2613587755
 20
0.976311465
 10
-6.2617083
 20
0.9686711183
  0
LWPOLYLINE
  5
309
100
AcDbEntity
  8
RACCORDO
100
AcDbPolyline
 62
250
  6
CONTINUOUS
 90
142
 70
0
 10
-5.9463533806
 20
2.7051846494
 10
-5.9575773411
 20
2.6967909743
 10
-5.9687938749
 20
2.6882861788
 10
-5.9800017647
 20
2.6796712065
 10
-5.9911998083
 20
2.6709470232
 10
-6.0023867765
 20
2.6621145867
 10
-6.013561413
 20
2.6531748472
 10
-6.0247225057
 20
2.6441287961
 10
-6.035868843
 20
2.6349774364
 10
-6.0469991718
 20
2.6257217536
 10
-6.0581122844
 20
2.6163627734
 10
-6.0692069748
 20
2.6069015337
 10
-6.0802819953
 20
2.5973390548
 10
-6.0913361445
 20
2.5876763963
 10
-6.1023682225
 20
2.5779146291
 10
-6.1133769877
 20
2.5680548077
 10
-6.1243612445
 20
2.5580980252
 10
-6.135319802
 20
2.548045384
 10
-6.1462514297
 20
2.5378979679
 10
-6.1571549398
 20
2.5276569024
 10
-6.1680291507
 20
2.5173233202
 10
-6.1788728462
 20
2.5068983318
 10
-6.1896848513
 20
2.4963830894
 10
-6.2004639909
 20
2.4857787589
 10
-6.2112090538
 20
2.475086486
 10
-6.2219188742
 20
2.4643074535
 10
-6.2325922898
 20
2.4534428551
 10
-6.2432280996
 20
2.4424938665
 10
-6.2538251496
 20
2.4314616991
 10
-6.2643822898
 20
2.4203475738
 10
-6.2748983322
 20
2.4091526946
 10
-6.2853721358
 20
2.3978782996
 10
-6.295802564
 20
2.3865256365
 10
-6.3061884425
 20
2.3750959363
 10
-6.3165286441
 20
2.3635904632
 10
-6.3268220471
 20
2.3520104898
 10
-6.3370674928
 20
2.3403572724
 10
-6.3472638666
 20
2.3286321027
 10
-6.3574100651
 20
2.3168362744
 10
-6.3675049543
 20
2.3049710582
 10
-6.3775474393
 20
2.2930377651
 10
-6.38753643
 20
2.281037715
 10
-6.3974708078
 20
2.2689722036
 10
-6.4073494959
 20
2.2568425629
 10
-6.4171714212
 20
2.2446501347
 10
-6.4269354806
 20
2.2323962404
 10
-6.4366406151
 20
2.2200822331
 10
-6.4462857711
 20
2.2077094741
 10
-6.4558698636
 20
2.1952793071
 10
-6.4653918528
 20
2.1827931047
 10
-6.4748507054
 20
2.1702522467
 10
-6.4842453561
 20
2.1576580976
 10
-6.4935747856
 20
2.1450120477
 10
-6.5028379816
 20
2.1323154943
 10
-6.5120339003
 20
2.1195698203
 10
-6.5211615423
 20
2.1067764349
 10
-6.5302199192
 20
2.0939367492
 10
-6.5392080142
 20
2.0810521562
 10
-6.5481248506
 20
2.0681240804
 10
-6.5569694628
 20
2.0551539474
 10
-6.5657408621
 20
2.0421431588
 10
-6.5744380968
 20
2.0290931504
 10
-6.5830602234
 20
2.016005363
 10
-6.5916062774
 20
2.0028812127
 10
-6.6000753322
 20
1.989722146
 10
-6.6084664682
 20
1.9765296167
 10
-6.6167787437
 20
1.9633050575
 10
-6.6250112574
 20
1.9500499258
 10
-6.6331631154
 20
1.9367656856
 10
-6.6412334
 20
1.9234537848
 10
-6.6492212357
 20
1.9101156908
 10
-6.6571257558
 20
1.8967528761
 10
-6.6649460691
 20
1.8833667998
 10
-6.6726813265
 20
1.8699589389
 10
-6.6803306898
 20
1.8565307717
 10
-6.6878932979
 20
1.8430837627
 10
-6.6953683293
 20
1.8296193964
 10
-6.7027549746
 20
1.8161391561
 10
-6.7100524052
 20
1.8026445072
 10
-6.7172598283
 20
1.7891369394
 10
-6.7243764637
 20
1.7756179402
 10
-6.7314015161
 20
1.7620889738
 10
-6.7383342229
 20
1.7485515318
 10
-6.7451738328
 20
1.7350071062
 10
-6.751919582
 20
1.7214571631
 10
-6.7585707396
 20
1.7079031931
 10
-6.765126583
 20
1.6943466927
 10
-6.7715863762
 20
1.6807891378
 10
-6.7779494193
 20
1.6672320199
 10
-6.7842150209
 20
1.6536768354
 10
-6.7903824745
 20
1.6401250675
 10
-6.7964511108
 20
1.6265782092
 10
-6.8024202719
 20
1.6130377532
 10
-6.8082892851
 20
1.5995051808
 10
-6.8140575132
 20
1.5859819833
 10
-6.8197243314
 20
1.5724696496
 10
-6.8252891022
 20
1.5589696565
 10
-6.8307512214
 20
1.5454834917
 10
-6.8361100975
 20
1.5320126393
 10
-6.8413651293
 20
1.5185585682
 10
-6.8465157456
 20
1.5051227623
 10
-6.8515613895
 20
1.4917066984
 10
-6.8565014981
 20
1.4783118308
 10
-6.8613355347
 20
1.4649396352
 10
-6.866062976
 20
1.4515915827
 10
-6.8706832958
 20
1.4382691168
 10
-6.8751959941
 20
1.4249736977
 10
-6.8796005797
 20
1.4117067953
 10
-6.8838965563
 20
1.3984698626
 10
-6.8880834574
 20
1.3852643557
 10
-6.892160829
 20
1.3720917285
 10
-6.8961282117
 20
1.3589534252
 10
-6.8999851746
 20
1.3458508912
 10
-6.9037312999
 20
1.3327855684
 10
-6.9073661655
 20
1.3197588894
 10
-6.9108893769
 20
1.3067722871
 10
-6.9143005524
 20
1.2938271903
 10
-6.9175993081
 20
1.2809250193
 10
-6.9207852855
 20
1.268067194
 10
-6.9238581402
 20
1.2552551274
 10
-6.9268175273
 20
1.2424902213
 10
-6.9296631241
 20
1.2297738866
 10
-6.9323946245
 20
1.2171075141
 10
-6.9350117267
 20
1.2044924675
 10
-6.9375141472
 20
1.1919301275
 10
-6.9399016135
 20
1.1794218817
 10
-6.9421738582
 20
1.1669690954
 10
-6.9443306344
 20
1.154573134
 10
-6.9463717079
 20
1.1422353638
 10
-6.9482968482
 20
1.1299571419
 10
-6.9501058458
 20
1.1177398176
 10
-6.951798505
 20
1.1055847338
 10
-6.9533746348
 20
1.0934932275
 10
-6.9548340641
 20
1.081466627
 10
-6.9561766349
 20
1.0695062538
 10
-6.9574021961
 20
1.0576134242
 10
-6.9585106144
 20
1.0457894441
 10
-6.9595017704
 20
1.0340356125
 10
-6.9603755527
 20
1.0223532234
 10
-6.9611318656
 20
1.0107435606
 10
-6.961770629
 20
0.9992078978
 10
-6.9622917738
 20
0.9877475015
  0
LINE
  5
30A
100
AcDbEntity
  8
RACCORDO
100
AcDbLine
 62
250
  6
CONTINUOUS
 10
-3.2696257799
 20
3.8286413479
 11
-4.0030685082
 21
3.2805654968
  0
LWPOLYLINE
  5
30B
100
AcDbEntity
  8
RACCORDO
100
AcDbPolyline
 62
250
  6
CONTINUOUS
 90
4
 70
0
 10
-4.0030685082
 20
3.2805654968
 10
-4.381418924
 20
2.998586848
 10
-4.7700285099
 20
2.7101099928
 10
-5.1676440314
 20
2.4157371267
  0
LINE
  5
30C
100
AcDbEntity
  8
RACCORDO
100
AcDbLine
 62
7
  6
CONTINUOUS
 10
5.1907578137
 20
12.2834943736
 11
0.1742397502
 21
8.5656905869
  0
LWPOLYLINE
  5
30D
100
AcDbEntity
  8
RACCORDO
100
AcDbPolyline
 62
250
  6
CONTINUOUS
 90
5
 70
0
 10
-1.5053083439
 20
5.13838111
 10
-1.8544283091
 20
4.8811500442
 10
-2.2050487234
 20
4.6218910242
 10
-2.5571586989
 20
4.3601895765
 10
-3.2696257799
 20
3.8286413479
  0
LWPOLYLINE
  5
30E
100
AcDbEntity
  8
RACCORDO
100
AcDbPolyline
 62
250
  6
CONTINUOUS
 90
16
 70
0
 10
-0.4023601605
 20
6.7255124542
 10
-0.7619407697
 20
6.4609592803
 10
-1.1196459276
 20
6.1982789248
 10
-1.4754756344
 20
5.9374713879
 10
-1.8279892626
 20
5.6793139599
 10
-2.1786274396
 20
5.4230293505
 10
-2.5317120479
 20
5.1662856879
 10
-2.8876654718
 20
4.9093834833
 10
-3.246065327
 20
4.6520222256
 10
-3.6099663427
 20
4.3909685103
 10
-3.9794574301
 20
4.1262874859
 10
-4.3544496782
 20
3.8579140039
 10
-4.7377310824
 20
3.5824192137
 10
-5.1302309749
 20
3.2986601653
 10
-5.5310200236
 20
3.0077798087
 10
-5.9463533806
 20
2.7051846494
  0
LINE
  5
30F
100
AcDbEntity
  8
RACCORDO
100
AcDbLine
 62
250
  6
CONTINUOUS
 10
-5.1676440314
 20
2.4157371267
 11
-5.5880477052
 21
2.1053083236
  0
LWPOLYLINE
  5
310
100
AcDbEntity
  8
RACCORDO
100
AcDbPolyline
 62
250
  6
CONTINUOUS
 90
4
 70
0
 10
-0.0829886635
 20
6.1833796256
 10
-0.4421970152
 20
5.9199391848
 10
-0.7991926969
 20
5.6577756803
 10
-1.5053083439
 20
5.13838111
  0
LINE
  5
311
100
AcDbEntity
  8
RACCORDO
100
AcDbLine
 62
250
  6
CONTINUOUS
 10
6.4703738144
 20
11.1692276116
 11
21.2403280553
 21
21.7218481395
  0
LINE
  5
312
100
AcDbEntity
  8
0
100
AcDbLine
 62
250
  6
CONTINUOUS
 10
6.4703738144
 20
11.1692276116
 11
21.2403280553
 21
21.7218481395
  0
LINE
  5
313
100
AcDbEntity
  8
RACCORDO
100
AcDbLine
 62
250
  6
CONTINUOUS
 10
-0.0741216489
 20
8.7267000967
 11
-0.6023888207
 21
8.3518783167
  0
LINE
  5
314
100
AcDbEntity
  8
RACCORDO
100
AcDbLine
 62
250
  6
CONTINUOUS
 10
0.1026520547
 20
8.4249285084
 11
-0.425615117
 21
8.0501067284
  0
LINE
  5
315
100
AcDbEntity
  8
0
100
AcDbLine
 62
7
  6
CONTINUOUS
 10
-15.8051876078
 20
-4.0423367196
 11
-15.1511898328
 21
-3.579890458
  0
LINE
  5
316
100
AcDbEntity
  8
0
100
AcDbLine
 62
7
  6
CONTINUOUS
 10
-16.9895914663
 20
-5.5736444366
 11
-14.6605936913
 21
-3.9267943165
  0
LINE
  5
317
100
AcDbEntity
  8
0
100
AcDbLine
 62
7
  6
CONTINUOUS
 10
-17.5022438827
 20
-6.4132259646
 11
-14.3232461076
 21
-4.1653350805
  0
LINE
  5
318
100
AcDbEntity
  8
RACCORDO
100
AcDbLine
 62
250
  6
CONTINUOUS
 10
-0.6023888207
 20
8.3518783167
 11
-2.2036696115
 21
7.2234382958
  0
LINE
  5
319
100
AcDbEntity
  8
RACCORDO
100
AcDbLine
 62
250
  6
CONTINUOUS
 10
-0.425615117
 20
8.0501067284
 11
-2.0268959078
 21
6.9216667075
  0
LINE
  5
31A
100
AcDbEntity
  8
DRAFT
100
AcDbLine
 62
7
  6
CONTINUOUS
 10
-0.2520302227
 20
7.6130423084
 11
5.9932872293
 21
11.9836653561
  0
LINE
  5
31B
100
AcDbEntity
  8
0
100
AcDbLine
 62
7
  6
CONTINUOUS
 10
-0.2520302227
 20
7.6130423084
 11
5.9932872293
 21
11.9836653561
  0
LINE
  5
31C
100
AcDbEntity
  8
RACCORDO
100
AcDbLine
 62
7
  6
CONTINUOUS
 10
-15.911253625
 20
-3.7137833291
 11
-16.6886094561
 21
-4.2472208596
  0
LINE
  5
31D
100
AcDbEntity
  8
RACCORDO
100
AcDbLine
 62
7
  6
CONTINUOUS
 10
-15.9392992784
 20
-3.6361318742
 11
-15.498959236
 21
-3.3339803547
  0
LINE
  5
31E
100
AcDbEntity
  8
RACCORDO
100
AcDbLine
 62
250
  6
CONTINUOUS
 10
0.3167500641
 20
7.2108539105
 11
-0.4026993119
 21
6.7257522704
  0
LINE
  5
31F
100
AcDbEntity
  8
RACCORDO
100
AcDbLine
 62
250
  6
CONTINUOUS
 10
0.6350450548
 20
6.6675267331
 11
-0.0829886635
 21
6.1833796256
  0
LWPOLYLINE
  5
320
100
AcDbEntity
  8
RACCORDO
100
AcDbPolyline
 62
7
  6
CONTINUOUS
 90
34
 70
0
 10
-16.6911506692
 20
-4.2489557152
 10
-16.7035666665
 20
-4.2568605791
 10
-16.7161969669
 20
-4.2639894956
 10
-16.7290288873
 20
-4.2703483397
 10
-16.7420668164
 20
-4.2759333401
 10
-16.7552838362
 20
-4.2807625616
 10
-16.7686217411
 20
-4.2848760931
 10
-16.7820690754
 20
-4.2882826091
 10
-16.7956203442
 20
-4.2909927791
 10
-16.8092275382
 20
-4.2930504156
 10
-16.8228813578
 20
-4.2944665872
 10
-16.8365789714
 20
-4.2952519573
 10
-16.8502828709
 20
-4.2954490449
 10
-16.8639860276
 20
-4.2950698479
 10
-16.8776871643
 20
-4.2941246189
 10
-16.8913577117
 20
-4.2926516477
 10
-16.9049927702
 20
-4.2906627835
 10
-16.9185917862
 20
-4.2881677567
 10
-16.9321326273
 20
-4.2851996365
 10
-16.9456116985
 20
-4.2817696577
 10
-16.9590292172
 20
-4.2778869438
 10
-16.9723683973
 20
-4.2735792258
 10
-16.9856271562
 20
-4.2688566697
 10
-16.9988056093
 20
-4.2637278941
 10
-17.0118897257
 20
-4.2582162264
 10
-17.0248782338
 20
-4.2523308722
 10
-17.0377714482
 20
-4.2460799126
 10
-17.0505571238
 20
-4.2394831579
 10
-17.0632345825
 20
-4.2325489474
 10
-17.0758042751
 20
-4.2252848692
 10
-17.0882550581
 20
-4.2177080425
 10
-17.1005867045
 20
-4.2098260547
 10
-17.1127997598
 20
-4.2016460607
 10
-17.1215170608
 20
-4.1955781963
  0
LWPOLYLINE
  5
321
100
AcDbEntity
  8
RACCORDO
100
AcDbPolyline
 62
7
  6
CONTINUOUS
 90
34
 70
0
 10
-15.9392995087
 20
-3.6361320303
 10
-15.9517140106
 20
-3.6439971875
 10
-15.9643415233
 20
-3.6510860246
 10
-15.9771694119
 20
-3.6574044896
 10
-15.9902021114
 20
-3.6629488809
 10
-16.0034127549
 20
-3.6677373328
 10
-16.0167431924
 20
-3.6718100044
 10
-16.0301820204
 20
-3.6751756408
 10
-16.0437237924
 20
-3.6778449641
 10
-16.0573205482
 20
-3.6798618251
 10
-16.070963039
 20
-3.6812373522
 10
-16.0846484793
 20
-3.6819822544
 10
-16.0983394003
 20
-3.6821390635
 10
-16.1120288197
 20
-3.6817198258
 10
-16.1257155034
 20
-3.680734834
 10
-16.1393709107
 20
-3.6792223729
 10
-16.1529901831
 20
-3.6771943301
 10
-16.1665728067
 20
-3.6746604713
 10
-16.1800966689
 20
-3.6716538518
 10
-16.1935582114
 20
-3.6681857378
 10
-16.2069576872
 20
-3.6642652826
 10
-16.2202783224
 20
-3.6599201971
 10
-16.2335180658
 20
-3.6551606722
 10
-16.2466770654
 20
-3.6499953528
 10
-16.2597412983
 20
-3.6444475469
 10
-16.2727095208
 20
-3.6385264804
 10
-16.2855820768
 20
-3.6322402573
 10
-16.2983467264
 20
-3.6256086701
 10
-16.3110028164
 20
-3.6186400755
 10
-16.323550824
 20
-3.611342081
 10
-16.3359796098
 20
-3.6037317909
 10
-16.3482889689
 20
-3.5958168072
 10
-16.3604794709
 20
-3.5876043017
 10
-16.3676114539
 20
-3.5826258308
  0
LWPOLYLINE
  5
322
100
AcDbEntity
  8
RACCORDO
100
AcDbPolyline
 62
250
  6
CONTINUOUS
 90
13
 70
0
 10
-2.3794178675
 20
-27.3537688746
 10
-2.3791772862
 20
-27.3628183261
 10
-2.3784561951
 20
-27.371502933
 10
-2.3772565533
 20
-27.3797990542
 10
-2.3755816208
 20
-27.3876841138
 10
-2.3734359542
 20
-27.3951366374
 10
-2.3708253996
 20
-27.4021363155
 10
-2.3677570662
 20
-27.4086640919
 10
-2.3642393049
 20
-27.4147022051
 10
-2.3602816957
 20
-27.4202342161
 10
-2.3558950138
 20
-27.4252450693
 10
-2.3510912007
 20
-27.4297211293
 10
-2.3469813488
 20
-27.4328911746
  0
LWPOLYLINE
  5
323
100
AcDbEntity
  8
RACCORDO
100
AcDbPolyline
 62
250
  6
CONTINUOUS
 90
14
 70
0
 10
-3.7044025473
 20
7.5817099058
 10
-3.7041836761
 20
7.5730706536
 10
-3.7035271204
 20
7.5647578199
 10
-3.7024337828
 20
7.556792579
 10
-3.7009053329
 20
7.549193933
 10
-3.6989450143
 20
7.5419829044
 10
-3.6965584313
 20
7.5351817443
 10
-3.6937520985
 20
7.5288085496
 10
-3.6905325814
 20
7.5228778321
 10
-3.6869078122
 20
7.5174042375
 10
-3.6828867291
 20
7.5124013451
 10
-3.678479356
 20
7.5078817008
 10
-3.6736967281
 20
7.5038566467
 10
-3.6719700881
 20
7.5025904768
  0
LWPOLYLINE
  5
324
100
AcDbEntity
  8
RACCORDO
100
AcDbPolyline
 62
250
  6
CONTINUOUS
 90
14
 70
0
 10
-2.3794178675
 20
6.6448042537
 10
-2.3791989963
 20
6.6361650015
 10
-2.3785424406
 20
6.6278521678
 10
-2.3774491029
 20
6.6198869269
 10
-2.3759206531
 20
6.612288281
 10
-2.3739603345
 20
6.6050772524
 10
-2.3715737514
 20
6.5982760922
 10
-2.3687674187
 20
6.5919028975
 10
-2.3655479016
 20
6.5859721801
 10
-2.3619231324
 20
6.5804985854
 10
-2.3579020493
 20
6.5754956931
 10
-2.3534946762
 20
6.5709760487
 10
-2.3487120483
 20
6.5669509947
 10
-2.3469787395
 20
6.5656801085
  0
LINE
  5
325
100
AcDbEntity
  8
DRAFT
100
AcDbLine
 62
250
  6
CONTINUOUS
 10
-4.7036111432
 20
16.3719814448
 11
-4.7036111432
 21
15.8926663503
  0
LINE
  5
326
100
AcDbEntity
  8
RACCORDO
100
AcDbLine
 62
7
  6
CONTINUOUS
 10
-3.777625852
 20
7.9842974606
 11
-3.777625852
 21
7.7067099058
  0
LINE
  5
327
100
AcDbEntity
  8
RACCORDO
100
AcDbLine
 62
250
  6
CONTINUOUS
 10
-3.7044025473
 20
7.8592974606
 11
-3.7044025473
 21
7.5817099058
  0
LINE
  5
328
100
AcDbEntity
  8
RACCORDO
100
AcDbLine
 62
250
  6
CONTINUOUS
 10
-3.001409593
 20
7.0077310884
 11
-3.001409593
 21
7.0284326029
  0
LINE
  5
329
100
AcDbEntity
  8
RACCORDO
100
AcDbLine
 62
250
  6
CONTINUOUS
 10
-2.3794178675
 20
-27.3537688746
 11
-2.3794178675
 21
-27.0761813197
  0
LINE
  5
32A
100
AcDbEntity
  8
RACCORDO
100
AcDbLine
 62
250
  6
CONTINUOUS
 10
-2.3794178675
 20
6.6448042537
 11
-2.3794178675
 21
6.9223918086
  0
LINE
  5
32B
100
AcDbEntity
  8
RACCORDO
100
AcDbLine
 62
7
  6
CONTINUOUS
 10
-2.2994480872
 20
18.298114211
 11
-2.2994480872
 21
18.0770066979
  0
LWPOLYLINE
  5
32C
100
AcDbEntity
  8
RACCORDO
100
AcDbPolyline
 62
250
  6
CONTINUOUS
 90
31
 70
0
 10
-3.7044025473
 20
7.8592974606
 10
-3.7041620718
 20
7.8686850452
 10
-3.7034412996
 20
7.8783871729
 10
-3.7022421917
 20
7.8883774475
 10
-3.7005680105
 20
7.8986286887
 10
-3.6984233107
 20
7.9091130064
 10
-3.6958139276
 20
7.9198018761
 10
-3.6927469603
 20
7.930666217
 10
-3.689230753
 20
7.9416764708
 10
-3.6852748722
 20
7.9528026822
 10
-3.6808900805
 20
7.9640145805
 10
-3.6760883075
 20
7.9752816618
 10
-3.6708826172
 20
7.9865732721
 10
-3.6652871726
 20
7.9978586906
 10
-3.6593171971
 20
8.0091072136
 10
-3.6529889329
 20
8.0202882374
 10
-3.6463195972
 20
8.0313713422
 10
-3.6393273351
 20
8.0423263745
 10
-3.6320311702
 20
8.0531235294
 10
-3.6244509529
 20
8.0637334312
 10
-3.6166073064
 20
8.0741272141
 10
-3.6085215709
 20
8.0842765998
 10
-3.6002157449
 20
8.0941539754
 10
-3.5917124257
 20
8.1037324677
 10
-3.5830347481
 20
8.1129860168
 10
-3.5742063213
 20
8.1218894469
 10
-3.5652511644
 20
8.1304185346
 10
-3.5561936415
 20
8.1385500753
 10
-3.547058395
 20
8.1462619455
 10
-3.537870279
 20
8.1535331639
 10
-3.5286542913
 20
8.1603439479
  0
LWPOLYLINE
  5
32D
100
AcDbEntity
  8
RACCORDO
100
AcDbPolyline
 62
250
  6
CONTINUOUS
 90
31
 70
0
 10
-2.3794178675
 20
6.9223918086
 10
-2.3791772862
 20
6.9317814933
 10
-2.3784561951
 20
6.9414858772
 10
-2.3772565533
 20
6.9514785481
 10
-2.3755816208
 20
6.9617323199
 10
-2.3734359542
 20
6.9722192743
 10
-2.3708253996
 20
6.9829108341
 10
-2.3677570662
 20
6.9937778893
 10
-2.3642393049
 20
7.0047908682
 10
-2.3602816957
 20
7.0159197839
 10
-2.3558950138
 20
7.0271343421
 10
-2.3510912007
 20
7.0384040196
 10
-2.3458833361
 20
7.0496981373
 10
-2.3402855907
 20
7.0609859671
 10
-2.3343132091
 20
7.0722367722
 10
-2.3279824748
 20
7.0834198864
 10
-2.3213106539
 20
7.0945048267
 10
-2.3143158855
 20
7.1054614714
 10
-2.3070171487
 20
7.1162600952
 10
-2.2994342061
 20
7.1268714419
 10
-2.2915877878
 20
7.1372664863
 10
-2.2834994965
 20
7.1474166299
 10
-2.2751915287
 20
7.1572940791
 10
-2.2666863563
 20
7.1668721766
 10
-2.2580068936
 20
7.1761251385
 10
-2.2491748031
 20
7.1850297017
 10
-2.2402160201
 20
7.1935595514
 10
-2.2311606832
 20
7.2016864602
 10
-2.2220355144
 20
7.2093875261
 10
-2.2128635099
 20
7.2166444122
 10
-2.2036696115
 20
7.2234382958
  0
LWPOLYLINE
  5
32E
100
AcDbEntity
  8
RACCORDO
100
AcDbPolyline
 62
250
  6
CONTINUOUS
 90
12
 70
0
 10
-5.5805206406
 20
-28.2938830928
 10
-5.5818085993
 20
-28.310996455
 10
-5.5838795415
 20
-28.3274956367
 10
-5.5867287812
 20
-28.3433433053
 10
-5.5903498716
 20
-28.3585036027
 10
-5.5947346191
 20
-28.3729422257
 10
-5.5998731026
 20
-28.3866265043
 10
-5.6057536952
 20
-28.3995254751
 10
-5.6123630909
 20
-28.4116099519
 10
-5.6196863349
 20
-28.4228525911
 10
-5.6277068568
 20
-28.4332279543
 10
-5.6364065087
 20
-28.4427125653
  0
LWPOLYLINE
  5
32F
100
AcDbEntity
  8
RACCORDO
100
AcDbPolyline
 62
250
  6
CONTINUOUS
 90
19
 70
0
 10
-2.0268959078
 20
6.6440791527
 10
-2.0317744076
 20
6.6330192152
 10
-2.0371200492
 20
6.622329095
 10
-2.0429186394
 20
6.6120382599
 10
-2.0491553245
 20
6.6021742381
 10
-2.0558129187
 20
6.5927652971
 10
-2.0628715678
 20
6.5838399321
 10
-2.0703112235
 20
6.5754233433
 10
-2.0781122597
 20
6.5675375922
 10
-2.086253579
 20
6.5602040381
 10
-2.0947131144
 20
6.553442644
 10
-2.1034676512
 20
6.5472720464
 10
-2.1124930714
 20
6.5417092747
 10
-2.1217646378
 20
6.536769565
 10
-2.1312571071
 20
6.5324663562
 10
-2.1409445754
 20
6.5288113939
 10
-2.1508006
 20
6.5258146617
 10
-2.1607982459
 20
6.5234843561
 10
-2.1716529393
 20
6.5217322291
  0
LWPOLYLINE
  5
330
100
AcDbEntity
  8
ASSI
100
AcDbPolyline
 62
7
  6
CONTINUOUS
 90
9
 70
0
 10
-12.7102225883
 20
-8.6949339021
 10
-12.7178448528
 20
-8.7046959885
 10
-12.7238838324
 20
-8.714220527
 10
-12.7283395271
 20
-8.7235075178
 10
-12.7312780198
 20
-8.7330086747
 10
-12.7326332276
 20
-8.7422722838
 10
-12.7322069017
 20
-8.749943203
 10
-12.7297250681
 20
-8.7557764996
 10
-12.7263849212
 20
-8.7596527078
  0
LWPOLYLINE
  5
331
100
AcDbEntity
  8
ASSI
100
AcDbPolyline
 62
7
  6
CONTINUOUS
 90
9
 70
0
 10
-12.0031158071
 20
-9.1949339021
 10
-12.0107380716
 20
-9.2046959885
 10
-12.0167770512
 20
-9.214220527
 10
-12.0212327459
 20
-9.2235075178
 10
-12.0241712386
 20
-9.2330086747
 10
-12.0255264464
 20
-9.2422722838
 10
-12.0251001206
 20
-9.249943203
 10
-12.0226182869
 20
-9.2557764996
 10
-12.01927814
 20
-9.2596527078
  0
LWPOLYLINE
  5
332
100
AcDbEntity
  8
ASSI
100
AcDbPolyline
 62
7
  6
CONTINUOUS
 90
9
 70
0
 10
-11.2960090259
 20
-9.6949339021
 10
-11.3036312904
 20
-9.7046959885
 10
-11.30967027
 20
-9.714220527
 10
-11.3141259647
 20
-9.7235075178
 10
-11.3170644574
 20
-9.7330086747
 10
-11.3184196652
 20
-9.7422722838
 10
-11.3179933394
 20
-9.749943203
 10
-11.3155115057
 20
-9.7557764996
 10
-11.3121713588
 20
-9.7596527078
  0
LINE
  5
333
100
AcDbEntity
  8
ASSI
100
AcDbLine
 62
7
  6
CONTINUOUS
 10
-13.1178056265
 20
-8.3023566483
 11
-12.0782459955
 21
-7.1646414657
  0
LINE
  5
334
100
AcDbEntity
  8
ASSI
100
AcDbLine
 62
7
  6
CONTINUOUS
 10
-12.7996075749
 20
-8.5273566483
 11
-12.0863042392
 21
-7.7467029843
  0
LINE
  5
335
100
AcDbEntity
  8
ASSI
100
AcDbLine
 62
7
  6
CONTINUOUS
 10
-11.9441505871
 20
-7.8565291385
 11
-12.7102225883
 21
-8.6949339021
  0
LINE
  5
336
100
AcDbEntity
  8
ASSI
100
AcDbLine
 62
7
  6
CONTINUOUS
 10
-12.4106988453
 20
-8.8023566483
 11
-11.7025624276
 21
-8.0273577644
  0
LINE
  5
337
100
AcDbEntity
  8
ASSI
100
AcDbLine
 62
7
  6
CONTINUOUS
 10
-12.0925007937
 20
-9.0273566483
 11
-11.3843643761
 21
-8.2523577644
  0
LINE
  5
338
100
AcDbEntity
  8
ASSI
100
AcDbLine
 62
7
  6
CONTINUOUS
 10
-11.2370438059
 20
-8.3565291385
 11
-12.0031158071
 21
-9.1949339021
  0
LINE
  5
339
100
AcDbEntity
  8
ASSI
100
AcDbLine
 62
7
  6
CONTINUOUS
 10
-11.7035920641
 20
-9.3023566483
 11
-10.9954556464
 21
-8.5273577644
  0
LINE
  5
33A
100
AcDbEntity
  8
0
100
AcDbLine
 62
250
  6
CONTINUOUS
 10
13.315262573
 20
13.2588904229
 11
13.1004315443
 21
13.1015845898
  0
LINE
  5
33B
100
AcDbEntity
  8
RACCORDO
100
AcDbLine
 62
250
  6
CONTINUOUS
 10
7.1685364432
 20
9.9773894535
 11
0.6350450548
 21
5.2414448883
  0
LINE
  5
33C
100
AcDbEntity
  8
0
100
AcDbLine
 62
250
  6
CONTINUOUS
 10
7.1685364432
 20
9.9773894535
 11
0.6350450548
 21
5.2414448883
  0
LINE
  5
33D
100
AcDbEntity
  8
RACCORDO
100
AcDbLine
 62
250
  6
CONTINUOUS
 10
7.5826869189
 20
8.6846931486
 11
0.6350450548
 21
3.6485425255
  0
LINE
  5
33E
100
AcDbEntity
  8
0
100
AcDbLine
 62
250
  6
CONTINUOUS
 10
7.5826869189
 20
8.6846931486
 11
0.6350450548
 21
3.6485425255
  0
LINE
  5
33F
100
AcDbEntity
  8
RACCORDO
100
AcDbLine
 62
250
  6
CONTINUOUS
 10
7.1786579993
 20
9.9632228377
 11
21.9473271407
 21
20.5149252065
  0
LINE
  5
340
100
AcDbEntity
  8
0
100
AcDbLine
 62
250
  6
CONTINUOUS
 10
7.1786579993
 20
9.9632228377
 11
21.9473271407
 21
20.5149252065
  0
LINE
  5
341
100
AcDbEntity
  8
0
100
AcDbLine
 62
7
  6
CONTINUOUS
 10
-16.9895914663
 20
-6.7757259646
 11
-13.8105936913
 21
-4.5278350805
  0
LINE
  5
342
100
AcDbEntity
  8
0
100
AcDbLine
 62
7
  6
CONTINUOUS
 10
-16.9895914663
 20
-8.1192288489
 11
-12.8605936913
 21
-5.1995865227
  0
LINE
  5
343
100
AcDbEntity
  8
RACCORDO
100
AcDbLine
 62
7
  6
CONTINUOUS
 10
-17.8911526123
 20
-7.9706375785
 11
-18.6594936177
 21
-8.5111833529
  0
LWPOLYLINE
  5
344
100
AcDbEntity
  8
RACCORDO
100
AcDbPolyline
 62
7
  6
CONTINUOUS
 90
14
 70
0
 10
-18.6630341464
 20
-8.5136916233
 10
-18.6754488419
 20
-8.5224256163
 10
-18.6880767098
 20
-8.531184527
 10
-18.700905109
 20
-8.5399445392
 10
-18.7139384686
 20
-8.5486719821
 10
-18.7271499156
 20
-8.5573543707
 10
-18.7404812927
 20
-8.5660002435
 10
-18.7539211901
 20
-8.5745860608
 10
-18.7674641552
 20
-8.583092063
 10
-18.7810622216
 20
-8.5915335078
 10
-18.7947061342
 20
-8.5998901684
 10
-18.8083931018
 20
-8.6081434109
 10
-18.8220856505
 20
-8.6163126974
 10
-18.8357767925
 20
-8.6243811416
  0
LWPOLYLINE
  5
345
100
AcDbEntity
  8
RACCORDO
100
AcDbPolyline
 62
250
  6
CONTINUOUS
 90
34
 70
0
 10
-6.2617083
 20
0.9686711183
 10
-6.2790026312
 20
0.9580904426
 10
-6.2970280927
 20
0.9480966157
 10
-6.3157447525
 20
0.9387117771
 10
-6.3351111471
 20
0.9299567171
 10
-6.3550843742
 20
0.9218508309
 10
-6.3756201866
 20
0.9144120756
 10
-6.3966730912
 20
0.9076569303
 10
-6.4181964493
 20
0.9016003599
 10
-6.4401425798
 20
0.8962557814
 10
-6.4624628653
 20
0.8916350348
 10
-6.4851078593
 20
0.8877483565
 10
-6.5080273961
 20
0.8846043568
 10
-6.5311707018
 20
0.8822100005
 10
-6.5544865068
 20
0.8805705918
 10
-6.5779231592
 20
0.8796897627
 10
-6.6014287395
 20
0.8795694644
 10
-6.6249511755
 20
0.8802099634
 10
-6.6484383578
 20
0.8816098408
 10
-6.6718382549
 20
0.8837659954
 10
-6.6950990286
 20
0.8866736507
 10
-6.7181691492
 20
0.8903263653
 10
-6.740997509
 20
0.8947160473
 10
-6.7635335362
 20
0.8998329723
 10
-6.7857273064
 20
0.9056658045
 10
-6.8075296535
 20
0.9122016225
 10
-6.8288922785
 20
0.9194259474
 10
-6.8497678565
 20
0.927322775
 10
-6.8701101415
 20
0.9358746115
 10
-6.8898740692
 20
0.9450625118
 10
-6.9090158561
 20
0.9548661218
 10
-6.9274930973
 20
0.9652637235
 10
-6.9452648598
 20
0.976232283
 10
-6.9622917738
 20
0.9877475015
  0
LINE
  5
346
100
AcDbEntity
  8
0
100
AcDbLine
 62
250
  6
CONTINUOUS
 10
5.8060756383
 20
-3.7086591518
 11
5.2899651037
 21
-3.7950409929
  0
LINE
  5
347
100
AcDbEntity
  8
RACCORDO
100
AcDbLine
 62
250
  6
CONTINUOUS
 10
-6.9622917738
 20
0.9877475015
 11
-21.7871378514
 21
11.470496693
  0
LWPOLYLINE
  5
348
100
AcDbEntity
  8
RACCORDO
100
AcDbPolyline
 62
7
  6
CONTINUOUS
 90
34
 70
0
 10
-0.0829356802
 20
6.1834153505
 10
-0.0836283896
 20
6.1985892668
 10
-0.0850260745
 20
6.214246993
 10
-0.0871264313
 20
6.2303522057
 10
-0.0899268032
 20
6.2468665729
 10
-0.093420447
 20
6.2637528824
 10
-0.0975966115
 20
6.2809751624
 10
-0.1024464312
 20
6.298493889
 10
-0.1079601196
 20
6.3162684431
 10
-0.1141233528
 20
6.3342602877
 10
-0.1209230494
 20
6.3524280493
 10
-0.1283447407
 20
6.3707299231
 10
-0.1363699361
 20
6.38912619
 10
-0.1449812865
 20
6.4075746659
 10
-0.1541602407
 20
6.4260329573
 10
-0.1638845696
 20
6.4444608935
 10
-0.1741330153
 20
6.462816294
 10
-0.1848832909
 20
6.4810570254
 10
-0.1961098744
 20
6.4991432515
 10
-0.2077880184
 20
6.5170336241
 10
-0.2198921348
 20
6.5346871007
 10
-0.2323939139
 20
6.5520649673
 10
-0.2452656033
 20
6.5691275222
 10
-0.2584788151
 20
6.5858356242
 10
-0.2720030116
 20
6.6021524493
 10
-0.2858079776
 20
6.6180407257
 10
-0.2998630826
 20
6.633463989
 10
-0.314136169
 20
6.6483880405
 10
-0.32858906
 20
6.6627729717
 10
-0.3431954441
 20
6.6765920192
 10
-0.3579408484
 20
6.6898302213
 10
-0.3727986304
 20
6.7024600828
 10
-0.3877293844
 20
6.7144441917
 10
-0.4026993119
 20
6.7257522704
  0
LWPOLYLINE
  5
349
100
AcDbEntity
  8
RACCORDO
100
AcDbPolyline
 62
250
  6
CONTINUOUS
 90
31
 70
0
 10
-2.0268959078
 20
6.9216667075
 10
-2.0271908847
 20
6.9310525876
 10
-2.027966738
 20
6.9407573317
 10
-2.029221341
 20
6.9507543408
 10
-2.0309512553
 20
6.9610162151
 10
-2.0331517395
 20
6.9715148287
 10
-2.0358167624
 20
6.9822214069
 10
-2.0389390197
 20
6.993106605
 10
-2.0425099539
 20
7.0041405885
 10
-2.0465197777
 20
7.0152931156
 10
-2.050957501
 20
7.0265336192
 10
-2.0558109608
 20
7.0378312911
 10
-2.0610668546
 20
7.0491551667
 10
-2.0667107771
 20
7.0604742092
 10
-2.0727272593
 20
7.0717573953
 10
-2.0790998111
 20
7.0829737998
 10
-2.0858109666
 20
7.0940926809
 10
-2.0928423319
 20
7.1050835636
 10
-2.1001746351
 20
7.115916324
 10
-2.1077877799
 20
7.1265612716
 10
-2.1156609001
 20
7.1369892305
 10
-2.1237724168
 20
7.1471716197
 10
-2.1321000981
 20
7.1570805312
 10
-2.1406211191
 20
7.1666888064
 10
-2.1493121255
 20
7.175970111
 10
-2.1581492969
 20
7.1848990066
 10
-2.1671084121
 20
7.1934510207
 10
-2.1761649159
 20
7.2016027139
 10
-2.1852939862
 20
7.209331744
 10
-2.1944706019
 20
7.216616927
 10
-2.2036696115
 20
7.2234382958
  0
LWPOLYLINE
  5
34A
100
AcDbEntity
  8
RACCORDO
100
AcDbPolyline
 62
7
  6
CONTINUOUS
 90
34
 70
0
 10
-0.425615117
 20
8.0501067284
 10
-0.4258151731
 20
8.0586596545
 10
-0.4264154105
 20
8.0674762215
 10
-0.4274143685
 20
8.0765365321
 10
-0.4288096041
 20
8.0858201934
 10
-0.4305979523
 20
8.0953061809
 10
-0.4327755336
 20
8.1049728865
 10
-0.4353373581
 20
8.1147984558
 10
-0.4382775324
 20
8.1247606968
 10
-0.4415895274
 20
8.1348369482
 10
-0.4452658045
 20
8.145004412
 10
-0.4492979648
 20
8.1552401076
 10
-0.4536769621
 20
8.1655207822
 10
-0.4583928626
 20
8.1758231586
 10
-0.4634349326
 20
8.1861239355
 10
-0.4687917933
 20
8.1963997425
 10
-0.4744513175
 20
8.2066272971
 10
-0.4804006555
 20
8.2167834522
 10
-0.4866263272
 20
8.2268451963
 10
-0.4931142597
 20
8.236789716
 10
-0.4998497486
 20
8.2465944897
 10
-0.5068174878
 20
8.2562373341
 10
-0.5140017449
 20
8.2656963694
 10
-0.5213862605
 20
8.2749501586
 10
-0.5289542149
 20
8.2839777986
 10
-0.5366885364
 20
8.292758789
 10
-0.5445717423
 20
8.3012732137
 10
-0.5525858418
 20
8.309501876
 10
-0.5607127722
 20
8.3174260722
 10
-0.5689341832
 20
8.3250278126
 10
-0.5772312799
 20
8.3322899975
 10
-0.5855852733
 20
8.3391961736
 10
-0.5939774224
 20
8.3457305708
 10
-0.6023888207
 20
8.3518783167
  0
LWPOLYLINE
  5
34B
100
AcDbEntity
  8
RACCORDO
100
AcDbPolyline
 62
7
  6
CONTINUOUS
 90
17
 70
0
 10
-2.2994480872
 20
18.298114211
 10
-2.3000212716
 20
18.3260895117
 10
-2.3017203846
 20
18.3531384125
 10
-2.3045454261
 20
18.3792609132
 10
-2.3085058607
 20
18.4045004047
 10
-2.3135922238
 20
18.4288134962
 10
-2.3197761222
 20
18.4520700154
 10
-2.3270587376
 20
18.4742541501
 10
-2.3354388883
 20
18.4953817125
 10
-2.3448846355
 20
18.5153699672
 10
-2.355408494
 20
18.5342262725
 10
-2.3669979491
 20
18.5519432702
 10
-2.3795835178
 20
18.56841615
 10
-2.3931587037
 20
18.5836262063
 10
-2.4077300032
 20
18.5975921448
 10
-2.4232474233
 20
18.6102652718
 10
-2.429214202
 20
18.6146175818
  0
LWPOLYLINE
  5
34C
100
AcDbEntity
  8
RACCORDO
100
AcDbPolyline
 62
250
  6
CONTINUOUS
 90
31
 70
0
 10
0.1026520547
 20
8.4249285084
 10
0.102462934
 20
8.4343655851
 10
0.1017887507
 20
8.4441221193
 10
0.1006304347
 20
8.4541720291
 10
0.0989898532
 20
8.46449053
 10
0.0968707911
 20
8.4750477455
 10
0.0942799395
 20
8.4858083256
 10
0.0912251222
 20
8.4967403537
 10
0.0877142002
 20
8.5078161881
 10
0.0837566826
 20
8.5190057782
 10
0.0793632943
 20
8.5302786732
 10
0.074546118
 20
8.5416037552
 10
0.0693184913
 20
8.5529496331
 10
0.0636948264
 20
8.5642850509
 10
0.0576904811
 20
8.5755790745
 10
0.051321865
 20
8.5868008343
 10
0.0446064052
 20
8.5979196058
 10
0.0375625351
 20
8.6089048528
 10
0.0302095921
 20
8.6197264094
 10
0.0225677454
 20
8.6303545897
 10
0.0146579388
 20
8.6407602624
 10
0.0065018626
 20
8.6509148898
 10
-0.0018781218
 20
8.6607906282
 10
-0.0104590357
 20
8.6703603943
 10
-0.0192173426
 20
8.6795979374
 10
-0.0281290328
 20
8.6884779323
 10
-0.0371696647
 20
8.6969760228
 10
-0.0463144223
 20
8.7050688829
 10
-0.0555382206
 20
8.7127343171
 10
-0.064815776
 20
8.7199513171
 10
-0.0741216489
 20
8.7267000967
  0
LINE
  5
34D
100
AcDbEntity
  8
RACCORDO
100
AcDbLine
 62
250
  6
CONTINUOUS
 10
-2.0268959078
 20
-27.3544939756
 11
-2.0268959078
 21
-27.0769064208
  0
LINE
  5
34E
100
AcDbEntity
  8
RACCORDO
100
AcDbLine
 62
250
  6
CONTINUOUS
 10
-2.0268959078
 20
6.6440791527
 11
-2.0268959078
 21
6.9216667075
  0
LINE
  5
34F
100
AcDbEntity
  8
RACCORDO
100
AcDbLine
 62
250
  6
CONTINUOUS
 10
-1.6681972594
 20
6.5846218713
 11
-1.6681972594
 21
6.0650076065
  0
LINE
  5
350
100
AcDbEntity
  8
RACCORDO
100
AcDbLine
 62
250
  6
CONTINUOUS
 10
-1.6681972594
 20
-25.9647963388
 11
-1.6681972594
 21
-26.0687798716
  0
LINE
  5
351
100
AcDbEntity
  8
RACCORDO
100
AcDbLine
 62
250
  6
CONTINUOUS
 10
-1.3156752997
 20
6.7329219473
 11
-1.3156752997
 21
6.0734930813
  0
LINE
  5
352
100
AcDbEntity
  8
RACCORDO
100
AcDbLine
 62
250
  6
CONTINUOUS
 10
-1.3156752997
 20
-25.7426148752
 11
-1.3156752997
 21
-26.1715670452
  0
LINE
  5
353
100
AcDbEntity
  8
RACCORDO
100
AcDbLine
 62
7
  6
CONTINUOUS
 10
-0.425615117
 20
-25.1807013961
 11
-0.425615117
 21
-26.2445781424
  0
LINE
  5
354
100
AcDbEntity
  8
RACCORDO
100
AcDbLine
 62
7
  6
CONTINUOUS
 10
-0.425615117
 20
6.7419561916
 11
-0.425615117
 21
8.0501067284
  0
LINE
  5
355
100
AcDbEntity
  8
RACCORDO
100
AcDbLine
 62
250
  6
CONTINUOUS
 10
0.1026520547
 20
8.4249285084
 11
0.1026520547
 21
8.1411702132
  0
LINE
  5
356
100
AcDbEntity
  8
RACCORDO
100
AcDbLine
 62
250
  6
CONTINUOUS
 10
0.1026520547
 20
-25.5798153603
 11
0.1026520547
 21
-25.8635736555
  0
LINE
  5
357
100
AcDbEntity
  8
RACCORDO
100
AcDbLine
 62
7
  6
CONTINUOUS
 10
0.1748499117
 20
8.5491991766
 11
0.1748499117
 21
8.2654408814
  0
LINE
  5
358
100
AcDbEntity
  8
RACCORDO
100
AcDbLine
 62
7
  6
CONTINUOUS
 10
0.1748499117
 20
-25.4555446921
 11
0.1748499117
 21
-25.7393029873
  0
LWPOLYLINE
  5
359
100
AcDbEntity
  8
RACCORDO
100
AcDbPolyline
 62
250
  6
CONTINUOUS
 90
22
 70
0
 10
-2.3794178675
 20
-27.0761813197
 10
-2.3791980128
 20
-27.0672121182
 10
-2.3785389956
 20
-27.0579543038
 10
-2.3774424548
 20
-27.048430904
 10
-2.3759111239
 20
-27.0386656412
 10
-2.3739488086
 20
-27.0286827726
 10
-2.3715603628
 20
-27.0185070222
 10
-2.3687516927
 20
-27.0081636218
 10
-2.3655297872
 20
-26.9976783672
 10
-2.3619026896
 20
-26.9870774526
 10
-2.35787941
 20
-26.9763872155
 10
-2.3534699674
 20
-26.965634281
 10
-2.3486854309
 20
-26.9548456146
 10
-2.3435377975
 20
-26.9440482023
 10
-2.3380398295
 20
-26.9332687521
 10
-2.3322050958
 20
-26.9225338465
 10
-2.3260468793
 20
-26.9118681189
 10
-2.3195816051
 20
-26.9013002016
 10
-2.3128292383
 20
-26.8908622245
 10
-2.3058083794
 20
-26.8805818133
 10
-2.2985356585
 20
-26.8704822358
 10
-2.2910295198
 20
-26.8605882108
  0
LWPOLYLINE
  5
35A
100
AcDbEntity
  8
RACCORDO
100
AcDbPolyline
 62
250
  6
CONTINUOUS
 90
16
 70
0
 10
0.1748499117
 20
8.5491991766
 10
0.1745466907
 20
8.5404951952
 10
0.1735651849
 20
8.5313006726
 10
0.1719070071
 20
8.522154846
 10
0.1695766686
 20
8.513082598
 10
0.1665805094
 20
8.5041086114
 10
0.1629266812
 20
8.4952573012
 10
0.1586251248
 20
8.4865527491
 10
0.1536875433
 20
8.4780186371
 10
0.1481273702
 20
8.469678184
 10
0.141959733
 20
8.4615540811
 10
0.1352014117
 20
8.4536684316
 10
0.1278707935
 20
8.4460426896
 10
0.1199878225
 20
8.4386976024
 10
0.1115739458
 20
8.4316531535
 10
0.1026520547
 20
8.4249285084
  0
LWPOLYLINE
  5
35B
100
AcDbEntity
  8
RACCORDO
100
AcDbPolyline
 62
250
  6
CONTINUOUS
 90
16
 70
0
 10
0.1748499117
 20
8.2654408814
 10
0.1745455952
 20
8.2567212008
 10
0.1735627959
 20
8.2475257868
 10
0.1719031906
 20
8.2383791241
 10
0.1695712711
 20
8.2293060209
 10
0.1665733953
 20
8.220331251
 10
0.1629178203
 20
8.2114794557
 10
0.1586146188
 20
8.202774855
 10
0.1536754922
 20
8.1942409736
 10
0.1481137791
 20
8.1859008111
 10
0.1419439589
 20
8.1777762514
 10
0.1351833517
 20
8.1698902559
 10
0.1278524693
 20
8.1622663651
 10
0.1199724734
 20
8.1549257559
 10
0.1115645784
 20
8.1478874185
 10
0.1026520547
 20
8.1411702132
  0
LWPOLYLINE
  5
35C
100
AcDbEntity
  8
ASSI
100
AcDbPolyline
 62
7
  6
CONTINUOUS
 90
20
 70
0
 10
0.6033956347
 20
14.728654269
 10
0.6033571505
 20
14.7278265
 10
0.6026089131
 20
14.7246172708
 10
0.6009470457
 20
14.7210338927
 10
0.5984163279
 20
14.7171103899
 10
0.5950632865
 20
14.7128710412
 10
0.5909349502
 20
14.7083383903
 10
0.5860609625
 20
14.7035415569
 10
0.580485936
 20
14.6985067817
 10
0.5742462083
 20
14.6932425558
 10
0.5673383147
 20
14.6877529209
 10
0.5597735094
 20
14.6820447688
 10
0.5515938324
 20
14.6761440125
 10
0.5428302889
 20
14.6700845293
 10
0.5335094364
 20
14.6638726607
 10
0.5236639295
 20
14.6575264198
 10
0.5133368785
 20
14.6510941277
 10
0.5025649683
 20
14.6445962687
 10
0.4913759894
 20
14.6380266799
 10
0.4798015708
 20
14.6313907871
  0
LWPOLYLINE
  5
35D
100
AcDbEntity
  8
ASSI
100
AcDbPolyline
 62
7
  6
CONTINUOUS
 90
9
 70
0
 10
-10.5889022448
 20
-10.1949339021
 10
-10.5965245092
 20
-10.2046959885
 10
-10.6025634888
 20
-10.214220527
 10
-10.6070191835
 20
-10.2235075178
 10
-10.6099576762
 20
-10.2330086747
 10
-10.611312884
 20
-10.2422722838
 10
-10.6108865582
 20
-10.249943203
 10
-10.6084047245
 20
-10.2557764996
 10
-10.6050645776
 20
-10.2596527078
  0
LINE
  5
35E
100
AcDbEntity
  8
ASSI
100
AcDbLine
 62
7
  6
CONTINUOUS
 10
-11.3853940126
 20
-9.5273566483
 11
-10.6772575949
 21
-8.7523577644
  0
LINE
  5
35F
100
AcDbEntity
  8
ASSI
100
AcDbLine
 62
7
  6
CONTINUOUS
 10
-10.5299370247
 20
-8.8565291385
 11
-11.2960090259
 21
-9.6949339021
  0
LINE
  5
360
100
AcDbEntity
  8
ASSI
100
AcDbLine
 62
7
  6
CONTINUOUS
 10
-10.9964852829
 20
-9.8023566483
 11
-10.2883488652
 21
-9.0273577644
  0
LINE
  5
361
100
AcDbEntity
  8
ASSI
100
AcDbLine
 62
7
  6
CONTINUOUS
 10
-10.6782872314
 20
-10.0273566483
 11
-10.1043626087
 21
-9.3992418799
  0
LINE
  5
362
100
AcDbEntity
  8
ASSI
100
AcDbLine
 62
7
  6
CONTINUOUS
 10
-10.1059129041
 20
-9.6663405541
 11
-10.5889022448
 21
-10.1949339021
  0
LINE
  5
363
100
AcDbEntity
  8
0
100
AcDbLine
 62
250
  6
CONTINUOUS
 10
15.1371824084
 20
13.6737168921
 11
14.7791307138
 21
13.4115405183
  0
LINE
  5
364
100
AcDbEntity
  8
0
100
AcDbLine
 62
250
  6
CONTINUOUS
 10
13.4584832986
 20
12.4445221919
 11
12.9572108784
 21
12.0774752335
  0
LINE
  5
365
100
AcDbEntity
  8
0
100
AcDbLine
 62
250
  6
CONTINUOUS
 10
12.6707695466
 20
11.8677341519
 11
12.312717852
 21
11.605557778
  0
LINE
  5
366
100
AcDbEntity
  8
0
100
AcDbLine
 62
250
  6
CONTINUOUS
 10
13.4938169689
 20
12.4703945832
 11
13.9106754807
 21
12.7756311027
  0
LINE
  5
367
100
AcDbEntity
  8
0
100
AcDbLine
 62
250
  6
CONTINUOUS
 10
14.3275339926
 20
13.0808676222
 11
14.7443925044
 21
13.3861041416
  0
LINE
  5
368
100
AcDbEntity
  8
0
100
AcDbLine
 62
250
  6
CONTINUOUS
 10
17.7008126046
 20
15.0559103837
 11
17.4143712728
 21
14.8461693021
  0
LINE
  5
369
100
AcDbEntity
  8
0
100
AcDbLine
 62
250
  6
CONTINUOUS
 10
16.9847092751
 20
14.5315576797
 11
16.4118265518
 21
14.1120754727
  0
LINE
  5
36A
100
AcDbEntity
  8
0
100
AcDbLine
 62
250
  6
CONTINUOUS
 10
10.9749990627
 20
10.1310645239
 11
10.4021163394
 21
9.7115823169
  0
LINE
  5
36B
100
AcDbEntity
  8
0
100
AcDbLine
 62
250
  6
CONTINUOUS
 10
5.6770479845
 20
5.7201765164
 11
6.193158546
 21
6.0980884145
  0
LINE
  5
36C
100
AcDbEntity
  8
0
100
AcDbLine
 62
250
  6
CONTINUOUS
 10
17.6292023015
 20
14.0842363196
 11
17.34276091
 21
13.8744951943
  0
LINE
  5
36D
100
AcDbEntity
  8
0
100
AcDbLine
 62
250
  6
CONTINUOUS
 10
16.3770883425
 20
13.1674002806
 11
14.7443925044
 21
11.9718905793
  0
LINE
  5
36E
100
AcDbEntity
  8
0
100
AcDbLine
 62
250
  6
CONTINUOUS
 10
13.4938169689
 20
11.0561810208
 11
11.8611211308
 21
9.8606713195
  0
LINE
  5
36F
100
AcDbEntity
  8
0
100
AcDbLine
 62
250
  6
CONTINUOUS
 10
6.193158546
 20
5.1506165304
 11
5.2899651037
 21
4.4892707382
  0
LINE
  5
370
100
AcDbEntity
  8
0
100
AcDbLine
 62
250
  6
CONTINUOUS
 10
12.5558853172
 20
8.9551852896
 11
15.6823241561
 21
11.2444591857
  0
LINE
  5
371
100
AcDbEntity
  8
ASSI
100
AcDbLine
 62
7
  6
CONTINUOUS
 10
-12.6974533045
 20
-8.7542288489
 11
-12.9780776085
 21
-8.9526601972
  0
LWPOLYLINE
  5
372
100
AcDbEntity
  8
RACCORDO
100
AcDbPolyline
 62
7
  6
CONTINUOUS
 90
3
 70
0
 10
-18.8357767925
 20
-8.6243811416
 10
-18.8631225928
 20
-8.6401854962
 10
-18.8767438433
 20
-8.6479287179
  0
LWPOLYLINE
  5
373
100
AcDbEntity
  8
RACCORDO
100
AcDbPolyline
 62
7
  6
CONTINUOUS
 90
3
 70
0
 10
-18.8767438433
 20
-8.6479287179
 10
-18.90385451
 20
-8.6630583108
 10
-18.9173182482
 20
-8.6704539603
  0
LWPOLYLINE
  5
374
100
AcDbEntity
  8
RACCORDO
100
AcDbPolyline
 62
7
  6
CONTINUOUS
 90
3
 70
0
 10
-18.9173182482
 20
-8.6704539603
 10
-18.9440429413
 20
-8.6848752793
 10
-18.9572850657
 20
-8.6919114304
  0
LWPOLYLINE
  5
375
100
AcDbEntity
  8
RACCORDO
100
AcDbPolyline
 62
7
  6
CONTINUOUS
 90
3
 70
0
 10
-18.9572850657
 20
-8.6919114304
 10
-18.9835132232
 20
-8.7056077103
 10
-18.9964839853
 20
-8.7122777441
  0
LWPOLYLINE
  5
376
100
AcDbEntity
  8
RACCORDO
100
AcDbPolyline
 62
7
  6
CONTINUOUS
 90
3
 70
0
 10
-18.9964839853
 20
-8.7122777441
 10
-19.0221264085
 20
-8.7252386793
 10
-19.034785173
 20
-8.7315385908
  0
LWPOLYLINE
  5
377
100
AcDbEntity
  8
RACCORDO
100
AcDbPolyline
 62
7
  6
CONTINUOUS
 90
3
 70
0
 10
-19.034785173
 20
-8.7315385908
 10
-19.0597674331
 20
-8.743757564
 10
-19.0720795812
 20
-8.7496846395
  0
LWPOLYLINE
  5
378
100
AcDbEntity
  8
RACCORDO
100
AcDbPolyline
 62
7
  6
CONTINUOUS
 90
3
 70
0
 10
-19.0720795812
 20
-8.7496846395
 10
-19.0963368686
 20
-8.76115671
 10
-19.1082716346
 20
-8.766708737
  0
LWPOLYLINE
  5
379
100
AcDbEntity
  8
RACCORDO
100
AcDbPolyline
 62
7
  6
CONTINUOUS
 90
26
 70
0
 10
-19.1082716346
 20
-8.766708737
 10
-19.1317451156
 20
-8.777429442
 10
-19.1432739797
 20
-8.7826042237
 10
-19.1546651025
 20
-8.7876474025
 10
-19.1659080401
 20
-8.7925688495
 10
-19.1770035786
 20
-8.7973639594
 10
-19.1879524701
 20
-8.8020272022
 10
-19.1987439249
 20
-8.8065672575
 10
-19.2093788468
 20
-8.8109799159
 10
-19.2198582826
 20
-8.8152602968
 10
-19.2301714641
 20
-8.8194162379
 10
-19.240319744
 20
-8.8234440435
 10
-19.2503041343
 20
-8.8273392818
 10
-19.2601132801
 20
-8.8311088554
 10
-19.2697487858
 20
-8.8347494948
 10
-19.2792119236
 20
-8.8382572963
 10
-19.2884909141
 20
-8.8416384266
 10
-19.2975876866
 20
-8.844890098
 10
-19.3065037897
 20
-8.8480089139
 10
-19.3152271004
 20
-8.8510004205
 10
-19.3237598957
 20
-8.8538623314
 10
-19.332104082
 20
-8.8565918198
 10
-19.3402473614
 20
-8.8591940177
 10
-19.3481873793
 20
-8.8616693794
 10
-19.3559315296
 20
-8.8640135611
 10
-19.3634824121
 20
-8.8662248466
  0
LINE
  5
37A
100
AcDbEntity
  8
0
100
AcDbLine
 62
250
  6
CONTINUOUS
 10
6.193158546
 20
4.2760263878
 11
5.2899651037
 21
3.9062099944
  0
LINE
  5
37B
100
AcDbEntity
  8
RACCORDO
100
AcDbLine
 62
250
  6
CONTINUOUS
 10
-5.9463533806
 20
2.7051846494
 11
-20.7945718414
 21
13.2044606116
  0
LINE
  5
37C
100
AcDbEntity
  8
ASSI
100
AcDbLine
 62
250
  6
CONTINUOUS
 10
0.4798015708
 20
13.6295086842
 11
0.4798015708
 21
14.6313907871
  0
LINE
  5
37D
100
AcDbEntity
  8
ASSI
100
AcDbLine
 62
7
  6
CONTINUOUS
 10
0.6033956347
 20
13.840393095
 11
0.6033956347
 21
14.7286561396
  0
LINE
  5
37E
100
AcDbEntity
  8
0
100
AcDbLine
 62
7
  6
CONTINUOUS
 10
0.6350450548
 20
3.6485425255
 11
0.6350450548
 21
-21.3430139394
  0
LINE
  5
37F
100
AcDbEntity
  8
RACCORDO
100
AcDbLine
 62
7
  6
CONTINUOUS
 10
0.6350450548
 20
-24.361998147
 11
0.6350450548
 21
6.6675267331
  0
LWPOLYLINE
  5
380
100
AcDbEntity
  8
RACCORDO
100
AcDbPolyline
 62
250
  6
CONTINUOUS
 90
16
 70
0
 10
0.1748499117
 20
-25.7393029873
 10
0.1745486412
 20
-25.7479789455
 10
0.1735689226
 20
-25.757175503
 10
0.1719122336
 20
-25.7663234343
 10
0.1695830821
 20
-25.7753978299
 10
0.1665878018
 20
-25.7843740006
 10
0.162934543
 20
-25.7932275103
 10
0.1586332449
 20
-25.801934262
 10
0.1536956123
 20
-25.8104705547
 10
0.148135087
 20
-25.8188131454
 10
0.1419667979
 20
-25.8269393317
 10
0.1352075366
 20
-25.8348269886
 10
0.1278757228
 20
-25.8424546234
 10
0.1199913246
 20
-25.8498014691
 10
0.1115757989
 20
-25.8568475386
 10
0.1026520547
 20
-25.8635736555
  0
LWPOLYLINE
  5
381
100
AcDbEntity
  8
RACCORDO
100
AcDbPolyline
 62
250
  6
CONTINUOUS
 90
16
 70
0
 10
0.1748499117
 20
-25.4555446921
 10
0.1745466907
 20
-25.4642486735
 10
0.1735651849
 20
-25.473443196
 10
0.1719070071
 20
-25.4825890227
 10
0.1695766686
 20
-25.4916612706
 10
0.1665805094
 20
-25.5006352573
 10
0.1629266812
 20
-25.5094865675
 10
0.1586251248
 20
-25.5181911196
 10
0.1536875433
 20
-25.5267252315
 10
0.1481273702
 20
-25.5350656847
 10
0.141959733
 20
-25.5431897876
 10
0.1352014117
 20
-25.5510754371
 10
0.1278707935
 20
-25.558701179
 10
0.1199878225
 20
-25.5660462662
 10
0.1115739458
 20
-25.5730907152
 10
0.1026520547
 20
-25.5798153603
  0
LWPOLYLINE
  5
382
100
AcDbEntity
  8
RACCORDO
100
AcDbPolyline
 62
7
  6
CONTINUOUS
 90
14
 70
0
 10
-0.0829936594
 20
-24.858466079
 10
-0.0836852542
 20
-24.8735829359
 10
-0.0850814063
 20
-24.8881441567
 10
-0.0871798135
 20
-24.9021176496
 10
-0.0899776278
 20
-24.9154732923
 10
-0.0934683012
 20
-24.9281811287
 10
-0.0976416618
 20
-24.9402113755
 10
-0.1024890622
 20
-24.9515375897
 10
-0.1080004956
 20
-24.9621350376
 10
-0.1141615577
 20
-24.9719787729
 10
-0.1209591459
 20
-24.9810472512
 10
-0.128378812
 20
-24.9893207484
 10
-0.1364020482
 20
-24.9967795414
 10
-0.1454159026
 20
-25.0036882541
  0
LINE
  5
383
100
AcDbEntity
  8
0
100
AcDbLine
 62
250
  6
CONTINUOUS
 10
5.2899651037
 20
5.145212737
 11
5.6770479845
 21
5.7201765164
  0
LINE
  5
384
100
AcDbEntity
  8
0
100
AcDbLine
 62
250
  6
CONTINUOUS
 10
5.2899651037
 20
3.9062099944
 11
6.193158546
 21
4.8590866451
  0
LINE
  5
385
100
AcDbEntity
  8
0
100
AcDbLine
 62
250
  6
CONTINUOUS
 10
5.2899651037
 20
3.0316203384
 11
6.193158546
 21
3.6929661306
  0
LINE
  5
386
100
AcDbEntity
  8
0
100
AcDbLine
 62
250
  6
CONTINUOUS
 10
5.2899651037
 20
2.2785010625
 11
6.193158546
 21
2.9398468547
  0
LINE
  5
387
100
AcDbEntity
  8
0
100
AcDbLine
 62
250
  6
CONTINUOUS
 10
15.6823241561
 20
8.6988747735
 11
14.9875599697
 21
8.190147241
  0
LINE
  5
388
100
AcDbEntity
  8
0
100
AcDbLine
 62
250
  6
CONTINUOUS
 10
13.2506495037
 20
6.9183284098
 11
12.5558853172
 21
6.4096008774
  0
LINE
  5
389
100
AcDbEntity
  8
0
100
AcDbLine
 62
250
  6
CONTINUOUS
 10
6.193158546
 20
1.6522559601
 11
5.2899651037
 21
0.9909101679
  0
LINE
  5
38A
100
AcDbEntity
  8
0
100
AcDbLine
 62
250
  6
CONTINUOUS
 10
6.193158546
 20
1.1420784175
 11
5.2899651037
 21
0.4807326253
  0
LINE
  5
38B
100
AcDbEntity
  8
0
100
AcDbLine
 62
250
  6
CONTINUOUS
 10
14.9875599697
 20
7.4830404598
 11
13.2506495037
 21
6.2112216286
  0
LINE
  5
38C
100
AcDbEntity
  8
ASSI
100
AcDbLine
 62
7
  6
CONTINUOUS
 10
-11.9903465233
 20
-9.2542288489
 11
-12.2709708273
 21
-9.4526601972
  0
LINE
  5
38D
100
AcDbEntity
  8
ASSI
100
AcDbLine
 62
7
  6
CONTINUOUS
 10
-11.2832397421
 20
-9.7542288489
 11
-11.5638640461
 21
-9.9526601972
  0
LINE
  5
38E
100
AcDbEntity
  8
ASSI
100
AcDbLine
 62
7
  6
CONTINUOUS
 10
-10.5761329609
 20
-10.2542288489
 11
-10.856757265
 21
-10.4526601972
  0
LINE
  5
38F
100
AcDbEntity
  8
0
100
AcDbLine
 62
250
  6
CONTINUOUS
 10
6.0641309057
 20
-1.5518756655
 11
6.193158546
 21
-1.6031626336
  0
LWPOLYLINE
  5
390
100
AcDbEntity
  8
RACCORDO
100
AcDbPolyline
 62
250
  6
CONTINUOUS
 90
11
 70
0
 10
-13.2616661097
 20
17.5911702132
 10
-13.2573185486
 20
17.5866262507
 10
-13.2534684003
 20
17.582434054
 10
-13.2501261785
 20
17.5786050711
 10
-13.2473010104
 20
17.5751497582
 10
-13.2450006108
 20
17.5720775509
 10
-13.2432312615
 20
17.5693968389
 10
-13.2419977945
 20
17.5671149426
 10
-13.2413035779
 20
17.5652380933
 10
-13.2411505075
 20
17.5637714165
 10
-13.2415332218
 20
17.5627263648
  0
LINE
  5
391
100
AcDbEntity
  8
RACCORDO
100
AcDbLine
 62
250
  6
CONTINUOUS
 10
5.1907578137
 20
12.689562583
 11
5.1907578137
 21
12.2834943736
  0
LINE
  5
392
100
AcDbEntity
  8
0
100
AcDbLine
 62
250
  6
CONTINUOUS
 10
5.2899651037
 20
3.3231502238
 11
5.2899651037
 21
2.7400904531
  0
LINE
  5
393
100
AcDbEntity
  8
0
100
AcDbLine
 62
250
  6
CONTINUOUS
 10
5.2899651037
 20
-2.6289209042
 11
5.2899651037
 21
-2.2645084258
  0
LINE
  5
394
100
AcDbEntity
  8
0
100
AcDbLine
 62
250
  6
CONTINUOUS
 10
5.2899651037
 20
-1.7057424879
 11
5.2899651037
 21
-1.2684474166
  0
LINE
  5
395
100
AcDbEntity
  8
RACCORDO
100
AcDbLine
 62
7
  6
CONTINUOUS
 10
5.3310879135
 20
13.0386609479
 11
5.3310879135
 21
12.5312210648
  0
LINE
  5
396
100
AcDbEntity
  8
0
100
AcDbLine
 62
250
  6
CONTINUOUS
 10
5.2899651037
 20
0.4807326253
 11
6.193158546
 21
1.6522559601
  0
LINE
  5
397
100
AcDbEntity
  8
RACCORDO
100
AcDbLine
 62
7
  6
CONTINUOUS
 10
21.9473271407
 20
11.3733409657
 11
8.3633448975
 21
1.3707475455
  0
LINE
  5
398
100
AcDbEntity
  8
0
100
AcDbLine
 62
7
  6
CONTINUOUS
 10
21.9473271407
 20
11.3733409657
 11
8.3633448975
 21
1.3707475455
  0
LINE
  5
399
100
AcDbEntity
  8
0
100
AcDbLine
 62
250
  6
CONTINUOUS
 10
5.2899651037
 20
0.0191432347
 11
6.193158546
 21
0.6804890269
  0
LINE
  5
39A
100
AcDbEntity
  8
0
100
AcDbLine
 62
250
  6
CONTINUOUS
 10
6.193158546
 20
-1.0443966957
 11
5.2899651037
 21
-1.7057424879
  0
LINE
  5
39B
100
AcDbEntity
  8
0
100
AcDbLine
 62
250
  6
CONTINUOUS
 10
5.4189927306
 20
-2.0242655185
 11
6.0641309057
 21
-1.5518756655
  0
LINE
  5
39C
100
AcDbEntity
  8
0
100
AcDbLine
 62
250
  6
CONTINUOUS
 10
6.193158546
 20
-1.967575112
 11
5.2899651037
 21
-2.6289209042
  0
LINE
  5
39D
100
AcDbEntity
  8
0
100
AcDbLine
 62
7
  6
CONTINUOUS
 10
18.9471042949
 20
7.8216928332
 11
7.5826869189
 21
-0.2824143989
  0
LINE
  5
39E
100
AcDbEntity
  8
0
100
AcDbLine
 62
7
  6
CONTINUOUS
 10
20.7364798601
 20
9.0934975852
 11
18.9471042949
 21
7.8216928332
  0
LINE
  5
39F
100
AcDbEntity
  8
0
100
AcDbLine
 62
7
  6
CONTINUOUS
 10
18.4187806016
 20
8.2545409883
 11
16.1206835628
 21
6.6295409883
  0
LINE
  5
3A0
100
AcDbEntity
  8
0
100
AcDbLine
 62
7
  6
CONTINUOUS
 10
14.8832466957
 20
5.7545409883
 11
12.5851496568
 21
4.1295409883
  0
LINE
  5
3A1
100
AcDbEntity
  8
0
100
AcDbLine
 62
7
  6
CONTINUOUS
 10
12.5851496568
 20
3.4295409883
 11
15.4842874597
 21
5.4795409883
  0
LINE
  5
3A2
100
AcDbEntity
  8
0
100
AcDbLine
 62
7
  6
CONTINUOUS
 10
16.1206835628
 20
5.9295409883
 11
19.0198213656
 21
7.9795409883
  0
LINE
  5
3A3
100
AcDbEntity
  8
0
100
AcDbLine
 62
7
  6
CONTINUOUS
 10
18.9471042949
 20
7.8216928332
 11
21.7421824732
 21
9.7737192893
  0
LINE
  5
3A4
100
AcDbEntity
  8
0
100
AcDbLine
 62
250
  6
CONTINUOUS
 10
6.193158546
 20
-2.8421651937
 11
5.2899651037
 21
-3.2119809181
  0
LWPOLYLINE
  5
3A5
100
AcDbEntity
  8
RACCORDO
100
AcDbPolyline
 62
250
  6
CONTINUOUS
 90
31
 70
0
 10
-2.3794178675
 20
6.6448042537
 10
-2.3699598493
 20
6.6384565086
 10
-2.3600466123
 20
6.6324661173
 10
-2.3497051271
 20
6.6268493777
 10
-2.3389635296
 20
6.6216215711
 10
-2.3278510439
 20
6.6167969205
 10
-2.3163979035
 20
6.6123885524
 10
-2.3046352687
 20
6.6084084603
 10
-2.2925951417
 20
6.6048674729
 10
-2.2803102796
 20
6.6017752239
 10
-2.2678141056
 20
6.5991401263
 10
-2.2551406175
 20
6.5969693495
 10
-2.2423242958
 20
6.5952687993
 10
-2.2294000095
 20
6.5940431024
 10
-2.2164029212
 20
6.5932955935
 10
-2.2033683917
 20
6.5930283063
 10
-2.1903318837
 20
6.5932419681
 10
-2.1773288652
 20
6.5939359975
 10
-2.1643947131
 20
6.5951085063
 10
-2.151564617
 20
6.5967563044
 10
-2.1388734834
 20
6.5988749089
 10
-2.1263558405
 20
6.6014585556
 10
-2.1140457448
 20
6.6045002153
 10
-2.101976688
 20
6.6079916127
 10
-2.090181506
 20
6.6119232487
 10
-2.0786922895
 20
6.6162844269
 10
-2.067540297
 20
6.6210632817
 10
-2.0567558694
 20
6.6262468115
 10
-2.0463683474
 20
6.6318209137
 10
-2.0364059921
 20
6.637770423
 10
-2.0268959078
 20
6.6440791527
  0
LWPOLYLINE
  5
3A6
100
AcDbEntity
  8
RACCORDO
100
AcDbPolyline
 62
250
  6
CONTINUOUS
 90
31
 70
0
 10
-2.3794178675
 20
6.9223918086
 10
-2.3699577181
 20
6.916042706
 10
-2.3600421316
 20
6.9100511045
 10
-2.3496980937
 20
6.9044333149
 10
-2.3389537455
 20
6.8992046256
 10
-2.32783834
 20
6.8943792777
 10
-2.3163821664
 20
6.8899704214
 10
-2.3046164171
 20
6.8859900591
 10
-2.2925731098
 20
6.8824490206
 10
-2.2802850372
 20
6.8793569458
 10
-2.2677856496
 20
6.8767222491
 10
-2.2551089678
 20
6.874552099
 10
-2.2422895019
 20
6.8728524005
 10
-2.2293621304
 20
6.8716277758
 10
-2.2163620553
 20
6.8708815576
 10
-2.2033247119
 20
6.870615774
 10
-2.1902856406
 20
6.8708311379
 10
-2.1772802756
 20
6.8715270524
 10
-2.1643439013
 20
6.872701627
 10
-2.1515115621
 20
6.8743516933
 10
-2.138818355
 20
6.8764727517
 10
-2.1262992058
 20
6.8790589476
 10
-2.1139884091
 20
6.8821031405
 10
-2.1019192043
 20
6.885597054
 10
-2.0901240866
 20
6.8895312602
 10
-2.078632664
 20
6.8938960596
 10
-2.0674788475
 20
6.8986787527
 10
-2.0566996919
 20
6.9038629189
 10
-2.0463259259
 20
6.9094324961
 10
-2.0363826219
 20
6.9153726916
 10
-2.0268959078
 20
6.9216667075
  0
LWPOLYLINE
  5
3A7
100
AcDbEntity
  8
RACCORDO
100
AcDbPolyline
 62
250
  6
CONTINUOUS
 90
31
 70
0
 10
-15.7437360319
 20
16.0948042537
 10
-15.7342780137
 20
16.0884565086
 10
-15.7243647768
 20
16.0824661173
 10
-15.7140232916
 20
16.0768493777
 10
-15.703281694
 20
16.0716215711
 10
-15.6921692083
 20
16.0667969205
 10
-15.680716068
 20
16.0623885524
 10
-15.6689534331
 20
16.0584084603
 10
-15.6569133061
 20
16.0548674729
 10
-15.644628444
 20
16.0517752239
 10
-15.63213227
 20
16.0491401263
 10
-15.6194587819
 20
16.0469693495
 10
-15.6066424603
 20
16.0452687993
 10
-15.5937181739
 20
16.0440431024
 10
-15.5807210856
 20
16.0432955935
 10
-15.5676865561
 20
16.0430283063
 10
-15.5546500481
 20
16.0432419681
 10
-15.5416470296
 20
16.0439359975
 10
-15.5287128776
 20
16.0451085063
 10
-15.5158827815
 20
16.0467563044
 10
-15.5031916478
 20
16.0488749089
 10
-15.4906740049
 20
16.0514585556
 10
-15.4783639092
 20
16.0545002153
 10
-15.4662948524
 20
16.0579916127
 10
-15.4544996704
 20
16.0619232487
 10
-15.4430104539
 20
16.0662844269
 10
-15.4318584615
 20
16.0710632817
 10
-15.4210740338
 20
16.0762468115
 10
-15.4106865118
 20
16.0818209137
 10
-15.4007241565
 20
16.087770423
 10
-15.3912140723
 20
16.0940791527
  0
LWPOLYLINE
  5
3A8
100
AcDbEntity
  8
RACCORDO
100
AcDbPolyline
 62
250
  6
CONTINUOUS
 90
31
 70
0
 10
-15.7437360319
 20
16.3723918086
 10
-15.7342780137
 20
16.3660440635
 10
-15.7243647768
 20
16.3600536722
 10
-15.7140232916
 20
16.3544369325
 10
-15.703281694
 20
16.3492091259
 10
-15.6921692083
 20
16.3443844753
 10
-15.680716068
 20
16.3399761072
 10
-15.6689534331
 20
16.3359960151
 10
-15.6569133061
 20
16.3324550277
 10
-15.644628444
 20
16.3293627787
 10
-15.63213227
 20
16.3267276812
 10
-15.6194587819
 20
16.3245569043
 10
-15.6066424603
 20
16.3228563541
 10
-15.5937181739
 20
16.3216306572
 10
-15.5807210856
 20
16.3208831483
 10
-15.5676865561
 20
16.3206158612
 10
-15.5546500481
 20
16.3208295229
 10
-15.5416470296
 20
16.3215235523
 10
-15.5287128776
 20
16.3226960611
 10
-15.5158827815
 20
16.3243438593
 10
-15.5031916478
 20
16.3264624637
 10
-15.4906740049
 20
16.3290461104
 10
-15.4783639092
 20
16.3320877701
 10
-15.4662948524
 20
16.3355791675
 10
-15.4544996704
 20
16.3395108036
 10
-15.4430104539
 20
16.3438719817
 10
-15.4318584615
 20
16.3486508365
 10
-15.4210740338
 20
16.3538343664
 10
-15.4106865118
 20
16.3594084686
 10
-15.4007241565
 20
16.3653579778
 10
-15.3912140723
 20
16.3716667075
  0
LWPOLYLINE
  5
3A9
100
AcDbEntity
  8
RACCORDO
100
AcDbPolyline
 62
250
  6
CONTINUOUS
 90
20
 70
0
 10
-3.5286542913
 20
8.1603439479
 10
-3.53793598
 20
8.1665917315
 10
-3.5471953438
 20
8.172345711
 10
-3.5564070167
 20
8.1775892192
 10
-3.5655475854
 20
8.1823078665
 10
-3.5745899059
 20
8.1864865684
 10
-3.583503416
 20
8.1901107369
 10
-3.5922617756
 20
8.1931698274
 10
-3.6008429353
 20
8.1956563068
 10
-3.6092236015
 20
8.1975634044
 10
-3.6173809357
 20
8.198885864
 10
-3.6252923888
 20
8.1996199691
 10
-3.6329360212
 20
8.1997636631
 10
-3.6402907837
 20
8.1993165662
 10
-3.6473366132
 20
8.1982799148
 10
-3.65405425
 20
8.1966565394
 10
-3.6604252948
 20
8.1944508705
 10
-3.6664322434
 20
8.191668951
 10
-3.6720585972
 20
8.1883184128
 10
-3.673861607
 20
8.1870660574
  0
LWPOLYLINE
  5
3AA
100
AcDbEntity
  8
RACCORDO
100
AcDbPolyline
 62
250
  6
CONTINUOUS
 90
20
 70
0
 10
-16.8929724558
 20
17.6103439479
 10
-16.9022783287
 20
17.6166073849
 10
-16.9115558841
 20
17.6223709369
 10
-16.9207796824
 20
17.6276187968
 10
-16.92992444
 20
17.6323365758
 10
-16.9389650719
 20
17.6365113289
 10
-16.9478767621
 20
17.6401315956
 10
-16.956635069
 20
17.6431874485
 10
-16.9652159829
 20
17.645670512
 10
-16.9735959673
 20
17.6475739774
 10
-16.9817520435
 20
17.6488926279
 10
-16.9896618501
 20
17.6496228514
 10
-16.9973036968
 20
17.6497626485
 10
-17.0046566398
 20
17.6493116387
 10
-17.01170051
 20
17.6482710619
 10
-17.0184159697
 20
17.6466437824
 10
-17.0247845858
 20
17.644434283
 10
-17.0307889311
 20
17.6416486267
 10
-17.036412596
 20
17.6382944302
 10
-17.0381849972
 20
17.6370622888
  0
LINE
  5
3AB
100
AcDbEntity
  8
RACCORDO
100
AcDbLine
 62
7
  6
CONTINUOUS
 10
-1.6681972594
 20
6.0650076065
 11
-3.001409593
 21
7.0077310884
  0
LINE
  5
3AC
100
AcDbEntity
  8
RACCORDO
100
AcDbLine
 62
7
  6
CONTINUOUS
 10
-15.0325154238
 20
15.5150076065
 11
-16.3657277575
 21
16.4577310884
  0
LINE
  5
3AD
100
AcDbEntity
  8
RACCORDO
100
AcDbLine
 62
7
  6
CONTINUOUS
 10
-17.0362815837
 20
16.9525857606
 11
-15.7112969039
 21
16.0156801085
  0
LINE
  5
3AE
100
AcDbEntity
  8
RACCORDO
100
AcDbLine
 62
7
  6
CONTINUOUS
 10
-3.6719634193
 20
7.5025857606
 11
-2.3469787395
 21
6.5656801085
  0
LINE
  5
3AF
100
AcDbEntity
  8
RACCORDO
100
AcDbLine
 62
250
  6
CONTINUOUS
 10
-17.0687207117
 20
17.0317099058
 11
-15.7437360319
 21
16.0948042537
  0
LINE
  5
3B0
100
AcDbEntity
  8
RACCORDO
100
AcDbLine
 62
250
  6
CONTINUOUS
 10
-3.7044025473
 20
7.5817099058
 11
-2.3794178675
 21
6.6448042537
  0
LINE
  5
3B1
100
AcDbEntity
  8
RACCORDO
100
AcDbLine
 62
250
  6
CONTINUOUS
 10
-2.3794178675
 20
6.9223918086
 11
-3.7044025473
 21
7.8592974606
  0
LINE
  5
3B2
100
AcDbEntity
  8
RACCORDO
100
AcDbLine
 62
250
  6
CONTINUOUS
 10
-15.7437360319
 20
16.3723918086
 11
-17.0687207117
 21
17.3092974606
  0
LINE
  5
3B3
100
AcDbEntity
  8
RACCORDO
100
AcDbLine
 62
7
  6
CONTINUOUS
 10
-11.4190626677
 20
13.4784396072
 11
-5.907755568
 21
9.5813569838
  0
LINE
  5
3B4
100
AcDbEntity
  8
RACCORDO
100
AcDbLine
 62
250
  6
CONTINUOUS
 10
-2.2036696115
 20
7.2234382958
 11
-3.5286542913
 21
8.1603439479
  0
LINE
  5
3B5
100
AcDbEntity
  8
RACCORDO
100
AcDbLine
 62
250
  6
CONTINUOUS
 10
-15.5679877759
 20
16.6734382958
 11
-16.8929724558
 21
17.6103439479
  0
LINE
  5
3B6
100
AcDbEntity
  8
RACCORDO
100
AcDbLine
 62
250
  6
CONTINUOUS
 10
-5.907755568
 20
10.4636495625
 11
-11.4190626677
 21
14.3607321859
  0
LINE
  5
3B7
100
AcDbEntity
  8
DRAFT
100
AcDbLine
 62
7
  6
CONTINUOUS
 10
-13.7899332814
 20
16.1919561916
 11
-11.5655092771
 21
14.6190508939
  0
LINE
  5
3B8
100
AcDbEntity
  8
DRAFT
100
AcDbLine
 62
7
  6
CONTINUOUS
 10
-4.8450324994
 20
9.8669561916
 11
-3.0775424426
 21
8.6171519867
  0
LINE
  5
3B9
100
AcDbEntity
  8
RACCORDO
100
AcDbLine
 62
7
  6
CONTINUOUS
 10
-0.425615117
 20
6.7419561916
 11
-0.4023601605
 21
6.7255124542
  0
LWPOLYLINE
  5
3BA
100
AcDbEntity
  8
RACCORDO
100
AcDbPolyline
 62
250
  6
CONTINUOUS
 90
16
 70
0
 10
-3.7044025473
 20
7.8592974606
 10
-3.7133592486
 20
7.8659693038
 10
-3.7218180306
 20
7.8729659786
 10
-3.7297550085
 20
7.8802690893
 10
-3.7371491021
 20
7.8878609331
 10
-3.7439774916
 20
7.8957199012
 10
-3.7502168695
 20
7.9038200136
 10
-3.7558491128
 20
7.9121374189
 10
-3.7608602919
 20
7.920651188
 10
-3.7652368775
 20
7.9293383823
 10
-3.7689669717
 20
7.9381755354
 10
-3.7720402864
 20
7.947138449
 10
-3.7744483465
 20
7.9562024769
 10
-3.7761845861
 20
7.9653428343
 10
-3.7772443192
 20
7.9745347551
 10
-3.777625852
 20
7.9842946668
  0
LWPOLYLINE
  5
3BB
100
AcDbEntity
  8
RACCORDO
100
AcDbPolyline
 62
250
  6
CONTINUOUS
 90
16
 70
0
 10
-17.0687207117
 20
17.0317099058
 10
-17.077697779
 20
17.0383977346
 10
-17.0861694716
 20
17.0454074517
 10
-17.0941127409
 20
17.052719986
 10
-17.101505976
 20
17.0603154425
 10
-17.1083290622
 20
17.0681731565
 10
-17.1145634363
 20
17.0762717497
 10
-17.1201921364
 20
17.0845891885
 10
-17.1251998489
 20
17.093102844
 10
-17.1295729494
 20
17.1017895533
 10
-17.13329954
 20
17.1106256827
 10
-17.1363694821
 20
17.119587192
 10
-17.1387744232
 20
17.1286497
 10
-17.1405078204
 20
17.1377885505
 10
-17.1415649576
 20
17.1469788798
 10
-17.1419440164
 20
17.1567099058
  0
LWPOLYLINE
  5
3BC
100
AcDbEntity
  8
RACCORDO
100
AcDbPolyline
 62
250
  6
CONTINUOUS
 90
16
 70
0
 10
-17.0687207117
 20
17.3092974606
 10
-17.077697779
 20
17.3159852894
 10
-17.0861694716
 20
17.3229950065
 10
-17.0941127409
 20
17.3303075408
 10
-17.101505976
 20
17.3379029973
 10
-17.1083290622
 20
17.3457607113
 10
-17.1145634363
 20
17.3538593045
 10
-17.1201921364
 20
17.3621767433
 10
-17.1251998489
 20
17.3706903988
 10
-17.1295729494
 20
17.3793771081
 10
-17.13329954
 20
17.3882132375
 10
-17.1363694821
 20
17.3971747468
 10
-17.1387744232
 20
17.4062372548
 10
-17.1405078204
 20
17.4153761053
 10
-17.1415649576
 20
17.4245664346
 10
-17.1419440164
 20
17.4342974606
  0
LWPOLYLINE
  5
3BD
100
AcDbEntity
  8
RACCORDO
100
AcDbPolyline
 62
250
  6
CONTINUOUS
 90
16
 70
0
 10
-3.7044025473
 20
7.5817099058
 10
-3.7133796145
 20
7.5883977346
 10
-3.7218513071
 20
7.5954074517
 10
-3.7297945765
 20
7.602719986
 10
-3.7371878116
 20
7.6103154425
 10
-3.7440108978
 20
7.6181731565
 10
-3.7502452718
 20
7.6262717497
 10
-3.755873972
 20
7.6345891885
 10
-3.7608816845
 20
7.643102844
 10
-3.7652547849
 20
7.6517895533
 10
-3.7689813756
 20
7.6606256827
 10
-3.7720513176
 20
7.669587192
 10
-3.7744562588
 20
7.6786497
 10
-3.776189656
 20
7.6877885505
 10
-3.7772467932
 20
7.6969788798
 10
-3.777625852
 20
7.7067099058
  0
LINE
  5
3BE
100
AcDbEntity
  8
0
100
AcDbLine
 62
250
  6
CONTINUOUS
 10
7.5826869189
 20
-0.7153278468
 11
8.3633448975
 21
-1.4795828846
  0
LINE
  5
3BF
100
AcDbEntity
  8
0
100
AcDbLine
 62
250
  6
CONTINUOUS
 10
5.6770479845
 20
-1.4223085938
 11
5.6770479845
 21
-1.1307787085
  0
LINE
  5
3C0
100
AcDbEntity
  8
0
100
AcDbLine
 62
250
  6
CONTINUOUS
 10
5.9351032653
 20
4.5729534188
 11
5.9351032653
 21
4.1842467429
  0
LINE
  5
3C1
100
AcDbEntity
  8
0
100
AcDbLine
 62
250
  6
CONTINUOUS
 10
5.9351032653
 20
-2.545237737
 11
5.9351032653
 21
-2.9339444738
  0
LINE
  5
3C2
100
AcDbEntity
  8
0
100
AcDbLine
 62
250
  6
CONTINUOUS
 10
6.193158546
 20
5.5150286438
 11
6.193158546
 21
5.1506165304
  0
LINE
  5
3C3
100
AcDbEntity
  8
0
100
AcDbLine
 62
250
  6
CONTINUOUS
 10
6.193158546
 20
-0.6071016244
 11
6.193158546
 21
-1.0443966957
  0
LINE
  5
3C4
100
AcDbEntity
  8
0
100
AcDbLine
 62
250
  6
CONTINUOUS
 10
6.193158546
 20
-1.6031626336
 11
6.193158546
 21
-1.967575112
  0
LINE
  5
3C5
100
AcDbEntity
  8
RACCORDO
100
AcDbLine
 62
7
  6
CONTINUOUS
 10
7.5826869189
 20
-16.2046139133
 11
7.5826869189
 21
8.6846931486
  0
LINE
  5
3C6
100
AcDbEntity
  8
0
100
AcDbLine
 62
7
  6
CONTINUOUS
 10
7.5826869189
 20
-16.2046139133
 11
7.5826869189
 21
8.6846931486
  0
LINE
  5
3C7
100
AcDbEntity
  8
0
100
AcDbLine
 62
250
  6
CONTINUOUS
 10
11.8343231178
 20
10.7602878124
 11
11.2614403945
 21
9.4215667899
  0
LINE
  5
3C8
100
AcDbEntity
  8
0
100
AcDbLine
 62
250
  6
CONTINUOUS
 10
13.1004315443
 20
13.1015845898
 11
12.9572108784
 21
12.7997342872
  0
LINE
  5
3C9
100
AcDbEntity
  8
0
100
AcDbLine
 62
250
  6
CONTINUOUS
 10
12.9572108784
 20
12.0774752335
 11
13.4584832986
 21
13.1011213615
  0
LINE
  5
3CA
100
AcDbEntity
  8
0
100
AcDbLine
 62
250
  6
CONTINUOUS
 10
5.2899651037
 20
-2.2645084258
 11
5.4189927306
 21
-2.0242655185
  0
LINE
  5
3CB
100
AcDbEntity
  8
0
100
AcDbLine
 62
250
  6
CONTINUOUS
 10
15.4236237401
 20
14.5400571434
 11
15.7100650719
 21
15.0124378709
  0
LINE
  5
3CC
100
AcDbEntity
  8
0
100
AcDbLine
 62
250
  6
CONTINUOUS
 10
17.4143712728
 20
14.8461693021
 11
17.2711506069
 21
14.6099789383
  0
LINE
  5
3CD
100
AcDbEntity
  8
0
100
AcDbLine
 62
250
  6
CONTINUOUS
 10
17.7724229077
 20
14.3204266533
 11
17.6292023015
 21
14.0842363196
  0
LINE
  5
3CE
100
AcDbEntity
  8
0
100
AcDbLine
 62
250
  6
CONTINUOUS
 10
5.2899651037
 20
-4.3781010677
 11
5.8060756383
 21
-3.7086591518
  0
LINE
  5
3CF
100
AcDbEntity
  8
0
100
AcDbLine
 62
250
  6
CONTINUOUS
 10
5.2899651037
 20
-3.2119809181
 11
6.193158546
 21
-2.2591051189
  0
LINE
  5
3D0
100
AcDbEntity
  8
0
100
AcDbLine
 62
250
  6
CONTINUOUS
 10
5.2899651037
 20
-3.7950409929
 11
6.193158546
 21
-3.1336952007
  0
LINE
  5
3D1
100
AcDbEntity
  8
0
100
AcDbLine
 62
250
  6
CONTINUOUS
 10
6.193158546
 20
-3.7167552755
 11
5.2899651037
 21
-4.3781010677
  0
LINE
  5
3D2
100
AcDbEntity
  8
0
100
AcDbLine
 62
250
  6
CONTINUOUS
 10
19.919690929
 20
5.861907032
 11
19.6057071178
 21
5.6319985067
  0
LINE
  5
3D3
100
AcDbEntity
  8
0
100
AcDbLine
 62
250
  6
CONTINUOUS
 10
15.40104395
 20
2.5532158636
 11
14.563753816
 21
1.9401264842
  0
LINE
  5
3D4
100
AcDbEntity
  8
RACCORDO
100
AcDbLine
 62
7
  6
CONTINUOUS
 10
21.9473271407
 20
8.4110361055
 11
8.3633448975
 21
-1.4795828846
  0
LINE
  5
3D5
100
AcDbEntity
  8
0
100
AcDbLine
 62
7
  6
CONTINUOUS
 10
21.9473271407
 20
8.4110361055
 11
8.3633448975
 21
-1.4795828846
  0
LINE
  5
3D6
100
AcDbEntity
  8
RACCORDO
100
AcDbLine
 62
7
  6
CONTINUOUS
 10
-2.1716530195
 20
6.5217322191
 11
-1.5324606576
 21
6.6015775372
  0
LINE
  5
3D7
100
AcDbEntity
  8
RACCORDO
100
AcDbLine
 62
250
  6
CONTINUOUS
 10
-2.0268959078
 20
6.6440791527
 11
-1.3156752997
 21
6.7329219473
  0
LINE
  5
3D8
100
AcDbEntity
  8
0
100
AcDbLine
 62
250
  6
CONTINUOUS
 10
5.2899651037
 20
5.7282734808
 11
5.6770479845
 21
5.7201765164
  0
LWPOLYLINE
  5
3D9
100
AcDbEntity
  8
RACCORDO
100
AcDbPolyline
 62
7
  6
CONTINUOUS
 90
21
 70
0
 10
-1.9458976882
 20
9.3018825475
 10
-1.9543087636
 20
9.3076300868
 10
-1.9627009812
 20
9.3129640292
 10
-1.971055229
 20
9.3178723637
 10
-1.9793524029
 20
9.3223441001
 10
-1.9875737013
 20
9.326369111
 10
-1.9957006671
 20
9.329938155
 10
-2.0037148325
 20
9.3330431875
 10
-2.0115979518
 20
9.3356772383
 10
-2.019332294
 20
9.3378342449
 10
-2.0269003016
 20
9.3395093462
 10
-2.0342847585
 20
9.3406987977
 10
-2.0414690211
 20
9.34139984
 10
-2.0484367997
 20
9.3416108948
 10
-2.0551722589
 20
9.3413315198
 10
-2.0616601816
 20
9.3405623154
 10
-2.0678858783
 20
9.3393050183
 10
-2.0738352162
 20
9.3375624975
 10
-2.0794947156
 20
9.3353387013
 10
-2.084851586
 20
9.3326386462
 10
-2.0897531003
 20
9.3295661851
  0
LWPOLYLINE
  5
3DA
100
AcDbEntity
  8
RACCORDO
100
AcDbPolyline
 62
7
  6
CONTINUOUS
 90
21
 70
0
 10
-15.3102158526
 20
18.7518825475
 10
-15.318626928
 20
18.7576300868
 10
-15.3270191457
 20
18.7629640292
 10
-15.3353733934
 20
18.7678723637
 10
-15.3436705673
 20
18.7723441001
 10
-15.3518918657
 20
18.776369111
 10
-15.3600188315
 20
18.779938155
 10
-15.3680329969
 20
18.7830431875
 10
-15.3759161162
 20
18.7856772383
 10
-15.3836504584
 20
18.7878342449
 10
-15.391218466
 20
18.7895093462
 10
-15.3986029229
 20
18.7906987977
 10
-15.4057871855
 20
18.79139984
 10
-15.4127549641
 20
18.7916108948
 10
-15.4194904233
 20
18.7913315198
 10
-15.4259783461
 20
18.7905623154
 10
-15.4322040427
 20
18.7893050183
 10
-15.4381533806
 20
18.7875624975
 10
-15.44381288
 20
18.7853387013
 10
-15.4491697504
 20
18.7826386462
 10
-15.4540712647
 20
18.7795661851
  0
LWPOLYLINE
  5
3DB
100
AcDbEntity
  8
RACCORDO
100
AcDbPolyline
 62
250
  6
CONTINUOUS
 90
20
 70
0
 10
-1.4114478095
 20
9.6723324934
 10
-1.4206468192
 20
9.6786687324
 10
-1.4298234348
 20
9.6845011082
 10
-1.4389525051
 20
9.6898136354
 10
-1.448009009
 20
9.6945917533
 10
-1.4569681242
 20
9.6988223661
 10
-1.4658052955
 20
9.7024938784
 10
-1.4744963019
 20
9.7055962272
 10
-1.483017323
 20
9.7081209097
 10
-1.4913450042
 20
9.7100610061
 10
-1.499456521
 20
9.711411199
 10
-1.5073296411
 20
9.7121677878
 10
-1.5149427859
 20
9.7123286988
 10
-1.5222750892
 20
9.7118934909
 10
-1.5293064544
 20
9.7108633571
 10
-1.5360176099
 20
9.7092411207
 10
-1.5423901618
 20
9.7070312279
 10
-1.548406644
 20
9.7042397357
 10
-1.5540505664
 20
9.700874295
 10
-1.5548946779
 20
9.7002993106
  0
LWPOLYLINE
  5
3DC
100
AcDbEntity
  8
RACCORDO
100
AcDbPolyline
 62
250
  6
CONTINUOUS
 90
20
 70
0
 10
-14.7757659739
 20
19.1223324934
 10
-14.7849430815
 20
19.1286542271
 10
-14.7941037
 20
19.1344780301
 10
-14.8032227445
 20
19.1397870363
 10
-14.8122770497
 20
19.1445666812
 10
-14.82123974
 20
19.1488016901
 10
-14.830080528
 20
19.1524772809
 10
-14.8387732864
 20
19.1555827585
 10
-14.8472961291
 20
19.1581104742
 10
-14.8556259211
 20
19.1600535454
 10
-14.863739963
 20
19.1614066173
 10
-14.8716158262
 20
19.1621658882
 10
-14.8792316702
 20
19.1623292315
 10
-14.8865665219
 20
19.1618962137
 10
-14.8936003724
 20
19.1608680327
 10
-14.9003139948
 20
19.159247496
 10
-14.906689001
 20
19.1570390259
 10
-14.9127078761
 20
19.1542486731
 10
-14.9183540888
 20
19.1508840925
 10
-14.9192128424
 20
19.1502993106
  0
LWPOLYLINE
  5
3DD
100
AcDbEntity
  8
RACCORDO
100
AcDbPolyline
 62
250
  6
CONTINUOUS
 90
20
 70
0
 10
-1.2681386815
 20
9.6989557186
 10
-1.2692340849
 20
9.699712913
 10
-1.2748318303
 20
9.7030843354
 10
-1.2808042119
 20
9.7058889174
 10
-1.2871349462
 20
9.7081190213
 10
-1.2938067671
 20
9.7097685819
 10
-1.3008015355
 20
9.7108331304
 10
-1.3081002723
 20
9.7113097815
 10
-1.3156832149
 20
9.7111972279
 10
-1.3235296333
 20
9.7104957611
 10
-1.3316179246
 20
9.7092073335
 10
-1.3399258923
 20
9.707335542
 10
-1.3484310647
 20
9.7048855094
 10
-1.3571105274
 20
9.7018638574
 10
-1.3659426179
 20
9.6982779584
 10
-1.3749014009
 20
9.6941381757
 10
-1.3839567378
 20
9.6894589043
 10
-1.3930819066
 20
9.6842550327
 10
-1.4022539111
 20
9.6785407456
 10
-1.4114478095
 20
9.6723324934
  0
LWPOLYLINE
  5
3DE
100
AcDbEntity
  8
RACCORDO
100
AcDbPolyline
 62
250
  6
CONTINUOUS
 90
20
 70
0
 10
-13.2951306854
 20
18.2033233218
 10
-13.2962114875
 20
18.2040706482
 10
-13.3018069321
 20
18.2074429132
 10
-13.3077769076
 20
18.2102486158
 10
-13.3141051718
 20
18.2124801226
 10
-13.3207745075
 20
18.2141313624
 10
-13.3277667696
 20
18.2151978428
 10
-13.3350629346
 20
18.2156766622
 10
-13.3426431519
 20
18.215566518
 10
-13.3504867983
 20
18.2148677096
 10
-13.3585725338
 20
18.2135821385
 10
-13.3668783599
 20
18.2117133023
 10
-13.375381679
 20
18.2092662853
 10
-13.3840593566
 20
18.2062477451
 10
-13.3928877834
 20
18.2026658942
 10
-13.4018429403
 20
18.1985304776
 10
-13.4109004633
 20
18.1938527465
 10
-13.4200357097
 20
18.1886454273
 10
-13.4292238257
 20
18.1829226874
 10
-13.4384398134
 20
18.1767000967
  0
LWPOLYLINE
  5
3DF
100
AcDbEntity
  8
RACCORDO
100
AcDbPolyline
 62
250
  6
CONTINUOUS
 90
20
 70
0
 10
-14.632456846
 20
19.1489557186
 10
-14.6335376481
 20
19.149703045
 10
-14.6391330926
 20
19.15307531
 10
-14.6451030682
 20
19.1558810126
 10
-14.6514313324
 20
19.1581125194
 10
-14.658100668
 20
19.1597637592
 10
-14.6650929302
 20
19.1608302396
 10
-14.6723890951
 20
19.161309059
 10
-14.6799693124
 20
19.1611989147
 10
-14.6878129588
 20
19.1605001064
 10
-14.6958986944
 20
19.1592145353
 10
-14.7042045204
 20
19.157345699
 10
-14.7127078396
 20
19.1548986821
 10
-14.7213855171
 20
19.1518801419
 10
-14.730213944
 20
19.148298291
 10
-14.7391691009
 20
19.1441628744
 10
-14.7482266238
 20
19.1394851433
 10
-14.7573618703
 20
19.1342778241
 10
-14.7665499862
 20
19.1285550842
 10
-14.7757659739
 20
19.1223324934
  0
LWPOLYLINE
  5
3E0
100
AcDbEntity
  8
RACCORDO
100
AcDbPolyline
 62
250
  6
CONTINUOUS
 90
20
 70
0
 10
0.069187479
 20
8.7533233218
 10
0.0681273125
 20
8.7540566919
 10
0.0625322236
 20
8.7574316951
 10
0.0565624206
 20
8.7602399431
 10
0.0502340987
 20
8.762473814
 10
0.0435644476
 20
8.7641272235
 10
0.0365716401
 20
8.7651956508
 10
0.0292747314
 20
8.7656761769
 10
0.0216935889
 20
8.7655674906
 10
0.0138488376
 20
8.7648698848
 10
0.0057618314
 20
8.7635852552
 10
-0.0025454208
 20
8.7617170949
 10
-0.0110503075
 20
8.7592704861
 10
-0.0197296726
 20
8.7562520879
 10
-0.0285598986
 20
8.7526701121
 10
-0.0375169449
 20
8.748534309
 10
-0.0465764041
 20
8.7438559493
 10
-0.0557136076
 20
8.7386477761
 10
-0.064903694
 20
8.7329239643
 10
-0.0741216489
 20
8.7267000967
  0
LINE
  5
3E1
100
AcDbEntity
  8
RACCORDO
100
AcDbLine
 62
250
  6
CONTINUOUS
 10
-5.4849331882
 20
10.5049244071
 11
-11.5606878379
 21
14.8011317208
  0
LINE
  5
3E2
100
AcDbEntity
  8
DRAFT
100
AcDbLine
 62
7
  6
CONTINUOUS
 10
-11.0675721739
 20
15.2569056853
 11
-4.8450324994
 21
10.8569056853
  0
LINE
  5
3E3
100
AcDbEntity
  8
RACCORDO
100
AcDbLine
 62
7
  6
CONTINUOUS
 10
-13.6232781541
 20
17.0679423936
 11
-12.3818905465
 21
16.1901487981
  0
LINE
  5
3E4
100
AcDbEntity
  8
RACCORDO
100
AcDbLine
 62
7
  6
CONTINUOUS
 10
-0.2589599897
 20
7.6179423936
 11
0.3167500641
 21
7.2108539105
  0
LINE
  5
3E5
100
AcDbEntity
  8
RACCORDO
100
AcDbLine
 62
7
  6
CONTINUOUS
 10
-15.3102158526
 20
18.7518825475
 11
-13.9667069851
 21
17.8018783167
  0
LINE
  5
3E6
100
AcDbEntity
  8
RACCORDO
100
AcDbLine
 62
7
  6
CONTINUOUS
 10
-1.9458976882
 20
9.3018825475
 11
-0.6023888207
 21
8.3518783167
  0
LINE
  5
3E7
100
AcDbEntity
  8
DRAFT
100
AcDbLine
 62
7
  6
CONTINUOUS
 10
-9.7240692896
 20
15.3027918584
 11
-4.7743218213
 21
11.8027918584
  0
LINE
  5
3E8
100
AcDbEntity
  8
RACCORDO
100
AcDbLine
 62
250
  6
CONTINUOUS
 10
-14.7757659739
 20
19.1223324934
 11
-13.4384398134
 21
18.1767000967
  0
LINE
  5
3E9
100
AcDbEntity
  8
RACCORDO
100
AcDbLine
 62
250
  6
CONTINUOUS
 10
-1.4114478095
 20
9.6723324934
 11
-0.0741216489
 21
8.7267000967
  0
LINE
  5
3EA
100
AcDbEntity
  8
RACCORDO
100
AcDbLine
 62
7
  6
CONTINUOUS
 10
-14.632456846
 20
19.1489557186
 11
-13.2951306854
 21
18.2033233218
  0
LINE
  5
3EB
100
AcDbEntity
  8
RACCORDO
100
AcDbLine
 62
7
  6
CONTINUOUS
 10
-1.2681386815
 20
9.6989557186
 11
0.069187479
 21
8.7533233218
  0
LINE
  5
3EC
100
AcDbEntity
  8
0
100
AcDbLine
 62
7
  6
CONTINUOUS
 10
9.5865408985
 20
2.2714504507
 11
10.3785958675
 21
1.7113830111
  0
LWPOLYLINE
  5
3ED
100
AcDbEntity
  8
RACCORDO
100
AcDbPolyline
 62
250
  6
CONTINUOUS
 90
11
 70
0
 10
0.1026520547
 20
8.1411702132
 10
0.1069996158
 20
8.1366262507
 10
0.1108497642
 20
8.132434054
 10
0.1141919859
 20
8.1286050711
 10
0.117017154
 20
8.1251497582
 10
0.1193175537
 20
8.1220775509
 10
0.1210869029
 20
8.1193968389
 10
0.12232037
 20
8.1171149426
 10
0.1230145866
 20
8.1152380933
 10
0.1231676569
 20
8.1137714165
 10
0.1227849426
 20
8.1127263648
  0
LWPOLYLINE
  5
3EE
100
AcDbEntity
  8
RACCORDO
100
AcDbPolyline
 62
250
  6
CONTINUOUS
 90
31
 70
0
 10
0.1026520547
 20
-25.5798153603
 10
0.106995196
 20
-25.5683768672
 10
0.110843005
 20
-25.5566276194
 10
0.1141845737
 20
-25.5445994078
 10
0.117010598
 20
-25.5323236846
 10
0.1193125979
 20
-25.5198348733
 10
0.1210834304
 20
-25.5071704573
 10
0.1223181614
 20
-25.4943663241
 10
0.1230136243
 20
-25.481456174
 10
0.1231679171
 20
-25.4684749393
 10
0.1227805673
 20
-25.4554578526
 10
0.1218525854
 20
-25.4424406805
 10
0.1203865092
 20
-25.4294593005
 10
0.1183863635
 20
-25.4165492867
 10
0.1158576006
 20
-25.4037457831
 10
0.1128071194
 20
-25.3910837304
 10
0.1092432421
 20
-25.3785976945
 10
0.1051757037
 20
-25.3663218017
 10
0.1006156224
 20
-25.3542896128
 10
0.0955754578
 20
-25.3425340017
 10
0.0900689732
 20
-25.3310870681
 10
0.0841112091
 20
-25.3199800785
 10
0.0777184287
 20
-25.3092433546
 10
0.0709081018
 20
-25.2989062397
 10
0.063698864
 20
-25.2889970127
 10
0.0561104345
 20
-25.2795427606
 10
0.0481635244
 20
-25.2705692699
 10
0.0398798076
 20
-25.262101008
 10
0.031281897
 20
-25.2541610929
 10
0.0223932883
 20
-25.2467712234
 10
0.0132382594
 20
-25.2399515832
  0
LINE
  5
3EF
100
AcDbEntity
  8
0
100
AcDbLine
 62
250
  6
CONTINUOUS
 10
21.8279851203
 20
4.0518166685
 11
21.8368674102
 21
4.0588023184
  0
LINE
  5
3F0
100
AcDbEntity
  8
RACCORDO
100
AcDbLine
 62
250
  6
CONTINUOUS
 10
21.8279854087
 20
4.0518168848
 11
21.8368674102
 21
4.0588023184
  0
LINE
  5
3F1
100
AcDbEntity
  8
RACCORDO
100
AcDbLine
 62
250
  6
CONTINUOUS
 10
21.9659884595
 20
4.3746630401
 11
7.5826869189
 21
-6.4127971907
  0
LINE
  5
3F2
100
AcDbEntity
  8
0
100
AcDbLine
 62
250
  6
CONTINUOUS
 10
21.9659884595
 20
4.3746630401
 11
7.5826869189
 21
-6.4127971907
  0
LINE
  5
3F3
100
AcDbEntity
  8
RACCORDO
100
AcDbLine
 62
7
  6
CONTINUOUS
 10
21.8279851203
 20
4.0518166685
 11
7.5826869189
 21
-6.6320952135
  0
LINE
  5
3F4
100
AcDbEntity
  8
0
100
AcDbLine
 62
7
  6
CONTINUOUS
 10
21.8279851203
 20
4.0518166685
 11
7.5826869189
 21
-6.6320952135
  0
LINE
  5
3F5
100
AcDbEntity
  8
0
100
AcDbLine
 62
250
  6
CONTINUOUS
 10
20.129013528
 20
4.6716765405
 11
19.3963846061
 21
4.1352232936
  0
LINE
  5
3F6
100
AcDbEntity
  8
0
100
AcDbLine
 62
250
  6
CONTINUOUS
 10
18.9777395827
 20
3.8286786359
 11
18.4544332599
 21
3.4454977818
  0
LINE
  5
3F7
100
AcDbEntity
  8
0
100
AcDbLine
 62
250
  6
CONTINUOUS
 10
20.129013528
 20
5.8232504528
 11
19.919690929
 21
5.861907032
  0
LWPOLYLINE
  5
3F8
100
AcDbEntity
  8
RACCORDO
100
AcDbPolyline
 62
7
  6
CONTINUOUS
 90
29
 70
0
 10
-6.0471140274
 20
15.8391387323
 10
-6.052070198
 20
15.8425730617
 10
-6.0569940549
 20
15.8458451217
 10
-6.0618796185
 20
15.8489509584
 10
-6.0667211264
 20
15.8518866404
 10
-6.071512644
 20
15.8546487437
 10
-6.076248069
 20
15.8572343508
 10
-6.0809218977
 20
15.8596401807
 10
-6.0855285448
 20
15.8618633011
 10
-6.0900619506
 20
15.863901607
 10
-6.094516959
 20
15.8657524182
 10
-6.0988883672
 20
15.8674134145
 10
-6.1031702424
 20
15.8688833421
 10
-6.1073578362
 20
15.8701601521
 10
-6.1114463815
 20
15.8712421589
 10
-6.1154301441
 20
15.8721289785
 10
-6.119304831
 20
15.8728192154
 10
-6.1230661677
 20
15.8733118359
 10
-6.1267087004
 20
15.8736073348
 10
-6.1302286408
 20
15.8737049832
 10
-6.1336222481
 20
15.8736044052
 10
-6.1368844151
 20
15.8733069635
 10
-6.140011897
 20
15.8728125998
 10
-6.1430015243
 20
15.8721215946
 10
-6.1458485941
 20
15.8712361534
 10
-6.1485504367
 20
15.8701568841
 10
-6.1511044839
 20
15.8688847139
 10
-6.1535064861
 20
15.8674226538
 10
-6.1541835166
 20
15.8669568492
  0
LWPOLYLINE
  5
3F9
100
AcDbEntity
  8
0
100
AcDbPolyline
 62
7
  6
CONTINUOUS
 90
29
 70
0
 10
-6.0471140274
 20
15.8391387323
 10
-6.052070198
 20
15.8425730617
 10
-6.0569940549
 20
15.8458451217
 10
-6.0618796185
 20
15.8489509584
 10
-6.0667211264
 20
15.8518866404
 10
-6.071512644
 20
15.8546487437
 10
-6.076248069
 20
15.8572343508
 10
-6.0809218977
 20
15.8596401807
 10
-6.0855285448
 20
15.8618633011
 10
-6.0900619506
 20
15.863901607
 10
-6.094516959
 20
15.8657524182
 10
-6.0988883672
 20
15.8674134145
 10
-6.1031702424
 20
15.8688833421
 10
-6.1073578362
 20
15.8701601521
 10
-6.1114463815
 20
15.8712421589
 10
-6.1154301441
 20
15.8721289785
 10
-6.119304831
 20
15.8728192154
 10
-6.1230661677
 20
15.8733118359
 10
-6.1267087004
 20
15.8736073348
 10
-6.1302286408
 20
15.8737049832
 10
-6.1336222481
 20
15.8736044052
 10
-6.1368844151
 20
15.8733069635
 10
-6.140011897
 20
15.8728125998
 10
-6.1430015243
 20
15.8721215946
 10
-6.1458485941
 20
15.8712361534
 10
-6.1485504367
 20
15.8701568841
 10
-6.1511044839
 20
15.8688847139
 10
-6.1535064861
 20
15.8674226538
 10
-6.1541835166
 20
15.8669568492
  0
LINE
  5
3FA
100
AcDbEntity
  8
RACCORDO
100
AcDbLine
 62
7
  6
CONTINUOUS
 10
-2.5474286254
 20
13.3644874525
 11
-6.0471140274
 21
15.8391387323
  0
LINE
  5
3FB
100
AcDbEntity
  8
0
100
AcDbLine
 62
7
  6
CONTINUOUS
 10
-2.5474286254
 20
13.3644874525
 11
-6.0471140274
 21
15.8391387323
  0
LINE
  5
3FC
100
AcDbEntity
  8
RACCORDO
100
AcDbLine
 62
250
  6
CONTINUOUS
 10
-1.9084036844
 20
13.8126285833
 11
-4.9121088772
 21
15.9365688939
  0
LINE
  5
3FD
100
AcDbEntity
  8
0
100
AcDbLine
 62
250
  6
CONTINUOUS
 10
-1.9084036844
 20
13.8126285833
 11
-4.9121088772
 21
15.9365688939
  0
LINE
  5
3FE
100
AcDbEntity
  8
RACCORDO
100
AcDbLine
 62
7
  6
CONTINUOUS
 10
-1.8348962066
 20
13.8641785654
 11
-4.8032849282
 21
15.9631463597
  0
LINE
  5
3FF
100
AcDbEntity
  8
0
100
AcDbLine
 62
7
  6
CONTINUOUS
 10
-1.8348962066
 20
13.8641785654
 11
-4.8032849282
 21
15.9631463597
  0
LWPOLYLINE
  5
400
100
AcDbEntity
  8
ASSI
100
AcDbPolyline
 62
7
  6
CONTINUOUS
 90
4
 70
0
 10
-4.9545831403
 20
18.6623270892
 10
-4.9529996383
 20
18.6608480149
 10
-4.9518115298
 20
18.6584505671
 10
-4.9515927945
 20
18.656623804
  0
LINE
  5
401
100
AcDbEntity
  8
0
100
AcDbLine
 62
250
  6
CONTINUOUS
 10
10.688557701
 20
9.9213234204
 11
10.688557701
 21
9.0020846048
  0
LINE
  5
402
100
AcDbEntity
  8
0
100
AcDbLine
 62
7
  6
CONTINUOUS
 10
12.2669516053
 20
3.0579929503
 11
12.2669516053
 21
4.2451764185
  0
LINE
  5
403
100
AcDbEntity
  8
0
100
AcDbLine
 62
250
  6
CONTINUOUS
 10
12.312717852
 20
11.605557778
 11
12.312717852
 21
12.5247965936
  0
LINE
  5
404
100
AcDbEntity
  8
0
100
AcDbLine
 62
250
  6
CONTINUOUS
 10
12.5558853172
 20
6.4096008774
 11
12.5558853172
 21
8.9551852896
  0
LINE
  5
405
100
AcDbEntity
  8
0
100
AcDbLine
 62
7
  6
CONTINUOUS
 10
12.5851496568
 20
4.4794822119
 11
12.5851496568
 21
3.4295409883
  0
LWPOLYLINE
  5
406
100
AcDbEntity
  8
RACCORDO
100
AcDbPolyline
 62
250
  6
CONTINUOUS
 90
21
 70
0
 10
21.8368674102
 20
4.0588023184
 10
21.8471937905
 20
4.0678053385
 10
21.8570501364
 20
4.0774034963
 10
21.8664289661
 20
4.0875895058
 10
21.8753231602
 20
4.0983556349
 10
21.8837259672
 20
4.1096937111
 10
21.8916310085
 20
4.1215951278
 10
21.8990322836
 20
4.1340508507
 10
21.9059241742
 20
4.1470514249
 10
21.9123014486
 20
4.1605869816
 10
21.9181592661
 20
4.1746472461
 10
21.9234931799
 20
4.1892215455
 10
21.9282991412
 20
4.2042988164
 10
21.9325735017
 20
4.2198676139
 10
21.9363130168
 20
4.2359161198
 10
21.939514848
 20
4.2524321519
 10
21.9421765646
 20
4.2694031729
 10
21.9442961463
 20
4.2868163003
 10
21.9458719841
 20
4.304658316
 10
21.9469028818
 20
4.3229156761
 10
21.9473880567
 20
4.3415745218
  0
LWPOLYLINE
  5
407
100
AcDbEntity
  8
0
100
AcDbPolyline
 62
250
  6
CONTINUOUS
 90
21
 70
0
 10
21.8368674102
 20
4.0588023184
 10
21.8471937905
 20
4.0678053385
 10
21.8570501364
 20
4.0774034963
 10
21.8664289661
 20
4.0875895058
 10
21.8753231602
 20
4.0983556349
 10
21.8837259672
 20
4.1096937111
 10
21.8916310085
 20
4.1215951278
 10
21.8990322836
 20
4.1340508507
 10
21.9059241742
 20
4.1470514249
 10
21.9123014486
 20
4.1605869816
 10
21.9181592661
 20
4.1746472461
 10
21.9234931799
 20
4.1892215455
 10
21.9282991412
 20
4.2042988164
 10
21.9325735017
 20
4.2198676139
 10
21.9363130168
 20
4.2359161198
 10
21.939514848
 20
4.2524321519
 10
21.9421765646
 20
4.2694031729
 10
21.9442961463
 20
4.2868163003
 10
21.9458719841
 20
4.304658316
 10
21.9469028818
 20
4.3229156761
 10
21.9473880567
 20
4.3415745218
  0
LINE
  5
408
100
AcDbEntity
  8
RACCORDO
100
AcDbLine
 62
7
  6
CONTINUOUS
 10
-5.5700756883
 20
10.4941211371
 11
-5.6503976737
 21
10.4824110519
  0
LWPOLYLINE
  5
409
100
AcDbEntity
  8
RACCORDO
100
AcDbPolyline
 62
7
  6
CONTINUOUS
 90
20
 70
0
 10
-5.6503976737
 20
10.4824110519
 10
-5.6808934843
 20
10.4781268856
 10
-5.6957745019
 20
10.4761089726
 10
-5.7104070279
 20
10.4742148547
 10
-5.7247856528
 20
10.4724200572
 10
-5.7389092058
 20
10.4707449092
 10
-5.7527765694
 20
10.4692145941
 10
-5.7663789514
 20
10.4678087196
 10
-5.7797165299
 20
10.4665443308
 10
-5.7927891356
 20
10.4654415807
 10
-5.8055844653
 20
10.4644832615
 10
-5.81810368
 20
10.4636841454
 10
-5.8303472435
 20
10.4630608873
 10
-5.8422994138
 20
10.4625985841
 10
-5.8539625323
 20
10.4623102992
 10
-5.8653373149
 20
10.4622101557
 10
-5.8764039172
 20
10.4622847307
 10
-5.8871568717
 20
10.4625376692
 10
-5.8976063041
 20
10.4629890523
 10
-5.907755568
 20
10.4636495625
  0
LWPOLYLINE
  5
40A
100
AcDbEntity
  8
RACCORDO
100
AcDbPolyline
 62
7
  6
CONTINUOUS
 90
5
 70
0
 10
-5.4849331882
 20
10.5049244071
 10
-5.5022278561
 20
10.5030972819
 10
-5.5194222544
 20
10.5010169534
 10
-5.5364805921
 20
10.4987656734
 10
-5.5700756883
 20
10.4941211371
  0
LWPOLYLINE
  5
40B
100
AcDbEntity
  8
RACCORDO
100
AcDbPolyline
 62
7
  6
CONTINUOUS
 90
44
 70
0
 10
-4.8652697395
 20
15.9960759117
 10
-4.889314937
 20
16.0073686715
 10
-4.9137654441
 20
16.0181245528
 10
-4.938603823
 20
16.0283377793
 10
-4.9638123848
 20
16.0380033214
 10
-4.9893627858
 20
16.0471124052
 10
-5.0152356651
 20
16.0556602093
 10
-5.0414137513
 20
16.0636433486
 10
-5.067870878
 20
16.0710556986
 10
-5.0945862878
 20
16.0778934117
 10
-5.1215429739
 20
16.0841542254
 10
-5.1487197039
 20
16.0898345774
 10
-5.176097042
 20
16.0949318441
 10
-5.203656129
 20
16.0994438874
 10
-5.2313760689
 20
16.1033680163
 10
-5.2592371836
 20
16.1067023936
 10
-5.2872204475
 20
16.1094454239
 10
-5.315305531
 20
16.1115952312
 10
-5.3434729683
 20
16.1131507085
 10
-5.3717032558
 20
16.1141107067
 10
-5.3999758001
 20
16.1144740656
 10
-5.4282713732
 20
16.1142403108
 10
-5.4565700582
 20
16.1134087895
 10
-5.4848502986
 20
16.1119791557
 10
-5.5130929066
 20
16.1099515317
 10
-5.5412778414
 20
16.1073258487
 10
-5.5693826437
 20
16.1041027379
 10
-5.5973880207
 20
16.1002829268
 10
-5.6252740707
 20
16.0958669774
 10
-5.6530180687
 20
16.0908565252
 10
-5.6806029258
 20
16.0852523933
 10
-5.7080066437
 20
16.0790561705
 10
-5.7352001072
 20
16.0722721119
 10
-5.7621657612
 20
16.0649020143
 10
-5.788882697
 20
16.0569485109
 10
-5.8153181315
 20
16.0484189463
 10
-5.8414534775
 20
16.0393167191
 10
-5.8672701041
 20
16.0296453681
 10
-5.8927367393
 20
16.0194141319
 10
-5.9178354552
 20
16.0086274721
 10
-5.9425484544
 20
15.9972901448
 10
-5.9668461312
 20
15.9854131635
 10
-5.9907106281
 20
15.9730023995
 10
-6.0141260053
 20
15.9600631259
  0
LINE
  5
40C
100
AcDbEntity
  8
RACCORDO
100
AcDbLine
 62
7
  6
CONTINUOUS
 10
-4.8416567331
 20
15.9842567508
 11
-4.8652697395
 21
15.9960759117
  0
LWPOLYLINE
  5
40D
100
AcDbEntity
  8
RACCORDO
100
AcDbPolyline
 62
7
  6
CONTINUOUS
 90
16
 70
0
 10
-4.8070525135
 20
15.9655368465
 10
-4.8100695189
 20
15.9670974774
 10
-4.8131312248
 20
15.9684035391
 10
-4.8163132044
 20
15.9694982596
 10
-4.8196113546
 20
15.9703801969
 10
-4.8230219266
 20
15.9710485248
 10
-4.8265404739
 20
15.9715022774
 10
-4.8301624597
 20
15.9717407779
 10
-4.8338837909
 20
15.971764021
 10
-4.8376996207
 20
15.9715718113
 10
-4.8416050301
 20
15.9711642435
 10
-4.845595635
 20
15.970542135
 10
-4.8496662423
 20
15.9697060616
 10
-4.8538116059
 20
15.9686568867
 10
-4.8580271077
 20
15.9673962428
 10
-4.8623072664
 20
15.9659254688
  0
LWPOLYLINE
  5
40E
100
AcDbEntity
  8
0
100
AcDbPolyline
 62
7
  6
CONTINUOUS
 90
27
 70
0
 10
-4.807007065
 20
15.9655110725
 10
-4.8100695189
 20
15.9670974774
 10
-4.8131312248
 20
15.9684035391
 10
-4.8163132044
 20
15.9694982596
 10
-4.8196113546
 20
15.9703801969
 10
-4.8230219266
 20
15.9710485248
 10
-4.8265404739
 20
15.9715022774
 10
-4.8301624597
 20
15.9717407779
 10
-4.8338837909
 20
15.971764021
 10
-4.8376996207
 20
15.9715718113
 10
-4.8416050301
 20
15.9711642435
 10
-4.845595635
 20
15.970542135
 10
-4.8496662423
 20
15.9697060616
 10
-4.8538116059
 20
15.9686568867
 10
-4.8580271077
 20
15.9673962428
 10
-4.8623072664
 20
15.9659254688
 10
-4.8666465668
 20
15.9642461855
 10
-4.8710402154
 20
15.9623608239
 10
-4.8754825031
 20
15.9602714697
 10
-4.8799677068
 20
15.9579804815
 10
-4.8844909191
 20
15.955491063
 10
-4.8890462661
 20
15.952806022
 10
-4.893627879
 20
15.9499284271
 10
-4.8982307972
 20
15.9468622211
 10
-4.90284939
 20
15.9436111321
 10
-4.9074773633
 20
15.9401786726
 10
-4.9121087323
 20
15.9365687914
  0
LWPOLYLINE
  5
40F
100
AcDbEntity
  8
0
100
AcDbPolyline
 62
7
  6
CONTINUOUS
 90
16
 70
0
 10
-4.8070070219
 20
15.9655110422
 10
-4.8482685657
 20
15.9876415136
 10
-4.9252624752
 20
16.0229391948
 10
-5.0061939083
 20
16.0527486439
 10
-5.0904364085
 20
16.076873077
 10
-5.1771653842
 20
16.0951182424
 10
-5.2656956428
 20
16.1073890858
 10
-5.3554609239
 20
16.1136314264
 10
-5.4457487752
 20
16.1137974267
 10
-5.5359468039
 20
16.1078688774
 10
-5.6253891559
 20
16.0958474695
 10
-5.7132901357
 20
16.0777881441
 10
-5.7991832065
 20
16.0537043224
 10
-5.8822744111
 20
16.0237024277
 10
-5.9614063935
 20
15.9881371499
 10
-6.0358936446
 20
15.9473140358
  0
LWPOLYLINE
  5
410
100
AcDbEntity
  8
RACCORDO
100
AcDbPolyline
 62
7
  6
CONTINUOUS
 90
3
 70
0
 10
-4.8070524717
 20
15.965536817
 10
-4.8184955703
 20
15.9719189774
 10
-4.8416567331
 20
15.9842567508
  0
LWPOLYLINE
  5
411
100
AcDbEntity
  8
0
100
AcDbPolyline
 62
7
  6
CONTINUOUS
 90
40
 70
0
 10
-4.7036111432
 20
16.3719814448
 10
-4.7327375636
 20
16.3917552986
 10
-4.7628634714
 20
16.4106276769
 10
-4.7939888669
 20
16.4285985796
 10
-4.8261674467
 20
16.4456942581
 10
-4.8593455141
 20
16.4618884611
 10
-4.8933619783
 20
16.4771024348
 10
-4.9282209398
 20
16.4913313955
 10
-4.9639182981
 20
16.5045801268
 10
-5.0002806612
 20
16.5167842259
 10
-5.037310934
 20
16.5279385474
 10
-5.0750062116
 20
16.5380482366
 10
-5.1131843871
 20
16.5470643264
 10
-5.1518482724
 20
16.5549816143
 10
-5.1909950557
 20
16.5618053029
 10
-5.2304341942
 20
16.5675020328
 10
-5.2701670103
 20
16.5720662612
 10
-5.3101921816
 20
16.575503531
 10
-5.3503151986
 20
16.5777971115
 10
-5.3905364526
 20
16.5789414241
 10
-5.4308555522
 20
16.5789420473
 10
-5.4710768136
 20
16.5777989865
 10
-5.5111997603
 20
16.5755066815
 10
-5.5512248687
 20
16.5720706925
 10
-5.5909578845
 20
16.5675077048
 10
-5.6303973867
 20
16.5618122397
 10
-5.6695447963
 20
16.554989776
 10
-5.7082101218
 20
16.5470734357
 10
-5.7463910185
 20
16.5380579013
 10
-5.7840898312
 20
16.5279484903
 10
-5.8211236025
 20
16.5167942779
 10
-5.8574890982
 20
16.5045901851
 10
-5.8931895526
 20
16.4913412909
 10
-5.9280517108
 20
16.4771119073
 10
-5.962071496
 20
16.4618972685
 10
-5.995252985
 20
16.4457021402
 10
-6.0274351529
 20
16.4286051327
 10
-6.0585643249
 20
16.4106324494
 10
-6.0886941757
 20
16.3917578867
 10
-6.1178247056
 20
16.3719814448
  0
LINE
  5
412
100
AcDbEntity
  8
RACCORDO
100
AcDbLine
 62
7
  6
CONTINUOUS
 10
-4.8032848718
 20
15.9631463198
 11
-4.8043222747
 21
15.963858148
  0
LWPOLYLINE
  5
413
100
AcDbEntity
  8
0
100
AcDbPolyline
 62
7
  6
CONTINUOUS
 90
3
 70
0
 10
-4.8032848718
 20
15.9631463198
 10
-4.8043222747
 20
15.963858148
 10
-4.807007065
 20
15.9655110725
  0
LINE
  5
414
100
AcDbEntity
  8
ASSI
100
AcDbLine
 62
7
  6
CONTINUOUS
 10
-1.4945692066
 20
14.1028461303
 11
-4.7036111432
 21
16.3719814448
  0
LINE
  5
415
100
AcDbEntity
  8
0
100
AcDbLine
 62
7
  6
CONTINUOUS
 10
-5.0571645338
 20
16.6219814448
 11
-5.4107179244
 21
16.8719814448
  0
LINE
  5
416
100
AcDbEntity
  8
DRAFT
100
AcDbLine
 62
7
  6
CONTINUOUS
 10
-5.0571645338
 20
17.0731433171
 11
-5.4107179244
 21
17.3231433171
  0
LINE
  5
417
100
AcDbEntity
  8
ASSI
100
AcDbLine
 62
250
  6
CONTINUOUS
 10
-5.7313487679
 20
18.9556691263
 11
-5.1258183333
 21
18.5274944497
  0
LINE
  5
418
100
AcDbEntity
  8
ASSI
100
AcDbLine
 62
250
  6
CONTINUOUS
 10
-0.176070865
 20
15.0274944497
 11
0.4294595697
 21
14.5993197731
  0
LINE
  5
419
100
AcDbEntity
  8
0
100
AcDbLine
 62
7
  6
CONTINUOUS
 10
-0.078436572
 20
15.0782549477
 11
-3.6593800273
 21
17.610364348
  0
LINE
  5
41A
100
AcDbEntity
  8
ASSI
100
AcDbLine
 62
7
  6
CONTINUOUS
 10
-5.3290578134
 20
18.927122627
 11
-4.9545833021
 21
18.6623291607
  0
LINE
  5
41B
100
AcDbEntity
  8
ASSI
100
AcDbLine
 62
7
  6
CONTINUOUS
 10
0.2259306158
 20
14.9991526393
 11
0.6004051271
 21
14.734359173
  0
LINE
  5
41C
100
AcDbEntity
  8
0
100
AcDbLine
 62
250
  6
CONTINUOUS
 10
16.6569791075
 20
2.1293470165
 11
15.8196889734
 21
2.8597605213
  0
LWPOLYLINE
  5
41D
100
AcDbEntity
  8
ASSI
100
AcDbPolyline
 62
7
  6
CONTINUOUS
 90
4
 70
0
 10
0.6004053244
 20
14.734356647
 10
0.6018971832
 20
14.7329906745
 10
0.6031377005
 20
14.7306279846
 10
0.6033956347
 20
14.728654269
  0
LINE
  5
41E
100
AcDbEntity
  8
RACCORDO
100
AcDbLine
 62
7
  6
CONTINUOUS
 10
7.1685364432
 20
9.9773894535
 11
5.9932872293
 21
11.9836653561
  0
LINE
  5
41F
100
AcDbEntity
  8
0
100
AcDbLine
 62
7
  6
CONTINUOUS
 10
7.1685364432
 20
9.9773894535
 11
5.9932872293
 21
11.9836653561
  0
LINE
  5
420
100
AcDbEntity
  8
0
100
AcDbLine
 62
250
  6
CONTINUOUS
 10
13.2506495037
 20
6.2112216286
 11
13.2506495037
 21
6.9183284098
  0
LINE
  5
421
100
AcDbEntity
  8
0
100
AcDbLine
 62
250
  6
CONTINUOUS
 10
13.4584832986
 20
13.1011213615
 11
13.4584832986
 21
13.2324411845
  0
LINE
  5
422
100
AcDbEntity
  8
0
100
AcDbLine
 62
250
  6
CONTINUOUS
 10
13.4938169689
 20
8.5813072867
 11
13.4938169689
 21
11.0561810208
  0
LINE
  5
423
100
AcDbEntity
  8
0
100
AcDbLine
 62
250
  6
CONTINUOUS
 10
13.9106754807
 20
12.7756311027
 11
13.9106754807
 21
8.8865438062
  0
LINE
  5
424
100
AcDbEntity
  8
0
100
AcDbLine
 62
250
  6
CONTINUOUS
 10
14.3275339926
 20
9.1917803256
 11
14.3275339926
 21
13.0808676222
  0
LINE
  5
425
100
AcDbEntity
  8
0
100
AcDbLine
 62
250
  6
CONTINUOUS
 10
14.7443925044
 20
11.9718905793
 11
14.7443925044
 21
9.4970168451
  0
LINE
  5
426
100
AcDbEntity
  8
0
100
AcDbLine
 62
250
  6
CONTINUOUS
 10
14.7791307138
 20
13.4115405183
 11
14.7791307138
 21
14.3307793338
  0
LINE
  5
427
100
AcDbEntity
  8
0
100
AcDbLine
 62
7
  6
CONTINUOUS
 10
14.8832466957
 20
5.7545409883
 11
14.8832466957
 21
6.1080943789
  0
LINE
  5
428
100
AcDbEntity
  8
0
100
AcDbLine
 62
250
  6
CONTINUOUS
 10
14.982398883
 20
2.2466711739
 11
14.982398883
 21
0.9031682897
  0
LINE
  5
429
100
AcDbEntity
  8
0
100
AcDbLine
 62
250
  6
CONTINUOUS
 10
14.9875599697
 20
8.190147241
 11
14.9875599697
 21
7.4830404598
  0
LINE
  5
42A
100
AcDbEntity
  8
0
100
AcDbLine
 62
7
  6
CONTINUOUS
 10
15.4842874597
 20
6.6142683292
 11
15.4842874597
 21
5.4795409883
  0
LINE
  5
42B
100
AcDbEntity
  8
0
100
AcDbLine
 62
250
  6
CONTINUOUS
 10
16.6569791075
 20
3.4728499007
 11
15.8196889734
 21
1.5162576371
  0
LINE
  5
42C
100
AcDbEntity
  8
0
100
AcDbLine
 62
250
  6
CONTINUOUS
 10
19.6057071178
 20
5.6319985067
 11
19.3963846061
 21
5.1908326798
  0
LINE
  5
42D
100
AcDbEntity
  8
RACCORDO
100
AcDbLine
 62
250
  6
CONTINUOUS
 10
-1.6687114878
 20
-26.0684162572
 11
-2.2910295198
 21
-26.8605882108
  0
LINE
  5
42E
100
AcDbEntity
  8
RACCORDO
100
AcDbLine
 62
250
  6
CONTINUOUS
 10
-1.3156752997
 20
-26.1715670452
 11
-2.0268959078
 21
-27.0769064208
  0
LINE
  5
42F
100
AcDbEntity
  8
0
100
AcDbLine
 62
250
  6
CONTINUOUS
 10
17.2711506069
 20
14.4786591153
 11
17.7724229077
 21
14.45174649
  0
LINE
  5
430
100
AcDbEntity
  8
0
100
AcDbLine
 62
250
  6
CONTINUOUS
 10
13.4584832986
 20
13.2324411845
 11
13.315262573
 21
13.2588904229
  0
LWPOLYLINE
  5
431
100
AcDbEntity
  8
RACCORDO
100
AcDbPolyline
 62
7
  6
CONTINUOUS
 90
25
 70
0
 10
-2.429214202
 20
18.6146175818
 10
-2.4397307106
 20
18.621650327
 10
-2.4571601185
 20
18.6317425708
 10
-2.4754264131
 20
18.6404790905
 10
-2.494515069
 20
18.6478455172
 10
-2.5144406117
 20
18.6538562199
 10
-2.5351373842
 20
18.6584913924
 10
-2.5566298988
 20
18.6617484422
 10
-2.5788936432
 20
18.6636299619
 10
-2.6017894234
 20
18.6641239239
 10
-2.6252987096
 20
18.6632235215
 10
-2.6494400318
 20
18.6609355614
 10
-2.6741297851
 20
18.6572684364
 10
-2.6993912113
 20
18.6522124117
 10
-2.7252010688
 20
18.6457772221
 10
-2.7514060277
 20
18.6380004644
 10
-2.7779899903
 20
18.6288808658
 10
-2.8049690543
 20
18.6184196992
 10
-2.8322381829
 20
18.6066583802
 10
-2.8598123626
 20
18.5935852609
 10
-2.8876766069
 20
18.5792119892
 10
-2.9156809199
 20
18.5636149248
 10
-2.9437753031
 20
18.546819521
 10
-2.9720097551
 20
18.5288003246
 10
-3.0003842759
 20
18.5095573355
  0
LINE
  5
432
100
AcDbEntity
  8
DRAFT
100
AcDbLine
 62
7
  6
CONTINUOUS
 10
-6.3495427165
 20
20.7113641099
 11
-6.3401536829
 21
20.7047250605
  0
LINE
  5
433
100
AcDbEntity
  8
0
100
AcDbLine
 62
7
  6
CONTINUOUS
 10
-6.3495427165
 20
20.7113641099
 11
-6.3401536829
 21
20.7047250605
  0
LINE
  5
434
100
AcDbEntity
  8
DRAFT
100
AcDbLine
 62
7
  6
CONTINUOUS
 10
5.3207452265
 20
12.459224367
 11
5.9932872293
 21
11.9836653561
  0
LINE
  5
435
100
AcDbEntity
  8
0
100
AcDbLine
 62
7
  6
CONTINUOUS
 10
5.3207452265
 20
12.459224367
 11
5.9932872293
 21
11.9836653561
  0
LINE
  5
436
100
AcDbEntity
  8
RACCORDO
100
AcDbLine
 62
250
  6
CONTINUOUS
 10
-6.0673502198
 20
20.6782297521
 11
-3.0003842759
 21
18.5095573355
  0
LINE
  5
437
100
AcDbEntity
  8
RACCORDO
100
AcDbLine
 62
250
  6
CONTINUOUS
 10
1.2422564112
 20
15.5095573355
 11
4.3092223551
 21
13.3408849189
  0
LINE
  5
438
100
AcDbEntity
  8
0
100
AcDbLine
 62
7
  6
CONTINUOUS
 10
15.4842874597
 20
5.4795409883
 11
14.8832466957
 21
5.9045409883
  0
LINE
  5
439
100
AcDbEntity
  8
0
100
AcDbLine
 62
7
  6
CONTINUOUS
 10
-2.2994480872
 20
18.0770066979
 11
1.2883066838
 21
15.5400809701
  0
LINE
  5
43A
100
AcDbEntity
  8
RACCORDO
100
AcDbLine
 62
7
  6
CONTINUOUS
 10
-5.7950021093
 20
20.9945890355
 11
-2.4292045992
 21
18.6146107919
  0
LINE
  5
43B
100
AcDbEntity
  8
RACCORDO
100
AcDbLine
 62
7
  6
CONTINUOUS
 10
1.813436088
 20
15.6146107919
 11
5.1792335981
 21
13.2346325484
  0
LINE
  5
43C
100
AcDbEntity
  8
0
100
AcDbLine
 62
250
  6
CONTINUOUS
 10
11.8343231178
 20
9.8410489969
 11
11.2614403945
 21
10.3408056055
  0
LINE
  5
43D
100
AcDbEntity
  8
0
100
AcDbLine
 62
250
  6
CONTINUOUS
 10
15.6823241561
 20
11.2444591857
 11
15.6823241561
 21
8.6988747735
  0
LINE
  5
43E
100
AcDbEntity
  8
0
100
AcDbLine
 62
250
  6
CONTINUOUS
 10
15.7100650719
 20
15.0124378709
 11
15.7100650719
 21
14.0931990553
  0
LINE
  5
43F
100
AcDbEntity
  8
0
100
AcDbLine
 62
7
  6
CONTINUOUS
 10
16.1206835628
 20
7.0828799159
 11
16.1206835628
 21
5.9295409883
  0
LINE
  5
440
100
AcDbEntity
  8
0
100
AcDbLine
 62
250
  6
CONTINUOUS
 10
16.6982679135
 20
14.3218165762
 11
16.6982679135
 21
13.4025777607
  0
LINE
  5
441
100
AcDbEntity
  8
0
100
AcDbLine
 62
250
  6
CONTINUOUS
 10
17.2711506069
 20
14.6099789383
 11
17.2711506069
 21
14.4786591153
  0
LINE
  5
442
100
AcDbEntity
  8
0
100
AcDbLine
 62
250
  6
CONTINUOUS
 10
17.7724229077
 20
14.45174649
 11
17.7724229077
 21
14.3204266533
  0
LINE
  5
443
100
AcDbEntity
  8
0
100
AcDbLine
 62
250
  6
CONTINUOUS
 10
19.3963846061
 20
4.1352232936
 11
20.129013528
 21
5.6313214807
  0
LWPOLYLINE
  5
444
100
AcDbEntity
  8
RACCORDO
100
AcDbPolyline
 62
7
  6
CONTINUOUS
 90
12
 70
0
 10
-0.4492979648
 20
-26.3162189093
 10
-0.4452658045
 20
-26.3116856324
 10
-0.4415895274
 20
-26.3067171343
 10
-0.4382775324
 20
-26.3013247219
 10
-0.4353373581
 20
-26.2955206377
 10
-0.4327755336
 20
-26.2893179421
 10
-0.4305979523
 20
-26.2827307515
 10
-0.4288096041
 20
-26.2757740296
 10
-0.4274143685
 20
-26.2684634202
 10
-0.4264154105
 20
-26.2608154898
 10
-0.4258151731
 20
-26.25284769
 10
-0.425615117
 20
-26.2445781424
  0
LWPOLYLINE
  5
445
100
AcDbEntity
  8
RACCORDO
100
AcDbPolyline
 62
250
  6
CONTINUOUS
 90
3
 70
0
 10
-5.6364065087
 20
-28.4427125653
 10
-5.6457656061
 20
-28.4512849632
 10
-5.6557629721
 20
-28.4589257514
  0
LINE
  5
446
100
AcDbEntity
  8
RACCORDO
100
AcDbLine
 62
250
  6
CONTINUOUS
 10
0.6350450548
 20
-21.3430139394
 11
7.5826869189
 21
-16.2046139133
  0
LINE
  5
447
100
AcDbEntity
  8
0
100
AcDbLine
 62
250
  6
CONTINUOUS
 10
0.6350450548
 20
-21.3430139394
 11
7.5826869189
 21
-16.2046139133
  0
LINE
  5
448
100
AcDbEntity
  8
RACCORDO
100
AcDbLine
 62
7
  6
CONTINUOUS
 10
0.6350450548
 20
-21.7841495978
 11
7.3318570317
 21
-16.8312606161
  0
LINE
  5
449
100
AcDbEntity
  8
0
100
AcDbLine
 62
7
  6
CONTINUOUS
 10
0.6350450548
 20
-21.7841495978
 11
7.3318570317
 21
-16.8312606161
  0
LINE
  5
44A
100
AcDbEntity
  8
RACCORDO
100
AcDbLine
 62
7
  6
CONTINUOUS
 10
-15.5359711839
 20
15.9717322191
 11
-14.8967788221
 21
16.0515775372
  0
LINE
  5
44B
100
AcDbEntity
  8
RACCORDO
100
AcDbLine
 62
250
  6
CONTINUOUS
 10
-15.3912140723
 20
16.0940791527
 11
-14.6799934642
 21
16.1829219473
  0
LINE
  5
44C
100
AcDbEntity
  8
0
100
AcDbLine
 62
250
  6
CONTINUOUS
 10
17.34276091
 20
13.8744951943
 11
17.2711506069
 21
13.8877198641
  0
LINE
  5
44D
100
AcDbEntity
  8
0
100
AcDbLine
 62
7
  6
CONTINUOUS
 10
19.0198213656
 20
7.9795409883
 11
18.4187806016
 21
8.4045409883
  0
LINE
  5
44E
100
AcDbEntity
  8
ASSI
100
AcDbLine
 62
7
  6
CONTINUOUS
 10
14.8832466957
 20
6.1080943789
 11
14.8519067975
 21
6.1486135207
  0
LINE
  5
44F
100
AcDbEntity
  8
0
100
AcDbLine
 62
7
  6
CONTINUOUS
 10
18.4187806016
 20
8.2545409883
 11
18.4187806016
 21
8.6080943789
  0
LINE
  5
450
100
AcDbEntity
  8
0
100
AcDbLine
 62
250
  6
CONTINUOUS
 10
18.4544332599
 20
3.4454977818
 11
18.4544332599
 21
4.789000666
  0
LINE
  5
451
100
AcDbEntity
  8
0
100
AcDbLine
 62
7
  6
CONTINUOUS
 10
19.0198213656
 20
9.2176660333
 11
19.0198213656
 21
7.9795409883
  0
LINE
  5
452
100
AcDbEntity
  8
0
100
AcDbLine
 62
7
  6
CONTINUOUS
 10
19.3380194171
 20
8.0995370822
 11
19.3380194171
 21
9.4519718266
  0
LINE
  5
453
100
AcDbEntity
  8
0
100
AcDbLine
 62
250
  6
CONTINUOUS
 10
20.129013528
 20
5.6313214807
 11
20.129013528
 21
5.8232504528
  0
LWPOLYLINE
  5
454
100
AcDbEntity
  8
RACCORDO
100
AcDbPolyline
 62
7
  6
CONTINUOUS
 90
3
 70
0
 10
-0.4575778083
 20
-26.3233618984
 10
-0.4536769621
 20
-26.3203067543
 10
-0.4492979648
 20
-26.3162189093
  0
LWPOLYLINE
  5
455
100
AcDbEntity
  8
RACCORDO
100
AcDbPolyline
 62
250
  6
CONTINUOUS
 90
13
 70
0
 10
0.0710908925
 20
-25.9420678154
 10
0.07451298
 20
-25.9394139711
 10
0.0793329352
 20
-25.9349552867
 10
0.0837293018
 20
-25.9299601108
 10
0.0876900235
 20
-25.9244421363
 10
0.0912042367
 20
-25.9184164921
 10
0.0942623002
 20
-25.9118997045
 10
0.0968558291
 20
-25.9049096371
 10
0.0989777086
 20
-25.8974654601
 10
0.1006221153
 20
-25.889587608
 10
0.1017845421
 20
-25.8812976931
 10
0.1024618066
 20
-25.8726184419
 10
0.1026520547
 20
-25.8635736555
  0
LINE
  5
456
100
AcDbEntity
  8
RACCORDO
100
AcDbLine
 62
250
  6
CONTINUOUS
 10
-0.0829936594
 20
-24.858466079
 11
0.6350450548
 21
-24.361998147
  0
LINE
  5
457
100
AcDbEntity
  8
RACCORDO
100
AcDbLine
 62
7
  6
CONTINUOUS
 10
-0.1454162116
 20
-25.0036884678
 11
0.5756748279
 21
-24.5051100902
  0
LWPOLYLINE
  5
458
100
AcDbEntity
  8
RACCORDO
100
AcDbPolyline
 62
250
  6
CONTINUOUS
 90
34
 70
0
 10
-6.2617083
 20
-28.081970741
 10
-6.2790026312
 20
-28.0939199455
 10
-6.2970280926
 20
-28.1052792693
 10
-6.3157447523
 20
-28.1160235481
 10
-6.3351111469
 20
-28.12612898
 10
-6.3550843738
 20
-28.1355731781
 10
-6.3756201862
 20
-28.1443352207
 10
-6.3966730908
 20
-28.1523956971
 10
-6.4181964488
 20
-28.1597367509
 10
-6.4401425793
 20
-28.1663421193
 10
-6.4624628648
 20
-28.1721971693
 10
-6.4851078588
 20
-28.1772889302
 10
-6.5080273955
 20
-28.1816061222
 10
-6.5311707012
 20
-28.1851391813
 10
-6.5544865061
 20
-28.1878802808
 10
-6.5779231585
 20
-28.1898233481
 10
-6.6014287388
 20
-28.1909640788
 10
-6.6249511749
 20
-28.1912999459
 10
-6.6484383572
 20
-28.1908302052
 10
-6.6718382542
 20
-28.1895558975
 10
-6.695099028
 20
-28.1874798456
 10
-6.7181691485
 20
-28.1846066487
 10
-6.7409975084
 20
-28.1809426719
 10
-6.7635335356
 20
-28.1764960319
 10
-6.7857273059
 20
-28.1712765795
 10
-6.807529653
 20
-28.1652958774
 10
-6.8288922781
 20
-28.1585671746
 10
-6.8497678561
 20
-28.1511053775
 10
-6.8701101412
 20
-28.1429270161
 10
-6.8898740689
 20
-28.1340502081
 10
-6.9090158559
 20
-28.1244946184
 10
-6.9274930971
 20
-28.1142814157
 10
-6.9452648598
 20
-28.1034332253
 10
-6.9622917738
 20
-28.0919740794
  0
LINE
  5
459
100
AcDbEntity
  8
0
100
AcDbLine
 62
250
  6
CONTINUOUS
 10
17.7724229077
 20
15.0426856933
 11
17.7008126046
 21
15.0559103837
  0
LINE
  5
45A
100
AcDbEntity
  8
0
100
AcDbLine
 62
7
  6
CONTINUOUS
 10
20.7364798601
 20
9.0934975852
 11
20.7522329795
 21
9.0823584476
  0
LINE
  5
45B
100
AcDbEntity
  8
ASSI
100
AcDbLine
 62
7
  6
CONTINUOUS
 10
18.4187806016
 20
8.6080943789
 11
18.3364869303
 21
8.7144913085
  0
LINE
  5
45C
100
AcDbEntity
  8
0
100
AcDbLine
 62
7
  6
CONTINUOUS
 10
20.7522329795
 20
9.0823584476
 11
20.7522329795
 21
10.4933309083
  0
LINE
  5
45D
100
AcDbEntity
  8
0
100
AcDbLine
 62
7
  6
CONTINUOUS
 10
21.7421824732
 20
9.7737192893
 11
21.7421824732
 21
11.2222822654
  0
LINE
  5
45E
100
AcDbEntity
  8
RACCORDO
100
AcDbLine
 62
250
  6
CONTINUOUS
 10
21.9473271407
 20
8.4110361055
 11
21.9473880567
 21
4.3415745218
  0
LINE
  5
45F
100
AcDbEntity
  8
0
100
AcDbLine
 62
250
  6
CONTINUOUS
 10
21.9473271407
 20
8.4110361055
 11
21.9473880567
 21
4.3415745218
  0
LINE
  5
460
100
AcDbEntity
  8
RACCORDO
100
AcDbLine
 62
7
  6
CONTINUOUS
 10
22.2279873404
 20
21.0061228509
 11
22.2279873404
 21
11.8133269983
  0
LINE
  5
461
100
AcDbEntity
  8
0
100
AcDbLine
 62
7
  6
CONTINUOUS
 10
22.2279873404
 20
21.0061228509
 11
22.2279873404
 21
11.8133269983
  0
LINE
  5
462
100
AcDbEntity
  8
RACCORDO
100
AcDbLine
 62
7
  6
CONTINUOUS
 10
22.2279873404
 20
8.9534453616
 11
22.2279873404
 21
4.8518183336
  0
LINE
  5
463
100
AcDbEntity
  8
0
100
AcDbLine
 62
7
  6
CONTINUOUS
 10
22.2279873404
 20
8.9534453616
 11
22.2279873404
 21
4.8518183336
  0
LWPOLYLINE
  5
464
100
AcDbEntity
  8
RACCORDO
100
AcDbPolyline
 62
250
  6
CONTINUOUS
 90
58
 70
0
 10
21.9473271407
 20
11.3733409657
 10
21.9473880567
 20
20.5348332776
 10
21.9469028818
 20
20.5550991006
 10
21.9458719841
 20
20.5757072919
 10
21.9442961463
 20
20.596642208
 10
21.9421765646
 20
20.6178879573
 10
21.939514848
 20
20.6394284125
 10
21.9363130168
 20
20.6612472223
 10
21.9325735017
 20
20.6833278242
 10
21.9282991412
 20
20.7056534571
 10
21.9234931799
 20
20.7282071738
 10
21.9181592661
 20
20.7509718539
 10
21.9123014486
 20
20.773930217
 10
21.9059241742
 20
20.7970648355
 10
21.8990322836
 20
20.8203581482
 10
21.8916310085
 20
20.8437924732
 10
21.8837259672
 20
20.8673500219
 10
21.8753231602
 20
20.8910129119
 10
21.8664289661
 20
20.9147631808
 10
21.8570501364
 20
20.9385828001
 10
21.8471937905
 20
20.9624536885
 10
21.8368674102
 20
20.9863577258
 10
21.8260788343
 20
21.0102767666
 10
21.8148362522
 20
21.0341926541
 10
21.803148198
 20
21.0580872342
 10
21.7910235442
 20
21.0819423685
 10
21.7784714943
 20
21.1057399489
 10
21.7655015766
 20
21.1294619108
 10
21.7521236364
 20
21.153090247
 10
21.7383478289
 20
21.1766070216
 10
21.724184611
 20
21.199994383
 10
21.7096447339
 20
21.2232345783
 10
21.6947392349
 20
21.2463099658
 10
21.6794794284
 20
21.2692030294
 10
21.6638768982
 20
21.291896391
 10
21.6479434879
 20
21.3143728244
 10
21.6316912924
 20
21.3366152678
 10
21.6151326487
 20
21.3586068373
 10
21.5982801263
 20
21.3803308392
 10
21.5811465178
 20
21.4017707829
 10
21.5637448291
 20
21.4229103937
 10
21.5460882699
 20
21.4437336246
 10
21.5281902428
 20
21.4642246689
 10
21.5100643344
 20
21.4843679719
 10
21.4917243036
 20
21.5041482432
 10
21.4731840724
 20
21.5235504676
 10
21.4544577145
 20
21.5425599172
 10
21.4355594447
 20
21.5611621619
 10
21.4165036088
 20
21.579343081
 10
21.3973046718
 20
21.5970888735
 10
21.3779772074
 20
21.6143860687
 10
21.358535887
 20
21.6312215364
 10
21.3389954683
 20
21.6475824971
 10
21.3193707843
 20
21.6634565312
 10
21.2996767319
 20
21.6788315889
 10
21.2799282607
 20
21.6936959991
 10
21.2601403616
 20
21.7080384784
 10
21.2403280553
 20
21.7218481395
  0
LWPOLYLINE
  5
465
100
AcDbEntity
  8
0
100
AcDbPolyline
 62
250
  6
CONTINUOUS
 90
58
 70
0
 10
21.9473271407
 20
11.3733409657
 10
21.9473880567
 20
20.5348332776
 10
21.9469028818
 20
20.5550991006
 10
21.9458719841
 20
20.5757072919
 10
21.9442961463
 20
20.596642208
 10
21.9421765646
 20
20.6178879573
 10
21.939514848
 20
20.6394284125
 10
21.9363130168
 20
20.6612472223
 10
21.9325735017
 20
20.6833278242
 10
21.9282991412
 20
20.7056534571
 10
21.9234931799
 20
20.7282071738
 10
21.9181592661
 20
20.7509718539
 10
21.9123014486
 20
20.773930217
 10
21.9059241742
 20
20.7970648355
 10
21.8990322836
 20
20.8203581482
 10
21.8916310085
 20
20.8437924732
 10
21.8837259672
 20
20.8673500219
 10
21.8753231602
 20
20.8910129119
 10
21.8664289661
 20
20.9147631808
 10
21.8570501364
 20
20.9385828001
 10
21.8471937905
 20
20.9624536885
 10
21.8368674102
 20
20.9863577258
 10
21.8260788343
 20
21.0102767666
 10
21.8148362522
 20
21.0341926541
 10
21.803148198
 20
21.0580872342
 10
21.7910235442
 20
21.0819423685
 10
21.7784714943
 20
21.1057399489
 10
21.7655015766
 20
21.1294619108
 10
21.7521236364
 20
21.153090247
 10
21.7383478289
 20
21.1766070216
 10
21.724184611
 20
21.199994383
 10
21.7096447339
 20
21.2232345783
 10
21.6947392349
 20
21.2463099658
 10
21.6794794284
 20
21.2692030294
 10
21.6638768982
 20
21.291896391
 10
21.6479434879
 20
21.3143728244
 10
21.6316912924
 20
21.3366152678
 10
21.6151326487
 20
21.3586068373
 10
21.5982801263
 20
21.3803308392
 10
21.5811465178
 20
21.4017707829
 10
21.5637448291
 20
21.4229103937
 10
21.5460882699
 20
21.4437336246
 10
21.5281902428
 20
21.4642246689
 10
21.5100643344
 20
21.4843679719
 10
21.4917243036
 20
21.5041482432
 10
21.4731840724
 20
21.5235504676
 10
21.4544577145
 20
21.5425599172
 10
21.4355594447
 20
21.5611621619
 10
21.4165036088
 20
21.579343081
 10
21.3973046718
 20
21.5970888735
 10
21.3779772074
 20
21.6143860687
 10
21.358535887
 20
21.6312215364
 10
21.3389954683
 20
21.6475824971
 10
21.3193707843
 20
21.6634565312
 10
21.2996767319
 20
21.6788315889
 10
21.2799282607
 20
21.6936959991
 10
21.2601403616
 20
21.7080384784
 10
21.2403280553
 20
21.7218481395
  0
LWPOLYLINE
  5
466
100
AcDbEntity
  8
0
100
AcDbPolyline
 62
250
  6
CONTINUOUS
 90
29
 70
0
 10
22.2279873404
 20
4.8518183336
 10
22.2279753765
 20
4.8483594576
 10
22.2274707831
 20
4.829093372
 10
22.2262239544
 20
4.8098441598
 10
22.2242358159
 20
4.7906261158
 10
22.2215078439
 20
4.7714535122
 10
22.218042064
 20
4.7523405868
 10
22.2138410497
 20
4.7333015334
 10
22.2089079206
 20
4.7143504912
 10
22.2032463399
 20
4.6955015336
 10
22.1968605118
 20
4.6767686582
 10
22.1897551786
 20
4.658165777
 10
22.1819356167
 20
4.6397067047
 10
22.1734076328
 20
4.6214051496
 10
22.1641775601
 20
4.603274703
 10
22.1542522529
 20
4.5853288292
 10
22.1436390818
 20
4.5675808549
 10
22.1323459284
 20
4.5500439606
 10
22.120381179
 20
4.5327311694
 10
22.107753719
 20
4.5156553382
 10
22.094472926
 20
4.4988291483
 10
22.0805486627
 20
4.4822650954
 10
22.0659912693
 20
4.4659754801
 10
22.0508115565
 20
4.4499723996
 10
22.0350207963
 20
4.4342677373
 10
22.018630716
 20
4.4188731566
 10
22.0016534897
 20
4.4038000921
 10
21.9841017263
 20
4.3890597381
 10
21.9659884595
 20
4.3746630401
  0
LWPOLYLINE
  5
467
100
AcDbEntity
  8
RACCORDO
100
AcDbPolyline
 62
250
  6
CONTINUOUS
 90
3
 70
0
 10
22.2279873404
 20
4.8518115318
 10
22.2279753765
 20
4.8483594576
 10
22.2274707831
 20
4.829093372
  0
LWPOLYLINE
  5
468
100
AcDbEntity
  8
RACCORDO
100
AcDbPolyline
 62
250
  6
CONTINUOUS
 90
29
 70
0
 10
22.2279753395
 20
21.0026586285
 10
22.2274705479
 20
20.9833927171
 10
22.2262235345
 20
20.9641436853
 10
22.2242352255
 20
20.9449258274
 10
22.2215070974
 20
20.9257534147
 10
22.218041176
 20
20.9066406849
 10
22.2138400351
 20
20.887601831
 10
22.2089067947
 20
20.8686509915
 10
22.203245118
 20
20.8498022394
 10
22.1968592096
 20
20.8310695718
 10
22.1897538116
 20
20.8124668997
 10
22.1819342006
 20
20.7940080376
 10
22.1734061833
 20
20.7757066932
 10
22.1641760928
 20
20.757576457
 10
22.1542507835
 20
20.7396307928
 10
22.1436376257
 20
20.721883027
 10
22.1323445011
 20
20.7043463393
 10
22.1203797958
 20
20.6870337524
 10
22.1077523951
 20
20.6699581229
 10
22.0944716759
 20
20.6531321312
 10
22.0805475007
 20
20.6365682723
 10
22.0659902097
 20
20.6202788467
 10
22.0508106131
 20
20.604275951
 10
22.0350199834
 20
20.5885714689
 10
22.0186300469
 20
20.5731770629
 10
22.0016529747
 20
20.5581041647
 10
21.9841013742
 20
20.5433639677
 10
21.9659882792
 20
20.528967418
 10
21.9473271407
 20
20.5149252065
  0
LWPOLYLINE
  5
469
100
AcDbEntity
  8
0
100
AcDbPolyline
 62
250
  6
CONTINUOUS
 90
29
 70
0
 10
22.2279753395
 20
21.0026586285
 10
22.2274705479
 20
20.9833927171
 10
22.2262235345
 20
20.9641436853
 10
22.2242352255
 20
20.9449258274
 10
22.2215070974
 20
20.9257534147
 10
22.218041176
 20
20.9066406849
 10
22.2138400351
 20
20.887601831
 10
22.2089067947
 20
20.8686509915
 10
22.203245118
 20
20.8498022394
 10
22.1968592096
 20
20.8310695718
 10
22.1897538116
 20
20.8124668997
 10
22.1819342006
 20
20.7940080376
 10
22.1734061833
 20
20.7757066932
 10
22.1641760928
 20
20.757576457
 10
22.1542507835
 20
20.7396307928
 10
22.1436376257
 20
20.721883027
 10
22.1323445011
 20
20.7043463393
 10
22.1203797958
 20
20.6870337524
 10
22.1077523951
 20
20.6699581229
 10
22.0944716759
 20
20.6531321312
 10
22.0805475007
 20
20.6365682723
 10
22.0659902097
 20
20.6202788467
 10
22.0508106131
 20
20.604275951
 10
22.0350199834
 20
20.5885714689
 10
22.0186300469
 20
20.5731770629
 10
22.0016529747
 20
20.5581041647
 10
21.9841013742
 20
20.5433639677
 10
21.9659882792
 20
20.528967418
 10
21.9473271407
 20
20.5149252065
  0
LWPOLYLINE
  5
46A
100
AcDbEntity
  8
RACCORDO
100
AcDbPolyline
 62
250
  6
CONTINUOUS
 90
27
 70
0
 10
22.2274707831
 20
4.829093372
 10
22.2262239544
 20
4.8098441598
 10
22.2242358159
 20
4.7906261158
 10
22.2215078439
 20
4.7714535122
 10
22.218042064
 20
4.7523405868
 10
22.2138410497
 20
4.7333015334
 10
22.2089079206
 20
4.7143504912
 10
22.2032463399
 20
4.6955015336
 10
22.1968605118
 20
4.6767686582
 10
22.1897551786
 20
4.658165777
 10
22.1819356167
 20
4.6397067047
 10
22.1734076328
 20
4.6214051496
 10
22.1641775601
 20
4.603274703
 10
22.1542522529
 20
4.5853288292
 10
22.1436390818
 20
4.5675808549
 10
22.1323459284
 20
4.5500439606
 10
22.120381179
 20
4.5327311694
 10
22.107753719
 20
4.5156553382
 10
22.094472926
 20
4.4988291483
 10
22.0805486627
 20
4.4822650954
 10
22.0659912693
 20
4.4659754801
 10
22.0508115565
 20
4.4499723996
 10
22.0350207963
 20
4.4342677373
 10
22.018630716
 20
4.4188731566
 10
22.0016534897
 20
4.4038000921
 10
21.9841017263
 20
4.3890597381
 10
21.9659884595
 20
4.3746630401
  0
LWPOLYLINE
  5
46B
100
AcDbEntity
  8
RACCORDO
100
AcDbPolyline
 62
250
  6
CONTINUOUS
 90
13
 70
0
 10
-2.0602227431
 20
-27.4342366118
 10
-2.0558109608
 20
-27.4308814311
 10
-2.050957501
 20
-27.4263973134
 10
-2.0465197777
 20
-27.4213715332
 10
-2.0425099539
 20
-27.4158178652
 10
-2.0389390197
 20
-27.409751531
 10
-2.0358167624
 20
-27.4031891573
 10
-2.0331517395
 20
-27.3961487304
 10
-2.0309512553
 20
-27.3886495467
 10
-2.029221341
 20
-27.38071216
 10
-2.027966738
 20
-27.3723583253
 10
-2.0271908847
 20
-27.3636109388
 10
-2.0268959078
 20
-27.3544939756
  0
LINE
  5
46C
100
AcDbEntity
  8
RACCORDO
100
AcDbLine
 62
250
  6
CONTINUOUS
 10
0.1026520547
 20
-25.8635736555
 11
-0.425615117
 21
-26.2445781424
  0
LINE
  5
46D
100
AcDbEntity
  8
RACCORDO
100
AcDbLine
 62
7
  6
CONTINUOUS
 10
0.0710908925
 20
-25.9420678154
 11
-0.4575777882
 21
-26.3233618845
  0
LINE
  5
46E
100
AcDbEntity
  8
RACCORDO
100
AcDbLine
 62
7
  6
CONTINUOUS
 10
-0.4585334477
 20
-26.3240376267
 11
-0.4575778083
 21
-26.3233618984
  0
LINE
  5
46F
100
AcDbEntity
  8
RACCORDO
100
AcDbLine
 62
250
  6
CONTINUOUS
 10
-0.425615117
 20
-26.2445781424
 11
-2.0268959078
 21
-27.3544939756
  0
LINE
  5
470
100
AcDbEntity
  8
RACCORDO
100
AcDbLine
 62
7
  6
CONTINUOUS
 10
-0.458533428
 20
-26.324037613
 11
-2.0602227431
 21
-27.4342366118
  0
LINE
  5
471
100
AcDbEntity
  8
RACCORDO
100
AcDbLine
 62
250
  6
CONTINUOUS
 10
-5.6557629721
 20
-28.4589257514
 11
-5.6609171427
 21
-28.4623428145
  0
LINE
  5
472
100
AcDbEntity
  8
RACCORDO
100
AcDbLine
 62
7
  6
CONTINUOUS
 10
-0.1454159026
 20
-25.0036882541
 11
-0.1494458036
 21
-25.0063518345
  0
LINE
  5
473
100
AcDbEntity
  8
RACCORDO
100
AcDbLine
 62
250
  6
CONTINUOUS
 10
-0.7011943435
 20
-25.2489033944
 11
-0.0829936594
 21
-24.858466079
  0
LINE
  5
474
100
AcDbEntity
  8
RACCORDO
100
AcDbLine
 62
7
  6
CONTINUOUS
 10
-1.4962754545
 20
-25.8566324966
 11
-0.1494458649
 21
-25.006351877
  0
LWPOLYLINE
  5
475
100
AcDbEntity
  8
RACCORDO
100
AcDbPolyline
 62
7
  6
CONTINUOUS
 90
8
 70
0
 10
-5.660926643
 20
-28.4623488129
 10
-5.1288315614
 20
-28.1274686116
 10
-4.5717554015
 20
-27.778729003
 10
-3.9950779724
 20
-27.4189972894
 10
-3.3990450368
 20
-27.0477378596
 10
-2.7837458169
 20
-26.6642084931
 10
-2.1492486967
 20
-26.26744772
 10
-1.4962754545
 20
-25.8566324966
  0
LWPOLYLINE
  5
476
100
AcDbEntity
  8
RACCORDO
100
AcDbPolyline
 62
250
  6
CONTINUOUS
 90
7
 70
0
 10
-5.4023472692
 20
-28.1815375234
 10
-5.218396828
 20
-28.0659779796
 10
-5.022414165
 20
-27.9432553562
 10
-4.8137138928
 20
-27.8129558249
 10
-4.5929813988
 20
-27.6754932141
 10
-4.3622728442
 20
-27.5321090087
 10
-4.1215915862
 20
-27.3828688904
  0
LWPOLYLINE
  5
477
100
AcDbEntity
  8
RACCORDO
100
AcDbPolyline
 62
250
  6
CONTINUOUS
 90
9
 70
0
 10
-4.1215915862
 20
-27.3828688904
 10
-3.3458327911
 20
-26.9028120808
 10
-3.0713886333
 20
-26.7330786968
 10
-2.7910513795
 20
-26.5593332236
 10
-2.5048207887
 20
-26.3815705227
 10
-2.2126971019
 20
-26.1997957327
 10
-1.916717916
 20
-26.0148893339
 10
-1.6168572025
 20
-25.8265145251
 10
-0.7011943435
 20
-25.2489033944
  0
LINE
  5
478
100
AcDbEntity
  8
RACCORDO
100
AcDbLine
 62
7
  6
CONTINUOUS
 10
21.9350941216
 20
9.5856176658
 11
21.7421824732
 21
9.7737192893
  0
LINE
  5
479
100
AcDbEntity
  8
0
100
AcDbLine
 62
7
  6
CONTINUOUS
 10
21.9350941216
 20
9.5856176658
 11
21.7421824732
 21
9.7737192893
  0
LINE
  5
47A
100
AcDbEntity
  8
0
100
AcDbLine
 62
250
  6
CONTINUOUS
 10
9.5401203889
 20
30.4954377013
 11
9.5351878408
 21
30.4988270514
  0
LWPOLYLINE
  5
47B
100
AcDbEntity
  8
0
100
AcDbPolyline
 62
250
  6
CONTINUOUS
 90
36
 70
0
 10
21.8050351896
 20
21.8228329393
 10
21.8006880992
 20
21.8258289544
 10
21.7891742662
 20
21.8331386707
 10
21.7772436843
 20
21.8398342315
 10
21.7649052134
 20
21.8459106642
 10
21.7521680157
 20
21.8513634563
 10
21.7390415498
 20
21.8561885582
 10
21.7255355638
 20
21.8603823863
 10
21.7116600873
 20
21.8639418259
 10
21.6974254245
 20
21.8668642333
 10
21.682842146
 20
21.8691474383
 10
21.667921082
 20
21.8707897448
 10
21.6526733129
 20
21.871789933
 10
21.6371101619
 20
21.8721472601
 10
21.6212431869
 20
21.8718614603
 10
21.6050841708
 20
21.8709327459
 10
21.5886451136
 20
21.8693618062
 10
21.5719382235
 20
21.8671498078
 10
21.5549759074
 20
21.8642983932
 10
21.5377707617
 20
21.8608096798
 10
21.5203355636
 20
21.8566862584
 10
21.5026832609
 20
21.851931191
 10
21.4848269624
 20
21.8465480086
 10
21.4667799288
 20
21.840540709
 10
21.4485555621
 20
21.8339137531
 10
21.4301673961
 20
21.8266720622
 10
21.4116290866
 20
21.8188210143
 10
21.3929544008
 20
21.8103664398
 10
21.3741572067
 20
21.8013146171
 10
21.3552514635
 20
21.7916722683
 10
21.3362512102
 20
21.7814465535
 10
21.3171705576
 20
21.7706450669
 10
21.2980236784
 20
21.7592758317
 10
21.2788247924
 20
21.7473472918
 10
21.2595881562
 20
21.7348683053
 10
21.2403280553
 20
21.7218481395
  0
LWPOLYLINE
  5
47C
100
AcDbEntity
  8
RACCORDO
100
AcDbPolyline
 62
250
  6
CONTINUOUS
 90
36
 70
0
 10
21.8053376096
 20
21.8226194318
 10
21.8006880992
 20
21.8258289544
 10
21.7891742662
 20
21.8331386707
 10
21.7772436843
 20
21.8398342315
 10
21.7649052134
 20
21.8459106642
 10
21.7521680157
 20
21.8513634563
 10
21.7390415498
 20
21.8561885582
 10
21.7255355638
 20
21.8603823863
 10
21.7116600873
 20
21.8639418259
 10
21.6974254245
 20
21.8668642333
 10
21.682842146
 20
21.8691474383
 10
21.667921082
 20
21.8707897448
 10
21.6526733129
 20
21.871789933
 10
21.6371101619
 20
21.8721472601
 10
21.6212431869
 20
21.8718614603
 10
21.6050841708
 20
21.8709327459
 10
21.5886451136
 20
21.8693618062
 10
21.5719382235
 20
21.8671498078
 10
21.5549759074
 20
21.8642983932
 10
21.5377707617
 20
21.8608096798
 10
21.5203355636
 20
21.8566862584
 10
21.5026832609
 20
21.851931191
 10
21.4848269624
 20
21.8465480086
 10
21.4667799288
 20
21.840540709
 10
21.4485555621
 20
21.8339137531
 10
21.4301673961
 20
21.8266720622
 10
21.4116290866
 20
21.8188210143
 10
21.3929544008
 20
21.8103664398
 10
21.3741572067
 20
21.8013146171
 10
21.3552514635
 20
21.7916722683
 10
21.3362512102
 20
21.7814465535
 10
21.3171705576
 20
21.7706450669
 10
21.2980236784
 20
21.7592758317
 10
21.2788247924
 20
21.7473472918
 10
21.2595881562
 20
21.7348683053
 10
21.2403280553
 20
21.7218481395
  0
LWPOLYLINE
  5
47D
100
AcDbEntity
  8
RACCORDO
100
AcDbPolyline
 62
250
  6
CONTINUOUS
 90
3
 70
0
 10
9.5401203889
 20
30.4954377013
 10
9.5354671727
 20
30.4986497205
 10
9.523953296
 20
30.50595918
  0
LINE
  5
47E
100
AcDbEntity
  8
RACCORDO
100
AcDbLine
 62
250
  6
CONTINUOUS
 10
8.9751108346
 20
30.394666409
 11
21.2403280553
 21
21.7218481395
  0
LINE
  5
47F
100
AcDbEntity
  8
0
100
AcDbLine
 62
250
  6
CONTINUOUS
 10
8.9751108346
 20
30.394666409
 11
21.2403280553
 21
21.7218481395
  0
LINE
  5
480
100
AcDbEntity
  8
RACCORDO
100
AcDbLine
 62
7
  6
CONTINUOUS
 10
9.5401203889
 20
30.4954377013
 11
21.8053376096
 21
21.8226194318
  0
LINE
  5
481
100
AcDbEntity
  8
0
100
AcDbLine
 62
7
  6
CONTINUOUS
 10
9.5401203889
 20
30.4954377013
 11
21.8053376096
 21
21.8226194318
  0
LWPOLYLINE
  5
482
100
AcDbEntity
  8
RACCORDO
100
AcDbPolyline
 62
250
  6
CONTINUOUS
 90
35
 70
0
 10
8.9751108346
 20
30.394666409
 10
8.9559689023
 20
30.4084015541
 10
8.9368321328
 20
30.421582972
 10
8.9177150525
 20
30.4342006568
 10
8.8986321732
 20
30.4462450305
 10
8.8795979805
 20
30.4577069503
 10
8.860626923
 20
30.4685777156
 10
8.8417334015
 20
30.4788490744
 10
8.822931758
 20
30.48851323
 10
8.8042362646
 20
30.4975628462
 10
8.7856611129
 20
30.5059910537
 10
8.7672204032
 20
30.5137914545
 10
8.7489281335
 20
30.5209581276
 10
8.7307981895
 20
30.5274856327
 10
8.7128443335
 20
30.5333690149
 10
8.6950801939
 20
30.5386038082
 10
8.6775192555
 20
30.5431860388
 10
8.6601748486
 20
30.5471122284
 10
8.6430601393
 20
30.5503793967
 10
8.626188119
 20
30.5529850637
 10
8.6095715953
 20
30.5549272513
 10
8.5932231816
 20
30.5562044853
 10
8.5771552878
 20
30.5568157961
 10
8.5613801109
 20
30.5567607198
 10
8.5459096258
 20
30.556039298
 10
8.530755576
 20
30.5546520785
 10
8.5159294647
 20
30.5526001142
 10
8.5014425464
 20
30.5498849628
 10
8.4873058179
 20
30.5465086853
 10
8.4735300103
 20
30.5424738447
 10
8.4601255807
 20
30.5377835037
 10
8.4471027043
 20
30.5324412228
 10
8.4344712667
 20
30.5264510572
 10
8.4222408562
 20
30.519817554
 10
8.4109307995
 20
30.5128595303
  0
LWPOLYLINE
  5
483
100
AcDbEntity
  8
0
100
AcDbPolyline
 62
250
  6
CONTINUOUS
 90
36
 70
0
 10
8.9751108346
 20
30.394666409
 10
8.9559689023
 20
30.4084015541
 10
8.9368321328
 20
30.421582972
 10
8.9177150525
 20
30.4342006568
 10
8.8986321732
 20
30.4462450305
 10
8.8795979805
 20
30.4577069503
 10
8.860626923
 20
30.4685777156
 10
8.8417334015
 20
30.4788490744
 10
8.822931758
 20
30.48851323
 10
8.8042362646
 20
30.4975628462
 10
8.7856611129
 20
30.5059910537
 10
8.7672204032
 20
30.5137914545
 10
8.7489281335
 20
30.5209581276
 10
8.7307981895
 20
30.5274856327
 10
8.7128443335
 20
30.5333690149
 10
8.6950801939
 20
30.5386038082
 10
8.6775192555
 20
30.5431860388
 10
8.6601748486
 20
30.5471122284
 10
8.6430601393
 20
30.5503793967
 10
8.626188119
 20
30.5529850637
 10
8.6095715953
 20
30.5549272513
 10
8.5932231816
 20
30.5562044853
 10
8.5771552878
 20
30.5568157961
 10
8.5613801109
 20
30.5567607198
 10
8.5459096258
 20
30.556039298
 10
8.530755576
 20
30.5546520785
 10
8.5159294647
 20
30.5526001142
 10
8.5014425464
 20
30.5498849628
 10
8.4873058179
 20
30.5465086853
 10
8.4735300103
 20
30.5424738447
 10
8.4601255807
 20
30.5377835037
 10
8.4471027043
 20
30.5324412228
 10
8.4344712667
 20
30.5264510572
 10
8.4222408562
 20
30.519817554
 10
8.4104207569
 20
30.5125457487
 10
8.4086332045
 20
30.5113666601
  0
LWPOLYLINE
  5
484
100
AcDbEntity
  8
RACCORDO
100
AcDbPolyline
 62
250
  6
CONTINUOUS
 90
34
 70
0
 10
9.523953296
 20
30.50595918
 10
9.5120226816
 20
30.5126544913
 10
9.4996841893
 20
30.5187306824
 10
9.4869469816
 20
30.5241832412
 10
9.4738205173
 20
30.5290081186
 10
9.4603145441
 20
30.5332017315
 10
9.4464390917
 20
30.5367609658
 10
9.4322044641
 20
30.5396831784
 10
9.4176212319
 20
30.5419661991
 10
9.4027002249
 20
30.5436083328
 10
9.3874525233
 20
30.5446083598
 10
9.3718894502
 20
30.5449655375
 10
9.3560225628
 20
30.5446796008
 10
9.3398636441
 20
30.5437507618
 10
9.3234246936
 20
30.5421797106
 10
9.306717919
 20
30.5399676135
 10
9.2897557269
 20
30.5371161135
 10
9.2725507135
 20
30.533627328
 10
9.2551156554
 20
30.5295038479
 10
9.2374634998
 20
30.5247487351
 10
9.2196073554
 20
30.519365521
 10
9.2015604823
 20
30.5133582031
 10
9.1833362821
 20
30.5067312425
 10
9.1649482883
 20
30.4994895604
 10
9.1464101559
 20
30.4916385346
 10
9.1277356513
 20
30.4831839951
 10
9.1089386425
 20
30.4741322205
 10
9.0900330881
 20
30.4644899326
 10
9.0710330275
 20
30.4542642918
 10
9.0519525703
 20
30.4434628918
 10
9.0328058857
 20
30.4320937537
 10
9.0136071922
 20
30.4201653203
 10
8.9943707468
 20
30.4076864498
 10
8.9751108346
 20
30.394666409
  0
LWPOLYLINE
  5
485
100
AcDbEntity
  8
0
100
AcDbPolyline
 62
250
  6
CONTINUOUS
 90
35
 70
0
 10
9.5351878408
 20
30.4988270514
 10
9.523953296
 20
30.50595918
 10
9.5120226816
 20
30.5126544913
 10
9.4996841893
 20
30.5187306824
 10
9.4869469816
 20
30.5241832412
 10
9.4738205173
 20
30.5290081186
 10
9.4603145441
 20
30.5332017315
 10
9.4464390917
 20
30.5367609658
 10
9.4322044641
 20
30.5396831784
 10
9.4176212319
 20
30.5419661991
 10
9.4027002249
 20
30.5436083328
 10
9.3874525233
 20
30.5446083598
 10
9.3718894502
 20
30.5449655375
 10
9.3560225628
 20
30.5446796008
 10
9.3398636441
 20
30.5437507618
 10
9.3234246936
 20
30.5421797106
 10
9.306717919
 20
30.5399676135
 10
9.2897557269
 20
30.5371161135
 10
9.2725507135
 20
30.533627328
 10
9.2551156554
 20
30.5295038479
 10
9.2374634998
 20
30.5247487351
 10
9.2196073554
 20
30.519365521
 10
9.2015604823
 20
30.5133582031
 10
9.1833362821
 20
30.5067312425
 10
9.1649482883
 20
30.4994895604
 10
9.1464101559
 20
30.4916385346
 10
9.1277356513
 20
30.4831839951
 10
9.1089386425
 20
30.4741322205
 10
9.0900330881
 20
30.4644899326
 10
9.0710330275
 20
30.4542642918
 10
9.0519525703
 20
30.4434628918
 10
9.0328058857
 20
30.4320937537
 10
9.0136071922
 20
30.4201653203
 10
8.9943707468
 20
30.4076864498
 10
8.9751108346
 20
30.394666409
  0
ARC
  5
486
100
AcDbEntity
  8
RACCORDO
100
AcDbCircle
 62
7
  6
CONTINUOUS
 10
21.2279873404
 20
4.8518183336
 40
1.0
100
AcDbArc
 50
306.8697592971
 51
359.9996102864
  0
ARC
  5
487
100
AcDbEntity
  8
RACCORDO
100
AcDbCircle
 62
7
  6
CONTINUOUS
 10
21.2279873404
 20
21.0061228509
 40
1.0
100
AcDbArc
 50
0.0
 51
54.7353865223
  0
ARC
  5
488
100
AcDbEntity
  8
RACCORDO
100
AcDbCircle
 62
7
  6
CONTINUOUS
 10
8.9627701197
 20
29.6789411204
 40
1.0
100
AcDbArc
 50
54.7356103172
 51
123.6512780921
  0
ARC
  5
489
100
AcDbEntity
  8
0
100
AcDbCircle
 62
7
  6
CONTINUOUS
 10
8.9627701197
 20
29.6789411204
 40
1.0
100
AcDbArc
 50
54.7356103172
 51
123.6584988134
  0
ARC
  5
48A
100
AcDbEntity
  8
0
100
AcDbCircle
 62
7
  6
CONTINUOUS
 10
21.2279873404
 20
21.0061228509
 40
1.0
100
AcDbArc
 50
0.0
 51
54.7568208449
  0
ARC
  5
48B
100
AcDbEntity
  8
0
100
AcDbCircle
 62
7
  6
CONTINUOUS
 10
21.2279873404
 20
4.8518183336
 40
1.0
100
AcDbArc
 50
306.8625324287
 51
359.997754468
  0
ARC
  5
48C
100
AcDbEntity
  8
RACCORDO
100
AcDbCircle
 62
7
  6
CONTINUOUS
 10
-16.8919440164
 20
17.1567099058
 40
0.25
100
AcDbArc
 50
180.0
 51
234.7337383644
  0
ARC
  5
48D
100
AcDbEntity
  8
RACCORDO
100
AcDbCircle
 62
7
  6
CONTINUOUS
 10
-13.4394682527
 20
17.9991991766
 40
0.25
100
AcDbArc
 50
359.9999644709
 51
54.7356103172
  0
ARC
  5
48E
100
AcDbEntity
  8
RACCORDO
100
AcDbCircle
 62
7
  6
CONTINUOUS
 10
-13.4394682527
 20
17.7154408814
 40
0.25
100
AcDbArc
 50
322.3484273768
 51
0.000031291
  0
ARC
  5
48F
100
AcDbEntity
  8
RACCORDO
100
AcDbCircle
 62
7
  6
CONTINUOUS
 10
-14.7767944133
 20
18.9448315733
 40
0.25
100
AcDbArc
 50
54.7356103172
 51
124.7283141429
  0
ARC
  5
490
100
AcDbEntity
  8
RACCORDO
100
AcDbCircle
 62
7
  6
CONTINUOUS
 10
-16.8919440164
 20
17.4342974606
 40
0.25
100
AcDbArc
 50
125.8021015979
 51
180.0
  0
ARC
  5
491
100
AcDbEntity
  8
RACCORDO
100
AcDbCircle
 62
7
  6
CONTINUOUS
 10
-15.5669593366
 20
16.2198042537
 40
0.25
100
AcDbArc
 50
234.7356312914
 51
277.1202929351
  0
ARC
  5
492
100
AcDbEntity
  8
RACCORDO
100
AcDbCircle
 62
7
  6
CONTINUOUS
 10
-0.0751500883
 20
8.5491991766
 40
0.25
100
AcDbArc
 50
0.0
 51
54.7337383644
  0
ARC
  5
493
100
AcDbEntity
  8
RACCORDO
100
AcDbCircle
 62
7
  6
CONTINUOUS
 10
-0.0751500883
 20
8.2654408814
 40
0.25
100
AcDbArc
 50
322.3484273768
 51
0.000031291
  0
ARC
  5
494
100
AcDbEntity
  8
RACCORDO
100
AcDbCircle
 62
7
  6
CONTINUOUS
 10
-1.4124762488
 20
9.4948315733
 40
0.25
100
AcDbArc
 50
54.7348778847
 51
124.7274761422
  0
ARC
  5
495
100
AcDbEntity
  8
RACCORDO
100
AcDbCircle
 62
7
  6
CONTINUOUS
 10
-3.527625852
 20
7.9842974606
 40
0.25
100
AcDbArc
 50
125.7989647862
 51
180.0006402851
  0
ARC
  5
496
100
AcDbEntity
  8
RACCORDO
100
AcDbCircle
 62
7
  6
CONTINUOUS
 10
-3.527625852
 20
7.7067099058
 40
0.25
100
AcDbArc
 50
180.0
 51
234.7337383644
  0
ARC
  5
497
100
AcDbEntity
  8
RACCORDO
100
AcDbCircle
 62
7
  6
CONTINUOUS
 10
-2.2026411722
 20
6.7698042537
 40
0.25
100
AcDbArc
 50
234.7356312914
 51
277.1202929351
  0
ARC
  5
498
100
AcDbEntity
  8
RACCORDO
100
AcDbCircle
 62
7
  6
CONTINUOUS
 10
-0.0751500883
 20
-25.4555446921
 40
0.25
100
AcDbArc
 50
0.0
 51
54.7343620246
  0
ARC
  5
499
100
AcDbEntity
  8
RACCORDO
100
AcDbCircle
 62
7
  6
CONTINUOUS
 10
-0.0751500883
 20
-25.7393029873
 40
0.25
100
AcDbArc
 50
305.7989647862
 51
0.0006402851
  0
ARC
  5
49A
100
AcDbEntity
  8
RACCORDO
100
AcDbCircle
 62
7
  6
CONTINUOUS
 10
-2.2026411722
 20
-27.2287688746
 40
0.25
100
AcDbArc
 50
234.7348778847
 51
304.7274761422
  0
ELLIPSE
  5
49B
100
AcDbEntity
  8
RACCORDO
100
AcDbEllipse
 62
7
  6
CONTINUOUS
 10
4.8310879135
 20
12.5290393479
 30
0.0
 11
0.4999901211
 21
0.0044178673
 31
0.0
 40
0.7114427855
 41
-0.7742310319
 42
-0.0062861635
  0
ELLIPSE
  5
49C
100
AcDbEntity
  8
ASSI
100
AcDbEllipse
 62
7
  6
CONTINUOUS
 10
-5.7334176131
 20
18.6006757477
 30
0.0
 11
0.2909220301
 21
0.4066571475
 31
0.0
 40
0.5028975229
 41
0.8084887981
 42
0.9522680419
  0
ELLIPSE
  5
49D
100
AcDbEntity
  8
RACCORDO
100
AcDbEllipse
 62
7
  6
CONTINUOUS
 10
-16.6854972349
 20
-3.8915183362
 30
0.0
 11
0.2920512476
 21
0.405855684
 31
0.0
 40
0.5043376775
 41
-2.1979542656
 42
-2.1908288146
  0
ELLIPSE
  5
49E
100
AcDbEntity
  8
RACCORDO
100
AcDbEllipse
 62
7
  6
CONTINUOUS
 10
0.3167985327
 20
-24.1370123363
 30
0.0
 11
-0.2598574739
 21
0.3674116016
 31
0.0
 40
0.500052747
 41
-3.14691313
 42
-2.5261688785
  0
ELLIPSE
  5
49F
100
AcDbEntity
  8
RACCORDO
100
AcDbEllipse
 62
7
  6
CONTINUOUS
 10
0.3167985327
 20
6.89260947
 30
0.0
 11
-0.2598699022
 21
0.3674819572
 31
0.0
 40
0.4999091726
 41
-2.5262365275
 42
-0.9552879016
  0
ELLIPSE
  5
4A0
100
AcDbEntity
  8
RACCORDO
100
AcDbEllipse
 62
7
  6
CONTINUOUS
 10
-5.8944501819
 20
20.8727616671
 30
0.0
 11
0.4981965676
 21
0.2578855198
 31
0.0
 40
0.1645246646
 41
1.3610069871
 42
2.2537819703
  0
ELLIPSE
  5
4A1
100
AcDbEntity
  8
RACCORDO
100
AcDbEllipse
 62
7
  6
CONTINUOUS
 10
-11.0655092771
 20
14.7533900835
 30
0.0
 11
0.4999956634
 21
0.0029330207
 31
0.0
 40
0.7100035806
 41
2.3578473319
 42
2.9984427263
  0
ELLIPSE
  5
4A2
100
AcDbEntity
  8
ASSI
100
AcDbEllipse
 62
7
  6
CONTINUOUS
 10
0.4274146576
 20
14.2443094713
 30
0.0
 11
0.2864434374
 21
0.4098240801
 31
0.0
 40
0.4970799119
 41
0.8030036062
 42
0.94678285
  0
ELLIPSE
  5
4A3
100
AcDbEntity
  8
RACCORDO
100
AcDbEllipse
 62
7
  6
CONTINUOUS
 10
-18.6563813965
 20
-8.8625606862
 30
0.0
 11
0.2920512476
 21
0.405855684
 31
0.0
 40
0.5043376775
 41
0.9682171315
 42
0.978145325
  0
ELLIPSE
  5
4A4
100
AcDbEntity
  8
DRAFT
100
AcDbEllipse
 62
7
  6
CONTINUOUS
 10
-5.3795627822
 20
17.7702305014
 30
0.0
 11
0.4279621354
 21
-0.0036892411
 31
0.0
 40
0.7027169147
 41
-0.7793404771
 42
0.0060576809
  0
ELLIPSE
  5
4A5
100
AcDbEntity
  8
RACCORDO
100
AcDbEllipse
 62
7
  6
CONTINUOUS
 10
4.8310879135
 20
13.2886609479
 30
0.0
 11
-0.322276671
 21
0.6225907194
 31
0.0
 40
0.6140144074
 41
-3.0391801337
 42
-2.1464051505
  0
ELLIPSE
  5
4A6
100
AcDbEntity
  8
RACCORDO
100
AcDbEllipse
 62
7
  6
CONTINUOUS
 10
5.0101316194
 20
12.1294608329
 30
0.0
 11
-0.644553342
 21
1.2451814388
 31
0.0
 40
0.6140144074
 41
5.2601124151
 42
6.3594178883
  0
ELLIPSE
  5
4A7
100
AcDbEntity
  8
RACCORDO
100
AcDbEllipse
 62
7
  6
CONTINUOUS
 10
-11.0655092771
 20
13.7469685552
 30
0.0
 11
0.4995713106
 21
0.0282705192
 31
0.0
 40
0.7322248791
 41
3.1001800613
 42
3.8855782259
  0
ELLIPSE
  5
4A8
100
AcDbEntity
  8
RACCORDO
100
AcDbEllipse
 62
7
  6
CONTINUOUS
 10
-6.780600669
 20
20.4667675891
 30
0.0
 11
0.9963931352
 21
0.5157710396
 31
0.0
 40
0.1645246646
 41
-0.8616307445
 42
0.2376747287
  0
ELLIPSE
  5
4A9
100
AcDbEntity
  8
RACCORDO
100
AcDbEllipse
 62
7
  6
CONTINUOUS
 10
-5.5542021774
 20
9.8498859319
 30
0.0
 11
0.4995713106
 21
0.0282705192
 31
0.0
 40
0.7322248791
 41
-2.3976070813
 42
-0.8326285187
  0
ELLIPSE
  5
4AA
100
AcDbEntity
  8
RACCORDO
100
AcDbEllipse
 62
7
  6
CONTINUOUS
 10
-5.5542021774
 20
10.8563074601
 30
0.0
 11
0.4999956634
 21
0.0029330207
 31
0.0
 40
0.7100035806
 41
-1.4359762445
 42
-0.7953808501
  0
ELLIPSE
  5
4AB
100
AcDbEntity
  8
DRAFT
100
AcDbEllipse
 62
7
  6
CONTINUOUS
 10
0.175425647
 20
13.8422605137
 30
0.0
 11
0.4279621354
 21
-0.0036892411
 31
0.0
 40
0.7027169147
 41
-0.7735227129
 42
0.0060576815
  0
ELLIPSE
  5
4AC
100
AcDbEntity
  8
RACCORDO
100
AcDbEllipse
 62
7
  6
CONTINUOUS
 10
-16.1889510622
 20
16.5919955624
 30
0.0
 11
0.2497856553
 21
0.0141352596
 31
0.0
 40
0.7322248791
 41
-2.7992966585
 42
-2.3976070813
  0
ELLIPSE
  5
4AD
100
AcDbEntity
  8
RACCORDO
100
AcDbEllipse
 62
7
  6
CONTINUOUS
 10
-14.8557387285
 20
15.6492720805
 30
0.0
 11
0.2497856553
 21
0.0141352596
 31
0.0
 40
0.7322248791
 41
-2.3976070813
 42
-0.8326285187
  0
ELLIPSE
  5
4AE
100
AcDbEntity
  8
RACCORDO
100
AcDbEllipse
 62
7
  6
CONTINUOUS
 10
-1.4914205641
 20
6.1992720805
 30
0.0
 11
0.2497856553
 21
0.0141352596
 31
0.0
 40
0.7322248791
 41
-2.3976070813
 42
-0.8326285187
  0
ELLIPSE
  5
4AF
100
AcDbEntity
  8
RACCORDO
100
AcDbEllipse
 62
7
  6
CONTINUOUS
 10
-2.8246328977
 20
7.1419955624
 30
0.0
 11
0.2497856553
 21
0.0141352596
 31
0.0
 40
0.7322248791
 41
-2.7992966585
 42
-2.3976070813
  0
ELLIPSE
  5
4B0
100
AcDbEntity
  8
RACCORDO
100
AcDbEllipse
 62
7
  6
CONTINUOUS
 10
21.2279873404
 20
11.6749838667
 30
0.0
 11
0.9934545717
 21
0.2034031476
 31
0.0
 40
0.5615837549
 41
-0.8824226521
 42
-0.1144777811
  0
ELLIPSE
  5
4B1
100
AcDbEntity
  8
RACCORDO
100
AcDbEllipse
 62
7
  6
CONTINUOUS
 10
-6.5245134193
 20
18.6598117215
 30
0.0
 11
-1.1549802623
 21
1.6332111676
 31
0.0
 40
0.4999194923
 41
-0.169919441
 42
-0.0106363857
  0
ELLIPSE
  5
4B2
100
AcDbEntity
  8
RACCORDO
100
AcDbEllipse
 62
7
  6
CONTINUOUS
 10
6.1682579321
 20
9.6846670268
 30
0.0
 11
-1.1549345022
 21
1.6329521026
 31
0.0
 40
0.5000384424
 41
-2.5261840592
 42
-1.7409120677
  0
ELLIPSE
  5
4B3
100
AcDbEntity
  8
RACCORDO
100
AcDbEllipse
 62
7
  6
CONTINUOUS
 10
6.1682579321
 20
-15.2042831354
 30
0.0
 11
-1.1549802623
 21
1.6332111676
 31
0.0
 40
0.4999194923
 41
-3.1309562679
 42
-2.526240103
  0
ELLIPSE
  5
4B4
100
AcDbEntity
  8
RACCORDO
100
AcDbEllipse
 62
7
  6
CONTINUOUS
 10
21.2279873404
 20
9.0917884932
 30
0.0
 11
0.9511457556
 21
-0.3899162038
 31
0.0
 40
0.7918168213
 41
-0.4540745183
 42
1.0992685159
  0
ELLIPSE
  5
4B5
100
AcDbEntity
  8
0
100
AcDbEllipse
 62
7
  6
CONTINUOUS
 10
6.1682579321
 20
-15.2042831354
 30
0.0
 11
-1.1549802623
 21
1.6332111676
 31
0.0
 40
0.4999194923
 41
-3.1309562679
 42
-2.526240103
  0
ELLIPSE
  5
4B6
100
AcDbEntity
  8
0
100
AcDbEllipse
 62
7
  6
CONTINUOUS
 10
6.1682579321
 20
9.6846670268
 30
0.0
 11
-1.1549345022
 21
1.6329521026
 31
0.0
 40
0.5000384424
 41
-2.5261840592
 42
-1.7409120677
  0
ELLIPSE
  5
4B7
100
AcDbEntity
  8
0
100
AcDbEllipse
 62
7
  6
CONTINUOUS
 10
8.3690156581
 20
-0.0502653656
 30
0.0
 11
1.1368635249
 21
1.6645341603
 31
0.0
 40
0.4911721349
 41
0.9513844519
 42
1.5436226741
  0
ELLIPSE
  5
4B8
100
AcDbEntity
  8
0
100
AcDbEllipse
 62
7
  6
CONTINUOUS
 10
-6.5245134193
 20
18.6598117215
 30
0.0
 11
-1.1549802623
 21
1.6332111676
 31
0.0
 40
0.4999194923
 41
-0.169919441
 42
-0.0106363857
  0
ELLIPSE
  5
4B9
100
AcDbEntity
  8
0
100
AcDbEllipse
 62
7
  6
CONTINUOUS
 10
21.2279873404
 20
11.6749838667
 30
0.0
 11
0.9934545717
 21
0.2034031476
 31
0.0
 40
0.5615837549
 41
-0.8824226521
 42
-0.1144777811
  0
ELLIPSE
  5
4BA
100
AcDbEntity
  8
0
100
AcDbEllipse
 62
7
  6
CONTINUOUS
 10
8.3690156581
 20
-0.0502653656
 30
0.0
 11
1.1368635249
 21
1.6645341603
 31
0.0
 40
0.4911721349
 41
-2.7905457064
 42
-2.1983074843
  0
ELLIPSE
  5
4BB
100
AcDbEntity
  8
0
100
AcDbEllipse
 62
7
  6
CONTINUOUS
 10
21.2279873404
 20
9.0917884932
 30
0.0
 11
0.9511457556
 21
-0.3899162038
 31
0.0
 40
0.7918168213
 41
-0.4540745183
 42
1.0992685159
  0
ENDSEC
  0
SECTION
  2
OBJECTS
  0
DICTIONARY
  5
C
100
AcDbDictionary
280
0
281
1
  3
ACAD_GROUP
350
D
  3
ACAD_MLINESTYLE
350
17
  3
ACAD_LAYOUT
350
1A
  3
ACAD_PLOTSETTINGS
350
19
  3
ACAD_PLOTSTYLENAME
350
E
  0
DICTIONARY
  5
D
102
{ACAD_REACTORS
330
C
102
}
100
AcDbDictionary
280
0
281
1
  0
ACDBDICTIONARYWDFLT
  5
E
102
{ACAD_REACTORS
330
C
102
}
100
AcDbDictionary
281
1
  3
Normal
350
F
100
AcDbDictionaryWithDefault
340
F
  0
DICTIONARY
  5
17
102
{ACAD_REACTORS
330
C
102
}
100
AcDbDictionary
280
0
281
1
  3
Standard
350
18
  0
DICTIONARY
  5
19
102
{ACAD_REACTORS
330
C
102
}
100
AcDbDictionary
281
1
  0
DICTIONARY
  5
1A
102
{ACAD_REACTORS
330
C
102
}
100
AcDbDictionary
281
1
  3
Model
350
4BC
  3
Layout1
350
4BD
  0
ACDBPLACEHOLDER
  5
F
102
{ACAD_REACTORS
330
E
102
}
  0
MLINESTYLE
  5
18
102
{ACAD_REACTORS
330
17
102
}
100
AcDbMlineStyle
  2
STANDARD
 70
0
  3

 62
256
 51
90.0
 52
90.0
 71
2
 49
0.5
 62
256
  6
BYLAYER
 49
-0.5
 62
256
  6
BYLAYER
  0
LAYOUT
  5
4BC
102
{ACAD_REACTORS
330
1A
102
}
100
AcDbPlotSettings
  1

  2
none_device
  4
ISO_A4_(297.00_x_210.00_MM)
  6

 40
0.0
 41
0.0
 42
0.0
 43
0.0
 44
297.0
 45
210.0
 46
0.0
 47
0.0
 48
0.0
 49
0.0
140
0.0
141
0.0
142
1.0
143
1.0
 70
1024
 72
1
 73
0
 74
0
  7

 75
0
147
1.0
148
0.0
149
0.0
100
AcDbLayout
  1
Model
 70
0
 71
0
 10
0.0
 20
0.0
 11
297.0
 21
210.0
 12
0.0
 22
0.0
 32
0.0
 14
0.0
 24
0.0
 34
0.0
 15
0.0
 25
0.0
 35
0.0
146
0.0
 13
0.0
 23
0.0
 33
0.0
 16
1.0
 26
0.0
 36
0.0
 17
0.0
 27
1.0
 37
0.0
 76
0
330
213
345
0
346
0
  0
LAYOUT
  5
4BD
102
{ACAD_REACTORS
330
1A
102
}
100
AcDbPlotSettings
  1

  2
none_device
  4
ISO_A4_(297.00_x_210.00_MM)
  6

 40
0.0
 41
0.0
 42
0.0
 43
0.0
 44
297.0
 45
210.0
 46
0.0
 47
0.0
 48
0.0
 49
0.0
140
0.0
141
0.0
142
1.0
143
1.0
 70
0
 72
1
 73
0
 74
0
  7

 75
0
147
1.0
148
0.0
149
0.0
100
AcDbLayout
  1
Layout1
 70
0
 71
1
 10
0.0
 20
0.0
 11
297.0
 21
210.0
 12
0.0
 22
0.0
 32
0.0
 14
0.0
 24
0.0
 34
0.0
 15
0.0
 25
0.0
 35
0.0
146
0.0
 13
0.0
 23
0.0
 33
0.0
 16
1.0
 26
0.0
 36
0.0
 17
0.0
 27
1.0
 37
0.0
 76
0
330
214
345
0
346
0
  0
ENDSEC
  0
EOF
