  0
SECTION
  2
HEADER
  9
$ACADVER
  1
AC1015
  9
$DWGCODEPAGE
  3
ANSI_1252
  9
$EXTMAX
 10
297.0
 20
210.0
 30
0.0
  9
$EXTMIN
 10
0.0
 20
0.0
 30
0.0
  9
$LIMMIN
 10
0.0
 20
0.0
  9
$LIMMAX
 10
297.0
 20
210.0
  9
$VIEWCTR
 10
148.5
 20
105.0
  9
$VIEWSIZE
 40
210.0
  9
$CLAYER
  8
0
  9
$LTSCALE
 40
16.335
  9
$CELTYPE
  6
BYLAYER
  9
$DIMSCALE
 40
1.0
  9
$DIMASZ
 40
3.0
  9
$DIMEXO
 40
0.5
  9
$DIMDLI
 40
11.286
  9
$DIMEXE
 40
1.5
  9
$DIMCEN
 40
2.673
  9
$DIMLFAC
 40
1.0
  9
$DIMBLK
  1
_FILLED
  9
$DIMTXT
 40
3.0
  9
$DIMTOL
 70
1
  9
$DIMLIM
 70
0
  9
$DIMTFAC
 40
1.0
  9
$DIMTP
 40
0.01
  9
$DIMTM
 40
0.01
  9
$DIMGAP
 40
0.625
  9
$DIMDSEP
 70
44
  9
$PDMODE
 70
3
  9
$PDSIZE
 40
3.0
  9
$HANDSEED
  5
3CA
  9
$TILEMODE
 70
1
  9
$MEASUREMENT
 70
1
  9
$INSUNITS
 70
4
  0
ENDSEC
  0
SECTION
  2
CLASSES
  0
CLASS
  1
ACDBDICTIONARYWDFLT
  2
AcDbDictionaryWithDefault
  3
AutoCAD 2000
 90
0
280
0
281
0
  0
CLASS
  1
ACDBPLACEHOLDER
  2
AcDbPlaceHolder
  3
AutoCAD 2000
 90
0
280
0
281
0
  0
CLASS
  1
LAYOUT
  2
AcDbLayout
  3
AutoCAD 2000
 90
0
280
0
281
0
  0
ENDSEC
  0
SECTION
  2
TABLES
  0
TABLE
  2
VPORT
  5
8
100
AcDbSymbolTable
 70
2
  0
VPORT
  5
1F4
100
AcDbSymbolTableRecord
100
AcDbViewportTableRecord
  2
*ACTIVE
 70
0
 10
0.0
 20
0.0
 11
1.0
 21
1.0
 12
148.5
 22
105.0
 13
0.0
 23
0.0
 14
1.0
 24
1.0
 15
0.0
 25
0.0
 16
0.0
 26
0.0
 36
1.0
 17
0.0
 27
0.0
 37
0.0
 40
210.0
 41
1.4142857143
 42
50.0
 43
0.0
 44
0.0
 50
0.0
 51
0.0
 71
0
 72
100
 73
1
 74
1
 75
0
 76
0
 77
0
 78
0
  0
ENDTAB
  0
TABLE
  2
LTYPE
  5
5
100
AcDbSymbolTable
 70
6
  0
LTYPE
  5
14
100
AcDbSymbolTableRecord
100
AcDbLinetypeTableRecord
  2
BYBLOCK
 70
0
  3

 72
65
 73
0
 40
0.0
  0
LTYPE
  5
15
100
AcDbSymbolTableRecord
100
AcDbLinetypeTableRecord
  2
BYLAYER
 70
0
  3

 72
65
 73
0
 40
0.0
  0
LTYPE
  5
16
100
AcDbSymbolTableRecord
100
AcDbLinetypeTableRecord
  2
CONTINUOUS
 70
64
  3
Solid line
 72
65
 73
0
 40
0.0
  0
LTYPE
  5
1F5
100
AcDbSymbolTableRecord
100
AcDbLinetypeTableRecord
  2
CENTER
 70
64
  3
____ _ ____ _ ____ _ ____ _ ____ _ ____ _ ____
 72
65
 73
4
 40
0.6
 49
0.375
 74
0
 49
-0.075
 74
0
 49
0.075
 74
0
 49
-0.075
 74
0
  0
LTYPE
  5
1F6
100
AcDbSymbolTableRecord
100
AcDbLinetypeTableRecord
  2
HIDDEN
 70
64
  3
- - - - - - - - - - - - - - - - - - - -
 72
65
 73
2
 40
0.2
 49
0.1
 74
0
 49
-0.1
 74
0
  0
LTYPE
  5
1F7
100
AcDbSymbolTableRecord
100
AcDbLinetypeTableRecord
  2
PHANTOM
 70
64
  3
_____ _ _ _____ _ _ _____ _ _ _____
 72
65
 73
6
 40
0.8
 49
0.45
 74
0
 49
-0.05
 74
0
 49
0.1
 74
0
 49
-0.05
 74
0
 49
0.1
 74
0
 49
-0.05
 74
0
  0
LTYPE
  5
1F8
100
AcDbSymbolTableRecord
100
AcDbLinetypeTableRecord
  2
DOT
 70
64
  3
. . . . . . . . . . . . . . . . . . . .
 72
65
 73
2
 40
0.2
 49
0.1
 74
0
 49
-0.1
 74
0
  0
LTYPE
  5
1F9
100
AcDbSymbolTableRecord
100
AcDbLinetypeTableRecord
  2
DASHED
 70
64
  3
- - - - - - - - - - - - - - - - - - - -
 72
65
 73
2
 40
0.2
 49
0.1
 74
0
 49
-0.1
 74
0
  0
ENDTAB
  0
TABLE
  2
LAYER
  5
2
100
AcDbSymbolTable
 70
36
  0
LAYER
  5
10
100
AcDbSymbolTableRecord
100
AcDbLayerTableRecord
  2
0
 70
0
 62
7
  6
CONTINUOUS
370
-3
390
F
  0
LAYER
  5
1FA
100
AcDbSymbolTableRecord
100
AcDbLayerTableRecord
  2
DEFAULT_1
 70
0
 62
7
  6
CENTER
370
-3
390
F
  0
LAYER
  5
1FB
100
AcDbSymbolTableRecord
100
AcDbLayerTableRecord
  2
DEFAULT_2
 70
0
 62
7
  6
HIDDEN
370
-3
390
F
  0
LAYER
  5
1FC
100
AcDbSymbolTableRecord
100
AcDbLayerTableRecord
  2
DEFAULT_3
 70
0
 62
7
  6
PHANTOM
370
-3
390
F
  0
LAYER
  5
1FD
100
AcDbSymbolTableRecord
100
AcDbLayerTableRecord
  2
ASSI
 70
0
 62
7
  6
CONTINUOUS
370
-3
390
F
  0
LAYER
  5
1FE
100
AcDbSymbolTableRecord
100
AcDbLayerTableRecord
  2
COORDINATE
 70
0
 62
7
  6
CONTINUOUS
370
-3
390
F
  0
LAYER
  5
1FF
100
AcDbSymbolTableRecord
100
AcDbLayerTableRecord
  2
COORD_ORIGINE
 70
0
 62
7
  6
CONTINUOUS
370
-3
390
F
  0
LAYER
  5
200
100
AcDbSymbolTableRecord
100
AcDbLayerTableRecord
  2
COSMETICHE
 70
0
 62
7
  6
CONTINUOUS
370
-3
390
F
  0
LAYER
  5
201
100
AcDbSymbolTableRecord
100
AcDbLayerTableRecord
  2
CURVE
 70
0
 62
7
  6
CONTINUOUS
370
-3
390
F
  0
LAYER
  5
202
100
AcDbSymbolTableRecord
100
AcDbLayerTableRecord
  2
DRAFT
 70
0
 62
7
  6
CONTINUOUS
370
-3
390
F
  0
LAYER
  5
203
100
AcDbSymbolTableRecord
100
AcDbLayerTableRecord
  2
IMPORT
 70
0
 62
7
  6
CONTINUOUS
370
-3
390
F
  0
LAYER
  5
204
100
AcDbSymbolTableRecord
100
AcDbLayerTableRecord
  2
LAY0001
 70
0
 62
7
  6
CONTINUOUS
370
-3
390
F
  0
LAYER
  5
205
100
AcDbSymbolTableRecord
100
AcDbLayerTableRecord
  2
NOTE
 70
0
 62
7
  6
CONTINUOUS
370
-3
390
F
  0
LAYER
  5
206
100
AcDbSymbolTableRecord
100
AcDbLayerTableRecord
  2
PIANI
 70
0
 62
7
  6
CONTINUOUS
370
-3
390
F
  0
LAYER
  5
207
100
AcDbSymbolTableRecord
100
AcDbLayerTableRecord
  2
PIANI_ORIGINE
 70
0
 62
7
  6
CONTINUOUS
370
-3
390
F
  0
LAYER
  5
208
100
AcDbSymbolTableRecord
100
AcDbLayerTableRecord
  2
PIANI_RIFERIMENTO
 70
0
 62
7
  6
CONTINUOUS
370
-3
390
F
  0
LAYER
  5
209
100
AcDbSymbolTableRecord
100
AcDbLayerTableRecord
  2
PIANI_SFORMO
 70
0
 62
7
  6
CONTINUOUS
370
-3
390
F
  0
LAYER
  5
20A
100
AcDbSymbolTableRecord
100
AcDbLayerTableRecord
  2
PUNTI
 70
0
 62
7
  6
CONTINUOUS
370
-3
390
F
  0
LAYER
  5
20B
100
AcDbSymbolTableRecord
100
AcDbLayerTableRecord
  2
RACCORDO
 70
0
 62
7
  6
CONTINUOUS
370
-3
390
F
  0
LAYER
  5
20C
100
AcDbSymbolTableRecord
100
AcDbLayerTableRecord
  2
SMUSSO
 70
0
 62
7
  6
CONTINUOUS
370
-3
390
F
  0
LAYER
  5
20D
100
AcDbSymbolTableRecord
100
AcDbLayerTableRecord
  2
SNAPLINE
 70
0
 62
7
  6
CONTINUOUS
370
-3
390
F
  0
LAYER
  5
20E
100
AcDbSymbolTableRecord
100
AcDbLayerTableRecord
  2
SUPERFICI
 70
0
 62
7
  6
CONTINUOUS
370
-3
390
F
  0
LAYER
  5
20F
100
AcDbSymbolTableRecord
100
AcDbLayerTableRecord
  2
TRASH
 70
0
 62
7
  6
CONTINUOUS
370
-3
390
F
  0
LAYER
  5
210
100
AcDbSymbolTableRecord
100
AcDbLayerTableRecord
  2
XSEC_DATUMS
 70
0
 62
7
  6
CONTINUOUS
370
-3
390
F
  0
ENDTAB
  0
TABLE
  2
STYLE
  5
3
100
AcDbSymbolTable
 70
1
  0
STYLE
  5
11
100
AcDbSymbolTableRecord
100
AcDbTextStyleTableRecord
  2
STANDARD
 70
0
 40
0.0
 41
0.8
 50
0.0
 71
0
 42
0.2
  3
txt
  4

  0
STYLE
  5
211
100
AcDbSymbolTableRecord
100
AcDbTextStyleTableRecord
  2
TEXTSTYLE_1
 70
0
 40
0.0
 41
0.8
 50
0.0
 71
0
 42
0.2
  3
gdt
  4

  0
ENDTAB
  0
TABLE
  2
VIEW
  5
6
100
AcDbSymbolTable
 70
0
  0
ENDTAB
  0
TABLE
  2
UCS
  5
7
100
AcDbSymbolTable
 70
0
  0
ENDTAB
  0
TABLE
  2
APPID
  5
9
100
AcDbSymbolTable
 70
1
  0
APPID
  5
212
100
AcDbSymbolTableRecord
100
AcDbRegAppTableRecord
  2
ACAD
 70
0
  0
ENDTAB
  0
TABLE
  2
BLOCK_RECORD
  5
1
100
AcDbSymbolTable
 70
0
  0
BLOCK_RECORD
  5
213
100
AcDbSymbolTableRecord
100
AcDbBlockTableRecord
  2
*Model_Space
  0
BLOCK_RECORD
  5
214
100
AcDbSymbolTableRecord
100
AcDbBlockTableRecord
  2
*Paper_Space
  0
ENDTAB
  0
TABLE
  2
DIMSTYLE
  5
A
100
AcDbSymbolTable
 70
1
100
AcDbDimStyleTable
 71
0
  0
DIMSTYLE
105
215
100
AcDbSymbolTableRecord
100
AcDbDimStyleTableRecord
  2
STANDARD
 70
0
  3

  4

 40
1.0
 41
3.0
 42
0.5
 43
0.38
 44
1.5
 45
0.0
 46
0.0
 47
0.01
 48
0.01
140
3.0
141
0.09
142
0.0
143
25.4
144
1.0
145
0.0
146
1.0
147
0.625
 71
1.0
 72
0.0
 73
0
 74
0
 75
0
 76
0
 77
1
 78
8
170
0
171
2
172
0
173
0
174
0
175
0
176
0
177
0
178
0
270
2
271
2
272
2
273
2
274
2
275
0
280
0
281
0
282
0
283
1
284
8
285
0
286
0
287
3
288
0
340
11
278
44
  0
ENDTAB
  0
ENDSEC
  0
SECTION
  2
BLOCKS
  0
BLOCK
  5
20
100
AcDbEntity
  8
0
100
AcDbBlockBegin
  2
*Model_Space
 70
0
 10
0.0
 20
0.0
 30
0.0
  3
*Model_Space
  1

  0
ENDBLK
  5
21
100
AcDbEntity
  8
0
100
AcDbBlockEnd
  0
BLOCK
  5
1C
100
AcDbEntity
  8
0
100
AcDbBlockBegin
  2
*Paper_Space
 70
0
 10
0.0
 20
0.0
 30
0.0
  3
*Paper_Space
  1

  0
ENDBLK
  5
1D
100
AcDbEntity
  8
0
100
AcDbBlockEnd
  0
ENDSEC
  0
SECTION
  2
ENTITIES
  0
LINE
  5
216
100
AcDbEntity
  8
RACCORDO
100
AcDbLine
 62
7
  6
CONTINUOUS
 10
-12.1754490356
 20
26.150598706
 11
-13.7586207305
 21
25.3384016587
  0
LINE
  5
217
100
AcDbEntity
  8
RACCORDO
100
AcDbLine
 62
253
  6
CONTINUOUS
 10
-12.0627784612
 20
26.1439377809
 11
-13.6455350644
 21
25.3319536836
  0
LINE
  5
218
100
AcDbEntity
  8
RACCORDO
100
AcDbLine
 62
7
  6
CONTINUOUS
 10
-12.17371065
 20
26.1514679388
 11
-12.1754470619
 21
26.1505997186
  0
LINE
  5
219
100
AcDbEntity
  8
RACCORDO
100
AcDbLine
 62
7
  6
CONTINUOUS
 10
-11.6388406936
 20
26.4120200386
 11
-12.1737078845
 21
26.151469286
  0
LINE
  5
21A
100
AcDbEntity
  8
RACCORDO
100
AcDbLine
 62
253
  6
CONTINUOUS
 10
-11.5283285825
 20
26.4042852475
 11
-12.0627784612
 21
26.1439377809
  0
LWPOLYLINE
  5
21B
100
AcDbEntity
  8
RACCORDO
100
AcDbPolyline
 62
7
  6
CONTINUOUS
 90
37
 70
0
 10
-17.7804756171
 20
21.3145629043
 10
-17.8110651676
 20
21.2961900533
 10
-17.8539862943
 20
21.2685694726
 10
-17.8960888473
 20
21.2393248142
 10
-17.9373593648
 20
21.2085150909
 10
-17.9777870245
 20
21.1761941798
 10
-18.0173562347
 20
21.1424166549
 10
-18.0560520702
 20
21.1072339677
 10
-18.0938598801
 20
21.0706945666
 10
-18.1307551722
 20
21.032854342
 10
-18.1667202999
 20
20.9937608452
 10
-18.2017366635
 20
20.9534602896
 10
-18.2357712468
 20
20.9120144627
 10
-18.2688028638
 20
20.8694708671
 10
-18.3008104087
 20
20.8258749206
 10
-18.3317568648
 20
20.7812933066
 10
-18.3616190789
 20
20.7357737584
 10
-18.390373494
 20
20.6893628616
 10
-18.4179812382
 20
20.6421321579
 10
-18.4444181955
 20
20.5941297484
 10
-18.4696593036
 20
20.5454037086
 10
-18.4936655859
 20
20.4960297725
 10
-18.5164123939
 20
20.4460567981
 10
-18.5378744069
 20
20.3955331642
 10
-18.5580148442
 20
20.3445350672
 10
-18.5768092255
 20
20.2931103446
 10
-18.5942317543
 20
20.241307746
 10
-18.6102479641
 20
20.1892025589
 10
-18.6248330661
 20
20.1368414409
 10
-18.6379608337
 20
20.0842719731
 10
-18.6495991158
 20
20.0315650144
 10
-18.6597217904
 20
19.9787660082
 10
-18.6683012644
 20
19.9259203172
 10
-18.6753064682
 20
19.8730896726
 10
-18.6807079729
 20
19.8203208488
 10
-18.6844751633
 20
19.7676534445
 10
-18.6861831796
 20
19.7290182512
  0
LINE
  5
21C
100
AcDbEntity
  8
RACCORDO
100
AcDbLine
 62
253
  6
CONTINUOUS
 10
-16.0320667854
 20
22.2014521315
 11
-15.3317549426
 21
22.6200617257
  0
LWPOLYLINE
  5
21D
100
AcDbEntity
  8
RACCORDO
100
AcDbPolyline
 62
253
  6
CONTINUOUS
 90
5
 70
0
 10
-15.3317549426
 20
22.6200617257
 10
-14.6506140557
 20
23.026252929
 10
-14.3130015672
 20
23.2264883068
 10
-13.9755027659
 20
23.4251935592
 10
-13.6385425453
 20
23.6225797977
  0
LWPOLYLINE
  5
21E
100
AcDbEntity
  8
RACCORDO
100
AcDbPolyline
 62
253
  6
CONTINUOUS
 90
4
 70
0
 10
-17.149333325
 20
21.5395506694
 10
-16.766987703
 20
21.765078397
 10
-16.3940570538
 20
21.9858933664
 10
-16.0320667854
 20
22.2014521315
  0
LINE
  5
21F
100
AcDbEntity
  8
RACCORDO
100
AcDbLine
 62
253
  6
CONTINUOUS
 10
-13.6385425453
 20
23.6225797977
 11
-13.1915136708
 21
23.8838910074
  0
LWPOLYLINE
  5
220
100
AcDbEntity
  8
RACCORDO
100
AcDbPolyline
 62
7
  6
CONTINUOUS
 90
8
 70
0
 10
-13.1915136708
 20
24.0141448777
 10
-13.7764656068
 20
23.6728948612
 10
-14.4059462591
 20
23.304442584
 10
-15.0157514671
 20
22.9452063263
 10
-15.606135726
 20
22.5959073557
 10
-16.1777574025
 20
22.2575017583
 10
-16.7311584239
 20
21.930463664
 10
-17.2667106446
 20
21.6151968793
  0
LINE
  5
221
100
AcDbEntity
  8
RACCORDO
100
AcDbLine
 62
7
  6
CONTINUOUS
 10
-17.2667106446
 20
21.6151968793
 11
-17.7804885117
 21
21.3145553863
  0
LINE
  5
222
100
AcDbEntity
  8
RACCORDO
100
AcDbLine
 62
253
  6
CONTINUOUS
 10
-17.149333325
 20
21.5395506694
 11
-17.5581001478
 21
21.2993924834
  0
LWPOLYLINE
  5
223
100
AcDbEntity
  8
RACCORDO
100
AcDbPolyline
 62
253
  6
CONTINUOUS
 90
3
 70
0
 10
-17.7804756171
 20
21.3145629043
 10
-17.7780298494
 20
21.315962853
 10
-17.765393378
 20
21.3224146129
  0
LINE
  5
224
100
AcDbEntity
  8
RACCORDO
100
AcDbLine
 62
253
  6
CONTINUOUS
 10
-10.7192695937
 20
25.4721833472
 11
-12.3205503846
 21
24.6694613437
  0
LINE
  5
225
100
AcDbEntity
  8
RACCORDO
100
AcDbLine
 62
253
  6
CONTINUOUS
 10
-10.5424958901
 20
25.1672938084
 11
-12.1437766809
 21
24.3645718049
  0
LINE
  5
226
100
AcDbEntity
  8
RACCORDO
100
AcDbLine
 62
253
  6
CONTINUOUS
 10
-10.191002422
 20
25.7356221672
 11
-10.7192695937
 21
25.4721833472
  0
LINE
  5
227
100
AcDbEntity
  8
RACCORDO
100
AcDbLine
 62
253
  6
CONTINUOUS
 10
-10.0142287183
 20
25.4307326284
 11
-10.5424958901
 21
25.1672938084
  0
LWPOLYLINE
  5
228
100
AcDbEntity
  8
RACCORDO
100
AcDbPolyline
 62
253
  6
CONTINUOUS
 90
15
 70
0
 10
-17.765393378
 20
21.3224146129
 10
-17.7522211869
 20
21.3278712559
 10
-17.7385430805
 20
21.3323204351
 10
-17.7243900082
 20
21.3357520836
 10
-17.7097939939
 20
21.3381584365
 10
-17.6947880639
 20
21.3395340491
 10
-17.6794061719
 20
21.3398758088
 10
-17.6636831223
 20
21.3391829423
 10
-17.6476544916
 20
21.3374570172
 10
-17.6313565474
 20
21.3347019389
 10
-17.614826167
 20
21.3309239413
 10
-17.5981007535
 20
21.3261315727
 10
-17.5812181513
 20
21.3203356768
 10
-17.5642165603
 20
21.3135493679
 10
-17.54713445
 20
21.3057880013
  0
LWPOLYLINE
  5
229
100
AcDbEntity
  8
RACCORDO
100
AcDbPolyline
 62
7
  6
CONTINUOUS
 90
30
 70
0
 10
-11.4325560728
 20
23.8760943479
 10
-11.4404351958
 20
23.8669599446
 10
-11.4486554449
 20
23.8579625037
 10
-11.457213306
 20
23.8491235171
 10
-11.4661117366
 20
23.8404669872
 10
-11.4753381716
 20
23.832012308
 10
-11.4848647459
 20
23.8237744153
 10
-11.4946849342
 20
23.8157756617
 10
-11.5047908324
 20
23.8080377849
 10
-11.5151516154
 20
23.8005752451
 10
-11.5257581367
 20
23.7934104672
 10
-11.5366000481
 20
23.7865651619
 10
-11.5476438251
 20
23.7800531903
 10
-11.5588776736
 20
23.7738966712
 10
-11.5702886244
 20
23.7681170073
 10
-11.5818404449
 20
23.7627274838
 10
-11.5935185767
 20
23.7577495261
 10
-11.6053073082
 20
23.7532038288
 10
-11.6171676222
 20
23.7491030437
 10
-11.6290820699
 20
23.7454674182
 10
-11.6410320833
 20
23.7423164331
 10
-11.6529757608
 20
23.7396618969
 10
-11.6648926105
 20
23.7375222645
 10
-11.6767611776
 20
23.735915127
 10
-11.6885367563
 20
23.7348509662
 10
-11.7001955768
 20
23.7343456609
 10
-11.7117135139
 20
23.734414027
 10
-11.7230438666
 20
23.7350644254
 10
-11.734149129
 20
23.7363078182
 10
-11.7450134808
 20
23.7381553136
  0
LINE
  5
22A
100
AcDbEntity
  8
RACCORDO
100
AcDbLine
 62
7
  6
CONTINUOUS
 10
-10.5424958901
 20
23.5651431474
 11
-11.4325560728
 21
23.0684622261
  0
LINE
  5
22B
100
AcDbEntity
  8
RACCORDO
100
AcDbLine
 62
7
  6
CONTINUOUS
 10
-8.1736761717
 20
23.2350247341
 11
-7.8201347825
 21
23.4163981589
  0
LINE
  5
22C
100
AcDbEntity
  8
RACCORDO
100
AcDbLine
 62
7
  6
CONTINUOUS
 10
-2.8199128285
 20
26.7054471764
 11
-9.1344531551
 21
23.5606708719
  0
LINE
  5
22D
100
AcDbEntity
  8
ASSI
100
AcDbLine
 62
7
  6
CONTINUOUS
 10
-1.8783809419
 20
25.7130764071
 11
-6.4766318982
 21
23.4467151096
  0
LINE
  5
22E
100
AcDbEntity
  8
ASSI
100
AcDbLine
 62
7
  6
CONTINUOUS
 10
-7.8201347825
 20
23.4163981589
 11
-2.4839113765
 21
26.0158416244
  0
LWPOLYLINE
  5
22F
100
AcDbEntity
  8
ASSI
100
AcDbPolyline
 62
7
  6
CONTINUOUS
 90
7
 70
0
 10
-1.8295049104
 20
25.7330049742
 10
-1.8375876615
 20
25.7302896036
 10
-1.8456957143
 20
25.7273318101
 10
-1.8538290687
 20
25.7241315937
 10
-1.8619877248
 20
25.7206889544
 10
-1.8701716825
 20
25.7170038922
 10
-1.8783809419
 20
25.7130764071
  0
LWPOLYLINE
  5
230
100
AcDbEntity
  8
RACCORDO
100
AcDbPolyline
 62
7
  6
CONTINUOUS
 90
14
 70
0
 10
-9.9988681459
 20
25.0123659451
 10
-9.9903827782
 20
25.0232967154
 10
-9.9824994597
 20
25.0347044238
 10
-9.9752473183
 20
25.0465550887
 10
-9.9686501426
 20
25.0588193252
 10
-9.962736693
 20
25.0714535433
 10
-9.9575365825
 20
25.08439945
 10
-9.9530676241
 20
25.0976123851
 10
-9.949342083
 20
25.1110557727
 10
-9.9463728295
 20
25.1246826734
 10
-9.9441679573
 20
25.1384550254
 10
-9.942734544
 20
25.1523295133
 10
-9.9420773479
 20
25.166252838
 10
-9.9420308613
 20
25.1710754006
  0
LINE
  5
231
100
AcDbEntity
  8
RACCORDO
100
AcDbLine
 62
253
  6
CONTINUOUS
 10
-10.5424958901
 20
24.4402489559
 11
-10.0142287183
 21
25.0832011117
  0
LINE
  5
232
100
AcDbEntity
  8
RACCORDO
100
AcDbLine
 62
7
  6
CONTINUOUS
 10
-10.5424958901
 20
24.3507184896
 11
-9.9988681459
 21
25.0123659451
  0
LINE
  5
233
100
AcDbEntity
  8
0
100
AcDbLine
 62
7
  6
CONTINUOUS
 10
-2.8703873142
 20
23.4362224421
 11
-2.163280533
 21
23.7897758327
  0
LINE
  5
234
100
AcDbEntity
  8
0
100
AcDbLine
 62
7
  6
CONTINUOUS
 10
-0.4119426359
 20
24.3118913906
 11
-1.8097271424
 21
23.6129991374
  0
LINE
  5
235
100
AcDbEntity
  8
RACCORDO
100
AcDbLine
 62
7
  6
CONTINUOUS
 10
-2.884632477
 20
22.9209593818
 11
-2.8230828387
 21
22.9517342009
  0
LINE
  5
236
100
AcDbEntity
  8
RACCORDO
100
AcDbLine
 62
253
  6
CONTINUOUS
 10
-2.7996766361
 20
22.9130355852
 11
-2.7336401196
 21
22.9460538435
  0
LWPOLYLINE
  5
237
100
AcDbEntity
  8
RACCORDO
100
AcDbPolyline
 62
7
  6
CONTINUOUS
 90
20
 70
0
 10
-2.884639939
 20
22.9209556508
 10
-2.8837740066
 20
22.9213797989
 10
-2.8800358154
 20
22.9230178158
 10
-2.8761564579
 20
22.9244130313
 10
-2.8721400214
 20
22.9255638609
 10
-2.8679925152
 20
22.9264681991
 10
-2.8637203042
 20
22.9271242031
 10
-2.8593282562
 20
22.9275312363
 10
-2.8548228406
 20
22.9276882933
 10
-2.8502108565
 20
22.9275946332
 10
-2.8454978728
 20
22.9272505808
 10
-2.8406907341
 20
22.9266562485
 10
-2.8357965906
 20
22.9258120094
 10
-2.8308216303
 20
22.9247191393
 10
-2.8257729905
 20
22.9233788716
 10
-2.8206580782
 20
22.9217926892
 10
-2.8154835992
 20
22.9199627877
 10
-2.8102567621
 20
22.9178915322
 10
-2.8049852695
 20
22.9155814648
 10
-2.7996766361
 20
22.9130355852
  0
LINE
  5
238
100
AcDbEntity
  8
DRAFT
100
AcDbLine
 62
7
  6
CONTINUOUS
 10
-2.163280533
 20
24.342334022
 11
-1.8295049104
 21
24.5056543772
  0
LINE
  5
239
100
AcDbEntity
  8
RACCORDO
100
AcDbLine
 62
7
  6
CONTINUOUS
 10
0.2470531155
 20
25.1719642045
 11
-1.8097271424
 21
24.1655573267
  0
LWPOLYLINE
  5
23A
100
AcDbEntity
  8
RACCORDO
100
AcDbPolyline
 62
253
  6
CONTINUOUS
 90
55
 70
0
 10
-2.7336401196
 20
22.9460538435
 10
-2.7178890137
 20
22.9537215713
 10
-2.7017596088
 20
22.9611666315
 10
-2.6852519051
 20
22.9683890243
 10
-2.6683525478
 20
22.9753939548
 10
-2.6510748915
 20
22.9821762177
 10
-2.6334590009
 20
22.9887201971
 10
-2.6155044017
 20
22.995025144
 10
-2.5972115681
 20
23.0010918073
 10
-2.5786219869
 20
23.006906818
 10
-2.5597350748
 20
23.0124695327
 10
-2.540551415
 20
23.0177805948
 10
-2.5211142439
 20
23.022828565
 10
-2.5014230834
 20
23.0276127979
 10
-2.4814784116
 20
23.0321339388
 10
-2.4613248992
 20
23.0363824848
 10
-2.4409620871
 20
23.0403577974
 10
-2.4203904344
 20
23.044060515
 10
-2.3996559883
 20
23.04748305
 10
-2.3787585175
 20
23.0506247344
 10
-2.3576982534
 20
23.0534862363
 10
-2.3365219377
 20
23.0560619725
 10
-2.3152294126
 20
23.0583512838
 10
-2.2938208358
 20
23.0603548296
 10
-2.2723434216
 20
23.0620690041
 10
-2.2507971844
 20
23.0634931518
 10
-2.2291821097
 20
23.0646279284
 10
-2.2075453686
 20
23.0654716953
 10
-2.1858870134
 20
23.0660238132
 10
-2.1642069917
 20
23.0662849214
 10
-2.1425523174
 20
23.0662552996
 10
-2.1209232048
 20
23.0659343235
 10
-2.0993194395
 20
23.0653226174
 10
-2.0777873922
 20
23.0644223336
 10
-2.0563273038
 20
23.0632328647
 10
-2.0349389334
 20
23.0617548182
 10
-2.0136679293
 20
23.0599921686
 10
-1.9925146882
 20
23.057944335
 10
-1.9714788134
 20
23.0556118982
 10
-1.9506047629
 20
23.0530005754
 10
-1.9298930099
 20
23.0501098171
 10
-1.9093430811
 20
23.0469401728
 10
-1.8889980157
 20
23.043499007
 10
-1.8688583531
 20
23.0397858022
 10
-1.8489235538
 20
23.035801076
 10
-1.8292350375
 20
23.0315537457
 10
-1.8097932775
 20
23.0270432905
 10
-1.7905978005
 20
23.0222702312
 10
-1.7716886059
 20
23.017245047
 10
-1.7530662079
 20
23.0119672001
 10
-1.7347300924
 20
23.0064372283
 10
-1.7167187166
 20
23.0006672244
 10
-1.6990448999
 20
22.9946612194
 10
-1.6816958229
 20
22.9884151823
 10
-1.6646714858
 20
22.9819291132
  0
LWPOLYLINE
  5
23B
100
AcDbEntity
  8
RACCORDO
100
AcDbPolyline
 62
253
  6
CONTINUOUS
 90
17
 70
0
 10
-2.8230828387
 20
22.9517342009
 10
-2.8197319817
 20
22.9533075277
 10
-2.8147560722
 20
22.9552880392
 10
-2.809625754
 20
22.9569212672
 10
-2.8043507928
 20
22.9582041028
 10
-2.7989412298
 20
22.959134104
 10
-2.7934073626
 20
22.9597095004
 10
-2.787759725
 20
22.9599291968
 10
-2.7820090678
 20
22.959792775
 10
-2.7761663376
 20
22.9593004947
 10
-2.7702426563
 20
22.958453293
 10
-2.7642493002
 20
22.9572527826
 10
-2.7581976777
 20
22.9557012487
 10
-2.7520993086
 20
22.9538016448
 10
-2.7459658015
 20
22.9515575869
 10
-2.7398088318
 20
22.9489733467
 10
-2.7336401196
 20
22.9460538435
  0
LINE
  5
23C
100
AcDbEntity
  8
RACCORDO
100
AcDbLine
 62
7
  6
CONTINUOUS
 10
0.8891299481
 20
24.9725885958
 11
3.5103739042
 21
26.1831659198
  0
LINE
  5
23D
100
AcDbEntity
  8
RACCORDO
100
AcDbLine
 62
253
  6
CONTINUOUS
 10
0.9423593395
 20
24.7620418325
 11
3.9419933292
 21
26.1473722135
  0
LWPOLYLINE
  5
23E
100
AcDbEntity
  8
RACCORDO
100
AcDbPolyline
 62
253
  6
CONTINUOUS
 90
26
 70
0
 10
3.5103739042
 20
26.1831659198
 10
3.5127921205
 20
26.184272273
 10
3.5282626056
 20
26.1908667531
 10
3.5440377824
 20
26.1967662405
 10
3.5601056762
 20
26.2019662571
 10
3.5764540899
 20
26.2064628556
 10
3.5930706136
 20
26.2102526226
 10
3.6099426339
 20
26.2133326813
 10
3.6270573433
 20
26.2157006938
 10
3.6444017502
 20
26.2173548624
 10
3.6619626886
 20
26.2182939315
 10
3.6797268281
 20
26.2185171883
 10
3.6976806842
 20
26.2180244633
 10
3.7158106282
 20
26.2168161305
 10
3.7341028978
 20
26.2148931071
 10
3.7525436075
 20
26.212256853
 10
3.7711187592
 20
26.2089093692
 10
3.7898142526
 20
26.2048531968
 10
3.8086158962
 20
26.2000914148
 10
3.8275094176
 20
26.1946276378
 10
3.8464804751
 20
26.1884660134
 10
3.8655146678
 20
26.1816112188
 10
3.8845975472
 20
26.1740684574
 10
3.9037146274
 20
26.1658434548
 10
3.922851397
 20
26.1569424546
 10
8.5692926507
 20
23.8337225527
  0
LWPOLYLINE
  5
23F
100
AcDbEntity
  8
RACCORDO
100
AcDbPolyline
 62
7
  6
CONTINUOUS
 90
34
 70
0
 10
3.5103739042
 20
26.1831659198
 10
3.5347330234
 20
26.1940240405
 10
3.5594064132
 20
26.2042420151
 10
3.5843734297
 20
26.2138083705
 10
3.609622719
 20
26.2227157967
 10
3.6351228409
 20
26.2309506558
 10
3.6608219821
 20
26.2384958163
 10
3.6865239911
 20
26.2453024101
 10
3.7123780362
 20
26.2514188773
 10
3.7388558922
 20
26.2569379211
 10
3.7663218167
 20
26.261879713
 10
3.7943711069
 20
26.2661155552
 10
3.822322624
 20
26.2695318044
 10
3.84984134
 20
26.2721183443
 10
3.8772118372
 20
26.2739323878
 10
3.904681952
 20
26.2749965365
 10
3.9322757241
 20
26.2753049117
 10
3.9599193672
 20
26.2748502089
 10
3.9877121024
 20
26.2736214772
 10
4.0158393375
 20
26.2715873533
 10
4.0440582795
 20
26.2687424685
 10
4.0718365349
 20
26.2651486082
 10
4.0987273725
 20
26.2609115815
 10
4.1251596266
 20
26.2560106551
 10
4.151907657
 20
26.2502969141
 10
4.1794647738
 20
26.2436026688
 10
4.2072535506
 20
26.2360048284
 10
4.2344502265
 20
26.2277254958
 10
4.26062073
 20
26.2189502895
 10
4.2862068621
 20
26.2095829733
 10
4.311712924
 20
26.1994457443
 10
4.3374136105
 20
26.1883970496
 10
4.3629772466
 20
26.1765462579
 10
4.3768689012
 20
26.1697341974
  0
LINE
  5
240
100
AcDbEntity
  8
RACCORDO
100
AcDbLine
 62
253
  6
CONTINUOUS
 10
3.3500894461
 20
-22.8985621099
 11
2.8218222744
 21
-22.7900598328
  0
LWPOLYLINE
  5
241
100
AcDbEntity
  8
RACCORDO
100
AcDbPolyline
 62
7
  6
CONTINUOUS
 90
34
 70
0
 10
1.9317620916
 20
-23.1056688737
 10
1.9238829686
 20
-23.1039925448
 10
1.9156627196
 20
-23.1021246387
 10
1.9071048584
 20
-23.1000752334
 10
1.8982064278
 20
-23.0978648209
 10
1.8889799928
 20
-23.0954949822
 10
1.8794534185
 20
-23.0929482883
 10
1.8696332302
 20
-23.0902378801
 10
1.859527332
 20
-23.0873762465
 10
1.849166549
 20
-23.0843457515
 10
1.8385600277
 20
-23.0811612196
 10
1.8277181163
 20
-23.0778369485
 10
1.8166743393
 20
-23.0743552955
 10
1.8054404908
 20
-23.0707326887
 10
1.79402954
 20
-23.066985219
 10
1.7824777196
 20
-23.0630955649
 10
1.7707995877
 20
-23.0590816633
 10
1.7590108562
 20
-23.0549613757
 10
1.7471505422
 20
-23.050718155
 10
1.7352360945
 20
-23.0463712893
 10
1.7232860812
 20
-23.0419403798
 10
1.7113424036
 20
-23.0374102864
 10
1.699425554
 20
-23.0328014003
 10
1.6875569868
 20
-23.0281349756
 10
1.6757814081
 20
-23.0233980891
 10
1.6641225876
 20
-23.0186119218
 10
1.6526046505
 20
-23.0137991113
 10
1.6412742978
 20
-23.0089497343
 10
1.6301690354
 20
-23.0040918967
 10
1.6193046837
 20
-22.9992419623
 10
1.6086979981
 20
-22.9943759508
 10
1.5983759398
 20
-22.9895047434
 10
1.5883742432
 20
-22.9846703738
 10
1.5787259036
 20
-22.9798990357
  0
LWPOLYLINE
  5
242
100
AcDbEntity
  8
RACCORDO
100
AcDbPolyline
 62
7
  6
CONTINUOUS
 90
24
 70
0
 10
-3.3214688217
 20
-24.2342370897
 10
-3.2887540671
 20
-24.2497733969
 10
-3.256663349
 20
-24.2634693879
 10
-3.2239256252
 20
-24.2759476962
 10
-3.1905679345
 20
-24.2871839165
 10
-3.1565936816
 20
-24.2971607927
 10
-3.1220402945
 20
-24.3058498827
 10
-3.0869495057
 20
-24.3132242527
 10
-3.0513283373
 20
-24.3192650019
 10
-3.0152140882
 20
-24.323947078
 10
-2.9786501908
 20
-24.3272469668
 10
-2.9416488669
 20
-24.3291449795
 10
-2.9042509026
 20
-24.3296195415
 10
-2.8664946957
 20
-24.32865128
 10
-2.8283836212
 20
-24.3262198129
 10
-2.789955915
 20
-24.3223055053
 10
-2.7512482101
 20
-24.3168902871
 10
-2.7122555379
 20
-24.3099494334
 10
-2.6730086533
 20
-24.3014617665
 10
-2.6335470251
 20
-24.2914090188
 10
-2.5938731324
 20
-24.2797631474
 10
-2.554008838
 20
-24.2664988435
 10
-2.513998901
 20
-24.251598565
 10
-2.4871279548
 20
-24.2406901306
  0
LINE
  5
243
100
AcDbEntity
  8
RACCORDO
100
AcDbLine
 62
7
  6
CONTINUOUS
 10
-3.3213854942
 20
-24.2342787624
 11
-18.1552848556
 21
-16.8173290818
  0
LINE
  5
244
100
AcDbEntity
  8
RACCORDO
100
AcDbLine
 62
7
  6
CONTINUOUS
 10
-3.3214689896
 20
-24.2342370064
 11
-3.3213859774
 21
-24.2342785208
  0
LINE
  5
245
100
AcDbEntity
  8
RACCORDO
100
AcDbLine
 62
253
  6
CONTINUOUS
 10
-3.7148543824
 20
-23.473679061
 11
-18.5397004601
 21
-16.0612560222
  0
LINE
  5
246
100
AcDbEntity
  8
RACCORDO
100
AcDbLine
 62
253
  6
CONTINUOUS
 10
-18.1552840021
 20
-16.8173295085
 11
-18.163341241
 21
-16.8132176546
  0
LWPOLYLINE
  5
247
100
AcDbEntity
  8
RACCORDO
100
AcDbPolyline
 62
253
  6
CONTINUOUS
 90
78
 70
0
 10
-18.1719243041
 20
-16.8086511717
 10
-18.1804294621
 20
-16.8039314947
 10
-18.1888557679
 20
-16.7990591504
 10
-18.1972022478
 20
-16.7940347014
 10
-18.2054679308
 20
-16.7888587306
 10
-18.2136518888
 20
-16.7835318225
 10
-18.2217531731
 20
-16.7780545932
 10
-18.2297708443
 20
-16.7724276761
 10
-18.2377040025
 20
-16.7666517078
 10
-18.2455517281
 20
-16.7607273559
 10
-18.2533131114
 20
-16.7546553051
 10
-18.2609872813
 20
-16.7484362434
 10
-18.2685733487
 20
-16.742070889
 10
-18.2760704341
 20
-16.7355599774
 10
-18.2834776965
 20
-16.7289042472
 10
-18.2907942761
 20
-16.7221044683
 10
-18.2980193264
 20
-16.7151614243
 10
-18.3051520423
 20
-16.7080758988
 10
-18.3121915962
 20
-16.7008487102
 10
-18.3191371732
 20
-16.6934806909
 10
-18.325988003
 20
-16.6859726692
 10
-18.3327432939
 20
-16.6783255074
 10
-18.33940226
 20
-16.6705400892
 10
-18.3459641557
 20
-16.6626172988
 10
-18.3524282208
 20
-16.6545580481
 10
-18.3587937053
 20
-16.6463632657
 10
-18.3650598958
 20
-16.6380338841
 10
-18.3712260665
 20
-16.6295708617
 10
-18.377291502
 20
-16.6209751731
 10
-18.3832555218
 20
-16.6122477986
 10
-18.3891174351
 20
-16.6033897425
 10
-18.394876562
 20
-16.5944020242
 10
-18.4005322564
 20
-16.5852856698
 10
-18.4060838628
 20
-16.576041729
 10
-18.4115307382
 20
-16.5666712646
 10
-18.4168722735
 20
-16.5571753435
 10
-18.4221078493
 20
-16.5475550592
 10
-18.4272368595
 20
-16.537811517
 10
-18.4322587331
 20
-16.5279458222
 10
-18.437172888
 20
-16.5179591094
 10
-18.4419787548
 20
-16.5078525263
 10
-18.4466757991
 20
-16.4976272177
 10
-18.4512634776
 20
-16.4872843568
 10
-18.4557412573
 20
-16.4768251336
 10
-18.4601086379
 20
-16.4662507387
 10
-18.4643651143
 20
-16.4555623848
 10
-18.4685101917
 20
-16.4447613014
 10
-18.4725434051
 20
-16.4338487243
 10
-18.4764642873
 20
-16.4228259065
 10
-18.4802723835
 20
-16.4116941142
 10
-18.4839672663
 20
-16.4004546218
 10
-18.487548508
 20
-16.38910872
 10
-18.4910156932
 20
-16.3776577114
 10
-18.494368433
 20
-16.3661029078
 10
-18.4976063395
 20
-16.3544456358
 10
-18.5007290372
 20
-16.3426872335
 10
-18.5037361761
 20
-16.3308290482
 10
-18.5066274074
 20
-16.3188724459
 10
-18.509402397
 20
-16.3068187942
 10
-18.5120608376
 20
-16.2946694587
 10
-18.5146024215
 20
-16.2824258332
 10
-18.5170268537
 20
-16.2700893227
 10
-18.5193338651
 20
-16.2576613255
 10
-18.5215231896
 20
-16.2451432607
 10
-18.5235945714
 20
-16.2325365703
 10
-18.5255477777
 20
-16.2198427018
 10
-18.5273825825
 20
-16.2070631106
 10
-18.5290987724
 20
-16.1941992627
 10
-18.5306961545
 20
-16.1812526357
 10
-18.5321745443
 20
-16.1682247141
 10
-18.5335337699
 20
-16.155116992
 10
-18.5347736788
 20
-16.1419309759
 10
-18.535894128
 20
-16.1286681774
 10
-18.5368949873
 20
-16.1153301175
 10
-18.5377761446
 20
-16.1019183298
 10
-18.5385374993
 20
-16.0884343535
 10
-18.5391789624
 20
-16.074879733
 10
-18.5397004601
 20
-16.0612560222
  0
LWPOLYLINE
  5
248
100
AcDbEntity
  8
RACCORDO
100
AcDbPolyline
 62
253
  6
CONTINUOUS
 90
17
 70
0
 10
-18.6859749658
 20
-15.8875571304
 10
-18.6846529462
 20
-15.8998703116
 10
-18.6822272432
 20
-15.9121102787
 10
-18.6787032302
 20
-15.9242499165
 10
-18.6740887143
 20
-15.9362623317
 10
-18.6683939178
 20
-15.9481209131
 10
-18.6616314567
 20
-15.9597993904
 10
-18.6538163118
 20
-15.9712718919
 10
-18.6449657962
 20
-15.9825130026
 10
-18.6350995164
 20
-15.9934978198
 10
-18.6242393295
 20
-16.0042020088
 10
-18.612409294
 20
-16.0146018565
 10
-18.5996356172
 20
-16.0246743239
 10
-18.5859465968
 20
-16.0343970973
 10
-18.5713725583
 20
-16.0437486379
 10
-18.5559457877
 20
-16.0527082289
 10
-18.5397004601
 20
-16.0612560222
  0
LWPOLYLINE
  5
249
100
AcDbEntity
  8
RACCORDO
100
AcDbPolyline
 62
253
  6
CONTINUOUS
 90
27
 70
0
 10
-12.1437766809
 20
24.0245978707
 10
-12.1486551807
 20
24.0126419691
 10
-12.1540008223
 20
24.000957695
 10
-12.1597994124
 20
23.9895771466
 10
-12.1660360975
 20
23.9785306331
 10
-12.1726936917
 20
23.9678496713
 10
-12.1797523408
 20
23.957566546
 10
-12.1871919966
 20
23.947710315
 10
-12.1949930327
 20
23.9383068388
 10
-12.203134352
 20
23.9293815811
 10
-12.2115938874
 20
23.9209588184
 10
-12.2203484243
 20
23.9130617458
 10
-12.2293738445
 20
23.9057121486
 10
-12.2386454109
 20
23.8989301603
 10
-12.2481378801
 20
23.8927342359
 10
-12.2578253485
 20
23.887141286
 10
-12.267681373
 20
23.882166584
 10
-12.2776790189
 20
23.8778237317
 10
-12.2877909548
 20
23.874124604
 10
-12.2979895529
 20
23.8710793069
 10
-12.3082469646
 20
23.8686961552
 10
-12.3185351726
 20
23.8669816582
 10
-12.3288260912
 20
23.8659404977
 10
-12.3390915961
 20
23.8655755208
 10
-12.3493036021
 20
23.8658877213
 10
-12.3594341872
 20
23.8668762333
 10
-12.369455713
 20
23.8685383476
  0
LWPOLYLINE
  5
24A
100
AcDbEntity
  8
RACCORDO
100
AcDbPolyline
 62
7
  6
CONTINUOUS
 90
5
 70
0
 10
-2.8963298861
 20
22.9132225613
 10
-2.8940868071
 20
22.9150384344
 10
-2.8908038687
 20
22.9173872733
 10
-2.8873651842
 20
22.9195018947
 10
-2.884639939
 20
22.9209556508
  0
LINE
  5
24B
100
AcDbEntity
  8
ASSI
100
AcDbLine
 62
7
  6
CONTINUOUS
 10
3.0713665264
 20
23.2382026729
 11
-1.5268844299
 21
20.9718413754
  0
LWPOLYLINE
  5
24C
100
AcDbEntity
  8
ASSI
100
AcDbPolyline
 62
7
  6
CONTINUOUS
 90
7
 70
0
 10
3.120242558
 20
23.25813124
 10
3.1121598068
 20
23.2554158694
 10
3.104051754
 20
23.2524580759
 10
3.0959183996
 20
23.2492578595
 10
3.0877597435
 20
23.2458152202
 10
3.0795757858
 20
23.242130158
 10
3.0713665264
 20
23.2382026729
  0
LINE
  5
24D
100
AcDbEntity
  8
RACCORDO
100
AcDbLine
 62
7
  6
CONTINUOUS
 10
-2.51894156
 20
19.9935461126
 11
-2.6178999235
 21
19.9642344546
  0
LWPOLYLINE
  5
24E
100
AcDbEntity
  8
RACCORDO
100
AcDbPolyline
 62
7
  6
CONTINUOUS
 90
4
 70
0
 10
-2.6178999235
 20
19.9642344546
 10
-2.6397194803
 20
19.9579071033
 10
-2.6501689127
 20
19.954946968
 10
-2.6603181766
 20
19.9521443521
  0
LWPOLYLINE
  5
24F
100
AcDbEntity
  8
ASSI
100
AcDbPolyline
 62
7
  6
CONTINUOUS
 90
16
 70
0
 10
3.120242558
 20
23.25813124
 10
3.1324003959
 20
23.2616210092
 10
3.1451303749
 20
23.2643438351
 10
3.1584249557
 20
23.2662836754
 10
3.172280669
 20
23.2674374958
 10
3.18668092
 20
23.2677756067
 10
3.2015942619
 20
23.2672429179
 10
3.217000741
 20
23.2658186717
 10
3.2328858341
 20
23.2634934797
 10
3.2492215363
 20
23.2602310643
 10
3.2659489613
 20
23.2560278311
 10
3.2830797874
 20
23.250860887
 10
3.300693554
 20
23.2446593573
 10
3.3187808812
 20
23.2374026233
 10
3.337301571
 20
23.2290708408
 10
3.3468112058
 20
23.2244391692
  0
LINE
  5
250
100
AcDbEntity
  8
RACCORDO
100
AcDbLine
 62
253
  6
CONTINUOUS
 10
3.2606756508
 20
-22.5789953039
 11
2.8218222744
 21
-22.4888579772
  0
LWPOLYLINE
  5
251
100
AcDbEntity
  8
RACCORDO
100
AcDbPolyline
 62
253
  6
CONTINUOUS
 90
31
 70
0
 10
0.8680195239
 20
-24.2966265611
 10
0.8774796733
 20
-24.3011160546
 10
0.8873952598
 20
-24.3053527567
 10
0.8977392977
 20
-24.3093251338
 10
0.9084836459
 20
-24.3130223754
 10
0.9195990514
 20
-24.3164344116
 10
0.931055225
 20
-24.3195519438
 10
0.9428209743
 20
-24.322366485
 10
0.9548642816
 20
-24.3248703774
 10
0.9671523542
 20
-24.3270568044
 10
0.9796517418
 20
-24.3289198163
 10
0.9923284236
 20
-24.3304543442
 10
1.0051478895
 20
-24.3316562125
 10
1.018075261
 20
-24.3325221529
 10
1.0310753361
 20
-24.3330498089
 10
1.0441126795
 20
-24.3332377462
 10
1.0571517508
 20
-24.333085461
 10
1.0701571158
 20
-24.3325933751
 10
1.0830934901
 20
-24.3317628254
 10
1.0959258292
 20
-24.3305960524
 10
1.1086190364
 20
-24.3290962376
 10
1.1211381856
 20
-24.327267521
 10
1.1334489823
 20
-24.3251149515
 10
1.1455181871
 20
-24.3226443816
 10
1.1573133048
 20
-24.3198624777
 10
1.1688047274
 20
-24.3167760985
 10
1.1799585439
 20
-24.3133942237
 10
1.1907376995
 20
-24.3097284646
 10
1.2011114655
 20
-24.3057901788
 10
1.2110547695
 20
-24.3015898263
 10
1.2205414835
 20
-24.297139285
  0
LWPOLYLINE
  5
252
100
AcDbEntity
  8
RACCORDO
100
AcDbPolyline
 62
253
  6
CONTINUOUS
 90
31
 70
0
 10
0.8680195239
 20
-23.956652627
 10
0.8774784942
 20
-23.9611415894
 10
0.8873927706
 20
-23.9653778139
 10
0.8977353743
 20
-23.9693497728
 10
0.9084781448
 20
-23.9730466521
 10
0.919591864
 20
-23.9764583982
 10
0.9310463413
 20
-23.9795757402
 10
0.9428104467
 20
-23.9823901991
 10
0.9548521371
 20
-23.984894102
 10
0.9671385914
 20
-23.9870806217
 10
0.9796363558
 20
-23.9889438056
 10
0.9923114386
 20
-23.9904785868
 10
1.005129347
 20
-23.9916807888
 10
1.0180552103
 20
-23.9925471406
 10
1.0310538435
 20
-23.9930752836
 10
1.0440898418
 20
-23.9932637804
 10
1.0571277097
 20
-23.9931121211
 10
1.0701319889
 20
-23.9926207215
 10
1.0830673234
 20
-23.9917909188
 10
1.095898629
 20
-23.990624959
 10
1.1085908702
 20
-23.9891260211
 10
1.1211091993
 20
-23.9872982336
 10
1.1334193636
 20
-23.9851466329
 10
1.1454880944
 20
-23.9826770696
 10
1.1572828653
 20
-23.979896213
 10
1.1687727278
 20
-23.9768113029
 10
1.1799252096
 20
-23.9734309993
 10
1.1907070194
 20
-23.9697655581
 10
1.2010882085
 20
-23.9658255602
 10
1.2110419207
 20
-23.9616216127
 10
1.2205414835
 20
-23.9571653508
  0
LINE
  5
253
100
AcDbEntity
  8
RACCORDO
100
AcDbLine
 62
7
  6
CONTINUOUS
 10
-0.3919918595
 20
-23.7693526713
 11
0.9329928203
 21
-24.4318450112
  0
LINE
  5
254
100
AcDbEntity
  8
RACCORDO
100
AcDbLine
 62
253
  6
CONTINUOUS
 10
-0.4569651559
 20
-23.6341342212
 11
0.8680195239
 21
-24.2966265611
  0
LINE
  5
255
100
AcDbEntity
  8
RACCORDO
100
AcDbLine
 62
253
  6
CONTINUOUS
 10
0.8680195239
 20
-23.956652627
 11
-0.3420373837
 21
-23.3516241732
  0
LINE
  5
256
100
AcDbEntity
  8
RACCORDO
100
AcDbLine
 62
253
  6
CONTINUOUS
 10
0.9564078715
 20
-23.7249584532
 11
-0.039614681
 21
-23.2269471769
  0
LINE
  5
257
100
AcDbEntity
  8
RACCORDO
100
AcDbLine
 62
7
  6
CONTINUOUS
 10
1.579240132
 20
-22.9801561499
 11
1.1161846006
 21
-22.7486283842
  0
LWPOLYLINE
  5
258
100
AcDbEntity
  8
RACCORDO
100
AcDbPolyline
 62
253
  6
CONTINUOUS
 90
16
 70
0
 10
-0.4569651559
 20
-23.6341342212
 10
-0.4659218572
 20
-23.6294165156
 10
-0.4743806393
 20
-23.6244691194
 10
-0.4823176172
 20
-23.6193050404
 10
-0.4897117107
 20
-23.6139367961
 10
-0.4965401002
 20
-23.6083796665
 10
-0.5027794781
 20
-23.6026520221
 10
-0.5084117214
 20
-23.5967707284
 10
-0.5134229005
 20
-23.5907505845
 10
-0.5177994861
 20
-23.5846078105
 10
-0.5215295803
 20
-23.5783589996
 10
-0.524602895
 20
-23.5720212626
 10
-0.5270109551
 20
-23.5656120271
 10
-0.5287471947
 20
-23.5591488184
 10
-0.5298069278
 20
-23.5526491488
 10
-0.5301884603
 20
-23.5457526596
  0
LWPOLYLINE
  5
259
100
AcDbEntity
  8
RACCORDO
100
AcDbPolyline
 62
7
  6
CONTINUOUS
 90
22
 70
0
 10
-0.3919918595
 20
-23.7693526713
 10
-0.4036484254
 20
-23.763134087
 10
-0.4150038081
 20
-23.756280481
 10
-0.4260146536
 20
-23.748809217
 10
-0.4366432157
 20
-23.7407379491
 10
-0.4468447043
 20
-23.7320941936
 10
-0.4565696281
 20
-23.7229172137
 10
-0.4657441466
 20
-23.7132841897
 10
-0.4743824157
 20
-23.7031901736
 10
-0.4825529103
 20
-23.6925403881
 10
-0.4902537063
 20
-23.68129141
 10
-0.4973872302
 20
-23.6695388232
 10
-0.5038742343
 20
-23.657391181
 10
-0.5096778662
 20
-23.644915489
 10
-0.5147885098
 20
-23.6321334701
 10
-0.519187548
 20
-23.6190905136
 10
-0.5228591394
 20
-23.6058369842
 10
-0.5257941248
 20
-23.5924133955
 10
-0.5279877748
 20
-23.5788442106
 10
-0.5294335467
 20
-23.5651594498
 10
-0.5301242312
 20
-23.5514124877
 10
-0.5301884603
 20
-23.5457526596
  0
LWPOLYLINE
  5
25A
100
AcDbEntity
  8
RACCORDO
100
AcDbPolyline
 62
7
  6
CONTINUOUS
 90
27
 70
0
 10
-18.6861643478
 20
-15.8836064935
 10
-18.6844927457
 20
-15.9201672623
 10
-18.680660902
 20
-15.9709826899
 10
-18.6751176726
 20
-16.0209029576
 10
-18.6678726541
 20
-16.0699279243
 10
-18.6589421651
 20
-16.1179970348
 10
-18.6483602951
 20
-16.1649924197
 10
-18.6361479203
 20
-16.2108901914
 10
-18.6223279131
 20
-16.255657382
 10
-18.6069591256
 20
-16.2991670839
 10
-18.5900771701
 20
-16.3413912786
 10
-18.5717180961
 20
-16.3823036371
 10
-18.5519685357
 20
-16.4217839171
 10
-18.5308979335
 20
-16.4597795139
 10
-18.5085462199
 20
-16.4962986686
 10
-18.4849754941
 20
-16.5313122529
 10
-18.4602709024
 20
-16.5647681378
 10
-18.4344755761
 20
-16.5966792816
 10
-18.407588447
 20
-16.627101412
 10
-18.3796731382
 20
-16.6560062168
 10
-18.3507905654
 20
-16.6833739337
 10
-18.3209249273
 20
-16.7092524817
 10
-18.2901387591
 20
-16.7336118426
 10
-18.2584929876
 20
-16.7564287977
 10
-18.2259584862
 20
-16.777740725
 10
-18.1925631696
 20
-16.7975349786
 10
-18.1551662678
 20
-16.8173883562
  0
LWPOLYLINE
  5
25B
100
AcDbEntity
  8
RACCORDO
100
AcDbPolyline
 62
253
  6
CONTINUOUS
 90
67
 70
0
 10
-18.5397004601
 20
-16.0612560222
 10
-18.5572395587
 20
-15.5310026792
 10
-18.5742392753
 20
-15.0004432413
 10
-18.590699583
 20
-14.4695785332
 10
-18.6066204554
 20
-13.9384093802
 10
-18.6220018677
 20
-13.4069366078
 10
-18.6368437968
 20
-12.8751610414
 10
-18.6511462195
 20
-12.3430835074
 10
-18.6649091129
 20
-11.8107048329
 10
-18.6781324565
 20
-11.2780258448
 10
-18.6908162294
 20
-10.745047371
 10
-18.7029604115
 20
-10.2117702398
 10
-18.7145649847
 20
-9.6781952797
 10
-18.7256299306
 20
-9.1443233198
 10
-18.7361552317
 20
-8.6101551899
 10
-18.7461408723
 20
-8.0756917197
 10
-18.7555868365
 20
-7.5409337399
 10
-18.7644931095
 20
-7.0058820815
 10
-18.7728596778
 20
-6.4705375747
 10
-18.7806865284
 20
-5.9349010513
 10
-18.7879736488
 20
-5.3989733439
 10
-18.794721028
 20
-4.8627552848
 10
-18.8009286555
 20
-4.3262477072
 10
-18.8065965215
 20
-3.789451445
 10
-18.8117246173
 20
-3.2523673319
 10
-18.816312935
 20
-2.7149962026
 10
-18.8203614672
 20
-2.1773388923
 10
-18.8238702079
 20
-1.6393962359
 10
-18.8268391517
 20
-1.1011690695
 10
-18.8292682936
 20
-0.5626582294
 10
-18.8311576302
 20
-0.0238645522
 10
-18.8325071585
 20
0.5152111248
 10
-18.8333168763
 20
1.054567964
 10
-18.8335867823
 20
1.5942051279
 10
-18.8333168763
 20
2.134121778
 10
-18.8325071585
 20
2.6743170752
 10
-18.8311576302
 20
3.2147901806
 10
-18.8292682936
 20
3.7555402547
 10
-18.8268391517
 20
4.2965664569
 10
-18.8238702079
 20
4.837867947
 10
-18.8203614672
 20
5.3794438837
 10
-18.816312935
 20
5.9212934255
 10
-18.8117246173
 20
6.4634157307
 10
-18.8065965215
 20
7.0058099569
 10
-18.8009286555
 20
7.5484752613
 10
-18.794721028
 20
8.0914108008
 10
-18.7879736488
 20
8.6346157316
 10
-18.7806865284
 20
9.1780892098
 10
-18.7728596778
 20
9.7218303911
 10
-18.7644931095
 20
10.2658384304
 10
-18.7555868365
 20
10.8101124828
 10
-18.7461408723
 20
11.3546517031
 10
-18.7361552317
 20
11.8994552456
 10
-18.7256299306
 20
12.4445222636
 10
-18.7145649847
 20
12.98985191
 10
-18.7029604115
 20
13.5354433377
 10
-18.6908162294
 20
14.081295699
 10
-18.6781324565
 20
14.6274081452
 10
-18.6649091129
 20
15.1737798281
 10
-18.6511462195
 20
15.7204098988
 10
-18.6368437968
 20
16.2672975074
 10
-18.6220018677
 20
16.8144418045
 10
-18.6066204554
 20
17.36184194
 10
-18.590699583
 20
17.9094970629
 10
-18.5742392753
 20
18.4574063222
 10
-18.5572395587
 20
19.0055688669
 10
-18.5397004601
 20
19.5539838455
  0
LWPOLYLINE
  5
25C
100
AcDbEntity
  8
RACCORDO
100
AcDbPolyline
 62
253
  6
CONTINUOUS
 90
18
 70
0
 10
-18.6861831796
 20
19.7290182512
 10
-18.6859749664
 20
19.7176255347
 10
-18.6846529468
 20
19.7064515337
 10
-18.6822272437
 20
19.695291604
 10
-18.6787032308
 20
19.6841704684
 10
-18.6740887148
 20
19.6731127635
 10
-18.6683939184
 20
19.6621429858
 10
-18.6616314572
 20
19.6512854366
 10
-18.6538163123
 20
19.6405641688
 10
-18.6449657966
 20
19.6300029334
 10
-18.6350995168
 20
19.6196251268
 10
-18.6242393298
 20
19.6094537391
 10
-18.6124092943
 20
19.5995113032
 10
-18.5996356174
 20
19.5898198445
 10
-18.585946597
 20
19.5804008327
 10
-18.5713725584
 20
19.5712751338
 10
-18.5559457877
 20
19.5624629642
 10
-18.5397004601
 20
19.5539838455
  0
LWPOLYLINE
  5
25D
100
AcDbEntity
  8
RACCORDO
100
AcDbPolyline
 62
7
  6
CONTINUOUS
 90
22
 70
0
 10
-18.6861828831
 20
19.7290273951
 10
-18.7391036151
 20
18.019356124
 10
-18.7871496694
 20
16.2980050371
 10
-18.8298594719
 20
14.5791887523
 10
-18.8672323281
 20
12.8629337278
 10
-18.899267628
 20
11.1492662616
 10
-18.9259648435
 20
9.4382125372
 10
-18.9473235257
 20
7.7297988143
 10
-18.9633433068
 20
6.0240513364
 10
-18.9740239011
 20
4.3209961969
 10
-18.9793651038
 20
2.6206594867
 10
-18.9793667908
 20
0.923067373
 10
-18.9740289207
 20
-0.7717540001
 10
-18.9633515347
 20
-2.4637785508
 10
-18.9473347548
 20
-4.1529803578
 10
-18.9259787836
 20
-5.8393335846
 10
-18.8992839061
 20
-7.5228123253
 10
-18.8672504883
 20
-9.2033907435
 10
-18.829878975
 20
-10.8810431674
 10
-18.787169893
 20
-12.5557438916
 10
-18.739123854
 20
-14.227467132
 10
-18.686164261
 20
-15.8836090791
  0
LWPOLYLINE
  5
25E
100
AcDbEntity
  8
RACCORDO
100
AcDbPolyline
 62
253
  6
CONTINUOUS
 90
141
 70
0
 10
-18.5397004601
 20
19.5539838455
 10
-18.5391913077
 20
19.5678395407
 10
-18.5385672391
 20
19.581746707
 10
-18.5378283231
 20
19.5957038183
 10
-18.5369746424
 20
19.6097093464
 10
-18.5360062902
 20
19.6237617518
 10
-18.5349233705
 20
19.6378594839
 10
-18.5337260036
 20
19.6520009965
 10
-18.5324143219
 20
19.6661847379
 10
-18.5309884663
 20
19.6804091427
 10
-18.5294485955
 20
19.6946726508
 10
-18.5277948799
 20
19.7089736972
 10
-18.5260274977
 20
19.7233107033
 10
-18.5241466454
 20
19.7376820969
 10
-18.5221525317
 20
19.7520863013
 10
-18.5200453715
 20
19.7665217253
 10
-18.5178254
 20
19.780986782
 10
-18.5154928629
 20
19.7954798888
 10
-18.5130480099
 20
19.8099994557
 10
-18.5104911143
 20
19.8245438839
 10
-18.5078224586
 20
19.8391115852
 10
-18.505042324
 20
19.8537009821
 10
-18.5021510176
 20
19.8683104841
 10
-18.4991488612
 20
19.8829384806
 10
-18.4960361765
 20
19.8975833609
 10
-18.4928133087
 20
19.9122435212
 10
-18.4894806153
 20
19.9269173527
 10
-18.4860384546
 20
19.9416032344
 10
-18.4824872091
 20
19.9562995565
 10
-18.4788272723
 20
19.9710047081
 10
-18.475059038
 20
19.9857170642
 10
-18.4711829248
 20
20.0004350127
 10
-18.4671993628
 20
20.0151569401
 10
-18.4631087805
 20
20.0298812193
 10
-18.4589116327
 20
20.0446062365
 10
-18.4546083851
 20
20.0593303783
 10
-18.4501995004
 20
20.0740520176
 10
-18.4456854709
 20
20.0887695351
 10
-18.4410667957
 20
20.1034813244
 10
-18.4363439651
 20
20.1181857795
 10
-18.4315175034
 20
20.1328812908
 10
-18.4265879466
 20
20.1475662467
 10
-18.4215558192
 20
20.1622390391
 10
-18.4164216791
 20
20.1768980638
 10
-18.4111860966
 20
20.1915417118
 10
-18.4058496325
 20
20.2061683691
 10
-18.4004128789
 20
20.2207764351
 10
-18.3948764393
 20
20.2353643082
 10
-18.3892409082
 20
20.249930376
 10
-18.3835069113
 20
20.2644730442
 10
-18.3776750849
 20
20.2789907191
 10
-18.3717460565
 20
20.2934817931
 10
-18.3657204847
 20
20.3079446799
 10
-18.3595990381
 20
20.3223777952
 10
-18.3533823758
 20
20.3367795399
 10
-18.3470711895
 20
20.3511483347
 10
-18.3406661789
 20
20.3654826088
 10
-18.33416803
 20
20.3797807809
 10
-18.3275774662
 20
20.3940412831
 10
-18.3208952178
 20
20.4082625569
 10
-18.3141219967
 20
20.4224430414
 10
-18.307258555
 20
20.436581185
 10
-18.3003056548
 20
20.4506754394
 10
-18.2932640372
 20
20.4647242557
 10
-18.2861344833
 20
20.4787260982
 10
-18.2789177853
 20
20.4926794323
 10
-18.2716147158
 20
20.5065827178
 10
-18.2642260848
 20
20.520434435
 10
-18.2567527133
 20
20.5342330659
 10
-18.2491954042
 20
20.5479770819
 10
-18.2415549965
 20
20.5616649797
 10
-18.2338323386
 20
20.5752952606
 10
-18.2260282618
 20
20.5888664118
 10
-18.2181436333
 20
20.6023769479
 10
-18.2101793281
 20
20.6158253912
 10
-18.2021362021
 20
20.6292102513
 10
-18.1940151497
 20
20.6425300624
 10
-18.1858170717
 20
20.6557833691
 10
-18.1775428461
 20
20.6689687064
 10
-18.1691933933
 20
20.682084631
 10
-18.1607696391
 20
20.6951297096
 10
-18.1522724829
 20
20.7081025047
 10
-18.1437028688
 20
20.7210015974
 10
-18.1350617479
 20
20.7338255772
 10
-18.1263500419
 20
20.7465730313
 10
-18.1175687172
 20
20.7592425676
 10
-18.1087187497
 20
20.7718327987
 10
-18.0998010877
 20
20.784342331
 10
-18.0908167202
 20
20.7967697987
 10
-18.0817666459
 20
20.8091138411
 10
-18.0726518386
 20
20.8213730859
 10
-18.0634733109
 20
20.8335461927
 10
-18.0542320816
 20
20.8456318311
 10
-18.0449291443
 20
20.8576286581
 10
-18.0355655328
 20
20.8695353622
 10
-18.0261422865
 20
20.8813506426
 10
-18.0166604173
 20
20.8930731876
 10
-18.007120979
 20
20.9047017156
 10
-17.9975250303
 20
20.9162349567
 10
-17.9878736001
 20
20.9276716323
 10
-17.9781677615
 20
20.9390104917
 10
-17.9684085913
 20
20.9502502975
 10
-17.9585971322
 20
20.9613898067
 10
-17.9487344749
 20
20.9724278021
 10
-17.9388217137
 20
20.9833630786
 10
-17.928859906
 20
20.9941944285
 10
-17.9188501557
 20
21.0049206715
 10
-17.9087935769
 20
21.0155406333
 10
-17.8986912501
 20
21.0260531317
 10
-17.8885442977
 20
21.036457019
 10
-17.8783538462
 20
21.0467511592
 10
-17.868120991
 20
21.0569344059
 10
-17.857846869
 20
21.0670056473
 10
-17.8475326208
 20
21.0769637844
 10
-17.8371793545
 20
21.0868077083
 10
-17.8267882203
 20
21.0965363446
 10
-17.8163603721
 20
21.1061486321
 10
-17.8058969296
 20
21.1156435
 10
-17.7953990557
 20
21.1250199124
 10
-17.7848679158
 20
21.1342768469
 10
-17.7743046395
 20
21.143413273
 10
-17.763710402
 20
21.1524281931
 10
-17.7530863781
 20
21.1613206258
 10
-17.7424337018
 20
21.170089585
 10
-17.7317535549
 20
21.1787341161
 10
-17.7210471251
 20
21.1872532754
 10
-17.7103155597
 20
21.1956461139
 10
-17.6995600499
 20
21.2039117175
 10
-17.6887817912
 20
21.2120491849
 10
-17.6779819413
 20
21.2200576066
 10
-17.6671617003
 20
21.2279361102
 10
-17.6563222694
 20
21.2356838378
 10
-17.6454648126
 20
21.2432999235
 10
-17.634590536
 20
21.2507835383
 10
-17.6237006473
 20
21.2581338674
 10
-17.6127963143
 20
21.2653500892
 10
-17.6018787484
 20
21.2724314181
 10
-17.590949162
 20
21.279377084
 10
-17.5800087275
 20
21.2861863104
 10
-17.569058646
 20
21.2928583497
 10
-17.5581001478
 20
21.2993924834
  0
LWPOLYLINE
  5
25F
100
AcDbEntity
  8
RACCORDO
100
AcDbPolyline
 62
253
  6
CONTINUOUS
 90
26
 70
0
 10
-12.4903315579
 20
24.4238454339
 10
-12.4877236025
 20
24.4359851378
 10
-12.4846584304
 20
24.4481698386
 10
-12.4811438762
 20
24.460368964
 10
-12.4771893949
 20
24.472549636
 10
-12.4728056311
 20
24.4846789238
 10
-12.4680045515
 20
24.4967235877
 10
-12.462799346
 20
24.5086504985
 10
-12.4572042571
 20
24.52042705
 10
-12.4512344541
 20
24.5320213397
 10
-12.4449061322
 20
24.5434019102
 10
-12.4382364811
 20
24.5545378278
 10
-12.4312436736
 20
24.5653987313
 10
-12.4239467649
 20
24.5759550159
 10
-12.4163656224
 20
24.5861779361
 10
-12.4085208712
 20
24.5960396765
 10
-12.4004338649
 20
24.6055133889
 10
-12.3921266127
 20
24.6145732867
 10
-12.383621726
 20
24.6231947064
 10
-12.3749423609
 20
24.631354172
 10
-12.3661121349
 20
24.6390294785
 10
-12.3571550886
 20
24.6461997276
 10
-12.3480956294
 20
24.652845382
 10
-12.3389584259
 20
24.6589483507
 10
-12.3297683395
 20
24.664492033
 10
-12.3205503846
 20
24.6694613437
  0
LINE
  5
260
100
AcDbEntity
  8
RACCORDO
100
AcDbLine
 62
7
  6
CONTINUOUS
 10
-2.8963433338
 20
22.9132110069
 11
-3.8263681525
 21
22.1215832367
  0
LINE
  5
261
100
AcDbEntity
  8
0
100
AcDbLine
 62
253
  6
CONTINUOUS
 10
-2.7996766361
 20
22.9130355852
 11
-3.765342578
 21
22.0910704495
  0
LINE
  5
262
100
AcDbEntity
  8
RACCORDO
100
AcDbLine
 62
7
  6
CONTINUOUS
 10
-1.597595108
 20
19.0926927564
 11
-1.9552742573
 21
18.8930968045
  0
LINE
  5
263
100
AcDbEntity
  8
RACCORDO
100
AcDbLine
 62
7
  6
CONTINUOUS
 10
-1.9552742573
 20
20.1258237769
 11
-1.597595108
 21
20.3051283217
  0
LINE
  5
264
100
AcDbEntity
  8
ASSI
100
AcDbLine
 62
7
  6
CONTINUOUS
 10
-1.597595108
 20
20.3051283217
 11
3.6768969611
 21
22.9354374556
  0
LINE
  5
265
100
AcDbEntity
  8
DRAFT
100
AcDbLine
 62
7
  6
CONTINUOUS
 10
-1.597595108
 20
19.0926927564
 11
3.7272389622
 21
21.7290241883
  0
LINE
  5
266
100
AcDbEntity
  8
RACCORDO
100
AcDbLine
 62
7
  6
CONTINUOUS
 10
4.4896938026
 20
23.0506438609
 11
3.8508330261
 21
22.7380417358
  0
LINE
  5
267
100
AcDbEntity
  8
RACCORDO
100
AcDbLine
 62
7
  6
CONTINUOUS
 10
8.5692926507
 20
23.8337225527
 11
5.9457014437
 21
22.5685110085
  0
LWPOLYLINE
  5
268
100
AcDbEntity
  8
RACCORDO
100
AcDbPolyline
 62
7
  6
CONTINUOUS
 90
18
 70
0
 10
4.4896938026
 20
23.0506438609
 10
4.5180683234
 20
23.0638258177
 10
4.5463027754
 20
23.0755602095
 10
4.5743971586
 20
23.0858470361
 10
4.6024014716
 20
23.0946991707
 10
4.6302657159
 20
23.1021037403
 10
4.6578398956
 20
23.1080221259
 10
4.6851090242
 20
23.1124455472
 10
4.7120880882
 20
23.1153827845
 10
4.7386720508
 20
23.1168215605
 10
4.7648770097
 20
23.1167544239
 10
4.7906868672
 20
23.1151888259
 10
4.8159482934
 20
23.1121348425
 10
4.8406380468
 20
23.1075890581
 10
4.8647793689
 20
23.1015548883
 10
4.8882886551
 20
23.0940526555
 10
4.9111844353
 20
23.0850672409
 10
4.9307465196
 20
23.0759775078
  0
LWPOLYLINE
  5
269
100
AcDbEntity
  8
RACCORDO
100
AcDbPolyline
 62
7
  6
CONTINUOUS
 90
18
 70
0
 10
1.7254774708
 20
19.7298609563
 10
1.7376984305
 20
19.7354133225
 10
1.7503275542
 20
19.7403477626
 10
1.7633263534
 20
19.7446263916
 10
1.7766716039
 20
19.7482189655
 10
1.7902973332
 20
19.7510871927
 10
1.804096292
 20
19.7531966646
 10
1.8179952741
 20
19.7545329127
 10
1.8319646953
 20
19.7550913003
 10
1.8459655469
 20
19.7548669474
 10
1.8599390112
 20
19.753858341
 10
1.8738447665
 20
19.7520668736
 10
1.8876782063
 20
19.7494878813
 10
1.9014462678
 20
19.7461066191
 10
1.9150473167
 20
19.7419345206
 10
1.9283331473
 20
19.7370180095
 10
1.9412673026
 20
19.7313812193
 10
1.9467705464
 20
19.7287130537
  0
LWPOLYLINE
  5
26A
100
AcDbEntity
  8
RACCORDO
100
AcDbPolyline
 62
253
  6
CONTINUOUS
 90
5
 70
0
 10
3.2840843761
 20
-22.5870795174
 10
3.2825106766
 20
-22.5863111023
 10
3.2754829767
 20
-22.5833048968
 10
3.2681985952
 20
-22.5808642738
 10
3.2606756508
 20
-22.5789953039
  0
LINE
  5
26B
100
AcDbEntity
  8
RACCORDO
100
AcDbLine
 62
253
  6
CONTINUOUS
 10
2.8218222744
 20
-22.3595686157
 11
3.2606756508
 21
-22.5789953039
  0
LINE
  5
26C
100
AcDbEntity
  8
RACCORDO
100
AcDbLine
 62
7
  6
CONTINUOUS
 10
2.8218222744
 20
-22.3559484662
 11
3.284090702
 21
-22.58708268
  0
LWPOLYLINE
  5
26D
100
AcDbEntity
  8
RACCORDO
100
AcDbPolyline
 62
7
  6
CONTINUOUS
 90
22
 70
0
 10
-0.3943081142
 20
18.65623973
 10
-0.404114975
 20
18.6509287239
 10
-0.415126586
 20
18.6442620732
 10
-0.4257902407
 20
18.6370304476
 10
-0.4360769299
 20
18.6292512291
 10
-0.4459656077
 20
18.6209369373
 10
-0.4554287918
 20
18.6121059555
 10
-0.4644370453
 20
18.6027808631
 10
-0.472966395
 20
18.5929810944
 10
-0.4809912125
 20
18.5827297885
 10
-0.4884857186
 20
18.5720532039
 10
-0.4954268083
 20
18.5609770965
 10
-0.5017918186
 20
18.5495297347
 10
-0.5075595524
 20
18.5377406646
 10
-0.5127108463
 20
18.5256393535
 10
-0.5172279819
 20
18.5132559002
 10
-0.5210934176
 20
18.5006253058
 10
-0.5242912027
 20
18.487786235
 10
-0.5268087868
 20
18.4747745939
 10
-0.5286357347
 20
18.4616261266
 10
-0.5297632581
 20
18.4483807849
 10
-0.5301884606
 20
18.4338057979
  0
LINE
  5
26E
100
AcDbEntity
  8
RACCORDO
100
AcDbLine
 62
7
  6
CONTINUOUS
 10
1.1888691289
 20
19.4684396238
 11
-0.3943025661
 21
18.6562425765
  0
LINE
  5
26F
100
AcDbEntity
  8
RACCORDO
100
AcDbLine
 62
253
  6
CONTINUOUS
 10
1.3015397032
 20
19.4617786987
 11
-0.2812169
 21
18.6497946014
  0
LINE
  5
270
100
AcDbEntity
  8
RACCORDO
100
AcDbLine
 62
253
  6
CONTINUOUS
 10
2.6450485707
 20
18.790024265
 11
1.0437677799
 21
17.9873022615
  0
LINE
  5
271
100
AcDbEntity
  8
RACCORDO
100
AcDbLine
 62
253
  6
CONTINUOUS
 10
2.8218222744
 20
18.4851347262
 11
1.2205414835
 21
17.6824127227
  0
LINE
  5
272
100
AcDbEntity
  8
RACCORDO
100
AcDbLine
 62
7
  6
CONTINUOUS
 10
1.1906075144
 20
19.4693088566
 11
1.1888711026
 21
19.4684406364
  0
LINE
  5
273
100
AcDbEntity
  8
RACCORDO
100
AcDbLine
 62
253
  6
CONTINUOUS
 10
3.1733157424
 20
19.053463085
 11
2.6450485707
 21
18.790024265
  0
LINE
  5
274
100
AcDbEntity
  8
RACCORDO
100
AcDbLine
 62
253
  6
CONTINUOUS
 10
3.3500894461
 20
18.7485735462
 11
2.8218222744
 21
18.4851347262
  0
LINE
  5
275
100
AcDbEntity
  8
RACCORDO
100
AcDbLine
 62
7
  6
CONTINUOUS
 10
9.5557891724
 20
23.3424864107
 11
6.9716606622
 21
22.0555313993
  0
LINE
  5
276
100
AcDbEntity
  8
DRAFT
100
AcDbLine
 62
7
  6
CONTINUOUS
 10
9.5729483643
 20
22.9179397638
 11
7.4056078799
 21
21.8385577904
  0
LINE
  5
277
100
AcDbEntity
  8
RACCORDO
100
AcDbLine
 62
7
  6
CONTINUOUS
 10
1.7254774708
 20
19.7298609563
 11
1.19061028
 21
19.4693102038
  0
LINE
  5
278
100
AcDbEntity
  8
RACCORDO
100
AcDbLine
 62
253
  6
CONTINUOUS
 10
1.8359895819
 20
19.7221261653
 11
1.3015397032
 21
19.4617786987
  0
LINE
  5
279
100
AcDbEntity
  8
RACCORDO
100
AcDbLine
 62
7
  6
CONTINUOUS
 10
7.5566597465
 20
21.517160889
 11
2.873122867
 21
19.2655368936
  0
LWPOLYLINE
  5
27A
100
AcDbEntity
  8
RACCORDO
100
AcDbPolyline
 62
7
  6
CONTINUOUS
 90
23
 70
0
 10
-13.8945066251
 20
24.7759912822
 10
-13.8941882171
 20
24.7633777299
 10
-13.8932296004
 20
24.7507547817
 10
-13.8916278261
 20
24.7381612415
 10
-13.8893836662
 20
24.7256401681
 10
-13.8864996262
 20
24.713226743
 10
-13.882977802
 20
24.7009479761
 10
-13.8788244368
 20
24.6888410493
 10
-13.8740495819
 20
24.676945682
 10
-13.8686617871
 20
24.6652914026
 10
-13.8626734265
 20
24.6539124277
 10
-13.8561013853
 20
24.6428460329
 10
-13.8489619515
 20
24.6321232194
 10
-13.8412721585
 20
24.6217728501
 10
-13.8330548387
 20
24.6118280369
 10
-13.824335805
 20
24.6023207145
 10
-13.8151345889
 20
24.5932726518
 10
-13.8054781394
 20
24.5847109341
 10
-13.7954037376
 20
24.576667271
 10
-13.7849311878
 20
24.5691557385
 10
-13.7740884978
 20
24.5621957297
 10
-13.762924748
 20
24.5558160152
 10
-13.756303698
 20
24.5523813218
  0
LWPOLYLINE
  5
27B
100
AcDbEntity
  8
RACCORDO
100
AcDbPolyline
 62
253
  6
CONTINUOUS
 90
19
 70
0
 10
-13.8212833204
 20
24.6876029345
 10
-13.8210644492
 20
24.6769419423
 10
-13.8204078935
 20
24.6665205258
 10
-13.8193145558
 20
24.6563649484
 10
-13.817786106
 20
24.6464990943
 10
-13.8158257874
 20
24.6369498976
 10
-13.8134392043
 20
24.6277466615
 10
-13.8106328715
 20
24.6189139349
 10
-13.8074133544
 20
24.6104718941
 10
-13.8037885853
 20
24.6024413796
 10
-13.7997675022
 20
24.5948422943
 10
-13.795360129
 20
24.5876936725
 10
-13.7905775012
 20
24.5810134449
 10
-13.7854315283
 20
24.5748182438
 10
-13.7799349994
 20
24.5691234636
 10
-13.7741016561
 20
24.5639433273
 10
-13.7679460673
 20
24.5592907359
 10
-13.761483512
 20
24.5551772034
 10
-13.7563100218
 20
24.5523844834
  0
LINE
  5
27C
100
AcDbEntity
  8
RACCORDO
100
AcDbLine
 62
7
  6
CONTINUOUS
 10
-13.8945066251
 20
25.1159652163
 11
-13.8945066251
 21
24.7759912822
  0
LINE
  5
27D
100
AcDbEntity
  8
RACCORDO
100
AcDbLine
 62
253
  6
CONTINUOUS
 10
-13.8212833204
 20
25.0275768686
 11
-13.8212833204
 21
24.6876029345
  0
LINE
  5
27E
100
AcDbEntity
  8
RACCORDO
100
AcDbLine
 62
7
  6
CONTINUOUS
 10
-13.1915136708
 20
23.8160141149
 11
-13.1915136708
 21
24.2699863078
  0
LINE
  5
27F
100
AcDbEntity
  8
RACCORDO
100
AcDbLine
 62
253
  6
CONTINUOUS
 10
-13.1182903661
 20
23.7243005113
 11
-13.1182903661
 21
24.2333746555
  0
LWPOLYLINE
  5
280
100
AcDbEntity
  8
RACCORDO
100
AcDbPolyline
 62
253
  6
CONTINUOUS
 90
31
 70
0
 10
-13.8212833204
 20
25.0275768686
 10
-13.8210439654
 20
25.0389593688
 10
-13.8203259602
 20
25.0505575945
 10
-13.8191303701
 20
25.0623404554
 10
-13.8174591727
 20
25.0742787228
 10
-13.8153162378
 20
25.0863377738
 10
-13.8127082823
 20
25.0984774777
 10
-13.8096431103
 20
25.1106621785
 10
-13.806128556
 20
25.1228613039
 10
-13.8021740747
 20
25.1350419759
 10
-13.7977903109
 20
25.1471712638
 10
-13.7929892313
 20
25.1592159276
 10
-13.7877840258
 20
25.1711428384
 10
-13.7821889369
 20
25.1829193899
 10
-13.7762191339
 20
25.1945136796
 10
-13.769890812
 20
25.2058942501
 10
-13.7632211609
 20
25.2170301677
 10
-13.7562283534
 20
25.2278910712
 10
-13.7489314447
 20
25.2384473558
 10
-13.7413503022
 20
25.248670276
 10
-13.733505551
 20
25.2585320164
 10
-13.7254185448
 20
25.2680057288
 10
-13.7171112926
 20
25.2770656267
 10
-13.7086064058
 20
25.2856870463
 10
-13.6999270407
 20
25.2938465119
 10
-13.6910968148
 20
25.3015218184
 10
-13.6821397684
 20
25.3086920675
 10
-13.6730803092
 20
25.3153377219
 10
-13.6639431057
 20
25.3214406906
 10
-13.6547530193
 20
25.3269843729
 10
-13.6455350644
 20
25.3319536836
  0
LWPOLYLINE
  5
281
100
AcDbEntity
  8
RACCORDO
100
AcDbPolyline
 62
253
  6
CONTINUOUS
 90
6
 70
0
 10
-12.4962986405
 20
24.3650845287
 10
-12.4960592856
 20
24.3764670289
 10
-12.4953412804
 20
24.3880652546
 10
-12.4941456903
 20
24.3998481155
 10
-12.4924744928
 20
24.4117863829
 10
-12.4903315579
 20
24.4238454339
  0
LWPOLYLINE
  5
282
100
AcDbEntity
  8
RACCORDO
100
AcDbPolyline
 62
7
  6
CONTINUOUS
 90
20
 70
0
 10
-13.8945066251
 20
25.1159652163
 10
-13.894102753
 20
25.1301698282
 10
-13.8928841414
 20
25.1444012522
 10
-13.8908437539
 20
25.1586034499
 10
-13.8879790024
 20
25.1727208449
 10
-13.8842926801
 20
25.1866946141
 10
-13.8797933877
 20
25.2004645613
 10
-13.8744947943
 20
25.2139725727
 10
-13.8684130528
 20
25.2271673365
 10
-13.8615655714
 20
25.2400031694
 10
-13.8539749009
 20
25.2524314807
 10
-13.8456685144
 20
25.2644033995
 10
-13.8366721064
 20
25.2758790299
 10
-13.8270107981
 20
25.2868225448
 10
-13.8167215257
 20
25.2971889122
 10
-13.8058472548
 20
25.3069343269
 10
-13.7944130912
 20
25.3160353323
 10
-13.782460935
 20
25.3244564831
 10
-13.7700583035
 20
25.332152117
 10
-13.7586135725
 20
25.3384053305
  0
LWPOLYLINE
  5
283
100
AcDbEntity
  8
RACCORDO
100
AcDbPolyline
 62
7
  6
CONTINUOUS
 90
5
 70
0
 10
-8.3132504466
 20
23.0924112414
 10
-8.3152869899
 20
23.0832898434
 10
-8.3168013487
 20
23.0734562459
 10
-8.3177577324
 20
23.062998086
 10
-8.3180894793
 20
23.0513243297
  0
LWPOLYLINE
  5
284
100
AcDbEntity
  8
RACCORDO
100
AcDbPolyline
 62
253
  6
CONTINUOUS
 90
142
 70
0
 10
-2.6989159893
 20
13.881678771
 10
-2.7101400779
 20
13.875412251
 10
-2.7213571143
 20
13.8690068072
 10
-2.7325658803
 20
13.862463137
 10
-2.7437653082
 20
13.8557818939
 10
-2.7549540314
 20
13.8489638622
 10
-2.766130386
 20
13.8420099716
 10
-2.7772931386
 20
13.8349209819
 10
-2.7884410977
 20
13.8276976909
 10
-2.7995726668
 20
13.8203411335
 10
-2.8106865262
 20
13.8128522264
 10
-2.8217815852
 20
13.8052317274
 10
-2.8328565951
 20
13.7974804686
 10
-2.8439102693
 20
13.7895993809
 10
-2.8549414977
 20
13.7815892922
 10
-2.8659492994
 20
13.7734508926
 10
-2.8769324849
 20
13.7651850843
 10
-2.8878898593
 20
13.756792788
 10
-2.8988204343
 20
13.7482747251
 10
-2.9097230697
 20
13.7396317958
 10
-2.9205965347
 20
13.7308649881
 10
-2.9314397074
 20
13.721975164
 10
-2.9422514801
 20
13.7129632391
 10
-2.9530306064
 20
13.7038302603
 10
-2.9637757615
 20
13.6945773068
 10
-2.9744857815
 20
13.6852053945
 10
-2.9851594999
 20
13.6757155587
 10
-2.9957955945
 20
13.6661089357
 10
-3.0063928956
 20
13.6563866018
 10
-3.0169502691
 20
13.6465496177
 10
-3.0274664554
 20
13.6365991214
 10
-3.0379402839
 20
13.6265362442
 10
-3.0483706499
 20
13.6163620719
 10
-3.0587563989
 20
13.6060776953
 10
-3.0690964007
 20
13.5956842565
 10
-3.0793895387
 20
13.5851829013
 10
-3.0896346861
 20
13.5745747424
 10
-3.0998307363
 20
13.5638609476
 10
-3.1099765791
 20
13.5530427053
 10
-3.1200710909
 20
13.5421211758
 10
-3.1301131706
 20
13.5310975716
 10
-3.1401017353
 20
13.5199731037
 10
-3.1500356958
 20
13.5087489451
 10
-3.1599139692
 20
13.4974263396
 10
-3.1697354888
 20
13.486006531
 10
-3.1794991978
 20
13.4744907053
 10
-3.1892040365
 20
13.4628801305
 10
-3.1988489504
 20
13.4511760867
 10
-3.2084328989
 20
13.4393797918
 10
-3.2179548514
 20
13.4274925293
 10
-3.2274137616
 20
13.4155156222
 10
-3.2368085736
 20
13.4034503601
 10
-3.2461382955
 20
13.3912980316
 10
-3.2554018828
 20
13.3790600128
 10
-3.2645982125
 20
13.3667377415
 10
-3.2737263094
 20
13.3543325438
 10
-3.2827851592
 20
13.3418458187
 10
-3.291773596
 20
13.3292791342
 10
-3.3006906289
 20
13.3166339048
 10
-3.3095353123
 20
13.3039115025
 10
-3.3183065655
 20
13.2911134497
 10
-3.3270033494
 20
13.2782413003
 10
-3.3356248206
 20
13.2652963421
 10
-3.3441702007
 20
13.2522797083
 10
-3.3526385409
 20
13.2391928689
 10
-3.3610289463
 20
13.2260372315
 10
-3.3693407214
 20
13.2128138368
 10
-3.3775730498
 20
13.1995239868
 10
-3.3857249389
 20
13.1861692884
 10
-3.3937954354
 20
13.1727512447
 10
-3.4017837532
 20
13.1592711676
 10
-3.4096889232
 20
13.1457306988
 10
-3.4175097416
 20
13.1321318543
 10
-3.4252453046
 20
13.1184762407
 10
-3.4328948382
 20
13.1047652603
 10
-3.4404573628
 20
13.0910006418
 10
-3.4479319267
 20
13.0771841667
 10
-3.4553178712
 20
13.0633171033
 10
-3.4626146645
 20
13.0494004156
 10
-3.4698215261
 20
13.0354356098
 10
-3.47693766
 20
13.0214242474
 10
-3.4839625052
 20
13.0073673728
 10
-3.4908954163
 20
12.9932662661
 10
-3.4977354993
 20
12.9791227352
 10
-3.5044818321
 20
12.9649386217
 10
-3.511133691
 20
12.9507154544
 10
-3.5176903351
 20
12.9364548276
 10
-3.5241508453
 20
12.9221586922
 10
-3.5305145052
 20
12.9078286629
 10
-3.5367806454
 20
12.8934662783
 10
-3.5429484473
 20
12.8790733856
 10
-3.5490171947
 20
12.8646517027
 10
-3.5549862946
 20
12.8502026882
 10
-3.5608551321
 20
12.8357278066
 10
-3.566623057
 20
12.8212287011
 10
-3.5722894701
 20
12.8067069193
 10
-3.5778538419
 20
12.792163784
 10
-3.5833155802
 20
12.7776008658
 10
-3.5886740821
 20
12.7630197958
 10
-3.5939288103
 20
12.7484219892
 10
-3.5990792145
 20
12.7338089849
 10
-3.6041247091
 20
12.7191824558
 10
-3.609064718
 20
12.7045440199
 10
-3.6138987196
 20
12.6898952333
 10
-3.6186261689
 20
12.6752377603
 10
-3.6232464763
 20
12.660573384
 10
-3.6277591208
 20
12.645903784
 10
-3.6321636358
 20
12.6312305065
 10
-3.6364595344
 20
12.6165551346
 10
-3.6406463448
 20
12.6018793033
 10
-3.6447236202
 20
12.5872046046
 10
-3.6486909268
 20
12.5725325575
 10
-3.6525478338
 20
12.55786477
 10
-3.6562939207
 20
12.5432028595
 10
-3.6599287834
 20
12.5285483575
 10
-3.6634520619
 20
12.5139027164
 10
-3.6668633315
 20
12.4992677052
 10
-3.6701621172
 20
12.4846453285
 10
-3.6733480512
 20
12.4700372656
 10
-3.6764208115
 20
12.4554450479
 10
-3.6793800235
 20
12.4408704539
 10
-3.6822253409
 20
12.4263152685
 10
-3.6849565044
 20
12.4117809033
 10
-3.6875732843
 20
12.397268574
 10
-3.6900753761
 20
12.3827800072
 10
-3.692462535
 20
12.3683166607
 10
-3.6947346129
 20
12.3538793494
 10
-3.6968913749
 20
12.3394694703
 10
-3.6989325398
 20
12.3250888042
 10
-3.7008578857
 20
12.3107387437
 10
-3.7026672117
 20
12.296420633
 10
-3.7043602679
 20
12.2821362909
 10
-3.7059367866
 20
12.2678878148
 10
-3.7073966027
 20
12.2536766214
 10
-3.7087395328
 20
12.2395044275
 10
-3.7099653374
 20
12.225373762
 10
-3.7110739045
 20
12.2112860872
 10
-3.7120651227
 20
12.1972430298
 10
-3.7129388264
 20
12.1832473382
 10
-3.7136949455
 20
12.1693009331
 10
-3.714333472
 20
12.1554049209
 10
-3.7148543824
 20
12.1415608066
  0
LINE
  5
285
100
AcDbEntity
  8
RACCORDO
100
AcDbLine
 62
7
  6
CONTINUOUS
 10
2.8218222744
 20
16.8829840652
 11
1.9317620916
 21
16.3863031439
  0
LINE
  5
286
100
AcDbEntity
  8
RACCORDO
100
AcDbLine
 62
253
  6
CONTINUOUS
 10
2.2423720972
 20
16.5423633213
 11
1.6907739811
 21
16.2410322524
  0
LINE
  5
287
100
AcDbEntity
  8
RACCORDO
100
AcDbLine
 62
253
  6
CONTINUOUS
 10
2.8450807941
 20
16.8713548053
 11
2.2423720972
 21
16.5423633213
  0
LWPOLYLINE
  5
288
100
AcDbEntity
  8
RACCORDO
100
AcDbPolyline
 62
253
  6
CONTINUOUS
 90
7
 70
0
 10
1.6907739811
 20
16.2410322524
 10
1.3331800863
 20
16.0461618586
 10
1.1504278405
 20
15.9469423526
 10
0.9620665809
 20
15.8450173834
 10
0.7691249132
 20
15.740905818
 10
0.5688580275
 20
15.6331730868
 10
0.3592393455
 20
15.5207945141
  0
LINE
  5
289
100
AcDbEntity
  8
RACCORDO
100
AcDbLine
 62
7
  6
CONTINUOUS
 10
8.4381952051
 20
20.7833026976
 11
2.9466518768
 21
17.8204890867
  0
LWPOLYLINE
  5
28A
100
AcDbEntity
  8
RACCORDO
100
AcDbPolyline
 62
253
  6
CONTINUOUS
 90
8
 70
0
 10
-1.2084097809
 20
14.6846400945
 10
-1.4269766796
 20
14.5678728004
 10
-1.64000303
 20
14.45385181
 10
-1.8494421831
 20
14.3415275926
 10
-2.0596204268
 20
14.2283983589
 10
-2.271979857
 20
14.1136301791
 10
-2.4850783778
 20
13.9980569832
 10
-2.6989159893
 20
13.881678771
  0
LINE
  5
28B
100
AcDbEntity
  8
RACCORDO
100
AcDbLine
 62
253
  6
CONTINUOUS
 10
0.3592393455
 20
15.5207945141
 11
-0.0786387474
 21
15.2868133291
  0
LINE
  5
28C
100
AcDbEntity
  8
RACCORDO
100
AcDbLine
 62
253
  6
CONTINUOUS
 10
-0.0786387474
 20
15.2868133291
 11
-1.2084097809
 21
14.6846400945
  0
LINE
  5
28D
100
AcDbEntity
  8
RACCORDO
100
AcDbLine
 62
7
  6
CONTINUOUS
 10
8.4381952051
 20
20.2859727406
 11
3.080043868
 21
17.4534223604
  0
LINE
  5
28E
100
AcDbEntity
  8
RACCORDO
100
AcDbLine
 62
7
  6
CONTINUOUS
 10
8.9033158388
 20
20.5174662036
 11
8.5127568389
 21
20.3221867036
  0
LINE
  5
28F
100
AcDbEntity
  8
RACCORDO
100
AcDbLine
 62
7
  6
CONTINUOUS
 10
9.7518465465
 20
20.09320342
 11
9.2949152639
 21
19.8647377787
  0
LINE
  5
290
100
AcDbEntity
  8
DRAFT
100
AcDbLine
 62
7
  6
CONTINUOUS
 10
3.5745617822
 20
17.2058693843
 11
9.2407246207
 21
19.9582028127
  0
LINE
  5
291
100
AcDbEntity
  8
RACCORDO
100
AcDbLine
 62
7
  6
CONTINUOUS
 10
13.1503572608
 20
21.5431902477
 11
9.57760087
 21
19.8460364578
  0
LINE
  5
292
100
AcDbEntity
  8
RACCORDO
100
AcDbLine
 62
253
  6
CONTINUOUS
 10
3.5641874555
 20
17.2113505666
 11
2.8447380795
 21
16.8715261626
  0
LINE
  5
293
100
AcDbEntity
  8
RACCORDO
100
AcDbLine
 62
253
  6
CONTINUOUS
 10
3.8824824462
 20
16.6624174451
 11
3.1643921923
 21
16.3232350082
  0
LWPOLYLINE
  5
294
100
AcDbEntity
  8
0
100
AcDbPolyline
 62
7
  6
CONTINUOUS
 90
6
 70
0
 10
9.57760087
 20
19.8460364578
 10
9.5293354458
 20
19.8235949038
 10
9.4801383453
 20
19.8016780592
 10
9.4300095688
 20
19.7802859239
 10
9.3789244864
 20
19.7594086807
 10
9.3602264135
 20
19.7520927084
  0
LWPOLYLINE
  5
295
100
AcDbEntity
  8
RACCORDO
100
AcDbPolyline
 62
7
  6
CONTINUOUS
 90
10
 70
0
 10
9.7518176506
 20
20.0931889721
 10
9.7632141148
 20
20.0983576273
 10
9.7744345173
 20
20.1024095237
 10
9.7854788581
 20
20.1053446612
 10
9.796442117
 20
20.1071631925
 10
9.8072293141
 20
20.107864965
 10
9.8175555096
 20
20.1074495207
 10
9.8273257233
 20
20.1059167068
 10
9.8366349353
 20
20.103266676
 10
9.8454831456
 20
20.0994994285
  0
LWPOLYLINE
  5
296
100
AcDbEntity
  8
RACCORDO
100
AcDbPolyline
 62
253
  6
CONTINUOUS
 90
97
 70
0
 10
-11.3780650276
 20
-9.2435647924
 10
-11.425176118
 20
-9.2191103491
 10
-11.4722964574
 20
-9.1927854019
 10
-11.5194260156
 20
-9.1645899352
 10
-11.5666361169
 20
-9.13448786
 10
-11.6138553164
 20
-9.1025152024
 10
-11.6608694001
 20
-9.0687801038
 10
-11.7076759358
 20
-9.0332688094
 10
-11.7542771129
 20
-8.9959949476
 10
-11.800465623
 20
-8.9571077211
 10
-11.8462356912
 20
-8.9165970004
 10
-11.8915927383
 20
-8.874472731
 10
-11.9363462336
 20
-8.8309142193
 10
-11.9804757643
 20
-8.7859315288
 10
-12.0240012985
 20
-8.739514365
 10
-12.0667928728
 20
-8.6918114953
 10
-12.1088415691
 20
-8.6428293751
 10
-12.1501557852
 20
-8.5925612788
 10
-12.1906315324
 20
-8.5411362026
 10
-12.2302745634
 20
-8.4885425206
 10
-12.2690785397
 20
-8.4347915547
 10
-12.3069213491
 20
-8.3800467287
 10
-12.3438045336
 20
-8.3242965762
 10
-12.3797259247
 20
-8.2675522391
 10
-12.4145578763
 20
-8.2100110699
 10
-12.4482935247
 20
-8.1516734762
 10
-12.4809390996
 20
-8.0925387222
 10
-12.5123866444
 20
-8.0328024717
 10
-12.542630086
 20
-7.972466353
 10
-12.571674878
 20
-7.9115284175
 10
-12.5994304167
 20
-7.8501789962
 10
-12.6258929603
 20
-7.7884160401
 10
-12.6510656647
 20
-7.7262412957
 10
-12.6748683462
 20
-7.6638508261
 10
-12.6972971286
 20
-7.6012418439
 10
-12.7183553585
 20
-7.5384168637
 10
-12.737973776
 20
-7.4755799473
 10
-12.7561472809
 20
-7.4127312492
 10
-12.7728805238
 20
-7.349870384
 10
-12.7881189735
 20
-7.2872006573
 10
-12.8018574937
 20
-7.2247230553
 10
-12.8141008678
 20
-7.1624364114
 10
-12.8248095556
 20
-7.1005408587
 10
-12.8339785139
 20
-7.0390377103
 10
-12.8416125427
 20
-6.9779255297
 10
-12.8476869851
 20
-6.9174003867
 10
-12.8521967931
 20
-6.8574638627
 10
-12.8551468905
 20
-6.7981143143
 10
-12.8565277004
 20
-6.7395430372
 10
-12.8563341349
 20
-6.6817525783
 10
-12.854571282
 20
-6.6247403928
 10
-12.8512449535
 20
-6.5686902033
 10
-12.8463502106
 20
-6.5136054424
 10
-12.8398921165
 20
-6.4594827435
 10
-12.8318916096
 20
-6.4064956931
 10
-12.8223438784
 20
-6.3546479349
 10
-12.8112539775
 20
-6.3039359523
 10
-12.7986577631
 20
-6.2545226512
 10
-12.7845504366
 20
-6.206412026
 10
-12.7689371493
 20
-6.1596002655
 10
-12.7518687926
 20
-6.1142386251
 10
-12.733340669
 20
-6.0703318271
 10
-12.7133579255
 20
-6.0278753817
 10
-12.6919863225
 20
-5.987006778
 10
-12.6692224103
 20
-5.9477324641
 10
-12.6450701682
 20
-5.910046265
 10
-12.6196065892
 20
-5.8740667809
 10
-12.5928284898
 20
-5.8397996114
 10
-12.5647396395
 20
-5.8072394582
 10
-12.5354275355
 20
-5.7764886131
 10
-12.5048867747
 20
-5.7475512362
 10
-12.4731233796
 20
-5.7204234854
 10
-12.440242048
 20
-5.6951956809
 10
-12.4062364079
 20
-5.6718739072
 10
-12.3711134651
 20
-5.6504524049
 10
-12.334998035
 20
-5.6310037528
 10
-12.2978918268
 20
-5.6135377013
 10
-12.2597937574
 20
-5.5980448208
 10
-12.2208244852
 20
-5.5845689369
 10
-12.1809902893
 20
-5.5731159208
 10
-12.1402854766
 20
-5.563680201
 10
-12.0988127595
 20
-5.5562884455
 10
-12.0565643238
 20
-5.5509428112
 10
-12.0135485042
 20
-5.5476414072
 10
-11.9698922379
 20
-5.5464048304
 10
-11.9255756428
 20
-5.5472429639
 10
-11.8806190455
 20
-5.5501461516
 10
-11.8352096911
 20
-5.5551056798
 10
-11.7893414051
 20
-5.5621374596
 10
-11.7430207162
 20
-5.5712257605
 10
-11.6964539094
 20
-5.5823143986
 10
-11.6496376312
 20
-5.5954201284
 10
-11.602575478
 20
-5.6105263192
 10
-11.5554841334
 20
-5.6275266951
 10
-11.5084358654
 20
-5.6463858512
 10
-11.4613585268
 20
-5.6671392541
 10
-11.4142521475
 20
-5.689786919
  0
LWPOLYLINE
  5
297
100
AcDbEntity
  8
RACCORDO
100
AcDbPolyline
 62
253
  6
CONTINUOUS
 90
77
 70
0
 10
-11.1678131596
 20
-8.8743461359
 10
-11.2080145328
 20
-8.8534633751
 10
-11.2483088628
 20
-8.8309627548
 10
-11.2886534706
 20
-8.8068550978
 10
-11.3290207689
 20
-8.7811429839
 10
-11.3693510728
 20
-8.7538503265
 10
-11.4095533901
 20
-8.7250282391
 10
-11.4495843797
 20
-8.6947006554
 10
-11.489399456
 20
-8.6628935488
 10
-11.5289073982
 20
-8.6296741896
 10
-11.5680634555
 20
-8.5950791858
 10
-11.6068274266
 20
-8.5591424192
 10
-11.6451178973
 20
-8.5219384212
 10
-11.6828805965
 20
-8.4835250217
 10
-11.7200910591
 20
-8.4439318524
 10
-11.7567147138
 20
-8.4031963308
 10
-11.7927075195
 20
-8.3613712944
 10
-11.8280385947
 20
-8.3184963792
 10
-11.8626926223
 20
-8.2745881019
 10
-11.8966388337
 20
-8.2296847104
 10
-11.9298344084
 20
-8.1838419411
 10
-11.9622454001
 20
-8.1371017354
 10
-11.9938412054
 20
-8.0895070055
 10
-12.0245830476
 20
-8.0411146602
 10
-12.0544264858
 20
-7.9919894757
 10
-12.0833381877
 20
-7.942187748
 10
-12.111289608
 20
-7.8917599072
 10
-12.1382460735
 20
-7.8407638946
 10
-12.1641779605
 20
-7.789258057
 10
-12.1890599943
 20
-7.7372949031
 10
-12.2128656973
 20
-7.6849244774
 10
-12.2355703951
 20
-7.632202631
 10
-12.2571500669
 20
-7.5791868035
 10
-12.2775805171
 20
-7.5259298387
 10
-12.2968408252
 20
-7.4724874636
 10
-12.3149101211
 20
-7.418918964
 10
-12.331766114
 20
-7.36528282
 10
-12.3473911758
 20
-7.3116371745
 10
-12.361769241
 20
-7.2580396517
 10
-12.3748825634
 20
-7.2045479937
 10
-12.3867175981
 20
-7.1512202977
 10
-12.3972624556
 20
-7.098113755
 10
-12.4065040133
 20
-7.045284486
 10
-12.4144329347
 20
-6.9927895768
 10
-12.4210414495
 20
-6.9406856285
 10
-12.4263208722
 20
-6.8890275069
 10
-12.4302661062
 20
-6.8378707022
 10
-12.4328735884
 20
-6.7872707372
 10
-12.4341390897
 20
-6.7372817116
 10
-12.4340618183
 20
-6.6879575453
 10
-12.432642584
 20
-6.639351524
 10
-12.4298817848
 20
-6.5915156862
 10
-12.4257829852
 20
-6.5445018382
 10
-12.4203513177
 20
-6.4983605037
 10
-12.4135916871
 20
-6.4531404611
 10
-12.4055118603
 20
-6.4088904036
 10
-12.3961212103
 20
-6.3656581936
 10
-12.3854291311
 20
-6.3234898142
 10
-12.373447496
 20
-6.2824304438
 10
-12.3601898867
 20
-6.2425247407
 10
-12.3456703881
 20
-6.2038160479
 10
-12.3299050151
 20
-6.166345809
 10
-12.3129114502
 20
-6.1301546532
 10
-12.2947084726
 20
-6.0952824758
 10
-12.275316853
 20
-6.0617676404
 10
-12.2547576139
 20
-6.0296450103
 10
-12.2330517432
 20
-5.9989471053
 10
-12.2102232294
 20
-5.9697073654
 10
-12.1862967944
 20
-5.9419569373
 10
-12.1612958214
 20
-5.9157232002
 10
-12.1352455998
 20
-5.8910334082
 10
-12.1081757326
 20
-5.8679162888
 10
-12.0801177111
 20
-5.8463989589
 10
-12.0510999121
 20
-5.8265033213
 10
-12.0211557819
 20
-5.8082524467
 10
-11.9903269856
 20
-5.7916706962
 10
-11.9825812531
 20
-5.7878346267
  0
LWPOLYLINE
  5
298
100
AcDbEntity
  8
RACCORDO
100
AcDbPolyline
 62
253
  6
CONTINUOUS
 90
31
 70
0
 10
-12.1437766809
 20
24.3645718049
 10
-12.1440703828
 20
24.3759700233
 10
-12.1448433114
 20
24.3875870043
 10
-12.1460942556
 20
24.3993913884
 10
-12.1478211007
 20
24.4113537184
 10
-12.150019793
 20
24.4234390217
 10
-12.1526833667
 20
24.4356066903
 10
-12.1558037851
 20
24.4478206826
 10
-12.1593730242
 20
24.4600501633
 10
-12.163381416
 20
24.472261946
 10
-12.1678180966
 20
24.4844227824
 10
-12.1726708628
 20
24.4964990879
 10
-12.177926278
 20
24.5084573839
 10
-12.1835698536
 20
24.5202647313
 10
-12.1895861779
 20
24.5318889118
 10
-12.1959588083
 20
24.5432981527
 10
-12.2026703067
 20
24.5544612129
 10
-12.2097022504
 20
24.565347431
 10
-12.2170353344
 20
24.5759269114
 10
-12.2246494442
 20
24.5861706315
 10
-12.2325237119
 20
24.5960505133
 10
-12.2406365446
 20
24.6055394601
 10
-12.2489656994
 20
24.6146114525
 10
-12.257488337
 20
24.6232416108
 10
-12.2661810806
 20
24.6314062609
 10
-12.2750201004
 20
24.6390830186
 10
-12.283981154
 20
24.6462508272
 10
-12.2930396438
 20
24.6528900126
 10
-12.3021707217
 20
24.6589823676
 10
-12.311349358
 20
24.6645111968
 10
-12.3205503846
 20
24.6694613437
  0
LWPOLYLINE
  5
299
100
AcDbEntity
  8
RACCORDO
100
AcDbPolyline
 62
253
  6
CONTINUOUS
 90
19
 70
0
 10
-12.4962986405
 20
24.0251105946
 10
-12.4960797694
 20
24.0144496024
 10
-12.4954232136
 20
24.0040281858
 10
-12.494329876
 20
23.9938726085
 10
-12.4928014261
 20
23.9840067544
 10
-12.4908411076
 20
23.9744575577
 10
-12.4884545245
 20
23.9652543216
 10
-12.4856481917
 20
23.956421595
 10
-12.4824286746
 20
23.9479795542
 10
-12.4788039055
 20
23.9399490397
 10
-12.4747828224
 20
23.9323499544
 10
-12.4703754492
 20
23.9252013326
 10
-12.4655928214
 20
23.918521105
 10
-12.4604468485
 20
23.9123259039
 10
-12.4549503196
 20
23.9066311237
 10
-12.4491169763
 20
23.9014509874
 10
-12.4429613875
 20
23.896798396
 10
-12.4364988322
 20
23.8926848635
 10
-12.431325342
 20
23.8898921434
  0
LINE
  5
29A
100
AcDbEntity
  8
RACCORDO
100
AcDbLine
 62
253
  6
CONTINUOUS
 10
-12.4962986405
 20
24.0251105946
 11
-12.4962986405
 21
24.3650845287
  0
LINE
  5
29B
100
AcDbEntity
  8
RACCORDO
100
AcDbLine
 62
253
  6
CONTINUOUS
 10
-12.1437766809
 20
24.0245978707
 11
-12.1437766809
 21
24.3645718049
  0
LINE
  5
29C
100
AcDbEntity
  8
RACCORDO
100
AcDbLine
 62
253
  6
CONTINUOUS
 10
-11.7850780324
 20
23.7465149674
 11
-11.7850780324
 21
23.0576943445
  0
LINE
  5
29D
100
AcDbEntity
  8
RACCORDO
100
AcDbLine
 62
253
  6
CONTINUOUS
 10
-11.4325560728
 20
23.8760943479
 11
-11.4325560728
 21
23.0684622261
  0
LWPOLYLINE
  5
29E
100
AcDbEntity
  8
RACCORDO
100
AcDbPolyline
 62
253
  6
CONTINUOUS
 90
16
 70
0
 10
-9.9420308613
 20
25.5186052638
 10
-9.9423321318
 20
25.5124704317
 10
-9.9433118504
 20
25.5059674835
 10
-9.9449685394
 20
25.4994989193
 10
-9.947297691
 20
25.4930823526
 10
-9.9502929712
 20
25.4867352415
 10
-9.9539462301
 20
25.4804748647
 10
-9.9582475282
 20
25.4743182615
 10
-9.9631851607
 20
25.468282191
 10
-9.968745686
 20
25.4623830886
 10
-9.9749139751
 20
25.4566370072
 10
-9.9816732364
 20
25.4510595915
 10
-9.9890050503
 20
25.4456660392
 10
-9.9968894484
 20
25.4404710348
 10
-10.0053049742
 20
25.4354887113
 10
-10.0142287183
 20
25.4307326284
  0
LWPOLYLINE
  5
29F
100
AcDbEntity
  8
RACCORDO
100
AcDbPolyline
 62
253
  6
CONTINUOUS
 90
16
 70
0
 10
-9.9420308613
 20
25.1710737426
 10
-9.9423351778
 20
25.1649079986
 10
-9.9433179771
 20
25.158405859
 10
-9.9449775825
 20
25.1519381917
 10
-9.947309502
 20
25.1455225389
 10
-9.9503073778
 20
25.1391764183
 10
-9.9539629528
 20
25.1329172538
 10
-9.9582661542
 20
25.1267621716
 10
-9.9632052809
 20
25.1207278062
 10
-9.968766994
 20
25.1148304208
 10
-9.9749368142
 20
25.1090854895
 10
-9.9816974214
 20
25.1035092486
 10
-9.9890283038
 20
25.0981183437
 10
-9.9969082997
 20
25.0929277492
 10
-10.0053161947
 20
25.0879508931
 10
-10.0142287183
 20
25.0832011117
  0
LWPOLYLINE
  5
2A0
100
AcDbEntity
  8
RACCORDO
100
AcDbPolyline
 62
253
  6
CONTINUOUS
 90
141
 70
0
 10
-2.3406097252
 20
13.2745198579
 10
-2.3481299967
 20
13.2702715701
 10
-2.3556440637
 20
13.2659314619
 10
-2.3631528887
 20
13.2614989431
 10
-2.3706555091
 20
13.2569746038
 10
-2.3781490376
 20
13.2523602147
 10
-2.3856334144
 20
13.2476557912
 10
-2.3931086993
 20
13.2428613179
 10
-2.4005721834
 20
13.2379785197
 10
-2.4080237787
 20
13.2330074053
 10
-2.4154635733
 20
13.227947966
 10
-2.4228891229
 20
13.2228019013
 10
-2.430300367
 20
13.2175692297
 10
-2.4376973662
 20
13.2122499328
 10
-2.4450778585
 20
13.2068456549
 10
-2.4524418418
 20
13.2013563734
 10
-2.4597893182
 20
13.1957821111
 10
-2.4671180312
 20
13.1901245803
 10
-2.4744280073
 20
13.1843837346
 10
-2.4817192201
 20
13.1785596205
 10
-2.4889893333
 20
13.1726540903
 10
-2.4962383877
 20
13.1666670775
 10
-2.5034663425
 20
13.1605986486
 10
-2.5106707392
 20
13.1544508544
 10
-2.5178515714
 20
13.148223663
 10
-2.5250088454
 20
13.1419171063
 10
-2.5321401212
 20
13.1355333307
 10
-2.5392453789
 20
13.1290723174
 10
-2.5463246384
 20
13.122534085
 10
-2.5533755198
 20
13.1159208367
 10
-2.5603979932
 20
13.1092325659
 10
-2.5673920884
 20
13.102469279
 10
-2.5743555155
 20
13.0956331981
 10
-2.5812882618
 20
13.0887243026
 10
-2.5881903398
 20
13.0817426129
 10
-2.5950594979
 20
13.0746904126
 10
-2.6018957282
 20
13.0675676759
 10
-2.6086990385
 20
13.0603744285
 10
-2.6154672
 20
13.0531130305
 10
-2.6222001973
 20
13.0457834646
 10
-2.6288980457
 20
13.0383857482
 10
-2.6355585622
 20
13.030922294
 10
-2.6421817317
 20
13.0233930849
 10
-2.6487675691
 20
13.015798138
 10
-2.6553139366
 20
13.0081399164
 10
-2.6618208224
 20
13.0004183997
 10
-2.6682882381
 20
12.9926336083
 10
-2.6747140811
 20
12.9847880661
 10
-2.6810983458
 20
12.9768817441
 10
-2.6874410378
 20
12.9689146713
 10
-2.6937400702
 20
12.960889459
 10
-2.6999954482
 20
12.9528060609
 10
-2.7062071668
 20
12.9446645231
 10
-2.7123731233
 20
12.9364675951
 10
-2.7184933165
 20
12.9282152345
 10
-2.7245677477
 20
12.9199074836
 10
-2.7305943192
 20
12.9115472188
 10
-2.7365730001
 20
12.9031344373
 10
-2.7425038212
 20
12.8946691417
 10
-2.748384777
 20
12.8861542169
 10
-2.7542157894
 20
12.8775897389
 10
-2.7599969364
 20
12.8689756315
 10
-2.7657264464
 20
12.8603145511
 10
-2.7714042923
 20
12.8516065101
 10
-2.777030501
 20
12.842851496
 10
-2.7826033822
 20
12.8340521268
 10
-2.7881229831
 20
12.8252082912
 10
-2.7935892563
 20
12.8163201005
 10
-2.799000369
 20
12.8073905067
 10
-2.8043563629
 20
12.798419385
 10
-2.8096571962
 20
12.7894068601
 10
-2.8149009114
 20
12.780356258
 10
-2.8200874428
 20
12.7712676321
 10
-2.8252168559
 20
12.7621409289
 10
-2.8302873901
 20
12.7529793145
 10
-2.8352989336
 20
12.7437829518
 10
-2.8402515981
 20
12.7345516778
 10
-2.8451439575
 20
12.7252881697
 10
-2.8499760096
 20
12.715992405
 10
-2.8547477566
 20
12.7066644062
 10
-2.8594577788
 20
12.6973069182
 10
-2.8641061448
 20
12.6879197576
 10
-2.8686927861
 20
12.6785031076
 10
-2.8732160779
 20
12.6690602637
 10
-2.8776760027
 20
12.6595911947
 10
-2.882072578
 20
12.6500959317
 10
-2.886404232
 20
12.6405778632
 10
-2.8906709251
 20
12.6310370064
 10
-2.8948726968
 20
12.6214733442
 10
-2.8990080941
 20
12.6118902135
 10
-2.9030770562
 20
12.6022876949
 10
-2.9070796438
 20
12.5926657079
 10
-2.9110145861
 20
12.5830273471
 10
-2.9148818512
 20
12.5733726412
 10
-2.918681471
 20
12.5637015617
 10
-2.922412271
 20
12.5540171177
 10
-2.9260742401
 20
12.5443192866
 10
-2.9296673895
 20
12.5346080911
 10
-2.9331905778
 20
12.5248866093
 10
-2.9366437994
 20
12.5151547942
 10
-2.94002706
 20
12.5054126928
 10
-2.9433392355
 20
12.4956635247
 10
-2.9465803125
 20
12.4859072518
 10
-2.9497503045
 20
12.4761439123
 10
-2.9528481274
 20
12.4663768403
 10
-2.9558737418
 20
12.4566060794
 10
-2.9588271871
 20
12.446831586
 10
-2.9617074975
 20
12.4370565638
 10
-2.9645146458
 20
12.427281027
 10
-2.967248659
 20
12.4175049613
 10
-2.9699086531
 20
12.4077315275
 10
-2.972494606
 20
12.3979607234
 10
-2.9750065396
 20
12.3881925512
 10
-2.9774436355
 20
12.3784301785
 10
-2.9798058917
 20
12.3686735019
 10
-2.9820933101
 20
12.3589226249
 10
-2.9843050785
 20
12.3491810253
 10
-2.9864411549
 20
12.3394487559
 10
-2.9885015812
 20
12.329725764
 10
-2.9904856707
 20
12.3200153691
 10
-2.9923933755
 20
12.3103176988
 10
-2.9942247435
 20
12.3006326255
 10
-2.995979232
 20
12.2909630853
 10
-2.997656812
 20
12.2813091695
 10
-2.9992575124
 20
12.2716707868
 10
-3.000780877
 20
12.2620506
 10
-3.0022269107
 20
12.2524484832
 10
-3.0035956085
 20
12.2428645623
 10
-3.0048865002
 20
12.2333018773
 10
-3.0060995772
 20
12.2237602764
 10
-3.0072348481
 20
12.2142399114
 10
-3.0082918671
 20
12.2047442773
 10
-3.0092706028
 20
12.1952732865
 10
-3.0101710867
 20
12.1858270265
 10
-3.0109929684
 20
12.1764092558
 10
-3.0117362051
 20
12.1670198581
 10
-3.0124008395
 20
12.1576589496
 10
-3.0129866493
 20
12.148330637
 10
-3.0134935603
 20
12.1390362891
 10
-3.0139216468
 20
12.1297745371
 10
-3.0142709086
 20
12.120545381
  0
LINE
  5
2A1
100
AcDbEntity
  8
RACCORDO
100
AcDbLine
 62
253
  6
CONTINUOUS
 10
0.2573695927
 20
14.7225330185
 11
-0.6369341275
 21
14.2205118764
  0
LWPOLYLINE
  5
2A2
100
AcDbEntity
  8
RACCORDO
100
AcDbPolyline
 62
253
  6
CONTINUOUS
 90
9
 70
0
 10
-0.6369341275
 20
14.2205118764
 10
-0.8558533045
 20
14.0977045725
 10
-1.0714668673
 20
13.9770080445
 10
-1.2818569632
 20
13.8594887617
 10
-1.488941445
 20
13.7440802547
 10
-1.6971621325
 20
13.6285209181
 10
-1.9079996323
 20
13.5120568835
 10
-2.1199733379
 20
13.3954420191
 10
-2.3406097252
 20
13.2745198579
  0
LWPOLYLINE
  5
2A3
100
AcDbEntity
  8
RACCORDO
100
AcDbPolyline
 62
253
  6
CONTINUOUS
 90
7
 70
0
 10
1.6566789641
 20
15.4998822889
 10
1.4747051691
 20
15.3998823651
 10
1.287405974
 20
15.2965562896
 10
1.0957855889
 20
15.1905024558
 10
0.8972328724
 20
15.0802229983
 10
0.6898084219
 20
14.964563824
 10
0.2573695927
 20
14.7225330185
  0
LINE
  5
2A4
100
AcDbEntity
  8
RACCORDO
100
AcDbLine
 62
253
  6
CONTINUOUS
 10
2.0132867568
 20
15.6949919075
 11
1.6566789641
 21
15.4998822889
  0
LWPOLYLINE
  5
2A5
100
AcDbEntity
  8
RACCORDO
100
AcDbPolyline
 62
253
  6
CONTINUOUS
 90
3
 70
0
 10
3.1643921923
 20
16.3232350082
 10
2.3759820222
 20
15.8928720217
 10
2.0132867568
 20
15.6949919075
  0
LINE
  5
2A6
100
AcDbEntity
  8
0
100
AcDbLine
 62
253
  6
CONTINUOUS
 10
10.4159738346
 20
17.9311977584
 11
3.8824824462
 21
14.6072658034
  0
LWPOLYLINE
  5
2A7
100
AcDbEntity
  8
RACCORDO
100
AcDbPolyline
 62
253
  6
CONTINUOUS
 90
34
 70
0
 10
-3.0142709086
 20
12.120545381
 10
-3.0315652398
 20
12.1134179143
 10
-3.0495907013
 20
12.1067046278
 10
-3.068307361
 20
12.1004203935
 10
-3.0876737557
 20
12.0945791328
 10
-3.1076469827
 20
12.089193786
 10
-3.1281827952
 20
12.0842762834
 10
-3.1492356998
 20
12.0798375186
 10
-3.1707590579
 20
12.0758873251
 10
-3.1927051884
 20
12.0724344536
 10
-3.2150254739
 20
12.0694865535
 10
-3.2376704679
 20
12.0670501551
 10
-3.2605900047
 20
12.0651306559
 10
-3.2837333104
 20
12.0637323082
 10
-3.3070491153
 20
12.0628582097
 10
-3.3304857677
 20
12.0625102968
 10
-3.353991348
 20
12.0626893404
 10
-3.3775137841
 20
12.0633949437
 10
-3.4010009664
 20
12.0646255436
 10
-3.4244008634
 20
12.066378414
 10
-3.4476616372
 20
12.0686496716
 10
-3.4707317577
 20
12.071434285
 10
-3.4935601176
 20
12.0747260854
 10
-3.5160961448
 20
12.0785177804
 10
-3.538289915
 20
12.0828009701
 10
-3.5600922621
 20
12.0875661661
 10
-3.5814548871
 20
12.0928028119
 10
-3.602330465
 20
12.0984993067
 10
-3.6226727501
 20
12.104643031
 10
-3.6424366777
 20
12.1112203746
 10
-3.6615784647
 20
12.1182167664
 10
-3.6800557059
 20
12.1256167075
 10
-3.6978274684
 20
12.1334038045
 10
-3.7148543824
 20
12.1415608066
  0
LWPOLYLINE
  5
2A8
100
AcDbEntity
  8
DRAFT
100
AcDbPolyline
 62
7
  6
CONTINUOUS
 90
6
 70
0
 10
-10.0820328672
 20
-8.5124437676
 10
-10.1228083627
 20
-8.4999656721
 10
-10.1656611425
 20
-8.4849864915
 10
-10.208619472
 20
-8.4681096149
 10
-10.2517352634
 20
-8.4493191563
 10
-10.2950085166
 20
-8.4286151155
  0
LWPOLYLINE
  5
2A9
100
AcDbEntity
  8
DRAFT
100
AcDbPolyline
 62
7
  6
CONTINUOUS
 90
57
 70
0
 10
-10.2950085166
 20
-8.4286151155
 10
-10.3382817699
 20
-8.406045903
 10
-10.3813975613
 20
-8.3817205703
 10
-10.4243558907
 20
-8.3556391174
 10
-10.4672086706
 20
-8.3277655182
 10
-10.5099039886
 20
-8.2981357987
 10
-10.552286108
 20
-8.2668580373
 10
-10.594353885
 20
-8.2339262151
 10
-10.6361084634
 20
-8.199346351
 10
-10.677397538
 20
-8.1632445794
 10
-10.7182194088
 20
-8.1256153423
 10
-10.7585757758
 20
-8.0864641977
 10
-10.798319434
 20
-8.0459339544
 10
-10.8374481456
 20
-8.0040195761
 10
-10.8759641484
 20
-7.9607260991
 10
-10.9137269502
 20
-7.9162114421
 10
-10.9507338003
 20
-7.8704711453
 10
-10.9869874494
 20
-7.8235096684
 10
-11.0223556577
 20
-7.7754983095
 10
-11.0568351915
 20
-7.7264332344
 10
-11.0904292845
 20
-7.6763182773
 10
-11.1230153978
 20
-7.625336239
 10
-11.1545898503
 20
-7.5734839529
 10
-11.1851563232
 20
-7.5207645856
 10
-11.2146033213
 20
-7.4673704378
 10
-11.2429267561
 20
-7.4132990452
 10
-11.2701307162
 20
-7.3585528721
 10
-11.2961159716
 20
-7.3033316122
 10
-11.3208780714
 20
-7.2476335306
 10
-11.3444214664
 20
-7.1914603622
 10
-11.3666602791
 20
-7.135017006
 10
-11.3875897451
 20
-7.0783024752
 10
-11.4072146287
 20
-7.0213177565
 10
-11.4254633457
 20
-6.9642707091
 10
-11.4423308702
 20
-6.9071611054
 10
-11.4578222281
 20
-6.8499891729
 10
-11.4718809126
 20
-6.7929634538
 10
-11.4845016915
 20
-6.7360844819
 10
-11.4956897971
 20
-6.6793517233
 10
-11.5054044192
 20
-6.6229721181
 10
-11.5136401767
 20
-6.566946956
 10
-11.5204024507
 20
-6.5112749473
 10
-11.5256665751
 20
-6.4561591628
 10
-11.5294270784
 20
-6.4016016338
 10
-11.531689432
 20
-6.3476003291
 10
-11.5324453837
 20
-6.2943522254
 10
-11.531689432
 20
-6.2418600733
 10
-11.5294270784
 20
-6.1901211222
 10
-11.5256665751
 20
-6.1393240966
 10
-11.5204024507
 20
-6.0894724365
 10
-11.5136401767
 20
-6.0405627018
 10
-11.5054044192
 20
-5.9927732971
 10
-11.4956897971
 20
-5.9461083141
 10
-11.4845016915
 20
-5.9005636611
 10
-11.4718809126
 20
-5.8563054681
 10
-11.4578222281
 20
-5.8133384335
 10
-11.4524715371
 20
-5.7989420276
  0
LWPOLYLINE
  5
2AA
100
AcDbEntity
  8
RACCORDO
100
AcDbPolyline
 62
253
  6
CONTINUOUS
 90
31
 70
0
 10
1.2205414835
 20
-23.9571653508
 10
1.2156574664
 20
-23.9495442537
 10
1.210306863
 20
-23.941701198
 10
1.2045042846
 20
-23.9336576014
 10
1.198265577
 20
-23.9254354294
 10
1.1916077766
 20
-23.9170571349
 10
1.1845490647
 20
-23.9085455973
 10
1.1771087169
 20
-23.8999240599
 10
1.1693070515
 20
-23.8912160663
 10
1.161165373
 20
-23.8824453961
 10
1.1527059147
 20
-23.8736360003
 10
1.1439517777
 20
-23.8648119354
 10
1.1349268675
 20
-23.8559972981
 10
1.1256558295
 20
-23.8472161595
 10
1.1161639808
 20
-23.8384924988
 10
1.1064772416
 20
-23.8298501386
 10
1.0966220645
 20
-23.8213126794
 10
1.0866253619
 20
-23.8129034352
 10
1.0765144326
 20
-23.8046453699
 10
1.0663168875
 20
-23.7965610344
 10
1.056060574
 20
-23.7886725056
 10
1.0457734999
 20
-23.7810013252
 10
1.0354837571
 20
-23.7735684417
 10
1.0252194446
 20
-23.7663941526
 10
1.0150085922
 20
-23.7594980496
 10
1.0048790836
 20
-23.7528989644
 10
0.9948585803
 20
-23.7466149176
 10
0.9849744463
 20
-23.7406630699
 10
0.9752536729
 20
-23.7350596743
 10
0.9657228058
 20
-23.7298200326
 10
0.9564078715
 20
-23.7249584532
  0
LWPOLYLINE
  5
2AB
100
AcDbEntity
  8
RACCORDO
100
AcDbPolyline
 62
7
  6
CONTINUOUS
 90
34
 70
0
 10
-10.5424958901
 20
25.1672938084
 10
-10.5426959461
 20
25.177695617
 10
-10.5432961835
 20
25.1882739851
 10
-10.5442951415
 20
25.1990050031
 10
-10.5456903771
 20
25.2098644563
 10
-10.5474787253
 20
25.2208277487
 10
-10.5496563067
 20
25.2318699597
 10
-10.5522181312
 20
25.2429661066
 10
-10.5551583055
 20
25.2540911
 10
-10.5584703004
 20
25.2652196704
 10
-10.5621465776
 20
25.2763266283
 10
-10.5661787378
 20
25.2873868494
 10
-10.5705577351
 20
25.2983752307
 10
-10.5752736357
 20
25.3092668883
 10
-10.5803157057
 20
25.3200371754
 10
-10.5856725663
 20
25.3306616667
 10
-10.5913320906
 20
25.3411162912
 10
-10.5972814285
 20
25.3513773813
 10
-10.6035071003
 20
25.3614216877
 10
-10.6099950328
 20
25.3712264426
 10
-10.6167305216
 20
25.3807694397
 10
-10.6236982609
 20
25.3900290799
 10
-10.6308825179
 20
25.3989843624
 10
-10.6382670336
 20
25.4076149943
 10
-10.6458349879
 20
25.4159014671
 10
-10.6535693094
 20
25.4238249744
 10
-10.6614525153
 20
25.4313675504
 10
-10.6694666148
 20
25.4385121742
 10
-10.6775935452
 20
25.445242617
 10
-10.6858149562
 20
25.4515436055
 10
-10.694112053
 20
25.4574009528
 10
-10.7024660463
 20
25.4628013896
 10
-10.7108581955
 20
25.4677325942
 10
-10.7192695937
 20
25.4721833472
  0
LWPOLYLINE
  5
2AC
100
AcDbEntity
  8
RACCORDO
100
AcDbPolyline
 62
253
  6
CONTINUOUS
 90
31
 70
0
 10
-10.0142287183
 20
25.4307326284
 10
-10.0144189664
 20
25.4422132907
 10
-10.0150962309
 20
25.4539034456
 10
-10.0162586578
 20
25.4657710396
 10
-10.0179030644
 20
25.4777835437
 10
-10.020024944
 20
25.4899080086
 10
-10.0226184729
 20
25.5021111538
 10
-10.0256765364
 20
25.5143595095
 10
-10.0291907495
 20
25.5266194977
 10
-10.0331514712
 20
25.5388574896
 10
-10.0375478379
 20
25.551039926
 10
-10.042367793
 20
25.5631334051
 10
-10.0475981162
 20
25.5751047624
 10
-10.0532244699
 20
25.5869211869
 10
-10.0592314185
 20
25.5985502648
 10
-10.0656024634
 20
25.609960067
 10
-10.0723201001
 20
25.6211192664
 10
-10.0793659296
 20
25.6319973183
 10
-10.0867206921
 20
25.6425644917
 10
-10.0943643245
 20
25.6527919396
 10
-10.1022757776
 20
25.6626514774
 10
-10.1104331118
 20
25.6721157892
 10
-10.118813778
 20
25.6811587885
 10
-10.1273949377
 20
25.6897559054
 10
-10.1361532974
 20
25.6978838288
 10
-10.1450668075
 20
25.705521888
 10
-10.1541091279
 20
25.7126473069
 10
-10.1632496967
 20
25.7192365787
 10
-10.1724613695
 20
25.7252714655
 10
-10.1817207333
 20
25.7307379461
 10
-10.191002422
 20
25.7356221672
  0
LINE
  5
2AD
100
AcDbEntity
  8
RACCORDO
100
AcDbLine
 62
7
  6
CONTINUOUS
 10
-10.5424958901
 20
23.5651431474
 11
-10.5424958901
 21
25.1672938084
  0
LINE
  5
2AE
100
AcDbEntity
  8
RACCORDO
100
AcDbLine
 62
253
  6
CONTINUOUS
 10
-10.0142287183
 20
25.4307326284
 11
-10.0142287183
 21
25.0832011117
  0
LINE
  5
2AF
100
AcDbEntity
  8
RACCORDO
100
AcDbLine
 62
7
  6
CONTINUOUS
 10
-9.9420308613
 20
25.5186052606
 11
-9.9420308613
 21
25.1710737438
  0
LWPOLYLINE
  5
2B0
100
AcDbEntity
  8
RACCORDO
100
AcDbPolyline
 62
7
  6
CONTINUOUS
 90
14
 70
0
 10
3.3654500185
 20
18.3302068629
 10
3.3739353862
 20
18.3411376332
 10
3.3818187048
 20
18.3525453416
 10
3.3890708461
 20
18.3643960065
 10
3.3956680218
 20
18.376660243
 10
3.4015814715
 20
18.3892944611
 10
3.4067815819
 20
18.4022403678
 10
3.4112505403
 20
18.4154533029
 10
3.4149760815
 20
18.4288966905
 10
3.4179453349
 20
18.4425235911
 10
3.4201502071
 20
18.4562959432
 10
3.4215836204
 20
18.4701704311
 10
3.4222408165
 20
18.4840937558
 10
3.4222873031
 20
18.4889163184
  0
LINE
  5
2B1
100
AcDbEntity
  8
RACCORDO
100
AcDbLine
 62
253
  6
CONTINUOUS
 10
2.8218222744
 20
17.7580898737
 11
3.3500894461
 21
18.4010420295
  0
LINE
  5
2B2
100
AcDbEntity
  8
RACCORDO
100
AcDbLine
 62
7
  6
CONTINUOUS
 10
2.8218222744
 20
17.6685594074
 11
3.3654500185
 21
18.3302068629
  0
LWPOLYLINE
  5
2B3
100
AcDbEntity
  8
RACCORDO
100
AcDbPolyline
 62
7
  6
CONTINUOUS
 90
31
 70
0
 10
1.9317620916
 20
17.1939352657
 10
1.9238686293
 20
17.1847496023
 10
1.915621249
 20
17.1757318106
 10
1.907031582
 20
17.1668910659
 10
1.8981132788
 20
17.1582261014
 10
1.8888789783
 20
17.14975596
 10
1.8793399985
 20
17.141520199
 10
1.8695119174
 20
17.1335269764
 10
1.8594108121
 20
17.1257849889
 10
1.8490497063
 20
17.1183346952
 10
1.8384469575
 20
17.1111837259
 10
1.8276213656
 20
17.1043400624
 10
1.8165876281
 20
17.0978448208
 10
1.8053668798
 20
17.0917049214
 10
1.7939807495
 20
17.085927501
 10
1.7824458038
 20
17.0805541612
 10
1.7707859731
 20
17.0755909393
 10
1.7590258312
 20
17.0710439201
 10
1.74718422
 20
17.0669549218
 10
1.7352878858
 20
17.0633289241
 10
1.723364445
 20
17.0601706419
 10
1.7114355682
 20
17.0575215523
 10
1.699530807
 20
17.0553853873
 10
1.6876808291
 20
17.0537650379
 10
1.6759106808
 20
17.052700587
 10
1.6642526819
 20
17.052194286
 10
1.6527403081
 20
17.0522466204
 10
1.641402109
 20
17.0528946121
 10
1.6302613165
 20
17.0541420945
 10
1.6193660821
 20
17.0559837416
 10
1.6179475175
 20
17.0562727912
  0
LINE
  5
2B4
100
AcDbEntity
  8
0
100
AcDbLine
 62
253
  6
CONTINUOUS
 10
10.8301243102
 20
16.4995641838
 11
3.8824824462
 21
12.9649320199
  0
LINE
  5
2B5
100
AcDbEntity
  8
RACCORDO
100
AcDbLine
 62
253
  6
CONTINUOUS
 10
17.7776565823
 20
19.2295405869
 11
10.8301243102
 21
15.7835133621
  0
LINE
  5
2B6
100
AcDbEntity
  8
RACCORDO
100
AcDbLine
 62
7
  6
CONTINUOUS
 10
-11.9542628815
 20
4.964650957
 11
-11.9539226777
 21
4.9648165051
  0
LWPOLYLINE
  5
2B7
100
AcDbEntity
  8
RACCORDO
100
AcDbPolyline
 62
7
  6
CONTINUOUS
 90
21
 70
0
 10
-11.9542628703
 20
4.9646509624
 10
-11.9253069012
 20
4.9776225743
 10
-11.8964445404
 20
4.9884236177
 10
-11.8670115036
 20
4.9974307489
 10
-11.8369823861
 20
5.0046962138
 10
-11.8062531197
 20
5.0102722856
 10
-11.7748173762
 20
5.0141696958
 10
-11.7427344878
 20
5.0163923947
 10
-11.710007287
 20
5.0169501279
 10
-11.6766652429
 20
5.0158475939
 10
-11.6427798811
 20
5.0130956069
 10
-11.6084268794
 20
5.0087111174
 10
-11.5736613612
 20
5.0027137355
 10
-11.5385593926
 20
4.9951325854
 10
-11.5032288562
 20
4.9860103333
 10
-11.4677340507
 20
4.9753864379
 10
-11.4321448343
 20
4.9633073284
 10
-11.3965701576
 20
4.9498386724
 10
-11.3610863676
 20
4.9350425252
 10
-11.3257445024
 20
4.9189761841
 10
-11.3001348584
 20
4.9065145397
  0
LWPOLYLINE
  5
2B8
100
AcDbEntity
  8
RACCORDO
100
AcDbPolyline
 62
7
  6
CONTINUOUS
 90
76
 70
0
 10
-11.3362872142
 20
-5.8499030775
 10
-11.3083810927
 20
-5.8642516647
 10
-11.2697189774
 20
-5.8854287548
 10
-11.2307614403
 20
-5.9082842543
 10
-11.1915684256
 20
-5.9328112103
 10
-11.1522031287
 20
-5.9589952271
 10
-11.1127321872
 20
-5.9868156511
 10
-11.073212795
 20
-6.0162552685
 10
-11.0337039538
 20
-6.0472911922
 10
-10.9942711435
 20
-6.0798921391
 10
-10.9549728082
 20
-6.114029635
 10
-10.9158653587
 20
-6.1496723971
 10
-10.8770076163
 20
-6.186783646
 10
-10.8384554136
 20
-6.225327067
 10
-10.8002630934
 20
-6.265263601
 10
-10.7624842967
 20
-6.3065516131
 10
-10.7251699579
 20
-6.3491506048
 10
-10.6883745081
 20
-6.39301208
 10
-10.6521540743
 20
-6.4380811503
 10
-10.6165569268
 20
-6.4843101354
 10
-10.5816336393
 20
-6.5316444054
 10
-10.5474406421
 20
-6.5800163067
 10
-10.5140240876
 20
-6.6293692117
 10
-10.4814282777
 20
-6.6796451265
 10
-10.4497033747
 20
-6.7307717975
 10
-10.4188914897
 20
-6.7826862525
 10
-10.3890313333
 20
-6.8353270109
 10
-10.3601645776
 20
-6.8886219794
 10
-10.3323277996
 20
-6.9425050038
 10
-10.3055549946
 20
-6.9969105439
 10
-10.2798807566
 20
-7.0517657608
 10
-10.2553357811
 20
-7.1070025664
 10
-10.2319490064
 20
-7.1625521758
 10
-10.2097490776
 20
-7.2183392016
 10
-10.1887605179
 20
-7.2742943435
 10
-10.1690065359
 20
-7.3303466874
 10
-10.1505100151
 20
-7.3864170251
 10
-10.1332882229
 20
-7.4424376252
 10
-10.1173585555
 20
-7.4983345815
 10
-10.1027390707
 20
-7.5540182801
 10
-10.0894398697
 20
-7.6094196276
 10
-10.0774698982
 20
-7.6644670953
 10
-10.0668389196
 20
-7.7190669087
 10
-10.0575486184
 20
-7.7731510281
 10
-10.0495990343
 20
-7.8266510114
 10
-10.0429897727
 20
-7.8794728937
 10
-10.0377134353
 20
-7.9315501869
 10
-10.0337604628
 20
-7.9828205572
 10
-10.0311189937
 20
-8.0331975685
 10
-10.0297725662
 20
-8.0825880662
 10
-10.029700274
 20
-8.1309684494
 10
-10.0308827141
 20
-8.1783534869
 10
-10.0332993609
 20
-8.2246622414
 10
-10.0369296669
 20
-8.2698614069
 10
-10.0417650748
 20
-8.3140231745
 10
-10.0477887938
 20
-8.3570867051
 10
-10.0549814284
 20
-8.3989886341
 10
-10.0633435311
 20
-8.4397758666
 10
-10.0728573059
 20
-8.4793813086
 10
-10.083501861
 20
-8.5177370185
 10
-10.0952813824
 20
-8.5548652335
 10
-10.1081707049
 20
-8.5906858661
 10
-10.1221471995
 20
-8.6251372113
 10
-10.1372245895
 20
-8.6582438814
 10
-10.1533724651
 20
-8.6899231512
 10
-10.1705661659
 20
-8.720113435
 10
-10.1888358866
 20
-8.7488452249
 10
-10.2081453304
 20
-8.776031459
 10
-10.2284805081
 20
-8.8016251251
 10
-10.2499259374
 20
-8.8256892705
 10
-10.2724491516
 20
-8.8481298807
 10
-10.2960780179
 20
-8.8689201864
 10
-10.3210425991
 20
-8.8881720825
 10
-10.3474720828
 20
-8.9058460751
 10
-10.3753596917
 20
-8.9218011692
 10
-10.3796022151
 20
-8.9240045774
  0
LWPOLYLINE
  5
2B9
100
AcDbEntity
  8
RACCORDO
100
AcDbPolyline
 62
253
  6
CONTINUOUS
 90
97
 70
0
 10
-11.4142521475
 20
-5.689786919
 10
-11.3671432634
 20
-5.7142465755
 10
-11.3200380234
 20
-5.7405832741
 10
-11.2729363976
 20
-5.7687969997
 10
-11.2257669496
 20
-5.7989238159
 10
-11.178600995
 20
-5.8309275973
 10
-11.1316526015
 20
-5.8647000297
 10
-11.0849240835
 20
-5.9002548021
 10
-11.0384128839
 20
-5.9375781017
 10
-10.9923257358
 20
-5.976520348
 10
-10.9466681623
 20
-6.017091545
 10
-10.9014342862
 20
-6.0592815079
 10
-10.8568137251
 20
-6.1029103658
 10
-10.81282646
 20
-6.1479678468
 10
-10.7694520652
 20
-6.1944639957
 10
-10.7268195439
 20
-6.2422494139
 10
-10.6849373165
 20
-6.2913173625
 10
-10.6437964422
 20
-6.3416743144
 10
-10.6034998839
 20
-6.3931906895
 10
-10.5640413896
 20
-6.4458778089
 10
-10.5254266254
 20
-6.4997240518
 10
-10.4877764438
 20
-6.554565431
 10
-10.4510887431
 20
-6.6104131151
 10
-10.4153649986
 20
-6.6672556147
 10
-10.3807314609
 20
-6.7248949721
 10
-10.3471943779
 20
-6.7833304634
 10
-10.3147468676
 20
-6.8425624875
 10
-10.2834955349
 20
-6.9023947962
 10
-10.2534458476
 20
-6.9628254349
 10
-10.2245917185
 20
-7.0238560402
 10
-10.1970224818
 20
-7.0852957831
 10
-10.1707413096
 20
-7.147146411
 10
-10.1457444439
 20
-7.209405875
 10
-10.1221108987
 20
-7.2718776897
 10
-10.0998440304
 20
-7.3345643794
 10
-10.0789399529
 20
-7.3974631467
 10
-10.0594669048
 20
-7.4603695697
 10
-10.0414295348
 20
-7.5232832759
 10
-10.0248227446
 20
-7.5862044054
 10
-10.0097002546
 20
-7.6489293569
 10
-9.9960668438
 20
-7.7114569766
 10
-9.9839173804
 20
-7.7737882352
 10
-9.9732908304
 20
-7.8357227761
 10
-9.9641919893
 20
-7.8972591745
 10
-9.9566158183
 20
-7.9583987282
 10
-9.95058665
 20
-8.0189452248
 10
-9.9461094046
 20
-8.0788970371
 10
-9.9431790375
 20
-8.1382557263
 10
-9.9418050567
 20
-8.196829925
 10
-9.9419925503
 20
-8.2546171002
 10
-9.9437364301
 20
-8.3116197828
 10
-9.9470310654
 20
-8.3676542656
 10
-9.951881524
 20
-8.4227171942
 10
-9.9582828624
 20
-8.4768119849
 10
-9.9662145547
 20
-8.5297651495
 10
-9.9756816647
 20
-8.5815731765
 10
-9.9866793717
 20
-8.632239701
 10
-9.9991724424
 20
-8.6816020158
 10
-10.0131660413
 20
-8.7296563137
 10
-10.0286553565
 20
-8.7764065823
 10
-10.0455903022
 20
-8.8217018647
 10
-10.0639760444
 20
-8.865537673
 10
-10.0838078665
 20
-8.9079187259
 10
-10.1050209605
 20
-8.9487079291
 10
-10.1276193336
 20
-8.987899108
 10
-10.1515995082
 20
-9.0254987098
 10
-10.1768855377
 20
-9.0613886187
 10
-10.2034812165
 20
-9.0955635334
 10
-10.2313833363
 20
-9.1280290575
 10
-10.2605055212
 20
-9.1586834708
 10
-10.2908538064
 20
-9.1875229259
 10
-10.3224227762
 20
-9.2145515905
 10
-10.3551089399
 20
-9.2396797995
 10
-10.3889193315
 20
-9.2629017998
 10
-10.423847551
 20
-9.2842236727
 10
-10.4597700068
 20
-9.3035735318
 10
-10.4966856841
 20
-9.3209419729
 10
-10.5345962242
 20
-9.3363387249
 10
-10.5733820518
 20
-9.3497206168
 10
-10.6130375146
 20
-9.361082101
 10
-10.653568851
 20
-9.3704290292
 10
-10.694874334
 20
-9.3777353366
 10
-10.7369622813
 20
-9.3829991401
 10
-10.7798248956
 20
-9.386222593
 10
-10.8233362794
 20
-9.3873856851
 10
-10.8675167785
 20
-9.3864787784
 10
-10.9123464916
 20
-9.3835117419
 10
-10.9576391451
 20
-9.378493824
 10
-11.0034013704
 20
-9.3714093511
 10
-11.0496268903
 20
-9.362274181
 10
-11.0961100527
 20
-9.3511448513
 10
-11.1428545683
 20
-9.338004797
 10
-11.1898569692
 20
-9.3228707094
 10
-11.236900809
 20
-9.3058489976
 10
-11.2839139789
 20
-9.286975152
 10
-11.3309687084
 20
-9.2662137451
 10
-11.3780650276
 20
-9.2435647924
  0
LWPOLYLINE
  5
2BA
100
AcDbEntity
  8
RACCORDO
100
AcDbPolyline
 62
7
  6
CONTINUOUS
 90
27
 70
0
 10
-8.3180894793
 20
23.0513243297
 10
-8.3178134823
 20
23.0405604466
 10
-8.3170222982
 20
23.0287005966
 10
-8.3157105278
 20
23.01648778
 10
-8.31385777
 20
23.0039819749
 10
-8.3115349403
 20
22.9912050272
 10
-8.3087404041
 20
22.9782000709
 10
-8.305462706
 20
22.9650130923
 10
-8.3017549563
 20
22.9516555797
 10
-8.2976169412
 20
22.9381600161
 10
-8.2930427374
 20
22.9245625652
 10
-8.2880732452
 20
22.9108713773
 10
-8.2827087772
 20
22.8971122062
 10
-8.2769467326
 20
22.8833142019
 10
-8.2708201784
 20
22.8694854218
 10
-8.2643296334
 20
22.8556471018
 10
-8.2574745877
 20
22.8418235678
 10
-8.2502835761
 20
22.8280246077
 10
-8.2427572778
 20
22.8142683215
 10
-8.2348966384
 20
22.8005756942
 10
-8.226728199
 20
22.7869593295
 10
-8.2182526707
 20
22.773434672
 10
-8.2094723996
 20
22.7600206926
 10
-8.2004147147
 20
22.7467345416
 10
-8.1910898729
 20
22.7335922996
 10
-8.1814922756
 20
22.7206086495
 10
-8.1716252763
 20
22.7077979019
  0
LINE
  5
2BB
100
AcDbEntity
  8
RACCORDO
100
AcDbLine
 62
7
  6
CONTINUOUS
 10
-8.3180718857
 20
23.0508677329
 11
-8.3180718857
 21
21.8106787002
  0
LINE
  5
2BC
100
AcDbEntity
  8
RACCORDO
100
AcDbLine
 62
253
  6
CONTINUOUS
 10
-8.1716252763
 20
22.7077979019
 11
-8.1716252763
 21
21.6272145911
  0
LWPOLYLINE
  5
2BD
100
AcDbEntity
  8
RACCORDO
100
AcDbPolyline
 62
253
  6
CONTINUOUS
 90
30
 70
0
 10
18.4846556677
 20
18.0101475403
 10
18.5033169865
 20
18.0200769818
 10
18.5214302533
 20
18.0302569846
 10
18.5389820167
 20
18.0406799889
 10
18.555959243
 20
18.051338255
 10
18.5723493233
 20
18.0622238674
 10
18.5881400835
 20
18.0733287406
 10
18.6033197963
 20
18.0846446274
 10
18.6178771897
 20
18.0961631248
 10
18.631801453
 20
18.1078756789
 10
18.645082246
 20
18.1197735919
 10
18.657709706
 20
18.1318480279
 10
18.6696744553
 20
18.14409002
 10
18.6809676087
 20
18.1564904769
 10
18.6915807798
 20
18.1690401898
 10
18.7015060871
 20
18.1817298389
 10
18.7107361598
 20
18.1945500007
 10
18.7192641436
 20
18.2074911544
 10
18.7270837056
 20
18.2205436896
 10
18.7341890388
 20
18.233697913
 10
18.7405748668
 20
18.2469440562
 10
18.7462364475
 20
18.260272282
 10
18.7511695767
 20
18.2736726924
 10
18.755370591
 20
18.2871353362
 10
18.7588363709
 20
18.3006502154
 10
18.7615643429
 20
18.3142072934
 10
18.7635524813
 20
18.3277965026
 10
18.7647993101
 20
18.3414077511
 10
18.7653039035
 20
18.3550309309
 10
18.7653158674
 20
18.3574767276
  0
LWPOLYLINE
  5
2BE
100
AcDbEntity
  8
RACCORDO
100
AcDbPolyline
 62
253
  6
CONTINUOUS
 90
23
 70
0
 10
-10.4072640174
 20
1.8004955817
 10
-10.4118536501
 20
1.7981625841
 10
-10.4440723962
 20
1.7829964149
 10
-10.4770788644
 20
1.7695437469
 10
-10.5108409217
 20
1.7578161365
 10
-10.5453156686
 20
1.747826723
 10
-10.5804723499
 20
1.7395826814
 10
-10.6162975481
 20
1.7330878626
 10
-10.6527599509
 20
1.7283509772
 10
-10.6898158634
 20
1.7253806873
 10
-10.727433821
 20
1.7241824851
 10
-10.7655894342
 20
1.7247616634
 10
-10.8042283864
 20
1.7271218335
 10
-10.8432722768
 20
1.7312589839
 10
-10.8826815457
 20
1.7371674809
 10
-10.9224108717
 20
1.7448390443
 10
-10.9623702501
 20
1.7542515269
 10
-11.0025155131
 20
1.7653870374
 10
-11.0428028868
 20
1.7782259441
 10
-11.0831412903
 20
1.7927286686
 10
-11.1234709722
 20
1.8088595975
 10
-11.1637643114
 20
1.8265938261
 10
-11.2039785672
 20
1.8458996246
  0
LINE
  5
2BF
100
AcDbEntity
  8
RACCORDO
100
AcDbLine
 62
253
  6
CONTINUOUS
 10
18.4846556677
 20
18.0101475403
 11
11.1714437719
 21
14.3827405263
  0
LWPOLYLINE
  5
2C0
100
AcDbEntity
  8
RACCORDO
100
AcDbPolyline
 62
253
  6
CONTINUOUS
 90
82
 70
0
 10
-3.7148543824
 20
-23.473679061
 10
-3.7143332111
 20
-23.487020219
 10
-3.7136943957
 20
-23.5002968532
 10
-3.7129379976
 20
-23.5135075021
 10
-3.7120640835
 20
-23.5266508049
 10
-3.7110727465
 20
-23.5397252199
 10
-3.7099641148
 20
-23.5527290302
 10
-3.7087383087
 20
-23.5656607999
 10
-3.7073954607
 20
-23.5785191183
 10
-3.7059357506
 20
-23.5913023267
 10
-3.7043593414
 20
-23.6040090342
 10
-3.7026664119
 20
-23.6166378434
 10
-3.7008571978
 20
-23.6291871086
 10
-3.6989319266
 20
-23.6416553495
 10
-3.6968908049
 20
-23.654041323
 10
-3.6947340615
 20
-23.6663437564
 10
-3.6924619705
 20
-23.6785611556
 10
-3.6900747634
 20
-23.6906923452
 10
-3.6875726057
 20
-23.7027365324
 10
-3.6849557463
 20
-23.7146924757
 10
-3.682224482
 20
-23.7265587786
 10
-3.6793790462
 20
-23.7383344114
 10
-3.6764196938
 20
-23.7500182327
 10
-3.6733467725
 20
-23.7616087903
 10
-3.6701606703
 20
-23.7731046029
 10
-3.6668617123
 20
-23.7845044524
 10
-3.6634502637
 20
-23.7958070359
 10
-3.659926807
 20
-23.8070107738
 10
-3.6562917637
 20
-23.8181143338
 10
-3.6525454984
 20
-23.8291166125
 10
-3.6486884364
 20
-23.8400163987
 10
-3.644721012
 20
-23.8508124677
 10
-3.6406436478
 20
-23.8615036753
 10
-3.6364567655
 20
-23.8720889451
 10
-3.6321608144
 20
-23.8825671306
 10
-3.6277562664
 20
-23.8929370726
 10
-3.6232435897
 20
-23.903197688
 10
-3.6186232526
 20
-23.9133478943
 10
-3.6138957742
 20
-23.9233865357
 10
-3.6090617162
 20
-23.9333124376
 10
-3.6041216109
 20
-23.9431245003
 10
-3.5990759884
 20
-23.9528216652
 10
-3.5939254274
 20
-23.9624028414
 10
-3.5886705023
 20
-23.9718669571
 10
-3.583311771
 20
-23.981213004
 10
-3.5778498046
 20
-23.9904400051
 10
-3.572285205
 20
-23.9995469345
 10
-3.566618566
 20
-24.0085328122
 10
-3.5608504579
 20
-24.0173967438
 10
-3.5549814899
 20
-24.0261377738
 10
-3.5490123075
 20
-24.0347549228
 10
-3.5429435464
 20
-24.043247275
 10
-3.5367758277
 20
-24.0516139381
 10
-3.5305098469
 20
-24.0598539468
 10
-3.5241463688
 20
-24.0679662985
 10
-3.517686067
 20
-24.0759501217
 10
-3.511129655
 20
-24.0838045229
 10
-3.504477981
 20
-24.0915284983
 10
-3.4977317779
 20
-24.0991211986
 10
-3.4908917724
 20
-24.1065818082
 10
-3.4839588275
 20
-24.1139094076
 10
-3.4769337591
 20
-24.1211031483
 10
-3.4698172798
 20
-24.1281623143
 10
-3.4626101134
 20
-24.1350862084
 10
-3.4553130799
 20
-24.1418740476
 10
-3.4479269401
 20
-24.1485251299
 10
-3.4404523327
 20
-24.1550388868
 10
-3.4328900036
 20
-24.1614146529
 10
-3.4252408297
 20
-24.1676516744
 10
-3.4175056538
 20
-24.1737492606
 10
-3.4096852444
 20
-24.1797067906
 10
-3.4017805116
 20
-24.1855235563
 10
-3.3937925304
 20
-24.191198769
 10
-3.3857222191
 20
-24.1967317809
 10
-3.377570407
 20
-24.2021220283
 10
-3.3693380567
 20
-24.2073688845
 10
-3.3610261417
 20
-24.212471738
 10
-3.3526354914
 20
-24.2174300892
 10
-3.3441668614
 20
-24.222243495
 10
-3.3356211415
 20
-24.2269114428
 10
-3.3269992834
 20
-24.2314334066
 10
-3.3214689896
 20
-24.2342370064
  0
LWPOLYLINE
  5
2C1
100
AcDbEntity
  8
RACCORDO
100
AcDbPolyline
 62
253
  6
CONTINUOUS
 90
27
 70
0
 10
1.2205414835
 20
17.3424387885
 10
1.2156629837
 20
17.3304828869
 10
1.2103173422
 20
17.3187986128
 10
1.204518752
 20
17.3074180644
 10
1.1982820669
 20
17.2963715509
 10
1.1916244727
 20
17.2856905891
 10
1.1845658236
 20
17.2754074638
 10
1.1771261678
 20
17.2655512327
 10
1.1693251317
 20
17.2561477566
 10
1.1611838124
 20
17.2472224989
 10
1.152724277
 20
17.2387997362
 10
1.1439697401
 20
17.2309026636
 10
1.1349443199
 20
17.2235530663
 10
1.1256727535
 20
17.2167710781
 10
1.1161802843
 20
17.2105751537
 10
1.106492816
 20
17.2049822038
 10
1.0966367914
 20
17.2000075017
 10
1.0866391455
 20
17.1956646495
 10
1.0765272096
 20
17.1919655218
 10
1.0663286115
 20
17.1889202247
 10
1.0560711998
 20
17.186537073
 10
1.0457829918
 20
17.1848225759
 10
1.0354920732
 20
17.1837814155
 10
1.0252265683
 20
17.1834164386
 10
1.0150145624
 20
17.1837286391
 10
1.0048839772
 20
17.1847171511
 10
0.9948624515
 20
17.1863792653
  0
LWPOLYLINE
  5
2C2
100
AcDbEntity
  8
RACCORDO
100
AcDbPolyline
 62
253
  6
CONTINUOUS
 90
142
 70
0
 10
-3.0142709086
 20
-23.4590792468
 10
-3.0139214249
 20
-23.467975155
 10
-3.0134931498
 20
-23.4768265404
 10
-3.0129860832
 20
-23.4856334028
 10
-3.0124001477
 20
-23.4943968322
 10
-3.0117354208
 20
-23.5031157387
 10
-3.010992135
 20
-23.5117868531
 10
-3.0101702615
 20
-23.5204100807
 10
-3.0092698291
 20
-23.5289855162
 10
-3.0082911571
 20
-23.5375101744
 10
-3.0072342127
 20
-23.5459840389
 10
-3.0060990288
 20
-23.5544071261
 10
-3.004886023
 20
-23.5627765002
 10
-3.0035951791
 20
-23.5710920656
 10
-3.0022265134
 20
-23.5793539179
 10
-3.0007804924
 20
-23.5875594084
 10
-2.9992571173
 20
-23.5957084209
 10
-2.997656387
 20
-23.6038010715
 10
-2.9959787646
 20
-23.6118350609
 10
-2.9942242233
 20
-23.6198104327
 10
-2.9923927899
 20
-23.6277271432
 10
-2.9904850073
 20
-23.6355827619
 10
-2.9885008246
 20
-23.6433773765
 10
-2.9864402927
 20
-23.6511108994
 10
-2.9843041064
 20
-23.6587806373
 10
-2.9820922249
 20
-23.666386595
 10
-2.979804689
 20
-23.6739287676
 10
-2.9774423167
 20
-23.6814044474
 10
-2.9750051025
 20
-23.6888135356
 10
-2.972493052
 20
-23.6961561308
 10
-2.969907
 20
-23.7034298208
 10
-2.967246932
 20
-23.710634561
 10
-2.9645128625
 20
-23.717770396
 10
-2.9617056704
 20
-23.7248350474
 10
-2.9588253304
 20
-23.7318285019
 10
-2.9558718677
 20
-23.7387507727
 10
-2.9528462364
 20
-23.7455996209
 10
-2.9497483999
 20
-23.7523750504
 10
-2.9465783947
 20
-23.7590770572
 10
-2.943337285
 20
-23.76570339
 10
-2.9400250508
 20
-23.7722540127
 10
-2.936641712
 20
-23.7787289612
 10
-2.9331883921
 20
-23.7851260921
 10
-2.9296650779
 20
-23.7914453632
 10
-2.9260717827
 20
-23.7976868165
 10
-2.9224096694
 20
-23.8038484352
 10
-2.9186787242
 20
-23.8099301845
 10
-2.9148789609
 20
-23.815932099
 10
-2.9110115832
 20
-23.8218522655
 10
-2.9070765629
 20
-23.8276906722
 10
-2.9030739282
 20
-23.8334473308
 10
-2.8990049679
 20
-23.8391203635
 10
-2.8948696383
 20
-23.8447097709
 10
-2.8906679831
 20
-23.8502155525
 10
-2.8864014219
 20
-23.8556358288
 10
-2.8820699202
 20
-23.860970579
 10
-2.8776735125
 20
-23.866219824
 10
-2.8732137218
 20
-23.871381747
 10
-2.8686905293
 20
-23.8764563074
 10
-2.8641039539
 20
-23.8814435458
 10
-2.8594555753
 20
-23.8863417674
 10
-2.8547454112
 20
-23.8911509029
 10
-2.8499734438
 20
-23.8958710216
 10
-2.8451412001
 20
-23.9005006366
 10
-2.840248688
 20
-23.9050397026
 10
-2.8352958996
 20
-23.9094882649
 10
-2.8302843372
 20
-23.9138449722
 10
-2.8252139442
 20
-23.9181098341
 10
-2.8200847773
 20
-23.9222828411
 10
-2.8148985092
 20
-23.9263626134
 10
-2.8096550744
 20
-23.9303491504
 10
-2.8043545385
 20
-23.9342424528
 10
-2.7989987709
 20
-23.9380411426
 10
-2.7935877832
 20
-23.9417451604
 10
-2.7881215638
 20
-23.9453545656
 10
-2.7826019476
 20
-23.9488681596
 10
-2.7770289701
 20
-23.9522858818
 10
-2.7714025958
 20
-23.9556077927
 10
-2.7657245527
 20
-23.9588328748
 10
-2.7599948096
 20
-23.9619611129
 10
-2.7542133977
 20
-23.9649925221
 10
-2.7483821383
 20
-23.9679261304
 10
-2.7425009653
 20
-23.9707619302
 10
-2.7365699449
 20
-23.973499929
 10
-2.7305910972
 20
-23.9761391774
 10
-2.7245643996
 20
-23.9786796392
 10
-2.7184898747
 20
-23.9811213506
 10
-2.7123696112
 20
-23.9834634699
 10
-2.7062036094
 20
-23.9857059537
 10
-2.699991869
 20
-23.9878488453
 10
-2.6937364774
 20
-23.9898914334
 10
-2.6874374402
 20
-23.9918336781
 10
-2.6810947518
 20
-23.9936756194
 10
-2.674710483
 20
-23.9954166658
 10
-2.668284626
 20
-23.9970567848
 10
-2.6618171886
 20
-23.9985960089
 10
-2.6553102645
 20
-24.0000338452
 10
-2.6487638414
 20
-24.0013702627
 10
-2.6421779315
 20
-24.0026052923
 10
-2.6355546655
 20
-24.003738534
 10
-2.6288940233
 20
-24.0047699573
 10
-2.6221960249
 20
-24.0056995926
 10
-2.6154628608
 20
-24.0065271318
 10
-2.6086945089
 20
-24.0072525423
 10
-2.6018909913
 20
-24.0078758566
 10
-2.5950545644
 20
-24.0083968641
 10
-2.5881852199
 20
-24.0088155302
 10
-2.5812829661
 20
-24.0091318894
 10
-2.5743500844
 20
-24.0093458353
 10
-2.5673865651
 20
-24.0094573335
 10
-2.5603924179
 20
-24.0094664183
 10
-2.5533699528
 20
-24.0093730859
 10
-2.5463191591
 20
-24.0091773018
 10
-2.5392400476
 20
-24.0088791004
 10
-2.5321349612
 20
-24.0084785808
 10
-2.5250038907
 20
-24.0079757085
 10
-2.5178468454
 20
-24.007370518
 10
-2.5106661954
 20
-24.0066632115
 10
-2.5034619367
 20
-24.0058537555
 10
-2.4962340732
 20
-24.0049421836
 10
-2.4889849867
 20
-24.0039287989
 10
-2.4817146874
 20
-24.0028135718
 10
-2.4744231651
 20
-24.0015965318
 10
-2.4671127708
 20
-24.0002780714
 10
-2.4597834856
 20
-23.9988581565
 10
-2.4524353283
 20
-23.9973368211
 10
-2.4450707071
 20
-23.9957145597
 10
-2.4376896062
 20
-23.9939913358
 10
-2.4302920412
 20
-23.9921671858
 10
-2.4228804671
 20
-23.990242713
 10
-2.4154548766
 20
-23.9882178844
 10
-2.4080152768
 20
-23.9860927329
 10
-2.4005641442
 20
-23.9838679607
 10
-2.3931014723
 20
-23.9815435251
 10
-2.3856272675
 20
-23.9791194687
 10
-2.3781440251
 20
-23.9765966213
 10
-2.3706517075
 20
-23.9739749511
 10
-2.3631503522
 20
-23.9712544899
 10
-2.3556425679
 20
-23.9684361632
 10
-2.3481292241
 20
-23.9655202793
 10
-2.3406094512
 20
-23.9625065299
 10
-2.0933214082
 20
-23.8593117863
  0
LINE
  5
2C3
100
AcDbEntity
  8
DRAFT
100
AcDbLine
 62
253
  6
CONTINUOUS
 10
-2.8703873142
 20
23.4362224421
 11
-2.8703873142
 21
22.9280819632
  0
LINE
  5
2C4
100
AcDbEntity
  8
RACCORDO
100
AcDbLine
 62
253
  6
CONTINUOUS
 10
-2.6603181766
 20
18.8715610413
 11
-2.6603181766
 21
19.9521443521
  0
LINE
  5
2C5
100
AcDbEntity
  8
DRAFT
100
AcDbLine
 62
7
  6
CONTINUOUS
 10
-2.163280533
 20
23.7897758327
 11
-2.163280533
 21
24.342334022
  0
LWPOLYLINE
  5
2C6
100
AcDbEntity
  8
RACCORDO
100
AcDbPolyline
 62
253
  6
CONTINUOUS
 90
67
 70
0
 10
-3.7148543824
 20
12.1415608066
 10
-3.7330163398
 20
11.5934472281
 10
-3.7506196252
 20
11.0455804183
 10
-3.7676642238
 20
10.4979612235
 10
-3.7841500653
 20
9.9505923833
 10
-3.800077196
 20
9.4034728476
 10
-3.8154457588
 20
8.8565977856
 10
-3.8302557899
 20
8.3099656127
 10
-3.8445071915
 20
7.7635796202
 10
-3.8581998948
 20
7.2174422958
 10
-3.8713338669
 20
6.6715549807
 10
-3.8839091
 20
6.1259180309
 10
-3.8959255699
 20
5.5805324538
 10
-3.9073832572
 20
5.0353991552
 10
-3.9182821457
 20
4.4905189241
 10
-3.9286222183
 20
3.9458925924
 10
-3.9384034591
 20
3.4015210022
 10
-3.9476258534
 20
2.8574050039
 10
-3.9562893862
 20
2.3135454404
 10
-3.9643940443
 20
1.7699431559
 10
-3.9719398154
 20
1.2265989963
 10
-3.9789266873
 20
0.6835138069
 10
-3.9853546493
 20
0.1406884325
 10
-3.9912236917
 20
-0.4018762841
 10
-3.9965338051
 20
-0.9441795012
 10
-4.0012849813
 20
-1.4862203768
 10
-4.0054772131
 20
-2.0279980679
 10
-4.0091104937
 20
-2.5695117319
 10
-4.0121848176
 20
-3.1107605238
 10
-4.0147001802
 20
-3.6517436061
 10
-4.0166565774
 20
-4.1924601479
 10
-4.0180540062
 20
-4.7329093157
 10
-4.0188924644
 20
-5.273090263
 10
-4.0191719508
 20
-5.8130021402
 10
-4.0188924647
 20
-6.3526441049
 10
-4.0180540068
 20
-6.892015322
 10
-4.0166565784
 20
-7.4311149532
 10
-4.0147001815
 20
-7.9699421595
 10
-4.0121848193
 20
-8.5084961049
 10
-4.0091104957
 20
-9.0467759574
 10
-4.0054772153
 20
-9.5847808819
 10
-4.0012849839
 20
-10.122510041
 10
-3.996533808
 20
-10.6599625992
 10
-3.9912236949
 20
-11.1971377222
 10
-3.9853546528
 20
-11.7340345746
 10
-3.9789266911
 20
-12.2706523202
 10
-3.9719398197
 20
-12.8069901201
 10
-3.9643940491
 20
-13.3430471462
 10
-3.9562893913
 20
-13.8788225797
 10
-3.9476258584
 20
-14.4143156018
 10
-3.9384034638
 20
-14.949525367
 10
-3.9286222228
 20
-15.4844510164
 10
-3.9182821505
 20
-16.0190917044
 10
-3.9073832626
 20
-16.5534466151
 10
-3.8959255763
 20
-17.0875149354
 10
-3.8839091092
 20
-17.6212958288
 10
-3.8713338795
 20
-18.1547884729
 10
-3.8581999064
 20
-18.6879920762
 10
-3.8445072093
 20
-19.2209058313
 10
-3.8302558095
 20
-19.7535288892
 10
-3.8154457304
 20
-20.2858603971
 10
-3.8000769932
 20
-20.8178995753
 10
-3.7841496227
 20
-21.3496455498
 10
-3.7676636495
 20
-21.8810973275
 10
-3.7506191017
 20
-22.4122540272
 10
-3.7330160036
 20
-22.9431148798
 10
-3.7148543824
 20
-23.473679061
  0
LWPOLYLINE
  5
2C7
100
AcDbEntity
  8
RACCORDO
100
AcDbPolyline
 62
253
  6
CONTINUOUS
 90
67
 70
0
 10
-3.0142709086
 20
12.120545381
 10
-3.0324150378
 20
11.5729787012
 10
-3.0500010158
 20
11.0256602185
 10
-3.0670288426
 20
10.4785899328
 10
-3.0834984847
 20
9.9317688839
 10
-3.0994099756
 20
9.385196032
 10
-3.1147634156
 20
8.8388682575
 10
-3.1295588774
 20
8.2927831258
 10
-3.1437962884
 20
7.7469430715
 10
-3.1574755307
 20
7.2013522794
 10
-3.1705965858
 20
6.6560112439
 10
-3.1831594722
 20
6.1109194705
 10
-3.1951641271
 20
5.5660796603
 10
-3.2066105462
 20
5.0214918724
 10
-3.2174987338
 20
4.4771560475
 10
-3.2278286395
 20
3.9330747087
 10
-3.2376002608
 20
3.3892478528
 10
-3.2468136001
 20
2.8456754828
 10
-3.2554686147
 20
2.3023601307
 10
-3.2635653019
 20
1.7593017964
 10
-3.2711036643
 20
1.2165004798
 10
-3.2780836667
 20
0.6739587126
 10
-3.2845053066
 20
0.1316764967
 10
-3.2903685866
 20
-0.4103461698
 10
-3.2956734793
 20
-0.9521067615
 10
-3.3004199823
 20
-1.4936052779
 10
-3.304608098
 20
-2.0348417194
 10
-3.3082378069
 20
-2.5758135623
 10
-3.3113091065
 20
-3.1165208019
 10
-3.3138219994
 20
-3.6569634428
 10
-3.3157764738
 20
-4.1971389755
 10
-3.3171725273
 20
-4.7370474053
 10
-3.3180101623
 20
-5.2766887268
 10
-3.3182893749
 20
-5.8160604143
 10
-3.3180101626
 20
-6.355162463
 10
-3.3171725279
 20
-6.8939948776
 10
-3.3157764747
 20
-7.4325551462
 10
-3.3138220006
 20
-7.9708432659
 10
-3.311309108
 20
-8.5088592396
 10
-3.3082378086
 20
-9.0466005639
 10
-3.3046080999
 20
-9.584067239
 10
-3.3004199845
 20
-10.1212592647
 10
-3.2956734819
 20
-10.6581741369
 10
-3.2903685894
 20
-11.194811855
 10
-3.2845053097
 20
-11.7311724197
 10
-3.2780836701
 20
-12.267253329
 10
-3.2711036681
 20
-12.8030545761
 10
-3.2635653062
 20
-13.3385761678
 10
-3.2554686193
 20
-13.873815622
 10
-3.2468136045
 20
-14.408772951
 10
-3.2376002647
 20
-14.9434481425
 10
-3.2278286433
 20
-15.4778386772
 10
-3.2174987379
 20
-16.0119445392
 10
-3.2066105509
 20
-16.5457657445
 10
-3.1951641327
 20
-17.0792998222
 10
-3.1831594809
 20
-17.6125467642
 10
-3.170596598
 20
-18.1455065787
 10
-3.1574755413
 20
-18.6781768189
 10
-3.1437963078
 20
-19.2105575044
 10
-3.1295589005
 20
-19.7426486158
 10
-3.1147633861
 20
-20.2744476475
 10
-3.0994097603
 20
-20.8059546501
 10
-3.0834980274
 20
-21.3371695732
 10
-3.0670282678
 20
-21.86808976
 10
-3.0500005081
 20
-22.3987143251
 10
-3.0324147217
 20
-22.929044154
 10
-3.0142709086
 20
-23.4590792468
  0
LWPOLYLINE
  5
2C8
100
AcDbEntity
  8
RACCORDO
100
AcDbPolyline
 62
253
  6
CONTINUOUS
 90
97
 70
0
 10
-11.4142521475
 20
1.4831169772
 10
-11.461348703
 20
1.507582798
 10
-11.508416005
 20
1.5339384657
 10
-11.5554540236
 20
1.5621839949
 10
-11.6025340892
 20
1.5923555022
 10
-11.6495847507
 20
1.6244169302
 10
-11.6963917753
 20
1.6582600471
 10
-11.7429524203
 20
1.693898756
 10
-11.7892691857
 20
1.7313192727
 10
-11.8351356756
 20
1.770371848
 10
-11.8805458525
 20
1.8110667433
 10
-11.9255053999
 20
1.8533938706
 10
-11.9698254882
 20
1.8971729649
 10
-12.0134857105
 20
1.9423939674
 10
-12.0565060291
 20
1.9890671543
 10
-12.0987581646
 20
2.0370427654
 10
-12.1402332248
 20
2.0863142976
 10
-12.1809395817
 20
2.1368885082
 10
-12.2207748532
 20
2.1886355267
 10
-12.2597445949
 20
2.2415670224
 10
-12.2978426655
 20
2.2956716121
 10
-12.3349491505
 20
2.3507848396
 10
-12.3710653799
 20
2.4069182593
 10
-12.4061893974
 20
2.4640606224
 10
-12.4401963903
 20
2.5220132523
 10
-12.4730794447
 20
2.5807757579
 10
-12.5048448405
 20
2.6403488391
 10
-12.5353876062
 20
2.7005354314
 10
-12.5647016454
 20
2.7613338942
 10
-12.592792435
 20
2.8227461693
 10
-12.6195724255
 20
2.8845805352
 10
-12.6450378051
 20
2.9468390594
 10
-12.6691917997
 20
3.0095199589
 10
-12.6919574907
 20
3.0724257008
 10
-12.7133309197
 20
3.1355591101
 10
-12.7333155155
 20
3.1989176183
 10
-12.7518455301
 20
3.262295558
 10
-12.7689158295
 20
3.3256927995
 10
-12.7845310981
 20
3.3891096898
 10
-12.798640418
 20
3.4523412264
 10
-12.811238633
 20
3.5153864439
 10
-12.8223305464
 20
3.5782464775
 10
-12.8318802909
 20
3.6407194212
 10
-12.8398828074
 20
3.702803982
 10
-12.8463429118
 20
3.7645015689
 10
-12.8512396669
 20
3.8256142721
 10
-12.8545680106
 20
3.8861405353
 10
-12.8563328806
 20
3.946081973
 10
-12.8565284625
 20
4.0052453711
 10
-12.8551496681
 20
4.0636281968
 10
-12.8522015854
 20
4.1212329808
 10
-12.8476937892
 20
4.1778740441
 10
-12.8416213543
 20
4.2335479608
 10
-12.83398933
 20
4.2882580944
 10
-12.8248223747
 20
4.3418288906
 10
-12.8141156927
 20
4.3942567036
 10
-12.8018743227
 20
4.4455450595
 10
-12.7881377929
 20
4.4955291039
 10
-12.772901325
 20
4.5442048363
 10
-12.7561700498
 20
4.5915760849
 10
-12.7379984715
 20
4.6374896836
 10
-12.7183819257
 20
4.6819408938
 10
-12.6973255261
 20
4.7249342354
 10
-12.6748985464
 20
4.7663303814
 10
-12.6510976188
 20
4.8061228375
 10
-12.6259266407
 20
4.8443178411
 10
-12.5994658726
 20
4.8807951193
 10
-12.5717122026
 20
4.9155490296
 10
-12.5426693287
 20
4.9485849307
 10
-12.5124278001
 20
4.979799016
 10
-12.4809822379
 20
5.0091871095
 10
-12.4483386406
 20
5.0367530878
 10
-12.414604685
 20
5.0624051928
 10
-12.3797740467
 20
5.0861373164
 10
-12.3438536842
 20
5.1079552608
 10
-12.3069712486
 20
5.1277851098
 10
-12.2691286579
 20
5.1456170077
 10
-12.2303246204
 20
5.1614605083
 10
-12.1906820044
 20
5.1752707945
 10
-12.15020729
 20
5.1870419044
 10
-12.1088945831
 20
5.1967795179
 10
-12.0668482025
 20
5.2044562741
 10
-12.0240603135
 20
5.2100700484
 10
-11.9805392713
 20
5.2136227152
 10
-11.9364136801
 20
5.2150929111
 10
-11.8916636479
 20
5.2144707709
 10
-11.8463095113
 20
5.2117659461
 10
-11.8005402124
 20
5.206986351
 10
-11.7543498328
 20
5.2001159552
 10
-11.7077446451
 20
5.191170619
 10
-11.6609318616
 20
5.1802060999
 10
-11.613908439
 20
5.1672054991
 10
-11.5666776636
 20
5.1521855987
 10
-11.5194562154
 20
5.1352526911
 10
-11.4723163614
 20
5.1164421877
 10
-11.4251859554
 20
5.0957186189
 10
-11.3780650276
 20
5.0730819705
  0
LWPOLYLINE
  5
2C9
100
AcDbEntity
  8
RACCORDO
100
AcDbPolyline
 62
253
  6
CONTINUOUS
 90
77
 70
0
 10
-11.2039785672
 20
1.8458996246
 10
-11.2441662661
 20
1.866794229
 10
-11.2844085018
 20
1.8893261629
 10
-11.3246625698
 20
1.9134845751
 10
-11.3649008458
 20
1.9392668557
 10
-11.4050636336
 20
1.9666490585
 10
-11.4450599565
 20
1.9955800368
 10
-11.4848461449
 20
2.0260359797
 10
-11.5243778987
 20
2.0579907246
 10
-11.5635649336
 20
2.0913765038
 10
-11.602362222
 20
2.1261568152
 10
-11.6407298041
 20
2.1622976044
 10
-11.6785879838
 20
2.1997234282
 10
-11.7158824872
 20
2.2383764332
 10
-11.752588827
 20
2.2782269444
 10
-11.7886741268
 20
2.3192366037
 10
-11.8240943745
 20
2.3613525009
 10
-11.8588186494
 20
2.4045350004
 10
-11.8928332335
 20
2.448766754
 10
-11.9261071675
 20
2.4940095447
 10
-11.9585978232
 20
2.5402075377
 10
-11.9902734294
 20
2.5873177743
 10
-12.0211031718
 20
2.6352974257
 10
-12.0510484894
 20
2.6840894493
 10
-12.0800677529
 20
2.73362774
 10
-12.1081275802
 20
2.7838560182
 10
-12.135199482
 20
2.8347238025
 10
-12.161251753
 20
2.886171734
 10
-12.1862547468
 20
2.9381414589
 10
-12.2101832188
 20
2.9905804521
 10
-12.2330137337
 20
3.0434372479
 10
-12.254721542
 20
3.0966560214
 10
-12.2752827009
 20
3.1501792938
 10
-12.2946762799
 20
3.2039527119
 10
-12.3128812637
 20
3.2579205934
 10
-12.3298768708
 20
3.3120236021
 10
-12.3456443383
 20
3.3662016136
 10
-12.3601659871
 20
3.4203965128
 10
-12.3734257859
 20
3.474550645
 10
-12.3854096355
 20
3.5286045422
 10
-12.3961039499
 20
3.5825001267
 10
-12.4054968538
 20
3.6361801835
 10
-12.413578946
 20
3.6895868062
 10
-12.4203408508
 20
3.7426629218
 10
-12.425774802
 20
3.795351907
 10
-12.429875894
 20
3.8475970611
 10
-12.4326389921
 20
3.8993429059
 10
-12.43406053
 20
3.9505338911
 10
-12.4341401071
 20
4.0011140252
 10
-12.4328769104
 20
4.0510293857
 10
-12.4302717281
 20
4.1002266682
 10
-12.4263287873
 20
4.1486519225
 10
-12.4210516492
 20
4.1962533306
 10
-12.4144454083
 20
4.2429803549
 10
-12.4065187494
 20
4.288782309
 10
-12.3972794439
 20
4.3336104814
 10
-12.3867368254
 20
4.3774170021
 10
-12.3749040087
 20
4.4201540068
 10
-12.3617928811
 20
4.4617762976
 10
-12.3474169836
 20
4.5022392134
 10
-12.3317940471
 20
4.5414975681
 10
-12.3149401202
 20
4.5795098948
 10
-12.296872835
 20
4.6162355733
 10
-12.2776144999
 20
4.6516329304
 10
-12.2571859737
 20
4.6856635588
 10
-12.2356081849
 20
4.7182926385
 10
-12.2129053886
 20
4.7494860199
 10
-12.1891016532
 20
4.7792102318
 10
-12.1642216237
 20
4.8074341748
 10
-12.1382917232
 20
4.8341289771
 10
-12.1113372728
 20
4.8592673859
 10
-12.0833878513
 20
4.882820703
 10
-12.0544779124
 20
4.9047603773
 10
-12.0246358861
 20
4.9250645038
 10
-11.9938951716
 20
4.9437100551
 10
-11.9623002485
 20
4.9606713188
 10
-11.9542628815
 20
4.964650957
  0
LWPOLYLINE
  5
2CA
100
AcDbEntity
  8
DRAFT
100
AcDbPolyline
 62
7
  6
CONTINUOUS
 90
57
 70
0
 10
-10.2950085166
 20
2.3100998914
 10
-10.3382817699
 20
2.3326691039
 10
-10.3813975613
 20
2.3569944366
 10
-10.4243558907
 20
2.3830758896
 10
-10.4672086706
 20
2.4109494888
 10
-10.5099039886
 20
2.4405792082
 10
-10.552286108
 20
2.4718569696
 10
-10.594353885
 20
2.5047887918
 10
-10.6361084634
 20
2.5393686559
 10
-10.677397538
 20
2.5754704275
 10
-10.7182194088
 20
2.6130996647
 10
-10.7585757758
 20
2.6522508093
 10
-10.798319434
 20
2.6927810525
 10
-10.8374481456
 20
2.7346954308
 10
-10.8759641484
 20
2.7779889078
 10
-10.9137269502
 20
2.8225035648
 10
-10.9507338003
 20
2.8682438617
 10
-10.9869874494
 20
2.9152053386
 10
-11.0223556577
 20
2.9632166974
 10
-11.0568351915
 20
3.0122817725
 10
-11.0904292845
 20
3.0623967296
 10
-11.1230153978
 20
3.1133787679
 10
-11.1545898503
 20
3.165231054
 10
-11.1851563232
 20
3.2179504213
 10
-11.2146033213
 20
3.2713445691
 10
-11.2429267561
 20
3.3254159617
 10
-11.2701307162
 20
3.3801621348
 10
-11.2961159716
 20
3.4353833947
 10
-11.3208780714
 20
3.4910814763
 10
-11.3444214664
 20
3.5472546447
 10
-11.3666602791
 20
3.6036980009
 10
-11.3875897451
 20
3.6604125318
 10
-11.4072146287
 20
3.7173972504
 10
-11.4254633457
 20
3.7744442978
 10
-11.4423308702
 20
3.8315539016
 10
-11.4578222281
 20
3.888725834
 10
-11.4718809126
 20
3.9457515532
 10
-11.4845016915
 20
4.002630525
 10
-11.4956897971
 20
4.0593632836
 10
-11.5054044192
 20
4.1157428888
 10
-11.5136401767
 20
4.1717680509
 10
-11.5204024507
 20
4.2274400597
 10
-11.5256665751
 20
4.2825558442
 10
-11.5294270784
 20
4.3371133731
 10
-11.531689432
 20
4.3911146778
 10
-11.5324453837
 20
4.4443627816
 10
-11.531689432
 20
4.4968549336
 10
-11.5294270784
 20
4.5485938847
 10
-11.5256665751
 20
4.5993909103
 10
-11.5204024507
 20
4.6492425705
 10
-11.5136401767
 20
4.6981523052
 10
-11.5054044192
 20
4.7459417098
 10
-11.4956897971
 20
4.7926066929
 10
-11.4845016915
 20
4.8381513459
 10
-11.4718809126
 20
4.8824095388
 10
-11.4578222281
 20
4.9253765735
 10
-11.4424274526
 20
4.9667972864
  0
LWPOLYLINE
  5
2CB
100
AcDbEntity
  8
RACCORDO
100
AcDbPolyline
 62
253
  6
CONTINUOUS
 90
34
 70
0
 10
-2.3330832531
 20
13.2786763272
 10
-2.3343708112
 20
13.2990112575
 10
-2.3364414466
 20
13.3197070325
 10
-2.3392904813
 20
13.3407168202
 10
-2.3429115001
 20
13.3619930643
 10
-2.3472962938
 20
13.3834876324
 10
-2.3524348721
 20
13.405151928
 10
-2.358315601
 20
13.4269369356
 10
-2.3649251868
 20
13.4487933557
 10
-2.3722486271
 20
13.4706717605
 10
-2.3802693437
 20
13.4925226507
 10
-2.388969196
 20
13.51429658
 10
-2.3983284708
 20
13.5359442969
 10
-2.4083259837
 20
13.5574168236
 10
-2.4189391183
 20
13.5786655719
 10
-2.4301438487
 20
13.5996424689
 10
-2.4419148154
 20
13.6203000544
 10
-2.4542253879
 20
13.6405915848
 10
-2.467047714
 20
13.660471145
 10
-2.4803527752
 20
13.679893757
 10
-2.4941104694
 20
13.6988154718
 10
-2.5082896836
 20
13.7171934663
 10
-2.5228583301
 20
13.7349861594
 10
-2.5377834481
 20
13.75215329
 10
-2.5530312963
 20
13.7686559978
 10
-2.5685673698
 20
13.7844569445
 10
-2.5843565194
 20
13.7995203754
 10
-2.6003630625
 20
13.8138121831
 10
-2.6165507776
 20
13.8273000317
 10
-2.632883042
 20
13.8399533998
 10
-2.6493229585
 20
13.8517436257
 10
-2.6658333485
 20
13.8626440212
 10
-2.6823768361
 20
13.872629932
 10
-2.6989159889
 20
13.881678763
  0
LWPOLYLINE
  5
2CC
100
AcDbEntity
  8
ASSI
100
AcDbPolyline
 62
7
  6
CONTINUOUS
 90
6
 70
0
 10
-1.7041554343
 20
25.7426020825
 10
-1.7042122441
 20
25.7438853767
 10
-1.7050224705
 20
25.7473230506
 10
-1.7067501501
 20
25.750145012
 10
-1.7093503169
 20
25.7524023002
 10
-1.7109672004
 20
25.7533284346
  0
LWPOLYLINE
  5
2CD
100
AcDbEntity
  8
RACCORDO
100
AcDbPolyline
 62
7
  6
CONTINUOUS
 90
23
 70
0
 10
-0.5301884606
 20
18.0938321999
 10
-0.5298700527
 20
18.0812186476
 10
-0.528911436
 20
18.0685956995
 10
-0.5273096617
 20
18.0560021593
 10
-0.5250655018
 20
18.0434810859
 10
-0.5221814617
 20
18.0310676608
 10
-0.5186596375
 20
18.0187888939
 10
-0.5145062723
 20
18.0066819671
 10
-0.5097314175
 20
17.9947865998
 10
-0.5043436226
 20
17.9831323203
 10
-0.4983552621
 20
17.9717533455
 10
-0.4917832209
 20
17.9606869507
 10
-0.4846437871
 20
17.9499641372
 10
-0.4769539941
 20
17.9396137679
 10
-0.4687366743
 20
17.9296689547
 10
-0.4600176405
 20
17.9201616323
 10
-0.4508164245
 20
17.9111135696
 10
-0.441159975
 20
17.9025518519
 10
-0.4310855732
 20
17.8945081888
 10
-0.4206130234
 20
17.8869966563
 10
-0.4097703334
 20
17.8800366475
 10
-0.3986065836
 20
17.873656933
 10
-0.3919855336
 20
17.8702222395
  0
LWPOLYLINE
  5
2CE
100
AcDbEntity
  8
RACCORDO
100
AcDbPolyline
 62
253
  6
CONTINUOUS
 90
18
 70
0
 10
-0.4569651559
 20
-23.6341342212
 10
-0.4567246804
 20
-23.6453031216
 10
-0.4560039083
 20
-23.6562011596
 10
-0.4548048003
 20
-23.6667986853
 10
-0.4531306191
 20
-23.6770668664
 10
-0.4509859194
 20
-23.6869777664
 10
-0.4483765362
 20
-23.696504421
 10
-0.4453095689
 20
-23.7056209116
 10
-0.4417933616
 20
-23.7143024349
 10
-0.4378374808
 20
-23.7225253716
 10
-0.4334526891
 20
-23.7302673497
 10
-0.4286509161
 20
-23.7375073058
 10
-0.4234452258
 20
-23.7442255425
 10
-0.4178497812
 20
-23.7504037816
 10
-0.4118798057
 20
-23.7560252141
 10
-0.4055515415
 20
-23.7610745461
 10
-0.3988822059
 20
-23.7655380399
 10
-0.3919918595
 20
-23.7693526713
  0
LWPOLYLINE
  5
2CF
100
AcDbEntity
  8
RACCORDO
100
AcDbPolyline
 62
253
  6
CONTINUOUS
 90
19
 70
0
 10
-0.4569651559
 20
18.0054438523
 10
-0.4567462847
 20
17.9947828601
 10
-0.456089729
 20
17.9843614435
 10
-0.4549963914
 20
17.9742058662
 10
-0.4534679415
 20
17.9643400121
 10
-0.451507623
 20
17.9547908154
 10
-0.4491210399
 20
17.9455875793
 10
-0.4463147071
 20
17.9367548527
 10
-0.44309519
 20
17.9283128119
 10
-0.4394704209
 20
17.9202822974
 10
-0.4354493377
 20
17.9126832121
 10
-0.4310419646
 20
17.9055345903
 10
-0.4262593368
 20
17.8988543627
 10
-0.4211133639
 20
17.8926591616
 10
-0.415616835
 20
17.8869643814
 10
-0.4097834917
 20
17.8817842451
 10
-0.4036279028
 20
17.8771316537
 10
-0.3971653476
 20
17.8730181212
 10
-0.3919918574
 20
17.8702254011
  0
LINE
  5
2D0
100
AcDbEntity
  8
RACCORDO
100
AcDbLine
 62
253
  6
CONTINUOUS
 10
-1.9552742573
 20
18.8930968045
 11
-1.9552742573
 21
20.1258237769
  0
LINE
  5
2D1
100
AcDbEntity
  8
ASSI
100
AcDbLine
 62
253
  6
CONTINUOUS
 10
-1.8295049104
 20
24.5056543772
 11
-1.8295049104
 21
25.7330049742
  0
LINE
  5
2D2
100
AcDbEntity
  8
DRAFT
100
AcDbLine
 62
7
  6
CONTINUOUS
 10
-1.8097271424
 20
23.6129991374
 11
-1.8097271424
 21
24.1655573267
  0
LINE
  5
2D3
100
AcDbEntity
  8
ASSI
100
AcDbLine
 62
7
  6
CONTINUOUS
 10
-1.7041554031
 20
24.6546825356
 11
-1.7041554031
 21
25.7423165932
  0
LINE
  5
2D4
100
AcDbEntity
  8
DRAFT
100
AcDbLine
 62
7
  6
CONTINUOUS
 10
-1.597595108
 20
20.3051283217
 11
-1.597595108
 21
19.0926927564
  0
LINE
  5
2D5
100
AcDbEntity
  8
DRAFT
100
AcDbLine
 62
253
  6
CONTINUOUS
 10
-1.4561737518
 20
23.4362224421
 11
-1.4561737518
 21
22.9280819632
  0
LINE
  5
2D6
100
AcDbEntity
  8
RACCORDO
100
AcDbLine
 62
7
  6
CONTINUOUS
 10
-0.5301884606
 20
18.4338061341
 11
-0.5301884606
 21
18.0938321999
  0
LINE
  5
2D7
100
AcDbEntity
  8
RACCORDO
100
AcDbLine
 62
7
  6
CONTINUOUS
 10
-0.5301884606
 20
-23.4291483113
 11
-0.5301884606
 21
-23.5457458736
  0
LINE
  5
2D8
100
AcDbEntity
  8
RACCORDO
100
AcDbLine
 62
253
  6
CONTINUOUS
 10
-0.4569651559
 20
18.3454177864
 11
-0.4569651559
 21
18.0054438523
  0
LINE
  5
2D9
100
AcDbEntity
  8
RACCORDO
100
AcDbLine
 62
253
  6
CONTINUOUS
 10
-0.4569651559
 20
-23.3989780158
 11
-0.4569651559
 21
-23.6341342212
  0
LINE
  5
2DA
100
AcDbEntity
  8
RACCORDO
100
AcDbLine
 62
7
  6
CONTINUOUS
 10
0.1728044936
 20
17.1338550327
 11
0.1728044936
 21
17.5878272256
  0
LWPOLYLINE
  5
2DB
100
AcDbEntity
  8
RACCORDO
100
AcDbPolyline
 62
253
  6
CONTINUOUS
 90
31
 70
0
 10
-0.4569651559
 20
18.3454177864
 10
-0.4567246804
 20
18.3568271623
 10
-0.4560039083
 20
18.3684459725
 10
-0.4548048003
 20
18.3802426061
 10
-0.4531306191
 20
18.3921849684
 10
-0.4509859194
 20
18.4042405681
 10
-0.4483765362
 20
18.416376606
 10
-0.4453095689
 20
18.4285600638
 10
-0.4417933616
 20
18.4407577945
 10
-0.4378374808
 20
18.4529366119
 10
-0.4334526891
 20
18.4650633817
 10
-0.4286509161
 20
18.4771051109
 10
-0.4234452258
 20
18.4890290378
 10
-0.4178497812
 20
18.5008027215
 10
-0.4118798057
 20
18.5123941295
 10
-0.4055515415
 20
18.5237717257
 10
-0.3988822059
 20
18.5349045552
 10
-0.3918899437
 20
18.5457623292
 10
-0.3845937788
 20
18.5563155075
 10
-0.3770135615
 20
18.5665353783
 10
-0.3691699151
 20
18.5763941367
 10
-0.3610841795
 20
18.5858649602
 10
-0.3527783535
 20
18.594922082
 10
-0.3442750343
 20
18.6035408604
 10
-0.3355973568
 20
18.6116978468
 10
-0.3267689299
 20
18.6193708487
 10
-0.317813773
 20
18.6265389902
 10
-0.3087562501
 20
18.6331827694
 10
-0.2996210036
 20
18.6392841107
 10
-0.2904328876
 20
18.6448264142
 10
-0.2812169
 20
18.6497946014
  0
LWPOLYLINE
  5
2DC
100
AcDbEntity
  8
RACCORDO
100
AcDbPolyline
 62
253
  6
CONTINUOUS
 90
21
 70
0
 10
-2.3330825495
 20
-23.9593952772
 10
-2.3343922362
 20
-23.9801960847
 10
-2.3364838978
 20
-24.000542477
 10
-2.3393527975
 20
-24.0203884204
 10
-2.3429924586
 20
-24.0396890206
 10
-2.3473946237
 20
-24.0584006048
 10
-2.3525492739
 20
-24.0764808207
 10
-2.3584447423
 20
-24.0938887623
 10
-2.3650676893
 20
-24.1105850469
 10
-2.372403078
 20
-24.1265318837
 10
-2.3804343062
 20
-24.1416931929
 10
-2.3891432056
 20
-24.1560346759
 10
-2.3985100335
 20
-24.1695238741
 10
-2.4085135904
 20
-24.1821302671
 10
-2.4191312481
 20
-24.1938253372
 10
-2.4303389638
 20
-24.2045826194
 10
-2.4421113727
 20
-24.2143777733
 10
-2.4544218457
 20
-24.223188641
 10
-2.4672425319
 20
-24.2309952904
 10
-2.4805444167
 20
-24.2377800555
 10
-2.4871299574
 20
-24.2406853312
  0
LINE
  5
2DD
100
AcDbEntity
  8
RACCORDO
100
AcDbLine
 62
7
  6
CONTINUOUS
 10
-11.9825812531
 20
-5.7878346267
 11
-11.9822448289
 21
-5.7876709137
  0
LWPOLYLINE
  5
2DE
100
AcDbEntity
  8
DRAFT
100
AcDbPolyline
 62
7
  6
CONTINUOUS
 90
6
 70
0
 10
-10.0905911361
 20
2.2288902362
 10
-10.1228083627
 20
2.2387493348
 10
-10.1656611425
 20
2.2537285154
 10
-10.208619472
 20
2.270605392
 10
-10.2517352634
 20
2.2893958507
 10
-10.2950085166
 20
2.3100998914
  0
LWPOLYLINE
  5
2DF
100
AcDbEntity
  8
RACCORDO
100
AcDbPolyline
 62
7
  6
CONTINUOUS
 90
76
 70
0
 10
-11.300122006
 20
4.9065081872
 10
-11.2721511457
 20
4.8921152423
 10
-11.2335149661
 20
4.870901311
 10
-11.1946293164
 20
4.8479943474
 10
-11.1555555459
 20
4.8234033156
 10
-11.1163558502
 20
4.7971433356
 10
-11.0770936903
 20
4.7692340809
 10
-11.0378262636
 20
4.7396937572
 10
-10.9986126881
 20
4.7085464976
 10
-10.9595154742
 20
4.6758222976
 10
-10.9205930211
 20
4.64155054
 10
-10.8819014226
 20
4.6057633688
 10
-10.8434961987
 20
4.5684954931
 10
-10.8054328034
 20
4.5297836975
 10
-10.7677652909
 20
4.4896678048
 10
-10.7305442683
 20
4.4481870971
 10
-10.6938199975
 20
4.4053820177
 10
-10.6576467208
 20
4.361301896
 10
-10.6220783966
 20
4.3160000377
 10
-10.587162829
 20
4.2695243514
 10
-10.5529499861
 20
4.2219298731
 10
-10.5194940466
 20
4.1732825195
 10
-10.4868405677
 20
4.1236390733
 10
-10.4550332463
 20
4.0730579169
 10
-10.4241201453
 20
4.0216095576
 10
-10.3941424185
 20
3.9693565462
 10
-10.3651385243
 20
3.9163613251
 10
-10.3371492083
 20
3.8626960952
 10
-10.3102102253
 20
3.8084270188
 10
-10.2843550099
 20
3.7536203999
 10
-10.259617612
 20
3.6983502219
 10
-10.2360279577
 20
3.6426850473
 10
-10.2136140958
 20
3.5866941951
 10
-10.1924038914
 20
3.5304542009
 10
-10.1724209719
 20
3.474034875
 10
-10.1536875333
 20
3.4175077693
 10
-10.1362254554
 20
3.3609533197
 10
-10.1200512979
 20
3.3044407277
 10
-10.1051809726
 20
3.2480436188
 10
-10.0916305096
 20
3.1918500813
 10
-10.0794092373
 20
3.1359304189
 10
-10.0685248789
 20
3.0803561572
 10
-10.0589849805
 20
3.0252176626
 10
-10.050790588
 20
2.9705837168
 10
-10.0439409678
 20
2.9165234132
 10
-10.0384339711
 20
2.8631272187
 10
-10.0342620405
 20
2.8104654059
 10
-10.0314149111
 20
2.7585981995
 10
-10.0298795119
 20
2.707600178
 10
-10.0296393646
 20
2.6575627065
 10
-10.0306751187
 20
2.6085144089
 10
-10.0329696949
 20
2.560439391
 10
-10.0365037144
 20
2.5134117521
 10
-10.0412576778
 20
2.4674759194
 10
-10.0472234038
 20
2.4225837624
 10
-10.0543830866
 20
2.3787968155
 10
-10.0627163509
 20
2.3361784655
 10
-10.0722205847
 20
2.2947006415
 10
-10.0828751866
 20
2.2544300711
 10
-10.0946573317
 20
2.2154311064
 10
-10.1075668561
 20
2.1776907344
 10
-10.1215724605
 20
2.1412927493
 10
-10.1366520082
 20
2.1062862021
 10
-10.1528256103
 20
2.0726293127
 10
-10.1700602762
 20
2.040405282
 10
-10.1883329787
 20
2.009669446
 10
-10.2076905964
 20
1.9803681739
 10
-10.2281007076
 20
1.9525879227
 10
-10.2495491156
 20
1.9263823628
 10
-10.2721331682
 20
1.9016835432
 10
-10.295825004
 20
1.8785895197
 10
-10.320647034
 20
1.8571421806
 10
-10.3468226819
 20
1.8372452943
 10
-10.3744716279
 20
1.8189501144
 10
-10.4035779039
 20
1.8024062034
 10
-10.4072704965
 20
1.8004923506
  0
LWPOLYLINE
  5
2E0
100
AcDbEntity
  8
RACCORDO
100
AcDbPolyline
 62
253
  6
CONTINUOUS
 90
97
 70
0
 10
-11.3780650276
 20
5.0730819705
 10
-11.3309785374
 20
5.0486152271
 10
-11.2839338422
 20
5.0222524579
 10
-11.2369309119
 20
4.9939936772
 10
-11.1898983322
 20
4.9638028412
 10
-11.1429073968
 20
4.9317160516
 10
-11.0961721076
 20
4.8978415557
 10
-11.0496950789
 20
4.8621655078
 10
-11.0034734536
 20
4.8247018701
 10
-10.9577129998
 20
4.7856006154
 10
-10.9124195054
 20
4.7448516079
 10
-10.8675868283
 20
4.7024651534
 10
-10.8234028263
 20
4.6586218951
 10
-10.7798874831
 20
4.6133321108
 10
-10.7370203704
 20
4.5665857363
 10
-10.694928723
 20
4.5185329032
 10
-10.6536208944
 20
4.4691803491
 10
-10.6130880108
 20
4.4185215866
 10
-10.573431467
 20
4.3666869086
 10
-10.5346451608
 20
4.3136648642
 10
-10.4967346087
 20
4.2594671862
 10
-10.4598186454
 20
4.2042589372
 10
-10.423895383
 20
4.1480288237
 10
-10.3889660831
 20
4.090788441
 10
-10.3551543358
 20
4.0327371696
 10
-10.32246645
 20
3.9738756946
 10
-10.2908954827
 20
3.9142036368
 10
-10.2605451971
 20
3.8539187567
 10
-10.2314210825
 20
3.7930229745
 10
-10.20351703
 20
3.7315146693
 10
-10.1769194672
 20
3.66958626
 10
-10.1516316441
 20
3.6072359436
 10
-10.1276497247
 20
3.5444658068
 10
-10.1050495813
 20
3.4814740681
 10
-10.0838346707
 20
3.41825815
 10
-10.0640010065
 20
3.354820887
 10
-10.0456133844
 20
3.2913685729
 10
-10.0286765083
 20
3.2279015603
 10
-10.0131852248
 20
3.1644197155
 10
-9.9991896462
 20
3.1011285532
 10
-9.9866945893
 20
3.0380292196
 10
-9.9756948847
 20
2.9751207409
 10
-9.9662257768
 20
2.9126053982
 10
-9.9582920904
 20
2.8504846139
 10
-9.9518887577
 20
2.7887570853
 10
-9.947036303
 20
2.7276209484
 10
-9.9437396689
 20
2.6670778375
 10
-9.9419937885
 20
2.6071261806
 10
-9.9418042951
 20
2.5479592452
 10
-9.9431762769
 20
2.4895795781
 10
-9.9461046459
 20
2.4319846347
 10
-9.9505798959
 20
2.3753599843
 10
-9.9566070729
 20
2.3197090064
 10
-9.9641812555
 20
2.2650282633
 10
-9.9732781094
 20
2.2114930393
 10
-9.9839026691
 20
2.1591068669
 10
-9.9960501434
 20
2.1078660976
 10
-10.0096815785
 20
2.0579351862
 10
-10.0248021011
 20
2.0093179629
 10
-10.0414069373
 20
1.962010428
 10
-10.0594423936
 20
1.9161652378
 10
-10.078913582
 20
1.8717869074
 10
-10.0998158402
 20
1.8288707046
 10
-10.1220809159
 20
1.7875553645
 10
-10.1457127163
 20
1.7478471065
 10
-10.1707078638
 20
1.7097394548
 10
-10.1969872681
 20
1.673352058
 10
-10.2245546433
 20
1.6386902506
 10
-10.2534068611
 20
1.6057484137
 10
-10.2834546417
 20
1.5746297303
 10
-10.3147039976
 20
1.5453380558
 10
-10.3471495355
 20
1.5178692337
 10
-10.3806849286
 20
1.4923143983
 10
-10.4153171533
 20
1.4686793324
 10
-10.451039867
 20
1.4469579445
 10
-10.4877268144
 20
1.4272235339
 10
-10.5253767691
 20
1.4094856091
 10
-10.5639915837
 20
1.393734356
 10
-10.6034496532
 20
1.3800140735
 10
-10.6437451703
 20
1.3683303967
 10
-10.6848845283
 20
1.3586774043
 10
-10.726764435
 20
1.351082054
 10
-10.7693932701
 20
1.34554622
 10
-10.8127631743
 20
1.3420677737
 10
-10.8567464988
 20
1.3406676678
 10
-10.9013635917
 20
1.3413555524
 10
-10.9465945494
 20
1.34412156
 10
-10.9922513404
 20
1.3489573698
 10
-11.0383403373
 20
1.3558787941
 10
-11.0848555218
 20
1.3648698473
 10
-11.1315902608
 20
1.3758745192
 10
-11.1785479658
 20
1.3889095356
 10
-11.2257254682
 20
1.4039580518
 10
-11.2729062392
 20
1.4209137146
 10
-11.3200181426
 20
1.439741053
 10
-11.3671334354
 20
1.4604754788
 10
-11.4142521475
 20
1.4831169772
  0
LWPOLYLINE
  5
2E1
100
AcDbEntity
  8
RACCORDO
100
AcDbPolyline
 62
253
  6
CONTINUOUS
 90
31
 70
0
 10
1.2205414835
 20
17.6824127227
 10
1.2202465066
 20
17.6938384303
 10
1.2194706534
 20
17.7054764835
 10
1.2182160503
 20
17.7172949843
 10
1.216486136
 20
17.7292615406
 10
1.2142856519
 20
17.7413433542
 10
1.211620629
 20
17.7535073112
 10
1.2084983717
 20
17.7657200723
 10
1.2049274375
 20
17.7779481649
 10
1.2009176137
 20
17.7901580738
 10
1.1964798904
 20
17.8023163342
 10
1.1916264306
 20
17.8143896224
 10
1.1863705368
 20
17.8263448478
 10
1.1807266143
 20
17.8381492434
 10
1.1747101321
 20
17.8497704556
 10
1.1683375803
 20
17.8611766328
 10
1.1616264247
 20
17.8723365128
 10
1.1545950595
 20
17.8832195085
 10
1.1472627563
 20
17.8937957917
 10
1.1396496115
 20
17.9040363746
 10
1.1317764913
 20
17.9139131899
 10
1.1236649746
 20
17.923399167
 10
1.1153372933
 20
17.9324683066
 10
1.1068162722
 20
17.9410957519
 10
1.0981252658
 20
17.9492578567
 10
1.0892880945
 20
17.9569322502
 10
1.0803289793
 20
17.9640978984
 10
1.0712724755
 20
17.9707351614
 10
1.0621434052
 20
17.976825848
 10
1.0529667895
 20
17.9823532645
 10
1.0437677799
 20
17.9873022615
  0
LWPOLYLINE
  5
2E2
100
AcDbEntity
  8
RACCORDO
100
AcDbPolyline
 62
253
  6
CONTINUOUS
 90
18
 70
0
 10
0.8680195239
 20
-24.2966265611
 10
0.8682601051
 20
-24.3077978893
 10
0.8689811963
 20
-24.3186982547
 10
0.8701808381
 20
-24.329297986
 10
0.8718557706
 20
-24.3395682402
 10
0.8740014371
 20
-24.3494810487
 10
0.8766119918
 20
-24.3590093979
 10
0.8796803252
 20
-24.3681273465
 10
0.8831980865
 20
-24.3768100847
 10
0.8871556957
 20
-24.3850339724
 10
0.8915423776
 20
-24.3927766261
 10
0.8963461907
 20
-24.4000169752
 10
0.9015540553
 20
-24.4067353126
 10
0.9071518007
 20
-24.4129133619
 10
0.9131241823
 20
-24.4185343027
 10
0.9194549166
 20
-24.4235828206
 10
0.9261267375
 20
-24.4280451674
 10
0.9329868154
 20
-24.4318420085
  0
LWPOLYLINE
  5
2E3
100
AcDbEntity
  8
RACCORDO
100
AcDbPolyline
 62
253
  6
CONTINUOUS
 90
19
 70
0
 10
0.8680195239
 20
17.3429515124
 10
0.8682383951
 20
17.3322905202
 10
0.8688949508
 20
17.3218691036
 10
0.8699882884
 20
17.3117135263
 10
0.8715167383
 20
17.3018476722
 10
0.8734770569
 20
17.2922984755
 10
0.8758636399
 20
17.2830952394
 10
0.8786699727
 20
17.2742625128
 10
0.8818894898
 20
17.265820472
 10
0.885514259
 20
17.2577899574
 10
0.8895353421
 20
17.2501908721
 10
0.8939427152
 20
17.2430422504
 10
0.8987253431
 20
17.2363620228
 10
0.903871316
 20
17.2301668217
 10
0.9093678448
 20
17.2244720415
 10
0.9152011881
 20
17.2192919051
 10
0.921356777
 20
17.2146393138
 10
0.9278193322
 20
17.2105257813
 10
0.9329928224
 20
17.2077330612
  0
LWPOLYLINE
  5
2E4
100
AcDbEntity
  8
RACCORDO
100
AcDbPolyline
 62
7
  6
CONTINUOUS
 90
24
 70
0
 10
0.9479893042
 20
24.6564398707
 10
0.9474161198
 20
24.6909122768
 10
0.9457170068
 20
24.7246621978
 10
0.9428919653
 20
24.7576896336
 10
0.9389315307
 20
24.790051191
 10
0.9338451676
 20
24.8216902632
 10
0.9276612692
 20
24.8524370297
 10
0.9203786538
 20
24.8822725571
 10
0.9119985031
 20
24.9112157789
 10
0.9025527559
 20
24.9391536748
 10
0.8920288974
 20
24.9660998376
 10
0.8804394423
 20
24.9920406746
 10
0.8678538736
 20
25.0168223875
 10
0.8542786877
 20
25.0404196889
 10
0.8397073882
 20
25.0628578662
 10
0.8241899681
 20
25.0840589834
 10
0.8077066808
 20
25.1040360733
 10
0.7902772729
 20
25.1227761032
 10
0.7720109782
 20
25.1401620388
 10
0.7529223223
 20
25.1561709651
 10
0.7329967796
 20
25.1708257972
 10
0.7123000072
 20
25.1840782455
 10
0.6908074926
 20
25.1959341068
 10
-2.5390825718
 20
26.8109030162
  0
LINE
  5
2E5
100
AcDbEntity
  8
RACCORDO
100
AcDbLine
 62
253
  6
CONTINUOUS
 10
0.2460277983
 20
17.0421414291
 11
0.2460277983
 21
17.5512155733
  0
LINE
  5
2E6
100
AcDbEntity
  8
RACCORDO
100
AcDbLine
 62
253
  6
CONTINUOUS
 10
0.8680195239
 20
-24.2966265611
 11
0.8680195239
 21
-23.956652627
  0
LINE
  5
2E7
100
AcDbEntity
  8
RACCORDO
100
AcDbLine
 62
253
  6
CONTINUOUS
 10
0.8680195239
 20
17.3429515124
 11
0.8680195239
 21
17.6829254465
  0
LINE
  5
2E8
100
AcDbEntity
  8
RACCORDO
100
AcDbLine
 62
7
  6
CONTINUOUS
 10
0.9479893042
 20
24.6564398707
 11
0.9479893042
 21
24.385639578
  0
LINE
  5
2E9
100
AcDbEntity
  8
RACCORDO
100
AcDbLine
 62
253
  6
CONTINUOUS
 10
1.2205414835
 20
-24.297139285
 11
1.2205414835
 21
-23.9571653508
  0
LINE
  5
2EA
100
AcDbEntity
  8
RACCORDO
100
AcDbLine
 62
253
  6
CONTINUOUS
 10
1.2205414835
 20
17.3424387885
 11
1.2205414835
 21
17.6824127227
  0
LINE
  5
2EB
100
AcDbEntity
  8
RACCORDO
100
AcDbLine
 62
253
  6
CONTINUOUS
 10
1.579240132
 20
17.0643558852
 11
1.579240132
 21
16.3755352623
  0
LINE
  5
2EC
100
AcDbEntity
  8
RACCORDO
100
AcDbLine
 62
253
  6
CONTINUOUS
 10
1.579240132
 20
-22.5552599866
 11
1.579240132
 21
-22.9801561499
  0
LINE
  5
2ED
100
AcDbEntity
  8
RACCORDO
100
AcDbLine
 62
253
  6
CONTINUOUS
 10
1.9317620916
 20
17.1939352657
 11
1.9317620916
 21
16.3863031439
  0
LINE
  5
2EE
100
AcDbEntity
  8
RACCORDO
100
AcDbLine
 62
253
  6
CONTINUOUS
 10
1.9317620916
 20
-22.4074936183
 11
1.9317620916
 21
-23.1056688737
  0
LWPOLYLINE
  5
2EF
100
AcDbEntity
  8
RACCORDO
100
AcDbPolyline
 62
253
  6
CONTINUOUS
 90
22
 70
0
 10
0.8680195239
 20
-23.956652627
 10
0.8682393786
 20
-23.9457481158
 10
0.8688983958
 20
-23.9346508721
 10
0.8699949366
 20
-23.9233884988
 10
0.8715262675
 20
-23.9119890494
 10
0.8734885828
 20
-23.9004808395
 10
0.8758770286
 20
-23.8888923732
 10
0.8786856987
 20
-23.8772523912
 10
0.8819076042
 20
-23.8655899286
 10
0.8855347018
 20
-23.8539341227
 10
0.8895579814
 20
-23.8423139322
 10
0.893967424
 20
-23.8307582989
 10
0.8987519605
 20
-23.819296197
 10
0.9038995939
 20
-23.8079562862
 10
0.9093975619
 20
-23.7967666058
 10
0.9152322956
 20
-23.7857547459
 10
0.9213905121
 20
-23.7749460144
 10
0.9278557863
 20
-23.7643694666
 10
0.9346081531
 20
-23.7540571454
 10
0.9416290119
 20
-23.7440360773
 10
0.9489017329
 20
-23.7343286721
 10
0.9564078715
 20
-23.7249584532
  0
LWPOLYLINE
  5
2F0
100
AcDbEntity
  8
RACCORDO
100
AcDbPolyline
 62
253
  6
CONTINUOUS
 90
31
 70
0
 10
0.8680195239
 20
17.6829254465
 10
0.8682601051
 20
17.6943373559
 10
0.8689811963
 20
17.7059588126
 10
0.8701808381
 20
17.7177581857
 10
0.8718557706
 20
17.7297033723
 10
0.8740014371
 20
17.7417618474
 10
0.8766119918
 20
17.7539007511
 10
0.8796803252
 20
17.7660870333
 10
0.8831980865
 20
17.7782875327
 10
0.8871556957
 20
17.7904690296
 10
0.8915423776
 20
17.8025983652
 10
0.8963461907
 20
17.8146425274
 10
0.9015540553
 20
17.8265687293
 10
0.9071518007
 20
17.8383445241
 10
0.9131241823
 20
17.8499378465
 10
0.9194549166
 20
17.8613170987
 10
0.9261267375
 20
17.8724512664
 10
0.9331215058
 20
17.883310098
 10
0.9404202427
 20
17.893864134
 10
0.9480031853
 20
17.9040847767
 10
0.9558496036
 20
17.9139440656
 10
0.9639378949
 20
17.9234148819
 10
0.9722458627
 20
17.9324713099
 10
0.9807510351
 20
17.9410889265
 10
0.9894304978
 20
17.9492445404
 10
0.9982625883
 20
17.9569175889
 10
1.0072213713
 20
17.9640853365
 10
1.0162767082
 20
17.970724243
 10
1.025401877
 20
17.9768160404
 10
1.0345738815
 20
17.9823466877
 10
1.0437677799
 20
17.9873022615
  0
LWPOLYLINE
  5
2F1
100
AcDbEntity
  8
RACCORDO
100
AcDbPolyline
 62
7
  6
CONTINUOUS
 90
21
 70
0
 10
-11.9825813758
 20
-5.7878346863
 10
-11.9543130435
 20
-5.7752127972
 10
-11.9265537404
 20
-5.7649182965
 10
-11.8981316274
 20
-5.7563408555
 10
-11.8690165956
 20
-5.7494379253
 10
-11.8391016733
 20
-5.7441677563
 10
-11.8083764875
 20
-5.7405293095
 10
-11.7769041289
 20
-5.7385283711
 10
-11.7446987561
 20
-5.7381638692
 10
-11.7117924429
 20
-5.7394375237
 10
-11.6782606817
 20
-5.7423439776
 10
-11.644193072
 20
-5.7468694243
 10
-11.6096493516
 20
-5.7529968936
 10
-11.5747089038
 20
-5.7606995347
 10
-11.5394905541
 20
-5.7699343033
 10
-11.5040628928
 20
-5.7806621194
 10
-11.4684981941
 20
-5.7928371932
 10
-11.4329121897
 20
-5.8063925257
 10
-11.3973849894
 20
-5.8212654036
 10
-11.361968957
 20
-5.8373988218
 10
-11.3363008374
 20
-5.8498963376
  0
LWPOLYLINE
  5
2F2
100
AcDbEntity
  8
RACCORDO
100
AcDbPolyline
 62
7
  6
CONTINUOUS
 90
34
 70
0
 10
3.1643895221
 20
16.323233747
 10
3.1636972799
 20
16.3418035033
 10
3.1623009987
 20
16.3606973201
 10
3.1602029785
 20
16.3798718079
 10
3.1574062584
 20
16.399282379
 10
3.1539171905
 20
16.4188851053
 10
3.1497453661
 20
16.4386368348
 10
3.1448992116
 20
16.4584922801
 10
3.139388956
 20
16.4784060691
 10
3.1332290902
 20
16.4983346207
 10
3.1264327378
 20
16.5182324203
 10
3.1190143261
 20
16.5380539567
 10
3.1109923856
 20
16.5577557824
 10
3.1023842719
 20
16.5772929453
 10
3.0932085305
 20
16.596620793
 10
3.0834874121
 20
16.6156968854
 10
3.0732421756
 20
16.6344777205
 10
3.0624951075
 20
16.6529203787
 10
3.0512717494
 20
16.67098427
 10
3.039596848
 20
16.6886282003
 10
3.0274959927
 20
16.7058118275
 10
3.0149975157
 20
16.7224972188
 10
3.0021291678
 20
16.7386463012
 10
2.9889193391
 20
16.7542221072
 10
2.9753985961
 20
16.7691901176
 10
2.9615971511
 20
16.7835161337
 10
2.9475456378
 20
16.7971672969
 10
2.9332762518
 20
16.8101131947
 10
2.9188271676
 20
16.8223193107
 10
2.9042246991
 20
16.8337630747
 10
2.8894833645
 20
16.8444314508
 10
2.8746298214
 20
16.8543008398
 10
2.8597034603
 20
16.8633404887
 10
2.8447380795
 20
16.8715261626
  0
LWPOLYLINE
  5
2F3
100
AcDbEntity
  8
RACCORDO
100
AcDbPolyline
 62
7
  6
CONTINUOUS
 90
20
 70
0
 10
3.4222873031
 20
18.8364461784
 10
3.4218818357
 20
18.8506787941
 10
3.4206586518
 20
18.8649360348
 10
3.4186110645
 20
18.8791615689
 10
3.4157370668
 20
18.893298729
 10
3.4120397614
 20
18.9072893759
 10
3.4075273211
 20
18.92107557
 10
3.4022133181
 20
18.9345992606
 10
3.3961141433
 20
18.947808405
 10
3.3892467649
 20
18.9606580617
 10
3.381633683
 20
18.973099364
 10
3.3733026301
 20
18.9850827764
 10
3.3642792152
 20
18.9965683371
 10
3.3545890519
 20
19.0075194734
 10
3.3442692623
 20
19.0178909515
 10
3.3333621936
 20
19.0276394828
 10
3.3218934831
 20
19.0367409382
 10
3.3099054537
 20
19.0451594856
 10
3.2974646344
 20
19.0528500502
 10
3.2840835999
 20
19.0600565268
  0
LWPOLYLINE
  5
2F4
100
AcDbEntity
  8
RACCORDO
100
AcDbPolyline
 62
7
  6
CONTINUOUS
 90
23
 70
0
 10
3.4222873031
 20
-22.8106894778
 10
3.4219688951
 20
-22.7980759254
 10
3.4210102785
 20
-22.7854529773
 10
3.4194085042
 20
-22.7728594371
 10
3.4171643443
 20
-22.7603383637
 10
3.4142803042
 20
-22.7479249386
 10
3.41075848
 20
-22.7356461717
 10
3.4066051148
 20
-22.7235392449
 10
3.40183026
 20
-22.7116438776
 10
3.3964424651
 20
-22.6999895981
 10
3.3904541046
 20
-22.6886106233
 10
3.3838820634
 20
-22.6775442285
 10
3.3767426296
 20
-22.666821415
 10
3.3690528366
 20
-22.6564710457
 10
3.3608355168
 20
-22.6465262325
 10
3.352116483
 20
-22.6370189101
 10
3.342915267
 20
-22.6279708474
 10
3.3332588175
 20
-22.6194091297
 10
3.3231844157
 20
-22.6113654666
 10
3.3127118659
 20
-22.6038539341
 10
3.3018691758
 20
-22.5968939253
 10
3.2907054261
 20
-22.5905142108
 10
3.2840843761
 20
-22.5870795174
  0
LWPOLYLINE
  5
2F5
100
AcDbEntity
  8
RACCORDO
100
AcDbPolyline
 62
7
  6
CONTINUOUS
 90
34
 70
0
 10
2.8218222744
 20
18.4851347262
 10
2.8216222183
 20
18.4955365348
 10
2.8210219809
 20
18.5061149028
 10
2.8200230229
 20
18.5168459209
 10
2.8186277873
 20
18.5277053741
 10
2.8168394391
 20
18.5386686665
 10
2.8146618578
 20
18.5497108775
 10
2.8121000333
 20
18.5608070244
 10
2.809159859
 20
18.5719320178
 10
2.805847864
 20
18.5830605882
 10
2.8021715869
 20
18.594167546
 10
2.7981394266
 20
18.6052277672
 10
2.7937604293
 20
18.6162161485
 10
2.7890445288
 20
18.6271078061
 10
2.7840024587
 20
18.6378780932
 10
2.7786455981
 20
18.6485025845
 10
2.7729860739
 20
18.658957209
 10
2.7670367359
 20
18.669218299
 10
2.7608110642
 20
18.6792626054
 10
2.7543231317
 20
18.6890673604
 10
2.7475876428
 20
18.6986103575
 10
2.7406199036
 20
18.7078699977
 10
2.7334356465
 20
18.7168252801
 10
2.7260511309
 20
18.7254559121
 10
2.7184831765
 20
18.7337423849
 10
2.710748855
 20
18.7416658922
 10
2.7028656491
 20
18.7492084682
 10
2.6948515496
 20
18.756353092
 10
2.6867246192
 20
18.7630835348
 10
2.6785032082
 20
18.7693845233
 10
2.6702061115
 20
18.7752418706
 10
2.6618521181
 20
18.7806423074
 10
2.653459969
 20
18.785573512
 10
2.6450485707
 20
18.790024265
  0
LWPOLYLINE
  5
2F6
100
AcDbEntity
  8
RACCORDO
100
AcDbPolyline
 62
253
  6
CONTINUOUS
 90
31
 70
0
 10
3.3500894461
 20
18.7485735462
 10
3.3499003253
 20
18.7600240552
 10
3.349226142
 20
18.7716904088
 10
3.3480678261
 20
18.7835411071
 10
3.3464272446
 20
18.7955465689
 10
3.3443081825
 20
18.8076716873
 10
3.3417173309
 20
18.8198757169
 10
3.3386625136
 20
18.8321225098
 10
3.3351515916
 20
18.8443811489
 10
3.331194074
 20
18.8566183688
 10
3.3268006857
 20
18.8688008514
 10
3.3219835094
 20
18.8808949518
 10
3.3167558827
 20
18.8928671421
 10
3.3111322178
 20
18.9046844448
 10
3.3051278725
 20
18.9163146148
 10
3.2987592564
 20
18.9277258629
 10
3.2920437966
 20
18.9388869424
 10
3.2849999265
 20
18.9497671972
 10
3.2776469835
 20
18.9603367482
 10
3.2700051368
 20
18.9705665999
 10
3.2620953302
 20
18.9804287122
 10
3.2539392539
 20
18.9898960372
 10
3.2455592696
 20
18.9989426148
 10
3.2369783557
 20
19.0075436349
 10
3.2282200488
 20
19.0156755034
 10
3.2193083586
 20
19.0233159259
 10
3.2102677267
 20
19.0304439454
 10
3.2011229691
 20
19.0370399969
 10
3.1918991708
 20
19.0430859916
 10
3.1826216154
 20
19.0485653613
 10
3.1733157424
 20
19.053463085
  0
LINE
  5
2F7
100
AcDbEntity
  8
RACCORDO
100
AcDbLine
 62
7
  6
CONTINUOUS
 10
2.8218222744
 20
-22.0338633111
 11
2.8218222744
 21
-23.5171046853
  0
LINE
  5
2F8
100
AcDbEntity
  8
RACCORDO
100
AcDbLine
 62
7
  6
CONTINUOUS
 10
2.8218222744
 20
16.8829840652
 11
2.8218222744
 21
18.4851347262
  0
LINE
  5
2F9
100
AcDbEntity
  8
RACCORDO
100
AcDbLine
 62
253
  6
CONTINUOUS
 10
3.3500894461
 20
18.7485735462
 11
3.3500894461
 21
18.4010420295
  0
LINE
  5
2FA
100
AcDbEntity
  8
RACCORDO
100
AcDbLine
 62
253
  6
CONTINUOUS
 10
3.3500894461
 20
-22.8985621099
 11
3.3500894461
 21
-23.2460936267
  0
LINE
  5
2FB
100
AcDbEntity
  8
RACCORDO
100
AcDbLine
 62
7
  6
CONTINUOUS
 10
3.4222873031
 20
18.8364461784
 11
3.4222873031
 21
18.4889146616
  0
LINE
  5
2FC
100
AcDbEntity
  8
RACCORDO
100
AcDbLine
 62
7
  6
CONTINUOUS
 10
3.4222873031
 20
-22.8106894778
 11
3.4222873031
 21
-23.1582209945
  0
LINE
  5
2FD
100
AcDbEntity
  8
ASSI
100
AcDbLine
 62
253
  6
CONTINUOUS
 10
3.7272389622
 20
21.7290241883
 11
3.7272389622
 21
22.9560741556
  0
LINE
  5
2FE
100
AcDbEntity
  8
ASSI
100
AcDbLine
 62
7
  6
CONTINUOUS
 10
3.8508330261
 20
21.8771878091
 11
3.8508330261
 21
22.9648642982
  0
LINE
  5
2FF
100
AcDbEntity
  8
RACCORDO
100
AcDbLine
 62
7
  6
CONTINUOUS
 10
3.8824824462
 20
-21.3408340136
 11
3.8824824462
 21
16.6624174451
  0
LWPOLYLINE
  5
300
100
AcDbEntity
  8
RACCORDO
100
AcDbPolyline
 62
7
  6
CONTINUOUS
 90
20
 70
0
 10
3.1644011
 20
-21.6950988796
 10
3.163708788
 20
-21.7136284391
 10
3.1623123604
 20
-21.7317463916
 10
3.1602141173
 20
-21.7494123369
 10
3.1574170676
 20
-21.7665872176
 10
3.1539275944
 20
-21.7832325054
 10
3.1497553815
 20
-21.7993102396
 10
3.1449088905
 20
-21.8147846953
 10
3.1393983149
 20
-21.8296214224
 10
3.1332381319
 20
-21.8437863309
 10
3.1264414619
 20
-21.8572478978
 10
3.1190227353
 20
-21.8699762555
 10
3.1110004791
 20
-21.8819420668
 10
3.1023920482
 20
-21.893118704
 10
3.0932159887
 20
-21.9034813895
 10
3.083494549
 20
-21.9130061001
 10
3.073248988
 20
-21.9216716213
 10
3.0625015922
 20
-21.9294587584
 10
3.0512779011
 20
-21.9363492789
 10
3.0432401868
 20
-21.9405869337
  0
LWPOLYLINE
  5
301
100
AcDbEntity
  8
RACCORDO
100
AcDbPolyline
 62
253
  6
CONTINUOUS
 90
16
 70
0
 10
3.4222873031
 20
-23.1582209912
 10
3.4219860326
 20
-23.1643558234
 10
3.421006314
 20
-23.1708587715
 10
3.419349625
 20
-23.1773273358
 10
3.4170204735
 20
-23.1837439025
 10
3.4140251932
 20
-23.1900910136
 10
3.4103719343
 20
-23.1963513904
 10
3.4060706363
 20
-23.2025079936
 10
3.4011330037
 20
-23.208544064
 10
3.3955724784
 20
-23.2144431665
 10
3.3894041893
 20
-23.2201892479
 10
3.382644928
 20
-23.2257666636
 10
3.3753131142
 20
-23.2311602158
 10
3.367428716
 20
-23.2363552203
 10
3.3590131903
 20
-23.2413375438
 10
3.3500894461
 20
-23.2460936267
  0
LWPOLYLINE
  5
302
100
AcDbEntity
  8
RACCORDO
100
AcDbPolyline
 62
253
  6
CONTINUOUS
 90
16
 70
0
 10
3.4222873031
 20
18.8364461784
 10
3.4219840821
 20
18.8302915341
 10
3.4210025763
 20
18.8237900249
 10
3.4193443985
 20
18.8173229488
 10
3.41701406
 20
18.8109079008
 10
3.4140179008
 20
18.804562334
 10
3.4103640726
 20
18.7983035125
 10
3.4060625162
 20
18.7921484647
 10
3.4011249347
 20
18.7861139363
 10
3.3955647616
 20
18.7802163453
 10
3.3893971244
 20
18.774471737
 10
3.3826388031
 20
18.7688957408
 10
3.3753081848
 20
18.763503527
 10
3.3674252139
 20
18.758309766
 10
3.3590113372
 20
18.7533285883
 10
3.3500894461
 20
18.7485735462
  0
LWPOLYLINE
  5
303
100
AcDbEntity
  8
RACCORDO
100
AcDbPolyline
 62
253
  6
CONTINUOUS
 90
16
 70
0
 10
3.4222873031
 20
-22.8106894778
 10
3.4219840821
 20
-22.816844122
 10
3.4210025763
 20
-22.8233456312
 10
3.4193443985
 20
-22.8298127073
 10
3.41701406
 20
-22.8362277553
 10
3.4140179008
 20
-22.8425733222
 10
3.4103640726
 20
-22.8488321436
 10
3.4060625162
 20
-22.8549871915
 10
3.4011249347
 20
-22.8610217199
 10
3.3955647616
 20
-22.8669193109
 10
3.3893971244
 20
-22.8726639191
 10
3.3826388031
 20
-22.8782399153
 10
3.3753081848
 20
-22.8836321292
 10
3.3674252139
 20
-22.8888258902
 10
3.3590113372
 20
-22.8938070678
 10
3.3500894461
 20
-22.8985621099
  0
LWPOLYLINE
  5
304
100
AcDbEntity
  8
RACCORDO
100
AcDbPolyline
 62
253
  6
CONTINUOUS
 90
16
 70
0
 10
3.4222873031
 20
18.4889146604
 10
3.4219829866
 20
18.4827489164
 10
3.4210001873
 20
18.4762467768
 10
3.419340582
 20
18.4697791095
 10
3.4170086624
 20
18.4633634567
 10
3.4140107867
 20
18.4570173361
 10
3.4103552116
 20
18.4507581716
 10
3.4060520102
 20
18.4446030894
 10
3.4011128836
 20
18.438568724
 10
3.3955511704
 20
18.4326713386
 10
3.3893813503
 20
18.4269264073
 10
3.382620743
 20
18.4213501664
 10
3.3752898607
 20
18.4159592615
 10
3.3674098648
 20
18.410768667
 10
3.3590019697
 20
18.4057918109
 10
3.3500894461
 20
18.4010420295
  0
LINE
  5
305
100
AcDbEntity
  8
RACCORDO
100
AcDbLine
 62
7
  6
CONTINUOUS
 10
-10.379217443
 20
-8.9238071091
 11
-10.379595685
 21
-8.9240013182
  0
LWPOLYLINE
  5
306
100
AcDbEntity
  8
RACCORDO
100
AcDbPolyline
 62
253
  6
CONTINUOUS
 90
23
 70
0
 10
-10.379595685
 20
-8.9240013182
 10
-10.3839317828
 20
-8.9262051287
 10
-10.4154161869
 20
-8.9410006736
 10
-10.4477182272
 20
-8.9540977971
 10
-10.480807821
 20
-8.9654860346
 10
-10.5146422283
 20
-8.9751523666
 10
-10.549190533
 20
-8.9830895671
 10
-10.5844408882
 20
-8.989294629
 10
-10.6203619331
 20
-8.9937588511
 10
-10.6569100314
 20
-8.9964736236
 10
-10.6940554567
 20
-8.997434357
 10
-10.7317738338
 20
-8.9966357785
 10
-10.7700108569
 20
-8.9940742983
 10
-10.8086898632
 20
-8.9897548273
 10
-10.8477715726
 20
-8.9836831467
 10
-10.8872104196
 20
-8.9758674202
 10
-10.9269173568
 20
-8.9663302976
 10
-10.9668485416
 20
-8.9550898392
 10
-11.0069599177
 20
-8.942165531
 10
-11.0471604523
 20
-8.9275969845
 10
-11.0873904258
 20
-8.9114198298
 10
-11.1276222332
 20
-8.8936589693
 10
-11.1678131596
 20
-8.8743461359
  0
LWPOLYLINE
  5
307
100
AcDbEntity
  8
RACCORDO
100
AcDbPolyline
 62
253
  6
CONTINUOUS
 90
14
 70
0
 10
-10.0142287183
 20
25.0832011117
 10
-10.0098811572
 20
25.0758482426
 10
-10.0060310089
 20
25.0687554144
 10
-10.0026887872
 20
25.0619419961
 10
-9.999863619
 20
25.0554265938
 10
-9.9975632194
 20
25.0492269997
 10
-9.9957938702
 20
25.0433601435
 10
-9.9945604031
 20
25.0378420464
 10
-9.9938661865
 20
25.0326877772
 10
-9.9937131161
 20
25.0279114111
 10
-9.99410161
 20
25.0235259913
 10
-9.9950306072
 20
25.0195434936
 10
-9.9964975709
 20
25.0159747933
 10
-9.9984544635
 20
25.0128988468
  0
LWPOLYLINE
  5
308
100
AcDbEntity
  8
ASSI
100
AcDbPolyline
 62
7
  6
CONTINUOUS
 90
6
 70
0
 10
3.8508330042
 20
22.9651032068
 10
3.8507945419
 20
22.9661635039
 10
3.8500463045
 20
22.9696261954
 10
3.848384437
 20
22.9724763968
 10
3.8458537193
 20
22.9747642622
 10
3.8440171633
 20
22.9758362438
  0
LINE
  5
309
100
AcDbEntity
  8
RACCORDO
100
AcDbLine
 62
253
  6
CONTINUOUS
 10
8.4381952051
 20
20.7833026976
 11
8.4381952051
 21
20.2859727406
  0
LINE
  5
30A
100
AcDbEntity
  8
RACCORDO
100
AcDbLine
 62
253
  6
CONTINUOUS
 10
8.4381952051
 20
-16.2771167068
 11
8.4381952051
 21
-16.5700624676
  0
LINE
  5
30B
100
AcDbEntity
  8
RACCORDO
100
AcDbLine
 62
7
  6
CONTINUOUS
 10
8.5785253049
 20
21.0838072063
 11
8.5785253049
 21
20.4622368142
  0
LINE
  5
30C
100
AcDbEntity
  8
RACCORDO
100
AcDbLine
 62
7
  6
CONTINUOUS
 10
8.5785253049
 20
-16.2029078384
 11
8.5785253049
 21
-16.5232377911
  0
LINE
  5
30D
100
AcDbEntity
  8
RACCORDO
100
AcDbLine
 62
7
  6
CONTINUOUS
 10
9.5729483643
 20
23.1607672583
 11
9.5729483643
 21
22.9179397638
  0
LINE
  5
30E
100
AcDbEntity
  8
RACCORDO
100
AcDbLine
 62
7
  6
CONTINUOUS
 10
10.8301243102
 20
-13.9834869927
 11
10.8301243102
 21
-12.6513899012
  0
LINE
  5
30F
100
AcDbEntity
  8
RACCORDO
100
AcDbLine
 62
7
  6
CONTINUOUS
 10
10.8301243102
 20
15.1674670923
 11
10.8301243102
 21
16.4995641838
  0
LWPOLYLINE
  5
310
100
AcDbEntity
  8
RACCORDO
100
AcDbPolyline
 62
7
  6
CONTINUOUS
 90
27
 70
0
 10
10.8301243102
 20
-12.6513887533
 10
10.8305038281
 20
-12.6255578969
 10
10.8314593882
 20
-12.5996068929
 10
10.8329909906
 20
-12.5735357413
 10
10.8351262431
 20
-12.5473207701
 10
10.8378375378
 20
-12.5209856512
 10
10.8410420519
 20
-12.4946014014
 10
10.8447363757
 20
-12.4681744169
 10
10.8489239189
 20
-12.4416983015
 10
10.8535320877
 20
-12.4152248823
 10
10.8585579434
 20
-12.3887589977
 10
10.8640044246
 20
-12.3622958094
 10
10.8698077543
 20
-12.3358726296
 10
10.8759654472
 20
-12.3094931104
 10
10.8824799886
 20
-12.2831535996
 10
10.8892950562
 20
-12.2568804535
 10
10.8964085296
 20
-12.2306765065
 10
10.9038225293
 20
-12.2045389241
 10
10.9114870945
 20
-12.1784855587
 10
10.9194004479
 20
-12.1525185144
 10
10.9275643668
 20
-12.1266356871
 10
10.9359342228
 20
-12.1008486171
 10
10.9445085165
 20
-12.0751589029
 10
10.9532887474
 20
-12.049564946
 10
10.9622347847
 20
-12.0240734915
 10
10.9713453774
 20
-11.9986856871
 10
10.9806217765
 20
-11.9734003851
  0
LWPOLYLINE
  5
311
100
AcDbEntity
  8
RACCORDO
100
AcDbPolyline
 62
253
  6
CONTINUOUS
 90
31
 70
0
 10
3.3500894461
 20
-22.8985621099
 10
3.3544325874
 20
-22.886338529
 10
3.3582803964
 20
-22.8739053386
 10
3.3616219651
 20
-22.8612962795
 10
3.3644479894
 20
-22.8485444357
 10
3.3667499893
 20
-22.8356856767
 10
3.3685208218
 20
-22.822758643
 10
3.3697555528
 20
-22.8097999496
 10
3.3704510157
 20
-22.7968436868
 10
3.3706053085
 20
-22.7839249159
 10
3.3702179586
 20
-22.7710787106
 10
3.3692899768
 20
-22.7583403787
 10
3.3678239006
 20
-22.7457450332
 10
3.3658237549
 20
-22.7333271888
 10
3.363294992
 20
-22.7211206483
 10
3.3602445108
 20
-22.7091587237
 10
3.3566806334
 20
-22.6974740707
 10
3.3526130951
 20
-22.6860986263
 10
3.3480530138
 20
-22.6750634901
 10
3.3430128492
 20
-22.6643988117
 10
3.3375063646
 20
-22.6541337117
 10
3.3315486005
 20
-22.6442962287
 10
3.3251558201
 20
-22.6349132187
 10
3.3183454932
 20
-22.6260103259
 10
3.3111362554
 20
-22.6176119045
 10
3.3035478259
 20
-22.6097409092
 10
3.2956009158
 20
-22.6024188055
 10
3.287317199
 20
-22.595665557
 10
3.2787192884
 20
-22.5894995999
 10
3.2698306797
 20
-22.5839377854
 10
3.2606756508
 20
-22.5789953039
  0
LINE
  5
312
100
AcDbEntity
  8
RACCORDO
100
AcDbLine
 62
253
  6
CONTINUOUS
 10
-3.7148543824
 20
12.1415608066
 11
-18.5397004601
 21
19.5539838455
  0
LWPOLYLINE
  5
313
100
AcDbEntity
  8
RACCORDO
100
AcDbPolyline
 62
253
  6
CONTINUOUS
 90
43
 70
0
 10
11.17144375
 20
14.3827405154
 10
11.1710784425
 20
14.4042121206
 10
11.1702828764
 20
14.4259229158
 10
11.1690552243
 20
14.4478603236
 10
11.1673931999
 20
14.4700166328
 10
11.1652960472
 20
14.4923737599
 10
11.1627655921
 20
14.5149028928
 10
11.1598021296
 20
14.5375901737
 10
11.1564061028
 20
14.5604217582
 10
11.1525818405
 20
14.5833680669
 10
11.1483315898
 20
14.606413702
 10
11.1436573886
 20
14.6295452238
 10
11.138565305
 20
14.6527355414
 10
11.1330602425
 20
14.6759646013
 10
11.1271448035
 20
14.6992232054
 10
11.1208225304
 20
14.7225004534
 10
11.1140980835
 20
14.7457799695
 10
11.1069753337
 20
14.7690490214
 10
11.0994563577
 20
14.7923021964
 10
11.0915446013
 20
14.8155277332
 10
11.0832455693
 20
14.8387083411
 10
11.0745643066
 20
14.8618303096
 10
11.0655053883
 20
14.8848806365
 10
11.0560746889
 20
14.9078434194
 10
11.04627973
 20
14.9307007043
 10
11.0361270109
 20
14.9534373295
 10
11.0256223776
 20
14.9760400387
 10
11.0147729513
 20
14.9984939277
 10
11.003585836
 20
15.0207844496
 10
10.9920676998
 20
15.0428983459
 10
10.9802253394
 20
15.0648228058
 10
10.9680661722
 20
15.0865441725
 10
10.9555977239
 20
15.1080489744
 10
10.9428271776
 20
15.1293248225
 10
10.9297624644
 20
15.1503585276
 10
10.9164117056
 20
15.1711369462
 10
10.9027825795
 20
15.1916479236
 10
10.888883197
 20
15.2118792277
 10
10.874722538
 20
15.2318176655
 10
10.8603098525
 20
15.25144991
 10
10.8456535986
 20
15.2707645509
 10
10.8307635012
 20
15.2897487682
 10
10.8301243102
 20
15.2905371138
  0
LINE
  5
314
100
AcDbEntity
  8
RACCORDO
100
AcDbLine
 62
253
  6
CONTINUOUS
 10
-2.6989159893
 20
13.881678771
 11
-17.54713445
 21
21.3057880013
  0
LWPOLYLINE
  5
315
100
AcDbEntity
  8
RACCORDO
100
AcDbPolyline
 62
253
  6
CONTINUOUS
 90
14
 70
0
 10
3.3500894461
 20
18.4010420295
 10
3.3544370072
 20
18.3936891604
 10
3.3582871556
 20
18.3865963322
 10
3.3616293773
 20
18.3797829139
 10
3.3644545454
 20
18.3732675116
 10
3.366754945
 20
18.3670679175
 10
3.3685242943
 20
18.3612010613
 10
3.3697577613
 20
18.3556829642
 10
3.3704519779
 20
18.350528695
 10
3.3706050483
 20
18.3457523289
 10
3.3702165544
 20
18.3413669091
 10
3.3692875572
 20
18.3373844114
 10
3.3678205935
 20
18.3338157111
 10
3.3658637009
 20
18.3307397646
  0
LINE
  5
316
100
AcDbEntity
  8
RACCORDO
100
AcDbLine
 62
7
  6
CONTINUOUS
 10
10.9806217765
 20
-11.9734003851
 11
10.9911461637
 21
-11.9452532523
  0
LWPOLYLINE
  5
317
100
AcDbEntity
  8
RACCORDO
100
AcDbPolyline
 62
7
  6
CONTINUOUS
 90
5
 70
0
 10
10.9911461637
 20
-11.9452532523
 10
10.9995618415
 20
-11.9231479241
 10
11.0092255072
 20
-11.8981807652
 10
11.0189852874
 20
-11.873320518
 10
11.0288403419
 20
-11.8485676384
  0
LINE
  5
318
100
AcDbEntity
  8
RACCORDO
100
AcDbLine
 62
7
  6
CONTINUOUS
 10
11.0288403419
 20
-11.8485676384
 11
11.0488079989
 21
-11.7993823542
  0
LINE
  5
319
100
AcDbEntity
  8
RACCORDO
100
AcDbLine
 62
7
  6
CONTINUOUS
 10
11.0488079989
 20
-11.7993823542
 11
11.0690356316
 21
-11.7506238142
  0
LINE
  5
31A
100
AcDbEntity
  8
RACCORDO
100
AcDbLine
 62
7
  6
CONTINUOUS
 10
11.0690356316
 20
-11.7506238142
 11
11.0894375361
 21
-11.7022903304
  0
LINE
  5
31B
100
AcDbEntity
  8
RACCORDO
100
AcDbLine
 62
7
  6
CONTINUOUS
 10
11.0894375361
 20
-11.7022903304
 11
11.1202306464
 21
-11.6305857446
  0
LWPOLYLINE
  5
31C
100
AcDbEntity
  8
RACCORDO
100
AcDbPolyline
 62
7
  6
CONTINUOUS
 90
3
 70
0
 10
11.1202306464
 20
-11.6305857446
 10
11.1612390244
 20
-11.5364749039
 10
11.1714437719
 20
-11.513216686
  0
LINE
  5
31D
100
AcDbEntity
  8
RACCORDO
100
AcDbLine
 62
253
  6
CONTINUOUS
 10
11.1714437719
 20
-11.513216686
 11
18.4846556677
 21
-7.5675710907
  0
LWPOLYLINE
  5
31E
100
AcDbEntity
  8
RACCORDO
100
AcDbPolyline
 62
253
  6
CONTINUOUS
 90
30
 70
0
 10
18.4846556677
 20
-7.5675710907
 10
18.5033122468
 20
-7.557644241
 10
18.521422182
 20
-7.547466309
 10
18.5389719247
 20
-7.5370448036
 10
18.555948689
 20
-7.5263871902
 10
18.572339384
 20
-7.5155015555
 10
18.5881307484
 20
-7.5043966483
 10
18.6033107315
 20
-7.4930809641
 10
18.6178684105
 20
-7.4815626668
 10
18.6317930048
 20
-7.4698502839
 10
18.6450741904
 20
-7.4579524927
 10
18.6577020772
 20
-7.4458781462
 10
18.669667253
 20
-7.4336362419
 10
18.6809608221
 20
-7.4212358836
 10
18.6915744106
 20
-7.408686268
 10
18.7015001409
 20
-7.3959967105
 10
18.7107306432
 20
-7.383176633
 10
18.7192590614
 20
-7.3702355575
 10
18.7270790623
 20
-7.3571830944
 10
18.7341848383
 20
-7.3440289375
 10
18.740571113
 20
-7.3307828547
 10
18.746233145
 20
-7.3174546804
 10
18.7511667294
 20
-7.3040543118
 10
18.755368202
 20
-7.2905917007
 10
18.7588344424
 20
-7.2770768445
 10
18.7615628762
 20
-7.2635197794
 10
18.7635514769
 20
-7.2499305732
 10
18.7647987673
 20
-7.2363193175
 10
18.765303821
 20
-7.2226961201
 10
18.7653158671
 20
-7.2202546733
  0
LINE
  5
31F
100
AcDbEntity
  8
RACCORDO
100
AcDbLine
 62
7
  6
CONTINUOUS
 10
1.579240132
 20
16.3755352623
 11
0.2460277983
 21
17.0421414291
  0
LINE
  5
320
100
AcDbEntity
  8
RACCORDO
100
AcDbLine
 62
7
  6
CONTINUOUS
 10
-11.7850780324
 20
23.0576943445
 11
-13.1182903661
 21
23.7243005113
  0
LWPOLYLINE
  5
321
100
AcDbEntity
  8
RACCORDO
100
AcDbPolyline
 62
253
  6
CONTINUOUS
 90
16
 70
0
 10
-13.8212833204
 20
24.6876029345
 10
-13.8302603876
 20
24.6923319436
 10
-13.8387320802
 20
24.6972885621
 10
-13.8466753495
 20
24.7024593047
 10
-13.8540685846
 20
24.7078301035
 10
-13.8608916708
 20
24.7133863463
 10
-13.8671260449
 20
24.7191129165
 10
-13.872754745
 20
24.7249942339
 10
-13.8777624575
 20
24.7310142974
 10
-13.882135558
 20
24.7371567285
 10
-13.8858621486
 20
24.7434048155
 10
-13.8889320907
 20
24.7497415595
 10
-13.8913370318
 20
24.7561497203
 10
-13.893070429
 20
24.7626118635
 10
-13.8941275662
 20
24.7691104077
 10
-13.8945066251
 20
24.7759912822
  0
LINE
  5
322
100
AcDbEntity
  8
RACCORDO
100
AcDbLine
 62
253
  6
CONTINUOUS
 10
1.5787259036
 20
-22.9798990357
 11
0.9564078715
 21
-23.7249584532
  0
LINE
  5
323
100
AcDbEntity
  8
RACCORDO
100
AcDbLine
 62
253
  6
CONTINUOUS
 10
1.9317620916
 20
-23.1056688737
 11
1.2205414835
 21
-23.9571653508
  0
LWPOLYLINE
  5
324
100
AcDbEntity
  8
RACCORDO
100
AcDbPolyline
 62
253
  6
CONTINUOUS
 90
33
 70
0
 10
10.9627667444
 20
-12.0225911193
 10
10.9680661722
 20
-12.018750425
 10
10.9802253394
 20
-12.0091774067
 10
10.9920676998
 20
-11.9990736011
 10
11.003585836
 20
-11.9884452774
 10
11.0147729513
 20
-11.9772985802
 10
11.0256223776
 20
-11.9656399888
 10
11.0361270109
 20
-11.9534769452
 10
11.04627973
 20
-11.9408175079
 10
11.0560746889
 20
-11.9276689192
 10
11.0655053883
 20
-11.9140398125
 10
11.0745643066
 20
-11.8999410706
 10
11.0832455693
 20
-11.8853825175
 10
11.0915446013
 20
-11.8703724833
 10
11.0994563577
 20
-11.8549202163
 10
11.1069753337
 20
-11.8390373053
 10
11.1140980835
 20
-11.8227318866
 10
11.1208225304
 20
-11.8060079108
 10
11.1271448035
 20
-11.7888740078
 10
11.1330602425
 20
-11.7713417269
 10
11.138565305
 20
-11.7534191515
 10
11.1436573886
 20
-11.7351125332
 10
11.1483315898
 20
-11.7164369156
 10
11.1525818405
 20
-11.6974143617
 10
11.1564061028
 20
-11.6780558509
 10
11.1598021296
 20
-11.6583743638
 10
11.1627655921
 20
-11.638396485
 10
11.1652960472
 20
-11.6181351444
 10
11.1673931999
 20
-11.5976036459
 10
11.1690552243
 20
-11.5768305425
 10
11.1702828764
 20
-11.5558348964
 10
11.1710784425
 20
-11.5346256248
 10
11.17144375
 20
-11.5132166978
  0
LWPOLYLINE
  5
325
100
AcDbEntity
  8
RACCORDO
100
AcDbPolyline
 62
7
  6
CONTINUOUS
 90
40
 70
0
 10
18.2401396878
 20
-8.1003227765
 10
18.2640155904
 20
-8.0870167239
 10
18.2875521284
 20
-8.0730427541
 10
18.3107260068
 20
-8.0584112081
 10
18.3335180578
 20
-8.0431308839
 10
18.3559020458
 20
-8.0272164812
 10
18.3778454057
 20
-8.0106896044
 10
18.3992821754
 20
-7.9936025719
 10
18.4202398119
 20
-7.9759367029
 10
18.4408187858
 20
-7.9575992186
 10
18.4610783564
 20
-7.9385138309
 10
18.4808987666
 20
-7.9187697248
 10
18.5001158905
 20
-7.8985257149
 10
18.5186592832
 20
-7.8778692299
 10
18.5365757395
 20
-7.8567622977
 10
18.5538875404
 20
-7.8351847618
 10
18.5705148616
 20
-7.8132466101
 10
18.5865144629
 20
-7.7908844088
 10
18.6020843108
 20
-7.7677988177
 10
18.6173427474
 20
-7.7437399433
 10
18.6320756045
 20
-7.7189678404
 10
18.645995925
 20
-7.6939534592
 10
18.6589791457
 20
-7.6689800753
 10
18.6711699452
 20
-7.6438317892
 10
18.6827025833
 20
-7.6182389073
 10
18.6935937138
 20
-7.5921293075
 10
18.7037807904
 20
-7.5656164677
 10
18.7132529428
 20
-7.5386995968
 10
18.7220355455
 20
-7.5112530002
 10
18.7300554697
 20
-7.4834480978
 10
18.7371921535
 20
-7.4557339105
 10
18.743380304
 20
-7.4285444681
 10
18.7487514634
 20
-7.4014998088
 10
18.7534514766
 20
-7.3738258169
 10
18.7575048671
 20
-7.3449855926
 10
18.7607621242
 20
-7.3155663473
 10
18.7631201163
 20
-7.2864739289
 10
18.7645939045
 20
-7.258234065
 10
18.7652647514
 20
-7.2303527205
 10
18.7653158671
 20
-7.2202546733
  0
LINE
  5
326
100
AcDbEntity
  8
RACCORDO
100
AcDbLine
 62
7
  6
CONTINUOUS
 10
10.9610027438
 20
-12.0275841535
 11
18.2401396878
 21
-8.1003227765
  0
LINE
  5
327
100
AcDbEntity
  8
0
100
AcDbLine
 62
253
  6
CONTINUOUS
 10
3.8824824462
 20
-17.6433485885
 11
10.8301243102
 21
-13.9834869927
  0
LINE
  5
328
100
AcDbEntity
  8
RACCORDO
100
AcDbLine
 62
7
  6
CONTINUOUS
 10
0.99369799
 20
17.1866176277
 11
1.6181032394
 21
17.0562412323
  0
LINE
  5
329
100
AcDbEntity
  8
RACCORDO
100
AcDbLine
 62
253
  6
CONTINUOUS
 10
1.2205414835
 20
17.3424387885
 11
1.9317620916
 21
17.1939352657
  0
LWPOLYLINE
  5
32A
100
AcDbEntity
  8
RACCORDO
100
AcDbPolyline
 62
253
  6
CONTINUOUS
 90
15
 70
0
 10
-0.2812169
 20
18.6497946014
 10
-0.2904985886
 20
18.6540874878
 10
-0.2997579524
 20
18.6577816257
 10
-0.3089696253
 20
18.6608657834
 10
-0.318110194
 20
18.6633308168
 10
-0.3271525145
 20
18.6651680882
 10
-0.3360660246
 20
18.666370817
 10
-0.3448243842
 20
18.666935652
 10
-0.3534055439
 20
18.6668613779
 10
-0.3617862101
 20
18.6661481705
 10
-0.3699435443
 20
18.6647979006
 10
-0.3778549974
 20
18.6628142261
 10
-0.3854986298
 20
18.6602026221
 10
-0.3928533924
 20
18.6569703004
 10
-0.3943025602
 20
18.6562425796
  0
LWPOLYLINE
  5
32B
100
AcDbEntity
  8
RACCORDO
100
AcDbPolyline
 62
253
  6
CONTINUOUS
 90
15
 70
0
 10
-13.6455350644
 20
25.3319536836
 10
-13.6548409373
 20
25.3362569865
 10
-13.6641184927
 20
25.3399562531
 10
-13.6733422911
 20
25.3430413362
 10
-13.6824870486
 20
25.3455037745
 10
-13.6915276805
 20
25.3473368087
 10
-13.7004393708
 20
25.348535406
 10
-13.7091976776
 20
25.3490962811
 10
-13.7177785915
 20
25.3490178986
 10
-13.7261585759
 20
25.3483004757
 10
-13.7343146521
 20
25.3469459834
 10
-13.7422244587
 20
25.3449581388
 10
-13.7498663055
 20
25.342342397
 10
-13.7572192484
 20
25.33910593
 10
-13.7586135725
 20
25.3384053305
  0
LWPOLYLINE
  5
32C
100
AcDbEntity
  8
RACCORDO
100
AcDbPolyline
 62
253
  6
CONTINUOUS
 90
31
 70
0
 10
0.8680195239
 20
17.3429515124
 10
0.8774775421
 20
17.3384629788
 10
0.8873907791
 20
17.3342271325
 10
0.8977322642
 20
17.3302554978
 10
0.9084738618
 20
17.3265588803
 10
0.9195863475
 20
17.3231473372
 10
0.9310394878
 20
17.3200301501
 10
0.9428021227
 20
17.3172158
 10
0.9548422497
 20
17.3147119438
 10
0.9671271118
 20
17.3125253936
 10
0.9796232858
 20
17.3106620983
 10
0.9922967739
 20
17.3091271272
 10
1.0051130956
 20
17.3079246567
 10
1.0180373819
 20
17.3070579581
 10
1.0310344702
 20
17.3065293895
 10
1.0440689997
 20
17.3063403889
 10
1.0571055077
 20
17.3064914706
 10
1.0701085262
 20
17.3069822234
 10
1.0830426783
 20
17.3078113124
 10
1.0958727744
 20
17.3089764816
 10
1.108563908
 20
17.3104745612
 10
1.1210815509
 20
17.3123014753
 10
1.1333916466
 20
17.3144522535
 10
1.1454607034
 20
17.3169210443
 10
1.1572558854
 20
17.3197011308
 10
1.1687451019
 20
17.3227849494
 10
1.1798970944
 20
17.3261641101
 10
1.190681522
 20
17.3298294192
 10
1.201069044
 20
17.3337709046
 10
1.2110313993
 20
17.337977843
 10
1.2205414835
 20
17.3424387885
  0
LWPOLYLINE
  5
32D
100
AcDbEntity
  8
RACCORDO
100
AcDbPolyline
 62
253
  6
CONTINUOUS
 90
31
 70
0
 10
-12.4962986405
 20
24.0251105946
 10
-12.4868406224
 20
24.020622061
 10
-12.4769273854
 20
24.0163862147
 10
-12.4665859002
 20
24.01241458
 10
-12.4558443026
 20
24.0087179625
 10
-12.4447318169
 20
24.0053064194
 10
-12.4332786766
 20
24.0021892323
 10
-12.4215160418
 20
23.9993748823
 10
-12.4094759147
 20
23.996871026
 10
-12.3971910526
 20
23.9946844758
 10
-12.3846948786
 20
23.9928211805
 10
-12.3720213906
 20
23.9912862094
 10
-12.3592050689
 20
23.9900837389
 10
-12.3462807825
 20
23.9892170403
 10
-12.3332836942
 20
23.9886884717
 10
-12.3202491647
 20
23.9884994711
 10
-12.3072126567
 20
23.9886505528
 10
-12.2942096382
 20
23.9891413057
 10
-12.2812754862
 20
23.9899703946
 10
-12.2684453901
 20
23.9911355638
 10
-12.2557542564
 20
23.9926336434
 10
-12.2432366135
 20
23.9944605575
 10
-12.2309265178
 20
23.9966113357
 10
-12.218857461
 20
23.9990801265
 10
-12.207062279
 20
24.001860213
 10
-12.1955730626
 20
24.0049440316
 10
-12.1844210701
 20
24.0083231923
 10
-12.1736366424
 20
24.0119885014
 10
-12.1632491204
 20
24.0159299869
 10
-12.1532867652
 20
24.0201369252
 10
-12.1437766809
 20
24.0245978707
  0
LWPOLYLINE
  5
32E
100
AcDbEntity
  8
RACCORDO
100
AcDbPolyline
 62
253
  6
CONTINUOUS
 90
31
 70
0
 10
0.8680195239
 20
17.6829254465
 10
0.8774796733
 20
17.6784359531
 10
0.8873952598
 20
17.674199251
 10
0.8977392977
 20
17.6702268738
 10
0.9084836459
 20
17.6665296322
 10
0.9195990514
 20
17.663117596
 10
0.931055225
 20
17.6600000638
 10
0.9428209743
 20
17.6571855227
 10
0.9548642816
 20
17.6546816303
 10
0.9671523542
 20
17.6524952032
 10
0.9796517418
 20
17.6506321913
 10
0.9923284236
 20
17.6490976635
 10
1.0051478895
 20
17.6478957951
 10
1.018075261
 20
17.6470298547
 10
1.0310753361
 20
17.6465021988
 10
1.0441126795
 20
17.6463142614
 10
1.0571517508
 20
17.6464665467
 10
1.0701571158
 20
17.6469586325
 10
1.0830934901
 20
17.6477891822
 10
1.0959258292
 20
17.6489559552
 10
1.1086190364
 20
17.65045577
 10
1.1211381856
 20
17.6522844867
 10
1.1334489823
 20
17.6544370561
 10
1.1455181871
 20
17.6569076261
 10
1.1573133048
 20
17.65968953
 10
1.1688047274
 20
17.6627759092
 10
1.1799585439
 20
17.6661577839
 10
1.1907376995
 20
17.669823543
 10
1.2011114655
 20
17.6737618288
 10
1.2110547695
 20
17.6779621813
 10
1.2205414835
 20
17.6824127227
  0
LWPOLYLINE
  5
32F
100
AcDbEntity
  8
RACCORDO
100
AcDbPolyline
 62
253
  6
CONTINUOUS
 90
31
 70
0
 10
-12.4962986405
 20
24.3650845287
 10
-12.4868406224
 20
24.3605959951
 10
-12.4769273854
 20
24.3563601488
 10
-12.4665859002
 20
24.3523885141
 10
-12.4558443026
 20
24.3486918966
 10
-12.4447318169
 20
24.3452803535
 10
-12.4332786766
 20
24.3421631665
 10
-12.4215160418
 20
24.3393488164
 10
-12.4094759147
 20
24.3368449601
 10
-12.3971910526
 20
24.3346584099
 10
-12.3846948786
 20
24.3327951146
 10
-12.3720213906
 20
24.3312601436
 10
-12.3592050689
 20
24.330057673
 10
-12.3462807825
 20
24.3291909744
 10
-12.3332836942
 20
24.3286624058
 10
-12.3202491647
 20
24.3284734052
 10
-12.3072126567
 20
24.3286244869
 10
-12.2942096382
 20
24.3291152398
 10
-12.2812754862
 20
24.3299443287
 10
-12.2684453901
 20
24.331109498
 10
-12.2557542564
 20
24.3326075775
 10
-12.2432366135
 20
24.3344344916
 10
-12.2309265178
 20
24.3365852698
 10
-12.218857461
 20
24.3390540606
 10
-12.207062279
 20
24.3418341471
 10
-12.1955730626
 20
24.3449179658
 10
-12.1844210701
 20
24.3482971264
 10
-12.1736366424
 20
24.3519624355
 10
-12.1632491204
 20
24.355903921
 10
-12.1532867652
 20
24.3601108593
 10
-12.1437766809
 20
24.3645718049
  0
LWPOLYLINE
  5
330
100
AcDbEntity
  8
RACCORDO
100
AcDbPolyline
 62
7
  6
CONTINUOUS
 90
7
 70
0
 10
0.9329928929
 20
17.207733026
 10
0.9416434786
 20
17.2036130234
 10
0.9534797815
 20
17.1986140381
 10
0.9655782777
 20
17.1942227629
 10
0.9779098106
 20
17.1904535625
 10
0.9904408865
 20
17.1873203981
 10
0.9936980705
 20
17.186617611
  0
LWPOLYLINE
  5
331
100
AcDbEntity
  8
RACCORDO
100
AcDbPolyline
 62
7
  6
CONTINUOUS
 90
7
 70
0
 10
-12.4313252716
 20
23.8898921082
 10
-12.4226746858
 20
23.8857721056
 10
-12.4108383829
 20
23.8807731203
 10
-12.3987398867
 20
23.8763818451
 10
-12.3864083538
 20
23.8726126447
 10
-12.373877278
 20
23.8694794803
 10
-12.370620094
 20
23.8687766932
  0
LINE
  5
332
100
AcDbEntity
  8
RACCORDO
100
AcDbLine
 62
7
  6
CONTINUOUS
 10
-8.1716252763
 20
21.6272145911
 11
-2.6603181766
 21
18.8715610413
  0
LINE
  5
333
100
AcDbEntity
  8
RACCORDO
100
AcDbLine
 62
7
  6
CONTINUOUS
 10
-13.7563100239
 20
24.5523844844
 11
-12.4313253441
 21
23.8898921445
  0
LINE
  5
334
100
AcDbEntity
  8
RACCORDO
100
AcDbLine
 62
7
  6
CONTINUOUS
 10
-0.3919918595
 20
17.8702254022
 11
0.9329928203
 21
17.2077330623
  0
LINE
  5
335
100
AcDbEntity
  8
RACCORDO
100
AcDbLine
 62
253
  6
CONTINUOUS
 10
-13.8212833204
 20
24.6876029345
 11
-12.4962986405
 21
24.0251105946
  0
LINE
  5
336
100
AcDbEntity
  8
RACCORDO
100
AcDbLine
 62
253
  6
CONTINUOUS
 10
-0.4569651559
 20
18.0054438523
 11
0.8680195239
 21
17.3429515124
  0
LINE
  5
337
100
AcDbEntity
  8
RACCORDO
100
AcDbLine
 62
253
  6
CONTINUOUS
 10
0.8680195239
 20
17.6829254465
 11
-0.4569651559
 21
18.3454177864
  0
LINE
  5
338
100
AcDbEntity
  8
RACCORDO
100
AcDbLine
 62
253
  6
CONTINUOUS
 10
-12.4962986405
 20
24.3650845287
 11
-13.8212833204
 21
25.0275768686
  0
LINE
  5
339
100
AcDbEntity
  8
DRAFT
100
AcDbLine
 62
7
  6
CONTINUOUS
 10
-10.5424958901
 20
23.5651431474
 11
-8.3180718857
 21
22.4529311452
  0
LINE
  5
33A
100
AcDbEntity
  8
DRAFT
100
AcDbLine
 62
7
  6
CONTINUOUS
 10
-1.597595108
 20
19.0926927564
 11
-0.5036545074
 21
18.5457224561
  0
LINE
  5
33B
100
AcDbEntity
  8
RACCORDO
100
AcDbLine
 62
7
  6
CONTINUOUS
 10
2.8218222744
 20
16.8829840652
 11
2.8450807941
 21
16.8713548053
  0
LINE
  5
33C
100
AcDbEntity
  8
RACCORDO
100
AcDbLine
 62
253
  6
CONTINUOUS
 10
1.0437677799
 20
17.9873022615
 11
-0.2812169
 21
18.6497946014
  0
LINE
  5
33D
100
AcDbEntity
  8
RACCORDO
100
AcDbLine
 62
253
  6
CONTINUOUS
 10
-12.3205503846
 20
24.6694613437
 11
-13.6455350644
 21
25.3319536836
  0
LINE
  5
33E
100
AcDbEntity
  8
RACCORDO
100
AcDbLine
 62
253
  6
CONTINUOUS
 10
-2.6603181766
 20
19.9521443521
 11
-8.1716252763
 21
22.7077979019
  0
LINE
  5
33F
100
AcDbEntity
  8
RACCORDO
100
AcDbLine
 62
253
  6
CONTINUOUS
 10
-2.2374957968
 20
20.0545339165
 11
-8.3132504466
 21
23.0924112414
  0
LINE
  5
340
100
AcDbEntity
  8
RACCORDO
100
AcDbLine
 62
7
  6
CONTINUOUS
 10
-10.5424958901
 20
24.2646922394
 11
-9.1344531551
 21
23.5606708719
  0
LINE
  5
341
100
AcDbEntity
  8
RACCORDO
100
AcDbLine
 62
7
  6
CONTINUOUS
 10
2.8218222744
 20
17.5825331572
 11
3.5641874555
 21
17.2113505666
  0
LINE
  5
342
100
AcDbEntity
  8
DRAFT
100
AcDbLine
 62
7
  6
CONTINUOUS
 10
-7.8201347825
 20
23.4163981589
 11
-1.597595108
 21
20.3051283217
  0
LWPOLYLINE
  5
343
100
AcDbEntity
  8
RACCORDO
100
AcDbPolyline
 62
253
  6
CONTINUOUS
 90
16
 70
0
 10
-13.8212833204
 20
25.0275768686
 10
-13.8302603876
 20
25.0323058777
 10
-13.8387320802
 20
25.0372624962
 10
-13.8466753495
 20
25.0424332388
 10
-13.8540685846
 20
25.0478040376
 10
-13.8608916708
 20
25.0533602804
 10
-13.8671260449
 20
25.0590868506
 10
-13.872754745
 20
25.064968168
 10
-13.8777624575
 20
25.0709882315
 10
-13.882135558
 20
25.0771306626
 10
-13.8858621486
 20
25.0833787496
 10
-13.8889320907
 20
25.0897154936
 10
-13.8913370318
 20
25.0961236545
 10
-13.893070429
 20
25.1025857976
 10
-13.8941275662
 20
25.1090843418
 10
-13.8945066251
 20
25.1159652163
  0
LWPOLYLINE
  5
344
100
AcDbEntity
  8
RACCORDO
100
AcDbPolyline
 62
253
  6
CONTINUOUS
 90
16
 70
0
 10
-0.4569651559
 20
18.0054438523
 10
-0.4659422231
 20
18.0101728614
 10
-0.4744139158
 20
18.0151294799
 10
-0.4823571851
 20
18.0203002225
 10
-0.4897504202
 20
18.0256710213
 10
-0.4965735064
 20
18.0312272641
 10
-0.5028078804
 20
18.0369538343
 10
-0.5084365806
 20
18.0428351517
 10
-0.5134442931
 20
18.0488552152
 10
-0.5178173935
 20
18.0549976462
 10
-0.5215439842
 20
18.0612457333
 10
-0.5246139262
 20
18.0675824773
 10
-0.5270188674
 20
18.0739906381
 10
-0.5287522646
 20
18.0804527813
 10
-0.5298094018
 20
18.0869513255
 10
-0.5301884606
 20
18.0938321999
  0
LWPOLYLINE
  5
345
100
AcDbEntity
  8
RACCORDO
100
AcDbPolyline
 62
253
  6
CONTINUOUS
 90
16
 70
0
 10
-0.4569651559
 20
18.3454177864
 10
-0.4659218572
 20
18.350135492
 10
-0.4743806393
 20
18.3550828882
 10
-0.4823176172
 20
18.3602469673
 10
-0.4897117107
 20
18.3656152115
 10
-0.4965401002
 20
18.3711723412
 10
-0.5027794781
 20
18.3768999856
 10
-0.5084117214
 20
18.3827812793
 10
-0.5134229005
 20
18.3888014231
 10
-0.5177994861
 20
18.3949441971
 10
-0.5215295803
 20
18.401193008
 10
-0.524602895
 20
18.407530745
 10
-0.5270109551
 20
18.4139399805
 10
-0.5287471947
 20
18.4204031893
 10
-0.5298069278
 20
18.4269028588
 10
-0.5301884606
 20
18.4338057979
  0
LWPOLYLINE
  5
346
100
AcDbEntity
  8
RACCORDO
100
AcDbPolyline
 62
7
  6
CONTINUOUS
 90
18
 70
0
 10
10.9036157153
 20
14.7974341809
 10
10.8964085295
 20
14.8153930164
 10
10.8892950561
 20
14.834230746
 10
10.8824799885
 20
14.8534466831
 10
10.8759654471
 20
14.8730401888
 10
10.8698077542
 20
14.8930432303
 10
10.8640044245
 20
14.9134568864
 10
10.8585579433
 20
14.9342800782
 10
10.8535320877
 20
14.9555415369
 10
10.8489239188
 20
14.9772430575
 10
10.8447363757
 20
14.9993828451
 10
10.8410420519
 20
15.0219842452
 10
10.8378375378
 20
15.0450501235
 10
10.835126243
 20
15.0685776144
 10
10.8329909906
 20
15.092581467
 10
10.8314593882
 20
15.1170665977
 10
10.8305038281
 20
15.1420280902
 10
10.8301243102
 20
15.1674659443
  0
LINE
  5
347
100
AcDbEntity
  8
RACCORDO
100
AcDbLine
 62
253
  6
CONTINUOUS
 10
18.4847165837
 20
-7.5911208637
 11
18.4846556677
 21
18.0101475403
  0
LINE
  5
348
100
AcDbEntity
  8
RACCORDO
100
AcDbLine
 62
7
  6
CONTINUOUS
 10
18.7653158674
 20
-7.2202419055
 11
18.7653158674
 21
18.3574767255
  0
LWPOLYLINE
  5
349
100
AcDbEntity
  8
RACCORDO
100
AcDbPolyline
 62
253
  6
CONTINUOUS
 90
58
 70
0
 10
18.4846556677
 20
18.0101475403
 10
18.4847165813
 20
18.0343070474
 10
18.4842313914
 20
18.0587118778
 10
18.4832004662
 20
18.0833435056
 10
18.4816245881
 20
18.1081832336
 10
18.4795049532
 20
18.133212205
 10
18.4768431707
 20
18.1584114174
 10
18.4736412612
 20
18.1837617412
 10
18.4699016554
 20
18.2092439334
 10
18.465627192
 20
18.2348386501
 10
18.4608211159
 20
18.2605264621
 10
18.4554870754
 20
18.2862878696
 10
18.4496291198
 20
18.3121033162
 10
18.4432516959
 20
18.3379532052
 10
18.4363596451
 20
18.3638179136
 10
18.4289581993
 20
18.3896778071
 10
18.4210529769
 20
18.4155132553
 10
18.4126499791
 20
18.4413046462
 10
18.4037555849
 20
18.4670324008
 10
18.3943765462
 20
18.492676989
 10
18.3845199827
 20
18.5182189438
 10
18.374193377
 20
18.5436388756
 10
18.3634045683
 20
18.568917488
 10
18.3521617465
 20
18.5940355916
 10
18.3404734466
 20
18.6189741188
 10
18.3283485414
 20
18.6437141384
 10
18.3157962351
 20
18.6682368703
 10
18.3028260567
 20
18.6925236984
 10
18.2894478522
 20
18.7165561867
 10
18.2756717773
 20
18.7403160919
 10
18.2615082898
 20
18.7637853776
 10
18.2469681417
 20
18.7869462279
 10
18.2320623704
 20
18.8097810616
 10
18.2168022913
 20
18.832272545
 10
18.2011994885
 20
18.8544036045
 10
18.1852658063
 20
18.8761574408
 10
18.1690133396
 20
18.8975175413
 10
18.1524544265
 20
18.9184676906
 10
18.1356016365
 20
18.9389919865
 10
18.1184677598
 20
18.9590748522
 10
18.101065802
 20
18.9787010435
 10
18.0834089738
 20
18.9978556611
 10
18.0655106785
 20
19.0165241647
 10
18.0473845048
 20
19.0346923807
 10
18.0290442103
 20
19.0523465196
 10
18.0105037107
 20
19.0694731859
 10
17.9917770616
 20
19.0860593939
 10
17.9728784964
 20
19.1020925352
 10
17.9538224105
 20
19.1175603988
 10
17.9346233014
 20
19.1324512235
 10
17.9152957136
 20
19.1467537346
 10
17.8958542766
 20
19.1604571085
 10
17.8763133396
 20
19.1735512097
 10
17.8566881413
 20
19.1860258061
 10
17.8369947707
 20
19.1978707316
 10
17.8172485851
 20
19.209076891
 10
17.7974641827
 20
19.2196361411
 10
13.1503572608
 20
21.5431902477
  0
LWPOLYLINE
  5
34A
100
AcDbEntity
  8
RACCORDO
100
AcDbPolyline
 62
253
  6
CONTINUOUS
 90
31
 70
0
 10
18.4847165837
 20
-7.5911208637
 10
18.4842314087
 20
-7.6143891056
 10
18.4832005111
 20
-7.6373581537
 10
18.4816246733
 20
-7.6600105724
 10
18.4795050916
 20
-7.6823291664
 10
18.476843375
 20
-7.7042969939
 10
18.4736415438
 20
-7.7258973794
 10
18.4699020287
 20
-7.747113926
 10
18.4656276681
 20
-7.7679305286
 10
18.4608217069
 20
-7.7883313854
 10
18.4554877931
 20
-7.8083010103
 10
18.4496299756
 20
-7.8278242446
 10
18.4432527011
 20
-7.8468862683
 10
18.4363608106
 20
-7.8654726115
 10
18.4289595355
 20
-7.8835691656
 10
18.4210544941
 20
-7.9011621936
 10
18.4126516872
 20
-7.9182383409
 10
18.4037574931
 20
-7.9347846449
 10
18.3943786634
 20
-7.9507885457
 10
18.3845223175
 20
-7.9662378947
 10
18.3741959372
 20
-7.9811209644
 10
18.3634073613
 20
-7.9954264574
 10
18.3521647791
 20
-8.0091435144
 10
18.340476725
 20
-8.0222617228
 10
18.3283520712
 20
-8.0347711248
 10
18.3158000213
 20
-8.0466622247
 10
18.3028301036
 20
-8.0579259958
 10
18.2894521634
 20
-8.0685538882
 10
18.2756763558
 20
-8.0785378341
 10
18.2615131379
 20
-8.0878702548
 10
18.2477284563
 20
-8.096093552
  0
LINE
  5
34B
100
AcDbEntity
  8
0
100
AcDbLine
 62
7
  6
CONTINUOUS
 10
9.2407246207
 20
-15.8527259321
 11
10.4159738346
 21
-15.0009700917
  0
LINE
  5
34C
100
AcDbEntity
  8
DRAFT
100
AcDbLine
 62
7
  6
CONTINUOUS
 10
3.8824824462
 20
-18.686252658
 11
9.2407246207
 21
-15.8527259321
  0
LINE
  5
34D
100
AcDbEntity
  8
0
100
AcDbLine
 62
253
  6
CONTINUOUS
 10
3.8824824462
 20
-18.4426665244
 11
10.4159738346
 21
-15.0009700917
  0
LWPOLYLINE
  5
34E
100
AcDbEntity
  8
RACCORDO
100
AcDbPolyline
 62
253
  6
CONTINUOUS
 90
34
 70
0
 10
-3.0142709123
 20
-23.4590792448
 10
-3.0315652436
 20
-23.467882808
 10
-3.0495907051
 20
-23.476268478
 10
-3.0683073647
 20
-23.4842176779
 10
-3.0876737593
 20
-23.4917127977
 10
-3.1076469862
 20
-23.4987372336
 10
-3.1281827984
 20
-23.505275424
 10
-3.1492357029
 20
-23.5113128849
 10
-3.1707590607
 20
-23.5168362415
 10
-3.192705191
 20
-23.5218332577
 10
-3.2150254761
 20
-23.5262928637
 10
-3.2376704698
 20
-23.5302051799
 10
-3.2605900063
 20
-23.5335615395
 10
-3.2837333117
 20
-23.536354507
 10
-3.3070491162
 20
-23.5385778951
 10
-3.3304857682
 20
-23.5402267783
 10
-3.3539913482
 20
-23.5412975039
 10
-3.3775137838
 20
-23.5417876998
 10
-3.4010009657
 20
-23.5416962801
 10
-3.4244008623
 20
-23.5410234473
 10
-3.4476616356
 20
-23.5397706921
 10
-3.4707317558
 20
-23.5379407895
 10
-3.4935601152
 20
-23.5355377934
 10
-3.516096142
 20
-23.5325670272
 10
-3.5382899118
 20
-23.5290350721
 10
-3.5600922585
 20
-23.5249497525
 10
-3.581454883
 20
-23.5203201186
 10
-3.6023304606
 20
-23.5151564265
 10
-3.6226727453
 20
-23.5094701153
 10
-3.6424366726
 20
-23.5032737821
 10
-3.6615784591
 20
-23.4965811537
 10
-3.6800557
 20
-23.4894070563
 10
-3.6978274622
 20
-23.4817673827
 10
-3.7148543759
 20
-23.4736790573
  0
LINE
  5
34F
100
AcDbEntity
  8
RACCORDO
100
AcDbLine
 62
7
  6
CONTINUOUS
 10
7.5566597465
 20
-17.1294915117
 11
3.8824824462
 21
-18.973724051
  0
LINE
  5
350
100
AcDbEntity
  8
RACCORDO
100
AcDbLine
 62
7
  6
CONTINUOUS
 10
8.4381952051
 20
-16.5700624676
 11
3.8824824462
 21
-18.8297295812
  0
LWPOLYLINE
  5
351
100
AcDbEntity
  8
RACCORDO
100
AcDbPolyline
 62
253
  6
CONTINUOUS
 90
14
 70
0
 10
1.9467645397
 20
19.7287160573
 10
1.9393371191
 20
19.732035575
 10
1.9317541764
 20
19.7346732751
 10
1.9239077581
 20
19.7366861457
 10
1.9158194668
 20
19.7380686706
 10
1.9075114991
 20
19.7388171309
 10
1.8990063267
 20
19.7389295751
 10
1.890326864
 20
19.7384057262
 10
1.8814947735
 20
19.7372466843
 10
1.8725359905
 20
19.7354556489
 10
1.8634806536
 20
19.7330392185
 10
1.8543554848
 20
19.7300058471
 10
1.8451834802
 20
19.7263644899
 10
1.8359895819
 20
19.7221261653
  0
LWPOLYLINE
  5
352
100
AcDbEntity
  8
RACCORDO
100
AcDbPolyline
 62
253
  6
CONTINUOUS
 90
14
 70
0
 10
-10.0802274624
 20
25.7422120583
 10
-10.0876255432
 20
25.7455199522
 10
-10.0952057605
 20
25.7481596057
 10
-10.1030494069
 20
25.7501747176
 10
-10.1111351424
 20
25.7515598056
 10
-10.1194409685
 20
25.7523111013
 10
-10.1279442876
 20
25.7524265606
 10
-10.1366219652
 20
25.7519058695
 10
-10.145450392
 20
25.7507504445
 10
-10.1544055489
 20
25.7489634291
 10
-10.1634630719
 20
25.7465496854
 10
-10.1725983183
 20
25.7435157802
 10
-10.1817864343
 20
25.7398699678
 10
-10.191002422
 20
25.7356221672
  0
LWPOLYLINE
  5
353
100
AcDbEntity
  8
RACCORDO
100
AcDbPolyline
 62
253
  6
CONTINUOUS
 90
14
 70
0
 10
-11.417553623
 20
26.4108751386
 10
-11.4249517037
 20
26.4141830325
 10
-11.432531921
 20
26.4168226859
 10
-11.4403755674
 20
26.4188377979
 10
-11.448461303
 20
26.4202228859
 10
-11.456767129
 20
26.4209741816
 10
-11.4652704482
 20
26.4210896409
 10
-11.4739481257
 20
26.4205689498
 10
-11.4827765526
 20
26.4194135247
 10
-11.4917317095
 20
26.4176265094
 10
-11.5007892324
 20
26.4152127657
 10
-11.5099244789
 20
26.4121788604
 10
-11.5191125949
 20
26.408533048
 10
-11.5283285825
 20
26.4042852475
  0
LWPOLYLINE
  5
354
100
AcDbEntity
  8
RACCORDO
100
AcDbPolyline
 62
253
  6
CONTINUOUS
 90
14
 70
0
 10
3.2840835999
 20
19.0600565268
 10
3.2767121228
 20
19.0633531375
 10
3.2691309803
 20
19.0659949153
 10
3.261286229
 20
19.0680119044
 10
3.2531992228
 20
19.0693986106
 10
3.2448919706
 20
19.0701512562
 10
3.2363870839
 20
19.0702677892
 10
3.2277077188
 20
19.0697478897
 10
3.2188774928
 20
19.0685929702
 10
3.2099204465
 20
19.066806173
 10
3.2008609873
 20
19.0643923682
 10
3.1917237838
 20
19.0613581334
 10
3.1825336974
 20
19.0577117293
 10
3.1733157424
 20
19.053463085
  0
LWPOLYLINE
  5
355
100
AcDbEntity
  8
RACCORDO
100
AcDbPolyline
 62
7
  6
CONTINUOUS
 90
18
 70
0
 10
-11.417553623
 20
26.4108751386
 10
-11.4297594352
 20
26.4165723262
 10
-11.442381714
 20
26.4216511342
 10
-11.4553819038
 20
26.4260730349
 10
-11.4687364851
 20
26.4298073076
 10
-11.4823794729
 20
26.432814894
 10
-11.4962037623
 20
26.4350603129
 10
-11.5101348963
 20
26.436528265
 10
-11.5241435851
 20
26.4372139748
 10
-11.5381930815
 20
26.4371121402
 10
-11.5522253938
 20
26.4362202187
 10
-11.5661979399
 20
26.4345389346
 10
-11.5801037992
 20
26.4320636933
 10
-11.5939487052
 20
26.4287800674
 10
-11.6076309638
 20
26.4246987307
 10
-11.6210018935
 20
26.4198650251
 10
-11.6340246146
 20
26.4143029084
 10
-11.6388473331
 20
26.412016804
  0
LWPOLYLINE
  5
356
100
AcDbEntity
  8
RACCORDO
100
AcDbPolyline
 62
7
  6
CONTINUOUS
 90
16
 70
0
 10
1.3015397032
 20
19.4617786987
 10
1.2931286278
 20
19.4657391826
 10
1.2847364102
 20
19.4692001613
 10
1.2763821624
 20
19.4721538451
 10
1.2680849885
 20
19.4745936332
 10
1.2598636901
 20
19.4765139993
 10
1.2517367243
 20
19.4779105046
 10
1.2437225589
 20
19.4787800133
 10
1.2358394396
 20
19.4791205999
 10
1.2281050974
 20
19.4789314244
 10
1.2205370898
 20
19.4782129326
 10
1.2131526329
 20
19.476966787
 10
1.2059683703
 20
19.4751957643
 10
1.1990005917
 20
19.4729038831
 10
1.1922651325
 20
19.47009636
 10
1.1906075144
 20
19.4693088566
  0
LWPOLYLINE
  5
357
100
AcDbEntity
  8
RACCORDO
100
AcDbPolyline
 62
7
  6
CONTINUOUS
 90
16
 70
0
 10
-12.0627784612
 20
26.1439377809
 10
-12.0711895367
 20
26.1478982648
 10
-12.0795817543
 20
26.1513592435
 10
-12.087936002
 20
26.1543129273
 10
-12.096233176
 20
26.1567527154
 10
-12.1044544743
 20
26.1586730816
 10
-12.1125814401
 20
26.1600695869
 10
-12.1205956055
 20
26.1609390955
 10
-12.1284787249
 20
26.1612796821
 10
-12.1362130671
 20
26.1610905067
 10
-12.1437810746
 20
26.1603720149
 10
-12.1511655315
 20
26.1591258692
 10
-12.1583497941
 20
26.1573548466
 10
-12.1653175728
 20
26.1550629653
 10
-12.172053032
 20
26.1522554422
 10
-12.17371065
 20
26.1514679388
  0
LWPOLYLINE
  5
358
100
AcDbEntity
  8
RACCORDO
100
AcDbPolyline
 62
253
  6
CONTINUOUS
 90
14
 70
0
 10
1.8359895819
 20
19.7221261653
 10
1.8267905722
 20
19.726481002
 10
1.8176139565
 20
19.7302291003
 10
1.8084848863
 20
19.7333601873
 10
1.7994283824
 20
19.7358656814
 10
1.7904692672
 20
19.7377387154
 10
1.7816320959
 20
19.7389741557
 10
1.7729410895
 20
19.7395686162
 10
1.7644200684
 20
19.7395204675
 10
1.7560923872
 20
19.7388298417
 10
1.7479808704
 20
19.7374986317
 10
1.7401077503
 20
19.735530486
 10
1.7324946055
 20
19.7329307989
 10
1.7254774708
 20
19.7298609563
  0
LWPOLYLINE
  5
359
100
AcDbEntity
  8
RACCORDO
100
AcDbPolyline
 62
253
  6
CONTINUOUS
 90
14
 70
0
 10
-11.5283285825
 20
26.4042852475
 10
-11.5375056901
 20
26.4086304245
 10
-11.5466663086
 20
26.412373935
 10
-11.5557853531
 20
26.4155044069
 10
-11.5648396583
 20
26.4180125721
 10
-11.5738023486
 20
26.4198896585
 10
-11.5826431366
 20
26.4211287484
 10
-11.591335895
 20
26.421726384
 10
-11.5998587378
 20
26.4216812684
 10
-11.6081885297
 20
26.4209934981
 10
-11.6163025716
 20
26.4196648744
 10
-11.6241784348
 20
26.4176989948
 10
-11.6317942788
 20
26.4151012851
 10
-11.6388406932
 20
26.4120200388
  0
LINE
  5
35A
100
AcDbEntity
  8
RACCORDO
100
AcDbLine
 62
7
  6
CONTINUOUS
 10
-12.0627784612
 20
26.1439377809
 11
-10.7192695937
 21
25.4721833472
  0
LINE
  5
35B
100
AcDbEntity
  8
RACCORDO
100
AcDbLine
 62
7
  6
CONTINUOUS
 10
1.3015397032
 20
19.4617786987
 11
2.6450485707
 21
18.790024265
  0
LINE
  5
35C
100
AcDbEntity
  8
DRAFT
100
AcDbLine
 62
7
  6
CONTINUOUS
 10
-6.4766318982
 20
23.4467151096
 11
-1.5268844299
 21
20.9718413754
  0
LINE
  5
35D
100
AcDbEntity
  8
RACCORDO
100
AcDbLine
 62
253
  6
CONTINUOUS
 10
-11.5283285825
 20
26.4042852475
 11
-10.191002422
 21
25.7356221672
  0
LINE
  5
35E
100
AcDbEntity
  8
RACCORDO
100
AcDbLine
 62
253
  6
CONTINUOUS
 10
1.8359895819
 20
19.7221261653
 11
3.1733157424
 21
19.053463085
  0
LINE
  5
35F
100
AcDbEntity
  8
RACCORDO
100
AcDbLine
 62
7
  6
CONTINUOUS
 10
-11.417553623
 20
26.4108751386
 11
-10.0802274624
 21
25.7422120583
  0
LINE
  5
360
100
AcDbEntity
  8
RACCORDO
100
AcDbLine
 62
7
  6
CONTINUOUS
 10
1.9467645414
 20
19.7287160564
 11
3.284090702
 21
19.0600529761
  0
LINE
  5
361
100
AcDbEntity
  8
RACCORDO
100
AcDbLine
 62
7
  6
CONTINUOUS
 10
-0.2127224496
 20
21.619558492
 11
-2.7996766361
 21
22.9130355852
  0
LINE
  5
362
100
AcDbEntity
  8
RACCORDO
100
AcDbLine
 62
253
  6
CONTINUOUS
 10
0.4282407452
 20
21.9354729977
 11
-1.6646714858
 21
22.9819291132
  0
LINE
  5
363
100
AcDbEntity
  8
RACCORDO
100
AcDbLine
 62
7
  6
CONTINUOUS
 10
0.4790041697
 20
21.9604930024
 11
-1.5804226131
 21
22.9902063938
  0
LWPOLYLINE
  5
364
100
AcDbEntity
  8
RACCORDO
100
AcDbPolyline
 62
7
  6
CONTINUOUS
 90
22
 70
0
 10
-10.0802274624
 20
25.7422120583
 10
-10.0685708965
 20
25.735993474
 10
-10.0572155138
 20
25.7291398681
 10
-10.0462046683
 20
25.721668604
 10
-10.0355761062
 20
25.7135973362
 10
-10.0253746177
 20
25.7049535806
 10
-10.0156496939
 20
25.6957766008
 10
-10.0064751753
 20
25.6861435767
 10
-9.9978369063
 20
25.6760495607
 10
-9.9896664116
 20
25.6653997751
 10
-9.9819656157
 20
25.654150797
 10
-9.9748320917
 20
25.6423982103
 10
-9.9683450877
 20
25.630250568
 10
-9.9625414557
 20
25.617774876
 10
-9.9574308122
 20
25.6049928571
 10
-9.9530317739
 20
25.5919499006
 10
-9.9493601826
 20
25.5786963713
 10
-9.9464251971
 20
25.5652727825
 10
-9.9442315472
 20
25.5517035977
 10
-9.9427857752
 20
25.5380188368
 10
-9.9420950907
 20
25.5242718748
 10
-9.9420308617
 20
25.5186120466
  0
LINE
  5
365
100
AcDbEntity
  8
RACCORDO
100
AcDbLine
 62
7
  6
CONTINUOUS
 10
11.1714437719
 20
14.3827405263
 11
11.1510170884
 21
14.4082122085
  0
LWPOLYLINE
  5
366
100
AcDbEntity
  8
RACCORDO
100
AcDbPolyline
 62
7
  6
CONTINUOUS
 90
26
 70
0
 10
11.1510170884
 20
14.4082122085
 10
11.1305128993
 20
14.4340349198
 10
11.1202306462
 20
14.4470768416
 10
11.1099574623
 20
14.4602343349
 10
11.0996929644
 20
14.4735064957
 10
11.0894375359
 20
14.486894228
 10
11.0792185843
 20
14.5004259193
 10
11.0690356313
 20
14.5141009211
 10
11.0588891553
 20
14.5279198818
 10
11.0488079986
 20
14.5419131344
 10
11.0387915105
 20
14.5560800734
 10
11.0288403416
 20
14.5704213043
 10
11.0189852871
 20
14.5849689763
 10
11.009225507
 20
14.5997226753
 10
10.9995618413
 20
14.6146828154
 10
10.9900276047
 20
14.6298827872
 10
10.9806217763
 20
14.645322265
 10
10.9713453772
 20
14.6610015744
 10
10.9622347845
 20
14.6769550839
 10
10.9532887472
 20
14.6931826456
 10
10.9445085164
 20
14.7096844074
 10
10.9359342226
 20
14.7264951805
 10
10.9275643666
 20
14.7436150108
 10
10.9194004477
 20
14.7610438526
 10
10.9114870943
 20
14.7788163796
 10
10.9036157153
 20
14.7974341809
  0
LINE
  5
367
100
AcDbEntity
  8
0
100
AcDbLine
 62
7
  6
CONTINUOUS
 10
10.4159738346
 20
17.9311977584
 11
9.2407246207
 21
19.9582028127
  0
LWPOLYLINE
  5
368
100
AcDbEntity
  8
RACCORDO
100
AcDbPolyline
 62
7
  6
CONTINUOUS
 90
19
 70
0
 10
2.7608110642
 20
-23.6502213544
 10
2.7670367359
 20
-23.6464027446
 10
2.7729860739
 20
-23.6420909925
 10
2.7786455981
 20
-23.6372958674
 10
2.7840024587
 20
-23.6320282465
 10
2.7890445288
 20
-23.6263000591
 10
2.7937604293
 20
-23.6201242626
 10
2.7981394266
 20
-23.6135148731
 10
2.8021715869
 20
-23.6064868709
 10
2.805847864
 20
-23.599056137
 10
2.809159859
 20
-23.5912395409
 10
2.8121000333
 20
-23.5830548083
 10
2.8146618578
 20
-23.57452042
 10
2.8168394391
 20
-23.565655755
 10
2.8186277873
 20
-23.5564809234
 10
2.8200230229
 20
-23.5470166286
 10
2.8210219809
 20
-23.5372843141
 10
2.8216222183
 20
-23.5273061151
 10
2.8218222744
 20
-23.5171046853
  0
LWPOLYLINE
  5
369
100
AcDbEntity
  8
RACCORDO
100
AcDbPolyline
 62
253
  6
CONTINUOUS
 90
18
 70
0
 10
3.2864069567
 20
-23.3806545904
 10
3.2919980643
 20
-23.3775409594
 10
3.2987157011
 20
-23.3730953825
 10
3.3050867459
 20
-23.3680605865
 10
3.3110936945
 20
-23.3624503836
 10
3.3167200483
 20
-23.3562801719
 10
3.3219503714
 20
-23.3495668746
 10
3.3267703265
 20
-23.3423288897
 10
3.3311666932
 20
-23.3345860634
 10
3.3351274149
 20
-23.3263596228
 10
3.338641628
 20
-23.317672124
 10
3.3416996915
 20
-23.3085473951
 10
3.3442932205
 20
-23.2990104492
 10
3.3464151
 20
-23.2890874421
 10
3.3480595066
 20
-23.2788056124
 10
3.3492219335
 20
-23.2681931659
 10
3.349899198
 20
-23.2572791946
 10
3.3500894461
 20
-23.2460936267
  0
LWPOLYLINE
  5
36A
100
AcDbEntity
  8
RACCORDO
100
AcDbPolyline
 62
253
  6
CONTINUOUS
 90
18
 70
0
 10
1.154279891
 20
-24.4329899112
 10
1.1616264247
 20
-24.4289959679
 10
1.1683375803
 20
-24.4245512297
 10
1.1747101321
 20
-24.4195136181
 10
1.1807266143
 20
-24.4138969402
 10
1.1863705368
 20
-24.4077165903
 10
1.1916264306
 20
-24.4009895077
 10
1.1964798904
 20
-24.3937341299
 10
1.2009176137
 20
-24.3859703426
 10
1.2049274375
 20
-24.3777194248
 10
1.2084983717
 20
-24.3690039909
 10
1.211620629
 20
-24.3598479281
 10
1.2142856519
 20
-24.3502763316
 10
1.216486136
 20
-24.3403154352
 10
1.2182160503
 20
-24.3299925399
 10
1.2194706534
 20
-24.3193359388
 10
1.2202465066
 20
-24.3083748398
 10
1.2205414835
 20
-24.297139285
  0
LWPOLYLINE
  5
36B
100
AcDbEntity
  8
RACCORDO
100
AcDbPolyline
 62
7
  6
CONTINUOUS
 90
22
 70
0
 10
3.2864069567
 20
-23.3806545904
 10
3.2962138175
 20
-23.3753435844
 10
3.3072254284
 20
-23.3686769337
 10
3.3178890832
 20
-23.361445308
 10
3.3281757724
 20
-23.3536660895
 10
3.3380644502
 20
-23.3453517977
 10
3.3475276343
 20
-23.3365208159
 10
3.3565358877
 20
-23.3271957235
 10
3.3650652375
 20
-23.3173959549
 10
3.3730900549
 20
-23.3071446489
 10
3.3805845611
 20
-23.2964680643
 10
3.3875256508
 20
-23.285391957
 10
3.393890661
 20
-23.2739445952
 10
3.3996583948
 20
-23.262155525
 10
3.4048096887
 20
-23.2500542139
 10
3.4093268244
 20
-23.2376707606
 10
3.41319226
 20
-23.2250401663
 10
3.4163900452
 20
-23.2122010954
 10
3.4189076293
 20
-23.1991894543
 10
3.4207345772
 20
-23.1860409871
 10
3.4218621006
 20
-23.1727956453
 10
3.4222873031
 20
-23.1582206583
  0
LINE
  5
36C
100
AcDbEntity
  8
RACCORDO
100
AcDbLine
 62
7
  6
CONTINUOUS
 10
2.7577171753
 20
-23.6518824561
 11
2.7608110642
 21
-23.6502213544
  0
LINE
  5
36D
100
AcDbEntity
  8
RACCORDO
100
AcDbLine
 62
253
  6
CONTINUOUS
 10
3.164397995
 20
-21.6951004114
 11
3.8824824462
 21
-21.3408340136
  0
LINE
  5
36E
100
AcDbEntity
  8
RACCORDO
100
AcDbLine
 62
7
  6
CONTINUOUS
 10
3.043253714
 20
-21.9405802601
 11
3.7646952678
 21
-21.5846576383
  0
LWPOLYLINE
  5
36F
100
AcDbEntity
  8
RACCORDO
100
AcDbPolyline
 62
7
  6
CONTINUOUS
 90
3
 70
0
 10
3.0432401868
 20
-21.9405869337
 10
3.0396026616
 20
-21.9423278005
 10
3.0338844766
 20
-21.9448532964
  0
LWPOLYLINE
  5
370
100
AcDbEntity
  8
RACCORDO
100
AcDbPolyline
 62
253
  6
CONTINUOUS
 90
3
 70
0
 10
2.2855054102
 20
-22.0641163073
 10
2.9348789908
 20
-21.7914116772
 10
3.164397995
 20
-21.6951004114
  0
LINE
  5
371
100
AcDbEntity
  8
RACCORDO
100
AcDbLine
 62
7
  6
CONTINUOUS
 10
1.6834502448
 20
-22.5117426519
 11
3.0338843915
 21
-21.9448533385
  0
LWPOLYLINE
  5
372
100
AcDbEntity
  8
RACCORDO
100
AcDbPolyline
 62
7
  6
CONTINUOUS
 90
8
 70
0
 10
-2.4871559075
 20
-24.2406962137
 10
-1.9605393025
 20
-24.0205757571
 10
-1.4022278023
 20
-23.7889400359
 10
-0.823657398
 20
-23.5500667073
 10
-0.225268125
 20
-23.3035115805
 10
0.3924847436
 20
-23.0487472253
 10
1.0290249171
 20
-22.7850255919
 10
1.6834502448
 20
-22.5117426519
  0
LWPOLYLINE
  5
373
100
AcDbEntity
  8
RACCORDO
100
AcDbPolyline
 62
253
  6
CONTINUOUS
 90
8
 70
0
 10
-2.0933214082
 20
-23.8593117863
 10
-1.8550751087
 20
-23.7604213253
 10
-1.6183443509
 20
-23.6627235318
 10
-1.3852196047
 20
-23.5671709702
 10
-1.1536104
 20
-23.4728110761
 10
-0.9172453274
 20
-23.3767861567
 10
-0.6729627167
 20
-23.2778087566
 10
0.0809412455
 20
-22.9730298381
  0
LWPOLYLINE
  5
374
100
AcDbEntity
  8
RACCORDO
100
AcDbPolyline
 62
253
  6
CONTINUOUS
 90
11
 70
0
 10
0.0809412455
 20
-22.9730298381
 10
0.3367682502
 20
-22.8695357703
 10
0.5844387559
 20
-22.7689977808
 10
0.8206998629
 20
-22.6726528717
 10
1.048804471
 20
-22.5792640408
 10
1.2688125123
 20
-22.488736713
 10
1.4779478571
 20
-22.4021204267
 10
1.6789866351
 20
-22.3183656435
 10
1.8803171684
 20
-22.2342291724
 10
2.0827654116
 20
-22.1493635837
 10
2.2855054102
 20
-22.0641163073
  0
LWPOLYLINE
  5
375
100
AcDbEntity
  8
RACCORDO
100
AcDbPolyline
 62
7
  6
CONTINUOUS
 90
18
 70
0
 10
-2.2374957968
 20
20.0545339165
 10
-2.2547904648
 20
20.0530415809
 10
-2.271984863
 20
20.051048003
 10
-2.2890432007
 20
20.0486408201
 10
-2.3059340342
 20
20.0459298665
 10
-2.322638297
 20
20.042972854
 10
-2.3391451169
 20
20.0397620059
 10
-2.3554385238
 20
20.036351778
 10
-2.3715083167
 20
20.0328072483
 10
-2.3873514706
 20
20.0291132923
 10
-2.4029602823
 20
20.02531001
 10
-2.4183293649
 20
20.0214464218
 10
-2.4334560929
 20
20.0175061481
 10
-2.4483371106
 20
20.0135201008
 10
-2.4629696365
 20
20.0095260148
 10
-2.4773482614
 20
20.0055088854
 10
-2.4914718144
 20
20.0014937248
 10
-2.51894156
 20
19.9935461126
  0
LWPOLYLINE
  5
376
100
AcDbEntity
  8
RACCORDO
100
AcDbPolyline
 62
253
  6
CONTINUOUS
 90
9
 70
0
 10
8.5785253049
 20
20.5979720002
 10
8.5957982339
 20
20.5944847817
 10
8.6449968462
 20
20.5839596169
 10
8.6922159911
 20
20.5732650778
 10
8.7374525077
 20
20.5623783157
 10
8.7811376275
 20
20.551349982
 10
8.8234150946
 20
20.5401969607
 10
8.864141165
 20
20.5289023679
 10
8.9033158388
 20
20.5174662036
  0
LINE
  5
377
100
AcDbEntity
  8
RACCORDO
100
AcDbLine
 62
7
  6
CONTINUOUS
 10
-12.3706201744
 20
23.86877671
 11
-11.7450134808
 21
23.7381553136
  0
LINE
  5
378
100
AcDbEntity
  8
RACCORDO
100
AcDbLine
 62
253
  6
CONTINUOUS
 10
-12.1437766809
 20
24.0245978707
 11
-11.4325560728
 21
23.8760943479
  0
LWPOLYLINE
  5
379
100
AcDbEntity
  8
RACCORDO
100
AcDbPolyline
 62
7
  6
CONTINUOUS
 90
19
 70
0
 10
-1.5864463925
 20
22.9928563984
 10
-1.5902622226
 20
22.9941846958
 10
-1.5941676323
 20
22.9952866963
 10
-1.5981582375
 20
22.9961612975
 10
-1.6022288451
 20
22.9968073208
 10
-1.6063742091
 20
22.9972238866
 10
-1.6105897112
 20
22.9974107545
 10
-1.6148698702
 20
22.9973675746
 10
-1.6192091709
 20
22.9970942967
 10
-1.6236028199
 20
22.9965915448
 10
-1.6280451079
 20
22.9958597997
 10
-1.632530312
 20
22.9948998391
 10
-1.6370535246
 20
22.9937131439
 10
-1.6416088719
 20
22.992301018
 10
-1.6461904852
 20
22.9906650566
 10
-1.6507934037
 20
22.9888075802
 10
-1.6554119968
 20
22.9867308633
 10
-1.6600399704
 20
22.9844371347
 10
-1.6646713398
 20
22.9819290402
  0
LWPOLYLINE
  5
37A
100
AcDbEntity
  8
RACCORDO
100
AcDbPolyline
 62
7
  6
CONTINUOUS
 90
51
 70
0
 10
-1.5855610591
 20
22.9925107289
 10
-1.5961322277
 20
22.9966629744
 10
-1.6190936009
 20
23.0052776091
 10
-1.6423642029
 20
23.0134704486
 10
-1.6659301778
 20
23.0212464383
 10
-1.6897855372
 20
23.0286120428
 10
-1.7139122832
 20
23.0355690511
 10
-1.7382925316
 20
23.0421196003
 10
-1.7629197063
 20
23.0482681668
 10
-1.7877759216
 20
23.0540158145
 10
-1.8128438398
 20
23.0593639883
 10
-1.8381169726
 20
23.0643157978
 10
-1.863577967
 20
23.0688718839
 10
-1.889209297
 20
23.0730330388
 10
-1.9150035382
 20
23.0768011724
 10
-1.9409431424
 20
23.0801765989
 10
-1.9670109787
 20
23.0831597754
 10
-1.9931996645
 20
23.0857518317
 10
-2.0194916367
 20
23.0879528819
 10
-2.0458699175
 20
23.0897630873
 10
-2.0723275927
 20
23.0911829407
 10
-2.098847438
 20
23.0922123931
 10
-2.1254122004
 20
23.0928513087
 10
-2.1520147226
 20
23.0930995532
 10
-2.178637821
 20
23.0929569013
 10
-2.2052641421
 20
23.0924229843
 10
-2.2318863027
 20
23.0914970941
 10
-2.2584871765
 20
23.0901788037
 10
-2.2850491606
 20
23.0884675238
 10
-2.3115644284
 20
23.0863619938
 10
-2.3380156808
 20
23.0838615584
 10
-2.3643851627
 20
23.0809653967
 10
-2.3906648792
 20
23.0776716401
 10
-2.416838814
 20
23.0739791093
 10
-2.4428874387
 20
23.0698868791
 10
-2.4687983301
 20
23.0653931312
 10
-2.4945550479
 20
23.0604964399
 10
-2.5201381192
 20
23.0551957319
 10
-2.5455318375
 20
23.0494894498
 10
-2.5707183041
 20
23.0433762229
 10
-2.5956793817
 20
23.0368545746
 10
-2.6204006012
 20
23.0299221813
 10
-2.6448640684
 20
23.0225771411
 10
-2.6690514734
 20
23.0148175858
 10
-2.6929493305
 20
23.0066400294
 10
-2.7165388002
 20
22.9980420476
 10
-2.7398022626
 20
22.9890206448
 10
-2.7627297889
 20
22.9795692706
 10
-2.7853060812
 20
22.9696823215
 10
-2.8075077967
 20
22.95935767
 10
-2.8230868981
 20
22.9517321429
  0
LWPOLYLINE
  5
37B
100
AcDbEntity
  8
RACCORDO
100
AcDbPolyline
 62
7
  6
CONTINUOUS
 90
3
 70
0
 10
-1.5804303787
 20
22.9902102766
 10
-1.582725061
 20
22.9913035056
 10
-1.5855610591
 20
22.9925107289
  0
LWPOLYLINE
  5
37C
100
AcDbEntity
  8
0
100
AcDbPolyline
 62
7
  6
CONTINUOUS
 90
40
 70
0
 10
-1.4561737518
 20
23.4362224421
 10
-1.4853001722
 20
23.4502046682
 10
-1.5154260801
 20
23.4635494548
 10
-1.5465514755
 20
23.476256802
 10
-1.5787300553
 20
23.4883452722
 10
-1.6119081227
 20
23.499796303
 10
-1.6459245869
 20
23.5105542069
 10
-1.6807835484
 20
23.5206156015
 10
-1.7164809068
 20
23.5299838693
 10
-1.7528432699
 20
23.5386134705
 10
-1.7898735426
 20
23.5465007669
 10
-1.8275688202
 20
23.5536493967
 10
-1.8657469957
 20
23.5600247349
 10
-1.904410881
 20
23.5656231029
 10
-1.9435576643
 20
23.5704481793
 10
-1.9829968028
 20
23.5744763757
 10
-2.0227296189
 20
23.5777037726
 10
-2.0627547902
 20
23.5801342893
 10
-2.1028778072
 20
23.5817560957
 10
-2.1430990612
 20
23.5825652468
 10
-2.1834181609
 20
23.5825656876
 10
-2.2236394223
 20
23.5817574215
 10
-2.2637623689
 20
23.5801365171
 10
-2.3037874773
 20
23.5777069059
 10
-2.3435204931
 20
23.5744803864
 10
-2.3829599953
 20
23.5704530844
 10
-2.4221074049
 20
23.5656288741
 10
-2.4607727304
 20
23.5600311762
 10
-2.4989536271
 20
23.5536562306
 10
-2.5366524398
 20
23.5465077976
 10
-2.5736862111
 20
23.5386205783
 10
-2.6100517069
 20
23.5299909816
 10
-2.6457521613
 20
23.5206225986
 10
-2.6806143194
 20
23.510560905
 10
-2.7146341046
 20
23.4998025307
 10
-2.7478155936
 20
23.4883508457
 10
-2.7799977615
 20
23.4762614358
 10
-2.8111269335
 20
23.4635528295
 10
-2.8412567844
 20
23.4502064982
 10
-2.8703873142
 20
23.4362224421
  0
LINE
  5
37D
100
AcDbEntity
  8
ASSI
100
AcDbLine
 62
7
  6
CONTINUOUS
 10
0.9907913148
 20
22.2127399087
 11
-1.4561737518
 21
23.4362224421
  0
LINE
  5
37E
100
AcDbEntity
  8
0
100
AcDbLine
 62
7
  6
CONTINUOUS
 10
-1.8097271424
 20
23.6129991374
 11
-2.163280533
 21
23.7897758327
  0
LINE
  5
37F
100
AcDbEntity
  8
DRAFT
100
AcDbLine
 62
7
  6
CONTINUOUS
 10
-1.8097271424
 20
24.1655573267
 11
-2.163280533
 21
24.342334022
  0
LINE
  5
380
100
AcDbEntity
  8
0
100
AcDbLine
 62
7
  6
CONTINUOUS
 10
2.3986070111
 20
22.9066165671
 11
-0.4119426359
 21
24.3118913906
  0
LINE
  5
381
100
AcDbEntity
  8
DRAFT
100
AcDbLine
 62
7
  6
CONTINUOUS
 10
8.5019510883
 20
20.3275895789
 11
9.2407246207
 21
19.9582028127
  0
LWPOLYLINE
  5
382
100
AcDbEntity
  8
RACCORDO
100
AcDbPolyline
 62
253
  6
CONTINUOUS
 90
5
 70
0
 10
9.8454831456
 20
20.0994994285
 10
9.870006136
 20
20.0789950501
 10
9.8943718976
 20
20.0577167856
 10
9.9185086478
 20
20.0356545084
 10
9.937810683
 20
20.017145647
  0
LWPOLYLINE
  5
383
100
AcDbEntity
  8
RACCORDO
100
AcDbPolyline
 62
253
  6
CONTINUOUS
 90
7
 70
0
 10
9.7518465465
 20
20.09320342
 10
9.7747069759
 20
20.0736246866
 10
9.7972845142
 20
20.05327164
 10
9.8195791614
 20
20.0321442804
 10
9.8416246597
 20
20.0103143935
 10
9.8633872669
 20
19.9877101934
 10
9.8671358028
 20
19.9835732094
  0
LINE
  5
384
100
AcDbEntity
  8
RACCORDO
100
AcDbLine
 62
253
  6
CONTINUOUS
 10
3.3500894461
 20
-23.2460936267
 11
2.8218222744
 21
-23.5171046853
  0
LINE
  5
385
100
AcDbEntity
  8
RACCORDO
100
AcDbLine
 62
7
  6
CONTINUOUS
 10
3.2864014086
 20
-23.380657437
 11
2.757719145
 21
-23.6518814455
  0
LINE
  5
386
100
AcDbEntity
  8
RACCORDO
100
AcDbLine
 62
7
  6
CONTINUOUS
 10
2.7559807579
 20
-23.6527506791
 11
2.7577171753
 21
-23.6518824561
  0
LINE
  5
387
100
AcDbEntity
  8
RACCORDO
100
AcDbLine
 62
253
  6
CONTINUOUS
 10
2.8218222744
 20
-23.5171046853
 11
1.2205414835
 21
-24.297139285
  0
LINE
  5
388
100
AcDbEntity
  8
RACCORDO
100
AcDbLine
 62
7
  6
CONTINUOUS
 10
2.7559779939
 20
-23.6527520255
 11
1.154279891
 21
-24.4329899112
  0
LWPOLYLINE
  5
389
100
AcDbEntity
  8
RACCORDO
100
AcDbPolyline
 62
7
  6
CONTINUOUS
 90
18
 70
0
 10
1.154279891
 20
-24.4329899112
 10
1.1420589312
 20
-24.4385422774
 10
1.1294298076
 20
-24.4434767175
 10
1.1164310084
 20
-24.4477553464
 10
1.1030857579
 20
-24.4513479203
 10
1.0894600286
 20
-24.4542161475
 10
1.0756610697
 20
-24.4563256194
 10
1.0617620877
 20
-24.4576618675
 10
1.0477926664
 20
-24.4582202551
 10
1.0337918148
 20
-24.4579959022
 10
1.0198183506
 20
-24.4569872959
 10
1.0059125953
 20
-24.4551958284
 10
0.9920791554
 20
-24.4526168361
 10
0.978311094
 20
-24.4492355739
 10
0.964710045
 20
-24.4450634754
 10
0.9514242145
 20
-24.4401469644
 10
0.9384900591
 20
-24.4345101741
 10
0.9329868154
 20
-24.4318420085
  0
LINE
  5
38A
100
AcDbEntity
  8
0
100
AcDbLine
 62
7
  6
CONTINUOUS
 10
-0.4119426359
 20
24.3118913906
 11
0.9479893042
 21
24.385639578
  0
LWPOLYLINE
  5
38B
100
AcDbEntity
  8
RACCORDO
100
AcDbPolyline
 62
7
  6
CONTINUOUS
 90
9
 70
0
 10
8.9849143265
 20
20.5285812778
 10
8.9787975859
 20
20.5301807755
 10
8.9690273721
 20
20.5317135894
 10
8.9587011767
 20
20.5321290337
 10
8.9479139796
 20
20.5314272613
 10
8.9369507206
 20
20.5296087299
 10
8.9259063799
 20
20.5266735924
 10
8.9146859774
 20
20.522621696
 10
8.9032895132
 20
20.5174530408
  0
LWPOLYLINE
  5
38C
100
AcDbEntity
  8
RACCORDO
100
AcDbPolyline
 62
7
  6
CONTINUOUS
 90
5
 70
0
 10
8.9849041902
 20
20.5285573253
 10
8.8761888436
 20
20.5598431711
 10
8.7613338007
 20
20.5891968482
 10
8.6440723767
 20
20.6155239183
 10
8.5785253049
 20
20.6282969901
  0
LWPOLYLINE
  5
38D
100
AcDbEntity
  8
RACCORDO
100
AcDbPolyline
 62
7
  6
CONTINUOUS
 90
3
 70
0
 10
8.9969550082
 20
20.5237634972
 10
8.9881067979
 20
20.5275307448
 10
8.9849143265
 20
20.5285812778
  0
LWPOLYLINE
  5
38E
100
AcDbEntity
  8
ASSI
100
AcDbPolyline
 62
7
  6
CONTINUOUS
 90
16
 70
0
 10
-1.7109672004
 20
25.7533284346
 10
-1.7127757937
 20
25.7541120934
 10
-1.716979302
 20
25.7552904465
 10
-1.7219326231
 20
25.7559851833
 10
-1.7275920121
 20
25.7562141823
 10
-1.7339210198
 20
25.7559844623
 10
-1.7409237928
 20
25.7553288019
 10
-1.7485900778
 20
25.7542592461
 10
-1.7568774056
 20
25.7527874406
 10
-1.7657528392
 20
25.7509464193
 10
-1.775189204
 20
25.7487388269
 10
-1.7851538296
 20
25.7461794551
 10
-1.7956018915
 20
25.7433171757
 10
-1.8064956993
 20
25.7401713299
 10
-1.8178074097
 20
25.7367326621
 10
-1.8295049104
 20
25.7330049742
  0
LWPOLYLINE
  5
38F
100
AcDbEntity
  8
DRAFT
100
AcDbPolyline
 62
7
  6
CONTINUOUS
 90
10
 70
0
 10
9.7761857333
 20
20.7682993145
 10
9.8122913529
 20
20.7525915896
 10
9.8478259553
 20
20.7365831022
 10
9.8827895404
 20
20.7202738521
 10
9.9171922777
 20
20.7036587547
 10
9.9510239977
 20
20.6867428947
 10
9.9842541924
 20
20.6695415261
 10
10.0168726926
 20
20.6520597335
 10
10.0488896676
 20
20.6342924323
 10
10.0803051173
 20
20.6162396225
  0
LWPOLYLINE
  5
390
100
AcDbEntity
  8
ASSI
100
AcDbPolyline
 62
7
  6
CONTINUOUS
 90
16
 70
0
 10
3.8440171633
 20
22.9758362438
 10
3.8425006779
 20
22.9765066083
 10
3.8383723416
 20
22.977719727
 10
3.8334983539
 20
22.9784513577
 10
3.8279233274
 20
22.9787187794
 10
3.8216835996
 20
22.978529272
 10
3.814775706
 20
22.9779166697
 10
3.8072109008
 20
22.9768931973
 10
3.7990312238
 20
22.9754698265
 10
3.7902676803
 20
22.9736794339
 10
3.7809468278
 20
22.9715249545
 10
3.7711013209
 20
22.9690206747
 10
3.7607742699
 20
22.9662143309
 10
3.7500023597
 20
22.9631249307
 10
3.7388133808
 20
22.9597435934
 10
3.7272389622
 20
22.9560741556
  0
LWPOLYLINE
  5
391
100
AcDbEntity
  8
RACCORDO
100
AcDbPolyline
 62
7
  6
CONTINUOUS
 90
18
 70
0
 10
0.6881058325
 20
25.1972978514
 10
0.6685437482
 20
25.2063875844
 10
0.645647968
 20
25.2153729991
 10
0.6221386817
 20
25.2228752319
 10
0.5979973596
 20
25.2289094017
 10
0.5733076063
 20
25.2334551861
 10
0.54804618
 20
25.2365091695
 10
0.5222363226
 20
25.2380747675
 10
0.4960313637
 20
25.2381419041
 10
0.4694474011
 20
25.2367031281
 10
0.4424683371
 20
25.2337658907
 10
0.4151992084
 20
25.2293424695
 10
0.3876250288
 20
25.2234240839
 10
0.3597607845
 20
25.2160195143
 10
0.3317564715
 20
25.2071673797
 10
0.3036620882
 20
25.196880553
 10
0.2754276362
 20
25.1851461613
 10
0.2470531155
 20
25.1719642045
  0
LINE
  5
392
100
AcDbEntity
  8
ASSI
100
AcDbLine
 62
253
  6
CONTINUOUS
 10
-2.4839113765
 20
26.0158416244
 11
-1.8783809419
 21
25.7130764071
  0
LINE
  5
393
100
AcDbEntity
  8
ASSI
100
AcDbLine
 62
253
  6
CONTINUOUS
 10
3.0713665264
 20
23.2382026729
 11
3.6768969611
 21
22.9354374556
  0
LINE
  5
394
100
AcDbEntity
  8
0
100
AcDbLine
 62
7
  6
CONTINUOUS
 10
0.9479893042
 20
24.385639578
 11
3.1838501759
 21
23.2677091422
  0
LINE
  5
395
100
AcDbEntity
  8
0
100
AcDbLine
 62
7
  6
CONTINUOUS
 10
3.8508330261
 20
22.9342177171
 11
4.0491284256
 21
22.8350700173
  0
LINE
  5
396
100
AcDbEntity
  8
ASSI
100
AcDbLine
 62
7
  6
CONTINUOUS
 10
-2.2076393555
 20
26.0016603557
 11
-1.7112328709
 21
25.7534571134
  0
LINE
  5
397
100
AcDbEntity
  8
ASSI
100
AcDbLine
 62
7
  6
CONTINUOUS
 10
3.3473160366
 20
23.2241826596
 11
3.8437228065
 21
22.9759792746
  0
LINE
  5
398
100
AcDbEntity
  8
RACCORDO
100
AcDbLine
 62
253
  6
CONTINUOUS
 10
-2.8199128285
 20
26.7054471764
 11
0.2470531155
 21
25.1719642045
  0
LINE
  5
399
100
AcDbEntity
  8
RACCORDO
100
AcDbLine
 62
253
  6
CONTINUOUS
 10
4.4896938026
 20
23.0506438609
 11
7.5566597465
 21
21.517160889
  0
LINE
  5
39A
100
AcDbEntity
  8
RACCORDO
100
AcDbLine
 62
7
  6
CONTINUOUS
 10
4.9307368057
 20
23.0759933275
 11
8.157915496
 21
21.4624039824
  0
LINE
  5
39B
100
AcDbEntity
  8
DRAFT
100
AcDbLine
 62
7
  6
CONTINUOUS
 10
10.2344310104
 20
20.5235168234
 11
9.5781788238
 21
20.8516429167
  0
LINE
  5
39C
100
AcDbEntity
  8
DRAFT
100
AcDbLine
 62
7
  6
CONTINUOUS
 10
9.7761857333
 20
20.7682993145
 11
10.0803051173
 21
20.6162396225
  0
LINE
  5
39D
100
AcDbEntity
  8
RACCORDO
100
AcDbLine
 62
7
  6
CONTINUOUS
 10
9.1642540908
 20
20.439875883
 11
8.9969550082
 21
20.5237634972
  0
LINE
  5
39E
100
AcDbEntity
  8
RACCORDO
100
AcDbLine
 62
7
  6
CONTINUOUS
 10
9.8454831456
 20
20.0994994285
 11
9.9747789154
 21
20.0347065352
  0
LINE
  5
39F
100
AcDbEntity
  8
RACCORDO
100
AcDbLine
 62
7
  6
CONTINUOUS
 10
9.3388211622
 20
20.3516515299
 11
9.1642540908
 21
20.439875883
  0
LINE
  5
3A0
100
AcDbEntity
  8
RACCORDO
100
AcDbLine
 62
7
  6
CONTINUOUS
 10
9.5206994729
 20
20.2590947103
 11
9.3388211622
 21
20.3516515299
  0
LWPOLYLINE
  5
3A1
100
AcDbEntity
  8
RACCORDO
100
AcDbPolyline
 62
7
  6
CONTINUOUS
 90
3
 70
0
 10
9.8075390783
 20
20.1121670834
 10
9.7100620247
 20
20.1622225151
 10
9.5206994729
 20
20.2590947103
  0
LINE
  5
3A2
100
AcDbEntity
  8
RACCORDO
100
AcDbLine
 62
7
  6
CONTINUOUS
 10
9.815297507
 20
20.1075806113
 11
9.8075390783
 21
20.1121670834
  0
LWPOLYLINE
  5
3A3
100
AcDbEntity
  8
ASSI
100
AcDbPolyline
 62
7
  6
CONTINUOUS
 90
16
 70
0
 10
-2.4329801853
 20
26.0361837293
 10
-2.4208111475
 20
26.0395484876
 10
-2.4080773597
 20
26.0421510444
 10
-2.3947864352
 20
26.0439755988
 10
-2.3809424249
 20
26.0450190632
 10
-2.3665614307
 20
26.0452523295
 10
-2.3516731526
 20
26.0446214047
 10
-2.336297939
 20
26.0431062207
 10
-2.3204495096
 20
26.0406970268
 10
-2.3041518925
 20
26.0373567242
 10
-2.2874622658
 20
26.0330817641
 10
-2.2703696784
 20
26.0278489263
 10
-2.2527941288
 20
26.0215857209
 10
-2.2347429028
 20
26.0142702758
 10
-2.2162576247
 20
26.0058836323
 10
-2.2081999918
 20
26.0019447589
  0
LWPOLYLINE
  5
3A4
100
AcDbEntity
  8
RACCORDO
100
AcDbPolyline
 62
253
  6
CONTINUOUS
 90
25
 70
0
 10
4.3695769628
 20
26.1732822161
 10
4.3543289864
 20
26.1800878486
 10
4.338765639
 20
26.1862215728
 10
4.3228984782
 20
26.1916788341
 10
4.3067392879
 20
26.1964555797
 10
4.2903000677
 20
26.200548263
 10
4.2735930229
 20
26.2039538454
 10
4.2566305593
 20
26.2066697979
 10
4.2394252747
 20
26.2086941032
 10
4.221989946
 20
26.2100252579
 10
4.2043375234
 20
26.2106622734
 10
4.1864811136
 20
26.2106046767
 10
4.1684339707
 20
26.2098525102
 10
4.1502094785
 20
26.2084063297
 10
4.1318211886
 20
26.2062672089
 10
4.1132828046
 20
26.2034367437
 10
4.0946081245
 20
26.1999170468
 10
4.0758109877
 20
26.1957107326
 10
4.056905312
 20
26.1908209177
 10
4.0379047226
 20
26.1852511048
 10
4.0188237404
 20
26.1790055292
 10
3.9996777449
 20
26.1720892863
 10
3.9804813681
 20
26.1645078045
 10
3.9612484686
 20
26.1562666996
 10
3.9419933292
 20
26.1473722135
  0
LWPOLYLINE
  5
3A5
100
AcDbEntity
  8
RACCORDO
100
AcDbPolyline
 62
253
  6
CONTINUOUS
 90
26
 70
0
 10
18.2125294629
 20
19.2519039165
 10
18.2052459726
 20
19.255447865
 10
18.189998271
 20
19.2622536891
 10
18.1744351979
 20
19.2683876208
 10
18.1585683106
 20
19.2738451051
 10
18.1424093918
 20
19.2786220891
 10
18.1259704413
 20
19.2827150256
 10
18.1092636667
 20
19.286120875
 10
18.0923014746
 20
19.2888371082
 10
18.0750964612
 20
19.2908617081
 10
18.0576614031
 20
19.2921931711
 10
18.0400092475
 20
19.2928305085
 10
18.0221531031
 20
19.2927732471
 10
18.00410623
 20
19.2920214294
 10
17.9858820298
 20
19.2905756136
 10
17.967494036
 20
19.2884368735
 10
17.9489559036
 20
19.2856067972
 10
17.930281399
 20
19.2820874864
 10
17.9114843902
 20
19.2778815546
 10
17.8925788358
 20
19.2729921251
 10
17.8735787752
 20
19.2674228289
 10
17.854498318
 20
19.2611778017
 10
17.8353516335
 20
19.2542616811
 10
17.8161529399
 20
19.246679603
 10
17.7969164945
 20
19.238437198
 10
17.7776565823
 20
19.2295405869
  0
LINE
  5
3A6
100
AcDbEntity
  8
DRAFT
100
AcDbLine
 62
7
  6
CONTINUOUS
 10
12.7257996178
 20
21.3415141371
 11
9.5729483643
 21
22.9179397638
  0
LINE
  5
3A7
100
AcDbEntity
  8
RACCORDO
100
AcDbLine
 62
7
  6
CONTINUOUS
 10
4.3768662098
 20
26.1697355431
 11
9.0901807752
 21
23.8130782604
  0
LINE
  5
3A8
100
AcDbEntity
  8
RACCORDO
100
AcDbLine
 62
7
  6
CONTINUOUS
 10
13.4992148974
 20
21.6085611993
 11
18.2125294629
 21
19.2519039165
  0
LWPOLYLINE
  5
3A9
100
AcDbEntity
  8
RACCORDO
100
AcDbPolyline
 62
7
  6
CONTINUOUS
 90
40
 70
0
 10
18.2125294629
 20
19.2519039165
 10
18.2372051735
 20
19.2391345289
 10
18.2615531299
 20
19.2256636748
 10
18.2855484903
 20
19.2115013259
 10
18.309168616
 20
19.1966573901
 10
18.3323877158
 20
19.181145056
 10
18.3551771535
 20
19.1649813157
 10
18.3774874349
 20
19.1482016916
 10
18.3993246774
 20
19.1308025487
 10
18.4207398703
 20
19.1127378568
 10
18.4417615601
 20
19.0939692406
 10
18.4623068606
 20
19.0745566062
 10
18.4822628162
 20
19.054604456
 10
18.5015696846
 20
19.0341822129
 10
18.5202579368
 20
19.0132682106
 10
18.5383549992
 20
18.9918350633
 10
18.55578801
 20
18.9699747188
 10
18.5725997298
 20
18.9476400634
 10
18.5889647491
 20
18.9245768222
 10
18.6049912364
 20
18.9005653688
 10
18.620478052
 20
18.8758372546
 10
18.6351498457
 20
18.8508212808
 10
18.6488809265
 20
18.8257851563
 10
18.6618109985
 20
18.8005303112
 10
18.6740769289
 20
18.7747935514
 10
18.6856961378
 20
18.7485012232
 10
18.6966005068
 20
18.721769081
 10
18.706773441
 20
18.694608209
 10
18.7162411818
 20
18.6668972261
 10
18.724927374
 20
18.6388052814
 10
18.732701504
 20
18.6107848978
 10
18.7394877011
 20
18.5832846928
 10
18.7454291635
 20
18.5559154455
 10
18.7506920006
 20
18.5278700238
 10
18.7553094389
 20
18.4985891876
 10
18.7591131317
 20
18.4686837249
 10
18.7619795019
 20
18.4390953484
 10
18.7639161036
 20
18.4103687648
 10
18.7650152097
 20
18.3819965986
 10
18.7653158674
 20
18.3574803835
  0
ELLIPSE
  5
3AA
100
AcDbEntity
  8
0
100
AcDbEllipse
 62
7
  6
CONTINUOUS
 10
9.4156953235
 20
-13.2760539438
 30
0.0
 11
-0.894811907
 21
1.788971565
 31
0.0
 40
0.6123121697
 41
-3.0410143285
 42
-2.2557423369
  0
ELLIPSE
  5
3AB
100
AcDbEntity
  8
0
100
AcDbEllipse
 62
7
  6
CONTINUOUS
 10
9.4156953235
 20
17.2065601217
 30
0.0
 11
-0.894612936
 21
1.7887945813
 31
0.0
 40
0.6124635976
 41
-2.2555607096
 42
-1.470288718
  0
ELLIPSE
  5
3AC
100
AcDbEntity
  8
RACCORDO
100
AcDbEllipse
 62
7
  6
CONTINUOUS
 10
8.8720124105
 20
22.804128454
 30
0.0
 11
0.4410298232
 21
0.8975092442
 31
0.0
 40
0.607010042
 41
-0.8902711325
 42
-0.6685463574
  0
ELLIPSE
  5
3AD
100
AcDbEntity
  8
RACCORDO
100
AcDbEllipse
 62
7
  6
CONTINUOUS
 10
12.7297144152
 20
20.8752774516
 30
0.0
 11
0.7986297654
 21
0.7112926728
 31
0.0
 40
0.2904174937
 41
0.1153507515
 42
0.7825895466
  0
ELLIPSE
  5
3AE
100
AcDbEntity
  8
DRAFT
100
AcDbEllipse
 62
7
  6
CONTINUOUS
 10
7.983701777
 20
19.746827441
 30
0.0
 11
2.7583783481
 21
-0.0195161492
 31
0.0
 40
0.4946372042
 41
0.8993310084
 42
1.3569358871
  0
ELLIPSE
  5
3AF
100
AcDbEntity
  8
DRAFT
100
AcDbEllipse
 62
7
  6
CONTINUOUS
 10
7.983701777
 20
19.746827441
 30
0.0
 11
2.7583783481
 21
-0.0195161492
 31
0.0
 40
0.4946372042
 41
0.4210146249
 42
0.6784646295
  0
ELLIPSE
  5
3B0
100
AcDbEntity
  8
DRAFT
100
AcDbEllipse
 62
7
  6
CONTINUOUS
 10
7.983701777
 20
21.7183720359
 30
0.0
 11
2.7583515655
 21
-1.4175703156
 31
0.0
 40
0.0109499087
 41
-0.890204042
 42
-0.85781018
  0
ELLIPSE
  5
3B1
100
AcDbEntity
  8
DRAFT
100
AcDbEllipse
 62
7
  6
CONTINUOUS
 10
7.983701777
 20
20.1798401429
 30
0.0
 11
2.7583783481
 21
-0.0195161492
 31
0.0
 40
0.4946372042
 41
0.1633322662
 42
1.5704322739
  0
ELLIPSE
  5
3B2
100
AcDbEntity
  8
DRAFT
100
AcDbEllipse
 62
7
  6
CONTINUOUS
 10
7.983701777
 20
21.7183720359
 30
0.0
 11
2.7583515655
 21
-1.4175703156
 31
0.0
 40
0.0109499087
 41
-0.7017315251
 42
-0.6693376631
  0
ELLIPSE
  5
3B3
100
AcDbEntity
  8
RACCORDO
100
AcDbEllipse
 62
7
  6
CONTINUOUS
 10
8.9652540665
 20
22.757507626
 30
0.0
 11
-0.3081977229
 21
1.1093051971
 31
0.0
 40
0.6733694981
 41
5.0723595468
 42
6.403977806
  0
ELLIPSE
  5
3B4
100
AcDbEntity
  8
RACCORDO
100
AcDbEllipse
 62
7
  6
CONTINUOUS
 10
3.5642359241
 20
-21.1817701076
 30
0.0
 11
-0.2012801021
 21
0.4024798509
 31
0.0
 40
0.6124778111
 41
-3.1449381207
 42
-2.255529033
  0
ELLIPSE
  5
3B5
100
AcDbEntity
  8
RACCORDO
100
AcDbEllipse
 62
7
  6
CONTINUOUS
 10
3.5642359241
 20
16.821600061
 30
0.0
 11
-0.2013341403
 21
0.4025279144
 31
0.0
 40
0.6122950388
 41
-2.2557482655
 42
-0.6847996396
  0
ELLIPSE
  5
3B6
100
AcDbEntity
  8
ASSI
100
AcDbEllipse
 62
7
  6
CONTINUOUS
 10
-2.4859802218
 20
25.5818137944
 30
0.0
 11
0.2257019663
 21
0.4461636818
 31
0.0
 40
0.6159267166
 41
0.5380090616
 42
0.6817883054
  0
ELLIPSE
  5
3B7
100
AcDbEntity
  8
RACCORDO
100
AcDbEllipse
 62
7
  6
CONTINUOUS
 10
8.0785253049
 20
20.4595713833
 30
0.0
 11
0.499996712
 21
0.0035883639
 31
0.0
 40
0.5053247124
 41
-0.7715714568
 42
-0.0036478305
  0
ELLIPSE
  5
3B8
100
AcDbEntity
  8
RACCORDO
100
AcDbEllipse
 62
7
  6
CONTINUOUS
 10
8.2575690108
 20
-16.620124308
 30
0.0
 11
0.9987332359
 21
0.6172510855
 31
0.0
 40
0.0815198604
 41
-2.3978073241
 42
-1.2985018509
  0
ELLIPSE
  5
3B9
100
AcDbEntity
  8
RACCORDO
100
AcDbEllipse
 62
7
  6
CONTINUOUS
 10
-3.5331632776
 20
26.1899093804
 30
0.0
 11
0.9987332359
 21
0.6172510855
 31
0.0
 40
0.0815198604
 41
0.0509898783
 42
0.7263320369
  0
ELLIPSE
  5
3BA
100
AcDbEntity
  8
RACCORDO
100
AcDbEllipse
 62
7
  6
CONTINUOUS
 10
-7.8180718857
 20
23.0592941257
 30
0.0
 11
0.4999985559
 21
0.0023864752
 31
0.0
 40
0.5035541159
 41
2.3596088132
 42
3.0002042076
  0
ELLIPSE
  5
3BB
100
AcDbEntity
  8
DRAFT
100
AcDbEllipse
 62
7
  6
CONTINUOUS
 10
-2.1321253908
 20
24.6569646174
 30
0.0
 11
0.4279673669
 21
-0.0030279657
 31
0.0
 40
0.4946372042
 41
-0.7818985079
 42
0.0034334386
  0
ELLIPSE
  5
3BC
100
AcDbEntity
  8
ASSI
100
AcDbEllipse
 62
7
  6
CONTINUOUS
 10
3.674852049
 20
22.501397659
 30
0.0
 11
0.221538876
 21
0.4482453432
 31
0.0
 40
0.6088015717
 41
0.5323082896
 42
0.6760875334
  0
ELLIPSE
  5
3BD
100
AcDbEntity
  8
RACCORDO
100
AcDbEllipse
 62
7
  6
CONTINUOUS
 10
8.2575690108
 20
20.2945432362
 30
0.0
 11
-0.7417913999
 21
1.2002436976
 31
0.0
 40
0.5587454355
 41
5.1248137075
 42
6.2241191807
  0
ELLIPSE
  5
3BE
100
AcDbEntity
  8
DRAFT
100
AcDbEllipse
 62
7
  6
CONTINUOUS
 10
3.4228630384
 20
21.8794704028
 30
0.0
 11
0.4279673669
 21
-0.0030279657
 31
0.0
 40
0.4946372042
 41
-0.7760807437
 42
0.0034304302
  0
ELLIPSE
  5
3BF
100
AcDbEntity
  8
RACCORDO
100
AcDbEllipse
 62
7
  6
CONTINUOUS
 10
8.0785253049
 20
-16.8293446269
 30
0.0
 11
0.499366618
 21
0.3086255427
 31
0.0
 40
0.0815198604
 41
6.1080157147
 42
7.0007906979
  0
ELLIPSE
  5
3C0
100
AcDbEntity
  8
RACCORDO
100
AcDbEllipse
 62
7
  6
CONTINUOUS
 10
8.0785253049
 20
21.3899140422
 30
0.0
 11
-0.3708957
 21
0.6001218488
 31
0.0
 40
0.5587454355
 41
-3.1744788413
 42
-2.2817038581
  0
ELLIPSE
  5
3C1
100
AcDbEntity
  8
RACCORDO
100
AcDbEllipse
 62
7
  6
CONTINUOUS
 10
-7.8180718857
 20
21.8266845205
 30
0.0
 11
0.4998587701
 21
0.0223649649
 31
0.0
 40
0.5313301283
 41
3.1178197826
 42
3.9032222197
  0
ELLIPSE
  5
3C2
100
AcDbEntity
  8
RACCORDO
100
AcDbEllipse
 62
7
  6
CONTINUOUS
 10
-2.306764786
 20
19.0710309707
 30
0.0
 11
0.4998587701
 21
0.0223649649
 31
0.0
 40
0.5313301283
 41
-2.3799630874
 42
-0.8149845248
  0
ELLIPSE
  5
3C3
100
AcDbEntity
  8
RACCORDO
100
AcDbEllipse
 62
7
  6
CONTINUOUS
 10
-2.306764786
 20
20.3036405759
 30
0.0
 11
0.4999985559
 21
0.0023864752
 31
0.0
 40
0.5035541159
 41
-1.4342147631
 42
-0.7936193687
  0
ELLIPSE
  5
3C4
100
AcDbEntity
  8
RACCORDO
100
AcDbEllipse
 62
7
  6
CONTINUOUS
 10
-12.9415136708
 20
23.824035476
 30
0.0
 11
0.249929385
 21
0.0111824824
 31
0.0
 40
0.5313301283
 41
3.1178369227
 42
3.9032222197
  0
ELLIPSE
  5
3C5
100
AcDbEntity
  8
RACCORDO
100
AcDbEllipse
 62
7
  6
CONTINUOUS
 10
-11.6083013371
 20
23.1574293092
 30
0.0
 11
0.249929385
 21
0.0111824824
 31
0.0
 40
0.5313301283
 41
-2.3799630874
 42
-0.8149845248
  0
ELLIPSE
  5
3C6
100
AcDbEntity
  8
RACCORDO
100
AcDbEllipse
 62
7
  6
CONTINUOUS
 10
1.7560168273
 20
16.475270227
 30
0.0
 11
0.249929385
 21
0.0111824824
 31
0.0
 40
0.5313301283
 41
-2.3799630874
 42
-0.8149845248
  0
ELLIPSE
  5
3C7
100
AcDbEntity
  8
RACCORDO
100
AcDbEllipse
 62
7
  6
CONTINUOUS
 10
0.4228044936
 20
17.1418763938
 30
0.0
 11
0.249929385
 21
0.0111824824
 31
0.0
 40
0.5313301283
 41
3.1178369227
 42
3.9032222197
  0
ENDSEC
  0
SECTION
  2
OBJECTS
  0
DICTIONARY
  5
C
100
AcDbDictionary
280
0
281
1
  3
ACAD_GROUP
350
D
  3
ACAD_MLINESTYLE
350
17
  3
ACAD_LAYOUT
350
1A
  3
ACAD_PLOTSETTINGS
350
19
  3
ACAD_PLOTSTYLENAME
350
E
  0
DICTIONARY
  5
D
102
{ACAD_REACTORS
330
C
102
}
100
AcDbDictionary
280
0
281
1
  0
ACDBDICTIONARYWDFLT
  5
E
102
{ACAD_REACTORS
330
C
102
}
100
AcDbDictionary
281
1
  3
Normal
350
F
100
AcDbDictionaryWithDefault
340
F
  0
DICTIONARY
  5
17
102
{ACAD_REACTORS
330
C
102
}
100
AcDbDictionary
280
0
281
1
  3
Standard
350
18
  0
DICTIONARY
  5
19
102
{ACAD_REACTORS
330
C
102
}
100
AcDbDictionary
281
1
  0
DICTIONARY
  5
1A
102
{ACAD_REACTORS
330
C
102
}
100
AcDbDictionary
281
1
  3
Model
350
3C8
  3
Layout1
350
3C9
  0
ACDBPLACEHOLDER
  5
F
102
{ACAD_REACTORS
330
E
102
}
  0
MLINESTYLE
  5
18
102
{ACAD_REACTORS
330
17
102
}
100
AcDbMlineStyle
  2
STANDARD
 70
0
  3

 62
256
 51
90.0
 52
90.0
 71
2
 49
0.5
 62
256
  6
BYLAYER
 49
-0.5
 62
256
  6
BYLAYER
  0
LAYOUT
  5
3C8
102
{ACAD_REACTORS
330
1A
102
}
100
AcDbPlotSettings
  1

  2
none_device
  4
ISO_A4_(297.00_x_210.00_MM)
  6

 40
0.0
 41
0.0
 42
0.0
 43
0.0
 44
297.0
 45
210.0
 46
0.0
 47
0.0
 48
0.0
 49
0.0
140
0.0
141
0.0
142
1.0
143
1.0
 70
1024
 72
1
 73
0
 74
0
  7

 75
0
147
1.0
148
0.0
149
0.0
100
AcDbLayout
  1
Model
 70
0
 71
0
 10
0.0
 20
0.0
 11
297.0
 21
210.0
 12
0.0
 22
0.0
 32
0.0
 14
0.0
 24
0.0
 34
0.0
 15
0.0
 25
0.0
 35
0.0
146
0.0
 13
0.0
 23
0.0
 33
0.0
 16
1.0
 26
0.0
 36
0.0
 17
0.0
 27
1.0
 37
0.0
 76
0
330
213
345
0
346
0
  0
LAYOUT
  5
3C9
102
{ACAD_REACTORS
330
1A
102
}
100
AcDbPlotSettings
  1

  2
none_device
  4
ISO_A4_(297.00_x_210.00_MM)
  6

 40
0.0
 41
0.0
 42
0.0
 43
0.0
 44
297.0
 45
210.0
 46
0.0
 47
0.0
 48
0.0
 49
0.0
140
0.0
141
0.0
142
1.0
143
1.0
 70
0
 72
1
 73
0
 74
0
  7

 75
0
147
1.0
148
0.0
149
0.0
100
AcDbLayout
  1
Layout1
 70
0
 71
1
 10
0.0
 20
0.0
 11
297.0
 21
210.0
 12
0.0
 22
0.0
 32
0.0
 14
0.0
 24
0.0
 34
0.0
 15
0.0
 25
0.0
 35
0.0
146
0.0
 13
0.0
 23
0.0
 33
0.0
 16
1.0
 26
0.0
 36
0.0
 17
0.0
 27
1.0
 37
0.0
 76
0
330
214
345
0
346
0
  0
ENDSEC
  0
EOF
