  0
SECTION
  2
HEADER
  9
$ACADVER
  1
AC1015
  9
$DWGCODEPAGE
  3
ANSI_1252
  9
$EXTMAX
 10
297.0
 20
210.0
 30
0.0
  9
$EXTMIN
 10
0.0
 20
0.0
 30
0.0
  9
$LIMMIN
 10
0.0
 20
0.0
  9
$LIMMAX
 10
297.0
 20
210.0
  9
$VIEWCTR
 10
148.5
 20
105.0
  9
$VIEWSIZE
 40
210.0
  9
$CLAYER
  8
0
  9
$LTSCALE
 40
16.335
  9
$CELTYPE
  6
BYLAYER
  9
$DIMSCALE
 40
1.0
  9
$DIMASZ
 40
3.0
  9
$DIMEXO
 40
1.85625
  9
$DIMDLI
 40
11.286
  9
$DIMEXE
 40
5.346
  9
$DIMCEN
 40
2.673
  9
$DIMLFAC
 40
1.0
  9
$DIMBLK
  1
_FILLED
  9
$DIMTXT
 40
3.0
  9
$DIMTOL
 70
1
  9
$DIMLIM
 70
0
  9
$DIMTFAC
 40
1.0
  9
$DIMTP
 40
0.01
  9
$DIMTM
 40
0.01
  9
$PDMODE
 70
3
  9
$PDSIZE
 40
3.0
  9
$HANDSEED
  5
4A8
  9
$TILEMODE
 70
1
  9
$MEASUREMENT
 70
1
  9
$INSUNITS
 70
4
  0
ENDSEC
  0
SECTION
  2
CLASSES
  0
CLASS
  1
ACDBDICTIONARYWDFLT
  2
AcDbDictionaryWithDefault
  3
AutoCAD 2000
 90
0
280
0
281
0
  0
CLASS
  1
ACDBPLACEHOLDER
  2
AcDbPlaceHolder
  3
AutoCAD 2000
 90
0
280
0
281
0
  0
CLASS
  1
LAYOUT
  2
AcDbLayout
  3
AutoCAD 2000
 90
0
280
0
281
0
  0
ENDSEC
  0
SECTION
  2
TABLES
  0
TABLE
  2
VPORT
  5
8
100
AcDbSymbolTable
 70
2
  0
VPORT
  5
1F4
100
AcDbSymbolTableRecord
100
AcDbViewportTableRecord
  2
*ACTIVE
 70
0
 10
0.0
 20
0.0
 11
1.0
 21
1.0
 12
148.5
 22
105.0
 13
0.0
 23
0.0
 14
1.0
 24
1.0
 15
0.0
 25
0.0
 16
0.0
 26
0.0
 36
1.0
 17
0.0
 27
0.0
 37
0.0
 40
210.0
 41
1.4142857143
 42
50.0
 43
0.0
 44
0.0
 50
0.0
 51
0.0
 71
0
 72
100
 73
1
 74
1
 75
0
 76
0
 77
0
 78
0
  0
ENDTAB
  0
TABLE
  2
LTYPE
  5
5
100
AcDbSymbolTable
 70
6
  0
LTYPE
  5
14
100
AcDbSymbolTableRecord
100
AcDbLinetypeTableRecord
  2
BYBLOCK
 70
0
  3

 72
65
 73
0
 40
0.0
  0
LTYPE
  5
15
100
AcDbSymbolTableRecord
100
AcDbLinetypeTableRecord
  2
BYLAYER
 70
0
  3

 72
65
 73
0
 40
0.0
  0
LTYPE
  5
16
100
AcDbSymbolTableRecord
100
AcDbLinetypeTableRecord
  2
CONTINUOUS
 70
64
  3
Solid line
 72
65
 73
0
 40
0.0
  0
LTYPE
  5
1F5
100
AcDbSymbolTableRecord
100
AcDbLinetypeTableRecord
  2
CENTER
 70
64
  3
____ _ ____ _ ____ _ ____ _ ____ _ ____ _ ____
 72
65
 73
4
 40
0.6
 49
0.375
 74
0
 49
-0.075
 74
0
 49
0.075
 74
0
 49
-0.075
 74
0
  0
LTYPE
  5
1F6
100
AcDbSymbolTableRecord
100
AcDbLinetypeTableRecord
  2
HIDDEN
 70
64
  3
- - - - - - - - - - - - - - - - - - - -
 72
65
 73
2
 40
0.2
 49
0.1
 74
0
 49
-0.1
 74
0
  0
LTYPE
  5
1F7
100
AcDbSymbolTableRecord
100
AcDbLinetypeTableRecord
  2
PHANTOM
 70
64
  3
_____ _ _ _____ _ _ _____ _ _ _____
 72
65
 73
6
 40
0.8
 49
0.45
 74
0
 49
-0.05
 74
0
 49
0.1
 74
0
 49
-0.05
 74
0
 49
0.1
 74
0
 49
-0.05
 74
0
  0
LTYPE
  5
1F8
100
AcDbSymbolTableRecord
100
AcDbLinetypeTableRecord
  2
DOT
 70
64
  3
. . . . . . . . . . . . . . . . . . . .
 72
65
 73
2
 40
0.2
 49
0.1
 74
0
 49
-0.1
 74
0
  0
LTYPE
  5
1F9
100
AcDbSymbolTableRecord
100
AcDbLinetypeTableRecord
  2
DASHED
 70
64
  3
- - - - - - - - - - - - - - - - - - - -
 72
65
 73
2
 40
0.2
 49
0.1
 74
0
 49
-0.1
 74
0
  0
ENDTAB
  0
TABLE
  2
LAYER
  5
2
100
AcDbSymbolTable
 70
36
  0
LAYER
  5
10
100
AcDbSymbolTableRecord
100
AcDbLayerTableRecord
  2
0
 70
0
 62
7
  6
CONTINUOUS
370
-3
390
F
  0
LAYER
  5
1FA
100
AcDbSymbolTableRecord
100
AcDbLayerTableRecord
  2
DEFAULT_1
 70
0
 62
7
  6
CENTER
370
-3
390
F
  0
LAYER
  5
1FB
100
AcDbSymbolTableRecord
100
AcDbLayerTableRecord
  2
DEFAULT_2
 70
0
 62
7
  6
HIDDEN
370
-3
390
F
  0
LAYER
  5
1FC
100
AcDbSymbolTableRecord
100
AcDbLayerTableRecord
  2
DEFAULT_3
 70
0
 62
7
  6
PHANTOM
370
-3
390
F
  0
LAYER
  5
1FD
100
AcDbSymbolTableRecord
100
AcDbLayerTableRecord
  2
ASSI
 70
0
 62
7
  6
CONTINUOUS
370
-3
390
F
  0
LAYER
  5
1FE
100
AcDbSymbolTableRecord
100
AcDbLayerTableRecord
  2
CN-MRT4P5_3SQV01-VIMAR_1600000
 70
0
 62
7
  6
CONTINUOUS
370
-3
390
F
  0
LAYER
  5
1FF
100
AcDbSymbolTableRecord
100
AcDbLayerTableRecord
  2
COLOR5
 70
0
 62
7
  6
CONTINUOUS
370
-3
390
F
  0
LAYER
  5
200
100
AcDbSymbolTableRecord
100
AcDbLayerTableRecord
  2
COLORE_MATERIALE
 70
0
 62
7
  6
CONTINUOUS
370
-3
390
F
  0
LAYER
  5
201
100
AcDbSymbolTableRecord
100
AcDbLayerTableRecord
  2
COORDINATE
 70
0
 62
7
  6
CONTINUOUS
370
-3
390
F
  0
LAYER
  5
202
100
AcDbSymbolTableRecord
100
AcDbLayerTableRecord
  2
COORD_ORIGINE
 70
0
 62
7
  6
CONTINUOUS
370
-3
390
F
  0
LAYER
  5
203
100
AcDbSymbolTableRecord
100
AcDbLayerTableRecord
  2
COPY_PUBLISH
 70
0
 62
7
  6
CONTINUOUS
370
-3
390
F
  0
LAYER
  5
204
100
AcDbSymbolTableRecord
100
AcDbLayerTableRecord
  2
COSMETIC
 70
0
 62
7
  6
CONTINUOUS
370
-3
390
F
  0
LAYER
  5
205
100
AcDbSymbolTableRecord
100
AcDbLayerTableRecord
  2
CURVE
 70
0
 62
7
  6
CONTINUOUS
370
-3
390
F
  0
LAYER
  5
206
100
AcDbSymbolTableRecord
100
AcDbLayerTableRecord
  2
DRAFT
 70
0
 62
7
  6
CONTINUOUS
370
-3
390
F
  0
LAYER
  5
207
100
AcDbSymbolTableRecord
100
AcDbLayerTableRecord
  2
IMPORT_IGES
 70
0
 62
7
  6
CONTINUOUS
370
-3
390
F
  0
LAYER
  5
208
100
AcDbSymbolTableRecord
100
AcDbLayerTableRecord
  2
INCISIONI
 70
0
 62
7
  6
CONTINUOUS
370
-3
390
F
  0
LAYER
  5
209
100
AcDbSymbolTableRecord
100
AcDbLayerTableRecord
  2
INTF_1
 70
0
 62
7
  6
CONTINUOUS
370
-3
390
F
  0
LAYER
  5
20A
100
AcDbSymbolTableRecord
100
AcDbLayerTableRecord
  2
INTF_RED
 70
0
 62
7
  6
CONTINUOUS
370
-3
390
F
  0
LAYER
  5
20B
100
AcDbSymbolTableRecord
100
AcDbLayerTableRecord
  2
NOTE
 70
0
 62
7
  6
CONTINUOUS
370
-3
390
F
  0
LAYER
  5
20C
100
AcDbSymbolTableRecord
100
AcDbLayerTableRecord
  2
PIANI
 70
0
 62
7
  6
CONTINUOUS
370
-3
390
F
  0
LAYER
  5
20D
100
AcDbSymbolTableRecord
100
AcDbLayerTableRecord
  2
PIANI_DI_RIFERIMENTO
 70
0
 62
7
  6
CONTINUOUS
370
-3
390
F
  0
LAYER
  5
20E
100
AcDbSymbolTableRecord
100
AcDbLayerTableRecord
  2
PIANI_ORIGINE
 70
0
 62
7
  6
CONTINUOUS
370
-3
390
F
  0
LAYER
  5
20F
100
AcDbSymbolTableRecord
100
AcDbLayerTableRecord
  2
PIANI_RIFERIMENTO
 70
0
 62
7
  6
CONTINUOUS
370
-3
390
F
  0
LAYER
  5
210
100
AcDbSymbolTableRecord
100
AcDbLayerTableRecord
  2
PUBLISHED_GEOMETRY
 70
0
 62
7
  6
CONTINUOUS
370
-3
390
F
  0
LAYER
  5
211
100
AcDbSymbolTableRecord
100
AcDbLayerTableRecord
  2
PUNTI
 70
0
 62
7
  6
CONTINUOUS
370
-3
390
F
  0
LAYER
  5
212
100
AcDbSymbolTableRecord
100
AcDbLayerTableRecord
  2
RACCORDO
 70
0
 62
7
  6
CONTINUOUS
370
-3
390
F
  0
LAYER
  5
213
100
AcDbSymbolTableRecord
100
AcDbLayerTableRecord
  2
SMUSSO
 70
0
 62
7
  6
CONTINUOUS
370
-3
390
F
  0
LAYER
  5
214
100
AcDbSymbolTableRecord
100
AcDbLayerTableRecord
  2
SNAPLINE
 70
0
 62
7
  6
CONTINUOUS
370
-3
390
F
  0
LAYER
  5
215
100
AcDbSymbolTableRecord
100
AcDbLayerTableRecord
  2
SUPERFICI
 70
0
 62
7
  6
CONTINUOUS
370
-3
390
F
  0
LAYER
  5
216
100
AcDbSymbolTableRecord
100
AcDbLayerTableRecord
  2
TRASH
 70
0
 62
7
  6
CONTINUOUS
370
-3
390
F
  0
LAYER
  5
217
100
AcDbSymbolTableRecord
100
AcDbLayerTableRecord
  2
XSEC_DATUMS
 70
0
 62
7
  6
CONTINUOUS
370
-3
390
F
  0
LAYER
  5
218
100
AcDbSymbolTableRecord
100
AcDbLayerTableRecord
  2
___SHELL
 70
0
 62
7
  6
CONTINUOUS
370
-3
390
F
  0
ENDTAB
  0
TABLE
  2
STYLE
  5
3
100
AcDbSymbolTable
 70
1
  0
STYLE
  5
11
100
AcDbSymbolTableRecord
100
AcDbTextStyleTableRecord
  2
STANDARD
 70
0
 40
0.0
 41
0.8
 50
0.0
 71
0
 42
0.2
  3
txt
  4

  0
STYLE
  5
219
100
AcDbSymbolTableRecord
100
AcDbTextStyleTableRecord
  2
TEXTSTYLE_1
 70
0
 40
0.0
 41
0.8
 50
0.0
 71
0
 42
0.2
  3
gdt
  4

  0
ENDTAB
  0
TABLE
  2
VIEW
  5
6
100
AcDbSymbolTable
 70
0
  0
ENDTAB
  0
TABLE
  2
UCS
  5
7
100
AcDbSymbolTable
 70
0
  0
ENDTAB
  0
TABLE
  2
APPID
  5
9
100
AcDbSymbolTable
 70
1
  0
APPID
  5
21A
100
AcDbSymbolTableRecord
100
AcDbRegAppTableRecord
  2
ACAD
 70
0
  0
ENDTAB
  0
TABLE
  2
BLOCK_RECORD
  5
1
100
AcDbSymbolTable
 70
0
  0
BLOCK_RECORD
  5
21B
100
AcDbSymbolTableRecord
100
AcDbBlockTableRecord
  2
*Model_Space
  0
BLOCK_RECORD
  5
21C
100
AcDbSymbolTableRecord
100
AcDbBlockTableRecord
  2
*Paper_Space
  0
ENDTAB
  0
TABLE
  2
DIMSTYLE
  5
A
100
AcDbSymbolTable
 70
1
100
AcDbDimStyleTable
 71
0
  0
DIMSTYLE
105
21D
100
AcDbSymbolTableRecord
100
AcDbDimStyleTableRecord
  2
STANDARD
 70
0
  3

  4

 40
1.0
 41
3.0
 42
0.0625
 43
0.38
 44
0.18
 45
0.0
 46
0.0
 47
0.01
 48
0.01
140
3.0
141
0.09
142
0.0
143
25.4
144
1.0
145
0.0
146
1.0
147
0.09
 71
1.0
 72
0.0
 73
0
 74
0
 75
0
 76
0
 77
1
 78
8
170
0
171
2
172
0
173
0
174
0
175
0
176
0
177
0
178
0
270
2
271
2
272
2
273
2
274
2
275
0
280
0
281
0
282
0
283
1
284
8
285
0
286
0
287
3
288
0
340
11
  0
ENDTAB
  0
ENDSEC
  0
SECTION
  2
BLOCKS
  0
BLOCK
  5
20
100
AcDbEntity
  8
0
100
AcDbBlockBegin
  2
*Model_Space
 70
0
 10
0.0
 20
0.0
 30
0.0
  3
*Model_Space
  1

  0
ENDBLK
  5
21
100
AcDbEntity
  8
0
100
AcDbBlockEnd
  0
BLOCK
  5
1C
100
AcDbEntity
  8
0
100
AcDbBlockBegin
  2
*Paper_Space
 70
0
 10
0.0
 20
0.0
 30
0.0
  3
*Paper_Space
  1

  0
ENDBLK
  5
1D
100
AcDbEntity
  8
0
100
AcDbBlockEnd
  0
ENDSEC
  0
SECTION
  2
ENTITIES
  0
LINE
  5
21E
100
AcDbEntity
  8
RACCORDO
100
AcDbLine
 62
7
  6
CONTINUOUS
 10
-12.5521569206
 20
23.5115177487
 11
-14.1353286156
 21
22.6993207014
  0
LINE
  5
21F
100
AcDbEntity
  8
RACCORDO
100
AcDbLine
 62
253
  6
CONTINUOUS
 10
-12.4394863463
 20
23.5048568236
 11
-14.0222429495
 21
22.6928727262
  0
LINE
  5
220
100
AcDbEntity
  8
RACCORDO
100
AcDbLine
 62
7
  6
CONTINUOUS
 10
-12.5504185351
 20
23.5123869814
 11
-12.5521549469
 21
23.5115187612
  0
LINE
  5
221
100
AcDbEntity
  8
RACCORDO
100
AcDbLine
 62
7
  6
CONTINUOUS
 10
-12.0155485787
 20
23.7729390812
 11
-12.5504157695
 21
23.5123883287
  0
LINE
  5
222
100
AcDbEntity
  8
RACCORDO
100
AcDbLine
 62
253
  6
CONTINUOUS
 10
-11.9050364676
 20
23.7652042901
 11
-12.4394863463
 21
23.5048568236
  0
LWPOLYLINE
  5
223
100
AcDbEntity
  8
RACCORDO
100
AcDbPolyline
 62
7
  6
CONTINUOUS
 90
37
 70
0
 10
-18.1595853011
 20
18.6788373507
 10
-18.1913361252
 20
18.6597444554
 10
-18.2342651984
 20
18.6320577125
 10
-18.2763816697
 20
18.6027403738
 10
-18.3176676869
 20
18.5718534573
 10
-18.3581140254
 20
18.5394507772
 10
-18.397707056
 20
18.5055842369
 10
-18.436431652
 20
18.4703060344
 10
-18.4742717572
 20
18.4336653217
 10
-18.5112023618
 20
18.3957169727
 10
-18.547205771
 20
18.3565095452
 10
-18.5822621327
 20
18.3160891271
 10
-18.6163381419
 20
18.2745178802
 10
-18.6494121993
 20
18.2318440199
 10
-18.681461719
 20
18.18811309
 10
-18.7124494311
 20
18.1433934467
 10
-18.7423510844
 20
18.0977333719
 10
-18.7711426311
 20
18.0511800341
 10
-18.7987853725
 20
18.0038057904
 10
-18.8252539516
 20
17.9556590742
 10
-18.8505235192
 20
17.9067893235
 10
-18.8745547585
 20
17.8572723609
 10
-18.8973225134
 20
17.8071576133
 10
-18.9188016533
 20
17.7564950212
 10
-18.9389543618
 20
17.705361316
 10
-18.9577565309
 20
17.6538058505
 10
-18.97518216
 20
17.6018783162
 10
-18.9911966242
 20
17.5496538287
 10
-19.0057757855
 20
17.4971805119
 10
-19.0188926795
 20
17.4445064523
 10
-19.0305164047
 20
17.391701327
 10
-19.040620847
 20
17.3388125442
 10
-19.0491777902
 20
17.2858863075
 10
-19.0561576808
 20
17.2329797213
 10
-19.0615303159
 20
17.1801376254
 10
-19.0652652816
 20
17.1274066966
 10
-19.0669101236
 20
17.0899110732
  0
LINE
  5
224
100
AcDbEntity
  8
RACCORDO
100
AcDbLine
 62
7
  6
CONTINUOUS
 10
-18.159594987
 20
18.6788319319
 11
-13.5682215559
 21
21.3560231799
  0
LINE
  5
225
100
AcDbEntity
  8
RACCORDO
100
AcDbLine
 62
253
  6
CONTINUOUS
 10
-13.5682215559
 20
21.2140856869
 11
-17.9309080204
 21
18.6702398866
  0
LINE
  5
226
100
AcDbEntity
  8
RACCORDO
100
AcDbLine
 62
253
  6
CONTINUOUS
 10
-11.0959774788
 20
22.8331023898
 11
-12.6972582696
 21
22.0303803863
  0
LINE
  5
227
100
AcDbEntity
  8
RACCORDO
100
AcDbLine
 62
253
  6
CONTINUOUS
 10
-10.9192037751
 20
22.528212851
 11
-12.520484566
 21
21.7254908475
  0
LINE
  5
228
100
AcDbEntity
  8
RACCORDO
100
AcDbLine
 62
253
  6
CONTINUOUS
 10
-10.5677103071
 20
23.0965412099
 11
-11.0959774788
 21
22.8331023898
  0
LINE
  5
229
100
AcDbEntity
  8
RACCORDO
100
AcDbLine
 62
253
  6
CONTINUOUS
 10
-10.3909366034
 20
22.7916516711
 11
-10.9192037751
 21
22.528212851
  0
LINE
  5
22A
100
AcDbEntity
  8
RACCORDO
100
AcDbLine
 62
253
  6
CONTINUOUS
 10
2.973381561
 20
-25.5376430673
 11
2.4451143893
 21
-25.4291407902
  0
LWPOLYLINE
  5
22B
100
AcDbEntity
  8
RACCORDO
100
AcDbPolyline
 62
7
  6
CONTINUOUS
 90
24
 70
0
 10
-3.6911923991
 20
-26.8768101989
 10
-3.6690031147
 20
-26.8875231893
 10
-3.6367927734
 20
-26.9017490397
 10
-3.6039004658
 20
-26.914734555
 10
-3.5703557443
 20
-26.9264524467
 10
-3.5361679383
 20
-26.9368816858
 10
-3.5013766768
 20
-26.9459920659
 10
-3.46602447
 20
-26.9537561504
 10
-3.4301222916
 20
-26.9601537711
 10
-3.3937080305
 20
-26.9651585517
 10
-3.3568274478
 20
-26.9687458077
 10
-3.3194993569
 20
-26.9708959034
 10
-3.2817662685
 20
-26.9715874058
 10
-3.2436677518
 20
-26.9708004665
 10
-3.2052128834
 20
-26.9685153549
 10
-3.1664417391
 20
-26.9647141304
 10
-3.12739226
 20
-26.959379699
 10
-3.0880643705
 20
-26.9524883855
 10
-3.0484905499
 20
-26.9440208197
 10
-3.0087089006
 20
-26.9339600765
 10
-2.9687213551
 20
-26.9222784844
 10
-2.9285508883
 20
-26.9089519343
 10
-2.8882472305
 20
-26.893967153
 10
-2.8607827819
 20
-26.8828211018
  0
LINE
  5
22C
100
AcDbEntity
  8
RACCORDO
100
AcDbLine
 62
7
  6
CONTINUOUS
 10
-3.6910993898
 20
-26.8768567145
 11
-18.5389862774
 21
-19.4529132707
  0
LINE
  5
22D
100
AcDbEntity
  8
RACCORDO
100
AcDbLine
 62
7
  6
CONTINUOUS
 10
-3.6911916556
 20
-26.8768105714
 11
-3.6910997199
 21
-26.8768565495
  0
LINE
  5
22E
100
AcDbEntity
  8
RACCORDO
100
AcDbLine
 62
253
  6
CONTINUOUS
 10
-4.0846134441
 20
-26.11623443
 11
-9.7044707996
 21
-23.3063047581
  0
LINE
  5
22F
100
AcDbEntity
  8
RACCORDO
100
AcDbLine
 62
253
  6
CONTINUOUS
 10
-13.3034998829
 20
-21.506790216
 11
-18.9233571685
 21
-18.6968625678
  0
LINE
  5
230
100
AcDbEntity
  8
RACCORDO
100
AcDbLine
 62
253
  6
CONTINUOUS
 10
-10.9192037751
 20
21.8011679985
 11
-10.3909366034
 21
22.4441201543
  0
LINE
  5
231
100
AcDbEntity
  8
RACCORDO
100
AcDbLine
 62
7
  6
CONTINUOUS
 10
-10.9192037751
 20
21.7116375322
 11
-10.375576031
 21
22.3732849877
  0
LINE
  5
232
100
AcDbEntity
  8
RACCORDO
100
AcDbLine
 62
7
  6
CONTINUOUS
 10
-10.9192037751
 20
20.92606219
 11
-11.8092639579
 21
20.4293812688
  0
LINE
  5
233
100
AcDbEntity
  8
RACCORDO
100
AcDbLine
 62
7
  6
CONTINUOUS
 10
-8.5503840568
 20
20.5959437767
 11
-8.1968426676
 21
20.7773172016
  0
LINE
  5
234
100
AcDbEntity
  8
ASSI
100
AcDbLine
 62
7
  6
CONTINUOUS
 10
-8.1968426676
 20
20.7773172016
 11
-2.8565057128
 21
23.378764507
  0
LINE
  5
235
100
AcDbEntity
  8
DRAFT
100
AcDbLine
 62
7
  6
CONTINUOUS
 10
-3.1180027481
 20
24.0270572364
 11
-9.5111610401
 21
20.9215899145
  0
LINE
  5
236
100
AcDbEntity
  8
RACCORDO
100
AcDbLine
 62
7
  6
CONTINUOUS
 10
4.4664052216
 20
27.0017859672
 11
-2.2452871837
 21
23.8365704223
  0
LINE
  5
237
100
AcDbEntity
  8
RACCORDO
100
AcDbLine
 62
253
  6
CONTINUOUS
 10
4.905289972
 20
26.9693830322
 11
-1.9989096107
 21
23.7133816358
  0
LINE
  5
238
100
AcDbEntity
  8
RACCORDO
100
AcDbLine
 62
253
  6
CONTINUOUS
 10
2.8839677657
 20
-25.2180762613
 11
2.4451143893
 21
-25.1279389346
  0
LINE
  5
239
100
AcDbEntity
  8
RACCORDO
100
AcDbLine
 62
7
  6
CONTINUOUS
 10
-0.7686997446
 20
-26.4084336287
 11
0.5562849352
 21
-27.0709259686
  0
LINE
  5
23A
100
AcDbEntity
  8
RACCORDO
100
AcDbLine
 62
253
  6
CONTINUOUS
 10
-0.833673041
 20
-26.2732151786
 11
0.4913116388
 21
-26.9357075185
  0
LINE
  5
23B
100
AcDbEntity
  8
RACCORDO
100
AcDbLine
 62
253
  6
CONTINUOUS
 10
0.4913116388
 20
-26.5957335844
 11
-0.7263822992
 21
-25.9868866154
  0
LINE
  5
23C
100
AcDbEntity
  8
RACCORDO
100
AcDbLine
 62
253
  6
CONTINUOUS
 10
0.5796999865
 20
-26.3640394105
 11
-0.426425209
 21
-25.8609768128
  0
LINE
  5
23D
100
AcDbEntity
  8
RACCORDO
100
AcDbLine
 62
7
  6
CONTINUOUS
 10
1.2025322469
 20
-25.6192371072
 11
0.721938651
 21
-25.3789403093
  0
LWPOLYLINE
  5
23E
100
AcDbEntity
  8
RACCORDO
100
AcDbPolyline
 62
7
  6
CONTINUOUS
 90
27
 70
0
 10
-19.066891539
 20
-18.5227676477
 10
-19.0651380904
 20
-18.5607202492
 10
-19.0612507428
 20
-18.6116058995
 10
-19.0556460397
 20
-18.6615869434
 10
-19.0483334207
 20
-18.7106579994
 10
-19.0393297574
 20
-18.7587619952
 10
-19.0286675342
 20
-18.8057850906
 10
-19.0163674131
 20
-18.8517041101
 10
-19.0024521336
 20
-18.8964856144
 10
-18.9869783695
 20
-18.9400035602
 10
-18.9699806696
 20
-18.9822314001
 10
-18.9514947978
 20
-19.0231416451
 10
-18.9316065747
 20
-19.062611684
 10
-18.9103850447
 20
-19.1005887883
 10
-18.8878694773
 20
-19.1370813695
 10
-18.8641211671
 20
-19.1720582993
 10
-18.8392233115
 20
-19.2054682369
 10
-18.8132199468
 20
-19.2373222738
 10
-18.7861138027
 20
-19.2676695251
 10
-18.757968142
 20
-19.2964805399
 10
-18.7288445753
 20
-19.3237353454
 10
-18.6987334128
 20
-19.3494763177
 10
-18.6676979007
 20
-19.3736732453
 10
-18.635799939
 20
-19.3963022913
 10
-18.6030185984
 20
-19.4173964895
 10
-18.5693860273
 20
-19.4369429073
 10
-18.5388625045
 20
-19.4529751363
  0
LINE
  5
23F
100
AcDbEntity
  8
0
100
AcDbLine
 62
7
  6
CONTINUOUS
 10
-3.2470951993
 20
20.7971414847
 11
-2.5399884181
 21
21.1506948753
  0
LINE
  5
240
100
AcDbEntity
  8
0
100
AcDbLine
 62
7
  6
CONTINUOUS
 10
-0.788650521
 20
21.6728104333
 11
-2.1864350275
 21
20.97391818
  0
LINE
  5
241
100
AcDbEntity
  8
ASSI
100
AcDbLine
 62
7
  6
CONTINUOUS
 10
-2.2509990716
 20
23.0760111864
 11
-6.8533397833
 21
20.8076341522
  0
LINE
  5
242
100
AcDbEntity
  8
DRAFT
100
AcDbLine
 62
7
  6
CONTINUOUS
 10
-2.5399884181
 20
21.7032530646
 11
-2.2062127954
 21
21.8665734198
  0
LINE
  5
243
100
AcDbEntity
  8
RACCORDO
100
AcDbLine
 62
7
  6
CONTINUOUS
 10
-0.1296547696
 20
22.5328832471
 11
-2.1864350275
 21
21.5264763693
  0
LINE
  5
244
100
AcDbEntity
  8
RACCORDO
100
AcDbLine
 62
253
  6
CONTINUOUS
 10
2.4451143893
 20
-24.9986495731
 11
2.8839677657
 21
-25.2180762613
  0
LINE
  5
245
100
AcDbEntity
  8
RACCORDO
100
AcDbLine
 62
7
  6
CONTINUOUS
 10
2.4451143893
 20
-24.9950294235
 11
2.9073828169
 21
-25.2261636374
  0
LWPOLYLINE
  5
246
100
AcDbEntity
  8
RACCORDO
100
AcDbPolyline
 62
7
  6
CONTINUOUS
 90
22
 70
0
 10
-19.066909943
 20
17.0899199779
 10
-19.1198652831
 20
15.3790722579
 10
-19.1679079171
 20
13.6577150342
 10
-19.2106142922
 20
11.9388928569
 10
-19.2479835835
 20
10.2226353379
 10
-19.2800152516
 20
8.508968198
 10
-19.3067088299
 20
6.7979155901
 10
-19.3280638587
 20
5.0895029372
 10
-19.3440800119
 20
3.383756633
 10
-19.3547570031
 20
1.6807022945
 10
-19.3600945768
 20
-0.019634277
 10
-19.3600926413
 20
-1.7172264785
 10
-19.3547511558
 20
-3.412047492
 10
-19.3440701298
 20
-5.1040707682
 10
-19.3280497371
 20
-6.7932707279
 10
-19.306690182
 20
-8.4796220095
 10
-19.2799917088
 20
-10.1630985134
 10
-19.2479546952
 20
-11.8436752492
 10
-19.2105795258
 20
-13.52132851
 10
-19.1678666576
 20
-15.1960330999
 10
-19.1198168332
 20
-16.867760223
 10
-19.0668916939
 20
-18.5227685455
  0
LINE
  5
247
100
AcDbEntity
  8
DRAFT
100
AcDbLine
 62
7
  6
CONTINUOUS
 10
-3.3885165555
 20
19.1675850798
 11
-3.4773674483
 21
19.1196479847
  0
LINE
  5
248
100
AcDbEntity
  8
DRAFT
100
AcDbLine
 62
7
  6
CONTINUOUS
 10
-3.2470951993
 20
19.3634425132
 11
-3.6022301041
 21
19.1820793126
  0
LWPOLYLINE
  5
249
100
AcDbEntity
  8
RACCORDO
100
AcDbPolyline
 62
7
  6
CONTINUOUS
 90
13
 70
0
 10
-13.9709851365
 20
13.5463871297
 10
-13.9599196455
 20
13.5515831246
 10
-13.8731908296
 20
13.5897937895
 10
-13.7851717378
 20
13.624194777
 10
-13.695941119
 20
13.6548065277
 10
-13.6055318693
 20
13.6816677846
 10
-13.5139293836
 20
13.7048260445
 10
-13.4211840885
 20
13.7243024087
 10
-13.3273568729
 20
13.7401178898
 10
-13.2324475284
 20
13.7523023176
 10
-13.1364956927
 20
13.7608731307
 10
-13.0395888726
 20
13.7658476178
 10
-12.9505628628
 20
13.7672673521
  0
LINE
  5
24A
100
AcDbEntity
  8
RACCORDO
100
AcDbLine
 62
7
  6
CONTINUOUS
 10
-2.540136202
 20
19.8692694272
 11
-2.4253675916
 21
19.922385017
  0
LINE
  5
24B
100
AcDbEntity
  8
RACCORDO
100
AcDbLine
 62
253
  6
CONTINUOUS
 10
-2.3279102316
 20
19.8497174831
 11
-2.2446647834
 21
19.8881629898
  0
LINE
  5
24C
100
AcDbEntity
  8
DRAFT
100
AcDbLine
 62
7
  6
CONTINUOUS
 10
-3.3127930791
 20
19.2025566906
 11
-3.3885165555
 21
19.1675850798
  0
LINE
  5
24D
100
AcDbEntity
  8
RACCORDO
100
AcDbLine
 62
7
  6
CONTINUOUS
 10
-2.4105868212
 20
19.9291588352
 11
-2.4253675916
 21
19.922385017
  0
LINE
  5
24E
100
AcDbEntity
  8
RACCORDO
100
AcDbLine
 62
7
  6
CONTINUOUS
 10
-2.4001273882
 20
19.9338776474
 11
-2.4105868212
 21
19.9291588352
  0
LINE
  5
24F
100
AcDbEntity
  8
RACCORDO
100
AcDbLine
 62
7
  6
CONTINUOUS
 10
-2.3891859046
 20
19.9387373061
 11
-2.4001273882
 21
19.9338776474
  0
LINE
  5
250
100
AcDbEntity
  8
RACCORDO
100
AcDbLine
 62
7
  6
CONTINUOUS
 10
-2.3777633732
 20
19.9437199165
 11
-2.3891859046
 21
19.9387373061
  0
LINE
  5
251
100
AcDbEntity
  8
RACCORDO
100
AcDbLine
 62
7
  6
CONTINUOUS
 10
-2.365807681
 20
19.9488300665
 11
-2.3777633732
 21
19.9437199165
  0
LINE
  5
252
100
AcDbEntity
  8
RACCORDO
100
AcDbLine
 62
7
  6
CONTINUOUS
 10
-3.433030968
 20
19.0974797446
 11
-2.5781382902
 21
19.8445779557
  0
LINE
  5
253
100
AcDbEntity
  8
RACCORDO
100
AcDbLine
 62
253
  6
CONTINUOUS
 10
-3.2791956899
 20
19.0205621055
 11
-2.3295094591
 21
19.8505012341
  0
LINE
  5
254
100
AcDbEntity
  8
RACCORDO
100
AcDbLine
 62
7
  6
CONTINUOUS
 10
-1.9743029931
 20
16.453611799
 11
-2.3319821424
 21
16.2540158472
  0
LINE
  5
255
100
AcDbEntity
  8
RACCORDO
100
AcDbLine
 62
7
  6
CONTINUOUS
 10
-2.3319821424
 20
17.4867428195
 11
-1.9743029931
 21
17.6660473643
  0
LINE
  5
256
100
AcDbEntity
  8
0
100
AcDbLine
 62
7
  6
CONTINUOUS
 10
-14.0974298773
 20
11.0417509365
 11
-10.4726888828
 21
12.8541214337
  0
LINE
  5
257
100
AcDbEntity
  8
ASSI
100
AcDbLine
 62
7
  6
CONTINUOUS
 10
-1.9743029931
 20
17.6660473643
 11
3.3042550379
 21
20.2983841317
  0
LINE
  5
258
100
AcDbEntity
  8
DRAFT
100
AcDbLine
 62
7
  6
CONTINUOUS
 10
-1.9743029931
 20
16.453611799
 11
3.3505310771
 21
19.0899432309
  0
LINE
  5
259
100
AcDbEntity
  8
ASSI
100
AcDbLine
 62
7
  6
CONTINUOUS
 10
2.6987483967
 20
20.6011374523
 11
-1.903592315
 21
18.3327604181
  0
LINE
  5
25A
100
AcDbEntity
  8
RACCORDO
100
AcDbLine
 62
7
  6
CONTINUOUS
 10
4.1129859175
 20
20.4115629036
 11
3.474125141
 21
20.0989607785
  0
LWPOLYLINE
  5
25B
100
AcDbEntity
  8
RACCORDO
100
AcDbPolyline
 62
7
  6
CONTINUOUS
 90
100
 70
0
 10
-11.6347943432
 20
-11.3737815286
 10
-11.5377076812
 20
-11.4236193153
 10
-11.4293644626
 20
-11.4822831346
 10
-11.3207684664
 20
-11.5443038345
 10
-11.2120045139
 20
-11.6096534441
 10
-11.1031540454
 20
-11.6783001362
 10
-10.9942988384
 20
-11.7502089674
 10
-10.8855161287
 20
-11.8253458097
 10
-10.776884596
 20
-11.9036709606
 10
-10.6684858012
 20
-11.9851402989
 10
-10.5603977075
 20
-12.0697104653
 10
-10.4526981465
 20
-12.1573331944
 10
-10.3454661575
 20
-12.2479564949
 10
-10.2387779256
 20
-12.34152901
 10
-10.13270871
 20
-12.4379954709
 10
-10.0273340857
 20
-12.5372975766
 10
-9.9227286604
 20
-12.6393763668
 10
-9.8189650194
 20
-12.744170157
 10
-9.7161138758
 20
-12.8516163132
 10
-9.6142470374
 20
-12.961649787
 10
-9.5134348408
 20
-13.0742025313
 10
-9.41374424
 20
-13.1892072408
 10
-9.3152426104
 20
-13.3065951138
 10
-9.217999293
 20
-13.4262905391
 10
-9.1220826258
 20
-13.5482153888
 10
-9.0275567764
 20
-13.6722954274
 10
-8.9344878406
 20
-13.7984494746
 10
-8.8429450999
 20
-13.9265876241
 10
-8.7529906523
 20
-14.0566279704
 10
-8.6646849377
 20
-14.1884865351
 10
-8.5780924851
 20
-14.3220686381
 10
-8.4932712718
 20
-14.4572875918
 10
-8.4102773971
 20
-14.5940552126
 10
-8.3291701837
 20
-14.7322729951
 10
-8.2500032311
 20
-14.8718499728
 10
-8.1728278331
 20
-15.0126946866
 10
-8.0976973582
 20
-15.1547064473
 10
-8.0246604789
 20
-15.2977911721
 10
-7.9537636502
 20
-15.4418544679
 10
-7.8850543145
 20
-15.5867938971
 10
-7.8185758121
 20
-15.7325132733
 10
-7.7543696048
 20
-15.878915724
 10
-7.6924775358
 20
-16.0258966232
 10
-7.6329374446
 20
-16.1733581096
 10
-7.5757853651
 20
-16.3212017588
 10
-7.5210573614
 20
-16.4693210835
 10
-7.4687854804
 20
-16.6176171886
 10
-7.4189999717
 20
-16.7659909055
 10
-7.3717307915
 20
-16.9143345032
 10
-7.3270038645
 20
-17.0625488397
 10
-7.2848433678
 20
-17.2105346844
 10
-7.2452728419
 20
-17.3581835587
 10
-7.2083117583
 20
-17.5053969155
 10
-7.1739779439
 20
-17.6520760992
 10
-7.1422882277
 20
-17.7981121298
 10
-7.1132557107
 20
-17.9434057136
 10
-7.086891047
 20
-18.0878616935
 10
-7.063202964
 20
-18.2313771996
 10
-7.0421979835
 20
-18.3738528382
 10
-7.0238797836
 20
-18.5151977231
 10
-7.00824886
 20
-18.6553216167
 10
-6.9953047856
 20
-18.7941314206
 10
-6.9850455749
 20
-18.9315349146
 10
-6.9774655466
 20
-19.0674429942
 10
-6.972557537
 20
-19.2017659364
 10
-6.9703129147
 20
-19.3344144292
 10
-6.9707193116
 20
-19.4653000656
 10
-6.9737621853
 20
-19.5943291488
 10
-6.9794257596
 20
-19.7214244935
 10
-6.9876920052
 20
-19.8465219988
 10
-6.9985397023
 20
-19.9695309785
 10
-7.0119475501
 20
-20.0903790754
 10
-7.0278957981
 20
-20.2090273495
 10
-7.0463565606
 20
-20.3253818097
 10
-7.0673050739
 20
-20.4393805221
 10
-7.0907282799
 20
-20.5510266585
 10
-7.1165895323
 20
-20.6602073539
 10
-7.1448669591
 20
-20.7668835265
 10
-7.1755806013
 20
-20.8711531949
 10
-7.2087063943
 20
-20.9729324909
 10
-7.244219374
 20
-21.0721407076
 10
-7.2821548907
 20
-21.168856709
 10
-7.3225032133
 20
-21.2630155417
 10
-7.365232993
 20
-21.3545044574
 10
-7.4103574224
 20
-21.4433134304
 10
-7.4578563187
 20
-21.5293591716
 10
-7.5077049273
 20
-21.6125535365
 10
-7.5599143385
 20
-21.6928724165
 10
-7.6144566583
 20
-21.7702274316
 10
-7.6713156306
 20
-21.8445499208
 10
-7.7305289502
 20
-21.9158398944
 10
-7.7920735079
 20
-21.9840133368
 10
-7.8559438291
 20
-22.0490079707
 10
-7.922222807
 20
-22.1108443866
 10
-7.9908983382
 20
-22.1694360284
 10
-8.0619849828
 20
-22.22472091
 10
-8.1356346586
 20
-22.2767292575
 10
-8.2119199009
 20
-22.3254011066
 10
-8.2908149672
 20
-22.3706113674
 10
-8.309251556
 20
-22.3804680986
  0
LINE
  5
25C
100
AcDbEntity
  8
RACCORDO
100
AcDbLine
 62
7
  6
CONTINUOUS
 10
-14.2712145101
 20
22.4768842589
 11
-14.2712145101
 21
22.1369103248
  0
LINE
  5
25D
100
AcDbEntity
  8
RACCORDO
100
AcDbLine
 62
253
  6
CONTINUOUS
 10
-14.1979912054
 20
22.3884959113
 11
-14.1979912054
 21
22.0485219772
  0
LINE
  5
25E
100
AcDbEntity
  8
RACCORDO
100
AcDbLine
 62
7
  6
CONTINUOUS
 10
-13.5682215559
 20
21.1769450959
 11
-13.5682215559
 21
21.6309053505
  0
LINE
  5
25F
100
AcDbEntity
  8
RACCORDO
100
AcDbLine
 62
253
  6
CONTINUOUS
 10
-13.4949982511
 20
21.085219554
 11
-13.4949982511
 21
21.5942936981
  0
LINE
  5
260
100
AcDbEntity
  8
RACCORDO
100
AcDbLine
 62
7
  6
CONTINUOUS
 10
0.8121612438
 20
16.8293586665
 11
-0.7710104512
 21
16.0171616192
  0
LINE
  5
261
100
AcDbEntity
  8
RACCORDO
100
AcDbLine
 62
253
  6
CONTINUOUS
 10
0.9248318181
 20
16.8226977414
 11
-0.657924785
 21
16.010713644
  0
LINE
  5
262
100
AcDbEntity
  8
RACCORDO
100
AcDbLine
 62
253
  6
CONTINUOUS
 10
2.2683406856
 20
16.1509433076
 11
0.6670598948
 21
15.3482213041
  0
LINE
  5
263
100
AcDbEntity
  8
RACCORDO
100
AcDbLine
 62
253
  6
CONTINUOUS
 10
2.4451143893
 20
15.8460537688
 11
0.8438335985
 21
15.0433317653
  0
LINE
  5
264
100
AcDbEntity
  8
RACCORDO
100
AcDbLine
 62
7
  6
CONTINUOUS
 10
0.8138996293
 20
16.8302278992
 11
0.8121632175
 21
16.829359679
  0
LINE
  5
265
100
AcDbEntity
  8
RACCORDO
100
AcDbLine
 62
253
  6
CONTINUOUS
 10
-11.4819652536
 20
10.4216482882
 11
-9.2067028258
 21
11.5592795021
  0
LINE
  5
266
100
AcDbEntity
  8
RACCORDO
100
AcDbLine
 62
253
  6
CONTINUOUS
 10
2.7966078574
 20
16.4143821277
 11
2.2683406856
 21
16.1509433076
  0
LINE
  5
267
100
AcDbEntity
  8
RACCORDO
100
AcDbLine
 62
253
  6
CONTINUOUS
 10
2.973381561
 20
16.1094925888
 11
2.4451143893
 21
15.8460537688
  0
LINE
  5
268
100
AcDbEntity
  8
DRAFT
100
AcDbLine
 62
7
  6
CONTINUOUS
 10
7.101333896
 20
18.9173889143
 11
2.4750995402
 21
16.6371136571
  0
LINE
  5
269
100
AcDbEntity
  8
RACCORDO
100
AcDbLine
 62
7
  6
CONTINUOUS
 10
1.3487695857
 20
17.090779999
 11
0.8139023949
 21
16.8302292464
  0
LINE
  5
26A
100
AcDbEntity
  8
RACCORDO
100
AcDbLine
 62
253
  6
CONTINUOUS
 10
1.4592816968
 20
17.0830452079
 11
0.9248318181
 21
16.8226977414
  0
LINE
  5
26B
100
AcDbEntity
  8
RACCORDO
100
AcDbLine
 62
253
  6
CONTINUOUS
 10
-12.8730065256
 20
21.3860296372
 11
-12.8730065256
 21
21.7260035714
  0
LINE
  5
26C
100
AcDbEntity
  8
RACCORDO
100
AcDbLine
 62
253
  6
CONTINUOUS
 10
-12.520484566
 20
21.3855169134
 11
-12.520484566
 21
21.7254908475
  0
LINE
  5
26D
100
AcDbEntity
  8
RACCORDO
100
AcDbLine
 62
253
  6
CONTINUOUS
 10
-12.1617859175
 20
21.1074340101
 11
-12.1617859175
 21
20.4186133871
  0
LINE
  5
26E
100
AcDbEntity
  8
RACCORDO
100
AcDbLine
 62
253
  6
CONTINUOUS
 10
-11.8092639579
 20
21.2370133905
 11
-11.8092639579
 21
20.4293812688
  0
LINE
  5
26F
100
AcDbEntity
  8
RACCORDO
100
AcDbLine
 62
7
  6
CONTINUOUS
 10
-10.9192037751
 20
20.92606219
 11
-10.9192037751
 21
22.528212851
  0
LINE
  5
270
100
AcDbEntity
  8
RACCORDO
100
AcDbLine
 62
253
  6
CONTINUOUS
 10
-3.068558189
 20
11.2390649709
 11
1.4647088164
 21
13.7139086774
  0
LINE
  5
271
100
AcDbEntity
  8
DRAFT
100
AcDbLine
 62
7
  6
CONTINUOUS
 10
8.06148732
 20
17.6393340941
 11
2.7106832235
 21
14.8106677827
  0
LINE
  5
272
100
AcDbEntity
  8
DRAFT
100
AcDbLine
 62
7
  6
CONTINUOUS
 10
3.145905973
 20
14.593056408
 11
8.7405907879
 21
17.5320001257
  0
LINE
  5
273
100
AcDbEntity
  8
DRAFT
100
AcDbLine
 62
7
  6
CONTINUOUS
 10
8.06148732
 20
18.0425907005
 11
2.545195496
 21
15.1512868204
  0
LINE
  5
274
100
AcDbEntity
  8
0
100
AcDbLine
 62
253
  6
CONTINUOUS
 10
-11.4486914574
 20
6.5827546394
 11
-13.0037878685
 21
5.8052064338
  0
LINE
  5
275
100
AcDbEntity
  8
RACCORDO
100
AcDbLine
 62
253
  6
CONTINUOUS
 10
3.1591866824
 20
14.5864160533
 11
2.4451143893
 21
14.2491314583
  0
LINE
  5
276
100
AcDbEntity
  8
RACCORDO
100
AcDbLine
 62
253
  6
CONTINUOUS
 10
3.5057745611
 20
13.9886888765
 11
2.7878666791
 21
13.6495925811
  0
LINE
  5
277
100
AcDbEntity
  8
RACCORDO
100
AcDbLine
 62
253
  6
CONTINUOUS
 10
-10.3909366034
 20
22.7916516711
 11
-10.3909366034
 21
22.4441201543
  0
LINE
  5
278
100
AcDbEntity
  8
RACCORDO
100
AcDbLine
 62
7
  6
CONTINUOUS
 10
-10.3187387464
 20
22.8795243032
 11
-10.3187387464
 21
22.5319927865
  0
LINE
  5
279
100
AcDbEntity
  8
RACCORDO
100
AcDbLine
 62
7
  6
CONTINUOUS
 10
-8.6947797708
 20
20.4117867756
 11
-8.6947797708
 21
19.1715977429
  0
LINE
  5
27A
100
AcDbEntity
  8
RACCORDO
100
AcDbLine
 62
253
  6
CONTINUOUS
 10
2.7878666791
 20
13.6495925811
 11
-2.7100421038
 21
10.6481225741
  0
LINE
  5
27B
100
AcDbEntity
  8
RACCORDO
100
AcDbLine
 62
253
  6
CONTINUOUS
 10
18.666465716
 20
19.6812319722
 11
3.5057745611
 21
11.9681849323
  0
LINE
  5
27C
100
AcDbEntity
  8
0
100
AcDbLine
 62
253
  6
CONTINUOUS
 10
-13.2324917326
 20
4.8738926319
 11
-13.4976567755
 21
4.7413101104
  0
LINE
  5
27D
100
AcDbEntity
  8
RACCORDO
100
AcDbLine
 62
253
  6
CONTINUOUS
 10
9.4861177236
 20
16.2461563669
 11
18.0408431567
 21
20.4016064399
  0
LINE
  5
27E
100
AcDbEntity
  8
RACCORDO
100
AcDbLine
 62
253
  6
CONTINUOUS
 10
9.8237860574
 20
15.6637646399
 11
18.5407670043
 21
19.8980301806
  0
LINE
  5
27F
100
AcDbEntity
  8
RACCORDO
100
AcDbLine
 62
253
  6
CONTINUOUS
 10
-8.5483331614
 20
20.0687169446
 11
-8.5483331614
 21
18.9881336338
  0
LINE
  5
280
100
AcDbEntity
  8
RACCORDO
100
AcDbLine
 62
253
  6
CONTINUOUS
 10
2.4451143893
 20
15.1190089163
 11
2.973381561
 21
15.7619610721
  0
LINE
  5
281
100
AcDbEntity
  8
RACCORDO
100
AcDbLine
 62
7
  6
CONTINUOUS
 10
2.4451143893
 20
15.02947845
 11
3.0444745911
 21
15.7589576878
  0
LINE
  5
282
100
AcDbEntity
  8
RACCORDO
100
AcDbLine
 62
253
  6
CONTINUOUS
 10
19.0806176436
 20
18.2495938604
 11
3.5057745611
 21
10.3258510626
  0
LINE
  5
283
100
AcDbEntity
  8
0
100
AcDbLine
 62
7
  6
CONTINUOUS
 10
-10.3855570346
 20
3.6180052512
 11
-6.9740670688
 21
5.3237502341
  0
LWPOLYLINE
  5
284
100
AcDbEntity
  8
RACCORDO
100
AcDbPolyline
 62
7
  6
CONTINUOUS
 90
28
 70
0
 10
-14.224140696
 20
1.1291597446
 10
-14.2090207974
 20
1.1362381189
 10
-14.1221577687
 20
1.1741434733
 10
-14.0338730581
 20
1.2080684879
 10
-13.9442368668
 20
1.2380451789
 10
-13.8532998548
 20
1.264113629
 10
-13.7610946637
 20
1.2863178545
 10
-13.6676760582
 20
1.3046906969
 10
-13.5731205249
 20
1.3192636341
 10
-13.4774987684
 20
1.3300716857
 10
-13.3809093437
 20
1.337148
 10
-13.2834052271
 20
1.3405347249
 10
-13.1849920847
 20
1.340270735
 10
-13.0857693408
 20
1.3363907395
 10
-12.9857990004
 20
1.3289340647
 10
-12.8850264652
 20
1.3179241742
 10
-12.7835282576
 20
1.3033890358
 10
-12.6813899535
 20
1.2853632452
 10
-12.5785631313
 20
1.2638535926
 10
-12.4751279728
 20
1.2388857296
 10
-12.3711661438
 20
1.2104913096
 10
-12.2666239069
 20
1.1786607362
 10
-12.1615809009
 20
1.1434168501
 10
-12.0561139903
 20
1.1047865948
 10
-11.9501584019
 20
1.0627405767
 10
-11.8437433082
 20
1.0172761944
 10
-11.7370014151
 20
0.9684395147
 10
-11.6400242204
 20
0.9212780051
  0
LINE
  5
285
100
AcDbEntity
  8
0
100
AcDbLine
 62
7
  6
CONTINUOUS
 10
-14.0974298773
 20
-1.2558097973
 11
-10.7931602386
 21
0.3963250221
  0
LINE
  5
286
100
AcDbEntity
  8
ASSI
100
AcDbLine
 62
253
  6
CONTINUOUS
 10
14.552525125
 20
-14.0677011074
 11
13.7137397413
 21
-13.6483084156
  0
LWPOLYLINE
  5
287
100
AcDbEntity
  8
RACCORDO
100
AcDbPolyline
 62
7
  6
CONTINUOUS
 90
100
 70
0
 10
-11.6400223104
 20
0.9212770748
 10
-11.542787503
 20
0.8713275837
 10
-11.4344217569
 20
0.8125259785
 10
-11.3259151394
 20
0.7503369567
 10
-11.2173564785
 20
0.6847937507
 10
-11.1088230964
 20
0.6159288299
 10
-11.0003848157
 20
0.5437720111
 10
-10.8921175514
 20
0.4683584399
 10
-10.784100678
 20
0.3897303492
 10
-10.6764070008
 20
0.3079272594
 10
-10.5691143663
 20
0.2229938596
 10
-10.4622997561
 20
0.1349793348
 10
-10.3560326161
 20
0.043929002
 10
-10.2503890477
 20
-0.0501050274
 10
-10.1454433388
 20
-0.147067362
 10
-10.041260554
 20
-0.2469088484
 10
-9.9379126784
 20
-0.3495730811
 10
-9.835474166
 20
-0.4549964248
 10
-9.7340123346
 20
-0.5631195966
 10
-9.6335951289
 20
-0.6738818292
 10
-9.5342961312
 20
-0.7872115221
 10
-9.4361894142
 20
-0.9030325493
 10
-9.3393430876
 20
-1.0212739642
 10
-9.2438242849
 20
-1.1418613238
 10
-9.1497035824
 20
-1.2647118272
 10
-9.0570455947
 20
-1.3897485715
 10
-8.965913859
 20
-1.5168914673
 10
-8.8763751955
 20
-1.6460514217
 10
-8.7884902706
 20
-1.77714625
 10
-8.7023186488
 20
-1.9100907956
 10
-8.6179231743
 20
-2.0447899248
 10
-8.5353605117
 20
-2.1811561991
 10
-8.4546854522
 20
-2.3191006308
 10
-8.3759555187
 20
-2.4585242024
 10
-8.2992228302
 20
-2.5993351816
 10
-8.224537266
 20
-2.7414412433
 10
-8.151950352
 20
-2.8847410562
 10
-8.0815091611
 20
-3.0291397068
 10
-8.0132586038
 20
-3.1745419217
 10
-7.9472441986
 20
-3.3208445684
 10
-7.8835076046
 20
-3.4679505248
 10
-7.8220886073
 20
-3.6157620568
 10
-7.7630269529
 20
-3.7641740047
 10
-7.7063588266
 20
-3.9130872071
 10
-7.6521183601
 20
-4.0624027094
 10
-7.6003390266
 20
-4.2120147231
 10
-7.5510511256
 20
-4.3618232162
 10
-7.5042830907
 20
-4.5117282818
 10
-7.4600621532
 20
-4.6616235797
 10
-7.4184124689
 20
-4.8114089979
 10
-7.379356533
 20
-4.960984308
 10
-7.342915298
 20
-5.1102424859
 10
-7.3091065927
 20
-5.2590837027
 10
-7.2779465748
 20
-5.4074085068
 10
-7.2494495058
 20
-5.5551102045
 10
-7.2236265457
 20
-5.7020903935
 10
-7.2004873471
 20
-5.8482507571
 10
-7.1800392832
 20
-5.9934848238
 10
-7.1622868801
 20
-6.1376936846
 10
-7.1472325464
 20
-6.2807837167
 10
-7.1348757532
 20
-6.4226567051
 10
-7.1252143963
 20
-6.5632111992
 10
-7.1182437597
 20
-6.702361678
 10
-7.1139558671
 20
-6.8400337347
 10
-7.1123423776
 20
-6.9761351975
 10
-7.1133935335
 20
-7.110576739
 10
-7.1170966283
 20
-7.2432875327
 10
-7.1234372415
 20
-7.3741769958
 10
-7.1323998153
 20
-7.5031606369
 10
-7.1439673326
 20
-7.6301757741
 10
-7.1581190223
 20
-7.7551324266
 10
-7.1748339306
 20
-7.8779526542
 10
-7.1940929142
 20
-7.9985899873
 10
-7.2158704332
 20
-8.1169620426
 10
-7.2401401071
 20
-8.232990208
 10
-7.266880134
 20
-8.3466311985
 10
-7.2960500942
 20
-8.4577724865
 10
-7.327626459
 20
-8.5663757737
 10
-7.3616178615
 20
-8.6724998523
 10
-7.3979822129
 20
-8.7760303433
 10
-7.4367005827
 20
-8.8769269674
 10
-7.4778345876
 20
-8.9753347248
 10
-7.5213841013
 20
-9.0712081271
 10
-7.5673080456
 20
-9.1644119257
 10
-7.6156211556
 20
-9.2549346487
 10
-7.6663050733
 20
-9.3426953982
 10
-7.7193322517
 20
-9.4275999557
 10
-7.7747072624
 20
-9.5096112472
 10
-7.8324009466
 20
-9.5886404888
 10
-7.8923945561
 20
-9.6646158723
 10
-7.9547145967
 20
-9.7375227581
 10
-8.0193352974
 20
-9.8072777739
 10
-8.0862452967
 20
-9.8738148575
 10
-8.1555068648
 20
-9.9371371965
 10
-8.2271018929
 20
-9.9971604962
 10
-8.3010347605
 20
-10.0538207844
 10
-8.377423958
 20
-10.1071315246
 10
-8.4563209703
 20
-10.1570322538
 10
-8.5376951724
 20
-10.2034088209
 10
-8.5544687729
 20
-10.2123598212
  0
LINE
  5
288
100
AcDbEntity
  8
DRAFT
100
AcDbLine
 62
253
  6
CONTINUOUS
 10
-3.2470951993
 20
20.7971414847
 11
-3.2470951993
 21
19.3634425132
  0
LINE
  5
289
100
AcDbEntity
  8
RACCORDO
100
AcDbLine
 62
253
  6
CONTINUOUS
 10
-3.0370260617
 20
16.2324800839
 11
-3.0370260617
 21
17.3130633947
  0
LINE
  5
28A
100
AcDbEntity
  8
DRAFT
100
AcDbLine
 62
7
  6
CONTINUOUS
 10
-2.5399884181
 20
21.1506948753
 11
-2.5399884181
 21
21.7032530646
  0
LINE
  5
28B
100
AcDbEntity
  8
RACCORDO
100
AcDbLine
 62
253
  6
CONTINUOUS
 10
-2.3319821424
 20
16.2540158472
 11
-2.3319821424
 21
17.4867428195
  0
LINE
  5
28C
100
AcDbEntity
  8
ASSI
100
AcDbLine
 62
253
  6
CONTINUOUS
 10
-2.2062127954
 20
21.8665734198
 11
-2.2062127954
 21
23.0942513004
  0
LINE
  5
28D
100
AcDbEntity
  8
DRAFT
100
AcDbLine
 62
7
  6
CONTINUOUS
 10
-2.1864350275
 20
20.97391818
 11
-2.1864350275
 21
21.5264763693
  0
LINE
  5
28E
100
AcDbEntity
  8
ASSI
100
AcDbLine
 62
7
  6
CONTINUOUS
 10
-2.0808632882
 20
22.0156015782
 11
-2.0808632882
 21
23.10478823
  0
LINE
  5
28F
100
AcDbEntity
  8
DRAFT
100
AcDbLine
 62
7
  6
CONTINUOUS
 10
-1.9743029931
 20
17.6660473643
 11
-1.9743029931
 21
16.453611799
  0
LINE
  5
290
100
AcDbEntity
  8
ASSI
100
AcDbLine
 62
7
  6
CONTINUOUS
 10
19.0806176436
 20
13.5647292164
 11
14.552525125
 21
11.2202406831
  0
LINE
  5
291
100
AcDbEntity
  8
0
100
AcDbLine
 62
253
  6
CONTINUOUS
 10
-14.8047555377
 20
-4.1279699655
 11
-15.0699205806
 21
-4.260552487
  0
LINE
  5
292
100
AcDbEntity
  8
0
100
AcDbLine
 62
253
  6
CONTINUOUS
 10
-12.4374930206
 20
-3.8281435556
 11
-13.9208720585
 21
-4.5698330745
  0
LINE
  5
293
100
AcDbEntity
  8
RACCORDO
100
AcDbLine
 62
253
  6
CONTINUOUS
 10
16.9434402901
 20
-12.0050248378
 11
14.8703947483
 21
-10.9685020669
  0
LINE
  5
294
100
AcDbEntity
  8
RACCORDO
100
AcDbLine
 62
253
  6
CONTINUOUS
 10
17.4094165615
 20
-11.7679343885
 11
14.8703947483
 21
-10.4984234818
  0
LINE
  5
295
100
AcDbEntity
  8
ASSI
100
AcDbLine
 62
253
  6
CONTINUOUS
 10
14.552525125
 20
-9.7375740885
 11
13.7137397413
 21
-9.3181813967
  0
LINE
  5
296
100
AcDbEntity
  8
DRAFT
100
AcDbLine
 62
253
  6
CONTINUOUS
 10
-1.8328816369
 20
20.7971414847
 11
-1.8328816369
 21
20.0639104206
  0
LINE
  5
297
100
AcDbEntity
  8
RACCORDO
100
AcDbLine
 62
7
  6
CONTINUOUS
 10
-0.9068963457
 20
15.7947251767
 11
-0.9068963457
 21
15.4547512426
  0
LINE
  5
298
100
AcDbEntity
  8
RACCORDO
100
AcDbLine
 62
7
  6
CONTINUOUS
 10
-0.9068963457
 20
-26.0626590799
 11
-0.9068963457
 21
-26.1848268309
  0
LINE
  5
299
100
AcDbEntity
  8
RACCORDO
100
AcDbLine
 62
253
  6
CONTINUOUS
 10
-0.833673041
 20
15.7063368291
 11
-0.833673041
 21
15.3663628949
  0
LINE
  5
29A
100
AcDbEntity
  8
RACCORDO
100
AcDbLine
 62
253
  6
CONTINUOUS
 10
-0.833673041
 20
-26.0319229108
 11
-0.833673041
 21
-26.2732151786
  0
LINE
  5
29B
100
AcDbEntity
  8
RACCORDO
100
AcDbLine
 62
7
  6
CONTINUOUS
 10
-0.2039033914
 20
14.4947740754
 11
-0.2039033914
 21
14.9487462683
  0
LINE
  5
29C
100
AcDbEntity
  8
RACCORDO
100
AcDbLine
 62
253
  6
CONTINUOUS
 10
-0.1306800867
 20
14.4030604717
 11
-0.1306800867
 21
14.9121346159
  0
LINE
  5
29D
100
AcDbEntity
  8
ASSI
100
AcDbLine
 62
7
  6
CONTINUOUS
 10
19.0806176436
 20
9.9274225205
 11
14.552525125
 21
7.5829339872
  0
LINE
  5
29E
100
AcDbEntity
  8
ASSI
100
AcDbLine
 62
7
  6
CONTINUOUS
 10
17.6408161053
 20
10.0004376494
 11
13.7137397413
 21
8.002326679
  0
LINE
  5
29F
100
AcDbEntity
  8
ASSI
100
AcDbLine
 62
7
  6
CONTINUOUS
 10
17.6477218383
 20
10.207077293
 11
18.7792810347
 21
10.7728568912
  0
LINE
  5
2A0
100
AcDbEntity
  8
ASSI
100
AcDbLine
 62
7
  6
CONTINUOUS
 10
19.0683846245
 20
-11.0223299983
 11
18.7792810347
 21
-10.8777782034
  0
LINE
  5
2A1
100
AcDbEntity
  8
RACCORDO
100
AcDbLine
 62
253
  6
CONTINUOUS
 10
0.4913116388
 20
-26.9357075185
 11
0.4913116388
 21
-26.5957335844
  0
LINE
  5
2A2
100
AcDbEntity
  8
RACCORDO
100
AcDbLine
 62
253
  6
CONTINUOUS
 10
0.4913116388
 20
14.703870555
 11
0.4913116388
 21
15.0438444892
  0
LINE
  5
2A3
100
AcDbEntity
  8
RACCORDO
100
AcDbLine
 62
7
  6
CONTINUOUS
 10
0.5712814192
 20
22.0173589133
 11
0.5712814192
 21
21.7465586207
  0
LINE
  5
2A4
100
AcDbEntity
  8
RACCORDO
100
AcDbLine
 62
253
  6
CONTINUOUS
 10
0.8438335985
 20
-26.9362202423
 11
0.8438335985
 21
-26.5962463082
  0
LINE
  5
2A5
100
AcDbEntity
  8
RACCORDO
100
AcDbLine
 62
253
  6
CONTINUOUS
 10
0.8438335985
 20
14.7033578312
 11
0.8438335985
 21
15.0433317653
  0
LINE
  5
2A6
100
AcDbEntity
  8
RACCORDO
100
AcDbLine
 62
253
  6
CONTINUOUS
 10
1.2025322469
 20
14.4252749279
 11
1.2025322469
 21
13.7364543049
  0
LINE
  5
2A7
100
AcDbEntity
  8
RACCORDO
100
AcDbLine
 62
253
  6
CONTINUOUS
 10
1.2025322469
 20
-25.1772066388
 11
1.2025322469
 21
-25.6192371072
  0
LINE
  5
2A8
100
AcDbEntity
  8
RACCORDO
100
AcDbLine
 62
253
  6
CONTINUOUS
 10
1.5550542066
 20
14.5548543083
 11
1.5550542066
 21
13.7468074858
  0
LINE
  5
2A9
100
AcDbEntity
  8
RACCORDO
100
AcDbLine
 62
253
  6
CONTINUOUS
 10
1.5550542066
 20
-25.0292322391
 11
1.5550542066
 21
-25.7447498311
  0
LINE
  5
2AA
100
AcDbEntity
  8
RACCORDO
100
AcDbLine
 62
7
  6
CONTINUOUS
 10
2.4451143893
 20
-24.6556211274
 11
2.4451143893
 21
-26.1561856427
  0
LINE
  5
2AB
100
AcDbEntity
  8
RACCORDO
100
AcDbLine
 62
7
  6
CONTINUOUS
 10
2.4451143893
 20
14.2438520177
 11
2.4451143893
 21
15.8460537688
  0
LINE
  5
2AC
100
AcDbEntity
  8
ASSI
100
AcDbLine
 62
7
  6
CONTINUOUS
 10
19.0806176436
 20
9.2346021975
 11
14.552525125
 21
6.8901136641
  0
LINE
  5
2AD
100
AcDbEntity
  8
RACCORDO
100
AcDbLine
 62
253
  6
CONTINUOUS
 10
-9.3070003141
 20
-6.4349615302
 11
-7.2756544681
 21
-5.4192886072
  0
LINE
  5
2AE
100
AcDbEntity
  8
ASSI
100
AcDbLine
 62
253
  6
CONTINUOUS
 10
14.552525125
 20
-5.4074470696
 11
13.7137397413
 21
-4.9880543778
  0
LINE
  5
2AF
100
AcDbEntity
  8
RACCORDO
100
AcDbLine
 62
7
  6
CONTINUOUS
 10
-9.8586277198
 20
12.2702656988
 11
-9.7075912961
 21
12.117043334
  0
LWPOLYLINE
  5
2B0
100
AcDbEntity
  8
RACCORDO
100
AcDbPolyline
 62
7
  6
CONTINUOUS
 90
85
 70
0
 10
-9.7075849662
 20
12.1170369912
 10
-9.6171239024
 20
12.0236097393
 10
-9.5173468914
 20
11.9169916241
 10
-9.4186321842
 20
11.8077004577
 10
-9.3210526871
 20
11.6958042444
 10
-9.224677012
 20
11.5813723693
 10
-9.1295752115
 20
11.4644785401
 10
-9.0358115835
 20
11.3451920957
 10
-8.9434503069
 20
11.2235872869
 10
-8.8525596274
 20
11.0997460164
 10
-8.7632017295
 20
10.9737445543
 10
-8.6754375935
 20
10.8456633806
 10
-8.5893320026
 20
10.7155915346
 10
-8.5049431457
 20
10.5836107954
 10
-8.4223272393
 20
10.449805732
 10
-8.341544381
 20
10.3142704638
 10
-8.2626488217
 20
10.1770919988
 10
-8.1856919999
 20
10.038358658
 10
-8.110728074
 20
9.898167346
 10
-8.037806401
 20
9.7566085508
 10
-7.966973873
 20
9.6137743986
 10
-7.8982792165
 20
9.4697650201
 10
-7.8317667943
 20
9.3246740054
 10
-7.7674785239
 20
9.178596351
 10
-7.7054575957
 20
9.031635065
 10
-7.6457431363
 20
8.8838863093
 10
-7.5883717251
 20
8.7354470777
 10
-7.5333806729
 20
8.5864223795
 10
-7.4808035351
 20
8.4369100945
 10
-7.430671373
 20
8.2870086697
 10
-7.3830154551
 20
8.1368246721
 10
-7.3378635076
 20
7.9864570206
 10
-7.2952408102
 20
7.8360048773
 10
-7.2551723513
 20
7.6855757928
 10
-7.2176798883
 20
7.5352695191
 10
-7.1827825314
 20
7.3851846869
 10
-7.1504984001
 20
7.2354276435
 10
-7.1208429018
 20
7.0860974471
 10
-7.0938290522
 20
6.937292259
 10
-7.0694681858
 20
6.7891173783
 10
-7.0477691485
 20
6.6416701968
 10
-7.0287386895
 20
6.4950479191
 10
-7.0123813398
 20
6.3493556023
 10
-6.9986993634
 20
6.204690617
 10
-6.9876926343
 20
6.0611459724
 10
-6.979358177
 20
5.9188199794
 10
-6.9736917054
 20
5.7778155081
 10
-6.9706860681
 20
5.6382143369
 10
-6.9703314974
 20
5.5000835076
 10
-6.9726180762
 20
5.3635161731
 10
-6.9775342018
 20
5.2285987432
 10
-6.9850666395
 20
5.0953895216
 10
-6.9952004886
 20
4.9639763906
 10
-7.0079192736
 20
4.8344457177
 10
-7.0232062797
 20
4.7068552025
 10
-7.0410403886
 20
4.5812952968
 10
-7.0614005505
 20
4.4578432977
 10
-7.0842693931
 20
4.3365395404
 10
-7.1096213448
 20
4.2174690785
 10
-7.1374308126
 20
4.1007087476
 10
-7.1676805445
 20
3.9862900639
 10
-7.2003409884
 20
3.8742931648
 10
-7.2353821618
 20
3.7647935549
 10
-7.2727864911
 20
3.657819631
 10
-7.3125036463
 20
3.5534893616
 10
-7.3545145383
 20
3.4518302875
 10
-7.3988571224
 20
3.3527485439
 10
-7.4454967937
 20
3.2563361278
 10
-7.4944093199
 20
3.1626587913
 10
-7.545667089
 20
3.0716100874
 10
-7.5992763844
 20
2.9832343919
 10
-7.6551885522
 20
2.8976669597
 10
-7.7134046468
 20
2.8149535397
 10
-7.7738985858
 20
2.7351803343
 10
-7.8366484743
 20
2.6584254776
 10
-7.9016654816
 20
2.5847236589
 10
-7.9689220484
 20
2.5141580058
 10
-8.038402901
 20
2.446796596
 10
-8.1101473447
 20
2.3826556973
 10
-8.1841330603
 20
2.3218166286
 10
-8.2603554382
 20
2.2643441374
 10
-8.3388969658
 20
2.2102433548
 10
-8.4197884163
 20
2.1595750921
 10
-8.502997139
 20
2.112440194
 10
-8.5174394789
 20
2.1047490346
  0
LINE
  5
2B1
100
AcDbEntity
  8
RACCORDO
100
AcDbLine
 62
253
  6
CONTINUOUS
 10
2.973381561
 20
16.1094925888
 11
2.973381561
 21
15.7619610721
  0
LINE
  5
2B2
100
AcDbEntity
  8
RACCORDO
100
AcDbLine
 62
253
  6
CONTINUOUS
 10
2.973381561
 20
-25.5376430673
 11
2.973381561
 21
-25.885174584
  0
LINE
  5
2B3
100
AcDbEntity
  8
RACCORDO
100
AcDbLine
 62
7
  6
CONTINUOUS
 10
3.045579418
 20
16.197365221
 11
3.045579418
 21
15.762120742
  0
LINE
  5
2B4
100
AcDbEntity
  8
RACCORDO
100
AcDbLine
 62
7
  6
CONTINUOUS
 10
3.045579418
 20
-25.4497704351
 11
3.045579418
 21
-25.7973019519
  0
LINE
  5
2B5
100
AcDbEntity
  8
ASSI
100
AcDbLine
 62
253
  6
CONTINUOUS
 10
3.3505310771
 20
19.0899432309
 11
3.3505310771
 21
20.3173315947
  0
LINE
  5
2B6
100
AcDbEntity
  8
ASSI
100
AcDbLine
 62
7
  6
CONTINUOUS
 10
3.474125141
 20
19.2381068517
 11
3.474125141
 21
20.3273358333
  0
LINE
  5
2B7
100
AcDbEntity
  8
RACCORDO
100
AcDbLine
 62
7
  6
CONTINUOUS
 10
3.5057745611
 20
-23.9452673598
 11
3.5057745611
 21
13.9886888765
  0
LINE
  5
2B8
100
AcDbEntity
  8
ASSI
100
AcDbLine
 62
7
  6
CONTINUOUS
 10
19.0806176436
 20
5.5972955016
 11
14.552525125
 21
3.2528069682
  0
LINE
  5
2B9
100
AcDbEntity
  8
ASSI
100
AcDbLine
 62
7
  6
CONTINUOUS
 10
19.0806176436
 20
4.9044751786
 11
14.552525125
 21
2.5599866452
  0
LINE
  5
2BA
100
AcDbEntity
  8
ASSI
100
AcDbLine
 62
7
  6
CONTINUOUS
 10
17.6408161053
 20
5.6703106305
 11
13.7137397413
 21
3.6721996601
  0
LINE
  5
2BB
100
AcDbEntity
  8
ASSI
100
AcDbLine
 62
7
  6
CONTINUOUS
 10
17.6477218383
 20
5.8769502741
 11
18.7792810347
 21
6.4427298723
  0
LINE
  5
2BC
100
AcDbEntity
  8
0
100
AcDbLine
 62
7
  6
CONTINUOUS
 10
-10.3855570346
 20
-8.6795554826
 11
-7.1128668172
 21
-7.0432103738
  0
LINE
  5
2BD
100
AcDbEntity
  8
RACCORDO
100
AcDbLine
 62
7
  6
CONTINUOUS
 10
-14.188712417
 20
-11.1516540474
 11
-14.188262166
 21
-11.1514411542
  0
LWPOLYLINE
  5
2BE
100
AcDbEntity
  8
RACCORDO
100
AcDbPolyline
 62
7
  6
CONTINUOUS
 90
28
 70
0
 10
-14.1887093665
 20
-11.1516526119
 10
-14.1716307432
 20
-11.1436729319
 10
-14.0868085755
 20
-11.1068819687
 10
-14.0005505517
 20
-11.074080794
 10
-13.9129508686
 20
-11.0452300517
 10
-13.8240477851
 20
-11.020269662
 10
-13.733821854
 20
-10.9991310753
 10
-13.6423284141
 20
-10.9817758993
 10
-13.5496520406
 20
-10.9681682575
 10
-13.4558180271
 20
-10.9582635269
 10
-13.3609045751
 20
-10.9520275045
 10
-13.2649917149
 20
-10.9494210086
 10
-13.1681091484
 20
-10.9504047591
 10
-13.0703744942
 20
-10.9549399913
 10
-12.9718416496
 20
-10.9629840896
 10
-12.8724390346
 20
-10.9745138017
 10
-12.772254138
 20
-10.9894981963
 10
-12.6713679779
 20
-11.0079015799
 10
-12.5696876194
 20
-11.029726778
 10
-12.4672944794
 20
-11.0549506016
 10
-12.3642708584
 20
-11.0835439568
 10
-12.2605135042
 20
-11.1155356141
 10
-12.1561025125
 20
-11.1509094931
 10
-12.051113563
 20
-11.1896459737
 10
-11.9454269594
 20
-11.2318043078
 10
-11.8390524504
 20
-11.277407259
 10
-11.7321405395
 20
-11.3264134599
 10
-11.6347963801
 20
-11.3737805343
  0
LINE
  5
2BF
100
AcDbEntity
  8
ASSI
100
AcDbLine
 62
7
  6
CONTINUOUS
 10
19.0683846245
 20
-6.6922029794
 11
18.7792810347
 21
-6.5476511845
  0
LINE
  5
2C0
100
AcDbEntity
  8
RACCORDO
100
AcDbLine
 62
7
  6
CONTINUOUS
 10
-8.5540446885
 20
-10.2121365065
 11
-8.5544605665
 21
-10.2123559991
  0
LINE
  5
2C1
100
AcDbEntity
  8
ASSI
100
AcDbLine
 62
7
  6
CONTINUOUS
 10
17.6408161053
 20
1.3401836115
 11
13.7137397413
 21
-0.6579273588
  0
LINE
  5
2C2
100
AcDbEntity
  8
0
100
AcDbLine
 62
7
  6
CONTINUOUS
 10
-14.0974298773
 20
-13.553370531
 11
-10.7855438306
 21
-11.8974275077
  0
LINE
  5
2C3
100
AcDbEntity
  8
ASSI
100
AcDbLine
 62
7
  6
CONTINUOUS
 10
17.6477218383
 20
1.5468232552
 11
18.7792810347
 21
2.1126028534
  0
LINE
  5
2C4
100
AcDbEntity
  8
ASSI
100
AcDbLine
 62
253
  6
CONTINUOUS
 10
14.552525125
 20
-1.0773200507
 11
13.7137397413
 21
-0.6579273588
  0
LINE
  5
2C5
100
AcDbEntity
  8
ASSI
100
AcDbLine
 62
7
  6
CONTINUOUS
 10
19.0683846245
 20
-2.3620759604
 11
18.7792810347
 21
-2.2175241656
  0
LINE
  5
2C6
100
AcDbEntity
  8
RACCORDO
100
AcDbLine
 62
253
  6
CONTINUOUS
 10
-13.3034999583
 20
14.1084475782
 11
-18.9233571685
 21
16.9183772998
  0
LINE
  5
2C7
100
AcDbEntity
  8
RACCORDO
100
AcDbLine
 62
253
  6
CONTINUOUS
 10
-4.0846134441
 20
9.4990054376
 11
-9.7044707261
 21
12.3089329615
  0
LWPOLYLINE
  5
2C8
100
AcDbEntity
  8
RACCORDO
100
AcDbPolyline
 62
7
  6
CONTINUOUS
 90
17
 70
0
 10
-11.2674510953
 20
13.3971767409
 10
-11.1797687931
 20
13.3516297953
 10
-11.0833181901
 20
13.297503131
 10
-10.9884042402
 20
13.2400065776
 10
-10.8947997086
 20
13.1791352521
 10
-10.8024681506
 20
13.1150221244
 10
-10.711545812
 20
13.0479958533
 10
-10.6218391967
 20
12.9781773906
 10
-10.533171098
 20
12.9057262245
 10
-10.4457049877
 20
12.8310981655
 10
-10.3592558053
 20
12.7544875452
 10
-10.2736423552
 20
12.6760855931
 10
-10.1890291059
 20
12.5964030949
 10
-10.1052541248
 20
12.5156583421
 10
-10.0221727305
 20
12.4340631693
 10
-9.9399693929
 20
12.3521564027
 10
-9.8586277198
 20
12.2702656988
  0
LINE
  5
2C9
100
AcDbEntity
  8
DRAFT
100
AcDbLine
 62
253
  6
CONTINUOUS
 10
8.06148732
 20
18.0425907005
 11
8.06148732
 21
17.6393340941
  0
LINE
  5
2CA
100
AcDbEntity
  8
DRAFT
100
AcDbLine
 62
253
  6
CONTINUOUS
 10
8.06148732
 20
-18.9379990351
 11
8.06148732
 21
-19.1075123853
  0
LINE
  5
2CB
100
AcDbEntity
  8
RACCORDO
100
AcDbLine
 62
7
  6
CONTINUOUS
 10
8.2018174198
 20
18.3400266323
 11
8.2018174198
 21
17.8155981896
  0
LINE
  5
2CC
100
AcDbEntity
  8
RACCORDO
100
AcDbLine
 62
7
  6
CONTINUOUS
 10
8.2018174198
 20
-18.8642822344
 11
8.2018174198
 21
-19.0576191318
  0
LINE
  5
2CD
100
AcDbEntity
  8
ASSI
100
AcDbLine
 62
7
  6
CONTINUOUS
 10
19.0806176436
 20
1.2671684827
 11
14.552525125
 21
-1.0773200507
  0
LINE
  5
2CE
100
AcDbEntity
  8
ASSI
100
AcDbLine
 62
7
  6
CONTINUOUS
 10
19.0806176436
 20
0.5743481596
 11
14.552525125
 21
-1.7701403737
  0
LINE
  5
2CF
100
AcDbEntity
  8
RACCORDO
100
AcDbLine
 62
253
  6
CONTINUOUS
 10
-11.4819652536
 20
-14.1734731793
 11
-9.4438870041
 21
-13.1544340545
  0
LINE
  5
2D0
100
AcDbEntity
  8
RACCORDO
100
AcDbLine
 62
253
  6
CONTINUOUS
 10
-3.068558189
 20
11.2390649709
 11
-17.9309080204
 21
18.6702398866
  0
LINE
  5
2D1
100
AcDbEntity
  8
ASSI
100
AcDbLine
 62
7
  6
CONTINUOUS
 10
17.6408161053
 20
-2.9899434074
 11
13.7137397413
 21
-4.9880543778
  0
LINE
  5
2D2
100
AcDbEntity
  8
ASSI
100
AcDbLine
 62
7
  6
CONTINUOUS
 10
17.6477218383
 20
-2.7833037638
 11
18.7792810347
 21
-2.2175241656
  0
LINE
  5
2D3
100
AcDbEntity
  8
0
100
AcDbLine
 62
253
  6
CONTINUOUS
 10
-11.4486914574
 20
-18.0123668281
 11
-13.0037878685
 21
-18.7899150337
  0
LINE
  5
2D4
100
AcDbEntity
  8
ASSI
100
AcDbLine
 62
253
  6
CONTINUOUS
 10
14.552525125
 20
3.2528069682
 11
13.7137397413
 21
3.6721996601
  0
LINE
  5
2D5
100
AcDbEntity
  8
ASSI
100
AcDbLine
 62
7
  6
CONTINUOUS
 10
19.0683846245
 20
1.9680510585
 11
18.7792810347
 21
2.1126028534
  0
LINE
  5
2D6
100
AcDbEntity
  8
ASSI
100
AcDbLine
 62
7
  6
CONTINUOUS
 10
19.0806176436
 20
-3.0629585363
 11
14.552525125
 21
-5.4074470696
  0
LINE
  5
2D7
100
AcDbEntity
  8
ASSI
100
AcDbLine
 62
7
  6
CONTINUOUS
 10
19.0806176436
 20
-3.7557788593
 11
14.552525125
 21
-6.1002673926
  0
LINE
  5
2D8
100
AcDbEntity
  8
0
100
AcDbLine
 62
253
  6
CONTINUOUS
 10
-13.2324917326
 20
-19.7212288356
 11
-13.4976567755
 21
-19.8538113571
  0
LINE
  5
2D9
100
AcDbEntity
  8
RACCORDO
100
AcDbLine
 62
7
  6
CONTINUOUS
 10
1.2025322469
 20
13.7364543049
 11
-0.1306800867
 21
14.4030604717
  0
LINE
  5
2DA
100
AcDbEntity
  8
RACCORDO
100
AcDbLine
 62
7
  6
CONTINUOUS
 10
-12.1617859175
 20
20.4186133871
 11
-13.4949982511
 21
21.085219554
  0
LINE
  5
2DB
100
AcDbEntity
  8
RACCORDO
100
AcDbLine
 62
7
  6
CONTINUOUS
 10
-8.5483331614
 20
18.9881336338
 11
-3.0370260617
 21
16.2324800839
  0
LINE
  5
2DC
100
AcDbEntity
  8
RACCORDO
100
AcDbLine
 62
7
  6
CONTINUOUS
 10
-14.133017909
 20
21.9133035271
 11
-12.8080332292
 21
21.2508111871
  0
LINE
  5
2DD
100
AcDbEntity
  8
RACCORDO
100
AcDbLine
 62
7
  6
CONTINUOUS
 10
-0.7686997446
 20
15.2311444448
 11
0.5562849352
 21
14.5686521049
  0
LINE
  5
2DE
100
AcDbEntity
  8
ASSI
100
AcDbLine
 62
253
  6
CONTINUOUS
 10
14.552525125
 20
7.5829339872
 11
13.7137397413
 21
8.002326679
  0
LINE
  5
2DF
100
AcDbEntity
  8
RACCORDO
100
AcDbLine
 62
253
  6
CONTINUOUS
 10
-14.1979912054
 20
22.0485219772
 11
-12.8730065256
 21
21.3860296372
  0
LINE
  5
2E0
100
AcDbEntity
  8
RACCORDO
100
AcDbLine
 62
253
  6
CONTINUOUS
 10
-0.833673041
 20
15.3663628949
 11
0.4913116388
 21
14.703870555
  0
LINE
  5
2E1
100
AcDbEntity
  8
0
100
AcDbLine
 62
7
  6
CONTINUOUS
 10
14.8703947483
 20
11.3848224984
 11
14.8703947483
 21
8.5908370221
  0
LINE
  5
2E2
100
AcDbEntity
  8
0
100
AcDbLine
 62
7
  6
CONTINUOUS
 10
14.8703947483
 20
7.0546954795
 11
14.8703947483
 21
4.2607100032
  0
LINE
  5
2E3
100
AcDbEntity
  8
0
100
AcDbLine
 62
7
  6
CONTINUOUS
 10
14.8703947483
 20
2.7245684606
 11
14.8703947483
 21
-0.0694170157
  0
LINE
  5
2E4
100
AcDbEntity
  8
0
100
AcDbLine
 62
7
  6
CONTINUOUS
 10
14.8703947483
 20
-1.6055585583
 11
14.8703947483
 21
-4.3995440346
  0
LINE
  5
2E5
100
AcDbEntity
  8
0
100
AcDbLine
 62
7
  6
CONTINUOUS
 10
14.8703947483
 20
-5.9356855772
 11
14.8703947483
 21
-8.7296710536
  0
LINE
  5
2E6
100
AcDbEntity
  8
0
100
AcDbLine
 62
7
  6
CONTINUOUS
 10
14.8703947483
 20
-10.2658125962
 11
14.8703947483
 21
-12.4413334322
  0
LINE
  5
2E7
100
AcDbEntity
  8
ASSI
100
AcDbLine
 62
7
  6
CONTINUOUS
 10
19.0806176436
 20
-7.3930855552
 11
14.552525125
 21
-9.7375740885
  0
LINE
  5
2E8
100
AcDbEntity
  8
ASSI
100
AcDbLine
 62
7
  6
CONTINUOUS
 10
17.6408161053
 20
-7.3200704263
 11
13.7137397413
 21
-9.3181813967
  0
LINE
  5
2E9
100
AcDbEntity
  8
0
100
AcDbLine
 62
7
  6
CONTINUOUS
 10
-10.3855570346
 20
-20.9771162163
 11
-6.9714022517
 21
-19.2700388249
  0
LINE
  5
2EA
100
AcDbEntity
  8
ASSI
100
AcDbLine
 62
7
  6
CONTINUOUS
 10
17.6477218383
 20
-7.1134307827
 11
18.7792810347
 21
-6.5476511845
  0
LWPOLYLINE
  5
2EB
100
AcDbEntity
  8
RACCORDO
100
AcDbPolyline
 62
7
  6
CONTINUOUS
 90
19
 70
0
 10
-12.9505708581
 20
13.7672674131
 10
-12.8797945338
 20
13.7666452666
 10
-12.7962861799
 20
13.7644372776
 10
-12.7101467921
 20
13.7604853052
 10
-12.6216275676
 20
13.7546446709
 10
-12.5309520099
 20
13.7467703969
 10
-12.4383173143
 20
13.7367131289
 10
-12.3439616796
 20
13.7243291228
 10
-12.2481274683
 20
13.7094717145
 10
-12.1510058089
 20
13.6919866569
 10
-12.0528391484
 20
13.6717228992
 10
-11.9538892292
 20
13.6485348169
 10
-11.8543799507
 20
13.6222707718
 10
-11.7545724822
 20
13.5927882504
 10
-11.6546941901
 20
13.5599528235
 10
-11.5549237678
 20
13.5236138071
 10
-11.4554316355
 20
13.4836449083
 10
-11.3563930015
 20
13.43993521
 10
-11.2674183752
 20
13.3971602995
  0
LINE
  5
2EC
100
AcDbEntity
  8
RACCORDO
100
AcDbLine
 62
7
  6
CONTINUOUS
 10
0.616990105
 20
14.5475366704
 11
1.2413953544
 21
14.417160275
  0
LINE
  5
2ED
100
AcDbEntity
  8
RACCORDO
100
AcDbLine
 62
253
  6
CONTINUOUS
 10
0.8438335985
 20
14.7033578312
 11
1.5550542066
 21
14.5548543083
  0
LINE
  5
2EE
100
AcDbEntity
  8
RACCORDO
100
AcDbLine
 62
253
  6
CONTINUOUS
 10
0.4913116388
 20
15.0438444892
 11
-0.833673041
 21
15.7063368291
  0
LINE
  5
2EF
100
AcDbEntity
  8
RACCORDO
100
AcDbLine
 62
253
  6
CONTINUOUS
 10
-12.8730065256
 20
21.7260035714
 11
-14.1979912054
 21
22.3884959113
  0
LINE
  5
2F0
100
AcDbEntity
  8
DRAFT
100
AcDbLine
 62
7
  6
CONTINUOUS
 10
-10.9192037751
 20
20.92606219
 11
-8.6947797708
 21
19.8138501879
  0
LINE
  5
2F1
100
AcDbEntity
  8
DRAFT
100
AcDbLine
 62
7
  6
CONTINUOUS
 10
-1.9743029931
 20
16.453611799
 11
-0.8803623918
 21
15.9066414984
  0
LINE
  5
2F2
100
AcDbEntity
  8
RACCORDO
100
AcDbLine
 62
253
  6
CONTINUOUS
 10
0.6670598948
 20
15.3482213041
 11
-0.657924785
 21
16.010713644
  0
LINE
  5
2F3
100
AcDbEntity
  8
RACCORDO
100
AcDbLine
 62
253
  6
CONTINUOUS
 10
-12.6972582696
 20
22.0303803863
 11
-14.0222429495
 21
22.6928727262
  0
LINE
  5
2F4
100
AcDbEntity
  8
RACCORDO
100
AcDbLine
 62
253
  6
CONTINUOUS
 10
-3.0370260617
 20
17.3130633947
 11
-8.5483331614
 21
20.0687169446
  0
LINE
  5
2F5
100
AcDbEntity
  8
ASSI
100
AcDbLine
 62
7
  6
CONTINUOUS
 10
19.0683846245
 20
6.2981780774
 11
18.7792810347
 21
6.4427298723
  0
LINE
  5
2F6
100
AcDbEntity
  8
RACCORDO
100
AcDbLine
 62
253
  6
CONTINUOUS
 10
-2.6142036819
 20
17.4154529592
 11
-8.6899583316
 21
20.4533302841
  0
LINE
  5
2F7
100
AcDbEntity
  8
DRAFT
100
AcDbLine
 62
7
  6
CONTINUOUS
 10
-10.9192037751
 20
21.625611282
 11
-9.5111610401
 21
20.9215899145
  0
LINE
  5
2F8
100
AcDbEntity
  8
DRAFT
100
AcDbLine
 62
7
  6
CONTINUOUS
 10
2.4451143893
 20
14.9434521998
 11
3.1591866824
 21
14.5864160533
  0
LINE
  5
2F9
100
AcDbEntity
  8
DRAFT
100
AcDbLine
 62
7
  6
CONTINUOUS
 10
-8.1968426676
 20
20.7773172016
 11
-1.9743029931
 21
17.6660473643
  0
LINE
  5
2FA
100
AcDbEntity
  8
RACCORDO
100
AcDbLine
 62
7
  6
CONTINUOUS
 10
-12.4394863463
 20
23.5048568236
 11
-11.0959774788
 21
22.8331023898
  0
LINE
  5
2FB
100
AcDbEntity
  8
RACCORDO
100
AcDbLine
 62
7
  6
CONTINUOUS
 10
0.9248318181
 20
16.8226977414
 11
2.2683406856
 21
16.1509433076
  0
LINE
  5
2FC
100
AcDbEntity
  8
DRAFT
100
AcDbLine
 62
7
  6
CONTINUOUS
 10
-6.8533397833
 20
20.8076341522
 11
-1.903592315
 21
18.3327604181
  0
LINE
  5
2FD
100
AcDbEntity
  8
DRAFT
100
AcDbLine
 62
7
  6
CONTINUOUS
 10
-3.3885165555
 20
19.1675850798
 11
-3.3658048586
 21
19.1562292313
  0
LINE
  5
2FE
100
AcDbEntity
  8
RACCORDO
100
AcDbLine
 62
253
  6
CONTINUOUS
 10
17.6389730049
 20
12.8182958539
 11
17.6389730049
 21
9.9994998731
  0
LINE
  5
2FF
100
AcDbEntity
  8
RACCORDO
100
AcDbLine
 62
253
  6
CONTINUOUS
 10
17.6389730049
 20
8.4881688349
 11
17.6389730049
 21
5.6693728542
  0
LINE
  5
300
100
AcDbEntity
  8
RACCORDO
100
AcDbLine
 62
253
  6
CONTINUOUS
 10
17.6389730049
 20
4.158041816
 11
17.6389730049
 21
1.3392458352
  0
LINE
  5
301
100
AcDbEntity
  8
RACCORDO
100
AcDbLine
 62
253
  6
CONTINUOUS
 10
17.6389730049
 20
-0.1720852029
 11
17.6389730049
 21
-2.9908811837
  0
LINE
  5
302
100
AcDbEntity
  8
RACCORDO
100
AcDbLine
 62
253
  6
CONTINUOUS
 10
17.6389730049
 20
-4.5022122218
 11
17.6389730049
 21
-7.3210082026
  0
LINE
  5
303
100
AcDbEntity
  8
RACCORDO
100
AcDbLine
 62
253
  6
CONTINUOUS
 10
17.6389730049
 20
-8.8323392408
 11
17.6389730049
 21
-11.6511352215
  0
LINE
  5
304
100
AcDbEntity
  8
ASSI
100
AcDbLine
 62
7
  6
CONTINUOUS
 10
17.6477218383
 20
12.8228256949
 11
17.6477218383
 21
10.207077293
  0
LINE
  5
305
100
AcDbEntity
  8
ASSI
100
AcDbLine
 62
7
  6
CONTINUOUS
 10
17.6477218383
 20
8.492698676
 11
17.6477218383
 21
5.8769502741
  0
LINE
  5
306
100
AcDbEntity
  8
ASSI
100
AcDbLine
 62
7
  6
CONTINUOUS
 10
17.6477218383
 20
4.1625716571
 11
17.6477218383
 21
1.5468232552
  0
LINE
  5
307
100
AcDbEntity
  8
ASSI
100
AcDbLine
 62
7
  6
CONTINUOUS
 10
17.6477218383
 20
-0.1675553618
 11
17.6477218383
 21
-2.7833037638
  0
LINE
  5
308
100
AcDbEntity
  8
ASSI
100
AcDbLine
 62
7
  6
CONTINUOUS
 10
17.6477218383
 20
-4.4976823807
 11
17.6477218383
 21
-7.1134307827
  0
LINE
  5
309
100
AcDbEntity
  8
ASSI
100
AcDbLine
 62
7
  6
CONTINUOUS
 10
17.6477218383
 20
-8.8278093997
 11
17.6477218383
 21
-11.4435578016
  0
LINE
  5
30A
100
AcDbEntity
  8
RACCORDO
100
AcDbLine
 62
253
  6
CONTINUOUS
 10
1.2020180186
 20
-25.618979993
 11
0.5796999865
 21
-26.3640394105
  0
LINE
  5
30B
100
AcDbEntity
  8
RACCORDO
100
AcDbLine
 62
253
  6
CONTINUOUS
 10
1.5550542066
 20
-25.7447498311
 11
0.8438335985
 21
-26.5962463082
  0
LINE
  5
30C
100
AcDbEntity
  8
RACCORDO
100
AcDbLine
 62
7
  6
CONTINUOUS
 10
-8.3087990588
 20
-22.3802297324
 11
-8.3092401859
 21
-22.3804625465
  0
LINE
  5
30D
100
AcDbEntity
  8
ASSI
100
AcDbLine
 62
7
  6
CONTINUOUS
 10
19.0806176436
 20
-8.0859058782
 11
14.552525125
 21
-10.4303944115
  0
LINE
  5
30E
100
AcDbEntity
  8
0
100
AcDbLine
 62
7
  6
CONTINUOUS
 10
14.8703947483
 20
-12.4413334322
 11
13.1171430039
 21
-13.3179593044
  0
LWPOLYLINE
  5
30F
100
AcDbEntity
  8
RACCORDO
100
AcDbPolyline
 62
7
  6
CONTINUOUS
 90
82
 70
0
 10
-1.3885288231
 20
19.9839943038
 10
-1.4002226264
 20
19.9896734611
 10
-1.4175968718
 20
19.9975201242
 10
-1.4349293245
 20
20.0046981802
 10
-1.4521182494
 20
20.0112298647
 10
-1.4691513236
 20
20.0171726108
 10
-1.486101149
 20
20.0226036293
 10
-1.5029395191
 20
20.0275576283
 10
-1.5196249909
 20
20.032063425
 10
-1.5362127634
 20
20.0361715426
 10
-1.5526848011
 20
20.0399076678
 10
-1.5690205472
 20
20.0432948655
 10
-1.5852715435
 20
20.0463674991
 10
-1.60143496
 20
20.0491447332
 10
-1.6174923661
 20
20.0516414107
 10
-1.6334711931
 20
20.0538776352
 10
-1.6493759396
 20
20.0558674618
 10
-1.6651890195
 20
20.0576209715
 10
-1.6809036289
 20
20.0591489304
 10
-1.6965151547
 20
20.0604614965
 10
-1.712018799
 20
20.0615680394
 10
-1.7274065086
 20
20.0624770953
 10
-1.7426740219
 20
20.0631969419
 10
-1.7578183454
 20
20.0637353764
 10
-1.7728326971
 20
20.0640996236
 10
-1.7877135415
 20
20.0642966643
 10
-1.8024586291
 20
20.0643331175
 10
-1.8170627148
 20
20.0642152797
 10
-1.831523367
 20
20.0639491887
 10
-1.8458383889
 20
20.0635406057
 10
-1.8600026372
 20
20.0629951789
 10
-1.8740183067
 20
20.0623180709
 10
-1.887879554
 20
20.0615145943
 10
-1.9015690648
 20
20.0605908754
 10
-1.9150872197
 20
20.0595520283
 10
-1.9284310303
 20
20.0584032491
 10
-1.9415781695
 20
20.0571515874
 10
-1.954526267
 20
20.0558025592
 10
-1.9672762213
 20
20.0543612105
 10
-1.9798107098
 20
20.0528347077
 10
-1.9921208138
 20
20.0512295472
 10
-2.0042150942
 20
20.0495498869
 10
-2.0161023278
 20
20.047799448
 10
-2.0277793758
 20
20.0459834525
 10
-2.0392495249
 20
20.0441060528
 10
-2.0505307432
 20
20.0421686326
 10
-2.0616231866
 20
20.0401751919
 10
-2.0725269893
 20
20.0381296768
 10
-2.0832595172
 20
20.0360325305
 10
-2.0938217289
 20
20.0338870116
 10
-2.1042129397
 20
20.031696661
 10
-2.1144474646
 20
20.0294616694
 10
-2.1245259916
 20
20.0271849022
 10
-2.1344480126
 20
20.0248694533
 10
-2.1442254759
 20
20.0225153773
 10
-2.153858571
 20
20.0201253066
 10
-2.1633471263
 20
20.017701961
 10
-2.1727019708
 20
20.0152451134
 10
-2.1819234408
 20
20.0127570939
 10
-2.1910109628
 20
20.0102404672
 10
-2.1999734053
 20
20.0076950973
 10
-2.2088119615
 20
20.0051228592
 10
-2.2175248661
 20
20.0025264819
 10
-2.2261160139
 20
19.999907009
 10
-2.2345853136
 20
19.9972666233
 10
-2.2429320341
 20
19.9946077375
 10
-2.251158569
 20
19.9919317412
 10
-2.2592649874
 20
19.9892407693
 10
-2.2672500553
 20
19.9865373804
 10
-2.2751137945
 20
19.9838237639
 10
-2.2828560406
 20
19.9811021509
 10
-2.290475434
 20
19.9783752478
 10
-2.2979696329
 20
19.97564613
 10
-2.3053370522
 20
19.972917687
 10
-2.3125773767
 20
19.9701923381
 10
-2.3196898206
 20
19.9674727255
 10
-2.3266721145
 20
19.9647620639
 10
-2.3335239767
 20
19.9620628592
 10
-2.3402468156
 20
19.9593769191
 10
-2.3468400903
 20
19.9567068338
 10
-2.3533007502
 20
19.9540562233
 10
-2.365807681
 20
19.9488300665
  0
LINE
  5
310
100
AcDbEntity
  8
RACCORDO
100
AcDbLine
 62
253
  6
CONTINUOUS
 10
-11.9050364676
 20
23.7652042901
 11
-10.5677103071
 21
23.0965412099
  0
LINE
  5
311
100
AcDbEntity
  8
RACCORDO
100
AcDbLine
 62
253
  6
CONTINUOUS
 10
1.4592816968
 20
17.0830452079
 11
2.7966078574
 21
16.4143821277
  0
LINE
  5
312
100
AcDbEntity
  8
RACCORDO
100
AcDbLine
 62
7
  6
CONTINUOUS
 10
-11.7942615081
 20
23.7717941813
 11
-10.4569353475
 21
23.103131101
  0
LINE
  5
313
100
AcDbEntity
  8
RACCORDO
100
AcDbLine
 62
7
  6
CONTINUOUS
 10
1.5700566564
 20
17.089635099
 11
2.9073828169
 21
16.4209720188
  0
LINE
  5
314
100
AcDbEntity
  8
RACCORDO
100
AcDbLine
 62
7
  6
CONTINUOUS
 10
-2.3279102316
 20
19.8497174831
 11
-0.5894303347
 21
18.9804775347
  0
LINE
  5
315
100
AcDbEntity
  8
RACCORDO
100
AcDbLine
 62
253
  6
CONTINUOUS
 10
-0.0294325703
 20
19.2564862327
 11
-1.4755289028
 21
19.979534399
  0
LINE
  5
316
100
AcDbEntity
  8
RACCORDO
100
AcDbLine
 62
7
  6
CONTINUOUS
 10
0.0188715679
 20
19.2802941176
 11
-1.3885543263
 21
19.9840070647
  0
LINE
  5
317
100
AcDbEntity
  8
ASSI
100
AcDbLine
 62
7
  6
CONTINUOUS
 10
0.6140834298
 20
19.5736589514
 11
-1.8328816369
 21
20.7971414847
  0
LINE
  5
318
100
AcDbEntity
  8
0
100
AcDbLine
 62
7
  6
CONTINUOUS
 10
-2.1864350275
 20
20.97391818
 11
-2.5399884181
 21
21.1506948753
  0
LINE
  5
319
100
AcDbEntity
  8
ASSI
100
AcDbLine
 62
7
  6
CONTINUOUS
 10
19.0683846245
 20
10.6283050963
 11
18.7792810347
 21
10.7728568912
  0
LINE
  5
31A
100
AcDbEntity
  8
RACCORDO
100
AcDbLine
 62
7
  6
CONTINUOUS
 10
9.8237860574
 20
15.6637646399
 11
8.7405907879
 21
17.5320001257
  0
LWPOLYLINE
  5
31B
100
AcDbEntity
  8
RACCORDO
100
AcDbPolyline
 62
7
  6
CONTINUOUS
 90
31
 70
0
 10
19.3612778362
 20
18.5969237727
 10
19.3609678005
 20
18.6327424601
 10
19.3598066399
 20
18.6751525358
 10
19.357792091
 20
18.7176251215
 10
19.3549304681
 20
18.7601654109
 10
19.3512292382
 20
18.8027530724
 10
19.3466993101
 20
18.8453389498
 10
19.3413486152
 20
18.8879169628
 10
19.3351843742
 20
18.9304794094
 10
19.3282210634
 20
18.9729725918
 10
19.3204672419
 20
19.0153899679
 10
19.3119303966
 20
19.05772499
 10
19.3026287728
 20
19.0999223765
 10
19.2925718438
 20
19.1419734095
 10
19.2817672329
 20
19.1838738473
 10
19.2702350151
 20
19.2255737451
 10
19.2579871577
 20
19.2670569693
 10
19.2450296127
 20
19.3083269784
 10
19.231375392
 20
19.3493619406
 10
19.2170335213
 20
19.3901522019
 10
19.2020105055
 20
19.4306942073
 10
19.186315767
 20
19.4709739597
 10
19.1699560379
 20
19.5109843784
 10
19.1529371344
 20
19.5507185528
 10
19.1352677489
 20
19.5901618615
 10
19.1169536887
 20
19.629306026
 10
19.0979992879
 20
19.6681438234
 10
19.0784113118
 20
19.7066625771
 10
19.0581940936
 20
19.7448532716
 10
19.0373507411
 20
19.7827083707
 10
19.0193103939
 20
19.8143278445
  0
LINE
  5
31C
100
AcDbEntity
  8
ASSI
100
AcDbLine
 62
7
  6
CONTINUOUS
 10
18.7792810347
 20
-10.8777782034
 11
18.7792810347
 21
-8.2419274748
  0
LINE
  5
31D
100
AcDbEntity
  8
ASSI
100
AcDbLine
 62
7
  6
CONTINUOUS
 10
18.7792810347
 20
-6.5476511845
 11
18.7792810347
 21
-3.9118004559
  0
LINE
  5
31E
100
AcDbEntity
  8
ASSI
100
AcDbLine
 62
7
  6
CONTINUOUS
 10
18.7792810347
 20
-2.2175241656
 11
18.7792810347
 21
0.418326563
  0
LINE
  5
31F
100
AcDbEntity
  8
ASSI
100
AcDbLine
 62
7
  6
CONTINUOUS
 10
18.7792810347
 20
2.1126028534
 11
18.7792810347
 21
4.748453582
  0
LINE
  5
320
100
AcDbEntity
  8
ASSI
100
AcDbLine
 62
7
  6
CONTINUOUS
 10
18.7792810347
 20
6.4427298723
 11
18.7792810347
 21
9.0785806009
  0
LINE
  5
321
100
AcDbEntity
  8
ASSI
100
AcDbLine
 62
7
  6
CONTINUOUS
 10
18.7792810347
 20
10.7728568912
 11
18.7792810347
 21
13.4087076198
  0
LINE
  5
322
100
AcDbEntity
  8
ASSI
100
AcDbLine
 62
253
  6
CONTINUOUS
 10
19.0806176436
 20
18.2495938604
 11
19.0806176436
 21
13.5647292164
  0
LINE
  5
323
100
AcDbEntity
  8
ASSI
100
AcDbLine
 62
253
  6
CONTINUOUS
 10
19.0806176436
 20
9.9274225205
 11
19.0806176436
 21
9.2346021975
  0
LINE
  5
324
100
AcDbEntity
  8
ASSI
100
AcDbLine
 62
253
  6
CONTINUOUS
 10
19.0806176436
 20
5.5972955016
 11
19.0806176436
 21
4.9044751786
  0
LINE
  5
325
100
AcDbEntity
  8
ASSI
100
AcDbLine
 62
253
  6
CONTINUOUS
 10
19.0806176436
 20
1.2671684827
 11
19.0806176436
 21
0.5743481596
  0
LINE
  5
326
100
AcDbEntity
  8
ASSI
100
AcDbLine
 62
253
  6
CONTINUOUS
 10
19.0806176436
 20
-3.0629585363
 11
19.0806176436
 21
-3.7557788593
  0
LINE
  5
327
100
AcDbEntity
  8
ASSI
100
AcDbLine
 62
253
  6
CONTINUOUS
 10
19.0806176436
 20
-7.3930855552
 11
19.0806176436
 21
-8.0859058782
  0
LINE
  5
328
100
AcDbEntity
  8
ASSI
100
AcDbLine
 62
253
  6
CONTINUOUS
 10
19.0806176436
 20
-11.7232125741
 11
19.0806176436
 21
-12.0779501992
  0
LINE
  5
329
100
AcDbEntity
  8
RACCORDO
100
AcDbLine
 62
7
  6
CONTINUOUS
 10
19.3612778433
 20
18.5969250785
 11
19.3612778433
 21
13.9120584016
  0
LINE
  5
32A
100
AcDbEntity
  8
RACCORDO
100
AcDbLine
 62
7
  6
CONTINUOUS
 10
19.3612778433
 20
10.2747517057
 11
19.3612778433
 21
9.5819313827
  0
LINE
  5
32B
100
AcDbEntity
  8
RACCORDO
100
AcDbLine
 62
7
  6
CONTINUOUS
 10
19.3612778433
 20
5.9446246868
 11
19.3612778433
 21
5.2518043638
  0
LINE
  5
32C
100
AcDbEntity
  8
RACCORDO
100
AcDbLine
 62
7
  6
CONTINUOUS
 10
19.3612778433
 20
1.6144976679
 11
19.3612778433
 21
0.9216773449
  0
LINE
  5
32D
100
AcDbEntity
  8
RACCORDO
100
AcDbLine
 62
7
  6
CONTINUOUS
 10
19.3612778433
 20
-2.715629351
 11
19.3612778433
 21
-3.4084496741
  0
LINE
  5
32E
100
AcDbEntity
  8
RACCORDO
100
AcDbLine
 62
7
  6
CONTINUOUS
 10
19.3612778433
 20
-7.04575637
 11
19.3612778433
 21
-7.738576693
  0
LINE
  5
32F
100
AcDbEntity
  8
RACCORDO
100
AcDbLine
 62
7
  6
CONTINUOUS
 10
19.3612778433
 20
-11.3758833889
 11
19.3612778433
 21
-11.7306230469
  0
LINE
  5
330
100
AcDbEntity
  8
RACCORDO
100
AcDbLine
 62
7
  6
CONTINUOUS
 10
8.7405907879
 20
-18.5812592121
 11
9.8237860574
 21
-17.7962189958
  0
LINE
  5
331
100
AcDbEntity
  8
RACCORDO
100
AcDbLine
 62
253
  6
CONTINUOUS
 10
3.5057745611
 20
-20.2824295459
 11
19.0806176436
 21
-12.0779501992
  0
LINE
  5
332
100
AcDbEntity
  8
ASSI
100
AcDbLine
 62
7
  6
CONTINUOUS
 10
19.0806176436
 20
-11.7232125741
 11
14.552525125
 21
-14.0677011074
  0
LINE
  5
333
100
AcDbEntity
  8
ASSI
100
AcDbLine
 62
7
  6
CONTINUOUS
 10
17.6408161053
 20
-11.6501974452
 11
13.7137397413
 21
-13.6483084156
  0
LINE
  5
334
100
AcDbEntity
  8
ASSI
100
AcDbLine
 62
7
  6
CONTINUOUS
 10
17.6477218383
 20
-11.4435578016
 11
18.7792810347
 21
-10.8777782034
  0
LINE
  5
335
100
AcDbEntity
  8
RACCORDO
100
AcDbLine
 62
7
  6
CONTINUOUS
 10
-12.7473280595
 20
21.2296957526
 11
-12.1229219751
 21
21.0993191828
  0
LINE
  5
336
100
AcDbEntity
  8
RACCORDO
100
AcDbLine
 62
253
  6
CONTINUOUS
 10
-12.520484566
 20
21.3855169134
 11
-11.8092639579
 21
21.2370133905
  0
LINE
  5
337
100
AcDbEntity
  8
DRAFT
100
AcDbLine
 62
7
  6
CONTINUOUS
 10
-2.1864350275
 20
21.5264763693
 11
-2.5399884181
 21
21.7032530646
  0
LINE
  5
338
100
AcDbEntity
  8
0
100
AcDbLine
 62
7
  6
CONTINUOUS
 10
2.021899126
 20
20.2675356098
 11
-0.788650521
 21
21.6728104333
  0
LINE
  5
339
100
AcDbEntity
  8
DRAFT
100
AcDbLine
 62
7
  6
CONTINUOUS
 10
8.2009983029
 20
17.8017963682
 11
8.7405907879
 21
17.5320001257
  0
LINE
  5
33A
100
AcDbEntity
  8
ASSI
100
AcDbLine
 62
7
  6
CONTINUOUS
 10
-2.8565057128
 20
23.378764507
 11
-2.2509990716
 21
23.0760111864
  0
LINE
  5
33B
100
AcDbEntity
  8
ASSI
100
AcDbLine
 62
7
  6
CONTINUOUS
 10
2.6987483967
 20
20.6011374523
 11
3.3042550379
 21
20.2983841317
  0
LINE
  5
33C
100
AcDbEntity
  8
0
100
AcDbLine
 62
7
  6
CONTINUOUS
 10
0.5712814192
 20
21.7465586207
 11
2.8058639308
 21
20.6292673648
  0
LINE
  5
33D
100
AcDbEntity
  8
0
100
AcDbLine
 62
7
  6
CONTINUOUS
 10
3.474125141
 20
20.2951367597
 11
3.6724205405
 21
20.19598906
  0
LINE
  5
33E
100
AcDbEntity
  8
ASSI
100
AcDbLine
 62
7
  6
CONTINUOUS
 10
-2.5830985929
 20
23.3632715661
 11
-2.0876747883
 21
23.1155596637
  0
LINE
  5
33F
100
AcDbEntity
  8
ASSI
100
AcDbLine
 62
7
  6
CONTINUOUS
 10
2.9718539812
 20
20.585795279
 11
3.4672780783
 21
20.3380832304
  0
LINE
  5
340
100
AcDbEntity
  8
DRAFT
100
AcDbLine
 62
253
  6
CONTINUOUS
 10
-3.1180027481
 20
24.0270572364
 11
-0.1296547696
 21
22.5328832471
  0
LINE
  5
341
100
AcDbEntity
  8
DRAFT
100
AcDbLine
 62
253
  6
CONTINUOUS
 10
4.1129859175
 20
20.4115629036
 11
7.101333896
 21
18.9173889143
  0
LWPOLYLINE
  5
342
100
AcDbEntity
  8
RACCORDO
100
AcDbPolyline
 62
7
  6
CONTINUOUS
 90
40
 70
0
 10
18.7410445975
 20
-13.0490660479
 10
18.7625242351
 20
-13.033180219
 10
18.7905337366
 20
-13.0114779326
 10
18.8180516045
 20
-12.9890102121
 10
18.8450499536
 20
-12.9657946124
 10
18.8715159131
 20
-12.9418371858
 10
18.8974509483
 20
-12.9171303088
 10
18.9228352661
 20
-12.8916852913
 10
18.9476496903
 20
-12.8655138387
 10
18.971895106
 20
-12.838605983
 10
18.9955524236
 20
-12.8109726323
 10
19.0186019539
 20
-12.7826265645
 10
19.0410420009
 20
-12.7535578779
 10
19.0628541295
 20
-12.7237766356
 10
19.0840185501
 20
-12.6932964799
 10
19.104530081
 20
-12.6621098455
 10
19.1243699489
 20
-12.6302281487
 10
19.1435198601
 20
-12.5976636529
 10
19.1619741781
 20
-12.5644070458
 10
19.1797134832
 20
-12.5304718816
 10
19.1967210971
 20
-12.4958677953
 10
19.2129937724
 20
-12.4605760867
 10
19.2285153411
 20
-12.4246017728
 10
19.2432649342
 20
-12.3879612506
 10
19.2572309328
 20
-12.3506493888
 10
19.2704010429
 20
-12.3126595004
 10
19.2827510373
 20
-12.2740184755
 10
19.2942545152
 20
-12.2347696906
 10
19.3048975284
 20
-12.1949228252
 10
19.3146655848
 20
-12.1544892756
 10
19.3235378898
 20
-12.11351406
 10
19.3315038553
 20
-12.0720054662
 10
19.3385518811
 20
-12.0299754079
 10
19.344665949
 20
-11.9874735038
 10
19.3498379496
 20
-11.9445090618
 10
19.3540592919
 20
-11.9010920199
 10
19.357319059
 20
-11.8572715283
 10
19.3596104808
 20
-11.8130690736
 10
19.3609282576
 20
-11.7684815753
 10
19.3612778362
 20
-11.7306240516
  0
LINE
  5
343
100
AcDbEntity
  8
RACCORDO
100
AcDbLine
 62
253
  6
CONTINUOUS
 10
18.666465716
 20
-13.0954363834
 11
18.5407670043
 21
-13.18653588
  0
LINE
  5
344
100
AcDbEntity
  8
RACCORDO
100
AcDbLine
 62
7
  6
CONTINUOUS
 10
18.741034762
 20
-13.0490731983
 11
18.6153345983
 21
-13.1401737472
  0
LINE
  5
345
100
AcDbEntity
  8
RACCORDO
100
AcDbLine
 62
253
  6
CONTINUOUS
 10
18.5407670043
 20
-13.18653588
 11
9.8237860574
 21
-17.7962189958
  0
LINE
  5
346
100
AcDbEntity
  8
RACCORDO
100
AcDbLine
 62
7
  6
CONTINUOUS
 10
18.4959790743
 20
-13.214470574
 11
9.8020939552
 21
-17.8119402356
  0
LINE
  5
347
100
AcDbEntity
  8
RACCORDO
100
AcDbLine
 62
253
  6
CONTINUOUS
 10
3.5057745611
 20
-21.0817474894
 11
18.666465716
 21
-13.0954363834
  0
LINE
  5
348
100
AcDbEntity
  8
DRAFT
100
AcDbLine
 62
7
  6
CONTINUOUS
 10
3.5057745611
 20
-21.3311603723
 11
8.7405907879
 21
-18.5812592121
  0
LINE
  5
349
100
AcDbEntity
  8
DRAFT
100
AcDbLine
 62
7
  6
CONTINUOUS
 10
7.101333896
 20
-19.7292634863
 11
3.5057745611
 21
-21.5786569166
  0
LINE
  5
34A
100
AcDbEntity
  8
DRAFT
100
AcDbLine
 62
7
  6
CONTINUOUS
 10
8.06148732
 20
-19.1075123853
 11
3.5057745611
 21
-21.4372641533
  0
LINE
  5
34B
100
AcDbEntity
  8
0
100
AcDbLine
 62
7
  6
CONTINUOUS
 10
-0.788650521
 20
21.6728104333
 11
0.5712814192
 21
21.7465586207
  0
LINE
  5
34C
100
AcDbEntity
  8
RACCORDO
100
AcDbLine
 62
7
  6
CONTINUOUS
 10
-2.8312075951
 20
24.129530628
 11
0.3113882335
 21
22.5582327137
  0
LINE
  5
34D
100
AcDbEntity
  8
RACCORDO
100
AcDbLine
 62
7
  6
CONTINUOUS
 10
4.5540289206
 20
20.4369123702
 11
7.6966247492
 21
18.8656144559
  0
LINE
  5
34E
100
AcDbEntity
  8
RACCORDO
100
AcDbLine
 62
253
  6
CONTINUOUS
 10
2.973381561
 20
-25.885174584
 11
2.4451143893
 21
-26.1561856427
  0
LINE
  5
34F
100
AcDbEntity
  8
RACCORDO
100
AcDbLine
 62
7
  6
CONTINUOUS
 10
2.9096935235
 20
-26.0197383943
 11
2.38101126
 21
-26.2909624029
  0
LINE
  5
350
100
AcDbEntity
  8
RACCORDO
100
AcDbLine
 62
7
  6
CONTINUOUS
 10
2.3792728728
 20
-26.2918316365
 11
2.3810092902
 21
-26.2909634135
  0
LINE
  5
351
100
AcDbEntity
  8
RACCORDO
100
AcDbLine
 62
253
  6
CONTINUOUS
 10
2.7878666791
 20
-24.2994466473
 11
3.5057745611
 21
-23.9452673598
  0
LINE
  5
352
100
AcDbEntity
  8
RACCORDO
100
AcDbLine
 62
7
  6
CONTINUOUS
 10
2.6559343965
 20
-24.566756607
 11
3.377517397
 21
-24.2107642026
  0
LINE
  5
353
100
AcDbEntity
  8
RACCORDO
100
AcDbLine
 62
253
  6
CONTINUOUS
 10
2.4451143893
 20
-26.1561856427
 11
0.8438335985
 21
-26.9362202423
  0
LINE
  5
354
100
AcDbEntity
  8
RACCORDO
100
AcDbLine
 62
7
  6
CONTINUOUS
 10
2.3792701089
 20
-26.2918329829
 11
0.7775720059
 21
-27.0720708685
  0
LINE
  5
355
100
AcDbEntity
  8
RACCORDO
100
AcDbLine
 62
7
  6
CONTINUOUS
 10
2.6558900994
 20
-24.5667784585
 11
2.6457009365
 21
-24.5714230362
  0
LINE
  5
356
100
AcDbEntity
  8
RACCORDO
100
AcDbLine
 62
253
  6
CONTINUOUS
 10
-2.7100421038
 20
-26.6072454369
 11
2.7878666791
 21
-24.2994466473
  0
LINE
  5
357
100
AcDbEntity
  8
RACCORDO
100
AcDbLine
 62
7
  6
CONTINUOUS
 10
-2.8607732043
 20
-26.8828172213
 11
2.6457127442
 21
-24.571418086
  0
LINE
  5
358
100
AcDbEntity
  8
RACCORDO
100
AcDbLine
 62
253
  6
CONTINUOUS
 10
4.905289972
 20
26.9693830322
 11
18.0408431567
 21
20.4016064399
  0
LINE
  5
359
100
AcDbEntity
  8
RACCORDO
100
AcDbLine
 62
7
  6
CONTINUOUS
 10
5.3401628526
 20
26.9917463618
 11
18.4757160373
 21
20.4239697695
  0
LINE
  5
35A
100
AcDbEntity
  8
RACCORDO
100
AcDbLine
 62
253
  6
CONTINUOUS
 10
18.5407670043
 20
19.8980301806
 11
18.666465716
 21
19.6812319722
  0
LINE
  5
35B
100
AcDbEntity
  8
RACCORDO
100
AcDbLine
 62
7
  6
CONTINUOUS
 10
18.8936102531
 20
20.031128538
 11
19.0193104168
 21
19.8143278253
  0
ARC
  5
35C
100
AcDbEntity
  8
RACCORDO
100
AcDbCircle
 62
253
  6
CONTINUOUS
 10
-6.6518648669
 20
-14.5856810275
 40
8.887359553
100
AcDbArc
 50
222.1260232912
 51
226.0069740711
  0
ARC
  5
35D
100
AcDbEntity
  8
0
100
AcDbCircle
 62
7
  6
CONTINUOUS
 10
-11.0920249719
 20
-17.1367570329
 40
3.3557551238
100
AcDbArc
 50
230.3687595052
 51
231.1760114697
  0
ARC
  5
35E
100
AcDbEntity
  8
0
100
AcDbCircle
 62
7
  6
CONTINUOUS
 10
-11.6586399948
 20
-17.6879574402
 40
2.8395975235
100
AcDbArc
 50
237.0942043707
 51
238.0895600074
  0
ARC
  5
35F
100
AcDbEntity
  8
0
100
AcDbCircle
 62
7
  6
CONTINUOUS
 10
-11.7466585028
 20
-17.8307763171
 40
2.6718362382
100
AcDbArc
 50
238.0729124096
 51
242.0819001819
  0
ARC
  5
360
100
AcDbEntity
  8
0
100
AcDbCircle
 62
7
  6
CONTINUOUS
 10
-13.4813638882
 20
-15.8652207753
 40
1.1942541595
100
AcDbArc
 50
126.4434692317
 51
133.6888029223
  0
ARC
  5
361
100
AcDbEntity
  8
0
100
AcDbCircle
 62
7
  6
CONTINUOUS
 10
-13.4835668417
 20
-3.564418198
 40
1.190400261
100
AcDbArc
 50
131.1288738368
 51
131.383132456
  0
ARC
  5
362
100
AcDbEntity
  8
0
100
AcDbCircle
 62
7
  6
CONTINUOUS
 10
-11.8633373925
 20
-19.1053565336
 40
1.1858264169
100
AcDbArc
 50
282.1709112036
 51
284.0249255776
  0
ARC
  5
363
100
AcDbEntity
  8
0
100
AcDbCircle
 62
7
  6
CONTINUOUS
 10
-13.4978587349
 20
-3.5476820895
 40
1.1683935505
100
AcDbArc
 50
124.2366822046
 51
131.140797256
  0
ARC
  5
364
100
AcDbEntity
  8
0
100
AcDbCircle
 62
7
  6
CONTINUOUS
 10
-11.8572032802
 20
-19.1292010156
 40
1.1612061772
100
AcDbArc
 50
284.0164047737
 51
289.0766947554
  0
ARC
  5
365
100
AcDbEntity
  8
0
100
AcDbCircle
 62
7
  6
CONTINUOUS
 10
-11.8569113668
 20
-6.8322954435
 40
1.1605141865
100
AcDbArc
 50
281.9050329377
 51
288.9575955625
  0
ARC
  5
366
100
AcDbEntity
  8
0
100
AcDbCircle
 62
7
  6
CONTINUOUS
 10
-13.5079103242
 20
-15.830869355
 40
1.1508514167
100
AcDbArc
 50
124.0382574848
 51
126.3962052438
  0
ARC
  5
367
100
AcDbEntity
  8
RACCORDO
100
AcDbCircle
 62
7
  6
CONTINUOUS
 10
18.0282329482
 20
-12.330056918
 40
1.0004886868
100
AcDbArc
 50
300.8976982453
 51
305.9315387517
  0
ARC
  5
368
100
AcDbEntity
  8
RACCORDO
100
AcDbCircle
 62
7
  6
CONTINUOUS
 10
18.0284101781
 20
-12.3303005274
 40
1.0001886542
100
AcDbArc
 50
297.8708874579
 51
300.6678852837
  0
ARC
  5
369
100
AcDbEntity
  8
RACCORDO
100
AcDbCircle
 62
7
  6
CONTINUOUS
 10
18.0285908921
 20
-12.330610541
 40
0.9998298246
100
AcDbArc
 50
300.6680392508
 51
300.8963883947
  0
ARC
  5
36A
100
AcDbEntity
  8
0
100
AcDbCircle
 62
7
  6
CONTINUOUS
 10
12.6221425416
 20
-1.2803947607
 40
0.9321555723
100
AcDbArc
 50
33.7668614661
 51
37.068393128
  0
ARC
  5
36B
100
AcDbEntity
  8
0
100
AcDbCircle
 62
7
  6
CONTINUOUS
 10
12.6221425416
 20
-9.9406487986
 40
0.9321555723
100
AcDbArc
 50
33.7668614667
 51
37.0683931285
  0
ARC
  5
36C
100
AcDbEntity
  8
0
100
AcDbCircle
 62
7
  6
CONTINUOUS
 10
12.6221425416
 20
-5.6105217797
 40
0.9321555723
100
AcDbArc
 50
33.7668614664
 51
37.068393128
  0
ARC
  5
36D
100
AcDbEntity
  8
RACCORDO
100
AcDbCircle
 62
253
  6
CONTINUOUS
 10
18.2012218203
 20
-12.453382833
 40
0.7928963627
100
AcDbArc
 50
305.9277820552
 51
312.1743057004
  0
ARC
  5
36E
100
AcDbEntity
  8
RACCORDO
100
AcDbCircle
 62
253
  6
CONTINUOUS
 10
18.3770780005
 20
-12.5468421467
 40
0.6202423496
100
AcDbArc
 50
297.8121585644
 51
305.930089481
  0
ARC
  5
36F
100
AcDbEntity
  8
RACCORDO
100
AcDbCircle
 62
253
  6
CONTINUOUS
 10
18.2513778387
 20
-12.6379426987
 40
0.620242346
100
AcDbArc
 50
297.8121585454
 51
305.9300848592
  0
ARC
  5
370
100
AcDbEntity
  8
RACCORDO
100
AcDbCircle
 62
253
  6
CONTINUOUS
 10
18.3217740576
 20
-12.8852947785
 40
0.3724300095
100
AcDbArc
 50
297.8884983114
 51
306.0159902488
  0
ARC
  5
371
100
AcDbEntity
  8
RACCORDO
100
AcDbCircle
 62
7
  6
CONTINUOUS
 10
-0.6568940927
 20
-26.1848255869
 40
0.2500021202
100
AcDbArc
 50
180.0018403594
 51
243.4346144876
  0
ARC
  5
372
100
AcDbEntity
  8
RACCORDO
100
AcDbCircle
 62
7
  6
CONTINUOUS
 10
0.6680888307
 20
-26.8473175561
 40
0.2500012342
100
AcDbArc
 50
243.4334738355
 51
295.9719157382
  0
ARC
  5
373
100
AcDbEntity
  8
RACCORDO
100
AcDbCircle
 62
7
  6
CONTINUOUS
 10
2.7955790197
 20
-25.7973017552
 40
0.2500003968
100
AcDbArc
 50
297.160171875
 51
0.000031534
  0
ARC
  5
374
100
AcDbEntity
  8
RACCORDO
100
AcDbCircle
 62
7
  6
CONTINUOUS
 10
2.7955791515
 20
-25.4497710945
 40
0.2500002666
100
AcDbArc
 50
0.000151117
 51
63.4365832535
  0
ARC
  5
375
100
AcDbEntity
  8
RACCORDO
100
AcDbCircle
 62
7
  6
CONTINUOUS
 10
2.3382202628
 20
-26.2075499816
 40
0.0937479893
100
AcDbArc
 50
297.1567006962
 51
299.3030104152
  0
ARC
  5
376
100
AcDbEntity
  8
0
100
AcDbCircle
 62
7
  6
CONTINUOUS
 10
-11.092024972
 20
7.4583644344
 40
3.3557551236
100
AcDbArc
 50
230.3687595051
 51
231.1760114698
  0
ARC
  5
377
100
AcDbEntity
  8
0
100
AcDbCircle
 62
7
  6
CONTINUOUS
 10
-11.6586399948
 20
6.9071640273
 40
2.8395975235
100
AcDbArc
 50
237.0942043707
 51
238.0895600074
  0
ARC
  5
378
100
AcDbEntity
  8
0
100
AcDbCircle
 62
7
  6
CONTINUOUS
 10
-11.7466585028
 20
6.7643451504
 40
2.6718362382
100
AcDbArc
 50
238.0729124096
 51
242.0819001819
  0
ARC
  5
379
100
AcDbEntity
  8
DRAFT
100
AcDbCircle
 62
7
  6
CONTINUOUS
 10
-8.5777252746
 20
11.6922897499
 40
2.3003893656
100
AcDbArc
 50
148.1817685396
 51
151.4496704103
  0
ARC
  5
37A
100
AcDbEntity
  8
0
100
AcDbCircle
 62
7
  6
CONTINUOUS
 10
-13.4813638882
 20
8.7299006922
 40
1.1942541595
100
AcDbArc
 50
126.4434692317
 51
133.6888029223
  0
ARC
  5
37B
100
AcDbEntity
  8
0
100
AcDbCircle
 62
7
  6
CONTINUOUS
 10
-11.8633373925
 20
5.4897649339
 40
1.1858264169
100
AcDbArc
 50
282.1709112036
 51
284.0249255776
  0
ARC
  5
37C
100
AcDbEntity
  8
0
100
AcDbCircle
 62
7
  6
CONTINUOUS
 10
-11.8572032802
 20
5.4659204518
 40
1.1612061772
100
AcDbArc
 50
284.0164047737
 51
289.0766947554
  0
ARC
  5
37D
100
AcDbEntity
  8
0
100
AcDbCircle
 62
7
  6
CONTINUOUS
 10
-13.5079103242
 20
8.7642521125
 40
1.1508514167
100
AcDbArc
 50
124.0382574848
 51
126.3962052438
  0
ARC
  5
37E
100
AcDbEntity
  8
RACCORDO
100
AcDbCircle
 62
7
  6
CONTINUOUS
 10
4.8929492652
 20
26.0973181258
 40
1.0000009487
100
AcDbArc
 50
63.4347123609
 51
115.2484099087
  0
ARC
  5
37F
100
AcDbEntity
  8
RACCORDO
100
AcDbCircle
 62
7
  6
CONTINUOUS
 10
18.0285024935
 20
19.5295428323
 40
0.9999997707
100
AcDbArc
 50
30.1049981242
 51
63.4346411817
  0
ARC
  5
380
100
AcDbEntity
  8
0
100
AcDbCircle
 62
7
  6
CONTINUOUS
 10
12.6221425416
 20
3.0497322582
 40
0.9321555723
100
AcDbArc
 50
33.7668614667
 51
37.0683931285
  0
ARC
  5
381
100
AcDbEntity
  8
0
100
AcDbCircle
 62
7
  6
CONTINUOUS
 10
12.6221425416
 20
7.3798592771
 40
0.9321555723
100
AcDbArc
 50
33.7668614664
 51
37.068393128
  0
ARC
  5
382
100
AcDbEntity
  8
RACCORDO
100
AcDbCircle
 62
253
  6
CONTINUOUS
 10
4.6286122206
 20
26.6578304775
 40
0.3802847516
100
AcDbArc
 50
113.7297936546
 51
115.2482364722
  0
ARC
  5
383
100
AcDbEntity
  8
RACCORDO
100
AcDbCircle
 62
7
  6
CONTINUOUS
 10
-12.6958681455
 20
21.4754587526
 40
0.2510925841
100
AcDbArc
 50
243.4673571142
 51
258.1738073875
  0
ARC
  5
384
100
AcDbEntity
  8
RACCORDO
100
AcDbCircle
 62
7
  6
CONTINUOUS
 10
0.668450019
 20
14.7932996704
 40
0.2510925841
100
AcDbArc
 50
243.4673571141
 51
258.1738073875
  0
ARC
  5
385
100
AcDbEntity
  8
RACCORDO
100
AcDbCircle
 62
7
  6
CONTINUOUS
 10
-10.5687409994
 20
22.8795230592
 40
0.2500021202
100
AcDbArc
 50
0.0018403594
 51
63.4346144876
  0
ARC
  5
386
100
AcDbEntity
  8
RACCORDO
100
AcDbCircle
 62
7
  6
CONTINUOUS
 10
-11.9060644247
 20
23.5481855503
 40
0.250001424
100
AcDbArc
 50
63.4352355626
 51
115.9737880832
  0
ARC
  5
387
100
AcDbEntity
  8
RACCORDO
100
AcDbCircle
 62
7
  6
CONTINUOUS
 10
1.4582527609
 20
16.8660266866
 40
0.2500012342
100
AcDbArc
 50
63.4334738355
 51
115.9719157382
  0
ARC
  5
388
100
AcDbEntity
  8
RACCORDO
100
AcDbCircle
 62
7
  6
CONTINUOUS
 10
-0.6568959474
 20
15.7947249801
 40
0.2500003968
100
AcDbArc
 50
117.160171875
 51
180.000031534
  0
ARC
  5
389
100
AcDbEntity
  8
RACCORDO
100
AcDbCircle
 62
7
  6
CONTINUOUS
 10
-14.0212142436
 20
22.1369109842
 40
0.2500002666
100
AcDbArc
 50
180.000151117
 51
243.4365832535
  0
ARC
  5
38A
100
AcDbEntity
  8
RACCORDO
100
AcDbCircle
 62
7
  6
CONTINUOUS
 10
-0.6568960791
 20
15.454751902
 40
0.2500002666
100
AcDbArc
 50
180.000151117
 51
243.4365832535
  0
ARC
  5
38B
100
AcDbEntity
  8
RACCORDO
100
AcDbCircle
 62
7
  6
CONTINUOUS
 10
-10.56873905
 20
22.5319926479
 40
0.2500001466
100
AcDbArc
 50
320.5926030822
 51
0.0004114696
  0
ARC
  5
38C
100
AcDbEntity
  8
RACCORDO
100
AcDbCircle
 62
7
  6
CONTINUOUS
 10
-14.0212158975
 20
22.4768844155
 40
0.2499986126
100
AcDbArc
 50
117.1565718893
 51
180.0000358743
  0
ARC
  5
38D
100
AcDbEntity
  8
RACCORDO
100
AcDbCircle
 62
7
  6
CONTINUOUS
 10
2.7955809141
 20
16.1973653384
 40
0.2499985039
100
AcDbArc
 50
359.9999730928
 51
63.4370632661
  0
ARC
  5
38E
100
AcDbEntity
  8
RACCORDO
100
AcDbCircle
 62
7
  6
CONTINUOUS
 10
-2.4737286976
 20
19.7254741905
 40
0.1583888448
100
AcDbArc
 50
114.7904438173
 51
131.2191435256
  0
ARC
  5
38F
100
AcDbEntity
  8
RACCORDO
100
AcDbCircle
 62
253
  6
CONTINUOUS
 10
-10.3911124716
 20
22.3860516012
 40
0.0201085158
100
AcDbArc
 50
320.589349707
 51
322.5112512672
  0
ARC
  5
390
100
AcDbEntity
  8
RACCORDO
100
AcDbCircle
 62
253
  6
CONTINUOUS
 10
520.4041090347
 20
-0.889242634
 40
539.6213738622
100
AcDbArc
 50
178.1088837605
 51
181.8911162395
  0
ARC
  5
391
100
AcDbEntity
  8
RACCORDO
100
AcDbCircle
 62
253
  6
CONTINUOUS
 10
516.7480011725
 20
-8.3086144962
 40
521.1369529942
100
AcDbArc
 50
178.0417812996
 51
181.9582187004
  0
ARC
  5
392
100
AcDbEntity
  8
RACCORDO
100
AcDbCircle
 62
253
  6
CONTINUOUS
 10
516.9154049287
 20
-8.3117581458
 40
520.6174918056
100
AcDbArc
 50
178.0417483865
 51
181.9582516135
  0
SPLINE
  5
393
100
AcDbEntity
  8
0
100
AcDbSpline
 62
7
  6
CONTINUOUS
 70
0
 71
3
 72
9
 73
5
 74
3
 42
0.0000001
 43
0.0000001
 44
0.0000000001
 12
-0.2568585613
 22
0.0241973246
 32
0.0
 13
-0.2541098997
 23
-0.0446093025
 33
0.0
 40
0.0
 40
0.0
 40
0.0
 40
0.0
 40
0.2427755223
 40
1.0
 40
1.0
 40
1.0
 40
1.0
 10
13.5098671826
 20
-0.7392913295
 30
0.0
 10
13.4890808588
 20
-0.7373331568
 30
0.0
 10
13.4031699277
 20
-0.7324547674
 30
0.0
 10
13.3167304402
 20
-0.7399375111
 30
0.0
 10
13.2525910282
 20
-0.751197263
 30
0.0
 11
13.5098671826
 21
-0.7392913295
 31
0.0
 11
13.4473355634
 21
-0.7356930143
 31
0.0
 11
13.2525910282
 21
-0.751197263
 31
0.0
  0
SPLINE
  5
394
100
AcDbEntity
  8
0
100
AcDbSpline
 62
7
  6
CONTINUOUS
 70
0
 71
3
 72
9
 73
5
 74
3
 42
0.0000001
 43
0.0000001
 44
0.0000000001
 12
-0.2568585613
 22
0.0241973246
 32
0.0
 13
-0.2541098997
 23
-0.0446093025
 33
0.0
 40
0.0
 40
0.0
 40
0.0
 40
0.0
 40
0.2427755223
 40
1.0
 40
1.0
 40
1.0
 40
1.0
 10
13.5098671826
 20
-9.3995453674
 30
0.0
 10
13.4890808588
 20
-9.3975871946
 30
0.0
 10
13.4031699277
 20
-9.3927088052
 30
0.0
 10
13.3167304402
 20
-9.4001915489
 30
0.0
 10
13.2525910282
 20
-9.4114513009
 30
0.0
 11
13.5098671826
 21
-9.3995453674
 31
0.0
 11
13.4473355634
 21
-9.3959470522
 31
0.0
 11
13.2525910282
 21
-9.4114513009
 31
0.0
  0
SPLINE
  5
395
100
AcDbEntity
  8
0
100
AcDbSpline
 62
7
  6
CONTINUOUS
 70
0
 71
3
 72
9
 73
5
 74
3
 42
0.0000001
 43
0.0000001
 44
0.0000000001
 12
-0.2568585613
 22
0.0241973246
 32
0.0
 13
-0.2541098997
 23
-0.0446093025
 33
0.0
 40
0.0
 40
0.0
 40
0.0
 40
0.0
 40
0.2427755223
 40
1.0
 40
1.0
 40
1.0
 40
1.0
 10
13.5098671826
 20
-5.0694183484
 30
0.0
 10
13.4890808588
 20
-5.0674601757
 30
0.0
 10
13.4031699277
 20
-5.0625817863
 30
0.0
 10
13.3167304402
 20
-5.07006453
 30
0.0
 10
13.2525910282
 20
-5.0813242819
 30
0.0
 11
13.5098671826
 21
-5.0694183484
 31
0.0
 11
13.4473355634
 21
-5.0658200333
 31
0.0
 11
13.2525910282
 21
-5.0813242819
 31
0.0
  0
SPLINE
  5
396
100
AcDbEntity
  8
0
100
AcDbSpline
 62
7
  6
CONTINUOUS
 70
0
 71
3
 72
9
 73
5
 74
3
 42
0.0000001
 43
0.0000001
 44
0.0000000001
 12
-0.2568585613
 22
0.0241973246
 32
0.0
 13
-0.2541098997
 23
-0.0446093025
 33
0.0
 40
0.0
 40
0.0
 40
0.0
 40
0.0
 40
0.2427755223
 40
1.0
 40
1.0
 40
1.0
 40
1.0
 10
13.5098671826
 20
3.5908356894
 30
0.0
 10
13.4890808588
 20
3.5927938621
 30
0.0
 10
13.4031699277
 20
3.5976722515
 30
0.0
 10
13.3167304402
 20
3.5901895078
 30
0.0
 10
13.2525910282
 20
3.5789297559
 30
0.0
 11
13.5098671826
 21
3.5908356894
 31
0.0
 11
13.4473355634
 21
3.5944340046
 31
0.0
 11
13.2525910282
 21
3.5789297559
 31
0.0
  0
SPLINE
  5
397
100
AcDbEntity
  8
0
100
AcDbSpline
 62
7
  6
CONTINUOUS
 70
0
 71
3
 72
9
 73
5
 74
3
 42
0.0000001
 43
0.0000001
 44
0.0000000001
 12
-0.2568585613
 22
0.0241973246
 32
0.0
 13
-0.2541098997
 23
-0.0446093025
 33
0.0
 40
0.0
 40
0.0
 40
0.0
 40
0.0
 40
0.2427755223
 40
1.0
 40
1.0
 40
1.0
 40
1.0
 10
13.5098671826
 20
7.9209627083
 30
0.0
 10
13.4890808588
 20
7.922920881
 30
0.0
 10
13.4031699277
 20
7.9277992704
 30
0.0
 10
13.3167304402
 20
7.9203165268
 30
0.0
 10
13.2525910282
 20
7.9090567748
 30
0.0
 11
13.5098671826
 21
7.9209627083
 31
0.0
 11
13.4473355634
 21
7.9245610235
 31
0.0
 11
13.2525910282
 21
7.9090567748
 31
0.0
  0
SPLINE
  5
398
100
AcDbEntity
  8
0
100
AcDbSpline
 62
7
  6
CONTINUOUS
 70
0
 71
3
 72
17
 73
13
 74
11
 42
0.0000001
 43
0.0000001
 44
0.0000000001
 12
5.0484873501
 22
2.5247560564
 32
0.0
 13
-4.3473044117
 23
3.6003558186
 33
0.0
 40
0.0
 40
0.0
 40
0.0
 40
0.0
 40
0.0447875476
 40
0.0909273561
 40
0.1395669284
 40
0.1915110989
 40
0.3065030273
 40
0.4360839552
 40
0.576419005
 40
0.7216180479
 40
0.8649411162
 40
1.0
 40
1.0
 40
1.0
 40
1.0
 10
-11.6068010789
 20
4.2931334279
 30
0.0
 10
-11.5314312897
 20
4.3308259719
 30
0.0
 10
-11.3866812905
 20
4.4251512188
 30
0.0
 10
-11.2018284565
 20
4.6142598803
 30
0.0
 10
-11.0512155336
 20
4.847626778
 30
0.0
 10
-10.8939321129
 20
5.2233974845
 30
0.0
 10
-10.8033992403
 20
5.7816439933
 30
0.0
 10
-10.8541936739
 20
6.508723795
 30
0.0
 10
-11.0544274641
 20
7.2679899074
 30
0.0
 10
-11.3900293394
 20
8.0059127091
 30
0.0
 10
-11.8366395283
 20
8.6702291646
 30
0.0
 10
-12.2038481043
 20
9.0492678822
 30
0.0
 10
-12.3995621315
 20
9.2113545616
 30
0.0
 11
-11.6068010789
 21
4.2931334279
 31
0.0
 11
-11.3947342645
 21
4.4307548767
 31
0.0
 11
-11.2118320839
 21
4.6161636535
 31
0.0
 11
-11.0615913062
 21
4.8459596028
 31
0.0
 11
-10.9467891843
 21
5.1157546903
 31
0.0
 11
-10.8314960019
 21
5.7545177355
 31
0.0
 11
-10.8745720715
 21
6.4846819531
 31
0.0
 11
-11.0727861918
 21
7.2516183972
 31
0.0
 11
-11.4113595891
 21
7.998009018
 31
0.0
 11
-11.8648859751
 21
8.6679338622
 31
0.0
 11
-12.3995621315
 21
9.2113545616
 31
0.0
  0
SPLINE
  5
399
100
AcDbEntity
  8
0
100
AcDbSpline
 62
7
  6
CONTINUOUS
 70
0
 71
3
 72
17
 73
13
 74
11
 42
0.0000001
 43
0.0000001
 44
0.0000000001
 12
2.9457197464
 22
1.4720867993
 32
0.0
 13
-2.5361250301
 23
2.1005652098
 33
0.0
 40
0.0
 40
0.0
 40
0.0
 40
0.0
 40
0.0447869646
 40
0.0909233062
 40
0.1395570434
 40
0.1914952527
 40
0.3064742987
 40
0.4360468798
 40
0.576387003
 40
0.7215877592
 40
0.864944184
 40
1.0
 40
1.0
 40
1.0
 40
1.0
 10
-11.9010721052
 20
5.5435510398
 30
0.0
 10
-11.8570954898
 20
5.5655278063
 30
0.0
 10
-11.7725810825
 20
5.620447111
 30
0.0
 10
-11.6647414932
 20
5.7307700656
 30
0.0
 10
-11.5767888484
 20
5.8668357532
 30
0.0
 10
-11.4849898778
 20
6.0860211383
 30
0.0
 10
-11.4320766456
 20
6.4116515676
 30
0.0
 10
-11.4616256749
 20
6.8358255661
 30
0.0
 10
-11.5784113256
 20
7.2787876192
 30
0.0
 10
-11.7741630321
 20
7.7093600757
 30
0.0
 10
-12.0347507167
 20
8.0969444813
 30
0.0
 10
-12.248990154
 20
8.3181101259
 30
0.0
 10
-12.3631629659
 20
8.4126746421
 30
0.0
 11
-11.9010721052
 21
5.5435510398
 31
0.0
 11
-11.7772942128
 21
5.6237465636
 31
0.0
 11
-11.6705618839
 21
5.7318714187
 31
0.0
 11
-11.5828532314
 21
5.8658735791
 31
0.0
 11
-11.5158362568
 21
6.0232332864
 31
0.0
 11
-11.4484789579
 21
6.395827786
 31
0.0
 11
-11.4735231473
 21
6.8217836498
 31
0.0
 11
-11.5891196019
 21
7.2692429568
 31
0.0
 11
-11.7866036362
 21
7.7047120608
 31
0.0
 11
-12.051250208
 21
8.0956394081
 31
0.0
 11
-12.3631629659
 21
8.4126746421
 31
0.0
  0
SPLINE
  5
39A
100
AcDbEntity
  8
0
100
AcDbSpline
 62
7
  6
CONTINUOUS
 70
0
 71
3
 72
13
 73
9
 74
7
 42
0.0000001
 43
0.0000001
 44
0.0000000001
 12
-2.9569641319
 22
-1.4800971831
 32
0.0
 13
-2.5467549492
 23
2.1091144534
 33
0.0
 40
0.0
 40
0.0
 40
0.0
 40
0.0
 40
0.1203562893
 40
0.2409608729
 40
0.3621837485
 40
0.4846263712
 40
0.7356493768
 40
1.0
 40
1.0
 40
1.0
 40
1.0
 10
-10.3850543179
 20
3.6182967548
 30
0.0
 10
-10.5036840614
 20
3.5589170866
 30
0.0
 10
-10.7527201908
 20
3.4616927191
 30
0.0
 10
-11.1465292934
 20
3.3850973353
 30
0.0
 10
-11.5498728324
 20
3.3771300207
 30
0.0
 10
-12.0917644653
 20
3.453495718
 30
0.0
 10
-12.7579827691
 20
3.7046482354
 30
0.0
 10
-13.2313808959
 20
4.0270540226
 30
0.0
 10
-13.4557929819
 20
4.2129025959
 30
0.0
 11
-10.3850543179
 21
3.6182967548
 31
0.0
 11
-10.7556981724
 21
3.4733354413
 31
0.0
 11
-11.1470567598
 21
3.3966327837
 31
0.0
 11
-11.5478078902
 21
3.3877855834
 31
0.0
 11
-11.9488720649
 21
3.443256864
 31
0.0
 11
-12.7286590105
 21
3.7277423373
 31
0.0
 11
-13.4557929819
 21
4.2129025959
 31
0.0
  0
SPLINE
  5
39B
100
AcDbEntity
  8
0
100
AcDbSpline
 62
7
  6
CONTINUOUS
 70
0
 71
3
 72
18
 73
14
 74
12
 42
0.0000001
 43
0.0000001
 44
0.0000000001
 12
-6.0928586196
 22
5.0459909852
 32
0.0
 13
7.0743254484
 23
3.5410267765
 33
0.0
 40
0.0
 40
0.0
 40
0.0
 40
0.0
 40
0.1295227615
 40
0.2642277304
 40
0.3998795536
 40
0.5318484213
 40
0.656928102
 40
0.7167582318
 40
0.7749950489
 40
0.8320335429
 40
0.8883215425
 40
0.9442311388
 40
1.0
 40
1.0
 40
1.0
 40
1.0
 10
-13.4558424624
 20
4.2129435742
 30
0.0
 10
-13.718897087
 20
4.4308004698
 30
0.0
 10
-14.2071910503
 20
4.9356203814
 30
0.0
 10
-14.7914911558
 20
5.8194662004
 30
0.0
 10
-15.218027944
 20
6.7969205073
 30
0.0
 10
-15.4592475009
 20
7.8097735183
 30
0.0
 10
-15.487445957
 20
8.6526290638
 30
0.0
 10
-15.3897976615
 20
9.2880134624
 30
0.0
 10
-15.2571277828
 20
9.7320423575
 30
0.0
 10
-15.061441441
 20
10.1421674459
 30
0.0
 10
-14.8015823298
 20
10.5080169571
 30
0.0
 10
-14.4801408396
 20
10.8166293311
 30
0.0
 10
-14.2294416187
 20
10.9756330892
 30
0.0
 10
-14.097932594
 20
11.0414594328
 30
0.0
 11
-13.4558424624
 21
4.2129435742
 31
0.0
 11
-14.1730550106
 21
4.9447498484
 31
0.0
 11
-14.7631930386
 21
5.8320873687
 31
0.0
 11
-15.1912714168
 21
6.8161608893
 31
0.0
 11
-15.4278906578
 21
7.8330075859
 31
0.0
 11
-15.4517442939
 21
8.8222335287
 31
0.0
 11
-15.3783626466
 21
9.2898305844
 31
0.0
 11
-15.244953051
 21
9.7308072534
 31
0.0
 11
-15.0492492864
 21
10.1373946097
 31
0.0
 11
-14.7903201677
 21
10.4996735724
 31
0.0
 11
-14.4706038369
 21
10.8053117573
 31
0.0
 11
-14.097932594
 21
11.0414594328
 31
0.0
  0
SPLINE
  5
39C
100
AcDbEntity
  8
0
100
AcDbSpline
 62
7
  6
CONTINUOUS
 70
0
 71
3
 72
13
 73
9
 74
7
 42
0.0000001
 43
0.0000001
 44
0.0000000001
 12
-1.5790393062
 22
1.3076933874
 32
0.0
 13
-1.8337035371
 23
-0.9170378749
 33
0.0
 40
0.0
 40
0.0
 40
0.0
 40
0.0
 40
0.2919664315
 40
0.426518603
 40
0.5531852706
 40
0.785054566
 40
0.8937312216
 40
1.0
 40
1.0
 40
1.0
 40
1.0
 10
-12.3995621315
 20
-15.3837669059
 30
0.0
 10
-12.5532376219
 20
-15.2564993819
 30
0.0
 10
-12.7950651897
 20
-15.089008346
 30
0.0
 10
-13.1390172332
 20
-14.9299558161
 30
0.0
 10
-13.4607174505
 20
-14.8279500192
 30
0.0
 10
-13.7851347322
 20
-14.7963583438
 30
0.0
 10
-14.0872573768
 20
-14.85014999
 30
0.0
 10
-14.2254442505
 20
-14.903121324
 30
0.0
 10
-14.2903993954
 20
-14.9356054889
 30
0.0
 11
-12.3995621315
 21
-15.3837669059
 31
0.0
 11
-12.8952655922
 21
-15.048212603
 31
0.0
 11
-13.1460446313
 21
-14.9332781691
 31
0.0
 11
-13.3939584048
 21
-14.8559450269
 31
0.0
 11
-13.8678027575
 21
-14.8177097324
 31
0.0
 11
-14.0870570363
 21
-14.8573660397
 31
0.0
 11
-14.2903993954
 21
-14.9356054889
 31
0.0
  0
SPLINE
  5
39D
100
AcDbEntity
  8
0
100
AcDbSpline
 62
7
  6
CONTINUOUS
 70
0
 71
3
 72
12
 73
8
 74
6
 42
0.0000001
 43
0.0000001
 44
0.0000000001
 12
1.6918090907
 22
0.8452655039
 32
0.0
 13
0.0000138911
 23
1.8912143642
 33
0.0
 40
0.0
 40
0.0
 40
0.0
 40
0.0
 40
0.1078338167
 40
0.2178206313
 40
0.450862421
 40
0.7105190951
 40
1.0
 40
1.0
 40
1.0
 40
1.0
 10
-11.6073794866
 20
-8.0046957256
 30
0.0
 10
-11.5465680761
 20
-7.9743129904
 30
0.0
 10
-11.4290485193
 20
-7.90157063
 30
0.0
 10
-11.2168811728
 20
-7.7105148582
 30
0.0
 10
-11.0049627888
 20
-7.387002032
 30
0.0
 10
-10.8568683343
 20
-6.9119183647
 30
0.0
 10
-10.827281234
 20
-6.5643863508
 30
0.0
 10
-10.8272798936
 20
-6.3818962023
 30
0.0
 11
-11.6073794866
 21
-8.0046957256
 31
0.0
 11
-11.4338905833
 21
-7.8974957042
 31
0.0
 11
-11.2789836259
 21
-7.7586741268
 31
0.0
 11
-11.0322096606
 21
-7.3935066468
 31
0.0
 11
-10.879146093
 21
-6.9269042629
 31
0.0
 11
-10.8272798936
 21
-6.3818962023
 31
0.0
  0
SPLINE
  5
39E
100
AcDbEntity
  8
0
100
AcDbSpline
 62
7
  6
CONTINUOUS
 70
0
 71
3
 72
11
 73
7
 74
5
 42
0.0000001
 43
0.0000001
 44
0.0000000001
 12
0.9854623835
 22
0.4928700443
 32
0.0
 13
0.0000605519
 23
1.1018425415
 33
0.0
 40
0.0
 40
0.0
 40
0.0
 40
0.0
 40
0.2171635391
 40
0.45037587
 40
0.7103699282
 40
1.0
 40
1.0
 40
1.0
 40
1.0
 10
-11.9006802879
 20
-6.7538329137
 30
0.0
 10
-11.8293447883
 20
-6.7181551127
 30
0.0
 10
-11.6944391009
 20
-6.615377167
 30
0.0
 10
-11.5497216547
 20
-6.3935269849
 30
0.0
 10
-11.4632355748
 20
-6.1163655564
 30
0.0
 10
-11.446004173
 20
-5.9137475207
 30
0.0
 10
-11.4459983271
 20
-5.8073719426
 30
0.0
 11
-11.9006802879
 21
-6.7538329137
 31
0.0
 11
-11.7092798081
 21
-6.6102335151
 31
0.0
 11
-11.5654600133
 21
-6.3972875416
 31
0.0
 11
-11.476241281
 21
-6.1250624156
 31
0.0
 11
-11.4459983271
 21
-5.8073719426
 31
0.0
  0
SPLINE
  5
39F
100
AcDbEntity
  8
0
100
AcDbSpline
 62
7
  6
CONTINUOUS
 70
0
 71
3
 72
18
 73
14
 74
12
 42
0.0000001
 43
0.0000001
 44
0.0000000001
 12
-7.2693266194
 22
-3.6295836398
 32
0.0
 13
-0.0000596577
 23
8.1250838084
 33
0.0
 40
0.0
 40
0.0
 40
0.0
 40
0.0
 40
0.0557679698
 40
0.1116870227
 40
0.1680129094
 40
0.2251528239
 40
0.283571407
 40
0.3436693259
 40
0.469466168
 40
0.602087381
 40
0.737883007
 40
0.8719190222
 40
1.0
 40
1.0
 40
1.0
 40
1.0
 10
-10.3861842638
 20
-8.6798456953
 30
0.0
 10
-10.5213161262
 20
-8.7473171989
 30
0.0
 10
-10.8068957478
 20
-8.8545793725
 30
0.0
 10
-11.2593968404
 20
-8.9248775397
 30
0.0
 10
-11.7204542548
 20
-8.907217331
 30
0.0
 10
-12.1774472331
 20
-8.8079239314
 30
0.0
 10
-12.6224438416
 20
-8.6347566912
 30
0.0
 10
-13.2013205042
 20
-8.3106462072
 30
0.0
 10
-13.8684400663
 20
-7.7510351025
 30
0.0
 10
-14.5357329924
 20
-6.9099925778
 30
0.0
 10
-15.0515804506
 20
-5.9430482206
 30
0.0
 10
-15.3842782014
 20
-4.9121914862
 30
0.0
 10
-15.4688772696
 20
-4.2009108934
 30
0.0
 10
-15.4688798166
 20
-3.8540213337
 30
0.0
 11
-10.3861842638
 21
-8.6798456953
 31
0.0
 11
-10.8103045623
 21
-8.8393423682
 31
0.0
 11
-11.2591006616
 21
-8.9101466735
 31
0.0
 11
-11.7164705773
 21
-8.8940651039
 31
0.0
 11
-12.1705049246
 21
-8.7971306805
 31
0.0
 11
-12.6134690095
 21
-8.6265990798
 31
0.0
 11
-13.0403114691
 21
-8.3894429756
 31
0.0
 11
-13.8295449901
 21
-7.7399669818
 31
0.0
 11
-14.5034308713
 21
-6.8991280701
 31
0.0
 11
-15.0233797862
 21
-5.925970217
 31
0.0
 11
-15.3540716342
 21
-4.8883377172
 31
0.0
 11
-15.4688798166
 21
-3.8540213337
 31
0.0
  0
SPLINE
  5
3A0
100
AcDbEntity
  8
0
100
AcDbSpline
 62
7
  6
CONTINUOUS
 70
0
 71
3
 72
12
 73
8
 74
6
 42
0.0000001
 43
0.0000001
 44
0.0000000001
 12
-0.9203423229
 22
0.7621180391
 32
0.0
 13
-1.0688886422
 23
-0.5341638022
 33
0.0
 40
0.0
 40
0.0
 40
0.0
 40
0.0
 40
0.2920446876
 40
0.5529705328
 40
0.7849273305
 40
0.8936770335
 40
1.0
 40
1.0
 40
1.0
 40
1.0
 10
-12.3631629659
 20
-16.1824468254
 30
0.0
 10
-12.4527566613
 20
-16.1082559839
 30
0.0
 10
-12.6353007911
 20
-15.9819796919
 30
0.0
 10
-12.9279028524
 20
-15.8635770964
 30
0.0
 10
-13.1710867104
 20
-15.839881107
 30
0.0
 10
-13.3473215906
 20
-15.8710555303
 30
0.0
 10
-13.4279158127
 20
-15.9019267645
 30
0.0
 10
-13.4657982831
 20
-15.9208580579
 30
0.0
 11
-12.3631629659
 21
-16.1824468254
 31
0.0
 11
-12.6521535543
 21
-15.9868292373
 31
0.0
 11
-12.9430433761
 21
-15.8746031963
 31
0.0
 11
-13.2193132
 21
-15.8522610244
 31
0.0
 11
-13.3472057314
 21
-15.8752830035
 31
0.0
 11
-13.4657982831
 21
-15.9208580579
 31
0.0
  0
SPLINE
  5
3A1
100
AcDbEntity
  8
0
100
AcDbSpline
 62
7
  6
CONTINUOUS
 70
0
 71
3
 72
13
 73
9
 74
7
 42
0.0000001
 43
0.0000001
 44
0.0000000001
 12
0.0000227068
 22
3.0925366794
 32
0.0
 13
2.7668218243
 23
1.3814775086
 33
0.0
 40
0.0
 40
0.0
 40
0.0
 40
0.0
 40
0.262644763
 40
0.5133679231
 40
0.6361086057
 40
0.7578297329
 40
0.879018765
 40
1.0
 40
1.0
 40
1.0
 40
1.0
 10
-15.4688798166
 20
-3.8539575855
 30
0.0
 10
-15.4688778286
 20
-3.5832113977
 30
0.0
 10
-15.4196971853
 20
-3.0520531616
 30
0.0
 10
-15.2082528253
 20
-2.4230727603
 30
0.0
 10
-14.9465648999
 20
-1.9828244674
 30
0.0
 10
-14.705988105
 20
-1.6905504362
 30
0.0
 10
-14.4224873534
 20
-1.4424002192
 30
0.0
 10
-14.2083804886
 20
-1.3112305363
 30
0.0
 10
-14.0968026481
 20
-1.2555195846
 30
0.0
 11
-15.4688798166
 21
-3.8539575855
 31
0.0
 11
-15.3867622883
 21
-3.0458807357
 31
0.0
 11
-15.1327095555
 21
-2.3133121529
 31
0.0
 11
-14.9380469553
 21
-1.9874479231
 31
0.0
 11
-14.6982492584
 21
-1.6972852294
 31
0.0
 11
-14.4159553723
 21
-1.450766762
 31
0.0
 11
-14.0968026481
 21
-1.2555195846
 31
0.0
  0
SPLINE
  5
3A2
100
AcDbEntity
  8
0
100
AcDbSpline
 62
7
  6
CONTINUOUS
 70
0
 71
3
 72
17
 73
13
 74
11
 42
0.0000001
 43
0.0000001
 44
0.0000000001
 12
5.0484873501
 22
2.5247560564
 32
0.0
 13
-4.3473044117
 23
3.6003558186
 33
0.0
 40
0.0
 40
0.0
 40
0.0
 40
0.0
 40
0.0447875476
 40
0.0909273561
 40
0.1395669284
 40
0.1915110989
 40
0.3065030273
 40
0.4360839552
 40
0.576419005
 40
0.7216180479
 40
0.8649411162
 40
1.0
 40
1.0
 40
1.0
 40
1.0
 10
-11.6068010789
 20
-20.3019880396
 30
0.0
 10
-11.5314312897
 20
-20.2642954956
 30
0.0
 10
-11.3866812905
 20
-20.1699702486
 30
0.0
 10
-11.2018284565
 20
-19.9808615871
 30
0.0
 10
-11.0512155336
 20
-19.7474946895
 30
0.0
 10
-10.8939321129
 20
-19.371723983
 30
0.0
 10
-10.8033992403
 20
-18.8134774742
 30
0.0
 10
-10.8541936739
 20
-18.0863976725
 30
0.0
 10
-11.0544274641
 20
-17.3271315601
 30
0.0
 10
-11.3900293394
 20
-16.5892087583
 30
0.0
 10
-11.8366395283
 20
-15.9248923029
 30
0.0
 10
-12.2038481043
 20
-15.5458535853
 30
0.0
 10
-12.3995621315
 20
-15.3837669059
 30
0.0
 11
-11.6068010789
 21
-20.3019880396
 31
0.0
 11
-11.3947342645
 21
-20.1643665908
 31
0.0
 11
-11.2118320839
 21
-19.9789578139
 31
0.0
 11
-11.0615913062
 21
-19.7491618647
 31
0.0
 11
-10.9467891843
 21
-19.4793667772
 31
0.0
 11
-10.8314960019
 21
-18.840603732
 31
0.0
 11
-10.8745720715
 21
-18.1104395143
 31
0.0
 11
-11.0727861918
 21
-17.3435030703
 31
0.0
 11
-11.4113595891
 21
-16.5971124495
 31
0.0
 11
-11.8648859751
 21
-15.9271876053
 31
0.0
 11
-12.3995621315
 21
-15.3837669059
 31
0.0
  0
SPLINE
  5
3A3
100
AcDbEntity
  8
0
100
AcDbSpline
 62
7
  6
CONTINUOUS
 70
0
 71
3
 72
17
 73
13
 74
11
 42
0.0000001
 43
0.0000001
 44
0.0000000001
 12
2.9457197464
 22
1.4720867993
 32
0.0
 13
-2.5361250301
 23
2.1005652098
 33
0.0
 40
0.0
 40
0.0
 40
0.0
 40
0.0
 40
0.0447869646
 40
0.0909233062
 40
0.1395570434
 40
0.1914952527
 40
0.3064742987
 40
0.4360468798
 40
0.576387003
 40
0.7215877592
 40
0.864944184
 40
1.0
 40
1.0
 40
1.0
 40
1.0
 10
-11.9010721052
 20
-19.0515704277
 30
0.0
 10
-11.8570954898
 20
-19.0295936612
 30
0.0
 10
-11.7725810825
 20
-18.9746743565
 30
0.0
 10
-11.6647414932
 20
-18.8643514019
 30
0.0
 10
-11.5767888484
 20
-18.7282857143
 30
0.0
 10
-11.4849898778
 20
-18.5091003291
 30
0.0
 10
-11.4320766456
 20
-18.1834698998
 30
0.0
 10
-11.4616256749
 20
-17.7592959013
 30
0.0
 10
-11.5784113256
 20
-17.3163338483
 30
0.0
 10
-11.7741630321
 20
-16.8857613918
 30
0.0
 10
-12.0347507167
 20
-16.4981769862
 30
0.0
 10
-12.248990154
 20
-16.2770113416
 30
0.0
 10
-12.3631629659
 20
-16.1824468254
 30
0.0
 11
-11.9010721052
 21
-19.0515704277
 31
0.0
 11
-11.7772942128
 21
-18.9713749039
 31
0.0
 11
-11.6705618839
 21
-18.8632500487
 31
0.0
 11
-11.5828532314
 21
-18.7292478884
 31
0.0
 11
-11.5158362568
 21
-18.5718881811
 31
0.0
 11
-11.4484789579
 21
-18.1992936815
 31
0.0
 11
-11.4735231473
 21
-17.7733378177
 31
0.0
 11
-11.5891196019
 21
-17.3258785106
 31
0.0
 11
-11.7866036362
 21
-16.8904094066
 31
0.0
 11
-12.051250208
 21
-16.4994820594
 31
0.0
 11
-12.3631629659
 21
-16.1824468254
 31
0.0
  0
SPLINE
  5
3A4
100
AcDbEntity
  8
0
100
AcDbSpline
 62
7
  6
CONTINUOUS
 70
0
 71
3
 72
13
 73
9
 74
7
 42
0.0000001
 43
0.0000001
 44
0.0000000001
 12
-2.9569641319
 22
-1.4800971831
 32
0.0
 13
-2.5467549492
 23
2.1091144534
 33
0.0
 40
0.0
 40
0.0
 40
0.0
 40
0.0
 40
0.1203562893
 40
0.2409608729
 40
0.3621837485
 40
0.4846263712
 40
0.7356493768
 40
1.0
 40
1.0
 40
1.0
 40
1.0
 10
-10.3850543179
 20
-20.9768247127
 30
0.0
 10
-10.5036840614
 20
-21.0362043809
 30
0.0
 10
-10.7527201908
 20
-21.1334287484
 30
0.0
 10
-11.1465292934
 20
-21.2100241322
 30
0.0
 10
-11.5498728324
 20
-21.2179914468
 30
0.0
 10
-12.0917644653
 20
-21.1416257495
 30
0.0
 10
-12.7579827691
 20
-20.8904732321
 30
0.0
 10
-13.2313808959
 20
-20.5680674449
 30
0.0
 10
-13.4557929819
 20
-20.3822188715
 30
0.0
 11
-10.3850543179
 21
-20.9768247127
 31
0.0
 11
-10.7556981724
 21
-21.1217860262
 31
0.0
 11
-11.1470567598
 21
-21.1984886838
 31
0.0
 11
-11.5478078902
 21
-21.2073358841
 31
0.0
 11
-11.9488720649
 21
-21.1518646035
 31
0.0
 11
-12.7286590105
 21
-20.8673791302
 31
0.0
 11
-13.4557929819
 21
-20.3822188715
 31
0.0
  0
SPLINE
  5
3A5
100
AcDbEntity
  8
0
100
AcDbSpline
 62
7
  6
CONTINUOUS
 70
0
 71
3
 72
18
 73
14
 74
12
 42
0.0000001
 43
0.0000001
 44
0.0000000001
 12
-6.0928586196
 22
5.0459909852
 32
0.0
 13
7.0743254484
 23
3.5410267765
 33
0.0
 40
0.0
 40
0.0
 40
0.0
 40
0.0
 40
0.1295227615
 40
0.2642277304
 40
0.3998795536
 40
0.5318484213
 40
0.656928102
 40
0.7167582318
 40
0.7749950489
 40
0.8320335429
 40
0.8883215425
 40
0.9442311388
 40
1.0
 40
1.0
 40
1.0
 40
1.0
 10
-13.4558424624
 20
-20.3821778933
 30
0.0
 10
-13.718897087
 20
-20.1643209977
 30
0.0
 10
-14.2071910503
 20
-19.6595010861
 30
0.0
 10
-14.7914911558
 20
-18.775655267
 30
0.0
 10
-15.218027944
 20
-17.7982009601
 30
0.0
 10
-15.4592475009
 20
-16.7853479492
 30
0.0
 10
-15.487445957
 20
-15.9424924037
 30
0.0
 10
-15.3897976615
 20
-15.307108005
 30
0.0
 10
-15.2571277828
 20
-14.86307911
 30
0.0
 10
-15.061441441
 20
-14.4529540216
 30
0.0
 10
-14.8015823298
 20
-14.0871045103
 30
0.0
 10
-14.4801408396
 20
-13.7784921364
 30
0.0
 10
-14.2294416187
 20
-13.6194883783
 30
0.0
 10
-14.097932594
 20
-13.5536620346
 30
0.0
 11
-13.4558424624
 21
-20.3821778933
 31
0.0
 11
-14.1730550106
 21
-19.6503716191
 31
0.0
 11
-14.7631930386
 21
-18.7630340988
 31
0.0
 11
-15.1912714168
 21
-17.7789605782
 31
0.0
 11
-15.4278906578
 21
-16.7621138816
 31
0.0
 11
-15.4517442939
 21
-15.7728879387
 31
0.0
 11
-15.3783626466
 21
-15.3052908831
 31
0.0
 11
-15.244953051
 21
-14.8643142141
 31
0.0
 11
-15.0492492864
 21
-14.4577268578
 31
0.0
 11
-14.7903201677
 21
-14.0954478951
 31
0.0
 11
-14.4706038369
 21
-13.7898097102
 31
0.0
 11
-14.097932594
 21
-13.5536620346
 31
0.0
  0
SPLINE
  5
3A6
100
AcDbEntity
  8
0
100
AcDbSpline
 62
7
  6
CONTINUOUS
 70
0
 71
3
 72
17
 73
13
 74
11
 42
0.0000001
 43
0.0000001
 44
0.0000000001
 12
-0.0000426197
 22
5.8025296066
 32
0.0
 13
-5.1907242898
 23
-2.5934014699
 33
0.0
 40
0.0
 40
0.0
 40
0.0
 40
0.0
 40
0.1325733557
 40
0.27475839
 40
0.4200100145
 40
0.5612028387
 40
0.6919508918
 40
0.8079353901
 40
0.8602030864
 40
0.9090245611
 40
0.9552259895
 40
1.0
 40
1.0
 40
1.0
 40
1.0
 10
-10.8272798936
 20
-6.3818962023
 30
0.0
 10
-10.827281777
 20
-6.1254759285
 30
0.0
 10
-10.8906316339
 20
-5.5932379872
 30
0.0
 10
-11.1359277559
 20
-4.8147628499
 30
0.0
 10
-11.51730911
 20
-4.0740943308
 30
0.0
 10
-12.0067290573
 20
-3.4269822625
 30
0.0
 10
-12.5677288848
 20
-2.9214482096
 30
0.0
 10
-13.0818737173
 20
-2.6395169702
 30
0.0
 10
-13.4890554295
 20
-2.5297442991
 30
0.0
 10
-13.7747325901
 20
-2.5057686533
 30
0.0
 10
-14.045128746
 20
-2.5386685021
 30
0.0
 10
-14.2123511397
 20
-2.5990706739
 30
0.0
 10
-14.2898209877
 20
-2.6377763355
 30
0.0
 11
-10.8272798936
 21
-6.3818962023
 31
0.0
 11
-10.911025497
 21
-5.6172074518
 31
0.0
 11
-11.1556410646
 21
-4.8292718813
 31
0.0
 11
-11.5417912144
 21
-4.0801089063
 31
0.0
 11
-12.0389971102
 21
-3.4289570713
 31
0.0
 11
-12.6080214684
 21
-2.9271696537
 31
0.0
 11
-13.2039289138
 21
-2.6143949614
 31
0.0
 11
-13.4972431738
 21
-2.5372687778
 31
0.0
 11
-13.7796803249
 21
-2.5153284876
 31
0.0
 11
-14.0456348083
 21
-2.5490607218
 31
0.0
 11
-14.2898209877
 21
-2.6377763355
 31
0.0
  0
SPLINE
  5
3A7
100
AcDbEntity
  8
0
100
AcDbSpline
 62
7
  6
CONTINUOUS
 70
0
 71
3
 72
17
 73
13
 74
11
 42
0.0000001
 43
0.0000001
 44
0.0000000001
 12
-0.0001860249
 22
3.3852197012
 32
0.0
 13
-3.0276618935
 23
-1.5142575472
 33
0.0
 40
0.0
 40
0.0
 40
0.0
 40
0.0
 40
0.1325734287
 40
0.2747839417
 40
0.4200386795
 40
0.5612339955
 40
0.6919756355
 40
0.8079489258
 40
0.8602086534
 40
0.9090277013
 40
0.9552233378
 40
1.0
 40
1.0
 40
1.0
 40
1.0
 10
-11.4459983271
 20
-5.8073719426
 30
0.0
 10
-11.4460065478
 20
-5.657775215
 30
0.0
 10
-11.482980197
 20
-5.3472398678
 30
0.0
 10
-11.6260901795
 20
-4.8930387628
 30
0.0
 10
-11.8486537364
 20
-4.4609226227
 30
0.0
 10
-12.1342132383
 20
-4.0834146625
 30
0.0
 10
-12.4615525976
 20
-3.7885681506
 30
0.0
 10
-12.7615213198
 20
-3.624153057
 30
0.0
 10
-12.9990793613
 20
-3.5602431235
 30
0.0
 10
-13.1657313166
 20
-3.5462771296
 30
0.0
 10
-13.3234606261
 20
-3.5656044752
 30
0.0
 10
-13.4210005692
 20
-3.6008729715
 30
0.0
 10
-13.4661901005
 20
-3.6234741044
 30
0.0
 11
-11.4459983271
 21
-5.8073719426
 31
0.0
 11
-11.4948693146
 21
-5.3612505968
 31
0.0
 11
-11.6376108913
 21
-4.9014853097
 31
0.0
 11
-11.8629348897
 21
-4.4644305442
 31
0.0
 11
-12.1530524562
 21
-4.0845700843
 31
0.0
 11
-12.4850637335
 21
-3.7919035663
 31
0.0
 11
-12.8327339367
 21
-3.6095404205
 31
0.0
 11
-13.0038475017
 21
-3.564623504
 31
0.0
 11
-13.1686182586
 21
-3.5518750182
 31
0.0
 11
-13.3237450816
 21
-3.5716517048
 31
0.0
 11
-13.4661901005
 21
-3.6234741044
 31
0.0
  0
SPLINE
  5
3A8
100
AcDbEntity
  8
0
100
AcDbSpline
 62
7
  6
CONTINUOUS
 70
0
 71
3
 72
13
 73
9
 74
7
 42
0.0000001
 43
0.0000001
 44
0.0000000001
 12
-1.5790393062
 22
1.3076933874
 32
0.0
 13
-1.8337035371
 23
-0.9170378749
 33
0.0
 40
0.0
 40
0.0
 40
0.0
 40
0.0
 40
0.2919664315
 40
0.426518603
 40
0.5531852706
 40
0.785054566
 40
0.8937312216
 40
1.0
 40
1.0
 40
1.0
 40
1.0
 10
-12.3995621315
 20
9.2113545616
 30
0.0
 10
-12.5532376219
 20
9.3386220855
 30
0.0
 10
-12.7950651897
 20
9.5061131215
 30
0.0
 10
-13.1390172332
 20
9.6651656514
 30
0.0
 10
-13.4607174505
 20
9.7671714483
 30
0.0
 10
-13.7851347322
 20
9.7987631237
 30
0.0
 10
-14.0872573768
 20
9.7449714775
 30
0.0
 10
-14.2254442505
 20
9.6920001435
 30
0.0
 10
-14.2903993954
 20
9.6595159786
 30
0.0
 11
-12.3995621315
 21
9.2113545616
 31
0.0
 11
-12.8952655922
 21
9.5469088644
 31
0.0
 11
-13.1460446313
 21
9.6618432983
 31
0.0
 11
-13.3939584048
 21
9.7391764406
 31
0.0
 11
-13.8678027575
 21
9.7774117351
 31
0.0
 11
-14.0870570363
 21
9.7377554277
 31
0.0
 11
-14.2903993954
 21
9.6595159786
 31
0.0
  0
SPLINE
  5
3A9
100
AcDbEntity
  8
0
100
AcDbSpline
 62
7
  6
CONTINUOUS
 70
0
 71
3
 72
12
 73
8
 74
6
 42
0.0000001
 43
0.0000001
 44
0.0000000001
 12
-0.9203423229
 22
0.7621180391
 32
0.0
 13
-1.0688886422
 23
-0.5341638022
 33
0.0
 40
0.0
 40
0.0
 40
0.0
 40
0.0
 40
0.2920446876
 40
0.5529705328
 40
0.7849273305
 40
0.8936770335
 40
1.0
 40
1.0
 40
1.0
 40
1.0
 10
-12.3631629659
 20
8.4126746421
 30
0.0
 10
-12.4527566613
 20
8.4868654836
 30
0.0
 10
-12.6353007911
 20
8.6131417756
 30
0.0
 10
-12.9279028524
 20
8.7315443711
 30
0.0
 10
-13.1710867104
 20
8.7552403604
 30
0.0
 10
-13.3473215906
 20
8.7240659372
 30
0.0
 10
-13.4279158127
 20
8.693194703
 30
0.0
 10
-13.4657982831
 20
8.6742634096
 30
0.0
 11
-12.3631629659
 21
8.4126746421
 31
0.0
 11
-12.6521535543
 21
8.6082922302
 31
0.0
 11
-12.9430433761
 21
8.7205182712
 31
0.0
 11
-13.2193132
 21
8.742860443
 31
0.0
 11
-13.3472057314
 21
8.719838464
 31
0.0
 11
-13.4657982831
 21
8.6742634096
 31
0.0
  0
SPLINE
  5
3AA
100
AcDbEntity
  8
0
100
AcDbSpline
 62
7
  6
CONTINUOUS
 70
0
 71
3
 72
11
 73
7
 74
5
 42
0.0000001
 43
0.0000001
 44
0.0000000001
 12
0.0000117163
 22
1.5951253757
 32
0.0
 13
1.1968323963
 23
1.0545222517
 33
0.0
 40
0.0
 40
0.0
 40
0.0
 40
0.0
 40
0.2836503959
 40
0.5437471989
 40
0.7809043626
 40
1.0
 40
1.0
 40
1.0
 40
1.0
 10
-14.8047555377
 20
-4.1279933373
 30
0.0
 10
-14.80475443
 20
-3.9771740225
 30
0.0
 10
-14.7842845917
 20
-3.68738929
 30
0.0
 10
-14.6838943143
 20
-3.2819788652
 30
0.0
 10
-14.516731833
 20
-2.936276349
 30
0.0
 10
-14.3579366695
 20
-2.7482678106
 30
0.0
 10
-14.2705297506
 20
-2.6712540689
 30
0.0
 11
-14.8047555377
 21
-4.1279933373
 31
0.0
 11
-14.7699459824
 21
-3.6768764054
 31
0.0
 11
-14.6666878964
 21
-3.2750443518
 31
0.0
 11
-14.4983791128
 21
-2.9362530141
 31
0.0
 11
-14.2705297506
 21
-2.6712540689
 31
0.0
  0
SPLINE
  5
3AB
100
AcDbEntity
  8
0
100
AcDbSpline
 62
7
  6
CONTINUOUS
 70
0
 71
3
 72
17
 73
13
 74
11
 42
0.0000001
 43
0.0000001
 44
0.0000000001
 12
0.0001860249
 22
-3.3852197012
 32
0.0
 13
3.0276618935
 23
1.5142575472
 33
0.0
 40
0.0
 40
0.0
 40
0.0
 40
0.0
 40
0.1325734287
 40
0.2747839417
 40
0.4200386795
 40
0.5612339955
 40
0.6919756355
 40
0.8079489258
 40
0.8602086534
 40
0.9090277013
 40
0.9552233378
 40
1.0
 40
1.0
 40
1.0
 40
1.0
 10
-13.9208720613
 20
-4.5699350755
 30
0.0
 10
-13.9208638406
 20
-4.719531803
 30
0.0
 10
-13.8838901914
 20
-5.0300671503
 30
0.0
 10
-13.7407802088
 20
-5.4842682553
 30
0.0
 10
-13.5182166519
 20
-5.9163843954
 30
0.0
 10
-13.23265715
 20
-6.2938923556
 30
0.0
 10
-12.9053177908
 20
-6.5887388675
 30
0.0
 10
-12.6053490685
 20
-6.7531539611
 30
0.0
 10
-12.3677910271
 20
-6.8170638946
 30
0.0
 10
-12.2011390717
 20
-6.8310298885
 30
0.0
 10
-12.0434097623
 20
-6.8117025429
 30
0.0
 10
-11.9458698192
 20
-6.7764340466
 30
0.0
 10
-11.9006802879
 20
-6.7538329137
 30
0.0
 11
-13.9208720613
 21
-4.5699350755
 31
0.0
 11
-13.8720010738
 21
-5.0160564213
 31
0.0
 11
-13.729259497
 21
-5.4758217083
 31
0.0
 11
-13.5039354986
 21
-5.9128764738
 31
0.0
 11
-13.2138179321
 21
-6.2927369338
 31
0.0
 11
-12.8818066549
 21
-6.5854034518
 31
0.0
 11
-12.5341364517
 21
-6.7677665975
 31
0.0
 11
-12.3630228867
 21
-6.8126835141
 31
0.0
 11
-12.1982521297
 21
-6.8254319998
 31
0.0
 11
-12.0431253068
 21
-6.8056553133
 31
0.0
 11
-11.9006802879
 21
-6.7538329137
 31
0.0
  0
SPLINE
  5
3AC
100
AcDbEntity
  8
0
100
AcDbSpline
 62
253
  6
CONTINUOUS
 70
0
 71
3
 72
22
 73
18
 74
16
 42
0.0000001
 43
0.0000001
 44
0.0000000001
 12
5.9559119523
 22
-4.9602033941
 32
0.0
 13
-6.4253218515
 23
4.3349445209
 33
0.0
 40
0.0
 40
0.0
 40
0.0
 40
0.0
 40
0.1438259811
 40
0.2198907184
 40
0.296476157
 40
0.3718872902
 40
0.4445233177
 40
0.5130089539
 40
0.5763523562
 40
0.6341257481
 40
0.6866747074
 40
0.7353022027
 40
0.7822426043
 40
0.8302050873
 40
0.8816063143
 40
0.9379902744
 40
1.0
 40
1.0
 40
1.0
 40
1.0
 10
-12.3721102262
 20
-15.272015413
 30
0.0
 10
-12.0865719329
 20
-15.5098174528
 30
0.0
 10
-11.7016875341
 20
-15.9389477406
 30
0.0
 10
-11.2971950118
 20
-16.5903886144
 30
0.0
 10
-11.0446268443
 20
-17.1243668986
 30
0.0
 10
-10.858531272
 20
-17.6754778591
 30
0.0
 10
-10.7450197534
 20
-18.2248342239
 30
0.0
 10
-10.7081665615
 20
-18.7536081468
 30
0.0
 10
-10.7495636551
 20
-19.2439952349
 30
0.0
 10
-10.868760716
 20
-19.6796861041
 30
0.0
 10
-11.0638208855
 20
-20.0457451089
 30
0.0
 10
-11.3309468408
 20
-20.3272806097
 30
0.0
 10
-11.6610990216
 20
-20.5092682222
 30
0.0
 10
-12.0378612493
 20
-20.5819060099
 30
0.0
 10
-12.4430271728
 20
-20.5450801882
 30
0.0
 10
-12.8619385074
 20
-20.4044847957
 30
0.0
 10
-13.129299218
 20
-20.2521398346
 30
0.0
 10
-13.262110033
 20
-20.1625369279
 30
0.0
 11
-12.3721102262
 21
-15.272015413
 31
0.0
 11
-11.6193953935
 21
-16.0943035159
 31
0.0
 11
-11.3076417286
 21
-16.5947063069
 31
0.0
 11
-11.0540930672
 21
-17.1314386124
 31
0.0
 11
-10.8679180937
 21
-17.6855002434
 31
0.0
 11
-10.7557041475
 21
-18.2371987283
 31
0.0
 11
-10.7214205419
 21
-18.7669160175
 31
0.0
 11
-10.7662845618
 21
-19.2558305124
 31
0.0
 11
-10.8887089231
 21
-19.6865665337
 31
0.0
 11
-11.0843621099
 21
-20.0437985004
 31
0.0
 11
-11.3462804016
 21
-20.3148293334
 31
0.0
 11
-11.6651321967
 21
-20.4900611288
 31
0.0
 11
-12.0296129668
 21
-20.5632304297
 31
0.0
 11
-12.4267738026
 21
-20.5317570897
 31
0.0
 11
-12.8424486777
 21
-20.396824973
 31
0.0
 11
-13.262110033
 21
-20.1625369279
 31
0.0
  0
SPLINE
  5
3AD
100
AcDbEntity
  8
0
100
AcDbSpline
 62
253
  6
CONTINUOUS
 70
0
 71
3
 72
9
 73
5
 74
3
 42
0.0000001
 43
0.0000001
 44
0.0000000001
 12
-0.2724280832
 22
0.1837978943
 32
0.0
 13
-0.253522067
 23
0.2091059253
 33
0.0
 40
0.0
 40
0.0
 40
0.0
 40
0.0
 40
0.2457338141
 40
1.0
 40
1.0
 40
1.0
 40
1.0
 10
-13.262110033
 20
-20.1625369279
 30
0.0
 10
-13.2844249636
 20
-20.1474818087
 30
0.0
 10
-13.3744477181
 20
-20.0850548025
 30
0.0
 10
-13.4613492073
 20
-20.0181519585
 30
0.0
 10
-13.5250902481
 20
-19.9655781155
 30
0.0
 11
-13.262110033
 21
-20.1625369279
 31
0.0
 11
-13.3284797553
 21
-20.1165306821
 31
0.0
 11
-13.5250902481
 21
-19.9655781155
 31
0.0
  0
SPLINE
  5
3AE
100
AcDbEntity
  8
0
100
AcDbSpline
 62
253
  6
CONTINUOUS
 70
0
 71
3
 72
22
 73
18
 74
16
 42
0.0000001
 43
0.0000001
 44
0.0000000001
 12
-6.2072768331
 22
5.169545128
 32
0.0
 13
6.2317729951
 23
-5.1399890906
 33
0.0
 40
0.0
 40
0.0
 40
0.0
 40
0.0
 40
0.1437314705
 40
0.2197493492
 40
0.2960952821
 40
0.3709486263
 40
0.4426160816
 40
0.5096884396
 40
0.5712343759
 40
0.6270211913
 40
0.6777581967
 40
0.7252548145
 40
0.7722197252
 40
0.8215311363
 40
0.8753618387
 40
0.9348495249
 40
1.0
 40
1.0
 40
1.0
 40
1.0
 10
-13.5250902481
 20
-19.9655781155
 30
0.0
 10
-13.8224839238
 20
-19.7179026745
 30
0.0
 10
-14.2211268651
 20
-19.2680969355
 30
0.0
 10
-14.6342819034
 20
-18.5851545705
 30
0.0
 10
-14.8876931734
 20
-18.0264615281
 30
0.0
 10
-15.0680621559
 20
-17.4525327514
 30
0.0
 10
-15.1690073666
 20
-16.8845347533
 30
0.0
 10
-15.1864997392
 20
-16.3433862223
 30
0.0
 10
-15.1193782752
 20
-15.8486175628
 30
0.0
 10
-14.9685993475
 20
-15.4179390576
 30
0.0
 10
-14.7366427247
 20
-15.0678887528
 30
0.0
 10
-14.4291052674
 20
-14.8159118288
 30
0.0
 10
-14.0600050808
 20
-14.6779526553
 30
0.0
 10
-13.6504517101
 20
-14.6601717463
 30
0.0
 10
-13.219239788
 20
-14.7578870821
 30
0.0
 10
-12.7819753547
 20
-14.9644333806
 30
0.0
 10
-12.50744455
 20
-15.1603911692
 30
0.0
 10
-12.3721102262
 20
-15.272015413
 30
0.0
 11
-13.5250902481
 21
-19.9655781155
 31
0.0
 11
-14.3045992556
 21
-19.1050894119
 31
0.0
 11
-14.623202192
 21
-18.5801328288
 31
0.0
 11
-14.8775627837
 21
-18.0183058208
 31
0.0
 11
-15.0577646644
 21
-17.4411146414
 31
0.0
 11
-15.1569161999
 21
-16.8707370276
 31
0.0
 11
-15.1711962951
 21
-16.3291130823
 31
0.0
 11
-15.1000706963
 21
-15.8370574433
 31
0.0
 11
-14.9462798795
 21
-15.4134640681
 31
0.0
 11
-14.7157240621
 21
-15.0746057546
 31
0.0
 11
-14.4172513986
 21
-14.833517536
 31
0.0
 11
-14.0623368015
 21
-14.6994741614
 31
0.0
 11
-13.664595491
 21
-14.6776648564
 31
0.0
 11
-13.239389537
 21
-14.7687182225
 31
0.0
 11
-12.8028758472
 21
-14.9696594329
 31
0.0
 11
-12.3721102262
 21
-15.272015413
 31
0.0
  0
SPLINE
  5
3AF
100
AcDbEntity
  8
0
100
AcDbSpline
 62
7
  6
CONTINUOUS
 70
0
 71
3
 72
9
 73
5
 74
3
 42
0.0000001
 43
0.0000001
 44
0.0000000001
 12
0.2835136388
 22
-0.2347939721
 32
0.0
 13
0.3090638061
 23
-0.1999693889
 33
0.0
 40
0.0
 40
0.0
 40
0.0
 40
0.0
 40
0.255194014
 40
1.0
 40
1.0
 40
1.0
 40
1.0
 10
-13.4976383428
 20
-19.8538266226
 30
0.0
 10
-13.4735213483
 20
-19.8737992947
 30
0.0
 10
-13.3779372463
 20
-19.9507458551
 30
0.0
 10
-13.2780088342
 20
-20.0223377656
 30
0.0
 10
-13.2012779766
 20
-20.0719838982
 30
0.0
 11
-13.4976383428
 21
-19.8538266226
 31
0.0
 11
-13.4244534482
 21
-19.9127231818
 31
0.0
 11
-13.2012779766
 21
-20.0719838982
 31
0.0
  0
SPLINE
  5
3B0
100
AcDbEntity
  8
0
100
AcDbSpline
 62
7
  6
CONTINUOUS
 70
0
 71
3
 72
11
 73
7
 74
5
 42
0.0000001
 43
0.0000001
 44
0.0000000001
 12
1.2787891252
 22
-0.6758827754
 32
0.0
 13
1.2936612485
 23
0.6469619206
 33
0.0
 40
0.0
 40
0.0
 40
0.0
 40
0.0
 40
0.2805726255
 40
0.5370315352
 40
0.7740578866
 40
1.0
 40
1.0
 40
1.0
 40
1.0
 10
-12.9976362058
 20
-20.1916582858
 30
0.0
 10
-12.878038465
 20
-20.2548696874
 30
0.0
 10
-12.6385991074
 20
-20.3577604638
 30
0.0
 10
-12.270244025
 20
-20.4340663412
 30
0.0
 10
-11.9198282025
 20
-20.4213178267
 30
0.0
 10
-11.704231931
 20
-20.3507133541
 30
0.0
 10
-11.6068010789
 20
-20.3019880396
 30
0.0
 11
-12.9976362058
 21
-20.1916582858
 31
0.0
 11
-12.6234476031
 21
-20.3487461517
 31
0.0
 11
-12.2595037387
 21
-20.4204817285
 31
0.0
 11
-11.9170254627
 21
-20.404765356
 31
0.0
 11
-11.6068010789
 21
-20.3019880396
 31
0.0
  0
SPLINE
  5
3B1
100
AcDbEntity
  8
0
100
AcDbSpline
 62
253
  6
CONTINUOUS
 70
0
 71
3
 72
13
 73
9
 74
7
 42
0.0000001
 43
0.0000001
 44
0.0000000001
 12
0.3455996988
 22
1.4067734242
 32
0.0
 13
1.2956699021
 23
0.647834951
 33
0.0
 40
0.0
 40
0.0
 40
0.0
 40
0.0
 40
0.110321856
 40
0.232183657
 40
0.4963675639
 40
0.7625388417
 40
0.8867316226
 40
1.0
 40
1.0
 40
1.0
 40
1.0
 10
-12.3720893241
 20
-15.2720251079
 30
0.0
 10
-12.3593802573
 20
-15.2202924895
 30
0.0
 10
-12.3238311954
 20
-15.1135187846
 30
0.0
 10
-12.221411196
 20
-14.8963837725
 30
0.0
 10
-12.0435443183
 20
-14.6341076061
 30
0.0
 10
-11.822975268
 20
-14.4051123356
 30
0.0
 10
-11.6296022113
 20
-14.2570225477
 30
0.0
 10
-11.5308847294
 20
-14.1979329173
 30
0.0
 10
-11.4819652535
 20
-14.1734731794
 30
0.0
 11
-12.3720893241
 21
-15.2720251079
 31
0.0
 11
-12.3228076873
 21
-15.1200008404
 31
0.0
 11
-12.2482246143
 21
-14.9600008923
 31
0.0
 11
-12.0356288224
 21
-14.6417863733
 31
0.0
 11
-11.766605521
 21
-14.3655695975
 31
0.0
 11
-11.623344553
 21
-14.2567464567
 31
0.0
 11
-11.4819652535
 21
-14.1734731794
 31
0.0
  0
SPLINE
  5
3B2
100
AcDbEntity
  8
0
100
AcDbSpline
 62
253
  6
CONTINUOUS
 70
0
 71
3
 72
18
 73
14
 74
12
 42
0.0000001
 43
0.0000001
 44
0.0000000001
 12
6.0147211482
 22
-4.9812789999
 32
0.0
 13
-6.9840572002
 23
-3.4947039919
 33
0.0
 40
0.0
 40
0.0
 40
0.0
 40
0.0
 40
0.1350196982
 40
0.278323791
 40
0.4234932925
 40
0.5638068908
 40
0.6303191331
 40
0.6935480556
 40
0.8085223485
 40
0.8604597358
 40
0.9090890713
 40
0.9552211184
 40
1.0
 40
1.0
 40
1.0
 40
1.0
 10
-11.4819652536
 20
-14.1734731793
 30
0.0
 10
-11.211263309
 20
-14.3976634417
 30
0.0
 10
-10.7033409541
 20
-14.9219786375
 30
0.0
 10
-10.0854631711
 20
-15.8408927154
 30
0.0
 10
-9.6213286916
 20
-16.8615572086
 30
0.0
 10
-9.3860751768
 20
-17.752687975
 30
0.0
 10
-9.3067440764
 20
-18.452494575
 30
0.0
 10
-9.3017991823
 20
-19.0900237861
 30
0.0
 10
-9.3991818834
 20
-19.6900430631
 30
0.0
 10
-9.6166465004
 20
-20.2098214221
 30
0.0
 10
-9.8250325781
 20
-20.5326241662
 30
0.0
 10
-10.0806367626
 20
-20.7943154123
 30
0.0
 10
-10.2809033526
 20
-20.9247483188
 30
0.0
 10
-10.3851494427
 20
-20.9769112975
 30
0.0
 11
-11.4819652536
 21
-14.1734731793
 31
0.0
 11
-10.7424280331
 21
-14.9251061007
 31
0.0
 11
-10.1149921278
 21
-15.8518309214
 31
0.0
 11
-9.6466405621
 21
-16.8842850535
 31
0.0
 11
-9.3724074512
 21
-17.9452100255
 31
0.0
 11
-9.3151070915
 21
-18.4614745501
 31
0.0
 11
-9.3127911373
 21
-18.9552623547
 31
0.0
 11
-9.4722482707
 21
-19.8388944879
 31
0.0
 11
-9.6310238139
 21
-20.2121375798
 31
0.0
 11
-9.8388430628
 21
-20.5300071852
 31
0.0
 11
-10.0918033157
 21
-20.7865378156
 31
0.0
 11
-10.3851494427
 21
-20.9769112975
 31
0.0
  0
SPLINE
  5
3B3
100
AcDbEntity
  8
0
100
AcDbSpline
 62
7
  6
CONTINUOUS
 70
0
 71
3
 72
11
 73
7
 74
5
 42
0.0000001
 43
0.0000001
 44
0.0000000001
 12
-0.9854623835
 22
-0.4928700443
 32
0.0
 13
-0.0000605519
 23
-1.1018425415
 33
0.0
 40
0.0
 40
0.0
 40
0.0
 40
0.0
 40
0.2171635391
 40
0.45037587
 40
0.7103699282
 40
1.0
 40
1.0
 40
1.0
 40
1.0
 10
-13.4661901005
 20
-3.6234741044
 30
0.0
 10
-13.5375256001
 20
-3.6591519054
 30
0.0
 10
-13.6724312875
 20
-3.7619298511
 30
0.0
 10
-13.8171487336
 20
-3.9837800332
 30
0.0
 10
-13.9036348135
 20
-4.2609414617
 30
0.0
 10
-13.9208662154
 20
-4.4635594974
 30
0.0
 10
-13.9208720613
 20
-4.5699350755
 30
0.0
 11
-13.4661901005
 21
-3.6234741044
 31
0.0
 11
-13.6575905803
 21
-3.767073503
 31
0.0
 11
-13.801410375
 21
-3.9800194765
 31
0.0
 11
-13.8906291074
 21
-4.2522446025
 31
0.0
 11
-13.9208720613
 21
-4.5699350755
 31
0.0
  0
SPLINE
  5
3B4
100
AcDbEntity
  8
0
100
AcDbSpline
 62
7
  6
CONTINUOUS
 70
0
 71
3
 72
17
 73
13
 74
11
 42
0.0000001
 43
0.0000001
 44
0.0000000001
 12
-5.3933208734
 22
-1.1415186262
 32
0.0
 13
-0.0000404916
 23
5.5128009955
 33
0.0
 40
0.0
 40
0.0
 40
0.0
 40
0.0
 40
0.0454053522
 40
0.0932460333
 40
0.1442143518
 40
0.198698147
 40
0.3181487999
 40
0.4499878615
 40
0.5898514048
 40
0.732074312
 40
0.8706086042
 40
1.0
 40
1.0
 40
1.0
 40
1.0
 10
-11.617508735
 20
-7.9678479773
 30
0.0
 10
-11.6991372796
 20
-7.9851249957
 30
0.0
 10
-11.8708977292
 20
-8.0030242896
 30
0.0
 10
-12.1362346845
 20
-7.9800838911
 30
0.0
 10
-12.4100996369
 20
-7.9092678087
 30
0.0
 10
-12.7918837784
 20
-7.7478835857
 30
0.0
 10
-13.2615884067
 20
-7.4296247977
 30
0.0
 10
-13.7673503841
 20
-6.9137062597
 30
0.0
 10
-14.2018387599
 20
-6.2851889711
 30
0.0
 10
-14.5366640478
 20
-5.5848977227
 30
0.0
 10
-14.7502316241
 20
-4.858801404
 30
0.0
 10
-14.8047537913
 20
-4.3657630091
 30
0.0
 10
-14.8047555377
 20
-4.1279933373
 30
0.0
 11
-11.617508735
 21
-7.9678479773
 31
0.0
 11
-11.8663646275
 21
-7.9947956426
 31
0.0
 11
-12.1292448975
 21
-7.9735654063
 31
0.0
 11
-12.4016266861
 21
-7.9045950626
 31
0.0
 11
-12.6788440407
 21
-7.7889851193
 31
0.0
 11
-13.2287539078
 21
-7.4267262334
 31
0.0
 11
-13.741408604
 21
-6.9115301052
 31
0.0
 11
-14.1817722785
 21
-6.2786143668
 31
0.0
 11
-14.5197647441
 21
-5.5711610894
 31
0.0
 11
-14.7322703405
 21
-4.837609887
 31
0.0
 11
-14.8047555377
 21
-4.1279933373
 31
0.0
  0
SPLINE
  5
3B5
100
AcDbEntity
  8
0
100
AcDbSpline
 62
253
  6
CONTINUOUS
 70
0
 71
3
 72
14
 73
10
 74
8
 42
0.0000001
 43
0.0000001
 44
0.0000000001
 12
-2.1860398722
 22
1.810385523
 32
0.0
 13
-2.5383989414
 23
-1.2699594007
 33
0.0
 40
0.0
 40
0.0
 40
0.0
 40
0.0
 40
0.2917375494
 40
0.4261591458
 40
0.5527547996
 40
0.6720745616
 40
0.7852086151
 40
0.8938070868
 40
1.0
 40
1.0
 40
1.0
 40
1.0
 10
-11.4820162326
 20
-14.1734309601
 30
0.0
 10
-11.6945995377
 20
-13.9973784814
 30
0.0
 10
-12.029200288
 20
-13.7657009044
 30
0.0
 10
-12.5047684637
 20
-13.5456714395
 30
0.0
 10
-12.8489193282
 20
-13.4367685799
 30
0.0
 10
-13.18538459
 20
-13.3813674186
 30
0.0
 10
-13.5096344725
 20
-13.3806944159
 30
0.0
 10
-13.8167669549
 20
-13.4352377227
 30
0.0
 10
-14.0078919546
 20
-13.5085760858
 30
0.0
 10
-14.0977452807
 20
-13.5535296486
 30
0.0
 11
-11.4820162326
 21
-14.1734309601
 31
0.0
 11
-12.16773738
 21
-13.7092523959
 31
0.0
 11
-12.5145819791
 21
-13.5502906719
 31
0.0
 11
-12.8576042277
 21
-13.4432899283
 31
0.0
 11
-13.1920162427
 21
-13.38974256
 31
0.0
 11
-13.5131303136
 21
-13.3904005322
 31
0.0
 11
-13.8164516609
 21
-13.4452527504
 31
0.0
 11
-14.0977452807
 21
-13.5535296486
 31
0.0
  0
SPLINE
  5
3B6
100
AcDbEntity
  8
0
100
AcDbSpline
 62
7
  6
CONTINUOUS
 70
0
 71
3
 72
11
 73
7
 74
5
 42
0.0000001
 43
0.0000001
 44
0.0000000001
 12
-1.1058386854
 22
-0.552501638
 32
0.0
 13
-0.3031221832
 23
-1.1984382338
 33
0.0
 40
0.0
 40
0.0
 40
0.0
 40
0.0
 40
0.2304739128
 40
0.4696917908
 40
0.7246566875
 40
1.0
 40
1.0
 40
1.0
 40
1.0
 10
-14.2898209877
 20
-2.6377763355
 30
0.0
 10
-14.3747766439
 20
-2.6802220736
 30
0.0
 10
-14.5374984594
 20
-2.7894083136
 30
0.0
 10
-14.7390052851
 20
-3.0132899451
 30
0.0
 10
-14.8959960058
 20
-3.2912690444
 30
0.0
 10
-14.9661529322
 20
-3.4995741785
 30
0.0
 10
-14.9939738208
 20
-3.6095681628
 30
0.0
 11
-14.2898209877
 21
-2.6377763355
 31
0.0
 11
-14.526736899
 21
-2.7960254709
 31
0.0
 11
-14.726050215
 21
-3.0144794748
 31
0.0
 11
-14.8830475303
 21
-3.2877771373
 31
0.0
 11
-14.9939738208
 21
-3.6095681628
 31
0.0
  0
SPLINE
  5
3B7
100
AcDbEntity
  8
0
100
AcDbSpline
 62
7
  6
CONTINUOUS
 70
0
 71
3
 72
9
 73
5
 74
3
 42
0.0000001
 43
0.0000001
 44
0.0000000001
 12
-0.0610698356
 22
-0.2414485973
 32
0.0
 13
-0.0353643974
 23
-0.2465285164
 33
0.0
 40
0.0
 40
0.0
 40
0.0
 40
0.0
 40
0.2450849448
 40
1.0
 40
1.0
 40
1.0
 40
1.0
 10
-14.9939738208
 20
-3.6095681628
 30
0.0
 10
-14.9989629199
 20
-3.6292933015
 30
0.0
 10
-15.0181929308
 20
-3.7100587895
 30
0.0
 10
-15.0329872238
 20
-3.7918652591
 30
0.0
 10
-15.0418862625
 20
-3.8539012886
 30
0.0
 11
-14.9939738208
 21
-3.6095681628
 31
0.0
 11
-15.0081224536
 21
-3.6689446401
 31
0.0
 11
-15.0418862625
 21
-3.8539012886
 31
0.0
  0
LINE
  5
3B8
100
AcDbEntity
  8
0
100
AcDbLine
 62
7
  6
CONTINUOUS
 10
-15.0418862625
 20
-3.8539012886
 11
-15.0426539512
 21
-3.8592934921
  0
SPLINE
  5
3B9
100
AcDbEntity
  8
0
100
AcDbSpline
 62
7
  6
CONTINUOUS
 70
0
 71
3
 72
9
 73
5
 74
3
 42
0.0000001
 43
0.0000001
 44
0.0000000001
 12
-0.056296253
 22
-0.3984382993
 32
0.0
 13
-0.0000029556
 23
-0.4023957584
 33
0.0
 40
0.0
 40
0.0
 40
0.0
 40
0.0
 40
0.2436158869
 40
1.0
 40
1.0
 40
1.0
 40
1.0
 10
-15.0426539512
 20
-3.8592934921
 30
0.0
 10
-15.0472255051
 20
-3.891648792
 30
0.0
 10
-15.0634665677
 20
-4.0248118607
 30
0.0
 10
-15.0699198355
 20
-4.1591206058
 30
0.0
 10
-15.0699205807
 20
-4.2605758587
 30
0.0
 11
-15.0426539512
 21
-3.8592934921
 31
0.0
 11
-15.0545577739
 21
-3.9565980646
 31
0.0
 11
-15.0699205807
 21
-4.2605758587
 31
0.0
  0
SPLINE
  5
3BA
100
AcDbEntity
  8
0
100
AcDbSpline
 62
253
  6
CONTINUOUS
 70
0
 71
3
 72
22
 73
18
 74
16
 42
0.0000001
 43
0.0000001
 44
0.0000000001
 12
5.9559119523
 22
-4.9602033941
 32
0.0
 13
-6.4253218515
 23
4.3349445209
 33
0.0
 40
0.0
 40
0.0
 40
0.0
 40
0.0
 40
0.1438259811
 40
0.2198907184
 40
0.296476157
 40
0.3718872902
 40
0.4445233177
 40
0.5130089539
 40
0.5763523562
 40
0.6341257481
 40
0.6866747074
 40
0.7353022027
 40
0.7822426043
 40
0.8302050873
 40
0.8816063143
 40
0.9379902744
 40
1.0
 40
1.0
 40
1.0
 40
1.0
 10
-12.3721102262
 20
9.3231060545
 30
0.0
 10
-12.0865719329
 20
9.0853040147
 30
0.0
 10
-11.7016875341
 20
8.6561737268
 30
0.0
 10
-11.2971950118
 20
8.0047328531
 30
0.0
 10
-11.0446268443
 20
7.4707545689
 30
0.0
 10
-10.858531272
 20
6.9196436083
 30
0.0
 10
-10.7450197534
 20
6.3702872436
 30
0.0
 10
-10.7081665615
 20
5.8415133207
 30
0.0
 10
-10.7495636551
 20
5.3511262325
 30
0.0
 10
-10.868760716
 20
4.9154353634
 30
0.0
 10
-11.0638208855
 20
4.5493763586
 30
0.0
 10
-11.3309468408
 20
4.2678408578
 30
0.0
 10
-11.6610990216
 20
4.0858532453
 30
0.0
 10
-12.0378612493
 20
4.0132154576
 30
0.0
 10
-12.4430271728
 20
4.0500412793
 30
0.0
 10
-12.8619385074
 20
4.1906366718
 30
0.0
 10
-13.129299218
 20
4.3429816328
 30
0.0
 10
-13.262110033
 20
4.4325845396
 30
0.0
 11
-12.3721102262
 21
9.3231060545
 31
0.0
 11
-11.6193953935
 21
8.5008179516
 31
0.0
 11
-11.3076417286
 21
8.0004151605
 31
0.0
 11
-11.0540930672
 21
7.4636828551
 31
0.0
 11
-10.8679180937
 21
6.9096212241
 31
0.0
 11
-10.7557041475
 21
6.3579227391
 31
0.0
 11
-10.7214205419
 21
5.82820545
 31
0.0
 11
-10.7662845618
 21
5.3392909551
 31
0.0
 11
-10.8887089231
 21
4.9085549338
 31
0.0
 11
-11.0843621099
 21
4.5513229671
 31
0.0
 11
-11.3462804016
 21
4.2802921341
 31
0.0
 11
-11.6651321967
 21
4.1050603386
 31
0.0
 11
-12.0296129668
 21
4.0318910378
 31
0.0
 11
-12.4267738026
 21
4.0633643778
 31
0.0
 11
-12.8424486777
 21
4.1982964945
 31
0.0
 11
-13.262110033
 21
4.4325845396
 31
0.0
  0
SPLINE
  5
3BB
100
AcDbEntity
  8
0
100
AcDbSpline
 62
253
  6
CONTINUOUS
 70
0
 71
3
 72
9
 73
5
 74
3
 42
0.0000001
 43
0.0000001
 44
0.0000000001
 12
-0.2724280832
 22
0.1837978943
 32
0.0
 13
-0.253522067
 23
0.2091059253
 33
0.0
 40
0.0
 40
0.0
 40
0.0
 40
0.0
 40
0.2457338141
 40
1.0
 40
1.0
 40
1.0
 40
1.0
 10
-13.262110033
 20
4.4325845396
 30
0.0
 10
-13.2844249637
 20
4.4476396588
 30
0.0
 10
-13.3744477181
 20
4.510066665
 30
0.0
 10
-13.4613492073
 20
4.576969509
 30
0.0
 10
-13.5250902481
 20
4.6295433519
 30
0.0
 11
-13.262110033
 21
4.4325845396
 31
0.0
 11
-13.3284797553
 21
4.4785907854
 31
0.0
 11
-13.5250902481
 21
4.6295433519
 31
0.0
  0
SPLINE
  5
3BC
100
AcDbEntity
  8
0
100
AcDbSpline
 62
253
  6
CONTINUOUS
 70
0
 71
3
 72
22
 73
18
 74
16
 42
0.0000001
 43
0.0000001
 44
0.0000000001
 12
-6.2072768331
 22
5.169545128
 32
0.0
 13
6.2317729951
 23
-5.1399890906
 33
0.0
 40
0.0
 40
0.0
 40
0.0
 40
0.0
 40
0.1437314705
 40
0.2197493492
 40
0.2960952821
 40
0.3709486263
 40
0.4426160816
 40
0.5096884396
 40
0.5712343759
 40
0.6270211913
 40
0.6777581967
 40
0.7252548145
 40
0.7722197252
 40
0.8215311363
 40
0.8753618387
 40
0.9348495249
 40
1.0
 40
1.0
 40
1.0
 40
1.0
 10
-13.5250902481
 20
4.6295433519
 30
0.0
 10
-13.8224839238
 20
4.877218793
 30
0.0
 10
-14.2211268651
 20
5.327024532
 30
0.0
 10
-14.6342819034
 20
6.009966897
 30
0.0
 10
-14.8876931734
 20
6.5686599394
 30
0.0
 10
-15.0680621559
 20
7.142588716
 30
0.0
 10
-15.1690073666
 20
7.7105867142
 30
0.0
 10
-15.1864997392
 20
8.2517352451
 30
0.0
 10
-15.1193782752
 20
8.7465039047
 30
0.0
 10
-14.9685993475
 20
9.1771824098
 30
0.0
 10
-14.7366427247
 20
9.5272327147
 30
0.0
 10
-14.4291052674
 20
9.7792096387
 30
0.0
 10
-14.0600050808
 20
9.9171688122
 30
0.0
 10
-13.6504517101
 20
9.9349497212
 30
0.0
 10
-13.219239788
 20
9.8372343853
 30
0.0
 10
-12.7819753547
 20
9.6306880869
 30
0.0
 10
-12.50744455
 20
9.4347302983
 30
0.0
 10
-12.3721102262
 20
9.3231060545
 30
0.0
 11
-13.5250902481
 21
4.6295433519
 31
0.0
 11
-14.3045992556
 21
5.4900320556
 31
0.0
 11
-14.623202192
 21
6.0149886387
 31
0.0
 11
-14.8775627837
 21
6.5768156466
 31
0.0
 11
-15.0577646644
 21
7.1540068261
 31
0.0
 11
-15.1569161999
 21
7.7243844398
 31
0.0
 11
-15.1711962951
 21
8.2660083851
 31
0.0
 11
-15.1000706963
 21
8.7580640242
 31
0.0
 11
-14.9462798795
 21
9.1816573993
 31
0.0
 11
-14.7157240621
 21
9.5205157128
 31
0.0
 11
-14.4172513986
 21
9.7616039315
 31
0.0
 11
-14.0623368015
 21
9.8956473061
 31
0.0
 11
-13.664595491
 21
9.9174566111
 31
0.0
 11
-13.239389537
 21
9.826403245
 31
0.0
 11
-12.8028758472
 21
9.6254620346
 31
0.0
 11
-12.3721102262
 21
9.3231060545
 31
0.0
  0
SPLINE
  5
3BD
100
AcDbEntity
  8
0
100
AcDbSpline
 62
7
  6
CONTINUOUS
 70
0
 71
3
 72
9
 73
5
 74
3
 42
0.0000001
 43
0.0000001
 44
0.0000000001
 12
0.2835136388
 22
-0.2347939721
 32
0.0
 13
0.3090638061
 23
-0.1999693889
 33
0.0
 40
0.0
 40
0.0
 40
0.0
 40
0.0
 40
0.255194014
 40
1.0
 40
1.0
 40
1.0
 40
1.0
 10
-13.4976383428
 20
4.7412948448
 30
0.0
 10
-13.4735213483
 20
4.7213221728
 30
0.0
 10
-13.3779372463
 20
4.6443756124
 30
0.0
 10
-13.2780088342
 20
4.5727837019
 30
0.0
 10
-13.2012779766
 20
4.5231375693
 30
0.0
 11
-13.4976383428
 21
4.7412948448
 31
0.0
 11
-13.4244534482
 21
4.6823982857
 31
0.0
 11
-13.2012779766
 21
4.5231375693
 31
0.0
  0
SPLINE
  5
3BE
100
AcDbEntity
  8
0
100
AcDbSpline
 62
7
  6
CONTINUOUS
 70
0
 71
3
 72
11
 73
7
 74
5
 42
0.0000001
 43
0.0000001
 44
0.0000000001
 12
1.2787891252
 22
-0.6758827754
 32
0.0
 13
1.2936612485
 23
0.6469619206
 33
0.0
 40
0.0
 40
0.0
 40
0.0
 40
0.0
 40
0.2805726255
 40
0.5370315352
 40
0.7740578866
 40
1.0
 40
1.0
 40
1.0
 40
1.0
 10
-12.9976362058
 20
4.4034631816
 30
0.0
 10
-12.878038465
 20
4.34025178
 30
0.0
 10
-12.6385991074
 20
4.2373610037
 30
0.0
 10
-12.270244025
 20
4.1610551263
 30
0.0
 10
-11.9198282025
 20
4.1738036408
 30
0.0
 10
-11.704231931
 20
4.2444081134
 30
0.0
 10
-11.6068010789
 20
4.2931334279
 30
0.0
 11
-12.9976362058
 21
4.4034631816
 31
0.0
 11
-12.6234476031
 21
4.2463753158
 31
0.0
 11
-12.2595037387
 21
4.1746397389
 31
0.0
 11
-11.9170254627
 21
4.1903561115
 31
0.0
 11
-11.6068010789
 21
4.2931334279
 31
0.0
  0
SPLINE
  5
3BF
100
AcDbEntity
  8
0
100
AcDbSpline
 62
253
  6
CONTINUOUS
 70
0
 71
3
 72
13
 73
9
 74
7
 42
0.0000001
 43
0.0000001
 44
0.0000000001
 12
0.3455996988
 22
1.4067734242
 32
0.0
 13
1.2956699021
 23
0.647834951
 33
0.0
 40
0.0
 40
0.0
 40
0.0
 40
0.0
 40
0.110321856
 40
0.232183657
 40
0.4963675639
 40
0.7625388417
 40
0.8867316226
 40
1.0
 40
1.0
 40
1.0
 40
1.0
 10
-12.3720893241
 20
9.3230963596
 30
0.0
 10
-12.3593802573
 20
9.3748289779
 30
0.0
 10
-12.3238311954
 20
9.4816026829
 30
0.0
 10
-12.221411196
 20
9.698737695
 30
0.0
 10
-12.0435443183
 20
9.9610138613
 30
0.0
 10
-11.822975268
 20
10.1900091319
 30
0.0
 10
-11.6296022113
 20
10.3380989198
 30
0.0
 10
-11.5308847294
 20
10.3971885502
 30
0.0
 10
-11.4819652535
 20
10.4216482881
 30
0.0
 11
-12.3720893241
 21
9.3230963596
 31
0.0
 11
-12.3228076873
 21
9.4751206271
 31
0.0
 11
-12.2482246143
 21
9.6351205752
 31
0.0
 11
-12.0356288224
 21
9.9533350941
 31
0.0
 11
-11.766605521
 21
10.22955187
 31
0.0
 11
-11.623344553
 21
10.3383750108
 31
0.0
 11
-11.4819652535
 21
10.4216482881
 31
0.0
  0
SPLINE
  5
3C0
100
AcDbEntity
  8
0
100
AcDbSpline
 62
253
  6
CONTINUOUS
 70
0
 71
3
 72
18
 73
14
 74
12
 42
0.0000001
 43
0.0000001
 44
0.0000000001
 12
6.0147211482
 22
-4.9812789999
 32
0.0
 13
-6.9840572002
 23
-3.4947039919
 33
0.0
 40
0.0
 40
0.0
 40
0.0
 40
0.0
 40
0.1350196982
 40
0.278323791
 40
0.4234932925
 40
0.5638068908
 40
0.6303191331
 40
0.6935480556
 40
0.8085223485
 40
0.8604597358
 40
0.9090890713
 40
0.9552211184
 40
1.0
 40
1.0
 40
1.0
 40
1.0
 10
-11.4819652536
 20
10.4216482882
 30
0.0
 10
-11.211263309
 20
10.1974580258
 30
0.0
 10
-10.7033409541
 20
9.67314283
 30
0.0
 10
-10.0854631711
 20
8.754228752
 30
0.0
 10
-9.6213286916
 20
7.7335642588
 30
0.0
 10
-9.3860751768
 20
6.8424334925
 30
0.0
 10
-9.3067440764
 20
6.1426268925
 30
0.0
 10
-9.3017991823
 20
5.5050976814
 30
0.0
 10
-9.3991818834
 20
4.9050784044
 30
0.0
 10
-9.6166465004
 20
4.3853000453
 30
0.0
 10
-9.8250325781
 20
4.0624973013
 30
0.0
 10
-10.0806367626
 20
3.8008060552
 30
0.0
 10
-10.2809033526
 20
3.6703731487
 30
0.0
 10
-10.3851494427
 20
3.61821017
 30
0.0
 11
-11.4819652536
 21
10.4216482882
 31
0.0
 11
-10.7424280331
 21
9.6700153668
 31
0.0
 11
-10.1149921278
 21
8.7432905461
 31
0.0
 11
-9.6466405621
 21
7.7108364139
 31
0.0
 11
-9.3724074512
 21
6.649911442
 31
0.0
 11
-9.3151070915
 21
6.1336469174
 31
0.0
 11
-9.3127911373
 21
5.6398591128
 31
0.0
 11
-9.4722482707
 21
4.7562269796
 31
0.0
 11
-9.6310238139
 21
4.3829838877
 31
0.0
 11
-9.8388430628
 21
4.0651142823
 31
0.0
 11
-10.0918033157
 21
3.8085836519
 31
0.0
 11
-10.3851494427
 21
3.61821017
 31
0.0
  0
SPLINE
  5
3C1
100
AcDbEntity
  8
0
100
AcDbSpline
 62
253
  6
CONTINUOUS
 70
0
 71
3
 72
14
 73
10
 74
8
 42
0.0000001
 43
0.0000001
 44
0.0000000001
 12
-2.1860398722
 22
1.810385523
 32
0.0
 13
-2.5383989414
 23
-1.2699594007
 33
0.0
 40
0.0
 40
0.0
 40
0.0
 40
0.0
 40
0.2917375494
 40
0.4261591458
 40
0.5527547996
 40
0.6720745616
 40
0.7852086151
 40
0.8938070868
 40
1.0
 40
1.0
 40
1.0
 40
1.0
 10
-11.4820162326
 20
10.4216905074
 30
0.0
 10
-11.6945995377
 20
10.597742986
 30
0.0
 10
-12.029200288
 20
10.8294205631
 30
0.0
 10
-12.5047684637
 20
11.049450028
 30
0.0
 10
-12.8489193282
 20
11.1583528875
 30
0.0
 10
-13.18538459
 20
11.2137540489
 30
0.0
 10
-13.5096344725
 20
11.2144270516
 30
0.0
 10
-13.8167669549
 20
11.1598837448
 30
0.0
 10
-14.0078919546
 20
11.0865453817
 30
0.0
 10
-14.0977452807
 20
11.0415918189
 30
0.0
 11
-11.4820162326
 21
10.4216905074
 31
0.0
 11
-12.16773738
 21
10.8858690716
 31
0.0
 11
-12.5145819791
 21
11.0448307956
 31
0.0
 11
-12.8576042277
 21
11.1518315392
 31
0.0
 11
-13.1920162427
 21
11.2053789074
 31
0.0
 11
-13.5131303136
 21
11.2047209353
 31
0.0
 11
-13.8164516609
 21
11.1498687171
 31
0.0
 11
-14.0977452807
 21
11.0415918189
 31
0.0
  0
SPLINE
  5
3C2
100
AcDbEntity
  8
0
100
AcDbSpline
 62
253
  6
CONTINUOUS
 70
0
 71
3
 72
11
 73
7
 74
5
 42
0.0000001
 43
0.0000001
 44
0.0000000001
 12
-0.000086103
 22
-0.4812661103
 32
0.0
 13
0.4304579359
 23
-0.2152278834
 33
0.0
 40
0.0
 40
0.0
 40
0.0
 40
0.0
 40
0.2064945007
 40
0.4343928126
 40
0.697716409
 40
1.0
 40
1.0
 40
1.0
 40
1.0
 10
-15.4688335083
 20
-3.8540213355
 30
0.0
 10
-15.4688394349
 20
-3.8871476039
 30
0.0
 10
-15.4542714951
 20
-3.9573787392
 30
0.0
 10
-15.3931401772
 20
-4.0532579606
 30
0.0
 10
-15.2978026967
 20
-4.13924091
 30
0.0
 10
-15.2193660609
 20
-4.1858777596
 30
0.0
 10
-15.175992604
 20
-4.2075643788
 30
0.0
 11
-15.4688335083
 21
-3.8540213355
 31
0.0
 11
-15.4496808145
 21
-3.9515370857
 31
0.0
 11
-15.3928044632
 21
-4.0453172816
 31
0.0
 11
-15.3002120316
 21
-4.1318436438
 31
0.0
 11
-15.175992604
 21
-4.2075643788
 31
0.0
  0
SPLINE
  5
3C3
100
AcDbEntity
  8
0
100
AcDbSpline
 62
7
  6
CONTINUOUS
 70
0
 71
3
 72
17
 73
13
 74
11
 42
0.0000001
 43
0.0000001
 44
0.0000000001
 12
-4.0834031333
 22
3.3817977391
 32
0.0
 13
3.8350058501
 23
3.6610746
 33
0.0
 40
0.0
 40
0.0
 40
0.0
 40
0.0
 40
0.1311841427
 40
0.2701965523
 40
0.4118980698
 40
0.5507571616
 40
0.6816569907
 40
0.8006685816
 40
0.8551696551
 40
0.9062990463
 40
0.9543796297
 40
1.0
 40
1.0
 40
1.0
 40
1.0
 10
-13.2324732999
 20
-19.7212441012
 30
0.0
 10
-13.4110325463
 20
-19.5733646888
 30
0.0
 10
-13.748631155
 20
-19.2313259142
 30
0.0
 10
-14.1696832483
 20
-18.6341208973
 30
0.0
 10
-14.5012533752
 20
-17.9676341586
 30
0.0
 10
-14.7231285148
 20
-17.2719049807
 30
0.0
 10
-14.8220633469
 20
-16.5886516206
 30
0.0
 10
-14.7956828046
 20
-16.0464857753
 30
0.0
 10
-14.7029865324
 20
-15.6593732188
 30
0.0
 10
-14.6034185104
 20
-15.4055269159
 30
0.0
 10
-14.4731985343
 20
-15.183865921
 30
0.0
 10
-14.3646024625
 20
-15.0573262197
 30
0.0
 10
-14.3062843336
 20
-15.0016530268
 30
0.0
 11
-13.2324732999
 21
-19.7212441012
 31
0.0
 11
-13.7243773114
 21
-19.2295165654
 31
0.0
 11
-14.1509656202
 21
-18.6284783393
 31
0.0
 11
-14.4855346223
 21
-17.9557911388
 31
0.0
 11
-14.7070665877
 21
-17.2536867801
 31
0.0
 11
-14.8016988533
 21
-16.5661436061
 31
0.0
 11
-14.7634827442
 21
-15.9363077324
 31
0.0
 11
-14.6949835508
 21
-15.6555817685
 31
0.0
 11
-14.5948202002
 21
-15.403679399
 31
0.0
 11
-14.4645757752
 21
-15.1845420551
 31
0.0
 11
-14.3062843336
 21
-15.0016530268
 31
0.0
  0
SPLINE
  5
3C4
100
AcDbEntity
  8
0
100
AcDbSpline
 62
7
  6
CONTINUOUS
 70
0
 71
3
 72
17
 73
13
 74
11
 42
0.0000001
 43
0.0000001
 44
0.0000000001
 12
-4.0834031333
 22
3.3817977391
 32
0.0
 13
3.8350058501
 23
3.6610746
 33
0.0
 40
0.0
 40
0.0
 40
0.0
 40
0.0
 40
0.1311841427
 40
0.2701965523
 40
0.4118980698
 40
0.5507571616
 40
0.6816569907
 40
0.8006685816
 40
0.8551696551
 40
0.9062990463
 40
0.9543796297
 40
1.0
 40
1.0
 40
1.0
 40
1.0
 10
-13.2324732999
 20
4.8738773663
 30
0.0
 10
-13.4110325463
 20
5.0217567787
 30
0.0
 10
-13.748631155
 20
5.3637955533
 30
0.0
 10
-14.1696832483
 20
5.9610005702
 30
0.0
 10
-14.5012533752
 20
6.6274873089
 30
0.0
 10
-14.7231285148
 20
7.3232164868
 30
0.0
 10
-14.8220633469
 20
8.0064698468
 30
0.0
 10
-14.7956828046
 20
8.5486356922
 30
0.0
 10
-14.7029865324
 20
8.9357482487
 30
0.0
 10
-14.6034185104
 20
9.1895945515
 30
0.0
 10
-14.4731985343
 20
9.4112555465
 30
0.0
 10
-14.3646024625
 20
9.5377952477
 30
0.0
 10
-14.3062843336
 20
9.5934684407
 30
0.0
 11
-13.2324732999
 21
4.8738773663
 31
0.0
 11
-13.7243773114
 21
5.3656049021
 31
0.0
 11
-14.1509656202
 21
5.9666431282
 31
0.0
 11
-14.4855346223
 21
6.6393303287
 31
0.0
 11
-14.7070665877
 21
7.3414346874
 31
0.0
 11
-14.8016988533
 21
8.0289778614
 31
0.0
 11
-14.7634827442
 21
8.6588137351
 31
0.0
 11
-14.6949835508
 21
8.9395396989
 31
0.0
 11
-14.5948202002
 21
9.1914420685
 31
0.0
 11
-14.4645757752
 21
9.4105794123
 31
0.0
 11
-14.3062843336
 21
9.5934684407
 31
0.0
  0
SPLINE
  5
3C5
100
AcDbEntity
  8
0
100
AcDbSpline
 62
7
  6
CONTINUOUS
 70
0
 71
3
 72
12
 73
8
 74
6
 42
0.0000001
 43
0.0000001
 44
0.0000000001
 12
0.9203423229
 22
-0.7621180391
 32
0.0
 13
1.0688886422
 23
0.5341638022
 33
0.0
 40
0.0
 40
0.0
 40
0.0
 40
0.0
 40
0.2920446876
 40
0.5529705328
 40
0.7849273305
 40
0.8936770335
 40
1.0
 40
1.0
 40
1.0
 40
1.0
 10
-13.0037074225
 20
5.8051398073
 30
0.0
 10
-12.9141137271
 20
5.7309489658
 30
0.0
 10
-12.7315695972
 20
5.6046726738
 30
0.0
 10
-12.438967536
 20
5.4862700783
 30
0.0
 10
-12.195783678
 20
5.462574089
 30
0.0
 10
-12.0195487978
 20
5.4937485122
 30
0.0
 10
-11.9389545757
 20
5.5246197464
 30
0.0
 10
-11.9010721052
 20
5.5435510398
 30
0.0
 11
-13.0037074225
 21
5.8051398073
 31
0.0
 11
-12.714716834
 21
5.6095222192
 31
0.0
 11
-12.4238270123
 21
5.4972961782
 31
0.0
 11
-12.1475571883
 21
5.4749540064
 31
0.0
 11
-12.019664657
 21
5.4979759854
 31
0.0
 11
-11.9010721052
 21
5.5435510398
 31
0.0
  0
SPLINE
  5
3C6
100
AcDbEntity
  8
0
100
AcDbSpline
 62
7
  6
CONTINUOUS
 70
0
 71
3
 72
12
 73
8
 74
6
 42
0.0000001
 43
0.0000001
 44
0.0000000001
 12
0.9203423229
 22
-0.7621180391
 32
0.0
 13
1.0688886422
 23
0.5341638022
 33
0.0
 40
0.0
 40
0.0
 40
0.0
 40
0.0
 40
0.2920446876
 40
0.5529705328
 40
0.7849273305
 40
0.8936770335
 40
1.0
 40
1.0
 40
1.0
 40
1.0
 10
-13.0037074225
 20
-18.7899816602
 30
0.0
 10
-12.9141137271
 20
-18.8641725017
 30
0.0
 10
-12.7315695972
 20
-18.9904487937
 30
0.0
 10
-12.438967536
 20
-19.1088513892
 30
0.0
 10
-12.195783678
 20
-19.1325473785
 30
0.0
 10
-12.0195487978
 20
-19.1013729553
 30
0.0
 10
-11.9389545757
 20
-19.0705017211
 30
0.0
 10
-11.9010721052
 20
-19.0515704277
 30
0.0
 11
-13.0037074225
 21
-18.7899816602
 31
0.0
 11
-12.714716834
 21
-18.9855992483
 31
0.0
 11
-12.4238270123
 21
-19.0978252893
 31
0.0
 11
-12.1475571883
 21
-19.1201674611
 31
0.0
 11
-12.019664657
 21
-19.097145482
 31
0.0
 11
-11.9010721052
 21
-19.0515704277
 31
0.0
  0
SPLINE
  5
3C7
100
AcDbEntity
  8
0
100
AcDbSpline
 62
7
  6
CONTINUOUS
 70
0
 71
3
 72
17
 73
13
 74
11
 42
0.0000001
 43
0.0000001
 44
0.0000000001
 12
-2.9457197464
 22
-1.4720867993
 32
0.0
 13
2.5361250301
 23
-2.1005652098
 33
0.0
 40
0.0
 40
0.0
 40
0.0
 40
0.0
 40
0.0447869646
 40
0.0909233062
 40
0.1395570434
 40
0.1914952527
 40
0.3064742987
 40
0.4360468798
 40
0.576387003
 40
0.7215877592
 40
0.864944184
 40
1.0
 40
1.0
 40
1.0
 40
1.0
 10
-13.4657982831
 20
8.6742634096
 30
0.0
 10
-13.5097748985
 20
8.6522866431
 30
0.0
 10
-13.5942893059
 20
8.5973673384
 30
0.0
 10
-13.7021288951
 20
8.4870443838
 30
0.0
 10
-13.79008154
 20
8.3509786962
 30
0.0
 10
-13.8818805106
 20
8.1317933111
 30
0.0
 10
-13.9347937428
 20
7.8061628818
 30
0.0
 10
-13.9052447135
 20
7.3819888833
 30
0.0
 10
-13.7884590628
 20
6.9390268302
 30
0.0
 10
-13.5927073563
 20
6.5084543737
 30
0.0
 10
-13.3321196716
 20
6.1208699681
 30
0.0
 10
-13.1178802343
 20
5.8997043235
 30
0.0
 10
-13.0037074225
 20
5.8051398073
 30
0.0
 11
-13.4657982831
 21
8.6742634096
 31
0.0
 11
-13.5895761756
 21
8.5940678858
 31
0.0
 11
-13.6963085044
 21
8.4859430307
 31
0.0
 11
-13.784017157
 21
8.3519408703
 31
0.0
 11
-13.8510341316
 21
8.194581163
 31
0.0
 11
-13.9183914305
 21
7.8219866634
 31
0.0
 11
-13.893347241
 21
7.3960307996
 31
0.0
 11
-13.7777507865
 21
6.9485714925
 31
0.0
 11
-13.5802667522
 21
6.5131023886
 31
0.0
 11
-13.3156201804
 21
6.1221750413
 31
0.0
 11
-13.0037074225
 21
5.8051398073
 31
0.0
  0
SPLINE
  5
3C8
100
AcDbEntity
  8
0
100
AcDbSpline
 62
7
  6
CONTINUOUS
 70
0
 71
3
 72
11
 73
7
 74
5
 42
0.0000001
 43
0.0000001
 44
0.0000000001
 12
-1.2933679469
 22
-0.2789953072
 32
0.0
 13
-1.128940323
 23
0.6900237493
 33
0.0
 40
0.0
 40
0.0
 40
0.0
 40
0.0
 40
0.2240383827
 40
0.4629453286
 40
0.7209415095
 40
1.0
 40
1.0
 40
1.0
 40
1.0
 10
-11.6133313406
 20
4.3305922699
 30
0.0
 10
-11.7099193616
 20
4.3097570507
 30
0.0
 10
-11.9155174215
 20
4.2918256834
 30
0.0
 10
-12.2327410104
 20
4.3341394578
 30
0.0
 10
-12.5590896782
 20
4.4427255489
 30
0.0
 10
-12.7698532229
 20
4.5530056049
 30
0.0
 10
-12.8748666837
 20
4.6171912668
 30
0.0
 11
-11.6133313406
 21
4.3305922699
 31
0.0
 11
-11.9084700912
 21
4.3029646154
 31
0.0
 11
-12.2221085659
 21
4.3423512394
 31
0.0
 11
-12.5467450502
 21
4.4478843591
 31
0.0
 11
-12.8748666837
 21
4.6171912668
 31
0.0
  0
SPLINE
  5
3C9
100
AcDbEntity
  8
0
100
AcDbSpline
 62
7
  6
CONTINUOUS
 70
0
 71
3
 72
9
 73
5
 74
3
 42
0.0000001
 43
0.0000001
 44
0.0000000001
 12
-0.335470343
 22
0.2050440569
 32
0.0
 13
-0.3063147884
 23
0.2464846176
 33
0.0
 40
0.0
 40
0.0
 40
0.0
 40
0.0
 40
0.2441358802
 40
1.0
 40
1.0
 40
1.0
 40
1.0
 10
-12.8748666837
 20
4.6171912668
 30
0.0
 10
-12.9021667995
 20
4.6338774706
 30
0.0
 10
-13.012798475
 20
4.7041649121
 30
0.0
 10
-13.1186712426
 20
4.7818747034
 30
0.0
 10
-13.1958486952
 20
4.8439776629
 30
0.0
 11
-12.8748666837
 21
4.6171912668
 31
0.0
 11
-12.9559014805
 21
4.6686392327
 31
0.0
 11
-13.1958486952
 21
4.8439776629
 31
0.0
  0
SPLINE
  5
3CA
100
AcDbEntity
  8
0
100
AcDbSpline
 62
7
  6
CONTINUOUS
 70
0
 71
3
 72
17
 73
13
 74
11
 42
0.0000001
 43
0.0000001
 44
0.0000000001
 12
-2.9457197464
 22
-1.4720867993
 32
0.0
 13
2.5361250301
 23
-2.1005652098
 33
0.0
 40
0.0
 40
0.0
 40
0.0
 40
0.0
 40
0.0447869646
 40
0.0909233062
 40
0.1395570434
 40
0.1914952527
 40
0.3064742987
 40
0.4360468798
 40
0.576387003
 40
0.7215877592
 40
0.864944184
 40
1.0
 40
1.0
 40
1.0
 40
1.0
 10
-13.4657982831
 20
-15.9208580579
 30
0.0
 10
-13.5097748985
 20
-15.9428348243
 30
0.0
 10
-13.5942893059
 20
-15.997754129
 30
0.0
 10
-13.7021288951
 20
-16.1080770837
 30
0.0
 10
-13.79008154
 20
-16.2441427713
 30
0.0
 10
-13.8818805106
 20
-16.4633281564
 30
0.0
 10
-13.9347937428
 20
-16.7889585857
 30
0.0
 10
-13.9052447135
 20
-17.2131325842
 30
0.0
 10
-13.7884590628
 20
-17.6560946373
 30
0.0
 10
-13.5927073563
 20
-18.0866670938
 30
0.0
 10
-13.3321196716
 20
-18.4742514994
 30
0.0
 10
-13.1178802343
 20
-18.695417144
 30
0.0
 10
-13.0037074225
 20
-18.7899816602
 30
0.0
 11
-13.4657982831
 21
-15.9208580579
 31
0.0
 11
-13.5895761755
 21
-16.0010535817
 31
0.0
 11
-13.6963085044
 21
-16.1091784368
 31
0.0
 11
-13.784017157
 21
-16.2431805971
 31
0.0
 11
-13.8510341316
 21
-16.4005403045
 31
0.0
 11
-13.9183914305
 21
-16.773134804
 31
0.0
 11
-13.893347241
 21
-17.1990906678
 31
0.0
 11
-13.7777507865
 21
-17.6465499749
 31
0.0
 11
-13.5802667522
 21
-18.0820190789
 31
0.0
 11
-13.3156201804
 21
-18.4729464262
 31
0.0
 11
-13.0037074225
 21
-18.7899816602
 31
0.0
  0
SPLINE
  5
3CB
100
AcDbEntity
  8
0
100
AcDbSpline
 62
7
  6
CONTINUOUS
 70
0
 71
3
 72
11
 73
7
 74
5
 42
0.0000001
 43
0.0000001
 44
0.0000000001
 12
-1.2933679469
 22
-0.2789953072
 32
0.0
 13
-1.128940323
 23
0.6900237493
 33
0.0
 40
0.0
 40
0.0
 40
0.0
 40
0.0
 40
0.2240383827
 40
0.4629453286
 40
0.7209415095
 40
1.0
 40
1.0
 40
1.0
 40
1.0
 10
-11.6133313406
 20
-20.2645291976
 30
0.0
 10
-11.7099193616
 20
-20.2853644167
 30
0.0
 10
-11.9155174215
 20
-20.3032957841
 30
0.0
 10
-12.2327410104
 20
-20.2609820097
 30
0.0
 10
-12.5590896782
 20
-20.1523959186
 30
0.0
 10
-12.7698532229
 20
-20.0421158626
 30
0.0
 10
-12.8748666837
 20
-19.9779302006
 30
0.0
 11
-11.6133313406
 21
-20.2645291976
 31
0.0
 11
-11.9084700912
 21
-20.2921568521
 31
0.0
 11
-12.2221085659
 21
-20.2527702281
 31
0.0
 11
-12.5467450502
 21
-20.1472371084
 31
0.0
 11
-12.8748666837
 21
-19.9779302006
 31
0.0
  0
SPLINE
  5
3CC
100
AcDbEntity
  8
0
100
AcDbSpline
 62
7
  6
CONTINUOUS
 70
0
 71
3
 72
9
 73
5
 74
3
 42
0.0000001
 43
0.0000001
 44
0.0000000001
 12
-0.335470343
 22
0.2050440569
 32
0.0
 13
-0.3063147884
 23
0.2464846176
 33
0.0
 40
0.0
 40
0.0
 40
0.0
 40
0.0
 40
0.2441358802
 40
1.0
 40
1.0
 40
1.0
 40
1.0
 10
-12.8748666837
 20
-19.9779302006
 30
0.0
 10
-12.9021667995
 20
-19.9612439969
 30
0.0
 10
-13.012798475
 20
-19.8909565554
 30
0.0
 10
-13.1186712426
 20
-19.8132467641
 30
0.0
 10
-13.1958486952
 20
-19.7511438046
 30
0.0
 11
-12.8748666837
 21
-19.9779302006
 31
0.0
 11
-12.9559014805
 21
-19.9264822348
 31
0.0
 11
-13.1958486952
 21
-19.7511438046
 31
0.0
  0
SPLINE
  5
3CD
100
AcDbEntity
  8
0
100
AcDbSpline
 62
7
  6
CONTINUOUS
 70
0
 71
3
 72
17
 73
13
 74
11
 42
0.0000001
 43
0.0000001
 44
0.0000000001
 12
-5.0484873501
 22
-2.5247560564
 32
0.0
 13
4.3473044117
 23
-3.6003558186
 33
0.0
 40
0.0
 40
0.0
 40
0.0
 40
0.0
 40
0.0447875476
 40
0.0909273561
 40
0.1395669284
 40
0.1915110989
 40
0.3065030273
 40
0.4360839552
 40
0.576419005
 40
0.7216180479
 40
0.8649411162
 40
1.0
 40
1.0
 40
1.0
 40
1.0
 10
-14.2903993954
 20
9.6595159786
 30
0.0
 10
-14.3657691845
 20
9.6218234346
 30
0.0
 10
-14.5105191837
 20
9.5274981876
 30
0.0
 10
-14.6953720178
 20
9.3383895261
 30
0.0
 10
-14.8459849407
 20
9.1050226284
 30
0.0
 10
-15.0032683614
 20
8.729251922
 30
0.0
 10
-15.093801234
 20
8.1710054131
 30
0.0
 10
-15.0430068004
 20
7.4439256115
 30
0.0
 10
-14.8427730102
 20
6.6846594991
 30
0.0
 10
-14.5071711348
 20
5.9467366973
 30
0.0
 10
-14.060560946
 20
5.2824202418
 30
0.0
 10
-13.69335237
 20
4.9033815243
 30
0.0
 10
-13.4976383428
 20
4.7412948448
 30
0.0
 11
-14.2903993954
 21
9.6595159786
 31
0.0
 11
-14.5024662097
 21
9.5218945298
 31
0.0
 11
-14.6853683904
 21
9.3364857529
 31
0.0
 11
-14.8356091681
 21
9.1066898037
 31
0.0
 11
-14.95041129
 21
8.8368947162
 31
0.0
 11
-15.0657044723
 21
8.198131671
 31
0.0
 11
-15.0226284028
 21
7.4679674533
 31
0.0
 11
-14.8244142825
 21
6.7010310093
 31
0.0
 11
-14.4858408852
 21
5.9546403884
 31
0.0
 11
-14.0323144992
 21
5.2847155443
 31
0.0
 11
-13.4976383428
 21
4.7412948448
 31
0.0
  0
SPLINE
  5
3CE
100
AcDbEntity
  8
0
100
AcDbSpline
 62
7
  6
CONTINUOUS
 70
0
 71
3
 72
17
 73
13
 74
11
 42
0.0000001
 43
0.0000001
 44
0.0000000001
 12
-5.0484873501
 22
-2.5247560564
 32
0.0
 13
4.3473044117
 23
-3.6003558186
 33
0.0
 40
0.0
 40
0.0
 40
0.0
 40
0.0
 40
0.0447875476
 40
0.0909273561
 40
0.1395669284
 40
0.1915110989
 40
0.3065030273
 40
0.4360839552
 40
0.576419005
 40
0.7216180479
 40
0.8649411162
 40
1.0
 40
1.0
 40
1.0
 40
1.0
 10
-14.2903993954
 20
-14.9356054889
 30
0.0
 10
-14.3657691845
 20
-14.9732980329
 30
0.0
 10
-14.5105191837
 20
-15.0676232799
 30
0.0
 10
-14.6953720178
 20
-15.2567319414
 30
0.0
 10
-14.8459849407
 20
-15.490098839
 30
0.0
 10
-15.0032683614
 20
-15.8658695455
 30
0.0
 10
-15.093801234
 20
-16.4241160543
 30
0.0
 10
-15.0430068004
 20
-17.151195856
 30
0.0
 10
-14.8427730102
 20
-17.9104619684
 30
0.0
 10
-14.5071711348
 20
-18.6483847702
 30
0.0
 10
-14.060560946
 20
-19.3127012256
 30
0.0
 10
-13.69335237
 20
-19.6917399432
 30
0.0
 10
-13.4976383428
 20
-19.8538266226
 30
0.0
 11
-14.2903993954
 21
-14.9356054889
 31
0.0
 11
-14.5024662097
 21
-15.0732269377
 31
0.0
 11
-14.6853683904
 21
-15.2586357146
 31
0.0
 11
-14.8356091681
 21
-15.4884316638
 31
0.0
 11
-14.95041129
 21
-15.7582267513
 31
0.0
 11
-15.0657044723
 21
-16.3969897965
 31
0.0
 11
-15.0226284028
 21
-17.1271540142
 31
0.0
 11
-14.8244142825
 21
-17.8940904582
 31
0.0
 11
-14.4858408852
 21
-18.640481079
 31
0.0
 11
-14.0323144992
 21
-19.3104059232
 31
0.0
 11
-13.4976383428
 21
-19.8538266226
 31
0.0
  0
SPLINE
  5
3CF
100
AcDbEntity
  8
0
100
AcDbSpline
 62
7
  6
CONTINUOUS
 70
0
 71
3
 72
14
 73
10
 74
8
 42
0.0000001
 43
0.0000001
 44
0.0000000001
 12
2.2084494845
 22
1.5096145583
 32
0.0
 13
0.0340548879
 23
2.6748879425
 33
0.0
 40
0.0
 40
0.0
 40
0.0
 40
0.0
 40
0.115421872
 40
0.2382192861
 40
0.3662302821
 40
0.4971627566
 40
0.757265878
 40
0.881936012
 40
1.0
 40
1.0
 40
1.0
 40
1.0
 10
13.0976255386
 20
-4.2153926127
 30
0.0
 10
13.1825933298
 20
-4.1573117666
 30
0.0
 10
13.348962959
 20
-4.0239635579
 30
0.0
 10
13.5762510855
 20
-3.7884034738
 30
0.0
 10
13.7816345817
 20
-3.5158875947
 30
0.0
 10
14.0182148072
 20
-3.1174147476
 30
0.0
 10
14.190523146
 20
-2.686331763
 30
0.0
 10
14.2842349766
 20
-2.2470912434
 30
0.0
 10
14.3032006787
 20
-2.030672078
 30
0.0
 10
14.3045408973
 20
-1.9254027654
 30
0.0
 11
13.0976255386
 21
-4.2153926127
 31
0.0
 11
13.3394625623
 21
-4.02342635
 31
0.0
 11
13.5680495112
 21
-3.7875077401
 31
0.0
 11
13.774859589
 21
-3.5145669478
 31
0.0
 11
13.9540047445
 21
-3.2135889821
 31
0.0
 11
14.209794797
 21
-2.5665083192
 31
0.0
 11
14.2785358448
 21
-2.2401638757
 31
0.0
 11
14.3045408973
 21
-1.9254027654
 31
0.0
  0
SPLINE
  5
3D0
100
AcDbEntity
  8
0
100
AcDbSpline
 62
7
  6
CONTINUOUS
 70
0
 71
3
 72
14
 73
10
 74
8
 42
0.0000001
 43
0.0000001
 44
0.0000000001
 12
2.2084494845
 22
1.5096145583
 32
0.0
 13
0.0340548879
 23
2.6748879424
 33
0.0
 40
0.0
 40
0.0
 40
0.0
 40
0.0
 40
0.115421872
 40
0.2382192861
 40
0.3662302821
 40
0.4971627566
 40
0.757265878
 40
0.881936012
 40
1.0
 40
1.0
 40
1.0
 40
1.0
 10
13.0976255386
 20
-12.8756466506
 30
0.0
 10
13.1825933298
 20
-12.8175658045
 30
0.0
 10
13.348962959
 20
-12.6842175958
 30
0.0
 10
13.5762510855
 20
-12.4486575116
 30
0.0
 10
13.7816345817
 20
-12.1761416325
 30
0.0
 10
14.0182148072
 20
-11.7776687855
 30
0.0
 10
14.190523146
 20
-11.3465858009
 30
0.0
 10
14.2842349766
 20
-10.9073452813
 30
0.0
 10
14.3032006787
 20
-10.6909261158
 30
0.0
 10
14.3045408973
 20
-10.5856568032
 30
0.0
 11
13.0976255386
 21
-12.8756466506
 31
0.0
 11
13.3394625623
 21
-12.6836803879
 31
0.0
 11
13.5680495112
 21
-12.447761778
 31
0.0
 11
13.774859589
 21
-12.1748209857
 31
0.0
 11
13.9540047445
 21
-11.87384302
 31
0.0
 11
14.209794797
 21
-11.2267623571
 31
0.0
 11
14.2785358448
 21
-10.9004179135
 31
0.0
 11
14.3045408973
 21
-10.5856568032
 31
0.0
  0
SPLINE
  5
3D1
100
AcDbEntity
  8
0
100
AcDbSpline
 62
7
  6
CONTINUOUS
 70
0
 71
3
 72
14
 73
10
 74
8
 42
0.0000001
 43
0.0000001
 44
0.0000000001
 12
2.2084494845
 22
1.5096145583
 32
0.0
 13
0.0340548879
 23
2.6748879425
 33
0.0
 40
0.0
 40
0.0
 40
0.0
 40
0.0
 40
0.115421872
 40
0.2382192861
 40
0.3662302821
 40
0.4971627566
 40
0.757265878
 40
0.881936012
 40
1.0
 40
1.0
 40
1.0
 40
1.0
 10
13.0976255386
 20
-8.5455196317
 30
0.0
 10
13.1825933298
 20
-8.4874387856
 30
0.0
 10
13.348962959
 20
-8.3540905769
 30
0.0
 10
13.5762510855
 20
-8.1185304927
 30
0.0
 10
13.7816345817
 20
-7.8460146136
 30
0.0
 10
14.0182148072
 20
-7.4475417665
 30
0.0
 10
14.190523146
 20
-7.016458782
 30
0.0
 10
14.2842349766
 20
-6.5772182624
 30
0.0
 10
14.3032006787
 20
-6.3607990969
 30
0.0
 10
14.3045408973
 20
-6.2555297843
 30
0.0
 11
13.0976255386
 21
-8.5455196317
 31
0.0
 11
13.3394625623
 21
-8.353553369
 31
0.0
 11
13.5680495112
 21
-8.1176347591
 31
0.0
 11
13.774859589
 21
-7.8446939668
 31
0.0
 11
13.9540047445
 21
-7.5437160011
 31
0.0
 11
14.209794797
 21
-6.8966353381
 31
0.0
 11
14.2785358448
 21
-6.5702908946
 31
0.0
 11
14.3045408973
 21
-6.2555297843
 31
0.0
  0
SPLINE
  5
3D2
100
AcDbEntity
  8
0
100
AcDbSpline
 62
7
  6
CONTINUOUS
 70
0
 71
3
 72
14
 73
10
 74
8
 42
0.0000001
 43
0.0000001
 44
0.0000000001
 12
2.2084494845
 22
1.5096145583
 32
0.0
 13
0.0340548879
 23
2.6748879425
 33
0.0
 40
0.0
 40
0.0
 40
0.0
 40
0.0
 40
0.115421872
 40
0.2382192861
 40
0.3662302821
 40
0.4971627566
 40
0.757265878
 40
0.881936012
 40
1.0
 40
1.0
 40
1.0
 40
1.0
 10
13.0976255386
 20
4.4448614251
 30
0.0
 10
13.1825933298
 20
4.5029422712
 30
0.0
 10
13.348962959
 20
4.6362904799
 30
0.0
 10
13.5762510855
 20
4.871850564
 30
0.0
 10
13.7816345817
 20
5.1443664432
 30
0.0
 10
14.0182148072
 20
5.5428392902
 30
0.0
 10
14.190523146
 20
5.9739222748
 30
0.0
 10
14.2842349766
 20
6.4131627944
 30
0.0
 10
14.3032006787
 20
6.6295819598
 30
0.0
 10
14.3045408973
 20
6.7348512725
 30
0.0
 11
13.0976255386
 21
4.4448614251
 31
0.0
 11
13.3394625623
 21
4.6368276878
 31
0.0
 11
13.5680495112
 21
4.8727462977
 31
0.0
 11
13.774859589
 21
5.14568709
 31
0.0
 11
13.9540047445
 21
5.4466650557
 31
0.0
 11
14.209794797
 21
6.0937457186
 31
0.0
 11
14.2785358448
 21
6.4200901622
 31
0.0
 11
14.3045408973
 21
6.7348512725
 31
0.0
  0
SPLINE
  5
3D3
100
AcDbEntity
  8
0
100
AcDbSpline
 62
7
  6
CONTINUOUS
 70
0
 71
3
 72
14
 73
10
 74
8
 42
0.0000001
 43
0.0000001
 44
0.0000000001
 12
2.2084494845
 22
1.5096145583
 32
0.0
 13
0.0340548879
 23
2.6748879424
 33
0.0
 40
0.0
 40
0.0
 40
0.0
 40
0.0
 40
0.115421872
 40
0.2382192861
 40
0.3662302821
 40
0.4971627566
 40
0.757265878
 40
0.881936012
 40
1.0
 40
1.0
 40
1.0
 40
1.0
 10
13.0976255386
 20
0.1147344062
 30
0.0
 10
13.1825933298
 20
0.1728152523
 30
0.0
 10
13.348962959
 20
0.306163461
 30
0.0
 10
13.5762510855
 20
0.5417235451
 30
0.0
 10
13.7816345817
 20
0.8142394242
 30
0.0
 10
14.0182148071
 20
1.2127122713
 30
0.0
 10
14.190523146
 20
1.6437952559
 30
0.0
 10
14.2842349766
 20
2.0830357755
 30
0.0
 10
14.3032006787
 20
2.2994549409
 30
0.0
 10
14.3045408973
 20
2.4047242536
 30
0.0
 11
13.0976255386
 21
0.1147344062
 31
0.0
 11
13.3394625623
 21
0.3067006689
 31
0.0
 11
13.5680495112
 21
0.5426192788
 31
0.0
 11
13.774859589
 21
0.8155600711
 31
0.0
 11
13.9540047445
 21
1.1165380368
 31
0.0
 11
14.209794797
 21
1.7636186997
 31
0.0
 11
14.2785358448
 21
2.0899631433
 31
0.0
 11
14.3045408973
 21
2.4047242536
 31
0.0
  0
SPLINE
  5
3D4
100
AcDbEntity
  8
0
100
AcDbSpline
 62
7
  6
CONTINUOUS
 70
0
 71
3
 72
14
 73
10
 74
8
 42
0.0000001
 43
0.0000001
 44
0.0000000001
 12
2.2084494845
 22
1.5096145583
 32
0.0
 13
0.0340548879
 23
2.6748879425
 33
0.0
 40
0.0
 40
0.0
 40
0.0
 40
0.0
 40
0.115421872
 40
0.2382192861
 40
0.3662302821
 40
0.4971627566
 40
0.757265878
 40
0.881936012
 40
1.0
 40
1.0
 40
1.0
 40
1.0
 10
13.0976255386
 20
8.774988444
 30
0.0
 10
13.1825933298
 20
8.8330692901
 30
0.0
 10
13.348962959
 20
8.9664174988
 30
0.0
 10
13.5762510855
 20
9.201977583
 30
0.0
 10
13.7816345817
 20
9.4744934621
 30
0.0
 10
14.0182148071
 20
9.8729663092
 30
0.0
 10
14.190523146
 20
10.3040492937
 30
0.0
 10
14.2842349766
 20
10.7432898133
 30
0.0
 10
14.3032006787
 20
10.9597089788
 30
0.0
 10
14.3045408973
 20
11.0649782914
 30
0.0
 11
13.0976255386
 21
8.774988444
 31
0.0
 11
13.3394625623
 21
8.9669547067
 31
0.0
 11
13.5680495112
 21
9.2028733166
 31
0.0
 11
13.774859589
 21
9.4758141089
 31
0.0
 11
13.9540047445
 21
9.7767920746
 31
0.0
 11
14.209794797
 21
10.4238727376
 31
0.0
 11
14.2785358448
 21
10.7502171811
 31
0.0
 11
14.3045408973
 21
11.0649782914
 31
0.0
  0
SPLINE
  5
3D5
100
AcDbEntity
  8
0
100
AcDbSpline
 62
253
  6
CONTINUOUS
 70
0
 71
3
 72
11
 73
7
 74
5
 42
0.0000001
 43
0.0000001
 44
0.0000000001
 12
-0.3412524647
 22
0.2823379879
 32
0.0
 13
0.1056528889
 23
0.4301226001
 33
0.0
 40
0.0
 40
0.0
 40
0.0
 40
0.0
 40
0.2016992407
 40
0.4273580738
 40
0.6922195312
 40
1.0
 40
1.0
 40
1.0
 40
1.0
 10
-13.4557681301
 20
-20.382184168
 30
0.0
 10
-13.4787115845
 20
-20.3632017154
 30
0.0
 10
-13.5187685493
 20
-20.3118696152
 30
0.0
 10
-13.5481903929
 20
-20.2122560662
 30
0.0
 10
-13.5504599719
 20
-20.0934593287
 30
0.0
 10
-13.5359117536
 20
-20.0097282452
 30
0.0
 10
-13.525072455
 20
-19.9656004667
 30
0.0
 11
-13.4557681301
 21
-20.382184168
 31
0.0
 11
-13.5116461016
 21
-20.3124828571
 31
0.0
 11
-13.5424068895
 21
-20.217388051
 31
0.0
 11
-13.5468773717
 21
-20.1001638594
 31
0.0
 11
-13.525072455
 21
-19.9656004667
 31
0.0
  0
SPLINE
  5
3D6
100
AcDbEntity
  8
0
100
AcDbSpline
 62
253
  6
CONTINUOUS
 70
0
 71
3
 72
22
 73
18
 74
16
 42
0.0000001
 43
0.0000001
 44
0.0000000001
 12
-0.0233791918
 22
-8.0778472001
 32
0.0
 13
-0.0169051412
 23
8.0778633432
 33
0.0
 40
0.0
 40
0.0
 40
0.0
 40
0.0
 40
0.0634378699
 40
0.1211417308
 40
0.1734092
 40
0.2217196479
 40
0.2685305503
 40
0.3167682626
 40
0.368919766
 40
0.4264530658
 40
0.4897620457
 40
0.5583738476
 40
0.6311900056
 40
0.7066950779
 40
0.7831405463
 40
0.858693573
 40
1.0
 40
1.0
 40
1.0
 40
1.0
 10
-10.7212138764
 20
-6.4349292109
 30
0.0
 10
-10.7217082518
 20
-6.6057430175
 30
0.0
 10
-10.7461559966
 20
-6.9328164545
 30
0.0
 10
-10.8689851621
 20
-7.3867778943
 30
0.0
 10
-11.0745819481
 20
-7.7654404234
 30
0.0
 10
-11.3578383528
 20
-8.0521819026
 30
0.0
 10
-11.7086201775
 20
-8.2293958855
 30
0.0
 10
-12.1070470747
 20
-8.2871979818
 30
0.0
 10
-12.5327696107
 20
-8.2270872394
 30
0.0
 10
-12.969657554
 20
-8.055964461
 30
0.0
 10
-13.4031252974
 20
-7.7822375485
 30
0.0
 10
-13.8183313164
 20
-7.4165751412
 30
0.0
 10
-14.2004430467
 20
-6.9725506443
 30
0.0
 10
-14.5354570761
 20
-6.4667807896
 30
0.0
 10
-14.8108667032
 20
-5.9177150381
 30
0.0
 10
-15.0789177768
 20
-5.1739894925
 30
0.0
 10
-15.1751903295
 20
-4.5880275192
 30
0.0
 10
-15.1759865979
 20
-4.2075428501
 30
0.0
 11
-10.7212138764
 21
-6.4349292109
 31
0.0
 11
-10.7641395482
 21
-6.9455717425
 31
0.0
 11
-10.8907184579
 21
-7.3941809534
 31
0.0
 11
-11.0966410471
 21
-7.762769487
 31
0.0
 11
-11.3736027358
 21
-8.0376953005
 31
0.0
 11
-11.711119017
 21
-8.2081865043
 31
0.0
 11
-12.0962001772
 21
-8.2677368866
 31
0.0
 11
-12.5140383766
 21
-8.2140459329
 31
0.0
 11
-12.9485665791
 21
-8.0491970452
 31
0.0
 11
-13.3830936302
 21
-7.7795330591
 31
0.0
 11
-13.8009318129
 21
-7.4154026106
 31
0.0
 11
-14.1860214899
 21
-6.9707842474
 31
0.0
 11
-14.5235529824
 21
-6.4627723314
 31
0.0
 11
-14.8005408059
 21
-5.9108615739
 31
0.0
 11
-15.0064553607
 21
-5.3363396062
 31
0.0
 11
-15.1759865979
 21
-4.2075428501
 31
0.0
  0
SPLINE
  5
3D7
100
AcDbEntity
  8
0
100
AcDbSpline
 62
253
  6
CONTINUOUS
 70
0
 71
3
 72
9
 73
5
 74
3
 42
0.0000001
 43
0.0000001
 44
0.0000000001
 12
0.0012346701
 22
0.4265962984
 32
0.0
 13
0.0598735173
 23
0.4223755298
 33
0.0
 40
0.0
 40
0.0
 40
0.0
 40
0.0
 40
0.2562477004
 40
1.0
 40
1.0
 40
1.0
 40
1.0
 10
-15.1759865979
 20
-4.2075428501
 30
0.0
 10
-15.1758811374
 20
-4.1711047433
 30
0.0
 10
-15.1732275953
 20
-4.0289296171
 30
0.0
 10
-15.1613964873
 20
-3.8868609421
 30
0.0
 10
-15.1465527986
 20
-3.7821466849
 30
0.0
 11
-15.1759865979
 21
-4.2075428501
 31
0.0
 11
-15.1739185838
 21
-4.0982476349
 31
0.0
 11
-15.1465527986
 21
-3.7821466849
 31
0.0
  0
SPLINE
  5
3D8
100
AcDbEntity
  8
0
100
AcDbSpline
 62
253
  6
CONTINUOUS
 70
0
 71
3
 72
22
 73
18
 74
16
 42
0.0000001
 43
0.0000001
 44
0.0000000001
 12
1.0741444386
 22
7.5775125057
 32
0.0
 13
0.0160165202
 23
-7.6532493439
 33
0.0
 40
0.0
 40
0.0
 40
0.0
 40
0.0
 40
0.058950069
 40
0.1125484912
 40
0.161901838
 40
0.2089702253
 40
0.2563395333
 40
0.3065052008
 40
0.3612449452
 40
0.4213918356
 40
0.4869272704
 40
0.5571789368
 40
0.631011458
 40
0.7069855527
 40
0.7834965653
 40
0.858891638
 40
1.0
 40
1.0
 40
1.0
 40
1.0
 10
-15.1465527986
 20
-3.7821466849
 30
0.0
 10
-15.1254458357
 20
-3.63324839
 30
0.0
 10
-15.0612789053
 20
-3.3512715127
 30
0.0
 10
-14.8853848608
 20
-2.9736262461
 30
0.0
 10
-14.6388775495
 20
-2.6744910295
 30
0.0
 10
-14.3281216873
 20
-2.4688102411
 30
0.0
 10
-13.9674454698
 20
-2.3677184905
 30
0.0
 10
-13.5744015317
 20
-2.3736214238
 30
0.0
 10
-13.1641020154
 20
-2.4824734196
 30
0.0
 10
-12.7494511642
 20
-2.6880559783
 30
0.0
 10
-12.3431349592
 20
-2.982530498
 30
0.0
 10
-11.9580099186
 20
-3.3558258774
 30
0.0
 10
-11.6066502514
 20
-3.7954445371
 30
0.0
 10
-11.3007713966
 20
-4.2865556915
 30
0.0
 10
-11.0507320204
 20
-4.8129737297
 30
0.0
 10
-10.808239457
 20
-5.520800106
 30
0.0
 10
-10.7219672314
 20
-6.0749500511
 30
0.0
 10
-10.7212138764
 20
-6.4349292109
 30
0.0
 11
-15.1465527986
 21
-3.7821466849
 31
0.0
 11
-15.0422863088
 21
-3.3431998155
 31
0.0
 11
-14.8652375789
 21
-2.9731724671
 31
0.0
 11
-14.6220375207
 21
-2.6841710459
 31
0.0
 11
-14.3209581842
 21
-2.486396812
 31
0.0
 11
-13.9724209672
 21
-2.3866483763
 31
0.0
 11
-13.5884934691
 21
-2.3883350294
 31
0.0
 11
-13.1824377113
 21
-2.4914254133
 31
0.0
 11
-12.7682969001
 21
-2.6923782328
 31
0.0
 11
-12.3603950836
 21
-2.9842320725
 31
0.0
 11
-11.9728297728
 21
-3.3568789607
 31
0.0
 11
-11.6189891717
 21
-3.7974349227
 31
0.0
 11
-11.3111233923
 21
-4.29069218
 31
0.0
 11
-11.0598993948
 21
-4.819621295
 31
0.0
 11
-10.8738886211
 21
-5.3658359085
 31
0.0
 11
-10.7212138764
 21
-6.4349292109
 31
0.0
  0
SPLINE
  5
3D9
100
AcDbEntity
  8
0
100
AcDbSpline
 62
7
  6
CONTINUOUS
 70
0
 71
3
 72
17
 73
13
 74
11
 42
0.0000001
 43
0.0000001
 44
0.0000000001
 12
0.0000426197
 22
-5.8025296066
 32
0.0
 13
5.1907242898
 23
2.5934014699
 33
0.0
 40
0.0
 40
0.0
 40
0.0
 40
0.0
 40
0.1325733557
 40
0.27475839
 40
0.4200100145
 40
0.5612028387
 40
0.6919508918
 40
0.8079353901
 40
0.8602030864
 40
0.9090245611
 40
0.9552259895
 40
1.0
 40
1.0
 40
1.0
 40
1.0
 10
-15.0699205807
 20
-4.2605758587
 30
0.0
 10
-15.0699186973
 20
-4.5169961325
 30
0.0
 10
-15.0065688403
 20
-5.0492340738
 30
0.0
 10
-14.7612727183
 20
-5.8277092111
 30
0.0
 10
-14.3798913643
 20
-6.5683777302
 30
0.0
 10
-13.8904714169
 20
-7.2154897986
 30
0.0
 10
-13.3294715894
 20
-7.7210238514
 30
0.0
 10
-12.815326757
 20
-8.0029550908
 30
0.0
 10
-12.4081450447
 20
-8.1127277619
 30
0.0
 10
-12.1224678841
 20
-8.1367034077
 30
0.0
 10
-11.8520717282
 20
-8.1038035589
 30
0.0
 10
-11.6848493346
 20
-8.0434013872
 30
0.0
 10
-11.6073794866
 20
-8.0046957256
 30
0.0
 11
-15.0699205807
 21
-4.2605758587
 31
0.0
 11
-14.9861749772
 21
-5.0252646092
 31
0.0
 11
-14.7415594096
 21
-5.8132001797
 31
0.0
 11
-14.3554092599
 21
-6.5623631547
 31
0.0
 11
-13.8582033641
 21
-7.2135149898
 31
0.0
 11
-13.2891790058
 21
-7.7153024073
 31
0.0
 11
-12.6932715605
 21
-8.0280770996
 31
0.0
 11
-12.3999573005
 21
-8.1052032832
 31
0.0
 11
-12.1175201494
 21
-8.1271435734
 31
0.0
 11
-11.851565666
 21
-8.0934113393
 31
0.0
 11
-11.6073794866
 21
-8.0046957256
 31
0.0
  0
SPLINE
  5
3DA
100
AcDbEntity
  8
0
100
AcDbSpline
 62
253
  6
CONTINUOUS
 70
0
 71
3
 72
13
 73
9
 74
7
 42
0.0000001
 43
0.0000001
 44
0.0000000001
 12
1.3010606698
 22
-0.650533613
 32
0.0
 13
1.3010619811
 23
0.6505309905
 33
0.0
 40
0.0
 40
0.0
 40
0.0
 40
0.0
 40
0.1125260113
 40
0.2356334969
 40
0.4999159884
 40
0.7642783134
 40
0.8874532109
 40
1.0
 40
1.0
 40
1.0
 40
1.0
 10
-10.7212078702
 20
-6.4349567457
 30
0.0
 10
-10.6724068143
 20
-6.4593573966
 30
0.0
 10
-10.565957361
 20
-6.5021011346
 30
0.0
 10
-10.3310927339
 20
-6.5638549771
 30
0.0
 10
-10.0141900459
 20
-6.5933282829
 30
0.0
 10
-9.6972476482
 20
-6.5638889509
 30
0.0
 10
-9.4623039466
 20
-6.5021159991
 30
0.0
 10
-9.3558104303
 20
-6.4593665884
 30
0.0
 10
-9.3070003141
 20
-6.4349615303
 30
0.0
 11
-10.7212078702
 21
-6.4349567457
 31
0.0
 11
-10.5697677109
 21
-6.4970718928
 31
0.0
 11
-10.3967753852
 21
-6.5433523335
 31
0.0
 11
-10.0142274585
 21
-6.581382695
 31
0.0
 11
-9.631559988
 21
-6.5433809522
 31
0.0
 11
-9.4584713863
 21
-6.4970809555
 31
0.0
 11
-9.3070003141
 21
-6.4349615303
 31
0.0
  0
SPLINE
  5
3DB
100
AcDbEntity
  8
0
100
AcDbSpline
 62
253
  6
CONTINUOUS
 70
0
 71
3
 72
14
 73
10
 74
8
 42
0.0000001
 43
0.0000001
 44
0.0000000001
 12
-0.0000192295
 22
-2.6189465219
 32
0.0
 13
-2.3426573404
 23
-1.1708276861
 33
0.0
 40
0.0
 40
0.0
 40
0.0
 40
0.0
 40
0.2891446109
 40
0.4227136708
 40
0.5489599756
 40
0.6685064967
 40
0.7824366987
 40
0.8922913075
 40
1.0
 40
1.0
 40
1.0
 40
1.0
 10
-9.3070003141
 20
-6.4349615302
 30
0.0
 10
-9.3070021675
 20
-6.6873796213
 30
0.0
 10
-9.3384975809
 20
-7.0583973048
 30
0.0
 10
-9.4588764093
 20
-7.5231932939
 30
0.0
 10
-9.5811328535
 20
-7.8320275036
 30
0.0
 10
-9.7364262899
 20
-8.1062426861
 30
0.0
 10
-9.9231924645
 20
-8.3423474908
 30
0.0
 10
-10.1392131942
 20
-8.5369933693
 30
0.0
 10
-10.3017163226
 20
-8.6376521839
 30
0.0
 10
-10.385824509
 20
-8.6796882903
 30
0.0
 11
-9.3070003141
 21
-6.4349615302
 31
0.0
 11
-9.3787233647
 21
-7.1888115406
 31
0.0
 11
-9.4675537236
 21
-7.5271550949
 31
0.0
 11
-9.5903881043
 21
-7.8341232473
 31
0.0
 11
-9.7457236256
 21
-8.1059571765
 31
0.0
 11
-9.9316550386
 21
-8.3393204281
 31
0.0
 11
-10.1458958292
 21
-8.5313467252
 31
0.0
 11
-10.385824509
 21
-8.6796882903
 31
0.0
  0
SPLINE
  5
3DC
100
AcDbEntity
  8
0
100
AcDbSpline
 62
253
  6
CONTINUOUS
 70
0
 71
3
 72
19
 73
15
 74
13
 42
0.0000001
 43
0.0000001
 44
0.0000000001
 12
-0.0000589635
 22
8.0305750996
 32
0.0
 13
-7.1839344399
 23
-3.5890419889
 33
0.0
 40
0.0
 40
0.0
 40
0.0
 40
0.0
 40
0.1325011825
 40
0.2746366645
 40
0.4198257029
 40
0.5609581016
 40
0.6280288655
 40
0.6918302752
 40
0.7519044095
 40
0.8080270103
 40
0.8602712095
 40
0.9090682349
 40
0.9552465548
 40
1.0
 40
1.0
 40
1.0
 40
1.0
 10
-9.3070003141
 20
-6.4348968914
 30
0.0
 10
-9.3070029184
 20
-6.0802099925
 30
0.0
 10
-9.39466271
 20
-5.3439481403
 30
0.0
 10
-9.7339443532
 20
-4.2669529978
 30
0.0
 10
-10.2615346178
 20
-3.2425110639
 30
0.0
 10
-10.8355140445
 20
-2.4833069904
 30
0.0
 10
-11.3554612902
 20
-1.9720135078
 30
0.0
 10
-11.7566185336
 20
-1.6535128537
 30
0.0
 10
-12.1677356878
 20
-1.3998216557
 30
0.0
 10
-12.5811729703
 20
-1.2160104679
 30
0.0
 10
-12.9892617284
 20
-1.1060491639
 30
0.0
 10
-13.3844257286
 20
-1.0729350368
 30
0.0
 10
-13.7584709171
 20
-1.1184473045
 30
0.0
 10
-13.9897803581
 20
-1.2020299407
 30
0.0
 10
-14.0969489636
 20
-1.2555706054
 30
0.0
 11
-9.3070003141
 21
-6.4348968914
 31
0.0
 11
-9.422845366
 21
-5.3771610592
 31
0.0
 11
-9.7612345583
 21
-4.2870443548
 31
0.0
 11
-10.2954509394
 21
-3.2506777677
 31
0.0
 11
-10.9832940383
 21
-2.3498951992
 31
0.0
 11
-11.368219398
 21
-1.9731452398
 31
0.0
 11
-11.7704664722
 21
-1.6557935062
 31
0.0
 11
-12.1820560803
 21
-1.4041339103
 31
0.0
 11
-12.5948223536
 21
-1.2231599527
 31
0.0
 11
-13.0005789534
 21
-1.1164613384
 31
0.0
 11
-13.391273181
 21
-1.0861514603
 31
0.0
 11
-13.7591623054
 21
-1.1328286461
 31
0.0
 11
-14.0969489636
 21
-1.2555706054
 31
0.0
  0
SPLINE
  5
3DD
100
AcDbEntity
  8
0
100
AcDbSpline
 62
253
  6
CONTINUOUS
 70
0
 71
3
 72
11
 73
7
 74
5
 42
0.0000001
 43
0.0000001
 44
0.0000000001
 12
-0.3412524647
 22
0.2823379879
 32
0.0
 13
0.1056528889
 23
0.4301226001
 33
0.0
 40
0.0
 40
0.0
 40
0.0
 40
0.0
 40
0.2016992407
 40
0.4273580738
 40
0.6922195312
 40
1.0
 40
1.0
 40
1.0
 40
1.0
 10
-13.4557681301
 20
4.2129372995
 30
0.0
 10
-13.4787115845
 20
4.2319197521
 30
0.0
 10
-13.5187685493
 20
4.2832518523
 30
0.0
 10
-13.5481903929
 20
4.3828654013
 30
0.0
 10
-13.5504599719
 20
4.5016621388
 30
0.0
 10
-13.5359117536
 20
4.5853932223
 30
0.0
 10
-13.525072455
 20
4.6295210008
 30
0.0
 11
-13.4557681301
 21
4.2129372995
 31
0.0
 11
-13.5116461016
 21
4.2826386103
 31
0.0
 11
-13.5424068895
 21
4.3777334164
 31
0.0
 11
-13.5468773717
 21
4.4949576081
 31
0.0
 11
-13.525072455
 21
4.6295210008
 31
0.0
  0
SPLINE
  5
3DE
100
AcDbEntity
  8
ASSI
100
AcDbSpline
 62
7
  6
CONTINUOUS
 70
0
 71
3
 72
9
 73
5
 74
3
 42
0.0000001
 43
0.0000001
 44
0.0000000001
 12
-0.0459691931
 22
-0.0150791366
 32
0.0
 13
-0.0435168955
 23
-0.0211382799
 33
0.0
 40
0.0
 40
0.0
 40
0.0
 40
0.0
 40
0.2440121119
 40
1.0
 40
1.0
 40
1.0
 40
1.0
 10
2.7435346729
 20
20.6193775662
 30
0.0
 10
2.7397956596
 20
20.6181510689
 30
0.0
 10
2.7245645618
 20
20.6128465034
 30
0.0
 10
2.7097144787
 20
20.6064642135
 30
0.0
 10
2.6987483967
 20
20.6011374523
 30
0.0
 11
2.7435346729
 21
20.6193775662
 31
0.0
 11
2.7323852013
 21
20.6154981427
 31
0.0
 11
2.6987483967
 21
20.6011374523
 31
0.0
  0
SPLINE
  5
3DF
100
AcDbEntity
  8
ASSI
100
AcDbSpline
 62
7
  6
CONTINUOUS
 70
0
 71
3
 72
11
 73
7
 74
5
 42
0.0000001
 43
0.0000001
 44
0.0000000001
 12
0.2229118258
 22
0.07065202
 32
0.0
 13
0.2091983812
 23
-0.1044864934
 33
0.0
 40
0.0
 40
0.0
 40
0.0
 40
0.0
 40
0.2284835629
 40
0.4717686337
 40
0.7296788335
 40
1.0
 40
1.0
 40
1.0
 40
1.0
 10
-2.8096880703
 20
23.3974411684
 30
0.0
 10
-2.7927108409
 20
23.4028221101
 30
0.0
 10
-2.7559289821
 20
23.4088393066
 30
0.0
 10
-2.6988256619
 20
23.4046413026
 30
0.0
 10
-2.6404208072
 20
23.3892186752
 30
0.0
 10
-2.6024547293
 20
23.3729393349
 30
0.0
 10
-2.5836044792
 20
23.3635243646
 30
0.0
 11
-2.8096880703
 21
23.3974411684
 31
0.0
 11
-2.7570506527
 21
23.4066024963
 31
0.0
 11
-2.7002721354
 21
23.403044179
 31
0.0
 11
-2.6418423031
 21
23.3881031812
 31
0.0
 11
-2.5836044792
 21
23.3635243646
 31
0.0
  0
SPLINE
  5
3E0
100
AcDbEntity
  8
ASSI
100
AcDbSpline
 62
7
  6
CONTINUOUS
 70
0
 71
3
 72
11
 73
7
 74
5
 42
0.0000001
 43
0.0000001
 44
0.0000000001
 12
0.2239685209
 22
0.0734677223
 32
0.0
 13
0.2108660223
 23
-0.1053324509
 33
0.0
 40
0.0
 40
0.0
 40
0.0
 40
0.0
 40
0.2282804345
 40
0.4714685843
 40
0.7294546788
 40
1.0
 40
1.0
 40
1.0
 40
1.0
 10
2.7435346729
 20
20.6193775662
 30
0.0
 10
2.7605772166
 20
20.6249679808
 30
0.0
 10
2.7975945619
 20
20.6313276733
 30
0.0
 10
2.8551663084
 20
20.6273519439
 30
0.0
 10
2.9140913374
 20
20.6119197881
 30
0.0
 10
2.9523924321
 20
20.5955168536
 30
0.0
 10
2.971408704
 20
20.5860177863
 30
0.0
 11
2.7435346729
 21
20.6193775662
 31
0.0
 11
2.7964693329
 21
20.6290331894
 31
0.0
 11
2.8536952536
 21
20.6257160156
 31
0.0
 11
2.9126427037
 21
20.6107809667
 31
0.0
 11
2.971408704
 21
20.5860177863
 31
0.0
  0
SPLINE
  5
3E1
100
AcDbEntity
  8
RACCORDO
100
AcDbSpline
 62
7
  6
CONTINUOUS
 70
0
 71
3
 72
8
 73
4
 74
2
 42
0.0000001
 43
0.0000001
 44
0.0000000001
 12
-0.0000053732
 22
-0.0031177234
 32
0.0
 13
-0.0019810057
 23
-0.002407456
 33
0.0
 40
0.0
 40
0.0
 40
0.0
 40
0.0
 40
1.0
 40
1.0
 40
1.0
 40
1.0
 10
3.0455793825
 20
15.7619517818
 30
0.0
 10
3.0455775914
 20
15.7609125406
 30
0.0
 10
3.0451844855
 20
15.7598205471
 30
0.0
 10
3.0445241503
 20
15.7590180618
 30
0.0
 11
3.0455793825
 21
15.7619517818
 31
0.0
 11
3.0445241503
 21
15.7590180618
 31
0.0
  0
SPLINE
  5
3E2
100
AcDbEntity
  8
RACCORDO
100
AcDbSpline
 62
7
  6
CONTINUOUS
 70
0
 71
3
 72
14
 73
10
 74
8
 42
0.0000001
 43
0.0000001
 44
0.0000000001
 12
-0.0
 22
0.630991571
 32
0.0
 13
-0.5643681094
 23
0.2822038267
 33
0.0
 40
0.0
 40
0.0
 40
0.0
 40
0.0
 40
0.2891525564
 40
0.4227177506
 40
0.5489643138
 40
0.668508974
 40
0.7824375212
 40
0.892292605
 40
1.0
 40
1.0
 40
1.0
 40
1.0
 10
0.5712814192
 20
22.0173589133
 30
0.0
 10
0.5712814192
 20
22.0781765219
 30
0.0
 10
0.5636949624
 20
22.1675679465
 30
0.0
 10
0.5346955317
 20
22.279554622
 30
0.0
 10
0.505245885
 20
22.3539641126
 30
0.0
 10
0.4678375736
 20
22.4200347271
 30
0.0
 10
0.4228482232
 20
22.4769262863
 30
0.0
 10
0.3708105298
 20
22.5238316488
 30
0.0
 10
0.3316643214
 20
22.548093416
 30
0.0
 10
0.3114021151
 20
22.5582252291
 30
0.0
 11
0.5712814192
 21
22.0173589133
 31
0.0
 11
0.5540039815
 21
22.1989918503
 31
0.0
 11
0.5326057256
 21
22.2805086104
 31
0.0
 11
0.5030161589
 21
22.3544697864
 31
0.0
 11
0.465598052
 21
22.4199665234
 31
0.0
 11
0.4208097844
 21
22.4761971989
 31
0.0
 11
0.369200343
 21
22.5224724585
 31
0.0
 11
0.3114021151
 21
22.5582252291
 31
0.0
  0
SPLINE
  5
3E3
100
AcDbEntity
  8
RACCORDO
100
AcDbSpline
 62
7
  6
CONTINUOUS
 70
0
 71
3
 72
11
 73
7
 74
5
 42
0.0000001
 43
0.0000001
 44
0.0000000001
 12
0.4104598159
 22
0.2008428369
 32
0.0
 13
0.4087143287
 23
-0.2043714832
 33
0.0
 40
0.0
 40
0.0
 40
0.0
 40
0.0
 40
0.2787325875
 40
0.5346772883
 40
0.772449667
 40
1.0
 40
1.0
 40
1.0
 40
1.0
 10
4.1129859175
 20
20.4115629036
 30
0.0
 10
4.151122093
 20
20.4302233848
 30
0.0
 10
4.2273530827
 20
20.4603098342
 30
0.0
 10
4.3440222854
 20
20.4813640084
 30
0.0
 10
4.4548304365
 20
20.4752516141
 30
0.0
 10
4.523041775
 20
20.4524064852
 30
0.0
 10
4.5540428022
 20
20.4369048855
 30
0.0
 11
4.1129859175
 21
20.4115629036
 31
0.0
 11
4.2318319246
 21
20.4573762158
 31
0.0
 11
4.3471108877
 21
20.4771184509
 31
0.0
 11
4.4555454465
 21
20.4702296577
 31
0.0
 11
4.5540428022
 21
20.4369048855
 31
0.0
  0
SPLINE
  5
3E4
100
AcDbEntity
  8
ASSI
100
AcDbSpline
 62
7
  6
CONTINUOUS
 70
0
 71
3
 72
9
 73
5
 74
3
 42
0.0000001
 43
0.0000001
 44
0.0000000001
 12
-0.0000238528
 22
0.0128567558
 32
0.0
 13
-0.0115134851
 23
0.0057215733
 33
0.0
 40
0.0
 40
0.0
 40
0.0
 40
0.0
 40
0.4884036956
 40
1.0
 40
1.0
 40
1.0
 40
1.0
 10
3.4741252324
 20
20.3275808038
 30
0.0
 10
3.4741213491
 20
20.3296738995
 30
0.0
 10
3.4731209522
 20
20.3341484276
 30
0.0
 10
3.4695059855
 20
20.3369751295
 30
0.0
 10
3.4675425667
 20
20.3379508414
 30
0.0
 11
3.4741252324
 21
20.3275808038
 31
0.0
 11
3.4725204793
 21
20.3336515822
 31
0.0
 11
3.4675425667
 21
20.3379508414
 31
0.0
  0
SPLINE
  5
3E5
100
AcDbEntity
  8
ASSI
100
AcDbSpline
 62
7
  6
CONTINUOUS
 70
0
 71
3
 72
9
 73
5
 74
3
 42
0.0000001
 43
0.0000001
 44
0.0000000001
 12
-0.0000282069
 22
0.0128471932
 32
0.0
 13
-0.0115033527
 23
0.0057204934
 33
0.0
 40
0.0
 40
0.0
 40
0.0
 40
0.0
 40
0.4884080599
 40
1.0
 40
1.0
 40
1.0
 40
1.0
 10
-2.0808631683
 20
23.1050800533
 30
0.0
 10
-2.0808677605
 20
23.1071716109
 30
0.0
 10
-2.0818686097
 20
23.111642124
 30
0.0
 10
-2.085479853
 20
23.1144673818
 30
0.0
 10
-2.0874415272
 20
23.1154429012
 30
0.0
 11
-2.0808631683
 21
23.1050800533
 31
0.0
 11
-2.0824680959
 21
23.1111460169
 31
0.0
 11
-2.0874415272
 21
23.1154429012
 31
0.0
  0
SPLINE
  5
3E6
100
AcDbEntity
  8
RACCORDO
100
AcDbSpline
 62
7
  6
CONTINUOUS
 70
0
 71
3
 72
9
 73
5
 74
3
 42
0.0000001
 43
0.0000001
 44
0.0000000001
 12
-0.0110860342
 22
-0.0399468313
 32
0.0
 13
0.0000244836
 23
-0.0414565904
 33
0.0
 40
0.0
 40
0.0
 40
0.0
 40
0.0
 40
0.470196659
 40
1.0
 40
1.0
 40
1.0
 40
1.0
 10
-8.6899583316
 20
20.4533302841
 30
0.0
 10
-8.6916958704
 20
20.4470693285
 30
0.0
 10
-8.6941250528
 20
20.433399456
 30
0.0
 10
-8.6947845813
 20
20.4195684012
 30
0.0
 10
-8.6947802575
 20
20.4122471211
 30
0.0
 11
-8.6899583316
 21
20.4533302841
 31
0.0
 11
-8.6935890136
 21
20.4341786368
 31
0.0
 11
-8.6947802575
 21
20.4122471211
 31
0.0
  0
SPLINE
  5
3E7
100
AcDbEntity
  8
RACCORDO
100
AcDbSpline
 62
7
  6
CONTINUOUS
 70
0
 71
3
 72
12
 73
8
 74
6
 42
0.0000001
 43
0.0000001
 44
0.0000000001
 12
0.0002238523
 22
-0.3790359227
 32
0.0
 13
0.2339640663
 23
-0.2982098196
 33
0.0
 40
0.0
 40
0.0
 40
0.0
 40
0.0
 40
0.1015870176
 40
0.2135875906
 40
0.4591399651
 40
0.7237133738
 40
1.0
 40
1.0
 40
1.0
 40
1.0
 10
-8.6947802575
 20
20.4122471211
 30
0.0
 10
-8.6947726774
 20
20.3994120782
 30
0.0
 10
-8.6925155332
 20
20.3724178224
 30
0.0
 10
-8.6810468496
 20
20.3154702367
 30
0.0
 10
-8.6547011861
 20
20.2409927637
 30
0.0
 10
-8.6088144067
 20
20.1526007625
 30
0.0
 10
-8.5698802089
 20
20.0961807396
 30
0.0
 10
-8.5483331614
 20
20.0687169446
 30
0.0
 11
-8.6947802575
 21
20.4122471211
 31
0.0
 11
-8.6919292913
 21
20.373847675
 31
0.0
 11
-8.683773423
 21
20.33218624
 31
0.0
 11
-8.6536153069
 21
20.2441345155
 31
0.0
 11
-8.6077330445
 21
20.1549635184
 31
0.0
 11
-8.5483331614
 21
20.0687169446
 31
0.0
  0
SPLINE
  5
3E8
100
AcDbEntity
  8
RACCORDO
100
AcDbSpline
 62
253
  6
CONTINUOUS
 70
0
 71
3
 72
11
 73
7
 74
5
 42
0.0000001
 43
0.0000001
 44
0.0000000001
 12
-0.1026843425
 22
0.0513470616
 32
0.0
 13
-0.1029781233
 23
-0.0507553057
 33
0.0
 40
0.0
 40
0.0
 40
0.0
 40
0.0
 40
0.2274030322
 40
0.4651083369
 40
0.721100729
 40
1.0
 40
1.0
 40
1.0
 40
1.0
 10
-10.4569354958
 20
23.1031308044
 30
0.0
 10
-10.4647190727
 20
23.1070229636
 30
0.0
 10
-10.481854684
 20
23.1127488241
 30
0.0
 10
-10.5096919736
 20
23.1142361045
 30
0.0
 10
-10.5389977385
 20
23.1088752327
 30
0.0
 10
-10.5581367992
 20
23.1012597491
 30
0.0
 10
-10.5677103071
 20
23.0965412099
 30
0.0
 11
-10.4569354958
 21
23.1031308044
 31
0.0
 11
-10.4816709958
 21
23.1114825585
 31
0.0
 11
-10.5089090668
 21
23.1131681882
 31
0.0
 11
-10.5378654011
 21
23.1081399845
 31
0.0
 11
-10.5677103071
 21
23.0965412099
 31
0.0
  0
SPLINE
  5
3E9
100
AcDbEntity
  8
RACCORDO
100
AcDbSpline
 62
253
  6
CONTINUOUS
 70
0
 71
3
 72
11
 73
7
 74
5
 42
0.0000001
 43
0.0000001
 44
0.0000000001
 12
-0.0000013331
 22
-0.1191821839
 32
0.0
 13
-0.1063496853
 23
-0.0537971877
 33
0.0
 40
0.0
 40
0.0
 40
0.0
 40
0.0
 40
0.2069628811
 40
0.4350650041
 40
0.6978063725
 40
1.0
 40
1.0
 40
1.0
 40
1.0
 10
-10.3187387484
 20
22.5319927852
 30
0.0
 10
-10.3187388404
 20
22.5237706892
 30
0.0
 10
-10.3223379647
 20
22.5063547864
 30
0.0
 10
-10.3373873413
 20
22.4825595281
 30
0.0
 10
-10.3608642873
 20
22.4611477423
 30
0.0
 10
-10.380223871
 20
22.4495392101
 30
0.0
 10
-10.3909366034
 20
22.4441201543
 30
0.0
 11
-10.3187387484
 21
22.5319927852
 31
0.0
 11
-10.3234719356
 21
22.5077848793
 31
0.0
 11
-10.3374922442
 21
22.4844933845
 31
0.0
 11
-10.3602663768
 21
22.4630012668
 31
0.0
 11
-10.3909366034
 21
22.4441201543
 31
0.0
  0
SPLINE
  5
3EA
100
AcDbEntity
  8
RACCORDO
100
AcDbSpline
 62
253
  6
CONTINUOUS
 70
0
 71
3
 72
11
 73
7
 74
5
 42
0.0000001
 43
0.0000001
 44
0.0000000001
 12
-0.0000014429
 22
-0.119182188
 32
0.0
 13
-0.1063496889
 23
-0.0537971895
 33
0.0
 40
0.0
 40
0.0
 40
0.0
 40
0.0
 40
0.2069627842
 40
0.4350648191
 40
0.6978060254
 40
1.0
 40
1.0
 40
1.0
 40
1.0
 10
-10.3187387488
 20
22.8795243065
 30
0.0
 10
-10.3187388483
 20
22.871302214
 30
0.0
 10
-10.3223379571
 20
22.8538863179
 30
0.0
 10
-10.337387327
 20
22.8300910679
 30
0.0
 10
-10.3608642657
 20
22.8086792687
 30
0.0
 10
-10.3802238583
 20
22.7970707332
 30
0.0
 10
-10.3909366034
 20
22.7916516711
 30
0.0
 11
-10.3187387488
 21
22.8795243065
 31
0.0
 11
-10.3234719312
 21
22.8553164105
 31
0.0
 11
-10.3374922297
 21
22.8320249208
 31
0.0
 11
-10.3602663418
 21
22.810532808
 31
0.0
 11
-10.3909366034
 21
22.7916516711
 31
0.0
  0
SPLINE
  5
3EB
100
AcDbEntity
  8
RACCORDO
100
AcDbSpline
 62
253
  6
CONTINUOUS
 70
0
 71
3
 72
11
 73
7
 74
5
 42
0.0000001
 43
0.0000001
 44
0.0000000001
 12
-0.1026843425
 22
0.0513470616
 32
0.0
 13
-0.1029781233
 23
-0.0507553057
 33
0.0
 40
0.0
 40
0.0
 40
0.0
 40
0.0
 40
0.2274030322
 40
0.4651083369
 40
0.721100729
 40
1.0
 40
1.0
 40
1.0
 40
1.0
 10
-11.7942616563
 20
23.7717938847
 30
0.0
 10
-11.8020452333
 20
23.7756860439
 30
0.0
 10
-11.8191808446
 20
23.7814119043
 30
0.0
 10
-11.8470181341
 20
23.7828991847
 30
0.0
 10
-11.876323899
 20
23.7775383129
 30
0.0
 10
-11.8954629598
 20
23.7699228294
 30
0.0
 10
-11.9050364676
 20
23.7652042901
 30
0.0
 11
-11.7942616563
 21
23.7717938847
 31
0.0
 11
-11.8189971564
 21
23.7801456387
 31
0.0
 11
-11.8462352273
 21
23.7818312685
 31
0.0
 11
-11.8751915617
 21
23.7768030648
 31
0.0
 11
-11.9050364676
 21
23.7652042901
 31
0.0
  0
SPLINE
  5
3EC
100
AcDbEntity
  8
RACCORDO
100
AcDbSpline
 62
253
  6
CONTINUOUS
 70
0
 71
3
 72
13
 73
9
 74
7
 42
0.0000001
 43
0.0000001
 44
0.0000000001
 12
2.0760217395
 22
-1.0380463868
 32
0.0
 13
1.4285220668
 23
-1.8294073545
 33
0.0
 40
0.0
 40
0.0
 40
0.0
 40
0.0
 40
0.115166792
 40
0.2319533868
 40
0.4732131323
 40
0.5990752227
 40
0.7288328799
 40
1.0
 40
1.0
 40
1.0
 40
1.0
 10
-11.3436288548
 20
13.9239974971
 30
0.0
 10
-11.2639326002
 20
13.8841480063
 30
0.0
 10
-11.1076915873
 20
13.7950328936
 30
0.0
 10
-10.8096556385
 20
13.581454854
 30
0.0
 10
-10.5370938018
 20
13.322318241
 30
0.0
 10
-10.2815630341
 20
13.0351331888
 30
0.0
 10
-10.0225292033
 20
12.7203296567
 30
0.0
 10
-9.8335934644
 20
12.4742913361
 30
0.0
 10
-9.7044707261
 20
12.3089329615
 30
0.0
 11
-11.3436288548
 21
13.9239974971
 31
0.0
 11
-11.1112857559
 21
13.7918159604
 31
0.0
 11
-10.8905860652
 21
13.6344276815
 31
0.0
 11
-10.4798615923
 21
13.2537884555
 31
0.0
 11
-10.2849636909
 21
13.0361691839
 31
0.0
 11
-10.0929234828
 21
12.8041592919
 31
0.0
 11
-9.7044707261
 21
12.3089329615
 31
0.0
  0
SPLINE
  5
3ED
100
AcDbEntity
  8
RACCORDO
100
AcDbSpline
 62
253
  6
CONTINUOUS
 70
0
 71
3
 72
15
 73
11
 74
9
 42
0.0000001
 43
0.0000001
 44
0.0000000001
 12
1.9508387372
 22
0.4739130449
 32
0.0
 13
1.795646864
 23
-0.8977848811
 33
0.0
 40
0.0
 40
0.0
 40
0.0
 40
0.0
 40
0.1110676812
 40
0.2288013883
 40
0.3515202956
 40
0.4778234828
 40
0.6065508726
 40
0.7368001314
 40
0.867996417
 40
1.0
 40
1.0
 40
1.0
 40
1.0
 10
-13.3034999583
 20
14.1084475782
 30
0.0
 10
-13.2312749134
 20
14.1259930525
 30
0.0
 10
-13.0810490521
 20
14.1564152386
 30
0.0
 10
-12.8475143242
 20
14.1862537661
 30
0.0
 10
-12.6021894463
 20
14.1992470489
 30
0.0
 10
-12.3492073143
 20
14.1928699285
 30
0.0
 10
-12.0925944016
 20
14.1646656327
 30
0.0
 10
-11.8363817448
 20
14.1122865844
 30
0.0
 10
-11.58458641
 20
14.0337857713
 30
0.0
 10
-11.4226394615
 20
13.9635011041
 30
0.0
 10
-11.3436288548
 20
13.9239974971
 30
0.0
 11
-13.3034999583
 21
14.1084475782
 31
0.0
 11
-13.0850064178
 21
14.1529366762
 31
0.0
 11
-12.8505640441
 21
14.1829796061
 31
0.0
 11
-12.6045383971
 21
14.1959565829
 31
0.0
 11
-12.351060125
 21
14.1893877874
 31
0.0
 11
-12.0942081248
 21
14.1608713026
 31
0.0
 11
-11.8380869488
 21
14.1081781797
 31
0.0
 11
-11.5867163303
 21
14.0295312717
 31
0.0
 11
-11.3436288548
 21
13.9239974971
 31
0.0
  0
SPLINE
  5
3EE
100
AcDbEntity
  8
RACCORDO
100
AcDbSpline
 62
253
  6
CONTINUOUS
 70
0
 71
3
 72
12
 73
8
 74
6
 42
0.0000001
 43
0.0000001
 44
0.0000000001
 12
-2.1967820012
 22
1.0983909409
 32
0.0
 13
-1.5765043822
 23
1.8833342116
 33
0.0
 40
0.0
 40
0.0
 40
0.0
 40
0.0
 40
0.1116313681
 40
0.2291895874
 40
0.4774268208
 40
0.7362897299
 40
1.0
 40
1.0
 40
1.0
 40
1.0
 10
-11.3436288548
 20
-22.9614981758
 30
0.0
 10
-11.4253721149
 20
-22.920626548
 30
0.0
 10
-11.5917216181
 20
-22.8337229647
 30
0.0
 10
-11.932066779
 20
-22.6414402773
 30
0.0
 10
-12.3637721715
 20
-22.3661327981
 30
0.0
 10
-12.8624296032
 20
-21.9776020954
 30
0.0
 10
-13.1649197508
 20
-21.6723417406
 30
0.0
 10
-13.3034998829
 20
-21.506790216
 30
0.0
 11
-11.3436288548
 21
-22.9614981758
 31
0.0
 11
-11.5867161188
 21
-22.8346887252
 31
0.0
 11
-11.838086719
 21
-22.6926358976
 31
0.0
 11
-12.3510600124
 21
-22.3631211364
 31
0.0
 11
-12.8505639242
 21
-21.9697749459
 31
0.0
 11
-13.3034998829
 21
-21.506790216
 31
0.0
  0
SPLINE
  5
3EF
100
AcDbEntity
  8
RACCORDO
100
AcDbSpline
 62
253
  6
CONTINUOUS
 70
0
 71
3
 72
15
 73
11
 74
9
 42
0.0000001
 43
0.0000001
 44
0.0000000001
 12
-1.6678222641
 22
-0.3833958928
 32
0.0
 13
-1.5306529293
 23
0.7653268094
 33
0.0
 40
0.0
 40
0.0
 40
0.0
 40
0.0
 40
0.1161809888
 40
0.2287502165
 40
0.3412661382
 40
0.45706503
 40
0.5790269003
 40
0.7093866453
 40
0.849557315
 40
1.0
 40
1.0
 40
1.0
 40
1.0
 10
-9.7044707996
 20
-23.3063047581
 30
0.0
 10
-9.7690605462
 20
-23.3211525294
 30
0.0
 10
-9.8980160227
 20
-23.3433473716
 30
0.0
 10
-10.0929526612
 20
-23.3525195377
 30
0.0
 10
-10.2873096956
 20
-23.3379109736
 30
0.0
 10
-10.4840261252
 20
-23.3009655262
 30
0.0
 10
-10.6861718809
 20
-23.243241138
 30
0.0
 10
-10.8965782613
 20
-23.1662799884
 30
0.0
 10
-11.1173396966
 20
-23.0715547948
 30
0.0
 10
-11.2668703427
 20
-22.9998774492
 30
0.0
 10
-11.3436288548
 20
-22.9614981758
 30
0.0
 11
-9.7044707996
 21
-23.3063047581
 31
0.0
 11
-9.9004932928
 21
-23.3395584382
 31
0.0
 11
-10.0929234334
 21
-23.348595213
 31
0.0
 11
-10.284963642
 21
-23.3345794417
 31
0.0
 11
-10.4798614795
 21
-23.2987204349
 31
0.0
 11
-10.6807909554
 21
-23.2422426923
 31
0.0
 11
-10.8905857612
 21
-23.1663863747
 31
0.0
 11
-11.1112854941
 21
-23.0724040057
 31
0.0
 11
-11.3436288548
 21
-22.9614981758
 31
0.0
  0
SPLINE
  5
3F0
100
AcDbEntity
  8
RACCORDO
100
AcDbSpline
 62
7
  6
CONTINUOUS
 70
0
 71
3
 72
9
 73
5
 74
3
 42
0.0000001
 43
0.0000001
 44
0.0000000001
 12
-0.0045884295
 22
-0.005576179
 32
0.0
 13
-0.0070425727
 23
-0.0015967554
 33
0.0
 40
0.0
 40
0.0
 40
0.0
 40
0.0
 40
0.2030518491
 40
1.0
 40
1.0
 40
1.0
 40
1.0
 10
3.0445241503
 20
15.7590180618
 30
0.0
 10
3.0442135872
 20
15.758640644
 30
0.0
 10
3.0424122519
 20
15.7570035769
 30
0.0
 10
3.0400016658
 20
15.756256661
 30
0.0
 10
3.0381308107
 20
15.7558324839
 30
0.0
 11
3.0445241503
 21
15.7590180618
 31
0.0
 11
3.0434569389
 21
15.758012526
 31
0.0
 11
3.0381308107
 21
15.7558324839
 31
0.0
  0
SPLINE
  5
3F1
100
AcDbEntity
  8
RACCORDO
100
AcDbSpline
 62
7
  6
CONTINUOUS
 70
0
 71
3
 72
11
 73
7
 74
5
 42
0.0000001
 43
0.0000001
 44
0.0000000001
 12
-0.063720268
 22
-0.0144472324
 32
0.0
 13
-0.0640012744
 23
0.0131465569
 33
0.0
 40
0.0
 40
0.0
 40
0.0
 40
0.0
 40
0.1602693157
 40
0.3822319954
 40
0.6633948103
 40
1.0
 40
1.0
 40
1.0
 40
1.0
 10
3.0381308107
 20
15.7558324839
 30
0.0
 10
3.0347266761
 20
15.7550606678
 30
0.0
 10
3.0263377127
 20
15.7545873568
 30
0.0
 10
3.0119234681
 20
15.7554946579
 30
0.0
 10
2.9937868805
 20
15.7579990904
 30
0.0
 10
2.9805626147
 20
15.7604860057
 30
0.0
 10
2.973381561
 20
15.7619610721
 30
0.0
 11
3.0381308107
 21
15.7558324839
 31
0.0
 11
3.0277064534
 21
15.7548388719
 31
0.0
 11
3.0132224892
 21
15.7555718137
 31
0.0
 11
2.9950088455
 21
15.7579672335
 31
0.0
 11
2.973381561
 21
15.7619610721
 31
0.0
  0
SPLINE
  5
3F2
100
AcDbEntity
  8
RACCORDO
100
AcDbSpline
 62
253
  6
CONTINUOUS
 70
0
 71
3
 72
11
 73
7
 74
5
 42
0.0000001
 43
0.0000001
 44
0.0000000001
 12
-0.1026816329
 22
0.0513348711
 32
0.0
 13
-0.1029710594
 23
-0.0507518241
 33
0.0
 40
0.0
 40
0.0
 40
0.0
 40
0.0
 40
0.2274027353
 40
0.4651090575
 40
0.7211019479
 40
1.0
 40
1.0
 40
1.0
 40
1.0
 10
2.9073755669
 20
16.4209752736
 30
0.0
 10
2.8995922055
 20
16.4248665037
 30
0.0
 10
2.8824573615
 20
16.4305906874
 30
0.0
 10
2.8546219246
 20
16.4320765566
 30
0.0
 10
2.8253183263
 20
16.4267153733
 30
0.0
 10
2.8061806667
 20
16.4191003226
 30
0.0
 10
2.7966078574
 20
16.4143821277
 30
0.0
 11
2.9073755669
 21
16.4209752736
 31
0.0
 11
2.8826411844
 21
16.4293246326
 31
0.0
 11
2.8554047847
 21
16.4310088502
 31
0.0
 11
2.826450505
 21
16.4259802636
 31
0.0
 11
2.7966078574
 21
16.4143821277
 31
0.0
  0
SPLINE
  5
3F3
100
AcDbEntity
  8
RACCORDO
100
AcDbSpline
 62
253
  6
CONTINUOUS
 70
0
 71
3
 72
11
 73
7
 74
5
 42
0.0000001
 43
0.0000001
 44
0.0000000001
 12
-0.0000013698
 22
-0.1191821853
 32
0.0
 13
-0.1063496865
 23
-0.0537971883
 33
0.0
 40
0.0
 40
0.0
 40
0.0
 40
0.0
 40
0.2069627866
 40
0.4350648202
 40
0.69780603
 40
1.0
 40
1.0
 40
1.0
 40
1.0
 10
3.0455794159
 20
16.197365221
 30
0.0
 10
3.0455793214
 20
16.1891431286
 30
0.0
 10
3.0419802047
 20
16.1717272328
 30
0.0
 10
3.0269308372
 20
16.147931984
 30
0.0
 10
3.0034538973
 20
16.1265201862
 30
0.0
 10
2.9840943057
 20
16.1149116508
 30
0.0
 10
2.973381561
 20
16.1094925888
 30
0.0
 11
3.0455794159
 21
16.197365221
 31
0.0
 11
3.040846233
 21
16.1731573254
 31
0.0
 11
3.0268259339
 21
16.149865837
 31
0.0
 11
3.0040518214
 21
16.128373725
 31
0.0
 11
2.973381561
 21
16.1094925888
 31
0.0
  0
SPLINE
  5
3F4
100
AcDbEntity
  8
RACCORDO
100
AcDbSpline
 62
253
  6
CONTINUOUS
 70
0
 71
3
 72
15
 73
11
 74
9
 42
0.0000001
 43
0.0000001
 44
0.0000000001
 12
0.0681871076
 22
2.0876157099
 32
0.0
 13
1.809281988
 23
1.04368938
 33
0.0
 40
0.0
 40
0.0
 40
0.0
 40
0.0
 40
0.1206023547
 40
0.2476914238
 40
0.3788251223
 40
0.5112518259
 40
0.6421263817
 40
0.7687170764
 40
0.8886201105
 40
1.0
 40
1.0
 40
1.0
 40
1.0
 10
-18.9233571685
 20
16.9183772998
 30
0.0
 10
-18.9206159933
 20
17.0023010899
 30
0.0
 10
-18.9022287851
 20
17.174398919
 30
0.0
 10
-18.8413615239
 20
17.4316374636
 30
0.0
 10
-18.7483735862
 20
17.687864983
 30
0.0
 10
-18.6263570298
 20
17.9345183432
 30
0.0
 10
-18.4793689381
 20
18.1634272169
 30
0.0
 10
-18.312241849
 20
18.3670149796
 30
0.0
 10
-18.1305359384
 20
18.538510126
 30
0.0
 10
-17.9980805631
 20
18.6314912174
 30
0.0
 10
-17.9309080204
 20
18.6702398866
 30
0.0
 11
-18.9233571685
 21
16.9183772998
 31
0.0
 11
-18.8976344282
 21
17.1689661862
 31
0.0
 11
-18.8371725551
 21
17.4274434954
 31
0.0
 11
-18.7440286676
 21
17.6850224882
 31
0.0
 11
-18.6213710219
 21
17.9329430319
 31
0.0
 11
-18.4733713111
 21
18.1627746754
 31
0.0
 11
-18.3050631772
 21
18.3667034694
 31
0.0
 11
-18.1221703992
 21
18.5377967247
 31
0.0
 11
-17.9309080204
 21
18.6702398866
 31
0.0
  0
SPLINE
  5
3F5
100
AcDbEntity
  8
RACCORDO
100
AcDbSpline
 62
253
  6
CONTINUOUS
 70
0
 71
3
 72
11
 73
7
 74
5
 42
0.0000001
 43
0.0000001
 44
0.0000000001
 12
-0.1026843522
 22
0.0513470349
 32
0.0
 13
-0.1029781204
 23
-0.0507553043
 33
0.0
 40
0.0
 40
0.0
 40
0.0
 40
0.0
 40
0.2274032722
 40
0.4651087917
 40
0.721101419
 40
1.0
 40
1.0
 40
1.0
 40
1.0
 10
1.5700565059
 20
17.0896348024
 30
0.0
 10
1.56227292
 20
17.0935269637
 30
0.0
 10
1.5451372915
 20
17.0992528272
 30
0.0
 10
1.5172999751
 20
17.1007400992
 30
0.0
 10
1.4879942225
 20
17.0953792153
 30
0.0
 10
1.4688551807
 20
17.0877637354
 30
0.0
 10
1.4592816968
 20
17.0830452079
 30
0.0
 11
1.5700565059
 21
17.0896348024
 31
0.0
 11
1.5453209786
 21
17.0979865597
 31
0.0
 11
1.5180828833
 21
17.0996721818
 31
0.0
 11
1.4891265255
 21
17.0946439603
 31
0.0
 11
1.4592816968
 21
17.0830452079
 31
0.0
  0
SPLINE
  5
3F6
100
AcDbEntity
  8
RACCORDO
100
AcDbSpline
 62
7
  6
CONTINUOUS
 70
0
 71
3
 72
12
 73
8
 74
6
 42
0.0000001
 43
0.0000001
 44
0.0000000001
 12
-0.0056657101
 22
-0.3126393674
 32
0.0
 13
-0.28044652
 23
-0.1382939756
 33
0.0
 40
0.0
 40
0.0
 40
0.0
 40
0.0
 40
0.2898690822
 40
0.5500315745
 40
0.7831900364
 40
0.8928382695
 40
1.0
 40
1.0
 40
1.0
 40
1.0
 10
2.7878666791
 20
-24.2994466473
 30
0.0
 10
2.787319241
 20
-24.3296548095
 30
0.0
 10
2.7814626273
 20
-24.3871068062
 30
0.0
 10
2.7559258708
 20
-24.4653989384
 30
0.0
 10
2.7204797829
 20
-24.5186197494
 30
0.0
 10
2.6852994452
 20
-24.5499511394
 30
0.0
 10
2.6659073212
 20
-24.5618382399
 30
0.0
 10
2.6558896098
 20
-24.5667781805
 30
0.0
 11
2.7878666791
 21
-24.2994466473
 31
0.0
 11
2.7777919176
 21
-24.3895243578
 31
0.0
 11
2.7514534564
 21
-24.4664929991
 31
0.0
 11
2.7101429371
 21
-24.5265662563
 31
0.0
 11
2.6844806998
 21
-24.5493034108
 31
0.0
 11
2.6558896098
 21
-24.5667781805
 31
0.0
  0
SPLINE
  5
3F7
100
AcDbEntity
  8
RACCORDO
100
AcDbSpline
 62
7
  6
CONTINUOUS
 70
0
 71
3
 72
15
 73
11
 74
9
 42
0.0000001
 43
0.0000001
 44
0.0000000001
 12
0.6282661925
 22
-0.3380091682
 32
0.0
 13
0.0131567897
 23
-0.7132990294
 33
0.0
 40
0.0
 40
0.0
 40
0.0
 40
0.0
 40
0.110332849
 40
0.2301792251
 40
0.3574211666
 40
0.4892968079
 40
0.6226575021
 40
0.7542386094
 40
0.8809184243
 40
1.0
 40
1.0
 40
1.0
 40
1.0
 10
2.4450692624
 20
14.2438301849
 30
0.0
 10
2.4681753954
 20
14.2313990134
 30
0.0
 10
2.513955574
 20
14.2008391077
 30
0.0
 10
2.5769359921
 20
14.1433850823
 30
0.0
 10
2.6351229878
 20
14.0742510327
 30
0.0
 10
2.686387387
 20
13.9960067474
 30
0.0
 10
2.7288629727
 20
13.9115134491
 30
0.0
 10
2.7609880329
 20
13.8238687118
 30
0.0
 10
2.7815944145
 20
13.7363085358
 30
0.0
 10
2.7873444353
 20
13.6779061719
 30
0.0
 10
2.7878666791
 20
13.6495925811
 30
0.0
 11
2.4450692624
 21
14.2438301849
 31
0.0
 11
2.5108638984
 21
14.2006224016
 31
0.0
 11
2.5743152944
 21
14.1433134603
 31
0.0
 11
2.6329790819
 21
14.0740384851
 31
0.0
 11
2.6846475319
 21
13.9954131815
 31
0.0
 11
2.7273746001
 21
13.9104046975
 31
0.0
 11
2.7595517672
 21
13.8222190832
 31
0.0
 11
2.7799712309
 21
13.7341801177
 31
0.0
 11
2.7878666791
 21
13.6495925811
 31
0.0
  0
SPLINE
  5
3F8
100
AcDbEntity
  8
RACCORDO
100
AcDbSpline
 62
253
  6
CONTINUOUS
 70
0
 71
3
 72
11
 73
7
 74
5
 42
0.0000001
 43
0.0000001
 44
0.0000000001
 12
-1.0806454044
 22
-0.5701856785
 32
0.0
 13
-1.2216438887
 23
0.0221902497
 33
0.0
 40
0.0
 40
0.0
 40
0.0
 40
0.0
 40
0.2428464037
 40
0.4887495226
 40
0.7403547881
 40
1.0
 40
1.0
 40
1.0
 40
1.0
 10
-8.3092417562
 20
-22.3804630326
 30
0.0
 10
-8.3967187062
 20
-22.4266188798
 30
0.0
 10
-8.5792566595
 20
-22.5077570861
 30
0.0
 10
-8.8693658455
 20
-22.5929345707
 30
0.0
 10
-9.1746750166
 20
-22.641527814
 30
0.0
 10
-9.3833060585
 20
-22.6492484083
 30
0.0
 10
-9.4890373873
 20
-22.6473278776
 30
0.0
 11
-8.3092417562
 21
-22.3804630326
 31
0.0
 11
-8.5803318763
 21
-22.5011003317
 31
0.0
 11
-8.868514753
 21
-22.5860955958
 31
0.0
 11
-9.1720332335
 21
-22.6349348406
 31
0.0
 11
-9.4890373873
 21
-22.6473278776
 31
0.0
  0
LINE
  5
3F9
100
AcDbEntity
  8
RACCORDO
100
AcDbLine
 62
7
  6
CONTINUOUS
 10
1.5550542066
 20
13.7468074858
 11
2.4451143893
 21
14.2438587425
  0
SPLINE
  5
3FA
100
AcDbEntity
  8
RACCORDO
100
AcDbSpline
 62
253
  6
CONTINUOUS
 70
0
 71
3
 72
15
 73
11
 74
9
 42
0.0000001
 43
0.0000001
 44
0.0000000001
 12
-1.2380043089
 22
-0.6758931864
 32
0.0
 13
-0.0474399972
 23
-1.4096934826
 33
0.0
 40
0.0
 40
0.0
 40
0.0
 40
0.0
 40
0.112534462
 40
0.2331195698
 40
0.3599630728
 40
0.490731091
 40
0.6227817411
 40
0.7533762875
 40
0.8798845415
 40
1.0
 40
1.0
 40
1.0
 40
1.0
 10
-2.7100421038
 20
10.6481225741
 30
0.0
 10
-2.7564814867
 20
10.6227688154
 30
0.0
 10
-2.8481260464
 20
10.5616529701
 30
0.0
 10
-2.9741650891
 20
10.4479861511
 30
0.0
 10
-3.0900909245
 20
10.3125447763
 30
0.0
 10
-3.1920473875
 20
10.1598366288
 30
0.0
 10
-3.2766833535
 20
9.9949169494
 30
0.0
 10
-3.3411847614
 20
9.8232441316
 30
0.0
 10
-3.3834046249
 20
9.6505535611
 30
0.0
 10
-3.396142214
 20
9.5348523134
 30
0.0
 10
-3.3980416397
 20
9.4784103204
 30
0.0
 11
-2.7100421038
 21
10.6481225741
 31
0.0
 11
-2.842626406
 21
10.5608513467
 31
0.0
 11
-2.969410207
 21
10.4474735425
 31
0.0
 11
-3.0860856417
 21
10.3118408283
 31
0.0
 11
-3.1886848984
 21
10.1585628
 31
0.0
 11
-3.2737179049
 21
9.992849782
 31
0.0
 11
-3.3382916517
 21
9.8203366193
 31
0.0
 11
-3.3802085743
 21
9.6468909997
 31
0.0
 11
-3.3980416397
 21
9.4784103204
 31
0.0
  0
SPLINE
  5
3FB
100
AcDbEntity
  8
RACCORDO
100
AcDbSpline
 62
253
  6
CONTINUOUS
 70
0
 71
3
 72
15
 73
11
 74
9
 42
0.0000001
 43
0.0000001
 44
0.0000000001
 12
-1.8329896249
 22
-1.0115094631
 32
0.0
 13
-0.0699963793
 23
-2.0923916616
 33
0.0
 40
0.0
 40
0.0
 40
0.0
 40
0.0
 40
0.1123109045
 40
0.2327645042
 40
0.3595598642
 40
0.4903491443
 40
0.6224727563
 40
0.7531712877
 40
0.8797911905
 40
1.0
 40
1.0
 40
1.0
 40
1.0
 10
-3.068558189
 20
11.2390649709
 30
0.0
 10
-3.1371797633
 20
11.2011971234
 30
0.0
 10
-3.2725778919
 20
11.1099952219
 30
0.0
 10
-3.4586989346
 20
10.9406529235
 30
0.0
 10
-3.6298833798
 20
10.7390206239
 30
0.0
 10
-3.7804371548
 20
10.5118101814
 30
0.0
 10
-3.90541221
 20
10.2665437329
 30
0.0
 10
-4.0006544927
 20
10.0113404479
 30
0.0
 10
-4.0629951782
 20
9.7547262057
 30
0.0
 10
-4.081808717
 20
9.5828467411
 30
0.0
 10
-4.0846134441
 20
9.4990054376
 30
0.0
 11
-3.068558189
 21
11.2390649709
 31
0.0
 11
-3.2643698447
 21
11.1088964474
 31
0.0
 11
-3.4516128744
 21
10.939978318
 31
0.0
 11
-3.6239243406
 21
10.7380511901
 31
0.0
 11
-3.7754443372
 21
10.5099796896
 31
0.0
 11
-3.9010194889
 21
10.2635178988
 31
0.0
 11
-3.9963788728
 21
10.0070466543
 31
0.0
 11
-4.0582788775
 21
9.7492884108
 31
0.0
 11
-4.0846134441
 21
9.4990054376
 31
0.0
  0
SPLINE
  5
3FC
100
AcDbEntity
  8
RACCORDO
100
AcDbSpline
 62
253
  6
CONTINUOUS
 70
0
 71
3
 72
15
 73
11
 74
9
 42
0.0000001
 43
0.0000001
 44
0.0000000001
 12
-0.0318857421
 22
0.7171983036
 32
0.0
 13
-0.6372379194
 23
0.3306326379
 33
0.0
 40
0.0
 40
0.0
 40
0.0
 40
0.0
 40
0.1182341878
 40
0.2445920213
 40
0.3762598592
 40
0.5099675801
 40
0.6422895236
 40
0.7699078884
 40
0.8898863776
 40
1.0
 40
1.0
 40
1.0
 40
1.0
 10
-2.7100421038
 20
10.6481225741
 30
0.0
 10
-2.7112987654
 20
10.6763883604
 30
0.0
 10
-2.7186386084
 20
10.7347029962
 30
0.0
 10
-2.7416263096
 20
10.8219796475
 30
0.0
 10
-2.7761645664
 20
10.9093562869
 30
0.0
 10
-2.8209653338
 20
10.9935451768
 30
0.0
 10
-2.8743480768
 20
11.0714058275
 30
0.0
 10
-2.9343348643
 20
11.1400337312
 30
0.0
 10
-2.9986744921
 20
11.1968662472
 30
0.0
 10
-3.0451686638
 20
11.2269292518
 30
0.0
 10
-3.068558189
 20
11.2390649709
 30
0.0
 11
-2.7100421038
 21
10.6481225741
 31
0.0
 11
-2.7201715515
 21
10.7323971204
 31
0.0
 11
-2.7429771044
 21
10.8201967839
 31
0.0
 11
-2.7775841105
 21
10.9081591295
 31
0.0
 11
-2.8226644011
 21
10.992904544
 31
0.0
 11
-2.876486897
 21
11.0711806845
 31
0.0
 11
-2.9369863882
 21
11.1399824668
 31
0.0
 11
-3.0018378557
 21
11.1966679517
 31
0.0
 11
-3.068558189
 21
11.2390649709
 31
0.0
  0
SPLINE
  5
3FD
100
AcDbEntity
  8
RACCORDO
100
AcDbSpline
 62
253
  6
CONTINUOUS
 70
0
 71
3
 72
15
 73
11
 74
9
 42
0.0000001
 43
0.0000001
 44
0.0000000001
 12
-0.6465331564
 22
-0.2801324126
 32
0.0
 13
-0.6299959326
 23
0.3155699857
 33
0.0
 40
0.0
 40
0.0
 40
0.0
 40
0.0
 40
0.111849354
 40
0.2344080018
 40
0.364618772
 40
0.4988638171
 40
0.6332637546
 40
0.7639293112
 40
0.8872119581
 40
1.0
 40
1.0
 40
1.0
 40
1.0
 10
-3.3980416397
 20
9.4784103204
 30
0.0
 10
-3.4221464117
 20
9.4679661106
 30
0.0
 10
-3.4744024391
 20
9.4500131174
 30
0.0
 10
-3.558272427
 20
9.4319600047
 30
0.0
 10
-3.6487750966
 20
9.422012417
 30
0.0
 10
-3.7425744044
 20
9.4205566626
 30
0.0
 10
-3.8362235749
 20
9.4276452308
 30
0.0
 10
-3.9262800765
 20
9.4430190909
 30
0.0
 10
-4.00942401
 20
9.4660924199
 30
0.0
 10
-4.0609281081
 20
9.4871412641
 30
0.0
 10
-4.084613444
 20
9.4990054376
 30
0.0
 11
-3.3980416397
 21
9.4784103204
 31
0.0
 11
-3.4723936125
 21
9.452278384
 31
0.0
 11
-3.5567397092
 21
9.4337537036
 31
0.0
 11
-3.6479164906
 21
9.4235300148
 31
0.0
 11
-3.7424947873
 21
9.4219929455
 31
0.0
 11
-3.8369201043
 21
9.4291995624
 31
0.0
 11
-3.9276436716
 21
9.4448797221
 31
0.0
 11
-4.0112534042
 21
9.4684425791
 31
0.0
 11
-4.084613444
 21
9.4990054376
 31
0.0
  0
SPLINE
  5
3FE
100
AcDbEntity
  8
RACCORDO
100
AcDbSpline
 62
253
  6
CONTINUOUS
 70
0
 71
3
 72
18
 73
14
 74
12
 42
0.0000001
 43
0.0000001
 44
0.0000000001
 12
0.0361657882
 22
-1.0396994142
 32
0.0
 13
0.9592539184
 23
0.4026347677
 33
0.0
 40
0.0
 40
0.0
 40
0.0
 40
0.0
 40
0.1464028952
 40
0.2804158638
 40
0.4031528167
 40
0.461335392
 40
0.5180567944
 40
0.5739992254
 40
0.6299000506
 40
0.6864996055
 40
0.7444881178
 40
0.8666676363
 40
1.0
 40
1.0
 40
1.0
 40
1.0
 10
-3.3980416397
 20
-26.1019266121
 30
0.0
 10
-3.3962767144
 20
-26.1526649469
 30
0.0
 10
-3.3855290621
 20
-26.2498708504
 30
0.0
 10
-3.3445194041
 20
-26.3844558764
 30
0.0
 10
-3.2896087461
 20
-26.4802832226
 30
0.0
 10
-3.2349450792
 20
-26.5422672954
 30
0.0
 10
-3.1897557387
 20
-26.5809035404
 30
0.0
 10
-3.1400652192
 20
-26.6120935027
 30
0.0
 10
-3.0863331405
 20
-26.6355444498
 30
0.0
 10
-3.0290612745
 20
-26.6510405539
 30
0.0
 10
-2.9473330293
 20
-26.6611230209
 30
0.0
 10
-2.8377660386
 20
-26.6522298083
 30
0.0
 10
-2.7526753012
 20
-26.6251401854
 30
0.0
 10
-2.7100421038
 20
-26.6072454369
 30
0.0
 11
-3.3980416397
 21
-26.1019266121
 31
0.0
 11
-3.3802085537
 21
-26.2531860688
 31
0.0
 11
-3.3382916458
 21
-26.3861530015
 31
0.0
 11
-3.2737179023
 21
-26.4963080264
 31
0.0
 11
-3.2335932536
 21
-26.54162656
 31
0.0
 11
-3.1886849024
 21
-26.5799056337
 31
0.0
 11
-3.1393756061
 21
-26.6108193458
 31
0.0
 11
-3.0860856508
 21
-26.6341047219
 31
0.0
 11
-3.029269091
 21
-26.6495637643
 31
0.0
 11
-2.9694102187
 21
-26.6570652837
 31
0.0
 11
-2.8426264241
 21
-26.6480094151
 31
0.0
 11
-2.7100421038
 21
-26.6072454369
 31
0.0
  0
SPLINE
  5
3FF
100
AcDbEntity
  8
RACCORDO
100
AcDbSpline
 62
253
  6
CONTINUOUS
 70
0
 71
3
 72
14
 73
10
 74
8
 42
0.0000001
 43
0.0000001
 44
0.0000000001
 12
0.031036571
 22
-0.8974276818
 32
0.0
 13
0.8030922295
 23
-0.4017245121
 33
0.0
 40
0.0
 40
0.0
 40
0.0
 40
0.0
 40
0.2860925691
 40
0.4187593499
 40
0.5446729048
 40
0.6645039519
 40
0.7793197205
 40
0.8905674376
 40
1.0
 40
1.0
 40
1.0
 40
1.0
 10
-4.0846134441
 20
-26.11623443
 30
0.0
 10
-4.0816536667
 20
-26.2018168937
 30
0.0
 10
-4.0665942775
 20
-26.3273797722
 30
0.0
 10
-4.0204152013
 20
-26.4840454845
 30
0.0
 10
-3.9753231528
 20
-26.5882995924
 30
0.0
 10
-3.9193580935
 20
-26.6809955216
 30
0.0
 10
-3.8530517748
 20
-26.7610570745
 30
0.0
 10
-3.7771368443
 20
-26.8274565837
 30
0.0
 10
-3.7204864572
 20
-26.8621566628
 30
0.0
 10
-3.6911916437
 20
-26.8768105771
 30
0.0
 11
-4.0846134441
 21
-26.11623443
 31
0.0
 11
-4.0515344003
 21
-26.370996755
 31
0.0
 11
-4.0175026546
 21
-26.485162433
 31
0.0
 11
-3.9722722341
 21
-26.5887872318
 31
0.0
 11
-3.9163473063
 21
-26.6807166683
 31
0.0
 11
-3.8503512126
 21
-26.7599266328
 31
0.0
 11
-3.775019488
 21
-26.8255348301
 31
0.0
 11
-3.6911916437
 21
-26.8768105771
 31
0.0
  0
SPLINE
  5
400
100
AcDbEntity
  8
RACCORDO
100
AcDbSpline
 62
253
  6
CONTINUOUS
 70
0
 71
3
 72
15
 73
11
 74
9
 42
0.0000001
 43
0.0000001
 44
0.0000000001
 12
-0.6251621197
 22
-0.3328390628
 32
0.0
 13
-0.6336876951
 23
0.3163059006
 33
0.0
 40
0.0
 40
0.0
 40
0.0
 40
0.0
 40
0.114780634
 40
0.2389963624
 40
0.3697513061
 40
0.5036352211
 40
0.6370195594
 40
0.766310532
 40
0.8882056498
 40
1.0
 40
1.0
 40
1.0
 40
1.0
 10
-3.3980416397
 20
-26.1019266121
 30
0.0
 10
-3.4219604745
 20
-26.114661105
 30
0.0
 10
-3.4739096352
 20
-26.1372328955
 30
0.0
 10
-3.5578675626
 20
-26.1617738223
 30
0.0
 10
-3.6484569979
 20
-26.1776960909
 30
0.0
 10
-3.7423431289
 20
-26.1843988941
 30
0.0
 10
-3.8360835415
 20
-26.1816415919
 30
0.0
 10
-3.9262453931
 20
-26.1695206445
 30
0.0
 10
-4.00951395
 20
-26.1484972943
 30
0.0
 10
-4.0609990141
 20
-26.1280213934
 30
0.0
 10
-4.0846132488
 20
-26.1162343225
 30
0.0
 11
-3.3980416397
 21
-26.1019266121
 31
0.0
 11
-3.4723936135
 21
-26.1347943122
 31
0.0
 11
-3.5567396997
 21
-26.1598012205
 31
0.0
 11
-3.6479164601
 21
-26.1760105917
 31
0.0
 11
-3.7424947273
 21
-26.18281156
 31
0.0
 11
-3.8369200092
 21
-26.1799493017
 31
0.0
 11
-3.9276435395
 21
-26.1675306143
 31
0.0
 11
-4.0112532373
 21
-26.1460237971
 31
0.0
 11
-4.0846132488
 21
-26.1162343225
 31
0.0
  0
SPLINE
  5
401
100
AcDbEntity
  8
ASSI
100
AcDbSpline
 62
7
  6
CONTINUOUS
 70
0
 71
3
 72
9
 73
5
 74
3
 42
0.0000001
 43
0.0000001
 44
0.0000000001
 12
-0.0459691931
 22
-0.0150791366
 32
0.0
 13
-0.0435168955
 23
-0.0211382799
 33
0.0
 40
0.0
 40
0.0
 40
0.0
 40
0.0
 40
0.2440121119
 40
1.0
 40
1.0
 40
1.0
 40
1.0
 10
-2.2062127954
 20
23.0942513004
 30
0.0
 10
-2.2099518087
 20
23.0930248031
 30
0.0
 10
-2.2251829065
 20
23.0877202375
 30
0.0
 10
-2.2400329896
 20
23.0813379476
 30
0.0
 10
-2.2509990716
 20
23.0760111864
 30
0.0
 11
-2.2062127954
 21
23.0942513004
 31
0.0
 11
-2.2173622671
 21
23.0903718768
 31
0.0
 11
-2.2509990716
 21
23.0760111864
 31
0.0
  0
SPLINE
  5
402
100
AcDbEntity
  8
RACCORDO
100
AcDbSpline
 62
253
  6
CONTINUOUS
 70
0
 71
3
 72
12
 73
8
 74
6
 42
0.0000001
 43
0.0000001
 44
0.0000000001
 12
-0.0140793898
 22
-0.3302806359
 32
0.0
 13
-0.3048158199
 23
-0.1279485976
 33
0.0
 40
0.0
 40
0.0
 40
0.0
 40
0.0
 40
0.2890978441
 40
0.5488670609
 40
0.7821082425
 40
0.892142372
 40
1.0
 40
1.0
 40
1.0
 40
1.0
 10
-2.7100421038
 20
-26.6072454369
 30
0.0
 10
-2.7113988775
 20
-26.6390732435
 30
0.0
 10
-2.7193006784
 20
-26.6995203183
 30
0.0
 10
-2.7492960983
 20
-26.7811924716
 30
0.0
 10
-2.7894292397
 20
-26.835702748
 30
0.0
 10
-2.828492883
 20
-26.8668260608
 30
0.0
 10
-2.8498145186
 20
-26.8782166244
 30
0.0
 10
-2.8607734224
 20
-26.8828167018
 30
0.0
 11
-2.7100421038
 21
-26.6072454369
 31
0.0
 11
-2.7233706735
 21
-26.7018815833
 31
0.0
 11
-2.754173179
 21
-26.7820418174
 31
0.0
 11
-2.8008045442
 21
-26.843447827
 31
0.0
 11
-2.829307258
 21
-26.8660475321
 31
0.0
 11
-2.8607734224
 21
-26.8828167018
 31
0.0
  0
SPLINE
  5
403
100
AcDbEntity
  8
RACCORDO
100
AcDbSpline
 62
253
  6
CONTINUOUS
 70
0
 71
3
 72
33
 73
29
 74
27
 42
0.0000001
 43
0.0000001
 44
0.0000000001
 12
13.8992410915
 22
-6.9496874223
 32
0.0
 13
-15.5376214772
 23
0.2633951746
 33
0.0
 40
0.0
 40
0.0
 40
0.0
 40
0.0
 40
0.0625346049
 40
0.0956530452
 40
0.1298787305
 40
0.1650985243
 40
0.2011798456
 40
0.2752933627
 40
0.3509276599
 40
0.4266538284
 40
0.501028332
 40
0.5726853657
 40
0.6071296613
 40
0.6404697929
 40
0.6726033207
 40
0.703453967
 40
0.7329764497
 40
0.7611617491
 40
0.7880426589
 40
0.8136991891
 40
0.8382629328
 40
0.861918951
 40
0.8849032768
 40
0.9074942733
 40
0.9299972332
 40
0.952724033
 40
0.9759706743
 40
1.0
 40
1.0
 40
1.0
 40
1.0
 10
-11.7647036688
 20
-11.1097052516
 30
0.0
 10
-11.4749758188
 20
-11.2545705706
 30
0.0
 10
-11.0503632758
 20
-11.514857644
 30
0.0
 10
-10.5162028952
 20
-11.9242597393
 30
0.0
 10
-10.1164943887
 20
-12.2748808139
 30
0.0
 10
-9.7285023966
 20
-12.6603889574
 30
0.0
 10
-9.2260802143
 20
-13.2220741734
 30
0.0
 10
-8.6461240415
 20
-13.9929402915
 30
0.0
 10
-8.0443881497
 20
-14.9962631764
 30
0.0
 10
-7.5473714716
 20
-16.0569694738
 30
0.0
 10
-7.1690743283
 20
-17.1437408239
 30
0.0
 10
-6.9586635433
 20
-18.0569136571
 30
0.0
 10
-6.8607205566
 20
-18.7729467474
 30
0.0
 10
-6.8232469871
 20
-19.2895417387
 30
0.0
 10
-6.8210553819
 20
-19.7889041208
 30
0.0
 10
-6.8541918838
 20
-20.2674076449
 30
0.0
 10
-6.9224678281
 20
-20.7215681135
 30
0.0
 10
-7.0254746956
 20
-21.1480886284
 30
0.0
 10
-7.1625915142
 20
-21.5438634783
 30
0.0
 10
-7.3329899549
 20
-21.905981194
 30
0.0
 10
-7.5356270686
 20
-22.2317176377
 30
0.0
 10
-7.7692180647
 20
-22.5185308695
 30
0.0
 10
-8.0321865051
 20
-22.7640775855
 30
0.0
 10
-8.322616291
 20
-22.9662717506
 30
0.0
 10
-8.6382329763
 20
-23.1233870804
 30
0.0
 10
-8.9764918209
 20
-23.234150947
 30
0.0
 10
-9.3345789781
 20
-23.2978017294
 30
0.0
 10
-9.5800175434
 20
-23.3084146944
 30
0.0
 10
-9.7044703993
 20
-23.3063049583
 30
0.0
 11
-11.7647036688
 21
-11.1097052516
 31
0.0
 11
-10.9331235038
 21
-11.6125254169
 31
0.0
 11
-10.5242681616
 21
-11.9251079215
 31
0.0
 11
-10.1240871106
 21
-12.2754398663
 31
0.0
 11
-9.7355254435
 21
-12.6608857869
 31
0.0
 11
-9.3614334543
 21
-13.0785434783
 31
0.0
 11
-8.667455356
 21
-13.9976940387
 31
0.0
 11
-8.0622828016
 21
-15.0052674716
 31
0.0
 11
-7.5633395711
 21
-16.0710309264
 31
0.0
 11
-7.1848947613
 21
-17.1630846408
 31
0.0
 11
-6.9377079753
 21
-18.2488422802
 31
0.0
 11
-6.8656745297
 21
-18.7792324399
 31
0.0
 11
-6.8287754005
 21
-19.2960175661
 31
0.0
 11
-6.8272716421
 21
-19.7953656282
 31
0.0
 11
-6.8611747273
 21
-20.2735798859
 31
0.0
 11
-6.9302464125
 21
-20.7271255456
 31
0.0
 11
-7.0340004516
 21
-21.1526547447
 31
0.0
 11
-7.1717055577
 21
-21.5470299748
 31
0.0
 11
-7.342389523
 21
-21.9073460311
 31
0.0
 11
-7.5448446625
 21
-22.2309503813
 31
0.0
 11
-7.777634565
 21
-22.5154618159
 31
0.0
 11
-8.0391019544
 21
-22.7587875281
 31
0.0
 11
-8.327378249
 21
-22.9591383516
 31
0.0
 11
-8.6403943958
 21
-23.1150417917
 31
0.0
 11
-8.9758961071
 21
-23.2253525377
 31
0.0
 11
-9.3314472977
 21
-23.2892625202
 31
0.0
 11
-9.7044703993
 21
-23.3063049583
 31
0.0
  0
SPLINE
  5
404
100
AcDbEntity
  8
RACCORDO
100
AcDbSpline
 62
253
  6
CONTINUOUS
 70
0
 71
3
 72
32
 73
28
 74
26
 42
0.0000001
 43
0.0000001
 44
0.0000000001
 12
-10.9406856364
 22
10.5834396009
 32
0.0
 13
13.6149565038
 23
-6.8074044525
 33
0.0
 40
0.0
 40
0.0
 40
0.0
 40
0.0
 40
0.0736416331
 40
0.149859451
 40
0.2272444958
 40
0.3043294822
 40
0.3796798584
 40
0.4519835891
 40
0.4866578418
 40
0.5201842669
 40
0.5524778601
 40
0.5834817112
 40
0.6131715595
 40
0.6415606515
 40
0.668704623
 40
0.6947058016
 40
0.7197159265
 40
0.7439358674
 40
0.7676107192
 40
0.7910191843
 40
0.8144575823
 40
0.8382206101
 40
0.8625823933
 40
0.8877812371
 40
0.9140098798
 40
0.9414115252
 40
1.0
 40
1.0
 40
1.0
 40
1.0
 10
-13.3035002833
 20
-21.5067900158
 30
0.0
 10
-13.5720636024
 20
-21.2469960906
 30
0.0
 10
-14.0869658835
 20
-20.6848449104
 30
0.0
 10
-14.7704987756
 20
-19.7537788532
 30
0.0
 10
-15.3631180604
 20
-18.7419565279
 30
0.0
 10
-15.8470144361
 20
-17.6786669002
 30
0.0
 10
-16.2077262351
 20
-16.594615934
 30
0.0
 10
-16.3993721199
 20
-15.6870506915
 30
0.0
 10
-16.4795056269
 20
-14.9782041362
 30
0.0
 10
-16.5026273226
 20
-14.4683994661
 30
0.0
 10
-16.4894244831
 20
-13.9768366528
 30
0.0
 10
-16.4399584899
 20
-13.5070971868
 30
0.0
 10
-16.354552581
 20
-13.0626316491
 30
0.0
 10
-16.2337772228
 20
-12.6467148139
 30
0.0
 10
-16.0784442043
 20
-12.2624424164
 30
0.0
 10
-15.8896043287
 20
-11.9127263166
 30
0.0
 10
-15.6685589782
 20
-11.6002941941
 30
0.0
 10
-15.4168874301
 20
-11.3276800416
 30
0.0
 10
-15.1364843566
 20
-11.0971886377
 30
0.0
 10
-14.8295833025
 20
-10.9108230967
 30
0.0
 10
-14.4987334755
 20
-10.7701913881
 30
0.0
 10
-14.1467223272
 20
-10.6764335771
 30
0.0
 10
-13.7764656379
 20
-10.6302076937
 30
0.0
 10
-13.3909452747
 20
-10.6317237958
 30
0.0
 10
-12.9930858627
 20
-10.680824889
 30
0.0
 10
-12.4381154076
 20
-10.8118967325
 30
0.0
 10
-12.0305968477
 20
-10.9767601035
 30
0.0
 10
-11.7647036688
 20
-11.1097052516
 30
0.0
 11
-13.3035002833
 21
-21.5067900158
 31
0.0
 11
-14.0626265881
 21
-20.6819873044
 31
0.0
 11
-14.7503853405
 21
-19.7476348126
 31
0.0
 11
-15.3459246615
 21
-18.731316779
 31
0.0
 11
-15.8311560494
 21
-17.6629627812
 31
0.0
 11
-16.1913164653
 21
-16.5739967541
 31
0.0
 11
-16.4154299007
 21
-15.4964523177
 31
0.0
 11
-16.4741620689
 21
-14.9719204345
 31
0.0
 11
-16.4966532211
 21
-14.4620786763
 31
0.0
 11
-16.4827306929
 21
-13.9707043791
 31
0.0
 11
-16.4325006582
 21
-13.5014459603
 31
0.0
 11
-16.3463475128
 21
-13.0577962485
 31
0.0
 11
-16.2249310629
 21
-12.6430665131
 31
0.0
 11
-16.0691814053
 21
-12.260361362
 31
0.0
 11
-15.8802916045
 21
-11.9125549293
 31
0.0
 11
-15.6597085163
 21
-11.6022682896
 31
0.0
 11
-15.409120806
 21
-11.331848477
 31
0.0
 11
-15.1304449824
 21
-11.1033497195
 31
0.0
 11
-14.8258099414
 21
-10.9185167553
 31
0.0
 11
-14.4975394788
 21
-10.7787700185
 31
0.0
 11
-14.1481335089
 21
-10.6851934609
 31
0.0
 11
-13.7802479659
 21
-10.6385245347
 31
0.0
 11
-13.3966729029
 21
-10.6391469807
 31
0.0
 11
-13.0003104065
 21
-10.6870868046
 31
0.0
 11
-12.5941491925
 21
-10.7820125937
 31
0.0
 11
-11.7647036688
 21
-11.1097052516
 31
0.0
  0
SPLINE
  5
405
100
AcDbEntity
  8
RACCORDO
100
AcDbSpline
 62
253
  6
CONTINUOUS
 70
0
 71
3
 72
15
 73
11
 74
9
 42
0.0000001
 43
0.0000001
 44
0.0000000001
 12
-2.6387910574
 22
-1.392379041
 32
0.0
 13
-2.6686262206
 23
1.3343057121
 33
0.0
 40
0.0
 40
0.0
 40
0.0
 40
0.0
 40
0.1125640558
 40
0.2264175561
 40
0.3429498078
 40
0.4633769025
 40
0.5886863088
 40
0.7196129247
 40
0.8566352028
 40
1.0
 40
1.0
 40
1.0
 40
1.0
 10
-8.5544613865
 20
-10.2123559622
 30
0.0
 10
-8.6534723944
 20
-10.2645999062
 30
0.0
 10
-8.8605342291
 20
-10.3554138947
 30
0.0
 10
-9.1902791707
 20
-10.4467142226
 30
0.0
 10
-9.5371871316
 20
-10.4928327637
 30
0.0
 10
-9.8984178083
 20
-10.4935655229
 30
0.0
 10
-10.2712193392
 20
-10.4491365306
 30
0.0
 10
-10.6528053448
 20
-10.3600648635
 30
0.0
 10
-11.0403342148
 20
-10.2271881942
 30
0.0
 10
-11.2950578743
 20
-10.1126821701
 30
0.0
 10
-11.4225868933
 20
-10.0489180141
 30
0.0
 11
-8.5544613865
 21
-10.2123559622
 31
0.0
 11
-8.8619842574
 21
-10.3473491779
 31
0.0
 11
-9.189243689
 21
-10.4384189046
 31
0.0
 11
-9.5338093235
 21
-10.4849027809
 31
0.0
 11
-9.8931135498
 21
-10.4864749453
 31
0.0
 11
-10.2644690923
 21
-10.4431474964
 31
0.0
 11
-10.6450900267
 21
-10.35526832
 31
0.0
 11
-11.0321017255
 21
-10.2235232779
 31
0.0
 11
-11.4225868933
 21
-10.0489180141
 31
0.0
  0
SPLINE
  5
406
100
AcDbEntity
  8
RACCORDO
100
AcDbSpline
 62
253
  6
CONTINUOUS
 70
0
 71
3
 72
31
 73
27
 74
25
 42
0.0000001
 43
0.0000001
 44
0.0000000001
 12
-14.1732954195
 22
7.0867222846
 32
0.0
 13
15.8462591869
 23
-0.0023599503
 33
0.0
 40
0.0
 40
0.0
 40
0.0
 40
0.0
 40
0.0612451343
 40
0.0936402071
 40
0.1271030794
 40
0.1967688866
 40
0.2692487832
 40
0.343317565
 40
0.4176558398
 40
0.4909397233
 40
0.5619270143
 40
0.6295447069
 40
0.6618450683
 40
0.6930279257
 40
0.723051149
 40
0.7519032412
 40
0.7796072931
 40
0.8062246802
 40
0.8318579283
 40
0.856651873
 40
0.8807920152
 40
0.904499037
 40
0.9280189493
 40
0.9516096422
 40
0.9755247064
 40
1.0
 40
1.0
 40
1.0
 40
1.0
 10
-11.7647036688
 20
1.6511297589
 30
0.0
 10
-12.0540521293
 20
1.7958055115
 30
0.0
 10
-12.477508183
 20
2.0565784473
 30
0.0
 10
-13.0084258473
 20
2.4679594362
 30
0.0
 10
-13.5434303521
 20
2.9443851667
 30
0.0
 10
-14.1745739704
 20
3.6275866299
 30
0.0
 10
-14.8482678896
 20
4.5526689029
 30
0.0
 10
-15.428642193
 20
5.567487829
 30
0.0
 10
-15.8983059259
 20
6.6426365349
 30
0.0
 10
-16.2431969823
 20
7.74718434
 30
0.0
 10
-16.4528903504
 20
8.8491488583
 30
0.0
 10
-16.5105008473
 20
9.7529814101
 30
0.0
 10
-16.480911293
 20
10.4453752122
 30
0.0
 10
-16.4228411704
 20
10.9363717723
 30
0.0
 10
-16.3289825067
 20
11.4032796532
 30
0.0
 10
-16.1999839579
 20
11.8426829381
 30
0.0
 10
-16.0367475578
 20
12.2513237611
 30
0.0
 10
-15.8404126802
 20
12.6261428727
 30
0.0
 10
-15.6123589958
 20
12.9642787606
 30
0.0
 10
-15.3542161524
 20
13.2630779492
 30
0.0
 10
-15.0678855035
 20
13.5201151559
 30
0.0
 10
-14.755558323
 20
13.7332355206
 30
0.0
 10
-14.4197255131
 20
13.900621897
 30
0.0
 10
-14.063110991
 20
14.0208597717
 30
0.0
 10
-13.6887165978
 20
14.0929982597
 30
0.0
 10
-13.4327809939
 20
14.1084670419
 30
0.0
 10
-13.3035003787
 20
14.1084477884
 30
0.0
 11
-11.7647036688
 21
1.6511297589
 31
0.0
 11
-12.5941491736
 21
2.1550172458
 31
0.0
 11
-13.0003103816
 21
2.4689468128
 31
0.0
 11
-13.3966728793
 21
2.8211880286
 31
0.0
 11
-14.148133482
 21
3.6298881557
 31
0.0
 11
-14.8258099134
 21
4.5571895375
 31
0.0
 11
-15.4091207792
 21
5.5756938029
 31
0.0
 11
-15.8802915755
 21
6.6553434687
 31
0.0
 11
-16.2249310393
 21
7.7642998495
 31
0.0
 11
-16.4325006441
 21
8.8698660741
 31
0.0
 11
-16.4966532186
 21
9.939431359
 31
0.0
 11
-16.4741620729
 21
10.4507768741
 31
0.0
 11
-16.4154299114
 21
10.941405672
 31
0.0
 11
-16.3209068764
 21
11.4076770098
 31
0.0
 11
-16.1913164911
 21
11.8461243864
 31
0.0
 11
-16.0276495418
 21
12.2534805436
 31
0.0
 11
-15.8311560909
 21
12.6267013495
 31
0.0
 11
-15.6033355197
 21
12.9629884233
 31
0.0
 11
-15.3459247193
 21
13.259810316
 31
0.0
 11
-15.0608847404
 21
13.5149223331
 31
0.0
 11
-14.7503854124
 21
13.7263846835
 31
0.0
 11
-14.4167885491
 21
13.8925784971
 31
0.0
 11
-14.0626266757
 21
14.0122193272
 31
0.0
 11
-13.6905941168
 21
14.0843700285
 31
0.0
 11
-13.3035003787
 21
14.1084477884
 31
0.0
  0
SPLINE
  5
407
100
AcDbEntity
  8
RACCORDO
100
AcDbSpline
 62
253
  6
CONTINUOUS
 70
0
 71
3
 72
32
 73
28
 74
26
 42
0.0000001
 43
0.0000001
 44
0.0000000001
 12
10.8199299527
 22
-11.0000163874
 32
0.0
 13
-13.8006486761
 23
6.9002420844
 33
0.0
 40
0.0
 40
0.0
 40
0.0
 40
0.0
 40
0.0720697226
 40
0.1468310111
 40
0.2230266365
 40
0.2992955061
 40
0.3742632217
 40
0.4466336497
 40
0.481502808
 40
0.5153236984
 40
0.5480021837
 40
0.5794699214
 40
0.6096888903
 40
0.638656185
 40
0.6929522338
 40
0.7185670881
 40
0.7433540969
 40
0.7675344757
 40
0.7913654102
 40
0.8151262693
 40
0.8391010239
 40
0.8635598266
 40
0.8887430612
 40
0.9148500744
 40
0.9420334713
 40
0.9703971099
 40
1.0
 40
1.0
 40
1.0
 40
1.0
 10
-9.7044703056
 20
12.3089327513
 30
0.0
 10
-9.4445405221
 20
12.044676708
 30
0.0
 10
-8.9498892079
 20
11.4710794712
 30
0.0
 10
-8.3053450828
 20
10.5194997785
 30
0.0
 10
-7.7584437136
 20
9.4841012239
 30
0.0
 10
-7.3246108943
 20
8.3953842018
 30
0.0
 10
-7.015862357
 20
7.285227558
 30
0.0
 10
-6.868048676
 20
6.3573659401
 30
0.0
 10
-6.8216295112
 20
5.6329188405
 30
0.0
 10
-6.8225588852
 20
5.1111527331
 30
0.0
 10
-6.8588032608
 20
4.6081471895
 30
0.0
 10
-6.9301249905
 20
4.1275987667
 30
0.0
 10
-7.0361357124
 20
3.6728971432
 30
0.0
 10
-7.2186137534
 20
3.1180243483
 30
0.0
 10
-7.4694160764
 20
2.6117246655
 30
0.0
 10
-7.7896435309
 20
2.1774078187
 30
0.0
 10
-8.0543501698
 20
1.8983123882
 30
0.0
 10
-8.3462587791
 20
1.6620538807
 30
0.0
 10
-8.6632273181
 20
1.4705596241
 30
0.0
 10
-9.0027888637
 20
1.325431517
 30
0.0
 10
-9.3622396719
 20
1.2278082883
 30
0.0
 10
-9.7387212532
 20
1.1783544404
 30
0.0
 10
-10.1293067618
 20
1.1772821459
 30
0.0
 10
-10.5310448127
 20
1.2244044033
 30
0.0
 10
-10.9409807374
 20
1.3191968118
 30
0.0
 10
-11.3561012011
 20
1.4607909626
 30
0.0
 10
-11.6285239733
 20
1.5830407227
 30
0.0
 10
-11.7647036688
 20
1.6511297589
 30
0.0
 11
-9.7044703056
 21
12.3089327513
 31
0.0
 11
-8.9758960407
 21
11.4688540173
 31
0.0
 11
-8.3273781911
 21
10.5148810799
 31
0.0
 11
-7.7776345232
 21
9.4756652298
 31
0.0
 11
-7.3423894944
 21
8.3823180652
 31
0.0
 11
-7.0340004352
 21
7.2674663755
 31
0.0
 11
-6.8611747208
 21
6.1642780959
 31
0.0
 11
-6.8272716399
 21
5.6273316781
 31
0.0
 11
-6.8287754018
 21
5.1054924718
 31
0.0
 11
-6.8656745339
 21
4.6026298816
 31
0.0
 11
-6.9377079816
 21
4.122469765
 31
0.0
 11
-7.044366393
 21
3.6685674289
 31
0.0
 11
-7.1848947693
 21
3.2442817383
 31
0.0
 11
-7.5633395812
 21
2.4968674915
 31
0.0
 11
-7.7985621755
 21
2.1792611044
 31
0.0
 11
-8.0622828192
 21
1.9022748305
 31
0.0
 11
-8.3526102913
 21
1.6679502539
 31
0.0
 11
-8.6674553698
 21
1.478012275
 31
0.0
 11
-9.0045442985
 21
1.3338563085
 31
0.0
 11
-9.3614334626
 21
1.236538156
 31
0.0
 11
-9.7355254498
 21
1.1867660092
 31
0.0
 11
-10.1240871124
 21
1.1848951558
 31
0.0
 11
-10.5242681564
 21
1.2309257056
 31
0.0
 11
-10.9331234974
 21
1.3245044297
 31
0.0
 11
-11.347623734
 21
1.464921368
 31
0.0
 11
-11.7647036688
 21
1.6511297589
 31
0.0
  0
SPLINE
  5
408
100
AcDbEntity
  8
RACCORDO
100
AcDbSpline
 62
253
  6
CONTINUOUS
 70
0
 71
3
 72
39
 73
35
 74
33
 42
0.0000001
 43
0.0000001
 44
0.0000000001
 12
15.6915683202
 22
-7.8458618953
 32
0.0
 13
-15.6916361155
 23
7.8457263045
 33
0.0
 40
0.0
 40
0.0
 40
0.0
 40
0.0
 40
0.0309805265
 40
0.0633606522
 40
0.0970637737
 40
0.1319727632
 40
0.1679382003
 40
0.2047839848
 40
0.2423129474
 40
0.2803120949
 40
0.3185576123
 40
0.3568196873
 40
0.3948672809
 40
0.4324729421
 40
0.4694176962
 40
0.505496185
 40
0.5405221623
 40
0.5743343248
 40
0.6068028321
 40
0.6378365489
 40
0.6673909126
 40
0.6954765231
 40
0.7221678288
 40
0.7476104212
 40
0.7720246889
 40
0.7957024969
 40
0.8189934734
 40
0.8422801388
 40
0.8659454689
 40
0.8903402793
 40
0.915758114
 40
0.9424212218
 40
0.970476343
 40
1.0
 40
1.0
 40
1.0
 40
1.0
 10
-11.769936776
 20
1.1976606725
 30
0.0
 10
-11.6078924268
 20
1.1166376952
 30
0.0
 10
-11.2845668314
 20
0.9343624572
 30
0.0
 10
-10.8161854453
 20
0.6125977636
 30
0.0
 10
-10.3576817591
 20
0.239367233
 30
0.0
 10
-9.9134159362
 20
-0.1816915624
 30
0.0
 10
-9.4875249636
 20
-0.6465149523
 30
0.0
 10
-9.0839920002
 20
-1.1506078114
 30
0.0
 10
-8.706577591
 20
-1.689099078
 30
0.0
 10
-8.3587892899
 20
-2.2567839317
 30
0.0
 10
-8.043847844
 20
-2.8481787954
 30
0.0
 10
-7.7646617223
 20
-3.4575778018
 30
0.0
 10
-7.5237998318
 20
-4.0791092414
 30
0.0
 10
-7.3234701313
 20
-4.7067949712
 30
0.0
 10
-7.1655059556
 20
-5.3346118738
 30
0.0
 10
-7.0513518262
 20
-5.9565517293
 30
0.0
 10
-6.9820526136
 20
-6.5666810115
 30
0.0
 10
-6.9582539951
 20
-7.1592006292
 30
0.0
 10
-6.9802048486
 20
-7.7285014702
 30
0.0
 10
-7.0477617583
 20
-8.2692154745
 30
0.0
 10
-7.1604077821
 20
-8.7762579727
 30
0.0
 10
-7.3172720852
 20
-9.2448545322
 30
0.0
 10
-7.5171387618
 20
-9.6705503175
 30
0.0
 10
-7.7584421672
 20
-10.0491982223
 30
0.0
 10
-8.0392188825
 20
-10.376942595
 30
0.0
 10
-8.3570037771
 20
-10.6502517632
 30
0.0
 10
-8.7087308872
 20
-10.8660462548
 30
0.0
 10
-9.0907357605
 20
-11.0219087088
 30
0.0
 10
-9.4989119827
 20
-11.1162718337
 30
0.0
 10
-9.9289561766
 20
-11.1484481409
 30
0.0
 10
-10.3765404617
 20
-11.1185043903
 30
0.0
 10
-10.8373740792
 20
-11.02709921
 30
0.0
 10
-11.30710255
 20
-10.8754352477
 30
0.0
 10
-11.6155119484
 20
-10.7386807832
 30
0.0
 10
-11.769936776
 20
-10.6614692724
 30
0.0
 11
-11.769936776
 21
1.1976606725
 31
0.0
 11
-11.2959115637
 21
0.931751019
 31
0.0
 11
-10.8270994793
 21
0.6109440465
 31
0.0
 11
-10.3679871573
 21
0.2383496903
 31
0.0
 11
-9.922967961
 21
-0.1824040039
 31
0.0
 11
-9.4962730909
 21
-0.6472185068
 31
0.0
 11
-9.0919412618
 21
-1.1515650461
 31
0.0
 11
-8.7137830131
 21
-1.6905314795
 31
0.0
 11
-8.3653455593
 21
-2.258871041
 31
0.0
 11
-8.049882986
 21
-2.8510563127
 31
0.0
 11
-7.7703306716
 21
-3.4613352867
 31
0.0
 11
-7.5292801197
 21
-4.083787752
 31
0.0
 11
-7.3289579643
 21
-4.7123839485
 31
0.0
 11
-7.171210564
 21
-5.3410437624
 31
0.0
 11
-7.0574888396
 21
-5.963695511
 31
0.0
 11
-6.9888358289
 21
-6.5743350592
 31
0.0
 11
-6.96588113
 21
-7.1670825919
 31
0.0
 11
-6.9888358279
 21
-7.7362389849
 31
0.0
 11
-7.0574888368
 21
-8.2763406887
 31
0.0
 11
-7.1712105597
 21
-8.7822097605
 31
0.0
 11
-7.328957959
 21
-9.2490023797
 31
0.0
 11
-7.5292801132
 21
-9.6722558353
 31
0.0
 11
-7.7703306638
 21
-10.047929007
 31
0.0
 11
-8.0498829771
 21
-10.3724385926
 31
0.0
 11
-8.3653455495
 21
-10.6426946166
 31
0.0
 11
-8.7137830023
 21
-10.8561288795
 31
0.0
 11
-9.09194125
 21
-11.0107166547
 31
0.0
 11
-9.4962730791
 21
-11.1049976338
 31
0.0
 11
-9.9229679487
 21
-11.1380907993
 31
0.0
 11
-10.3679871425
 21
-11.1096996133
 31
0.0
 11
-10.8270994641
 21
-11.0201156999
 31
0.0
 11
-11.295911556
 21
-10.8702224611
 31
0.0
 11
-11.769936776
 21
-10.6614692724
 31
0.0
  0
SPLINE
  5
409
100
AcDbEntity
  8
RACCORDO
100
AcDbSpline
 62
253
  6
CONTINUOUS
 70
0
 71
3
 72
39
 73
35
 74
33
 42
0.0000001
 43
0.0000001
 44
0.0000000001
 12
-15.7532799585
 22
7.8767214084
 32
0.0
 13
15.7533476478
 23
-7.8765860297
 33
0.0
 40
0.0
 40
0.0
 40
0.0
 40
0.0
 40
0.0308818969
 40
0.0631935463
 40
0.0968454219
 40
0.1317082708
 40
0.167622001
 40
0.2044017941
 40
0.2418440702
 40
0.2797319674
 40
0.3559065572
 40
0.3937726358
 40
0.4311830578
 40
0.4679274602
 40
0.5038108408
 40
0.5386585695
 40
0.5723216382
 40
0.6046824794
 40
0.6356613569
 40
0.6652232234
 40
0.6794811159
 40
0.6933960263
 40
0.7202342622
 40
0.7458903879
 40
0.7705735874
 40
0.7945571101
 40
0.8181659262
 40
0.8417551219
 40
0.8656818963
 40
0.8902770023
 40
0.9158219154
 40
0.9425350199
 40
0.9705661485
 40
1.0
 40
1.0
 40
1.0
 40
1.0
 10
-11.769936776
 20
-10.6614692724
 30
0.0
 10
-11.9321004984
 20
-10.5803865729
 30
0.0
 10
-12.2560126312
 20
-10.3982411437
 30
0.0
 10
-12.7262035612
 20
-10.0774920921
 30
0.0
 10
-13.1877131228
 20
-9.7058757016
 30
0.0
 10
-13.6360655993
 20
-9.286961265
 30
0.0
 10
-14.0669648132
 20
-8.8247242034
 30
0.0
 10
-14.4762252259
 20
-8.3235669682
 30
0.0
 10
-14.8598907309
 20
-7.7882119326
 30
0.0
 10
-15.3329710867
 20
-7.0345029094
 30
0.0
 10
-15.7382581483
 20
-6.2370145771
 30
0.0
 10
-16.0676851488
 20
-5.4106859154
 30
0.0
 10
-16.2730926024
 20
-4.7854367376
 30
0.0
 10
-16.4352217385
 20
-4.1596212422
 30
0.0
 10
-16.5524774359
 20
-3.5391291737
 30
0.0
 10
-16.6236894541
 20
-2.9298486763
 30
0.0
 10
-16.6481363429
 20
-2.337548544
 30
0.0
 10
-16.6255358967
 20
-1.7678208487
 30
0.0
 10
-16.556063792
 20
-1.2261013516
 30
0.0
 10
-16.4584181986
 20
-0.7971103873
 30
0.0
 10
-16.3568262405
 20
-0.4735718697
 30
0.0
 10
-16.2430292258
 20
-0.1711752084
 30
0.0
 10
-16.0742298926
 20
0.1814275755
 30
0.0
 10
-15.8271373729
 20
0.5628231552
 30
0.0
 10
-15.5401326446
 20
0.8935322003
 30
0.0
 10
-15.2159581476
 20
1.1699166653
 30
0.0
 10
-14.8579162205
 20
1.3888384401
 30
0.0
 10
-14.469871397
 20
1.5477945872
 30
0.0
 10
-14.056105149
 20
1.6450946936
 30
0.0
 10
-13.6211004636
 20
1.6798986231
 30
0.0
 10
-13.1693757069
 20
1.6521269948
 30
0.0
 10
-12.7054024695
 20
1.5623260825
 30
0.0
 10
-12.2336850964
 20
1.4116302615
 30
0.0
 10
-11.924497341
 20
1.2749400937
 30
0.0
 10
-11.769936776
 20
1.1976606725
 30
0.0
 11
-11.769936776
 21
-10.6614692724
 31
0.0
 11
-12.2445995976
 21
-10.3958784234
 31
0.0
 11
-12.7152998385
 21
-10.0760155291
 31
0.0
 11
-13.177478105
 21
-9.704954145
 31
0.0
 11
-13.6266229849
 21
-9.2862632924
 31
0.0
 11
-14.0583443254
 21
-8.8239620245
 31
0.0
 11
-14.4684098873
 21
-8.3224823514
 31
0.0
 11
-14.8527885467
 21
-7.7866261232
 31
0.0
 11
-15.2076938471
 21
-7.2215204848
 31
0.0
 11
-15.8153924863
 21
-6.0253981144
 31
0.0
 11
-16.0621717811
 21
-5.4058100207
 31
0.0
 11
-16.2675145238
 21
-4.7797241176
 31
0.0
 11
-16.4293817201
 21
-4.1531242012
 31
0.0
 11
-16.5461643972
 21
-3.532002929
 31
0.0
 11
-16.616702237
 21
-2.9223057965
 31
0.0
 11
-16.6402933733
 21
-2.3298764847
 31
0.0
 11
-16.6167022381
 21
-1.7604018742
 31
0.0
 11
-16.5461644001
 21
-1.2193577552
 31
0.0
 11
-16.4293817244
 21
-0.7119582066
 31
0.0
 11
-16.3539931545
 21
-0.4724209716
 31
0.0
 11
-16.2675145294
 21
-0.2431056893
 31
0.0
 11
-16.0621717878
 21
0.1826580602
 31
0.0
 11
-15.8153924943
 21
0.5611956036
 31
0.0
 11
-15.5296231058
 21
0.8888137269
 31
0.0
 11
-15.2076938571
 21
1.1623030892
 31
0.0
 11
-14.8527885578
 21
1.3789712755
 31
0.0
 11
-14.4684098994
 21
1.5366692562
 31
0.0
 11
-14.0583443374
 21
1.6338171018
 31
0.0
 11
-13.6266229975
 21
1.6694235025
 31
0.0
 11
-13.1774781202
 21
1.6430951583
 31
0.0
 11
-12.7152998539
 21
1.5550442172
 31
0.0
 11
-12.2445996061
 21
1.4060950563
 31
0.0
 11
-11.769936776
 21
1.1976606725
 31
0.0
  0
SPLINE
  5
40A
100
AcDbEntity
  8
RACCORDO
100
AcDbSpline
 62
253
  6
CONTINUOUS
 70
0
 71
3
 72
15
 73
11
 74
9
 42
0.0000001
 43
0.0000001
 44
0.0000000001
 12
-2.6676353234
 22
-1.4076875193
 32
0.0
 13
-2.6978337348
 23
1.3489090072
 33
0.0
 40
0.0
 40
0.0
 40
0.0
 40
0.0
 40
0.1140392467
 40
0.2289936931
 40
0.3461948356
 40
0.4668313904
 40
0.5918913757
 40
0.7221322505
 40
0.8580704085
 40
1.0
 40
1.0
 40
1.0
 40
1.0
 10
-8.5174328457
 20
2.1047525147
 30
0.0
 10
-8.6188378866
 20
2.0512419733
 30
0.0
 10
-8.830327677
 20
1.9579943759
 30
0.0
 10
-9.1663605379
 20
1.8632432771
 30
0.0
 10
-9.5187234444
 20
1.8141267444
 30
0.0
 10
-9.8845296844
 20
1.8108999434
 30
0.0
 10
-10.2609721839
 20
1.8533762385
 30
0.0
 10
-10.6452161009
 20
1.9410564437
 30
0.0
 10
-11.0343801836
 20
2.0731084668
 30
0.0
 10
-11.2897248727
 20
2.1875517167
 30
0.0
 10
-11.4173590193
 20
2.2513684181
 30
0.0
 11
-8.5174328457
 21
2.1047525147
 31
0.0
 11
-8.832156474
 21
1.9659494846
 31
0.0
 11
-9.1657813558
 21
1.8715123862
 31
0.0
 11
-9.5158253691
 21
1.822132156
 31
0.0
 11
-9.8796756455
 21
1.8181584787
 31
0.0
 11
-10.2546067194
 21
1.8595982744
 31
0.0
 11
-10.6378018612
 21
1.9461179886
 31
0.0
 11
-11.0263634306
 21
2.077041511
 31
0.0
 11
-11.4173590193
 21
2.2513684181
 31
0.0
  0
SPLINE
  5
40B
100
AcDbEntity
  8
RACCORDO
100
AcDbSpline
 62
253
  6
CONTINUOUS
 70
0
 71
3
 72
11
 73
7
 74
5
 42
0.0000001
 43
0.0000001
 44
0.0000000001
 12
-0.1076143396
 22
0.0538071698
 32
0.0
 13
-0.0000116247
 23
0.1203164888
 33
0.0
 40
0.0
 40
0.0
 40
0.0
 40
0.0
 40
0.3025789318
 40
0.5654800689
 40
0.7934320357
 40
1.0
 40
1.0
 40
1.0
 40
1.0
 10
-0.833673041
 20
-26.2732151786
 30
0.0
 10
-0.844526985
 20
-26.2677882066
 30
0.0
 10
-0.8641443111
 20
-26.2561492695
 30
0.0
 10
-0.8879547907
 20
-26.2346304054
 30
0.0
 10
-0.9032343789
 20
-26.2106782149
 30
0.0
 10
-0.9068955426
 20
-26.1931181276
 30
0.0
 10
-0.906896343
 20
-26.1848336169
 30
0.0
 11
-0.833673041
 21
-26.2732151786
 31
0.0
 11
-0.8647627561
 21
-26.2542739342
 31
0.0
 11
-0.8878629268
 21
-26.2326655122
 31
0.0
 11
-0.9020905171
 21
-26.2092180813
 31
0.0
 11
-0.906896343
 21
-26.1848336169
 31
0.0
  0
SPLINE
  5
40C
100
AcDbEntity
  8
RACCORDO
100
AcDbSpline
 62
253
  6
CONTINUOUS
 70
0
 71
3
 72
11
 73
7
 74
5
 42
0.0000001
 43
0.0000001
 44
0.0000000001
 12
-0.0
 22
0.2523287194
 32
0.0
 13
0.1609736043
 23
0.1943123294
 33
0.0
 40
0.0
 40
0.0
 40
0.0
 40
0.0
 40
0.2352285381
 40
0.4870811593
 40
0.7456475008
 40
1.0
 40
1.0
 40
1.0
 40
1.0
 10
0.4913116388
 20
-26.5957335844
 30
0.0
 10
0.4913116388
 20
-26.5759486124
 30
0.0
 10
0.4958424586
 20
-26.5349232675
 30
0.0
 10
0.5135920907
 20
-26.4744934902
 30
0.0
 10
0.5414165076
 20
-26.4162124148
 30
0.0
 10
0.5660519736
 20
-26.3805140194
 30
0.0
 10
0.5796999865
 20
-26.3640394105
 30
0.0
 11
0.4913116388
 21
-26.5957335844
 31
0.0
 11
0.4973352888
 21
-26.5366851155
 31
0.0
 11
0.5149953843
 21
-26.4756385844
 31
0.0
 11
0.5430879882
 21
-26.4167526965
 31
0.0
 11
0.5796999865
 21
-26.3640394105
 31
0.0
  0
SPLINE
  5
40D
100
AcDbEntity
  8
RACCORDO
100
AcDbSpline
 62
253
  6
CONTINUOUS
 70
0
 71
3
 72
13
 73
9
 74
7
 42
0.0000001
 43
0.0000001
 44
0.0000000001
 12
0.3242438587
 22
-0.1621219294
 32
0.0
 13
0.3249922966
 23
0.1606163349
 33
0.0
 40
0.0
 40
0.0
 40
0.0
 40
0.0
 40
0.1125245594
 40
0.2354259647
 40
0.4995815213
 40
0.7639633273
 40
0.8871315091
 40
1.0
 40
1.0
 40
1.0
 40
1.0
 10
0.4913116388
 20
-26.5957335844
 30
0.0
 10
0.5034734379
 20
-26.6018144839
 30
0.0
 10
0.5299701911
 20
-26.6124786003
 30
0.0
 10
0.5884601356
 20
-26.6278659109
 30
0.0
 10
0.6673849751
 20
-26.6353258933
 30
0.0
 10
0.7463598734
 20
-26.6280854894
 30
0.0
 10
0.8049991371
 20
-26.612872631
 30
0.0
 10
0.8316064685
 20
-26.6022891493
 30
0.0
 10
0.8438335985
 20
-26.5962463082
 30
0.0
 11
0.4913116388
 21
-26.5957335844
 31
0.0
 11
0.529045917
 21
-26.611228891
 31
0.0
 11
0.572081494
 21
-26.6227601448
 31
0.0
 11
0.6673611572
 21
-26.6323447079
 31
0.0
 11
0.7627507166
 21
-26.6230374484
 31
0.0
 11
0.805919728
 21
-26.6116315662
 31
0.0
 11
0.8438335985
 21
-26.5962463082
 31
0.0
  0
SPLINE
  5
40E
100
AcDbEntity
  8
RACCORDO
100
AcDbSpline
 62
253
  6
CONTINUOUS
 70
0
 71
3
 72
13
 73
9
 74
7
 42
0.0000001
 43
0.0000001
 44
0.0000000001
 12
0.3242438585
 22
-0.1621219293
 32
0.0
 13
0.3249922964
 23
0.1606163348
 33
0.0
 40
0.0
 40
0.0
 40
0.0
 40
0.0
 40
0.1125245899
 40
0.2354260292
 40
0.4995816495
 40
0.7639634918
 40
0.8871317035
 40
1.0
 40
1.0
 40
1.0
 40
1.0
 10
0.4913116388
 20
-26.9357075185
 30
0.0
 10
0.5034734412
 20
-26.9417884197
 30
0.0
 10
0.5299702018
 20
-26.9524525386
 30
0.0
 10
0.5884601622
 20
-26.9678398501
 30
0.0
 10
0.6673850183
 20
-26.9752998278
 30
0.0
 10
0.7463599326
 20
-26.9680594176
 30
0.0
 10
0.8049991775
 20
-26.9528465482
 30
0.0
 10
0.8316064895
 20
-26.942263073
 30
0.0
 10
0.8438335985
 20
-26.9362202423
 30
0.0
 11
0.4913116388
 21
-26.9357075185
 31
0.0
 11
0.5290459274
 21
-26.9512028286
 31
0.0
 11
0.5720815169
 21
-26.9627340835
 31
0.0
 11
0.6673612037
 21
-26.9723186421
 31
0.0
 11
0.7627507752
 21
-26.9630113711
 31
0.0
 11
0.8059197946
 21
-26.9516054768
 31
0.0
 11
0.8438335985
 21
-26.9362202423
 31
0.0
  0
SPLINE
  5
40F
100
AcDbEntity
  8
RACCORDO
100
AcDbSpline
 62
253
  6
CONTINUOUS
 70
0
 71
3
 72
11
 73
7
 74
5
 42
0.0000001
 43
0.0000001
 44
0.0000000001
 12
0.0
 22
-0.1574238334
 32
0.0
 13
0.1407964518
 23
-0.0704174871
 33
0.0
 40
0.0
 40
0.0
 40
0.0
 40
0.0
 40
0.2897495234
 40
0.549584515
 40
0.7828462997
 40
1.0
 40
1.0
 40
1.0
 40
1.0
 10
0.4913116388
 20
-26.9357075185
 30
0.0
 10
0.4913116388
 20
-26.950912012
 30
0.0
 10
0.4937651079
 20
-26.979860955
 30
0.0
 10
0.5061378382
 20
-27.0194535275
 30
0.0
 10
0.5268013879
 20
-27.0511527218
 30
0.0
 10
0.546087589
 20
-27.0658255288
 30
0.0
 10
0.5562790792
 20
-27.0709226681
 30
0.0
 11
0.4913116388
 21
-26.9357075185
 31
0.0
 11
0.4956310448
 21
-26.9811160238
 31
0.0
 11
0.5083772716
 21
-27.0199836061
 31
0.0
 11
0.528928076
 21
-27.0504153931
 31
0.0
 11
0.5562790792
 21
-27.0709226681
 31
0.0
  0
SPLINE
  5
410
100
AcDbEntity
  8
RACCORDO
100
AcDbSpline
 62
253
  6
CONTINUOUS
 70
0
 71
3
 72
11
 73
7
 74
5
 42
0.0000001
 43
0.0000001
 44
0.0000000001
 12
0.0
 22
-0.1574304607
 32
0.0
 13
0.1408074022
 23
-0.0704104071
 33
0.0
 40
0.0
 40
0.0
 40
0.0
 40
0.0
 40
0.2897508691
 40
0.5495855602
 40
0.7828462233
 40
1.0
 40
1.0
 40
1.0
 40
1.0
 10
-0.833673041
 20
-26.2732151786
 30
0.0
 10
-0.833673041
 20
-26.2884203828
 30
0.0
 10
-0.8312193508
 20
-26.3173706123
 30
0.0
 10
-0.818845429
 20
-26.3569646926
 30
0.0
 10
-0.7981798334
 20
-26.388664479
 30
0.0
 10
-0.7788918827
 20
-26.4033367035
 30
0.0
 10
-0.7686995963
 20
-26.4084333321
 30
0.0
 11
-0.833673041
 21
-26.2732151786
 31
0.0
 11
-0.8293532094
 21
-26.3186257851
 31
0.0
 11
-0.8166057477
 21
-26.3574947249
 31
0.0
 11
-0.7960530184
 21
-26.3879268642
 31
0.0
 11
-0.7686995963
 21
-26.4084333321
 31
0.0
  0
SPLINE
  5
411
100
AcDbEntity
  8
RACCORDO
100
AcDbSpline
 62
253
  6
CONTINUOUS
 70
0
 71
3
 72
13
 73
9
 74
7
 42
0.0000001
 43
0.0000001
 44
0.0000000001
 12
0.1276934635
 22
0.3370670904
 32
0.0
 13
-0.3225548801
 23
0.1608670051
 33
0.0
 40
0.0
 40
0.0
 40
0.0
 40
0.0
 40
0.2701264394
 40
0.5327826693
 40
0.6577241283
 40
0.7769941193
 40
0.8907279222
 40
1.0
 40
1.0
 40
1.0
 40
1.0
 10
2.973381561
 20
-25.5376430673
 30
0.0
 10
2.9848793546
 20
-25.507292823
 30
0.0
 10
2.9983629896
 20
-25.4435661284
 30
0.0
 10
2.9905740623
 20
-25.3634477292
 30
0.0
 10
2.969160082
 20
-25.3061148222
 30
0.0
 10
2.9466609608
 20
-25.2691215433
 30
0.0
 10
2.9182800401
 20
-25.2389347513
 30
0.0
 10
2.895716513
 20
-25.2239356852
 30
0.0
 10
2.8839677657
 20
-25.2180762613
 30
0.0
 11
2.973381561
 21
-25.5376430673
 31
0.0
 11
2.9934640688
 21
-25.4423712343
 31
0.0
 11
2.9835313649
 21
-25.3482208762
 31
0.0
 11
2.9676031396
 21
-25.3060973882
 31
0.0
 11
2.9450881561
 21
-25.2694746047
 31
0.0
 11
2.9168508701
 21
-25.2397556216
 31
0.0
 11
2.8839677657
 21
-25.2180762613
 31
0.0
  0
SPLINE
  5
412
100
AcDbEntity
  8
RACCORDO
100
AcDbSpline
 62
253
  6
CONTINUOUS
 70
0
 71
3
 72
9
 73
5
 74
3
 42
0.0000001
 43
0.0000001
 44
0.0000000001
 12
-0.0221872219
 22
0.0110907997
 32
0.0
 13
-0.0242893561
 23
0.0050304904
 33
0.0
 40
0.0
 40
0.0
 40
0.0
 40
0.0
 40
0.2486668508
 40
1.0
 40
1.0
 40
1.0
 40
1.0
 10
2.9073765242
 20
-25.2261604083
 30
0.0
 10
2.9055374487
 20
-25.2252411035
 30
0.0
 10
2.8980217289
 20
-25.2217879229
 30
0.0
 10
2.8900508985
 20
-25.2193361193
 30
0.0
 10
2.8839677657
 20
-25.2180762613
 30
0.0
 11
2.9073765242
 21
-25.2261604083
 31
0.0
 11
2.9017714861
 21
-25.2235856408
 31
0.0
 11
2.8839677657
 21
-25.2180762613
 31
0.0
  0
SPLINE
  5
413
100
AcDbEntity
  8
RACCORDO
100
AcDbSpline
 62
253
  6
CONTINUOUS
 70
0
 71
3
 72
11
 73
7
 74
5
 42
0.0000001
 43
0.0000001
 44
0.0000000001
 12
-0.0000014429
 22
-0.119182188
 32
0.0
 13
-0.1063496889
 23
-0.0537971895
 33
0.0
 40
0.0
 40
0.0
 40
0.0
 40
0.0
 40
0.2069627842
 40
0.4350648191
 40
0.6978060254
 40
1.0
 40
1.0
 40
1.0
 40
1.0
 10
3.0455794157
 20
-25.7973019486
 30
0.0
 10
3.0455793161
 20
-25.8055240411
 30
0.0
 10
3.0419802073
 20
-25.8229399372
 30
0.0
 10
3.0269308374
 20
-25.8467351872
 30
0.0
 10
3.0034538987
 20
-25.8681469864
 30
0.0
 10
2.9840943061
 20
-25.8797555219
 30
0.0
 10
2.973381561
 20
-25.885174584
 30
0.0
 11
3.0455794157
 21
-25.7973019486
 31
0.0
 11
3.0408462332
 21
-25.8215098446
 31
0.0
 11
3.0268259347
 21
-25.8448013343
 31
0.0
 11
3.0040518226
 21
-25.8662934471
 31
0.0
 11
2.973381561
 21
-25.885174584
 31
0.0
  0
SPLINE
  5
414
100
AcDbEntity
  8
RACCORDO
100
AcDbSpline
 62
253
  6
CONTINUOUS
 70
0
 71
3
 72
11
 73
7
 74
5
 42
0.0000001
 43
0.0000001
 44
0.0000000001
 12
-0.0000013698
 22
-0.1191821853
 32
0.0
 13
-0.1063496865
 23
-0.0537971883
 33
0.0
 40
0.0
 40
0.0
 40
0.0
 40
0.0
 40
0.2069627866
 40
0.4350648202
 40
0.69780603
 40
1.0
 40
1.0
 40
1.0
 40
1.0
 10
3.0455794159
 20
-25.4497704351
 30
0.0
 10
3.0455793214
 20
-25.4579925275
 30
0.0
 10
3.0419802047
 20
-25.4754084233
 30
0.0
 10
3.0269308372
 20
-25.4992036722
 30
0.0
 10
3.0034538973
 20
-25.52061547
 30
0.0
 10
2.9840943057
 20
-25.5322240053
 30
0.0
 10
2.973381561
 20
-25.5376430673
 30
0.0
 11
3.0455794159
 21
-25.4497704351
 31
0.0
 11
3.040846233
 21
-25.4739783307
 31
0.0
 11
3.0268259339
 21
-25.4972698192
 31
0.0
 11
3.0040518214
 21
-25.5187619311
 31
0.0
 11
2.973381561
 21
-25.5376430673
 31
0.0
  0
SPLINE
  5
415
100
AcDbEntity
  8
RACCORDO
100
AcDbSpline
 62
253
  6
CONTINUOUS
 70
0
 71
3
 72
11
 73
7
 74
5
 42
0.0000001
 43
0.0000001
 44
0.0000000001
 12
0.1389309045
 22
0.0712901781
 32
0.0
 13
-0.000739186
 23
0.1561522953
 33
0.0
 40
0.0
 40
0.0
 40
0.0
 40
0.0
 40
0.21754047
 40
0.4509586233
 40
0.7106393245
 40
1.0
 40
1.0
 40
1.0
 40
1.0
 10
2.9096988956
 20
-26.0197352057
 30
0.0
 10
2.9197732604
 20
-26.0145657061
 30
0.0
 10
2.9387918339
 20
-25.999832902
 30
0.0
 10
2.9590984583
 20
-25.9682492237
 30
0.0
 10
2.9711598916
 20
-25.9289338967
 30
0.0
 10
2.9734528582
 20
-25.9002360286
 30
0.0
 10
2.973381561
 20
-25.885174584
 30
0.0
 11
2.9096988956
 21
-26.0197352057
 31
0.0
 11
2.9366951789
 21
-25.9991160482
 31
0.0
 11
2.9568938706
 21
-25.9687753789
 31
0.0
 11
2.9693220575
 21
-25.9301766972
 31
0.0
 11
2.973381561
 21
-25.885174584
 31
0.0
  0
SPLINE
  5
416
100
AcDbEntity
  8
RACCORDO
100
AcDbSpline
 62
7
  6
CONTINUOUS
 70
0
 71
3
 72
11
 73
7
 74
5
 42
0.0000001
 43
0.0000001
 44
0.0000000001
 12
0.1334232764
 22
0.0748828011
 32
0.0
 13
-0.0
 23
0.1530006686
 33
0.0
 40
0.0
 40
0.0
 40
0.0
 40
0.0
 40
0.2171864146
 40
0.4511858794
 40
0.7111959599
 40
1.0
 40
1.0
 40
1.0
 40
1.0
 10
2.3841031791
 20
-26.2893023117
 30
0.0
 10
2.3937624201
 20
-26.283881136
 30
0.0
 10
2.4118902914
 20
-26.2688588906
 30
0.0
 10
2.4312184421
 20
-26.2375809045
 30
0.0
 10
2.4428059686
 20
-26.1990024843
 30
0.0
 10
2.4451143893
 20
-26.1709147131
 30
0.0
 10
2.4451143893
 20
-26.1561856427
 30
0.0
 11
2.3841031791
 21
-26.2893023117
 31
0.0
 11
2.4098555298
 21
-26.2683016647
 31
0.0
 11
2.4291399628
 21
-26.2381371294
 31
0.0
 11
2.4410744627
 21
-26.2001877861
 31
0.0
 11
2.4451143893
 21
-26.1561856427
 31
0.0
  0
SPLINE
  5
417
100
AcDbEntity
  8
RACCORDO
100
AcDbSpline
 62
253
  6
CONTINUOUS
 70
0
 71
3
 72
13
 73
9
 74
7
 42
0.0000001
 43
0.0000001
 44
0.0000000001
 12
-0.1868382045
 22
0.3017261023
 32
0.0
 13
-0.3164708648
 23
0.1606030733
 33
0.0
 40
0.0
 40
0.0
 40
0.0
 40
0.0
 40
0.1018788417
 40
0.2189946503
 40
0.483012367
 40
0.7559759138
 40
0.8838496473
 40
1.0
 40
1.0
 40
1.0
 40
1.0
 10
0.8438335985
 20
-26.5962463082
 30
0.0
 10
0.8374886452
 20
-26.5859998063
 30
0.0
 10
0.8224739651
 20
-26.5648238598
 30
0.0
 10
0.7856684544
 20
-26.5210662149
 30
0.0
 10
0.7300363518
 20
-26.4670082686
 30
0.0
 10
0.6682248399
 20
-26.4181228342
 30
0.0
 10
0.6171084978
 20
-26.3844874782
 30
0.0
 10
0.5919527207
 20
-26.3702574451
 30
0.0
 10
0.5796999865
 20
-26.3640394105
 30
0.0
 11
0.8438335985
 21
-26.5962463082
 31
0.0
 11
0.8231566315
 21
-26.5665864676
 31
0.0
 11
0.7965438137
 21
-26.5346605644
 31
0.0
 11
0.7297693565
 21
-26.468931096
 31
0.0
 11
0.6536384848
 21
-26.4090286812
 31
0.0
 11
0.6156670038
 21
-26.3841768061
 31
0.0
 11
0.5796999865
 21
-26.3640394105
 31
0.0
  0
SPLINE
  5
418
100
AcDbEntity
  8
RACCORDO
100
AcDbSpline
 62
7
  6
CONTINUOUS
 70
0
 71
3
 72
13
 73
9
 74
7
 42
0.0000001
 43
0.0000001
 44
0.0000000001
 12
-0.3676034061
 22
0.0767624926
 32
0.0
 13
-0.3358865814
 23
0.1679432907
 33
0.0
 40
0.0
 40
0.0
 40
0.0
 40
0.0
 40
0.0966834289
 40
0.2082492961
 40
0.4660034111
 40
0.7454687051
 40
0.8795048358
 40
1.0
 40
1.0
 40
1.0
 40
1.0
 10
1.5550542066
 20
-25.7447498311
 30
0.0
 10
1.543207154
 20
-25.7422759441
 30
0.0
 10
1.517832568
 20
-25.736259387
 30
0.0
 10
1.4615911132
 20
-25.7207486177
 30
0.0
 10
1.3843205663
 20
-25.6956128791
 30
0.0
 10
1.305731017
 20
-25.66577283
 30
0.0
 10
1.2442825565
 20
-25.6394317513
 30
0.0
 10
1.2155089215
 20
-25.6257254445
 30
0.0
 10
1.2020180186
 20
-25.618979993
 30
0.0
 11
1.5550542066
 21
-25.7447498311
 31
0.0
 11
1.5196979403
 21
-25.7364921445
 31
0.0
 11
1.4792879563
 21
-25.7254304944
 31
0.0
 11
1.3871564211
 21
-25.6957477201
 31
0.0
 11
1.2890832241
 21
-25.6583873061
 31
0.0
 11
1.2428674461
 21
-25.6384446909
 31
0.0
 11
1.2020180186
 21
-25.618979993
 31
0.0
  0
SPLINE
  5
419
100
AcDbEntity
  8
RACCORDO
100
AcDbSpline
 62
253
  6
CONTINUOUS
 70
0
 71
3
 72
11
 73
7
 74
5
 42
0.0000001
 43
0.0000001
 44
0.0000000001
 12
0.1426575687
 22
0.0695004483
 32
0.0
 13
0.0007563653
 23
0.1586849776
 33
0.0
 40
0.0
 40
0.0
 40
0.0
 40
0.0
 40
0.2167635091
 40
0.4498673846
 40
0.7098578217
 40
1.0
 40
1.0
 40
1.0
 40
1.0
 10
0.7775718668
 20
-27.0720705829
 30
0.0
 10
0.7878795185
 20
-27.0670488625
 30
0.0
 10
0.8074332173
 20
-27.0524413401
 30
0.0
 10
0.8284553556
 20
-27.020631924
 30
0.0
 10
0.8411432051
 20
-26.9807658377
 30
0.0
 10
0.8437604473
 20
-26.9515673107
 30
0.0
 10
0.8438335985
 20
-26.9362202423
 30
0.0
 11
0.7775718668
 21
-27.0720705829
 31
0.0
 11
0.805276318
 21
-27.051683047
 31
0.0
 11
0.8261807963
 21
-27.0211658366
 31
0.0
 11
0.8392489126
 21
-26.9820331377
 31
0.0
 11
0.8438335985
 21
-26.9362202423
 31
0.0
  0
SPLINE
  5
41A
100
AcDbEntity
  8
RACCORDO
100
AcDbSpline
 62
7
  6
CONTINUOUS
 70
0
 71
3
 72
11
 73
7
 74
5
 42
0.0000001
 43
0.0000001
 44
0.0000000001
 12
-0.4087143287
 22
0.2043714832
 32
0.0
 13
-0.4104598159
 23
-0.2008428369
 33
0.0
 40
0.0
 40
0.0
 40
0.0
 40
0.0
 40
0.227550333
 40
0.4653227117
 40
0.7212674125
 40
1.0
 40
1.0
 40
1.0
 40
1.0
 10
0.3114021151
 20
22.5582252291
 30
0.0
 10
0.2804010879
 20
22.5737268287
 30
0.0
 10
0.2121897494
 20
22.5965719577
 30
0.0
 10
0.1013815983
 20
22.602684352
 30
0.0
 10
-0.0152876045
 20
22.5816301778
 30
0.0
 10
-0.0915185941
 20
22.5515437283
 30
0.0
 10
-0.1296547696
 20
22.5328832471
 30
0.0
 11
0.3114021151
 21
22.5582252291
 31
0.0
 11
0.2129047594
 21
22.5915500012
 31
0.0
 11
0.1044702006
 21
22.5984387945
 31
0.0
 11
-0.0108087625
 21
22.5786965594
 31
0.0
 11
-0.1296547696
 21
22.5328832471
 31
0.0
  0
SPLINE
  5
41B
100
AcDbEntity
  8
0
100
AcDbSpline
 62
7
  6
CONTINUOUS
 70
0
 71
3
 72
15
 73
11
 74
9
 42
0.0000001
 43
0.0000001
 44
0.0000000001
 12
-1.301960625
 22
0.6509803125
 32
0.0
 13
-1.301960625
 23
-0.6509803125
 33
0.0
 40
0.0
 40
0.0
 40
0.0
 40
0.0
 40
0.1125283523
 40
0.2354661028
 40
0.3658134951
 40
0.4999999817
 40
0.6341864682
 40
0.7645338681
 40
0.8874716303
 40
1.0
 40
1.0
 40
1.0
 40
1.0
 10
-1.8328816369
 20
20.7971414847
 30
0.0
 10
-1.8817174648
 20
20.8215593987
 30
0.0
 10
-1.9881436323
 20
20.8643441173
 30
0.0
 10
-2.1601604484
 20
20.9095275631
 30
0.0
 10
-2.3464460122
 20
20.9373563808
 30
0.0
 10
-2.5399883913
 20
20.9467487445
 30
0.0
 10
-2.7335307743
 20
20.9373563853
 30
0.0
 10
-2.9198163482
 20
20.909527572
 30
0.0
 10
-3.0918331824
 20
20.864344125
 30
0.0
 10
-3.1982593637
 20
20.8215594025
 30
0.0
 10
-3.2470951993
 20
20.7971414847
 30
0.0
 11
-1.8328816369
 21
20.7971414847
 31
0.0
 11
-1.9844202157
 21
20.8593235774
 31
0.0
 11
-2.1573052072
 21
20.9055277813
 31
0.0
 11
-2.3448980862
 21
20.9339806749
 31
0.0
 11
-2.5399883914
 21
20.9435878125
 31
0.0
 11
-2.7350786966
 21
20.9339806799
 31
0.0
 11
-2.9226715874
 21
20.9055277901
 31
0.0
 11
-3.0955565963
 21
20.8593235855
 31
0.0
 11
-3.2470951993
 21
20.7971414847
 31
0.0
  0
SPLINE
  5
41C
100
AcDbEntity
  8
RACCORDO
100
AcDbSpline
 62
253
  6
CONTINUOUS
 70
0
 71
3
 72
12
 73
8
 74
6
 42
0.0000001
 43
0.0000001
 44
0.0000000001
 12
0.0079274635
 22
-0.2360666397
 32
0.0
 13
0.2111916841
 23
-0.1057751183
 33
0.0
 40
0.0
 40
0.0
 40
0.0
 40
0.0
 40
0.1048972659
 40
0.2122700343
 40
0.4422669275
 40
0.7032089287
 40
1.0
 40
1.0
 40
1.0
 40
1.0
 10
-19.0668912162
 20
-18.5227685294
 30
0.0
 10
-19.0666140264
 20
-18.5310227778
 30
0.0
 10
-19.0645006626
 20
-18.5477130539
 30
0.0
 10
-19.0539682521
 20
-18.58107199
 30
0.0
 10
-19.0283476508
 20
-18.6215726543
 30
0.0
 10
-18.9821721341
 20
-18.6637213767
 30
0.0
 10
-18.9442504371
 20
-18.6863981975
 30
0.0
 10
-18.9233571684
 20
-18.6968625677
 30
0.0
 11
-19.0668912162
 21
-18.5227685294
 31
0.0
 11
-19.0638069216
 21
-18.5473525116
 31
0.0
 11
-19.0562389753
 21
-18.571558454
 31
0.0
 11
-19.0279706471
 21
-18.6179494976
 31
0.0
 11
-18.9831291167
 21
-18.6602347137
 31
0.0
 11
-18.9233571684
 21
-18.6968625677
 31
0.0
  0
SPLINE
  5
41D
100
AcDbEntity
  8
RACCORDO
100
AcDbSpline
 62
253
  6
CONTINUOUS
 70
0
 71
3
 72
12
 73
8
 74
6
 42
0.0000001
 43
0.0000001
 44
0.0000000001
 12
-0.0076034375
 22
-0.235063358
 32
0.0
 13
0.2104333869
 23
-0.105025636
 33
0.0
 40
0.0
 40
0.0
 40
0.0
 40
0.0
 40
0.0992777883
 40
0.2018807834
 40
0.42721939
 40
0.6918016702
 40
1.0
 40
1.0
 40
1.0
 40
1.0
 10
-19.0669097447
 20
17.0899110609
 30
0.0
 10
-19.0671613622
 20
17.0821322041
 30
0.0
 10
-19.0659698939
 20
17.066211101
 30
0.0
 10
-19.0566073354
 20
17.0338408208
 30
0.0
 10
-19.0310186755
 20
16.9939546805
 30
0.0
 10
-18.9838835248
 20
16.952088172
 30
0.0
 10
-18.9449754575
 20
16.9291669276
 30
0.0
 10
-18.9233570514
 20
16.9183773524
 30
0.0
 11
-19.0669097447
 21
17.0899110609
 31
0.0
 11
-19.0652077306
 21
17.0666244024
 31
0.0
 11
-19.0586142788
 21
17.0434118456
 31
0.0
 11
-19.0310684153
 21
16.9981364661
 31
0.0
 11
-18.9853752484
 21
16.9558963742
 31
0.0
 11
-18.9233570514
 21
16.9183773524
 31
0.0
  0
SPLINE
  5
41E
100
AcDbEntity
  8
RACCORDO
100
AcDbSpline
 62
253
  6
CONTINUOUS
 70
0
 71
3
 72
11
 73
7
 74
5
 42
0.0000001
 43
0.0000001
 44
0.0000000001
 12
0.2053552735
 22
0.1197290106
 32
0.0
 13
0.2141506595
 23
-0.103176157
 33
0.0
 40
0.0
 40
0.0
 40
0.0
 40
0.0
 40
0.2233920353
 40
0.4591546313
 40
0.7164477419
 40
1.0
 40
1.0
 40
1.0
 40
1.0
 10
-18.1595853863
 20
18.6788374969
 30
0.0
 10
-18.1442938088
 20
18.6877529994
 30
0.0
 10
-18.1098004692
 20
18.7012364556
 30
0.0
 10
-18.0525548343
 20
18.705852872
 30
0.0
 10
-17.9913702201
 20
18.6955695465
 30
0.0
 10
-17.9511489881
 20
18.6799918308
 30
0.0
 10
-17.9309080204
 20
18.6702398866
 30
0.0
 11
-18.1595853863
 21
18.6788374969
 31
0.0
 11
-18.1102104351
 21
18.6983818294
 31
0.0
 11
-18.0544011587
 21
18.7034949984
 31
0.0
 11
-17.9939796857
 21
18.6940125543
 31
0.0
 11
-17.9309080204
 21
18.6702398866
 31
0.0
  0
SPLINE
  5
41F
100
AcDbEntity
  8
DRAFT
100
AcDbSpline
 62
7
  6
CONTINUOUS
 70
0
 71
3
 72
9
 73
5
 74
3
 42
0.0000001
 43
0.0000001
 44
0.0000000001
 12
-0.6629938786
 22
0.2119738954
 32
0.0
 13
-0.6225713231
 23
0.3112856616
 33
0.0
 40
0.0
 40
0.0
 40
0.0
 40
0.0
 40
0.2431890629
 40
1.0
 40
1.0
 40
1.0
 40
1.0
 10
-7.1289942562
 20
-20.7075360438
 30
0.0
 10
-7.1827385429
 20
-20.6903527995
 30
0.0
 10
-7.4022468535
 20
-20.6150733905
 30
0.0
 10
-7.6155223367
 20
-20.5219728498
 30
0.0
 10
-7.7725785988
 20
-20.4434447188
 30
0.0
 11
-7.1289942562
 21
-20.7075360438
 31
0.0
 11
-7.2891339684
 21
-20.6526845835
 31
0.0
 11
-7.7725785988
 21
-20.4434447188
 31
0.0
  0
SPLINE
  5
420
100
AcDbEntity
  8
RACCORDO
100
AcDbSpline
 62
253
  6
CONTINUOUS
 70
0
 71
3
 72
14
 73
10
 74
8
 42
0.0000001
 43
0.0000001
 44
0.0000000001
 12
-0.7953469178
 22
0.3976724534
 32
0.0
 13
-0.0300330181
 23
0.888717119
 33
0.0
 40
0.0
 40
0.0
 40
0.0
 40
0.0
 40
0.1080815168
 40
0.2183052251
 40
0.3324974502
 40
0.4521379201
 40
0.578290921
 40
0.7115985682
 40
1.0
 40
1.0
 40
1.0
 40
1.0
 10
-18.5389859712
 20
-19.4529134235
 30
0.0
 10
-18.5676400716
 20
-19.4385864095
 30
0.0
 10
-18.6230810682
 20
-19.4044740075
 30
0.0
 10
-18.6972550623
 20
-19.3389137677
 30
0.0
 10
-18.7620183222
 20
-19.2595938225
 30
0.0
 10
-18.8166662815
 20
-19.1675376617
 30
0.0
 10
-18.8606913941
 20
-19.0638119377
 30
0.0
 10
-18.9058238479
 20
-18.9075174536
 30
0.0
 10
-18.9204699801
 20
-18.782298331
 30
0.0
 10
-18.9233571685
 20
-18.6968625678
 30
0.0
 11
-18.5389859712
 21
-19.4529134235
 31
0.0
 11
-18.6208846571
 21
-19.4026193638
 31
0.0
 11
-18.6944832405
 21
-19.3378897936
 31
0.0
 11
-18.7589613105
 21
-19.2594457928
 31
0.0
 11
-18.8136000604
 21
-19.1681613493
 31
0.0
 11
-18.8577903303
 21
-19.0650536482
 31
0.0
 11
-18.891039409
 21
-18.9512717104
 31
0.0
 11
-18.9233571685
 21
-18.6968625678
 31
0.0
  0
SPLINE
  5
421
100
AcDbEntity
  8
DRAFT
100
AcDbSpline
 62
7
  6
CONTINUOUS
 70
0
 71
3
 72
9
 73
5
 74
3
 42
0.0000001
 43
0.0000001
 44
0.0000000001
 12
-0.514226904
 22
0.1851264947
 32
0.0
 13
-0.4888362735
 23
0.2444181367
 33
0.0
 40
0.0
 40
0.0
 40
0.0
 40
0.0
 40
0.2447008779
 40
1.0
 40
1.0
 40
1.0
 40
1.0
 10
-7.2707017703
 20
-8.3618075886
 30
0.0
 10
-7.3126456953
 20
-8.3467073834
 30
0.0
 10
-7.4830777197
 20
-8.2823034324
 30
0.0
 10
-7.6495060628
 20
-8.2074202531
 30
0.0
 10
-7.7725785988
 20
-8.145883985
 30
0.0
 11
-7.2707017703
 21
-8.3618075886
 31
0.0
 11
-7.3958156928
 21
-8.314560496
 31
0.0
 11
-7.7725785988
 21
-8.145883985
 31
0.0
  0
SPLINE
  5
422
100
AcDbEntity
  8
RACCORDO
100
AcDbSpline
 62
7
  6
CONTINUOUS
 70
0
 71
3
 72
9
 73
5
 74
3
 42
0.0000001
 43
0.0000001
 44
0.0000000001
 12
-0.0841111099
 22
-0.0469893442
 32
0.0
 13
-0.0939868714
 23
-0.0211930476
 33
0.0
 40
0.0
 40
0.0
 40
0.0
 40
0.0
 40
0.2338198576
 40
1.0
 40
1.0
 40
1.0
 40
1.0
 10
1.5550542066
 20
13.7468074858
 30
0.0
 10
1.5484985907
 20
13.7431451385
 30
0.0
 10
1.519727336
 20
13.7287911711
 30
0.0
 10
1.4887124412
 20
13.7193212415
 30
0.0
 10
1.4647088164
 20
13.7139086774
 30
0.0
 11
1.5550542066
 21
13.7468074858
 31
0.0
 11
1.5349213457
 21
13.7366996721
 31
0.0
 11
1.4647088164
 21
13.7139086774
 31
0.0
  0
SPLINE
  5
423
100
AcDbEntity
  8
RACCORDO
100
AcDbSpline
 62
7
  6
CONTINUOUS
 70
0
 71
3
 72
12
 73
8
 74
6
 42
0.0000001
 43
0.0000001
 44
0.0000000001
 12
-0.2289187257
 22
-0.2740730398
 32
0.0
 13
-0.3495976162
 23
0.0728101698
 33
0.0
 40
0.0
 40
0.0
 40
0.0
 40
0.0
 40
0.2548411526
 40
0.5142089998
 40
0.6424804536
 40
0.7674890618
 40
1.0
 40
1.0
 40
1.0
 40
1.0
 10
1.5550542066
 20
14.5548543083
 30
0.0
 10
1.5356082359
 20
14.5315726119
 30
0.0
 10
1.4909876409
 20
14.4888981065
 30
0.0
 10
1.4253137863
 20
14.4484593384
 30
0.0
 10
1.3683238859
 20
14.4261313836
 30
0.0
 10
1.3121277673
 20
14.412332116
 30
0.0
 10
1.268334073
 20
14.4115549347
 30
0.0
 10
1.2412389831
 20
14.4171979883
 30
0.0
 11
1.5550542066
 21
14.5548543083
 31
0.0
 11
1.4894298844
 21
14.4918059395
 31
0.0
 11
1.4103602749
 21
14.4435724552
 31
0.0
 11
1.3676680611
 21
14.4269733427
 31
0.0
 11
1.3242657773
 21
14.4165323993
 31
0.0
 11
1.2412389831
 21
14.4171979883
 31
0.0
  0
SPLINE
  5
424
100
AcDbEntity
  8
RACCORDO
100
AcDbSpline
 62
253
  6
CONTINUOUS
 70
0
 71
3
 72
13
 73
9
 74
7
 42
0.0000001
 43
0.0000001
 44
0.0000000001
 12
-0.1069170157
 22
-0.2783410717
 32
0.0
 13
-0.2918756657
 23
0.0609392829
 33
0.0
 40
0.0
 40
0.0
 40
0.0
 40
0.0
 40
0.2769974725
 40
0.5361985654
 40
0.6582146203
 40
0.7753291389
 40
0.8886899808
 40
1.0
 40
1.0
 40
1.0
 40
1.0
 10
0.8438335985
 20
14.7033578312
 30
0.0
 10
0.8339616841
 20
14.6776579067
 30
0.0
 10
0.8082246981
 20
14.6301228373
 30
0.0
 10
0.7608981596
 20
14.5832177195
 30
0.0
 10
0.7176170944
 20
14.5586178655
 30
0.0
 10
0.6842174932
 20
14.5472878403
 30
0.0
 10
0.6502595463
 20
14.5431302245
 30
0.0
 10
0.6278197313
 20
14.5452755255
 30
0.0
 10
0.6169901693
 20
14.5475365764
 30
0.0
 11
0.8438335985
 21
14.7033578312
 31
0.0
 11
0.8039501649
 21
14.6310337064
 31
0.0
 11
0.7483995015
 21
14.5773008058
 31
0.0
 11
0.7166994805
 21
14.5594481031
 31
0.0
 11
0.6835879731
 21
14.5483561144
 31
0.0
 11
0.6500258145
 21
14.544347216
 31
0.0
 11
0.6169901693
 21
14.5475365764
 31
0.0
  0
SPLINE
  5
425
100
AcDbEntity
  8
RACCORDO
100
AcDbSpline
 62
253
  6
CONTINUOUS
 70
0
 71
3
 72
11
 73
7
 74
5
 42
0.0000001
 43
0.0000001
 44
0.0000000001
 12
0.0
 22
-0.1574304972
 32
0.0
 13
0.1408119364
 23
-0.0704014205
 33
0.0
 40
0.0
 40
0.0
 40
0.0
 40
0.0
 40
0.289749639
 40
0.5495875602
 40
0.7828489991
 40
1.0
 40
1.0
 40
1.0
 40
1.0
 10
0.4913116388
 20
14.703870555
 30
0.0
 10
0.4913116388
 20
14.6886654118
 30
0.0
 10
0.4937655003
 20
14.6597151883
 30
0.0
 10
0.5061388737
 20
14.6201204996
 30
0.0
 10
0.5268057003
 20
14.5884218598
 30
0.0
 10
0.5460924197
 20
14.5737479502
 30
0.0
 10
0.556284904
 20
14.5686520373
 30
0.0
 11
0.4913116388
 21
14.703870555
 31
0.0
 11
0.4956314489
 21
14.6584601303
 31
0.0
 11
0.5083789381
 21
14.6195906545
 31
0.0
 11
0.5289321536
 21
14.5891586858
 31
0.0
 11
0.556284904
 21
14.5686520373
 31
0.0
  0
SPLINE
  5
426
100
AcDbEntity
  8
DRAFT
100
AcDbSpline
 62
7
  6
CONTINUOUS
 70
0
 71
3
 72
9
 73
5
 74
3
 42
0.0000001
 43
0.0000001
 44
0.0000000001
 12
-0.5983133786
 22
0.2017899343
 32
0.0
 13
-0.5647640758
 23
0.2823820379
 33
0.0
 40
0.0
 40
0.0
 40
0.0
 40
0.0
 40
0.2438430672
 40
1.0
 40
1.0
 40
1.0
 40
1.0
 10
-7.1904706924
 20
3.9077805813
 30
0.0
 10
-7.2391022155
 20
3.9241822735
 30
0.0
 10
-7.4372784476
 20
3.9951577793
 30
0.0
 10
-7.6302285084
 20
4.0805017035
 30
0.0
 10
-7.7725785988
 20
4.1516767487
 30
0.0
 11
-7.1904706924
 21
3.9077805813
 31
0.0
 11
-7.3354392708
 21
3.9596503817
 31
0.0
 11
-7.7725785988
 21
4.1516767487
 31
0.0
  0
SPLINE
  5
427
100
AcDbEntity
  8
RACCORDO
100
AcDbSpline
 62
253
  6
CONTINUOUS
 70
0
 71
3
 72
11
 73
7
 74
5
 42
0.0000001
 43
0.0000001
 44
0.0000000001
 12
0.0
 22
-0.1574304972
 32
0.0
 13
0.1408119364
 23
-0.0704014205
 33
0.0
 40
0.0
 40
0.0
 40
0.0
 40
0.0
 40
0.289749639
 40
0.5495875602
 40
0.7828489991
 40
1.0
 40
1.0
 40
1.0
 40
1.0
 10
-0.833673041
 20
15.3663628949
 30
0.0
 10
-0.833673041
 20
15.3511577517
 30
0.0
 10
-0.8312191796
 20
15.3222075282
 30
0.0
 10
-0.8188458061
 20
15.2826128395
 30
0.0
 10
-0.7981789795
 20
15.2509141998
 30
0.0
 10
-0.7788922601
 20
15.2362402902
 30
0.0
 10
-0.7686997758
 20
15.2311443772
 30
0.0
 11
-0.833673041
 21
15.3663628949
 31
0.0
 11
-0.8293532309
 21
15.3209524702
 31
0.0
 11
-0.8166057417
 21
15.2820829944
 31
0.0
 11
-0.7960525262
 21
15.2516510257
 31
0.0
 11
-0.7686997758
 21
15.2311443772
 31
0.0
  0
SPLINE
  5
428
100
AcDbEntity
  8
ASSI
100
AcDbSpline
 62
7
  6
CONTINUOUS
 70
0
 71
3
 72
13
 73
9
 74
7
 42
0.0000001
 43
0.0000001
 44
0.0000000001
 12
-0.1077578345
 22
0.0535497592
 32
0.0
 13
-0.1143870598
 23
-0.0373487372
 33
0.0
 40
0.0
 40
0.0
 40
0.0
 40
0.0
 40
0.0540047271
 40
0.1242933039
 40
0.2139143727
 40
0.3249338454
 40
0.6158185866
 40
1.0
 40
1.0
 40
1.0
 40
1.0
 10
3.4675425667
 20
20.3379508414
 30
0.0
 10
3.4656027558
 20
20.3389148214
 30
0.0
 10
3.4607371427
 20
20.3403008149
 30
0.0
 10
3.4521561416
 20
20.3409321147
 30
0.0
 10
3.4412822196
 20
20.3403402101
 30
0.0
 10
3.421751828
 20
20.3375385078
 30
0.0
 10
3.3910576809
 20
20.33009224
 30
0.0
 10
3.3651795379
 20
20.3221144916
 30
0.0
 10
3.3505310771
 20
20.3173315947
 30
0.0
 11
3.4675425667
 21
20.3379508414
 31
0.0
 11
3.4613518808
 21
20.3399268274
 31
0.0
 11
3.4529309851
 21
20.340716385
 31
0.0
 11
3.4421571281
 21
20.3402462372
 31
0.0
 11
3.4289197224
 21
20.3384480481
 31
0.0
 11
3.3947899371
 21
20.3306820578
 31
0.0
 11
3.3505310771
 21
20.3173315947
 31
0.0
  0
SPLINE
  5
429
100
AcDbEntity
  8
ASSI
100
AcDbSpline
 62
7
  6
CONTINUOUS
 70
0
 71
3
 72
13
 73
9
 74
7
 42
0.0000001
 43
0.0000001
 44
0.0000000001
 12
-0.1094004579
 22
0.0544036689
 32
0.0
 13
-0.1160946469
 23
-0.0380821789
 33
0.0
 40
0.0
 40
0.0
 40
0.0
 40
0.0
 40
0.0537190141
 40
0.1237951496
 40
0.2132981993
 40
0.324300269
 40
0.6154263502
 40
1.0
 40
1.0
 40
1.0
 40
1.0
 10
-2.0874415272
 20
23.1154429012
 30
0.0
 10
-2.0894004888
 20
23.1164170717
 30
0.0
 10
-2.0943243069
 20
23.1178116623
 30
0.0
 10
-2.1030135641
 20
23.1184302999
 30
0.0
 10
-2.1140391477
 20
23.1178030573
 30
0.0
 10
-2.1338674377
 20
23.1149115141
 30
0.0
 10
-2.1650424579
 20
23.1072820532
 30
0.0
 10
-2.1913304814
 20
23.0991331012
 30
0.0
 10
-2.2062127954
 20
23.0942513004
 30
0.0
 11
-2.0874415272
 21
23.1154429012
 31
0.0
 11
-2.0936961841
 21
23.1174324023
 31
0.0
 11
-2.1022224712
 21
23.1182133693
 31
0.0
 11
-2.1131464845
 21
23.1177105261
 31
0.0
 11
-2.1265811665
 21
23.1158539786
 31
0.0
 11
-2.1612487274
 21
23.1078920423
 31
0.0
 11
-2.2062127954
 21
23.0942513004
 31
0.0
  0
SPLINE
  5
42A
100
AcDbEntity
  8
RACCORDO
100
AcDbSpline
 62
253
  6
CONTINUOUS
 70
0
 71
3
 72
11
 73
7
 74
5
 42
0.0000001
 43
0.0000001
 44
0.0000000001
 12
-0.1076203225
 22
0.0538101613
 32
0.0
 13
0.0000013829
 23
0.1203231785
 33
0.0
 40
0.0
 40
0.0
 40
0.0
 40
0.0
 40
0.3025823249
 40
0.5654825874
 40
0.7934322572
 40
1.0
 40
1.0
 40
1.0
 40
1.0
 10
-0.833673041
 20
15.3663628949
 30
0.0
 10
-0.8445277101
 20
15.3717902295
 30
0.0
 10
-0.8641461832
 20
15.38342996
 30
0.0
 10
-0.8879575534
 20
15.4049505874
 30
0.0
 10
-0.9032367504
 20
15.4289048723
 30
0.0
 10
-0.9068964388
 20
15.4464662801
 30
0.0
 10
-0.9068963436
 20
15.4547512426
 30
0.0
 11
-0.833673041
 21
15.3663628949
 31
0.0
 11
-0.864764714
 21
15.3853056005
 31
0.0
 11
-0.8878655505
 21
15.4069157309
 31
0.0
 11
-0.9020925108
 21
15.4303650043
 31
0.0
 11
-0.9068963436
 21
15.4547512426
 31
0.0
  0
SPLINE
  5
42B
100
AcDbEntity
  8
RACCORDO
100
AcDbSpline
 62
253
  6
CONTINUOUS
 70
0
 71
3
 72
11
 73
7
 74
5
 42
0.0000001
 43
0.0000001
 44
0.0000000001
 12
-0.1076200259
 22
0.053810013
 32
0.0
 13
0.0000008146
 23
0.1203228468
 33
0.0
 40
0.0
 40
0.0
 40
0.0
 40
0.0
 40
0.3025814593
 40
0.565482116
 40
0.7934320761
 40
1.0
 40
1.0
 40
1.0
 40
1.0
 10
-0.833673041
 20
15.7063368291
 30
0.0
 10
-0.8445276492
 20
15.7117641331
 30
0.0
 10
-0.8641460502
 20
15.7234038188
 30
0.0
 10
-0.8879573896
 20
15.7449243356
 30
0.0
 10
-0.9032366247
 20
15.7688785374
 30
0.0
 10
-0.9068963994
 20
15.7864398937
 30
0.0
 10
-0.9068963433
 20
15.7947248406
 30
0.0
 11
-0.833673041
 21
15.7063368291
 31
0.0
 11
-0.8647645478
 21
15.7252794143
 31
0.0
 11
-0.8878653953
 21
15.7468894749
 31
0.0
 11
-0.902092405
 21
15.7703386707
 31
0.0
 11
-0.9068963433
 21
15.7947248406
 31
0.0
  0
SPLINE
  5
42C
100
AcDbEntity
  8
RACCORDO
100
AcDbSpline
 62
253
  6
CONTINUOUS
 70
0
 71
3
 72
11
 73
7
 74
5
 42
0.0000001
 43
0.0000001
 44
0.0000000001
 12
-0.1051440438
 22
0.0519595372
 32
0.0
 13
-0.1043498228
 23
-0.0535366971
 33
0.0
 40
0.0
 40
0.0
 40
0.0
 40
0.0
 40
0.2795161735
 40
0.5356960478
 40
0.773144514
 40
1.0
 40
1.0
 40
1.0
 40
1.0
 10
-0.657924785
 20
16.010713644
 30
0.0
 10
-0.667721272
 20
16.015554821
 30
0.0
 10
-0.6872990597
 20
16.0233592433
 30
0.0
 10
-0.7172674211
 20
16.0288120409
 30
0.0
 10
-0.7456827719
 20
16.02718973
 30
0.0
 10
-0.7631194931
 20
16.0212096446
 30
0.0
 10
-0.7710102697
 20
16.0171612801
 30
0.0
 11
-0.657924785
 21
16.010713644
 31
0.0
 11
-0.6884749984
 21
16.0226030436
 31
0.0
 11
-0.7180835696
 21
16.0277071178
 31
0.0
 11
-0.7458716839
 21
16.0258752913
 31
0.0
 11
-0.7710102697
 21
16.0171612801
 31
0.0
  0
SPLINE
  5
42D
100
AcDbEntity
  8
RACCORDO
100
AcDbSpline
 62
7
  6
CONTINUOUS
 70
0
 71
3
 72
11
 73
7
 74
5
 42
0.0000001
 43
0.0000001
 44
0.0000000001
 12
-0.1028463418
 22
0.0514231709
 32
0.0
 13
-0.1033748983
 23
-0.0503521891
 33
0.0
 40
0.0
 40
0.0
 40
0.0
 40
0.0
 40
0.2790833933
 40
0.5352290697
 40
0.7729212505
 40
1.0
 40
1.0
 40
1.0
 40
1.0
 10
0.9248318181
 20
16.8226977414
 30
0.0
 10
0.9152642494
 20
16.8274815257
 30
0.0
 10
0.896132736
 20
16.8352322582
 30
0.0
 10
0.8668137575
 20
16.8408260816
 30
0.0
 10
0.838930988
 20
16.8395923247
 30
0.0
 10
0.8217244496
 20
16.8340390584
 30
0.0
 10
0.8138997021
 20
16.8302277544
 30
0.0
 11
0.9248318181
 21
16.8226977414
 31
0.0
 11
0.8949944141
 21
16.8345102766
 31
0.0
 11
0.8660149007
 21
16.8397707328
 31
0.0
 11
0.8387217106
 21
16.8383297484
 31
0.0
 11
0.8138997021
 21
16.8302277544
 31
0.0
  0
SPLINE
  5
42E
100
AcDbEntity
  8
RACCORDO
100
AcDbSpline
 62
253
  6
CONTINUOUS
 70
0
 71
3
 72
11
 73
7
 74
5
 42
0.0000001
 43
0.0000001
 44
0.0000000001
 12
-0.1022732405
 22
0.0517308258
 32
0.0
 13
-0.1030347895
 23
-0.0501968744
 33
0.0
 40
0.0
 40
0.0
 40
0.0
 40
0.0
 40
0.2789499081
 40
0.5349528633
 40
0.7726365704
 40
1.0
 40
1.0
 40
1.0
 40
1.0
 10
1.4592816968
 20
17.0830452079
 30
0.0
 10
1.4497719931
 20
17.087855311
 30
0.0
 10
1.4307434885
 20
17.0956571083
 30
0.0
 10
1.4015436353
 20
17.1013150423
 30
0.0
 10
1.3737414653
 20
17.1001212618
 30
0.0
 10
1.3565785059
 20
17.0945840245
 30
0.0
 10
1.3487697249
 20
17.0907797134
 30
0.0
 11
1.4592816968
 21
17.0830452079
 31
0.0
 11
1.4296040412
 21
17.0949355718
 31
0.0
 11
1.4007496966
 21
17.1002572845
 31
0.0
 11
1.3735442258
 21
17.0988588661
 31
0.0
 11
1.3487697249
 21
17.0907797134
 31
0.0
  0
SPLINE
  5
42F
100
AcDbEntity
  8
RACCORDO
100
AcDbSpline
 62
253
  6
CONTINUOUS
 70
0
 71
3
 72
11
 73
7
 74
5
 42
0.0000001
 43
0.0000001
 44
0.0000000001
 12
0.0017306169
 22
0.3673419505
 32
0.0
 13
-0.3293172692
 23
0.162767441
 33
0.0
 40
0.0
 40
0.0
 40
0.0
 40
0.0
 40
0.2468889152
 40
0.5116858701
 40
0.7700776245
 40
1.0
 40
1.0
 40
1.0
 40
1.0
 10
2.973381561
 20
16.1094925888
 30
0.0
 10
2.9735239844
 20
16.1397234741
 30
0.0
 10
2.9633335612
 20
16.2025408396
 30
0.0
 10
2.9256854288
 20
16.289881975
 30
0.0
 10
2.8700830389
 20
16.3644754888
 30
0.0
 10
2.8218469936
 20
16.4019075021
 30
0.0
 10
2.7966078574
 20
16.4143821277
 30
0.0
 11
2.973381561
 21
16.1094925888
 31
0.0
 11
2.9602387803
 21
16.1992289118
 31
0.0
 11
2.9220296403
 21
16.2886823907
 31
0.0
 11
2.8645697001
 21
16.3642337431
 31
0.0
 11
2.7966078574
 21
16.4143821277
 31
0.0
  0
SPLINE
  5
430
100
AcDbEntity
  8
RACCORDO
100
AcDbSpline
 62
253
  6
CONTINUOUS
 70
0
 71
3
 72
11
 73
7
 74
5
 42
0.0000001
 43
0.0000001
 44
0.0000000001
 12
-0.0017563531
 22
0.3667457895
 32
0.0
 13
-0.3272560827
 23
0.1655566829
 33
0.0
 40
0.0
 40
0.0
 40
0.0
 40
0.0
 40
0.2466958371
 40
0.5118834552
 40
0.7705706608
 40
1.0
 40
1.0
 40
1.0
 40
1.0
 10
0.8438335985
 20
15.0433317653
 30
0.0
 10
0.8436891701
 20
15.0734899851
 30
0.0
 10
0.8330361561
 20
15.1361191166
 30
0.0
 10
0.7952177016
 20
15.2232453675
 30
0.0
 10
0.7399022773
 20
15.2978431856
 30
0.0
 10
0.6920872771
 20
15.3355601173
 30
0.0
 10
0.6670598948
 20
15.3482213041
 30
0.0
 11
0.8438335985
 21
15.0433317653
 31
0.0
 11
0.8300602649
 21
15.1327529431
 31
0.0
 11
0.7916296952
 21
15.2220956755
 31
0.0
 11
0.7343911897
 21
15.29775769
 31
0.0
 11
0.6670598948
 21
15.3482213041
 31
0.0
  0
SPLINE
  5
431
100
AcDbEntity
  8
RACCORDO
100
AcDbSpline
 62
7
  6
CONTINUOUS
 70
0
 71
3
 72
11
 73
7
 74
5
 42
0.0000001
 43
0.0000001
 44
0.0000000001
 12
-0.0
 22
0.3670486434
 32
0.0
 13
-0.328298287
 23
0.1641491435
 33
0.0
 40
0.0
 40
0.0
 40
0.0
 40
0.0
 40
0.2467927921
 40
0.5117852903
 40
0.7703247525
 40
1.0
 40
1.0
 40
1.0
 40
1.0
 10
2.4451143893
 20
15.8460537688
 30
0.0
 10
2.4451143893
 20
15.8762487553
 30
0.0
 10
2.4346943859
 20
15.9389730938
 30
0.0
 10
2.3969606122
 20
16.0262069031
 30
0.0
 10
2.3415020064
 20
16.1008030123
 30
0.0
 10
2.2934746824
 20
16.1383763092
 30
0.0
 10
2.2683406856
 20
16.1509433076
 30
0.0
 11
2.4451143893
 21
15.8460537688
 31
0.0
 11
2.4316584252
 21
15.9356337438
 31
0.0
 11
2.3933388018
 21
16.0250323642
 31
0.0
 11
2.3359890546
 21
16.1006390001
 31
0.0
 11
2.2683406856
 21
16.1509433076
 31
0.0
  0
SPLINE
  5
432
100
AcDbEntity
  8
RACCORDO
100
AcDbSpline
 62
253
  6
CONTINUOUS
 70
0
 71
3
 72
13
 73
9
 74
7
 42
0.0000001
 43
0.0000001
 44
0.0000000001
 12
0.3242438585
 22
-0.1621219293
 32
0.0
 13
0.3249922964
 23
0.1606163348
 33
0.0
 40
0.0
 40
0.0
 40
0.0
 40
0.0
 40
0.1125245899
 40
0.2354260292
 40
0.4995816495
 40
0.7639634918
 40
0.8871317035
 40
1.0
 40
1.0
 40
1.0
 40
1.0
 10
0.4913116388
 20
15.0438444892
 30
0.0
 10
0.5034734412
 20
15.037763588
 30
0.0
 10
0.5299702018
 20
15.0270994691
 30
0.0
 10
0.5884601622
 20
15.0117121576
 30
0.0
 10
0.6673850183
 20
15.0042521798
 30
0.0
 10
0.7463599326
 20
15.01149259
 30
0.0
 10
0.8049991775
 20
15.0267054594
 30
0.0
 10
0.8316064895
 20
15.0372889346
 30
0.0
 10
0.8438335985
 20
15.0433317653
 30
0.0
 11
0.4913116388
 21
15.0438444892
 31
0.0
 11
0.5290459274
 21
15.028349179
 31
0.0
 11
0.5720815169
 21
15.0168179241
 31
0.0
 11
0.6673612037
 21
15.0072333655
 31
0.0
 11
0.7627507752
 21
15.0165406366
 31
0.0
 11
0.8059197946
 21
15.0279465308
 31
0.0
 11
0.8438335985
 21
15.0433317653
 31
0.0
  0
SPLINE
  5
433
100
AcDbEntity
  8
RACCORDO
100
AcDbSpline
 62
253
  6
CONTINUOUS
 70
0
 71
3
 72
13
 73
9
 74
7
 42
0.0000001
 43
0.0000001
 44
0.0000000001
 12
0.3242438589
 22
-0.1621219295
 32
0.0
 13
0.3249922968
 23
0.160616335
 33
0.0
 40
0.0
 40
0.0
 40
0.0
 40
0.0
 40
0.1125245356
 40
0.2354259129
 40
0.4995814041
 40
0.7639631741
 40
0.8871313456
 40
1.0
 40
1.0
 40
1.0
 40
1.0
 10
0.4913116388
 20
14.703870555
 30
0.0
 10
0.5034734354
 20
14.6977896568
 30
0.0
 10
0.5299701825
 20
14.6871255424
 30
0.0
 10
0.5884601126
 20
14.6717382328
 30
0.0
 10
0.6673849361
 20
14.6642782465
 30
0.0
 10
0.7463598206
 20
14.6715186446
 30
0.0
 10
0.8049991014
 20
14.6867314935
 30
0.0
 10
0.8316064507
 20
14.6973149813
 30
0.0
 10
0.8438335985
 20
14.7033578312
 30
0.0
 11
0.4913116388
 21
14.703870555
 31
0.0
 11
0.5290459088
 21
14.6883752512
 31
0.0
 11
0.5720814756
 21
14.6768439983
 31
0.0
 11
0.6673611146
 21
14.6672594315
 31
0.0
 11
0.7627506621
 21
14.6765666804
 31
0.0
 11
0.805919672
 21
14.6879725535
 31
0.0
 11
0.8438335985
 21
14.7033578312
 31
0.0
  0
SPLINE
  5
434
100
AcDbEntity
  8
RACCORDO
100
AcDbSpline
 62
253
  6
CONTINUOUS
 70
0
 71
3
 72
11
 73
7
 74
5
 42
0.0000001
 43
0.0000001
 44
0.0000000001
 12
-0.0
 22
0.365918428
 32
0.0
 13
0.3263519549
 23
0.1655013517
 33
0.0
 40
0.0
 40
0.0
 40
0.0
 40
0.0
 40
0.2465994894
 40
0.5114083944
 40
0.7699753467
 40
1.0
 40
1.0
 40
1.0
 40
1.0
 10
-0.833673041
 20
15.7063368291
 30
0.0
 10
-0.833673041
 20
15.7364152616
 30
0.0
 10
-0.823330279
 20
15.7989002709
 30
0.0
 10
-0.7858466555
 20
15.8858706817
 30
0.0
 10
-0.7307073143
 20
15.9603696678
 30
0.0
 10
-0.6829477835
 20
15.998023847
 30
0.0
 10
-0.657924785
 20
16.010713644
 30
0.0
 11
-0.833673041
 21
15.7063368291
 31
0.0
 11
-0.8203146794
 21
15.7955778683
 31
0.0
 11
-0.7822594266
 21
15.8846907683
 31
0.0
 11
-0.725257404
 21
15.9602067038
 31
0.0
 11
-0.657924785
 21
16.010713644
 31
0.0
  0
SPLINE
  5
435
100
AcDbEntity
  8
RACCORDO
100
AcDbSpline
 62
253
  6
CONTINUOUS
 70
0
 71
3
 72
11
 73
7
 74
5
 42
0.0000001
 43
0.0000001
 44
0.0000000001
 12
-0.0
 22
0.3659184285
 32
0.0
 13
0.3263519554
 23
0.165501352
 33
0.0
 40
0.0
 40
0.0
 40
0.0
 40
0.0
 40
0.2465996066
 40
0.5114086341
 40
0.7699756527
 40
1.0
 40
1.0
 40
1.0
 40
1.0
 10
0.4913116388
 20
15.0438444892
 30
0.0
 10
0.4913116388
 20
15.073922936
 30
0.0
 10
0.5016544109
 20
15.1364079747
 30
0.0
 10
0.5391380632
 20
15.2233784142
 30
0.0
 10
0.5942774137
 20
15.2978773785
 30
0.0
 10
0.6420369296
 20
15.335531524
 30
0.0
 10
0.6670598948
 20
15.3482213041
 30
0.0
 11
0.4913116388
 21
15.0438444892
 31
0.0
 11
0.5046700128
 21
15.13308557
 31
0.0
 11
0.5427252976
 21
15.2221985053
 31
0.0
 11
0.5997273544
 21
15.2977144455
 31
0.0
 11
0.6670598948
 21
15.3482213041
 31
0.0
  0
SPLINE
  5
436
100
AcDbEntity
  8
RACCORDO
100
AcDbSpline
 62
253
  6
CONTINUOUS
 70
0
 71
3
 72
11
 73
7
 74
5
 42
0.0000001
 43
0.0000001
 44
0.0000000001
 12
0.0
 22
-0.1574304972
 32
0.0
 13
0.1408119364
 23
-0.0704014205
 33
0.0
 40
0.0
 40
0.0
 40
0.0
 40
0.0
 40
0.289749639
 40
0.5495875602
 40
0.7828489991
 40
1.0
 40
1.0
 40
1.0
 40
1.0
 10
-12.8730065256
 20
21.3860296372
 30
0.0
 10
-12.8730065256
 20
21.370824494
 30
0.0
 10
-12.8705526642
 20
21.3418742705
 30
0.0
 10
-12.8581792907
 20
21.3022795818
 30
0.0
 10
-12.8375124641
 20
21.2705809421
 30
0.0
 10
-12.8182257447
 20
21.2559070325
 30
0.0
 10
-12.8080332604
 20
21.2508111195
 30
0.0
 11
-12.8730065256
 21
21.3860296372
 31
0.0
 11
-12.8686867155
 21
21.3406192125
 31
0.0
 11
-12.8559392263
 21
21.3017497367
 31
0.0
 11
-12.8353860108
 21
21.271317768
 31
0.0
 11
-12.8080332604
 21
21.2508111195
 31
0.0
  0
SPLINE
  5
437
100
AcDbEntity
  8
RACCORDO
100
AcDbSpline
 62
253
  6
CONTINUOUS
 70
0
 71
3
 72
11
 73
7
 74
5
 42
0.0000001
 43
0.0000001
 44
0.0000000001
 12
0.0
 22
-0.1574304972
 32
0.0
 13
0.1408119364
 23
-0.0704014205
 33
0.0
 40
0.0
 40
0.0
 40
0.0
 40
0.0
 40
0.289749639
 40
0.5495875602
 40
0.7828489991
 40
1.0
 40
1.0
 40
1.0
 40
1.0
 10
-14.1979912054
 20
22.0485219772
 30
0.0
 10
-14.1979912054
 20
22.0333168339
 30
0.0
 10
-14.195537344
 20
22.0043666104
 30
0.0
 10
-14.1831639705
 20
21.9647719217
 30
0.0
 10
-14.162497144
 20
21.933073282
 30
0.0
 10
-14.1432104245
 20
21.9183993724
 30
0.0
 10
-14.1330179402
 20
21.9133034594
 30
0.0
 11
-14.1979912054
 21
22.0485219772
 31
0.0
 11
-14.1936713954
 21
22.0031115525
 31
0.0
 11
-14.1809239062
 21
21.9642420766
 31
0.0
 11
-14.1603706906
 21
21.9338101079
 31
0.0
 11
-14.1330179402
 21
21.9133034594
 31
0.0
  0
SPLINE
  5
438
100
AcDbEntity
  8
RACCORDO
100
AcDbSpline
 62
7
  6
CONTINUOUS
 70
0
 71
3
 72
12
 73
8
 74
6
 42
0.0000001
 43
0.0000001
 44
0.0000000001
 12
-0.2288947893
 22
-0.2740443819
 32
0.0
 13
-0.3495652491
 23
0.0727824462
 33
0.0
 40
0.0
 40
0.0
 40
0.0
 40
0.0
 40
0.2548335856
 40
0.5141953181
 40
0.6424651752
 40
0.7674743832
 40
1.0
 40
1.0
 40
1.0
 40
1.0
 10
-11.8092639579
 20
21.2370133905
 30
0.0
 10
-11.8287073178
 20
21.2137348197
 30
0.0
 10
-11.8733213521
 20
21.1710652737
 30
0.0
 10
-11.9389848647
 20
21.1306293375
 30
0.0
 10
-11.9959663979
 20
21.1082992897
 30
0.0
 10
-12.0521564935
 20
21.0944977054
 30
0.0
 10
-12.0959479103
 20
21.0937030349
 30
0.0
 10
-12.123042202
 20
21.099344296
 30
0.0
 11
-11.8092639579
 21
21.2370133905
 31
0.0
 11
-11.8748785598
 21
21.173972539
 31
0.0
 11
-11.9539358872
 21
21.12574171
 31
0.0
 11
-11.9966218673
 21
21.1091413552
 31
0.0
 11
-12.0400187053
 21
21.0986968168
 31
0.0
 11
-12.123042202
 21
21.099344296
 31
0.0
  0
SPLINE
  5
439
100
AcDbEntity
  8
RACCORDO
100
AcDbSpline
 62
253
  6
CONTINUOUS
 70
0
 71
3
 72
13
 73
9
 74
7
 42
0.0000001
 43
0.0000001
 44
0.0000000001
 12
-0.1069170157
 22
-0.2783410717
 32
0.0
 13
-0.2918756657
 23
0.0609392829
 33
0.0
 40
0.0
 40
0.0
 40
0.0
 40
0.0
 40
0.2769974725
 40
0.5361985654
 40
0.6582146203
 40
0.7753291389
 40
0.8886899808
 40
1.0
 40
1.0
 40
1.0
 40
1.0
 10
-12.520484566
 20
21.3855169134
 30
0.0
 10
-12.5303564803
 20
21.3598169889
 30
0.0
 10
-12.5560934663
 20
21.3122819195
 30
0.0
 10
-12.6034200048
 20
21.2653768017
 30
0.0
 10
-12.64670107
 20
21.2407769477
 30
0.0
 10
-12.6801006713
 20
21.2294469225
 30
0.0
 10
-12.7140586181
 20
21.2252893067
 30
0.0
 10
-12.7364984332
 20
21.2274346077
 30
0.0
 10
-12.7473279952
 20
21.2296956586
 30
0.0
 11
-12.520484566
 21
21.3855169134
 31
0.0
 11
-12.5603679995
 21
21.3131927887
 31
0.0
 11
-12.615918663
 21
21.259459888
 31
0.0
 11
-12.6476186839
 21
21.2416071853
 31
0.0
 11
-12.6807301914
 21
21.2305151967
 31
0.0
 11
-12.7142923499
 21
21.2265062982
 31
0.0
 11
-12.7473279952
 21
21.2296956586
 31
0.0
  0
SPLINE
  5
43A
100
AcDbEntity
  8
RACCORDO
100
AcDbSpline
 62
253
  6
CONTINUOUS
 70
0
 71
3
 72
13
 73
9
 74
7
 42
0.0000001
 43
0.0000001
 44
0.0000000001
 12
0.3242438589
 22
-0.1621219295
 32
0.0
 13
0.3249922968
 23
0.160616335
 33
0.0
 40
0.0
 40
0.0
 40
0.0
 40
0.0
 40
0.1125245356
 40
0.2354259129
 40
0.4995814041
 40
0.7639631741
 40
0.8871313456
 40
1.0
 40
1.0
 40
1.0
 40
1.0
 10
-12.8730065256
 20
21.7260035714
 30
0.0
 10
-12.8608447291
 20
21.7199226731
 30
0.0
 10
-12.8343479819
 20
21.7092585587
 30
0.0
 10
-12.7758580518
 20
21.6938712492
 30
0.0
 10
-12.6969332284
 20
21.6864112628
 30
0.0
 10
-12.6179583438
 20
21.693651661
 30
0.0
 10
-12.559319063
 20
21.7088645098
 30
0.0
 10
-12.5327117137
 20
21.7194479977
 30
0.0
 10
-12.520484566
 20
21.7254908475
 30
0.0
 11
-12.8730065256
 21
21.7260035714
 31
0.0
 11
-12.8352722556
 21
21.7105082675
 31
0.0
 11
-12.7922366888
 21
21.6989770146
 31
0.0
 11
-12.6969570498
 21
21.6893924479
 31
0.0
 11
-12.6015675023
 21
21.6986996967
 31
0.0
 11
-12.5583984924
 21
21.7101055698
 31
0.0
 11
-12.520484566
 21
21.7254908475
 31
0.0
  0
SPLINE
  5
43B
100
AcDbEntity
  8
RACCORDO
100
AcDbSpline
 62
253
  6
CONTINUOUS
 70
0
 71
3
 72
13
 73
9
 74
7
 42
0.0000001
 43
0.0000001
 44
0.0000000001
 12
0.3242438589
 22
-0.1621219295
 32
0.0
 13
0.3249922968
 23
0.160616335
 33
0.0
 40
0.0
 40
0.0
 40
0.0
 40
0.0
 40
0.1125245356
 40
0.2354259129
 40
0.4995814041
 40
0.7639631741
 40
0.8871313456
 40
1.0
 40
1.0
 40
1.0
 40
1.0
 10
-12.8730065256
 20
21.3860296372
 30
0.0
 10
-12.8608447291
 20
21.379948739
 30
0.0
 10
-12.8343479819
 20
21.3692846246
 30
0.0
 10
-12.7758580518
 20
21.353897315
 30
0.0
 10
-12.6969332284
 20
21.3464373287
 30
0.0
 10
-12.6179583438
 20
21.3536777268
 30
0.0
 10
-12.559319063
 20
21.3688905757
 30
0.0
 10
-12.5327117137
 20
21.3794740635
 30
0.0
 10
-12.520484566
 20
21.3855169134
 30
0.0
 11
-12.8730065256
 21
21.3860296372
 31
0.0
 11
-12.8352722556
 21
21.3705343334
 31
0.0
 11
-12.7922366888
 21
21.3590030805
 31
0.0
 11
-12.6969570498
 21
21.3494185137
 31
0.0
 11
-12.6015675023
 21
21.3587257626
 31
0.0
 11
-12.5583984924
 21
21.3701316357
 31
0.0
 11
-12.520484566
 21
21.3855169134
 31
0.0
  0
SPLINE
  5
43C
100
AcDbEntity
  8
RACCORDO
100
AcDbSpline
 62
253
  6
CONTINUOUS
 70
0
 71
3
 72
11
 73
7
 74
5
 42
0.0000001
 43
0.0000001
 44
0.0000000001
 12
0.0
 22
0.3659184282
 32
0.0
 13
0.3263519551
 23
0.1655013518
 33
0.0
 40
0.0
 40
0.0
 40
0.0
 40
0.0
 40
0.2465991784
 40
0.5114081618
 40
0.7699752382
 40
1.0
 40
1.0
 40
1.0
 40
1.0
 10
-14.1979912054
 20
22.3884959113
 30
0.0
 10
-14.1979912054
 20
22.4185743059
 30
0.0
 10
-14.1876484628
 20
22.4810592869
 30
0.0
 10
-14.1501648622
 20
22.5680296948
 30
0.0
 10
-14.0950255105
 20
22.6425287208
 30
0.0
 10
-14.0472659597
 20
22.6801829232
 30
0.0
 10
-14.0222429495
 20
22.6928727262
 30
0.0
 11
-14.1979912054
 21
22.3884959113
 31
0.0
 11
-14.1846328768
 21
22.4777368405
 31
0.0
 11
-14.1465776341
 21
22.566849776
 31
0.0
 11
-14.0895755964
 21
22.6423657571
 31
0.0
 11
-14.0222429495
 21
22.6928727262
 31
0.0
  0
SPLINE
  5
43D
100
AcDbEntity
  8
RACCORDO
100
AcDbSpline
 62
253
  6
CONTINUOUS
 70
0
 71
3
 72
11
 73
7
 74
5
 42
0.0000001
 43
0.0000001
 44
0.0000000001
 12
0.0
 22
0.3659184282
 32
0.0
 13
0.3263519551
 23
0.1655013518
 33
0.0
 40
0.0
 40
0.0
 40
0.0
 40
0.0
 40
0.2465991784
 40
0.5114081618
 40
0.7699752382
 40
1.0
 40
1.0
 40
1.0
 40
1.0
 10
-12.8730065256
 20
21.7260035714
 30
0.0
 10
-12.8730065256
 20
21.7560819659
 30
0.0
 10
-12.862663783
 20
21.818566947
 30
0.0
 10
-12.8251801823
 20
21.9055373549
 30
0.0
 10
-12.7700408307
 20
21.9800363809
 30
0.0
 10
-12.7222812799
 20
22.0176905833
 30
0.0
 10
-12.6972582696
 20
22.0303803863
 30
0.0
 11
-12.8730065256
 21
21.7260035714
 31
0.0
 11
-12.859648197
 21
21.8152445005
 31
0.0
 11
-12.8215929542
 21
21.9043574361
 31
0.0
 11
-12.7645909166
 21
21.9798734172
 31
0.0
 11
-12.6972582696
 21
22.0303803863
 31
0.0
  0
SPLINE
  5
43E
100
AcDbEntity
  8
RACCORDO
100
AcDbSpline
 62
253
  6
CONTINUOUS
 70
0
 71
3
 72
11
 73
7
 74
5
 42
0.0000001
 43
0.0000001
 44
0.0000000001
 12
-0.1051368994
 22
0.0519560066
 32
0.0
 13
-0.104347279
 23
-0.0535241963
 33
0.0
 40
0.0
 40
0.0
 40
0.0
 40
0.0
 40
0.2795156184
 40
0.5356957389
 40
0.7731450427
 40
1.0
 40
1.0
 40
1.0
 40
1.0
 10
-14.0222429495
 20
22.6928727262
 30
0.0
 10
-14.0320387513
 20
22.6977135647
 30
0.0
 10
-14.0516151353
 20
22.7055175517
 30
0.0
 10
-14.081581312
 20
22.7109706603
 30
0.0
 10
-14.1099947661
 20
22.7093497969
 30
0.0
 10
-14.1274307167
 20
22.7033714418
 30
0.0
 10
-14.1353212826
 20
22.699324032
 30
0.0
 11
-14.0222429495
 21
22.6928727262
 31
0.0
 11
-14.0527909461
 21
22.7047615004
 31
0.0
 11
-14.0823974093
 21
22.7098659552
 31
0.0
 11
-14.1101838211
 21
22.7080355775
 31
0.0
 11
-14.1353212826
 21
22.699324032
 31
0.0
  0
SPLINE
  5
43F
100
AcDbEntity
  8
RACCORDO
100
AcDbSpline
 62
7
  6
CONTINUOUS
 70
0
 71
3
 72
11
 73
7
 74
5
 42
0.0000001
 43
0.0000001
 44
0.0000000001
 12
-0.1028463418
 22
0.0514231709
 32
0.0
 13
-0.1033748983
 23
-0.0503521891
 33
0.0
 40
0.0
 40
0.0
 40
0.0
 40
0.0
 40
0.2790833933
 40
0.5352290697
 40
0.7729212505
 40
1.0
 40
1.0
 40
1.0
 40
1.0
 10
-12.4394863463
 20
23.5048568236
 30
0.0
 10
-12.449053915
 20
23.5096406079
 30
0.0
 10
-12.4681854284
 20
23.5173913404
 30
0.0
 10
-12.4975044069
 20
23.5229851638
 30
0.0
 10
-12.5253871765
 20
23.5217514069
 30
0.0
 10
-12.5425937148
 20
23.5161981406
 30
0.0
 10
-12.5504184624
 20
23.5123868366
 30
0.0
 11
-12.4394863463
 21
23.5048568236
 31
0.0
 11
-12.4693237504
 21
23.5166693588
 31
0.0
 11
-12.4983032637
 21
23.521929815
 31
0.0
 11
-12.5255964539
 21
23.5204888306
 31
0.0
 11
-12.5504184624
 21
23.5123868366
 31
0.0
  0
SPLINE
  5
440
100
AcDbEntity
  8
RACCORDO
100
AcDbSpline
 62
253
  6
CONTINUOUS
 70
0
 71
3
 72
11
 73
7
 74
5
 42
0.0000001
 43
0.0000001
 44
0.0000000001
 12
-0.1022732388
 22
0.0517308249
 32
0.0
 13
-0.1030347983
 23
-0.0501968522
 33
0.0
 40
0.0
 40
0.0
 40
0.0
 40
0.0
 40
0.2789492198
 40
0.5349524055
 40
0.7726363297
 40
1.0
 40
1.0
 40
1.0
 40
1.0
 10
-11.9050364676
 20
23.7652042901
 30
0.0
 10
-11.9145461477
 20
23.7700143812
 30
0.0
 10
-11.9335746335
 20
23.777816175
 30
0.0
 10
-11.9627744747
 20
23.7834741205
 30
0.0
 10
-11.9905766717
 20
23.7822803486
 30
0.0
 10
-12.0077396486
 20
23.7767431083
 30
0.0
 10
-12.0155484386
 20
23.7729387948
 30
0.0
 11
-11.9050364676
 21
23.7652042901
 31
0.0
 11
-11.9347140468
 21
23.7770946312
 31
0.0
 11
-11.9635684146
 21
23.7824163616
 31
0.0
 11
-11.9907739103
 21
23.781017951
 31
0.0
 11
-12.0155484386
 21
23.7729387948
 31
0.0
  0
SPLINE
  5
441
100
AcDbEntity
  8
RACCORDO
100
AcDbSpline
 62
253
  6
CONTINUOUS
 70
0
 71
3
 72
11
 73
7
 74
5
 42
0.0000001
 43
0.0000001
 44
0.0000000001
 12
0.0017306169
 22
0.3673419508
 32
0.0
 13
-0.3293172695
 23
0.1627674411
 33
0.0
 40
0.0
 40
0.0
 40
0.0
 40
0.0
 40
0.2468893536
 40
0.5116863499
 40
0.7700780422
 40
1.0
 40
1.0
 40
1.0
 40
1.0
 10
-10.3909366034
 20
22.7916516711
 30
0.0
 10
-10.3907941797
 20
22.82188261
 30
0.0
 10
-10.4009846332
 20
22.8847000345
 30
0.0
 10
-10.4386328187
 20
22.9720412014
 30
0.0
 10
-10.4942352074
 20
23.0466346516
 30
0.0
 10
-10.5424712166
 20
23.084066607
 30
0.0
 10
-10.5677103071
 20
23.0965412099
 30
0.0
 11
-10.3909366034
 21
22.7916516711
 31
0.0
 11
-10.4040794306
 21
22.8813881501
 31
0.0
 11
-10.4422886136
 21
22.9708416272
 31
0.0
 11
-10.4997485728
 21
23.0463929365
 31
0.0
 11
-10.5677103071
 21
23.0965412099
 31
0.0
  0
SPLINE
  5
442
100
AcDbEntity
  8
RACCORDO
100
AcDbSpline
 62
253
  6
CONTINUOUS
 70
0
 71
3
 72
11
 73
7
 74
5
 42
0.0000001
 43
0.0000001
 44
0.0000000001
 12
-0.0017563531
 22
0.3667457897
 32
0.0
 13
-0.3272560829
 23
0.165556683
 33
0.0
 40
0.0
 40
0.0
 40
0.0
 40
0.0
 40
0.2466955157
 40
0.5118832147
 40
0.7705705489
 40
1.0
 40
1.0
 40
1.0
 40
1.0
 10
-12.520484566
 20
21.7254908475
 30
0.0
 10
-12.5206289941
 20
21.7556490281
 30
0.0
 10
-12.531281988
 20
21.8182781304
 30
0.0
 10
-12.569100419
 20
21.9054043782
 30
0.0
 10
-12.6244158543
 20
21.9800022376
 30
0.0
 10
-12.6722308751
 20
22.0177191934
 30
0.0
 10
-12.6972582696
 20
22.0303803863
 30
0.0
 11
-12.520484566
 21
21.7254908475
 31
0.0
 11
-12.5342578649
 21
21.8149119114
 31
0.0
 11
-12.5726884245
 21
21.9042546805
 31
0.0
 11
-12.6299269458
 21
21.9799167423
 31
0.0
 11
-12.6972582696
 21
22.0303803863
 31
0.0
  0
SPLINE
  5
443
100
AcDbEntity
  8
RACCORDO
100
AcDbSpline
 62
7
  6
CONTINUOUS
 70
0
 71
3
 72
11
 73
7
 74
5
 42
0.0000001
 43
0.0000001
 44
0.0000000001
 12
0.0
 22
0.3670486434
 32
0.0
 13
-0.328298287
 23
0.1641491435
 33
0.0
 40
0.0
 40
0.0
 40
0.0
 40
0.0
 40
0.2467927921
 40
0.5117852903
 40
0.7703247525
 40
1.0
 40
1.0
 40
1.0
 40
1.0
 10
-10.9192037751
 20
22.528212851
 30
0.0
 10
-10.9192037751
 20
22.5584078375
 30
0.0
 10
-10.9296237785
 20
22.621132176
 30
0.0
 10
-10.9673575523
 20
22.7083659853
 30
0.0
 10
-11.022816158
 20
22.7829620945
 30
0.0
 10
-11.070843482
 20
22.8205353914
 30
0.0
 10
-11.0959774788
 20
22.8331023898
 30
0.0
 11
-10.9192037751
 21
22.528212851
 31
0.0
 11
-10.9326597393
 21
22.617792826
 31
0.0
 11
-10.9709793627
 21
22.7071914465
 31
0.0
 11
-11.0283291098
 21
22.7827980823
 31
0.0
 11
-11.0959774788
 21
22.8331023898
 31
0.0
  0
SPLINE
  5
444
100
AcDbEntity
  8
RACCORDO
100
AcDbSpline
 62
253
  6
CONTINUOUS
 70
0
 71
3
 72
13
 73
9
 74
7
 42
0.0000001
 43
0.0000001
 44
0.0000000001
 12
0.0395649606
 22
-0.0644099514
 32
0.0
 13
-0.0460053766
 23
-0.0599794404
 33
0.0
 40
0.0
 40
0.0
 40
0.0
 40
0.0
 40
0.343523616
 40
0.6193726266
 40
0.732864265
 40
0.8318563311
 40
0.9193403725
 40
1.0
 40
1.0
 40
1.0
 40
1.0
 10
-10.3909366034
 20
22.4441201543
 30
0.0
 10
-10.3864061039
 20
22.4367447078
 30
0.0
 10
-10.3788526347
 20
22.4230556112
 30
0.0
 10
-10.3723394625
 20
22.4056253101
 30
0.0
 10
-10.3703358797
 20
22.3934430036
 30
0.0
 10
-10.3703630351
 20
22.3858386563
 30
0.0
 10
-10.3718569276
 20
22.3792087659
 30
0.0
 10
-10.3739199844
 20
22.3754260851
 30
0.0
 10
-10.3751569099
 20
22.3738134453
 30
0.0
 11
-10.3909366034
 21
22.4441201543
 31
0.0
 11
-10.3786576027
 21
22.4212393793
 31
0.0
 11
-10.3718316047
 21
22.4015365513
 31
0.0
 11
-10.3705305871
 21
22.3930568081
 31
0.0
 11
-10.3706531962
 21
22.3855748846
 31
0.0
 11
-10.3721990268
 21
22.379145073
 31
0.0
 11
-10.3751569099
 21
22.3738134453
 31
0.0
  0
SPLINE
  5
445
100
AcDbEntity
  8
RACCORDO
100
AcDbSpline
 62
253
  6
CONTINUOUS
 70
0
 71
3
 72
11
 73
7
 74
5
 42
0.0000001
 43
0.0000001
 44
0.0000000001
 12
-0.1076203225
 22
0.0538101613
 32
0.0
 13
0.0000013829
 23
0.1203231785
 33
0.0
 40
0.0
 40
0.0
 40
0.0
 40
0.0
 40
0.3025823249
 40
0.5654825874
 40
0.7934322572
 40
1.0
 40
1.0
 40
1.0
 40
1.0
 10
-14.1979912054
 20
22.0485219772
 30
0.0
 10
-14.2088458746
 20
22.0539493117
 30
0.0
 10
-14.2284643476
 20
22.0655890422
 30
0.0
 10
-14.2522757178
 20
22.0871096696
 30
0.0
 10
-14.2675549148
 20
22.1110639545
 30
0.0
 10
-14.2712146032
 20
22.1286253623
 30
0.0
 10
-14.271214508
 20
22.1369103248
 30
0.0
 11
-14.1979912054
 21
22.0485219772
 31
0.0
 11
-14.2290828784
 21
22.0674646827
 31
0.0
 11
-14.252183715
 21
22.0890748131
 31
0.0
 11
-14.2664106752
 21
22.1125240865
 31
0.0
 11
-14.271214508
 21
22.1369103248
 31
0.0
  0
SPLINE
  5
446
100
AcDbEntity
  8
RACCORDO
100
AcDbSpline
 62
253
  6
CONTINUOUS
 70
0
 71
3
 72
11
 73
7
 74
5
 42
0.0000001
 43
0.0000001
 44
0.0000000001
 12
-0.1076203225
 22
0.0538101613
 32
0.0
 13
0.0000013829
 23
0.1203231785
 33
0.0
 40
0.0
 40
0.0
 40
0.0
 40
0.0
 40
0.3025823249
 40
0.5654825874
 40
0.7934322572
 40
1.0
 40
1.0
 40
1.0
 40
1.0
 10
-14.1979912054
 20
22.3884959113
 30
0.0
 10
-14.2088458746
 20
22.3939232458
 30
0.0
 10
-14.2284643476
 20
22.4055629763
 30
0.0
 10
-14.2522757178
 20
22.4270836038
 30
0.0
 10
-14.2675549148
 20
22.4510378887
 30
0.0
 10
-14.2712146032
 20
22.4685992965
 30
0.0
 10
-14.271214508
 20
22.4768842589
 30
0.0
 11
-14.1979912054
 21
22.3884959113
 31
0.0
 11
-14.2290828784
 21
22.4074386168
 31
0.0
 11
-14.252183715
 21
22.4290487472
 31
0.0
 11
-14.2664106752
 21
22.4524980207
 31
0.0
 11
-14.271214508
 21
22.4768842589
 31
0.0
  0
SPLINE
  5
447
100
AcDbEntity
  8
RACCORDO
100
AcDbSpline
 62
253
  6
CONTINUOUS
 70
0
 71
3
 72
15
 73
11
 74
9
 42
0.0000001
 43
0.0000001
 44
0.0000000001
 12
0.2449792415
 22
0.6818397162
 32
0.0
 13
0.6388825191
 23
0.3416860462
 33
0.0
 40
0.0
 40
0.0
 40
0.0
 40
0.0
 40
0.1038315714
 40
0.2217584431
 40
0.3503411631
 40
0.485426447
 40
0.622478404
 40
0.7568495436
 40
0.8840410752
 40
1.0
 40
1.0
 40
1.0
 40
1.0
 10
-13.3034983506
 20
-21.5067919654
 30
0.0
 10
-13.2950194907
 20
-21.4831931357
 30
0.0
 10
-13.2728941071
 20
-21.4342226615
 30
0.0
 10
-13.2298174469
 20
-21.361269502
 30
0.0
 10
-13.1760253331
 20
-21.2863040982
 30
0.0
 10
-13.1135762128
 20
-21.2122564492
 30
0.0
 10
-13.0448786562
 20
-21.1420007377
 30
0.0
 10
-12.9726008752
 20
-21.0782679662
 30
0.0
 10
-12.899571438
 20
-21.0235257002
 30
0.0
 10
-12.8494600326
 20
-20.992670965
 30
0.0
 10
-12.8247653226
 20
-20.9794637828
 30
0.0
 11
-13.3034983506
 21
-21.5067919654
 31
0.0
 11
-13.2731733242
 21
-21.4379475376
 31
0.0
 11
-13.2301116103
 21
-21.3641530824
 31
0.0
 11
-13.1760091813
 21
-21.2883130923
 31
0.0
 11
-13.1130008096
 21
-21.2134217897
 31
0.0
 11
-13.0435724639
 21
-21.1424330099
 31
0.0
 11
-12.9704622763
 21
-21.0781473056
 31
0.0
 11
-12.8965570506
 21
-21.02310176
 31
0.0
 11
-12.8247653226
 21
-20.9794637828
 31
0.0
  0
SPLINE
  5
448
100
AcDbEntity
  8
RACCORDO
100
AcDbSpline
 62
253
  6
CONTINUOUS
 70
0
 71
3
 72
13
 73
9
 74
7
 42
0.0000001
 43
0.0000001
 44
0.0000000001
 12
-0.2240273364
 22
0.7108133895
 32
0.0
 13
0.6615066621
 23
0.3432970406
 33
0.0
 40
0.0
 40
0.0
 40
0.0
 40
0.0
 40
0.2626760377
 40
0.5259948898
 40
0.6531252562
 40
0.774860547
 40
0.8904315838
 40
1.0
 40
1.0
 40
1.0
 40
1.0
 10
-9.7044723742
 20
-23.3063050941
 30
0.0
 10
-9.7240879119
 20
-23.2440672126
 30
0.0
 10
-9.7429631768
 20
-23.1123643698
 30
0.0
 10
-9.7175372223
 20
-22.9494300982
 30
0.0
 10
-9.6684060481
 20
-22.83149088
 30
0.0
 10
-9.6194524793
 20
-22.7547192307
 30
0.0
 10
-9.559841882
 20
-22.6917412482
 30
0.0
 10
-9.5131974835
 20
-22.6598659909
 30
0.0
 10
-9.4890374044
 20
-22.6473278199
 30
0.0
 11
-9.7044723742
 21
-23.3063050941
 31
0.0
 11
-9.7331261219
 21
-23.1126459303
 31
0.0
 11
-9.7021141389
 21
-22.9188652012
 31
0.0
 11
-9.6653945837
 21
-22.8315220207
 31
0.0
 11
-9.61628114
 21
-22.7552379443
 31
0.0
 11
-9.5567143624
 21
-22.693023178
 31
0.0
 11
-9.4890374044
 21
-22.6473278199
 31
0.0
  0
SPLINE
  5
449
100
AcDbEntity
  8
RACCORDO
100
AcDbSpline
 62
253
  6
CONTINUOUS
 70
0
 71
3
 72
13
 73
9
 74
7
 42
0.0000001
 43
0.0000001
 44
0.0000000001
 12
-0.0788921026
 22
-0.186089863
 32
0.0
 13
0.1417678303
 23
-0.1440669403
 33
0.0
 40
0.0
 40
0.0
 40
0.0
 40
0.0
 40
0.3222129887
 40
0.5908029341
 40
0.7062860552
 40
0.8110297746
 40
0.9077040073
 40
1.0
 40
1.0
 40
1.0
 40
1.0
 10
-9.7044722389
 20
12.3089348467
 30
0.0
 10
-9.7129455923
 20
12.2889479897
 30
0.0
 10
-9.7263138014
 20
12.251310097
 30
0.0
 10
-9.734106533
 20
12.2038999431
 30
0.0
 10
-9.7325222777
 20
12.1708811873
 30
0.0
 10
-9.7279077268
 20
12.1499075381
 30
0.0
 10
-9.7197858728
 20
12.1316970932
 30
0.0
 10
-9.7119525813
 20
12.1214758461
 30
0.0
 10
-9.7075910471
 20
12.117043579
 30
0.0
 11
-9.7044722389
 21
12.3089348467
 31
0.0
 11
-9.7254897741
 21
12.2472930367
 31
0.0
 11
-9.7331146573
 21
12.1935431685
 31
0.0
 11
-9.7318019327
 21
12.1702384038
 31
0.0
 11
-9.727077168
 21
12.1496013172
 31
0.0
 11
-9.7189822847
 21
12.131816915
 31
0.0
 11
-9.7075910471
 21
12.117043579
 31
0.0
  0
SPLINE
  5
44A
100
AcDbEntity
  8
RACCORDO
100
AcDbSpline
 62
7
  6
CONTINUOUS
 70
0
 71
3
 72
12
 73
8
 74
6
 42
0.0000001
 43
0.0000001
 44
0.0000000001
 12
-0.4345619355
 22
-0.032159537
 32
0.0
 13
-0.4201960756
 23
-0.1153844428
 33
0.0
 40
0.0
 40
0.0
 40
0.0
 40
0.0
 40
0.1460665466
 40
0.2901900051
 40
0.5606459046
 40
0.7988834635
 40
1.0
 40
1.0
 40
1.0
 40
1.0
 10
-2.6142036819
 20
17.4154529592
 30
0.0
 10
-2.6353620023
 20
17.4138871483
 30
0.0
 10
-2.6772311281
 20
17.4084780377
 30
0.0
 10
-2.7571410437
 20
17.3926548079
 30
0.0
 10
-2.8489008109
 20
17.3684919381
 30
0.0
 10
-2.9477005676
 20
17.3390617899
 30
0.0
 10
-3.0088566019
 20
17.3207986346
 30
0.0
 10
-3.0370260617
 20
17.3130633947
 30
0.0
 11
-2.6142036819
 21
17.4154529592
 31
0.0
 11
-2.6773828249
 21
17.4077372309
 31
0.0
 11
-2.7390358328
 21
17.395779911
 31
0.0
 11
-2.8532327195
 21
17.3666597327
 31
0.0
 11
-2.952867961
 21
17.3375089607
 31
0.0
 11
-3.0370260617
 21
17.3130633947
 31
0.0
  0
SPLINE
  5
44B
100
AcDbEntity
  8
RACCORDO
100
AcDbSpline
 62
253
  6
CONTINUOUS
 70
0
 71
3
 72
14
 73
10
 74
8
 42
0.0000001
 43
0.0000001
 44
0.0000000001
 12
0.1275625422
 22
-0.5117307201
 32
0.0
 13
0.5273901821
 23
-0.0003576393
 33
0.0
 40
0.0
 40
0.0
 40
0.0
 40
0.0
 40
0.2800861465
 40
0.4129142197
 40
0.5399463366
 40
0.6612297821
 40
0.7774098241
 40
0.889741768
 40
1.0
 40
1.0
 40
1.0
 40
1.0
 10
-13.3034985077
 20
14.1084478304
 30
0.0
 10
-13.2915890074
 20
14.060671602
 30
0.0
 10
-13.2655714114
 20
13.9917555982
 30
0.0
 10
-13.2142838235
 20
13.9115821965
 30
0.0
 10
-13.1699977341
 20
13.8609198577
 30
0.0
 10
-13.1202707478
 20
13.8200155284
 30
0.0
 10
-13.0662281908
 20
13.7899125068
 30
0.0
 10
-13.0092006385
 20
13.7714565627
 30
0.0
 10
-12.9699538939
 20
13.767281327
 30
0.0
 10
-12.9505708576
 20
13.7672681828
 30
0.0
 11
-13.3034985077
 21
14.1084478304
 31
0.0
 11
-13.2502175628
 21
13.9706770833
 31
0.0
 11
-13.2122934841
 21
13.9117781845
 31
0.0
 11
-13.1680148312
 21
13.861500965
 31
0.0
 11
-13.1184551135
 21
13.8210634703
 31
0.0
 11
-13.0648162019
 21
13.7914467007
 31
0.0
 11
-13.0083990948
 21
13.7733686263
 31
0.0
 11
-12.9505708576
 21
13.7672681828
 31
0.0
  0
SPLINE
  5
44C
100
AcDbEntity
  8
RACCORDO
100
AcDbSpline
 62
253
  6
CONTINUOUS
 70
0
 71
3
 72
12
 73
8
 74
6
 42
0.0000001
 43
0.0000001
 44
0.0000000001
 12
-1.909153435
 22
0.9545546127
 32
0.0
 13
-1.5359655013
 23
1.4821778995
 33
0.0
 40
0.0
 40
0.0
 40
0.0
 40
0.0
 40
0.1144349983
 40
0.2331539718
 40
0.4808986704
 40
0.738022425
 40
1.0
 40
1.0
 40
1.0
 40
1.0
 10
-11.0499970742
 20
-22.1522186127
 30
0.0
 10
-11.1228217308
 20
-22.1158071275
 30
0.0
 10
-11.2704276826
 20
-22.0400672406
 30
0.0
 10
-11.5716001807
 20
-21.8776654181
 30
0.0
 10
-11.954769303
 20
-21.6534774002
 30
0.0
 10
-12.4064064368
 20
-21.3464824908
 30
0.0
 10
-12.6906358572
 20
-21.1088963471
 30
0.0
 10
-12.824765363
 20
-20.9794638898
 30
0.0
 11
-11.0499970742
 21
-22.1522186127
 31
0.0
 11
-11.2673328855
 21
-22.0407368342
 31
0.0
 11
-11.4903409715
 21
-21.9203992785
 31
0.0
 11
-11.9459055558
 21
-21.6518866267
 31
0.0
 11
-12.398273432
 21
-21.341121187
 31
0.0
 11
-12.824765363
 21
-20.9794638898
 31
0.0
  0
SPLINE
  5
44D
100
AcDbEntity
  8
RACCORDO
100
AcDbSpline
 62
253
  6
CONTINUOUS
 70
0
 71
3
 72
19
 73
15
 74
13
 42
0.0000001
 43
0.0000001
 44
0.0000000001
 12
-1.7651293408
 22
5.8545356539
 32
0.0
 13
5.5277490223
 23
2.6144330282
 33
0.0
 40
0.0
 40
0.0
 40
0.0
 40
0.0
 40
0.1551750479
 40
0.3028782949
 40
0.4414936791
 40
0.5071085165
 40
0.5701600701
 40
0.6885922083
 40
0.7443493954
 40
0.7980575678
 40
0.8500426501
 40
0.9007079708
 40
0.9505223225
 40
1.0
 40
1.0
 40
1.0
 40
1.0
 10
-15.4398570511
 20
-16.6568638033
 30
0.0
 10
-15.5311583944
 20
-16.3540378532
 30
0.0
 10
-15.6798370387
 20
-15.7534268919
 30
0.0
 10
-15.7980202944
 20
-14.8594271788
 30
0.0
 10
-15.8029604374
 20
-14.13970702
 30
0.0
 10
-15.7469457243
 20
-13.5972698849
 30
0.0
 10
-15.6563187868
 20
-13.1015188744
 30
0.0
 10
-15.5102625479
 20
-12.63709968
 30
0.0
 10
-15.3050276507
 20
-12.2195635627
 30
0.0
 10
-15.1285495978
 20
-11.9409698002
 30
0.0
 10
-14.9275731461
 20
-11.6926583096
 30
0.0
 10
-14.7033300137
 20
-11.4763052502
 30
0.0
 10
-14.4573535442
 20
-11.2934818134
 30
0.0
 10
-14.279879177
 20
-11.1947727551
 30
0.0
 10
-14.1887124492
 20
-11.1516540637
 30
0.0
 11
-15.4398570511
 21
-16.6568638033
 31
0.0
 11
-15.665760395
 21
-15.7352765304
 31
0.0
 11
-15.7811257959
 21
-14.8394930337
 31
0.0
 11
-15.7829477616
 21
-13.9918840836
 31
0.0
 11
-15.7411487095
 21
-13.5928430729
 31
0.0
 11
-15.6711785404
 21
-13.2136952031
 31
0.0
 11
-15.4487351139
 21
-12.5245107043
 31
0.0
 11
-15.2977147178
 21
-12.2188357008
 31
0.0
 11
-15.1214185146
 21
-11.9417485319
 31
0.0
 11
-14.9209950029
 21
-11.6950130329
 31
0.0
 11
-14.6977475853
 21
-11.4802037367
 31
0.0
 11
-14.4531253155
 21
-11.2986954879
 31
0.0
 11
-14.1887124492
 21
-11.1516540637
 31
0.0
  0
SPLINE
  5
44E
100
AcDbEntity
  8
RACCORDO
100
AcDbSpline
 62
253
  6
CONTINUOUS
 70
0
 71
3
 72
14
 73
10
 74
8
 42
0.0000001
 43
0.0000001
 44
0.0000000001
 12
-1.6506359508
 22
0.0299865524
 32
0.0
 13
-1.4766084537
 23
0.7383262896
 33
0.0
 40
0.0
 40
0.0
 40
0.0
 40
0.0
 40
0.1168117884
 40
0.2325518135
 40
0.4690185208
 40
0.5931050623
 40
0.7225923705
 40
0.8581463017
 40
1.0
 40
1.0
 40
1.0
 40
1.0
 10
-9.4890373873
 20
-22.6473278776
 30
0.0
 10
-9.5533086331
 20
-22.6461602833
 30
0.0
 10
-9.6812297072
 20
-22.6376627079
 30
0.0
 10
-9.9364301008
 20
-22.5972187161
 30
0.0
 10
-10.1893615246
 20
-22.5249280143
 30
0.0
 10
-10.4419712814
 20
-22.4304993805
 30
0.0
 10
-10.6393681457
 20
-22.3473324022
 30
0.0
 10
-10.8429442532
 20
-22.2540371663
 30
0.0
 10
-10.9801762841
 20
-22.1871300509
 30
0.0
 10
-11.0499970742
 20
-22.1522186127
 30
0.0
 11
-9.4890373873
 21
-22.6473278776
 31
0.0
 11
-9.6814695681
 21
-22.6347079486
 31
0.0
 11
-9.8702435329
 21
-22.6051361284
 31
0.0
 11
-10.2466278584
 21
-22.5015254554
 31
0.0
 11
-10.4386889019
 21
-22.4302630369
 31
0.0
 11
-10.6358501019
 21
-22.3476447023
 31
0.0
 11
-10.8394200131
 21
-22.2546933047
 31
0.0
 11
-11.0499970742
 21
-22.1522186127
 31
0.0
  0
SPLINE
  5
44F
100
AcDbEntity
  8
RACCORDO
100
AcDbSpline
 62
253
  6
CONTINUOUS
 70
0
 71
3
 72
27
 73
23
 74
21
 42
0.0000001
 43
0.0000001
 44
0.0000000001
 12
-11.9951215721
 22
5.9975903713
 32
0.0
 13
12.123469661
 23
5.7337173954
 33
0.0
 40
0.0
 40
0.0
 40
0.0
 40
0.0
 40
0.0598512667
 40
0.1238541832
 40
0.191427434
 40
0.261764759
 40
0.3339076202
 40
0.4068089809
 40
0.479391108
 40
0.5506005262
 40
0.619462696
 40
0.6851392172
 40
0.7469904981
 40
0.8046470312
 40
0.8319054557
 40
0.8581433084
 40
0.8834270875
 40
0.9078544604
 40
0.9315545344
 40
0.9546861582
 40
0.9774336877
 40
1.0
 40
1.0
 40
1.0
 40
1.0
 10
-11.4225868933
 20
-10.0489180141
 30
0.0
 10
-11.6618946335
 20
-9.9292635538
 30
0.0
 10
-12.1384437759
 20
-9.6432391687
 30
0.0
 10
-12.8112827852
 20
-9.1114176941
 30
0.0
 10
-13.452632124
 20
-8.4737181847
 30
0.0
 10
-14.0472626654
 20
-7.7449602008
 30
0.0
 10
-14.5811302069
 20
-6.941923561
 30
0.0
 10
-15.0413968614
 20
-6.0831910441
 30
0.0
 10
-15.4169320088
 20
-5.1886586899
 30
0.0
 10
-15.6985947381
 20
-4.2790645852
 30
0.0
 10
-15.8794933926
 20
-3.3754990686
 30
0.0
 10
-15.9551086685
 20
-2.4987789013
 30
0.0
 10
-15.9234123159
 20
-1.6692612258
 30
0.0
 10
-15.8054885134
 20
-1.0209235695
 30
0.0
 10
-15.655817493
 20
-0.546533162
 30
0.0
 10
-15.5202028617
 20
-0.2209644163
 30
0.0
 10
-15.3599426404
 20
0.0789812362
 30
0.0
 10
-15.1759507847
 20
0.3514766025
 30
0.0
 10
-14.9693100971
 20
0.5948035745
 30
0.0
 10
-14.741244661
 20
0.8074004052
 30
0.0
 10
-14.4932235935
 20
0.9878348838
 30
0.0
 10
-14.3153345314
 20
1.0860302004
 30
0.0
 10
-14.2241405306
 20
1.1291598196
 30
0.0
 11
-11.4225868933
 21
-10.0489180141
 31
0.0
 11
-12.1128438871
 21
-9.6392672583
 31
0.0
 11
-12.7881952085
 21
-9.1095033017
 31
0.0
 11
-13.4324130087
 21
-8.4721471428
 31
0.0
 11
-14.0299238355
 21
-7.7422295233
 31
0.0
 11
-14.5661971639
 21
-6.9369483001
 31
0.0
 11
-15.0281205713
 21
-6.0752752114
 31
0.0
 11
-15.4043439524
 21
-5.177524292
 31
0.0
 11
-15.6855836113
 21
-4.2648881628
 31
0.0
 11
-15.8648756221
 21
-3.3589511272
 31
0.0
 11
-15.9377694228
 21
-2.4811870057
 31
0.0
 11
-15.9024530771
 21
-1.6524536875
 31
0.0
 11
-15.7598046132
 21
-0.8924959108
 31
0.0
 11
-15.649236193
 21
-0.544056426
 31
0.0
 11
-15.5133671403
 21
-0.2194711575
 31
0.0
 11
-15.3530403406
 21
0.0793105557
 31
0.0
 11
-15.1692488149
 21
0.3504912238
 31
0.0
 11
-14.9631288371
 21
0.5924362516
 31
0.0
 11
-14.735952162
 21
0.8036840174
 31
0.0
 11
-14.4891173914
 21
0.9829549914
 31
0.0
 11
-14.2241405306
 21
1.1291598196
 31
0.0
  0
SPLINE
  5
450
100
AcDbEntity
  8
RACCORDO
100
AcDbSpline
 62
253
  6
CONTINUOUS
 70
0
 71
3
 72
14
 73
10
 74
8
 42
0.0000001
 43
0.0000001
 44
0.0000000001
 12
-4.5489185178
 22
2.2744710347
 32
0.0
 13
-2.2611730996
 23
4.5555432588
 33
0.0
 40
0.0
 40
0.0
 40
0.0
 40
0.0
 40
0.1098746476
 40
0.2251877841
 40
0.3455767862
 40
0.4704945358
 40
0.5992507536
 40
0.7310440384
 40
1.0
 40
1.0
 40
1.0
 40
1.0
 10
-11.4173590193
 20
2.2513684181
 30
0.0
 10
-11.5839626257
 20
2.3346706526
 30
0.0
 10
-11.9161796868
 20
2.524359323
 30
0.0
 10
-12.3949686306
 20
2.8633255101
 30
0.0
 10
-12.8612449371
 20
3.259893344
 30
0.0
 10
-13.3094704439
 20
3.7093971129
 30
0.0
 10
-13.7344228862
 20
4.2066923763
 30
0.0
 10
-14.2665540702
 20
4.9302939976
 30
0.0
 10
-14.6104123814
 20
5.5195684212
 30
0.0
 10
-14.8131310432
 20
5.9279819271
 30
0.0
 11
-11.4173590193
 21
2.2513684181
 31
0.0
 11
-11.9033415138
 21
2.5272039313
 31
0.0
 11
-12.382718192
 21
2.8650495649
 31
0.0
 11
-12.8497927698
 21
3.2609393851
 31
0.0
 11
-13.2989762377
 21
3.7102242215
 31
0.0
 11
-13.7248725581
 21
4.2076386206
 31
0.0
 11
-14.1223433399
 21
4.7473548149
 31
0.0
 11
-14.8131310432
 21
5.9279819271
 31
0.0
  0
SPLINE
  5
451
100
AcDbEntity
  8
RACCORDO
100
AcDbSpline
 62
253
  6
CONTINUOUS
 70
0
 71
3
 72
22
 73
18
 74
16
 42
0.0000001
 43
0.0000001
 44
0.0000000001
 12
-3.0205456059
 22
7.1847124786
 32
0.0
 13
7.045736829
 23
3.3318736012
 33
0.0
 40
0.0
 40
0.0
 40
0.0
 40
0.0
 40
0.151179178
 40
0.2253749578
 40
0.298134499
 40
0.3691320488
 40
0.4380818566
 40
0.5047471512
 40
0.5689498012
 40
0.6305807802
 40
0.6896112589
 40
0.7461036985
 40
0.8002220653
 40
0.8522391641
 40
0.9025379352
 40
0.9516030377
 40
1.0
 40
1.0
 40
1.0
 40
1.0
 10
-15.0754005997
 20
6.5007750351
 30
0.0
 10
-15.2276151336
 20
6.8628346773
 30
0.0
 10
-15.4231534426
 20
7.4167384735
 30
0.0
 10
-15.6121811205
 20
8.1682266399
 30
0.0
 10
-15.7149853347
 20
8.7254846504
 30
0.0
 10
-15.778707611
 20
9.2748291587
 30
0.0
 10
-15.8027656424
 20
9.811535138
 30
0.0
 10
-15.7869160384
 20
10.3309336805
 30
0.0
 10
-15.7312674517
 20
10.8285211542
 30
0.0
 10
-15.6362691316
 20
11.2999762273
 30
0.0
 10
-15.5027017047
 20
11.7411941426
 30
0.0
 10
-15.331662752
 20
12.1483052555
 30
0.0
 10
-15.1245551698
 20
12.5176879997
 30
0.0
 10
-14.8831059296
 20
12.8459690899
 30
0.0
 10
-14.6093450362
 20
13.130059274
 30
0.0
 10
-14.3058040791
 20
13.3671142852
 30
0.0
 10
-14.0846480073
 20
13.4926367802
 30
0.0
 10
-13.9709839207
 20
13.5463876339
 30
0.0
 11
-15.0754005997
 21
6.5007750351
 31
0.0
 11
-15.466258213
 21
7.6123227697
 31
0.0
 11
-15.6070098918
 21
8.1732009725
 31
0.0
 11
-15.7094786215
 21
8.730941766
 31
0.0
 11
-15.7727247825
 21
9.2806582661
 31
0.0
 11
-15.7961691373
 21
9.8175297144
 31
0.0
 11
-15.7795971075
 21
10.3368433499
 31
0.0
 11
-15.7231602676
 21
10.8340350462
 31
0.0
 11
-15.6273751286
 21
11.3047292719
 31
0.0
 11
-15.4931182073
 21
11.7447778255
 31
0.0
 11
-15.3216155135
 21
12.150295144
 31
0.0
 11
-15.1144299657
 21
12.5176919509
 31
0.0
 11
-14.8734465925
 21
12.8437076822
 31
0.0
 11
-14.6008543331
 21
13.1254401862
 31
0.0
 11
-14.2991238883
 21
13.3603707758
 31
0.0
 11
-13.9709839207
 21
13.5463876339
 31
0.0
  0
SPLINE
  5
452
100
AcDbEntity
  8
DRAFT
100
AcDbSpline
 62
7
  6
CONTINUOUS
 70
0
 71
3
 72
9
 73
5
 74
3
 42
0.0000001
 43
0.0000001
 44
0.0000000001
 12
-0.7335664407
 22
0.3667832204
 32
0.0
 13
-0.6726885119
 23
0.4691906006
 33
0.0
 40
0.0
 40
0.0
 40
0.0
 40
0.0
 40
0.2431017873
 40
1.0
 40
1.0
 40
1.0
 40
1.0
 10
-7.7725785988
 20
-20.4434447188
 30
0.0
 10
-7.8320223698
 20
-20.4137228333
 30
0.0
 10
-8.0741153488
 20
-20.2866311247
 30
0.0
 10
-8.3063675473
 20
-20.1410485373
 30
0.0
 10
-8.4760864581
 20
-20.0226720283
 30
0.0
 11
-7.7725785988
 21
-20.4434447188
 31
0.0
 11
-7.9491472664
 21
-20.3508376074
 31
0.0
 11
-8.4760864581
 21
-20.0226720283
 31
0.0
  0
SPLINE
  5
453
100
AcDbEntity
  8
DRAFT
100
AcDbSpline
 62
7
  6
CONTINUOUS
 70
0
 71
3
 72
9
 73
5
 74
3
 42
0.0000001
 43
0.0000001
 44
0.0000000001
 12
0.0480789906
 22
1.3951026716
 32
0.0
 13
0.4191423989
 23
1.3315189458
 33
0.0
 40
0.0
 40
0.0
 40
0.0
 40
0.0
 40
0.5168968026
 40
1.0
 40
1.0
 40
1.0
 40
1.0
 10
-12.1881967348
 20
-12.5985897467
 30
0.0
 10
-12.179912776
 20
-12.3582150433
 30
0.0
 10
-12.1373444137
 20
-11.893547226
 30
0.0
 10
-12.0329868021
 20
-11.4381637891
 30
0.0
 10
-11.9654904578
 20
-11.2237434357
 30
0.0
 11
-12.1881967348
 21
-12.5985897467
 31
0.0
 11
-12.1193968812
 21
-11.8803250474
 31
0.0
 11
-11.9654904578
 21
-11.2237434357
 31
0.0
  0
SPLINE
  5
454
100
AcDbEntity
  8
DRAFT
100
AcDbSpline
 62
7
  6
CONTINUOUS
 70
0
 71
3
 72
9
 73
5
 74
3
 42
0.0000001
 43
0.0000001
 44
0.0000000001
 12
-0.7335664407
 22
0.3667832204
 32
0.0
 13
-0.6726885119
 23
0.4691906006
 33
0.0
 40
0.0
 40
0.0
 40
0.0
 40
0.0
 40
0.2431017873
 40
1.0
 40
1.0
 40
1.0
 40
1.0
 10
-7.7725785988
 20
-8.145883985
 30
0.0
 10
-7.8320223698
 20
-8.1161620995
 30
0.0
 10
-8.0741153488
 20
-7.9890703909
 30
0.0
 10
-8.3063675473
 20
-7.8434878036
 30
0.0
 10
-8.4760864581
 20
-7.7251112946
 30
0.0
 11
-7.7725785988
 21
-8.145883985
 31
0.0
 11
-7.9491472664
 21
-8.0532768737
 31
0.0
 11
-8.4760864581
 21
-7.7251112946
 31
0.0
  0
SPLINE
  5
455
100
AcDbEntity
  8
DRAFT
100
AcDbSpline
 62
7
  6
CONTINUOUS
 70
0
 71
3
 72
9
 73
5
 74
3
 42
0.0000001
 43
0.0000001
 44
0.0000000001
 12
0.0479202484
 22
1.3904964673
 32
0.0
 13
0.4163020002
 23
1.3275802878
 33
0.0
 40
0.0
 40
0.0
 40
0.0
 40
0.0
 40
0.5168319321
 40
1.0
 40
1.0
 40
1.0
 40
1.0
 10
-12.1881967348
 20
-0.3010290129
 30
0.0
 10
-12.1799411633
 20
-0.061478021
 30
0.0
 10
-12.1376029489
 20
0.4016543495
 30
0.0
 10
-12.0339234901
 20
0.8555939455
 30
0.0
 10
-11.9668755458
 20
1.0694087464
 30
0.0
 11
-12.1881967348
 21
-0.3010290129
 31
0.0
 11
-12.1197924994
 21
0.4147896445
 31
0.0
 11
-11.9668755458
 21
1.0694087464
 31
0.0
  0
SPLINE
  5
456
100
AcDbEntity
  8
DRAFT
100
AcDbSpline
 62
7
  6
CONTINUOUS
 70
0
 71
3
 72
9
 73
5
 74
3
 42
0.0000001
 43
0.0000001
 44
0.0000000001
 12
-0.7335664407
 22
0.3667832204
 32
0.0
 13
-0.6726885119
 23
0.4691906006
 33
0.0
 40
0.0
 40
0.0
 40
0.0
 40
0.0
 40
0.2431017873
 40
1.0
 40
1.0
 40
1.0
 40
1.0
 10
-7.7725785988
 20
4.1516767487
 30
0.0
 10
-7.8320223698
 20
4.1813986342
 30
0.0
 10
-8.0741153488
 20
4.3084903428
 30
0.0
 10
-8.3063675473
 20
4.4540729302
 30
0.0
 10
-8.4760864581
 20
4.5724494392
 30
0.0
 11
-7.7725785988
 21
4.1516767487
 31
0.0
 11
-7.9491472664
 21
4.24428386
 31
0.0
 11
-8.4760864581
 21
4.5724494392
 31
0.0
  0
SPLINE
  5
457
100
AcDbEntity
  8
DRAFT
100
AcDbSpline
 62
7
  6
CONTINUOUS
 70
0
 71
3
 72
10
 73
6
 74
4
 42
0.0000001
 43
0.0000001
 44
0.0000000001
 12
0.0574413667
 22
1.6667696889
 32
0.0
 13
0.6072123105
 23
1.5532913173
 33
0.0
 40
0.0
 40
0.0
 40
0.0
 40
0.0
 40
0.2656285786
 40
0.5209912665
 40
1.0
 40
1.0
 40
1.0
 40
1.0
 10
-12.1881967348
 20
11.9965317208
 30
0.0
 10
-12.183110712
 20
12.1441122752
 30
0.0
 10
-12.1629426645
 20
12.4334118952
 30
0.0
 10
-12.0816255523
 20
12.9835896296
 30
0.0
 10
-11.9721562887
 20
13.3799911216
 30
0.0
 10
-11.8752029554
 20
13.6280044905
 30
0.0
 11
-12.1881967348
 21
11.9965317208
 31
0.0
 11
-12.1567750481
 21
12.43842047
 31
0.0
 11
-12.0937959596
 21
12.8596215663
 31
0.0
 11
-11.8752029554
 21
13.6280044905
 31
0.0
  0
SPLINE
  5
458
100
AcDbEntity
  8
ASSI
100
AcDbSpline
 62
7
  6
CONTINUOUS
 70
0
 71
3
 72
13
 73
9
 74
7
 42
0.0000001
 43
0.0000001
 44
0.0000000001
 12
-0.0000027133
 22
-0.1425291075
 32
0.0
 13
-0.1270314313
 23
-0.0646340618
 33
0.0
 40
0.0
 40
0.0
 40
0.0
 40
0.0
 40
0.1024904437
 40
0.2077977095
 40
0.4356598786
 40
0.5622810427
 40
0.6984260697
 40
1.0
 40
1.0
 40
1.0
 40
1.0
 10
17.7268409412
 20
-11.5450639302
 30
0.0
 10
17.7268408485
 20
-11.5499332207
 30
0.0
 10
17.7258647053
 20
-11.5598317831
 30
0.0
 10
17.7199381835
 20
-11.579771812
 30
0.0
 10
17.7081200051
 20
-11.5986498905
 30
0.0
 10
17.6921065863
 20
-11.6156219481
 30
0.0
 10
17.6715243081
 20
-11.6328915471
 30
0.0
 10
17.6535858946
 20
-11.6437001292
 30
0.0
 10
17.6408161053
 20
-11.6501974452
 30
0.0
 11
17.7268409412
 21
-11.5450639302
 31
0.0
 11
17.7254277349
 21
-11.5596032822
 31
0.0
 11
17.7212026196
 21
-11.5740056781
 31
0.0
 11
17.7045019693
 21
-11.6018596412
 31
0.0
 11
17.6921835691
 21
-11.615048974
 31
0.0
 11
17.6773667471
 21
-11.6275789948
 31
0.0
 11
17.6408161053
 21
-11.6501974452
 31
0.0
  0
SPLINE
  5
459
100
AcDbEntity
  8
ASSI
100
AcDbSpline
 62
7
  6
CONTINUOUS
 70
0
 71
3
 72
13
 73
9
 74
7
 42
0.0000001
 43
0.0000001
 44
0.0000000001
 12
-0.0000027133
 22
-0.1425291075
 32
0.0
 13
-0.1270314313
 23
-0.0646340618
 33
0.0
 40
0.0
 40
0.0
 40
0.0
 40
0.0
 40
0.1024904437
 40
0.2077977095
 40
0.4356598786
 40
0.5622810427
 40
0.6984260697
 40
1.0
 40
1.0
 40
1.0
 40
1.0
 10
17.7268409412
 20
-7.2149369113
 30
0.0
 10
17.7268408485
 20
-7.2198062017
 30
0.0
 10
17.7258647053
 20
-7.2297047642
 30
0.0
 10
17.7199381835
 20
-7.249644793
 30
0.0
 10
17.7081200051
 20
-7.2685228716
 30
0.0
 10
17.6921065863
 20
-7.2854949292
 30
0.0
 10
17.6715243081
 20
-7.3027645282
 30
0.0
 10
17.6535858946
 20
-7.3135731103
 30
0.0
 10
17.6408161053
 20
-7.3200704263
 30
0.0
 11
17.7268409412
 21
-7.2149369113
 31
0.0
 11
17.7254277349
 21
-7.2294762633
 31
0.0
 11
17.7212026196
 21
-7.2438786591
 31
0.0
 11
17.7045019693
 21
-7.2717326223
 31
0.0
 11
17.6921835691
 21
-7.284921955
 31
0.0
 11
17.6773667471
 21
-7.2974519759
 31
0.0
 11
17.6408161053
 21
-7.3200704263
 31
0.0
  0
SPLINE
  5
45A
100
AcDbEntity
  8
ASSI
100
AcDbSpline
 62
7
  6
CONTINUOUS
 70
0
 71
3
 72
13
 73
9
 74
7
 42
0.0000001
 43
0.0000001
 44
0.0000000001
 12
-0.0000027133
 22
-0.1425291075
 32
0.0
 13
-0.1270314313
 23
-0.0646340618
 33
0.0
 40
0.0
 40
0.0
 40
0.0
 40
0.0
 40
0.1024904437
 40
0.2077977095
 40
0.4356598786
 40
0.5622810427
 40
0.6984260697
 40
1.0
 40
1.0
 40
1.0
 40
1.0
 10
17.7268409412
 20
-2.8848098923
 30
0.0
 10
17.7268408485
 20
-2.8896791828
 30
0.0
 10
17.7258647053
 20
-2.8995777453
 30
0.0
 10
17.7199381835
 20
-2.9195177741
 30
0.0
 10
17.7081200051
 20
-2.9383958527
 30
0.0
 10
17.6921065863
 20
-2.9553679103
 30
0.0
 10
17.6715243081
 20
-2.9726375093
 30
0.0
 10
17.6535858946
 20
-2.9834460914
 30
0.0
 10
17.6408161053
 20
-2.9899434074
 30
0.0
 11
17.7268409412
 21
-2.8848098923
 31
0.0
 11
17.7254277349
 21
-2.8993492443
 31
0.0
 11
17.7212026196
 21
-2.9137516402
 31
0.0
 11
17.7045019693
 21
-2.9416056034
 31
0.0
 11
17.6921835691
 21
-2.9547949361
 31
0.0
 11
17.6773667471
 21
-2.9673249569
 31
0.0
 11
17.6408161053
 21
-2.9899434074
 31
0.0
  0
SPLINE
  5
45B
100
AcDbEntity
  8
ASSI
100
AcDbSpline
 62
7
  6
CONTINUOUS
 70
0
 71
3
 72
13
 73
9
 74
7
 42
0.0000001
 43
0.0000001
 44
0.0000000001
 12
-0.0000027133
 22
-0.1425291075
 32
0.0
 13
-0.1270314313
 23
-0.0646340618
 33
0.0
 40
0.0
 40
0.0
 40
0.0
 40
0.0
 40
0.1024904437
 40
0.2077977095
 40
0.4356598786
 40
0.5622810427
 40
0.6984260697
 40
1.0
 40
1.0
 40
1.0
 40
1.0
 10
17.7268409412
 20
1.4453171266
 30
0.0
 10
17.7268408485
 20
1.4404478361
 30
0.0
 10
17.7258647053
 20
1.4305492736
 30
0.0
 10
17.7199381835
 20
1.4106092448
 30
0.0
 10
17.7081200051
 20
1.3917311662
 30
0.0
 10
17.6921065863
 20
1.3747591087
 30
0.0
 10
17.6715243081
 20
1.3574895096
 30
0.0
 10
17.6535858946
 20
1.3466809276
 30
0.0
 10
17.6408161053
 20
1.3401836115
 30
0.0
 11
17.7268409412
 21
1.4453171266
 31
0.0
 11
17.7254277349
 21
1.4307777746
 31
0.0
 11
17.7212026196
 21
1.4163753787
 31
0.0
 11
17.7045019693
 21
1.3885214155
 31
0.0
 11
17.6921835691
 21
1.3753320828
 31
0.0
 11
17.6773667471
 21
1.362802062
 31
0.0
 11
17.6408161053
 21
1.3401836115
 31
0.0
  0
SPLINE
  5
45C
100
AcDbEntity
  8
ASSI
100
AcDbSpline
 62
7
  6
CONTINUOUS
 70
0
 71
3
 72
13
 73
9
 74
7
 42
0.0000001
 43
0.0000001
 44
0.0000000001
 12
-0.0000027133
 22
-0.1425291075
 32
0.0
 13
-0.1270314313
 23
-0.0646340618
 33
0.0
 40
0.0
 40
0.0
 40
0.0
 40
0.0
 40
0.1024904437
 40
0.2077977095
 40
0.4356598786
 40
0.5622810427
 40
0.6984260697
 40
1.0
 40
1.0
 40
1.0
 40
1.0
 10
17.7268409412
 20
5.7754441455
 30
0.0
 10
17.7268408485
 20
5.770574855
 30
0.0
 10
17.7258647053
 20
5.7606762926
 30
0.0
 10
17.7199381835
 20
5.7407362637
 30
0.0
 10
17.7081200051
 20
5.7218581852
 30
0.0
 10
17.6921065863
 20
5.7048861276
 30
0.0
 10
17.6715243081
 20
5.6876165286
 30
0.0
 10
17.6535858946
 20
5.6768079465
 30
0.0
 10
17.6408161053
 20
5.6703106305
 30
0.0
 11
17.7268409412
 21
5.7754441455
 31
0.0
 11
17.7254277349
 21
5.7609047935
 31
0.0
 11
17.7212026196
 21
5.7465023976
 31
0.0
 11
17.7045019693
 21
5.7186484345
 31
0.0
 11
17.6921835691
 21
5.7054591017
 31
0.0
 11
17.6773667471
 21
5.6929290809
 31
0.0
 11
17.6408161053
 21
5.6703106305
 31
0.0
  0
SPLINE
  5
45D
100
AcDbEntity
  8
ASSI
100
AcDbSpline
 62
7
  6
CONTINUOUS
 70
0
 71
3
 72
13
 73
9
 74
7
 42
0.0000001
 43
0.0000001
 44
0.0000000001
 12
-0.0000027133
 22
-0.1425291075
 32
0.0
 13
-0.1270314313
 23
-0.0646340618
 33
0.0
 40
0.0
 40
0.0
 40
0.0
 40
0.0
 40
0.1024904437
 40
0.2077977095
 40
0.4356598786
 40
0.5622810427
 40
0.6984260697
 40
1.0
 40
1.0
 40
1.0
 40
1.0
 10
17.7268409412
 20
10.1055711644
 30
0.0
 10
17.7268408485
 20
10.1007018739
 30
0.0
 10
17.7258647053
 20
10.0908033115
 30
0.0
 10
17.7199381835
 20
10.0708632827
 30
0.0
 10
17.7081200051
 20
10.0519852041
 30
0.0
 10
17.6921065863
 20
10.0350131465
 30
0.0
 10
17.6715243081
 20
10.0177435475
 30
0.0
 10
17.6535858946
 20
10.0069349654
 30
0.0
 10
17.6408161053
 20
10.0004376494
 30
0.0
 11
17.7268409412
 21
10.1055711644
 31
0.0
 11
17.7254277349
 21
10.0910318124
 31
0.0
 11
17.7212026196
 21
10.0766294166
 31
0.0
 11
17.7045019693
 21
10.0487754534
 31
0.0
 11
17.6921835691
 21
10.0355861206
 31
0.0
 11
17.6773667471
 21
10.0230560998
 31
0.0
 11
17.6408161053
 21
10.0004376494
 31
0.0
  0
SPLINE
  5
45E
100
AcDbEntity
  8
ASSI
100
AcDbSpline
 62
7
  6
CONTINUOUS
 70
0
 71
3
 72
15
 73
11
 74
9
 42
0.0000001
 43
0.0000001
 44
0.0000000001
 12
-0.0000021724
 22
-0.4687398473
 32
0.0
 13
-0.4162539982
 23
-0.2155218167
 33
0.0
 40
0.0
 40
0.0
 40
0.0
 40
0.0
 40
0.1027077972
 40
0.2081767552
 40
0.3188663381
 40
0.4367343548
 40
0.5631677775
 40
0.6990102561
 40
0.844627764
 40
1.0
 40
1.0
 40
1.0
 40
1.0
 10
19.3612777372
 20
-7.738579014
 30
0.0
 10
19.3612776628
 20
-7.7546267597
 30
0.0
 10
19.3581036045
 20
-7.787235486
 30
0.0
 10
19.343978411
 20
-7.835286042
 30
0.0
 10
19.3207089887
 20
-7.8822689813
 30
0.0
 10
19.2886130898
 20
-7.9277404256
 30
0.0
 10
19.2480478394
 20
-7.9713385727
 30
0.0
 10
19.1994080122
 20
-8.0127135445
 30
0.0
 10
19.1431454326
 20
-8.0515255214
 30
0.0
 10
19.1021757484
 20
-8.0747438427
 30
0.0
 10
19.0806176436
 20
-8.0859058782
 30
0.0
 11
19.3612777372
 21
-7.738579014
 31
0.0
 11
19.3566735978
 21
-7.7865015889
 31
0.0
 11
19.3429043592
 21
-7.8339828989
 31
0.0
 11
19.3200967334
 21
-7.8805857508
 31
0.0
 11
19.2884607441
 21
-7.9258810528
 31
0.0
 11
19.248287817
 21
-7.9694517201
 31
0.0
 11
19.1999475057
 21
-8.0108967711
 31
0.0
 11
19.1438861385
 21
-8.0498339522
 31
0.0
 11
19.0806176436
 21
-8.0859058782
 31
0.0
  0
SPLINE
  5
45F
100
AcDbEntity
  8
ASSI
100
AcDbSpline
 62
7
  6
CONTINUOUS
 70
0
 71
3
 72
15
 73
11
 74
9
 42
0.0000001
 43
0.0000001
 44
0.0000000001
 12
-0.0000021724
 22
-0.4687398473
 32
0.0
 13
-0.4162539982
 23
-0.2155218167
 33
0.0
 40
0.0
 40
0.0
 40
0.0
 40
0.0
 40
0.1027077972
 40
0.2081767552
 40
0.3188663381
 40
0.4367343548
 40
0.5631677775
 40
0.6990102561
 40
0.844627764
 40
1.0
 40
1.0
 40
1.0
 40
1.0
 10
19.3612777372
 20
-3.4084519951
 30
0.0
 10
19.3612776628
 20
-3.4244997408
 30
0.0
 10
19.3581036045
 20
-3.4571084671
 30
0.0
 10
19.343978411
 20
-3.5051590231
 30
0.0
 10
19.3207089887
 20
-3.5521419624
 30
0.0
 10
19.2886130898
 20
-3.5976134067
 30
0.0
 10
19.2480478394
 20
-3.6412115538
 30
0.0
 10
19.1994080122
 20
-3.6825865256
 30
0.0
 10
19.1431454326
 20
-3.7213985025
 30
0.0
 10
19.1021757484
 20
-3.7446168238
 30
0.0
 10
19.0806176436
 20
-3.7557788593
 30
0.0
 11
19.3612777372
 21
-3.4084519951
 31
0.0
 11
19.3566735978
 21
-3.45637457
 31
0.0
 11
19.3429043592
 21
-3.5038558799
 31
0.0
 11
19.3200967334
 21
-3.5504587319
 31
0.0
 11
19.2884607441
 21
-3.5957540338
 31
0.0
 11
19.248287817
 21
-3.6393247012
 31
0.0
 11
19.1999475057
 21
-3.6807697522
 31
0.0
 11
19.1438861385
 21
-3.7197069333
 31
0.0
 11
19.0806176436
 21
-3.7557788593
 31
0.0
  0
SPLINE
  5
460
100
AcDbEntity
  8
ASSI
100
AcDbSpline
 62
7
  6
CONTINUOUS
 70
0
 71
3
 72
15
 73
11
 74
9
 42
0.0000001
 43
0.0000001
 44
0.0000000001
 12
-0.0000021724
 22
-0.4687398473
 32
0.0
 13
-0.4162539982
 23
-0.2155218167
 33
0.0
 40
0.0
 40
0.0
 40
0.0
 40
0.0
 40
0.1027077972
 40
0.2081767552
 40
0.3188663381
 40
0.4367343548
 40
0.5631677775
 40
0.6990102561
 40
0.844627764
 40
1.0
 40
1.0
 40
1.0
 40
1.0
 10
19.3612777372
 20
0.9216750239
 30
0.0
 10
19.3612776628
 20
0.9056272781
 30
0.0
 10
19.3581036045
 20
0.8730185518
 30
0.0
 10
19.343978411
 20
0.8249679959
 30
0.0
 10
19.3207089887
 20
0.7779850565
 30
0.0
 10
19.2886130898
 20
0.7325136122
 30
0.0
 10
19.2480478394
 20
0.6889154651
 30
0.0
 10
19.1994080122
 20
0.6475404934
 30
0.0
 10
19.1431454326
 20
0.6087285164
 30
0.0
 10
19.1021757484
 20
0.5855101952
 30
0.0
 10
19.0806176436
 20
0.5743481596
 30
0.0
 11
19.3612777372
 21
0.9216750239
 31
0.0
 11
19.3566735978
 21
0.873752449
 31
0.0
 11
19.3429043592
 21
0.826271139
 31
0.0
 11
19.3200967334
 21
0.7796682871
 31
0.0
 11
19.2884607441
 21
0.7343729851
 31
0.0
 11
19.248287817
 21
0.6908023177
 31
0.0
 11
19.1999475057
 21
0.6493572667
 31
0.0
 11
19.1438861385
 21
0.6104200856
 31
0.0
 11
19.0806176436
 21
0.5743481596
 31
0.0
  0
SPLINE
  5
461
100
AcDbEntity
  8
ASSI
100
AcDbSpline
 62
7
  6
CONTINUOUS
 70
0
 71
3
 72
15
 73
11
 74
9
 42
0.0000001
 43
0.0000001
 44
0.0000000001
 12
-0.0000021724
 22
-0.4687398473
 32
0.0
 13
-0.4162539982
 23
-0.2155218167
 33
0.0
 40
0.0
 40
0.0
 40
0.0
 40
0.0
 40
0.1027077972
 40
0.2081767552
 40
0.3188663381
 40
0.4367343548
 40
0.5631677775
 40
0.6990102561
 40
0.844627764
 40
1.0
 40
1.0
 40
1.0
 40
1.0
 10
19.3612777372
 20
5.2518020428
 30
0.0
 10
19.3612776628
 20
5.2357542971
 30
0.0
 10
19.3581036045
 20
5.2031455708
 30
0.0
 10
19.343978411
 20
5.1550950148
 30
0.0
 10
19.3207089887
 20
5.1081120754
 30
0.0
 10
19.2886130898
 20
5.0626406312
 30
0.0
 10
19.2480478394
 20
5.0190424841
 30
0.0
 10
19.1994080122
 20
4.9776675123
 30
0.0
 10
19.1431454326
 20
4.9388555354
 30
0.0
 10
19.1021757484
 20
4.9156372141
 30
0.0
 10
19.0806176436
 20
4.9044751786
 30
0.0
 11
19.3612777372
 21
5.2518020428
 31
0.0
 11
19.3566735978
 21
5.2038794679
 31
0.0
 11
19.3429043592
 21
5.1563981579
 31
0.0
 11
19.3200967334
 21
5.109795306
 31
0.0
 11
19.2884607441
 21
5.064500004
 31
0.0
 11
19.248287817
 21
5.0209293367
 31
0.0
 11
19.1999475057
 21
4.9794842857
 31
0.0
 11
19.1438861385
 21
4.9405471045
 31
0.0
 11
19.0806176436
 21
4.9044751786
 31
0.0
  0
SPLINE
  5
462
100
AcDbEntity
  8
ASSI
100
AcDbSpline
 62
7
  6
CONTINUOUS
 70
0
 71
3
 72
15
 73
11
 74
9
 42
0.0000001
 43
0.0000001
 44
0.0000000001
 12
-0.0000021724
 22
-0.4687398473
 32
0.0
 13
-0.4162539982
 23
-0.2155218167
 33
0.0
 40
0.0
 40
0.0
 40
0.0
 40
0.0
 40
0.1027077972
 40
0.2081767552
 40
0.3188663381
 40
0.4367343548
 40
0.5631677775
 40
0.6990102561
 40
0.844627764
 40
1.0
 40
1.0
 40
1.0
 40
1.0
 10
19.3612777372
 20
9.5819290617
 30
0.0
 10
19.3612776628
 20
9.565881316
 30
0.0
 10
19.3581036045
 20
9.5332725897
 30
0.0
 10
19.343978411
 20
9.4852220337
 30
0.0
 10
19.3207089887
 20
9.4382390943
 30
0.0
 10
19.2886130898
 20
9.3927676501
 30
0.0
 10
19.2480478394
 20
9.349169503
 30
0.0
 10
19.1994080122
 20
9.3077945312
 30
0.0
 10
19.1431454326
 20
9.2689825543
 30
0.0
 10
19.1021757484
 20
9.245764233
 30
0.0
 10
19.0806176436
 20
9.2346021975
 30
0.0
 11
19.3612777372
 21
9.5819290617
 31
0.0
 11
19.3566735978
 21
9.5340064868
 31
0.0
 11
19.3429043592
 21
9.4865251768
 31
0.0
 11
19.3200967334
 21
9.4399223249
 31
0.0
 11
19.2884607441
 21
9.3946270229
 31
0.0
 11
19.248287817
 21
9.3510563556
 31
0.0
 11
19.1999475057
 21
9.3096113046
 31
0.0
 11
19.1438861385
 21
9.2706741234
 31
0.0
 11
19.0806176436
 21
9.2346021975
 31
0.0
  0
SPLINE
  5
463
100
AcDbEntity
  8
ASSI
100
AcDbSpline
 62
7
  6
CONTINUOUS
 70
0
 71
3
 72
15
 73
11
 74
9
 42
0.0000001
 43
0.0000001
 44
0.0000000001
 12
-0.0000021724
 22
-0.4687398473
 32
0.0
 13
-0.4162539982
 23
-0.2155218167
 33
0.0
 40
0.0
 40
0.0
 40
0.0
 40
0.0
 40
0.1027077972
 40
0.2081767552
 40
0.3188663381
 40
0.4367343548
 40
0.5631677775
 40
0.6990102561
 40
0.844627764
 40
1.0
 40
1.0
 40
1.0
 40
1.0
 10
19.3612777372
 20
13.9120560806
 30
0.0
 10
19.3612776628
 20
13.8960083349
 30
0.0
 10
19.3581036045
 20
13.8633996086
 30
0.0
 10
19.343978411
 20
13.8153490526
 30
0.0
 10
19.3207089887
 20
13.7683661133
 30
0.0
 10
19.2886130898
 20
13.722894669
 30
0.0
 10
19.2480478394
 20
13.6792965219
 30
0.0
 10
19.1994080122
 20
13.6379215501
 30
0.0
 10
19.1431454326
 20
13.5991095732
 30
0.0
 10
19.1021757484
 20
13.5758912519
 30
0.0
 10
19.0806176436
 20
13.5647292164
 30
0.0
 11
19.3612777372
 21
13.9120560806
 31
0.0
 11
19.3566735978
 21
13.8641335057
 31
0.0
 11
19.3429043592
 21
13.8166521957
 31
0.0
 11
19.3200967334
 21
13.7700493438
 31
0.0
 11
19.2884607441
 21
13.7247540418
 31
0.0
 11
19.248287817
 21
13.6811833745
 31
0.0
 11
19.1999475057
 21
13.6397383235
 31
0.0
 11
19.1438861385
 21
13.6008011424
 31
0.0
 11
19.0806176436
 21
13.5647292164
 31
0.0
  0
SPLINE
  5
464
100
AcDbEntity
  8
ASSI
100
AcDbSpline
 62
7
  6
CONTINUOUS
 70
0
 71
3
 72
15
 73
11
 74
9
 42
0.0000001
 43
0.0000001
 44
0.0000000001
 12
0.4315161028
 22
-0.2157580514
 32
0.0
 13
-0.0000022359
 23
-0.4824496696
 33
0.0
 40
0.0
 40
0.0
 40
0.0
 40
0.0
 40
0.1560120636
 40
0.3021474201
 40
0.4383313505
 40
0.5648889357
 40
0.6826430938
 40
0.7929887037
 40
0.8979275553
 40
1.0
 40
1.0
 40
1.0
 40
1.0
 10
19.0683846245
 20
10.6283050963
 30
0.0
 10
19.090825197
 20
10.6170848101
 30
0.0
 10
19.1334888656
 20
10.5936933685
 30
0.0
 10
19.1921483675
 20
10.5544213915
 30
0.0
 10
19.242907816
 20
10.5124187518
 30
0.0
 10
19.2852763823
 20
10.4680456884
 30
0.0
 10
19.3188255646
 20
10.4216726649
 30
0.0
 10
19.3431672241
 20
10.3736815845
 30
0.0
 10
19.3579535996
 20
10.3245425493
 30
0.0
 10
19.3612778132
 20
10.2911643238
 30
0.0
 10
19.3612777372
 20
10.2747493847
 30
0.0
 11
19.0683846245
 21
10.6283050963
 31
0.0
 11
19.1342892157
 21
10.5919478145
 31
0.0
 11
19.1927478137
 21
10.5525364087
 31
0.0
 11
19.2431998758
 21
10.5104492602
 31
0.0
 11
19.2851582164
 21
10.4660923426
 31
0.0
 11
19.3182190208
 21
10.4198926568
 31
0.0
 11
19.3420637537
 21
10.3722951566
 31
0.0
 11
19.3564628598
 21
10.3237582511
 31
0.0
 11
19.3612777372
 21
10.2747493847
 31
0.0
  0
SPLINE
  5
465
100
AcDbEntity
  8
ASSI
100
AcDbSpline
 62
7
  6
CONTINUOUS
 70
0
 71
3
 72
15
 73
11
 74
9
 42
0.0000001
 43
0.0000001
 44
0.0000000001
 12
0.4315161028
 22
-0.2157580514
 32
0.0
 13
-0.0000022359
 23
-0.4824496696
 33
0.0
 40
0.0
 40
0.0
 40
0.0
 40
0.0
 40
0.1560120636
 40
0.3021474201
 40
0.4383313505
 40
0.5648889357
 40
0.6826430938
 40
0.7929887037
 40
0.8979275553
 40
1.0
 40
1.0
 40
1.0
 40
1.0
 10
19.0683846245
 20
6.2981780774
 30
0.0
 10
19.090825197
 20
6.2869577911
 30
0.0
 10
19.1334888656
 20
6.2635663496
 30
0.0
 10
19.1921483675
 20
6.2242943725
 30
0.0
 10
19.242907816
 20
6.1822917329
 30
0.0
 10
19.2852763823
 20
6.1379186695
 30
0.0
 10
19.3188255646
 20
6.091545646
 30
0.0
 10
19.3431672241
 20
6.0435545656
 30
0.0
 10
19.3579535996
 20
5.9944155303
 30
0.0
 10
19.3612778132
 20
5.9610373049
 30
0.0
 10
19.3612777372
 20
5.9446223658
 30
0.0
 11
19.0683846245
 21
6.2981780774
 31
0.0
 11
19.1342892157
 21
6.2618207956
 31
0.0
 11
19.1927478137
 21
6.2224093898
 31
0.0
 11
19.2431998758
 21
6.1803222413
 31
0.0
 11
19.2851582164
 21
6.1359653237
 31
0.0
 11
19.3182190208
 21
6.0897656379
 31
0.0
 11
19.3420637537
 21
6.0421681377
 31
0.0
 11
19.3564628598
 21
5.9936312322
 31
0.0
 11
19.3612777372
 21
5.9446223658
 31
0.0
  0
SPLINE
  5
466
100
AcDbEntity
  8
ASSI
100
AcDbSpline
 62
7
  6
CONTINUOUS
 70
0
 71
3
 72
15
 73
11
 74
9
 42
0.0000001
 43
0.0000001
 44
0.0000000001
 12
0.4315161028
 22
-0.2157580514
 32
0.0
 13
-0.0000022359
 23
-0.4824496696
 33
0.0
 40
0.0
 40
0.0
 40
0.0
 40
0.0
 40
0.1560120636
 40
0.3021474201
 40
0.4383313505
 40
0.5648889357
 40
0.6826430938
 40
0.7929887037
 40
0.8979275553
 40
1.0
 40
1.0
 40
1.0
 40
1.0
 10
19.0683846245
 20
1.9680510585
 30
0.0
 10
19.090825197
 20
1.9568307722
 30
0.0
 10
19.1334888656
 20
1.9334393307
 30
0.0
 10
19.1921483675
 20
1.8941673536
 30
0.0
 10
19.242907816
 20
1.852164714
 30
0.0
 10
19.2852763823
 20
1.8077916506
 30
0.0
 10
19.3188255646
 20
1.761418627
 30
0.0
 10
19.3431672241
 20
1.7134275466
 30
0.0
 10
19.3579535996
 20
1.6642885114
 30
0.0
 10
19.3612778132
 20
1.630910286
 30
0.0
 10
19.3612777372
 20
1.6144953469
 30
0.0
 11
19.0683846245
 21
1.9680510585
 31
0.0
 11
19.1342892157
 21
1.9316937767
 31
0.0
 11
19.1927478137
 21
1.8922823709
 31
0.0
 11
19.2431998758
 21
1.8501952223
 31
0.0
 11
19.2851582164
 21
1.8058383048
 31
0.0
 11
19.3182190208
 21
1.7596386189
 31
0.0
 11
19.3420637537
 21
1.7120411187
 31
0.0
 11
19.3564628598
 21
1.6635042132
 31
0.0
 11
19.3612777372
 21
1.6144953469
 31
0.0
  0
SPLINE
  5
467
100
AcDbEntity
  8
ASSI
100
AcDbSpline
 62
7
  6
CONTINUOUS
 70
0
 71
3
 72
15
 73
11
 74
9
 42
0.0000001
 43
0.0000001
 44
0.0000000001
 12
0.4315161028
 22
-0.2157580514
 32
0.0
 13
-0.0000022359
 23
-0.4824496696
 33
0.0
 40
0.0
 40
0.0
 40
0.0
 40
0.0
 40
0.1560120636
 40
0.3021474201
 40
0.4383313505
 40
0.5648889357
 40
0.6826430938
 40
0.7929887037
 40
0.8979275553
 40
1.0
 40
1.0
 40
1.0
 40
1.0
 10
19.0683846245
 20
-2.3620759604
 30
0.0
 10
19.090825197
 20
-2.3732962467
 30
0.0
 10
19.1334888656
 20
-2.3966876882
 30
0.0
 10
19.1921483675
 20
-2.4359596653
 30
0.0
 10
19.242907816
 20
-2.477962305
 30
0.0
 10
19.2852763823
 20
-2.5223353683
 30
0.0
 10
19.3188255646
 20
-2.5687083919
 30
0.0
 10
19.3431672241
 20
-2.6166994723
 30
0.0
 10
19.3579535996
 20
-2.6658385075
 30
0.0
 10
19.3612778132
 20
-2.699216733
 30
0.0
 10
19.3612777372
 20
-2.715631672
 30
0.0
 11
19.0683846245
 21
-2.3620759604
 31
0.0
 11
19.1342892157
 21
-2.3984332423
 31
0.0
 11
19.1927478137
 21
-2.4378446481
 31
0.0
 11
19.2431998758
 21
-2.4799317966
 31
0.0
 11
19.2851582164
 21
-2.5242887141
 31
0.0
 11
19.3182190208
 21
-2.5704884
 31
0.0
 11
19.3420637537
 21
-2.6180859002
 31
0.0
 11
19.3564628598
 21
-2.6666228057
 31
0.0
 11
19.3612777372
 21
-2.715631672
 31
0.0
  0
SPLINE
  5
468
100
AcDbEntity
  8
ASSI
100
AcDbSpline
 62
7
  6
CONTINUOUS
 70
0
 71
3
 72
15
 73
11
 74
9
 42
0.0000001
 43
0.0000001
 44
0.0000000001
 12
0.4315161028
 22
-0.2157580514
 32
0.0
 13
-0.0000022359
 23
-0.4824496696
 33
0.0
 40
0.0
 40
0.0
 40
0.0
 40
0.0
 40
0.1560120636
 40
0.3021474201
 40
0.4383313505
 40
0.5648889357
 40
0.6826430938
 40
0.7929887037
 40
0.8979275553
 40
1.0
 40
1.0
 40
1.0
 40
1.0
 10
19.0683846245
 20
-6.6922029794
 30
0.0
 10
19.090825197
 20
-6.7034232656
 30
0.0
 10
19.1334888656
 20
-6.7268147072
 30
0.0
 10
19.1921483675
 20
-6.7660866842
 30
0.0
 10
19.242907816
 20
-6.8080893239
 30
0.0
 10
19.2852763823
 20
-6.8524623873
 30
0.0
 10
19.3188255646
 20
-6.8988354108
 30
0.0
 10
19.3431672241
 20
-6.9468264912
 30
0.0
 10
19.3579535996
 20
-6.9959655264
 30
0.0
 10
19.3612778132
 20
-7.0293437519
 30
0.0
 10
19.3612777372
 20
-7.045758691
 30
0.0
 11
19.0683846245
 21
-6.6922029794
 31
0.0
 11
19.1342892157
 21
-6.7285602612
 31
0.0
 11
19.1927478137
 21
-6.767971667
 31
0.0
 11
19.2431998758
 21
-6.8100588155
 31
0.0
 11
19.2851582164
 21
-6.8544157331
 31
0.0
 11
19.3182190208
 21
-6.9006154189
 31
0.0
 11
19.3420637537
 21
-6.9482129191
 31
0.0
 11
19.3564628598
 21
-6.9967498246
 31
0.0
 11
19.3612777372
 21
-7.045758691
 31
0.0
  0
SPLINE
  5
469
100
AcDbEntity
  8
ASSI
100
AcDbSpline
 62
7
  6
CONTINUOUS
 70
0
 71
3
 72
15
 73
11
 74
9
 42
0.0000001
 43
0.0000001
 44
0.0000000001
 12
0.4315161028
 22
-0.2157580514
 32
0.0
 13
-0.0000022359
 23
-0.4824496696
 33
0.0
 40
0.0
 40
0.0
 40
0.0
 40
0.0
 40
0.1560120636
 40
0.3021474201
 40
0.4383313505
 40
0.5648889357
 40
0.6826430938
 40
0.7929887037
 40
0.8979275553
 40
1.0
 40
1.0
 40
1.0
 40
1.0
 10
19.0683846245
 20
-11.0223299983
 30
0.0
 10
19.090825197
 20
-11.0335502846
 30
0.0
 10
19.1334888656
 20
-11.0569417261
 30
0.0
 10
19.1921483675
 20
-11.0962137031
 30
0.0
 10
19.242907816
 20
-11.1382163428
 30
0.0
 10
19.2852763823
 20
-11.1825894062
 30
0.0
 10
19.3188255646
 20
-11.2289624297
 30
0.0
 10
19.3431672241
 20
-11.2769535101
 30
0.0
 10
19.3579535996
 20
-11.3260925453
 30
0.0
 10
19.3612778132
 20
-11.3594707708
 30
0.0
 10
19.3612777372
 20
-11.3758857099
 30
0.0
 11
19.0683846245
 21
-11.0223299983
 31
0.0
 11
19.1342892157
 21
-11.0586872801
 31
0.0
 11
19.1927478137
 21
-11.0980986859
 31
0.0
 11
19.2431998758
 21
-11.1401858344
 31
0.0
 11
19.2851582164
 21
-11.184542752
 31
0.0
 11
19.3182190208
 21
-11.2307424378
 31
0.0
 11
19.3420637537
 21
-11.278339938
 31
0.0
 11
19.3564628598
 21
-11.3268768435
 31
0.0
 11
19.3612777372
 21
-11.3758857099
 31
0.0
  0
SPLINE
  5
46A
100
AcDbEntity
  8
ASSI
100
AcDbSpline
 62
7
  6
CONTINUOUS
 70
0
 71
3
 72
15
 73
11
 74
9
 42
0.0000001
 43
0.0000001
 44
0.0000000001
 12
-0.0000021724
 22
-0.4687398473
 32
0.0
 13
-0.4162539982
 23
-0.2155218167
 33
0.0
 40
0.0
 40
0.0
 40
0.0
 40
0.0
 40
0.1027077972
 40
0.2081767552
 40
0.3188663381
 40
0.4367343548
 40
0.5631677775
 40
0.6990102561
 40
0.844627764
 40
1.0
 40
1.0
 40
1.0
 40
1.0
 10
19.3612777372
 20
-7.045758691
 30
0.0
 10
19.3612776628
 20
-7.0618064367
 30
0.0
 10
19.3581036045
 20
-7.094415163
 30
0.0
 10
19.343978411
 20
-7.142465719
 30
0.0
 10
19.3207089887
 20
-7.1894486583
 30
0.0
 10
19.2886130898
 20
-7.2349201026
 30
0.0
 10
19.2480478394
 20
-7.2785182497
 30
0.0
 10
19.1994080122
 20
-7.3198932214
 30
0.0
 10
19.1431454326
 20
-7.3587051984
 30
0.0
 10
19.1021757484
 20
-7.3819235197
 30
0.0
 10
19.0806176436
 20
-7.3930855552
 30
0.0
 11
19.3612777372
 21
-7.045758691
 31
0.0
 11
19.3566735978
 21
-7.0936812659
 31
0.0
 11
19.3429043592
 21
-7.1411625758
 31
0.0
 11
19.3200967334
 21
-7.1877654278
 31
0.0
 11
19.2884607441
 21
-7.2330607297
 31
0.0
 11
19.248287817
 21
-7.2766313971
 31
0.0
 11
19.1999475057
 21
-7.3180764481
 31
0.0
 11
19.1438861385
 21
-7.3570136292
 31
0.0
 11
19.0806176436
 21
-7.3930855552
 31
0.0
  0
SPLINE
  5
46B
100
AcDbEntity
  8
ASSI
100
AcDbSpline
 62
7
  6
CONTINUOUS
 70
0
 71
3
 72
15
 73
11
 74
9
 42
0.0000001
 43
0.0000001
 44
0.0000000001
 12
-0.0000021724
 22
-0.4687398473
 32
0.0
 13
-0.4162539982
 23
-0.2155218167
 33
0.0
 40
0.0
 40
0.0
 40
0.0
 40
0.0
 40
0.1027077972
 40
0.2081767552
 40
0.3188663381
 40
0.4367343548
 40
0.5631677775
 40
0.6990102561
 40
0.844627764
 40
1.0
 40
1.0
 40
1.0
 40
1.0
 10
19.3612777372
 20
-2.715631672
 30
0.0
 10
19.3612776628
 20
-2.7316794178
 30
0.0
 10
19.3581036045
 20
-2.7642881441
 30
0.0
 10
19.343978411
 20
-2.8123387
 30
0.0
 10
19.3207089887
 20
-2.8593216394
 30
0.0
 10
19.2886130898
 20
-2.9047930836
 30
0.0
 10
19.2480478394
 20
-2.9483912308
 30
0.0
 10
19.1994080122
 20
-2.9897662025
 30
0.0
 10
19.1431454326
 20
-3.0285781795
 30
0.0
 10
19.1021757484
 20
-3.0517965007
 30
0.0
 10
19.0806176436
 20
-3.0629585363
 30
0.0
 11
19.3612777372
 21
-2.715631672
 31
0.0
 11
19.3566735978
 21
-2.7635542469
 31
0.0
 11
19.3429043592
 21
-2.8110355569
 31
0.0
 11
19.3200967334
 21
-2.8576384088
 31
0.0
 11
19.2884607441
 21
-2.9029337108
 31
0.0
 11
19.248287817
 21
-2.9465043782
 31
0.0
 11
19.1999475057
 21
-2.9879494291
 31
0.0
 11
19.1438861385
 21
-3.0268866103
 31
0.0
 11
19.0806176436
 21
-3.0629585363
 31
0.0
  0
SPLINE
  5
46C
100
AcDbEntity
  8
RACCORDO
100
AcDbSpline
 62
253
  6
CONTINUOUS
 70
0
 71
3
 72
11
 73
7
 74
5
 42
0.0000001
 43
0.0000001
 44
0.0000000001
 12
0.2032261373
 22
0.0938534834
 32
0.0
 13
0.1988173575
 23
-0.1028639761
 33
0.0
 40
0.0
 40
0.0
 40
0.0
 40
0.0
 40
0.2278649787
 40
0.4657800962
 40
0.7216148493
 40
1.0
 40
1.0
 40
1.0
 40
1.0
 10
-2.4604745855
 20
19.9060597389
 30
0.0
 10
-2.4450385457
 20
19.9131883795
 30
0.0
 10
-2.4112888502
 20
19.9234016877
 30
0.0
 10
-2.3569324944
 20
19.9249688238
 30
0.0
 10
-2.3000762678
 20
19.9132810176
 30
0.0
 10
-2.2631140501
 20
19.8977082576
 30
0.0
 10
-2.2446647834
 20
19.8881629898
 30
0.0
 11
-2.4604745855
 21
19.9060597389
 31
0.0
 11
-2.4116974084
 21
19.9209790749
 31
0.0
 11
-2.3584761552
 21
19.9229456335
 31
0.0
 11
-2.3022814747
 21
19.9119054641
 31
0.0
 11
-2.2446647834
 21
19.8881629898
 31
0.0
  0
SPLINE
  5
46D
100
AcDbEntity
  8
ASSI
100
AcDbSpline
 62
7
  6
CONTINUOUS
 70
0
 71
3
 72
15
 73
11
 74
9
 42
0.0000001
 43
0.0000001
 44
0.0000000001
 12
-0.0000021724
 22
-0.4687398473
 32
0.0
 13
-0.4162539982
 23
-0.2155218167
 33
0.0
 40
0.0
 40
0.0
 40
0.0
 40
0.0
 40
0.1027077972
 40
0.2081767552
 40
0.3188663381
 40
0.4367343548
 40
0.5631677775
 40
0.6990102561
 40
0.844627764
 40
1.0
 40
1.0
 40
1.0
 40
1.0
 10
19.3612777372
 20
1.6144953469
 30
0.0
 10
19.3612776628
 20
1.5984476012
 30
0.0
 10
19.3581036045
 20
1.5658388749
 30
0.0
 10
19.343978411
 20
1.5177883189
 30
0.0
 10
19.3207089887
 20
1.4708053795
 30
0.0
 10
19.2886130898
 20
1.4253339353
 30
0.0
 10
19.2480478394
 20
1.3817357882
 30
0.0
 10
19.1994080122
 20
1.3403608164
 30
0.0
 10
19.1431454326
 20
1.3015488395
 30
0.0
 10
19.1021757484
 20
1.2783305182
 30
0.0
 10
19.0806176436
 20
1.2671684827
 30
0.0
 11
19.3612777372
 21
1.6144953469
 31
0.0
 11
19.3566735978
 21
1.566572772
 31
0.0
 11
19.3429043592
 21
1.519091462
 31
0.0
 11
19.3200967334
 21
1.4724886101
 31
0.0
 11
19.2884607441
 21
1.4271933081
 31
0.0
 11
19.248287817
 21
1.3836226408
 31
0.0
 11
19.1999475057
 21
1.3421775898
 31
0.0
 11
19.1438861385
 21
1.3032404086
 31
0.0
 11
19.0806176436
 21
1.2671684827
 31
0.0
  0
SPLINE
  5
46E
100
AcDbEntity
  8
ASSI
100
AcDbSpline
 62
7
  6
CONTINUOUS
 70
0
 71
3
 72
15
 73
11
 74
9
 42
0.0000001
 43
0.0000001
 44
0.0000000001
 12
-0.0000021724
 22
-0.4687398473
 32
0.0
 13
-0.4162539982
 23
-0.2155218167
 33
0.0
 40
0.0
 40
0.0
 40
0.0
 40
0.0
 40
0.1027077972
 40
0.2081767552
 40
0.3188663381
 40
0.4367343548
 40
0.5631677775
 40
0.6990102561
 40
0.844627764
 40
1.0
 40
1.0
 40
1.0
 40
1.0
 10
19.3612777372
 20
5.9446223658
 30
0.0
 10
19.3612776628
 20
5.9285746201
 30
0.0
 10
19.3581036045
 20
5.8959658938
 30
0.0
 10
19.343978411
 20
5.8479153378
 30
0.0
 10
19.3207089887
 20
5.8009323984
 30
0.0
 10
19.2886130898
 20
5.7554609542
 30
0.0
 10
19.2480478394
 20
5.7118628071
 30
0.0
 10
19.1994080122
 20
5.6704878353
 30
0.0
 10
19.1431454326
 20
5.6316758584
 30
0.0
 10
19.1021757484
 20
5.6084575371
 30
0.0
 10
19.0806176436
 20
5.5972955016
 30
0.0
 11
19.3612777372
 21
5.9446223658
 31
0.0
 11
19.3566735978
 21
5.8966997909
 31
0.0
 11
19.3429043592
 21
5.8492184809
 31
0.0
 11
19.3200967334
 21
5.802615629
 31
0.0
 11
19.2884607441
 21
5.757320327
 31
0.0
 11
19.248287817
 21
5.7137496597
 31
0.0
 11
19.1999475057
 21
5.6723046087
 31
0.0
 11
19.1438861385
 21
5.6333674275
 31
0.0
 11
19.0806176436
 21
5.5972955016
 31
0.0
  0
SPLINE
  5
46F
100
AcDbEntity
  8
ASSI
100
AcDbSpline
 62
7
  6
CONTINUOUS
 70
0
 71
3
 72
15
 73
11
 74
9
 42
0.0000001
 43
0.0000001
 44
0.0000000001
 12
-0.0000021724
 22
-0.4687398473
 32
0.0
 13
-0.4162539982
 23
-0.2155218167
 33
0.0
 40
0.0
 40
0.0
 40
0.0
 40
0.0
 40
0.1027077972
 40
0.2081767552
 40
0.3188663381
 40
0.4367343548
 40
0.5631677775
 40
0.6990102561
 40
0.844627764
 40
1.0
 40
1.0
 40
1.0
 40
1.0
 10
19.3612777372
 20
10.2747493847
 30
0.0
 10
19.3612776628
 20
10.258701639
 30
0.0
 10
19.3581036045
 20
10.2260929127
 30
0.0
 10
19.343978411
 20
10.1780423567
 30
0.0
 10
19.3207089887
 20
10.1310594174
 30
0.0
 10
19.2886130898
 20
10.0855879731
 30
0.0
 10
19.2480478394
 20
10.041989826
 30
0.0
 10
19.1994080122
 20
10.0006148542
 30
0.0
 10
19.1431454326
 20
9.9618028773
 30
0.0
 10
19.1021757484
 20
9.938584556
 30
0.0
 10
19.0806176436
 20
9.9274225205
 30
0.0
 11
19.3612777372
 21
10.2747493847
 31
0.0
 11
19.3566735978
 21
10.2268268098
 31
0.0
 11
19.3429043592
 21
10.1793454999
 31
0.0
 11
19.3200967334
 21
10.1327426479
 31
0.0
 11
19.2884607441
 21
10.087447346
 31
0.0
 11
19.248287817
 21
10.0438766786
 31
0.0
 11
19.1999475057
 21
10.0024316276
 31
0.0
 11
19.1438861385
 21
9.9634944465
 31
0.0
 11
19.0806176436
 21
9.9274225205
 31
0.0
  0
SPLINE
  5
470
100
AcDbEntity
  8
RACCORDO
100
AcDbSpline
 62
253
  6
CONTINUOUS
 70
0
 71
3
 72
22
 73
18
 74
16
 42
0.0000001
 43
0.0000001
 44
0.0000000001
 12
-0.1918313407
 22
0.3308269857
 32
0.0
 13
-0.3424315025
 23
-0.1702539979
 33
0.0
 40
0.0
 40
0.0
 40
0.0
 40
0.0
 40
0.0058783962
 40
0.0124164818
 40
0.0201045026
 40
0.0292470137
 40
0.052511649
 40
0.0829611472
 40
0.1208327051
 40
0.1661775681
 40
0.2189529458
 40
0.2790564
 40
0.3463420954
 40
0.4206307423
 40
0.5893517344
 40
0.7832485364
 40
1.0
 40
1.0
 40
1.0
 40
1.0
 10
19.0193103915
 20
19.8143278432
 30
0.0
 10
19.0189345047
 20
19.8149760872
 30
0.0
 10
19.0178791625
 20
19.816204829
 30
0.0
 10
19.0156538683
 20
19.8175369296
 30
0.0
 10
19.0127973109
 20
19.8184450243
 30
0.0
 10
19.0077236299
 20
19.819179181
 30
0.0
 10
18.9996679414
 20
19.8188908522
 30
0.0
 10
18.9881238635
 20
19.8170974842
 30
0.0
 10
18.9740072639
 20
19.8137768731
 30
0.0
 10
18.9573578238
 20
19.8089333524
 30
0.0
 10
18.9382155711
 20
19.8025663999
 30
0.0
 10
18.9166393646
 20
19.7946910286
 30
0.0
 10
18.892694462
 20
19.7853278918
 30
0.0
 10
18.8561284711
 20
19.7702406522
 30
0.0
 10
18.8051560645
 20
19.7477801804
 30
0.0
 10
18.7382415837
 20
19.7165154882
 30
0.0
 10
18.6912080111
 20
19.6935304023
 30
0.0
 10
18.666467168
 20
19.6812294679
 30
0.0
 11
19.0193103915
 21
19.8143278432
 31
0.0
 11
19.0178637337
 21
19.8160485356
 31
0.0
 11
19.015746437
 21
19.8173784071
 31
0.0
 11
19.0129599988
 21
19.8183163384
 31
0.0
 11
19.0095064819
 21
19.8188615421
 31
0.0
 11
19.0006100421
 21
19.8187727225
 31
0.0
 11
18.9890845362
 21
19.8171120975
 31
0.0
 11
18.9749658055
 21
19.8138848481
 31
0.0
 11
18.9582978733
 21
19.809101103
 31
0.0
 11
18.9391323364
 21
19.8027756151
 31
0.0
 11
18.9175287018
 21
19.7949280145
 31
0.0
 11
18.8935542438
 21
19.7855827878
 31
0.0
 11
18.8672833237
 21
19.7747688944
 31
0.0
 11
18.8081851886
 21
19.7488738129
 31
0.0
 11
18.7409691245
 21
19.7175648395
 31
0.0
 11
18.666467168
 21
19.6812294679
 31
0.0
  0
SPLINE
  5
471
100
AcDbEntity
  8
RACCORDO
100
AcDbSpline
 62
253
  6
CONTINUOUS
 70
0
 71
3
 72
15
 73
11
 74
9
 42
0.0000001
 43
0.0000001
 44
0.0000000001
 12
-0.0000002694
 22
-0.468740859
 32
0.0
 13
-0.4162548966
 23
-0.2155222819
 33
0.0
 40
0.0
 40
0.0
 40
0.0
 40
0.0
 40
0.1027078189
 40
0.2081767581
 40
0.318866303
 40
0.436734282
 40
0.5631676818
 40
0.6990101622
 40
0.8446277016
 40
1.0
 40
1.0
 40
1.0
 40
1.0
 10
19.3612777372
 20
18.5969237727
 30
0.0
 10
19.3612777279
 20
18.580875989
 30
0.0
 10
19.3581037873
 20
18.5482671782
 30
0.0
 10
19.3439787142
 20
18.5002164776
 30
0.0
 10
19.3207093587
 20
18.4532333931
 30
0.0
 10
19.2886134754
 20
18.4077618077
 30
0.0
 10
19.2480481925
 20
18.3641635263
 30
0.0
 10
19.1994082871
 20
18.3227884297
 30
0.0
 10
19.143145587
 20
18.2839763401
 30
0.0
 10
19.1021758036
 20
18.2607579574
 30
0.0
 10
19.0806176436
 20
18.2495958933
 30
0.0
 11
19.3612777372
 21
18.5969237727
 31
0.0
 11
19.3566737681
 21
18.5490010668
 31
0.0
 11
19.3429046498
 21
18.50151962
 31
0.0
 11
19.3200970938
 21
18.4549166291
 31
0.0
 11
19.2884611244
 21
18.4096211894
 31
0.0
 11
19.2482881686
 21
18.3660503891
 31
0.0
 11
19.1999477822
 21
18.3246052133
 31
0.0
 11
19.1438862965
 21
18.2856679186
 31
0.0
 11
19.0806176436
 21
18.2495958933
 31
0.0
  0
SPLINE
  5
472
100
AcDbEntity
  8
RACCORDO
100
AcDbSpline
 62
253
  6
CONTINUOUS
 70
0
 71
3
 72
22
 73
18
 74
16
 42
0.0000001
 43
0.0000001
 44
0.0000000001
 12
-0.1918547233
 22
0.3308129102
 32
0.0
 13
-0.3424311029
 23
-0.1702537994
 33
0.0
 40
0.0
 40
0.0
 40
0.0
 40
0.0
 40
0.0058784355
 40
0.0124166693
 40
0.0201048993
 40
0.0292476455
 40
0.0525127569
 40
0.0829626808
 40
0.1208345882
 40
0.1661797142
 40
0.2189552641
 40
0.279058799
 40
0.3463444838
 40
0.4206330306
 40
0.5893535652
 40
0.7832495921
 40
1.0
 40
1.0
 40
1.0
 40
1.0
 10
18.8936100019
 20
20.0311289455
 30
0.0
 10
18.8932340667
 20
20.0317771663
 30
0.0
 10
18.8921786236
 20
20.033005848
 30
0.0
 10
18.8899532211
 20
20.0343378524
 30
0.0
 10
18.8870965644
 20
20.0352458654
 30
0.0
 10
18.882022757
 20
20.0359799142
 30
0.0
 10
18.8739669416
 20
20.0356914773
 30
0.0
 10
18.8624227327
 20
20.0338980021
 30
0.0
 10
18.8483060365
 20
20.0305773019
 30
0.0
 10
18.8316565339
 20
20.0257337109
 30
0.0
 10
18.8125142537
 20
20.0193667077
 30
0.0
 10
18.7909380541
 20
20.0114913058
 30
0.0
 10
18.7669931921
 20
20.0021281584
 30
0.0
 10
18.7304273212
 20
19.987040939
 30
0.0
 10
18.6794551381
 20
19.9645805429
 30
0.0
 10
18.6125410051
 20
19.9333159991
 30
0.0
 10
18.565507698
 20
19.9103310407
 30
0.0
 10
18.5407670043
 20
19.8980301806
 30
0.0
 11
18.8936100019
 21
20.0311289455
 31
0.0
 11
18.8921632188
 21
20.0328495489
 31
0.0
 11
18.8900458057
 21
20.0341793361
 31
0.0
 11
18.8872592599
 21
20.0351171878
 31
0.0
 11
18.8838056444
 21
20.0356623169
 31
0.0
 11
18.8749090342
 21
20.0355733629
 31
0.0
 11
18.863383394
 21
20.0339126237
 31
0.0
 11
18.8492645649
 21
20.0306852806
 31
0.0
 11
18.8325965701
 21
20.0259014625
 31
0.0
 11
18.8134310059
 21
20.0195759221
 31
0.0
 11
18.7918273786
 21
20.0117282898
 31
0.0
 11
18.7678529616
 21
20.0023830517
 31
0.0
 11
18.7415821152
 21
19.991569167
 31
0.0
 11
18.6824842202
 21
19.9656741611
 31
0.0
 11
18.6152685091
 21
19.9343653366
 31
0.0
 11
18.5407670043
 21
19.8980301806
 31
0.0
  0
SPLINE
  5
473
100
AcDbEntity
  8
RACCORDO
100
AcDbSpline
 62
253
  6
CONTINUOUS
 70
0
 71
3
 72
13
 73
9
 74
7
 42
0.0000001
 43
0.0000001
 44
0.0000000001
 12
-0.4029948776
 22
0.2015008827
 32
0.0
 13
-0.4064116181
 23
-0.194517541
 33
0.0
 40
0.0
 40
0.0
 40
0.0
 40
0.0
 40
0.1134934583
 40
0.2282840573
 40
0.3455908828
 40
0.4664899684
 40
0.7220461045
 40
1.0
 40
1.0
 40
1.0
 40
1.0
 10
18.4757160221
 20
20.4239697387
 30
0.0
 10
18.4604702613
 20
20.4315927494
 30
0.0
 10
18.4287122583
 20
20.4448420923
 30
0.0
 10
18.3784115159
 20
20.4582194949
 30
0.0
 10
18.325691427
 20
20.4650722862
 30
0.0
 10
18.2513706968
 20
20.4654770249
 30
0.0
 10
18.1537121293
 20
20.4486006398
 30
0.0
 10
18.0784977209
 20
20.4196287426
 30
0.0
 10
18.0408431567
 20
20.4016064399
 30
0.0
 11
18.4757160221
 21
20.4239697387
 31
0.0
 11
18.4285296888
 21
20.4436761229
 31
0.0
 11
18.3785620035
 21
20.4570266254
 31
0.0
 11
18.3261603908
 21
20.4639284234
 31
0.0
 11
18.2716891807
 21
20.4643335227
 31
0.0
 11
18.1580646646
 21
20.4456875522
 31
0.0
 11
18.0408431567
 21
20.4016064399
 31
0.0
  0
SPLINE
  5
474
100
AcDbEntity
  8
RACCORDO
100
AcDbSpline
 62
253
  6
CONTINUOUS
 70
0
 71
3
 72
13
 73
9
 74
7
 42
0.0000001
 43
0.0000001
 44
0.0000000001
 12
-0.4029948776
 22
0.2015008827
 32
0.0
 13
-0.4064116181
 23
-0.194517541
 33
0.0
 40
0.0
 40
0.0
 40
0.0
 40
0.0
 40
0.1134934583
 40
0.2282840573
 40
0.3455908828
 40
0.4664899684
 40
0.7220461045
 40
1.0
 40
1.0
 40
1.0
 40
1.0
 10
5.3401628374
 20
26.991746331
 30
0.0
 10
5.3249170766
 20
26.9993693417
 30
0.0
 10
5.2931590736
 20
27.0126186847
 30
0.0
 10
5.2428583312
 20
27.0259960873
 30
0.0
 10
5.1901382423
 20
27.0328488785
 30
0.0
 10
5.1158175121
 20
27.0332536172
 30
0.0
 10
5.0181589446
 20
27.0163772321
 30
0.0
 10
4.9429445362
 20
26.987405335
 30
0.0
 10
4.905289972
 20
26.9693830322
 30
0.0
 11
5.3401628374
 21
26.991746331
 31
0.0
 11
5.2929765041
 21
27.0114527152
 31
0.0
 11
5.2430088189
 21
27.0248032177
 31
0.0
 11
5.1906072062
 21
27.0317050157
 31
0.0
 11
5.136135996
 21
27.032110115
 31
0.0
 11
5.0225114799
 21
27.0134641446
 31
0.0
 11
4.905289972
 21
26.9693830322
 31
0.0
  0
SPLINE
  5
475
100
AcDbEntity
  8
RACCORDO
100
AcDbSpline
 62
253
  6
CONTINUOUS
 70
0
 71
3
 72
13
 73
9
 74
7
 42
0.0000001
 43
0.0000001
 44
0.0000000001
 12
0.4076682391
 22
0.1792071276
 32
0.0
 13
0.3971666537
 23
-0.2014131004
 33
0.0
 40
0.0
 40
0.0
 40
0.0
 40
0.0
 40
0.1134884496
 40
0.2284345657
 40
0.3459645484
 40
0.4670681869
 40
0.7227161935
 40
1.0
 40
1.0
 40
1.0
 40
1.0
 10
4.4755765613
 20
27.0059634683
 30
0.0
 10
4.4909984401
 20
27.0127427813
 30
0.0
 10
4.5229900922
 20
27.0243312096
 30
0.0
 10
4.573279483
 20
27.0353846551
 30
0.0
 10
4.6256891515
 20
27.0401098149
 30
0.0
 10
4.6991796032
 20
27.0379143039
 30
0.0
 10
4.7950622877
 20
27.0183987745
 30
0.0
 10
4.8685806782
 20
26.9879992293
 30
0.0
 10
4.905289972
 20
26.9693830322
 30
0.0
 11
4.4755765613
 21
27.0059634683
 31
0.0
 11
4.5230854867
 21
27.0231984003
 31
0.0
 11
4.5730667752
 21
27.0342457869
 31
0.0
 11
4.625185807
 21
27.0390313812
 31
0.0
 11
4.6790944102
 21
27.0375232852
 31
0.0
 11
4.7908295527
 21
27.015708272
 31
0.0
 11
4.905289972
 21
26.9693830322
 31
0.0
  0
SPLINE
  5
476
100
AcDbEntity
  8
ASSI
100
AcDbSpline
 62
7
  6
CONTINUOUS
 70
0
 71
3
 72
12
 73
8
 74
6
 42
0.0000001
 43
0.0000001
 44
0.0000000001
 12
0.1183205236
 22
-0.064369217
 32
0.0
 13
-0.0000025642
 23
-0.1346964825
 33
0.0
 40
0.0
 40
0.0
 40
0.0
 40
0.0
 40
0.2994237143
 40
0.5609662115
 40
0.7898593732
 40
0.8962382597
 40
1.0
 40
1.0
 40
1.0
 40
1.0
 10
17.6477218383
 20
-11.4435578016
 30
0.0
 10
17.6595311618
 20
-11.4499823583
 30
0.0
 10
17.6808560471
 20
-11.4636621385
 30
0.0
 10
17.7065788874
 20
-11.4884756885
 30
0.0
 10
17.72054236
 20
-11.5118937863
 30
0.0
 10
17.7259505386
 20
-11.5309473896
 30
0.0
 10
17.7268410299
 20
-11.5404051497
 30
0.0
 10
17.7268409412
 20
-11.5450639302
 30
0.0
 11
17.6477218383
 21
-11.4435578016
 31
0.0
 11
17.6814253432
 21
-11.4657093076
 31
0.0
 11
17.7063631974
 21
-11.4905925472
 31
0.0
 11
17.7216776086
 21
-11.517351205
 31
0.0
 11
17.725547613
 21
-11.5311475577
 31
0.0
 11
17.7268409412
 21
-11.5450639302
 31
0.0
  0
SPLINE
  5
477
100
AcDbEntity
  8
RACCORDO
100
AcDbSpline
 62
253
  6
CONTINUOUS
 70
0
 71
3
 72
15
 73
11
 74
9
 42
0.0000001
 43
0.0000001
 44
0.0000000001
 12
0.0000002949
 22
-0.468741159
 32
0.0
 13
-0.416255163
 23
-0.2155224197
 33
0.0
 40
0.0
 40
0.0
 40
0.0
 40
0.0
 40
0.1027078254
 40
0.208176759
 40
0.3188662926
 40
0.4367342604
 40
0.5631676535
 40
0.6990101344
 40
0.8446276831
 40
1.0
 40
1.0
 40
1.0
 40
1.0
 10
19.3612777372
 20
-11.7306240516
 30
0.0
 10
19.3612777473
 20
-11.7466718467
 30
0.0
 10
19.3581038415
 20
-11.7792806825
 30
0.0
 10
19.343978804
 20
-11.8273314259
 30
0.0
 10
19.3207094684
 20
-11.8743145535
 30
0.0
 10
19.2886135898
 20
-11.9197861808
 30
0.0
 10
19.2480482972
 20
-11.963384502
 30
0.0
 10
19.1994083686
 20
-12.0047596355
 30
0.0
 10
19.1431456328
 20
-12.0435717586
 30
0.0
 10
19.10217582
 20
-12.0667901595
 30
0.0
 10
19.0806176436
 20
-12.0779522321
 30
0.0
 11
19.3612777372
 21
-11.7306240516
 31
0.0
 11
19.3566738186
 21
-11.7785467964
 31
0.0
 11
19.3429047359
 21
-11.8260282837
 31
0.0
 11
19.3200972007
 21
-11.8726313159
 31
0.0
 11
19.2884612372
 21
-11.9179267965
 31
0.0
 11
19.2482882729
 21
-11.9614976362
 31
0.0
 11
19.1999478642
 21
-12.002942849
 31
0.0
 11
19.1438863433
 21
-12.0418801774
 31
0.0
 11
19.0806176436
 21
-12.0779522321
 31
0.0
  0
SPLINE
  5
478
100
AcDbEntity
  8
ASSI
100
AcDbSpline
 62
7
  6
CONTINUOUS
 70
0
 71
3
 72
12
 73
8
 74
6
 42
0.0000001
 43
0.0000001
 44
0.0000000001
 12
0.1183205236
 22
-0.064369217
 32
0.0
 13
-0.0000025642
 23
-0.1346964825
 33
0.0
 40
0.0
 40
0.0
 40
0.0
 40
0.0
 40
0.2994237143
 40
0.5609662115
 40
0.7898593732
 40
0.8962382597
 40
1.0
 40
1.0
 40
1.0
 40
1.0
 10
17.6477218383
 20
-7.1134307827
 30
0.0
 10
17.6595311618
 20
-7.1198553394
 30
0.0
 10
17.6808560471
 20
-7.1335351196
 30
0.0
 10
17.7065788874
 20
-7.1583486696
 30
0.0
 10
17.72054236
 20
-7.1817667674
 30
0.0
 10
17.7259505386
 20
-7.2008203706
 30
0.0
 10
17.7268410299
 20
-7.2102781308
 30
0.0
 10
17.7268409412
 20
-7.2149369113
 30
0.0
 11
17.6477218383
 21
-7.1134307827
 31
0.0
 11
17.6814253432
 21
-7.1355822887
 31
0.0
 11
17.7063631974
 21
-7.1604655283
 31
0.0
 11
17.7216776086
 21
-7.1872241861
 31
0.0
 11
17.725547613
 21
-7.2010205388
 31
0.0
 11
17.7268409412
 21
-7.2149369113
 31
0.0
  0
SPLINE
  5
479
100
AcDbEntity
  8
ASSI
100
AcDbSpline
 62
7
  6
CONTINUOUS
 70
0
 71
3
 72
12
 73
8
 74
6
 42
0.0000001
 43
0.0000001
 44
0.0000000001
 12
0.1183205236
 22
-0.064369217
 32
0.0
 13
-0.0000025642
 23
-0.1346964825
 33
0.0
 40
0.0
 40
0.0
 40
0.0
 40
0.0
 40
0.2994237143
 40
0.5609662115
 40
0.7898593732
 40
0.8962382597
 40
1.0
 40
1.0
 40
1.0
 40
1.0
 10
17.6477218383
 20
-2.7833037638
 30
0.0
 10
17.6595311618
 20
-2.7897283204
 30
0.0
 10
17.6808560471
 20
-2.8034081007
 30
0.0
 10
17.7065788874
 20
-2.8282216507
 30
0.0
 10
17.72054236
 20
-2.8516397485
 30
0.0
 10
17.7259505386
 20
-2.8706933517
 30
0.0
 10
17.7268410299
 20
-2.8801511119
 30
0.0
 10
17.7268409412
 20
-2.8848098923
 30
0.0
 11
17.6477218383
 21
-2.7833037638
 31
0.0
 11
17.6814253432
 21
-2.8054552698
 31
0.0
 11
17.7063631974
 21
-2.8303385094
 31
0.0
 11
17.7216776086
 21
-2.8570971672
 31
0.0
 11
17.725547613
 21
-2.8708935199
 31
0.0
 11
17.7268409412
 21
-2.8848098923
 31
0.0
  0
SPLINE
  5
47A
100
AcDbEntity
  8
ASSI
100
AcDbSpline
 62
7
  6
CONTINUOUS
 70
0
 71
3
 72
12
 73
8
 74
6
 42
0.0000001
 43
0.0000001
 44
0.0000000001
 12
0.1183205236
 22
-0.064369217
 32
0.0
 13
-0.0000025642
 23
-0.1346964825
 33
0.0
 40
0.0
 40
0.0
 40
0.0
 40
0.0
 40
0.2994237143
 40
0.5609662115
 40
0.7898593732
 40
0.8962382597
 40
1.0
 40
1.0
 40
1.0
 40
1.0
 10
17.6477218383
 20
1.5468232552
 30
0.0
 10
17.6595311618
 20
1.5403986985
 30
0.0
 10
17.6808560471
 20
1.5267189182
 30
0.0
 10
17.7065788874
 20
1.5019053682
 30
0.0
 10
17.72054236
 20
1.4784872704
 30
0.0
 10
17.7259505386
 20
1.4594336672
 30
0.0
 10
17.7268410299
 20
1.4499759071
 30
0.0
 10
17.7268409412
 20
1.4453171266
 30
0.0
 11
17.6477218383
 21
1.5468232552
 31
0.0
 11
17.6814253432
 21
1.5246717491
 31
0.0
 11
17.7063631974
 21
1.4997885095
 31
0.0
 11
17.7216776086
 21
1.4730298517
 31
0.0
 11
17.725547613
 21
1.459233499
 31
0.0
 11
17.7268409412
 21
1.4453171266
 31
0.0
  0
SPLINE
  5
47B
100
AcDbEntity
  8
ASSI
100
AcDbSpline
 62
7
  6
CONTINUOUS
 70
0
 71
3
 72
12
 73
8
 74
6
 42
0.0000001
 43
0.0000001
 44
0.0000000001
 12
0.1183205236
 22
-0.064369217
 32
0.0
 13
-0.0000025642
 23
-0.1346964825
 33
0.0
 40
0.0
 40
0.0
 40
0.0
 40
0.0
 40
0.2994237143
 40
0.5609662115
 40
0.7898593732
 40
0.8962382597
 40
1.0
 40
1.0
 40
1.0
 40
1.0
 10
17.6477218383
 20
5.8769502741
 30
0.0
 10
17.6595311618
 20
5.8705257174
 30
0.0
 10
17.6808560471
 20
5.8568459372
 30
0.0
 10
17.7065788874
 20
5.8320323872
 30
0.0
 10
17.72054236
 20
5.8086142894
 30
0.0
 10
17.7259505386
 20
5.7895606861
 30
0.0
 10
17.7268410298
 20
5.780102926
 30
0.0
 10
17.7268409412
 20
5.7754441455
 30
0.0
 11
17.6477218383
 21
5.8769502741
 31
0.0
 11
17.6814253432
 21
5.854798768
 31
0.0
 11
17.7063631974
 21
5.8299155284
 31
0.0
 11
17.7216776086
 21
5.8031568707
 31
0.0
 11
17.725547613
 21
5.789360518
 31
0.0
 11
17.7268409412
 21
5.7754441455
 31
0.0
  0
SPLINE
  5
47C
100
AcDbEntity
  8
ASSI
100
AcDbSpline
 62
7
  6
CONTINUOUS
 70
0
 71
3
 72
12
 73
8
 74
6
 42
0.0000001
 43
0.0000001
 44
0.0000000001
 12
0.1183205236
 22
-0.064369217
 32
0.0
 13
-0.0000025642
 23
-0.1346964825
 33
0.0
 40
0.0
 40
0.0
 40
0.0
 40
0.0
 40
0.2994237143
 40
0.5609662115
 40
0.7898593732
 40
0.8962382597
 40
1.0
 40
1.0
 40
1.0
 40
1.0
 10
17.6477218383
 20
10.207077293
 30
0.0
 10
17.6595311618
 20
10.2006527363
 30
0.0
 10
17.6808560471
 20
10.1869729561
 30
0.0
 10
17.7065788874
 20
10.1621594061
 30
0.0
 10
17.72054236
 20
10.1387413083
 30
0.0
 10
17.7259505386
 20
10.1196877051
 30
0.0
 10
17.7268410298
 20
10.1102299449
 30
0.0
 10
17.7268409412
 20
10.1055711644
 30
0.0
 11
17.6477218383
 21
10.207077293
 31
0.0
 11
17.6814253432
 21
10.184925787
 31
0.0
 11
17.7063631974
 21
10.1600425474
 31
0.0
 11
17.7216776086
 21
10.1332838896
 31
0.0
 11
17.725547613
 21
10.1194875369
 31
0.0
 11
17.7268409412
 21
10.1055711644
 31
0.0
  0
SPLINE
  5
47D
100
AcDbEntity
  8
ASSI
100
AcDbSpline
 62
7
  6
CONTINUOUS
 70
0
 71
3
 72
15
 73
11
 74
9
 42
0.0000001
 43
0.0000001
 44
0.0000000001
 12
-0.0000021724
 22
-0.4687398473
 32
0.0
 13
-0.4162539982
 23
-0.2155218167
 33
0.0
 40
0.0
 40
0.0
 40
0.0
 40
0.0
 40
0.1027077972
 40
0.2081767552
 40
0.3188663381
 40
0.4367343548
 40
0.5631677775
 40
0.6990102561
 40
0.844627764
 40
1.0
 40
1.0
 40
1.0
 40
1.0
 10
19.3612777372
 20
-11.3758857099
 30
0.0
 10
19.3612776628
 20
-11.3919334556
 30
0.0
 10
19.3581036045
 20
-11.4245421819
 30
0.0
 10
19.343978411
 20
-11.4725927379
 30
0.0
 10
19.3207089887
 20
-11.5195756772
 30
0.0
 10
19.2886130898
 20
-11.5650471215
 30
0.0
 10
19.2480478394
 20
-11.6086452686
 30
0.0
 10
19.1994080122
 20
-11.6500202404
 30
0.0
 10
19.1431454326
 20
-11.6888322173
 30
0.0
 10
19.1021757484
 20
-11.7120505386
 30
0.0
 10
19.0806176436
 20
-11.7232125741
 30
0.0
 11
19.3612777372
 21
-11.3758857099
 31
0.0
 11
19.3566735978
 21
-11.4238082848
 31
0.0
 11
19.3429043592
 21
-11.4712895948
 31
0.0
 11
19.3200967334
 21
-11.5178924467
 31
0.0
 11
19.2884607441
 21
-11.5631877487
 31
0.0
 11
19.248287817
 21
-11.606758416
 31
0.0
 11
19.1999475057
 21
-11.648203467
 31
0.0
 11
19.1438861385
 21
-11.6871406481
 31
0.0
 11
19.0806176436
 21
-11.7232125741
 31
0.0
  0
SPLINE
  5
47E
100
AcDbEntity
  8
RACCORDO
100
AcDbSpline
 62
253
  6
CONTINUOUS
 70
0
 71
3
 72
11
 73
7
 74
5
 42
0.0000001
 43
0.0000001
 44
0.0000000001
 12
0.6448435224
 22
-0.3178932542
 32
0.0
 13
0.3570947211
 23
-0.6239893025
 33
0.0
 40
0.0
 40
0.0
 40
0.0
 40
0.0
 40
0.2264202763
 40
0.471277706
 40
0.7308687027
 40
1.0
 40
1.0
 40
1.0
 40
1.0
 10
18.0408431567
 20
20.4016064399
 30
0.0
 10
18.0895117062
 20
20.3776139471
 30
0.0
 10
18.1858885261
 20
20.3173710223
 30
0.0
 10
18.317943418
 20
20.2013871934
 30
0.0
 10
18.4390225766
 20
20.0602795733
 30
0.0
 10
18.5087318824
 20
19.9540085307
 30
0.0
 10
18.5407670043
 20
19.8980301806
 30
0.0
 11
18.0408431567
 21
20.4016064399
 31
0.0
 11
18.1795270463
 21
20.316370382
 31
0.0
 11
18.3124093538
 21
20.2009066504
 31
0.0
 11
18.4343846668
 21
20.059650788
 31
0.0
 11
18.5407670043
 21
19.8980301806
 31
0.0
  0
SPLINE
  5
47F
100
AcDbEntity
  8
RACCORDO
100
AcDbSpline
 62
253
  6
CONTINUOUS
 70
0
 71
3
 72
11
 73
7
 74
5
 42
0.0000001
 43
0.0000001
 44
0.0000000001
 12
0.081203427
 22
0.0388657522
 32
0.0
 13
0.080521396
 23
-0.0402597571
 33
0.0
 40
0.0
 40
0.0
 40
0.0
 40
0.0
 40
0.2782291411
 40
0.5340276409
 40
0.7720108744
 40
1.0
 40
1.0
 40
1.0
 40
1.0
 10
-1.4755289028
 20
19.979534399
 30
0.0
 10
-1.4679978496
 20
19.9831389273
 30
0.0
 10
-1.45294986
 20
19.9889328266
 30
0.0
 10
-1.4299515385
 20
19.9929126575
 30
0.0
 10
-1.4081172832
 20
19.9915966202
 30
0.0
 10
-1.3946737047
 20
19.987066572
 30
0.0
 10
-1.3885543705
 20
19.9840069764
 30
0.0
 11
-1.4755289028
 21
19.979534399
 31
0.0
 11
-1.4520841518
 21
19.9883507551
 31
0.0
 11
-1.4293597568
 21
19.9920797514
 31
0.0
 11
-1.4079851568
 21
19.9906184007
 31
0.0
 11
-1.3885543705
 21
19.9840069764
 31
0.0
  0
SPLINE
  5
480
100
AcDbEntity
  8
RACCORDO
100
AcDbSpline
 62
253
  6
CONTINUOUS
 70
0
 71
3
 72
13
 73
9
 74
7
 42
0.0000001
 43
0.0000001
 44
0.0000000001
 12
0.003056477
 22
-1.0526021387
 32
0.0
 13
-0.7802356075
 23
-0.7065500699
 33
0.0
 40
0.0
 40
0.0
 40
0.0
 40
0.0
 40
0.2826743123
 40
0.5421661864
 40
0.6635789173
 40
0.7798611582
 40
0.8916960635
 40
1.0
 40
1.0
 40
1.0
 40
1.0
 10
19.0806176373
 20
-12.0779502025
 30
0.0
 10
19.0809056331
 20
-12.1771313977
 30
0.0
 10
19.0680859516
 20
-12.3677906959
 30
0.0
 10
19.0126755288
 20
-12.5954947413
 30
0.0
 10
18.9452184522
 20
-12.7567142233
 30
0.0
 10
18.8852875771
 20
-12.8640478696
 30
0.0
 10
18.8153765904
 20
-12.9595307457
 30
0.0
 10
18.7617306968
 20
-13.0154955059
 30
0.0
 10
18.7335631676
 20
-13.0410028905
 30
0.0
 11
19.0806176373
 21
-12.0779502025
 31
0.0
 11
19.0587160238
 21
-12.3746878833
 31
0.0
 11
18.9919221101
 21
-12.6395380133
 31
0.0
 11
18.942303164
 21
-12.7573121999
 31
0.0
 11
18.8823705994
 21
-12.8640348003
 31
0.0
 11
18.8126041464
 21
-12.9588514996
 31
0.0
 11
18.7335631676
 21
-13.0410028905
 31
0.0
  0
SPLINE
  5
481
100
AcDbEntity
  8
RACCORDO
100
AcDbSpline
 62
253
  6
CONTINUOUS
 70
0
 71
3
 72
19
 73
15
 74
13
 42
0.0000001
 43
0.0000001
 44
0.0000000001
 12
0.7274473035
 22
0.335967824
 32
0.0
 13
0.7166890846
 23
-0.358344407
 33
0.0
 40
0.0
 40
0.0
 40
0.0
 40
0.0
 40
0.0538897774
 40
0.1068606215
 40
0.160922177
 40
0.2171128989
 40
0.3371380706
 40
0.4667883658
 40
0.6033293856
 40
0.7425592206
 40
0.811391222
 40
0.8782745921
 40
0.941729189
 40
1.0
 40
1.0
 40
1.0
 40
1.0
 10
-2.2446647834
 20
19.8881629898
 30
0.0
 10
-2.231597459
 20
19.8941980669
 30
0.0
 10
-2.2062192876
 20
19.9072976547
 30
0.0
 10
-2.1684244328
 20
19.9277544078
 30
0.0
 10
-2.1294311322
 20
19.9472874961
 30
0.0
 10
-2.0730488695
 20
19.9719355285
 30
0.0
 10
-1.9953310924
 20
19.9977871956
 30
0.0
 10
-1.8941500798
 20
20.0189237323
 30
0.0
 10
-1.7862014079
 20
20.0296283879
 30
0.0
 10
-1.6939344914
 20
20.0288262083
 30
0.0
 10
-1.6208388635
 20
20.021274173
 30
0.0
 10
-1.5684071861
 20
20.0119236683
 30
0.0
 10
-1.5197344356
 20
19.9986546458
 30
0.0
 10
-1.4894495876
 20
19.9864947387
 30
0.0
 10
-1.4755289028
 20
19.979534399
 30
0.0
 11
-2.2446647834
 21
19.8881629898
 31
0.0
 11
-2.2060723723
 21
19.9075335838
 31
0.0
 11
-2.1685749136
 21
19.9274204241
 31
0.0
 11
-2.1297820743
 21
19.9466977623
 31
0.0
 11
-2.0885127447
 21
19.9646994796
 31
0.0
 11
-1.997321544
 21
19.9952546934
 31
0.0
 11
-1.8956848529
 21
20.0167580841
 31
0.0
 11
-1.7868169127
 21
20.0276149952
 31
0.0
 11
-1.6752619704
 21
20.0263200998
 31
0.0
 11
-1.6204117274
 21
20.0205406013
 31
0.0
 11
-1.567682651
 21
20.0109594126
 31
0.0
 11
-1.5187031865
 21
19.9973126825
 31
0.0
 11
-1.4755289028
 21
19.979534399
 31
0.0
  0
SPLINE
  5
482
100
AcDbEntity
  8
RACCORDO
100
AcDbSpline
 62
253
  6
CONTINUOUS
 70
0
 71
3
 72
11
 73
7
 74
5
 42
0.0000001
 43
0.0000001
 44
0.0000000001
 12
0.7591403876
 22
-1.3008517069
 32
0.0
 13
-0.0043603464
 23
-1.5061508154
 33
0.0
 40
0.0
 40
0.0
 40
0.0
 40
0.0
 40
0.2602702548
 40
0.5174814228
 40
0.7657528112
 40
1.0
 40
1.0
 40
1.0
 40
1.0
 10
18.6664657081
 20
19.6812319682
 30
0.0
 10
18.7323262622
 20
19.5683742998
 30
0.0
 10
18.8497108352
 20
19.3357644496
 30
0.0
 10
18.9804683386
 20
18.9732241997
 30
0.0
 10
19.0615017084
 20
18.6097551669
 30
0.0
 10
19.0809581036
 20
18.367197722
 30
0.0
 10
19.0806176373
 20
18.2495938572
 30
0.0
 11
18.6664657081
 21
19.6812319682
 31
0.0
 11
18.8430634459
 21
19.3312556374
 31
0.0
 11
18.9739834049
 21
18.9666475457
 31
0.0
 11
19.0541953153
 21
18.6014161494
 31
0.0
 11
19.0806176373
 21
18.2495938572
 31
0.0
  0
SPLINE
  5
483
100
AcDbEntity
  8
RACCORDO
100
AcDbSpline
 62
7
  6
CONTINUOUS
 70
0
 71
3
 72
12
 73
8
 74
6
 42
0.0000001
 43
0.0000001
 44
0.0000000001
 12
-0.1965698602
 22
0.0944142833
 32
0.0
 13
-0.1979749362
 23
-0.0914313485
 33
0.0
 40
0.0
 40
0.0
 40
0.0
 40
0.0
 40
0.2874014982
 40
0.5468370254
 40
0.7816151617
 40
0.8922543533
 40
1.0
 40
1.0
 40
1.0
 40
1.0
 10
-2.3295094591
 20
19.8505012341
 30
0.0
 10
-2.3483409499
 20
19.8595461696
 30
0.0
 10
-2.385442586
 20
19.8743476237
 30
0.0
 10
-2.4414009245
 20
19.885939936
 30
0.0
 10
-2.4858515801
 20
19.8852724643
 30
0.0
 10
-2.5181046639
 20
19.8781463997
 30
0.0
 10
-2.5330309341
 20
19.8725508719
 30
0.0
 10
-2.5401412466
 20
19.8692670953
 30
0.0
 11
-2.3295094591
 21
19.8505012341
 31
0.0
 11
-2.387905771
 21
19.873256319
 31
0.0
 11
-2.4434245538
 21
19.8841354865
 31
0.0
 11
-2.49460485
 21
19.882802191
 31
0.0
 11
-2.5181522707
 21
19.8775461371
 31
0.0
 11
-2.5401412466
 21
19.8692670953
 31
0.0
  0
ELLIPSE
  5
484
100
AcDbEntity
  8
DRAFT
100
AcDbEllipse
 62
7
  6
CONTINUOUS
 10
-2.5399884181
 20
19.0098891226
 30
0.0
 11
0.9999934239
 21
0.0071767279
 31
0.0
 40
0.5053247124
 41
2.0833245176
 42
2.3525679043
  0
ELLIPSE
  5
485
100
AcDbEntity
  8
ASSI
100
AcDbEllipse
 62
7
  6
CONTINUOUS
 10
-2.8606192616
 20
22.9462671167
 30
0.0
 11
0.2243888929
 21
0.4435680214
 31
0.0
 40
0.6159267166
 41
0.5430430465
 42
0.6759705412
  0
ELLIPSE
  5
486
100
AcDbEntity
  8
RACCORDO
100
AcDbEllipse
 62
7
  6
CONTINUOUS
 10
3.1592394593
 20
-23.7720644398
 30
0.0
 11
-0.2191716667
 21
0.4382558376
 31
0.0
 40
0.6124778111
 41
-3.1448859382
 42
-2.255529033
  0
ELLIPSE
  5
487
100
AcDbEntity
  8
RACCORDO
100
AcDbEllipse
 62
7
  6
CONTINUOUS
 10
3.1592394593
 20
14.1620210583
 30
0.0
 11
-0.2192305083
 21
0.4383081735
 31
0.0
 40
0.6122950388
 41
-2.2557482655
 42
-0.6847996396
  0
ELLIPSE
  5
488
100
AcDbEntity
  8
DRAFT
100
AcDbEllipse
 62
7
  6
CONTINUOUS
 10
7.8023193156
 20
-19.2199343603
 30
0.0
 11
0.9927147821
 21
0.620457446
 31
0.0
 40
0.0764819879
 41
-2.4014426144
 42
-1.220907601
  0
ELLIPSE
  5
489
100
AcDbEntity
  8
DRAFT
100
AcDbEllipse
 62
7
  6
CONTINUOUS
 10
-3.8313293526
 20
23.511557518
 30
0.0
 11
1.004787277
 21
0.6140102217
 31
0.0
 40
0.0864918533
 41
0.0542612015
 42
0.7299997
  0
ELLIPSE
  5
48A
100
AcDbEntity
  8
DRAFT
100
AcDbEllipse
 62
7
  6
CONTINUOUS
 10
7.7018174198
 20
17.8129327368
 30
0.0
 11
0.499996712
 21
0.0035883639
 31
0.0
 40
0.5053247124
 41
-0.7715714568
 42
-0.0036408014
  0
ELLIPSE
  5
48B
100
AcDbEntity
  8
RACCORDO
100
AcDbEllipse
 62
7
  6
CONTINUOUS
 10
-8.1947797708
 20
20.4202131684
 30
0.0
 11
0.4999985559
 21
0.0023864752
 31
0.0
 40
0.5035541159
 41
2.3596088132
 42
3.0002042076
  0
ELLIPSE
  5
48C
100
AcDbEntity
  8
DRAFT
100
AcDbEllipse
 62
7
  6
CONTINUOUS
 10
-2.5088332759
 20
22.01788366
 30
0.0
 11
0.4279673669
 21
-0.0030279657
 31
0.0
 40
0.4946372042
 41
-0.7818985079
 42
0.0034334386
  0
ELLIPSE
  5
48D
100
AcDbEntity
  8
ASSI
100
AcDbEllipse
 62
7
  6
CONTINUOUS
 10
3.300189076
 20
19.8658629479
 30
0.0
 11
0.2202500223
 21
0.4456375722
 31
0.0
 40
0.6088015717
 41
0.5373422746
 42
0.6702697693
  0
ELLIPSE
  5
48E
100
AcDbEntity
  8
DRAFT
100
AcDbEllipse
 62
7
  6
CONTINUOUS
 10
7.8023193156
 20
17.6947331839
 30
0.0
 11
-0.7356038977
 21
1.2035991204
 31
0.0
 40
0.5552491559
 41
5.0522269171
 42
6.2327619305
  0
ELLIPSE
  5
48F
100
AcDbEntity
  8
DRAFT
100
AcDbEllipse
 62
7
  6
CONTINUOUS
 10
7.7018174198
 20
18.6492953124
 30
0.0
 11
-0.3739417019
 21
0.598522373
 31
0.0
 40
0.554557473
 41
-3.1836090632
 42
-2.1732153414
  0
ELLIPSE
  5
490
100
AcDbEntity
  8
DRAFT
100
AcDbEllipse
 62
7
  6
CONTINUOUS
 10
7.7018174198
 20
-19.3668878119
 30
0.0
 11
0.499443764
 21
0.3120915671
 31
0.0
 40
0.0755486457
 41
5.9935627714
 42
7.0039564932
  0
ELLIPSE
  5
491
100
AcDbEntity
  8
RACCORDO
100
AcDbEllipse
 62
7
  6
CONTINUOUS
 10
1.3793089422
 20
13.8361892696
 30
0.0
 11
0.249929385
 21
0.0111824824
 31
0.0
 40
0.5313301283
 41
-2.3799630874
 42
-1.24594668
  0
ELLIPSE
  5
492
100
AcDbEntity
  8
RACCORDO
100
AcDbEllipse
 62
7
  6
CONTINUOUS
 10
0.0460966086
 20
14.5027954364
 30
0.0
 11
0.249929385
 21
0.0111824824
 31
0.0
 40
0.5313301283
 41
3.1178369227
 42
3.9032222197
  0
ELLIPSE
  5
493
100
AcDbEntity
  8
RACCORDO
100
AcDbEllipse
 62
7
  6
CONTINUOUS
 10
-11.9850092222
 20
20.5183483518
 30
0.0
 11
0.249929385
 21
0.0111824824
 31
0.0
 40
0.5313301283
 41
-2.3799630874
 42
-0.8149845248
  0
ELLIPSE
  5
494
100
AcDbEntity
  8
RACCORDO
100
AcDbEllipse
 62
7
  6
CONTINUOUS
 10
-13.3182215559
 20
21.1849545187
 30
0.0
 11
0.249929385
 21
0.0111824824
 31
0.0
 40
0.5313301283
 41
3.1177919815
 42
3.9032222197
  0
ELLIPSE
  5
495
100
AcDbEntity
  8
RACCORDO
100
AcDbEllipse
 62
7
  6
CONTINUOUS
 10
-2.6834726711
 20
17.6645596185
 30
0.0
 11
0.4999985559
 21
0.0023864752
 31
0.0
 40
0.5035541159
 41
-1.4342147631
 42
-0.7936193687
  0
ELLIPSE
  5
496
100
AcDbEntity
  8
RACCORDO
100
AcDbEllipse
 62
7
  6
CONTINUOUS
 10
-2.6834726711
 20
16.4319500133
 30
0.0
 11
0.4998587701
 21
0.0223649649
 31
0.0
 40
0.5313301283
 41
-2.3799630874
 42
-0.8149845248
  0
ELLIPSE
  5
497
100
AcDbEntity
  8
RACCORDO
100
AcDbEllipse
 62
7
  6
CONTINUOUS
 10
-8.1947797708
 20
19.1876035632
 30
0.0
 11
0.4998587701
 21
0.0223649649
 31
0.0
 40
0.5313301283
 41
3.1178197826
 42
3.9032222197
  0
ELLIPSE
  5
498
100
AcDbEntity
  8
DRAFT
100
AcDbEllipse
 62
7
  6
CONTINUOUS
 10
3.0461551533
 20
19.2403894454
 30
0.0
 11
0.4279673669
 21
-0.0030279657
 31
0.0
 40
0.4946372042
 41
-0.7760807437
 42
0.0034304302
  0
ELLIPSE
  5
499
100
AcDbEntity
  8
ASSI
100
AcDbEllipse
 62
7
  6
CONTINUOUS
 10
13.7137397413
 20
9.820980027
 30
0.0
 11
0.9261626287
 21
1.8847694129
 31
0.0
 40
0.607010042
 41
-2.7637651264
 42
-2.4610674593
  0
ELLIPSE
  5
49A
100
AcDbEntity
  8
ASSI
100
AcDbEllipse
 62
7
  6
CONTINUOUS
 10
13.7137397413
 20
5.490853008
 30
0.0
 11
0.9261626287
 21
1.8847694129
 31
0.0
 40
0.607010042
 41
-2.7637651264
 42
-2.4610674593
  0
ELLIPSE
  5
49B
100
AcDbEntity
  8
ASSI
100
AcDbEllipse
 62
7
  6
CONTINUOUS
 10
13.7137397413
 20
1.1607259891
 30
0.0
 11
0.9261626287
 21
1.8847694129
 31
0.0
 40
0.607010042
 41
-2.7637651264
 42
-2.4610674593
  0
ELLIPSE
  5
49C
100
AcDbEntity
  8
ASSI
100
AcDbEllipse
 62
7
  6
CONTINUOUS
 10
13.7137397413
 20
-3.1694010298
 30
0.0
 11
0.9261626287
 21
1.8847694129
 31
0.0
 40
0.607010042
 41
-2.7637651264
 42
-2.4610674593
  0
ELLIPSE
  5
49D
100
AcDbEntity
  8
ASSI
100
AcDbEllipse
 62
7
  6
CONTINUOUS
 10
13.7137397413
 20
-7.4995280487
 30
0.0
 11
0.9261626287
 21
1.8847694129
 31
0.0
 40
0.607010042
 41
-2.7637651264
 42
-2.4610674593
  0
ELLIPSE
  5
49E
100
AcDbEntity
  8
ASSI
100
AcDbEllipse
 62
7
  6
CONTINUOUS
 10
13.7137397413
 20
-11.8296550677
 30
0.0
 11
0.9261626287
 21
1.8847694129
 31
0.0
 40
0.607010042
 41
-2.7637651264
 42
-2.4610674593
  0
ELLIPSE
  5
49F
100
AcDbEntity
  8
ASSI
100
AcDbEllipse
 62
7
  6
CONTINUOUS
 10
14.552525125
 20
-7.9189207406
 30
0.0
 11
0.9134242373
 21
1.8910797574
 31
0.0
 40
0.6016116119
 41
0.6764898932
 42
3.8180825468
  0
ELLIPSE
  5
4A0
100
AcDbEntity
  8
ASSI
100
AcDbEllipse
 62
7
  6
CONTINUOUS
 10
14.552525125
 20
-12.2490477595
 30
0.0
 11
0.9134242373
 21
1.8910797574
 31
0.0
 40
0.6016116119
 41
0.6764898932
 42
3.8180825468
  0
ELLIPSE
  5
4A1
100
AcDbEntity
  8
ASSI
100
AcDbEllipse
 62
7
  6
CONTINUOUS
 10
14.552525125
 20
9.4015873351
 30
0.0
 11
0.9134242373
 21
1.8910797574
 31
0.0
 40
0.6016116119
 41
0.6764898932
 42
3.8180825468
  0
ELLIPSE
  5
4A2
100
AcDbEntity
  8
ASSI
100
AcDbEllipse
 62
7
  6
CONTINUOUS
 10
14.552525125
 20
5.0714603162
 30
0.0
 11
0.9134242373
 21
1.8910797574
 31
0.0
 40
0.6016116119
 41
0.6764898932
 42
3.8180825468
  0
ELLIPSE
  5
4A3
100
AcDbEntity
  8
ASSI
100
AcDbEllipse
 62
7
  6
CONTINUOUS
 10
14.552525125
 20
0.7413332973
 30
0.0
 11
0.9134242373
 21
1.8910797574
 31
0.0
 40
0.6016116119
 41
0.6764898932
 42
3.8180825468
  0
ELLIPSE
  5
4A4
100
AcDbEntity
  8
RACCORDO
100
AcDbEllipse
 62
7
  6
CONTINUOUS
 10
-3.5145302868
 20
18.8685147633
 30
0.0
 11
1.2181247452
 21
0.9560445338
 31
0.0
 40
0.2321910517
 41
0.1093596625
 42
0.1138484791
  0
ELLIPSE
  5
4A5
100
AcDbEntity
  8
ASSI
100
AcDbEllipse
 62
7
  6
CONTINUOUS
 10
14.552525125
 20
-3.5887937217
 30
0.0
 11
0.9134242373
 21
1.8910797574
 31
0.0
 40
0.6016116119
 41
0.6764898932
 42
3.8180825468
  0
ENDSEC
  0
SECTION
  2
OBJECTS
  0
DICTIONARY
  5
C
100
AcDbDictionary
280
0
281
1
  3
ACAD_GROUP
350
D
  3
ACAD_MLINESTYLE
350
17
  3
ACAD_LAYOUT
350
1A
  3
ACAD_PLOTSETTINGS
350
19
  3
ACAD_PLOTSTYLENAME
350
E
  0
DICTIONARY
  5
D
102
{ACAD_REACTORS
330
C
102
}
100
AcDbDictionary
280
0
281
1
  0
ACDBDICTIONARYWDFLT
  5
E
102
{ACAD_REACTORS
330
C
102
}
100
AcDbDictionary
281
1
  3
Normal
350
F
100
AcDbDictionaryWithDefault
340
F
  0
DICTIONARY
  5
17
102
{ACAD_REACTORS
330
C
102
}
100
AcDbDictionary
280
0
281
1
  3
Standard
350
18
  0
DICTIONARY
  5
19
102
{ACAD_REACTORS
330
C
102
}
100
AcDbDictionary
281
1
  0
DICTIONARY
  5
1A
102
{ACAD_REACTORS
330
C
102
}
100
AcDbDictionary
281
1
  3
Model
350
4A6
  3
Layout1
350
4A7
  0
ACDBPLACEHOLDER
  5
F
102
{ACAD_REACTORS
330
E
102
}
  0
MLINESTYLE
  5
18
102
{ACAD_REACTORS
330
17
102
}
100
AcDbMlineStyle
  2
STANDARD
 70
0
  3

 62
256
 51
90.0
 52
90.0
 71
2
 49
0.5
 62
256
  6
BYLAYER
 49
-0.5
 62
256
  6
BYLAYER
  0
LAYOUT
  5
4A6
102
{ACAD_REACTORS
330
1A
102
}
100
AcDbPlotSettings
  1

  2
none_device
  4
ISO_A4_(297.00_x_210.00_MM)
  6

 40
0.0
 41
0.0
 42
0.0
 43
0.0
 44
297.0
 45
210.0
 46
0.0
 47
0.0
 48
0.0
 49
0.0
140
0.0
141
0.0
142
1.0
143
1.0
 70
1024
 72
1
 73
0
 74
0
  7

 75
0
147
1.0
148
0.0
149
0.0
100
AcDbLayout
  1
Model
 70
0
 71
0
 10
0.0
 20
0.0
 11
297.0
 21
210.0
 12
0.0
 22
0.0
 32
0.0
 14
0.0
 24
0.0
 34
0.0
 15
0.0
 25
0.0
 35
0.0
146
0.0
 13
0.0
 23
0.0
 33
0.0
 16
1.0
 26
0.0
 36
0.0
 17
0.0
 27
1.0
 37
0.0
 76
0
330
21B
345
0
346
0
  0
LAYOUT
  5
4A7
102
{ACAD_REACTORS
330
1A
102
}
100
AcDbPlotSettings
  1

  2
none_device
  4
ISO_A4_(297.00_x_210.00_MM)
  6

 40
0.0
 41
0.0
 42
0.0
 43
0.0
 44
297.0
 45
210.0
 46
0.0
 47
0.0
 48
0.0
 49
0.0
140
0.0
141
0.0
142
1.0
143
1.0
 70
0
 72
1
 73
0
 74
0
  7

 75
0
147
1.0
148
0.0
149
0.0
100
AcDbLayout
  1
Layout1
 70
0
 71
1
 10
0.0
 20
0.0
 11
297.0
 21
210.0
 12
0.0
 22
0.0
 32
0.0
 14
0.0
 24
0.0
 34
0.0
 15
0.0
 25
0.0
 35
0.0
146
0.0
 13
0.0
 23
0.0
 33
0.0
 16
1.0
 26
0.0
 36
0.0
 17
0.0
 27
1.0
 37
0.0
 76
0
330
21C
345
0
346
0
  0
ENDSEC
  0
EOF
