  0
SECTION
  2
HEADER
  9
$ACADVER
  1
AC1015
  9
$DWGCODEPAGE
  3
ANSI_1252
  9
$EXTMAX
 10
297.0
 20
210.0
 30
0.0
  9
$EXTMIN
 10
0.0
 20
0.0
 30
0.0
  9
$LIMMIN
 10
0.0
 20
0.0
  9
$LIMMAX
 10
297.0
 20
210.0
  9
$VIEWCTR
 10
148.5
 20
105.0
  9
$VIEWSIZE
 40
210.0
  9
$CLAYER
  8
0
  9
$LTSCALE
 40
16.335
  9
$CELTYPE
  6
BYLAYER
  9
$DIMSCALE
 40
1.0
  9
$DIMASZ
 40
3.0
  9
$DIMEXO
 40
1.85625
  9
$DIMDLI
 40
11.286
  9
$DIMEXE
 40
5.346
  9
$DIMCEN
 40
2.673
  9
$DIMLFAC
 40
1.0
  9
$DIMBLK
  1
_FILLED
  9
$DIMTXT
 40
3.0
  9
$DIMTOL
 70
1
  9
$DIMLIM
 70
0
  9
$DIMTFAC
 40
1.0
  9
$DIMTP
 40
0.01
  9
$DIMTM
 40
0.01
  9
$PDMODE
 70
3
  9
$PDSIZE
 40
3.0
  9
$HANDSEED
  5
4B6
  9
$TILEMODE
 70
1
  9
$MEASUREMENT
 70
1
  9
$INSUNITS
 70
4
  0
ENDSEC
  0
SECTION
  2
CLASSES
  0
CLASS
  1
ACDBDICTIONARYWDFLT
  2
AcDbDictionaryWithDefault
  3
AutoCAD 2000
 90
0
280
0
281
0
  0
CLASS
  1
ACDBPLACEHOLDER
  2
AcDbPlaceHolder
  3
AutoCAD 2000
 90
0
280
0
281
0
  0
CLASS
  1
LAYOUT
  2
AcDbLayout
  3
AutoCAD 2000
 90
0
280
0
281
0
  0
ENDSEC
  0
SECTION
  2
TABLES
  0
TABLE
  2
VPORT
  5
8
100
AcDbSymbolTable
 70
2
  0
VPORT
  5
1F4
100
AcDbSymbolTableRecord
100
AcDbViewportTableRecord
  2
*ACTIVE
 70
0
 10
0.0
 20
0.0
 11
1.0
 21
1.0
 12
148.5
 22
105.0
 13
0.0
 23
0.0
 14
1.0
 24
1.0
 15
0.0
 25
0.0
 16
0.0
 26
0.0
 36
1.0
 17
0.0
 27
0.0
 37
0.0
 40
210.0
 41
1.4142857143
 42
50.0
 43
0.0
 44
0.0
 50
0.0
 51
0.0
 71
0
 72
100
 73
1
 74
1
 75
0
 76
0
 77
0
 78
0
  0
ENDTAB
  0
TABLE
  2
LTYPE
  5
5
100
AcDbSymbolTable
 70
6
  0
LTYPE
  5
14
100
AcDbSymbolTableRecord
100
AcDbLinetypeTableRecord
  2
BYBLOCK
 70
0
  3

 72
65
 73
0
 40
0.0
  0
LTYPE
  5
15
100
AcDbSymbolTableRecord
100
AcDbLinetypeTableRecord
  2
BYLAYER
 70
0
  3

 72
65
 73
0
 40
0.0
  0
LTYPE
  5
16
100
AcDbSymbolTableRecord
100
AcDbLinetypeTableRecord
  2
CONTINUOUS
 70
64
  3
Solid line
 72
65
 73
0
 40
0.0
  0
LTYPE
  5
1F5
100
AcDbSymbolTableRecord
100
AcDbLinetypeTableRecord
  2
CENTER
 70
64
  3
____ _ ____ _ ____ _ ____ _ ____ _ ____ _ ____
 72
65
 73
4
 40
0.6
 49
0.375
 74
0
 49
-0.075
 74
0
 49
0.075
 74
0
 49
-0.075
 74
0
  0
LTYPE
  5
1F6
100
AcDbSymbolTableRecord
100
AcDbLinetypeTableRecord
  2
HIDDEN
 70
64
  3
- - - - - - - - - - - - - - - - - - - -
 72
65
 73
2
 40
0.2
 49
0.1
 74
0
 49
-0.1
 74
0
  0
LTYPE
  5
1F7
100
AcDbSymbolTableRecord
100
AcDbLinetypeTableRecord
  2
PHANTOM
 70
64
  3
_____ _ _ _____ _ _ _____ _ _ _____
 72
65
 73
6
 40
0.8
 49
0.45
 74
0
 49
-0.05
 74
0
 49
0.1
 74
0
 49
-0.05
 74
0
 49
0.1
 74
0
 49
-0.05
 74
0
  0
LTYPE
  5
1F8
100
AcDbSymbolTableRecord
100
AcDbLinetypeTableRecord
  2
DOT
 70
64
  3
. . . . . . . . . . . . . . . . . . . .
 72
65
 73
2
 40
0.2
 49
0.1
 74
0
 49
-0.1
 74
0
  0
LTYPE
  5
1F9
100
AcDbSymbolTableRecord
100
AcDbLinetypeTableRecord
  2
DASHED
 70
64
  3
- - - - - - - - - - - - - - - - - - - -
 72
65
 73
2
 40
0.2
 49
0.1
 74
0
 49
-0.1
 74
0
  0
ENDTAB
  0
TABLE
  2
LAYER
  5
2
100
AcDbSymbolTable
 70
36
  0
LAYER
  5
10
100
AcDbSymbolTableRecord
100
AcDbLayerTableRecord
  2
0
 70
0
 62
7
  6
CONTINUOUS
370
-3
390
F
  0
LAYER
  5
1FA
100
AcDbSymbolTableRecord
100
AcDbLayerTableRecord
  2
DEFAULT_1
 70
0
 62
7
  6
CENTER
370
-3
390
F
  0
LAYER
  5
1FB
100
AcDbSymbolTableRecord
100
AcDbLayerTableRecord
  2
DEFAULT_2
 70
0
 62
7
  6
HIDDEN
370
-3
390
F
  0
LAYER
  5
1FC
100
AcDbSymbolTableRecord
100
AcDbLayerTableRecord
  2
DEFAULT_3
 70
0
 62
7
  6
PHANTOM
370
-3
390
F
  0
LAYER
  5
1FD
100
AcDbSymbolTableRecord
100
AcDbLayerTableRecord
  2
ASSI
 70
0
 62
7
  6
CONTINUOUS
370
-3
390
F
  0
LAYER
  5
1FE
100
AcDbSymbolTableRecord
100
AcDbLayerTableRecord
  2
COORDINATE
 70
0
 62
7
  6
CONTINUOUS
370
-3
390
F
  0
LAYER
  5
1FF
100
AcDbSymbolTableRecord
100
AcDbLayerTableRecord
  2
COORD_ORIGINE
 70
0
 62
7
  6
CONTINUOUS
370
-3
390
F
  0
LAYER
  5
200
100
AcDbSymbolTableRecord
100
AcDbLayerTableRecord
  2
COPY_PUBLISH
 70
0
 62
7
  6
CONTINUOUS
370
-3
390
F
  0
LAYER
  5
201
100
AcDbSymbolTableRecord
100
AcDbLayerTableRecord
  2
COSMETIC
 70
0
 62
7
  6
CONTINUOUS
370
-3
390
F
  0
LAYER
  5
202
100
AcDbSymbolTableRecord
100
AcDbLayerTableRecord
  2
CURVE
 70
0
 62
7
  6
CONTINUOUS
370
-3
390
F
  0
LAYER
  5
203
100
AcDbSymbolTableRecord
100
AcDbLayerTableRecord
  2
DRAFT
 70
0
 62
7
  6
CONTINUOUS
370
-3
390
F
  0
LAYER
  5
204
100
AcDbSymbolTableRecord
100
AcDbLayerTableRecord
  2
IMPORT
 70
0
 62
7
  6
CONTINUOUS
370
-3
390
F
  0
LAYER
  5
205
100
AcDbSymbolTableRecord
100
AcDbLayerTableRecord
  2
IMPORT_IGES
 70
0
 62
7
  6
CONTINUOUS
370
-3
390
F
  0
LAYER
  5
206
100
AcDbSymbolTableRecord
100
AcDbLayerTableRecord
  2
LAY0001
 70
0
 62
7
  6
CONTINUOUS
370
-3
390
F
  0
LAYER
  5
207
100
AcDbSymbolTableRecord
100
AcDbLayerTableRecord
  2
NOTE
 70
0
 62
7
  6
CONTINUOUS
370
-3
390
F
  0
LAYER
  5
208
100
AcDbSymbolTableRecord
100
AcDbLayerTableRecord
  2
PIANI
 70
0
 62
7
  6
CONTINUOUS
370
-3
390
F
  0
LAYER
  5
209
100
AcDbSymbolTableRecord
100
AcDbLayerTableRecord
  2
PIANI_ORIGINE
 70
0
 62
7
  6
CONTINUOUS
370
-3
390
F
  0
LAYER
  5
20A
100
AcDbSymbolTableRecord
100
AcDbLayerTableRecord
  2
PIANI_RIFERIMENTO
 70
0
 62
7
  6
CONTINUOUS
370
-3
390
F
  0
LAYER
  5
20B
100
AcDbSymbolTableRecord
100
AcDbLayerTableRecord
  2
PUNTI
 70
0
 62
7
  6
CONTINUOUS
370
-3
390
F
  0
LAYER
  5
20C
100
AcDbSymbolTableRecord
100
AcDbLayerTableRecord
  2
RACCORDO
 70
0
 62
7
  6
CONTINUOUS
370
-3
390
F
  0
LAYER
  5
20D
100
AcDbSymbolTableRecord
100
AcDbLayerTableRecord
  2
SMUSSO
 70
0
 62
7
  6
CONTINUOUS
370
-3
390
F
  0
LAYER
  5
20E
100
AcDbSymbolTableRecord
100
AcDbLayerTableRecord
  2
SNAPLINE
 70
0
 62
7
  6
CONTINUOUS
370
-3
390
F
  0
LAYER
  5
20F
100
AcDbSymbolTableRecord
100
AcDbLayerTableRecord
  2
SUPERFICI
 70
0
 62
7
  6
CONTINUOUS
370
-3
390
F
  0
LAYER
  5
210
100
AcDbSymbolTableRecord
100
AcDbLayerTableRecord
  2
TRASH
 70
0
 62
7
  6
CONTINUOUS
370
-3
390
F
  0
LAYER
  5
211
100
AcDbSymbolTableRecord
100
AcDbLayerTableRecord
  2
XSEC_DATUMS
 70
0
 62
7
  6
CONTINUOUS
370
-3
390
F
  0
LAYER
  5
212
100
AcDbSymbolTableRecord
100
AcDbLayerTableRecord
  2
Z030100_COP
 70
0
 62
7
  6
CONTINUOUS
370
-3
390
F
  0
ENDTAB
  0
TABLE
  2
STYLE
  5
3
100
AcDbSymbolTable
 70
1
  0
STYLE
  5
11
100
AcDbSymbolTableRecord
100
AcDbTextStyleTableRecord
  2
STANDARD
 70
0
 40
0.0
 41
0.8
 50
0.0
 71
0
 42
0.2
  3
txt
  4

  0
STYLE
  5
213
100
AcDbSymbolTableRecord
100
AcDbTextStyleTableRecord
  2
TEXTSTYLE_1
 70
0
 40
0.0
 41
0.8
 50
0.0
 71
0
 42
0.2
  3
gdt
  4

  0
ENDTAB
  0
TABLE
  2
VIEW
  5
6
100
AcDbSymbolTable
 70
0
  0
ENDTAB
  0
TABLE
  2
UCS
  5
7
100
AcDbSymbolTable
 70
0
  0
ENDTAB
  0
TABLE
  2
APPID
  5
9
100
AcDbSymbolTable
 70
1
  0
APPID
  5
214
100
AcDbSymbolTableRecord
100
AcDbRegAppTableRecord
  2
ACAD
 70
0
  0
ENDTAB
  0
TABLE
  2
BLOCK_RECORD
  5
1
100
AcDbSymbolTable
 70
0
  0
BLOCK_RECORD
  5
215
100
AcDbSymbolTableRecord
100
AcDbBlockTableRecord
  2
*Model_Space
  0
BLOCK_RECORD
  5
216
100
AcDbSymbolTableRecord
100
AcDbBlockTableRecord
  2
*Paper_Space
  0
ENDTAB
  0
TABLE
  2
DIMSTYLE
  5
A
100
AcDbSymbolTable
 70
1
100
AcDbDimStyleTable
 71
0
  0
DIMSTYLE
105
217
100
AcDbSymbolTableRecord
100
AcDbDimStyleTableRecord
  2
STANDARD
 70
0
  3

  4

 40
1.0
 41
3.0
 42
0.0625
 43
0.38
 44
0.18
 45
0.0
 46
0.0
 47
0.01
 48
0.01
140
3.0
141
0.09
142
0.0
143
25.4
144
1.0
145
0.0
146
1.0
147
0.09
 71
1.0
 72
0.0
 73
0
 74
0
 75
0
 76
0
 77
1
 78
8
170
0
171
2
172
0
173
0
174
0
175
0
176
0
177
0
178
0
270
2
271
2
272
2
273
2
274
2
275
0
280
0
281
0
282
0
283
1
284
8
285
0
286
0
287
3
288
0
340
11
  0
ENDTAB
  0
ENDSEC
  0
SECTION
  2
BLOCKS
  0
BLOCK
  5
20
100
AcDbEntity
  8
0
100
AcDbBlockBegin
  2
*Model_Space
 70
0
 10
0.0
 20
0.0
 30
0.0
  3
*Model_Space
  1

  0
ENDBLK
  5
21
100
AcDbEntity
  8
0
100
AcDbBlockEnd
  0
BLOCK
  5
1C
100
AcDbEntity
  8
0
100
AcDbBlockBegin
  2
*Paper_Space
 70
0
 10
0.0
 20
0.0
 30
0.0
  3
*Paper_Space
  1

  0
ENDBLK
  5
1D
100
AcDbEntity
  8
0
100
AcDbBlockEnd
  0
ENDSEC
  0
SECTION
  2
ENTITIES
  0
LINE
  5
218
100
AcDbEntity
  8
RACCORDO
100
AcDbLine
 62
7
  6
CONTINUOUS
 10
-11.7148537622
 20
24.9259186253
 11
-13.2980254572
 21
24.1137215781
  0
LINE
  5
219
100
AcDbEntity
  8
RACCORDO
100
AcDbLine
 62
253
  6
CONTINUOUS
 10
-11.6021831879
 20
24.9192577003
 11
-13.184939791
 21
24.1072736029
  0
LINE
  5
21A
100
AcDbEntity
  8
RACCORDO
100
AcDbLine
 62
7
  6
CONTINUOUS
 10
-11.7131153767
 20
24.9267878581
 11
-11.7148517885
 21
24.9259196379
  0
LINE
  5
21B
100
AcDbEntity
  8
RACCORDO
100
AcDbLine
 62
7
  6
CONTINUOUS
 10
-11.1782454203
 20
25.1873399579
 11
-11.7131126111
 21
24.9267892053
  0
LINE
  5
21C
100
AcDbEntity
  8
RACCORDO
100
AcDbLine
 62
253
  6
CONTINUOUS
 10
-11.0677333092
 20
25.1796051668
 11
-11.6021831879
 21
24.9192577003
  0
LWPOLYLINE
  5
21D
100
AcDbEntity
  8
RACCORDO
100
AcDbPolyline
 62
7
  6
CONTINUOUS
 90
37
 70
0
 10
-17.3389915722
 20
20.0545843547
 10
-17.3706706563
 20
20.0355364486
 10
-17.4135613357
 20
20.0078810213
 10
-17.4556350337
 20
19.978603212
 10
-17.496874135
 20
19.9477635037
 10
-17.5372696954
 20
19.9154156451
 10
-17.5768080938
 20
19.88161174
 10
-17.6154751882
 20
19.8464030204
 10
-17.6532558977
 20
19.8098381745
 10
-17.6901251531
 20
19.7719719429
 10
-17.7260660771
 20
19.7328521073
 10
-17.7610596065
 20
19.6925241658
 10
-17.7950722047
 20
19.6510501718
 10
-17.8280831583
 20
19.6084776199
 10
-17.8600704304
 20
19.5648511942
 10
-17.890996359
 20
19.5202396031
 10
-17.9208374225
 20
19.4746904746
 10
-17.9495699867
 20
19.428249832
 10
-17.977155201
 20
19.3809905155
 10
-18.0035682262
 20
19.3329600602
 10
-18.0287845446
 20
19.2842068564
 10
-18.0527647414
 20
19.2348072883
 10
-18.0754838726
 20
19.1848097532
 10
-18.0969172748
 20
19.1342632202
 10
-18.1170269229
 20
19.0832448472
 10
-18.1357888671
 20
19.0318028742
 10
-18.1531775523
 20
18.9799860701
 10
-18.1691578665
 20
18.9278700652
 10
-18.1837059831
 20
18.8755018632
 10
-18.196795147
 20
18.8229285723
 10
-18.2083939333
 20
18.7702204706
 10
-18.2184765943
 20
18.7174238307
 10
-18.2270147714
 20
18.66458412
 10
-18.2339786624
 20
18.6117592563
 10
-18.2393381973
 20
18.5589932858
 10
-18.2430627494
 20
18.5063302359
 10
-18.2447006631
 20
18.468914313
  0
LINE
  5
21E
100
AcDbEntity
  8
RACCORDO
100
AcDbLine
 62
7
  6
CONTINUOUS
 10
-17.3390020431
 20
20.0545783873
 11
-12.7309183974
 21
22.7415132208
  0
LINE
  5
21F
100
AcDbEntity
  8
RACCORDO
100
AcDbLine
 62
253
  6
CONTINUOUS
 10
-12.7309183974
 20
22.5966790443
 11
-17.1056479955
 21
20.0458109941
  0
LINE
  5
220
100
AcDbEntity
  8
RACCORDO
100
AcDbLine
 62
7
  6
CONTINUOUS
 10
-16.3286756135
 20
19.7083691393
 11
-14.4581068048
 21
20.7637181704
  0
LINE
  5
221
100
AcDbEntity
  8
RACCORDO
100
AcDbLine
 62
253
  6
CONTINUOUS
 10
-16.2150832866
 20
19.7022160597
 11
-14.3422189734
 21
20.7588601827
  0
LINE
  5
222
100
AcDbEntity
  8
DRAFT
100
AcDbLine
 62
7
  6
CONTINUOUS
 10
-16.4576290954
 20
19.7218015441
 11
-14.5611389179
 21
20.7743147001
  0
LINE
  5
223
100
AcDbEntity
  8
RACCORDO
100
AcDbLine
 62
253
  6
CONTINUOUS
 10
-10.347062668
 20
24.2916974403
 11
-11.9483434589
 21
23.4889754368
  0
LINE
  5
224
100
AcDbEntity
  8
RACCORDO
100
AcDbLine
 62
253
  6
CONTINUOUS
 10
-10.1702889644
 20
23.9868079015
 11
-11.7715697552
 21
23.184085898
  0
LINE
  5
225
100
AcDbEntity
  8
RACCORDO
100
AcDbLine
 62
253
  6
CONTINUOUS
 10
-9.8187954963
 20
24.5551362604
 11
-10.347062668
 21
24.2916974403
  0
LINE
  5
226
100
AcDbEntity
  8
RACCORDO
100
AcDbLine
 62
253
  6
CONTINUOUS
 10
-9.6420217926
 20
24.2502467216
 11
-10.1702889644
 21
23.9868079015
  0
LINE
  5
227
100
AcDbEntity
  8
RACCORDO
100
AcDbLine
 62
7
  6
CONTINUOUS
 10
-10.1702889644
 20
22.3413559704
 11
-11.0603491471
 21
21.8446750491
  0
LINE
  5
228
100
AcDbEntity
  8
RACCORDO
100
AcDbLine
 62
7
  6
CONTINUOUS
 10
-7.7661139069
 20
22.0368611577
 11
-7.4125725177
 21
22.2182345825
  0
LINE
  5
229
100
AcDbEntity
  8
RACCORDO
100
AcDbLine
 62
7
  6
CONTINUOUS
 10
-2.5263238682
 20
25.5209689821
 11
-8.7622462294
 21
22.3368836949
  0
LINE
  5
22A
100
AcDbEntity
  8
ASSI
100
AcDbLine
 62
7
  6
CONTINUOUS
 10
-7.4125725177
 20
22.2182345825
 11
-2.0763491118
 21
24.817678048
  0
LWPOLYLINE
  5
22B
100
AcDbEntity
  8
RACCORDO
100
AcDbPolyline
 62
7
  6
CONTINUOUS
 90
24
 70
0
 10
-2.9507455161
 20
-25.37204299
 10
-2.9278940878
 20
-25.383066537
 10
-2.8955096556
 20
-25.3973458072
 10
-2.862446191
 20
-25.4103784883
 10
-2.8287331213
 20
-25.4221379744
 10
-2.7943780336
 20
-25.4326042459
 10
-2.7594207823
 20
-25.441747003
 10
-2.7239045131
 20
-25.4495388578
 10
-2.6878388094
 20
-25.4559601487
 10
-2.6512619813
 20
-25.460984521
 10
-2.6142202429
 20
-25.4645870383
 10
-2.5767310859
 20
-25.4667480948
 10
-2.5388374403
 20
-25.4674461786
 10
-2.5005794534
 20
-25.4666613732
 10
-2.4619649861
 20
-25.4643734506
 10
-2.4230345485
 20
-25.4605641988
 10
-2.3838266621
 20
-25.4552164309
 10
-2.3443402743
 20
-25.4483060368
 10
-2.3046081388
 20
-25.4398130252
 10
-2.2646692467
 20
-25.429720342
 10
-2.2245254122
 20
-25.4179999994
 10
-2.1841993036
 20
-25.4046270106
 10
-2.143741073
 20
-25.3895877219
 10
-2.1161766318
 20
-25.3784017471
  0
LINE
  5
22C
100
AcDbEntity
  8
RACCORDO
100
AcDbLine
 62
7
  6
CONTINUOUS
 10
-17.7137975401
 20
-17.9905169953
 11
-2.9506606416
 21
-25.3720854446
  0
LINE
  5
22D
100
AcDbEntity
  8
RACCORDO
100
AcDbLine
 62
7
  6
CONTINUOUS
 10
-2.9507479121
 20
-25.3720418002
 11
-2.9506609859
 21
-25.3720852724
  0
LINE
  5
22E
100
AcDbEntity
  8
RACCORDO
100
AcDbLine
 62
253
  6
CONTINUOUS
 10
-18.0982183374
 20
-17.2343151461
 11
-3.3441338891
 21
-24.6113573703
  0
LINE
  5
22F
100
AcDbEntity
  8
RACCORDO
100
AcDbLine
 62
253
  6
CONTINUOUS
 10
-10.1702889644
 20
23.2597630491
 11
-9.6420217926
 21
23.9027152048
  0
LINE
  5
230
100
AcDbEntity
  8
RACCORDO
100
AcDbLine
 62
7
  6
CONTINUOUS
 10
-10.1702889644
 20
23.1702325827
 11
-9.6266612202
 21
23.8318800382
  0
LINE
  5
231
100
AcDbEntity
  8
DRAFT
100
AcDbLine
 62
7
  6
CONTINUOUS
 10
-9.1803394707
 20
18.9116575509
 11
-9.8758384115
 21
18.5256699018
  0
LINE
  5
232
100
AcDbEntity
  8
ASSI
100
AcDbLine
 62
7
  6
CONTINUOUS
 10
-6.0690696335
 20
22.2485515332
 11
-1.5109470053
 21
24.5349769948
  0
LINE
  5
233
100
AcDbEntity
  8
RACCORDO
100
AcDbLine
 62
7
  6
CONTINUOUS
 10
-4.8083189941
 20
21.6181762135
 11
-1.4398035504
 21
23.2957690391
  0
LINE
  5
234
100
AcDbEntity
  8
RACCORDO
100
AcDbLine
 62
7
  6
CONTINUOUS
 10
0.5990240837
 20
23.9582950061
 11
-4.4547656035
 21
21.4413995182
  0
LINE
  5
235
100
AcDbEntity
  8
RACCORDO
100
AcDbLine
 62
253
  6
CONTINUOUS
 10
3.7046187023
 20
-24.070209182
 11
3.1763515305
 21
-23.9617069049
  0
LINE
  5
236
100
AcDbEntity
  8
RACCORDO
100
AcDbLine
 62
253
  6
CONTINUOUS
 10
3.6152049069
 20
-23.750642376
 11
3.1763515305
 21
-23.6605050493
  0
LINE
  5
237
100
AcDbEntity
  8
RACCORDO
100
AcDbLine
 62
7
  6
CONTINUOUS
 10
0.0509257443
 20
-24.9851939172
 11
1.2875220765
 21
-25.6034920833
  0
LINE
  5
238
100
AcDbEntity
  8
RACCORDO
100
AcDbLine
 62
253
  6
CONTINUOUS
 10
-0.0140475521
 20
-24.8499754671
 11
1.2225487801
 21
-25.4682736332
  0
LINE
  5
239
100
AcDbEntity
  8
RACCORDO
100
AcDbLine
 62
253
  6
CONTINUOUS
 10
1.2225487801
 20
-25.1282996991
 11
-0.0140475521
 21
-24.510001533
  0
LINE
  5
23A
100
AcDbEntity
  8
RACCORDO
100
AcDbLine
 62
253
  6
CONTINUOUS
 10
1.3109371277
 20
-24.8966055253
 11
0.2707012582
 21
-24.3764875905
  0
LWPOLYLINE
  5
23B
100
AcDbEntity
  8
RACCORDO
100
AcDbPolyline
 62
7
  6
CONTINUOUS
 90
27
 70
0
 10
-18.2446820077
 20
-17.0566680195
 10
-18.2429236808
 20
-17.0947573415
 10
-18.2390209628
 20
-17.1458032474
 10
-18.2333907368
 20
-17.1959414974
 10
-18.2260428985
 20
-17.2451654705
 10
-18.2169949524
 20
-17.2934187021
 10
-18.2062798099
 20
-17.3405887312
 10
-18.1939184196
 20
-17.3866523656
 10
-18.1799341677
 20
-17.4315763194
 10
-18.1643840582
 20
-17.4752352949
 10
-18.1473030903
 20
-17.517602021
 10
-18.128727668
 20
-17.5586490708
 10
-18.1087437699
 20
-17.5982547142
 10
-18.0874210595
 20
-17.6363652793
 10
-18.0647993853
 20
-17.6729891603
 10
-18.0409396152
 20
-17.708096666
 10
-18.0159252492
 20
-17.7416358471
 10
-17.9898009609
 20
-17.7736172243
 10
-17.9625690266
 20
-17.8040908086
 10
-17.9342931527
 20
-17.8330266722
 10
-17.9050352773
 20
-17.8604042402
 10
-17.8747849944
 20
-17.8862666639
 10
-17.8436060803
 20
-17.9105833125
 10
-17.811560647
 20
-17.9333299016
 10
-17.7786263734
 20
-17.9545400401
 10
-17.7448351538
 20
-17.9742006925
 10
-17.7136682031
 20
-17.9905816363
  0
LWPOLYLINE
  5
23C
100
AcDbEntity
  8
RACCORDO
100
AcDbPolyline
 62
7
  6
CONTINUOUS
 90
22
 70
0
 10
-18.2447005644
 20
18.4689228356
 10
-18.2973963212
 20
16.7623519551
 10
-18.3452043801
 20
15.0452602757
 10
-18.3877022274
 20
13.3306916936
 10
-18.4248890456
 20
11.6186755937
 10
-18.4567643001
 20
9.9092375012
 10
-18.4833275276
 20
8.2024013945
 10
-18.5045782724
 20
6.4981925115
 10
-18.5205162106
 20
4.7966370535
 10
-18.5311410576
 20
3.0977604524
 10
-18.5364525597
 20
1.4015883204
 10
-18.5364506254
 20
-0.2918529369
 10
-18.5311352133
 20
-1.9825366988
 10
-18.5205063323
 20
-3.6704366089
 10
-18.5045641534
 20
-5.3555272764
 10
-18.483308878
 20
-7.0377835294
 10
-18.4567407472
 20
-8.7171794614
 10
-18.424860134
 20
-10.3936902671
 10
-18.3876674182
 20
-12.0672924172
 10
-18.3451630516
 20
-13.7379608942
 10
-18.2973477691
 20
-15.4056671043
 10
-18.2446820793
 20
-17.0566692113
  0
LINE
  5
23D
100
AcDbEntity
  8
DRAFT
100
AcDbLine
 62
7
  6
CONTINUOUS
 10
-17.4178782672
 20
13.7382783041
 11
-17.5976621355
 21
13.648036807
  0
LINE
  5
23E
100
AcDbEntity
  8
DRAFT
100
AcDbLine
 62
7
  6
CONTINUOUS
 10
0.0848540381
 20
23.1468684895
 11
-3.8983057768
 21
21.1631696049
  0
LINE
  5
23F
100
AcDbEntity
  8
RACCORDO
100
AcDbLine
 62
7
  6
CONTINUOUS
 10
1.4190651183
 20
-23.894451087
 11
1.9332551598
 21
-24.1515461078
  0
LINE
  5
240
100
AcDbEntity
  8
RACCORDO
100
AcDbLine
 62
253
  6
CONTINUOUS
 10
3.1763515305
 20
-23.5312156878
 11
3.6152049069
 21
-23.750642376
  0
LINE
  5
241
100
AcDbEntity
  8
RACCORDO
100
AcDbLine
 62
7
  6
CONTINUOUS
 10
3.1763515305
 20
-23.5275955383
 11
3.6386199581
 21
-23.7587297521
  0
LINE
  5
242
100
AcDbEntity
  8
RACCORDO
100
AcDbLine
 62
7
  6
CONTINUOUS
 10
-4.7078532663
 20
-19.2942902921
 11
-17.0115112589
 21
-13.1424612958
  0
LINE
  5
243
100
AcDbEntity
  8
RACCORDO
100
AcDbLine
 62
7
  6
CONTINUOUS
 10
-4.4956256507
 20
-19.1881764843
 11
-16.7992836433
 21
-13.036347488
  0
LINE
  5
244
100
AcDbEntity
  8
RACCORDO
100
AcDbLine
 62
7
  6
CONTINUOUS
 10
-4.7141563686
 20
-19.0376342221
 11
-17.0178143612
 21
-12.8858052258
  0
LWPOLYLINE
  5
245
100
AcDbEntity
  8
RACCORDO
100
AcDbPolyline
 62
7
  6
CONTINUOUS
 90
4
 70
0
 10
-16.0487885794
 20
-10.8671057153
 10
-15.9972770083
 20
-10.9177924601
 10
-15.9385900353
 20
-10.9568829122
 10
-15.9304972355
 20
-10.9610696424
  0
LWPOLYLINE
  5
246
100
AcDbEntity
  8
RACCORDO
100
AcDbPolyline
 62
7
  6
CONTINUOUS
 90
5
 70
0
 10
-16.1439333131
 20
-10.6067955359
 10
-16.1378865463
 20
-10.6777811371
 10
-16.1181667074
 20
-10.7488861809
 10
-16.0882336708
 20
-10.8113499348
 10
-16.0487885794
 20
-10.8671057153
  0
LINE
  5
247
100
AcDbEntity
  8
DRAFT
100
AcDbLine
 62
7
  6
CONTINUOUS
 10
-4.9376987836
 20
16.7903372073
 11
-5.6211636892
 21
16.3983325406
  0
LINE
  5
248
100
AcDbEntity
  8
RACCORDO
100
AcDbLine
 62
7
  6
CONTINUOUS
 10
-1.5477119926
 20
18.9276602005
 11
-1.1900328433
 21
19.1069647453
  0
LINE
  5
249
100
AcDbEntity
  8
ASSI
100
AcDbLine
 62
7
  6
CONTINUOUS
 10
-1.1900328433
 20
19.1069647453
 11
4.0844592258
 21
21.7372738792
  0
LINE
  5
24A
100
AcDbEntity
  8
ASSI
100
AcDbLine
 62
7
  6
CONTINUOUS
 10
-1.1193221652
 20
19.773677799
 11
3.5190571193
 21
22.0199749325
  0
LINE
  5
24B
100
AcDbEntity
  8
RACCORDO
100
AcDbLine
 62
7
  6
CONTINUOUS
 10
4.9528473638
 20
21.7813833661
 11
4.2702450994
 21
21.4532203394
  0
LWPOLYLINE
  5
24C
100
AcDbEntity
  8
RACCORDO
100
AcDbPolyline
 62
7
  6
CONTINUOUS
 90
6
 70
0
 10
-6.2314137209
 20
-15.8105583747
 10
-6.1684620686
 20
-15.8341261006
 10
-6.1017458446
 20
-15.8449386074
 10
-6.0363291612
 20
-15.8423400421
 10
-5.9741242112
 20
-15.8273092775
 10
-5.9531515992
 20
-15.819178167
  0
LINE
  5
24D
100
AcDbEntity
  8
RACCORDO
100
AcDbLine
 62
7
  6
CONTINUOUS
 10
-4.8782135789
 20
-17.7708995368
 11
-16.9092161212
 21
-11.7553982656
  0
LINE
  5
24E
100
AcDbEntity
  8
RACCORDO
100
AcDbLine
 62
253
  6
CONTINUOUS
 10
-6.3123247785
 20
-15.6468782876
 11
-16.0081521376
 21
-10.798964608
  0
LINE
  5
24F
100
AcDbEntity
  8
RACCORDO
100
AcDbLine
 62
253
  6
CONTINUOUS
 10
-16.0081521376
 20
-10.6818415078
 11
-6.3123247785
 21
-15.5297551873
  0
LINE
  5
250
100
AcDbEntity
  8
DRAFT
100
AcDbLine
 62
7
  6
CONTINUOUS
 10
3.5352399959
 20
-20.3215589562
 11
3.5475825907
 21
-20.3277302536
  0
LINE
  5
251
100
AcDbEntity
  8
RACCORDO
100
AcDbLine
 62
7
  6
CONTINUOUS
 10
-6.2343568227
 20
-15.8091404277
 11
-15.9304972233
 21
-10.9610696178
  0
LINE
  5
252
100
AcDbEntity
  8
RACCORDO
100
AcDbLine
 62
7
  6
CONTINUOUS
 10
-15.6150111795
 20
0.2244331102
 11
-15.6150111795
 21
-10.1089769312
  0
LINE
  5
253
100
AcDbEntity
  8
DRAFT
100
AcDbLine
 62
7
  6
CONTINUOUS
 10
-15.5449175841
 20
0.2318863864
 11
-15.5449175841
 21
-10.069212577
  0
LINE
  5
254
100
AcDbEntity
  8
DRAFT
100
AcDbLine
 62
7
  6
CONTINUOUS
 10
-14.5611389179
 20
20.7743147001
 11
-14.5611389179
 21
20.7055888783
  0
LINE
  5
255
100
AcDbEntity
  8
RACCORDO
100
AcDbLine
 62
7
  6
CONTINUOUS
 10
-1.1900328433
 20
17.8512279098
 11
-1.5477119926
 21
17.651631958
  0
LINE
  5
256
100
AcDbEntity
  8
RACCORDO
100
AcDbLine
 62
7
  6
CONTINUOUS
 10
1.6317867327
 20
18.2525983779
 11
0.0486150377
 21
17.4404013306
  0
LINE
  5
257
100
AcDbEntity
  8
RACCORDO
100
AcDbLine
 62
253
  6
CONTINUOUS
 10
1.744457307
 20
18.2459374528
 11
0.1617007039
 21
17.4339533555
  0
LINE
  5
258
100
AcDbEntity
  8
RACCORDO
100
AcDbLine
 62
253
  6
CONTINUOUS
 10
-17.6656137725
 20
8.746807967
 11
-17.4534392735
 21
8.8528952165
  0
LINE
  5
259
100
AcDbEntity
  8
RACCORDO
100
AcDbLine
 62
7
  6
CONTINUOUS
 10
-17.3179591584
 20
8.9139668435
 11
-17.1057813105
 21
9.0200557674
  0
LINE
  5
25A
100
AcDbEntity
  8
RACCORDO
100
AcDbLine
 62
253
  6
CONTINUOUS
 10
-17.0926789787
 20
8.9006026408
 11
-16.8805001256
 21
9.0066920674
  0
LINE
  5
25B
100
AcDbEntity
  8
RACCORDO
100
AcDbLine
 62
7
  6
CONTINUOUS
 10
1.6335251182
 20
18.2534676107
 11
1.6317887064
 21
18.2525993905
  0
LINE
  5
25C
100
AcDbEntity
  8
RACCORDO
100
AcDbLine
 62
7
  6
CONTINUOUS
 10
-1.1900328433
 20
17.8512279098
 11
4.1549954039
 21
20.4975575018
  0
LINE
  5
25D
100
AcDbEntity
  8
RACCORDO
100
AcDbLine
 62
7
  6
CONTINUOUS
 10
2.1683950746
 20
18.5140197104
 11
1.6335278838
 21
18.2534689579
  0
LINE
  5
25E
100
AcDbEntity
  8
RACCORDO
100
AcDbLine
 62
253
  6
CONTINUOUS
 10
2.2789071857
 20
18.5062849194
 11
1.744457307
 21
18.2459374528
  0
LINE
  5
25F
100
AcDbEntity
  8
RACCORDO
100
AcDbLine
 62
7
  6
CONTINUOUS
 10
8.0781953158
 20
20.2187093901
 11
3.3820471446
 21
18.0166923108
  0
LINE
  5
260
100
AcDbEntity
  8
DRAFT
100
AcDbLine
 62
7
  6
CONTINUOUS
 10
-5.4574986346
 20
-15.6057125726
 11
-5.0601530125
 21
-15.8043853837
  0
LINE
  5
261
100
AcDbEntity
  8
RACCORDO
100
AcDbLine
 62
253
  6
CONTINUOUS
 10
-15.8145086283
 20
-10.3262007784
 11
-6.1186793226
 21
-15.1741154312
  0
LINE
  5
262
100
AcDbEntity
  8
DRAFT
100
AcDbLine
 62
7
  6
CONTINUOUS
 10
4.2546893718
 20
-20.1365468086
 11
4.0818551749
 21
-20.0501297101
  0
LINE
  5
263
100
AcDbEntity
  8
DRAFT
100
AcDbLine
 62
7
  6
CONTINUOUS
 10
-5.0717034692
 20
-15.4395585659
 11
-5.0667010068
 21
-15.4420597971
  0
LINE
  5
264
100
AcDbEntity
  8
RACCORDO
100
AcDbLine
 62
7
  6
CONTINUOUS
 10
-14.6595523651
 20
-9.7088980361
 11
-5.1153401387
 21
-14.4810041493
  0
LINE
  5
265
100
AcDbEntity
  8
RACCORDO
100
AcDbLine
 62
7
  6
CONTINUOUS
 10
-13.4339113517
 20
23.8912851356
 11
-13.4339113517
 21
23.5513112015
  0
LINE
  5
266
100
AcDbEntity
  8
RACCORDO
100
AcDbLine
 62
253
  6
CONTINUOUS
 10
-13.360688047
 20
23.802896788
 11
-13.360688047
 21
23.4629228538
  0
LINE
  5
267
100
AcDbEntity
  8
RACCORDO
100
AcDbLine
 62
7
  6
CONTINUOUS
 10
-12.7309183974
 20
22.5480517251
 11
-12.7309183974
 21
23.0453062272
  0
LINE
  5
268
100
AcDbEntity
  8
RACCORDO
100
AcDbLine
 62
253
  6
CONTINUOUS
 10
-12.6576950927
 20
22.4563191605
 11
-12.6576950927
 21
23.0086945748
  0
LINE
  5
269
100
AcDbEntity
  8
DRAFT
100
AcDbLine
 62
7
  6
CONTINUOUS
 10
-2.9762099621
 20
12.9810919774
 11
-1.112534255
 21
14.0500123687
  0
LINE
  5
26A
100
AcDbEntity
  8
RACCORDO
100
AcDbLine
 62
253
  6
CONTINUOUS
 10
-1.3314541995
 20
14.2534777958
 11
-3.2043185127
 21
13.1968336728
  0
LINE
  5
26B
100
AcDbEntity
  8
RACCORDO
100
AcDbLine
 62
7
  6
CONTINUOUS
 10
8.8457574698
 20
19.6867701609
 11
3.2425948592
 21
16.5775368625
  0
LINE
  5
26C
100
AcDbEntity
  8
RACCORDO
100
AcDbLine
 62
7
  6
CONTINUOUS
 10
8.8457574698
 20
19.0878091643
 11
3.4455106138
 21
16.2330052733
  0
LINE
  5
26D
100
AcDbEntity
  8
RACCORDO
100
AcDbLine
 62
253
  6
CONTINUOUS
 10
2.9995778269
 20
17.6183771929
 11
1.398297036
 21
16.8156551894
  0
LINE
  5
26E
100
AcDbEntity
  8
RACCORDO
100
AcDbLine
 62
253
  6
CONTINUOUS
 10
3.1763515305
 20
17.3134876541
 11
1.5750707397
 21
16.5107656506
  0
LINE
  5
26F
100
AcDbEntity
  8
RACCORDO
100
AcDbLine
 62
253
  6
CONTINUOUS
 10
3.5278449986
 20
17.8818160129
 11
2.9995778269
 21
17.6183771929
  0
LINE
  5
270
100
AcDbEntity
  8
RACCORDO
100
AcDbLine
 62
253
  6
CONTINUOUS
 10
3.7046187023
 20
17.5769264741
 11
3.1763515305
 21
17.3134876541
  0
LINE
  5
271
100
AcDbEntity
  8
RACCORDO
100
AcDbLine
 62
253
  6
CONTINUOUS
 10
3.9010282711
 20
16.0052464446
 11
3.1815788951
 21
15.6654220406
  0
LINE
  5
272
100
AcDbEntity
  8
RACCORDO
100
AcDbLine
 62
253
  6
CONTINUOUS
 10
-12.1240917148
 20
22.8446246877
 11
-12.1240917148
 21
23.1845986219
  0
LINE
  5
273
100
AcDbEntity
  8
RACCORDO
100
AcDbLine
 62
253
  6
CONTINUOUS
 10
-11.7715697552
 20
22.8441119639
 11
-11.7715697552
 21
23.184085898
  0
LINE
  5
274
100
AcDbEntity
  8
RACCORDO
100
AcDbLine
 62
253
  6
CONTINUOUS
 10
-11.4128711067
 20
22.5660290606
 11
-11.4128711067
 21
21.8339071675
  0
LINE
  5
275
100
AcDbEntity
  8
RACCORDO
100
AcDbLine
 62
253
  6
CONTINUOUS
 10
-11.0603491471
 20
22.695608441
 11
-11.0603491471
 21
21.8446750491
  0
LINE
  5
276
100
AcDbEntity
  8
RACCORDO
100
AcDbLine
 62
7
  6
CONTINUOUS
 10
-16.1196817429
 20
-10.7434233236
 11
-16.2209452891
 21
-11.0172445686
  0
LWPOLYLINE
  5
277
100
AcDbEntity
  8
RACCORDO
100
AcDbPolyline
 62
7
  6
CONTINUOUS
 90
22
 70
0
 10
8.3863492637
 20
18.3902451354
 10
8.3924010201
 20
18.3940522875
 10
8.4032312021
 20
18.4014837057
 10
8.4137045316
 20
18.409494682
 10
8.4237895969
 20
18.4180681766
 10
8.43345486
 20
18.4271831443
 10
8.442697416
 20
18.4368442819
 10
8.4514882908
 20
18.4470323816
 10
8.4597977398
 20
18.4577238217
 10
8.4676184749
 20
18.4689237823
 10
8.4749236165
 20
18.4806110779
 10
8.4816873901
 20
18.4927611157
 10
8.4879015405
 20
18.5053819202
 10
8.4935434773
 20
18.5184595744
 10
8.4985868824
 20
18.5319644283
 10
8.5030163221
 20
18.5458908694
 10
8.5068109995
 20
18.5602218141
 10
8.5099499757
 20
18.5749354245
 10
8.5124176656
 20
18.5900304183
 10
8.5141944253
 20
18.6055003818
 10
8.5152582402
 20
18.6213239419
 10
8.5155904897
 20
18.6365467593
  0
LINE
  5
278
100
AcDbEntity
  8
RACCORDO
100
AcDbLine
 62
7
  6
CONTINUOUS
 10
4.1263225361
 20
15.7931845717
 11
8.3863528054
 21
18.39024689
  0
LINE
  5
279
100
AcDbEntity
  8
RACCORDO
100
AcDbLine
 62
7
  6
CONTINUOUS
 10
3.1763515305
 20
15.6680357229
 11
2.6919749902
 21
15.3977387352
  0
LINE
  5
27A
100
AcDbEntity
  8
RACCORDO
100
AcDbLine
 62
253
  6
CONTINUOUS
 10
3.1819557299
 20
15.6652336232
 11
2.6919749902
 21
15.3977387352
  0
LINE
  5
27B
100
AcDbEntity
  8
RACCORDO
100
AcDbLine
 62
253
  6
CONTINUOUS
 10
-2.328191062
 20
12.6570825274
 11
2.2383743748
 21
15.1501048263
  0
LINE
  5
27C
100
AcDbEntity
  8
RACCORDO
100
AcDbLine
 62
253
  6
CONTINUOUS
 10
3.5368129489
 20
15.0562393179
 11
-1.962358322
 21
12.0540800817
  0
LINE
  5
27D
100
AcDbEntity
  8
RACCORDO
100
AcDbLine
 62
7
  6
CONTINUOUS
 10
4.6082427624
 20
15.9794786883
 11
4.1521175887
 21
15.7514161015
  0
LINE
  5
27E
100
AcDbEntity
  8
RACCORDO
100
AcDbLine
 62
7
  6
CONTINUOUS
 10
5.5981922561
 20
16.2524092592
 11
4.2295787717
 21
15.5681025171
  0
LINE
  5
27F
100
AcDbEntity
  8
RACCORDO
100
AcDbLine
 62
7
  6
CONTINUOUS
 10
6.6588524279
 20
15.7220791734
 11
4.2546893718
 21
14.5199976453
  0
LINE
  5
280
100
AcDbEntity
  8
0
100
AcDbLine
 62
7
  6
CONTINUOUS
 10
7.3659592091
 20
15.16630589
 11
4.2546893718
 21
13.6106709714
  0
LINE
  5
281
100
AcDbEntity
  8
RACCORDO
100
AcDbLine
 62
253
  6
CONTINUOUS
 10
4.2546893718
 20
15.395320754
 11
3.5368129489
 21
15.0562393179
  0
LINE
  5
282
100
AcDbEntity
  8
RACCORDO
100
AcDbLine
 62
7
  6
CONTINUOUS
 10
8.5155908057
 20
-16.7621426165
 11
8.8396409603
 21
-16.9241676938
  0
LINE
  5
283
100
AcDbEntity
  8
RACCORDO
100
AcDbLine
 62
253
  6
CONTINUOUS
 10
6.2111392151
 20
-15.1696584946
 11
7.4149021546
 21
-15.7715399644
  0
LINE
  5
284
100
AcDbEntity
  8
RACCORDO
100
AcDbLine
 62
7
  6
CONTINUOUS
 10
6.2111392151
 20
-15.0467230105
 11
7.5528510917
 21
-15.7175789489
  0
LINE
  5
285
100
AcDbEntity
  8
RACCORDO
100
AcDbLine
 62
7
  6
CONTINUOUS
 10
-10.1702889644
 20
22.3413559704
 11
-10.1702889644
 21
23.9868079015
  0
LINE
  5
286
100
AcDbEntity
  8
RACCORDO
100
AcDbLine
 62
253
  6
CONTINUOUS
 10
-9.6420217926
 20
24.2502467216
 11
-9.6420217926
 21
23.9027152048
  0
LINE
  5
287
100
AcDbEntity
  8
RACCORDO
100
AcDbLine
 62
7
  6
CONTINUOUS
 10
-9.5698239356
 20
24.3381193537
 11
-9.5698239356
 21
23.990587837
  0
LINE
  5
288
100
AcDbEntity
  8
DRAFT
100
AcDbLine
 62
7
  6
CONTINUOUS
 10
-9.1803394707
 20
18.9116575509
 11
-9.1803394707
 21
18.1793381029
  0
LINE
  5
289
100
AcDbEntity
  8
0
100
AcDbLine
 62
7
  6
CONTINUOUS
 10
4.2546893718
 20
13.2571175808
 11
6.6588524279
 21
14.4591991088
  0
LINE
  5
28A
100
AcDbEntity
  8
0
100
AcDbLine
 62
7
  6
CONTINUOUS
 10
7.4720252262
 20
14.0526127096
 11
8.532685398
 21
14.5829427955
  0
LINE
  5
28B
100
AcDbEntity
  8
0
100
AcDbLine
 62
7
  6
CONTINUOUS
 10
4.4112968538
 20
11.7765755949
 11
6.6588524279
 21
12.900353382
  0
LINE
  5
28C
100
AcDbEntity
  8
RACCORDO
100
AcDbLine
 62
7
  6
CONTINUOUS
 10
-4.1822170586
 20
7.049326555
 11
-4.0915182979
 21
7.0946759353
  0
LINE
  5
28D
100
AcDbEntity
  8
RACCORDO
100
AcDbLine
 62
7
  6
CONTINUOUS
 10
-7.9105096209
 20
21.8527041565
 11
-7.9105096209
 21
20.5692138537
  0
LINE
  5
28E
100
AcDbEntity
  8
RACCORDO
100
AcDbLine
 62
253
  6
CONTINUOUS
 10
-7.7640630115
 20
21.5096343255
 11
-7.7640630115
 21
20.3857497446
  0
LINE
  5
28F
100
AcDbEntity
  8
RACCORDO
100
AcDbLine
 62
253
  6
CONTINUOUS
 10
3.1763515305
 20
16.5864428016
 11
3.7046187023
 21
17.2293949574
  0
LINE
  5
290
100
AcDbEntity
  8
RACCORDO
100
AcDbLine
 62
7
  6
CONTINUOUS
 10
3.1763515305
 20
16.4969123353
 11
3.7199792747
 21
17.1585597908
  0
LINE
  5
291
100
AcDbEntity
  8
DRAFT
100
AcDbLine
 62
7
  6
CONTINUOUS
 10
3.5352399959
 20
9.6429200147
 11
4.2546893718
 21
10.0660695131
  0
LINE
  5
292
100
AcDbEntity
  8
0
100
AcDbLine
 62
7
  6
CONTINUOUS
 10
8.532685398
 20
13.0240970687
 11
7.4720252262
 21
12.4937669828
  0
LINE
  5
293
100
AcDbEntity
  8
DRAFT
100
AcDbLine
 62
7
  6
CONTINUOUS
 10
6.2111392151
 20
10.8766544143
 11
3.5475825907
 21
9.5501461769
  0
LINE
  5
294
100
AcDbEntity
  8
RACCORDO
100
AcDbLine
 62
7
  6
CONTINUOUS
 10
-16.0661944567
 20
0.4234960269
 11
-16.0663557453
 21
0.4234184444
  0
LINE
  5
295
100
AcDbEntity
  8
RACCORDO
100
AcDbLine
 62
253
  6
CONTINUOUS
 10
-16.3313698529
 20
-0.1199668955
 11
-15.6150111795
 21
0.2244331102
  0
LWPOLYLINE
  5
296
100
AcDbEntity
  8
RACCORDO
100
AcDbPolyline
 62
7
  6
CONTINUOUS
 90
22
 70
0
 10
-16.0663548144
 20
0.4234185139
 10
-16.0648686511
 20
0.424115016
 10
-16.0607889238
 20
0.4258046656
 10
-16.0562259461
 20
0.427354374
 10
-16.0511565634
 20
0.4287280775
 10
-16.0454459533
 20
0.4299160978
 10
-16.0388384492
 20
0.4309018913
 10
-16.0312421341
 20
0.4316113741
 10
-16.0226843069
 20
0.4319570423
 10
-16.0131064651
 20
0.4318611793
 10
-16.0024896246
 20
0.431243114
 10
-15.9908861378
 20
0.4300297019
 10
-15.9783589692
 20
0.4281607359
 10
-15.9649412652
 20
0.4255816077
 10
-15.9506928564
 20
0.4222484286
 10
-15.9357161735
 20
0.4181377315
 10
-15.9200679543
 20
0.4132257138
 10
-15.9038018562
 20
0.4074933692
 10
-15.8870031135
 20
0.40093956
 10
-15.8697336162
 20
0.3935631056
 10
-15.8520417206
 20
0.3853625179
 10
-15.842779062
 20
0.3808169865
  0
LINE
  5
297
100
AcDbEntity
  8
RACCORDO
100
AcDbLine
 62
7
  6
CONTINUOUS
 10
-5.9308497687
 20
-4.5751475213
 11
-15.8427579886
 21
0.3808065887
  0
LINE
  5
298
100
AcDbEntity
  8
RACCORDO
100
AcDbLine
 62
253
  6
CONTINUOUS
 10
-6.0607942929
 20
-4.3032283102
 11
-15.9727025127
 21
0.6527257998
  0
LWPOLYLINE
  5
299
100
AcDbEntity
  8
RACCORDO
100
AcDbPolyline
 62
7
  6
CONTINUOUS
 90
49
 70
0
 10
-5.930842442
 20
-4.575151341
 10
-5.9187828585
 20
-4.58132432
 10
-5.8981066121
 20
-4.5925618831
 10
-5.8768104446
 20
-4.6049811146
 10
-5.8549391305
 20
-4.618610653
 10
-5.8325579997
 20
-4.6334621449
 10
-5.8097502628
 20
-4.6495288509
 10
-5.7865714455
 20
-4.6668173883
 10
-5.7630765674
 20
-4.6853308697
 10
-5.739343925
 20
-4.7050489924
 10
-5.7154320001
 20
-4.7259621497
 10
-5.6913944443
 20
-4.7480610776
 10
-5.6672975055
 20
-4.7713203592
 10
-5.643196796
 20
-4.7957202126
 10
-5.619146048
 20
-4.821239175
 10
-5.5952045876
 20
-4.8478453961
 10
-5.5714223101
 20
-4.8755135344
 10
-5.5478549824
 20
-4.904208034
 10
-5.5245667803
 20
-4.933877377
 10
-5.5016051498
 20
-4.9644859063
 10
-5.4790218926
 20
-4.9959885713
 10
-5.4568829434
 20
-5.0283140431
 10
-5.4352338711
 20
-5.0614133634
 10
-5.4141183892
 20
-5.095236306
 10
-5.3935940321
 20
-5.1297041104
 10
-5.3737001099
 20
-5.1647607261
 10
-5.3544741219
 20
-5.2003487573
 10
-5.3359648129
 20
-5.2363830474
 10
-5.318204172
 20
-5.2728022902
 10
-5.3012221796
 20
-5.3095441685
 10
-5.2850580161
 20
-5.3465187095
 10
-5.2697356858
 20
-5.3836605216
 10
-5.2552762179
 20
-5.4209054175
 10
-5.2417074985
 20
-5.4581629709
 10
-5.229044621
 20
-5.4953661774
 10
-5.2172992884
 20
-5.5324506961
 10
-5.2064875267
 20
-5.569328684
 10
-5.1966143652
 20
-5.6059361944
 10
-5.1876826507
 20
-5.6422082054
 10
-5.1796980731
 20
-5.6780545199
 10
-5.1726555372
 20
-5.7134142855
 10
-5.1665476823
 20
-5.7482249335
 10
-5.1613688268
 20
-5.7823934674
 10
-5.1571031118
 20
-5.8158636318
 10
-5.1537317932
 20
-5.8485808492
 10
-5.1512359747
 20
-5.88045585
 10
-5.1495892755
 20
-5.9114250383
 10
-5.1487603608
 20
-5.941450789
 10
-5.1486412559
 20
-5.9580624413
  0
LWPOLYLINE
  5
29A
100
AcDbEntity
  8
RACCORDO
100
AcDbPolyline
 62
7
  6
CONTINUOUS
 90
10
 70
0
 10
-5.1486411619
 20
-5.9580683316
 10
-5.1475219782
 20
-7.2476343403
 10
-5.1432338628
 20
-8.5483929879
 10
-5.1357723498
 20
-9.8475209537
 10
-5.1251374643
 20
-11.1450044777
 10
-5.1113292819
 20
-12.4408315713
 10
-5.0943479105
 20
-13.7349915599
 10
-5.0741934627
 20
-15.0274735339
 10
-5.0508660975
 20
-16.3182659384
 10
-5.0291813015
 20
-17.3842873582
  0
LINE
  5
29B
100
AcDbEntity
  8
RACCORDO
100
AcDbLine
 62
253
  6
CONTINUOUS
 10
-4.789020986
 20
2.7487736445
 11
-4.576842133
 21
2.854863071
  0
LINE
  5
29C
100
AcDbEntity
  8
RACCORDO
100
AcDbLine
 62
7
  6
CONTINUOUS
 10
6.2111392151
 20
7.7331709237
 11
7.8800306242
 21
8.5676166282
  0
LINE
  5
29D
100
AcDbEntity
  8
Z030100_COP
100
AcDbLine
 62
7
  6
CONTINUOUS
 10
11.2269484441
 20
-11.752587837
 11
11.0954270978
 21
-11.6868271638
  0
LINE
  5
29E
100
AcDbEntity
  8
Z030100_COP
100
AcDbLine
 62
253
  6
CONTINUOUS
 10
11.1489804884
 20
-11.5903256968
 11
11.0954270978
 21
-11.5635490015
  0
LINE
  5
29F
100
AcDbEntity
  8
Z030100_COP
100
AcDbLine
 62
7
  6
CONTINUOUS
 10
6.8546589409
 20
-8.9155226603
 11
6.8655058106
 21
-8.9209460952
  0
LINE
  5
2A0
100
AcDbEntity
  8
Z030100_COP
100
AcDbLine
 62
253
  6
CONTINUOUS
 10
7.5898242436
 20
-8.8113648601
 11
7.1204694756
 21
-8.5766874761
  0
LINE
  5
2A1
100
AcDbEntity
  8
Z030100_COP
100
AcDbLine
 62
7
  6
CONTINUOUS
 10
6.7118854365
 20
-8.0454299711
 11
6.589927557
 21
-7.9844510313
  0
LINE
  5
2A2
100
AcDbEntity
  8
RACCORDO
100
AcDbLine
 62
253
  6
CONTINUOUS
 10
-2.2527559119
 20
17.6300961947
 11
-2.2527559119
 21
18.7539807757
  0
LINE
  5
2A3
100
AcDbEntity
  8
DRAFT
100
AcDbLine
 62
7
  6
CONTINUOUS
 10
6.2111392151
 20
6.7748456194
 11
3.5475825907
 21
5.3046975238
  0
LINE
  5
2A4
100
AcDbEntity
  8
RACCORDO
100
AcDbLine
 62
253
  6
CONTINUOUS
 10
-4.4427169643
 20
2.1353595629
 11
-4.2492466134
 21
2.2320947384
  0
LINE
  5
2A5
100
AcDbEntity
  8
0
100
AcDbLine
 62
7
  6
CONTINUOUS
 10
14.5430930381
 20
11.5777389755
 11
13.4824328663
 21
11.0474088896
  0
LINE
  5
2A6
100
AcDbEntity
  8
RACCORDO
100
AcDbLine
 62
7
  6
CONTINUOUS
 10
15.0027124459
 20
11.5501491644
 11
11.4671785399
 21
9.7823822114
  0
LINE
  5
2A7
100
AcDbEntity
  8
RACCORDO
100
AcDbLine
 62
7
  6
CONTINUOUS
 10
6.5073935827
 20
6.8420676229
 11
4.6537505743
 21
5.9152461188
  0
LINE
  5
2A8
100
AcDbEntity
  8
0
100
AcDbLine
 62
7
  6
CONTINUOUS
 10
10.9131253804
 20
8.9495823482
 11
10.5479397244
 21
8.7669895202
  0
LINE
  5
2A9
100
AcDbEntity
  8
RACCORDO
100
AcDbLine
 62
7
  6
CONTINUOUS
 10
16.0633726177
 20
11.0198190785
 11
12.5278387117
 21
9.2520521255
  0
LINE
  5
2AA
100
AcDbEntity
  8
0
100
AcDbLine
 62
7
  6
CONTINUOUS
 10
6.1538401921
 20
5.2939367397
 11
5.2704179698
 21
4.8522256286
  0
LINE
  5
2AB
100
AcDbEntity
  8
0
100
AcDbLine
 62
7
  6
CONTINUOUS
 10
16.7704793988
 20
10.4640457951
 11
11.9621532868
 21
8.0598827391
  0
LINE
  5
2AC
100
AcDbEntity
  8
DRAFT
100
AcDbLine
 62
7
  6
CONTINUOUS
 10
4.2546893718
 20
5.3600899275
 11
3.5352399959
 21
5.0250724711
  0
LINE
  5
2AD
100
AcDbEntity
  8
Z030100_COP
100
AcDbLine
 62
7
  6
CONTINUOUS
 10
7.7725456082
 20
-7.5150998852
 11
7.6505877288
 21
-7.4541209455
  0
LINE
  5
2AE
100
AcDbEntity
  8
Z030100_COP
100
AcDbLine
 62
7
  6
CONTINUOUS
 10
9.5770200484
 20
-7.5543421065
 11
9.587866918
 21
-7.5597655413
  0
LINE
  5
2AF
100
AcDbEntity
  8
Z030100_COP
100
AcDbLine
 62
253
  6
CONTINUOUS
 10
10.3121853512
 20
-7.4501843063
 11
9.8428305832
 21
-7.2155069223
  0
LINE
  5
2B0
100
AcDbEntity
  8
RACCORDO
100
AcDbLine
 62
253
  6
CONTINUOUS
 10
-1.5477119926
 20
17.651631958
 11
-1.5477119926
 21
18.9276602005
  0
LINE
  5
2B1
100
AcDbEntity
  8
ASSI
100
AcDbLine
 62
253
  6
CONTINUOUS
 10
-1.4398035504
 20
23.2957690391
 11
-1.4398035504
 21
24.5616368349
  0
LINE
  5
2B2
100
AcDbEntity
  8
RACCORDO
100
AcDbLine
 62
7
  6
CONTINUOUS
 10
-1.3253687189
 20
23.4335247579
 11
-1.3253687189
 21
24.5561157298
  0
LINE
  5
2B3
100
AcDbEntity
  8
DRAFT
100
AcDbLine
 62
7
  6
CONTINUOUS
 10
-1.1900328433
 20
19.1069647453
 11
-1.1900328433
 21
17.8512279098
  0
LINE
  5
2B4
100
AcDbEntity
  8
RACCORDO
100
AcDbLine
 62
7
  6
CONTINUOUS
 10
-0.0872708568
 20
17.2179648882
 11
-0.0872708568
 21
16.877990954
  0
LINE
  5
2B5
100
AcDbEntity
  8
RACCORDO
100
AcDbLine
 62
7
  6
CONTINUOUS
 10
-0.0872708568
 20
-24.5267497441
 11
-0.0872708568
 21
-24.7615871195
  0
LINE
  5
2B6
100
AcDbEntity
  8
RACCORDO
100
AcDbLine
 62
253
  6
CONTINUOUS
 10
-0.0140475521
 20
17.1295765405
 11
-0.0140475521
 21
16.7896026064
  0
LINE
  5
2B7
100
AcDbEntity
  8
RACCORDO
100
AcDbLine
 62
253
  6
CONTINUOUS
 10
-0.0140475521
 20
-24.510001533
 11
-0.0140475521
 21
-24.8499754671
  0
LINE
  5
2B8
100
AcDbEntity
  8
RACCORDO
100
AcDbLine
 62
7
  6
CONTINUOUS
 10
4.2546893718
 20
5.4864976587
 11
4.992625633
 21
6.0846836481
  0
LINE
  5
2B9
100
AcDbEntity
  8
0
100
AcDbLine
 62
7
  6
CONTINUOUS
 10
12.3157066774
 20
7.8831060438
 11
16.0633726177
 21
9.7569390139
  0
LINE
  5
2BA
100
AcDbEntity
  8
0
100
AcDbLine
 62
7
  6
CONTINUOUS
 10
8.3559087027
 20
5.6878642139
 11
6.8609469733
 21
4.9403833491
  0
LINE
  5
2BB
100
AcDbEntity
  8
RACCORDO
100
AcDbLine
 62
7
  6
CONTINUOUS
 10
16.841190077
 20
9.3680302842
 11
17.3361648238
 21
9.6155176577
  0
LINE
  5
2BC
100
AcDbEntity
  8
0
100
AcDbLine
 62
7
  6
CONTINUOUS
 10
12.3157066774
 20
6.3242603169
 11
16.0633726177
 21
8.1980932871
  0
LINE
  5
2BD
100
AcDbEntity
  8
DRAFT
100
AcDbLine
 62
7
  6
CONTINUOUS
 10
6.2111392151
 20
4.3818650059
 11
3.5475825907
 21
3.1415581889
  0
LINE
  5
2BE
100
AcDbEntity
  8
Z030100_COP
100
AcDbLine
 62
7
  6
CONTINUOUS
 10
9.434246544
 20
-6.6842494173
 11
9.3122886646
 21
-6.6232704776
  0
LINE
  5
2BF
100
AcDbEntity
  8
Z030100_COP
100
AcDbLine
 62
7
  6
CONTINUOUS
 10
10.4949067158
 20
-6.1539193314
 11
10.3729488364
 21
-6.0929403917
  0
LINE
  5
2C0
100
AcDbEntity
  8
RACCORDO
100
AcDbLine
 62
7
  6
CONTINUOUS
 10
0.6157220975
 20
15.8747125166
 11
0.6157220975
 21
16.3719859797
  0
LINE
  5
2C1
100
AcDbEntity
  8
RACCORDO
100
AcDbLine
 62
253
  6
CONTINUOUS
 10
0.6889454022
 20
15.782998913
 11
0.6889454022
 21
16.3353743274
  0
LINE
  5
2C2
100
AcDbEntity
  8
RACCORDO
100
AcDbLine
 62
253
  6
CONTINUOUS
 10
1.2225487801
 20
-25.4682736332
 11
1.2225487801
 21
-25.1282996991
  0
LINE
  5
2C3
100
AcDbEntity
  8
RACCORDO
100
AcDbLine
 62
253
  6
CONTINUOUS
 10
1.2225487801
 20
16.1713044403
 11
1.2225487801
 21
16.5112783744
  0
LINE
  5
2C4
100
AcDbEntity
  8
RACCORDO
100
AcDbLine
 62
7
  6
CONTINUOUS
 10
1.293843295
 20
23.2183301386
 11
1.293843295
 21
23.4458291611
  0
LINE
  5
2C5
100
AcDbEntity
  8
RACCORDO
100
AcDbLine
 62
253
  6
CONTINUOUS
 10
1.5750707397
 20
-25.4687863571
 11
1.5750707397
 21
-25.1288124229
  0
LINE
  5
2C6
100
AcDbEntity
  8
RACCORDO
100
AcDbLine
 62
253
  6
CONTINUOUS
 10
1.5750707397
 20
16.1707917164
 11
1.5750707397
 21
16.5107656506
  0
LINE
  5
2C7
100
AcDbEntity
  8
RACCORDO
100
AcDbLine
 62
253
  6
CONTINUOUS
 10
1.9337693881
 20
15.8927088131
 11
1.9337693881
 21
15.16058692
  0
LINE
  5
2C8
100
AcDbEntity
  8
RACCORDO
100
AcDbLine
 62
253
  6
CONTINUOUS
 10
1.9337693881
 20
-23.6783991411
 11
1.9337693881
 21
-24.1518032219
  0
LINE
  5
2C9
100
AcDbEntity
  8
RACCORDO
100
AcDbLine
 62
253
  6
CONTINUOUS
 10
2.2862913478
 20
16.0222881936
 11
2.2862913478
 21
15.1713165998
  0
LINE
  5
2CA
100
AcDbEntity
  8
RACCORDO
100
AcDbLine
 62
253
  6
CONTINUOUS
 10
2.2862913478
 20
-23.5304247414
 11
2.2862913478
 21
-24.2773159458
  0
LWPOLYLINE
  5
2CB
100
AcDbEntity
  8
RACCORDO
100
AcDbPolyline
 62
7
  6
CONTINUOUS
 90
7
 70
0
 10
-15.9760637483
 20
-10.313807715
 10
-15.9950319746
 20
-10.3254888738
 10
-16.0444120462
 20
-10.3657424764
 10
-16.0858062378
 20
-10.4158576631
 10
-16.1175416782
 20
-10.4751661514
 10
-16.1371031851
 20
-10.5400004488
 10
-16.1439333131
 20
-10.6067955359
  0
LINE
  5
2CC
100
AcDbEntity
  8
RACCORDO
100
AcDbLine
 62
7
  6
CONTINUOUS
 10
-14.8927237012
 20
-9.6992205906
 11
-15.9760862276
 21
-10.3138176975
  0
LINE
  5
2CD
100
AcDbEntity
  8
0
100
AcDbLine
 62
7
  6
CONTINUOUS
 10
6.2111392151
 20
2.4941591265
 11
16.841190077
 21
7.8091845574
  0
LINE
  5
2CE
100
AcDbEntity
  8
0
100
AcDbLine
 62
7
  6
CONTINUOUS
 10
16.841190077
 20
6.5967489921
 11
6.2111392151
 21
1.2817235612
  0
LINE
  5
2CF
100
AcDbEntity
  8
RACCORDO
100
AcDbLine
 62
7
  6
CONTINUOUS
 10
-4.789020986
 20
2.7487736445
 11
-17.0926789787
 21
8.9006026408
  0
LINE
  5
2D0
100
AcDbEntity
  8
Z030100_COP
100
AcDbLine
 62
253
  6
CONTINUOUS
 10
12.9638357806
 20
-6.1243590916
 11
12.4944810126
 21
-5.8896817076
  0
LINE
  5
2D1
100
AcDbEntity
  8
RACCORDO
100
AcDbLine
 62
7
  6
CONTINUOUS
 10
-16.8805001256
 20
9.0066920674
 11
-4.576842133
 21
2.854863071
  0
LINE
  5
2D2
100
AcDbEntity
  8
RACCORDO
100
AcDbLine
 62
7
  6
CONTINUOUS
 10
-4.7845015482
 20
3.0108409846
 11
-17.0881595408
 21
9.1626699809
  0
LINE
  5
2D3
100
AcDbEntity
  8
Z030100_COP
100
AcDbLine
 62
7
  6
CONTINUOUS
 10
12.0858969735
 20
-5.3584242026
 11
11.963939094
 21
-5.2974452628
  0
LINE
  5
2D4
100
AcDbEntity
  8
Z030100_COP
100
AcDbLine
 62
7
  6
CONTINUOUS
 10
13.1465571453
 20
-4.8280941167
 11
13.0245992658
 21
-4.7671151769
  0
LINE
  5
2D5
100
AcDbEntity
  8
RACCORDO
100
AcDbLine
 62
7
  6
CONTINUOUS
 10
3.1763515305
 20
-23.1568136297
 11
3.1763515305
 21
-24.6887517574
  0
LINE
  5
2D6
100
AcDbEntity
  8
RACCORDO
100
AcDbLine
 62
7
  6
CONTINUOUS
 10
3.1763515305
 20
15.6680357229
 11
3.1763515305
 21
17.3134876541
  0
LINE
  5
2D7
100
AcDbEntity
  8
DRAFT
100
AcDbLine
 62
7
  6
CONTINUOUS
 10
3.5352399959
 20
9.6429200147
 11
3.5352399959
 21
-20.4081614966
  0
LINE
  5
2D8
100
AcDbEntity
  8
DRAFT
100
AcDbLine
 62
7
  6
CONTINUOUS
 10
3.5475825907
 20
9.5501461769
 11
3.5475825907
 21
5.3046975238
  0
LINE
  5
2D9
100
AcDbEntity
  8
DRAFT
100
AcDbLine
 62
7
  6
CONTINUOUS
 10
3.5475825907
 20
3.1415581889
 11
3.5475825907
 21
-20.3277302536
  0
LINE
  5
2DA
100
AcDbEntity
  8
RACCORDO
100
AcDbLine
 62
253
  6
CONTINUOUS
 10
3.7046187023
 20
17.5769264741
 11
3.7046187023
 21
17.2293949574
  0
LINE
  5
2DB
100
AcDbEntity
  8
RACCORDO
100
AcDbLine
 62
253
  6
CONTINUOUS
 10
3.7046187023
 20
-24.070209182
 11
3.7046187023
 21
-24.4177406988
  0
LINE
  5
2DC
100
AcDbEntity
  8
RACCORDO
100
AcDbLine
 62
7
  6
CONTINUOUS
 10
3.7768165593
 20
17.6647991063
 11
3.7768165593
 21
17.3172675895
  0
LINE
  5
2DD
100
AcDbEntity
  8
RACCORDO
100
AcDbLine
 62
7
  6
CONTINUOUS
 10
3.7768165593
 20
-23.9823365498
 11
3.7768165593
 21
-24.3298680666
  0
LINE
  5
2DE
100
AcDbEntity
  8
ASSI
100
AcDbLine
 62
253
  6
CONTINUOUS
 10
4.1549954039
 20
20.4975575018
 11
4.1549954039
 21
21.7636299317
  0
LINE
  5
2DF
100
AcDbEntity
  8
DRAFT
100
AcDbLine
 62
7
  6
CONTINUOUS
 10
4.2546893718
 20
15.395320754
 11
4.2546893718
 21
10.0660695131
  0
LINE
  5
2E0
100
AcDbEntity
  8
DRAFT
100
AcDbLine
 62
7
  6
CONTINUOUS
 10
4.2546893718
 20
5.6949845852
 11
4.2546893718
 21
5.3600899275
  0
LINE
  5
2E1
100
AcDbEntity
  8
DRAFT
100
AcDbLine
 62
7
  6
CONTINUOUS
 10
4.2546893718
 20
-20.1365468086
 11
4.2546893718
 21
-22.4347091363
  0
LINE
  5
2E2
100
AcDbEntity
  8
RACCORDO
100
AcDbLine
 62
7
  6
CONTINUOUS
 10
4.2702450994
 20
20.6357181006
 11
4.2702450994
 21
21.7582880806
  0
LINE
  5
2E3
100
AcDbEntity
  8
RACCORDO
100
AcDbLine
 62
253
  6
CONTINUOUS
 10
-17.5937217501
 20
-12.1750607934
 11
-17.3862310318
 21
-12.0713154343
  0
LINE
  5
2E4
100
AcDbEntity
  8
RACCORDO
100
AcDbLine
 62
7
  6
CONTINUOUS
 10
18.3968249956
 20
4.8988089259
 11
17.5704793988
 21
4.4856361275
  0
LINE
  5
2E5
100
AcDbEntity
  8
RACCORDO
100
AcDbLine
 62
253
  6
CONTINUOUS
 10
-17.0115112589
 20
-13.1424612958
 11
-16.7992836433
 21
-13.036347488
  0
LINE
  5
2E6
100
AcDbEntity
  8
Z030100_COP
100
AcDbLine
 62
253
  6
CONTINUOUS
 10
15.6861968882
 20
-4.7631785378
 11
15.2168421202
 21
-4.5285011538
  0
LINE
  5
2E7
100
AcDbEntity
  8
Z030100_COP
100
AcDbLine
 62
7
  6
CONTINUOUS
 10
14.8082580811
 20
-3.9972436488
 11
14.6863002016
 21
-3.936264709
  0
LINE
  5
2E8
100
AcDbEntity
  8
Z030100_COP
100
AcDbLine
 62
7
  6
CONTINUOUS
 10
15.8689182528
 20
-3.4669135629
 11
15.7469603734
 21
-3.4059346232
  0
LINE
  5
2E9
100
AcDbEntity
  8
DRAFT
100
AcDbLine
 62
7
  6
CONTINUOUS
 10
-4.0965173104
 20
6.8974643945
 11
-17.5976621355
 21
13.648036807
  0
LINE
  5
2EA
100
AcDbEntity
  8
RACCORDO
100
AcDbLine
 62
7
  6
CONTINUOUS
 10
-4.2354333776
 20
7.0322403341
 11
-17.3921995688
 21
13.6106234297
  0
LINE
  5
2EB
100
AcDbEntity
  8
DRAFT
100
AcDbLine
 62
7
  6
CONTINUOUS
 10
3.5475825907
 20
3.1415581889
 11
3.5352399959
 21
3.1477294863
  0
LINE
  5
2EC
100
AcDbEntity
  8
RACCORDO
100
AcDbLine
 62
253
  6
CONTINUOUS
 10
-4.3343889664
 20
7.1255478275
 11
-17.3451537402
 21
13.6309302144
  0
LINE
  5
2ED
100
AcDbEntity
  8
RACCORDO
100
AcDbLine
 62
7
  6
CONTINUOUS
 10
6.1538401921
 20
6.6652909276
 11
6.1538401921
 21
5.2939367397
  0
LINE
  5
2EE
100
AcDbEntity
  8
DRAFT
100
AcDbLine
 62
7
  6
CONTINUOUS
 10
6.2111392151
 20
10.8766544143
 11
6.2111392151
 21
6.7748456194
  0
LINE
  5
2EF
100
AcDbEntity
  8
DRAFT
100
AcDbLine
 62
7
  6
CONTINUOUS
 10
6.2111392151
 20
4.3818650059
 11
6.2111392151
 21
-18.9437835784
  0
LINE
  5
2F0
100
AcDbEntity
  8
RACCORDO
100
AcDbLine
 62
7
  6
CONTINUOUS
 10
18.3968249956
 20
2.8203479568
 11
17.5704793988
 21
2.4071751584
  0
LINE
  5
2F1
100
AcDbEntity
  8
0
100
AcDbLine
 62
7
  6
CONTINUOUS
 10
16.6290580426
 20
1.0188310689
 11
6.2111392151
 21
-4.1901283449
  0
LINE
  5
2F2
100
AcDbEntity
  8
0
100
AcDbLine
 62
7
  6
CONTINUOUS
 10
16.275504652
 20
0.7625950623
 11
6.2111392151
 21
-4.2695876562
  0
LINE
  5
2F3
100
AcDbEntity
  8
DRAFT
100
AcDbLine
 62
7
  6
CONTINUOUS
 10
3.5475825907
 20
5.3046975238
 11
3.5352399959
 21
5.3108688212
  0
LINE
  5
2F4
100
AcDbEntity
  8
Z030100_COP
100
AcDbLine
 62
7
  6
CONTINUOUS
 10
6.7118854365
 20
-8.0454299711
 11
6.8946068011
 21
-9.1589735813
  0
LINE
  5
2F5
100
AcDbEntity
  8
RACCORDO
100
AcDbLine
 62
7
  6
CONTINUOUS
 10
8.2330396674
 20
8.335127671
 11
8.3559087027
 21
5.6878642139
  0
LWPOLYLINE
  5
2F6
100
AcDbEntity
  8
RACCORDO
100
AcDbPolyline
 62
7
  6
CONTINUOUS
 90
40
 70
0
 10
8.5155904736
 20
-15.8775619637
 10
8.51557506
 20
-15.8742592669
 10
8.5149378177
 20
-15.855961557
 10
8.5133842524
 20
-15.8376804607
 10
8.5109301457
 20
-15.8193950894
 10
8.5075939433
 20
-15.8011486333
 10
8.50341282
 20
-15.7830607746
 10
8.4984077881
 20
-15.765144188
 10
8.4925889248
 20
-15.7474029895
 10
8.4860043227
 20
-15.7299502102
 10
8.4786727193
 20
-15.7128063684
 10
8.4705976429
 20
-15.6959686481
 10
8.4618173654
 20
-15.6795150682
 10
8.4523353474
 20
-15.663454913
 10
8.4421528245
 20
-15.6478055666
 10
8.4313108665
 20
-15.6326489311
 10
8.4197810929
 20
-15.617968683
 10
8.4075789044
 20
-15.6038209931
 10
8.3948299963
 20
-15.5903693998
 10
8.3815320823
 20
-15.57762209
 10
8.3676907122
 20
-15.5656011972
 10
8.353473836
 20
-15.5544565659
 10
8.3389365162
 20
-15.5442167424
 10
8.3240615737
 20
-15.5348592121
 10
8.308937717
 20
-15.5264324994
 10
8.2936026524
 20
-15.5189429609
 10
8.2780776486
 20
-15.5123894604
 10
8.2624508367
 20
-15.5067957094
 10
8.2467889125
 20
-15.5021632792
 10
8.2311110803
 20
-15.4984765548
 10
8.2154532974
 20
-15.4957262376
 10
8.1998815248
 20
-15.4939030177
 10
8.184427446
 20
-15.4929888381
 10
8.1690860847
 20
-15.4929675205
 10
8.1539092747
 20
-15.4938260068
 10
8.1389448924
 20
-15.4955457752
 10
8.1241886411
 20
-15.4981153097
 10
8.10969376
 20
-15.501516705
 10
8.0955050243
 20
-15.5057287784
 10
8.0822742069
 20
-15.5104868648
  0
LINE
  5
2F7
100
AcDbEntity
  8
0
100
AcDbLine
 62
7
  6
CONTINUOUS
 10
6.6588524279
 20
12.900353382
 11
6.6588524279
 21
14.4591991088
  0
LINE
  5
2F8
100
AcDbEntity
  8
0
100
AcDbLine
 62
7
  6
CONTINUOUS
 10
6.6765300974
 20
-8.0277523015
 11
6.6765300974
 21
-7.9411497612
  0
LINE
  5
2F9
100
AcDbEntity
  8
0
100
AcDbLine
 62
7
  6
CONTINUOUS
 10
6.7472407755
 20
-8.2608930724
 11
6.7472407755
 21
-7.9057944221
  0
LINE
  5
2FA
100
AcDbEntity
  8
0
100
AcDbLine
 62
7
  6
CONTINUOUS
 10
6.7825961146
 20
-8.4763561736
 11
6.7825961146
 21
-7.8881167526
  0
LINE
  5
2FB
100
AcDbEntity
  8
RACCORDO
100
AcDbLine
 62
7
  6
CONTINUOUS
 10
6.8609469733
 20
6.5858316163
 11
6.8609469733
 21
4.9403833491
  0
LINE
  5
2FC
100
AcDbEntity
  8
0
100
AcDbLine
 62
7
  6
CONTINUOUS
 10
7.1715048442
 20
-8.4635244113
 11
7.1715048442
 21
-7.6936623877
  0
LINE
  5
2FD
100
AcDbEntity
  8
RACCORDO
100
AcDbLine
 62
7
  6
CONTINUOUS
 10
7.3659592091
 20
15.2096071602
 11
7.3659592091
 21
15.16630589
  0
LINE
  5
2FE
100
AcDbEntity
  8
0
100
AcDbLine
 62
7
  6
CONTINUOUS
 10
7.4720252262
 20
12.4937669828
 11
7.4720252262
 21
14.0526127096
  0
LINE
  5
2FF
100
AcDbEntity
  8
RACCORDO
100
AcDbLine
 62
253
  6
CONTINUOUS
 10
8.4578325201
 20
-15.9478457023
 11
8.4578325201
 21
-16.8723593344
  0
LINE
  5
300
100
AcDbEntity
  8
RACCORDO
100
AcDbLine
 62
253
  6
CONTINUOUS
 10
8.4578325201
 20
18.566252586
 11
8.4578325201
 21
18.8827352694
  0
LINE
  5
301
100
AcDbEntity
  8
RACCORDO
100
AcDbLine
 62
7
  6
CONTINUOUS
 10
8.5155908057
 20
-15.8775475966
 11
8.5155908057
 21
-16.8031172131
  0
LINE
  5
302
100
AcDbEntity
  8
RACCORDO
100
AcDbLine
 62
7
  6
CONTINUOUS
 10
8.5155908057
 20
18.6365506917
 11
8.5155908057
 21
18.9132687955
  0
LINE
  5
303
100
AcDbEntity
  8
0
100
AcDbLine
 62
7
  6
CONTINUOUS
 10
8.532685398
 20
13.0240970687
 11
8.532685398
 21
14.5829427955
  0
LINE
  5
304
100
AcDbEntity
  8
RACCORDO
100
AcDbLine
 62
7
  6
CONTINUOUS
 10
17.3361648238
 20
0.5222509179
 11
16.841190077
 21
0.2747635445
  0
LINE
  5
305
100
AcDbEntity
  8
0
100
AcDbLine
 62
7
  6
CONTINUOUS
 10
16.6290580426
 20
0.1528056651
 11
6.2111392151
 21
-5.0561537487
  0
LINE
  5
306
100
AcDbEntity
  8
DRAFT
100
AcDbLine
 62
7
  6
CONTINUOUS
 10
6.2111392151
 20
4.3818650059
 11
4.2546893718
 21
5.3600899275
  0
LINE
  5
307
100
AcDbEntity
  8
0
100
AcDbLine
 62
7
  6
CONTINUOUS
 10
6.8609469733
 20
4.9403833491
 11
6.1538401921
 21
5.2939367397
  0
LINE
  5
308
100
AcDbEntity
  8
0
100
AcDbLine
 62
7
  6
CONTINUOUS
 10
16.4428773107
 20
0.4739199277
 11
16.841190077
 21
0.2747635445
  0
LINE
  5
309
100
AcDbEntity
  8
DRAFT
100
AcDbLine
 62
253
  6
CONTINUOUS
 10
-18.0982183374
 20
18.2938740453
 11
-17.4706496944
 21
17.9800897238
  0
LINE
  5
30A
100
AcDbEntity
  8
DRAFT
100
AcDbLine
 62
253
  6
CONTINUOUS
 10
-3.9717025321
 20
11.2306161427
 11
-3.3441338891
 21
10.9168318211
  0
LINE
  5
30B
100
AcDbEntity
  8
RACCORDO
100
AcDbLine
 62
253
  6
CONTINUOUS
 10
-4.2085739984
 20
11.4507731609
 11
-17.2193387722
 21
17.9561555478
  0
LINE
  5
30C
100
AcDbEntity
  8
Z030100_COP
100
AcDbLine
 62
7
  6
CONTINUOUS
 10
9.434246544
 20
-6.6842494173
 11
9.6169679087
 21
-7.7977930276
  0
LINE
  5
30D
100
AcDbEntity
  8
RACCORDO
100
AcDbLine
 62
7
  6
CONTINUOUS
 10
8.985957644
 20
19.9471829818
 11
8.985340025
 21
19.9607241347
  0
LINE
  5
30E
100
AcDbEntity
  8
RACCORDO
100
AcDbLine
 62
253
  6
CONTINUOUS
 10
8.8457574698
 20
19.6867701609
 11
8.8457574698
 21
19.0878091643
  0
LINE
  5
30F
100
AcDbEntity
  8
RACCORDO
100
AcDbLine
 62
253
  6
CONTINUOUS
 10
8.8457574698
 20
-17.270896087
 11
8.8457574698
 21
-17.8698570837
  0
LINE
  5
310
100
AcDbEntity
  8
RACCORDO
100
AcDbLine
 62
7
  6
CONTINUOUS
 10
8.9860875697
 20
19.9464756921
 11
8.9860875697
 21
19.2640732379
  0
LINE
  5
311
100
AcDbEntity
  8
RACCORDO
100
AcDbLine
 62
7
  6
CONTINUOUS
 10
8.9860875697
 20
-17.0998309754
 11
8.9860875697
 21
-17.7822334297
  0
LINE
  5
312
100
AcDbEntity
  8
0
100
AcDbLine
 62
7
  6
CONTINUOUS
 10
9.3281805269
 20
-6.6312164087
 11
9.3281805269
 21
-6.6153245464
  0
LINE
  5
313
100
AcDbEntity
  8
0
100
AcDbLine
 62
7
  6
CONTINUOUS
 10
9.7170892565
 20
-7.4191315465
 11
9.7170892565
 21
-6.4208701816
  0
LINE
  5
314
100
AcDbEntity
  8
0
100
AcDbLine
 62
7
  6
CONTINUOUS
 10
10.5479397244
 20
7.2081437934
 11
10.5479397244
 21
8.7669895202
  0
LINE
  5
315
100
AcDbEntity
  8
RACCORDO
100
AcDbLine
 62
7
  6
CONTINUOUS
 10
8.985340025
 20
-17.8238129133
 11
8.985957644
 21
-17.7823355408
  0
LINE
  5
316
100
AcDbEntity
  8
Z030100_COP
100
AcDbLine
 62
7
  6
CONTINUOUS
 10
7.5898242436
 20
-8.8113648601
 11
7.7725456082
 21
-7.5150998852
  0
LINE
  5
317
100
AcDbEntity
  8
Z030100_COP
100
AcDbLine
 62
7
  6
CONTINUOUS
 10
7.1204694756
 20
-8.5766874761
 11
7.6197907886
 21
-7.4695194156
  0
LINE
  5
318
100
AcDbEntity
  8
0
100
AcDbLine
 62
7
  6
CONTINUOUS
 10
16.275504652
 20
0.7625950623
 11
16.6290580426
 21
1.0188310689
  0
LINE
  5
319
100
AcDbEntity
  8
RACCORDO
100
AcDbLine
 62
253
  6
CONTINUOUS
 10
-6.1186793226
 20
-15.1741154312
 11
-5.1153401387
 21
-14.4810041493
  0
LINE
  5
31A
100
AcDbEntity
  8
0
100
AcDbLine
 62
7
  6
CONTINUOUS
 10
16.6290580426
 20
-2.9648857886
 11
6.2111392151
 21
-8.1738452023
  0
LINE
  5
31B
100
AcDbEntity
  8
Z030100_COP
100
AcDbLine
 62
7
  6
CONTINUOUS
 10
16.3815706692
 20
-3.2105873547
 11
15.8689182528
 21
-3.4669135629
  0
LINE
  5
31C
100
AcDbEntity
  8
Z030100_COP
100
AcDbLine
 62
7
  6
CONTINUOUS
 10
14.8082580811
 20
-3.9972436488
 11
13.1465571453
 21
-4.8280941167
  0
LINE
  5
31D
100
AcDbEntity
  8
Z030100_COP
100
AcDbLine
 62
7
  6
CONTINUOUS
 10
12.0858969735
 20
-5.3584242026
 11
11.5732445571
 21
-5.6147504107
  0
LINE
  5
31E
100
AcDbEntity
  8
Z030100_COP
100
AcDbLine
 62
7
  6
CONTINUOUS
 10
11.0075591322
 20
-5.8975931232
 11
10.4949067158
 21
-6.1539193314
  0
LINE
  5
31F
100
AcDbEntity
  8
Z030100_COP
100
AcDbLine
 62
7
  6
CONTINUOUS
 10
9.434246544
 20
-6.6842494173
 11
7.7725456082
 21
-7.5150998852
  0
LINE
  5
320
100
AcDbEntity
  8
Z030100_COP
100
AcDbLine
 62
7
  6
CONTINUOUS
 10
6.7118854365
 20
-8.0454299711
 11
6.2111392151
 21
-8.2958030818
  0
LINE
  5
321
100
AcDbEntity
  8
RACCORDO
100
AcDbLine
 62
253
  6
CONTINUOUS
 10
6.8609469733
 20
6.5858316163
 11
6.4279342714
 21
6.8023379673
  0
LINE
  5
322
100
AcDbEntity
  8
DRAFT
100
AcDbLine
 62
7
  6
CONTINUOUS
 10
3.5475825907
 20
9.5501461769
 11
3.5352399959
 21
9.5563174743
  0
LINE
  5
323
100
AcDbEntity
  8
DRAFT
100
AcDbLine
 62
253
  6
CONTINUOUS
 10
-17.1056479955
 20
20.0458109941
 11
-16.4576290954
 21
19.7218015441
  0
LINE
  5
324
100
AcDbEntity
  8
DRAFT
100
AcDbLine
 62
253
  6
CONTINUOUS
 10
-2.9762099621
 20
12.9810919774
 11
-2.328191062
 21
12.6570825274
  0
LINE
  5
325
100
AcDbEntity
  8
RACCORDO
100
AcDbLine
 62
253
  6
CONTINUOUS
 10
-3.2043185127
 20
13.1968336728
 11
-16.2150832866
 21
19.7022160597
  0
LINE
  5
326
100
AcDbEntity
  8
RACCORDO
100
AcDbLine
 62
7
  6
CONTINUOUS
 10
10.901493115
 20
8.5902128249
 11
10.901493115
 21
8.8067191759
  0
LINE
  5
327
100
AcDbEntity
  8
Z030100_COP
100
AcDbLine
 62
253
  6
CONTINUOUS
 10
11.0075591322
 20
-11.8731684093
 11
11.0075591322
 21
-5.8975931232
  0
LINE
  5
328
100
AcDbEntity
  8
Z030100_COP
100
AcDbLine
 62
7
  6
CONTINUOUS
 10
11.0954270978
 20
-11.7671023921
 11
11.0954270978
 21
-5.791527106
  0
LINE
  5
329
100
AcDbEntity
  8
Z030100_COP
100
AcDbLine
 62
253
  6
CONTINUOUS
 10
11.1489804884
 20
-11.5903256968
 11
11.1489804884
 21
-5.8745580319
  0
LINE
  5
32A
100
AcDbEntity
  8
Z030100_COP
100
AcDbLine
 62
253
  6
CONTINUOUS
 10
11.5732445571
 20
-11.5903256968
 11
11.5732445571
 21
-5.6147504107
  0
LINE
  5
32B
100
AcDbEntity
  8
RACCORDO
100
AcDbLine
 62
7
  6
CONTINUOUS
 10
11.9621532868
 20
8.27638909
 11
11.9621532868
 21
8.0598827391
  0
LINE
  5
32C
100
AcDbEntity
  8
0
100
AcDbLine
 62
7
  6
CONTINUOUS
 10
12.2626736688
 20
-6.2118698975
 11
12.2626736688
 21
-5.1480779755
  0
LINE
  5
32D
100
AcDbEntity
  8
0
100
AcDbLine
 62
7
  6
CONTINUOUS
 10
12.3157066774
 20
6.3242603169
 11
12.3157066774
 21
7.8831060438
  0
LINE
  5
32E
100
AcDbEntity
  8
Z030100_COP
100
AcDbLine
 62
7
  6
CONTINUOUS
 10
10.3121853512
 20
-7.4501843063
 11
10.4949067158
 21
-6.1539193314
  0
LINE
  5
32F
100
AcDbEntity
  8
Z030100_COP
100
AcDbLine
 62
7
  6
CONTINUOUS
 10
11.0954270978
 20
-6.044549058
 11
11.1489804884
 21
-5.8745580319
  0
LINE
  5
330
100
AcDbEntity
  8
Z030100_COP
100
AcDbLine
 62
7
  6
CONTINUOUS
 10
9.8428305832
 20
-7.2155069223
 11
10.3421518962
 21
-6.1083388618
  0
LINE
  5
331
100
AcDbEntity
  8
RACCORDO
100
AcDbLine
 62
7
  6
CONTINUOUS
 10
-5.0667844952
 20
-15.4374400654
 11
-5.9531539697
 21
-15.8191791946
  0
LINE
  5
332
100
AcDbEntity
  8
0
100
AcDbLine
 62
7
  6
CONTINUOUS
 10
10.5479397244
 20
7.2081437934
 11
12.3157066774
 21
6.3242603169
  0
LINE
  5
333
100
AcDbEntity
  8
RACCORDO
100
AcDbLine
 62
253
  6
CONTINUOUS
 10
6.2111392151
 20
9.4020623328
 11
7.8800306242
 21
8.5676166282
  0
LINE
  5
334
100
AcDbEntity
  8
RACCORDO
100
AcDbLine
 62
7
  6
CONTINUOUS
 10
6.2111392151
 20
9.5280666253
 11
8.1036374219
 21
8.5818175218
  0
LINE
  5
335
100
AcDbEntity
  8
DRAFT
100
AcDbLine
 62
7
  6
CONTINUOUS
 10
-1.112534255
 20
14.0500123687
 11
-1.1858444371
 21
14.0866674597
  0
LINE
  5
336
100
AcDbEntity
  8
DRAFT
100
AcDbLine
 62
7
  6
CONTINUOUS
 10
-14.4965582792
 20
20.7420243808
 11
-14.5611389179
 21
20.7743147001
  0
LINE
  5
337
100
AcDbEntity
  8
RACCORDO
100
AcDbLine
 62
7
  6
CONTINUOUS
 10
-14.3422189734
 20
20.7588601827
 11
-1.3314541995
 21
14.2534777958
  0
LINE
  5
338
100
AcDbEntity
  8
DRAFT
100
AcDbLine
 62
7
  6
CONTINUOUS
 10
4.2546893718
 20
11.8548793359
 11
6.2111392151
 21
10.8766544143
  0
LINE
  5
339
100
AcDbEntity
  8
0
100
AcDbLine
 62
7
  6
CONTINUOUS
 10
10.5479397244
 20
8.7669895202
 11
10.901493115
 21
8.5902128249
  0
LINE
  5
33A
100
AcDbEntity
  8
0
100
AcDbLine
 62
7
  6
CONTINUOUS
 10
11.9621532868
 20
8.0598827391
 11
12.3157066774
 21
7.8831060438
  0
LINE
  5
33B
100
AcDbEntity
  8
RACCORDO
100
AcDbLine
 62
253
  6
CONTINUOUS
 10
11.9621532868
 20
8.27638909
 11
10.901493115
 21
8.8067191759
  0
LINE
  5
33C
100
AcDbEntity
  8
DRAFT
100
AcDbLine
 62
7
  6
CONTINUOUS
 10
-9.1803394707
 20
18.9116575509
 11
-4.9376987836
 21
16.7903372073
  0
LINE
  5
33D
100
AcDbEntity
  8
RACCORDO
100
AcDbLine
 62
7
  6
CONTINUOUS
 10
17.5704793988
 20
5.6655351148
 11
18.3968249956
 21
5.2523623165
  0
LINE
  5
33E
100
AcDbEntity
  8
Z030100_COP
100
AcDbLine
 62
7
  6
CONTINUOUS
 10
12.0858969735
 20
-5.3584242026
 11
12.2686183381
 21
-6.4719678128
  0
LINE
  5
33F
100
AcDbEntity
  8
0
100
AcDbLine
 62
7
  6
CONTINUOUS
 10
13.4824328663
 20
10.7900093746
 11
13.4824328663
 21
11.0474088896
  0
LINE
  5
340
100
AcDbEntity
  8
0
100
AcDbLine
 62
7
  6
CONTINUOUS
 10
14.8082580811
 20
-3.9972436488
 11
14.8082580811
 21
-3.8752857693
  0
LINE
  5
341
100
AcDbEntity
  8
Z030100_COP
100
AcDbLine
 62
7
  6
CONTINUOUS
 10
12.9638357806
 20
-6.1243590916
 11
13.1465571453
 21
-4.8280941167
  0
LINE
  5
342
100
AcDbEntity
  8
Z030100_COP
100
AcDbLine
 62
7
  6
CONTINUOUS
 10
12.4944810126
 20
-5.8896817076
 11
12.9938023256
 21
-4.782513647
  0
LINE
  5
343
100
AcDbEntity
  8
RACCORDO
100
AcDbLine
 62
253
  6
CONTINUOUS
 10
-4.3708249419
 20
-18.7865091975
 11
-4.1633342263
 21
-18.6827638397
  0
LINE
  5
344
100
AcDbEntity
  8
RACCORDO
100
AcDbLine
 62
7
  6
CONTINUOUS
 10
-4.492896541
 20
-19.0530086008
 11
-4.2806741231
 21
-18.9468973919
  0
LINE
  5
345
100
AcDbEntity
  8
RACCORDO
100
AcDbLine
 62
253
  6
CONTINUOUS
 10
12.5278387117
 20
9.2520521255
 11
11.4671785399
 21
9.7823822114
  0
LINE
  5
346
100
AcDbEntity
  8
RACCORDO
100
AcDbLine
 62
7
  6
CONTINUOUS
 10
-12.6576950927
 20
22.4563191605
 11
-11.4128711067
 21
21.8339071675
  0
LINE
  5
347
100
AcDbEntity
  8
RACCORDO
100
AcDbLine
 62
7
  6
CONTINUOUS
 10
0.6889454022
 20
15.782998913
 11
1.9337693881
 21
15.16058692
  0
LINE
  5
348
100
AcDbEntity
  8
0
100
AcDbLine
 62
7
  6
CONTINUOUS
 10
6.6588524279
 20
12.900353382
 11
7.4720252262
 21
12.4937669828
  0
LINE
  5
349
100
AcDbEntity
  8
0
100
AcDbLine
 62
7
  6
CONTINUOUS
 10
16.841190077
 20
7.8091845574
 11
16.0633726177
 21
8.1980932871
  0
LINE
  5
34A
100
AcDbEntity
  8
RACCORDO
100
AcDbLine
 62
7
  6
CONTINUOUS
 10
-2.2527559119
 20
17.6300961947
 11
-7.7640630115
 21
20.3857497446
  0
LINE
  5
34B
100
AcDbEntity
  8
RACCORDO
100
AcDbLine
 62
7
  6
CONTINUOUS
 10
-13.2957147506
 20
23.3277044037
 11
-12.0591184184
 21
22.7094062376
  0
LINE
  5
34C
100
AcDbEntity
  8
RACCORDO
100
AcDbLine
 62
7
  6
CONTINUOUS
 10
0.0509257443
 20
16.6543841563
 11
1.2875220765
 21
16.0360859902
  0
LINE
  5
34D
100
AcDbEntity
  8
RACCORDO
100
AcDbLine
 62
253
  6
CONTINUOUS
 10
-13.360688047
 20
23.4629228538
 11
-12.1240917148
 21
22.8446246877
  0
LINE
  5
34E
100
AcDbEntity
  8
RACCORDO
100
AcDbLine
 62
253
  6
CONTINUOUS
 10
-0.0140475521
 20
16.7896026064
 11
1.2225487801
 21
16.1713044403
  0
LINE
  5
34F
100
AcDbEntity
  8
0
100
AcDbLine
 62
7
  6
CONTINUOUS
 10
16.6290580426
 20
0.1528056651
 11
16.275504652
 21
0.7625950623
  0
LINE
  5
350
100
AcDbEntity
  8
Z030100_COP
100
AcDbLine
 62
7
  6
CONTINUOUS
 10
14.8082580811
 20
-3.9972436488
 11
14.9909794457
 21
-5.1107872591
  0
LINE
  5
351
100
AcDbEntity
  8
0
100
AcDbLine
 62
7
  6
CONTINUOUS
 10
16.0633726177
 20
8.1980932871
 11
16.0633726177
 21
9.7569390139
  0
LINE
  5
352
100
AcDbEntity
  8
Z030100_COP
100
AcDbLine
 62
253
  6
CONTINUOUS
 10
16.3815706692
 20
-9.1861626408
 11
16.3815706692
 21
-3.2105873547
  0
LINE
  5
353
100
AcDbEntity
  8
Z030100_COP
100
AcDbLine
 62
7
  6
CONTINUOUS
 10
16.4694386348
 20
-9.0800966236
 11
16.4694386348
 21
-3.1045213375
  0
LINE
  5
354
100
AcDbEntity
  8
0
100
AcDbLine
 62
7
  6
CONTINUOUS
 10
16.6290580426
 20
-2.9648857886
 11
16.6290580426
 21
0.1528056651
  0
LINE
  5
355
100
AcDbEntity
  8
0
100
AcDbLine
 62
7
  6
CONTINUOUS
 10
16.6290580426
 20
1.0188310689
 11
16.6290580426
 21
6.490682975
  0
LINE
  5
356
100
AcDbEntity
  8
RACCORDO
100
AcDbLine
 62
7
  6
CONTINUOUS
 10
16.7704793988
 20
10.5073470653
 11
16.7704793988
 21
10.4640457951
  0
LINE
  5
357
100
AcDbEntity
  8
0
100
AcDbLine
 62
7
  6
CONTINUOUS
 10
16.841190077
 20
0.2747635445
 11
16.841190077
 21
6.5967489921
  0
LINE
  5
358
100
AcDbEntity
  8
0
100
AcDbLine
 62
7
  6
CONTINUOUS
 10
16.841190077
 20
7.8091845574
 11
16.841190077
 21
9.3680302842
  0
LINE
  5
359
100
AcDbEntity
  8
Z030100_COP
100
AcDbLine
 62
7
  6
CONTINUOUS
 10
15.6861968882
 20
-4.7631785378
 11
15.8689182528
 21
-3.4669135629
  0
LINE
  5
35A
100
AcDbEntity
  8
Z030100_COP
100
AcDbLine
 62
7
  6
CONTINUOUS
 10
15.2168421202
 20
-4.5285011538
 11
15.7161634332
 21
-3.4213330933
  0
LINE
  5
35B
100
AcDbEntity
  8
RACCORDO
100
AcDbLine
 62
253
  6
CONTINUOUS
 10
1.9332551598
 20
-24.1515461078
 11
1.3109371277
 21
-24.8966055253
  0
LINE
  5
35C
100
AcDbEntity
  8
RACCORDO
100
AcDbLine
 62
253
  6
CONTINUOUS
 10
-4.7078532663
 20
-19.2942902921
 11
-4.4956256507
 21
-19.1881764843
  0
LINE
  5
35D
100
AcDbEntity
  8
Z030100_COP
100
AcDbLine
 62
253
  6
CONTINUOUS
 10
16.3815706692
 20
-9.1861626408
 11
11.5732445571
 21
-11.5903256968
  0
LINE
  5
35E
100
AcDbEntity
  8
Z030100_COP
100
AcDbLine
 62
253
  6
CONTINUOUS
 10
11.0075591322
 20
-11.8731684093
 11
6.2111392151
 21
-14.2713783679
  0
LINE
  5
35F
100
AcDbEntity
  8
Z030100_COP
100
AcDbLine
 62
7
  6
CONTINUOUS
 10
16.3036027135
 20
-9.3484247809
 11
11.4952766014
 21
-11.752587837
  0
LINE
  5
360
100
AcDbEntity
  8
Z030100_COP
100
AcDbLine
 62
7
  6
CONTINUOUS
 10
10.9295911765
 20
-12.0354305494
 11
6.2111392151
 21
-14.3946565301
  0
LINE
  5
361
100
AcDbEntity
  8
RACCORDO
100
AcDbLine
 62
7
  6
CONTINUOUS
 10
1.3482272462
 20
16.0149705557
 11
1.9726333306
 21
15.8845939859
  0
LINE
  5
362
100
AcDbEntity
  8
RACCORDO
100
AcDbLine
 62
253
  6
CONTINUOUS
 10
1.5750707397
 20
16.1707917164
 11
2.2862913478
 21
16.0222881936
  0
LINE
  5
363
100
AcDbEntity
  8
RACCORDO
100
AcDbLine
 62
253
  6
CONTINUOUS
 10
1.2225487801
 20
16.5112783744
 11
-0.0140475521
 21
17.1295765405
  0
LINE
  5
364
100
AcDbEntity
  8
RACCORDO
100
AcDbLine
 62
253
  6
CONTINUOUS
 10
-12.1240917148
 20
23.1845986219
 11
-13.360688047
 21
23.802896788
  0
LINE
  5
365
100
AcDbEntity
  8
RACCORDO
100
AcDbLine
 62
7
  6
CONTINUOUS
 10
3.1815788951
 20
15.6654220406
 11
3.1763515305
 21
15.6680357229
  0
LINE
  5
366
100
AcDbEntity
  8
DRAFT
100
AcDbLine
 62
7
  6
CONTINUOUS
 10
-0.0753589172
 20
17.2938909468
 11
-1.1900328433
 21
17.8512279098
  0
LINE
  5
367
100
AcDbEntity
  8
DRAFT
100
AcDbLine
 62
7
  6
CONTINUOUS
 10
-7.9105096209
 20
21.2114662987
 11
-10.1702889644
 21
22.3413559704
  0
LINE
  5
368
100
AcDbEntity
  8
0
100
AcDbLine
 62
7
  6
CONTINUOUS
 10
8.532685398
 20
13.0240970687
 11
13.2416468263
 21
10.6696163546
  0
LINE
  5
369
100
AcDbEntity
  8
RACCORDO
100
AcDbLine
 62
253
  6
CONTINUOUS
 10
1.398297036
 20
16.8156551894
 11
0.1617007039
 21
17.4339533555
  0
LINE
  5
36A
100
AcDbEntity
  8
RACCORDO
100
AcDbLine
 62
253
  6
CONTINUOUS
 10
-11.9483434589
 20
23.4889754368
 11
-13.184939791
 21
24.1072736029
  0
LINE
  5
36B
100
AcDbEntity
  8
RACCORDO
100
AcDbLine
 62
253
  6
CONTINUOUS
 10
-2.2527559119
 20
18.7539807757
 11
-7.7640630115
 21
21.5096343255
  0
LINE
  5
36C
100
AcDbEntity
  8
0
100
AcDbLine
 62
7
  6
CONTINUOUS
 10
4.1800980132
 20
15.6985763161
 11
4.3353121915
 21
15.620969227
  0
LINE
  5
36D
100
AcDbEntity
  8
0
100
AcDbLine
 62
7
  6
CONTINUOUS
 10
6.6588524279
 20
14.4591991088
 11
7.4720252262
 21
14.0526127096
  0
LINE
  5
36E
100
AcDbEntity
  8
0
100
AcDbLine
 62
7
  6
CONTINUOUS
 10
13.4824328663
 20
11.0474088896
 11
13.7398323813
 21
10.9187091321
  0
LINE
  5
36F
100
AcDbEntity
  8
0
100
AcDbLine
 62
7
  6
CONTINUOUS
 10
16.0633726177
 20
9.7569390139
 11
16.841190077
 21
9.3680302842
  0
LINE
  5
370
100
AcDbEntity
  8
RACCORDO
100
AcDbLine
 62
253
  6
CONTINUOUS
 10
-1.829933532
 20
18.8563703402
 11
-7.9056881818
 21
21.894247665
  0
LINE
  5
371
100
AcDbEntity
  8
DRAFT
100
AcDbLine
 62
7
  6
CONTINUOUS
 10
-10.1702889644
 20
23.0409050623
 11
-8.7622462294
 21
22.3368836949
  0
LINE
  5
372
100
AcDbEntity
  8
DRAFT
100
AcDbLine
 62
7
  6
CONTINUOUS
 10
3.1763515305
 20
16.3675848149
 11
3.9010282711
 21
16.0052464446
  0
LINE
  5
373
100
AcDbEntity
  8
DRAFT
100
AcDbLine
 62
7
  6
CONTINUOUS
 10
-7.4125725177
 20
22.2182345825
 11
-1.1900328433
 21
19.1069647453
  0
LINE
  5
374
100
AcDbEntity
  8
RACCORDO
100
AcDbLine
 62
7
  6
CONTINUOUS
 10
17.3361648238
 20
10.1812030826
 11
16.7704793988
 21
10.4640457951
  0
LINE
  5
375
100
AcDbEntity
  8
0
100
AcDbLine
 62
7
  6
CONTINUOUS
 10
14.8004925531
 20
11.449039218
 11
14.5430930381
 21
11.5777389755
  0
LINE
  5
376
100
AcDbEntity
  8
0
100
AcDbLine
 62
7
  6
CONTINUOUS
 10
8.532685398
 20
14.5829427955
 11
7.3659592091
 21
15.16630589
  0
LINE
  5
377
100
AcDbEntity
  8
RACCORDO
100
AcDbLine
 62
253
  6
CONTINUOUS
 10
5.5981922561
 20
16.2524092592
 11
6.6588524279
 21
15.7220791734
  0
LINE
  5
378
100
AcDbEntity
  8
RACCORDO
100
AcDbLine
 62
253
  6
CONTINUOUS
 10
15.0027124459
 20
11.5501491644
 11
16.0633726177
 21
11.0198190785
  0
LINE
  5
379
100
AcDbEntity
  8
RACCORDO
100
AcDbLine
 62
7
  6
CONTINUOUS
 10
-11.6021831879
 20
24.9192577003
 11
-10.347062668
 21
24.2916974403
  0
LINE
  5
37A
100
AcDbEntity
  8
RACCORDO
100
AcDbLine
 62
7
  6
CONTINUOUS
 10
1.744457307
 20
18.2459374528
 11
2.9995778269
 21
17.6183771929
  0
LINE
  5
37B
100
AcDbEntity
  8
RACCORDO
100
AcDbLine
 62
253
  6
CONTINUOUS
 10
17.3361648238
 20
0.5222509179
 11
17.3361648238
 21
9.6155176577
  0
LINE
  5
37C
100
AcDbEntity
  8
RACCORDO
100
AcDbLine
 62
7
  6
CONTINUOUS
 10
17.5704793988
 20
0.8050936304
 11
17.5704793988
 21
9.8983603701
  0
LINE
  5
37D
100
AcDbEntity
  8
RACCORDO
100
AcDbLine
 62
253
  6
CONTINUOUS
 10
18.3968249956
 20
2.8203479568
 11
18.3968249956
 21
4.8988089259
  0
LINE
  5
37E
100
AcDbEntity
  8
RACCORDO
100
AcDbLine
 62
7
  6
CONTINUOUS
 10
18.543271605
 20
2.9971246521
 11
18.543271605
 21
5.0755856212
  0
LINE
  5
37F
100
AcDbEntity
  8
RACCORDO
100
AcDbLine
 62
253
  6
CONTINUOUS
 10
2.2862913478
 20
-24.2773159458
 11
1.5750707397
 21
-25.1288124229
  0
LINE
  5
380
100
AcDbEntity
  8
RACCORDO
100
AcDbLine
 62
7
  6
CONTINUOUS
 10
8.4578325201
 20
-16.8723593344
 11
6.2111392151
 21
-17.9846997566
  0
LINE
  5
381
100
AcDbEntity
  8
RACCORDO
100
AcDbLine
 62
7
  6
CONTINUOUS
 10
8.0822734787
 20
-15.5104865984
 11
6.2111392151
 21
-16.2424118103
  0
LINE
  5
382
100
AcDbEntity
  8
DRAFT
100
AcDbLine
 62
7
  6
CONTINUOUS
 10
-1.1193221652
 20
19.773677799
 11
-6.0690696335
 21
22.2485515332
  0
LINE
  5
383
100
AcDbEntity
  8
RACCORDO
100
AcDbLine
 62
7
  6
CONTINUOUS
 10
6.0454058516
 20
16.2808110465
 11
7.1060660234
 21
15.7504809606
  0
LINE
  5
384
100
AcDbEntity
  8
RACCORDO
100
AcDbLine
 62
7
  6
CONTINUOUS
 10
15.4499260414
 20
11.5785509516
 11
16.5105862132
 21
11.0482208657
  0
LINE
  5
385
100
AcDbEntity
  8
RACCORDO
100
AcDbLine
 62
253
  6
CONTINUOUS
 10
-11.0677333092
 20
25.1796051668
 11
-9.8187954963
 21
24.5551362604
  0
LINE
  5
386
100
AcDbEntity
  8
RACCORDO
100
AcDbLine
 62
253
  6
CONTINUOUS
 10
2.2789071857
 20
18.5062849194
 11
3.5278449986
 21
17.8818160129
  0
LINE
  5
387
100
AcDbEntity
  8
RACCORDO
100
AcDbLine
 62
7
  6
CONTINUOUS
 10
-10.9569583497
 20
25.1861950579
 11
-9.7080205367
 21
24.5617261515
  0
LINE
  5
388
100
AcDbEntity
  8
RACCORDO
100
AcDbLine
 62
7
  6
CONTINUOUS
 10
2.3896821452
 20
18.5128748105
 11
3.6386199581
 21
17.888405904
  0
LINE
  5
389
100
AcDbEntity
  8
DRAFT
100
AcDbLine
 62
7
  6
CONTINUOUS
 10
6.2111392151
 20
-18.9437835784
 11
3.5475825907
 21
-20.3277302536
  0
LINE
  5
38A
100
AcDbEntity
  8
RACCORDO
100
AcDbLine
 62
7
  6
CONTINUOUS
 10
8.8457574698
 20
-17.270896087
 11
6.2111392151
 21
-18.6063500754
  0
LINE
  5
38B
100
AcDbEntity
  8
RACCORDO
100
AcDbLine
 62
7
  6
CONTINUOUS
 10
8.0781953158
 20
-18.3413404701
 11
4.2546893718
 21
-20.2142231062
  0
LINE
  5
38C
100
AcDbEntity
  8
RACCORDO
100
AcDbLine
 62
7
  6
CONTINUOUS
 10
8.8457574698
 20
-17.8698570837
 11
4.193386882
 21
-20.1058955636
  0
LINE
  5
38D
100
AcDbEntity
  8
DRAFT
100
AcDbLine
 62
7
  6
CONTINUOUS
 10
3.5352399959
 20
-20.4081614966
 11
4.2546893718
 21
-20.1365468086
  0
LINE
  5
38E
100
AcDbEntity
  8
RACCORDO
100
AcDbLine
 62
7
  6
CONTINUOUS
 10
-11.9984132487
 20
22.6882908031
 11
-11.3740071643
 21
22.5579142333
  0
LINE
  5
38F
100
AcDbEntity
  8
RACCORDO
100
AcDbLine
 62
253
  6
CONTINUOUS
 10
-11.7715697552
 20
22.8441119639
 11
-11.0603491471
 21
22.695608441
  0
LINE
  5
390
100
AcDbEntity
  8
DRAFT
100
AcDbLine
 62
7
  6
CONTINUOUS
 10
2.919425882
 20
21.7295825676
 11
0.0848540381
 21
23.1468684895
  0
LINE
  5
391
100
AcDbEntity
  8
ASSI
100
AcDbLine
 62
253
  6
CONTINUOUS
 10
4.0844592258
 20
21.7372738792
 11
3.5190571193
 21
22.0199749325
  0
LINE
  5
392
100
AcDbEntity
  8
ASSI
100
AcDbLine
 62
253
  6
CONTINUOUS
 10
-1.5109470053
 20
24.5349769948
 11
-2.0763491118
 21
24.817678048
  0
LINE
  5
393
100
AcDbEntity
  8
DRAFT
100
AcDbLine
 62
7
  6
CONTINUOUS
 10
1.293843295
 20
23.2183301386
 11
3.6290221076
 21
22.0507407323
  0
LINE
  5
394
100
AcDbEntity
  8
DRAFT
100
AcDbLine
 62
7
  6
CONTINUOUS
 10
4.2702450994
 20
21.7301292364
 11
4.5525882803
 21
21.588957646
  0
LINE
  5
395
100
AcDbEntity
  8
RACCORDO
100
AcDbLine
 62
253
  6
CONTINUOUS
 10
3.7046187023
 20
-24.4177406988
 11
3.1763515305
 21
-24.6887517574
  0
LINE
  5
396
100
AcDbEntity
  8
RACCORDO
100
AcDbLine
 62
253
  6
CONTINUOUS
 10
3.5368129489
 20
-22.7888729035
 11
4.2546893718
 21
-22.4347091363
  0
LINE
  5
397
100
AcDbEntity
  8
RACCORDO
100
AcDbLine
 62
7
  6
CONTINUOUS
 10
3.4021840895
 20
-23.0616401819
 11
4.1238147146
 21
-22.705624282
  0
LINE
  5
398
100
AcDbEntity
  8
RACCORDO
100
AcDbLine
 62
253
  6
CONTINUOUS
 10
-1.962358322
 20
-25.0972016343
 11
3.5368129489
 21
-22.7888729035
  0
LINE
  5
399
100
AcDbEntity
  8
RACCORDO
100
AcDbLine
 62
7
  6
CONTINUOUS
 10
-2.1161655674
 20
-25.3783973327
 11
3.3917569873
 21
-23.0663951684
  0
LINE
  5
39A
100
AcDbEntity
  8
DRAFT
100
AcDbLine
 62
7
  6
CONTINUOUS
 10
1.293843295
 20
23.2183301386
 11
0.0848540381
 21
23.1468684895
  0
LINE
  5
39B
100
AcDbEntity
  8
ASSI
100
AcDbLine
 62
7
  6
CONTINUOUS
 10
4.2605037403
 20
21.7732063638
 11
3.7863191423
 21
22.0102986627
  0
LINE
  5
39C
100
AcDbEntity
  8
ASSI
100
AcDbLine
 62
7
  6
CONTINUOUS
 10
-1.3351089602
 20
24.571012714
 11
-1.8092936386
 21
24.8081050532
  0
LINE
  5
39D
100
AcDbEntity
  8
RACCORDO
100
AcDbLine
 62
253
  6
CONTINUOUS
 10
-2.5263238682
 20
25.5209689821
 11
0.5990240837
 21
23.9582950061
  0
LINE
  5
39E
100
AcDbEntity
  8
RACCORDO
100
AcDbLine
 62
253
  6
CONTINUOUS
 10
4.9528473638
 20
21.7813833661
 11
8.0781953158
 21
20.2187093901
  0
LINE
  5
39F
100
AcDbEntity
  8
RACCORDO
100
AcDbLine
 62
7
  6
CONTINUOUS
 10
-2.2507095576
 20
25.629032795
 11
1.0362246932
 21
23.9855656696
  0
LINE
  5
3A0
100
AcDbEntity
  8
RACCORDO
100
AcDbLine
 62
7
  6
CONTINUOUS
 10
5.3977327605
 20
21.8048116359
 11
8.6846670113
 21
20.1613445105
  0
LINE
  5
3A1
100
AcDbEntity
  8
RACCORDO
100
AcDbLine
 62
7
  6
CONTINUOUS
 10
3.6409306647
 20
-24.552304509
 11
3.1122484012
 21
-24.8235285176
  0
LINE
  5
3A2
100
AcDbEntity
  8
RACCORDO
100
AcDbLine
 62
7
  6
CONTINUOUS
 10
3.1105100141
 20
-24.8243977512
 11
3.1122464315
 21
-24.8235295282
  0
LINE
  5
3A3
100
AcDbEntity
  8
RACCORDO
100
AcDbLine
 62
253
  6
CONTINUOUS
 10
3.1763515305
 20
-24.6887517574
 11
1.5750707397
 21
-25.4687863571
  0
LINE
  5
3A4
100
AcDbEntity
  8
RACCORDO
100
AcDbLine
 62
7
  6
CONTINUOUS
 10
3.1105072501
 20
-24.8243990976
 11
1.5088091471
 21
-25.6046369832
  0
ARC
  5
3A5
100
AcDbEntity
  8
RACCORDO
100
AcDbCircle
 62
7
  6
CONTINUOUS
 10
-5.3070353337
 20
-14.8632150856
 40
0.4275888769
100
AcDbArc
 50
58.2960939096
 51
63.3642695164
  0
ARC
  5
3A6
100
AcDbEntity
  8
Z030100_COP
100
AcDbCircle
 62
7
  6
CONTINUOUS
 10
11.3611125228
 20
-11.4842596797
 40
0.3
100
AcDbArc
 50
243.7505903396
 51
296.2494096604
  0
ARC
  5
3A7
100
AcDbEntity
  8
Z030100_COP
100
AcDbCircle
 62
7
  6
CONTINUOUS
 10
16.1694520622
 20
-9.0801016637
 40
0.2999860663
100
AcDbArc
 50
296.5536933647
 51
0.0002301074
  0
ARC
  5
3A8
100
AcDbEntity
  8
Z030100_COP
100
AcDbCircle
 62
7
  6
CONTINUOUS
 10
10.7954405252
 20
-11.7671074323
 40
0.2999860663
100
AcDbArc
 50
296.5536933647
 51
0.0002301074
  0
ARC
  5
3A9
100
AcDbEntity
  8
RACCORDO
100
AcDbCircle
 62
253
  6
CONTINUOUS
 10
0.2596062766
 20
-24.5100511637
 40
0.2736538332
100
AcDbArc
 50
177.0272169969
 51
179.9896086669
  0
ARC
  5
3AA
100
AcDbEntity
  8
RACCORDO
100
AcDbCircle
 62
7
  6
CONTINUOUS
 10
3.5268161609
 20
-24.3298678699
 40
0.2500003968
100
AcDbArc
 50
297.1601719691
 51
0.0000315264
  0
ARC
  5
3AB
100
AcDbEntity
  8
RACCORDO
100
AcDbCircle
 62
7
  6
CONTINUOUS
 10
3.5268162927
 20
-23.9823372092
 40
0.2500002666
100
AcDbArc
 50
0.000151117
 51
63.4365832535
  0
ARC
  5
3AC
100
AcDbEntity
  8
RACCORDO
100
AcDbCircle
 62
7
  6
CONTINUOUS
 10
1.3993255079
 20
-25.3798858575
 40
0.2499992954
100
AcDbArc
 50
243.4349021267
 51
295.9722454555
  0
ARC
  5
3AD
100
AcDbEntity
  8
RACCORDO
100
AcDbCircle
 62
7
  6
CONTINUOUS
 10
0.1627276471
 20
-24.7615872369
 40
0.2499985039
100
AcDbArc
 50
179.9999730928
 51
243.4370632661
  0
ARC
  5
3AE
100
AcDbEntity
  8
RACCORDO
100
AcDbCircle
 62
7
  6
CONTINUOUS
 10
3.319131517
 20
-22.8933139554
 40
0.1877001513
100
AcDbArc
 50
292.7709493523
 51
296.256748339
  0
ARC
  5
3AF
100
AcDbEntity
  8
Z030100_COP
100
AcDbCircle
 62
253
  6
CONTINUOUS
 10
16.253187929
 20
-9.247546723
 40
0.1127702803
100
AcDbArc
 50
296.5528483502
 51
297.9381745882
  0
ARC
  5
3B0
100
AcDbEntity
  8
Z030100_COP
100
AcDbCircle
 62
253
  6
CONTINUOUS
 10
10.879176392
 20
-11.9345524915
 40
0.1127702803
100
AcDbArc
 50
296.5528483502
 51
297.9381745881
  0
ARC
  5
3B1
100
AcDbEntity
  8
RACCORDO
100
AcDbCircle
 62
7
  6
CONTINUOUS
 10
3.069457404
 20
-24.7401160963
 40
0.0937479892
100
AcDbArc
 50
297.1567006962
 51
299.3030104152
  0
ARC
  5
3B2
100
AcDbEntity
  8
RACCORDO
100
AcDbCircle
 62
253
  6
CONTINUOUS
 10
-15.5330862935
 20
18.4959614277
 40
1.3857020372
100
AcDbArc
 50
119.48312046
 51
123.2325025892
  0
ARC
  5
3B3
100
AcDbEntity
  8
RACCORDO
100
AcDbCircle
 62
7
  6
CONTINUOUS
 10
-17.5901922448
 20
14.5090224851
 40
0.9116413245
100
AcDbArc
 50
284.9745544201
 51
285.5921752388
  0
ARC
  5
3B4
100
AcDbEntity
  8
RACCORDO
100
AcDbCircle
 62
253
  6
CONTINUOUS
 10
-11.9534237196
 20
23.5915571014
 40
0.4432010345
100
AcDbArc
 50
259.0877208697
 51
262.3346116587
  0
ARC
  5
3B5
100
AcDbEntity
  8
RACCORDO
100
AcDbCircle
 62
7
  6
CONTINUOUS
 10
-4.7556474964
 20
2.49727454
 40
0.3998010949
100
AcDbArc
 50
62.6407730654
 51
63.4335262744
  0
ARC
  5
3B6
100
AcDbEntity
  8
RACCORDO
100
AcDbCircle
 62
7
  6
CONTINUOUS
 10
-17.2677234997
 20
13.8607364623
 40
0.2793763471
100
AcDbArc
 50
239.4483768049
 51
243.5449277115
  0
ARC
  5
3B7
100
AcDbEntity
  8
RACCORDO
100
AcDbCircle
 62
7
  6
CONTINUOUS
 10
1.39967265
 20
16.2606902169
 40
0.251047369
100
AcDbArc
 50
243.4631702977
 51
258.175002862
  0
ARC
  5
3B8
100
AcDbEntity
  8
RACCORDO
100
AcDbCircle
 62
7
  6
CONTINUOUS
 10
-11.9469678449
 20
22.9340104644
 40
0.251047369
100
AcDbArc
 50
243.4631702977
 51
258.175002862
  0
ARC
  5
3B9
100
AcDbEntity
  8
RACCORDO
100
AcDbCircle
 62
7
  6
CONTINUOUS
 10
-9.8198282782
 20
23.9905894345
 40
0.2500044269
100
AcDbArc
 50
320.5924959386
 51
359.9991037808
  0
ARC
  5
3BA
100
AcDbEntity
  8
RACCORDO
100
AcDbCircle
 62
7
  6
CONTINUOUS
 10
3.5268137887
 20
17.317269108
 40
0.2500027706
100
AcDbArc
 50
320.5925765273
 51
359.9996519884
  0
ARC
  5
3BB
100
AcDbEntity
  8
RACCORDO
100
AcDbCircle
 62
7
  6
CONTINUOUS
 10
-9.8198261886
 20
24.3381181097
 40
0.2500021202
100
AcDbArc
 50
0.0018403594
 51
63.4346144876
  0
ARC
  5
3BC
100
AcDbEntity
  8
RACCORDO
100
AcDbCircle
 62
7
  6
CONTINUOUS
 10
-13.1839092195
 20
23.8912840212
 40
0.2500019648
100
AcDbArc
 50
117.1590003956
 51
179.9982785534
  0
ARC
  5
3BD
100
AcDbEntity
  8
RACCORDO
100
AcDbCircle
 62
7
  6
CONTINUOUS
 10
-11.0687612663
 20
24.962586427
 40
0.250001424
100
AcDbArc
 50
63.4352355626
 51
115.9737880832
  0
ARC
  5
3BE
100
AcDbEntity
  8
RACCORDO
100
AcDbCircle
 62
7
  6
CONTINUOUS
 10
2.2778782498
 20
18.289266398
 40
0.2500012342
100
AcDbArc
 50
63.4334738355
 51
115.9719157382
  0
ARC
  5
3BF
100
AcDbEntity
  8
RACCORDO
100
AcDbCircle
 62
7
  6
CONTINUOUS
 10
0.1627304209
 20
16.8779915835
 40
0.2500010154
100
AcDbArc
 50
179.9973938
 51
243.4448192666
  0
ARC
  5
3C0
100
AcDbEntity
  8
RACCORDO
100
AcDbCircle
 62
7
  6
CONTINUOUS
 10
-13.183910074
 20
23.551311831
 40
0.2500010154
100
AcDbArc
 50
179.9973938
 51
243.4448192666
  0
ARC
  5
3C1
100
AcDbEntity
  8
RACCORDO
100
AcDbCircle
 62
7
  6
CONTINUOUS
 10
3.526815991
 20
17.6647988207
 40
0.2500005676
100
AcDbArc
 50
359.9999858707
 51
63.4332365049
  0
ARC
  5
3C2
100
AcDbEntity
  8
RACCORDO
100
AcDbCircle
 62
7
  6
CONTINUOUS
 10
0.1627277558
 20
17.2179650447
 40
0.2499986126
100
AcDbArc
 50
117.1565718893
 51
180.0000358743
  0
ARC
  5
3C3
100
AcDbEntity
  8
RACCORDO
100
AcDbCircle
 62
253
  6
CONTINUOUS
 10
-9.6421970655
 20
23.8446461784
 40
0.0201077554
100
AcDbArc
 50
320.5893125083
 51
322.4421538353
  0
ARC
  5
3C4
100
AcDbEntity
  8
RACCORDO
100
AcDbCircle
 62
253
  6
CONTINUOUS
 10
549.7967738685
 20
-6.8289373314
 40
554.3068403698
100
AcDbArc
 50
178.1101799316
 51
178.5574459429
  0
ARC
  5
3C5
100
AcDbEntity
  8
RACCORDO
100
AcDbCircle
 62
7
  6
CONTINUOUS
 10
536.6719426982
 20
-0.234558442
 40
554.2659887918
100
AcDbArc
 50
178.1101778121
 51
178.5597545595
  0
ARC
  5
3C6
100
AcDbEntity
  8
RACCORDO
100
AcDbCircle
 62
253
  6
CONTINUOUS
 10
535.7234604168
 20
-0.2926468373
 40
553.2438503622
100
AcDbArc
 50
178.1097502461
 51
178.5578756284
  0
ARC
  5
3C7
100
AcDbEntity
  8
RACCORDO
100
AcDbCircle
 62
7
  6
CONTINUOUS
 10
533.178235224
 20
-6.4803871548
 40
537.4795446041
100
AcDbArc
 50
179.0928298529
 51
179.9834789555
  0
ARC
  5
3C8
100
AcDbEntity
  8
RACCORDO
100
AcDbCircle
 62
253
  6
CONTINUOUS
 10
522.0045244531
 20
-6.3438752647
 40
527.0067604626
100
AcDbArc
 50
179.9772730965
 51
180.9809560687
  0
ARC
  5
3C9
100
AcDbEntity
  8
RACCORDO
100
AcDbCircle
 62
7
  6
CONTINUOUS
 10
520.8269997162
 20
-6.6281037725
 40
525.1289534226
100
AcDbArc
 50
179.0553657395
 51
181.3151431448
  0
ARC
  5
3CA
100
AcDbEntity
  8
RACCORDO
100
AcDbCircle
 62
7
  6
CONTINUOUS
 10
520.4263872663
 20
-6.5221356697
 40
524.940500247
100
AcDbArc
 50
179.0550158974
 51
181.3387436944
  0
ARC
  5
3CB
100
AcDbEntity
  8
RACCORDO
100
AcDbCircle
 62
253
  6
CONTINUOUS
 10
517.4906528554
 20
-6.8472627746
 40
521.1376383835
100
AcDbArc
 50
178.0465720004
 51
181.9534279996
  0
ARC
  5
3CC
100
AcDbEntity
  8
RACCORDO
100
AcDbCircle
 62
253
  6
CONTINUOUS
 10
517.6614724716
 20
-6.8504698499
 40
520.6075754032
100
AcDbArc
 50
178.0465384977
 51
181.9534615023
  0
ARC
  5
3CD
100
AcDbEntity
  8
RACCORDO
100
AcDbCircle
 62
253
  6
CONTINUOUS
 10
513.9334536869
 20
-6.4741088408
 40
518.9346428705
100
AcDbArc
 50
180.9863043218
 51
181.2473816715
  0
ARC
  5
3CE
100
AcDbEntity
  8
RACCORDO
100
AcDbCircle
 62
253
  6
CONTINUOUS
 10
501.78046177
 20
-0.3128725836
 40
518.8158761495
100
AcDbArc
 50
179.9785057829
 51
181.2637654729
  0
ARC
  5
3CF
100
AcDbEntity
  8
RACCORDO
100
AcDbCircle
 62
253
  6
CONTINUOUS
 10
502.4145164172
 20
-0.3125965557
 40
518.7459220355
100
AcDbArc
 50
179.978723945
 51
181.1824183355
  0
ARC
  5
3D0
100
AcDbEntity
  8
RACCORDO
100
AcDbCircle
 62
253
  6
CONTINUOUS
 10
521.231081369
 20
0.5297794496
 40
539.6217717796
100
AcDbArc
 50
178.1135090866
 51
181.8864909134
  0
ARC
  5
3D1
100
AcDbEntity
  8
RACCORDO
100
AcDbCircle
 62
7
  6
CONTINUOUS
 10
517.8746173594
 20
0.1478337354
 40
535.3988190421
100
AcDbArc
 50
179.0910991486
 51
179.9852096501
  0
ARC
  5
3D2
100
AcDbEntity
  8
RACCORDO
100
AcDbCircle
 62
7
  6
CONTINUOUS
 10
507.6041029061
 20
-0.0166553684
 40
525.1289534207
100
AcDbArc
 50
179.0553657395
 51
181.315143145
  0
ARC
  5
3D3
100
AcDbEntity
  8
RACCORDO
100
AcDbCircle
 62
7
  6
CONTINUOUS
 10
507.2034904589
 20
0.0893127344
 40
524.9405002477
100
AcDbArc
 50
179.0550158974
 51
181.3387436944
  0
SPLINE
  5
3D4
100
AcDbEntity
  8
Z030100_COP
100
AcDbSpline
 62
7
  6
CONTINUOUS
 70
0
 71
3
 72
11
 73
7
 74
5
 42
0.0000001
 43
0.0000001
 44
0.0000000001
 12
0.038695698
 22
-0.2358199729
 32
0.0
 13
0.2137594462
 23
-0.1068424812
 33
0.0
 40
0.0
 40
0.0
 40
0.0
 40
0.0
 40
0.2801242091
 40
0.5366803982
 40
0.7737759222
 40
1.0
 40
1.0
 40
1.0
 40
1.0
 10
12.2686183381
 20
-6.4719678128
 30
0.0
 10
12.2722315387
 20
-6.4939874406
 30
0.0
 10
12.2825822516
 20
-6.5357492772
 30
0.0
 10
12.309219375
 20
-6.5918746252
 30
0.0
 10
12.3458215411
 20
-6.636821082
 30
0.0
 10
12.3765733369
 20
-6.6582811789
 30
0.0
 10
12.3926925148
 20
-6.6663379595
 30
0.0
 11
12.2686183381
 21
-6.4719678128
 31
0.0
 11
12.2852502122
 21
-6.5368111148
 31
0.0
 11
12.3120787016
 21
-6.5919397798
 31
0.0
 11
12.3482582597
 21
-6.6355442352
 31
0.0
 11
12.3926925148
 21
-6.6663379595
 31
0.0
  0
SPLINE
  5
3D5
100
AcDbEntity
  8
Z030100_COP
100
AcDbSpline
 62
7
  6
CONTINUOUS
 70
0
 71
3
 72
11
 73
7
 74
5
 42
0.0000001
 43
0.0000001
 44
0.0000000001
 12
0.038695698
 22
-0.2358199729
 32
0.0
 13
0.2137594462
 23
-0.1068424812
 33
0.0
 40
0.0
 40
0.0
 40
0.0
 40
0.0
 40
0.2801242091
 40
0.5366803982
 40
0.7737759222
 40
1.0
 40
1.0
 40
1.0
 40
1.0
 10
14.9909794457
 20
-5.1107872591
 30
0.0
 10
14.9945926463
 20
-5.1328068868
 30
0.0
 10
15.0049433591
 20
-5.1745687235
 30
0.0
 10
15.0315804825
 20
-5.2306940714
 30
0.0
 10
15.0681826487
 20
-5.2756405282
 30
0.0
 10
15.0989344445
 20
-5.2971006251
 30
0.0
 10
15.1150536224
 20
-5.3051574057
 30
0.0
 11
14.9909794457
 21
-5.1107872591
 31
0.0
 11
15.0076113197
 21
-5.175630561
 31
0.0
 11
15.0344398092
 21
-5.230759226
 31
0.0
 11
15.0706193673
 21
-5.2743636814
 31
0.0
 11
15.1150536224
 21
-5.3051574057
 31
0.0
  0
SPLINE
  5
3D6
100
AcDbEntity
  8
Z030100_COP
100
AcDbSpline
 62
7
  6
CONTINUOUS
 70
0
 71
3
 72
9
 73
5
 74
3
 42
0.0000001
 43
0.0000001
 44
0.0000000001
 12
0.0000036503
 22
0.054586999
 32
0.0
 13
-0.0319194126
 23
0.0442819553
 33
0.0
 40
0.0
 40
0.0
 40
0.0
 40
0.0
 40
0.4800568851
 40
1.0
 40
1.0
 40
1.0
 40
1.0
 10
16.4694391633
 20
-3.1045272702
 30
0.0
 10
16.4694397474
 20
-3.0957923153
 30
0.0
 10
16.4661329913
 20
-3.0774831558
 30
0.0
 10
16.457180041
 20
-3.0613174649
 30
0.0
 10
16.4516479481
 20
-3.0536427657
 30
0.0
 11
16.4694391633
 21
-3.1045272702
 31
0.0
 11
16.4649636939
 21
-3.0787074114
 31
0.0
 11
16.4516479481
 21
-3.0536427657
 31
0.0
  0
SPLINE
  5
3D7
100
AcDbEntity
  8
Z030100_COP
100
AcDbSpline
 62
7
  6
CONTINUOUS
 70
0
 71
3
 72
16
 73
12
 74
10
 42
0.0000001
 43
0.0000001
 44
0.0000000001
 12
0.791436686
 22
-0.3955804561
 32
0.0
 13
0.1234991938
 23
0.8761300556
 33
0.0
 40
0.0
 40
0.0
 40
0.0
 40
0.0
 40
0.0449321576
 40
0.0910788362
 40
0.1905617689
 40
0.3038295282
 40
0.4312548577
 40
0.5699115928
 40
0.7148672645
 40
0.8602129431
 40
1.0
 40
1.0
 40
1.0
 40
1.0
 10
15.1150536224
 20
-5.3051574057
 30
0.0
 10
15.126907275
 20
-5.3110821668
 30
0.0
 10
15.1523072608
 20
-5.3205292356
 30
0.0
 10
15.2082308107
 20
-5.3289124024
 30
0.0
 10
15.2854465797
 20
-5.3175541373
 30
0.0
 10
15.3769521882
 20
-5.2739555773
 30
0.0
 10
15.4652269476
 20
-5.2039549254
 30
0.0
 10
15.5450841781
 20
-5.1119579365
 30
0.0
 10
15.6116816603
 20
-5.0037602492
 30
0.0
 10
15.6607956275
 20
-4.8862819195
 30
0.0
 10
15.6804423586
 20
-4.8040024184
 30
0.0
 10
15.6861968882
 20
-4.7631785378
 30
0.0
 11
15.1150536224
 21
-5.3051574057
 31
0.0
 11
15.1522919137
 21
-5.3190792064
 31
0.0
 11
15.1926483147
 21
-5.3252812283
 31
0.0
 11
15.279974436
 21
-5.3142377119
 31
0.0
 11
15.3712092679
 21
-5.2727657656
 31
0.0
 11
15.4602689941
 21
-5.2036299224
 31
0.0
 11
15.5412147585
 21
-5.1114413727
 31
0.0
 11
15.6086492403
 21
-5.0023447446
 31
0.0
 11
15.6580747852
 21
-4.8836213952
 31
0.0
 11
15.6861968882
 21
-4.7631785378
 31
0.0
  0
SPLINE
  5
3D8
100
AcDbEntity
  8
Z030100_COP
100
AcDbSpline
 62
253
  6
CONTINUOUS
 70
0
 71
3
 72
11
 73
7
 74
5
 42
0.0000001
 43
0.0000001
 44
0.0000000001
 12
0.3899458319
 22
-0.1949729159
 32
0.0
 13
0.3899458319
 23
0.1949729159
 33
0.0
 40
0.0
 40
0.0
 40
0.0
 40
0.0
 40
0.2353891693
 40
0.5
 40
0.7646108307
 40
1.0
 40
1.0
 40
1.0
 40
1.0
 10
11.1489804884
 20
-11.5903256968
 30
0.0
 10
11.1795768302
 20
-11.6056238678
 30
0.0
 10
11.249888399
 20
-11.6274437339
 30
0.0
 10
11.3611125228
 20
-11.6378668258
 30
0.0
 10
11.4723366465
 20
-11.6274437339
 30
0.0
 10
11.5426482153
 20
-11.6056238678
 30
0.0
 10
11.5732445571
 20
-11.5903256968
 30
0.0
 11
11.1489804884
 21
-11.5903256968
 31
0.0
 11
11.2463157151
 21
-11.6228431559
 31
0.0
 11
11.3611125228
 21
-11.6342596797
 31
0.0
 11
11.4759093305
 21
-11.6228431559
 31
0.0
 11
11.5732445571
 21
-11.5903256968
 31
0.0
  0
SPLINE
  5
3D9
100
AcDbEntity
  8
Z030100_COP
100
AcDbSpline
 62
253
  6
CONTINUOUS
 70
0
 71
3
 72
11
 73
7
 74
5
 42
0.0000001
 43
0.0000001
 44
0.0000000001
 12
0.1291394194
 22
0.0645697097
 32
0.0
 13
0.0000109324
 23
0.1443822598
 33
0.0
 40
0.0
 40
0.0
 40
0.0
 40
0.0
 40
0.3024647877
 40
0.5655222949
 40
0.7934185356
 40
1.0
 40
1.0
 40
1.0
 40
1.0
 10
16.3815706692
 20
-9.1861626408
 30
0.0
 10
16.3945907115
 20
-9.1796526196
 30
0.0
 10
16.4181286791
 20
-9.1656784137
 30
0.0
 10
16.4467113306
 20
-9.139865181
 30
0.0
 10
16.4650408297
 20
-9.1111117408
 30
0.0
 10
16.4694378786
 20
-9.0900426994
 30
0.0
 10
16.4694386315
 20
-9.0801004666
 30
0.0
 11
16.3815706692
 21
-9.1861626408
 31
0.0
 11
16.4188634506
 21
-9.1634389667
 31
0.0
 11
16.4466041556
 21
-9.1374967753
 31
0.0
 11
16.4636695243
 21
-9.1093639141
 31
0.0
 11
16.4694386315
 21
-9.0801004666
 31
0.0
  0
SPLINE
  5
3DA
100
AcDbEntity
  8
Z030100_COP
100
AcDbSpline
 62
253
  6
CONTINUOUS
 70
0
 71
3
 72
11
 73
7
 74
5
 42
0.0000001
 43
0.0000001
 44
0.0000000001
 12
-0.1689813101
 22
0.0844563722
 32
0.0
 13
0.0
 23
0.1889115189
 33
0.0
 40
0.0
 40
0.0
 40
0.0
 40
0.0
 40
0.2171691612
 40
0.4503999141
 40
0.7103147765
 40
1.0
 40
1.0
 40
1.0
 40
1.0
 10
11.2269481354
 20
-11.7525829791
 30
0.0
 10
11.2147156256
 20
-11.746469206
 30
0.0
 10
11.1915757201
 20
-11.7288573791
 30
0.0
 10
11.1667681385
 20
-11.690821157
 30
0.0
 10
11.1519291002
 20
-11.6433063003
 30
0.0
 10
11.1489804884
 20
-11.608567322
 30
0.0
 10
11.1489804884
 20
-11.5903256968
 30
0.0
 11
11.2269481354
 21
-11.7525829791
 31
0.0
 11
11.1941235904
 21
-11.7279727799
 31
0.0
 11
11.1694615581
 21
-11.6914616086
 31
0.0
 11
11.1541639447
 21
-11.6448045348
 31
0.0
 11
11.1489804884
 21
-11.5903256968
 31
0.0
  0
SPLINE
  5
3DB
100
AcDbEntity
  8
Z030100_COP
100
AcDbSpline
 62
7
  6
CONTINUOUS
 70
0
 71
3
 72
11
 73
7
 74
5
 42
0.0000001
 43
0.0000001
 44
0.0000000001
 12
0.129137549
 22
0.0645687745
 32
0.0
 13
0.0000096549
 23
0.1443801687
 33
0.0
 40
0.0
 40
0.0
 40
0.0
 40
0.0
 40
0.3024870021
 40
0.5655084124
 40
0.7934350801
 40
1.0
 40
1.0
 40
1.0
 40
1.0
 10
16.3815706692
 20
-3.2105873547
 30
0.0
 10
16.3945914792
 20
-3.2040769497
 30
0.0
 10
16.4181301416
 20
-3.1901058648
 30
0.0
 10
16.4467112947
 20
-3.1642898826
 30
0.0
 10
16.4650375314
 20
-3.1355371473
 30
0.0
 10
16.4694384985
 20
-3.1144685629
 30
0.0
 10
16.4694391633
 20
-3.1045272702
 30
0.0
 11
16.3815706692
 21
-3.2105873547
 31
0.0
 11
16.4188664825
 21
-3.1878637081
 31
0.0
 11
16.4466018225
 21
-3.1619242154
 31
0.0
 11
16.463668423
 21
-3.1337875207
 31
0.0
 11
16.4694391633
 21
-3.1045272702
 31
0.0
  0
SPLINE
  5
3DC
100
AcDbEntity
  8
Z030100_COP
100
AcDbSpline
 62
253
  6
CONTINUOUS
 70
0
 71
3
 72
11
 73
7
 74
5
 42
0.0000001
 43
0.0000001
 44
0.0000000001
 12
0.1689813101
 22
0.0844563722
 32
0.0
 13
-0.0
 23
0.1889115189
 33
0.0
 40
0.0
 40
0.0
 40
0.0
 40
0.0
 40
0.2171691612
 40
0.4503999141
 40
0.7103147765
 40
1.0
 40
1.0
 40
1.0
 40
1.0
 10
11.4952769102
 20
-11.7525829791
 30
0.0
 10
11.5075094199
 20
-11.746469206
 30
0.0
 10
11.5306493254
 20
-11.7288573791
 30
0.0
 10
11.5554569071
 20
-11.690821157
 30
0.0
 10
11.5702959453
 20
-11.6433063003
 30
0.0
 10
11.5732445571
 20
-11.608567322
 30
0.0
 10
11.5732445571
 20
-11.5903256968
 30
0.0
 11
11.4952769102
 21
-11.7525829791
 31
0.0
 11
11.5281014552
 21
-11.7279727799
 31
0.0
 11
11.5527634874
 21
-11.6914616086
 31
0.0
 11
11.5680611008
 21
-11.6448045348
 31
0.0
 11
11.5732445571
 21
-11.5903256968
 31
0.0
  0
SPLINE
  5
3DD
100
AcDbEntity
  8
Z030100_COP
100
AcDbSpline
 62
253
  6
CONTINUOUS
 70
0
 71
3
 72
11
 73
7
 74
5
 42
0.0000001
 43
0.0000001
 44
0.0000000001
 12
0.1645202963
 22
0.0872495813
 32
0.0
 13
0.0
 23
0.1862241051
 33
0.0
 40
0.0
 40
0.0
 40
0.0
 40
0.0
 40
0.217163895
 40
0.4507603489
 40
0.710782651
 40
1.0
 40
1.0
 40
1.0
 40
1.0
 10
16.306022896
 20
-9.3471740405
 30
0.0
 10
16.3179321854
 20
-9.3408582209
 30
0.0
 10
16.3403629768
 20
-9.3230208938
 30
0.0
 10
16.3643526001
 20
-9.2852345551
 30
0.0
 10
16.3787095211
 20
-9.2383326296
 30
0.0
 10
16.3815706692
 20
-9.2041157215
 30
0.0
 10
16.3815706692
 20
-9.1861626408
 30
0.0
 11
16.306022896
 21
-9.3471740405
 31
0.0
 11
16.3378701168
 21
-9.3222493278
 31
0.0
 11
16.3617570445
 21
-9.2858930771
 31
0.0
 11
16.3765577458
 21
-9.2397880876
 31
0.0
 11
16.3815706692
 21
-9.1861626408
 31
0.0
  0
SPLINE
  5
3DE
100
AcDbEntity
  8
Z030100_COP
100
AcDbSpline
 62
7
  6
CONTINUOUS
 70
0
 71
3
 72
11
 73
7
 74
5
 42
0.0000001
 43
0.0000001
 44
0.0000000001
 12
0.3153258211
 22
-0.0568234688
 32
0.0
 13
0.2865788269
 23
0.1432894134
 33
0.0
 40
0.0
 40
0.0
 40
0.0
 40
0.0
 40
0.2599173675
 40
0.5232369527
 40
0.7745322535
 40
1.0
 40
1.0
 40
1.0
 40
1.0
 10
11.259355491
 20
-5.6497890758
 30
0.0
 10
11.2866750435
 20
-5.6547122113
 30
0.0
 10
11.3425064485
 20
-5.6603395327
 30
0.0
 10
11.425427745
 20
-5.6571689015
 30
0.0
 10
11.5034430303
 20
-5.6429191445
 30
0.0
 10
11.551706463
 20
-5.6255194578
 30
0.0
 10
11.5732445571
 20
-5.6147504107
 30
0.0
 11
11.259355491
 21
-5.6497890758
 31
0.0
 11
11.3421893796
 21
-5.6583858071
 31
0.0
 11
11.4264933484
 21
-5.6550769891
 31
0.0
 11
11.5056115934
 21
-5.6401381845
 31
0.0
 11
11.5732445571
 21
-5.6147504107
 31
0.0
  0
SPLINE
  5
3DF
100
AcDbEntity
  8
Z030100_COP
100
AcDbSpline
 62
7
  6
CONTINUOUS
 70
0
 71
3
 72
16
 73
12
 74
10
 42
0.0000001
 43
0.0000001
 44
0.0000000001
 12
0.791436686
 22
-0.3955804561
 32
0.0
 13
0.1234991938
 23
0.8761300556
 33
0.0
 40
0.0
 40
0.0
 40
0.0
 40
0.0
 40
0.0449321576
 40
0.0910788362
 40
0.1905617689
 40
0.3038295282
 40
0.4312548577
 40
0.5699115928
 40
0.7148672645
 40
0.8602129431
 40
1.0
 40
1.0
 40
1.0
 40
1.0
 10
12.3926925148
 20
-6.6663379595
 30
0.0
 10
12.4045461674
 20
-6.6722627206
 30
0.0
 10
12.4299461533
 20
-6.6817097894
 30
0.0
 10
12.4858697031
 20
-6.6900929562
 30
0.0
 10
12.5630854721
 20
-6.678734691
 30
0.0
 10
12.6545910807
 20
-6.6351361311
 30
0.0
 10
12.74286584
 20
-6.5651354792
 30
0.0
 10
12.8227230705
 20
-6.4731384903
 30
0.0
 10
12.8893205528
 20
-6.364940803
 30
0.0
 10
12.9384345199
 20
-6.2474624733
 30
0.0
 10
12.958081251
 20
-6.1651829722
 30
0.0
 10
12.9638357806
 20
-6.1243590916
 30
0.0
 11
12.3926925148
 21
-6.6663379595
 31
0.0
 11
12.4299308061
 21
-6.6802597601
 31
0.0
 11
12.4702872072
 21
-6.686461782
 31
0.0
 11
12.5576133285
 21
-6.6754182657
 31
0.0
 11
12.6488481603
 21
-6.6339463194
 31
0.0
 11
12.7379078865
 21
-6.5648104762
 31
0.0
 11
12.818853651
 21
-6.4726219265
 31
0.0
 11
12.8862881327
 21
-6.3635252984
 31
0.0
 11
12.9357136776
 21
-6.244801949
 31
0.0
 11
12.9638357806
 21
-6.1243590916
 31
0.0
  0
SPLINE
  5
3E0
100
AcDbEntity
  8
Z030100_COP
100
AcDbSpline
 62
7
  6
CONTINUOUS
 70
0
 71
3
 72
11
 73
7
 74
5
 42
0.0000001
 43
0.0000001
 44
0.0000000001
 12
0.038695698
 22
-0.2358199729
 32
0.0
 13
0.2137594462
 23
-0.1068424812
 33
0.0
 40
0.0
 40
0.0
 40
0.0
 40
0.0
 40
0.2801242091
 40
0.5366803982
 40
0.7737759222
 40
1.0
 40
1.0
 40
1.0
 40
1.0
 10
6.8946068011
 20
-9.1589735813
 30
0.0
 10
6.8982200017
 20
-9.1809932091
 30
0.0
 10
6.9085707145
 20
-9.2227550457
 30
0.0
 10
6.9352078379
 20
-9.2788803937
 30
0.0
 10
6.9718100041
 20
-9.3238268505
 30
0.0
 10
7.0025617999
 20
-9.3452869474
 30
0.0
 10
7.0186809778
 20
-9.353343728
 30
0.0
 11
6.8946068011
 21
-9.1589735813
 31
0.0
 11
6.9112386751
 21
-9.2238168833
 31
0.0
 11
6.9380671646
 21
-9.2789455483
 31
0.0
 11
6.9742467227
 21
-9.3225500037
 31
0.0
 11
7.0186809778
 21
-9.353343728
 31
0.0
  0
SPLINE
  5
3E1
100
AcDbEntity
  8
Z030100_COP
100
AcDbSpline
 62
7
  6
CONTINUOUS
 70
0
 71
3
 72
11
 73
7
 74
5
 42
0.0000001
 43
0.0000001
 44
0.0000000001
 12
0.038695698
 22
-0.2358199729
 32
0.0
 13
0.2137594462
 23
-0.1068424812
 33
0.0
 40
0.0
 40
0.0
 40
0.0
 40
0.0
 40
0.2801242091
 40
0.5366803982
 40
0.7737759222
 40
1.0
 40
1.0
 40
1.0
 40
1.0
 10
9.6169679087
 20
-7.7977930276
 30
0.0
 10
9.6205811093
 20
-7.8198126554
 30
0.0
 10
9.6309318221
 20
-7.861574492
 30
0.0
 10
9.6575689455
 20
-7.9176998399
 30
0.0
 10
9.6941711116
 20
-7.9626462967
 30
0.0
 10
9.7249229075
 20
-7.9841063936
 30
0.0
 10
9.7410420853
 20
-7.9921631742
 30
0.0
 11
9.6169679087
 21
-7.7977930276
 31
0.0
 11
9.6335997827
 21
-7.8626363295
 31
0.0
 11
9.6604282722
 21
-7.9177649945
 31
0.0
 11
9.6966078303
 21
-7.9613694499
 31
0.0
 11
9.7410420853
 21
-7.9921631742
 31
0.0
  0
SPLINE
  5
3E2
100
AcDbEntity
  8
Z030100_COP
100
AcDbSpline
 62
7
  6
CONTINUOUS
 70
0
 71
3
 72
9
 73
5
 74
3
 42
0.0000001
 43
0.0000001
 44
0.0000000001
 12
0.0000036503
 22
0.054586999
 32
0.0
 13
-0.0319194126
 23
0.0442819553
 33
0.0
 40
0.0
 40
0.0
 40
0.0
 40
0.0
 40
0.4800568851
 40
1.0
 40
1.0
 40
1.0
 40
1.0
 10
11.0954276263
 20
-5.7915330387
 30
0.0
 10
11.0954282104
 20
-5.7827980838
 30
0.0
 10
11.0921214543
 20
-5.7644889243
 30
0.0
 10
11.083168504
 20
-5.7483232334
 30
0.0
 10
11.0776364111
 20
-5.7406485342
 30
0.0
 11
11.0954276263
 21
-5.7915330387
 31
0.0
 11
11.0909521568
 21
-5.7657131799
 31
0.0
 11
11.0776364111
 21
-5.7406485342
 31
0.0
  0
SPLINE
  5
3E3
100
AcDbEntity
  8
Z030100_COP
100
AcDbSpline
 62
7
  6
CONTINUOUS
 70
0
 71
3
 72
16
 73
12
 74
10
 42
0.0000001
 43
0.0000001
 44
0.0000000001
 12
0.791436686
 22
-0.3955804561
 32
0.0
 13
0.1234991938
 23
0.8761300556
 33
0.0
 40
0.0
 40
0.0
 40
0.0
 40
0.0
 40
0.0449321576
 40
0.0910788362
 40
0.1905617689
 40
0.3038295282
 40
0.4312548577
 40
0.5699115928
 40
0.7148672645
 40
0.8602129431
 40
1.0
 40
1.0
 40
1.0
 40
1.0
 10
9.7410420853
 20
-7.9921631742
 30
0.0
 10
9.752895738
 20
-7.9980879353
 30
0.0
 10
9.7782957238
 20
-8.0075350041
 30
0.0
 10
9.8342192736
 20
-8.015918171
 30
0.0
 10
9.9114350427
 20
-8.0045599058
 30
0.0
 10
10.0029406512
 20
-7.9609613458
 30
0.0
 10
10.0912154105
 20
-7.890960694
 30
0.0
 10
10.171072641
 20
-7.798963705
 30
0.0
 10
10.2376701233
 20
-7.6907660177
 30
0.0
 10
10.2867840905
 20
-7.573287688
 30
0.0
 10
10.3064308216
 20
-7.491008187
 30
0.0
 10
10.3121853512
 20
-7.4501843063
 30
0.0
 11
9.7410420853
 21
-7.9921631742
 31
0.0
 11
9.7782803767
 21
-8.0060849749
 31
0.0
 11
9.8186367777
 21
-8.0122869968
 31
0.0
 11
9.905962899
 21
-8.0012434804
 31
0.0
 11
9.9971977308
 21
-7.9597715341
 31
0.0
 11
10.086257457
 21
-7.8906356909
 31
0.0
 11
10.1672032215
 21
-7.7984471412
 31
0.0
 11
10.2346377033
 21
-7.6893505131
 31
0.0
 11
10.2840632482
 21
-7.5706271637
 31
0.0
 11
10.3121853512
 21
-7.4501843063
 31
0.0
  0
SPLINE
  5
3E4
100
AcDbEntity
  8
Z030100_COP
100
AcDbSpline
 62
253
  6
CONTINUOUS
 70
0
 71
3
 72
11
 73
7
 74
5
 42
0.0000001
 43
0.0000001
 44
0.0000000001
 12
0.1291394194
 22
0.0645697097
 32
0.0
 13
0.0000109324
 23
0.1443822598
 33
0.0
 40
0.0
 40
0.0
 40
0.0
 40
0.0
 40
0.3024647877
 40
0.5655222949
 40
0.7934185356
 40
1.0
 40
1.0
 40
1.0
 40
1.0
 10
11.0075591322
 20
-11.8731684093
 30
0.0
 10
11.0205791745
 20
-11.8666583881
 30
0.0
 10
11.0441171421
 20
-11.8526841822
 30
0.0
 10
11.0726997936
 20
-11.8268709495
 30
0.0
 10
11.0910292926
 20
-11.7981175093
 30
0.0
 10
11.0954263416
 20
-11.777048468
 30
0.0
 10
11.0954270944
 20
-11.7671062351
 30
0.0
 11
11.0075591322
 21
-11.8731684093
 31
0.0
 11
11.0448519136
 21
-11.8504447352
 31
0.0
 11
11.0725926186
 21
-11.8245025438
 31
0.0
 11
11.0896579873
 21
-11.7963696826
 31
0.0
 11
11.0954270944
 21
-11.7671062351
 31
0.0
  0
SPLINE
  5
3E5
100
AcDbEntity
  8
Z030100_COP
100
AcDbSpline
 62
7
  6
CONTINUOUS
 70
0
 71
3
 72
11
 73
7
 74
5
 42
0.0000001
 43
0.0000001
 44
0.0000000001
 12
0.129137549
 22
0.0645687745
 32
0.0
 13
0.0000096549
 23
0.1443801687
 33
0.0
 40
0.0
 40
0.0
 40
0.0
 40
0.0
 40
0.3024870021
 40
0.5655084124
 40
0.7934350801
 40
1.0
 40
1.0
 40
1.0
 40
1.0
 10
11.0075591322
 20
-5.8975931232
 30
0.0
 10
11.0205799422
 20
-5.8910827182
 30
0.0
 10
11.0441186046
 20
-5.8771116333
 30
0.0
 10
11.0726997577
 20
-5.8512956511
 30
0.0
 10
11.0910259944
 20
-5.8225429158
 30
0.0
 10
11.0954269615
 20
-5.8014743314
 30
0.0
 10
11.0954276263
 20
-5.7915330387
 30
0.0
 11
11.0075591322
 21
-5.8975931232
 31
0.0
 11
11.0448549454
 21
-5.8748694766
 31
0.0
 11
11.0725902855
 21
-5.8489299839
 31
0.0
 11
11.089656886
 21
-5.8207932892
 31
0.0
 11
11.0954276263
 21
-5.7915330387
 31
0.0
  0
SPLINE
  5
3E6
100
AcDbEntity
  8
Z030100_COP
100
AcDbSpline
 62
253
  6
CONTINUOUS
 70
0
 71
3
 72
11
 73
7
 74
5
 42
0.0000001
 43
0.0000001
 44
0.0000000001
 12
0.1645202963
 22
0.0872495813
 32
0.0
 13
0.0
 23
0.1862241051
 33
0.0
 40
0.0
 40
0.0
 40
0.0
 40
0.0
 40
0.217163895
 40
0.4507603489
 40
0.710782651
 40
1.0
 40
1.0
 40
1.0
 40
1.0
 10
10.932011359
 20
-12.034179809
 30
0.0
 10
10.9439206484
 20
-12.0278639894
 30
0.0
 10
10.9663514397
 20
-12.0100266623
 30
0.0
 10
10.9903410631
 20
-11.9722403236
 30
0.0
 10
11.0046979841
 20
-11.9253383981
 30
0.0
 10
11.0075591322
 20
-11.89112149
 30
0.0
 10
11.0075591322
 20
-11.8731684093
 30
0.0
 11
10.932011359
 21
-12.034179809
 31
0.0
 11
10.9638585797
 21
-12.0092550963
 31
0.0
 11
10.9877455075
 21
-11.9728988456
 31
0.0
 11
11.0025462087
 21
-11.9267938562
 31
0.0
 11
11.0075591322
 21
-11.8731684093
 31
0.0
  0
SPLINE
  5
3E7
100
AcDbEntity
  8
Z030100_COP
100
AcDbSpline
 62
7
  6
CONTINUOUS
 70
0
 71
3
 72
16
 73
12
 74
10
 42
0.0000001
 43
0.0000001
 44
0.0000000001
 12
0.791436686
 22
-0.3955804561
 32
0.0
 13
0.1234991938
 23
0.8761300556
 33
0.0
 40
0.0
 40
0.0
 40
0.0
 40
0.0
 40
0.0449321576
 40
0.0910788362
 40
0.1905617689
 40
0.3038295282
 40
0.4312548577
 40
0.5699115928
 40
0.7148672645
 40
0.8602129431
 40
1.0
 40
1.0
 40
1.0
 40
1.0
 10
7.0186809778
 20
-9.353343728
 30
0.0
 10
7.0305346304
 20
-9.3592684891
 30
0.0
 10
7.0559346163
 20
-9.3687155579
 30
0.0
 10
7.1118581661
 20
-9.3770987247
 30
0.0
 10
7.1890739351
 20
-9.3657404596
 30
0.0
 10
7.2805795436
 20
-9.3221418996
 30
0.0
 10
7.368854303
 20
-9.2521412477
 30
0.0
 10
7.4487115335
 20
-9.1601442588
 30
0.0
 10
7.5153090157
 20
-9.0519465715
 30
0.0
 10
7.5644229829
 20
-8.9344682418
 30
0.0
 10
7.584069714
 20
-8.8521887407
 30
0.0
 10
7.5898242436
 20
-8.8113648601
 30
0.0
 11
7.0186809778
 21
-9.353343728
 31
0.0
 11
7.0559192691
 21
-9.3672655286
 31
0.0
 11
7.0962756701
 21
-9.3734675506
 31
0.0
 11
7.1836017914
 21
-9.3624240342
 31
0.0
 11
7.2748366233
 21
-9.3209520879
 31
0.0
 11
7.3638963495
 21
-9.2518162447
 31
0.0
 11
7.444842114
 21
-9.159627695
 31
0.0
 11
7.5122765957
 21
-9.0505310669
 31
0.0
 11
7.5617021406
 21
-8.9318077175
 31
0.0
 11
7.5898242436
 21
-8.8113648601
 31
0.0
  0
SPLINE
  5
3E8
100
AcDbEntity
  8
RACCORDO
100
AcDbSpline
 62
253
  6
CONTINUOUS
 70
0
 71
3
 72
11
 73
7
 74
5
 42
0.0000001
 43
0.0000001
 44
0.0000000001
 12
-0.3586335921
 22
-0.217744845
 32
0.0
 13
0.0000000033
 23
-0.4195603305
 33
0.0
 40
0.0
 40
0.0
 40
0.0
 40
0.0
 40
0.2345987475
 40
0.4936433664
 40
0.7561526099
 40
1.0
 40
1.0
 40
1.0
 40
1.0
 10
-6.1186812691
 20
-15.174114458
 30
0.0
 10
-6.1467262663
 20
-15.1911420139
 30
0.0
 10
-6.1994562545
 20
-15.237425714
 30
0.0
 10
-6.2604285278
 20
-15.3248343191
 30
0.0
 10
-6.3010908699
 20
-15.424742554
 30
0.0
 10
-6.3123247787
 20
-15.4956522901
 30
0.0
 10
-6.3123247785
 20
-15.5297551873
 30
0.0
 11
-6.1186812691
 21
-15.174114458
 31
0.0
 11
-6.1939258271
 21
-15.2375683172
 31
0.0
 11
-6.2566097522
 21
-15.3263552603
 31
0.0
 11
-6.2978716359
 21
-15.428472538
 31
0.0
 11
-6.3123247785
 21
-15.5297551873
 31
0.0
  0
SPLINE
  5
3E9
100
AcDbEntity
  8
RACCORDO
100
AcDbSpline
 62
253
  6
CONTINUOUS
 70
0
 71
3
 72
11
 73
7
 74
5
 42
0.0000001
 43
0.0000001
 44
0.0000000001
 12
-0.1684337701
 22
0.0847613059
 32
0.0
 13
-0.0000000015
 23
0.188558781
 33
0.0
 40
0.0
 40
0.0
 40
0.0
 40
0.0
 40
0.2170835201
 40
0.4506974028
 40
0.7115247267
 40
1.0
 40
1.0
 40
1.0
 40
1.0
 10
-15.9305103406
 20
-10.9610957892
 30
0.0
 10
-15.9426984059
 20
-10.9549623616
 30
0.0
 10
-15.9657726111
 20
-10.9373229612
 30
0.0
 10
-15.9904511655
 20
-10.8992015233
 30
0.0
 10
-16.0050927894
 20
-10.8517345148
 30
0.0
 10
-16.0081521375
 20
-10.8170961233
 30
0.0
 10
-16.0081521376
 20
-10.798964608
 30
0.0
 11
-15.9305103406
 21
-10.9610957892
 31
0.0
 11
-15.9631997393
 21
-10.9364601641
 31
0.0
 11
-15.9877431592
 21
-10.8998812283
 31
0.0
 11
-16.0029493575
 21
-10.853109762
 31
0.0
 11
-16.0081521376
 21
-10.798964608
 31
0.0
  0
SPLINE
  5
3EA
100
AcDbEntity
  8
RACCORDO
100
AcDbSpline
 62
253
  6
CONTINUOUS
 70
0
 71
3
 72
11
 73
7
 74
5
 42
0.0000001
 43
0.0000001
 44
0.0000000001
 12
-0.35863359
 22
-0.2177448475
 32
0.0
 13
0.0
 23
-0.41956033
 33
0.0
 40
0.0
 40
0.0
 40
0.0
 40
0.0
 40
0.2345987474
 40
0.4936433667
 40
0.7561526103
 40
1.0
 40
1.0
 40
1.0
 40
1.0
 10
-15.8145086283
 20
-10.3262007784
 30
0.0
 10
-15.8425536252
 20
-10.3432283345
 30
0.0
 10
-15.8952836131
 20
-10.389512035
 30
0.0
 10
-15.9562558862
 20
-10.47692064
 30
0.0
 10
-15.9969182284
 20
-10.5768288748
 30
0.0
 10
-16.0081521376
 20
-10.6477386107
 30
0.0
 10
-16.0081521376
 20
-10.6818415078
 30
0.0
 11
-15.8145086283
 21
-10.3262007784
 31
0.0
 11
-15.8897531857
 21
-10.389654638
 31
0.0
 11
-15.9524371107
 21
-10.4784415812
 31
0.0
 11
-15.9936989946
 21
-10.5805588588
 31
0.0
 11
-16.0081521376
 21
-10.6818415078
 31
0.0
  0
SPLINE
  5
3EB
100
AcDbEntity
  8
RACCORDO
100
AcDbSpline
 62
253
  6
CONTINUOUS
 70
0
 71
3
 72
13
 73
9
 74
7
 42
0.0000001
 43
0.0000001
 44
0.0000000001
 12
0.71819087
 22
-0.3162768994
 32
0.0
 13
-0.7208096357
 23
-0.3102622632
 33
0.0
 40
0.0
 40
0.0
 40
0.0
 40
0.0
 40
0.2633012059
 40
0.5499513615
 40
0.6834476688
 40
0.8021591693
 40
0.9055798481
 40
1.0
 40
1.0
 40
1.0
 40
1.0
 10
-6.1186792201
 20
-15.1741153604
 30
0.0
 10
-6.0556457127
 20
-15.2018740567
 30
0.0
 10
-5.9430549489
 20
-15.30151083
 30
0.0
 10
-5.8608949307
 20
-15.4651576462
 30
0.0
 10
-5.8396291634
 20
-15.6057264879
 30
0.0
 10
-5.8499805513
 20
-15.6995238443
 30
0.0
 10
-5.8869426111
 20
-15.7760316961
 30
0.0
 10
-5.9297956075
 20
-15.8091226693
 30
0.0
 10
-5.952481926
 20
-15.8188876726
 30
0.0
 11
-6.1186792201
 21
-15.1741153604
 31
0.0
 11
-5.9584891483
 21
-15.3046261086
 31
0.0
 11
-5.8582759251
 21
-15.5060186501
 31
0.0
 11
-5.8438910439
 21
-15.6097872871
 31
0.0
 11
-5.8559867353
 21
-15.7021572944
 31
0.0
 11
-5.8933911295
 21
-15.7741831227
 31
0.0
 11
-5.952481926
 21
-15.8188876726
 31
0.0
  0
SPLINE
  5
3EC
100
AcDbEntity
  8
RACCORDO
100
AcDbSpline
 62
253
  6
CONTINUOUS
 70
0
 71
3
 72
9
 73
5
 74
3
 42
0.0000001
 43
0.0000001
 44
0.0000000001
 12
0.1455090885
 22
0.0825213245
 32
0.0
 13
0.1455433123
 23
-0.0824609489
 33
0.0
 40
0.0
 40
0.0
 40
0.0
 40
0.0
 40
0.4587604525
 40
1.0
 40
1.0
 40
1.0
 40
1.0
 10
-15.9755833358
 20
-10.3135310733
 30
0.0
 10
-15.953332064
 20
-10.3009118999
 30
0.0
 10
-15.8945972761
 20
-10.2902103323
 30
0.0
 10
-15.8407665604
 20
-10.3113237362
 30
0.0
 10
-15.8145086283
 20
-10.3262007784
 30
0.0
 11
-15.9755833358
 21
-10.3135310733
 31
0.0
 11
-15.9004737849
 21
-10.2977888035
 31
0.0
 11
-15.8145086283
 21
-10.3262007784
 31
0.0
  0
LINE
  5
3ED
100
AcDbEntity
  8
RACCORDO
100
AcDbLine
 62
253
  6
CONTINUOUS
 10
-15.8145086283
 20
-10.3262007784
 11
-15.5935314999
 21
-10.208092594
  0
LINE
  5
3EE
100
AcDbEntity
  8
RACCORDO
100
AcDbLine
 62
253
  6
CONTINUOUS
 10
-15.5935314999
 20
-10.208092594
 11
-14.8368909037
 21
-9.8036822021
  0
LINE
  5
3EF
100
AcDbEntity
  8
RACCORDO
100
AcDbLine
 62
253
  6
CONTINUOUS
 10
-14.8368909037
 20
-9.8036822021
 11
-14.6595523651
 21
-9.7088980361
  0
SPLINE
  5
3F0
100
AcDbEntity
  8
RACCORDO
100
AcDbSpline
 62
253
  6
CONTINUOUS
 70
0
 71
3
 72
13
 73
9
 74
7
 42
0.0000001
 43
0.0000001
 44
0.0000000001
 12
-0.1532227183
 22
0.0766089139
 32
0.0
 13
0.1532264299
 23
-0.07660149
 33
0.0
 40
0.0
 40
0.0
 40
0.0
 40
0.0
 40
0.2803772962
 40
0.434168645
 40
0.5774113964
 40
0.7943801926
 40
0.8895486722
 40
1.0
 40
1.0
 40
1.0
 40
1.0
 10
-16.0081521376
 20
-10.798964608
 30
0.0
 10
-16.0224721948
 20
-10.7918048079
 30
0.0
 10
-16.0401611398
 20
-10.771994847
 30
0.0
 10
-16.0531686742
 20
-10.7414670667
 30
0.0
 10
-16.0584208233
 20
-10.712967101
 30
0.0
 10
-16.0504123848
 20
-10.6827992405
 30
0.0
 10
-16.0254797072
 20
-10.6752662046
 30
0.0
 10
-16.0137934918
 20
-10.6790212623
 30
0.0
 10
-16.0081521376
 20
-10.6818415078
 30
0.0
 11
-16.0081521376
 21
-10.798964608
 31
0.0
 11
-16.0420205139
 21
-10.7649076843
 31
0.0
 11
-16.0524261681
 21
-10.7407041624
 31
0.0
 11
-16.0560836774
 21
-10.7164397704
 31
0.0
 11
-16.0420245148
 21
-10.6820330511
 31
0.0
 11
-16.026476791
 21
-10.6771282252
 31
0.0
 11
-16.0081521376
 21
-10.6818415078
 31
0.0
  0
SPLINE
  5
3F1
100
AcDbEntity
  8
RACCORDO
100
AcDbSpline
 62
253
  6
CONTINUOUS
 70
0
 71
3
 72
13
 73
9
 74
7
 42
0.0000001
 43
0.0000001
 44
0.0000000001
 12
0.1532227183
 22
-0.0766089138
 32
0.0
 13
-0.1532264299
 23
0.07660149
 33
0.0
 40
0.0
 40
0.0
 40
0.0
 40
0.0
 40
0.2803772962
 40
0.434168645
 40
0.5774113964
 40
0.7943801926
 40
0.8895486722
 40
1.0
 40
1.0
 40
1.0
 40
1.0
 10
-6.3123247785
 20
-15.5297551873
 30
0.0
 10
-6.2980047213
 20
-15.5369149874
 30
0.0
 10
-6.2803157763
 20
-15.5567249483
 30
0.0
 10
-6.2673082419
 20
-15.5872527286
 30
0.0
 10
-6.2620560927
 20
-15.6157526943
 30
0.0
 10
-6.2700645312
 20
-15.6459205548
 30
0.0
 10
-6.2949972089
 20
-15.6534535907
 30
0.0
 10
-6.3066834242
 20
-15.649698533
 30
0.0
 10
-6.3123247785
 20
-15.6468782876
 30
0.0
 11
-6.3123247785
 21
-15.5297551873
 31
0.0
 11
-6.2784564022
 21
-15.563812111
 31
0.0
 11
-6.2680507479
 21
-15.5880156329
 31
0.0
 11
-6.2643932387
 21
-15.6122800249
 31
0.0
 11
-6.2784524012
 21
-15.6466867443
 31
0.0
 11
-6.2940001251
 21
-15.6515915701
 31
0.0
 11
-6.3123247785
 21
-15.6468782876
 31
0.0
  0
SPLINE
  5
3F2
100
AcDbEntity
  8
RACCORDO
100
AcDbSpline
 62
7
  6
CONTINUOUS
 70
0
 71
3
 72
10
 73
6
 74
4
 42
0.0000001
 43
0.0000001
 44
0.0000000001
 12
0.210378215
 22
0.1192790895
 32
0.0
 13
0.2163081034
 23
-0.1081540517
 33
0.0
 40
0.0
 40
0.0
 40
0.0
 40
0.0
 40
0.2280784972
 40
0.4661382489
 40
1.0
 40
1.0
 40
1.0
 40
1.0
 10
-14.8927197299
 20
-9.6992319879
 30
0.0
 10
-14.8767254809
 20
-9.6901636561
 30
0.0
 10
-14.8410563598
 20
-9.6763955961
 30
0.0
 10
-14.7598190557
 20
-9.6701218963
 30
0.0
 10
-14.6980452394
 20
-9.6896515989
 30
0.0
 10
-14.6595523651
 20
-9.7088980361
 30
0.0
 11
-14.8927197299
 21
-9.6992319879
 31
0.0
 11
-14.8412937447
 21
-9.6792864662
 31
0.0
 11
-14.783938141
 21
-9.6742957357
 31
0.0
 11
-14.6595523651
 21
-9.7088980361
 31
0.0
  0
SPLINE
  5
3F3
100
AcDbEntity
  8
RACCORDO
100
AcDbSpline
 62
253
  6
CONTINUOUS
 70
0
 71
3
 72
11
 73
7
 74
5
 42
0.0000001
 43
0.0000001
 44
0.0000000001
 12
-0.1690081552
 22
0.0843870467
 32
0.0
 13
0.0
 23
0.1889045531
 33
0.0
 40
0.0
 40
0.0
 40
0.0
 40
0.0
 40
0.2170868256
 40
0.4506471309
 40
0.7114626697
 40
1.0
 40
1.0
 40
1.0
 40
1.0
 10
-6.2343698244
 20
-15.8091664445
 30
0.0
 10
-6.246599639
 20
-15.8030600058
 30
0.0
 10
-6.269764668
 20
-15.7854506271
 30
0.0
 10
-6.2945509974
 20
-15.7472988901
 30
0.0
 10
-6.3092534005
 20
-15.6997525405
 30
0.0
 10
-6.3123247785
 20
-15.6650469594
 30
0.0
 10
-6.3123247785
 20
-15.6468782876
 30
0.0
 11
-6.2343698244
 21
-15.8091664445
 31
0.0
 11
-6.2671855335
 21
-15.7845729113
 31
0.0
 11
-6.2918294323
 21
-15.7479763808
 31
0.0
 11
-6.3070997549
 21
-15.7011332859
 31
0.0
 11
-6.3123247785
 21
-15.6468782876
 31
0.0
  0
SPLINE
  5
3F4
100
AcDbEntity
  8
RACCORDO
100
AcDbSpline
 62
7
  6
CONTINUOUS
 70
0
 71
3
 72
9
 73
5
 74
3
 42
0.0000001
 43
0.0000001
 44
0.0000000001
 12
-0.0018919397
 22
-0.0771244523
 32
0.0
 13
0.0223863563
 23
-0.0738282577
 33
0.0
 40
0.0
 40
0.0
 40
0.0
 40
0.0
 40
0.2577545304
 40
1.0
 40
1.0
 40
1.0
 40
1.0
 10
-17.4189430248
 20
13.6965724721
 30
0.0
 10
-17.4191055768
 20
13.6899460798
 30
0.0
 10
-17.4189386255
 20
13.6642443928
 30
0.0
 10
-17.4152732663
 20
13.6384117383
 30
0.0
 10
-17.4097345424
 20
13.6201455084
 30
0.0
 11
-17.4189430248
 21
13.6965724721
 31
0.0
 11
-17.4187870868
 21
13.6766879261
 31
0.0
 11
-17.4097345424
 21
13.6201455084
 31
0.0
  0
SPLINE
  5
3F5
100
AcDbEntity
  8
RACCORDO
100
AcDbSpline
 62
7
  6
CONTINUOUS
 70
0
 71
3
 72
13
 73
9
 74
7
 42
0.0000001
 43
0.0000001
 44
0.0000000001
 12
0.0658235532
 22
1.9951482153
 32
0.0
 13
1.7386144048
 23
0.9809021829
 33
0.0
 40
0.0
 40
0.0
 40
0.0
 40
0.0
 40
0.2475997169
 40
0.3771765417
 40
0.5078237256
 40
0.6373138893
 40
0.7635662444
 40
1.0
 40
1.0
 40
1.0
 40
1.0
 10
-17.292575134
 20
18.0438253547
 30
0.0
 10
-17.287142503
 20
18.2084913991
 30
0.0
 10
-17.2415791715
 20
18.4590408382
 30
0.0
 10
-17.1247434443
 20
18.7764756993
 30
0.0
 10
-17.0079421777
 20
19.0086839959
 30
0.0
 10
-16.8666585524
 20
19.2242911107
 30
0.0
 10
-16.6559535365
 20
19.475371874
 30
0.0
 10
-16.4656979913
 20
19.6310630103
 30
0.0
 10
-16.3286756135
 20
19.7083691393
 30
0.0
 11
-17.292575134
 21
18.0438253547
 31
0.0
 11
-17.2095612667
 21
18.53107116
 31
0.0
 11
-17.1204964831
 21
18.7739196153
 31
0.0
 11
-17.0032687774
 21
19.0068906719
 31
0.0
 11
-16.8613795844
 21
19.2229598704
 31
0.0
 11
-16.6988836498
 21
19.4156092784
 31
0.0
 11
-16.3286756135
 21
19.7083691393
 31
0.0
  0
SPLINE
  5
3F6
100
AcDbEntity
  8
RACCORDO
100
AcDbSpline
 62
7
  6
CONTINUOUS
 70
0
 71
3
 72
9
 73
5
 74
3
 42
0.0000001
 43
0.0000001
 44
0.0000000001
 12
-0.0455328651
 22
-0.0229894615
 32
0.0
 13
-0.0490373462
 23
-0.014039082
 33
0.0
 40
0.0
 40
0.0
 40
0.0
 40
0.0
 40
0.2547506432
 40
1.0
 40
1.0
 40
1.0
 40
1.0
 10
-4.1826457416
 20
7.0491243801
 30
0.0
 10
-4.1865122505
 20
7.0471721867
 30
0.0
 10
-4.2018402558
 20
7.0398170251
 30
0.0
 10
-4.2178187925
 20
7.0337660142
 30
0.0
 10
-4.2300004761
 20
7.0302784753
 30
0.0
 11
-4.1826457416
 21
7.0491243801
 31
0.0
 11
-4.1943641071
 21
7.043509359
 31
0.0
 11
-4.2300004761
 21
7.0302784753
 31
0.0
  0
SPLINE
  5
3F7
100
AcDbEntity
  8
RACCORDO
100
AcDbSpline
 62
253
  6
CONTINUOUS
 70
0
 71
3
 72
11
 73
7
 74
5
 42
0.0000001
 43
0.0000001
 44
0.0000000001
 12
0.1028816912
 22
0.0581284283
 32
0.0
 13
0.1056922194
 23
-0.0528461097
 33
0.0
 40
0.0
 40
0.0
 40
0.0
 40
0.0
 40
0.2226024327
 40
0.4579696398
 40
0.7158399617
 40
1.0
 40
1.0
 40
1.0
 40
1.0
 10
-16.3286716223
 20
19.7083620686
 30
0.0
 10
-16.3210377174
 20
19.7126752451
 30
0.0
 10
-16.3038327445
 20
19.7191042422
 30
0.0
 10
-16.2753620717
 20
19.720930861
 30
0.0
 10
-16.2450131976
 20
19.7152726073
 30
0.0
 10
-16.2250944549
 20
19.7072216439
 30
0.0
 10
-16.2150832866
 20
19.7022160597
 30
0.0
 11
-16.3286716223
 21
19.7083620686
 31
0.0
 11
-16.3040737698
 21
19.7176822409
 31
0.0
 11
-16.2763394386
 21
19.719769369
 31
0.0
 11
-16.2463205471
 21
19.714534657
 31
0.0
 11
-16.2150832866
 21
19.7022160597
 31
0.0
  0
SPLINE
  5
3F8
100
AcDbEntity
  8
RACCORDO
100
AcDbSpline
 62
253
  6
CONTINUOUS
 70
0
 71
3
 72
11
 73
7
 74
5
 42
0.0000001
 43
0.0000001
 44
0.0000000001
 12
-0.2563311843
 22
-0.0323845334
 32
0.0
 13
-0.2310920748
 23
0.1155460385
 33
0.0
 40
0.0
 40
0.0
 40
0.0
 40
0.0
 40
0.2603110252
 40
0.5235205621
 40
0.7746216658
 40
1.0
 40
1.0
 40
1.0
 40
1.0
 10
-3.9558021272
 20
11.415235543
 30
0.0
 10
-3.9780440717
 20
11.412425526
 30
0.0
 10
-4.0232197948
 20
11.409963338
 30
0.0
 10
-4.0899363609
 20
11.4147845323
 30
0.0
 10
-4.1524983686
 20
11.4277178384
 30
0.0
 10
-4.1912129495
 20
11.4420926363
 30
0.0
 10
-4.2085739984
 20
11.4507731609
 30
0.0
 11
-3.9558021272
 21
11.415235543
 31
0.0
 11
-4.022948419
 21
11.4113913142
 31
0.0
 11
-4.090770562
 21
11.416376767
 31
0.0
 11
-4.1542336485
 21
11.4298460464
 31
0.0
 11
-4.2085739984
 21
11.4507731609
 31
0.0
  0
SPLINE
  5
3F9
100
AcDbEntity
  8
RACCORDO
100
AcDbSpline
 62
253
  6
CONTINUOUS
 70
0
 71
3
 72
15
 73
11
 74
9
 42
0.0000001
 43
0.0000001
 44
0.0000000001
 12
0.0659724749
 22
1.9996621934
 32
0.0
 13
1.6738483216
 23
1.0960077789
 33
0.0
 40
0.0
 40
0.0
 40
0.0
 40
0.0
 40
0.1194149001
 40
0.2450341732
 40
0.3747354255
 40
0.5061180794
 40
0.6366618436
 40
0.7639098617
 40
0.885614054
 40
1.0
 40
1.0
 40
1.0
 40
1.0
 10
-17.2193387722
 20
17.9561555478
 30
0.0
 10
-17.2167127401
 20
18.0357520348
 30
0.0
 10
-17.1997029299
 20
18.1988357707
 30
0.0
 10
-17.1436017414
 20
18.442913346
 30
0.0
 10
-17.0578396223
 20
18.686693304
 30
0.0
 10
-16.945005389
 20
18.9227939516
 30
0.0
 10
-16.8084947591
 20
19.1441332925
 30
0.0
 10
-16.6523826856
 20
19.3440520171
 30
0.0
 10
-16.4813904184
 20
19.5165536992
 30
0.0
 10
-16.3563249815
 20
19.6132475324
 30
0.0
 10
-16.292503407
 20
19.655036828
 30
0.0
 11
-17.2193387722
 21
17.9561555478
 31
0.0
 11
-17.195461059
 21
18.1938787607
 31
0.0
 11
-17.1397586015
 21
18.4389612034
 31
0.0
 11
-17.0539381355
 21
18.6838591318
 31
0.0
 11
-16.9406347056
 21
18.9210505011
 31
0.0
 11
-16.8033328577
 21
19.1432352135
 31
0.0
 11
-16.6462486136
 21
19.3435883247
 31
0.0
 11
-16.4742371708
 21
19.515937272
 31
0.0
 11
-16.292503407
 21
19.655036828
 31
0.0
  0
SPLINE
  5
3FA
100
AcDbEntity
  8
RACCORDO
100
AcDbSpline
 62
7
  6
CONTINUOUS
 70
0
 71
3
 72
8
 73
4
 74
2
 42
0.0000001
 43
0.0000001
 44
0.0000000001
 12
-0.0548327168
 22
0.0324052546
 32
0.0
 13
-0.0475922955
 23
0.0423284865
 33
0.0
 40
0.0
 40
0.0
 40
0.0
 40
0.0
 40
1.0
 40
1.0
 40
1.0
 40
1.0
 10
-4.2300004761
 20
7.0302784753
 30
0.0
 10
-4.2482780484
 20
7.0410802268
 30
0.0
 10
-4.2654202638
 20
7.0539405349
 30
0.0
 10
-4.2812843623
 20
7.0680500304
 30
0.0
 11
-4.2300004761
 21
7.0302784753
 31
0.0
 11
-4.2812843623
 21
7.0680500304
 31
0.0
  0
SPLINE
  5
3FB
100
AcDbEntity
  8
RACCORDO
100
AcDbSpline
 62
7
  6
CONTINUOUS
 70
0
 71
3
 72
9
 73
5
 74
3
 42
0.0000001
 43
0.0000001
 44
0.0000000001
 12
-0.0585360217
 22
0.0520618133
 32
0.0
 13
-0.0475331441
 23
0.0622695628
 33
0.0
 40
0.0
 40
0.0
 40
0.0
 40
0.0
 40
0.2525355785
 40
1.0
 40
1.0
 40
1.0
 40
1.0
 10
-4.2812843623
 20
7.0680500304
 30
0.0
 10
-4.2862118384
 20
7.0724325171
 30
0.0
 10
-4.3052615242
 20
7.0903019965
 30
0.0
 10
-4.3225458551
 20
7.1100330666
 30
0.0
 10
-4.3343889664
 20
7.1255478275
 30
0.0
 11
-4.2812843623
 21
7.0680500304
 31
0.0
 11
-4.2957207011
 21
7.0815765972
 31
0.0
 11
-4.3343889664
 21
7.1255478275
 31
0.0
  0
SPLINE
  5
3FC
100
AcDbEntity
  8
RACCORDO
100
AcDbSpline
 62
253
  6
CONTINUOUS
 70
0
 71
3
 72
11
 73
7
 74
5
 42
0.0000001
 43
0.0000001
 44
0.0000000001
 12
-0.0695016768
 22
0.3043446997
 32
0.0
 13
-0.2792220297
 23
0.139611022
 33
0.0
 40
0.0
 40
0.0
 40
0.0
 40
0.0
 40
0.2563727097
 40
0.5204951895
 40
0.7737346678
 40
1.0
 40
1.0
 40
1.0
 40
1.0
 10
-3.0258200673
 20
12.9508271451
 30
0.0
 10
-3.0317595117
 20
12.9768357035
 30
0.0
 10
-3.0499054528
 20
13.0283489985
 30
0.0
 10
-3.090808403
 20
13.0982354668
 30
0.0
 10
-3.1422305954
 20
13.1566903724
 30
0.0
 10
-3.1832590907
 20
13.1863039615
 30
0.0
 10
-3.2043185125
 20
13.1968336729
 30
0.0
 11
-3.0258200673
 21
12.9508271451
 31
0.0
 11
-3.0519084591
 21
13.0264901798
 31
0.0
 11
-3.0935797413
 21
13.0976387146
 31
0.0
 11
-3.1462910973
 21
13.1565573064
 31
0.0
 11
-3.2043185125
 21
13.1968336729
 31
0.0
  0
SPLINE
  5
3FD
100
AcDbEntity
  8
RACCORDO
100
AcDbSpline
 62
253
  6
CONTINUOUS
 70
0
 71
3
 72
15
 73
11
 74
9
 42
0.0000001
 43
0.0000001
 44
0.0000000001
 12
-1.8213244136
 22
-1.0275660248
 32
0.0
 13
-0.068954933
 23
-2.0900621455
 33
0.0
 40
0.0
 40
0.0
 40
0.0
 40
0.0
 40
0.1118379243
 40
0.2320159223
 40
0.3587165354
 40
0.4895581921
 40
0.621841726
 40
0.7527616401
 40
0.8796096139
 40
1.0
 40
1.0
 40
1.0
 40
1.0
 10
-3.2043185127
 20
13.1968336728
 30
0.0
 10
-3.2722162267
 20
13.1585267223
 30
0.0
 10
-3.406148379
 20
13.0664325394
 30
0.0
 10
-3.5900723721
 20
12.8960012998
 30
0.0
 10
-3.7592428216
 20
12.6933674774
 30
0.0
 10
-3.9080242636
 20
12.4652762389
 30
0.0
 10
-4.0315229555
 20
12.2192868595
 30
0.0
 10
-4.1256293196
 20
11.9635530096
 30
0.0
 10
-4.1872176146
 20
11.7066271131
 30
0.0
 10
-4.2058068281
 20
11.5346476238
 30
0.0
 10
-4.2085739984
 20
11.4507731609
 30
0.0
 11
-3.2043185127
 21
13.1968336728
 31
0.0
 11
-3.3978555013
 21
13.0655281809
 31
0.0
 11
-3.5829338978
 21
12.8955111445
 31
0.0
 11
-3.7532611216
 21
12.6925568561
 31
0.0
 11
-3.9030335304
 21
12.4635722907
 31
0.0
 11
-4.0271537435
 21
12.216349693
 31
0.0
 11
-4.1213984281
 21
11.9593025622
 31
0.0
 11
-4.1825632944
 21
11.7011861958
 31
0.0
 11
-4.2085739984
 21
11.4507731609
 31
0.0
  0
SPLINE
  5
3FE
100
AcDbEntity
  8
RACCORDO
100
AcDbSpline
 62
253
  6
CONTINUOUS
 70
0
 71
3
 72
11
 73
7
 74
5
 42
0.0000001
 43
0.0000001
 44
0.0000000001
 12
-0.0039319102
 22
-0.1199193187
 32
0.0
 13
0.107316737
 23
-0.053658372
 33
0.0
 40
0.0
 40
0.0
 40
0.0
 40
0.0
 40
0.2010920437
 40
0.4266530287
 40
0.6918365394
 40
1.0
 40
1.0
 40
1.0
 40
1.0
 10
-17.2925637206
 20
18.0438249787
 30
0.0
 10
-17.2928272792
 20
18.035786705
 30
0.0
 10
-17.2895198026
 20
18.0184661437
 30
0.0
 10
-17.274275988
 20
17.9948141961
 30
0.0
 10
-17.2502151431
 20
17.9733903348
 30
0.0
 10
-17.2303624713
 20
17.9616673975
 30
0.0
 10
-17.2193387722
 20
17.9561555476
 30
0.0
 11
-17.2925637206
 21
18.0438249787
 31
0.0
 11
-17.2883558761
 21
18.0200669527
 31
0.0
 11
-17.2743109881
 21
17.9969329396
 31
0.0
 11
-17.2509565677
 21
17.9753241906
 31
0.0
 11
-17.2193387722
 21
17.9561555476
 31
0.0
  0
SPLINE
  5
3FF
100
AcDbEntity
  8
RACCORDO
100
AcDbSpline
 62
7
  6
CONTINUOUS
 70
0
 71
3
 72
9
 73
5
 74
3
 42
0.0000001
 43
0.0000001
 44
0.0000000001
 12
-0.0830879435
 22
-0.075584401
 32
0.0
 13
-0.1002681278
 23
-0.050625197
 33
0.0
 40
0.0
 40
0.0
 40
0.0
 40
0.0
 40
0.2537765546
 40
1.0
 40
1.0
 40
1.0
 40
1.0
 10
-4.0909547235
 20
7.1136962788
 30
0.0
 10
-4.0979833142
 20
7.1073024292
 30
0.0
 10
-4.1263453694
 20
7.0828764749
 30
0.0
 10
-4.1577049324
 20
7.0617169498
 30
0.0
 10
-4.1826457416
 20
7.0491243801
 30
0.0
 11
-4.0909547235
 21
7.1136962788
 31
0.0
 11
-4.1125716106
 21
7.0951153265
 31
0.0
 11
-4.1826457416
 21
7.0491243801
 31
0.0
  0
SPLINE
  5
400
100
AcDbEntity
  8
RACCORDO
100
AcDbSpline
 62
7
  6
CONTINUOUS
 70
0
 71
3
 72
10
 73
6
 74
4
 42
0.0000001
 43
0.0000001
 44
0.0000000001
 12
0.0548748944
 22
-0.0113001785
 32
0.0
 13
0.0541289649
 23
0.014456944
 33
0.0
 40
0.0
 40
0.0
 40
0.0
 40
0.0
 40
0.1782256531
 40
0.4056993186
 40
1.0
 40
1.0
 40
1.0
 40
1.0
 10
-17.4097345424
 20
13.6201455084
 30
0.0
 10
-17.4064745044
 20
13.6194741812
 30
0.0
 10
-17.3988069583
 20
13.6193096162
 30
0.0
 10
-17.380282957
 20
13.6216887796
 30
0.0
 10
-17.3653561639
 20
13.6254759608
 30
0.0
 10
-17.3546332037
 20
13.6283398847
 30
0.0
 11
-17.4097345424
 21
13.6201455084
 31
0.0
 11
-17.399767131
 21
13.6195476295
 31
0.0
 11
-17.3871007227
 21
13.6209564144
 31
0.0
 11
-17.3546332037
 21
13.6283398847
 31
0.0
  0
SPLINE
  5
401
100
AcDbEntity
  8
RACCORDO
100
AcDbSpline
 62
7
  6
CONTINUOUS
 70
0
 71
3
 72
11
 73
7
 74
5
 42
0.0000001
 43
0.0000001
 44
0.0000000001
 12
0.0
 22
0.3850294746
 32
0.0
 13
-0.3443808315
 23
0.1721904157
 33
0.0
 40
0.0
 40
0.0
 40
0.0
 40
0.0
 40
0.2065815957
 40
0.4344769586
 40
0.6975326744
 40
1.0
 40
1.0
 40
1.0
 40
1.0
 10
17.5704793988
 20
9.8983603701
 30
0.0
 10
17.5704793988
 20
9.9248737046
 30
0.0
 10
17.5587551101
 20
9.9810598724
 30
0.0
 10
17.5098774617
 20
10.0577386871
 30
0.0
 10
17.433655851
 20
10.1265769119
 30
0.0
 10
17.3708861402
 20
10.1638424244
 30
0.0
 10
17.3361648238
 20
10.1812030826
 30
0.0
 11
17.5704793988
 21
9.8983603701
 31
0.0
 11
17.5550980561
 21
9.9763989914
 31
0.0
 11
17.5095912721
 21
10.0514227804
 31
0.0
 11
17.4356155624
 21
10.1206043124
 31
0.0
 11
17.3361648238
 21
10.1812030826
 31
0.0
  0
SPLINE
  5
402
100
AcDbEntity
  8
RACCORDO
100
AcDbSpline
 62
7
  6
CONTINUOUS
 70
0
 71
3
 72
11
 73
7
 74
5
 42
0.0000001
 43
0.0000001
 44
0.0000000001
 12
0.0
 22
-0.3850294746
 32
0.0
 13
-0.3443808315
 23
-0.1721904157
 33
0.0
 40
0.0
 40
0.0
 40
0.0
 40
0.0
 40
0.2065815957
 40
0.4344769586
 40
0.6975326744
 40
1.0
 40
1.0
 40
1.0
 40
1.0
 10
17.5704793988
 20
0.8050936304
 30
0.0
 10
17.5704793988
 20
0.778580296
 30
0.0
 10
17.5587551101
 20
0.7223941281
 30
0.0
 10
17.5098774617
 20
0.6457153135
 30
0.0
 10
17.433655851
 20
0.5768770886
 30
0.0
 10
17.3708861402
 20
0.5396115761
 30
0.0
 10
17.3361648238
 20
0.5222509179
 30
0.0
 11
17.5704793988
 21
0.8050936304
 31
0.0
 11
17.5550980561
 21
0.7270550091
 31
0.0
 11
17.5095912721
 21
0.6520312201
 31
0.0
 11
17.4356155624
 21
0.5828496881
 31
0.0
 11
17.3361648238
 21
0.5222509179
 31
0.0
  0
SPLINE
  5
403
100
AcDbEntity
  8
RACCORDO
100
AcDbSpline
 62
7
  6
CONTINUOUS
 70
0
 71
3
 72
11
 73
7
 74
5
 42
0.0000001
 43
0.0000001
 44
0.0000000001
 12
0.0
 22
0.2406396693
 32
0.0
 13
-0.2152346635
 23
0.1076173317
 33
0.0
 40
0.0
 40
0.0
 40
0.0
 40
0.0
 40
0.2065415608
 40
0.4344507387
 40
0.6977089754
 40
1.0
 40
1.0
 40
1.0
 40
1.0
 10
18.543248376
 20
5.0755856212
 30
0.0
 10
18.543248376
 20
5.0921529855
 30
0.0
 10
18.535966516
 20
5.127274766
 30
0.0
 10
18.5053921481
 20
5.1752102912
 30
0.0
 10
18.4577330192
 20
5.2182081178
 30
0.0
 10
18.4185128312
 20
5.2415183986
 30
0.0
 10
18.3968249956
 20
5.2523623165
 30
0.0
 11
18.543248376
 21
5.0755856212
 31
0.0
 11
18.5336675934
 21
5.124355557
 31
0.0
 11
18.5052233283
 21
5.1712467815
 31
0.0
 11
18.4589398501
 21
5.2145031066
 31
0.0
 11
18.3968249956
 21
5.2523623165
 31
0.0
  0
SPLINE
  5
404
100
AcDbEntity
  8
RACCORDO
100
AcDbSpline
 62
7
  6
CONTINUOUS
 70
0
 71
3
 72
11
 73
7
 74
5
 42
0.0000001
 43
0.0000001
 44
0.0000000001
 12
0.0
 22
-0.2406396693
 32
0.0
 13
-0.2152346635
 23
-0.1076173317
 33
0.0
 40
0.0
 40
0.0
 40
0.0
 40
0.0
 40
0.2065415608
 40
0.4344507387
 40
0.6977089754
 40
1.0
 40
1.0
 40
1.0
 40
1.0
 10
18.543248376
 20
2.9971246521
 30
0.0
 10
18.543248376
 20
2.9805572878
 30
0.0
 10
18.535966516
 20
2.9454355073
 30
0.0
 10
18.5053921481
 20
2.897499982
 30
0.0
 10
18.4577330192
 20
2.8545021554
 30
0.0
 10
18.4185128312
 20
2.8311918746
 30
0.0
 10
18.3968249956
 20
2.8203479568
 30
0.0
 11
18.543248376
 21
2.9971246521
 31
0.0
 11
18.5336675934
 21
2.9483547162
 31
0.0
 11
18.5052233283
 21
2.9014634917
 31
0.0
 11
18.4589398501
 21
2.8582071667
 31
0.0
 11
18.3968249956
 21
2.8203479568
 31
0.0
  0
SPLINE
  5
405
100
AcDbEntity
  8
RACCORDO
100
AcDbSpline
 62
7
  6
CONTINUOUS
 70
0
 71
3
 72
10
 73
6
 74
4
 42
0.0000001
 43
0.0000001
 44
0.0000000001
 12
0.2069409821
 22
0.103470491
 32
0.0
 13
0.2069113138
 23
-0.1035298062
 33
0.0
 40
0.0
 40
0.0
 40
0.0
 40
0.0
 40
0.5341177557
 40
0.7722915166
 40
1.0
 40
1.0
 40
1.0
 40
1.0
 10
6.5073935827
 20
6.8420676229
 30
0.0
 10
6.5442372003
 20
6.8604894317
 30
0.0
 10
6.603010085
 20
6.8795487518
 30
0.0
 10
6.6807542792
 20
6.8756253786
 30
0.0
 10
6.7153702771
 20
6.8640819249
 30
0.0
 10
6.731075431
 20
6.8562237198
 30
0.0
 11
6.5073935827
 21
6.8420676229
 31
0.0
 11
6.6261386399
 21
6.8762867433
 31
0.0
 11
6.6811487694
 21
6.8730450651
 31
0.0
 11
6.731075431
 21
6.8562237198
 31
0.0
  0
SPLINE
  5
406
100
AcDbEntity
  8
RACCORDO
100
AcDbSpline
 62
7
  6
CONTINUOUS
 70
0
 71
3
 72
11
 73
7
 74
5
 42
0.0000001
 43
0.0000001
 44
0.0000000001
 12
-0.0134989154
 22
0.2908396361
 32
0.0
 13
-0.2603739262
 23
0.1302894208
 33
0.0
 40
0.0
 40
0.0
 40
0.0
 40
0.0
 40
0.2870014901
 40
0.5458456317
 40
0.7801546801
 40
1.0
 40
1.0
 40
1.0
 40
1.0
 10
8.2330396674
 20
8.335127671
 30
0.0
 10
8.2317482645
 20
8.362951474
 30
0.0
 10
8.2248457347
 20
8.4158548693
 30
0.0
 10
8.1991231127
 20
8.4878153446
 30
0.0
 10
8.1589840913
 20
8.5453561711
 30
0.0
 10
8.1228078424
 20
8.5722201
 30
0.0
 10
8.1037271794
 20
8.5817679398
 30
0.0
 11
8.2330396674
 21
8.335127671
 31
0.0
 11
8.2214224691
 21
8.4178774523
 31
0.0
 11
8.1951452175
 21
8.4885111191
 31
0.0
 11
8.1553459276
 21
8.5439182192
 31
0.0
 11
8.1037271794
 21
8.5817679398
 31
0.0
  0
SPLINE
  5
407
100
AcDbEntity
  8
RACCORDO
100
AcDbSpline
 62
7
  6
CONTINUOUS
 70
0
 71
3
 72
11
 73
7
 74
5
 42
0.0000001
 43
0.0000001
 44
0.0000000001
 12
0.0
 22
0.6296136271
 32
0.0
 13
-0.5631211483
 23
0.2816165687
 33
0.0
 40
0.0
 40
0.0
 40
0.0
 40
0.0
 40
0.2896875982
 40
0.5496054903
 40
0.7828341432
 40
1.0
 40
1.0
 40
1.0
 40
1.0
 10
16.7704793988
 20
10.5073470653
 30
0.0
 10
16.7704793988
 20
10.5681441517
 30
0.0
 10
16.7606514738
 20
10.6839245345
 30
0.0
 10
16.7112060702
 20
10.8422880348
 30
0.0
 10
16.6285400849
 20
10.969063825
 30
0.0
 10
16.551433739
 20
11.0277777996
 30
0.0
 10
16.5106701768
 20
11.0481636341
 30
0.0
 11
16.7704793988
 21
10.5073470653
 31
0.0
 11
16.7532053248
 21
10.6889184779
 31
0.0
 11
16.7022299028
 21
10.8444245038
 31
0.0
 11
16.6200502025
 21
10.9661193641
 31
0.0
 11
16.5106701768
 21
11.0481636341
 31
0.0
  0
SPLINE
  5
408
100
AcDbEntity
  8
RACCORDO
100
AcDbSpline
 62
7
  6
CONTINUOUS
 70
0
 71
3
 72
11
 73
7
 74
5
 42
0.0000001
 43
0.0000001
 44
0.0000000001
 12
0.4149173596
 22
0.2074586798
 32
0.0
 13
0.4149008558
 23
-0.207491684
 33
0.0
 40
0.0
 40
0.0
 40
0.0
 40
0.0
 40
0.2790800201
 40
0.535374006
 40
0.7728986117
 40
1.0
 40
1.0
 40
1.0
 40
1.0
 10
15.0027124459
 20
11.5501491644
 30
0.0
 10
15.0413108276
 20
11.5694483552
 30
0.0
 10
15.1185575803
 20
11.6006407825
 30
0.0
 10
15.2369113027
 20
11.6229234353
 30
0.0
 10
15.3494058077
 20
11.6172753034
 30
0.0
 10
15.4186018182
 20
11.5942009365
 30
0.0
 10
15.450010005
 20
11.57849372
 30
0.0
 11
15.0027124459
 21
11.5501491644
 31
0.0
 11
15.1231319071
 21
11.5976864958
 31
0.0
 11
15.2401729721
 21
11.6185875161
 31
0.0
 11
15.3501683793
 21
11.6121146571
 31
0.0
 11
15.450010005
 21
11.57849372
 31
0.0
  0
SPLINE
  5
409
100
AcDbEntity
  8
RACCORDO
100
AcDbSpline
 62
7
  6
CONTINUOUS
 70
0
 71
3
 72
11
 73
7
 74
5
 42
0.0000001
 43
0.0000001
 44
0.0000000001
 12
0.0
 22
1.1745747747
 32
0.0
 13
1.0505716164
 23
0.5252858082
 33
0.0
 40
0.0
 40
0.0
 40
0.0
 40
0.0
 40
0.2468124806
 40
0.5117852459
 40
0.7703059488
 40
1.0
 40
1.0
 40
1.0
 40
1.0
 10
10.901493115
 20
8.8067191759
 30
0.0
 10
10.901493115
 20
8.9033524138
 30
0.0
 10
10.9348414068
 20
9.104073419
 30
0.0
 10
11.0555901045
 20
9.3832180254
 30
0.0
 10
11.2330540372
 20
9.6219236273
 30
0.0
 10
11.3867418564
 20
9.7421638696
 30
0.0
 10
11.4671785399
 20
9.7823822114
 30
0.0
 11
10.901493115
 21
8.8067191759
 31
0.0
 11
10.9445601931
 21
9.093402051
 31
0.0
 11
11.0671785399
 21
9.3794598369
 31
0.0
 11
11.2506850136
 21
9.6213892652
 31
0.0
 11
11.4671785399
 21
9.7823822114
 31
0.0
  0
SPLINE
  5
40A
100
AcDbEntity
  8
RACCORDO
100
AcDbSpline
 62
7
  6
CONTINUOUS
 70
0
 71
3
 72
11
 73
7
 74
5
 42
0.0000001
 43
0.0000001
 44
0.0000000001
 12
0.0
 22
0.6296136271
 32
0.0
 13
-0.5631211483
 23
0.2816165687
 33
0.0
 40
0.0
 40
0.0
 40
0.0
 40
0.0
 40
0.2896875982
 40
0.5496054903
 40
0.7828341432
 40
1.0
 40
1.0
 40
1.0
 40
1.0
 10
7.3659592091
 20
15.2096071602
 30
0.0
 10
7.3659592091
 20
15.2704042466
 30
0.0
 10
7.356131284
 20
15.3861846294
 30
0.0
 10
7.3066858805
 20
15.5445481297
 30
0.0
 10
7.2240198951
 20
15.6713239198
 30
0.0
 10
7.1469135492
 20
15.7300378945
 30
0.0
 10
7.106149987
 20
15.750423729
 30
0.0
 11
7.3659592091
 21
15.2096071602
 31
0.0
 11
7.348685135
 21
15.3911785728
 31
0.0
 11
7.297709713
 21
15.5466845987
 31
0.0
 11
7.2155300127
 21
15.668379459
 31
0.0
 11
7.106149987
 21
15.750423729
 31
0.0
  0
SPLINE
  5
40B
100
AcDbEntity
  8
RACCORDO
100
AcDbSpline
 62
7
  6
CONTINUOUS
 70
0
 71
3
 72
11
 73
7
 74
5
 42
0.0000001
 43
0.0000001
 44
0.0000000001
 12
0.4149173596
 22
0.2074586798
 32
0.0
 13
0.4149008558
 23
-0.207491684
 33
0.0
 40
0.0
 40
0.0
 40
0.0
 40
0.0
 40
0.2790800201
 40
0.535374006
 40
0.7728986117
 40
1.0
 40
1.0
 40
1.0
 40
1.0
 10
5.5981922561
 20
16.2524092592
 30
0.0
 10
5.6367906378
 20
16.2717084501
 30
0.0
 10
5.7140373905
 20
16.3029008773
 30
0.0
 10
5.8323911129
 20
16.3251835302
 30
0.0
 10
5.9448856179
 20
16.3195353983
 30
0.0
 10
6.0140816284
 20
16.2964610314
 30
0.0
 10
6.0454898152
 20
16.2807538149
 30
0.0
 11
5.5981922561
 21
16.2524092592
 31
0.0
 11
5.7186117173
 21
16.2999465906
 31
0.0
 11
5.8356527823
 21
16.320847611
 31
0.0
 11
5.9456481895
 21
16.314374752
 31
0.0
 11
6.0454898152
 21
16.2807538149
 31
0.0
  0
SPLINE
  5
40C
100
AcDbEntity
  8
RACCORDO
100
AcDbSpline
 62
7
  6
CONTINUOUS
 70
0
 71
3
 72
10
 73
6
 74
4
 42
0.0000001
 43
0.0000001
 44
0.0000000001
 12
-0.6851098487
 22
0.0453891454
 32
0.0
 13
-0.6141242085
 23
-0.3070621042
 33
0.0
 40
0.0
 40
0.0
 40
0.0
 40
0.0
 40
0.527710216
 40
0.7753861132
 40
1.0
 40
1.0
 40
1.0
 40
1.0
 10
5.2789938555
 20
16.0931649729
 30
0.0
 10
5.1584807001
 20
16.1011490781
 30
0.0
 10
4.9790185108
 20
16.0931639752
 30
0.0
 10
4.7556155792
 20
16.0416064006
 30
0.0
 10
4.6542230376
 20
16.0024688259
 30
0.0
 10
4.6082427624
 20
15.9794786883
 30
0.0
 11
5.2789938555
 21
16.0931649729
 31
0.0
 11
4.9170945586
 21
16.0754619221
 31
0.0
 11
4.7515960593
 21
16.0363506624
 31
0.0
 11
4.6082427624
 21
15.9794786883
 31
0.0
  0
SPLINE
  5
40D
100
AcDbEntity
  8
RACCORDO
100
AcDbSpline
 62
7
  6
CONTINUOUS
 70
0
 71
3
 72
11
 73
7
 74
5
 42
0.0000001
 43
0.0000001
 44
0.0000000001
 12
-1.0505716164
 22
-0.5252858082
 32
0.0
 13
0.0
 23
-1.1745747747
 33
0.0
 40
0.0
 40
0.0
 40
0.0
 40
0.0
 40
0.2296940512
 40
0.4882147541
 40
0.7531875194
 40
1.0
 40
1.0
 40
1.0
 40
1.0
 10
12.5278387117
 20
9.2520521255
 30
0.0
 10
12.4474020282
 20
9.2118337837
 30
0.0
 10
12.293714209
 20
9.0915935414
 30
0.0
 10
12.1162502763
 20
8.8528879395
 30
0.0
 10
11.9955015785
 20
8.5737433331
 30
0.0
 10
11.9621532868
 20
8.3730223279
 30
0.0
 10
11.9621532868
 20
8.27638909
 30
0.0
 11
12.5278387117
 21
9.2520521255
 31
0.0
 11
12.3113451854
 21
9.0910591793
 31
0.0
 11
12.1278387117
 21
8.849129751
 31
0.0
 11
12.0052203648
 21
8.5630719651
 31
0.0
 11
11.9621532868
 21
8.27638909
 31
0.0
  0
SPLINE
  5
40E
100
AcDbEntity
  8
RACCORDO
100
AcDbSpline
 62
7
  6
CONTINUOUS
 70
0
 71
3
 72
11
 73
7
 74
5
 42
0.0000001
 43
0.0000001
 44
0.0000000001
 12
-0.4149008558
 22
0.207491684
 32
0.0
 13
-0.4149173596
 23
-0.2074586798
 33
0.0
 40
0.0
 40
0.0
 40
0.0
 40
0.0
 40
0.2271013883
 40
0.464625994
 40
0.7209199799
 40
1.0
 40
1.0
 40
1.0
 40
1.0
 10
16.5106701768
 20
11.0481636341
 30
0.0
 10
16.47926199
 20
11.0638708506
 30
0.0
 10
16.4100659794
 20
11.0869452175
 30
0.0
 10
16.2975714745
 20
11.0925933494
 30
0.0
 10
16.179217752
 20
11.0703106966
 30
0.0
 10
16.1019709993
 20
11.0391182693
 30
0.0
 10
16.0633726177
 20
11.0198190785
 30
0.0
 11
16.5106701768
 21
11.0481636341
 31
0.0
 11
16.4108285511
 21
11.0817845712
 31
0.0
 11
16.3008331438
 21
11.0882574302
 31
0.0
 11
16.1837920789
 21
11.0673564099
 31
0.0
 11
16.0633726177
 21
11.0198190785
 31
0.0
  0
SPLINE
  5
40F
100
AcDbEntity
  8
RACCORDO
100
AcDbSpline
 62
7
  6
CONTINUOUS
 70
0
 71
3
 72
11
 73
7
 74
5
 42
0.0000001
 43
0.0000001
 44
0.0000000001
 12
-0.4149008558
 22
0.207491684
 32
0.0
 13
-0.4149173596
 23
-0.2074586798
 33
0.0
 40
0.0
 40
0.0
 40
0.0
 40
0.0
 40
0.2271013883
 40
0.464625994
 40
0.7209199799
 40
1.0
 40
1.0
 40
1.0
 40
1.0
 10
7.106149987
 20
15.750423729
 30
0.0
 10
7.0747418002
 20
15.7661309455
 30
0.0
 10
7.0055457897
 20
15.7892053124
 30
0.0
 10
6.8930512847
 20
15.7948534443
 30
0.0
 10
6.7746975623
 20
15.7725707915
 30
0.0
 10
6.6974508096
 20
15.7413783642
 30
0.0
 10
6.6588524279
 20
15.7220791734
 30
0.0
 11
7.106149987
 21
15.750423729
 31
0.0
 11
7.0063083613
 21
15.7840446661
 31
0.0
 11
6.8963129541
 21
15.7905175251
 31
0.0
 11
6.7792718891
 21
15.7696165048
 31
0.0
 11
6.6588524279
 21
15.7220791734
 31
0.0
  0
SPLINE
  5
410
100
AcDbEntity
  8
RACCORDO
100
AcDbSpline
 62
7
  6
CONTINUOUS
 70
0
 71
3
 72
11
 73
7
 74
5
 42
0.0000001
 43
0.0000001
 44
0.0000000001
 12
0.2152346635
 22
0.1076173317
 32
0.0
 13
0.0
 23
0.2406396693
 33
0.0
 40
0.0
 40
0.0
 40
0.0
 40
0.0
 40
0.3022910246
 40
0.5655492613
 40
0.7934584392
 40
1.0
 40
1.0
 40
1.0
 40
1.0
 10
18.3968249956
 20
4.8988089259
 30
0.0
 10
18.4185128312
 20
4.9096528437
 30
0.0
 10
18.4577330192
 20
4.9329631245
 30
0.0
 10
18.5053921481
 20
4.9759609511
 30
0.0
 10
18.535966516
 20
5.0238964763
 30
0.0
 10
18.543248376
 20
5.0590182569
 30
0.0
 10
18.543248376
 20
5.0755856212
 30
0.0
 11
18.3968249956
 21
4.8988089259
 31
0.0
 11
18.4589398501
 21
4.9366681358
 31
0.0
 11
18.5052233283
 21
4.9799244608
 31
0.0
 11
18.5336675934
 21
5.0268156853
 31
0.0
 11
18.543248376
 21
5.0755856212
 31
0.0
  0
SPLINE
  5
411
100
AcDbEntity
  8
RACCORDO
100
AcDbSpline
 62
7
  6
CONTINUOUS
 70
0
 71
3
 72
11
 73
7
 74
5
 42
0.0000001
 43
0.0000001
 44
0.0000000001
 12
0.3443808315
 22
0.1721904157
 32
0.0
 13
0.0
 23
0.3850294746
 33
0.0
 40
0.0
 40
0.0
 40
0.0
 40
0.0
 40
0.3024673256
 40
0.5655230414
 40
0.7934184043
 40
1.0
 40
1.0
 40
1.0
 40
1.0
 10
17.3361648238
 20
9.6155176577
 30
0.0
 10
17.3708861402
 20
9.6328783158
 30
0.0
 10
17.433655851
 20
9.6701438284
 30
0.0
 10
17.5098774617
 20
9.7389820532
 30
0.0
 10
17.5587551101
 20
9.8156608679
 30
0.0
 10
17.5704793988
 20
9.8718470357
 30
0.0
 10
17.5704793988
 20
9.8983603701
 30
0.0
 11
17.3361648238
 21
9.6155176577
 31
0.0
 11
17.4356155624
 21
9.6761164278
 31
0.0
 11
17.5095912721
 21
9.7452979599
 31
0.0
 11
17.5550980561
 21
9.8203217489
 31
0.0
 11
17.5704793988
 21
9.8983603701
 31
0.0
  0
SPLINE
  5
412
100
AcDbEntity
  8
RACCORDO
100
AcDbSpline
 62
7
  6
CONTINUOUS
 70
0
 71
3
 72
10
 73
6
 74
4
 42
0.0000001
 43
0.0000001
 44
0.0000000001
 12
-0.2069218951
 22
0.1035423718
 32
0.0
 13
-0.2069544751
 23
-0.1034772375
 33
0.0
 40
0.0
 40
0.0
 40
0.0
 40
0.0
 40
0.2277156247
 40
0.4658841797
 40
1.0
 40
1.0
 40
1.0
 40
1.0
 10
8.1037271794
 20
8.5817679398
 30
0.0
 10
8.0880207298
 20
8.5896273451
 30
0.0
 10
8.0534022757
 20
8.6011712157
 30
0.0
 10
7.975653499
 20
8.6050999589
 30
0.0
 10
7.9168765106
 20
8.5860395714
 30
0.0
 10
7.8800306242
 20
8.5676166282
 30
0.0
 11
8.1037271794
 21
8.5817679398
 31
0.0
 11
8.0537959203
 21
8.5985915734
 31
0.0
 11
7.9987835548
 21
8.601835908
 31
0.0
 11
7.8800306242
 21
8.5676166282
 31
0.0
  0
SPLINE
  5
413
100
AcDbEntity
  8
RACCORDO
100
AcDbSpline
 62
7
  6
CONTINUOUS
 70
0
 71
3
 72
11
 73
7
 74
5
 42
0.0000001
 43
0.0000001
 44
0.0000000001
 12
0.2814990134
 22
-0.1408503854
 32
0.0
 13
0.0
 23
-0.314770592
 33
0.0
 40
0.0
 40
0.0
 40
0.0
 40
0.0
 40
0.21716015
 40
0.4504032616
 40
0.7103321268
 40
1.0
 40
1.0
 40
1.0
 40
1.0
 10
6.731075431
 20
6.8562237198
 30
0.0
 10
6.7514522203
 20
6.8460280229
 30
0.0
 10
6.7899971396
 20
6.8166683769
 30
0.0
 10
6.8313172466
 20
6.7532805098
 30
0.0
 10
6.8560365623
 20
6.6741075349
 30
0.0
 10
6.8609469733
 20
6.6162245923
 30
0.0
 10
6.8609469733
 20
6.5858316163
 30
0.0
 11
6.731075431
 21
6.8562237198
 31
0.0
 11
6.7857510246
 21
6.8151984658
 31
0.0
 11
6.8268313572
 21
6.7543493111
 31
0.0
 11
6.8523140966
 21
6.6766009412
 31
0.0
 11
6.8609469733
 21
6.5858316163
 31
0.0
  0
SPLINE
  5
414
100
AcDbEntity
  8
RACCORDO
100
AcDbSpline
 62
7
  6
CONTINUOUS
 70
0
 71
3
 72
11
 73
7
 74
5
 42
0.0000001
 43
0.0000001
 44
0.0000000001
 12
0.3343669946
 22
0.167212918
 32
0.0
 13
0.3343787637
 23
-0.1671893818
 33
0.0
 40
0.0
 40
0.0
 40
0.0
 40
0.0
 40
0.2288578497
 40
0.4670187184
 40
0.7224803298
 40
1.0
 40
1.0
 40
1.0
 40
1.0
 10
-17.4486864266
 20
9.1840130064
 30
0.0
 10
-17.4231789228
 20
9.1967690027
 30
0.0
 10
-17.3671902555
 20
9.2155800085
 30
0.0
 10
-17.2763671033
 20
9.2205841486
 30
0.0
 10
-17.1811095483
 20
9.2030964055
 30
0.0
 10
-17.1190917689
 20
9.1781360949
 30
0.0
 10
-17.0881595408
 20
9.1626699809
 30
0.0
 11
-17.4486864266
 21
9.1840130064
 31
0.0
 11
-17.3676522872
 21
9.2114648181
 31
0.0
 11
-17.2787927476
 21
9.21706261
 31
0.0
 11
-17.1847119833
 21
9.2006391341
 31
0.0
 11
-17.0881595408
 21
9.1626699809
 31
0.0
  0
SPLINE
  5
415
100
AcDbEntity
  8
RACCORDO
100
AcDbSpline
 62
7
  6
CONTINUOUS
 70
0
 71
3
 72
12
 73
8
 74
6
 42
0.0000001
 43
0.0000001
 44
0.0000000001
 12
-0.2861448593
 22
-0.1430136799
 32
0.0
 13
-0.0051818787
 23
-0.3198514362
 33
0.0
 40
0.0
 40
0.0
 40
0.0
 40
0.0
 40
0.1081565702
 40
0.2185729604
 40
0.4523564991
 40
0.7118560315
 40
1.0
 40
1.0
 40
1.0
 40
1.0
 10
-17.3179170135
 20
8.9139876834
 30
0.0
 10
-17.3282331623
 20
8.908831727
 30
0.0
 10
-17.3481878721
 20
8.8965086434
 30
0.0
 10
-17.3843516385
 20
8.8642759553
 30
0.0
 10
-17.4207969088
 20
8.8098713061
 30
0.0
 10
-17.447031468
 20
8.7299966668
 30
0.0
 10
-17.4529840291
 20
8.6714630372
 30
0.0
 10
-17.4534817381
 20
8.6407419498
 30
0.0
 11
-17.3179170135
 21
8.9139876834
 31
0.0
 11
-17.3473741108
 21
8.8958399361
 31
0.0
 11
-17.3737956448
 21
8.8723983241
 31
0.0
 11
-17.4162753559
 21
8.8108484094
 31
0.0
 11
-17.4432781381
 21
8.7323508079
 31
0.0
 11
-17.4534817381
 21
8.6407419498
 31
0.0
  0
SPLINE
  5
416
100
AcDbEntity
  8
ASSI
100
AcDbSpline
 62
7
  6
CONTINUOUS
 70
0
 71
3
 72
9
 73
5
 74
3
 42
0.0000001
 43
0.0000001
 44
0.0000000001
 12
-0.0000232576
 22
0.0180422949
 32
0.0
 13
-0.0161648812
 23
0.0080138356
 33
0.0
 40
0.0
 40
0.0
 40
0.0
 40
0.0
 40
0.4846513837
 40
1.0
 40
1.0
 40
1.0
 40
1.0
 10
4.2702451654
 20
21.7584867339
 30
0.0
 10
4.2702414081
 20
21.761401475
 30
0.0
 10
4.2688095684
 20
21.7676787844
 30
0.0
 10
4.2637126303
 20
21.7716135585
 30
0.0
 10
4.2609357805
 20
21.7729901982
 30
0.0
 11
4.2702451654
 21
21.7584867339
 31
0.0
 11
4.2679926381
 21
21.7669358573
 31
0.0
 11
4.2609357805
 21
21.7729901982
 31
0.0
  0
SPLINE
  5
417
100
AcDbEntity
  8
ASSI
100
AcDbSpline
 62
7
  6
CONTINUOUS
 70
0
 71
3
 72
9
 73
5
 74
3
 42
0.0000001
 43
0.0000001
 44
0.0000000001
 12
-0.0000205845
 22
0.018045091
 32
0.0
 13
-0.0161673677
 23
0.0080151077
 33
0.0
 40
0.0
 40
0.0
 40
0.0
 40
0.0
 40
0.4846631161
 40
1.0
 40
1.0
 40
1.0
 40
1.0
 10
-1.3253686646
 20
24.5562906763
 30
0.0
 10
-1.3253719901
 20
24.5592059396
 30
0.0
 10
-1.3268031024
 20
24.565484539
 30
0.0
 10
-1.3319007605
 20
24.5694202578
 30
0.0
 10
-1.3346779741
 20
24.5707970847
 30
0.0
 11
-1.3253686646
 21
24.5562906763
 31
0.0
 11
-1.3276204703
 21
24.564741612
 31
0.0
 11
-1.3346779741
 21
24.5707970847
 31
0.0
  0
SPLINE
  5
418
100
AcDbEntity
  8
RACCORDO
100
AcDbSpline
 62
7
  6
CONTINUOUS
 70
0
 71
3
 72
11
 73
7
 74
5
 42
0.0000001
 43
0.0000001
 44
0.0000000001
 12
0.2052602154
 22
-0.1026301077
 32
0.0
 13
0.2052778366
 23
0.1025948578
 33
0.0
 40
0.0
 40
0.0
 40
0.0
 40
0.0
 40
0.281640068
 40
0.5386315571
 40
0.7753635345
 40
1.0
 40
1.0
 40
1.0
 40
1.0
 10
-4.7141563686
 20
-19.0376342221
 30
0.0
 10
-4.6948865349
 20
-19.047269139
 30
0.0
 10
-4.6564899614
 20
-19.0628897305
 30
0.0
 10
-4.5978233549
 20
-19.0742572638
 30
0.0
 10
-4.5423538159
 20
-19.0718785638
 30
0.0
 10
-4.5082879336
 20
-19.0607007649
 30
0.0
 10
-4.4929169711
 20
-19.0530185828
 30
0.0
 11
-4.7141563686
 21
-19.0376342221
 31
0.0
 11
-4.6540881634
 21
-19.0614928419
 31
0.0
 11
-4.5960826347
 21
-19.0721501731
 31
0.0
 11
-4.5418304406
 21
-19.0692978396
 31
0.0
 11
-4.4929169711
 21
-19.0530185828
 31
0.0
  0
SPLINE
  5
419
100
AcDbEntity
  8
RACCORDO
100
AcDbSpline
 62
7
  6
CONTINUOUS
 70
0
 71
3
 72
15
 73
11
 74
9
 42
0.0000001
 43
0.0000001
 44
0.0000000001
 12
0.017249815
 22
-0.7349701913
 32
0.0
 13
0.6575583553
 23
-0.3287791776
 33
0.0
 40
0.0
 40
0.0
 40
0.0
 40
0.0
 40
0.1187674087
 40
0.2452214251
 40
0.3766806365
 40
0.510024992
 40
0.6419744355
 40
0.7693581274
 40
0.88939362
 40
1.0
 40
1.0
 40
1.0
 40
1.0
 10
-17.3815897157
 20
-12.2811268106
 30
0.0
 10
-17.3809068104
 20
-12.3102236456
 30
0.0
 10
-17.3745291869
 20
-12.3702421454
 30
0.0
 10
-17.3523136051
 20
-12.4600799303
 30
0.0
 10
-17.3179329309
 20
-12.5498356487
 30
0.0
 10
-17.2726766668
 20
-12.63613502
 30
0.0
 10
-17.2182400975
 20
-12.7157584038
 30
0.0
 10
-17.1566444319
 20
-12.7857364632
 30
0.0
 10
-17.0901996526
 20
-12.8434461879
 30
0.0
 10
-17.0420577443
 20
-12.8736835342
 30
0.0
 10
-17.0178143612
 20
-12.8858052258
 30
0.0
 11
-17.3815897157
 21
-12.2811268106
 31
0.0
 11
-17.3728326091
 21
-12.3680011025
 31
0.0
 11
-17.3508173084
 21
-12.4583222834
 31
0.0
 11
-17.3163890943
 21
-12.5486272916
 31
0.0
 11
-17.2708713002
 21
-12.6354502724
 31
0.0
 11
-17.216013711
 21
-12.7154548603
 31
0.0
 11
-17.1539283028
 21
-12.7855657515
 31
0.0
 11
-17.0870039318
 21
-12.8430864172
 31
0.0
 11
-17.0178143612
 21
-12.8858052258
 31
0.0
  0
LINE
  5
41A
100
AcDbEntity
  8
RACCORDO
100
AcDbLine
 62
7
  6
CONTINUOUS
 10
-17.3815897157
 20
-12.2811268106
 11
-17.3865200974
 21
-12.0691853574
  0
LINE
  5
41B
100
AcDbEntity
  8
RACCORDO
100
AcDbLine
 62
7
  6
CONTINUOUS
 10
-4.1586929075
 20
-18.8925752147
 11
-4.1636232892
 21
-18.6806337602
  0
SPLINE
  5
41C
100
AcDbEntity
  8
RACCORDO
100
AcDbSpline
 62
7
  6
CONTINUOUS
 70
0
 71
3
 72
14
 73
10
 74
8
 42
0.0000001
 43
0.0000001
 44
0.0000000001
 12
0.0115948407
 22
-0.4940263017
 32
0.0
 13
-0.4419761712
 23
-0.2210282587
 33
0.0
 40
0.0
 40
0.0
 40
0.0
 40
0.0
 40
0.2911637322
 40
0.4250315136
 40
0.5511682713
 40
0.670279627
 40
0.783580389
 40
0.8927809219
 40
1.0
 40
1.0
 40
1.0
 40
1.0
 10
-4.1586929075
 20
-18.8925752147
 30
0.0
 10
-4.1575675752
 20
-18.9405227286
 30
0.0
 10
-4.1618457639
 20
-19.0110421108
 30
0.0
 10
-4.1826754265
 20
-19.0995899033
 30
0.0
 10
-4.2045357972
 20
-19.1582906297
 30
0.0
 10
-4.2328474262
 20
-19.210371295
 30
0.0
 10
-4.2673368995
 20
-19.2551655754
 30
0.0
 10
-4.3076021737
 20
-19.2920262618
 30
0.0
 10
-4.3380671698
 20
-19.3110022769
 30
0.0
 10
-4.3538632623
 20
-19.3189017589
 30
0.0
 11
-4.1586929075
 21
-18.8925752147
 31
0.0
 11
-4.168959288
 21
-19.0360906341
 31
0.0
 11
-4.1843370912
 21
-19.1004308664
 31
0.0
 11
-4.206322747
 21
-19.1587567929
 31
0.0
 11
-4.2346491654
 21
-19.2103528636
 31
0.0
 11
-4.2689715987
 21
-19.2545878657
 31
0.0
 11
-4.3088716957
 21
-19.2909191904
 31
0.0
 11
-4.3538632623
 21
-19.3189017589
 31
0.0
  0
SPLINE
  5
41D
100
AcDbEntity
  8
RACCORDO
100
AcDbSpline
 62
7
  6
CONTINUOUS
 70
0
 71
3
 72
15
 73
11
 74
9
 42
0.0000001
 43
0.0000001
 44
0.0000000001
 12
1.0538907088
 22
-0.5269453544
 32
0.0
 13
-0.0190867741
 23
-1.1781310316
 33
0.0
 40
0.0
 40
0.0
 40
0.0
 40
0.0
 40
0.110130069
 40
0.2293571139
 40
0.3558898861
 40
0.4871916186
 40
0.6202944602
 40
0.7520750931
 40
0.879518862
 40
1.0
 40
1.0
 40
1.0
 40
1.0
 10
-4.7845015482
 20
3.0108409846
 30
0.0
 10
-4.745813196
 20
2.9914968085
 30
0.0
 10
-4.6692376502
 20
2.9429654176
 30
0.0
 10
-4.5644757171
 20
2.8497021324
 30
0.0
 10
-4.4685084296
 20
2.7363111102
 30
0.0
 10
-4.3849114005
 20
2.6070488876
 30
0.0
 10
-4.3167544889
 20
2.4667417046
 30
0.0
 10
-4.2665789498
 20
2.3206254258
 30
0.0
 10
-4.2362514847
 20
2.174201655
 30
0.0
 10
-4.2298183978
 20
2.0766077349
 30
0.0
 10
-4.2305849299
 20
2.0292935457
 30
0.0
 11
-4.7845015482
 21
3.0108409846
 31
0.0
 11
-4.6743638841
 21
2.9422219886
 31
0.0
 11
-4.5689314029
 21
2.8493801357
 31
0.0
 11
-4.4722480308
 21
2.7358870754
 31
0.0
 11
-4.3880223483
 21
2.6061122285
 31
0.0
 11
-4.3194793284
 21
2.4650501982
 31
0.0
 11
-4.2692413577
 21
2.318126605
 31
0.0
 11
-4.2392279638
 21
2.1709913882
 31
0.0
 11
-4.2305849299
 21
2.0292935457
 31
0.0
  0
SPLINE
  5
41E
100
AcDbEntity
  8
ASSI
100
AcDbSpline
 62
7
  6
CONTINUOUS
 70
0
 71
3
 72
10
 73
6
 74
4
 42
0.0000001
 43
0.0000001
 44
0.0000000001
 12
0.1954125185
 22
0.0453558667
 32
0.0
 13
0.1794955328
 23
-0.0895799125
 33
0.0
 40
0.0
 40
0.0
 40
0.0
 40
0.0
 40
0.2275459385
 40
0.5979302152
 40
1.0
 40
1.0
 40
1.0
 40
1.0
 10
3.591453225
 20
22.0460084472
 30
0.0
 10
3.606275
 20
22.0494486283
 30
0.0
 10
3.6464866857
 20
22.0533706691
 30
0.0
 10
3.7132414739
 20
22.0422312086
 30
0.0
 10
3.7614162218
 20
22.0227274883
 30
0.0
 10
3.7854727985
 20
22.0107216963
 30
0.0
 11
3.591453225
 21
22.0460084472
 31
0.0
 11
3.6368375879
 21
22.0509011293
 31
0.0
 11
3.7103468566
 21
22.0400783683
 31
0.0
 11
3.7854727985
 21
22.0107216963
 31
0.0
  0
SPLINE
  5
41F
100
AcDbEntity
  8
ASSI
100
AcDbSpline
 62
7
  6
CONTINUOUS
 70
0
 71
3
 72
10
 73
6
 74
4
 42
0.0000001
 43
0.0000001
 44
0.0000000001
 12
0.1960075781
 22
0.046500996
 32
0.0
 13
0.1802480043
 23
-0.0899553792
 33
0.0
 40
0.0
 40
0.0
 40
0.0
 40
0.0
 40
0.227419644
 40
0.5977626467
 40
1.0
 40
1.0
 40
1.0
 40
1.0
 10
-2.0049873959
 20
24.8436213316
 30
0.0
 10
-1.990128738
 20
24.8471464116
 30
0.0
 10
-1.9497681785
 20
24.8512378945
 30
0.0
 10
-1.8827027954
 20
24.840163353
 30
0.0
 10
-1.8343087059
 20
24.8205898304
 30
0.0
 10
-1.8101412125
 20
24.8085286925
 30
0.0
 11
-2.0049873959
 21
24.8436213316
 31
0.0
 11
-1.9594575544
 21
24.848709225
 31
0.0
 11
-1.8856275067
 21
24.8379849049
 31
0.0
 11
-1.8101412125
 21
24.8085286925
 31
0.0
  0
SPLINE
  5
420
100
AcDbEntity
  8
RACCORDO
100
AcDbSpline
 62
7
  6
CONTINUOUS
 70
0
 71
3
 72
9
 73
5
 74
3
 42
0.0000001
 43
0.0000001
 44
0.0000000001
 12
-0.0110860342
 22
-0.0399468313
 32
0.0
 13
0.0000244836
 23
-0.0414565904
 33
0.0
 40
0.0
 40
0.0
 40
0.0
 40
0.0
 40
0.470196659
 40
1.0
 40
1.0
 40
1.0
 40
1.0
 10
-7.9056881818
 20
21.894247665
 30
0.0
 10
-7.9074257205
 20
21.8879867095
 30
0.0
 10
-7.909854903
 20
21.8743168369
 30
0.0
 10
-7.9105144315
 20
21.8604857821
 30
0.0
 10
-7.9105101077
 20
21.8531645021
 30
0.0
 11
-7.9056881818
 21
21.894247665
 31
0.0
 11
-7.9093188637
 21
21.8750960177
 31
0.0
 11
-7.9105101077
 21
21.8531645021
 31
0.0
  0
SPLINE
  5
421
100
AcDbEntity
  8
RACCORDO
100
AcDbSpline
 62
7
  6
CONTINUOUS
 70
0
 71
3
 72
12
 73
8
 74
6
 42
0.0000001
 43
0.0000001
 44
0.0000000001
 12
0.0002238523
 22
-0.3790359227
 32
0.0
 13
0.2339640663
 23
-0.2982098196
 33
0.0
 40
0.0
 40
0.0
 40
0.0
 40
0.0
 40
0.1015870176
 40
0.2135875906
 40
0.4591399651
 40
0.7237133738
 40
1.0
 40
1.0
 40
1.0
 40
1.0
 10
-7.9105101077
 20
21.8531645021
 30
0.0
 10
-7.9105025275
 20
21.8403294591
 30
0.0
 10
-7.9082453833
 20
21.8133352034
 30
0.0
 10
-7.8967766997
 20
21.7563876176
 30
0.0
 10
-7.8704310363
 20
21.6819101446
 30
0.0
 10
-7.8245442569
 20
21.5935181435
 30
0.0
 10
-7.785610059
 20
21.5370981205
 30
0.0
 10
-7.7640630115
 20
21.5096343255
 30
0.0
 11
-7.9105101077
 21
21.8531645021
 31
0.0
 11
-7.9076591415
 21
21.814765056
 31
0.0
 11
-7.8995032731
 21
21.773103621
 31
0.0
 11
-7.869345157
 21
21.6850518965
 31
0.0
 11
-7.8234628947
 21
21.5958808994
 31
0.0
 11
-7.7640630115
 21
21.5096343255
 31
0.0
  0
LINE
  5
422
100
AcDbEntity
  8
RACCORDO
100
AcDbLine
 62
253
  6
CONTINUOUS
 10
8.4578325201
 20
18.566252586
 11
4.0483689765
 21
15.8921806088
  0
SPLINE
  5
423
100
AcDbEntity
  8
RACCORDO
100
AcDbSpline
 62
253
  6
CONTINUOUS
 70
0
 71
3
 72
11
 73
7
 74
5
 42
0.0000001
 43
0.0000001
 44
0.0000000001
 12
-0.1026843425
 22
0.0513470616
 32
0.0
 13
-0.1029781233
 23
-0.0507553057
 33
0.0
 40
0.0
 40
0.0
 40
0.0
 40
0.0
 40
0.2274030322
 40
0.4651083369
 40
0.721100729
 40
1.0
 40
1.0
 40
1.0
 40
1.0
 10
-9.708020685
 20
24.5617258549
 30
0.0
 10
-9.715804262
 20
24.5656180141
 30
0.0
 10
-9.7329398732
 20
24.5713438746
 30
0.0
 10
-9.7607771628
 20
24.572831155
 30
0.0
 10
-9.7900829277
 20
24.5674702832
 30
0.0
 10
-9.8092219885
 20
24.5598547996
 30
0.0
 10
-9.8187954963
 20
24.5551362604
 30
0.0
 11
-9.708020685
 21
24.5617258549
 31
0.0
 11
-9.7327561851
 21
24.570077609
 31
0.0
 11
-9.759994256
 21
24.5717632387
 31
0.0
 11
-9.7889505903
 21
24.566735035
 31
0.0
 11
-9.8187954963
 21
24.5551362604
 31
0.0
  0
SPLINE
  5
424
100
AcDbEntity
  8
RACCORDO
100
AcDbSpline
 62
253
  6
CONTINUOUS
 70
0
 71
3
 72
11
 73
7
 74
5
 42
0.0000001
 43
0.0000001
 44
0.0000000001
 12
0.1695036322
 22
0.103342112
 32
0.0
 13
-0.007791677
 23
0.1983692598
 33
0.0
 40
0.0
 40
0.0
 40
0.0
 40
0.0
 40
0.2152781346
 40
0.4481703966
 40
0.7086664006
 40
1.0
 40
1.0
 40
1.0
 40
1.0
 10
8.3863537893
 20
18.3902479749
 30
0.0
 10
8.3985172646
 20
18.3976637406
 30
0.0
 10
8.4211169273
 20
18.4179479235
 30
0.0
 10
8.4442904536
 20
18.4594671689
 30
0.0
 10
8.4571106849
 20
18.5102604986
 30
0.0
 10
8.4585891792
 20
18.5469887092
 30
0.0
 10
8.4578325201
 20
18.566252586
 30
0.0
 11
8.3863537893
 21
18.3902479749
 31
0.0
 11
8.4183956561
 21
18.4185289256
 31
0.0
 11
8.4415890117
 21
18.4585248981
 31
0.0
 11
8.4549273614
 21
18.5084894022
 31
0.0
 11
8.4578325201
 21
18.566252586
 31
0.0
  0
SPLINE
  5
425
100
AcDbEntity
  8
RACCORDO
100
AcDbSpline
 62
253
  6
CONTINUOUS
 70
0
 71
3
 72
11
 73
7
 74
5
 42
0.0000001
 43
0.0000001
 44
0.0000000001
 12
-0.0000014429
 22
-0.119182188
 32
0.0
 13
-0.1063496889
 23
-0.0537971895
 33
0.0
 40
0.0
 40
0.0
 40
0.0
 40
0.0
 40
0.2069627842
 40
0.4350648191
 40
0.6978060254
 40
1.0
 40
1.0
 40
1.0
 40
1.0
 10
-9.569823938
 20
24.338119357
 30
0.0
 10
-9.5698240376
 20
24.3298972645
 30
0.0
 10
-9.5734231463
 20
24.3124813684
 30
0.0
 10
-9.5884725163
 20
24.2886861184
 30
0.0
 10
-9.611949455
 20
24.2672743192
 30
0.0
 10
-9.6313090476
 20
24.2556657837
 30
0.0
 10
-9.6420217926
 20
24.2502467216
 30
0.0
 11
-9.569823938
 21
24.338119357
 31
0.0
 11
-9.5745571205
 21
24.313911461
 31
0.0
 11
-9.588577419
 21
24.2906199713
 31
0.0
 11
-9.6113515311
 21
24.2691278585
 31
0.0
 11
-9.6420217926
 21
24.2502467216
 31
0.0
  0
SPLINE
  5
426
100
AcDbEntity
  8
RACCORDO
100
AcDbSpline
 62
253
  6
CONTINUOUS
 70
0
 71
3
 72
11
 73
7
 74
5
 42
0.0000001
 43
0.0000001
 44
0.0000000001
 12
-0.0000057993
 22
-0.1191799056
 32
0.0
 13
-0.1063476524
 23
-0.0537961594
 33
0.0
 40
0.0
 40
0.0
 40
0.0
 40
0.0
 40
0.2069627968
 40
0.4350655478
 40
0.6978069319
 40
1.0
 40
1.0
 40
1.0
 40
1.0
 10
-9.5698239379
 20
23.9905855248
 30
0.0
 10
-9.5698243379
 20
23.9823635893
 30
0.0
 10
-9.5734239473
 20
23.9649481469
 30
0.0
 10
-9.5884734426
 20
23.9411536175
 30
0.0
 10
-9.6119500765
 20
23.9197424126
 30
0.0
 10
-9.6313092848
 20
23.908134147
 30
0.0
 10
-9.6420217926
 20
23.9027152048
 30
0.0
 11
-9.5698239379
 21
23.9905855248
 31
0.0
 11
-9.5745577926
 21
23.9663782401
 31
0.0
 11
-9.5885782987
 21
23.9430873833
 31
0.0
 11
-9.6113521705
 21
23.9215958588
 31
0.0
 11
-9.6420217926
 21
23.9027152048
 31
0.0
  0
SPLINE
  5
427
100
AcDbEntity
  8
ASSI
100
AcDbSpline
 62
7
  6
CONTINUOUS
 70
0
 71
3
 72
11
 73
7
 74
5
 42
0.0000001
 43
0.0000001
 44
0.0000000001
 12
-0.0956695058
 22
0.0474289573
 32
0.0
 13
-0.1037137075
 23
-0.0254091953
 33
0.0
 40
0.0
 40
0.0
 40
0.0
 40
0.0
 40
0.1398851671
 40
0.3465287517
 40
0.6319756849
 40
1.0
 40
1.0
 40
1.0
 40
1.0
 10
-1.3346779741
 20
24.5707970847
 30
0.0
 10
-1.3391388891
 20
24.5730086206
 30
0.0
 10
-1.351579598
 20
24.5753403417
 30
0.0
 10
-1.3740583481
 20
24.5745366146
 30
0.0
 10
-1.4043917807
 20
24.5698830632
 30
0.0
 10
-1.427080495
 20
24.5647539021
 30
0.0
 10
-1.4398035504
 20
24.5616368349
 30
0.0
 11
-1.3346779741
 21
24.5707970847
 31
0.0
 11
-1.3491641643
 21
24.5744393604
 31
0.0
 11
-1.3712291598
 21
24.5742777025
 31
0.0
 11
-1.4014114138
 21
24.5700257602
 31
0.0
 11
-1.4398035504
 21
24.5616368349
 31
0.0
  0
SPLINE
  5
428
100
AcDbEntity
  8
RACCORDO
100
AcDbSpline
 62
253
  6
CONTINUOUS
 70
0
 71
3
 72
11
 73
7
 74
5
 42
0.0000001
 43
0.0000001
 44
0.0000000001
 12
-0.1026843425
 22
0.0513470616
 32
0.0
 13
-0.1029781233
 23
-0.0507553057
 33
0.0
 40
0.0
 40
0.0
 40
0.0
 40
0.0
 40
0.2274030322
 40
0.4651083369
 40
0.721100729
 40
1.0
 40
1.0
 40
1.0
 40
1.0
 10
-10.9569584979
 20
25.1861947614
 30
0.0
 10
-10.9647420749
 20
25.1900869206
 30
0.0
 10
-10.9818776861
 20
25.195812781
 30
0.0
 10
-11.0097149757
 20
25.1973000614
 30
0.0
 10
-11.0390207406
 20
25.1919391896
 30
0.0
 10
-11.0581598014
 20
25.1843237061
 30
0.0
 10
-11.0677333092
 20
25.1796051668
 30
0.0
 11
-10.9569584979
 21
25.1861947614
 31
0.0
 11
-10.981693998
 21
25.1945465154
 31
0.0
 11
-11.0089320689
 21
25.1962321452
 31
0.0
 11
-11.0378884032
 21
25.1912039415
 31
0.0
 11
-11.0677333092
 21
25.1796051668
 31
0.0
  0
SPLINE
  5
429
100
AcDbEntity
  8
RACCORDO
100
AcDbSpline
 62
7
  6
CONTINUOUS
 70
0
 71
3
 72
15
 73
11
 74
9
 42
0.0000001
 43
0.0000001
 44
0.0000000001
 12
0.0119293375
 22
0.7363382978
 32
0.0
 13
-0.6586874208
 23
0.3293437104
 33
0.0
 40
0.0
 40
0.0
 40
0.0
 40
0.0
 40
0.1204780256
 40
0.2479159593
 40
0.3796913467
 40
0.5127935585
 40
0.6440982587
 40
0.7706354004
 40
0.8898674787
 40
1.0
 40
1.0
 40
1.0
 40
1.0
 10
-4.4427169643
 20
2.1353595629
 30
0.0
 10
-4.4422378899
 20
2.1649304243
 30
0.0
 10
-4.4462615193
 20
2.2259250755
 30
0.0
 10
-4.4652279394
 20
2.317435095
 30
0.0
 10
-4.4966061756
 20
2.4087494314
 30
0.0
 10
-4.5392242955
 20
2.4964319287
 30
0.0
 10
-4.5914940476
 20
2.5772097433
 30
0.0
 10
-4.6514900686
 20
2.648069926
 30
0.0
 10
-4.7169772343
 20
2.7063522527
 30
0.0
 10
-4.7648400172
 20
2.7366831601
 30
0.0
 10
-4.789020986
 20
2.7487736445
 30
0.0
 11
-4.4427169643
 21
2.1353595629
 31
0.0
 11
-4.4481229361
 21
2.2239189424
 31
0.0
 11
-4.466892732
 21
2.3158725688
 31
0.0
 11
-4.4983087792
 21
2.4076907011
 31
0.0
 11
-4.5411684175
 21
2.4958450592
 31
0.0
 11
-4.5938304205
 21
2.5769443454
 31
0.0
 11
-4.654274199
 21
2.6478685954
 31
0.0
 11
-4.7201807872
 21
2.7058886983
 31
0.0
 11
-4.789020986
 21
2.7487736445
 31
0.0
  0
SPLINE
  5
42A
100
AcDbEntity
  8
RACCORDO
100
AcDbSpline
 62
253
  6
CONTINUOUS
 70
0
 71
3
 72
12
 73
8
 74
6
 42
0.0000001
 43
0.0000001
 44
0.0000000001
 12
-0.0000794019
 22
-0.2408686097
 32
0.0
 13
0.2154398873
 23
-0.1077188397
 33
0.0
 40
0.0
 40
0.0
 40
0.0
 40
0.0
 40
0.1021925206
 40
0.2072603108
 40
0.4349698524
 40
0.6976462351
 40
1.0
 40
1.0
 40
1.0
 40
1.0
 10
-5.1486407484
 20
-5.9580683317
 30
0.0
 10
-5.1486434532
 20
-5.9662733218
 30
0.0
 10
-5.1469850851
 20
-5.9829588936
 30
0.0
 10
-5.1368800466
 20
-6.0165829931
 30
0.0
 10
-5.110784036
 20
-6.0577090743
 30
0.0
 10
-5.0631474885
 20
-6.1006766124
 30
0.0
 10
-5.0239074567
 20
-6.1239766848
 30
0.0
 10
-5.0021944363
 20
-6.1348330837
 30
0.0
 11
-5.1486407484
 21
-5.9580683317
 31
0.0
 11
-5.1462406805
 21
-5.9825660154
 31
0.0
 11
-5.1390460482
 21
-6.0068293321
 31
0.0
 11
-5.1105966056
 21
-6.0537222047
 31
0.0
 11
-5.0643891531
 21
-6.0969428863
 31
0.0
 11
-5.0021944363
 21
-6.1348330837
 31
0.0
  0
SPLINE
  5
42B
100
AcDbEntity
  8
RACCORDO
100
AcDbSpline
 62
7
  6
CONTINUOUS
 70
0
 71
3
 72
11
 73
7
 74
5
 42
0.0000001
 43
0.0000001
 44
0.0000000001
 12
-0.2088998216
 22
0.1044499108
 32
0.0
 13
-0.2089169762
 23
-0.1044155944
 33
0.0
 40
0.0
 40
0.0
 40
0.0
 40
0.0
 40
0.2775578044
 40
0.5330330713
 40
0.7711824637
 40
1.0
 40
1.0
 40
1.0
 40
1.0
 10
-17.0926789787
 20
8.9006026408
 30
0.0
 10
-17.1120062373
 20
8.9102662701
 30
0.0
 10
-17.1507535862
 20
8.9258640555
 30
0.0
 10
-17.210265505
 20
8.9368003501
 30
0.0
 10
-17.2670037857
 20
8.9336910031
 30
0.0
 10
-17.3019823909
 20
8.9219517231
 30
0.0
 10
-17.3179170135
 20
8.9139876834
 30
0.0
 11
-17.0926789787
 21
8.9006026408
 31
0.0
 11
-17.153005939
 21
8.924330594
 31
0.0
 11
-17.2117832939
 21
8.9346019255
 31
0.0
 11
-17.2672957012
 21
8.9311202803
 31
0.0
 11
-17.3179170135
 21
8.9139876834
 31
0.0
  0
SPLINE
  5
42C
100
AcDbEntity
  8
RACCORDO
100
AcDbSpline
 62
253
  6
CONTINUOUS
 70
0
 71
3
 72
9
 73
5
 74
3
 42
0.0000001
 43
0.0000001
 44
0.0000000001
 12
-0.0221872219
 22
0.0110907997
 32
0.0
 13
-0.0242893561
 23
0.0050304904
 33
0.0
 40
0.0
 40
0.0
 40
0.0
 40
0.0
 40
0.2486668508
 40
1.0
 40
1.0
 40
1.0
 40
1.0
 10
3.6386136655
 20
-23.758726523
 30
0.0
 10
3.6367745899
 20
-23.7578072182
 30
0.0
 10
3.6292588701
 20
-23.7543540376
 30
0.0
 10
3.6212880397
 20
-23.7519022341
 30
0.0
 10
3.6152049069
 20
-23.750642376
 30
0.0
 11
3.6386136655
 21
-23.758726523
 31
0.0
 11
3.6330086273
 21
-23.7561517555
 31
0.0
 11
3.6152049069
 21
-23.750642376
 31
0.0
  0
SPLINE
  5
42D
100
AcDbEntity
  8
RACCORDO
100
AcDbSpline
 62
253
  6
CONTINUOUS
 70
0
 71
3
 72
11
 73
7
 74
5
 42
0.0000001
 43
0.0000001
 44
0.0000000001
 12
-0.0000014429
 22
-0.119182188
 32
0.0
 13
-0.1063496889
 23
-0.0537971895
 33
0.0
 40
0.0
 40
0.0
 40
0.0
 40
0.0
 40
0.2069627842
 40
0.4350648191
 40
0.6978060254
 40
1.0
 40
1.0
 40
1.0
 40
1.0
 10
3.7768165569
 20
-24.3298680633
 30
0.0
 10
3.7768164573
 20
-24.3380901558
 30
0.0
 10
3.7732173486
 20
-24.3555060519
 30
0.0
 10
3.7581679786
 20
-24.379301302
 30
0.0
 10
3.7346910399
 20
-24.4007131012
 30
0.0
 10
3.7153314473
 20
-24.4123216366
 30
0.0
 10
3.7046187023
 20
-24.4177406988
 30
0.0
 11
3.7768165569
 21
-24.3298680633
 31
0.0
 11
3.7720833744
 21
-24.3540759593
 31
0.0
 11
3.7580630759
 21
-24.377367449
 31
0.0
 11
3.7352889638
 21
-24.3988595618
 31
0.0
 11
3.7046187023
 21
-24.4177406988
 31
0.0
  0
SPLINE
  5
42E
100
AcDbEntity
  8
RACCORDO
100
AcDbSpline
 62
253
  6
CONTINUOUS
 70
0
 71
3
 72
12
 73
8
 74
6
 42
0.0000001
 43
0.0000001
 44
0.0000000001
 12
-0.0077411357
 22
-0.2398646418
 32
0.0
 13
0.2147308869
 23
-0.1071709744
 33
0.0
 40
0.0
 40
0.0
 40
0.0
 40
0.0
 40
0.0992853516
 40
0.2018946729
 40
0.4272391936
 40
0.6918164814
 40
1.0
 40
1.0
 40
1.0
 40
1.0
 10
-18.2447002762
 20
18.4689143004
 30
0.0
 10
-18.24495647
 20
18.460975952
 30
0.0
 10
-18.2437397185
 20
18.4447286879
 30
0.0
 10
-18.2341849218
 20
18.4116960166
 30
0.0
 10
-18.2080741948
 20
18.3709944166
 30
0.0
 10
-18.1599781168
 20
18.3282725159
 30
0.0
 10
-18.120276983
 20
18.3048835754
 30
0.0
 10
-18.0982181429
 20
18.2938741327
 30
0.0
 11
-18.2447002762
 21
18.4689143004
 31
0.0
 11
-18.2429620724
 21
18.4451503414
 31
0.0
 11
-18.2362330414
 21
18.4214623961
 31
0.0
 11
-18.2081242939
 21
18.3752608834
 31
0.0
 11
-18.1614995739
 21
18.3321581083
 31
0.0
 11
-18.0982181429
 21
18.2938741327
 31
0.0
  0
SPLINE
  5
42F
100
AcDbEntity
  8
RACCORDO
100
AcDbSpline
 62
253
  6
CONTINUOUS
 70
0
 71
3
 72
11
 73
7
 74
5
 42
0.0000001
 43
0.0000001
 44
0.0000000001
 12
0.2095460759
 22
0.1221712368
 32
0.0
 13
0.2185204315
 23
-0.1052814799
 33
0.0
 40
0.0
 40
0.0
 40
0.0
 40
0.0
 40
0.2233920235
 40
0.4591546752
 40
0.7164478085
 40
1.0
 40
1.0
 40
1.0
 40
1.0
 10
-17.3389916176
 20
20.0545844325
 30
0.0
 10
-17.3233879769
 20
20.0636817924
 30
0.0
 10
-17.2881907485
 20
20.077440253
 30
0.0
 10
-17.2297769998
 20
20.0821507385
 30
0.0
 10
-17.1673439202
 20
20.0716575148
 30
0.0
 10
-17.1263019779
 20
20.0557619256
 30
0.0
 10
-17.1056479955
 20
20.0458109941
 30
0.0
 11
-17.3389916176
 21
20.0545844325
 31
0.0
 11
-17.2886090962
 21
20.0745273904
 31
0.0
 11
-17.231660999
 21
20.0797447665
 31
0.0
 11
-17.1700066235
 21
20.0700687606
 31
0.0
 11
-17.1056479955
 21
20.0458109941
 31
0.0
  0
SPLINE
  5
430
100
AcDbEntity
  8
RACCORDO
100
AcDbSpline
 62
253
  6
CONTINUOUS
 70
0
 71
3
 72
11
 73
7
 74
5
 42
0.0000001
 43
0.0000001
 44
0.0000000001
 12
-0.0000013698
 22
-0.1191821853
 32
0.0
 13
-0.1063496865
 23
-0.0537971883
 33
0.0
 40
0.0
 40
0.0
 40
0.0
 40
0.0
 40
0.2069627866
 40
0.4350648202
 40
0.69780603
 40
1.0
 40
1.0
 40
1.0
 40
1.0
 10
3.7768165571
 20
-23.9823365498
 30
0.0
 10
3.7768164626
 20
-23.9905586422
 30
0.0
 10
3.7732173459
 20
-24.007974538
 30
0.0
 10
3.7581679784
 20
-24.0317697869
 30
0.0
 10
3.7346910386
 20
-24.0531815847
 30
0.0
 10
3.7153314469
 20
-24.06479012
 30
0.0
 10
3.7046187023
 20
-24.070209182
 30
0.0
 11
3.7768165571
 21
-23.9823365498
 31
0.0
 11
3.7720833743
 21
-24.0065444454
 31
0.0
 11
3.7580630752
 21
-24.0298359339
 31
0.0
 11
3.7352889627
 21
-24.0513280458
 31
0.0
 11
3.7046187023
 21
-24.070209182
 31
0.0
  0
SPLINE
  5
431
100
AcDbEntity
  8
RACCORDO
100
AcDbSpline
 62
253
  6
CONTINUOUS
 70
0
 71
3
 72
12
 73
8
 74
6
 42
0.0000001
 43
0.0000001
 44
0.0000000001
 12
0.0080691497
 22
-0.2408855903
 32
0.0
 13
0.2155024181
 23
-0.1079337137
 33
0.0
 40
0.0
 40
0.0
 40
0.0
 40
0.0
 40
0.1048910284
 40
0.2122584632
 40
0.4422499851
 40
0.7031959448
 40
1.0
 40
1.0
 40
1.0
 40
1.0
 10
-18.2446815917
 20
-17.056669195
 30
0.0
 10
-18.2443994645
 20
-17.0650914408
 30
0.0
 10
-18.2422442268
 20
-17.082121631
 30
0.0
 10
-18.2314985056
 20
-17.1161605955
 30
0.0
 10
-18.2053552151
 20
-17.157487605
 30
0.0
 10
-18.1582360214
 20
-17.2004966679
 30
0.0
 10
-18.1195390011
 20
-17.2236367581
 30
0.0
 10
-18.0982183373
 20
-17.2343151461
 30
0.0
 11
-18.2446815917
 21
-17.056669195
 31
0.0
 11
-18.2415362365
 21
-17.0817536746
 31
0.0
 11
-18.2338151733
 21
-17.1064527514
 31
0.0
 11
-18.204970942
 21
-17.1537898041
 31
0.0
 11
-18.1592131484
 21
-17.1969384004
 31
0.0
 11
-18.0982183373
 21
-17.2343151461
 31
0.0
  0
LINE
  5
432
100
AcDbEntity
  8
RACCORDO
100
AcDbLine
 62
253
  6
CONTINUOUS
 10
-4.9243029562
 20
-15.4067424023
 11
-4.9249982916
 21
-15.3662714774
  0
SPLINE
  5
433
100
AcDbEntity
  8
RACCORDO
100
AcDbSpline
 62
253
  6
CONTINUOUS
 70
0
 71
3
 72
15
 73
11
 74
9
 42
0.0000001
 43
0.0000001
 44
0.0000000001
 12
0.000725551
 22
2.2085374455
 32
0.0
 13
-1.9753631703
 23
0.9877137846
 33
0.0
 40
0.0
 40
0.0
 40
0.0
 40
0.0
 40
0.1197979315
 40
0.2468575064
 40
0.3785198914
 40
0.5117247869
 40
0.6432845351
 40
0.7701503828
 40
0.8896904054
 40
1.0
 40
1.0
 40
1.0
 40
1.0
 10
-5.0021945503
 20
-6.1348331406
 30
0.0
 10
-5.0021655771
 20
-6.0466404014
 30
0.0
 10
-5.0170330641
 20
-5.8647211513
 30
0.0
 10
-5.077668899
 20
-5.5919962196
 30
0.0
 10
-5.1751501115
 20
-5.319660032
 30
0.0
 10
-5.3058785623
 20
-5.0579669034
 30
0.0
 10
-5.4650116848
 20
-4.8166971669
 30
0.0
 10
-5.6467174622
 20
-4.6048817468
 30
0.0
 10
-5.844228503
 20
-4.4304988007
 30
0.0
 10
-5.988160456
 20
-4.3395464125
 30
0.0
 10
-6.0607942929
 20
-4.3032283102
 30
0.0
 11
-5.0021945503
 21
-6.1348331406
 31
0.0
 11
-5.0224073745
 21
-5.871028132
 31
0.0
 11
-5.0824558632
 21
-5.5969124065
 31
0.0
 11
-5.1800705912
 21
-5.3230052274
 31
0.0
 11
-5.3115523885
 21
-5.0598339421
 31
0.0
 11
-5.4719026974
 21
-4.8175329296
 31
0.0
 11
-5.6550041211
 21
-4.6054499773
 31
0.0
 11
-5.8538471132
 21
-4.4317778109
 31
0.0
 11
-6.0607942929
 21
-4.3032283102
 31
0.0
  0
SPLINE
  5
434
100
AcDbEntity
  8
RACCORDO
100
AcDbSpline
 62
253
  6
CONTINUOUS
 70
0
 71
3
 72
19
 73
15
 74
13
 42
0.0000001
 43
0.0000001
 44
0.0000000001
 12
-1.4714838989
 22
0.7357182534
 32
0.0
 13
-0.0005978388
 23
-1.6451583072
 33
0.0
 40
0.0
 40
0.0
 40
0.0
 40
0.0
 40
0.1346090806
 40
0.256693341
 40
0.3141710499
 40
0.3700298732
 40
0.4250632888
 40
0.4801316133
 40
0.5360912779
 40
0.5937254271
 40
0.716234185
 40
0.7821960534
 40
0.8514992542
 40
1.0
 40
1.0
 40
1.0
 40
1.0
 10
-15.9727025127
 20
0.6527257998
 30
0.0
 10
-16.0387275443
 20
0.6857372523
 30
0.0
 10
-16.1708647329
 20
0.7375032564
 30
0.0
 10
-16.3436100533
 20
0.7615323726
 30
0.0
 10
-16.4727540557
 20
0.7514257334
 30
0.0
 10
-16.5630302584
 20
0.7303255735
 30
0.0
 10
-16.6476240557
 20
0.6957126629
 30
0.0
 10
-16.7256184714
 20
0.6479554656
 30
0.0
 10
-16.7961858167
 20
0.5875800096
 30
0.0
 10
-16.8810957508
 20
0.4892904801
 30
0.0
 10
-16.9463886743
 20
0.3691452194
 30
0.0
 10
-16.9918580768
 20
0.2351304122
 30
0.0
 10
-17.0261961232
 20
0.0830966585
 30
0.0
 10
-17.035348279
 20
-0.0368057345
 30
0.0
 10
-17.0353778721
 20
-0.1182414797
 30
0.0
 11
-15.9727025127
 21
0.6527257998
 31
0.0
 11
-16.1797882042
 21
0.7311927582
 31
0.0
 11
-16.3790275389
 21
0.7565617521
 31
0.0
 11
-16.4732809901
 21
0.7489546154
 31
0.0
 11
-16.562728441
 21
0.727879961
 31
0.0
 11
-16.6465045633
 21
0.6935460833
 31
0.0
 11
-16.7237992871
 21
0.6462895265
 31
0.0
 11
-16.793865275
 21
0.5865713242
 31
0.0
 11
-16.8560254935
 21
0.5149722414
 31
0.0
 11
-16.9543105192
 21
0.339014944
 31
0.0
 11
-16.9894871882
 21
0.2363567825
 31
0.0
 11
-17.0148707352
 21
0.1252035667
 31
0.0
 11
-17.0353778721
 21
-0.1182414797
 31
0.0
  0
SPLINE
  5
435
100
AcDbEntity
  8
RACCORDO
100
AcDbSpline
 62
253
  6
CONTINUOUS
 70
0
 71
3
 72
11
 73
7
 74
5
 42
0.0000001
 43
0.0000001
 44
0.0000000001
 12
0.1389309039
 22
0.0712901785
 32
0.0
 13
-0.000739186
 23
0.1561522949
 33
0.0
 40
0.0
 40
0.0
 40
0.0
 40
0.0
 40
0.21754047
 40
0.4509586234
 40
0.7106393245
 40
1.0
 40
1.0
 40
1.0
 40
1.0
 10
3.6409360372
 20
-24.5523013203
 30
0.0
 10
3.6510104019
 20
-24.5471318206
 30
0.0
 10
3.6700289753
 20
-24.5323990165
 30
0.0
 10
3.6903355996
 20
-24.5008153383
 30
0.0
 10
3.7023970328
 20
-24.4615000113
 30
0.0
 10
3.7046899994
 20
-24.4328021433
 30
0.0
 10
3.7046187023
 20
-24.4177406988
 30
0.0
 11
3.6409360372
 21
-24.5523013203
 31
0.0
 11
3.6679323203
 21
-24.5316821628
 31
0.0
 11
3.6881310119
 21
-24.5013414934
 31
0.0
 11
3.7005591987
 21
-24.4627428118
 31
0.0
 11
3.7046187023
 21
-24.4177406988
 31
0.0
  0
SPLINE
  5
436
100
AcDbEntity
  8
RACCORDO
100
AcDbSpline
 62
7
  6
CONTINUOUS
 70
0
 71
3
 72
11
 73
7
 74
5
 42
0.0000001
 43
0.0000001
 44
0.0000000001
 12
0.1334232764
 22
0.0748828011
 32
0.0
 13
-0.0
 23
0.1530006686
 33
0.0
 40
0.0
 40
0.0
 40
0.0
 40
0.0
 40
0.2171864146
 40
0.4511858794
 40
0.7111959599
 40
1.0
 40
1.0
 40
1.0
 40
1.0
 10
3.1153403203
 20
-24.8218684265
 30
0.0
 10
3.1249995613
 20
-24.8164472508
 30
0.0
 10
3.1431274326
 20
-24.8014250053
 30
0.0
 10
3.1624555834
 20
-24.7701470192
 30
0.0
 10
3.1740431099
 20
-24.731568599
 30
0.0
 10
3.1763515305
 20
-24.7034808278
 30
0.0
 10
3.1763515305
 20
-24.6887517574
 30
0.0
 11
3.1153403203
 21
-24.8218684265
 31
0.0
 11
3.141092671
 21
-24.8008677794
 31
0.0
 11
3.1603771041
 21
-24.7707032441
 31
0.0
 11
3.1723116039
 21
-24.7327539009
 31
0.0
 11
3.1763515305
 21
-24.6887517574
 31
0.0
  0
SPLINE
  5
437
100
AcDbEntity
  8
ASSI
100
AcDbSpline
 62
7
  6
CONTINUOUS
 70
0
 71
3
 72
11
 73
7
 74
5
 42
0.0000001
 43
0.0000001
 44
0.0000000001
 12
-0.0964201633
 22
0.0478008667
 32
0.0
 13
-0.1045061947
 23
-0.0256948638
 33
0.0
 40
0.0
 40
0.0
 40
0.0
 40
0.0
 40
0.1396023896
 40
0.3461574467
 40
0.6317252722
 40
1.0
 40
1.0
 40
1.0
 40
1.0
 10
4.2609357805
 20
21.7729901982
 30
0.0
 10
4.2564489521
 20
21.7752145699
 30
0.0
 10
4.2439188672
 20
21.7775461426
 30
0.0
 10
4.2212752006
 20
21.7767055902
 30
0.0
 10
4.1906989483
 20
21.7719780522
 30
0.0
 10
4.1678244007
 20
21.766784188
 30
0.0
 10
4.1549954039
 20
21.7636299317
 30
0.0
 11
4.2609357805
 21
21.7729901982
 31
0.0
 11
4.2463622972
 21
21.7766410492
 31
0.0
 11
4.2241339472
 21
21.7764497179
 31
0.0
 11
4.1937070489
 21
21.772127047
 31
0.0
 11
4.1549954039
 21
21.7636299317
 31
0.0
  0
SPLINE
  5
438
100
AcDbEntity
  8
RACCORDO
100
AcDbSpline
 62
253
  6
CONTINUOUS
 70
0
 71
3
 72
14
 73
10
 74
8
 42
0.0000001
 43
0.0000001
 44
0.0000000001
 12
-0.7955006672
 22
0.3977492674
 32
0.0
 13
-0.0299666865
 23
0.8888913257
 33
0.0
 40
0.0
 40
0.0
 40
0.0
 40
0.0
 40
0.1080856767
 40
0.2183123151
 40
0.3325062122
 40
0.452147137
 40
0.5782994461
 40
0.7116053185
 40
1.0
 40
1.0
 40
1.0
 40
1.0
 10
-17.7137975544
 20
-17.9905169878
 30
0.0
 10
-17.742458297
 20
-17.9761866549
 30
0.0
 10
-17.7979118288
 20
-17.9420665645
 30
0.0
 10
-17.8721018937
 20
-17.876491625
 30
0.0
 10
-17.9368777289
 20
-17.7971543868
 30
0.0
 10
-17.9915344378
 20
-17.7050787935
 30
0.0
 10
-18.0355642569
 20
-17.6013319861
 30
0.0
 10
-18.0806972247
 20
-17.4450077119
 30
0.0
 10
-18.095337593
 20
-17.3197656564
 30
0.0
 10
-18.0982183374
 20
-17.2343151461
 30
0.0
 11
-17.7137975544
 21
-17.9905169878
 31
0.0
 11
-17.7957151918
 21
-17.940211221
 31
0.0
 11
-17.8693296531
 21
-17.8754670731
 31
0.0
 11
-17.933820159
 21
-17.7970059639
 31
0.0
 11
-17.9884675973
 21
-17.7057022848
 31
0.0
 11
-18.0326625719
 21
-17.6025736801
 31
0.0
 11
-18.0659122038
 21
-17.4887696789
 31
0.0
 11
-18.0982183374
 21
-17.2343151461
 31
0.0
  0
SPLINE
  5
439
100
AcDbEntity
  8
RACCORDO
100
AcDbSpline
 62
253
  6
CONTINUOUS
 70
0
 71
3
 72
12
 73
8
 74
6
 42
0.0000001
 43
0.0000001
 44
0.0000000001
 12
-0.0143667242
 22
-0.337021057
 32
0.0
 13
-0.3110365509
 23
-0.1305597934
 33
0.0
 40
0.0
 40
0.0
 40
0.0
 40
0.0
 40
0.2890978441
 40
0.5488670609
 40
0.7821082425
 40
0.892142372
 40
1.0
 40
1.0
 40
1.0
 40
1.0
 10
-1.962358322
 20
-25.0972016343
 30
0.0
 10
-1.963742785
 20
-25.129678988
 30
0.0
 10
-1.9718058471
 20
-25.1913596765
 30
0.0
 10
-2.0024134185
 20
-25.2746986085
 30
0.0
 10
-2.0433656036
 20
-25.3303213395
 30
0.0
 10
-2.0832264641
 20
-25.362079822
 30
0.0
 10
-2.1049832351
 20
-25.373702846
 30
0.0
 10
-2.11616579
 20
-25.3783968026
 30
0.0
 11
-1.962358322
 21
-25.0972016343
 31
0.0
 11
-1.9759589034
 21
-25.1937691306
 31
0.0
 11
-2.0073900314
 21
-25.2755652879
 31
0.0
 11
-2.0549730571
 21
-25.3382244813
 31
0.0
 11
-2.0840574589
 21
-25.3612854049
 31
0.0
 11
-2.11616579
 21
-25.3783968026
 31
0.0
  0
SPLINE
  5
43A
100
AcDbEntity
  8
RACCORDO
100
AcDbSpline
 62
7
  6
CONTINUOUS
 70
0
 71
3
 72
12
 73
8
 74
6
 42
0.0000001
 43
0.0000001
 44
0.0000000001
 12
-0.0057304564
 22
-0.3189914023
 32
0.0
 13
-0.2861226591
 23
-0.1411459416
 33
0.0
 40
0.0
 40
0.0
 40
0.0
 40
0.0
 40
0.2898787625
 40
0.5500437153
 40
0.7831991871
 40
0.8928445279
 40
1.0
 40
1.0
 40
1.0
 40
1.0
 10
3.5368129489
 20
-22.7888729035
 30
0.0
 10
3.5362592364
 20
-22.8196958478
 30
0.0
 10
3.5302763031
 20
-22.878315982
 30
0.0
 10
3.5042258046
 20
-22.9582003251
 30
0.0
 10
3.4680624434
 20
-23.0125036687
 30
0.0
 10
3.4321721354
 20
-23.0444745734
 30
0.0
 10
3.4123888676
 20
-23.0566058056
 30
0.0
 10
3.402168998
 20
-23.0616473256
 30
0.0
 11
3.5368129489
 21
-22.7888729035
 31
0.0
 11
3.5265334465
 21
-22.8807836008
 31
0.0
 11
3.4996621206
 21
-22.9593174038
 31
0.0
 11
3.4575168069
 21
-23.0206128966
 31
0.0
 11
3.4313365584
 21
-23.043814285
 31
0.0
 11
3.402168998
 21
-23.0616473256
 31
0.0
  0
SPLINE
  5
43B
100
AcDbEntity
  8
RACCORDO
100
AcDbSpline
 62
253
  6
CONTINUOUS
 70
0
 71
3
 72
11
 73
7
 74
5
 42
0.0000001
 43
0.0000001
 44
0.0000000001
 12
0.1426574499
 22
0.0695005464
 32
0.0
 13
0.000756365
 23
0.1586849138
 33
0.0
 40
0.0
 40
0.0
 40
0.0
 40
0.0
 40
0.2167636784
 40
0.4498677488
 40
0.709858521
 40
1.0
 40
1.0
 40
1.0
 40
1.0
 10
1.5088090656
 20
-25.6046366702
 30
0.0
 10
1.5191167168
 20
-25.5996149389
 30
0.0
 10
1.5386704107
 20
-25.5850073954
 30
0.0
 10
1.5596925474
 20
-25.5531979508
 30
0.0
 10
1.5723803468
 20
-25.5133318751
 30
0.0
 10
1.5749975888
 20
-25.4841333823
 30
0.0
 10
1.5750707397
 20
-25.4687863571
 30
0.0
 11
1.5088090656
 21
-25.6046366702
 31
0.0
 11
1.5365135115
 21
-25.5842491051
 31
0.0
 11
1.5574179807
 21
-25.553731869
 31
0.0
 11
1.5704860761
 21
-25.5145991245
 31
0.0
 11
1.5750707397
 21
-25.4687863571
 31
0.0
  0
SPLINE
  5
43C
100
AcDbEntity
  8
RACCORDO
100
AcDbSpline
 62
7
  6
CONTINUOUS
 70
0
 71
3
 72
15
 73
11
 74
9
 42
0.0000001
 43
0.0000001
 44
0.0000000001
 12
-1.0521069983
 22
0.5260534992
 32
0.0
 13
-0.0276000616
 23
1.1759675406
 33
0.0
 40
0.0
 40
0.0
 40
0.0
 40
0.0
 40
0.1106080909
 40
0.2306493869
 40
0.3580390172
 40
0.48999025
 40
0.6233325093
 40
0.7547879143
 40
0.8812365719
 40
1.0
 40
1.0
 40
1.0
 40
1.0
 10
-17.0115112589
 20
-13.1424612958
 30
0.0
 10
-17.0503017745
 20
-13.123066038
 30
0.0
 10
-17.127334267
 20
-13.0746882127
 30
0.0
 10
-17.2336634229
 20
-12.9823627835
 30
0.0
 10
-17.3322447794
 20
-12.8704135006
 30
0.0
 10
-17.4193745722
 20
-12.7430325133
 30
0.0
 10
-17.4918190119
 20
-12.6049710314
 30
0.0
 10
-17.5468555952
 20
-12.4613746406
 30
0.0
 10
-17.5824203724
 20
-12.3176420154
 30
0.0
 10
-17.5926291241
 20
-12.2216147722
 30
0.0
 10
-17.5937217501
 20
-12.1750607934
 30
0.0
 11
-17.0115112589
 21
-13.1424612958
 31
0.0
 11
-17.1222209586
 21
-13.0741145076
 31
0.0
 11
-17.2293187975
 21
-12.9820900911
 31
0.0
 11
-17.3286838895
 21
-12.8699259296
 31
0.0
 11
-17.4164874662
 21
-12.7419351572
 31
0.0
 11
-17.4893484188
 21
-12.6030359118
 31
0.0
 11
-17.5444609499
 21
-12.4585609914
 31
0.0
 11
-17.5797039727
 21
-12.3140561274
 31
0.0
 11
-17.5937217501
 21
-12.1750607934
 31
0.0
  0
SPLINE
  5
43D
100
AcDbEntity
  8
RACCORDO
100
AcDbSpline
 62
253
  6
CONTINUOUS
 70
0
 71
3
 72
18
 73
14
 74
12
 42
0.0000001
 43
0.0000001
 44
0.0000000001
 12
0.0357198758
 22
-1.0294938715
 32
0.0
 13
0.9498359461
 23
0.3986793405
 33
0.0
 40
0.0
 40
0.0
 40
0.0
 40
0.0
 40
0.1464070216
 40
0.2804233489
 40
0.4031622197
 40
0.461345076
 40
0.51806629
 40
0.5740081007
 40
0.6299079474
 40
0.6865062655
 40
0.7444933924
 40
0.8666700761
 40
1.0
 40
1.0
 40
1.0
 40
1.0
 10
-2.6435489543
 20
-24.596800351
 30
0.0
 10
-2.6418057407
 20
-24.6470420615
 30
0.0
 10
-2.6311716938
 20
-24.7432969953
 30
0.0
 10
-2.5905759509
 20
-24.8765673198
 30
0.0
 10
-2.5362123341
 20
-24.9714605114
 30
0.0
 10
-2.4820903911
 20
-25.0328413114
 30
0.0
 10
-2.4373480831
 20
-25.0711018263
 30
0.0
 10
-2.3881483107
 20
-25.1019889531
 30
0.0
 10
-2.3349462162
 20
-25.1252127618
 30
0.0
 10
-2.278238686
 20
-25.1405594442
 30
0.0
 10
-2.1973151683
 20
-25.1505461058
 30
0.0
 10
-2.0888258785
 20
-25.1417429819
 30
0.0
 10
-2.0045721735
 20
-25.114920263
 30
0.0
 10
-1.962358322
 20
-25.0972016343
 30
0.0
 11
-2.6435489543
 21
-24.596800351
 31
0.0
 11
-2.6259036578
 21
-24.7465803827
 31
0.0
 11
-2.5844092371
 21
-24.8782487936
 31
0.0
 11
-2.5204785333
 21
-24.9873297816
 31
0.0
 11
-2.4807516308
 21
-25.0322070585
 31
0.0
 11
-2.4362875228
 21
-25.0701138379
 31
0.0
 11
-2.3874652341
 21
-25.1007273461
 31
0.0
 11
-2.3347009577
 21
-25.1237871303
 31
0.0
 11
-2.2784443265
 21
-25.1390970743
 31
0.0
 11
-2.2191749315
 21
-25.1465272598
 31
0.0
 11
-2.0936387015
 21
-25.1375636648
 31
0.0
 11
-1.962358322
 21
-25.0972016343
 31
0.0
  0
SPLINE
  5
43E
100
AcDbEntity
  8
RACCORDO
100
AcDbSpline
 62
253
  6
CONTINUOUS
 70
0
 71
3
 72
14
 73
10
 74
8
 42
0.0000001
 43
0.0000001
 44
0.0000000001
 12
0.030958006
 22
-0.8975204102
 32
0.0
 13
0.8031766066
 23
-0.4017569209
 33
0.0
 40
0.0
 40
0.0
 40
0.0
 40
0.0
 40
0.2861087483
 40
0.4187800477
 40
0.5446951968
 40
0.6645247331
 40
0.779335963
 40
0.8905765122
 40
1.0
 40
1.0
 40
1.0
 40
1.0
 10
-3.3441338891
 20
-24.6113573703
 30
0.0
 10
-3.341181437
 20
-24.6969535173
 30
0.0
 10
-3.3261319487
 20
-24.8225365452
 30
0.0
 10
-3.2799623089
 20
-24.9792290635
 30
0.0
 10
-3.2348756345
 20
-25.0834994208
 30
0.0
 10
-3.1789141933
 20
-25.1762087126
 30
0.0
 10
-3.112609737
 20
-25.2562803265
 30
0.0
 10
-3.0366949949
 20
-25.3226861623
 30
0.0
 10
-2.9800433613
 20
-25.357387925
 30
0.0
 10
-2.9507478994
 20
-25.3720418062
 30
0.0
 11
-3.3441338891
 21
-24.6113573703
 31
0.0
 11
-3.3110740406
 21
-24.8661627915
 31
0.0
 11
-3.2770492005
 21
-24.9803472156
 31
0.0
 11
-3.2318238968
 21
-25.0839881687
 31
0.0
 11
-3.17590236
 21
-25.1759306977
 31
0.0
 11
-3.1099080475
 21
-25.2551502849
 31
0.0
 11
-3.0345766552
 21
-25.3207643005
 31
0.0
 11
-2.9507478994
 21
-25.3720418062
 31
0.0
  0
SPLINE
  5
43F
100
AcDbEntity
  8
RACCORDO
100
AcDbSpline
 62
253
  6
CONTINUOUS
 70
0
 71
3
 72
15
 73
11
 74
9
 42
0.0000001
 43
0.0000001
 44
0.0000000001
 12
-0.6379489225
 22
-0.3395695208
 32
0.0
 13
-0.6466158644
 23
0.3227602998
 33
0.0
 40
0.0
 40
0.0
 40
0.0
 40
0.0
 40
0.1147770365
 40
0.2389907228
 40
0.3697449956
 40
0.5036293606
 40
0.6370149597
 40
0.7663076332
 40
0.8882044553
 40
1.0
 40
1.0
 40
1.0
 40
1.0
 10
-2.6435489543
 20
-24.596800351
 30
0.0
 10
-2.6679562498
 20
-24.6097919454
 30
0.0
 10
-2.7209661756
 20
-24.6328187574
 30
0.0
 10
-2.8066377049
 20
-24.6578525596
 30
0.0
 10
-2.8990760574
 20
-24.6740924427
 30
0.0
 10
-2.9948783539
 20
-24.6809256014
 30
0.0
 10
-3.0905319138
 20
-24.6781067153
 30
0.0
 10
-3.1825338175
 20
-24.6657344129
 30
0.0
 10
-3.2675016716
 20
-24.6442795037
 30
0.0
 10
-3.320037515
 20
-24.6233850274
 30
0.0
 10
-3.3441337726
 20
-24.6113573062
 30
0.0
 11
-2.6435489543
 21
-24.596800351
 31
0.0
 11
-2.7194185983
 21
-24.6303305692
 31
0.0
 11
-2.8054863093
 21
-24.6558398828
 31
0.0
 11
-2.8985240787
 21
-24.6723727264
 31
0.0
 11
-2.9950327464
 21
-24.6793060433
 31
0.0
 11
-3.0913852706
 21
-24.6763800513
 31
0.0
 11
-3.1839604532
 21
-24.663703927
 31
0.0
 11
-3.2692765725
 21
-24.6417556769
 31
0.0
 11
-3.3441337726
 21
-24.6113573062
 31
0.0
  0
SPLINE
  5
440
100
AcDbEntity
  8
RACCORDO
100
AcDbSpline
 62
253
  6
CONTINUOUS
 70
0
 71
3
 72
15
 73
11
 74
9
 42
0.0000001
 43
0.0000001
 44
0.0000000001
 12
-0.6597028802
 22
-0.2859186903
 32
0.0
 13
-0.6428578439
 23
0.3220111489
 33
0.0
 40
0.0
 40
0.0
 40
0.0
 40
0.0
 40
0.1118529215
 40
0.2344135773
 40
0.3646250062
 40
0.4988696174
 40
0.6332683318
 40
0.7639322287
 40
0.8872131891
 40
1.0
 40
1.0
 40
1.0
 40
1.0
 10
-2.6435489543
 20
10.8958606513
 30
0.0
 10
-2.6681455191
 20
10.885200371
 30
0.0
 10
-2.7214678098
 20
10.866875105
 30
0.0
 10
-2.8070498192
 20
10.848445352
 30
0.0
 10
-2.8993998423
 20
10.8382871908
 30
0.0
 10
-2.9951137476
 20
10.8367950851
 30
0.0
 10
-3.0906744162
 20
10.8440228336
 30
0.0
 10
-3.1825690673
 20
10.8597063246
 30
0.0
 10
-3.2674100511
 20
10.8832479363
 30
0.0
 10
-3.3199652602
 20
10.9047256177
 30
0.0
 10
-3.3441338889
 20
10.9168318212
 30
0.0
 11
-2.6435489543
 21
10.8958606513
 31
0.0
 11
-2.7194185973
 21
10.8691868728
 31
0.0
 11
-2.8054863145
 21
10.8502759211
 31
0.0
 11
-2.8985240965
 21
10.8398359975
 31
0.0
 11
-2.9950327819
 21
10.8382608856
 31
0.0
 11
-3.0913853272
 21
10.8456090672
 31
0.0
 11
-3.1839605318
 21
10.861605093
 31
0.0
 11
-3.2692766718
 21
10.885646215
 31
0.0
 11
-3.3441338889
 21
10.9168318212
 31
0.0
  0
SPLINE
  5
441
100
AcDbEntity
  8
RACCORDO
100
AcDbSpline
 62
253
  6
CONTINUOUS
 70
0
 71
3
 72
15
 73
11
 74
9
 42
0.0000001
 43
0.0000001
 44
0.0000000001
 12
-1.2258256345
 22
-0.6692411682
 32
0.0
 13
-0.0468626069
 23
-1.3958281139
 33
0.0
 40
0.0
 40
0.0
 40
0.0
 40
0.0
 40
0.1125352868
 40
0.2331217012
 40
0.3599666735
 40
0.49073593
 40
0.6227871675
 40
0.7533812707
 40
0.8798877602
 40
1.0
 40
1.0
 40
1.0
 40
1.0
 10
-1.962358322
 20
12.0540800817
 30
0.0
 10
-2.0083412018
 20
12.0289756661
 30
0.0
 10
-2.0990845948
 20
11.968459855
 30
0.0
 10
-2.223883281
 20
11.8559083912
 30
0.0
 10
-2.3386669834
 20
11.7217956224
 30
0.0
 10
-2.4396170278
 20
11.5705857461
 30
0.0
 10
-2.5234149314
 20
11.4072850593
 30
0.0
 10
-2.5872741192
 20
11.2372990916
 30
0.0
 10
-2.629068735
 20
11.0663076125
 30
0.0
 10
-2.6416726967
 20
10.9517459983
 30
0.0
 10
-2.6435489543
 20
10.8958606513
 30
0.0
 11
-1.962358322
 21
12.0540800817
 31
0.0
 11
-2.0936387194
 21
11.9676661389
 31
0.0
 11
-2.2191749431
 21
11.8554007914
 31
0.0
 11
-2.3347009667
 21
11.7210984726
 31
0.0
 11
-2.4362875268
 21
11.5693241692
 31
0.0
 11
-2.5204785308
 21
11.4052377963
 31
0.0
 11
-2.5844092312
 21
11.234419644
 31
0.0
 11
-2.6259036374
 21
11.0626805362
 31
0.0
 11
-2.6435489543
 21
10.8958606513
 31
0.0
  0
SPLINE
  5
442
100
AcDbEntity
  8
RACCORDO
100
AcDbSpline
 62
253
  6
CONTINUOUS
 70
0
 71
3
 72
15
 73
11
 74
9
 42
0.0000001
 43
0.0000001
 44
0.0000000001
 12
-1.8329907814
 22
-1.0117302153
 32
0.0
 13
-0.0698255972
 23
-2.0925051061
 33
0.0
 40
0.0
 40
0.0
 40
0.0
 40
0.0
 40
0.112307152
 40
0.2327593653
 40
0.3595552132
 40
0.4903461716
 40
0.6224718706
 40
0.7531720903
 40
0.879792512
 40
1.0
 40
1.0
 40
1.0
 40
1.0
 10
-2.328191062
 20
12.6570825274
 30
0.0
 10
-2.3968103868
 20
12.619207681
 30
0.0
 10
-2.5322033479
 20
12.527989354
 30
0.0
 10
-2.718313888
 20
12.3586211403
 30
0.0
 10
-2.8894866915
 20
12.15696043
 30
0.0
 10
-3.0400273426
 20
11.9297209717
 30
0.0
 10
-3.1649875668
 20
11.684426858
 30
0.0
 10
-3.2602132441
 20
11.4291992776
 30
0.0
 10
-3.3225358111
 20
11.1725660506
 30
0.0
 10
-3.3413360359
 20
11.0006767486
 30
0.0
 10
-3.3441338891
 20
10.9168318211
 30
0.0
 11
-2.328191062
 21
12.6570825274
 31
0.0
 11
-2.523993443
 21
12.5268924008
 31
0.0
 11
-2.7112265333
 21
12.3579482259
 31
0.0
 11
-2.8835268584
 21
12.1559923011
 31
0.0
 11
-3.0350340945
 21
11.9278911986
 31
0.0
 11
-3.1605946125
 21
11.681401082
 31
0.0
 11
-3.2559374321
 21
11.424904894
 31
0.0
 11
-3.3178190928
 21
11.167127107
 31
0.0
 11
-3.3441338891
 21
10.9168318211
 31
0.0
  0
SPLINE
  5
443
100
AcDbEntity
  8
RACCORDO
100
AcDbSpline
 62
253
  6
CONTINUOUS
 70
0
 71
3
 72
15
 73
11
 74
9
 42
0.0000001
 43
0.0000001
 44
0.0000000001
 12
-0.0325364715
 22
0.7318350037
 32
0.0
 13
-0.650242775
 23
0.3373802426
 33
0.0
 40
0.0
 40
0.0
 40
0.0
 40
0.0
 40
0.1182341878
 40
0.2445920214
 40
0.3762598593
 40
0.5099675801
 40
0.6422895237
 40
0.7699078885
 40
0.8898863776
 40
1.0
 40
1.0
 40
1.0
 40
1.0
 10
-1.962358322
 20
12.0540800817
 30
0.0
 10
-1.9636406298
 20
12.0829227208
 30
0.0
 10
-1.9711302655
 20
12.1424274512
 30
0.0
 10
-1.9945871035
 20
12.2314852586
 30
0.0
 10
-2.0298302227
 20
12.3206450947
 30
0.0
 10
-2.0755452914
 20
12.4065521252
 30
0.0
 10
-2.1300174781
 20
12.4860017688
 30
0.0
 10
-2.1912284858
 20
12.556030242
 30
0.0
 10
-2.2568811672
 20
12.6140226053
 30
0.0
 10
-2.3043241996
 20
12.6446991405
 30
0.0
 10
-2.328191062
 20
12.6570825274
 30
0.0
 11
-1.962358322
 21
12.0540800817
 31
0.0
 11
-1.9726944932
 21
12.1400745167
 31
0.0
 11
-1.9959654655
 21
12.2296660101
 31
0.0
 11
-2.031278737
 21
12.3194235056
 31
0.0
 11
-2.0772790335
 21
12.4058984183
 31
0.0
 11
-2.1321999477
 21
12.4857720311
 31
0.0
 11
-2.1939341224
 21
12.5559779314
 31
0.0
 11
-2.2601090892
 21
12.6138202629
 31
0.0
 11
-2.328191062
 21
12.6570825274
 31
0.0
  0
SPLINE
  5
444
100
AcDbEntity
  8
RACCORDO
100
AcDbSpline
 62
7
  6
CONTINUOUS
 70
0
 71
3
 72
18
 73
14
 74
12
 42
0.0000001
 43
0.0000001
 44
0.0000000001
 12
-0.0134135809
 22
0.7337266168
 32
0.0
 13
-0.6563746932
 23
0.3281873466
 33
0.0
 40
0.0
 40
0.0
 40
0.0
 40
0.0
 40
0.1192703157
 40
0.2461936251
 40
0.378010233
 40
0.511529486
 40
0.6434260984
 40
0.7077860661
 40
0.7705655265
 40
0.8314374931
 40
0.8901316343
 40
0.94628876
 40
1.0
 40
1.0
 40
1.0
 40
1.0
 10
3.5368129489
 20
15.0562393179
 30
0.0
 10
3.5362796682
 20
15.0854099197
 30
0.0
 10
3.5303006708
 20
15.1455900061
 30
0.0
 10
3.508906368
 20
15.2357811415
 30
0.0
 10
3.4755579234
 20
15.3259969938
 30
0.0
 10
3.431499005
 20
15.4128333629
 30
0.0
 10
3.3868565208
 20
15.480273352
 30
0.0
 10
3.3471408921
 20
15.5296921333
 30
0.0
 10
3.316092686
 20
15.5636648824
 30
0.0
 10
3.283838465
 20
15.594530751
 30
0.0
 10
3.2505876624
 20
15.6218358185
 30
0.0
 10
3.2169405153
 20
15.6457198676
 30
0.0
 10
3.1937072962
 20
15.6593578401
 30
0.0
 10
3.1819557299
 20
15.6652336232
 30
0.0
 11
3.5368129489
 21
15.0562393179
 31
0.0
 11
3.5286195321
 21
15.1433814058
 31
0.0
 11
3.5074138936
 21
15.2340779297
 31
0.0
 11
3.4740067136
 21
15.3248597182
 31
0.0
 11
3.4296762735
 21
15.4122409531
 31
0.0
 11
3.3761229189
 21
15.4928683254
 31
0.0
 11
3.3465134988
 21
15.5296651118
 31
0.0
 11
3.3154033191
 21
15.5636454331
 31
0.0
 11
3.2830708985
 21
15.5944691086
 31
0.0
 11
3.2497959589
 21
15.6218192737
 31
0.0
 11
3.2161120951
 21
15.6455623257
 31
0.0
 11
3.1819557299
 21
15.6652336232
 31
0.0
  0
SPLINE
  5
445
100
AcDbEntity
  8
RACCORDO
100
AcDbSpline
 62
7
  6
CONTINUOUS
 70
0
 71
3
 72
14
 73
10
 74
8
 42
0.0000001
 43
0.0000001
 44
0.0000000001
 12
0.0083007154
 22
0.5123616133
 32
0.0
 13
0.4583141636
 23
0.2291974085
 33
0.0
 40
0.0
 40
0.0
 40
0.0
 40
0.0
 40
0.2877625065
 40
0.4211179911
 40
0.5474384167
 40
0.6672810377
 40
0.7816425718
 40
0.8919500956
 40
1.0
 40
1.0
 40
1.0
 40
1.0
 10
-17.6656137725
 20
8.746807967
 30
0.0
 10
-17.6648175609
 20
8.795954121
 30
0.0
 10
-17.6574827126
 20
8.8681578926
 30
0.0
 10
-17.6326147202
 20
8.9584758601
 30
0.0
 10
-17.6078544669
 20
9.0185876412
 30
0.0
 10
-17.5767842043
 20
9.0719973913
 30
0.0
 10
-17.539725778
 20
9.1180285349
 30
0.0
 10
-17.4971211538
 20
9.1560341133
 30
0.0
 10
-17.4651933604
 20
9.175758087
 30
0.0
 10
-17.4486864266
 20
9.1840130064
 30
0.0
 11
-17.6656137725
 21
8.746807967
 31
0.0
 11
-17.6492858116
 21
8.8933589935
 31
0.0
 11
-17.630938123
 21
8.9591849878
 31
0.0
 11
-17.6060745021
 21
9.0189495514
 31
0.0
 11
-17.5750002945
 21
9.07191824
 31
0.0
 11
-17.5380973925
 21
9.1174417254
 31
0.0
 11
-17.4958196639
 21
9.154960279
 31
0.0
 11
-17.4486864266
 21
9.1840130064
 31
0.0
  0
SPLINE
  5
446
100
AcDbEntity
  8
RACCORDO
100
AcDbSpline
 62
7
  6
CONTINUOUS
 70
0
 71
3
 72
11
 73
7
 74
5
 42
0.0000001
 43
0.0000001
 44
0.0000000001
 12
-0.02949622
 22
-0.2382841434
 32
0.0
 13
-0.2147666167
 23
-0.1073529709
 33
0.0
 40
0.0
 40
0.0
 40
0.0
 40
0.0
 40
0.2825904614
 40
0.5393075485
 40
0.7752714517
 40
1.0
 40
1.0
 40
1.0
 40
1.0
 10
-4.1618244115
 20
-18.7488722942
 30
0.0
 10
-4.1646028616
 20
-18.7713179028
 30
0.0
 10
-4.1734011994
 20
-18.8138697014
 30
0.0
 10
-4.1983496631
 20
-18.8712563349
 30
0.0
 10
-4.2339889767
 20
-18.9171433823
 30
0.0
 10
-4.2645970975
 20
-18.9388609203
 30
0.0
 10
-4.2806851608
 20
-18.9469026794
 30
0.0
 11
-4.1618244115
 21
-18.7488722942
 31
0.0
 11
-4.1761726648
 21
-18.8151886106
 31
0.0
 11
-4.2013580646
 21
-18.87144694
 31
0.0
 11
-4.2365729192
 21
-18.9158290381
 31
0.0
 11
-4.2806851608
 21
-18.9469026794
 31
0.0
  0
SPLINE
  5
447
100
AcDbEntity
  8
RACCORDO
100
AcDbSpline
 62
253
  6
CONTINUOUS
 70
0
 71
3
 72
15
 73
11
 74
9
 42
0.0000001
 43
0.0000001
 44
0.0000000001
 12
0.0680382289
 22
2.0877762296
 32
0.0
 13
1.8095177737
 23
1.0435919759
 33
0.0
 40
0.0
 40
0.0
 40
0.0
 40
0.0
 40
0.1205970504
 40
0.2476819652
 40
0.3788130548
 40
0.5112388777
 40
0.6421143066
 40
0.7687075474
 40
0.8886146595
 40
1.0
 40
1.0
 40
1.0
 40
1.0
 10
-18.0982183374
 20
18.2938740453
 30
0.0
 10
-18.0954832675
 20
18.377800597
 30
0.0
 10
-18.0771048701
 20
18.5499060028
 30
0.0
 10
-18.0162408868
 20
18.8071571945
 30
0.0
 10
-17.9232471078
 20
19.0633987808
 30
0.0
 10
-17.8012160904
 20
19.3100660532
 30
0.0
 10
-17.6542059319
 20
19.5389871609
 30
0.0
 10
-17.4870505299
 20
19.7425840734
 30
0.0
 10
-17.3053116618
 20
19.9140838986
 30
0.0
 10
-17.1728325799
 20
20.007064045
 30
0.0
 10
-17.1056479955
 20
20.0458109941
 30
0.0
 11
-18.0982183374
 21
18.2938740453
 31
0.0
 11
-18.072508924
 21
18.5444720227
 31
0.0
 11
-18.012050894
 21
18.8029616249
 31
0.0
 11
-17.9189015031
 21
19.0605545273
 31
0.0
 11
-17.7962295973
 21
19.3084889499
 31
0.0
 11
-17.6482078995
 21
19.5383328217
 31
0.0
 11
-17.4798714697
 21
19.7422706942
 31
0.0
 11
-17.2969458275
 21
19.9133685931
 31
0.0
 11
-17.1056479955
 21
20.0458109941
 31
0.0
  0
LINE
  5
448
100
AcDbEntity
  8
RACCORDO
100
AcDbLine
 62
7
  6
CONTINUOUS
 10
-17.4568379628
 20
8.6406762699
 11
-17.4534392735
 21
8.8528952165
  0
SPLINE
  5
449
100
AcDbEntity
  8
RACCORDO
100
AcDbSpline
 62
7
  6
CONTINUOUS
 70
0
 71
3
 72
9
 73
5
 74
3
 42
0.0000001
 43
0.0000001
 44
0.0000000001
 12
0.1758083185
 22
-0.163945058
 32
0.0
 13
0.2150098545
 23
-0.1075049272
 33
0.0
 40
0.0
 40
0.0
 40
0.0
 40
0.0
 40
0.5187619424
 40
1.0
 40
1.0
 40
1.0
 40
1.0
 10
-16.9947364837
 20
-12.8974500926
 30
0.0
 10
-16.9643355954
 20
-12.9257995781
 30
0.0
 10
-16.9023935768
 20
-12.9770155079
 30
0.0
 10
-16.8337739515
 20
-13.0191023339
 30
0.0
 10
-16.7992836433
 20
-13.036347488
 30
0.0
 11
-16.9947364837
 21
-12.8974500926
 31
0.0
 11
-16.8982722345
 21
-12.9764805594
 31
0.0
 11
-16.7992836433
 21
-13.036347488
 31
0.0
  0
SPLINE
  5
44A
100
AcDbEntity
  8
RACCORDO
100
AcDbSpline
 62
7
  6
CONTINUOUS
 70
0
 71
3
 72
9
 73
5
 74
3
 42
0.0000001
 43
0.0000001
 44
0.0000000001
 12
0.2189066471
 22
-0.1094533236
 32
0.0
 13
0.244285731
 23
0.0149877215
 33
0.0
 40
0.0
 40
0.0
 40
0.0
 40
0.0
 40
0.5286285311
 40
1.0
 40
1.0
 40
1.0
 40
1.0
 10
-4.4956256507
 20
-19.1881764843
 30
0.0
 10
-4.4570522176
 20
-19.2074632009
 30
0.0
 10
-4.380245096
 20
-19.2371127128
 30
0.0
 10
-4.2977753654
 20
-19.2460264441
 30
0.0
 10
-4.2593922574
 20
-19.2436715161
 30
0.0
 11
-4.4956256507
 21
-19.1881764843
 31
0.0
 11
-4.3742649404
 21
-19.2330157818
 31
0.0
 11
-4.2593922574
 21
-19.2436715161
 31
0.0
  0
LINE
  5
44B
100
AcDbEntity
  8
RACCORDO
100
AcDbLine
 62
7
  6
CONTINUOUS
 10
-4.232758266
 20
2.1036792646
 11
-4.2339411546
 21
2.0292278644
  0
SPLINE
  5
44C
100
AcDbEntity
  8
RACCORDO
100
AcDbSpline
 62
7
  6
CONTINUOUS
 70
0
 71
3
 72
11
 73
7
 74
5
 42
0.0000001
 43
0.0000001
 44
0.0000000001
 12
-0.2617234823
 22
-0.2900781
 32
0.0
 13
-0.0063325859
 23
-0.3906461106
 33
0.0
 40
0.0
 40
0.0
 40
0.0
 40
0.0
 40
0.2224091242
 40
0.4619117677
 40
0.7210356577
 40
1.0
 40
1.0
 40
1.0
 40
1.0
 10
-17.332553819
 20
9.2163770457
 30
0.0
 10
-17.3519570492
 20
9.194871707
 30
0.0
 10
-17.3868672997
 20
9.1451562523
 30
0.0
 10
-17.4240936638
 20
9.058371133
 30
0.0
 10
-17.4472669277
 20
8.9593399128
 30
0.0
 10
-17.4528504183
 20
8.8892206616
 30
0.0
 10
-17.4534392735
 20
8.8528952165
 30
0.0
 11
-17.332553819
 21
9.2163770457
 31
0.0
 11
-17.3830107571
 21
9.1456325632
 31
0.0
 11
-17.4205696049
 21
9.0599281171
 31
0.0
 11
-17.444251734
 21
8.9614979399
 31
0.0
 11
-17.4534392735
 21
8.8528952165
 31
0.0
  0
SPLINE
  5
44D
100
AcDbEntity
  8
RACCORDO
100
AcDbSpline
 62
7
  6
CONTINUOUS
 70
0
 71
3
 72
14
 73
10
 74
8
 42
0.0000001
 43
0.0000001
 44
0.0000000001
 12
-0.3874088134
 22
0.1937044067
 32
0.0
 13
-0.00927011
 23
0.4330370087
 33
0.0
 40
0.0
 40
0.0
 40
0.0
 40
0.0
 40
0.1097769172
 40
0.2252040747
 40
0.3463367743
 40
0.4720733744
 40
0.6011807852
 40
0.7326656532
 40
1.0
 40
1.0
 40
1.0
 40
1.0
 10
-4.8782135789
 20
-17.7708995368
 30
0.0
 10
-4.8923897606
 20
-17.7638114459
 30
0.0
 10
-4.9193668041
 20
-17.7447821048
 30
0.0
 10
-4.9519347443
 20
-17.7063352387
 30
0.0
 10
-4.9776152832
 20
-17.6604855995
 30
0.0
 10
-4.9971184865
 20
-17.6096807333
 30
0.0
 10
-5.0113400614
 20
-17.5556565076
 30
0.0
 10
-5.0243869254
 20
-17.4804958242
 30
0.0
 10
-5.0283556451
 20
-17.4228759741
 30
0.0
 10
-5.029181718
 20
-17.3842874189
 30
0.0
 11
-4.8782135789
 21
-17.7708995368
 31
0.0
 11
-4.9173118424
 21
-17.7438408554
 31
0.0
 11
-4.9500942184
 21
-17.7060932181
 31
0.0
 11
-4.9761590978
 21
-17.6605585728
 31
0.0
 11
-4.9960092744
 21
-17.6098438878
 31
0.0
 11
-5.0104786524
 21
-17.5558271675
 31
0.0
 11
-5.0203896998
 21
-17.4997453392
 31
0.0
 11
-5.029181718
 21
-17.3842874189
 31
0.0
  0
SPLINE
  5
44E
100
AcDbEntity
  8
RACCORDO
100
AcDbSpline
 62
7
  6
CONTINUOUS
 70
0
 71
3
 72
22
 73
18
 74
16
 42
0.0000001
 43
0.0000001
 44
0.0000000001
 12
-0.3782715747
 22
-1.0228635762
 32
0.0
 13
-0.9754339669
 23
0.4877169834
 33
0.0
 40
0.0
 40
0.0
 40
0.0
 40
0.0
 40
0.1350715249
 40
0.2688719214
 40
0.3351811088
 40
0.4010036938
 40
0.4662559874
 40
0.5308311588
 40
0.5945908569
 40
0.6573540902
 40
0.71888132
 40
0.7788596519
 40
0.8369144116
 40
0.8927287877
 40
0.9464999025
 40
0.9731472579
 40
1.0
 40
1.0
 40
1.0
 40
1.0
 10
-16.2209452891
 20
-11.0172445686
 30
0.0
 10
-16.2379765285
 20
-11.0632978162
 30
0.0
 10
-16.2746172273
 20
-11.1539841567
 30
0.0
 10
-16.3272634243
 20
-11.2639731689
 30
0.0
 10
-16.3735050357
 20
-11.3488901721
 30
0.0
 10
-16.4101756385
 20
-11.4105874593
 30
0.0
 10
-16.4490223808
 20
-11.4701914403
 30
0.0
 10
-16.4901597252
 20
-11.527324401
 30
0.0
 10
-16.5337279452
 20
-11.5814818196
 30
0.0
 10
-16.5798916404
 20
-11.6319745914
 30
0.0
 10
-16.6288329857
 20
-11.6778322936
 30
0.0
 10
-16.6807155533
 20
-11.7176625086
 30
0.0
 10
-16.7356494994
 20
-11.749399739
 30
0.0
 10
-16.793454985
 20
-11.7700462861
 30
0.0
 10
-16.8437080991
 20
-11.7740639972
 30
0.0
 10
-16.8822354634
 20
-11.7668707326
 30
0.0
 10
-16.9004850956
 20
-11.7597637784
 30
0.0
 10
-16.9092161212
 20
-11.7553982656
 30
0.0
 11
-16.2209452891
 21
-11.0172445686
 31
0.0
 11
-16.2762013103
 21
-11.1537929291
 31
0.0
 11
-16.3393686454
 21
-11.2853303346
 31
0.0
 11
-16.373985575
 21
-11.3488211528
 31
0.0
 11
-16.4107036676
 21
-11.4105036312
 31
0.0
 11
-16.4496142744
 21
-11.4700855662
 31
0.0
 11
-16.4908362739
 21
-11.527184037
 31
0.0
 11
-16.5345173327
 21
-11.5812856544
 31
0.0
 11
-16.5808324699
 21
-11.6316838812
 31
0.0
 11
-16.6299716914
 21
-11.6773752337
 31
0.0
 11
-16.6820956922
 21
-11.7168925465
 31
0.0
 11
-16.7372107411
 21
-11.7480506453
 31
0.0
 11
-16.7948434486
 21
-11.7676351744
 31
0.0
 11
-16.8533640172
 21
-11.7713926593
 31
0.0
 11
-16.8819222013
 21
-11.7660113956
 31
0.0
 11
-16.9092161212
 21
-11.7553982656
 31
0.0
  0
SPLINE
  5
44F
100
AcDbEntity
  8
RACCORDO
100
AcDbSpline
 62
253
  6
CONTINUOUS
 70
0
 71
3
 72
15
 73
11
 74
9
 42
0.0000001
 43
0.0000001
 44
0.0000000001
 12
-0.6502409974
 22
-0.3191649739
 32
0.0
 13
-0.647875148
 23
0.3239404696
 33
0.0
 40
0.0
 40
0.0
 40
0.0
 40
0.0
 40
0.1129076542
 40
0.2360603064
 40
0.3664730228
 40
0.5006012977
 40
0.6346471825
 40
0.7648182824
 40
0.8875873249
 40
1.0
 40
1.0
 40
1.0
 40
1.0
 10
-16.3313698803
 20
-0.1199584215
 30
0.0
 10
-16.3558422755
 20
-0.1319704777
 30
0.0
 10
-16.4090566927
 20
-0.1529925153
 30
0.0
 10
-16.4949060735
 20
-0.175131355
 30
0.0
 10
-16.5877020934
 20
-0.1886672522
 30
0.0
 10
-16.6839899757
 20
-0.1930781088
 30
0.0
 10
-16.7801973063
 20
-0.1882035266
 30
0.0
 10
-16.8727553292
 20
-0.1742212795
 30
0.0
 10
-16.9582190658
 20
-0.151670254
 30
0.0
 10
-17.0111014126
 20
-0.1303798179
 30
0.0
 10
-17.0353778721
 20
-0.1182414797
 30
0.0
 11
-16.3313698803
 21
-0.1199584215
 31
0.0
 11
-16.4072241079
 21
-0.1505333253
 31
0.0
 11
-16.4935101269
 21
-0.1731677318
 31
0.0
 11
-16.5869554299
 21
-0.1870043489
 31
0.0
 11
-16.6840061431
 21
-0.1915157237
 31
0.0
 11
-16.7809739467
 21
-0.1865311746
 31
0.0
 11
-16.8741736585
 21
-0.1722393657
 31
0.0
 11
-16.9600607664
 21
-0.1491850616
 31
0.0
 11
-17.0353778721
 21
-0.1182414797
 31
0.0
  0
SPLINE
  5
450
100
AcDbEntity
  8
RACCORDO
100
AcDbSpline
 62
253
  6
CONTINUOUS
 70
0
 71
3
 72
11
 73
7
 74
5
 42
0.0000001
 43
0.0000001
 44
0.0000000001
 12
0.0850761611
 22
0.0430359357
 32
0.0
 13
0.0000067456
 23
0.095341727
 33
0.0
 40
0.0
 40
0.0
 40
0.0
 40
0.0
 40
0.3021916565
 40
0.5649339077
 40
0.7930379825
 40
1.0
 40
1.0
 40
1.0
 40
1.0
 10
8.4578325201
 20
18.566252586
 30
0.0
 10
8.4664022887
 20
18.5705876196
 30
0.0
 10
8.4818893242
 20
18.5798739296
 30
0.0
 10
8.5006703471
 20
18.5970023534
 30
0.0
 10
8.5127099764
 20
18.6160373944
 30
0.0
 10
8.5155898113
 20
18.6299693872
 30
0.0
 10
8.5155902766
 20
18.6365467592
 30
0.0
 11
8.4578325201
 21
18.566252586
 31
0.0
 11
8.4823675983
 21
18.581356592
 31
0.0
 11
8.5005864917
 21
18.5985493072
 31
0.0
 11
8.5118029616
 21
18.6171815157
 31
0.0
 11
8.5155902766
 21
18.6365467592
 31
0.0
  0
SPLINE
  5
451
100
AcDbEntity
  8
RACCORDO
100
AcDbSpline
 62
253
  6
CONTINUOUS
 70
0
 71
3
 72
11
 73
7
 74
5
 42
0.0000001
 43
0.0000001
 44
0.0000000001
 12
-0.0017563531
 22
0.36674579
 32
0.0
 13
-0.3272560831
 23
0.1655566831
 33
0.0
 40
0.0
 40
0.0
 40
0.0
 40
0.0
 40
0.2466959546
 40
0.5118836955
 40
0.7705709668
 40
1.0
 40
1.0
 40
1.0
 40
1.0
 10
-11.7715697552
 20
23.184085898
 30
0.0
 10
-11.7717141836
 20
23.2142441323
 30
0.0
 10
-11.7823672079
 20
23.2768732933
 30
0.0
 10
-11.8201856913
 20
23.3639995728
 30
0.0
 10
-11.8755011247
 20
23.4385973691
 30
0.0
 10
-11.9233161099
 20
23.4763142669
 30
0.0
 10
-11.9483434589
 20
23.4889754368
 30
0.0
 11
-11.7715697552
 21
23.184085898
 31
0.0
 11
-11.7853431013
 21
23.2735071176
 31
0.0
 11
-11.8237737032
 21
23.3628498853
 31
0.0
 11
-11.8810122428
 21
23.4385119044
 31
0.0
 11
-11.9483434589
 21
23.4889754368
 31
0.0
  0
SPLINE
  5
452
100
AcDbEntity
  8
RACCORDO
100
AcDbSpline
 62
7
  6
CONTINUOUS
 70
0
 71
3
 72
11
 73
7
 74
5
 42
0.0000001
 43
0.0000001
 44
0.0000000001
 12
0.0
 22
0.3670486434
 32
0.0
 13
-0.328298287
 23
0.1641491435
 33
0.0
 40
0.0
 40
0.0
 40
0.0
 40
0.0
 40
0.2467927921
 40
0.5117852903
 40
0.7703247525
 40
1.0
 40
1.0
 40
1.0
 40
1.0
 10
-10.1702889644
 20
23.9868079015
 30
0.0
 10
-10.1702889644
 20
24.017002888
 30
0.0
 10
-10.1807089678
 20
24.0797272266
 30
0.0
 10
-10.2184427415
 20
24.1669610358
 30
0.0
 10
-10.2739013472
 20
24.241557145
 30
0.0
 10
-10.3219286713
 20
24.279130442
 30
0.0
 10
-10.347062668
 20
24.2916974403
 30
0.0
 11
-10.1702889644
 21
23.9868079015
 31
0.0
 11
-10.1837449285
 21
24.0763878765
 31
0.0
 11
-10.2220645519
 21
24.165786497
 31
0.0
 11
-10.2794142991
 21
24.2413931328
 31
0.0
 11
-10.347062668
 21
24.2916974403
 31
0.0
  0
SPLINE
  5
453
100
AcDbEntity
  8
RACCORDO
100
AcDbSpline
 62
253
  6
CONTINUOUS
 70
0
 71
3
 72
9
 73
5
 74
3
 42
0.0000001
 43
0.0000001
 44
0.0000000001
 12
0.0817963051
 22
-0.0408981526
 32
0.0
 13
0.0897943436
 23
-0.0173283083
 33
0.0
 40
0.0
 40
0.0
 40
0.0
 40
0.0
 40
0.477029415
 40
1.0
 40
1.0
 40
1.0
 40
1.0
 10
-12.1240917148
 20
23.1845986219
 30
0.0
 10
-12.1110853003
 20
23.1780954146
 30
0.0
 10
-12.0826219246
 20
23.1668207404
 30
0.0
 10
-12.0529775498
 20
23.1593906867
 30
0.0
 10
-12.037324283
 20
23.1563699549
 30
0.0
 11
-12.1240917148
 21
23.1845986219
 31
0.0
 11
-12.0836608207
 21
23.1682135827
 31
0.0
 11
-12.037324283
 21
23.1563699549
 31
0.0
  0
SPLINE
  5
454
100
AcDbEntity
  8
RACCORDO
100
AcDbSpline
 62
253
  6
CONTINUOUS
 70
0
 71
3
 72
11
 73
7
 74
5
 42
0.0000001
 43
0.0000001
 44
0.0000000001
 12
0.2438822158
 22
-0.032953549
 32
0.0
 13
0.2206252767
 23
0.1090365024
 33
0.0
 40
0.0
 40
0.0
 40
0.0
 40
0.0
 40
0.2625073931
 40
0.5251729978
 40
0.7748327471
 40
1.0
 40
1.0
 40
1.0
 40
1.0
 10
-12.0125412067
 20
23.1523165298
 30
0.0
 10
-11.9912009118
 20
23.149433013
 30
0.0
 10
-11.9480659462
 20
23.1466077407
 30
0.0
 10
-11.8844535405
 20
23.1505823221
 30
0.0
 10
-11.8249387494
 20
23.1624114024
 30
0.0
 10
-11.788128951
 20
23.1759020815
 30
0.0
 10
-11.7715697552
 20
23.184085898
 30
0.0
 11
-12.0125412067
 21
23.1523165298
 31
0.0
 11
-11.9480837346
 21
23.1479875604
 31
0.0
 11
-11.8835742368
 21
23.1521182508
 31
0.0
 11
-11.8233791808
 21
23.1644283345
 31
0.0
 11
-11.7715697552
 21
23.184085898
 31
0.0
  0
SPLINE
  5
455
100
AcDbEntity
  8
RACCORDO
100
AcDbSpline
 62
253
  6
CONTINUOUS
 70
0
 71
3
 72
13
 73
9
 74
7
 42
0.0000001
 43
0.0000001
 44
0.0000000001
 12
0.3242438587
 22
-0.1621219294
 32
0.0
 13
0.3249922966
 23
0.1606163349
 33
0.0
 40
0.0
 40
0.0
 40
0.0
 40
0.0
 40
0.1125245594
 40
0.2354259647
 40
0.4995815213
 40
0.7639633273
 40
0.8871315091
 40
1.0
 40
1.0
 40
1.0
 40
1.0
 10
-12.1240917148
 20
22.8446246877
 30
0.0
 10
-12.1119299157
 20
22.8385437882
 30
0.0
 10
-12.0854331626
 20
22.8278796718
 30
0.0
 10
-12.026943218
 20
22.8124923612
 30
0.0
 10
-11.9480183786
 20
22.8050323788
 30
0.0
 10
-11.8690434803
 20
22.8122727827
 30
0.0
 10
-11.8104042166
 20
22.8274856411
 30
0.0
 10
-11.7837968852
 20
22.8380691228
 30
0.0
 10
-11.7715697552
 20
22.8441119639
 30
0.0
 11
-12.1240917148
 21
22.8446246877
 31
0.0
 11
-12.0863574367
 21
22.8291293811
 31
0.0
 11
-12.0433218597
 21
22.8175981273
 31
0.0
 11
-11.9480421965
 21
22.8080135642
 31
0.0
 11
-11.852652637
 21
22.8173208237
 31
0.0
 11
-11.8094836256
 21
22.8287267059
 31
0.0
 11
-11.7715697552
 21
22.8441119639
 31
0.0
  0
SPLINE
  5
456
100
AcDbEntity
  8
RACCORDO
100
AcDbSpline
 62
253
  6
CONTINUOUS
 70
0
 71
3
 72
11
 73
7
 74
5
 42
0.0000001
 43
0.0000001
 44
0.0000000001
 12
0.0
 22
-0.1574187621
 32
0.0
 13
0.1407924118
 23
-0.0704142276
 33
0.0
 40
0.0
 40
0.0
 40
0.0
 40
0.0
 40
0.2897477756
 40
0.5495860029
 40
0.7828492609
 40
1.0
 40
1.0
 40
1.0
 40
1.0
 10
-12.1240917148
 20
22.8446246877
 30
0.0
 10
-12.1240917148
 20
22.8294207757
 30
0.0
 10
-12.1216382444
 20
22.8004728124
 30
0.0
 10
-12.1092669571
 20
22.7608807974
 30
0.0
 10
-12.0886037653
 20
22.7291832242
 30
0.0
 10
-12.0693201429
 20
22.7145083218
 30
0.0
 10
-12.0591290842
 20
22.7094114879
 30
0.0
 11
-12.1240917148
 21
22.8446246877
 31
0.0
 11
-12.1197726449
 21
22.7992179029
 31
0.0
 11
-12.1070273367
 21
22.7603508701
 31
0.0
 11
-12.0864775361
 21
22.7299195528
 31
0.0
 11
-12.0591290842
 21
22.7094114879
 31
0.0
  0
SPLINE
  5
457
100
AcDbEntity
  8
RACCORDO
100
AcDbSpline
 62
253
  6
CONTINUOUS
 70
0
 71
3
 72
11
 73
7
 74
5
 42
0.0000001
 43
0.0000001
 44
0.0000000001
 12
0.0
 22
-0.157431766
 32
0.0
 13
0.1408139516
 23
-0.070400227
 33
0.0
 40
0.0
 40
0.0
 40
0.0
 40
0.0
 40
0.2897504308
 40
0.5495880475
 40
0.7828491195
 40
1.0
 40
1.0
 40
1.0
 40
1.0
 10
-13.360688047
 20
23.4629228538
 30
0.0
 10
-13.360688047
 20
23.4477175465
 30
0.0
 10
-13.3582341444
 20
23.4187670588
 30
0.0
 10
-13.3458605127
 20
23.3791720866
 30
0.0
 10
-13.3251933135
 20
23.3474733504
 30
0.0
 10
-13.3059062577
 20
23.3327995857
 30
0.0
 10
-13.2957136332
 20
23.327703762
 30
0.0
 11
-13.360688047
 21
23.4629228538
 31
0.0
 11
-13.3563681416
 21
23.4175119437
 31
0.0
 11
-13.343620409
 21
23.3786422512
 31
0.0
 11
-13.3230668333
 21
23.3482102384
 31
0.0
 11
-13.2957136332
 21
23.327703762
 31
0.0
  0
SPLINE
  5
458
100
AcDbEntity
  8
RACCORDO
100
AcDbSpline
 62
253
  6
CONTINUOUS
 70
0
 71
3
 72
11
 73
7
 74
5
 42
0.0000001
 43
0.0000001
 44
0.0000000001
 12
-0.1076203234
 22
0.0538101617
 32
0.0
 13
0.0000013459
 23
0.1203231795
 33
0.0
 40
0.0
 40
0.0
 40
0.0
 40
0.0
 40
0.3025823221
 40
0.5654825801
 40
0.7934322544
 40
1.0
 40
1.0
 40
1.0
 40
1.0
 10
-13.360688047
 20
23.4629228538
 30
0.0
 10
-13.3715427161
 20
23.4683501884
 30
0.0
 10
-13.3911611894
 20
23.4799899186
 30
0.0
 10
-13.4149725589
 20
23.5015105466
 30
0.0
 10
-13.4302517574
 20
23.5254648319
 30
0.0
 10
-13.4339114424
 20
23.5430262401
 30
0.0
 10
-13.4339113497
 20
23.5513112027
 30
0.0
 11
-13.360688047
 21
23.4629228538
 31
0.0
 11
-13.39177972
 21
23.4818655593
 31
0.0
 11
-13.4148805562
 21
23.5034756897
 31
0.0
 11
-13.4291075166
 21
23.526924964
 31
0.0
 11
-13.4339113497
 21
23.5513112027
 31
0.0
  0
SPLINE
  5
459
100
AcDbEntity
  8
RACCORDO
100
AcDbSpline
 62
253
  6
CONTINUOUS
 70
0
 71
3
 72
11
 73
7
 74
5
 42
0.0000001
 43
0.0000001
 44
0.0000000001
 12
-0.1076203247
 22
0.0538101624
 32
0.0
 13
0.0000013061
 23
0.1203231809
 33
0.0
 40
0.0
 40
0.0
 40
0.0
 40
0.0
 40
0.3025823297
 40
0.5654825875
 40
0.7934322591
 40
1.0
 40
1.0
 40
1.0
 40
1.0
 10
-13.360688047
 20
23.802896788
 30
0.0
 10
-13.3715427165
 20
23.8083241227
 30
0.0
 10
-13.3911611905
 20
23.8199638532
 30
0.0
 10
-13.4149725594
 20
23.8414844821
 30
0.0
 10
-13.4302517588
 20
23.865438768
 30
0.0
 10
-13.4339114398
 20
23.883000176
 30
0.0
 10
-13.4339113498
 20
23.8912851385
 30
0.0
 11
-13.360688047
 21
23.802896788
 31
0.0
 11
-13.3917797211
 21
23.8218394942
 31
0.0
 11
-13.4148805571
 21
23.8434496254
 31
0.0
 11
-13.4291075168
 21
23.8668989
 31
0.0
 11
-13.4339113498
 21
23.8912851385
 31
0.0
  0
SPLINE
  5
45A
100
AcDbEntity
  8
RACCORDO
100
AcDbSpline
 62
253
  6
CONTINUOUS
 70
0
 71
3
 72
11
 73
7
 74
5
 42
0.0000001
 43
0.0000001
 44
0.0000000001
 12
0.0
 22
0.3659184285
 32
0.0
 13
0.3263519554
 23
0.165501352
 33
0.0
 40
0.0
 40
0.0
 40
0.0
 40
0.0
 40
0.2465996066
 40
0.5114086341
 40
0.7699756527
 40
1.0
 40
1.0
 40
1.0
 40
1.0
 10
-13.360688047
 20
23.802896788
 30
0.0
 10
-13.360688047
 20
23.8329752348
 30
0.0
 10
-13.3503452749
 20
23.8954602735
 30
0.0
 10
-13.3128616226
 20
23.982430713
 30
0.0
 10
-13.2577222722
 20
24.0569296773
 30
0.0
 10
-13.2099627562
 20
24.0945838228
 30
0.0
 10
-13.184939791
 20
24.1072736029
 30
0.0
 11
-13.360688047
 21
23.802896788
 31
0.0
 11
-13.347329673
 21
23.8921378688
 31
0.0
 11
-13.3092743882
 21
23.9812508041
 31
0.0
 11
-13.2522723314
 21
24.0567667443
 31
0.0
 11
-13.184939791
 21
24.1072736029
 31
0.0
  0
SPLINE
  5
45B
100
AcDbEntity
  8
RACCORDO
100
AcDbSpline
 62
253
  6
CONTINUOUS
 70
0
 71
3
 72
11
 73
7
 74
5
 42
0.0000001
 43
0.0000001
 44
0.0000000001
 12
0.0
 22
0.365918428
 32
0.0
 13
0.3263519549
 23
0.1655013517
 33
0.0
 40
0.0
 40
0.0
 40
0.0
 40
0.0
 40
0.2465994894
 40
0.5114083944
 40
0.7699753467
 40
1.0
 40
1.0
 40
1.0
 40
1.0
 10
-12.1240917148
 20
23.1845986219
 30
0.0
 10
-12.1240917148
 20
23.2146770544
 30
0.0
 10
-12.1137489529
 20
23.2771620637
 30
0.0
 10
-12.0762653294
 20
23.3641324745
 30
0.0
 10
-12.0211259882
 20
23.4386314606
 30
0.0
 10
-11.9733664573
 20
23.4762856398
 30
0.0
 10
-11.9483434589
 20
23.4889754368
 30
0.0
 11
-12.1240917148
 21
23.1845986219
 31
0.0
 11
-12.1107333532
 21
23.2738396611
 31
0.0
 11
-12.0726781004
 21
23.3629525611
 31
0.0
 11
-12.0156760778
 21
23.4384684966
 31
0.0
 11
-11.9483434589
 21
23.4889754368
 31
0.0
  0
SPLINE
  5
45C
100
AcDbEntity
  8
RACCORDO
100
AcDbSpline
 62
253
  6
CONTINUOUS
 70
0
 71
3
 72
11
 73
7
 74
5
 42
0.0000001
 43
0.0000001
 44
0.0000000001
 12
-0.1051440509
 22
0.0519595407
 32
0.0
 13
-0.1043498109
 23
-0.0535367376
 33
0.0
 40
0.0
 40
0.0
 40
0.0
 40
0.0
 40
0.2795168709
 40
0.5356964938
 40
0.7731447513
 40
1.0
 40
1.0
 40
1.0
 40
1.0
 10
-13.184939791
 20
24.1072736029
 30
0.0
 10
-13.1947363031
 20
24.1121147923
 30
0.0
 10
-13.2143141105
 20
24.1199192193
 30
0.0
 10
-13.2442824858
 20
24.1253720028
 30
0.0
 10
-13.2726978098
 20
24.1237496832
 30
0.0
 10
-13.2901345145
 20
24.1177695999
 30
0.0
 10
-13.298025282
 20
24.1137212366
 30
0.0
 11
-13.184939791
 21
24.1072736029
 31
0.0
 11
-13.2154900853
 21
24.1191630262
 31
0.0
 11
-13.245098632
 21
24.124267081
 31
0.0
 11
-13.272886723
 21
24.122435246
 31
0.0
 11
-13.298025282
 21
24.1137212366
 31
0.0
  0
SPLINE
  5
45D
100
AcDbEntity
  8
RACCORDO
100
AcDbSpline
 62
7
  6
CONTINUOUS
 70
0
 71
3
 72
11
 73
7
 74
5
 42
0.0000001
 43
0.0000001
 44
0.0000000001
 12
-0.1028463418
 22
0.0514231709
 32
0.0
 13
-0.1033748983
 23
-0.0503521891
 33
0.0
 40
0.0
 40
0.0
 40
0.0
 40
0.0
 40
0.2790833933
 40
0.5352290697
 40
0.7729212505
 40
1.0
 40
1.0
 40
1.0
 40
1.0
 10
-11.6021831879
 20
24.9192577003
 30
0.0
 10
-11.6117507566
 20
24.9240414846
 30
0.0
 10
-11.63088227
 20
24.9317922171
 30
0.0
 10
-11.6602012485
 20
24.9373860405
 30
0.0
 10
-11.688084018
 20
24.9361522836
 30
0.0
 10
-11.7052905564
 20
24.9305990173
 30
0.0
 10
-11.713115304
 20
24.9267877133
 30
0.0
 11
-11.6021831879
 21
24.9192577003
 31
0.0
 11
-11.6320205919
 21
24.9310702355
 31
0.0
 11
-11.6610001053
 21
24.9363306917
 31
0.0
 11
-11.6882932955
 21
24.9348897073
 31
0.0
 11
-11.713115304
 21
24.9267877133
 31
0.0
  0
SPLINE
  5
45E
100
AcDbEntity
  8
RACCORDO
100
AcDbSpline
 62
253
  6
CONTINUOUS
 70
0
 71
3
 72
11
 73
7
 74
5
 42
0.0000001
 43
0.0000001
 44
0.0000000001
 12
-0.1022732388
 22
0.0517308249
 32
0.0
 13
-0.1030347983
 23
-0.0501968522
 33
0.0
 40
0.0
 40
0.0
 40
0.0
 40
0.0
 40
0.2789492198
 40
0.5349524055
 40
0.7726363297
 40
1.0
 40
1.0
 40
1.0
 40
1.0
 10
-11.0677333092
 20
25.1796051668
 30
0.0
 10
-11.0772429893
 20
25.1844152579
 30
0.0
 10
-11.0962714751
 20
25.1922170517
 30
0.0
 10
-11.1254713163
 20
25.1978749972
 30
0.0
 10
-11.1532735133
 20
25.1966812253
 30
0.0
 10
-11.1704364902
 20
25.191143985
 30
0.0
 10
-11.1782452802
 20
25.1873396714
 30
0.0
 11
-11.0677333092
 21
25.1796051668
 31
0.0
 11
-11.0974108884
 21
25.1914955079
 31
0.0
 11
-11.1262652561
 21
25.1968172383
 31
0.0
 11
-11.1534707518
 21
25.1954188277
 31
0.0
 11
-11.1782452802
 21
25.1873396714
 31
0.0
  0
SPLINE
  5
45F
100
AcDbEntity
  8
RACCORDO
100
AcDbSpline
 62
7
  6
CONTINUOUS
 70
0
 71
3
 72
12
 73
8
 74
6
 42
0.0000001
 43
0.0000001
 44
0.0000000001
 12
-0.4345619355
 22
-0.032159537
 32
0.0
 13
-0.4201960756
 23
-0.1153844428
 33
0.0
 40
0.0
 40
0.0
 40
0.0
 40
0.0
 40
0.1460665466
 40
0.2901900051
 40
0.5606459046
 40
0.7988834635
 40
1.0
 40
1.0
 40
1.0
 40
1.0
 10
-1.829933532
 20
18.8563703402
 30
0.0
 10
-1.8510918525
 20
18.8548045293
 30
0.0
 10
-1.8929609782
 20
18.8493954187
 30
0.0
 10
-1.9728708939
 20
18.8335721889
 30
0.0
 10
-2.0646306611
 20
18.8094093191
 30
0.0
 10
-2.1634304178
 20
18.7799791709
 30
0.0
 10
-2.2245864521
 20
18.7617160155
 30
0.0
 10
-2.2527559119
 20
18.7539807757
 30
0.0
 11
-1.829933532
 21
18.8563703402
 31
0.0
 11
-1.8931126751
 21
18.8486546119
 31
0.0
 11
-1.954765683
 21
18.8366972919
 31
0.0
 11
-2.0689625697
 21
18.8075771137
 31
0.0
 11
-2.1685978112
 21
18.7784263417
 31
0.0
 11
-2.2527559119
 21
18.7539807757
 31
0.0
  0
SPLINE
  5
460
100
AcDbEntity
  8
RACCORDO
100
AcDbSpline
 62
253
  6
CONTINUOUS
 70
0
 71
3
 72
13
 73
9
 74
7
 42
0.0000001
 43
0.0000001
 44
0.0000000001
 12
0.0395775355
 22
-0.0644304226
 32
0.0
 13
-0.0460923048
 23
-0.0599429738
 33
0.0
 40
0.0
 40
0.0
 40
0.0
 40
0.0
 40
0.3435705842
 40
0.6194195392
 40
0.7328971396
 40
0.8318708183
 40
0.9193401934
 40
1.0
 40
1.0
 40
1.0
 40
1.0
 10
-9.6420217926
 20
23.9027152048
 30
0.0
 10
-9.6374892336
 20
23.8953364055
 30
0.0
 10
-9.6299330481
 20
23.8816417697
 30
0.0
 10
-9.6234194125
 20
23.8642041648
 30
0.0
 10
-9.6214191307
 20
23.8520180766
 30
0.0
 10
-9.6214502111
 20
23.8444124076
 30
0.0
 10
-9.6229497373
 20
23.8377822485
 30
0.0
 10
-9.6250176117
 20
23.8340009158
 30
0.0
 10
-9.6262568771
 20
23.8323892529
 30
0.0
 11
-9.6420217926
 21
23.9027152048
 31
0.0
 11
-9.629737948
 21
23.8798236323
 31
0.0
 11
-9.6229127395
 21
23.8601135217
 31
0.0
 11
-9.6216142911
 21
23.8516317002
 31
0.0
 11
-9.6217409224
 21
23.8441488556
 31
0.0
 11
-9.6232921869
 21
23.8377193315
 31
0.0
 11
-9.6262568771
 21
23.8323892529
 31
0.0
  0
SPLINE
  5
461
100
AcDbEntity
  8
RACCORDO
100
AcDbSpline
 62
253
  6
CONTINUOUS
 70
0
 71
3
 72
12
 73
8
 74
6
 42
0.0000001
 43
0.0000001
 44
0.0000000001
 12
-0.283185754
 22
0.1415792069
 32
0.0
 13
0.0008830853
 23
0.3166039533
 33
0.0
 40
0.0
 40
0.0
 40
0.0
 40
0.0
 40
0.1077489786
 40
0.2176621873
 40
0.4506595427
 40
0.710343748
 40
1.0
 40
1.0
 40
1.0
 40
1.0
 10
-5.9308496252
 20
-4.5751472341
 30
0.0
 10
-5.9410206171
 20
-4.5700622292
 30
0.0
 10
-5.9606681851
 20
-4.5578723011
 30
0.0
 10
-5.9961354127
 20
-4.5258614704
 30
0.0
 10
-6.03148501
 20
-4.4716227569
 30
0.0
 10
-6.056086846
 20
-4.3920136872
 30
0.0
 10
-6.0608795566
 20
-4.3337970817
 30
0.0
 10
-6.0607942929
 20
-4.3032283102
 30
0.0
 11
-5.9308496252
 21
-4.5751472341
 31
0.0
 11
-5.9598559314
 21
-4.557191974
 31
0.0
 11
-5.9857426391
 21
-4.5339356813
 31
0.0
 11
-6.0269206405
 21
-4.472730165
 31
0.0
 11
-6.0523550128
 21
-4.3945458446
 31
0.0
 11
-6.0607942929
 21
-4.3032283102
 31
0.0
  0
SPLINE
  5
462
100
AcDbEntity
  8
RACCORDO
100
AcDbSpline
 62
253
  6
CONTINUOUS
 70
0
 71
3
 72
11
 73
7
 74
5
 42
0.0000001
 43
0.0000001
 44
0.0000000001
 12
0.0017306169
 22
0.3673419508
 32
0.0
 13
-0.3293172695
 23
0.1627674411
 33
0.0
 40
0.0
 40
0.0
 40
0.0
 40
0.0
 40
0.2468893536
 40
0.5116863499
 40
0.7700780422
 40
1.0
 40
1.0
 40
1.0
 40
1.0
 10
-9.6420217926
 20
24.2502467216
 30
0.0
 10
-9.641879369
 20
24.2804776605
 30
0.0
 10
-9.6520698225
 20
24.343295085
 30
0.0
 10
-9.6897180079
 20
24.4306362519
 30
0.0
 10
-9.7453203966
 20
24.5052297021
 30
0.0
 10
-9.7935564058
 20
24.5426616575
 30
0.0
 10
-9.8187954963
 20
24.5551362604
 30
0.0
 11
-9.6420217926
 21
24.2502467216
 31
0.0
 11
-9.6551646199
 21
24.3399832006
 31
0.0
 11
-9.6933738028
 21
24.4294366778
 31
0.0
 11
-9.750833762
 21
24.504987987
 31
0.0
 11
-9.8187954963
 21
24.5551362604
 31
0.0
  0
SPLINE
  5
463
100
AcDbEntity
  8
RACCORDO
100
AcDbSpline
 62
7
  6
CONTINUOUS
 70
0
 71
3
 72
12
 73
8
 74
6
 42
0.0000001
 43
0.0000001
 44
0.0000000001
 12
-0.2288947893
 22
-0.2740443819
 32
0.0
 13
-0.3495652491
 23
0.0727824462
 33
0.0
 40
0.0
 40
0.0
 40
0.0
 40
0.0
 40
0.2548335856
 40
0.5141953181
 40
0.6424651752
 40
0.7674743832
 40
1.0
 40
1.0
 40
1.0
 40
1.0
 10
-11.0603491471
 20
22.695608441
 30
0.0
 10
-11.079792507
 20
22.6723298702
 30
0.0
 10
-11.1244065414
 20
22.6296603242
 30
0.0
 10
-11.1900700539
 20
22.589224388
 30
0.0
 10
-11.2470515872
 20
22.5668943402
 30
0.0
 10
-11.3032416828
 20
22.5530927559
 30
0.0
 10
-11.3470330995
 20
22.5522980854
 30
0.0
 10
-11.3741273913
 20
22.5579393465
 30
0.0
 11
-11.0603491471
 21
22.695608441
 31
0.0
 11
-11.125963749
 21
22.6325675895
 31
0.0
 11
-11.2050210764
 21
22.5843367605
 31
0.0
 11
-11.2477070565
 21
22.5677364057
 31
0.0
 11
-11.2911038946
 21
22.5572918673
 31
0.0
 11
-11.3741273913
 21
22.5579393465
 31
0.0
  0
SPLINE
  5
464
100
AcDbEntity
  8
RACCORDO
100
AcDbSpline
 62
253
  6
CONTINUOUS
 70
0
 71
3
 72
13
 73
9
 74
7
 42
0.0000001
 43
0.0000001
 44
0.0000000001
 12
-0.1069170449
 22
-0.2783411477
 32
0.0
 13
-0.2918757123
 23
0.060939458
 33
0.0
 40
0.0
 40
0.0
 40
0.0
 40
0.0
 40
0.2769976636
 40
0.5361986962
 40
0.658214714
 40
0.775329196
 40
0.8886900049
 40
1.0
 40
1.0
 40
1.0
 40
1.0
 10
-11.7715697552
 20
22.8441119639
 30
0.0
 10
-11.7814416791
 20
22.8184120147
 30
0.0
 10
-11.8071786843
 20
22.7708769218
 30
0.0
 10
-11.8545052587
 20
22.7239718001
 30
0.0
 10
-11.8977863344
 20
22.6993719636
 30
0.0
 10
-11.9311859401
 20
22.6880419547
 30
0.0
 10
-11.9651438891
 20
22.6838843557
 30
0.0
 10
-11.9875837034
 20
22.6860296691
 30
0.0
 10
-11.9984132648
 20
22.688290726
 30
0.0
 11
-11.7715697552
 21
22.8441119639
 31
0.0
 11
-11.8114532368
 21
22.7717877748
 31
0.0
 11
-11.8670039207
 21
22.7180548909
 31
0.0
 11
-11.8987039481
 21
22.7002022019
 31
0.0
 11
-11.9318154595
 21
22.6891102293
 31
0.0
 11
-11.9653776194
 21
22.6851013476
 31
0.0
 11
-11.9984132648
 21
22.688290726
 31
0.0
  0
SPLINE
  5
465
100
AcDbEntity
  8
RACCORDO
100
AcDbSpline
 62
253
  6
CONTINUOUS
 70
0
 71
3
 72
11
 73
7
 74
5
 42
0.0000001
 43
0.0000001
 44
0.0000000001
 12
-0.1076203234
 22
0.0538101617
 32
0.0
 13
0.0000013459
 23
0.1203231795
 33
0.0
 40
0.0
 40
0.0
 40
0.0
 40
0.0
 40
0.3025823221
 40
0.5654825801
 40
0.7934322544
 40
1.0
 40
1.0
 40
1.0
 40
1.0
 10
-0.0140475521
 20
16.7896026064
 30
0.0
 10
-0.0249022212
 20
16.7950299409
 30
0.0
 10
-0.0445206945
 20
16.8066696712
 30
0.0
 10
-0.068332064
 20
16.8281902991
 30
0.0
 10
-0.0836112625
 20
16.8521445845
 30
0.0
 10
-0.0872709475
 20
16.8697059926
 30
0.0
 10
-0.0872708548
 20
16.8779909553
 30
0.0
 11
-0.0140475521
 21
16.7896026064
 31
0.0
 11
-0.0451392251
 21
16.8085453119
 31
0.0
 11
-0.0682400613
 21
16.8301554423
 31
0.0
 11
-0.0824670217
 21
16.8536047165
 31
0.0
 11
-0.0872708548
 21
16.8779909553
 31
0.0
  0
SPLINE
  5
466
100
AcDbEntity
  8
RACCORDO
100
AcDbSpline
 62
253
  6
CONTINUOUS
 70
0
 71
3
 72
11
 73
7
 74
5
 42
0.0000001
 43
0.0000001
 44
0.0000000001
 12
-0.1076203225
 22
0.0538101613
 32
0.0
 13
0.0000013829
 23
0.1203231785
 33
0.0
 40
0.0
 40
0.0
 40
0.0
 40
0.0
 40
0.3025823249
 40
0.5654825874
 40
0.7934322572
 40
1.0
 40
1.0
 40
1.0
 40
1.0
 10
-0.0140475521
 20
17.1295765405
 30
0.0
 10
-0.0249022213
 20
17.1350038751
 30
0.0
 10
-0.0445206943
 20
17.1466436055
 30
0.0
 10
-0.0683320645
 20
17.168164233
 30
0.0
 10
-0.0836112615
 20
17.1921185179
 30
0.0
 10
-0.0872709499
 20
17.2096799257
 30
0.0
 10
-0.0872708547
 20
17.2179648882
 30
0.0
 11
-0.0140475521
 21
17.1295765405
 31
0.0
 11
-0.0451392251
 21
17.1485192461
 31
0.0
 11
-0.0682400617
 21
17.1701293765
 31
0.0
 11
-0.0824670219
 21
17.1935786499
 31
0.0
 11
-0.0872708547
 21
17.2179648882
 31
0.0
  0
SPLINE
  5
467
100
AcDbEntity
  8
RACCORDO
100
AcDbSpline
 62
253
  6
CONTINUOUS
 70
0
 71
3
 72
11
 73
7
 74
5
 42
0.0000001
 43
0.0000001
 44
0.0000000001
 12
-0.1051368994
 22
0.0519560066
 32
0.0
 13
-0.104347279
 23
-0.0535241963
 33
0.0
 40
0.0
 40
0.0
 40
0.0
 40
0.0
 40
0.2795156184
 40
0.5356957389
 40
0.7731450427
 40
1.0
 40
1.0
 40
1.0
 40
1.0
 10
0.1617007039
 20
17.4339533555
 30
0.0
 10
0.151904902
 20
17.4387941939
 30
0.0
 10
0.132328518
 20
17.4465981809
 30
0.0
 10
0.1023623413
 20
17.4520512895
 30
0.0
 10
0.0739488872
 20
17.4504304261
 30
0.0
 10
0.0565129366
 20
17.444452071
 30
0.0
 10
0.0486223707
 20
17.4404046612
 30
0.0
 11
0.1617007039
 21
17.4339533555
 31
0.0
 11
0.1311527072
 21
17.4458421297
 31
0.0
 11
0.101546244
 21
17.4509465845
 31
0.0
 11
0.0737598322
 21
17.4491162067
 31
0.0
 11
0.0486223707
 21
17.4404046612
 31
0.0
  0
SPLINE
  5
468
100
AcDbEntity
  8
RACCORDO
100
AcDbSpline
 62
253
  6
CONTINUOUS
 70
0
 71
3
 72
12
 73
8
 74
6
 42
0.0000001
 43
0.0000001
 44
0.0000000001
 12
-0.283147197
 22
0.1416042788
 32
0.0
 13
0.0008830204
 23
0.3165806804
 33
0.0
 40
0.0
 40
0.0
 40
0.0
 40
0.0
 40
0.1077483257
 40
0.2176619287
 40
0.4506612792
 40
0.7103460718
 40
1.0
 40
1.0
 40
1.0
 40
1.0
 10
-15.8427788626
 20
0.3808173852
 30
0.0
 10
-15.8529484081
 20
0.3859032599
 30
0.0
 10
-15.8725930461
 20
0.3980945782
 30
0.0
 10
-15.9080546297
 20
0.4301066127
 30
0.0
 10
-15.9433981424
 20
0.4843436429
 30
0.0
 10
-15.9679958241
 20
0.563947424
 30
0.0
 10
-15.9727877695
 20
0.6221595205
 30
0.0
 10
-15.9727025127
 20
0.6527257998
 30
0.0
 11
-15.8427788626
 21
0.3808173852
 31
0.0
 11
-15.8717807617
 21
0.3987746075
 31
0.0
 11
-15.8976633948
 21
0.4220317946
 31
0.0
 11
-15.9388346553
 21
0.4832360715
 31
0.0
 11
-15.9642647059
 21
0.5614156379
 31
0.0
 11
-15.9727025127
 21
0.6527257998
 31
0.0
  0
SPLINE
  5
469
100
AcDbEntity
  8
RACCORDO
100
AcDbSpline
 62
7
  6
CONTINUOUS
 70
0
 71
3
 72
11
 73
7
 74
5
 42
0.0000001
 43
0.0000001
 44
0.0000000001
 12
-0.1028463418
 22
0.0514231709
 32
0.0
 13
-0.1033748983
 23
-0.0503521891
 33
0.0
 40
0.0
 40
0.0
 40
0.0
 40
0.0
 40
0.2790833933
 40
0.5352290697
 40
0.7729212505
 40
1.0
 40
1.0
 40
1.0
 40
1.0
 10
1.744457307
 20
18.2459374528
 30
0.0
 10
1.7348897383
 20
18.2507212372
 30
0.0
 10
1.7157582249
 20
18.2584719696
 30
0.0
 10
1.6864392464
 20
18.264065793
 30
0.0
 10
1.6585564768
 20
18.2628320361
 30
0.0
 10
1.6413499385
 20
18.2572787699
 30
0.0
 10
1.6335251909
 20
18.2534674658
 30
0.0
 11
1.744457307
 21
18.2459374528
 31
0.0
 11
1.7146199029
 21
18.257749988
 31
0.0
 11
1.6856403896
 21
18.2630104442
 31
0.0
 11
1.6583471994
 21
18.2615694598
 31
0.0
 11
1.6335251909
 21
18.2534674658
 31
0.0
  0
SPLINE
  5
46A
100
AcDbEntity
  8
RACCORDO
100
AcDbSpline
 62
253
  6
CONTINUOUS
 70
0
 71
3
 72
11
 73
7
 74
5
 42
0.0000001
 43
0.0000001
 44
0.0000000001
 12
-0.1022732405
 22
0.0517308258
 32
0.0
 13
-0.1030347895
 23
-0.0501968744
 33
0.0
 40
0.0
 40
0.0
 40
0.0
 40
0.0
 40
0.2789499081
 40
0.5349528633
 40
0.7726365704
 40
1.0
 40
1.0
 40
1.0
 40
1.0
 10
2.2789071857
 20
18.5062849194
 30
0.0
 10
2.269397482
 20
18.5110950224
 30
0.0
 10
2.2503689774
 20
18.5188968197
 30
0.0
 10
2.2211691242
 20
18.5245547537
 30
0.0
 10
2.1933669542
 20
18.5233609733
 30
0.0
 10
2.1762039948
 20
18.517823736
 30
0.0
 10
2.1683952137
 20
18.5140194248
 30
0.0
 11
2.2789071857
 21
18.5062849194
 31
0.0
 11
2.2492295301
 21
18.5181752832
 31
0.0
 11
2.2203751855
 21
18.5234969959
 31
0.0
 11
2.1931697146
 21
18.5220985775
 31
0.0
 11
2.1683952137
 21
18.5140194248
 31
0.0
  0
SPLINE
  5
46B
100
AcDbEntity
  8
RACCORDO
100
AcDbSpline
 62
253
  6
CONTINUOUS
 70
0
 71
3
 72
14
 73
10
 74
8
 42
0.0000001
 43
0.0000001
 44
0.0000000001
 12
-0.5739126485
 22
-0.2762312851
 32
0.0
 13
0.0019596085
 23
-0.6369266919
 33
0.0
 40
0.0
 40
0.0
 40
0.0
 40
0.0
 40
0.1081476587
 40
0.2182150998
 40
0.3321766387
 40
0.4516335805
 40
0.577726307
 40
0.7111240011
 40
1.0
 40
1.0
 40
1.0
 40
1.0
 10
-16.0663556668
 20
0.4234181353
 30
0.0
 10
-16.0870447699
 20
0.413460213
 30
0.0
 10
-16.1270381925
 20
0.389478133
 30
0.0
 10
-16.1802786811
 20
0.3426984434
 30
0.0
 10
-16.2262982988
 20
0.2856994954
 30
0.0
 10
-16.2645286472
 20
0.2193145969
 30
0.0
 10
-16.2945695763
 20
0.144413327
 30
0.0
 10
-16.3240398002
 20
0.0315458371
 30
0.0
 10
-16.3315585553
 20
-0.0586359545
 30
0.0
 10
-16.3313698606
 20
-0.1199668993
 30
0.0
 11
-16.0663556668
 21
0.4234181353
 31
0.0
 11
-16.1254537168
 21
0.3880315093
 31
0.0
 11
-16.178232345
 21
0.3418887017
 31
0.0
 11
-16.2240242556
 21
0.2855703725
 31
0.0
 11
-16.2622501271
 21
0.2197842594
 31
0.0
 11
-16.2924260418
 21
0.1453566828
 31
0.0
 11
-16.3141697193
 21
0.063221088
 31
0.0
 11
-16.3313698606
 21
-0.1199668993
 31
0.0
  0
SPLINE
  5
46C
100
AcDbEntity
  8
RACCORDO
100
AcDbSpline
 62
253
  6
CONTINUOUS
 70
0
 71
3
 72
13
 73
9
 74
7
 42
0.0000001
 43
0.0000001
 44
0.0000000001
 12
0.039914475
 22
-0.0649789448
 32
0.0
 13
-0.048415102
 23
-0.0589186429
 33
0.0
 40
0.0
 40
0.0
 40
0.0
 40
0.0
 40
0.3448134119
 40
0.6206437253
 40
0.7337389512
 40
0.8322193127
 40
0.9193069812
 40
1.0
 40
1.0
 40
1.0
 40
1.0
 10
3.7046187023
 20
17.2293949574
 30
0.0
 10
3.7092063844
 20
17.2219264202
 30
0.0
 10
3.7168350261
 20
17.2080838459
 30
0.0
 10
3.7233601534
 20
17.1904509069
 30
0.0
 10
3.7252702028
 20
17.178164388
 30
0.0
 10
3.7251322594
 20
17.1705241309
 30
0.0
 10
3.7234793399
 20
17.1638880511
 30
0.0
 10
3.7212812422
 20
17.1601448051
 30
0.0
 10
3.7199789886
 20
17.1585600307
 30
0.0
 11
3.7046187023
 21
17.2293949574
 31
0.0
 11
3.7170318802
 21
17.206214235
 31
0.0
 11
3.7238342958
 21
17.1863099972
 31
0.0
 11
3.7250626475
 21
17.1777733956
 31
0.0
 11
3.724826692
 21
17.1702670936
 31
0.0
 11
3.7231280497
 21
17.1638467861
 31
0.0
 11
3.7199789886
 21
17.1585600307
 31
0.0
  0
SPLINE
  5
46D
100
AcDbEntity
  8
RACCORDO
100
AcDbSpline
 62
7
  6
CONTINUOUS
 70
0
 71
3
 72
11
 73
7
 74
5
 42
0.0000001
 43
0.0000001
 44
0.0000000001
 12
0.208921703
 22
0.1044326845
 32
0.0
 13
0.2089104374
 23
-0.1044552187
 33
0.0
 40
0.0
 40
0.0
 40
0.0
 40
0.0
 40
0.2288188304
 40
0.4669679226
 40
0.7224424725
 40
1.0
 40
1.0
 40
1.0
 40
1.0
 10
-17.1057489444
 20
9.0200717196
 30
0.0
 10
-17.0898138712
 20
9.0280371078
 30
0.0
 10
-17.0548339654
 20
9.0397788254
 30
0.0
 10
-16.9980928074
 20
9.0428903078
 30
0.0
 10
-16.9385777002
 20
9.0319545535
 30
0.0
 10
-16.8998283471
 20
9.0163561781
 30
0.0
 10
-16.8805001256
 20
9.0066920674
 30
0.0
 11
-17.1057489444
 21
9.0200717196
 31
0.0
 11
-17.0551256335
 21
9.037207825
 31
0.0
 11
-16.9996105962
 21
9.0406915731
 31
0.0
 11
-16.9408302242
 21
9.0304208652
 31
0.0
 11
-16.8805001256
 21
9.0066920674
 31
0.0
  0
SPLINE
  5
46E
100
AcDbEntity
  8
RACCORDO
100
AcDbSpline
 62
7
  6
CONTINUOUS
 70
0
 71
3
 72
11
 73
7
 74
5
 42
0.0000001
 43
0.0000001
 44
0.0000000001
 12
-0.3284173835
 22
-0.164238543
 32
0.0
 13
-0.3284293248
 23
0.1642146624
 33
0.0
 40
0.0
 40
0.0
 40
0.0
 40
0.0
 40
0.2245985754
 40
0.4613081224
 40
0.7183127275
 40
1.0
 40
1.0
 40
1.0
 40
1.0
 10
-4.3538632623
 20
-19.3189017589
 30
0.0
 10
-4.3784506211
 20
-19.3311976732
 30
0.0
 10
-4.4329480069
 20
-19.3490923722
 30
0.0
 10
-4.5216979368
 20
-19.3529015803
 30
0.0
 10
-4.6155720084
 20
-19.334707209
 30
0.0
 10
-4.6770151461
 20
-19.3097093522
 30
0.0
 10
-4.7078532663
 20
-19.2942902921
 30
0.0
 11
-4.3538632623
 21
-19.3189017589
 31
0.0
 11
-4.4321095797
 21
-19.3449606022
 31
0.0
 11
-4.5189080295
 21
-19.3495291502
 31
0.0
 11
-4.6117248558
 21
-19.3324735655
 31
0.0
 11
-4.7078532663
 21
-19.2942902921
 31
0.0
  0
SPLINE
  5
46F
100
AcDbEntity
  8
RACCORDO
100
AcDbSpline
 62
253
  6
CONTINUOUS
 70
0
 71
3
 72
11
 73
7
 74
5
 42
0.0000001
 43
0.0000001
 44
0.0000000001
 12
0.0017306169
 22
0.3673419503
 32
0.0
 13
-0.329317269
 23
0.1627674409
 33
0.0
 40
0.0
 40
0.0
 40
0.0
 40
0.0
 40
0.2468892362
 40
0.5116861101
 40
0.7700777364
 40
1.0
 40
1.0
 40
1.0
 40
1.0
 10
3.7046187023
 20
17.5769264741
 30
0.0
 10
3.7047611258
 20
17.6071573986
 30
0.0
 10
3.6945706825
 20
17.6699747935
 30
0.0
 10
3.6569225261
 20
17.7573159317
 30
0.0
 10
3.601320147
 20
17.8319094041
 30
0.0
 10
3.5530841226
 20
17.8693413934
 30
0.0
 10
3.5278449986
 20
17.8818160129
 30
0.0
 11
3.7046187023
 21
17.5769264741
 31
0.0
 11
3.6914758874
 21
17.6666629113
 31
0.0
 11
3.6532667368
 21
17.7561163532
 31
0.0
 11
3.5958068122
 21
17.8316676581
 31
0.0
 11
3.5278449986
 21
17.8818160129
 31
0.0
  0
SPLINE
  5
470
100
AcDbEntity
  8
RACCORDO
100
AcDbSpline
 62
253
  6
CONTINUOUS
 70
0
 71
3
 72
11
 73
7
 74
5
 42
0.0000001
 43
0.0000001
 44
0.0000000001
 12
-0.0017563531
 22
0.3667457895
 32
0.0
 13
-0.3272560827
 23
0.1655566829
 33
0.0
 40
0.0
 40
0.0
 40
0.0
 40
0.0
 40
0.2466958371
 40
0.5118834552
 40
0.7705706608
 40
1.0
 40
1.0
 40
1.0
 40
1.0
 10
1.5750707397
 20
16.5107656506
 30
0.0
 10
1.5749263114
 20
16.5409238704
 30
0.0
 10
1.5642732974
 20
16.6035530019
 30
0.0
 10
1.5264548428
 20
16.6906792527
 30
0.0
 10
1.4711394185
 20
16.7652770709
 30
0.0
 10
1.4233244183
 20
16.8029940026
 30
0.0
 10
1.398297036
 20
16.8156551894
 30
0.0
 11
1.5750707397
 21
16.5107656506
 31
0.0
 11
1.5612974062
 21
16.6001868284
 31
0.0
 11
1.5228668364
 21
16.6895295607
 31
0.0
 11
1.4656283309
 21
16.7651915753
 31
0.0
 11
1.398297036
 21
16.8156551894
 31
0.0
  0
SPLINE
  5
471
100
AcDbEntity
  8
RACCORDO
100
AcDbSpline
 62
7
  6
CONTINUOUS
 70
0
 71
3
 72
11
 73
7
 74
5
 42
0.0000001
 43
0.0000001
 44
0.0000000001
 12
0.0
 22
0.3670486434
 32
0.0
 13
-0.328298287
 23
0.1641491435
 33
0.0
 40
0.0
 40
0.0
 40
0.0
 40
0.0
 40
0.2467927921
 40
0.5117852903
 40
0.7703247525
 40
1.0
 40
1.0
 40
1.0
 40
1.0
 10
3.1763515305
 20
17.3134876541
 30
0.0
 10
3.1763515305
 20
17.3436826406
 30
0.0
 10
3.1659315271
 20
17.4064069791
 30
0.0
 10
3.1281977534
 20
17.4936407883
 30
0.0
 10
3.0727391477
 20
17.5682368976
 30
0.0
 10
3.0247118236
 20
17.6058101945
 30
0.0
 10
2.9995778269
 20
17.6183771929
 30
0.0
 11
3.1763515305
 21
17.3134876541
 31
0.0
 11
3.1628955664
 21
17.4030676291
 31
0.0
 11
3.124575943
 21
17.4924662495
 31
0.0
 11
3.0672261958
 21
17.5680728853
 31
0.0
 11
2.9995778269
 21
17.6183771929
 31
0.0
  0
SPLINE
  5
472
100
AcDbEntity
  8
RACCORDO
100
AcDbSpline
 62
253
  6
CONTINUOUS
 70
0
 71
3
 72
13
 73
9
 74
7
 42
0.0000001
 43
0.0000001
 44
0.0000000001
 12
0.3242438585
 22
-0.1621219293
 32
0.0
 13
0.3249922964
 23
0.1606163348
 33
0.0
 40
0.0
 40
0.0
 40
0.0
 40
0.0
 40
0.1125245899
 40
0.2354260292
 40
0.4995816495
 40
0.7639634918
 40
0.8871317035
 40
1.0
 40
1.0
 40
1.0
 40
1.0
 10
1.2225487801
 20
16.5112783744
 30
0.0
 10
1.2347105825
 20
16.5051974732
 30
0.0
 10
1.261207343
 20
16.4945333544
 30
0.0
 10
1.3196973035
 20
16.4791460428
 30
0.0
 10
1.3986221595
 20
16.4716860651
 30
0.0
 10
1.4775970738
 20
16.4789264753
 30
0.0
 10
1.5362363187
 20
16.4941393447
 30
0.0
 10
1.5628436307
 20
16.5047228199
 30
0.0
 10
1.5750707397
 20
16.5107656506
 30
0.0
 11
1.2225487801
 21
16.5112783744
 31
0.0
 11
1.2602830687
 21
16.4957830643
 31
0.0
 11
1.3033186581
 21
16.4842518094
 31
0.0
 11
1.3985983449
 21
16.4746672508
 31
0.0
 11
1.4939879164
 21
16.4839745218
 31
0.0
 11
1.5371569358
 21
16.4953804161
 31
0.0
 11
1.5750707397
 21
16.5107656506
 31
0.0
  0
SPLINE
  5
473
100
AcDbEntity
  8
RACCORDO
100
AcDbSpline
 62
253
  6
CONTINUOUS
 70
0
 71
3
 72
13
 73
9
 74
7
 42
0.0000001
 43
0.0000001
 44
0.0000000001
 12
0.3242438587
 22
-0.1621219294
 32
0.0
 13
0.3249922966
 23
0.1606163349
 33
0.0
 40
0.0
 40
0.0
 40
0.0
 40
0.0
 40
0.1125245594
 40
0.2354259647
 40
0.4995815213
 40
0.7639633273
 40
0.8871315091
 40
1.0
 40
1.0
 40
1.0
 40
1.0
 10
1.2225487801
 20
16.1713044403
 30
0.0
 10
1.2347105792
 20
16.1652235407
 30
0.0
 10
1.2612073323
 20
16.1545594243
 30
0.0
 10
1.3196972768
 20
16.1391721137
 30
0.0
 10
1.3986221163
 20
16.1317121313
 30
0.0
 10
1.4775970146
 20
16.1389525353
 30
0.0
 10
1.5362362783
 20
16.1541653936
 30
0.0
 10
1.5628436097
 20
16.1647488753
 30
0.0
 10
1.5750707397
 20
16.1707917164
 30
0.0
 11
1.2225487801
 21
16.1713044403
 31
0.0
 11
1.2602830582
 21
16.1558091337
 31
0.0
 11
1.3033186352
 21
16.1442778799
 31
0.0
 11
1.3985982984
 21
16.1346933167
 31
0.0
 11
1.4939878579
 21
16.1440005763
 31
0.0
 11
1.5371568693
 21
16.1554064585
 31
0.0
 11
1.5750707397
 21
16.1707917164
 31
0.0
  0
SPLINE
  5
474
100
AcDbEntity
  8
RACCORDO
100
AcDbSpline
 62
253
  6
CONTINUOUS
 70
0
 71
3
 72
11
 73
7
 74
5
 42
0.0000001
 43
0.0000001
 44
0.0000000001
 12
0.0
 22
-0.1574187621
 32
0.0
 13
0.1407924118
 23
-0.0704142276
 33
0.0
 40
0.0
 40
0.0
 40
0.0
 40
0.0
 40
0.2897477756
 40
0.5495860029
 40
0.7828492609
 40
1.0
 40
1.0
 40
1.0
 40
1.0
 10
1.2225487801
 20
16.1713044403
 30
0.0
 10
1.2225487801
 20
16.1561005282
 30
0.0
 10
1.2250022504
 20
16.1271525649
 30
0.0
 10
1.2373735378
 20
16.08756055
 30
0.0
 10
1.2580367296
 20
16.0558629767
 30
0.0
 10
1.277320352
 20
16.0411880743
 30
0.0
 10
1.2875114107
 20
16.0360912405
 30
0.0
 11
1.2225487801
 21
16.1713044403
 31
0.0
 11
1.22686785
 21
16.1258976555
 31
0.0
 11
1.2396131582
 21
16.0870306227
 31
0.0
 11
1.2601629588
 21
16.0565993054
 31
0.0
 11
1.2875114107
 21
16.0360912405
 31
0.0
  0
SPLINE
  5
475
100
AcDbEntity
  8
RACCORDO
100
AcDbSpline
 62
253
  6
CONTINUOUS
 70
0
 71
3
 72
11
 73
7
 74
5
 42
0.0000001
 43
0.0000001
 44
0.0000000001
 12
0.0
 22
-0.157431766
 32
0.0
 13
0.1408139516
 23
-0.070400227
 33
0.0
 40
0.0
 40
0.0
 40
0.0
 40
0.0
 40
0.2897504308
 40
0.5495880475
 40
0.7828491195
 40
1.0
 40
1.0
 40
1.0
 40
1.0
 10
-0.0140475521
 20
16.7896026064
 30
0.0
 10
-0.0140475521
 20
16.774397299
 30
0.0
 10
-0.0115936495
 20
16.7454468113
 30
0.0
 10
0.0007799821
 20
16.7058518391
 30
0.0
 10
0.0214471814
 20
16.6741531029
 30
0.0
 10
0.0407342372
 20
16.6594793383
 30
0.0
 10
0.0509268617
 20
16.6543835145
 30
0.0
 11
-0.0140475521
 21
16.7896026064
 31
0.0
 11
-0.0097276467
 21
16.7441916963
 31
0.0
 11
0.0030200859
 21
16.7053220037
 31
0.0
 11
0.0235736616
 21
16.6748899909
 31
0.0
 11
0.0509268617
 21
16.6543835145
 31
0.0
  0
SPLINE
  5
476
100
AcDbEntity
  8
RACCORDO
100
AcDbSpline
 62
7
  6
CONTINUOUS
 70
0
 71
3
 72
12
 73
8
 74
6
 42
0.0000001
 43
0.0000001
 44
0.0000000001
 12
-0.2288947893
 22
-0.2740443819
 32
0.0
 13
-0.3495652491
 23
0.0727824462
 33
0.0
 40
0.0
 40
0.0
 40
0.0
 40
0.0
 40
0.2548335856
 40
0.5141953181
 40
0.6424651752
 40
0.7674743832
 40
1.0
 40
1.0
 40
1.0
 40
1.0
 10
2.2862913478
 20
16.0222881936
 30
0.0
 10
2.2668479878
 20
15.9990096228
 30
0.0
 10
2.2222339535
 20
15.9563400767
 30
0.0
 10
2.156570441
 20
15.9159041406
 30
0.0
 10
2.0995889077
 20
15.8935740927
 30
0.0
 10
2.0433988121
 20
15.8797725085
 30
0.0
 10
1.9996073954
 20
15.878977838
 30
0.0
 10
1.9725131036
 20
15.884619099
 30
0.0
 11
2.2862913478
 21
16.0222881936
 31
0.0
 11
2.2206767459
 21
15.959247342
 31
0.0
 11
2.1416194185
 21
15.9110165131
 31
0.0
 11
2.0989334384
 21
15.8944161582
 31
0.0
 11
2.0555366003
 21
15.8839716198
 31
0.0
 11
1.9725131036
 21
15.884619099
 31
0.0
  0
SPLINE
  5
477
100
AcDbEntity
  8
RACCORDO
100
AcDbSpline
 62
253
  6
CONTINUOUS
 70
0
 71
3
 72
16
 73
12
 74
10
 42
0.0000001
 43
0.0000001
 44
0.0000000001
 12
0.6093024248
 22
0.2383068643
 32
0.0
 13
-0.0246962728
 23
-0.65378108
 33
0.0
 40
0.0
 40
0.0
 40
0.0
 40
0.0
 40
0.0460390828
 40
0.0935427299
 40
0.196273302
 40
0.312920838
 40
0.4429783848
 40
0.58263108
 40
0.7261888028
 40
0.8672886691
 40
1.0
 40
1.0
 40
1.0
 40
1.0
 10
8.0822748151
 20
-15.5104864259
 30
0.0
 10
8.09162539
 20
-15.5068292827
 30
0.0
 10
8.1115018006
 20
-15.5014695344
 30
0.0
 10
8.1545106553
 20
-15.4991648774
 30
0.0
 10
8.2122717634
 20
-15.513404714
 30
0.0
 10
8.2783168747
 20
-15.5529850479
 30
0.0
 10
8.3393237073
 20
-15.6119939863
 30
0.0
 10
8.391218896
 20
-15.6862774375
 30
0.0
 10
8.4304663433
 20
-15.7705914434
 30
0.0
 10
8.4542855583
 20
-15.8588936045
 30
0.0
 10
8.4589250118
 20
-15.9189243166
 30
0.0
 10
8.4578325201
 20
-15.9478457023
 30
0.0
 11
8.0822748151
 21
-15.5104864259
 31
0.0
 11
8.1113411175
 21
-15.5025856924
 31
0.0
 11
8.1423684016
 21
-15.5007911689
 31
0.0
 11
8.2079404161
 21
-15.5155443738
 31
0.0
 11
8.2740668952
 21
-15.5536425741
 31
0.0
 11
8.3357810426
 21
-15.6122227686
 31
0.0
 11
8.3884508214
 21
-15.6868813076
 31
0.0
 11
8.4281288131
 21
-15.7720109034
 31
0.0
 11
8.4518466814
 21
-15.861226244
 31
0.0
 11
8.4578325201
 21
-15.9478457023
 31
0.0
  0
SPLINE
  5
478
100
AcDbEntity
  8
RACCORDO
100
AcDbSpline
 62
253
  6
CONTINUOUS
 70
0
 71
3
 72
13
 73
9
 74
7
 42
0.0000001
 43
0.0000001
 44
0.0000000001
 12
-0.1069170449
 22
-0.2783411477
 32
0.0
 13
-0.2918757123
 23
0.060939458
 33
0.0
 40
0.0
 40
0.0
 40
0.0
 40
0.0
 40
0.2769976636
 40
0.5361986962
 40
0.658214714
 40
0.775329196
 40
0.8886900049
 40
1.0
 40
1.0
 40
1.0
 40
1.0
 10
1.5750707397
 20
16.1707917164
 30
0.0
 10
1.5651988158
 20
16.1450917673
 30
0.0
 10
1.5394618106
 20
16.0975566743
 30
0.0
 10
1.4921352362
 20
16.0506515526
 30
0.0
 10
1.4488541605
 20
16.0260517161
 30
0.0
 10
1.4154545548
 20
16.0147217072
 30
0.0
 10
1.3814966058
 20
16.0105641083
 30
0.0
 10
1.3590567915
 20
16.0127094216
 30
0.0
 10
1.3482272301
 20
16.0149704786
 30
0.0
 11
1.5750707397
 21
16.1707917164
 31
0.0
 11
1.5351872581
 21
16.0984675274
 31
0.0
 11
1.4796365742
 21
16.0447346435
 31
0.0
 11
1.4479365468
 21
16.0268819545
 31
0.0
 11
1.4148250354
 21
16.0157899818
 31
0.0
 11
1.3812628755
 21
16.0117811002
 31
0.0
 11
1.3482272301
 21
16.0149704786
 31
0.0
  0
SPLINE
  5
479
100
AcDbEntity
  8
RACCORDO
100
AcDbSpline
 62
7
  6
CONTINUOUS
 70
0
 71
3
 72
9
 73
5
 74
3
 42
0.0000001
 43
0.0000001
 44
0.0000000001
 12
-0.0457891744
 22
-0.0255603899
 32
0.0
 13
-0.0495166566
 23
-0.0172650731
 33
0.0
 40
0.0
 40
0.0
 40
0.0
 40
0.0
 40
0.2394952714
 40
1.0
 40
1.0
 40
1.0
 40
1.0
 10
2.2862913478
 20
15.1713165998
 30
0.0
 10
2.2826359175
 20
15.1692760689
 30
0.0
 10
2.2671591518
 20
15.1611397633
 30
0.0
 10
2.2509269253
 20
15.1544815496
 30
0.0
 10
2.2383743748
 20
15.1501048263
 30
0.0
 11
2.2862913478
 21
15.1713165998
 31
0.0
 11
2.2751793614
 21
15.1654636359
 31
0.0
 11
2.2383743748
 21
15.1501048263
 31
0.0
  0
SPLINE
  5
47A
100
AcDbEntity
  8
RACCORDO
100
AcDbSpline
 62
253
  6
CONTINUOUS
 70
0
 71
3
 72
11
 73
7
 74
5
 42
0.0000001
 43
0.0000001
 44
0.0000000001
 12
-0.0
 22
0.3659184282
 32
0.0
 13
0.3263519551
 23
0.1655013518
 33
0.0
 40
0.0
 40
0.0
 40
0.0
 40
0.0
 40
0.2465991784
 40
0.5114081618
 40
0.7699752382
 40
1.0
 40
1.0
 40
1.0
 40
1.0
 10
-0.0140475521
 20
17.1295765405
 30
0.0
 10
-0.0140475521
 20
17.1596549351
 30
0.0
 10
-0.0037048095
 20
17.2221399161
 30
0.0
 10
0.0337787911
 20
17.3091103241
 30
0.0
 10
0.0889181428
 20
17.3836093501
 30
0.0
 10
0.1366776936
 20
17.4212635525
 30
0.0
 10
0.1617007039
 20
17.4339533555
 30
0.0
 11
-0.0140475521
 21
17.1295765405
 31
0.0
 11
-0.0006892235
 21
17.2188174697
 31
0.0
 11
0.0373660192
 21
17.3079304052
 31
0.0
 11
0.0943680569
 21
17.3834463863
 31
0.0
 11
0.1617007039
 21
17.4339533555
 31
0.0
  0
SPLINE
  5
47B
100
AcDbEntity
  8
RACCORDO
100
AcDbSpline
 62
253
  6
CONTINUOUS
 70
0
 71
3
 72
11
 73
7
 74
5
 42
0.0000001
 43
0.0000001
 44
0.0000000001
 12
0.0
 22
0.3659184285
 32
0.0
 13
0.3263519554
 23
0.165501352
 33
0.0
 40
0.0
 40
0.0
 40
0.0
 40
0.0
 40
0.2465996066
 40
0.5114086341
 40
0.7699756527
 40
1.0
 40
1.0
 40
1.0
 40
1.0
 10
1.2225487801
 20
16.5112783744
 30
0.0
 10
1.2225487801
 20
16.5413568213
 30
0.0
 10
1.2328915522
 20
16.60384186
 30
0.0
 10
1.2703752045
 20
16.6908122995
 30
0.0
 10
1.3255145549
 20
16.7653112637
 30
0.0
 10
1.3732740708
 20
16.8029654092
 30
0.0
 10
1.398297036
 20
16.8156551894
 30
0.0
 11
1.2225487801
 21
16.5112783744
 31
0.0
 11
1.2359071541
 21
16.6005194553
 31
0.0
 11
1.2739624388
 21
16.6896323906
 31
0.0
 11
1.3309644957
 21
16.7651483307
 31
0.0
 11
1.398297036
 21
16.8156551894
 31
0.0
  0
SPLINE
  5
47C
100
AcDbEntity
  8
RACCORDO
100
AcDbSpline
 62
7
  6
CONTINUOUS
 70
0
 71
3
 72
12
 73
8
 74
6
 42
0.0000001
 43
0.0000001
 44
0.0000000001
 12
0.2760270103
 22
0.1379542592
 32
0.0
 13
-0.0072404314
 23
0.3084961332
 33
0.0
 40
0.0
 40
0.0
 40
0.0
 40
0.0
 40
0.1073765344
 40
0.216732257
 40
0.4487227458
 40
0.7085174001
 40
1.0
 40
1.0
 40
1.0
 40
1.0
 10
-4.4929169711
 20
-19.0530185828
 30
0.0
 10
-4.4830373632
 20
-19.0480808994
 30
0.0
 10
-4.4639821306
 20
-19.0362176745
 30
0.0
 10
-4.429750837
 20
-19.0049249617
 30
0.0
 10
-4.3960793106
 20
-18.9516722667
 30
0.0
 10
-4.3735982233
 20
-18.8735114852
 30
0.0
 10
-4.3701214553
 20
-18.8164829491
 30
0.0
 10
-4.3708249419
 20
-18.7865091975
 30
0.0
 11
-4.4929169711
 21
-19.0530185828
 31
0.0
 11
-4.4647750764
 21
-19.0355280112
 31
0.0
 11
-4.4398164151
 21
-19.0128168348
 31
0.0
 11
-4.400625541
 21
-18.9529094096
 31
0.0
 11
-4.3772495451
 21
-18.8762254759
 31
0.0
 11
-4.3708249419
 21
-18.7865091975
 31
0.0
  0
SPLINE
  5
47D
100
AcDbEntity
  8
RACCORDO
100
AcDbSpline
 62
253
  6
CONTINUOUS
 70
0
 71
3
 72
11
 73
7
 74
5
 42
0.0000001
 43
0.0000001
 44
0.0000000001
 12
-0.0000266132
 22
-0.0953314368
 32
0.0
 13
-0.0850669821
 23
-0.0430312922
 33
0.0
 40
0.0
 40
0.0
 40
0.0
 40
0.0
 40
0.2069620723
 40
0.4350701802
 40
0.6978134292
 40
1.0
 40
1.0
 40
1.0
 40
1.0
 10
8.5155902748
 20
-15.8775619637
 30
0.0
 10
8.5155884388
 20
-15.8841386276
 30
0.0
 10
8.5127063707
 20
-15.898068574
 30
0.0
 10
8.5006661702
 20
-15.9171003684
 30
0.0
 10
8.4818865254
 20
-15.9342261157
 30
0.0
 10
8.4664012199
 20
-15.9435112094
 30
0.0
 10
8.4578325201
 20
-15.9478457023
 30
0.0
 11
8.5155902748
 21
-15.8775619637
 31
0.0
 11
8.5117999298
 21
-15.8969244503
 31
0.0
 11
8.5005825268
 21
-15.9155538069
 31
0.0
 11
8.482364718
 21
-15.932743872
 31
0.0
 11
8.4578325201
 21
-15.9478457023
 31
0.0
  0
SPLINE
  5
47E
100
AcDbEntity
  8
RACCORDO
100
AcDbSpline
 62
253
  6
CONTINUOUS
 70
0
 71
3
 72
11
 73
7
 74
5
 42
0.0000001
 43
0.0000001
 44
0.0000000001
 12
-0.1026843522
 22
0.0513470349
 32
0.0
 13
-0.1029781204
 23
-0.0507553043
 33
0.0
 40
0.0
 40
0.0
 40
0.0
 40
0.0
 40
0.2274032722
 40
0.4651087917
 40
0.721101419
 40
1.0
 40
1.0
 40
1.0
 40
1.0
 10
3.6386198077
 20
17.8884056074
 30
0.0
 10
3.6308362218
 20
17.8922977687
 30
0.0
 10
3.6137005933
 20
17.8980236321
 30
0.0
 10
3.5858632769
 20
17.8995109042
 30
0.0
 10
3.5565575243
 20
17.8941500203
 30
0.0
 10
3.5374184825
 20
17.8865345404
 30
0.0
 10
3.5278449986
 20
17.8818160129
 30
0.0
 11
3.6386198077
 21
17.8884056074
 31
0.0
 11
3.6138842804
 21
17.8967573647
 31
0.0
 11
3.5866461851
 21
17.8984429868
 31
0.0
 11
3.5576898273
 21
17.8934147653
 31
0.0
 11
3.5278449986
 21
17.8818160129
 31
0.0
  0
SPLINE
  5
47F
100
AcDbEntity
  8
RACCORDO
100
AcDbSpline
 62
253
  6
CONTINUOUS
 70
0
 71
3
 72
11
 73
7
 74
5
 42
0.0000001
 43
0.0000001
 44
0.0000000001
 12
-0.1026843522
 22
0.0513470349
 32
0.0
 13
-0.1029781204
 23
-0.0507553043
 33
0.0
 40
0.0
 40
0.0
 40
0.0
 40
0.0
 40
0.2274032722
 40
0.4651087917
 40
0.721101419
 40
1.0
 40
1.0
 40
1.0
 40
1.0
 10
2.3896819948
 20
18.5128745139
 30
0.0
 10
2.3818984089
 20
18.5167666751
 30
0.0
 10
2.3647627804
 20
18.5224925386
 30
0.0
 10
2.336925464
 20
18.5239798107
 30
0.0
 10
2.3076197114
 20
18.5186189267
 30
0.0
 10
2.2884806696
 20
18.5110034468
 30
0.0
 10
2.2789071857
 20
18.5062849194
 30
0.0
 11
2.3896819948
 21
18.5128745139
 31
0.0
 11
2.3649464675
 21
18.5212262712
 31
0.0
 11
2.3377083721
 21
18.5229118932
 31
0.0
 11
2.3087520144
 21
18.5178836717
 31
0.0
 11
2.2789071857
 21
18.5062849194
 31
0.0
  0
SPLINE
  5
480
100
AcDbEntity
  8
RACCORDO
100
AcDbSpline
 62
253
  6
CONTINUOUS
 70
0
 71
3
 72
11
 73
7
 74
5
 42
0.0000001
 43
0.0000001
 44
0.0000000001
 12
0.0
 22
0.2523287195
 32
0.0
 13
0.1609736044
 23
0.1943123294
 33
0.0
 40
0.0
 40
0.0
 40
0.0
 40
0.0
 40
0.2352280484
 40
0.4870806614
 40
0.7456469788
 40
1.0
 40
1.0
 40
1.0
 40
1.0
 10
1.2225487801
 20
-25.1282996991
 30
0.0
 10
1.2225487801
 20
-25.1085147683
 30
0.0
 10
1.2270795879
 20
-25.0674894658
 30
0.0
 10
1.2448291861
 20
-25.0070597242
 30
0.0
 10
1.2726536011
 20
-24.9487786022
 30
0.0
 10
1.2972890868
 20
-24.9130801679
 30
0.0
 10
1.3109371277
 20
-24.8966055253
 30
0.0
 11
1.2225487801
 21
-25.1282996991
 31
0.0
 11
1.2285724071
 21
-25.0692513521
 31
0.0
 11
1.2462324807
 21
-25.0082048168
 31
0.0
 11
1.2743250623
 21
-24.9493189249
 31
0.0
 11
1.3109371277
 21
-24.8966055253
 31
0.0
  0
SPLINE
  5
481
100
AcDbEntity
  8
RACCORDO
100
AcDbSpline
 62
253
  6
CONTINUOUS
 70
0
 71
3
 72
11
 73
7
 74
5
 42
0.0000001
 43
0.0000001
 44
0.0000000001
 12
-0.1076203225
 22
0.0538101613
 32
0.0
 13
0.0000013829
 23
0.1203231785
 33
0.0
 40
0.0
 40
0.0
 40
0.0
 40
0.0
 40
0.3025823249
 40
0.5654825874
 40
0.7934322572
 40
1.0
 40
1.0
 40
1.0
 40
1.0
 10
-0.0140475521
 20
-24.8499754671
 30
0.0
 10
-0.0249022213
 20
-24.8445481326
 30
0.0
 10
-0.0445206943
 20
-24.8329084021
 30
0.0
 10
-0.0683320645
 20
-24.8113877746
 30
0.0
 10
-0.0836112615
 20
-24.7874334897
 30
0.0
 10
-0.0872709499
 20
-24.7698720819
 30
0.0
 10
-0.0872708547
 20
-24.7615871195
 30
0.0
 11
-0.0140475521
 21
-24.8499754671
 31
0.0
 11
-0.0451392251
 21
-24.8310327616
 31
0.0
 11
-0.0682400617
 21
-24.8094226312
 31
0.0
 11
-0.0824670219
 21
-24.7859733577
 31
0.0
 11
-0.0872708547
 21
-24.7615871195
 31
0.0
  0
SPLINE
  5
482
100
AcDbEntity
  8
RACCORDO
100
AcDbSpline
 62
253
  6
CONTINUOUS
 70
0
 71
3
 72
9
 73
5
 74
3
 42
0.0000001
 43
0.0000001
 44
0.0000000001
 12
-0.0147717041
 22
0.0073858521
 32
0.0
 13
-0.0141984423
 23
0.0084355374
 33
0.0
 40
0.0
 40
0.0
 40
0.0
 40
0.0
 40
0.254942895
 40
1.0
 40
1.0
 40
1.0
 40
1.0
 10
-0.0140475521
 20
-24.510001533
 30
0.0
 10
-0.0153028658
 20
-24.5093738762
 30
0.0
 10
-0.0202055549
 20
-24.5068698489
 30
0.0
 10
-0.0250216056
 20
-24.504195246
 30
0.0
 10
-0.0285478224
 20
-24.5021002603
 30
0.0
 11
-0.0140475521
 21
-24.510001533
 31
0.0
 11
-0.0177970462
 21
-24.5080860215
 31
0.0
 11
-0.0285478224
 21
-24.5021002603
 31
0.0
  0
SPLINE
  5
483
100
AcDbEntity
  8
RACCORDO
100
AcDbSpline
 62
253
  6
CONTINUOUS
 70
0
 71
3
 72
11
 73
7
 74
5
 42
0.0000001
 43
0.0000001
 44
0.0000000001
 12
0.0
 22
-0.1574304331
 32
0.0
 13
0.1408073423
 23
-0.0704104653
 33
0.0
 40
0.0
 40
0.0
 40
0.0
 40
0.0
 40
0.2897501958
 40
0.5495852128
 40
0.7828460584
 40
1.0
 40
1.0
 40
1.0
 40
1.0
 10
1.2225487801
 20
-25.4682736332
 30
0.0
 10
1.2225487801
 20
-25.4834787995
 30
0.0
 10
1.2250024714
 20
-25.5124290027
 30
0.0
 10
1.2373763509
 20
-25.5520230802
 30
0.0
 10
1.2580419556
 20
-25.5837228972
 30
0.0
 10
1.2773299105
 20
-25.5983951384
 30
0.0
 10
1.2875222003
 20
-25.6034917751
 30
0.0
 11
1.2225487801
 21
-25.4682736332
 31
0.0
 11
1.226868593
 21
-25.513684127
 31
0.0
 11
1.2396160407
 21
-25.5525531178
 31
0.0
 11
1.2601687711
 21
-25.5829852833
 31
0.0
 11
1.2875222003
 21
-25.6034917751
 31
0.0
  0
SPLINE
  5
484
100
AcDbEntity
  8
RACCORDO
100
AcDbSpline
 62
253
  6
CONTINUOUS
 70
0
 71
3
 72
11
 73
7
 74
5
 42
0.0000001
 43
0.0000001
 44
0.0000000001
 12
0.0
 22
-0.1574304331
 32
0.0
 13
0.1408073423
 23
-0.0704104653
 33
0.0
 40
0.0
 40
0.0
 40
0.0
 40
0.0
 40
0.2897501958
 40
0.5495852128
 40
0.7828460584
 40
1.0
 40
1.0
 40
1.0
 40
1.0
 10
-0.0140475521
 20
-24.8499754671
 30
0.0
 10
-0.0140475521
 20
-24.8651806334
 30
0.0
 10
-0.0115938608
 20
-24.8941308366
 30
0.0
 10
0.0007800188
 20
-24.9337249142
 30
0.0
 10
0.0214456234
 20
-24.9654247311
 30
0.0
 10
0.0407335783
 20
-24.9800969723
 30
0.0
 10
0.0509258681
 20
-24.985193609
 30
0.0
 11
-0.0140475521
 21
-24.8499754671
 31
0.0
 11
-0.0097277391
 21
-24.8953859609
 31
0.0
 11
0.0030197085
 21
-24.9342549517
 31
0.0
 11
0.023572439
 21
-24.9646871172
 31
0.0
 11
0.0509258681
 21
-24.985193609
 31
0.0
  0
SPLINE
  5
485
100
AcDbEntity
  8
RACCORDO
100
AcDbSpline
 62
253
  6
CONTINUOUS
 70
0
 71
3
 72
11
 73
7
 74
5
 42
0.0000001
 43
0.0000001
 44
0.0000000001
 12
-0.0000019555
 22
-0.1191818406
 32
0.0
 13
-0.1063493789
 23
-0.0537970327
 33
0.0
 40
0.0
 40
0.0
 40
0.0
 40
0.0
 40
0.206962976
 40
0.435065309
 40
0.6978069212
 40
1.0
 40
1.0
 40
1.0
 40
1.0
 10
3.7768165574
 20
17.6647987569
 30
0.0
 10
3.7768164225
 20
17.6565766808
 30
0.0
 10
3.773217216
 20
17.6391608386
 30
0.0
 10
3.7581678096
 20
17.6153656763
 30
0.0
 10
3.7346909018
 20
17.5939539929
 30
0.0
 10
3.7153313844
 20
17.5823455044
 30
0.0
 10
3.7046187023
 20
17.5769264741
 30
0.0
 11
3.7768165574
 21
17.6647987569
 31
0.0
 11
3.7720832651
 21
17.6405909324
 31
0.0
 11
3.758062915
 21
17.6172995248
 31
0.0
 11
3.7352887924
 21
17.5958074856
 31
0.0
 11
3.7046187023
 21
17.5769264741
 31
0.0
  0
LINE
  5
486
100
AcDbEntity
  8
RACCORDO
100
AcDbLine
 62
253
  6
CONTINUOUS
 10
8.4578325201
 20
-15.9478457023
 11
6.2111392151
 21
-16.8583506328
  0
SPLINE
  5
487
100
AcDbEntity
  8
RACCORDO
100
AcDbSpline
 62
253
  6
CONTINUOUS
 70
0
 71
3
 72
13
 73
9
 74
7
 42
0.0000001
 43
0.0000001
 44
0.0000000001
 12
0.1276934635
 22
0.3370670904
 32
0.0
 13
-0.3225548801
 23
0.1608670051
 33
0.0
 40
0.0
 40
0.0
 40
0.0
 40
0.0
 40
0.2701264394
 40
0.5327826693
 40
0.6577241283
 40
0.7769941193
 40
0.8907279222
 40
1.0
 40
1.0
 40
1.0
 40
1.0
 10
3.7046187023
 20
-24.070209182
 30
0.0
 10
3.7161164958
 20
-24.0398589377
 30
0.0
 10
3.7296001308
 20
-23.9761322431
 30
0.0
 10
3.7218112036
 20
-23.896013844
 30
0.0
 10
3.7003972232
 20
-23.8386809369
 30
0.0
 10
3.677898102
 20
-23.8016876581
 30
0.0
 10
3.6495171814
 20
-23.7715008661
 30
0.0
 10
3.6269536542
 20
-23.7565018
 30
0.0
 10
3.6152049069
 20
-23.750642376
 30
0.0
 11
3.7046187023
 21
-24.070209182
 31
0.0
 11
3.72470121
 21
-23.974937349
 31
0.0
 11
3.7147685061
 21
-23.8807869909
 31
0.0
 11
3.6988402808
 21
-23.8386635029
 31
0.0
 11
3.6763252973
 21
-23.8020407194
 31
0.0
 11
3.6480880113
 21
-23.7723217363
 31
0.0
 11
3.6152049069
 21
-23.750642376
 31
0.0
  0
SPLINE
  5
488
100
AcDbEntity
  8
RACCORDO
100
AcDbSpline
 62
253
  6
CONTINUOUS
 70
0
 71
3
 72
11
 73
7
 74
5
 42
0.0000001
 43
0.0000001
 44
0.0000000001
 12
-0.0000013698
 22
-0.1191821853
 32
0.0
 13
-0.1063496865
 23
-0.0537971883
 33
0.0
 40
0.0
 40
0.0
 40
0.0
 40
0.0
 40
0.2069627866
 40
0.4350648202
 40
0.69780603
 40
1.0
 40
1.0
 40
1.0
 40
1.0
 10
3.7768165571
 20
17.3172675895
 30
0.0
 10
3.7768164626
 20
17.3090454972
 30
0.0
 10
3.7732173459
 20
17.2916296013
 30
0.0
 10
3.7581679784
 20
17.2678343525
 30
0.0
 10
3.7346910386
 20
17.2464225547
 30
0.0
 10
3.7153314469
 20
17.2348140193
 30
0.0
 10
3.7046187023
 20
17.2293949574
 30
0.0
 11
3.7768165571
 21
17.3172675895
 31
0.0
 11
3.7720833743
 21
17.2930596939
 31
0.0
 11
3.7580630752
 21
17.2697682055
 31
0.0
 11
3.7352889627
 21
17.2482760936
 31
0.0
 11
3.7046187023
 21
17.2293949574
 31
0.0
  0
SPLINE
  5
489
100
AcDbEntity
  8
RACCORDO
100
AcDbSpline
 62
253
  6
CONTINUOUS
 70
0
 71
3
 72
13
 73
9
 74
7
 42
0.0000001
 43
0.0000001
 44
0.0000000001
 12
0.3242438589
 22
-0.1621219295
 32
0.0
 13
0.3249922968
 23
0.160616335
 33
0.0
 40
0.0
 40
0.0
 40
0.0
 40
0.0
 40
0.1125245356
 40
0.2354259129
 40
0.4995814041
 40
0.7639631741
 40
0.8871313456
 40
1.0
 40
1.0
 40
1.0
 40
1.0
 10
1.2225487801
 20
-25.1282996991
 30
0.0
 10
1.2347105766
 20
-25.1343805974
 30
0.0
 10
1.2612073237
 20
-25.1450447117
 30
0.0
 10
1.3196972539
 20
-25.1604320213
 30
0.0
 10
1.3986220773
 20
-25.1678920076
 30
0.0
 10
1.4775969618
 20
-25.1606516095
 30
0.0
 10
1.5362362426
 20
-25.1454387606
 30
0.0
 10
1.562843592
 20
-25.1348552728
 30
0.0
 10
1.5750707397
 20
-25.1288124229
 30
0.0
 11
1.2225487801
 21
-25.1282996991
 31
0.0
 11
1.26028305
 21
-25.1437950029
 31
0.0
 11
1.3033186168
 21
-25.1553262558
 31
0.0
 11
1.3985982559
 21
-25.1649108226
 31
0.0
 11
1.4939878033
 21
-25.1556035737
 31
0.0
 11
1.5371568133
 21
-25.1441977006
 31
0.0
 11
1.5750707397
 21
-25.1288124229
 31
0.0
  0
SPLINE
  5
48A
100
AcDbEntity
  8
RACCORDO
100
AcDbSpline
 62
253
  6
CONTINUOUS
 70
0
 71
3
 72
13
 73
9
 74
7
 42
0.0000001
 43
0.0000001
 44
0.0000000001
 12
0.3242438589
 22
-0.1621219295
 32
0.0
 13
0.3249922968
 23
0.160616335
 33
0.0
 40
0.0
 40
0.0
 40
0.0
 40
0.0
 40
0.1125245356
 40
0.2354259129
 40
0.4995814041
 40
0.7639631741
 40
0.8871313456
 40
1.0
 40
1.0
 40
1.0
 40
1.0
 10
1.2225487801
 20
-25.4682736332
 30
0.0
 10
1.2347105766
 20
-25.4743545315
 30
0.0
 10
1.2612073237
 20
-25.4850186458
 30
0.0
 10
1.3196972539
 20
-25.5004059554
 30
0.0
 10
1.3986220773
 20
-25.5078659417
 30
0.0
 10
1.4775969618
 20
-25.5006255436
 30
0.0
 10
1.5362362426
 20
-25.4854126947
 30
0.0
 10
1.562843592
 20
-25.4748292069
 30
0.0
 10
1.5750707397
 20
-25.4687863571
 30
0.0
 11
1.2225487801
 21
-25.4682736332
 31
0.0
 11
1.26028305
 21
-25.483768937
 31
0.0
 11
1.3033186168
 21
-25.49530019
 31
0.0
 11
1.3985982559
 21
-25.5048847567
 31
0.0
 11
1.4939878033
 21
-25.4955775078
 31
0.0
 11
1.5371568133
 21
-25.4841716347
 31
0.0
 11
1.5750707397
 21
-25.4687863571
 31
0.0
  0
SPLINE
  5
48B
100
AcDbEntity
  8
RACCORDO
100
AcDbSpline
 62
253
  6
CONTINUOUS
 70
0
 71
3
 72
13
 73
9
 74
7
 42
0.0000001
 43
0.0000001
 44
0.0000000001
 12
-0.1868382044
 22
0.3017261022
 32
0.0
 13
-0.3164708648
 23
0.1606030733
 33
0.0
 40
0.0
 40
0.0
 40
0.0
 40
0.0
 40
0.1018786908
 40
0.218994501
 40
0.4830122473
 40
0.75597586
 40
0.8838496227
 40
1.0
 40
1.0
 40
1.0
 40
1.0
 10
1.5750707397
 20
-25.1288124229
 30
0.0
 10
1.5687257958
 20
-25.1185659362
 30
0.0
 10
1.5537111267
 20
-25.0973900038
 30
0.0
 10
1.5169056313
 20
-25.0536323645
 30
0.0
 10
1.4612735218
 20
-24.9995744084
 30
0.0
 10
1.3994620002
 20
-24.9506889626
 30
0.0
 10
1.348345647
 20
-24.9170535976
 30
0.0
 10
1.3231898645
 20
-24.9028235611
 30
0.0
 10
1.3109371277
 20
-24.8966055253
 30
0.0
 11
1.5750707397
 21
-25.1288124229
 31
0.0
 11
1.5543938049
 21
-25.0991526252
 31
0.0
 11
1.5277809905
 21
-25.0672267184
 31
0.0
 11
1.4610065297
 21
-25.0014972387
 31
0.0
 11
1.3848756416
 21
-24.9415948069
 31
0.0
 11
1.3469041525
 21
-24.9167429253
 31
0.0
 11
1.3109371277
 21
-24.8966055253
 31
0.0
  0
SPLINE
  5
48C
100
AcDbEntity
  8
RACCORDO
100
AcDbSpline
 62
7
  6
CONTINUOUS
 70
0
 71
3
 72
12
 73
8
 74
6
 42
0.0000001
 43
0.0000001
 44
0.0000000001
 12
-0.367024693
 22
0.0766416464
 32
0.0
 13
-0.3353577997
 23
0.1676788998
 33
0.0
 40
0.0
 40
0.0
 40
0.0
 40
0.0
 40
0.0966568082
 40
0.2081720402
 40
0.465795317
 40
0.7452204074
 40
1.0
 40
1.0
 40
1.0
 40
1.0
 10
2.2862913478
 20
-24.2773159458
 30
0.0
 10
2.2744662027
 20
-24.2748466335
 30
0.0
 10
2.2491407224
 20
-24.2688427945
 30
0.0
 10
2.1930114302
 20
-24.2533696208
 30
0.0
 10
2.1158863162
 20
-24.2282811463
 30
0.0
 10
2.0233156202
 20
-24.1932065836
 30
0.0
 10
1.9622501627
 20
-24.1660436092
 30
0.0
 10
1.9337693881
 20
-24.1518032219
 30
0.0
 11
2.2862913478
 21
-24.2773159458
 31
0.0
 11
2.2510001561
 21
-24.2690748396
 31
0.0
 11
2.2106711538
 21
-24.2580390752
 31
0.0
 11
2.118727223
 21
-24.2284308963
 31
0.0
 11
2.0208138908
 21
-24.1911572927
 31
0.0
 11
1.9337693881
 21
-24.1518032219
 31
0.0
  0
ELLIPSE
  5
48D
100
AcDbEntity
  8
Z030100_COP
100
AcDbEllipse
 62
7
  6
CONTINUOUS
 10
11.3611125228
 20
-5.7684920147
 30
0.0
 11
0.2568412115
 21
0.6791333616
 31
0.0
 40
0.2282681097
 41
1.5094799323
 42
1.8131460227
  0
ELLIPSE
  5
48E
100
AcDbEntity
  8
Z030100_COP
100
AcDbEllipse
 62
7
  6
CONTINUOUS
 10
12.1683927646
 20
-5.9951750371
 30
0.0
 11
0.3342634152
 21
0.3887304356
 31
0.0
 40
0.423927136
 41
4.4228909433
 42
5.319761498
  0
ELLIPSE
  5
48F
100
AcDbEntity
  8
Z030100_COP
100
AcDbEllipse
 62
7
  6
CONTINUOUS
 10
14.8907538722
 20
-4.6339944834
 30
0.0
 11
0.3342634152
 21
0.3887304356
 31
0.0
 40
0.423927136
 41
4.4228909433
 42
5.319761498
  0
ELLIPSE
  5
490
100
AcDbEntity
  8
Z030100_COP
100
AcDbEllipse
 62
7
  6
CONTINUOUS
 10
6.7943812276
 20
-8.6821808057
 30
0.0
 11
0.3342634152
 21
0.3887304356
 31
0.0
 40
0.423927136
 41
4.4228909433
 42
5.319761498
  0
ELLIPSE
  5
491
100
AcDbEntity
  8
Z030100_COP
100
AcDbEllipse
 62
7
  6
CONTINUOUS
 10
9.5167423352
 20
-7.3210002519
 30
0.0
 11
0.3342634152
 21
0.3887304356
 31
0.0
 40
0.423927136
 41
4.4228909433
 42
5.319761498
  0
ELLIPSE
  5
492
100
AcDbEntity
  8
RACCORDO
100
AcDbEllipse
 62
7
  6
CONTINUOUS
 10
-14.3422189734
 20
20.5420567101
 30
0.0
 11
-0.1116009943
 21
0.2239381218
 31
0.0
 40
0.6122032814
 41
-0.6832419393
 42
0.031533549
  0
ELLIPSE
  5
493
100
AcDbEntity
  8
RACCORDO
100
AcDbEllipse
 62
7
  6
CONTINUOUS
 10
-1.3314541995
 20
14.0366743232
 30
0.0
 11
-0.1116009943
 21
0.2239381218
 31
0.0
 40
0.6122032814
 41
-1.9351986739
 42
-0.6832419393
  0
ELLIPSE
  5
494
100
AcDbEntity
  8
RACCORDO
100
AcDbEllipse
 62
7
  6
CONTINUOUS
 10
-14.9078774728
 20
-0.1291996956
 30
0.0
 11
-0.4472606553
 21
0.8944879452
 31
0.0
 40
0.6123267458
 41
0.836922462
 42
0.8860222965
  0
ELLIPSE
  5
495
100
AcDbEntity
  8
RACCORDO
100
AcDbEllipse
 62
7
  6
CONTINUOUS
 10
8.4860875697
 20
19.2614078069
 30
0.0
 11
0.499996712
 21
0.0035883639
 31
0.0
 40
0.5053247124
 41
-0.7715714568
 42
-0.0036478305
  0
ELLIPSE
  5
496
100
AcDbEntity
  8
ASSI
100
AcDbEllipse
 62
7
  6
CONTINUOUS
 10
-2.078417957
 20
24.383650218
 30
0.0
 11
0.2257019663
 21
0.4461636818
 31
0.0
 40
0.6159267166
 41
0.4796180937
 42
0.6817883054
  0
ELLIPSE
  5
497
100
AcDbEntity
  8
RACCORDO
100
AcDbEllipse
 62
7
  6
CONTINUOUS
 10
3.9010821252
 20
-22.2579714629
 30
0.0
 11
-0.2236445579
 21
0.4471998343
 31
0.0
 40
0.6124778111
 41
-3.1448859382
 42
-2.255529033
  0
ELLIPSE
  5
498
100
AcDbEntity
  8
RACCORDO
100
AcDbEllipse
 62
7
  6
CONTINUOUS
 10
3.9010821252
 20
15.5721903273
 30
0.0
 11
-0.2237046003
 21
0.4472532382
 31
0.0
 40
0.6122950388
 41
-2.2557482655
 42
-0.6847996396
  0
ELLIPSE
  5
499
100
AcDbEntity
  8
RACCORDO
100
AcDbEllipse
 62
7
  6
CONTINUOUS
 10
8.7790284247
 20
-17.8319351888
 30
0.0
 11
1.004787277
 21
0.6140102217
 31
0.0
 40
0.0864918533
 41
-2.394139661
 42
-1.4170939816
  0
ELLIPSE
  5
49A
100
AcDbEntity
  8
RACCORDO
100
AcDbEllipse
 62
7
  6
CONTINUOUS
 10
-3.239498162
 20
25.0053931084
 30
0.0
 11
0.9927147821
 21
0.620457446
 31
0.0
 40
0.0764819879
 41
0.0471960648
 42
0.7226967466
  0
ELLIPSE
  5
49B
100
AcDbEntity
  8
RACCORDO
100
AcDbEllipse
 62
7
  6
CONTINUOUS
 10
4.9466229215
 20
20.9123325667
 30
0.0
 11
0.4535199836
 21
0.8912633791
 31
0.0
 40
0.6176975122
 41
0.0043323816
 42
0.6803507382
  0
ELLIPSE
  5
49C
100
AcDbEntity
  8
RACCORDO
100
AcDbEllipse
 62
7
  6
CONTINUOUS
 10
-7.4105096209
 20
21.8611305493
 30
0.0
 11
0.4999985559
 21
0.0023864752
 31
0.0
 40
0.5035541159
 41
2.3596088132
 42
3.0002042076
  0
ELLIPSE
  5
49D
100
AcDbEntity
  8
ASSI
100
AcDbEllipse
 62
7
  6
CONTINUOUS
 10
3.5169822906
 20
21.5859500942
 30
0.0
 11
0.2267599918
 21
0.4456316896
 31
0.0
 40
0.6176975122
 41
0.478716007
 42
0.6832596203
  0
ELLIPSE
  5
49E
100
AcDbEntity
  8
DRAFT
100
AcDbEllipse
 62
7
  6
CONTINUOUS
 10
346.2012308495
 20
171.6358044609
 30
0.0
 11
220.5149115959
 21
448.7546221111
 31
0.0
 40
0.607010042
 41
-4.0728997214
 42
-4.0630329279
  0
ELLIPSE
  5
49F
100
AcDbEntity
  8
DRAFT
100
AcDbEllipse
 62
7
  6
CONTINUOUS
 10
-2.921183732
 20
11.7118317076
 30
0.0
 11
0.6615447348
 21
1.3462638663
 31
0.0
 40
0.607010042
 41
0.7328850719
 42
2.2102855858
  0
ELLIPSE
  5
4A0
100
AcDbEntity
  8
ASSI
100
AcDbEllipse
 62
7
  6
CONTINUOUS
 10
4.0824143138
 20
21.3032340826
 30
0.0
 11
0.221538876
 21
0.4482453432
 31
0.0
 40
0.6088015717
 41
0.4739173217
 42
0.6760875334
  0
ELLIPSE
  5
4A1
100
AcDbEntity
  8
RACCORDO
100
AcDbEllipse
 62
7
  6
CONTINUOUS
 10
2.7198905384
 20
14.9797095234
 30
0.0
 11
30.5620697111
 21
17.056795564
 31
0.0
 40
0.0108183174
 41
1.5656720487
 42
1.5789463719
  0
ELLIPSE
  5
4A2
100
AcDbEntity
  8
RACCORDO
100
AcDbEllipse
 62
7
  6
CONTINUOUS
 10
-1.8992025213
 20
17.8295661241
 30
0.0
 11
0.4998587701
 21
0.0223649649
 31
0.0
 40
0.5313301283
 41
-2.3799630874
 42
-0.8149845248
  0
ELLIPSE
  5
4A3
100
AcDbEntity
  8
RACCORDO
100
AcDbEllipse
 62
7
  6
CONTINUOUS
 10
-1.8992025213
 20
19.1054769995
 30
0.0
 11
0.4999985559
 21
0.0023864752
 31
0.0
 40
0.5035541159
 41
-1.4342147631
 42
-0.7936193687
  0
ELLIPSE
  5
4A4
100
AcDbEntity
  8
RACCORDO
100
AcDbEllipse
 62
7
  6
CONTINUOUS
 10
-7.4105096209
 20
20.585219674
 30
0.0
 11
0.4998587701
 21
0.0223649649
 31
0.0
 40
0.5313301283
 41
3.1178197826
 42
3.9032222197
  0
ELLIPSE
  5
4A5
100
AcDbEntity
  8
RACCORDO
100
AcDbEllipse
 62
7
  6
CONTINUOUS
 10
8.4860875697
 20
-17.0971655445
 30
0.0
 11
0.4999969381
 21
-0.0035375912
 31
0.0
 40
0.4946372042
 41
-0.7644452153
 42
0.7888978189
  0
ELLIPSE
  5
4A6
100
AcDbEntity
  8
RACCORDO
100
AcDbEllipse
 62
7
  6
CONTINUOUS
 10
8.4860875697
 20
-18.1290459757
 30
0.0
 11
0.4992854398
 21
0.3051799344
 31
0.0
 40
0.0875604994
 41
0.0012204515
 42
0.7144759824
  0
ELLIPSE
  5
4A7
100
AcDbEntity
  8
RACCORDO
100
AcDbEllipse
 62
7
  6
CONTINUOUS
 10
8.4860875697
 20
20.2932882382
 30
0.0
 11
-0.3677755055
 21
0.6017952119
 31
0.0
 40
0.5628736564
 41
-3.1652208572
 42
-2.4519653264
  0
ELLIPSE
  5
4A8
100
AcDbEntity
  8
RACCORDO
100
AcDbEllipse
 62
7
  6
CONTINUOUS
 10
-12.4809183974
 20
22.5560541252
 30
0.0
 11
0.249929385
 21
0.0111824824
 31
0.0
 40
0.5313301283
 41
3.11775715
 42
3.9032222197
  0
ELLIPSE
  5
4A9
100
AcDbEntity
  8
ASSI
100
AcDbEllipse
 62
7
  6
CONTINUOUS
 10
-1.5129859338
 20
24.1009342064
 30
0.0
 11
0.2205149116
 21
0.4487546221
 31
0.0
 40
0.607010042
 41
0.4701638168
 42
0.6747074301
  0
ELLIPSE
  5
4AA
100
AcDbEntity
  8
RACCORDO
100
AcDbEllipse
 62
7
  6
CONTINUOUS
 10
-11.2360944115
 20
21.9336421322
 30
0.0
 11
0.249929385
 21
0.0111824824
 31
0.0
 40
0.5313301283
 41
-2.3799630874
 42
-0.8149845248
  0
ELLIPSE
  5
4AB
100
AcDbEntity
  8
RACCORDO
100
AcDbEllipse
 62
7
  6
CONTINUOUS
 10
0.8657220975
 20
15.8827338777
 30
0.0
 11
0.249929385
 21
0.0111824824
 31
0.0
 40
0.5313301283
 41
3.1178369227
 42
3.9032222197
  0
ELLIPSE
  5
4AC
100
AcDbEntity
  8
RACCORDO
100
AcDbEllipse
 62
7
  6
CONTINUOUS
 10
3.8711692118
 20
20.6378464434
 30
0.0
 11
0.3990734437
 21
-0.0028235347
 31
0.0
 40
0.4946372042
 41
-0.7760807437
 42
0.00345839
  0
ELLIPSE
  5
4AD
100
AcDbEntity
  8
RACCORDO
100
AcDbEllipse
 62
7
  6
CONTINUOUS
 10
2.1105460834
 20
15.2603218847
 30
0.0
 11
0.249929385
 21
0.0111824824
 31
0.0
 40
0.5313301283
 41
-2.3799630874
 42
-1.0578528148
  0
ELLIPSE
  5
4AE
100
AcDbEntity
  8
RACCORDO
100
AcDbEllipse
 62
7
  6
CONTINUOUS
 10
8.3155908057
 20
-16.8020524349
 30
0.0
 11
0.1999987752
 21
-0.0014150365
 31
0.0
 40
0.4946372042
 41
-0.7760807437
 42
0.0034924484
  0
ELLIPSE
  5
4AF
100
AcDbEntity
  8
RACCORDO
100
AcDbEllipse
 62
7
  6
CONTINUOUS
 10
-1.7244446065
 20
23.4356533525
 30
0.0
 11
0.3990734437
 21
-0.0028235347
 31
0.0
 40
0.4946372042
 41
-0.7731718616
 42
0.0034582156
  0
ELLIPSE
  5
4B0
100
AcDbEntity
  8
DRAFT
100
AcDbEllipse
 62
7
  6
CONTINUOUS
 10
-16.4016339969
 20
18.4520568401
 30
0.0
 11
0.6802799754
 21
1.3368950687
 31
0.0
 40
0.6176975122
 41
0.741437262
 42
2.218837776
  0
ELLIPSE
  5
4B1
100
AcDbEntity
  8
DRAFT
100
AcDbEllipse
 62
7
  6
CONTINUOUS
 10
338.8679161335
 20
175.3024618189
 30
0.0
 11
226.7599917994
 21
445.6316895703
 31
0.0
 40
0.6176975122
 41
-4.0643475312
 42
-4.0544807378
  0
ELLIPSE
  5
4B2
100
AcDbEntity
  8
RACCORDO
100
AcDbEllipse
 62
7
  6
CONTINUOUS
 10
0.5929073413
 20
23.0891903568
 30
0.0
 11
0.4410298232
 21
0.8975092442
 31
0.0
 40
0.607010042
 41
5.3929141747
 42
6.9549838552
  0
ELLIPSE
  5
4B3
100
AcDbEntity
  8
RACCORDO
100
AcDbEllipse
 62
7
  6
CONTINUOUS
 10
8.7790284247
 20
18.996129815
 30
0.0
 11
-0.7481377634
 21
1.1968341901
 31
0.0
 40
0.5621794334
 41
5.2383362084
 42
6.2153818878
  0
ENDSEC
  0
SECTION
  2
OBJECTS
  0
DICTIONARY
  5
C
100
AcDbDictionary
280
0
281
1
  3
ACAD_GROUP
350
D
  3
ACAD_MLINESTYLE
350
17
  3
ACAD_LAYOUT
350
1A
  3
ACAD_PLOTSETTINGS
350
19
  3
ACAD_PLOTSTYLENAME
350
E
  0
DICTIONARY
  5
D
102
{ACAD_REACTORS
330
C
102
}
100
AcDbDictionary
280
0
281
1
  0
ACDBDICTIONARYWDFLT
  5
E
102
{ACAD_REACTORS
330
C
102
}
100
AcDbDictionary
281
1
  3
Normal
350
F
100
AcDbDictionaryWithDefault
340
F
  0
DICTIONARY
  5
17
102
{ACAD_REACTORS
330
C
102
}
100
AcDbDictionary
280
0
281
1
  3
Standard
350
18
  0
DICTIONARY
  5
19
102
{ACAD_REACTORS
330
C
102
}
100
AcDbDictionary
281
1
  0
DICTIONARY
  5
1A
102
{ACAD_REACTORS
330
C
102
}
100
AcDbDictionary
281
1
  3
Model
350
4B4
  3
Layout1
350
4B5
  0
ACDBPLACEHOLDER
  5
F
102
{ACAD_REACTORS
330
E
102
}
  0
MLINESTYLE
  5
18
102
{ACAD_REACTORS
330
17
102
}
100
AcDbMlineStyle
  2
STANDARD
 70
0
  3

 62
256
 51
90.0
 52
90.0
 71
2
 49
0.5
 62
256
  6
BYLAYER
 49
-0.5
 62
256
  6
BYLAYER
  0
LAYOUT
  5
4B4
102
{ACAD_REACTORS
330
1A
102
}
100
AcDbPlotSettings
  1

  2
none_device
  4
ISO_A4_(297.00_x_210.00_MM)
  6

 40
0.0
 41
0.0
 42
0.0
 43
0.0
 44
297.0
 45
210.0
 46
0.0
 47
0.0
 48
0.0
 49
0.0
140
0.0
141
0.0
142
1.0
143
1.0
 70
1024
 72
1
 73
0
 74
0
  7

 75
0
147
1.0
148
0.0
149
0.0
100
AcDbLayout
  1
Model
 70
0
 71
0
 10
0.0
 20
0.0
 11
297.0
 21
210.0
 12
0.0
 22
0.0
 32
0.0
 14
0.0
 24
0.0
 34
0.0
 15
0.0
 25
0.0
 35
0.0
146
0.0
 13
0.0
 23
0.0
 33
0.0
 16
1.0
 26
0.0
 36
0.0
 17
0.0
 27
1.0
 37
0.0
 76
0
330
215
345
0
346
0
  0
LAYOUT
  5
4B5
102
{ACAD_REACTORS
330
1A
102
}
100
AcDbPlotSettings
  1

  2
none_device
  4
ISO_A4_(297.00_x_210.00_MM)
  6

 40
0.0
 41
0.0
 42
0.0
 43
0.0
 44
297.0
 45
210.0
 46
0.0
 47
0.0
 48
0.0
 49
0.0
140
0.0
141
0.0
142
1.0
143
1.0
 70
0
 72
1
 73
0
 74
0
  7

 75
0
147
1.0
148
0.0
149
0.0
100
AcDbLayout
  1
Layout1
 70
0
 71
1
 10
0.0
 20
0.0
 11
297.0
 21
210.0
 12
0.0
 22
0.0
 32
0.0
 14
0.0
 24
0.0
 34
0.0
 15
0.0
 25
0.0
 35
0.0
146
0.0
 13
0.0
 23
0.0
 33
0.0
 16
1.0
 26
0.0
 36
0.0
 17
0.0
 27
1.0
 37
0.0
 76
0
330
216
345
0
346
0
  0
ENDSEC
  0
EOF
