  0
SECTION
  2
HEADER
  9
$ACADVER
  1
AC1015
  9
$DWGCODEPAGE
  3
ANSI_1252
  9
$EXTMAX
 10
297.0
 20
210.0
 30
0.0
  9
$EXTMIN
 10
0.0
 20
0.0
 30
0.0
  9
$LIMMIN
 10
0.0
 20
0.0
  9
$LIMMAX
 10
297.0
 20
210.0
  9
$VIEWCTR
 10
148.5
 20
105.0
  9
$VIEWSIZE
 40
210.0
  9
$CLAYER
  8
0
  9
$LTSCALE
 40
16.335
  9
$CELTYPE
  6
BYLAYER
  9
$DIMSCALE
 40
1.0
  9
$DIMASZ
 40
3.0
  9
$DIMEXO
 40
1.85625
  9
$DIMDLI
 40
11.286
  9
$DIMEXE
 40
5.346
  9
$DIMCEN
 40
2.673
  9
$DIMLFAC
 40
1.0
  9
$DIMBLK
  1
_FILLED
  9
$DIMTXT
 40
3.0
  9
$DIMTOL
 70
1
  9
$DIMLIM
 70
0
  9
$DIMTFAC
 40
1.0
  9
$DIMTP
 40
0.01
  9
$DIMTM
 40
0.01
  9
$PDMODE
 70
3
  9
$PDSIZE
 40
3.0
  9
$HANDSEED
  5
693
  9
$TILEMODE
 70
1
  9
$MEASUREMENT
 70
1
  9
$INSUNITS
 70
4
  0
ENDSEC
  0
SECTION
  2
CLASSES
  0
CLASS
  1
ACDBDICTIONARYWDFLT
  2
AcDbDictionaryWithDefault
  3
AutoCAD 2000
 90
0
280
0
281
0
  0
CLASS
  1
ACDBPLACEHOLDER
  2
AcDbPlaceHolder
  3
AutoCAD 2000
 90
0
280
0
281
0
  0
CLASS
  1
LAYOUT
  2
AcDbLayout
  3
AutoCAD 2000
 90
0
280
0
281
0
  0
ENDSEC
  0
SECTION
  2
TABLES
  0
TABLE
  2
VPORT
  5
8
100
AcDbSymbolTable
 70
2
  0
VPORT
  5
1F4
100
AcDbSymbolTableRecord
100
AcDbViewportTableRecord
  2
*ACTIVE
 70
0
 10
0.0
 20
0.0
 11
1.0
 21
1.0
 12
148.5
 22
105.0
 13
0.0
 23
0.0
 14
1.0
 24
1.0
 15
0.0
 25
0.0
 16
0.0
 26
0.0
 36
1.0
 17
0.0
 27
0.0
 37
0.0
 40
210.0
 41
1.4142857143
 42
50.0
 43
0.0
 44
0.0
 50
0.0
 51
0.0
 71
0
 72
100
 73
1
 74
1
 75
0
 76
0
 77
0
 78
0
  0
ENDTAB
  0
TABLE
  2
LTYPE
  5
5
100
AcDbSymbolTable
 70
6
  0
LTYPE
  5
14
100
AcDbSymbolTableRecord
100
AcDbLinetypeTableRecord
  2
BYBLOCK
 70
0
  3

 72
65
 73
0
 40
0.0
  0
LTYPE
  5
15
100
AcDbSymbolTableRecord
100
AcDbLinetypeTableRecord
  2
BYLAYER
 70
0
  3

 72
65
 73
0
 40
0.0
  0
LTYPE
  5
16
100
AcDbSymbolTableRecord
100
AcDbLinetypeTableRecord
  2
CONTINUOUS
 70
64
  3
Solid line
 72
65
 73
0
 40
0.0
  0
LTYPE
  5
1F5
100
AcDbSymbolTableRecord
100
AcDbLinetypeTableRecord
  2
CENTER
 70
64
  3
____ _ ____ _ ____ _ ____ _ ____ _ ____ _ ____
 72
65
 73
4
 40
0.6
 49
0.375
 74
0
 49
-0.075
 74
0
 49
0.075
 74
0
 49
-0.075
 74
0
  0
LTYPE
  5
1F6
100
AcDbSymbolTableRecord
100
AcDbLinetypeTableRecord
  2
HIDDEN
 70
64
  3
- - - - - - - - - - - - - - - - - - - -
 72
65
 73
2
 40
0.2
 49
0.1
 74
0
 49
-0.1
 74
0
  0
LTYPE
  5
1F7
100
AcDbSymbolTableRecord
100
AcDbLinetypeTableRecord
  2
PHANTOM
 70
64
  3
_____ _ _ _____ _ _ _____ _ _ _____
 72
65
 73
6
 40
0.8
 49
0.45
 74
0
 49
-0.05
 74
0
 49
0.1
 74
0
 49
-0.05
 74
0
 49
0.1
 74
0
 49
-0.05
 74
0
  0
LTYPE
  5
1F8
100
AcDbSymbolTableRecord
100
AcDbLinetypeTableRecord
  2
DOT
 70
64
  3
. . . . . . . . . . . . . . . . . . . .
 72
65
 73
2
 40
0.2
 49
0.1
 74
0
 49
-0.1
 74
0
  0
LTYPE
  5
1F9
100
AcDbSymbolTableRecord
100
AcDbLinetypeTableRecord
  2
DASHED
 70
64
  3
- - - - - - - - - - - - - - - - - - - -
 72
65
 73
2
 40
0.2
 49
0.1
 74
0
 49
-0.1
 74
0
  0
ENDTAB
  0
TABLE
  2
LAYER
  5
2
100
AcDbSymbolTable
 70
36
  0
LAYER
  5
10
100
AcDbSymbolTableRecord
100
AcDbLayerTableRecord
  2
0
 70
0
 62
7
  6
CONTINUOUS
370
-3
390
F
  0
LAYER
  5
1FA
100
AcDbSymbolTableRecord
100
AcDbLayerTableRecord
  2
DEFAULT_1
 70
0
 62
7
  6
CENTER
370
-3
390
F
  0
LAYER
  5
1FB
100
AcDbSymbolTableRecord
100
AcDbLayerTableRecord
  2
DEFAULT_2
 70
0
 62
7
  6
HIDDEN
370
-3
390
F
  0
LAYER
  5
1FC
100
AcDbSymbolTableRecord
100
AcDbLayerTableRecord
  2
DEFAULT_3
 70
0
 62
7
  6
PHANTOM
370
-3
390
F
  0
LAYER
  5
1FD
100
AcDbSymbolTableRecord
100
AcDbLayerTableRecord
  2
ASSI
 70
0
 62
7
  6
CONTINUOUS
370
-3
390
F
  0
LAYER
  5
1FE
100
AcDbSymbolTableRecord
100
AcDbLayerTableRecord
  2
COLOR17
 70
0
 62
7
  6
CONTINUOUS
370
-3
390
F
  0
LAYER
  5
1FF
100
AcDbSymbolTableRecord
100
AcDbLayerTableRecord
  2
COLOR3
 70
0
 62
7
  6
CONTINUOUS
370
-3
390
F
  0
LAYER
  5
200
100
AcDbSymbolTableRecord
100
AcDbLayerTableRecord
  2
COLOR5
 70
0
 62
7
  6
CONTINUOUS
370
-3
390
F
  0
LAYER
  5
201
100
AcDbSymbolTableRecord
100
AcDbLayerTableRecord
  2
COORDINATE
 70
0
 62
7
  6
CONTINUOUS
370
-3
390
F
  0
LAYER
  5
202
100
AcDbSymbolTableRecord
100
AcDbLayerTableRecord
  2
COORD_ORIGINE
 70
0
 62
7
  6
CONTINUOUS
370
-3
390
F
  0
LAYER
  5
203
100
AcDbSymbolTableRecord
100
AcDbLayerTableRecord
  2
COPY_PUBLISH
 70
0
 62
7
  6
CONTINUOUS
370
-3
390
F
  0
LAYER
  5
204
100
AcDbSymbolTableRecord
100
AcDbLayerTableRecord
  2
COSMETICI
 70
0
 62
7
  6
CONTINUOUS
370
-3
390
F
  0
LAYER
  5
205
100
AcDbSymbolTableRecord
100
AcDbLayerTableRecord
  2
CURVE
 70
0
 62
7
  6
CONTINUOUS
370
-3
390
F
  0
LAYER
  5
206
100
AcDbSymbolTableRecord
100
AcDbLayerTableRecord
  2
DRAFT
 70
0
 62
7
  6
CONTINUOUS
370
-3
390
F
  0
LAYER
  5
207
100
AcDbSymbolTableRecord
100
AcDbLayerTableRecord
  2
IMPORT
 70
0
 62
7
  6
CONTINUOUS
370
-3
390
F
  0
LAYER
  5
208
100
AcDbSymbolTableRecord
100
AcDbLayerTableRecord
  2
IMPORT_IGES
 70
0
 62
7
  6
CONTINUOUS
370
-3
390
F
  0
LAYER
  5
209
100
AcDbSymbolTableRecord
100
AcDbLayerTableRecord
  2
INCISIONI_LASER
 70
0
 62
7
  6
CONTINUOUS
370
-3
390
F
  0
LAYER
  5
20A
100
AcDbSymbolTableRecord
100
AcDbLayerTableRecord
  2
LAY0001
 70
0
 62
7
  6
CONTINUOUS
370
-3
390
F
  0
LAYER
  5
20B
100
AcDbSymbolTableRecord
100
AcDbLayerTableRecord
  2
NOTE
 70
0
 62
7
  6
CONTINUOUS
370
-3
390
F
  0
LAYER
  5
20C
100
AcDbSymbolTableRecord
100
AcDbLayerTableRecord
  2
PIANI
 70
0
 62
7
  6
CONTINUOUS
370
-3
390
F
  0
LAYER
  5
20D
100
AcDbSymbolTableRecord
100
AcDbLayerTableRecord
  2
PIANI_ORIGINE
 70
0
 62
7
  6
CONTINUOUS
370
-3
390
F
  0
LAYER
  5
20E
100
AcDbSymbolTableRecord
100
AcDbLayerTableRecord
  2
PIANI_RIFERIMENTO
 70
0
 62
7
  6
CONTINUOUS
370
-3
390
F
  0
LAYER
  5
20F
100
AcDbSymbolTableRecord
100
AcDbLayerTableRecord
  2
PUNTI
 70
0
 62
7
  6
CONTINUOUS
370
-3
390
F
  0
LAYER
  5
210
100
AcDbSymbolTableRecord
100
AcDbLayerTableRecord
  2
RACCORDO
 70
0
 62
7
  6
CONTINUOUS
370
-3
390
F
  0
LAYER
  5
211
100
AcDbSymbolTableRecord
100
AcDbLayerTableRecord
  2
SIMBOLI
 70
0
 62
7
  6
CONTINUOUS
370
-3
390
F
  0
LAYER
  5
212
100
AcDbSymbolTableRecord
100
AcDbLayerTableRecord
  2
SMUSSO
 70
0
 62
7
  6
CONTINUOUS
370
-3
390
F
  0
LAYER
  5
213
100
AcDbSymbolTableRecord
100
AcDbLayerTableRecord
  2
SNAPLINE
 70
0
 62
7
  6
CONTINUOUS
370
-3
390
F
  0
LAYER
  5
214
100
AcDbSymbolTableRecord
100
AcDbLayerTableRecord
  2
SUPERFICI
 70
0
 62
7
  6
CONTINUOUS
370
-3
390
F
  0
LAYER
  5
215
100
AcDbSymbolTableRecord
100
AcDbLayerTableRecord
  2
TRASH
 70
0
 62
7
  6
CONTINUOUS
370
-3
390
F
  0
LAYER
  5
216
100
AcDbSymbolTableRecord
100
AcDbLayerTableRecord
  2
XSEC_DATUMS
 70
0
 62
7
  6
CONTINUOUS
370
-3
390
F
  0
LAYER
  5
217
100
AcDbSymbolTableRecord
100
AcDbLayerTableRecord
  2
___SHELL
 70
0
 62
7
  6
CONTINUOUS
370
-3
390
F
  0
ENDTAB
  0
TABLE
  2
STYLE
  5
3
100
AcDbSymbolTable
 70
1
  0
STYLE
  5
11
100
AcDbSymbolTableRecord
100
AcDbTextStyleTableRecord
  2
STANDARD
 70
0
 40
0.0
 41
0.8
 50
0.0
 71
0
 42
0.2
  3
txt
  4

  0
STYLE
  5
218
100
AcDbSymbolTableRecord
100
AcDbTextStyleTableRecord
  2
TEXTSTYLE_1
 70
0
 40
0.0
 41
0.8
 50
0.0
 71
0
 42
0.2
  3
gdt
  4

  0
ENDTAB
  0
TABLE
  2
VIEW
  5
6
100
AcDbSymbolTable
 70
0
  0
ENDTAB
  0
TABLE
  2
UCS
  5
7
100
AcDbSymbolTable
 70
0
  0
ENDTAB
  0
TABLE
  2
APPID
  5
9
100
AcDbSymbolTable
 70
1
  0
APPID
  5
219
100
AcDbSymbolTableRecord
100
AcDbRegAppTableRecord
  2
ACAD
 70
0
  0
ENDTAB
  0
TABLE
  2
BLOCK_RECORD
  5
1
100
AcDbSymbolTable
 70
0
  0
BLOCK_RECORD
  5
21A
100
AcDbSymbolTableRecord
100
AcDbBlockTableRecord
  2
*Model_Space
  0
BLOCK_RECORD
  5
21B
100
AcDbSymbolTableRecord
100
AcDbBlockTableRecord
  2
*Paper_Space
  0
ENDTAB
  0
TABLE
  2
DIMSTYLE
  5
A
100
AcDbSymbolTable
 70
1
100
AcDbDimStyleTable
 71
0
  0
DIMSTYLE
105
21C
100
AcDbSymbolTableRecord
100
AcDbDimStyleTableRecord
  2
STANDARD
 70
0
  3

  4

 40
1.0
 41
3.0
 42
0.0625
 43
0.38
 44
0.18
 45
0.0
 46
0.0
 47
0.01
 48
0.01
140
3.0
141
0.09
142
0.0
143
25.4
144
1.0
145
0.0
146
1.0
147
0.09
 71
1.0
 72
0.0
 73
0
 74
0
 75
0
 76
0
 77
1
 78
8
170
0
171
2
172
0
173
0
174
0
175
0
176
0
177
0
178
0
270
2
271
2
272
2
273
2
274
2
275
0
280
0
281
0
282
0
283
1
284
8
285
0
286
0
287
3
288
0
340
11
  0
ENDTAB
  0
ENDSEC
  0
SECTION
  2
BLOCKS
  0
BLOCK
  5
20
100
AcDbEntity
  8
0
100
AcDbBlockBegin
  2
*Model_Space
 70
0
 10
0.0
 20
0.0
 30
0.0
  3
*Model_Space
  1

  0
ENDBLK
  5
21
100
AcDbEntity
  8
0
100
AcDbBlockEnd
  0
BLOCK
  5
1C
100
AcDbEntity
  8
0
100
AcDbBlockBegin
  2
*Paper_Space
 70
0
 10
0.0
 20
0.0
 30
0.0
  3
*Paper_Space
  1

  0
ENDBLK
  5
1D
100
AcDbEntity
  8
0
100
AcDbBlockEnd
  0
ENDSEC
  0
SECTION
  2
ENTITIES
  0
LWPOLYLINE
  5
21D
100
AcDbEntity
  8
RACCORDO
100
AcDbPolyline
 62
7
  6
CONTINUOUS
 90
22
 70
0
 10
-14.7036878636
 20
24.1612810129
 10
-14.7152148678
 20
24.1549795048
 10
-14.7264400544
 20
24.1480516827
 10
-14.7373207255
 20
24.1405146813
 10
-14.7478199773
 20
24.1323856101
 10
-14.7578932976
 20
24.1236918927
 10
-14.7674910842
 20
24.1144732272
 10
-14.7765410278
 20
24.1048061324
 10
-14.7850568365
 20
24.0946854054
 10
-14.7931043556
 20
24.0840179009
 10
-14.800681741
 20
24.072760288
 10
-14.8076931079
 20
24.0610081868
 10
-14.8140597124
 20
24.0488720958
 10
-14.8197456517
 20
24.0364196662
 10
-14.8247427613
 20
24.0236710982
 10
-14.8290337488
 20
24.0106701428
 10
-14.8326037772
 20
23.9974654688
 10
-14.8354439916
 20
23.9840975058
 10
-14.8375498501
 20
23.9705913472
 10
-14.8389154343
 20
23.9569754385
 10
-14.8395340081
 20
23.9433025263
 10
-14.8395737578
 20
23.9388509671
  0
LINE
  5
21E
100
AcDbEntity
  8
RACCORDO
100
AcDbLine
 62
7
  6
CONTINUOUS
 10
-13.1205161686
 20
24.9734780601
 11
-14.7036878636
 21
24.1612810129
  0
LINE
  5
21F
100
AcDbEntity
  8
RACCORDO
100
AcDbLine
 62
253
  6
CONTINUOUS
 10
-13.0078455943
 20
24.9668171351
 11
-14.5906021975
 21
24.1548330377
  0
LINE
  5
220
100
AcDbEntity
  8
RACCORDO
100
AcDbLine
 62
7
  6
CONTINUOUS
 10
-13.1187777831
 20
24.9743472929
 11
-13.1205141949
 21
24.9734790727
  0
LINE
  5
221
100
AcDbEntity
  8
RACCORDO
100
AcDbLine
 62
7
  6
CONTINUOUS
 10
-12.5839078267
 20
25.2348993927
 11
-13.1187750175
 21
24.9743486401
  0
LINE
  5
222
100
AcDbEntity
  8
RACCORDO
100
AcDbLine
 62
253
  6
CONTINUOUS
 10
-12.4733957156
 20
25.2271646016
 11
-13.0078455943
 21
24.9668171351
  0
LWPOLYLINE
  5
223
100
AcDbEntity
  8
RACCORDO
100
AcDbPolyline
 62
253
  6
CONTINUOUS
 90
3
 70
0
 10
-17.6927279066
 20
19.6466008541
 10
-17.6301323159
 20
19.6887980359
 10
-17.5677126844
 20
19.7262820659
  0
LWPOLYLINE
  5
224
100
AcDbEntity
  8
RACCORDO
100
AcDbPolyline
 62
7
  6
CONTINUOUS
 90
37
 70
0
 10
-18.7255451612
 20
20.1374407152
 10
-18.7572213419
 20
20.1183946081
 10
-18.8001092224
 20
20.090741204
 10
-18.8421802294
 20
20.0614656305
 10
-18.8834167507
 20
20.0306283595
 10
-18.9238098447
 20
19.9982831298
 10
-18.9633458945
 20
19.9644820348
 10
-19.0020107617
 20
19.9292762969
 10
-19.039789369
 20
19.8927145956
 10
-19.0766566549
 20
19.8548516592
 10
-19.1125957461
 20
19.8157352601
 10
-19.1475875844
 20
19.7754108877
 10
-19.1815986423
 20
19.7339405809
 10
-19.2146082113
 20
19.6913718246
 10
-19.24659426
 20
19.6477492937
 10
-19.2775191355
 20
19.6031416802
 10
-19.3073593219
 20
19.5575966021
 10
-19.3360911904
 20
19.5111600729
 10
-19.3636758991
 20
19.4639049152
 10
-19.3900886145
 20
19.415878654
 10
-19.4153048239
 20
19.3671296693
 10
-19.4392851205
 20
19.3177343278
 10
-19.4620045652
 20
19.2677410167
 10
-19.4834384998
 20
19.217198695
 10
-19.5035489058
 20
19.166184504
 10
-19.5223118381
 20
19.1147466746
 10
-19.5397017466
 20
19.0629339656
 10
-19.5556835254
 20
19.0108219925
 10
-19.5702333526
 20
18.9584577503
 10
-19.5833244787
 20
18.9058883383
 10
-19.5949254841
 20
18.8531840234
 10
-19.6050106269
 20
18.8003910701
 10
-19.6135515555
 20
18.7475549376
 10
-19.620518474
 20
18.6947335371
 10
-19.6258813209
 20
18.6419709081
 10
-19.6296094784
 20
18.5893110679
 10
-19.6312501153
 20
18.5518982297
  0
LWPOLYLINE
  5
225
100
AcDbEntity
  8
ASSI
100
AcDbPolyline
 62
7
  6
CONTINUOUS
 90
43
 70
0
 10
-17.785606774
 20
19.7753699509
 10
-17.8228972075
 20
19.7535183218
 10
-17.8599815131
 20
19.7301840522
 10
-17.8968596906
 20
19.7053671419
 10
-17.9335768139
 20
19.679033251
 10
-17.9700878092
 20
19.6512167194
 10
-18.0062574554
 20
19.6220205678
 10
-18.0420844869
 20
19.5914396802
 10
-18.0775701694
 20
19.5594791725
 10
-18.1125830792
 20
19.5262574127
 10
-18.1471214632
 20
19.4917697238
 10
-18.1811870745
 20
19.4560207827
 10
-18.2146537488
 20
19.4191429883
 10
-18.247519265
 20
19.3811321544
 10
-18.2797858441
 20
19.3419924671
 10
-18.3113339847
 20
19.3018688829
 10
-18.3421610226
 20
19.2607577533
 10
-18.3722696219
 20
19.2186627269
 10
-18.4015482733
 20
19.1757397055
 10
-18.4299938993
 20
19.1319856187
 10
-18.4576095774
 20
19.0874035368
 10
-18.484293031
 20
19.0421585728
 10
-18.5100408033
 20
18.9962482686
 10
-18.5348563512
 20
18.9496750822
 10
-18.5586477684
 20
18.9026115007
 10
-18.5814112575
 20
18.8550557055
 10
-18.6031506159
 20
18.8070095152
 10
-18.6237853306
 20
18.7586508722
 10
-18.6433113052
 20
18.7099786179
 10
-18.6617326361
 20
18.6609939109
 10
-18.6789810984
 20
18.6118781694
 10
-18.6950523431
 20
18.5626309075
 10
-18.7099507193
 20
18.5132526113
 10
-18.7236210498
 20
18.4639261565
 10
-18.7360587809
 20
18.4146517355
 10
-18.7472684663
 20
18.365429156
 10
-18.7572085902
 20
18.3164407173
 10
-18.7658744448
 20
18.2676872876
 10
-18.7732707379
 20
18.2191679986
 10
-18.7793700768
 20
18.171062545
 10
-18.7841633306
 20
18.1234308249
 10
-18.7876596302
 20
18.0762129402
 10
-18.7898589756
 20
18.0294088908
  0
LINE
  5
226
100
AcDbEntity
  8
RACCORDO
100
AcDbLine
 62
7
  6
CONTINUOUS
 10
-18.7255556307
 20
20.1374347486
 11
-14.1365808039
 21
22.8132273905
  0
LINE
  5
227
100
AcDbEntity
  8
RACCORDO
100
AcDbLine
 62
253
  6
CONTINUOUS
 10
-14.1365808039
 20
22.668393214
 11
-18.4922015831
 21
20.1286673555
  0
LWPOLYLINE
  5
228
100
AcDbEntity
  8
RACCORDO
100
AcDbPolyline
 62
253
  6
CONTINUOUS
 90
17
 70
0
 10
-18.7255452211
 20
20.1374408179
 10
-18.7230969684
 20
20.1388422154
 10
-18.7104604972
 20
20.1452939752
 10
-18.6972883064
 20
20.1507506179
 10
-18.6836102004
 20
20.1551997969
 10
-18.6694571285
 20
20.1586314451
 10
-18.6548611149
 20
20.1610377977
 10
-18.6398551856
 20
20.1624134099
 10
-18.6244732944
 20
20.1627551691
 10
-18.6087502458
 20
20.162062302
 10
-18.5927216161
 20
20.1603363763
 10
-18.5764236731
 20
20.1575812974
 10
-18.559893294
 20
20.153803299
 10
-18.5431678818
 20
20.1490109296
 10
-18.5262852811
 20
20.1432150328
 10
-18.5092836917
 20
20.136428723
 10
-18.4922015831
 20
20.1286673555
  0
LINE
  5
229
100
AcDbEntity
  8
ASSI
100
AcDbLine
 62
7
  6
CONTINUOUS
 10
-17.785606774
 20
19.7753699509
 11
-15.9069804055
 21
20.8352649457
  0
LINE
  5
22A
100
AcDbEntity
  8
RACCORDO
100
AcDbLine
 62
7
  6
CONTINUOUS
 10
-17.6813050113
 20
19.7324351455
 11
-15.8107362027
 21
20.7877841766
  0
LINE
  5
22B
100
AcDbEntity
  8
RACCORDO
100
AcDbLine
 62
253
  6
CONTINUOUS
 10
-17.5677126844
 20
19.7262820659
 11
-15.6948483712
 21
20.7829261889
  0
LINE
  5
22C
100
AcDbEntity
  8
RACCORDO
100
AcDbLine
 62
253
  6
CONTINUOUS
 10
-11.6643367268
 20
24.2950627013
 11
-13.2656175176
 21
23.4923406978
  0
LINE
  5
22D
100
AcDbEntity
  8
RACCORDO
100
AcDbLine
 62
253
  6
CONTINUOUS
 10
-11.4875630231
 20
23.9901731625
 11
-13.088843814
 21
23.187451159
  0
LINE
  5
22E
100
AcDbEntity
  8
RACCORDO
100
AcDbLine
 62
253
  6
CONTINUOUS
 10
-11.1360695551
 20
24.5585015213
 11
-11.6643367268
 21
24.2950627013
  0
LINE
  5
22F
100
AcDbEntity
  8
RACCORDO
100
AcDbLine
 62
253
  6
CONTINUOUS
 10
-10.9592958514
 20
24.2536119825
 11
-11.4875630231
 21
23.9901731625
  0
LINE
  5
230
100
AcDbEntity
  8
RACCORDO
100
AcDbLine
 62
253
  6
CONTINUOUS
 10
-11.4875630231
 20
23.26312831
 11
-10.9592958514
 21
23.9060804658
  0
LINE
  5
231
100
AcDbEntity
  8
RACCORDO
100
AcDbLine
 62
7
  6
CONTINUOUS
 10
-11.4875630231
 20
23.1735978437
 11
-10.943935279
 21
23.8352452992
  0
LWPOLYLINE
  5
232
100
AcDbEntity
  8
RACCORDO
100
AcDbPolyline
 62
7
  6
CONTINUOUS
 90
30
 70
0
 10
-12.3776232059
 20
22.698973702
 10
-12.3855023289
 20
22.6898392988
 10
-12.3937225779
 20
22.6808418578
 10
-12.4022804391
 20
22.6720028712
 10
-12.4111788697
 20
22.6633463414
 10
-12.4204053047
 20
22.6548916621
 10
-12.429931879
 20
22.6466537694
 10
-12.4397520673
 20
22.6386550158
 10
-12.4498579655
 20
22.630917139
 10
-12.4602187485
 20
22.6234545992
 10
-12.4708252698
 20
22.6162898213
 10
-12.4816671812
 20
22.6094445161
 10
-12.4927109582
 20
22.6029325444
 10
-12.5039448067
 20
22.5967760253
 10
-12.5153557575
 20
22.5909963614
 10
-12.5269075779
 20
22.5856068379
 10
-12.5385857098
 20
22.5806288802
 10
-12.5503744413
 20
22.576083183
 10
-12.5622347553
 20
22.5719823978
 10
-12.574149203
 20
22.5683467723
 10
-12.5860992163
 20
22.5651957873
 10
-12.5980428939
 20
22.562541251
 10
-12.6099597435
 20
22.5604016186
 10
-12.6218283107
 20
22.5587944811
 10
-12.6336038894
 20
22.5577303204
 10
-12.6452627098
 20
22.557225015
 10
-12.656780647
 20
22.5572933811
 10
-12.6681109997
 20
22.5579437795
 10
-12.6792162621
 20
22.5591871723
 10
-12.6900806138
 20
22.5610346677
  0
LINE
  5
233
100
AcDbEntity
  8
RACCORDO
100
AcDbLine
 62
7
  6
CONTINUOUS
 10
-11.4875630231
 20
22.3880225015
 11
-12.3776232059
 21
21.8913415802
  0
LINE
  5
234
100
AcDbEntity
  8
RACCORDO
100
AcDbLine
 62
7
  6
CONTINUOUS
 10
-9.1187433048
 20
22.0579040882
 11
-8.7652019156
 21
22.239277513
  0
LINE
  5
235
100
AcDbEntity
  8
RACCORDO
100
AcDbLine
 62
7
  6
CONTINUOUS
 10
-3.7649799615
 20
25.5283265305
 11
-10.0795202881
 21
22.383550226
  0
LINE
  5
236
100
AcDbEntity
  8
ASSI
100
AcDbLine
 62
7
  6
CONTINUOUS
 10
-8.7652019156
 20
22.239277513
 11
-3.4289785096
 21
24.8387209785
  0
LWPOLYLINE
  5
237
100
AcDbEntity
  8
RACCORDO
100
AcDbPolyline
 62
253
  6
CONTINUOUS
 90
8
 70
0
 10
-17.6813050113
 20
19.7324351455
 10
-17.6698524866
 20
19.737826533
 10
-17.6548615289
 20
19.7421293925
 10
-17.6388143858
 20
19.7439404696
 10
-17.6218868732
 20
19.7432399217
 10
-17.6042644525
 20
19.7400354241
 10
-17.5861401985
 20
19.7343620861
 10
-17.5677126844
 20
19.7262820659
  0
LWPOLYLINE
  5
238
100
AcDbEntity
  8
RACCORDO
100
AcDbPolyline
 62
7
  6
CONTINUOUS
 90
24
 70
0
 10
-4.2665375121
 20
-25.4113569484
 10
-4.2436859996
 20
-25.4223805331
 10
-4.21130151
 20
-25.4366598202
 10
-4.1782380068
 20
-25.4496925054
 10
-4.1445249169
 20
-25.4614519869
 10
-4.1101698226
 20
-25.4719182495
 10
-4.0752125787
 20
-25.4810609934
 10
-4.0396963308
 20
-25.4888528325
 10
-4.0036306559
 20
-25.4952741085
 10
-3.9670538637
 20
-25.5002984684
 10
-3.9300121686
 20
-25.5039009755
 10
-3.8925230556
 20
-25.5060620247
 10
-3.8546294541
 20
-25.5067601048
 10
-3.8163715121
 20
-25.5059752999
 10
-3.7777570852
 20
-25.5036873805
 10
-3.7388266833
 20
-25.4998781341
 10
-3.6996188279
 20
-25.4945303736
 10
-3.6601324615
 20
-25.487619988
 10
-3.6204003388
 20
-25.4791269842
 10
-3.5804614505
 20
-25.4690343074
 10
-3.5403176048
 20
-25.4573139672
 10
-3.4999914673
 20
-25.4439409737
 10
-3.4595331921
 20
-25.4289016716
 10
-3.4319686924
 20
-25.4177156738
  0
LINE
  5
239
100
AcDbEntity
  8
RACCORDO
100
AcDbLine
 62
7
  6
CONTINUOUS
 10
-19.1003511281
 20
-17.9944501579
 11
-4.2664527186
 21
-25.4113993627
  0
LINE
  5
23A
100
AcDbEntity
  8
RACCORDO
100
AcDbLine
 62
7
  6
CONTINUOUS
 10
-4.2665399353
 20
-25.4113557452
 11
-4.2664530452
 21
-25.4113991994
  0
LINE
  5
23B
100
AcDbEntity
  8
RACCORDO
100
AcDbLine
 62
253
  6
CONTINUOUS
 10
-19.4847675931
 20
-17.238376668
 11
-4.6599215155
 21
-24.6507997068
  0
LWPOLYLINE
  5
23C
100
AcDbEntity
  8
RACCORDO
100
AcDbPolyline
 62
253
  6
CONTINUOUS
 90
25
 70
0
 10
-19.1003511281
 20
-17.9944501579
 10
-19.1291177376
 20
-17.9789825768
 10
-19.1563890171
 20
-17.9621898744
 10
-19.1827710723
 20
-17.9437724013
 10
-19.2082309307
 20
-17.9237531269
 10
-19.2327366939
 20
-17.9021570354
 10
-19.2562588231
 20
-17.8790104418
 10
-19.2787679918
 20
-17.8543420516
 10
-19.300235909
 20
-17.8281826388
 10
-19.3206365051
 20
-17.8005644502
 10
-19.3399442503
 20
-17.7715219152
 10
-19.3581350323
 20
-17.7410910572
 10
-19.3751869683
 20
-17.7093091561
 10
-19.3910787551
 20
-17.6762156912
 10
-19.4057904926
 20
-17.6418517033
 10
-19.4193045338
 20
-17.6062591846
 10
-19.4316041276
 20
-17.5694818019
 10
-19.4426736513
 20
-17.5315655347
 10
-19.4524994883
 20
-17.4925580769
 10
-19.4610692908
 20
-17.4525086963
 10
-19.4683725875
 20
-17.4114662132
 10
-19.4744008613
 20
-17.3694795207
 10
-19.47914664
 20
-17.3265998596
 10
-19.4826036905
 20
-17.2828808918
 10
-19.4847675931
 20
-17.238376668
  0
LINE
  5
23D
100
AcDbEntity
  8
0
100
AcDbLine
 62
7
  6
CONTINUOUS
 10
-10.5329688685
 20
18.9760017516
 11
-11.2602996156
 21
18.5656518111
  0
LINE
  5
23E
100
AcDbEntity
  8
ASSI
100
AcDbLine
 62
7
  6
CONTINUOUS
 10
-2.8234480749
 20
24.5359557612
 11
-7.4216990313
 21
22.2695944637
  0
LINE
  5
23F
100
AcDbEntity
  8
DRAFT
100
AcDbLine
 62
7
  6
CONTINUOUS
 10
-6.1936182083
 20
21.6555540522
 11
-2.7745720434
 21
23.3285337313
  0
LINE
  5
240
100
AcDbEntity
  8
RACCORDO
100
AcDbLine
 62
7
  6
CONTINUOUS
 10
-0.6980140176
 20
23.9948435586
 11
-5.8400648177
 21
21.4787773569
  0
LWPOLYLINE
  5
241
100
AcDbEntity
  8
ASSI
100
AcDbPolyline
 62
7
  6
CONTINUOUS
 90
7
 70
0
 10
-2.8234480749
 20
24.5359557612
 10
-2.8152388156
 20
24.5398832463
 10
-2.8070548578
 20
24.5435683085
 10
-2.7988962018
 20
24.5470109478
 10
-2.7907628473
 20
24.5502111642
 10
-2.7826547946
 20
24.5531689577
 10
-2.7745720434
 20
24.5558843283
  0
LINE
  5
242
100
AcDbEntity
  8
RACCORDO
100
AcDbLine
 62
253
  6
CONTINUOUS
 10
2.405022313
 20
-24.0756827558
 11
1.8767551413
 21
-23.9671804787
  0
LINE
  5
243
100
AcDbEntity
  8
RACCORDO
100
AcDbLine
 62
253
  6
CONTINUOUS
 10
2.3156085177
 20
-23.7561159498
 11
1.8767551413
 21
-23.6659786231
  0
LWPOLYLINE
  5
244
100
AcDbEntity
  8
RACCORDO
100
AcDbPolyline
 62
253
  6
CONTINUOUS
 90
31
 70
0
 10
-0.0770476092
 20
-25.473747207
 10
-0.067589591
 20
-25.4782357406
 10
-0.057676354
 20
-25.4824715869
 10
-0.0473348688
 20
-25.4864432216
 10
-0.0365932712
 20
-25.4901398391
 10
-0.0254807856
 20
-25.4935513822
 10
-0.0140276452
 20
-25.4966685693
 10
-0.0022650104
 20
-25.4994829193
 10
0.0097751166
 20
-25.5019867756
 10
0.0220599787
 20
-25.5041733258
 10
0.0345561527
 20
-25.5060366211
 10
0.0472296408
 20
-25.5075715922
 10
0.0600459625
 20
-25.5087740627
 10
0.0729702488
 20
-25.5096407613
 10
0.0859673371
 20
-25.5101693299
 10
0.0990018666
 20
-25.5103583305
 10
0.1120383746
 20
-25.5102072488
 10
0.1250413931
 20
-25.5097164959
 10
0.1379755452
 20
-25.508887407
 10
0.1508056413
 20
-25.5077222378
 10
0.163496775
 20
-25.5062241582
 10
0.1760144178
 20
-25.5043972441
 10
0.1883245135
 20
-25.5022464659
 10
0.2003935703
 20
-25.4997776751
 10
0.2121887524
 20
-25.4969975886
 10
0.2236779688
 20
-25.49391377
 10
0.2348299613
 20
-25.4905346093
 10
0.245614389
 20
-25.4868693002
 10
0.2560019109
 20
-25.4829278148
 10
0.2659642662
 20
-25.4787208764
 10
0.2754743505
 20
-25.4742599309
  0
LWPOLYLINE
  5
245
100
AcDbEntity
  8
RACCORDO
100
AcDbPolyline
 62
253
  6
CONTINUOUS
 90
31
 70
0
 10
-0.0770476092
 20
-25.1337732729
 10
-0.067589591
 20
-25.1382618065
 10
-0.057676354
 20
-25.1424976528
 10
-0.0473348688
 20
-25.1464692875
 10
-0.0365932712
 20
-25.150165905
 10
-0.0254807856
 20
-25.1535774481
 10
-0.0140276452
 20
-25.1566946351
 10
-0.0022650104
 20
-25.1595089852
 10
0.0097751166
 20
-25.1620128415
 10
0.0220599787
 20
-25.1641993917
 10
0.0345561527
 20
-25.166062687
 10
0.0472296408
 20
-25.167597658
 10
0.0600459625
 20
-25.1688001286
 10
0.0729702488
 20
-25.1696668272
 10
0.0859673371
 20
-25.1701953958
 10
0.0990018666
 20
-25.1703843964
 10
0.1120383746
 20
-25.1702333147
 10
0.1250413931
 20
-25.1697425618
 10
0.1379755452
 20
-25.1689134729
 10
0.1508056413
 20
-25.1677483036
 10
0.163496775
 20
-25.1662502241
 10
0.1760144178
 20
-25.16442331
 10
0.1883245135
 20
-25.1622725318
 10
0.2003935703
 20
-25.159803741
 10
0.2121887524
 20
-25.1570236545
 10
0.2236779688
 20
-25.1539398359
 10
0.2348299613
 20
-25.1505606752
 10
0.245614389
 20
-25.1468953661
 10
0.2560019109
 20
-25.1429538806
 10
0.2659642662
 20
-25.1387469423
 10
0.2754743505
 20
-25.1342859967
  0
LWPOLYLINE
  5
246
100
AcDbEntity
  8
RACCORDO
100
AcDbPolyline
 62
7
  6
CONTINUOUS
 90
19
 70
0
 10
-0.0120742402
 20
-25.6089656934
 10
-0.0034237699
 20
-25.6130856437
 10
0.0084125363
 20
-25.6180846373
 10
0.0205110359
 20
-25.6224759201
 10
0.0328425722
 20
-25.6262451277
 10
0.0453736516
 20
-25.6293782986
 10
0.058075296
 20
-25.6318643598
 10
0.070915222
 20
-25.6336928305
 10
0.0838584659
 20
-25.6348545976
 10
0.0968711173
 20
-25.6353425229
 10
0.1099179858
 20
-25.6351511457
 10
0.1229635096
 20
-25.634276841
 10
0.1359725456
 20
-25.6327177315
 10
0.1489108552
 20
-25.6304734317
 10
0.1617399698
 20
-25.627546081
 10
0.1744183214
 20
-25.6239411683
 10
0.1869093344
 20
-25.6196655052
 10
0.1991774343
 20
-25.6147276149
 10
0.2092128152
 20
-25.6101105291
  0
LINE
  5
247
100
AcDbEntity
  8
RACCORDO
100
AcDbLine
 62
7
  6
CONTINUOUS
 10
-1.3370589926
 20
-24.9464733172
 11
-0.0120743128
 21
-25.6089656571
  0
LINE
  5
248
100
AcDbEntity
  8
RACCORDO
100
AcDbLine
 62
253
  6
CONTINUOUS
 10
-1.402032289
 20
-24.8112548671
 11
-0.0770476092
 21
-25.473747207
  0
LINE
  5
249
100
AcDbEntity
  8
RACCORDO
100
AcDbLine
 62
253
  6
CONTINUOUS
 10
-0.0770476092
 20
-25.1337732729
 11
-1.2994509795
 21
-24.5225715877
  0
LINE
  5
24A
100
AcDbEntity
  8
RACCORDO
100
AcDbLine
 62
253
  6
CONTINUOUS
 10
0.0113407385
 20
-24.9020790991
 11
-0.9994938894
 21
-24.3966617851
  0
LWPOLYLINE
  5
24B
100
AcDbEntity
  8
RACCORDO
100
AcDbPolyline
 62
253
  6
CONTINUOUS
 90
16
 70
0
 10
-1.402032289
 20
-24.8112548671
 10
-1.4110093562
 20
-24.806525858
 10
-1.4194810488
 20
-24.8015692395
 10
-1.4274243182
 20
-24.7963984969
 10
-1.4348175532
 20
-24.7910276981
 10
-1.4416406395
 20
-24.7854714553
 10
-1.4478750135
 20
-24.7797448851
 10
-1.4535037137
 20
-24.7738635677
 10
-1.4585114262
 20
-24.7678435042
 10
-1.4628845266
 20
-24.7617010732
 10
-1.4666111173
 20
-24.7554529861
 10
-1.4696810593
 20
-24.7491162421
 10
-1.4720860005
 20
-24.7427080813
 10
-1.4738193976
 20
-24.7362459381
 10
-1.4748765349
 20
-24.7297473939
 10
-1.4752555937
 20
-24.7228665194
  0
LWPOLYLINE
  5
24C
100
AcDbEntity
  8
RACCORDO
100
AcDbPolyline
 62
253
  6
CONTINUOUS
 90
17
 70
0
 10
-19.6310420993
 20
-17.064677759
 10
-19.6297200798
 20
-17.0769909403
 10
-19.6272943767
 20
-17.0892309076
 10
-19.6237703638
 20
-17.1013705457
 10
-19.6191558478
 20
-17.1133829614
 10
-19.6134610513
 20
-17.1252415435
 10
-19.6066985901
 20
-17.1369200214
 10
-19.5988834452
 20
-17.1483925239
 10
-19.5900329295
 20
-17.1596336356
 10
-19.5801666498
 20
-17.170618454
 10
-19.5693064628
 20
-17.1813226443
 10
-19.5574764272
 20
-17.1917224933
 10
-19.5447027504
 20
-17.2017949622
 10
-19.53101373
 20
-17.2115177374
 10
-19.5164396914
 20
-17.2208692797
 10
-19.5010129207
 20
-17.2298288727
 10
-19.484767593
 20
-17.238376668
  0
LWPOLYLINE
  5
24D
100
AcDbEntity
  8
RACCORDO
100
AcDbPolyline
 62
7
  6
CONTINUOUS
 90
27
 70
0
 10
-19.6312313229
 20
-17.0607285205
 10
-19.6294700784
 20
-17.0988124574
 10
-19.6255635805
 20
-17.1498527351
 10
-19.6199298823
 20
-17.1999851706
 10
-19.6125789028
 20
-17.2492031275
 10
-19.6035281666
 20
-17.2974501893
 10
-19.5928105921
 20
-17.3446140014
 10
-19.5804471403
 20
-17.3906713821
 10
-19.5664612117
 20
-17.4355890614
 10
-19.5509097989
 20
-17.4792418458
 10
-19.5338279051
 20
-17.5216024727
 10
-19.5152519385
 20
-17.5626435283
 10
-19.4952678441
 20
-17.6022433819
 10
-19.4739452638
 20
-17.6403483943
 10
-19.4513240491
 20
-17.6769669411
 10
-19.427465055
 20
-17.7120693482
 10
-19.4024517694
 20
-17.7456036776
 10
-19.3763288527
 20
-17.777580456
 10
-19.3490985636
 20
-17.8080497048
 10
-19.3208245939
 20
-17.8369815065
 10
-19.2915688648
 20
-17.8643552937
 10
-19.2613209469
 20
-17.8902142287
 10
-19.2301445989
 20
-17.9145276901
 10
-19.1981019137
 20
-17.9372713993
 10
-19.1651705424
 20
-17.9584789719
 10
-19.1313823569
 20
-17.9781373784
 10
-19.1002217588
 20
-17.9945148148
  0
LWPOLYLINE
  5
24E
100
AcDbEntity
  8
RACCORDO
100
AcDbPolyline
 62
253
  6
CONTINUOUS
 90
22
 70
0
 10
-19.4847675931
 20
-17.238376668
 10
-19.5380741336
 20
-15.5708365233
 10
-19.586052373
 20
-13.9002903571
 10
-19.628701562
 20
-12.2267638173
 10
-19.666021026
 20
-10.5502826046
 10
-19.6980101909
 20
-8.8708724482
 10
-19.7246685835
 20
-7.1885591053
 10
-19.7459957919
 20
-5.5033683969
 10
-19.7619914787
 20
-3.815326196
 10
-19.7726554072
 20
-2.124458403
 10
-19.7779874152
 20
-0.4307909731
 10
-19.7779874152
 20
1.265650098
 10
-19.7726554072
 20
2.9648387862
 10
-19.7619914787
 20
4.6667490168
 10
-19.7459957919
 20
6.3713546637
 10
-19.7246685835
 20
8.0786295638
 10
-19.6980101909
 20
9.7885475155
 10
-19.666021026
 20
11.5010822769
 10
-19.628701562
 20
13.2162075655
 10
-19.586052373
 20
14.9338970607
 10
-19.5380741336
 20
16.6541244044
 10
-19.4847675931
 20
18.3768631996
  0
LWPOLYLINE
  5
24F
100
AcDbEntity
  8
RACCORDO
100
AcDbPolyline
 62
253
  6
CONTINUOUS
 90
18
 70
0
 10
-19.6312501153
 20
18.5518982297
 10
-19.6310419147
 20
18.5405049209
 10
-19.6297198894
 20
18.5293309236
 10
-19.6272941811
 20
18.5181709976
 10
-19.6237701638
 20
18.5070498658
 10
-19.6191556441
 20
18.4959921648
 10
-19.6134608447
 20
18.4850223908
 10
-19.6066983812
 20
18.4741648454
 10
-19.5988832348
 20
18.4634435814
 10
-19.5900327182
 20
18.4528823498
 10
-19.5801664383
 20
18.4425045468
 10
-19.5693062518
 20
18.4323331627
 10
-19.5574762175
 20
18.4223907301
 10
-19.5447025426
 20
18.4126992747
 10
-19.5310135246
 20
18.403280266
 10
-19.5164394891
 20
18.3941545701
 10
-19.5010127221
 20
18.3853424032
 10
-19.4847673987
 20
18.376863287
  0
LWPOLYLINE
  5
250
100
AcDbEntity
  8
ASSI
100
AcDbPolyline
 62
7
  6
CONTINUOUS
 90
10
 70
0
 10
-18.9168375165
 20
13.6682959856
 10
-18.9044498118
 20
14.1520779275
 10
-18.8916318384
 20
14.6360568658
 10
-18.8783835962
 20
15.1202328004
 10
-18.8647050676
 20
15.6046063401
 10
-18.8505962702
 20
16.0891768762
 10
-18.836057257
 20
16.573942582
 10
-18.8210880457
 20
17.0589028485
 10
-18.8056886186
 20
17.5440582848
 10
-18.7898589756
 20
18.0294088908
  0
LWPOLYLINE
  5
251
100
AcDbEntity
  8
RACCORDO
100
AcDbPolyline
 62
7
  6
CONTINUOUS
 90
22
 70
0
 10
-19.631250016
 20
18.5519067487
 10
-19.6842052373
 20
16.8410628595
 10
-19.7322477682
 20
15.1197093003
 10
-19.7749540538
 20
13.4008906674
 10
-19.8123232686
 20
11.6846365633
 10
-19.844354873
 20
9.9709727018
 10
-19.8710483993
 20
8.2599232384
 10
-19.8924033871
 20
6.5515135975
 10
-19.9084195097
 20
4.8457701738
 10
-19.9190964797
 20
3.1427185869
 10
-19.924434041
 20
1.4423846378
 10
-19.9244321014
 20
-0.2552050733
 10
-19.9190906191
 20
-1.9500237294
 10
-19.9084096031
 20
-3.6420447802
 10
-19.8923892264
 20
-5.3312426479
 10
-19.8710296924
 20
-7.0175919756
 10
-19.8443312446
 20
-8.7010666664
 10
-19.8122942598
 20
-10.3816417326
 10
-19.7749191217
 20
-12.0592934724
 10
-19.7322062866
 20
-13.7339966844
 10
-19.6841564967
 20
-15.4057225653
 10
-19.6312313946
 20
-17.0607297065
  0
LWPOLYLINE
  5
252
100
AcDbEntity
  8
RACCORDO
100
AcDbPolyline
 62
7
  6
CONTINUOUS
 90
10
 70
0
 10
-18.6452045319
 20
18.0678913608
 10
-18.6611012836
 20
17.5795493921
 10
-18.6765624951
 20
17.0914036214
 10
-18.691588147
 20
16.6034546499
 10
-18.7061782201
 20
16.1157030799
 10
-18.7203326962
 20
15.6281495114
 10
-18.7340515575
 20
15.140794542
 10
-18.7473347866
 20
14.6536387715
 10
-18.7601823668
 20
14.1666828008
 10
-18.7715726799
 20
13.720638348
  0
LWPOLYLINE
  5
253
100
AcDbEntity
  8
RACCORDO
100
AcDbPolyline
 62
253
  6
CONTINUOUS
 90
43
 70
0
 10
-19.4847675931
 20
18.3768631996
 10
-19.4826037041
 20
18.4235822785
 10
-19.4791466748
 20
18.4708394898
 10
-19.4744009195
 20
18.5185763658
 10
-19.4683726623
 20
18.5667332485
 10
-19.4610693718
 20
18.6152511925
 10
-19.4524995738
 20
18.6640720831
 10
-19.442673745
 20
18.7131367176
 10
-19.4316042301
 20
18.762383391
 10
-19.4193046465
 20
18.8117498207
 10
-19.4057906195
 20
18.861174501
 10
-19.3910788989
 20
18.9105969176
 10
-19.3751871259
 20
18.9599561695
 10
-19.3581351959
 20
19.0091914285
 10
-19.3399444145
 20
19.0582417993
 10
-19.3206366709
 20
19.1070465171
 10
-19.3002360799
 20
19.1555455372
 10
-19.2787681697
 20
19.2036788096
 10
-19.2562590094
 20
19.2513861434
 10
-19.2327368912
 20
19.2986085587
 10
-19.2082311409
 20
19.3452879386
 10
-19.1827712933
 20
19.3913662998
 10
-19.1563892434
 20
19.4367868451
 10
-19.1291179663
 20
19.4814935467
 10
-19.1009903336
 20
19.5254307952
 10
-19.0720414796
 20
19.5685445835
 10
-19.0423076791
 20
19.6107816116
 10
-19.0118250679
 20
19.6520888807
 10
-18.9806319485
 20
19.6924153914
 10
-18.9487672307
 20
19.7317116211
 10
-18.9162693041
 20
19.7699286226
 10
-18.8831789208
 20
19.8070193045
 10
-18.8495374211
 20
19.842938068
 10
-18.8153851703
 20
19.8776402603
 10
-18.7807645404
 20
19.9110835401
 10
-18.7457192068
 20
19.9432263454
 10
-18.7102923887
 20
19.9740276009
 10
-18.6745292608
 20
20.0034488866
 10
-18.6384738032
 20
20.0314548328
 10
-18.6021680673
 20
20.0580114252
 10
-18.5656564454
 20
20.0830860398
 10
-18.5289856526
 20
20.1066476843
 10
-18.4922015831
 20
20.1286673555
  0
LWPOLYLINE
  5
254
100
AcDbEntity
  8
RACCORDO
100
AcDbPolyline
 62
253
  6
CONTINUOUS
 90
23
 70
0
 10
-18.5719681701
 20
17.980221554
 10
-18.5675611786
 20
18.058813413
 10
-18.5593911201
 20
18.1395644927
 10
-18.5473804079
 20
18.2222249379
 10
-18.5314486641
 20
18.3066064174
 10
-18.511558334
 20
18.3923374922
 10
-18.4877521649
 20
18.4788602433
 10
-18.4600440432
 20
18.5658622113
 10
-18.4284744651
 20
18.652988227
 10
-18.3932214285
 20
18.7396005064
 10
-18.3543987517
 20
18.825337466
 10
-18.3121246344
 20
18.9098632393
 10
-18.2666718308
 20
18.9925961272
 10
-18.2182203887
 20
19.0732068776
 10
-18.1669618815
 20
19.1513753258
 10
-18.1132548464
 20
19.2265817367
 10
-18.0573227694
 20
19.2985643272
 10
-17.9994124966
 20
19.3670542856
 10
-17.9399691407
 20
19.4316024314
 10
-17.8792640204
 20
19.492017725
 10
-17.8175477316
 20
19.5481509324
 10
-17.75526203
 20
19.599718928
 10
-17.6927279066
 20
19.6466008541
  0
LWPOLYLINE
  5
255
100
AcDbEntity
  8
RACCORDO
100
AcDbPolyline
 62
7
  6
CONTINUOUS
 90
22
 70
0
 10
-18.6452045319
 20
18.0678913609
 10
-18.6396311854
 20
18.1599871985
 10
-18.6290316622
 20
18.2530252823
 10
-18.6135348652
 20
18.3466402908
 10
-18.5932690823
 20
18.4404980954
 10
-18.5683737449
 20
18.5342309549
 10
-18.5390164436
 20
18.6274138233
 10
-18.5053778156
 20
18.7196416688
 10
-18.467611622
 20
18.8106116539
 10
-18.425864345
 20
18.9000329474
 10
-18.3803105773
 20
18.9875571634
 10
-18.3311318773
 20
19.0728403776
 10
-18.2784811379
 20
19.1555965534
 10
-18.2225289607
 20
19.235510361
 10
-18.1634828742
 20
19.3122248365
 10
-18.1015420554
 20
19.3854112023
 10
-18.0368658519
 20
19.4547918529
 10
-17.9696944216
 20
19.5200065058
 10
-17.9003357205
 20
19.5806605776
 10
-17.8290245921
 20
19.6364557227
 10
-17.7559399714
 20
19.687141902
 10
-17.6813050113
 20
19.7324351455
  0
LWPOLYLINE
  5
256
100
AcDbEntity
  8
RACCORDO
100
AcDbPolyline
 62
253
  6
CONTINUOUS
 90
27
 70
0
 10
-13.088843814
 20
22.8474772249
 10
-13.0937278311
 20
22.8355085667
 10
-13.0990784345
 20
22.8238153626
 10
-13.1048810129
 20
22.8124295443
 10
-13.1111197205
 20
22.8013822041
 10
-13.1177775209
 20
22.79070351
 10
-13.1248362328
 20
22.7804226232
 10
-13.1322765806
 20
22.7705676187
 10
-13.140078246
 20
22.7611654085
 10
-13.1482199245
 20
22.7522416679
 10
-13.1566793828
 20
22.743820766
 10
-13.1654335198
 20
22.7359256983
 10
-13.1744584299
 20
22.7285780248
 10
-13.183729468
 20
22.7217978103
 10
-13.1932213167
 20
22.7156035701
 10
-13.2029080559
 20
22.7100122196
 10
-13.212763233
 20
22.7050390273
 10
-13.2227599356
 20
22.7006975742
 10
-13.2328708649
 20
22.6969997159
 10
-13.24306841
 20
22.6939555503
 10
-13.2533247235
 20
22.6915733904
 10
-13.2636117976
 20
22.6898597415
 10
-13.2739015404
 20
22.6888192832
 10
-13.2841658529
 20
22.6884548567
 10
-13.2943767053
 20
22.6887674573
 10
-13.3045062139
 20
22.6897562312
 10
-13.3145267172
 20
22.6914184783
  0
LINE
  5
257
100
AcDbEntity
  8
0
100
AcDbLine
 62
7
  6
CONTINUOUS
 10
-1.357009769
 20
23.1347707447
 11
-5.2545306812
 21
21.1860102886
  0
LINE
  5
258
100
AcDbEntity
  8
ASSI
100
AcDbLine
 62
7
  6
CONTINUOUS
 10
-18.7710478463
 20
13.7411908207
 11
-18.9168375165
 21
13.6682959856
  0
LWPOLYLINE
  5
259
100
AcDbEntity
  8
ASSI
100
AcDbPolyline
 62
7
  6
CONTINUOUS
 90
16
 70
0
 10
2.1751754249
 20
22.0810105941
 10
2.1873082539
 20
22.0844969563
 10
2.2000252429
 20
22.0872185984
 10
2.2133203364
 20
22.0891587
 10
2.2271937317
 20
22.0903147863
 10
2.2416279466
 20
22.0906547394
 10
2.2565854182
 20
22.0901185323
 10
2.2720490347
 20
22.088682983
 10
2.288002335
 20
22.0863397998
 10
2.3044023259
 20
22.0830543691
 10
2.3211875657
 20
22.0788221336
 10
2.3383709038
 20
22.0736218828
 10
2.3560211103
 20
22.0673899721
 10
2.374120849
 20
22.060109671
 10
2.3926361163
 20
22.0517597145
 10
2.4017428513
 20
22.0473191605
  0
LWPOLYLINE
  5
25A
100
AcDbEntity
  8
RACCORDO
100
AcDbPolyline
 62
253
  6
CONTINUOUS
 90
5
 70
0
 10
2.339017243
 20
-23.7642001632
 10
2.3374435435
 20
-23.7634317482
 10
2.3304158437
 20
-23.7604255427
 10
2.3231314621
 20
-23.7579849197
 10
2.3156085177
 20
-23.7561159498
  0
LWPOLYLINE
  5
25B
100
AcDbEntity
  8
RACCORDO
100
AcDbPolyline
 62
7
  6
CONTINUOUS
 90
34
 70
0
 10
0.6341729989
 20
-24.1572767957
 10
0.6436227595
 20
-24.1619812146
 10
0.6534804946
 20
-24.1667365465
 10
0.6637136272
 20
-24.1715349881
 10
0.674298949
 20
-24.1763838256
 10
0.6851941834
 20
-24.1812626008
 10
0.6963349759
 20
-24.1861256292
 10
0.7076731751
 20
-24.1909694598
 10
0.7191855488
 20
-24.1957960511
 10
0.7308435478
 20
-24.200571205
 10
0.742613696
 20
-24.205296236
 10
0.7544636739
 20
-24.2099725665
 10
0.7663684351
 20
-24.2145665724
 10
0.7782973119
 20
-24.2190812244
 10
0.7902207527
 20
-24.2235201748
 10
0.8021170869
 20
-24.2278509541
 10
0.8139586982
 20
-24.2320779221
 10
0.82571884
 20
-24.2362064136
 10
0.8373786707
 20
-24.2402053655
 10
0.8489136165
 20
-24.2440802809
 10
0.8602997468
 20
-24.2478377788
 10
0.871520495
 20
-24.2514483244
 10
0.8825542325
 20
-24.2549183516
 10
0.8933798244
 20
-24.2582554835
 10
0.9039825732
 20
-24.2614318091
 10
0.9143436791
 20
-24.2644545067
 10
0.9244447843
 20
-24.2673320099
 10
0.9342728654
 20
-24.2700381589
 10
0.9438118453
 20
-24.2725807057
 10
0.9530461457
 20
-24.2749687529
 10
0.9619644489
 20
-24.277178073
 10
0.9705541159
 20
-24.2792064477
 10
0.9788014962
 20
-24.2810738714
 10
0.9866949586
 20
-24.2827895196
  0
LINE
  5
25C
100
AcDbEntity
  8
RACCORDO
100
AcDbLine
 62
7
  6
CONTINUOUS
 10
0.1488699707
 20
-23.9146252816
 11
0.6336587706
 21
-24.1570196816
  0
LINE
  5
25D
100
AcDbEntity
  8
RACCORDO
100
AcDbLine
 62
253
  6
CONTINUOUS
 10
1.8767551413
 20
-23.5366892616
 11
2.3156085177
 21
-23.7561159498
  0
LINE
  5
25E
100
AcDbEntity
  8
RACCORDO
100
AcDbLine
 62
7
  6
CONTINUOUS
 10
1.8767551413
 20
-23.5330691121
 11
2.3390235689
 21
-23.7642033259
  0
LWPOLYLINE
  5
25F
100
AcDbEntity
  8
RACCORDO
100
AcDbPolyline
 62
253
  6
CONTINUOUS
 90
9
 70
0
 10
-18.6452045319
 20
18.0678913609
 10
-18.6448871563
 20
18.0597662007
 10
-18.642142088
 20
18.0473442179
 10
-18.6366929987
 20
18.035057029
 10
-18.6285995851
 20
18.0230392565
 10
-18.6179505192
 20
18.0114225739
 10
-18.6048624741
 20
18.0003342583
 10
-18.5894788426
 20
17.9898957958
 10
-18.5719681701
 20
17.9802215538
  0
LWPOLYLINE
  5
260
100
AcDbEntity
  8
RACCORDO
100
AcDbPolyline
 62
7
  6
CONTINUOUS
 90
4
 70
0
 10
-18.7715672894
 20
13.7206369841
 10
-18.7707762282
 20
13.6945930238
 10
-18.7676982561
 20
13.6688703221
 10
-18.7623639402
 20
13.6442115146
  0
LWPOLYLINE
  5
261
100
AcDbEntity
  8
RACCORDO
100
AcDbPolyline
 62
253
  6
CONTINUOUS
 90
13
 70
0
 10
-17.2817163052
 20
2.5685474559
 10
-17.2851222267
 20
1.9894003031
 10
-17.287930371
 20
1.4018070295
 10
-17.2901117686
 20
0.8057829887
 10
-17.291632903
 20
0.2036479868
 10
-17.2924733655
 20
-0.406888784
 10
-17.2925993247
 20
-1.0327155317
 10
-17.2919543144
 20
-1.6746583704
 10
-17.2904805715
 20
-2.3318312796
 10
-17.2881002088
 20
-3.0085328988
 10
-17.2847281548
 20
-3.7061650478
 10
-17.2802901108
 20
-4.4232417425
 10
-17.2747048072
 20
-5.1597196154
  0
LWPOLYLINE
  5
262
100
AcDbEntity
  8
RACCORDO
100
AcDbPolyline
 62
253
  6
CONTINUOUS
 90
10
 70
0
 10
-18.6977831381
 20
13.6549962206
 10
-18.6854964945
 20
14.1348058481
 10
-18.6727866175
 20
14.6148092608
 10
-18.6596535252
 20
15.0950058826
 10
-18.6460972477
 20
15.5753947358
 10
-18.6321177933
 20
16.0559756445
 10
-18.6177151451
 20
16.536749236
 10
-18.6028893075
 20
17.017715336
 10
-18.5876403098
 20
17.4988729674
 10
-18.5719681701
 20
17.980221554
  0
LINE
  5
263
100
AcDbEntity
  8
0
100
AcDbLine
 62
7
  6
CONTINUOUS
 10
-6.2903281814
 20
16.854681408
 11
-7.0176589285
 21
16.4443314675
  0
LINE
  5
264
100
AcDbEntity
  8
RACCORDO
100
AcDbLine
 62
7
  6
CONTINUOUS
 10
-2.9003413904
 20
18.948703131
 11
-2.5426622411
 21
19.1280076758
  0
LINE
  5
265
100
AcDbEntity
  8
ASSI
100
AcDbLine
 62
7
  6
CONTINUOUS
 10
-2.5426622411
 20
19.1280076758
 11
2.731829828
 21
21.7583168097
  0
LINE
  5
266
100
AcDbEntity
  8
DRAFT
100
AcDbLine
 62
7
  6
CONTINUOUS
 10
-2.5426622411
 20
17.9155721105
 11
2.7821718291
 21
20.5519035424
  0
LINE
  5
267
100
AcDbEntity
  8
ASSI
100
AcDbLine
 62
7
  6
CONTINUOUS
 10
2.1262993934
 20
22.061082027
 11
-2.471951563
 21
19.7947207295
  0
LINE
  5
268
100
AcDbEntity
  8
RACCORDO
100
AcDbLine
 62
7
  6
CONTINUOUS
 10
3.5446266695
 20
21.873523215
 11
2.905765893
 21
21.5609210899
  0
LWPOLYLINE
  5
269
100
AcDbEntity
  8
ASSI
100
AcDbPolyline
 62
7
  6
CONTINUOUS
 90
7
 70
0
 10
2.1262993934
 20
22.061082027
 10
2.1345086527
 20
22.0650095121
 10
2.1426926105
 20
22.0686945743
 10
2.1508512665
 20
22.0721372136
 10
2.158984621
 20
22.07533743
 10
2.1670926737
 20
22.0782952235
 10
2.1751754249
 20
22.0810105941
  0
LWPOLYLINE
  5
26A
100
AcDbEntity
  8
RACCORDO
100
AcDbPolyline
 62
7
  6
CONTINUOUS
 90
18
 70
0
 10
3.5446266695
 20
21.873523215
 10
3.5730011903
 20
21.8867051718
 10
3.6012356423
 20
21.8984395636
 10
3.6293300255
 20
21.9087263903
 10
3.6573343386
 20
21.9175785249
 10
3.6851985828
 20
21.9249830944
 10
3.7127727625
 20
21.93090148
 10
3.7400418911
 20
21.9353249013
 10
3.7670209551
 20
21.9382621387
 10
3.7936049177
 20
21.9397009146
 10
3.8198098766
 20
21.939633778
 10
3.8456197341
 20
21.9380681801
 10
3.8708811604
 20
21.9350141966
 10
3.8955709137
 20
21.9304684122
 10
3.9197122358
 20
21.9244342424
 10
3.9432215221
 20
21.9169320096
 10
3.9661173023
 20
21.907946595
 10
3.9856793866
 20
21.8988568619
  0
LINE
  5
26B
100
AcDbEntity
  8
RACCORDO
100
AcDbLine
 62
7
  6
CONTINUOUS
 10
-3.4640086931
 20
18.8164254667
 11
-3.5629670566
 21
18.7871138087
  0
LWPOLYLINE
  5
26C
100
AcDbEntity
  8
RACCORDO
100
AcDbPolyline
 62
7
  6
CONTINUOUS
 90
4
 70
0
 10
-3.5629670566
 20
18.7871138087
 10
-3.5847866134
 20
18.7807864574
 10
-3.5952360458
 20
18.7778263221
 10
-3.6053853097
 20
18.7750237062
  0
LWPOLYLINE
  5
26D
100
AcDbEntity
  8
RACCORDO
100
AcDbPolyline
 62
253
  6
CONTINUOUS
 90
3
 70
0
 10
-15.2948058199
 20
-6.1496691091
 10
-15.2936189713
 20
-6.2904699879
 10
-15.2815201073
 20
-7.5300279793
  0
LINE
  5
26E
100
AcDbEntity
  8
SMUSSO
100
AcDbLine
 62
7
  6
CONTINUOUS
 10
-15.9069804055
 20
20.8352649457
 11
-15.9069804055
 21
20.7334845295
  0
LINE
  5
26F
100
AcDbEntity
  8
DRAFT
100
AcDbLine
 62
7
  6
CONTINUOUS
 10
-15.8009143884
 20
1.619282962
 11
-15.8009143884
 21
-4.337528749
  0
LINE
  5
270
100
AcDbEntity
  8
IMPORT_IGES
100
AcDbLine
 62
253
  6
CONTINUOUS
 10
-15.3766503197
 20
-4.2668180709
 11
-15.3766503197
 21
1.4071509276
  0
LINE
  5
271
100
AcDbEntity
  8
IMPORT_IGES
100
AcDbLine
 62
253
  6
CONTINUOUS
 10
-14.9523862509
 20
1.1950188933
 11
-14.9523862509
 21
-4.0070104498
  0
LWPOLYLINE
  5
272
100
AcDbEntity
  8
RACCORDO
100
AcDbPolyline
 62
253
  6
CONTINUOUS
 90
10
 70
0
 10
-16.5809469163
 20
2.0092992259
 10
-16.5838526632
 20
1.4421282193
 10
-16.5863922397
 20
0.7386616541
 10
-16.5879504627
 20
0.0189767077
 10
-16.5886228502
 20
-0.7137439604
 10
-16.5883138842
 20
-1.4626830097
 10
-16.5867370117
 20
-2.2373884185
 10
-16.5837967147
 20
-3.0410428462
 10
-16.579588511
 20
-3.8704636334
 10
-16.5741124007
 20
-4.72565078
  0
LWPOLYLINE
  5
273
100
AcDbEntity
  8
RACCORDO
100
AcDbPolyline
 62
253
  6
CONTINUOUS
 90
31
 70
0
 10
-14.7663504534
 20
23.8504562228
 10
-14.7661098722
 20
23.8618681322
 10
-14.765388781
 20
23.8734895888
 10
-14.7641891392
 20
23.8852889619
 10
-14.7625142067
 20
23.8972341485
 10
-14.7603685402
 20
23.9092926236
 10
-14.7577579856
 20
23.9214315274
 10
-14.7546896521
 20
23.9336178095
 10
-14.7511718908
 20
23.945818309
 10
-14.7472142816
 20
23.9579998059
 10
-14.7428275997
 20
23.9701291415
 10
-14.7380237866
 20
23.9821733036
 10
-14.732815922
 20
23.9940995056
 10
-14.7272181766
 20
24.0058753003
 10
-14.721245795
 20
24.0174686227
 10
-14.7149150608
 20
24.0288478749
 10
-14.7082432398
 20
24.0399820427
 10
-14.7012484715
 20
24.0508408742
 10
-14.6939497346
 20
24.0613949102
 10
-14.686366792
 20
24.071615553
 10
-14.6785203737
 20
24.0814748419
 10
-14.6704320824
 20
24.0909456581
 10
-14.6621241146
 20
24.1000020861
 10
-14.6536189423
 20
24.1086197028
 10
-14.6449394795
 20
24.1167753166
 10
-14.636107389
 20
24.1244483651
 10
-14.627148606
 20
24.1316161127
 10
-14.6180932691
 20
24.1382550193
 10
-14.6089681004
 20
24.1443468166
 10
-14.5997960958
 20
24.149877464
 10
-14.5906021975
 20
24.1548330377
  0
LINE
  5
274
100
AcDbEntity
  8
RACCORDO
100
AcDbLine
 62
7
  6
CONTINUOUS
 10
-2.5426622411
 20
17.9155721105
 11
-2.9003413904
 21
17.7159761587
  0
LINE
  5
275
100
AcDbEntity
  8
RACCORDO
100
AcDbLine
 62
7
  6
CONTINUOUS
 10
0.2438019958
 20
18.2913189779
 11
-1.3393696992
 21
17.4791219306
  0
LINE
  5
276
100
AcDbEntity
  8
RACCORDO
100
AcDbLine
 62
253
  6
CONTINUOUS
 10
0.3564725701
 20
18.2846580528
 11
-1.226284033
 21
17.4726739555
  0
LINE
  5
277
100
AcDbEntity
  8
RACCORDO
100
AcDbLine
 62
253
  6
CONTINUOUS
 10
1.6999814376
 20
17.6129036191
 11
0.0987006468
 21
16.8101816156
  0
LINE
  5
278
100
AcDbEntity
  8
RACCORDO
100
AcDbLine
 62
7
  6
CONTINUOUS
 10
0.2455403813
 20
18.2921882107
 11
0.2438039695
 21
18.2913199905
  0
LINE
  5
279
100
AcDbEntity
  8
RACCORDO
100
AcDbLine
 62
253
  6
CONTINUOUS
 10
2.2282486094
 20
17.8763424391
 11
1.6999814376
 21
17.6129036191
  0
LINE
  5
27A
100
AcDbEntity
  8
RACCORDO
100
AcDbLine
 62
7
  6
CONTINUOUS
 10
0.7804103377
 20
18.5527403105
 11
0.2455431469
 21
18.2921895579
  0
LINE
  5
27B
100
AcDbEntity
  8
RACCORDO
100
AcDbLine
 62
253
  6
CONTINUOUS
 10
0.8909224488
 20
18.5450055194
 11
0.3564725701
 21
18.2846580528
  0
LINE
  5
27C
100
AcDbEntity
  8
RACCORDO
100
AcDbLine
 62
7
  6
CONTINUOUS
 10
6.6115926134
 20
20.3400402431
 11
1.9280557339
 21
18.0884162478
  0
LWPOLYLINE
  5
27D
100
AcDbEntity
  8
RACCORDO
100
AcDbPolyline
 62
7
  6
CONTINUOUS
 90
18
 70
0
 10
0.7804103377
 20
18.5527403105
 10
0.7926312975
 20
18.5582926766
 10
0.8052604211
 20
18.5632271167
 10
0.8182592203
 20
18.5675057457
 10
0.8316044708
 20
18.5710983196
 10
0.8452302001
 20
18.5739665468
 10
0.8590291589
 20
18.5760760187
 10
0.872928141
 20
18.5774122668
 10
0.8868975623
 20
18.5779706544
 10
0.9008984139
 20
18.5777463015
 10
0.9148718781
 20
18.5767376952
 10
0.9287776334
 20
18.5749462277
 10
0.9426110733
 20
18.5723672354
 10
0.9563791347
 20
18.5689859732
 10
0.9699801837
 20
18.5648138747
 10
0.9832660142
 20
18.5598973636
 10
0.9962001695
 20
18.5542605734
 10
1.0017034133
 20
18.5515924078
  0
LINE
  5
27E
100
AcDbEntity
  8
RACCORDO
100
AcDbLine
 62
7
  6
CONTINUOUS
 10
6.8744399026
 20
-15.5040665474
 11
2.9374153131
 21
-16.6171797732
  0
LWPOLYLINE
  5
27F
100
AcDbEntity
  8
RACCORDO
100
AcDbPolyline
 62
7
  6
CONTINUOUS
 90
42
 70
0
 10
6.8744423428
 20
-15.5040724467
 10
6.8831541215
 20
-15.5019234118
 10
6.8942414283
 20
-15.500040796
 10
6.9056038417
 20
-15.4990419566
 10
6.9172482367
 20
-15.4989190479
 10
6.9290941074
 20
-15.4996684862
 10
6.9411501742
 20
-15.5012968651
 10
6.9534077167
 20
-15.503797591
 10
6.9657600677
 20
-15.5071473002
 10
6.9782032744
 20
-15.5113515729
 10
6.9907412896
 20
-15.5164048288
 10
7.0032793049
 20
-15.5222669636
 10
7.0158173202
 20
-15.528942844
 10
7.0283553354
 20
-15.5364276034
 10
7.0407985421
 20
-15.5446665374
 10
7.0531508931
 20
-15.5536691793
 10
7.0654084356
 20
-15.5634259958
 10
7.0774645024
 20
-15.5738536837
 10
7.0893103731
 20
-15.584950116
 10
7.1009547681
 20
-15.5967174198
 10
7.1123171815
 20
-15.6090786726
 10
7.1234044883
 20
-15.6220485952
 10
7.1342098134
 20
-15.6356124669
 10
7.1446320261
 20
-15.6496492032
 10
7.1546609569
 20
-15.6641526508
 10
7.1643067751
 20
-15.6791289631
 10
7.1734988588
 20
-15.6944755158
 10
7.1822398927
 20
-15.7102057157
 10
7.1905271919
 20
-15.7263061561
 10
7.1982820795
 20
-15.7426339929
 10
7.2054969821
 20
-15.7591853577
 10
7.212179473
 20
-15.7759641189
 10
7.2182735949
 20
-15.792839037
 10
7.2237759678
 20
-15.8098148368
 10
7.2286899717
 20
-15.8268867935
 10
7.2329697904
 20
-15.8439094941
 10
7.2366096119
 20
-15.8608828728
 10
7.2396152481
 20
-15.8778069953
 10
7.2419583179
 20
-15.8945366465
 10
7.2436293611
 20
-15.9110234212
 10
7.2446378378
 20
-15.9273157246
 10
7.2449837483
 20
-15.9434135565
  0
LWPOLYLINE
  5
280
100
AcDbEntity
  8
RACCORDO
100
AcDbPolyline
 62
253
  6
CONTINUOUS
 90
19
 70
0
 10
-14.7663504534
 20
23.5104822886
 10
-14.7661305988
 20
23.4997976321
 10
-14.7654715815
 20
23.4893594056
 10
-14.7643750407
 20
23.4791935732
 10
-14.7628437098
 20
23.4693254546
 10
-14.7608813946
 20
23.45977956
 10
-14.7584929487
 20
23.4505795396
 10
-14.7556842786
 20
23.4417482276
 10
-14.7524623731
 20
23.4333076706
 10
-14.7488352755
 20
23.4252789622
 10
-14.7448119959
 20
23.4176820514
 10
-14.7404025534
 20
23.4105358605
 10
-14.7356180168
 20
23.4038582952
 10
-14.7304703834
 20
23.3976660179
 10
-14.7249724154
 20
23.3919743055
 10
-14.7191376817
 20
23.3867971793
 10
-14.7129794653
 20
23.3821466642
 10
-14.706514191
 20
23.3780353906
 10
-14.7013760064
 20
23.3752632632
  0
LWPOLYLINE
  5
281
100
AcDbEntity
  8
RACCORDO
100
AcDbPolyline
 62
253
  6
CONTINUOUS
 90
19
 70
0
 10
-13.4413657736
 20
22.8479899487
 10
-13.4411459189
 20
22.8373052922
 10
-13.4404869017
 20
22.8268670657
 10
-13.4393903609
 20
22.8167012333
 10
-13.43785903
 20
22.8068331147
 10
-13.4358967147
 20
22.7972872201
 10
-13.4335082689
 20
22.7880871996
 10
-13.4306995988
 20
22.7792558877
 10
-13.4274776933
 20
22.7708153307
 10
-13.4238505957
 20
22.7627866223
 10
-13.4198273161
 20
22.7551897115
 10
-13.4154178735
 20
22.7480435206
 10
-13.410633337
 20
22.7413659553
 10
-13.4054857036
 20
22.735173678
 10
-13.3999877356
 20
22.7294819656
 10
-13.3941530019
 20
22.7243048394
 10
-13.3879947854
 20
22.7196543243
 10
-13.3815295112
 20
22.7155430507
 10
-13.3764030944
 20
22.712776808
  0
LINE
  5
282
100
AcDbEntity
  8
RACCORDO
100
AcDbLine
 62
253
  6
CONTINUOUS
 10
-14.468347309
 20
-7.9366143785
 11
-14.4542914344
 21
-9.0998635895
  0
LINE
  5
283
100
AcDbEntity
  8
RACCORDO
100
AcDbLine
 62
253
  6
CONTINUOUS
 10
-13.7689100435
 20
-7.501753882
 11
-13.7558316272
 21
-8.6643400184
  0
LINE
  5
284
100
AcDbEntity
  8
RACCORDO
100
AcDbLine
 62
253
  6
CONTINUOUS
 10
-14.5942133667
 20
-5.7156002498
 11
-14.5820828583
 21
-7.0951674912
  0
LINE
  5
285
100
AcDbEntity
  8
RACCORDO
100
AcDbLine
 62
7
  6
CONTINUOUS
 10
-14.8395737581
 20
23.9388445704
 11
-14.8395737581
 21
23.5988706363
  0
LINE
  5
286
100
AcDbEntity
  8
RACCORDO
100
AcDbLine
 62
253
  6
CONTINUOUS
 10
-14.7663504534
 20
23.8504562228
 11
-14.7663504534
 21
23.5104822886
  0
LINE
  5
287
100
AcDbEntity
  8
RACCORDO
100
AcDbLine
 62
7
  6
CONTINUOUS
 10
-14.1365808039
 20
23.0928656619
 11
-14.1365808039
 21
22.6389085674
  0
LINE
  5
288
100
AcDbEntity
  8
RACCORDO
100
AcDbLine
 62
253
  6
CONTINUOUS
 10
-14.0633574992
 20
23.0562540096
 11
-14.0633574992
 21
22.5471798654
  0
LINE
  5
289
100
AcDbEntity
  8
DRAFT
100
AcDbLine
 62
7
  6
CONTINUOUS
 10
-13.821015401
 20
-5.3274782427
 11
-13.821015401
 21
-6.7131188888
  0
LINE
  5
28A
100
AcDbEntity
  8
RACCORDO
100
AcDbLine
 62
253
  6
CONTINUOUS
 10
-13.4413657736
 20
22.8479899487
 11
-13.4413657736
 21
23.1879638828
  0
LINE
  5
28B
100
AcDbEntity
  8
IMPORT_IGES
100
AcDbLine
 62
253
  6
CONTINUOUS
 10
-13.3967513323
 20
-6.5991069404
 11
-13.3967513323
 21
-5.2567675646
  0
LINE
  5
28C
100
AcDbEntity
  8
RACCORDO
100
AcDbLine
 62
253
  6
CONTINUOUS
 10
-13.088843814
 20
22.8474772249
 11
-13.088843814
 21
23.187451159
  0
LINE
  5
28D
100
AcDbEntity
  8
DRAFT
100
AcDbLine
 62
7
  6
CONTINUOUS
 10
-13.0078426027
 20
-7.1197052879
 11
-13.0078426027
 21
-8.288839583
  0
LINE
  5
28E
100
AcDbEntity
  8
IMPORT_IGES
100
AcDbLine
 62
253
  6
CONTINUOUS
 10
-12.9724872636
 20
-4.9969599434
 11
-12.9724872636
 21
-6.3392993193
  0
LINE
  5
28F
100
AcDbEntity
  8
RACCORDO
100
AcDbLine
 62
253
  6
CONTINUOUS
 10
-12.7301451655
 20
22.5693943215
 11
-12.7301451655
 21
21.8805736986
  0
LWPOLYLINE
  5
290
100
AcDbEntity
  8
RACCORDO
100
AcDbPolyline
 62
253
  6
CONTINUOUS
 90
31
 70
0
 10
-13.4413657736
 20
23.1879638828
 10
-13.4411252981
 20
23.1993732587
 10
-13.4404045259
 20
23.2109920689
 10
-13.439205418
 20
23.2227887026
 10
-13.4375312368
 20
23.2347310648
 10
-13.435386537
 20
23.2467866646
 10
-13.4327771539
 20
23.2589227024
 10
-13.4297101866
 20
23.2711061602
 10
-13.4261939793
 20
23.2833038909
 10
-13.4222380985
 20
23.2954827084
 10
-13.4178533068
 20
23.3076094781
 10
-13.4130515338
 20
23.3196512073
 10
-13.4078458435
 20
23.3315751342
 10
-13.4022503989
 20
23.3433488179
 10
-13.3962804234
 20
23.354940226
 10
-13.3899521592
 20
23.3663178221
 10
-13.3832828235
 20
23.3774506516
 10
-13.3762905614
 20
23.3883084257
 10
-13.3689943965
 20
23.398861604
 10
-13.3614141791
 20
23.4090814747
 10
-13.3535705327
 20
23.4189402331
 10
-13.3454847972
 20
23.4284110566
 10
-13.3371789711
 20
23.4374681784
 10
-13.328675652
 20
23.4460869569
 10
-13.3199979744
 20
23.4542439433
 10
-13.3111695476
 20
23.4619169451
 10
-13.3022143907
 20
23.4690850867
 10
-13.2931568678
 20
23.4757288658
 10
-13.2840216213
 20
23.4818302071
 10
-13.2748335053
 20
23.4873725107
 10
-13.2656175176
 20
23.4923406978
  0
LWPOLYLINE
  5
291
100
AcDbEntity
  8
RACCORDO
100
AcDbPolyline
 62
7
  6
CONTINUOUS
 90
5
 70
0
 10
-9.2583175796
 20
21.9152905955
 10
-9.2603541229
 20
21.9061691975
 10
-9.2618684818
 20
21.8963356
 10
-9.2628248655
 20
21.8858774401
 10
-9.2631566123
 20
21.8742036838
  0
LWPOLYLINE
  5
292
100
AcDbEntity
  8
RACCORDO
100
AcDbPolyline
 62
253
  6
CONTINUOUS
 90
25
 70
0
 10
-4.5569479106
 20
13.2208996789
 10
-4.6193675421
 20
13.1834156489
 10
-4.6819631328
 20
13.1412184672
 10
-4.7444972562
 20
13.0943365411
 10
-4.8067829578
 20
13.0427685455
 10
-4.8684992466
 20
12.9866353381
 10
-4.9292043669
 20
12.9262200444
 10
-4.9886477228
 20
12.8616718987
 10
-5.0465579956
 20
12.7931819402
 10
-5.1024900726
 20
12.7211993498
 10
-5.1561971077
 20
12.6459929389
 10
-5.2074556149
 20
12.5678244907
 10
-5.255907057
 20
12.4872137403
 10
-5.3013598606
 20
12.4044808524
 10
-5.3436339779
 20
12.3199550791
 10
-5.3824566547
 20
12.2342181195
 10
-5.4177096913
 20
12.1476058401
 10
-5.4492792693
 20
12.0604798244
 10
-5.4769873911
 20
11.9734778564
 10
-5.5007935601
 20
11.8869551053
 10
-5.5206838903
 20
11.8012240305
 10
-5.536615634
 20
11.7168425509
 10
-5.5486263463
 20
11.6341821058
 10
-5.5567964048
 20
11.5534310261
 10
-5.5612033962
 20
11.4748391671
  0
LWPOLYLINE
  5
293
100
AcDbEntity
  8
ASSI
100
AcDbPolyline
 62
7
  6
CONTINUOUS
 90
43
 70
0
 10
-4.3505779314
 20
13.0578555296
 10
-4.387868365
 20
13.0360039005
 10
-4.4249526705
 20
13.0126696309
 10
-4.4618308481
 20
12.9878527206
 10
-4.4985479714
 20
12.9615188297
 10
-4.5350589666
 20
12.9337022982
 10
-4.5712286129
 20
12.9045061465
 10
-4.6070556444
 20
12.8739252589
 10
-4.6425413269
 20
12.8419647512
 10
-4.6775542367
 20
12.8087429914
 10
-4.7120926207
 20
12.7742553025
 10
-4.746158232
 20
12.7385063615
 10
-4.7796249062
 20
12.701628567
 10
-4.8124904224
 20
12.6636177331
 10
-4.8447570016
 20
12.6244780458
 10
-4.8763051421
 20
12.5843544616
 10
-4.90713218
 20
12.543243332
 10
-4.9372407794
 20
12.5011483056
 10
-4.9665194308
 20
12.4582252842
 10
-4.9949650568
 20
12.4144711974
 10
-5.0225807348
 20
12.3698891156
 10
-5.0492641885
 20
12.3246441516
 10
-5.0750119608
 20
12.2787338473
 10
-5.0998275086
 20
12.2321606609
 10
-5.1236189259
 20
12.1850970794
 10
-5.1463824149
 20
12.1375412842
 10
-5.1681217734
 20
12.089495094
 10
-5.188756488
 20
12.041136451
 10
-5.2082824627
 20
11.9924641966
 10
-5.2267037935
 20
11.9434794896
 10
-5.2439522559
 20
11.8943637481
 10
-5.2600235006
 20
11.8451164863
 10
-5.2749218767
 20
11.79573819
 10
-5.2885922073
 20
11.7464117352
 10
-5.3010299383
 20
11.6971373142
 10
-5.3122396237
 20
11.6479147347
 10
-5.3221797476
 20
11.598926296
 10
-5.3308456022
 20
11.5501728663
 10
-5.3382418954
 20
11.5016535773
 10
-5.3443412343
 20
11.4535481237
 10
-5.3491344881
 20
11.4059164037
 10
-5.3526307877
 20
11.3586985189
 10
-5.3548301331
 20
11.3118944695
  0
LWPOLYLINE
  5
294
100
AcDbEntity
  8
RACCORDO
100
AcDbPolyline
 62
253
  6
CONTINUOUS
 90
43
 70
0
 10
-3.6439831223
 20
12.7045581251
 10
-3.6816351667
 20
12.6829724414
 10
-3.7191691071
 20
12.6598423707
 10
-3.756539049
 20
12.6351969161
 10
-3.7936993089
 20
12.6090675857
 10
-3.8306044631
 20
12.5814864878
 10
-3.8672093658
 20
12.5524860894
 10
-3.9034700363
 20
12.5221017602
 10
-3.9393413005
 20
12.4903719201
 10
-3.9747768454
 20
12.4573360978
 10
-4.0097329391
 20
12.423035827
 10
-4.044167266
 20
12.3875134771
 10
-4.0780365372
 20
12.3508122392
 10
-4.1112993644
 20
12.312977688
 10
-4.1439150434
 20
12.2740569388
 10
-4.1758424035
 20
12.2340975485
 10
-4.2070424743
 20
12.1931490093
 10
-4.237477014
 20
12.1512623507
 10
-4.267107287
 20
12.1084892719
 10
-4.2958969449
 20
12.0648830359
 10
-4.3238109269
 20
12.0204976868
 10
-4.3508139832
 20
11.9753876448
 10
-4.3768730584
 20
11.9296088973
 10
-4.4019563378
 20
11.8832182821
 10
-4.4260321495
 20
11.8362727135
 10
-4.4490710806
 20
11.7888302651
 10
-4.4710449261
 20
11.7409499603
 10
-4.4919257405
 20
11.6926910519
 10
-4.5116878991
 20
11.6441135416
 10
-4.5303073838
 20
11.5952775225
 10
-4.54776072
 20
11.5462429665
 10
-4.5640265002
 20
11.4970707183
 10
-4.579084931
 20
11.4478216568
 10
-4.592917091
 20
11.3985560429
 10
-4.6055061277
 20
11.3493343398
 10
-4.6168365186
 20
11.3002181044
 10
-4.6268936745
 20
11.2512691335
 10
-4.6356651368
 20
11.2025490749
 10
-4.6431405426
 20
11.1541171886
 10
-4.6493107361
 20
11.1060312741
 10
-4.654168039
 20
11.0583501718
 10
-4.6577064368
 20
11.0111336449
 10
-4.6599215155
 20
10.9644401608
  0
LINE
  5
295
100
AcDbEntity
  8
RACCORDO
100
AcDbLine
 62
253
  6
CONTINUOUS
 10
-2.6840835974
 20
14.2775438019
 11
-4.5569479106
 21
13.2208996789
  0
LINE
  5
296
100
AcDbEntity
  8
ASSI
100
AcDbLine
 62
7
  6
CONTINUOUS
 10
-4.3505779314
 20
13.0578555296
 11
-2.471951563
 21
14.1177505244
  0
LINE
  5
297
100
AcDbEntity
  8
RACCORDO
100
AcDbLine
 62
7
  6
CONTINUOUS
 10
0.9866949586
 20
15.2083137958
 11
1.8767551413
 21
15.7056106067
  0
LINE
  5
298
100
AcDbEntity
  8
RACCORDO
100
AcDbLine
 62
253
  6
CONTINUOUS
 10
-3.6439831223
 20
12.7045581251
 11
0.8750480161
 21
15.1716300533
  0
LINE
  5
299
100
AcDbEntity
  8
RACCORDO
100
AcDbLine
 62
7
  6
CONTINUOUS
 10
7.493128072
 20
19.6061820517
 11
2.0015847438
 21
16.6433684408
  0
LWPOLYLINE
  5
29A
100
AcDbEntity
  8
RACCORDO
100
AcDbPolyline
 62
7
  6
CONTINUOUS
 90
13
 70
0
 10
0.9866949586
 20
15.2083137958
 10
0.978824667
 20
15.2041064876
 10
0.9706377979
 20
15.2000960783
 10
0.962149609
 20
15.1962893158
 10
0.9533753858
 20
15.1926963912
 10
0.9443320289
 20
15.1893196176
 10
0.9350381833
 20
15.1861532977
 10
0.9255112785
 20
15.1832056786
 10
0.9157693459
 20
15.1804785814
 10
0.9058328592
 20
15.1779558488
 10
0.8957213611
 20
15.1756345015
 10
0.8854532819
 20
15.1735248802
 10
0.8750480161
 20
15.1716300533
  0
LINE
  5
29B
100
AcDbEntity
  8
RACCORDO
100
AcDbLine
 62
7
  6
CONTINUOUS
 10
7.493128072
 20
19.1088520948
 11
2.1349767349
 21
16.2763017145
  0
LINE
  5
29C
100
AcDbEntity
  8
RACCORDO
100
AcDbLine
 62
253
  6
CONTINUOUS
 10
1.8767551413
 20
17.3080140803
 11
0.2754743505
 21
16.5052920768
  0
LINE
  5
29D
100
AcDbEntity
  8
RACCORDO
100
AcDbLine
 62
253
  6
CONTINUOUS
 10
2.405022313
 20
17.5714529003
 11
1.8767551413
 21
17.3080140803
  0
LINE
  5
29E
100
AcDbEntity
  8
RACCORDO
100
AcDbLine
 62
253
  6
CONTINUOUS
 10
2.5837542123
 20
16.0519129758
 11
1.8767551413
 21
15.7179693434
  0
LINE
  5
29F
100
AcDbEntity
  8
RACCORDO
100
AcDbLine
 62
253
  6
CONTINUOUS
 10
2.9374153131
 20
15.4419872852
 11
2.2195388902
 21
15.1029058491
  0
LINE
  5
2A0
100
AcDbEntity
  8
RACCORDO
100
AcDbLine
 62
253
  6
CONTINUOUS
 10
-14.4542914344
 20
-9.0998635895
 11
-10.1988306371
 21
-11.2275939881
  0
LINE
  5
2A1
100
AcDbEntity
  8
RACCORDO
100
AcDbLine
 62
253
  6
CONTINUOUS
 10
-13.7503282971
 20
-8.6615260828
 11
-10.3537898318
 21
-10.3597953154
  0
LINE
  5
2A2
100
AcDbEntity
  8
RACCORDO
100
AcDbLine
 62
253
  6
CONTINUOUS
 10
-15.2815201073
 20
-7.5300279793
 11
-14.468347309
 21
-7.9366143785
  0
LINE
  5
2A3
100
AcDbEntity
  8
RACCORDO
100
AcDbLine
 62
253
  6
CONTINUOUS
 10
-10.2126435477
 20
-10.0644662591
 11
-9.3994707493
 21
-10.4710526583
  0
LINE
  5
2A4
100
AcDbEntity
  8
DRAFT
100
AcDbLine
 62
7
  6
CONTINUOUS
 10
-13.0078426027
 20
-8.288839583
 11
-10.3619874973
 21
-9.6117671357
  0
LINE
  5
2A5
100
AcDbEntity
  8
IMPORT_IGES
100
AcDbLine
 62
7
  6
CONTINUOUS
 10
-10.360686639
 20
-9.534689364
 11
-13.0078426027
 21
-8.2111113822
  0
LINE
  5
2A6
100
AcDbEntity
  8
IMPORT_IGES
100
AcDbLine
 62
253
  6
CONTINUOUS
 10
-13.0078426027
 20
-8.0878332199
 11
-10.3382898983
 21
-9.4226095721
  0
LINE
  5
2A7
100
AcDbEntity
  8
IMPORT_IGES
100
AcDbLine
 62
7
  6
CONTINUOUS
 10
-10.3281512647
 20
-9.3970276422
 11
-12.6012562035
 21
-8.2604751728
  0
LINE
  5
2A8
100
AcDbEntity
  8
RACCORDO
100
AcDbLine
 62
253
  6
CONTINUOUS
 10
-14.5775430357
 20
-7.0928536611
 11
-13.7643702373
 21
-7.4994400603
  0
LINE
  5
2A9
100
AcDbEntity
  8
RACCORDO
100
AcDbLine
 62
253
  6
CONTINUOUS
 10
-10.2157463328
 20
-9.2737520125
 11
-9.5528762835
 21
-9.6051870372
  0
LWPOLYLINE
  5
2AA
100
AcDbEntity
  8
RACCORDO
100
AcDbPolyline
 62
253
  6
CONTINUOUS
 90
31
 70
0
 10
0.2754743505
 20
-25.1342859967
 10
0.2705958507
 20
-25.1266732364
 10
0.2652502091
 20
-25.1188367713
 10
0.259451619
 20
-25.1107977916
 10
0.2532149338
 20
-25.1025773024
 10
0.2465573396
 20
-25.0941983405
 10
0.2394986905
 20
-25.0856860476
 10
0.2320590348
 20
-25.0770645476
 10
0.2242579987
 20
-25.0683565343
 10
0.2161166793
 20
-25.0595855694
 10
0.2076571439
 20
-25.0507754569
 10
0.1989026071
 20
-25.0419504025
 10
0.1898771869
 20
-25.033134729
 10
0.1806056205
 20
-25.024352595
 10
0.1711131512
 20
-25.0156279077
 10
0.1614256829
 20
-25.0069844766
 10
0.1515696583
 20
-24.9984458973
 10
0.1415720125
 20
-24.9900355066
 10
0.1314600765
 20
-24.9817762977
 10
0.1212614785
 20
-24.973690836
 10
0.1110040668
 20
-24.9658011996
 10
0.1007158587
 20
-24.9581289385
 10
0.0904249402
 20
-24.9506949977
 10
0.0801594352
 20
-24.9435196939
 10
0.0699474293
 20
-24.9366226565
 10
0.0598168442
 20
-24.9300227391
 10
0.0497953184
 20
-24.9237379433
 10
0.0399101799
 20
-24.9177854055
 10
0.0301884143
 20
-24.9121813759
 10
0.0206565891
 20
-24.9069411697
 10
0.0113407385
 20
-24.9020790991
  0
LWPOLYLINE
  5
2AB
100
AcDbEntity
  8
RACCORDO
100
AcDbPolyline
 62
253
  6
CONTINUOUS
 90
31
 70
0
 10
-13.088843814
 20
23.187451159
 10
-13.0891389084
 20
23.1988793981
 10
-13.089915092
 20
23.2105200935
 10
-13.0911702394
 20
23.2223413272
 10
-13.0929009138
 20
23.2343106974
 10
-13.0951023716
 20
23.2463953732
 10
-13.0977685709
 20
23.2585621832
 10
-13.1008921976
 20
23.2707777572
 10
-13.1044646871
 20
23.2830086073
 10
-13.1084762384
 20
23.2952211844
 10
-13.1129158486
 20
23.3073819991
 10
-13.1177713427
 20
23.3194577087
 10
-13.1230294027
 20
23.3314151975
 10
-13.1286756154
 20
23.3432216925
 10
-13.1346944906
 20
23.3548448072
 10
-13.1410694968
 20
23.3662526287
 10
-13.1477831192
 20
23.3774138353
 10
-13.1548169696
 20
23.3882978767
 10
-13.1621518214
 20
23.3988750055
 10
-13.1697676653
 20
23.4091163476
 10
-13.1776435285
 20
23.4189936803
 10
-13.1857575705
 20
23.4284796383
 10
-13.1940873624
 20
23.4375480747
 10
-13.2026102051
 20
23.4461743501
 10
-13.2113029636
 20
23.4543350741
 10
-13.2201437516
 20
23.4620094943
 10
-13.2291064419
 20
23.4691747283
 10
-13.2381607471
 20
23.4758071319
 10
-13.2472797916
 20
23.4818883328
 10
-13.2564404101
 20
23.4874041861
 10
-13.2656175176
 20
23.4923406978
  0
LWPOLYLINE
  5
2AC
100
AcDbEntity
  8
RACCORDO
100
AcDbPolyline
 62
7
  6
CONTINUOUS
 90
33
 70
0
 10
-10.3491221738
 20
-10.7480175749
 10
-10.348831907
 20
-10.7607346858
 10
-10.3481651433
 20
-10.7759994236
 10
-10.3471495259
 20
-10.7913335929
 10
-10.3457842092
 20
-10.8067262276
 10
-10.3440936182
 20
-10.8221693009
 10
-10.3420788474
 20
-10.8376533747
 10
-10.3397395846
 20
-10.8531685742
 10
-10.3370974935
 20
-10.8687070941
 10
-10.3341536905
 20
-10.8842606351
 10
-10.3309083178
 20
-10.8998201995
 10
-10.327381031
 20
-10.9153775745
 10
-10.3235729957
 20
-10.9309253689
 10
-10.3194847546
 20
-10.9464553592
 10
-10.315134609
 20
-10.9619585541
 10
-10.3105238395
 20
-10.9774282708
 10
-10.3056533441
 20
-10.9928570228
 10
-10.3005405674
 20
-11.0082349679
 10
-10.2951868844
 20
-11.0235562533
 10
-10.2895936014
 20
-11.0388138539
 10
-10.2837779316
 20
-11.0539964661
 10
-10.2777414553
 20
-11.0690988888
 10
-10.2714858747
 20
-11.0841146596
 10
-10.2650286405
 20
-11.09903087
 10
-10.2583716078
 20
-11.1138429897
 10
-10.2515169183
 20
-11.1285450993
 10
-10.2444827009
 20
-11.1431225361
 10
-10.2372711939
 20
-11.1575714252
 10
-10.2298850017
 20
-11.1718864768
 10
-10.2223432536
 20
-11.1860513255
 10
-10.2146543673
 20
-11.2000579766
 10
-10.2068158139
 20
-11.2139067133
 10
-10.1988306371
 20
-11.2275939881
  0
LWPOLYLINE
  5
2AD
100
AcDbEntity
  8
RACCORDO
100
AcDbPolyline
 62
7
  6
CONTINUOUS
 90
33
 70
0
 10
-10.3622723112
 20
-9.5842444972
 10
-10.3619905831
 20
-9.5975837183
 10
-10.3613426686
 20
-9.6128372114
 10
-10.3603461941
 20
-9.6281610657
 10
-10.3590002892
 20
-9.643544303
 10
-10.3573293755
 20
-9.6589788754
 10
-10.3553345267
 20
-9.6744553327
 10
-10.3530154083
 20
-9.689963788
 10
-10.3503936803
 20
-9.705496419
 10
-10.3474704405
 20
-9.7210449144
 10
-10.3442458105
 20
-9.7366002645
 10
-10.3407394412
 20
-9.7521542423
 10
-10.3369524813
 20
-9.7676994447
 10
-10.3328854542
 20
-9.7832276365
 10
-10.3285566554
 20
-9.7987298136
 10
-10.3239673494
 20
-9.8141992816
 10
-10.3191184167
 20
-9.8296285417
 10
-10.314027294
 20
-9.8450077403
 10
-10.3086953419
 20
-9.8603310124
 10
-10.3031238499
 20
-9.8755913205
 10
-10.297330021
 20
-9.8907773492
 10
-10.2913154218
 20
-9.905883885
 10
-10.2850817389
 20
-9.9209044525
 10
-10.2786464097
 20
-9.9358261301
 10
-10.272011277
 20
-9.9506443748
 10
-10.2651784673
 20
-9.9653532531
 10
-10.2581660932
 20
-9.9799380869
 10
-10.2509763815
 20
-9.9943949877
 10
-10.2436119225
 20
-10.0087186508
 10
-10.2360918259
 20
-10.0228926921
 10
-10.2284244947
 20
-10.0369090998
 10
-10.2206073911
 20
-10.0507681432
 10
-10.2126435477
 20
-10.0644662591
  0
LWPOLYLINE
  5
2AE
100
AcDbEntity
  8
RACCORDO
100
AcDbPolyline
 62
7
  6
CONTINUOUS
 90
34
 70
0
 10
-11.4875630231
 20
23.9901731625
 10
-11.4877630792
 20
24.0005749711
 10
-11.4883633166
 20
24.0111533392
 10
-11.4893622746
 20
24.0218843573
 10
-11.4907575102
 20
24.0327438104
 10
-11.4925458584
 20
24.0437071029
 10
-11.4947234397
 20
24.0547493138
 10
-11.4972852642
 20
24.0658454607
 10
-11.5002254385
 20
24.0769704541
 10
-11.5035374335
 20
24.0880990246
 10
-11.5072137106
 20
24.0992059824
 10
-11.5112458709
 20
24.1102662036
 10
-11.5156248682
 20
24.1212545848
 10
-11.5203407687
 20
24.1321462424
 10
-11.5253828388
 20
24.1429165295
 10
-11.5307396994
 20
24.1535410208
 10
-11.5363992236
 20
24.1639956453
 10
-11.5423485616
 20
24.1742567354
 10
-11.5485742333
 20
24.1843010418
 10
-11.5550621658
 20
24.1941057967
 10
-11.5617976547
 20
24.2036487938
 10
-11.5687653939
 20
24.2129084341
 10
-11.575949651
 20
24.2218637165
 10
-11.5833341666
 20
24.2304943484
 10
-11.590902121
 20
24.2387808212
 10
-11.5986364425
 20
24.2467043285
 10
-11.6065196484
 20
24.2542469046
 10
-11.6145337479
 20
24.2613915283
 10
-11.6226606783
 20
24.2681219711
 10
-11.6308820893
 20
24.2744229596
 10
-11.639179186
 20
24.2802803069
 10
-11.6475331794
 20
24.2856807437
 10
-11.6559253285
 20
24.2906119483
 10
-11.6643367268
 20
24.2950627013
  0
LWPOLYLINE
  5
2AF
100
AcDbEntity
  8
RACCORDO
100
AcDbPolyline
 62
253
  6
CONTINUOUS
 90
31
 70
0
 10
-10.9592958514
 20
24.2536119825
 10
-10.9594860995
 20
24.2650926449
 10
-10.960163364
 20
24.2767827997
 10
-10.9613257909
 20
24.2886503937
 10
-10.9629701975
 20
24.3006628978
 10
-10.965092077
 20
24.3127873627
 10
-10.967685606
 20
24.3249905079
 10
-10.9707436695
 20
24.3372388636
 10
-10.9742578826
 20
24.3494988518
 10
-10.9782186043
 20
24.3617368437
 10
-10.982614971
 20
24.3739192802
 10
-10.9874349261
 20
24.3860127592
 10
-10.9926652492
 20
24.3979841165
 10
-10.998291603
 20
24.409800541
 10
-11.0042985516
 20
24.4214296189
 10
-11.0106695964
 20
24.4328394211
 10
-11.0173872332
 20
24.4439986205
 10
-11.0244330627
 20
24.4548766724
 10
-11.0317878252
 20
24.4654438458
 10
-11.0394314576
 20
24.4756712937
 10
-11.0473429107
 20
24.4855308315
 10
-11.0555002449
 20
24.4949951433
 10
-11.0638809111
 20
24.5040381426
 10
-11.0724620708
 20
24.5126352595
 10
-11.0812204304
 20
24.5207631829
 10
-11.0901339405
 20
24.5284012421
 10
-11.099176261
 20
24.535526661
 10
-11.1083168297
 20
24.5421159328
 10
-11.1175285026
 20
24.5481508196
 10
-11.1267878664
 20
24.5536173003
 10
-11.1360695551
 20
24.5585015213
  0
LINE
  5
2B0
100
AcDbEntity
  8
IMPORT_IGES
100
AcDbLine
 62
253
  6
CONTINUOUS
 10
-12.6012562035
 20
-8.2604751728
 11
-12.6012562035
 21
-6.9968545049
  0
LINE
  5
2B1
100
AcDbEntity
  8
RACCORDO
100
AcDbLine
 62
253
  6
CONTINUOUS
 10
-12.3776232059
 20
22.698973702
 11
-12.3776232059
 21
21.8913415802
  0
LINE
  5
2B2
100
AcDbEntity
  8
IMPORT_IGES
100
AcDbLine
 62
253
  6
CONTINUOUS
 10
-12.1769921348
 20
-6.7370468837
 11
-12.1769921348
 21
-8.1908599306
  0
LINE
  5
2B3
100
AcDbEntity
  8
IMPORT_IGES
100
AcDbLine
 62
7
  6
CONTINUOUS
 10
-11.8411164137
 20
-5.9101433532
 11
-11.8411164137
 21
-5.7736138944
  0
LINE
  5
2B4
100
AcDbEntity
  8
RACCORDO
100
AcDbLine
 62
7
  6
CONTINUOUS
 10
-11.4875630231
 20
22.3880225015
 11
-11.4875630231
 21
23.9901731625
  0
LINE
  5
2B5
100
AcDbEntity
  8
IMPORT_IGES
100
AcDbLine
 62
7
  6
CONTINUOUS
 10
-11.0456212849
 20
-6.4311690799
 11
-11.0456212849
 21
-7.2538932135
  0
LINE
  5
2B6
100
AcDbEntity
  8
RACCORDO
100
AcDbLine
 62
253
  6
CONTINUOUS
 10
-10.9592958514
 20
24.2536119825
 11
-10.9592958514
 21
23.9060804658
  0
LINE
  5
2B7
100
AcDbEntity
  8
RACCORDO
100
AcDbLine
 62
7
  6
CONTINUOUS
 10
-10.8870979944
 20
24.3414846147
 11
-10.8870979944
 21
23.993953098
  0
LINE
  5
2B8
100
AcDbEntity
  8
0
100
AcDbLine
 62
7
  6
CONTINUOUS
 10
-10.5329688685
 20
18.9760017516
 11
-10.5329688685
 21
18.2019864375
  0
LWPOLYLINE
  5
2B9
100
AcDbEntity
  8
RACCORDO
100
AcDbPolyline
 62
7
  6
CONTINUOUS
 90
15
 70
0
 10
-10.8870979944
 20
23.9939507858
 10
-10.8872577516
 20
23.9850170433
 10
-10.8880159055
 20
23.9725495237
 10
-10.8893976976
 20
23.9601217079
 10
-10.8914019491
 20
23.9477637777
 10
-10.8940253064
 20
23.9355093786
 10
-10.8972636608
 20
23.9233875791
 10
-10.9011109997
 20
23.9114295357
 10
-10.9055593651
 20
23.8996670273
 10
-10.9105998087
 20
23.8881297929
 10
-10.9162213527
 20
23.8768484048
 10
-10.9224113389
 20
23.8658529811
 10
-10.9291561778
 20
23.8551719721
 10
-10.9364405327
 20
23.8448337395
 10
-10.943936352
 20
23.8352439934
  0
LWPOLYLINE
  5
2BA
100
AcDbEntity
  8
RACCORDO
100
AcDbPolyline
 62
253
  6
CONTINUOUS
 90
16
 70
0
 10
-10.8870979944
 20
24.341484618
 10
-10.8873992649
 20
24.3353497858
 10
-10.8883789835
 20
24.3288468377
 10
-10.8900356725
 20
24.3223782734
 10
-10.892364824
 20
24.3159617067
 10
-10.8953601043
 20
24.3096145956
 10
-10.8990133632
 20
24.3033542188
 10
-10.9033146612
 20
24.2971976156
 10
-10.9082522938
 20
24.2911615452
 10
-10.9138128191
 20
24.2852624427
 10
-10.9199811082
 20
24.2795163613
 10
-10.9267403695
 20
24.2739389456
 10
-10.9340721833
 20
24.2685453933
 10
-10.9419565815
 20
24.2633503889
 10
-10.9503721072
 20
24.2583680654
 10
-10.9592958514
 20
24.2536119825
  0
LWPOLYLINE
  5
2BB
100
AcDbEntity
  8
RACCORDO
100
AcDbPolyline
 62
253
  6
CONTINUOUS
 90
16
 70
0
 10
-10.8870979944
 20
23.9939507858
 10
-10.8874009176
 20
23.987801475
 10
-10.8883821547
 20
23.9812997281
 10
-10.8900401124
 20
23.9748324091
 10
-10.8923702788
 20
23.9684171173
 10
-10.8953663144
 20
23.962071305
 10
-10.8990200709
 20
23.9558122329
 10
-10.9033216155
 20
23.9496569224
 10
-10.9082592412
 20
23.9436221307
 10
-10.9138194942
 20
23.9377242989
 10
-10.9199872277
 20
23.9319794846
 10
-10.9267456664
 20
23.926403305
 10
-10.934076437
 20
23.9210109167
 10
-10.9419596011
 20
23.9158169868
 10
-10.9503737037
 20
23.910835652
 10
-10.9592958514
 20
23.9060804658
  0
LINE
  5
2BC
100
AcDbEntity
  8
RACCORDO
100
AcDbLine
 62
7
  6
CONTINUOUS
 10
2.9320799808
 20
15.5189061005
 11
7.1725470792
 21
18.5671791083
  0
LINE
  5
2BD
100
AcDbEntity
  8
0
100
AcDbLine
 62
253
  6
CONTINUOUS
 10
7.2449837483
 20
18.7453228848
 11
2.9051304011
 21
15.6388523994
  0
LINE
  5
2BE
100
AcDbEntity
  8
IMPORT_IGES
100
AcDbLine
 62
7
  6
CONTINUOUS
 10
4.1783155892
 20
15.1623749225
 11
6.1010372151
 21
16.3220791876
  0
LINE
  5
2BF
100
AcDbEntity
  8
IMPORT_IGES
100
AcDbLine
 62
7
  6
CONTINUOUS
 10
6.5341634531
 20
16.1055160686
 11
5.2458863155
 21
15.3704131622
  0
LINE
  5
2C0
100
AcDbEntity
  8
IMPORT_IGES
100
AcDbLine
 62
7
  6
CONTINUOUS
 10
5.7452483216
 20
15.4821486826
 11
6.5341634531
 21
15.9323109878
  0
LWPOLYLINE
  5
2C1
100
AcDbEntity
  8
RACCORDO
100
AcDbPolyline
 62
253
  6
CONTINUOUS
 90
43
 70
0
 10
-3.2781503823
 20
12.1015556793
 10
-3.3034336508
 20
12.0872120644
 10
-3.3285803121
 20
12.0718768996
 10
-3.3535903661
 20
12.055550185
 10
-3.3784953256
 20
12.0382088189
 10
-3.4032636778
 20
12.0198759029
 10
-3.4278008847
 20
12.0006207426
 10
-3.4521053641
 20
11.9804402253
 10
-3.4761786982
 20
11.9593374636
 10
-3.4999310957
 20
11.9373911007
 10
-3.523361094
 20
11.9145982163
 10
-3.5464701558
 20
11.8909617308
 10
-3.5691728776
 20
11.8665690481
 10
-3.5914677978
 20
11.8414173444
 10
-3.6133563782
 20
11.8155094436
 10
-3.6347576008
 20
11.788941222
 10
-3.6556697365
 20
11.7617101161
 10
-3.6760945144
 20
11.7338186893
 10
-3.6959561041
 20
11.7053705087
 10
-3.7152523406
 20
11.6763636019
 10
-3.7339853888
 20
11.6467999411
 10
-3.7520859139
 20
11.61678901
 10
-3.7695515683
 20
11.586329165
 10
-3.7863846994
 20
11.5554220497
 10
-3.8025230146
 20
11.5241820775
 10
-3.8179639797
 20
11.4926079149
 10
-3.8327101288
 20
11.4607008955
 10
-3.8467067711
 20
11.4285794331
 10
-3.8599510722
 20
11.3962428466
 10
-3.8724458666
 20
11.3636918171
 10
-3.8841449664
 20
11.3310468022
 10
-3.8950454245
 20
11.2983075156
 10
-3.905150188
 20
11.2654742436
 10
-3.914421911
 20
11.2326683019
 10
-3.9228575637
 20
11.1998894337
 10
-3.9304601758
 20
11.1671378958
 10
-3.9372014912
 20
11.1345357754
 10
-3.9430782984
 20
11.1020822959
 10
-3.9480938089
 20
11.0697782339
 10
-3.9522294007
 20
11.0377480052
 10
-3.9554788664
 20
11.0060330818
 10
-3.9578484134
 20
10.9745919918
 10
-3.9593380416
 20
10.9434247351
  0
LINE
  5
2C2
100
AcDbEntity
  8
RACCORDO
100
AcDbLine
 62
253
  6
CONTINUOUS
 10
2.2195388902
 20
15.1029058491
 11
-3.2781503823
 21
12.1015556793
  0
LINE
  5
2C3
100
AcDbEntity
  8
IMPORT_IGES
100
AcDbLine
 62
7
  6
CONTINUOUS
 10
6.3480366848
 20
14.8135644507
 11
7.8285966622
 21
15.458299464
  0
LINE
  5
2C4
100
AcDbEntity
  8
IMPORT_IGES
100
AcDbLine
 62
7
  6
CONTINUOUS
 10
8.2521635237
 20
15.2465160333
 11
5.9395792811
 21
14.2817430766
  0
LINE
  5
2C5
100
AcDbEntity
  8
IMPORT_IGES
100
AcDbLine
 62
7
  6
CONTINUOUS
 10
5.9395792811
 20
14.1085379958
 11
8.2521635237
 21
15.0733109525
  0
LWPOLYLINE
  5
2C6
100
AcDbEntity
  8
RACCORDO
100
AcDbPolyline
 62
253
  6
CONTINUOUS
 90
34
 70
0
 10
-3.9593380416
 20
10.9434247351
 10
-3.9766323729
 20
10.9362972685
 10
-3.9946578344
 20
10.929583982
 10
-4.0133744941
 20
10.9232997476
 10
-4.0327408888
 20
10.9174584869
 10
-4.0527141158
 20
10.9120731402
 10
-4.0732499283
 20
10.9071556375
 10
-4.0943028329
 20
10.9027168728
 10
-4.115826191
 20
10.8987666793
 10
-4.1377723215
 20
10.8953138078
 10
-4.1600926069
 20
10.8923659076
 10
-4.1827376009
 20
10.8899295093
 10
-4.2056571378
 20
10.8880100101
 10
-4.2288004434
 20
10.8866116623
 10
-4.2521162484
 20
10.8857375639
 10
-4.2755529007
 20
10.885389651
 10
-4.2990584811
 20
10.8855686946
 10
-4.3225809171
 20
10.8862742979
 10
-4.3460680994
 20
10.8875048978
 10
-4.3694679964
 20
10.8892577681
 10
-4.3927287702
 20
10.8915290258
 10
-4.4157988907
 20
10.8943136392
 10
-4.4386272505
 20
10.8976054396
 10
-4.4611632777
 20
10.9013971346
 10
-4.483357048
 20
10.9056803243
 10
-4.505159395
 20
10.9104455203
 10
-4.52652202
 20
10.9156821661
 10
-4.547397598
 20
10.9213786609
 10
-4.5677398831
 20
10.9275223852
 10
-4.5875038107
 20
10.9340997287
 10
-4.6066455976
 20
10.9410961206
 10
-4.6251228388
 20
10.9484960617
 10
-4.6428946014
 20
10.9562831587
 10
-4.6599215154
 20
10.9644401608
  0
LINE
  5
2C7
100
AcDbEntity
  8
RACCORDO
100
AcDbLine
 62
253
  6
CONTINUOUS
 10
-17.2747048072
 20
-5.1597196154
 11
-15.2948058199
 21
-6.1496691091
  0
LINE
  5
2C8
100
AcDbEntity
  8
RACCORDO
100
AcDbLine
 62
253
  6
CONTINUOUS
 10
-9.4125268106
 20
-9.0908086137
 11
-7.4326278232
 21
-10.0807581074
  0
LINE
  5
2C9
100
AcDbEntity
  8
DRAFT
100
AcDbLine
 62
7
  6
CONTINUOUS
 10
-13.821015401
 20
-6.7131188888
 11
-13.0078426027
 21
-7.1197052879
  0
LINE
  5
2CA
100
AcDbEntity
  8
IMPORT_IGES
100
AcDbLine
 62
253
  6
CONTINUOUS
 10
-12.6012562035
 20
-6.9968545049
 11
-13.3967513323
 21
-6.5991069404
  0
LINE
  5
2CB
100
AcDbEntity
  8
RACCORDO
100
AcDbLine
 62
7
  6
CONTINUOUS
 10
7.4870115624
 20
-16.9031247633
 11
7.2449837483
 21
-16.7821108562
  0
LINE
  5
2CC
100
AcDbEntity
  8
RACCORDO
100
AcDbLine
 62
253
  6
CONTINUOUS
 10
-16.5707145646
 20
-4.7239255987
 11
-14.5908155773
 21
-5.7138750923
  0
LINE
  5
2CD
100
AcDbEntity
  8
RACCORDO
100
AcDbLine
 62
253
  6
CONTINUOUS
 10
-9.4156164247
 20
-8.3014746686
 11
-7.5841685381
 21
-9.2171986119
  0
LINE
  5
2CE
100
AcDbEntity
  8
IMPORT_IGES
100
AcDbLine
 62
253
  6
CONTINUOUS
 10
-12.9724872636
 20
-6.3392993193
 11
-12.1769921348
 21
-6.7370468837
  0
LINE
  5
2CF
100
AcDbEntity
  8
IMPORT_IGES
100
AcDbLine
 62
253
  6
CONTINUOUS
 10
-9.313209671
 20
-8.1689381156
 11
-9.2354060906
 21
-8.2078399058
  0
LINE
  5
2D0
100
AcDbEntity
  8
IMPORT_IGES
100
AcDbLine
 62
7
  6
CONTINUOUS
 10
-11.0456212849
 20
-7.2538932135
 11
-9.2643705758
 21
-8.144518568
  0
LINE
  5
2D1
100
AcDbEntity
  8
RACCORDO
100
AcDbLine
 62
253
  6
CONTINUOUS
 10
2.9374153131
 20
-14.188068312
 11
6.0408006822
 21
-15.7397609966
  0
LINE
  5
2D2
100
AcDbEntity
  8
RACCORDO
100
AcDbLine
 62
7
  6
CONTINUOUS
 10
2.9374153131
 20
-14.0651328279
 11
6.197860656
 21
-15.6953554994
  0
LINE
  5
2D3
100
AcDbEntity
  8
DRAFT
100
AcDbLine
 62
7
  6
CONTINUOUS
 10
-15.8009143884
 20
-4.337528749
 11
-13.821015401
 21
-5.3274782427
  0
LINE
  5
2D4
100
AcDbEntity
  8
DRAFT
100
AcDbLine
 62
7
  6
CONTINUOUS
 10
-8.6591358984
 20
-7.908417994
 11
-7.5888208065
 21
-8.44357554
  0
LINE
  5
2D5
100
AcDbEntity
  8
IMPORT_IGES
100
AcDbLine
 62
253
  6
CONTINUOUS
 10
-7.5903858363
 20
-8.1599503126
 11
-8.5177145421
 21
-7.6962859597
  0
LINE
  5
2D6
100
AcDbEntity
  8
IMPORT_IGES
100
AcDbLine
 62
253
  6
CONTINUOUS
 10
-13.3967513323
 20
-5.2567675646
 11
-15.3766503197
 21
-4.2668180709
  0
LINE
  5
2D7
100
AcDbEntity
  8
IMPORT_IGES
100
AcDbLine
 62
253
  6
CONTINUOUS
 10
-12.0532484481
 20
-5.8796799115
 11
-11.2577533192
 21
-6.277427476
  0
LINE
  5
2D8
100
AcDbEntity
  8
IMPORT_IGES
100
AcDbLine
 62
7
  6
CONTINUOUS
 10
-11.1235892406
 20
-6.2689069398
 11
-11.9190843694
 21
-5.8711593754
  0
LWPOLYLINE
  5
2D9
100
AcDbEntity
  8
IMPORT_IGES
100
AcDbPolyline
 62
7
  6
CONTINUOUS
 90
8
 70
0
 10
-11.1234490671
 20
-6.26905523
 10
-11.1077565732
 20
-6.2785289786
 10
-11.08976557
 20
-6.2947160706
 10
-11.0742708354
 20
-6.3152085888
 10
-11.0620329786
 20
-6.3391825474
 10
-11.0533055361
 20
-6.3663632845
 10
-11.0478349716
 20
-6.397025462
 10
-11.0456212849
 20
-6.4311690799
  0
LWPOLYLINE
  5
2DA
100
AcDbEntity
  8
RACCORDO
100
AcDbPolyline
 62
7
  6
CONTINUOUS
 90
27
 70
0
 10
-9.2631566123
 20
21.8742036838
 10
-9.2628806154
 20
21.8634398007
 10
-9.2620894313
 20
21.8515799507
 10
-9.2607776609
 20
21.8393671341
 10
-9.2589249031
 20
21.8268613291
 10
-9.2566020734
 20
21.8140843813
 10
-9.2538075371
 20
21.801079425
 10
-9.2505298391
 20
21.7878924464
 10
-9.2468220893
 20
21.7745349338
 10
-9.2426840742
 20
21.7610393702
 10
-9.2381098704
 20
21.7474419193
 10
-9.2331403783
 20
21.7337507314
 10
-9.2277759103
 20
21.7199915603
 10
-9.2220138656
 20
21.706193556
 10
-9.2158873115
 20
21.6923647759
 10
-9.2093967664
 20
21.678526456
 10
-9.2025417207
 20
21.6647029219
 10
-9.1953507092
 20
21.6509039619
 10
-9.1878244109
 20
21.6371476756
 10
-9.1799637715
 20
21.6234550483
 10
-9.171795332
 20
21.6098386836
 10
-9.1633198038
 20
21.5963140261
 10
-9.1545395326
 20
21.5829000467
 10
-9.1454818477
 20
21.5696138957
 10
-9.136157006
 20
21.5564716538
 10
-9.1265594087
 20
21.5434880036
 10
-9.1166924094
 20
21.530677256
  0
LWPOLYLINE
  5
2DB
100
AcDbEntity
  8
RACCORDO
100
AcDbPolyline
 62
7
  6
CONTINUOUS
 90
33
 70
0
 10
-9.5490995128
 20
-9.9908308966
 10
-9.5488177847
 20
-10.0041701173
 10
-9.5481698703
 20
-10.0194236105
 10
-9.5471733958
 20
-10.0347474648
 10
-9.5458274909
 20
-10.050130702
 10
-9.5441565771
 20
-10.0655652744
 10
-9.5421617284
 20
-10.0810417318
 10
-9.5398426099
 20
-10.0965501871
 10
-9.5372208819
 20
-10.112082818
 10
-9.5342976422
 20
-10.1276313134
 10
-9.5310730122
 20
-10.1431866635
 10
-9.5275666429
 20
-10.1587406414
 10
-9.523779683
 20
-10.1742858438
 10
-9.5197126559
 20
-10.1898140356
 10
-9.5153838571
 20
-10.2053162126
 10
-9.5107945511
 20
-10.2207856807
 10
-9.5059456184
 20
-10.2362149408
 10
-9.5008544957
 20
-10.2515941394
 10
-9.4955225436
 20
-10.2669174114
 10
-9.4899510516
 20
-10.2821777196
 10
-9.4841572226
 20
-10.2973637483
 10
-9.4781426235
 20
-10.3124702841
 10
-9.4719089406
 20
-10.3274908516
 10
-9.4654736114
 20
-10.3424125293
 10
-9.4588384787
 20
-10.3572307739
 10
-9.452005669
 20
-10.3719396522
 10
-9.4449932948
 20
-10.386524486
 10
-9.4378035831
 20
-10.4009813869
 10
-9.4304391242
 20
-10.41530505
 10
-9.4229190275
 20
-10.4294790912
 10
-9.4152516963
 20
-10.443495499
 10
-9.4074345928
 20
-10.4573545424
 10
-9.3994707493
 20
-10.4710526583
  0
LWPOLYLINE
  5
2DC
100
AcDbEntity
  8
RACCORDO
100
AcDbPolyline
 62
7
  6
CONTINUOUS
 90
33
 70
0
 10
-9.5613681484
 20
-8.6098316502
 10
-9.5610993564
 20
-8.6239017766
 10
-9.5604737223
 20
-8.6391418324
 10
-9.5594998784
 20
-8.6544533512
 10
-9.5581769249
 20
-8.6698253402
 10
-9.5565292793
 20
-8.6852497269
 10
-9.554557991
 20
-8.7007170467
 10
-9.5522626985
 20
-8.7162173987
 10
-9.549665058
 20
-8.7317429398
 10
-9.5467661448
 20
-8.7472853451
 10
-9.5435660562
 20
-8.7628355908
 10
-9.5400844376
 20
-8.7783854327
 10
-9.5363224174
 20
-8.7939274541
 10
-9.5322804965
 20
-8.8094534055
 10
-9.5279769631
 20
-8.8249542679
 10
-9.523413063
 20
-8.8404233334
 10
-9.5185896556
 20
-8.8558530885
 10
-9.5135241685
 20
-8.8712336659
 10
-9.5082179451
 20
-8.8865591865
 10
-9.5026722549
 20
-8.9018225983
 10
-9.4969042888
 20
-8.9170125714
 10
-9.4909155974
 20
-8.9321238783
 10
-9.4847078485
 20
-8.9471500279
 10
-9.478298464
 20
-8.9620780831
 10
-9.4716892717
 20
-8.9769034858
 10
-9.4648823805
 20
-8.9916202861
 10
-9.4578958834
 20
-9.0062137876
 10
-9.4507319936
 20
-9.0206800858
 10
-9.4433932849
 20
-9.0350138583
 10
-9.4358988433
 20
-9.0491986987
 10
-9.4282570547
 20
-9.0632265754
 10
-9.4204653707
 20
-9.077097741
 10
-9.4125268106
 20
-9.0908086137
  0
LWPOLYLINE
  5
2DD
100
AcDbEntity
  8
IMPORT_IGES
100
AcDbPolyline
 62
7
  6
CONTINUOUS
 90
9
 70
0
 10
-8.6055824008
 20
-7.4062720597
 10
-8.6054297142
 20
-7.417326961
 10
-8.6028287117
 20
-7.4533091026
 10
-8.5969527191
 20
-7.4912295948
 10
-8.5877684533
 20
-7.5308195459
 10
-8.5752251716
 20
-7.5713748782
 10
-8.5593116258
 20
-7.6125223457
 10
-8.5401035623
 20
-7.6542286972
 10
-8.5177145421
 20
-7.6962859597
  0
LINE
  5
2DE
100
AcDbEntity
  8
RACCORDO
100
AcDbLine
 62
253
  6
CONTINUOUS
 10
-10.1988306371
 20
-11.2275939881
 11
-10.2066769843
 21
-10.5937752702
  0
LINE
  5
2DF
100
AcDbEntity
  8
RACCORDO
100
AcDbLine
 62
7
  6
CONTINUOUS
 10
-10.3599837055
 20
-9.8039537019
 11
-10.3491191793
 21
-10.7480168207
  0
LINE
  5
2E0
100
AcDbEntity
  8
RACCORDO
100
AcDbLine
 62
253
  6
CONTINUOUS
 10
-10.2066769843
 20
-10.5937752702
 11
-10.2126435477
 21
-10.0644662591
  0
LINE
  5
2E1
100
AcDbEntity
  8
RACCORDO
100
AcDbLine
 62
253
  6
CONTINUOUS
 10
-9.3994707493
 20
-10.4710526583
 11
-9.4055636117
 21
-9.8738218122
  0
LINE
  5
2E2
100
AcDbEntity
  8
RACCORDO
100
AcDbLine
 62
7
  6
CONTINUOUS
 10
-9.5575718617
 20
-9.0825557229
 11
-9.549096282
 21
-9.9908300886
  0
LWPOLYLINE
  5
2E3
100
AcDbEntity
  8
RACCORDO
100
AcDbPolyline
 62
253
  6
CONTINUOUS
 90
3
 70
0
 10
-9.4055636117
 20
-9.8738218122
 10
-9.4111695169
 20
-9.2542273001
 10
-9.4125268106
 20
-9.0908086137
  0
LINE
  5
2E4
100
AcDbEntity
  8
RACCORDO
100
AcDbLine
 62
7
  6
CONTINUOUS
 10
-9.5613646562
 20
-8.6098307843
 11
-9.5575718617
 21
-9.0825557229
  0
LINE
  5
2E5
100
AcDbEntity
  8
RACCORDO
100
AcDbLine
 62
7
  6
CONTINUOUS
 10
-9.2631390188
 20
21.873747087
 11
-9.2631390188
 21
20.6335580544
  0
LINE
  5
2E6
100
AcDbEntity
  8
RACCORDO
100
AcDbLine
 62
253
  6
CONTINUOUS
 10
-9.1166924094
 20
21.530677256
 11
-9.1166924094
 21
20.4500939452
  0
LINE
  5
2E7
100
AcDbEntity
  8
IMPORT_IGES
100
AcDbLine
 62
7
  6
CONTINUOUS
 10
-8.6055825078
 20
-7.4086862935
 11
-8.6055825078
 21
-7.9351946893
  0
LINE
  5
2E8
100
AcDbEntity
  8
IMPORT_IGES
100
AcDbLine
 62
253
  6
CONTINUOUS
 10
-8.5177145421
 20
-7.6962859597
 11
-8.5177145421
 21
-7.9791286721
  0
LINE
  5
2E9
100
AcDbEntity
  8
RACCORDO
100
AcDbLine
 62
253
  6
CONTINUOUS
 10
1.8767551413
 20
16.5809692278
 11
2.405022313
 21
17.2239213836
  0
LINE
  5
2EA
100
AcDbEntity
  8
RACCORDO
100
AcDbLine
 62
7
  6
CONTINUOUS
 10
1.8767551413
 20
16.4914387615
 11
2.4203828854
 21
17.153086217
  0
LWPOLYLINE
  5
2EB
100
AcDbEntity
  8
RACCORDO
100
AcDbPolyline
 62
7
  6
CONTINUOUS
 90
30
 70
0
 10
0.9866949586
 20
16.0168146198
 10
0.9788158356
 20
16.0076802165
 10
0.9705955865
 20
15.9986827756
 10
0.9620377253
 20
15.989843789
 10
0.9531392948
 20
15.9811872591
 10
0.9439128598
 20
15.9727325799
 10
0.9343862855
 20
15.9644946872
 10
0.9245660972
 20
15.9564959336
 10
0.9144601989
 20
15.9487580568
 10
0.904099416
 20
15.941295517
 10
0.8934928947
 20
15.9341307391
 10
0.8826509833
 20
15.9272854338
 10
0.8716072062
 20
15.9207734622
 10
0.8603733578
 20
15.9146169431
 10
0.848962407
 20
15.9088372792
 10
0.8374105865
 20
15.9034477557
 10
0.8257324546
 20
15.898469798
 10
0.8139437231
 20
15.8939241007
 10
0.8020834091
 20
15.8898233156
 10
0.7901689614
 20
15.8861876901
 10
0.7782189481
 20
15.883036705
 10
0.7662752705
 20
15.8803821688
 10
0.7543584209
 20
15.8782425364
 10
0.7424898537
 20
15.8766353989
 10
0.7307142751
 20
15.8755712381
 10
0.7190554546
 20
15.8750659328
 10
0.7075375174
 20
15.8751342989
 10
0.6962071648
 20
15.8757846973
 10
0.6851019024
 20
15.8770280901
 10
0.6742375506
 20
15.8788755855
  0
LINE
  5
2EC
100
AcDbEntity
  8
IMPORT_IGES
100
AcDbLine
 62
7
  6
CONTINUOUS
 10
4.5712955083
 20
16.6635104587
 11
4.7537498953
 21
16.8225177667
  0
LINE
  5
2ED
100
AcDbEntity
  8
IMPORT_IGES
100
AcDbLine
 62
7
  6
CONTINUOUS
 10
3.9274230842
 20
16.1091368846
 11
4.2058326496
 21
16.3453804955
  0
LWPOLYLINE
  5
2EE
100
AcDbEntity
  8
RACCORDO
100
AcDbPolyline
 62
7
  6
CONTINUOUS
 90
5
 70
0
 10
-5.4777410232
 20
7.1096371419
 10
-5.48383174
 20
7.1049096669
 10
-5.5073675314
 20
7.0889620091
 10
-5.5316535519
 20
7.0750316856
 10
-5.5351534725
 20
7.0732407563
  0
LINE
  5
2EF
100
AcDbEntity
  8
0
100
AcDbLine
 62
7
  6
CONTINUOUS
 10
2.9740037211
 20
11.5420438195
 11
3.0000029703
 21
11.5562417358
  0
LWPOLYLINE
  5
2F0
100
AcDbEntity
  8
0
100
AcDbPolyline
 62
7
  6
CONTINUOUS
 90
7
 70
0
 10
2.9740037211
 20
11.4554412791
 10
2.9869701448
 20
11.4621404433
 10
2.9992061563
 20
11.4689069337
 10
3.0107117556
 20
11.4757407505
 10
3.0214869427
 20
11.4826418935
 10
3.0315317175
 20
11.4896103629
 10
3.0408460802
 20
11.4966461585
  0
LINE
  5
2F1
100
AcDbEntity
  8
IMPORT_IGES
100
AcDbLine
 62
7
  6
CONTINUOUS
 10
6.3693177705
 20
14.0667465526
 11
8.4905101277
 21
15.1273427313
  0
LINE
  5
2F2
100
AcDbEntity
  8
IMPORT_IGES
100
AcDbLine
 62
7
  6
CONTINUOUS
 10
8.9332593819
 20
14.9059681042
 11
6.8120670247
 21
13.8453719255
  0
LINE
  5
2F3
100
AcDbEntity
  8
IMPORT_IGES
100
AcDbLine
 62
7
  6
CONTINUOUS
 10
8.9332593819
 20
14.7327630234
 11
7.0130861299
 21
13.7726763974
  0
LINE
  5
2F4
100
AcDbEntity
  8
IMPORT_IGES
100
AcDbLine
 62
7
  6
CONTINUOUS
 10
6.9764997569
 20
13.7543832109
 11
6.8120670247
 21
13.6721668448
  0
LINE
  5
2F5
100
AcDbEntity
  8
0
100
AcDbLine
 62
7
  6
CONTINUOUS
 10
3.4903677976
 20
11.8231753763
 11
3.5175448558
 21
11.8367639053
  0
LINE
  5
2F6
100
AcDbEntity
  8
0
100
AcDbLine
 62
7
  6
CONTINUOUS
 10
3.4903677976
 20
11.7365728359
 11
3.5175448558
 21
11.750161365
  0
LINE
  5
2F7
100
AcDbEntity
  8
RACCORDO
100
AcDbLine
 62
7
  6
CONTINUOUS
 10
-5.5348464564
 20
7.0733925612
 11
-5.4779405351
 21
7.1018455218
  0
LINE
  5
2F8
100
AcDbEntity
  8
IMPORT_IGES
100
AcDbLine
 62
253
  6
CONTINUOUS
 10
11.738154814
 20
15.5830263884
 11
11.6970107885
 21
15.5624546873
  0
LINE
  5
2F9
100
AcDbEntity
  8
IMPORT_IGES
100
AcDbLine
 62
7
  6
CONTINUOUS
 10
3.3094667886
 20
12.1780913982
 11
3.2168260812
 21
12.13415135
  0
LWPOLYLINE
  5
2FA
100
AcDbEntity
  8
RACCORDO
100
AcDbPolyline
 62
7
  6
CONTINUOUS
 90
3
 70
0
 10
-5.5351534725
 20
7.0732407563
 10
-5.5567530095
 20
7.0633976988
 10
-5.5826298739
 20
7.0543444814
  0
LWPOLYLINE
  5
2FB
100
AcDbEntity
  8
IMPORT_IGES
100
AcDbPolyline
 62
253
  6
CONTINUOUS
 90
6
 70
0
 10
11.6970313615
 20
15.2796165183
 10
11.7152337188
 20
15.287276584
 10
11.7330718244
 20
15.2919169794
 10
11.7502556652
 20
15.2934926506
 10
11.7664312559
 20
15.2920249605
 10
11.7814367137
 20
15.287584995
  0
LWPOLYLINE
  5
2FC
100
AcDbEntity
  8
0
100
AcDbPolyline
 62
7
  6
CONTINUOUS
 90
3
 70
0
 10
2.9374153131
 20
11.4388748341
 10
2.9456871763
 20
11.4422451764
 10
2.9740037211
 20
11.4554412791
  0
LWPOLYLINE
  5
2FD
100
AcDbEntity
  8
0
100
AcDbPolyline
 62
7
  6
CONTINUOUS
 90
3
 70
0
 10
2.9374153131
 20
11.5255841457
 10
2.9443114203
 20
11.5283745641
 10
2.9740037211
 20
11.5420438195
  0
LWPOLYLINE
  5
2FE
100
AcDbEntity
  8
IMPORT_IGES
100
AcDbPolyline
 62
253
  6
CONTINUOUS
 90
5
 70
0
 10
7.9134803367
 20
12.5169739313
 10
7.9254062419
 20
12.5216965867
 10
7.9370588544
 20
12.5238073062
 10
7.948091015
 20
12.5231968007
 10
7.9581289041
 20
12.5198515631
  0
LINE
  5
2FF
100
AcDbEntity
  8
IMPORT_IGES
100
AcDbLine
 62
253
  6
CONTINUOUS
 10
5.9550832771
 20
-8.5108472154
 11
5.6081879623
 21
-8.5463521647
  0
LINE
  5
300
100
AcDbEntity
  8
IMPORT_IGES
100
AcDbLine
 62
7
  6
CONTINUOUS
 10
5.6981318991
 20
-8.5832326265
 11
5.3857469878
 21
-8.6149375106
  0
LWPOLYLINE
  5
301
100
AcDbEntity
  8
IMPORT_IGES
100
AcDbPolyline
 62
7
  6
CONTINUOUS
 90
7
 70
0
 10
-11.9189441959
 20
-5.8713076656
 10
-11.9238132036
 20
-5.8690277761
 10
-11.9468709736
 20
-5.8615795643
 10
-11.9714417129
 20
-5.8588766816
 10
-11.9971976553
 20
-5.8610657624
 10
-12.024466567
 20
-5.8680001724
 10
-12.0532484481
 20
-5.8796799115
  0
LINE
  5
302
100
AcDbEntity
  8
IMPORT_IGES
100
AcDbLine
 62
253
  6
CONTINUOUS
 10
-8.5177145421
 20
-7.2243463042
 11
-7.5923359472
 21
-7.6870356017
  0
LINE
  5
303
100
AcDbEntity
  8
IMPORT_IGES
100
AcDbLine
 62
253
  6
CONTINUOUS
 10
-12.9724872636
 20
-4.9969599434
 11
-14.9523862509
 21
-4.0070104498
  0
LWPOLYLINE
  5
304
100
AcDbEntity
  8
RACCORDO
100
AcDbPolyline
 62
7
  6
CONTINUOUS
 90
33
 70
0
 10
-7.5814691605
 20
-9.5997811475
 10
-7.5812003686
 20
-9.6138512696
 10
-7.5805747344
 20
-9.6290913254
 10
-7.5796008905
 20
-9.6444028441
 10
-7.578277937
 20
-9.6597748331
 10
-7.5766302913
 20
-9.6751992199
 10
-7.574659003
 20
-9.6906665397
 10
-7.5723637106
 20
-9.7061668916
 10
-7.56976607
 20
-9.7216924327
 10
-7.5668671568
 20
-9.737234838
 10
-7.5636670682
 20
-9.7527850837
 10
-7.5601854495
 20
-9.7683349256
 10
-7.5564234293
 20
-9.7838769469
 10
-7.5523815084
 20
-9.7994028984
 10
-7.5480779749
 20
-9.8149037608
 10
-7.5435140748
 20
-9.8303728262
 10
-7.5386906673
 20
-9.8458025813
 10
-7.5336251801
 20
-9.8611831587
 10
-7.5283189567
 20
-9.8765086793
 10
-7.5227732664
 20
-9.891772091
 10
-7.5170053002
 20
-9.9069620641
 10
-7.5110166088
 20
-9.9220733709
 10
-7.5048088598
 20
-9.9370995204
 10
-7.4983994751
 20
-9.9520275755
 10
-7.4917902826
 20
-9.9668529781
 10
-7.4849833912
 20
-9.9815697783
 10
-7.4779968937
 20
-9.9961632796
 10
-7.4708330031
 20
-10.0106295771
 10
-7.4634942934
 20
-10.0249633489
 10
-7.4559998515
 20
-10.0391481891
 10
-7.4483580637
 20
-10.0531760664
 10
-7.4405663813
 20
-10.0670472331
 10
-7.4326278232
 20
-10.0807581074
  0
LWPOLYLINE
  5
305
100
AcDbEntity
  8
RACCORDO
100
AcDbPolyline
 62
253
  6
CONTINUOUS
 90
13
 70
0
 10
-7.4326278232
 20
-10.0807581074
 10
-7.4370018606
 20
-9.505720031
 10
-7.4408066454
 20
-8.9214571881
 10
-7.4440125646
 20
-8.3279555558
 10
-7.4465811198
 20
-7.7273713178
 10
-7.4484952498
 20
-7.1175223933
 10
-7.4497342435
 20
-6.4918757789
 10
-7.4502432317
 20
-5.8496746729
 10
-7.4499644393
 20
-5.1916220468
 10
-7.4488320595
 20
-4.513354389
 10
-7.4467655869
 20
-3.8133892541
 10
-7.4436877459
 20
-3.0931342372
 10
-7.4395181234
 20
-2.3525516349
  0
LWPOLYLINE
  5
306
100
AcDbEntity
  8
RACCORDO
100
AcDbPolyline
 62
7
  6
CONTINUOUS
 90
10
 70
0
 10
-7.5878235373
 20
-2.48416661
 10
-7.5906710761
 20
-3.0275825863
 10
-7.5940688934
 20
-3.8913062049
 10
-7.5960777385
 20
-4.7543314792
 10
-7.596697601
 20
-5.6166550099
 10
-7.5959284735
 20
-6.4782733779
 10
-7.5937703514
 20
-7.3391831466
 10
-7.5902232403
 20
-8.1993809185
 10
-7.585287148
 20
-9.0588633221
 10
-7.5814656684
 20
-9.5997802817
  0
LWPOLYLINE
  5
307
100
AcDbEntity
  8
RACCORDO
100
AcDbPolyline
 62
7
  6
CONTINUOUS
 90
29
 70
0
 10
-7.5878279627
 20
-2.4841640508
 10
-7.5878201768
 20
-2.4838840538
 10
-7.5875587722
 20
-2.4821593011
 10
-7.5869484184
 20
-2.4802261448
 10
-7.5859900969
 20
-2.4780948663
 10
-7.5846828877
 20
-2.4757770837
 10
-7.5830512056
 20
-2.4732683034
 10
-7.5810960831
 20
-2.4705779556
 10
-7.5788171403
 20
-2.4677166476
 10
-7.5762360304
 20
-2.4646801211
 10
-7.5733538137
 20
-2.461477102
 10
-7.5701705705
 20
-2.4581173728
 10
-7.5667059424
 20
-2.4545970695
 10
-7.5629610441
 20
-2.4509243596
 10
-7.5589363607
 20
-2.4471083606
 10
-7.5546501756
 20
-2.4431457435
 10
-7.5501037215
 20
-2.4390442459
 10
-7.5452978435
 20
-2.4348124485
 10
-7.5402499628
 20
-2.4304476463
 10
-7.5349614111
 20
-2.4259571694
 10
-7.5294334441
 20
-2.4213492257
 10
-7.5236832442
 20
-2.416622003
 10
-7.5177123513
 20
-2.4117825312
 10
-7.5115224199
 20
-2.4068387142
 10
-7.5051308613
 20
-2.4017898184
 10
-7.4985394932
 20
-2.396642604
 10
-7.4917504122
 20
-2.391404755
 10
-7.4847816976
 20
-2.3860768468
 10
-7.4776355524
 20
-2.3806653982
  0
LWPOLYLINE
  5
308
100
AcDbEntity
  8
IMPORT_IGES
100
AcDbPolyline
 62
7
  6
CONTINUOUS
 90
3
 70
0
 10
-9.3952875825
 20
-8.2909120872
 10
-9.3899242348
 20
-8.2679239281
 10
-9.3803047276
 20
-8.2417036504
  0
LWPOLYLINE
  5
309
100
AcDbEntity
  8
0
100
AcDbPolyline
 62
7
  6
CONTINUOUS
 90
4
 70
0
 10
3.0420147916
 20
11.584177729
 10
3.0577933701
 20
11.597870072
 10
3.0702430563
 20
11.6114091353
 10
3.0800658306
 20
11.6249321208
  0
LWPOLYLINE
  5
30A
100
AcDbEntity
  8
0
100
AcDbPolyline
 62
7
  6
CONTINUOUS
 90
10
 70
0
 10
3.0408460802
 20
11.4966461585
 10
3.0517340406
 20
11.5058548381
 10
3.0613578676
 20
11.5150434463
 10
3.0697175614
 20
11.5242119832
 10
3.076770687
 20
11.5333553536
 10
3.0825596793
 20
11.5424786527
 10
3.0872118427
 20
11.5515971657
 10
3.0907696117
 20
11.5607159876
 10
3.0931905518
 20
11.5698300234
 10
3.0944746629
 20
11.5789392731
  0
LWPOLYLINE
  5
30B
100
AcDbEntity
  8
0
100
AcDbPolyline
 62
7
  6
CONTINUOUS
 90
3
 70
0
 10
3.0000029703
 20
11.5562417358
 10
3.0226733271
 20
11.5702863723
 10
3.0420147916
 20
11.584177729
  0
LWPOLYLINE
  5
30C
100
AcDbEntity
  8
IMPORT_IGES
100
AcDbPolyline
 62
253
  6
CONTINUOUS
 90
10
 70
0
 10
7.5599294441
 20
12.3401985845
 10
7.5480037892
 20
12.3329949418
 10
7.5363513644
 20
12.3234527244
 10
7.5253193326
 20
12.3118098236
 10
7.5152643169
 20
12.2984008963
 10
7.5064832289
 20
12.2835755683
 10
7.4992299458
 20
12.2676685472
 10
7.4937779408
 20
12.2511141371
 10
7.4903802732
 20
12.2344553919
 10
7.4892183674
 20
12.218239465
  0
LWPOLYLINE
  5
30D
100
AcDbEntity
  8
IMPORT_IGES
100
AcDbPolyline
 62
253
  6
CONTINUOUS
 90
10
 70
0
 10
11.590182599
 20
14.355325162
 10
11.5782565425
 20
14.3481217986
 10
11.5666038161
 20
14.338579816
 10
11.5555715796
 20
14.3269370874
 10
11.5455164927
 20
14.3135282223
 10
11.5367354392
 20
14.298702864
 10
11.5294821928
 20
14.2827958109
 10
11.5240301877
 20
14.2662414009
 10
11.5206325201
 20
14.2495826556
 10
11.5194706143
 20
14.2333667288
  0
LWPOLYLINE
  5
30E
100
AcDbEntity
  8
IMPORT_IGES
100
AcDbPolyline
 62
253
  6
CONTINUOUS
 90
16
 70
0
 10
11.6970107885
 20
15.5624546873
 10
11.6672547692
 20
15.5451884577
 10
11.6419088239
 20
15.5274147307
 10
11.6209729527
 20
15.5091335063
 10
11.6045646791
 20
15.4902912315
 10
11.5925664796
 20
15.4709414592
 10
11.5846257833
 20
15.4512448485
 10
11.5806302879
 20
15.4310139791
 10
11.5806922957
 20
15.4104362713
 10
11.5847961429
 20
15.3902346453
 10
11.592834303
 20
15.3706038974
 10
11.6049143026
 20
15.3513492312
 10
11.6213430573
 20
15.3326091774
 10
11.6422228723
 20
15.314429913
 10
11.6674514425
 20
15.296765261
 10
11.6970287678
 20
15.2796152215
  0
LWPOLYLINE
  5
30F
100
AcDbEntity
  8
IMPORT_IGES
100
AcDbPolyline
 62
253
  6
CONTINUOUS
 90
3
 70
0
 10
5.8399850603
 20
10.8767350194
 10
5.8658590281
 20
10.8914868223
 10
5.8725949384
 20
10.8965273233
  0
LINE
  5
310
100
AcDbEntity
  8
IMPORT_IGES
100
AcDbLine
 62
253
  6
CONTINUOUS
 10
11.8211865575
 20
15.3104199895
 11
11.8384371264
 21
15.3198073837
  0
LWPOLYLINE
  5
311
100
AcDbEntity
  8
IMPORT_IGES
100
AcDbPolyline
 62
253
  6
CONTINUOUS
 90
16
 70
0
 10
11.8384135677
 20
15.3202896216
 10
11.8813851195
 20
15.3430924301
 10
11.9264250467
 20
15.3644193587
 10
11.9735333493
 20
15.3842704074
 10
12.0226708313
 20
15.4029898777
 10
12.0738766888
 20
15.4202334681
 10
12.1272685098
 20
15.4349682743
 10
12.1835142118
 20
15.4472757767
 10
12.2419458774
 20
15.457074495
 10
12.3006773426
 20
15.4630870835
 10
12.3593370623
 20
15.4651965647
 10
12.4182965816
 20
15.4635199161
 10
12.476784372
 20
15.4571307249
 10
12.5345432574
 20
15.4457201866
 10
12.5918304139
 20
15.4295971057
 10
12.6486458415
 20
15.408761482
  0
LINE
  5
312
100
AcDbEntity
  8
IMPORT_IGES
100
AcDbLine
 62
7
  6
CONTINUOUS
 10
4.6921482554
 20
11.4867506648
 11
4.3804179222
 21
11.3308774074
  0
LINE
  5
313
100
AcDbEntity
  8
IMPORT_IGES
100
AcDbLine
 62
253
  6
CONTINUOUS
 10
4.7677523508
 20
11.4489486171
 11
4.4560220176
 21
11.2930753597
  0
LINE
  5
314
100
AcDbEntity
  8
IMPORT_IGES
100
AcDbLine
 62
253
  6
CONTINUOUS
 10
5.0924181207
 20
10.9748773082
 11
5.4041484539
 21
11.1307505656
  0
LINE
  5
315
100
AcDbEntity
  8
IMPORT_IGES
100
AcDbLine
 62
253
  6
CONTINUOUS
 10
13.1463769264
 20
14.5549437359
 11
7.4697078766
 21
11.7166064886
  0
LINE
  5
316
100
AcDbEntity
  8
IMPORT_IGES
100
AcDbLine
 62
253
  6
CONTINUOUS
 10
5.8399850603
 20
10.8767350194
 11
5.4766718743
 21
10.6950689968
  0
LINE
  5
317
100
AcDbEntity
  8
IMPORT_IGES
100
AcDbLine
 62
253
  6
CONTINUOUS
 10
13.2524632203
 20
14.4671200255
 11
7.5640185824
 21
11.6229043881
  0
LINE
  5
318
100
AcDbEntity
  8
IMPORT_IGES
100
AcDbLine
 62
7
  6
CONTINUOUS
 10
5.927853026
 20
10.638034617
 11
6.1587166885
 21
10.7534664483
  0
LINE
  5
319
100
AcDbEntity
  8
IMPORT_IGES
100
AcDbLine
 62
7
  6
CONTINUOUS
 10
6.2246210012
 20
10.7205142919
 11
5.9463275558
 21
10.5813675692
  0
LINE
  5
31A
100
AcDbEntity
  8
IMPORT_IGES
100
AcDbLine
 62
253
  6
CONTINUOUS
 10
13.5674819331
 20
14.2019892195
 11
13.721272717
 21
14.2788838576
  0
LINE
  5
31B
100
AcDbEntity
  8
IMPORT_IGES
100
AcDbLine
 62
7
  6
CONTINUOUS
 10
6.6013365646
 20
10.5321565102
 11
6.3735616507
 21
10.4182631415
  0
LINE
  5
31C
100
AcDbEntity
  8
IMPORT_IGES
100
AcDbLine
 62
253
  6
CONTINUOUS
 10
6.67694066
 20
10.4943544625
 11
6.4491657461
 21
10.3804610938
  0
LINE
  5
31D
100
AcDbEntity
  8
IMPORT_IGES
100
AcDbLine
 62
7
  6
CONTINUOUS
 10
3.8321430632
 20
9.4484132764
 11
6.1118113276
 21
10.549138303
  0
LINE
  5
31E
100
AcDbEntity
  8
IMPORT_IGES
100
AcDbLine
 62
7
  6
CONTINUOUS
 10
6.3568898365
 20
10.6543798743
 11
6.2642491291
 21
10.6104398261
  0
LWPOLYLINE
  5
31F
100
AcDbEntity
  8
IMPORT_IGES
100
AcDbPolyline
 62
253
  6
CONTINUOUS
 90
8
 70
0
 10
13.2524671797
 20
14.4671152445
 10
13.2697827309
 20
14.4751976832
 10
13.2859161328
 20
14.4813809532
 10
13.3003999583
 20
14.4854382196
 10
13.3126892185
 20
14.4872445641
 10
13.3227254671
 20
14.4868792785
 10
13.3306668306
 20
14.4843147669
 10
13.335545549
 20
14.4803612859
  0
LWPOLYLINE
  5
320
100
AcDbEntity
  8
IMPORT_IGES
100
AcDbPolyline
 62
7
  6
CONTINUOUS
 90
18
 70
0
 10
14.2135463096
 20
13.6713805932
 10
14.2108500619
 20
13.6701698178
 10
14.2032926369
 20
13.6677036724
 10
14.1923430954
 20
13.6655588034
 10
14.1780733951
 20
13.6643551479
 10
14.1605386558
 20
13.6646303099
 10
14.1402652302
 20
13.6668329403
 10
14.1178760357
 20
13.6712201714
 10
14.0937439114
 20
13.6779603884
 10
14.0684605265
 20
13.687092425
 10
14.0427859411
 20
13.6984628944
 10
14.0172365868
 20
13.7118741403
 10
13.9920979355
 20
13.7271857194
 10
13.9676177877
 20
13.7442675375
 10
13.9443395361
 20
13.7627285206
 10
13.9222908549
 20
13.7825239038
 10
13.901059589
 20
13.8041503266
 10
13.8875660523
 20
13.8195050112
  0
LWPOLYLINE
  5
321
100
AcDbEntity
  8
IMPORT_IGES
100
AcDbPolyline
 62
253
  6
CONTINUOUS
 90
10
 70
0
 10
14.5569516164
 20
13.843083244
 10
14.5625752057
 20
13.8456000238
 10
14.5789304494
 20
13.8501158175
 10
14.5968667692
 20
13.8511320792
 10
14.6161615973
 20
13.8484266421
 10
14.6364047406
 20
13.8418545814
 10
14.6570713595
 20
13.8314378715
 10
14.6776798955
 20
13.8173141018
 10
14.6978090639
 20
13.7996646315
 10
14.716983996
 20
13.778782093
  0
LINE
  5
322
100
AcDbEntity
  8
IMPORT_IGES
100
AcDbLine
 62
7
  6
CONTINUOUS
 10
4.2426461224
 20
10.8957461374
 11
2.9374153131
 21
10.3208592257
  0
LINE
  5
323
100
AcDbEntity
  8
IMPORT_IGES
100
AcDbLine
 62
7
  6
CONTINUOUS
 10
2.9374153131
 20
9.15172493
 11
3.6237050962
 21
9.4540002144
  0
LWPOLYLINE
  5
324
100
AcDbEntity
  8
IMPORT_IGES
100
AcDbPolyline
 62
253
  6
CONTINUOUS
 90
14
 70
0
 10
14.3737663201
 20
13.6071724857
 10
14.3405024921
 20
13.5943378152
 10
14.3060753855
 20
13.5853666667
 10
14.270485
 20
13.58025904
 10
14.2336641024
 20
13.5790723311
 10
14.195679926
 20
13.5817491441
 10
14.1567341711
 20
13.5881172915
 10
14.1163215344
 20
13.5982532805
 10
14.0749473192
 20
13.6120806038
 10
14.0343291359
 20
13.6291975525
 10
13.9952452669
 20
13.6492797697
 10
13.9569174297
 20
13.6726516123
 10
13.918728388
 20
13.6998844419
 10
13.8804723961
 20
13.7311687126
  0
LINE
  5
325
100
AcDbEntity
  8
IMPORT_IGES
100
AcDbLine
 62
7
  6
CONTINUOUS
 10
2.9374153131
 20
-7.8598958147
 11
3.7599726272
 21
-8.0231878209
  0
LINE
  5
326
100
AcDbEntity
  8
IMPORT_IGES
100
AcDbLine
 62
253
  6
CONTINUOUS
 10
3.7505881114
 20
-7.7799415204
 11
2.9374153131
 21
-7.6185125046
  0
LINE
  5
327
100
AcDbEntity
  8
IMPORT_IGES
100
AcDbLine
 62
253
  6
CONTINUOUS
 10
5.1691755004
 20
-8.599104839
 11
5.1437342902
 21
-8.5938291218
  0
LWPOLYLINE
  5
328
100
AcDbEntity
  8
IMPORT_IGES
100
AcDbPolyline
 62
7
  6
CONTINUOUS
 90
5
 70
0
 10
5.1428260383
 20
-8.5935717443
 10
5.2170747467
 20
-8.6099293885
 10
5.2856123626
 20
-8.6172534178
 10
5.3511970488
 20
-8.6174946989
 10
5.388204794
 20
-8.6146886448
  0
LINE
  5
329
100
AcDbEntity
  8
IMPORT_IGES
100
AcDbLine
 62
253
  6
CONTINUOUS
 10
5.4368979593
 20
-8.4155730945
 11
4.6493965423
 21
-8.1945582192
  0
LINE
  5
32A
100
AcDbEntity
  8
IMPORT_IGES
100
AcDbLine
 62
7
  6
CONTINUOUS
 10
5.1437342902
 20
-8.5938291218
 11
4.3556263034
 21
-8.3726429115
  0
LWPOLYLINE
  5
32B
100
AcDbEntity
  8
RACCORDO
100
AcDbPolyline
 62
253
  6
CONTINUOUS
 90
43
 70
0
 10
-3.9593380416
 20
-24.6361998927
 10
-3.957847828
 20
-24.6659341611
 10
-3.9554777413
 20
-24.6950911246
 10
-3.9522277815
 20
-24.7236707832
 10
-3.9480917616
 20
-24.7517081515
 10
-3.9430758686
 20
-24.779168215
 10
-3.9371986634
 20
-24.8059459288
 10
-3.9304569107
 20
-24.8320378764
 10
-3.9228538458
 20
-24.8574474745
 10
-3.9144177352
 20
-24.8820799282
 10
-3.9051455522
 20
-24.9059320604
 10
-3.8950403235
 20
-24.9290070483
 10
-3.8841393967
 20
-24.951219628
 10
-3.8724398249
 20
-24.9725666607
 10
-3.8599445549
 20
-24.9930512852
 10
-3.8466997749
 20
-25.0125976543
 10
-3.8327026418
 20
-25.0312023589
 10
-3.8179559987
 20
-25.0488688082
 10
-3.8025145633
 20
-25.0655313823
 10
-3.786375802
 20
-25.0811862921
 10
-3.7695422483
 20
-25.0958373267
 10
-3.7520762209
 20
-25.1094302339
 10
-3.7339753827
 20
-25.1219610959
 10
-3.7152420708
 20
-25.1334338305
 10
-3.695945615
 20
-25.1438059388
 10
-3.6760838576
 20
-25.1530733608
 10
-3.6556589562
 20
-25.1612401566
 10
-3.6347467142
 20
-25.1682760074
 10
-3.6133453912
 20
-25.1741766855
 10
-3.5914567276
 20
-25.1789464187
 10
-3.5691617471
 20
-25.1825675721
 10
-3.5464589935
 20
-25.185035912
 10
-3.5233499232
 20
-25.1863556721
 10
-3.4999199285
 20
-25.186521918
 10
-3.4761675433
 20
-25.1855303114
 10
-3.4520942338
 20
-25.1833851906
 10
-3.4277897918
 20
-25.1800946356
 10
-3.4032522427
 20
-25.1756538504
 10
-3.3784835612
 20
-25.1700676311
 10
-3.3535794629
 20
-25.1633584456
 10
-3.3285718529
 20
-25.1555337834
 10
-3.303428826
 20
-25.1465861552
 10
-3.2781503823
 20
-25.1365155608
  0
LWPOLYLINE
  5
32C
100
AcDbEntity
  8
RACCORDO
100
AcDbPolyline
 62
253
  6
CONTINUOUS
 90
25
 70
0
 10
-4.6599215155
 20
-24.6507997068
 10
-4.6577064215
 20
-24.6953295263
 10
-4.6541680013
 20
-24.739089179
 10
-4.6493106745
 20
-24.7820246141
 10
-4.6431404648
 20
-24.8240822745
 10
-4.6356650538
 20
-24.8652108147
 10
-4.6268935875
 20
-24.9053610273
 10
-4.6168364223
 20
-24.9444841492
 10
-4.6055060208
 20
-24.9825308554
 10
-4.5929169722
 20
-25.0194529653
 10
-4.5790847972
 20
-25.055204551
 10
-4.564026349
 20
-25.0897418942
 10
-4.5477605542
 20
-25.1230223632
 10
-4.5303072112
 20
-25.1550049677
 10
-4.5116877249
 20
-25.1856501778
 10
-4.4919255638
 20
-25.2149199209
 10
-4.4710447432
 20
-25.2427782217
 10
-4.4490708899
 20
-25.2691906026
 10
-4.4260319495
 20
-25.2941238787
 10
-4.4019561257
 20
-25.3175473195
 10
-4.3768728323
 20
-25.339432176
 10
-4.3508137455
 20
-25.3597510646
 10
-4.3238106834
 20
-25.3784790412
 10
-4.2958966986
 20
-25.3955930963
 10
-4.2665399353
 20
-25.4113557452
  0
LWPOLYLINE
  5
32D
100
AcDbEntity
  8
ASSI
100
AcDbPolyline
 62
7
  6
CONTINUOUS
 90
10
 70
0
 10
-5.4818086739
 20
6.9507815643
 10
-5.4694209692
 20
7.4345635063
 10
-5.4566029958
 20
7.9185424445
 10
-5.4433547536
 20
8.4027183791
 10
-5.429676225
 20
8.8870919189
 10
-5.4155674277
 20
9.3716624549
 10
-5.4010284145
 20
9.8564281607
 10
-5.3860592032
 20
10.3413884273
 10
-5.370659776
 20
10.8265438636
 10
-5.3548301331
 20
11.3118944695
  0
LWPOLYLINE
  5
32E
100
AcDbEntity
  8
RACCORDO
100
AcDbPolyline
 62
253
  6
CONTINUOUS
 90
22
 70
0
 10
-4.6599215155
 20
10.9644401608
 10
-4.7151201659
 20
9.2426474205
 10
-4.7648013434
 20
7.5232715459
 10
-4.8089642987
 20
5.8063389339
 10
-4.8476083746
 20
4.0918759512
 10
-4.8807329796
 20
2.3799089098
 10
-4.9083375883
 20
0.6704640662
 10
-4.93042178
 20
-1.0364323422
 10
-4.9469852261
 20
-2.7407541095
 10
-4.9580276637
 20
-4.4424750856
 10
-4.9635489219
 20
-6.1415691486
 10
-4.9635489219
 20
-7.8380102197
 10
-4.9580276637
 20
-9.5317722748
 10
-4.9469852261
 20
-11.2228293223
 10
-4.93042178
 20
-12.9111554028
 10
-4.9083375883
 20
-14.5967246029
 10
-4.8807329796
 20
-16.2795110538
 10
-4.8476083746
 20
-17.9594889303
 10
-4.8089642987
 20
-19.636632449
 10
-4.7648013434
 20
-21.3109158719
 10
-4.7151201659
 20
-22.9823135071
 10
-4.6599215155
 20
-24.6507997068
  0
LWPOLYLINE
  5
32F
100
AcDbEntity
  8
RACCORDO
100
AcDbPolyline
 62
253
  6
CONTINUOUS
 90
22
 70
0
 10
-3.9593380416
 20
10.9434247351
 10
-4.0144835362
 20
9.2233108511
 10
-4.0641156265
 20
7.5056638996
 10
-4.1082343127
 20
5.7904838804
 10
-4.1468401039
 20
4.0777444985
 10
-4.179932491
 20
2.3674720491
 10
-4.2075099461
 20
0.659745417
 10
-4.2295722137
 20
-1.0454352339
 10
-4.2461195492
 20
-2.7480700673
 10
-4.2571511911
 20
-4.44808069
 10
-4.2626668854
 20
-6.145466978
 10
-4.262666886
 20
-7.8402290552
 10
-4.257151193
 20
-9.5322888998
 10
-4.2461195523
 20
-11.2216463906
 10
-4.2295722181
 20
-12.9083016487
 10
-4.2075099517
 20
-14.5921770163
 10
-4.1799324984
 20
-16.2732723965
 10
-4.146840113
 20
-17.9515878862
 10
-4.108234322
 20
-19.6270461174
 10
-4.0641156341
 20
-21.2996213009
 10
-4.0144835407
 20
-22.969339226
 10
-3.9593380416
 20
-24.6361998927
  0
LWPOLYLINE
  5
330
100
AcDbEntity
  8
RACCORDO
100
AcDbPolyline
 62
253
  6
CONTINUOUS
 90
10
 70
0
 10
-5.5612033962
 20
11.4748391671
 10
-5.576875536
 20
10.9934905805
 10
-5.5921245337
 20
10.5123329491
 10
-5.6069503713
 20
10.031366849
 10
-5.6213530195
 20
9.5505932576
 10
-5.6353324738
 20
9.0700123489
 10
-5.6488887513
 20
8.5896234957
 10
-5.6620218436
 20
8.1094268739
 10
-5.6747317207
 20
7.6294234612
 10
-5.6870183642
 20
7.1496138337
  0
LWPOLYLINE
  5
331
100
AcDbEntity
  8
RACCORDO
100
AcDbPolyline
 62
253
  6
CONTINUOUS
 90
27
 70
0
 10
0.2754743505
 20
16.1653181426
 10
0.2705903333
 20
16.1533494844
 10
0.2652397299
 20
16.1416562804
 10
0.2594371515
 20
16.1302704621
 10
0.2531984439
 20
16.1192231219
 10
0.2465406436
 20
16.1085444277
 10
0.2394819316
 20
16.098263541
 10
0.2320415839
 20
16.0884085365
 10
0.2242399184
 20
16.0790063262
 10
0.2160982399
 20
16.0700825857
 10
0.2076387817
 20
16.0616616838
 10
0.1988846446
 20
16.0537666161
 10
0.1898597345
 20
16.0464189426
 10
0.1805886964
 20
16.0396387281
 10
0.1710968477
 20
16.0334444879
 10
0.1614101085
 20
16.0278531373
 10
0.1515549314
 20
16.0228799451
 10
0.1415582288
 20
16.018538492
 10
0.1314472995
 20
16.0148406336
 10
0.1212497545
 20
16.011796468
 10
0.110993441
 20
16.0094143082
 10
0.1007063668
 20
16.0077006593
 10
0.090416624
 20
16.006660201
 10
0.0801523115
 20
16.0062957745
 10
0.0699414591
 20
16.0066083751
 10
0.0598119505
 20
16.0075971489
 10
0.0497914472
 20
16.0092593961
  0
LWPOLYLINE
  5
332
100
AcDbEntity
  8
IMPORT_IGES
100
AcDbPolyline
 62
7
  6
CONTINUOUS
 90
5
 70
0
 10
-9.3803047276
 20
-8.2417036504
 10
-9.3676555192
 20
-8.218473962
 10
-9.3520485503
 20
-8.1984661725
 10
-9.333825109
 20
-8.1818923053
 10
-9.313209671
 20
-8.1689381156
  0
LINE
  5
333
100
AcDbEntity
  8
IMPORT_IGES
100
AcDbLine
 62
7
  6
CONTINUOUS
 10
7.2136527647
 20
15.7657714128
 11
6.3480366848
 21
14.8135644507
  0
LINE
  5
334
100
AcDbEntity
  8
IMPORT_IGES
100
AcDbLine
 62
7
  6
CONTINUOUS
 10
6.6086652267
 20
14.9270595802
 11
7.2136527647
 21
15.592566332
  0
LINE
  5
335
100
AcDbEntity
  8
IMPORT_IGES
100
AcDbLine
 62
7
  6
CONTINUOUS
 10
5.4971956011
 20
14.5029349166
 11
6.2367444414
 21
15.3107824938
  0
LINE
  5
336
100
AcDbEntity
  8
IMPORT_IGES
100
AcDbLine
 62
7
  6
CONTINUOUS
 10
8.2399242124
 20
13.1315706109
 11
9.2956063524
 21
14.0637247318
  0
LINE
  5
337
100
AcDbEntity
  8
RACCORDO
100
AcDbLine
 62
7
  6
CONTINUOUS
 10
-17.2585757801
 20
-5.1480672041
 11
-17.2747048072
 21
-5.1597196154
  0
LINE
  5
338
100
AcDbEntity
  8
RACCORDO
100
AcDbLine
 62
7
  6
CONTINUOUS
 10
-17.2415751323
 20
-5.1359229246
 11
-17.2585757801
 21
-5.1480672041
  0
LINE
  5
339
100
AcDbEntity
  8
RACCORDO
100
AcDbLine
 62
7
  6
CONTINUOUS
 10
-17.2236966544
 20
-5.1233133962
 11
-17.2415751323
 21
-5.1359229246
  0
LINE
  5
33A
100
AcDbEntity
  8
RACCORDO
100
AcDbLine
 62
7
  6
CONTINUOUS
 10
-17.2049769258
 20
-5.110259654
 11
-17.2236966544
 21
-5.1233133962
  0
LINE
  5
33B
100
AcDbEntity
  8
IMPORT_IGES
100
AcDbLine
 62
7
  6
CONTINUOUS
 10
-15.3766503197
 20
-4.2668180709
 11
-15.3243857724
 21
-4.2304844107
  0
LINE
  5
33C
100
AcDbEntity
  8
RACCORDO
100
AcDbLine
 62
7
  6
CONTINUOUS
 10
-17.1854465597
 20
-5.0967806681
 11
-17.2049769258
 21
-5.110259654
  0
LWPOLYLINE
  5
33D
100
AcDbEntity
  8
IMPORT_IGES
100
AcDbPolyline
 62
7
  6
CONTINUOUS
 90
13
 70
0
 10
-15.3243857724
 20
-4.2304844107
 10
-15.2961867981
 20
-4.2110935342
 10
-15.266693834
 20
-4.1915137968
 10
-15.2362468649
 20
-4.1719710148
 10
-15.2054575891
 20
-4.1524239548
 10
-15.1745934491
 20
-4.1331624582
 10
-15.1437876058
 20
-4.1144582059
 10
-15.1134055976
 20
-4.0962333719
 10
-15.0836450642
 20
-4.0787241375
 10
-15.0546972656
 20
-4.0621680055
 10
-15.0268799589
 20
-4.0465223663
 10
-15.0004301771
 20
-4.0319359832
 10
-14.9755241159
 20
-4.018703426
  0
LINE
  5
33E
100
AcDbEntity
  8
RACCORDO
100
AcDbLine
 62
7
  6
CONTINUOUS
 10
-17.1546741648
 20
-5.0758216396
 11
-17.1854465597
 21
-5.0967806681
  0
LINE
  5
33F
100
AcDbEntity
  8
RACCORDO
100
AcDbLine
 62
7
  6
CONTINUOUS
 10
-17.1222172364
 20
-5.0540392946
 11
-17.1546741648
 21
-5.0758216396
  0
LINE
  5
340
100
AcDbEntity
  8
RACCORDO
100
AcDbLine
 62
7
  6
CONTINUOUS
 10
-17.0881676261
 20
-5.0315098373
 11
-17.1222172364
 21
-5.0540392946
  0
LINE
  5
341
100
AcDbEntity
  8
RACCORDO
100
AcDbLine
 62
7
  6
CONTINUOUS
 10
-17.0526177512
 20
-5.00830974
 11
-17.0881676261
 21
-5.0315098373
  0
LINE
  5
342
100
AcDbEntity
  8
RACCORDO
100
AcDbLine
 62
7
  6
CONTINUOUS
 10
-17.0156624928
 20
-4.9845174983
 11
-17.0526177512
 21
-5.00830974
  0
LINE
  5
343
100
AcDbEntity
  8
RACCORDO
100
AcDbLine
 62
7
  6
CONTINUOUS
 10
-16.9773992284
 20
-4.9602141852
 11
-17.0156624928
 21
-4.9845174983
  0
LINE
  5
344
100
AcDbEntity
  8
RACCORDO
100
AcDbLine
 62
7
  6
CONTINUOUS
 10
-16.9379309096
 20
-4.935485997
 11
-16.9773992284
 21
-4.9602141852
  0
LINE
  5
345
100
AcDbEntity
  8
RACCORDO
100
AcDbLine
 62
7
  6
CONTINUOUS
 10
-16.8973715196
 20
-4.910428269
 11
-16.9379309096
 21
-4.935485997
  0
LINE
  5
346
100
AcDbEntity
  8
RACCORDO
100
AcDbLine
 62
7
  6
CONTINUOUS
 10
-16.8558531628
 20
-4.8851504592
 11
-16.8973715196
 21
-4.910428269
  0
LINE
  5
347
100
AcDbEntity
  8
RACCORDO
100
AcDbLine
 62
7
  6
CONTINUOUS
 10
-16.8135364811
 20
-4.8597831235
 11
-16.8558531628
 21
-4.8851504592
  0
LINE
  5
348
100
AcDbEntity
  8
RACCORDO
100
AcDbLine
 62
7
  6
CONTINUOUS
 10
-16.7849801353
 20
-4.8429038886
 11
-16.8135364811
 21
-4.8597831235
  0
LINE
  5
349
100
AcDbEntity
  8
RACCORDO
100
AcDbLine
 62
7
  6
CONTINUOUS
 10
-16.7562353326
 20
-4.8261174356
 11
-16.7849801353
 21
-4.8429038886
  0
LINE
  5
34A
100
AcDbEntity
  8
RACCORDO
100
AcDbLine
 62
7
  6
CONTINUOUS
 10
-16.7274129317
 20
-4.8094821334
 11
-16.7562353326
 21
-4.8261174356
  0
LWPOLYLINE
  5
34B
100
AcDbEntity
  8
IMPORT_IGES
100
AcDbPolyline
 62
7
  6
CONTINUOUS
 90
10
 70
0
 10
5.5977315892
 20
8.2224765865
 10
5.5852770237
 20
8.2153592884
 10
5.5731190188
 20
8.2071510173
 10
5.5612575744
 20
8.1978517734
 10
5.549613477
 20
8.1873786266
 10
5.5382659402
 20
8.175814507
 10
5.5274526049
 20
8.1634082037
 10
5.5172526847
 20
8.1502426466
 10
5.507586966
 20
8.136234906
 10
5.4984554487
 20
8.1213849817
  0
LWPOLYLINE
  5
34C
100
AcDbEntity
  8
IMPORT_IGES
100
AcDbPolyline
 62
253
  6
CONTINUOUS
 90
8
 70
0
 10
15.6483959974
 20
13.8090201843
 10
15.6656528567
 20
13.8187556232
 10
15.6801905033
 20
13.8295990114
 10
15.6917616385
 20
13.8413566347
 10
15.7001687514
 20
13.8538398994
 10
15.7052710615
 20
13.8668127142
 10
15.7069844165
 20
13.8799954121
 10
15.7069650666
 20
13.8814153067
  0
LWPOLYLINE
  5
34D
100
AcDbEntity
  8
IMPORT_IGES
100
AcDbPolyline
 62
7
  6
CONTINUOUS
 90
10
 70
0
 10
4.9223395537
 20
8.8151505551
 10
4.8915931221
 20
8.7978693975
 10
4.8613525443
 20
8.777675313
 10
4.8316178203
 20
8.7545683016
 10
4.8020738704
 20
8.7282200001
 10
4.7730357742
 20
8.6989587718
 10
4.7454487705
 20
8.6677697068
 10
4.719627939
 20
8.6349811683
 10
4.6952582
 20
8.6002647932
 10
4.6723395536
 20
8.5636205813
  0
LWPOLYLINE
  5
34E
100
AcDbEntity
  8
IMPORT_IGES
100
AcDbPolyline
 62
7
  6
CONTINUOUS
 90
10
 70
0
 10
4.760451421
 20
8.9842590972
 10
4.7110397256
 20
8.9570257318
 10
4.6620057003
 20
8.924726062
 10
4.6137217129
 20
8.8876063232
 10
4.5665537
 20
8.8459498167
 10
4.5208605959
 20
8.8000735821
 10
4.4769916119
 20
8.7503259684
 10
4.4352806358
 20
8.697085547
 10
4.3960436906
 20
8.6407582419
 10
4.3595787474
 20
8.5817730592
  0
LINE
  5
34F
100
AcDbEntity
  8
IMPORT_IGES
100
AcDbLine
 62
253
  6
CONTINUOUS
 10
3.2763689574
 20
6.7224728553
 11
2.9374153131
 21
6.5527407063
  0
LINE
  5
350
100
AcDbEntity
  8
IMPORT_IGES
100
AcDbLine
 62
253
  6
CONTINUOUS
 10
2.9374153131
 20
6.0808891369
 11
3.5759783772
 21
6.4006698859
  0
LINE
  5
351
100
AcDbEntity
  8
IMPORT_IGES
100
AcDbLine
 62
253
  6
CONTINUOUS
 10
7.0032797357
 20
10.103404099
 11
5.4129065442
 21
9.3082175033
  0
LINE
  5
352
100
AcDbEntity
  8
IMPORT_IGES
100
AcDbLine
 62
7
  6
CONTINUOUS
 10
14.2135377353
 20
13.6713763878
 11
14.556830598
 21
13.8430228711
  0
LINE
  5
353
100
AcDbEntity
  8
IMPORT_IGES
100
AcDbLine
 62
253
  6
CONTINUOUS
 10
7.0829755897
 20
10.0609698454
 11
7.3133367631
 21
10.176156411
  0
LINE
  5
354
100
AcDbEntity
  8
IMPORT_IGES
100
AcDbLine
 62
253
  6
CONTINUOUS
 10
14.3737663201
 20
13.6071724857
 11
14.7169888182
 21
13.7787837348
  0
LINE
  5
355
100
AcDbEntity
  8
IMPORT_IGES
100
AcDbLine
 62
7
  6
CONTINUOUS
 10
4.9223395457
 20
8.8154470614
 11
7.7777418866
 21
10.2431482318
  0
LINE
  5
356
100
AcDbEntity
  8
IMPORT_IGES
100
AcDbLine
 62
253
  6
CONTINUOUS
 10
15.4103593982
 20
13.4552910535
 11
8.349851453
 21
9.9250702889
  0
LINE
  5
357
100
AcDbEntity
  8
IMPORT_IGES
100
AcDbLine
 62
253
  6
CONTINUOUS
 10
15.5163931048
 20
13.1818084634
 11
5.5977315892
 21
8.2224765865
  0
LINE
  5
358
100
AcDbEntity
  8
IMPORT_IGES
100
AcDbLine
 62
7
  6
CONTINUOUS
 10
5.3856318505
 20
8.5838009011
 11
8.2459774997
 21
10.0062078512
  0
LINE
  5
359
100
AcDbEntity
  8
IMPORT_IGES
100
AcDbLine
 62
253
  6
CONTINUOUS
 10
5.4129065442
 20
9.3082175033
 11
4.7604514215
 21
8.9842590975
  0
LWPOLYLINE
  5
35A
100
AcDbEntity
  8
IMPORT_IGES
100
AcDbPolyline
 62
253
  6
CONTINUOUS
 90
13
 70
0
 10
4.6548625862
 20
6.5590040401
 10
4.6257806153
 20
6.5461911461
 10
4.5937514092
 20
6.5353115384
 10
4.559329932
 20
6.5265274917
 10
4.523283505
 20
6.5199909396
 10
4.4860478375
 20
6.5157395176
 10
4.447667278
 20
6.5138099097
 10
4.4085291888
 20
6.5143279548
 10
4.3695404797
 20
6.5173892293
 10
4.3315383141
 20
6.5230026229
 10
4.2952740187
 20
6.5311166765
 10
4.2614101675
 20
6.5416463841
 10
4.2306343711
 20
6.5544519822
  0
LWPOLYLINE
  5
35B
100
AcDbEntity
  8
IMPORT_IGES
100
AcDbPolyline
 62
253
  6
CONTINUOUS
 90
13
 70
0
 10
4.2251647823
 20
-8.1900401054
 10
4.2546200536
 20
-8.2035490592
 10
4.2872070199
 20
-8.2150223849
 10
4.322372922
 20
-8.2242613496
 10
4.3595242027
 20
-8.2311056733
 10
4.3980232751
 20
-8.2354337847
 10
4.4371980702
 20
-8.2371680639
 10
4.4763762293
 20
-8.236278264
 10
4.5148879848
 20
-8.232779115
 10
4.55206431
 20
-8.226731755
 10
4.5872665077
 20
-8.2182418062
 10
4.6198962368
 20
-8.2074553973
 10
4.6493965423
 20
-8.1945582192
  0
LWPOLYLINE
  5
35C
100
AcDbEntity
  8
IMPORT_IGES
100
AcDbPolyline
 62
7
  6
CONTINUOUS
 90
10
 70
0
 10
4.3031327381
 20
-8.3523022455
 10
4.3090636641
 20
-8.355186659
 10
4.3150652499
 20
-8.3579438749
 10
4.3211341991
 20
-8.3605717134
 10
4.3272691707
 20
-8.3630689056
 10
4.3334646316
 20
-8.3654325706
 10
4.3397109324
 20
-8.3676587638
 10
4.3460025175
 20
-8.3697455894
 10
4.3523378522
 20
-8.3716926561
 10
4.3558189843
 20
-8.3726977672
  0
LINE
  5
35D
100
AcDbEntity
  8
RACCORDO
100
AcDbLine
 62
7
  6
CONTINUOUS
 10
-7.5878397174
 20
-2.4872543735
 11
-16.8762839219
 21
2.1569677288
  0
LINE
  5
35E
100
AcDbEntity
  8
IMPORT_IGES
100
AcDbLine
 62
7
  6
CONTINUOUS
 10
4.3031327381
 20
-8.3523022455
 11
3.8285560671
 21
-8.11501391
  0
LINE
  5
35F
100
AcDbEntity
  8
IMPORT_IGES
100
AcDbLine
 62
253
  6
CONTINUOUS
 10
3.7505881114
 20
-7.9527517702
 11
4.2251647823
 21
-8.1900401058
  0
LINE
  5
360
100
AcDbEntity
  8
RACCORDO
100
AcDbLine
 62
253
  6
CONTINUOUS
 10
-7.4395181234
 20
-2.3525516349
 11
-17.2817163052
 21
2.5685474559
  0
LWPOLYLINE
  5
361
100
AcDbEntity
  8
RACCORDO
100
AcDbPolyline
 62
7
  6
CONTINUOUS
 90
37
 70
0
 10
-16.8762830787
 20
2.1569673071
 10
-16.8900401624
 20
2.1640610399
 10
-16.9037980169
 20
2.1715828109
 10
-16.9174448727
 20
2.1794651144
 10
-16.930979532
 20
2.187695624
 10
-16.9444024715
 20
2.1962625488
 10
-16.9577000633
 20
2.2051496781
 10
-16.9708717532
 20
2.2143459623
 10
-16.9839181569
 20
2.2238405514
 10
-16.996826691
 20
2.2336194399
 10
-17.0095973114
 20
2.2436726593
 10
-17.0222307147
 20
2.2539901403
 10
-17.0347147857
 20
2.2645592573
 10
-17.0470499155
 20
2.2753709498
 10
-17.0592368535
 20
2.2864157697
 10
-17.0712634797
 20
2.2976817002
 10
-17.0831305354
 20
2.3091603871
 10
-17.0948388791
 20
2.3208428997
 10
-17.1063761524
 20
2.3327172461
 10
-17.1177433754
 20
2.3447755824
 10
-17.1289416059
 20
2.3570094341
 10
-17.1399582617
 20
2.3694065046
 10
-17.1507947844
 20
2.3819595189
 10
-17.1614523196
 20
2.3946602138
 10
-17.1719177159
 20
2.4074952347
 10
-17.1821927655
 20
2.4204576779
 10
-17.1922788706
 20
2.4335395133
 10
-17.20216235
 20
2.4467259284
 10
-17.2118453953
 20
2.4600103497
 10
-17.2213297294
 20
2.4733849065
 10
-17.2306012184
 20
2.4868329171
 10
-17.2396624645
 20
2.5003480627
 10
-17.2485156316
 20
2.5139226457
 10
-17.2571463813
 20
2.5275378792
 10
-17.2655519517
 20
2.5411829118
 10
-17.273740923
 20
2.5548549721
 10
-17.2817163052
 20
2.5685474559
  0
LWPOLYLINE
  5
362
100
AcDbEntity
  8
RACCORDO
100
AcDbPolyline
 62
253
  6
CONTINUOUS
 90
34
 70
0
 10
-3.2781503823
 20
12.1015556793
 10
-3.2794383406
 20
12.1218903705
 10
-3.2815092821
 20
12.1425859611
 10
-3.2843585209
 20
12.1635956236
 10
-3.2879796101
 20
12.1848718198
 10
-3.2923643564
 20
12.2063664081
 10
-3.2975028384
 20
12.2280307532
 10
-3.3033834294
 20
12.2498158353
 10
-3.3099928235
 20
12.2716723617
 10
-3.3173160658
 20
12.2935508779
 10
-3.3253365861
 20
12.3154018795
 10
-3.3340362364
 20
12.3371759246
 10
-3.3433953323
 20
12.3588237453
 10
-3.3533926969
 20
12.3802963594
 10
-3.3640057095
 20
12.401545181
 10
-3.3752103561
 20
12.4225221305
 10
-3.3869812841
 20
12.4431797438
 10
-3.3992918596
 20
12.463471279
 10
-3.4121142276
 20
12.4833508227
 10
-3.425419375
 20
12.5027733936
 10
-3.4391771966
 20
12.5216950444
 10
-3.4533565626
 20
12.5400729615
 10
-3.4679253896
 20
12.5578655611
 10
-3.4828507128
 20
12.5750325841
 10
-3.4980987609
 20
12.591535187
 10
-3.5136350322
 20
12.6073360293
 10
-3.5294243731
 20
12.6223993588
 10
-3.5454310571
 20
12.6366910916
 10
-3.5616188661
 20
12.6501788901
 10
-3.5779511721
 20
12.6628322355
 10
-3.5943910201
 20
12.6746224972
 10
-3.6109012118
 20
12.6855229975
 10
-3.6274443899
 20
12.6955090719
 10
-3.6439831223
 20
12.7045581251
  0
LWPOLYLINE
  5
363
100
AcDbEntity
  8
RACCORDO
100
AcDbPolyline
 62
7
  6
CONTINUOUS
 90
20
 70
0
 10
-1.4752555937
 20
-24.7228665194
 10
-1.4748501263
 20
-24.7370991352
 10
-1.4736269423
 20
-24.7513563759
 10
-1.4715793551
 20
-24.76558191
 10
-1.4687053573
 20
-24.77971907
 10
-1.465008052
 20
-24.793709717
 10
-1.4604956117
 20
-24.8074959111
 10
-1.4551816087
 20
-24.8210196017
 10
-1.4490824339
 20
-24.8342287461
 10
-1.4422150555
 20
-24.8470784027
 10
-1.4346019736
 20
-24.8595197051
 10
-1.4262709206
 20
-24.8715031174
 10
-1.4172475057
 20
-24.8829886782
 10
-1.4075573425
 20
-24.8939398145
 10
-1.3972375529
 20
-24.9043112925
 10
-1.3863304842
 20
-24.9140598238
 10
-1.3748617737
 20
-24.9231612792
 10
-1.3628737443
 20
-24.9315798267
 10
-1.350432925
 20
-24.9392703912
 10
-1.3370518905
 20
-24.9464768679
  0
LWPOLYLINE
  5
364
100
AcDbEntity
  8
RACCORDO
100
AcDbPolyline
 62
253
  6
CONTINUOUS
 90
18
 70
0
 10
-1.402032289
 20
-24.8112548671
 10
-1.4017929341
 20
-24.8223980123
 10
-1.4010749289
 20
-24.8332782328
 10
-1.3998793388
 20
-24.8438655036
 10
-1.3982081413
 20
-24.8541325736
 10
-1.3960652064
 20
-24.8640486896
 10
-1.3934572509
 20
-24.8735804381
 10
-1.3903920789
 20
-24.8826999669
 10
-1.3868775246
 20
-24.891384538
 10
-1.3829230434
 20
-24.8996107287
 10
-1.3785392796
 20
-24.9073562528
 10
-1.3737382
 20
-24.914599837
 10
-1.3685329945
 20
-24.9213215423
 10
-1.3629379055
 20
-24.9275030049
 10
-1.3569681026
 20
-24.9331274916
 10
-1.3506397807
 20
-24.9381797402
 10
-1.3439701296
 20
-24.9426460067
 10
-1.3370590168
 20
-24.9464733051
  0
LINE
  5
365
100
AcDbEntity
  8
RACCORDO
100
AcDbLine
 62
253
  6
CONTINUOUS
 10
-3.6053853097
 20
17.6944403954
 11
-3.6053853097
 21
18.7750237062
  0
LINE
  5
366
100
AcDbEntity
  8
RACCORDO
100
AcDbLine
 62
253
  6
CONTINUOUS
 10
-2.9003413904
 20
17.7159761587
 11
-2.9003413904
 21
18.948703131
  0
LINE
  5
367
100
AcDbEntity
  8
ASSI
100
AcDbLine
 62
253
  6
CONTINUOUS
 10
-2.7745720434
 20
23.3285337313
 11
-2.7745720434
 21
24.5558843283
  0
LINE
  5
368
100
AcDbEntity
  8
RACCORDO
100
AcDbLine
 62
7
  6
CONTINUOUS
 10
-2.6492225362
 20
23.4775618897
 11
-2.6492225362
 21
24.5652070968
  0
LINE
  5
369
100
AcDbEntity
  8
DRAFT
100
AcDbLine
 62
7
  6
CONTINUOUS
 10
-2.5426622411
 20
19.1280076758
 11
-2.5426622411
 21
17.9155721105
  0
LWPOLYLINE
  5
36A
100
AcDbEntity
  8
RACCORDO
100
AcDbPolyline
 62
7
  6
CONTINUOUS
 90
20
 70
0
 10
-1.4752555937
 20
17.2566854882
 10
-1.4748517216
 20
17.2708901001
 10
-1.47363311
 20
17.2851215241
 10
-1.4715927225
 20
17.2993237218
 10
-1.4687279711
 20
17.3134411168
 10
-1.4650416488
 20
17.327414886
 10
-1.4605423564
 20
17.3411848332
 10
-1.455243763
 20
17.3546928446
 10
-1.4491620214
 20
17.3678876084
 10
-1.44231454
 20
17.3807234413
 10
-1.4347238695
 20
17.3931517526
 10
-1.426417483
 20
17.4051236714
 10
-1.4174210751
 20
17.4165993018
 10
-1.4077597668
 20
17.4275428167
 10
-1.3974704943
 20
17.4379091841
 10
-1.3865962234
 20
17.4476545988
 10
-1.3751620598
 20
17.4567556042
 10
-1.3632099037
 20
17.465176755
 10
-1.3508072722
 20
17.4728723889
 10
-1.3393625412
 20
17.4791256024
  0
LWPOLYLINE
  5
36B
100
AcDbEntity
  8
0
100
AcDbPolyline
 62
7
  6
CONTINUOUS
 90
3
 70
0
 10
3.0800658306
 20
11.6249321208
 10
3.0874956865
 20
11.6384847627
 10
3.0922986306
 20
11.652021327
  0
LINE
  5
36C
100
AcDbEntity
  8
IMPORT_IGES
100
AcDbLine
 62
7
  6
CONTINUOUS
 10
10.1695330583
 20
14.287831266
 11
8.7208869312
 21
12.8910892515
  0
LINE
  5
36D
100
AcDbEntity
  8
IMPORT_IGES
100
AcDbLine
 62
7
  6
CONTINUOUS
 10
8.7208869312
 20
12.7178841707
 11
10.1695330583
 21
14.1146261852
  0
LWPOLYLINE
  5
36E
100
AcDbEntity
  8
IMPORT_IGES
100
AcDbPolyline
 62
253
  6
CONTINUOUS
 90
13
 70
0
 10
13.721272717
 20
14.2788838576
 10
13.7693775398
 20
14.3165285458
 10
13.8143694892
 20
14.3503443049
 10
13.8562485652
 20
14.3803311349
 10
13.8943717397
 20
14.4064135812
 10
13.9293820408
 20
14.4286670985
 10
13.9632085529
 20
14.4473180509
 10
13.9963070578
 20
14.4628376071
 10
14.0282217737
 20
14.4747545985
 10
14.0595144401
 20
14.4818818828
 10
14.0903723035
 20
14.483823746
 10
14.1206081174
 20
14.4809759022
 10
14.1502218817
 20
14.4733383514
  0
LINE
  5
36F
100
AcDbEntity
  8
RACCORDO
100
AcDbLine
 62
7
  6
CONTINUOUS
 10
-7.4776355524
 20
-2.3806653982
 11
-7.4628377317
 21
-2.3696164525
  0
LWPOLYLINE
  5
370
100
AcDbEntity
  8
IMPORT_IGES
100
AcDbPolyline
 62
7
  6
CONTINUOUS
 90
3
 70
0
 10
-13.3967513323
 20
-5.2567675646
 10
-13.3717497032
 20
-5.2384662364
 10
-13.344791226
 20
-5.2199088216
  0
LWPOLYLINE
  5
371
100
AcDbEntity
  8
RACCORDO
100
AcDbPolyline
 62
7
  6
CONTINUOUS
 90
3
 70
0
 10
-7.4628377317
 20
-2.3696164525
 10
-7.4474392968
 20
-2.3582958445
 10
-7.4395181234
 20
-2.3525516349
  0
LINE
  5
372
100
AcDbEntity
  8
RACCORDO
100
AcDbLine
 62
7
  6
CONTINUOUS
 10
-15.2654424552
 20
-7.5184001195
 11
-15.2815201073
 21
-7.5300279793
  0
LINE
  5
373
100
AcDbEntity
  8
RACCORDO
100
AcDbLine
 62
7
  6
CONTINUOUS
 10
-14.4522696569
 20
-7.9249865187
 11
-14.468347309
 21
-7.9366143785
  0
LINE
  5
374
100
AcDbEntity
  8
RACCORDO
100
AcDbLine
 62
7
  6
CONTINUOUS
 10
-15.2786767864
 20
-6.1380167095
 11
-15.2948058199
 21
-6.1496691091
  0
LINE
  5
375
100
AcDbEntity
  8
RACCORDO
100
AcDbLine
 62
7
  6
CONTINUOUS
 10
-15.2484937017
 20
-7.5062777612
 11
-15.2654424552
 21
-7.5184001195
  0
LINE
  5
376
100
AcDbEntity
  8
RACCORDO
100
AcDbLine
 62
7
  6
CONTINUOUS
 10
-15.2616761381
 20
-6.1258724316
 11
-15.2786767864
 21
-6.1380167095
  0
LWPOLYLINE
  5
377
100
AcDbEntity
  8
RACCORDO
100
AcDbPolyline
 62
7
  6
CONTINUOUS
 90
3
 70
0
 10
-14.4265117864
 20
-7.9066272852
 10
-14.4353209034
 20
-7.9128641604
 10
-14.4522696569
 20
-7.9249865187
  0
LINE
  5
378
100
AcDbEntity
  8
RACCORDO
100
AcDbLine
 62
7
  6
CONTINUOUS
 10
-15.2306675141
 20
-7.4936873764
 11
-15.2484937017
 21
-7.5062777612
  0
LINE
  5
379
100
AcDbEntity
  8
RACCORDO
100
AcDbLine
 62
7
  6
CONTINUOUS
 10
-15.2437976638
 20
-6.1132628974
 11
-15.2616761381
 21
-6.1258724316
  0
LINE
  5
37A
100
AcDbEntity
  8
RACCORDO
100
AcDbLine
 62
7
  6
CONTINUOUS
 10
-15.2120003096
 20
-7.4806498584
 11
-15.2306675141
 21
-7.4936873764
  0
LINE
  5
37B
100
AcDbEntity
  8
RACCORDO
100
AcDbLine
 62
7
  6
CONTINUOUS
 10
-15.2250779362
 20
-6.1002091535
 11
-15.2437976638
 21
-6.1132628974
  0
LINE
  5
37C
100
AcDbEntity
  8
RACCORDO
100
AcDbLine
 62
7
  6
CONTINUOUS
 10
-15.1925225673
 20
-7.4671840382
 11
-15.2120003096
 21
-7.4806498584
  0
LINE
  5
37D
100
AcDbEntity
  8
RACCORDO
100
AcDbLine
 62
7
  6
CONTINUOUS
 10
-15.2055475709
 20
-6.0867301666
 11
-15.2250779362
 21
-6.1002091535
  0
LWPOLYLINE
  5
37E
100
AcDbEntity
  8
IMPORT_IGES
100
AcDbPolyline
 62
7
  6
CONTINUOUS
 90
4
 70
0
 10
-13.3404982282
 20
-6.5596931825
 10
-13.3600794286
 20
-6.5730063153
 10
-13.3788899007
 20
-6.58614118
 10
-13.3967513323
 20
-6.5991069404
  0
LINE
  5
37F
100
AcDbEntity
  8
RACCORDO
100
AcDbLine
 62
7
  6
CONTINUOUS
 10
-15.1618290009
 20
-7.4462387449
 11
-15.1925225673
 21
-7.4671840382
  0
LINE
  5
380
100
AcDbEntity
  8
RACCORDO
100
AcDbLine
 62
7
  6
CONTINUOUS
 10
-15.1747751766
 20
-6.0657711373
 11
-15.2055475709
 21
-6.0867301666
  0
LINE
  5
381
100
AcDbEntity
  8
RACCORDO
100
AcDbLine
 62
7
  6
CONTINUOUS
 10
-15.1294503778
 20
-7.424462561
 11
-15.1618290009
 21
-7.4462387449
  0
LINE
  5
382
100
AcDbEntity
  8
RACCORDO
100
AcDbLine
 62
7
  6
CONTINUOUS
 10
-15.1423182488
 20
-6.0439887918
 11
-15.1747751766
 21
-6.0657711373
  0
LINE
  5
383
100
AcDbEntity
  8
RACCORDO
100
AcDbLine
 62
7
  6
CONTINUOUS
 10
-15.0954781159
 20
-7.4019313055
 11
-15.1294503778
 21
-7.424462561
  0
LINE
  5
384
100
AcDbEntity
  8
RACCORDO
100
AcDbLine
 62
7
  6
CONTINUOUS
 10
-15.1082686389
 20
-6.0214593342
 11
-15.1423182488
 21
-6.0439887918
  0
LWPOLYLINE
  5
385
100
AcDbEntity
  8
IMPORT_IGES
100
AcDbPolyline
 62
7
  6
CONTINUOUS
 90
4
 70
0
 10
-13.344791226
 20
-5.2199088216
 10
-13.2866981329
 20
-5.181630097
 10
-13.2563727148
 20
-5.1618776707
 10
-13.2255569675
 20
-5.1423762672
  0
LINE
  5
386
100
AcDbEntity
  8
RACCORDO
100
AcDbLine
 62
7
  6
CONTINUOUS
 10
-15.060004201
 20
-7.3787210691
 11
-15.0954781159
 21
-7.4019313055
  0
LINE
  5
387
100
AcDbEntity
  8
RACCORDO
100
AcDbLine
 62
7
  6
CONTINUOUS
 10
-15.0727187643
 20
-5.9982592366
 11
-15.1082686389
 21
-6.0214593342
  0
LINE
  5
388
100
AcDbEntity
  8
RACCORDO
100
AcDbLine
 62
7
  6
CONTINUOUS
 10
-15.0357635063
 20
-5.9744669946
 11
-15.0727187643
 21
-5.9982592366
  0
LWPOLYLINE
  5
389
100
AcDbEntity
  8
RACCORDO
100
AcDbPolyline
 62
7
  6
CONTINUOUS
 90
3
 70
0
 10
-15.0105305089
 20
-7.3468573415
 10
-15.0231230721
 20
-7.3549099559
 10
-15.060004201
 20
-7.3787210691
  0
LINE
  5
38A
100
AcDbEntity
  8
RACCORDO
100
AcDbLine
 62
7
  6
CONTINUOUS
 10
-14.9975002421
 20
-5.9501636814
 11
-15.0357635063
 21
-5.9744669946
  0
LINE
  5
38B
100
AcDbEntity
  8
RACCORDO
100
AcDbLine
 62
7
  6
CONTINUOUS
 10
-14.9580319234
 20
-5.925435493
 11
-14.9975002421
 21
-5.9501636814
  0
LINE
  5
38C
100
AcDbEntity
  8
RACCORDO
100
AcDbLine
 62
7
  6
CONTINUOUS
 10
-14.9174725336
 20
-5.9003777649
 11
-14.9580319234
 21
-5.925435493
  0
LWPOLYLINE
  5
38D
100
AcDbEntity
  8
IMPORT_IGES
100
AcDbPolyline
 62
7
  6
CONTINUOUS
 90
9
 70
0
 10
-13.2255569675
 20
-5.1423762672
 10
-13.1639177644
 20
-5.1043574303
 10
-13.133506754
 20
-5.0861826177
 10
-13.1037093435
 20
-5.0687369869
 10
-13.0748348128
 20
-5.0520544865
 10
-13.046990962
 20
-5.036454629
 10
-13.0204243731
 20
-5.0220697084
 10
-12.9954949729
 20
-5.008877405
 10
-12.9724872636
 20
-4.9969599434
  0
LINE
  5
38E
100
AcDbEntity
  8
RACCORDO
100
AcDbLine
 62
7
  6
CONTINUOUS
 10
-14.8759541769
 20
-5.8750999549
 11
-14.9174725336
 21
-5.9003777649
  0
LINE
  5
38F
100
AcDbEntity
  8
RACCORDO
100
AcDbLine
 62
7
  6
CONTINUOUS
 10
-14.8336374953
 20
-5.849732619
 11
-14.8759541769
 21
-5.8750999549
  0
LINE
  5
390
100
AcDbEntity
  8
RACCORDO
100
AcDbLine
 62
7
  6
CONTINUOUS
 10
-14.8050811495
 20
-5.832853384
 11
-14.8336374953
 21
-5.849732619
  0
LINE
  5
391
100
AcDbEntity
  8
RACCORDO
100
AcDbLine
 62
7
  6
CONTINUOUS
 10
-14.7763363468
 20
-5.8160669309
 11
-14.8050811495
 21
-5.832853384
  0
LINE
  5
392
100
AcDbEntity
  8
RACCORDO
100
AcDbLine
 62
7
  6
CONTINUOUS
 10
-14.7475139459
 20
-5.7994316286
 11
-14.7763363468
 21
-5.8160669309
  0
LWPOLYLINE
  5
393
100
AcDbEntity
  8
RACCORDO
100
AcDbPolyline
 62
7
  6
CONTINUOUS
 90
3
 70
0
 10
-16.6842723251
 20
-4.785037707
 10
-16.6986121701
 20
-4.7931068002
 10
-16.7274129317
 20
-4.8094821334
  0
LWPOLYLINE
  5
394
100
AcDbEntity
  8
RACCORDO
100
AcDbPolyline
 62
7
  6
CONTINUOUS
 90
3
 70
0
 10
-14.7043733394
 20
-5.774987202
 10
-14.7187131844
 20
-5.7830562953
 10
-14.7475139459
 20
-5.7994316286
  0
LWPOLYLINE
  5
395
100
AcDbEntity
  8
RACCORDO
100
AcDbPolyline
 62
7
  6
CONTINUOUS
 90
3
 70
0
 10
-16.6417322559
 20
-4.7615176071
 10
-16.6558023524
 20
-4.7692328144
 10
-16.6842723251
 20
-4.785037707
  0
LWPOLYLINE
  5
396
100
AcDbEntity
  8
RACCORDO
100
AcDbPolyline
 62
7
  6
CONTINUOUS
 90
4
 70
0
 10
-14.6478882768
 20
-5.7439141501
 10
-14.6618332701
 20
-5.7514671018
 10
-14.6759033667
 20
-5.7591823093
 10
-14.7043733394
 20
-5.774987202
  0
LWPOLYLINE
  5
397
100
AcDbEntity
  8
RACCORDO
100
AcDbPolyline
 62
7
  6
CONTINUOUS
 90
5
 70
0
 10
-16.5741123526
 20
-4.7256507554
 10
-16.5871920368
 20
-4.7323861357
 10
-16.6005042344
 20
-4.739370739
 10
-16.6140342824
 20
-4.7465759053
 10
-16.6417322559
 20
-4.7615176071
  0
LINE
  5
398
100
AcDbEntity
  8
RACCORDO
100
AcDbLine
 62
7
  6
CONTINUOUS
 10
-15.8009143884
 20
-4.337528749
 11
-16.5707145646
 21
-4.7239255987
  0
LINE
  5
399
100
AcDbEntity
  8
IMPORT_IGES
100
AcDbLine
 62
7
  6
CONTINUOUS
 10
-14.9755241159
 20
-4.018703426
 11
-9.7503569079
 21
-1.4059957783
  0
LINE
  5
39A
100
AcDbEntity
  8
IMPORT_IGES
100
AcDbLine
 62
253
  6
CONTINUOUS
 10
4.2455628583
 20
4.5259282868
 11
2.9374153131
 21
3.8718545142
  0
LINE
  5
39B
100
AcDbEntity
  8
IMPORT_IGES
100
AcDbLine
 62
7
  6
CONTINUOUS
 10
2.9374153131
 20
4.4468867701
 11
3.6730896679
 21
4.812164882
  0
LWPOLYLINE
  5
39C
100
AcDbEntity
  8
ASSI
100
AcDbPolyline
 62
7
  6
CONTINUOUS
 90
6
 70
0
 10
-2.6492225645
 20
24.5654801799
 10
-2.6492741894
 20
24.5667048915
 10
-2.6500670885
 20
24.5701469533
 10
-2.6517753448
 20
24.5729754657
 10
-2.6543549921
 20
24.5752405767
 10
-2.6560345529
 20
24.576207935
  0
LWPOLYLINE
  5
39D
100
AcDbEntity
  8
RACCORDO
100
AcDbPolyline
 62
253
  6
CONTINUOUS
 90
18
 70
0
 10
-0.0770476092
 20
-25.473747207
 10
-0.0768082543
 20
-25.4848903522
 10
-0.0760902491
 20
-25.4957705727
 10
-0.074894659
 20
-25.5063578435
 10
-0.0732234615
 20
-25.5166249135
 10
-0.0710805266
 20
-25.5265410295
 10
-0.0684725711
 20
-25.536072778
 10
-0.0654073991
 20
-25.5451923068
 10
-0.0618928448
 20
-25.5538768779
 10
-0.0579383636
 20
-25.5621030687
 10
-0.0535545998
 20
-25.5698485927
 10
-0.0487535201
 20
-25.5770921769
 10
-0.0435483147
 20
-25.5838138822
 10
-0.0379532257
 20
-25.5899953448
 10
-0.0319834228
 20
-25.5956198315
 10
-0.0256551008
 20
-25.6006720801
 10
-0.0189854498
 20
-25.6051383466
 10
-0.012074337
 20
-25.608965645
  0
LWPOLYLINE
  5
39E
100
AcDbEntity
  8
RACCORDO
100
AcDbPolyline
 62
253
  6
CONTINUOUS
 90
19
 70
0
 10
-1.402032289
 20
16.8283232064
 10
-1.4018124343
 20
16.8176385499
 10
-1.4011534171
 20
16.8072003234
 10
-1.4000568763
 20
16.797034491
 10
-1.3985255454
 20
16.7871663724
 10
-1.3965632301
 20
16.7776204777
 10
-1.3941747843
 20
16.7684204573
 10
-1.3913661142
 20
16.7595891454
 10
-1.3881442087
 20
16.7511485884
 10
-1.3845171111
 20
16.74311988
 10
-1.3804938315
 20
16.7355229691
 10
-1.3760843889
 20
16.7283767783
 10
-1.3712998524
 20
16.721699213
 10
-1.366152219
 20
16.7155069357
 10
-1.360654251
 20
16.7098152233
 10
-1.3548195173
 20
16.7046380971
 10
-1.3486613008
 20
16.699987582
 10
-1.3421960266
 20
16.6958763084
 10
-1.3370578419
 20
16.693104181
  0
LWPOLYLINE
  5
39F
100
AcDbEntity
  8
RACCORDO
100
AcDbPolyline
 62
253
  6
CONTINUOUS
 90
19
 70
0
 10
-0.0770476092
 20
16.1658308665
 10
-0.0768277545
 20
16.15514621
 10
-0.0761687373
 20
16.1447079835
 10
-0.0750721965
 20
16.134542151
 10
-0.0735408656
 20
16.1246740325
 10
-0.0715785503
 20
16.1151281378
 10
-0.0691901045
 20
16.1059281174
 10
-0.0663814344
 20
16.0970968055
 10
-0.0631595289
 20
16.0886562484
 10
-0.0595324313
 20
16.0806275401
 10
-0.0555091517
 20
16.0730306292
 10
-0.0510997091
 20
16.0658844384
 10
-0.0463151726
 20
16.0592068731
 10
-0.0411675391
 20
16.0530145958
 10
-0.0356695712
 20
16.0473228834
 10
-0.0298348375
 20
16.0421457572
 10
-0.023676621
 20
16.0374952421
 10
-0.0172113468
 20
16.0333839684
 10
-0.0120849299
 20
16.0306177258
  0
LINE
  5
3A0
100
AcDbEntity
  8
RACCORDO
100
AcDbLine
 62
7
  6
CONTINUOUS
 10
-1.4752555937
 20
17.2566854882
 11
-1.4752555937
 21
16.9167115541
  0
LINE
  5
3A1
100
AcDbEntity
  8
RACCORDO
100
AcDbLine
 62
7
  6
CONTINUOUS
 10
-1.4752555937
 20
-24.5963672238
 11
-1.4752555937
 21
-24.7228665194
  0
LINE
  5
3A2
100
AcDbEntity
  8
RACCORDO
100
AcDbLine
 62
253
  6
CONTINUOUS
 10
-1.402032289
 20
17.1682971405
 11
-1.402032289
 21
16.8283232064
  0
LINE
  5
3A3
100
AcDbEntity
  8
RACCORDO
100
AcDbLine
 62
253
  6
CONTINUOUS
 10
-1.402032289
 20
-24.5656310547
 11
-1.402032289
 21
-24.8112548671
  0
LINE
  5
3A4
100
AcDbEntity
  8
RACCORDO
100
AcDbLine
 62
7
  6
CONTINUOUS
 10
-0.7722626394
 20
15.9567343868
 11
-0.7722626394
 21
16.4107065797
  0
LINE
  5
3A5
100
AcDbEntity
  8
RACCORDO
100
AcDbLine
 62
253
  6
CONTINUOUS
 10
-0.6990393347
 20
15.8650207832
 11
-0.6990393347
 21
16.3740949274
  0
LINE
  5
3A6
100
AcDbEntity
  8
RACCORDO
100
AcDbLine
 62
253
  6
CONTINUOUS
 10
-0.0770476092
 20
-25.473747207
 11
-0.0770476092
 21
-25.1337732729
  0
LINE
  5
3A7
100
AcDbEntity
  8
RACCORDO
100
AcDbLine
 62
253
  6
CONTINUOUS
 10
-0.0770476092
 20
16.1658308665
 11
-0.0770476092
 21
16.5058048006
  0
LINE
  5
3A8
100
AcDbEntity
  8
RACCORDO
100
AcDbLine
 62
7
  6
CONTINUOUS
 10
0.0029221712
 20
23.4793192248
 11
0.0029221712
 21
23.2085189321
  0
LINE
  5
3A9
100
AcDbEntity
  8
RACCORDO
100
AcDbLine
 62
253
  6
CONTINUOUS
 10
0.2754743505
 20
-25.4742599309
 11
0.2754743505
 21
-25.1342859967
  0
LINE
  5
3AA
100
AcDbEntity
  8
RACCORDO
100
AcDbLine
 62
253
  6
CONTINUOUS
 10
0.2754743505
 20
16.1653181426
 11
0.2754743505
 21
16.5052920768
  0
LWPOLYLINE
  5
3AB
100
AcDbEntity
  8
RACCORDO
100
AcDbPolyline
 62
253
  6
CONTINUOUS
 90
31
 70
0
 10
-1.402032289
 20
17.1682971405
 10
-1.4017929341
 20
17.1796796407
 10
-1.4010749289
 20
17.1912778664
 10
-1.3998793388
 20
17.2030607273
 10
-1.3982081413
 20
17.2149989947
 10
-1.3960652064
 20
17.2270580457
 10
-1.3934572509
 20
17.2391977496
 10
-1.3903920789
 20
17.2513824504
 10
-1.3868775246
 20
17.2635815758
 10
-1.3829230434
 20
17.2757622478
 10
-1.3785392796
 20
17.2878915357
 10
-1.3737382
 20
17.2999361995
 10
-1.3685329945
 20
17.3118631103
 10
-1.3629379055
 20
17.3236396618
 10
-1.3569681026
 20
17.3352339515
 10
-1.3506397807
 20
17.346614522
 10
-1.3439701296
 20
17.3577504396
 10
-1.3369773221
 20
17.3686113431
 10
-1.3296804134
 20
17.3791676277
 10
-1.3220992709
 20
17.3893905479
 10
-1.3142545196
 20
17.3992522883
 10
-1.3061675134
 20
17.4087260007
 10
-1.2978602612
 20
17.4177858986
 10
-1.2893553745
 20
17.4264073182
 10
-1.2806760094
 20
17.4345667838
 10
-1.2718457834
 20
17.4422420903
 10
-1.2628887371
 20
17.4494123394
 10
-1.2538292779
 20
17.4560579938
 10
-1.2446920744
 20
17.4621609625
 10
-1.235501988
 20
17.4677046448
 10
-1.226284033
 20
17.4726739555
  0
LWPOLYLINE
  5
3AC
100
AcDbEntity
  8
RACCORDO
100
AcDbPolyline
 62
253
  6
CONTINUOUS
 90
31
 70
0
 10
-0.0770476092
 20
16.5058048006
 10
-0.0768070279
 20
16.51721671
 10
-0.0760859368
 20
16.5288381667
 10
-0.074886295
 20
16.5406375398
 10
-0.0732113625
 20
16.5525827264
 10
-0.0710656959
 20
16.5646412015
 10
-0.0684551413
 20
16.5767801053
 10
-0.0653868078
 20
16.5889663874
 10
-0.0618690466
 20
16.6011668868
 10
-0.0579114373
 20
16.6133483837
 10
-0.0535247554
 20
16.6254777193
 10
-0.0487209424
 20
16.6375218815
 10
-0.0435130778
 20
16.6494480835
 10
-0.0379153324
 20
16.6612238782
 10
-0.0319429508
 20
16.6728172006
 10
-0.0256122165
 20
16.6841964528
 10
-0.0189403956
 20
16.6953306205
 10
-0.0119456272
 20
16.7061894521
 10
-0.0046468904
 20
16.7167434881
 10
0.0029360522
 20
16.7269641309
 10
0.0107824706
 20
16.7368234197
 10
0.0188707619
 20
16.746294236
 10
0.0271787296
 20
16.755350664
 10
0.035683902
 20
16.7639682806
 10
0.0443633647
 20
16.7721238945
 10
0.0531954552
 20
16.779796943
 10
0.0621542382
 20
16.7869646906
 10
0.0712095751
 20
16.7936035971
 10
0.0803347439
 20
16.7996953945
 10
0.0895067484
 20
16.8052260419
 10
0.0987006468
 20
16.8101816156
  0
LWPOLYLINE
  5
3AD
100
AcDbEntity
  8
RACCORDO
100
AcDbPolyline
 62
253
  6
CONTINUOUS
 90
21
 70
0
 10
-3.2781503823
 20
-25.1365155608
 10
-3.279438341
 20
-25.1573076469
 10
-3.2815092831
 20
-25.1776457766
 10
-3.2843585229
 20
-25.1974839309
 10
-3.2879796132
 20
-25.2167772223
 10
-3.2923643608
 20
-25.2354819962
 10
-3.2975028443
 20
-25.2535559294
 10
-3.303383437
 20
-25.2709581262
 10
-3.3099928328
 20
-25.287649211
 10
-3.3173160768
 20
-25.3035914169
 10
-3.3253365988
 20
-25.3187486718
 10
-3.3340362508
 20
-25.3330866795
 10
-3.3433953482
 20
-25.3465729975
 10
-3.3533927143
 20
-25.3591771106
 10
-3.3640057281
 20
-25.3708704994
 10
-3.3752103758
 20
-25.3816267056
 10
-3.3869813047
 20
-25.3914213912
 10
-3.3992918808
 20
-25.4002323939
 10
-3.4121142493
 20
-25.4080397771
 10
-3.4254193969
 20
-25.4148258752
 10
-3.4319576277
 20
-25.4177112592
  0
LWPOLYLINE
  5
3AE
100
AcDbEntity
  8
IMPORT_IGES
100
AcDbPolyline
 62
7
  6
CONTINUOUS
 90
10
 70
0
 10
3.85413481
 20
7.152426146
 10
3.8335730116
 20
7.1140767158
 10
3.8151774581
 20
7.0750331558
 10
3.7989481497
 20
7.0352954659
 10
3.7847545431
 20
6.9944124543
 10
3.7727271815
 20
6.9528353129
 10
3.7632576946
 20
6.9119176167
 10
3.7564766255
 20
6.8721105575
 10
3.7522534312
 20
6.8329629436
 10
3.7505881114
 20
6.7944747749
  0
LINE
  5
3AF
100
AcDbEntity
  8
IMPORT_IGES
100
AcDbLine
 62
7
  6
CONTINUOUS
 10
4.6723395536
 20
8.5636205813
 11
3.85413481
 21
7.152426146
  0
LINE
  5
3B0
100
AcDbEntity
  8
IMPORT_IGES
100
AcDbLine
 62
253
  6
CONTINUOUS
 10
3.5759783772
 20
6.4006698859
 11
3.7505881114
 21
6.7004758524
  0
LINE
  5
3B1
100
AcDbEntity
  8
IMPORT_IGES
100
AcDbLine
 62
253
  6
CONTINUOUS
 10
3.2763689574
 20
6.7224728553
 11
4.3595787526
 21
8.5817730565
  0
LINE
  5
3B2
100
AcDbEntity
  8
IMPORT_IGES
100
AcDbLine
 62
7
  6
CONTINUOUS
 10
3.4251610369
 20
9.0489819148
 11
3.0977934025
 21
8.4968508613
  0
LWPOLYLINE
  5
3B3
100
AcDbEntity
  8
IMPORT_IGES
100
AcDbPolyline
 62
7
  6
CONTINUOUS
 90
10
 70
0
 10
5.1363656557
 20
8.3316319374
 10
5.1589598041
 20
8.3685953978
 10
5.1832988601
 20
8.4038898878
 10
5.2091964567
 20
8.4372474752
 10
5.2364532557
 20
8.4684145536
 10
5.2648621999
 20
8.4971550589
 10
5.2942103405
 20
8.5232516759
 10
5.3242752922
 20
8.5465059615
 10
5.3548266946
 20
8.5667404515
 10
5.3856318644
 20
8.5838008941
  0
LINE
  5
3B4
100
AcDbEntity
  8
IMPORT_IGES
100
AcDbLine
 62
7
  6
CONTINUOUS
 10
-11.0456212849
 20
-7.2538932135
 11
-12.1769921348
 21
-8.1908599306
  0
LWPOLYLINE
  5
3B5
100
AcDbEntity
  8
IMPORT_IGES
100
AcDbPolyline
 62
7
  6
CONTINUOUS
 90
3
 70
0
 10
-12.6012562035
 20
-6.9968545049
 10
-12.5762545744
 20
-6.9785531767
 10
-12.5492960971
 20
-6.9599957619
  0
LINE
  5
3B6
100
AcDbEntity
  8
RACCORDO
100
AcDbLine
 62
7
  6
CONTINUOUS
 10
-14.438257137
 20
-9.0882565917
 11
-14.4542914344
 21
-9.0998635895
  0
LINE
  5
3B7
100
AcDbEntity
  8
RACCORDO
100
AcDbLine
 62
7
  6
CONTINUOUS
 10
-14.4213521773
 20
-9.0761528889
 11
-14.438257137
 21
-9.0882565917
  0
LINE
  5
3B8
100
AcDbEntity
  8
RACCORDO
100
AcDbLine
 62
7
  6
CONTINUOUS
 10
-14.4035701201
 20
-9.0635788265
 11
-14.4213521773
 21
-9.0761528889
  0
LINE
  5
3B9
100
AcDbEntity
  8
RACCORDO
100
AcDbLine
 62
7
  6
CONTINUOUS
 10
-14.4082674989
 20
-7.8938087372
 11
-14.4265117864
 21
-7.9066272852
  0
LINE
  5
3BA
100
AcDbEntity
  8
RACCORDO
100
AcDbLine
 62
7
  6
CONTINUOUS
 10
-14.3849472516
 20
-9.0505551678
 11
-14.4035701201
 21
-9.0635788265
  0
LINE
  5
3BB
100
AcDbEntity
  8
RACCORDO
100
AcDbLine
 62
7
  6
CONTINUOUS
 10
-14.3891888523
 20
-7.8805549088
 11
-14.4082674989
 21
-7.8938087372
  0
LINE
  5
3BC
100
AcDbEntity
  8
RACCORDO
100
AcDbLine
 62
7
  6
CONTINUOUS
 10
-14.3655139358
 20
-9.037100629
 11
-14.3849472516
 21
-9.0505551678
  0
LINE
  5
3BD
100
AcDbEntity
  8
RACCORDO
100
AcDbLine
 62
7
  6
CONTINUOUS
 10
-14.3693080451
 20
-7.8668875733
 11
-14.3891888523
 21
-7.8805549088
  0
LINE
  5
3BE
100
AcDbEntity
  8
RACCORDO
100
AcDbLine
 62
7
  6
CONTINUOUS
 10
-14.3348869311
 20
-9.0161671891
 11
-14.3655139358
 21
-9.037100629
  0
LINE
  5
3BF
100
AcDbEntity
  8
RACCORDO
100
AcDbLine
 62
7
  6
CONTINUOUS
 10
-14.3486562026
 20
-7.8528251441
 11
-14.3693080451
 21
-7.8668875733
  0
LINE
  5
3C0
100
AcDbEntity
  8
RACCORDO
100
AcDbLine
 62
7
  6
CONTINUOUS
 10
-14.302574443
 20
-8.9943964733
 11
-14.3348869311
 21
-9.0161671891
  0
LINE
  5
3C1
100
AcDbEntity
  8
RACCORDO
100
AcDbLine
 62
7
  6
CONTINUOUS
 10
-14.3162775795
 20
-7.8310489602
 11
-14.3486562026
 21
-7.8528251441
  0
LINE
  5
3C2
100
AcDbEntity
  8
RACCORDO
100
AcDbLine
 62
7
  6
CONTINUOUS
 10
-14.2686675238
 20
-8.9718639746
 11
-14.302574443
 21
-8.9943964733
  0
LINE
  5
3C3
100
AcDbEntity
  8
RACCORDO
100
AcDbLine
 62
7
  6
CONTINUOUS
 10
-14.2823053176
 20
-7.8085177047
 11
-14.3162775795
 21
-7.8310489602
  0
LWPOLYLINE
  5
3C4
100
AcDbEntity
  8
IMPORT_IGES
100
AcDbPolyline
 62
7
  6
CONTINUOUS
 90
4
 70
0
 10
-12.5492960971
 20
-6.9599957619
 10
-12.491203004
 20
-6.9217170373
 10
-12.4608775859
 20
-6.901964611
 10
-12.4300618386
 20
-6.8824632075
  0
LWPOLYLINE
  5
3C5
100
AcDbEntity
  8
IMPORT_IGES
100
AcDbPolyline
 62
7
  6
CONTINUOUS
 90
3
 70
0
 10
-13.2788123739
 20
-6.5187152174
 10
-13.2996856606
 20
-6.5323698673
 10
-13.3404982282
 20
-6.5596931825
  0
LINE
  5
3C6
100
AcDbEntity
  8
RACCORDO
100
AcDbLine
 62
7
  6
CONTINUOUS
 10
-14.2332577957
 20
-8.9486454605
 11
-14.2686675238
 21
-8.9718639746
  0
LINE
  5
3C7
100
AcDbEntity
  8
RACCORDO
100
AcDbLine
 62
7
  6
CONTINUOUS
 10
-14.2468314027
 20
-7.7853074683
 11
-14.2823053176
 21
-7.8085177047
  0
LINE
  5
3C8
100
AcDbEntity
  8
RACCORDO
100
AcDbLine
 62
7
  6
CONTINUOUS
 10
-14.1964393248
 20
-8.924818704
 11
-14.2332577957
 21
-8.9486454605
  0
LINE
  5
3C9
100
AcDbEntity
  8
RACCORDO
100
AcDbLine
 62
7
  6
CONTINUOUS
 10
-14.2099502738
 20
-7.7614963551
 11
-14.2468314027
 21
-7.7853074683
  0
LINE
  5
3CA
100
AcDbEntity
  8
RACCORDO
100
AcDbLine
 62
7
  6
CONTINUOUS
 10
-14.1583086397
 20
-8.9004640123
 11
-14.1964393248
 21
-8.924818704
  0
LINE
  5
3CB
100
AcDbEntity
  8
RACCORDO
100
AcDbLine
 62
7
  6
CONTINUOUS
 10
-14.984931646
 20
-7.3305786244
 11
-15.0105305089
 21
-7.3468573415
  0
LINE
  5
3CC
100
AcDbEntity
  8
RACCORDO
100
AcDbLine
 62
7
  6
CONTINUOUS
 10
-14.1717588476
 20
-7.7371650236
 11
-14.2099502738
 21
-7.7614963551
  0
LINE
  5
3CD
100
AcDbEntity
  8
RACCORDO
100
AcDbLine
 62
7
  6
CONTINUOUS
 10
-14.1189677826
 20
-8.875666748
 11
-14.1583086397
 21
-8.9004640123
  0
LINE
  5
3CE
100
AcDbEntity
  8
RACCORDO
100
AcDbLine
 62
7
  6
CONTINUOUS
 10
-14.9455323808
 20
-7.3058128193
 11
-14.984931646
 21
-7.3305786244
  0
LINE
  5
3CF
100
AcDbEntity
  8
RACCORDO
100
AcDbLine
 62
7
  6
CONTINUOUS
 10
-14.1323595825
 20
-7.7123992185
 11
-14.1717588476
 21
-7.7371650236
  0
LINE
  5
3D0
100
AcDbEntity
  8
RACCORDO
100
AcDbLine
 62
7
  6
CONTINUOUS
 10
-14.0785297321
 20
-8.8505213265
 11
-14.1189677826
 21
-8.875666748
  0
LINE
  5
3D1
100
AcDbEntity
  8
RACCORDO
100
AcDbLine
 62
7
  6
CONTINUOUS
 10
-14.9050387147
 20
-7.2807073777
 11
-14.9455323808
 21
-7.3058128193
  0
LINE
  5
3D2
100
AcDbEntity
  8
RACCORDO
100
AcDbLine
 62
7
  6
CONTINUOUS
 10
-14.0918659164
 20
-7.6872937769
 11
-14.1323595825
 21
-7.7123992185
  0
LWPOLYLINE
  5
3D3
100
AcDbEntity
  8
IMPORT_IGES
100
AcDbPolyline
 62
7
  6
CONTINUOUS
 90
9
 70
0
 10
-12.4300618386
 20
-6.8824632075
 10
-12.3684226356
 20
-6.8444443706
 10
-12.3380116251
 20
-6.826269558
 10
-12.3082142147
 20
-6.8088239272
 10
-12.2793396839
 20
-6.7921414268
 10
-12.2514958332
 20
-6.7765415693
 10
-12.2249292443
 20
-6.7621566486
 10
-12.199999844
 20
-6.7489643453
 10
-12.1769921348
 20
-6.7370468837
  0
LINE
  5
3D4
100
AcDbEntity
  8
RACCORDO
100
AcDbLine
 62
7
  6
CONTINUOUS
 10
-14.863582134
 20
-7.2553712041
 11
-14.9050387147
 21
-7.2807073777
  0
LINE
  5
3D5
100
AcDbEntity
  8
RACCORDO
100
AcDbLine
 62
7
  6
CONTINUOUS
 10
-14.0504093357
 20
-7.6619576033
 11
-14.0918659164
 21
-7.6872937769
  0
LWPOLYLINE
  5
3D6
100
AcDbEntity
  8
RACCORDO
100
AcDbPolyline
 62
7
  6
CONTINUOUS
 90
3
 70
0
 10
-14.0231318735
 20
-8.8166494332
 10
-14.0371254538
 20
-8.8251361838
 10
-14.0785297321
 20
-8.8505213265
  0
LINE
  5
3D7
100
AcDbEntity
  8
RACCORDO
100
AcDbLine
 62
7
  6
CONTINUOUS
 10
-14.821322565
 20
-7.2299342438
 11
-14.863582134
 21
-7.2553712041
  0
LINE
  5
3D8
100
AcDbEntity
  8
RACCORDO
100
AcDbLine
 62
7
  6
CONTINUOUS
 10
-14.0081497667
 20
-7.636520643
 11
-14.0504093357
 21
-7.6619576033
  0
LINE
  5
3D9
100
AcDbEntity
  8
RACCORDO
100
AcDbLine
 62
7
  6
CONTINUOUS
 10
-14.7784669426
 20
-7.2045592671
 11
-14.821322565
 21
-7.2299342438
  0
LINE
  5
3DA
100
AcDbEntity
  8
RACCORDO
100
AcDbLine
 62
7
  6
CONTINUOUS
 10
-13.9652941443
 20
-7.6111456663
 11
-14.0081497667
 21
-7.636520643
  0
LINE
  5
3DB
100
AcDbEntity
  8
RACCORDO
100
AcDbLine
 62
7
  6
CONTINUOUS
 10
-14.7496980695
 20
-7.1877825683
 11
-14.7784669426
 21
-7.2045592671
  0
LINE
  5
3DC
100
AcDbEntity
  8
RACCORDO
100
AcDbLine
 62
7
  6
CONTINUOUS
 10
-13.9365252711
 20
-7.5943689675
 11
-13.9652941443
 21
-7.6111456663
  0
LINE
  5
3DD
100
AcDbEntity
  8
RACCORDO
100
AcDbLine
 62
7
  6
CONTINUOUS
 10
-14.7208893941
 20
-7.1712041368
 11
-14.7496980695
 21
-7.1877825683
  0
LINE
  5
3DE
100
AcDbEntity
  8
RACCORDO
100
AcDbLine
 62
7
  6
CONTINUOUS
 10
-13.9077165958
 20
-7.577790536
 11
-13.9365252711
 21
-7.5943689675
  0
LINE
  5
3DF
100
AcDbEntity
  8
RACCORDO
100
AcDbLine
 62
7
  6
CONTINUOUS
 10
-14.6921923983
 20
-7.1549059418
 11
-14.7208893941
 21
-7.1712041368
  0
LINE
  5
3E0
100
AcDbEntity
  8
RACCORDO
100
AcDbLine
 62
7
  6
CONTINUOUS
 10
-13.8790195999
 20
-7.561492341
 11
-13.9077165958
 21
-7.577790536
  0
LWPOLYLINE
  5
3E1
100
AcDbEntity
  8
RACCORDO
100
AcDbPolyline
 62
7
  6
CONTINUOUS
 90
3
 70
0
 10
-14.6496804858
 20
-7.13126511
 10
-14.6637423091
 20
-7.1390220725
 10
-14.6921923983
 20
-7.1549059418
  0
LWPOLYLINE
  5
3E2
100
AcDbEntity
  8
RACCORDO
100
AcDbPolyline
 62
7
  6
CONTINUOUS
 90
3
 70
0
 10
-13.8365076874
 20
-7.5378515092
 10
-13.8505695107
 20
-7.5456084716
 10
-13.8790195999
 20
-7.561492341
  0
LWPOLYLINE
  5
3E3
100
AcDbEntity
  8
RACCORDO
100
AcDbPolyline
 62
7
  6
CONTINUOUS
 90
5
 70
0
 10
-14.5820828418
 20
-7.0951674828
 10
-14.5951608167
 20
-7.1019518773
 10
-14.6084698775
 20
-7.1089840901
 10
-14.6219954177
 20
-7.1162354333
 10
-14.6496804858
 20
-7.13126511
  0
LWPOLYLINE
  5
3E4
100
AcDbEntity
  8
IMPORT_IGES
100
AcDbPolyline
 62
7
  6
CONTINUOUS
 90
17
 70
0
 10
-12.9841616548
 20
-6.3451762625
 10
-12.9965400996
 20
-6.3515802156
 10
-13.0096035348
 20
-6.3584855908
 10
-13.0232999883
 20
-6.3658312056
 10
-13.0376299564
 20
-6.373628875
 10
-13.052656223
 20
-6.3819552818
 10
-13.0683592308
 20
-6.3907752423
 10
-13.0846991066
 20
-6.4000579735
 10
-13.1017134259
 20
-6.4098727838
 10
-13.1193527349
 20
-6.4201758204
 10
-13.1375753628
 20
-6.4309333521
 10
-13.1564272255
 20
-6.4422143293
 10
-13.1758658485
 20
-6.4539968427
 10
-13.195792444
 20
-6.4662077506
 10
-13.2161550483
 20
-6.4788275922
 10
-13.2368828641
 20
-6.4918636194
 10
-13.2788123739
 20
-6.5187152174
  0
LWPOLYLINE
  5
3E5
100
AcDbEntity
  8
RACCORDO
100
AcDbPolyline
 62
7
  6
CONTINUOUS
 90
4
 70
0
 10
-14.5942133667
 20
-5.7156002498
 10
-14.607293051
 20
-5.7223356302
 10
-14.6206052486
 20
-5.7293202335
 10
-14.6478882768
 20
-5.7439141501
  0
LINE
  5
3E6
100
AcDbEntity
  8
RACCORDO
100
AcDbLine
 62
7
  6
CONTINUOUS
 10
-13.821015401
 20
-5.3274782427
 11
-14.5908155773
 21
-5.7138750923
  0
LINE
  5
3E7
100
AcDbEntity
  8
RACCORDO
100
AcDbLine
 62
7
  6
CONTINUOUS
 10
-13.821015401
 20
-6.7131188888
 11
-14.5775430357
 21
-7.0928536611
  0
LINE
  5
3E8
100
AcDbEntity
  8
IMPORT_IGES
100
AcDbLine
 62
253
  6
CONTINUOUS
 10
4.3869842145
 20
4.2820125279
 11
2.9374153131
 21
3.5572280772
  0
LINE
  5
3E9
100
AcDbEntity
  8
IMPORT_IGES
100
AcDbLine
 62
7
  6
CONTINUOUS
 10
-12.9724872636
 20
-4.9969599434
 11
-7.7704579206
 21
-2.3959452719
  0
LINE
  5
3EA
100
AcDbEntity
  8
IMPORT_IGES
100
AcDbLine
 62
7
  6
CONTINUOUS
 10
18.897187784
 20
9.8064152834
 11
18.3668576981
 21
9.5412502405
  0
LINE
  5
3EB
100
AcDbEntity
  8
IMPORT_IGES
100
AcDbLine
 62
253
  6
CONTINUOUS
 10
18.6351858554
 20
9.5242091682
 11
19.1655159413
 21
9.7893742111
  0
LINE
  5
3EC
100
AcDbEntity
  8
IMPORT_IGES
100
AcDbLine
 62
7
  6
CONTINUOUS
 10
-12.9841616548
 20
-6.3451762625
 11
-12.0532484481
 21
-5.8796799115
  0
LINE
  5
3ED
100
AcDbEntity
  8
IMPORT_IGES
100
AcDbLine
 62
7
  6
CONTINUOUS
 10
-7.5931180991
 20
-3.6496147371
 11
-11.8411164137
 21
-5.7736138944
  0
LINE
  5
3EE
100
AcDbEntity
  8
IMPORT_IGES
100
AcDbLine
 62
253
  6
CONTINUOUS
 10
19.4130033147
 20
9.6656305244
 11
18.8826732288
 21
9.4004654815
  0
LINE
  5
3EF
100
AcDbEntity
  8
IMPORT_IGES
100
AcDbLine
 62
253
  6
CONTINUOUS
 10
18.8973985271
 20
9.8065205171
 11
18.897187784
 21
9.8064152834
  0
LWPOLYLINE
  5
3F0
100
AcDbEntity
  8
IMPORT_IGES
100
AcDbPolyline
 62
7
  6
CONTINUOUS
 90
8
 70
0
 10
18.367029432
 20
9.5412874699
 10
18.3856506255
 20
9.5495916975
 10
18.4226821364
 20
9.5604799371
 10
18.4624315758
 20
9.5654760955
 10
18.5036786925
 20
9.5643682865
 10
18.5460167362
 20
9.5570858812
 10
18.5898524571
 20
9.5436995084
 10
18.6351858554
 20
9.5242091682
  0
LWPOLYLINE
  5
3F1
100
AcDbEntity
  8
IMPORT_IGES
100
AcDbPolyline
 62
253
  6
CONTINUOUS
 90
5
 70
0
 10
19.1655159413
 20
9.7893742111
 10
19.1929606027
 20
9.800913038
 10
19.2198308289
 20
9.8078710813
 10
19.2456874887
 20
9.8101908938
 10
19.269990566
 20
9.8079179868
  0
LWPOLYLINE
  5
3F2
100
AcDbEntity
  8
IMPORT_IGES
100
AcDbPolyline
 62
253
  6
CONTINUOUS
 90
7
 70
0
 10
19.4130033147
 20
9.6656305244
 10
19.4404479761
 20
9.6771693513
 10
19.4673182023
 20
9.6841273946
 10
19.4931748621
 20
9.6864472071
 10
19.5174779394
 20
9.6841743001
 10
19.5399939865
 20
9.6774289163
 10
19.5470325057
 20
9.6742183915
  0
LWPOLYLINE
  5
3F3
100
AcDbEntity
  8
IMPORT_IGES
100
AcDbPolyline
 62
7
  6
CONTINUOUS
 90
9
 70
0
 10
5.6321220618
 20
-2.1257225633
 10
5.6691700857
 20
-2.140462107
 10
5.7074626418
 20
-2.1550533033
 10
5.7466776385
 20
-2.1691149927
 10
5.7860310308
 20
-2.1822387362
 10
5.824530985
 20
-2.1945349383
 10
5.861443244
 20
-2.2056786306
 10
5.8963166668
 20
-2.2149168923
 10
5.9285871982
 20
-2.2216648216
  0
LINE
  5
3F4
100
AcDbEntity
  8
IMPORT_IGES
100
AcDbLine
 62
7
  6
CONTINUOUS
 10
5.6010132471
 20
-2.1125535784
 11
5.6321220618
 21
-2.1257225633
  0
LINE
  5
3F5
100
AcDbEntity
  8
IMPORT_IGES
100
AcDbLine
 62
7
  6
CONTINUOUS
 10
4.3869842145
 20
-2.7030162562
 11
3.8566541286
 21
-2.4378512133
  0
LINE
  5
3F6
100
AcDbEntity
  8
IMPORT_IGES
100
AcDbLine
 62
7
  6
CONTINUOUS
 10
4.7758929442
 20
-2.5085618914
 11
3.9391257451
 21
-2.0901782918
  0
LWPOLYLINE
  5
3F7
100
AcDbEntity
  8
IMPORT_IGES
100
AcDbPolyline
 62
253
  6
CONTINUOUS
 90
10
 70
0
 10
4.4966453459
 20
-3.4456435609
 10
4.5168989891
 20
-3.4605454277
 10
4.5477846021
 20
-3.4851020406
 10
4.5778791288
 20
-3.5108776638
 10
4.6066555734
 20
-3.5374213603
 10
4.6336122044
 20
-3.5642707763
 10
4.6582708067
 20
-3.5909492945
 10
4.6802002938
 20
-3.6169888494
 10
4.69902215
 20
-3.6419381102
 10
4.7144099273
 20
-3.6653626099
  0
LWPOLYLINE
  5
3F8
100
AcDbEntity
  8
RACCORDO
100
AcDbPolyline
 62
253
  6
CONTINUOUS
 90
31
 70
0
 10
0.2754743505
 20
16.5052920768
 10
0.2751793736
 20
16.5167177845
 10
0.2744035204
 20
16.5283558376
 10
0.2731489173
 20
16.5401743384
 10
0.271419003
 20
16.5521408947
 10
0.2692185188
 20
16.5642227083
 10
0.2665534959
 20
16.5763866653
 10
0.2634312386
 20
16.5885994265
 10
0.2598603044
 20
16.600827519
 10
0.2558504806
 20
16.613037428
 10
0.2514127573
 20
16.6251956883
 10
0.2465592976
 20
16.6372689765
 10
0.2413034037
 20
16.6492242019
 10
0.2356594812
 20
16.6610285975
 10
0.2296429991
 20
16.6726498097
 10
0.2232704472
 20
16.6840559869
 10
0.2165592917
 20
16.695215867
 10
0.2095279264
 20
16.7060988627
 10
0.2021956232
 20
16.7166751458
 10
0.1945824784
 20
16.7269157287
 10
0.1867093582
 20
16.736792544
 10
0.1785978415
 20
16.7462785211
 10
0.1702701603
 20
16.7553476607
 10
0.1617491392
 20
16.763975106
 10
0.1530581328
 20
16.7721372108
 10
0.1442209614
 20
16.7798116043
 10
0.1352618462
 20
16.7869772525
 10
0.1262053424
 20
16.7936145156
 10
0.1170762721
 20
16.7997052021
 10
0.1078996565
 20
16.8052326186
 10
0.0987006468
 20
16.8101816156
  0
LWPOLYLINE
  5
3F9
100
AcDbEntity
  8
RACCORDO
100
AcDbPolyline
 62
7
  6
CONTINUOUS
 90
23
 70
0
 10
2.47722017
 20
-23.9878101236
 10
2.4769017621
 20
-23.9751965713
 10
2.4759431454
 20
-23.9625736232
 10
2.4743413711
 20
-23.949980083
 10
2.4720972112
 20
-23.9374590096
 10
2.4692131712
 20
-23.9250455845
 10
2.465691347
 20
-23.9127668176
 10
2.4615379817
 20
-23.9006598908
 10
2.4567631269
 20
-23.8887645235
 10
2.4513753321
 20
-23.877110244
 10
2.4453869715
 20
-23.8657312692
 10
2.4388149303
 20
-23.8546648744
 10
2.4316754965
 20
-23.8439420609
 10
2.4239857035
 20
-23.8335916915
 10
2.4157683837
 20
-23.8236468783
 10
2.4070493499
 20
-23.814139556
 10
2.3978481339
 20
-23.8050914932
 10
2.3881916844
 20
-23.7965297756
 10
2.3781172826
 20
-23.7884861125
 10
2.3676447328
 20
-23.78097458
 10
2.3568020428
 20
-23.7740145712
 10
2.345638293
 20
-23.7676348567
 10
2.339017243
 20
-23.7642001632
  0
LWPOLYLINE
  5
3FA
100
AcDbEntity
  8
RACCORDO
100
AcDbPolyline
 62
7
  6
CONTINUOUS
 90
34
 70
0
 10
1.8767551413
 20
17.3080140803
 10
1.8765550853
 20
17.3184158889
 10
1.8759548478
 20
17.328994257
 10
1.8749558898
 20
17.3397252751
 10
1.8735606543
 20
17.3505847282
 10
1.871772306
 20
17.3615480206
 10
1.8695947247
 20
17.3725902316
 10
1.8670329002
 20
17.3836863785
 10
1.8640927259
 20
17.3948113719
 10
1.8607807309
 20
17.4059399423
 10
1.8571044538
 20
17.4170469002
 10
1.8530722936
 20
17.4281071214
 10
1.8486932962
 20
17.4390955026
 10
1.8439773957
 20
17.4499871602
 10
1.8389353257
 20
17.4607574473
 10
1.833578465
 20
17.4713819386
 10
1.8279189408
 20
17.4818365631
 10
1.8219696029
 20
17.4920976532
 10
1.8157439311
 20
17.5021419596
 10
1.8092559986
 20
17.5119467145
 10
1.8025205097
 20
17.5214897116
 10
1.7955527705
 20
17.5307493518
 10
1.7883685135
 20
17.5397046343
 10
1.7809839978
 20
17.5483352662
 10
1.7734160435
 20
17.556621739
 10
1.7656817219
 20
17.5645452463
 10
1.757798516
 20
17.5720878224
 10
1.7497844165
 20
17.5792324461
 10
1.7416574862
 20
17.5859628889
 10
1.7334360751
 20
17.5922638774
 10
1.7251389784
 20
17.5981212247
 10
1.716784985
 20
17.6035216615
 10
1.7083928359
 20
17.6084528661
 10
1.6999814376
 20
17.6129036191
  0
LWPOLYLINE
  5
3FB
100
AcDbEntity
  8
RACCORDO
100
AcDbPolyline
 62
7
  6
CONTINUOUS
 90
24
 70
0
 10
0.0029221712
 20
23.4793192248
 10
0.0023489867
 20
23.5137916309
 10
0.0006498737
 20
23.5475415519
 10
-0.0021751678
 20
23.5805689877
 10
-0.0061356024
 20
23.6129305451
 10
-0.0112219655
 20
23.6445696173
 10
-0.0174058639
 20
23.6753163838
 10
-0.0246884793
 20
23.7051519112
 10
-0.03306863
 20
23.734095133
 10
-0.0425143772
 20
23.7620330289
 10
-0.0530382357
 20
23.7889791917
 10
-0.0646276908
 20
23.8149200287
 10
-0.0772132595
 20
23.8397017416
 10
-0.0907884454
 20
23.863299043
 10
-0.1053597449
 20
23.8857372203
 10
-0.120877165
 20
23.9069383375
 10
-0.1373604523
 20
23.9269154275
 10
-0.1547898602
 20
23.9456554573
 10
-0.1730561548
 20
23.9630413929
 10
-0.1921448107
 20
23.9790503192
 10
-0.2120703534
 20
23.9937051513
 10
-0.2327671259
 20
24.0069575996
 10
-0.2542596405
 20
24.0188134609
 10
-3.4841497048
 20
25.6337823703
  0
LINE
  5
3FC
100
AcDbEntity
  8
RACCORDO
100
AcDbLine
 62
253
  6
CONTINUOUS
 10
0.6341729989
 20
-24.1572767957
 11
0.6341729989
 21
-23.7109147827
  0
LINE
  5
3FD
100
AcDbEntity
  8
RACCORDO
100
AcDbLine
 62
253
  6
CONTINUOUS
 10
0.6341729989
 20
15.1984146164
 11
0.6341729989
 21
15.8872352393
  0
LINE
  5
3FE
100
AcDbEntity
  8
RACCORDO
100
AcDbLine
 62
253
  6
CONTINUOUS
 10
0.9866949586
 20
-24.2827895196
 11
0.9866949586
 21
-23.562940383
  0
LINE
  5
3FF
100
AcDbEntity
  8
RACCORDO
100
AcDbLine
 62
253
  6
CONTINUOUS
 10
0.9866949586
 20
15.2083137958
 11
0.9866949586
 21
16.0168146198
  0
LINE
  5
400
100
AcDbEntity
  8
RACCORDO
100
AcDbLine
 62
7
  6
CONTINUOUS
 10
1.8767551413
 20
-23.1893292713
 11
1.8767551413
 21
-24.6942253312
  0
LINE
  5
401
100
AcDbEntity
  8
RACCORDO
100
AcDbLine
 62
7
  6
CONTINUOUS
 10
1.8767551413
 20
15.7055949237
 11
1.8767551413
 21
17.3080140803
  0
LINE
  5
402
100
AcDbEntity
  8
RACCORDO
100
AcDbLine
 62
253
  6
CONTINUOUS
 10
2.405022313
 20
17.5714529003
 11
2.405022313
 21
17.2239213836
  0
LINE
  5
403
100
AcDbEntity
  8
RACCORDO
100
AcDbLine
 62
253
  6
CONTINUOUS
 10
2.405022313
 20
-24.0756827558
 11
2.405022313
 21
-24.4232142726
  0
LWPOLYLINE
  5
404
100
AcDbEntity
  8
RACCORDO
100
AcDbPolyline
 62
253
  6
CONTINUOUS
 90
22
 70
0
 10
-0.0770476092
 20
-25.1337732729
 10
-0.076828738
 20
-25.1228934095
 10
-0.0761721823
 20
-25.1118154372
 10
-0.0750788446
 20
-25.1005665222
 10
-0.0735503948
 20
-25.0891722183
 10
-0.0715900762
 20
-25.077662703
 10
-0.0692034931
 20
-25.0660728838
 10
-0.0663971603
 20
-25.0544338245
 10
-0.0631776433
 20
-25.0427722666
 10
-0.0595528741
 20
-25.0311169829
 10
-0.055531791
 20
-25.0194968145
 10
-0.0511244179
 20
-25.0079408195
 10
-0.04634179
 20
-24.9964779641
 10
-0.0411958171
 20
-24.9851367901
 10
-0.0356992882
 20
-24.973945481
 10
-0.0298659449
 20
-24.9629320014
 10
-0.0237103561
 20
-24.9521238212
 10
-0.0172478009
 20
-24.9415477334
 10
-0.0104942874
 20
-24.9312299233
 10
-0.0034665875
 20
-24.9211960179
 10
0.0038177941
 20
-24.9114710134
 10
0.0113407385
 20
-24.9020790991
  0
LWPOLYLINE
  5
405
100
AcDbEntity
  8
RACCORDO
100
AcDbPolyline
 62
7
  6
CONTINUOUS
 90
15
 70
0
 10
2.47722017
 20
17.3117940157
 10
2.4769032411
 20
17.2992097754
 10
2.4759488946
 20
17.2866142419
 10
2.4743539099
 20
17.2740459745
 10
2.4721186048
 20
17.2615470592
 10
2.4692452489
 20
17.2491532848
 10
2.4657363015
 20
17.2368937151
 10
2.4615981689
 20
17.2248057775
 10
2.4568407043
 20
17.2129283989
 10
2.4514726518
 20
17.2012914165
 10
2.4455063684
 20
17.1899287805
 10
2.4389586034
 20
17.1788773659
 10
2.4318457176
 20
17.168168164
 10
2.424184526
 20
17.1578295964
 10
2.4203826305
 20
17.1530859067
  0
LWPOLYLINE
  5
406
100
AcDbEntity
  8
RACCORDO
100
AcDbPolyline
 62
253
  6
CONTINUOUS
 90
16
 70
0
 10
2.47722017
 20
17.3117940157
 10
2.476916949
 20
17.3056393715
 10
2.4759354432
 20
17.2991378622
 10
2.4742772654
 20
17.2926707862
 10
2.4719469269
 20
17.2862557382
 10
2.4689507677
 20
17.2799101713
 10
2.4652969395
 20
17.2736513499
 10
2.4609953831
 20
17.267496302
 10
2.4560578016
 20
17.2614617736
 10
2.4504976285
 20
17.2555641826
 10
2.4443299913
 20
17.2498195744
 10
2.43757167
 20
17.2442435782
 10
2.4302410518
 20
17.2388513643
 10
2.4223580808
 20
17.2336576033
 10
2.4139442041
 20
17.2286764257
 10
2.405022313
 20
17.2239213836
  0
LWPOLYLINE
  5
407
100
AcDbEntity
  8
RACCORDO
100
AcDbPolyline
 62
253
  6
CONTINUOUS
 90
16
 70
0
 10
2.47722017
 20
17.6593251831
 10
2.4769146651
 20
17.6531477667
 10
2.4759304934
 20
17.6466450842
 10
2.474269394
 20
17.640176897
 10
2.4719358479
 20
17.6337607275
 10
2.4689362183
 20
17.6274141239
 10
2.465278785
 20
17.6211545493
 10
2.4609736462
 20
17.6149991509
 10
2.4560325062
 20
17.6089645485
 10
2.4504686985
 20
17.6030669897
 10
2.44429594
 20
17.5973212784
 10
2.4375321906
 20
17.5917443701
 10
2.4302006724
 20
17.5863547923
 10
2.4223241008
 20
17.5811679094
 10
2.4139233957
 20
17.5761962574
 10
2.405022313
 20
17.5714529003
  0
LWPOLYLINE
  5
408
100
AcDbEntity
  8
0
100
AcDbPolyline
 62
7
  6
CONTINUOUS
 90
3
 70
0
 10
2.9392792407
 20
11.7136323027
 10
2.938836629
 20
11.7078255794
 10
2.9374153131
 20
11.7019403248
  0
LINE
  5
409
100
AcDbEntity
  8
0
100
AcDbLine
 62
7
  6
CONTINUOUS
 10
3.0922986306
 20
11.652021327
 11
3.0944746629
 21
11.6655418135
  0
LWPOLYLINE
  5
40A
100
AcDbEntity
  8
IMPORT_IGES
100
AcDbPolyline
 62
7
  6
CONTINUOUS
 90
10
 70
0
 10
4.6945398201
 20
6.7030607171
 10
4.6864003707
 20
6.6874251886
 10
4.6791702973
 20
6.6716100586
 10
4.6728495999
 20
6.6556153269
 10
4.6674071574
 20
6.6393251144
 10
4.6628740908
 20
6.6228553003
 10
4.6593437641
 20
6.6065535221
 10
4.6568472984
 20
6.5905356589
 10
4.6553535724
 20
6.5746858316
 10
4.6548625862
 20
6.5590040401
  0
LWPOLYLINE
  5
40B
100
AcDbEntity
  8
IMPORT_IGES
100
AcDbPolyline
 62
7
  6
CONTINUOUS
 90
10
 70
0
 10
4.3324272223
 20
6.9132693878
 10
4.3117506664
 20
6.8749186019
 10
4.2931458506
 20
6.8354767482
 10
4.276755435
 20
6.7952434357
 10
4.2627071071
 20
6.7545244178
 10
4.2511070282
 20
6.713628636
 10
4.2420396068
 20
6.672865863
 10
4.2355740427
 20
6.6325453146
 10
4.2317631926
 20
6.5929732984
 10
4.2306379903
 20
6.5544502516
  0
LINE
  5
40C
100
AcDbEntity
  8
IMPORT_IGES
100
AcDbLine
 62
253
  6
CONTINUOUS
 10
5.1363656554
 20
8.3316319375
 11
4.332427222
 21
6.913269388
  0
LINE
  5
40D
100
AcDbEntity
  8
IMPORT_IGES
100
AcDbLine
 62
253
  6
CONTINUOUS
 10
4.6945398201
 20
6.7030607171
 11
5.4984554487
 21
8.1213849817
  0
LWPOLYLINE
  5
40E
100
AcDbEntity
  8
IMPORT_IGES
100
AcDbPolyline
 62
253
  6
CONTINUOUS
 90
4
 70
0
 10
11.7913544713
 20
15.2828539202
 10
11.7950831387
 20
15.2883296048
 10
11.806652861
 20
15.2998651849
 10
11.8211865575
 20
15.3104199895
  0
LWPOLYLINE
  5
40F
100
AcDbEntity
  8
IMPORT_IGES
100
AcDbPolyline
 62
253
  6
CONTINUOUS
 90
3
 70
0
 10
14.7508902944
 20
13.8197992402
 10
14.7400866369
 20
13.8078075069
 10
14.7287680035
 20
13.7940849818
  0
LWPOLYLINE
  5
410
100
AcDbEntity
  8
IMPORT_IGES
100
AcDbPolyline
 62
7
  6
CONTINUOUS
 90
9
 70
0
 10
-8.5177145421
 20
-7.2243463042
 10
-8.5383352606
 20
-7.2372792874
 10
-8.5564677871
 20
-7.2537257671
 10
-8.5719390915
 20
-7.2735496106
 10
-8.584583846
 20
-7.2966754524
 10
-8.5943231941
 20
-7.3228845157
 10
-8.601107666
 20
-7.3518260025
 10
-8.6048331626
 20
-7.383364189
 10
-8.6055824008
 20
-7.4062720597
  0
LINE
  5
411
100
AcDbEntity
  8
IMPORT_IGES
100
AcDbLine
 62
7
  6
CONTINUOUS
 10
4.3869842145
 20
1.4809542493
 11
3.8566541286
 21
1.1589636525
  0
LINE
  5
412
100
AcDbEntity
  8
RACCORDO
100
AcDbLine
 62
7
  6
CONTINUOUS
 10
-13.9949142704
 20
-8.7996407479
 11
-14.0231318735
 21
-8.8166494332
  0
LINE
  5
413
100
AcDbEntity
  8
RACCORDO
100
AcDbLine
 62
7
  6
CONTINUOUS
 10
-13.9521024009
 20
-8.7741972358
 11
-13.9949142704
 21
-8.7996407479
  0
LINE
  5
414
100
AcDbEntity
  8
RACCORDO
100
AcDbLine
 62
7
  6
CONTINUOUS
 10
-13.9233597028
 20
-8.7573689877
 11
-13.9521024009
 21
-8.7741972358
  0
LINE
  5
415
100
AcDbEntity
  8
RACCORDO
100
AcDbLine
 62
7
  6
CONTINUOUS
 10
-13.8945744724
 20
-8.7407341344
 11
-13.9233597028
 21
-8.7573689877
  0
LINE
  5
416
100
AcDbEntity
  8
RACCORDO
100
AcDbLine
 62
7
  6
CONTINUOUS
 10
-13.8658978609
 20
-8.7243745161
 11
-13.8945744724
 21
-8.7407341344
  0
LWPOLYLINE
  5
417
100
AcDbEntity
  8
IMPORT_IGES
100
AcDbPolyline
 62
253
  6
CONTINUOUS
 90
16
 70
0
 10
18.2816324013
 20
8.4814071008
 10
18.3188589186
 20
8.502427317
 10
18.3552874698
 20
8.5277352957
 10
18.3905407075
 20
8.5569169868
 10
18.4240688798
 20
8.5893201676
 10
18.4557886032
 20
8.6246630459
 10
18.485983018
 20
8.6632378952
 10
18.5144525907
 20
8.7049584122
 10
18.5406655374
 20
8.7492283146
 10
18.5643150958
 20
8.7956922586
 10
18.585086536
 20
8.8439454564
 10
18.6026309817
 20
8.8934254255
 10
18.6166306735
 20
8.9434836908
 10
18.6268428357
 20
8.993511857
 10
18.6330798593
 20
9.0429513785
 10
18.6351858554
 20
9.0911964663
  0
LWPOLYLINE
  5
418
100
AcDbEntity
  8
RACCORDO
100
AcDbPolyline
 62
7
  6
CONTINUOUS
 90
3
 70
0
 10
-13.8234099781
 20
-8.7006320381
 10
-13.837464728
 20
-8.70842416
 10
-13.8658978609
 20
-8.7243745161
  0
LWPOLYLINE
  5
419
100
AcDbEntity
  8
RACCORDO
100
AcDbPolyline
 62
7
  6
CONTINUOUS
 90
5
 70
0
 10
-13.7558316068
 20
-8.6643400078
 10
-13.7689080379
 20
-8.6711657019
 10
-13.7822143521
 20
-8.6782380255
 10
-13.7957359903
 20
-8.6855282675
 10
-13.8234099781
 20
-8.7006320381
  0
LWPOLYLINE
  5
41A
100
AcDbEntity
  8
RACCORDO
100
AcDbPolyline
 62
7
  6
CONTINUOUS
 90
5
 70
0
 10
-13.7689100435
 20
-7.501753882
 10
-13.7819880184
 20
-7.5085382765
 10
-13.7952970792
 20
-7.5155704893
 10
-13.8088226193
 20
-7.5228218325
 10
-13.8365076874
 20
-7.5378515092
  0
LINE
  5
41B
100
AcDbEntity
  8
RACCORDO
100
AcDbLine
 62
7
  6
CONTINUOUS
 10
-13.0078426027
 20
-7.1197052879
 11
-13.7643702373
 21
-7.4994400603
  0
LINE
  5
41C
100
AcDbEntity
  8
RACCORDO
100
AcDbLine
 62
7
  6
CONTINUOUS
 10
-13.0078426027
 20
-8.288839583
 11
-13.7503282971
 21
-8.6615260828
  0
LINE
  5
41D
100
AcDbEntity
  8
IMPORT_IGES
100
AcDbLine
 62
7
  6
CONTINUOUS
 10
-11.2415242794
 20
-6.2099394204
 11
-7.5952222165
 21
-4.386788389
  0
LINE
  5
41E
100
AcDbEntity
  8
IMPORT_IGES
100
AcDbLine
 62
7
  6
CONTINUOUS
 10
-11.2577533192
 20
-6.277427476
 11
-12.1769921348
 21
-6.7370468837
  0
LINE
  5
41F
100
AcDbEntity
  8
IMPORT_IGES
100
AcDbLine
 62
253
  6
CONTINUOUS
 10
18.2267286779
 20
8.4539552464
 11
18.2816323943
 21
8.4814071043
  0
LINE
  5
420
100
AcDbEntity
  8
IMPORT_IGES
100
AcDbLine
 62
7
  6
CONTINUOUS
 10
4.3869842145
 20
1.4809542493
 11
4.7758929442
 21
1.6754086141
  0
LINE
  5
421
100
AcDbEntity
  8
IMPORT_IGES
100
AcDbLine
 62
253
  6
CONTINUOUS
 10
18.5291184853
 20
8.3576640589
 11
18.3202792347
 21
8.2532444895
  0
LINE
  5
422
100
AcDbEntity
  8
IMPORT_IGES
100
AcDbLine
 62
7
  6
CONTINUOUS
 10
-11.0456212849
 20
-6.4583980847
 11
-7.5960294874
 21
-4.7336021859
  0
LINE
  5
423
100
AcDbEntity
  8
IMPORT_IGES
100
AcDbLine
 62
253
  6
CONTINUOUS
 10
19.8372673834
 20
8.9338832479
 11
19.3069372975
 21
8.6687182049
  0
LINE
  5
424
100
AcDbEntity
  8
IMPORT_IGES
100
AcDbLine
 62
253
  6
CONTINUOUS
 10
18.6770693331
 20
7.4877588188
 11
18.953383907
 21
7.6259161058
  0
LWPOLYLINE
  5
425
100
AcDbEntity
  8
IMPORT_IGES
100
AcDbPolyline
 62
7
  6
CONTINUOUS
 90
7
 70
0
 10
-11.2577533192
 20
-6.277427476
 10
-11.2289714382
 20
-6.2657477368
 10
-11.2017025265
 20
-6.2588133269
 10
-11.1759465841
 20
-6.2566242461
 10
-11.1513758447
 20
-6.2593271287
 10
-11.1283180747
 20
-6.2667753405
 10
-11.1234490671
 20
-6.26905523
  0
LWPOLYLINE
  5
426
100
AcDbEntity
  8
IMPORT_IGES
100
AcDbPolyline
 62
7
  6
CONTINUOUS
 90
6
 70
0
 10
17.2718460167
 20
-0.521363317
 10
17.3148535065
 20
-0.5270988111
 10
17.3778795032
 20
-0.5292613514
 10
17.4315205817
 20
-0.5243576782
 10
17.4766803901
 20
-0.5120803109
 10
17.4988564458
 20
-0.5021000159
  0
LWPOLYLINE
  5
427
100
AcDbEntity
  8
RACCORDO
100
AcDbPolyline
 62
7
  6
CONTINUOUS
 90
6
 70
0
 10
-5.6339098781
 20
7.0921232145
 10
-5.6455271002
 20
7.1028847542
 10
-5.6566478332
 20
7.1140694261
 10
-5.6672613603
 20
7.1256333736
 10
-5.6773816664
 20
7.1375018012
 10
-5.6870183642
 20
7.1496138337
  0
LWPOLYLINE
  5
428
100
AcDbEntity
  8
RACCORDO
100
AcDbPolyline
 62
253
  6
CONTINUOUS
 90
12
 70
0
 10
-4.3962080536
 20
13.030756383
 10
-4.3992286496
 20
13.0385606251
 10
-4.4101185201
 20
13.0621734161
 10
-4.422515731
 20
13.085207118
 10
-4.4362844607
 20
13.1074093655
 10
-4.4512738556
 20
13.1285368966
 10
-4.4673196917
 20
13.1483582302
 10
-4.4842461686
 20
13.1666561941
 10
-4.5018678302
 20
13.1832303006
 10
-4.5199916071
 20
13.1978989544
 10
-4.5384189322
 20
13.2105014405
 10
-4.5569479103
 20
13.2208996791
  0
LWPOLYLINE
  5
429
100
AcDbEntity
  8
IMPORT_IGES
100
AcDbPolyline
 62
7
  6
CONTINUOUS
 90
9
 70
0
 10
3.7505881114
 20
-7.9527517699
 10
3.7520330979
 20
-7.9814568991
 10
3.7559396446
 20
-8.0078884048
 10
3.7623077516
 20
-8.032046287
 10
3.7712768051
 20
-8.0541726324
 10
3.7827074189
 20
-8.0740253543
 10
3.7961814336
 20
-8.0908781923
 10
3.8115594625
 20
-8.1044890595
 10
3.828233509
 20
-8.114727523
  0
LWPOLYLINE
  5
42A
100
AcDbEntity
  8
0
100
AcDbPolyline
 62
7
  6
CONTINUOUS
 90
4
 70
0
 10
3.0947444745
 20
11.672799074
 10
3.0943884219
 20
11.6800354765
 10
3.0918008464
 20
11.6940714848
 10
3.0867119362
 20
11.7076498382
  0
LWPOLYLINE
  5
42B
100
AcDbEntity
  8
IMPORT_IGES
100
AcDbPolyline
 62
253
  6
CONTINUOUS
 90
9
 70
0
 10
4.2251647823
 20
-8.1900401054
 10
4.2264778872
 20
-8.2182464779
 10
4.2304009454
 20
-8.2447905487
 10
4.2368853892
 20
-8.2693437002
 10
4.2458509407
 20
-8.2916019628
 10
4.2571866058
 20
-8.3112897775
 10
4.2707520481
 20
-8.3281634078
 10
4.2863793265
 20
-8.342013957
 10
4.3031327381
 20
-8.3523022455
  0
LWPOLYLINE
  5
42C
100
AcDbEntity
  8
ASSI
100
AcDbPolyline
 62
7
  6
CONTINUOUS
 90
6
 70
0
 10
2.9057658735
 20
21.7879813075
 10
2.9057314832
 20
21.788984993
 10
2.904999763
 20
21.7924517081
 10
2.9033564904
 20
21.7953080447
 10
2.9008454892
 20
21.7976033133
 10
2.8989500457
 20
21.7987156335
  0
LWPOLYLINE
  5
42D
100
AcDbEntity
  8
RACCORDO
100
AcDbPolyline
 62
253
  6
CONTINUOUS
 90
31
 70
0
 10
2.405022313
 20
17.5714529003
 10
2.4048321601
 20
17.58293102
 10
2.4041552061
 20
17.5946185227
 10
2.4029933063
 20
17.6064833752
 10
2.4013496453
 20
17.6184930581
 10
2.3992287281
 20
17.6306146552
 10
2.3966363677
 20
17.6428149434
 10
2.3935796693
 20
17.655060484
 10
2.3900670107
 20
17.6673177144
 10
2.3861080194
 20
17.6795530396
 10
2.3817135464
 20
17.6917329251
 10
2.376895636
 20
17.703823988
 10
2.3716674933
 20
17.7157930889
 10
2.3660434475
 20
17.7276074229
 10
2.3600389132
 20
17.739234609
 10
2.3536703476
 20
17.7506427794
 10
2.3469552058
 20
17.7618006663
 10
2.3399118927
 20
17.772677688
 10
2.3325597128
 20
17.7832440328
 10
2.3249188169
 20
17.7934707402
 10
2.3170101473
 20
17.8033297808
 10
2.3088553803
 20
17.8127941328
 10
2.3004768665
 20
17.8218378561
 10
2.2918975698
 20
17.8304361636
 10
2.2831410045
 20
17.8385654889
 10
2.2742311707
 20
17.8462035512
 10
2.2651924886
 20
17.8533294159
 10
2.2560497314
 20
17.8599235523
 10
2.2468279579
 20
17.8659678872
 10
2.237552443
 20
17.8714458542
 10
2.2282486094
 20
17.8763424391
  0
LINE
  5
42E
100
AcDbEntity
  8
IMPORT_IGES
100
AcDbLine
 62
253
  6
CONTINUOUS
 10
4.2306381194
 20
6.5544501882
 11
4.2594570214
 21
4.5176724001
  0
LINE
  5
42F
100
AcDbEntity
  8
RACCORDO
100
AcDbLine
 62
7
  6
CONTINUOUS
 10
2.47722017
 20
17.6593255325
 11
2.47722017
 21
17.3117940157
  0
LINE
  5
430
100
AcDbEntity
  8
RACCORDO
100
AcDbLine
 62
7
  6
CONTINUOUS
 10
2.47722017
 20
-23.9878101236
 11
2.47722017
 21
-24.3353416404
  0
LINE
  5
431
100
AcDbEntity
  8
ASSI
100
AcDbLine
 62
253
  6
CONTINUOUS
 10
2.7821718291
 20
20.5519035424
 11
2.7821718291
 21
21.7789535097
  0
LINE
  5
432
100
AcDbEntity
  8
RACCORDO
100
AcDbLine
 62
7
  6
CONTINUOUS
 10
2.905765893
 20
20.7000671632
 11
2.905765893
 21
21.7877546858
  0
LINE
  5
433
100
AcDbEntity
  8
RACCORDO
100
AcDbLine
 62
7
  6
CONTINUOUS
 10
2.9374153131
 20
15.4419872852
 11
2.9374153131
 21
-22.4746451455
  0
LINE
  5
434
100
AcDbEntity
  8
0
100
AcDbLine
 62
253
  6
CONTINUOUS
 10
2.9740037211
 20
11.4554412791
 11
2.9740037211
 21
11.5420438195
  0
LINE
  5
435
100
AcDbEntity
  8
0
100
AcDbLine
 62
253
  6
CONTINUOUS
 10
3.0944746629
 20
11.5789392731
 11
3.0947987169
 21
11.5861966067
  0
LINE
  5
436
100
AcDbEntity
  8
0
100
AcDbLine
 62
7
  6
CONTINUOUS
 10
3.0947987169
 20
11.5861966067
 11
3.0947987169
 21
11.6727991471
  0
LINE
  5
437
100
AcDbEntity
  8
0
100
AcDbLine
 62
253
  6
CONTINUOUS
 10
3.1159283371
 20
11.8042135096
 11
3.1159283371
 21
11.89081605
  0
LINE
  5
438
100
AcDbEntity
  8
IMPORT_IGES
100
AcDbLine
 62
7
  6
CONTINUOUS
 10
3.2451474771
 20
15.6289589785
 11
3.2451474771
 21
15.4557538978
  0
LINE
  5
439
100
AcDbEntity
  8
0
100
AcDbLine
 62
7
  6
CONTINUOUS
 10
3.4903677976
 20
11.7365728359
 11
3.4903677976
 21
11.8231753763
  0
LINE
  5
43A
100
AcDbEntity
  8
0
100
AcDbLine
 62
7
  6
CONTINUOUS
 10
3.5175448558
 20
11.750161365
 11
3.5175448558
 21
11.8367639053
  0
LINE
  5
43B
100
AcDbEntity
  8
IMPORT_IGES
100
AcDbLine
 62
7
  6
CONTINUOUS
 10
3.7505881114
 20
6.7944747749
 11
3.7505881114
 21
4.7734156602
  0
LINE
  5
43C
100
AcDbEntity
  8
IMPORT_IGES
100
AcDbLine
 62
7
  6
CONTINUOUS
 10
3.7505881114
 20
-7.9527517702
 11
3.7505881114
 21
-5.9044580279
  0
LINE
  5
43D
100
AcDbEntity
  8
IMPORT_IGES
100
AcDbLine
 62
7
  6
CONTINUOUS
 10
3.8566541286
 20
-2.9113557453
 11
3.8566541286
 21
1.1589636525
  0
LINE
  5
43E
100
AcDbEntity
  8
IMPORT_IGES
100
AcDbLine
 62
7
  6
CONTINUOUS
 10
3.9980754849
 20
1.2448278117
 11
3.9980754849
 21
-2.0619636496
  0
LINE
  5
43F
100
AcDbEntity
  8
IMPORT_IGES
100
AcDbLine
 62
7
  6
CONTINUOUS
 10
4.1783155892
 20
15.1623749225
 11
4.1783155892
 21
14.9891698418
  0
LINE
  5
440
100
AcDbEntity
  8
IMPORT_IGES
100
AcDbLine
 62
7
  6
CONTINUOUS
 10
4.2058326496
 20
16.3453804955
 11
4.2058326496
 21
16.4345471817
  0
LINE
  5
441
100
AcDbEntity
  8
IMPORT_IGES
100
AcDbLine
 62
7
  6
CONTINUOUS
 10
4.3869842145
 20
-3.5780162562
 11
4.3869842145
 21
-5.5040745348
  0
LINE
  5
442
100
AcDbEntity
  8
IMPORT_IGES
100
AcDbLine
 62
7
  6
CONTINUOUS
 10
4.3869842145
 20
2.3559542493
 11
4.3869842145
 21
4.2820125279
  0
LINE
  5
443
100
AcDbEntity
  8
IMPORT_IGES
100
AcDbLine
 62
7
  6
CONTINUOUS
 10
4.6163724828
 20
14.9433464757
 11
4.6163724828
 21
14.770141395
  0
LINE
  5
444
100
AcDbEntity
  8
IMPORT_IGES
100
AcDbLine
 62
253
  6
CONTINUOUS
 10
4.2616405868
 20
-5.6489317902
 11
4.2251647823
 21
-8.1900401058
  0
LWPOLYLINE
  5
445
100
AcDbEntity
  8
RACCORDO
100
AcDbPolyline
 62
7
  6
CONTINUOUS
 90
22
 70
0
 10
2.2195388902
 20
-22.8288089128
 10
2.2189194362
 20
-22.846654784
 10
2.2177102095
 20
-22.8641957591
 10
2.2159092869
 20
-22.8814004213
 10
2.213515391
 20
-22.8982354767
 10
2.2105292186
 20
-22.9146724944
 10
2.2069525442
 20
-22.9306872845
 10
2.2027883342
 20
-22.9462439972
 10
2.198037991
 20
-22.9613182832
 10
2.1926991372
 20
-22.9759009039
 10
2.1867730608
 20
-22.9899622111
 10
2.1802638578
 20
-23.0034690718
 10
2.1731706985
 20
-23.016403267
 10
2.1654909073
 20
-23.0287427382
 10
2.1572356524
 20
-23.0404444885
 10
2.1484273807
 20
-23.0514607068
 10
2.1390726751
 20
-23.0617681929
 10
2.1291865764
 20
-23.0713361089
 10
2.1188125053
 20
-23.0801158961
 10
2.1079664632
 20
-23.0880913607
 10
2.0966691737
 20
-23.0952446568
 10
2.0848939493
 20
-23.1015841249
  0
LINE
  5
446
100
AcDbEntity
  8
0
100
AcDbLine
 62
7
  6
CONTINUOUS
 10
3.0944746629
 20
11.6655418135
 11
3.0947444745
 21
11.672799074
  0
LINE
  5
447
100
AcDbEntity
  8
0
100
AcDbLine
 62
7
  6
CONTINUOUS
 10
3.0944746629
 20
11.5789392731
 11
3.0947444745
 21
11.5861965336
  0
LWPOLYLINE
  5
448
100
AcDbEntity
  8
RACCORDO
100
AcDbPolyline
 62
253
  6
CONTINUOUS
 90
16
 70
0
 10
2.47722017
 20
-24.3353416371
 10
2.4769188995
 20
-24.3414764692
 10
2.4759391809
 20
-24.3479794174
 10
2.4742824919
 20
-24.3544479817
 10
2.4719533404
 20
-24.3608645484
 10
2.4689580602
 20
-24.3672116595
 10
2.4653048013
 20
-24.3734720363
 10
2.4610035032
 20
-24.3796286394
 10
2.4560658707
 20
-24.3856647099
 10
2.4505053454
 20
-24.3915638123
 10
2.4443370563
 20
-24.3973098938
 10
2.437577795
 20
-24.4028873095
 10
2.4302459811
 20
-24.4082808617
 10
2.4223615829
 20
-24.4134758662
 10
2.4139460572
 20
-24.4184581897
 10
2.405022313
 20
-24.4232142726
  0
LWPOLYLINE
  5
449
100
AcDbEntity
  8
RACCORDO
100
AcDbPolyline
 62
253
  6
CONTINUOUS
 90
16
 70
0
 10
2.47722017
 20
-23.9878101236
 10
2.476916949
 20
-23.9939647679
 10
2.4759354432
 20
-24.0004662771
 10
2.4742772654
 20
-24.0069333532
 10
2.4719469269
 20
-24.0133484012
 10
2.4689507677
 20
-24.0196939681
 10
2.4652969395
 20
-24.0259527895
 10
2.4609953831
 20
-24.0321078373
 10
2.4560578016
 20
-24.0381423657
 10
2.4504976285
 20
-24.0440399568
 10
2.4443299913
 20
-24.049784565
 10
2.43757167
 20
-24.0553605612
 10
2.4302410518
 20
-24.0607527751
 10
2.4223580808
 20
-24.065946536
 10
2.4139442041
 20
-24.0709277137
 10
2.405022313
 20
-24.0756827558
  0
LINE
  5
44A
100
AcDbEntity
  8
IMPORT_IGES
100
AcDbLine
 62
7
  6
CONTINUOUS
 10
7.7752259879
 20
10.2423044509
 11
7.8034510507
 21
10.3162913822
  0
LWPOLYLINE
  5
44B
100
AcDbEntity
  8
IMPORT_IGES
100
AcDbPolyline
 62
253
  6
CONTINUOUS
 90
10
 70
0
 10
7.3979077011
 20
11.6299484561
 10
7.4029808609
 20
11.642452873
 10
7.4090576954
 20
11.6547105901
 10
7.4160345829
 20
11.6664583672
 10
7.4236929314
 20
11.6773518012
 10
7.4319221278
 20
11.6872938336
 10
7.4407902945
 20
11.6963640535
 10
7.4502169159
 20
11.7044221122
 10
7.4599254946
 20
11.7112076784
 10
7.469710599
 20
11.7166051272
  0
LWPOLYLINE
  5
44C
100
AcDbEntity
  8
IMPORT_IGES
100
AcDbPolyline
 62
253
  6
CONTINUOUS
 90
12
 70
0
 10
4.7103798232
 20
2.6358316874
 10
4.6945229282
 20
2.5998813673
 10
4.6752551484
 20
2.5663831253
 10
4.6529263384
 20
2.5359115759
 10
4.6279517108
 20
2.5089985152
 10
4.6007634543
 20
2.4860786396
 10
4.5717915227
 20
2.4675052174
 10
4.541536347
 20
2.4536040609
 10
4.5105218016
 20
2.4446206569
 10
4.4792348226
 20
2.4407131839
 10
4.4482040691
 20
2.441981317
 10
4.4289964123
 20
2.4454572889
  0
LINE
  5
44D
100
AcDbEntity
  8
IMPORT_IGES
100
AcDbLine
 62
253
  6
CONTINUOUS
 10
14.7287680035
 20
13.7940849818
 11
14.7169892672
 21
13.7787831927
  0
LWPOLYLINE
  5
44E
100
AcDbEntity
  8
IMPORT_IGES
100
AcDbPolyline
 62
7
  6
CONTINUOUS
 90
12
 70
0
 10
5.925050806
 20
2.3472318376
 10
5.8937933201
 20
2.313391571
 10
5.859776098
 20
2.2821551332
 10
5.8234308429
 20
2.2541244824
 10
5.7850073659
 20
2.2298298438
 10
5.7452467425
 20
2.2097138546
 10
5.7054010003
 20
2.1940597669
 10
5.6660956118
 20
2.1830058479
 10
5.6278414303
 20
2.176700235
 10
5.5917430559
 20
2.1750791313
 10
5.5584802336
 20
2.1778544139
 10
5.5402177516
 20
2.1814379107
  0
LWPOLYLINE
  5
44F
100
AcDbEntity
  8
IMPORT_IGES
100
AcDbPolyline
 62
253
  6
CONTINUOUS
 90
7
 70
0
 10
18.941024131
 20
5.7744814229
 10
18.9582839904
 20
5.7845059197
 10
18.9728498652
 20
5.7959486969
 10
18.9844725293
 20
5.8086139655
 10
18.9929531157
 20
5.8222850192
 10
18.9981465192
 20
5.8367279425
 10
18.9995317434
 20
5.8445958776
  0
LWPOLYLINE
  5
450
100
AcDbEntity
  8
RACCORDO
100
AcDbPolyline
 62
7
  6
CONTINUOUS
 90
27
 70
0
 10
-10.2202075878
 20
-9.2761051098
 10
-10.2325477591
 20
-9.2832584062
 10
-10.2442995153
 20
-9.2910692712
 10
-10.2554482501
 20
-9.2995090172
 10
-10.2659631031
 20
-9.308558643
 10
-10.2758492117
 20
-9.3181807471
 10
-10.2851477199
 20
-9.3283193671
 10
-10.2938469035
 20
-9.3389447685
 10
-10.3019395667
 20
-9.3500323576
 10
-10.309475131
 20
-9.3615350832
 10
-10.3164467647
 20
-9.3734254516
 10
-10.3228481332
 20
-9.3856813857
 10
-10.3287302781
 20
-9.3982664641
 10
-10.334089876
 20
-9.4111565545
 10
-10.3389215327
 20
-9.4243319723
 10
-10.3432734391
 20
-9.4377659431
 10
-10.3471444568
 20
-9.4514379374
 10
-10.3505302343
 20
-9.4653304093
 10
-10.3534739178
 20
-9.4794239316
 10
-10.3559755543
 20
-9.4937010609
 10
-10.3580318749
 20
-9.5081463339
 10
-10.3596805113
 20
-9.5227457882
 10
-10.3609221274
 20
-9.5374848079
 10
-10.361754375
 20
-9.5523495477
 10
-10.3622096627
 20
-9.567329233
 10
-10.3622889098
 20
-9.5824113973
 10
-10.3599837055
 20
-9.8039537019
  0
LWPOLYLINE
  5
451
100
AcDbEntity
  8
RACCORDO
100
AcDbPolyline
 62
7
  6
CONTINUOUS
 90
26
 70
0
 10
-9.4189554231
 20
-8.3032292216
 10
-9.4312972583
 20
-8.3103335266
 10
-9.4430520685
 20
-8.3180968236
 10
-9.454205191
 20
-8.3264904527
 10
-9.4647257075
 20
-8.3354954348
 10
-9.4746186988
 20
-8.3450743875
 10
-9.4839252547
 20
-8.3551713653
 10
-9.4926335904
 20
-8.3657566503
 10
-9.5007364532
 20
-8.3768056452
 10
-9.5082832176
 20
-8.3882712787
 10
-9.5152669942
 20
-8.400126061
 10
-9.521681394
 20
-8.4123479046
 10
-9.5275774226
 20
-8.4249003478
 10
-9.5329517041
 20
-8.4377592524
 10
-9.537798794
 20
-8.4509049206
 10
-9.5421668581
 20
-8.4643105298
 10
-9.5460547115
 20
-8.477955539
 10
-9.5494579573
 20
-8.4918223882
 10
-9.5524197249
 20
-8.5058916023
 10
-9.5549400207
 20
-8.5201457244
 10
-9.557015535
 20
-8.534569276
 10
-9.5586838893
 20
-8.5491482516
 10
-9.5599457125
 20
-8.5638680203
 10
-9.5607986197
 20
-8.578714722
 10
-9.5612750128
 20
-8.5936775456
 10
-9.5613681484
 20
-8.6098316502
  0
LWPOLYLINE
  5
452
100
AcDbEntity
  8
IMPORT_IGES
100
AcDbPolyline
 62
7
  6
CONTINUOUS
 90
7
 70
0
 10
18.7926737071
 20
6.3874089309
 10
18.8185930747
 20
6.4021854505
 10
18.8404169147
 20
6.418530685
 10
18.8577747229
 20
6.4361606579
 10
18.8703740297
 20
6.4547647468
 10
18.8780016618
 20
6.4740226908
 10
18.8805243678
 20
6.4923915519
  0
LWPOLYLINE
  5
453
100
AcDbEntity
  8
IMPORT_IGES
100
AcDbPolyline
 62
253
  6
CONTINUOUS
 90
6
 70
0
 10
19.8372673834
 20
6.8554222787
 10
19.8629292215
 20
6.8700360211
 10
19.8845109423
 20
6.8861153869
 10
19.9017057839
 20
6.9033746259
 10
19.9142313507
 20
6.9214149198
 10
19.9220476772
 20
6.9400228036
  0
LWPOLYLINE
  5
454
100
AcDbEntity
  8
IMPORT_IGES
100
AcDbPolyline
 62
7
  6
CONTINUOUS
 90
11
 70
0
 10
19.5773741978
 20
6.3145484783
 10
19.6257782196
 20
6.3418162394
 10
19.6720599369
 20
6.3743155397
 10
19.7157207267
 20
6.4119912057
 10
19.7562053288
 20
6.4546392115
 10
19.7931545933
 20
6.5021551616
 10
19.8263673553
 20
6.5546788151
 10
19.8555713305
 20
6.6124226725
 10
19.8801548972
 20
6.6749263602
 10
19.8995873018
 20
6.7413690027
 10
19.9136514451
 20
6.8113218287
  0
LINE
  5
455
100
AcDbEntity
  8
RACCORDO
100
AcDbLine
 62
7
  6
CONTINUOUS
 10
-8.6591358984
 20
-7.908417994
 11
-9.4156164247
 21
-8.3014746686
  0
LINE
  5
456
100
AcDbEntity
  8
RACCORDO
100
AcDbLine
 62
7
  6
CONTINUOUS
 10
-9.5588145715
 20
-8.9324194805
 11
-10.2157463328
 21
-9.2737520125
  0
LINE
  5
457
100
AcDbEntity
  8
IMPORT_IGES
100
AcDbLine
 62
253
  6
CONTINUOUS
 10
19.5777114223
 20
6.3147173026
 11
19.5773741978
 21
6.3145484783
  0
LINE
  5
458
100
AcDbEntity
  8
IMPORT_IGES
100
AcDbLine
 62
7
  6
CONTINUOUS
 10
-7.5952144816
 20
-6.7630962739
 11
-8.5177145421
 21
-7.2243463042
  0
LINE
  5
459
100
AcDbEntity
  8
IMPORT_IGES
100
AcDbLine
 62
7
  6
CONTINUOUS
 10
5.9586855145
 20
-0.0295851654
 11
18.7926737071
 21
6.3874089309
  0
LINE
  5
45A
100
AcDbEntity
  8
IMPORT_IGES
100
AcDbLine
 62
253
  6
CONTINUOUS
 10
18.8788567642
 20
6.3762169691
 11
19.8372673834
 21
6.8554222787
  0
LINE
  5
45B
100
AcDbEntity
  8
IMPORT_IGES
100
AcDbLine
 62
7
  6
CONTINUOUS
 10
16.0421516402
 20
4.9254219311
 11
5.9588089405
 21
-0.1162494187
  0
LINE
  5
45C
100
AcDbEntity
  8
IMPORT_IGES
100
AcDbLine
 62
7
  6
CONTINUOUS
 10
19.5773741978
 20
6.3145484783
 11
18.8729155552
 21
5.962319157
  0
LINE
  5
45D
100
AcDbEntity
  8
IMPORT_IGES
100
AcDbLine
 62
7
  6
CONTINUOUS
 10
-8.6055825078
 20
-7.815124534
 11
-9.313209671
 21
-8.1689381156
  0
LINE
  5
45E
100
AcDbEntity
  8
IMPORT_IGES
100
AcDbLine
 62
253
  6
CONTINUOUS
 10
18.8697074277
 20
5.7388230712
 11
18.941024131
 21
5.7744814228
  0
LINE
  5
45F
100
AcDbEntity
  8
IMPORT_IGES
100
AcDbLine
 62
7
  6
CONTINUOUS
 10
4.7758929442
 20
-2.5085618914
 11
4.3869842145
 21
-2.7030162562
  0
LINE
  5
460
100
AcDbEntity
  8
IMPORT_IGES
100
AcDbLine
 62
7
  6
CONTINUOUS
 10
3.9980754849
 20
-2.0619636496
 11
3.8566541286
 21
-2.1296510217
  0
LINE
  5
461
100
AcDbEntity
  8
IMPORT_IGES
100
AcDbLine
 62
7
  6
CONTINUOUS
 10
3.8566541286
 20
-2.9113557453
 11
4.3869842145
 21
-2.7030162562
  0
LWPOLYLINE
  5
462
100
AcDbEntity
  8
IMPORT_IGES
100
AcDbPolyline
 62
253
  6
CONTINUOUS
 90
10
 70
0
 10
4.3869842145
 20
2.5999484231
 10
4.4209827068
 20
2.5946898613
 10
4.459387022
 20
2.5913854692
 10
4.4984431961
 20
2.5905669394
 10
4.5374858183
 20
2.5922461731
 10
4.5758512318
 20
2.5963925823
 10
4.6129419401
 20
2.6029452215
 10
4.6481366077
 20
2.6118059349
 10
4.680806152
 20
2.6228286185
 10
4.7103800232
 20
2.6358317874
  0
LINE
  5
463
100
AcDbEntity
  8
IMPORT_IGES
100
AcDbLine
 62
7
  6
CONTINUOUS
 10
4.3869842145
 20
2.3559542493
 11
5.6244210816
 21
2.0996726829
  0
LINE
  5
464
100
AcDbEntity
  8
IMPORT_IGES
100
AcDbLine
 62
253
  6
CONTINUOUS
 10
5.9250507979
 20
2.3472318163
 11
4.7103798864
 21
2.635831719
  0
LINE
  5
465
100
AcDbEntity
  8
IMPORT_IGES
100
AcDbLine
 62
7
  6
CONTINUOUS
 10
5.5427326516
 20
2.1808390038
 11
4.4282563087
 21
2.4456344924
  0
LWPOLYLINE
  5
466
100
AcDbEntity
  8
IMPORT_IGES
100
AcDbPolyline
 62
7
  6
CONTINUOUS
 90
7
 70
0
 10
4.3869842145
 20
2.458756882
 10
4.3947210482
 20
2.4557881883
 10
4.4026174959
 20
2.4530082825
 10
4.4105890161
 20
2.45044961
 10
4.4186259125
 20
2.4481151768
 10
4.4267237096
 20
2.4460061019
 10
4.4283921227
 20
2.4456013808
  0
LINE
  5
467
100
AcDbEntity
  8
ASSI
100
AcDbLine
 62
7
  6
CONTINUOUS
 10
-5.4818086739
 20
6.9507815643
 11
-18.9168375165
 21
13.6682959856
  0
LINE
  5
468
100
AcDbEntity
  8
RACCORDO
100
AcDbLine
 62
7
  6
CONTINUOUS
 10
-5.5880627754
 20
7.0563063403
 11
-18.7448289667
 21
13.6346894359
  0
LINE
  5
469
100
AcDbEntity
  8
RACCORDO
100
AcDbLine
 62
253
  6
CONTINUOUS
 10
-5.6870183642
 20
7.1496138337
 11
-18.6977831381
 21
13.6549962206
  0
LINE
  5
46A
100
AcDbEntity
  8
IMPORT_IGES
100
AcDbLine
 62
7
  6
CONTINUOUS
 10
5.6244210816
 20
2.0996726829
 11
5.3890689588
 21
2.2173487442
  0
LWPOLYLINE
  5
46B
100
AcDbEntity
  8
RACCORDO
100
AcDbPolyline
 62
7
  6
CONTINUOUS
 90
3
 70
0
 10
-18.7623639402
 20
13.6442115146
 10
-18.7483643398
 20
13.6364829893
 10
-18.7448159135
 20
13.6346830928
  0
LWPOLYLINE
  5
46C
100
AcDbEntity
  8
RACCORDO
100
AcDbPolyline
 62
7
  6
CONTINUOUS
 90
5
 70
0
 10
-5.5826298739
 20
7.0543444814
 10
-5.596174412
 20
7.0628415737
 10
-5.6092383864
 20
7.072023399
 10
-5.6218146533
 20
7.08181358
 10
-5.6339098781
 20
7.0921232145
  0
LWPOLYLINE
  5
46D
100
AcDbEntity
  8
RACCORDO
100
AcDbPolyline
 62
253
  6
CONTINUOUS
 90
14
 70
0
 10
-10.9592958514
 20
23.9060804658
 10
-10.9549481607
 20
23.8987273683
 10
-10.9510979145
 20
23.8916343287
 10
-10.9477556277
 20
23.8848207179
 10
-10.94493043
 20
23.8783051489
 10
-10.942630034
 20
23.8721054096
 10
-10.9408607183
 20
23.8662384174
 10
-10.939627317
 20
23.8607201873
 10
-10.9389332063
 20
23.8555658037
 10
-10.9387802853
 20
23.8507893612
 10
-10.9391689693
 20
23.8464039091
 10
-10.9400981947
 20
23.842421416
 10
-10.9415654238
 20
23.838852754
 10
-10.9435348214
 20
23.83575769
  0
LWPOLYLINE
  5
46E
100
AcDbEntity
  8
IMPORT_IGES
100
AcDbPolyline
 62
7
  6
CONTINUOUS
 90
13
 70
0
 10
4.3869842145
 20
4.2820125279
 10
4.3855084234
 20
4.306250731
 10
4.3818613804
 20
4.3303392257
 10
4.3760430854
 20
4.354278012
 10
4.3678845142
 20
4.3784192223
 10
4.3575546911
 20
4.4024107243
 10
4.345560689
 20
4.425196121
 10
4.3318530213
 20
4.4467395474
 10
4.3164811746
 20
4.4670768686
 10
4.3001006817
 20
4.4852592833
 10
4.2829300535
 20
4.5009705244
 10
4.264750779
 20
4.5145268589
 10
4.2455628583
 20
4.5259282868
  0
LWPOLYLINE
  5
46F
100
AcDbEntity
  8
IMPORT_IGES
100
AcDbPolyline
 62
253
  6
CONTINUOUS
 90
3
 70
0
 10
5.8399850603
 20
10.8767350195
 10
5.8381959273
 20
10.9112954287
 10
5.8378037091
 20
10.913922938
  0
LINE
  5
470
100
AcDbEntity
  8
IMPORT_IGES
100
AcDbLine
 62
7
  6
CONTINUOUS
 10
5.5015945829
 20
2.1906132074
 11
5.5020339786
 21
2.1608662344
  0
LINE
  5
471
100
AcDbEntity
  8
IMPORT_IGES
100
AcDbLine
 62
253
  6
CONTINUOUS
 10
4.7103798864
 20
2.635831719
 11
4.6548625862
 21
6.5590040401
  0
LINE
  5
472
100
AcDbEntity
  8
IMPORT_IGES
100
AcDbLine
 62
253
  6
CONTINUOUS
 10
5.9250507979
 20
2.3472318163
 11
5.9586855145
 21
-0.0295851654
  0
LINE
  5
473
100
AcDbEntity
  8
IMPORT_IGES
100
AcDbLine
 62
7
  6
CONTINUOUS
 10
4.7537498953
 20
16.8284192038
 11
4.7537498953
 21
16.8225177667
  0
LINE
  5
474
100
AcDbEntity
  8
IMPORT_IGES
100
AcDbLine
 62
7
  6
CONTINUOUS
 10
4.7758929442
 20
1.6754086141
 11
4.7758929442
 21
-2.5085618914
  0
LINE
  5
475
100
AcDbEntity
  8
IMPORT_IGES
100
AcDbLine
 62
7
  6
CONTINUOUS
 10
5.4971956011
 20
14.5029349166
 11
5.4971956011
 21
14.3297298358
  0
LINE
  5
476
100
AcDbEntity
  8
IMPORT_IGES
100
AcDbLine
 62
7
  6
CONTINUOUS
 10
5.6244210816
 20
2.0996726829
 11
5.6244210816
 21
-2.0842978227
  0
LINE
  5
477
100
AcDbEntity
  8
IMPORT_IGES
100
AcDbLine
 62
253
  6
CONTINUOUS
 10
5.8399850603
 20
10.8767350194
 11
5.8399850603
 21
10.4178885155
  0
LINE
  5
478
100
AcDbEntity
  8
IMPORT_IGES
100
AcDbLine
 62
7
  6
CONTINUOUS
 10
5.927853026
 20
10.8688982795
 11
5.927853026
 21
10.5114208509
  0
LINE
  5
479
100
AcDbEntity
  8
IMPORT_IGES
100
AcDbLine
 62
7
  6
CONTINUOUS
 10
5.9395792811
 20
14.2817430766
 11
5.9395792811
 21
14.1085379958
  0
LINE
  5
47A
100
AcDbEntity
  8
IMPORT_IGES
100
AcDbLine
 62
7
  6
CONTINUOUS
 10
6.0315137692
 20
16.2801455891
 11
6.0315137692
 21
16.3568409105
  0
LINE
  5
47B
100
AcDbEntity
  8
IMPORT_IGES
100
AcDbLine
 62
7
  6
CONTINUOUS
 10
6.3693177705
 20
14.0667465526
 11
6.3693177705
 21
13.8935414719
  0
LINE
  5
47C
100
AcDbEntity
  8
IMPORT_IGES
100
AcDbLine
 62
7
  6
CONTINUOUS
 10
6.5341634531
 20
16.1055160686
 11
6.5341634531
 21
15.9323109878
  0
LINE
  5
47D
100
AcDbEntity
  8
IMPORT_IGES
100
AcDbLine
 62
253
  6
CONTINUOUS
 10
4.7144099273
 20
-3.6653626099
 11
4.6493965423
 21
-8.1945582192
  0
LINE
  5
47E
100
AcDbEntity
  8
IMPORT_IGES
100
AcDbLine
 62
253
  6
CONTINUOUS
 10
5.9588089405
 20
-0.1162494187
 11
5.9285871982
 21
-2.2216648216
  0
LWPOLYLINE
  5
47F
100
AcDbEntity
  8
IMPORT_IGES
100
AcDbPolyline
 62
253
  6
CONTINUOUS
 90
10
 70
0
 10
7.4892180822
 20
12.2182396073
 10
7.488205223
 20
12.2031273087
 10
7.4851714063
 20
12.1873391885
 10
7.480169082
 20
12.1713266352
 10
7.473325787
 20
12.1555902051
 10
7.4648057712
 20
12.1405756859
 10
7.4547788393
 20
12.1266788828
 10
7.4434880257
 20
12.1143562112
 10
7.4312733536
 20
12.1040876319
 10
7.4185075018
 20
12.0962816793
  0
LWPOLYLINE
  5
480
100
AcDbEntity
  8
IMPORT_IGES
100
AcDbPolyline
 62
253
  6
CONTINUOUS
 90
19
 70
0
 10
7.9866977657
 20
12.428563803
 10
7.9845466103
 20
12.4124963883
 10
7.9782272562
 20
12.3964513779
 10
7.96800299
 20
12.3811607847
 10
7.9536560233
 20
12.3666240839
 10
7.9354041444
 20
12.3528418003
 10
7.9141640046
 20
12.3405475207
 10
7.8897790976
 20
12.3298340932
 10
7.8624059297
 20
12.3206086698
 10
7.8334306712
 20
12.3133262928
 10
7.802822144
 20
12.308081097
 10
7.7706115262
 20
12.3047789476
 10
7.7382785224
 20
12.3035924829
 10
7.7057511746
 20
12.3046181152
 10
7.6731014409
 20
12.3077594323
 10
7.6420248992
 20
12.3128998356
 10
7.6130867424
 20
12.320000459
 10
7.5857217778
 20
12.3291001687
 10
7.5599300052
 20
12.3401989646
  0
LWPOLYLINE
  5
481
100
AcDbEntity
  8
IMPORT_IGES
100
AcDbPolyline
 62
253
  6
CONTINUOUS
 90
13
 70
0
 10
12.6486320067
 20
15.4087314993
 10
12.6584398426
 20
15.4332543671
 10
12.6656240994
 20
15.4586085493
 10
12.6700393569
 20
15.4843536076
 10
12.6715881017
 20
15.5101926129
 10
12.6701859913
 20
15.5355029194
 10
12.665942164
 20
15.5593938042
 10
12.6591641137
 20
15.581249916
 10
12.6500562764
 20
15.601077608
 10
12.6386582914
 20
15.6189537827
 10
12.6250579607
 20
15.6346717139
 10
12.609530178
 20
15.647855269
 10
12.5923209402
 20
15.6582812777
  0
LINE
  5
482
100
AcDbEntity
  8
IMPORT_IGES
100
AcDbLine
 62
7
  6
CONTINUOUS
 10
5.6244210816
 20
-2.0842978227
 11
4.3869842145
 21
-3.5780162562
  0
LINE
  5
483
100
AcDbEntity
  8
IMPORT_IGES
100
AcDbLine
 62
253
  6
CONTINUOUS
 10
4.7144099273
 20
-3.6653626099
 11
5.9285871982
 21
-2.2216648216
  0
LWPOLYLINE
  5
484
100
AcDbEntity
  8
IMPORT_IGES
100
AcDbPolyline
 62
253
  6
CONTINUOUS
 90
3
 70
0
 10
19.6377221452
 20
6.3522256447
 10
19.5929815311
 20
6.322817023
 10
19.5777114223
 20
6.3147173026
  0
LWPOLYLINE
  5
485
100
AcDbEntity
  8
IMPORT_IGES
100
AcDbPolyline
 62
253
  6
CONTINUOUS
 90
11
 70
0
 10
4.7144099273
 20
-3.6653626099
 10
4.6849356264
 20
-3.6782498738
 10
4.6523274078
 20
-3.6890326908
 10
4.6171389162
 20
-3.6975238448
 10
4.5799633205
 20
-3.7035756879
 10
4.5414404915
 20
-3.7070797783
 10
4.5022477819
 20
-3.707972845
 10
4.463055466
 20
-3.7062396429
 10
4.4245370498
 20
-3.7019099846
 10
4.3873741797
 20
-3.6950630427
 10
4.3869842145
 20
-3.6949605772
  0
LINE
  5
486
100
AcDbEntity
  8
IMPORT_IGES
100
AcDbLine
 62
7
  6
CONTINUOUS
 10
3.6730896679
 20
4.812164882
 11
4.2455628583
 21
4.5259282868
  0
LWPOLYLINE
  5
487
100
AcDbEntity
  8
0
100
AcDbPolyline
 62
7
  6
CONTINUOUS
 90
3
 70
0
 10
2.9374153131
 20
11.7264072962
 10
2.9390434589
 20
11.719316915
 10
2.9392792407
 20
11.7136323027
  0
LWPOLYLINE
  5
488
100
AcDbEntity
  8
IMPORT_IGES
100
AcDbPolyline
 62
7
  6
CONTINUOUS
 90
6
 70
0
 10
8.0867045636
 20
12.3420640159
 10
8.0854868551
 20
12.3618497202
 10
8.0800795613
 20
12.3880504781
 10
8.0701922137
 20
12.4139287284
 10
8.055907101
 20
12.4387216673
 10
8.0374643399
 20
12.4618797083
  0
LINE
  5
489
100
AcDbEntity
  8
IMPORT_IGES
100
AcDbLine
 62
7
  6
CONTINUOUS
 10
6.8120670247
 20
13.8453719255
 11
6.8120670247
 21
13.6721668448
  0
LINE
  5
48A
100
AcDbEntity
  8
IMPORT_IGES
100
AcDbLine
 62
7
  6
CONTINUOUS
 10
6.9764997569
 20
13.7632828387
 11
6.9764997569
 21
13.5900777579
  0
LINE
  5
48B
100
AcDbEntity
  8
IMPORT_IGES
100
AcDbLine
 62
7
  6
CONTINUOUS
 10
7.2136527647
 20
15.7657714128
 11
7.2136527647
 21
15.592566332
  0
LINE
  5
48C
100
AcDbEntity
  8
RACCORDO
100
AcDbLine
 62
7
  6
CONTINUOUS
 10
7.2449837483
 20
-16.7821108562
 11
7.2449837483
 21
-15.9434135565
  0
LINE
  5
48D
100
AcDbEntity
  8
RACCORDO
100
AcDbLine
 62
7
  6
CONTINUOUS
 10
7.2449837483
 20
18.7453228848
 11
7.2449837483
 21
18.9776722802
  0
LINE
  5
48E
100
AcDbEntity
  8
IMPORT_IGES
100
AcDbLine
 62
7
  6
CONTINUOUS
 10
7.4189470765
 20
13.5420591789
 11
7.4189470765
 21
13.3688540981
  0
LINE
  5
48F
100
AcDbEntity
  8
RACCORDO
100
AcDbLine
 62
253
  6
CONTINUOUS
 10
7.493128072
 20
19.6061820517
 11
7.493128072
 21
19.1088520948
  0
LINE
  5
490
100
AcDbEntity
  8
RACCORDO
100
AcDbLine
 62
253
  6
CONTINUOUS
 10
7.493128072
 20
-17.2498531565
 11
7.493128072
 21
-17.7471831135
  0
LINE
  5
491
100
AcDbEntity
  8
RACCORDO
100
AcDbLine
 62
7
  6
CONTINUOUS
 10
7.6334581718
 20
19.9066865604
 11
7.6334581718
 21
19.2851161684
  0
LINE
  5
492
100
AcDbEntity
  8
RACCORDO
100
AcDbLine
 62
7
  6
CONTINUOUS
 10
7.6334581718
 20
-17.0787880449
 11
7.6334581718
 21
-17.7003584369
  0
LINE
  5
493
100
AcDbEntity
  8
IMPORT_IGES
100
AcDbLine
 62
7
  6
CONTINUOUS
 10
8.2399242124
 20
13.1315706109
 11
8.2399242124
 21
12.9583655302
  0
LINE
  5
494
100
AcDbEntity
  8
IMPORT_IGES
100
AcDbLine
 62
7
  6
CONTINUOUS
 10
8.2521635237
 20
15.0733109525
 11
8.2521635237
 21
15.2465160333
  0
LINE
  5
495
100
AcDbEntity
  8
IMPORT_IGES
100
AcDbLine
 62
7
  6
CONTINUOUS
 10
8.7208869312
 20
12.8910892515
 11
8.7208869312
 21
12.7178841707
  0
LINE
  5
496
100
AcDbEntity
  8
IMPORT_IGES
100
AcDbLine
 62
7
  6
CONTINUOUS
 10
8.9332593819
 20
14.9059681042
 11
8.9332593819
 21
14.7327630234
  0
LWPOLYLINE
  5
497
100
AcDbEntity
  8
RACCORDO
100
AcDbPolyline
 62
7
  6
CONTINUOUS
 90
17
 70
0
 10
7.2449837483
 20
18.7453228848
 10
7.2446378378
 20
18.7295709632
 10
7.2436293611
 20
18.7142871367
 10
7.2419583179
 20
18.6994714051
 10
7.2396152481
 20
18.6850848238
 10
7.2366096119
 20
18.6711663374
 10
7.2329697904
 20
18.6578327803
 10
7.2286899717
 20
18.6450898982
 10
7.2237759678
 20
18.6329319455
 10
7.2182735949
 20
18.6214585186
 10
7.212179473
 20
18.6106777224
 10
7.2054969821
 20
18.6005814521
 10
7.1982820795
 20
18.5912449899
 10
7.1905271919
 20
18.5826720407
 10
7.1822398927
 20
18.5748588995
 10
7.1734988588
 20
18.5678697335
 10
7.1725473135
 20
18.567178703
  0
LWPOLYLINE
  5
498
100
AcDbEntity
  8
IMPORT_IGES
100
AcDbPolyline
 62
253
  6
CONTINUOUS
 90
20
 70
0
 10
8.0867046001
 20
12.3419923108
 10
8.0865502256
 20
12.336786642
 10
8.08170401
 20
12.3125074287
 10
8.0702380881
 20
12.2889379571
 10
8.0526831727
 20
12.26672161
 10
8.0297111349
 20
12.2462664679
 10
8.0019572084
 20
12.2278116434
 10
7.9702117791
 20
12.2116242213
 10
7.9354516224
 20
12.1979354476
 10
7.8982605689
 20
12.1867422414
 10
7.8587410322
 20
12.177966109
 10
7.8174336672
 20
12.1717024709
 10
7.7750644902
 20
12.1680379553
 10
7.731880811
 20
12.1670003433
 10
7.6885778108
 20
12.1686460369
 10
7.6457882586
 20
12.1729909567
 10
7.6037097495
 20
12.1801100291
 10
7.5629607895
 20
12.1900683769
 10
7.5245241096
 20
12.2028080781
 10
7.4892323887
 20
12.2182324548
  0
LWPOLYLINE
  5
499
100
AcDbEntity
  8
IMPORT_IGES
100
AcDbPolyline
 62
253
  6
CONTINUOUS
 90
12
 70
0
 10
4.6493965423
 20
-8.1945582192
 10
4.6324489384
 20
-8.2290895316
 10
4.6122212805
 20
-8.2611998142
 10
4.5890493721
 20
-8.2903472202
 10
4.5633154807
 20
-8.3160418803
 10
4.5354524186
 20
-8.3378435085
 10
4.5059389961
 20
-8.3553744585
 10
4.4752703704
 20
-8.3683406315
 10
4.4439637361
 20
-8.3765233902
 10
4.4125625611
 20
-8.3797850217
 10
4.3815996656
 20
-8.3780797972
 10
4.3562150977
 20
-8.3728092568
  0
LWPOLYLINE
  5
49A
100
AcDbEntity
  8
IMPORT_IGES
100
AcDbPolyline
 62
253
  6
CONTINUOUS
 90
7
 70
0
 10
5.4368979593
 20
-8.4155730945
 10
5.4199352999
 20
-8.4501313958
 10
5.3996959211
 20
-8.4822524819
 10
5.3765196802
 20
-8.5113969793
 10
5.35079575
 20
-8.5370754969
 10
5.3229560838
 20
-8.558856844
 10
5.2934681623
 20
-8.5763752707
  0
LWPOLYLINE
  5
49B
100
AcDbEntity
  8
IMPORT_IGES
100
AcDbPolyline
 62
7
  6
CONTINUOUS
 90
8
 70
0
 10
4.3350990264
 20
-5.6121504347
 10
4.345560689
 20
-5.6058346024
 10
4.3575546911
 20
-5.5950432077
 10
4.3678845142
 20
-5.5813815289
 10
4.3760430854
 20
-5.5653988898
 10
4.3818613804
 20
-5.5472783984
 10
4.3855084234
 20
-5.5268369467
 10
4.3869842145
 20
-5.5040745348
  0
LWPOLYLINE
  5
49C
100
AcDbEntity
  8
IMPORT_IGES
100
AcDbPolyline
 62
7
  6
CONTINUOUS
 90
12
 70
0
 10
18.2180961775
 20
-0.1421460312
 10
18.2456397056
 20
-0.1277921106
 10
18.3387054114
 20
-0.069673358
 10
18.4256592037
 20
0.0005038163
 10
18.5052533811
 20
0.0821640032
 10
18.5769057113
 20
0.1751668751
 10
18.640000203
 20
0.2794274507
 10
18.6935928561
 20
0.3942114824
 10
18.736888531
 20
0.5184786366
 10
18.7694285466
 20
0.6514850567
 10
18.7908791531
 20
0.7928115818
 10
18.8008502056
 20
0.9418063789
  0
LINE
  5
49D
100
AcDbEntity
  8
IMPORT_IGES
100
AcDbLine
 62
253
  6
CONTINUOUS
 10
4.3869842145
 20
-5.5040745348
 11
2.9374153131
 21
-6.2288589855
  0
LINE
  5
49E
100
AcDbEntity
  8
IMPORT_IGES
100
AcDbLine
 62
7
  6
CONTINUOUS
 10
2.9374153131
 20
-6.3110444271
 11
4.3350055774
 21
-5.6122492949
  0
LINE
  5
49F
100
AcDbEntity
  8
IMPORT_IGES
100
AcDbLine
 62
7
  6
CONTINUOUS
 10
17.4541460985
 20
0.2060015128
 11
18.7129787799
 21
0.8354150739
  0
LINE
  5
4A0
100
AcDbEntity
  8
IMPORT_IGES
100
AcDbLine
 62
7
  6
CONTINUOUS
 10
18.2184599705
 20
-0.1419642641
 11
17.4970622683
 21
-0.5026631152
  0
LWPOLYLINE
  5
4A1
100
AcDbEntity
  8
IMPORT_IGES
100
AcDbPolyline
 62
7
  6
CONTINUOUS
 90
5
 70
0
 10
19.0669152899
 20
9.8499937429
 10
19.0224088834
 20
9.8457783467
 10
18.9788841991
 20
9.8369724617
 10
18.9370050304
 20
9.8237678414
 10
18.897187784
 20
9.8064152834
  0
LWPOLYLINE
  5
4A2
100
AcDbEntity
  8
IMPORT_IGES
100
AcDbPolyline
 62
253
  6
CONTINUOUS
 90
13
 70
0
 10
4.3324383323
 20
6.9132888692
 10
4.3609972794
 20
6.8992593249
 10
4.3914735128
 20
6.8837161075
 10
4.4233580978
 20
6.8669224641
 10
4.455973097
 20
6.849242437
 10
4.4889347936
 20
6.8308907755
 10
4.5221697754
 20
6.8119017471
 10
4.5553293778
 20
6.7924530718
 10
4.5876068517
 20
6.7729957359
 10
4.61823483
 20
6.7539786031
 10
4.646594503
 20
6.7357775418
 10
4.6721988974
 20
6.7186959525
 10
4.6945394586
 20
6.7030609775
  0
LINE
  5
4A3
100
AcDbEntity
  8
IMPORT_IGES
100
AcDbLine
 62
7
  6
CONTINUOUS
 10
3.2763689574
 20
6.7224728553
 11
2.9374153131
 21
6.8919496775
  0
LINE
  5
4A4
100
AcDbEntity
  8
ASSI
100
AcDbLine
 62
253
  6
CONTINUOUS
 10
-19.4847675931
 20
18.3768631996
 11
-18.7898589756
 21
18.0294088908
  0
LINE
  5
4A5
100
AcDbEntity
  8
ASSI
100
AcDbLine
 62
253
  6
CONTINUOUS
 10
-5.3548301331
 20
11.3118944695
 11
-4.6599215155
 21
10.9644401608
  0
LINE
  5
4A6
100
AcDbEntity
  8
IMPORT_IGES
100
AcDbLine
 62
253
  6
CONTINUOUS
 10
4.2306381194
 20
6.5544501882
 11
3.7505881114
 21
6.794474825
  0
LINE
  5
4A7
100
AcDbEntity
  8
RACCORDO
100
AcDbLine
 62
253
  6
CONTINUOUS
 10
-5.5612033962
 20
11.4748391671
 11
-18.5719681701
 21
17.980221554
  0
LINE
  5
4A8
100
AcDbEntity
  8
IMPORT_IGES
100
AcDbLine
 62
253
  6
CONTINUOUS
 10
17.2812331337
 20
0.1325956988
 11
17.5202611967
 21
0.0130817468
  0
LINE
  5
4A9
100
AcDbEntity
  8
IMPORT_IGES
100
AcDbLine
 62
253
  6
CONTINUOUS
 10
4.332427222
 20
6.913269388
 11
3.8541324385
 21
7.1524220558
  0
LINE
  5
4AA
100
AcDbEntity
  8
IMPORT_IGES
100
AcDbLine
 62
253
  6
CONTINUOUS
 10
17.410410891
 20
0.5700592155
 11
17.2883883849
 21
0.6310704686
  0
LWPOLYLINE
  5
4AB
100
AcDbEntity
  8
IMPORT_IGES
100
AcDbPolyline
 62
7
  6
CONTINUOUS
 90
13
 70
0
 10
3.2762391597
 20
6.722538162
 10
3.3033461546
 20
6.707580562
 10
3.3316009382
 20
6.6893122011
 10
3.3605729209
 20
6.6679499907
 10
3.3898940552
 20
6.6438232893
 10
3.4190590892
 20
6.6172554505
 10
3.4474315232
 20
6.5885580417
 10
3.4746641942
 20
6.5582665395
 10
3.5003059857
 20
6.5268946703
 10
3.5235927503
 20
6.4948044785
 10
3.5440675347
 20
6.4625659124
 10
3.5615988037
 20
6.4309496494
 10
3.5759783772
 20
6.4006698859
  0
LWPOLYLINE
  5
4AC
100
AcDbEntity
  8
IMPORT_IGES
100
AcDbPolyline
 62
253
  6
CONTINUOUS
 90
6
 70
0
 10
16.023446854
 20
-3.098771233
 10
16.0406153816
 20
-3.1116393728
 10
16.053941011
 20
-3.1224231158
 10
16.0632538967
 20
-3.130972151
 10
16.0684368439
 20
-3.1371493499
 10
16.0694068813
 20
-3.1411743672
  0
LWPOLYLINE
  5
4AD
100
AcDbEntity
  8
0
100
AcDbPolyline
 62
7
  6
CONTINUOUS
 90
7
 70
0
 10
3.0867119362
 20
11.7076498382
 10
3.079257898
 20
11.7206742921
 10
3.0693025252
 20
11.7332410912
 10
3.0564371983
 20
11.7456389699
 10
3.0405257109
 20
11.7579641729
 10
3.0217042694
 20
11.7701204554
 10
2.9999728738
 20
11.7821078174
  0
LWPOLYLINE
  5
4AE
100
AcDbEntity
  8
IMPORT_IGES
100
AcDbPolyline
 62
253
  6
CONTINUOUS
 90
3
 70
0
 10
4.9199503316
 20
8.8138076831
 10
4.9099269133
 20
8.8329018668
 10
4.8891376634
 20
8.8657768277
  0
LINE
  5
4AF
100
AcDbEntity
  8
IMPORT_IGES
100
AcDbLine
 62
7
  6
CONTINUOUS
 10
10.1695330583
 20
14.1146261852
 11
10.1695330583
 21
14.287831266
  0
LWPOLYLINE
  5
4B0
100
AcDbEntity
  8
IMPORT_IGES
100
AcDbPolyline
 62
253
  6
CONTINUOUS
 90
10
 70
0
 10
11.5194711844
 20
14.2333664435
 10
11.5184584518
 20
14.2182540815
 10
11.5154247301
 20
14.2024659138
 10
11.5104224692
 20
14.1864533288
 10
11.5035791953
 20
14.1707168882
 10
11.4950591689
 20
14.1557023742
 10
11.4850322265
 20
14.1418055764
 10
11.4737414129
 20
14.1294829048
 10
11.4615267408
 20
14.1192143255
 10
11.448760889
 20
14.1114083729
  0
LWPOLYLINE
  5
4B1
100
AcDbEntity
  8
IMPORT_IGES
100
AcDbPolyline
 62
253
  6
CONTINUOUS
 90
19
 70
0
 10
12.016951153
 20
14.4436906549
 10
12.0148000359
 20
14.4276232305
 10
12.0084807158
 20
14.4115782078
 10
11.9982564778
 20
14.3962876011
 10
11.9839095332
 20
14.3817508853
 10
11.9656576707
 20
14.3679685854
 10
11.9444175416
 20
14.3556742898
 10
11.9200326391
 20
14.3449608468
 10
11.89265947
 20
14.3357354081
 10
11.8636842061
 20
14.3284530174
 10
11.8330756692
 20
14.3232078096
 10
11.8008650374
 20
14.3199056497
 10
11.7685320177
 20
14.3187191768
 10
11.7360046518
 20
14.3197448033
 10
11.7033548979
 20
14.3228861168
 10
11.6722783369
 20
14.3280265189
 10
11.6433401625
 20
14.3351271434
 10
11.615975181
 20
14.3442268565
 10
11.5901833924
 20
14.3553256582
  0
LWPOLYLINE
  5
4B2
100
AcDbEntity
  8
IMPORT_IGES
100
AcDbPolyline
 62
253
  6
CONTINUOUS
 90
10
 70
0
 10
15.4103593982
 20
13.4552910535
 10
15.4165708481
 20
13.4732095542
 10
15.4219461899
 20
13.4897699646
 10
15.4264225676
 20
13.5048063488
 10
15.4299533477
 20
13.5182173508
 10
15.4324674452
 20
13.5297779253
 10
15.4339172827
 20
13.539230635
 10
15.4343139961
 20
13.5465059394
 10
15.4336798471
 20
13.551632336
 10
15.432039318
 20
13.5546083614
  0
LWPOLYLINE
  5
4B3
100
AcDbEntity
  8
RACCORDO
100
AcDbPolyline
 62
253
  6
CONTINUOUS
 90
31
 70
0
 10
2.405022313
 20
-24.0756827558
 10
2.4093654543
 20
-24.0634591749
 10
2.4132132633
 20
-24.0510259845
 10
2.416554832
 20
-24.0384169254
 10
2.4193808564
 20
-24.0256650815
 10
2.4216828563
 20
-24.0128063226
 10
2.4234536887
 20
-23.9998792889
 10
2.4246884197
 20
-23.9869205955
 10
2.4253838826
 20
-23.9739643327
 10
2.4255381754
 20
-23.9610455618
 10
2.4251508256
 20
-23.9481993565
 10
2.4242228438
 20
-23.9354610245
 10
2.4227567675
 20
-23.9228656791
 10
2.4207566218
 20
-23.9104478347
 10
2.4182278589
 20
-23.8982412942
 10
2.4151773777
 20
-23.8862793696
 10
2.4116135004
 20
-23.8745947166
 10
2.407545962
 20
-23.8632192722
 10
2.4029858807
 20
-23.8521841359
 10
2.3979457162
 20
-23.8415194575
 10
2.3924392315
 20
-23.8312543576
 10
2.3864814674
 20
-23.8214168745
 10
2.380088687
 20
-23.8120338646
 10
2.3732783602
 20
-23.8031309718
 10
2.3660691223
 20
-23.7947325504
 10
2.3584806928
 20
-23.7868615551
 10
2.3505337828
 20
-23.7795394514
 10
2.3422500659
 20
-23.7727862029
 10
2.3336521553
 20
-23.7666202458
 10
2.3247635466
 20
-23.7610584312
 10
2.3156085177
 20
-23.7561159498
  0
LWPOLYLINE
  5
4B4
100
AcDbEntity
  8
IMPORT_IGES
100
AcDbPolyline
 62
253
  6
CONTINUOUS
 90
8
 70
0
 10
5.63148322
 20
-8.524131748
 10
5.6412795172
 20
-8.5103968174
 10
5.6497436505
 20
-8.4950409756
 10
5.6568139997
 20
-8.4781759541
 10
5.6624390789
 20
-8.4599245319
 10
5.6665779531
 20
-8.4404195418
 10
5.6692005159
 20
-8.4198028825
 10
5.6702876847
 20
-8.3982245676
  0
LWPOLYLINE
  5
4B5
100
AcDbEntity
  8
IMPORT_IGES
100
AcDbPolyline
 62
253
  6
CONTINUOUS
 90
3
 70
0
 10
5.6081884597
 20
-8.5463518042
 10
5.6204260444
 20
-8.5361458747
 10
5.63148322
 20
-8.524131748
  0
LWPOLYLINE
  5
4B6
100
AcDbEntity
  8
IMPORT_IGES
100
AcDbPolyline
 62
253
  6
CONTINUOUS
 90
3
 70
0
 10
13.7640176611
 20
-4.6397127023
 10
13.7485099588
 20
-4.6491358419
 10
13.7462671066
 20
-4.6502863022
  0
LWPOLYLINE
  5
4B7
100
AcDbEntity
  8
IMPORT_IGES
100
AcDbPolyline
 62
7
  6
CONTINUOUS
 90
11
 70
0
 10
17.4988564458
 20
-0.5021000159
 10
17.5151203487
 20
-0.4926485098
 10
17.547840232
 20
-0.4662321442
 10
17.5738402654
 20
-0.4326613449
 10
17.5918825453
 20
-0.3916457641
 10
17.6019354147
 20
-0.3431520608
 10
17.6040305307
 20
-0.2872135759
 10
17.5970249601
 20
-0.2236399852
 10
17.5805377255
 20
-0.1523678471
 10
17.5549498043
 20
-0.0734606031
 10
17.5202611967
 20
0.0130817468
  0
LWPOLYLINE
  5
4B8
100
AcDbEntity
  8
IMPORT_IGES
100
AcDbPolyline
 62
253
  6
CONTINUOUS
 90
7
 70
0
 10
17.1774408404
 20
-1.0829622202
 10
17.2031020603
 20
-1.0683110873
 10
17.2246841312
 20
-1.05211967
 10
17.241880222
 20
-1.0346764834
 10
17.2544078186
 20
-1.0163857994
 10
17.2622268571
 20
-0.9974651578
 10
17.2653099161
 20
-0.9767044134
  0
LWPOLYLINE
  5
4B9
100
AcDbEntity
  8
IMPORT_IGES
100
AcDbPolyline
 62
253
  6
CONTINUOUS
 90
8
 70
0
 10
14.1147656635
 20
-4.4267454343
 10
14.0796475786
 20
-4.4463643039
 10
14.0426975566
 20
-4.4674723296
 10
14.0047800418
 20
-4.4895884469
 10
13.9659857317
 20
-4.5126552728
 10
13.9262239288
 20
-4.5367301903
 10
13.8860869851
 20
-4.5615042837
 10
13.8457723512
 20
-4.5868745808
  0
LINE
  5
4BA
100
AcDbEntity
  8
IMPORT_IGES
100
AcDbLine
 62
7
  6
CONTINUOUS
 10
13.7464166727
 20
-4.6502114928
 11
13.7672174704
 21
-4.6386086567
  0
LWPOLYLINE
  5
4BB
100
AcDbEntity
  8
IMPORT_IGES
100
AcDbPolyline
 62
7
  6
CONTINUOUS
 90
5
 70
0
 10
14.1092201029
 20
-4.4305825647
 10
14.133408487
 20
-4.4173462722
 10
14.1561126541
 20
-4.405173756
 10
14.1769151
 20
-4.3942745648
 10
14.1956369798
 20
-4.3847328656
  0
LINE
  5
4BC
100
AcDbEntity
  8
IMPORT_IGES
100
AcDbLine
 62
253
  6
CONTINUOUS
 10
13.7640162319
 20
-4.6397137183
 11
13.7741961732
 21
-4.6341534883
  0
LINE
  5
4BD
100
AcDbEntity
  8
IMPORT_IGES
100
AcDbLine
 62
253
  6
CONTINUOUS
 10
14.1477636632
 20
-4.4087760758
 11
14.1147656635
 21
-4.4267454343
  0
LINE
  5
4BE
100
AcDbEntity
  8
IMPORT_IGES
100
AcDbLine
 62
253
  6
CONTINUOUS
 10
14.6186515313
 20
-4.1711506211
 11
14.5921113819
 21
-4.1853810618
  0
LINE
  5
4BF
100
AcDbEntity
  8
IMPORT_IGES
100
AcDbLine
 62
253
  6
CONTINUOUS
 10
15.7577862456
 20
-3.4715532421
 11
15.7783713926
 21
-3.4609676229
  0
LWPOLYLINE
  5
4C0
100
AcDbEntity
  8
IMPORT_IGES
100
AcDbPolyline
 62
253
  6
CONTINUOUS
 90
3
 70
0
 10
14.208263851
 20
-4.3773048272
 10
14.1789297257
 20
-4.3922958734
 10
14.1477636632
 20
-4.4087760758
  0
LWPOLYLINE
  5
4C1
100
AcDbEntity
  8
IMPORT_IGES
100
AcDbPolyline
 62
7
  6
CONTINUOUS
 90
4
 70
0
 10
14.5815817392
 20
-4.191792861
 10
14.5866256023
 20
-4.1892293252
 10
14.6143291743
 20
-4.1737694405
 10
14.6181398988
 20
-4.1714630575
  0
LINE
  5
4C2
100
AcDbEntity
  8
IMPORT_IGES
100
AcDbLine
 62
7
  6
CONTINUOUS
 10
6.1605841885
 20
-8.40798948
 11
5.9550832771
 21
-8.5108472154
  0
LINE
  5
4C3
100
AcDbEntity
  8
IMPORT_IGES
100
AcDbLine
 62
253
  6
CONTINUOUS
 10
5.6702876847
 20
-8.3982245676
 11
15.8198938226
 21
-3.3234214986
  0
LINE
  5
4C4
100
AcDbEntity
  8
IMPORT_IGES
100
AcDbLine
 62
253
  6
CONTINUOUS
 10
15.7577837781
 20
-3.471554145
 11
5.5688071198
 21
-8.5660948484
  0
LINE
  5
4C5
100
AcDbEntity
  8
IMPORT_IGES
100
AcDbLine
 62
253
  6
CONTINUOUS
 10
14.5921113819
 20
-4.1853810618
 11
14.208263851
 21
-4.3773048272
  0
LINE
  5
4C6
100
AcDbEntity
  8
IMPORT_IGES
100
AcDbLine
 62
7
  6
CONTINUOUS
 10
14.5815541008
 20
-4.191792013
 11
14.1956369798
 21
-4.3847328656
  0
LINE
  5
4C7
100
AcDbEntity
  8
IMPORT_IGES
100
AcDbLine
 62
253
  6
CONTINUOUS
 10
13.7640176611
 20
-4.6397127023
 11
6.361251605
 21
-8.3410957304
  0
LINE
  5
4C8
100
AcDbEntity
  8
IMPORT_IGES
100
AcDbLine
 62
7
  6
CONTINUOUS
 10
13.7462671066
 20
-4.6502863022
 11
6.378596372
 21
-8.334121841
  0
LWPOLYLINE
  5
4C9
100
AcDbEntity
  8
IMPORT_IGES
100
AcDbPolyline
 62
7
  6
CONTINUOUS
 90
9
 70
0
 10
5.9546059374
 20
-8.5111931649
 10
5.92354303
 20
-8.5257229587
 10
5.8913755148
 20
-8.5387641757
 10
5.8581033916
 20
-8.5503168161
 10
5.8237302581
 20
-8.5604233634
 10
5.7882525167
 20
-8.569041334
 10
5.7516593744
 20
-8.5760432767
 10
5.7139423235
 20
-8.5814786914
 10
5.6991748007
 20
-8.5831501666
  0
LWPOLYLINE
  5
4CA
100
AcDbEntity
  8
IMPORT_IGES
100
AcDbPolyline
 62
253
  6
CONTINUOUS
 90
5
 70
0
 10
5.2934681623
 20
-8.5763752707
 10
5.2628271433
 20
-8.5893366097
 10
5.2315475472
 20
-8.5975232156
 10
5.2001546174
 20
-8.6007976198
 10
5.1691755004
 20
-8.599104839
  0
LWPOLYLINE
  5
4CB
100
AcDbEntity
  8
IMPORT_IGES
100
AcDbPolyline
 62
253
  6
CONTINUOUS
 90
10
 70
0
 10
5.6702876847
 20
-8.3982245676
 10
5.6438918136
 20
-8.4090726924
 10
5.6176018485
 20
-8.4175833347
 10
5.5914177895
 20
-8.4237564947
 10
5.5653262847
 20
-8.4274490327
 10
5.539340686
 20
-8.4288040882
 10
5.5135010486
 20
-8.4282510803
 10
5.4878207242
 20
-8.4259331485
 10
5.4622863611
 20
-8.4217071532
 10
5.4368979593
 20
-8.4155730945
  0
LWPOLYLINE
  5
4CC
100
AcDbEntity
  8
IMPORT_IGES
100
AcDbPolyline
 62
253
  6
CONTINUOUS
 90
6
 70
0
 10
5.5688071198
 20
-8.5660948484
 10
5.5289884885
 20
-8.5823404786
 10
5.4890800609
 20
-8.5952637276
 10
5.4501968934
 20
-8.6048922267
 10
5.4118227317
 20
-8.6117280554
 10
5.3881729848
 20
-8.6146867919
  0
LINE
  5
4CD
100
AcDbEntity
  8
IMPORT_IGES
100
AcDbLine
 62
7
  6
CONTINUOUS
 10
6.361251605
 20
-8.3410957304
 11
6.1605841885
 21
-8.40798948
  0
LINE
  5
4CE
100
AcDbEntity
  8
IMPORT_IGES
100
AcDbLine
 62
7
  6
CONTINUOUS
 10
7.4189470765
 20
13.3688540981
 11
9.0093225718
 21
13.8109397355
  0
LINE
  5
4CF
100
AcDbEntity
  8
IMPORT_IGES
100
AcDbLine
 62
7
  6
CONTINUOUS
 10
9.2956063524
 20
14.0637247318
 11
7.4189470765
 21
13.5420591789
  0
LWPOLYLINE
  5
4D0
100
AcDbEntity
  8
IMPORT_IGES
100
AcDbPolyline
 62
253
  6
CONTINUOUS
 90
10
 70
0
 10
7.5640185796
 20
11.6229043835
 10
7.5517460436
 20
11.6207497528
 10
7.5388739902
 20
11.6175347739
 10
7.5256931435
 20
11.6132998466
 10
7.5126290108
 20
11.6081830262
 10
7.4998784873
 20
11.6022866664
 10
7.4874112711
 20
11.5955980989
 10
7.4754315358
 20
11.5882005054
 10
7.464327573
 20
11.5803296909
 10
7.4543295673
 20
11.5721851083
  0
LWPOLYLINE
  5
4D1
100
AcDbEntity
  8
RACCORDO
100
AcDbPolyline
 62
7
  6
CONTINUOUS
 90
9
 70
0
 10
-18.7623639402
 20
13.6442115146
 10
-18.7576758102
 20
13.6435922728
 10
-18.7523493674
 20
13.6435788895
 10
-18.7463774678
 20
13.6440949872
 10
-18.7397370108
 20
13.6450367809
 10
-18.732460802
 20
13.6463516051
 10
-18.7246196537
 20
13.6480553364
 10
-18.7162326156
 20
13.6501190012
 10
-18.7072839061
 20
13.652452921
  0
LWPOLYLINE
  5
4D2
100
AcDbEntity
  8
IMPORT_IGES
100
AcDbPolyline
 62
253
  6
CONTINUOUS
 90
13
 70
0
 10
5.1363656215
 20
8.3316319538
 10
5.1650732264
 20
8.3175170793
 10
5.1956570948
 20
8.3019071312
 10
5.2275932117
 20
8.2850762043
 10
5.2601718732
 20
8.2674095419
 10
5.2930285836
 20
8.2491139215
 10
5.3261610945
 20
8.2301825159
 10
5.3592365715
 20
8.2107826951
 10
5.3914406357
 20
8.191370428
 10
5.4220376407
 20
8.1723744029
 10
5.4504123922
 20
8.1541659857
 10
5.4760587087
 20
8.1370584647
 10
5.4984558102
 20
8.1213847212
  0
LINE
  5
4D3
100
AcDbEntity
  8
IMPORT_IGES
100
AcDbLine
 62
253
  6
CONTINUOUS
 10
3.0977934025
 20
8.4968508613
 11
2.9374153131
 21
8.577039906
  0
LINE
  5
4D4
100
AcDbEntity
  8
IMPORT_IGES
100
AcDbLine
 62
253
  6
CONTINUOUS
 10
4.3595787526
 20
8.5817730565
 11
3.4251610369
 21
9.0489819148
  0
LINE
  5
4D5
100
AcDbEntity
  8
ASSI
100
AcDbLine
 62
253
  6
CONTINUOUS
 10
-18.4922015831
 20
20.1286673555
 11
-17.785606774
 21
19.7753699509
  0
LINE
  5
4D6
100
AcDbEntity
  8
ASSI
100
AcDbLine
 62
253
  6
CONTINUOUS
 10
-4.3505779314
 20
13.0578555296
 11
-3.6439831223
 21
12.7045581251
  0
LINE
  5
4D7
100
AcDbEntity
  8
IMPORT_IGES
100
AcDbLine
 62
253
  6
CONTINUOUS
 10
4.6723447009
 20
8.563629459
 11
5.1363656554
 21
8.3316319375
  0
LINE
  5
4D8
100
AcDbEntity
  8
RACCORDO
100
AcDbLine
 62
253
  6
CONTINUOUS
 10
-4.5569479106
 20
13.2208996789
 11
-17.5677126844
 21
19.7262820659
  0
LINE
  5
4D9
100
AcDbEntity
  8
IMPORT_IGES
100
AcDbLine
 62
253
  6
CONTINUOUS
 10
3.5284040236
 20
9.4120250028
 11
3.6698000662
 21
9.3413269815
  0
LINE
  5
4DA
100
AcDbEntity
  8
IMPORT_IGES
100
AcDbLine
 62
253
  6
CONTINUOUS
 10
3.5875618834
 20
9.4380809916
 11
3.7131068387
 21
9.3753085139
  0
LINE
  5
4DB
100
AcDbEntity
  8
IMPORT_IGES
100
AcDbLine
 62
253
  6
CONTINUOUS
 10
4.9223395457
 20
8.8154470614
 11
5.3856318505
 21
8.5838009011
  0
LINE
  5
4DC
100
AcDbEntity
  8
IMPORT_IGES
100
AcDbLine
 62
253
  6
CONTINUOUS
 10
3.8321430632
 20
9.4484132764
 11
4.7604514215
 21
8.9842590975
  0
LINE
  5
4DD
100
AcDbEntity
  8
IMPORT_IGES
100
AcDbLine
 62
7
  6
CONTINUOUS
 10
3.8426175583
 20
9.5121600221
 11
3.9023311765
 21
9.482303213
  0
LWPOLYLINE
  5
4DE
100
AcDbEntity
  8
IMPORT_IGES
100
AcDbPolyline
 62
253
  6
CONTINUOUS
 90
13
 70
0
 10
5.3856317883
 20
8.5838008868
 10
5.4126445557
 20
8.5681794615
 10
5.4391565348
 20
8.5486322691
 10
5.4647426215
 20
8.5255025998
 10
5.4888900123
 20
8.4993148283
 10
5.5113439214
 20
8.4704090064
 10
5.5320292005
 20
8.4388150279
 10
5.5506444849
 20
8.4047542229
 10
5.5666511505
 20
8.3689383079
 10
5.579616637
 20
8.3321427341
 10
5.5892471898
 20
8.295063287
 10
5.5953417934
 20
8.2582866216
 10
5.5977315838
 20
8.2224769644
  0
LWPOLYLINE
  5
4DF
100
AcDbEntity
  8
IMPORT_IGES
100
AcDbPolyline
 62
7
  6
CONTINUOUS
 90
8
 70
0
 10
5.412906975
 20
9.3082172879
 10
5.4405385432
 20
9.2921216256
 10
5.4676919139
 20
9.2718532955
 10
5.4939030589
 20
9.247759379
 10
5.5187233268
 20
9.220252044
 10
5.5417290302
 20
9.1898024426
 10
5.5625287059
 20
9.1569326558
 10
5.5714266379
 20
9.1399906075
  0
LWPOLYLINE
  5
4E0
100
AcDbEntity
  8
IMPORT_IGES
100
AcDbPolyline
 62
253
  6
CONTINUOUS
 90
9
 70
0
 10
4.603097882
 20
8.4441963632
 10
4.5890387598
 20
8.4528937273
 10
4.5568132212
 20
8.4723566642
 10
4.5231994892
 20
8.4921889654
 10
4.4889643815
 20
8.5119177354
 10
4.4548396469
 20
8.5311080827
 10
4.4214857046
 20
8.5493789616
 10
4.3894815022
 20
8.5664032284
 10
4.3594487545
 20
8.581838555
  0
LWPOLYLINE
  5
4E1
100
AcDbEntity
  8
IMPORT_IGES
100
AcDbPolyline
 62
253
  6
CONTINUOUS
 90
6
 70
0
 10
17.1342739777
 20
-1.225274633
 10
17.1515762346
 20
-1.2382465747
 10
17.1650147098
 20
-1.249137475
 10
17.1743630611
 20
-1.2577639002
 10
17.1794638362
 20
-1.2639805554
 10
17.1802250701
 20
-1.2676930357
  0
LWPOLYLINE
  5
4E2
100
AcDbEntity
  8
IMPORT_IGES
100
AcDbPolyline
 62
253
  6
CONTINUOUS
 90
6
 70
0
 10
4.8891376634
 20
8.8657768277
 10
4.8661465563
 20
8.8962336728
 10
4.8413469762
 20
8.9237512768
 10
4.8151632508
 20
8.9478588061
 10
4.7880433909
 20
8.968143774
 10
4.7604514248
 20
8.9842590991
  0
LINE
  5
4E3
100
AcDbEntity
  8
IMPORT_IGES
100
AcDbLine
 62
7
  6
CONTINUOUS
 10
5.7001542657
 20
10.3503720012
 11
5.557175931
 21
10.5838307563
  0
LWPOLYLINE
  5
4E4
100
AcDbEntity
  8
RACCORDO
100
AcDbPolyline
 62
253
  6
CONTINUOUS
 90
14
 70
0
 10
2.405022313
 20
17.2239213836
 10
2.4093654543
 20
17.2165763025
 10
2.4132132633
 20
17.2094887537
 10
2.416554832
 20
17.2026782847
 10
2.4193808564
 20
17.196163126
 10
2.4216828563
 20
17.1899619612
 10
2.4234536887
 20
17.1840935766
 10
2.4246884197
 20
17.1785745389
 10
2.4253838826
 20
17.1734193123
 10
2.4255381754
 20
17.1686418607
 10
2.4251508256
 20
17.1642551908
 10
2.4242228438
 20
17.1602713957
 10
2.4227567675
 20
17.1567014704
 10
2.4207566218
 20
17.1535551925
  0
LWPOLYLINE
  5
4E5
100
AcDbEntity
  8
IMPORT_IGES
100
AcDbPolyline
 62
7
  6
CONTINUOUS
 90
6
 70
0
 10
12.1169579509
 20
14.3571907087
 10
12.1157402474
 20
14.376976372
 10
12.1103329601
 20
14.4031771321
 10
12.1004456186
 20
14.429055385
 10
12.0861605116
 20
14.4538483267
 10
12.0677177556
 20
14.4770063709
  0
LINE
  5
4E6
100
AcDbEntity
  8
IMPORT_IGES
100
AcDbLine
 62
7
  6
CONTINUOUS
 10
11.8393887585
 20
15.2588367766
 11
11.8384135677
 21
15.3202896216
  0
LWPOLYLINE
  5
4E7
100
AcDbEntity
  8
IMPORT_IGES
100
AcDbPolyline
 62
253
  6
CONTINUOUS
 90
16
 70
0
 10
14.0103531781
 20
14.0126410472
 10
14.011808993
 20
14.0381985049
 10
14.0161040136
 20
14.0644460066
 10
14.0230748771
 20
14.0908335366
 10
14.0324239656
 20
14.1166221971
 10
14.0439500104
 20
14.141539629
 10
14.0577350095
 20
14.1657161667
 10
14.073703827
 20
14.1887557433
 10
14.0915294619
 20
14.2099481567
 10
14.1110072342
 20
14.2288346426
 10
14.1318663202
 20
14.2448901755
 10
14.1535892109
 20
14.2574603362
 10
14.1755158078
 20
14.265977954
 10
14.197053663
 20
14.2700854412
 10
14.217695772
 20
14.2695538451
 10
14.2368745403
 20
14.2642400578
  0
LWPOLYLINE
  5
4E8
100
AcDbEntity
  8
IMPORT_IGES
100
AcDbPolyline
 62
253
  6
CONTINUOUS
 90
9
 70
0
 10
17.1402792703
 20
12.4934226388
 10
17.1544689917
 20
12.5290839687
 10
17.1649278742
 20
12.5657116394
 10
17.1715198234
 20
12.6027025538
 10
17.1741701438
 20
12.6392801818
 10
17.1729134046
 20
12.6750436696
 10
17.1677018636
 20
12.7099286842
 10
17.1584200283
 20
12.7435062453
 10
17.145110434
 20
12.774926776
  0
LINE
  5
4E9
100
AcDbEntity
  8
IMPORT_IGES
100
AcDbLine
 62
7
  6
CONTINUOUS
 10
15.8491922524
 20
-3.4100401242
 11
15.889398235
 21
-3.3739179399
  0
LINE
  5
4EA
100
AcDbEntity
  8
IMPORT_IGES
100
AcDbLine
 62
253
  6
CONTINUOUS
 10
15.7700224189
 20
-3.4613477995
 11
15.757784589
 21
-3.4715538502
  0
LINE
  5
4EB
100
AcDbEntity
  8
IMPORT_IGES
100
AcDbLine
 62
7
  6
CONTINUOUS
 10
15.807098858
 20
-3.4421851683
 11
15.8491922524
 21
-3.4100401242
  0
LINE
  5
4EC
100
AcDbEntity
  8
IMPORT_IGES
100
AcDbLine
 62
7
  6
CONTINUOUS
 10
13.7741961732
 20
-4.6341534883
 11
13.786356236
 21
-4.6261604212
  0
LINE
  5
4ED
100
AcDbEntity
  8
IMPORT_IGES
100
AcDbLine
 62
7
  6
CONTINUOUS
 10
15.7788594769
 20
-3.4606825728
 11
15.807098858
 21
-3.4421851683
  0
LINE
  5
4EE
100
AcDbEntity
  8
IMPORT_IGES
100
AcDbLine
 62
253
  6
CONTINUOUS
 10
13.8050825766
 20
-4.6129440537
 11
13.7640176611
 21
-4.6397127023
  0
LINE
  5
4EF
100
AcDbEntity
  8
IMPORT_IGES
100
AcDbLine
 62
7
  6
CONTINUOUS
 10
13.786356236
 20
-4.6261604212
 11
13.8125826042
 21
-4.609068396
  0
LINE
  5
4F0
100
AcDbEntity
  8
IMPORT_IGES
100
AcDbLine
 62
7
  6
CONTINUOUS
 10
13.8125826042
 20
-4.609068396
 11
13.8390693727
 21
-4.5920410457
  0
LINE
  5
4F1
100
AcDbEntity
  8
IMPORT_IGES
100
AcDbLine
 62
253
  6
CONTINUOUS
 10
13.8457723512
 20
-4.5868745808
 11
13.8050825766
 21
-4.6129440537
  0
LINE
  5
4F2
100
AcDbEntity
  8
IMPORT_IGES
100
AcDbLine
 62
7
  6
CONTINUOUS
 10
13.7672174704
 20
-4.6386086567
 11
13.7742461711
 21
-4.6341204885
  0
LWPOLYLINE
  5
4F3
100
AcDbEntity
  8
IMPORT_IGES
100
AcDbPolyline
 62
7
  6
CONTINUOUS
 90
11
 70
0
 10
13.8390693727
 20
-4.5920410457
 10
13.8659116306
 20
-4.5750158726
 10
13.8929624794
 20
-4.5580822885
 10
13.9201202158
 20
-4.5412950035
 10
13.9475403559
 20
-4.5245574222
 10
13.975147369
 20
-4.5079281409
 10
14.0027309498
 20
-4.4915363817
 10
14.030149204
 20
-4.4754664493
 10
14.0572336506
 20
-4.459835102
 10
14.0837333872
 20
-4.4447948991
 10
14.1092201029
 20
-4.4305825647
  0
LINE
  5
4F4
100
AcDbEntity
  8
IMPORT_IGES
100
AcDbLine
 62
7
  6
CONTINUOUS
 10
15.7811038189
 20
-3.4592975104
 11
14.6215259068
 21
-4.1693910608
  0
LINE
  5
4F5
100
AcDbEntity
  8
IMPORT_IGES
100
AcDbLine
 62
7
  6
CONTINUOUS
 10
14.6190390686
 20
-4.170913911
 11
14.6186515313
 21
-4.1711506211
  0
LINE
  5
4F6
100
AcDbEntity
  8
IMPORT_IGES
100
AcDbLine
 62
253
  6
CONTINUOUS
 10
15.7577837781
 20
-3.471554145
 11
14.5815541007
 21
-4.1917920131
  0
LINE
  5
4F7
100
AcDbEntity
  8
IMPORT_IGES
100
AcDbLine
 62
253
  6
CONTINUOUS
 10
14.2082666249
 20
-4.3773034403
 11
14.1976773202
 21
-4.3837303952
  0
LINE
  5
4F8
100
AcDbEntity
  8
IMPORT_IGES
100
AcDbLine
 62
7
  6
CONTINUOUS
 10
6.9764997569
 20
13.7632828387
 11
9.7793600217
 21
14.4829177842
  0
LWPOLYLINE
  5
4F9
100
AcDbEntity
  8
0
100
AcDbPolyline
 62
7
  6
CONTINUOUS
 90
7
 70
0
 10
2.9374153131
 20
11.8751161609
 10
2.9420638527
 20
11.8759437242
 10
2.9784045985
 20
11.881195924
 10
3.0139390732
 20
11.8852854501
 10
3.0487417657
 20
11.888291657
 10
3.082738187
 20
11.8901351903
 10
3.1159283371
 20
11.89081605
  0
LWPOLYLINE
  5
4FA
100
AcDbEntity
  8
IMPORT_IGES
100
AcDbPolyline
 62
7
  6
CONTINUOUS
 90
11
 70
0
 10
13.7212711157
 20
14.2788846347
 10
13.7667198974
 20
14.2866906583
 10
13.7895699949
 20
14.2903799004
 10
13.8120816185
 20
14.2934224719
 10
13.8341915919
 20
14.2957594137
 10
13.8560752302
 20
14.2977691224
 10
13.8776974992
 20
14.299361311
 10
13.8989152171
 20
14.3003949986
 10
13.9197717078
 20
14.3012342343
 10
13.9402672415
 20
14.3018113315
 10
13.9798465875
 20
14.302347761
  0
LWPOLYLINE
  5
4FB
100
AcDbEntity
  8
0
100
AcDbPolyline
 62
7
  6
CONTINUOUS
 90
3
 70
0
 10
3.0139390732
 20
11.7986829097
 10
3.0487417657
 20
11.8016891167
 10
3.082738187
 20
11.80353265
  0
LWPOLYLINE
  5
4FC
100
AcDbEntity
  8
RACCORDO
100
AcDbPolyline
 62
253
  6
CONTINUOUS
 90
10
 70
0
 10
-5.3461016477
 20
11.4360544701
 10
-5.3713920126
 20
11.4354335679
 10
-5.3975489623
 20
11.4360968841
 10
-5.4235637743
 20
11.4380548804
 10
-5.4491514249
 20
11.4412861046
 10
-5.4740315704
 20
11.4457551548
 10
-5.4979316186
 20
11.451413067
 10
-5.5205897158
 20
11.4581978522
 10
-5.541757615
 20
11.4660351746
 10
-5.5612033962
 20
11.4748391671
  0
LINE
  5
4FD
100
AcDbEntity
  8
0
100
AcDbLine
 62
7
  6
CONTINUOUS
 10
3.082738187
 20
11.80353265
 11
3.1159283371
 21
11.8042135096
  0
LWPOLYLINE
  5
4FE
100
AcDbEntity
  8
0
100
AcDbPolyline
 62
7
  6
CONTINUOUS
 90
3
 70
0
 10
3.0114476576
 20
11.9503036158
 10
2.9486709437
 20
11.9505159079
 10
2.9374153131
 20
11.9500169474
  0
LWPOLYLINE
  5
4FF
100
AcDbEntity
  8
0
100
AcDbPolyline
 62
7
  6
CONTINUOUS
 90
10
 70
0
 10
3.1159283371
 20
11.8042135096
 10
3.1482476814
 20
11.8040343872
 10
3.1827908093
 20
11.8021371508
 10
3.2195577209
 20
11.7985218006
 10
3.2584184475
 20
11.7933430208
 10
3.2995029577
 20
11.786446127
 10
3.3432011572
 20
11.7773670669
 10
3.3896430147
 20
11.7659511563
 10
3.4386985615
 20
11.7523530793
 10
3.4903677976
 20
11.7365728359
  0
LWPOLYLINE
  5
500
100
AcDbEntity
  8
0
100
AcDbPolyline
 62
7
  6
CONTINUOUS
 90
10
 70
0
 10
3.1159283371
 20
11.89081605
 10
3.1482476814
 20
11.8906369275
 10
3.1827908093
 20
11.8887396912
 10
3.2195577209
 20
11.885124341
 10
3.2584184475
 20
11.8799455611
 10
3.2995029577
 20
11.8730486674
 10
3.3432011572
 20
11.8639696073
 10
3.3896430147
 20
11.8525536967
 10
3.4386985615
 20
11.8389556197
 10
3.4903677976
 20
11.8231753763
  0
LWPOLYLINE
  5
501
100
AcDbEntity
  8
0
100
AcDbPolyline
 62
7
  6
CONTINUOUS
 90
3
 70
0
 10
3.1436230551
 20
11.941659793
 10
3.0794782098
 20
11.9469977526
 10
3.0114476576
 20
11.9503036158
  0
LWPOLYLINE
  5
502
100
AcDbEntity
  8
IMPORT_IGES
100
AcDbPolyline
 62
253
  6
CONTINUOUS
 90
10
 70
0
 10
18.4140787403
 20
9.1616968685
 10
18.3902678892
 20
9.1644436225
 10
18.3667495987
 20
9.1661537445
 10
18.3435238686
 20
9.1668272346
 10
18.3205681611
 20
9.1664626993
 10
18.2979050141
 20
9.1650615321
 10
18.2756020417
 20
9.1626279134
 10
18.253681782
 20
9.1591632364
 10
18.232121697
 20
9.1546661078
 10
18.2109217867
 20
9.1491365276
  0
LWPOLYLINE
  5
503
100
AcDbEntity
  8
0
100
AcDbPolyline
 62
7
  6
CONTINUOUS
 90
7
 70
0
 10
3.4545466337
 20
11.8665877066
 10
3.4091234185
 20
11.8843404283
 10
3.3613453668
 20
11.8999869923
 10
3.311722769
 20
11.9135027112
 10
3.2597453347
 20
11.9249122724
 10
3.2038821935
 20
11.9342897372
 10
3.1436230551
 20
11.941659793
  0
LINE
  5
504
100
AcDbEntity
  8
0
100
AcDbLine
 62
7
  6
CONTINUOUS
 10
3.4976150125
 20
11.846728827
 11
3.4545466337
 21
11.8665877066
  0
LWPOLYLINE
  5
505
100
AcDbEntity
  8
0
100
AcDbPolyline
 62
7
  6
CONTINUOUS
 90
9
 70
0
 10
2.9999728738
 20
11.7821078174
 10
2.9921529169
 20
11.7859250148
 10
2.9841826614
 20
11.7896378055
 10
2.9760621075
 20
11.7932461894
 10
2.9677801981
 20
11.796753775
 10
2.9593479902
 20
11.8001569538
 10
2.9507986549
 20
11.8034449004
 10
2.9421432493
 20
11.8066140063
 10
2.9374153131
 20
11.8082598844
  0
LINE
  5
506
100
AcDbEntity
  8
IMPORT_IGES
100
AcDbLine
 62
7
  6
CONTINUOUS
 10
17.4598408791
 20
4.0136268734
 11
16.9294151511
 21
4.278839739
  0
LINE
  5
507
100
AcDbEntity
  8
0
100
AcDbLine
 62
7
  6
CONTINUOUS
 10
-2.471951563
 20
14.1177505244
 11
-2.5676128508
 21
14.1655811684
  0
LINE
  5
508
100
AcDbEntity
  8
0
100
AcDbLine
 62
7
  6
CONTINUOUS
 10
-15.8109758163
 20
20.7872626511
 11
-15.9069804055
 21
20.8352649457
  0
LINE
  5
509
100
AcDbEntity
  8
RACCORDO
100
AcDbLine
 62
7
  6
CONTINUOUS
 10
-15.6948483712
 20
20.7829261889
 11
-2.6840835974
 21
14.2775438019
  0
LINE
  5
50A
100
AcDbEntity
  8
IMPORT_IGES
100
AcDbLine
 62
7
  6
CONTINUOUS
 10
15.9554256738
 20
4.9687849143
 11
16.0421516402
 21
4.9254219311
  0
LINE
  5
50B
100
AcDbEntity
  8
0
100
AcDbLine
 62
253
  6
CONTINUOUS
 10
4.2426461224
 20
10.8957461374
 11
3.0408460802
 21
11.4966461585
  0
LINE
  5
50C
100
AcDbEntity
  8
IMPORT_IGES
100
AcDbLine
 62
7
  6
CONTINUOUS
 10
5.0855882216
 20
10.9782922577
 11
3.522405886
 21
11.7598834255
  0
LINE
  5
50D
100
AcDbEntity
  8
IMPORT_IGES
100
AcDbLine
 62
7
  6
CONTINUOUS
 10
3.1637850076
 20
11.9391938647
 11
2.9374153131
 21
12.052378712
  0
LINE
  5
50E
100
AcDbEntity
  8
0
100
AcDbLine
 62
7
  6
CONTINUOUS
 10
3.5175448558
 20
11.8367639053
 11
3.4976150125
 21
11.846728827
  0
LINE
  5
50F
100
AcDbEntity
  8
IMPORT_IGES
100
AcDbLine
 62
7
  6
CONTINUOUS
 10
6.1118113276
 20
10.549138303
 11
7.0032797357
 21
10.103404099
  0
LINE
  5
510
100
AcDbEntity
  8
0
100
AcDbLine
 62
7
  6
CONTINUOUS
 10
-10.5329688685
 20
18.9760017516
 11
-6.2903281814
 21
16.854681408
  0
LINE
  5
511
100
AcDbEntity
  8
IMPORT_IGES
100
AcDbLine
 62
7
  6
CONTINUOUS
 10
7.478547504
 20
10.0935510405
 11
2.9374153131
 21
12.364117136
  0
LINE
  5
512
100
AcDbEntity
  8
IMPORT_IGES
100
AcDbLine
 62
253
  6
CONTINUOUS
 10
2.9374153131
 20
12.4873952983
 11
7.6018256663
 21
10.1551901217
  0
LINE
  5
513
100
AcDbEntity
  8
IMPORT_IGES
100
AcDbLine
 62
253
  6
CONTINUOUS
 10
2.9374153131
 20
12.5909851367
 11
7.7054155048
 21
10.2069850409
  0
LINE
  5
514
100
AcDbEntity
  8
IMPORT_IGES
100
AcDbLine
 62
253
  6
CONTINUOUS
 10
2.9374153131
 20
12.749309251
 11
7.8034510507
 21
10.3162913822
  0
LINE
  5
515
100
AcDbEntity
  8
IMPORT_IGES
100
AcDbLine
 62
7
  6
CONTINUOUS
 10
7.7777418866
 20
10.2431482318
 11
8.2459774997
 21
10.0062078512
  0
LWPOLYLINE
  5
516
100
AcDbEntity
  8
IMPORT_IGES
100
AcDbPolyline
 62
7
  6
CONTINUOUS
 90
10
 70
0
 10
8.3498319979
 20
9.9250937666
 10
8.3375464222
 20
9.93701647
 10
8.325237325
 20
9.9482504649
 10
8.3129523787
 20
9.9587798155
 10
8.3006000522
 20
9.9686506384
 10
8.2883584518
 20
9.9777872911
 10
8.276689292
 20
9.986048279
 10
8.2657803775
 20
9.9934457074
 10
8.2555320346
 20
10.0000878993
 10
8.2459765035
 20
10.0060342384
  0
LWPOLYLINE
  5
517
100
AcDbEntity
  8
IMPORT_IGES
100
AcDbPolyline
 62
253
  6
CONTINUOUS
 90
10
 70
0
 10
7.4543295585
 20
11.572185112
 10
7.4501211162
 20
11.5800271353
 10
7.4454033453
 20
11.5875660104
 10
7.4401762459
 20
11.5948017375
 10
7.4344475977
 20
11.6018047435
 10
7.4282096209
 20
11.6085046014
 10
7.4214389764
 20
11.6146900298
 10
7.4141278844
 20
11.6202906017
 10
7.4062841245
 20
11.625376744
 10
7.397907697
 20
11.629948457
  0
LWPOLYLINE
  5
518
100
AcDbEntity
  8
IMPORT_IGES
100
AcDbPolyline
 62
7
  6
CONTINUOUS
 90
3
 70
0
 10
7.4543295585
 20
11.572185112
 10
7.6310941879
 20
11.2246530416
 10
7.7190437528
 20
11.0508075203
  0
LWPOLYLINE
  5
519
100
AcDbEntity
  8
IMPORT_IGES
100
AcDbPolyline
 62
7
  6
CONTINUOUS
 90
3
 70
0
 10
7.9811614484
 20
10.5289530121
 10
8.0691411583
 20
10.3547707423
 10
8.2460112954
 20
10.0060600524
  0
LINE
  5
51A
100
AcDbEntity
  8
IMPORT_IGES
100
AcDbLine
 62
7
  6
CONTINUOUS
 10
7.7190437528
 20
11.0508075203
 11
7.9811614484
 21
10.5289530121
  0
LINE
  5
51B
100
AcDbEntity
  8
IMPORT_IGES
100
AcDbLine
 62
253
  6
CONTINUOUS
 10
8.1823105531
 20
10.287837828
 11
7.8341759216
 21
11.0380622284
  0
LWPOLYLINE
  5
51C
100
AcDbEntity
  8
IMPORT_IGES
100
AcDbPolyline
 62
253
  6
CONTINUOUS
 90
3
 70
0
 10
7.8341759216
 20
11.0380622284
 10
7.6548960023
 20
11.4258361467
 10
7.5640185824
 20
11.6229043881
  0
LINE
  5
51D
100
AcDbEntity
  8
IMPORT_IGES
100
AcDbLine
 62
253
  6
CONTINUOUS
 10
8.349851453
 20
9.9250702889
 11
8.1823105531
 21
10.287837828
  0
LINE
  5
51E
100
AcDbEntity
  8
IMPORT_IGES
100
AcDbLine
 62
253
  6
CONTINUOUS
 10
14.0276121518
 20
13.7064278479
 11
14.0103473617
 21
14.0126435478
  0
LINE
  5
51F
100
AcDbEntity
  8
IMPORT_IGES
100
AcDbLine
 62
253
  6
CONTINUOUS
 10
13.7295013629
 20
14.0081439412
 11
13.7212726308
 21
14.2788926976
  0
LWPOLYLINE
  5
520
100
AcDbEntity
  8
IMPORT_IGES
100
AcDbPolyline
 62
7
  6
CONTINUOUS
 90
6
 70
0
 10
14.3644237565
 20
14.2603331718
 10
14.36535434
 20
14.2776453799
 10
14.3684823312
 20
14.295314321
 10
14.373773318
 20
14.3130563501
 10
14.3811682757
 20
14.3305425788
 10
14.3905640458
 20
14.3474650465
  0
LWPOLYLINE
  5
521
100
AcDbEntity
  8
IMPORT_IGES
100
AcDbPolyline
 62
7
  6
CONTINUOUS
 90
13
 70
0
 10
18.1128893588
 20
8.6981951172
 10
18.1226509946
 20
8.7237948332
 10
18.1390264599
 20
8.7701893054
 10
18.1536048477
 20
8.8150330385
 10
18.1663612766
 20
8.8583227493
 10
18.177320628
 20
8.900061721
 10
18.1866611759
 20
8.9402435281
 10
18.194373617
 20
8.9788469372
 10
18.2004672547
 20
9.0158931816
 10
18.2051482721
 20
9.0514395354
 10
18.2084853971
 20
9.0855050901
 10
18.210409902
 20
9.1180707541
 10
18.2109217867
 20
9.1491365276
  0
LINE
  5
522
100
AcDbEntity
  8
IMPORT_IGES
100
AcDbLine
 62
253
  6
CONTINUOUS
 10
17.1342739777
 20
-1.225274633
 11
16.023446854
 21
-3.098771233
  0
LINE
  5
523
100
AcDbEntity
  8
IMPORT_IGES
100
AcDbLine
 62
7
  6
CONTINUOUS
 10
16.069397918
 20
-3.1411896836
 11
17.1802250163
 21
-1.2676931264
  0
LWPOLYLINE
  5
524
100
AcDbEntity
  8
IMPORT_IGES
100
AcDbPolyline
 62
253
  6
CONTINUOUS
 90
3
 70
0
 10
16.023446854
 20
-3.098771233
 10
16.0029546281
 20
-3.1321650971
 10
15.9814180506
 20
-3.1640448545
  0
LINE
  5
525
100
AcDbEntity
  8
IMPORT_IGES
100
AcDbLine
 62
7
  6
CONTINUOUS
 10
16.0374567439
 20
-3.1923452443
 11
16.0694087963
 21
-3.1411735494
  0
LWPOLYLINE
  5
526
100
AcDbEntity
  8
IMPORT_IGES
100
AcDbPolyline
 62
253
  6
CONTINUOUS
 90
8
 70
0
 10
15.9814180506
 20
-3.1640448545
 10
15.9588371215
 20
-3.1944105053
 10
15.9345276313
 20
-3.2240541482
 10
15.9091737895
 20
-3.2521836844
 10
15.8848282249
 20
-3.2764228172
 10
15.862175147
 20
-3.2959794478
 10
15.8405303462
 20
-3.3116456749
 10
15.8198938226
 20
-3.3234214986
  0
LWPOLYLINE
  5
527
100
AcDbEntity
  8
IMPORT_IGES
100
AcDbPolyline
 62
7
  6
CONTINUOUS
 90
5
 70
0
 10
15.889398235
 20
-3.3739179399
 10
15.928332282
 20
-3.3338679404
 10
15.9662577702
 20
-3.2898457748
 10
16.0026746018
 20
-3.2425728979
 10
16.0374567439
 20
-3.1923452443
  0
LINE
  5
528
100
AcDbEntity
  8
IMPORT_IGES
100
AcDbLine
 62
7
  6
CONTINUOUS
 10
3.6411734225
 20
16.0286401341
 11
4.6297339725
 21
16.3066349148
  0
LINE
  5
529
100
AcDbEntity
  8
IMPORT_IGES
100
AcDbLine
 62
7
  6
CONTINUOUS
 10
5.0479565209
 20
16.4251799525
 11
5.5935678914
 21
16.5758138494
  0
LINE
  5
52A
100
AcDbEntity
  8
IMPORT_IGES
100
AcDbLine
 62
7
  6
CONTINUOUS
 10
3.2451474771
 20
15.4557538978
 11
5.7492619417
 21
16.109903239
  0
LINE
  5
52B
100
AcDbEntity
  8
IMPORT_IGES
100
AcDbLine
 62
7
  6
CONTINUOUS
 10
6.0315137692
 20
16.3568409105
 11
3.2451474771
 21
15.6289589785
  0
LINE
  5
52C
100
AcDbEntity
  8
IMPORT_IGES
100
AcDbLine
 62
7
  6
CONTINUOUS
 10
4.6163724828
 20
14.770141395
 11
6.0366442093
 21
15.092202626
  0
LINE
  5
52D
100
AcDbEntity
  8
IMPORT_IGES
100
AcDbLine
 62
7
  6
CONTINUOUS
 10
6.2367444414
 20
15.3107824938
 11
4.6163724828
 21
14.9433464757
  0
LINE
  5
52E
100
AcDbEntity
  8
IMPORT_IGES
100
AcDbLine
 62
7
  6
CONTINUOUS
 10
5.2458863155
 20
15.3704131622
 11
7.1515567685
 21
15.7968194109
  0
LINE
  5
52F
100
AcDbEntity
  8
IMPORT_IGES
100
AcDbLine
 62
7
  6
CONTINUOUS
 10
13.9798465875
 20
14.302347761
 11
13.9988936407
 21
14.3026219135
  0
LWPOLYLINE
  5
530
100
AcDbEntity
  8
IMPORT_IGES
100
AcDbPolyline
 62
7
  6
CONTINUOUS
 90
13
 70
0
 10
13.9988936407
 20
14.3026219135
 10
14.0526233167
 20
14.3030626289
 10
14.06926174
 20
14.3030071968
 10
14.0852572501
 20
14.3027789019
 10
14.1004888449
 20
14.3023524257
 10
14.1149197624
 20
14.3016416073
 10
14.1286384717
 20
14.300558026
 10
14.1414857599
 20
14.2991350437
 10
14.1533626979
 20
14.2973716523
 10
14.1644798308
 20
14.2951425445
 10
14.1748505683
 20
14.2924490662
 10
14.1842549789
 20
14.2894247696
 10
14.1925892626
 20
14.2861540866
  0
LWPOLYLINE
  5
531
100
AcDbEntity
  8
IMPORT_IGES
100
AcDbPolyline
 62
7
  6
CONTINUOUS
 90
6
 70
0
 10
14.7134646101
 20
13.8726900462
 10
14.6790342462
 20
13.8738955791
 10
14.6442466988
 20
13.8708418036
 10
14.6097018829
 20
13.863439019
 10
14.5761589575
 20
13.851844357
 10
14.5570003739
 20
13.8431108999
  0
LWPOLYLINE
  5
532
100
AcDbEntity
  8
IMPORT_IGES
100
AcDbPolyline
 62
253
  6
CONTINUOUS
 90
7
 70
0
 10
14.8010354152
 20
13.8490100636
 10
14.7948086
 20
13.8496172014
 10
14.7877146455
 20
13.8479328198
 10
14.7797582606
 20
13.844020743
 10
14.7708900507
 20
13.8379847524
 10
14.7611935685
 20
13.8298954485
 10
14.7508902944
 20
13.8197992402
  0
LWPOLYLINE
  5
533
100
AcDbEntity
  8
IMPORT_IGES
100
AcDbPolyline
 62
253
  6
CONTINUOUS
 90
3
 70
0
 10
19.269990566
 20
9.8079179868
 10
19.2925066131
 20
9.801172603
 10
19.2995451323
 20
9.7979620782
  0
LWPOLYLINE
  5
534
100
AcDbEntity
  8
IMPORT_IGES
100
AcDbPolyline
 62
7
  6
CONTINUOUS
 90
5
 70
0
 10
19.2526984441
 20
9.8186084937
 10
19.20545272
 20
9.8340665239
 10
19.1583860664
 20
9.8443430293
 10
19.1121550956
 20
9.8495651233
 10
19.0669152899
 20
9.8499937429
  0
LWPOLYLINE
  5
535
100
AcDbEntity
  8
IMPORT_IGES
100
AcDbPolyline
 62
253
  6
CONTINUOUS
 90
3
 70
0
 10
18.2816324648
 20
8.4814070691
 10
18.2369606779
 20
8.5008545796
 10
18.1995454292
 20
8.5122763361
  0
LWPOLYLINE
  5
536
100
AcDbEntity
  8
IMPORT_IGES
100
AcDbPolyline
 62
253
  6
CONTINUOUS
 90
27
 70
0
 10
7.4185079142
 20
12.0962823959
 10
7.4589437569
 20
12.0785272498
 10
7.5018385008
 20
12.0635366078
 10
7.5471921458
 20
12.0513104698
 10
7.5957133171
 20
12.0417797717
 10
7.6466933895
 20
12.0350135777
 10
7.6980064874
 20
12.0312190806
 10
7.7495085687
 20
12.0304909582
 10
7.8013436755
 20
12.0327345327
 10
7.851818058
 20
12.0378729636
 10
7.90105228
 20
12.0460214067
 10
7.9489257777
 20
12.0570647062
 10
7.9933831109
 20
12.0705805541
 10
8.03423926
 20
12.0866759659
 10
8.0716792446
 20
12.1052439262
 10
8.1042026824
 20
12.1255410803
 10
8.1316007694
 20
12.1476390484
 10
8.1540823096
 20
12.1714662103
 10
8.1707733337
 20
12.1960643509
 10
8.1814714583
 20
12.2214155126
 10
8.1863790667
 20
12.2475376529
 10
8.1852293397
 20
12.2735264293
 10
8.1777738577
 20
12.2994645148
 10
8.1642610403
 20
12.3252692363
 10
8.1451693273
 20
12.3497882327
 10
8.1206581989
 20
12.3726373833
 10
8.0905681749
 20
12.3942008088
  0
LWPOLYLINE
  5
537
100
AcDbEntity
  8
RACCORDO
100
AcDbPolyline
 62
253
  6
CONTINUOUS
 90
15
 70
0
 10
-1.226284033
 20
17.4726739555
 10
-1.2355899059
 20
17.4769772584
 10
-1.2448674614
 20
17.480676525
 10
-1.2540912597
 20
17.4837616081
 10
-1.2632360173
 20
17.4862240464
 10
-1.2722766492
 20
17.4880570806
 10
-1.2811883394
 20
17.4892556779
 10
-1.2899466462
 20
17.489816553
 10
-1.2985275601
 20
17.4897381705
 10
-1.3069075445
 20
17.4890207476
 10
-1.3150636207
 20
17.4876662553
 10
-1.3229734274
 20
17.4856784107
 10
-1.3306152741
 20
17.4830626689
 10
-1.3379682171
 20
17.4798262019
 10
-1.3393625412
 20
17.4791256024
  0
LWPOLYLINE
  5
538
100
AcDbEntity
  8
RACCORDO
100
AcDbPolyline
 62
253
  6
CONTINUOUS
 90
31
 70
0
 10
-0.0770476092
 20
16.1658308665
 10
-0.0675886389
 20
16.1613419041
 10
-0.0576743625
 20
16.1571056796
 10
-0.0473317587
 20
16.1531337207
 10
-0.0365889883
 20
16.1494368414
 10
-0.0254752691
 20
16.1460250953
 10
-0.0140207917
 20
16.1429077533
 10
-0.0022566863
 20
16.1400932944
 10
0.0097850041
 20
16.1375893915
 10
0.0220714583
 20
16.1354028718
 10
0.0345692227
 20
16.1335396879
 10
0.0472443055
 20
16.1320049067
 10
0.0600622139
 20
16.1308027047
 10
0.0729880773
 20
16.1299363529
 10
0.0859867104
 20
16.1294082099
 10
0.0990227087
 20
16.1292197131
 10
0.1120605766
 20
16.1293713724
 10
0.1250648559
 20
16.129862772
 10
0.1380001903
 20
16.1306925747
 10
0.1508314959
 20
16.1318585345
 10
0.1635237371
 20
16.1333574724
 10
0.1760420662
 20
16.1351852599
 10
0.1883522305
 20
16.1373368606
 10
0.2004209613
 20
16.1398064239
 10
0.2122157322
 20
16.1425872805
 10
0.2237055947
 20
16.1456721906
 10
0.2348580765
 20
16.1490524942
 10
0.2456398864
 20
16.1527179354
 10
0.2560210755
 20
16.1566579333
 10
0.2659747876
 20
16.1608618808
 10
0.2754743505
 20
16.1653181426
  0
LWPOLYLINE
  5
539
100
AcDbEntity
  8
RACCORDO
100
AcDbPolyline
 62
253
  6
CONTINUOUS
 90
31
 70
0
 10
-13.4413657736
 20
22.8479899487
 10
-13.4319068033
 20
22.8435009863
 10
-13.4219925269
 20
22.8392647618
 10
-13.4116499232
 20
22.835292803
 10
-13.4009071527
 20
22.8315959236
 10
-13.3897934335
 20
22.8281841775
 10
-13.3783389562
 20
22.8250668355
 10
-13.3665748508
 20
22.8222523766
 10
-13.3545331604
 20
22.8197484737
 10
-13.3422467061
 20
22.817561954
 10
-13.3297489417
 20
22.8156987701
 10
-13.3170738589
 20
22.8141639889
 10
-13.3042559505
 20
22.8129617869
 10
-13.2913300872
 20
22.8120954351
 10
-13.278331454
 20
22.8115672921
 10
-13.2652954557
 20
22.8113787953
 10
-13.2522575878
 20
22.8115304546
 10
-13.2392533086
 20
22.8120218543
 10
-13.2263179741
 20
22.8128516569
 10
-13.2134866685
 20
22.8140176167
 10
-13.2007944273
 20
22.8155165546
 10
-13.1882760982
 20
22.8173443421
 10
-13.1759659339
 20
22.8194959428
 10
-13.1638972031
 20
22.8219655061
 10
-13.1521024322
 20
22.8247463627
 10
-13.1406125697
 20
22.8278312728
 10
-13.1294600879
 20
22.8312115764
 10
-13.1186782781
 20
22.8348770176
 10
-13.108297089
 20
22.8388170155
 10
-13.0983433768
 20
22.8430209631
 10
-13.088843814
 20
22.8474772249
  0
LWPOLYLINE
  5
53A
100
AcDbEntity
  8
RACCORDO
100
AcDbPolyline
 62
253
  6
CONTINUOUS
 90
31
 70
0
 10
-0.0770476092
 20
16.5058048006
 10
-0.0675874598
 20
16.5013153072
 10
-0.0576718732
 20
16.4970786051
 10
-0.0473278354
 20
16.493106228
 10
-0.0365834872
 20
16.4894089863
 10
-0.0254680816
 20
16.4859969501
 10
-0.0140119081
 20
16.4828794179
 10
-0.0022461588
 20
16.4800648768
 10
0.0097971485
 20
16.4775609844
 10
0.0220852211
 20
16.4753745573
 10
0.0345846087
 20
16.4735115454
 10
0.0472612905
 20
16.4719770176
 10
0.0600807564
 20
16.4707751492
 10
0.0730081279
 20
16.4699092089
 10
0.086008203
 20
16.4693815529
 10
0.0990455464
 20
16.4691936155
 10
0.1120846178
 20
16.4693459008
 10
0.1250899827
 20
16.4698379866
 10
0.138026357
 20
16.4706685363
 10
0.1508586962
 20
16.4718353094
 10
0.1635519033
 20
16.4733351241
 10
0.1760710526
 20
16.4751638408
 10
0.1883818492
 20
16.4773164102
 10
0.200451054
 20
16.4797869802
 10
0.2122461717
 20
16.4825688841
 10
0.2237375943
 20
16.4856552633
 10
0.2348914108
 20
16.489037138
 10
0.2456705664
 20
16.4927028971
 10
0.2560443324
 20
16.4966411829
 10
0.2659876364
 20
16.5008415355
 10
0.2754743505
 20
16.5052920768
  0
LWPOLYLINE
  5
53B
100
AcDbEntity
  8
RACCORDO
100
AcDbPolyline
 62
253
  6
CONTINUOUS
 90
31
 70
0
 10
-13.4413657736
 20
23.1879638828
 10
-13.4319303625
 20
23.1834855322
 10
-13.42203557
 20
23.1792561412
 10
-13.4117074119
 20
23.1752876522
 10
-13.4009709234
 20
23.1715906054
 10
-13.3898566641
 20
23.1681764107
 10
-13.3784013753
 20
23.1650567218
 10
-13.366638788
 20
23.1622406001
 10
-13.3545985003
 20
23.1597350105
 10
-13.3423129522
 20
23.1575467178
 10
-13.3298153304
 20
23.1556816707
 10
-13.3171398565
 20
23.1541450133
 10
-13.3043213854
 20
23.1529409833
 10
-13.2913949679
 20
23.1520728635
 10
-13.2783956289
 20
23.1515429969
 10
-13.2653586367
 20
23.1513528227
 10
-13.2523194206
 20
23.1515028658
 10
-13.2393135242
 20
23.1519927251
 10
-13.2263763957
 20
23.1528210696
 10
-13.2135432623
 20
23.1539856453
 10
-13.20084904
 20
23.1554832854
 10
-13.1883282865
 20
23.1573099149
 10
-13.1760150802
 20
23.1594605639
 10
-13.1639429392
 20
23.1619293802
 10
-13.1521447344
 20
23.1647096428
 10
-13.1406525715
 20
23.1677937874
 10
-13.1294977402
 20
23.171173418
 10
-13.1187106356
 20
23.174839325
 10
-13.1083206267
 20
23.178781524
 10
-13.0983559797
 20
23.1829892869
 10
-13.088843814
 20
23.187451159
  0
LINE
  5
53C
100
AcDbEntity
  8
IMPORT_IGES
100
AcDbLine
 62
253
  6
CONTINUOUS
 10
7.9581289041
 20
12.5198515631
 11
7.9582051312
 21
12.5198135506
  0
LWPOLYLINE
  5
53D
100
AcDbEntity
  8
IMPORT_IGES
100
AcDbPolyline
 62
253
  6
CONTINUOUS
 90
6
 70
0
 10
2.9374153131
 20
13.8043240146
 10
3.4650274075
 20
13.540533019
 10
4.4451911142
 20
13.0560555625
 10
5.4273644002
 20
12.5761428209
 10
6.4116032612
 20
12.1007737857
 10
7.397907697
 20
11.629948457
  0
LINE
  5
53E
100
AcDbEntity
  8
RACCORDO
100
AcDbLine
 62
7
  6
CONTINUOUS
 10
-14.0633574992
 20
22.5471798654
 11
-12.7301451655
 21
21.8805736986
  0
LINE
  5
53F
100
AcDbEntity
  8
RACCORDO
100
AcDbLine
 62
7
  6
CONTINUOUS
 10
-0.6990393347
 20
15.8650207832
 11
0.6341729989
 21
15.1984146164
  0
LINE
  5
540
100
AcDbEntity
  8
IMPORT_IGES
100
AcDbLine
 62
253
  6
CONTINUOUS
 10
7.4185079142
 20
12.0962823959
 11
2.9374153131
 21
14.336829514
  0
LINE
  5
541
100
AcDbEntity
  8
RACCORDO
100
AcDbLine
 62
7
  6
CONTINUOUS
 10
-3.6053853097
 20
17.6944403954
 11
-9.1166924094
 21
20.4500939452
  0
LINE
  5
542
100
AcDbEntity
  8
IMPORT_IGES
100
AcDbLine
 62
253
  6
CONTINUOUS
 10
2.9374153131
 20
14.4941409919
 11
7.4892180822
 21
12.2182396073
  0
LINE
  5
543
100
AcDbEntity
  8
RACCORDO
100
AcDbLine
 62
7
  6
CONTINUOUS
 10
-14.701377157
 20
23.3752638385
 11
-13.3763924772
 21
22.7127714986
  0
LINE
  5
544
100
AcDbEntity
  8
RACCORDO
100
AcDbLine
 62
7
  6
CONTINUOUS
 10
-1.3370589926
 20
16.6931047563
 11
-0.0120743128
 21
16.0306124164
  0
LINE
  5
545
100
AcDbEntity
  8
IMPORT_IGES
100
AcDbLine
 62
253
  6
CONTINUOUS
 10
2.9374153131
 20
14.6514561406
 11
7.5599300052
 21
12.3401989646
  0
LINE
  5
546
100
AcDbEntity
  8
RACCORDO
100
AcDbLine
 62
253
  6
CONTINUOUS
 10
-14.7663504534
 20
23.5104822886
 11
-13.4413657736
 21
22.8479899487
  0
LINE
  5
547
100
AcDbEntity
  8
RACCORDO
100
AcDbLine
 62
253
  6
CONTINUOUS
 10
-1.402032289
 20
16.8283232064
 11
-0.0770476092
 21
16.1658308665
  0
LINE
  5
548
100
AcDbEntity
  8
RACCORDO
100
AcDbLine
 62
253
  6
CONTINUOUS
 10
-0.0770476092
 20
16.5058048006
 11
-1.402032289
 21
17.1682971405
  0
LINE
  5
549
100
AcDbEntity
  8
RACCORDO
100
AcDbLine
 62
253
  6
CONTINUOUS
 10
-13.4413657736
 20
23.1879638828
 11
-14.7663504534
 21
23.8504562228
  0
LINE
  5
54A
100
AcDbEntity
  8
IMPORT_IGES
100
AcDbLine
 62
253
  6
CONTINUOUS
 10
7.9134803367
 20
12.5169739313
 11
2.9374153131
 21
15.0050060397
  0
LINE
  5
54B
100
AcDbEntity
  8
IMPORT_IGES
100
AcDbLine
 62
7
  6
CONTINUOUS
 10
7.9582026553
 20
12.5198147886
 11
2.9374153131
 21
15.0302084598
  0
LINE
  5
54C
100
AcDbEntity
  8
DRAFT
100
AcDbLine
 62
7
  6
CONTINUOUS
 10
-1.4487685158
 20
17.3686252479
 11
-2.5426622411
 21
17.9155721105
  0
LINE
  5
54D
100
AcDbEntity
  8
DRAFT
100
AcDbLine
 62
7
  6
CONTINUOUS
 10
-9.2631390188
 20
21.2758104993
 11
-11.4875630231
 21
22.3880225015
  0
LINE
  5
54E
100
AcDbEntity
  8
RACCORDO
100
AcDbLine
 62
253
  6
CONTINUOUS
 10
0.0987006468
 20
16.8101816156
 11
-1.226284033
 21
17.4726739555
  0
LINE
  5
54F
100
AcDbEntity
  8
RACCORDO
100
AcDbLine
 62
253
  6
CONTINUOUS
 10
-13.2656175176
 20
23.4923406978
 11
-14.5906021975
 21
24.1548330377
  0
LINE
  5
550
100
AcDbEntity
  8
RACCORDO
100
AcDbLine
 62
253
  6
CONTINUOUS
 10
-3.6053853097
 20
18.7750237062
 11
-9.1166924094
 21
21.530677256
  0
LINE
  5
551
100
AcDbEntity
  8
IMPORT_IGES
100
AcDbLine
 62
7
  6
CONTINUOUS
 10
6.8120670247
 20
13.6721668448
 11
6.3693177705
 21
13.8935414719
  0
LINE
  5
552
100
AcDbEntity
  8
IMPORT_IGES
100
AcDbLine
 62
7
  6
CONTINUOUS
 10
8.7208869312
 20
12.7178841707
 11
8.2399242124
 21
12.9583655302
  0
LINE
  5
553
100
AcDbEntity
  8
IMPORT_IGES
100
AcDbLine
 62
7
  6
CONTINUOUS
 10
7.4189470765
 20
13.3688540981
 11
6.9764997569
 21
13.5900777579
  0
LINE
  5
554
100
AcDbEntity
  8
IMPORT_IGES
100
AcDbLine
 62
7
  6
CONTINUOUS
 10
5.9395792811
 20
14.1085379958
 11
5.4971956011
 21
14.3297298358
  0
LINE
  5
555
100
AcDbEntity
  8
IMPORT_IGES
100
AcDbLine
 62
7
  6
CONTINUOUS
 10
4.6163724828
 20
14.770141395
 11
4.1783155892
 21
14.9891698418
  0
LINE
  5
556
100
AcDbEntity
  8
IMPORT_IGES
100
AcDbLine
 62
7
  6
CONTINUOUS
 10
3.2451474771
 20
15.4557538978
 11
3.0086942536
 21
15.5739805096
  0
LINE
  5
557
100
AcDbEntity
  8
IMPORT_IGES
100
AcDbLine
 62
7
  6
CONTINUOUS
 10
6.8120670247
 20
13.8453719255
 11
6.3693177705
 21
14.0667465526
  0
LINE
  5
558
100
AcDbEntity
  8
IMPORT_IGES
100
AcDbLine
 62
7
  6
CONTINUOUS
 10
8.7208869312
 20
12.8910892515
 11
8.2399242124
 21
13.1315706109
  0
LINE
  5
559
100
AcDbEntity
  8
IMPORT_IGES
100
AcDbLine
 62
7
  6
CONTINUOUS
 10
7.4189470765
 20
13.5420591789
 11
6.9764997569
 21
13.7632828387
  0
LINE
  5
55A
100
AcDbEntity
  8
IMPORT_IGES
100
AcDbLine
 62
7
  6
CONTINUOUS
 10
5.9395792811
 20
14.2817430766
 11
5.4971956011
 21
14.5029349166
  0
LINE
  5
55B
100
AcDbEntity
  8
IMPORT_IGES
100
AcDbLine
 62
7
  6
CONTINUOUS
 10
4.6163724828
 20
14.9433464757
 11
4.1783155892
 21
15.1623749225
  0
LINE
  5
55C
100
AcDbEntity
  8
IMPORT_IGES
100
AcDbLine
 62
7
  6
CONTINUOUS
 10
3.2451474771
 20
15.6289589785
 11
3.1507992191
 21
15.6761331075
  0
LWPOLYLINE
  5
55D
100
AcDbEntity
  8
IMPORT_IGES
100
AcDbPolyline
 62
253
  6
CONTINUOUS
 90
6
 70
0
 10
7.4697078766
 20
11.7166064886
 10
6.5048404752
 20
12.213320336
 10
5.536684226
 20
12.7081119156
 10
4.5652391292
 20
13.2009812274
 10
3.5904554407
 20
13.6919576035
 10
2.9374153131
 20
14.0184895788
  0
LWPOLYLINE
  5
55E
100
AcDbEntity
  8
RACCORDO
100
AcDbPolyline
 62
7
  6
CONTINUOUS
 90
22
 70
0
 10
-14.7013378525
 20
23.3752441978
 10
-14.7100566431
 20
23.379818456
 10
-14.7218642222
 20
23.3867404343
 10
-14.7332623281
 20
23.3942891248
 10
-14.744176284
 20
23.4024067533
 10
-14.7545979921
 20
23.4110755293
 10
-14.7645727437
 20
23.4203339313
 10
-14.7740784322
 20
23.4301755718
 10
-14.7830546385
 20
23.4405508683
 10
-14.7914797323
 20
23.4514461553
 10
-14.7993168151
 20
23.4628270777
 10
-14.8065336804
 20
23.4746595575
 10
-14.8131127379
 20
23.4869317042
 10
-14.8190241909
 20
23.4996108821
 10
-14.8242361716
 20
23.5126525892
 10
-14.8287259653
 20
23.5260268183
 10
-14.8324676738
 20
23.5396883277
 10
-14.8354394013
 20
23.5535927681
 10
-14.8376241361
 20
23.5677096033
 10
-14.8390028822
 20
23.5819853749
 10
-14.8395612751
 20
23.5963724346
 10
-14.839573757
 20
23.5988826391
  0
LWPOLYLINE
  5
55F
100
AcDbEntity
  8
RACCORDO
100
AcDbPolyline
 62
7
  6
CONTINUOUS
 90
22
 70
0
 10
-1.3370196881
 20
16.6930851156
 10
-1.3457384786
 20
16.6976593737
 10
-1.3575460578
 20
16.7045813521
 10
-1.3689441637
 20
16.7121300426
 10
-1.3798581195
 20
16.7202476711
 10
-1.3902798276
 20
16.7289164471
 10
-1.4002545793
 20
16.738174849
 10
-1.4097602678
 20
16.7480164896
 10
-1.418736474
 20
16.7583917861
 10
-1.4271615679
 20
16.7692870731
 10
-1.4349986507
 20
16.7806679955
 10
-1.442215516
 20
16.7925004753
 10
-1.4487945735
 20
16.804772622
 10
-1.4547060265
 20
16.8174517999
 10
-1.4599180071
 20
16.830493507
 10
-1.4644078009
 20
16.8438677361
 10
-1.4681495094
 20
16.8575292455
 10
-1.4711212369
 20
16.8714336859
 10
-1.4733059717
 20
16.8855505211
 10
-1.4746847177
 20
16.8998262926
 10
-1.4752431106
 20
16.9142133524
 10
-1.4752555926
 20
16.9167235568
  0
LWPOLYLINE
  5
560
100
AcDbEntity
  8
RACCORDO
100
AcDbPolyline
 62
253
  6
CONTINUOUS
 90
16
 70
0
 10
-14.7663504534
 20
23.5104822886
 10
-14.7753283783
 20
23.5152117738
 10
-14.7838008272
 20
23.520168912
 10
-14.791744745
 20
23.5253402138
 10
-14.7991385037
 20
23.5307115991
 10
-14.8059619959
 20
23.5362684587
 10
-14.8121966799
 20
23.5419956974
 10
-14.8178255976
 20
23.54787775
 10
-14.8228334034
 20
23.5538985952
 10
-14.8272064428
 20
23.5600418224
 10
-14.8309328106
 20
23.5662907046
 10
-14.8340023731
 20
23.572628246
 10
-14.8364067771
 20
23.5790372002
 10
-14.8381394807
 20
23.5855001319
 10
-14.8391957666
 20
23.5919994484
 10
-14.8395737581
 20
23.5988706375
  0
LWPOLYLINE
  5
561
100
AcDbEntity
  8
RACCORDO
100
AcDbPolyline
 62
253
  6
CONTINUOUS
 90
16
 70
0
 10
-14.7663504534
 20
23.8504562228
 10
-14.7753294403
 20
23.8551862974
 10
-14.7838028445
 20
23.8601440907
 10
-14.7917475988
 20
23.8653161097
 10
-14.799142082
 20
23.8706882838
 10
-14.8059661544
 20
23.8762459865
 10
-14.8122012188
 20
23.8819740733
 10
-14.8178303011
 20
23.8878569479
 10
-14.8228380859
 20
23.8938786016
 10
-14.82721094
 20
23.9000226379
 10
-14.8309369638
 20
23.9062723317
 10
-14.8340060196
 20
23.9126106726
 10
-14.8364097562
 20
23.9190204055
 10
-14.838141637
 20
23.9254840913
 10
-14.8391969489
 20
23.9319841289
 10
-14.8395737581
 20
23.9388445733
  0
LWPOLYLINE
  5
562
100
AcDbEntity
  8
RACCORDO
100
AcDbPolyline
 62
253
  6
CONTINUOUS
 90
16
 70
0
 10
-1.402032289
 20
16.8283232064
 10
-1.4110102139
 20
16.8330526916
 10
-1.4194826628
 20
16.8380098298
 10
-1.4274265805
 20
16.8431811316
 10
-1.4348203393
 20
16.8485525169
 10
-1.4416438315
 20
16.8541093765
 10
-1.4478785155
 20
16.8598366151
 10
-1.4535074332
 20
16.8657186678
 10
-1.458515239
 20
16.871739513
 10
-1.4628882784
 20
16.8778827402
 10
-1.4666146462
 20
16.8841316224
 10
-1.4696842086
 20
16.8904691637
 10
-1.4720886127
 20
16.896878118
 10
-1.4738213163
 20
16.9033410496
 10
-1.4748776022
 20
16.9098403662
 10
-1.4752555937
 20
16.9167115553
  0
LWPOLYLINE
  5
563
100
AcDbEntity
  8
RACCORDO
100
AcDbPolyline
 62
253
  6
CONTINUOUS
 90
16
 70
0
 10
-1.402032289
 20
17.1682971405
 10
-1.4110093562
 20
17.1730261496
 10
-1.4194810488
 20
17.1779827681
 10
-1.4274243182
 20
17.1831535107
 10
-1.4348175532
 20
17.1885243095
 10
-1.4416406395
 20
17.1940805523
 10
-1.4478750135
 20
17.1998071225
 10
-1.4535037137
 20
17.2056884399
 10
-1.4585114262
 20
17.2117085034
 10
-1.4628845266
 20
17.2178509345
 10
-1.4666111173
 20
17.2240990215
 10
-1.4696810593
 20
17.2304357655
 10
-1.4720860005
 20
17.2368439264
 10
-1.4738193976
 20
17.2433060695
 10
-1.4748765349
 20
17.2498046137
 10
-1.4752555937
 20
17.2566854882
  0
LWPOLYLINE
  5
564
100
AcDbEntity
  8
IMPORT_IGES
100
AcDbPolyline
 62
253
  6
CONTINUOUS
 90
10
 70
0
 10
7.469710599
 20
11.7166051273
 10
7.4817371453
 20
11.709863288
 10
7.4934763035
 20
11.7021334031
 10
7.5048864185
 20
11.6934387124
 10
7.5159308055
 20
11.6837988745
 10
7.5265630329
 20
11.673248559
 10
7.5367281413
 20
11.6618417425
 10
7.5463825092
 20
11.6496243116
 10
7.5554929034
 20
11.6366295387
 10
7.5640224964
 20
11.6228996636
  0
LINE
  5
565
100
AcDbEntity
  8
IMPORT_IGES
100
AcDbLine
 62
253
  6
CONTINUOUS
 10
8.0905681749
 20
12.3942008088
 11
8.0741673134
 21
12.4035246616
  0
LINE
  5
566
100
AcDbEntity
  8
IMPORT_IGES
100
AcDbLine
 62
7
  6
CONTINUOUS
 10
7.9885816606
 20
12.5025454878
 11
7.9582169605
 21
12.5198076357
  0
LWPOLYLINE
  5
567
100
AcDbEntity
  8
IMPORT_IGES
100
AcDbPolyline
 62
253
  6
CONTINUOUS
 90
4
 70
0
 10
7.9134803367
 20
12.5169739313
 10
7.9355664093
 20
12.5041275731
 10
7.9536992149
 20
12.4905257496
 10
7.9678787532
 20
12.4761684608
  0
LWPOLYLINE
  5
568
100
AcDbEntity
  8
RACCORDO
100
AcDbPolyline
 62
7
  6
CONTINUOUS
 90
37
 70
0
 10
1.8766498999
 20
15.7055439776
 10
1.8915521842
 20
15.6967455692
 10
1.9064566329
 20
15.6871679151
 10
1.9213351731
 20
15.6768247948
 10
1.9361795875
 20
15.6657212826
 10
1.9509412671
 20
15.6538831454
 10
1.9655329169
 20
15.6413645218
 10
1.9799131898
 20
15.6282010702
 10
1.9940716826
 20
15.614412596
 10
2.00797049
 20
15.6000395818
 10
2.0215664833
 20
15.5851351292
 10
2.0348572106
 20
15.5697106242
 10
2.0478644366
 20
15.5537408849
 10
2.0605717339
 20
15.5372425559
 10
2.0729462673
 20
15.5202549736
 10
2.0849809763
 20
15.5027808279
 10
2.0966691737
 20
15.484820627
 10
2.1079664632
 20
15.4664325101
 10
2.1188125053
 20
15.4477090721
 10
2.1291865764
 20
15.4286903832
 10
2.1390726751
 20
15.4094092179
 10
2.1484273807
 20
15.389953625
 10
2.1572356524
 20
15.3703705226
 10
2.1654909073
 20
15.3506903756
 10
2.1731706985
 20
15.3309787728
 10
2.1802638578
 20
15.3112902999
 10
2.1867730608
 20
15.2916452357
 10
2.1926991372
 20
15.2720569316
 10
2.198037991
 20
15.2525630619
 10
2.2027883342
 20
15.2331952667
 10
2.2069525442
 20
15.2139568164
 10
2.2105292186
 20
15.1948741302
 10
2.213515391
 20
15.1759864247
 10
2.2159092869
 20
15.1573157164
 10
2.2177102095
 20
15.1388901192
 10
2.2189194362
 20
15.1207435401
 10
2.2195388902
 20
15.1029058491
  0
LINE
  5
569
100
AcDbEntity
  8
IMPORT_IGES
100
AcDbLine
 62
7
  6
CONTINUOUS
 10
17.2510413245
 20
4.0444586856
 11
16.0421516402
 21
4.9254219311
  0
LINE
  5
56A
100
AcDbEntity
  8
IMPORT_IGES
100
AcDbLine
 62
7
  6
CONTINUOUS
 10
16.0703124855
 20
5.0262283201
 11
17.4598408791
 21
4.0136268734
  0
LWPOLYLINE
  5
56B
100
AcDbEntity
  8
IMPORT_IGES
100
AcDbPolyline
 62
7
  6
CONTINUOUS
 90
3
 70
0
 10
8.0374643399
 20
12.4618797083
 10
8.0150096138
 20
12.4831897184
 10
7.9885816606
 20
12.5025454878
  0
LWPOLYLINE
  5
56C
100
AcDbEntity
  8
IMPORT_IGES
100
AcDbPolyline
 62
253
  6
CONTINUOUS
 90
4
 70
0
 10
7.9678787532
 20
12.4761684608
 10
7.9781766684
 20
12.4607964169
 10
7.9845213164
 20
12.4446689078
 10
7.9866977657
 20
12.428563803
  0
LINE
  5
56D
100
AcDbEntity
  8
IMPORT_IGES
100
AcDbLine
 62
253
  6
CONTINUOUS
 10
15.6550386701
 20
13.5670890227
 11
15.6482573947
 21
13.8089468339
  0
LINE
  5
56E
100
AcDbEntity
  8
IMPORT_IGES
100
AcDbLine
 62
7
  6
CONTINUOUS
 10
15.7165086841
 20
13.5363540157
 11
15.7069647592
 21
13.8814264252
  0
LWPOLYLINE
  5
56F
100
AcDbEntity
  8
IMPORT_IGES
100
AcDbPolyline
 62
7
  6
CONTINUOUS
 90
10
 70
0
 10
17.4104115601
 20
0.5700595501
 10
17.4103999427
 20
0.526420123
 10
17.4116103427
 20
0.4835428608
 10
17.4140427599
 20
0.4414277635
 10
17.4177028805
 20
0.4000282061
 10
17.4225850185
 20
0.3593908137
 10
17.4286721151
 20
0.3196554607
 10
17.4359584842
 20
0.280868772
 10
17.444449812
 20
0.2429841227
 10
17.4541460985
 20
0.2060015128
  0
LINE
  5
570
100
AcDbEntity
  8
IMPORT_IGES
100
AcDbLine
 62
253
  6
CONTINUOUS
 10
17.1774408404
 20
-1.082962221
 11
17.2510413245
 21
4.0444586856
  0
LINE
  5
571
100
AcDbEntity
  8
IMPORT_IGES
100
AcDbLine
 62
7
  6
CONTINUOUS
 10
17.2653102127
 20
-0.9766839324
 11
17.3363055586
 21
3.9692484873
  0
LINE
  5
572
100
AcDbEntity
  8
IMPORT_IGES
100
AcDbLine
 62
7
  6
CONTINUOUS
 10
17.4598408583
 20
4.0136268885
 11
17.410410891
 21
0.5700592155
  0
LINE
  5
573
100
AcDbEntity
  8
IMPORT_IGES
100
AcDbLine
 62
7
  6
CONTINUOUS
 10
17.2653106539
 20
-0.9766828955
 11
17.2637126487
 21
-1.0105805724
  0
LWPOLYLINE
  5
574
100
AcDbEntity
  8
IMPORT_IGES
100
AcDbPolyline
 62
253
  6
CONTINUOUS
 90
3
 70
0
 10
15.8198938226
 20
-3.3234214986
 10
15.8188024239
 20
-3.3450019289
 10
15.8161766886
 20
-3.365620174
  0
LWPOLYLINE
  5
575
100
AcDbEntity
  8
IMPORT_IGES
100
AcDbPolyline
 62
253
  6
CONTINUOUS
 90
10
 70
0
 10
17.1774408404
 20
-1.082962221
 10
17.1766515817
 20
-1.0984190302
 10
17.174832534
 20
-1.1140571496
 10
17.1719836974
 20
-1.1298765791
 10
17.1680677062
 20
-1.1460005053
 10
17.1631219261
 20
-1.1623057416
 10
17.1572584535
 20
-1.1784227285
 10
17.150514654
 20
-1.1942282795
 10
17.1428531621
 20
-1.209845581
 10
17.1342739777
 20
-1.225274633
  0
LWPOLYLINE
  5
576
100
AcDbEntity
  8
IMPORT_IGES
100
AcDbPolyline
 62
7
  6
CONTINUOUS
 90
9
 70
0
 10
17.2637126487
 20
-1.0105805724
 10
17.2599661263
 20
-1.0442547954
 10
17.2541634125
 20
-1.0776630452
 10
17.2463299532
 20
-1.1109376466
 10
17.2365241271
 20
-1.143918786
 10
17.2249336188
 20
-1.1761376382
 10
17.2116927191
 20
-1.2074339615
 10
17.196786278
 20
-1.2379565047
 10
17.1802236338
 20
-1.2676921634
  0
LWPOLYLINE
  5
577
100
AcDbEntity
  8
IMPORT_IGES
100
AcDbPolyline
 62
253
  6
CONTINUOUS
 90
7
 70
0
 10
15.8161766886
 20
-3.365620174
 10
15.8120356996
 20
-3.3851262207
 10
15.8064099253
 20
-3.4033779683
 10
15.7993399431
 20
-3.4202427904
 10
15.7908761413
 20
-3.4355985014
 10
15.7810797552
 20
-3.4493335434
 10
15.7700224189
 20
-3.4613477995
  0
LWPOLYLINE
  5
578
100
AcDbEntity
  8
IMPORT_IGES
100
AcDbPolyline
 62
253
  6
CONTINUOUS
 90
3
 70
0
 10
18.8641592608
 20
5.3523067683
 10
18.9074241015
 20
5.5482390025
 10
18.941024131
 20
5.7744814228
  0
LWPOLYLINE
  5
579
100
AcDbEntity
  8
IMPORT_IGES
100
AcDbPolyline
 62
7
  6
CONTINUOUS
 90
4
 70
0
 10
18.862179299
 20
5.214371572
 10
18.8725048531
 20
5.2429148753
 10
18.9266128128
 20
5.4343155487
 10
18.9690189955
 20
5.6351102019
  0
LINE
  5
57A
100
AcDbEntity
  8
RACCORDO
100
AcDbLine
 62
253
  6
CONTINUOUS
 10
0.6336587706
 20
-24.1570196816
 11
0.0113407385
 21
-24.9020790991
  0
LINE
  5
57B
100
AcDbEntity
  8
RACCORDO
100
AcDbLine
 62
253
  6
CONTINUOUS
 10
0.9866949586
 20
-24.2827895196
 11
0.2754743505
 21
-25.1342859967
  0
LINE
  5
57C
100
AcDbEntity
  8
RACCORDO
100
AcDbLine
 62
253
  6
CONTINUOUS
 10
7.2449837483
 20
-15.9434135565
 11
2.9374153131
 21
-17.2180357764
  0
LINE
  5
57D
100
AcDbEntity
  8
IMPORT_IGES
100
AcDbLine
 62
7
  6
CONTINUOUS
 10
14.7472736472
 20
13.8672746179
 11
14.7134646101
 21
13.8726900462
  0
LINE
  5
57E
100
AcDbEntity
  8
RACCORDO
100
AcDbLine
 62
7
  6
CONTINUOUS
 10
0.048630857
 20
16.0094969819
 11
0.6742375506
 21
15.8788755855
  0
LINE
  5
57F
100
AcDbEntity
  8
RACCORDO
100
AcDbLine
 62
253
  6
CONTINUOUS
 10
0.2754743505
 20
16.1653181426
 11
0.9866949586
 21
16.0168146198
  0
LWPOLYLINE
  5
580
100
AcDbEntity
  8
RACCORDO
100
AcDbPolyline
 62
7
  6
CONTINUOUS
 90
10
 70
0
 10
0.048630857
 20
16.0094969819
 10
0.0410892597
 20
16.0111937625
 10
0.0335860047
 20
16.0131277535
 10
0.0261317783
 20
16.0152978123
 10
0.0187210662
 20
16.0177076908
 10
0.0113821315
 20
16.0203499866
 10
0.0041727887
 20
16.0232019117
 10
-0.0028848092
 20
16.0262490664
 10
-0.0097999592
 20
16.0294896258
 10
-0.0120849299
 20
16.0306177258
  0
LINE
  5
581
100
AcDbEntity
  8
IMPORT_IGES
100
AcDbLine
 62
7
  6
CONTINUOUS
 10
14.7800556517
 20
13.8577205244
 11
14.7472736472
 21
13.8672746179
  0
LWPOLYLINE
  5
582
100
AcDbEntity
  8
IMPORT_IGES
100
AcDbPolyline
 62
253
  6
CONTINUOUS
 90
4
 70
0
 10
16.2454210137
 20
13.259966823
 10
16.2283547153
 20
13.264945199
 10
16.2100553219
 20
13.2660927622
 10
16.1909265068
 20
13.2634892516
  0
LWPOLYLINE
  5
583
100
AcDbEntity
  8
IMPORT_IGES
100
AcDbPolyline
 62
253
  6
CONTINUOUS
 90
7
 70
0
 10
19.1655159413
 20
9.7893742111
 10
19.1208441544
 20
9.8088217217
 10
19.0771299185
 20
9.8221663705
 10
19.0348260501
 20
9.8294522011
 10
18.9945922489
 20
9.8308021825
 10
18.956528578
 20
9.8264544008
 10
18.9202952775
 20
9.8163978836
  0
LWPOLYLINE
  5
584
100
AcDbEntity
  8
IMPORT_IGES
100
AcDbPolyline
 62
253
  6
CONTINUOUS
 90
27
 70
0
 10
11.4487613014
 20
14.1114090895
 10
11.4891971441
 20
14.0936539434
 10
11.532091888
 20
14.0786633014
 10
11.577445533
 20
14.0664371634
 10
11.6259667043
 20
14.0569064653
 10
11.6769467767
 20
14.0501402713
 10
11.7282598746
 20
14.0463457742
 10
11.7797619559
 20
14.0456176518
 10
11.8315970627
 20
14.0478612263
 10
11.8820714453
 20
14.0529996572
 10
11.9313056672
 20
14.0611481003
 10
11.979179165
 20
14.0721913998
 10
12.0236364981
 20
14.0857072477
 10
12.0644926473
 20
14.1018026595
 10
12.1019326318
 20
14.1203706198
 10
12.1344560697
 20
14.1406677739
 10
12.1618541566
 20
14.162765742
 10
12.1843356969
 20
14.1865929039
 10
12.201026721
 20
14.2111910445
 10
12.2117248455
 20
14.2365422062
 10
12.2166324539
 20
14.2626643465
 10
12.215482727
 20
14.2886531229
 10
12.2080272449
 20
14.3145912084
 10
12.1945144275
 20
14.3403959299
 10
12.1754227146
 20
14.3649149263
 10
12.1509115861
 20
14.3877640769
 10
12.1208215622
 20
14.4093275024
  0
LINE
  5
585
100
AcDbEntity
  8
IMPORT_IGES
100
AcDbLine
 62
7
  6
CONTINUOUS
 10
19.29968002
 20
9.7978947473
 11
19.2526984441
 21
9.8186084937
  0
LWPOLYLINE
  5
586
100
AcDbEntity
  8
RACCORDO
100
AcDbPolyline
 62
253
  6
CONTINUOUS
 90
14
 70
0
 10
2.3390235672
 20
17.8829323311
 10
2.3315961465
 20
17.8862518488
 10
2.3240132039
 20
17.888889549
 10
2.3161667856
 20
17.8909024195
 10
2.3080784943
 20
17.8922849444
 10
2.2997705265
 20
17.8930334047
 10
2.2912653542
 20
17.893145849
 10
2.2825858914
 20
17.8926220001
 10
2.2737538009
 20
17.8914629581
 10
2.2647950179
 20
17.8896719227
 10
2.2557396811
 20
17.8872554924
 10
2.2466145123
 20
17.884222121
 10
2.2374425077
 20
17.8805807637
 10
2.2282486094
 20
17.8763424391
  0
LWPOLYLINE
  5
587
100
AcDbEntity
  8
RACCORDO
100
AcDbPolyline
 62
253
  6
CONTINUOUS
 90
14
 70
0
 10
1.0016974066
 20
18.5515954114
 10
0.994269986
 20
18.5549149291
 10
0.9866870434
 20
18.5575526292
 10
0.9788406251
 20
18.5595654998
 10
0.9707523338
 20
18.5609480247
 10
0.962444366
 20
18.561696485
 10
0.9539391936
 20
18.5618089293
 10
0.9452597309
 20
18.5612850804
 10
0.9364276404
 20
18.5601260384
 10
0.9274688574
 20
18.558335003
 10
0.9184135205
 20
18.5559185726
 10
0.9092883517
 20
18.5528852012
 10
0.9001163472
 20
18.549243844
 10
0.8909224488
 20
18.5450055194
  0
LWPOLYLINE
  5
588
100
AcDbEntity
  8
RACCORDO
100
AcDbPolyline
 62
253
  6
CONTINUOUS
 90
15
 70
0
 10
-14.5906021975
 20
24.1548330377
 10
-14.5999060311
 20
24.1591354624
 10
-14.6091815459
 20
24.1628341111
 10
-14.6184033195
 20
24.1659188465
 10
-14.6275460767
 20
24.1683812139
 10
-14.6365847588
 20
24.1702144644
 10
-14.6454945926
 20
24.1714135735
 10
-14.6542511579
 20
24.1719752545
 10
-14.6628304546
 20
24.1718979681
 10
-14.6712089684
 20
24.171181926
 10
-14.6793637354
 20
24.1698290909
 10
-14.687272405
 20
24.1678431704
 10
-14.6949133008
 20
24.1652296078
 10
-14.7022654808
 20
24.1619955663
 10
-14.7036878636
 20
24.1612810129
  0
LWPOLYLINE
  5
589
100
AcDbEntity
  8
RACCORDO
100
AcDbPolyline
 62
7
  6
CONTINUOUS
 90
16
 70
0
 10
0.3564725701
 20
18.2846580528
 10
0.3480614947
 20
18.2886185367
 10
0.3396692771
 20
18.2920795154
 10
0.3313150294
 20
18.2950331992
 10
0.3230178554
 20
18.2974729873
 10
0.314796557
 20
18.2993933535
 10
0.3066695912
 20
18.3007898588
 10
0.2986554258
 20
18.3016593674
 10
0.2907723065
 20
18.301999954
 10
0.2830379643
 20
18.3018107786
 10
0.2754699568
 20
18.3010922868
 10
0.2680854998
 20
18.2998461411
 10
0.2609012373
 20
18.2980751185
 10
0.2539334586
 20
18.2957832372
 10
0.2471979994
 20
18.2929757141
 10
0.2455403813
 20
18.2921882107
  0
LWPOLYLINE
  5
58A
100
AcDbEntity
  8
RACCORDO
100
AcDbPolyline
 62
7
  6
CONTINUOUS
 90
16
 70
0
 10
-13.0078455943
 20
24.9668171351
 10
-13.0162566697
 20
24.9707776189
 10
-13.0246488873
 20
24.9742385977
 10
-13.0330031351
 20
24.9771922814
 10
-13.041300309
 20
24.9796320695
 10
-13.0495216074
 20
24.9815524357
 10
-13.0576485732
 20
24.982948941
 10
-13.0656627386
 20
24.9838184496
 10
-13.0735458579
 20
24.9841590362
 10
-13.0812802001
 20
24.9839698608
 10
-13.0888482077
 20
24.983251369
 10
-13.0962326646
 20
24.9820052233
 10
-13.1034169272
 20
24.9802342007
 10
-13.1103847058
 20
24.9779423194
 10
-13.117120165
 20
24.9751347963
 10
-13.1187777831
 20
24.9743472929
  0
LWPOLYLINE
  5
58B
100
AcDbEntity
  8
RACCORDO
100
AcDbPolyline
 62
253
  6
CONTINUOUS
 90
14
 70
0
 10
0.8909224488
 20
18.5450055194
 10
0.8817234391
 20
18.5493603561
 10
0.8725468235
 20
18.5531084544
 10
0.8634177532
 20
18.5562395414
 10
0.8543612494
 20
18.5587450355
 10
0.8454021342
 20
18.5606180695
 10
0.8365649628
 20
18.5618535098
 10
0.8278739564
 20
18.5624479703
 10
0.8193529354
 20
18.5623998216
 10
0.8110252541
 20
18.5617091959
 10
0.8029137374
 20
18.5603779858
 10
0.7950406172
 20
18.5584098401
 10
0.7874274724
 20
18.555810153
 10
0.7804103377
 20
18.5527403105
  0
LWPOLYLINE
  5
58C
100
AcDbEntity
  8
RACCORDO
100
AcDbPolyline
 62
253
  6
CONTINUOUS
 90
14
 70
0
 10
-12.4733957156
 20
25.2271646016
 10
-12.4825728231
 20
25.2315097786
 10
-12.4917334416
 20
25.2352532891
 10
-12.5008524862
 20
25.238383761
 10
-12.5099067914
 20
25.2408919262
 10
-12.5188694817
 20
25.2427690126
 10
-12.5277102697
 20
25.2440081025
 10
-12.5364030281
 20
25.2446057381
 10
-12.5449258708
 20
25.2445606225
 10
-12.5532556627
 20
25.2438728523
 10
-12.5613697047
 20
25.2425442285
 10
-12.5692455679
 20
25.2405783489
 10
-12.5768614119
 20
25.2379806392
 10
-12.5839078262
 20
25.2348993929
  0
LWPOLYLINE
  5
58D
100
AcDbEntity
  8
IMPORT_IGES
100
AcDbPolyline
 62
7
  6
CONTINUOUS
 90
10
 70
0
 10
18.6351858553
 20
9.0911964663
 10
18.6102338757
 20
9.1030288269
 10
18.5853596297
 20
9.1138673078
 10
18.5605631171
 20
9.123711909
 10
18.5358198087
 20
9.1325704518
 10
18.5111542338
 20
9.1404351148
 10
18.4866399807
 20
9.1472824343
 10
18.4623015787
 20
9.1531045892
 10
18.4381144986
 20
9.1579094006
 10
18.4140787403
 20
9.1616968685
  0
LINE
  5
58E
100
AcDbEntity
  8
IMPORT_IGES
100
AcDbLine
 62
253
  6
CONTINUOUS
 10
19.5470325057
 20
9.6742183915
 11
19.5471673934
 21
9.6741510606
  0
LINE
  5
58F
100
AcDbEntity
  8
IMPORT_IGES
100
AcDbLine
 62
253
  6
CONTINUOUS
 10
19.2995451323
 20
9.7979620782
 11
19.29968002
 21
9.7978947473
  0
LINE
  5
590
100
AcDbEntity
  8
RACCORDO
100
AcDbLine
 62
253
  6
CONTINUOUS
 10
-3.1825629299
 20
18.8774132707
 11
-9.2583175796
 21
21.9152905955
  0
LINE
  5
591
100
AcDbEntity
  8
RACCORDO
100
AcDbLine
 62
7
  6
CONTINUOUS
 10
-11.4875630231
 20
23.0875715935
 11
-10.0795202881
 21
22.383550226
  0
LINE
  5
592
100
AcDbEntity
  8
RACCORDO
100
AcDbLine
 62
7
  6
CONTINUOUS
 10
1.8767551413
 20
16.4054125113
 11
2.5837542123
 21
16.0519129758
  0
LINE
  5
593
100
AcDbEntity
  8
IMPORT_IGES
100
AcDbLine
 62
253
  6
CONTINUOUS
 10
18.2816323943
 20
8.4814071043
 11
18.5291184853
 21
8.3576640589
  0
LINE
  5
594
100
AcDbEntity
  8
DRAFT
100
AcDbLine
 62
7
  6
CONTINUOUS
 10
-8.7652019156
 20
22.239277513
 11
-2.5426622411
 21
19.1280076758
  0
LINE
  5
595
100
AcDbEntity
  8
IMPORT_IGES
100
AcDbLine
 62
253
  6
CONTINUOUS
 10
18.6351858553
 20
9.0911964663
 11
18.8826732289
 21
8.9674527795
  0
LINE
  5
596
100
AcDbEntity
  8
IMPORT_IGES
100
AcDbLine
 62
7
  6
CONTINUOUS
 10
4.4080205964
 20
16.2442865221
 11
4.2058326496
 21
16.3453804955
  0
LINE
  5
597
100
AcDbEntity
  8
RACCORDO
100
AcDbLine
 62
7
  6
CONTINUOUS
 10
-13.0078455943
 20
24.9668171351
 11
-11.6643367268
 21
24.2950627013
  0
LINE
  5
598
100
AcDbEntity
  8
RACCORDO
100
AcDbLine
 62
7
  6
CONTINUOUS
 10
0.3564725701
 20
18.2846580528
 11
1.6999814376
 21
17.6129036191
  0
LINE
  5
599
100
AcDbEntity
  8
DRAFT
100
AcDbLine
 62
7
  6
CONTINUOUS
 10
-2.471951563
 20
19.7947207295
 11
-7.4216990313
 21
22.2695944637
  0
LINE
  5
59A
100
AcDbEntity
  8
IMPORT_IGES
100
AcDbLine
 62
7
  6
CONTINUOUS
 10
4.2747813959
 20
16.4841112031
 11
4.6297339725
 21
16.3066349148
  0
LINE
  5
59B
100
AcDbEntity
  8
IMPORT_IGES
100
AcDbLine
 62
7
  6
CONTINUOUS
 10
18.8826732288
 20
9.4004654815
 11
18.6351858554
 21
9.5242091682
  0
LINE
  5
59C
100
AcDbEntity
  8
IMPORT_IGES
100
AcDbLine
 62
7
  6
CONTINUOUS
 10
4.5436048547
 20
16.6773557855
 11
5.0479565209
 21
16.4251799525
  0
LINE
  5
59D
100
AcDbEntity
  8
RACCORDO
100
AcDbLine
 62
253
  6
CONTINUOUS
 10
-12.4733957156
 20
25.2271646016
 11
-11.1360695551
 21
24.5585015213
  0
LINE
  5
59E
100
AcDbEntity
  8
RACCORDO
100
AcDbLine
 62
253
  6
CONTINUOUS
 10
0.8909224488
 20
18.5450055194
 11
2.2282486094
 21
17.8763424391
  0
LINE
  5
59F
100
AcDbEntity
  8
RACCORDO
100
AcDbLine
 62
7
  6
CONTINUOUS
 10
-12.3626207561
 20
25.2337544927
 11
-11.0252945955
 21
24.5650914125
  0
LINE
  5
5A0
100
AcDbEntity
  8
RACCORDO
100
AcDbLine
 62
7
  6
CONTINUOUS
 10
1.0016974084
 20
18.5515954105
 11
2.3390235689
 21
17.8829323302
  0
LINE
  5
5A1
100
AcDbEntity
  8
IMPORT_IGES
100
AcDbLine
 62
253
  6
CONTINUOUS
 10
19.1655159413
 20
9.7893742111
 11
19.4130033147
 21
9.6656305244
  0
LINE
  5
5A2
100
AcDbEntity
  8
IMPORT_IGES
100
AcDbLine
 62
7
  6
CONTINUOUS
 10
5.5935678914
 20
16.5758138494
 11
6.0315137692
 21
16.3568409105
  0
LINE
  5
5A3
100
AcDbEntity
  8
IMPORT_IGES
100
AcDbLine
 62
7
  6
CONTINUOUS
 10
6.1010372151
 20
16.3220791876
 11
6.5341634531
 21
16.1055160686
  0
LINE
  5
5A4
100
AcDbEntity
  8
IMPORT_IGES
100
AcDbLine
 62
7
  6
CONTINUOUS
 10
7.1515567685
 20
15.7968194109
 11
7.2136527647
 21
15.7657714128
  0
LINE
  5
5A5
100
AcDbEntity
  8
IMPORT_IGES
100
AcDbLine
 62
7
  6
CONTINUOUS
 10
7.8285966622
 20
15.458299464
 11
8.2521635237
 21
15.2465160333
  0
LINE
  5
5A6
100
AcDbEntity
  8
IMPORT_IGES
100
AcDbLine
 62
7
  6
CONTINUOUS
 10
8.4905101277
 20
15.1273427313
 11
8.9332593819
 21
14.9059681042
  0
LINE
  5
5A7
100
AcDbEntity
  8
IMPORT_IGES
100
AcDbLine
 62
7
  6
CONTINUOUS
 10
9.7793600217
 20
14.4829177842
 11
10.1695330583
 21
14.287831266
  0
LINE
  5
5A8
100
AcDbEntity
  8
IMPORT_IGES
100
AcDbLine
 62
7
  6
CONTINUOUS
 10
19.29968002
 20
9.7978947473
 11
19.5471673934
 21
9.6741510606
  0
LWPOLYLINE
  5
5A9
100
AcDbEntity
  8
RACCORDO
100
AcDbPolyline
 62
7
  6
CONTINUOUS
 90
22
 70
0
 10
2.3390299106
 20
17.8829291591
 10
2.3502985833
 20
17.8769299998
 10
2.3613775754
 20
17.8702800076
 10
2.3721074305
 20
17.8630598735
 10
2.3824590926
 20
17.8552869494
 10
2.3924118518
 20
17.8469733629
 10
2.4019380457
 20
17.8381373439
 10
2.4110075098
 20
17.828801825
 10
2.4195957376
 20
17.8189865516
 10
2.4276766645
 20
17.8087149358
 10
2.435224186
 20
17.7980134171
 10
2.4422148657
 20
17.7869079796
 10
2.4486256865
 20
17.7754272004
 10
2.4544351404
 20
17.7636009239
 10
2.4596238074
 20
17.7514588562
 10
2.4641736589
 20
17.7390315179
 10
2.4680669119
 20
17.7263542348
 10
2.4712874426
 20
17.7134657804
 10
2.4738225187
 20
17.7004020666
 10
2.4756613723
 20
17.6871996963
 10
2.476794975
 20
17.6739000563
 10
2.47722017
 20
17.6593251831
  0
LWPOLYLINE
  5
5AA
100
AcDbEntity
  8
RACCORDO
100
AcDbPolyline
 62
7
  6
CONTINUOUS
 90
22
 70
0
 10
-11.0252945955
 20
24.5650914125
 10
-11.0136380296
 20
24.5588728281
 10
-11.0022826469
 20
24.5520192222
 10
-10.9912718014
 20
24.5445479581
 10
-10.9806432393
 20
24.5364766903
 10
-10.9704417508
 20
24.5278329347
 10
-10.960716827
 20
24.5186559549
 10
-10.9515423084
 20
24.5090229308
 10
-10.9429040393
 20
24.4989289148
 10
-10.9347335447
 20
24.4882791292
 10
-10.9270327487
 20
24.4770301511
 10
-10.9198992248
 20
24.4652775644
 10
-10.9134122207
 20
24.4531299221
 10
-10.9076085888
 20
24.4406542301
 10
-10.9024979452
 20
24.4278722112
 10
-10.898098907
 20
24.4148292547
 10
-10.8944273156
 20
24.4015757254
 10
-10.8914923302
 20
24.3881521367
 10
-10.8892986803
 20
24.3745829518
 10
-10.8878529083
 20
24.3608981909
 10
-10.8871622238
 20
24.3471512289
 10
-10.8870979948
 20
24.3414914007
  0
LWPOLYLINE
  5
5AB
100
AcDbEntity
  8
IMPORT_IGES
100
AcDbPolyline
 62
7
  6
CONTINUOUS
 90
10
 70
0
 10
18.8826732289
 20
8.9674527795
 10
18.9327901011
 20
8.9400924303
 10
18.9823050271
 20
8.9092736729
 10
19.0312180068
 20
8.8749965074
 10
19.0797185853
 20
8.8370971624
 10
19.1276172174
 20
8.7957394093
 10
19.1743452682
 20
8.7514145623
 10
19.2197131927
 20
8.7042863928
 10
19.2639105358
 20
8.6541911294
 10
19.3069372975
 20
8.6011287722
  0
LWPOLYLINE
  5
5AC
100
AcDbEntity
  8
IMPORT_IGES
100
AcDbPolyline
 62
7
  6
CONTINUOUS
 90
16
 70
0
 10
18.8826732288
 20
9.4004654815
 10
18.9280130961
 20
9.3746176955
 10
18.9718540314
 20
9.3441636564
 10
19.0141960349
 20
9.3091033642
 10
19.0554458015
 20
9.2689590896
 10
19.0951966362
 20
9.2242085618
 10
19.1322284535
 20
9.1762849691
 10
19.1664619771
 20
9.1251010631
 10
19.1979764832
 20
9.0707440921
 10
19.2257897149
 20
9.0149089894
 10
19.2497979763
 20
8.9575507056
 10
19.2701049633
 20
8.89871429
 10
19.2860395059
 20
8.840229824
 10
19.2973778808
 20
8.7827073347
 10
19.3043438114
 20
8.725536795
 10
19.3069372975
 20
8.6687182048
  0
LWPOLYLINE
  5
5AD
100
AcDbEntity
  8
IMPORT_IGES
100
AcDbPolyline
 62
7
  6
CONTINUOUS
 90
10
 70
0
 10
17.4541476675
 20
0.2060046851
 10
17.4607284322
 20
0.1821845622
 10
17.4674886379
 20
0.1589224668
 10
17.4744311246
 20
0.1362374676
 10
17.481550526
 20
0.1141587242
 10
17.4888564503
 20
0.0926951614
 10
17.4963752039
 20
0.0718372429
 10
17.5041180297
 20
0.0515966234
 10
17.5120793577
 20
0.0320043423
 10
17.5202611967
 20
0.0130817468
  0
LWPOLYLINE
  5
5AE
100
AcDbEntity
  8
IMPORT_IGES
100
AcDbPolyline
 62
253
  6
CONTINUOUS
 90
7
 70
0
 10
15.436718697
 20
14.3802252146
 10
15.4401757119
 20
14.3567232982
 10
15.4409482363
 20
14.3327648773
 10
15.4390991511
 20
14.3083238556
 10
15.4346146842
 20
14.2836436459
 10
15.4275617565
 20
14.259269774
 10
15.418046294
 20
14.2355998126
  0
LWPOLYLINE
  5
5AF
100
AcDbEntity
  8
IMPORT_IGES
100
AcDbPolyline
 62
253
  6
CONTINUOUS
 90
8
 70
0
 10
17.282768098
 20
12.5419258999
 10
17.2834276759
 20
12.5335289461
 10
17.2816297689
 20
12.5112175435
 10
17.2746506786
 20
12.4885488602
 10
17.2625192398
 20
12.4660430283
 10
17.2453986197
 20
12.4441454665
 10
17.2234944871
 20
12.4232212813
 10
17.1971252347
 20
12.4036701868
  0
LWPOLYLINE
  5
5B0
100
AcDbEntity
  8
IMPORT_IGES
100
AcDbPolyline
 62
253
  6
CONTINUOUS
 90
8
 70
0
 10
17.5999558822
 20
9.9719321724
 10
17.600605867
 20
9.9635802686
 10
17.5988079318
 20
9.9413223684
 10
17.5918521427
 20
9.9187046421
 10
17.5797509998
 20
9.8962237938
 10
17.5626446942
 20
9.8743187602
 10
17.5407265398
 20
9.8533648244
 10
17.5143018642
 20
9.833767259
  0
LWPOLYLINE
  5
5B1
100
AcDbEntity
  8
IMPORT_IGES
100
AcDbPolyline
 62
253
  6
CONTINUOUS
 90
16
 70
0
 10
18.953383907
 20
7.6259161058
 10
18.9510255406
 20
7.681806965
 10
18.944075105
 20
7.7388210951
 10
18.9327534252
 20
7.7962934948
 10
18.9174302295
 20
7.8532313311
 10
18.898340767
 20
7.9093944272
 10
18.8753373712
 20
7.965272738
 10
18.8484068484
 20
8.0205796016
 10
18.8178729187
 20
8.0743715969
 10
18.7839334662
 20
8.1260989324
 10
18.7468309138
 20
8.175177839
 10
18.7069454722
 20
8.2209054641
 10
18.6647568593
 20
8.262574933
 10
18.620742252
 20
8.2995908531
 10
18.5753570027
 20
8.3314498256
 10
18.5291182957
 20
8.3576641537
  0
LINE
  5
5B2
100
AcDbEntity
  8
IMPORT_IGES
100
AcDbLine
 62
253
  6
CONTINUOUS
 10
18.7926741849
 20
6.3874091699
 11
18.7899398556
 21
6.580440387
  0
LINE
  5
5B3
100
AcDbEntity
  8
IMPORT_IGES
100
AcDbLine
 62
7
  6
CONTINUOUS
 10
18.8805245459
 20
6.4945323675
 11
18.8778121988
 21
6.6862019688
  0
LINE
  5
5B4
100
AcDbEntity
  8
IMPORT_IGES
100
AcDbLine
 62
7
  6
CONTINUOUS
 10
18.2109217867
 20
9.1491365276
 11
18.2109217867
 21
9.2167259605
  0
LINE
  5
5B5
100
AcDbEntity
  8
IMPORT_IGES
100
AcDbLine
 62
7
  6
CONTINUOUS
 10
19.3069372975
 20
8.6687182048
 11
19.3069372975
 21
8.6011287722
  0
LINE
  5
5B6
100
AcDbEntity
  8
IMPORT_IGES
100
AcDbLine
 62
7
  6
CONTINUOUS
 10
18.8805243678
 20
6.4923915519
 11
18.880524574
 21
6.4945303722
  0
LINE
  5
5B7
100
AcDbEntity
  8
IMPORT_IGES
100
AcDbLine
 62
253
  6
CONTINUOUS
 10
18.7926737071
 20
6.3874089309
 11
18.7129787799
 21
0.8354150739
  0
LINE
  5
5B8
100
AcDbEntity
  8
IMPORT_IGES
100
AcDbLine
 62
7
  6
CONTINUOUS
 10
18.8805242816
 20
6.4923855484
 11
18.8008644601
 21
0.942837345
  0
LWPOLYLINE
  5
5B9
100
AcDbEntity
  8
IMPORT_IGES
100
AcDbPolyline
 62
7
  6
CONTINUOUS
 90
22
 70
0
 10
19.3069372975
 20
8.6011287722
 10
19.3064250917
 20
8.570062445
 10
19.3045007212
 20
8.5374979666
 10
19.3011641862
 20
8.5034353372
 10
19.2964844095
 20
8.4678947962
 10
19.2903924682
 20
8.4308561041
 10
19.2826815935
 20
8.3922585419
 10
19.2733422196
 20
8.3520791424
 10
19.2623839122
 20
8.3103408729
 10
19.2496286
 20
8.2670519158
 10
19.2350517842
 20
8.2222102365
 10
19.2186779635
 20
8.1758178697
 10
19.2004025631
 20
8.1278891013
 10
19.180175063
 20
8.0784277176
 10
19.1580459832
 20
8.0274299323
 10
19.1340623085
 20
7.9748986735
 10
19.1081628052
 20
7.9208940992
 10
19.080408707
 20
7.8653560512
 10
19.0510306995
 20
7.8081069826
 10
19.0201056779
 20
7.749087711
 10
18.9875567471
 20
7.6883574187
 10
18.953383907
 20
7.6259161058
  0
LINE
  5
5BA
100
AcDbEntity
  8
IMPORT_IGES
100
AcDbLine
 62
7
  6
CONTINUOUS
 10
18.8008644175
 20
0.9428343796
 11
18.8008435887
 21
0.941823847
  0
LINE
  5
5BB
100
AcDbEntity
  8
IMPORT_IGES
100
AcDbLine
 62
253
  6
CONTINUOUS
 10
18.7129779251
 20
0.8353923837
 11
18.7126882611
 21
0.8255584174
  0
LINE
  5
5BC
100
AcDbEntity
  8
IMPORT_IGES
100
AcDbLine
 62
253
  6
CONTINUOUS
 10
18.7126882611
 20
0.8255584174
 11
18.7123494515
 21
0.8157554243
  0
LWPOLYLINE
  5
5BD
100
AcDbEntity
  8
IMPORT_IGES
100
AcDbPolyline
 62
253
  6
CONTINUOUS
 90
10
 70
0
 10
19.8372673834
 20
6.8554222787
 10
19.8345277516
 20
6.7806318796
 10
19.8264525636
 20
6.709944776
 10
19.8132840077
 20
6.6437767171
 10
19.7954143707
 20
6.5828251313
 10
19.7730797946
 20
6.5269853973
 10
19.7460843282
 20
6.4756234612
 10
19.7143720506
 20
6.4289709029
 10
19.6782216528
 20
6.3877307187
 10
19.6377221452
 20
6.3522256447
  0
LINE
  5
5BE
100
AcDbEntity
  8
IMPORT_IGES
100
AcDbLine
 62
7
  6
CONTINUOUS
 10
19.9222312245
 20
6.8847710923
 11
19.9251353491
 21
6.9614882959
  0
LINE
  5
5BF
100
AcDbEntity
  8
IMPORT_IGES
100
AcDbLine
 62
253
  6
CONTINUOUS
 10
18.7123494515
 20
0.8157554243
 11
18.7119615225
 21
0.8059826272
  0
LWPOLYLINE
  5
5C0
100
AcDbEntity
  8
IMPORT_IGES
100
AcDbPolyline
 62
253
  6
CONTINUOUS
 90
16
 70
0
 10
18.8826732289
 20
8.9674527795
 10
18.8807079332
 20
8.9208771801
 10
18.8749159316
 20
8.8733655241
 10
18.8654812431
 20
8.825471975
 10
18.852711972
 20
8.7780238881
 10
18.8368041574
 20
8.7312214094
 10
18.817634745
 20
8.6846562457
 10
18.7951927399
 20
8.63856728
 10
18.7697479066
 20
8.5937406912
 10
18.741465147
 20
8.5506346361
 10
18.710546531
 20
8.5097355632
 10
18.6773088455
 20
8.4716292004
 10
18.642151693
 20
8.4369046737
 10
18.6054726636
 20
8.4060581663
 10
18.5676512665
 20
8.379509156
 10
18.5291184853
 20
8.3576640589
  0
LWPOLYLINE
  5
5C1
100
AcDbEntity
  8
IMPORT_IGES
100
AcDbPolyline
 62
253
  6
CONTINUOUS
 90
3
 70
0
 10
18.7119615225
 20
0.8059826272
 10
18.7115243232
 20
0.7962359623
 10
18.7112872586
 20
0.7913728193
  0
LWPOLYLINE
  5
5C2
100
AcDbEntity
  8
IMPORT_IGES
100
AcDbPolyline
 62
7
  6
CONTINUOUS
 90
10
 70
0
 10
18.2109217867
 20
9.2167259605
 10
18.2135164923
 20
9.2709583776
 10
18.2204841242
 20
9.3211685223
 10
18.2318246824
 20
9.3673563947
 10
18.2477621987
 20
9.4099080767
 10
18.2680726413
 20
9.4484374864
 10
18.2920839148
 20
9.4817863779
 10
18.3198996215
 20
9.5098058569
 10
18.3514161593
 20
9.5326448178
 10
18.367029432
 20
9.5412874699
  0
LWPOLYLINE
  5
5C3
100
AcDbEntity
  8
IMPORT_IGES
100
AcDbPolyline
 62
253
  6
CONTINUOUS
 90
11
 70
0
 10
18.7112872586
 20
0.7913728193
 10
18.7000699061
 20
0.6614437036
 10
18.6793555241
 20
0.5356851599
 10
18.6488406075
 20
0.4153101272
 10
18.6080785499
 20
0.301036862
 10
18.5570612022
 20
0.1947705859
 10
18.4966821097
 20
0.0990998776
 10
18.4275431546
 20
0.0149703211
 10
18.3500417626
 20
-0.057141555
 10
18.2654698685
 20
-0.1162136783
 10
18.2180956444
 20
-0.1421462973
  0
LWPOLYLINE
  5
5C4
100
AcDbEntity
  8
IMPORT_IGES
100
AcDbPolyline
 62
253
  6
CONTINUOUS
 90
7
 70
0
 10
18.8778122399
 20
6.6861990578
 10
18.8758174997
 20
6.668235044
 10
18.8686519555
 20
6.6490770923
 10
18.8563043722
 20
6.6303678509
 10
18.8389194177
 20
6.612479846
 10
18.8166950354
 20
6.5957269181
 10
18.7899425502
 20
6.5804417421
  0
LWPOLYLINE
  5
5C5
100
AcDbEntity
  8
IMPORT_IGES
100
AcDbPolyline
 62
253
  6
CONTINUOUS
 90
7
 70
0
 10
19.9251353491
 20
9.039949265
 10
19.9231359616
 20
9.0226602876
 10
19.9159727389
 20
9.0031606368
 10
19.9036269265
 20
8.9841764191
 10
19.8862432293
 20
8.9660867663
 10
19.8640195995
 20
8.9492101956
 10
19.8372673834
 20
8.9338832479
  0
LINE
  5
5C6
100
AcDbEntity
  8
IMPORT_IGES
100
AcDbLine
 62
7
  6
CONTINUOUS
 10
19.9136514451
 20
6.8113218287
 11
19.9222312245
 21
6.8847710923
  0
LWPOLYLINE
  5
5C7
100
AcDbEntity
  8
IMPORT_IGES
100
AcDbPolyline
 62
7
  6
CONTINUOUS
 90
7
 70
0
 10
18.8008435887
 20
0.941823847
 10
18.7983144519
 20
0.9237421681
 10
18.7907017215
 20
0.9039567477
 10
18.7781370862
 20
0.8849129225
 10
18.7607970139
 20
0.8669306899
 10
18.7389599322
 20
0.8503288487
 10
18.7129784375
 20
0.8353989762
  0
LINE
  5
5C8
100
AcDbEntity
  8
IMPORT_IGES
100
AcDbLine
 62
7
  6
CONTINUOUS
 10
18.9690189955
 20
5.6351102019
 11
18.9995317434
 21
5.8445958776
  0
LWPOLYLINE
  5
5C9
100
AcDbEntity
  8
IMPORT_IGES
100
AcDbPolyline
 62
253
  6
CONTINUOUS
 90
3
 70
0
 10
19.9220476772
 20
6.9400228036
 10
19.925100512
 20
6.9592024145
 10
19.9251353399
 20
6.9614511156
  0
LINE
  5
5CA
100
AcDbEntity
  8
RACCORDO
100
AcDbLine
 62
7
  6
CONTINUOUS
 10
7.493128072
 20
-17.2498531565
 11
2.9374153131
 21
-19.5590851535
  0
LINE
  5
5CB
100
AcDbEntity
  8
RACCORDO
100
AcDbLine
 62
7
  6
CONTINUOUS
 10
6.6115926134
 20
-18.3066121575
 11
2.9374153131
 21
-20.1508446969
  0
LINE
  5
5CC
100
AcDbEntity
  8
RACCORDO
100
AcDbLine
 62
7
  6
CONTINUOUS
 10
7.493128072
 20
-17.7471831135
 11
2.9374153131
 21
-20.0068502271
  0
LINE
  5
5CD
100
AcDbEntity
  8
DRAFT
100
AcDbLine
 62
7
  6
CONTINUOUS
 10
7.2449837483
 20
-16.7821108562
 11
2.9374153131
 21
-18.91479291
  0
LINE
  5
5CE
100
AcDbEntity
  8
RACCORDO
100
AcDbLine
 62
7
  6
CONTINUOUS
 10
-18.7072839061
 20
13.652452921
 11
-18.6977831381
 21
13.6549962206
  0
LWPOLYLINE
  5
5CF
100
AcDbEntity
  8
RACCORDO
100
AcDbPolyline
 62
7
  6
CONTINUOUS
 90
18
 70
0
 10
-3.1825629299
 20
18.8774132707
 10
-3.1998575978
 20
18.875920935
 10
-3.217051996
 20
18.8739273571
 10
-3.2341103338
 20
18.8715201742
 10
-3.2510011673
 20
18.8688092206
 10
-3.26770543
 20
18.8658522081
 10
-3.28421225
 20
18.86264136
 10
-3.3005056569
 20
18.8592311321
 10
-3.3165754498
 20
18.8556866024
 10
-3.3324186036
 20
18.8519926464
 10
-3.3480274153
 20
18.8481893641
 10
-3.363396498
 20
18.8443257759
 10
-3.378523226
 20
18.8403855022
 10
-3.3934042436
 20
18.8363994549
 10
-3.4080367696
 20
18.8324053689
 10
-3.4224153945
 20
18.8283882395
 10
-3.4365389475
 20
18.8243730789
 10
-3.4640086931
 20
18.8164254667
  0
LWPOLYLINE
  5
5D0
100
AcDbEntity
  8
IMPORT_IGES
100
AcDbPolyline
 62
7
  6
CONTINUOUS
 90
4
 70
0
 10
6.925423812
 20
18.3895337765
 10
6.9905070326
 20
18.3890212676
 10
7.080634061
 20
18.37870311
 10
7.1671884206
 20
18.3588553949
  0
LINE
  5
5D1
100
AcDbEntity
  8
RACCORDO
100
AcDbLine
 62
7
  6
CONTINUOUS
 10
-13.3156873075
 20
22.6916560641
 11
-12.6900806138
 21
22.5610346677
  0
LINE
  5
5D2
100
AcDbEntity
  8
RACCORDO
100
AcDbLine
 62
253
  6
CONTINUOUS
 10
-13.088843814
 20
22.8474772249
 11
-12.3776232059
 21
22.698973702
  0
LWPOLYLINE
  5
5D3
100
AcDbEntity
  8
RACCORDO
100
AcDbPolyline
 62
7
  6
CONTINUOUS
 90
10
 70
0
 10
-13.3156873075
 20
22.6916560641
 10
-13.3232289048
 20
22.6933528447
 10
-13.3307321598
 20
22.6952868358
 10
-13.3381863862
 20
22.6974568945
 10
-13.3455970982
 20
22.6998667731
 10
-13.352936033
 20
22.7025090688
 10
-13.3601453757
 20
22.7053609939
 10
-13.3672029736
 20
22.7084081486
 10
-13.3741181236
 20
22.711648708
 10
-13.3764030944
 20
22.712776808
  0
LWPOLYLINE
  5
5D4
100
AcDbEntity
  8
IMPORT_IGES
100
AcDbPolyline
 62
7
  6
CONTINUOUS
 90
4
 70
0
 10
7.1532006355
 20
18.3649921551
 10
7.059149452
 20
18.3876859331
 10
6.9607311459
 20
18.4005565413
 10
6.9414539394
 20
18.4010570836
  0
LINE
  5
5D5
100
AcDbEntity
  8
IMPORT_IGES
100
AcDbLine
 62
7
  6
CONTINUOUS
 10
7.1671884206
 20
18.3588553949
 11
7.2497214914
 21
18.3295809959
  0
LWPOLYLINE
  5
5D6
100
AcDbEntity
  8
IMPORT_IGES
100
AcDbPolyline
 62
7
  6
CONTINUOUS
 90
10
 70
0
 10
12.5923441695
 20
15.6582696577
 10
12.5085448154
 20
15.6881765737
 10
12.4208660102
 20
15.708585069
 10
12.3297564181
 20
15.7193922488
 10
12.235682309
 20
15.7205454141
 10
12.1391263048
 20
15.7120397586
 10
12.0405845481
 20
15.6939169353
 10
11.9405629155
 20
15.6662689402
 10
11.8395747648
 20
15.6292390856
 10
11.7381391994
 20
15.5830176911
  0
LWPOLYLINE
  5
5D7
100
AcDbEntity
  8
IMPORT_IGES
100
AcDbPolyline
 62
253
  6
CONTINUOUS
 90
5
 70
0
 10
11.9884573236
 20
14.5349408417
 10
11.9800057961
 20
14.5379754895
 10
11.9687147254
 20
14.5390072655
 10
11.9564996744
 20
14.537060923
 10
11.9437333431
 20
14.532100534
  0
LINE
  5
5D8
100
AcDbEntity
  8
IMPORT_IGES
100
AcDbLine
 62
7
  6
CONTINUOUS
 10
7.2424067778
 20
18.3329266655
 11
7.1532006355
 21
18.3649921551
  0
LINE
  5
5D9
100
AcDbEntity
  8
IMPORT_IGES
100
AcDbLine
 62
7
  6
CONTINUOUS
 10
14.7937573129
 20
13.8523636707
 11
14.7800556517
 21
13.8577205244
  0
LWPOLYLINE
  5
5DA
100
AcDbEntity
  8
IMPORT_IGES
100
AcDbPolyline
 62
253
  6
CONTINUOUS
 90
3
 70
0
 10
16.3253562743
 20
13.2057160298
 10
16.3038265977
 20
13.214169689
 10
16.2771817499
 20
13.2249851923
  0
LINE
  5
5DB
100
AcDbEntity
  8
IMPORT_IGES
100
AcDbLine
 62
253
  6
CONTINUOUS
 10
16.2771817499
 20
13.2249851923
 11
16.2454217309
 21
13.2381625397
  0
LINE
  5
5DC
100
AcDbEntity
  8
IMPORT_IGES
100
AcDbLine
 62
253
  6
CONTINUOUS
 10
9.9621447642
 20
17.184654529
 11
9.9694571662
 21
17.1812882279
  0
LINE
  5
5DD
100
AcDbEntity
  8
IMPORT_IGES
100
AcDbLine
 62
7
  6
CONTINUOUS
 10
7.2424045746
 20
18.3329491663
 11
9.9621447642
 21
17.184654529
  0
LINE
  5
5DE
100
AcDbEntity
  8
IMPORT_IGES
100
AcDbLine
 62
7
  6
CONTINUOUS
 10
14.7936019551
 20
13.8524273332
 11
15.4802523069
 21
13.5620352937
  0
LINE
  5
5DF
100
AcDbEntity
  8
IMPORT_IGES
100
AcDbLine
 62
7
  6
CONTINUOUS
 10
15.4802523069
 20
13.5620352937
 11
16.24552425
 21
13.2384054328
  0
LINE
  5
5E0
100
AcDbEntity
  8
IMPORT_IGES
100
AcDbLine
 62
253
  6
CONTINUOUS
 10
14.1925872752
 20
14.2861498573
 11
14.3459471799
 21
14.2212110183
  0
LINE
  5
5E1
100
AcDbEntity
  8
IMPORT_IGES
100
AcDbLine
 62
253
  6
CONTINUOUS
 10
14.3038950268
 20
14.4082527207
 11
14.1502218817
 21
14.4733383514
  0
LINE
  5
5E2
100
AcDbEntity
  8
IMPORT_IGES
100
AcDbLine
 62
253
  6
CONTINUOUS
 10
12.6486458415
 20
15.408761482
 11
15.4180601288
 21
14.2356297954
  0
LINE
  5
5E3
100
AcDbEntity
  8
IMPORT_IGES
100
AcDbLine
 62
253
  6
CONTINUOUS
 10
15.3617577783
 20
14.485138257
 11
12.5923441877
 21
15.6582696486
  0
LINE
  5
5E4
100
AcDbEntity
  8
IMPORT_IGES
100
AcDbLine
 62
253
  6
CONTINUOUS
 10
17.0558446457
 20
12.8662621519
 11
15.4322578828
 21
13.5544978873
  0
LINE
  5
5E5
100
AcDbEntity
  8
IMPORT_IGES
100
AcDbLine
 62
253
  6
CONTINUOUS
 10
15.5163931048
 20
13.1818084634
 11
17.1402791594
 21
12.4934223963
  0
LWPOLYLINE
  5
5E6
100
AcDbEntity
  8
IMPORT_IGES
100
AcDbPolyline
 62
253
  6
CONTINUOUS
 90
19
 70
0
 10
11.5194720214
 20
14.2333644806
 10
11.5530934449
 20
14.2185798157
 10
11.5910427619
 20
14.2058207523
 10
11.6328800808
 20
14.1954602416
 10
11.6784672767
 20
14.1877961817
 10
11.7266772122
 20
14.1832732938
 10
11.775279631
 20
14.1821598866
 10
11.8229148348
 20
14.1843614421
 10
11.8691233182
 20
14.1897319183
 10
11.9129996244
 20
14.1980728096
 10
11.9538277292
 20
14.2091410777
 10
11.9909807411
 20
14.2226542833
 10
12.0238592783
 20
14.238259956
 10
12.0519805443
 20
14.2555449905
 10
12.0751923462
 20
14.2742074899
 10
12.0934577505
 20
14.2940669684
 10
12.1065444832
 20
14.3147399892
 10
12.1143889392
 20
14.3359459761
 10
12.1169579877
 20
14.3571104071
  0
LWPOLYLINE
  5
5E7
100
AcDbEntity
  8
RACCORDO
100
AcDbPolyline
 62
253
  6
CONTINUOUS
 90
14
 70
0
 10
-11.0252945955
 20
24.5650914125
 10
-11.0326926762
 20
24.5683993063
 10
-11.0402728936
 20
24.5710389598
 10
-11.04811654
 20
24.5730540717
 10
-11.0562022755
 20
24.5744391597
 10
-11.0645081016
 20
24.5751904554
 10
-11.0730114207
 20
24.5753059147
 10
-11.0816890983
 20
24.5747852236
 10
-11.0905175251
 20
24.5736297986
 10
-11.099472682
 20
24.5718427833
 10
-11.1085302049
 20
24.5694290395
 10
-11.1176654514
 20
24.5663951343
 10
-11.1268535674
 20
24.5627493219
 10
-11.1360695551
 20
24.5585015213
  0
LWPOLYLINE
  5
5E8
100
AcDbEntity
  8
RACCORDO
100
AcDbPolyline
 62
253
  6
CONTINUOUS
 90
14
 70
0
 10
-12.3626207561
 20
25.2337544927
 10
-12.3700188368
 20
25.2370623866
 10
-12.3775990541
 20
25.2397020401
 10
-12.3854427005
 20
25.241717152
 10
-12.3935284361
 20
25.24310224
 10
-12.4018342621
 20
25.2438535357
 10
-12.4103375813
 20
25.243968995
 10
-12.4190152588
 20
25.2434483039
 10
-12.4278436857
 20
25.2422928789
 10
-12.4367988426
 20
25.2405058635
 10
-12.4458563655
 20
25.2380921198
 10
-12.4549916119
 20
25.2350582146
 10
-12.4641797279
 20
25.2314124022
 10
-12.4733957156
 20
25.2271646016
  0
LWPOLYLINE
  5
5E9
100
AcDbEntity
  8
IMPORT_IGES
100
AcDbPolyline
 62
253
  6
CONTINUOUS
 90
3
 70
0
 10
14.3459464666
 20
14.2212113199
 10
14.3547203613
 20
14.2172306738
 10
14.3569249971
 20
14.2161458592
  0
LINE
  5
5EA
100
AcDbEntity
  8
IMPORT_IGES
100
AcDbLine
 62
253
  6
CONTINUOUS
 10
11.7814367137
 20
15.287584995
 11
11.7863814929
 21
15.2853403343
  0
LINE
  5
5EB
100
AcDbEntity
  8
IMPORT_IGES
100
AcDbLine
 62
7
  6
CONTINUOUS
 10
17.066138369
 20
12.8615378524
 11
17.0558443182
 21
12.866262292
  0
LINE
  5
5EC
100
AcDbEntity
  8
IMPORT_IGES
100
AcDbLine
 62
7
  6
CONTINUOUS
 10
15.3617579467
 20
14.4851381727
 11
15.3827478873
 21
14.4754898115
  0
LINE
  5
5ED
100
AcDbEntity
  8
IMPORT_IGES
100
AcDbLine
 62
253
  6
CONTINUOUS
 10
7.2497454585
 20
18.3295690199
 11
7.2424302147
 21
18.3329383375
  0
LINE
  5
5EE
100
AcDbEntity
  8
IMPORT_IGES
100
AcDbLine
 62
253
  6
CONTINUOUS
 10
14.8010354268
 20
13.8490100578
 11
14.7937948382
 21
13.8523460171
  0
LINE
  5
5EF
100
AcDbEntity
  8
IMPORT_IGES
100
AcDbLine
 62
253
  6
CONTINUOUS
 10
16.2454217841
 20
13.2381625164
 11
16.2382181127
 21
13.2414828694
  0
LINE
  5
5F0
100
AcDbEntity
  8
IMPORT_IGES
100
AcDbLine
 62
253
  6
CONTINUOUS
 10
14.7169888182
 20
13.7787837348
 11
15.4103593982
 21
13.4552910535
  0
LWPOLYLINE
  5
5F1
100
AcDbEntity
  8
RACCORDO
100
AcDbPolyline
 62
7
  6
CONTINUOUS
 90
18
 70
0
 10
-12.3626207561
 20
25.2337544927
 10
-12.3748265683
 20
25.2394516803
 10
-12.387448847
 20
25.2445304883
 10
-12.4004490368
 20
25.248952389
 10
-12.4138036181
 20
25.2526866617
 10
-12.4274466059
 20
25.2556942481
 10
-12.4412708954
 20
25.257939667
 10
-12.4552020294
 20
25.2594076191
 10
-12.4692107181
 20
25.2600933289
 10
-12.4832602146
 20
25.2599914943
 10
-12.4972925269
 20
25.2590995728
 10
-12.511265073
 20
25.2574182887
 10
-12.5251709322
 20
25.2549430475
 10
-12.5390158382
 20
25.2516594215
 10
-12.5526980969
 20
25.2475780848
 10
-12.5660690266
 20
25.2427443792
 10
-12.5790917477
 20
25.2371822625
 10
-12.5839144661
 20
25.2348961581
  0
LINE
  5
5F2
100
AcDbEntity
  8
IMPORT_IGES
100
AcDbLine
 62
253
  6
CONTINUOUS
 10
15.4322578828
 20
13.5544978873
 11
14.8010354152
 21
13.8490100636
  0
LWPOLYLINE
  5
5F3
100
AcDbEntity
  8
IMPORT_IGES
100
AcDbPolyline
 62
253
  6
CONTINUOUS
 90
7
 70
0
 10
13.2357777764
 20
14.5606422534
 10
13.2339994907
 20
14.5615010438
 10
13.2186338195
 20
14.5667556851
 10
13.2018937078
 20
14.5687966509
 10
13.1840776829
 20
14.5675251221
 10
13.1654625855
 20
14.5629015186
 10
13.1463742094
 20
14.5549423342
  0
LINE
  5
5F4
100
AcDbEntity
  8
IMPORT_IGES
100
AcDbLine
 62
253
  6
CONTINUOUS
 10
14.2226297022
 20
14.2713367187
 11
14.1925872752
 21
14.2861498573
  0
LINE
  5
5F5
100
AcDbEntity
  8
IMPORT_IGES
100
AcDbLine
 62
253
  6
CONTINUOUS
 10
11.4487613014
 20
14.1114090895
 11
5.2710367653
 21
17.2002724847
  0
LINE
  5
5F6
100
AcDbEntity
  8
IMPORT_IGES
100
AcDbLine
 62
253
  6
CONTINUOUS
 10
11.5194706143
 20
14.2333667288
 11
5.4001016753
 21
17.2930511981
  0
LINE
  5
5F7
100
AcDbEntity
  8
IMPORT_IGES
100
AcDbLine
 62
253
  6
CONTINUOUS
 10
5.5291694348
 20
17.3858319598
 11
11.5901833924
 21
14.3553256582
  0
LINE
  5
5F8
100
AcDbEntity
  8
IMPORT_IGES
100
AcDbLine
 62
253
  6
CONTINUOUS
 10
11.943732583
 20
14.5321002535
 11
5.8192372757
 21
17.5943481325
  0
LINE
  5
5F9
100
AcDbEntity
  8
IMPORT_IGES
100
AcDbLine
 62
7
  6
CONTINUOUS
 10
11.9884560425
 20
14.5349414822
 11
5.8399146918
 21
17.6092121576
  0
LINE
  5
5FA
100
AcDbEntity
  8
IMPORT_IGES
100
AcDbLine
 62
253
  6
CONTINUOUS
 10
14.4532097464
 20
13.7912124453
 11
14.0103473617
 21
14.0126435478
  0
LINE
  5
5FB
100
AcDbEntity
  8
IMPORT_IGES
100
AcDbLine
 62
253
  6
CONTINUOUS
 10
11.6970287678
 20
15.2796152215
 11
13.1463769264
 21
14.5549437359
  0
LINE
  5
5FC
100
AcDbEntity
  8
IMPORT_IGES
100
AcDbLine
 62
7
  6
CONTINUOUS
 10
11.7863814929
 20
15.2853403343
 11
13.2358169285
 21
14.5606226917
  0
LINE
  5
5FD
100
AcDbEntity
  8
IMPORT_IGES
100
AcDbLine
 62
253
  6
CONTINUOUS
 10
14.2226297022
 20
14.2713367187
 11
16.2454210323
 21
13.2599668152
  0
LINE
  5
5FE
100
AcDbEntity
  8
IMPORT_IGES
100
AcDbLine
 62
253
  6
CONTINUOUS
 10
14.3459471799
 20
14.2212110183
 11
17.0558446457
 21
12.8662621519
  0
LINE
  5
5FF
100
AcDbEntity
  8
IMPORT_IGES
100
AcDbLine
 62
7
  6
CONTINUOUS
 10
17.0667381725
 20
12.8612392715
 11
14.3569292111
 21
14.2161437522
  0
LINE
  5
600
100
AcDbEntity
  8
IMPORT_IGES
100
AcDbLine
 62
253
  6
CONTINUOUS
 10
11.738154814
 20
15.5830263884
 11
6.5971300412
 21
18.1535387747
  0
LINE
  5
601
100
AcDbEntity
  8
IMPORT_IGES
100
AcDbLine
 62
253
  6
CONTINUOUS
 10
12.5923441877
 20
15.6582696486
 11
7.2497219743
 21
18.329580755
  0
LINE
  5
602
100
AcDbEntity
  8
IMPORT_IGES
100
AcDbLine
 62
7
  6
CONTINUOUS
 10
13.235950862
 20
14.5605555576
 11
13.2357777764
 21
14.5606422534
  0
LINE
  5
603
100
AcDbEntity
  8
IMPORT_IGES
100
AcDbLine
 62
7
  6
CONTINUOUS
 10
14.3569249971
 20
14.2161458592
 11
14.357230663
 21
14.2159926871
  0
LWPOLYLINE
  5
604
100
AcDbEntity
  8
IMPORT_IGES
100
AcDbPolyline
 62
253
  6
CONTINUOUS
 90
5
 70
0
 10
16.2454210323
 20
13.2599668152
 10
16.274077171
 20
13.2454354516
 10
16.2987368859
 20
13.2327136128
 10
16.3194001769
 20
13.2218012988
 10
16.3360744791
 20
13.2126911508
  0
LWPOLYLINE
  5
605
100
AcDbEntity
  8
IMPORT_IGES
100
AcDbPolyline
 62
7
  6
CONTINUOUS
 90
4
 70
0
 10
11.7864554028
 20
15.2853025584
 10
11.784090502
 20
15.2865062646
 10
11.7735225352
 20
15.2924959918
 10
11.7678507242
 20
15.2963051786
  0
LINE
  5
606
100
AcDbEntity
  8
IMPORT_IGES
100
AcDbLine
 62
7
  6
CONTINUOUS
 10
17.0661356275
 20
12.8615383332
 11
17.0844486123
 21
12.8517847608
  0
LINE
  5
607
100
AcDbEntity
  8
IMPORT_IGES
100
AcDbLine
 62
253
  6
CONTINUOUS
 10
13.158676191
 20
14.5483655517
 11
13.1463847622
 21
14.5549477535
  0
LINE
  5
608
100
AcDbEntity
  8
IMPORT_IGES
100
AcDbLine
 62
7
  6
CONTINUOUS
 10
13.2553821052
 20
14.5498531364
 11
13.2357381143
 21
14.5606491007
  0
LWPOLYLINE
  5
609
100
AcDbEntity
  8
IMPORT_IGES
100
AcDbPolyline
 62
253
  6
CONTINUOUS
 90
4
 70
0
 10
19.4130033147
 20
9.6656305244
 10
19.4576751016
 20
9.640406248
 10
19.5013893376
 20
9.610036661
 10
19.5436932059
 20
9.5750186232
  0
LINE
  5
60A
100
AcDbEntity
  8
IMPORT_IGES
100
AcDbLine
 62
253
  6
CONTINUOUS
 10
12.1208215622
 20
14.4093275024
 11
12.1044207015
 21
14.4186513547
  0
LINE
  5
60B
100
AcDbEntity
  8
IMPORT_IGES
100
AcDbLine
 62
7
  6
CONTINUOUS
 10
12.0188350847
 20
14.5176721576
 11
11.9884703787
 21
14.5349343137
  0
LWPOLYLINE
  5
60C
100
AcDbEntity
  8
IMPORT_IGES
100
AcDbPolyline
 62
7
  6
CONTINUOUS
 90
13
 70
0
 10
19.5471673934
 20
9.6741510606
 10
19.6014024247
 20
9.6431092224
 10
19.6523233443
 20
9.6062314156
 10
19.699813047
 20
9.5640323198
 10
19.744166534
 20
9.5164296813
 10
19.7848249028
 20
9.4640027076
 10
19.8206007061
 20
9.4085213606
 10
19.8512955219
 20
9.3508098403
 10
19.8770651374
 20
9.2908518541
 10
19.8975576641
 20
9.2294750428
 10
19.9125792809
 20
9.1671098663
 10
19.9219118898
 20
9.1038221062
 10
19.9251353491
 20
9.039949265
  0
LWPOLYLINE
  5
60D
100
AcDbEntity
  8
IMPORT_IGES
100
AcDbPolyline
 62
253
  6
CONTINUOUS
 90
9
 70
0
 10
16.3360744791
 20
13.2126911508
 10
16.3487523574
 20
13.2053905275
 10
16.3574115069
 20
13.1999215049
 10
16.3620286485
 20
13.1962877048
 10
16.3626270613
 20
13.1944855053
 10
16.3592542771
 20
13.194526117
 10
16.3523074646
 20
13.1962402658
 10
16.341389455
 20
13.1997972258
 10
16.3253562743
 20
13.2057160298
  0
LWPOLYLINE
  5
60E
100
AcDbEntity
  8
IMPORT_IGES
100
AcDbPolyline
 62
253
  6
CONTINUOUS
 90
19
 70
0
 10
14.010353178
 20
14.0126411371
 10
13.9971052371
 20
14.0203086901
 10
13.9825799307
 20
14.0296262667
 10
13.9668618512
 20
14.0405436789
 10
13.9496582137
 20
14.0535512709
 10
13.9314561113
 20
14.0680299579
 10
13.9136609489
 20
14.0824176205
 10
13.8973762982
 20
14.0961370495
 10
13.8819111613
 20
14.1100475612
 10
13.8660020846
 20
14.1247488199
 10
13.8492788207
 20
14.1404141877
 10
13.8323263855
 20
14.1567620512
 10
13.8152981027
 20
14.1735697258
 10
13.7982930957
 20
14.1908844889
 10
13.7815116168
 20
14.2086009668
 10
13.7652568653
 20
14.2262929428
 10
13.7497226016
 20
14.2438293246
 10
13.7350111739
 20
14.2613550643
 10
13.7212727171
 20
14.2788838576
  0
LWPOLYLINE
  5
60F
100
AcDbEntity
  8
IMPORT_IGES
100
AcDbPolyline
 62
253
  6
CONTINUOUS
 90
13
 70
0
 10
11.6970106719
 20
15.5624542985
 10
11.7151357168
 20
15.5519633646
 10
11.7328989037
 20
15.5388403287
 10
11.7500140853
 20
15.523327576
 10
11.7661313454
 20
15.5057964544
 10
11.7810918233
 20
15.4864765133
 10
11.7948688583
 20
15.4653627694
 10
11.8072561444
 20
15.4426121315
 10
11.817898361
 20
15.4186925838
 10
11.8265235481
 20
15.394060174
 10
11.8329211321
 20
15.3691608588
 10
11.8369288337
 20
15.3444171737
 10
11.8384133163
 20
15.3202897446
  0
LWPOLYLINE
  5
610
100
AcDbEntity
  8
IMPORT_IGES
100
AcDbPolyline
 62
253
  6
CONTINUOUS
 90
4
 70
0
 10
11.943732583
 20
14.5321002535
 10
11.9658190847
 20
14.5192541374
 10
11.9839522238
 20
14.5056524945
 10
11.9981320002
 20
14.4912953248
  0
LWPOLYLINE
  5
611
100
AcDbEntity
  8
IMPORT_IGES
100
AcDbPolyline
 62
253
  6
CONTINUOUS
 90
13
 70
0
 10
14.1925873326
 20
14.2861499916
 10
14.1795481546
 20
14.2940376991
 10
14.1678254182
 20
14.3040062678
 10
14.1575963693
 20
14.3158675632
 10
14.1490498104
 20
14.3293321431
 10
14.1422471747
 20
14.3442209303
 10
14.1372138156
 20
14.3605408019
 10
14.1340839458
 20
14.3781822945
 10
14.1330187184
 20
14.3967730885
 10
14.1340982438
 20
14.4159291493
 10
14.1373413483
 20
14.4352929808
 10
14.1427339276
 20
14.4545474801
 10
14.150221242
 20
14.4733387048
  0
LWPOLYLINE
  5
612
100
AcDbEntity
  8
IMPORT_IGES
100
AcDbPolyline
 62
253
  6
CONTINUOUS
 90
13
 70
0
 10
15.4319576262
 20
13.5546477767
 10
15.4576352221
 20
13.5390781367
 10
15.4809375755
 20
13.519260289
 10
15.5014439946
 20
13.4954592437
 10
15.5187848241
 20
13.4679876561
 10
15.5326003882
 20
13.437276187
 10
15.5425821494
 20
13.4038944569
 10
15.548535814
 20
13.3683931281
 10
15.5503339907
 20
13.3313649588
 10
15.5479314182
 20
13.2935371907
 10
15.5413837191
 20
13.255589994
 10
15.5308088335
 20
13.2181352866
 10
15.5163930528
 20
13.1818083497
  0
LWPOLYLINE
  5
613
100
AcDbEntity
  8
IMPORT_IGES
100
AcDbPolyline
 62
253
  6
CONTINUOUS
 90
4
 70
0
 10
14.34594727
 20
14.2212112074
 10
14.333061559
 20
14.2290580515
 10
14.3214402244
 20
14.2389677185
 10
14.3112666127
 20
14.250771885
  0
LWPOLYLINE
  5
614
100
AcDbEntity
  8
IMPORT_IGES
100
AcDbPolyline
 62
253
  6
CONTINUOUS
 90
16
 70
0
 10
11.7381383099
 20
15.5830181363
 10
11.7562049269
 20
15.5719141662
 10
11.7735964324
 20
15.5587485468
 10
11.7900832369
 20
15.5440392215
 10
11.8056885913
 20
15.5284989503
 10
11.8201476474
 20
15.5123657383
 10
11.832845944
 20
15.4953164901
 10
11.8438913617
 20
15.477520559
 10
11.8530923426
 20
15.4593660031
 10
11.8594133286
 20
15.4407593579
 10
11.8625283535
 20
15.4221274821
 10
11.8629560394
 20
15.4034411725
 10
11.860824073
 20
15.3838719785
 10
11.8560676961
 20
15.3632342258
 10
11.8486108325
 20
15.3419916626
 10
11.8384133163
 20
15.3202897446
  0
LINE
  5
615
100
AcDbEntity
  8
IMPORT_IGES
100
AcDbLine
 62
7
  6
CONTINUOUS
 10
13.2841180023
 20
14.530185338
 11
13.2553821052
 21
14.5498531364
  0
LWPOLYLINE
  5
616
100
AcDbEntity
  8
IMPORT_IGES
100
AcDbPolyline
 62
253
  6
CONTINUOUS
 90
4
 70
0
 10
13.195319211
 20
14.5234735111
 10
13.1831746637
 20
14.5326157862
 10
13.1709534415
 20
14.540915045
 10
13.158676191
 20
14.5483655517
  0
LWPOLYLINE
  5
617
100
AcDbEntity
  8
IMPORT_IGES
100
AcDbPolyline
 62
253
  6
CONTINUOUS
 90
8
 70
0
 10
13.8875282652
 20
13.8195460326
 10
13.8839270359
 20
13.822692857
 10
13.8764614565
 20
13.8255915885
 10
13.8666607602
 20
13.8262588259
 10
13.8543276779
 20
13.8246198029
 10
13.8394909103
 20
13.8205165508
 10
13.8226701961
 20
13.8140128924
 10
13.8043760704
 20
13.8053190262
  0
LINE
  5
618
100
AcDbEntity
  8
IMPORT_IGES
100
AcDbLine
 62
253
  6
CONTINUOUS
 10
13.8804723961
 20
13.7311687126
 11
13.8423551996
 21
13.7663139704
  0
LWPOLYLINE
  5
619
100
AcDbEntity
  8
IMPORT_IGES
100
AcDbPolyline
 62
7
  6
CONTINUOUS
 90
3
 70
0
 10
12.0677177556
 20
14.4770063709
 10
12.045263034
 20
14.4983163846
 10
12.0188350847
 20
14.5176721576
  0
LINE
  5
61A
100
AcDbEntity
  8
IMPORT_IGES
100
AcDbLine
 62
253
  6
CONTINUOUS
 10
13.8423551996
 20
13.7663139704
 11
13.8043767986
 21
13.8053202153
  0
LWPOLYLINE
  5
61B
100
AcDbEntity
  8
IMPORT_IGES
100
AcDbPolyline
 62
7
  6
CONTINUOUS
 90
3
 70
0
 10
13.3355542441
 20
14.4803433194
 10
13.3103865816
 20
14.5074669779
 10
13.2841180023
 20
14.530185338
  0
LWPOLYLINE
  5
61C
100
AcDbEntity
  8
IMPORT_IGES
100
AcDbPolyline
 62
253
  6
CONTINUOUS
 90
6
 70
0
 10
13.2524507409
 20
14.4671072442
 10
13.241669284
 20
14.4796213725
 10
13.2305343611
 20
14.4915570391
 10
13.2190804849
 20
14.5028681212
 10
13.2073226961
 20
14.513528296
 10
13.195319211
 20
14.5234735111
  0
LINE
  5
61D
100
AcDbEntity
  8
IMPORT_IGES
100
AcDbLine
 62
253
  6
CONTINUOUS
 10
13.8043767986
 20
13.8053202153
 11
13.6810042043
 21
13.952019389
  0
LINE
  5
61E
100
AcDbEntity
  8
IMPORT_IGES
100
AcDbLine
 62
7
  6
CONTINUOUS
 10
13.8875282652
 20
13.8195460326
 11
13.6450290916
 21
14.1091415679
  0
LINE
  5
61F
100
AcDbEntity
  8
IMPORT_IGES
100
AcDbLine
 62
7
  6
CONTINUOUS
 10
13.6450290916
 20
14.1091415679
 11
13.4294891164
 21
14.3674834741
  0
LINE
  5
620
100
AcDbEntity
  8
IMPORT_IGES
100
AcDbLine
 62
253
  6
CONTINUOUS
 10
13.4364894523
 20
14.2465391696
 11
13.2524632203
 21
14.4671200255
  0
LINE
  5
621
100
AcDbEntity
  8
IMPORT_IGES
100
AcDbLine
 62
7
  6
CONTINUOUS
 10
13.4294891164
 20
14.3674834741
 11
13.335545549
 21
14.4803612859
  0
LWPOLYLINE
  5
622
100
AcDbEntity
  8
IMPORT_IGES
100
AcDbPolyline
 62
253
  6
CONTINUOUS
 90
3
 70
0
 10
13.6810042043
 20
13.952019389
 10
13.5584710815
 20
14.0991401602
 10
13.4364894523
 20
14.2465391696
  0
LWPOLYLINE
  5
623
100
AcDbEntity
  8
IMPORT_IGES
100
AcDbPolyline
 62
253
  6
CONTINUOUS
 90
4
 70
0
 10
11.9981320002
 20
14.4912953248
 10
12.0084300273
 20
14.4759233188
 10
12.0147746917
 20
14.459795786
 10
12.016951153
 20
14.4436906549
  0
LWPOLYLINE
  5
624
100
AcDbEntity
  8
IMPORT_IGES
100
AcDbPolyline
 62
253
  6
CONTINUOUS
 90
10
 70
0
 10
14.3112666127
 20
14.250771885
 10
14.3027326749
 20
14.2642114248
 10
14.2959218146
 20
14.2791118437
 10
14.2908834808
 20
14.2954459214
 10
14.2877535582
 20
14.3130878936
 10
14.2866883895
 20
14.3316792654
 10
14.2877681159
 20
14.3508360403
 10
14.2910116073
 20
14.3702007108
 10
14.2964047922
 20
14.3894561069
 10
14.3038929533
 20
14.408248226
  0
LWPOLYLINE
  5
625
100
AcDbEntity
  8
IMPORT_IGES
100
AcDbPolyline
 62
7
  6
CONTINUOUS
 90
5
 70
0
 10
14.3796110824
 20
14.2048028165
 10
14.3748258862
 20
14.2130882575
 10
14.3692058844
 20
14.2277746439
 10
14.3657169248
 20
14.2436147224
 10
14.3644237565
 20
14.2603331718
  0
LWPOLYLINE
  5
626
100
AcDbEntity
  8
IMPORT_IGES
100
AcDbPolyline
 62
253
  6
CONTINUOUS
 90
5
 70
0
 10
18.9282030885
 20
5.9899629237
 10
18.9355389484
 20
5.9532160731
 10
18.9428130439
 20
5.8912962069
 10
18.9446493189
 20
5.8314611978
 10
18.941024131
 20
5.7744814229
  0
LWPOLYLINE
  5
627
100
AcDbEntity
  8
IMPORT_IGES
100
AcDbPolyline
 62
7
  6
CONTINUOUS
 90
10
 70
0
 10
17.1971244429
 20
12.4036696658
 10
17.1945722331
 20
12.4178930321
 10
17.1910428565
 20
12.4311086447
 10
17.1865363132
 20
12.4433165037
 10
17.1810043583
 20
12.4545898845
 10
17.1744952368
 20
12.4648555116
 10
17.1671536827
 20
12.473893559
 10
17.1590279408
 20
12.4816307512
 10
17.1500697664
 20
12.4881403637
 10
17.1402791594
 20
12.4934223963
  0
LINE
  5
628
100
AcDbEntity
  8
IMPORT_IGES
100
AcDbLine
 62
253
  6
CONTINUOUS
 10
17.1971244429
 20
12.4036696658
 11
17.514302656
 21
9.83376778
  0
LINE
  5
629
100
AcDbEntity
  8
IMPORT_IGES
100
AcDbLine
 62
7
  6
CONTINUOUS
 10
17.6009590071
 20
9.9639726334
 11
17.2827671647
 21
12.5419334643
  0
LINE
  5
62A
100
AcDbEntity
  8
IMPORT_IGES
100
AcDbLine
 62
253
  6
CONTINUOUS
 10
19.8372673834
 20
6.8554222787
 11
19.8372673834
 21
8.9338832479
  0
LINE
  5
62B
100
AcDbEntity
  8
IMPORT_IGES
100
AcDbLine
 62
7
  6
CONTINUOUS
 10
19.9251353491
 20
9.039949265
 11
19.9251353491
 21
6.9614882959
  0
LINE
  5
62C
100
AcDbEntity
  8
IMPORT_IGES
100
AcDbLine
 62
253
  6
CONTINUOUS
 10
19.9251353399
 20
6.9614511156
 11
19.9251353491
 21
6.9614882959
  0
LWPOLYLINE
  5
62D
100
AcDbEntity
  8
RACCORDO
100
AcDbPolyline
 62
253
  6
CONTINUOUS
 90
34
 70
0
 10
-3.9593380416
 20
-24.6361998927
 10
-3.9766323735
 20
-24.6450034517
 10
-3.994657835
 20
-24.6533891175
 10
-4.0133744943
 20
-24.6613383133
 10
-4.0327408881
 20
-24.6688334292
 10
-4.0527141139
 20
-24.6758578611
 10
-4.0732499246
 20
-24.6823960477
 10
-4.0943028271
 20
-24.6884335048
 10
-4.1158261826
 20
-24.6939568578
 10
-4.1377723103
 20
-24.6989538705
 10
-4.1600925926
 20
-24.7034134731
 10
-4.1827375831
 20
-24.7073257862
 10
-4.2056571161
 20
-24.7106821427
 10
-4.2288004178
 20
-24.7134751073
 10
-4.2521162184
 20
-24.7156984928
 10
-4.2755528663
 20
-24.7173473735
 10
-4.299058442
 20
-24.7184180968
 10
-4.3225808733
 20
-24.7189082906
 10
-4.3460680507
 20
-24.718816869
 10
-4.3694679427
 20
-24.7181440345
 10
-4.3927287114
 20
-24.7168912777
 10
-4.4157988269
 20
-24.7150613739
 10
-4.4386271817
 20
-24.7126583768
 10
-4.4611632039
 20
-24.7096876097
 10
-4.4833569691
 20
-24.706155654
 10
-4.5051593113
 20
-24.702070334
 10
-4.5265219316
 20
-24.6974406998
 10
-4.5473975049
 20
-24.6922770077
 10
-4.5677397855
 20
-24.6865906968
 10
-4.5875037089
 20
-24.680394364
 10
-4.6066454918
 20
-24.6737017362
 10
-4.6251227292
 20
-24.6665276396
 10
-4.6428944883
 20
-24.658887967
 10
-4.6599213991
 20
-24.6507996427
  0
LINE
  5
62E
100
AcDbEntity
  8
RACCORDO
100
AcDbLine
 62
253
  6
CONTINUOUS
 10
2.2195388902
 20
-22.8288089128
 11
2.9374153131
 21
-22.4746451455
  0
LINE
  5
62F
100
AcDbEntity
  8
RACCORDO
100
AcDbLine
 62
7
  6
CONTINUOUS
 10
2.084894471
 20
-23.1015838676
 11
2.8065406559
 21
-22.7455602912
  0
LINE
  5
630
100
AcDbEntity
  8
RACCORDO
100
AcDbLine
 62
7
  6
CONTINUOUS
 10
2.0848939493
 20
-23.1015841249
 11
2.0744801525
 21
-23.1063323285
  0
LINE
  5
631
100
AcDbEntity
  8
RACCORDO
100
AcDbLine
 62
253
  6
CONTINUOUS
 10
-3.2781503823
 20
-25.1365155608
 11
2.2195388902
 21
-22.8288089128
  0
LWPOLYLINE
  5
632
100
AcDbEntity
  8
ASSI
100
AcDbPolyline
 62
7
  6
CONTINUOUS
 90
16
 70
0
 10
-2.6560345529
 20
24.576207935
 10
-2.6577592628
 20
24.5769601223
 10
-2.6619421279
 20
24.5781495516
 10
-2.6668794565
 20
24.5788541399
 10
-2.672532211
 20
24.5790924156
 10
-2.6788642577
 20
24.5788716413
 10
-2.6858772791
 20
24.57822149
 10
-2.6935625253
 20
24.5771525065
 10
-2.7018774762
 20
24.5756785356
 10
-2.7107811846
 20
24.5738343681
 10
-2.7202437745
 20
24.5716211182
 10
-2.7302326574
 20
24.569054674
 10
-2.7406965164
 20
24.5661887472
 10
-2.7515939112
 20
24.5630437119
 10
-2.7628969803
 20
24.5596078862
 10
-2.7745720434
 20
24.5558843283
  0
LWPOLYLINE
  5
633
100
AcDbEntity
  8
ASSI
100
AcDbPolyline
 62
7
  6
CONTINUOUS
 90
16
 70
0
 10
2.8989500457
 20
21.7987156335
 10
2.8975128648
 20
21.7993549482
 10
2.89340446
 20
21.8005786694
 10
2.8885460909
 20
21.8013198111
 10
2.8829780252
 20
21.8015963075
 10
2.8767362121
 20
21.8014156134
 10
2.8698191823
 20
21.8008085012
 10
2.8622364456
 20
21.7997857762
 10
2.8540301964
 20
21.7983605359
 10
2.8452393318
 20
21.7965672671
 10
2.8358930595
 20
21.7944073979
 10
2.8260239012
 20
21.7918963148
 10
2.8156813318
 20
21.7890864342
 10
2.8049057081
 20
21.7859977637
 10
2.7937248211
 20
21.782619082
 10
2.7821718291
 20
21.7789535097
  0
LINE
  5
634
100
AcDbEntity
  8
IMPORT_IGES
100
AcDbLine
 62
7
  6
CONTINUOUS
 10
9.9901110619
 20
17.1718081697
 11
9.9621360143
 21
17.1846515179
  0
LWPOLYLINE
  5
635
100
AcDbEntity
  8
RACCORDO
100
AcDbPolyline
 62
7
  6
CONTINUOUS
 90
18
 70
0
 10
-0.2569613005
 20
24.0201772055
 10
-0.2765233849
 20
24.0292669385
 10
-0.2994191651
 20
24.0382523532
 10
-0.3229284513
 20
24.045754586
 10
-0.3470697734
 20
24.0517887558
 10
-0.3717595268
 20
24.0563345402
 10
-0.397020953
 20
24.0593885236
 10
-0.4228308105
 20
24.0609541216
 10
-0.4490357694
 20
24.0610212582
 10
-0.475619732
 20
24.0595824822
 10
-0.502598796
 20
24.0566452449
 10
-0.5298679246
 20
24.0522218236
 10
-0.5574421043
 20
24.046303438
 10
-0.5853063486
 20
24.0388988684
 10
-0.6133106616
 20
24.0300467338
 10
-0.6414050448
 20
24.0197599071
 10
-0.6696394968
 20
24.0080255154
 10
-0.6980140176
 20
23.9948435586
  0
LINE
  5
636
100
AcDbEntity
  8
IMPORT_IGES
100
AcDbLine
 62
253
  6
CONTINUOUS
 10
9.9694571662
 20
17.1812882279
 11
15.3617577783
 21
14.485138257
  0
LINE
  5
637
100
AcDbEntity
  8
IMPORT_IGES
100
AcDbLine
 62
7
  6
CONTINUOUS
 10
9.9901110619
 20
17.1718081697
 11
15.3836131797
 21
14.4750584737
  0
LINE
  5
638
100
AcDbEntity
  8
0
100
AcDbLine
 62
7
  6
CONTINUOUS
 10
1.453539878
 20
21.7294959212
 11
-1.357009769
 21
23.1347707447
  0
LINE
  5
639
100
AcDbEntity
  8
ASSI
100
AcDbLine
 62
253
  6
CONTINUOUS
 10
2.731829828
 20
21.7583168097
 11
2.1262993934
 21
22.061082027
  0
LINE
  5
63A
100
AcDbEntity
  8
ASSI
100
AcDbLine
 62
253
  6
CONTINUOUS
 10
-2.8234480749
 20
24.5359557612
 11
-3.4289785096
 21
24.8387209785
  0
LINE
  5
63B
100
AcDbEntity
  8
0
100
AcDbLine
 62
7
  6
CONTINUOUS
 10
3.1040612925
 20
21.6579493715
 11
2.905765893
 21
21.7570970712
  0
LINE
  5
63C
100
AcDbEntity
  8
0
100
AcDbLine
 62
7
  6
CONTINUOUS
 10
2.2387844941
 20
22.0905877707
 11
0.0029221712
 21
23.2085189321
  0
LINE
  5
63D
100
AcDbEntity
  8
ASSI
100
AcDbLine
 62
7
  6
CONTINUOUS
 10
2.898646956
 20
21.7988629875
 11
2.402258641
 21
22.047057145
  0
LINE
  5
63E
100
AcDbEntity
  8
ASSI
100
AcDbLine
 62
7
  6
CONTINUOUS
 10
-2.6563099121
 20
24.5763414215
 11
-3.1526979195
 21
24.8245354253
  0
LINE
  5
63F
100
AcDbEntity
  8
RACCORDO
100
AcDbLine
 62
253
  6
CONTINUOUS
 10
-3.7649799615
 20
25.5283265305
 11
-0.6980140176
 21
23.9948435586
  0
LINE
  5
640
100
AcDbEntity
  8
RACCORDO
100
AcDbLine
 62
253
  6
CONTINUOUS
 10
3.5446266695
 20
21.873523215
 11
6.6115926134
 21
20.3400402431
  0
LINE
  5
641
100
AcDbEntity
  8
RACCORDO
100
AcDbLine
 62
7
  6
CONTINUOUS
 10
3.9856696726
 20
21.8988726816
 11
7.2128483629
 21
20.2852833365
  0
LINE
  5
642
100
AcDbEntity
  8
IMPORT_IGES
100
AcDbLine
 62
7
  6
CONTINUOUS
 10
15.3827404706
 20
14.475492166
 11
15.4025189673
 21
14.4650978867
  0
LWPOLYLINE
  5
643
100
AcDbEntity
  8
IMPORT_IGES
100
AcDbPolyline
 62
253
  6
CONTINUOUS
 90
10
 70
0
 10
15.4180601288
 20
14.2356297954
 10
15.4625330886
 20
14.2121163744
 10
15.5024795475
 20
14.1822605558
 10
15.5378995056
 20
14.1460623393
 10
15.5690561235
 20
14.1030304604
 10
15.5956862405
 20
14.0536561838
 10
15.6170003743
 20
13.9994133034
 10
15.6327353643
 20
13.9407930839
 10
15.6431543711
 20
13.8773042608
 10
15.6482573947
 20
13.8089468339
  0
LWPOLYLINE
  5
644
100
AcDbEntity
  8
IMPORT_IGES
100
AcDbPolyline
 62
253
  6
CONTINUOUS
 90
4
 70
0
 10
15.361734556
 20
14.4851498755
 10
15.379523868
 20
14.4743030449
 10
15.3955547128
 20
14.4604533588
 10
15.409532144
 20
14.4438230233
  0
LINE
  5
645
100
AcDbEntity
  8
IMPORT_IGES
100
AcDbLine
 62
253
  6
CONTINUOUS
 10
17.0829884465
 20
12.849623242
 11
17.0558520431
 21
12.8662584243
  0
LINE
  5
646
100
AcDbEntity
  8
IMPORT_IGES
100
AcDbLine
 62
7
  6
CONTINUOUS
 10
15.4025189673
 20
14.4650978867
 11
15.4483297073
 21
14.4364346315
  0
LINE
  5
647
100
AcDbEntity
  8
IMPORT_IGES
100
AcDbLine
 62
7
  6
CONTINUOUS
 10
17.0844486123
 20
12.8517847608
 11
17.1217336524
 21
12.8275868014
  0
LINE
  5
648
100
AcDbEntity
  8
IMPORT_IGES
100
AcDbLine
 62
253
  6
CONTINUOUS
 10
15.0575972474
 20
13.865809734
 11
14.3905609104
 21
14.3474595547
  0
LWPOLYLINE
  5
649
100
AcDbEntity
  8
IMPORT_IGES
100
AcDbPolyline
 62
7
  6
CONTINUOUS
 90
11
 70
0
 10
15.4483297073
 20
14.4364346315
 10
15.4916263447
 20
14.4024642504
 10
15.5319078881
 20
14.3633437519
 10
15.5688229924
 20
14.3191780499
 10
15.6021495636
 20
14.2699047089
 10
15.6316632468
 20
14.2153262088
 10
15.6568045913
 20
14.1558585195
 10
15.6770433663
 20
14.0923893881
 10
15.692195848
 20
14.0254255205
 10
15.7022130342
 20
13.9549985248
 10
15.7069618931
 20
13.8814147011
  0
LWPOLYLINE
  5
64A
100
AcDbEntity
  8
IMPORT_IGES
100
AcDbPolyline
 62
7
  6
CONTINUOUS
 90
8
 70
0
 10
17.1217336524
 20
12.8275868014
 10
17.1564661436
 20
12.7987044118
 10
17.1879073281
 20
12.7655435164
 10
17.2156371723
 20
12.7283808561
 10
17.2394647831
 20
12.6871293773
 10
17.2589478996
 20
12.6419178917
 10
17.2735105701
 20
12.5933395994
 10
17.2827643763
 20
12.5419244083
  0
LWPOLYLINE
  5
64B
100
AcDbEntity
  8
IMPORT_IGES
100
AcDbPolyline
 62
253
  6
CONTINUOUS
 90
13
 70
0
 10
19.5436932059
 20
9.5750186232
 10
19.5839270071
 20
9.5361348034
 10
19.621990678
 20
9.4937233508
 10
19.6582239785
 20
9.4474335331
 10
19.6923874657
 20
9.3973689127
 10
19.7238430019
 20
9.3442450298
 10
19.7522224719
 20
9.288488297
 10
19.7771482002
 20
9.2305844596
 10
19.798201535
 20
9.1712084967
 10
19.8150011651
 20
9.1111385783
 10
19.8272557598
 20
9.051104779
 10
19.8347401881
 20
8.9917773531
 10
19.8372673834
 20
8.9338832478
  0
LWPOLYLINE
  5
64C
100
AcDbEntity
  8
IMPORT_IGES
100
AcDbPolyline
 62
253
  6
CONTINUOUS
 90
10
 70
0
 10
14.3905609104
 20
14.3474595547
 10
14.3822345562
 20
14.3559591172
 10
14.3735774792
 20
14.3640288912
 10
14.3645896794
 20
14.3716688768
 10
14.3552645892
 20
14.3788876117
 10
14.3456087762
 20
14.3856765581
 10
14.3356419432
 20
14.3920101035
 10
14.3253706577
 20
14.3978797103
 10
14.3147883522
 20
14.403293916
 10
14.3038950268
 20
14.4082527207
  0
LWPOLYLINE
  5
64D
100
AcDbEntity
  8
IMPORT_IGES
100
AcDbPolyline
 62
253
  6
CONTINUOUS
 90
10
 70
0
 10
14.3737663201
 20
13.6071724857
 10
14.356387103
 20
13.6262792211
 10
14.3381857558
 20
13.6427389835
 10
14.3195197141
 20
13.6563233254
 10
14.3008848196
 20
13.6667981957
 10
14.2824676158
 20
13.6741820592
 10
14.264155317
 20
13.678502152
 10
14.2461825294
 20
13.6795466815
 10
14.2290293073
 20
13.6771226448
 10
14.2136282774
 20
13.6714217085
  0
LWPOLYLINE
  5
64E
100
AcDbEntity
  8
IMPORT_IGES
100
AcDbPolyline
 62
253
  6
CONTINUOUS
 90
10
 70
0
 10
15.4103399448
 20
13.4553145341
 10
15.4303441704
 20
13.429264688
 10
15.4488047871
 20
13.4012647846
 10
15.4654684714
 20
13.3716562771
 10
15.4800956799
 20
13.3408200499
 10
15.4924826498
 20
13.3091343844
 10
15.5024551078
 20
13.2769680337
 10
15.5098502278
 20
13.244729547
 10
15.5145294663
 20
13.2128641013
 10
15.5163931066
 20
13.1818084675
  0
LWPOLYLINE
  5
64F
100
AcDbEntity
  8
IMPORT_IGES
100
AcDbPolyline
 62
253
  6
CONTINUOUS
 90
4
 70
0
 10
15.409532144
 20
14.4438230233
 10
15.4212577113
 20
14.4245623196
 10
15.4304113261
 20
14.4030934469
 10
15.436718697
 20
14.3802252146
  0
LWPOLYLINE
  5
650
100
AcDbEntity
  8
IMPORT_IGES
100
AcDbPolyline
 62
253
  6
CONTINUOUS
 90
4
 70
0
 10
17.145110434
 20
12.774926776
 10
17.1279365478
 20
12.8034696118
 10
17.1071381043
 20
12.8285345515
 10
17.0829884465
 20
12.849623242
  0
LINE
  5
651
100
AcDbEntity
  8
IMPORT_IGES
100
AcDbLine
 62
253
  6
CONTINUOUS
 10
17.6534449741
 20
9.3273402719
 11
18.675052995
 21
7.1354995539
  0
LINE
  5
652
100
AcDbEntity
  8
IMPORT_IGES
100
AcDbLine
 62
7
  6
CONTINUOUS
 10
18.7348677308
 20
7.363753569
 11
17.7132590429
 21
9.5555935757
  0
LWPOLYLINE
  5
653
100
AcDbEntity
  8
IMPORT_IGES
100
AcDbPolyline
 62
253
  6
CONTINUOUS
 90
10
 70
0
 10
17.6534449741
 20
9.3273402719
 10
17.6312210361
 20
9.3776350799
 10
17.6106755426
 20
9.4294702945
 10
17.5918084938
 20
9.4828459158
 10
17.5746032556
 20
9.5378241807
 10
17.559076462
 20
9.5943428523
 10
17.5452780151
 20
9.6522152192
 10
17.5332245487
 20
9.7113790442
 10
17.522899429
 20
9.7718965645
 10
17.514302656
 20
9.83376778
  0
LWPOLYLINE
  5
654
100
AcDbEntity
  8
IMPORT_IGES
100
AcDbPolyline
 62
7
  6
CONTINUOUS
 90
10
 70
0
 10
18.7348609973
 20
7.363756855
 10
18.7634439555
 20
7.2978201454
 10
18.7889661451
 20
7.2292028806
 10
18.811375129
 20
7.158010799
 10
18.8306492335
 20
7.0842340545
 10
18.846705596
 20
7.008083886
 10
18.8594484508
 20
6.9300294761
 10
18.8688673487
 20
6.8503317758
 10
18.874987436
 20
6.7690079819
 10
18.8778127826
 20
6.686198784
  0
LWPOLYLINE
  5
655
100
AcDbEntity
  8
IMPORT_IGES
100
AcDbPolyline
 62
7
  6
CONTINUOUS
 90
8
 70
0
 10
17.7132435763
 20
9.5556337813
 10
17.689571473
 20
9.610289655
 10
17.6696974119
 20
9.6634005457
 10
17.6517704551
 20
9.7190423445
 10
17.6358673166
 20
9.7770852748
 10
17.6220649336
 20
9.837351648
 10
17.6104167585
 20
9.8996932501
 10
17.6009590071
 20
9.9639726334
  0
LWPOLYLINE
  5
656
100
AcDbEntity
  8
IMPORT_IGES
100
AcDbPolyline
 62
253
  6
CONTINUOUS
 90
10
 70
0
 10
18.675052995
 20
7.1354995539
 10
18.6979654875
 20
7.0820990446
 10
18.7183623563
 20
7.0265284339
 10
18.7362436013
 20
6.968787722
 10
18.7516374861
 20
6.9087410175
 10
18.7645157471
 20
6.8465242117
 10
18.7747935936
 20
6.7825449784
 10
18.7824427621
 20
6.7169392088
 10
18.7874915161
 20
6.6495710117
 10
18.7899398556
 20
6.580440387
  0
LWPOLYLINE
  5
657
100
AcDbEntity
  8
IMPORT_IGES
100
AcDbPolyline
 62
253
  6
CONTINUOUS
 90
9
 70
0
 10
17.7132468186
 20
9.5556197958
 10
17.7221702722
 20
9.530929231
 10
17.7267446757
 20
9.5040827131
 10
17.726619624
 20
9.4754804603
 10
17.7215843871
 20
9.4457499021
 10
17.7116151814
 20
9.4155210188
 10
17.6968136009
 20
9.3853674614
 10
17.6773363959
 20
9.3557895196
 10
17.6534446405
 20
9.3273399164
  0
LWPOLYLINE
  5
658
100
AcDbEntity
  8
IMPORT_IGES
100
AcDbPolyline
 62
253
  6
CONTINUOUS
 90
9
 70
0
 10
18.7348653804
 20
7.3637586115
 10
18.743778666
 20
7.3390903308
 10
18.7483533736
 20
7.3122425843
 10
18.7482282072
 20
7.283639257
 10
18.7431925274
 20
7.2539077022
 10
18.7332228013
 20
7.2236784061
 10
18.718420991
 20
7.1935251908
 10
18.698944068
 20
7.1639481525
 10
18.6750533286
 20
7.1354999095
  0
LWPOLYLINE
  5
659
100
AcDbEntity
  8
IMPORT_IGES
100
AcDbPolyline
 62
7
  6
CONTINUOUS
 90
5
 70
0
 10
18.9936462842
 20
6.0226845215
 10
18.9952362779
 20
6.0145178333
 10
19.0016827491
 20
5.9572756311
 10
19.0031981185
 20
5.900495053
 10
18.9995317434
 20
5.8445958776
  0
LWPOLYLINE
  5
65A
100
AcDbEntity
  8
RACCORDO
100
AcDbPolyline
 62
7
  6
CONTINUOUS
 90
19
 70
0
 10
1.8157439311
 20
-24.8273420003
 10
1.8219696029
 20
-24.8235233905
 10
1.8279189408
 20
-24.8192116383
 10
1.833578465
 20
-24.8144165132
 10
1.8389353257
 20
-24.8091488924
 10
1.8439773957
 20
-24.8034207049
 10
1.8486932962
 20
-24.7972449085
 10
1.8530722936
 20
-24.790635519
 10
1.8571044538
 20
-24.7836075168
 10
1.8607807309
 20
-24.7761767829
 10
1.8640927259
 20
-24.7683601868
 10
1.8670329002
 20
-24.7601754542
 10
1.8695947247
 20
-24.7516410659
 10
1.871772306
 20
-24.7427764009
 10
1.8735606543
 20
-24.7336015693
 10
1.8749558898
 20
-24.7241372745
 10
1.8759548478
 20
-24.71440496
 10
1.8765550853
 20
-24.704426761
 10
1.8767551413
 20
-24.6942253312
  0
LWPOLYLINE
  5
65B
100
AcDbEntity
  8
RACCORDO
100
AcDbPolyline
 62
253
  6
CONTINUOUS
 90
18
 70
0
 10
2.3413398233
 20
-24.5577752365
 10
2.3469309312
 20
-24.5546616053
 10
2.353648568
 20
-24.5502160283
 10
2.3600196128
 20
-24.5451812324
 10
2.3660265614
 20
-24.5395710295
 10
2.3716529152
 20
-24.5334008178
 10
2.3768832383
 20
-24.5266875205
 10
2.3817031935
 20
-24.5194495356
 10
2.3860995601
 20
-24.5117067093
 10
2.3900602818
 20
-24.5034802687
 10
2.393574495
 20
-24.4947927699
 10
2.3966325585
 20
-24.485668041
 10
2.3992260874
 20
-24.4761310951
 10
2.4013479669
 20
-24.466208088
 10
2.4029923736
 20
-24.4559262583
 10
2.4041548005
 20
-24.4453138118
 10
2.404832065
 20
-24.4343998404
 10
2.405022313
 20
-24.4232142726
  0
LWPOLYLINE
  5
65C
100
AcDbEntity
  8
RACCORDO
100
AcDbPolyline
 62
253
  6
CONTINUOUS
 90
18
 70
0
 10
0.2092128152
 20
-25.6101105291
 10
0.2165807246
 20
-25.6061036894
 10
0.223292223
 20
-25.601656089
 10
0.2296648535
 20
-25.5966154641
 10
0.2356811777
 20
-25.5909956289
 10
0.2413247534
 20
-25.5848119465
 10
0.2465801686
 20
-25.5780812771
 10
0.2514329347
 20
-25.5708221479
 10
0.2558696153
 20
-25.5630546999
 10
0.2598780072
 20
-25.5548004347
 10
0.2634472462
 20
-25.5460818761
 10
0.2665676647
 20
-25.5369227011
 10
0.2692312384
 20
-25.5273458841
 10
0.2714299307
 20
-25.5173796429
 10
0.2731567757
 20
-25.5070578943
 10
0.27440772
 20
-25.4964118262
 10
0.2751806485
 20
-25.4854690285
 10
0.2754743505
 20
-25.4742599309
  0
LWPOLYLINE
  5
65D
100
AcDbEntity
  8
RACCORDO
100
AcDbPolyline
 62
7
  6
CONTINUOUS
 90
22
 70
0
 10
2.3413398233
 20
-24.5577752365
 10
2.3511465587
 20
-24.552464302
 10
2.362158183
 20
-24.5457976516
 10
2.3728218464
 20
-24.5385660283
 10
2.3831085443
 20
-24.5307868111
 10
2.3929972306
 20
-24.5224725202
 10
2.4024604227
 20
-24.513641539
 10
2.4114686837
 20
-24.5043164468
 10
2.4199980409
 20
-24.4945166778
 10
2.4280228655
 20
-24.4842653708
 10
2.4355173787
 20
-24.4735887845
 10
2.442458475
 20
-24.4625126751
 10
2.4488234916
 20
-24.4510653107
 10
2.4545912313
 20
-24.4392762375
 10
2.4597425307
 20
-24.4271749229
 10
2.4642596715
 20
-24.4147914656
 10
2.4681251118
 20
-24.4021608669
 10
2.4713229011
 20
-24.3893217914
 10
2.4738404888
 20
-24.3763101451
 10
2.4756674397
 20
-24.3631616723
 10
2.4767949656
 20
-24.3499163249
 10
2.47722017
 20
-24.3353413042
  0
LINE
  5
65E
100
AcDbEntity
  8
RACCORDO
100
AcDbLine
 62
7
  6
CONTINUOUS
 10
1.8126500422
 20
-24.829003102
 11
1.8157439311
 21
-24.8273420003
  0
LINE
  5
65F
100
AcDbEntity
  8
RACCORDO
100
AcDbLine
 62
253
  6
CONTINUOUS
 10
2.405022313
 20
-24.4232142726
 11
1.8767551413
 21
-24.6942253312
  0
LINE
  5
660
100
AcDbEntity
  8
RACCORDO
100
AcDbLine
 62
7
  6
CONTINUOUS
 10
2.3413342755
 20
-24.5577780828
 11
1.812652012
 21
-24.8290020914
  0
LINE
  5
661
100
AcDbEntity
  8
RACCORDO
100
AcDbLine
 62
7
  6
CONTINUOUS
 10
1.8109136248
 20
-24.829871325
 11
1.8126500422
 21
-24.829003102
  0
LINE
  5
662
100
AcDbEntity
  8
RACCORDO
100
AcDbLine
 62
253
  6
CONTINUOUS
 10
1.8767551413
 20
-24.6942253312
 11
0.2754743505
 21
-25.4742599309
  0
LINE
  5
663
100
AcDbEntity
  8
RACCORDO
100
AcDbLine
 62
7
  6
CONTINUOUS
 10
1.8109108609
 20
-24.8298726714
 11
0.2092127579
 21
-25.610110557
  0
LINE
  5
664
100
AcDbEntity
  8
RACCORDO
100
AcDbLine
 62
7
  6
CONTINUOUS
 10
-3.4319576277
 20
-25.4177112592
 11
2.0744899846
 21
-23.1063282158
  0
LINE
  5
665
100
AcDbEntity
  8
0
100
AcDbLine
 62
7
  6
CONTINUOUS
 10
0.0029221712
 20
23.2085189321
 11
-1.357009769
 21
23.1347707447
  0
LWPOLYLINE
  5
666
100
AcDbEntity
  8
ASSI
100
AcDbPolyline
 62
7
  6
CONTINUOUS
 90
16
 70
0
 10
-3.3780473183
 20
24.8590630834
 10
-3.3659024494
 20
24.8624248001
 10
-3.3531810246
 20
24.8650263356
 10
-3.3398892285
 20
24.86685113
 10
-3.3260275137
 20
24.8678966115
 10
-3.3116129068
 20
24.8681313349
 10
-3.2966812148
 20
24.867496592
 10
-3.2812499296
 20
24.8659699085
 10
-3.2653347758
 20
24.8635426606
 10
-3.2489748547
 20
24.8601796502
 10
-3.2322303437
 20
24.8558766034
 10
-3.2150886959
 20
24.8506118185
 10
-3.1974793785
 20
24.8443195863
 10
-3.1794169067
 20
24.836981668
 10
-3.1609373086
 20
24.828577793
 10
-3.1532670596
 20
24.824824112
  0
ELLIPSE
  5
667
100
AcDbEntity
  8
RACCORDO
100
AcDbEllipse
 62
7
  6
CONTINUOUS
 10
-15.6948483712
 20
20.5661227163
 30
0.0
 11
-0.1116009943
 21
0.2239381218
 31
0.0
 40
0.6122032814
 41
-0.6832419393
 42
0.031533549
  0
ELLIPSE
  5
668
100
AcDbEntity
  8
RACCORDO
100
AcDbEllipse
 62
7
  6
CONTINUOUS
 10
-2.6840835974
 20
14.0607403294
 30
0.0
 11
-0.1116009943
 21
0.2239381218
 31
0.0
 40
0.6122032814
 41
-1.759583684
 42
-0.6832419393
  0
ELLIPSE
  5
669
100
AcDbEntity
  8
IMPORT_IGES
100
AcDbEllipse
 62
7
  6
CONTINUOUS
 10
5.8612514794
 20
-8.2573840907
 30
0.0
 11
0.5384358886
 21
-0.0547002141
 31
0.0
 40
0.1703160628
 41
-0.3632055326
 42
-0.2624822218
  0
ELLIPSE
  5
66A
100
AcDbEntity
  8
IMPORT_IGES
100
AcDbEllipse
 62
7
  6
CONTINUOUS
 10
17.0388769765
 20
4.1505408597
 30
0.0
 11
0.2970260391
 21
-0.1836219405
 31
0.0
 40
0.0829501116
 41
0.0479465802
 42
0.8277528762
  0
ELLIPSE
  5
66B
100
AcDbEntity
  8
IMPORT_IGES
100
AcDbEllipse
 62
7
  6
CONTINUOUS
 10
5.7466445924
 20
-0.0101672447
 30
0.0
 11
0.3000228497
 21
-0.0000304656
 31
0.0
 40
0.4999999903
 41
-1.9909770138
 42
-0.785271233
  0
ELLIPSE
  5
66C
100
AcDbEntity
  8
IMPORT_IGES
100
AcDbEllipse
 62
7
  6
CONTINUOUS
 10
3.6237050962
 20
8.5879748103
 30
0.0
 11
0.4959991763
 21
0.8693232548
 31
0.0
 40
0.6500195766
 41
0.2582183516
 42
0.7203881215
  0
ELLIPSE
  5
66D
100
AcDbEntity
  8
IMPORT_IGES
100
AcDbEllipse
 62
7
  6
CONTINUOUS
 10
6.0521170947
 20
10.7165058432
 30
0.0
 11
0.2999899059
 21
-0.0050528313
 31
0.0
 40
0.4870476356
 41
-1.9904499309
 42
-0.7771948395
  0
ELLIPSE
  5
66E
100
AcDbEntity
  8
IMPORT_IGES
100
AcDbEllipse
 62
7
  6
CONTINUOUS
 10
3.0046940468
 20
12.2402173672
 30
0.0
 11
0.2999899059
 21
-0.0050528313
 31
0.0
 40
0.4870476356
 41
-1.7892089969
 42
-0.7771948395
  0
ELLIPSE
  5
66F
100
AcDbEntity
  8
IMPORT_IGES
100
AcDbEllipse
 62
7
  6
CONTINUOUS
 10
4.2426461224
 20
9.1636953298
 30
0.0
 11
0.9919983524
 21
1.7386465091
 31
0.0
 40
0.6500195766
 41
5.9398720091
 42
7.0035734287
  0
ELLIPSE
  5
670
100
AcDbEntity
  8
IMPORT_IGES
100
AcDbEllipse
 62
7
  6
CONTINUOUS
 10
5.627853026
 20
10.515274828
 30
0.0
 11
0.2999899059
 21
-0.0050528313
 31
0.0
 40
0.4870476356
 41
-0.4843385525
 42
0.0082045976
  0
ELLIPSE
  5
671
100
AcDbEntity
  8
IMPORT_IGES
100
AcDbEllipse
 62
7
  6
CONTINUOUS
 10
5.7465211665
 20
0.0764970086
 30
0.0
 11
0.3000228497
 21
-0.0000304656
 31
0.0
 40
0.4999999903
 41
-1.9911361521
 42
-0.785271233
  0
ELLIPSE
  5
672
100
AcDbEntity
  8
IMPORT_IGES
100
AcDbEllipse
 62
7
  6
CONTINUOUS
 10
7.2154113393
 20
9.9496627104
 30
0.0
 11
0.2996199708
 21
-0.1851753256
 31
0.0
 40
0.0815198604
 41
1.5570317333
 42
2.4065339704
  0
ELLIPSE
  5
673
100
AcDbEntity
  8
IMPORT_IGES
100
AcDbEllipse
 62
7
  6
CONTINUOUS
 10
3.8321430629
 20
8.7555929533
 30
0.0
 11
0.3679630777
 21
0.7104103382
 31
0.0
 40
0.6229838795
 41
0.6936054221
 42
1.4790035855
  0
ELLIPSE
  5
674
100
AcDbEntity
  8
IMPORT_IGES
100
AcDbEllipse
 62
7
  6
CONTINUOUS
 10
-12.3891241691
 20
-8.0847939134
 30
0.0
 11
0.2952573947
 21
0.0837317531
 31
0.0
 40
0.6345570966
 41
-2.5342423105
 42
-0.9634459838
  0
ELLIPSE
  5
675
100
AcDbEntity
  8
RACCORDO
100
AcDbEllipse
 62
7
  6
CONTINUOUS
 10
7.1334581718
 20
19.2824507374
 30
0.0
 11
0.499996712
 21
0.0035883639
 31
0.0
 40
0.5053247124
 41
-0.7715714568
 42
-0.0036478305
  0
ELLIPSE
  5
676
100
AcDbEntity
  8
ASSI
100
AcDbEllipse
 62
7
  6
CONTINUOUS
 10
-3.4310473548
 20
24.4046931485
 30
0.0
 11
0.2257019663
 21
0.4461636818
 31
0.0
 40
0.6159267166
 41
0.5380090616
 42
0.6817883054
  0
ELLIPSE
  5
677
100
AcDbEntity
  8
RACCORDO
100
AcDbEllipse
 62
7
  6
CONTINUOUS
 10
-9.4125580535
 20
-8.7329147721
 30
0.0
 11
0.2205149116
 21
0.4487546221
 31
0.0
 40
0.607010042
 41
0.6892518406
 42
0.6987800003
  0
ELLIPSE
  5
678
100
AcDbEntity
  8
RACCORDO
100
AcDbEllipse
 62
7
  6
CONTINUOUS
 10
-10.2126879615
 20
-9.705192116
 30
0.0
 11
0.2205149116
 21
0.4487546221
 31
0.0
 40
0.607010042
 41
0.6892518406
 42
0.7019827992
  0
ELLIPSE
  5
679
100
AcDbEntity
  8
RACCORDO
100
AcDbEllipse
 62
7
  6
CONTINUOUS
 10
-8.7631390188
 20
21.8821734798
 30
0.0
 11
0.4999985559
 21
0.0023864752
 31
0.0
 40
0.5035541159
 41
2.3596088132
 42
3.0002042076
  0
ELLIPSE
  5
67A
100
AcDbEntity
  8
RACCORDO
100
AcDbEllipse
 62
7
  6
CONTINUOUS
 10
2.5838080664
 20
-22.2979074721
 30
0.0
 11
-0.2236445579
 21
0.4471998343
 31
0.0
 40
0.6124778111
 41
-3.1448859382
 42
-2.255529033
  0
ELLIPSE
  5
67B
100
AcDbEntity
  8
RACCORDO
100
AcDbEllipse
 62
7
  6
CONTINUOUS
 10
2.5838080664
 20
15.6188568584
 30
0.0
 11
-0.2237046003
 21
0.4472532382
 31
0.0
 40
0.6122950388
 41
-2.2557482655
 42
-0.6847996396
  0
ELLIPSE
  5
67C
100
AcDbEntity
  8
RACCORDO
100
AcDbEllipse
 62
7
  6
CONTINUOUS
 10
-4.4782304107
 20
25.0127887345
 30
0.0
 11
0.9987332359
 21
0.6172510855
 31
0.0
 40
0.0815198604
 41
0.0509898783
 42
0.7263320369
  0
ELLIPSE
  5
67D
100
AcDbEntity
  8
RACCORDO
100
AcDbEllipse
 62
7
  6
CONTINUOUS
 10
7.3125018777
 20
-17.7972449539
 30
0.0
 11
0.9987332359
 21
0.6172510855
 31
0.0
 40
0.0815198604
 41
-2.3978073241
 42
-1.2985018509
  0
ELLIPSE
  5
67E
100
AcDbEntity
  8
RACCORDO
100
AcDbEllipse
 62
7
  6
CONTINUOUS
 10
-12.5533684702
 20
21.9803086633
 30
0.0
 11
0.249929385
 21
0.0111824824
 31
0.0
 40
0.5313301283
 41
-2.3799630874
 42
-0.8149845248
  0
ELLIPSE
  5
67F
100
AcDbEntity
  8
RACCORDO
100
AcDbEllipse
 62
7
  6
CONTINUOUS
 10
-0.5222626394
 20
15.9647557479
 30
0.0
 11
0.249929385
 21
0.0111824824
 31
0.0
 40
0.5313301283
 41
3.1178369227
 42
3.9032222197
  0
ELLIPSE
  5
680
100
AcDbEntity
  8
ASSI
100
AcDbEllipse
 62
7
  6
CONTINUOUS
 10
2.7297849159
 20
21.3242770131
 30
0.0
 11
0.221538876
 21
0.4482453432
 31
0.0
 40
0.6088015717
 41
0.5323082896
 42
0.6760875334
  0
ELLIPSE
  5
681
100
AcDbEntity
  8
RACCORDO
100
AcDbEllipse
 62
7
  6
CONTINUOUS
 10
-13.7472160759
 20
-9.0929931113
 30
0.0
 11
0.2267599918
 21
0.4456316896
 31
0.0
 40
0.6176975122
 41
0.6978040307
 42
0.7132373732
  0
ELLIPSE
  5
682
100
AcDbEntity
  8
RACCORDO
100
AcDbEllipse
 62
7
  6
CONTINUOUS
 10
-13.7612580161
 20
-7.9309070887
 30
0.0
 11
0.2267599918
 21
0.4456316896
 31
0.0
 40
0.6176975122
 41
0.6978040307
 42
0.7105349894
  0
ELLIPSE
  5
683
100
AcDbEntity
  8
RACCORDO
100
AcDbEllipse
 62
7
  6
CONTINUOUS
 10
-14.5744308145
 20
-7.5243206896
 30
0.0
 11
0.2267599918
 21
0.4456316896
 31
0.0
 40
0.6176975122
 41
0.6978040307
 42
0.7105350355
  0
ELLIPSE
  5
684
100
AcDbEntity
  8
RACCORDO
100
AcDbEllipse
 62
7
  6
CONTINUOUS
 10
-14.5877033561
 20
-6.1453421208
 30
0.0
 11
0.2267599918
 21
0.4456316896
 31
0.0
 40
0.6176975122
 41
0.6978040307
 42
0.7073321904
  0
ELLIPSE
  5
685
100
AcDbEntity
  8
RACCORDO
100
AcDbEllipse
 62
7
  6
CONTINUOUS
 10
-16.5676023434
 20
-5.1553926271
 30
0.0
 11
0.2267599918
 21
0.4456316896
 31
0.0
 40
0.6176975122
 41
0.6978040307
 42
0.7073323213
  0
ELLIPSE
  5
686
100
AcDbEntity
  8
DRAFT
100
AcDbEllipse
 62
7
  6
CONTINUOUS
 10
2.4777959053
 20
20.7023497569
 30
0.0
 11
0.4279673669
 21
-0.0030279657
 31
0.0
 40
0.4946372042
 41
-0.7760807437
 42
0.0034305001
  0
ELLIPSE
  5
687
100
AcDbEntity
  8
DRAFT
100
AcDbEllipse
 62
7
  6
CONTINUOUS
 10
-3.0771925239
 20
23.4798439715
 30
0.0
 11
0.4279673669
 21
-0.0030279657
 31
0.0
 40
0.4946372042
 41
-0.7818985079
 42
0.0034334511
  0
ELLIPSE
  5
688
100
AcDbEntity
  8
RACCORDO
100
AcDbEllipse
 62
7
  6
CONTINUOUS
 10
7.1334581718
 20
-18.0064652728
 30
0.0
 11
0.499366618
 21
0.3086255427
 31
0.0
 40
0.0815198604
 41
6.1080157147
 42
7.0007906979
  0
ELLIPSE
  5
689
100
AcDbEntity
  8
RACCORDO
100
AcDbEllipse
 62
7
  6
CONTINUOUS
 10
7.1334581718
 20
20.2127933963
 30
0.0
 11
-0.3708957
 21
0.6001218488
 31
0.0
 40
0.5587454355
 41
-3.1744788413
 42
-2.2817038581
  0
ELLIPSE
  5
68A
100
AcDbEntity
  8
RACCORDO
100
AcDbEllipse
 62
7
  6
CONTINUOUS
 10
7.1334581718
 20
-17.076122614
 30
0.0
 11
0.4999969381
 21
-0.0035375912
 31
0.0
 40
0.4946372042
 41
-0.7644452153
 42
0.7888978189
  0
ELLIPSE
  5
68B
100
AcDbEntity
  8
RACCORDO
100
AcDbEllipse
 62
7
  6
CONTINUOUS
 10
-8.7631390188
 20
20.6495638746
 30
0.0
 11
0.4998587701
 21
0.0223649649
 31
0.0
 40
0.5313301283
 41
3.1178197826
 42
3.9032222197
  0
ELLIPSE
  5
68C
100
AcDbEntity
  8
RACCORDO
100
AcDbEllipse
 62
7
  6
CONTINUOUS
 10
-3.2518319191
 20
19.12651993
 30
0.0
 11
0.4999985559
 21
0.0023864752
 31
0.0
 40
0.5035541159
 41
-1.4342147631
 42
-0.7936193687
  0
ELLIPSE
  5
68D
100
AcDbEntity
  8
RACCORDO
100
AcDbEllipse
 62
7
  6
CONTINUOUS
 10
-3.2518319191
 20
17.8939103248
 30
0.0
 11
0.4998587701
 21
0.0223649649
 31
0.0
 40
0.5313301283
 41
-2.3799630874
 42
-0.8149845248
  0
ELLIPSE
  5
68E
100
AcDbEntity
  8
RACCORDO
100
AcDbEllipse
 62
7
  6
CONTINUOUS
 10
-13.8865808039
 20
22.6469148301
 30
0.0
 11
0.249929385
 21
0.0111824824
 31
0.0
 40
0.5313301283
 41
3.1179086008
 42
3.9032222197
  0
ELLIPSE
  5
68F
100
AcDbEntity
  8
RACCORDO
100
AcDbEllipse
 62
7
  6
CONTINUOUS
 10
7.3125018777
 20
19.1174225903
 30
0.0
 11
-0.7417913999
 21
1.2002436976
 31
0.0
 40
0.5587454355
 41
5.1248137075
 42
6.2241191807
  0
ELLIPSE
  5
690
100
AcDbEntity
  8
RACCORDO
100
AcDbEllipse
 62
7
  6
CONTINUOUS
 10
0.8109496942
 20
15.2981495811
 30
0.0
 11
0.249929385
 21
0.0111824824
 31
0.0
 40
0.5313301283
 41
-2.3799630874
 42
-1.3352760237
  0
ENDSEC
  0
SECTION
  2
OBJECTS
  0
DICTIONARY
  5
C
100
AcDbDictionary
280
0
281
1
  3
ACAD_GROUP
350
D
  3
ACAD_MLINESTYLE
350
17
  3
ACAD_LAYOUT
350
1A
  3
ACAD_PLOTSETTINGS
350
19
  3
ACAD_PLOTSTYLENAME
350
E
  0
DICTIONARY
  5
D
102
{ACAD_REACTORS
330
C
102
}
100
AcDbDictionary
280
0
281
1
  0
ACDBDICTIONARYWDFLT
  5
E
102
{ACAD_REACTORS
330
C
102
}
100
AcDbDictionary
281
1
  3
Normal
350
F
100
AcDbDictionaryWithDefault
340
F
  0
DICTIONARY
  5
17
102
{ACAD_REACTORS
330
C
102
}
100
AcDbDictionary
280
0
281
1
  3
Standard
350
18
  0
DICTIONARY
  5
19
102
{ACAD_REACTORS
330
C
102
}
100
AcDbDictionary
281
1
  0
DICTIONARY
  5
1A
102
{ACAD_REACTORS
330
C
102
}
100
AcDbDictionary
281
1
  3
Model
350
691
  3
Layout1
350
692
  0
ACDBPLACEHOLDER
  5
F
102
{ACAD_REACTORS
330
E
102
}
  0
MLINESTYLE
  5
18
102
{ACAD_REACTORS
330
17
102
}
100
AcDbMlineStyle
  2
STANDARD
 70
0
  3

 62
256
 51
90.0
 52
90.0
 71
2
 49
0.5
 62
256
  6
BYLAYER
 49
-0.5
 62
256
  6
BYLAYER
  0
LAYOUT
  5
691
102
{ACAD_REACTORS
330
1A
102
}
100
AcDbPlotSettings
  1

  2
none_device
  4
ISO_A4_(297.00_x_210.00_MM)
  6

 40
0.0
 41
0.0
 42
0.0
 43
0.0
 44
297.0
 45
210.0
 46
0.0
 47
0.0
 48
0.0
 49
0.0
140
0.0
141
0.0
142
1.0
143
1.0
 70
1024
 72
1
 73
0
 74
0
  7

 75
0
147
1.0
148
0.0
149
0.0
100
AcDbLayout
  1
Model
 70
0
 71
0
 10
0.0
 20
0.0
 11
297.0
 21
210.0
 12
0.0
 22
0.0
 32
0.0
 14
0.0
 24
0.0
 34
0.0
 15
0.0
 25
0.0
 35
0.0
146
0.0
 13
0.0
 23
0.0
 33
0.0
 16
1.0
 26
0.0
 36
0.0
 17
0.0
 27
1.0
 37
0.0
 76
0
330
21A
345
0
346
0
  0
LAYOUT
  5
692
102
{ACAD_REACTORS
330
1A
102
}
100
AcDbPlotSettings
  1

  2
none_device
  4
ISO_A4_(297.00_x_210.00_MM)
  6

 40
0.0
 41
0.0
 42
0.0
 43
0.0
 44
297.0
 45
210.0
 46
0.0
 47
0.0
 48
0.0
 49
0.0
140
0.0
141
0.0
142
1.0
143
1.0
 70
0
 72
1
 73
0
 74
0
  7

 75
0
147
1.0
148
0.0
149
0.0
100
AcDbLayout
  1
Layout1
 70
0
 71
1
 10
0.0
 20
0.0
 11
297.0
 21
210.0
 12
0.0
 22
0.0
 32
0.0
 14
0.0
 24
0.0
 34
0.0
 15
0.0
 25
0.0
 35
0.0
146
0.0
 13
0.0
 23
0.0
 33
0.0
 16
1.0
 26
0.0
 36
0.0
 17
0.0
 27
1.0
 37
0.0
 76
0
330
21B
345
0
346
0
  0
ENDSEC
  0
EOF
