  0
SECTION
  2
HEADER
  9
$ACADVER
  1
AC1015
  9
$DWGCODEPAGE
  3
ANSI_1252
  9
$EXTMAX
 10
297.0
 20
210.0
 30
0.0
  9
$EXTMIN
 10
0.0
 20
0.0
 30
0.0
  9
$LIMMIN
 10
0.0
 20
0.0
  9
$LIMMAX
 10
297.0
 20
210.0
  9
$VIEWCTR
 10
148.5
 20
105.0
  9
$VIEWSIZE
 40
210.0
  9
$CLAYER
  8
0
  9
$LTSCALE
 40
16.335
  9
$CELTYPE
  6
BYLAYER
  9
$DIMSCALE
 40
1.0
  9
$DIMASZ
 40
3.0
  9
$DIMEXO
 40
1.85625
  9
$DIMDLI
 40
11.286
  9
$DIMEXE
 40
5.346
  9
$DIMCEN
 40
2.673
  9
$DIMLFAC
 40
1.0
  9
$DIMBLK
  1
_FILLED
  9
$DIMTXT
 40
3.0
  9
$DIMTOL
 70
1
  9
$DIMLIM
 70
0
  9
$DIMTFAC
 40
1.0
  9
$DIMTP
 40
0.01
  9
$DIMTM
 40
0.01
  9
$PDMODE
 70
3
  9
$PDSIZE
 40
3.0
  9
$HANDSEED
  5
6C3
  9
$TILEMODE
 70
1
  9
$MEASUREMENT
 70
1
  9
$INSUNITS
 70
4
  0
ENDSEC
  0
SECTION
  2
CLASSES
  0
CLASS
  1
ACDBDICTIONARYWDFLT
  2
AcDbDictionaryWithDefault
  3
AutoCAD 2000
 90
0
280
0
281
0
  0
CLASS
  1
ACDBPLACEHOLDER
  2
AcDbPlaceHolder
  3
AutoCAD 2000
 90
0
280
0
281
0
  0
CLASS
  1
LAYOUT
  2
AcDbLayout
  3
AutoCAD 2000
 90
0
280
0
281
0
  0
ENDSEC
  0
SECTION
  2
TABLES
  0
TABLE
  2
VPORT
  5
8
100
AcDbSymbolTable
 70
2
  0
VPORT
  5
1F4
100
AcDbSymbolTableRecord
100
AcDbViewportTableRecord
  2
*ACTIVE
 70
0
 10
0.0
 20
0.0
 11
1.0
 21
1.0
 12
148.5
 22
105.0
 13
0.0
 23
0.0
 14
1.0
 24
1.0
 15
0.0
 25
0.0
 16
0.0
 26
0.0
 36
1.0
 17
0.0
 27
0.0
 37
0.0
 40
210.0
 41
1.4142857143
 42
50.0
 43
0.0
 44
0.0
 50
0.0
 51
0.0
 71
0
 72
100
 73
1
 74
1
 75
0
 76
0
 77
0
 78
0
  0
ENDTAB
  0
TABLE
  2
LTYPE
  5
5
100
AcDbSymbolTable
 70
6
  0
LTYPE
  5
14
100
AcDbSymbolTableRecord
100
AcDbLinetypeTableRecord
  2
BYBLOCK
 70
0
  3

 72
65
 73
0
 40
0.0
  0
LTYPE
  5
15
100
AcDbSymbolTableRecord
100
AcDbLinetypeTableRecord
  2
BYLAYER
 70
0
  3

 72
65
 73
0
 40
0.0
  0
LTYPE
  5
16
100
AcDbSymbolTableRecord
100
AcDbLinetypeTableRecord
  2
CONTINUOUS
 70
64
  3
Solid line
 72
65
 73
0
 40
0.0
  0
LTYPE
  5
1F5
100
AcDbSymbolTableRecord
100
AcDbLinetypeTableRecord
  2
CENTER
 70
64
  3
____ _ ____ _ ____ _ ____ _ ____ _ ____ _ ____
 72
65
 73
4
 40
0.6
 49
0.375
 74
0
 49
-0.075
 74
0
 49
0.075
 74
0
 49
-0.075
 74
0
  0
LTYPE
  5
1F6
100
AcDbSymbolTableRecord
100
AcDbLinetypeTableRecord
  2
HIDDEN
 70
64
  3
- - - - - - - - - - - - - - - - - - - -
 72
65
 73
2
 40
0.2
 49
0.1
 74
0
 49
-0.1
 74
0
  0
LTYPE
  5
1F7
100
AcDbSymbolTableRecord
100
AcDbLinetypeTableRecord
  2
PHANTOM
 70
64
  3
_____ _ _ _____ _ _ _____ _ _ _____
 72
65
 73
6
 40
0.8
 49
0.45
 74
0
 49
-0.05
 74
0
 49
0.1
 74
0
 49
-0.05
 74
0
 49
0.1
 74
0
 49
-0.05
 74
0
  0
LTYPE
  5
1F8
100
AcDbSymbolTableRecord
100
AcDbLinetypeTableRecord
  2
DOT
 70
64
  3
. . . . . . . . . . . . . . . . . . . .
 72
65
 73
2
 40
0.2
 49
0.1
 74
0
 49
-0.1
 74
0
  0
LTYPE
  5
1F9
100
AcDbSymbolTableRecord
100
AcDbLinetypeTableRecord
  2
DASHED
 70
64
  3
- - - - - - - - - - - - - - - - - - - -
 72
65
 73
2
 40
0.2
 49
0.1
 74
0
 49
-0.1
 74
0
  0
ENDTAB
  0
TABLE
  2
LAYER
  5
2
100
AcDbSymbolTable
 70
36
  0
LAYER
  5
10
100
AcDbSymbolTableRecord
100
AcDbLayerTableRecord
  2
0
 70
0
 62
7
  6
CONTINUOUS
370
-3
390
F
  0
LAYER
  5
1FA
100
AcDbSymbolTableRecord
100
AcDbLayerTableRecord
  2
DEFAULT_1
 70
0
 62
7
  6
CENTER
370
-3
390
F
  0
LAYER
  5
1FB
100
AcDbSymbolTableRecord
100
AcDbLayerTableRecord
  2
DEFAULT_2
 70
0
 62
7
  6
HIDDEN
370
-3
390
F
  0
LAYER
  5
1FC
100
AcDbSymbolTableRecord
100
AcDbLayerTableRecord
  2
DEFAULT_3
 70
0
 62
7
  6
PHANTOM
370
-3
390
F
  0
LAYER
  5
1FD
100
AcDbSymbolTableRecord
100
AcDbLayerTableRecord
  2
06___PRT_ALL_SURFS
 70
0
 62
7
  6
CONTINUOUS
370
-3
390
F
  0
LAYER
  5
1FE
100
AcDbSymbolTableRecord
100
AcDbLayerTableRecord
  2
ASSI
 70
0
 62
7
  6
CONTINUOUS
370
-3
390
F
  0
LAYER
  5
1FF
100
AcDbSymbolTableRecord
100
AcDbLayerTableRecord
  2
COLOR3
 70
0
 62
7
  6
CONTINUOUS
370
-3
390
F
  0
LAYER
  5
200
100
AcDbSymbolTableRecord
100
AcDbLayerTableRecord
  2
COLOR4
 70
0
 62
7
  6
CONTINUOUS
370
-3
390
F
  0
LAYER
  5
201
100
AcDbSymbolTableRecord
100
AcDbLayerTableRecord
  2
COLOR5
 70
0
 62
7
  6
CONTINUOUS
370
-3
390
F
  0
LAYER
  5
202
100
AcDbSymbolTableRecord
100
AcDbLayerTableRecord
  2
COORDINATE
 70
0
 62
7
  6
CONTINUOUS
370
-3
390
F
  0
LAYER
  5
203
100
AcDbSymbolTableRecord
100
AcDbLayerTableRecord
  2
COORD_ORIGINE
 70
0
 62
7
  6
CONTINUOUS
370
-3
390
F
  0
LAYER
  5
204
100
AcDbSymbolTableRecord
100
AcDbLayerTableRecord
  2
COPY_PUBLISH
 70
0
 62
7
  6
CONTINUOUS
370
-3
390
F
  0
LAYER
  5
205
100
AcDbSymbolTableRecord
100
AcDbLayerTableRecord
  2
COSMETICI
 70
0
 62
7
  6
CONTINUOUS
370
-3
390
F
  0
LAYER
  5
206
100
AcDbSymbolTableRecord
100
AcDbLayerTableRecord
  2
CURVE
 70
0
 62
7
  6
CONTINUOUS
370
-3
390
F
  0
LAYER
  5
207
100
AcDbSymbolTableRecord
100
AcDbLayerTableRecord
  2
DRAFT
 70
0
 62
7
  6
CONTINUOUS
370
-3
390
F
  0
LAYER
  5
208
100
AcDbSymbolTableRecord
100
AcDbLayerTableRecord
  2
IMPORT
 70
0
 62
7
  6
CONTINUOUS
370
-3
390
F
  0
LAYER
  5
209
100
AcDbSymbolTableRecord
100
AcDbLayerTableRecord
  2
IMPORT_IGES
 70
0
 62
7
  6
CONTINUOUS
370
-3
390
F
  0
LAYER
  5
20A
100
AcDbSymbolTableRecord
100
AcDbLayerTableRecord
  2
INCISIONI_LASER
 70
0
 62
7
  6
CONTINUOUS
370
-3
390
F
  0
LAYER
  5
20B
100
AcDbSymbolTableRecord
100
AcDbLayerTableRecord
  2
INTF_BLANK
 70
0
 62
7
  6
CONTINUOUS
370
-3
390
F
  0
LAYER
  5
20C
100
AcDbSymbolTableRecord
100
AcDbLayerTableRecord
  2
LAY0001
 70
0
 62
7
  6
CONTINUOUS
370
-3
390
F
  0
LAYER
  5
20D
100
AcDbSymbolTableRecord
100
AcDbLayerTableRecord
  2
NOTE
 70
0
 62
7
  6
CONTINUOUS
370
-3
390
F
  0
LAYER
  5
20E
100
AcDbSymbolTableRecord
100
AcDbLayerTableRecord
  2
PIANI
 70
0
 62
7
  6
CONTINUOUS
370
-3
390
F
  0
LAYER
  5
20F
100
AcDbSymbolTableRecord
100
AcDbLayerTableRecord
  2
PIANI_ORIGINE
 70
0
 62
7
  6
CONTINUOUS
370
-3
390
F
  0
LAYER
  5
210
100
AcDbSymbolTableRecord
100
AcDbLayerTableRecord
  2
PIANI_RIFERIMENTO
 70
0
 62
7
  6
CONTINUOUS
370
-3
390
F
  0
LAYER
  5
211
100
AcDbSymbolTableRecord
100
AcDbLayerTableRecord
  2
PUNTI
 70
0
 62
7
  6
CONTINUOUS
370
-3
390
F
  0
LAYER
  5
212
100
AcDbSymbolTableRecord
100
AcDbLayerTableRecord
  2
RACCORDO
 70
0
 62
7
  6
CONTINUOUS
370
-3
390
F
  0
LAYER
  5
213
100
AcDbSymbolTableRecord
100
AcDbLayerTableRecord
  2
SIMBOLI
 70
0
 62
7
  6
CONTINUOUS
370
-3
390
F
  0
LAYER
  5
214
100
AcDbSymbolTableRecord
100
AcDbLayerTableRecord
  2
SMUSSO
 70
0
 62
7
  6
CONTINUOUS
370
-3
390
F
  0
LAYER
  5
215
100
AcDbSymbolTableRecord
100
AcDbLayerTableRecord
  2
SNAPLINE
 70
0
 62
7
  6
CONTINUOUS
370
-3
390
F
  0
LAYER
  5
216
100
AcDbSymbolTableRecord
100
AcDbLayerTableRecord
  2
SUPERFICI
 70
0
 62
7
  6
CONTINUOUS
370
-3
390
F
  0
LAYER
  5
217
100
AcDbSymbolTableRecord
100
AcDbLayerTableRecord
  2
TRASH
 70
0
 62
7
  6
CONTINUOUS
370
-3
390
F
  0
LAYER
  5
218
100
AcDbSymbolTableRecord
100
AcDbLayerTableRecord
  2
XSEC_DATUMS
 70
0
 62
7
  6
CONTINUOUS
370
-3
390
F
  0
LAYER
  5
219
100
AcDbSymbolTableRecord
100
AcDbLayerTableRecord
  2
_BLACK_HOLE
 70
0
 62
7
  6
CONTINUOUS
370
-3
390
F
  0
LAYER
  5
21A
100
AcDbSymbolTableRecord
100
AcDbLayerTableRecord
  2
___SHELL
 70
0
 62
7
  6
CONTINUOUS
370
-3
390
F
  0
ENDTAB
  0
TABLE
  2
STYLE
  5
3
100
AcDbSymbolTable
 70
1
  0
STYLE
  5
11
100
AcDbSymbolTableRecord
100
AcDbTextStyleTableRecord
  2
STANDARD
 70
0
 40
0.0
 41
0.8
 50
0.0
 71
0
 42
0.2
  3
txt
  4

  0
STYLE
  5
21B
100
AcDbSymbolTableRecord
100
AcDbTextStyleTableRecord
  2
TEXTSTYLE_1
 70
0
 40
0.0
 41
0.8
 50
0.0
 71
0
 42
0.2
  3
gdt
  4

  0
ENDTAB
  0
TABLE
  2
VIEW
  5
6
100
AcDbSymbolTable
 70
0
  0
ENDTAB
  0
TABLE
  2
UCS
  5
7
100
AcDbSymbolTable
 70
0
  0
ENDTAB
  0
TABLE
  2
APPID
  5
9
100
AcDbSymbolTable
 70
1
  0
APPID
  5
21C
100
AcDbSymbolTableRecord
100
AcDbRegAppTableRecord
  2
ACAD
 70
0
  0
ENDTAB
  0
TABLE
  2
BLOCK_RECORD
  5
1
100
AcDbSymbolTable
 70
0
  0
BLOCK_RECORD
  5
21D
100
AcDbSymbolTableRecord
100
AcDbBlockTableRecord
  2
*Model_Space
  0
BLOCK_RECORD
  5
21E
100
AcDbSymbolTableRecord
100
AcDbBlockTableRecord
  2
*Paper_Space
  0
ENDTAB
  0
TABLE
  2
DIMSTYLE
  5
A
100
AcDbSymbolTable
 70
1
100
AcDbDimStyleTable
 71
0
  0
DIMSTYLE
105
21F
100
AcDbSymbolTableRecord
100
AcDbDimStyleTableRecord
  2
STANDARD
 70
0
  3

  4

 40
1.0
 41
3.0
 42
0.0625
 43
0.38
 44
0.18
 45
0.0
 46
0.0
 47
0.01
 48
0.01
140
3.0
141
0.09
142
0.0
143
25.4
144
1.0
145
0.0
146
1.0
147
0.09
 71
1.0
 72
0.0
 73
0
 74
0
 75
0
 76
0
 77
1
 78
8
170
0
171
2
172
0
173
0
174
0
175
0
176
0
177
0
178
0
270
2
271
2
272
2
273
2
274
2
275
0
280
0
281
0
282
0
283
1
284
8
285
0
286
0
287
3
288
0
340
11
  0
ENDTAB
  0
ENDSEC
  0
SECTION
  2
BLOCKS
  0
BLOCK
  5
20
100
AcDbEntity
  8
0
100
AcDbBlockBegin
  2
*Model_Space
 70
0
 10
0.0
 20
0.0
 30
0.0
  3
*Model_Space
  1

  0
ENDBLK
  5
21
100
AcDbEntity
  8
0
100
AcDbBlockEnd
  0
BLOCK
  5
1C
100
AcDbEntity
  8
0
100
AcDbBlockBegin
  2
*Paper_Space
 70
0
 10
0.0
 20
0.0
 30
0.0
  3
*Paper_Space
  1

  0
ENDBLK
  5
1D
100
AcDbEntity
  8
0
100
AcDbBlockEnd
  0
ENDSEC
  0
SECTION
  2
ENTITIES
  0
LWPOLYLINE
  5
220
100
AcDbEntity
  8
RACCORDO
100
AcDbPolyline
 62
7
  6
CONTINUOUS
 90
22
 70
0
 10
-14.3801931944
 20
24.1612810129
 10
-14.3917201986
 20
24.1549795048
 10
-14.4029453852
 20
24.1480516827
 10
-14.4138260563
 20
24.1405146813
 10
-14.4243253081
 20
24.1323856101
 10
-14.4343986284
 20
24.1236918927
 10
-14.443996415
 20
24.1144732272
 10
-14.4530463586
 20
24.1048061324
 10
-14.4615621673
 20
24.0946854054
 10
-14.4696096864
 20
24.0840179009
 10
-14.4771870718
 20
24.072760288
 10
-14.4841984387
 20
24.0610081868
 10
-14.4905650432
 20
24.0488720958
 10
-14.4962509825
 20
24.0364196662
 10
-14.5012480921
 20
24.0236710982
 10
-14.5055390796
 20
24.0106701428
 10
-14.509109108
 20
23.9974654688
 10
-14.5119493224
 20
23.9840975058
 10
-14.5140551808
 20
23.9705913472
 10
-14.5154207651
 20
23.9569754385
 10
-14.5160393389
 20
23.9433025263
 10
-14.5160790886
 20
23.9388509671
  0
LINE
  5
221
100
AcDbEntity
  8
RACCORDO
100
AcDbLine
 62
7
  6
CONTINUOUS
 10
-12.7970214994
 20
24.9734780601
 11
-14.3801931944
 21
24.1612810129
  0
LINE
  5
222
100
AcDbEntity
  8
RACCORDO
100
AcDbLine
 62
253
  6
CONTINUOUS
 10
-12.6843509251
 20
24.9668171351
 11
-14.2671075282
 21
24.1548330377
  0
LINE
  5
223
100
AcDbEntity
  8
RACCORDO
100
AcDbLine
 62
7
  6
CONTINUOUS
 10
-12.7952831139
 20
24.9743472929
 11
-12.7970195257
 21
24.9734790727
  0
LINE
  5
224
100
AcDbEntity
  8
RACCORDO
100
AcDbLine
 62
7
  6
CONTINUOUS
 10
-12.2604131575
 20
25.2348993927
 11
-12.7952803483
 21
24.9743486401
  0
LINE
  5
225
100
AcDbEntity
  8
RACCORDO
100
AcDbLine
 62
253
  6
CONTINUOUS
 10
-12.1499010464
 20
25.2271646016
 11
-12.6843509251
 21
24.9668171351
  0
LWPOLYLINE
  5
226
100
AcDbEntity
  8
RACCORDO
100
AcDbPolyline
 62
253
  6
CONTINUOUS
 90
3
 70
0
 10
-17.3692332374
 20
19.6466008541
 10
-17.3066376467
 20
19.6887980359
 10
-17.2442180152
 20
19.7262820659
  0
LWPOLYLINE
  5
227
100
AcDbEntity
  8
RACCORDO
100
AcDbPolyline
 62
7
  6
CONTINUOUS
 90
37
 70
0
 10
-18.402050492
 20
20.1374407152
 10
-18.4337266727
 20
20.1183946081
 10
-18.4766145532
 20
20.090741204
 10
-18.5186855602
 20
20.0614656305
 10
-18.5599220815
 20
20.0306283595
 10
-18.6003151755
 20
19.9982831298
 10
-18.6398512253
 20
19.9644820348
 10
-18.6785160925
 20
19.9292762969
 10
-18.7162946998
 20
19.8927145956
 10
-18.7531619857
 20
19.8548516592
 10
-18.7891010769
 20
19.8157352601
 10
-18.8240929152
 20
19.7754108877
 10
-18.8581039731
 20
19.7339405809
 10
-18.8911135421
 20
19.6913718246
 10
-18.9230995907
 20
19.6477492937
 10
-18.9540244663
 20
19.6031416802
 10
-18.9838646527
 20
19.5575966021
 10
-19.0125965211
 20
19.5111600729
 10
-19.0401812299
 20
19.4639049152
 10
-19.0665939453
 20
19.415878654
 10
-19.0918101546
 20
19.3671296693
 10
-19.1157904513
 20
19.3177343278
 10
-19.138509896
 20
19.2677410167
 10
-19.1599438306
 20
19.217198695
 10
-19.1800542366
 20
19.166184504
 10
-19.1988171688
 20
19.1147466746
 10
-19.2162070774
 20
19.0629339656
 10
-19.2321888562
 20
19.0108219925
 10
-19.2467386834
 20
18.9584577503
 10
-19.2598298095
 20
18.9058883383
 10
-19.2714308149
 20
18.8531840234
 10
-19.2815159577
 20
18.8003910701
 10
-19.2900568863
 20
18.7475549376
 10
-19.2970238048
 20
18.6947335371
 10
-19.3023866516
 20
18.6419709081
 10
-19.3061148092
 20
18.5893110679
 10
-19.3077554461
 20
18.5518982297
  0
LWPOLYLINE
  5
228
100
AcDbEntity
  8
ASSI
100
AcDbPolyline
 62
7
  6
CONTINUOUS
 90
43
 70
0
 10
-17.4621121048
 20
19.7753699509
 10
-17.4994025383
 20
19.7535183218
 10
-17.5364868439
 20
19.7301840522
 10
-17.5733650214
 20
19.7053671419
 10
-17.6100821447
 20
19.679033251
 10
-17.64659314
 20
19.6512167194
 10
-17.6827627862
 20
19.6220205678
 10
-17.7185898177
 20
19.5914396802
 10
-17.7540755002
 20
19.5594791725
 10
-17.78908841
 20
19.5262574127
 10
-17.823626794
 20
19.4917697238
 10
-17.8576924053
 20
19.4560207827
 10
-17.8911590795
 20
19.4191429883
 10
-17.9240245958
 20
19.3811321544
 10
-17.9562911749
 20
19.3419924671
 10
-17.9878393155
 20
19.3018688829
 10
-18.0186663534
 20
19.2607577533
 10
-18.0487749527
 20
19.2186627269
 10
-18.0780536041
 20
19.1757397055
 10
-18.1064992301
 20
19.1319856187
 10
-18.1341149082
 20
19.0874035368
 10
-18.1607983618
 20
19.0421585728
 10
-18.1865461341
 20
18.9962482686
 10
-18.2113616819
 20
18.9496750822
 10
-18.2351530992
 20
18.9026115007
 10
-18.2579165882
 20
18.8550557055
 10
-18.2796559467
 20
18.8070095152
 10
-18.3002906614
 20
18.7586508722
 10
-18.319816636
 20
18.7099786179
 10
-18.3382379669
 20
18.6609939109
 10
-18.3554864292
 20
18.6118781694
 10
-18.3715576739
 20
18.5626309075
 10
-18.3864560501
 20
18.5132526113
 10
-18.4001263806
 20
18.4639261565
 10
-18.4125641117
 20
18.4146517355
 10
-18.4237737971
 20
18.365429156
 10
-18.4337139209
 20
18.3164407173
 10
-18.4423797756
 20
18.2676872876
 10
-18.4497760687
 20
18.2191679986
 10
-18.4558754076
 20
18.171062545
 10
-18.4606686614
 20
18.1234308249
 10
-18.464164961
 20
18.0762129402
 10
-18.4663643064
 20
18.0294088908
  0
LINE
  5
229
100
AcDbEntity
  8
RACCORDO
100
AcDbLine
 62
7
  6
CONTINUOUS
 10
-18.4020609615
 20
20.1374347486
 11
-13.8130861346
 21
22.8132273905
  0
LINE
  5
22A
100
AcDbEntity
  8
RACCORDO
100
AcDbLine
 62
253
  6
CONTINUOUS
 10
-13.8130861346
 20
22.668393214
 11
-18.1687069139
 21
20.1286673555
  0
LWPOLYLINE
  5
22B
100
AcDbEntity
  8
RACCORDO
100
AcDbPolyline
 62
253
  6
CONTINUOUS
 90
17
 70
0
 10
-18.4020505518
 20
20.1374408179
 10
-18.3996022992
 20
20.1388422154
 10
-18.386965828
 20
20.1452939752
 10
-18.3737936371
 20
20.1507506179
 10
-18.3601155312
 20
20.1551997969
 10
-18.3459624593
 20
20.1586314451
 10
-18.3313664457
 20
20.1610377977
 10
-18.3163605164
 20
20.1624134099
 10
-18.3009786252
 20
20.1627551691
 10
-18.2852555766
 20
20.162062302
 10
-18.2692269469
 20
20.1603363763
 10
-18.2529290039
 20
20.1575812974
 10
-18.2363986248
 20
20.153803299
 10
-18.2196732126
 20
20.1490109296
 10
-18.2027906119
 20
20.1432150328
 10
-18.1857890225
 20
20.136428723
 10
-18.1687069139
 20
20.1286673555
  0
LINE
  5
22C
100
AcDbEntity
  8
ASSI
100
AcDbLine
 62
7
  6
CONTINUOUS
 10
-17.4621121048
 20
19.7753699509
 11
-15.5834857363
 21
20.8352649457
  0
LINE
  5
22D
100
AcDbEntity
  8
RACCORDO
100
AcDbLine
 62
7
  6
CONTINUOUS
 10
-17.3578103421
 20
19.7324351455
 11
-15.4872415334
 21
20.7877841766
  0
LINE
  5
22E
100
AcDbEntity
  8
RACCORDO
100
AcDbLine
 62
253
  6
CONTINUOUS
 10
-17.2442180152
 20
19.7262820659
 11
-15.371353702
 21
20.7829261889
  0
LINE
  5
22F
100
AcDbEntity
  8
RACCORDO
100
AcDbLine
 62
253
  6
CONTINUOUS
 10
-11.3408420576
 20
24.2950627013
 11
-12.9421228484
 21
23.4923406978
  0
LINE
  5
230
100
AcDbEntity
  8
RACCORDO
100
AcDbLine
 62
253
  6
CONTINUOUS
 10
-11.1640683539
 20
23.9901731625
 11
-12.7653491447
 21
23.187451159
  0
LINE
  5
231
100
AcDbEntity
  8
RACCORDO
100
AcDbLine
 62
253
  6
CONTINUOUS
 10
-10.8125748858
 20
24.5585015213
 11
-11.3408420576
 21
24.2950627013
  0
LINE
  5
232
100
AcDbEntity
  8
RACCORDO
100
AcDbLine
 62
253
  6
CONTINUOUS
 10
-10.6358011822
 20
24.2536119825
 11
-11.1640683539
 21
23.9901731625
  0
LINE
  5
233
100
AcDbEntity
  8
RACCORDO
100
AcDbLine
 62
253
  6
CONTINUOUS
 10
-11.1640683539
 20
23.26312831
 11
-10.6358011822
 21
23.9060804658
  0
LWPOLYLINE
  5
234
100
AcDbEntity
  8
RACCORDO
100
AcDbPolyline
 62
7
  6
CONTINUOUS
 90
30
 70
0
 10
-12.0541285366
 20
22.698973702
 10
-12.0620076596
 20
22.6898392988
 10
-12.0702279087
 20
22.6808418578
 10
-12.0787857699
 20
22.6720028712
 10
-12.0876842004
 20
22.6633463414
 10
-12.0969106355
 20
22.6548916621
 10
-12.1064372098
 20
22.6466537694
 10
-12.116257398
 20
22.6386550158
 10
-12.1263632963
 20
22.630917139
 10
-12.1367240793
 20
22.6234545992
 10
-12.1473306005
 20
22.6162898213
 10
-12.1581725119
 20
22.6094445161
 10
-12.169216289
 20
22.6029325444
 10
-12.1804501374
 20
22.5967760253
 10
-12.1918610883
 20
22.5909963614
 10
-12.2034129087
 20
22.5856068379
 10
-12.2150910406
 20
22.5806288802
 10
-12.2268797721
 20
22.576083183
 10
-12.2387400861
 20
22.5719823978
 10
-12.2506545338
 20
22.5683467723
 10
-12.2626045471
 20
22.5651957873
 10
-12.2745482247
 20
22.562541251
 10
-12.2864650743
 20
22.5604016186
 10
-12.2983336415
 20
22.5587944811
 10
-12.3101092201
 20
22.5577303204
 10
-12.3217680406
 20
22.557225015
 10
-12.3332859778
 20
22.5572933811
 10
-12.3446163305
 20
22.5579437795
 10
-12.3557215928
 20
22.5591871723
 10
-12.3665859446
 20
22.5610346677
  0
LINE
  5
235
100
AcDbEntity
  8
RACCORDO
100
AcDbLine
 62
7
  6
CONTINUOUS
 10
-11.1640683539
 20
22.3880225015
 11
-12.0541285366
 21
21.8913415802
  0
LINE
  5
236
100
AcDbEntity
  8
RACCORDO
100
AcDbLine
 62
7
  6
CONTINUOUS
 10
-8.7952486356
 20
22.0579040882
 11
-8.4417072463
 21
22.239277513
  0
LINE
  5
237
100
AcDbEntity
  8
RACCORDO
100
AcDbLine
 62
7
  6
CONTINUOUS
 10
-3.4414852923
 20
25.5283265305
 11
-9.7560256189
 21
22.383550226
  0
LINE
  5
238
100
AcDbEntity
  8
ASSI
100
AcDbLine
 62
7
  6
CONTINUOUS
 10
-8.4417072463
 20
22.239277513
 11
-3.1054838404
 21
24.8387209785
  0
LWPOLYLINE
  5
239
100
AcDbEntity
  8
RACCORDO
100
AcDbPolyline
 62
253
  6
CONTINUOUS
 90
8
 70
0
 10
-17.3578103421
 20
19.7324351455
 10
-17.3463578174
 20
19.737826533
 10
-17.3313668597
 20
19.7421293925
 10
-17.3153197166
 20
19.7439404696
 10
-17.298392204
 20
19.7432399217
 10
-17.2807697833
 20
19.7400354241
 10
-17.2626455293
 20
19.7343620861
 10
-17.2442180152
 20
19.7262820659
  0
LWPOLYLINE
  5
23A
100
AcDbEntity
  8
RACCORDO
100
AcDbPolyline
 62
7
  6
CONTINUOUS
 90
24
 70
0
 10
-3.9430428429
 20
-25.4113569484
 10
-3.9201913303
 20
-25.4223805331
 10
-3.8878068407
 20
-25.4366598202
 10
-3.8547433376
 20
-25.4496925054
 10
-3.8210302477
 20
-25.4614519869
 10
-3.7866751534
 20
-25.4719182495
 10
-3.7517179095
 20
-25.4810609934
 10
-3.7162016616
 20
-25.4888528325
 10
-3.6801359867
 20
-25.4952741085
 10
-3.6435591945
 20
-25.5002984684
 10
-3.6065174994
 20
-25.5039009755
 10
-3.5690283864
 20
-25.5060620247
 10
-3.5311347849
 20
-25.5067601048
 10
-3.4928768429
 20
-25.5059752999
 10
-3.454262416
 20
-25.5036873805
 10
-3.4153320141
 20
-25.4998781341
 10
-3.3761241586
 20
-25.4945303736
 10
-3.3366377923
 20
-25.487619988
 10
-3.2969056696
 20
-25.4791269842
 10
-3.2569667813
 20
-25.4690343074
 10
-3.2168229356
 20
-25.4573139672
 10
-3.1764967981
 20
-25.4439409737
 10
-3.1360385229
 20
-25.4289016716
 10
-3.1084740232
 20
-25.4177156738
  0
LINE
  5
23B
100
AcDbEntity
  8
RACCORDO
100
AcDbLine
 62
7
  6
CONTINUOUS
 10
-18.7768564589
 20
-17.9944501579
 11
-3.9429580494
 21
-25.4113993627
  0
LINE
  5
23C
100
AcDbEntity
  8
RACCORDO
100
AcDbLine
 62
7
  6
CONTINUOUS
 10
-3.9430452661
 20
-25.4113557452
 11
-3.942958376
 21
-25.4113991994
  0
LINE
  5
23D
100
AcDbEntity
  8
RACCORDO
100
AcDbLine
 62
253
  6
CONTINUOUS
 10
-19.1612729239
 20
-17.238376668
 11
-4.3364268463
 21
-24.6507997068
  0
LWPOLYLINE
  5
23E
100
AcDbEntity
  8
RACCORDO
100
AcDbPolyline
 62
253
  6
CONTINUOUS
 90
25
 70
0
 10
-18.7768564589
 20
-17.9944501579
 10
-18.8056230684
 20
-17.9789825768
 10
-18.8328943478
 20
-17.9621898744
 10
-18.859276403
 20
-17.9437724013
 10
-18.8847362614
 20
-17.9237531269
 10
-18.9092420247
 20
-17.9021570354
 10
-18.9327641539
 20
-17.8790104418
 10
-18.9552733226
 20
-17.8543420516
 10
-18.9767412398
 20
-17.8281826388
 10
-18.9971418359
 20
-17.8005644502
 10
-19.016449581
 20
-17.7715219152
 10
-19.0346403631
 20
-17.7410910572
 10
-19.051692299
 20
-17.7093091561
 10
-19.0675840859
 20
-17.6762156912
 10
-19.0822958234
 20
-17.6418517033
 10
-19.0958098645
 20
-17.6062591846
 10
-19.1081094584
 20
-17.5694818019
 10
-19.1191789821
 20
-17.5315655347
 10
-19.1290048191
 20
-17.4925580769
 10
-19.1375746215
 20
-17.4525086963
 10
-19.1448779183
 20
-17.4114662132
 10
-19.1509061921
 20
-17.3694795207
 10
-19.1556519708
 20
-17.3265998596
 10
-19.1591090213
 20
-17.2828808918
 10
-19.1612729239
 20
-17.238376668
  0
LINE
  5
23F
100
AcDbEntity
  8
RACCORDO
100
AcDbLine
 62
7
  6
CONTINUOUS
 10
-11.1640683539
 20
23.1735978437
 11
-10.6204406098
 21
23.8352452992
  0
LINE
  5
240
100
AcDbEntity
  8
0
100
AcDbLine
 62
7
  6
CONTINUOUS
 10
-10.2094741993
 20
18.9760017516
 11
-10.9368049464
 21
18.5656518111
  0
LINE
  5
241
100
AcDbEntity
  8
ASSI
100
AcDbLine
 62
7
  6
CONTINUOUS
 10
-2.4999534057
 20
24.5359557612
 11
-7.0982043621
 21
22.2695944637
  0
LINE
  5
242
100
AcDbEntity
  8
DRAFT
100
AcDbLine
 62
7
  6
CONTINUOUS
 10
-5.870123539
 20
21.6555540522
 11
-2.4510773742
 21
23.3285337313
  0
LINE
  5
243
100
AcDbEntity
  8
RACCORDO
100
AcDbLine
 62
7
  6
CONTINUOUS
 10
-0.3745193484
 20
23.9948435586
 11
-5.5165701484
 21
21.4787773569
  0
LWPOLYLINE
  5
244
100
AcDbEntity
  8
ASSI
100
AcDbPolyline
 62
7
  6
CONTINUOUS
 90
7
 70
0
 10
-2.4999534057
 20
24.5359557612
 10
-2.4917441464
 20
24.5398832463
 10
-2.4835601886
 20
24.5435683085
 10
-2.4754015326
 20
24.5470109478
 10
-2.4672681781
 20
24.5502111642
 10
-2.4591601253
 20
24.5531689577
 10
-2.4510773742
 20
24.5558843283
  0
LINE
  5
245
100
AcDbEntity
  8
RACCORDO
100
AcDbLine
 62
253
  6
CONTINUOUS
 10
2.7285169823
 20
-24.0756827558
 11
2.2002498105
 21
-23.9671804787
  0
LINE
  5
246
100
AcDbEntity
  8
RACCORDO
100
AcDbLine
 62
253
  6
CONTINUOUS
 10
2.6391031869
 20
-23.7561159498
 11
2.2002498105
 21
-23.6659786231
  0
LWPOLYLINE
  5
247
100
AcDbEntity
  8
RACCORDO
100
AcDbPolyline
 62
253
  6
CONTINUOUS
 90
31
 70
0
 10
0.24644706
 20
-25.473747207
 10
0.2559050782
 20
-25.4782357406
 10
0.2658183152
 20
-25.4824715869
 10
0.2761598004
 20
-25.4864432216
 10
0.286901398
 20
-25.4901398391
 10
0.2980138836
 20
-25.4935513822
 10
0.309467024
 20
-25.4966685693
 10
0.3212296588
 20
-25.4994829193
 10
0.3332697859
 20
-25.5019867756
 10
0.3455546479
 20
-25.5041733258
 10
0.358050822
 20
-25.5060366211
 10
0.37072431
 20
-25.5075715922
 10
0.3835406317
 20
-25.5087740627
 10
0.3964649181
 20
-25.5096407613
 10
0.4094620064
 20
-25.5101693299
 10
0.4224965358
 20
-25.5103583305
 10
0.4355330438
 20
-25.5102072488
 10
0.4485360623
 20
-25.5097164959
 10
0.4614702144
 20
-25.508887407
 10
0.4743003105
 20
-25.5077222378
 10
0.4869914442
 20
-25.5062241582
 10
0.499509087
 20
-25.5043972441
 10
0.5118191827
 20
-25.5022464659
 10
0.5238882395
 20
-25.4997776751
 10
0.5356834216
 20
-25.4969975886
 10
0.547172638
 20
-25.49391377
 10
0.5583246305
 20
-25.4905346093
 10
0.5691090582
 20
-25.4868693002
 10
0.5794965801
 20
-25.4829278148
 10
0.5894589354
 20
-25.4787208764
 10
0.5989690197
 20
-25.4742599309
  0
LWPOLYLINE
  5
248
100
AcDbEntity
  8
RACCORDO
100
AcDbPolyline
 62
253
  6
CONTINUOUS
 90
31
 70
0
 10
0.24644706
 20
-25.1337732729
 10
0.2559050782
 20
-25.1382618065
 10
0.2658183152
 20
-25.1424976528
 10
0.2761598004
 20
-25.1464692875
 10
0.286901398
 20
-25.150165905
 10
0.2980138836
 20
-25.1535774481
 10
0.309467024
 20
-25.1566946351
 10
0.3212296588
 20
-25.1595089852
 10
0.3332697859
 20
-25.1620128415
 10
0.3455546479
 20
-25.1641993917
 10
0.358050822
 20
-25.166062687
 10
0.37072431
 20
-25.167597658
 10
0.3835406317
 20
-25.1688001286
 10
0.3964649181
 20
-25.1696668272
 10
0.4094620064
 20
-25.1701953958
 10
0.4224965358
 20
-25.1703843964
 10
0.4355330438
 20
-25.1702333147
 10
0.4485360623
 20
-25.1697425618
 10
0.4614702144
 20
-25.1689134729
 10
0.4743003105
 20
-25.1677483037
 10
0.4869914442
 20
-25.1662502241
 10
0.499509087
 20
-25.16442331
 10
0.5118191827
 20
-25.1622725318
 10
0.5238882395
 20
-25.159803741
 10
0.5356834216
 20
-25.1570236545
 10
0.547172638
 20
-25.1539398359
 10
0.5583246305
 20
-25.1505606752
 10
0.5691090582
 20
-25.1468953661
 10
0.5794965801
 20
-25.1429538806
 10
0.5894589354
 20
-25.1387469423
 10
0.5989690197
 20
-25.1342859967
  0
LWPOLYLINE
  5
249
100
AcDbEntity
  8
RACCORDO
100
AcDbPolyline
 62
7
  6
CONTINUOUS
 90
19
 70
0
 10
0.311420429
 20
-25.6089656934
 10
0.3200708994
 20
-25.6130856437
 10
0.3319072055
 20
-25.6180846373
 10
0.3440057051
 20
-25.6224759201
 10
0.3563372414
 20
-25.6262451277
 10
0.3688683209
 20
-25.6293782986
 10
0.3815699652
 20
-25.6318643598
 10
0.3944098912
 20
-25.6336928305
 10
0.4073531352
 20
-25.6348545976
 10
0.4203657866
 20
-25.6353425229
 10
0.433412655
 20
-25.6351511457
 10
0.4464581788
 20
-25.634276841
 10
0.4594672148
 20
-25.6327177315
 10
0.4724055244
 20
-25.6304734317
 10
0.485234639
 20
-25.627546081
 10
0.4979129906
 20
-25.6239411683
 10
0.5104040036
 20
-25.6196655052
 10
0.5226721036
 20
-25.6147276149
 10
0.5327074845
 20
-25.6101105291
  0
LINE
  5
24A
100
AcDbEntity
  8
RACCORDO
100
AcDbLine
 62
7
  6
CONTINUOUS
 10
-1.0135643234
 20
-24.9464733172
 11
0.3114203565
 21
-25.6089656571
  0
LINE
  5
24B
100
AcDbEntity
  8
RACCORDO
100
AcDbLine
 62
253
  6
CONTINUOUS
 10
-1.0785376198
 20
-24.8112548671
 11
0.24644706
 21
-25.473747207
  0
LINE
  5
24C
100
AcDbEntity
  8
RACCORDO
100
AcDbLine
 62
253
  6
CONTINUOUS
 10
0.24644706
 20
-25.1337732729
 11
-0.9759563103
 21
-24.5225715877
  0
LINE
  5
24D
100
AcDbEntity
  8
RACCORDO
100
AcDbLine
 62
253
  6
CONTINUOUS
 10
0.3348354077
 20
-24.9020790991
 11
-0.6759992202
 21
-24.3966617851
  0
LWPOLYLINE
  5
24E
100
AcDbEntity
  8
RACCORDO
100
AcDbPolyline
 62
253
  6
CONTINUOUS
 90
16
 70
0
 10
-1.0785376198
 20
-24.8112548671
 10
-1.087514687
 20
-24.806525858
 10
-1.0959863796
 20
-24.8015692395
 10
-1.103929649
 20
-24.7963984969
 10
-1.111322884
 20
-24.7910276981
 10
-1.1181459703
 20
-24.7854714553
 10
-1.1243803443
 20
-24.7797448851
 10
-1.1300090445
 20
-24.7738635677
 10
-1.1350167569
 20
-24.7678435042
 10
-1.1393898574
 20
-24.7617010732
 10
-1.1431164481
 20
-24.7554529861
 10
-1.1461863901
 20
-24.7491162421
 10
-1.1485913312
 20
-24.7427080813
 10
-1.1503247284
 20
-24.7362459381
 10
-1.1513818656
 20
-24.7297473939
 10
-1.1517609245
 20
-24.7228665194
  0
LWPOLYLINE
  5
24F
100
AcDbEntity
  8
RACCORDO
100
AcDbPolyline
 62
253
  6
CONTINUOUS
 90
17
 70
0
 10
-19.3075474301
 20
-17.064677759
 10
-19.3062254106
 20
-17.0769909403
 10
-19.3037997075
 20
-17.0892309076
 10
-19.3002756945
 20
-17.1013705457
 10
-19.2956611785
 20
-17.1133829614
 10
-19.2899663821
 20
-17.1252415435
 10
-19.2832039209
 20
-17.1369200214
 10
-19.275388776
 20
-17.1483925239
 10
-19.2665382603
 20
-17.1596336356
 10
-19.2566719805
 20
-17.170618454
 10
-19.2458117935
 20
-17.1813226443
 10
-19.233981758
 20
-17.1917224933
 10
-19.2212080812
 20
-17.2017949622
 10
-19.2075190608
 20
-17.2115177374
 10
-19.1929450222
 20
-17.2208692797
 10
-19.1775182515
 20
-17.2298288727
 10
-19.1612729238
 20
-17.238376668
  0
LWPOLYLINE
  5
250
100
AcDbEntity
  8
RACCORDO
100
AcDbPolyline
 62
7
  6
CONTINUOUS
 90
27
 70
0
 10
-19.3077366536
 20
-17.0607285205
 10
-19.3059754092
 20
-17.0988124574
 10
-19.3020689113
 20
-17.1498527351
 10
-19.2964352131
 20
-17.1999851706
 10
-19.2890842336
 20
-17.2492031275
 10
-19.2800334973
 20
-17.2974501893
 10
-19.2693159228
 20
-17.3446140014
 10
-19.2569524711
 20
-17.3906713821
 10
-19.2429665424
 20
-17.4355890614
 10
-19.2274151297
 20
-17.4792418458
 10
-19.2103332358
 20
-17.5216024727
 10
-19.1917572692
 20
-17.5626435283
 10
-19.1717731749
 20
-17.6022433819
 10
-19.1504505946
 20
-17.6403483943
 10
-19.1278293799
 20
-17.6769669411
 10
-19.1039703858
 20
-17.7120693482
 10
-19.0789571002
 20
-17.7456036776
 10
-19.0528341835
 20
-17.777580456
 10
-19.0256038944
 20
-17.8080497048
 10
-18.9973299247
 20
-17.8369815065
 10
-18.9680741955
 20
-17.8643552937
 10
-18.9378262777
 20
-17.8902142287
 10
-18.9066499297
 20
-17.9145276901
 10
-18.8746072445
 20
-17.9372713993
 10
-18.8416758732
 20
-17.9584789719
 10
-18.8078876877
 20
-17.9781373784
 10
-18.7767270896
 20
-17.9945148148
  0
LWPOLYLINE
  5
251
100
AcDbEntity
  8
RACCORDO
100
AcDbPolyline
 62
253
  6
CONTINUOUS
 90
22
 70
0
 10
-19.1612729239
 20
-17.238376668
 10
-19.2145794644
 20
-15.5708365233
 10
-19.2625577038
 20
-13.9002903571
 10
-19.3052068928
 20
-12.2267638173
 10
-19.3425263568
 20
-10.5502826046
 10
-19.3745155216
 20
-8.8708724482
 10
-19.4011739143
 20
-7.1885591053
 10
-19.4225011227
 20
-5.5033683969
 10
-19.4384968095
 20
-3.815326196
 10
-19.449160738
 20
-2.124458403
 10
-19.454492746
 20
-0.4307909731
 10
-19.454492746
 20
1.265650098
 10
-19.449160738
 20
2.9648387862
 10
-19.4384968095
 20
4.6667490168
 10
-19.4225011227
 20
6.3713546637
 10
-19.4011739143
 20
8.0786295638
 10
-19.3745155216
 20
9.7885475155
 10
-19.3425263568
 20
11.5010822769
 10
-19.3052068928
 20
13.2162075655
 10
-19.2625577038
 20
14.9338970607
 10
-19.2145794644
 20
16.6541244044
 10
-19.1612729239
 20
18.3768631996
  0
LWPOLYLINE
  5
252
100
AcDbEntity
  8
RACCORDO
100
AcDbPolyline
 62
7
  6
CONTINUOUS
 90
22
 70
0
 10
-19.3077553468
 20
18.5519067487
 10
-19.360710568
 20
16.8410628595
 10
-19.408753099
 20
15.1197093003
 10
-19.4514593846
 20
13.4008906674
 10
-19.4888285994
 20
11.6846365633
 10
-19.5208602038
 20
9.9709727018
 10
-19.54755373
 20
8.2599232384
 10
-19.5689087179
 20
6.5515135975
 10
-19.5849248405
 20
4.8457701738
 10
-19.5956018105
 20
3.1427185869
 10
-19.6009393718
 20
1.4423846378
 10
-19.6009374322
 20
-0.2552050733
 10
-19.5955959499
 20
-1.9500237294
 10
-19.5849149339
 20
-3.6420447802
 10
-19.5688945572
 20
-5.3312426479
 10
-19.5475350232
 20
-7.0175919756
 10
-19.5208365754
 20
-8.7010666664
 10
-19.4887995906
 20
-10.3816417326
 10
-19.4514244525
 20
-12.0592934724
 10
-19.4087116174
 20
-13.7339966844
 10
-19.3606618275
 20
-15.4057225653
 10
-19.3077367254
 20
-17.0607297065
  0
LWPOLYLINE
  5
253
100
AcDbEntity
  8
RACCORDO
100
AcDbPolyline
 62
253
  6
CONTINUOUS
 90
43
 70
0
 10
-19.1612729239
 20
18.3768631996
 10
-19.1591090349
 20
18.4235822785
 10
-19.1556520056
 20
18.4708394898
 10
-19.1509062503
 20
18.5185763658
 10
-19.1448779931
 20
18.5667332485
 10
-19.1375747026
 20
18.6152511925
 10
-19.1290049046
 20
18.6640720831
 10
-19.1191790758
 20
18.7131367176
 10
-19.1081095609
 20
18.762383391
 10
-19.0958099773
 20
18.8117498207
 10
-19.0822959503
 20
18.861174501
 10
-19.0675842297
 20
18.9105969176
 10
-19.0516924567
 20
18.9599561695
 10
-19.0346405266
 20
19.0091914285
 10
-19.0164497453
 20
19.0582417993
 10
-18.9971420016
 20
19.1070465171
 10
-18.9767414107
 20
19.1555455372
 10
-18.9552735005
 20
19.2036788096
 10
-18.9327643401
 20
19.2513861434
 10
-18.9092422219
 20
19.2986085587
 10
-18.8847364717
 20
19.3452879386
 10
-18.8592766241
 20
19.3913662998
 10
-18.8328945742
 20
19.4367868451
 10
-18.8056232971
 20
19.4814935467
 10
-18.7774956644
 20
19.5254307952
 10
-18.7485468103
 20
19.5685445835
 10
-18.7188130099
 20
19.6107816116
 10
-18.6883303987
 20
19.6520888807
 10
-18.6571372793
 20
19.6924153914
 10
-18.6252725615
 20
19.7317116211
 10
-18.5927746349
 20
19.7699286226
 10
-18.5596842516
 20
19.8070193045
 10
-18.5260427519
 20
19.842938068
 10
-18.4918905011
 20
19.8776402603
 10
-18.4572698711
 20
19.9110835401
 10
-18.4222245375
 20
19.9432263454
 10
-18.3867977195
 20
19.9740276009
 10
-18.3510345915
 20
20.0034488866
 10
-18.3149791339
 20
20.0314548328
 10
-18.2786733981
 20
20.0580114252
 10
-18.2421617762
 20
20.0830860398
 10
-18.2054909833
 20
20.1066476843
 10
-18.1687069139
 20
20.1286673555
  0
LWPOLYLINE
  5
254
100
AcDbEntity
  8
RACCORDO
100
AcDbPolyline
 62
253
  6
CONTINUOUS
 90
23
 70
0
 10
-18.2484735008
 20
17.980221554
 10
-18.2440665094
 20
18.058813413
 10
-18.2358964509
 20
18.1395644927
 10
-18.2238857387
 20
18.2222249379
 10
-18.2079539949
 20
18.3066064174
 10
-18.1880636647
 20
18.3923374922
 10
-18.1642574957
 20
18.4788602433
 10
-18.1365493739
 20
18.5658622113
 10
-18.1049797959
 20
18.652988227
 10
-18.0697267593
 20
18.7396005064
 10
-18.0309040825
 20
18.825337466
 10
-17.9886299652
 20
18.9098632393
 10
-17.9431771616
 20
18.9925961272
 10
-17.8947257195
 20
19.0732068776
 10
-17.8434672123
 20
19.1513753258
 10
-17.7897601772
 20
19.2265817367
 10
-17.7338281002
 20
19.2985643272
 10
-17.6759178274
 20
19.3670542856
 10
-17.6164744715
 20
19.4316024314
 10
-17.5557693512
 20
19.492017725
 10
-17.4940530624
 20
19.5481509324
 10
-17.4317673608
 20
19.599718928
 10
-17.3692332374
 20
19.6466008541
  0
LWPOLYLINE
  5
255
100
AcDbEntity
  8
RACCORDO
100
AcDbPolyline
 62
7
  6
CONTINUOUS
 90
22
 70
0
 10
-18.3217098626
 20
18.0678913609
 10
-18.3161365162
 20
18.1599871985
 10
-18.3055369929
 20
18.2530252823
 10
-18.290040196
 20
18.3466402908
 10
-18.2697744131
 20
18.4404980954
 10
-18.2448790757
 20
18.5342309549
 10
-18.2155217744
 20
18.6274138233
 10
-18.1818831464
 20
18.7196416688
 10
-18.1441169528
 20
18.8106116539
 10
-18.1023696758
 20
18.9000329474
 10
-18.0568159081
 20
18.9875571634
 10
-18.007637208
 20
19.0728403776
 10
-17.9549864686
 20
19.1555965534
 10
-17.8990342915
 20
19.235510361
 10
-17.839988205
 20
19.3122248365
 10
-17.7780473861
 20
19.3854112023
 10
-17.7133711827
 20
19.4547918529
 10
-17.6461997524
 20
19.5200065058
 10
-17.5768410513
 20
19.5806605776
 10
-17.5055299229
 20
19.6364557227
 10
-17.4324453021
 20
19.687141902
 10
-17.3578103421
 20
19.7324351455
  0
LWPOLYLINE
  5
256
100
AcDbEntity
  8
RACCORDO
100
AcDbPolyline
 62
253
  6
CONTINUOUS
 90
27
 70
0
 10
-12.7653491447
 20
22.8474772249
 10
-12.7702331619
 20
22.8355085667
 10
-12.7755837653
 20
22.8238153626
 10
-12.7813863437
 20
22.8124295443
 10
-12.7876250513
 20
22.8013822041
 10
-12.7942828517
 20
22.79070351
 10
-12.8013415636
 20
22.7804226232
 10
-12.8087819113
 20
22.7705676187
 10
-12.8165835768
 20
22.7611654085
 10
-12.8247252553
 20
22.7522416679
 10
-12.8331847135
 20
22.743820766
 10
-12.8419388506
 20
22.7359256983
 10
-12.8509637607
 20
22.7285780248
 10
-12.8602347988
 20
22.7217978103
 10
-12.8697266475
 20
22.7156035701
 10
-12.8794133867
 20
22.7100122196
 10
-12.8892685638
 20
22.7050390273
 10
-12.8992652664
 20
22.7006975742
 10
-12.9093761957
 20
22.6969997159
 10
-12.9195737407
 20
22.6939555503
 10
-12.9298300543
 20
22.6915733904
 10
-12.9401171284
 20
22.6898597415
 10
-12.9504068712
 20
22.6888192832
 10
-12.9606711837
 20
22.6884548567
 10
-12.9708820361
 20
22.6887674573
 10
-12.9810115447
 20
22.6897562312
 10
-12.991032048
 20
22.6914184783
  0
LINE
  5
257
100
AcDbEntity
  8
0
100
AcDbLine
 62
7
  6
CONTINUOUS
 10
-1.0335150997
 20
23.1347707447
 11
-4.931036012
 21
21.1860102886
  0
LINE
  5
258
100
AcDbEntity
  8
ASSI
100
AcDbLine
 62
7
  6
CONTINUOUS
 10
-18.4475531771
 20
13.7411908207
 11
-18.5933428472
 21
13.6682959856
  0
LWPOLYLINE
  5
259
100
AcDbEntity
  8
ASSI
100
AcDbPolyline
 62
7
  6
CONTINUOUS
 90
16
 70
0
 10
2.4986700941
 20
22.0810105941
 10
2.5108029231
 20
22.0844969563
 10
2.5235199121
 20
22.0872185984
 10
2.5368150057
 20
22.0891587
 10
2.5506884009
 20
22.0903147863
 10
2.5651226158
 20
22.0906547394
 10
2.5800800874
 20
22.0901185323
 10
2.5955437039
 20
22.088682983
 10
2.6114970042
 20
22.0863397998
 10
2.6278969951
 20
22.0830543691
 10
2.6446822349
 20
22.0788221336
 10
2.661865573
 20
22.0736218828
 10
2.6795157795
 20
22.0673899721
 10
2.6976155182
 20
22.060109671
 10
2.7161307856
 20
22.0517597145
 10
2.7252375205
 20
22.0473191605
  0
LWPOLYLINE
  5
25A
100
AcDbEntity
  8
RACCORDO
100
AcDbPolyline
 62
253
  6
CONTINUOUS
 90
5
 70
0
 10
2.6625119122
 20
-23.7642001632
 10
2.6609382128
 20
-23.7634317482
 10
2.6539105129
 20
-23.7604255427
 10
2.6466261313
 20
-23.7579849197
 10
2.6391031869
 20
-23.7561159498
  0
LWPOLYLINE
  5
25B
100
AcDbEntity
  8
RACCORDO
100
AcDbPolyline
 62
7
  6
CONTINUOUS
 90
34
 70
0
 10
0.9576676681
 20
-24.1572767957
 10
0.9671174287
 20
-24.1619812146
 10
0.9769751638
 20
-24.1667365465
 10
0.9872082965
 20
-24.1715349881
 10
0.9977936183
 20
-24.1763838256
 10
1.0086888526
 20
-24.1812626008
 10
1.0198296451
 20
-24.1861256292
 10
1.0311678443
 20
-24.1909694598
 10
1.0426802181
 20
-24.1957960511
 10
1.054338217
 20
-24.200571205
 10
1.0661083652
 20
-24.205296236
 10
1.0779583431
 20
-24.2099725665
 10
1.0898631043
 20
-24.2145665724
 10
1.1017919811
 20
-24.2190812244
 10
1.1137154219
 20
-24.2235201748
 10
1.1256117562
 20
-24.2278509541
 10
1.1374533674
 20
-24.2320779221
 10
1.1492135093
 20
-24.2362064136
 10
1.1608733399
 20
-24.2402053655
 10
1.1724082857
 20
-24.2440802809
 10
1.183794416
 20
-24.2478377788
 10
1.1950151642
 20
-24.2514483244
 10
1.2060489017
 20
-24.2549183516
 10
1.2168744936
 20
-24.2582554835
 10
1.2274772424
 20
-24.2614318091
 10
1.2378383483
 20
-24.2644545067
 10
1.2479394535
 20
-24.2673320099
 10
1.2577675346
 20
-24.2700381589
 10
1.2673065145
 20
-24.2725807057
 10
1.2765408149
 20
-24.2749687529
 10
1.2854591181
 20
-24.277178073
 10
1.2940487851
 20
-24.2792064477
 10
1.3022961654
 20
-24.2810738714
 10
1.3101896278
 20
-24.2827895196
  0
LINE
  5
25C
100
AcDbEntity
  8
RACCORDO
100
AcDbLine
 62
7
  6
CONTINUOUS
 10
0.4723646399
 20
-23.9146252816
 11
0.9571534398
 21
-24.1570196816
  0
LINE
  5
25D
100
AcDbEntity
  8
RACCORDO
100
AcDbLine
 62
253
  6
CONTINUOUS
 10
2.2002498105
 20
-23.5366892616
 11
2.6391031869
 21
-23.7561159498
  0
LINE
  5
25E
100
AcDbEntity
  8
RACCORDO
100
AcDbLine
 62
7
  6
CONTINUOUS
 10
2.2002498105
 20
-23.5330691121
 11
2.6625182381
 21
-23.7642033259
  0
LWPOLYLINE
  5
25F
100
AcDbEntity
  8
RACCORDO
100
AcDbPolyline
 62
253
  6
CONTINUOUS
 90
9
 70
0
 10
-18.3217098626
 20
18.0678913609
 10
-18.3213924871
 20
18.0597662007
 10
-18.3186474188
 20
18.0473442179
 10
-18.3131983295
 20
18.035057029
 10
-18.3051049158
 20
18.0230392565
 10
-18.29445585
 20
18.0114225739
 10
-18.2813678049
 20
18.0003342583
 10
-18.2659841734
 20
17.9898957958
 10
-18.2484735008
 20
17.9802215538
  0
LWPOLYLINE
  5
260
100
AcDbEntity
  8
RACCORDO
100
AcDbPolyline
 62
7
  6
CONTINUOUS
 90
4
 70
0
 10
-18.4480726202
 20
13.7206369841
 10
-18.447281559
 20
13.6945930238
 10
-18.4442035869
 20
13.6688703221
 10
-18.438869271
 20
13.6442115146
  0
LWPOLYLINE
  5
261
100
AcDbEntity
  8
RACCORDO
100
AcDbPolyline
 62
253
  6
CONTINUOUS
 90
18
 70
0
 10
-19.3077554461
 20
18.5518982297
 10
-19.3075472455
 20
18.5405049209
 10
-19.3062252201
 20
18.5293309236
 10
-19.3037995119
 20
18.5181709976
 10
-19.3002754946
 20
18.5070498658
 10
-19.2956609749
 20
18.4959921648
 10
-19.2899661755
 20
18.4850223908
 10
-19.283203712
 20
18.4741648454
 10
-19.2753885656
 20
18.4634435814
 10
-19.266538049
 20
18.4528823498
 10
-19.2566717691
 20
18.4425045468
 10
-19.2458115826
 20
18.4323331627
 10
-19.2339815483
 20
18.4223907301
 10
-19.2212078733
 20
18.4126992747
 10
-19.2075188554
 20
18.403280266
 10
-19.1929448199
 20
18.3941545701
 10
-19.1775180529
 20
18.3853424032
 10
-19.1612727295
 20
18.376863287
  0
LWPOLYLINE
  5
262
100
AcDbEntity
  8
RACCORDO
100
AcDbPolyline
 62
253
  6
CONTINUOUS
 90
13
 70
0
 10
-16.958221636
 20
2.5685474559
 10
-16.9616275575
 20
1.9894003031
 10
-16.9644357018
 20
1.4018070295
 10
-16.9666170994
 20
0.8057829887
 10
-16.9681382338
 20
0.2036479868
 10
-16.9689786963
 20
-0.406888784
 10
-16.9691046555
 20
-1.0327155317
 10
-16.9684596451
 20
-1.6746583704
 10
-16.9669859023
 20
-2.3318312796
 10
-16.9646055396
 20
-3.0085328988
 10
-16.9612334856
 20
-3.7061650478
 10
-16.9567954416
 20
-4.4232417425
 10
-16.951210138
 20
-5.1597196154
  0
LWPOLYLINE
  5
263
100
AcDbEntity
  8
ASSI
100
AcDbPolyline
 62
7
  6
CONTINUOUS
 90
10
 70
0
 10
-18.5933428472
 20
13.6682959856
 10
-18.5809551426
 20
14.1520779275
 10
-18.5681371691
 20
14.6360568658
 10
-18.5548889269
 20
15.1202328004
 10
-18.5412103983
 20
15.6046063401
 10
-18.527101601
 20
16.0891768762
 10
-18.5125625878
 20
16.573942582
 10
-18.4975933765
 20
17.0589028485
 10
-18.4821939493
 20
17.5440582848
 10
-18.4663643064
 20
18.0294088908
  0
LWPOLYLINE
  5
264
100
AcDbEntity
  8
RACCORDO
100
AcDbPolyline
 62
253
  6
CONTINUOUS
 90
10
 70
0
 10
-18.3742884688
 20
13.6549962206
 10
-18.3620018253
 20
14.1348058481
 10
-18.3492919483
 20
14.6148092608
 10
-18.336158856
 20
15.0950058826
 10
-18.3226025784
 20
15.5753947358
 10
-18.3086231241
 20
16.0559756445
 10
-18.2942204759
 20
16.536749236
 10
-18.2793946383
 20
17.017715336
 10
-18.2641456406
 20
17.4988729674
 10
-18.2484735008
 20
17.980221554
  0
LWPOLYLINE
  5
265
100
AcDbEntity
  8
RACCORDO
100
AcDbPolyline
 62
7
  6
CONTINUOUS
 90
10
 70
0
 10
-18.3217098626
 20
18.0678913608
 10
-18.3376066144
 20
17.5795493921
 10
-18.3530678259
 20
17.0914036214
 10
-18.3680934777
 20
16.6034546499
 10
-18.3826835509
 20
16.1157030799
 10
-18.396838027
 20
15.6281495114
 10
-18.4105568883
 20
15.140794542
 10
-18.4238401174
 20
14.6536387715
 10
-18.4366876976
 20
14.1666828008
 10
-18.4480780107
 20
13.720638348
  0
LINE
  5
266
100
AcDbEntity
  8
0
100
AcDbLine
 62
7
  6
CONTINUOUS
 10
-5.9668335122
 20
16.854681408
 11
-6.6941642593
 21
16.4443314675
  0
LINE
  5
267
100
AcDbEntity
  8
RACCORDO
100
AcDbLine
 62
7
  6
CONTINUOUS
 10
-2.5768467212
 20
18.948703131
 11
-2.2191675719
 21
19.1280076758
  0
LINE
  5
268
100
AcDbEntity
  8
ASSI
100
AcDbLine
 62
7
  6
CONTINUOUS
 10
-2.2191675719
 20
19.1280076758
 11
3.0553244972
 21
21.7583168097
  0
LINE
  5
269
100
AcDbEntity
  8
DRAFT
100
AcDbLine
 62
7
  6
CONTINUOUS
 10
-2.2191675719
 20
17.9155721105
 11
3.1056664983
 21
20.5519035424
  0
LINE
  5
26A
100
AcDbEntity
  8
ASSI
100
AcDbLine
 62
7
  6
CONTINUOUS
 10
2.4497940626
 20
22.061082027
 11
-2.1484568938
 21
19.7947207295
  0
LINE
  5
26B
100
AcDbEntity
  8
RACCORDO
100
AcDbLine
 62
7
  6
CONTINUOUS
 10
3.8681213387
 20
21.873523215
 11
3.2292605622
 21
21.5609210899
  0
LWPOLYLINE
  5
26C
100
AcDbEntity
  8
ASSI
100
AcDbPolyline
 62
7
  6
CONTINUOUS
 90
7
 70
0
 10
2.4497940626
 20
22.061082027
 10
2.458003322
 20
22.0650095121
 10
2.4661872797
 20
22.0686945743
 10
2.4743459358
 20
22.0721372136
 10
2.4824792902
 20
22.07533743
 10
2.490587343
 20
22.0782952235
 10
2.4986700941
 20
22.0810105941
  0
LWPOLYLINE
  5
26D
100
AcDbEntity
  8
RACCORDO
100
AcDbPolyline
 62
7
  6
CONTINUOUS
 90
18
 70
0
 10
3.8681213387
 20
21.873523215
 10
3.8964958595
 20
21.8867051718
 10
3.9247303115
 20
21.8984395636
 10
3.9528246947
 20
21.9087263903
 10
3.9808290078
 20
21.9175785249
 10
4.0086932521
 20
21.9249830944
 10
4.0362674317
 20
21.93090148
 10
4.0635365603
 20
21.9353249013
 10
4.0905156244
 20
21.9382621387
 10
4.117099587
 20
21.9397009146
 10
4.1433045458
 20
21.939633778
 10
4.1691144033
 20
21.9380681801
 10
4.1943758296
 20
21.9350141966
 10
4.2190655829
 20
21.9304684122
 10
4.243206905
 20
21.9244342424
 10
4.2667161913
 20
21.9169320096
 10
4.2896119715
 20
21.907946595
 10
4.3091740558
 20
21.8988568619
  0
LINE
  5
26E
100
AcDbEntity
  8
RACCORDO
100
AcDbLine
 62
7
  6
CONTINUOUS
 10
-3.1405140239
 20
18.8164254667
 11
-3.2394723874
 21
18.7871138087
  0
LWPOLYLINE
  5
26F
100
AcDbEntity
  8
RACCORDO
100
AcDbPolyline
 62
7
  6
CONTINUOUS
 90
4
 70
0
 10
-3.2394723874
 20
18.7871138087
 10
-3.2612919441
 20
18.7807864574
 10
-3.2717413766
 20
18.7778263221
 10
-3.2818906405
 20
18.7750237062
  0
LWPOLYLINE
  5
270
100
AcDbEntity
  8
RACCORDO
100
AcDbPolyline
 62
253
  6
CONTINUOUS
 90
3
 70
0
 10
-14.9713111506
 20
-6.1496691091
 10
-14.9701243021
 20
-6.2904699879
 10
-14.9580254381
 20
-7.5300279793
  0
LINE
  5
271
100
AcDbEntity
  8
SMUSSO
100
AcDbLine
 62
7
  6
CONTINUOUS
 10
-15.5834857363
 20
20.8352649457
 11
-15.5834857363
 21
20.7334845295
  0
LINE
  5
272
100
AcDbEntity
  8
DRAFT
100
AcDbLine
 62
7
  6
CONTINUOUS
 10
-15.4774197191
 20
1.619282962
 11
-15.4774197191
 21
-4.337528749
  0
LINE
  5
273
100
AcDbEntity
  8
IMPORT_IGES
100
AcDbLine
 62
253
  6
CONTINUOUS
 10
-15.0531556504
 20
-4.2668180709
 11
-15.0531556504
 21
1.4071509276
  0
LWPOLYLINE
  5
274
100
AcDbEntity
  8
RACCORDO
100
AcDbPolyline
 62
253
  6
CONTINUOUS
 90
10
 70
0
 10
-16.2574522471
 20
2.0092992259
 10
-16.260357994
 20
1.4421282193
 10
-16.2628975704
 20
0.7386616541
 10
-16.2644557935
 20
0.0189767077
 10
-16.2651281809
 20
-0.7137439604
 10
-16.264819215
 20
-1.4626830097
 10
-16.2632423424
 20
-2.2373884185
 10
-16.2603020454
 20
-3.0410428462
 10
-16.2560938418
 20
-3.8704636334
 10
-16.2506177315
 20
-4.72565078
  0
LWPOLYLINE
  5
275
100
AcDbEntity
  8
RACCORDO
100
AcDbPolyline
 62
253
  6
CONTINUOUS
 90
31
 70
0
 10
-14.4428557842
 20
23.8504562228
 10
-14.442615203
 20
23.8618681322
 10
-14.4418941118
 20
23.8734895888
 10
-14.44069447
 20
23.8852889619
 10
-14.4390195375
 20
23.8972341485
 10
-14.436873871
 20
23.9092926236
 10
-14.4342633163
 20
23.9214315274
 10
-14.4311949829
 20
23.9336178095
 10
-14.4276772216
 20
23.945818309
 10
-14.4237196124
 20
23.9579998059
 10
-14.4193329305
 20
23.9701291415
 10
-14.4145291174
 20
23.9821733036
 10
-14.4093212528
 20
23.9940995056
 10
-14.4037235074
 20
24.0058753003
 10
-14.3977511258
 20
24.0174686227
 10
-14.3914203915
 20
24.0288478749
 10
-14.3847485706
 20
24.0399820427
 10
-14.3777538023
 20
24.0508408742
 10
-14.3704550654
 20
24.0613949102
 10
-14.3628721228
 20
24.071615553
 10
-14.3550257045
 20
24.0814748419
 10
-14.3469374132
 20
24.0909456581
 10
-14.3386294454
 20
24.1000020861
 10
-14.330124273
 20
24.1086197028
 10
-14.3214448103
 20
24.1167753166
 10
-14.3126127198
 20
24.1244483651
 10
-14.3036539368
 20
24.1316161127
 10
-14.2945985999
 20
24.1382550193
 10
-14.2854734311
 20
24.1443468166
 10
-14.2763014266
 20
24.149877464
 10
-14.2671075282
 20
24.1548330377
  0
LINE
  5
276
100
AcDbEntity
  8
RACCORDO
100
AcDbLine
 62
7
  6
CONTINUOUS
 10
-2.2191675719
 20
17.9155721105
 11
-2.5768467212
 21
17.7159761587
  0
LINE
  5
277
100
AcDbEntity
  8
RACCORDO
100
AcDbLine
 62
7
  6
CONTINUOUS
 10
0.567296665
 20
18.2913189779
 11
-1.01587503
 21
17.4791219306
  0
LINE
  5
278
100
AcDbEntity
  8
RACCORDO
100
AcDbLine
 62
253
  6
CONTINUOUS
 10
0.6799672393
 20
18.2846580528
 11
-0.9027893638
 21
17.4726739555
  0
LINE
  5
279
100
AcDbEntity
  8
RACCORDO
100
AcDbLine
 62
253
  6
CONTINUOUS
 10
2.0234761068
 20
17.6129036191
 11
0.422195316
 21
16.8101816156
  0
LINE
  5
27A
100
AcDbEntity
  8
RACCORDO
100
AcDbLine
 62
7
  6
CONTINUOUS
 10
0.5690350505
 20
18.2921882107
 11
0.5672986387
 21
18.2913199905
  0
LINE
  5
27B
100
AcDbEntity
  8
RACCORDO
100
AcDbLine
 62
253
  6
CONTINUOUS
 10
2.5517432786
 20
17.8763424391
 11
2.0234761068
 21
17.6129036191
  0
LINE
  5
27C
100
AcDbEntity
  8
RACCORDO
100
AcDbLine
 62
7
  6
CONTINUOUS
 10
1.1039050069
 20
18.5527403105
 11
0.5690378161
 21
18.2921895579
  0
LINE
  5
27D
100
AcDbEntity
  8
RACCORDO
100
AcDbLine
 62
253
  6
CONTINUOUS
 10
1.214417118
 20
18.5450055194
 11
0.6799672393
 21
18.2846580528
  0
LINE
  5
27E
100
AcDbEntity
  8
RACCORDO
100
AcDbLine
 62
7
  6
CONTINUOUS
 10
6.9350872827
 20
20.3400402431
 11
2.2515504031
 21
18.0884162478
  0
LWPOLYLINE
  5
27F
100
AcDbEntity
  8
RACCORDO
100
AcDbPolyline
 62
7
  6
CONTINUOUS
 90
18
 70
0
 10
1.1039050069
 20
18.5527403105
 10
1.1161259667
 20
18.5582926766
 10
1.1287550903
 20
18.5632271167
 10
1.1417538895
 20
18.5675057457
 10
1.15509914
 20
18.5710983196
 10
1.1687248693
 20
18.5739665468
 10
1.1825238281
 20
18.5760760187
 10
1.1964228102
 20
18.5774122668
 10
1.2103922315
 20
18.5779706544
 10
1.2243930831
 20
18.5777463015
 10
1.2383665473
 20
18.5767376952
 10
1.2522723026
 20
18.5749462277
 10
1.2661057425
 20
18.5723672354
 10
1.2798738039
 20
18.5689859732
 10
1.2934748529
 20
18.5648138747
 10
1.3067606834
 20
18.5598973636
 10
1.3196948388
 20
18.5542605734
 10
1.3251980825
 20
18.5515924078
  0
LINE
  5
280
100
AcDbEntity
  8
RACCORDO
100
AcDbLine
 62
7
  6
CONTINUOUS
 10
7.1979345718
 20
-15.5040665474
 11
3.2609099823
 21
-16.6171797732
  0
LWPOLYLINE
  5
281
100
AcDbEntity
  8
RACCORDO
100
AcDbPolyline
 62
7
  6
CONTINUOUS
 90
42
 70
0
 10
7.197937012
 20
-15.5040724467
 10
7.2066487907
 20
-15.5019234118
 10
7.2177360975
 20
-15.500040796
 10
7.2290985109
 20
-15.4990419566
 10
7.2407429059
 20
-15.4989190479
 10
7.2525887766
 20
-15.4996684862
 10
7.2646448434
 20
-15.5012968651
 10
7.2769023859
 20
-15.503797591
 10
7.2892547369
 20
-15.5071473002
 10
7.3016979436
 20
-15.5113515729
 10
7.3142359589
 20
-15.5164048288
 10
7.3267739741
 20
-15.5222669636
 10
7.3393119894
 20
-15.528942844
 10
7.3518500046
 20
-15.5364276034
 10
7.3642932113
 20
-15.5446665374
 10
7.3766455623
 20
-15.5536691793
 10
7.3889031048
 20
-15.5634259958
 10
7.4009591716
 20
-15.5738536837
 10
7.4128050423
 20
-15.584950116
 10
7.4244494373
 20
-15.5967174198
 10
7.4358118507
 20
-15.6090786726
 10
7.4468991575
 20
-15.6220485952
 10
7.4577044827
 20
-15.6356124669
 10
7.4681266954
 20
-15.6496492032
 10
7.4781556261
 20
-15.6641526508
 10
7.4878014444
 20
-15.6791289631
 10
7.496993528
 20
-15.6944755158
 10
7.5057345619
 20
-15.7102057157
 10
7.5140218612
 20
-15.7263061561
 10
7.5217767487
 20
-15.7426339929
 10
7.5289916513
 20
-15.7591853577
 10
7.5356741422
 20
-15.7759641189
 10
7.5417682642
 20
-15.792839037
 10
7.547270637
 20
-15.8098148368
 10
7.5521846409
 20
-15.8268867935
 10
7.5564644596
 20
-15.8439094941
 10
7.5601042811
 20
-15.8608828728
 10
7.5631099173
 20
-15.8778069953
 10
7.5654529871
 20
-15.8945366465
 10
7.5671240303
 20
-15.9110234212
 10
7.5681325071
 20
-15.9273157246
 10
7.5684784175
 20
-15.9434135565
  0
LWPOLYLINE
  5
282
100
AcDbEntity
  8
RACCORDO
100
AcDbPolyline
 62
253
  6
CONTINUOUS
 90
19
 70
0
 10
-14.4428557842
 20
23.5104822886
 10
-14.4426359295
 20
23.4997976321
 10
-14.4419769123
 20
23.4893594056
 10
-14.4408803715
 20
23.4791935732
 10
-14.4393490406
 20
23.4693254546
 10
-14.4373867253
 20
23.45977956
 10
-14.4349982795
 20
23.4505795396
 10
-14.4321896094
 20
23.4417482276
 10
-14.4289677039
 20
23.4333076706
 10
-14.4253406063
 20
23.4252789622
 10
-14.4213173267
 20
23.4176820514
 10
-14.4169078841
 20
23.4105358605
 10
-14.4121233476
 20
23.4038582952
 10
-14.4069757142
 20
23.3976660179
 10
-14.4014777462
 20
23.3919743055
 10
-14.3956430125
 20
23.3867971793
 10
-14.389484796
 20
23.3821466642
 10
-14.3830195218
 20
23.3780353906
 10
-14.3778813371
 20
23.3752632632
  0
LWPOLYLINE
  5
283
100
AcDbEntity
  8
RACCORDO
100
AcDbPolyline
 62
253
  6
CONTINUOUS
 90
19
 70
0
 10
-13.1178711044
 20
22.8479899487
 10
-13.1176512497
 20
22.8373052922
 10
-13.1169922325
 20
22.8268670657
 10
-13.1158956917
 20
22.8167012333
 10
-13.1143643608
 20
22.8068331147
 10
-13.1124020455
 20
22.7972872201
 10
-13.1100135997
 20
22.7880871996
 10
-13.1072049296
 20
22.7792558877
 10
-13.1039830241
 20
22.7708153307
 10
-13.1003559265
 20
22.7627866223
 10
-13.0963326469
 20
22.7551897115
 10
-13.0919232043
 20
22.7480435206
 10
-13.0871386678
 20
22.7413659553
 10
-13.0819910344
 20
22.735173678
 10
-13.0764930664
 20
22.7294819656
 10
-13.0706583327
 20
22.7243048394
 10
-13.0645001162
 20
22.7196543243
 10
-13.058034842
 20
22.7155430507
 10
-13.0529084251
 20
22.712776808
  0
LINE
  5
284
100
AcDbEntity
  8
RACCORDO
100
AcDbLine
 62
253
  6
CONTINUOUS
 10
-14.1448526398
 20
-7.9366143785
 11
-14.1307967651
 21
-9.0998635895
  0
LINE
  5
285
100
AcDbEntity
  8
RACCORDO
100
AcDbLine
 62
253
  6
CONTINUOUS
 10
-13.4454153742
 20
-7.501753882
 11
-13.432336958
 21
-8.6643400184
  0
LINE
  5
286
100
AcDbEntity
  8
RACCORDO
100
AcDbLine
 62
253
  6
CONTINUOUS
 10
-14.2707186975
 20
-5.7156002498
 11
-14.258588189
 21
-7.0951674912
  0
LINE
  5
287
100
AcDbEntity
  8
IMPORT_IGES
100
AcDbLine
 62
253
  6
CONTINUOUS
 10
-14.6288915817
 20
1.1950188933
 11
-14.6288915817
 21
-4.0070104498
  0
LINE
  5
288
100
AcDbEntity
  8
RACCORDO
100
AcDbLine
 62
7
  6
CONTINUOUS
 10
-14.5160790889
 20
23.9388445704
 11
-14.5160790889
 21
23.5988706363
  0
LINE
  5
289
100
AcDbEntity
  8
RACCORDO
100
AcDbLine
 62
253
  6
CONTINUOUS
 10
-14.4428557842
 20
23.8504562228
 11
-14.4428557842
 21
23.5104822886
  0
LINE
  5
28A
100
AcDbEntity
  8
RACCORDO
100
AcDbLine
 62
7
  6
CONTINUOUS
 10
-13.8130861346
 20
23.0928656619
 11
-13.8130861346
 21
22.6389085674
  0
LINE
  5
28B
100
AcDbEntity
  8
RACCORDO
100
AcDbLine
 62
253
  6
CONTINUOUS
 10
-13.7398628299
 20
23.0562540096
 11
-13.7398628299
 21
22.5471798654
  0
LINE
  5
28C
100
AcDbEntity
  8
DRAFT
100
AcDbLine
 62
7
  6
CONTINUOUS
 10
-13.4975207318
 20
-5.3274782427
 11
-13.4975207318
 21
-6.7131188888
  0
LINE
  5
28D
100
AcDbEntity
  8
RACCORDO
100
AcDbLine
 62
253
  6
CONTINUOUS
 10
-13.1178711044
 20
22.8479899487
 11
-13.1178711044
 21
23.1879638828
  0
LINE
  5
28E
100
AcDbEntity
  8
IMPORT_IGES
100
AcDbLine
 62
253
  6
CONTINUOUS
 10
-13.0732566631
 20
-6.5991069404
 11
-13.0732566631
 21
-5.2567675646
  0
LINE
  5
28F
100
AcDbEntity
  8
RACCORDO
100
AcDbLine
 62
253
  6
CONTINUOUS
 10
-12.7653491447
 20
22.8474772249
 11
-12.7653491447
 21
23.187451159
  0
LINE
  5
290
100
AcDbEntity
  8
DRAFT
100
AcDbLine
 62
7
  6
CONTINUOUS
 10
-12.6843479335
 20
-7.1197052879
 11
-12.6843479335
 21
-8.288839583
  0
LINE
  5
291
100
AcDbEntity
  8
IMPORT_IGES
100
AcDbLine
 62
253
  6
CONTINUOUS
 10
-12.6489925944
 20
-4.9969599434
 11
-12.6489925944
 21
-6.3392993193
  0
LWPOLYLINE
  5
292
100
AcDbEntity
  8
RACCORDO
100
AcDbPolyline
 62
253
  6
CONTINUOUS
 90
31
 70
0
 10
-13.1178711044
 20
23.1879638828
 10
-13.1176306289
 20
23.1993732587
 10
-13.1169098567
 20
23.2109920689
 10
-13.1157107488
 20
23.2227887026
 10
-13.1140365675
 20
23.2347310648
 10
-13.1118918678
 20
23.2467866646
 10
-13.1092824847
 20
23.2589227024
 10
-13.1062155173
 20
23.2711061602
 10
-13.1026993101
 20
23.2833038909
 10
-13.0987434293
 20
23.2954827084
 10
-13.0943586376
 20
23.3076094781
 10
-13.0895568646
 20
23.3196512073
 10
-13.0843511743
 20
23.3315751342
 10
-13.0787557297
 20
23.3433488179
 10
-13.0727857542
 20
23.354940226
 10
-13.06645749
 20
23.3663178221
 10
-13.0597881543
 20
23.3774506516
 10
-13.0527958922
 20
23.3883084257
 10
-13.0454997272
 20
23.398861604
 10
-13.0379195099
 20
23.4090814747
 10
-13.0300758635
 20
23.4189402331
 10
-13.021990128
 20
23.4284110566
 10
-13.0136843019
 20
23.4374681784
 10
-13.0051809828
 20
23.4460869569
 10
-12.9965033052
 20
23.4542439433
 10
-12.9876748784
 20
23.4619169451
 10
-12.9787197215
 20
23.4690850867
 10
-12.9696621985
 20
23.4757288658
 10
-12.9605269521
 20
23.4818302071
 10
-12.9513388361
 20
23.4873725107
 10
-12.9421228484
 20
23.4923406978
  0
LWPOLYLINE
  5
293
100
AcDbEntity
  8
RACCORDO
100
AcDbPolyline
 62
7
  6
CONTINUOUS
 90
5
 70
0
 10
-8.9348229104
 20
21.9152905955
 10
-8.9368594537
 20
21.9061691975
 10
-8.9383738126
 20
21.8963356
 10
-8.9393301963
 20
21.8858774401
 10
-8.9396619431
 20
21.8742036838
  0
LWPOLYLINE
  5
294
100
AcDbEntity
  8
RACCORDO
100
AcDbPolyline
 62
253
  6
CONTINUOUS
 90
25
 70
0
 10
-4.2334532413
 20
13.2208996789
 10
-4.2958728728
 20
13.1834156489
 10
-4.3584684636
 20
13.1412184672
 10
-4.421002587
 20
13.0943365411
 10
-4.4832882885
 20
13.0427685455
 10
-4.5450045774
 20
12.9866353381
 10
-4.6057096977
 20
12.9262200444
 10
-4.6651530535
 20
12.8616718987
 10
-4.7230633264
 20
12.7931819402
 10
-4.7789954034
 20
12.7211993498
 10
-4.8327024385
 20
12.6459929389
 10
-4.8839609457
 20
12.5678244907
 10
-4.9324123878
 20
12.4872137403
 10
-4.9778651913
 20
12.4044808524
 10
-5.0201393087
 20
12.3199550791
 10
-5.0589619855
 20
12.2342181195
 10
-5.0942150221
 20
12.1476058401
 10
-5.1257846001
 20
12.0604798244
 10
-5.1534927219
 20
11.9734778564
 10
-5.1772988909
 20
11.8869551053
 10
-5.1971892211
 20
11.8012240305
 10
-5.2131209648
 20
11.7168425509
 10
-5.2251316771
 20
11.6341821058
 10
-5.2333017356
 20
11.5534310261
 10
-5.237708727
 20
11.4748391671
  0
LWPOLYLINE
  5
295
100
AcDbEntity
  8
ASSI
100
AcDbPolyline
 62
7
  6
CONTINUOUS
 90
43
 70
0
 10
-4.0270832622
 20
13.0578555296
 10
-4.0643736958
 20
13.0360039005
 10
-4.1014580013
 20
13.0126696309
 10
-4.1383361789
 20
12.9878527206
 10
-4.1750533021
 20
12.9615188297
 10
-4.2115642974
 20
12.9337022982
 10
-4.2477339437
 20
12.9045061465
 10
-4.2835609752
 20
12.8739252589
 10
-4.3190466577
 20
12.8419647512
 10
-4.3540595675
 20
12.8087429914
 10
-4.3885979515
 20
12.7742553025
 10
-4.4226635628
 20
12.7385063615
 10
-4.456130237
 20
12.701628567
 10
-4.4889957532
 20
12.6636177331
 10
-4.5212623324
 20
12.6244780458
 10
-4.5528104729
 20
12.5843544616
 10
-4.5836375108
 20
12.543243332
 10
-4.6137461101
 20
12.5011483056
 10
-4.6430247616
 20
12.4582252842
 10
-4.6714703875
 20
12.4144711974
 10
-4.6990860656
 20
12.3698891156
 10
-4.7257695192
 20
12.3246441516
 10
-4.7515172916
 20
12.2787338473
 10
-4.7763328394
 20
12.2321606609
 10
-4.8001242567
 20
12.1850970794
 10
-4.8228877457
 20
12.1375412842
 10
-4.8446271042
 20
12.089495094
 10
-4.8652618188
 20
12.041136451
 10
-4.8847877935
 20
11.9924641966
 10
-4.9032091243
 20
11.9434794896
 10
-4.9204575867
 20
11.8943637481
 10
-4.9365288313
 20
11.8451164863
 10
-4.9514272075
 20
11.79573819
 10
-4.965097538
 20
11.7464117352
 10
-4.9775352691
 20
11.6971373142
 10
-4.9887449545
 20
11.6479147347
 10
-4.9986850784
 20
11.598926296
 10
-5.007350933
 20
11.5501728663
 10
-5.0147472261
 20
11.5016535773
 10
-5.0208465651
 20
11.4535481237
 10
-5.0256398189
 20
11.4059164037
 10
-5.0291361184
 20
11.3586985189
 10
-5.0313354638
 20
11.3118944695
  0
LWPOLYLINE
  5
296
100
AcDbEntity
  8
RACCORDO
100
AcDbPolyline
 62
253
  6
CONTINUOUS
 90
43
 70
0
 10
-3.3204884531
 20
12.7045581251
 10
-3.3581404975
 20
12.6829724414
 10
-3.3956744379
 20
12.6598423707
 10
-3.4330443798
 20
12.6351969161
 10
-3.4702046397
 20
12.6090675857
 10
-3.5071097939
 20
12.5814864878
 10
-3.5437146966
 20
12.5524860894
 10
-3.5799753671
 20
12.5221017602
 10
-3.6158466313
 20
12.4903719201
 10
-3.6512821762
 20
12.4573360978
 10
-3.6862382699
 20
12.423035827
 10
-3.7206725968
 20
12.3875134771
 10
-3.754541868
 20
12.3508122392
 10
-3.7878046952
 20
12.312977688
 10
-3.8204203742
 20
12.2740569388
 10
-3.8523477343
 20
12.2340975485
 10
-3.8835478051
 20
12.1931490093
 10
-3.9139823447
 20
12.1512623507
 10
-3.9436126178
 20
12.1084892719
 10
-3.9724022756
 20
12.0648830359
 10
-4.0003162577
 20
12.0204976868
 10
-4.027319314
 20
11.9753876448
 10
-4.0533783892
 20
11.9296088973
 10
-4.0784616686
 20
11.8832182821
 10
-4.1025374803
 20
11.8362727135
 10
-4.1255764114
 20
11.7888302651
 10
-4.1475502568
 20
11.7409499603
 10
-4.1684310713
 20
11.6926910519
 10
-4.1881932299
 20
11.6441135416
 10
-4.2068127145
 20
11.5952775225
 10
-4.2242660508
 20
11.5462429665
 10
-4.240531831
 20
11.4970707183
 10
-4.2555902618
 20
11.4478216568
 10
-4.2694224218
 20
11.3985560429
 10
-4.2820114585
 20
11.3493343398
 10
-4.2933418494
 20
11.3002181044
 10
-4.3033990053
 20
11.2512691335
 10
-4.3121704675
 20
11.2025490749
 10
-4.3196458733
 20
11.1541171886
 10
-4.3258160669
 20
11.1060312741
 10
-4.3306733698
 20
11.0583501718
 10
-4.3342117676
 20
11.0111336449
 10
-4.3364268463
 20
10.9644401608
  0
LINE
  5
297
100
AcDbEntity
  8
RACCORDO
100
AcDbLine
 62
253
  6
CONTINUOUS
 10
-2.3605889281
 20
14.2775438019
 11
-4.2334532413
 21
13.2208996789
  0
LINE
  5
298
100
AcDbEntity
  8
ASSI
100
AcDbLine
 62
7
  6
CONTINUOUS
 10
-4.0270832622
 20
13.0578555296
 11
-2.1484568938
 21
14.1177505244
  0
LINE
  5
299
100
AcDbEntity
  8
RACCORDO
100
AcDbLine
 62
7
  6
CONTINUOUS
 10
1.3101896278
 20
15.2083137958
 11
2.2002498105
 21
15.7056106067
  0
LINE
  5
29A
100
AcDbEntity
  8
RACCORDO
100
AcDbLine
 62
253
  6
CONTINUOUS
 10
-3.3204884531
 20
12.7045581251
 11
1.1985426853
 21
15.1716300533
  0
LINE
  5
29B
100
AcDbEntity
  8
RACCORDO
100
AcDbLine
 62
7
  6
CONTINUOUS
 10
7.8166227412
 20
19.6061820517
 11
2.325079413
 21
16.6433684408
  0
LWPOLYLINE
  5
29C
100
AcDbEntity
  8
RACCORDO
100
AcDbPolyline
 62
7
  6
CONTINUOUS
 90
13
 70
0
 10
1.3101896278
 20
15.2083137958
 10
1.3023193362
 20
15.2041064876
 10
1.2941324671
 20
15.2000960783
 10
1.2856442782
 20
15.1962893158
 10
1.276870055
 20
15.1926963912
 10
1.2678266981
 20
15.1893196176
 10
1.2585328525
 20
15.1861532977
 10
1.2490059477
 20
15.1832056786
 10
1.2392640151
 20
15.1804785814
 10
1.2293275284
 20
15.1779558488
 10
1.2192160303
 20
15.1756345015
 10
1.2089479511
 20
15.1735248802
 10
1.1985426853
 20
15.1716300533
  0
LINE
  5
29D
100
AcDbEntity
  8
RACCORDO
100
AcDbLine
 62
7
  6
CONTINUOUS
 10
7.8166227412
 20
19.1088520948
 11
2.4584714041
 21
16.2763017145
  0
LINE
  5
29E
100
AcDbEntity
  8
RACCORDO
100
AcDbLine
 62
253
  6
CONTINUOUS
 10
2.2002498105
 20
17.3080140803
 11
0.5989690197
 21
16.5052920768
  0
LINE
  5
29F
100
AcDbEntity
  8
RACCORDO
100
AcDbLine
 62
253
  6
CONTINUOUS
 10
2.7285169823
 20
17.5714529003
 11
2.2002498105
 21
17.3080140803
  0
LINE
  5
2A0
100
AcDbEntity
  8
RACCORDO
100
AcDbLine
 62
253
  6
CONTINUOUS
 10
2.9072488816
 20
16.0519129758
 11
2.2002498105
 21
15.7179693434
  0
LINE
  5
2A1
100
AcDbEntity
  8
RACCORDO
100
AcDbLine
 62
253
  6
CONTINUOUS
 10
-14.1307967651
 20
-9.0998635895
 11
-9.8753359679
 21
-11.2275939881
  0
LINE
  5
2A2
100
AcDbEntity
  8
RACCORDO
100
AcDbLine
 62
253
  6
CONTINUOUS
 10
-13.4268336279
 20
-8.6615260828
 11
-10.0302951626
 21
-10.3597953154
  0
LINE
  5
2A3
100
AcDbEntity
  8
RACCORDO
100
AcDbLine
 62
253
  6
CONTINUOUS
 10
-14.9580254381
 20
-7.5300279793
 11
-14.1448526398
 21
-7.9366143785
  0
LINE
  5
2A4
100
AcDbEntity
  8
RACCORDO
100
AcDbLine
 62
253
  6
CONTINUOUS
 10
-9.8891488785
 20
-10.0644662591
 11
-9.0759760801
 21
-10.4710526583
  0
LINE
  5
2A5
100
AcDbEntity
  8
DRAFT
100
AcDbLine
 62
7
  6
CONTINUOUS
 10
-12.6843479335
 20
-8.288839583
 11
-10.0384928281
 21
-9.6117671357
  0
LINE
  5
2A6
100
AcDbEntity
  8
IMPORT_IGES
100
AcDbLine
 62
7
  6
CONTINUOUS
 10
-10.0371919698
 20
-9.534689364
 11
-12.6843479335
 21
-8.2111113822
  0
LINE
  5
2A7
100
AcDbEntity
  8
IMPORT_IGES
100
AcDbLine
 62
253
  6
CONTINUOUS
 10
-12.6843479335
 20
-8.0878332199
 11
-10.0147952291
 21
-9.4226095721
  0
LINE
  5
2A8
100
AcDbEntity
  8
IMPORT_IGES
100
AcDbLine
 62
7
  6
CONTINUOUS
 10
-10.0046565955
 20
-9.3970276422
 11
-12.2777615343
 21
-8.2604751728
  0
LINE
  5
2A9
100
AcDbEntity
  8
RACCORDO
100
AcDbLine
 62
253
  6
CONTINUOUS
 10
-14.2540483665
 20
-7.0928536611
 11
-13.4408755681
 21
-7.4994400603
  0
LINE
  5
2AA
100
AcDbEntity
  8
RACCORDO
100
AcDbLine
 62
253
  6
CONTINUOUS
 10
-9.8922516635
 20
-9.2737520125
 11
-9.2293816143
 21
-9.6051870372
  0
LWPOLYLINE
  5
2AB
100
AcDbEntity
  8
RACCORDO
100
AcDbPolyline
 62
253
  6
CONTINUOUS
 90
31
 70
0
 10
0.5989690197
 20
-25.1342859967
 10
0.5940905199
 20
-25.1266732364
 10
0.5887448783
 20
-25.1188367713
 10
0.5829462882
 20
-25.1107977916
 10
0.576709603
 20
-25.1025773024
 10
0.5700520088
 20
-25.0941983405
 10
0.5629933598
 20
-25.0856860476
 10
0.555553704
 20
-25.0770645476
 10
0.5477526679
 20
-25.0683565343
 10
0.5396113485
 20
-25.0595855694
 10
0.5311518131
 20
-25.0507754569
 10
0.5223972763
 20
-25.0419504025
 10
0.5133718561
 20
-25.033134729
 10
0.5041002897
 20
-25.024352595
 10
0.4946078204
 20
-25.0156279077
 10
0.4849203521
 20
-25.0069844766
 10
0.4750643275
 20
-24.9984458973
 10
0.4650666817
 20
-24.9900355066
 10
0.4549547457
 20
-24.9817762977
 10
0.4447561477
 20
-24.973690836
 10
0.434498736
 20
-24.9658011996
 10
0.4242105279
 20
-24.9581289385
 10
0.4139196094
 20
-24.9506949977
 10
0.4036541044
 20
-24.9435196939
 10
0.3934420985
 20
-24.9366226565
 10
0.3833115134
 20
-24.9300227391
 10
0.3732899876
 20
-24.9237379433
 10
0.3634048492
 20
-24.9177854055
 10
0.3536830836
 20
-24.9121813759
 10
0.3441512583
 20
-24.9069411697
 10
0.3348354077
 20
-24.9020790991
  0
LWPOLYLINE
  5
2AC
100
AcDbEntity
  8
RACCORDO
100
AcDbPolyline
 62
253
  6
CONTINUOUS
 90
31
 70
0
 10
-12.7653491447
 20
23.187451159
 10
-12.7656442392
 20
23.1988793981
 10
-12.7664204228
 20
23.2105200935
 10
-12.7676755701
 20
23.2223413272
 10
-12.7694062445
 20
23.2343106974
 10
-12.7716077024
 20
23.2463953732
 10
-12.7742739017
 20
23.2585621832
 10
-12.7773975284
 20
23.2707777572
 10
-12.7809700179
 20
23.2830086073
 10
-12.7849815692
 20
23.2952211844
 10
-12.7894211794
 20
23.3073819991
 10
-12.7942766735
 20
23.3194577087
 10
-12.7995347335
 20
23.3314151975
 10
-12.8051809462
 20
23.3432216925
 10
-12.8111998213
 20
23.3548448072
 10
-12.8175748275
 20
23.3662526287
 10
-12.82428845
 20
23.3774138353
 10
-12.8313223004
 20
23.3882978767
 10
-12.8386571522
 20
23.3988750055
 10
-12.8462729961
 20
23.4091163476
 10
-12.8541488593
 20
23.4189936803
 10
-12.8622629013
 20
23.4284796383
 10
-12.8705926932
 20
23.4375480747
 10
-12.8791155359
 20
23.4461743501
 10
-12.8878082944
 20
23.4543350741
 10
-12.8966490824
 20
23.4620094943
 10
-12.9056117726
 20
23.4691747283
 10
-12.9146660778
 20
23.4758071319
 10
-12.9237851224
 20
23.4818883328
 10
-12.9329457409
 20
23.4874041861
 10
-12.9421228484
 20
23.4923406978
  0
LWPOLYLINE
  5
2AD
100
AcDbEntity
  8
RACCORDO
100
AcDbPolyline
 62
7
  6
CONTINUOUS
 90
34
 70
0
 10
-11.1640683539
 20
23.9901731625
 10
-11.1642684099
 20
24.0005749711
 10
-11.1648686474
 20
24.0111533392
 10
-11.1658676054
 20
24.0218843573
 10
-11.1672628409
 20
24.0327438104
 10
-11.1690511892
 20
24.0437071029
 10
-11.1712287705
 20
24.0547493138
 10
-11.173790595
 20
24.0658454607
 10
-11.1767307693
 20
24.0769704541
 10
-11.1800427643
 20
24.0880990246
 10
-11.1837190414
 20
24.0992059824
 10
-11.1877512016
 20
24.1102662036
 10
-11.192130199
 20
24.1212545848
 10
-11.1968460995
 20
24.1321462424
 10
-11.2018881695
 20
24.1429165295
 10
-11.2072450302
 20
24.1535410208
 10
-11.2129045544
 20
24.1639956453
 10
-11.2188538924
 20
24.1742567354
 10
-11.2250795641
 20
24.1843010418
 10
-11.2315674966
 20
24.1941057967
 10
-11.2383029855
 20
24.2036487938
 10
-11.2452707247
 20
24.2129084341
 10
-11.2524549818
 20
24.2218637165
 10
-11.2598394974
 20
24.2304943484
 10
-11.2674074518
 20
24.2387808212
 10
-11.2751417733
 20
24.2467043285
 10
-11.2830249792
 20
24.2542469046
 10
-11.2910390787
 20
24.2613915283
 10
-11.299166009
 20
24.2681219711
 10
-11.3073874201
 20
24.2744229596
 10
-11.3156845168
 20
24.2802803069
 10
-11.3240385102
 20
24.2856807437
 10
-11.3324306593
 20
24.2906119483
 10
-11.3408420576
 20
24.2950627013
  0
LINE
  5
2AE
100
AcDbEntity
  8
RACCORDO
100
AcDbLine
 62
253
  6
CONTINUOUS
 10
-12.4066504963
 20
22.5693943215
 11
-12.4066504963
 21
21.8805736986
  0
LINE
  5
2AF
100
AcDbEntity
  8
IMPORT_IGES
100
AcDbLine
 62
253
  6
CONTINUOUS
 10
-12.2777615343
 20
-8.2604751728
 11
-12.2777615343
 21
-6.9968545049
  0
LINE
  5
2B0
100
AcDbEntity
  8
RACCORDO
100
AcDbLine
 62
253
  6
CONTINUOUS
 10
-12.0541285366
 20
22.698973702
 11
-12.0541285366
 21
21.8913415802
  0
LINE
  5
2B1
100
AcDbEntity
  8
IMPORT_IGES
100
AcDbLine
 62
253
  6
CONTINUOUS
 10
-11.8534974656
 20
-6.7370468837
 11
-11.8534974656
 21
-8.1908599306
  0
LINE
  5
2B2
100
AcDbEntity
  8
IMPORT_IGES
100
AcDbLine
 62
7
  6
CONTINUOUS
 10
-11.5176217445
 20
-5.9101433532
 11
-11.5176217445
 21
-5.7736138944
  0
LINE
  5
2B3
100
AcDbEntity
  8
RACCORDO
100
AcDbLine
 62
7
  6
CONTINUOUS
 10
-11.1640683539
 20
22.3880225015
 11
-11.1640683539
 21
23.9901731625
  0
LINE
  5
2B4
100
AcDbEntity
  8
IMPORT_IGES
100
AcDbLine
 62
7
  6
CONTINUOUS
 10
-10.7221266157
 20
-6.4311690799
 11
-10.7221266157
 21
-7.2538932135
  0
LINE
  5
2B5
100
AcDbEntity
  8
RACCORDO
100
AcDbLine
 62
253
  6
CONTINUOUS
 10
-10.6358011822
 20
24.2536119825
 11
-10.6358011822
 21
23.9060804658
  0
LINE
  5
2B6
100
AcDbEntity
  8
RACCORDO
100
AcDbLine
 62
7
  6
CONTINUOUS
 10
-10.5636033252
 20
24.3414846147
 11
-10.5636033252
 21
23.993953098
  0
LWPOLYLINE
  5
2B7
100
AcDbEntity
  8
RACCORDO
100
AcDbPolyline
 62
7
  6
CONTINUOUS
 90
15
 70
0
 10
-10.5636033252
 20
23.9939507858
 10
-10.5637630824
 20
23.9850170433
 10
-10.5645212363
 20
23.9725495237
 10
-10.5659030283
 20
23.9601217079
 10
-10.5679072799
 20
23.9477637777
 10
-10.5705306371
 20
23.9355093786
 10
-10.5737689916
 20
23.9233875791
 10
-10.5776163305
 20
23.9114295357
 10
-10.5820646959
 20
23.8996670273
 10
-10.5871051395
 20
23.8881297929
 10
-10.5927266835
 20
23.8768484048
 10
-10.5989166697
 20
23.8658529811
 10
-10.6056615086
 20
23.8551719721
 10
-10.6129458635
 20
23.8448337395
 10
-10.6204416828
 20
23.8352439934
  0
LWPOLYLINE
  5
2B8
100
AcDbEntity
  8
RACCORDO
100
AcDbPolyline
 62
253
  6
CONTINUOUS
 90
16
 70
0
 10
-10.5636033252
 20
24.341484618
 10
-10.5639045957
 20
24.3353497858
 10
-10.5648843143
 20
24.3288468377
 10
-10.5665410033
 20
24.3223782734
 10
-10.5688701548
 20
24.3159617067
 10
-10.571865435
 20
24.3096145956
 10
-10.5755186939
 20
24.3033542188
 10
-10.579819992
 20
24.2971976156
 10
-10.5847576246
 20
24.2911615452
 10
-10.5903181499
 20
24.2852624427
 10
-10.596486439
 20
24.2795163613
 10
-10.6032457003
 20
24.2739389456
 10
-10.6105775141
 20
24.2685453933
 10
-10.6184619123
 20
24.2633503889
 10
-10.626877438
 20
24.2583680654
 10
-10.6358011822
 20
24.2536119825
  0
LWPOLYLINE
  5
2B9
100
AcDbEntity
  8
RACCORDO
100
AcDbPolyline
 62
253
  6
CONTINUOUS
 90
16
 70
0
 10
-10.5636033252
 20
23.9939507858
 10
-10.5639062484
 20
23.987801475
 10
-10.5648874855
 20
23.9812997281
 10
-10.5665454432
 20
23.9748324091
 10
-10.5688756096
 20
23.9684171173
 10
-10.5718716452
 20
23.962071305
 10
-10.5755254017
 20
23.9558122329
 10
-10.5798269463
 20
23.9496569224
 10
-10.584764572
 20
23.9436221307
 10
-10.590324825
 20
23.9377242989
 10
-10.5964925585
 20
23.9319794846
 10
-10.6032509972
 20
23.926403305
 10
-10.6105817678
 20
23.9210109167
 10
-10.6184649319
 20
23.9158169868
 10
-10.6268790345
 20
23.910835652
 10
-10.6358011822
 20
23.9060804658
  0
LINE
  5
2BA
100
AcDbEntity
  8
RACCORDO
100
AcDbLine
 62
7
  6
CONTINUOUS
 10
3.2555746501
 20
15.5189061005
 11
7.4960417485
 21
18.5671791083
  0
LINE
  5
2BB
100
AcDbEntity
  8
0
100
AcDbLine
 62
253
  6
CONTINUOUS
 10
7.5684784175
 20
18.7453228848
 11
3.2286250703
 21
15.6388523994
  0
LINE
  5
2BC
100
AcDbEntity
  8
IMPORT_IGES
100
AcDbLine
 62
7
  6
CONTINUOUS
 10
4.5018102584
 20
15.1623749225
 11
6.4245318843
 21
16.3220791876
  0
LINE
  5
2BD
100
AcDbEntity
  8
IMPORT_IGES
100
AcDbLine
 62
7
  6
CONTINUOUS
 10
6.8576581223
 20
16.1055160686
 11
5.5693809847
 21
15.3704131622
  0
LWPOLYLINE
  5
2BE
100
AcDbEntity
  8
RACCORDO
100
AcDbPolyline
 62
253
  6
CONTINUOUS
 90
43
 70
0
 10
-2.9546557131
 20
12.1015556793
 10
-2.9799389816
 20
12.0872120644
 10
-3.0050856429
 20
12.0718768996
 10
-3.0300956969
 20
12.055550185
 10
-3.0550006563
 20
12.0382088189
 10
-3.0797690085
 20
12.0198759029
 10
-3.1043062155
 20
12.0006207426
 10
-3.1286106948
 20
11.9804402253
 10
-3.1526840289
 20
11.9593374636
 10
-3.1764364265
 20
11.9373911007
 10
-3.1998664248
 20
11.9145982163
 10
-3.2229754865
 20
11.8909617308
 10
-3.2456782084
 20
11.8665690481
 10
-3.2679731286
 20
11.8414173444
 10
-3.289861709
 20
11.8155094436
 10
-3.3112629316
 20
11.788941222
 10
-3.3321750672
 20
11.7617101161
 10
-3.3525998452
 20
11.7338186893
 10
-3.3724614349
 20
11.7053705087
 10
-3.3917576714
 20
11.6763636019
 10
-3.4104907196
 20
11.6467999411
 10
-3.4285912447
 20
11.61678901
 10
-3.4460568991
 20
11.586329165
 10
-3.4628900302
 20
11.5554220497
 10
-3.4790283454
 20
11.5241820775
 10
-3.4944693105
 20
11.4926079149
 10
-3.5092154595
 20
11.4607008955
 10
-3.5232121018
 20
11.4285794331
 10
-3.536456403
 20
11.3962428466
 10
-3.5489511974
 20
11.3636918171
 10
-3.5606502972
 20
11.3310468022
 10
-3.5715507553
 20
11.2983075156
 10
-3.5816555188
 20
11.2654742436
 10
-3.5909272418
 20
11.2326683019
 10
-3.5993628944
 20
11.1998894337
 10
-3.6069655066
 20
11.1671378958
 10
-3.613706822
 20
11.1345357754
 10
-3.6195836292
 20
11.1020822959
 10
-3.6245991397
 20
11.0697782339
 10
-3.6287347315
 20
11.0377480052
 10
-3.6319841972
 20
11.0060330818
 10
-3.6343537442
 20
10.9745919918
 10
-3.6358433724
 20
10.9434247351
  0
LINE
  5
2BF
100
AcDbEntity
  8
RACCORDO
100
AcDbLine
 62
253
  6
CONTINUOUS
 10
2.5430335594
 20
15.1029058491
 11
-2.9546557131
 21
12.1015556793
  0
LINE
  5
2C0
100
AcDbEntity
  8
RACCORDO
100
AcDbLine
 62
253
  6
CONTINUOUS
 10
3.2609099823
 20
15.4419872852
 11
2.5430335594
 21
15.1029058491
  0
LINE
  5
2C1
100
AcDbEntity
  8
IMPORT_IGES
100
AcDbLine
 62
7
  6
CONTINUOUS
 10
6.671531354
 20
14.8135644507
 11
8.1520913314
 21
15.458299464
  0
LINE
  5
2C2
100
AcDbEntity
  8
IMPORT_IGES
100
AcDbLine
 62
7
  6
CONTINUOUS
 10
8.5756581929
 20
15.2465160333
 11
6.2630739503
 21
14.2817430766
  0
LINE
  5
2C3
100
AcDbEntity
  8
IMPORT_IGES
100
AcDbLine
 62
7
  6
CONTINUOUS
 10
6.2630739503
 20
14.1085379958
 11
8.5756581929
 21
15.0733109525
  0
LWPOLYLINE
  5
2C4
100
AcDbEntity
  8
RACCORDO
100
AcDbPolyline
 62
253
  6
CONTINUOUS
 90
34
 70
0
 10
-3.6358433724
 20
10.9434247351
 10
-3.6531377037
 20
10.9362972685
 10
-3.6711631652
 20
10.929583982
 10
-3.6898798249
 20
10.9232997476
 10
-3.7092462196
 20
10.9174584869
 10
-3.7292194466
 20
10.9120731402
 10
-3.7497552591
 20
10.9071556375
 10
-3.7708081637
 20
10.9027168728
 10
-3.7923315217
 20
10.8987666793
 10
-3.8142776523
 20
10.8953138078
 10
-3.8365979377
 20
10.8923659076
 10
-3.8592429317
 20
10.8899295093
 10
-3.8821624685
 20
10.8880100101
 10
-3.9053057742
 20
10.8866116623
 10
-3.9286215792
 20
10.8857375639
 10
-3.9520582315
 20
10.885389651
 10
-3.9755638118
 20
10.8855686946
 10
-3.9990862479
 20
10.8862742979
 10
-4.0225734302
 20
10.8875048978
 10
-4.0459733272
 20
10.8892577681
 10
-4.0692341009
 20
10.8915290258
 10
-4.0923042215
 20
10.8943136392
 10
-4.1151325813
 20
10.8976054396
 10
-4.1376686085
 20
10.9013971346
 10
-4.1598623787
 20
10.9056803243
 10
-4.1816647258
 20
10.9104455203
 10
-4.2030273508
 20
10.9156821661
 10
-4.2239029288
 20
10.9213786609
 10
-4.2442452138
 20
10.9275223852
 10
-4.2640091415
 20
10.9340997287
 10
-4.2831509284
 20
10.9410961206
 10
-4.3016281696
 20
10.9484960617
 10
-4.3193999322
 20
10.9562831587
 10
-4.3364268461
 20
10.9644401608
  0
LWPOLYLINE
  5
2C5
100
AcDbEntity
  8
IMPORT_IGES
100
AcDbPolyline
 62
253
  6
CONTINUOUS
 90
10
 70
0
 10
14.3320150504
 20
15.5089847126
 10
14.3763917549
 20
15.5225789879
 10
14.4196718401
 20
15.5318296485
 10
14.4618553059
 20
15.5367366946
 10
14.5031620954
 20
15.5372793353
 10
14.5433722656
 20
15.5334783613
 10
14.581825987
 20
15.5253961449
 10
14.6183033164
 20
15.5130534767
 10
14.6530241971
 20
15.496429566
 10
14.6859886289
 20
15.4755244129
  0
LINE
  5
2C6
100
AcDbEntity
  8
RACCORDO
100
AcDbLine
 62
253
  6
CONTINUOUS
 10
-16.951210138
 20
-5.1597196154
 11
-14.9713111506
 21
-6.1496691091
  0
LINE
  5
2C7
100
AcDbEntity
  8
RACCORDO
100
AcDbLine
 62
253
  6
CONTINUOUS
 10
-9.0890321413
 20
-9.0908086137
 11
-7.109133154
 21
-10.0807581074
  0
LINE
  5
2C8
100
AcDbEntity
  8
DRAFT
100
AcDbLine
 62
7
  6
CONTINUOUS
 10
-13.4975207318
 20
-6.7131188888
 11
-12.6843479335
 21
-7.1197052879
  0
LINE
  5
2C9
100
AcDbEntity
  8
IMPORT_IGES
100
AcDbLine
 62
253
  6
CONTINUOUS
 10
-12.2777615343
 20
-6.9968545049
 11
-13.0732566631
 21
-6.5991069404
  0
LINE
  5
2CA
100
AcDbEntity
  8
RACCORDO
100
AcDbLine
 62
7
  6
CONTINUOUS
 10
7.8105062317
 20
-16.9031247633
 11
7.5684784175
 21
-16.7821108562
  0
LINE
  5
2CB
100
AcDbEntity
  8
RACCORDO
100
AcDbLine
 62
253
  6
CONTINUOUS
 10
-16.2472198954
 20
-4.7239255987
 11
-14.2673209081
 21
-5.7138750923
  0
LINE
  5
2CC
100
AcDbEntity
  8
RACCORDO
100
AcDbLine
 62
253
  6
CONTINUOUS
 10
-9.0921217555
 20
-8.3014746686
 11
-7.2606738689
 21
-9.2171986119
  0
LINE
  5
2CD
100
AcDbEntity
  8
IMPORT_IGES
100
AcDbLine
 62
253
  6
CONTINUOUS
 10
-12.6489925944
 20
-6.3392993193
 11
-11.8534974656
 21
-6.7370468837
  0
LINE
  5
2CE
100
AcDbEntity
  8
IMPORT_IGES
100
AcDbLine
 62
253
  6
CONTINUOUS
 10
-8.9897150018
 20
-8.1689381156
 11
-8.9119114214
 21
-8.2078399058
  0
LINE
  5
2CF
100
AcDbEntity
  8
IMPORT_IGES
100
AcDbLine
 62
7
  6
CONTINUOUS
 10
-10.7221266157
 20
-7.2538932135
 11
-8.9408759066
 21
-8.144518568
  0
LINE
  5
2D0
100
AcDbEntity
  8
RACCORDO
100
AcDbLine
 62
253
  6
CONTINUOUS
 10
3.2609099823
 20
-14.188068312
 11
6.3642953514
 21
-15.7397609966
  0
LINE
  5
2D1
100
AcDbEntity
  8
RACCORDO
100
AcDbLine
 62
7
  6
CONTINUOUS
 10
3.2609099823
 20
-14.0651328279
 11
6.5213553252
 21
-15.6953554994
  0
LINE
  5
2D2
100
AcDbEntity
  8
DRAFT
100
AcDbLine
 62
7
  6
CONTINUOUS
 10
-15.4774197191
 20
-4.337528749
 11
-13.4975207318
 21
-5.3274782427
  0
LINE
  5
2D3
100
AcDbEntity
  8
DRAFT
100
AcDbLine
 62
7
  6
CONTINUOUS
 10
-8.3356412292
 20
-7.908417994
 11
-7.2653261373
 21
-8.44357554
  0
LINE
  5
2D4
100
AcDbEntity
  8
IMPORT_IGES
100
AcDbLine
 62
253
  6
CONTINUOUS
 10
-7.2668911671
 20
-8.1599503126
 11
-8.1942198729
 21
-7.6962859597
  0
LINE
  5
2D5
100
AcDbEntity
  8
IMPORT_IGES
100
AcDbLine
 62
253
  6
CONTINUOUS
 10
-13.0732566631
 20
-5.2567675646
 11
-15.0531556504
 21
-4.2668180709
  0
LINE
  5
2D6
100
AcDbEntity
  8
IMPORT_IGES
100
AcDbLine
 62
253
  6
CONTINUOUS
 10
-11.7297537789
 20
-5.8796799115
 11
-10.93425865
 21
-6.277427476
  0
LWPOLYLINE
  5
2D7
100
AcDbEntity
  8
IMPORT_IGES
100
AcDbPolyline
 62
7
  6
CONTINUOUS
 90
8
 70
0
 10
-10.7999543979
 20
-6.26905523
 10
-10.784261904
 20
-6.2785289786
 10
-10.7662709008
 20
-6.2947160706
 10
-10.7507761661
 20
-6.3152085888
 10
-10.7385383093
 20
-6.3391825474
 10
-10.7298108669
 20
-6.3663632845
 10
-10.7243403023
 20
-6.397025462
 10
-10.7221266157
 20
-6.4311690799
  0
LWPOLYLINE
  5
2D8
100
AcDbEntity
  8
RACCORDO
100
AcDbPolyline
 62
7
  6
CONTINUOUS
 90
27
 70
0
 10
-8.9396619431
 20
21.8742036838
 10
-8.9393859462
 20
21.8634398007
 10
-8.9385947621
 20
21.8515799507
 10
-8.9372829917
 20
21.8393671341
 10
-8.9354302339
 20
21.8268613291
 10
-8.9331074042
 20
21.8140843813
 10
-8.9303128679
 20
21.801079425
 10
-8.9270351699
 20
21.7878924464
 10
-8.9233274201
 20
21.7745349338
 10
-8.919189405
 20
21.7610393702
 10
-8.9146152012
 20
21.7474419193
 10
-8.909645709
 20
21.7337507314
 10
-8.9042812411
 20
21.7199915603
 10
-8.8985191964
 20
21.706193556
 10
-8.8923926423
 20
21.6923647759
 10
-8.8859020972
 20
21.678526456
 10
-8.8790470515
 20
21.6647029219
 10
-8.8718560399
 20
21.6509039619
 10
-8.8643297417
 20
21.6371476756
 10
-8.8564691023
 20
21.6234550483
 10
-8.8483006628
 20
21.6098386836
 10
-8.8398251346
 20
21.5963140261
 10
-8.8310448634
 20
21.5829000467
 10
-8.8219871785
 20
21.5696138957
 10
-8.8126623368
 20
21.5564716538
 10
-8.8030647395
 20
21.5434880036
 10
-8.7931977401
 20
21.530677256
  0
LWPOLYLINE
  5
2D9
100
AcDbEntity
  8
RACCORDO
100
AcDbPolyline
 62
7
  6
CONTINUOUS
 90
33
 70
0
 10
-10.0256275046
 20
-10.7480175749
 10
-10.0253372378
 20
-10.7607346858
 10
-10.0246704741
 20
-10.7759994236
 10
-10.0236548566
 20
-10.7913335929
 10
-10.02228954
 20
-10.8067262276
 10
-10.020598949
 20
-10.8221693009
 10
-10.0185841782
 20
-10.8376533747
 10
-10.0162449153
 20
-10.8531685742
 10
-10.0136028242
 20
-10.8687070941
 10
-10.0106590212
 20
-10.8842606351
 10
-10.0074136486
 20
-10.8998201995
 10
-10.0038863617
 20
-10.9153775745
 10
-10.0000783265
 20
-10.9309253689
 10
-9.9959900853
 20
-10.9464553592
 10
-9.9916399398
 20
-10.9619585541
 10
-9.9870291703
 20
-10.9774282708
 10
-9.9821586749
 20
-10.9928570228
 10
-9.9770458982
 20
-11.0082349679
 10
-9.9716922152
 20
-11.0235562533
 10
-9.9660989322
 20
-11.0388138539
 10
-9.9602832624
 20
-11.0539964661
 10
-9.9542467861
 20
-11.0690988888
 10
-9.9479912055
 20
-11.0841146596
 10
-9.9415339712
 20
-11.09903087
 10
-9.9348769386
 20
-11.1138429897
 10
-9.9280222491
 20
-11.1285450993
 10
-9.9209880317
 20
-11.1431225361
 10
-9.9137765247
 20
-11.1575714252
 10
-9.9063903325
 20
-11.1718864768
 10
-9.8988485844
 20
-11.1860513255
 10
-9.8911596981
 20
-11.2000579766
 10
-9.8833211447
 20
-11.2139067133
 10
-9.8753359679
 20
-11.2275939881
  0
LWPOLYLINE
  5
2DA
100
AcDbEntity
  8
RACCORDO
100
AcDbPolyline
 62
7
  6
CONTINUOUS
 90
33
 70
0
 10
-10.038777642
 20
-9.5842444972
 10
-10.0384959139
 20
-9.5975837183
 10
-10.0378479994
 20
-9.6128372114
 10
-10.0368515249
 20
-9.6281610657
 10
-10.03550562
 20
-9.643544303
 10
-10.0338347063
 20
-9.6589788754
 10
-10.0318398575
 20
-9.6744553327
 10
-10.029520739
 20
-9.689963788
 10
-10.0268990111
 20
-9.705496419
 10
-10.0239757713
 20
-9.7210449144
 10
-10.0207511413
 20
-9.7366002645
 10
-10.017244772
 20
-9.7521542423
 10
-10.0134578121
 20
-9.7676994447
 10
-10.009390785
 20
-9.7832276365
 10
-10.0050619862
 20
-9.7987298136
 10
-10.0004726802
 20
-9.8141992816
 10
-9.9956237475
 20
-9.8296285417
 10
-9.9905326248
 20
-9.8450077403
 10
-9.9852006727
 20
-9.8603310124
 10
-9.9796291807
 20
-9.8755913205
 10
-9.9738353518
 20
-9.8907773492
 10
-9.9678207526
 20
-9.905883885
 10
-9.9615870697
 20
-9.9209044525
 10
-9.9551517405
 20
-9.9358261301
 10
-9.9485166078
 20
-9.9506443748
 10
-9.9416837981
 20
-9.9653532531
 10
-9.9346714239
 20
-9.9799380869
 10
-9.9274817123
 20
-9.9943949877
 10
-9.9201172533
 20
-10.0087186508
 10
-9.9125971567
 20
-10.0228926921
 10
-9.9049298254
 20
-10.0369090998
 10
-9.8971127219
 20
-10.0507681432
 10
-9.8891488785
 20
-10.0644662591
  0
LWPOLYLINE
  5
2DB
100
AcDbEntity
  8
RACCORDO
100
AcDbPolyline
 62
7
  6
CONTINUOUS
 90
33
 70
0
 10
-9.2256048436
 20
-9.9908308966
 10
-9.2253231155
 20
-10.0041701173
 10
-9.224675201
 20
-10.0194236105
 10
-9.2236787266
 20
-10.0347474648
 10
-9.2223328217
 20
-10.050130702
 10
-9.2206619079
 20
-10.0655652744
 10
-9.2186670592
 20
-10.0810417318
 10
-9.2163479407
 20
-10.0965501871
 10
-9.2137262127
 20
-10.112082818
 10
-9.2108029729
 20
-10.1276313134
 10
-9.207578343
 20
-10.1431866635
 10
-9.2040719737
 20
-10.1587406414
 10
-9.2002850138
 20
-10.1742858438
 10
-9.1962179867
 20
-10.1898140356
 10
-9.1918891878
 20
-10.2053162126
 10
-9.1872998819
 20
-10.2207856807
 10
-9.1824509491
 20
-10.2362149408
 10
-9.1773598265
 20
-10.2515941394
 10
-9.1720278744
 20
-10.2669174114
 10
-9.1664563824
 20
-10.2821777196
 10
-9.1606625534
 20
-10.2973637483
 10
-9.1546479543
 20
-10.3124702841
 10
-9.1484142713
 20
-10.3274908516
 10
-9.1419789421
 20
-10.3424125293
 10
-9.1353438094
 20
-10.3572307739
 10
-9.1285109998
 20
-10.3719396522
 10
-9.1214986256
 20
-10.386524486
 10
-9.1143089139
 20
-10.4009813869
 10
-9.106944455
 20
-10.41530505
 10
-9.0994243583
 20
-10.4294790912
 10
-9.0917570271
 20
-10.443495499
 10
-9.0839399236
 20
-10.4573545424
 10
-9.0759760801
 20
-10.4710526583
  0
LWPOLYLINE
  5
2DC
100
AcDbEntity
  8
RACCORDO
100
AcDbPolyline
 62
7
  6
CONTINUOUS
 90
33
 70
0
 10
-9.2378734792
 20
-8.6098316502
 10
-9.2376046872
 20
-8.6239017766
 10
-9.2369790531
 20
-8.6391418324
 10
-9.2360052092
 20
-8.6544533512
 10
-9.2346822556
 20
-8.6698253402
 10
-9.23303461
 20
-8.6852497269
 10
-9.2310633218
 20
-8.7007170467
 10
-9.2287680293
 20
-8.7162173987
 10
-9.2261703887
 20
-8.7317429398
 10
-9.2232714756
 20
-8.7472853451
 10
-9.220071387
 20
-8.7628355908
 10
-9.2165897683
 20
-8.7783854327
 10
-9.2128277482
 20
-8.7939274541
 10
-9.2087858273
 20
-8.8094534055
 10
-9.2044822939
 20
-8.8249542679
 10
-9.1999183938
 20
-8.8404233334
 10
-9.1950949863
 20
-8.8558530885
 10
-9.1900294992
 20
-8.8712336659
 10
-9.1847232758
 20
-8.8865591865
 10
-9.1791775857
 20
-8.9018225983
 10
-9.1734096196
 20
-8.9170125714
 10
-9.1674209282
 20
-8.9321238783
 10
-9.1612131793
 20
-8.9471500279
 10
-9.1548037948
 20
-8.9620780831
 10
-9.1481946025
 20
-8.9769034858
 10
-9.1413877113
 20
-8.9916202861
 10
-9.1344012141
 20
-9.0062137876
 10
-9.1272373244
 20
-9.0206800858
 10
-9.1198986157
 20
-9.0350138583
 10
-9.112404174
 20
-9.0491986987
 10
-9.1047623855
 20
-9.0632265754
 10
-9.0969707015
 20
-9.077097741
 10
-9.0890321413
 20
-9.0908086137
  0
LWPOLYLINE
  5
2DD
100
AcDbEntity
  8
RACCORDO
100
AcDbPolyline
 62
253
  6
CONTINUOUS
 90
31
 70
0
 10
-10.6358011822
 20
24.2536119825
 10
-10.6359914303
 20
24.2650926449
 10
-10.6366686948
 20
24.2767827997
 10
-10.6378311216
 20
24.2886503937
 10
-10.6394755283
 20
24.3006628978
 10
-10.6415974078
 20
24.3127873627
 10
-10.6441909367
 20
24.3249905079
 10
-10.6472490002
 20
24.3372388636
 10
-10.6507632134
 20
24.3494988518
 10
-10.6547239351
 20
24.3617368437
 10
-10.6591203017
 20
24.3739192802
 10
-10.6639402569
 20
24.3860127592
 10
-10.66917058
 20
24.3979841165
 10
-10.6747969338
 20
24.409800541
 10
-10.6808038824
 20
24.4214296189
 10
-10.6871749272
 20
24.4328394211
 10
-10.693892564
 20
24.4439986205
 10
-10.7009383934
 20
24.4548766724
 10
-10.708293156
 20
24.4654438458
 10
-10.7159367884
 20
24.4756712937
 10
-10.7238482414
 20
24.4855308315
 10
-10.7320055757
 20
24.4949951433
 10
-10.7403862419
 20
24.5040381426
 10
-10.7489674016
 20
24.5126352595
 10
-10.7577257612
 20
24.5207631829
 10
-10.7666392713
 20
24.5284012421
 10
-10.7756815918
 20
24.535526661
 10
-10.7848221605
 20
24.5421159328
 10
-10.7940338334
 20
24.5481508196
 10
-10.8032931972
 20
24.5536173003
 10
-10.8125748858
 20
24.5585015213
  0
LWPOLYLINE
  5
2DE
100
AcDbEntity
  8
IMPORT_IGES
100
AcDbPolyline
 62
7
  6
CONTINUOUS
 90
9
 70
0
 10
-8.2820877315
 20
-7.4062720597
 10
-8.281935045
 20
-7.417326961
 10
-8.2793340424
 20
-7.4533091026
 10
-8.2734580499
 20
-7.4912295948
 10
-8.2642737841
 20
-7.5308195459
 10
-8.2517305024
 20
-7.5713748782
 10
-8.2358169566
 20
-7.6125223457
 10
-8.2166088931
 20
-7.6542286972
 10
-8.1942198729
 20
-7.6962859597
  0
LINE
  5
2DF
100
AcDbEntity
  8
RACCORDO
100
AcDbLine
 62
253
  6
CONTINUOUS
 10
-9.8753359679
 20
-11.2275939881
 11
-9.8831823151
 21
-10.5937752702
  0
LINE
  5
2E0
100
AcDbEntity
  8
RACCORDO
100
AcDbLine
 62
7
  6
CONTINUOUS
 10
-10.0364890363
 20
-9.8039537019
 11
-10.02562451
 21
-10.7480168207
  0
LINE
  5
2E1
100
AcDbEntity
  8
RACCORDO
100
AcDbLine
 62
253
  6
CONTINUOUS
 10
-9.8831823151
 20
-10.5937752702
 11
-9.8891488785
 21
-10.0644662591
  0
LINE
  5
2E2
100
AcDbEntity
  8
RACCORDO
100
AcDbLine
 62
253
  6
CONTINUOUS
 10
-9.0759760801
 20
-10.4710526583
 11
-9.0820689424
 21
-9.8738218122
  0
LINE
  5
2E3
100
AcDbEntity
  8
RACCORDO
100
AcDbLine
 62
7
  6
CONTINUOUS
 10
-9.2340771925
 20
-9.0825557229
 11
-9.2256016128
 21
-9.9908300886
  0
LWPOLYLINE
  5
2E4
100
AcDbEntity
  8
RACCORDO
100
AcDbPolyline
 62
253
  6
CONTINUOUS
 90
3
 70
0
 10
-9.0820689424
 20
-9.8738218122
 10
-9.0876748477
 20
-9.2542273001
 10
-9.0890321413
 20
-9.0908086137
  0
LINE
  5
2E5
100
AcDbEntity
  8
RACCORDO
100
AcDbLine
 62
7
  6
CONTINUOUS
 10
-9.237869987
 20
-8.6098307843
 11
-9.2340771925
 21
-9.0825557229
  0
LINE
  5
2E6
100
AcDbEntity
  8
0
100
AcDbLine
 62
7
  6
CONTINUOUS
 10
-10.2094741993
 20
18.9760017516
 11
-10.2094741993
 21
18.2019864375
  0
LINE
  5
2E7
100
AcDbEntity
  8
RACCORDO
100
AcDbLine
 62
7
  6
CONTINUOUS
 10
-8.9396443496
 20
21.873747087
 11
-8.9396443496
 21
20.6335580544
  0
LINE
  5
2E8
100
AcDbEntity
  8
RACCORDO
100
AcDbLine
 62
253
  6
CONTINUOUS
 10
-8.7931977401
 20
21.530677256
 11
-8.7931977401
 21
20.4500939452
  0
LINE
  5
2E9
100
AcDbEntity
  8
RACCORDO
100
AcDbLine
 62
253
  6
CONTINUOUS
 10
2.2002498105
 20
16.5809692278
 11
2.7285169823
 21
17.2239213836
  0
LINE
  5
2EA
100
AcDbEntity
  8
RACCORDO
100
AcDbLine
 62
7
  6
CONTINUOUS
 10
2.2002498105
 20
16.4914387615
 11
2.7438775546
 21
17.153086217
  0
LWPOLYLINE
  5
2EB
100
AcDbEntity
  8
RACCORDO
100
AcDbPolyline
 62
7
  6
CONTINUOUS
 90
30
 70
0
 10
1.3101896278
 20
16.0168146198
 10
1.3023105048
 20
16.0076802165
 10
1.2940902557
 20
15.9986827756
 10
1.2855323945
 20
15.989843789
 10
1.276633964
 20
15.9811872591
 10
1.267407529
 20
15.9727325799
 10
1.2578809547
 20
15.9644946872
 10
1.2480607664
 20
15.9564959336
 10
1.2379548681
 20
15.9487580568
 10
1.2275940852
 20
15.941295517
 10
1.2169875639
 20
15.9341307391
 10
1.2061456525
 20
15.9272854338
 10
1.1951018754
 20
15.9207734622
 10
1.183868027
 20
15.9146169431
 10
1.1724570762
 20
15.9088372792
 10
1.1609052557
 20
15.9034477557
 10
1.1492271238
 20
15.898469798
 10
1.1374383923
 20
15.8939241007
 10
1.1255780783
 20
15.8898233156
 10
1.1136636307
 20
15.8861876901
 10
1.1017136173
 20
15.883036705
 10
1.0897699398
 20
15.8803821688
 10
1.0778530901
 20
15.8782425364
 10
1.0659845229
 20
15.8766353989
 10
1.0542089443
 20
15.8755712381
 10
1.0425501238
 20
15.8750659328
 10
1.0310321867
 20
15.8751342989
 10
1.019701834
 20
15.8757846973
 10
1.0085965716
 20
15.8770280901
 10
0.9977322198
 20
15.8788755855
  0
LINE
  5
2EC
100
AcDbEntity
  8
IMPORT_IGES
100
AcDbLine
 62
7
  6
CONTINUOUS
 10
4.8947901776
 20
16.6635104587
 11
5.0772445645
 21
16.8225177667
  0
LINE
  5
2ED
100
AcDbEntity
  8
IMPORT_IGES
100
AcDbLine
 62
7
  6
CONTINUOUS
 10
4.2509177534
 20
16.1091368846
 11
4.5293273188
 21
16.3453804955
  0
LWPOLYLINE
  5
2EE
100
AcDbEntity
  8
RACCORDO
100
AcDbPolyline
 62
7
  6
CONTINUOUS
 90
5
 70
0
 10
-5.1542463539
 20
7.1096371419
 10
-5.1603370707
 20
7.1049096669
 10
-5.1838728622
 20
7.0889620091
 10
-5.2081588827
 20
7.0750316856
 10
-5.2116588032
 20
7.0732407563
  0
LINE
  5
2EF
100
AcDbEntity
  8
IMPORT_IGES
100
AcDbLine
 62
7
  6
CONTINUOUS
 10
6.0687429908
 20
15.4821486826
 11
6.8576581223
 21
15.9323109878
  0
LINE
  5
2F0
100
AcDbEntity
  8
0
100
AcDbLine
 62
7
  6
CONTINUOUS
 10
3.2974983904
 20
11.5752171677
 11
3.3234976396
 21
11.5894150839
  0
LWPOLYLINE
  5
2F1
100
AcDbEntity
  8
0
100
AcDbPolyline
 62
7
  6
CONTINUOUS
 90
7
 70
0
 10
3.2974983904
 20
11.4886146273
 10
3.3104648141
 20
11.4953137914
 10
3.3227008255
 20
11.5020802819
 10
3.3342064248
 20
11.5089140986
 10
3.3449816119
 20
11.5158152417
 10
3.3550263867
 20
11.522783711
 10
3.3643407494
 20
11.5298195067
  0
LINE
  5
2F2
100
AcDbEntity
  8
IMPORT_IGES
100
AcDbLine
 62
7
  6
CONTINUOUS
 10
8.8140047969
 20
15.1273427313
 11
6.6928124397
 21
14.0667465526
  0
LINE
  5
2F3
100
AcDbEntity
  8
IMPORT_IGES
100
AcDbLine
 62
7
  6
CONTINUOUS
 10
7.1355616939
 20
13.8453719255
 11
9.2567540511
 21
14.9059681042
  0
LINE
  5
2F4
100
AcDbEntity
  8
IMPORT_IGES
100
AcDbLine
 62
7
  6
CONTINUOUS
 10
9.2567540511
 20
14.7327630234
 11
7.3365807991
 21
13.7726763974
  0
LINE
  5
2F5
100
AcDbEntity
  8
IMPORT_IGES
100
AcDbLine
 62
7
  6
CONTINUOUS
 10
7.2999944261
 20
13.7543832109
 11
7.1355616939
 21
13.6721668448
  0
LINE
  5
2F6
100
AcDbEntity
  8
0
100
AcDbLine
 62
7
  6
CONTINUOUS
 10
3.8138624668
 20
11.8563487244
 11
3.841039525
 21
11.8699372535
  0
LINE
  5
2F7
100
AcDbEntity
  8
0
100
AcDbLine
 62
7
  6
CONTINUOUS
 10
3.8138624668
 20
11.769746184
 11
3.841039525
 21
11.7833347131
  0
LINE
  5
2F8
100
AcDbEntity
  8
RACCORDO
100
AcDbLine
 62
7
  6
CONTINUOUS
 10
-5.2113517872
 20
7.0733925612
 11
-5.1544458659
 21
7.1018455218
  0
LINE
  5
2F9
100
AcDbEntity
  8
IMPORT_IGES
100
AcDbLine
 62
7
  6
CONTINUOUS
 10
3.2609099823
 20
13.0682061041
 11
3.3793415107
 21
13.1243788947
  0
LINE
  5
2FA
100
AcDbEntity
  8
IMPORT_IGES
100
AcDbLine
 62
7
  6
CONTINUOUS
 10
4.4391929591
 20
12.5936652264
 11
3.5403207504
 21
12.1673246982
  0
LWPOLYLINE
  5
2FB
100
AcDbEntity
  8
RACCORDO
100
AcDbPolyline
 62
7
  6
CONTINUOUS
 90
3
 70
0
 10
-5.2116588032
 20
7.0732407563
 10
-5.2332583403
 20
7.0633976988
 10
-5.2591352047
 20
7.0543444814
  0
LWPOLYLINE
  5
2FC
100
AcDbEntity
  8
IMPORT_IGES
100
AcDbPolyline
 62
253
  6
CONTINUOUS
 90
10
 70
0
 10
12.7871605617
 20
15.1807627781
 10
12.7765517635
 20
15.1760722336
 10
12.7664327322
 20
15.1711360355
 10
12.7568042248
 20
15.1659576632
 10
12.7476700667
 20
15.160538483
 10
12.7390278286
 20
15.1548839432
 10
12.7308688292
 20
15.1490036225
 10
12.7231905659
 20
15.1429029462
 10
12.7159967148
 20
15.1365831364
 10
12.7092878089
 20
15.130047442
  0
LWPOLYLINE
  5
2FD
100
AcDbEntity
  8
IMPORT_IGES
100
AcDbPolyline
 62
7
  6
CONTINUOUS
 90
7
 70
0
 10
5.1807819421
 20
11.6024978078
 10
5.214726051
 20
11.616934166
 10
5.250711006
 20
11.6272129246
 10
5.2881209195
 20
11.6329702191
 10
5.3264069811
 20
11.6339535747
 10
5.3646693929
 20
11.6300239755
 10
5.4018790181
 20
11.6213024114
  0
LWPOLYLINE
  5
2FE
100
AcDbEntity
  8
IMPORT_IGES
100
AcDbPolyline
 62
253
  6
CONTINUOUS
 90
6
 70
0
 10
12.7800161948
 20
14.9334876966
 10
12.7936535001
 20
14.9392281408
 10
12.8070644247
 20
14.9427168771
 10
12.8200263459
 20
14.9438959921
 10
12.8323240945
 20
14.9427459124
 10
12.8437535268
 20
14.9392857294
  0
LWPOLYLINE
  5
2FF
100
AcDbEntity
  8
IMPORT_IGES
100
AcDbPolyline
 62
253
  6
CONTINUOUS
 90
9
 70
0
 10
12.8862188649
 20
14.9946059375
 10
12.8938075547
 20
14.9977577243
 10
12.9013925553
 20
15.0008536882
 10
12.9089738668
 20
15.0038938293
 10
12.9165517467
 20
15.0068782471
 10
12.9241259374
 20
15.0098068421
 10
12.9316956663
 20
15.0126793154
 10
12.9392606759
 20
15.0154955676
 10
12.9468212236
 20
15.0182556981
  0
LWPOLYLINE
  5
300
100
AcDbEntity
  8
0
100
AcDbPolyline
 62
7
  6
CONTINUOUS
 90
3
 70
0
 10
3.2609099823
 20
11.4720481823
 10
3.2691818456
 20
11.4754185246
 10
3.2974983904
 20
11.4886146273
  0
LWPOLYLINE
  5
301
100
AcDbEntity
  8
0
100
AcDbPolyline
 62
7
  6
CONTINUOUS
 90
3
 70
0
 10
3.2609099823
 20
11.5587574938
 10
3.2678060895
 20
11.5615479122
 10
3.2974983904
 20
11.5752171677
  0
LWPOLYLINE
  5
302
100
AcDbEntity
  8
IMPORT_IGES
100
AcDbPolyline
 62
253
  6
CONTINUOUS
 90
5
 70
0
 10
12.2672293522
 20
14.5321013035
 10
12.2795081326
 20
14.5369250065
 10
12.2914138285
 20
14.5389707694
 10
12.3025846913
 20
14.5381764327
 10
12.3119507117
 20
14.5349414823
  0
LWPOLYLINE
  5
303
100
AcDbEntity
  8
IMPORT_IGES
100
AcDbPolyline
 62
253
  6
CONTINUOUS
 90
5
 70
0
 10
8.236975965
 20
12.5169746099
 10
8.2492547454
 20
12.5217983129
 10
8.2611604413
 20
12.5238440758
 10
8.2723313041
 20
12.5230497391
 10
8.2816973245
 20
12.5198147887
  0
LWPOLYLINE
  5
304
100
AcDbEntity
  8
IMPORT_IGES
100
AcDbPolyline
 62
253
  6
CONTINUOUS
 90
9
 70
0
 10
12.8526770812
 20
15.2063302566
 10
12.8445034216
 20
15.2033462972
 10
12.8363246642
 20
15.2003015624
 10
12.8281410854
 20
15.1971961551
 10
12.8199529621
 20
15.1940301804
 10
12.811760571
 20
15.1908037452
 10
12.8035641892
 20
15.1875169587
 10
12.7953640937
 20
15.1841699319
 10
12.7871605617
 20
15.1807627781
  0
LINE
  5
305
100
AcDbEntity
  8
IMPORT_IGES
100
AcDbLine
 62
253
  6
CONTINUOUS
 10
12.8807183156
 20
14.9926155288
 11
12.8862188649
 21
14.9946059375
  0
LINE
  5
306
100
AcDbEntity
  8
IMPORT_IGES
100
AcDbLine
 62
253
  6
CONTINUOUS
 10
14.2384831074
 20
15.6972783452
 11
12.8526770812
 21
15.2063302566
  0
LINE
  5
307
100
AcDbEntity
  8
IMPORT_IGES
100
AcDbLine
 62
253
  6
CONTINUOUS
 10
12.9468212236
 20
15.0182556981
 11
14.3320150504
 21
15.5089847126
  0
LINE
  5
308
100
AcDbEntity
  8
IMPORT_IGES
100
AcDbLine
 62
253
  6
CONTINUOUS
 10
6.1724523193
 20
-8.5639092219
 11
5.927862316
 21
-8.5890331289
  0
LINE
  5
309
100
AcDbEntity
  8
IMPORT_IGES
100
AcDbLine
 62
7
  6
CONTINUOUS
 10
5.8081545818
 20
-8.6287881198
 11
6.0180917521
 21
-8.607480965
  0
LWPOLYLINE
  5
30A
100
AcDbEntity
  8
IMPORT_IGES
100
AcDbPolyline
 62
7
  6
CONTINUOUS
 90
8
 70
0
 10
5.8081546218
 20
-8.6287881157
 10
5.791200705
 20
-8.6300247382
 10
5.7741889598
 20
-8.6302989176
 10
5.7571759866
 20
-8.6296073533
 10
5.7402203002
 20
-8.6279505069
 10
5.7233772112
 20
-8.6253322141
 10
5.7066987647
 20
-8.6217587976
 10
5.6976148865
 20
-8.6193894847
  0
LWPOLYLINE
  5
30B
100
AcDbEntity
  8
IMPORT_IGES
100
AcDbPolyline
 62
7
  6
CONTINUOUS
 90
7
 70
0
 10
-11.5954495267
 20
-5.8713076656
 10
-11.6003185343
 20
-5.8690277761
 10
-11.6233763043
 20
-5.8615795643
 10
-11.6479470437
 20
-5.8588766816
 10
-11.6737029861
 20
-5.8610657624
 10
-11.7009718978
 20
-5.8680001724
 10
-11.7297537789
 20
-5.8796799115
  0
LINE
  5
30C
100
AcDbEntity
  8
IMPORT_IGES
100
AcDbLine
 62
7
  6
CONTINUOUS
 10
-10.8000945714
 20
-6.2689069398
 11
-11.5955897002
 21
-5.8711593754
  0
LINE
  5
30D
100
AcDbEntity
  8
IMPORT_IGES
100
AcDbLine
 62
253
  6
CONTINUOUS
 10
-8.1942198729
 20
-7.2243463042
 11
-7.268841278
 21
-7.6870356017
  0
LINE
  5
30E
100
AcDbEntity
  8
IMPORT_IGES
100
AcDbLine
 62
253
  6
CONTINUOUS
 10
-12.6489925944
 20
-4.9969599434
 11
-14.6288915817
 21
-4.0070104498
  0
LWPOLYLINE
  5
30F
100
AcDbEntity
  8
RACCORDO
100
AcDbPolyline
 62
7
  6
CONTINUOUS
 90
33
 70
0
 10
-7.2579744913
 20
-9.5997811475
 10
-7.2577056994
 20
-9.6138512696
 10
-7.2570800652
 20
-9.6290913254
 10
-7.2561062213
 20
-9.6444028441
 10
-7.2547832677
 20
-9.6597748331
 10
-7.2531356221
 20
-9.6751992199
 10
-7.2511643338
 20
-9.6906665397
 10
-7.2488690413
 20
-9.7061668916
 10
-7.2462714008
 20
-9.7216924327
 10
-7.2433724876
 20
-9.737234838
 10
-7.2401723989
 20
-9.7527850837
 10
-7.2366907803
 20
-9.7683349256
 10
-7.2329287601
 20
-9.7838769469
 10
-7.2288868392
 20
-9.7994028984
 10
-7.2245833057
 20
-9.8149037608
 10
-7.2200194056
 20
-9.8303728262
 10
-7.2151959981
 20
-9.8458025813
 10
-7.2101305109
 20
-9.8611831587
 10
-7.2048242875
 20
-9.8765086793
 10
-7.1992785972
 20
-9.891772091
 10
-7.193510631
 20
-9.9069620641
 10
-7.1875219396
 20
-9.9220733709
 10
-7.1813141906
 20
-9.9370995204
 10
-7.1749048058
 20
-9.9520275755
 10
-7.1682956134
 20
-9.9668529781
 10
-7.161488722
 20
-9.9815697783
 10
-7.1545022245
 20
-9.9961632796
 10
-7.1473383339
 20
-10.0106295771
 10
-7.1399996242
 20
-10.0249633489
 10
-7.1325051823
 20
-10.0391481891
 10
-7.1248633945
 20
-10.0531760664
 10
-7.1170717121
 20
-10.0670472331
 10
-7.109133154
 20
-10.0807581074
  0
LWPOLYLINE
  5
310
100
AcDbEntity
  8
RACCORDO
100
AcDbPolyline
 62
253
  6
CONTINUOUS
 90
13
 70
0
 10
-7.109133154
 20
-10.0807581074
 10
-7.1135071914
 20
-9.505720031
 10
-7.1173119762
 20
-8.9214571881
 10
-7.1205178954
 20
-8.3279555558
 10
-7.1230864506
 20
-7.7273713178
 10
-7.1250005806
 20
-7.1175223933
 10
-7.1262395743
 20
-6.4918757789
 10
-7.1267485625
 20
-5.8496746729
 10
-7.1264697701
 20
-5.1916220468
 10
-7.1253373902
 20
-4.513354389
 10
-7.1232709177
 20
-3.8133892541
 10
-7.1201930767
 20
-3.0931342372
 10
-7.1160234542
 20
-2.3525516349
  0
LINE
  5
311
100
AcDbEntity
  8
IMPORT_IGES
100
AcDbLine
 62
7
  6
CONTINUOUS
 10
-8.2820878386
 20
-7.4086862935
 11
-8.2820878386
 21
-7.9351946893
  0
LINE
  5
312
100
AcDbEntity
  8
IMPORT_IGES
100
AcDbLine
 62
253
  6
CONTINUOUS
 10
-8.1942198729
 20
-7.6962859597
 11
-8.1942198729
 21
-7.9791286721
  0
LWPOLYLINE
  5
313
100
AcDbEntity
  8
RACCORDO
100
AcDbPolyline
 62
7
  6
CONTINUOUS
 90
10
 70
0
 10
-7.2643288681
 20
-2.48416661
 10
-7.2671764068
 20
-3.0275825863
 10
-7.2705742242
 20
-3.8913062049
 10
-7.2725830693
 20
-4.7543314792
 10
-7.2732029318
 20
-5.6166550099
 10
-7.2724338042
 20
-6.4782733779
 10
-7.2702756822
 20
-7.3391831466
 10
-7.2667285711
 20
-8.1993809185
 10
-7.2617924788
 20
-9.0588633221
 10
-7.2579709992
 20
-9.5997802817
  0
LWPOLYLINE
  5
314
100
AcDbEntity
  8
RACCORDO
100
AcDbPolyline
 62
7
  6
CONTINUOUS
 90
29
 70
0
 10
-7.2643332935
 20
-2.4841640508
 10
-7.2643255076
 20
-2.4838840538
 10
-7.264064103
 20
-2.4821593011
 10
-7.2634537492
 20
-2.4802261448
 10
-7.2624954277
 20
-2.4780948663
 10
-7.2611882185
 20
-2.4757770837
 10
-7.2595565364
 20
-2.4732683034
 10
-7.2576014138
 20
-2.4705779556
 10
-7.2553224711
 20
-2.4677166476
 10
-7.2527413612
 20
-2.4646801211
 10
-7.2498591445
 20
-2.461477102
 10
-7.2466759013
 20
-2.4581173728
 10
-7.2432112732
 20
-2.4545970695
 10
-7.2394663749
 20
-2.4509243596
 10
-7.2354416915
 20
-2.4471083606
 10
-7.2311555063
 20
-2.4431457435
 10
-7.2266090523
 20
-2.4390442459
 10
-7.2218031742
 20
-2.4348124485
 10
-7.2167552936
 20
-2.4304476463
 10
-7.2114667418
 20
-2.4259571694
 10
-7.2059387748
 20
-2.4213492257
 10
-7.200188575
 20
-2.416622003
 10
-7.194217682
 20
-2.4117825312
 10
-7.1880277507
 20
-2.4068387142
 10
-7.1816361921
 20
-2.4017898184
 10
-7.175044824
 20
-2.396642604
 10
-7.168255743
 20
-2.391404755
 10
-7.1612870283
 20
-2.3860768468
 10
-7.1541408832
 20
-2.3806653982
  0
LWPOLYLINE
  5
315
100
AcDbEntity
  8
IMPORT_IGES
100
AcDbPolyline
 62
7
  6
CONTINUOUS
 90
3
 70
0
 10
-9.0717929133
 20
-8.2909120872
 10
-9.0664295656
 20
-8.2679239281
 10
-9.0568100584
 20
-8.2417036504
  0
LWPOLYLINE
  5
316
100
AcDbEntity
  8
0
100
AcDbPolyline
 62
7
  6
CONTINUOUS
 90
4
 70
0
 10
3.3655094608
 20
11.6173510772
 10
3.3812880393
 20
11.6310434202
 10
3.3937377255
 20
11.6445824834
 10
3.4035604998
 20
11.658105469
  0
LWPOLYLINE
  5
317
100
AcDbEntity
  8
0
100
AcDbPolyline
 62
7
  6
CONTINUOUS
 90
10
 70
0
 10
3.3643407494
 20
11.5298195067
 10
3.3752287098
 20
11.5390281862
 10
3.3848525368
 20
11.5482167944
 10
3.3932122306
 20
11.5573853313
 10
3.4002653562
 20
11.5665287018
 10
3.4060543486
 20
11.5756520009
 10
3.4107065119
 20
11.5847705138
 10
3.4142642809
 20
11.5938893358
 10
3.416685221
 20
11.6030033716
 10
3.4179693321
 20
11.6121126213
  0
LWPOLYLINE
  5
318
100
AcDbEntity
  8
0
100
AcDbPolyline
 62
7
  6
CONTINUOUS
 90
3
 70
0
 10
3.3234976396
 20
11.5894150839
 10
3.3461679964
 20
11.6034597204
 10
3.3655094608
 20
11.6173510772
  0
LWPOLYLINE
  5
319
100
AcDbEntity
  8
IMPORT_IGES
100
AcDbPolyline
 62
253
  6
CONTINUOUS
 90
7
 70
0
 10
6.1634797296
 20
10.9099083676
 10
6.1893536973
 20
10.9246601704
 10
6.2111553163
 20
10.9409743848
 10
6.228511555
 20
10.9585718699
 10
6.2411254431
 20
10.977151528
 10
6.2487811536
 20
10.9963954559
 10
6.2513476952
 20
11.0159743848
  0
LWPOLYLINE
  5
31A
100
AcDbEntity
  8
IMPORT_IGES
100
AcDbPolyline
 62
253
  6
CONTINUOUS
 90
10
 70
0
 10
7.7988410377
 20
11.7194284099
 10
7.7906356461
 20
11.7149250692
 10
7.782412665
 20
11.7092610863
 10
7.7743413906
 20
11.702511016
 10
7.7666514554
 20
11.6948626576
 10
7.7594311857
 20
11.6864257551
 10
7.752656169
 20
11.6771574279
 10
7.7464354035
 20
11.6671509845
 10
7.7409605335
 20
11.656688345
 10
7.7363332542
 20
11.6459970323
  0
LWPOLYLINE
  5
31B
100
AcDbEntity
  8
IMPORT_IGES
100
AcDbPolyline
 62
253
  6
CONTINUOUS
 90
4
 70
0
 10
12.8656325516
 20
14.9854764267
 10
12.8704169413
 20
14.9880462398
 10
12.8754482141
 20
14.9904273589
 10
12.8807183156
 20
14.9926155288
  0
LINE
  5
31C
100
AcDbEntity
  8
IMPORT_IGES
100
AcDbLine
 62
7
  6
CONTINUOUS
 10
5.1807819421
 20
11.6024978078
 11
4.7039125914
 21
11.3640507556
  0
LINE
  5
31D
100
AcDbEntity
  8
IMPORT_IGES
100
AcDbLine
 62
253
  6
CONTINUOUS
 10
5.3149470967
 20
11.5939778097
 11
4.7795166869
 21
11.3262487079
  0
LINE
  5
31E
100
AcDbEntity
  8
IMPORT_IGES
100
AcDbLine
 62
253
  6
CONTINUOUS
 10
5.4159127899
 20
11.0080506563
 11
5.9513431997
 21
11.2757797581
  0
LINE
  5
31F
100
AcDbEntity
  8
IMPORT_IGES
100
AcDbLine
 62
253
  6
CONTINUOUS
 10
6.1634797296
 20
10.9099083676
 11
5.8001665435
 21
10.7282423449
  0
LINE
  5
320
100
AcDbEntity
  8
IMPORT_IGES
100
AcDbLine
 62
253
  6
CONTINUOUS
 10
13.5034878625
 20
14.5717518628
 11
7.7988409986
 21
11.7194284154
  0
LINE
  5
321
100
AcDbEntity
  8
IMPORT_IGES
100
AcDbLine
 62
253
  6
CONTINUOUS
 10
13.6098892716
 20
14.4840796708
 11
7.8926009981
 21
11.625436274
  0
LINE
  5
322
100
AcDbEntity
  8
IMPORT_IGES
100
AcDbLine
 62
7
  6
CONTINUOUS
 10
6.2513476952
 20
10.6712079652
 11
7.2603592886
 21
11.1757137619
  0
LINE
  5
323
100
AcDbEntity
  8
IMPORT_IGES
100
AcDbLine
 62
7
  6
CONTINUOUS
 10
7.3260174071
 20
11.1426385084
 11
6.269822225
 21
10.6145409174
  0
LINE
  5
324
100
AcDbEntity
  8
IMPORT_IGES
100
AcDbLine
 62
7
  6
CONTINUOUS
 10
7.0899702513
 20
10.6479036532
 11
6.6638838327
 21
10.4348493851
  0
LINE
  5
325
100
AcDbEntity
  8
IMPORT_IGES
100
AcDbLine
 62
253
  6
CONTINUOUS
 10
7.2241354059
 20
10.6393836551
 11
6.7394879282
 21
10.3970473374
  0
LINE
  5
326
100
AcDbEntity
  8
IMPORT_IGES
100
AcDbLine
 62
7
  6
CONTINUOUS
 10
4.1556377324
 20
9.4484132764
 11
6.4353059968
 21
10.549138303
  0
LWPOLYLINE
  5
327
100
AcDbEntity
  8
IMPORT_IGES
100
AcDbPolyline
 62
253
  6
CONTINUOUS
 90
8
 70
0
 10
14.148787244
 20
13.8459556135
 10
14.1619177265
 20
13.8522610674
 10
14.1739175744
 20
13.8570097278
 10
14.1845920703
 20
13.8601301727
 10
14.1937651027
 20
13.8615783616
 10
14.201299229
 20
13.8613412192
 10
14.2070873877
 20
13.8594262125
 10
14.2103534047
 20
13.8567555372
  0
LINE
  5
328
100
AcDbEntity
  8
IMPORT_IGES
100
AcDbLine
 62
7
  6
CONTINUOUS
 10
5.9269306304
 20
11.3635931138
 11
6.4214787052
 21
11.5981602585
  0
LINE
  5
329
100
AcDbEntity
  8
IMPORT_IGES
100
AcDbLine
 62
7
  6
CONTINUOUS
 10
7.4782149715
 20
11.0659690405
 11
6.5877437983
 21
10.6436131742
  0
LINE
  5
32A
100
AcDbEntity
  8
IMPORT_IGES
100
AcDbLine
 62
7
  6
CONTINUOUS
 10
6.1634797296
 20
10.4423821589
 11
6.0272015278
 21
10.3777445831
  0
LWPOLYLINE
  5
32B
100
AcDbEntity
  8
IMPORT_IGES
100
AcDbPolyline
 62
253
  6
CONTINUOUS
 90
7
 70
0
 10
5.1807819421
 20
11.6024978079
 10
5.1858102253
 20
11.6048587973
 10
5.2088816818
 20
11.6122034983
 10
5.2337680238
 20
11.6147910107
 10
5.2600434393
 20
11.6125770615
 10
5.2872583484
 20
11.605599532
 10
5.3149470967
 20
11.5939778097
  0
LWPOLYLINE
  5
32C
100
AcDbEntity
  8
IMPORT_IGES
100
AcDbPolyline
 62
253
  6
CONTINUOUS
 90
7
 70
0
 10
7.0899702513
 20
10.6479036533
 10
7.0949985345
 20
10.6502646427
 10
7.118069991
 20
10.6576093437
 10
7.142956333
 20
10.6601968561
 10
7.1692317485
 20
10.6579829069
 10
7.1964466576
 20
10.6510053774
 10
7.2241354059
 20
10.6393836551
  0
LINE
  5
32D
100
AcDbEntity
  8
IMPORT_IGES
100
AcDbLine
 62
7
  6
CONTINUOUS
 10
4.5661407916
 20
10.9289194856
 11
3.2609099823
 21
10.3540325738
  0
LINE
  5
32E
100
AcDbEntity
  8
IMPORT_IGES
100
AcDbLine
 62
7
  6
CONTINUOUS
 10
3.2609099823
 20
9.1848982782
 11
3.9471997654
 21
9.4871735625
  0
LWPOLYLINE
  5
32F
100
AcDbEntity
  8
IMPORT_IGES
100
AcDbPolyline
 62
7
  6
CONTINUOUS
 90
15
 70
0
 10
14.5269495892
 20
13.7207882896
 10
14.5205649879
 20
13.7180711404
 10
14.5087437873
 20
13.7147326748
 10
14.4937181264
 20
13.7125349361
 10
14.4754261615
 20
13.7119908227
 10
14.4539865791
 20
13.7136196094
 10
14.4300435818
 20
13.7178129874
 10
14.4039968898
 20
13.7248428281
 10
14.3763142673
 20
13.7349094061
 10
14.3476678924
 20
13.7480597068
 10
14.3186074585
 20
13.7642819011
 10
14.2897973798
 20
13.7834284488
 10
14.2617945668
 20
13.8053465712
 10
14.235016424
 20
13.8299773833
 10
14.2104100056
 20
13.8566935311
  0
LWPOLYLINE
  5
330
100
AcDbEntity
  8
IMPORT_IGES
100
AcDbPolyline
 62
7
  6
CONTINUOUS
 90
7
 70
0
 10
7.0899702513
 20
10.6479036532
 10
7.1239143602
 20
10.6623400114
 10
7.1598993152
 20
10.67261877
 10
7.1973092287
 20
10.6783760645
 10
7.2355952903
 20
10.6793594201
 10
7.2738577021
 20
10.6754298209
 10
7.3110673273
 20
10.6667082568
  0
LWPOLYLINE
  5
331
100
AcDbEntity
  8
IMPORT_IGES
100
AcDbPolyline
 62
253
  6
CONTINUOUS
 90
7
 70
0
 10
13.5034878684
 20
14.5717518597
 10
13.5169435032
 20
14.5774301208
 10
13.5301477617
 20
14.5809113452
 10
13.5428908954
 20
14.5821567855
 10
13.554918838
 20
14.5811737582
 10
13.5661078767
 20
14.5780060473
 10
13.5705068925
 20
14.5760435861
  0
LWPOLYLINE
  5
332
100
AcDbEntity
  8
IMPORT_IGES
100
AcDbPolyline
 62
253
  6
CONTINUOUS
 90
7
 70
0
 10
5.9513431997
 20
11.2757797581
 10
5.9790726532
 20
11.2874159585
 10
6.0063292495
 20
11.2943945206
 10
6.0326449124
 20
11.2965941244
 10
6.0575722916
 20
11.2939744387
 10
6.0806772583
 20
11.2865779829
 10
6.085383291
 20
11.284366681
  0
LWPOLYLINE
  5
333
100
AcDbEntity
  8
IMPORT_IGES
100
AcDbPolyline
 62
253
  6
CONTINUOUS
 90
8
 70
0
 10
14.6472072428
 20
13.6726793915
 10
14.6210159403
 20
13.6617313719
 10
14.5929998134
 20
13.6539743017
 10
14.5631588621
 20
13.6494081809
 10
14.5311850516
 20
13.6479958183
 10
14.4973864166
 20
13.649774405
 10
14.462687061
 20
13.6548555146
 10
14.4270517727
 20
13.6633119769
  0
LWPOLYLINE
  5
334
100
AcDbEntity
  8
IMPORT_IGES
100
AcDbPolyline
 62
253
  6
CONTINUOUS
 90
10
 70
0
 10
14.8267268037
 20
13.8706772721
 10
14.8344736277
 20
13.8738520917
 10
14.8472879165
 20
13.8765058157
 10
14.8610073951
 20
13.87643463
 10
14.8753650523
 20
13.8736399032
 10
14.890081405
 20
13.8681760086
 10
14.9048700276
 20
13.8601492823
 10
14.9194430805
 20
13.8497159422
 10
14.9335169127
 20
13.8370790514
 10
14.9468175955
 20
13.8224845673
  0
LINE
  5
335
100
AcDbEntity
  8
IMPORT_IGES
100
AcDbLine
 62
7
  6
CONTINUOUS
 10
3.2609099823
 20
-7.8598958147
 11
4.0834672964
 21
-8.0231878209
  0
LINE
  5
336
100
AcDbEntity
  8
IMPORT_IGES
100
AcDbLine
 62
253
  6
CONTINUOUS
 10
4.0740827807
 20
-7.7799415204
 11
3.2609099823
 21
-7.6185125046
  0
LWPOLYLINE
  5
337
100
AcDbEntity
  8
IMPORT_IGES
100
AcDbPolyline
 62
253
  6
CONTINUOUS
 90
8
 70
0
 10
5.697219784
 20
-8.6192781677
 10
5.7235710552
 20
-8.6245463154
 10
5.7551993924
 20
-8.6258623864
 10
5.7872085544
 20
-8.6219564705
 10
5.8189971157
 20
-8.6129203629
 10
5.8499036899
 20
-8.5989957673
 10
5.8794049272
 20
-8.5805002373
 10
5.9070161181
 20
-8.5578224321
  0
LINE
  5
338
100
AcDbEntity
  8
IMPORT_IGES
100
AcDbLine
 62
7
  6
CONTINUOUS
 10
4.4873387363
 20
-8.2767626808
 11
5.697219784
 21
-8.6192781677
  0
LINE
  5
339
100
AcDbEntity
  8
IMPORT_IGES
100
AcDbLine
 62
253
  6
CONTINUOUS
 10
5.9899943321
 20
-8.436387426
 11
4.7811895618
 21
-8.0941731262
  0
LINE
  5
33A
100
AcDbEntity
  8
IMPORT_IGES
100
AcDbLine
 62
7
  6
CONTINUOUS
 10
4.4873224522
 20
-8.27675807
 11
4.4867267975
 21
-8.2765883028
  0
LWPOLYLINE
  5
33B
100
AcDbEntity
  8
RACCORDO
100
AcDbPolyline
 62
253
  6
CONTINUOUS
 90
43
 70
0
 10
-3.6358433724
 20
-24.6361998927
 10
-3.6343531588
 20
-24.6659341611
 10
-3.6319830721
 20
-24.6950911246
 10
-3.6287331122
 20
-24.7236707832
 10
-3.6245970924
 20
-24.7517081515
 10
-3.6195811994
 20
-24.779168215
 10
-3.6137039942
 20
-24.8059459288
 10
-3.6069622415
 20
-24.8320378764
 10
-3.5993591766
 20
-24.8574474745
 10
-3.590923066
 20
-24.8820799282
 10
-3.581650883
 20
-24.9059320604
 10
-3.5715456543
 20
-24.9290070483
 10
-3.5606447275
 20
-24.951219628
 10
-3.5489451556
 20
-24.9725666607
 10
-3.5364498857
 20
-24.9930512852
 10
-3.5232051057
 20
-25.0125976543
 10
-3.5092079726
 20
-25.0312023589
 10
-3.4944613295
 20
-25.0488688082
 10
-3.4790198941
 20
-25.0655313823
 10
-3.4628811328
 20
-25.0811862921
 10
-3.4460475791
 20
-25.0958373267
 10
-3.4285815517
 20
-25.1094302339
 10
-3.4104807135
 20
-25.1219610959
 10
-3.3917474016
 20
-25.1334338305
 10
-3.3724509458
 20
-25.1438059388
 10
-3.3525891884
 20
-25.1530733608
 10
-3.332164287
 20
-25.1612401566
 10
-3.311252045
 20
-25.1682760074
 10
-3.289850722
 20
-25.1741766855
 10
-3.2679620584
 20
-25.1789464187
 10
-3.2456670779
 20
-25.1825675721
 10
-3.2229643243
 20
-25.185035912
 10
-3.1998552539
 20
-25.1863556721
 10
-3.1764252593
 20
-25.186521918
 10
-3.152672874
 20
-25.1855303114
 10
-3.1285995645
 20
-25.1833851906
 10
-3.1042951226
 20
-25.1800946356
 10
-3.0797575735
 20
-25.1756538504
 10
-3.054988892
 20
-25.1700676311
 10
-3.0300847936
 20
-25.1633584456
 10
-3.0050771836
 20
-25.1555337834
 10
-2.9799341568
 20
-25.1465861552
 10
-2.9546557131
 20
-25.1365155608
  0
LWPOLYLINE
  5
33C
100
AcDbEntity
  8
RACCORDO
100
AcDbPolyline
 62
253
  6
CONTINUOUS
 90
25
 70
0
 10
-4.3364268463
 20
-24.6507997068
 10
-4.3342117523
 20
-24.6953295263
 10
-4.3306733321
 20
-24.739089179
 10
-4.3258160053
 20
-24.7820246141
 10
-4.3196457956
 20
-24.8240822745
 10
-4.3121703846
 20
-24.8652108147
 10
-4.3033989183
 20
-24.9053610273
 10
-4.2933417531
 20
-24.9444841492
 10
-4.2820113516
 20
-24.9825308554
 10
-4.269422303
 20
-25.0194529653
 10
-4.255590128
 20
-25.055204551
 10
-4.2405316798
 20
-25.0897418942
 10
-4.224265885
 20
-25.1230223632
 10
-4.206812542
 20
-25.1550049677
 10
-4.1881930557
 20
-25.1856501778
 10
-4.1684308946
 20
-25.2149199209
 10
-4.147550074
 20
-25.2427782217
 10
-4.1255762207
 20
-25.2691906026
 10
-4.1025372802
 20
-25.2941238787
 10
-4.0784614565
 20
-25.3175473195
 10
-4.0533781631
 20
-25.339432176
 10
-4.0273190763
 20
-25.3597510646
 10
-4.0003160141
 20
-25.3784790412
 10
-3.9724020294
 20
-25.3955930963
 10
-3.9430452661
 20
-25.4113557452
  0
LWPOLYLINE
  5
33D
100
AcDbEntity
  8
ASSI
100
AcDbPolyline
 62
7
  6
CONTINUOUS
 90
10
 70
0
 10
-5.1583140047
 20
6.9507815643
 10
-5.1459263
 20
7.4345635063
 10
-5.1331083266
 20
7.9185424445
 10
-5.1198600844
 20
8.4027183791
 10
-5.1061815558
 20
8.8870919189
 10
-5.0920727584
 20
9.3716624549
 10
-5.0775337453
 20
9.8564281607
 10
-5.0625645339
 20
10.3413884273
 10
-5.0471651068
 20
10.8265438636
 10
-5.0313354638
 20
11.3118944695
  0
LWPOLYLINE
  5
33E
100
AcDbEntity
  8
RACCORDO
100
AcDbPolyline
 62
253
  6
CONTINUOUS
 90
22
 70
0
 10
-4.3364268463
 20
10.9644401608
 10
-4.3916254967
 20
9.2426474205
 10
-4.4413066742
 20
7.5232715459
 10
-4.4854696295
 20
5.8063389339
 10
-4.5241137054
 20
4.0918759512
 10
-4.5572383104
 20
2.3799089098
 10
-4.5848429191
 20
0.6704640662
 10
-4.6069271108
 20
-1.0364323422
 10
-4.6234905569
 20
-2.7407541095
 10
-4.6345329944
 20
-4.4424750856
 10
-4.6400542526
 20
-6.1415691486
 10
-4.6400542526
 20
-7.8380102197
 10
-4.6345329944
 20
-9.5317722748
 10
-4.6234905569
 20
-11.2228293223
 10
-4.6069271108
 20
-12.9111554028
 10
-4.5848429191
 20
-14.5967246029
 10
-4.5572383104
 20
-16.2795110538
 10
-4.5241137054
 20
-17.9594889303
 10
-4.4854696295
 20
-19.636632449
 10
-4.4413066741
 20
-21.3109158719
 10
-4.3916254967
 20
-22.9823135071
 10
-4.3364268463
 20
-24.6507997068
  0
LWPOLYLINE
  5
33F
100
AcDbEntity
  8
RACCORDO
100
AcDbPolyline
 62
253
  6
CONTINUOUS
 90
10
 70
0
 10
-5.237708727
 20
11.4748391671
 10
-5.2533808668
 20
10.9934905805
 10
-5.2686298645
 20
10.5123329491
 10
-5.2834557021
 20
10.031366849
 10
-5.2978583502
 20
9.5505932576
 10
-5.3118378046
 20
9.0700123489
 10
-5.3253940821
 20
8.5896234957
 10
-5.3385271744
 20
8.1094268739
 10
-5.3512370514
 20
7.6294234612
 10
-5.363523695
 20
7.1496138337
  0
LWPOLYLINE
  5
340
100
AcDbEntity
  8
RACCORDO
100
AcDbPolyline
 62
253
  6
CONTINUOUS
 90
27
 70
0
 10
0.5989690197
 20
16.1653181426
 10
0.5940850025
 20
16.1533494844
 10
0.5887343991
 20
16.1416562804
 10
0.5829318208
 20
16.1302704621
 10
0.5766931131
 20
16.1192231219
 10
0.5700353128
 20
16.1085444277
 10
0.5629766008
 20
16.098263541
 10
0.5555362531
 20
16.0884085365
 10
0.5477345876
 20
16.0790063262
 10
0.5395929092
 20
16.0700825857
 10
0.5311334509
 20
16.0616616838
 10
0.5223793138
 20
16.0537666161
 10
0.5133544037
 20
16.0464189426
 10
0.5040833656
 20
16.0396387281
 10
0.4945915169
 20
16.0334444879
 10
0.4849047778
 20
16.0278531373
 10
0.4750496007
 20
16.0228799451
 10
0.465052898
 20
16.018538492
 10
0.4549419687
 20
16.0148406336
 10
0.4447444237
 20
16.011796468
 10
0.4344881102
 20
16.0094143082
 10
0.4242010361
 20
16.0077006593
 10
0.4139112932
 20
16.006660201
 10
0.4036469807
 20
16.0062957745
 10
0.3934361283
 20
16.0066083751
 10
0.3833066197
 20
16.0075971489
 10
0.3732861164
 20
16.0092593961
  0
LINE
  5
341
100
AcDbEntity
  8
IMPORT_IGES
100
AcDbLine
 62
7
  6
CONTINUOUS
 10
7.5371474339
 20
15.7657714128
 11
6.671531354
 21
14.8135644507
  0
LINE
  5
342
100
AcDbEntity
  8
IMPORT_IGES
100
AcDbLine
 62
7
  6
CONTINUOUS
 10
6.932159896
 20
14.9270595802
 11
7.5371474339
 21
15.592566332
  0
LINE
  5
343
100
AcDbEntity
  8
IMPORT_IGES
100
AcDbLine
 62
7
  6
CONTINUOUS
 10
5.8206902703
 20
14.5029349166
 11
6.5602391106
 21
15.3107824938
  0
LINE
  5
344
100
AcDbEntity
  8
IMPORT_IGES
100
AcDbLine
 62
7
  6
CONTINUOUS
 10
8.5634188816
 20
13.1315706109
 11
9.6191010216
 21
14.0637247318
  0
LINE
  5
345
100
AcDbEntity
  8
RACCORDO
100
AcDbLine
 62
7
  6
CONTINUOUS
 10
-16.9350811109
 20
-5.1480672041
 11
-16.951210138
 21
-5.1597196154
  0
LINE
  5
346
100
AcDbEntity
  8
RACCORDO
100
AcDbLine
 62
7
  6
CONTINUOUS
 10
-16.918080463
 20
-5.1359229246
 11
-16.9350811109
 21
-5.1480672041
  0
LINE
  5
347
100
AcDbEntity
  8
RACCORDO
100
AcDbLine
 62
7
  6
CONTINUOUS
 10
-16.9002019852
 20
-5.1233133962
 11
-16.918080463
 21
-5.1359229246
  0
LINE
  5
348
100
AcDbEntity
  8
RACCORDO
100
AcDbLine
 62
7
  6
CONTINUOUS
 10
-16.8814822566
 20
-5.110259654
 11
-16.9002019852
 21
-5.1233133962
  0
LINE
  5
349
100
AcDbEntity
  8
IMPORT_IGES
100
AcDbLine
 62
7
  6
CONTINUOUS
 10
-15.0531556504
 20
-4.2668180709
 11
-15.0008911032
 21
-4.2304844107
  0
LINE
  5
34A
100
AcDbEntity
  8
RACCORDO
100
AcDbLine
 62
7
  6
CONTINUOUS
 10
-16.8619518905
 20
-5.0967806681
 11
-16.8814822566
 21
-5.110259654
  0
LWPOLYLINE
  5
34B
100
AcDbEntity
  8
IMPORT_IGES
100
AcDbPolyline
 62
7
  6
CONTINUOUS
 90
13
 70
0
 10
-15.0008911032
 20
-4.2304844107
 10
-14.9726921288
 20
-4.2110935342
 10
-14.9431991648
 20
-4.1915137968
 10
-14.9127521957
 20
-4.1719710148
 10
-14.8819629199
 20
-4.1524239548
 10
-14.8510987798
 20
-4.1331624582
 10
-14.8202929366
 20
-4.1144582059
 10
-14.7899109284
 20
-4.0962333719
 10
-14.760150395
 20
-4.0787241375
 10
-14.7312025964
 20
-4.0621680055
 10
-14.7033852897
 20
-4.0465223663
 10
-14.6769355079
 20
-4.0319359832
 10
-14.6520294467
 20
-4.018703426
  0
LINE
  5
34C
100
AcDbEntity
  8
RACCORDO
100
AcDbLine
 62
7
  6
CONTINUOUS
 10
-16.8311794955
 20
-5.0758216396
 11
-16.8619518905
 21
-5.0967806681
  0
LINE
  5
34D
100
AcDbEntity
  8
RACCORDO
100
AcDbLine
 62
7
  6
CONTINUOUS
 10
-16.7987225672
 20
-5.0540392946
 11
-16.8311794955
 21
-5.0758216396
  0
LINE
  5
34E
100
AcDbEntity
  8
RACCORDO
100
AcDbLine
 62
7
  6
CONTINUOUS
 10
-16.7646729569
 20
-5.0315098373
 11
-16.7987225672
 21
-5.0540392946
  0
LINE
  5
34F
100
AcDbEntity
  8
RACCORDO
100
AcDbLine
 62
7
  6
CONTINUOUS
 10
-16.729123082
 20
-5.00830974
 11
-16.7646729569
 21
-5.0315098373
  0
LINE
  5
350
100
AcDbEntity
  8
RACCORDO
100
AcDbLine
 62
7
  6
CONTINUOUS
 10
-16.6921678236
 20
-4.9845174983
 11
-16.729123082
 21
-5.00830974
  0
LINE
  5
351
100
AcDbEntity
  8
RACCORDO
100
AcDbLine
 62
7
  6
CONTINUOUS
 10
-16.6539045592
 20
-4.9602141852
 11
-16.6921678236
 21
-4.9845174983
  0
LINE
  5
352
100
AcDbEntity
  8
RACCORDO
100
AcDbLine
 62
7
  6
CONTINUOUS
 10
-16.6144362403
 20
-4.935485997
 11
-16.6539045592
 21
-4.9602141852
  0
LINE
  5
353
100
AcDbEntity
  8
RACCORDO
100
AcDbLine
 62
7
  6
CONTINUOUS
 10
-16.5738768504
 20
-4.910428269
 11
-16.6144362403
 21
-4.935485997
  0
LINE
  5
354
100
AcDbEntity
  8
RACCORDO
100
AcDbLine
 62
7
  6
CONTINUOUS
 10
-16.5323584935
 20
-4.8851504592
 11
-16.5738768504
 21
-4.910428269
  0
LINE
  5
355
100
AcDbEntity
  8
RACCORDO
100
AcDbLine
 62
7
  6
CONTINUOUS
 10
-16.4900418119
 20
-4.8597831235
 11
-16.5323584935
 21
-4.8851504592
  0
LINE
  5
356
100
AcDbEntity
  8
RACCORDO
100
AcDbLine
 62
7
  6
CONTINUOUS
 10
-16.461485466
 20
-4.8429038886
 11
-16.4900418119
 21
-4.8597831235
  0
LWPOLYLINE
  5
357
100
AcDbEntity
  8
RACCORDO
100
AcDbPolyline
 62
7
  6
CONTINUOUS
 90
3
 70
0
 10
-16.418334877
 20
-4.8177742835
 10
-16.4327406633
 20
-4.8261174356
 10
-16.461485466
 20
-4.8429038886
  0
LWPOLYLINE
  5
358
100
AcDbEntity
  8
IMPORT_IGES
100
AcDbPolyline
 62
7
  6
CONTINUOUS
 90
10
 70
0
 10
5.187255579
 20
8.7861577434
 10
5.1685409734
 20
8.7757503394
 10
5.1502409491
 20
8.7636495633
 10
5.1323555062
 20
8.7498554151
 10
5.1147547736
 20
8.734237075
 10
5.0975686223
 20
8.7169253628
 10
5.0811866659
 20
8.6983127385
 10
5.0657387755
 20
8.6785300221
 10
5.0510950798
 20
8.6574463936
 10
5.037255579
 20
8.635061853
  0
LWPOLYLINE
  5
359
100
AcDbEntity
  8
IMPORT_IGES
100
AcDbPolyline
 62
253
  6
CONTINUOUS
 90
10
 70
0
 10
5.4700982915
 20
8.6447363872
 10
5.4516097665
 20
8.6345034782
 10
5.4332619503
 20
8.622371155
 10
5.4151944809
 20
8.6084317519
 10
5.3975448627
 20
8.5927913561
 10
5.3804474199
 20
8.5755690004
 10
5.3640322743
 20
8.5568957575
 10
5.3484243552
 20
8.5369137419
 10
5.3337424482
 20
8.5157750288
 10
5.3200982915
 20
8.4936404968
  0
LWPOLYLINE
  5
35A
100
AcDbEntity
  8
IMPORT_IGES
100
AcDbPolyline
 62
7
  6
CONTINUOUS
 90
10
 70
0
 10
5.0839460902
 20
8.9842590972
 10
5.0345343948
 20
8.9570257318
 10
4.9855003695
 20
8.924726062
 10
4.9372163821
 20
8.8876063232
 10
4.8900483692
 20
8.8459498167
 10
4.8443552651
 20
8.8000735821
 10
4.8004862811
 20
8.7503259684
 10
4.758775305
 20
8.697085547
 10
4.7195383598
 20
8.6407582419
 10
4.6830734166
 20
8.5817730592
  0
LINE
  5
35B
100
AcDbEntity
  8
IMPORT_IGES
100
AcDbLine
 62
253
  6
CONTINUOUS
 10
3.5998636266
 20
6.7224728553
 11
3.2609099823
 21
6.5527407063
  0
LINE
  5
35C
100
AcDbEntity
  8
IMPORT_IGES
100
AcDbLine
 62
7
  6
CONTINUOUS
 10
14.5269089843
 20
13.7207679514
 11
14.8267035321
 21
13.870665643
  0
LINE
  5
35D
100
AcDbEntity
  8
IMPORT_IGES
100
AcDbLine
 62
253
  6
CONTINUOUS
 10
7.3267744049
 20
10.103404099
 11
5.7364012134
 21
9.3082175033
  0
LINE
  5
35E
100
AcDbEntity
  8
IMPORT_IGES
100
AcDbLine
 62
253
  6
CONTINUOUS
 10
7.374876796
 20
10.0783456421
 11
7.6119747503
 21
10.196900773
  0
LINE
  5
35F
100
AcDbEntity
  8
IMPORT_IGES
100
AcDbLine
 62
253
  6
CONTINUOUS
 10
14.6472072428
 20
13.6726793915
 11
14.9468230235
 21
13.8224872818
  0
LINE
  5
360
100
AcDbEntity
  8
IMPORT_IGES
100
AcDbLine
 62
7
  6
CONTINUOUS
 10
5.187255579
 20
8.7861577434
 11
8.0987348175
 21
10.2418973627
  0
LINE
  5
361
100
AcDbEntity
  8
IMPORT_IGES
100
AcDbLine
 62
253
  6
CONTINUOUS
 10
5.4700982915
 20
8.6447363872
 11
8.38157753
 21
10.1004760064
  0
LINE
  5
362
100
AcDbEntity
  8
IMPORT_IGES
100
AcDbLine
 62
253
  6
CONTINUOUS
 10
15.415149484
 20
13.6039854691
 11
8.5701782316
 21
10.18149687
  0
LINE
  5
363
100
AcDbEntity
  8
IMPORT_IGES
100
AcDbLine
 62
253
  6
CONTINUOUS
 10
8.6288555021
 20
9.879772461
 11
15.5212155009
 21
13.3259524604
  0
LINE
  5
364
100
AcDbEntity
  8
IMPORT_IGES
100
AcDbLine
 62
253
  6
CONTINUOUS
 10
5.6822303259
 20
8.2788627489
 11
8.6288555021
 21
9.752175337
  0
LINE
  5
365
100
AcDbEntity
  8
IMPORT_IGES
100
AcDbLine
 62
253
  6
CONTINUOUS
 10
5.7364012134
 20
9.3082175033
 11
5.0839460908
 21
8.9842590975
  0
LWPOLYLINE
  5
366
100
AcDbEntity
  8
IMPORT_IGES
100
AcDbPolyline
 62
253
  6
CONTINUOUS
 90
5
 70
0
 10
15.0166681986
 20
13.874270936
 10
15.0030931648
 20
13.8676850249
 10
14.9891902617
 20
13.8590088458
 10
14.9752099371
 20
13.8484610038
 10
14.9610612506
 20
13.8362235376
  0
LWPOLYLINE
  5
367
100
AcDbEntity
  8
IMPORT_IGES
100
AcDbPolyline
 62
253
  6
CONTINUOUS
 90
13
 70
0
 10
4.7811895618
 20
6.7247973122
 10
4.7516996237
 20
6.7118655724
 10
4.7190799923
 20
6.7009660045
 10
4.6838867058
 20
6.6922864015
 10
4.6467174883
 20
6.6859763644
 10
4.6082102755
 20
6.6821462639
 10
4.5690331698
 20
6.6808633299
 10
4.5298563115
 20
6.6821494559
 10
4.4913515339
 20
6.6859825348
 10
4.4541891638
 20
6.6922945207
 10
4.4190071001
 20
6.7009740792
 10
4.3864010312
 20
6.7118710982
 10
4.3569254931
 20
6.7247973122
  0
LWPOLYLINE
  5
368
100
AcDbEntity
  8
IMPORT_IGES
100
AcDbPolyline
 62
253
  6
CONTINUOUS
 90
13
 70
0
 10
4.3569254931
 20
-8.0941731262
 10
4.386382441
 20
-8.1070922055
 10
4.4189719247
 20
-8.1179861987
 10
4.4541415314
 20
-8.1266660439
 10
4.491298515
 20
-8.1329807919
 10
4.5298047816
 20
-8.1368175843
 10
4.568986269
 20
-8.1381071047
 10
4.6081703548
 20
-8.1368268006
 10
4.6466870898
 20
-8.1329981465
 10
4.6838656255
 20
-8.1266884034
 10
4.7190669408
 20
-8.118008202
 10
4.7516937014
 20
-8.1071071384
 10
4.7811895618
 20
-8.0941731262
  0
LWPOLYLINE
  5
369
100
AcDbEntity
  8
IMPORT_IGES
100
AcDbPolyline
 62
7
  6
CONTINUOUS
 90
10
 70
0
 10
4.4348934488
 20
-8.2564352663
 10
4.4408242955
 20
-8.2593196422
 10
4.4468258276
 20
-8.2620768364
 10
4.4528947497
 20
-8.2647046669
 10
4.4590297302
 20
-8.2672018668
 10
4.4652252276
 20
-8.2695655491
 10
4.4714715646
 20
-8.2717917576
 10
4.4777631763
 20
-8.2738785936
 10
4.4840985372
 20
-8.2758256693
 10
4.4869001725
 20
-8.2766381628
  0
LINE
  5
36A
100
AcDbEntity
  8
RACCORDO
100
AcDbLine
 62
7
  6
CONTINUOUS
 10
-7.2643450482
 20
-2.4872543735
 11
-16.5527892527
 21
2.1569677288
  0
LINE
  5
36B
100
AcDbEntity
  8
IMPORT_IGES
100
AcDbLine
 62
7
  6
CONTINUOUS
 10
4.1520507364
 20
-8.11501391
 11
4.4348934488
 21
-8.2564352663
  0
LINE
  5
36C
100
AcDbEntity
  8
IMPORT_IGES
100
AcDbLine
 62
253
  6
CONTINUOUS
 10
4.0740827807
 20
-7.95275177
 11
4.3569254931
 21
-8.0941731264
  0
LINE
  5
36D
100
AcDbEntity
  8
RACCORDO
100
AcDbLine
 62
253
  6
CONTINUOUS
 10
-7.1160234542
 20
-2.3525516349
 11
-16.958221636
 21
2.5685474559
  0
LWPOLYLINE
  5
36E
100
AcDbEntity
  8
RACCORDO
100
AcDbPolyline
 62
7
  6
CONTINUOUS
 90
37
 70
0
 10
-16.5527884095
 20
2.1569673071
 10
-16.5665454932
 20
2.1640610399
 10
-16.5803033476
 20
2.1715828109
 10
-16.5939502035
 20
2.1794651144
 10
-16.6074848628
 20
2.187695624
 10
-16.6209078023
 20
2.1962625488
 10
-16.6342053941
 20
2.2051496781
 10
-16.647377084
 20
2.2143459623
 10
-16.6604234877
 20
2.2238405514
 10
-16.6733320218
 20
2.2336194399
 10
-16.6861026422
 20
2.2436726593
 10
-16.6987360455
 20
2.2539901403
 10
-16.7112201165
 20
2.2645592573
 10
-16.7235552463
 20
2.2753709498
 10
-16.7357421843
 20
2.2864157697
 10
-16.7477688105
 20
2.2976817002
 10
-16.7596358662
 20
2.3091603871
 10
-16.7713442099
 20
2.3208428997
 10
-16.7828814832
 20
2.3327172461
 10
-16.7942487062
 20
2.3447755824
 10
-16.8054469367
 20
2.3570094341
 10
-16.8164635925
 20
2.3694065046
 10
-16.8273001152
 20
2.3819595189
 10
-16.8379576504
 20
2.3946602138
 10
-16.8484230467
 20
2.4074952347
 10
-16.8586980963
 20
2.4204576779
 10
-16.8687842013
 20
2.4335395133
 10
-16.8786676808
 20
2.4467259284
 10
-16.8883507261
 20
2.4600103497
 10
-16.8978350602
 20
2.4733849065
 10
-16.9071065492
 20
2.4868329171
 10
-16.9161677953
 20
2.5003480627
 10
-16.9250209624
 20
2.5139226457
 10
-16.9336517121
 20
2.5275378792
 10
-16.9420572824
 20
2.5411829118
 10
-16.9502462537
 20
2.5548549721
 10
-16.958221636
 20
2.5685474559
  0
LWPOLYLINE
  5
36F
100
AcDbEntity
  8
RACCORDO
100
AcDbPolyline
 62
253
  6
CONTINUOUS
 90
34
 70
0
 10
-2.9546557131
 20
12.1015556793
 10
-2.9559436714
 20
12.1218903705
 10
-2.9580146129
 20
12.1425859611
 10
-2.9608638517
 20
12.1635956236
 10
-2.9644849409
 20
12.1848718198
 10
-2.9688696872
 20
12.2063664081
 10
-2.9740081692
 20
12.2280307532
 10
-2.9798887602
 20
12.2498158353
 10
-2.9864981543
 20
12.2716723617
 10
-2.9938213966
 20
12.2935508779
 10
-3.0018419169
 20
12.3154018795
 10
-3.0105415672
 20
12.3371759246
 10
-3.019900663
 20
12.3588237453
 10
-3.0298980277
 20
12.3802963594
 10
-3.0405110403
 20
12.401545181
 10
-3.0517156869
 20
12.4225221305
 10
-3.0634866149
 20
12.4431797438
 10
-3.0757971904
 20
12.463471279
 10
-3.0886195583
 20
12.4833508227
 10
-3.1019247058
 20
12.5027733936
 10
-3.1156825274
 20
12.5216950444
 10
-3.1298618934
 20
12.5400729615
 10
-3.1444307204
 20
12.5578655611
 10
-3.1593560436
 20
12.5750325841
 10
-3.1746040917
 20
12.591535187
 10
-3.190140363
 20
12.6073360293
 10
-3.2059297039
 20
12.6223993588
 10
-3.2219363879
 20
12.6366910916
 10
-3.2381241968
 20
12.6501788901
 10
-3.2544565028
 20
12.6628322355
 10
-3.2708963509
 20
12.6746224972
 10
-3.2874065426
 20
12.6855229975
 10
-3.3039497207
 20
12.6955090719
 10
-3.3204884531
 20
12.7045581251
  0
LINE
  5
370
100
AcDbEntity
  8
RACCORDO
100
AcDbLine
 62
253
  6
CONTINUOUS
 10
-3.2818906405
 20
17.6944403954
 11
-3.2818906405
 21
18.7750237062
  0
LINE
  5
371
100
AcDbEntity
  8
RACCORDO
100
AcDbLine
 62
253
  6
CONTINUOUS
 10
-2.5768467212
 20
17.7159761587
 11
-2.5768467212
 21
18.948703131
  0
LINE
  5
372
100
AcDbEntity
  8
ASSI
100
AcDbLine
 62
253
  6
CONTINUOUS
 10
-2.4510773742
 20
23.3285337313
 11
-2.4510773742
 21
24.5558843283
  0
LINE
  5
373
100
AcDbEntity
  8
RACCORDO
100
AcDbLine
 62
7
  6
CONTINUOUS
 10
-2.325727867
 20
23.4775618897
 11
-2.325727867
 21
24.5652070968
  0
LINE
  5
374
100
AcDbEntity
  8
DRAFT
100
AcDbLine
 62
7
  6
CONTINUOUS
 10
-2.2191675719
 20
19.1280076758
 11
-2.2191675719
 21
17.9155721105
  0
LWPOLYLINE
  5
375
100
AcDbEntity
  8
RACCORDO
100
AcDbPolyline
 62
253
  6
CONTINUOUS
 90
22
 70
0
 10
-3.6358433724
 20
10.9434247351
 10
-3.690988867
 20
9.2233108511
 10
-3.7406209573
 20
7.5056638996
 10
-3.7847396435
 20
5.7904838804
 10
-3.8233454347
 20
4.0777444985
 10
-3.8564378218
 20
2.3674720491
 10
-3.8840152768
 20
0.659745417
 10
-3.9060775444
 20
-1.0454352339
 10
-3.92262488
 20
-2.7480700673
 10
-3.9336565219
 20
-4.44808069
 10
-3.9391722162
 20
-6.145466978
 10
-3.9391722168
 20
-7.8402290552
 10
-3.9336565237
 20
-9.5322888998
 10
-3.9226248831
 20
-11.2216463906
 10
-3.9060775488
 20
-12.9083016487
 10
-3.8840152825
 20
-14.5921770163
 10
-3.8564378292
 20
-16.2732723965
 10
-3.8233454438
 20
-17.9515878862
 10
-3.7847396527
 20
-19.6270461174
 10
-3.7406209649
 20
-21.2996213009
 10
-3.6909888715
 20
-22.969339226
 10
-3.6358433724
 20
-24.6361998927
  0
LWPOLYLINE
  5
376
100
AcDbEntity
  8
IMPORT_IGES
100
AcDbPolyline
 62
7
  6
CONTINUOUS
 90
5
 70
0
 10
-9.0568100584
 20
-8.2417036504
 10
-9.04416085
 20
-8.218473962
 10
-9.0285538811
 20
-8.1984661725
 10
-9.0103304398
 20
-8.1818923053
 10
-8.9897150018
 20
-8.1689381156
  0
LWPOLYLINE
  5
377
100
AcDbEntity
  8
0
100
AcDbPolyline
 62
7
  6
CONTINUOUS
 90
3
 70
0
 10
3.4035604998
 20
11.658105469
 10
3.4109903557
 20
11.6716581109
 10
3.4157932998
 20
11.6851946751
  0
LINE
  5
378
100
AcDbEntity
  8
IMPORT_IGES
100
AcDbLine
 62
7
  6
CONTINUOUS
 10
10.4930277275
 20
14.287831266
 11
9.0443816005
 21
12.8910892515
  0
LINE
  5
379
100
AcDbEntity
  8
IMPORT_IGES
100
AcDbLine
 62
7
  6
CONTINUOUS
 10
9.0443816005
 20
12.7178841707
 11
10.4930277275
 21
14.1146261852
  0
LWPOLYLINE
  5
37A
100
AcDbEntity
  8
IMPORT_IGES
100
AcDbPolyline
 62
253
  6
CONTINUOUS
 90
4
 70
0
 10
12.8528346225
 20
14.9766984567
 10
12.8568343961
 20
14.9797957392
 10
12.861102651
 20
14.9827237771
 10
12.8656325516
 20
14.9854764267
  0
LINE
  5
37B
100
AcDbEntity
  8
RACCORDO
100
AcDbLine
 62
7
  6
CONTINUOUS
 10
-7.1541408832
 20
-2.3806653982
 11
-7.1393430625
 21
-2.3696164525
  0
LWPOLYLINE
  5
37C
100
AcDbEntity
  8
IMPORT_IGES
100
AcDbPolyline
 62
7
  6
CONTINUOUS
 90
3
 70
0
 10
-13.0732566631
 20
-5.2567675646
 10
-13.048255034
 20
-5.2384662364
 10
-13.0212965568
 20
-5.2199088216
  0
LWPOLYLINE
  5
37D
100
AcDbEntity
  8
RACCORDO
100
AcDbPolyline
 62
7
  6
CONTINUOUS
 90
3
 70
0
 10
-7.1393430625
 20
-2.3696164525
 10
-7.1239446276
 20
-2.3582958445
 10
-7.1160234542
 20
-2.3525516349
  0
LINE
  5
37E
100
AcDbEntity
  8
RACCORDO
100
AcDbLine
 62
7
  6
CONTINUOUS
 10
-14.1369204895
 20
-7.9308642594
 11
-14.1448526398
 21
-7.9366143785
  0
LINE
  5
37F
100
AcDbEntity
  8
RACCORDO
100
AcDbLine
 62
7
  6
CONTINUOUS
 10
-14.941947786
 20
-7.5184001195
 11
-14.9580254381
 21
-7.5300279793
  0
LINE
  5
380
100
AcDbEntity
  8
RACCORDO
100
AcDbLine
 62
7
  6
CONTINUOUS
 10
-14.9551821172
 20
-6.1380167095
 11
-14.9713111506
 21
-6.1496691091
  0
LINE
  5
381
100
AcDbEntity
  8
RACCORDO
100
AcDbLine
 62
7
  6
CONTINUOUS
 10
-14.9249990325
 20
-7.5062777612
 11
-14.941947786
 21
-7.5184001195
  0
LINE
  5
382
100
AcDbEntity
  8
RACCORDO
100
AcDbLine
 62
7
  6
CONTINUOUS
 10
-14.9381814689
 20
-6.1258724316
 11
-14.9551821172
 21
-6.1380167095
  0
LINE
  5
383
100
AcDbEntity
  8
RACCORDO
100
AcDbLine
 62
7
  6
CONTINUOUS
 10
-14.9071728449
 20
-7.4936873764
 11
-14.9249990325
 21
-7.5062777612
  0
LINE
  5
384
100
AcDbEntity
  8
RACCORDO
100
AcDbLine
 62
7
  6
CONTINUOUS
 10
-14.9203029945
 20
-6.1132628974
 11
-14.9381814689
 21
-6.1258724316
  0
LINE
  5
385
100
AcDbEntity
  8
RACCORDO
100
AcDbLine
 62
7
  6
CONTINUOUS
 10
-14.8885056404
 20
-7.4806498584
 11
-14.9071728449
 21
-7.4936873764
  0
LINE
  5
386
100
AcDbEntity
  8
RACCORDO
100
AcDbLine
 62
7
  6
CONTINUOUS
 10
-14.901583267
 20
-6.1002091535
 11
-14.9203029945
 21
-6.1132628974
  0
LINE
  5
387
100
AcDbEntity
  8
RACCORDO
100
AcDbLine
 62
7
  6
CONTINUOUS
 10
-14.8690278981
 20
-7.4671840382
 11
-14.8885056404
 21
-7.4806498584
  0
LINE
  5
388
100
AcDbEntity
  8
RACCORDO
100
AcDbLine
 62
7
  6
CONTINUOUS
 10
-14.8820529017
 20
-6.0867301666
 11
-14.901583267
 21
-6.1002091535
  0
LWPOLYLINE
  5
389
100
AcDbEntity
  8
IMPORT_IGES
100
AcDbPolyline
 62
7
  6
CONTINUOUS
 90
4
 70
0
 10
-13.017003559
 20
-6.5596931825
 10
-13.0365847594
 20
-6.5730063153
 10
-13.0553952315
 20
-6.58614118
 10
-13.0732566631
 20
-6.5991069404
  0
LINE
  5
38A
100
AcDbEntity
  8
RACCORDO
100
AcDbLine
 62
7
  6
CONTINUOUS
 10
-14.8383343317
 20
-7.4462387449
 11
-14.8690278981
 21
-7.4671840382
  0
LINE
  5
38B
100
AcDbEntity
  8
RACCORDO
100
AcDbLine
 62
7
  6
CONTINUOUS
 10
-14.8512805074
 20
-6.0657711373
 11
-14.8820529017
 21
-6.0867301666
  0
LINE
  5
38C
100
AcDbEntity
  8
RACCORDO
100
AcDbLine
 62
7
  6
CONTINUOUS
 10
-14.8059557086
 20
-7.424462561
 11
-14.8383343317
 21
-7.4462387449
  0
LINE
  5
38D
100
AcDbEntity
  8
RACCORDO
100
AcDbLine
 62
7
  6
CONTINUOUS
 10
-14.8188235796
 20
-6.0439887918
 11
-14.8512805074
 21
-6.0657711373
  0
LINE
  5
38E
100
AcDbEntity
  8
RACCORDO
100
AcDbLine
 62
7
  6
CONTINUOUS
 10
-14.7719834467
 20
-7.4019313055
 11
-14.8059557086
 21
-7.424462561
  0
LINE
  5
38F
100
AcDbEntity
  8
RACCORDO
100
AcDbLine
 62
7
  6
CONTINUOUS
 10
-14.7847739697
 20
-6.0214593342
 11
-14.8188235796
 21
-6.0439887918
  0
LWPOLYLINE
  5
390
100
AcDbEntity
  8
IMPORT_IGES
100
AcDbPolyline
 62
7
  6
CONTINUOUS
 90
4
 70
0
 10
-13.0212965568
 20
-5.2199088216
 10
-12.9632034637
 20
-5.181630097
 10
-12.9328780455
 20
-5.1618776707
 10
-12.9020622983
 20
-5.1423762672
  0
LINE
  5
391
100
AcDbEntity
  8
RACCORDO
100
AcDbLine
 62
7
  6
CONTINUOUS
 10
-14.7365095318
 20
-7.3787210691
 11
-14.7719834467
 21
-7.4019313055
  0
LINE
  5
392
100
AcDbEntity
  8
RACCORDO
100
AcDbLine
 62
7
  6
CONTINUOUS
 10
-14.7492240951
 20
-5.9982592366
 11
-14.7847739697
 21
-6.0214593342
  0
LINE
  5
393
100
AcDbEntity
  8
RACCORDO
100
AcDbLine
 62
7
  6
CONTINUOUS
 10
-14.7122688371
 20
-5.9744669946
 11
-14.7492240951
 21
-5.9982592366
  0
LINE
  5
394
100
AcDbEntity
  8
RACCORDO
100
AcDbLine
 62
7
  6
CONTINUOUS
 10
-14.6740055728
 20
-5.9501636814
 11
-14.7122688371
 21
-5.9744669946
  0
LINE
  5
395
100
AcDbEntity
  8
RACCORDO
100
AcDbLine
 62
7
  6
CONTINUOUS
 10
-14.6345372542
 20
-5.925435493
 11
-14.6740055728
 21
-5.9501636814
  0
LINE
  5
396
100
AcDbEntity
  8
RACCORDO
100
AcDbLine
 62
7
  6
CONTINUOUS
 10
-14.5939778644
 20
-5.9003777649
 11
-14.6345372542
 21
-5.925435493
  0
LWPOLYLINE
  5
397
100
AcDbEntity
  8
IMPORT_IGES
100
AcDbPolyline
 62
7
  6
CONTINUOUS
 90
9
 70
0
 10
-12.9020622983
 20
-5.1423762672
 10
-12.8404230952
 20
-5.1043574303
 10
-12.8100120848
 20
-5.0861826177
 10
-12.7802146743
 20
-5.0687369869
 10
-12.7513401436
 20
-5.0520544865
 10
-12.7234962928
 20
-5.036454629
 10
-12.6969297039
 20
-5.0220697084
 10
-12.6720003036
 20
-5.008877405
 10
-12.6489925944
 20
-4.9969599434
  0
LINE
  5
398
100
AcDbEntity
  8
RACCORDO
100
AcDbLine
 62
7
  6
CONTINUOUS
 10
-14.5524595077
 20
-5.8750999549
 11
-14.5939778644
 21
-5.9003777649
  0
LINE
  5
399
100
AcDbEntity
  8
RACCORDO
100
AcDbLine
 62
7
  6
CONTINUOUS
 10
-14.5101428261
 20
-5.849732619
 11
-14.5524595077
 21
-5.8750999549
  0
LINE
  5
39A
100
AcDbEntity
  8
RACCORDO
100
AcDbLine
 62
7
  6
CONTINUOUS
 10
-14.4815864803
 20
-5.832853384
 11
-14.5101428261
 21
-5.849732619
  0
LINE
  5
39B
100
AcDbEntity
  8
RACCORDO
100
AcDbLine
 62
7
  6
CONTINUOUS
 10
-14.4528416776
 20
-5.8160669309
 11
-14.4815864803
 21
-5.832853384
  0
LINE
  5
39C
100
AcDbEntity
  8
RACCORDO
100
AcDbLine
 62
7
  6
CONTINUOUS
 10
-14.4240192767
 20
-5.7994316286
 11
-14.4528416776
 21
-5.8160669309
  0
LWPOLYLINE
  5
39D
100
AcDbEntity
  8
IMPORT_IGES
100
AcDbPolyline
 62
253
  6
CONTINUOUS
 90
7
 70
0
 10
16.802004842
 20
13.6370409672
 10
16.8149418259
 20
13.6444168686
 10
16.8258426354
 20
13.6525739758
 10
16.8345207547
 20
13.6613727183
 10
16.8408276988
 20
13.6706625474
 10
16.844655554
 20
13.6802845114
 10
16.8459388248
 20
13.6900739758
  0
LINE
  5
39E
100
AcDbEntity
  8
RACCORDO
100
AcDbLine
 62
7
  6
CONTINUOUS
 10
-16.389498608
 20
-4.8012629171
 11
-16.418334877
 21
-4.8177742835
  0
LINE
  5
39F
100
AcDbEntity
  8
RACCORDO
100
AcDbLine
 62
7
  6
CONTINUOUS
 10
-16.3607776559
 20
-4.785037707
 11
-16.389498608
 21
-4.8012629171
  0
LWPOLYLINE
  5
3A0
100
AcDbEntity
  8
RACCORDO
100
AcDbPolyline
 62
7
  6
CONTINUOUS
 90
3
 70
0
 10
-14.3808786702
 20
-5.774987202
 10
-14.3952185151
 20
-5.7830562953
 10
-14.4240192767
 20
-5.7994316286
  0
LWPOLYLINE
  5
3A1
100
AcDbEntity
  8
RACCORDO
100
AcDbPolyline
 62
7
  6
CONTINUOUS
 90
3
 70
0
 10
-16.3182375866
 20
-4.7615176071
 10
-16.3323076832
 20
-4.7692328144
 10
-16.3607776559
 20
-4.785037707
  0
LWPOLYLINE
  5
3A2
100
AcDbEntity
  8
RACCORDO
100
AcDbPolyline
 62
7
  6
CONTINUOUS
 90
5
 70
0
 10
-16.2506176833
 20
-4.7256507554
 10
-16.2636973676
 20
-4.7323861357
 10
-16.2770095652
 20
-4.739370739
 10
-16.2905396132
 20
-4.7465759053
 10
-16.3182375866
 20
-4.7615176071
  0
LINE
  5
3A3
100
AcDbEntity
  8
RACCORDO
100
AcDbLine
 62
7
  6
CONTINUOUS
 10
-15.4774197191
 20
-4.337528749
 11
-16.2472198954
 21
-4.7239255987
  0
LINE
  5
3A4
100
AcDbEntity
  8
IMPORT_IGES
100
AcDbLine
 62
253
  6
CONTINUOUS
 10
3.2609099823
 20
6.0808891369
 11
3.8994730464
 21
6.4006698859
  0
LINE
  5
3A5
100
AcDbEntity
  8
IMPORT_IGES
100
AcDbLine
 62
7
  6
CONTINUOUS
 10
-14.6520294467
 20
-4.018703426
 11
-9.4268622387
 21
-1.4059957783
  0
LINE
  5
3A6
100
AcDbEntity
  8
IMPORT_IGES
100
AcDbLine
 62
253
  6
CONTINUOUS
 10
17.7430082434
 20
11.6010203243
 11
17.5287716703
 21
11.4939020377
  0
LINE
  5
3A7
100
AcDbEntity
  8
IMPORT_IGES
100
AcDbLine
 62
253
  6
CONTINUOUS
 10
4.5690575275
 20
4.5259282868
 11
3.2609099823
 21
3.8718545142
  0
LINE
  5
3A8
100
AcDbEntity
  8
IMPORT_IGES
100
AcDbLine
 62
7
  6
CONTINUOUS
 10
3.2609099823
 20
4.4468867701
 11
3.9965843372
 21
4.812164882
  0
LWPOLYLINE
  5
3A9
100
AcDbEntity
  8
IMPORT_IGES
100
AcDbPolyline
 62
253
  6
CONTINUOUS
 90
10
 70
0
 10
18.2790264278
 20
10.3440682918
 10
18.2923496129
 20
10.3499934752
 10
18.3073567889
 20
10.3553102113
 10
18.3235919705
 20
10.3598569537
 10
18.3405618599
 20
10.363495552
 10
18.3577508356
 20
10.3661154492
 10
18.3746366192
 20
10.3676370411
 10
18.3907061448
 20
10.3680140948
 10
18.405471148
 20
10.3672351538
 10
18.4184830016
 20
10.3653238859
  0
LWPOLYLINE
  5
3AA
100
AcDbEntity
  8
ASSI
100
AcDbPolyline
 62
7
  6
CONTINUOUS
 90
6
 70
0
 10
-2.3257278953
 20
24.5654801799
 10
-2.3257795202
 20
24.5667048915
 10
-2.3265724193
 20
24.5701469533
 10
-2.3282806756
 20
24.5729754657
 10
-2.3308603229
 20
24.5752405767
 10
-2.3325398837
 20
24.576207935
  0
LWPOLYLINE
  5
3AB
100
AcDbEntity
  8
RACCORDO
100
AcDbPolyline
 62
7
  6
CONTINUOUS
 90
20
 70
0
 10
-1.1517609245
 20
-24.7228665194
 10
-1.1513554571
 20
-24.7370991352
 10
-1.1501322731
 20
-24.7513563759
 10
-1.1480846859
 20
-24.76558191
 10
-1.1452106881
 20
-24.77971907
 10
-1.1415133828
 20
-24.793709717
 10
-1.1370009425
 20
-24.8074959111
 10
-1.1316869395
 20
-24.8210196017
 10
-1.1255877647
 20
-24.8342287461
 10
-1.1187203862
 20
-24.8470784027
 10
-1.1111073044
 20
-24.8595197051
 10
-1.1027762514
 20
-24.8715031174
 10
-1.0937528365
 20
-24.8829886782
 10
-1.0840626733
 20
-24.8939398145
 10
-1.0737428837
 20
-24.9043112925
 10
-1.062835815
 20
-24.9140598238
 10
-1.0513671045
 20
-24.9231612792
 10
-1.0393790751
 20
-24.9315798267
 10
-1.0269382558
 20
-24.9392703912
 10
-1.0135572213
 20
-24.9464768679
  0
LWPOLYLINE
  5
3AC
100
AcDbEntity
  8
RACCORDO
100
AcDbPolyline
 62
253
  6
CONTINUOUS
 90
18
 70
0
 10
-1.0785376198
 20
-24.8112548671
 10
-1.0782982649
 20
-24.8223980123
 10
-1.0775802597
 20
-24.8332782328
 10
-1.0763846696
 20
-24.8438655036
 10
-1.0747134721
 20
-24.8541325736
 10
-1.0725705372
 20
-24.8640486896
 10
-1.0699625817
 20
-24.8735804381
 10
-1.0668974097
 20
-24.8826999669
 10
-1.0633828554
 20
-24.891384538
 10
-1.0594283742
 20
-24.8996107287
 10
-1.0550446104
 20
-24.9073562528
 10
-1.0502435307
 20
-24.914599837
 10
-1.0450383253
 20
-24.9213215423
 10
-1.0394432363
 20
-24.9275030049
 10
-1.0334734334
 20
-24.9331274916
 10
-1.0271451114
 20
-24.9381797402
 10
-1.0204754604
 20
-24.9426460067
 10
-1.0135643476
 20
-24.9464733051
  0
LWPOLYLINE
  5
3AD
100
AcDbEntity
  8
RACCORDO
100
AcDbPolyline
 62
253
  6
CONTINUOUS
 90
18
 70
0
 10
0.24644706
 20
-25.473747207
 10
0.2466864149
 20
-25.4848903522
 10
0.2474044201
 20
-25.4957705727
 10
0.2486000103
 20
-25.5063578435
 10
0.2502712077
 20
-25.5166249135
 10
0.2524141426
 20
-25.5265410295
 10
0.2550220981
 20
-25.536072778
 10
0.2580872701
 20
-25.5451923068
 10
0.2616018244
 20
-25.5538768779
 10
0.2655563057
 20
-25.5621030687
 10
0.2699400695
 20
-25.5698485927
 10
0.2747411491
 20
-25.5770921769
 10
0.2799463546
 20
-25.5838138822
 10
0.2855414435
 20
-25.5899953448
 10
0.2915112465
 20
-25.5956198315
 10
0.2978395684
 20
-25.6006720801
 10
0.3045092195
 20
-25.6051383466
 10
0.3114203322
 20
-25.608965645
  0
LWPOLYLINE
  5
3AE
100
AcDbEntity
  8
RACCORDO
100
AcDbPolyline
 62
253
  6
CONTINUOUS
 90
19
 70
0
 10
-1.0785376198
 20
16.8283232064
 10
-1.0783177651
 20
16.8176385499
 10
-1.0776587479
 20
16.8072003234
 10
-1.0765622071
 20
16.797034491
 10
-1.0750308762
 20
16.7871663724
 10
-1.0730685609
 20
16.7776204777
 10
-1.0706801151
 20
16.7684204573
 10
-1.067871445
 20
16.7595891454
 10
-1.0646495395
 20
16.7511485884
 10
-1.0610224419
 20
16.74311988
 10
-1.0569991623
 20
16.7355229691
 10
-1.0525897197
 20
16.7283767783
 10
-1.0478051832
 20
16.721699213
 10
-1.0426575497
 20
16.7155069357
 10
-1.0371595818
 20
16.7098152233
 10
-1.0313248481
 20
16.7046380971
 10
-1.0251666316
 20
16.699987582
 10
-1.0187013574
 20
16.6958763084
 10
-1.0135631727
 20
16.693104181
  0
LINE
  5
3AF
100
AcDbEntity
  8
RACCORDO
100
AcDbLine
 62
7
  6
CONTINUOUS
 10
-1.1517609245
 20
17.2566854882
 11
-1.1517609245
 21
16.9167115541
  0
LINE
  5
3B0
100
AcDbEntity
  8
RACCORDO
100
AcDbLine
 62
7
  6
CONTINUOUS
 10
-1.1517609245
 20
-24.5963672238
 11
-1.1517609245
 21
-24.7228665194
  0
LINE
  5
3B1
100
AcDbEntity
  8
RACCORDO
100
AcDbLine
 62
253
  6
CONTINUOUS
 10
-1.0785376198
 20
17.1682971405
 11
-1.0785376198
 21
16.8283232064
  0
LINE
  5
3B2
100
AcDbEntity
  8
RACCORDO
100
AcDbLine
 62
253
  6
CONTINUOUS
 10
-1.0785376198
 20
-24.5656310547
 11
-1.0785376198
 21
-24.8112548671
  0
LINE
  5
3B3
100
AcDbEntity
  8
RACCORDO
100
AcDbLine
 62
7
  6
CONTINUOUS
 10
-0.4487679702
 20
15.9567343868
 11
-0.4487679702
 21
16.4107065797
  0
LINE
  5
3B4
100
AcDbEntity
  8
RACCORDO
100
AcDbLine
 62
253
  6
CONTINUOUS
 10
-0.3755446655
 20
15.8650207832
 11
-0.3755446655
 21
16.3740949274
  0
LINE
  5
3B5
100
AcDbEntity
  8
RACCORDO
100
AcDbLine
 62
253
  6
CONTINUOUS
 10
0.24644706
 20
-25.473747207
 11
0.24644706
 21
-25.1337732729
  0
LINE
  5
3B6
100
AcDbEntity
  8
RACCORDO
100
AcDbLine
 62
253
  6
CONTINUOUS
 10
0.24644706
 20
16.1658308665
 11
0.24644706
 21
16.5058048006
  0
LWPOLYLINE
  5
3B7
100
AcDbEntity
  8
RACCORDO
100
AcDbPolyline
 62
253
  6
CONTINUOUS
 90
31
 70
0
 10
-1.0785376198
 20
17.1682971405
 10
-1.0782982649
 20
17.1796796407
 10
-1.0775802597
 20
17.1912778664
 10
-1.0763846696
 20
17.2030607273
 10
-1.0747134721
 20
17.2149989947
 10
-1.0725705372
 20
17.2270580457
 10
-1.0699625817
 20
17.2391977496
 10
-1.0668974097
 20
17.2513824504
 10
-1.0633828554
 20
17.2635815758
 10
-1.0594283742
 20
17.2757622478
 10
-1.0550446104
 20
17.2878915357
 10
-1.0502435307
 20
17.2999361995
 10
-1.0450383253
 20
17.3118631103
 10
-1.0394432363
 20
17.3236396618
 10
-1.0334734334
 20
17.3352339515
 10
-1.0271451114
 20
17.346614522
 10
-1.0204754604
 20
17.3577504396
 10
-1.0134826529
 20
17.3686113431
 10
-1.0061857441
 20
17.3791676277
 10
-0.9986046017
 20
17.3893905479
 10
-0.9907598504
 20
17.3992522883
 10
-0.9826728442
 20
17.4087260007
 10
-0.974365592
 20
17.4177858986
 10
-0.9658607052
 20
17.4264073182
 10
-0.9571813402
 20
17.4345667838
 10
-0.9483511142
 20
17.4422420903
 10
-0.9393940679
 20
17.4494123394
 10
-0.9303346087
 20
17.4560579938
 10
-0.9211974051
 20
17.4621609625
 10
-0.9120073188
 20
17.4677046448
 10
-0.9027893638
 20
17.4726739555
  0
LWPOLYLINE
  5
3B8
100
AcDbEntity
  8
RACCORDO
100
AcDbPolyline
 62
253
  6
CONTINUOUS
 90
31
 70
0
 10
0.24644706
 20
16.5058048006
 10
0.2466876413
 20
16.51721671
 10
0.2474087325
 20
16.5288381667
 10
0.2486083743
 20
16.5406375398
 10
0.2502833068
 20
16.5525827264
 10
0.2524289733
 20
16.5646412015
 10
0.2550395279
 20
16.5767801053
 10
0.2581078614
 20
16.5889663874
 10
0.2616256227
 20
16.6011668868
 10
0.2655832319
 20
16.6133483837
 10
0.2699699138
 20
16.6254777193
 10
0.2747737268
 20
16.6375218815
 10
0.2799815914
 20
16.6494480835
 10
0.2855793368
 20
16.6612238782
 10
0.2915517184
 20
16.6728172006
 10
0.2978824527
 20
16.6841964528
 10
0.3045542736
 20
16.6953306205
 10
0.311549042
 20
16.7061894521
 10
0.3188477788
 20
16.7167434881
 10
0.3264307214
 20
16.7269641309
 10
0.3342771398
 20
16.7368234197
 10
0.3423654311
 20
16.746294236
 10
0.3506733988
 20
16.755350664
 10
0.3591785712
 20
16.7639682806
 10
0.3678580339
 20
16.7721238945
 10
0.3766901244
 20
16.779796943
 10
0.3856489074
 20
16.7869646906
 10
0.3947042443
 20
16.7936035971
 10
0.4038294131
 20
16.7996953945
 10
0.4130014177
 20
16.8052260419
 10
0.422195316
 20
16.8101816156
  0
LWPOLYLINE
  5
3B9
100
AcDbEntity
  8
RACCORDO
100
AcDbPolyline
 62
7
  6
CONTINUOUS
 90
20
 70
0
 10
-1.1517609245
 20
17.2566854882
 10
-1.1513570524
 20
17.2708901001
 10
-1.1501384408
 20
17.2851215241
 10
-1.1480980533
 20
17.2993237218
 10
-1.1452333019
 20
17.3134411168
 10
-1.1415469796
 20
17.327414886
 10
-1.1370476872
 20
17.3411848332
 10
-1.1317490938
 20
17.3546928446
 10
-1.1256673522
 20
17.3678876084
 10
-1.1188198708
 20
17.3807234413
 10
-1.1112292003
 20
17.3931517526
 10
-1.1029228138
 20
17.4051236714
 10
-1.0939264059
 20
17.4165993018
 10
-1.0842650976
 20
17.4275428167
 10
-1.0739758251
 20
17.4379091841
 10
-1.0631015542
 20
17.4476545988
 10
-1.0516673906
 20
17.4567556042
 10
-1.0397152345
 20
17.465176755
 10
-1.027312603
 20
17.4728723889
 10
-1.015867872
 20
17.4791256024
  0
LWPOLYLINE
  5
3BA
100
AcDbEntity
  8
RACCORDO
100
AcDbPolyline
 62
253
  6
CONTINUOUS
 90
21
 70
0
 10
-2.9546557131
 20
-25.1365155608
 10
-2.9559436718
 20
-25.1573076469
 10
-2.9580146139
 20
-25.1776457766
 10
-2.9608638536
 20
-25.1974839309
 10
-2.964484944
 20
-25.2167772223
 10
-2.9688696916
 20
-25.2354819962
 10
-2.9740081751
 20
-25.2535559294
 10
-2.9798887678
 20
-25.2709581262
 10
-2.9864981636
 20
-25.287649211
 10
-2.9938214076
 20
-25.3035914169
 10
-3.0018419296
 20
-25.3187486718
 10
-3.0105415815
 20
-25.3330866795
 10
-3.0199006789
 20
-25.3465729975
 10
-3.029898045
 20
-25.3591771106
 10
-3.0405110589
 20
-25.3708704994
 10
-3.0517157066
 20
-25.3816267056
 10
-3.0634866355
 20
-25.3914213912
 10
-3.0757972116
 20
-25.4002323939
 10
-3.08861958
 20
-25.4080397771
 10
-3.1019247277
 20
-25.4148258752
 10
-3.1084629585
 20
-25.4177112592
  0
LWPOLYLINE
  5
3BB
100
AcDbEntity
  8
IMPORT_IGES
100
AcDbPolyline
 62
7
  6
CONTINUOUS
 90
10
 70
0
 10
4.136214815
 20
7.0809964164
 10
4.1235878667
 20
7.0577330846
 10
4.1123514198
 20
7.03418007
 10
4.1025054743
 20
7.0103373727
 10
4.093996236
 20
6.9860190364
 10
4.086877499
 20
6.9614110173
 10
4.0813106467
 20
6.9370711841
 10
4.0773494734
 20
6.913185493
 10
4.0749401847
 20
6.8895679878
 10
4.0740827807
 20
6.8662186685
  0
LINE
  5
3BC
100
AcDbEntity
  8
IMPORT_IGES
100
AcDbLine
 62
7
  6
CONTINUOUS
 10
5.037255579
 20
8.635061853
 11
4.136214815
 21
7.0809964164
  0
LINE
  5
3BD
100
AcDbEntity
  8
IMPORT_IGES
100
AcDbLine
 62
253
  6
CONTINUOUS
 10
3.8994730464
 20
6.4006698859
 11
4.0740827807
 21
6.7004758524
  0
LINE
  5
3BE
100
AcDbEntity
  8
IMPORT_IGES
100
AcDbLine
 62
253
  6
CONTINUOUS
 10
3.5998636266
 20
6.7224728553
 11
4.6830734219
 21
8.5817730565
  0
LINE
  5
3BF
100
AcDbEntity
  8
IMPORT_IGES
100
AcDbLine
 62
7
  6
CONTINUOUS
 10
3.7486557062
 20
9.0489819148
 11
3.4212880717
 21
8.4968508613
  0
LWPOLYLINE
  5
3C0
100
AcDbEntity
  8
IMPORT_IGES
100
AcDbPolyline
 62
253
  6
CONTINUOUS
 90
3
 70
0
 10
12.845666028
 20
14.9700163451
 10
12.8491098213
 20
14.9734367646
 10
12.8528346225
 20
14.9766984567
  0
LINE
  5
3C1
100
AcDbEntity
  8
IMPORT_IGES
100
AcDbLine
 62
7
  6
CONTINUOUS
 10
-10.7221266157
 20
-7.2538932135
 11
-11.8534974656
 21
-8.1908599306
  0
LWPOLYLINE
  5
3C2
100
AcDbEntity
  8
IMPORT_IGES
100
AcDbPolyline
 62
253
  6
CONTINUOUS
 90
8
 70
0
 10
17.3174605905
 20
12.5007164487
 10
17.343114113
 20
12.5196287064
 10
17.3646990587
 20
12.5400321891
 10
17.3818461032
 20
12.5615777875
 10
17.3942618559
 20
12.5838968505
 10
17.4017338796
 20
12.6066074927
 10
17.4041343261
 20
12.6293211288
 10
17.4035519563
 20
12.6393831339
  0
LWPOLYLINE
  5
3C3
100
AcDbEntity
  8
IMPORT_IGES
100
AcDbPolyline
 62
7
  6
CONTINUOUS
 90
3
 70
0
 10
-12.2777615343
 20
-6.9968545049
 10
-12.2527599051
 20
-6.9785531767
 10
-12.2258014279
 20
-6.9599957619
  0
LINE
  5
3C4
100
AcDbEntity
  8
RACCORDO
100
AcDbLine
 62
7
  6
CONTINUOUS
 10
-14.1147624678
 20
-9.0882565917
 11
-14.1307967651
 21
-9.0998635895
  0
LINE
  5
3C5
100
AcDbEntity
  8
RACCORDO
100
AcDbLine
 62
7
  6
CONTINUOUS
 10
-14.1204131016
 20
-7.9189847196
 11
-14.1369204895
 21
-7.9308642594
  0
LINE
  5
3C6
100
AcDbEntity
  8
RACCORDO
100
AcDbLine
 62
7
  6
CONTINUOUS
 10
-14.0978575081
 20
-9.0761528889
 11
-14.1147624678
 21
-9.0882565917
  0
LINE
  5
3C7
100
AcDbEntity
  8
RACCORDO
100
AcDbLine
 62
7
  6
CONTINUOUS
 10
-14.1030171172
 20
-7.9066272852
 11
-14.1204131016
 21
-7.9189847196
  0
LINE
  5
3C8
100
AcDbEntity
  8
RACCORDO
100
AcDbLine
 62
7
  6
CONTINUOUS
 10
-14.0800754509
 20
-9.0635788265
 11
-14.0978575081
 21
-9.0761528889
  0
LINE
  5
3C9
100
AcDbEntity
  8
RACCORDO
100
AcDbLine
 62
7
  6
CONTINUOUS
 10
-14.0847728297
 20
-7.8938087372
 11
-14.1030171172
 21
-7.9066272852
  0
LINE
  5
3CA
100
AcDbEntity
  8
RACCORDO
100
AcDbLine
 62
7
  6
CONTINUOUS
 10
-14.0614525824
 20
-9.0505551678
 11
-14.0800754509
 21
-9.0635788265
  0
LINE
  5
3CB
100
AcDbEntity
  8
RACCORDO
100
AcDbLine
 62
7
  6
CONTINUOUS
 10
-14.065694183
 20
-7.8805549088
 11
-14.0847728297
 21
-7.8938087372
  0
LINE
  5
3CC
100
AcDbEntity
  8
RACCORDO
100
AcDbLine
 62
7
  6
CONTINUOUS
 10
-14.0420192666
 20
-9.037100629
 11
-14.0614525824
 21
-9.0505551678
  0
LINE
  5
3CD
100
AcDbEntity
  8
RACCORDO
100
AcDbLine
 62
7
  6
CONTINUOUS
 10
-14.0458133758
 20
-7.8668875733
 11
-14.065694183
 21
-7.8805549088
  0
LINE
  5
3CE
100
AcDbEntity
  8
RACCORDO
100
AcDbLine
 62
7
  6
CONTINUOUS
 10
-14.0113922619
 20
-9.0161671891
 11
-14.0420192666
 21
-9.037100629
  0
LINE
  5
3CF
100
AcDbEntity
  8
RACCORDO
100
AcDbLine
 62
7
  6
CONTINUOUS
 10
-14.0251615334
 20
-7.8528251441
 11
-14.0458133758
 21
-7.8668875733
  0
LINE
  5
3D0
100
AcDbEntity
  8
RACCORDO
100
AcDbLine
 62
7
  6
CONTINUOUS
 10
-13.9790797737
 20
-8.9943964733
 11
-14.0113922619
 21
-9.0161671891
  0
LINE
  5
3D1
100
AcDbEntity
  8
RACCORDO
100
AcDbLine
 62
7
  6
CONTINUOUS
 10
-13.9927829103
 20
-7.8310489602
 11
-14.0251615334
 21
-7.8528251441
  0
LINE
  5
3D2
100
AcDbEntity
  8
RACCORDO
100
AcDbLine
 62
7
  6
CONTINUOUS
 10
-13.9451728546
 20
-8.9718639746
 11
-13.9790797737
 21
-8.9943964733
  0
LINE
  5
3D3
100
AcDbEntity
  8
RACCORDO
100
AcDbLine
 62
7
  6
CONTINUOUS
 10
-13.9588106484
 20
-7.8085177047
 11
-13.9927829103
 21
-7.8310489602
  0
LWPOLYLINE
  5
3D4
100
AcDbEntity
  8
IMPORT_IGES
100
AcDbPolyline
 62
7
  6
CONTINUOUS
 90
4
 70
0
 10
-12.2258014279
 20
-6.9599957619
 10
-12.1677083348
 20
-6.9217170373
 10
-12.1373829167
 20
-6.901964611
 10
-12.1065671694
 20
-6.8824632075
  0
LWPOLYLINE
  5
3D5
100
AcDbEntity
  8
IMPORT_IGES
100
AcDbPolyline
 62
7
  6
CONTINUOUS
 90
3
 70
0
 10
-12.9553177047
 20
-6.5187152174
 10
-12.9761909914
 20
-6.5323698673
 10
-13.017003559
 20
-6.5596931825
  0
LINE
  5
3D6
100
AcDbEntity
  8
RACCORDO
100
AcDbLine
 62
7
  6
CONTINUOUS
 10
-13.9097631265
 20
-8.9486454605
 11
-13.9451728546
 21
-8.9718639746
  0
LINE
  5
3D7
100
AcDbEntity
  8
RACCORDO
100
AcDbLine
 62
7
  6
CONTINUOUS
 10
-13.9233367334
 20
-7.7853074683
 11
-13.9588106484
 21
-7.8085177047
  0
LINE
  5
3D8
100
AcDbEntity
  8
RACCORDO
100
AcDbLine
 62
7
  6
CONTINUOUS
 10
-13.8729446556
 20
-8.924818704
 11
-13.9097631265
 21
-8.9486454605
  0
LINE
  5
3D9
100
AcDbEntity
  8
RACCORDO
100
AcDbLine
 62
7
  6
CONTINUOUS
 10
-14.6996284029
 20
-7.3549099559
 11
-14.7365095318
 21
-7.3787210691
  0
LINE
  5
3DA
100
AcDbEntity
  8
RACCORDO
100
AcDbLine
 62
7
  6
CONTINUOUS
 10
-13.8864556045
 20
-7.7614963551
 11
-13.9233367334
 21
-7.7853074683
  0
LINE
  5
3DB
100
AcDbEntity
  8
RACCORDO
100
AcDbLine
 62
7
  6
CONTINUOUS
 10
-13.8348139705
 20
-8.9004640123
 11
-13.8729446556
 21
-8.924818704
  0
LINE
  5
3DC
100
AcDbEntity
  8
RACCORDO
100
AcDbLine
 62
7
  6
CONTINUOUS
 10
-14.6614369767
 20
-7.3305786244
 11
-14.6996284029
 21
-7.3549099559
  0
LINE
  5
3DD
100
AcDbEntity
  8
RACCORDO
100
AcDbLine
 62
7
  6
CONTINUOUS
 10
-13.8482641784
 20
-7.7371650236
 11
-13.8864556045
 21
-7.7614963551
  0
LINE
  5
3DE
100
AcDbEntity
  8
RACCORDO
100
AcDbLine
 62
7
  6
CONTINUOUS
 10
-13.7954731134
 20
-8.875666748
 11
-13.8348139705
 21
-8.9004640123
  0
LINE
  5
3DF
100
AcDbEntity
  8
RACCORDO
100
AcDbLine
 62
7
  6
CONTINUOUS
 10
-14.6220377116
 20
-7.3058128193
 11
-14.6614369767
 21
-7.3305786244
  0
LINE
  5
3E0
100
AcDbEntity
  8
RACCORDO
100
AcDbLine
 62
7
  6
CONTINUOUS
 10
-13.8088649132
 20
-7.7123992185
 11
-13.8482641784
 21
-7.7371650236
  0
LINE
  5
3E1
100
AcDbEntity
  8
RACCORDO
100
AcDbLine
 62
7
  6
CONTINUOUS
 10
-13.7550350629
 20
-8.8505213265
 11
-13.7954731134
 21
-8.875666748
  0
LINE
  5
3E2
100
AcDbEntity
  8
RACCORDO
100
AcDbLine
 62
7
  6
CONTINUOUS
 10
-14.5815440455
 20
-7.2807073777
 11
-14.6220377116
 21
-7.3058128193
  0
LINE
  5
3E3
100
AcDbEntity
  8
RACCORDO
100
AcDbLine
 62
7
  6
CONTINUOUS
 10
-13.7683712472
 20
-7.6872937769
 11
-13.8088649132
 21
-7.7123992185
  0
LWPOLYLINE
  5
3E4
100
AcDbEntity
  8
IMPORT_IGES
100
AcDbPolyline
 62
7
  6
CONTINUOUS
 90
9
 70
0
 10
-12.1065671694
 20
-6.8824632075
 10
-12.0449279664
 20
-6.8444443706
 10
-12.0145169559
 20
-6.826269558
 10
-11.9847195454
 20
-6.8088239272
 10
-11.9558450147
 20
-6.7921414268
 10
-11.9280011639
 20
-6.7765415693
 10
-11.9014345751
 20
-6.7621566486
 10
-11.8765051748
 20
-6.7489643453
 10
-11.8534974656
 20
-6.7370468837
  0
LINE
  5
3E5
100
AcDbEntity
  8
RACCORDO
100
AcDbLine
 62
7
  6
CONTINUOUS
 10
-14.5400874648
 20
-7.2553712041
 11
-14.5815440455
 21
-7.2807073777
  0
LINE
  5
3E6
100
AcDbEntity
  8
RACCORDO
100
AcDbLine
 62
7
  6
CONTINUOUS
 10
-13.7269146665
 20
-7.6619576033
 11
-13.7683712472
 21
-7.6872937769
  0
LINE
  5
3E7
100
AcDbEntity
  8
RACCORDO
100
AcDbLine
 62
7
  6
CONTINUOUS
 10
-14.4978278958
 20
-7.2299342438
 11
-14.5400874648
 21
-7.2553712041
  0
LINE
  5
3E8
100
AcDbEntity
  8
RACCORDO
100
AcDbLine
 62
7
  6
CONTINUOUS
 10
-13.6846550975
 20
-7.636520643
 11
-13.7269146665
 21
-7.6619576033
  0
LINE
  5
3E9
100
AcDbEntity
  8
RACCORDO
100
AcDbLine
 62
7
  6
CONTINUOUS
 10
-14.4549722734
 20
-7.2045592671
 11
-14.4978278958
 21
-7.2299342438
  0
LINE
  5
3EA
100
AcDbEntity
  8
RACCORDO
100
AcDbLine
 62
7
  6
CONTINUOUS
 10
-13.6417994751
 20
-7.6111456663
 11
-13.6846550975
 21
-7.636520643
  0
LINE
  5
3EB
100
AcDbEntity
  8
RACCORDO
100
AcDbLine
 62
7
  6
CONTINUOUS
 10
-14.4262034003
 20
-7.1877825683
 11
-14.4549722734
 21
-7.2045592671
  0
LINE
  5
3EC
100
AcDbEntity
  8
RACCORDO
100
AcDbLine
 62
7
  6
CONTINUOUS
 10
-13.6130306019
 20
-7.5943689675
 11
-13.6417994751
 21
-7.6111456663
  0
LINE
  5
3ED
100
AcDbEntity
  8
RACCORDO
100
AcDbLine
 62
7
  6
CONTINUOUS
 10
-14.3973947249
 20
-7.1712041368
 11
-14.4262034003
 21
-7.1877825683
  0
LINE
  5
3EE
100
AcDbEntity
  8
RACCORDO
100
AcDbLine
 62
7
  6
CONTINUOUS
 10
-13.5842219266
 20
-7.577790536
 11
-13.6130306019
 21
-7.5943689675
  0
LINE
  5
3EF
100
AcDbEntity
  8
RACCORDO
100
AcDbLine
 62
7
  6
CONTINUOUS
 10
-14.3686977291
 20
-7.1549059418
 11
-14.3973947249
 21
-7.1712041368
  0
LINE
  5
3F0
100
AcDbEntity
  8
RACCORDO
100
AcDbLine
 62
7
  6
CONTINUOUS
 10
-13.5555249307
 20
-7.561492341
 11
-13.5842219266
 21
-7.577790536
  0
LWPOLYLINE
  5
3F1
100
AcDbEntity
  8
RACCORDO
100
AcDbPolyline
 62
7
  6
CONTINUOUS
 90
3
 70
0
 10
-14.3261858165
 20
-7.13126511
 10
-14.3402476398
 20
-7.1390220725
 10
-14.3686977291
 20
-7.1549059418
  0
LWPOLYLINE
  5
3F2
100
AcDbEntity
  8
RACCORDO
100
AcDbPolyline
 62
7
  6
CONTINUOUS
 90
3
 70
0
 10
-13.5130130182
 20
-7.5378515092
 10
-13.5270748415
 20
-7.5456084716
 10
-13.5555249307
 20
-7.561492341
  0
LWPOLYLINE
  5
3F3
100
AcDbEntity
  8
RACCORDO
100
AcDbPolyline
 62
7
  6
CONTINUOUS
 90
3
 70
0
 10
-14.3383386009
 20
-5.7514671018
 10
-14.3524086974
 20
-5.7591823093
 10
-14.3808786702
 20
-5.774987202
  0
LWPOLYLINE
  5
3F4
100
AcDbEntity
  8
RACCORDO
100
AcDbPolyline
 62
7
  6
CONTINUOUS
 90
5
 70
0
 10
-14.2585881726
 20
-7.0951674828
 10
-14.2716661475
 20
-7.1019518773
 10
-14.2849752083
 20
-7.1089840901
 10
-14.2985007485
 20
-7.1162354333
 10
-14.3261858165
 20
-7.13126511
  0
LWPOLYLINE
  5
3F5
100
AcDbEntity
  8
IMPORT_IGES
100
AcDbPolyline
 62
7
  6
CONTINUOUS
 90
17
 70
0
 10
-12.6606669856
 20
-6.3451762625
 10
-12.6730454304
 20
-6.3515802156
 10
-12.6861088656
 20
-6.3584855908
 10
-12.699805319
 20
-6.3658312056
 10
-12.7141352872
 20
-6.373628875
 10
-12.7291615538
 20
-6.3819552818
 10
-12.7448645616
 20
-6.3907752423
 10
-12.7612044374
 20
-6.4000579735
 10
-12.7782187567
 20
-6.4098727838
 10
-12.7958580657
 20
-6.4201758204
 10
-12.8140806936
 20
-6.4309333521
 10
-12.8329325563
 20
-6.4422143293
 10
-12.8523711793
 20
-6.4539968427
 10
-12.8722977748
 20
-6.4662077506
 10
-12.8926603791
 20
-6.4788275922
 10
-12.9133881948
 20
-6.4918636194
 10
-12.9553177047
 20
-6.5187152174
  0
LWPOLYLINE
  5
3F6
100
AcDbEntity
  8
RACCORDO
100
AcDbPolyline
 62
7
  6
CONTINUOUS
 90
5
 70
0
 10
-14.2707186975
 20
-5.7156002498
 10
-14.2837983818
 20
-5.7223356302
 10
-14.2971105793
 20
-5.7293202335
 10
-14.3106406274
 20
-5.7365253999
 10
-14.3383386009
 20
-5.7514671018
  0
LINE
  5
3F7
100
AcDbEntity
  8
RACCORDO
100
AcDbLine
 62
7
  6
CONTINUOUS
 10
-13.4975207318
 20
-5.3274782427
 11
-14.2673209081
 21
-5.7138750923
  0
LINE
  5
3F8
100
AcDbEntity
  8
RACCORDO
100
AcDbLine
 62
7
  6
CONTINUOUS
 10
-13.4975207318
 20
-6.7131188888
 11
-14.2540483665
 21
-7.0928536611
  0
LINE
  5
3F9
100
AcDbEntity
  8
IMPORT_IGES
100
AcDbLine
 62
253
  6
CONTINUOUS
 10
4.7104788837
 20
4.2820125279
 11
3.2609099823
 21
3.5572280772
  0
LINE
  5
3FA
100
AcDbEntity
  8
IMPORT_IGES
100
AcDbLine
 62
7
  6
CONTINUOUS
 10
-12.6489925944
 20
-4.9969599434
 11
-7.4469632514
 21
-2.3959452719
  0
LINE
  5
3FB
100
AcDbEntity
  8
IMPORT_IGES
100
AcDbLine
 62
253
  6
CONTINUOUS
 10
17.6874176432
 20
10.0482635321
 11
18.279026499
 21
10.3440678945
  0
LINE
  5
3FC
100
AcDbEntity
  8
IMPORT_IGES
100
AcDbLine
 62
253
  6
CONTINUOUS
 10
18.2989711813
 20
10.2783405387
 11
17.6983178768
 21
9.9780138864
  0
LINE
  5
3FD
100
AcDbEntity
  8
IMPORT_IGES
100
AcDbLine
 62
7
  6
CONTINUOUS
 10
17.7424824604
 20
9.7977332303
 11
18.2708673929
 21
10.0619256966
  0
LINE
  5
3FE
100
AcDbEntity
  8
IMPORT_IGES
100
AcDbLine
 62
253
  6
CONTINUOUS
 10
19.5046254787
 20
10.4979300125
 11
19.2924934443
 21
10.3918639955
  0
LINE
  5
3FF
100
AcDbEntity
  8
IMPORT_IGES
100
AcDbLine
 62
7
  6
CONTINUOUS
 10
19.4650592433
 20
10.1673809063
 11
19.252927209
 21
10.0613148891
  0
LINE
  5
400
100
AcDbEntity
  8
IMPORT_IGES
100
AcDbLine
 62
7
  6
CONTINUOUS
 10
-12.6606669856
 20
-6.3451762625
 11
-11.7297537789
 21
-5.8796799115
  0
LINE
  5
401
100
AcDbEntity
  8
IMPORT_IGES
100
AcDbLine
 62
7
  6
CONTINUOUS
 10
-7.2696234299
 20
-3.6496147371
 11
-11.5176217445
 21
-5.7736138944
  0
LWPOLYLINE
  5
402
100
AcDbEntity
  8
IMPORT_IGES
100
AcDbPolyline
 62
253
  6
CONTINUOUS
 90
10
 70
0
 10
19.2924934444
 20
10.3918639953
 10
19.2661763144
 20
10.3789550309
 10
19.2371396786
 20
10.3651779308
 10
19.2062658005
 20
10.3509513052
 10
19.1744927673
 20
10.336707423
 10
19.1427859865
 20
10.3228790773
 10
19.1121088526
 20
10.3098864354
 10
19.0833934748
 20
10.2981242722
 10
19.0575123553
 20
10.2879499749
 10
19.0352518788
 20
10.2796726846
  0
LWPOLYLINE
  5
403
100
AcDbEntity
  8
IMPORT_IGES
100
AcDbPolyline
 62
7
  6
CONTINUOUS
 90
8
 70
0
 10
18.2708964309
 20
10.0619389327
 10
18.2720809006
 20
10.0625107603
 10
18.2782693947
 20
10.065093558
 10
18.2878063607
 20
10.0682638313
 10
18.3001118195
 20
10.0714250677
 10
18.3146285374
 20
10.0741802806
 10
18.3310830714
 20
10.0762900396
 10
18.3339623115
 20
10.0765610807
  0
LINE
  5
404
100
AcDbEntity
  8
IMPORT_IGES
100
AcDbLine
 62
253
  6
CONTINUOUS
 10
18.3458305896
 20
10.2857291813
 11
18.3671325623
 21
10.2959976545
  0
LINE
  5
405
100
AcDbEntity
  8
IMPORT_IGES
100
AcDbLine
 62
253
  6
CONTINUOUS
 10
18.3671325623
 20
10.2959976545
 11
18.388071695
 21
10.3059700494
  0
LINE
  5
406
100
AcDbEntity
  8
IMPORT_IGES
100
AcDbLine
 62
253
  6
CONTINUOUS
 10
18.388071695
 20
10.3059700494
 11
18.4074754176
 21
10.3150879223
  0
LWPOLYLINE
  5
407
100
AcDbEntity
  8
IMPORT_IGES
100
AcDbPolyline
 62
253
  6
CONTINUOUS
 90
3
 70
0
 10
18.4074754176
 20
10.3150879223
 10
18.4242571415
 20
10.3228406814
 10
18.4313638347
 20
10.326065786
  0
LWPOLYLINE
  5
408
100
AcDbEntity
  8
IMPORT_IGES
100
AcDbPolyline
 62
7
  6
CONTINUOUS
 90
4
 70
0
 10
5.9479157508
 20
0.1116414351
 10
5.9548913849
 20
0.1133637803
 10
5.9876308612
 20
0.1242629539
 10
6.0186264289
 20
0.1375470511
  0
LWPOLYLINE
  5
409
100
AcDbEntity
  8
IMPORT_IGES
100
AcDbPolyline
 62
7
  6
CONTINUOUS
 90
4
 70
0
 10
5.9479157508
 20
-1.9674424862
 10
5.9511272998
 20
-1.9683559966
 10
5.9861863691
 20
-1.977067895
 10
6.0186264289
 20
-1.9833733259
  0
LINE
  5
40A
100
AcDbEntity
  8
IMPORT_IGES
100
AcDbLine
 62
7
  6
CONTINUOUS
 10
4.7104788837
 20
-2.7030162562
 11
4.1801487978
 21
-2.4378512133
  0
LINE
  5
40B
100
AcDbEntity
  8
IMPORT_IGES
100
AcDbLine
 62
7
  6
CONTINUOUS
 10
5.0993876134
 20
-2.5085618914
 11
4.2287223942
 21
-2.0732292818
  0
LWPOLYLINE
  5
40C
100
AcDbEntity
  8
RACCORDO
100
AcDbPolyline
 62
253
  6
CONTINUOUS
 90
31
 70
0
 10
0.5989690197
 20
16.5052920768
 10
0.5986740428
 20
16.5167177845
 10
0.5978981896
 20
16.5283558376
 10
0.5966435865
 20
16.5401743384
 10
0.5949136722
 20
16.5521408947
 10
0.592713188
 20
16.5642227083
 10
0.5900481651
 20
16.5763866653
 10
0.5869259078
 20
16.5885994265
 10
0.5833549736
 20
16.600827519
 10
0.5793451498
 20
16.613037428
 10
0.5749074265
 20
16.6251956883
 10
0.5700539668
 20
16.6372689765
 10
0.5647980729
 20
16.6492242019
 10
0.5591541505
 20
16.6610285975
 10
0.5531376683
 20
16.6726498097
 10
0.5467651164
 20
16.6840559869
 10
0.5400539609
 20
16.695215867
 10
0.5330225957
 20
16.7060988627
 10
0.5256902924
 20
16.7166751458
 10
0.5180771476
 20
16.7269157287
 10
0.5102040275
 20
16.736792544
 10
0.5020925107
 20
16.7462785211
 10
0.4937648295
 20
16.7553476607
 10
0.4852438084
 20
16.763975106
 10
0.476552802
 20
16.7721372108
 10
0.4677156307
 20
16.7798116043
 10
0.4587565155
 20
16.7869772525
 10
0.4497000116
 20
16.7936145156
 10
0.4405709413
 20
16.7997052021
 10
0.4313943257
 20
16.8052326186
 10
0.422195316
 20
16.8101816156
  0
LWPOLYLINE
  5
40D
100
AcDbEntity
  8
RACCORDO
100
AcDbPolyline
 62
7
  6
CONTINUOUS
 90
23
 70
0
 10
2.8007148393
 20
-23.9878101236
 10
2.8003964313
 20
-23.9751965713
 10
2.7994378146
 20
-23.9625736232
 10
2.7978360403
 20
-23.949980083
 10
2.7955918804
 20
-23.9374590096
 10
2.7927078404
 20
-23.9250455845
 10
2.7891860162
 20
-23.9127668176
 10
2.785032651
 20
-23.9006598908
 10
2.7802577961
 20
-23.8887645235
 10
2.7748700013
 20
-23.877110244
 10
2.7688816407
 20
-23.8657312692
 10
2.7623095995
 20
-23.8546648744
 10
2.7551701657
 20
-23.8439420609
 10
2.7474803727
 20
-23.8335916915
 10
2.7392630529
 20
-23.8236468783
 10
2.7305440192
 20
-23.814139556
 10
2.7213428031
 20
-23.8050914932
 10
2.7116863536
 20
-23.7965297756
 10
2.7016119518
 20
-23.7884861125
 10
2.691139402
 20
-23.78097458
 10
2.680296712
 20
-23.7740145712
 10
2.6691329622
 20
-23.7676348567
 10
2.6625119122
 20
-23.7642001632
  0
LWPOLYLINE
  5
40E
100
AcDbEntity
  8
RACCORDO
100
AcDbPolyline
 62
253
  6
CONTINUOUS
 90
19
 70
0
 10
0.24644706
 20
16.1658308665
 10
0.2466669147
 20
16.15514621
 10
0.247325932
 20
16.1447079835
 10
0.2484224727
 20
16.134542151
 10
0.2499538036
 20
16.1246740325
 10
0.2519161189
 20
16.1151281378
 10
0.2543045647
 20
16.1059281174
 10
0.2571132348
 20
16.0970968055
 10
0.2603351403
 20
16.0886562484
 10
0.2639622379
 20
16.0806275401
 10
0.2679855175
 20
16.0730306292
 10
0.2723949601
 20
16.0658844384
 10
0.2771794966
 20
16.0592068731
 10
0.2823271301
 20
16.0530145958
 10
0.287825098
 20
16.0473228834
 10
0.2936598318
 20
16.0421457572
 10
0.2998180482
 20
16.0374952421
 10
0.3062833224
 20
16.0333839684
 10
0.3114097393
 20
16.0306177258
  0
LWPOLYLINE
  5
40F
100
AcDbEntity
  8
RACCORDO
100
AcDbPolyline
 62
7
  6
CONTINUOUS
 90
24
 70
0
 10
0.3264168404
 20
23.4793192248
 10
0.3258436559
 20
23.5137916309
 10
0.324144543
 20
23.5475415519
 10
0.3213195014
 20
23.5805689877
 10
0.3173590668
 20
23.6129305451
 10
0.3122727037
 20
23.6445696173
 10
0.3060888054
 20
23.6753163838
 10
0.2988061899
 20
23.7051519112
 10
0.2904260392
 20
23.734095133
 10
0.280980292
 20
23.7620330289
 10
0.2704564335
 20
23.7889791917
 10
0.2588669784
 20
23.8149200287
 10
0.2462814097
 20
23.8397017416
 10
0.2327062238
 20
23.863299043
 10
0.2181349243
 20
23.8857372203
 10
0.2026175043
 20
23.9069383375
 10
0.1861342169
 20
23.9269154275
 10
0.168704809
 20
23.9456554573
 10
0.1504385144
 20
23.9630413929
 10
0.1313498585
 20
23.9790503192
 10
0.1114243158
 20
23.9937051513
 10
0.0907275433
 20
24.0069575996
 10
0.0692350287
 20
24.0188134609
 10
-3.1606550356
 20
25.6337823703
  0
LINE
  5
410
100
AcDbEntity
  8
RACCORDO
100
AcDbLine
 62
7
  6
CONTINUOUS
 10
0.3264168404
 20
23.4793192248
 11
0.3264168404
 21
23.2085189321
  0
LINE
  5
411
100
AcDbEntity
  8
RACCORDO
100
AcDbLine
 62
253
  6
CONTINUOUS
 10
0.5989690197
 20
-25.4742599309
 11
0.5989690197
 21
-25.1342859967
  0
LINE
  5
412
100
AcDbEntity
  8
RACCORDO
100
AcDbLine
 62
253
  6
CONTINUOUS
 10
0.5989690197
 20
16.1653181426
 11
0.5989690197
 21
16.5052920768
  0
LINE
  5
413
100
AcDbEntity
  8
RACCORDO
100
AcDbLine
 62
253
  6
CONTINUOUS
 10
0.9576676681
 20
-24.1572767957
 11
0.9576676681
 21
-23.7109147827
  0
LINE
  5
414
100
AcDbEntity
  8
RACCORDO
100
AcDbLine
 62
253
  6
CONTINUOUS
 10
0.9576676681
 20
15.1984146164
 11
0.9576676681
 21
15.8872352393
  0
LINE
  5
415
100
AcDbEntity
  8
RACCORDO
100
AcDbLine
 62
253
  6
CONTINUOUS
 10
1.3101896278
 20
-24.2827895196
 11
1.3101896278
 21
-23.562940383
  0
LINE
  5
416
100
AcDbEntity
  8
RACCORDO
100
AcDbLine
 62
253
  6
CONTINUOUS
 10
1.3101896278
 20
15.2083137958
 11
1.3101896278
 21
16.0168146198
  0
LINE
  5
417
100
AcDbEntity
  8
RACCORDO
100
AcDbLine
 62
7
  6
CONTINUOUS
 10
2.2002498105
 20
-23.1893292713
 11
2.2002498105
 21
-24.6942253312
  0
LINE
  5
418
100
AcDbEntity
  8
RACCORDO
100
AcDbLine
 62
7
  6
CONTINUOUS
 10
2.2002498105
 20
15.7055949237
 11
2.2002498105
 21
17.3080140803
  0
LWPOLYLINE
  5
419
100
AcDbEntity
  8
RACCORDO
100
AcDbPolyline
 62
253
  6
CONTINUOUS
 90
22
 70
0
 10
0.24644706
 20
-25.1337732729
 10
0.2466659312
 20
-25.1228934095
 10
0.2473224869
 20
-25.1118154372
 10
0.2484158246
 20
-25.1005665222
 10
0.2499442744
 20
-25.0891722183
 10
0.251904593
 20
-25.077662703
 10
0.2542911761
 20
-25.0660728838
 10
0.2570975089
 20
-25.0544338245
 10
0.2603170259
 20
-25.0427722666
 10
0.2639417951
 20
-25.0311169829
 10
0.2679628782
 20
-25.0194968145
 10
0.2723702514
 20
-25.0079408195
 10
0.2771528792
 20
-24.9964779641
 10
0.2822988521
 20
-24.9851367901
 10
0.287795381
 20
-24.973945481
 10
0.2936287243
 20
-24.9629320014
 10
0.2997843131
 20
-24.9521238212
 10
0.3062468683
 20
-24.9415477334
 10
0.3130003818
 20
-24.9312299233
 10
0.3200280817
 20
-24.9211960179
 10
0.3273124633
 20
-24.9114710134
 10
0.3348354077
 20
-24.9020790991
  0
LWPOLYLINE
  5
41A
100
AcDbEntity
  8
RACCORDO
100
AcDbPolyline
 62
7
  6
CONTINUOUS
 90
15
 70
0
 10
2.8007148393
 20
17.3117940157
 10
2.8003979104
 20
17.2992097754
 10
2.7994435638
 20
17.2866142419
 10
2.7978485791
 20
17.2740459745
 10
2.795613274
 20
17.2615470592
 10
2.7927399181
 20
17.2491532848
 10
2.7892309707
 20
17.2368937151
 10
2.7850928382
 20
17.2248057775
 10
2.7803353735
 20
17.2129283989
 10
2.774967321
 20
17.2012914165
 10
2.7690010376
 20
17.1899287805
 10
2.7624532726
 20
17.1788773659
 10
2.7553403868
 20
17.168168164
 10
2.7476791952
 20
17.1578295964
 10
2.7438772997
 20
17.1530859067
  0
LWPOLYLINE
  5
41B
100
AcDbEntity
  8
RACCORDO
100
AcDbPolyline
 62
253
  6
CONTINUOUS
 90
16
 70
0
 10
2.8007148393
 20
17.3117940157
 10
2.8004116182
 20
17.3056393715
 10
2.7994301124
 20
17.2991378622
 10
2.7977719346
 20
17.2926707862
 10
2.7954415961
 20
17.2862557382
 10
2.7924454369
 20
17.2799101713
 10
2.7887916087
 20
17.2736513499
 10
2.7844900523
 20
17.267496302
 10
2.7795524708
 20
17.2614617736
 10
2.7739922977
 20
17.2555641826
 10
2.7678246605
 20
17.2498195744
 10
2.7610663392
 20
17.2442435782
 10
2.753735721
 20
17.2388513643
 10
2.74585275
 20
17.2336576033
 10
2.7374388733
 20
17.2286764257
 10
2.7285169823
 20
17.2239213836
  0
LWPOLYLINE
  5
41C
100
AcDbEntity
  8
RACCORDO
100
AcDbPolyline
 62
253
  6
CONTINUOUS
 90
16
 70
0
 10
2.8007148393
 20
17.6593251831
 10
2.8004093343
 20
17.6531477667
 10
2.7994251626
 20
17.6466450842
 10
2.7977640632
 20
17.640176897
 10
2.7954305171
 20
17.6337607275
 10
2.7924308876
 20
17.6274141239
 10
2.7887734542
 20
17.6211545493
 10
2.7844683154
 20
17.6149991509
 10
2.7795271754
 20
17.6089645485
 10
2.7739633677
 20
17.6030669897
 10
2.7677906092
 20
17.5973212784
 10
2.7610268598
 20
17.5917443701
 10
2.7536953416
 20
17.5863547923
 10
2.74581877
 20
17.5811679094
 10
2.7374180649
 20
17.5761962574
 10
2.7285169823
 20
17.5714529003
  0
LWPOLYLINE
  5
41D
100
AcDbEntity
  8
0
100
AcDbPolyline
 62
7
  6
CONTINUOUS
 90
3
 70
0
 10
3.2627739099
 20
11.7468056509
 10
3.2623312982
 20
11.7409989276
 10
3.2609099823
 20
11.735113673
  0
LINE
  5
41E
100
AcDbEntity
  8
0
100
AcDbLine
 62
7
  6
CONTINUOUS
 10
3.4157932998
 20
11.6851946751
 11
3.4179693321
 21
11.6987151617
  0
LWPOLYLINE
  5
41F
100
AcDbEntity
  8
IMPORT_IGES
100
AcDbPolyline
 62
253
  6
CONTINUOUS
 90
10
 70
0
 10
4.4190575275
 20
6.9395750601
 10
4.4065549614
 20
6.9166131661
 10
4.3952891379
 20
6.8929986641
 10
4.3853457968
 20
6.8689112746
 10
4.3768006129
 20
6.8445343173
 10
4.3697186202
 20
6.8200533156
 10
4.3641537169
 20
6.7956545845
 10
4.3601482554
 20
6.7715238133
 10
4.3577327196
 20
6.7478446516
 10
4.3569254931
 20
6.7247973122
  0
LINE
  5
420
100
AcDbEntity
  8
IMPORT_IGES
100
AcDbLine
 62
253
  6
CONTINUOUS
 10
4.4190575275
 20
6.9395750601
 11
5.3200982915
 21
8.4936404968
  0
LINE
  5
421
100
AcDbEntity
  8
IMPORT_IGES
100
AcDbLine
 62
253
  6
CONTINUOUS
 10
4.7811895618
 20
6.7247973122
 11
5.6822303259
 21
8.2788627489
  0
LWPOLYLINE
  5
422
100
AcDbEntity
  8
IMPORT_IGES
100
AcDbPolyline
 62
253
  6
CONTINUOUS
 90
10
 70
0
 10
12.709249518
 20
15.1300282966
 10
12.692440308
 20
15.107149004
 10
12.6819010752
 20
15.0842452693
 10
12.6776318197
 20
15.0613170925
 10
12.6797685808
 20
15.0379847986
 10
12.6881753191
 20
15.0146280626
 10
12.7024439163
 20
14.9923859094
 10
12.722438333
 20
14.971638014
 10
12.7482946086
 20
14.9520047013
 10
12.7800127431
 20
14.9334859715
  0
LINE
  5
423
100
AcDbEntity
  8
IMPORT_IGES
100
AcDbLine
 62
253
  6
CONTINUOUS
 10
12.8361112417
 20
14.957793576
 11
12.845666028
 21
14.9700163451
  0
LWPOLYLINE
  5
424
100
AcDbEntity
  8
IMPORT_IGES
100
AcDbPolyline
 62
253
  6
CONTINUOUS
 90
10
 70
0
 10
8.5144511702
 20
10.0273940228
 10
8.5166489905
 20
10.0301340411
 10
8.5192362439
 20
10.0330789407
 10
8.5221858518
 20
10.0361865544
 10
8.5254575038
 20
10.0394102861
 10
8.5289926278
 20
10.0426902703
 10
8.5327168858
 20
10.0459614845
 10
8.5365443773
 20
10.0491565905
 10
8.54046502
 20
10.0522744834
 10
8.5446345616
 20
10.0554329544
  0
LINE
  5
425
100
AcDbEntity
  8
IMPORT_IGES
100
AcDbLine
 62
253
  6
CONTINUOUS
 10
14.9610612506
 20
13.8362235376
 11
14.9468230234
 21
13.8224872817
  0
LWPOLYLINE
  5
426
100
AcDbEntity
  8
IMPORT_IGES
100
AcDbPolyline
 62
253
  6
CONTINUOUS
 90
8
 70
0
 10
17.5962971826
 20
9.9499835403
 10
17.6219507051
 20
9.968895798
 10
17.6435356508
 20
9.9892992807
 10
17.6606826954
 20
10.0108448791
 10
17.673098448
 20
10.0331639421
 10
17.6805704717
 20
10.0558745843
 10
17.6829709182
 20
10.0785882204
 10
17.6823885485
 20
10.0886502255
  0
LWPOLYLINE
  5
427
100
AcDbEntity
  8
IMPORT_IGES
100
AcDbPolyline
 62
7
  6
CONTINUOUS
 90
9
 70
0
 10
-8.1942198729
 20
-7.2243463042
 10
-8.2148405913
 20
-7.2372792874
 10
-8.2329731179
 20
-7.2537257671
 10
-8.2484444223
 20
-7.2735496106
 10
-8.2610891768
 20
-7.2966754524
 10
-8.2708285249
 20
-7.3228845157
 10
-8.2776129967
 20
-7.3518260025
 10
-8.2813384934
 20
-7.383364189
 10
-8.2820877315
 20
-7.4062720597
  0
LWPOLYLINE
  5
428
100
AcDbEntity
  8
IMPORT_IGES
100
AcDbPolyline
 62
7
  6
CONTINUOUS
 90
8
 70
0
 10
19.4650592433
 20
10.1673809063
 10
19.5003208885
 20
10.1890564053
 10
19.5323997178
 20
10.2176239653
 10
19.5597752826
 20
10.2526996403
 10
19.5812662257
 20
10.2940199021
 10
19.5953697616
 20
10.3399432377
 10
19.6013514318
 20
10.3879209411
 10
19.5994506673
 20
10.4369807728
  0
LINE
  5
429
100
AcDbEntity
  8
RACCORDO
100
AcDbLine
 62
7
  6
CONTINUOUS
 10
-13.7136307846
 20
-8.8251361838
 11
-13.7550350629
 21
-8.8505213265
  0
LWPOLYLINE
  5
42A
100
AcDbEntity
  8
IMPORT_IGES
100
AcDbPolyline
 62
253
  6
CONTINUOUS
 90
11
 70
0
 10
19.252927209
 20
10.0613148891
 10
19.268984139
 20
10.07109189
 10
19.2903074756
 20
10.0910349931
 10
19.3075171049
 20
10.11670002
 10
19.3202003327
 20
10.1474715124
 10
19.3280530096
 20
10.1826115566
 10
19.3308868252
 20
10.2212774792
 10
19.3286338232
 20
10.2625420547
 10
19.3213480317
 20
10.3054157409
 10
19.3092041671
 20
10.3488704083
 10
19.2924934444
 20
10.3918639953
  0
LINE
  5
42B
100
AcDbEntity
  8
IMPORT_IGES
100
AcDbLine
 62
7
  6
CONTINUOUS
 10
4.7104788837
 20
1.4809542493
 11
4.1801487978
 21
1.1589636525
  0
LINE
  5
42C
100
AcDbEntity
  8
RACCORDO
100
AcDbLine
 62
7
  6
CONTINUOUS
 10
-13.6714196012
 20
-8.7996407479
 11
-13.7136307846
 21
-8.8251361838
  0
LINE
  5
42D
100
AcDbEntity
  8
RACCORDO
100
AcDbLine
 62
7
  6
CONTINUOUS
 10
-13.6286077317
 20
-8.7741972358
 11
-13.6714196012
 21
-8.7996407479
  0
LINE
  5
42E
100
AcDbEntity
  8
RACCORDO
100
AcDbLine
 62
7
  6
CONTINUOUS
 10
-13.5998650335
 20
-8.7573689877
 11
-13.6286077317
 21
-8.7741972358
  0
LINE
  5
42F
100
AcDbEntity
  8
RACCORDO
100
AcDbLine
 62
7
  6
CONTINUOUS
 10
-13.5710798031
 20
-8.7407341344
 11
-13.5998650335
 21
-8.7573689877
  0
LINE
  5
430
100
AcDbEntity
  8
RACCORDO
100
AcDbLine
 62
7
  6
CONTINUOUS
 10
-13.5424031917
 20
-8.7243745161
 11
-13.5710798031
 21
-8.7407341344
  0
LWPOLYLINE
  5
431
100
AcDbEntity
  8
RACCORDO
100
AcDbPolyline
 62
7
  6
CONTINUOUS
 90
3
 70
0
 10
-13.4999153089
 20
-8.7006320381
 10
-13.5139700588
 20
-8.70842416
 10
-13.5424031917
 20
-8.7243745161
  0
LWPOLYLINE
  5
432
100
AcDbEntity
  8
RACCORDO
100
AcDbPolyline
 62
7
  6
CONTINUOUS
 90
5
 70
0
 10
-13.4323369376
 20
-8.6643400078
 10
-13.4454133687
 20
-8.6711657019
 10
-13.4587196828
 20
-8.6782380255
 10
-13.4722413211
 20
-8.6855282675
 10
-13.4999153089
 20
-8.7006320381
  0
LWPOLYLINE
  5
433
100
AcDbEntity
  8
RACCORDO
100
AcDbPolyline
 62
7
  6
CONTINUOUS
 90
5
 70
0
 10
-13.4454153742
 20
-7.501753882
 10
-13.4584933492
 20
-7.5085382765
 10
-13.47180241
 20
-7.5155704893
 10
-13.4853279501
 20
-7.5228218325
 10
-13.5130130182
 20
-7.5378515092
  0
LINE
  5
434
100
AcDbEntity
  8
RACCORDO
100
AcDbLine
 62
7
  6
CONTINUOUS
 10
-12.6843479335
 20
-7.1197052879
 11
-13.4408755681
 21
-7.4994400603
  0
LINE
  5
435
100
AcDbEntity
  8
RACCORDO
100
AcDbLine
 62
7
  6
CONTINUOUS
 10
-12.6843479335
 20
-8.288839583
 11
-13.4268336279
 21
-8.6615260828
  0
LINE
  5
436
100
AcDbEntity
  8
IMPORT_IGES
100
AcDbLine
 62
7
  6
CONTINUOUS
 10
-10.9180296102
 20
-6.2099394204
 11
-7.2717275473
 21
-4.386788389
  0
LINE
  5
437
100
AcDbEntity
  8
IMPORT_IGES
100
AcDbLine
 62
7
  6
CONTINUOUS
 10
-10.93425865
 20
-6.277427476
 11
-11.8534974656
 21
-6.7370468837
  0
LINE
  5
438
100
AcDbEntity
  8
IMPORT_IGES
100
AcDbLine
 62
7
  6
CONTINUOUS
 10
4.7104788837
 20
1.4809542493
 11
5.0993876134
 21
1.6754086141
  0
LINE
  5
439
100
AcDbEntity
  8
IMPORT_IGES
100
AcDbLine
 62
7
  6
CONTINUOUS
 10
-10.7221266157
 20
-6.4583980847
 11
-7.2725348182
 21
-4.7336021859
  0
LWPOLYLINE
  5
43A
100
AcDbEntity
  8
IMPORT_IGES
100
AcDbPolyline
 62
7
  6
CONTINUOUS
 90
4
 70
0
 10
6.0186264289
 20
0.0509445107
 10
5.9876308612
 20
0.0376604135
 10
5.9548913849
 20
0.0267612399
 10
5.9479157508
 20
0.0250388947
  0
LWPOLYLINE
  5
43B
100
AcDbEntity
  8
IMPORT_IGES
100
AcDbPolyline
 62
253
  6
CONTINUOUS
 90
7
 70
0
 10
19.2561477758
 20
6.5254803034
 10
19.2746069669
 20
6.5332281055
 10
19.2927503162
 20
6.5378797536
 10
19.3102673858
 20
6.5393556567
 10
19.3268584539
 20
6.5376305617
 10
19.3422396427
 20
6.5327339855
 10
19.3455904949
 20
6.5311606609
  0
LWPOLYLINE
  5
43C
100
AcDbEntity
  8
IMPORT_IGES
100
AcDbPolyline
 62
253
  6
CONTINUOUS
 90
7
 70
0
 10
19.0278569634
 20
5.8560968721
 10
19.0082800533
 20
5.8479933824
 10
18.9868026718
 20
5.8422807575
 10
18.9637923028
 20
5.8390567421
 10
18.93964266
 20
5.8383764998
 10
18.9147669506
 20
5.8402516698
 10
18.905127134
 20
5.8419358319
  0
LWPOLYLINE
  5
43D
100
AcDbEntity
  8
IMPORT_IGES
100
AcDbPolyline
 62
7
  6
CONTINUOUS
 90
7
 70
0
 10
-10.93425865
 20
-6.277427476
 10
-10.905476769
 20
-6.2657477368
 10
-10.8782078572
 20
-6.2588133269
 10
-10.8524519149
 20
-6.2566242461
 10
-10.8278811755
 20
-6.2593271287
 10
-10.8048234055
 20
-6.2667753405
 10
-10.7999543979
 20
-6.26905523
  0
LWPOLYLINE
  5
43E
100
AcDbEntity
  8
IMPORT_IGES
100
AcDbPolyline
 62
253
  6
CONTINUOUS
 90
4
 70
0
 10
4.7104788837
 20
2.6963279473
 10
4.7190656231
 20
2.6984452929
 10
4.7516931674
 20
2.7093465322
 10
4.7811895618
 20
2.7222807492
  0
LWPOLYLINE
  5
43F
100
AcDbEntity
  8
RACCORDO
100
AcDbPolyline
 62
7
  6
CONTINUOUS
 90
6
 70
0
 10
-5.3104152089
 20
7.0921232145
 10
-5.322032431
 20
7.1028847542
 10
-5.333153164
 20
7.1140694261
 10
-5.3437666911
 20
7.1256333736
 10
-5.3538869972
 20
7.1375018012
 10
-5.363523695
 20
7.1496138337
  0
LINE
  5
440
100
AcDbEntity
  8
IMPORT_IGES
100
AcDbLine
 62
253
  6
CONTINUOUS
 10
4.7707021182
 20
-3.5053203814
 11
4.7811895618
 21
-3.5200786874
  0
LWPOLYLINE
  5
441
100
AcDbEntity
  8
RACCORDO
100
AcDbPolyline
 62
253
  6
CONTINUOUS
 90
12
 70
0
 10
-4.0727133844
 20
13.030756383
 10
-4.0757339804
 20
13.0385606251
 10
-4.0866238508
 20
13.0621734161
 10
-4.0990210618
 20
13.085207118
 10
-4.1127897914
 20
13.1074093655
 10
-4.1277791864
 20
13.1285368966
 10
-4.1438250225
 20
13.1483582302
 10
-4.1607514994
 20
13.1666561941
 10
-4.178373161
 20
13.1832303006
 10
-4.1964969379
 20
13.1978989544
 10
-4.214924263
 20
13.2105014405
 10
-4.2334532411
 20
13.2208996791
  0
LWPOLYLINE
  5
442
100
AcDbEntity
  8
IMPORT_IGES
100
AcDbPolyline
 62
7
  6
CONTINUOUS
 90
9
 70
0
 10
4.0740827807
 20
-7.9527517699
 10
4.0755277672
 20
-7.9814568991
 10
4.0794343139
 20
-8.0078884048
 10
4.0858024208
 20
-8.032046287
 10
4.0947714744
 20
-8.0541726324
 10
4.1062020882
 20
-8.0740253543
 10
4.1196761028
 20
-8.0908781923
 10
4.1350541317
 20
-8.1044890595
 10
4.1517281783
 20
-8.1147275231
  0
LWPOLYLINE
  5
443
100
AcDbEntity
  8
0
100
AcDbPolyline
 62
7
  6
CONTINUOUS
 90
4
 70
0
 10
3.4182391437
 20
11.7059724222
 10
3.4178830911
 20
11.7132088247
 10
3.4152955156
 20
11.7272448329
 10
3.4102066055
 20
11.7408231864
  0
LWPOLYLINE
  5
444
100
AcDbEntity
  8
IMPORT_IGES
100
AcDbPolyline
 62
253
  6
CONTINUOUS
 90
9
 70
0
 10
4.3569254931
 20
-8.0941731262
 10
4.358238598
 20
-8.1223794987
 10
4.3621616562
 20
-8.1489235695
 10
4.3686461
 20
-8.173476721
 10
4.3776116515
 20
-8.1957349836
 10
4.3889473166
 20
-8.2154227983
 10
4.4025127589
 20
-8.2322964286
 10
4.4181400373
 20
-8.2461469778
 10
4.4348934488
 20
-8.2564352663
  0
LWPOLYLINE
  5
445
100
AcDbEntity
  8
ASSI
100
AcDbPolyline
 62
7
  6
CONTINUOUS
 90
6
 70
0
 10
3.2292605427
 20
21.7879813075
 10
3.2292261524
 20
21.788984993
 10
3.2284944322
 20
21.7924517081
 10
3.2268511596
 20
21.7953080447
 10
3.2243401584
 20
21.7976033133
 10
3.2224447149
 20
21.7987156335
  0
LWPOLYLINE
  5
446
100
AcDbEntity
  8
RACCORDO
100
AcDbPolyline
 62
7
  6
CONTINUOUS
 90
34
 70
0
 10
2.2002498105
 20
17.3080140803
 10
2.2000497545
 20
17.3184158889
 10
2.199449517
 20
17.328994257
 10
2.198450559
 20
17.3397252751
 10
2.1970553235
 20
17.3505847282
 10
2.1952669752
 20
17.3615480206
 10
2.1930893939
 20
17.3725902316
 10
2.1905275694
 20
17.3836863785
 10
2.1875873951
 20
17.3948113719
 10
2.1842754001
 20
17.4059399423
 10
2.180599123
 20
17.4170469002
 10
2.1765669628
 20
17.4281071214
 10
2.1721879655
 20
17.4390955026
 10
2.1674720649
 20
17.4499871602
 10
2.1624299949
 20
17.4607574473
 10
2.1570731343
 20
17.4713819386
 10
2.15141361
 20
17.4818365631
 10
2.1454642721
 20
17.4920976532
 10
2.1392386003
 20
17.5021419596
 10
2.1327506678
 20
17.5119467145
 10
2.1260151789
 20
17.5214897116
 10
2.1190474397
 20
17.5307493518
 10
2.1118631827
 20
17.5397046343
 10
2.104478667
 20
17.5483352662
 10
2.0969107127
 20
17.556621739
 10
2.0891763912
 20
17.5645452463
 10
2.0812931852
 20
17.5720878224
 10
2.0732790857
 20
17.5792324461
 10
2.0651521554
 20
17.5859628889
 10
2.0569307443
 20
17.5922638774
 10
2.0486336476
 20
17.5981212247
 10
2.0402796543
 20
17.6035216615
 10
2.0318875051
 20
17.6084528661
 10
2.0234761068
 20
17.6129036191
  0
LWPOLYLINE
  5
447
100
AcDbEntity
  8
RACCORDO
100
AcDbPolyline
 62
253
  6
CONTINUOUS
 90
31
 70
0
 10
2.7285169823
 20
17.5714529003
 10
2.7283268294
 20
17.58293102
 10
2.7276498753
 20
17.5946185227
 10
2.7264879755
 20
17.6064833752
 10
2.7248443145
 20
17.6184930581
 10
2.7227233973
 20
17.6306146552
 10
2.7201310369
 20
17.6428149434
 10
2.7170743385
 20
17.655060484
 10
2.7135616799
 20
17.6673177144
 10
2.7096026887
 20
17.6795530396
 10
2.7052082156
 20
17.6917329251
 10
2.7003903053
 20
17.703823988
 10
2.6951621625
 20
17.7157930889
 10
2.6895381167
 20
17.7276074229
 10
2.6835335824
 20
17.739234609
 10
2.6771650168
 20
17.7506427794
 10
2.670449875
 20
17.7618006663
 10
2.6634065619
 20
17.772677688
 10
2.656054382
 20
17.7832440328
 10
2.6484134861
 20
17.7934707402
 10
2.6405048166
 20
17.8033297808
 10
2.6323500495
 20
17.8127941328
 10
2.6239715357
 20
17.8218378561
 10
2.6153922391
 20
17.8304361636
 10
2.6066356738
 20
17.8385654889
 10
2.5977258399
 20
17.8462035512
 10
2.5886871578
 20
17.8533294159
 10
2.5795444006
 20
17.8599235523
 10
2.5703226271
 20
17.8659678872
 10
2.5610471122
 20
17.8714458542
 10
2.5517432786
 20
17.8763424391
  0
LINE
  5
448
100
AcDbEntity
  8
RACCORDO
100
AcDbLine
 62
253
  6
CONTINUOUS
 10
2.7285169823
 20
17.5714529003
 11
2.7285169823
 21
17.2239213836
  0
LINE
  5
449
100
AcDbEntity
  8
RACCORDO
100
AcDbLine
 62
253
  6
CONTINUOUS
 10
2.7285169823
 20
-24.0756827558
 11
2.7285169823
 21
-24.4232142726
  0
LINE
  5
44A
100
AcDbEntity
  8
RACCORDO
100
AcDbLine
 62
7
  6
CONTINUOUS
 10
2.8007148393
 20
17.6593255325
 11
2.8007148393
 21
17.3117940157
  0
LINE
  5
44B
100
AcDbEntity
  8
RACCORDO
100
AcDbLine
 62
7
  6
CONTINUOUS
 10
2.8007148393
 20
-23.9878101236
 11
2.8007148393
 21
-24.3353416404
  0
LINE
  5
44C
100
AcDbEntity
  8
ASSI
100
AcDbLine
 62
253
  6
CONTINUOUS
 10
3.1056664983
 20
20.5519035424
 11
3.1056664983
 21
21.7789535097
  0
LINE
  5
44D
100
AcDbEntity
  8
RACCORDO
100
AcDbLine
 62
7
  6
CONTINUOUS
 10
3.2292605622
 20
20.7000671632
 11
3.2292605622
 21
21.7877546858
  0
LINE
  5
44E
100
AcDbEntity
  8
RACCORDO
100
AcDbLine
 62
7
  6
CONTINUOUS
 10
3.2609099823
 20
15.4419872852
 11
3.2609099823
 21
-22.4746451455
  0
LINE
  5
44F
100
AcDbEntity
  8
0
100
AcDbLine
 62
253
  6
CONTINUOUS
 10
3.2974983904
 20
11.4886146273
 11
3.2974983904
 21
11.5752171677
  0
LINE
  5
450
100
AcDbEntity
  8
0
100
AcDbLine
 62
253
  6
CONTINUOUS
 10
3.4179693321
 20
11.6121126213
 11
3.4182933861
 21
11.6193699549
  0
LINE
  5
451
100
AcDbEntity
  8
0
100
AcDbLine
 62
7
  6
CONTINUOUS
 10
3.4182933861
 20
11.6193699549
 11
3.4182933861
 21
11.7059724953
  0
LINE
  5
452
100
AcDbEntity
  8
0
100
AcDbLine
 62
253
  6
CONTINUOUS
 10
3.4394230063
 20
11.8373868578
 11
3.4394230063
 21
11.9239893982
  0
LINE
  5
453
100
AcDbEntity
  8
IMPORT_IGES
100
AcDbLine
 62
7
  6
CONTINUOUS
 10
3.5686421464
 20
15.6289589785
 11
3.5686421464
 21
15.4557538978
  0
LINE
  5
454
100
AcDbEntity
  8
0
100
AcDbLine
 62
7
  6
CONTINUOUS
 10
3.8138624668
 20
11.769746184
 11
3.8138624668
 21
11.8563487244
  0
LINE
  5
455
100
AcDbEntity
  8
0
100
AcDbLine
 62
7
  6
CONTINUOUS
 10
3.841039525
 20
11.7833347131
 11
3.841039525
 21
11.8699372535
  0
LINE
  5
456
100
AcDbEntity
  8
IMPORT_IGES
100
AcDbLine
 62
7
  6
CONTINUOUS
 10
4.0740827807
 20
-5.9044580279
 11
4.0740827807
 21
-7.9527517699
  0
LINE
  5
457
100
AcDbEntity
  8
IMPORT_IGES
100
AcDbLine
 62
7
  6
CONTINUOUS
 10
4.0740827807
 20
4.7734156602
 11
4.0740827807
 21
6.8662186685
  0
LINE
  5
458
100
AcDbEntity
  8
IMPORT_IGES
100
AcDbLine
 62
7
  6
CONTINUOUS
 10
4.1801487978
 20
-2.9113557453
 11
4.1801487978
 21
1.1589636525
  0
LINE
  5
459
100
AcDbEntity
  8
IMPORT_IGES
100
AcDbLine
 62
7
  6
CONTINUOUS
 10
4.3215701541
 20
1.2448278117
 11
4.3215701541
 21
-2.0287903014
  0
LINE
  5
45A
100
AcDbEntity
  8
IMPORT_IGES
100
AcDbLine
 62
253
  6
CONTINUOUS
 10
4.3569254931
 20
-8.0941731264
 11
4.3569254931
 21
-5.7630366716
  0
LINE
  5
45B
100
AcDbEntity
  8
IMPORT_IGES
100
AcDbLine
 62
253
  6
CONTINUOUS
 10
4.3569254931
 20
4.631994304
 11
4.3569254931
 21
6.7247973122
  0
LINE
  5
45C
100
AcDbEntity
  8
IMPORT_IGES
100
AcDbLine
 62
7
  6
CONTINUOUS
 10
4.5018102584
 20
15.1623749225
 11
4.5018102584
 21
14.9891698418
  0
LINE
  5
45D
100
AcDbEntity
  8
IMPORT_IGES
100
AcDbLine
 62
7
  6
CONTINUOUS
 10
4.5293273188
 20
16.4345471817
 11
4.5293273188
 21
16.3453804955
  0
LWPOLYLINE
  5
45E
100
AcDbEntity
  8
RACCORDO
100
AcDbPolyline
 62
7
  6
CONTINUOUS
 90
22
 70
0
 10
2.5430335594
 20
-22.8288089128
 10
2.5424141055
 20
-22.846654784
 10
2.5412048787
 20
-22.8641957591
 10
2.5394039561
 20
-22.8814004213
 10
2.5370100602
 20
-22.8982354767
 10
2.5340238878
 20
-22.9146724944
 10
2.5304472134
 20
-22.9306872845
 10
2.5262830035
 20
-22.9462439972
 10
2.5215326602
 20
-22.9613182832
 10
2.5161938065
 20
-22.9759009039
 10
2.51026773
 20
-22.9899622111
 10
2.503758527
 20
-23.0034690718
 10
2.4966653677
 20
-23.016403267
 10
2.4889855765
 20
-23.0287427382
 10
2.4807303216
 20
-23.0404444885
 10
2.4719220499
 20
-23.0514607068
 10
2.4625673443
 20
-23.0617681929
 10
2.4526812456
 20
-23.0713361089
 10
2.4423071745
 20
-23.0801158961
 10
2.4314611324
 20
-23.0880913607
 10
2.4201638429
 20
-23.0952446568
 10
2.4083886186
 20
-23.1015841249
  0
LINE
  5
45F
100
AcDbEntity
  8
0
100
AcDbLine
 62
7
  6
CONTINUOUS
 10
3.4179693321
 20
11.6987151617
 11
3.4182391437
 21
11.7059724222
  0
LINE
  5
460
100
AcDbEntity
  8
0
100
AcDbLine
 62
7
  6
CONTINUOUS
 10
3.4179693321
 20
11.6121126213
 11
3.4182391437
 21
11.6193698818
  0
LWPOLYLINE
  5
461
100
AcDbEntity
  8
RACCORDO
100
AcDbPolyline
 62
253
  6
CONTINUOUS
 90
16
 70
0
 10
2.8007148393
 20
-24.3353416371
 10
2.8004135687
 20
-24.3414764692
 10
2.7994338501
 20
-24.3479794174
 10
2.7977771611
 20
-24.3544479817
 10
2.7954480096
 20
-24.3608645484
 10
2.7924527294
 20
-24.3672116595
 10
2.7887994705
 20
-24.3734720363
 10
2.7844981724
 20
-24.3796286394
 10
2.7795605399
 20
-24.3856647099
 10
2.7740000146
 20
-24.3915638123
 10
2.7678317255
 20
-24.3973098938
 10
2.7610724642
 20
-24.4028873095
 10
2.7537406503
 20
-24.4082808617
 10
2.7458562522
 20
-24.4134758662
 10
2.7374407264
 20
-24.4184581897
 10
2.7285169823
 20
-24.4232142726
  0
LWPOLYLINE
  5
462
100
AcDbEntity
  8
RACCORDO
100
AcDbPolyline
 62
253
  6
CONTINUOUS
 90
16
 70
0
 10
2.8007148393
 20
-23.9878101236
 10
2.8004116182
 20
-23.9939647679
 10
2.7994301124
 20
-24.0004662771
 10
2.7977719346
 20
-24.0069333532
 10
2.7954415961
 20
-24.0133484012
 10
2.7924454369
 20
-24.0196939681
 10
2.7887916087
 20
-24.0259527895
 10
2.7844900523
 20
-24.0321078373
 10
2.7795524708
 20
-24.0381423657
 10
2.7739922977
 20
-24.0440399568
 10
2.7678246605
 20
-24.049784565
 10
2.7610663392
 20
-24.0553605612
 10
2.753735721
 20
-24.0607527751
 10
2.74585275
 20
-24.065946536
 10
2.7374388733
 20
-24.0709277137
 10
2.7285169823
 20
-24.0756827558
  0
LWPOLYLINE
  5
463
100
AcDbEntity
  8
IMPORT_IGES
100
AcDbPolyline
 62
7
  6
CONTINUOUS
 90
10
 70
0
 10
7.4022962541
 20
10.6397124594
 10
7.4000495084
 20
10.6338943231
 10
7.3980587642
 20
10.6280808208
 10
7.3963240215
 20
10.6222719523
 10
7.3948405753
 20
10.6164451465
 10
7.3936131306
 20
10.6106229747
 10
7.3926558025
 20
10.6048731504
 10
7.3919732959
 20
10.5992182449
 10
7.3915609058
 20
10.5936356869
 10
7.3914186323
 20
10.5881254765
  0
LINE
  5
464
100
AcDbEntity
  8
IMPORT_IGES
100
AcDbLine
 62
7
  6
CONTINUOUS
 10
7.5587277359
 20
11.0254107646
 11
7.4721364074
 21
10.8110509239
  0
LINE
  5
465
100
AcDbEntity
  8
IMPORT_IGES
100
AcDbLine
 62
7
  6
CONTINUOUS
 10
7.4721364074
 20
10.8110509239
 11
7.4022962541
 21
10.6397124594
  0
LWPOLYLINE
  5
466
100
AcDbEntity
  8
IMPORT_IGES
100
AcDbPolyline
 62
253
  6
CONTINUOUS
 90
5
 70
0
 10
4.7811895618
 20
2.7222807492
 10
4.7650427218
 20
2.6870349895
 10
4.7455397307
 20
2.6541920765
 10
4.7230105627
 20
2.6243164974
 10
4.7104788837
 20
2.6111773939
  0
LWPOLYLINE
  5
467
100
AcDbEntity
  8
IMPORT_IGES
100
AcDbPolyline
 62
7
  6
CONTINUOUS
 90
12
 70
0
 10
6.0186264289
 20
2.4230122548
 10
5.9861663414
 20
2.3884957584
 10
5.951096681
 20
2.3571434029
 10
5.9139925638
 20
2.3294887749
 10
5.8753260019
 20
2.3059962578
 10
5.8358272982
 20
2.2869019931
 10
5.7964573418
 20
2.2722490234
 10
5.7578655171
 20
2.2621148186
 10
5.7205116317
 20
2.256530068
 10
5.6850232801
 20
2.255370345
 10
5.6519109987
 20
2.2584799671
 10
5.634913701
 20
2.2619260999
  0
LWPOLYLINE
  5
468
100
AcDbEntity
  8
IMPORT_IGES
100
AcDbPolyline
 62
253
  6
CONTINUOUS
 90
10
 70
0
 10
18.3340609224
 20
10.0765623889
 10
18.3392342553
 20
10.0804424532
 10
18.3435106615
 20
10.090290655
 10
18.3469957973
 20
10.1061200657
 10
18.3495054949
 20
10.1273210458
 10
18.3509458694
 20
10.1527856054
 10
18.3513152031
 20
10.1827558688
 10
18.3505286142
 20
10.2163911248
 10
18.3486405194
 20
10.2513321004
 10
18.3458347863
 20
10.2857272552
  0
LWPOLYLINE
  5
469
100
AcDbEntity
  8
IMPORT_IGES
100
AcDbPolyline
 62
253
  6
CONTINUOUS
 90
3
 70
0
 10
18.2889813645
 20
10.0745724079
 10
18.2746886298
 20
10.0639764234
 10
18.2708897693
 20
10.0619368894
  0
LWPOLYLINE
  5
46A
100
AcDbEntity
  8
RACCORDO
100
AcDbPolyline
 62
7
  6
CONTINUOUS
 90
27
 70
0
 10
-9.8967129186
 20
-9.2761051098
 10
-9.9090530899
 20
-9.2832584062
 10
-9.9208048461
 20
-9.2910692712
 10
-9.9319535808
 20
-9.2995090172
 10
-9.9424684339
 20
-9.308558643
 10
-9.9523545425
 20
-9.3181807471
 10
-9.9616530506
 20
-9.3283193671
 10
-9.9703522343
 20
-9.3389447685
 10
-9.9784448975
 20
-9.3500323576
 10
-9.9859804617
 20
-9.3615350832
 10
-9.9929520955
 20
-9.3734254516
 10
-9.999353464
 20
-9.3856813857
 10
-10.0052356089
 20
-9.3982664641
 10
-10.0105952068
 20
-9.4111565545
 10
-10.0154268635
 20
-9.4243319723
 10
-10.0197787699
 20
-9.4377659431
 10
-10.0236497876
 20
-9.4514379374
 10
-10.027035565
 20
-9.4653304093
 10
-10.0299792486
 20
-9.4794239316
 10
-10.0324808851
 20
-9.4937010609
 10
-10.0345372057
 20
-9.5081463339
 10
-10.036185842
 20
-9.5227457882
 10
-10.0374274582
 20
-9.5374848079
 10
-10.0382597057
 20
-9.5523495477
 10
-10.0387149935
 20
-9.567329233
 10
-10.0387942406
 20
-9.5824113973
 10
-10.0364890363
 20
-9.8039537019
  0
LWPOLYLINE
  5
46B
100
AcDbEntity
  8
RACCORDO
100
AcDbPolyline
 62
7
  6
CONTINUOUS
 90
26
 70
0
 10
-9.0954607539
 20
-8.3032292216
 10
-9.1078025891
 20
-8.3103335266
 10
-9.1195573993
 20
-8.3180968236
 10
-9.1307105218
 20
-8.3264904527
 10
-9.1412310382
 20
-8.3354954348
 10
-9.1511240296
 20
-8.3450743875
 10
-9.1604305855
 20
-8.3551713653
 10
-9.1691389211
 20
-8.3657566503
 10
-9.177241784
 20
-8.3768056452
 10
-9.1847885484
 20
-8.3882712787
 10
-9.191772325
 20
-8.400126061
 10
-9.1981867248
 20
-8.4123479046
 10
-9.2040827534
 20
-8.4249003478
 10
-9.2094570348
 20
-8.4377592524
 10
-9.2143041248
 20
-8.4509049206
 10
-9.2186721889
 20
-8.4643105298
 10
-9.2225600423
 20
-8.477955539
 10
-9.2259632881
 20
-8.4918223882
 10
-9.2289250556
 20
-8.5058916023
 10
-9.2314453515
 20
-8.5201457244
 10
-9.2335208658
 20
-8.534569276
 10
-9.2351892201
 20
-8.5491482516
 10
-9.2364510433
 20
-8.5638680203
 10
-9.2373039504
 20
-8.578714722
 10
-9.2377803436
 20
-8.5936775456
 10
-9.2378734792
 20
-8.6098316502
  0
LWPOLYLINE
  5
46C
100
AcDbEntity
  8
IMPORT_IGES
100
AcDbPolyline
 62
253
  6
CONTINUOUS
 90
7
 70
0
 10
18.8172591684
 20
6.7239959076
 10
18.8431331361
 20
6.7387477104
 10
18.8649347552
 20
6.7550619247
 10
18.8822909938
 20
6.7726594099
 10
18.8949048819
 20
6.791239068
 10
18.9025605925
 20
6.8104829959
 10
18.905127134
 20
6.8300619247
  0
LINE
  5
46D
100
AcDbEntity
  8
RACCORDO
100
AcDbLine
 62
7
  6
CONTINUOUS
 10
-8.3356412292
 20
-7.908417994
 11
-9.0921217555
 21
-8.3014746686
  0
LINE
  5
46E
100
AcDbEntity
  8
RACCORDO
100
AcDbLine
 62
7
  6
CONTINUOUS
 10
-9.2353199023
 20
-8.9324194805
 11
-9.8922516635
 21
-9.2737520125
  0
LINE
  5
46F
100
AcDbEntity
  8
IMPORT_IGES
100
AcDbLine
 62
7
  6
CONTINUOUS
 10
16.0948980608
 20
5.175682867
 11
6.0186264289
 21
0.1375470511
  0
LINE
  5
470
100
AcDbEntity
  8
IMPORT_IGES
100
AcDbLine
 62
7
  6
CONTINUOUS
 10
16.0558399433
 20
5.147536339
 11
15.9886287185
 21
5.1139307266
  0
LINE
  5
471
100
AcDbEntity
  8
IMPORT_IGES
100
AcDbLine
 62
7
  6
CONTINUOUS
 10
16.0666137896
 20
5.074938191
 11
6.0186264289
 21
0.0509445107
  0
LINE
  5
472
100
AcDbEntity
  8
IMPORT_IGES
100
AcDbLine
 62
253
  6
CONTINUOUS
 10
18.905127134
 20
6.3499730417
 11
19.2561477757
 21
6.5254803035
  0
LINE
  5
473
100
AcDbEntity
  8
IMPORT_IGES
100
AcDbLine
 62
7
  6
CONTINUOUS
 10
-7.2717198124
 20
-6.7630962739
 11
-8.1942198729
 21
-7.2243463042
  0
LINE
  5
474
100
AcDbEntity
  8
IMPORT_IGES
100
AcDbLine
 62
253
  6
CONTINUOUS
 10
19.4521210321
 20
6.0682289064
 11
19.0278569635
 21
5.8560968724
  0
LINE
  5
475
100
AcDbEntity
  8
IMPORT_IGES
100
AcDbLine
 62
7
  6
CONTINUOUS
 10
-8.2820878386
 20
-7.815124534
 11
-8.9897150018
 21
-8.1689381156
  0
LINE
  5
476
100
AcDbEntity
  8
IMPORT_IGES
100
AcDbLine
 62
7
  6
CONTINUOUS
 10
5.0993876134
 20
-2.5085618914
 11
4.7104788837
 21
-2.7030162562
  0
LINE
  5
477
100
AcDbEntity
  8
IMPORT_IGES
100
AcDbLine
 62
7
  6
CONTINUOUS
 10
4.3215701541
 20
-2.0287903014
 11
4.1801487978
 21
-2.0964776736
  0
LINE
  5
478
100
AcDbEntity
  8
IMPORT_IGES
100
AcDbLine
 62
7
  6
CONTINUOUS
 10
4.1801487978
 20
-2.9113557453
 11
4.7104788837
 21
-2.7030162562
  0
LINE
  5
479
100
AcDbEntity
  8
IMPORT_IGES
100
AcDbLine
 62
7
  6
CONTINUOUS
 10
4.7104788837
 20
2.3559542493
 11
5.9479157508
 21
2.0996726829
  0
LINE
  5
47A
100
AcDbEntity
  8
IMPORT_IGES
100
AcDbLine
 62
7
  6
CONTINUOUS
 10
4.7104788837
 20
2.4854959356
 11
5.6370657401
 21
2.2614051065
  0
LINE
  5
47B
100
AcDbEntity
  8
IMPORT_IGES
100
AcDbLine
 62
253
  6
CONTINUOUS
 10
6.0186264289
 20
2.4230122548
 11
4.7811895618
 21
2.7222807492
  0
LINE
  5
47C
100
AcDbEntity
  8
ASSI
100
AcDbLine
 62
7
  6
CONTINUOUS
 10
-5.1583140047
 20
6.9507815643
 11
-18.5933428472
 21
13.6682959856
  0
LINE
  5
47D
100
AcDbEntity
  8
RACCORDO
100
AcDbLine
 62
7
  6
CONTINUOUS
 10
-5.2645681062
 20
7.0563063403
 11
-18.4213342974
 21
13.6346894359
  0
LINE
  5
47E
100
AcDbEntity
  8
RACCORDO
100
AcDbLine
 62
253
  6
CONTINUOUS
 10
-5.363523695
 20
7.1496138337
 11
-18.3742884688
 21
13.6549962206
  0
LINE
  5
47F
100
AcDbEntity
  8
IMPORT_IGES
100
AcDbLine
 62
7
  6
CONTINUOUS
 10
5.9479157508
 20
2.0996726829
 11
5.6126330169
 21
2.2673140498
  0
LWPOLYLINE
  5
480
100
AcDbEntity
  8
RACCORDO
100
AcDbPolyline
 62
7
  6
CONTINUOUS
 90
3
 70
0
 10
-18.438869271
 20
13.6442115146
 10
-18.4248696706
 20
13.6364829893
 10
-18.4213212443
 20
13.6346830928
  0
LWPOLYLINE
  5
481
100
AcDbEntity
  8
RACCORDO
100
AcDbPolyline
 62
7
  6
CONTINUOUS
 90
5
 70
0
 10
-5.2591352047
 20
7.0543444814
 10
-5.2726797428
 20
7.0628415737
 10
-5.2857437172
 20
7.072023399
 10
-5.298319984
 20
7.08181358
 10
-5.3104152089
 20
7.0921232145
  0
LWPOLYLINE
  5
482
100
AcDbEntity
  8
RACCORDO
100
AcDbPolyline
 62
253
  6
CONTINUOUS
 90
14
 70
0
 10
-10.6358011822
 20
23.9060804658
 10
-10.6314534915
 20
23.8987273683
 10
-10.6276032453
 20
23.8916343287
 10
-10.6242609584
 20
23.8848207179
 10
-10.6214357608
 20
23.8783051489
 10
-10.6191353648
 20
23.8721054096
 10
-10.6173660491
 20
23.8662384174
 10
-10.6161326478
 20
23.8607201873
 10
-10.6154385371
 20
23.8555658037
 10
-10.6152856161
 20
23.8507893612
 10
-10.6156743001
 20
23.8464039091
 10
-10.6166035254
 20
23.842421416
 10
-10.6180707546
 20
23.838852754
 10
-10.6200401521
 20
23.83575769
  0
LWPOLYLINE
  5
483
100
AcDbEntity
  8
IMPORT_IGES
100
AcDbPolyline
 62
7
  6
CONTINUOUS
 90
13
 70
0
 10
4.7104788837
 20
4.2820125279
 10
4.7090030926
 20
4.306250731
 10
4.7053560496
 20
4.3303392257
 10
4.6995377546
 20
4.354278012
 10
4.6913791834
 20
4.3784192223
 10
4.6810493603
 20
4.4024107243
 10
4.6690553582
 20
4.425196121
 10
4.6553476905
 20
4.4467395474
 10
4.6399758438
 20
4.4670768686
 10
4.6235953509
 20
4.4852592833
 10
4.6064247227
 20
4.5009705244
 10
4.5882454482
 20
4.5145268589
 10
4.5690575275
 20
4.5259282868
  0
LWPOLYLINE
  5
484
100
AcDbEntity
  8
IMPORT_IGES
100
AcDbPolyline
 62
253
  6
CONTINUOUS
 90
13
 70
0
 10
6.1634797295
 20
10.9099083676
 10
6.1616905965
 20
10.9444687768
 10
6.1563424098
 20
10.9802968217
 10
6.1475077143
 20
11.0167909113
 10
6.1353155777
 20
11.0533423392
 10
6.1199591663
 20
11.0893170484
 10
6.101700947
 20
11.1240687513
 10
6.0808487013
 20
11.1569941067
 10
6.0577517524
 20
11.1875261666
 10
6.0328127311
 20
11.2151213492
 10
6.0064623516
 20
11.2392968405
 10
5.9791492377
 20
11.2596351476
 10
5.9513431997
 20
11.2757797581
  0
LINE
  5
485
100
AcDbEntity
  8
IMPORT_IGES
100
AcDbLine
 62
7
  6
CONTINUOUS
 10
4.7104788837
 20
-3.5780162562
 11
4.7104788837
 21
-5.5040745348
  0
LINE
  5
486
100
AcDbEntity
  8
IMPORT_IGES
100
AcDbLine
 62
7
  6
CONTINUOUS
 10
4.7104788837
 20
2.3559542493
 11
4.7104788837
 21
4.2820125279
  0
LINE
  5
487
100
AcDbEntity
  8
IMPORT_IGES
100
AcDbLine
 62
253
  6
CONTINUOUS
 10
4.7811895618
 20
6.7247973122
 11
4.7811895618
 21
2.7222807492
  0
LINE
  5
488
100
AcDbEntity
  8
IMPORT_IGES
100
AcDbLine
 62
253
  6
CONTINUOUS
 10
4.7811895618
 20
-3.5200786874
 11
4.7811895618
 21
-8.0941731262
  0
LINE
  5
489
100
AcDbEntity
  8
IMPORT_IGES
100
AcDbLine
 62
7
  6
CONTINUOUS
 10
4.939867152
 20
14.9433464757
 11
4.939867152
 21
14.770141395
  0
LINE
  5
48A
100
AcDbEntity
  8
IMPORT_IGES
100
AcDbLine
 62
7
  6
CONTINUOUS
 10
5.0772445645
 20
16.8284192038
 11
5.0772445645
 21
16.8225177667
  0
LINE
  5
48B
100
AcDbEntity
  8
IMPORT_IGES
100
AcDbLine
 62
7
  6
CONTINUOUS
 10
5.0993876134
 20
1.6754086141
 11
5.0993876134
 21
-2.5085618914
  0
LINE
  5
48C
100
AcDbEntity
  8
IMPORT_IGES
100
AcDbLine
 62
7
  6
CONTINUOUS
 10
5.8206902703
 20
14.5029349166
 11
5.8206902703
 21
14.3297298358
  0
LINE
  5
48D
100
AcDbEntity
  8
IMPORT_IGES
100
AcDbLine
 62
7
  6
CONTINUOUS
 10
5.9479157508
 20
2.0996726829
 11
5.9479157508
 21
-2.0842978227
  0
LINE
  5
48E
100
AcDbEntity
  8
IMPORT_IGES
100
AcDbLine
 62
253
  6
CONTINUOUS
 10
6.0186264289
 20
2.4230122548
 11
6.0186264289
 21
0.1375470511
  0
LINE
  5
48F
100
AcDbEntity
  8
IMPORT_IGES
100
AcDbLine
 62
253
  6
CONTINUOUS
 10
6.0186264289
 20
0.0509445107
 11
6.0186264289
 21
-1.9833733259
  0
LINE
  5
490
100
AcDbEntity
  8
IMPORT_IGES
100
AcDbLine
 62
253
  6
CONTINUOUS
 10
6.1634797296
 20
10.9099083676
 11
6.1634797296
 21
10.4423821589
  0
LINE
  5
491
100
AcDbEntity
  8
IMPORT_IGES
100
AcDbLine
 62
7
  6
CONTINUOUS
 10
6.2513476952
 20
11.0159743848
 11
6.2513476952
 21
10.544594199
  0
LINE
  5
492
100
AcDbEntity
  8
IMPORT_IGES
100
AcDbLine
 62
7
  6
CONTINUOUS
 10
6.2630739503
 20
14.1085379958
 11
6.2630739503
 21
14.2817430766
  0
LINE
  5
493
100
AcDbEntity
  8
IMPORT_IGES
100
AcDbLine
 62
7
  6
CONTINUOUS
 10
6.3550084384
 20
16.3568409105
 11
6.3550084384
 21
16.2801455891
  0
LINE
  5
494
100
AcDbEntity
  8
IMPORT_IGES
100
AcDbLine
 62
7
  6
CONTINUOUS
 10
6.6928124397
 20
13.8935414719
 11
6.6928124397
 21
14.0667465526
  0
LWPOLYLINE
  5
495
100
AcDbEntity
  8
IMPORT_IGES
100
AcDbPolyline
 62
253
  6
CONTINUOUS
 90
9
 70
0
 10
5.9899943321
 20
-8.436387426
 10
5.9892698359
 20
-8.4574792974
 10
5.9870609981
 20
-8.4779771833
 10
5.9833226127
 20
-8.4976974359
 10
5.9780208536
 20
-8.5164520006
 10
5.9711349366
 20
-8.5340489526
 10
5.9626587332
 20
-8.5502947659
 10
5.9526014144
 20
-8.5649980011
 10
5.9409882774
 20
-8.5779713431
  0
LWPOLYLINE
  5
496
100
AcDbEntity
  8
IMPORT_IGES
100
AcDbPolyline
 62
253
  6
CONTINUOUS
 90
9
 70
0
 10
7.8116376416
 20
12.2026645351
 10
7.8084475204
 20
12.1864880342
 10
7.8032384617
 20
12.1702020477
 10
7.7961687403
 20
12.1543014172
 10
7.787453166
 20
12.1392692752
 10
7.7773565572
 20
12.1255623656
 10
7.7661856944
 20
12.1135971661
 10
7.7542799986
 20
12.1037372331
 10
7.7420012182
 20
12.0962821557
  0
LINE
  5
497
100
AcDbEntity
  8
IMPORT_IGES
100
AcDbLine
 62
253
  6
CONTINUOUS
 10
12.8310067443
 20
14.9470295645
 11
12.8361112417
 21
14.957793576
  0
LINE
  5
498
100
AcDbEntity
  8
IMPORT_IGES
100
AcDbLine
 62
253
  6
CONTINUOUS
 10
4.7811895618
 20
-3.5200786874
 11
5.5704471645
 21
-2.5399427129
  0
LINE
  5
499
100
AcDbEntity
  8
IMPORT_IGES
100
AcDbLine
 62
253
  6
CONTINUOUS
 10
5.9479157508
 20
-2.0711850608
 11
6.0186264289
 21
-1.9833733259
  0
LINE
  5
49A
100
AcDbEntity
  8
IMPORT_IGES
100
AcDbLine
 62
7
  6
CONTINUOUS
 10
5.9479157508
 20
-2.0842978227
 11
4.7104788837
 21
-3.5780162562
  0
LWPOLYLINE
  5
49B
100
AcDbEntity
  8
IMPORT_IGES
100
AcDbPolyline
 62
253
  6
CONTINUOUS
 90
10
 70
0
 10
17.8556639079
 20
11.6851235199
 10
17.8473059834
 20
11.6761214164
 10
17.837053502
 20
11.6663185832
 10
17.8252179802
 20
11.6560128743
 10
17.8121590343
 20
11.6455174237
 10
17.7982734538
 20
11.6351511301
 10
17.7839831451
 20
11.6252289682
 10
17.7697223119
 20
11.6160524179
 10
17.7559242624
 20
11.6079003039
 10
17.7430082434
 20
11.6010203243
  0
LINE
  5
49C
100
AcDbEntity
  8
IMPORT_IGES
100
AcDbLine
 62
253
  6
CONTINUOUS
 10
19.5024395099
 20
10.1971010103
 11
19.4811161734
 21
10.1771579072
  0
LINE
  5
49D
100
AcDbEntity
  8
IMPORT_IGES
100
AcDbLine
 62
7
  6
CONTINUOUS
 10
3.9965843372
 20
4.812164882
 11
4.5690575275
 21
4.5259282868
  0
LWPOLYLINE
  5
49E
100
AcDbEntity
  8
IMPORT_IGES
100
AcDbPolyline
 62
253
  6
CONTINUOUS
 90
6
 70
0
 10
15.8806022255
 20
-3.4910834793
 10
15.8981203732
 20
-3.5041750132
 10
15.9118792987
 20
-3.5153328282
 10
15.9215990917
 20
-3.5243440496
 10
15.927066026
 20
-3.5310326722
 10
15.9280061848
 20
-3.5354869263
  0
LWPOLYLINE
  5
49F
100
AcDbEntity
  8
0
100
AcDbPolyline
 62
7
  6
CONTINUOUS
 90
3
 70
0
 10
3.2609099823
 20
11.7595806443
 10
3.2625381281
 20
11.7524902631
 10
3.2627739099
 20
11.7468056509
  0
LWPOLYLINE
  5
4A0
100
AcDbEntity
  8
IMPORT_IGES
100
AcDbPolyline
 62
7
  6
CONTINUOUS
 90
10
 70
0
 10
6.2513476952
 20
11.0159743848
 10
6.248874493
 20
11.0544114674
 10
6.2413922298
 20
11.0926158443
 10
6.2289093646
 20
11.1298142708
 10
6.2115554704
 20
11.16527908
 10
6.1896374352
 20
11.1982324222
 10
6.1636116349
 20
11.2279744318
 10
6.1337597757
 20
11.254146159
 10
6.1007128544
 20
11.2761474959
 10
6.0851655742
 20
11.2844753614
  0
LWPOLYLINE
  5
4A1
100
AcDbEntity
  8
IMPORT_IGES
100
AcDbPolyline
 62
253
  6
CONTINUOUS
 90
10
 70
0
 10
8.6288555021
 20
9.879772461
 10
8.6287206209
 20
9.8891033025
 10
8.6283161488
 20
9.8985571594
 10
8.6276426001
 20
9.9081220096
 10
8.6267007901
 20
9.9177860577
 10
8.6254919375
 20
9.9275366528
 10
8.6240177638
 20
9.9373602732
 10
8.6222803051
 20
9.9472440292
 10
8.620281808
 20
9.9571757102
 10
8.6180249011
 20
9.9671426801
  0
LINE
  5
4A2
100
AcDbEntity
  8
IMPORT_IGES
100
AcDbLine
 62
7
  6
CONTINUOUS
 10
6.8576581223
 20
16.1055160686
 11
6.8576581223
 21
15.9323109878
  0
LINE
  5
4A3
100
AcDbEntity
  8
IMPORT_IGES
100
AcDbLine
 62
7
  6
CONTINUOUS
 10
7.1355616939
 20
13.8453719255
 11
7.1355616939
 21
13.6721668448
  0
LINE
  5
4A4
100
AcDbEntity
  8
IMPORT_IGES
100
AcDbLine
 62
7
  6
CONTINUOUS
 10
7.2999944261
 20
13.7632828387
 11
7.2999944261
 21
13.5900777579
  0
LINE
  5
4A5
100
AcDbEntity
  8
IMPORT_IGES
100
AcDbLine
 62
7
  6
CONTINUOUS
 10
7.3914186323
 20
10.5881254765
 11
7.3914186346
 21
10.4631355553
  0
LINE
  5
4A6
100
AcDbEntity
  8
IMPORT_IGES
100
AcDbLine
 62
7
  6
CONTINUOUS
 10
7.5371474339
 20
15.7657714128
 11
7.5371474339
 21
15.592566332
  0
LINE
  5
4A7
100
AcDbEntity
  8
RACCORDO
100
AcDbLine
 62
7
  6
CONTINUOUS
 10
7.5684784175
 20
-16.7821108562
 11
7.5684784175
 21
-15.9434135565
  0
LINE
  5
4A8
100
AcDbEntity
  8
RACCORDO
100
AcDbLine
 62
7
  6
CONTINUOUS
 10
7.5684784175
 20
18.7453228848
 11
7.5684784175
 21
18.9776722802
  0
LINE
  5
4A9
100
AcDbEntity
  8
IMPORT_IGES
100
AcDbLine
 62
7
  6
CONTINUOUS
 10
7.7424417457
 20
13.5420591789
 11
7.7424417457
 21
13.3688540981
  0
LINE
  5
4AA
100
AcDbEntity
  8
RACCORDO
100
AcDbLine
 62
253
  6
CONTINUOUS
 10
7.8166227412
 20
19.6061820517
 11
7.8166227412
 21
19.1088520948
  0
LINE
  5
4AB
100
AcDbEntity
  8
RACCORDO
100
AcDbLine
 62
253
  6
CONTINUOUS
 10
7.8166227412
 20
-17.2498531565
 11
7.8166227412
 21
-17.7471831135
  0
LINE
  5
4AC
100
AcDbEntity
  8
RACCORDO
100
AcDbLine
 62
7
  6
CONTINUOUS
 10
7.9569528411
 20
19.9066865604
 11
7.9569528411
 21
19.2851161684
  0
LINE
  5
4AD
100
AcDbEntity
  8
RACCORDO
100
AcDbLine
 62
7
  6
CONTINUOUS
 10
7.9569528411
 20
-17.0787880449
 11
7.9569528411
 21
-17.7003584369
  0
LINE
  5
4AE
100
AcDbEntity
  8
IMPORT_IGES
100
AcDbLine
 62
7
  6
CONTINUOUS
 10
8.5634188816
 20
13.1315706109
 11
8.5634188816
 21
12.9583655302
  0
LINE
  5
4AF
100
AcDbEntity
  8
IMPORT_IGES
100
AcDbLine
 62
7
  6
CONTINUOUS
 10
8.5756581929
 20
15.2465160333
 11
8.5756581929
 21
15.0733109525
  0
LINE
  5
4B0
100
AcDbEntity
  8
IMPORT_IGES
100
AcDbLine
 62
253
  6
CONTINUOUS
 10
8.6288555021
 20
9.752175337
 11
8.6288555021
 21
9.879772461
  0
LWPOLYLINE
  5
4B1
100
AcDbEntity
  8
RACCORDO
100
AcDbPolyline
 62
7
  6
CONTINUOUS
 90
17
 70
0
 10
7.5684784175
 20
18.7453228848
 10
7.5681325071
 20
18.7295709632
 10
7.5671240303
 20
18.7142871367
 10
7.5654529871
 20
18.6994714051
 10
7.5631099173
 20
18.6850848238
 10
7.5601042811
 20
18.6711663374
 10
7.5564644596
 20
18.6578327803
 10
7.5521846409
 20
18.6450898982
 10
7.547270637
 20
18.6329319455
 10
7.5417682642
 20
18.6214585186
 10
7.5356741422
 20
18.6106777224
 10
7.5289916513
 20
18.6005814521
 10
7.5217767487
 20
18.5912449899
 10
7.5140218612
 20
18.5826720407
 10
7.5057345619
 20
18.5748588995
 10
7.496993528
 20
18.5678697335
 10
7.4960419827
 20
18.567178703
  0
LWPOLYLINE
  5
4B2
100
AcDbEntity
  8
IMPORT_IGES
100
AcDbPolyline
 62
253
  6
CONTINUOUS
 90
17
 70
0
 10
8.3098970027
 20
12.4331169262
 10
8.3086595794
 20
12.4147425834
 10
8.3017208021
 20
12.3966551699
 10
8.2893822335
 20
12.378857673
 10
8.2723768594
 20
12.3624829428
 10
8.2503627557
 20
12.3476094107
 10
8.2236818465
 20
12.3341586454
 10
8.1940928901
 20
12.3230282037
 10
8.1614498608
 20
12.3143825546
 10
8.1258987843
 20
12.3080572292
 10
8.0896364957
 20
12.3044563774
 10
8.0525841031
 20
12.3037397381
 10
8.0148204984
 20
12.3057475724
 10
7.9787791921
 20
12.3104048139
 10
7.9452713544
 20
12.3176864403
 10
7.9134858152
 20
12.3276174739
 10
7.8834225744
 20
12.3401979146
  0
LWPOLYLINE
  5
4B3
100
AcDbEntity
  8
IMPORT_IGES
100
AcDbPolyline
 62
253
  6
CONTINUOUS
 90
10
 70
0
 10
7.8116376416
 20
12.2026645351
 10
7.8137861504
 20
12.2338155355
 10
7.816976272
 20
12.2499920363
 10
7.8221853308
 20
12.2662780226
 10
7.8292550524
 20
12.2821786531
 10
7.8379706266
 20
12.2972107952
 10
7.8480672353
 20
12.3109177047
 10
7.8592380981
 20
12.3228829042
 10
7.871143794
 20
12.3327428372
 10
7.8834225744
 20
12.3401979146
  0
LWPOLYLINE
  5
4B4
100
AcDbEntity
  8
IMPORT_IGES
100
AcDbPolyline
 62
253
  6
CONTINUOUS
 90
9
 70
0
 10
11.8418910288
 20
14.2177912287
 10
11.8387009076
 20
14.2016147278
 10
11.833491849
 20
14.1853287413
 10
11.8264221275
 20
14.1694281108
 10
11.8177065532
 20
14.1543959688
 10
11.8076099444
 20
14.1406890593
 10
11.7964390816
 20
14.1287238597
 10
11.7845333858
 20
14.1188639267
 10
11.7722546054
 20
14.1114088493
  0
LWPOLYLINE
  5
4B5
100
AcDbEntity
  8
IMPORT_IGES
100
AcDbPolyline
 62
253
  6
CONTINUOUS
 90
12
 70
0
 10
4.7811895618
 20
-8.0941731262
 10
4.7644720046
 20
-8.1292701766
 10
4.7444079941
 20
-8.1619662798
 10
4.7213372604
 20
-8.1916995702
 10
4.6956482178
 20
-8.2179609969
 10
4.6677810526
 20
-8.2402929546
 10
4.6382227797
 20
-8.2583024269
 10
4.607478906
 20
-8.2716815652
 10
4.5760774641
 20
-8.2802007241
 10
4.5445720078
 20
-8.2837138438
 10
4.5135066687
 20
-8.2821692576
 10
4.4873224522
 20
-8.27675807
  0
LWPOLYLINE
  5
4B6
100
AcDbEntity
  8
IMPORT_IGES
100
AcDbPolyline
 62
7
  6
CONTINUOUS
 90
8
 70
0
 10
4.6585936956
 20
-5.6121504347
 10
4.6690553582
 20
-5.6058346024
 10
4.6810493603
 20
-5.5950432077
 10
4.6913791834
 20
-5.5813815289
 10
4.6995377546
 20
-5.5653988898
 10
4.7053560496
 20
-5.5472783984
 10
4.7090030926
 20
-5.5268369467
 10
4.7104788837
 20
-5.5040745348
  0
LWPOLYLINE
  5
4B7
100
AcDbEntity
  8
IMPORT_IGES
100
AcDbPolyline
 62
253
  6
CONTINUOUS
 90
7
 70
0
 10
18.8172591684
 20
0.5262102061
 10
18.8431331361
 20
0.5409620089
 10
18.8649347552
 20
0.5572762233
 10
18.8822909938
 20
0.5748737084
 10
18.8949048819
 20
0.5934533665
 10
18.9025605925
 20
0.6126972945
 10
18.905127134
 20
0.6322762233
  0
LINE
  5
4B8
100
AcDbEntity
  8
IMPORT_IGES
100
AcDbLine
 62
253
  6
CONTINUOUS
 10
4.7104788837
 20
-5.5040745348
 11
3.2609099823
 21
-6.2288589855
  0
LINE
  5
4B9
100
AcDbEntity
  8
IMPORT_IGES
100
AcDbLine
 62
7
  6
CONTINUOUS
 10
3.2609099823
 20
-6.3110444271
 11
4.6585002466
 21
-5.6122492949
  0
LINE
  5
4BA
100
AcDbEntity
  8
IMPORT_IGES
100
AcDbLine
 62
253
  6
CONTINUOUS
 10
17.7414109758
 20
-0.0117138899
 11
18.8172591684
 21
0.5262102065
  0
LINE
  5
4BB
100
AcDbEntity
  8
IMPORT_IGES
100
AcDbLine
 62
7
  6
CONTINUOUS
 10
17.8356236299
 20
-0.5234653231
 11
18.4638064865
 21
-0.2093738948
  0
LWPOLYLINE
  5
4BC
100
AcDbEntity
  8
IMPORT_IGES
100
AcDbPolyline
 62
253
  6
CONTINUOUS
 90
10
 70
0
 10
8.5702625719
 20
10.1814980608
 10
8.559608041
 20
10.1795838474
 10
8.5485744735
 20
10.1768428101
 10
8.5373253334
 20
10.1733135086
 10
8.5260457519
 20
10.1690534549
 10
8.5148863231
 20
10.1641194235
 10
8.5039639316
 20
10.1585566715
 10
8.4934339311
 20
10.1524301399
 10
8.4834840423
 20
10.1458336192
 10
8.4742801128
 20
10.13886281
  0
LWPOLYLINE
  5
4BD
100
AcDbEntity
  8
IMPORT_IGES
100
AcDbPolyline
 62
7
  6
CONTINUOUS
 90
5
 70
0
 10
18.4992967298
 20
10.0781514485
 10
18.4805583185
 20
10.0752160079
 10
18.4590925805
 20
10.0733205319
 10
18.4375468209
 20
10.0737455713
 10
18.4056677938
 20
10.0768042829
  0
LWPOLYLINE
  5
4BE
100
AcDbEntity
  8
IMPORT_IGES
100
AcDbPolyline
 62
7
  6
CONTINUOUS
 90
7
 70
0
 10
18.4992967298
 20
10.0781514485
 10
18.5252826158
 20
10.0815452428
 10
18.5486925842
 20
10.0837660959
 10
18.5694226768
 20
10.0849498086
 10
18.586918999
 20
10.0852342387
 10
18.6004663933
 20
10.0848525764
 10
18.6077930155
 20
10.0843370865
  0
LINE
  5
4BF
100
AcDbEntity
  8
IMPORT_IGES
100
AcDbLine
 62
253
  6
CONTINUOUS
 10
18.3339566872
 20
10.0765521034
 11
18.3340609224
 21
10.0765623889
  0
LINE
  5
4C0
100
AcDbEntity
  8
IMPORT_IGES
100
AcDbLine
 62
7
  6
CONTINUOUS
 10
3.5998636266
 20
6.7224728553
 11
3.2609099823
 21
6.8919496775
  0
LINE
  5
4C1
100
AcDbEntity
  8
ASSI
100
AcDbLine
 62
253
  6
CONTINUOUS
 10
-19.1612729239
 20
18.3768631996
 11
-18.4663643064
 21
18.0294088908
  0
LINE
  5
4C2
100
AcDbEntity
  8
ASSI
100
AcDbLine
 62
253
  6
CONTINUOUS
 10
-5.0313354638
 20
11.3118944695
 11
-4.3364268463
 21
10.9644401608
  0
LINE
  5
4C3
100
AcDbEntity
  8
RACCORDO
100
AcDbLine
 62
253
  6
CONTINUOUS
 10
-5.237708727
 20
11.4748391671
 11
-18.2484735008
 21
17.980221554
  0
LINE
  5
4C4
100
AcDbEntity
  8
IMPORT_IGES
100
AcDbLine
 62
253
  6
CONTINUOUS
 10
4.3569254931
 20
6.7247973122
 11
4.0740827807
 21
6.8662186685
  0
LINE
  5
4C5
100
AcDbEntity
  8
IMPORT_IGES
100
AcDbLine
 62
7
  6
CONTINUOUS
 10
17.5656801657
 20
0.2567351327
 11
17.3848475545
 21
0.3471514383
  0
LINE
  5
4C6
100
AcDbEntity
  8
IMPORT_IGES
100
AcDbLine
 62
253
  6
CONTINUOUS
 10
4.136214815
 20
7.0809964164
 11
4.4190575275
 21
6.9395750601
  0
LWPOLYLINE
  5
4C7
100
AcDbEntity
  8
IMPORT_IGES
100
AcDbPolyline
 62
253
  6
CONTINUOUS
 90
13
 70
0
 10
4.4190575275
 20
6.9395750601
 10
4.4480039039
 20
6.9248139547
 10
4.4790270561
 20
6.9084432215
 10
4.5115983038
 20
6.8907414058
 10
4.5451645756
 20
6.8720086137
 10
4.579149362
 20
6.8525661224
 10
4.6129624079
 20
6.8327513916
 10
4.6460239408
 20
6.8129041441
 10
4.6777684664
 20
6.7933638233
 10
4.7076468711
 20
6.7744685277
 10
4.7351469953
 20
6.7565424458
 10
4.7598013478
 20
6.7398906346
 10
4.7811895618
 20
6.7247973122
  0
LWPOLYLINE
  5
4C8
100
AcDbEntity
  8
IMPORT_IGES
100
AcDbPolyline
 62
7
  6
CONTINUOUS
 90
13
 70
0
 10
3.5997338289
 20
6.722538162
 10
3.6268408239
 20
6.707580562
 10
3.6550956075
 20
6.6893122011
 10
3.6840675901
 20
6.6679499907
 10
3.7133887244
 20
6.6438232893
 10
3.7425537584
 20
6.6172554505
 10
3.7709261925
 20
6.5885580417
 10
3.7981588634
 20
6.5582665395
 10
3.8238006549
 20
6.5268946703
 10
3.8470874195
 20
6.4948044785
 10
3.8675622039
 20
6.4625659124
 10
3.885093473
 20
6.4309496494
 10
3.8994730464
 20
6.4006698859
  0
LWPOLYLINE
  5
4C9
100
AcDbEntity
  8
0
100
AcDbPolyline
 62
7
  6
CONTINUOUS
 90
7
 70
0
 10
3.4102066055
 20
11.7408231864
 10
3.4027525672
 20
11.7538476403
 10
3.3927971944
 20
11.7664144394
 10
3.3799318676
 20
11.7788123181
 10
3.3640203801
 20
11.791137521
 10
3.3451989386
 20
11.8032938035
 10
3.323467543
 20
11.8152811656
  0
LINE
  5
4CA
100
AcDbEntity
  8
IMPORT_IGES
100
AcDbLine
 62
253
  6
CONTINUOUS
 10
5.2432600615
 20
8.8141599846
 11
5.2334215825
 21
8.8329018668
  0
LWPOLYLINE
  5
4CB
100
AcDbEntity
  8
IMPORT_IGES
100
AcDbPolyline
 62
7
  6
CONTINUOUS
 90
6
 70
0
 10
8.4101992697
 20
12.3419837219
 10
8.4086492531
 20
12.3643803028
 10
8.4039305981
 20
12.386808715
 10
8.3959732271
 20
12.4089301595
 10
8.3847196636
 20
12.4304848155
 10
8.3702180389
 20
12.4511107979
  0
LINE
  5
4CC
100
AcDbEntity
  8
IMPORT_IGES
100
AcDbLine
 62
7
  6
CONTINUOUS
 10
9.0443816005
 20
12.7178841707
 11
9.0443816005
 21
12.8910892515
  0
LINE
  5
4CD
100
AcDbEntity
  8
IMPORT_IGES
100
AcDbLine
 62
7
  6
CONTINUOUS
 10
9.2567540511
 20
14.9059681042
 11
9.2567540511
 21
14.7327630234
  0
LINE
  5
4CE
100
AcDbEntity
  8
IMPORT_IGES
100
AcDbLine
 62
7
  6
CONTINUOUS
 10
10.4930277275
 20
14.287831266
 11
10.4930277275
 21
14.1146261852
  0
LWPOLYLINE
  5
4CF
100
AcDbEntity
  8
IMPORT_IGES
100
AcDbPolyline
 62
253
  6
CONTINUOUS
 90
10
 70
0
 10
11.8418910288
 20
14.2177912287
 10
11.8440395376
 20
14.2489422291
 10
11.8472296592
 20
14.2651187299
 10
11.852438718
 20
14.2814047162
 10
11.8595084396
 20
14.2973053467
 10
11.8682240139
 20
14.3123374888
 10
11.8783206226
 20
14.3260443983
 10
11.8894914854
 20
14.3380095978
 10
11.9013971812
 20
14.3478695308
 10
11.9136759616
 20
14.3553246082
  0
LWPOLYLINE
  5
4D0
100
AcDbEntity
  8
RACCORDO
100
AcDbPolyline
 62
253
  6
CONTINUOUS
 90
31
 70
0
 10
2.7285169823
 20
-24.0756827558
 10
2.7328601236
 20
-24.0634591749
 10
2.7367079326
 20
-24.0510259845
 10
2.7400495013
 20
-24.0384169254
 10
2.7428755256
 20
-24.0256650815
 10
2.7451775255
 20
-24.0128063226
 10
2.7469483579
 20
-23.9998792889
 10
2.7481830889
 20
-23.9869205955
 10
2.7488785518
 20
-23.9739643327
 10
2.7490328446
 20
-23.9610455618
 10
2.7486454948
 20
-23.9481993565
 10
2.747717513
 20
-23.9354610245
 10
2.7462514367
 20
-23.9228656791
 10
2.744251291
 20
-23.9104478347
 10
2.7417225281
 20
-23.8982412942
 10
2.7386720469
 20
-23.8862793696
 10
2.7351081696
 20
-23.8745947166
 10
2.7310406312
 20
-23.8632192722
 10
2.72648055
 20
-23.8521841359
 10
2.7214403854
 20
-23.8415194575
 10
2.7159339007
 20
-23.8312543576
 10
2.7099761366
 20
-23.8214168745
 10
2.7035833562
 20
-23.8120338646
 10
2.6967730294
 20
-23.8031309718
 10
2.6895637915
 20
-23.7947325504
 10
2.6819753621
 20
-23.7868615551
 10
2.674028452
 20
-23.7795394514
 10
2.6657447351
 20
-23.7727862029
 10
2.6571468245
 20
-23.7666202458
 10
2.6482582158
 20
-23.7610584312
 10
2.6391031869
 20
-23.7561159498
  0
LWPOLYLINE
  5
4D1
100
AcDbEntity
  8
IMPORT_IGES
100
AcDbPolyline
 62
253
  6
CONTINUOUS
 90
4
 70
0
 10
5.9322142566
 20
-8.5315105193
 10
5.9546147693
 20
-8.5021358291
 10
5.9739520369
 20
-8.4702340361
 10
5.9899943321
 20
-8.436387426
  0
LWPOLYLINE
  5
4D2
100
AcDbEntity
  8
IMPORT_IGES
100
AcDbPolyline
 62
253
  6
CONTINUOUS
 90
9
 70
0
 10
18.7109770552
 20
7.2747507857
 10
18.7343923638
 20
7.3022433828
 10
18.753777392
 20
7.331080393
 10
18.7688004566
 20
7.3607684069
 10
18.7792045089
 20
7.3907994544
 10
18.7848115326
 20
7.420659696
 10
18.7855255901
 20
7.4498382146
 10
18.7813344635
 20
7.4778357578
 10
18.7721454975
 20
7.504537656
  0
LINE
  5
4D3
100
AcDbEntity
  8
IMPORT_IGES
100
AcDbLine
 62
253
  6
CONTINUOUS
 10
5.9070161181
 20
-8.5578224321
 11
5.9322142566
 21
-8.5315105193
  0
LINE
  5
4D4
100
AcDbEntity
  8
IMPORT_IGES
100
AcDbLine
 62
253
  6
CONTINUOUS
 10
5.9409882774
 20
-8.5779713431
 11
5.9278623128
 21
-8.5890331312
  0
LWPOLYLINE
  5
4D5
100
AcDbEntity
  8
IMPORT_IGES
100
AcDbPolyline
 62
253
  6
CONTINUOUS
 90
3
 70
0
 10
18.5355955801
 20
-0.1657796805
 10
18.4737424286
 20
-0.204269159
 10
18.4638064865
 20
-0.2093738948
  0
LINE
  5
4D6
100
AcDbEntity
  8
IMPORT_IGES
100
AcDbLine
 62
7
  6
CONTINUOUS
 10
15.4248936799
 20
-3.8846829934
 11
15.4470211007
 21
-3.8724064379
  0
LWPOLYLINE
  5
4D7
100
AcDbEntity
  8
IMPORT_IGES
100
AcDbPolyline
 62
253
  6
CONTINUOUS
 90
3
 70
0
 10
14.6527728718
 20
-4.2722349941
 10
14.6864289081
 20
-4.2538774495
 10
14.7172700166
 20
-4.2375781708
  0
LWPOLYLINE
  5
4D8
100
AcDbEntity
  8
IMPORT_IGES
100
AcDbPolyline
 62
7
  6
CONTINUOUS
 90
4
 70
0
 10
14.6656157627
 20
-4.2659928274
 10
14.6888346745
 20
-4.2535067738
 10
14.7104637247
 20
-4.2421314599
 10
14.7302170312
 20
-4.2320023181
  0
LWPOLYLINE
  5
4D9
100
AcDbEntity
  8
IMPORT_IGES
100
AcDbPolyline
 62
253
  6
CONTINUOUS
 90
6
 70
0
 10
5.9278622978
 20
-8.5890331395
 10
5.9008323175
 20
-8.6033445176
 10
5.8724830859
 20
-8.6147268397
 10
5.8431187403
 20
-8.6230579934
 10
5.8130543083
 20
-8.6282486004
 10
5.8081546203
 20
-8.6287881159
  0
LINE
  5
4DA
100
AcDbEntity
  8
IMPORT_IGES
100
AcDbLine
 62
7
  6
CONTINUOUS
 10
14.0520704464
 20
-4.6591320598
 11
14.061584969
 21
-4.6540977298
  0
LWPOLYLINE
  5
4DB
100
AcDbEntity
  8
IMPORT_IGES
100
AcDbPolyline
 62
253
  6
CONTINUOUS
 90
3
 70
0
 10
14.0520711108
 20
-4.6591317611
 10
14.0541800106
 20
-4.6580472301
 10
14.0678538439
 20
-4.6495419738
  0
LINE
  5
4DC
100
AcDbEntity
  8
IMPORT_IGES
100
AcDbLine
 62
253
  6
CONTINUOUS
 10
15.4356274794
 20
-3.8781715168
 11
15.4473086405
 21
-3.8722314627
  0
LINE
  5
4DD
100
AcDbEntity
  8
IMPORT_IGES
100
AcDbLine
 62
253
  6
CONTINUOUS
 10
14.7172700166
 20
-4.2375781708
 11
14.7452961973
 21
-4.2233371578
  0
LINE
  5
4DE
100
AcDbEntity
  8
IMPORT_IGES
100
AcDbLine
 62
7
  6
CONTINUOUS
 10
6.4840501125
 20
-8.4080022386
 11
6.1724523193
 21
-8.5639092219
  0
LINE
  5
4DF
100
AcDbEntity
  8
IMPORT_IGES
100
AcDbLine
 62
253
  6
CONTINUOUS
 10
5.9899943321
 20
-8.436387426
 11
15.8806022255
 21
-3.4910834793
  0
LINE
  5
4E0
100
AcDbEntity
  8
IMPORT_IGES
100
AcDbLine
 62
253
  6
CONTINUOUS
 10
5.927862316
 20
-8.5890331289
 11
15.8184701989
 21
-3.6437291881
  0
LINE
  5
4E1
100
AcDbEntity
  8
IMPORT_IGES
100
AcDbLine
 62
253
  6
CONTINUOUS
 10
15.4356274796
 20
-3.8781715167
 11
14.7452961973
 21
-4.2233371578
  0
LINE
  5
4E2
100
AcDbEntity
  8
IMPORT_IGES
100
AcDbLine
 62
7
  6
CONTINUOUS
 10
14.7302170312
 20
-4.2320023181
 11
15.4250641268
 21
-3.8845855037
  0
LINE
  5
4E3
100
AcDbEntity
  8
IMPORT_IGES
100
AcDbLine
 62
253
  6
CONTINUOUS
 10
6.684746336
 20
-8.3410957277
 11
14.0678538439
 21
-4.6495419738
  0
LINE
  5
4E4
100
AcDbEntity
  8
IMPORT_IGES
100
AcDbLine
 62
7
  6
CONTINUOUS
 10
14.0520711108
 20
-4.6591317611
 11
6.7020929477
 21
-8.3341208878
  0
LINE
  5
4E5
100
AcDbEntity
  8
IMPORT_IGES
100
AcDbLine
 62
7
  6
CONTINUOUS
 10
14.734709448
 20
-4.229762835
 11
14.7344775002
 21
-4.2298781816
  0
LINE
  5
4E6
100
AcDbEntity
  8
IMPORT_IGES
100
AcDbLine
 62
7
  6
CONTINUOUS
 10
15.4250618704
 20
-3.8845866319
 11
15.4244842295
 21
-3.8848723613
  0
LINE
  5
4E7
100
AcDbEntity
  8
IMPORT_IGES
100
AcDbLine
 62
253
  6
CONTINUOUS
 10
15.8184701947
 20
-3.6437291907
 11
15.8251400839
 21
-3.6408583203
  0
LWPOLYLINE
  5
4E8
100
AcDbEntity
  8
IMPORT_IGES
100
AcDbPolyline
 62
7
  6
CONTINUOUS
 90
4
 70
0
 10
6.4840384187
 20
-8.4066668183
 10
6.5731719875
 20
-8.3775157776
 10
6.5956127671
 20
-8.3702467684
 10
6.684746336
 20
-8.3410957277
  0
LINE
  5
4E9
100
AcDbEntity
  8
IMPORT_IGES
100
AcDbLine
 62
7
  6
CONTINUOUS
 10
7.7424417457
 20
13.3688540981
 11
9.332817241
 21
13.8109397355
  0
LINE
  5
4EA
100
AcDbEntity
  8
IMPORT_IGES
100
AcDbLine
 62
7
  6
CONTINUOUS
 10
9.6191010216
 20
14.0637247318
 11
7.7424417457
 21
13.5420591789
  0
LWPOLYLINE
  5
4EB
100
AcDbEntity
  8
IMPORT_IGES
100
AcDbPolyline
 62
253
  6
CONTINUOUS
 90
10
 70
0
 10
7.8925958079
 20
11.6254256891
 10
7.8817084131
 20
11.6234586548
 10
7.8704176432
 20
11.620627483
 10
7.8588972375
 20
11.6169709968
 10
7.8473409529
 20
11.6125475104
 10
7.8359154238
 20
11.607417529
 10
7.8247604173
 20
11.601634547
 10
7.8140477097
 20
11.5952721027
 10
7.8039748384
 20
11.5884312483
 10
7.7947196283
 20
11.5812168909
  0
LWPOLYLINE
  5
4EC
100
AcDbEntity
  8
IMPORT_IGES
100
AcDbPolyline
 62
7
  6
CONTINUOUS
 90
4
 70
0
 10
18.3340609224
 20
10.0765623889
 10
18.355086355
 20
10.0778539139
 10
18.3798269882
 20
10.0780235438
 10
18.4056677938
 20
10.0768042829
  0
LWPOLYLINE
  5
4ED
100
AcDbEntity
  8
IMPORT_IGES
100
AcDbPolyline
 62
253
  6
CONTINUOUS
 90
10
 70
0
 10
8.5491199924
 20
9.9525781295
 10
8.5554830805
 20
9.9523055122
 10
8.5627270835
 20
9.9525783054
 10
8.570631896
 20
9.9533882202
 10
8.5789573343
 20
9.9547106479
 10
8.5874504342
 20
9.9565054071
 10
8.595853137
 20
9.958717965
 10
8.603910131
 20
9.9612810942
 10
8.6113766084
 20
9.9641169152
 10
8.6180257042
 20
9.9671392632
  0
LINE
  5
4EE
100
AcDbEntity
  8
IMPORT_IGES
100
AcDbLine
 62
253
  6
CONTINUOUS
 10
3.4212880717
 20
8.4968508613
 11
3.2609099823
 21
8.577039906
  0
LINE
  5
4EF
100
AcDbEntity
  8
IMPORT_IGES
100
AcDbLine
 62
253
  6
CONTINUOUS
 10
4.6830734219
 20
8.5817730565
 11
3.7486557062
 21
9.0489819148
  0
LINE
  5
4F0
100
AcDbEntity
  8
ASSI
100
AcDbLine
 62
253
  6
CONTINUOUS
 10
-18.1687069139
 20
20.1286673555
 11
-17.4621121048
 21
19.7753699509
  0
LINE
  5
4F1
100
AcDbEntity
  8
ASSI
100
AcDbLine
 62
253
  6
CONTINUOUS
 10
-4.0270832622
 20
13.0578555296
 11
-3.3204884531
 21
12.7045581251
  0
LINE
  5
4F2
100
AcDbEntity
  8
RACCORDO
100
AcDbLine
 62
253
  6
CONTINUOUS
 10
-4.2334532413
 20
13.2208996789
 11
-17.2442180152
 21
19.7262820659
  0
LINE
  5
4F3
100
AcDbEntity
  8
IMPORT_IGES
100
AcDbLine
 62
253
  6
CONTINUOUS
 10
5.3200982915
 20
8.4936404968
 11
5.037255579
 21
8.635061853
  0
LINE
  5
4F4
100
AcDbEntity
  8
IMPORT_IGES
100
AcDbLine
 62
253
  6
CONTINUOUS
 10
3.816624726
 20
9.4296619863
 11
3.9932947355
 21
9.3413269815
  0
LINE
  5
4F5
100
AcDbEntity
  8
IMPORT_IGES
100
AcDbLine
 62
253
  6
CONTINUOUS
 10
5.187255579
 20
8.7861577434
 11
5.4700982915
 21
8.6447363872
  0
LINE
  5
4F6
100
AcDbEntity
  8
IMPORT_IGES
100
AcDbLine
 62
253
  6
CONTINUOUS
 10
3.8757825857
 20
9.455717975
 11
4.0366015079
 21
9.3753085139
  0
LINE
  5
4F7
100
AcDbEntity
  8
IMPORT_IGES
100
AcDbLine
 62
253
  6
CONTINUOUS
 10
4.1556377324
 20
9.4484132764
 11
5.0839460908
 21
8.9842590975
  0
LINE
  5
4F8
100
AcDbEntity
  8
IMPORT_IGES
100
AcDbLine
 62
7
  6
CONTINUOUS
 10
4.1136283822
 20
9.5384019448
 11
4.2258258457
 21
9.482303213
  0
LWPOLYLINE
  5
4F9
100
AcDbEntity
  8
IMPORT_IGES
100
AcDbPolyline
 62
253
  6
CONTINUOUS
 90
13
 70
0
 10
5.4700982915
 20
8.6447363872
 10
5.4977635834
 20
8.6286848377
 10
5.5249639248
 20
8.6084633645
 10
5.5512338414
 20
8.5844141806
 10
5.5761251377
 20
8.5569430342
 10
5.5992082377
 20
8.5265192094
 10
5.6200812429
 20
8.4936698989
 10
5.6383861271
 20
8.4589581916
 10
5.6538096663
 20
8.4229776442
 10
5.6660854748
 20
8.386351149
 10
5.6750044416
 20
8.3497081569
 10
5.6804163754
 20
8.3136733432
 10
5.6822303259
 20
8.2788627489
  0
LWPOLYLINE
  5
4FA
100
AcDbEntity
  8
IMPORT_IGES
100
AcDbPolyline
 62
7
  6
CONTINUOUS
 90
8
 70
0
 10
5.7364016442
 20
9.3082172879
 10
5.7640332124
 20
9.2921216256
 10
5.7911865831
 20
9.2718532955
 10
5.8173977281
 20
9.247759379
 10
5.842217996
 20
9.220252044
 10
5.8652236994
 20
9.1898024426
 10
5.8860233751
 20
9.1569326558
 10
5.8949213071
 20
9.1399906075
  0
LWPOLYLINE
  5
4FB
100
AcDbEntity
  8
IMPORT_IGES
100
AcDbPolyline
 62
253
  6
CONTINUOUS
 90
9
 70
0
 10
4.9265925512
 20
8.4441963632
 10
4.912533429
 20
8.4528937273
 10
4.8803078904
 20
8.4723566642
 10
4.8466941584
 20
8.4921889654
 10
4.8124590507
 20
8.5119177354
 10
4.7783343161
 20
8.5311080827
 10
4.7449803738
 20
8.5493789616
 10
4.7129761714
 20
8.5664032284
 10
4.6829434237
 20
8.581838555
  0
LWPOLYLINE
  5
4FC
100
AcDbEntity
  8
IMPORT_IGES
100
AcDbPolyline
 62
253
  6
CONTINUOUS
 90
13
 70
0
 10
5.6822303259
 20
8.2788627489
 10
5.6608467081
 20
8.2939529022
 10
5.6361965206
 20
8.3106020737
 10
5.6086993685
 20
8.3285264347
 10
5.5788216239
 20
8.3474215298
 10
5.5470754723
 20
8.3669630365
 10
5.5140114836
 20
8.3868118988
 10
5.4801952457
 20
8.4066285945
 10
5.4462066795
 20
8.4260732931
 10
5.4126378746
 20
8.4448074998
 10
5.380065921
 20
8.4625096756
 10
5.3490432374
 20
8.478880134
 10
5.3200982915
 20
8.4936404968
  0
LWPOLYLINE
  5
4FD
100
AcDbEntity
  8
IMPORT_IGES
100
AcDbPolyline
 62
253
  6
CONTINUOUS
 90
6
 70
0
 10
17.2555582326
 20
-1.1196351577
 10
17.2733223425
 20
-1.1329174765
 10
17.2871528656
 20
-1.1441577121
 10
17.2968131578
 20
-1.1531635411
 10
17.302137929
 20
-1.1597808712
 10
17.3029585416
 20
-1.1640449284
  0
LWPOLYLINE
  5
4FE
100
AcDbEntity
  8
IMPORT_IGES
100
AcDbPolyline
 62
253
  6
CONTINUOUS
 90
6
 70
0
 10
5.2126323326
 20
8.8657768277
 10
5.1896412255
 20
8.8962336728
 10
5.1648416455
 20
8.9237512768
 10
5.1386579201
 20
8.9478588061
 10
5.1115380601
 20
8.968143774
 10
5.083946094
 20
8.9842590991
  0
LINE
  5
4FF
100
AcDbEntity
  8
IMPORT_IGES
100
AcDbLine
 62
253
  6
CONTINUOUS
 10
5.2334215825
 20
8.8329018668
 11
5.2126323326
 21
8.8657768277
  0
LINE
  5
500
100
AcDbEntity
  8
IMPORT_IGES
100
AcDbLine
 62
7
  6
CONTINUOUS
 10
6.0393287625
 20
10.3579429179
 11
5.8806706002
 21
10.6170041045
  0
LWPOLYLINE
  5
501
100
AcDbEntity
  8
IMPORT_IGES
100
AcDbPolyline
 62
253
  6
CONTINUOUS
 90
10
 70
0
 10
8.5490971879
 20
9.9526600313
 10
8.5505331958
 20
9.9464241545
 10
8.5518478431
 20
9.9401950829
 10
8.55304113
 20
9.9339728164
 10
8.5541150814
 20
9.9277467562
 10
8.5550676724
 20
9.9215275012
 10
8.555892828
 20
9.9153468478
 10
8.5565885232
 20
9.909215395
 10
8.5571567831
 20
9.9031225438
 10
8.5575976076
 20
9.8970682944
  0
LINE
  5
502
100
AcDbEntity
  8
IMPORT_IGES
100
AcDbLine
 62
253
  6
CONTINUOUS
 10
12.8877224603
 20
14.9174358515
 11
12.8862188649
 21
14.9946059375
  0
LWPOLYLINE
  5
503
100
AcDbEntity
  8
IMPORT_IGES
100
AcDbPolyline
 62
253
  6
CONTINUOUS
 90
13
 70
0
 10
12.9543773095
 20
15.0209597071
 10
12.955105925
 20
15.039068466
 10
12.9540072547
 20
15.0577747886
 10
12.9511000972
 20
15.0767586044
 10
12.9464341948
 20
15.095695095
 10
12.9400893823
 20
15.114260252
 10
12.9321742213
 20
15.1321364202
 10
12.9228241422
 20
15.1490177335
 10
12.9121991277
 20
15.164615348
 10
12.9004809746
 20
15.1786623841
 10
12.8878701837
 20
15.1909184931
 10
12.8745825293
 20
15.2011739697
 10
12.8608453667
 20
15.2092533398
  0
LWPOLYLINE
  5
504
100
AcDbEntity
  8
IMPORT_IGES
100
AcDbPolyline
 62
253
  6
CONTINUOUS
 90
17
 70
0
 10
12.34015039
 20
14.4482436198
 10
12.3389129666
 20
14.429869277
 10
12.3319741894
 20
14.4117818635
 10
12.3196356207
 20
14.3939843666
 10
12.3026302466
 20
14.3776096364
 10
12.2806161429
 20
14.3627361043
 10
12.2539352337
 20
14.349285339
 10
12.2243462773
 20
14.3381548973
 10
12.191703248
 20
14.3295092482
 10
12.1561521715
 20
14.3231839228
 10
12.1198898829
 20
14.319583071
 10
12.0828374903
 20
14.3188664317
 10
12.0450738856
 20
14.320874266
 10
12.0090325793
 20
14.3255315075
 10
11.9755247416
 20
14.3328131339
 10
11.9437392024
 20
14.3427441675
 10
11.9136759616
 20
14.3553246082
  0
LWPOLYLINE
  5
505
100
AcDbEntity
  8
IMPORT_IGES
100
AcDbPolyline
 62
253
  6
CONTINUOUS
 90
9
 70
0
 10
17.2622746618
 20
12.5896385919
 10
17.2771233707
 20
12.6259608527
 10
17.2880883761
 20
12.6634764485
 10
17.2949820637
 20
12.701543477
 10
17.2976864808
 20
12.739510601
 10
17.2961553538
 20
12.7767281922
 10
17.2904148809
 20
12.8125594475
 10
17.2805632832
 20
12.8463912841
 10
17.2667691241
 20
12.8776448299
  0
LWPOLYLINE
  5
506
100
AcDbEntity
  8
IMPORT_IGES
100
AcDbPolyline
 62
7
  6
CONTINUOUS
 90
3
 70
0
 10
15.8530989453
 20
-3.6214748416
 10
15.8786650591
 20
-3.5990689304
 10
15.9015162286
 20
-3.5739342281
  0
LINE
  5
507
100
AcDbEntity
  8
IMPORT_IGES
100
AcDbLine
 62
253
  6
CONTINUOUS
 10
15.8184701926
 20
-3.6437291918
 11
15.8309893697
 21
-3.6332539208
  0
LINE
  5
508
100
AcDbEntity
  8
IMPORT_IGES
100
AcDbLine
 62
7
  6
CONTINUOUS
 10
14.0850558847
 20
-4.6391282247
 11
14.192315748
 21
-4.5616012421
  0
LINE
  5
509
100
AcDbEntity
  8
IMPORT_IGES
100
AcDbLine
 62
253
  6
CONTINUOUS
 10
14.0678538439
 20
-4.6495419738
 11
14.1751996299
 21
-4.5719528904
  0
LINE
  5
50A
100
AcDbEntity
  8
IMPORT_IGES
100
AcDbLine
 62
7
  6
CONTINUOUS
 10
14.1924238262
 20
-4.561535259
 11
14.2165011052
 21
-4.5443563491
  0
LINE
  5
50B
100
AcDbEntity
  8
IMPORT_IGES
100
AcDbLine
 62
253
  6
CONTINUOUS
 10
14.1751996299
 20
-4.5719528904
 11
14.2137489836
 21
-4.5448025215
  0
LINE
  5
50C
100
AcDbEntity
  8
IMPORT_IGES
100
AcDbLine
 62
7
  6
CONTINUOUS
 10
14.2165011052
 20
-4.5443563491
 11
14.2412384688
 21
-4.5271113596
  0
LINE
  5
50D
100
AcDbEntity
  8
IMPORT_IGES
100
AcDbLine
 62
7
  6
CONTINUOUS
 10
15.8251400888
 20
-3.6408583173
 11
15.8530989453
 21
-3.6214748416
  0
LWPOLYLINE
  5
50E
100
AcDbEntity
  8
IMPORT_IGES
100
AcDbPolyline
 62
253
  6
CONTINUOUS
 90
3
 70
0
 10
14.2137489836
 20
-4.5448025215
 10
14.2525018265
 20
-4.5181092435
 10
14.2914581587
 20
-4.4918730566
  0
LINE
  5
50F
100
AcDbEntity
  8
IMPORT_IGES
100
AcDbLine
 62
7
  6
CONTINUOUS
 10
14.2412384688
 20
-4.5271113596
 11
14.2668099249
 21
-4.5096375026
  0
LWPOLYLINE
  5
510
100
AcDbEntity
  8
IMPORT_IGES
100
AcDbPolyline
 62
7
  6
CONTINUOUS
 90
16
 70
0
 10
14.2668099249
 20
-4.5096375026
 10
14.2930176137
 20
-4.492040862
 10
14.3196250516
 20
-4.4744540372
 10
14.3464548953
 20
-4.4569765792
 10
14.3735104764
 20
-4.4395940544
 10
14.4006062273
 20
-4.4224121794
 10
14.4276291949
 20
-4.4054922244
 10
14.4547455225
 20
-4.3887290948
 10
14.4818077839
 20
-4.3722094466
 10
14.5087111889
 20
-4.3559898701
 10
14.5356661484
 20
-4.3399524381
 10
14.5626044399
 20
-4.3241457615
 10
14.5892685266
 20
-4.3087196611
 10
14.6154791841
 20
-4.29379025
 10
14.6410221921
 20
-4.2794944028
 10
14.6656157627
 20
-4.2659928274
  0
LWPOLYLINE
  5
511
100
AcDbEntity
  8
IMPORT_IGES
100
AcDbPolyline
 62
253
  6
CONTINUOUS
 90
10
 70
0
 10
14.2914581587
 20
-4.4918730566
 10
14.3304162848
 20
-4.4662568357
 10
14.3695779001
 20
-4.4410977058
 10
14.4095480902
 20
-4.415907042
 10
14.4510762024
 20
-4.3901845104
 10
14.4934128893
 20
-4.3644304449
 10
14.5349151953
 20
-4.3396572228
 10
14.5756956507
 20
-4.3158431624
 10
14.6156417252
 20
-4.2930099453
 10
14.6527728718
 20
-4.2722349941
  0
LINE
  5
512
100
AcDbEntity
  8
IMPORT_IGES
100
AcDbLine
 62
7
  6
CONTINUOUS
 10
14.061584969
 20
-4.6540977298
 11
14.085102199
 21
-4.6390946474
  0
LINE
  5
513
100
AcDbEntity
  8
IMPORT_IGES
100
AcDbLine
 62
7
  6
CONTINUOUS
 10
15.4483712598
 20
-3.8715811628
 11
15.8251400842
 21
-3.6408583201
  0
LINE
  5
514
100
AcDbEntity
  8
IMPORT_IGES
100
AcDbLine
 62
7
  6
CONTINUOUS
 10
15.4473086405
 20
-3.8722314627
 11
15.4473722897
 21
-3.8721926958
  0
LINE
  5
515
100
AcDbEntity
  8
IMPORT_IGES
100
AcDbLine
 62
253
  6
CONTINUOUS
 10
15.8184701989
 20
-3.6437291881
 11
15.4250618704
 21
-3.8845866319
  0
LINE
  5
516
100
AcDbEntity
  8
IMPORT_IGES
100
AcDbLine
 62
253
  6
CONTINUOUS
 10
14.745296197
 20
-4.223337158
 11
14.734709448
 21
-4.229762835
  0
LINE
  5
517
100
AcDbEntity
  8
IMPORT_IGES
100
AcDbLine
 62
253
  6
CONTINUOUS
 10
14.0850558847
 20
-4.6391282247
 11
14.0678539078
 21
-4.6495419275
  0
LINE
  5
518
100
AcDbEntity
  8
IMPORT_IGES
100
AcDbLine
 62
253
  6
CONTINUOUS
 10
14.1923684644
 20
-4.561575319
 11
14.1752042987
 21
-4.5719624015
  0
LINE
  5
519
100
AcDbEntity
  8
IMPORT_IGES
100
AcDbLine
 62
7
  6
CONTINUOUS
 10
7.2999944261
 20
13.7632828387
 11
10.102854691
 21
14.4829177842
  0
LWPOLYLINE
  5
51A
100
AcDbEntity
  8
0
100
AcDbPolyline
 62
7
  6
CONTINUOUS
 90
7
 70
0
 10
3.2609099823
 20
11.9082895091
 10
3.2655585219
 20
11.9091170724
 10
3.3018992678
 20
11.9143692721
 10
3.3374337424
 20
11.9184587983
 10
3.3722364349
 20
11.9214650052
 10
3.4062328562
 20
11.9233085385
 10
3.4394230063
 20
11.9239893982
  0
LWPOLYLINE
  5
51B
100
AcDbEntity
  8
0
100
AcDbPolyline
 62
7
  6
CONTINUOUS
 90
3
 70
0
 10
3.3374337424
 20
11.8318562579
 10
3.3722364349
 20
11.8348624648
 10
3.4062328562
 20
11.8367059981
  0
LWPOLYLINE
  5
51C
100
AcDbEntity
  8
RACCORDO
100
AcDbPolyline
 62
253
  6
CONTINUOUS
 90
10
 70
0
 10
-5.0226069785
 20
11.4360544701
 10
-5.0478973434
 20
11.4354335679
 10
-5.0740542931
 20
11.4360968841
 10
-5.1000691051
 20
11.4380548804
 10
-5.1256567557
 20
11.4412861046
 10
-5.1505369011
 20
11.4457551548
 10
-5.1744369494
 20
11.451413067
 10
-5.1970950466
 20
11.4581978522
 10
-5.2182629457
 20
11.4660351746
 10
-5.237708727
 20
11.4748391671
  0
LINE
  5
51D
100
AcDbEntity
  8
0
100
AcDbLine
 62
7
  6
CONTINUOUS
 10
3.4062328562
 20
11.8367059981
 11
3.4394230063
 21
11.8373868578
  0
LWPOLYLINE
  5
51E
100
AcDbEntity
  8
0
100
AcDbPolyline
 62
7
  6
CONTINUOUS
 90
3
 70
0
 10
3.3349423268
 20
11.983476964
 10
3.2721656129
 20
11.9836892561
 10
3.2609099823
 20
11.9831902955
  0
LWPOLYLINE
  5
51F
100
AcDbEntity
  8
0
100
AcDbPolyline
 62
7
  6
CONTINUOUS
 90
10
 70
0
 10
3.4394230063
 20
11.8373868578
 10
3.4717423506
 20
11.8372077353
 10
3.5062854786
 20
11.835310499
 10
3.5430523901
 20
11.8316951488
 10
3.5819131167
 20
11.8265163689
 10
3.6229976269
 20
11.8196194752
 10
3.6666958265
 20
11.8105404151
 10
3.7131376839
 20
11.7991245044
 10
3.7621932307
 20
11.7855264274
 10
3.8138624668
 20
11.769746184
  0
LWPOLYLINE
  5
520
100
AcDbEntity
  8
0
100
AcDbPolyline
 62
7
  6
CONTINUOUS
 90
10
 70
0
 10
3.4394230063
 20
11.9239893982
 10
3.4717423506
 20
11.9238102757
 10
3.5062854786
 20
11.9219130394
 10
3.5430523901
 20
11.9182976892
 10
3.5819131167
 20
11.9131189093
 10
3.6229976269
 20
11.9062220156
 10
3.6666958265
 20
11.8971429555
 10
3.7131376839
 20
11.8857270448
 10
3.7621932307
 20
11.8721289678
 10
3.8138624668
 20
11.8563487244
  0
LWPOLYLINE
  5
521
100
AcDbEntity
  8
IMPORT_IGES
100
AcDbPolyline
 62
253
  6
CONTINUOUS
 90
10
 70
0
 10
18.3458305896
 20
10.2857291813
 10
18.3396040888
 20
10.2860150332
 10
18.3336004691
 20
10.2860414194
 10
18.3278377223
 20
10.285788501
 10
18.3223423785
 20
10.2852185598
 10
18.3171212009
 20
10.2843399096
 10
18.3121616143
 20
10.2832088438
 10
18.3074693449
 20
10.2818429811
 10
18.3030681082
 20
10.280219436
 10
18.2989714159
 20
10.2783399521
  0
LWPOLYLINE
  5
522
100
AcDbEntity
  8
IMPORT_IGES
100
AcDbPolyline
 62
7
  6
CONTINUOUS
 90
10
 70
0
 10
19.1228798331
 20
10.0371381675
 10
19.1379606854
 20
10.0362167508
 10
19.1530076858
 20
10.0362168105
 10
19.1679598501
 20
10.0371355689
 10
19.182735702
 20
10.038960958
 10
19.1972987852
 20
10.0416792982
 10
19.2116532219
 20
10.0452882045
 10
19.225758738
 20
10.0497804011
 10
19.2395356581
 20
10.0551311904
 10
19.252927209
 20
10.0613148891
  0
LWPOLYLINE
  5
523
100
AcDbEntity
  8
0
100
AcDbPolyline
 62
7
  6
CONTINUOUS
 90
3
 70
0
 10
3.4671177243
 20
11.9748331412
 10
3.402972879
 20
11.9801711007
 10
3.3349423268
 20
11.983476964
  0
LINE
  5
524
100
AcDbEntity
  8
IMPORT_IGES
100
AcDbLine
 62
253
  6
CONTINUOUS
 10
18.9997083677
 20
10.1655931025
 11
18.4848275218
 21
10.2127725282
  0
LINE
  5
525
100
AcDbEntity
  8
IMPORT_IGES
100
AcDbLine
 62
7
  6
CONTINUOUS
 10
19.1228798331
 20
10.0371381675
 11
18.607483903
 21
10.0843660213
  0
LINE
  5
526
100
AcDbEntity
  8
IMPORT_IGES
100
AcDbLine
 62
253
  6
CONTINUOUS
 10
18.4778780473
 20
10.0769217521
 11
18.4855522174
 21
10.0759947588
  0
LWPOLYLINE
  5
527
100
AcDbEntity
  8
RACCORDO
100
AcDbPolyline
 62
7
  6
CONTINUOUS
 90
9
 70
0
 10
-18.438869271
 20
13.6442115146
 10
-18.4341811409
 20
13.6435922728
 10
-18.4288546982
 20
13.6435788895
 10
-18.4228827986
 20
13.6440949872
 10
-18.4162423416
 20
13.6450367809
 10
-18.4089661327
 20
13.6463516051
 10
-18.4011249845
 20
13.6480553364
 10
-18.3927379464
 20
13.6501190012
 10
-18.3837892369
 20
13.652452921
  0
LWPOLYLINE
  5
528
100
AcDbEntity
  8
IMPORT_IGES
100
AcDbPolyline
 62
253
  6
CONTINUOUS
 90
8
 70
0
 10
19.1228798331
 20
10.0371381675
 10
19.1091591224
 20
10.039280091
 10
19.0844934379
 20
10.0478477812
 10
19.0615486184
 20
10.0621416116
 10
19.0410218304
 20
10.0817272713
 10
19.0235367702
 20
10.1060096601
 10
19.0096247123
 20
10.1342509698
 10
18.9997083677
 20
10.1655931025
  0
LWPOLYLINE
  5
529
100
AcDbEntity
  8
IMPORT_IGES
100
AcDbPolyline
 62
253
  6
CONTINUOUS
 90
8
 70
0
 10
18.607483903
 20
10.0843660213
 10
18.5942782713
 20
10.0864595171
 10
18.5696125867
 20
10.0950272073
 10
18.546667767
 20
10.1093210377
 10
18.5261409794
 20
10.1289066975
 10
18.5086559203
 20
10.1531890862
 10
18.4947438641
 20
10.1814303957
 10
18.4848275218
 20
10.2127725282
  0
LWPOLYLINE
  5
52A
100
AcDbEntity
  8
IMPORT_IGES
100
AcDbPolyline
 62
253
  6
CONTINUOUS
 90
10
 70
0
 10
8.5670736695
 20
9.876227263
 10
8.5736739703
 20
9.8744995201
 10
8.580714447
 20
9.8732813208
 10
8.588038789
 20
9.8725997111
 10
8.5954843829
 20
9.872469824
 10
8.6028859237
 20
9.8728945431
 10
8.6100790842
 20
9.8738644391
 10
8.6169041639
 20
9.8753579784
 10
8.623209634
 20
9.877342002
 10
8.6288555021
 20
9.879772461
  0
LWPOLYLINE
  5
52B
100
AcDbEntity
  8
IMPORT_IGES
100
AcDbPolyline
 62
253
  6
CONTINUOUS
 90
6
 70
0
 10
7.353019138
 20
10.650379751
 10
7.329905727
 20
10.6576730619
 10
7.3050167989
 20
10.6602008082
 10
7.2787929152
 20
10.6579417822
 10
7.2516779941
 20
10.6509564897
 10
7.2241354059
 20
10.6393836551
  0
LWPOLYLINE
  5
52C
100
AcDbEntity
  8
IMPORT_IGES
100
AcDbPolyline
 62
7
  6
CONTINUOUS
 90
3
 70
0
 10
7.3110673273
 20
10.6667082568
 10
7.3470199918
 20
10.6532576462
 10
7.3580901402
 20
10.6480131048
  0
LWPOLYLINE
  5
52D
100
AcDbEntity
  8
IMPORT_IGES
100
AcDbPolyline
 62
7
  6
CONTINUOUS
 90
3
 70
0
 10
5.4018790181
 20
11.6213024114
 10
5.4378316826
 20
11.6078518008
 10
5.448901831
 20
11.6026072594
  0
LWPOLYLINE
  5
52E
100
AcDbEntity
  8
0
100
AcDbPolyline
 62
7
  6
CONTINUOUS
 90
7
 70
0
 10
3.7780413029
 20
11.8997610547
 10
3.7326180877
 20
11.9175137765
 10
3.6848400361
 20
11.9331603405
 10
3.6352174382
 20
11.9466760594
 10
3.5832400039
 20
11.9580856205
 10
3.5273768627
 20
11.9674630854
 10
3.4671177243
 20
11.9748331412
  0
LINE
  5
52F
100
AcDbEntity
  8
0
100
AcDbLine
 62
7
  6
CONTINUOUS
 10
3.8211096817
 20
11.8799021751
 11
3.7780413029
 21
11.8997610547
  0
LINE
  5
530
100
AcDbEntity
  8
IMPORT_IGES
100
AcDbLine
 62
253
  6
CONTINUOUS
 10
7.3582906085
 20
10.6479131236
 11
7.353019138
 21
10.650379751
  0
LWPOLYLINE
  5
531
100
AcDbEntity
  8
IMPORT_IGES
100
AcDbPolyline
 62
253
  6
CONTINUOUS
 90
7
 70
0
 10
5.4491022993
 20
11.6025072782
 10
5.4438308288
 20
11.6049739056
 10
5.4207174178
 20
11.6122672165
 10
5.3958284897
 20
11.6147949628
 10
5.369604606
 20
11.6125359368
 10
5.3424896849
 20
11.6055506443
 10
5.3149470967
 20
11.5939778097
  0
LWPOLYLINE
  5
532
100
AcDbEntity
  8
0
100
AcDbPolyline
 62
7
  6
CONTINUOUS
 90
9
 70
0
 10
3.323467543
 20
11.8152811656
 10
3.3156475861
 20
11.819098363
 10
3.3076773307
 20
11.8228111536
 10
3.2995567767
 20
11.8264195375
 10
3.2912748673
 20
11.8299271231
 10
3.2828426594
 20
11.833330302
 10
3.2742933241
 20
11.8366182486
 10
3.2656379185
 20
11.8397873545
 10
3.2609099823
 20
11.8414332326
  0
LINE
  5
533
100
AcDbEntity
  8
IMPORT_IGES
100
AcDbLine
 62
7
  6
CONTINUOUS
 10
8.5144508597
 20
10.0273944526
 11
8.4285846948
 21
10.0702532544
  0
LINE
  5
534
100
AcDbEntity
  8
IMPORT_IGES
100
AcDbLine
 62
7
  6
CONTINUOUS
 10
8.0917474976
 20
10.2384037027
 11
7.3914186351
 21
10.5881254731
  0
LINE
  5
535
100
AcDbEntity
  8
IMPORT_IGES
100
AcDbLine
 62
7
  6
CONTINUOUS
 10
17.5656801657
 20
4.1097410796
 11
17.0262082045
 21
4.3794770602
  0
LINE
  5
536
100
AcDbEntity
  8
0
100
AcDbLine
 62
7
  6
CONTINUOUS
 10
-2.1484568938
 20
14.1177505244
 11
-2.2441181816
 21
14.1655811684
  0
LINE
  5
537
100
AcDbEntity
  8
0
100
AcDbLine
 62
7
  6
CONTINUOUS
 10
-15.4874811471
 20
20.7872626511
 11
-15.5834857363
 21
20.8352649457
  0
LINE
  5
538
100
AcDbEntity
  8
RACCORDO
100
AcDbLine
 62
7
  6
CONTINUOUS
 10
-15.371353702
 20
20.7829261889
 11
-2.3605889281
 21
14.2775438019
  0
LINE
  5
539
100
AcDbEntity
  8
IMPORT_IGES
100
AcDbLine
 62
7
  6
CONTINUOUS
 10
15.9800112492
 20
5.1182394612
 11
16.0666137896
 21
5.074938191
  0
LINE
  5
53A
100
AcDbEntity
  8
0
100
AcDbLine
 62
253
  6
CONTINUOUS
 10
4.5661407916
 20
10.9289194856
 11
3.3643407494
 21
11.5298195067
  0
LINE
  5
53B
100
AcDbEntity
  8
IMPORT_IGES
100
AcDbLine
 62
7
  6
CONTINUOUS
 10
5.4090828909
 20
11.0114656059
 11
3.8459005553
 21
11.7930567737
  0
LINE
  5
53C
100
AcDbEntity
  8
IMPORT_IGES
100
AcDbLine
 62
7
  6
CONTINUOUS
 10
3.4872796769
 20
11.9723672129
 11
3.2609099823
 21
12.0855520602
  0
LINE
  5
53D
100
AcDbEntity
  8
IMPORT_IGES
100
AcDbLine
 62
7
  6
CONTINUOUS
 10
6.4353059968
 20
10.549138303
 11
7.3267744049
 21
10.103404099
  0
LINE
  5
53E
100
AcDbEntity
  8
0
100
AcDbLine
 62
7
  6
CONTINUOUS
 10
3.841039525
 20
11.8699372535
 11
3.8211096817
 21
11.8799021751
  0
LINE
  5
53F
100
AcDbEntity
  8
0
100
AcDbLine
 62
7
  6
CONTINUOUS
 10
-10.2094741993
 20
18.9760017516
 11
-5.9668335122
 21
16.854681408
  0
LINE
  5
540
100
AcDbEntity
  8
IMPORT_IGES
100
AcDbLine
 62
253
  6
CONTINUOUS
 10
7.3914186329
 20
10.5557420415
 11
7.2241354059
 21
10.6393836551
  0
LINE
  5
541
100
AcDbEntity
  8
IMPORT_IGES
100
AcDbLine
 62
253
  6
CONTINUOUS
 10
5.9513431997
 20
11.2757797581
 11
5.3149470967
 21
11.5939778097
  0
LINE
  5
542
100
AcDbEntity
  8
IMPORT_IGES
100
AcDbLine
 62
7
  6
CONTINUOUS
 10
8.0987348175
 20
10.2418973627
 11
8.38157753
 21
10.1004760064
  0
LINE
  5
543
100
AcDbEntity
  8
IMPORT_IGES
100
AcDbLine
 62
7
  6
CONTINUOUS
 10
5.4491156708
 20
11.6025005936
 11
6.0855117739
 21
11.2843025421
  0
LINE
  5
544
100
AcDbEntity
  8
IMPORT_IGES
100
AcDbLine
 62
7
  6
CONTINUOUS
 10
7.35830398
 20
10.647906439
 11
7.3967753911
 21
10.6286707335
  0
LINE
  5
545
100
AcDbEntity
  8
IMPORT_IGES
100
AcDbLine
 62
253
  6
CONTINUOUS
 10
7.4022877717
 20
10.6397168447
 11
8.4888625527
 21
10.0953205917
  0
LWPOLYLINE
  5
546
100
AcDbEntity
  8
IMPORT_IGES
100
AcDbPolyline
 62
7
  6
CONTINUOUS
 90
10
 70
0
 10
8.3815705783
 20
10.1004725306
 10
8.3867837047
 20
10.0977787494
 10
8.3920037041
 20
10.0949172724
 10
8.3972273414
 20
10.0918884151
 10
8.4024466446
 20
10.0886919312
 10
8.4076629611
 20
10.0853291563
 10
8.4128869179
 20
10.0818025808
 10
8.4181196872
 20
10.0781132045
 10
8.423353029
 20
10.0742609687
 10
8.4285833188
 20
10.0702466004
  0
LWPOLYLINE
  5
547
100
AcDbEntity
  8
IMPORT_IGES
100
AcDbPolyline
 62
253
  6
CONTINUOUS
 90
3
 70
0
 10
8.5010901009
 20
10.0868367767
 10
8.4949460346
 20
10.0911625223
 10
8.4888782109
 20
10.0953627461
  0
LINE
  5
548
100
AcDbEntity
  8
IMPORT_IGES
100
AcDbLine
 62
253
  6
CONTINUOUS
 10
8.5197374306
 20
10.0734819417
 11
8.5010901009
 21
10.0868367767
  0
LINE
  5
549
100
AcDbEntity
  8
IMPORT_IGES
100
AcDbLine
 62
253
  6
CONTINUOUS
 10
8.5446360147
 20
10.0554341385
 11
8.5197374306
 21
10.0734819417
  0
LINE
  5
54A
100
AcDbEntity
  8
IMPORT_IGES
100
AcDbLine
 62
7
  6
CONTINUOUS
 10
7.7281850812
 20
10.0566224945
 11
7.3914186351
 21
10.4631355555
  0
LWPOLYLINE
  5
54B
100
AcDbEntity
  8
IMPORT_IGES
100
AcDbPolyline
 62
253
  6
CONTINUOUS
 90
10
 70
0
 10
8.5144508597
 20
10.0273944526
 10
8.5194152001
 20
10.0204693838
 10
8.5241409951
 20
10.0131261132
 10
8.5286282449
 20
10.0053646408
 10
8.5329304717
 20
9.9970869494
 10
8.5369941533
 20
9.9883910563
 10
8.5406587224
 20
9.9795710127
 10
8.5438706567
 20
9.970724836
 10
8.5466834785
 20
9.9617545088
 10
8.5490971879
 20
9.9526600313
  0
LWPOLYLINE
  5
54C
100
AcDbEntity
  8
IMPORT_IGES
100
AcDbPolyline
 62
253
  6
CONTINUOUS
 90
10
 70
0
 10
7.892601865
 20
11.6254352275
 10
7.8836688666
 20
11.639894077
 10
7.8743711206
 20
11.6532297261
 10
7.864772364
 20
11.6654477239
 10
7.8551049153
 20
11.6763859582
 10
7.8452535732
 20
11.6862614138
 10
7.8347273329
 20
11.6955535447
 10
7.8233714022
 20
11.7043188178
 10
7.8113960265
 20
11.7123068685
 10
7.798841014
 20
11.7194284077
  0
LWPOLYLINE
  5
54D
100
AcDbEntity
  8
RACCORDO
100
AcDbPolyline
 62
253
  6
CONTINUOUS
 90
14
 70
0
 10
2.7285169823
 20
17.2239213836
 10
2.7328601236
 20
17.2165763025
 10
2.7367079326
 20
17.2094887537
 10
2.7400495013
 20
17.2026782847
 10
2.7428755256
 20
17.196163126
 10
2.7451775255
 20
17.1899619612
 10
2.7469483579
 20
17.1840935766
 10
2.7481830889
 20
17.1785745389
 10
2.7488785518
 20
17.1734193123
 10
2.7490328446
 20
17.1686418607
 10
2.7486454948
 20
17.1642551908
 10
2.747717513
 20
17.1602713957
 10
2.7462514367
 20
17.1567014704
 10
2.744251291
 20
17.1535551925
  0
LWPOLYLINE
  5
54E
100
AcDbEntity
  8
IMPORT_IGES
100
AcDbPolyline
 62
253
  6
CONTINUOUS
 90
10
 70
0
 10
8.5701799731
 20
10.1814947678
 10
8.5809626222
 20
10.160993848
 10
8.5904800277
 20
10.1394701341
 10
8.5986643373
 20
10.1170740892
 10
8.6053773925
 20
10.0941438509
 10
8.6106684291
 20
10.0706464713
 10
8.6146862418
 20
10.0461326501
 10
8.6173658647
 20
10.02052036
 10
8.6185175305
 20
9.9941393701
 10
8.6180249011
 20
9.9671426801
  0
LWPOLYLINE
  5
54F
100
AcDbEntity
  8
IMPORT_IGES
100
AcDbPolyline
 62
7
  6
CONTINUOUS
 90
3
 70
0
 10
8.5809648996
 20
9.8486183002
 10
8.5738326492
 20
9.8624128653
 10
8.5670736695
 20
9.876227263
  0
LWPOLYLINE
  5
550
100
AcDbEntity
  8
IMPORT_IGES
100
AcDbPolyline
 62
253
  6
CONTINUOUS
 90
10
 70
0
 10
8.6180251939
 20
9.9671426529
 10
8.6123036398
 20
9.9782374733
 10
8.605725682
 20
9.9892718115
 10
8.5983818554
 20
10.0001443616
 10
8.5904160766
 20
10.010817405
 10
8.5819259185
 20
10.0211345555
 10
8.5729591877
 20
10.0308287112
 10
8.5636374659
 20
10.0397738953
 10
8.5541463278
 20
10.0479849728
 10
8.5446360147
 20
10.0554341385
  0
LINE
  5
551
100
AcDbEntity
  8
IMPORT_IGES
100
AcDbLine
 62
7
  6
CONTINUOUS
 10
7.7947196283
 20
11.5812168909
 11
7.9460504692
 21
11.260966491
  0
LINE
  5
552
100
AcDbEntity
  8
IMPORT_IGES
100
AcDbLine
 62
7
  6
CONTINUOUS
 10
8.2474234274
 20
10.619382706
 11
8.4742801128
 21
10.13886281
  0
LINE
  5
553
100
AcDbEntity
  8
IMPORT_IGES
100
AcDbLine
 62
253
  6
CONTINUOUS
 10
8.5701782316
 20
10.18149687
 11
7.8926009981
 21
11.625436274
  0
LINE
  5
554
100
AcDbEntity
  8
IMPORT_IGES
100
AcDbLine
 62
7
  6
CONTINUOUS
 10
7.9460504692
 20
11.260966491
 11
8.2474234274
 21
10.619382706
  0
LWPOLYLINE
  5
555
100
AcDbEntity
  8
IMPORT_IGES
100
AcDbPolyline
 62
7
  6
CONTINUOUS
 90
10
 70
0
 10
8.5575976076
 20
9.8970682944
 10
8.5469246184
 20
9.9201741895
 10
8.5352601744
 20
9.9424169418
 10
8.5226042756
 20
9.9637965512
 10
8.5088555752
 20
9.9844498679
 10
8.49411542
 20
10.0042400417
 10
8.4786878503
 20
10.0227565223
 10
8.4626742129
 20
10.0398624596
 10
8.4459731611
 20
10.0556947036
 10
8.4285846948
 20
10.0702532544
  0
LWPOLYLINE
  5
556
100
AcDbEntity
  8
IMPORT_IGES
100
AcDbPolyline
 62
253
  6
CONTINUOUS
 90
10
 70
0
 10
8.4742956698
 20
10.1388590284
 10
8.4762750454
 20
10.1345153206
 10
8.4781672804
 20
10.130050105
 10
8.4799719948
 20
10.1254635429
 10
8.4816909271
 20
10.1207574466
 10
8.4833214836
 20
10.1159303667
 10
8.4848567068
 20
10.1109776054
 10
8.4862938875
 20
10.1058977624
 10
8.4876345958
 20
10.1006927213
 10
8.4888782093
 20
10.0953627465
  0
LWPOLYLINE
  5
557
100
AcDbEntity
  8
IMPORT_IGES
100
AcDbPolyline
 62
7
  6
CONTINUOUS
 90
10
 70
0
 10
8.5575976076
 20
9.8970682944
 10
8.5586121143
 20
9.8947191165
 10
8.5596364812
 20
9.8923776234
 10
8.5606706389
 20
9.8900439888
 10
8.5617146688
 20
9.8877180069
 10
8.5627683494
 20
9.8854002301
 10
8.5638311772
 20
9.8830919743
 10
8.5649029625
 20
9.880793799
 10
8.5659838078
 20
9.8785055026
 10
8.5670736695
 20
9.876227263
  0
LWPOLYLINE
  5
558
100
AcDbEntity
  8
IMPORT_IGES
100
AcDbPolyline
 62
7
  6
CONTINUOUS
 90
7
 70
0
 10
8.6288555021
 20
9.752175337
 10
8.6230693101
 20
9.7660442423
 10
8.6166727199
 20
9.779852492
 10
8.6098317498
 20
9.7936288349
 10
8.6027704374
 20
9.8073855739
 10
8.595598043
 20
9.8211191739
 10
8.5809648996
 20
9.8486183002
  0
LWPOLYLINE
  5
559
100
AcDbEntity
  8
IMPORT_IGES
100
AcDbPolyline
 62
253
  6
CONTINUOUS
 90
10
 70
0
 10
8.4888625527
 20
10.0953205917
 10
8.4914702319
 20
10.0874162084
 10
8.494115422
 20
10.0795527812
 10
8.4968069479
 20
10.0717503698
 10
8.4995477784
 20
10.0640289084
 10
8.5023506216
 20
10.0564097955
 10
8.505236645
 20
10.0489156274
 10
8.508215117
 20
10.0415678102
 10
8.511284615
 20
10.0343866725
 10
8.5144477798
 20
10.0273929134
  0
LWPOLYLINE
  5
55A
100
AcDbEntity
  8
IMPORT_IGES
100
AcDbPolyline
 62
7
  6
CONTINUOUS
 90
6
 70
0
 10
12.4404526569
 20
14.3571104155
 10
12.4389026403
 20
14.3795069964
 10
12.4341839853
 20
14.4019354087
 10
12.4262266144
 20
14.4240568531
 10
12.4149730508
 20
14.4456115092
 10
12.4004714261
 20
14.4662374915
  0
LINE
  5
55B
100
AcDbEntity
  8
IMPORT_IGES
100
AcDbLine
 62
253
  6
CONTINUOUS
 10
14.7513951776
 20
13.8330114658
 11
14.7513951777
 21
14.2488003033
  0
LWPOLYLINE
  5
55C
100
AcDbEntity
  8
IMPORT_IGES
100
AcDbPolyline
 62
7
  6
CONTINUOUS
 90
7
 70
0
 10
19.5067024561
 20
6.1244276574
 10
19.4173786636
 20
5.924745855
 10
19.3171664751
 20
5.7373465317
 10
19.2064727571
 20
5.562681749
 10
19.0857509658
 20
5.4011881293
 10
18.9554545884
 20
5.2532217317
 10
18.905127134
 20
5.2048006836
  0
LWPOLYLINE
  5
55D
100
AcDbEntity
  8
IMPORT_IGES
100
AcDbPolyline
 62
253
  6
CONTINUOUS
 90
3
 70
0
 10
19.0278569634
 20
5.8560968721
 10
18.9255606852
 20
5.6308295753
 10
18.905127134
 20
5.5942404319
  0
LWPOLYLINE
  5
55E
100
AcDbEntity
  8
IMPORT_IGES
100
AcDbPolyline
 62
253
  6
CONTINUOUS
 90
6
 70
0
 10
19.4521210322
 20
6.0682289067
 10
19.349824754
 20
5.8429616098
 10
19.2329881929
 20
5.633749337
 10
19.1021115441
 20
5.4414877581
 10
18.9577551104
 20
5.2669999739
 10
18.905127134
 20
5.2147908389
  0
LWPOLYLINE
  5
55F
100
AcDbEntity
  8
IMPORT_IGES
100
AcDbPolyline
 62
7
  6
CONTINUOUS
 90
3
 70
0
 10
15.9015162286
 20
-3.5739342281
 10
15.92131427
 20
-3.5464791167
 10
15.9280275024
 20
-3.535450177
  0
LWPOLYLINE
  5
560
100
AcDbEntity
  8
IMPORT_IGES
100
AcDbPolyline
 62
253
  6
CONTINUOUS
 90
4
 70
0
 10
15.8309893697
 20
-3.6332539208
 10
15.842264849
 20
-3.6208883638
 10
15.8522118527
 20
-3.6067285899
 10
15.8607561841
 20
-3.5908834981
  0
LINE
  5
561
100
AcDbEntity
  8
IMPORT_IGES
100
AcDbLine
 62
7
  6
CONTINUOUS
 10
3.9646680917
 20
16.0286401341
 11
4.9532286417
 21
16.3066349148
  0
LINE
  5
562
100
AcDbEntity
  8
IMPORT_IGES
100
AcDbLine
 62
7
  6
CONTINUOUS
 10
5.3714511901
 20
16.4251799525
 11
5.9170625606
 21
16.5758138494
  0
LINE
  5
563
100
AcDbEntity
  8
IMPORT_IGES
100
AcDbLine
 62
7
  6
CONTINUOUS
 10
3.5686421464
 20
15.4557538978
 11
6.0727566109
 21
16.109903239
  0
LINE
  5
564
100
AcDbEntity
  8
IMPORT_IGES
100
AcDbLine
 62
7
  6
CONTINUOUS
 10
6.3550084384
 20
16.3568409105
 11
3.5686421464
 21
15.6289589785
  0
LINE
  5
565
100
AcDbEntity
  8
IMPORT_IGES
100
AcDbLine
 62
7
  6
CONTINUOUS
 10
4.939867152
 20
14.770141395
 11
6.3601388785
 21
15.092202626
  0
LINE
  5
566
100
AcDbEntity
  8
IMPORT_IGES
100
AcDbLine
 62
7
  6
CONTINUOUS
 10
6.5602391106
 20
15.3107824938
 11
4.939867152
 21
14.9433464757
  0
LINE
  5
567
100
AcDbEntity
  8
IMPORT_IGES
100
AcDbLine
 62
7
  6
CONTINUOUS
 10
5.5693809847
 20
15.3704131622
 11
7.4750514377
 21
15.7968194109
  0
LWPOLYLINE
  5
568
100
AcDbEntity
  8
IMPORT_IGES
100
AcDbPolyline
 62
7
  6
CONTINUOUS
 90
6
 70
0
 10
14.9713740544
 20
13.9007263449
 10
14.9387944334
 20
13.9008552263
 10
14.9061799095
 20
13.8970901608
 10
14.8739295609
 20
13.8894269151
 10
14.8427865424
 20
13.878119611
 10
14.8267681931
 20
13.8706993143
  0
LWPOLYLINE
  5
569
100
AcDbEntity
  8
IMPORT_IGES
100
AcDbPolyline
 62
253
  6
CONTINUOUS
 90
27
 70
0
 10
7.7420012184
 20
12.0962821559
 10
7.7824363986
 20
12.0785262251
 10
7.8253307811
 20
12.06353497
 10
7.8706843659
 20
12.0513083905
 10
7.9192058754
 20
12.0417774682
 10
7.9701865873
 20
12.0350112215
 10
8.0215003337
 20
12.0312167055
 10
8.0730029822
 20
12.0304885521
 10
8.1248386652
 20
12.0327321293
 10
8.1753136132
 20
12.0378705965
 10
8.2245483912
 20
12.0460191108
 10
8.2724224341
 20
12.057062515
 10
8.3168802767
 20
12.070578497
 10
8.3577368975
 20
12.0866740737
 10
8.3951773179
 20
12.1052422281
 10
8.4277011374
 20
12.1255395973
 10
8.4550995491
 20
12.1476378026
 10
8.4775813599
 20
12.1714652227
 10
8.4942725891
 20
12.1960636314
 10
8.5049708508
 20
12.221415071
 10
8.5098785309
 20
12.2475374991
 10
8.5087288064
 20
12.2735265627
 10
8.5012732546
 20
12.2994649357
 10
8.4877602981
 20
12.3252699441
 10
8.468668382
 20
12.3497892129
 10
8.444156988
 20
12.3726386172
 10
8.4140666344
 20
12.3942022819
  0
LWPOLYLINE
  5
56A
100
AcDbEntity
  8
IMPORT_IGES
100
AcDbPolyline
 62
253
  6
CONTINUOUS
 90
20
 70
0
 10
7.8127118961
 20
12.2182400353
 10
7.8454675643
 20
12.2037897507
 10
7.881568098
 20
12.1914921071
 10
7.9204511611
 20
12.1815386642
 10
7.9615110738
 20
12.1740844664
 10
8.0041082479
 20
12.1692456273
 10
8.0475791492
 20
12.1670975213
 10
8.0912466334
 20
12.1676736094
 10
8.1344304944
 20
12.1709649179
 10
8.1764580591
 20
12.1769201781
 10
8.2166746661
 20
12.1854466254
 10
8.2544538633
 20
12.1964114436
 10
8.289207166
 20
12.2096438342
 10
8.3203932234
 20
12.2249376771
 10
8.347526252
 20
12.2420547406
 10
8.3701836018
 20
12.2607283931
 10
8.3880123404
 20
12.280667756
 10
8.4007347503
 20
12.3015622348
 10
8.4081526551
 20
12.3230863572
 10
8.4101992697
 20
12.3419837219
  0
LWPOLYLINE
  5
56B
100
AcDbEntity
  8
RACCORDO
100
AcDbPolyline
 62
253
  6
CONTINUOUS
 90
31
 70
0
 10
0.24644706
 20
16.1658308665
 10
0.2559060304
 20
16.1613419041
 10
0.2658203067
 20
16.1571056796
 10
0.2761629105
 20
16.1531337207
 10
0.286905681
 20
16.1494368414
 10
0.2980194001
 20
16.1460250953
 10
0.3094738775
 20
16.1429077533
 10
0.3212379829
 20
16.1400932944
 10
0.3332796733
 20
16.1375893915
 10
0.3455661275
 20
16.1354028718
 10
0.3580638919
 20
16.1335396879
 10
0.3707389747
 20
16.1320049067
 10
0.3835568831
 20
16.1308027047
 10
0.3964827465
 20
16.1299363529
 10
0.4094813796
 20
16.1294082099
 10
0.422517378
 20
16.1292197131
 10
0.4355552458
 20
16.1293713724
 10
0.4485595251
 20
16.129862772
 10
0.4614948595
 20
16.1306925747
 10
0.4743261651
 20
16.1318585345
 10
0.4870184064
 20
16.1333574724
 10
0.4995367354
 20
16.1351852599
 10
0.5118468998
 20
16.1373368606
 10
0.5239156305
 20
16.1398064239
 10
0.5357104014
 20
16.1425872805
 10
0.5472002639
 20
16.1456721906
 10
0.5583527457
 20
16.1490524942
 10
0.5691345556
 20
16.1527179354
 10
0.5795157447
 20
16.1566579333
 10
0.5894694568
 20
16.1608618808
 10
0.5989690197
 20
16.1653181426
  0
LWPOLYLINE
  5
56C
100
AcDbEntity
  8
RACCORDO
100
AcDbPolyline
 62
253
  6
CONTINUOUS
 90
31
 70
0
 10
-13.1178711044
 20
22.8479899487
 10
-13.1084121341
 20
22.8435009863
 10
-13.0984978577
 20
22.8392647618
 10
-13.0881552539
 20
22.835292803
 10
-13.0774124835
 20
22.8315959236
 10
-13.0662987643
 20
22.8281841775
 10
-13.0548442869
 20
22.8250668355
 10
-13.0430801815
 20
22.8222523766
 10
-13.0310384912
 20
22.8197484737
 10
-13.0187520369
 20
22.817561954
 10
-13.0062542725
 20
22.8156987701
 10
-12.9935791897
 20
22.8141639889
 10
-12.9807612813
 20
22.8129617869
 10
-12.9678354179
 20
22.8120954351
 10
-12.9548367848
 20
22.8115672921
 10
-12.9418007865
 20
22.8113787953
 10
-12.9287629186
 20
22.8115304546
 10
-12.9157586394
 20
22.8120218543
 10
-12.9028233049
 20
22.8128516569
 10
-12.8899919993
 20
22.8140176167
 10
-12.8772997581
 20
22.8155165546
 10
-12.864781429
 20
22.8173443421
 10
-12.8524712647
 20
22.8194959428
 10
-12.8404025339
 20
22.8219655061
 10
-12.828607763
 20
22.8247463627
 10
-12.8171179005
 20
22.8278312728
 10
-12.8059654187
 20
22.8312115764
 10
-12.7951836088
 20
22.8348770176
 10
-12.7848024197
 20
22.8388170155
 10
-12.7748487076
 20
22.8430209631
 10
-12.7653491447
 20
22.8474772249
  0
LWPOLYLINE
  5
56D
100
AcDbEntity
  8
RACCORDO
100
AcDbPolyline
 62
253
  6
CONTINUOUS
 90
31
 70
0
 10
0.24644706
 20
16.5058048006
 10
0.2559072094
 20
16.5013153072
 10
0.265822796
 20
16.4970786051
 10
0.2761668338
 20
16.493106228
 10
0.2869111821
 20
16.4894089863
 10
0.2980265876
 20
16.4859969501
 10
0.3094827611
 20
16.4828794179
 10
0.3212485104
 20
16.4800648768
 10
0.3332918178
 20
16.4775609844
 10
0.3455798903
 20
16.4753745573
 10
0.3580792779
 20
16.4735115454
 10
0.3707559597
 20
16.4719770176
 10
0.3835754256
 20
16.4707751492
 10
0.3965027971
 20
16.4699092089
 10
0.4095028723
 20
16.4693815529
 10
0.4225402156
 20
16.4691936155
 10
0.435579287
 20
16.4693459008
 10
0.4485846519
 20
16.4698379866
 10
0.4615210263
 20
16.4706685363
 10
0.4743533654
 20
16.4718353094
 10
0.4870465725
 20
16.4733351241
 10
0.4995657218
 20
16.4751638408
 10
0.5118765184
 20
16.4773164102
 10
0.5239457232
 20
16.4797869802
 10
0.535740841
 20
16.4825688841
 10
0.5472322635
 20
16.4856552633
 10
0.55838608
 20
16.489037138
 10
0.5691652356
 20
16.4927028971
 10
0.5795390016
 20
16.4966411829
 10
0.5894823056
 20
16.5008415355
 10
0.5989690197
 20
16.5052920768
  0
LWPOLYLINE
  5
56E
100
AcDbEntity
  8
RACCORDO
100
AcDbPolyline
 62
253
  6
CONTINUOUS
 90
31
 70
0
 10
-13.1178711044
 20
23.1879638828
 10
-13.1084356933
 20
23.1834855322
 10
-13.0985409008
 20
23.1792561412
 10
-13.0882127427
 20
23.1752876522
 10
-13.0774762542
 20
23.1715906054
 10
-13.0663619949
 20
23.1681764107
 10
-13.0549067061
 20
23.1650567218
 10
-13.0431441187
 20
23.1622406001
 10
-13.0311038311
 20
23.1597350105
 10
-13.018818283
 20
23.1575467178
 10
-13.0063206612
 20
23.1556816707
 10
-12.9936451873
 20
23.1541450133
 10
-12.9808267162
 20
23.1529409833
 10
-12.9679002987
 20
23.1520728635
 10
-12.9549009597
 20
23.1515429969
 10
-12.9418639675
 20
23.1513528227
 10
-12.9288247514
 20
23.1515028658
 10
-12.915818855
 20
23.1519927251
 10
-12.9028817265
 20
23.1528210696
 10
-12.8900485931
 20
23.1539856453
 10
-12.8773543708
 20
23.1554832854
 10
-12.8648336173
 20
23.1573099149
 10
-12.852520411
 20
23.1594605639
 10
-12.84044827
 20
23.1619293802
 10
-12.8286500652
 20
23.1647096428
 10
-12.8171579023
 20
23.1677937874
 10
-12.8060030709
 20
23.171173418
 10
-12.7952159664
 20
23.174839325
 10
-12.7848259575
 20
23.178781524
 10
-12.7748613105
 20
23.1829892869
 10
-12.7653491447
 20
23.187451159
  0
LWPOLYLINE
  5
56F
100
AcDbEntity
  8
IMPORT_IGES
100
AcDbPolyline
 62
253
  6
CONTINUOUS
 90
9
 70
0
 10
3.2609099823
 20
13.9213572959
 10
3.6684781193
 20
13.7175149496
 10
4.2377019193
 20
13.4322738367
 10
4.8305732394
 20
13.1344623298
 10
5.4330190728
 20
12.8304815055
 10
6.0267532934
 20
12.5289625295
 10
6.6056744274
 20
12.2326601265
 10
7.175610113
 20
11.9384135513
 10
7.7363337431
 20
11.6459975997
  0
LINE
  5
570
100
AcDbEntity
  8
RACCORDO
100
AcDbLine
 62
7
  6
CONTINUOUS
 10
-13.7398628299
 20
22.5471798654
 11
-12.4066504963
 21
21.8805736986
  0
LINE
  5
571
100
AcDbEntity
  8
RACCORDO
100
AcDbLine
 62
7
  6
CONTINUOUS
 10
-0.3755446655
 20
15.8650207832
 11
0.9576676681
 21
15.1984146164
  0
LINE
  5
572
100
AcDbEntity
  8
IMPORT_IGES
100
AcDbLine
 62
253
  6
CONTINUOUS
 10
7.7420012184
 20
12.0962821559
 11
3.2609099823
 21
14.3368277738
  0
LINE
  5
573
100
AcDbEntity
  8
RACCORDO
100
AcDbLine
 62
7
  6
CONTINUOUS
 10
-3.2818906405
 20
17.6944403954
 11
-8.7931977401
 21
20.4500939452
  0
LINE
  5
574
100
AcDbEntity
  8
IMPORT_IGES
100
AcDbLine
 62
253
  6
CONTINUOUS
 10
3.2609099823
 20
14.4941409922
 11
7.8127118952
 21
12.2182400357
  0
LINE
  5
575
100
AcDbEntity
  8
IMPORT_IGES
100
AcDbLine
 62
253
  6
CONTINUOUS
 10
19.2561477757
 20
6.5254803035
 11
18.905127134
 21
6.7009906243
  0
LINE
  5
576
100
AcDbEntity
  8
RACCORDO
100
AcDbLine
 62
7
  6
CONTINUOUS
 10
-14.3778824878
 20
23.3752638385
 11
-13.052897808
 21
22.7127714986
  0
LINE
  5
577
100
AcDbEntity
  8
RACCORDO
100
AcDbLine
 62
7
  6
CONTINUOUS
 10
-1.0135643234
 20
16.6931047563
 11
0.3114203565
 21
16.0306124164
  0
LINE
  5
578
100
AcDbEntity
  8
IMPORT_IGES
100
AcDbLine
 62
7
  6
CONTINUOUS
 10
19.3455904949
 20
6.5311606609
 11
18.905127134
 21
6.7513923413
  0
LINE
  5
579
100
AcDbEntity
  8
IMPORT_IGES
100
AcDbLine
 62
253
  6
CONTINUOUS
 10
3.2609099823
 20
14.6514542107
 11
7.8834225744
 21
12.3401979146
  0
LINE
  5
57A
100
AcDbEntity
  8
RACCORDO
100
AcDbLine
 62
253
  6
CONTINUOUS
 10
-14.4428557842
 20
23.5104822886
 11
-13.1178711044
 21
22.8479899487
  0
LINE
  5
57B
100
AcDbEntity
  8
RACCORDO
100
AcDbLine
 62
253
  6
CONTINUOUS
 10
-1.0785376198
 20
16.8283232064
 11
0.24644706
 21
16.1658308665
  0
LINE
  5
57C
100
AcDbEntity
  8
RACCORDO
100
AcDbLine
 62
253
  6
CONTINUOUS
 10
0.24644706
 20
16.5058048006
 11
-1.0785376198
 21
17.1682971405
  0
LINE
  5
57D
100
AcDbEntity
  8
RACCORDO
100
AcDbLine
 62
253
  6
CONTINUOUS
 10
-13.1178711044
 20
23.1879638828
 11
-14.4428557842
 21
23.8504562228
  0
LINE
  5
57E
100
AcDbEntity
  8
IMPORT_IGES
100
AcDbLine
 62
253
  6
CONTINUOUS
 10
8.236975965
 20
12.5169746099
 11
3.2609099823
 21
15.0050076013
  0
LINE
  5
57F
100
AcDbEntity
  8
IMPORT_IGES
100
AcDbLine
 62
7
  6
CONTINUOUS
 10
8.2816973245
 20
12.5198147886
 11
3.2609099823
 21
15.0302084598
  0
LINE
  5
580
100
AcDbEntity
  8
DRAFT
100
AcDbLine
 62
7
  6
CONTINUOUS
 10
-1.1252738466
 20
17.3686252479
 11
-2.2191675719
 21
17.9155721105
  0
LINE
  5
581
100
AcDbEntity
  8
DRAFT
100
AcDbLine
 62
7
  6
CONTINUOUS
 10
-8.9396443496
 20
21.2758104993
 11
-11.1640683539
 21
22.3880225015
  0
LINE
  5
582
100
AcDbEntity
  8
RACCORDO
100
AcDbLine
 62
253
  6
CONTINUOUS
 10
0.422195316
 20
16.8101816156
 11
-0.9027893638
 21
17.4726739555
  0
LINE
  5
583
100
AcDbEntity
  8
RACCORDO
100
AcDbLine
 62
253
  6
CONTINUOUS
 10
-12.9421228484
 20
23.4923406978
 11
-14.2671075282
 21
24.1548330377
  0
LINE
  5
584
100
AcDbEntity
  8
RACCORDO
100
AcDbLine
 62
253
  6
CONTINUOUS
 10
-3.2818906405
 20
18.7750237062
 11
-8.7931977401
 21
21.530677256
  0
LWPOLYLINE
  5
585
100
AcDbEntity
  8
IMPORT_IGES
100
AcDbPolyline
 62
7
  6
CONTINUOUS
 90
5
 70
0
 10
3.2609099823
 20
13.1835951905
 10
4.5917456166
 20
12.5172454876
 10
5.5810697553
 20
12.0207281078
 10
6.5700637951
 20
11.5234498667
 10
7.5587277359
 20
11.0254107646
  0
LWPOLYLINE
  5
586
100
AcDbEntity
  8
IMPORT_IGES
100
AcDbPolyline
 62
253
  6
CONTINUOUS
 90
9
 70
0
 10
7.7988409986
 20
11.7194284154
 10
7.2369770503
 20
12.0098714357
 10
6.6664313011
 20
12.3028881249
 10
6.0872037509
 20
12.5984784829
 10
5.4930576309
 20
12.8994386324
 10
4.8902297099
 20
13.2029724507
 10
4.2974302949
 20
13.5006915699
 10
3.7284718295
 20
13.7860128415
 10
3.2609099823
 20
14.0198285587
  0
LWPOLYLINE
  5
587
100
AcDbEntity
  8
RACCORDO
100
AcDbPolyline
 62
7
  6
CONTINUOUS
 90
22
 70
0
 10
-14.3778431833
 20
23.3752441978
 10
-14.3865619739
 20
23.379818456
 10
-14.398369553
 20
23.3867404343
 10
-14.4097676589
 20
23.3942891248
 10
-14.4206816148
 20
23.4024067533
 10
-14.4311033228
 20
23.4110755293
 10
-14.4410780745
 20
23.4203339313
 10
-14.450583763
 20
23.4301755718
 10
-14.4595599692
 20
23.4405508683
 10
-14.4679850631
 20
23.4514461553
 10
-14.4758221459
 20
23.4628270777
 10
-14.4830390112
 20
23.4746595575
 10
-14.4896180687
 20
23.4869317042
 10
-14.4955295217
 20
23.4996108821
 10
-14.5007415023
 20
23.5126525892
 10
-14.5052312961
 20
23.5260268183
 10
-14.5089730046
 20
23.5396883277
 10
-14.5119447321
 20
23.5535927681
 10
-14.5141294669
 20
23.5677096033
 10
-14.5155082129
 20
23.5819853749
 10
-14.5160666059
 20
23.5963724346
 10
-14.5160790878
 20
23.5988826391
  0
LWPOLYLINE
  5
588
100
AcDbEntity
  8
RACCORDO
100
AcDbPolyline
 62
7
  6
CONTINUOUS
 90
22
 70
0
 10
-1.0135250189
 20
16.6930851156
 10
-1.0222438094
 20
16.6976593737
 10
-1.0340513886
 20
16.7045813521
 10
-1.0454494945
 20
16.7121300426
 10
-1.0563634503
 20
16.7202476711
 10
-1.0667851584
 20
16.7289164471
 10
-1.0767599101
 20
16.738174849
 10
-1.0862655985
 20
16.7480164896
 10
-1.0952418048
 20
16.7583917861
 10
-1.1036668987
 20
16.7692870731
 10
-1.1115039815
 20
16.7806679955
 10
-1.1187208468
 20
16.7925004753
 10
-1.1252999043
 20
16.804772622
 10
-1.1312113573
 20
16.8174517999
 10
-1.1364233379
 20
16.830493507
 10
-1.1409131316
 20
16.8438677361
 10
-1.1446548402
 20
16.8575292455
 10
-1.1476265677
 20
16.8714336859
 10
-1.1498113025
 20
16.8855505211
 10
-1.1511900485
 20
16.8998262926
 10
-1.1517484414
 20
16.9142133524
 10
-1.1517609233
 20
16.9167235568
  0
LWPOLYLINE
  5
589
100
AcDbEntity
  8
RACCORDO
100
AcDbPolyline
 62
253
  6
CONTINUOUS
 90
16
 70
0
 10
-14.4428557842
 20
23.5104822886
 10
-14.4518337091
 20
23.5152117738
 10
-14.460306158
 20
23.520168912
 10
-14.4682500757
 20
23.5253402138
 10
-14.4756438345
 20
23.5307115991
 10
-14.4824673267
 20
23.5362684587
 10
-14.4887020107
 20
23.5419956974
 10
-14.4943309284
 20
23.54787775
 10
-14.4993387342
 20
23.5538985952
 10
-14.5037117736
 20
23.5600418224
 10
-14.5074381414
 20
23.5662907046
 10
-14.5105077039
 20
23.572628246
 10
-14.5129121079
 20
23.5790372002
 10
-14.5146448115
 20
23.5855001319
 10
-14.5157010974
 20
23.5919994484
 10
-14.5160790889
 20
23.5988706375
  0
LWPOLYLINE
  5
58A
100
AcDbEntity
  8
RACCORDO
100
AcDbPolyline
 62
253
  6
CONTINUOUS
 90
16
 70
0
 10
-14.4428557842
 20
23.8504562228
 10
-14.4518347711
 20
23.8551862974
 10
-14.4603081753
 20
23.8601440907
 10
-14.4682529296
 20
23.8653161097
 10
-14.4756474128
 20
23.8706882838
 10
-14.4824714852
 20
23.8762459865
 10
-14.4887065496
 20
23.8819740733
 10
-14.4943356319
 20
23.8878569479
 10
-14.4993434167
 20
23.8938786016
 10
-14.5037162708
 20
23.9000226379
 10
-14.5074422946
 20
23.9062723317
 10
-14.5105113503
 20
23.9126106726
 10
-14.512915087
 20
23.9190204055
 10
-14.5146469678
 20
23.9254840913
 10
-14.5157022797
 20
23.9319841289
 10
-14.5160790889
 20
23.9388445733
  0
LWPOLYLINE
  5
58B
100
AcDbEntity
  8
RACCORDO
100
AcDbPolyline
 62
253
  6
CONTINUOUS
 90
16
 70
0
 10
-1.0785376198
 20
16.8283232064
 10
-1.0875155446
 20
16.8330526916
 10
-1.0959879936
 20
16.8380098298
 10
-1.1039319113
 20
16.8431811316
 10
-1.1113256701
 20
16.8485525169
 10
-1.1181491622
 20
16.8541093765
 10
-1.1243838462
 20
16.8598366151
 10
-1.1300127639
 20
16.8657186678
 10
-1.1350205697
 20
16.871739513
 10
-1.1393936092
 20
16.8778827402
 10
-1.1431199769
 20
16.8841316224
 10
-1.1461895394
 20
16.8904691637
 10
-1.1485939434
 20
16.896878118
 10
-1.1503266471
 20
16.9033410496
 10
-1.151382933
 20
16.9098403662
 10
-1.1517609245
 20
16.9167115553
  0
LWPOLYLINE
  5
58C
100
AcDbEntity
  8
RACCORDO
100
AcDbPolyline
 62
253
  6
CONTINUOUS
 90
16
 70
0
 10
-1.0785376198
 20
17.1682971405
 10
-1.087514687
 20
17.1730261496
 10
-1.0959863796
 20
17.1779827681
 10
-1.103929649
 20
17.1831535107
 10
-1.111322884
 20
17.1885243095
 10
-1.1181459703
 20
17.1940805523
 10
-1.1243803443
 20
17.1998071225
 10
-1.1300090445
 20
17.2056884399
 10
-1.1350167569
 20
17.2117085034
 10
-1.1393898574
 20
17.2178509345
 10
-1.1431164481
 20
17.2240990215
 10
-1.1461863901
 20
17.2304357655
 10
-1.1485913312
 20
17.2368439264
 10
-1.1503247284
 20
17.2433060695
 10
-1.1513818656
 20
17.2498046137
 10
-1.1517609245
 20
17.2566854882
  0
LINE
  5
58D
100
AcDbEntity
  8
IMPORT_IGES
100
AcDbLine
 62
253
  6
CONTINUOUS
 10
8.4140666344
 20
12.3942022819
 11
8.3979817386
 21
12.4033465093
  0
LINE
  5
58E
100
AcDbEntity
  8
IMPORT_IGES
100
AcDbLine
 62
253
  6
CONTINUOUS
 10
19.2838384946
 20
6.5094119423
 11
19.2561477758
 21
6.5254803034
  0
LWPOLYLINE
  5
58F
100
AcDbEntity
  8
RACCORDO
100
AcDbPolyline
 62
7
  6
CONTINUOUS
 90
37
 70
0
 10
2.2001445692
 20
15.7055439776
 10
2.2150468534
 20
15.6967455692
 10
2.2299513021
 20
15.6871679151
 10
2.2448298423
 20
15.6768247948
 10
2.2596742568
 20
15.6657212826
 10
2.2744359363
 20
15.6538831454
 10
2.2890275861
 20
15.6413645218
 10
2.303407859
 20
15.6282010702
 10
2.3175663518
 20
15.614412596
 10
2.3314651592
 20
15.6000395818
 10
2.3450611525
 20
15.5851351292
 10
2.3583518798
 20
15.5697106242
 10
2.3713591059
 20
15.5537408849
 10
2.3840664032
 20
15.5372425559
 10
2.3964409365
 20
15.5202549736
 10
2.4084756456
 20
15.5027808279
 10
2.4201638429
 20
15.484820627
 10
2.4314611324
 20
15.4664325101
 10
2.4423071745
 20
15.4477090721
 10
2.4526812456
 20
15.4286903832
 10
2.4625673443
 20
15.4094092179
 10
2.4719220499
 20
15.389953625
 10
2.4807303216
 20
15.3703705226
 10
2.4889855765
 20
15.3506903756
 10
2.4966653677
 20
15.3309787728
 10
2.503758527
 20
15.3112902999
 10
2.51026773
 20
15.2916452357
 10
2.5161938065
 20
15.2720569316
 10
2.5215326602
 20
15.2525630619
 10
2.5262830035
 20
15.2331952667
 10
2.5304472134
 20
15.2139568164
 10
2.5340238878
 20
15.1948741302
 10
2.5370100602
 20
15.1759864247
 10
2.5394039561
 20
15.1573157164
 10
2.5412048787
 20
15.1388901192
 10
2.5424141055
 20
15.1207435401
 10
2.5430335594
 20
15.1029058491
  0
LWPOLYLINE
  5
590
100
AcDbEntity
  8
IMPORT_IGES
100
AcDbPolyline
 62
253
  6
CONTINUOUS
 90
10
 70
0
 10
7.7363337431
 20
11.6459975997
 10
7.7446528504
 20
11.6410292976
 10
7.7524474082
 20
11.6355733102
 10
7.7597203789
 20
11.6296285671
 10
7.7663888553
 20
11.6232859836
 10
7.7725382653
 20
11.6164538791
 10
7.7784232701
 20
11.6088575737
 10
7.7841284344
 20
11.6004056787
 10
7.7895673271
 20
11.5911905002
 10
7.7947373502
 20
11.5812131781
  0
LWPOLYLINE
  5
591
100
AcDbEntity
  8
IMPORT_IGES
100
AcDbPolyline
 62
253
  6
CONTINUOUS
 90
3
 70
0
 10
8.236975965
 20
12.5169746099
 10
8.2619934588
 20
12.5020208697
 10
8.2817828627
 20
12.4862331572
  0
LWPOLYLINE
  5
592
100
AcDbEntity
  8
IMPORT_IGES
100
AcDbPolyline
 62
7
  6
CONTINUOUS
 90
3
 70
0
 10
8.3320256328
 20
12.4884064122
 10
8.3083849438
 20
12.504890011
 10
8.2816973245
 20
12.5198147886
  0
LINE
  5
593
100
AcDbEntity
  8
IMPORT_IGES
100
AcDbLine
 62
7
  6
CONTINUOUS
 10
16.0666137896
 20
5.074938191
 11
17.2969795888
 21
4.1832368881
  0
LINE
  5
594
100
AcDbEntity
  8
IMPORT_IGES
100
AcDbLine
 62
7
  6
CONTINUOUS
 10
16.0111046366
 20
5.1251686857
 11
16.4484514514
 21
4.8082038246
  0
LINE
  5
595
100
AcDbEntity
  8
IMPORT_IGES
100
AcDbLine
 62
7
  6
CONTINUOUS
 10
17.5656801657
 20
4.1097410796
 11
16.0948980608
 21
5.175682867
  0
LINE
  5
596
100
AcDbEntity
  8
IMPORT_IGES
100
AcDbLine
 62
7
  6
CONTINUOUS
 10
16.0488266722
 20
5.1526471727
 11
16.0558399433
 21
5.147536339
  0
LWPOLYLINE
  5
597
100
AcDbEntity
  8
IMPORT_IGES
100
AcDbPolyline
 62
7
  6
CONTINUOUS
 90
3
 70
0
 10
8.3702180389
 20
12.4511107979
 10
8.3526292517
 20
12.4704616911
 10
8.3320256328
 20
12.4884064122
  0
LWPOLYLINE
  5
598
100
AcDbEntity
  8
IMPORT_IGES
100
AcDbPolyline
 62
253
  6
CONTINUOUS
 90
4
 70
0
 10
8.2817828627
 20
12.4862331572
 10
8.2963441767
 20
12.4696114723
 10
8.3057346347
 20
12.4517811854
 10
8.3098970027
 20
12.4331169262
  0
LINE
  5
599
100
AcDbEntity
  8
IMPORT_IGES
100
AcDbLine
 62
7
  6
CONTINUOUS
 10
17.7414109758
 20
-0.0117138899
 11
17.5656801657
 21
0.2567351327
  0
LWPOLYLINE
  5
59A
100
AcDbEntity
  8
IMPORT_IGES
100
AcDbPolyline
 62
253
  6
CONTINUOUS
 90
10
 70
0
 10
15.5212155009
 20
13.3259524604
 10
15.5197927641
 20
13.3567035997
 10
15.515534617
 20
13.3885162952
 10
15.5084849638
 20
13.4209662725
 10
15.4987174474
 20
13.4536421584
 10
15.4863563483
 20
13.4860757228
 10
15.4715944585
 20
13.5177518023
 10
15.4546509691
 20
13.5482192583
 10
15.4357494456
 20
13.5770927689
 10
15.415149484
 20
13.6039854691
  0
LWPOLYLINE
  5
59B
100
AcDbEntity
  8
IMPORT_IGES
100
AcDbPolyline
 62
7
  6
CONTINUOUS
 90
7
 70
0
 10
16.8459388248
 20
13.6900739758
 10
16.8426913282
 20
13.771242021
 10
16.8330534867
 20
13.8485199275
 10
16.8171843721
 20
13.9215092848
 10
16.7951581392
 20
13.9900721968
 10
16.7672019303
 20
14.0535592578
 10
16.733951902
 20
14.110939887
  0
LINE
  5
59C
100
AcDbEntity
  8
IMPORT_IGES
100
AcDbLine
 62
253
  6
CONTINUOUS
 10
16.7995755305
 20
13.7007680604
 11
16.802004842
 21
13.6370409672
  0
LINE
  5
59D
100
AcDbEntity
  8
IMPORT_IGES
100
AcDbLine
 62
253
  6
CONTINUOUS
 10
16.4484514514
 20
4.7982033039
 11
16.4484514514
 21
4.8082038246
  0
LINE
  5
59E
100
AcDbEntity
  8
IMPORT_IGES
100
AcDbLine
 62
253
  6
CONTINUOUS
 10
16.802004842
 20
13.1553532713
 11
16.802004842
 21
13.6370409672
  0
LINE
  5
59F
100
AcDbEntity
  8
IMPORT_IGES
100
AcDbLine
 62
7
  6
CONTINUOUS
 10
16.8459388248
 20
13.1333862799
 11
16.8459388248
 21
13.6900739758
  0
LINE
  5
5A0
100
AcDbEntity
  8
IMPORT_IGES
100
AcDbLine
 62
253
  6
CONTINUOUS
 10
17.2969795888
 20
-0.9764499924
 11
17.2969795888
 21
4.1832368881
  0
LINE
  5
5A1
100
AcDbEntity
  8
IMPORT_IGES
100
AcDbLine
 62
7
  6
CONTINUOUS
 10
17.3848475545
 20
-0.8703839753
 11
17.3848475545
 21
4.1064955536
  0
LINE
  5
5A2
100
AcDbEntity
  8
IMPORT_IGES
100
AcDbLine
 62
7
  6
CONTINUOUS
 10
17.3848475545
 20
-0.8703839753
 11
17.3837262364
 21
-0.904487781
  0
LINE
  5
5A3
100
AcDbEntity
  8
IMPORT_IGES
100
AcDbLine
 62
253
  6
CONTINUOUS
 10
15.8797976504
 20
-3.5132877723
 11
15.8806022255
 21
-3.4910834793
  0
LWPOLYLINE
  5
5A4
100
AcDbEntity
  8
IMPORT_IGES
100
AcDbPolyline
 62
253
  6
CONTINUOUS
 90
10
 70
0
 10
17.2969795888
 20
-0.9764499924
 10
17.2964079861
 20
-0.9920162053
 10
17.2948017937
 20
-1.0077612088
 10
17.2921610115
 20
-1.0236850029
 10
17.2884497766
 20
-1.0399115583
 10
17.283703952
 20
-1.0563169044
 10
17.2780311264
 20
-1.0725291286
 10
17.2714671628
 20
-1.0884242601
 10
17.2639761982
 20
-1.1041262698
 10
17.2555582326
 20
-1.1196351577
  0
LWPOLYLINE
  5
5A5
100
AcDbEntity
  8
IMPORT_IGES
100
AcDbPolyline
 62
7
  6
CONTINUOUS
 90
6
 70
0
 10
17.3837262364
 20
-0.904487781
 10
17.3804334904
 20
-0.9383943847
 10
17.3750589304
 20
-0.9720615134
 10
17.3676290216
 20
-1.005613284
 10
17.3581982274
 20
-1.0388884848
 10
17.3469426604
 20
-1.0714250957
  0
LWPOLYLINE
  5
5A6
100
AcDbEntity
  8
IMPORT_IGES
100
AcDbPolyline
 62
253
  6
CONTINUOUS
 90
7
 70
0
 10
17.3848475545
 20
-0.8703839753
 10
17.3822810129
 20
-0.8899629041
 10
17.3746253024
 20
-0.909206832
 10
17.3620114142
 20
-0.9277864901
 10
17.3446551756
 20
-0.9453839753
 10
17.3228535566
 20
-0.9616981896
 10
17.2969795888
 20
-0.9764499924
  0
LWPOLYLINE
  5
5A7
100
AcDbEntity
  8
IMPORT_IGES
100
AcDbPolyline
 62
253
  6
CONTINUOUS
 90
3
 70
0
 10
15.8733912745
 20
-3.5546421639
 10
15.8773886087
 20
-3.5345282216
 10
15.8797976504
 20
-3.5132877723
  0
LWPOLYLINE
  5
5A8
100
AcDbEntity
  8
IMPORT_IGES
100
AcDbPolyline
 62
253
  6
CONTINUOUS
 90
4
 70
0
 10
19.4521210321
 20
6.0682289064
 10
19.4610445233
 20
6.0959488723
 10
19.4664616829
 20
6.1265732668
 10
19.4682798089
 20
6.1595780244
  0
LWPOLYLINE
  5
5A9
100
AcDbEntity
  8
IMPORT_IGES
100
AcDbPolyline
 62
253
  6
CONTINUOUS
 90
3
 70
0
 10
15.8607561841
 20
-3.5908834981
 10
15.8678336768
 20
-3.5734758961
 10
15.8733912745
 20
-3.5546421639
  0
LWPOLYLINE
  5
5AA
100
AcDbEntity
  8
IMPORT_IGES
100
AcDbPolyline
 62
7
  6
CONTINUOUS
 90
4
 70
0
 10
17.3469426604
 20
-1.0714250957
 10
17.3339900795
 20
-1.1030626912
 10
17.3193264828
 20
-1.1339415207
 10
17.3029585416
 20
-1.1640449284
  0
LWPOLYLINE
  5
5AB
100
AcDbEntity
  8
IMPORT_IGES
100
AcDbPolyline
 62
253
  6
CONTINUOUS
 90
6
 70
0
 10
19.5067024561
 20
6.1244276574
 10
19.505328085
 20
6.1212192122
 10
19.4962955915
 20
6.1053083864
 10
19.4842718213
 20
6.0910153323
 10
19.4694625043
 20
6.0785846079
 10
19.4521210321
 20
6.0682289064
  0
LINE
  5
5AC
100
AcDbEntity
  8
IMPORT_IGES
100
AcDbLine
 62
253
  6
CONTINUOUS
 10
17.2555582326
 20
-1.1196351577
 11
15.8806022255
 21
-3.4910834793
  0
LINE
  5
5AD
100
AcDbEntity
  8
IMPORT_IGES
100
AcDbLine
 62
7
  6
CONTINUOUS
 10
15.9280025346
 20
-3.53549325
 11
17.3029585416
 21
-1.1640449284
  0
LINE
  5
5AE
100
AcDbEntity
  8
RACCORDO
100
AcDbLine
 62
253
  6
CONTINUOUS
 10
0.9571534398
 20
-24.1570196816
 11
0.3348354077
 21
-24.9020790991
  0
LINE
  5
5AF
100
AcDbEntity
  8
RACCORDO
100
AcDbLine
 62
253
  6
CONTINUOUS
 10
1.3101896278
 20
-24.2827895196
 11
0.5989690197
 21
-25.1342859967
  0
LINE
  5
5B0
100
AcDbEntity
  8
RACCORDO
100
AcDbLine
 62
253
  6
CONTINUOUS
 10
7.5684784175
 20
-15.9434135565
 11
3.2609099823
 21
-17.2180357764
  0
LWPOLYLINE
  5
5B1
100
AcDbEntity
  8
IMPORT_IGES
100
AcDbPolyline
 62
253
  6
CONTINUOUS
 90
11
 70
0
 10
15.1231070467
 20
13.9777097351
 10
15.1163897236
 20
13.9784425684
 10
15.1084576419
 20
13.9763549821
 10
15.0994705352
 20
13.9714748761
 10
15.0895822922
 20
13.9638227085
 10
15.078989373
 20
13.9534971198
 10
15.0679559496
 20
13.9407731878
 10
15.0567231338
 20
13.9259258494
 10
15.0455327515
 20
13.9092339181
 10
15.0346545742
 20
13.8910998335
 10
15.0335507701
 20
13.8890547562
  0
LINE
  5
5B2
100
AcDbEntity
  8
RACCORDO
100
AcDbLine
 62
7
  6
CONTINUOUS
 10
0.3721255262
 20
16.0094969819
 11
0.9977322198
 21
15.8788755855
  0
LINE
  5
5B3
100
AcDbEntity
  8
RACCORDO
100
AcDbLine
 62
253
  6
CONTINUOUS
 10
0.5989690197
 20
16.1653181426
 11
1.3101896278
 21
16.0168146198
  0
LWPOLYLINE
  5
5B4
100
AcDbEntity
  8
RACCORDO
100
AcDbPolyline
 62
7
  6
CONTINUOUS
 90
10
 70
0
 10
0.3721255262
 20
16.0094969819
 10
0.3645839289
 20
16.0111937625
 10
0.3570806739
 20
16.0131277535
 10
0.3496264475
 20
16.0152978123
 10
0.3422157354
 20
16.0177076908
 10
0.3348768007
 20
16.0203499866
 10
0.3276674579
 20
16.0232019117
 10
0.32060986
 20
16.0262490664
 10
0.31369471
 20
16.0294896258
 10
0.3114097393
 20
16.0306177258
  0
LWPOLYLINE
  5
5B5
100
AcDbEntity
  8
IMPORT_IGES
100
AcDbPolyline
 62
7
  6
CONTINUOUS
 90
13
 70
0
 10
16.5795472811
 20
13.2376356166
 10
16.5809468926
 20
13.2373075128
 10
16.5834700741
 20
13.2366585354
 10
16.584643166
 20
13.2363220659
 10
16.5844498455
 20
13.2363820981
 10
16.5834090202
 20
13.2367241954
 10
16.5815732181
 20
13.2373533475
 10
16.5788374158
 20
13.2383239878
 10
16.5755029631
 20
13.2395414372
 10
16.5716455684
 20
13.2409835479
 10
16.567189759
 20
13.2426833538
 10
16.5622315814
 20
13.244608233
 10
16.5567797323
 20
13.246757321
  0
LWPOLYLINE
  5
5B6
100
AcDbEntity
  8
IMPORT_IGES
100
AcDbPolyline
 62
253
  6
CONTINUOUS
 90
5
 70
0
 10
15.0620865434
 20
13.8781436425
 10
15.0520034856
 20
13.8805979596
 10
15.0411107647
 20
13.8807574224
 10
15.0293892074
 20
13.878636012
 10
15.0166681986
 20
13.874270936
  0
LWPOLYLINE
  5
5B7
100
AcDbEntity
  8
IMPORT_IGES
100
AcDbPolyline
 62
7
  6
CONTINUOUS
 90
3
 70
0
 10
15.034959364
 20
13.8886965956
 10
15.0036426232
 20
13.8966594466
 10
14.9713740544
 20
13.9007263449
  0
LWPOLYLINE
  5
5B8
100
AcDbEntity
  8
IMPORT_IGES
100
AcDbPolyline
 62
253
  6
CONTINUOUS
 90
4
 70
0
 10
16.5122835738
 20
13.2839171423
 10
16.4991160009
 20
13.2877131709
 10
16.4848441119
 20
13.2884694885
 10
16.4697789857
 20
13.2861696097
  0
LWPOLYLINE
  5
5B9
100
AcDbEntity
  8
IMPORT_IGES
100
AcDbPolyline
 62
253
  6
CONTINUOUS
 90
7
 70
0
 10
14.4270517727
 20
13.6633119769
 10
14.3905157636
 20
13.6750709621
 10
14.3541087744
 20
13.6900255541
 10
14.317864762
 20
13.7081656919
 10
14.2817497693
 20
13.7295014366
 10
14.2466916658
 20
13.7539560554
 10
14.2129997413
 20
13.7815039707
  0
LWPOLYLINE
  5
5BA
100
AcDbEntity
  8
IMPORT_IGES
100
AcDbPolyline
 62
253
  6
CONTINUOUS
 90
10
 70
0
 10
18.4285548551
 20
10.0746134004
 10
18.4241567216
 20
10.076458048
 10
18.4189236563
 20
10.0834336705
 10
18.4140849163
 20
10.0954543018
 10
18.410117183
 20
10.1123190067
 10
18.4077834179
 20
10.1333604316
 10
18.4064109853
 20
10.1577459105
 10
18.4058441427
 20
10.1849311115
 10
18.4067190832
 20
10.2146613292
 10
18.4093895835
 20
10.246673024
  0
LWPOLYLINE
  5
5BB
100
AcDbEntity
  8
RACCORDO
100
AcDbPolyline
 62
253
  6
CONTINUOUS
 90
14
 70
0
 10
2.6625182364
 20
17.8829323311
 10
2.6550908157
 20
17.8862518488
 10
2.6475078731
 20
17.888889549
 10
2.6396614548
 20
17.8909024195
 10
2.6315731635
 20
17.8922849444
 10
2.6232651958
 20
17.8930334047
 10
2.6147600234
 20
17.893145849
 10
2.6060805607
 20
17.8926220001
 10
2.5972484702
 20
17.8914629581
 10
2.5882896872
 20
17.8896719227
 10
2.5792343503
 20
17.8872554924
 10
2.5701091815
 20
17.884222121
 10
2.5609371769
 20
17.8805807637
 10
2.5517432786
 20
17.8763424391
  0
LWPOLYLINE
  5
5BC
100
AcDbEntity
  8
RACCORDO
100
AcDbPolyline
 62
253
  6
CONTINUOUS
 90
14
 70
0
 10
1.3251920758
 20
18.5515954114
 10
1.3177646552
 20
18.5549149291
 10
1.3101817126
 20
18.5575526292
 10
1.3023352943
 20
18.5595654998
 10
1.294247003
 20
18.5609480247
 10
1.2859390352
 20
18.561696485
 10
1.2774338628
 20
18.5618089293
 10
1.2687544001
 20
18.5612850804
 10
1.2599223096
 20
18.5601260384
 10
1.2509635266
 20
18.558335003
 10
1.2419081897
 20
18.5559185726
 10
1.2327830209
 20
18.5528852012
 10
1.2236110164
 20
18.549243844
 10
1.214417118
 20
18.5450055194
  0
LWPOLYLINE
  5
5BD
100
AcDbEntity
  8
RACCORDO
100
AcDbPolyline
 62
253
  6
CONTINUOUS
 90
15
 70
0
 10
-0.9027893638
 20
17.4726739555
 10
-0.9120952367
 20
17.4769772584
 10
-0.9213727921
 20
17.480676525
 10
-0.9305965905
 20
17.4837616081
 10
-0.939741348
 20
17.4862240464
 10
-0.94878198
 20
17.4880570806
 10
-0.9576936702
 20
17.4892556779
 10
-0.966451977
 20
17.489816553
 10
-0.9750328909
 20
17.4897381705
 10
-0.9834128753
 20
17.4890207476
 10
-0.9915689515
 20
17.4876662553
 10
-0.9994787582
 20
17.4856784107
 10
-1.0071206049
 20
17.4830626689
 10
-1.0144735478
 20
17.4798262019
 10
-1.015867872
 20
17.4791256024
  0
LWPOLYLINE
  5
5BE
100
AcDbEntity
  8
RACCORDO
100
AcDbPolyline
 62
253
  6
CONTINUOUS
 90
15
 70
0
 10
-14.2671075282
 20
24.1548330377
 10
-14.2764113619
 20
24.1591354624
 10
-14.2856868767
 20
24.1628341111
 10
-14.2949086503
 20
24.1659188465
 10
-14.3040514074
 20
24.1683812139
 10
-14.3130900896
 20
24.1702144644
 10
-14.3219999234
 20
24.1714135735
 10
-14.3307564887
 20
24.1719752545
 10
-14.3393357854
 20
24.1718979681
 10
-14.3477142992
 20
24.171181926
 10
-14.3558690662
 20
24.1698290909
 10
-14.3637777358
 20
24.1678431704
 10
-14.3714186316
 20
24.1652296078
 10
-14.3787708116
 20
24.1619955663
 10
-14.3801931944
 20
24.1612810129
  0
LWPOLYLINE
  5
5BF
100
AcDbEntity
  8
RACCORDO
100
AcDbPolyline
 62
7
  6
CONTINUOUS
 90
16
 70
0
 10
0.6799672393
 20
18.2846580528
 10
0.6715561639
 20
18.2886185367
 10
0.6631639463
 20
18.2920795154
 10
0.6548096986
 20
18.2950331992
 10
0.6465125246
 20
18.2974729873
 10
0.6382912262
 20
18.2993933535
 10
0.6301642604
 20
18.3007898588
 10
0.6221500951
 20
18.3016593674
 10
0.6142669757
 20
18.301999954
 10
0.6065326335
 20
18.3018107786
 10
0.598964626
 20
18.3010922868
 10
0.591580169
 20
18.2998461411
 10
0.5843959065
 20
18.2980751185
 10
0.5774281278
 20
18.2957832372
 10
0.5706926686
 20
18.2929757141
 10
0.5690350505
 20
18.2921882107
  0
LWPOLYLINE
  5
5C0
100
AcDbEntity
  8
RACCORDO
100
AcDbPolyline
 62
7
  6
CONTINUOUS
 90
16
 70
0
 10
-12.6843509251
 20
24.9668171351
 10
-12.6927620005
 20
24.9707776189
 10
-12.7011542181
 20
24.9742385977
 10
-12.7095084658
 20
24.9771922814
 10
-12.7178056398
 20
24.9796320695
 10
-12.7260269382
 20
24.9815524357
 10
-12.734153904
 20
24.982948941
 10
-12.7421680694
 20
24.9838184496
 10
-12.7500511887
 20
24.9841590362
 10
-12.7577855309
 20
24.9839698608
 10
-12.7653535385
 20
24.983251369
 10
-12.7727379954
 20
24.9820052233
 10
-12.779922258
 20
24.9802342007
 10
-12.7868900366
 20
24.9779423194
 10
-12.7936254958
 20
24.9751347963
 10
-12.7952831139
 20
24.9743472929
  0
LWPOLYLINE
  5
5C1
100
AcDbEntity
  8
RACCORDO
100
AcDbPolyline
 62
253
  6
CONTINUOUS
 90
14
 70
0
 10
1.214417118
 20
18.5450055194
 10
1.2052181084
 20
18.5493603561
 10
1.1960414927
 20
18.5531084544
 10
1.1869124224
 20
18.5562395414
 10
1.1778559186
 20
18.5587450355
 10
1.1688968034
 20
18.5606180695
 10
1.1600596321
 20
18.5618535098
 10
1.1513686256
 20
18.5624479703
 10
1.1428476046
 20
18.5623998216
 10
1.1345199233
 20
18.5617091959
 10
1.1264084066
 20
18.5603779858
 10
1.1185352864
 20
18.5584098401
 10
1.1109221416
 20
18.555810153
 10
1.1039050069
 20
18.5527403105
  0
LINE
  5
5C2
100
AcDbEntity
  8
IMPORT_IGES
100
AcDbLine
 62
7
  6
CONTINUOUS
 10
7.1355616939
 20
13.6721668448
 11
6.6928124397
 21
13.8935414719
  0
LINE
  5
5C3
100
AcDbEntity
  8
IMPORT_IGES
100
AcDbLine
 62
7
  6
CONTINUOUS
 10
9.0443816005
 20
12.7178841707
 11
8.5634188816
 21
12.9583655302
  0
LINE
  5
5C4
100
AcDbEntity
  8
IMPORT_IGES
100
AcDbLine
 62
7
  6
CONTINUOUS
 10
7.7424417457
 20
13.3688540981
 11
7.2999944261
 21
13.5900777579
  0
LINE
  5
5C5
100
AcDbEntity
  8
IMPORT_IGES
100
AcDbLine
 62
7
  6
CONTINUOUS
 10
6.2630739503
 20
14.1085379958
 11
5.8206902703
 21
14.3297298358
  0
LINE
  5
5C6
100
AcDbEntity
  8
IMPORT_IGES
100
AcDbLine
 62
7
  6
CONTINUOUS
 10
4.939867152
 20
14.770141395
 11
4.5018102584
 21
14.9891698418
  0
LINE
  5
5C7
100
AcDbEntity
  8
IMPORT_IGES
100
AcDbLine
 62
7
  6
CONTINUOUS
 10
3.5686421464
 20
15.4557538978
 11
3.3321889228
 21
15.5739805096
  0
LINE
  5
5C8
100
AcDbEntity
  8
IMPORT_IGES
100
AcDbLine
 62
7
  6
CONTINUOUS
 10
6.6928124397
 20
14.0667465526
 11
7.1355616939
 21
13.8453719255
  0
LINE
  5
5C9
100
AcDbEntity
  8
IMPORT_IGES
100
AcDbLine
 62
7
  6
CONTINUOUS
 10
3.4742938884
 20
15.6761331075
 11
3.5686421464
 21
15.6289589785
  0
LINE
  5
5CA
100
AcDbEntity
  8
IMPORT_IGES
100
AcDbLine
 62
7
  6
CONTINUOUS
 10
4.5018102584
 20
15.1623749225
 11
4.939867152
 21
14.9433464757
  0
LINE
  5
5CB
100
AcDbEntity
  8
IMPORT_IGES
100
AcDbLine
 62
7
  6
CONTINUOUS
 10
5.8206902703
 20
14.5029349166
 11
6.2630739503
 21
14.2817430766
  0
LINE
  5
5CC
100
AcDbEntity
  8
IMPORT_IGES
100
AcDbLine
 62
7
  6
CONTINUOUS
 10
9.0443816005
 20
12.8910892515
 11
8.5634188816
 21
13.1315706109
  0
LINE
  5
5CD
100
AcDbEntity
  8
IMPORT_IGES
100
AcDbLine
 62
7
  6
CONTINUOUS
 10
7.7424417457
 20
13.5420591789
 11
7.2999944261
 21
13.7632828387
  0
LINE
  5
5CE
100
AcDbEntity
  8
RACCORDO
100
AcDbLine
 62
253
  6
CONTINUOUS
 10
-2.8590682607
 20
18.8774132707
 11
-8.9348229104
 21
21.9152905955
  0
LINE
  5
5CF
100
AcDbEntity
  8
RACCORDO
100
AcDbLine
 62
7
  6
CONTINUOUS
 10
-11.1640683539
 20
23.0875715935
 11
-9.7560256189
 21
22.383550226
  0
LINE
  5
5D0
100
AcDbEntity
  8
RACCORDO
100
AcDbLine
 62
7
  6
CONTINUOUS
 10
2.2002498105
 20
16.4054125113
 11
2.9072488816
 21
16.0519129758
  0
LINE
  5
5D1
100
AcDbEntity
  8
DRAFT
100
AcDbLine
 62
7
  6
CONTINUOUS
 10
-8.4417072463
 20
22.239277513
 11
-2.2191675719
 21
19.1280076758
  0
LINE
  5
5D2
100
AcDbEntity
  8
IMPORT_IGES
100
AcDbLine
 62
7
  6
CONTINUOUS
 10
4.7315152656
 20
16.2442865221
 11
4.5293273188
 21
16.3453804955
  0
LINE
  5
5D3
100
AcDbEntity
  8
RACCORDO
100
AcDbLine
 62
7
  6
CONTINUOUS
 10
-12.6843509251
 20
24.9668171351
 11
-11.3408420576
 21
24.2950627013
  0
LINE
  5
5D4
100
AcDbEntity
  8
RACCORDO
100
AcDbLine
 62
7
  6
CONTINUOUS
 10
0.6799672393
 20
18.2846580528
 11
2.0234761068
 21
17.6129036191
  0
LINE
  5
5D5
100
AcDbEntity
  8
DRAFT
100
AcDbLine
 62
7
  6
CONTINUOUS
 10
-2.1484568938
 20
19.7947207295
 11
-7.0982043621
 21
22.2695944637
  0
LINE
  5
5D6
100
AcDbEntity
  8
IMPORT_IGES
100
AcDbLine
 62
7
  6
CONTINUOUS
 10
4.5982760651
 20
16.4841112031
 11
4.9532286417
 21
16.3066349148
  0
LINE
  5
5D7
100
AcDbEntity
  8
IMPORT_IGES
100
AcDbLine
 62
7
  6
CONTINUOUS
 10
5.3714511901
 20
16.4251799525
 11
4.867099524
 21
16.6773557855
  0
LINE
  5
5D8
100
AcDbEntity
  8
RACCORDO
100
AcDbLine
 62
253
  6
CONTINUOUS
 10
-12.1499010464
 20
25.2271646016
 11
-10.8125748858
 21
24.5585015213
  0
LINE
  5
5D9
100
AcDbEntity
  8
RACCORDO
100
AcDbLine
 62
253
  6
CONTINUOUS
 10
1.214417118
 20
18.5450055194
 11
2.5517432786
 21
17.8763424391
  0
LINE
  5
5DA
100
AcDbEntity
  8
RACCORDO
100
AcDbLine
 62
7
  6
CONTINUOUS
 10
-12.0391260868
 20
25.2337544927
 11
-10.7017999263
 21
24.5650914125
  0
LINE
  5
5DB
100
AcDbEntity
  8
RACCORDO
100
AcDbLine
 62
7
  6
CONTINUOUS
 10
1.3251920776
 20
18.5515954105
 11
2.6625182381
 21
17.8829323302
  0
LINE
  5
5DC
100
AcDbEntity
  8
IMPORT_IGES
100
AcDbLine
 62
7
  6
CONTINUOUS
 10
10.102854691
 20
14.4829177842
 11
10.4930277275
 21
14.287831266
  0
LINE
  5
5DD
100
AcDbEntity
  8
IMPORT_IGES
100
AcDbLine
 62
7
  6
CONTINUOUS
 10
9.2567540511
 20
14.9059681042
 11
8.8140047969
 21
15.1273427313
  0
LINE
  5
5DE
100
AcDbEntity
  8
IMPORT_IGES
100
AcDbLine
 62
7
  6
CONTINUOUS
 10
8.5756581929
 20
15.2465160333
 11
8.1520913314
 21
15.458299464
  0
LINE
  5
5DF
100
AcDbEntity
  8
IMPORT_IGES
100
AcDbLine
 62
7
  6
CONTINUOUS
 10
7.5371474339
 20
15.7657714128
 11
7.4750514377
 21
15.7968194109
  0
LINE
  5
5E0
100
AcDbEntity
  8
IMPORT_IGES
100
AcDbLine
 62
7
  6
CONTINUOUS
 10
6.8576581223
 20
16.1055160686
 11
6.4245318843
 21
16.3220791876
  0
LINE
  5
5E1
100
AcDbEntity
  8
IMPORT_IGES
100
AcDbLine
 62
7
  6
CONTINUOUS
 10
6.3550084384
 20
16.3568409105
 11
5.9170625606
 21
16.5758138494
  0
LWPOLYLINE
  5
5E2
100
AcDbEntity
  8
RACCORDO
100
AcDbPolyline
 62
7
  6
CONTINUOUS
 90
22
 70
0
 10
2.6625245798
 20
17.8829291591
 10
2.6737932525
 20
17.8769299998
 10
2.6848722446
 20
17.8702800076
 10
2.6956020997
 20
17.8630598735
 10
2.7059537618
 20
17.8552869494
 10
2.7159065211
 20
17.8469733629
 10
2.7254327149
 20
17.8381373439
 10
2.7345021791
 20
17.828801825
 10
2.7430904068
 20
17.8189865516
 10
2.7511713337
 20
17.8087149358
 10
2.7587188552
 20
17.7980134171
 10
2.765709535
 20
17.7869079796
 10
2.7721203557
 20
17.7754272004
 10
2.7779298096
 20
17.7636009239
 10
2.7831184766
 20
17.7514588561
 10
2.7876683281
 20
17.7390315179
 10
2.7915615811
 20
17.7263542348
 10
2.7947821119
 20
17.7134657804
 10
2.7973171879
 20
17.7004020666
 10
2.7991560415
 20
17.6871996963
 10
2.8002896442
 20
17.6739000563
 10
2.8007148393
 20
17.6593251831
  0
LWPOLYLINE
  5
5E3
100
AcDbEntity
  8
RACCORDO
100
AcDbPolyline
 62
7
  6
CONTINUOUS
 90
22
 70
0
 10
-10.7017999263
 20
24.5650914125
 10
-10.6901433604
 20
24.5588728281
 10
-10.6787879777
 20
24.5520192222
 10
-10.6677771322
 20
24.5445479581
 10
-10.6571485701
 20
24.5364766903
 10
-10.6469470815
 20
24.5278329347
 10
-10.6372221577
 20
24.5186559549
 10
-10.6280476392
 20
24.5090229308
 10
-10.6194093701
 20
24.4989289148
 10
-10.6112388755
 20
24.4882791292
 10
-10.6035380795
 20
24.4770301511
 10
-10.5964045556
 20
24.4652775644
 10
-10.5899175515
 20
24.4531299221
 10
-10.5841139196
 20
24.4406542301
 10
-10.579003276
 20
24.4278722112
 10
-10.5746042378
 20
24.4148292547
 10
-10.5709326464
 20
24.4015757254
 10
-10.567997661
 20
24.3881521367
 10
-10.565804011
 20
24.3745829518
 10
-10.5643582391
 20
24.3608981909
 10
-10.5636675546
 20
24.3471512289
 10
-10.5636033255
 20
24.3414914007
  0
LWPOLYLINE
  5
5E4
100
AcDbEntity
  8
IMPORT_IGES
100
AcDbPolyline
 62
7
  6
CONTINUOUS
 90
13
 70
0
 10
19.3455904949
 20
6.5311606609
 10
19.3797184778
 20
6.5110348817
 10
19.4107322801
 20
6.4867183413
 10
19.4386786389
 20
6.4585883487
 10
19.4641603601
 20
6.4259342134
 10
19.4863042061
 20
6.3893230404
 10
19.5035993531
 20
6.3513325731
 10
19.5162058986
 20
6.3122133001
 10
19.5241176286
 20
6.2716617052
 10
19.5268531817
 20
6.2321147254
 10
19.5247267979
 20
6.1946263727
 10
19.5179795503
 20
6.1586319294
 10
19.5067024561
 20
6.1244276574
  0
LWPOLYLINE
  5
5E5
100
AcDbEntity
  8
IMPORT_IGES
100
AcDbPolyline
 62
253
  6
CONTINUOUS
 90
15
 70
0
 10
18.905127134
 20
6.2604983223
 10
18.9086005673
 20
6.2574048118
 10
18.932208238
 20
6.2322942682
 10
18.9543102208
 20
6.2045009595
 10
18.9745748053
 20
6.1744420122
 10
18.9926978572
 20
6.1425685565
 10
19.0084073826
 20
6.1093589545
 10
19.0214676101
 20
6.0753116217
 10
19.0316825297
 20
6.0409375464
 10
19.0388988341
 20
6.0067526207
 10
19.0430082197
 20
5.9732698977
 10
19.0439490121
 20
5.940991892
 10
19.0417070919
 20
5.9104030375
 10
19.036316106
 20
5.8819624171
 10
19.0278569635
 20
5.8560968724
  0
LINE
  5
5E6
100
AcDbEntity
  8
IMPORT_IGES
100
AcDbLine
 62
253
  6
CONTINUOUS
 10
17.3174605905
 20
12.5007164487
 11
17.5962971826
 21
9.9499835403
  0
LINE
  5
5E7
100
AcDbEntity
  8
IMPORT_IGES
100
AcDbLine
 62
7
  6
CONTINUOUS
 10
17.4035519563
 20
12.6393831339
 11
17.6823885485
 21
10.0886502255
  0
LWPOLYLINE
  5
5E8
100
AcDbEntity
  8
IMPORT_IGES
100
AcDbPolyline
 62
7
  6
CONTINUOUS
 90
10
 70
0
 10
18.905127134
 20
6.8300619247
 10
18.903473823
 20
6.9125706217
 10
18.8985112284
 20
6.9935676472
 10
18.890235567
 20
7.0729231958
 10
18.8786236155
 20
7.1506229871
 10
18.8636838079
 20
7.226411492
 10
18.845505995
 20
7.2998272705
 10
18.8241705644
 20
7.3706641794
 10
18.7997001689
 20
7.4389345519
 10
18.7721454975
 20
7.504537656
  0
LINE
  5
5E9
100
AcDbEntity
  8
IMPORT_IGES
100
AcDbLine
 62
7
  6
CONTINUOUS
 10
17.5656801657
 20
0.2567351327
 11
17.5656801657
 21
4.1097410796
  0
LINE
  5
5EA
100
AcDbEntity
  8
IMPORT_IGES
100
AcDbLine
 62
253
  6
CONTINUOUS
 10
18.8172591684
 20
0.5262102065
 11
18.8172591684
 21
6.7239959076
  0
LINE
  5
5EB
100
AcDbEntity
  8
IMPORT_IGES
100
AcDbLine
 62
7
  6
CONTINUOUS
 10
18.905127134
 20
6.8300619247
 11
18.905127134
 21
0.6322762233
  0
LWPOLYLINE
  5
5EC
100
AcDbEntity
  8
IMPORT_IGES
100
AcDbPolyline
 62
7
  6
CONTINUOUS
 90
13
 70
0
 10
18.905127134
 20
0.6322762233
 10
18.9015395482
 20
0.5326779629
 10
18.8909049013
 20
0.4372167536
 10
18.8734092148
 20
0.3462141024
 10
18.8491397523
 20
0.2596894669
 10
18.818327484
 20
0.1782629278
 10
18.7816124528
 20
0.1030589583
 10
18.739701416
 20
0.0346412986
 10
18.6928800257
 20
-0.0272686657
 10
18.6413818806
 20
-0.0828046438
 10
18.5856199318
 20
-0.1318170917
 10
18.5262319064
 20
-0.1740405838
 10
18.4638064865
 20
-0.2093738948
  0
LWPOLYLINE
  5
5ED
100
AcDbEntity
  8
IMPORT_IGES
100
AcDbPolyline
 62
253
  6
CONTINUOUS
 90
10
 70
0
 10
18.8172591684
 20
0.5262102061
 10
18.8135997631
 20
0.4253889456
 10
18.8026493976
 20
0.328994401
 10
18.7844914107
 20
0.237760193
 10
18.7592639956
 20
0.1523806691
 10
18.7271591483
 20
0.0735056189
 10
18.688421206
 20
0.0017353293
 10
18.6433449879
 20
-0.0623839845
 10
18.5922735511
 20
-0.1183643359
 10
18.5355955801
 20
-0.1657796805
  0
LINE
  5
5EE
100
AcDbEntity
  8
RACCORDO
100
AcDbLine
 62
7
  6
CONTINUOUS
 10
7.8166227412
 20
-17.2498531565
 11
3.2609099823
 21
-19.5590851535
  0
LINE
  5
5EF
100
AcDbEntity
  8
RACCORDO
100
AcDbLine
 62
7
  6
CONTINUOUS
 10
6.9350872827
 20
-18.3066121575
 11
3.2609099823
 21
-20.1508446969
  0
LINE
  5
5F0
100
AcDbEntity
  8
RACCORDO
100
AcDbLine
 62
7
  6
CONTINUOUS
 10
7.8166227412
 20
-17.7471831135
 11
3.2609099823
 21
-20.0068502271
  0
LINE
  5
5F1
100
AcDbEntity
  8
DRAFT
100
AcDbLine
 62
7
  6
CONTINUOUS
 10
7.5684784175
 20
-16.7821108562
 11
3.2609099823
 21
-18.91479291
  0
LINE
  5
5F2
100
AcDbEntity
  8
RACCORDO
100
AcDbLine
 62
7
  6
CONTINUOUS
 10
-18.3837892369
 20
13.652452921
 11
-18.3742884688
 21
13.6549962206
  0
LWPOLYLINE
  5
5F3
100
AcDbEntity
  8
RACCORDO
100
AcDbPolyline
 62
7
  6
CONTINUOUS
 90
18
 70
0
 10
-2.8590682607
 20
18.8774132707
 10
-2.8763629286
 20
18.875920935
 10
-2.8935573268
 20
18.8739273571
 10
-2.9106156646
 20
18.8715201742
 10
-2.927506498
 20
18.8688092206
 10
-2.9442107608
 20
18.8658522081
 10
-2.9607175807
 20
18.86264136
 10
-2.9770109876
 20
18.8592311321
 10
-2.9930807806
 20
18.8556866024
 10
-3.0089239344
 20
18.8519926464
 10
-3.0245327461
 20
18.8481893641
 10
-3.0399018288
 20
18.8443257759
 10
-3.0550285568
 20
18.8403855022
 10
-3.0699095744
 20
18.8363994549
 10
-3.0845421004
 20
18.8324053689
 10
-3.0989207253
 20
18.8283882395
 10
-3.1130442782
 20
18.8243730789
 10
-3.1405140239
 20
18.8164254667
  0
LINE
  5
5F4
100
AcDbEntity
  8
RACCORDO
100
AcDbLine
 62
7
  6
CONTINUOUS
 10
-12.9921926383
 20
22.6916560641
 11
-12.3665859446
 21
22.5610346677
  0
LWPOLYLINE
  5
5F5
100
AcDbEntity
  8
RACCORDO
100
AcDbPolyline
 62
7
  6
CONTINUOUS
 90
10
 70
0
 10
-12.9921926383
 20
22.6916560641
 10
-12.9997342355
 20
22.6933528447
 10
-13.0072374906
 20
22.6952868358
 10
-13.0146917169
 20
22.6974568945
 10
-13.022102429
 20
22.6998667731
 10
-13.0294413638
 20
22.7025090688
 10
-13.0366507065
 20
22.7053609939
 10
-13.0437083044
 20
22.7084081486
 10
-13.0506234544
 20
22.711648708
 10
-13.0529084251
 20
22.712776808
  0
LWPOLYLINE
  5
5F6
100
AcDbEntity
  8
IMPORT_IGES
100
AcDbPolyline
 62
253
  6
CONTINUOUS
 90
10
 70
0
 10
15.2041350774
 20
13.9379913905
 10
15.1908892143
 20
13.9418003558
 10
15.1765562622
 20
13.9425362695
 10
15.1614564043
 20
13.9402003952
 10
15.145930207
 20
13.9348640175
 10
15.1303111987
 20
13.9266597825
 10
15.1149185903
 20
13.9157660593
 10
15.1000852158
 20
13.9024238259
 10
15.0861306417
 20
13.886926145
 10
15.0755893054
 20
13.872638548
  0
LWPOLYLINE
  5
5F7
100
AcDbEntity
  8
IMPORT_IGES
100
AcDbPolyline
 62
253
  6
CONTINUOUS
 90
13
 70
0
 10
12.7092717101
 20
15.1300461151
 10
12.726461723
 20
15.1250798417
 10
12.7436517178
 20
15.1179908611
 10
12.7603897643
 20
15.1088903833
 10
12.776031531
 20
15.0981585289
 10
12.7904189146
 20
15.086003177
 10
12.8037763679
 20
15.0722067182
 10
12.8157692881
 20
15.0569607134
 10
12.8259812517
 20
15.0406974337
 10
12.8343263426
 20
15.0234309164
 10
12.8405295769
 20
15.0054868771
 10
12.8443277409
 20
14.9875122674
 10
12.8456775264
 20
14.9700135145
  0
LWPOLYLINE
  5
5F8
100
AcDbEntity
  8
IMPORT_IGES
100
AcDbPolyline
 62
253
  6
CONTINUOUS
 90
4
 70
0
 10
16.6065509338
 20
13.2279341447
 10
16.5970578558
 20
13.2309717153
 10
16.5829760684
 20
13.2361383593
 10
16.567189759
 20
13.2426833538
  0
LINE
  5
5F9
100
AcDbEntity
  8
IMPORT_IGES
100
AcDbLine
 62
7
  6
CONTINUOUS
 10
15.0566506064
 20
13.8806493247
 11
15.034959364
 21
13.8886965956
  0
LINE
  5
5FA
100
AcDbEntity
  8
IMPORT_IGES
100
AcDbLine
 62
7
  6
CONTINUOUS
 10
16.5567797323
 20
13.246757321
 11
16.5444267562
 21
13.251723465
  0
LINE
  5
5FB
100
AcDbEntity
  8
IMPORT_IGES
100
AcDbLine
 62
253
  6
CONTINUOUS
 10
16.5640006132
 20
13.2435760665
 11
16.5444267562
 21
13.251723465
  0
LINE
  5
5FC
100
AcDbEntity
  8
IMPORT_IGES
100
AcDbLine
 62
7
  6
CONTINUOUS
 10
16.5444267562
 20
13.251723465
 11
16.5303480118
 21
13.2575046294
  0
LINE
  5
5FD
100
AcDbEntity
  8
IMPORT_IGES
100
AcDbLine
 62
253
  6
CONTINUOUS
 10
16.5404364487
 20
13.2531428471
 11
16.5303480118
 21
13.2575046294
  0
LINE
  5
5FE
100
AcDbEntity
  8
IMPORT_IGES
100
AcDbLine
 62
253
  6
CONTINUOUS
 10
16.5227331924
 20
13.2606724355
 11
16.5122835749
 21
13.2648387011
  0
LINE
  5
5FF
100
AcDbEntity
  8
IMPORT_IGES
100
AcDbLine
 62
7
  6
CONTINUOUS
 10
16.5303480118
 20
13.2575046294
 11
16.5147686693
 21
13.2640109799
  0
LINE
  5
600
100
AcDbEntity
  8
IMPORT_IGES
100
AcDbLine
 62
253
  6
CONTINUOUS
 10
15.5212155009
 20
13.3259524604
 11
17.2622746618
 21
12.5896385919
  0
LINE
  5
601
100
AcDbEntity
  8
IMPORT_IGES
100
AcDbLine
 62
253
  6
CONTINUOUS
 10
15.4367477115
 20
13.7033421922
 11
17.1778068726
 21
12.9670283237
  0
LINE
  5
602
100
AcDbEntity
  8
IMPORT_IGES
100
AcDbLine
 62
7
  6
CONTINUOUS
 10
15.0565206723
 20
13.8807027158
 11
15.4600106202
 21
13.7100623692
  0
LINE
  5
603
100
AcDbEntity
  8
IMPORT_IGES
100
AcDbLine
 62
7
  6
CONTINUOUS
 10
15.4600106202
 20
13.7100623692
 11
16.5147686693
 21
13.2640109799
  0
LINE
  5
604
100
AcDbEntity
  8
IMPORT_IGES
100
AcDbLine
 62
253
  6
CONTINUOUS
 10
15.3393301513
 20
13.8862666843
 11
15.1231116772
 21
13.9777078843
  0
LINE
  5
605
100
AcDbEntity
  8
IMPORT_IGES
100
AcDbLine
 62
253
  6
CONTINUOUS
 10
15.3111733118
 20
14.0120637164
 11
14.7513951777
 21
14.2488003033
  0
LWPOLYLINE
  5
606
100
AcDbEntity
  8
IMPORT_IGES
100
AcDbPolyline
 62
253
  6
CONTINUOUS
 90
27
 70
0
 10
11.7722546056
 20
14.1114088495
 10
11.8126897858
 20
14.0936529188
 10
11.8555841683
 20
14.0786616636
 10
11.9009377531
 20
14.0664350841
 10
11.9494592626
 20
14.0569041618
 10
12.0004399745
 20
14.0501379151
 10
12.0517537209
 20
14.0463433991
 10
12.1032563694
 20
14.0456152457
 10
12.1550920524
 20
14.0478588229
 10
12.2055670004
 20
14.0529972901
 10
12.2548017784
 20
14.0611458044
 10
12.3026758213
 20
14.0721892086
 10
12.3471336639
 20
14.0857051906
 10
12.3879902847
 20
14.1018007673
 10
12.4254307051
 20
14.1203689217
 10
12.4579545246
 20
14.1406662909
 10
12.4853529364
 20
14.1627644962
 10
12.5078347471
 20
14.1865919163
 10
12.5245259763
 20
14.211190325
 10
12.535224238
 20
14.2365417646
 10
12.5401319181
 20
14.2626641927
 10
12.5389821936
 20
14.2886532563
 10
12.5315266418
 20
14.3145916293
 10
12.5180136853
 20
14.3403966377
 10
12.4989217692
 20
14.3649159065
 10
12.4744103752
 20
14.3877653108
 10
12.4443200216
 20
14.4093289755
  0
LWPOLYLINE
  5
607
100
AcDbEntity
  8
IMPORT_IGES
100
AcDbPolyline
 62
253
  6
CONTINUOUS
 90
20
 70
0
 10
11.8429652833
 20
14.2333667289
 10
11.8757209515
 20
14.2189164443
 10
11.9118214853
 20
14.2066188007
 10
11.9507045483
 20
14.1966653578
 10
11.991764461
 20
14.18921116
 10
12.0343616351
 20
14.1843723209
 10
12.0778325364
 20
14.1822242149
 10
12.1215000206
 20
14.182800303
 10
12.1646838816
 20
14.1860916115
 10
12.2067114463
 20
14.1920468717
 10
12.2469280534
 20
14.200573319
 10
12.2847072506
 20
14.2115381372
 10
12.3194605532
 20
14.2247705278
 10
12.3506466107
 20
14.2400643707
 10
12.3777796392
 20
14.2571814342
 10
12.400436989
 20
14.2758550867
 10
12.4182657276
 20
14.2957944496
 10
12.4309881375
 20
14.3166889284
 10
12.4384060423
 20
14.3382130508
 10
12.4404526569
 20
14.3571104155
  0
LWPOLYLINE
  5
608
100
AcDbEntity
  8
RACCORDO
100
AcDbPolyline
 62
253
  6
CONTINUOUS
 90
14
 70
0
 10
-10.7017999263
 20
24.5650914125
 10
-10.709198007
 20
24.5683993063
 10
-10.7167782243
 20
24.5710389598
 10
-10.7246218707
 20
24.5730540717
 10
-10.7327076063
 20
24.5744391597
 10
-10.7410134323
 20
24.5751904554
 10
-10.7495167515
 20
24.5753059147
 10
-10.758194429
 20
24.5747852236
 10
-10.7670228559
 20
24.5736297986
 10
-10.7759780128
 20
24.5718427833
 10
-10.7850355357
 20
24.5694290395
 10
-10.7941707822
 20
24.5663951343
 10
-10.8033588982
 20
24.5627493219
 10
-10.8125748858
 20
24.5585015213
  0
LWPOLYLINE
  5
609
100
AcDbEntity
  8
RACCORDO
100
AcDbPolyline
 62
253
  6
CONTINUOUS
 90
14
 70
0
 10
-12.0391260868
 20
25.2337544927
 10
-12.0465241676
 20
25.2370623866
 10
-12.0541043849
 20
25.2397020401
 10
-12.0619480313
 20
25.241717152
 10
-12.0700337668
 20
25.24310224
 10
-12.0783395929
 20
25.2438535357
 10
-12.086842912
 20
25.243968995
 10
-12.0955205896
 20
25.2434483039
 10
-12.1043490164
 20
25.2422928789
 10
-12.1133041733
 20
25.2405058635
 10
-12.1223616963
 20
25.2380921198
 10
-12.1314969427
 20
25.2350582146
 10
-12.1406850587
 20
25.2314124022
 10
-12.1499010464
 20
25.2271646016
  0
LINE
  5
60A
100
AcDbEntity
  8
IMPORT_IGES
100
AcDbLine
 62
253
  6
CONTINUOUS
 10
12.8437535268
 20
14.9392857294
 11
12.8470982351
 21
14.9377479641
  0
LINE
  5
60B
100
AcDbEntity
  8
IMPORT_IGES
100
AcDbLine
 62
253
  6
CONTINUOUS
 10
15.0566203687
 20
13.8806607036
 11
15.0620865434
 21
13.8781436424
  0
LINE
  5
60C
100
AcDbEntity
  8
IMPORT_IGES
100
AcDbLine
 62
253
  6
CONTINUOUS
 10
16.5068783237
 20
13.2673300222
 11
16.5122838373
 21
13.2648385902
  0
LINE
  5
60D
100
AcDbEntity
  8
IMPORT_IGES
100
AcDbLine
 62
253
  6
CONTINUOUS
 10
17.1778068726
 20
12.9670283236
 11
17.1886399284
 21
12.9620357281
  0
LINE
  5
60E
100
AcDbEntity
  8
IMPORT_IGES
100
AcDbLine
 62
253
  6
CONTINUOUS
 10
15.3393292416
 20
13.8862671392
 11
15.3501622974
 21
13.8812745437
  0
LINE
  5
60F
100
AcDbEntity
  8
IMPORT_IGES
100
AcDbLine
 62
253
  6
CONTINUOUS
 10
14.9468230235
 20
13.8224872818
 11
15.415149484
 21
13.6039854691
  0
LINE
  5
610
100
AcDbEntity
  8
IMPORT_IGES
100
AcDbLine
 62
253
  6
CONTINUOUS
 10
15.4367477115
 20
13.7033421922
 11
15.0620865433
 21
13.8781436424
  0
LWPOLYLINE
  5
611
100
AcDbEntity
  8
RACCORDO
100
AcDbPolyline
 62
7
  6
CONTINUOUS
 90
18
 70
0
 10
-12.0391260868
 20
25.2337544927
 10
-12.0513318991
 20
25.2394516803
 10
-12.0639541778
 20
25.2445304883
 10
-12.0769543676
 20
25.248952389
 10
-12.0903089489
 20
25.2526866617
 10
-12.1039519367
 20
25.2556942481
 10
-12.1177762262
 20
25.257939667
 10
-12.1317073602
 20
25.2594076191
 10
-12.1457160489
 20
25.2600933289
 10
-12.1597655454
 20
25.2599914943
 10
-12.1737978577
 20
25.2590995728
 10
-12.1877704038
 20
25.2574182887
 10
-12.201676263
 20
25.2549430475
 10
-12.215521169
 20
25.2516594215
 10
-12.2292034277
 20
25.2475780848
 10
-12.2425743574
 20
25.2427443792
 10
-12.2555970785
 20
25.2371822625
 10
-12.2604197969
 20
25.2348961581
  0
LWPOLYLINE
  5
612
100
AcDbEntity
  8
RACCORDO
100
AcDbPolyline
 62
253
  6
CONTINUOUS
 90
14
 70
0
 10
-12.1499010464
 20
25.2271646016
 10
-12.1590781539
 20
25.2315097786
 10
-12.1682387724
 20
25.2352532891
 10
-12.177357817
 20
25.238383761
 10
-12.1864121222
 20
25.2408919262
 10
-12.1953748125
 20
25.2427690126
 10
-12.2042156004
 20
25.2440081025
 10
-12.2129083589
 20
25.2446057381
 10
-12.2214312016
 20
25.2445606225
 10
-12.2297609935
 20
25.2438728523
 10
-12.2378750355
 20
25.2425442285
 10
-12.2457508987
 20
25.2405783489
 10
-12.2533667426
 20
25.2379806392
 10
-12.260413157
 20
25.2348993929
  0
LINE
  5
613
100
AcDbEntity
  8
IMPORT_IGES
100
AcDbLine
 62
253
  6
CONTINUOUS
 10
15.1231116772
 20
13.9777078843
 11
15.1614023305
 21
13.9591131713
  0
LINE
  5
614
100
AcDbEntity
  8
IMPORT_IGES
100
AcDbLine
 62
253
  6
CONTINUOUS
 10
15.1614023305
 20
13.9591131713
 11
15.1877207922
 21
13.9461594642
  0
LINE
  5
615
100
AcDbEntity
  8
IMPORT_IGES
100
AcDbLine
 62
253
  6
CONTINUOUS
 10
13.5705068925
 20
14.5760435861
 11
13.5705465771
 21
14.5760237863
  0
LINE
  5
616
100
AcDbEntity
  8
IMPORT_IGES
100
AcDbLine
 62
253
  6
CONTINUOUS
 10
11.7722546056
 20
14.1114088495
 11
5.5945297527
 21
17.2002712757
  0
LINE
  5
617
100
AcDbEntity
  8
IMPORT_IGES
100
AcDbLine
 62
253
  6
CONTINUOUS
 10
5.7235963447
 20
17.2930511982
 11
11.8429652824
 21
14.2333667293
  0
LINE
  5
618
100
AcDbEntity
  8
IMPORT_IGES
100
AcDbLine
 62
253
  6
CONTINUOUS
 10
5.8526629367
 20
17.3858311207
 11
11.9136759616
 21
14.3553246082
  0
LINE
  5
619
100
AcDbEntity
  8
IMPORT_IGES
100
AcDbLine
 62
253
  6
CONTINUOUS
 10
12.2672293522
 20
14.5321013035
 11
6.142733483
 21
17.5943492381
  0
LINE
  5
61A
100
AcDbEntity
  8
IMPORT_IGES
100
AcDbLine
 62
7
  6
CONTINUOUS
 10
12.3119507118
 20
14.5349414822
 11
6.163409361
 21
17.6092121576
  0
LINE
  5
61B
100
AcDbEntity
  8
IMPORT_IGES
100
AcDbLine
 62
253
  6
CONTINUOUS
 10
12.7800127431
 20
14.9334859715
 11
13.5034878625
 21
14.5717518628
  0
LINE
  5
61C
100
AcDbEntity
  8
IMPORT_IGES
100
AcDbLine
 62
7
  6
CONTINUOUS
 10
12.8470982351
 20
14.9377479641
 11
13.5705699077
 21
14.5760121278
  0
LINE
  5
61D
100
AcDbEntity
  8
IMPORT_IGES
100
AcDbLine
 62
253
  6
CONTINUOUS
 10
12.709249518
 20
15.1300282966
 11
6.8146248392
 21
18.0773404365
  0
LINE
  5
61E
100
AcDbEntity
  8
IMPORT_IGES
100
AcDbLine
 62
253
  6
CONTINUOUS
 10
17.1778068726
 20
12.9670283237
 11
15.3393301513
 21
13.8862666843
  0
LINE
  5
61F
100
AcDbEntity
  8
IMPORT_IGES
100
AcDbLine
 62
7
  6
CONTINUOUS
 10
17.1886399284
 20
12.9620357281
 11
15.3501622974
 21
13.8812745437
  0
LINE
  5
620
100
AcDbEntity
  8
IMPORT_IGES
100
AcDbLine
 62
253
  6
CONTINUOUS
 10
6.9418125736
 20
18.1687697363
 11
12.8608453667
 21
15.2092533398
  0
LWPOLYLINE
  5
621
100
AcDbEntity
  8
IMPORT_IGES
100
AcDbPolyline
 62
253
  6
CONTINUOUS
 90
6
 70
0
 10
15.1877207922
 20
13.9461594642
 10
16.5359483815
 20
13.2719836853
 10
16.5565750137
 20
13.2613883968
 10
16.5741634706
 20
13.2521312769
 10
16.5888442093
 20
13.2441416005
 10
16.6004867726
 20
13.2374900926
  0
LWPOLYLINE
  5
622
100
AcDbEntity
  8
IMPORT_IGES
100
AcDbPolyline
 62
253
  6
CONTINUOUS
 90
4
 70
0
 10
15.1231098576
 20
13.9777087941
 10
15.1051174603
 20
13.9868181708
 10
15.0880147793
 20
13.9967871148
 10
15.0716581165
 20
14.0071960191
  0
LWPOLYLINE
  5
623
100
AcDbEntity
  8
IMPORT_IGES
100
AcDbPolyline
 62
253
  6
CONTINUOUS
 90
10
 70
0
 10
17.2622746618
 20
12.5896385919
 10
17.2720553466
 20
12.5845938038
 10
17.280960889
 20
12.5782803952
 10
17.2889912891
 20
12.570698366
 10
17.2961959954
 20
12.5617680389
 10
17.3025255594
 20
12.5515690913
 10
17.3078316355
 20
12.5403405553
 10
17.3120647751
 20
12.5281621082
 10
17.3152744267
 20
12.5149540727
 10
17.3174605905
 20
12.5007164487
  0
LINE
  5
624
100
AcDbEntity
  8
IMPORT_IGES
100
AcDbLine
 62
7
  6
CONTINUOUS
 10
13.5828232267
 20
14.5694792404
 11
13.5705397002
 21
14.5760099171
  0
LWPOLYLINE
  5
625
100
AcDbEntity
  8
IMPORT_IGES
100
AcDbPolyline
 62
7
  6
CONTINUOUS
 90
6
 70
0
 10
12.8471382264
 20
14.9377281736
 10
12.8383389269
 20
14.9424309281
 10
12.8292088431
 20
14.9481571815
 10
12.8232921234
 20
14.9526292902
 10
12.8203577687
 20
14.9553007611
 10
12.8198302522
 20
14.9558563918
  0
LINE
  5
626
100
AcDbEntity
  8
IMPORT_IGES
100
AcDbLine
 62
7
  6
CONTINUOUS
 10
13.5158085873
 20
14.5651575382
 11
13.5034878624
 21
14.5717518628
  0
LINE
  5
627
100
AcDbEntity
  8
IMPORT_IGES
100
AcDbLine
 62
253
  6
CONTINUOUS
 10
12.4443200216
 20
14.4093289755
 11
12.4282351259
 21
14.4184732029
  0
LWPOLYLINE
  5
628
100
AcDbEntity
  8
IMPORT_IGES
100
AcDbPolyline
 62
253
  6
CONTINUOUS
 90
13
 70
0
 10
12.787160544
 20
15.1807627707
 10
12.8007456317
 20
15.1728352083
 10
12.8139568293
 20
15.162854386
 10
12.8265789971
 20
15.150999883
 10
12.8383556088
 20
15.1375473394
 10
12.8491627823
 20
15.1226750618
 10
12.8589630542
 20
15.1063962827
 10
12.8676000848
 20
15.088832359
 10
12.8748130567
 20
15.0703517706
 10
12.8804014844
 20
15.0513415501
 10
12.8842262571
 20
15.0321616161
 10
12.8861903037
 20
15.0131312398
 10
12.8862188649
 20
14.9946059375
  0
LWPOLYLINE
  5
629
100
AcDbEntity
  8
IMPORT_IGES
100
AcDbPolyline
 62
253
  6
CONTINUOUS
 90
3
 70
0
 10
12.2672293522
 20
14.5321013035
 10
12.292246846
 20
14.5171475634
 10
12.3120362499
 20
14.5013598508
  0
LINE
  5
62A
100
AcDbEntity
  8
IMPORT_IGES
100
AcDbLine
 62
7
  6
CONTINUOUS
 10
13.5281005644
 20
14.5577102209
 11
13.5158085873
 21
14.5651575382
  0
LWPOLYLINE
  5
62B
100
AcDbEntity
  8
IMPORT_IGES
100
AcDbPolyline
 62
253
  6
CONTINUOUS
 90
10
 70
0
 10
18.4848275218
 20
10.2127725282
 10
18.4773066729
 20
10.2176184263
 10
18.4694760589
 20
10.2221882893
 10
18.4613663293
 20
10.2264961411
 10
18.4529836663
 20
10.2305965389
 10
18.4443856325
 20
10.2344649468
 10
18.4356837681
 20
10.2379999078
 10
18.4269400501
 20
10.2411808725
 10
18.418163873
 20
10.2440657741
 10
18.4093898752
 20
10.2466729895
  0
LWPOLYLINE
  5
62C
100
AcDbEntity
  8
IMPORT_IGES
100
AcDbPolyline
 62
7
  6
CONTINUOUS
 90
3
 70
0
 10
12.3622790201
 20
14.5035331058
 10
12.338638331
 20
14.5200167046
 10
12.3119507118
 20
14.5349414822
  0
LWPOLYLINE
  5
62D
100
AcDbEntity
  8
IMPORT_IGES
100
AcDbPolyline
 62
253
  6
CONTINUOUS
 90
10
 70
0
 10
18.4093898752
 20
10.2466729895
 10
18.4021395699
 20
10.2520736476
 10
18.3949313304
 20
10.2572055787
 10
18.3877723346
 20
10.2620730342
 10
18.3806875331
 20
10.26668987
 10
18.3736673671
 20
10.2710514191
 10
18.3666674995
 20
10.2751339291
 10
18.3596792743
 20
10.2789326563
 10
18.3527300144
 20
10.2824624354
 10
18.3458305896
 20
10.2857291813
  0
LWPOLYLINE
  5
62E
100
AcDbEntity
  8
IMPORT_IGES
100
AcDbPolyline
 62
7
  6
CONTINUOUS
 90
3
 70
0
 10
12.4004714261
 20
14.4662374915
 10
12.3828826389
 20
14.4855883847
 10
12.3622790201
 20
14.5035331058
  0
LWPOLYLINE
  5
62F
100
AcDbEntity
  8
IMPORT_IGES
100
AcDbPolyline
 62
253
  6
CONTINUOUS
 90
4
 70
0
 10
19.3622205438
 20
6.4376315246
 10
19.3373325922
 20
6.4651084774
 10
19.3110553512
 20
6.4891725502
 10
19.2838384946
 20
6.5094119423
  0
LWPOLYLINE
  5
630
100
AcDbEntity
  8
IMPORT_IGES
100
AcDbPolyline
 62
253
  6
CONTINUOUS
 90
4
 70
0
 10
12.3120362499
 20
14.5013598508
 10
12.326597564
 20
14.4847381659
 10
12.3359880219
 20
14.466907879
 10
12.34015039
 20
14.4482436198
  0
LWPOLYLINE
  5
631
100
AcDbEntity
  8
IMPORT_IGES
100
AcDbPolyline
 62
253
  6
CONTINUOUS
 90
3
 70
0
 10
15.4609725191
 20
13.8258694328
 10
15.4605436515
 20
13.8276342655
 10
15.4478442328
 20
13.8641696068
  0
LWPOLYLINE
  5
632
100
AcDbEntity
  8
IMPORT_IGES
100
AcDbPolyline
 62
253
  6
CONTINUOUS
 90
6
 70
0
 10
15.3038332136
 20
13.9301523433
 10
15.3003628029
 20
13.9456576311
 10
15.2993693721
 20
13.96210638
 10
15.3008831063
 20
13.9789988033
 10
15.3048580113
 20
13.9958216332
 10
15.3111733117
 20
14.0120637165
  0
LWPOLYLINE
  5
633
100
AcDbEntity
  8
IMPORT_IGES
100
AcDbPolyline
 62
253
  6
CONTINUOUS
 90
10
 70
0
 10
17.5962971826
 20
9.9499835403
 10
17.6039672136
 20
9.8885592874
 10
17.6133720588
 20
9.8284896833
 10
17.6245117182
 20
9.7697747278
 10
17.6374023237
 20
9.7123525782
 10
17.6520277433
 20
9.6562850774
 10
17.6683395813
 20
9.6017577535
 10
17.6863217058
 20
9.5488324495
 10
17.7059902487
 20
9.4974473224
 10
17.72734521
 20
9.4476023724
  0
LWPOLYLINE
  5
634
100
AcDbEntity
  8
IMPORT_IGES
100
AcDbPolyline
 62
7
  6
CONTINUOUS
 90
10
 70
0
 10
17.6823885485
 20
10.0886502255
 10
17.6887985512
 20
10.0371740003
 10
17.6966190057
 20
9.9870160993
 10
17.7058227228
 20
9.9382461721
 10
17.7163702522
 20
9.890966664
 10
17.7282347292
 20
9.8451994563
 10
17.7414111921
 20
9.8009018191
 10
17.7558788786
 20
9.7581094119
 10
17.7715925029
 20
9.716919573
 10
17.7885136522
 20
9.6773892427
  0
LINE
  5
635
100
AcDbEntity
  8
IMPORT_IGES
100
AcDbLine
 62
253
  6
CONTINUOUS
 10
16.7927492125
 20
13.7608580073
 11
16.7995755305
 21
13.7007680604
  0
LWPOLYLINE
  5
636
100
AcDbEntity
  8
IMPORT_IGES
100
AcDbPolyline
 62
253
  6
CONTINUOUS
 90
7
 70
0
 10
19.5715401182
 20
10.5377388321
 10
19.571588109
 20
10.5372801386
 10
19.5684325927
 20
10.5336773357
 10
19.5598191911
 20
10.5277280005
 10
19.546009618
 20
10.5196129005
 10
19.5274234703
 20
10.5095786088
 10
19.5046254787
 20
10.4979300125
  0
LINE
  5
637
100
AcDbEntity
  8
IMPORT_IGES
100
AcDbLine
 62
253
  6
CONTINUOUS
 10
19.4682798089
 20
6.1595780244
 11
19.4664677882
 21
6.1943983454
  0
LWPOLYLINE
  5
638
100
AcDbEntity
  8
RACCORDO
100
AcDbPolyline
 62
253
  6
CONTINUOUS
 90
34
 70
0
 10
-3.6358433724
 20
-24.6361998927
 10
-3.6531377042
 20
-24.6450034517
 10
-3.6711631658
 20
-24.6533891175
 10
-3.6898798251
 20
-24.6613383133
 10
-3.7092462189
 20
-24.6688334292
 10
-3.7292194446
 20
-24.6758578611
 10
-3.7497552554
 20
-24.6823960477
 10
-3.7708081579
 20
-24.6884335048
 10
-3.7923315134
 20
-24.6939568578
 10
-3.8142776411
 20
-24.6989538705
 10
-3.8365979233
 20
-24.7034134731
 10
-3.8592429139
 20
-24.7073257862
 10
-3.8821624469
 20
-24.7106821427
 10
-3.9053057485
 20
-24.7134751073
 10
-3.9286215492
 20
-24.7156984928
 10
-3.9520581971
 20
-24.7173473735
 10
-3.9755637728
 20
-24.7184180968
 10
-3.9990862041
 20
-24.7189082906
 10
-4.0225733815
 20
-24.718816869
 10
-4.0459732735
 20
-24.7181440345
 10
-4.0692340422
 20
-24.7168912777
 10
-4.0923041577
 20
-24.7150613739
 10
-4.1151325125
 20
-24.7126583768
 10
-4.1376685346
 20
-24.7096876097
 10
-4.1598622999
 20
-24.706155654
 10
-4.1816646421
 20
-24.702070334
 10
-4.2030272623
 20
-24.6974406998
 10
-4.2239028357
 20
-24.6922770077
 10
-4.2442451163
 20
-24.6865906968
 10
-4.2640090397
 20
-24.680394364
 10
-4.2831508226
 20
-24.6737017362
 10
-4.30162806
 20
-24.6665276396
 10
-4.3193998191
 20
-24.658887967
 10
-4.3364267298
 20
-24.6507996427
  0
LINE
  5
639
100
AcDbEntity
  8
RACCORDO
100
AcDbLine
 62
253
  6
CONTINUOUS
 10
2.5430335594
 20
-22.8288089128
 11
3.2609099823
 21
-22.4746451455
  0
LINE
  5
63A
100
AcDbEntity
  8
RACCORDO
100
AcDbLine
 62
7
  6
CONTINUOUS
 10
2.4083891403
 20
-23.1015838676
 11
3.1300353251
 21
-22.7455602912
  0
LINE
  5
63B
100
AcDbEntity
  8
RACCORDO
100
AcDbLine
 62
253
  6
CONTINUOUS
 10
-12.7653491447
 20
22.8474772249
 11
-12.0541285366
 21
22.698973702
  0
LWPOLYLINE
  5
63C
100
AcDbEntity
  8
ASSI
100
AcDbPolyline
 62
7
  6
CONTINUOUS
 90
16
 70
0
 10
-2.3325398837
 20
24.576207935
 10
-2.3342645935
 20
24.5769601223
 10
-2.3384474587
 20
24.5781495516
 10
-2.3433847873
 20
24.5788541399
 10
-2.3490375418
 20
24.5790924156
 10
-2.3553695885
 20
24.5788716413
 10
-2.3623826098
 20
24.57822149
 10
-2.3700678561
 20
24.5771525065
 10
-2.378382807
 20
24.5756785356
 10
-2.3872865154
 20
24.5738343681
 10
-2.3967491053
 20
24.5716211182
 10
-2.4067379882
 20
24.569054674
 10
-2.4172018472
 20
24.5661887472
 10
-2.428099242
 20
24.5630437119
 10
-2.4394023111
 20
24.5596078862
 10
-2.4510773742
 20
24.5558843283
  0
LWPOLYLINE
  5
63D
100
AcDbEntity
  8
ASSI
100
AcDbPolyline
 62
7
  6
CONTINUOUS
 90
16
 70
0
 10
3.2224447149
 20
21.7987156335
 10
3.221007534
 20
21.7993549482
 10
3.2168991292
 20
21.8005786694
 10
3.2120407601
 20
21.8013198111
 10
3.2064726944
 20
21.8015963075
 10
3.2002308813
 20
21.8014156134
 10
3.1933138515
 20
21.8008085012
 10
3.1857311148
 20
21.7997857762
 10
3.1775248656
 20
21.7983605359
 10
3.168734001
 20
21.7965672671
 10
3.1593877287
 20
21.7944073979
 10
3.1495185704
 20
21.7918963148
 10
3.139176001
 20
21.7890864342
 10
3.1284003773
 20
21.7859977637
 10
3.1172194904
 20
21.782619082
 10
3.1056664983
 20
21.7789535097
  0
LWPOLYLINE
  5
63E
100
AcDbEntity
  8
IMPORT_IGES
100
AcDbPolyline
 62
253
  6
CONTINUOUS
 90
9
 70
0
 10
14.6021362072
 20
15.6899680421
 10
14.5756066045
 20
15.7019701031
 10
14.5323725129
 20
15.7165890624
 10
14.4870665596
 20
15.7261522922
 10
14.4399374336
 20
15.730607299
 10
14.3912438315
 20
15.7299296286
 10
14.3412530377
 20
15.7241230011
 10
14.2902394568
 20
15.7132192894
 10
14.2384831076
 20
15.6972783453
  0
LINE
  5
63F
100
AcDbEntity
  8
0
100
AcDbLine
 62
7
  6
CONTINUOUS
 10
1.7770345472
 20
21.7294959212
 11
-1.0335150997
 21
23.1347707447
  0
LINE
  5
640
100
AcDbEntity
  8
IMPORT_IGES
100
AcDbLine
 62
253
  6
CONTINUOUS
 10
14.2384831074
 20
15.6972783452
 11
7.6215662217
 21
19.005736788
  0
LINE
  5
641
100
AcDbEntity
  8
IMPORT_IGES
100
AcDbLine
 62
7
  6
CONTINUOUS
 10
14.6021362072
 20
15.6899680421
 11
7.7912229533
 21
19.0954246691
  0
LINE
  5
642
100
AcDbEntity
  8
ASSI
100
AcDbLine
 62
253
  6
CONTINUOUS
 10
3.0553244972
 20
21.7583168097
 11
2.4497940626
 21
22.061082027
  0
LINE
  5
643
100
AcDbEntity
  8
ASSI
100
AcDbLine
 62
253
  6
CONTINUOUS
 10
-2.4999534057
 20
24.5359557612
 11
-3.1054838404
 21
24.8387209785
  0
LINE
  5
644
100
AcDbEntity
  8
0
100
AcDbLine
 62
7
  6
CONTINUOUS
 10
3.4275559617
 20
21.6579493715
 11
3.2292605622
 21
21.7570970712
  0
LINE
  5
645
100
AcDbEntity
  8
0
100
AcDbLine
 62
7
  6
CONTINUOUS
 10
2.5622791633
 20
22.0905877707
 11
0.3264168404
 21
23.2085189321
  0
LINE
  5
646
100
AcDbEntity
  8
ASSI
100
AcDbLine
 62
7
  6
CONTINUOUS
 10
3.2221416252
 20
21.7988629875
 11
2.7257533102
 21
22.047057145
  0
LINE
  5
647
100
AcDbEntity
  8
ASSI
100
AcDbLine
 62
7
  6
CONTINUOUS
 10
-2.3328152429
 20
24.5763414215
 11
-2.8292032503
 21
24.8245354253
  0
LINE
  5
648
100
AcDbEntity
  8
RACCORDO
100
AcDbLine
 62
253
  6
CONTINUOUS
 10
-3.4414852923
 20
25.5283265305
 11
-0.3745193484
 21
23.9948435586
  0
LINE
  5
649
100
AcDbEntity
  8
RACCORDO
100
AcDbLine
 62
253
  6
CONTINUOUS
 10
3.8681213387
 20
21.873523215
 11
6.9350872827
 21
20.3400402431
  0
LINE
  5
64A
100
AcDbEntity
  8
RACCORDO
100
AcDbLine
 62
7
  6
CONTINUOUS
 10
4.3091643418
 20
21.8988726816
 11
7.5363430321
 21
20.2852833365
  0
LWPOLYLINE
  5
64B
100
AcDbEntity
  8
IMPORT_IGES
100
AcDbPolyline
 62
7
  6
CONTINUOUS
 90
10
 70
0
 10
14.6021362072
 20
15.6899680421
 10
14.6097308683
 20
15.6860839371
 10
14.6172581006
 20
15.6820598548
 10
14.6247161895
 20
15.677896476
 10
14.632102344
 20
15.6735951733
 10
14.6394160077
 20
15.6691560967
 10
14.6466587532
 20
15.6645779666
 10
14.6538299169
 20
15.6598607219
 10
14.6609267061
 20
15.6550057269
 10
14.6679474352
 20
15.6500137118
  0
LINE
  5
64C
100
AcDbEntity
  8
IMPORT_IGES
100
AcDbLine
 62
7
  6
CONTINUOUS
 10
17.1886399284
 20
12.9620357281
 11
17.2247032704
 21
12.9414324383
  0
LWPOLYLINE
  5
64D
100
AcDbEntity
  8
IMPORT_IGES
100
AcDbPolyline
 62
253
  6
CONTINUOUS
 90
13
 70
0
 10
14.2384831075
 20
15.6972783452
 10
14.2522202701
 20
15.6891989752
 10
14.2655079246
 20
15.6789434986
 10
14.2781187155
 20
15.6666873896
 10
14.2898368686
 20
15.6526403535
 10
14.3004618832
 20
15.637042739
 10
14.3098119622
 20
15.6201614257
 10
14.3177271233
 20
15.6022852575
 10
14.3240719358
 20
15.5837201005
 10
14.3287378382
 20
15.5647836099
 10
14.3316449957
 20
15.5457997941
 10
14.3327436659
 20
15.5270934715
 10
14.3320150504
 20
15.5089847126
  0
LINE
  5
64E
100
AcDbEntity
  8
IMPORT_IGES
100
AcDbLine
 62
253
  6
CONTINUOUS
 10
17.2044034739
 20
12.9508627183
 11
17.1778068725
 21
12.9670283237
  0
LWPOLYLINE
  5
64F
100
AcDbEntity
  8
IMPORT_IGES
100
AcDbPolyline
 62
253
  6
CONTINUOUS
 90
13
 70
0
 10
15.4367477115
 20
13.7033421922
 10
15.4634849165
 20
13.6870744257
 10
15.4875256948
 20
13.666419515
 10
15.5084646627
 20
13.6417481272
 10
15.525950962
 20
13.6135001076
 10
15.539697715
 20
13.5821704823
 10
15.5494837679
 20
13.5482984571
 10
15.5551526389
 20
13.5124696801
 10
15.5566187421
 20
13.4753009382
 10
15.5538675963
 20
13.4374213856
 10
15.5469544218
 20
13.3994743914
 10
15.5360056009
 20
13.3621072022
 10
15.5212155009
 20
13.3259524604
  0
LWPOLYLINE
  5
650
100
AcDbEntity
  8
IMPORT_IGES
100
AcDbPolyline
 62
253
  6
CONTINUOUS
 90
6
 70
0
 10
16.6004867726
 20
13.2374900926
 10
16.6086997885
 20
13.2323889289
 10
16.613434228
 20
13.2288579146
 10
16.6147391199
 20
13.2268772443
 10
16.6123701786
 20
13.2265996777
 10
16.6065509338
 20
13.2279341447
  0
LWPOLYLINE
  5
651
100
AcDbEntity
  8
IMPORT_IGES
100
AcDbPolyline
 62
253
  6
CONTINUOUS
 90
5
 70
0
 10
15.3393292416
 20
13.8862671392
 10
15.3276969634
 20
13.893780535
 10
15.3177111306
 20
13.9038136513
 10
15.3096751577
 20
13.9160616371
 10
15.3038332136
 20
13.9301523433
  0
LWPOLYLINE
  5
652
100
AcDbEntity
  8
IMPORT_IGES
100
AcDbPolyline
 62
7
  6
CONTINUOUS
 90
12
 70
0
 10
16.696709964
 20
14.160900366
 10
16.7565591014
 20
14.1215108792
 10
17.0936790385
 20
13.865959518
 10
17.4231068528
 20
13.5822132645
 10
17.7431252848
 20
13.2719387732
 10
18.0518234987
 20
12.9371383418
 10
18.3473712061
 20
12.5799466817
 10
18.6280901364
 20
12.2025262649
 10
18.8923683736
 20
11.8071492042
 10
19.1386563016
 20
11.3962155538
 10
19.3654943128
 20
10.9722263217
 10
19.5715401182
 20
10.5377388321
  0
LWPOLYLINE
  5
653
100
AcDbEntity
  8
IMPORT_IGES
100
AcDbPolyline
 62
253
  6
CONTINUOUS
 90
3
 70
0
 10
15.0716581165
 20
14.0071960191
 10
15.0397384647
 20
14.0281559091
 10
15.025312274
 20
14.0379587645
  0
LWPOLYLINE
  5
654
100
AcDbEntity
  8
IMPORT_IGES
100
AcDbPolyline
 62
253
  6
CONTINUOUS
 90
4
 70
0
 10
15.025312274
 20
14.0379587645
 10
15.0022496936
 20
14.0542714666
 10
14.9903766137
 20
14.0627635449
 10
14.9770819639
 20
14.0724643866
  0
LINE
  5
655
100
AcDbEntity
  8
IMPORT_IGES
100
AcDbLine
 62
253
  6
CONTINUOUS
 10
14.6859886289
 20
15.4755244129
 11
16.625964078
 21
14.0695371555
  0
LINE
  5
656
100
AcDbEntity
  8
IMPORT_IGES
100
AcDbLine
 62
7
  6
CONTINUOUS
 10
16.6079228842
 20
14.2440264544
 11
14.6679474352
 21
15.6500137118
  0
LINE
  5
657
100
AcDbEntity
  8
IMPORT_IGES
100
AcDbLine
 62
7
  6
CONTINUOUS
 10
17.2247032704
 20
12.9414324383
 11
17.2588297699
 21
12.9165246936
  0
LWPOLYLINE
  5
658
100
AcDbEntity
  8
IMPORT_IGES
100
AcDbPolyline
 62
253
  6
CONTINUOUS
 90
9
 70
0
 10
14.9770819639
 20
14.0724643866
 10
14.9477030774
 20
14.0943010459
 10
14.9313897667
 20
14.1065782154
 10
14.9140283746
 20
14.1197768137
 10
14.8952571938
 20
14.1341774693
 10
14.8752068693
 20
14.1497033062
 10
14.8538765187
 20
14.1663875152
 10
14.8307705371
 20
14.1846664909
 10
14.805818286
 20
14.2046379723
  0
LINE
  5
659
100
AcDbEntity
  8
IMPORT_IGES
100
AcDbLine
 62
253
  6
CONTINUOUS
 10
14.805818286
 20
14.2046379723
 11
14.7513951776
 21
14.2488003034
  0
LWPOLYLINE
  5
65A
100
AcDbEntity
  8
IMPORT_IGES
100
AcDbPolyline
 62
253
  6
CONTINUOUS
 90
8
 70
0
 10
16.625964078
 20
14.0695371555
 10
16.6617404316
 20
14.0394007357
 10
16.6935770312
 20
14.004503794
 10
16.7214738766
 20
13.9648463303
 10
16.7455833853
 20
13.9200538862
 10
16.76575314
 20
13.8705009201
 10
16.7815258882
 20
13.8173108077
 10
16.7927492125
 20
13.7608580073
  0
LWPOLYLINE
  5
65B
100
AcDbEntity
  8
IMPORT_IGES
100
AcDbPolyline
 62
253
  6
CONTINUOUS
 90
3
 70
0
 10
16.8459388248
 20
13.3352998816
 10
16.9059643569
 20
13.2838743478
 10
17.1861341321
 20
13.0164547604
  0
LINE
  5
65C
100
AcDbEntity
  8
IMPORT_IGES
100
AcDbLine
 62
253
  6
CONTINUOUS
 10
17.0939233541
 20
13.4949078039
 11
16.845210144
 21
13.7082866496
  0
LWPOLYLINE
  5
65D
100
AcDbEntity
  8
IMPORT_IGES
100
AcDbPolyline
 62
253
  6
CONTINUOUS
 90
12
 70
0
 10
14.6679474352
 20
15.6500137118
 10
14.679818954
 20
15.63977964
 10
14.6898032842
 20
15.6277718041
 10
14.6979075256
 20
15.6140663827
 10
14.7039930124
 20
15.5988978792
 10
14.7079556203
 20
15.582525831
 10
14.7097275479
 20
15.5652303684
 10
14.7092784771
 20
15.5473074215
 10
14.7066160915
 20
15.5290636568
 10
14.7017859454
 20
15.5108112304
 10
14.6948706838
 20
15.4928624462
 10
14.6859886289
 20
15.4755244129
  0
LWPOLYLINE
  5
65E
100
AcDbEntity
  8
IMPORT_IGES
100
AcDbPolyline
 62
253
  6
CONTINUOUS
 90
12
 70
0
 10
16.6079228843
 20
14.2440264544
 10
16.6197944031
 20
14.2337923826
 10
16.6297787333
 20
14.2217845468
 10
16.6378829747
 20
14.2080791253
 10
16.6439684615
 20
14.1929106219
 10
16.6479310694
 20
14.1765385737
 10
16.649702997
 20
14.159243111
 10
16.6492539262
 20
14.1413201641
 10
16.6465915406
 20
14.1230763995
 10
16.6417613945
 20
14.104823973
 10
16.6348461329
 20
14.0868751888
 10
16.625964078
 20
14.0695371555
  0
LWPOLYLINE
  5
65F
100
AcDbEntity
  8
IMPORT_IGES
100
AcDbPolyline
 62
253
  6
CONTINUOUS
 90
8
 70
0
 10
13.6714514774
 20
14.4948842615
 10
13.6687768883
 20
14.4971990866
 10
13.6631887788
 20
14.4993235549
 10
13.6557366282
 20
14.4997561303
 10
13.6465318972
 20
14.4984415618
 10
13.6357168261
 20
14.4953728075
 10
13.6234389052
 20
14.4905681657
 10
13.609889705
 20
14.4840791475
  0
LWPOLYLINE
  5
660
100
AcDbEntity
  8
IMPORT_IGES
100
AcDbPolyline
 62
7
  6
CONTINUOUS
 90
8
 70
0
 10
17.2588297699
 20
12.9165246936
 10
17.2904585987
 20
12.887469363
 10
17.3189637591
 20
12.854641543
 10
17.3439888317
 20
12.8182849571
 10
17.3653675519
 20
12.7783133256
 10
17.3827209845
 20
12.7348379187
 10
17.3955598025
 20
12.6883787343
 10
17.4035519563
 20
12.6393831339
  0
LINE
  5
661
100
AcDbEntity
  8
IMPORT_IGES
100
AcDbLine
 62
253
  6
CONTINUOUS
 10
14.2129997413
 20
13.7815039707
 11
14.180364706
 21
13.81217076
  0
LINE
  5
662
100
AcDbEntity
  8
IMPORT_IGES
100
AcDbLine
 62
253
  6
CONTINUOUS
 10
17.1861341321
 20
13.0164547604
 11
17.4597327197
 21
12.7276636713
  0
LINE
  5
663
100
AcDbEntity
  8
IMPORT_IGES
100
AcDbLine
 62
253
  6
CONTINUOUS
 10
14.180364706
 20
13.81217076
 11
14.1487865599
 21
13.8459564234
  0
LWPOLYLINE
  5
664
100
AcDbEntity
  8
IMPORT_IGES
100
AcDbPolyline
 62
253
  6
CONTINUOUS
 90
10
 70
0
 10
14.6472072428
 20
13.6726793915
 10
14.6339072636
 20
13.6872740969
 10
14.6198339261
 20
13.699911162
 10
14.605261152
 20
13.7103446208
 10
14.5904725836
 20
13.7183713978
 10
14.5757560636
 20
13.7238352609
 10
14.5613980324
 20
13.7266298622
 10
14.5476779526
 20
13.7267008081
 10
14.5348628701
 20
13.7240467176
 10
14.5270921949
 20
13.7208599744
  0
LWPOLYLINE
  5
665
100
AcDbEntity
  8
IMPORT_IGES
100
AcDbPolyline
 62
7
  6
CONTINUOUS
 90
9
 70
0
 10
13.6714405718
 20
14.4948713289
 10
13.6615983771
 20
14.5060606634
 10
13.6513765932
 20
14.5167635687
 10
13.6407777283
 20
14.526968166
 10
13.6297640658
 20
14.5366921086
 10
13.6183739845
 20
14.5458786808
 10
13.6067327983
 20
14.5544181246
 10
13.5948926889
 20
14.5622775195
 10
13.5828232267
 20
14.5694792404
  0
LWPOLYLINE
  5
666
100
AcDbEntity
  8
IMPORT_IGES
100
AcDbPolyline
 62
7
  6
CONTINUOUS
 90
8
 70
0
 10
13.609889705
 20
14.4840791475
 10
13.598942659
 20
14.4966655261
 10
13.5876847087
 20
14.5086252332
 10
13.5761541541
 20
14.5199183145
 10
13.5643900616
 20
14.5305070998
 10
13.5524324727
 20
14.5403565075
 10
13.5403222669
 20
14.5494341553
 10
13.5281005644
 20
14.5577102209
  0
LWPOLYLINE
  5
667
100
AcDbEntity
  8
IMPORT_IGES
100
AcDbPolyline
 62
253
  6
CONTINUOUS
 90
8
 70
0
 10
17.4597327197
 20
12.7276636713
 10
17.7226664246
 20
12.4217323862
 10
17.9747879722
 20
12.098404321
 10
18.2162446371
 20
11.7579360598
 10
18.4433845474
 20
11.4053286598
 10
18.6549904124
 20
11.0422491402
 10
18.8522795229
 20
10.6670304818
 10
19.0352518788
 20
10.2796726846
  0
LINE
  5
668
100
AcDbEntity
  8
IMPORT_IGES
100
AcDbLine
 62
253
  6
CONTINUOUS
 10
13.6098892716
 20
14.4840796708
 11
14.1487865599
 21
13.8459564234
  0
LINE
  5
669
100
AcDbEntity
  8
IMPORT_IGES
100
AcDbLine
 62
7
  6
CONTINUOUS
 10
13.6714578493
 20
14.4948767231
 11
14.2103553882
 21
13.8567531891
  0
LWPOLYLINE
  5
66A
100
AcDbEntity
  8
IMPORT_IGES
100
AcDbPolyline
 62
253
  6
CONTINUOUS
 90
3
 70
0
 10
17.4790677513
 20
11.9485820385
 10
17.5239508292
 20
11.8939928765
 10
17.7430082434
 20
11.6010203243
  0
LWPOLYLINE
  5
66B
100
AcDbEntity
  8
IMPORT_IGES
100
AcDbPolyline
 62
253
  6
CONTINUOUS
 90
3
 70
0
 10
17.8556639079
 20
11.6851235199
 10
17.6298760017
 20
11.9864929843
 10
17.4511694927
 20
12.2037888808
  0
LWPOLYLINE
  5
66C
100
AcDbEntity
  8
IMPORT_IGES
100
AcDbPolyline
 62
253
  6
CONTINUOUS
 90
4
 70
0
 10
17.2667691241
 20
12.8776448299
 10
17.2492684256
 20
12.9057853281
 10
17.2283606295
 20
12.930331287
 10
17.2044034739
 20
12.9508627183
  0
LWPOLYLINE
  5
66D
100
AcDbEntity
  8
IMPORT_IGES
100
AcDbPolyline
 62
253
  6
CONTINUOUS
 90
19
 70
0
 10
14.8947588595
 20
13.89437632
 10
14.8942904123
 20
13.8951913271
 10
14.8880070923
 20
13.9064973124
 10
14.8814689222
 20
13.918677245
 10
14.874621926
 20
13.931792257
 10
14.8675384285
 20
13.9457534817
 10
14.8601703834
 20
13.9607962922
 10
14.8525322393
 20
13.9768840585
 10
14.8446433606
 20
13.9940190956
 10
14.8364697537
 20
14.0124880597
 10
14.8280616466
 20
14.0322523363
 10
14.8194270573
 20
14.053309066
 10
14.8104832276
 20
14.0759865268
 10
14.8013400974
 20
14.1002214814
 10
14.7919923546
 20
14.1260213406
 10
14.782228376
 20
14.1537890668
 10
14.7720690377
 20
14.1836141282
 10
14.7617407695
 20
14.2153000464
 10
14.7513951777
 20
14.2488003033
  0
LWPOLYLINE
  5
66E
100
AcDbEntity
  8
IMPORT_IGES
100
AcDbPolyline
 62
253
  6
CONTINUOUS
 90
10
 70
0
 10
15.4367477116
 20
13.7033421923
 10
15.4384379036
 20
13.7003065503
 10
15.4390886629
 20
13.6951150688
 10
15.4386947603
 20
13.6878094642
 10
15.4372593609
 20
13.678448441
 10
15.434793999
 20
13.66710722
 10
15.4313184852
 20
13.653876934
 10
15.4268607469
 20
13.6388638956
 10
15.4214566047
 20
13.6221887427
 10
15.4151494837
 20
13.603985469
  0
LINE
  5
66F
100
AcDbEntity
  8
IMPORT_IGES
100
AcDbLine
 62
253
  6
CONTINUOUS
 10
18.4493778515
 20
10.2883840905
 11
18.4313638347
 21
10.326065786
  0
LWPOLYLINE
  5
670
100
AcDbEntity
  8
IMPORT_IGES
100
AcDbPolyline
 62
253
  6
CONTINUOUS
 90
7
 70
0
 10
15.4478442328
 20
13.8641696068
 10
15.4319260046
 20
13.8978552149
 10
15.4129373127
 20
13.9284520577
 10
15.3913231937
 20
13.9552430389
 10
15.3672319934
 20
13.9779891263
 10
15.3405153661
 20
13.9969293522
 10
15.3111733118
 20
14.0120637164
  0
LINE
  5
671
100
AcDbEntity
  8
IMPORT_IGES
100
AcDbLine
 62
253
  6
CONTINUOUS
 10
18.4671994811
 20
10.2506188189
 11
18.4493778515
 21
10.2883840905
  0
LINE
  5
672
100
AcDbEntity
  8
IMPORT_IGES
100
AcDbLine
 62
253
  6
CONTINUOUS
 10
18.4848275218
 20
10.2127725282
 11
18.4671994811
 21
10.2506188189
  0
LWPOLYLINE
  5
673
100
AcDbEntity
  8
IMPORT_IGES
100
AcDbPolyline
 62
253
  6
CONTINUOUS
 90
10
 70
0
 10
18.4313638347
 20
10.326065786
 10
18.4293797758
 20
10.330348749
 10
18.4275315407
 20
10.3346587582
 10
18.4258191294
 20
10.3389958135
 10
18.4242393554
 20
10.3433696271
 10
18.4227954052
 20
10.3477704869
 10
18.4214968388
 20
10.3521692563
 10
18.4203468426
 20
10.3565562232
 10
18.4193422303
 20
10.3609410997
 10
18.4184830016
 20
10.3653238859
  0
LINE
  5
674
100
AcDbEntity
  8
IMPORT_IGES
100
AcDbLine
 62
253
  6
CONTINUOUS
 10
17.72734521
 20
9.4476023724
 11
18.7109770552
 21
7.2747507857
  0
LINE
  5
675
100
AcDbEntity
  8
IMPORT_IGES
100
AcDbLine
 62
7
  6
CONTINUOUS
 10
17.7885136522
 20
9.6773892427
 11
18.7721454975
 21
7.504537656
  0
LWPOLYLINE
  5
676
100
AcDbEntity
  8
IMPORT_IGES
100
AcDbPolyline
 62
253
  6
CONTINUOUS
 90
10
 70
0
 10
18.7109770552
 20
7.2747507857
 10
18.7330797262
 20
7.2218939219
 10
18.7526289373
 20
7.1668492655
 10
18.7696246886
 20
7.1096168166
 10
18.7840935495
 20
7.0500588925
 10
18.7960089505
 20
6.9883131758
 10
18.8052911837
 20
6.9247927142
 10
18.8119136798
 20
6.8596351902
 10
18.815903008
 20
6.7927029213
 10
18.8172591684
 20
6.7239959076
  0
LWPOLYLINE
  5
677
100
AcDbEntity
  8
IMPORT_IGES
100
AcDbPolyline
 62
253
  6
CONTINUOUS
 90
10
 70
0
 10
18.2989714296
 20
10.2783399598
 10
18.309040002
 20
10.2516458041
 10
18.3164660189
 20
10.2247272904
 10
18.3210957092
 20
10.1981418245
 10
18.3228332036
 20
10.1724399148
 10
18.3216425253
 20
10.1481537754
 10
18.3175483352
 20
10.1257863058
 10
18.3106354141
 20
10.1058006732
 10
18.301046907
 20
10.0886107223
 10
18.2889813645
 20
10.0745724079
  0
LWPOLYLINE
  5
678
100
AcDbEntity
  8
IMPORT_IGES
100
AcDbPolyline
 62
253
  6
CONTINUOUS
 90
10
 70
0
 10
19.0352518788
 20
10.2796726846
 10
19.0424226636
 20
10.2590595877
 10
19.0466856006
 20
10.2400183372
 10
19.0480406899
 20
10.222548933
 10
19.0463174891
 20
10.2061013077
 10
19.0416864405
 20
10.1912255288
 10
19.0346588714
 20
10.1795717986
 10
19.025405224
 20
10.1716901845
 10
19.0137550562
 20
10.1670306192
 10
18.9997083677
 20
10.1655931025
  0
LWPOLYLINE
  5
679
100
AcDbEntity
  8
IMPORT_IGES
100
AcDbPolyline
 62
253
  6
CONTINUOUS
 90
9
 70
0
 10
17.7885136522
 20
9.6773892427
 10
17.7977026182
 20
9.6506873445
 10
17.8018937448
 20
9.6226898013
 10
17.8011796874
 20
9.5935112827
 10
17.7955726637
 20
9.5636510411
 10
17.7851686114
 20
9.5336199936
 10
17.7701455468
 20
9.5039319797
 10
17.7507605186
 20
9.4750949695
 10
17.72734521
 20
9.4476023724
  0
LWPOLYLINE
  5
67A
100
AcDbEntity
  8
IMPORT_IGES
100
AcDbPolyline
 62
253
  6
CONTINUOUS
 90
8
 70
0
 10
19.5213362014
 20
10.4549364255
 10
19.5334800661
 20
10.4114817581
 10
19.5407658576
 20
10.3686080719
 10
19.5430188595
 20
10.3273434963
 10
19.540185044
 20
10.2886775738
 10
19.532332367
 20
10.2535375296
 10
19.5196491393
 20
10.2227660372
 10
19.5024395099
 20
10.1971010103
  0
LWPOLYLINE
  5
67B
100
AcDbEntity
  8
IMPORT_IGES
100
AcDbPolyline
 62
253
  6
CONTINUOUS
 90
10
 70
0
 10
18.4184830016
 20
10.3653238859
 10
18.3866565415
 20
10.5185095635
 10
18.3468639724
 20
10.6707372943
 10
18.2991052944
 20
10.8220070782
 10
18.2429953604
 20
10.9732220775
 10
18.1789193174
 20
11.12347913
 10
18.1080326066
 20
11.2700687491
 10
18.0307203749
 20
11.4120877727
 10
17.9465974753
 20
11.550439363
 10
17.8556639079
 20
11.6851235199
  0
LWPOLYLINE
  5
67C
100
AcDbEntity
  8
IMPORT_IGES
100
AcDbPolyline
 62
253
  6
CONTINUOUS
 90
10
 70
0
 10
18.2790264278
 20
10.3440682918
 10
18.2491713519
 20
10.4885167724
 10
18.211195386
 20
10.6337956969
 10
18.1653278122
 20
10.779027936
 10
18.1118455584
 20
10.9233366421
 10
18.0510715266
 20
11.0658505437
 10
17.9833726434
 20
11.2057092053
 10
17.9091576443
 20
11.3420682226
 10
17.8288746066
 20
11.4741043206
 10
17.7430082434
 20
11.6010203243
  0
LWPOLYLINE
  5
67D
100
AcDbEntity
  8
IMPORT_IGES
100
AcDbPolyline
 62
253
  6
CONTINUOUS
 90
10
 70
0
 10
18.4093895835
 20
10.246673024
 10
18.4154713343
 20
10.2172647137
 10
18.4221843425
 20
10.1902906492
 10
18.4293321887
 20
10.1656105084
 10
18.4368914137
 20
10.1426767962
 10
18.4451077973
 20
10.1220493385
 10
18.4537657111
 20
10.1050171514
 10
18.4620037769
 20
10.0917510057
 10
18.4698979223
 20
10.0822068987
 10
18.4778780473
 20
10.0769217521
  0
LWPOLYLINE
  5
67E
100
AcDbEntity
  8
IMPORT_IGES
100
AcDbPolyline
 62
7
  6
CONTINUOUS
 90
3
 70
0
 10
19.5994506673
 20
10.4369807728
 10
19.5896649882
 20
10.4870791073
 10
19.5715401182
 20
10.5377388321
  0
LWPOLYLINE
  5
67F
100
AcDbEntity
  8
IMPORT_IGES
100
AcDbPolyline
 62
253
  6
CONTINUOUS
 90
10
 70
0
 10
18.279026499
 20
10.3440678945
 10
18.2804315718
 20
10.336788494
 10
18.2820463033
 20
10.3294768212
 10
18.2838682096
 20
10.3221441397
 10
18.285894498
 20
10.3148017088
 10
18.2881220421
 20
10.3074608772
 10
18.2905473775
 20
10.3001330654
 10
18.2931667493
 20
10.292829599
 10
18.2959761282
 20
10.2855616916
 10
18.2989711813
 20
10.2783405387
  0
LWPOLYLINE
  5
680
100
AcDbEntity
  8
IMPORT_IGES
100
AcDbPolyline
 62
253
  6
CONTINUOUS
 90
8
 70
0
 10
19.4664677882
 20
6.1943983454
 10
19.4610566294
 20
6.2304383611
 10
19.4521389318
 20
6.2670813303
 10
19.4398673012
 20
6.3037001937
 10
19.424451738
 20
6.3396683047
 10
19.4061560436
 20
6.3743701526
 10
19.3852933065
 20
6.4072118959
 10
19.3622205438
 20
6.4376315246
  0
LWPOLYLINE
  5
681
100
AcDbEntity
  8
RACCORDO
100
AcDbPolyline
 62
7
  6
CONTINUOUS
 90
19
 70
0
 10
2.1392386003
 20
-24.8273420003
 10
2.1454642721
 20
-24.8235233905
 10
2.15141361
 20
-24.8192116383
 10
2.1570731343
 20
-24.8144165132
 10
2.1624299949
 20
-24.8091488924
 10
2.1674720649
 20
-24.8034207049
 10
2.1721879655
 20
-24.7972449085
 10
2.1765669628
 20
-24.790635519
 10
2.180599123
 20
-24.7836075168
 10
2.1842754001
 20
-24.7761767829
 10
2.1875873951
 20
-24.7683601868
 10
2.1905275694
 20
-24.7601754542
 10
2.1930893939
 20
-24.7516410659
 10
2.1952669752
 20
-24.7427764009
 10
2.1970553235
 20
-24.7336015693
 10
2.198450559
 20
-24.7241372745
 10
2.199449517
 20
-24.71440496
 10
2.2000497545
 20
-24.704426761
 10
2.2002498105
 20
-24.6942253312
  0
LWPOLYLINE
  5
682
100
AcDbEntity
  8
RACCORDO
100
AcDbPolyline
 62
253
  6
CONTINUOUS
 90
18
 70
0
 10
2.6648344925
 20
-24.5577752365
 10
2.6704256004
 20
-24.5546616053
 10
2.6771432372
 20
-24.5502160283
 10
2.683514282
 20
-24.5451812324
 10
2.6895212306
 20
-24.5395710295
 10
2.6951475844
 20
-24.5334008178
 10
2.7003779075
 20
-24.5266875205
 10
2.7051978627
 20
-24.5194495356
 10
2.7095942294
 20
-24.5117067093
 10
2.7135549511
 20
-24.5034802687
 10
2.7170691642
 20
-24.4947927699
 10
2.7201272277
 20
-24.485668041
 10
2.7227207566
 20
-24.4761310951
 10
2.7248426361
 20
-24.466208088
 10
2.7264870428
 20
-24.4559262583
 10
2.7276494697
 20
-24.4453138118
 10
2.7283267342
 20
-24.4343998404
 10
2.7285169823
 20
-24.4232142726
  0
LWPOLYLINE
  5
683
100
AcDbEntity
  8
RACCORDO
100
AcDbPolyline
 62
253
  6
CONTINUOUS
 90
18
 70
0
 10
0.5327074845
 20
-25.6101105291
 10
0.5400753938
 20
-25.6061036894
 10
0.5467868922
 20
-25.601656089
 10
0.5531595227
 20
-25.5966154641
 10
0.5591758469
 20
-25.5909956289
 10
0.5648194226
 20
-25.5848119465
 10
0.5700748378
 20
-25.5780812771
 10
0.5749276039
 20
-25.5708221479
 10
0.5793642845
 20
-25.5630546999
 10
0.5833726764
 20
-25.5548004347
 10
0.5869419154
 20
-25.5460818761
 10
0.5900623339
 20
-25.5369227011
 10
0.5927259076
 20
-25.5273458841
 10
0.5949245999
 20
-25.5173796429
 10
0.5966514449
 20
-25.5070578943
 10
0.5979023892
 20
-25.4964118262
 10
0.5986753178
 20
-25.4854690285
 10
0.5989690197
 20
-25.4742599309
  0
LWPOLYLINE
  5
684
100
AcDbEntity
  8
RACCORDO
100
AcDbPolyline
 62
7
  6
CONTINUOUS
 90
22
 70
0
 10
2.6648344925
 20
-24.5577752365
 10
2.6746412279
 20
-24.552464302
 10
2.6856528522
 20
-24.5457976516
 10
2.6963165156
 20
-24.5385660283
 10
2.7066032135
 20
-24.5307868111
 10
2.7164918998
 20
-24.5224725202
 10
2.7259550919
 20
-24.513641539
 10
2.7349633529
 20
-24.5043164468
 10
2.7434927101
 20
-24.4945166778
 10
2.7515175348
 20
-24.4842653708
 10
2.7590120479
 20
-24.4735887845
 10
2.7659531443
 20
-24.4625126751
 10
2.7723181608
 20
-24.4510653107
 10
2.7780859005
 20
-24.4392762375
 10
2.7832372
 20
-24.4271749229
 10
2.7877543407
 20
-24.4147914656
 10
2.791619781
 20
-24.4021608669
 10
2.7948175703
 20
-24.3893217914
 10
2.797335158
 20
-24.3763101451
 10
2.7991621089
 20
-24.3631616723
 10
2.8002896348
 20
-24.3499163249
 10
2.8007148393
 20
-24.3353413042
  0
LINE
  5
685
100
AcDbEntity
  8
RACCORDO
100
AcDbLine
 62
7
  6
CONTINUOUS
 10
2.1361447115
 20
-24.829003102
 11
2.1392386003
 21
-24.8273420003
  0
LINE
  5
686
100
AcDbEntity
  8
RACCORDO
100
AcDbLine
 62
253
  6
CONTINUOUS
 10
2.7285169823
 20
-24.4232142726
 11
2.2002498105
 21
-24.6942253312
  0
LINE
  5
687
100
AcDbEntity
  8
RACCORDO
100
AcDbLine
 62
7
  6
CONTINUOUS
 10
2.6648289447
 20
-24.5577780828
 11
2.1361466812
 21
-24.8290020914
  0
LINE
  5
688
100
AcDbEntity
  8
RACCORDO
100
AcDbLine
 62
7
  6
CONTINUOUS
 10
2.134408294
 20
-24.829871325
 11
2.1361447115
 21
-24.829003102
  0
LINE
  5
689
100
AcDbEntity
  8
RACCORDO
100
AcDbLine
 62
253
  6
CONTINUOUS
 10
2.2002498105
 20
-24.6942253312
 11
0.5989690197
 21
-25.4742599309
  0
LINE
  5
68A
100
AcDbEntity
  8
RACCORDO
100
AcDbLine
 62
7
  6
CONTINUOUS
 10
2.1344055301
 20
-24.8298726714
 11
0.5327074271
 21
-25.610110557
  0
LINE
  5
68B
100
AcDbEntity
  8
RACCORDO
100
AcDbLine
 62
7
  6
CONTINUOUS
 10
2.4083886186
 20
-23.1015841249
 11
2.3979748217
 21
-23.1063323285
  0
LINE
  5
68C
100
AcDbEntity
  8
RACCORDO
100
AcDbLine
 62
253
  6
CONTINUOUS
 10
-2.9546557131
 20
-25.1365155608
 11
2.5430335594
 21
-22.8288089128
  0
LINE
  5
68D
100
AcDbEntity
  8
RACCORDO
100
AcDbLine
 62
7
  6
CONTINUOUS
 10
-3.1084629585
 20
-25.4177112592
 11
2.3979846538
 21
-23.1063282158
  0
LINE
  5
68E
100
AcDbEntity
  8
0
100
AcDbLine
 62
7
  6
CONTINUOUS
 10
0.3264168404
 20
23.2085189321
 11
-1.0335150997
 21
23.1347707447
  0
LWPOLYLINE
  5
68F
100
AcDbEntity
  8
RACCORDO
100
AcDbPolyline
 62
7
  6
CONTINUOUS
 90
18
 70
0
 10
0.0665333687
 20
24.0201772055
 10
0.0469712844
 20
24.0292669385
 10
0.0240755042
 20
24.0382523532
 10
0.0005662179
 20
24.045754586
 10
-0.0235751042
 20
24.0517887558
 10
-0.0482648576
 20
24.0563345402
 10
-0.0735262838
 20
24.0593885236
 10
-0.0993361413
 20
24.0609541216
 10
-0.1255411002
 20
24.0610212582
 10
-0.1521250628
 20
24.0595824822
 10
-0.1791041268
 20
24.0566452449
 10
-0.2063732554
 20
24.0522218236
 10
-0.2339474351
 20
24.046303438
 10
-0.2618116793
 20
24.0388988684
 10
-0.2898159924
 20
24.0300467338
 10
-0.3179103756
 20
24.0197599071
 10
-0.3461448276
 20
24.0080255154
 10
-0.3745193484
 20
23.9948435586
  0
LWPOLYLINE
  5
690
100
AcDbEntity
  8
IMPORT_IGES
100
AcDbPolyline
 62
7
  6
CONTINUOUS
 90
3
 70
0
 10
16.6960380924
 20
14.1618016894
 10
16.6538462579
 20
14.2062067
 10
16.6079228843
 20
14.2440264544
  0
LINE
  5
691
100
AcDbEntity
  8
IMPORT_IGES
100
AcDbLine
 62
7
  6
CONTINUOUS
 10
16.733951902
 20
14.110939887
 11
16.6960380924
 21
14.1618016894
  0
LWPOLYLINE
  5
692
100
AcDbEntity
  8
IMPORT_IGES
100
AcDbPolyline
 62
253
  6
CONTINUOUS
 90
10
 70
0
 10
19.2924934443
 20
10.3918639955
 10
19.105882104
 20
10.7878701793
 10
18.9021884068
 20
11.1754207311
 10
18.6824411366
 20
11.552558272
 10
18.4477501582
 20
11.9173780153
 10
18.1993008115
 20
12.2680373872
 10
17.9383479253
 20
12.6027653328
 10
17.6662094791
 20
12.9198712612
 10
17.3842599467
 20
13.2177535838
 10
17.0939233541
 20
13.4949078039
  0
LWPOLYLINE
  5
693
100
AcDbEntity
  8
IMPORT_IGES
100
AcDbPolyline
 62
253
  6
CONTINUOUS
 90
12
 70
0
 10
19.5046254787
 20
10.4979300125
 10
19.3180141384
 20
10.8939361963
 10
19.1143204412
 20
11.2814867482
 10
18.894573171
 20
11.6586242892
 10
18.6598821925
 20
12.0234440325
 10
18.4114328458
 20
12.3741034044
 10
18.1504799596
 20
12.70883135
 10
17.8783415134
 20
13.0259372784
 10
17.596391981
 20
13.323819601
 10
17.3060553885
 20
13.6009738211
 10
17.008798122
 20
13.8560001318
 10
16.7756283206
 20
14.0344233742
  0
LINE
  5
694
100
AcDbEntity
  8
IMPORT_IGES
100
AcDbLine
 62
253
  6
CONTINUOUS
 10
19.5046254787
 20
10.4979300125
 11
19.5213362014
 21
10.4549364255
  0
LWPOLYLINE
  5
695
100
AcDbEntity
  8
ASSI
100
AcDbPolyline
 62
7
  6
CONTINUOUS
 90
16
 70
0
 10
-3.0545526491
 20
24.8590630834
 10
-3.0424077801
 20
24.8624248001
 10
-3.0296863554
 20
24.8650263356
 10
-3.0163945593
 20
24.86685113
 10
-3.0025328445
 20
24.8678966115
 10
-2.9881182376
 20
24.8681313349
 10
-2.9731865456
 20
24.867496592
 10
-2.9577552604
 20
24.8659699085
 10
-2.9418401066
 20
24.8635426606
 10
-2.9254801855
 20
24.8601796502
 10
-2.9087356745
 20
24.8558766034
 10
-2.8915940267
 20
24.8506118185
 10
-2.8739847093
 20
24.8443195863
 10
-2.8559222375
 20
24.836981668
 10
-2.8374426394
 20
24.828577793
 10
-2.8297723904
 20
24.824824112
  0
ELLIPSE
  5
696
100
AcDbEntity
  8
RACCORDO
100
AcDbEllipse
 62
7
  6
CONTINUOUS
 10
-15.371353702
 20
20.5661227163
 30
0.0
 11
-0.1116009943
 21
0.2239381218
 31
0.0
 40
0.6122032814
 41
-0.6832419393
 42
0.031533549
  0
ELLIPSE
  5
697
100
AcDbEntity
  8
RACCORDO
100
AcDbEllipse
 62
7
  6
CONTINUOUS
 10
-2.3605889281
 20
14.0607403294
 30
0.0
 11
-0.1116009943
 21
0.2239381218
 31
0.0
 40
0.6122032814
 41
-1.759583684
 42
-0.6832419393
  0
ELLIPSE
  5
698
100
AcDbEntity
  8
IMPORT_IGES
100
AcDbEllipse
 62
7
  6
CONTINUOUS
 10
6.184746336
 20
-8.257383997
 30
0.0
 11
0.5384358886
 21
-0.0547002141
 31
0.0
 40
0.1703160628
 41
-0.3632055326
 42
-0.2624835386
  0
ELLIPSE
  5
699
100
AcDbEntity
  8
IMPORT_IGES
100
AcDbEllipse
 62
7
  6
CONTINUOUS
 10
17.0848475545
 20
4.2893029053
 30
0.0
 11
0.2996199708
 21
-0.1851753256
 31
0.0
 40
0.0815198604
 41
0.04869168
 42
0.8357376436
  0
ELLIPSE
  5
69A
100
AcDbEntity
  8
IMPORT_IGES
100
AcDbEllipse
 62
7
  6
CONTINUOUS
 10
5.9373763093
 20
-8.3141318521
 30
0.0
 11
0.3920619587
 21
-0.0495046541
 31
0.0
 40
0.744155334
 41
-1.269334162
 42
-0.8389244363
  0
ELLIPSE
  5
69B
100
AcDbEntity
  8
IMPORT_IGES
100
AcDbEllipse
 62
7
  6
CONTINUOUS
 10
16.3777407733
 20
4.8435591637
 30
0.0
 11
0.0998733236
 21
-0.0617251085
 31
0.0
 40
0.0815198604
 41
0.1003424052
 42
0.8357376436
  0
ELLIPSE
  5
69C
100
AcDbEntity
  8
IMPORT_IGES
100
AcDbEllipse
 62
7
  6
CONTINUOUS
 10
16.7797513327
 20
0.4691159314
 30
0.0
 11
1.0928315712
 21
-0.9651456019
 31
0.0
 40
0.2700310038
 41
5.5155896746
 42
7.0606723592
  0
ELLIPSE
  5
69D
100
AcDbEntity
  8
IMPORT_IGES
100
AcDbEllipse
 62
7
  6
CONTINUOUS
 10
3.9471997654
 20
8.6211481585
 30
0.0
 11
0.4959991763
 21
0.8693232548
 31
0.0
 40
0.6500195766
 41
0.1820502219
 42
0.7203881215
  0
ELLIPSE
  5
69E
100
AcDbEntity
  8
IMPORT_IGES
100
AcDbEllipse
 62
7
  6
CONTINUOUS
 10
6.3756117639
 20
10.7496791914
 30
0.0
 11
0.2999899059
 21
-0.0050528313
 31
0.0
 40
0.4870476356
 41
-1.9904499309
 42
-0.7771948395
  0
ELLIPSE
  5
69F
100
AcDbEntity
  8
IMPORT_IGES
100
AcDbEllipse
 62
7
  6
CONTINUOUS
 10
3.328188716
 20
12.2733907154
 30
0.0
 11
0.2999899059
 21
-0.0050528313
 31
0.0
 40
0.4870476356
 41
-1.7892089969
 42
-0.7771948395
  0
ELLIPSE
  5
6A0
100
AcDbEntity
  8
IMPORT_IGES
100
AcDbEllipse
 62
7
  6
CONTINUOUS
 10
4.5661407916
 20
9.196868678
 30
0.0
 11
0.9919983524
 21
1.7386465091
 31
0.0
 40
0.6500195766
 41
5.9398720091
 42
7.0035734287
  0
ELLIPSE
  5
6A1
100
AcDbEntity
  8
IMPORT_IGES
100
AcDbEllipse
 62
7
  6
CONTINUOUS
 10
5.9513476952
 20
10.5484481761
 30
0.0
 11
0.2999899059
 21
-0.0050528313
 31
0.0
 40
0.4870476356
 41
-0.7771948395
 42
0.0082045976
  0
ELLIPSE
  5
6A2
100
AcDbEntity
  8
IMPORT_IGES
100
AcDbEllipse
 62
7
  6
CONTINUOUS
 10
7.5389060085
 20
9.9496627104
 30
0.0
 11
0.2996199708
 21
-0.1851753256
 31
0.0
 40
0.0815198604
 41
1.5570317333
 42
2.4065339704
  0
ELLIPSE
  5
6A3
100
AcDbEntity
  8
IMPORT_IGES
100
AcDbEllipse
 62
7
  6
CONTINUOUS
 10
4.1556377321
 20
8.7555929533
 30
0.0
 11
0.3679630777
 21
0.7104103382
 31
0.0
 40
0.6229838795
 41
0.6936054221
 42
1.4790035855
  0
ELLIPSE
  5
6A4
100
AcDbEntity
  8
IMPORT_IGES
100
AcDbEllipse
 62
7
  6
CONTINUOUS
 10
-12.0656294999
 20
-8.0847939134
 30
0.0
 11
0.2952573947
 21
0.0837317531
 31
0.0
 40
0.6345570966
 41
-2.5342423105
 42
-0.9634459838
  0
ELLIPSE
  5
6A5
100
AcDbEntity
  8
RACCORDO
100
AcDbEllipse
 62
7
  6
CONTINUOUS
 10
7.4569528411
 20
19.2824507374
 30
0.0
 11
0.499996712
 21
0.0035883639
 31
0.0
 40
0.5053247124
 41
-0.7715714568
 42
-0.0036478305
  0
ELLIPSE
  5
6A6
100
AcDbEntity
  8
ASSI
100
AcDbEllipse
 62
7
  6
CONTINUOUS
 10
-3.1075526856
 20
24.4046931485
 30
0.0
 11
0.2257019663
 21
0.4461636818
 31
0.0
 40
0.6159267166
 41
0.5380090616
 42
0.6817883054
  0
ELLIPSE
  5
6A7
100
AcDbEntity
  8
RACCORDO
100
AcDbEllipse
 62
7
  6
CONTINUOUS
 10
-9.0890633843
 20
-8.7329147721
 30
0.0
 11
0.2205149116
 21
0.4487546221
 31
0.0
 40
0.607010042
 41
0.6892518406
 42
0.6987800003
  0
ELLIPSE
  5
6A8
100
AcDbEntity
  8
RACCORDO
100
AcDbEllipse
 62
7
  6
CONTINUOUS
 10
-9.8891932923
 20
-9.705192116
 30
0.0
 11
0.2205149116
 21
0.4487546221
 31
0.0
 40
0.607010042
 41
0.6892518406
 42
0.7019827992
  0
ELLIPSE
  5
6A9
100
AcDbEntity
  8
RACCORDO
100
AcDbEllipse
 62
7
  6
CONTINUOUS
 10
-8.4396443496
 20
21.8821734798
 30
0.0
 11
0.4999985559
 21
0.0023864752
 31
0.0
 40
0.5035541159
 41
2.3596088132
 42
3.0002042076
  0
ELLIPSE
  5
6AA
100
AcDbEntity
  8
RACCORDO
100
AcDbEllipse
 62
7
  6
CONTINUOUS
 10
2.9073027356
 20
-22.2979074721
 30
0.0
 11
-0.2236445579
 21
0.4471998343
 31
0.0
 40
0.6124778111
 41
-3.1448859382
 42
-2.255529033
  0
ELLIPSE
  5
6AB
100
AcDbEntity
  8
RACCORDO
100
AcDbEllipse
 62
7
  6
CONTINUOUS
 10
2.9073027356
 20
15.6188568584
 30
0.0
 11
-0.2237046003
 21
0.4472532382
 31
0.0
 40
0.6122950388
 41
-2.2557482655
 42
-0.6847996396
  0
ELLIPSE
  5
6AC
100
AcDbEntity
  8
RACCORDO
100
AcDbEllipse
 62
7
  6
CONTINUOUS
 10
-4.1547357415
 20
25.0127887345
 30
0.0
 11
0.9987332359
 21
0.6172510855
 31
0.0
 40
0.0815198604
 41
0.0509898783
 42
0.7263320369
  0
ELLIPSE
  5
6AD
100
AcDbEntity
  8
RACCORDO
100
AcDbEllipse
 62
7
  6
CONTINUOUS
 10
7.635996547
 20
-17.7972449539
 30
0.0
 11
0.9987332359
 21
0.6172510855
 31
0.0
 40
0.0815198604
 41
-2.3978073241
 42
-1.2985018509
  0
ELLIPSE
  5
6AE
100
AcDbEntity
  8
RACCORDO
100
AcDbEllipse
 62
7
  6
CONTINUOUS
 10
-12.229873801
 20
21.9803086633
 30
0.0
 11
0.249929385
 21
0.0111824824
 31
0.0
 40
0.5313301283
 41
-2.3799630874
 42
-0.8149845248
  0
ELLIPSE
  5
6AF
100
AcDbEntity
  8
RACCORDO
100
AcDbEllipse
 62
7
  6
CONTINUOUS
 10
-0.1987679702
 20
15.9647557479
 30
0.0
 11
0.249929385
 21
0.0111824824
 31
0.0
 40
0.5313301283
 41
3.1178369227
 42
3.9032222197
  0
ELLIPSE
  5
6B0
100
AcDbEntity
  8
ASSI
100
AcDbEllipse
 62
7
  6
CONTINUOUS
 10
3.0532795852
 20
21.3242770131
 30
0.0
 11
0.221538876
 21
0.4482453432
 31
0.0
 40
0.6088015717
 41
0.5323082896
 42
0.6760875334
  0
ELLIPSE
  5
6B1
100
AcDbEntity
  8
RACCORDO
100
AcDbEllipse
 62
7
  6
CONTINUOUS
 10
-13.4237214067
 20
-9.0929931113
 30
0.0
 11
0.2267599918
 21
0.4456316896
 31
0.0
 40
0.6176975122
 41
0.6978040307
 42
0.7132373732
  0
ELLIPSE
  5
6B2
100
AcDbEntity
  8
RACCORDO
100
AcDbEllipse
 62
7
  6
CONTINUOUS
 10
-13.4377633469
 20
-7.9309070887
 30
0.0
 11
0.2267599918
 21
0.4456316896
 31
0.0
 40
0.6176975122
 41
0.6978040307
 42
0.7105349894
  0
ELLIPSE
  5
6B3
100
AcDbEntity
  8
RACCORDO
100
AcDbEllipse
 62
7
  6
CONTINUOUS
 10
-14.2509361453
 20
-7.5243206896
 30
0.0
 11
0.2267599918
 21
0.4456316896
 31
0.0
 40
0.6176975122
 41
0.6978040307
 42
0.7105350355
  0
ELLIPSE
  5
6B4
100
AcDbEntity
  8
RACCORDO
100
AcDbEllipse
 62
7
  6
CONTINUOUS
 10
-14.2642086869
 20
-6.1453421208
 30
0.0
 11
0.2267599918
 21
0.4456316896
 31
0.0
 40
0.6176975122
 41
0.6978040307
 42
0.7073321904
  0
ELLIPSE
  5
6B5
100
AcDbEntity
  8
RACCORDO
100
AcDbEllipse
 62
7
  6
CONTINUOUS
 10
-16.2441076742
 20
-5.1553926271
 30
0.0
 11
0.2267599918
 21
0.4456316896
 31
0.0
 40
0.6176975122
 41
0.6978040307
 42
0.7073323213
  0
ELLIPSE
  5
6B6
100
AcDbEntity
  8
DRAFT
100
AcDbEllipse
 62
7
  6
CONTINUOUS
 10
2.8012905745
 20
20.7023497569
 30
0.0
 11
0.4279673669
 21
-0.0030279657
 31
0.0
 40
0.4946372042
 41
-0.7760807437
 42
0.0034305001
  0
ELLIPSE
  5
6B7
100
AcDbEntity
  8
DRAFT
100
AcDbEllipse
 62
7
  6
CONTINUOUS
 10
-2.7536978546
 20
23.4798439715
 30
0.0
 11
0.4279673669
 21
-0.0030279657
 31
0.0
 40
0.4946372042
 41
-0.7818985079
 42
0.0034334511
  0
ELLIPSE
  5
6B8
100
AcDbEntity
  8
RACCORDO
100
AcDbEllipse
 62
7
  6
CONTINUOUS
 10
7.4569528411
 20
-18.0064652728
 30
0.0
 11
0.499366618
 21
0.3086255427
 31
0.0
 40
0.0815198604
 41
6.1080157147
 42
7.0007906979
  0
ELLIPSE
  5
6B9
100
AcDbEntity
  8
RACCORDO
100
AcDbEllipse
 62
7
  6
CONTINUOUS
 10
7.4569528411
 20
20.2127933963
 30
0.0
 11
-0.3708957
 21
0.6001218488
 31
0.0
 40
0.5587454355
 41
-3.1744788413
 42
-2.2817038581
  0
ELLIPSE
  5
6BA
100
AcDbEntity
  8
RACCORDO
100
AcDbEllipse
 62
7
  6
CONTINUOUS
 10
7.4569528411
 20
-17.076122614
 30
0.0
 11
0.4999969381
 21
-0.0035375912
 31
0.0
 40
0.4946372042
 41
-0.7644452153
 42
0.7888978189
  0
ELLIPSE
  5
6BB
100
AcDbEntity
  8
RACCORDO
100
AcDbEllipse
 62
7
  6
CONTINUOUS
 10
-8.4396443496
 20
20.6495638746
 30
0.0
 11
0.4998587701
 21
0.0223649649
 31
0.0
 40
0.5313301283
 41
3.1178197826
 42
3.9032222197
  0
ELLIPSE
  5
6BC
100
AcDbEntity
  8
RACCORDO
100
AcDbEllipse
 62
7
  6
CONTINUOUS
 10
-2.9283372499
 20
19.12651993
 30
0.0
 11
0.4999985559
 21
0.0023864752
 31
0.0
 40
0.5035541159
 41
-1.4342147631
 42
-0.7936193687
  0
ELLIPSE
  5
6BD
100
AcDbEntity
  8
RACCORDO
100
AcDbEllipse
 62
7
  6
CONTINUOUS
 10
-2.9283372499
 20
17.8939103248
 30
0.0
 11
0.4998587701
 21
0.0223649649
 31
0.0
 40
0.5313301283
 41
-2.3799630874
 42
-0.8149845248
  0
ELLIPSE
  5
6BE
100
AcDbEntity
  8
RACCORDO
100
AcDbEllipse
 62
7
  6
CONTINUOUS
 10
-13.5630861346
 20
22.6469148301
 30
0.0
 11
0.249929385
 21
0.0111824824
 31
0.0
 40
0.5313301283
 41
3.1179086008
 42
3.9032222197
  0
ELLIPSE
  5
6BF
100
AcDbEntity
  8
RACCORDO
100
AcDbEllipse
 62
7
  6
CONTINUOUS
 10
7.635996547
 20
19.1174225903
 30
0.0
 11
-0.7417913999
 21
1.2002436976
 31
0.0
 40
0.5587454355
 41
5.1248137075
 42
6.2241191807
  0
ELLIPSE
  5
6C0
100
AcDbEntity
  8
RACCORDO
100
AcDbEllipse
 62
7
  6
CONTINUOUS
 10
1.1344443634
 20
15.2981495811
 30
0.0
 11
0.249929385
 21
0.0111824824
 31
0.0
 40
0.5313301283
 41
-2.3799630874
 42
-1.3352760237
  0
ENDSEC
  0
SECTION
  2
OBJECTS
  0
DICTIONARY
  5
C
100
AcDbDictionary
280
0
281
1
  3
ACAD_GROUP
350
D
  3
ACAD_MLINESTYLE
350
17
  3
ACAD_LAYOUT
350
1A
  3
ACAD_PLOTSETTINGS
350
19
  3
ACAD_PLOTSTYLENAME
350
E
  0
DICTIONARY
  5
D
102
{ACAD_REACTORS
330
C
102
}
100
AcDbDictionary
280
0
281
1
  0
ACDBDICTIONARYWDFLT
  5
E
102
{ACAD_REACTORS
330
C
102
}
100
AcDbDictionary
281
1
  3
Normal
350
F
100
AcDbDictionaryWithDefault
340
F
  0
DICTIONARY
  5
17
102
{ACAD_REACTORS
330
C
102
}
100
AcDbDictionary
280
0
281
1
  3
Standard
350
18
  0
DICTIONARY
  5
19
102
{ACAD_REACTORS
330
C
102
}
100
AcDbDictionary
281
1
  0
DICTIONARY
  5
1A
102
{ACAD_REACTORS
330
C
102
}
100
AcDbDictionary
281
1
  3
Model
350
6C1
  3
Layout1
350
6C2
  0
ACDBPLACEHOLDER
  5
F
102
{ACAD_REACTORS
330
E
102
}
  0
MLINESTYLE
  5
18
102
{ACAD_REACTORS
330
17
102
}
100
AcDbMlineStyle
  2
STANDARD
 70
0
  3

 62
256
 51
90.0
 52
90.0
 71
2
 49
0.5
 62
256
  6
BYLAYER
 49
-0.5
 62
256
  6
BYLAYER
  0
LAYOUT
  5
6C1
102
{ACAD_REACTORS
330
1A
102
}
100
AcDbPlotSettings
  1

  2
none_device
  4
ISO_A4_(297.00_x_210.00_MM)
  6

 40
0.0
 41
0.0
 42
0.0
 43
0.0
 44
297.0
 45
210.0
 46
0.0
 47
0.0
 48
0.0
 49
0.0
140
0.0
141
0.0
142
1.0
143
1.0
 70
1024
 72
1
 73
0
 74
0
  7

 75
0
147
1.0
148
0.0
149
0.0
100
AcDbLayout
  1
Model
 70
0
 71
0
 10
0.0
 20
0.0
 11
297.0
 21
210.0
 12
0.0
 22
0.0
 32
0.0
 14
0.0
 24
0.0
 34
0.0
 15
0.0
 25
0.0
 35
0.0
146
0.0
 13
0.0
 23
0.0
 33
0.0
 16
1.0
 26
0.0
 36
0.0
 17
0.0
 27
1.0
 37
0.0
 76
0
330
21D
345
0
346
0
  0
LAYOUT
  5
6C2
102
{ACAD_REACTORS
330
1A
102
}
100
AcDbPlotSettings
  1

  2
none_device
  4
ISO_A4_(297.00_x_210.00_MM)
  6

 40
0.0
 41
0.0
 42
0.0
 43
0.0
 44
297.0
 45
210.0
 46
0.0
 47
0.0
 48
0.0
 49
0.0
140
0.0
141
0.0
142
1.0
143
1.0
 70
0
 72
1
 73
0
 74
0
  7

 75
0
147
1.0
148
0.0
149
0.0
100
AcDbLayout
  1
Layout1
 70
0
 71
1
 10
0.0
 20
0.0
 11
297.0
 21
210.0
 12
0.0
 22
0.0
 32
0.0
 14
0.0
 24
0.0
 34
0.0
 15
0.0
 25
0.0
 35
0.0
146
0.0
 13
0.0
 23
0.0
 33
0.0
 16
1.0
 26
0.0
 36
0.0
 17
0.0
 27
1.0
 37
0.0
 76
0
330
21E
345
0
346
0
  0
ENDSEC
  0
EOF
